  0
SECTION
  2
HEADER
  9
$EXTMAX
 10
594.0
 20
420.0
 30
0.0
  9
$EXTMIN
 10
0.0
 20
0.0
 30
0.0
  9
$LIMMIN
 10
0.0
 20
0.0
  9
$LIMMAX
 10
594.0
 20
420.0
  9
$VIEWCTR
 10
297.0
 20
210.0
  9
$VIEWSIZE
 40
420.0
  9
$CLAYER
  8
0
  9
$LTSCALE
 40
32.67
  9
$CELTYPE
  6
BYLAYER
  9
$DIMSCALE
 40
1.0
  9
$DIMASZ
 40
3.5
  9
$DIMEXO
 40
1.0
  9
$DIMDLI
 40
22.572
  9
$DIMEXE
 40
2.0
  9
$DIMCEN
 40
5.346
  9
$DIMLFAC
 40
1.0
  9
$DIMBLK
  1
_FILLED
  9
$DIMTXT
 40
3.5
  9
$PDMODE
 70
3
  9
$PDSIZE
 40
0.3125
  9
$TILEMODE
 70
1
  0
ENDSEC
  0
SECTION
  2
TABLES
  0
TABLE
  2
LTYPE
 70
6
  0
LTYPE
  2
BYBLOCK
 70
0
  3

 72
65
 73
0
 40
0.0
  0
LTYPE
  2
BYLAYER
 70
0
  3

 72
65
 73
0
 40
0.0
  0
LTYPE
  2
CONTINUOUS
 70
64
  3
Solid line
 72
65
 73
0
 40
0.0
  0
LTYPE
  2
CENTER
 70
64
  3
____ _ ____ _ ____ _ ____ _ ____ _ ____ _ ____
 72
65
 73
4
 40
0.6
 49
0.375
 49
-0.075
 49
0.075
 49
-0.075
  0
LTYPE
  2
HIDDEN
 70
64
  3
- - - - - - - - - - - - - - - - - - - -
 72
65
 73
2
 40
0.2
 49
0.1
 49
-0.1
  0
LTYPE
  2
PHANTOM
 70
64
  3
_____ _ _ _____ _ _ _____ _ _ _____
 72
65
 73
6
 40
0.8
 49
0.45
 49
-0.05
 49
0.1
 49
-0.05
 49
0.1
 49
-0.05
  0
LTYPE
  2
DOT
 70
64
  3
. . . . . . . . . . . . . . . . . . . .
 72
65
 73
2
 40
0.2
 49
0.1
 49
-0.1
  0
LTYPE
  2
DASHED
 70
64
  3
- - - - - - - - - - - - - - - - - - - -
 72
65
 73
2
 40
0.2
 49
0.1
 49
-0.1
  0
ENDTAB
  0
TABLE
  2
LAYER
 70
36
  0
LAYER
  2
0
 70
0
 62
7
  6
CONTINUOUS
  0
LAYER
  2
DEFAULT_1
 70
0
 62
7
  6
CENTER
  0
LAYER
  2
DEFAULT_2
 70
0
 62
8
  6
HIDDEN
  0
LAYER
  2
DEFAULT_3
 70
0
 62
7
  6
PHANTOM
  0
LAYER
  2
CSYS
 70
0
 62
7
  6
CONTINUOUS
  0
LAYER
  2
CURVE
 70
0
 62
7
  6
CONTINUOUS
  0
LAYER
  2
SURFACE
 70
0
 62
7
  6
CONTINUOUS
  0
ENDTAB
  0
TABLE
  2
STYLE
 70
1
  0
STYLE
  2
STANDARD
 70
0
 40
0.0
 41
0.8
 50
0.0
 71
0
 42
0.2
  3
txt
  4

  0
STYLE
  2
TEXTSTYLE_1
 70
0
 40
0.0
 41
0.8
 50
0.0
 71
0
 42
0.2
  3
gdt
  4

  0
STYLE
  2
TEXTSTYLE_2
 70
0
 40
0.0
 41
0.6
 50
0.0
 71
0
 42
0.2
  3
txt
  4

  0
STYLE
  2
TEXTSTYLE_3
 70
0
 40
0.0
 41
1.0
 50
0.0
 71
0
 42
0.2
  3
ftb_____.ttf
  4

  0
STYLE
  2
TEXTSTYLE_4
 70
0
 40
0.0
 41
1.0
 50
0.0
 71
0
 42
0.2
  3
fti_____.ttf
  4

  0
STYLE
  2
TEXTSTYLE_5
 70
0
 40
0.0
 41
1.0
 50
0.0
 71
0
 42
0.2
  3
frutiger light.ttf
  4

  0
STYLE
  2
TEXTSTYLE_6
 70
0
 40
0.0
 41
0.7
 50
0.0
 71
0
 42
0.2
  3
txt
  4

  0
STYLE
  2
TEXTSTYLE_7
 70
0
 40
0.0
 41
0.8
 50
0.0
 71
0
 42
0.2
  3
txt
  4

  0
ENDTAB
  0
ENDSEC
  0
SECTION
  2
BLOCKS
  0
BLOCK
  8
0
 62
2
  6
CONTINUOUS
  2
SYMBOL_3_BL1
 70
64
 10
557.4079930916
 20
35.8092573885
  0
TEXT
  8
0
 62
7
  6
CONTINUOUS
 10
548.4662781001
 20
30.9020137655
  7
TEXTSTYLE_4
 40
1.0655737705
  1
The brand for plastic modular belts and chains
 41
1.0
 72
0
  0
LINE
  8
0
 62
7
  6
CONTINUOUS
 10
533.3860614807
 20
36.3830278803
 11
533.3860614807
 21
34.2518803393
  0
LINE
  8
0
 62
7
  6
CONTINUOUS
 10
533.6751239738
 20
31.2609490436
 11
533.6751239738
 21
31.3577401029
  0
LINE
  8
0
 62
7
  6
CONTINUOUS
 10
533.3860614807
 20
31.3254764164
 11
533.4438739824
 21
31.1318942979
  0
LINE
  8
0
 62
7
  6
CONTINUOUS
 10
534.7795041036
 20
34.1699131262
 11
534.7795041036
 21
36.3830278803
  0
LINE
  8
0
 62
7
  6
CONTINUOUS
 10
535.6985614255
 20
32.3256508311
 11
535.6985614255
 21
30.8092573885
  0
LINE
  8
0
 62
7
  6
CONTINUOUS
 10
535.9876239807
 20
30.8092573885
 11
535.9876239807
 21
31.5513222666
  0
LINE
  8
0
 62
7
  6
CONTINUOUS
 10
535.9876239807
 20
31.6803770123
 11
535.9876239807
 21
32.3256508311
  0
LINE
  8
0
 62
7
  6
CONTINUOUS
 10
533.4438739824
 20
31.5190585802
 11
533.3860614807
 21
31.3254764164
  0
LINE
  8
0
 62
7
  6
CONTINUOUS
 10
533.7907489669
 20
31.0996306115
 11
533.6751239738
 21
31.2609490436
  0
LINE
  8
0
 62
7
  6
CONTINUOUS
 10
534.8891865358
 20
31.6158496394
 11
534.9469989807
 21
31.5190585802
  0
LINE
  8
0
 62
7
  6
CONTINUOUS
 10
535.2360615358
 20
31.5190585802
 11
535.1782489255
 21
31.6481133259
  0
LINE
  8
0
 62
7
  6
CONTINUOUS
 10
536.6647500053
 20
36.3830278803
 11
536.6647500053
 21
34.5797491918
  0
LINE
  8
0
 62
7
  6
CONTINUOUS
 10
536.6647500053
 20
33.2682737819
 11
536.6647500053
 21
32.612536077
  0
LINE
  8
0
 62
7
  6
CONTINUOUS
 10
537.0282489807
 20
31.4545312073
 11
537.0282489807
 21
30.8092573885
  0
LINE
  8
0
 62
7
  6
CONTINUOUS
 10
537.3173113704
 20
30.8092573885
 11
537.3173113704
 21
31.4545312073
  0
LINE
  8
0
 62
7
  6
CONTINUOUS
 10
533.6751239738
 20
31.3577401029
 11
533.7329364807
 21
31.4867948937
  0
LINE
  8
0
 62
7
  6
CONTINUOUS
 10
533.4438739824
 20
31.1318942979
 11
533.5594989807
 21
31.0028395296
  0
LINE
  8
0
 62
7
  6
CONTINUOUS
 10
536.9704363704
 20
31.583585953
 11
537.0282489807
 21
31.4545312073
  0
LINE
  8
0
 62
7
  6
CONTINUOUS
 10
537.7798115909
 20
31.0996306115
 11
537.8376238704
 21
30.9705758432
  0
LINE
  8
0
 62
7
  6
CONTINUOUS
 10
537.3173113704
 20
31.4545312073
 11
537.2594990909
 21
31.6158496394
  0
LINE
  8
0
 62
7
  6
CONTINUOUS
 10
537.7798115909
 20
31.6481133259
 11
537.7798115909
 21
31.583585953
  0
LINE
  8
0
 62
7
  6
CONTINUOUS
 10
537.7798115909
 20
31.1964216708
 11
537.7798115909
 21
31.0996306115
  0
LINE
  8
0
 62
7
  6
CONTINUOUS
 10
538.0581926282
 20
32.612536077
 11
538.0581926282
 21
36.3830278803
  0
LINE
  8
0
 62
7
  6
CONTINUOUS
 10
538.0688739807
 20
31.0673669025
 11
538.0688739807
 21
31.1318942979
  0
LINE
  8
0
 62
7
  6
CONTINUOUS
 10
538.3860614807
 20
36.3830278803
 11
538.3860614807
 21
32.612536077
  0
LINE
  8
0
 62
7
  6
CONTINUOUS
 10
535.1782489255
 20
31.0028395296
 11
535.2360615358
 21
31.1318942979
  0
LINE
  8
0
 62
7
  6
CONTINUOUS
 10
539.5719992012
 20
30.9060484591
 11
539.5141862601
 21
31.0673669025
  0
LINE
  8
0
 62
7
  6
CONTINUOUS
 10
539.2251242012
 20
31.583585953
 11
539.2251242012
 21
31.4867948937
  0
LINE
  8
0
 62
7
  6
CONTINUOUS
 10
539.2251242012
 20
31.3577401029
 11
539.2251242012
 21
31.1641579843
  0
LINE
  8
0
 62
7
  6
CONTINUOUS
 10
539.5141862601
 20
31.0673669025
 11
539.5141862601
 21
31.583585953
  0
LINE
  8
0
 62
7
  6
CONTINUOUS
 10
539.7795041036
 20
32.612536077
 11
539.7795041036
 21
34.4158147655
  0
LINE
  8
0
 62
7
  6
CONTINUOUS
 10
539.7795041036
 20
35.7272901754
 11
539.7795041036
 21
36.3830278803
  0
LINE
  8
0
 62
7
  6
CONTINUOUS
 10
540.0923117012
 20
32.3256508311
 11
540.0923117012
 21
32.164332399
  0
LINE
  8
0
 62
7
  6
CONTINUOUS
 10
540.0923117012
 20
31.8416954444
 11
540.0923117012
 21
30.8092573885
  0
LINE
  8
0
 62
7
  6
CONTINUOUS
 10
540.3813737601
 20
30.8092573885
 11
540.3813737601
 21
31.8416954444
  0
LINE
  8
0
 62
7
  6
CONTINUOUS
 10
540.3813737601
 20
32.164332399
 11
540.3813737601
 21
32.3256508311
  0
LINE
  8
0
 62
7
  6
CONTINUOUS
 10
534.9469989807
 20
31.1318942979
 11
534.8891865358
 21
31.035103216
  0
LINE
  8
0
 62
7
  6
CONTINUOUS
 10
537.2594990909
 20
31.6158496394
 11
537.2016864807
 21
31.6803770123
  0
LINE
  8
0
 62
7
  6
CONTINUOUS
 10
538.1266865909
 20
31.0028395296
 11
538.0688739807
 21
31.0673669025
  0
LINE
  8
0
 62
7
  6
CONTINUOUS
 10
539.2829364807
 20
30.873784767
 11
539.3407487601
 21
30.8092573885
  0
LINE
  8
0
 62
7
  6
CONTINUOUS
 10
539.2251242012
 20
30.9705758432
 11
539.2829364807
 21
30.873784767
  0
LINE
  8
0
 62
7
  6
CONTINUOUS
 10
539.6298114807
 20
30.8092573885
 11
539.5719992012
 21
30.9060484591
  0
LINE
  8
0
 62
7
  6
CONTINUOUS
 10
539.5141862601
 20
31.583585953
 11
539.4563739807
 21
31.6803770123
  0
LINE
  8
0
 62
7
  6
CONTINUOUS
 10
540.8438739807
 20
31.8416954444
 11
540.8438739807
 21
30.8092573885
  0
LINE
  8
0
 62
7
  6
CONTINUOUS
 10
541.1329367012
 20
30.8092573885
 11
541.1329367012
 21
31.5513222666
  0
LINE
  8
0
 62
7
  6
CONTINUOUS
 10
541.1329367012
 20
31.6803770123
 11
541.1329367012
 21
31.8416954444
  0
LINE
  8
0
 62
7
  6
CONTINUOUS
 10
541.6647500053
 20
34.8256508311
 11
541.6647500053
 21
32.612536077
  0
LINE
  8
0
 62
7
  6
CONTINUOUS
 10
533.5594989807
 20
31.6481133259
 11
533.4438739824
 21
31.5190585802
  0
LINE
  8
0
 62
7
  6
CONTINUOUS
 10
533.7329364807
 20
31.4867948937
 11
533.7907489669
 21
31.5513222666
  0
LINE
  8
0
 62
7
  6
CONTINUOUS
 10
533.5594989807
 20
31.0028395296
 11
533.6751239738
 21
30.9383121455
  0
LINE
  8
0
 62
7
  6
CONTINUOUS
 10
533.9641864669
 20
31.0028395296
 11
533.7907489669
 21
31.0996306115
  0
LINE
  8
0
 62
7
  6
CONTINUOUS
 10
539.1673112601
 20
31.6481133259
 11
539.2251242012
 21
31.583585953
  0
LINE
  8
0
 62
7
  6
CONTINUOUS
 10
542.1157487601
 20
31.583585953
 11
542.1735617012
 21
31.4222675209
  0
LINE
  8
0
 62
7
  6
CONTINUOUS
 10
542.4626237601
 20
31.4222675209
 11
542.4048114807
 21
31.583585953
  0
LINE
  8
0
 62
7
  6
CONTINUOUS
 10
542.1735617012
 20
31.4222675209
 11
542.1735617012
 21
30.8092573885
  0
LINE
  8
0
 62
7
  6
CONTINUOUS
 10
542.4626237601
 20
30.8092573885
 11
542.4626237601
 21
31.4222675209
  0
LINE
  8
0
 62
7
  6
CONTINUOUS
 10
542.9251239807
 20
31.6481133259
 11
542.9251239807
 21
31.583585953
  0
LINE
  8
0
 62
7
  6
CONTINUOUS
 10
543.0581926282
 20
32.612536077
 11
543.0581926282
 21
34.743683618
  0
LINE
  8
0
 62
7
  6
CONTINUOUS
 10
543.3860614807
 20
36.3830278803
 11
543.3860614807
 21
32.612536077
  0
LINE
  8
0
 62
7
  6
CONTINUOUS
 10
538.0688739807
 20
31.1318942979
 11
538.1266865909
 21
31.2286853572
  0
LINE
  8
0
 62
7
  6
CONTINUOUS
 10
533.6751239738
 20
30.9383121455
 11
533.8485614944
 21
30.873784767
  0
LINE
  8
0
 62
7
  6
CONTINUOUS
 10
535.1782489255
 20
31.6481133259
 11
535.0048114255
 21
31.7449043851
  0
LINE
  8
0
 62
7
  6
CONTINUOUS
 10
537.8376238704
 20
30.9705758432
 11
538.0110613704
 21
30.873784767
  0
LINE
  8
0
 62
7
  6
CONTINUOUS
 10
536.8548114807
 20
31.6481133259
 11
536.9704363704
 21
31.583585953
  0
LINE
  8
0
 62
7
  6
CONTINUOUS
 10
537.2016864807
 20
31.6803770123
 11
537.0860615909
 21
31.7449043851
  0
LINE
  8
0
 62
7
  6
CONTINUOUS
 10
542.9251239807
 20
31.0673669025
 11
543.0407492012
 21
30.9383121455
  0
LINE
  8
0
 62
7
  6
CONTINUOUS
 10
543.2719989807
 20
31.0028395296
 11
543.2141867012
 21
31.0673669025
  0
LINE
  8
0
 62
7
  6
CONTINUOUS
 10
542.9251239807
 20
31.583585953
 11
543.0407492012
 21
31.4545312073
  0
LINE
  8
0
 62
7
  6
CONTINUOUS
 10
542.4048114807
 20
31.583585953
 11
542.3469992012
 21
31.6803770123
  0
LINE
  8
0
 62
7
  6
CONTINUOUS
 10
544.7751235396
 20
31.0028395296
 11
544.7751235396
 21
31.0673669025
  0
LINE
  8
0
 62
7
  6
CONTINUOUS
 10
544.7795041036
 20
32.612536077
 11
544.7795041036
 21
36.3830278803
  0
LINE
  8
0
 62
7
  6
CONTINUOUS
 10
537.8376238704
 20
31.7126406987
 11
537.7798115909
 21
31.6481133259
  0
LINE
  8
0
 62
7
  6
CONTINUOUS
 10
534.7157489531
 20
31.6803770123
 11
534.8891865358
 21
31.6158496394
  0
LINE
  8
0
 62
7
  6
CONTINUOUS
 10
539.4563739807
 20
31.6803770123
 11
539.3407487601
 21
31.7449043851
  0
LINE
  8
0
 62
7
  6
CONTINUOUS
 10
543.2719989807
 20
31.5190585802
 11
543.2141867012
 21
31.583585953
  0
LINE
  8
0
 62
7
  6
CONTINUOUS
 10
544.4282492012
 20
31.1318942979
 11
544.4860614807
 21
31.0673669025
  0
LINE
  8
0
 62
7
  6
CONTINUOUS
 10
544.7751235396
 20
31.0673669025
 11
544.6594989807
 21
31.1964216708
  0
LINE
  8
0
 62
7
  6
CONTINUOUS
 10
544.4282492012
 20
31.6481133259
 11
544.4860614807
 21
31.583585953
  0
LINE
  8
0
 62
7
  6
CONTINUOUS
 10
544.7751235396
 20
31.583585953
 11
544.6594989807
 21
31.7126406987
  0
LINE
  8
0
 62
7
  6
CONTINUOUS
 10
538.0688739807
 20
31.583585953
 11
538.1266865909
 21
31.6481133259
  0
LINE
  8
0
 62
7
  6
CONTINUOUS
 10
537.8954364807
 20
31.3254764164
 11
537.7798115909
 21
31.1964216708
  0
LINE
  8
0
 62
7
  6
CONTINUOUS
 10
539.2251242012
 20
31.1641579843
 11
539.1673112601
 21
31.0996306115
  0
LINE
  8
0
 62
7
  6
CONTINUOUS
 10
539.1673112601
 20
30.9060484591
 11
539.2251242012
 21
30.9705758432
  0
LINE
  8
0
 62
7
  6
CONTINUOUS
 10
538.0110613704
 20
30.873784767
 11
538.1266865909
 21
30.8415210777
  0
LINE
  8
0
 62
7
  6
CONTINUOUS
 10
535.0048114255
 20
31.7449043851
 11
534.7735614807
 21
31.809431758
  0
LINE
  8
0
 62
7
  6
CONTINUOUS
 10
538.3579363704
 20
30.9383121455
 11
538.1266865909
 21
31.0028395296
  0
LINE
  8
0
 62
7
  6
CONTINUOUS
 10
537.0860615909
 20
31.7449043851
 11
536.9126240909
 21
31.809431758
  0
LINE
  8
0
 62
7
  6
CONTINUOUS
 10
539.3407487601
 20
31.7449043851
 11
539.1673112601
 21
31.809431758
  0
LINE
  8
0
 62
7
  6
CONTINUOUS
 10
542.0001242012
 20
31.6481133259
 11
542.1157487601
 21
31.583585953
  0
LINE
  8
0
 62
7
  6
CONTINUOUS
 10
542.3469992012
 20
31.6803770123
 11
542.2313739807
 21
31.7449043851
  0
LINE
  8
0
 62
7
  6
CONTINUOUS
 10
533.8485614944
 20
30.873784767
 11
534.0219989944
 21
30.8415210777
  0
LINE
  8
0
 62
7
  6
CONTINUOUS
 10
534.3110615082
 20
30.9383121455
 11
533.9641864669
 21
31.0028395296
  0
LINE
  8
0
 62
7
  6
CONTINUOUS
 10
536.7391865909
 20
31.6803770123
 11
536.8548114807
 21
31.6481133259
  0
LINE
  8
0
 62
7
  6
CONTINUOUS
 10
539.0516867012
 20
31.6803770123
 11
539.1673112601
 21
31.6481133259
  0
LINE
  8
0
 62
7
  6
CONTINUOUS
 10
543.3876242012
 20
30.9705758432
 11
543.2719989807
 21
31.0028395296
  0
LINE
  8
0
 62
7
  6
CONTINUOUS
 10
541.8844989807
 20
31.6803770123
 11
542.0001242012
 21
31.6481133259
  0
LINE
  8
0
 62
7
  6
CONTINUOUS
 10
543.0407492012
 20
30.9383121455
 11
543.2141867012
 21
30.873784767
  0
LINE
  8
0
 62
7
  6
CONTINUOUS
 10
542.2313739807
 20
31.7449043851
 11
542.0579364807
 21
31.809431758
  0
LINE
  8
0
 62
7
  6
CONTINUOUS
 10
543.4454364807
 20
31.4545312073
 11
543.2719989807
 21
31.5190585802
  0
LINE
  8
0
 62
7
  6
CONTINUOUS
 10
544.2548117012
 20
31.1964216708
 11
544.4282492012
 21
31.1318942979
  0
LINE
  8
0
 62
7
  6
CONTINUOUS
 10
544.6594989807
 20
31.7126406987
 11
544.4860614807
 21
31.7771680715
  0
LINE
  8
0
 62
7
  6
CONTINUOUS
 10
543.0407492012
 20
31.4545312073
 11
543.2719989807
 21
31.3577401029
  0
LINE
  8
0
 62
7
  6
CONTINUOUS
 10
544.6594989807
 20
31.1964216708
 11
544.4282492012
 21
31.29321273
  0
LINE
  8
0
 62
7
  6
CONTINUOUS
 10
543.2141867012
 20
31.583585953
 11
543.2719989807
 21
31.6481133259
  0
LINE
  8
0
 62
7
  6
CONTINUOUS
 10
533.6751239738
 20
31.7126406987
 11
533.5594989807
 21
31.6481133259
  0
LINE
  8
0
 62
7
  6
CONTINUOUS
 10
533.7907489669
 20
31.5513222666
 11
533.9641864669
 21
31.6481133259
  0
LINE
  8
0
 62
7
  6
CONTINUOUS
 10
536.1032490358
 20
31.7449043851
 11
535.9876239807
 21
31.6803770123
  0
LINE
  8
0
 62
7
  6
CONTINUOUS
 10
535.9876239807
 20
31.5513222666
 11
536.1032490358
 21
31.6158496394
  0
LINE
  8
0
 62
7
  6
CONTINUOUS
 10
535.0048114255
 20
30.9060484591
 11
535.1782489255
 21
31.0028395296
  0
LINE
  8
0
 62
7
  6
CONTINUOUS
 10
534.0219989944
 20
30.8415210777
 11
534.3688739531
 21
30.8092573885
  0
LINE
  8
0
 62
7
  6
CONTINUOUS
 10
538.1266865909
 20
30.8415210777
 11
538.3579363704
 21
30.8092573885
  0
LINE
  8
0
 62
7
  6
CONTINUOUS
 10
536.5079364807
 20
31.7126406987
 11
536.7391865909
 21
31.6803770123
  0
LINE
  8
0
 62
7
  6
CONTINUOUS
 10
538.8204365909
 20
31.7126406987
 11
539.0516867012
 21
31.6803770123
  0
LINE
  8
0
 62
7
  6
CONTINUOUS
 10
543.2719989807
 20
31.3577401029
 11
544.2548117012
 21
31.1964216708
  0
LINE
  8
0
 62
7
  6
CONTINUOUS
 10
544.4282492012
 20
31.29321273
 11
543.4454364807
 21
31.4545312073
  0
LINE
  8
0
 62
7
  6
CONTINUOUS
 10
536.9126240909
 20
31.809431758
 11
536.7391865909
 21
31.8416954444
  0
LINE
  8
0
 62
7
  6
CONTINUOUS
 10
543.2141867012
 20
30.873784767
 11
543.3876242012
 21
30.8415210777
  0
LINE
  8
0
 62
7
  6
CONTINUOUS
 10
542.0579364807
 20
31.809431758
 11
541.8844989807
 21
31.8416954444
  0
LINE
  8
0
 62
7
  6
CONTINUOUS
 10
544.3126239807
 20
31.6803770123
 11
544.4282492012
 21
31.6481133259
  0
LINE
  8
0
 62
7
  6
CONTINUOUS
 10
544.4860614807
 20
31.0673669025
 11
544.4282492012
 21
31.0028395296
  0
LINE
  8
0
 62
7
  6
CONTINUOUS
 10
543.0407492012
 20
31.7449043851
 11
542.9251239807
 21
31.6481133259
  0
LINE
  8
0
 62
7
  6
CONTINUOUS
 10
537.9532490909
 20
31.7771680715
 11
537.8376238704
 21
31.7126406987
  0
LINE
  8
0
 62
7
  6
CONTINUOUS
 10
538.0110613704
 20
31.3900038345
 11
537.8954364807
 21
31.3254764164
  0
LINE
  8
0
 62
7
  6
CONTINUOUS
 10
538.1266865909
 20
31.2286853572
 11
538.2423114807
 21
31.29321273
  0
LINE
  8
0
 62
7
  6
CONTINUOUS
 10
535.6985614255
 20
30.8092573885
 11
535.9876239807
 21
30.8092573885
  0
LINE
  8
0
 62
7
  6
CONTINUOUS
 10
537.0282489807
 20
30.8092573885
 11
537.3173113704
 21
30.8092573885
  0
LINE
  8
0
 62
7
  6
CONTINUOUS
 10
538.3579363704
 20
30.8092573885
 11
538.7048113704
 21
30.8092573885
  0
LINE
  8
0
 62
7
  6
CONTINUOUS
 10
539.3407487601
 20
30.8092573885
 11
539.6298114807
 21
30.8092573885
  0
LINE
  8
0
 62
7
  6
CONTINUOUS
 10
540.0923117012
 20
30.8092573885
 11
540.3813737601
 21
30.8092573885
  0
LINE
  8
0
 62
7
  6
CONTINUOUS
 10
540.8438739807
 20
30.8092573885
 11
541.1329367012
 21
30.8092573885
  0
LINE
  8
0
 62
7
  6
CONTINUOUS
 10
542.1735617012
 20
30.8092573885
 11
542.4626237601
 21
30.8092573885
  0
LINE
  8
0
 62
7
  6
CONTINUOUS
 10
543.7344992012
 20
30.8092573885
 11
544.0813742012
 21
30.8092573885
  0
LINE
  8
0
 62
7
  6
CONTINUOUS
 10
544.0813742012
 20
30.9383121455
 11
543.7344992012
 21
30.9383121455
  0
LINE
  8
0
 62
7
  6
CONTINUOUS
 10
538.7048113704
 20
30.9383121455
 11
538.3579363704
 21
30.9383121455
  0
LINE
  8
0
 62
7
  6
CONTINUOUS
 10
543.2141867012
 20
31.0673669025
 11
542.9251239807
 21
31.0673669025
  0
LINE
  8
0
 62
7
  6
CONTINUOUS
 10
535.2360615358
 20
31.1318942979
 11
534.9469989807
 21
31.1318942979
  0
LINE
  8
0
 62
7
  6
CONTINUOUS
 10
534.3110615082
 20
31.7126406987
 11
534.7157489531
 21
31.6803770123
  0
LINE
  8
0
 62
7
  6
CONTINUOUS
 10
534.7735614807
 20
31.809431758
 11
534.3688739531
 21
31.8416954444
  0
LINE
  8
0
 62
7
  6
CONTINUOUS
 10
543.3876242012
 20
30.8415210777
 11
543.7344992012
 21
30.8092573885
  0
LINE
  8
0
 62
7
  6
CONTINUOUS
 10
543.7344992012
 20
30.9383121455
 11
543.3876242012
 21
30.9705758432
  0
LINE
  8
0
 62
7
  6
CONTINUOUS
 10
539.1673112601
 20
31.809431758
 11
538.8204365909
 21
31.8416954444
  0
LINE
  8
0
 62
7
  6
CONTINUOUS
 10
543.9657489807
 20
31.7126406987
 11
544.3126239807
 21
31.6803770123
  0
LINE
  8
0
 62
7
  6
CONTINUOUS
 10
544.3126239807
 20
31.809431758
 11
543.9657489807
 21
31.8416954444
  0
LINE
  8
0
 62
7
  6
CONTINUOUS
 10
541.6532492012
 20
31.7126406987
 11
541.8844989807
 21
31.6803770123
  0
LINE
  8
0
 62
7
  6
CONTINUOUS
 10
544.4860614807
 20
31.7771680715
 11
544.3126239807
 21
31.809431758
  0
LINE
  8
0
 62
7
  6
CONTINUOUS
 10
544.6594989807
 20
30.9060484591
 11
544.7751235396
 21
31.0028395296
  0
LINE
  8
0
 62
7
  6
CONTINUOUS
 10
539.1673112601
 20
31.0996306115
 11
538.9938737601
 21
31.0028395296
  0
LINE
  8
0
 62
7
  6
CONTINUOUS
 10
541.2485612601
 20
31.7449043851
 11
541.1329367012
 21
31.6803770123
  0
LINE
  8
0
 62
7
  6
CONTINUOUS
 10
541.1329367012
 20
31.5513222666
 11
541.2485612601
 21
31.6158496394
  0
LINE
  8
0
 62
7
  6
CONTINUOUS
 10
533.8485614944
 20
31.7771680715
 11
533.6751239738
 21
31.7126406987
  0
LINE
  8
0
 62
7
  6
CONTINUOUS
 10
536.2766863704
 20
31.809431758
 11
536.1032490358
 21
31.7449043851
  0
LINE
  8
0
 62
7
  6
CONTINUOUS
 10
536.1032490358
 20
31.6158496394
 11
536.2766863704
 21
31.6803770123
  0
LINE
  8
0
 62
7
  6
CONTINUOUS
 10
534.8891865358
 20
31.035103216
 11
534.7157489531
 21
30.9705758432
  0
LINE
  8
0
 62
7
  6
CONTINUOUS
 10
544.3126239807
 20
30.9705758432
 11
544.0813742012
 21
30.9383121455
  0
LINE
  8
0
 62
7
  6
CONTINUOUS
 10
538.7048113704
 20
30.8092573885
 11
538.9938737601
 21
30.8415210777
  0
LINE
  8
0
 62
7
  6
CONTINUOUS
 10
544.0813742012
 20
30.8092573885
 11
544.4282492012
 21
30.8415210777
  0
LINE
  8
0
 62
7
  6
CONTINUOUS
 10
534.3688739531
 20
30.8092573885
 11
534.7735614807
 21
30.8415210777
  0
LINE
  8
0
 62
7
  6
CONTINUOUS
 10
534.7157489531
 20
30.9705758432
 11
534.3110615082
 21
30.9383121455
  0
LINE
  8
0
 62
7
  6
CONTINUOUS
 10
538.5891864807
 20
31.3577401029
 11
539.2251242012
 21
31.3577401029
  0
LINE
  8
0
 62
7
  6
CONTINUOUS
 10
539.2251242012
 20
31.4867948937
 11
538.5891864807
 21
31.4867948937
  0
LINE
  8
0
 62
7
  6
CONTINUOUS
 10
534.9469989807
 20
31.5190585802
 11
535.2360615358
 21
31.5190585802
  0
LINE
  8
0
 62
7
  6
CONTINUOUS
 10
537.7798115909
 20
31.583585953
 11
538.0688739807
 21
31.583585953
  0
LINE
  8
0
 62
7
  6
CONTINUOUS
 10
544.4860614807
 20
31.583585953
 11
544.7751235396
 21
31.583585953
  0
LINE
  8
0
 62
7
  6
CONTINUOUS
 10
538.4735615909
 20
31.7126406987
 11
538.8204365909
 21
31.7126406987
  0
LINE
  8
0
 62
7
  6
CONTINUOUS
 10
543.6188739807
 20
31.7126406987
 11
543.9657489807
 21
31.7126406987
  0
LINE
  8
0
 62
7
  6
CONTINUOUS
 10
543.9657489807
 20
31.8416954444
 11
543.6188739807
 21
31.8416954444
  0
LINE
  8
0
 62
7
  6
CONTINUOUS
 10
541.8844989807
 20
31.8416954444
 11
541.6532492012
 21
31.8416954444
  0
LINE
  8
0
 62
7
  6
CONTINUOUS
 10
541.1329367012
 20
31.8416954444
 11
540.8438739807
 21
31.8416954444
  0
LINE
  8
0
 62
7
  6
CONTINUOUS
 10
540.3813737601
 20
31.8416954444
 11
540.0923117012
 21
31.8416954444
  0
LINE
  8
0
 62
7
  6
CONTINUOUS
 10
538.8204365909
 20
31.8416954444
 11
538.4735615909
 21
31.8416954444
  0
LINE
  8
0
 62
7
  6
CONTINUOUS
 10
536.7391865909
 20
31.8416954444
 11
536.5079364807
 21
31.8416954444
  0
LINE
  8
0
 62
7
  6
CONTINUOUS
 10
540.0923117012
 20
32.164332399
 11
540.3813737601
 21
32.164332399
  0
LINE
  8
0
 62
7
  6
CONTINUOUS
 10
540.3813737601
 20
32.3256508311
 11
540.0923117012
 21
32.3256508311
  0
LINE
  8
0
 62
7
  6
CONTINUOUS
 10
535.9876239807
 20
32.3256508311
 11
535.6985614255
 21
32.3256508311
  0
LINE
  8
0
 62
7
  6
CONTINUOUS
 10
535.025405743
 20
32.612536077
 11
535.4379770916
 21
32.612536077
  0
LINE
  8
0
 62
7
  6
CONTINUOUS
 10
536.6647500053
 20
32.612536077
 11
538.0581926282
 21
32.612536077
  0
LINE
  8
0
 62
7
  6
CONTINUOUS
 10
538.3860614807
 20
32.612536077
 11
539.7795041036
 21
32.612536077
  0
LINE
  8
0
 62
7
  6
CONTINUOUS
 10
541.6647500053
 20
32.612536077
 11
543.0581926282
 21
32.612536077
  0
LINE
  8
0
 62
7
  6
CONTINUOUS
 10
543.3860614807
 20
32.612536077
 11
544.7795041036
 21
32.612536077
  0
LINE
  8
0
 62
7
  6
CONTINUOUS
 10
541.4219987601
 20
31.809431758
 11
541.2485612601
 21
31.7449043851
  0
LINE
  8
0
 62
7
  6
CONTINUOUS
 10
538.9938737601
 20
30.8415210777
 11
539.1673112601
 21
30.9060484591
  0
LINE
  8
0
 62
7
  6
CONTINUOUS
 10
544.4282492012
 20
30.8415210777
 11
544.6594989807
 21
30.9060484591
  0
LINE
  8
0
 62
7
  6
CONTINUOUS
 10
544.4282492012
 20
31.0028395296
 11
544.3126239807
 21
30.9705758432
  0
LINE
  8
0
 62
7
  6
CONTINUOUS
 10
543.3876242012
 20
31.6803770123
 11
543.6188739807
 21
31.7126406987
  0
LINE
  8
0
 62
7
  6
CONTINUOUS
 10
541.4219987601
 20
31.6803770123
 11
541.6532492012
 21
31.7126406987
  0
LINE
  8
0
 62
7
  6
CONTINUOUS
 10
538.3579363704
 20
31.3254764164
 11
538.5891864807
 21
31.3577401029
  0
LINE
  8
0
 62
7
  6
CONTINUOUS
 10
541.6532492012
 20
31.8416954444
 11
541.4219987601
 21
31.809431758
  0
LINE
  8
0
 62
7
  6
CONTINUOUS
 10
538.2423114807
 20
31.6803770123
 11
538.4735615909
 21
31.7126406987
  0
LINE
  8
0
 62
7
  6
CONTINUOUS
 10
543.6188739807
 20
31.8416954444
 11
543.2719989807
 21
31.809431758
  0
LINE
  8
0
 62
7
  6
CONTINUOUS
 10
538.5891864807
 20
31.4867948937
 11
538.2423114807
 21
31.4545312073
  0
LINE
  8
0
 62
7
  6
CONTINUOUS
 10
534.3688739531
 20
31.8416954444
 11
534.0219989944
 21
31.809431758
  0
LINE
  8
0
 62
7
  6
CONTINUOUS
 10
538.4735615909
 20
31.8416954444
 11
538.0688739807
 21
31.809431758
  0
LINE
  8
0
 62
7
  6
CONTINUOUS
 10
535.8450778741
 20
33.7600770606
 11
535.1893401692
 21
33.7600770606
  0
LINE
  8
0
 62
7
  6
CONTINUOUS
 10
541.2485612601
 20
31.6158496394
 11
541.4219987601
 21
31.6803770123
  0
LINE
  8
0
 62
7
  6
CONTINUOUS
 10
543.2719989807
 20
31.6481133259
 11
543.3876242012
 21
31.6803770123
  0
LINE
  8
0
 62
7
  6
CONTINUOUS
 10
543.2719989807
 20
31.809431758
 11
543.0407492012
 21
31.7449043851
  0
LINE
  8
0
 62
7
  6
CONTINUOUS
 10
538.9938737601
 20
31.0028395296
 11
538.7048113704
 21
30.9383121455
  0
LINE
  8
0
 62
7
  6
CONTINUOUS
 10
536.2766863704
 20
31.6803770123
 11
536.5079364807
 21
31.7126406987
  0
LINE
  8
0
 62
7
  6
CONTINUOUS
 10
536.5079364807
 20
31.8416954444
 11
536.2766863704
 21
31.809431758
  0
LINE
  8
0
 62
7
  6
CONTINUOUS
 10
534.0798114807
 20
31.6803770123
 11
534.3110615082
 21
31.7126406987
  0
LINE
  8
0
 62
7
  6
CONTINUOUS
 10
540.5991762348
 20
35.2354868967
 11
541.2549139397
 21
35.2354868967
  0
LINE
  8
0
 62
7
  6
CONTINUOUS
 10
538.2423114807
 20
31.29321273
 11
538.3579363704
 21
31.3254764164
  0
LINE
  8
0
 62
7
  6
CONTINUOUS
 10
538.2423114807
 20
31.4545312073
 11
538.0110613704
 21
31.3900038345
  0
LINE
  8
0
 62
7
  6
CONTINUOUS
 10
538.1266865909
 20
31.6481133259
 11
538.2423114807
 21
31.6803770123
  0
LINE
  8
0
 62
7
  6
CONTINUOUS
 10
534.7735614807
 20
30.8415210777
 11
535.0048114255
 21
30.9060484591
  0
LINE
  8
0
 62
7
  6
CONTINUOUS
 10
538.0688739807
 20
31.809431758
 11
537.9532490909
 21
31.7771680715
  0
LINE
  8
0
 62
7
  6
CONTINUOUS
 10
534.0219989944
 20
31.809431758
 11
533.8485614944
 21
31.7771680715
  0
LINE
  8
0
 62
7
  6
CONTINUOUS
 10
544.7795041036
 20
36.3830278803
 11
543.3860614807
 21
36.3830278803
  0
LINE
  8
0
 62
7
  6
CONTINUOUS
 10
541.4188483659
 20
36.3830278803
 11
541.0062770173
 21
36.3830278803
  0
LINE
  8
0
 62
7
  6
CONTINUOUS
 10
539.7795041036
 20
36.3830278803
 11
538.3860614807
 21
36.3830278803
  0
LINE
  8
0
 62
7
  6
CONTINUOUS
 10
538.0581926282
 20
36.3830278803
 11
536.6647500053
 21
36.3830278803
  0
LINE
  8
0
 62
7
  6
CONTINUOUS
 10
534.7795041036
 20
36.3830278803
 11
533.3860614807
 21
36.3830278803
  0
LINE
  8
0
 62
7
  6
CONTINUOUS
 10
533.9641864669
 20
31.6481133259
 11
534.0798114807
 21
31.6803770123
  0
CIRCLE
  8
0
 62
7
  6
CONTINUOUS
 10
544.0827827921
 20
38.7190934541
 40
2.0901639344
  0
ARC
  8
0
 62
7
  6
CONTINUOUS
 10
535.025405743
 20
34.2518803393
 40
1.6393442623
 50
180.0
 51
270.0
  0
ARC
  8
0
 62
7
  6
CONTINUOUS
 10
541.4188483659
 20
34.743683618
 40
1.6393442623
 50
0.0
 51
90.0
  0
ARC
  8
0
 62
7
  6
CONTINUOUS
 10
535.4379770916
 20
34.0879459131
 40
1.4754098361
 50
270.0
 51
326.2510114041
  0
ARC
  8
0
 62
7
  6
CONTINUOUS
 10
541.0062770173
 20
34.9076180442
 40
1.4754098361
 50
90.0
 51
146.2510114041
  0
ARC
  8
0
 62
7
  6
CONTINUOUS
 10
535.8450778741
 20
34.5797491918
 40
0.8196721311
 50
270.0
 51
360.0
  0
ARC
  8
0
 62
7
  6
CONTINUOUS
 10
540.5991762348
 20
34.4158147655
 40
0.8196721311
 50
90.0
 51
180.0
  0
ARC
  8
0
 62
7
  6
CONTINUOUS
 10
535.1893401692
 20
34.1699131262
 40
0.4098360656
 50
180.0
 51
270.0
  0
ARC
  8
0
 62
7
  6
CONTINUOUS
 10
541.2549139397
 20
34.8256508311
 40
0.4098360656
 50
0.0
 51
90.0
  0
SOLID
  8
0
 62
7
  6
CONTINUOUS
 10
540.0923117012
 20
32.1643327593
 11
540.0923117012
 21
32.3256512429
 12
540.3813737601
 22
32.1643327593
 13
540.3813737601
 23
32.3256512429
  0
SOLID
  8
0
 62
7
  6
CONTINUOUS
 10
534.3688739531
 20
31.841695792
 11
534.7735614807
 21
31.8094316148
 12
534.0219989944
 22
31.8094316148
 13
534.0219989944
 23
31.8094316148
  0
SOLID
  8
0
 62
7
  6
CONTINUOUS
 10
533.8485614944
 20
31.7771687019
 11
534.0219989944
 21
31.8094316148
 12
534.7735614807
 22
31.8094316148
 13
534.7735614807
 23
31.8094316148
  0
SOLID
  8
0
 62
7
  6
CONTINUOUS
 10
534.7735614807
 20
31.8094316148
 11
535.0048114255
 21
31.7449043986
 12
533.8485614944
 22
31.7771687019
 13
533.8485614944
 23
31.7771687019
  0
SOLID
  8
0
 62
7
  6
CONTINUOUS
 10
533.6751239738
 20
31.712640202
 11
533.8485614944
 21
31.7771687019
 12
535.0048114255
 22
31.7449043986
 13
535.0048114255
 23
31.7449043986
  0
SOLID
  8
0
 62
7
  6
CONTINUOUS
 10
533.6751239738
 20
31.712640202
 11
535.0048114255
 21
31.7449043986
 12
534.3110615082
 22
31.712640202
 13
534.3110615082
 23
31.712640202
  0
SOLID
  8
0
 62
7
  6
CONTINUOUS
 10
534.3110615082
 20
31.712640202
 11
535.0048114255
 21
31.7449043986
 12
534.7157489531
 22
31.6803773084
 13
534.7157489531
 23
31.6803773084
  0
SOLID
  8
0
 62
7
  6
CONTINUOUS
 10
535.0048114255
 20
31.7449043986
 11
535.1782489255
 21
31.6481130052
 12
534.7157489531
 22
31.6803773084
 13
534.7157489531
 23
31.6803773084
  0
SOLID
  8
0
 62
7
  6
CONTINUOUS
 10
534.8891865358
 20
31.6158502183
 11
534.7157489531
 21
31.6803773084
 12
535.1782489255
 22
31.6481130052
 13
535.1782489255
 23
31.6481130052
  0
SOLID
  8
0
 62
7
  6
CONTINUOUS
 10
534.8891865358
 20
31.6158502183
 11
535.1782489255
 21
31.6481130052
 12
534.9469989807
 22
31.5190586669
 13
534.9469989807
 23
31.5190586669
  0
SOLID
  8
0
 62
7
  6
CONTINUOUS
 10
535.1782489255
 20
31.6481130052
 11
535.2360615358
 21
31.5190586669
 12
534.9469989807
 22
31.5190586669
 13
534.9469989807
 23
31.5190586669
  0
SOLID
  8
0
 62
7
  6
CONTINUOUS
 10
536.2766863704
 20
31.8094307377
 11
536.5079364807
 21
31.841695041
 12
536.7391865909
 22
31.841695041
 13
536.7391865909
 23
31.841695041
  0
SOLID
  8
0
 62
7
  6
CONTINUOUS
 10
536.7391865909
 20
31.841695041
 11
536.9126240909
 21
31.8094307377
 12
536.2766863704
 22
31.8094307377
 13
536.2766863704
 23
31.8094307377
  0
SOLID
  8
0
 62
7
  6
CONTINUOUS
 10
536.1032490358
 20
31.7449036475
 11
536.2766863704
 21
31.8094307377
 12
536.9126240909
 22
31.8094307377
 13
536.9126240909
 23
31.8094307377
  0
SOLID
  8
0
 62
7
  6
CONTINUOUS
 10
536.9126240909
 20
31.8094307377
 11
537.0860615909
 21
31.7449036475
 12
536.1032490358
 22
31.7449036475
 13
536.1032490358
 23
31.7449036475
  0
SOLID
  8
0
 62
7
  6
CONTINUOUS
 10
537.0860615909
 20
31.7449036475
 11
536.5079364807
 21
31.7126400953
 12
536.1032490358
 22
31.7449036475
 13
536.1032490358
 23
31.7449036475
  0
SOLID
  8
0
 62
7
  6
CONTINUOUS
 10
535.9876239807
 20
31.6803765574
 11
536.1032490358
 21
31.7449036475
 12
536.5079364807
 22
31.7126400953
 13
536.5079364807
 23
31.7126400953
  0
SOLID
  8
0
 62
7
  6
CONTINUOUS
 10
536.5079364807
 20
31.7126400953
 11
536.2766863704
 21
31.6803765574
 12
535.9876239807
 22
31.6803765574
 13
535.9876239807
 23
31.6803765574
  0
SOLID
  8
0
 62
7
  6
CONTINUOUS
 10
536.5079364807
 20
31.7126400953
 11
537.0860615909
 21
31.7449036475
 12
536.7391865909
 22
31.6803765574
 13
536.7391865909
 23
31.6803765574
  0
SOLID
  8
0
 62
7
  6
CONTINUOUS
 10
537.0860615909
 20
31.7449036475
 11
537.2016864807
 21
31.6803765574
 12
536.7391865909
 22
31.6803765574
 13
536.7391865909
 23
31.6803765574
  0
SOLID
  8
0
 62
7
  6
CONTINUOUS
 10
536.8548114807
 20
31.6481130052
 11
536.7391865909
 21
31.6803765574
 12
537.2016864807
 22
31.6803765574
 13
537.2016864807
 23
31.6803765574
  0
SOLID
  8
0
 62
7
  6
CONTINUOUS
 10
537.2016864807
 20
31.6803765574
 11
537.2594990909
 21
31.6158494672
 12
536.8548114807
 22
31.6481130052
 13
536.8548114807
 23
31.6481130052
  0
SOLID
  8
0
 62
7
  6
CONTINUOUS
 10
536.9704363704
 20
31.583585915
 11
536.8548114807
 21
31.6481130052
 12
537.2594990909
 22
31.6158494672
 13
537.2594990909
 23
31.6158494672
  0
SOLID
  8
0
 62
7
  6
CONTINUOUS
 10
536.9704363704
 20
31.583585915
 11
537.2594990909
 21
31.6158494672
 12
537.0282489807
 22
31.4545309836
 13
537.0282489807
 23
31.4545309836
  0
SOLID
  8
0
 62
7
  6
CONTINUOUS
 10
537.2594990909
 20
31.6158494672
 11
537.3173113704
 21
31.4545309836
 12
537.0282489807
 22
31.4545309836
 13
537.0282489807
 23
31.4545309836
  0
SOLID
  8
0
 62
7
  6
CONTINUOUS
 10
536.2766863704
 20
31.6803765574
 11
536.1032490358
 21
31.6158494672
 12
535.9876239807
 22
31.6803765574
 13
535.9876239807
 23
31.6803765574
  0
SOLID
  8
0
 62
7
  6
CONTINUOUS
 10
536.1032490358
 20
31.6158494672
 11
535.9876239807
 21
31.5513216117
 12
535.9876239807
 22
31.6803765574
 13
535.9876239807
 23
31.6803765574
  0
SOLID
  8
0
 62
7
  6
CONTINUOUS
 10
535.9876239807
 20
31.5513216117
 11
535.6985614255
 21
30.8092570492
 12
535.9876239807
 22
31.6803765574
 13
535.9876239807
 23
31.6803765574
  0
SOLID
  8
0
 62
7
  6
CONTINUOUS
 10
535.9876239807
 20
31.6803765574
 11
535.6985614255
 21
30.8092570492
 12
535.9876239807
 22
32.3256504918
 13
535.9876239807
 23
32.3256504918
  0
SOLID
  8
0
 62
7
  6
CONTINUOUS
 10
535.6985614255
 20
30.8092570492
 11
535.6985614255
 21
32.3256504918
 12
535.9876239807
 22
32.3256504918
 13
535.9876239807
 23
32.3256504918
  0
SOLID
  8
0
 62
7
  6
CONTINUOUS
 10
535.9876239807
 20
31.5513216117
 11
535.9876239807
 21
30.8092570492
 12
535.6985614255
 22
30.8092570492
 13
535.6985614255
 23
30.8092570492
  0
SOLID
  8
0
 62
7
  6
CONTINUOUS
 10
537.0282489807
 20
30.8092570492
 11
537.0282489807
 21
31.4545309836
 12
537.3173113704
 22
31.4545309836
 13
537.3173113704
 23
31.4545309836
  0
SOLID
  8
0
 62
7
  6
CONTINUOUS
 10
537.3173113704
 20
31.4545309836
 11
537.3173113704
 21
30.8092570492
 12
537.0282489807
 22
30.8092570492
 13
537.0282489807
 23
30.8092570492
  0
SOLID
  8
0
 62
7
  6
CONTINUOUS
 10
538.0688739807
 20
31.809431823
 11
538.4735615909
 21
31.8416958158
 12
538.8204365909
 22
31.8416958158
 13
538.8204365909
 23
31.8416958158
  0
SOLID
  8
0
 62
7
  6
CONTINUOUS
 10
538.8204365909
 20
31.8416958158
 11
539.1673112601
 21
31.809431823
 12
538.0688739807
 22
31.809431823
 13
538.0688739807
 23
31.809431823
  0
SOLID
  8
0
 62
7
  6
CONTINUOUS
 10
537.9532490909
 20
31.7771687019
 11
538.0688739807
 21
31.809431823
 12
539.1673112601
 22
31.809431823
 13
539.1673112601
 23
31.809431823
  0
SOLID
  8
0
 62
7
  6
CONTINUOUS
 10
539.1673112601
 20
31.809431823
 11
539.3407487601
 21
31.7449043986
 12
537.9532490909
 22
31.7771687019
 13
537.9532490909
 23
31.7771687019
  0
SOLID
  8
0
 62
7
  6
CONTINUOUS
 10
537.8376238704
 20
31.7126398448
 11
537.9532490909
 21
31.7771687019
 12
539.3407487601
 22
31.7449043986
 13
539.3407487601
 23
31.7449043986
  0
SOLID
  8
0
 62
7
  6
CONTINUOUS
 10
537.8376238704
 20
31.7126398448
 11
539.3407487601
 21
31.7449043986
 12
538.4735615909
 22
31.7126398448
 13
538.4735615909
 23
31.7126398448
  0
SOLID
  8
0
 62
7
  6
CONTINUOUS
 10
538.4735615909
 20
31.7126398448
 11
539.3407487601
 21
31.7449043986
 12
538.8204365909
 22
31.7126398448
 13
538.8204365909
 23
31.7126398448
  0
SOLID
  8
0
 62
7
  6
CONTINUOUS
 10
538.8204365909
 20
31.7126398448
 11
539.3407487601
 21
31.7449043986
 12
539.0516867012
 22
31.6803774007
 13
539.0516867012
 23
31.6803774007
  0
SOLID
  8
0
 62
7
  6
CONTINUOUS
 10
539.3407487601
 20
31.7449043986
 11
539.4563739807
 21
31.6803774007
 12
539.0516867012
 22
31.6803774007
 13
539.0516867012
 23
31.6803774007
  0
SOLID
  8
0
 62
7
  6
CONTINUOUS
 10
537.7798115909
 20
31.6481126336
 11
537.8376238704
 21
31.7126398448
 12
538.4735615909
 22
31.7126398448
 13
538.4735615909
 23
31.7126398448
  0
SOLID
  8
0
 62
7
  6
CONTINUOUS
 10
539.1673112601
 20
31.6481126336
 11
539.0516867012
 21
31.6803774007
 12
539.4563739807
 22
31.6803774007
 13
539.4563739807
 23
31.6803774007
  0
SOLID
  8
0
 62
7
  6
CONTINUOUS
 10
539.1673112601
 20
31.6481126336
 11
539.4563739807
 21
31.6803774007
 12
539.2251242012
 22
31.5835861968
 13
539.2251242012
 23
31.5835861968
  0
SOLID
  8
0
 62
7
  6
CONTINUOUS
 10
539.4563739807
 20
31.6803774007
 11
539.5141862601
 21
31.5835861968
 12
539.2251242012
 22
31.5835861968
 13
539.2251242012
 23
31.5835861968
  0
SOLID
  8
0
 62
7
  6
CONTINUOUS
 10
539.2251242012
 20
31.4867945216
 11
539.2251242012
 21
31.5835861968
 12
539.5141862601
 22
31.5835861968
 13
539.5141862601
 23
31.5835861968
  0
SOLID
  8
0
 62
7
  6
CONTINUOUS
 10
539.2251242012
 20
31.4867945216
 11
539.5141862601
 21
31.5835861968
 12
539.2251242012
 22
31.3577403412
 13
539.2251242012
 23
31.3577403412
  0
SOLID
  8
0
 62
7
  6
CONTINUOUS
 10
539.2251242012
 20
31.3577403412
 11
539.5141862601
 21
31.5835861968
 12
539.2251242012
 22
31.1641579843
 13
539.2251242012
 23
31.1641579843
  0
SOLID
  8
0
 62
7
  6
CONTINUOUS
 10
539.5141862601
 20
31.5835861968
 11
539.5141862601
 21
31.0673661609
 12
539.2251242012
 22
31.1641579843
 13
539.2251242012
 23
31.1641579843
  0
SOLID
  8
0
 62
7
  6
CONTINUOUS
 10
541.4219987601
 20
31.8094310465
 11
541.6532492012
 21
31.8416957661
 12
541.8844989807
 22
31.8416957661
 13
541.8844989807
 23
31.8416957661
  0
SOLID
  8
0
 62
7
  6
CONTINUOUS
 10
541.8844989807
 20
31.8416957661
 11
542.0579364807
 21
31.8094310465
 12
541.4219987601
 22
31.8094310465
 13
541.4219987601
 23
31.8094310465
  0
SOLID
  8
0
 62
7
  6
CONTINUOUS
 10
541.2485612601
 20
31.7449047044
 11
541.4219987601
 21
31.8094310465
 12
542.0579364807
 22
31.8094310465
 13
542.0579364807
 23
31.8094310465
  0
SOLID
  8
0
 62
7
  6
CONTINUOUS
 10
542.0579364807
 20
31.8094310465
 11
542.2313739807
 21
31.7449047044
 12
541.2485612601
 22
31.7449047044
 13
541.2485612601
 23
31.7449047044
  0
SOLID
  8
0
 62
7
  6
CONTINUOUS
 10
542.2313739807
 20
31.7449047044
 11
541.6532492012
 21
31.7126400953
 12
541.2485612601
 22
31.7449047044
 13
541.2485612601
 23
31.7449047044
  0
SOLID
  8
0
 62
7
  6
CONTINUOUS
 10
541.1329367012
 20
31.6803773299
 11
541.2485612601
 21
31.7449047044
 12
541.6532492012
 22
31.7126400953
 13
541.6532492012
 23
31.7126400953
  0
SOLID
  8
0
 62
7
  6
CONTINUOUS
 10
541.6532492012
 20
31.7126400953
 11
541.4219987601
 21
31.6803773299
 12
541.1329367012
 22
31.6803773299
 13
541.1329367012
 23
31.6803773299
  0
SOLID
  8
0
 62
7
  6
CONTINUOUS
 10
541.6532492012
 20
31.7126400953
 11
542.2313739807
 21
31.7449047044
 12
541.8844989807
 22
31.6803773299
 13
541.8844989807
 23
31.6803773299
  0
SOLID
  8
0
 62
7
  6
CONTINUOUS
 10
542.2313739807
 20
31.7449047044
 11
542.3469992012
 21
31.6803773299
 12
541.8844989807
 22
31.6803773299
 13
541.8844989807
 23
31.6803773299
  0
SOLID
  8
0
 62
7
  6
CONTINUOUS
 10
542.0001242012
 20
31.6481130052
 11
541.8844989807
 21
31.6803773299
 12
542.3469992012
 22
31.6803773299
 13
542.3469992012
 23
31.6803773299
  0
SOLID
  8
0
 62
7
  6
CONTINUOUS
 10
542.0001242012
 20
31.6481130052
 11
542.3469992012
 21
31.6803773299
 12
542.1157487601
 22
31.5835862682
 13
542.1157487601
 23
31.5835862682
  0
SOLID
  8
0
 62
7
  6
CONTINUOUS
 10
542.3469992012
 20
31.6803773299
 11
542.4048114807
 21
31.5835862682
 12
542.1157487601
 22
31.5835862682
 13
542.1157487601
 23
31.5835862682
  0
SOLID
  8
0
 62
7
  6
CONTINUOUS
 10
542.1735617012
 20
31.422267832
 11
542.1157487601
 21
31.5835862682
 12
542.4048114807
 22
31.5835862682
 13
542.4048114807
 23
31.5835862682
  0
SOLID
  8
0
 62
7
  6
CONTINUOUS
 10
542.4048114807
 20
31.5835862682
 11
542.4626237601
 21
31.422267832
 12
542.1735617012
 22
31.422267832
 13
542.1735617012
 23
31.422267832
  0
SOLID
  8
0
 62
7
  6
CONTINUOUS
 10
541.4219987601
 20
31.6803773299
 11
541.2485612601
 21
31.6158502183
 12
541.1329367012
 22
31.6803773299
 13
541.1329367012
 23
31.6803773299
  0
SOLID
  8
0
 62
7
  6
CONTINUOUS
 10
541.2485612601
 20
31.6158502183
 11
541.1329367012
 21
31.5513216117
 12
541.1329367012
 22
31.6803773299
 13
541.1329367012
 23
31.6803773299
  0
SOLID
  8
0
 62
7
  6
CONTINUOUS
 10
541.1329367012
 20
31.5513216117
 11
540.8438739807
 21
30.8092577743
 12
541.1329367012
 22
31.6803773299
 13
541.1329367012
 23
31.6803773299
  0
SOLID
  8
0
 62
7
  6
CONTINUOUS
 10
541.1329367012
 20
31.6803773299
 11
540.8438739807
 21
30.8092577743
 12
541.1329367012
 22
31.8416957661
 13
541.1329367012
 23
31.8416957661
  0
SOLID
  8
0
 62
7
  6
CONTINUOUS
 10
540.8438739807
 20
30.8092577743
 11
540.8438739807
 21
31.8416957661
 12
541.1329367012
 22
31.8416957661
 13
541.1329367012
 23
31.8416957661
  0
SOLID
  8
0
 62
7
  6
CONTINUOUS
 10
541.1329367012
 20
31.5513216117
 11
541.1329367012
 21
30.8092577743
 12
540.8438739807
 22
30.8092577743
 13
540.8438739807
 23
30.8092577743
  0
SOLID
  8
0
 62
7
  6
CONTINUOUS
 10
542.1735617012
 20
30.8092577743
 11
542.1735617012
 21
31.422267832
 12
542.4626237601
 22
31.422267832
 13
542.4626237601
 23
31.422267832
  0
SOLID
  8
0
 62
7
  6
CONTINUOUS
 10
542.4626237601
 20
31.422267832
 11
542.4626237601
 21
30.8092577743
 12
542.1735617012
 22
30.8092577743
 13
542.1735617012
 23
30.8092577743
  0
SOLID
  8
0
 62
7
  6
CONTINUOUS
 10
543.2719989807
 20
31.8094314924
 11
543.6188739807
 21
31.8416958387
 12
543.9657489807
 22
31.8416958387
 13
543.9657489807
 23
31.8416958387
  0
SOLID
  8
0
 62
7
  6
CONTINUOUS
 10
543.9657489807
 20
31.8416958387
 11
544.3126239807
 21
31.8094314924
 12
543.2719989807
 22
31.8094314924
 13
543.2719989807
 23
31.8094314924
  0
SOLID
  8
0
 62
7
  6
CONTINUOUS
 10
543.0407492012
 20
31.7449043986
 11
543.2719989807
 21
31.8094314924
 12
544.3126239807
 22
31.8094314924
 13
544.3126239807
 23
31.8094314924
  0
SOLID
  8
0
 62
7
  6
CONTINUOUS
 10
543.0407492012
 20
31.7449043986
 11
544.3126239807
 21
31.8094314888
 12
544.4860614807
 22
31.7771687019
 13
544.4860614807
 23
31.7771687019
  0
SOLID
  8
0
 62
7
  6
CONTINUOUS
 10
543.0407492012
 20
31.7449043986
 11
544.4860614807
 21
31.7771687019
 12
543.6188739807
 22
31.7126401399
 13
543.6188739807
 23
31.7126401399
  0
SOLID
  8
0
 62
7
  6
CONTINUOUS
 10
543.6188739807
 20
31.7126401399
 11
544.4860614807
 21
31.7771687019
 12
543.9657489807
 22
31.7126401399
 13
543.9657489807
 23
31.7126401399
  0
SOLID
  8
0
 62
7
  6
CONTINUOUS
 10
544.4860614807
 20
31.7771687019
 11
544.6594989807
 21
31.7126401399
 12
543.9657489807
 22
31.7126401399
 13
543.9657489807
 23
31.7126401399
  0
SOLID
  8
0
 62
7
  6
CONTINUOUS
 10
544.3126239807
 20
31.6803773084
 11
543.9657489807
 21
31.7126401399
 12
544.6594989807
 22
31.7126401399
 13
544.6594989807
 23
31.7126401399
  0
SOLID
  8
0
 62
7
  6
CONTINUOUS
 10
542.9251239807
 20
31.6481128977
 11
543.0407492012
 21
31.7449043986
 12
543.6188739807
 22
31.7126401399
 13
543.6188739807
 23
31.7126401399
  0
SOLID
  8
0
 62
7
  6
CONTINUOUS
 10
544.3126239807
 20
31.6803773084
 11
544.6594989807
 21
31.7126401399
 12
544.4282492012
 22
31.6481128977
 13
544.4282492012
 23
31.6481128977
  0
SOLID
  8
0
 62
7
  6
CONTINUOUS
 10
544.4282492012
 20
31.6481128977
 11
544.6594989807
 21
31.7126401399
 12
544.4860614807
 22
31.5835858812
 13
544.4860614807
 23
31.5835858812
  0
SOLID
  8
0
 62
7
  6
CONTINUOUS
 10
544.6594989807
 20
31.7126401399
 11
544.7751235396
 21
31.5835858812
 12
544.4860614807
 22
31.5835858812
 13
544.4860614807
 23
31.5835858812
  0
SOLID
  8
0
 62
7
  6
CONTINUOUS
 10
534.0798114807
 20
31.6803773084
 11
533.5594989807
 21
31.6481129264
 12
534.3110615082
 22
31.7126401456
 13
534.3110615082
 23
31.7126401456
  0
SOLID
  8
0
 62
7
  6
CONTINUOUS
 10
533.5594989807
 20
31.6481129264
 11
533.6751239738
 21
31.7126401456
 12
534.3110615082
 22
31.7126401456
 13
534.3110615082
 23
31.7126401456
  0
SOLID
  8
0
 62
7
  6
CONTINUOUS
 10
534.0798114807
 20
31.6803773084
 11
533.9641864669
 21
31.6481129264
 12
533.5594989807
 22
31.6481129264
 13
533.5594989807
 23
31.6481129264
  0
SOLID
  8
0
 62
7
  6
CONTINUOUS
 10
533.4438739824
 20
31.5190588248
 11
533.5594989807
 21
31.6481129264
 12
533.9641864669
 22
31.6481129264
 13
533.9641864669
 23
31.6481129264
  0
SOLID
  8
0
 62
7
  6
CONTINUOUS
 10
537.7798115909
 20
31.6481130555
 11
538.4735615909
 21
31.7126400953
 12
538.2423114807
 22
31.6803773084
 13
538.2423114807
 23
31.6803773084
  0
SOLID
  8
0
 62
7
  6
CONTINUOUS
 10
538.2423114807
 20
31.6803773084
 11
538.1266865909
 21
31.6481130555
 12
537.7798115909
 22
31.6481130555
 13
537.7798115909
 23
31.6481130555
  0
SOLID
  8
0
 62
7
  6
CONTINUOUS
 10
537.7798115909
 20
31.5835859653
 11
537.7798115909
 21
31.6481130555
 12
538.1266865909
 22
31.6481130555
 13
538.1266865909
 23
31.6481130555
  0
SOLID
  8
0
 62
7
  6
CONTINUOUS
 10
538.1266865909
 20
31.6481130555
 11
538.0688739807
 21
31.5835859653
 12
537.7798115909
 22
31.5835859653
 13
537.7798115909
 23
31.5835859653
  0
SOLID
  8
0
 62
7
  6
CONTINUOUS
 10
542.9251239807
 20
31.6481130555
 11
543.6188739807
 21
31.7126400953
 12
543.3876242012
 22
31.6803773084
 13
543.3876242012
 23
31.6803773084
  0
SOLID
  8
0
 62
7
  6
CONTINUOUS
 10
543.3876242012
 20
31.6803773084
 11
543.2719989807
 21
31.6481130555
 12
542.9251239807
 22
31.6481130555
 13
542.9251239807
 23
31.6481130555
  0
SOLID
  8
0
 62
7
  6
CONTINUOUS
 10
542.9251239807
 20
31.5835859653
 11
542.9251239807
 21
31.6481130555
 12
543.2719989807
 22
31.6481130555
 13
543.2719989807
 23
31.6481130555
  0
SOLID
  8
0
 62
7
  6
CONTINUOUS
 10
543.2719989807
 20
31.6481130555
 11
543.2141867012
 21
31.5835859653
 12
542.9251239807
 22
31.5835859653
 13
542.9251239807
 23
31.5835859653
  0
SOLID
  8
0
 62
7
  6
CONTINUOUS
 10
543.0407492012
 20
31.4545317347
 11
542.9251239807
 21
31.5835859653
 12
543.2141867012
 22
31.5835859653
 13
543.2141867012
 23
31.5835859653
  0
SOLID
  8
0
 62
7
  6
CONTINUOUS
 10
533.4438739824
 20
31.5190588248
 11
533.9641864669
 21
31.6481130052
 12
533.7907489669
 22
31.5513216117
 13
533.7907489669
 23
31.5513216117
  0
SOLID
  8
0
 62
7
  6
CONTINUOUS
 10
533.7907489669
 20
31.5513216117
 11
533.7329364807
 21
31.4867945216
 12
533.4438739824
 22
31.5190588248
 13
533.4438739824
 23
31.5190588248
  0
SOLID
  8
0
 62
7
  6
CONTINUOUS
 10
533.3860614807
 20
31.325476038
 11
533.4438739824
 21
31.5190588248
 12
533.7329364807
 22
31.4867945216
 13
533.7329364807
 23
31.4867945216
  0
SOLID
  8
0
 62
7
  6
CONTINUOUS
 10
538.2423114807
 20
31.4545317347
 11
538.5891864807
 21
31.4867945557
 12
539.2251242012
 22
31.4867945557
 13
539.2251242012
 23
31.4867945557
  0
SOLID
  8
0
 62
7
  6
CONTINUOUS
 10
538.2423114807
 20
31.4545317347
 11
539.2251242012
 21
31.4867945557
 12
538.0110613704
 22
31.3900038345
 13
538.0110613704
 23
31.3900038345
  0
SOLID
  8
0
 62
7
  6
CONTINUOUS
 10
538.0110613704
 20
31.3900038345
 11
539.2251242012
 21
31.4867945557
 12
538.5891864807
 22
31.3577403754
 13
538.5891864807
 23
31.3577403754
  0
SOLID
  8
0
 62
7
  6
CONTINUOUS
 10
539.2251242012
 20
31.4867945557
 11
539.2251242012
 21
31.3577403754
 12
538.5891864807
 22
31.3577403754
 13
538.5891864807
 23
31.3577403754
  0
SOLID
  8
0
 62
7
  6
CONTINUOUS
 10
543.0407492012
 20
31.4545313481
 11
543.2141867012
 21
31.583585915
 12
543.2719989807
 22
31.5190588248
 13
543.2719989807
 23
31.5190588248
  0
SOLID
  8
0
 62
7
  6
CONTINUOUS
 10
543.2719989807
 20
31.5190588248
 11
543.4454364807
 21
31.4545313481
 12
543.0407492012
 22
31.4545313481
 13
543.0407492012
 23
31.4545313481
  0
SOLID
  8
0
 62
7
  6
CONTINUOUS
 10
543.2719989807
 20
31.3577403412
 11
543.0407492012
 21
31.4545313481
 12
543.4454364807
 22
31.4545313481
 13
543.4454364807
 23
31.4545313481
  0
SOLID
  8
0
 62
7
  6
CONTINUOUS
 10
543.4454364807
 20
31.4545313481
 11
544.4282492012
 21
31.2932132511
 12
543.2719989807
 22
31.3577403412
 13
543.2719989807
 23
31.3577403412
  0
SOLID
  8
0
 62
7
  6
CONTINUOUS
 10
544.2548117012
 20
31.1964222346
 11
543.2719989807
 21
31.3577403412
 12
544.4282492012
 22
31.2932132511
 13
544.4282492012
 23
31.2932132511
  0
SOLID
  8
0
 62
7
  6
CONTINUOUS
 10
544.4282492012
 20
31.2932132511
 11
544.6594989807
 21
31.1964222346
 12
544.2548117012
 22
31.1964222346
 13
544.2548117012
 23
31.1964222346
  0
SOLID
  8
0
 62
7
  6
CONTINUOUS
 10
544.4282492012
 20
31.1318947675
 11
544.2548117012
 21
31.1964222346
 12
544.6594989807
 22
31.1964222346
 13
544.6594989807
 23
31.1964222346
  0
SOLID
  8
0
 62
7
  6
CONTINUOUS
 10
544.4282492012
 20
31.1318947675
 11
544.6594989807
 21
31.1964222346
 12
544.4860614807
 22
31.0673665164
 13
544.4860614807
 23
31.0673665164
  0
SOLID
  8
0
 62
7
  6
CONTINUOUS
 10
544.6594989807
 20
31.1964222346
 11
544.7751235396
 21
31.0673665164
 12
544.4860614807
 22
31.0673665164
 13
544.4860614807
 23
31.0673665164
  0
SOLID
  8
0
 62
7
  6
CONTINUOUS
 10
544.4282492012
 20
31.0028394316
 11
544.4860614807
 21
31.0673665164
 12
544.7751235396
 22
31.0673665164
 13
544.7751235396
 23
31.0673665164
  0
SOLID
  8
0
 62
7
  6
CONTINUOUS
 10
544.7751235396
 20
31.0673665164
 11
544.7751235396
 21
31.0028394316
 12
544.4282492012
 22
31.0028394316
 13
544.4282492012
 23
31.0028394316
  0
SOLID
  8
0
 62
7
  6
CONTINUOUS
 10
544.3126239807
 20
30.9705762839
 11
544.4282492012
 21
31.0028394316
 12
544.7751235396
 22
31.0028394316
 13
544.7751235396
 23
31.0028394316
  0
SOLID
  8
0
 62
7
  6
CONTINUOUS
 10
544.3126239807
 20
30.9705762839
 11
544.7751235396
 21
31.0028394316
 12
544.0813742012
 22
30.9383123468
 13
544.0813742012
 23
30.9383123468
  0
SOLID
  8
0
 62
7
  6
CONTINUOUS
 10
544.7751235396
 20
31.0028394316
 11
544.6594989807
 21
30.9060491937
 12
544.0813742012
 22
30.9383123468
 13
544.0813742012
 23
30.9383123468
  0
SOLID
  8
0
 62
7
  6
CONTINUOUS
 10
544.6594989807
 20
30.9060491937
 11
543.2141867012
 21
30.8737848904
 12
544.0813742012
 22
30.9383123468
 13
544.0813742012
 23
30.9383123468
  0
SOLID
  8
0
 62
7
  6
CONTINUOUS
 10
544.0813742012
 20
30.9383123468
 11
543.2141867012
 21
30.8737848904
 12
543.7344992012
 22
30.9383123468
 13
543.7344992012
 23
30.9383123468
  0
SOLID
  8
0
 62
7
  6
CONTINUOUS
 10
543.2141867012
 20
30.8737848904
 11
543.0407492012
 21
30.9383123468
 12
543.7344992012
 22
30.9383123468
 13
543.7344992012
 23
30.9383123468
  0
SOLID
  8
0
 62
7
  6
CONTINUOUS
 10
543.2141867012
 20
30.8737848904
 11
544.6594989807
 21
30.9060491937
 12
543.3876242012
 22
30.8415205581
 13
543.3876242012
 23
30.8415205581
  0
SOLID
  8
0
 62
7
  6
CONTINUOUS
 10
544.6594989807
 20
30.9060491937
 11
544.4282492012
 21
30.8415205581
 12
543.3876242012
 22
30.8415205581
 13
543.3876242012
 23
30.8415205581
  0
SOLID
  8
0
 62
7
  6
CONTINUOUS
 10
543.7344992012
 20
30.8092581772
 11
543.3876242012
 21
30.8415205581
 12
544.4282492012
 22
30.8415205581
 13
544.4282492012
 23
30.8415205581
  0
SOLID
  8
0
 62
7
  6
CONTINUOUS
 10
544.4282492012
 20
30.8415205581
 11
544.0813742012
 21
30.8092581772
 12
543.7344992012
 22
30.8092581772
 13
543.7344992012
 23
30.8092581772
  0
SOLID
  8
0
 62
7
  6
CONTINUOUS
 10
533.3860614807
 20
31.325476038
 11
533.7329364807
 21
31.4867945216
 12
533.6751239738
 22
31.3577403412
 13
533.6751239738
 23
31.3577403412
  0
SOLID
  8
0
 62
7
  6
CONTINUOUS
 10
533.6751239738
 20
31.3577403412
 11
533.6751239738
 21
31.2609490436
 12
533.3860614807
 22
31.325476038
 13
533.3860614807
 23
31.325476038
  0
SOLID
  8
0
 62
7
  6
CONTINUOUS
 10
533.4438739824
 20
31.1318947675
 11
533.3860614807
 21
31.325476038
 12
533.6751239738
 22
31.2609490436
 13
533.6751239738
 23
31.2609490436
  0
SOLID
  8
0
 62
7
  6
CONTINUOUS
 10
533.6751239738
 20
31.2609490436
 11
533.7907489669
 21
31.0996304642
 12
533.4438739824
 22
31.1318947675
 13
533.4438739824
 23
31.1318947675
  0
SOLID
  8
0
 62
7
  6
CONTINUOUS
 10
533.5594989807
 20
31.0028388804
 11
533.4438739824
 21
31.1318947675
 12
533.7907489669
 22
31.0996304642
 13
533.7907489669
 23
31.0996304642
  0
SOLID
  8
0
 62
7
  6
CONTINUOUS
 10
533.7907489669
 20
31.0996304642
 11
533.9641864669
 21
31.0028388804
 12
533.5594989807
 22
31.0028388804
 13
533.5594989807
 23
31.0028388804
  0
SOLID
  8
0
 62
7
  6
CONTINUOUS
 10
533.6751239738
 20
30.9383122606
 11
533.5594989807
 21
31.0028388804
 12
533.9641864669
 22
31.0028388804
 13
533.9641864669
 23
31.0028388804
  0
SOLID
  8
0
 62
7
  6
CONTINUOUS
 10
533.9641864669
 20
31.0028388804
 11
534.3110615082
 21
30.9383122606
 12
533.6751239738
 22
30.9383122606
 13
533.6751239738
 23
30.9383122606
  0
SOLID
  8
0
 62
7
  6
CONTINUOUS
 10
533.8485614944
 20
30.8737848904
 11
533.6751239738
 21
30.9383122606
 12
534.3110615082
 22
30.9383122606
 13
534.3110615082
 23
30.9383122606
  0
SOLID
  8
0
 62
7
  6
CONTINUOUS
 10
537.8954364807
 20
31.3254759532
 11
538.0110613704
 21
31.3900038345
 12
538.5891864807
 22
31.3577403412
 13
538.5891864807
 23
31.3577403412
  0
SOLID
  8
0
 62
7
  6
CONTINUOUS
 10
538.5891864807
 20
31.3577403412
 11
538.3579363704
 21
31.3254759532
 12
537.8954364807
 22
31.3254759532
 13
537.8954364807
 23
31.3254759532
  0
SOLID
  8
0
 62
7
  6
CONTINUOUS
 10
537.7798115909
 20
31.1964218576
 11
537.8954364807
 21
31.3254759532
 12
538.3579363704
 22
31.3254759532
 13
538.3579363704
 23
31.3254759532
  0
SOLID
  8
0
 62
7
  6
CONTINUOUS
 10
538.1266865909
 20
31.2286853572
 11
537.7798115909
 21
31.1964218576
 12
538.2423114807
 22
31.2932132511
 13
538.2423114807
 23
31.2932132511
  0
SOLID
  8
0
 62
7
  6
CONTINUOUS
 10
537.7798115909
 20
31.1964218576
 11
538.3579363704
 21
31.325476038
 12
538.2423114807
 22
31.2932132511
 13
538.2423114807
 23
31.2932132511
  0
SOLID
  8
0
 62
7
  6
CONTINUOUS
 10
538.1266865909
 20
31.2286853572
 11
538.0688739807
 21
31.1318947675
 12
537.7798115909
 22
31.1964218576
 13
537.7798115909
 23
31.1964218576
  0
SOLID
  8
0
 62
7
  6
CONTINUOUS
 10
537.7798115909
 20
31.0996304642
 11
537.7798115909
 21
31.1964218576
 12
538.0688739807
 22
31.1318947675
 13
538.0688739807
 23
31.1318947675
  0
SOLID
  8
0
 62
7
  6
CONTINUOUS
 10
538.0688739807
 20
31.1318947675
 11
538.0688739807
 21
31.0673661609
 12
537.7798115909
 22
31.0996304642
 13
537.7798115909
 23
31.0996304642
  0
SOLID
  8
0
 62
7
  6
CONTINUOUS
 10
537.8376238704
 20
30.9705762839
 11
537.7798115909
 21
31.0996304642
 12
538.0688739807
 22
31.0673661609
 13
538.0688739807
 23
31.0673661609
  0
SOLID
  8
0
 62
7
  6
CONTINUOUS
 10
539.2251242012
 20
31.1641579843
 11
539.5141862601
 21
31.0673661609
 12
539.1673112601
 22
31.0996304642
 13
539.1673112601
 23
31.0996304642
  0
SOLID
  8
0
 62
7
  6
CONTINUOUS
 10
538.9938737601
 20
31.0028390707
 11
539.1673112601
 21
31.0996304642
 12
539.5141862601
 22
31.0673661609
 13
539.5141862601
 23
31.0673661609
  0
SOLID
  8
0
 62
7
  6
CONTINUOUS
 10
538.9938737601
 20
31.0028390707
 11
539.5141862601
 21
31.0673661609
 12
539.2251242012
 22
30.9705762839
 13
539.2251242012
 23
30.9705762839
  0
SOLID
  8
0
 62
7
  6
CONTINUOUS
 10
539.5141862601
 20
31.0673661609
 11
539.5719992012
 21
30.9060491937
 12
539.2251242012
 22
30.9705762839
 13
539.2251242012
 23
30.9705762839
  0
SOLID
  8
0
 62
7
  6
CONTINUOUS
 10
539.2829364807
 20
30.8737848904
 11
539.2251242012
 21
30.9705762839
 12
539.5719992012
 22
30.9060491937
 13
539.5719992012
 23
30.9060491937
  0
SOLID
  8
0
 62
7
  6
CONTINUOUS
 10
539.2829364807
 20
30.8737848904
 11
539.5719992012
 21
30.9060491937
 12
539.3407487601
 22
30.8092576254
 13
539.3407487601
 23
30.8092576254
  0
SOLID
  8
0
 62
7
  6
CONTINUOUS
 10
539.5719992012
 20
30.9060491937
 11
539.6298114807
 21
30.8092576254
 12
539.3407487601
 22
30.8092576254
 13
539.3407487601
 23
30.8092576254
  0
SOLID
  8
0
 62
7
  6
CONTINUOUS
 10
534.8891865358
 20
31.035103216
 11
534.9469989807
 21
31.1318946289
 12
535.2360615358
 22
31.1318946289
 13
535.2360615358
 23
31.1318946289
  0
SOLID
  8
0
 62
7
  6
CONTINUOUS
 10
535.2360615358
 20
31.1318946289
 11
535.1782489255
 21
31.0028390707
 12
534.8891865358
 22
31.035103216
 13
534.8891865358
 23
31.035103216
  0
SOLID
  8
0
 62
7
  6
CONTINUOUS
 10
534.7157489531
 20
30.9705762839
 11
534.8891865358
 21
31.035103216
 12
535.1782489255
 22
31.0028390707
 13
535.1782489255
 23
31.0028390707
  0
SOLID
  8
0
 62
7
  6
CONTINUOUS
 10
534.7157489531
 20
30.9705762839
 11
535.1782489255
 21
31.0028390707
 12
534.3110615082
 22
30.9383119806
 13
534.3110615082
 23
30.9383119806
  0
SOLID
  8
0
 62
7
  6
CONTINUOUS
 10
535.1782489255
 20
31.0028390707
 11
535.0048114255
 21
30.9060491937
 12
534.3110615082
 22
30.9383119806
 13
534.3110615082
 23
30.9383119806
  0
SOLID
  8
0
 62
7
  6
CONTINUOUS
 10
533.8485614944
 20
30.8737848904
 11
534.3110615082
 21
30.9383119806
 12
535.0048114255
 22
30.9060491937
 13
535.0048114255
 23
30.9060491937
  0
SOLID
  8
0
 62
7
  6
CONTINUOUS
 10
533.8485614944
 20
30.8737848904
 11
535.0048114255
 21
30.9060491937
 12
534.0219989944
 22
30.8415207131
 13
534.0219989944
 23
30.8415207131
  0
SOLID
  8
0
 62
7
  6
CONTINUOUS
 10
535.0048114255
 20
30.9060491937
 11
534.7735614807
 21
30.8415207131
 12
534.0219989944
 22
30.8415207131
 13
534.0219989944
 23
30.8415207131
  0
SOLID
  8
0
 62
7
  6
CONTINUOUS
 10
534.3688739531
 20
30.8092578002
 11
534.0219989944
 21
30.8415207131
 12
534.7735614807
 22
30.8415207131
 13
534.7735614807
 23
30.8415207131
  0
SOLID
  8
0
 62
7
  6
CONTINUOUS
 10
537.8376238704
 20
30.9705762839
 11
538.0688739807
 21
31.0673661609
 12
538.1266865909
 22
31.0028390707
 13
538.1266865909
 23
31.0028390707
  0
SOLID
  8
0
 62
7
  6
CONTINUOUS
 10
538.1266865909
 20
31.0028390707
 11
538.3579363704
 21
30.9383119806
 12
537.8376238704
 22
30.9705762839
 13
537.8376238704
 23
30.9705762839
  0
SOLID
  8
0
 62
7
  6
CONTINUOUS
 10
538.0110613704
 20
30.8737848904
 11
537.8376238704
 21
30.9705762839
 12
538.3579363704
 22
30.9383119806
 13
538.3579363704
 23
30.9383119806
  0
SOLID
  8
0
 62
7
  6
CONTINUOUS
 10
538.7048113704
 20
30.9383119664
 11
538.9938737601
 21
31.0028390707
 12
539.2251242012
 22
30.9705762839
 13
539.2251242012
 23
30.9705762839
  0
SOLID
  8
0
 62
7
  6
CONTINUOUS
 10
539.2251242012
 20
30.9705762839
 11
539.1673112601
 21
30.9060491937
 12
538.7048113704
 22
30.9383119664
 13
538.7048113704
 23
30.9383119664
  0
SOLID
  8
0
 62
7
  6
CONTINUOUS
 10
539.1673112601
 20
30.9060491937
 11
538.0110613704
 21
30.8737848904
 12
538.7048113704
 22
30.9383119664
 13
538.7048113704
 23
30.9383119664
  0
SOLID
  8
0
 62
7
  6
CONTINUOUS
 10
538.0110613704
 20
30.8737848904
 11
538.3579363704
 21
30.9383119664
 12
538.7048113704
 22
30.9383119664
 13
538.7048113704
 23
30.9383119664
  0
SOLID
  8
0
 62
7
  6
CONTINUOUS
 10
538.0110613704
 20
30.8737848904
 11
539.1673112601
 21
30.9060491937
 12
538.1266865909
 22
30.8415205568
 13
538.1266865909
 23
30.8415205568
  0
SOLID
  8
0
 62
7
  6
CONTINUOUS
 10
539.1673112601
 20
30.9060491937
 11
538.9938737601
 21
30.8415205568
 12
538.1266865909
 22
30.8415205568
 13
538.1266865909
 23
30.8415205568
  0
SOLID
  8
0
 62
7
  6
CONTINUOUS
 10
538.3579363704
 20
30.8092577215
 11
538.1266865909
 21
30.8415205568
 12
538.9938737601
 22
30.8415205568
 13
538.9938737601
 23
30.8415205568
  0
SOLID
  8
0
 62
7
  6
CONTINUOUS
 10
538.9938737601
 20
30.8415205568
 11
538.7048113704
 21
30.8092577215
 12
538.3579363704
 22
30.8092577215
 13
538.3579363704
 23
30.8092577215
  0
SOLID
  8
0
 62
7
  6
CONTINUOUS
 10
543.3876242012
 20
30.9705762839
 11
543.0407492012
 21
30.9383119664
 12
543.2719989807
 22
31.0028390707
 13
543.2719989807
 23
31.0028390707
  0
SOLID
  8
0
 62
7
  6
CONTINUOUS
 10
543.2719989807
 20
31.0028390707
 11
543.0407492012
 21
30.9383119664
 12
543.2141867012
 22
31.0673661467
 13
543.2141867012
 23
31.0673661467
  0
SOLID
  8
0
 62
7
  6
CONTINUOUS
 10
543.0407492012
 20
30.9383119664
 11
542.9251239807
 21
31.0673661467
 12
543.2141867012
 22
31.0673661467
 13
543.2141867012
 23
31.0673661467
  0
SOLID
  8
0
 62
7
  6
CONTINUOUS
 10
543.3876242012
 20
30.9705762839
 11
543.7344992012
 21
30.9383119664
 12
543.0407492012
 22
30.9383119664
 13
543.0407492012
 23
30.9383119664
  0
SOLID
  8
0
 62
7
  6
CONTINUOUS
 10
540.0923117012
 20
30.8092578002
 11
540.0923117012
 21
31.841695792
 12
540.3813737601
 22
30.8092578002
 13
540.3813737601
 23
31.841695792
  0
ENDBLK
  8
0
  6
BYBLOCK
 62
0
  0
BLOCK
  8
0
 62
2
  6
CONTINUOUS
  2
SYMBOL_2_BL0
 70
64
 10
416.1419631151
 20
19.7009994242
  0
TEXT
  8
0
 62
7
  6
CONTINUOUS
 10
402.4066669574
 20
19.0744135318
  7
TEXTSTYLE_3
 40
2.7338706658
  1
Ammeraal Beltech
 41
1.0
 51
15.0
 72
0
  0
TEXT
  8
0
 62
7
  6
CONTINUOUS
 10
413.2074677831
 20
16.800876859
  7
TEXTSTYLE_4
 40
1.0935482663
  1
Innovation & Service in Belting
 41
1.0
 72
0
  0
LINE
  8
0
 62
7
  6
CONTINUOUS
 10
396.382126306
 20
19.8410068404
 11
397.1602782994
 21
23.5019241381
  0
LINE
  8
0
 62
7
  6
CONTINUOUS
 10
407.2554465892
 20
27.1653180497
 11
397.6480960424
 21
24.0437006284
  0
LINE
  8
0
 62
7
  6
CONTINUOUS
 10
396.6074096383
 20
19.1476560374
 11
404.1144848995
 21
12.3882551114
  0
LINE
  8
0
 62
7
  6
CONTINUOUS
 10
396.869944049
 20
20.3827833308
 11
407.6782134142
 21
23.8946029297
  0
LINE
  8
0
 62
7
  6
CONTINUOUS
 10
407.674008277
 20
13.544814366
 11
399.2285486083
 21
21.1491404077
  0
LINE
  8
0
 62
7
  6
CONTINUOUS
 10
408.1938309968
 20
26.320392934
 11
407.2172714596
 21
21.7260415315
  0
LINE
  8
0
 62
7
  6
CONTINUOUS
 10
406.5174695119
 20
18.4337322177
 11
405.8310213004
 21
15.2042472933
  0
LINE
  8
0
 62
7
  6
CONTINUOUS
 10
408.8749270954
 20
13.9350165436
 11
409.831158631
 21
18.4337322177
  0
LINE
  8
0
 62
7
  6
CONTINUOUS
 10
410.5309605787
 20
21.7260415315
 11
410.9752023811
 21
23.8160348909
  0
LINE
  8
0
 62
7
  6
CONTINUOUS
 10
404.8275859748
 20
12.2366807987
 11
408.3871093524
 21
13.3932400533
  0
LINE
  8
0
 62
7
  6
CONTINUOUS
 10
407.9685476645
 20
27.013743737
 11
410.7499190488
 21
24.5093856939
  0
ARC
  8
0
 62
7
  6
CONTINUOUS
 10
397.8733793747
 20
23.3503498254
 40
0.7290321776
 50
108.0
 51
168.0
  0
ARC
  8
0
 62
7
  6
CONTINUOUS
 10
407.4807299215
 20
26.4719672466
 40
0.7290321776
 50
348.0
 51
108.0
  0
ARC
  8
0
 62
7
  6
CONTINUOUS
 10
410.2621013058
 20
23.9676092036
 40
0.7290321776
 50
348.0
 51
48.0
  0
ARC
  8
0
 62
7
  6
CONTINUOUS
 10
404.6023026425
 20
12.9300316018
 40
0.7290321776
 50
228.0
 51
288.0
  0
ARC
  8
0
 62
7
  6
CONTINUOUS
 10
397.0952273813
 20
19.6894325277
 40
0.7290321776
 50
108.0
 51
228.0
  0
ARC
  8
0
 62
7
  6
CONTINUOUS
 10
408.1618260201
 20
14.0865908563
 40
0.7290321776
 50
228.0
 51
348.0
  0
ENDBLK
  8
0
  6
BYBLOCK
 62
0
  0
ENDSEC
  0
SECTION
  2
ENTITIES
  0
TEXT
  8
0
 62
5
  6
CONTINUOUS
 10
480.0
 20
25.636
  7
TEXTSTYLE_2
 40
2.8
  1
Scale :
 41
0.6
 51
0.000019
 72
0
  0
TEXT
  8
0
 62
5
  6
CONTINUOUS
 10
500.0
 20
25.636
  7
TEXTSTYLE_2
 40
2.8
  1
Belt type:
 41
0.6
 51
0.000019
 72
0
  0
INSERT
  8
0
 62
2
  6
CONTINUOUS
  2
SYMBOL_2_BL0
 10
416.1419631151
 20
19.7009994242
  0
INSERT
  8
0
 62
2
  6
CONTINUOUS
  2
SYMBOL_3_BL1
 10
557.4079930916
 20
35.8092573885
  0
LINE
  8
0
 62
2
  6
CONTINUOUS
 10
394.0
 20
30.0
 11
584.0
 21
30.0
  0
LINE
  8
0
 62
2
  6
CONTINUOUS
 10
394.0
 20
30.0
 11
394.0
 21
10.0
  0
LINE
  8
0
 62
2
  6
CONTINUOUS
 10
394.0
 20
10.0
 11
584.0
 21
10.0
  0
LINE
  8
0
 62
2
  6
CONTINUOUS
 10
479.0
 20
30.0
 11
479.0
 21
10.0
  0
LINE
  8
0
 62
2
  6
CONTINUOUS
 10
499.0
 20
30.0
 11
499.0
 21
10.0
  0
LINE
  8
0
 62
2
  6
CONTINUOUS
 10
584.0
 20
30.0
 11
584.0
 21
10.0
  0
TEXT
  8
0
 62
5
  6
CONTINUOUS
 10
397.0
 20
23.303
  7
TEXTSTYLE_5
 40
1.52
  1
                                                                     Ammeraal Beltech Modular A/S
 41
1.0
 72
0
  0
TEXT
  8
0
 62
5
  6
CONTINUOUS
 10
397.0
 20
20.595
  7
TEXTSTYLE_5
 40
1.5
  1
                                                                      Hjulmagervej 21, 7100 Vejle,  DK
 41
1.0
 72
0
  0
TEXT
  8
0
 62
5
  6
CONTINUOUS
 10
397.0
 20
17.881
  7
TEXTSTYLE_5
 40
1.495
  1
                                                                      tel: 
 41
1.0
 72
0
  0
TEXT
  8
0
 62
5
  6
CONTINUOUS
 10
441.9869465649
 20
17.881
  7
TEXTSTYLE_5
 40
1.51
  1
+45 75723100     fax: +45 75723348
 41
1.0
 72
0
  0
TEXT
  8
0
 62
5
  6
CONTINUOUS
 10
397.0
 20
15.177
  7
TEXTSTYLE_5
 40
1.5
  1
                                                                      admin@unichains.dk  www.unichains.com
 41
1.0
 72
0
  0
TEXT
  8
0
 62
5
  6
CONTINUOUS
 10
483.75
 20
13.75
  7
TEXTSTYLE_6
 40
5.0
  1
1:1
 41
0.7
 72
1
 11
489.0
 21
13.75
  0
TEXT
  8
0
 62
5
  6
CONTINUOUS
 10
502.0
 20
13.75
  7
TEXTSTYLE_7
 40
7.5
  1
Sprocket Z16
 41
0.6361111111
 72
0
  0
LINE
  8
0
 62
7
  6
CONTINUOUS
 10
0.0
 20
0.0
 11
0.0
 21
420.0
  0
LINE
  8
0
 62
7
  6
CONTINUOUS
 10
10.0
 20
10.0
 11
10.0
 21
410.0
  0
LINE
  8
0
 62
7
  6
CONTINUOUS
 10
0.0
 20
0.0
 11
594.0
 21
0.0
  0
LINE
  8
0
 62
7
  6
CONTINUOUS
 10
10.0
 20
10.0
 11
584.0
 21
10.0
  0
LINE
  8
0
 62
7
  6
CONTINUOUS
 10
394.0
 20
30.0
 11
584.0
 21
30.0
  0
LINE
  8
0
 62
7
  6
CONTINUOUS
 10
179.0
 20
5.0
 11
179.0
 21
10.0
  0
LINE
  8
0
 62
7
  6
CONTINUOUS
 10
179.0
 20
410.0
 11
179.0
 21
415.0
  0
LINE
  8
0
 62
7
  6
CONTINUOUS
 10
594.0
 20
420.0
 11
584.0
 21
410.0
  0
LINE
  8
0
 62
7
  6
CONTINUOUS
 10
384.0
 20
410.0
 11
384.0
 21
415.0
  0
LINE
  8
0
 62
7
  6
CONTINUOUS
 10
584.0
 20
297.0
 11
589.0
 21
297.0
  0
LINE
  8
0
 62
7
  6
CONTINUOUS
 10
10.0
 20
410.0
 11
584.0
 21
410.0
  0
LINE
  8
0
 62
7
  6
CONTINUOUS
 10
0.0
 20
420.0
 11
594.0
 21
420.0
  0
LINE
  8
0
 62
7
  6
CONTINUOUS
 10
584.0
 20
10.0
 11
584.0
 21
410.0
  0
LINE
  8
0
 62
7
  6
CONTINUOUS
 10
594.0
 20
0.0
 11
594.0
 21
420.0
  0
LINE
  8
0
 62
7
  6
CONTINUOUS
 10
61.7697745902
 20
244.3525888628
 11
61.7697745902
 21
241.9127296257
  0
LINE
  8
SURFACE
 62
7
  6
CONTINUOUS
 10
61.7697745902
 20
193.7230258913
 11
61.7697745902
 21
220.337807377
  0
LINE
  8
0
 62
7
  6
CONTINUOUS
 10
80.2111758199
 20
286.4342105837
 11
79.2774821126
 21
284.1800745724
  0
LINE
  8
SURFACE
 62
7
  6
CONTINUOUS
 10
60.8360808828
 20
239.6585936144
 11
71.0211168134
 21
264.2474454913
  0
LINE
  8
0
 62
7
  6
CONTINUOUS
 10
113.3527484065
 20
318.2553408663
 11
111.6275073949
 21
316.5300998546
  0
LINE
  8
SURFACE
 62
7
  6
CONTINUOUS
 10
77.5522411009
 20
282.4548335607
 11
96.3717335693
 21
301.274326029
  0
LINE
  8
0
 62
7
  6
CONTINUOUS
 10
156.1489883528
 20
334.9715010844
 11
153.8948523415
 21
334.037807377
  0
LINE
  8
SURFACE
 62
7
  6
CONTINUOUS
 10
109.3733713835
 20
315.5964061473
 11
133.9622232604
 21
325.7814420779
  0
LINE
  8
SURFACE
 62
7
  6
CONTINUOUS
 10
202.0845560759
 20
104.037807377
 11
175.4697745902
 21
104.037807377
  0
LINE
  8
0
 62
7
  6
CONTINUOUS
 10
151.4549931045
 20
104.037807377
 11
153.8948523415
 21
104.037807377
  0
LINE
  8
SURFACE
 62
7
  6
CONTINUOUS
 10
156.1489883528
 20
103.1041136697
 11
131.5601364759
 21
113.2891496003
  0
LINE
  8
0
 62
7
  6
CONTINUOUS
 10
109.3733713835
 20
122.4792086068
 11
111.6275073949
 21
121.5455148995
  0
LINE
  8
0
 62
7
  6
CONTINUOUS
 10
77.5522411009
 20
155.6207811934
 11
79.2774821126
 21
153.8955401817
  0
LINE
  8
SURFACE
 62
7
  6
CONTINUOUS
 10
113.3527484065
 20
119.8202738878
 11
94.5332559382
 21
138.6397663561
  0
LINE
  8
0
 62
7
  6
CONTINUOUS
 10
60.8360808828
 20
198.4170211397
 11
61.7697745902
 21
196.1628851284
  0
LINE
  8
SURFACE
 62
7
  6
CONTINUOUS
 10
80.2111758199
 20
151.6414041704
 11
70.0261398893
 21
176.2302560473
  0
LINE
  8
0
 62
7
  6
CONTINUOUS
 10
118.5605657964
 20
281.6340493638
 11
117.9660316841
 21
281.0501196602
  0
LINE
  8
0
 62
7
  6
CONTINUOUS
 10
115.5878957878
 20
278.714401389
 11
114.9933618031
 21
278.1304718108
  0
LINE
  8
0
 62
7
  6
CONTINUOUS
 10
122.4155381714
 20
284.9712471758
 11
121.9044568262
 21
284.5431809111
  0
LINE
  8
0
 62
7
  6
CONTINUOUS
 10
120.754524348
 20
283.5800322749
 11
120.1156728493
 21
283.0449495972
  0
LINE
  8
0
 62
7
  6
CONTINUOUS
 10
135.3289212579
 20
296.6715368612
 11
134.6703413745
 21
296.133307895
  0
LINE
  8
0
 62
7
  6
CONTINUOUS
 10
124.1132168225
 20
289.5463922093
 11
123.4478980516
 21
289.0446005716
  0
LINE
  8
0
 62
7
  6
CONTINUOUS
 10
123.9603662415
 20
288.3651259039
 11
124.6256850124
 21
288.8669175416
  0
LINE
  8
0
 62
7
  6
CONTINUOUS
 10
125.6506216794
 20
287.5079678255
 11
124.9853029084
 21
287.0061761879
  0
LINE
  8
0
 62
7
  6
CONTINUOUS
 10
143.1018744472
 20
300.343687308
 11
142.5491049181
 21
299.933980974
  0
LINE
  8
0
 62
7
  6
CONTINUOUS
 10
136.656847551
 20
297.3691124917
 11
135.3289212579
 21
296.6715368612
  0
LINE
  8
0
 62
7
  6
CONTINUOUS
 10
135.8038663114
 20
295.7674169397
 11
137.1317926045
 21
296.4649925702
  0
LINE
  8
0
 62
7
  6
CONTINUOUS
 10
138.7871173697
 20
296.1809397493
 11
139.6724015651
 21
296.6459901696
  0
LINE
  8
0
 62
7
  6
CONTINUOUS
 10
143.8733111399
 20
300.6588604543
 11
143.1018744472
 21
300.343687308
  0
LINE
  8
0
 62
7
  6
CONTINUOUS
 10
143.4881279719
 20
299.3982700186
 11
144.4138491781
 21
299.77647664
  0
LINE
  8
0
 62
7
  6
CONTINUOUS
 10
145.6614483215
 20
299.3668355202
 11
146.5871695277
 21
299.7450421416
  0
LINE
  8
0
 62
7
  6
CONTINUOUS
 10
152.1370701391
 20
303.5249078808
 11
148.3088260097
 21
302.3653618984
  0
LINE
  8
0
 62
7
  6
CONTINUOUS
 10
149.5619413002
 20
301.6778244775
 11
152.5926321354
 21
302.595797643
  0
LINE
  8
0
 62
7
  6
CONTINUOUS
 10
137.4737424522
 20
297.6059681507
 11
136.656847551
 21
297.3691124917
  0
LINE
  8
0
 62
7
  6
CONTINUOUS
 10
135.0085078398
 20
294.7727984509
 11
135.2928349196
 21
295.3066969682
  0
LINE
  8
0
 62
7
  6
CONTINUOUS
 10
120.5918071893
 20
277.1873985039
 11
120.2354508563
 21
276.5988181818
  0
LINE
  8
0
 62
7
  6
CONTINUOUS
 10
120.7125337421
 20
276.1130712704
 11
121.0688901063
 21
276.7016515606
  0
LINE
  8
0
 62
7
  6
CONTINUOUS
 10
134.6703413745
 20
296.133307895
 11
134.2384674917
 21
295.5219012699
  0
LINE
  8
0
 62
7
  6
CONTINUOUS
 10
121.9044568262
 20
284.5431809111
 11
121.5026689303
 21
283.9846258702
  0
LINE
  8
0
 62
7
  6
CONTINUOUS
 10
121.9398427273
 20
283.462670765
 11
122.3416306232
 21
284.0212258059
  0
LINE
  8
0
 62
7
  6
CONTINUOUS
 10
142.5491049181
 20
299.933980974
 11
142.0607074451
 21
299.3667036491
  0
LINE
  8
0
 62
7
  6
CONTINUOUS
 10
120.2354508563
 20
276.5988181818
 11
119.7598236005
 21
276.1316744524
  0
LINE
  8
0
 62
7
  6
CONTINUOUS
 10
120.2369064862
 20
275.645927541
 11
120.7125337421
 21
276.1130712704
  0
LINE
  8
0
 62
7
  6
CONTINUOUS
 10
122.0205084829
 20
277.3977163175
 11
122.6150425952
 21
277.981646021
  0
LINE
  8
0
 62
7
  6
CONTINUOUS
 10
154.3885137039
 20
300.1163159188
 11
154.6581941056
 21
300.375849474
  0
LINE
  8
0
 62
7
  6
CONTINUOUS
 10
135.2928349196
 20
295.3066969682
 11
135.8038663114
 21
295.7674169397
  0
LINE
  8
0
 62
7
  6
CONTINUOUS
 10
140.4133371965
 20
291.6516789273
 11
139.9023058047
 21
291.1909589559
  0
LINE
  8
0
 62
7
  6
CONTINUOUS
 10
143.0896429563
 20
299.0515971597
 11
143.4881279719
 21
299.3982700186
  0
LINE
  8
0
 62
7
  6
CONTINUOUS
 10
123.6130635311
 20
278.8693083899
 11
124.2519150297
 21
279.4043910677
  0
LINE
  8
0
 62
7
  6
CONTINUOUS
 10
126.5517799862
 20
281.3306883401
 11
127.1906311194
 21
281.8657707117
  0
LINE
  8
0
 62
7
  6
CONTINUOUS
 10
140.3772509136
 20
290.2868389288
 11
141.0358307901
 21
290.8250679082
  0
LINE
  8
0
 62
7
  6
CONTINUOUS
 10
128.265099611
 20
282.657537934
 11
128.9304183819
 21
283.1593295717
  0
LINE
  8
0
 62
7
  6
CONTINUOUS
 10
147.2197681149
 20
294.6712494563
 11
146.6669950545
 21
294.2615416796
  0
LINE
  8
0
 62
7
  6
CONTINUOUS
 10
153.7126136823
 20
300.6229886153
 11
153.2834255425
 21
300.3151413814
  0
LINE
  8
0
 62
7
  6
CONTINUOUS
 10
154.7488036894
 20
297.2020045652
 11
154.3196155495
 21
296.8941573313
  0
LINE
  8
0
 62
7
  6
CONTINUOUS
 10
147.0532486243
 20
293.3161242799
 11
147.7603097239
 21
293.7888669882
  0
LINE
  8
0
 62
7
  6
CONTINUOUS
 10
178.7586914633
 20
305.666260532
 11
179.2719902929
 21
305.9862821353
  0
LINE
  8
0
 62
7
  6
CONTINUOUS
 10
119.642008594
 20
275.3002206229
 11
120.2369064862
 21
275.645927541
  0
LINE
  8
0
 62
7
  6
CONTINUOUS
 10
179.1397215866
 20
306.8433652054
 11
178.2865050174
 21
306.3666875595
  0
LINE
  8
0
 62
7
  6
CONTINUOUS
 10
154.4561621041
 20
295.868419622
 11
155.2043693667
 21
296.2728953334
  0
LINE
  8
0
 62
7
  6
CONTINUOUS
 10
141.4930243811
 20
293.180196926
 11
140.6077401857
 21
292.7151465057
  0
LINE
  8
0
 62
7
  6
CONTINUOUS
 10
139.9023058047
 20
291.1909589559
 11
138.5743795116
 21
290.4933833254
  0
LINE
  8
0
 62
7
  6
CONTINUOUS
 10
139.0493246206
 20
289.5892632983
 11
140.3772509136
 21
290.2868389288
  0
LINE
  8
0
 62
7
  6
CONTINUOUS
 10
122.3416306232
 20
284.0212258059
 11
122.9620054176
 21
284.3188032943
  0
LINE
  8
0
 62
7
  6
CONTINUOUS
 10
145.3151075827
 20
297.5705025234
 11
144.3893863766
 21
297.1922959021
  0
LINE
  8
0
 62
7
  6
CONTINUOUS
 10
144.7756399013
 20
296.2468786127
 11
145.7013611074
 21
296.6250852341
  0
LINE
  8
0
 62
7
  6
CONTINUOUS
 10
143.7477766026
 20
294.3559778777
 11
142.8220553965
 21
293.9777712564
  0
LINE
  8
0
 62
7
  6
CONTINUOUS
 10
146.6669950545
 20
294.2615416796
 11
145.43270129
 21
293.7572666654
  0
LINE
  8
0
 62
7
  6
CONTINUOUS
 10
145.8189548598
 20
292.8118492657
 11
147.0532486243
 21
293.3161242799
  0
LINE
  8
0
 62
7
  6
CONTINUOUS
 10
122.9081424467
 20
285.1618079449
 11
122.4155381714
 21
284.9712471758
  0
LINE
  8
0
 62
7
  6
CONTINUOUS
 10
153.2834255425
 20
300.3151413814
 11
150.2527347073
 21
299.3971682159
  0
LINE
  8
0
 62
7
  6
CONTINUOUS
 10
150.5487889654
 20
298.4197442993
 11
153.5794798006
 21
299.3377174649
  0
LINE
  8
0
 62
7
  6
CONTINUOUS
 10
154.3196155495
 20
296.8941573313
 11
151.2889247143
 21
295.9761841657
  0
LINE
  8
0
 62
7
  6
CONTINUOUS
 10
150.6279179746
 20
294.7088736395
 11
154.4561621041
 21
295.868419622
  0
LINE
  8
0
 62
7
  6
CONTINUOUS
 10
179.2719902929
 20
305.9862821353
 11
179.7784370587
 21
306.1362289668
  0
LINE
  8
0
 62
7
  6
CONTINUOUS
 10
179.1555051864
 20
303.0950105381
 11
179.6619519521
 21
303.2449573696
  0
LINE
  8
0
 62
7
  6
CONTINUOUS
 10
181.1970758539
 20
299.9464433159
 11
180.6906290882
 21
299.7964964844
  0
LINE
  8
0
 62
7
  6
CONTINUOUS
 10
138.2324297124
 20
289.3524076525
 11
139.0493246206
 21
289.5892632983
  0
LINE
  8
0
 62
7
  6
CONTINUOUS
 10
121.3379453683
 20
283.4025990783
 11
121.3009915942
 21
282.9275883934
  0
LINE
  8
0
 62
7
  6
CONTINUOUS
 10
120.7099861666
 20
277.7806296936
 11
120.5918071893
 21
277.1873985039
  0
LINE
  8
0
 62
7
  6
CONTINUOUS
 10
121.5026689303
 20
283.9846258702
 11
121.3379453683
 21
283.4025990783
  0
LINE
  8
0
 62
7
  6
CONTINUOUS
 10
121.7751191652
 20
282.8806439731
 11
121.9398427273
 21
283.462670765
  0
LINE
  8
0
 62
7
  6
CONTINUOUS
 10
134.2384674917
 20
295.5219012699
 11
133.9649086266
 21
294.6091213377
  0
LINE
  8
0
 62
7
  6
CONTINUOUS
 10
121.0688901063
 20
276.7016515606
 11
121.1874330979
 21
277.0566602367
  0
LINE
  8
0
 62
7
  6
CONTINUOUS
 10
142.0607074451
 20
299.3667036491
 11
141.7010629127
 21
298.4842879491
  0
LINE
  8
0
 62
7
  6
CONTINUOUS
 10
140.6976642209
 20
292.1855775502
 11
140.4133371965
 21
291.6516789273
  0
LINE
  8
0
 62
7
  6
CONTINUOUS
 10
142.7555335281
 20
298.5473547526
 11
143.0896429563
 21
299.0515971597
  0
LINE
  8
0
 62
7
  6
CONTINUOUS
 10
147.553877498
 20
295.1754919738
 11
147.2197681149
 21
294.6712494563
  0
LINE
  8
0
 62
7
  6
CONTINUOUS
 10
141.0358307901
 20
290.8250679082
 11
141.4677046522
 21
291.4364745728
  0
LINE
  8
0
 62
7
  6
CONTINUOUS
 10
155.2043693667
 20
296.2728953334
 11
155.6943841299
 21
296.9548653668
  0
LINE
  8
0
 62
7
  6
CONTINUOUS
 10
170.7975386463
 20
306.0178021524
 11
165.5535851784
 21
299.6916030956
  0
LINE
  8
0
 62
7
  6
CONTINUOUS
 10
147.7603097239
 20
293.7888669882
 11
148.2487036486
 21
294.3561429118
  0
LINE
  8
0
 62
7
  6
CONTINUOUS
 10
179.02323648
 20
303.9520936082
 11
177.9966388207
 21
303.3120504015
  0
LINE
  8
0
 62
7
  6
CONTINUOUS
 10
178.6422063567
 20
302.7749889347
 11
179.1555051864
 21
303.0950105381
  0
LINE
  8
0
 62
7
  6
CONTINUOUS
 10
181.7103746836
 20
300.2664649193
 11
181.1970758539
 21
299.9464433159
  0
LINE
  8
0
 62
7
  6
CONTINUOUS
 10
181.3293521793
 20
299.0893598345
 11
182.1825611271
 21
299.5660378322
  0
LINE
  8
0
 62
7
  6
CONTINUOUS
 10
119.7598236005
 20
276.1316744524
 11
119.045654966
 21
275.9074042834
  0
LINE
  8
0
 62
7
  6
CONTINUOUS
 10
121.1874330979
 20
277.0566602367
 11
121.1863411315
 21
277.7713280404
  0
LINE
  8
0
 62
7
  6
CONTINUOUS
 10
121.7381653911
 20
282.4056332882
 11
121.7751191652
 21
282.8806439731
  0
LINE
  8
0
 62
7
  6
CONTINUOUS
 10
134.9508852937
 20
294.1657209655
 11
135.0085078398
 21
294.7727984509
  0
LINE
  8
0
 62
7
  6
CONTINUOUS
 10
141.4677046522
 20
291.4364745728
 11
141.7412634895
 21
292.3492545578
  0
LINE
  8
0
 62
7
  6
CONTINUOUS
 10
154.6581941056
 20
300.375849474
 11
154.9393551164
 21
301.1724086661
  0
LINE
  8
0
 62
7
  6
CONTINUOUS
 10
148.2487036486
 20
294.3561429118
 11
148.6083499242
 21
295.2385593884
  0
LINE
  8
0
 62
7
  6
CONTINUOUS
 10
153.9329517077
 20
301.0454261566
 11
153.7126136823
 21
300.6229886153
  0
LINE
  8
0
 62
7
  6
CONTINUOUS
 10
154.9691416802
 20
297.6244422206
 11
154.7488036894
 21
297.2020045652
  0
LINE
  8
0
 62
7
  6
CONTINUOUS
 10
178.4050695958
 20
305.1694549458
 11
178.7586914633
 21
305.666260532
  0
LINE
  8
0
 62
7
  6
CONTINUOUS
 10
174.4468541569
 20
307.0071431746
 11
173.4786541439
 21
305.7896723144
  0
LINE
  8
0
 62
7
  6
CONTINUOUS
 10
173.5145987624
 20
304.4284443668
 11
174.4827987628
 21
305.6459157036
  0
LINE
  8
0
 62
7
  6
CONTINUOUS
 10
178.2865050174
 20
306.3666875595
 11
177.7595020598
 21
305.7065164125
  0
LINE
  8
0
 62
7
  6
CONTINUOUS
 10
166.5819102906
 20
299.4498656788
 11
171.6599830643
 21
305.7598845956
  0
LINE
  8
0
 62
7
  6
CONTINUOUS
 10
178.2954365532
 20
302.4482581203
 11
178.6422063567
 21
302.7749889347
  0
LINE
  8
0
 62
7
  6
CONTINUOUS
 10
133.9649086266
 20
294.6091213377
 11
133.9864433676
 21
293.8513576209
  0
LINE
  8
0
 62
7
  6
CONTINUOUS
 10
147.6693232939
 20
295.7742690114
 11
147.553877498
 21
295.1754919738
  0
LINE
  8
0
 62
7
  6
CONTINUOUS
 10
155.6943841299
 20
296.9548653668
 11
155.9755451234
 21
297.751424616
  0
LINE
  8
0
 62
7
  6
CONTINUOUS
 10
182.0639965558
 20
300.7632706246
 11
181.7103746836
 21
300.2664649193
  0
LINE
  8
0
 62
7
  6
CONTINUOUS
 10
182.1825611271
 20
299.5660378322
 11
182.7095640871
 21
300.2262090387
  0
LINE
  8
0
 62
7
  6
CONTINUOUS
 10
120.589987493
 20
278.3785117115
 11
120.7099861666
 21
277.7806296936
  0
LINE
  8
0
 62
7
  6
CONTINUOUS
 10
142.7943759573
 20
298.0116121914
 11
142.7555335281
 21
298.5473547526
  0
LINE
  8
0
 62
7
  6
CONTINUOUS
 10
153.9444323168
 20
301.5824517936
 11
153.9329517077
 21
301.0454261566
  0
LINE
  8
0
 62
7
  6
CONTINUOUS
 10
154.9393551164
 20
301.1724086661
 11
154.9508357255
 21
301.7094343031
  0
LINE
  8
0
 62
7
  6
CONTINUOUS
 10
154.9806222892
 20
298.1614678575
 11
154.9691416802
 21
297.6244422206
  0
LINE
  8
0
 62
7
  6
CONTINUOUS
 10
148.6083499242
 20
295.2385593884
 11
148.6594200876
 21
295.9949060845
  0
LINE
  8
0
 62
7
  6
CONTINUOUS
 10
164.6503147404
 20
349.2114555547
 11
163.8260734411
 21
344.5369508586
  0
LINE
  8
SURFACE
 62
7
  6
CONTINUOUS
 10
115.7575552018
 20
103.4109546471
 11
116.7849110372
 21
108.04505735
  0
LINE
  8
0
 62
7
  6
CONTINUOUS
 10
178.2179843586
 20
304.6659393649
 11
178.4050695958
 21
305.1694549458
  0
LINE
  8
0
 62
7
  6
CONTINUOUS
 10
178.1083513256
 20
301.9447427777
 11
178.2954365532
 21
302.4482581203
  0
LINE
  8
0
 62
7
  6
CONTINUOUS
 10
182.2510817739
 20
301.266785729
 11
182.0639965558
 21
300.7632706246
  0
LINE
  8
0
 62
7
  6
CONTINUOUS
 10
177.7595020598
 20
305.7065164125
 11
177.3921760452
 21
304.8695608063
  0
LINE
  8
0
 62
7
  6
CONTINUOUS
 10
182.7095640871
 20
300.2262090387
 11
183.0768900873
 21
301.0631642876
  0
LINE
  8
0
 62
7
  6
CONTINUOUS
 10
215.388152178
 20
343.9404930944
 11
212.83779701
 21
339.9372373706
  0
LINE
  8
SURFACE
 62
7
  6
CONTINUOUS
 10
76.1533529879
 20
135.5608902629
 11
78.8759003451
 21
139.4490908443
  0
LINE
  8
CURVE
 62
2
  6
DOT
 10
142.1053944139
 20
231.5374495059
 11
164.2701324613
 21
253.7021875533
  0
LINE
  8
CURVE
 62
2
  6
DOT
 10
172.6374699077
 20
259.8067832999
 11
168.3948292206
 21
255.5641426128
  0
LINE
  8
CURVE
 62
2
  6
DOT
 10
136.0007986673
 20
223.1701120595
 11
140.2434393544
 21
227.4127527466
  0
LINE
  8
0
 62
7
  6
CONTINUOUS
 10
260.2466917043
 20
319.6542289793
 11
256.3584911229
 21
316.9316816222
  0
LINE
  8
SURFACE
 62
7
  6
CONTINUOUS
 10
51.8670888728
 20
180.4194297892
 11
55.8703445966
 21
182.9697849572
  0
LINE
  8
0
 62
7
  6
CONTINUOUS
 10
61.1429218602
 20
158.0255879887
 11
65.7770245631
 21
159.052943824
  0
LINE
  8
SURFACE
 62
7
  6
CONTINUOUS
 10
306.9434227678
 20
206.9183475273
 11
302.2689180717
 21
206.094106228
  0
LINE
  8
0
 62
7
  6
CONTINUOUS
 10
46.5961264125
 20
206.9183475273
 11
51.2706311086
 21
206.094106228
  0
LINE
  8
SURFACE
 62
7
  6
CONTINUOUS
 10
292.3966273201
 20
158.0255879887
 11
287.7625246173
 21
159.052943824
  0
LINE
  8
0
 62
7
  6
CONTINUOUS
 10
51.8670888728
 20
257.6561849649
 11
55.8703445966
 21
255.1058297969
  0
LINE
  8
SURFACE
 62
7
  6
CONTINUOUS
 10
260.2466917043
 20
118.4213857748
 11
256.3584911229
 21
121.1439331319
  0
LINE
  8
CURVE
 62
2
  6
DOT
 10
142.1053944139
 20
206.5381652482
 11
164.2701324613
 21
184.3734272008
  0
LINE
  8
CURVE
 62
2
  6
DOT
 10
168.3948292206
 20
182.5114721413
 11
172.6374699077
 21
178.2688314542
  0
LINE
  8
CURVE
 62
2
  6
DOT
 10
140.2434393544
 20
210.6628620075
 11
136.0007986673
 21
214.9055026946
  0
LINE
  8
0
 62
7
  6
CONTINUOUS
 10
76.1533529879
 20
302.5147244912
 11
78.8759003451
 21
298.6265239098
  0
LINE
  8
SURFACE
 62
7
  6
CONTINUOUS
 10
215.388152178
 20
94.1351216597
 11
212.83779701
 21
98.1383773835
  0
LINE
  8
0
 62
7
  6
CONTINUOUS
 10
115.7575552018
 20
334.664660107
 11
116.7849110372
 21
330.0305574041
  0
LINE
  8
SURFACE
 62
7
  6
CONTINUOUS
 10
164.6503147404
 20
88.8641591994
 11
163.8260734411
 21
93.5386638955
  0
LINE
  8
0
 62
7
  6
CONTINUOUS
 10
140.6077401857
 20
292.7151465057
 11
140.6976642209
 21
292.1855775502
  0
LINE
  8
0
 62
7
  6
CONTINUOUS
 10
155.9755451234
 20
297.751424616
 11
155.9870256979
 21
298.2884503671
  0
LINE
  8
SURFACE
 62
7
  6
CONTINUOUS
 10
179.5469862197
 20
335.2773351105
 11
180.4798358577
 21
340.5677883029
  0
LINE
  8
0
 62
7
  6
CONTINUOUS
 10
177.3921760452
 20
304.8695608063
 11
177.1776825713
 21
303.6857466146
  0
LINE
  8
0
 62
7
  6
CONTINUOUS
 10
178.0103429486
 20
303.6521999451
 11
178.2179843586
 21
304.6659393649
  0
LINE
  8
0
 62
7
  6
CONTINUOUS
 10
134.8526421226
 20
110.5836939565
 11
133.6899140236
 21
105.338966433
  0
LINE
  8
SURFACE
 62
7
  6
CONTINUOUS
 10
223.8185250217
 20
325.36633504
 11
226.7049344955
 21
329.8970903608
  0
LINE
  8
0
 62
7
  6
CONTINUOUS
 10
96.5398014639
 20
134.8802638987
 11
93.4585104409
 21
130.479724266
  0
LINE
  8
SURFACE
 62
7
  6
CONTINUOUS
 10
260.9273180685
 20
299.2677805033
 11
265.3278577012
 21
302.3490715263
  0
LINE
  8
0
 62
7
  6
CONTINUOUS
 10
70.4412469272
 20
171.9890569455
 11
65.9104916064
 21
169.1026474717
  0
LINE
  8
SURFACE
 62
7
  6
CONTINUOUS
 10
68.3156611696
 20
177.1206749095
 11
63.0709336461
 21
175.9579468105
  0
LINE
  8
0
 62
7
  6
CONTINUOUS
 10
293.0093023237
 20
221.8150190066
 11
298.299755516
 21
222.7478686446
  0
LINE
  8
SURFACE
 62
7
  6
CONTINUOUS
 10
60.5302468567
 20
221.8150190066
 11
55.2397936643
 21
222.7478686446
  0
LINE
  8
0
 62
7
  6
CONTINUOUS
 10
285.2238880107
 20
177.1206749095
 11
290.4686155342
 21
175.9579468105
  0
LINE
  8
SURFACE
 62
7
  6
CONTINUOUS
 10
70.4412469272
 20
266.0865578086
 11
65.9104916064
 21
268.9729672824
  0
LINE
  8
0
 62
7
  6
CONTINUOUS
 10
260.9273180685
 20
138.8078342508
 11
265.3278577012
 21
135.7265432278
  0
LINE
  8
SURFACE
 62
7
  6
CONTINUOUS
 10
96.5398014639
 20
303.1953508554
 11
93.4585104409
 21
307.5958904881
  0
LINE
  8
0
 62
7
  6
CONTINUOUS
 10
223.8185250217
 20
112.7092797141
 11
226.7049344955
 21
108.1785243933
  0
LINE
  8
0
 62
7
  6
CONTINUOUS
 10
133.9864433676
 20
293.8513576209
 11
134.2346843309
 21
293.0204158231
  0
LINE
  8
0
 62
7
  6
CONTINUOUS
 10
141.7412634895
 20
292.3492545578
 11
141.4930243811
 21
293.180196926
  0
LINE
  8
0
 62
7
  6
CONTINUOUS
 10
135.1199685263
 20
293.4854662435
 11
134.9508852937
 21
294.1657209655
  0
LINE
  8
SURFACE
 62
7
  6
CONTINUOUS
 10
134.8526421226
 20
327.4919207976
 11
133.6899140236
 21
332.7366483211
  0
LINE
  8
0
 62
7
  6
CONTINUOUS
 10
179.5469862197
 20
102.7982796435
 11
180.4798358577
 21
97.5078264512
  0
LINE
  8
0
 62
7
  6
CONTINUOUS
 10
141.7010629127
 20
298.4842879491
 11
141.8042772177
 21
297.7909748383
  0
LINE
  8
0
 62
7
  6
CONTINUOUS
 10
164.9091385586
 20
306.2985454874
 11
164.9917599098
 21
305.4515016975
  0
LINE
  8
0
 62
7
  6
CONTINUOUS
 10
165.5535851784
 20
299.6916030956
 11
165.6857793518
 21
298.3363329131
  0
LINE
  8
0
 62
7
  6
CONTINUOUS
 10
173.4786541439
 20
305.7896723144
 11
173.5145987624
 21
304.4284443668
  0
LINE
  8
0
 62
7
  6
CONTINUOUS
 10
174.4827987628
 20
305.6459157036
 11
174.6580287418
 21
299.0099308294
  0
LINE
  8
0
 62
7
  6
CONTINUOUS
 10
175.6576802849
 20
299.0363276525
 11
175.4465057001
 21
307.0335399977
  0
LINE
  8
DEFAULT_1
 62
2
  6
CENTER
 10
176.7697745902
 20
342.2806352459
 11
176.7697745902
 21
221.037907377
  0
LINE
  8
0
 62
2
  6
CONTINUOUS
 10
176.7697745902
 20
220.522807377
 11
176.7697745902
 21
217.552807377
  0
LINE
  8
DEFAULT_1
 62
2
  6
CENTER
 10
176.7697745902
 20
91.9607581967
 11
176.7697745902
 21
217.037707377
  0
LINE
  8
0
 62
7
  6
CONTINUOUS
 10
177.1776825713
 20
303.6857466146
 11
177.1297181236
 21
302.495223212
  0
LINE
  8
0
 62
7
  6
CONTINUOUS
 10
177.9966388207
 20
303.3120504015
 11
178.0103429486
 21
303.6521999451
  0
LINE
  8
0
 62
7
  6
CONTINUOUS
 10
178.0877951337
 20
301.4345184623
 11
178.1083513256
 21
301.9447427777
  0
LINE
  8
DEFAULT_1
 62
2
  6
CENTER
 10
305.4900614754
 20
219.037807377
 11
178.7698745902
 21
219.037807377
  0
LINE
  8
0
 62
2
  6
CONTINUOUS
 10
178.2547745902
 20
219.037807377
 11
175.2847745902
 21
219.037807377
  0
LINE
  8
DEFAULT_1
 62
2
  6
CENTER
 10
48.5972336066
 20
219.037807377
 11
174.7696745902
 21
219.037807377
  0
LINE
  8
0
 62
7
  6
CONTINUOUS
 10
114.9933618031
 20
278.1304718108
 11
117.37877619
 21
275.7017372964
  0
LINE
  8
0
 62
7
  6
CONTINUOUS
 10
117.9733101747
 20
276.2856668747
 11
115.5878957878
 21
278.714401389
  0
LINE
  8
0
 62
7
  6
CONTINUOUS
 10
117.9660316841
 20
281.0501196602
 11
120.589987493
 21
278.3785117115
  0
LINE
  8
0
 62
7
  6
CONTINUOUS
 10
120.1156728493
 20
283.0449495972
 11
123.6130635311
 21
278.8693083899
  0
LINE
  8
0
 62
7
  6
CONTINUOUS
 10
124.2519150297
 20
279.4043910677
 11
121.7381653911
 21
282.4056332882
  0
LINE
  8
0
 62
7
  6
CONTINUOUS
 10
121.3009915942
 20
282.9275883934
 11
120.754524348
 21
283.5800322749
  0
LINE
  8
0
 62
7
  6
CONTINUOUS
 10
124.4752041446
 20
283.8099754554
 11
126.5517799862
 21
281.3306883401
  0
LINE
  8
0
 62
7
  6
CONTINUOUS
 10
123.4478980516
 20
289.0446005716
 11
123.9603662415
 21
288.3651259039
  0
LINE
  8
0
 62
7
  6
CONTINUOUS
 10
124.9853029084
 20
287.0061761879
 11
128.265099611
 21
282.657537934
  0
LINE
  8
0
 62
7
  6
CONTINUOUS
 10
128.9304183819
 20
283.1593295717
 11
125.6506216794
 21
287.5079678255
  0
LINE
  8
0
 62
7
  6
CONTINUOUS
 10
124.6256850124
 20
288.8669175416
 11
124.1132168225
 21
289.5463922093
  0
LINE
  8
0
 62
7
  6
CONTINUOUS
 10
134.2346843309
 20
293.0204158231
 11
135.4220470756
 21
290.7601158082
  0
LINE
  8
0
 62
7
  6
CONTINUOUS
 10
136.3073312709
 20
291.2251662286
 11
135.1199685263
 21
293.4854662435
  0
LINE
  8
0
 62
7
  6
CONTINUOUS
 10
141.8042772177
 20
297.7909748383
 11
142.0617797478
 21
297.160696204
  0
LINE
  8
0
 62
7
  6
CONTINUOUS
 10
142.9231271322
 20
297.696473095
 11
142.7943759573
 21
298.0116121914
  0
LINE
  8
0
 62
7
  6
CONTINUOUS
 10
148.3088260097
 20
302.3653618984
 11
150.6279179746
 21
294.7088736395
  0
LINE
  8
0
 62
7
  6
CONTINUOUS
 10
151.2889247143
 20
295.9761841657
 11
150.5487889654
 21
298.4197442993
  0
LINE
  8
0
 62
7
  6
CONTINUOUS
 10
150.2527347073
 20
299.3971682159
 11
149.5619413002
 21
301.6778244775
  0
LINE
  8
0
 62
7
  6
CONTINUOUS
 10
177.1297181236
 20
302.495223212
 11
177.2482826924
 21
301.29799036
  0
LINE
  8
0
 62
7
  6
CONTINUOUS
 10
172.3209539659
 20
298.9835333271
 11
172.221808333
 21
299.9999859937
  0
LINE
  8
0
 62
7
  6
CONTINUOUS
 10
171.6599830643
 20
305.7598845956
 11
171.5443131728
 21
306.9457459014
  0
LINE
  8
0
 62
7
  6
CONTINUOUS
 10
182.2716379658
 20
301.7770100444
 11
182.2510817739
 21
301.266785729
  0
LINE
  8
0
 62
7
  6
CONTINUOUS
 10
183.0768900873
 20
301.0631642876
 11
183.1111504167
 21
301.9135383849
  0
LINE
  8
0
 62
7
  6
CONTINUOUS
 10
121.6616045328
 20
278.4766944611
 11
118.5605657964
 21
281.6340493638
  0
LINE
  8
0
 62
7
  6
CONTINUOUS
 10
127.1906311194
 20
281.8657707117
 11
125.1140552777
 21
284.345057827
  0
LINE
  8
0
 62
7
  6
CONTINUOUS
 10
135.4220470756
 20
290.7601158082
 11
135.9653814232
 21
290.084190648
  0
LINE
  8
0
 62
7
  6
CONTINUOUS
 10
147.4761965316
 20
296.246977656
 11
147.6693232939
 21
295.7742690114
  0
LINE
  8
0
 62
7
  6
CONTINUOUS
 10
148.6594200876
 20
295.9949060845
 11
148.3375421503
 21
296.7827538256
  0
LINE
  8
0
 62
7
  6
CONTINUOUS
 10
153.8457475641
 20
301.9082597658
 11
153.9444323168
 21
301.5824517936
  0
LINE
  8
0
 62
7
  6
CONTINUOUS
 10
154.8325951602
 20
298.6501798158
 11
154.9806222892
 21
298.1614678575
  0
LINE
  8
0
 62
7
  6
CONTINUOUS
 10
155.9870256979
 20
298.2884503671
 11
155.7403138162
 21
299.1029702975
  0
LINE
  8
0
 62
7
  6
CONTINUOUS
 10
154.9508357255
 20
301.7094343031
 11
154.7534660818
 21
302.3610507038
  0
LINE
  8
SURFACE
 62
7
  6
CONTINUOUS
 10
173.9925629606
 20
102.7982796435
 11
173.0597133227
 21
97.5078264512
  0
LINE
  8
0
 62
7
  6
CONTINUOUS
 10
218.6869070578
 20
327.4919207976
 11
219.8496351567
 21
332.7366483211
  0
LINE
  8
SURFACE
 62
7
  6
CONTINUOUS
 10
129.7210241586
 20
112.7092797141
 11
126.8346146848
 21
108.1785243933
  0
LINE
  8
0
 62
7
  6
CONTINUOUS
 10
256.9997477164
 20
303.1953508554
 11
260.0810387394
 21
307.5958904881
  0
LINE
  8
SURFACE
 62
7
  6
CONTINUOUS
 10
92.6122311119
 20
138.8078342508
 11
88.2116914791
 21
135.7265432278
  0
LINE
  8
0
 62
7
  6
CONTINUOUS
 10
283.0983022531
 20
266.0865578086
 11
287.6290575739
 21
268.9729672824
  0
LINE
  8
SURFACE
 62
7
  6
CONTINUOUS
 10
285.2238880107
 20
260.9549398446
 11
290.4686155342
 21
262.1176679436
  0
LINE
  8
0
 62
7
  6
CONTINUOUS
 10
60.5302468567
 20
216.2605957475
 11
55.2397936643
 21
215.3277461095
  0
LINE
  8
SURFACE
 62
7
  6
CONTINUOUS
 10
293.0093023237
 20
216.2605957475
 11
298.299755516
 21
215.3277461095
  0
LINE
  8
0
 62
7
  6
CONTINUOUS
 10
68.3156611696
 20
260.9549398446
 11
63.0709336461
 21
262.1176679436
  0
LINE
  8
0
 62
7
  6
CONTINUOUS
 10
118.4500291216
 20
276.0381426554
 11
117.9733101747
 21
276.2856668747
  0
LINE
  8
0
 62
7
  6
CONTINUOUS
 10
117.37877619
 20
275.7017372964
 11
117.9747659208
 21
275.3327762644
  0
LINE
  8
0
 62
7
  6
CONTINUOUS
 10
122.2575941258
 20
278.1077333355
 11
121.6616045328
 21
278.4766944611
  0
LINE
  8
SURFACE
 62
7
  6
CONTINUOUS
 10
283.0983022531
 20
171.9890569455
 11
287.6290575739
 21
169.1026474717
  0
LINE
  8
0
 62
7
  6
CONTINUOUS
 10
92.6122311119
 20
299.2677805033
 11
88.2116914791
 21
302.3490715263
  0
LINE
  8
0
 62
7
  6
CONTINUOUS
 10
123.8009663793
 20
284.3554026177
 11
124.4752041446
 21
283.8099754554
  0
LINE
  8
0
 62
7
  6
CONTINUOUS
 10
125.1140552777
 20
284.345057827
 11
124.4398182435
 21
284.8904856016
  0
LINE
  8
0
 62
7
  6
CONTINUOUS
 10
136.7715081096
 20
290.6999277219
 11
136.3073312709
 21
291.2251662286
  0
LINE
  8
0
 62
7
  6
CONTINUOUS
 10
144.0951914098
 20
293.9463041509
 11
143.7477766026
 21
294.3559778777
  0
LINE
  8
0
 62
7
  6
CONTINUOUS
 10
143.270538408
 20
297.2867979254
 11
142.9231271322
 21
297.696473095
  0
LINE
  8
0
 62
7
  6
CONTINUOUS
 10
139.6724015651
 20
296.6459901696
 11
139.1290653072
 21
297.3219148649
  0
LINE
  8
0
 62
7
  6
CONTINUOUS
 10
142.8220553965
 20
293.9777712564
 11
143.2338457911
 21
293.4105279813
  0
LINE
  8
0
 62
7
  6
CONTINUOUS
 10
142.0617797478
 20
297.160696204
 11
142.4735701424
 21
296.5934529289
  0
LINE
  8
SURFACE
 62
7
  6
CONTINUOUS
 10
256.9997477164
 20
134.8802638987
 11
260.0810387394
 21
130.479724266
  0
LINE
  8
0
 62
7
  6
CONTINUOUS
 10
129.7210241586
 20
325.36633504
 11
126.8346146848
 21
329.8970903608
  0
LINE
  8
0
 62
7
  6
CONTINUOUS
 10
178.233767968
 20
300.9175849358
 11
178.0877951337
 21
301.4345184623
  0
LINE
  8
SURFACE
 62
7
  6
CONTINUOUS
 10
218.6869070578
 20
110.5836939565
 11
219.8496351567
 21
105.338966433
  0
LINE
  8
0
 62
7
  6
CONTINUOUS
 10
173.9925629606
 20
335.2773351105
 11
173.0597133227
 21
340.5677883029
  0
LINE
  8
0
 62
7
  6
CONTINUOUS
 10
188.8892344399
 20
88.8641591994
 11
189.7134757393
 21
93.5386638955
  0
LINE
  8
SURFACE
 62
7
  6
CONTINUOUS
 10
237.7819939785
 20
334.664660107
 11
236.7546381432
 21
330.0305574041
  0
LINE
  8
0
 62
7
  6
CONTINUOUS
 10
138.1513970023
 20
94.1351216597
 11
140.7017521703
 21
98.1383773835
  0
LINE
  8
SURFACE
 62
7
  6
CONTINUOUS
 10
277.3861961924
 20
302.5147244912
 11
274.6636488353
 21
298.6265239098
  0
LINE
  8
CURVE
 62
2
  6
DOT
 10
217.538750513
 20
214.9055026946
 11
213.2961098259
 21
210.6628620075
  0
LINE
  8
CURVE
 62
2
  6
DOT
 10
180.9020792726
 20
178.2688314542
 11
185.1447199597
 21
182.5114721413
  0
LINE
  8
CURVE
 62
2
  6
DOT
 10
189.2694167191
 20
184.3734272008
 11
211.4341547664
 21
206.5381652482
  0
LINE
  8
0
 62
7
  6
CONTINUOUS
 10
93.292857476
 20
118.4213857748
 11
97.1810580574
 21
121.1439331319
  0
LINE
  8
SURFACE
 62
7
  6
CONTINUOUS
 10
301.6724603075
 20
257.6561849649
 11
297.6692045837
 21
255.1058297969
  0
LINE
  8
0
 62
7
  6
CONTINUOUS
 10
292.3966273201
 20
280.0500267654
 11
287.7625246173
 21
279.0226709301
  0
LINE
  8
SURFACE
 62
7
  6
CONTINUOUS
 10
46.5961264125
 20
231.1572672268
 11
51.2706311086
 21
231.9815085261
  0
LINE
  8
0
 62
7
  6
CONTINUOUS
 10
306.9434227678
 20
231.1572672268
 11
302.2689180717
 21
231.9815085261
  0
LINE
  8
SURFACE
 62
7
  6
CONTINUOUS
 10
61.1429218602
 20
280.0500267654
 11
65.7770245631
 21
279.0226709301
  0
LINE
  8
0
 62
7
  6
CONTINUOUS
 10
117.9747659208
 20
275.3327762644
 11
118.3322141461
 21
275.2066887519
  0
LINE
  8
0
 62
7
  6
CONTINUOUS
 10
122.6150425952
 20
277.981646021
 11
122.2575941258
 21
278.1077333355
  0
LINE
  8
0
 62
7
  6
CONTINUOUS
 10
121.1863411315
 20
277.7713280404
 11
122.0205084829
 21
277.3977163175
  0
LINE
  8
0
 62
7
  6
CONTINUOUS
 10
124.4398182435
 20
284.8904856016
 11
123.9841673768
 21
285.1749352112
  0
LINE
  8
0
 62
7
  6
CONTINUOUS
 10
301.6724603075
 20
180.4194297892
 11
297.6692045837
 21
182.9697849572
  0
LINE
  8
SURFACE
 62
7
  6
CONTINUOUS
 10
93.292857476
 20
319.6542289793
 11
97.1810580574
 21
316.9316816222
  0
LINE
  8
0
 62
7
  6
CONTINUOUS
 10
135.9653814232
 20
290.084190648
 11
136.5771068089
 21
289.6364610306
  0
LINE
  8
0
 62
7
  6
CONTINUOUS
 10
138.4020961296
 20
296.5554911374
 11
138.7871173697
 21
296.1809397493
  0
LINE
  8
CURVE
 62
2
  6
DOT
 10
213.2961098259
 20
227.4127527466
 11
217.538750513
 21
223.1701120595
  0
LINE
  8
CURVE
 62
2
  6
DOT
 10
185.1447199597
 20
255.5641426128
 11
180.9020792726
 21
259.8067832999
  0
LINE
  8
CURVE
 62
2
  6
DOT
 10
189.2694167191
 20
253.7021875533
 11
211.4341547664
 21
231.5374495059
  0
LINE
  8
0
 62
7
  6
CONTINUOUS
 10
146.5871695277
 20
299.7450421416
 11
146.2397582519
 21
300.1547173112
  0
LINE
  8
0
 62
7
  6
CONTINUOUS
 10
277.3861961924
 20
135.5608902629
 11
274.6636488353
 21
139.4490908443
  0
LINE
  8
0
 62
7
  6
CONTINUOUS
 10
154.5250602239
 20
299.0905783235
 11
154.8325951602
 21
298.6501798158
  0
LINE
  8
0
 62
7
  6
CONTINUOUS
 10
155.7403138162
 20
299.1029702975
 11
155.4327788799
 21
299.5433688052
  0
LINE
  8
0
 62
7
  6
CONTINUOUS
 10
153.5382125586
 20
302.3486585017
 11
153.8457475641
 21
301.9082597658
  0
LINE
  8
0
 62
7
  6
CONTINUOUS
 10
154.7534660818
 20
302.3610507038
 11
154.4459312147
 21
302.8014489834
  0
LINE
  8
SURFACE
 62
7
  6
CONTINUOUS
 10
138.1513970023
 20
343.9404930944
 11
140.7017521703
 21
339.9372373706
  0
LINE
  8
0
 62
7
  6
CONTINUOUS
 10
177.2482826924
 20
301.29799036
 11
177.5470880434
 21
300.4341976526
  0
LINE
  8
0
 62
7
  6
CONTINUOUS
 10
183.1111504167
 20
301.9135383849
 11
182.8123450609
 21
302.7773309732
  0
LINE
  8
0
 62
7
  6
CONTINUOUS
 10
182.1256651411
 20
302.2939438091
 11
182.2716379658
 21
301.7770100444
  0
LINE
  8
0
 62
7
  6
CONTINUOUS
 10
182.9014219116
 20
304.9883034832
 11
182.7554490773
 21
305.5052370097
  0
LINE
  8
0
 62
7
  6
CONTINUOUS
 10
237.7819939785
 20
103.4109546471
 11
236.7546381432
 21
108.04505735
  0
LINE
  8
SURFACE
 62
7
  6
CONTINUOUS
 10
188.8892344399
 20
349.2114555547
 11
189.7134757393
 21
344.5369508586
  0
LINE
  8
0
 62
7
  6
CONTINUOUS
 10
119.045654966
 20
275.9074042834
 11
118.4500291216
 21
276.0381426554
  0
LINE
  8
0
 62
7
  6
CONTINUOUS
 10
137.304075931
 20
290.4028848636
 11
136.7715081096
 21
290.6999277219
  0
LINE
  8
0
 62
7
  6
CONTINUOUS
 10
146.9744971208
 20
296.5936181286
 11
147.4761965316
 21
296.246977656
  0
LINE
  8
0
 62
7
  6
CONTINUOUS
 10
143.2338457911
 20
293.4105279813
 11
144.0185843991
 21
292.8117833853
  0
LINE
  8
0
 62
7
  6
CONTINUOUS
 10
148.3375421503
 20
296.7827538256
 11
147.7714671521
 21
297.2869638464
  0
LINE
  8
0
 62
7
  6
CONTINUOUS
 10
145.3784126332
 20
299.6189411416
 11
145.6614483215
 21
299.3668355202
  0
LINE
  8
0
 62
7
  6
CONTINUOUS
 10
177.5470880434
 20
300.4341976526
 11
178.0192744869
 21
299.7337705655
  0
LINE
  8
0
 62
7
  6
CONTINUOUS
 10
178.5462774469
 20
300.393941772
 11
178.233767968
 21
300.9175849358
  0
LINE
  8
0
 62
7
  6
CONTINUOUS
 10
181.7562596738
 20
305.5454928903
 11
182.0687691575
 21
305.0218498456
  0
LINE
  8
0
 62
7
  6
CONTINUOUS
 10
118.3322141461
 20
275.2066887519
 11
119.0467466989
 21
275.1927362922
  0
LINE
  8
0
 62
7
  6
CONTINUOUS
 10
123.3268391738
 20
284.4023473441
 11
123.8009663793
 21
284.3554026177
  0
LINE
  8
0
 62
7
  6
CONTINUOUS
 10
123.9841673768
 20
285.1749352112
 11
123.5100401713
 21
285.2218799377
  0
LINE
  8
0
 62
7
  6
CONTINUOUS
 10
136.5771068089
 20
289.6364610306
 11
137.483925773
 21
289.3437476814
  0
LINE
  8
0
 62
7
  6
CONTINUOUS
 10
139.1290653072
 20
297.3219148649
 11
138.2222463708
 21
297.6146281614
  0
LINE
  8
0
 62
7
  6
CONTINUOUS
 10
144.7511770547
 20
293.6626979851
 11
144.0951914098
 21
293.9463041509
  0
LINE
  8
0
 62
7
  6
CONTINUOUS
 10
142.4735701424
 20
296.5934529289
 11
143.3482193745
 21
296.2153122432
  0
LINE
  8
0
 62
7
  6
CONTINUOUS
 10
147.7714671521
 20
297.2869638464
 11
146.8968161544
 21
297.6651038108
  0
LINE
  8
0
 62
7
  6
CONTINUOUS
 10
144.9410853686
 20
299.8080104024
 11
145.3784126332
 21
299.6189411416
  0
LINE
  8
0
 62
7
  6
CONTINUOUS
 10
154.1073526931
 20
299.3197567266
 11
154.5250602239
 21
299.0905783235
  0
LINE
  8
0
 62
7
  6
CONTINUOUS
 10
153.1205050279
 20
302.5778369047
 11
153.5382125586
 21
302.3486585017
  0
LINE
  8
0
 62
7
  6
CONTINUOUS
 10
146.2397582519
 20
300.1547173112
 11
145.519395299
 21
300.5958921934
  0
LINE
  8
0
 62
7
  6
CONTINUOUS
 10
155.4327788799
 20
299.5433688052
 11
154.7568788583
 21
300.0500415018
  0
LINE
  8
0
 62
7
  6
CONTINUOUS
 10
154.4459312147
 20
302.8014489834
 11
153.7700311931
 21
303.3081216799
  0
LINE
  8
0
 62
7
  6
CONTINUOUS
 10
181.8063035934
 20
302.647512082
 11
182.1256651411
 21
302.2939438091
  0
LINE
  8
0
 62
7
  6
CONTINUOUS
 10
182.8123450609
 20
302.7773309732
 11
182.333306551
 21
303.3076832289
  0
LINE
  8
0
 62
7
  6
CONTINUOUS
 10
182.7554490773
 20
305.5052370097
 11
182.2832626314
 21
306.2056640372
  0
LINE
  8
0
 62
7
  6
CONTINUOUS
 10
122.9620054176
 20
284.3188032943
 11
123.3268391738
 21
284.4023473441
  0
LINE
  8
0
 62
7
  6
CONTINUOUS
 10
119.0467466989
 20
275.1927362922
 11
119.642008594
 21
275.3002206229
  0
LINE
  8
0
 62
7
  6
CONTINUOUS
 10
123.5100401713
 20
285.2218799377
 11
122.9081424467
 21
285.1618079449
  0
LINE
  8
0
 62
7
  6
CONTINUOUS
 10
137.483925773
 20
289.3437476814
 11
138.2324297124
 21
289.3524076525
  0
LINE
  8
0
 62
7
  6
CONTINUOUS
 10
143.3482193745
 20
296.2153122432
 11
144.0941191973
 21
296.1523113752
  0
LINE
  8
0
 62
7
  6
CONTINUOUS
 10
137.905033102
 20
290.3340366611
 11
137.304075931
 21
290.4028848636
  0
LINE
  8
0
 62
7
  6
CONTINUOUS
 10
137.8011390141
 20
296.6243392344
 11
138.4020961296
 21
296.5554911374
  0
LINE
  8
0
 62
7
  6
CONTINUOUS
 10
144.0185843991
 20
292.8117833853
 11
144.9831461054
 21
292.6542471242
  0
LINE
  8
0
 62
7
  6
CONTINUOUS
 10
143.862150186
 20
297.1607621396
 11
143.270538408
 21
297.2867979254
  0
LINE
  8
0
 62
7
  6
CONTINUOUS
 10
146.3828853428
 20
296.7196539143
 11
146.9744971208
 21
296.5936181286
  0
LINE
  8
0
 62
7
  6
CONTINUOUS
 10
145.519395299
 20
300.5958921934
 11
144.7091198887
 21
300.8164626096
  0
LINE
  8
0
 62
7
  6
CONTINUOUS
 10
153.7700311931
 20
303.3081216799
 11
152.9839621588
 21
303.6035756058
  0
LINE
  8
0
 62
7
  6
CONTINUOUS
 10
178.0192744869
 20
299.7337705655
 11
178.8313786705
 21
299.1899995359
  0
LINE
  8
0
 62
7
  6
CONTINUOUS
 10
182.333306551
 20
303.3076832289
 11
181.5212099888
 21
303.8514539068
  0
LINE
  8
0
 62
7
  6
CONTINUOUS
 10
182.2832626314
 20
306.2056640372
 11
181.4711584459
 21
306.7494350222
  0
LINE
  8
0
 62
7
  6
CONTINUOUS
 10
179.0321680207
 20
300.0336642881
 11
178.5462774469
 21
300.393941772
  0
LINE
  8
0
 62
7
  6
CONTINUOUS
 10
181.3204130196
 20
303.0077895659
 11
181.8063035934
 21
302.647512082
  0
LINE
  8
0
 62
7
  6
CONTINUOUS
 10
181.2703691
 20
305.9057703742
 11
181.7562596738
 21
305.5454928903
  0
LINE
  8
0
 62
7
  6
CONTINUOUS
 10
138.5743795116
 20
290.4933833254
 11
137.905033102
 21
290.3340366611
  0
LINE
  8
0
 62
7
  6
CONTINUOUS
 10
137.1317926045
 20
296.4649925702
 11
137.8011390141
 21
296.6243392344
  0
LINE
  8
0
 62
7
  6
CONTINUOUS
 10
144.9831461054
 20
292.6542471242
 11
145.8189548598
 21
292.8118492657
  0
LINE
  8
0
 62
7
  6
CONTINUOUS
 10
146.1509198629
 20
297.7281061215
 11
145.3151075827
 21
297.5705025234
  0
LINE
  8
0
 62
7
  6
CONTINUOUS
 10
144.7091198887
 20
300.8164626096
 11
143.8733111399
 21
300.6588604543
  0
LINE
  8
0
 62
7
  6
CONTINUOUS
 10
180.4898397374
 20
298.9528317173
 11
181.3293521793
 21
299.0893598345
  0
LINE
  8
0
 62
7
  6
CONTINUOUS
 10
179.8627412981
 20
304.0886220176
 11
179.02323648
 21
303.9520936082
  0
LINE
  8
0
 62
7
  6
CONTINUOUS
 10
179.9792264046
 20
306.9798936149
 11
179.1397215866
 21
306.8433652054
  0
LINE
  8
0
 62
7
  6
CONTINUOUS
 10
145.43270129
 20
293.7572666654
 11
144.7511770547
 21
293.6626979851
  0
LINE
  8
0
 62
7
  6
CONTINUOUS
 10
144.0941191973
 20
296.1523113752
 11
144.7756399013
 21
296.2468786127
  0
LINE
  8
0
 62
7
  6
CONTINUOUS
 10
145.7013611074
 20
296.6250852341
 11
146.3828853428
 21
296.7196539143
  0
LINE
  8
0
 62
7
  6
CONTINUOUS
 10
165.6857793518
 20
298.3363329131
 11
172.3209539659
 21
298.9835333271
  0
LINE
  8
0
 62
7
  6
CONTINUOUS
 10
172.221808333
 20
299.9999859937
 11
166.5819102906
 21
299.4498656788
  0
LINE
  8
0
 62
7
  6
CONTINUOUS
 10
164.9917599098
 20
305.4515016975
 11
170.7975386463
 21
306.0178021524
  0
LINE
  8
0
 62
7
  6
CONTINUOUS
 10
171.5443131728
 20
306.9457459014
 11
164.9091385586
 21
306.2985454874
  0
LINE
  8
0
 62
7
  6
CONTINUOUS
 10
152.9839621588
 20
303.6035756058
 11
152.1370701391
 21
303.5249078808
  0
LINE
  8
0
 62
7
  6
CONTINUOUS
 10
144.3893863766
 20
297.1922959021
 11
143.862150186
 21
297.1607621396
  0
LINE
  8
0
 62
7
  6
CONTINUOUS
 10
144.4138491781
 20
299.77647664
 11
144.9410853686
 21
299.8080104024
  0
LINE
  8
0
 62
7
  6
CONTINUOUS
 10
174.6580287418
 20
299.0099308294
 11
175.6576802849
 21
299.0363276525
  0
LINE
  8
0
 62
7
  6
CONTINUOUS
 10
175.4465057001
 20
307.0335399977
 11
174.4468541569
 21
307.0071431746
  0
LINE
  8
0
 62
7
  6
CONTINUOUS
 10
138.2222463708
 20
297.6146281614
 11
137.4737424522
 21
297.6059681507
  0
LINE
  8
0
 62
7
  6
CONTINUOUS
 10
153.5794798006
 20
299.3377174649
 11
154.1073526931
 21
299.3197567266
  0
LINE
  8
0
 62
7
  6
CONTINUOUS
 10
152.5926321354
 20
302.595797643
 11
153.1205050279
 21
302.5778369047
  0
LINE
  8
0
 62
7
  6
CONTINUOUS
 10
179.6571793601
 20
298.9863783868
 11
180.4898397374
 21
298.9528317173
  0
LINE
  8
0
 62
7
  6
CONTINUOUS
 10
180.6906290882
 20
299.7964964844
 11
179.5249106585
 21
299.843461576
  0
LINE
  8
0
 62
7
  6
CONTINUOUS
 10
179.6619519521
 20
303.2449573696
 11
180.8276703818
 21
303.197992278
  0
LINE
  8
0
 62
7
  6
CONTINUOUS
 10
180.6954016754
 20
304.0550753481
 11
179.8627412981
 21
304.0886220176
  0
LINE
  8
0
 62
7
  6
CONTINUOUS
 10
182.0687691575
 20
305.0218498456
 11
182.9014219116
 21
304.9883034832
  0
LINE
  8
0
 62
7
  6
CONTINUOUS
 10
179.7784370587
 20
306.1362289668
 11
180.7776264622
 21
306.0959730863
  0
LINE
  8
0
 62
7
  6
CONTINUOUS
 10
180.6453577558
 20
306.9530561564
 11
179.9792264046
 21
306.9798936149
  0
LINE
  8
0
 62
7
  6
CONTINUOUS
 10
146.8968161544
 20
297.6651038108
 11
146.1509198629
 21
297.7281061215
  0
LINE
  8
0
 62
7
  6
CONTINUOUS
 10
154.7568788583
 20
300.0500415018
 11
154.3885137039
 21
300.1163159188
  0
LINE
  8
0
 62
7
  6
CONTINUOUS
 10
178.8313786705
 20
299.1899995359
 11
179.6571793601
 21
298.9863783868
  0
LINE
  8
0
 62
7
  6
CONTINUOUS
 10
181.5212099888
 20
303.8514539068
 11
180.6954016754
 21
304.0550753481
  0
LINE
  8
0
 62
7
  6
CONTINUOUS
 10
181.4711584459
 20
306.7494350222
 11
180.6453577558
 21
306.9530561564
  0
LINE
  8
0
 62
7
  6
CONTINUOUS
 10
179.5249106585
 20
299.843461576
 11
179.0321680207
 21
300.0336642881
  0
LINE
  8
0
 62
7
  6
CONTINUOUS
 10
180.8276703818
 20
303.197992278
 11
181.3204130196
 21
303.0077895659
  0
LINE
  8
0
 62
7
  6
CONTINUOUS
 10
180.7776264622
 20
306.0959730863
 11
181.2703691
 21
305.9057703742
  0
LINE
  8
SURFACE
 62
7
  6
CONTINUOUS
 10
291.7697745902
 20
244.3525888628
 11
291.7697745902
 21
217.737807377
  0
LINE
  8
0
 62
7
  6
CONTINUOUS
 10
291.7697745902
 20
193.7230258913
 11
291.7697745902
 21
196.1628851284
  0
LINE
  8
SURFACE
 62
7
  6
CONTINUOUS
 10
292.7034682975
 20
198.4170211397
 11
282.5184323669
 21
173.8281692628
  0
LINE
  8
0
 62
7
  6
CONTINUOUS
 10
273.3283733604
 20
151.6414041704
 11
274.2620670678
 21
153.8955401817
  0
LINE
  8
SURFACE
 62
7
  6
CONTINUOUS
 10
275.9873080794
 20
155.6207811934
 11
257.1678156111
 21
136.8012887251
  0
LINE
  8
0
 62
7
  6
CONTINUOUS
 10
240.1868007738
 20
119.8202738878
 11
241.9120417855
 21
121.5455148995
  0
LINE
  8
SURFACE
 62
7
  6
CONTINUOUS
 10
244.1661777968
 20
122.4792086068
 11
219.5773259199
 21
112.2941726762
  0
LINE
  8
0
 62
7
  6
CONTINUOUS
 10
197.3905608275
 20
103.1041136697
 11
199.6446968388
 21
104.037807377
  0
LINE
  8
0
 62
7
  6
CONTINUOUS
 10
202.0845560759
 20
334.037807377
 11
199.6446968388
 21
334.037807377
  0
LINE
  8
SURFACE
 62
7
  6
CONTINUOUS
 10
151.4549931045
 20
334.037807377
 11
178.0697745902
 21
334.037807377
  0
LINE
  8
0
 62
7
  6
CONTINUOUS
 10
244.1661777968
 20
315.5964061473
 11
241.9120417855
 21
316.5300998546
  0
LINE
  8
SURFACE
 62
7
  6
CONTINUOUS
 10
197.3905608275
 20
334.9715010844
 11
221.9794127044
 21
324.7864651538
  0
LINE
  8
SURFACE
 62
7
  6
CONTINUOUS
 10
240.1868007738
 20
318.2553408663
 11
259.0062932422
 21
299.435848398
  0
LINE
  8
0
 62
7
  6
CONTINUOUS
 10
275.9873080794
 20
282.4548335607
 11
274.2620670678
 21
284.1800745724
  0
LINE
  8
SURFACE
 62
7
  6
CONTINUOUS
 10
273.3283733604
 20
286.4342105837
 11
283.513409291
 21
261.8453587068
  0
LINE
  8
0
 62
7
  6
CONTINUOUS
 10
292.7034682975
 20
239.6585936144
 11
291.7697745902
 21
241.9127296257
  0
POLYLINE
  8
0
 62
7
  6
CONTINUOUS
 66
1
 70
0
  0
VERTEX
  8
0
 62
7
  6
CONTINUOUS
 10
373.765972073
 20
88.037807377
  0
VERTEX
  8
0
 62
7
  6
CONTINUOUS
 10
373.8189094308
 20
88.0392095421
  0
VERTEX
  8
0
 62
7
  6
CONTINUOUS
 10
373.8715052808
 20
88.0433915978
  0
VERTEX
  8
0
 62
7
  6
CONTINUOUS
 10
373.9236952587
 20
88.0503240118
  0
VERTEX
  8
0
 62
7
  6
CONTINUOUS
 10
373.9753799904
 20
88.0599790055
  0
VERTEX
  8
0
 62
7
  6
CONTINUOUS
 10
374.0265427257
 20
88.0723525957
  0
VERTEX
  8
0
 62
7
  6
CONTINUOUS
 10
374.0768536992
 20
88.0873587385
  0
VERTEX
  8
0
 62
7
  6
CONTINUOUS
 10
374.1259132675
 20
88.1048323846
  0
VERTEX
  8
0
 62
7
  6
CONTINUOUS
 10
374.1739340198
 20
88.124808445
  0
VERTEX
  8
0
 62
7
  6
CONTINUOUS
 10
374.2211167945
 20
88.1473899006
  0
VERTEX
  8
0
 62
7
  6
CONTINUOUS
 10
374.2670134992
 20
88.1723840764
  0
VERTEX
  8
0
 62
7
  6
CONTINUOUS
 10
374.3112166276
 20
88.199530349
  0
VERTEX
  8
0
 62
7
  6
CONTINUOUS
 10
374.3538747152
 20
88.2288756845
  0
VERTEX
  8
0
 62
7
  6
CONTINUOUS
 10
374.395023992
 20
88.2604440879
  0
VERTEX
  8
0
 62
7
  6
CONTINUOUS
 10
374.4345162544
 20
88.2941349508
  0
VERTEX
  8
0
 62
7
  6
CONTINUOUS
 10
374.4722845761
 20
88.329907209
  0
VERTEX
  8
0
 62
7
  6
CONTINUOUS
 10
374.5081097243
 20
88.3675598806
  0
VERTEX
  8
0
 62
7
  6
CONTINUOUS
 10
374.5417241899
 20
88.4067696182
  0
VERTEX
  8
0
 62
7
  6
CONTINUOUS
 10
374.5733031409
 20
88.4477086168
  0
VERTEX
  8
0
 62
7
  6
CONTINUOUS
 10
374.6030032222
 20
88.4906521383
  0
VERTEX
  8
0
 62
7
  6
CONTINUOUS
 10
374.6304320164
 20
88.5351056699
  0
VERTEX
  8
0
 62
7
  6
CONTINUOUS
 10
374.6552614293
 20
88.580462386
  0
VERTEX
  8
0
 62
7
  6
CONTINUOUS
 10
374.6777356425
 20
88.6270919117
  0
VERTEX
  8
0
 62
7
  6
CONTINUOUS
 10
374.6979989393
 20
88.6754181932
  0
VERTEX
  8
0
 62
7
  6
CONTINUOUS
 10
374.7157313735
 20
88.7248261137
  0
VERTEX
  8
0
 62
7
  6
CONTINUOUS
 10
374.7307315618
 20
88.7746740861
  0
VERTEX
  8
0
 62
7
  6
CONTINUOUS
 10
374.7431291531
 20
88.8252890462
  0
VERTEX
  8
0
 62
7
  6
CONTINUOUS
 10
374.7529413235
 20
88.876898404
  0
VERTEX
  8
0
 62
7
  6
CONTINUOUS
 10
374.7585465627
 20
88.9161690522
  0
SEQEND
  0
POLYLINE
  8
0
 62
7
  6
CONTINUOUS
 66
1
 70
0
  0
VERTEX
  8
0
 62
7
  6
CONTINUOUS
 10
373.765972073
 20
93.672421268
  0
VERTEX
  8
0
 62
7
  6
CONTINUOUS
 10
373.8185808298
 20
93.6738060675
  0
VERTEX
  8
0
 62
7
  6
CONTINUOUS
 10
373.8710403956
 20
93.6779562623
  0
VERTEX
  8
0
 62
7
  6
CONTINUOUS
 10
373.9232081358
 20
93.6848602215
  0
VERTEX
  8
0
 62
7
  6
CONTINUOUS
 10
373.9749379088
 20
93.6944983265
  0
VERTEX
  8
0
 62
7
  6
CONTINUOUS
 10
374.0260852521
 20
93.7068431334
  0
VERTEX
  8
0
 62
7
  6
CONTINUOUS
 10
374.0765098468
 20
93.7218602279
  0
VERTEX
  8
0
 62
7
  6
CONTINUOUS
 10
374.1260721515
 20
93.7395075885
  0
VERTEX
  8
0
 62
7
  6
CONTINUOUS
 10
374.1746370089
 20
93.7597367825
  0
VERTEX
  8
0
 62
7
  6
CONTINUOUS
 10
374.2220733352
 20
93.782493384
  0
VERTEX
  8
0
 62
7
  6
CONTINUOUS
 10
374.2682447994
 20
93.8077120057
  0
VERTEX
  8
0
 62
7
  6
CONTINUOUS
 10
374.3130166626
 20
93.8353177995
  0
VERTEX
  8
0
 62
7
  6
CONTINUOUS
 10
374.3562755582
 20
93.8652398786
  0
VERTEX
  8
0
 62
7
  6
CONTINUOUS
 10
374.397912866
 20
93.897404601
  0
VERTEX
  8
0
 62
7
  6
CONTINUOUS
 10
374.4377994522
 20
93.9317135169
  0
VERTEX
  8
0
 62
7
  6
CONTINUOUS
 10
374.4758119389
 20
93.9680581764
  0
VERTEX
  8
0
 62
7
  6
CONTINUOUS
 10
374.5118601926
 20
94.0063500157
  0
VERTEX
  8
0
 62
7
  6
CONTINUOUS
 10
374.545855417
 20
94.0464963765
  0
VERTEX
  8
0
 62
7
  6
CONTINUOUS
 10
374.5776937378
 20
94.0883768014
  0
VERTEX
  8
0
 62
7
  6
CONTINUOUS
 10
374.607280864
 20
94.1318664436
  0
VERTEX
  8
0
 62
7
  6
CONTINUOUS
 10
374.6345402346
 20
94.1768515467
  0
VERTEX
  8
0
 62
7
  6
CONTINUOUS
 10
374.6593988478
 20
94.22321241
  0
VERTEX
  8
0
 62
7
  6
CONTINUOUS
 10
374.681786243
 20
94.2708189695
  0
VERTEX
  8
0
 62
7
  6
CONTINUOUS
 10
374.7016399108
 20
94.3195392802
  0
VERTEX
  8
0
 62
7
  6
CONTINUOUS
 10
374.7189041829
 20
94.3692375052
  0
VERTEX
  8
0
 62
7
  6
CONTINUOUS
 10
374.7335303551
 20
94.4197733495
  0
VERTEX
  8
0
 62
7
  6
CONTINUOUS
 10
374.7454790269
 20
94.4710109222
  0
VERTEX
  8
0
 62
7
  6
CONTINUOUS
 10
374.7547173017
 20
94.5228122014
  0
VERTEX
  8
0
 62
7
  6
CONTINUOUS
 10
374.7588075795
 20
94.5529321173
  0
SEQEND
  0
LINE
  8
SURFACE
 62
7
  6
CONTINUOUS
 10
386.465972073
 20
88.037807377
 11
379.628085304
 21
88.037807377
  0
LINE
  8
0
 62
7
  6
CONTINUOUS
 10
366.928085304
 20
88.037807377
 11
373.765972073
 21
88.037807377
  0
LINE
  8
0
 62
7
  6
CONTINUOUS
 10
366.928085304
 20
93.672421268
 11
373.765972073
 21
93.672421268
  0
POLYLINE
  8
SURFACE
 62
7
  6
CONTINUOUS
 66
1
 70
0
  0
VERTEX
  8
SURFACE
 62
7
  6
CONTINUOUS
 10
379.628085304
 20
88.037807377
  0
VERTEX
  8
SURFACE
 62
7
  6
CONTINUOUS
 10
379.5751479462
 20
88.0392095421
  0
VERTEX
  8
SURFACE
 62
7
  6
CONTINUOUS
 10
379.5225520962
 20
88.0433915978
  0
VERTEX
  8
SURFACE
 62
7
  6
CONTINUOUS
 10
379.4703621183
 20
88.0503240118
  0
VERTEX
  8
SURFACE
 62
7
  6
CONTINUOUS
 10
379.4186773866
 20
88.0599790055
  0
VERTEX
  8
SURFACE
 62
7
  6
CONTINUOUS
 10
379.3675146513
 20
88.0723525957
  0
VERTEX
  8
SURFACE
 62
7
  6
CONTINUOUS
 10
379.3172036779
 20
88.0873587385
  0
VERTEX
  8
SURFACE
 62
7
  6
CONTINUOUS
 10
379.2681441095
 20
88.1048323846
  0
VERTEX
  8
SURFACE
 62
7
  6
CONTINUOUS
 10
379.2201233572
 20
88.124808445
  0
VERTEX
  8
SURFACE
 62
7
  6
CONTINUOUS
 10
379.1729405825
 20
88.1473899006
  0
VERTEX
  8
SURFACE
 62
7
  6
CONTINUOUS
 10
379.1270438778
 20
88.1723840764
  0
VERTEX
  8
SURFACE
 62
7
  6
CONTINUOUS
 10
379.0828407495
 20
88.199530349
  0
VERTEX
  8
SURFACE
 62
7
  6
CONTINUOUS
 10
379.0401826618
 20
88.2288756845
  0
VERTEX
  8
SURFACE
 62
7
  6
CONTINUOUS
 10
378.9990333851
 20
88.2604440879
  0
VERTEX
  8
SURFACE
 62
7
  6
CONTINUOUS
 10
378.9595411227
 20
88.2941349508
  0
VERTEX
  8
SURFACE
 62
7
  6
CONTINUOUS
 10
378.9217728009
 20
88.329907209
  0
VERTEX
  8
SURFACE
 62
7
  6
CONTINUOUS
 10
378.8859476527
 20
88.3675598806
  0
VERTEX
  8
SURFACE
 62
7
  6
CONTINUOUS
 10
378.8523331871
 20
88.4067696182
  0
VERTEX
  8
SURFACE
 62
7
  6
CONTINUOUS
 10
378.8207542361
 20
88.4477086168
  0
VERTEX
  8
SURFACE
 62
7
  6
CONTINUOUS
 10
378.7910541548
 20
88.4906521383
  0
VERTEX
  8
SURFACE
 62
7
  6
CONTINUOUS
 10
378.7636253607
 20
88.5351056699
  0
VERTEX
  8
SURFACE
 62
7
  6
CONTINUOUS
 10
378.7387959478
 20
88.580462386
  0
VERTEX
  8
SURFACE
 62
7
  6
CONTINUOUS
 10
378.7163217346
 20
88.6270919117
  0
VERTEX
  8
SURFACE
 62
7
  6
CONTINUOUS
 10
378.6960584378
 20
88.6754181932
  0
VERTEX
  8
SURFACE
 62
7
  6
CONTINUOUS
 10
378.6783260036
 20
88.7248261137
  0
VERTEX
  8
SURFACE
 62
7
  6
CONTINUOUS
 10
378.6633258152
 20
88.7746740861
  0
VERTEX
  8
SURFACE
 62
7
  6
CONTINUOUS
 10
378.650928224
 20
88.8252890462
  0
VERTEX
  8
SURFACE
 62
7
  6
CONTINUOUS
 10
378.6411160536
 20
88.876898404
  0
VERTEX
  8
SURFACE
 62
7
  6
CONTINUOUS
 10
378.6355108143
 20
88.9161690522
  0
SEQEND
  0
LINE
  8
SURFACE
 62
7
  6
CONTINUOUS
 10
386.465972073
 20
102.1945150331
 11
379.628085304
 21
102.1945150331
  0
LINE
  8
0
 62
7
  6
CONTINUOUS
 10
378.3567564948
 20
104.037807377
 11
375.3470286885
 21
104.037807377
  0
POLYLINE
  8
SURFACE
 62
7
  6
CONTINUOUS
 66
1
 70
0
  0
VERTEX
  8
SURFACE
 62
7
  6
CONTINUOUS
 10
379.628085304
 20
102.1945150331
  0
VERTEX
  8
SURFACE
 62
7
  6
CONTINUOUS
 10
379.5822423147
 20
102.1955663761
  0
VERTEX
  8
SURFACE
 62
7
  6
CONTINUOUS
 10
379.5369347838
 20
102.1986779066
  0
VERTEX
  8
SURFACE
 62
7
  6
CONTINUOUS
 10
379.4919785228
 20
102.2038208603
  0
VERTEX
  8
SURFACE
 62
7
  6
CONTINUOUS
 10
379.4473617257
 20
102.2109811048
  0
VERTEX
  8
SURFACE
 62
7
  6
CONTINUOUS
 10
379.4031258554
 20
102.2201469064
  0
VERTEX
  8
SURFACE
 62
7
  6
CONTINUOUS
 10
379.3590633231
 20
102.2313809959
  0
VERTEX
  8
SURFACE
 62
7
  6
CONTINUOUS
 10
379.3150318138
 20
102.2447795372
  0
VERTEX
  8
SURFACE
 62
7
  6
CONTINUOUS
 10
379.2710306179
 20
102.2604315513
  0
VERTEX
  8
SURFACE
 62
7
  6
CONTINUOUS
 10
379.2267409874
 20
102.2785877779
  0
VERTEX
  8
SURFACE
 62
7
  6
CONTINUOUS
 10
379.183150981
 20
102.2989518315
  0
VERTEX
  8
SURFACE
 62
7
  6
CONTINUOUS
 10
379.1414313485
 20
102.3209202032
  0
VERTEX
  8
SURFACE
 62
7
  6
CONTINUOUS
 10
379.1008032108
 20
102.34482474
  0
VERTEX
  8
SURFACE
 62
7
  6
CONTINUOUS
 10
379.060770423
 20
102.3710140765
  0
VERTEX
  8
SURFACE
 62
7
  6
CONTINUOUS
 10
379.0218551688
 20
102.399225763
  0
VERTEX
  8
SURFACE
 62
7
  6
CONTINUOUS
 10
378.984307061
 20
102.4293029229
  0
VERTEX
  8
SURFACE
 62
7
  6
CONTINUOUS
 10
378.9484474598
 20
102.4609672155
  0
VERTEX
  8
SURFACE
 62
7
  6
CONTINUOUS
 10
378.914896842
 20
102.4935426967
  0
VERTEX
  8
SURFACE
 62
7
  6
CONTINUOUS
 10
378.8828595956
 20
102.5277027331
  0
VERTEX
  8
SURFACE
 62
7
  6
CONTINUOUS
 10
378.8515443247
 20
102.5644482853
  0
VERTEX
  8
SURFACE
 62
7
  6
CONTINUOUS
 10
378.8332894162
 20
102.5876381957
  0
SEQEND
  0
POLYLINE
  8
0
 62
7
  6
CONTINUOUS
 66
1
 70
0
  0
VERTEX
  8
0
 62
7
  6
CONTINUOUS
 10
373.765972073
 20
118.2405378191
  0
VERTEX
  8
0
 62
7
  6
CONTINUOUS
 10
373.8187253454
 20
118.2419302424
  0
VERTEX
  8
0
 62
7
  6
CONTINUOUS
 10
373.8712532172
 20
118.2460953216
  0
VERTEX
  8
0
 62
7
  6
CONTINUOUS
 10
373.9234545124
 20
118.2530160313
  0
VERTEX
  8
0
 62
7
  6
CONTINUOUS
 10
373.9751776482
 20
118.2626661366
  0
VERTEX
  8
0
 62
7
  6
CONTINUOUS
 10
374.0262950968
 20
118.2750162381
  0
VERTEX
  8
0
 62
7
  6
CONTINUOUS
 10
374.0766363653
 20
118.2900181204
  0
VERTEX
  8
0
 62
7
  6
CONTINUOUS
 10
374.125995793
 20
118.3075946691
  0
VERTEX
  8
0
 62
7
  6
CONTINUOUS
 10
374.1743636638
 20
118.3277309892
  0
VERTEX
  8
0
 62
7
  6
CONTINUOUS
 10
374.2217673774
 20
118.3504531936
  0
VERTEX
  8
0
 62
7
  6
CONTINUOUS
 10
374.2678616087
 20
118.3756060911
  0
VERTEX
  8
0
 62
7
  6
CONTINUOUS
 10
374.3122850715
 20
118.4029567139
  0
VERTEX
  8
0
 62
7
  6
CONTINUOUS
 10
374.3551942042
 20
118.4325667304
  0
VERTEX
  8
0
 62
7
  6
CONTINUOUS
 10
374.3967029401
 20
118.464536161
  0
VERTEX
  8
0
 62
7
  6
CONTINUOUS
 10
374.436489396
 20
118.4986439455
  0
VERTEX
  8
0
 62
7
  6
CONTINUOUS
 10
374.4742894084
 20
118.5346436681
  0
VERTEX
  8
0
 62
7
  6
CONTINUOUS
 10
374.5101437348
 20
118.5725493926
  0
VERTEX
  8
0
 62
7
  6
CONTINUOUS
 10
374.5440380754
 20
118.6123552852
  0
VERTEX
  8
0
 62
7
  6
CONTINUOUS
 10
374.5758275005
 20
118.6539083051
  0
VERTEX
  8
0
 62
7
  6
CONTINUOUS
 10
374.6054050697
 20
118.6970746243
  0
VERTEX
  8
0
 62
7
  6
CONTINUOUS
 10
374.6326855762
 20
118.7417315406
  0
VERTEX
  8
0
 62
7
  6
CONTINUOUS
 10
374.6575715231
 20
118.7877128853
  0
VERTEX
  8
0
 62
7
  6
CONTINUOUS
 10
374.6800372688
 20
118.83497054
  0
VERTEX
  8
0
 62
7
  6
CONTINUOUS
 10
374.7000545025
 20
118.8834803796
  0
VERTEX
  8
0
 62
7
  6
CONTINUOUS
 10
374.7175089649
 20
118.9330031977
  0
VERTEX
  8
0
 62
7
  6
CONTINUOUS
 10
374.7323131882
 20
118.983273657
  0
VERTEX
  8
0
 62
7
  6
CONTINUOUS
 10
374.744471468
 20
119.0342881303
  0
VERTEX
  8
0
 62
7
  6
CONTINUOUS
 10
374.7506450653
 20
119.0661271024
  0
SEQEND
  0
LINE
  8
0
 62
7
  6
CONTINUOUS
 10
366.928085304
 20
118.2405378191
 11
373.765972073
 21
118.2405378191
  0
LINE
  8
SURFACE
 62
7
  6
CONTINUOUS
 10
398.8970286885
 20
119.037807377
 11
390.0470286885
 21
119.037807377
  0
LINE
  8
0
 62
7
  6
CONTINUOUS
 10
354.4970286885
 20
119.037807377
 11
363.3470286885
 21
119.037807377
  0
POLYLINE
  8
0
 62
7
  6
CONTINUOUS
 66
1
 70
0
  0
VERTEX
  8
0
 62
7
  6
CONTINUOUS
 10
374.3470286885
 20
112.2941726762
  0
VERTEX
  8
0
 62
7
  6
CONTINUOUS
 10
374.4568875638
 20
112.2428398113
  0
VERTEX
  8
0
 62
7
  6
CONTINUOUS
 10
374.5616158315
 20
112.1926150085
  0
VERTEX
  8
0
 62
7
  6
CONTINUOUS
 10
374.6619239431
 20
112.1433257842
  0
VERTEX
  8
0
 62
7
  6
CONTINUOUS
 10
374.7556805441
 20
112.0954895892
  0
VERTEX
  8
0
 62
7
  6
CONTINUOUS
 10
374.8407264834
 20
112.0496616176
  0
VERTEX
  8
0
 62
7
  6
CONTINUOUS
 10
374.917855603
 20
112.0055561559
  0
VERTEX
  8
0
 62
7
  6
CONTINUOUS
 10
374.9869597921
 20
111.9631115249
  0
VERTEX
  8
0
 62
7
  6
CONTINUOUS
 10
375.0485857579
 20
111.9222108155
  0
VERTEX
  8
0
 62
7
  6
CONTINUOUS
 10
375.1031319435
 20
111.8826979356
  0
VERTEX
  8
0
 62
7
  6
CONTINUOUS
 10
375.1509350304
 20
111.8446287555
  0
VERTEX
  8
0
 62
7
  6
CONTINUOUS
 10
375.1922967207
 20
111.8080306653
  0
VERTEX
  8
0
 62
7
  6
CONTINUOUS
 10
375.2277203965
 20
111.772833014
  0
VERTEX
  8
0
 62
7
  6
CONTINUOUS
 10
375.2576533179
 20
111.7390367447
  0
VERTEX
  8
0
 62
7
  6
CONTINUOUS
 10
375.2825655522
 20
111.706454465
  0
VERTEX
  8
0
 62
7
  6
CONTINUOUS
 10
375.302992004
 20
111.6749405159
  0
VERTEX
  8
0
 62
7
  6
CONTINUOUS
 10
375.3191854213
 20
111.6443706399
  0
VERTEX
  8
0
 62
7
  6
CONTINUOUS
 10
375.3315357038
 20
111.6146235975
  0
VERTEX
  8
0
 62
7
  6
CONTINUOUS
 10
375.3401663012
 20
111.5855446752
  0
VERTEX
  8
0
 62
7
  6
CONTINUOUS
 10
375.3453623064
 20
111.5569143557
  0
VERTEX
  8
0
 62
7
  6
CONTINUOUS
 10
375.3470286885
 20
111.5288058114
  0
SEQEND
  0
LINE
  8
0
 62
7
  6
CONTINUOUS
 10
366.133389295
 20
335.4881073428
 11
366.1331905202
 21
335.4878470165
  0
POLYLINE
  8
0
 62
7
  6
CONTINUOUS
 66
1
 70
0
  0
VERTEX
  8
0
 62
7
  6
CONTINUOUS
 10
366.1331905202
 20
335.4878470165
  0
VERTEX
  8
0
 62
7
  6
CONTINUOUS
 10
366.1677484116
 20
335.5306286349
  0
VERTEX
  8
0
 62
7
  6
CONTINUOUS
 10
366.2057650519
 20
335.5726584323
  0
VERTEX
  8
0
 62
7
  6
CONTINUOUS
 10
366.2459663403
 20
335.6123409393
  0
VERTEX
  8
0
 62
7
  6
CONTINUOUS
 10
366.2891608739
 20
335.6503692267
  0
VERTEX
  8
0
 62
7
  6
CONTINUOUS
 10
366.3347191119
 20
335.6860323654
  0
VERTEX
  8
0
 62
7
  6
CONTINUOUS
 10
366.3824820422
 20
335.719143323
  0
VERTEX
  8
0
 62
7
  6
CONTINUOUS
 10
366.4317285565
 20
335.7492183645
  0
VERTEX
  8
0
 62
7
  6
CONTINUOUS
 10
366.4818145037
 20
335.7759976882
  0
VERTEX
  8
0
 62
7
  6
CONTINUOUS
 10
366.5323442959
 20
335.7994618796
  0
VERTEX
  8
0
 62
7
  6
CONTINUOUS
 10
366.5828573408
 20
335.8196185823
  0
VERTEX
  8
0
 62
7
  6
CONTINUOUS
 10
366.6331659593
 20
335.8366218715
  0
VERTEX
  8
0
 62
7
  6
CONTINUOUS
 10
366.6829782278
 20
335.8505957349
  0
VERTEX
  8
0
 62
7
  6
CONTINUOUS
 10
366.7324483048
 20
335.8617761021
  0
VERTEX
  8
0
 62
7
  6
CONTINUOUS
 10
366.7817317547
 20
335.8703320691
  0
VERTEX
  8
0
 62
7
  6
CONTINUOUS
 10
366.830754782
 20
335.8763518345
  0
VERTEX
  8
0
 62
7
  6
CONTINUOUS
 10
366.8794510093
 20
335.8799163733
  0
VERTEX
  8
0
 62
7
  6
CONTINUOUS
 10
366.928085304
 20
335.881099721
  0
SEQEND
  0
POLYLINE
  8
SURFACE
 62
7
  6
CONTINUOUS
 66
1
 70
0
  0
VERTEX
  8
SURFACE
 62
7
  6
CONTINUOUS
 10
386.7251686664
 20
133.3755200052
  0
VERTEX
  8
SURFACE
 62
7
  6
CONTINUOUS
 10
386.7873710364
 20
133.3773204669
  0
VERTEX
  8
SURFACE
 62
7
  6
CONTINUOUS
 10
386.8489149081
 20
133.3826619651
  0
VERTEX
  8
SURFACE
 62
7
  6
CONTINUOUS
 10
386.9100354431
 20
133.3915175853
  0
VERTEX
  8
SURFACE
 62
7
  6
CONTINUOUS
 10
386.9704300766
 20
133.403821883
  0
VERTEX
  8
SURFACE
 62
7
  6
CONTINUOUS
 10
387.0297812372
 20
133.4194643454
  0
VERTEX
  8
SURFACE
 62
7
  6
CONTINUOUS
 10
387.0878081325
 20
133.4382998401
  0
VERTEX
  8
SURFACE
 62
7
  6
CONTINUOUS
 10
387.1442165557
 20
133.4601343864
  0
VERTEX
  8
SURFACE
 62
7
  6
CONTINUOUS
 10
387.1987675082
 20
133.4847483547
  0
VERTEX
  8
SURFACE
 62
7
  6
CONTINUOUS
 10
387.2511993151
 20
133.511864734
  0
VERTEX
  8
SURFACE
 62
7
  6
CONTINUOUS
 10
387.3012983809
 20
133.5411775559
  0
VERTEX
  8
SURFACE
 62
7
  6
CONTINUOUS
 10
387.3489240343
 20
133.5723768186
  0
VERTEX
  8
SURFACE
 62
7
  6
CONTINUOUS
 10
387.3939492171
 20
133.6051205042
  0
VERTEX
  8
SURFACE
 62
7
  6
CONTINUOUS
 10
387.4363650521
 20
133.6391191119
  0
VERTEX
  8
SURFACE
 62
7
  6
CONTINUOUS
 10
387.4761603493
 20
133.6740626096
  0
VERTEX
  8
SURFACE
 62
7
  6
CONTINUOUS
 10
387.5134084518
 20
133.7097003794
  0
VERTEX
  8
SURFACE
 62
7
  6
CONTINUOUS
 10
387.5481591879
 20
133.745754116
  0
VERTEX
  8
SURFACE
 62
7
  6
CONTINUOUS
 10
387.5805942774
 20
133.7820861059
  0
VERTEX
  8
SURFACE
 62
7
  6
CONTINUOUS
 10
387.6108501793
 20
133.818532352
  0
VERTEX
  8
SURFACE
 62
7
  6
CONTINUOUS
 10
387.6391339079
 20
133.8550386245
  0
VERTEX
  8
SURFACE
 62
7
  6
CONTINUOUS
 10
387.6656184834
 20
133.8915440184
  0
VERTEX
  8
SURFACE
 62
7
  6
CONTINUOUS
 10
387.6904970899
 20
133.9280504457
  0
VERTEX
  8
SURFACE
 62
7
  6
CONTINUOUS
 10
387.7139318516
 20
133.9645522259
  0
VERTEX
  8
SURFACE
 62
7
  6
CONTINUOUS
 10
387.7361136695
 20
134.0011264682
  0
VERTEX
  8
SURFACE
 62
7
  6
CONTINUOUS
 10
387.7571986793
 20
134.037835992
  0
VERTEX
  8
SURFACE
 62
7
  6
CONTINUOUS
 10
387.7773623682
 20
134.0748181266
  0
VERTEX
  8
SURFACE
 62
7
  6
CONTINUOUS
 10
387.7967620928
 20
134.1122226031
  0
VERTEX
  8
SURFACE
 62
7
  6
CONTINUOUS
 10
387.8155212639
 20
134.1501730078
  0
VERTEX
  8
SURFACE
 62
7
  6
CONTINUOUS
 10
387.8337622559
 20
134.1888241461
  0
VERTEX
  8
SURFACE
 62
7
  6
CONTINUOUS
 10
387.8515804105
 20
134.2283046382
  0
VERTEX
  8
SURFACE
 62
7
  6
CONTINUOUS
 10
387.8690694439
 20
134.2687659194
  0
VERTEX
  8
SURFACE
 62
7
  6
CONTINUOUS
 10
387.8863078307
 20
134.3103495822
  0
VERTEX
  8
SURFACE
 62
7
  6
CONTINUOUS
 10
387.9033720614
 20
134.3532152573
  0
VERTEX
  8
SURFACE
 62
7
  6
CONTINUOUS
 10
387.9203249528
 20
134.3975097015
  0
VERTEX
  8
SURFACE
 62
7
  6
CONTINUOUS
 10
387.9372284857
 20
134.4433960822
  0
VERTEX
  8
SURFACE
 62
7
  6
CONTINUOUS
 10
387.9541339929
 20
134.4910268332
  0
VERTEX
  8
SURFACE
 62
7
  6
CONTINUOUS
 10
387.9711035063
 20
134.5406028171
  0
VERTEX
  8
SURFACE
 62
7
  6
CONTINUOUS
 10
387.9846134753
 20
134.581344057
  0
SEQEND
  0
POLYLINE
  8
0
 62
7
  6
CONTINUOUS
 66
1
 70
0
  0
VERTEX
  8
0
 62
7
  6
CONTINUOUS
 10
366.1333850801
 20
335.4881017869
  0
VERTEX
  8
0
 62
7
  6
CONTINUOUS
 10
366.1143865757
 20
335.4625257446
  0
VERTEX
  8
0
 62
7
  6
CONTINUOUS
 10
366.0878182702
 20
335.4242288312
  0
VERTEX
  8
0
 62
7
  6
CONTINUOUS
 10
366.0636440861
 20
335.3865154897
  0
VERTEX
  8
0
 62
7
  6
CONTINUOUS
 10
366.0415954332
 20
335.3494302255
  0
VERTEX
  8
0
 62
7
  6
CONTINUOUS
 10
366.0214561123
 20
335.3130494593
  0
VERTEX
  8
0
 62
7
  6
CONTINUOUS
 10
366.002933214
 20
335.2772479917
  0
VERTEX
  8
0
 62
7
  6
CONTINUOUS
 10
365.9857998102
 20
335.2419443267
  0
VERTEX
  8
0
 62
7
  6
CONTINUOUS
 10
365.969813192
 20
335.2069496021
  0
VERTEX
  8
0
 62
7
  6
CONTINUOUS
 10
365.9547658728
 20
335.1720713685
  0
VERTEX
  8
0
 62
7
  6
CONTINUOUS
 10
365.940491303
 20
335.1371436695
  0
VERTEX
  8
0
 62
7
  6
CONTINUOUS
 10
365.9268388538
 20
335.10198184
  0
VERTEX
  8
0
 62
7
  6
CONTINUOUS
 10
365.9136806292
 20
335.0664072505
  0
VERTEX
  8
0
 62
7
  6
CONTINUOUS
 10
365.900899979
 20
335.0302251963
  0
VERTEX
  8
0
 62
7
  6
CONTINUOUS
 10
365.8884046125
 20
334.9932692975
  0
SEQEND
  0
POLYLINE
  8
0
 62
7
  6
CONTINUOUS
 66
1
 70
0
  0
VERTEX
  8
0
 62
7
  6
CONTINUOUS
 10
375.0140971359
 20
316.7851034207
  0
VERTEX
  8
0
 62
7
  6
CONTINUOUS
 10
374.9601143937
 20
316.7358399611
  0
VERTEX
  8
0
 62
7
  6
CONTINUOUS
 10
374.9025230441
 20
316.6815458645
  0
VERTEX
  8
0
 62
7
  6
CONTINUOUS
 10
374.8414894273
 20
316.6218737991
  0
VERTEX
  8
0
 62
7
  6
CONTINUOUS
 10
374.7773603017
 20
316.5569401276
  0
VERTEX
  8
0
 62
7
  6
CONTINUOUS
 10
374.710537113
 20
316.4868035707
  0
VERTEX
  8
0
 62
7
  6
CONTINUOUS
 10
374.6412699405
 20
316.4114356915
  0
VERTEX
  8
0
 62
7
  6
CONTINUOUS
 10
374.5698449248
 20
316.3307896395
  0
VERTEX
  8
0
 62
7
  6
CONTINUOUS
 10
374.4967024158
 20
316.2450443386
  0
VERTEX
  8
0
 62
7
  6
CONTINUOUS
 10
374.4223034335
 20
316.1545017111
  0
VERTEX
  8
0
 62
7
  6
CONTINUOUS
 10
374.3470286885
 20
316.0589147038
  0
SEQEND
  0
POLYLINE
  8
0
 62
7
  6
CONTINUOUS
 66
1
 70
0
  0
VERTEX
  8
0
 62
7
  6
CONTINUOUS
 10
374.3470286885
 20
136.8012887251
  0
VERTEX
  8
0
 62
7
  6
CONTINUOUS
 10
374.4568875638
 20
136.7064379586
  0
VERTEX
  8
0
 62
7
  6
CONTINUOUS
 10
374.5616158315
 20
136.613634624
  0
VERTEX
  8
0
 62
7
  6
CONTINUOUS
 10
374.6619239431
 20
136.522560013
  0
VERTEX
  8
0
 62
7
  6
CONTINUOUS
 10
374.7556805441
 20
136.43417025
  0
VERTEX
  8
0
 62
7
  6
CONTINUOUS
 10
374.8407264834
 20
136.3494912001
  0
VERTEX
  8
0
 62
7
  6
CONTINUOUS
 10
374.917855603
 20
136.2679949334
  0
VERTEX
  8
0
 62
7
  6
CONTINUOUS
 10
374.9869597921
 20
136.1895674817
  0
VERTEX
  8
0
 62
7
  6
CONTINUOUS
 10
375.0485857579
 20
136.1139928251
  0
VERTEX
  8
0
 62
7
  6
CONTINUOUS
 10
375.1031319435
 20
136.0409825431
  0
VERTEX
  8
0
 62
7
  6
CONTINUOUS
 10
375.1509350304
 20
135.9706398705
  0
VERTEX
  8
0
 62
7
  6
CONTINUOUS
 10
375.1922967207
 20
135.9030154176
  0
VERTEX
  8
0
 62
7
  6
CONTINUOUS
 10
375.2277203965
 20
135.8379786384
  0
VERTEX
  8
0
 62
7
  6
CONTINUOUS
 10
375.2576533179
 20
135.7755312754
  0
VERTEX
  8
0
 62
7
  6
CONTINUOUS
 10
375.2825655522
 20
135.7153270727
  0
VERTEX
  8
0
 62
7
  6
CONTINUOUS
 10
375.302992004
 20
135.6570968876
  0
VERTEX
  8
0
 62
7
  6
CONTINUOUS
 10
375.3191854213
 20
135.6006111221
  0
VERTEX
  8
0
 62
7
  6
CONTINUOUS
 10
375.3315357038
 20
135.5456457548
  0
VERTEX
  8
0
 62
7
  6
CONTINUOUS
 10
375.3401663012
 20
135.4919149125
  0
VERTEX
  8
0
 62
7
  6
CONTINUOUS
 10
375.3453623064
 20
135.4390129801
  0
VERTEX
  8
0
 62
7
  6
CONTINUOUS
 10
375.3470286885
 20
135.3870751627
  0
SEQEND
  0
LINE
  8
SURFACE
 62
7
  6
CONTINUOUS
 10
378.8332894162
 20
102.5876381957
 11
378.8333881417
 21
102.5875089211
  0
POLYLINE
  8
0
 62
7
  6
CONTINUOUS
 66
1
 70
0
  0
VERTEX
  8
0
 62
7
  6
CONTINUOUS
 10
373.765972073
 20
158.0018839958
  0
VERTEX
  8
0
 62
7
  6
CONTINUOUS
 10
373.8194208734
 20
158.0033134053
  0
VERTEX
  8
0
 62
7
  6
CONTINUOUS
 10
373.8721474345
 20
158.0075365753
  0
VERTEX
  8
0
 62
7
  6
CONTINUOUS
 10
373.9242487188
 20
158.0144891896
  0
VERTEX
  8
0
 62
7
  6
CONTINUOUS
 10
373.9756789694
 20
158.0241197003
  0
VERTEX
  8
0
 62
7
  6
CONTINUOUS
 10
374.0264389761
 20
158.036401219
  0
VERTEX
  8
0
 62
7
  6
CONTINUOUS
 10
374.0763734076
 20
158.0512783933
  0
VERTEX
  8
0
 62
7
  6
CONTINUOUS
 10
374.1254157391
 20
158.0687172097
  0
VERTEX
  8
0
 62
7
  6
CONTINUOUS
 10
374.1731748606
 20
158.0885462216
  0
VERTEX
  8
0
 62
7
  6
CONTINUOUS
 10
374.218985943
 20
158.110380528
  0
VERTEX
  8
0
 62
7
  6
CONTINUOUS
 10
374.2635394142
 20
158.134458644
  0
VERTEX
  8
0
 62
7
  6
CONTINUOUS
 10
374.307532336
 20
158.1612220656
  0
VERTEX
  8
0
 62
7
  6
CONTINUOUS
 10
374.3500393578
 20
158.1901787495
  0
VERTEX
  8
0
 62
7
  6
CONTINUOUS
 10
374.3902041385
 20
158.220645026
  0
VERTEX
  8
0
 62
7
  6
CONTINUOUS
 10
374.4286643695
 20
158.2529922011
  0
VERTEX
  8
0
 62
7
  6
CONTINUOUS
 10
374.465850994
 20
158.2876224919
  0
VERTEX
  8
0
 62
7
  6
CONTINUOUS
 10
374.5012782182
 20
158.3241488906
  0
VERTEX
  8
0
 62
7
  6
CONTINUOUS
 10
374.5345835752
 20
158.3621681537
  0
VERTEX
  8
0
 62
7
  6
CONTINUOUS
 10
374.5659510946
 20
158.4018560256
  0
VERTEX
  8
0
 62
7
  6
CONTINUOUS
 10
374.5955015243
 20
158.4434210253
  0
VERTEX
  8
0
 62
7
  6
CONTINUOUS
 10
374.6229203239
 20
158.4864815362
  0
VERTEX
  8
0
 62
7
  6
CONTINUOUS
 10
374.6479089591
 20
158.5305164864
  0
VERTEX
  8
0
 62
7
  6
CONTINUOUS
 10
374.6712715655
 20
158.5771101395
  0
SEQEND
  0
LINE
  8
0
 62
7
  6
CONTINUOUS
 10
366.928085304
 20
158.0018839958
 11
373.765972073
 21
158.0018839958
  0
POLYLINE
  8
0
 62
7
  6
CONTINUOUS
 66
1
 70
0
  0
VERTEX
  8
0
 62
7
  6
CONTINUOUS
 10
365.8884046125
 20
334.9932692975
  0
VERTEX
  8
0
 62
7
  6
CONTINUOUS
 10
365.8761051202
 20
334.9553473648
  0
VERTEX
  8
0
 62
7
  6
CONTINUOUS
 10
365.8639383209
 20
334.9163177414
  0
VERTEX
  8
0
 62
7
  6
CONTINUOUS
 10
365.8518395914
 20
334.8760104934
  0
VERTEX
  8
0
 62
7
  6
CONTINUOUS
 10
365.8397651054
 20
334.834303773
  0
VERTEX
  8
0
 62
7
  6
CONTINUOUS
 10
365.8276695331
 20
334.7910550077
  0
VERTEX
  8
0
 62
7
  6
CONTINUOUS
 10
365.8155201597
 20
334.7461526093
  0
VERTEX
  8
0
 62
7
  6
CONTINUOUS
 10
365.8032858601
 20
334.6994799287
  0
VERTEX
  8
0
 62
7
  6
CONTINUOUS
 10
365.7909356261
 20
334.65090989
  0
VERTEX
  8
0
 62
7
  6
CONTINUOUS
 10
365.7784412097
 20
334.6003156841
  0
VERTEX
  8
0
 62
7
  6
CONTINUOUS
 10
365.7657759566
 20
334.5475677384
  0
VERTEX
  8
0
 62
7
  6
CONTINUOUS
 10
365.7529137085
 20
334.4925295495
  0
VERTEX
  8
0
 62
7
  6
CONTINUOUS
 10
365.7398330249
 20
334.4350763315
  0
VERTEX
  8
0
 62
7
  6
CONTINUOUS
 10
365.7265116396
 20
334.3750723123
  0
VERTEX
  8
0
 62
7
  6
CONTINUOUS
 10
365.7129314494
 20
334.312393891
  0
VERTEX
  8
0
 62
7
  6
CONTINUOUS
 10
365.6990729663
 20
334.2469056056
  0
VERTEX
  8
0
 62
7
  6
CONTINUOUS
 10
365.6704629322
 20
334.1070241008
  0
SEQEND
  0
LINE
  8
SURFACE
 62
7
  6
CONTINUOUS
 10
387.0470286885
 20
175.649794903
 11
379.0470286885
 21
175.649794903
  0
POLYLINE
  8
0
 62
7
  6
CONTINUOUS
 66
1
 70
0
  0
VERTEX
  8
0
 62
7
  6
CONTINUOUS
 10
365.4094219287
 20
303.4942034681
  0
VERTEX
  8
0
 62
7
  6
CONTINUOUS
 10
365.4019273125
 20
303.4704949345
  0
VERTEX
  8
0
 62
7
  6
CONTINUOUS
 10
365.3862095317
 20
303.4143971619
  0
VERTEX
  8
0
 62
7
  6
CONTINUOUS
 10
365.3730702665
 20
303.3574643208
  0
VERTEX
  8
0
 62
7
  6
CONTINUOUS
 10
365.3625729835
 20
303.2998839858
  0
SEQEND
  0
POLYLINE
  8
0
 62
7
  6
CONTINUOUS
 66
1
 70
0
  0
VERTEX
  8
0
 62
7
  6
CONTINUOUS
 10
374.4967024158
 20
283.8137279267
  0
VERTEX
  8
0
 62
7
  6
CONTINUOUS
 10
374.4223034335
 20
283.6908674128
  0
VERTEX
  8
0
 62
7
  6
CONTINUOUS
 10
374.3470286885
 20
283.5644415047
  0
SEQEND
  0
LINE
  8
0
 62
7
  6
CONTINUOUS
 10
375.0140971359
 20
284.6512597232
 11
374.9601143937
 21
284.5625292793
  0
LINE
  8
0
 62
7
  6
CONTINUOUS
 10
374.6412699405
 20
284.048990485
 11
374.4967024158
 21
283.8137279267
  0
POLYLINE
  8
0
 62
7
  6
CONTINUOUS
 66
1
 70
0
  0
VERTEX
  8
0
 62
7
  6
CONTINUOUS
 10
374.9601143937
 20
284.5625292793
  0
VERTEX
  8
0
 62
7
  6
CONTINUOUS
 10
374.8414894273
 20
284.3707714786
  0
VERTEX
  8
0
 62
7
  6
CONTINUOUS
 10
374.7773603017
 20
284.2678172236
  0
VERTEX
  8
0
 62
7
  6
CONTINUOUS
 10
374.6412699405
 20
284.048990485
  0
SEQEND
  0
LINE
  8
0
 62
7
  6
CONTINUOUS
 10
365.518274103
 20
159.6495645442
 11
365.5182139391
 21
159.6496583159
  0
LINE
  8
0
 62
7
  6
CONTINUOUS
 10
365.5182740772
 20
159.6495645277
 11
365.5181993811
 21
159.6496821532
  0
POLYLINE
  8
0
 62
7
  6
CONTINUOUS
 66
1
 70
0
  0
VERTEX
  8
0
 62
7
  6
CONTINUOUS
 10
365.517970112
 20
159.650043188
  0
VERTEX
  8
0
 62
7
  6
CONTINUOUS
 10
365.5192678228
 20
159.6478505065
  0
VERTEX
  8
0
 62
7
  6
CONTINUOUS
 10
365.5224254328
 20
159.6422207017
  0
VERTEX
  8
0
 62
7
  6
CONTINUOUS
 10
365.5274041644
 20
159.6328365461
  0
VERTEX
  8
0
 62
7
  6
CONTINUOUS
 10
365.5341618142
 20
159.6193765445
  0
VERTEX
  8
0
 62
7
  6
CONTINUOUS
 10
365.5408806942
 20
159.6053230348
  0
SEQEND
  0
POLYLINE
  8
0
 62
7
  6
CONTINUOUS
 66
1
 70
0
  0
VERTEX
  8
0
 62
7
  6
CONTINUOUS
 10
366.0228011547
 20
158.5770774411
  0
VERTEX
  8
0
 62
7
  6
CONTINUOUS
 10
366.0303810161
 20
158.5612855261
  0
VERTEX
  8
0
 62
7
  6
CONTINUOUS
 10
366.0559886872
 20
158.512550275
  0
VERTEX
  8
0
 62
7
  6
CONTINUOUS
 10
366.0843783465
 20
158.4650799628
  0
VERTEX
  8
0
 62
7
  6
CONTINUOUS
 10
366.1163993866
 20
158.4177898507
  0
VERTEX
  8
0
 62
7
  6
CONTINUOUS
 10
366.1510639966
 20
158.372409701
  0
VERTEX
  8
0
 62
7
  6
CONTINUOUS
 10
366.1869922195
 20
158.3304817036
  0
VERTEX
  8
0
 62
7
  6
CONTINUOUS
 10
366.2252662055
 20
158.2905153749
  0
VERTEX
  8
0
 62
7
  6
CONTINUOUS
 10
366.2672422054
 20
158.2513599143
  0
VERTEX
  8
0
 62
7
  6
CONTINUOUS
 10
366.3115441675
 20
158.2145613002
  0
VERTEX
  8
0
 62
7
  6
CONTINUOUS
 10
366.3569529861
 20
158.1810259841
  0
VERTEX
  8
0
 62
7
  6
CONTINUOUS
 10
366.4037620995
 20
158.1503646612
  0
VERTEX
  8
0
 62
7
  6
CONTINUOUS
 10
366.451858336
 20
158.1225616006
  0
VERTEX
  8
0
 62
7
  6
CONTINUOUS
 10
366.5014438587
 20
158.097463144
  0
VERTEX
  8
0
 62
7
  6
CONTINUOUS
 10
366.5530924109
 20
158.0748563108
  0
VERTEX
  8
0
 62
7
  6
CONTINUOUS
 10
366.6058268161
 20
158.0552322821
  0
VERTEX
  8
0
 62
7
  6
CONTINUOUS
 10
366.6588398885
 20
158.0388123961
  0
VERTEX
  8
0
 62
7
  6
CONTINUOUS
 10
366.7122452795
 20
158.025455256
  0
VERTEX
  8
0
 62
7
  6
CONTINUOUS
 10
366.7659907912
 20
158.0151087585
  0
VERTEX
  8
0
 62
7
  6
CONTINUOUS
 10
366.8199382716
 20
158.0077490858
  0
VERTEX
  8
0
 62
7
  6
CONTINUOUS
 10
366.8739220416
 20
158.0033519027
  0
VERTEX
  8
0
 62
7
  6
CONTINUOUS
 10
366.928085304
 20
158.0018839958
  0
SEQEND
  0
LINE
  8
0
 62
7
  6
CONTINUOUS
 10
365.540881256
 20
159.6053218368
 11
366.0228133482
 21
158.577051457
  0
POLYLINE
  8
SURFACE
 62
7
  6
CONTINUOUS
 66
1
 70
0
  0
VERTEX
  8
SURFACE
 62
7
  6
CONTINUOUS
 10
378.5884054673
 20
103.0823428884
  0
VERTEX
  8
SURFACE
 62
7
  6
CONTINUOUS
 10
378.6009007973
 20
103.0453872022
  0
VERTEX
  8
SURFACE
 62
7
  6
CONTINUOUS
 10
378.6136814091
 20
103.0092053438
  0
VERTEX
  8
SURFACE
 62
7
  6
CONTINUOUS
 10
378.6268396465
 20
102.9736308176
  0
VERTEX
  8
SURFACE
 62
7
  6
CONTINUOUS
 10
378.6404920871
 20
102.9384691164
  0
VERTEX
  8
SURFACE
 62
7
  6
CONTINUOUS
 10
378.6547665287
 20
102.9035418286
  0
VERTEX
  8
SURFACE
 62
7
  6
CONTINUOUS
 10
378.669813686
 20
102.8686640417
  0
VERTEX
  8
SURFACE
 62
7
  6
CONTINUOUS
 10
378.6858001746
 20
102.8336696388
  0
VERTEX
  8
SURFACE
 62
7
  6
CONTINUOUS
 10
378.7029334938
 20
102.798366174
  0
VERTEX
  8
SURFACE
 62
7
  6
CONTINUOUS
 10
378.7214564509
 20
102.7625646411
  0
VERTEX
  8
SURFACE
 62
7
  6
CONTINUOUS
 10
378.7415958124
 20
102.7261838676
  0
VERTEX
  8
SURFACE
 62
7
  6
CONTINUOUS
 10
378.7636442959
 20
102.6890989472
  0
VERTEX
  8
SURFACE
 62
7
  6
CONTINUOUS
 10
378.7878181271
 20
102.6513861748
  0
VERTEX
  8
SURFACE
 62
7
  6
CONTINUOUS
 10
378.814385862
 20
102.6130900337
  0
VERTEX
  8
SURFACE
 62
7
  6
CONTINUOUS
 10
378.8333839387
 20
102.5875144866
  0
SEQEND
  0
LINE
  8
0
 62
7
  6
CONTINUOUS
 10
365.877130524
 20
348.6742999953
 11
365.7872651969
 21
347.9011361809
  0
LINE
  8
0
 62
7
  6
CONTINUOUS
 10
365.9355187993
 20
349.1595108335
 11
365.877130524
 21
348.6742999953
  0
LINE
  8
0
 62
7
  6
CONTINUOUS
 10
365.3709144332
 20
332.3364047229
 11
365.3658802397
 21
332.3007348195
  0
POLYLINE
  8
0
 62
7
  6
CONTINUOUS
 66
1
 70
0
  0
VERTEX
  8
0
 62
7
  6
CONTINUOUS
 10
365.9355109446
 20
349.1594467652
  0
VERTEX
  8
0
 62
7
  6
CONTINUOUS
 10
365.9409224322
 20
349.1975241996
  0
VERTEX
  8
0
 62
7
  6
CONTINUOUS
 10
365.9504786451
 20
349.2482479162
  0
VERTEX
  8
0
 62
7
  6
CONTINUOUS
 10
365.9626068939
 20
349.2982904659
  0
VERTEX
  8
0
 62
7
  6
CONTINUOUS
 10
365.9773619237
 20
349.3478477843
  0
VERTEX
  8
0
 62
7
  6
CONTINUOUS
 10
365.9949134102
 20
349.3972377828
  0
VERTEX
  8
0
 62
7
  6
CONTINUOUS
 10
366.0150717646
 20
349.4457366317
  0
VERTEX
  8
0
 62
7
  6
CONTINUOUS
 10
366.0375108913
 20
349.4926449474
  0
VERTEX
  8
0
 62
7
  6
CONTINUOUS
 10
366.0623971158
 20
349.5383909972
  0
VERTEX
  8
0
 62
7
  6
CONTINUOUS
 10
366.0899939205
 20
349.5833372414
  0
VERTEX
  8
0
 62
7
  6
CONTINUOUS
 10
366.1199615438
 20
349.6268201004
  0
VERTEX
  8
0
 62
7
  6
CONTINUOUS
 10
366.151887594
 20
349.6682969606
  0
VERTEX
  8
0
 62
7
  6
CONTINUOUS
 10
366.185927924
 20
349.708033028
  0
VERTEX
  8
0
 62
7
  6
CONTINUOUS
 10
366.222251167
 20
349.746184516
  0
VERTEX
  8
0
 62
7
  6
CONTINUOUS
 10
366.2605739778
 20
349.7824070207
  0
VERTEX
  8
0
 62
7
  6
CONTINUOUS
 10
366.3006704537
 20
349.8164925545
  0
VERTEX
  8
0
 62
7
  6
CONTINUOUS
 10
366.3424234706
 20
349.848362876
  0
VERTEX
  8
0
 62
7
  6
CONTINUOUS
 10
366.3856186497
 20
349.8778847121
  0
VERTEX
  8
0
 62
7
  6
CONTINUOUS
 10
366.4303080279
 20
349.9051122735
  0
VERTEX
  8
0
 62
7
  6
CONTINUOUS
 10
366.4766590725
 20
349.93011582
  0
VERTEX
  8
0
 62
7
  6
CONTINUOUS
 10
366.524200377
 20
349.9526171746
  0
VERTEX
  8
0
 62
7
  6
CONTINUOUS
 10
366.5724324866
 20
349.9724255202
  0
VERTEX
  8
0
 62
7
  6
CONTINUOUS
 10
366.6215281492
 20
349.9896596297
  0
VERTEX
  8
0
 62
7
  6
CONTINUOUS
 10
366.6716478968
 20
350.0043682164
  0
VERTEX
  8
0
 62
7
  6
CONTINUOUS
 10
366.7224134267
 20
350.0164283859
  0
VERTEX
  8
0
 62
7
  6
CONTINUOUS
 10
366.7735150242
 20
350.0257891727
  0
VERTEX
  8
0
 62
7
  6
CONTINUOUS
 10
366.8249010387
 20
350.032469635
  0
VERTEX
  8
0
 62
7
  6
CONTINUOUS
 10
366.8764415721
 20
350.0364729492
  0
VERTEX
  8
0
 62
7
  6
CONTINUOUS
 10
366.928085304
 20
350.037807377
  0
SEQEND
  0
LINE
  8
0
 62
7
  6
CONTINUOUS
 10
365.4299807514
 20
332.7231940758
 11
365.3709156027
 21
332.3364126555
  0
LINE
  8
0
 62
7
  6
CONTINUOUS
 10
365.46912626
 20
332.970427198
 11
365.4299807514
 21
332.7231940758
  0
LINE
  8
0
 62
7
  6
CONTINUOUS
 10
365.5065773158
 20
333.1996961649
 11
365.46912626
 21
332.970427198
  0
LINE
  8
0
 62
7
  6
CONTINUOUS
 10
365.5423867201
 20
333.4118640316
 11
365.5065773158
 21
333.1996961649
  0
LINE
  8
0
 62
7
  6
CONTINUOUS
 10
365.5766122062
 20
333.6077983482
 11
365.5423867201
 21
333.4118640316
  0
LINE
  8
0
 62
7
  6
CONTINUOUS
 10
365.6093176451
 20
333.7883755336
 11
365.5766122062
 21
333.6077983482
  0
LINE
  8
0
 62
7
  6
CONTINUOUS
 10
365.6405744013
 20
333.9544833328
 11
365.6093176451
 21
333.7883755336
  0
LINE
  8
0
 62
7
  6
CONTINUOUS
 10
365.6704629322
 20
334.1070241008
 11
365.6405744013
 21
333.9544833328
  0
POLYLINE
  8
SURFACE
 62
7
  6
CONTINUOUS
 66
1
 70
0
  0
VERTEX
  8
SURFACE
 62
7
  6
CONTINUOUS
 10
378.3799602412
 20
283.5644415047
  0
VERTEX
  8
SURFACE
 62
7
  6
CONTINUOUS
 10
378.4339429834
 20
283.6773728161
  0
VERTEX
  8
SURFACE
 62
7
  6
CONTINUOUS
 10
378.491534333
 20
283.7903622956
  0
VERTEX
  8
SURFACE
 62
7
  6
CONTINUOUS
 10
378.5525679498
 20
283.9033214433
  0
VERTEX
  8
SURFACE
 62
7
  6
CONTINUOUS
 10
378.6166970754
 20
284.0155901262
  0
VERTEX
  8
SURFACE
 62
7
  6
CONTINUOUS
 10
378.6835202641
 20
284.1266257947
  0
VERTEX
  8
SURFACE
 62
7
  6
CONTINUOUS
 10
378.7527874366
 20
284.2361331678
  0
VERTEX
  8
SURFACE
 62
7
  6
CONTINUOUS
 10
378.8242124522
 20
284.3438321151
  0
VERTEX
  8
SURFACE
 62
7
  6
CONTINUOUS
 10
378.8973549612
 20
284.4491995985
  0
VERTEX
  8
SURFACE
 62
7
  6
CONTINUOUS
 10
378.9717539436
 20
284.5516603538
  0
VERTEX
  8
SURFACE
 62
7
  6
CONTINUOUS
 10
379.0470286885
 20
284.6512597232
  0
SEQEND
  0
POLYLINE
  8
SURFACE
 62
7
  6
CONTINUOUS
 66
1
 70
0
  0
VERTEX
  8
SURFACE
 62
7
  6
CONTINUOUS
 10
378.2182129258
 20
278.4259548848
  0
VERTEX
  8
SURFACE
 62
7
  6
CONTINUOUS
 10
378.192339038
 20
278.3835721856
  0
VERTEX
  8
SURFACE
 62
7
  6
CONTINUOUS
 10
378.1691055803
 20
278.3414287646
  0
VERTEX
  8
SURFACE
 62
7
  6
CONTINUOUS
 10
378.1475463007
 20
278.2978753395
  0
VERTEX
  8
SURFACE
 62
7
  6
CONTINUOUS
 10
378.1278056722
 20
278.2530338619
  0
VERTEX
  8
SURFACE
 62
7
  6
CONTINUOUS
 10
378.1100094847
 20
278.20703027
  0
VERTEX
  8
SURFACE
 62
7
  6
CONTINUOUS
 10
378.094276501
 20
278.1600266463
  0
VERTEX
  8
SURFACE
 62
7
  6
CONTINUOUS
 10
378.0806891513
 20
278.1121341419
  0
VERTEX
  8
SURFACE
 62
7
  6
CONTINUOUS
 10
378.0693260486
 20
278.063497364
  0
VERTEX
  8
SURFACE
 62
7
  6
CONTINUOUS
 10
378.0602471827
 20
278.0142442342
  0
VERTEX
  8
SURFACE
 62
7
  6
CONTINUOUS
 10
378.05350295
 20
277.9645188712
  0
VERTEX
  8
SURFACE
 62
7
  6
CONTINUOUS
 10
378.0491300071
 20
277.9144619317
  0
SEQEND
  0
LINE
  8
SURFACE
 62
7
  6
CONTINUOUS
 10
378.2182129258
 20
278.4259548848
 11
378.2182740652
 21
278.4260501771
  0
POLYLINE
  8
0
 62
7
  6
CONTINUOUS
 66
1
 70
0
  0
VERTEX
  8
0
 62
7
  6
CONTINUOUS
 10
374.3470286885
 20
173.8281692628
  0
VERTEX
  8
0
 62
7
  6
CONTINUOUS
 10
374.4568875638
 20
173.7042407642
  0
VERTEX
  8
0
 62
7
  6
CONTINUOUS
 10
374.5616158315
 20
173.5829873641
  0
VERTEX
  8
0
 62
7
  6
CONTINUOUS
 10
374.6619239431
 20
173.4639926503
  0
VERTEX
  8
0
 62
7
  6
CONTINUOUS
 10
374.7556805441
 20
173.3485058596
  0
VERTEX
  8
0
 62
7
  6
CONTINUOUS
 10
374.8407264834
 20
173.2378673491
  0
VERTEX
  8
0
 62
7
  6
CONTINUOUS
 10
374.917855603
 20
173.1313873453
  0
VERTEX
  8
0
 62
7
  6
CONTINUOUS
 10
374.9869597921
 20
173.0289169413
  0
VERTEX
  8
0
 62
7
  6
CONTINUOUS
 10
375.0485857579
 20
172.930173894
  0
VERTEX
  8
0
 62
7
  6
CONTINUOUS
 10
375.1031319435
 20
172.8347813634
  0
VERTEX
  8
0
 62
7
  6
CONTINUOUS
 10
375.1509350304
 20
172.7428742326
  0
VERTEX
  8
0
 62
7
  6
CONTINUOUS
 10
375.1922967207
 20
172.654518627
  0
VERTEX
  8
0
 62
7
  6
CONTINUOUS
 10
375.2277203965
 20
172.5695439798
  0
VERTEX
  8
0
 62
7
  6
CONTINUOUS
 10
375.2576533179
 20
172.4879525682
  0
VERTEX
  8
0
 62
7
  6
CONTINUOUS
 10
375.2825655522
 20
172.4092919865
  0
VERTEX
  8
0
 62
7
  6
CONTINUOUS
 10
375.302992004
 20
172.3332105833
  0
VERTEX
  8
0
 62
7
  6
CONTINUOUS
 10
375.3191854213
 20
172.259408374
  0
VERTEX
  8
0
 62
7
  6
CONTINUOUS
 10
375.3315357038
 20
172.1875926607
  0
VERTEX
  8
0
 62
7
  6
CONTINUOUS
 10
375.3401663012
 20
172.1173899322
  0
VERTEX
  8
0
 62
7
  6
CONTINUOUS
 10
375.3453623064
 20
172.0482702266
  0
VERTEX
  8
0
 62
7
  6
CONTINUOUS
 10
375.3470286885
 20
171.9804101978
  0
SEQEND
  0
POLYLINE
  8
0
 62
7
  6
CONTINUOUS
 66
1
 70
0
  0
VERTEX
  8
0
 62
7
  6
CONTINUOUS
 10
365.9434122721
 20
119.0661273267
  0
VERTEX
  8
0
 62
7
  6
CONTINUOUS
 10
365.9493844703
 20
119.0352461289
  0
VERTEX
  8
0
 62
7
  6
CONTINUOUS
 10
365.9614215575
 20
118.9844886029
  0
VERTEX
  8
0
 62
7
  6
CONTINUOUS
 10
365.9761152443
 20
118.9343466934
  0
VERTEX
  8
0
 62
7
  6
CONTINUOUS
 10
365.9934853978
 20
118.8848370808
  0
VERTEX
  8
0
 62
7
  6
CONTINUOUS
 10
366.0134521091
 20
118.8362531189
  0
VERTEX
  8
0
 62
7
  6
CONTINUOUS
 10
366.035902353
 20
118.7888636202
  0
VERTEX
  8
0
 62
7
  6
CONTINUOUS
 10
366.060815111
 20
118.7427000822
  0
VERTEX
  8
0
 62
7
  6
CONTINUOUS
 10
366.0881687278
 20
118.6978222905
  0
VERTEX
  8
0
 62
7
  6
CONTINUOUS
 10
366.1178643636
 20
118.6544132353
  0
VERTEX
  8
0
 62
7
  6
CONTINUOUS
 10
366.1498127573
 20
118.6126111967
  0
VERTEX
  8
0
 62
7
  6
CONTINUOUS
 10
366.1839043055
 20
118.5725597943
  0
VERTEX
  8
0
 62
7
  6
CONTINUOUS
 10
366.2199895634
 20
118.5344213825
  0
VERTEX
  8
0
 62
7
  6
CONTINUOUS
 10
366.2580458372
 20
118.4982123427
  0
VERTEX
  8
0
 62
7
  6
CONTINUOUS
 10
366.2981052738
 20
118.4639264867
  0
VERTEX
  8
0
 62
7
  6
CONTINUOUS
 10
366.3398912455
 20
118.4318179976
  0
VERTEX
  8
0
 62
7
  6
CONTINUOUS
 10
366.3830700211
 20
118.4021117094
  0
VERTEX
  8
0
 62
7
  6
CONTINUOUS
 10
366.4277374869
 20
118.3747133207
  0
VERTEX
  8
0
 62
7
  6
CONTINUOUS
 10
366.474027088
 20
118.3495658013
  0
VERTEX
  8
0
 62
7
  6
CONTINUOUS
 10
366.5215748413
 20
118.326891693
  0
VERTEX
  8
0
 62
7
  6
CONTINUOUS
 10
366.5700333366
 20
118.3068361597
  0
VERTEX
  8
0
 62
7
  6
CONTINUOUS
 10
366.6194086857
 20
118.2893707752
  0
VERTEX
  8
0
 62
7
  6
CONTINUOUS
 10
366.6696683692
 20
118.2745043374
  0
VERTEX
  8
0
 62
7
  6
CONTINUOUS
 10
366.7206095396
 20
118.2622976608
  0
VERTEX
  8
0
 62
7
  6
CONTINUOUS
 10
366.7720627229
 20
118.2527843305
  0
VERTEX
  8
0
 62
7
  6
CONTINUOUS
 10
366.8238898216
 20
118.2459809824
  0
VERTEX
  8
0
 62
7
  6
CONTINUOUS
 10
366.8759291728
 20
118.2418988763
  0
VERTEX
  8
0
 62
7
  6
CONTINUOUS
 10
366.928085304
 20
118.2405378191
  0
SEQEND
  0
LINE
  8
0
 62
7
  6
CONTINUOUS
 10
365.3775768075
 20
122.2489007195
 11
365.4043689942
 21
122.106486236
  0
LINE
  8
0
 62
7
  6
CONTINUOUS
 10
365.4043689942
 20
122.106486236
 11
365.4345633466
 21
121.9417181881
  0
LINE
  8
0
 62
7
  6
CONTINUOUS
 10
365.7809689548
 20
119.9838298778
 11
365.9434056241
 21
119.0661648624
  0
POLYLINE
  8
0
 62
7
  6
CONTINUOUS
 66
1
 70
0
  0
VERTEX
  8
0
 62
7
  6
CONTINUOUS
 10
365.4345633466
 20
121.9417181881
  0
VERTEX
  8
0
 62
7
  6
CONTINUOUS
 10
365.5382173059
 20
121.356722473
  0
VERTEX
  8
0
 62
7
  6
CONTINUOUS
 10
365.6183628986
 20
120.9032518489
  0
VERTEX
  8
0
 62
7
  6
CONTINUOUS
 10
365.7809689548
 20
119.9838298778
  0
SEQEND
  0
POLYLINE
  8
0
 62
7
  6
CONTINUOUS
 66
1
 70
0
  0
VERTEX
  8
0
 62
7
  6
CONTINUOUS
 10
365.9355109446
 20
88.9161679889
  0
VERTEX
  8
0
 62
7
  6
CONTINUOUS
 10
365.9409224322
 20
88.8780905545
  0
VERTEX
  8
0
 62
7
  6
CONTINUOUS
 10
365.9504786451
 20
88.8273668379
  0
VERTEX
  8
0
 62
7
  6
CONTINUOUS
 10
365.9626068939
 20
88.7773242882
  0
VERTEX
  8
0
 62
7
  6
CONTINUOUS
 10
365.9773619237
 20
88.7277669698
  0
VERTEX
  8
0
 62
7
  6
CONTINUOUS
 10
365.9949134102
 20
88.6783769713
  0
VERTEX
  8
0
 62
7
  6
CONTINUOUS
 10
366.0150717646
 20
88.6298781224
  0
VERTEX
  8
0
 62
7
  6
CONTINUOUS
 10
366.0375108913
 20
88.5829698067
  0
VERTEX
  8
0
 62
7
  6
CONTINUOUS
 10
366.0623971158
 20
88.5372237569
  0
VERTEX
  8
0
 62
7
  6
CONTINUOUS
 10
366.0899939205
 20
88.4922775127
  0
VERTEX
  8
0
 62
7
  6
CONTINUOUS
 10
366.1199615438
 20
88.4487946537
  0
VERTEX
  8
0
 62
7
  6
CONTINUOUS
 10
366.151887594
 20
88.4073177935
  0
VERTEX
  8
0
 62
7
  6
CONTINUOUS
 10
366.185927924
 20
88.3675817261
  0
VERTEX
  8
0
 62
7
  6
CONTINUOUS
 10
366.222251167
 20
88.3294302381
  0
VERTEX
  8
0
 62
7
  6
CONTINUOUS
 10
366.2605739778
 20
88.2932077334
  0
VERTEX
  8
0
 62
7
  6
CONTINUOUS
 10
366.3006704537
 20
88.2591221996
  0
VERTEX
  8
0
 62
7
  6
CONTINUOUS
 10
366.3424234706
 20
88.2272518781
  0
VERTEX
  8
0
 62
7
  6
CONTINUOUS
 10
366.3856186497
 20
88.197730042
  0
VERTEX
  8
0
 62
7
  6
CONTINUOUS
 10
366.4303080279
 20
88.1705024806
  0
VERTEX
  8
0
 62
7
  6
CONTINUOUS
 10
366.4766590725
 20
88.1454989341
  0
VERTEX
  8
0
 62
7
  6
CONTINUOUS
 10
366.524200377
 20
88.1229975795
  0
VERTEX
  8
0
 62
7
  6
CONTINUOUS
 10
366.5724324866
 20
88.1031892339
  0
VERTEX
  8
0
 62
7
  6
CONTINUOUS
 10
366.6215281492
 20
88.0859551244
  0
VERTEX
  8
0
 62
7
  6
CONTINUOUS
 10
366.6716478968
 20
88.0712465377
  0
VERTEX
  8
0
 62
7
  6
CONTINUOUS
 10
366.7224134267
 20
88.0591863682
  0
VERTEX
  8
0
 62
7
  6
CONTINUOUS
 10
366.7735150242
 20
88.0498255814
  0
VERTEX
  8
0
 62
7
  6
CONTINUOUS
 10
366.8249010387
 20
88.0431451191
  0
VERTEX
  8
0
 62
7
  6
CONTINUOUS
 10
366.8764415721
 20
88.0391418049
  0
VERTEX
  8
0
 62
7
  6
CONTINUOUS
 10
366.928085304
 20
88.037807377
  0
SEQEND
  0
POLYLINE
  8
0
 62
7
  6
CONTINUOUS
 66
1
 70
0
  0
VERTEX
  8
0
 62
7
  6
CONTINUOUS
 10
365.9352497974
 20
94.5529321189
  0
VERTEX
  8
0
 62
7
  6
CONTINUOUS
 10
365.9393357769
 20
94.5228406121
  0
VERTEX
  8
0
 62
7
  6
CONTINUOUS
 10
365.948568214
 20
94.4710602233
  0
VERTEX
  8
0
 62
7
  6
CONTINUOUS
 10
365.9605107606
 20
94.4198356333
  0
VERTEX
  8
0
 62
7
  6
CONTINUOUS
 10
365.9751313302
 20
94.3693062342
  0
VERTEX
  8
0
 62
7
  6
CONTINUOUS
 10
365.992391204
 20
94.3196089225
  0
VERTEX
  8
0
 62
7
  6
CONTINUOUS
 10
366.0122421594
 20
94.2708850499
  0
VERTEX
  8
0
 62
7
  6
CONTINUOUS
 10
366.0346287589
 20
94.2232716248
  0
VERTEX
  8
0
 62
7
  6
CONTINUOUS
 10
366.0594887553
 20
94.1769013032
  0
VERTEX
  8
0
 62
7
  6
CONTINUOUS
 10
366.0867517116
 20
94.131905046
  0
VERTEX
  8
0
 62
7
  6
CONTINUOUS
 10
366.1163447241
 20
94.0884030911
  0
VERTEX
  8
0
 62
7
  6
CONTINUOUS
 10
366.1481912226
 20
94.0465097553
  0
VERTEX
  8
0
 62
7
  6
CONTINUOUS
 10
366.1821966769
 20
94.0063505842
  0
VERTEX
  8
0
 62
7
  6
CONTINUOUS
 10
366.2182569187
 20
93.9680466068
  0
VERTEX
  8
0
 62
7
  6
CONTINUOUS
 10
366.2562826793
 20
93.9316910652
  0
VERTEX
  8
0
 62
7
  6
CONTINUOUS
 10
366.2961832636
 20
93.8973730042
  0
VERTEX
  8
0
 62
7
  6
CONTINUOUS
 10
366.3378347083
 20
93.8652012024
  0
VERTEX
  8
0
 62
7
  6
CONTINUOUS
 10
366.3811072083
 20
93.8352743497
  0
VERTEX
  8
0
 62
7
  6
CONTINUOUS
 10
366.4258914592
 20
93.8076661916
  0
VERTEX
  8
0
 62
7
  6
CONTINUOUS
 10
366.4720733341
 20
93.7824476261
  0
VERTEX
  8
0
 62
7
  6
CONTINUOUS
 10
366.5195174488
 20
93.7596933197
  0
VERTEX
  8
0
 62
7
  6
CONTINUOUS
 10
366.568086765
 20
93.7394684011
  0
VERTEX
  8
0
 62
7
  6
CONTINUOUS
 10
366.6176496351
 20
93.7218268774
  0
VERTEX
  8
0
 62
7
  6
CONTINUOUS
 10
366.6680702766
 20
93.7068166981
  0
VERTEX
  8
0
 62
7
  6
CONTINUOUS
 10
366.7192088183
 20
93.6944792382
  0
VERTEX
  8
0
 62
7
  6
CONTINUOUS
 10
366.7709246174
 20
93.6848482233
  0
VERTEX
  8
0
 62
7
  6
CONTINUOUS
 10
366.8230729285
 20
93.6779503529
  0
VERTEX
  8
0
 62
7
  6
CONTINUOUS
 10
366.8755072783
 20
93.673804449
  0
VERTEX
  8
0
 62
7
  6
CONTINUOUS
 10
366.928085304
 20
93.672421268
  0
SEQEND
  0
LINE
  8
0
 62
7
  6
CONTINUOUS
 10
365.3673662702
 20
99.2673263575
 11
365.4415131187
 21
98.6578738254
  0
LINE
  8
0
 62
7
  6
CONTINUOUS
 10
365.8552898814
 20
95.217005686
 11
365.9352594358
 21
94.5528520609
  0
LINE
  8
0
 62
7
  6
CONTINUOUS
 10
365.772835325
 20
95.9020898252
 11
365.8552898814
 21
95.217005686
  0
POLYLINE
  8
0
 62
7
  6
CONTINUOUS
 66
1
 70
0
  0
VERTEX
  8
0
 62
7
  6
CONTINUOUS
 10
365.4415131187
 20
98.6578738254
  0
VERTEX
  8
0
 62
7
  6
CONTINUOUS
 10
365.5301050063
 20
97.920624862
  0
VERTEX
  8
0
 62
7
  6
CONTINUOUS
 10
365.6102432107
 20
97.2538994427
  0
VERTEX
  8
0
 62
7
  6
CONTINUOUS
 10
365.772835325
 20
95.9020898252
  0
SEQEND
  0
LINE
  8
0
 62
7
  6
CONTINUOUS
 10
365.877130524
 20
89.4013147588
 11
365.9355187993
 21
88.9161039206
  0
LINE
  8
0
 62
7
  6
CONTINUOUS
 10
365.7872651969
 20
90.1744785732
 11
365.877130524
 21
89.4013147588
  0
LINE
  8
0
 62
7
  6
CONTINUOUS
 10
365.3656465635
 20
94.0013399756
 11
365.576285888
 21
92.0620204099
  0
LINE
  8
0
 62
7
  6
CONTINUOUS
 10
351.4970286885
 20
122.037807377
 11
351.4970286885
 21
316.037807377
  0
POLYLINE
  8
0
 62
7
  6
CONTINUOUS
 66
1
 70
0
  0
VERTEX
  8
0
 62
7
  6
CONTINUOUS
 10
365.3616793257
 20
344.0351954504
  0
VERTEX
  8
0
 62
7
  6
CONTINUOUS
 10
365.3559200389
 20
343.9672703557
  0
VERTEX
  8
0
 62
7
  6
CONTINUOUS
 10
365.3515939558
 20
343.8992995876
  0
VERTEX
  8
0
 62
7
  6
CONTINUOUS
 10
365.3486983063
 20
343.8313108793
  0
VERTEX
  8
0
 62
7
  6
CONTINUOUS
 10
365.3472297422
 20
343.7633327306
  0
VERTEX
  8
0
 62
7
  6
CONTINUOUS
 10
365.3470287005
 20
343.7272000504
  0
SEQEND
  0
POLYLINE
  8
0
 62
7
  6
CONTINUOUS
 66
1
 70
0
  0
VERTEX
  8
0
 62
7
  6
CONTINUOUS
 10
365.3547561356
 20
303.2418187471
  0
VERTEX
  8
0
 62
7
  6
CONTINUOUS
 10
365.3496418809
 20
303.1834359824
  0
VERTEX
  8
0
 62
7
  6
CONTINUOUS
 10
365.347235829
 20
303.1249317087
  0
VERTEX
  8
0
 62
7
  6
CONTINUOUS
 10
365.3470287024
 20
303.1019123138
  0
SEQEND
  0
LINE
  8
0
 62
7
  6
CONTINUOUS
 10
365.3656465196
 20
344.0742741878
 11
365.3616793257
 21
344.0351954504
  0
LINE
  8
0
 62
7
  6
CONTINUOUS
 10
365.6047553617
 20
346.2723531403
 11
365.3656465635
 21
344.0742747785
  0
POLYLINE
  8
0
 62
7
  6
CONTINUOUS
 66
1
 70
0
  0
VERTEX
  8
0
 62
7
  6
CONTINUOUS
 10
365.7872651969
 20
347.9011361809
  0
VERTEX
  8
0
 62
7
  6
CONTINUOUS
 10
365.7630958333
 20
347.6891997499
  0
VERTEX
  8
0
 62
7
  6
CONTINUOUS
 10
365.6047553617
 20
346.2723531403
  0
SEQEND
  0
POLYLINE
  8
0
 62
7
  6
CONTINUOUS
 66
1
 70
0
  0
VERTEX
  8
0
 62
7
  6
CONTINUOUS
 10
365.3658802397
 20
332.3007348195
  0
VERTEX
  8
0
 62
7
  6
CONTINUOUS
 10
365.3584976285
 20
332.2380790379
  0
VERTEX
  8
0
 62
7
  6
CONTINUOUS
 10
365.3529336255
 20
332.1751208881
  0
VERTEX
  8
0
 62
7
  6
CONTINUOUS
 10
365.3491968875
 20
332.1119122691
  0
VERTEX
  8
0
 62
7
  6
CONTINUOUS
 10
365.3472932554
 20
332.0485053471
  0
VERTEX
  8
0
 62
7
  6
CONTINUOUS
 10
365.3470287012
 20
332.014356535
  0
SEQEND
  0
LINE
  8
0
 62
7
  6
CONTINUOUS
 10
365.3625729835
 20
303.2998839858
 11
365.3547561356
 21
303.2418187471
  0
LINE
  8
SURFACE
 62
7
  6
CONTINUOUS
 10
378.7228133482
 20
279.4985632971
 11
378.2408812558
 21
278.4702929169
  0
POLYLINE
  8
SURFACE
 62
7
  6
CONTINUOUS
 66
1
 70
0
  0
VERTEX
  8
SURFACE
 62
7
  6
CONTINUOUS
 10
378.2408807245
 20
278.4702917858
  0
VERTEX
  8
SURFACE
 62
7
  6
CONTINUOUS
 10
378.2341618253
 20
278.4562382333
  0
VERTEX
  8
SURFACE
 62
7
  6
CONTINUOUS
 10
378.2274041724
 20
278.4427782229
  0
VERTEX
  8
SURFACE
 62
7
  6
CONTINUOUS
 10
378.2224254474
 20
278.4333940788
  0
VERTEX
  8
SURFACE
 62
7
  6
CONTINUOUS
 10
378.2192678361
 20
278.4277642712
  0
VERTEX
  8
SURFACE
 62
7
  6
CONTINUOUS
 10
378.2179701079
 20
278.425571561
  0
VERTEX
  8
SURFACE
 62
7
  6
CONTINUOUS
 10
378.218274051
 20
278.4260501862
  0
SEQEND
  0
POLYLINE
  8
SURFACE
 62
7
  6
CONTINUOUS
 66
1
 70
0
  0
VERTEX
  8
SURFACE
 62
7
  6
CONTINUOUS
 10
378.1094435576
 20
134.5813451178
  0
VERTEX
  8
SURFACE
 62
7
  6
CONTINUOUS
 10
378.1238896443
 20
134.5378227125
  0
VERTEX
  8
SURFACE
 62
7
  6
CONTINUOUS
 10
378.1417901269
 20
134.4856814099
  0
VERTEX
  8
SURFACE
 62
7
  6
CONTINUOUS
 10
378.159623542
 20
134.4356902333
  0
VERTEX
  8
SURFACE
 62
7
  6
CONTINUOUS
 10
378.1774636627
 20
134.3876131884
  0
VERTEX
  8
SURFACE
 62
7
  6
CONTINUOUS
 10
378.1953715958
 20
134.3412726215
  0
VERTEX
  8
SURFACE
 62
7
  6
CONTINUOUS
 10
378.2134224549
 20
134.2964759495
  0
VERTEX
  8
SURFACE
 62
7
  6
CONTINUOUS
 10
378.2316926479
 20
134.2530511328
  0
VERTEX
  8
SURFACE
 62
7
  6
CONTINUOUS
 10
378.2502749275
 20
134.2108129379
  0
VERTEX
  8
SURFACE
 62
7
  6
CONTINUOUS
 10
378.2692645754
 20
134.1695990116
  0
VERTEX
  8
SURFACE
 62
7
  6
CONTINUOUS
 10
378.2887786318
 20
134.1292304644
  0
VERTEX
  8
SURFACE
 62
7
  6
CONTINUOUS
 10
378.3089353476
 20
134.0895599716
  0
VERTEX
  8
SURFACE
 62
7
  6
CONTINUOUS
 10
378.3298908906
 20
134.0504030452
  0
VERTEX
  8
SURFACE
 62
7
  6
CONTINUOUS
 10
378.3518072755
 20
134.0116095688
  0
VERTEX
  8
SURFACE
 62
7
  6
CONTINUOUS
 10
378.3748738803
 20
133.9730285626
  0
VERTEX
  8
SURFACE
 62
7
  6
CONTINUOUS
 10
378.3993124387
 20
133.9345102818
  0
VERTEX
  8
SURFACE
 62
7
  6
CONTINUOUS
 10
378.4253011022
 20
133.8960266093
  0
VERTEX
  8
SURFACE
 62
7
  6
CONTINUOUS
 10
378.4530597435
 20
133.8575318679
  0
VERTEX
  8
SURFACE
 62
7
  6
CONTINUOUS
 10
378.4827894644
 20
133.8190538882
  0
VERTEX
  8
SURFACE
 62
7
  6
CONTINUOUS
 10
378.5147287869
 20
133.780616805
  0
VERTEX
  8
SURFACE
 62
7
  6
CONTINUOUS
 10
378.5490653644
 20
133.7423491243
  0
VERTEX
  8
SURFACE
 62
7
  6
CONTINUOUS
 10
378.586039113
 20
133.7043573283
  0
VERTEX
  8
SURFACE
 62
7
  6
CONTINUOUS
 10
378.6257512022
 20
133.666919049
  0
VERTEX
  8
SURFACE
 62
7
  6
CONTINUOUS
 10
378.6683448516
 20
133.6302773095
  0
VERTEX
  8
SURFACE
 62
7
  6
CONTINUOUS
 10
378.7138357899
 20
133.5947859735
  0
VERTEX
  8
SURFACE
 62
7
  6
CONTINUOUS
 10
378.7622531955
 20
133.560770438
  0
VERTEX
  8
SURFACE
 62
7
  6
CONTINUOUS
 10
378.8134905354
 20
133.52862765
  0
VERTEX
  8
SURFACE
 62
7
  6
CONTINUOUS
 10
378.8674316699
 20
133.4987185497
  0
VERTEX
  8
SURFACE
 62
7
  6
CONTINUOUS
 10
378.923845602
 20
133.4714213842
  0
VERTEX
  8
SURFACE
 62
7
  6
CONTINUOUS
 10
378.9824526319
 20
133.4470763572
  0
VERTEX
  8
SURFACE
 62
7
  6
CONTINUOUS
 10
379.0429746908
 20
133.4259634698
  0
VERTEX
  8
SURFACE
 62
7
  6
CONTINUOUS
 10
379.1050654852
 20
133.4083296535
  0
VERTEX
  8
SURFACE
 62
7
  6
CONTINUOUS
 10
379.1684044542
 20
133.3943568136
  0
VERTEX
  8
SURFACE
 62
7
  6
CONTINUOUS
 10
379.2326214272
 20
133.3841857991
  0
VERTEX
  8
SURFACE
 62
7
  6
CONTINUOUS
 10
379.2973608034
 20
133.377901429
  0
VERTEX
  8
SURFACE
 62
7
  6
CONTINUOUS
 10
379.3621678978
 20
133.375540936
  0
VERTEX
  8
SURFACE
 62
7
  6
CONTINUOUS
 10
386.7254192451
 20
133.3755198035
  0
SEQEND
  0
LINE
  8
SURFACE
 62
7
  6
CONTINUOUS
 10
378.1094220401
 20
134.5814109186
 11
378.1094435576
 21
134.5813451178
  0
POLYLINE
  8
SURFACE
 62
7
  6
CONTINUOUS
 66
1
 70
0
  0
VERTEX
  8
SURFACE
 62
7
  6
CONTINUOUS
 10
378.39907323
 20
103.8287078883
  0
VERTEX
  8
SURFACE
 62
7
  6
CONTINUOUS
 10
378.412931756
 20
103.7632194361
  0
VERTEX
  8
SURFACE
 62
7
  6
CONTINUOUS
 10
378.4265119955
 20
103.7005408213
  0
VERTEX
  8
SURFACE
 62
7
  6
CONTINUOUS
 10
378.439833436
 20
103.6405365895
  0
VERTEX
  8
SURFACE
 62
7
  6
CONTINUOUS
 10
378.452914181
 20
103.5830831546
  0
VERTEX
  8
SURFACE
 62
7
  6
CONTINUOUS
 10
378.4657764895
 20
103.5280447712
  0
VERTEX
  8
SURFACE
 62
7
  6
CONTINUOUS
 10
378.4784417913
 20
103.4752966878
  0
VERTEX
  8
SURFACE
 62
7
  6
CONTINUOUS
 10
378.4909362552
 20
103.4247023503
  0
VERTEX
  8
SURFACE
 62
7
  6
CONTINUOUS
 10
378.5032865478
 20
103.376132157
  0
VERTEX
  8
SURFACE
 62
7
  6
CONTINUOUS
 10
378.5155208974
 20
103.3294593766
  0
VERTEX
  8
SURFACE
 62
7
  6
CONTINUOUS
 10
378.5276702855
 20
103.2845570187
  0
VERTEX
  8
SURFACE
 62
7
  6
CONTINUOUS
 10
378.5397658682
 20
103.2413083037
  0
VERTEX
  8
SURFACE
 62
7
  6
CONTINUOUS
 10
378.5518403964
 20
103.1996015197
  0
VERTEX
  8
SURFACE
 62
7
  6
CONTINUOUS
 10
378.5639391669
 20
103.1592942392
  0
VERTEX
  8
SURFACE
 62
7
  6
CONTINUOUS
 10
378.5761059803
 20
103.1202646877
  0
VERTEX
  8
SURFACE
 62
7
  6
CONTINUOUS
 10
378.5884054673
 20
103.0823428884
  0
SEQEND
  0
LINE
  8
SURFACE
 62
7
  6
CONTINUOUS
 10
378.3704631331
 20
103.9685896511
 11
378.39907323
 21
103.8287078883
  0
LINE
  8
SURFACE
 62
7
  6
CONTINUOUS
 10
378.3405745686
 20
104.1211305509
 11
378.3704631331
 21
103.9685896511
  0
LINE
  8
SURFACE
 62
7
  6
CONTINUOUS
 10
378.3093177991
 20
104.2872383871
 11
378.3405745686
 21
104.1211305509
  0
LINE
  8
SURFACE
 62
7
  6
CONTINUOUS
 10
378.27661236
 20
104.4678155418
 11
378.3093177991
 21
104.2872383871
  0
LINE
  8
SURFACE
 62
7
  6
CONTINUOUS
 10
378.2423868777
 20
104.663749805
 11
378.27661236
 21
104.4678155418
  0
LINE
  8
SURFACE
 62
7
  6
CONTINUOUS
 10
378.2065774667
 20
104.8759176826
 11
378.2423868777
 21
104.663749805
  0
LINE
  8
SURFACE
 62
7
  6
CONTINUOUS
 10
378.1691263881
 20
105.1051867595
 11
378.2065774667
 21
104.8759176826
  0
LINE
  8
0
 62
7
  6
CONTINUOUS
 10
365.363587942
 20
99.299663645
 11
365.3673660261
 21
99.2673287065
  0
LINE
  8
0
 62
7
  6
CONTINUOUS
 10
365.6599789598
 20
91.3043912412
 11
365.7872651969
 21
90.1744785732
  0
LINE
  8
0
 62
7
  6
CONTINUOUS
 10
365.576285888
 20
92.0620204099
 11
365.6599789598
 21
91.3043912412
  0
LINE
  8
SURFACE
 62
7
  6
CONTINUOUS
 10
378.065646563
 20
94.0013399806
 11
378.276286252
 21
92.0620170946
  0
LINE
  8
SURFACE
 62
7
  6
CONTINUOUS
 10
378.0616795143
 20
94.0404172965
 11
378.0656465158
 21
94.001340516
  0
POLYLINE
  8
0
 62
7
  6
CONTINUOUS
 66
1
 70
0
  0
VERTEX
  8
0
 62
7
  6
CONTINUOUS
 10
365.3470287087
 20
122.5699904768
  0
VERTEX
  8
0
 62
7
  6
CONTINUOUS
 10
365.3473485785
 20
122.5371242839
  0
VERTEX
  8
0
 62
7
  6
CONTINUOUS
 10
365.3497830471
 20
122.4735940016
  0
VERTEX
  8
0
 62
7
  6
CONTINUOUS
 10
365.3546375538
 20
122.4097350393
  0
VERTEX
  8
0
 62
7
  6
CONTINUOUS
 10
365.3619347476
 20
122.3456578779
  0
VERTEX
  8
0
 62
7
  6
CONTINUOUS
 10
365.3716882967
 20
122.2814699051
  0
VERTEX
  8
0
 62
7
  6
CONTINUOUS
 10
365.3775712897
 20
122.248929907
  0
SEQEND
  0
POLYLINE
  8
0
 62
7
  6
CONTINUOUS
 66
1
 70
0
  0
VERTEX
  8
0
 62
7
  6
CONTINUOUS
 10
365.3470287078
 20
160.2275631198
  0
VERTEX
  8
0
 62
7
  6
CONTINUOUS
 10
365.3471970556
 20
160.2087501949
  0
VERTEX
  8
0
 62
7
  6
CONTINUOUS
 10
365.3492860346
 20
160.1587337251
  0
VERTEX
  8
0
 62
7
  6
CONTINUOUS
 10
365.3537514963
 20
160.1088872774
  0
VERTEX
  8
0
 62
7
  6
CONTINUOUS
 10
365.3605680436
 20
160.0593765914
  0
VERTEX
  8
0
 62
7
  6
CONTINUOUS
 10
365.369698872
 20
160.010340504
  0
VERTEX
  8
0
 62
7
  6
CONTINUOUS
 10
365.3810936366
 20
159.961921295
  0
VERTEX
  8
0
 62
7
  6
CONTINUOUS
 10
365.3946926345
 20
159.9142450619
  0
VERTEX
  8
0
 62
7
  6
CONTINUOUS
 10
365.410417611
 20
159.8674548953
  0
VERTEX
  8
0
 62
7
  6
CONTINUOUS
 10
365.428186555
 20
159.8216608134
  0
VERTEX
  8
0
 62
7
  6
CONTINUOUS
 10
365.4478817525
 20
159.7770225451
  0
VERTEX
  8
0
 62
7
  6
CONTINUOUS
 10
365.4693787154
 20
159.7336641121
  0
VERTEX
  8
0
 62
7
  6
CONTINUOUS
 10
365.4925342247
 20
159.6917062711
  0
VERTEX
  8
0
 62
7
  6
CONTINUOUS
 10
365.5182139391
 20
159.6496583159
  0
SEQEND
  0
POLYLINE
  8
0
 62
7
  6
CONTINUOUS
 66
1
 70
0
  0
VERTEX
  8
0
 62
7
  6
CONTINUOUS
 10
365.3470287098
 20
99.5987874684
  0
VERTEX
  8
0
 62
7
  6
CONTINUOUS
 10
365.3472575518
 20
99.5635381549
  0
VERTEX
  8
0
 62
7
  6
CONTINUOUS
 10
365.3489232495
 20
99.497551298
  0
VERTEX
  8
0
 62
7
  6
CONTINUOUS
 10
365.3522014297
 20
99.431553771
  0
VERTEX
  8
0
 62
7
  6
CONTINUOUS
 10
365.3570904769
 20
99.3655800509
  0
VERTEX
  8
0
 62
7
  6
CONTINUOUS
 10
365.363587942
 20
99.299663645
  0
SEQEND
  0
POLYLINE
  8
0
 62
7
  6
CONTINUOUS
 66
1
 70
0
  0
VERTEX
  8
0
 62
7
  6
CONTINUOUS
 10
365.3470287005
 20
94.3484147037
  0
VERTEX
  8
0
 62
7
  6
CONTINUOUS
 10
365.3472297422
 20
94.3122820235
  0
VERTEX
  8
0
 62
7
  6
CONTINUOUS
 10
365.3486983063
 20
94.2443038748
  0
VERTEX
  8
0
 62
7
  6
CONTINUOUS
 10
365.3515939558
 20
94.1763151665
  0
VERTEX
  8
0
 62
7
  6
CONTINUOUS
 10
365.3559200389
 20
94.1083443984
  0
VERTEX
  8
0
 62
7
  6
CONTINUOUS
 10
365.3616793257
 20
94.0404193037
  0
VERTEX
  8
0
 62
7
  6
CONTINUOUS
 10
365.3656465196
 20
94.0013405663
  0
SEQEND
  0
LINE
  8
0
 62
7
  6
CONTINUOUS
 10
365.3470286885
 20
94.3484151739
 11
365.3470286885
 21
343.7271995802
  0
POLYLINE
  8
SURFACE
 62
7
  6
CONTINUOUS
 66
1
 70
0
  0
VERTEX
  8
SURFACE
 62
7
  6
CONTINUOUS
 10
378.0635887459
 20
338.7759584396
  0
VERTEX
  8
SURFACE
 62
7
  6
CONTINUOUS
 10
378.0570914671
 20
338.7100460501
  0
VERTEX
  8
SURFACE
 62
7
  6
CONTINUOUS
 10
378.0522022097
 20
338.6440735682
  0
VERTEX
  8
SURFACE
 62
7
  6
CONTINUOUS
 10
378.0489236675
 20
338.57807483
  0
VERTEX
  8
SURFACE
 62
7
  6
CONTINUOUS
 10
378.0472576424
 20
338.5120838268
  0
VERTEX
  8
SURFACE
 62
7
  6
CONTINUOUS
 10
378.047028713
 20
338.4768308227
  0
SEQEND
  0
POLYLINE
  8
SURFACE
 62
7
  6
CONTINUOUS
 66
1
 70
0
  0
VERTEX
  8
SURFACE
 62
7
  6
CONTINUOUS
 10
378.0656465158
 20
344.074274239
  0
VERTEX
  8
SURFACE
 62
7
  6
CONTINUOUS
 10
378.0616795116
 20
344.0351974304
  0
VERTEX
  8
SURFACE
 62
7
  6
CONTINUOUS
 10
378.0559202688
 20
343.9672733376
  0
VERTEX
  8
SURFACE
 62
7
  6
CONTINUOUS
 10
378.0515941323
 20
343.8993028534
  0
VERTEX
  8
SURFACE
 62
7
  6
CONTINUOUS
 10
378.0486983984
 20
343.8313139933
  0
VERTEX
  8
SURFACE
 62
7
  6
CONTINUOUS
 10
378.0472297633
 20
343.7633347843
  0
VERTEX
  8
SURFACE
 62
7
  6
CONTINUOUS
 10
378.0470287028
 20
343.727200088
  0
SEQEND
  0
LINE
  8
SURFACE
 62
7
  6
CONTINUOUS
 10
378.304755667
 20
346.2723559102
 11
378.065646563
 21
344.0742747735
  0
LINE
  8
SURFACE
 62
7
  6
CONTINUOUS
 10
378.463095122
 20
347.6891934922
 11
378.304755667
 21
346.2723559102
  0
POLYLINE
  8
SURFACE
 62
7
  6
CONTINUOUS
 66
1
 70
0
  0
VERTEX
  8
SURFACE
 62
7
  6
CONTINUOUS
 10
378.0619357973
 20
315.7299647065
  0
VERTEX
  8
SURFACE
 62
7
  6
CONTINUOUS
 10
378.0546383703
 20
315.6658883056
  0
VERTEX
  8
SURFACE
 62
7
  6
CONTINUOUS
 10
378.0497834843
 20
315.6020285615
  0
VERTEX
  8
SURFACE
 62
7
  6
CONTINUOUS
 10
378.0473486744
 20
315.5384955458
  0
VERTEX
  8
SURFACE
 62
7
  6
CONTINUOUS
 10
378.047028712
 20
315.5056239465
  0
SEQEND
  0
LINE
  8
SURFACE
 62
7
  6
CONTINUOUS
 10
378.555708827
 20
348.4924684657
 11
378.463095122
 21
347.6891934922
  0
LINE
  8
SURFACE
 62
7
  6
CONTINUOUS
 10
378.0673660482
 20
338.8082864003
 11
378.0635887459
 21
338.7759584396
  0
LINE
  8
SURFACE
 62
7
  6
CONTINUOUS
 10
378.6352594358
 20
343.5227626932
 11
378.5552897407
 21
342.8586078995
  0
LINE
  8
SURFACE
 62
7
  6
CONTINUOUS
 10
378.5552897407
 20
342.8586078995
 11
378.09500639
 21
339.0340832093
  0
LINE
  8
SURFACE
 62
7
  6
CONTINUOUS
 10
378.6355187942
 20
349.1595107849
 11
378.555708827
 21
348.4924684657
  0
LINE
  8
SURFACE
 62
7
  6
CONTINUOUS
 10
378.09500639
 20
339.0340832093
 11
378.0673662704
 21
338.8082883977
  0
LINE
  8
SURFACE
 62
7
  6
CONTINUOUS
 10
378.6434056241
 20
319.0094498916
 11
378.5634299297
 21
318.5577354239
  0
LINE
  8
SURFACE
 62
7
  6
CONTINUOUS
 10
378.5634299297
 20
318.5577354239
 11
378.1345632354
 21
316.1338959507
  0
POLYLINE
  8
SURFACE
 62
7
  6
CONTINUOUS
 66
1
 70
0
  0
VERTEX
  8
SURFACE
 62
7
  6
CONTINUOUS
 10
378.0775714749
 20
315.8266859268
  0
VERTEX
  8
SURFACE
 62
7
  6
CONTINUOUS
 10
378.0716892203
 20
315.79415029
  0
VERTEX
  8
SURFACE
 62
7
  6
CONTINUOUS
 10
378.0619357973
 20
315.7299647065
  0
SEQEND
  0
POLYLINE
  8
SURFACE
 62
7
  6
CONTINUOUS
 66
1
 70
0
  0
VERTEX
  8
SURFACE
 62
7
  6
CONTINUOUS
 10
378.1345632354
 20
316.1338959507
  0
VERTEX
  8
SURFACE
 62
7
  6
CONTINUOUS
 10
378.1043688828
 20
315.9691279183
  0
VERTEX
  8
SURFACE
 62
7
  6
CONTINUOUS
 10
378.0894308589
 20
315.8892798506
  0
VERTEX
  8
SURFACE
 62
7
  6
CONTINUOUS
 10
378.0775768075
 20
315.8267140347
  0
SEQEND
  0
POLYLINE
  8
0
 62
7
  6
CONTINUOUS
 66
1
 70
0
  0
VERTEX
  8
0
 62
7
  6
CONTINUOUS
 10
375.0140971359
 20
242.5283626934
  0
VERTEX
  8
0
 62
7
  6
CONTINUOUS
 10
374.9601143937
 20
242.4136736709
  0
VERTEX
  8
0
 62
7
  6
CONTINUOUS
 10
374.9025230441
 20
242.2953863199
  0
VERTEX
  8
0
 62
7
  6
CONTINUOUS
 10
374.8414894273
 20
242.1733176184
  0
VERTEX
  8
0
 62
7
  6
CONTINUOUS
 10
374.7773603017
 20
242.0480166319
  0
VERTEX
  8
0
 62
7
  6
CONTINUOUS
 10
374.710537113
 20
241.9199085228
  0
VERTEX
  8
0
 62
7
  6
CONTINUOUS
 10
374.6412699405
 20
241.7891819782
  0
SEQEND
  0
LINE
  8
0
 62
7
  6
CONTINUOUS
 10
374.6412699405
 20
241.7891819782
 11
374.4967024158
 21
241.5208648063
  0
LINE
  8
0
 62
7
  6
CONTINUOUS
 10
374.4967024158
 20
241.5208648063
 11
374.3470286885
 21
241.246373195
  0
LINE
  8
SURFACE
 62
7
  6
CONTINUOUS
 10
378.129980852
 20
105.3524200297
 11
378.1691263881
 21
105.1051867595
  0
LINE
  8
SURFACE
 62
7
  6
CONTINUOUS
 10
378.0709156033
 20
105.7392020991
 11
378.129980852
 21
105.3524200297
  0
LINE
  8
SURFACE
 62
7
  6
CONTINUOUS
 10
378.5771296652
 20
89.4013220126
 11
378.6355187942
 21
88.9161039692
  0
LINE
  8
SURFACE
 62
7
  6
CONTINUOUS
 10
378.4872643091
 20
90.1744863317
 11
378.5771296652
 21
89.4013220126
  0
LINE
  8
SURFACE
 62
7
  6
CONTINUOUS
 10
378.3599790022
 20
91.3043908597
 11
378.4872643091
 21
90.1744863317
  0
LINE
  8
SURFACE
 62
7
  6
CONTINUOUS
 10
378.276286252
 20
92.0620170946
 11
378.3599790022
 21
91.3043908597
  0
POLYLINE
  8
0
 62
7
  6
CONTINUOUS
 66
1
 70
0
  0
VERTEX
  8
0
 62
7
  6
CONTINUOUS
 10
375.3470286723
 20
303.1019122739
  0
VERTEX
  8
0
 62
7
  6
CONTINUOUS
 10
375.3468215513
 20
303.1249314894
  0
VERTEX
  8
0
 62
7
  6
CONTINUOUS
 10
375.344415542
 20
303.1834353849
  0
VERTEX
  8
0
 62
7
  6
CONTINUOUS
 10
375.339301319
 20
303.2418180928
  0
VERTEX
  8
0
 62
7
  6
CONTINUOUS
 10
375.3314844793
 20
303.2998834234
  0
VERTEX
  8
0
 62
7
  6
CONTINUOUS
 10
375.3209872516
 20
303.3574635995
  0
VERTEX
  8
0
 62
7
  6
CONTINUOUS
 10
375.3078480107
 20
303.414396491
  0
VERTEX
  8
0
 62
7
  6
CONTINUOUS
 10
375.2921301059
 20
303.4704948253
  0
VERTEX
  8
0
 62
7
  6
CONTINUOUS
 10
375.2846353391
 20
303.4942038362
  0
SEQEND
  0
POLYLINE
  8
SURFACE
 62
7
  6
CONTINUOUS
 66
1
 70
0
  0
VERTEX
  8
SURFACE
 62
7
  6
CONTINUOUS
 10
378.0470287048
 20
134.9737024802
  0
VERTEX
  8
SURFACE
 62
7
  6
CONTINUOUS
 10
378.0472358258
 20
134.9506832647
  0
VERTEX
  8
SURFACE
 62
7
  6
CONTINUOUS
 10
378.049641835
 20
134.8921793692
  0
VERTEX
  8
SURFACE
 62
7
  6
CONTINUOUS
 10
378.0547560581
 20
134.8337966613
  0
VERTEX
  8
SURFACE
 62
7
  6
CONTINUOUS
 10
378.0625728977
 20
134.7757313307
  0
VERTEX
  8
SURFACE
 62
7
  6
CONTINUOUS
 10
378.0730701254
 20
134.7181511546
  0
VERTEX
  8
SURFACE
 62
7
  6
CONTINUOUS
 10
378.0862093664
 20
134.6612182631
  0
VERTEX
  8
SURFACE
 62
7
  6
CONTINUOUS
 10
378.1019272712
 20
134.6051199288
  0
VERTEX
  8
SURFACE
 62
7
  6
CONTINUOUS
 10
378.1094220379
 20
134.5814109179
  0
SEQEND
  0
POLYLINE
  8
0
 62
7
  6
CONTINUOUS
 66
1
 70
0
  0
VERTEX
  8
0
 62
7
  6
CONTINUOUS
 10
375.3470286735
 20
332.014356451
  0
VERTEX
  8
0
 62
7
  6
CONTINUOUS
 10
375.346764087
 20
332.0485076917
  0
VERTEX
  8
0
 62
7
  6
CONTINUOUS
 10
375.3448603399
 20
332.1119158023
  0
VERTEX
  8
0
 62
7
  6
CONTINUOUS
 10
375.341123472
 20
332.1751246357
  0
VERTEX
  8
0
 62
7
  6
CONTINUOUS
 10
375.3355593922
 20
332.2380824116
  0
VERTEX
  8
0
 62
7
  6
CONTINUOUS
 10
375.3281768419
 20
332.3007370708
  0
VERTEX
  8
0
 62
7
  6
CONTINUOUS
 10
375.3231429244
 20
332.3364049177
  0
SEQEND
  0
POLYLINE
  8
SURFACE
 62
7
  6
CONTINUOUS
 66
1
 70
0
  0
VERTEX
  8
SURFACE
 62
7
  6
CONTINUOUS
 10
378.0470287036
 20
106.0612583031
  0
VERTEX
  8
SURFACE
 62
7
  6
CONTINUOUS
 10
378.0472932901
 20
106.0271070624
  0
VERTEX
  8
SURFACE
 62
7
  6
CONTINUOUS
 10
378.0491970372
 20
105.9636989518
  0
VERTEX
  8
SURFACE
 62
7
  6
CONTINUOUS
 10
378.052933905
 20
105.9004901184
  0
VERTEX
  8
SURFACE
 62
7
  6
CONTINUOUS
 10
378.0584979849
 20
105.8375323425
  0
VERTEX
  8
SURFACE
 62
7
  6
CONTINUOUS
 10
378.0658805352
 20
105.7748776833
  0
VERTEX
  8
SURFACE
 62
7
  6
CONTINUOUS
 10
378.0709144526
 20
105.7392098364
  0
SEQEND
  0
POLYLINE
  8
0
 62
7
  6
CONTINUOUS
 66
1
 70
0
  0
VERTEX
  8
0
 62
7
  6
CONTINUOUS
 10
375.3470286744
 20
343.727200088
  0
VERTEX
  8
0
 62
7
  6
CONTINUOUS
 10
375.3468276136
 20
343.7633348172
  0
VERTEX
  8
0
 62
7
  6
CONTINUOUS
 10
375.3453589777
 20
343.8313140307
  0
VERTEX
  8
0
 62
7
  6
CONTINUOUS
 10
375.3424632427
 20
343.8993028891
  0
VERTEX
  8
0
 62
7
  6
CONTINUOUS
 10
375.3381371055
 20
343.9672733738
  0
VERTEX
  8
0
 62
7
  6
CONTINUOUS
 10
375.3323778627
 20
344.0351974576
  0
SEQEND
  0
POLYLINE
  8
SURFACE
 62
7
  6
CONTINUOUS
 66
1
 70
0
  0
VERTEX
  8
SURFACE
 62
7
  6
CONTINUOUS
 10
378.0470287027
 20
94.3484146661
  0
VERTEX
  8
SURFACE
 62
7
  6
CONTINUOUS
 10
378.0472297634
 20
94.3122799369
  0
VERTEX
  8
SURFACE
 62
7
  6
CONTINUOUS
 10
378.0486983994
 20
94.2443007234
  0
VERTEX
  8
SURFACE
 62
7
  6
CONTINUOUS
 10
378.0515941343
 20
94.176311865
  0
VERTEX
  8
SURFACE
 62
7
  6
CONTINUOUS
 10
378.0559202716
 20
94.1083413803
  0
VERTEX
  8
SURFACE
 62
7
  6
CONTINUOUS
 10
378.0616795143
 20
94.0404172965
  0
SEQEND
  0
LINE
  8
0
 62
7
  6
CONTINUOUS
 10
375.3470286885
 20
343.7271995802
 11
375.3470286885
 21
334.037807377
  0
LINE
  8
0
 62
7
  6
CONTINUOUS
 10
375.3470286885
 20
332.0144143856
 11
375.3470286885
 21
317.5300998546
  0
LINE
  8
0
 62
7
  6
CONTINUOUS
 10
375.3470286885
 20
303.1019649094
 11
375.3470286885
 21
286.0278336374
  0
LINE
  8
0
 62
7
  6
CONTINUOUS
 10
375.3470286885
 20
261.4258168009
 11
375.3470286885
 21
244.3269431881
  0
LINE
  8
0
 62
7
  6
CONTINUOUS
 10
375.3470286885
 20
215.737807377
 11
375.3470286885
 21
198.7760110581
  0
LINE
  8
0
 62
7
  6
CONTINUOUS
 10
375.3470286885
 20
171.9804101978
 11
375.3470286885
 21
156.3097537441
  0
LINE
  8
0
 62
7
  6
CONTINUOUS
 10
375.3470286885
 20
135.3870751627
 11
375.3470286885
 21
122.5699270024
  0
LINE
  8
0
 62
7
  6
CONTINUOUS
 10
375.3470286885
 20
111.5288058114
 11
375.3470286885
 21
94.3484151739
  0
POLYLINE
  8
0
 62
7
  6
CONTINUOUS
 66
1
 70
0
  0
VERTEX
  8
0
 62
7
  6
CONTINUOUS
 10
375.3470286885
 20
198.7760110581
  0
VERTEX
  8
0
 62
7
  6
CONTINUOUS
 10
375.3441812853
 20
198.5913579823
  0
VERTEX
  8
0
 62
7
  6
CONTINUOUS
 10
375.3375479156
 20
198.4170350698
  0
VERTEX
  8
0
 62
7
  6
CONTINUOUS
 10
375.3268641965
 20
198.2533644932
  0
VERTEX
  8
0
 62
7
  6
CONTINUOUS
 10
375.3129232772
 20
198.0993797349
  0
VERTEX
  8
0
 62
7
  6
CONTINUOUS
 10
375.2963373953
 20
197.9543784805
  0
VERTEX
  8
0
 62
7
  6
CONTINUOUS
 10
375.2773849031
 20
197.8178902924
  0
VERTEX
  8
0
 62
7
  6
CONTINUOUS
 10
375.2564783711
 20
197.68933555
  0
VERTEX
  8
0
 62
7
  6
CONTINUOUS
 10
375.2338273817
 20
197.5683394871
  0
VERTEX
  8
0
 62
7
  6
CONTINUOUS
 10
375.2097247905
 20
197.4544383806
  0
VERTEX
  8
0
 62
7
  6
CONTINUOUS
 10
375.1843333484
 20
197.3473194797
  0
VERTEX
  8
0
 62
7
  6
CONTINUOUS
 10
375.157871597
 20
197.2466084631
  0
VERTEX
  8
0
 62
7
  6
CONTINUOUS
 10
375.1304650205
 20
197.1520263195
  0
VERTEX
  8
0
 62
7
  6
CONTINUOUS
 10
375.1022791357
 20
197.0632507187
  0
VERTEX
  8
0
 62
7
  6
CONTINUOUS
 10
375.0734123856
 20
196.9800372957
  0
VERTEX
  8
0
 62
7
  6
CONTINUOUS
 10
375.0440375876
 20
196.9019902665
  0
VERTEX
  8
0
 62
7
  6
CONTINUOUS
 10
375.0140971359
 20
196.8292415591
  0
SEQEND
  0
POLYLINE
  8
SURFACE
 62
7
  6
CONTINUOUS
 66
1
 70
0
  0
VERTEX
  8
SURFACE
 62
7
  6
CONTINUOUS
 10
378.0470286885
 20
239.299603696
  0
VERTEX
  8
SURFACE
 62
7
  6
CONTINUOUS
 10
378.0498760918
 20
239.4842567718
  0
VERTEX
  8
SURFACE
 62
7
  6
CONTINUOUS
 10
378.0565094614
 20
239.6585796843
  0
VERTEX
  8
SURFACE
 62
7
  6
CONTINUOUS
 10
378.0671931805
 20
239.8222502609
  0
VERTEX
  8
SURFACE
 62
7
  6
CONTINUOUS
 10
378.0811340998
 20
239.9762350192
  0
VERTEX
  8
SURFACE
 62
7
  6
CONTINUOUS
 10
378.0977199817
 20
240.1212362736
  0
VERTEX
  8
SURFACE
 62
7
  6
CONTINUOUS
 10
378.116672474
 20
240.2577244617
  0
VERTEX
  8
SURFACE
 62
7
  6
CONTINUOUS
 10
378.137579006
 20
240.3862792041
  0
VERTEX
  8
SURFACE
 62
7
  6
CONTINUOUS
 10
378.1602299953
 20
240.507275267
  0
VERTEX
  8
SURFACE
 62
7
  6
CONTINUOUS
 10
378.1843325866
 20
240.6211763735
  0
VERTEX
  8
SURFACE
 62
7
  6
CONTINUOUS
 10
378.2097240286
 20
240.7282952744
  0
VERTEX
  8
SURFACE
 62
7
  6
CONTINUOUS
 10
378.23618578
 20
240.829006291
  0
VERTEX
  8
SURFACE
 62
7
  6
CONTINUOUS
 10
378.2635923566
 20
240.9235884346
  0
VERTEX
  8
SURFACE
 62
7
  6
CONTINUOUS
 10
378.2917782414
 20
241.0123640354
  0
VERTEX
  8
SURFACE
 62
7
  6
CONTINUOUS
 10
378.3206449914
 20
241.0955774584
  0
VERTEX
  8
SURFACE
 62
7
  6
CONTINUOUS
 10
378.3500197895
 20
241.1736244876
  0
VERTEX
  8
SURFACE
 62
7
  6
CONTINUOUS
 10
378.3799602412
 20
241.246373195
  0
SEQEND
  0
POLYLINE
  8
0
 62
7
  6
CONTINUOUS
 66
1
 70
0
  0
VERTEX
  8
0
 62
7
  6
CONTINUOUS
 10
375.3470286885
 20
244.3269431881
  0
VERTEX
  8
0
 62
7
  6
CONTINUOUS
 10
375.3441814885
 20
244.1563512163
  0
VERTEX
  8
0
 62
7
  6
CONTINUOUS
 10
375.3375484545
 20
243.9953020001
  0
VERTEX
  8
0
 62
7
  6
CONTINUOUS
 10
375.326865238
 20
243.844093128
  0
VERTEX
  8
0
 62
7
  6
CONTINUOUS
 10
375.3129248848
 20
243.7018318345
  0
VERTEX
  8
0
 62
7
  6
CONTINUOUS
 10
375.2963395475
 20
243.5678693893
  0
VERTEX
  8
0
 62
7
  6
CONTINUOUS
 10
375.2773875563
 20
243.4417712762
  0
VERTEX
  8
0
 62
7
  6
CONTINUOUS
 10
375.2564814372
 20
243.3230021296
  0
VERTEX
  8
0
 62
7
  6
CONTINUOUS
 10
375.2338307547
 20
243.2112157668
  0
VERTEX
  8
0
 62
7
  6
CONTINUOUS
 10
375.2097283343
 20
243.1059838426
  0
VERTEX
  8
0
 62
7
  6
CONTINUOUS
 10
375.184336918
 20
243.0070174784
  0
VERTEX
  8
0
 62
7
  6
CONTINUOUS
 10
375.1578750318
 20
242.9139709251
  0
VERTEX
  8
0
 62
7
  6
CONTINUOUS
 10
375.1304681492
 20
242.826586449
  0
VERTEX
  8
0
 62
7
  6
CONTINUOUS
 10
375.1022817726
 20
242.7445663046
  0
VERTEX
  8
0
 62
7
  6
CONTINUOUS
 10
375.0734143414
 20
242.6676847783
  0
VERTEX
  8
0
 62
7
  6
CONTINUOUS
 10
375.0440386633
 20
242.5955762876
  0
VERTEX
  8
0
 62
7
  6
CONTINUOUS
 10
375.0140971359
 20
242.5283626934
  0
SEQEND
  0
POLYLINE
  8
0
 62
7
  6
CONTINUOUS
 66
1
 70
0
  0
VERTEX
  8
0
 62
7
  6
CONTINUOUS
 10
375.3470286885
 20
156.3097537441
  0
VERTEX
  8
0
 62
7
  6
CONTINUOUS
 10
375.3441812853
 20
156.1391565467
  0
VERTEX
  8
0
 62
7
  6
CONTINUOUS
 10
375.3375479156
 20
155.9781031758
  0
VERTEX
  8
0
 62
7
  6
CONTINUOUS
 10
375.3268641965
 20
155.8268912801
  0
VERTEX
  8
0
 62
7
  6
CONTINUOUS
 10
375.3129232772
 20
155.6846279135
  0
VERTEX
  8
0
 62
7
  6
CONTINUOUS
 10
375.2963373953
 20
155.5506642224
  0
VERTEX
  8
0
 62
7
  6
CONTINUOUS
 10
375.2773849031
 20
155.4245655789
  0
VERTEX
  8
0
 62
7
  6
CONTINUOUS
 10
375.2564783711
 20
155.3057964837
  0
VERTEX
  8
0
 62
7
  6
CONTINUOUS
 10
375.2338273817
 20
155.1940106976
  0
VERTEX
  8
0
 62
7
  6
CONTINUOUS
 10
375.2097247905
 20
155.0887797966
  0
VERTEX
  8
0
 62
7
  6
CONTINUOUS
 10
375.1843333484
 20
154.9898148365
  0
VERTEX
  8
0
 62
7
  6
CONTINUOUS
 10
375.157871597
 20
154.8967699896
  0
VERTEX
  8
0
 62
7
  6
CONTINUOUS
 10
375.1304650205
 20
154.809387483
  0
VERTEX
  8
0
 62
7
  6
CONTINUOUS
 10
375.1022791357
 20
154.7273695224
  0
VERTEX
  8
0
 62
7
  6
CONTINUOUS
 10
375.0734123856
 20
154.6504903441
  0
VERTEX
  8
0
 62
7
  6
CONTINUOUS
 10
375.0440375876
 20
154.5783842912
  0
VERTEX
  8
0
 62
7
  6
CONTINUOUS
 10
375.0140971359
 20
154.5111732494
  0
SEQEND
  0
POLYLINE
  8
SURFACE
 62
7
  6
CONTINUOUS
 66
1
 70
0
  0
VERTEX
  8
SURFACE
 62
7
  6
CONTINUOUS
 10
378.0470286885
 20
281.76586101
  0
VERTEX
  8
SURFACE
 62
7
  6
CONTINUOUS
 10
378.0498760918
 20
281.9364582074
  0
VERTEX
  8
SURFACE
 62
7
  6
CONTINUOUS
 10
378.0565094614
 20
282.0975115783
  0
VERTEX
  8
SURFACE
 62
7
  6
CONTINUOUS
 10
378.0671931805
 20
282.248723474
  0
VERTEX
  8
SURFACE
 62
7
  6
CONTINUOUS
 10
378.0811340998
 20
282.3909868406
  0
VERTEX
  8
SURFACE
 62
7
  6
CONTINUOUS
 10
378.0977199817
 20
282.5249505317
  0
VERTEX
  8
SURFACE
 62
7
  6
CONTINUOUS
 10
378.116672474
 20
282.6510491752
  0
VERTEX
  8
SURFACE
 62
7
  6
CONTINUOUS
 10
378.137579006
 20
282.7698182704
  0
VERTEX
  8
SURFACE
 62
7
  6
CONTINUOUS
 10
378.1602299953
 20
282.8816040565
  0
VERTEX
  8
SURFACE
 62
7
  6
CONTINUOUS
 10
378.1843325866
 20
282.9868349575
  0
VERTEX
  8
SURFACE
 62
7
  6
CONTINUOUS
 10
378.2097240286
 20
283.0857999176
  0
VERTEX
  8
SURFACE
 62
7
  6
CONTINUOUS
 10
378.23618578
 20
283.1788447645
  0
VERTEX
  8
SURFACE
 62
7
  6
CONTINUOUS
 10
378.2635923566
 20
283.2662272711
  0
VERTEX
  8
SURFACE
 62
7
  6
CONTINUOUS
 10
378.2917782414
 20
283.3482452317
  0
VERTEX
  8
SURFACE
 62
7
  6
CONTINUOUS
 10
378.3206449914
 20
283.42512441
  0
VERTEX
  8
SURFACE
 62
7
  6
CONTINUOUS
 10
378.3500197895
 20
283.4972304629
  0
VERTEX
  8
SURFACE
 62
7
  6
CONTINUOUS
 10
378.3799602412
 20
283.5644415047
  0
SEQEND
  0
POLYLINE
  8
0
 62
7
  6
CONTINUOUS
 66
1
 70
0
  0
VERTEX
  8
0
 62
7
  6
CONTINUOUS
 10
375.3470286885
 20
286.0278336374
  0
VERTEX
  8
0
 62
7
  6
CONTINUOUS
 10
375.3441814885
 20
285.8972681948
  0
VERTEX
  8
0
 62
7
  6
CONTINUOUS
 10
375.3375484545
 20
285.7740064611
  0
VERTEX
  8
0
 62
7
  6
CONTINUOUS
 10
375.326865238
 20
285.6582762008
  0
VERTEX
  8
0
 62
7
  6
CONTINUOUS
 10
375.3129248848
 20
285.5493941206
  0
VERTEX
  8
0
 62
7
  6
CONTINUOUS
 10
375.2963395475
 20
285.4468637039
  0
VERTEX
  8
0
 62
7
  6
CONTINUOUS
 10
375.2773875563
 20
285.3503523864
  0
VERTEX
  8
0
 62
7
  6
CONTINUOUS
 10
375.2564814372
 20
285.2594504171
  0
VERTEX
  8
0
 62
7
  6
CONTINUOUS
 10
375.2338307547
 20
285.1738928391
  0
VERTEX
  8
0
 62
7
  6
CONTINUOUS
 10
375.2097283343
 20
285.0933518112
  0
VERTEX
  8
0
 62
7
  6
CONTINUOUS
 10
375.184336918
 20
285.0176062353
  0
VERTEX
  8
0
 62
7
  6
CONTINUOUS
 10
375.1578750318
 20
284.9463914865
  0
VERTEX
  8
0
 62
7
  6
CONTINUOUS
 10
375.1304681492
 20
284.879510304
  0
VERTEX
  8
0
 62
7
  6
CONTINUOUS
 10
375.1022817726
 20
284.8167348033
  0
VERTEX
  8
0
 62
7
  6
CONTINUOUS
 10
375.0734143414
 20
284.7578922305
  0
VERTEX
  8
0
 62
7
  6
CONTINUOUS
 10
375.0440386633
 20
284.7027027811
  0
VERTEX
  8
0
 62
7
  6
CONTINUOUS
 10
375.0140971359
 20
284.6512597232
  0
SEQEND
  0
POLYLINE
  8
SURFACE
 62
7
  6
CONTINUOUS
 66
1
 70
0
  0
VERTEX
  8
SURFACE
 62
7
  6
CONTINUOUS
 10
378.0491300071
 20
277.9144619317
  0
VERTEX
  8
SURFACE
 62
7
  6
CONTINUOUS
 10
378.047153348
 20
277.8642411911
  0
VERTEX
  8
SURFACE
 62
7
  6
CONTINUOUS
 10
378.0470287111
 20
277.8480511911
  0
SEQEND
  0
POLYLINE
  8
0
 62
7
  6
CONTINUOUS
 66
1
 70
0
  0
VERTEX
  8
0
 62
7
  6
CONTINUOUS
 10
375.34492737
 20
160.1611528224
  0
VERTEX
  8
0
 62
7
  6
CONTINUOUS
 10
375.346904029
 20
160.211373563
  0
VERTEX
  8
0
 62
7
  6
CONTINUOUS
 10
375.3470286659
 20
160.227563563
  0
SEQEND
  0
POLYLINE
  8
0
 62
7
  6
CONTINUOUS
 66
1
 70
0
  0
VERTEX
  8
0
 62
7
  6
CONTINUOUS
 10
375.3470286885
 20
317.5300998546
  0
VERTEX
  8
0
 62
7
  6
CONTINUOUS
 10
375.3441814885
 20
317.4594383463
  0
VERTEX
  8
0
 62
7
  6
CONTINUOUS
 10
375.3375484545
 20
317.3927295768
  0
VERTEX
  8
0
 62
7
  6
CONTINUOUS
 10
375.326865238
 20
317.3300968112
  0
VERTEX
  8
0
 62
7
  6
CONTINUOUS
 10
375.3129248848
 20
317.271170254
  0
VERTEX
  8
0
 62
7
  6
CONTINUOUS
 10
375.2963395475
 20
317.2156811924
  0
VERTEX
  8
0
 62
7
  6
CONTINUOUS
 10
375.2773875563
 20
317.1634496437
  0
VERTEX
  8
0
 62
7
  6
CONTINUOUS
 10
375.2564814372
 20
317.1142538524
  0
VERTEX
  8
0
 62
7
  6
CONTINUOUS
 10
375.2338307547
 20
317.0679504248
  0
VERTEX
  8
0
 62
7
  6
CONTINUOUS
 10
375.2097283343
 20
317.0243619347
  0
VERTEX
  8
0
 62
7
  6
CONTINUOUS
 10
375.184336918
 20
316.9833687244
  0
VERTEX
  8
0
 62
7
  6
CONTINUOUS
 10
375.1578750318
 20
316.9448275801
  0
VERTEX
  8
0
 62
7
  6
CONTINUOUS
 10
375.1304681492
 20
316.9086317449
  0
VERTEX
  8
0
 62
7
  6
CONTINUOUS
 10
375.1022817726
 20
316.8746578887
  0
VERTEX
  8
0
 62
7
  6
CONTINUOUS
 10
375.0734143414
 20
316.8428125178
  0
VERTEX
  8
0
 62
7
  6
CONTINUOUS
 10
375.0440386633
 20
316.812944203
  0
VERTEX
  8
0
 62
7
  6
CONTINUOUS
 10
375.0140971359
 20
316.7851034207
  0
SEQEND
  0
POLYLINE
  8
SURFACE
 62
7
  6
CONTINUOUS
 66
1
 70
0
  0
VERTEX
  8
SURFACE
 62
7
  6
CONTINUOUS
 10
378.3799602412
 20
241.246373195
  0
VERTEX
  8
SURFACE
 62
7
  6
CONTINUOUS
 10
378.4339429834
 20
241.369560432
  0
VERTEX
  8
SURFACE
 62
7
  6
CONTINUOUS
 10
378.491534333
 20
241.4947265508
  0
VERTEX
  8
SURFACE
 62
7
  6
CONTINUOUS
 10
378.5525679498
 20
241.6219227062
  0
VERTEX
  8
SURFACE
 62
7
  6
CONTINUOUS
 10
378.6166970754
 20
241.7504944848
  0
VERTEX
  8
SURFACE
 62
7
  6
CONTINUOUS
 10
378.6835202641
 20
241.8799181646
  0
VERTEX
  8
SURFACE
 62
7
  6
CONTINUOUS
 10
378.7527874366
 20
242.009931824
  0
VERTEX
  8
SURFACE
 62
7
  6
CONTINUOUS
 10
378.8242124522
 20
242.140294585
  0
VERTEX
  8
SURFACE
 62
7
  6
CONTINUOUS
 10
378.8973549612
 20
242.2704547524
  0
VERTEX
  8
SURFACE
 62
7
  6
CONTINUOUS
 10
378.9717539436
 20
242.3997653106
  0
VERTEX
  8
SURFACE
 62
7
  6
CONTINUOUS
 10
379.0470286885
 20
242.5283626934
  0
SEQEND
  0
LINE
  8
DEFAULT_1
 62
2
  6
CENTER
 10
349.4970286885
 20
219.037807377
 11
403.8970286885
 21
219.037807377
  0
POLYLINE
  8
0
 62
7
  6
CONTINUOUS
 66
1
 70
0
  0
VERTEX
  8
0
 62
7
  6
CONTINUOUS
 10
374.3470286885
 20
217.737807377
  0
VERTEX
  8
0
 62
7
  6
CONTINUOUS
 10
374.4568875638
 20
217.6036681368
  0
VERTEX
  8
0
 62
7
  6
CONTINUOUS
 10
374.5616158315
 20
217.4724244023
  0
VERTEX
  8
0
 62
7
  6
CONTINUOUS
 10
374.6619239431
 20
217.3436254522
  0
VERTEX
  8
0
 62
7
  6
CONTINUOUS
 10
374.7556805441
 20
217.2186234506
  0
VERTEX
  8
0
 62
7
  6
CONTINUOUS
 10
374.8407264834
 20
217.0988691898
  0
VERTEX
  8
0
 62
7
  6
CONTINUOUS
 10
374.917855603
 20
216.9836160642
  0
VERTEX
  8
0
 62
7
  6
CONTINUOUS
 10
374.9869597921
 20
216.8727028983
  0
VERTEX
  8
0
 62
7
  6
CONTINUOUS
 10
375.0485857579
 20
216.765824194
  0
VERTEX
  8
0
 62
7
  6
CONTINUOUS
 10
375.1031319435
 20
216.6625720629
  0
VERTEX
  8
0
 62
7
  6
CONTINUOUS
 10
375.1509350304
 20
216.5630925014
  0
VERTEX
  8
0
 62
7
  6
CONTINUOUS
 10
375.1922967207
 20
216.467457083
  0
VERTEX
  8
0
 62
7
  6
CONTINUOUS
 10
375.2277203965
 20
216.3754811877
  0
VERTEX
  8
0
 62
7
  6
CONTINUOUS
 10
375.2576533179
 20
216.2871672801
  0
VERTEX
  8
0
 62
7
  6
CONTINUOUS
 10
375.2825655522
 20
216.2020256801
  0
VERTEX
  8
0
 62
7
  6
CONTINUOUS
 10
375.302992004
 20
216.1196757626
  0
VERTEX
  8
0
 62
7
  6
CONTINUOUS
 10
375.3191854213
 20
216.0397928269
  0
VERTEX
  8
0
 62
7
  6
CONTINUOUS
 10
375.3315357038
 20
215.962060059
  0
VERTEX
  8
0
 62
7
  6
CONTINUOUS
 10
375.3401663012
 20
215.8860731732
  0
VERTEX
  8
0
 62
7
  6
CONTINUOUS
 10
375.3453623064
 20
215.8112585429
  0
VERTEX
  8
0
 62
7
  6
CONTINUOUS
 10
375.3470286885
 20
215.737807377
  0
SEQEND
  0
LINE
  8
SURFACE
 62
7
  6
CONTINUOUS
 10
378.0470286885
 20
94.3484151738
 11
378.0470286885
 21
104.037807377
  0
LINE
  8
SURFACE
 62
7
  6
CONTINUOUS
 10
378.0470286885
 20
106.0612003685
 11
378.0470286885
 21
120.5455148995
  0
LINE
  8
SURFACE
 62
7
  6
CONTINUOUS
 10
378.0470286885
 20
134.9736498447
 11
378.0470286885
 21
152.0477811167
  0
LINE
  8
SURFACE
 62
7
  6
CONTINUOUS
 10
378.0470286885
 20
176.6498236015
 11
378.0470286885
 21
193.748671566
  0
LINE
  8
SURFACE
 62
7
  6
CONTINUOUS
 10
378.0470286885
 20
222.337807377
 11
378.0470286885
 21
239.299603696
  0
LINE
  8
SURFACE
 62
7
  6
CONTINUOUS
 10
378.0470286885
 20
266.0952045563
 11
378.0470286885
 21
281.76586101
  0
LINE
  8
SURFACE
 62
7
  6
CONTINUOUS
 10
378.0470286885
 20
302.6885395914
 11
378.0470286885
 21
315.5056877517
  0
LINE
  8
SURFACE
 62
7
  6
CONTINUOUS
 10
378.0470286885
 20
326.5468089427
 11
378.0470286885
 21
343.7271995802
  0
POLYLINE
  8
SURFACE
 62
7
  6
CONTINUOUS
 66
1
 70
0
  0
VERTEX
  8
SURFACE
 62
7
  6
CONTINUOUS
 10
378.0470286885
 20
193.748671566
  0
VERTEX
  8
SURFACE
 62
7
  6
CONTINUOUS
 10
378.0498758886
 20
193.9192635378
  0
VERTEX
  8
SURFACE
 62
7
  6
CONTINUOUS
 10
378.0565089226
 20
194.080312754
  0
VERTEX
  8
SURFACE
 62
7
  6
CONTINUOUS
 10
378.067192139
 20
194.2315216261
  0
VERTEX
  8
SURFACE
 62
7
  6
CONTINUOUS
 10
378.0811324923
 20
194.3737829196
  0
VERTEX
  8
SURFACE
 62
7
  6
CONTINUOUS
 10
378.0977178295
 20
194.5077453648
  0
VERTEX
  8
SURFACE
 62
7
  6
CONTINUOUS
 10
378.1166698208
 20
194.6338434779
  0
VERTEX
  8
SURFACE
 62
7
  6
CONTINUOUS
 10
378.1375759398
 20
194.7526126245
  0
VERTEX
  8
SURFACE
 62
7
  6
CONTINUOUS
 10
378.1602266224
 20
194.8643989873
  0
VERTEX
  8
SURFACE
 62
7
  6
CONTINUOUS
 10
378.1843290427
 20
194.9696309115
  0
VERTEX
  8
SURFACE
 62
7
  6
CONTINUOUS
 10
378.209720459
 20
195.0685972757
  0
VERTEX
  8
SURFACE
 62
7
  6
CONTINUOUS
 10
378.2361823452
 20
195.161643829
  0
VERTEX
  8
SURFACE
 62
7
  6
CONTINUOUS
 10
378.2635892278
 20
195.2490283051
  0
VERTEX
  8
SURFACE
 62
7
  6
CONTINUOUS
 10
378.2917756045
 20
195.3310484495
  0
VERTEX
  8
SURFACE
 62
7
  6
CONTINUOUS
 10
378.3206430357
 20
195.4079299758
  0
VERTEX
  8
SURFACE
 62
7
  6
CONTINUOUS
 10
378.3500187137
 20
195.4800384665
  0
VERTEX
  8
SURFACE
 62
7
  6
CONTINUOUS
 10
378.3799602412
 20
195.5472520607
  0
SEQEND
  0
POLYLINE
  8
SURFACE
 62
7
  6
CONTINUOUS
 66
1
 70
0
  0
VERTEX
  8
SURFACE
 62
7
  6
CONTINUOUS
 10
378.0470286885
 20
152.0477811167
  0
VERTEX
  8
SURFACE
 62
7
  6
CONTINUOUS
 10
378.0498758886
 20
152.1783465593
  0
VERTEX
  8
SURFACE
 62
7
  6
CONTINUOUS
 10
378.0565089226
 20
152.301608293
  0
VERTEX
  8
SURFACE
 62
7
  6
CONTINUOUS
 10
378.067192139
 20
152.4173385533
  0
VERTEX
  8
SURFACE
 62
7
  6
CONTINUOUS
 10
378.0811324923
 20
152.5262206335
  0
VERTEX
  8
SURFACE
 62
7
  6
CONTINUOUS
 10
378.0977178295
 20
152.6287510502
  0
VERTEX
  8
SURFACE
 62
7
  6
CONTINUOUS
 10
378.1166698208
 20
152.7252623677
  0
VERTEX
  8
SURFACE
 62
7
  6
CONTINUOUS
 10
378.1375759398
 20
152.816164337
  0
VERTEX
  8
SURFACE
 62
7
  6
CONTINUOUS
 10
378.1602266224
 20
152.901721915
  0
VERTEX
  8
SURFACE
 62
7
  6
CONTINUOUS
 10
378.1843290427
 20
152.9822629429
  0
VERTEX
  8
SURFACE
 62
7
  6
CONTINUOUS
 10
378.209720459
 20
153.0580085188
  0
VERTEX
  8
SURFACE
 62
7
  6
CONTINUOUS
 10
378.2361823452
 20
153.1292232676
  0
VERTEX
  8
SURFACE
 62
7
  6
CONTINUOUS
 10
378.2635892278
 20
153.1961044501
  0
VERTEX
  8
SURFACE
 62
7
  6
CONTINUOUS
 10
378.2917756045
 20
153.2588799508
  0
VERTEX
  8
SURFACE
 62
7
  6
CONTINUOUS
 10
378.3206430357
 20
153.3177225236
  0
VERTEX
  8
SURFACE
 62
7
  6
CONTINUOUS
 10
378.3500187137
 20
153.372911973
  0
VERTEX
  8
SURFACE
 62
7
  6
CONTINUOUS
 10
378.3799602412
 20
153.4243550309
  0
SEQEND
  0
POLYLINE
  8
SURFACE
 62
7
  6
CONTINUOUS
 66
1
 70
0
  0
VERTEX
  8
SURFACE
 62
7
  6
CONTINUOUS
 10
378.0470286885
 20
120.5455148995
  0
VERTEX
  8
SURFACE
 62
7
  6
CONTINUOUS
 10
378.0498758886
 20
120.6161764078
  0
VERTEX
  8
SURFACE
 62
7
  6
CONTINUOUS
 10
378.0565089226
 20
120.6828851773
  0
VERTEX
  8
SURFACE
 62
7
  6
CONTINUOUS
 10
378.067192139
 20
120.7455179429
  0
VERTEX
  8
SURFACE
 62
7
  6
CONTINUOUS
 10
378.0811324923
 20
120.8044445001
  0
VERTEX
  8
SURFACE
 62
7
  6
CONTINUOUS
 10
378.0977178295
 20
120.8599335617
  0
VERTEX
  8
SURFACE
 62
7
  6
CONTINUOUS
 10
378.1166698208
 20
120.9121651104
  0
VERTEX
  8
SURFACE
 62
7
  6
CONTINUOUS
 10
378.1375759398
 20
120.9613609017
  0
VERTEX
  8
SURFACE
 62
7
  6
CONTINUOUS
 10
378.1602266224
 20
121.0076643293
  0
VERTEX
  8
SURFACE
 62
7
  6
CONTINUOUS
 10
378.1843290427
 20
121.0512528194
  0
VERTEX
  8
SURFACE
 62
7
  6
CONTINUOUS
 10
378.209720459
 20
121.0922460297
  0
VERTEX
  8
SURFACE
 62
7
  6
CONTINUOUS
 10
378.2361823452
 20
121.130787174
  0
VERTEX
  8
SURFACE
 62
7
  6
CONTINUOUS
 10
378.2635892278
 20
121.1669830092
  0
VERTEX
  8
SURFACE
 62
7
  6
CONTINUOUS
 10
378.2917756045
 20
121.2009568654
  0
VERTEX
  8
SURFACE
 62
7
  6
CONTINUOUS
 10
378.3206430357
 20
121.2328022363
  0
VERTEX
  8
SURFACE
 62
7
  6
CONTINUOUS
 10
378.3500187137
 20
121.2626705511
  0
VERTEX
  8
SURFACE
 62
7
  6
CONTINUOUS
 10
378.3799602412
 20
121.2905113334
  0
SEQEND
  0
POLYLINE
  8
0
 62
7
  6
CONTINUOUS
 66
1
 70
0
  0
VERTEX
  8
0
 62
7
  6
CONTINUOUS
 10
375.3321215797
 20
122.3456500476
  0
VERTEX
  8
0
 62
7
  6
CONTINUOUS
 10
375.3394190068
 20
122.4097264485
  0
VERTEX
  8
0
 62
7
  6
CONTINUOUS
 10
375.3442738928
 20
122.4735861926
  0
VERTEX
  8
0
 62
7
  6
CONTINUOUS
 10
375.3467087027
 20
122.5371192083
  0
VERTEX
  8
0
 62
7
  6
CONTINUOUS
 10
375.347028665
 20
122.5699908076
  0
SEQEND
  0
POLYLINE
  8
0
 62
7
  6
CONTINUOUS
 66
1
 70
0
  0
VERTEX
  8
0
 62
7
  6
CONTINUOUS
 10
375.0140971359
 20
196.8292415591
  0
VERTEX
  8
0
 62
7
  6
CONTINUOUS
 10
374.9601143937
 20
196.7060543221
  0
VERTEX
  8
0
 62
7
  6
CONTINUOUS
 10
374.9025230441
 20
196.5808882033
  0
VERTEX
  8
0
 62
7
  6
CONTINUOUS
 10
374.8414894273
 20
196.4536920479
  0
VERTEX
  8
0
 62
7
  6
CONTINUOUS
 10
374.7773603017
 20
196.3251202693
  0
VERTEX
  8
0
 62
7
  6
CONTINUOUS
 10
374.710537113
 20
196.1956965895
  0
VERTEX
  8
0
 62
7
  6
CONTINUOUS
 10
374.6412699405
 20
196.0656829301
  0
VERTEX
  8
0
 62
7
  6
CONTINUOUS
 10
374.5698449248
 20
195.9353201691
  0
VERTEX
  8
0
 62
7
  6
CONTINUOUS
 10
374.4967024158
 20
195.8051600017
  0
VERTEX
  8
0
 62
7
  6
CONTINUOUS
 10
374.4223034335
 20
195.6758494435
  0
VERTEX
  8
0
 62
7
  6
CONTINUOUS
 10
374.3470286885
 20
195.5472520607
  0
SEQEND
  0
POLYLINE
  8
SURFACE
 62
7
  6
CONTINUOUS
 66
1
 70
0
  0
VERTEX
  8
SURFACE
 62
7
  6
CONTINUOUS
 10
379.0470286885
 20
220.337807377
  0
VERTEX
  8
SURFACE
 62
7
  6
CONTINUOUS
 10
378.9371698132
 20
220.4719466173
  0
VERTEX
  8
SURFACE
 62
7
  6
CONTINUOUS
 10
378.8324415455
 20
220.6031903518
  0
VERTEX
  8
SURFACE
 62
7
  6
CONTINUOUS
 10
378.732133434
 20
220.7319893019
  0
VERTEX
  8
SURFACE
 62
7
  6
CONTINUOUS
 10
378.6383768329
 20
220.8569913034
  0
VERTEX
  8
SURFACE
 62
7
  6
CONTINUOUS
 10
378.5533308937
 20
220.9767455643
  0
VERTEX
  8
SURFACE
 62
7
  6
CONTINUOUS
 10
378.4762017741
 20
221.0919986899
  0
VERTEX
  8
SURFACE
 62
7
  6
CONTINUOUS
 10
378.4070975849
 20
221.2029118558
  0
VERTEX
  8
SURFACE
 62
7
  6
CONTINUOUS
 10
378.3454716191
 20
221.3097905601
  0
VERTEX
  8
SURFACE
 62
7
  6
CONTINUOUS
 10
378.2909254336
 20
221.4130426912
  0
VERTEX
  8
SURFACE
 62
7
  6
CONTINUOUS
 10
378.2431223467
 20
221.5125222527
  0
VERTEX
  8
SURFACE
 62
7
  6
CONTINUOUS
 10
378.2017606563
 20
221.6081576711
  0
VERTEX
  8
SURFACE
 62
7
  6
CONTINUOUS
 10
378.1663369806
 20
221.7001335664
  0
VERTEX
  8
SURFACE
 62
7
  6
CONTINUOUS
 10
378.1364040591
 20
221.788447474
  0
VERTEX
  8
SURFACE
 62
7
  6
CONTINUOUS
 10
378.1114918249
 20
221.873589074
  0
VERTEX
  8
SURFACE
 62
7
  6
CONTINUOUS
 10
378.0910653731
 20
221.9559389915
  0
VERTEX
  8
SURFACE
 62
7
  6
CONTINUOUS
 10
378.0748719558
 20
222.0358219272
  0
VERTEX
  8
SURFACE
 62
7
  6
CONTINUOUS
 10
378.0625216732
 20
222.1135546951
  0
VERTEX
  8
SURFACE
 62
7
  6
CONTINUOUS
 10
378.0538910759
 20
222.1895415809
  0
VERTEX
  8
SURFACE
 62
7
  6
CONTINUOUS
 10
378.0486950706
 20
222.2643562112
  0
VERTEX
  8
SURFACE
 62
7
  6
CONTINUOUS
 10
378.0470286885
 20
222.337807377
  0
SEQEND
  0
LINE
  8
0
 62
7
  6
CONTINUOUS
 10
375.328410814
 20
344.0742747735
 11
375.117771125
 21
346.0135976595
  0
LINE
  8
0
 62
7
  6
CONTINUOUS
 10
375.3323778627
 20
344.0351974576
 11
375.3284108612
 21
344.0742742381
  0
POLYLINE
  8
SURFACE
 62
7
  6
CONTINUOUS
 66
1
 70
0
  0
VERTEX
  8
SURFACE
 62
7
  6
CONTINUOUS
 10
388.0470286684
 20
315.5056242773
  0
VERTEX
  8
SURFACE
 62
7
  6
CONTINUOUS
 10
388.0467087985
 20
315.5384904702
  0
VERTEX
  8
SURFACE
 62
7
  6
CONTINUOUS
 10
388.04427433
 20
315.6020207525
  0
VERTEX
  8
SURFACE
 62
7
  6
CONTINUOUS
 10
388.0394198233
 20
315.6658797148
  0
VERTEX
  8
SURFACE
 62
7
  6
CONTINUOUS
 10
388.0321226295
 20
315.7299568762
  0
VERTEX
  8
SURFACE
 62
7
  6
CONTINUOUS
 10
388.0223690804
 20
315.794144849
  0
VERTEX
  8
SURFACE
 62
7
  6
CONTINUOUS
 10
388.0164860873
 20
315.8266848471
  0
SEQEND
  0
POLYLINE
  8
SURFACE
 62
7
  6
CONTINUOUS
 66
1
 70
0
  0
VERTEX
  8
SURFACE
 62
7
  6
CONTINUOUS
 10
388.0470286693
 20
277.8480516343
  0
VERTEX
  8
SURFACE
 62
7
  6
CONTINUOUS
 10
388.0468603214
 20
277.8668645592
  0
VERTEX
  8
SURFACE
 62
7
  6
CONTINUOUS
 10
388.0447713424
 20
277.916881029
  0
VERTEX
  8
SURFACE
 62
7
  6
CONTINUOUS
 10
388.0403058808
 20
277.9667274767
  0
VERTEX
  8
SURFACE
 62
7
  6
CONTINUOUS
 10
388.0334893334
 20
278.0162381627
  0
VERTEX
  8
SURFACE
 62
7
  6
CONTINUOUS
 10
388.024358505
 20
278.0652742501
  0
VERTEX
  8
SURFACE
 62
7
  6
CONTINUOUS
 10
388.0129637405
 20
278.1136934591
  0
VERTEX
  8
SURFACE
 62
7
  6
CONTINUOUS
 10
387.9993647426
 20
278.1613696922
  0
VERTEX
  8
SURFACE
 62
7
  6
CONTINUOUS
 10
387.9836397661
 20
278.2081598588
  0
VERTEX
  8
SURFACE
 62
7
  6
CONTINUOUS
 10
387.9658708221
 20
278.2539539407
  0
VERTEX
  8
SURFACE
 62
7
  6
CONTINUOUS
 10
387.9461756245
 20
278.298592209
  0
VERTEX
  8
SURFACE
 62
7
  6
CONTINUOUS
 10
387.9246786616
 20
278.341950642
  0
VERTEX
  8
SURFACE
 62
7
  6
CONTINUOUS
 10
387.9015231523
 20
278.383908483
  0
VERTEX
  8
SURFACE
 62
7
  6
CONTINUOUS
 10
387.8758434379
 20
278.4259564382
  0
SEQEND
  0
POLYLINE
  8
SURFACE
 62
7
  6
CONTINUOUS
 66
1
 70
0
  0
VERTEX
  8
SURFACE
 62
7
  6
CONTINUOUS
 10
388.0470286673
 20
338.4768272857
  0
VERTEX
  8
SURFACE
 62
7
  6
CONTINUOUS
 10
388.0467998253
 20
338.5120765992
  0
VERTEX
  8
SURFACE
 62
7
  6
CONTINUOUS
 10
388.0451341275
 20
338.5780634561
  0
VERTEX
  8
SURFACE
 62
7
  6
CONTINUOUS
 10
388.0418559474
 20
338.6440609831
  0
VERTEX
  8
SURFACE
 62
7
  6
CONTINUOUS
 10
388.0369669001
 20
338.7100347032
  0
VERTEX
  8
SURFACE
 62
7
  6
CONTINUOUS
 10
388.0304694351
 20
338.7759511091
  0
SEQEND
  0
POLYLINE
  8
SURFACE
 62
7
  6
CONTINUOUS
 66
1
 70
0
  0
VERTEX
  8
SURFACE
 62
7
  6
CONTINUOUS
 10
388.0470286766
 20
343.7272000504
  0
VERTEX
  8
SURFACE
 62
7
  6
CONTINUOUS
 10
388.0468276349
 20
343.7633327306
  0
VERTEX
  8
SURFACE
 62
7
  6
CONTINUOUS
 10
388.0453590707
 20
343.8313108793
  0
VERTEX
  8
SURFACE
 62
7
  6
CONTINUOUS
 10
388.0424634212
 20
343.8992995876
  0
VERTEX
  8
SURFACE
 62
7
  6
CONTINUOUS
 10
388.0381373381
 20
343.9672703557
  0
VERTEX
  8
SURFACE
 62
7
  6
CONTINUOUS
 10
388.0323780514
 20
344.0351954504
  0
VERTEX
  8
SURFACE
 62
7
  6
CONTINUOUS
 10
388.0284108575
 20
344.0742741878
  0
SEQEND
  0
LINE
  8
SURFACE
 62
7
  6
CONTINUOUS
 10
388.0470286885
 20
94.3484151739
 11
388.0470286885
 21
343.7271995802
  0
POLYLINE
  8
SURFACE
 62
7
  6
CONTINUOUS
 66
1
 70
0
  0
VERTEX
  8
SURFACE
 62
7
  6
CONTINUOUS
 10
388.0393012414
 20
134.833796007
  0
VERTEX
  8
SURFACE
 62
7
  6
CONTINUOUS
 10
388.0444154961
 20
134.8921787717
  0
VERTEX
  8
SURFACE
 62
7
  6
CONTINUOUS
 10
388.046821548
 20
134.9506830454
  0
VERTEX
  8
SURFACE
 62
7
  6
CONTINUOUS
 10
388.0470286746
 20
134.9737024403
  0
SEQEND
  0
POLYLINE
  8
0
 62
7
  6
CONTINUOUS
 66
1
 70
0
  0
VERTEX
  8
0
 62
7
  6
CONTINUOUS
 10
375.3304686311
 20
99.2996563145
  0
VERTEX
  8
0
 62
7
  6
CONTINUOUS
 10
375.33696591
 20
99.365568704
  0
VERTEX
  8
0
 62
7
  6
CONTINUOUS
 10
375.3418551674
 20
99.4315411859
  0
VERTEX
  8
0
 62
7
  6
CONTINUOUS
 10
375.3451337096
 20
99.4975399241
  0
VERTEX
  8
0
 62
7
  6
CONTINUOUS
 10
375.3467997347
 20
99.5635309273
  0
VERTEX
  8
0
 62
7
  6
CONTINUOUS
 10
375.3470286641
 20
99.5987839314
  0
SEQEND
  0
POLYLINE
  8
0
 62
7
  6
CONTINUOUS
 66
1
 70
0
  0
VERTEX
  8
0
 62
7
  6
CONTINUOUS
 10
375.3284108612
 20
94.0013405151
  0
VERTEX
  8
0
 62
7
  6
CONTINUOUS
 10
375.3323778655
 20
94.0404173237
  0
VERTEX
  8
0
 62
7
  6
CONTINUOUS
 10
375.3381371083
 20
94.1083414165
  0
VERTEX
  8
0
 62
7
  6
CONTINUOUS
 10
375.3424632447
 20
94.1763119007
  0
VERTEX
  8
0
 62
7
  6
CONTINUOUS
 10
375.3453589787
 20
94.2443007608
  0
VERTEX
  8
0
 62
7
  6
CONTINUOUS
 10
375.3468276137
 20
94.3122799698
  0
VERTEX
  8
0
 62
7
  6
CONTINUOUS
 10
375.3470286742
 20
94.3484146661
  0
SEQEND
  0
LINE
  8
0
 62
7
  6
CONTINUOUS
 10
375.08930171
 20
91.8032588439
 11
375.328410814
 21
94.0013399806
  0
LINE
  8
0
 62
7
  6
CONTINUOUS
 10
374.930962255
 20
90.3864212619
 11
375.08930171
 21
91.8032588439
  0
LINE
  8
0
 62
7
  6
CONTINUOUS
 10
374.8383485501
 20
89.5831462884
 11
374.930962255
 21
90.3864212619
  0
LINE
  8
0
 62
7
  6
CONTINUOUS
 10
375.3266913289
 20
99.2673283538
 11
375.3304686311
 21
99.2996563145
  0
POLYLINE
  8
0
 62
7
  6
CONTINUOUS
 66
1
 70
0
  0
VERTEX
  8
0
 62
7
  6
CONTINUOUS
 10
375.0029044235
 20
96.5810565238
  0
VERTEX
  8
0
 62
7
  6
CONTINUOUS
 10
375.0838143911
 20
97.2539013125
  0
VERTEX
  8
0
 62
7
  6
CONTINUOUS
 10
375.2403386253
 20
98.5564171778
  0
SEQEND
  0
POLYLINE
  8
0
 62
7
  6
CONTINUOUS
 66
1
 70
0
  0
VERTEX
  8
0
 62
7
  6
CONTINUOUS
 10
374.7587979413
 20
94.5528520609
  0
VERTEX
  8
0
 62
7
  6
CONTINUOUS
 10
374.8387676363
 20
95.2170068546
  0
VERTEX
  8
0
 62
7
  6
CONTINUOUS
 10
375.0029044235
 20
96.5810565238
  0
SEQEND
  0
LINE
  8
0
 62
7
  6
CONTINUOUS
 10
374.7585385829
 20
88.9161039692
 11
374.8383485501
 21
89.5831462884
  0
POLYLINE
  8
0
 62
7
  6
CONTINUOUS
 66
1
 70
0
  0
VERTEX
  8
0
 62
7
  6
CONTINUOUS
 10
375.2403386247
 20
98.5564171754
  0
VERTEX
  8
0
 62
7
  6
CONTINUOUS
 10
375.3144335425
 20
99.1673998625
  0
VERTEX
  8
0
 62
7
  6
CONTINUOUS
 10
375.3266911067
 20
99.2673263564
  0
SEQEND
  0
LINE
  8
0
 62
7
  6
CONTINUOUS
 10
374.7506517529
 20
119.0661648625
 11
375.2594941417
 21
121.9417188034
  0
POLYLINE
  8
0
 62
7
  6
CONTINUOUS
 66
1
 70
0
  0
VERTEX
  8
0
 62
7
  6
CONTINUOUS
 10
375.3164859022
 20
122.2489288273
  0
VERTEX
  8
0
 62
7
  6
CONTINUOUS
 10
375.3223681567
 20
122.2814644641
  0
VERTEX
  8
0
 62
7
  6
CONTINUOUS
 10
375.3321215797
 20
122.3456500476
  0
SEQEND
  0
LINE
  8
0
 62
7
  6
CONTINUOUS
 10
375.2594941417
 20
121.9417188034
 11
375.2896884942
 21
122.1064868358
  0
LINE
  8
0
 62
7
  6
CONTINUOUS
 10
375.2896884942
 20
122.1064868358
 11
375.3164805696
 21
122.2489007194
  0
POLYLINE
  8
SURFACE
 62
7
  6
CONTINUOUS
 66
1
 70
0
  0
VERTEX
  8
SURFACE
 62
7
  6
CONTINUOUS
 10
378.3799602412
 20
195.5472520607
  0
VERTEX
  8
SURFACE
 62
7
  6
CONTINUOUS
 10
378.4339429834
 20
195.6619410832
  0
VERTEX
  8
SURFACE
 62
7
  6
CONTINUOUS
 10
378.491534333
 20
195.7802284342
  0
VERTEX
  8
SURFACE
 62
7
  6
CONTINUOUS
 10
378.5525679498
 20
195.9022971357
  0
VERTEX
  8
SURFACE
 62
7
  6
CONTINUOUS
 10
378.6166970754
 20
196.0275981222
  0
VERTEX
  8
SURFACE
 62
7
  6
CONTINUOUS
 10
378.6835202641
 20
196.1557062313
  0
VERTEX
  8
SURFACE
 62
7
  6
CONTINUOUS
 10
378.7527874366
 20
196.2864327759
  0
SEQEND
  0
LINE
  8
SURFACE
 62
7
  6
CONTINUOUS
 10
378.7527874366
 20
196.2864327759
 11
378.8973549612
 21
196.5547499478
  0
LINE
  8
SURFACE
 62
7
  6
CONTINUOUS
 10
378.8973549612
 20
196.5547499478
 11
379.0470286885
 21
196.8292415591
  0
LINE
  8
0
 62
7
  6
CONTINUOUS
 10
375.1343635545
 20
333.5118071269
 11
375.1009065251
 21
333.699952359
  0
LINE
  8
0
 62
7
  6
CONTINUOUS
 10
375.1693735083
 20
333.3078643069
 11
375.1343635545
 21
333.5118071269
  0
LINE
  8
0
 62
7
  6
CONTINUOUS
 10
375.2059967904
 20
333.0872545406
 11
375.1693735083
 21
333.3078643069
  0
LINE
  8
0
 62
7
  6
CONTINUOUS
 10
375.2442888498
 20
332.8491105538
 11
375.2059967904
 21
333.0872545406
  0
LINE
  8
0
 62
7
  6
CONTINUOUS
 10
375.2842992876
 20
332.592577217
 11
375.2442888498
 21
332.8491105538
  0
LINE
  8
0
 62
7
  6
CONTINUOUS
 10
375.3231417737
 20
332.336412655
 11
375.2842992876
 21
332.592577217
  0
LINE
  8
0
 62
7
  6
CONTINUOUS
 10
374.8169277118
 20
348.6742927415
 11
374.7585385829
 21
349.1595107849
  0
LINE
  8
0
 62
7
  6
CONTINUOUS
 10
374.9067930679
 20
347.9011284224
 11
374.8169277118
 21
348.6742927415
  0
LINE
  8
0
 62
7
  6
CONTINUOUS
 10
375.0340783748
 20
346.7712238944
 11
374.9067930679
 21
347.9011284224
  0
LINE
  8
0
 62
7
  6
CONTINUOUS
 10
375.117771125
 20
346.0135976595
 11
375.0340783748
 21
346.7712238944
  0
LINE
  8
SURFACE
 62
7
  6
CONTINUOUS
 10
388.0284108135
 20
344.0742747785
 11
387.8177714891
 21
346.0135943442
  0
LINE
  8
SURFACE
 62
7
  6
CONTINUOUS
 10
401.8970286885
 20
316.037807377
 11
401.8970286885
 21
122.037807377
  0
POLYLINE
  8
SURFACE
 62
7
  6
CONTINUOUS
 66
1
 70
0
  0
VERTEX
  8
SURFACE
 62
7
  6
CONTINUOUS
 10
388.0323780514
 20
94.0404193037
  0
VERTEX
  8
SURFACE
 62
7
  6
CONTINUOUS
 10
388.0381373381
 20
94.1083443984
  0
VERTEX
  8
SURFACE
 62
7
  6
CONTINUOUS
 10
388.0424634212
 20
94.1763151665
  0
VERTEX
  8
SURFACE
 62
7
  6
CONTINUOUS
 10
388.0453590707
 20
94.2443038748
  0
VERTEX
  8
SURFACE
 62
7
  6
CONTINUOUS
 10
388.0468276349
 20
94.3122820235
  0
VERTEX
  8
SURFACE
 62
7
  6
CONTINUOUS
 10
388.0470286766
 20
94.3484147037
  0
SEQEND
  0
LINE
  8
SURFACE
 62
7
  6
CONTINUOUS
 10
388.0284108575
 20
94.0013405663
 11
388.0323780514
 21
94.0404193037
  0
LINE
  8
SURFACE
 62
7
  6
CONTINUOUS
 10
387.7893020153
 20
91.8032616138
 11
388.0284108135
 21
94.0013399756
  0
LINE
  8
SURFACE
 62
7
  6
CONTINUOUS
 10
387.6309615438
 20
90.3864150042
 11
387.7893020153
 21
91.8032616138
  0
LINE
  8
SURFACE
 62
7
  6
CONTINUOUS
 10
387.538347563
 20
89.5831378677
 11
387.6309615438
 21
90.3864150042
  0
POLYLINE
  8
SURFACE
 62
7
  6
CONTINUOUS
 66
1
 70
0
  0
VERTEX
  8
SURFACE
 62
7
  6
CONTINUOUS
 10
388.0281771373
 20
105.7748799346
  0
VERTEX
  8
SURFACE
 62
7
  6
CONTINUOUS
 10
388.0355597486
 20
105.8375357162
  0
VERTEX
  8
SURFACE
 62
7
  6
CONTINUOUS
 10
388.0411237516
 20
105.900493866
  0
VERTEX
  8
SURFACE
 62
7
  6
CONTINUOUS
 10
388.0448604895
 20
105.963702485
  0
VERTEX
  8
SURFACE
 62
7
  6
CONTINUOUS
 10
388.0467641216
 20
106.027109407
  0
VERTEX
  8
SURFACE
 62
7
  6
CONTINUOUS
 10
388.0470286758
 20
106.0612582191
  0
SEQEND
  0
LINE
  8
SURFACE
 62
7
  6
CONTINUOUS
 10
387.4585385777
 20
88.9161039206
 11
387.538347563
 21
89.5831378677
  0
LINE
  8
SURFACE
 62
7
  6
CONTINUOUS
 10
388.0314843935
 20
134.7757307683
 11
388.0393012414
 21
134.833796007
  0
LINE
  8
SURFACE
 62
7
  6
CONTINUOUS
 10
388.0231429438
 20
105.7392100312
 11
388.0281771373
 21
105.7748799346
  0
LINE
  8
0
 62
7
  6
CONTINUOUS
 10
374.6712440288
 20
158.577051457
 11
375.1531761213
 21
159.6053218372
  0
POLYLINE
  8
0
 62
7
  6
CONTINUOUS
 66
1
 70
0
  0
VERTEX
  8
0
 62
7
  6
CONTINUOUS
 10
375.1531766526
 20
159.6053229683
  0
VERTEX
  8
0
 62
7
  6
CONTINUOUS
 10
375.1598955517
 20
159.6193765208
  0
VERTEX
  8
0
 62
7
  6
CONTINUOUS
 10
375.1666532047
 20
159.6328365312
  0
VERTEX
  8
0
 62
7
  6
CONTINUOUS
 10
375.1716319296
 20
159.6422206753
  0
VERTEX
  8
0
 62
7
  6
CONTINUOUS
 10
375.1747895409
 20
159.6478504829
  0
VERTEX
  8
0
 62
7
  6
CONTINUOUS
 10
375.1760872691
 20
159.6500431931
  0
VERTEX
  8
0
 62
7
  6
CONTINUOUS
 10
375.1757833261
 20
159.6495645679
  0
SEQEND
  0
POLYLINE
  8
0
 62
7
  6
CONTINUOUS
 66
1
 70
0
  0
VERTEX
  8
0
 62
7
  6
CONTINUOUS
 10
375.0140971359
 20
154.5111732494
  0
VERTEX
  8
0
 62
7
  6
CONTINUOUS
 10
374.9601143937
 20
154.398241938
  0
VERTEX
  8
0
 62
7
  6
CONTINUOUS
 10
374.9025230441
 20
154.2852524585
  0
VERTEX
  8
0
 62
7
  6
CONTINUOUS
 10
374.8414894273
 20
154.1722933108
  0
VERTEX
  8
0
 62
7
  6
CONTINUOUS
 10
374.7773603017
 20
154.0600246279
  0
VERTEX
  8
0
 62
7
  6
CONTINUOUS
 10
374.710537113
 20
153.9489889594
  0
VERTEX
  8
0
 62
7
  6
CONTINUOUS
 10
374.6412699405
 20
153.8394815863
  0
VERTEX
  8
0
 62
7
  6
CONTINUOUS
 10
374.5698449249
 20
153.731782639
  0
VERTEX
  8
0
 62
7
  6
CONTINUOUS
 10
374.4967024159
 20
153.6264151556
  0
VERTEX
  8
0
 62
7
  6
CONTINUOUS
 10
374.4223034335
 20
153.5239544002
  0
VERTEX
  8
0
 62
7
  6
CONTINUOUS
 10
374.3470286885
 20
153.4243550309
  0
SEQEND
  0
POLYLINE
  8
0
 62
7
  6
CONTINUOUS
 66
1
 70
0
  0
VERTEX
  8
0
 62
7
  6
CONTINUOUS
 10
375.2846138194
 20
303.4942696363
  0
VERTEX
  8
0
 62
7
  6
CONTINUOUS
 10
375.2701677328
 20
303.5377920416
  0
VERTEX
  8
0
 62
7
  6
CONTINUOUS
 10
375.2522672501
 20
303.5899333442
  0
VERTEX
  8
0
 62
7
  6
CONTINUOUS
 10
375.2344338351
 20
303.6399245208
  0
VERTEX
  8
0
 62
7
  6
CONTINUOUS
 10
375.2165937143
 20
303.6880015657
  0
VERTEX
  8
0
 62
7
  6
CONTINUOUS
 10
375.1986857812
 20
303.7343421326
  0
VERTEX
  8
0
 62
7
  6
CONTINUOUS
 10
375.1806349221
 20
303.7791388046
  0
VERTEX
  8
0
 62
7
  6
CONTINUOUS
 10
375.1623647292
 20
303.8225636213
  0
VERTEX
  8
0
 62
7
  6
CONTINUOUS
 10
375.1437824496
 20
303.8648018162
  0
VERTEX
  8
0
 62
7
  6
CONTINUOUS
 10
375.1247928017
 20
303.9060157425
  0
VERTEX
  8
0
 62
7
  6
CONTINUOUS
 10
375.1052787452
 20
303.9463842897
  0
VERTEX
  8
0
 62
7
  6
CONTINUOUS
 10
375.0851220295
 20
303.9860547825
  0
VERTEX
  8
0
 62
7
  6
CONTINUOUS
 10
375.0641664864
 20
304.0252117089
  0
VERTEX
  8
0
 62
7
  6
CONTINUOUS
 10
375.0422501015
 20
304.0640051853
  0
VERTEX
  8
0
 62
7
  6
CONTINUOUS
 10
375.0191834967
 20
304.1025861915
  0
VERTEX
  8
0
 62
7
  6
CONTINUOUS
 10
374.9947449384
 20
304.1411044723
  0
VERTEX
  8
0
 62
7
  6
CONTINUOUS
 10
374.9687562748
 20
304.1795881448
  0
VERTEX
  8
0
 62
7
  6
CONTINUOUS
 10
374.9409976336
 20
304.2180828862
  0
VERTEX
  8
0
 62
7
  6
CONTINUOUS
 10
374.9112679126
 20
304.2565608659
  0
VERTEX
  8
0
 62
7
  6
CONTINUOUS
 10
374.8793285901
 20
304.2949979491
  0
VERTEX
  8
0
 62
7
  6
CONTINUOUS
 10
374.8449920126
 20
304.3332656298
  0
VERTEX
  8
0
 62
7
  6
CONTINUOUS
 10
374.808018264
 20
304.3712574258
  0
VERTEX
  8
0
 62
7
  6
CONTINUOUS
 10
374.7683061749
 20
304.4086957051
  0
VERTEX
  8
0
 62
7
  6
CONTINUOUS
 10
374.7257125255
 20
304.4453374446
  0
VERTEX
  8
0
 62
7
  6
CONTINUOUS
 10
374.6802215871
 20
304.4808287806
  0
VERTEX
  8
0
 62
7
  6
CONTINUOUS
 10
374.6318041815
 20
304.5148443161
  0
VERTEX
  8
0
 62
7
  6
CONTINUOUS
 10
374.5805668416
 20
304.5469871041
  0
VERTEX
  8
0
 62
7
  6
CONTINUOUS
 10
374.5266257072
 20
304.5768962044
  0
VERTEX
  8
0
 62
7
  6
CONTINUOUS
 10
374.470211775
 20
304.6041933699
  0
VERTEX
  8
0
 62
7
  6
CONTINUOUS
 10
374.4116047451
 20
304.6285383969
  0
VERTEX
  8
0
 62
7
  6
CONTINUOUS
 10
374.3510826862
 20
304.6496512843
  0
VERTEX
  8
0
 62
7
  6
CONTINUOUS
 10
374.2889918918
 20
304.6672851006
  0
VERTEX
  8
0
 62
7
  6
CONTINUOUS
 10
374.2256529229
 20
304.6812579405
  0
VERTEX
  8
0
 62
7
  6
CONTINUOUS
 10
374.1614359498
 20
304.691428955
  0
VERTEX
  8
0
 62
7
  6
CONTINUOUS
 10
374.0966965737
 20
304.6977133251
  0
VERTEX
  8
0
 62
7
  6
CONTINUOUS
 10
374.0318894792
 20
304.7000738181
  0
VERTEX
  8
0
 62
7
  6
CONTINUOUS
 10
366.6686381319
 20
304.7000949506
  0
SEQEND
  0
LINE
  8
0
 62
7
  6
CONTINUOUS
 10
375.284635337
 20
303.4942038355
 11
375.2846138194
 21
303.4942696363
  0
POLYLINE
  8
0
 62
7
  6
CONTINUOUS
 66
1
 70
0
  0
VERTEX
  8
0
 62
7
  6
CONTINUOUS
 10
374.994984147
 20
334.2469068658
  0
VERTEX
  8
0
 62
7
  6
CONTINUOUS
 10
374.9811256211
 20
334.312395318
  0
VERTEX
  8
0
 62
7
  6
CONTINUOUS
 10
374.9675453815
 20
334.3750739328
  0
VERTEX
  8
0
 62
7
  6
CONTINUOUS
 10
374.954223941
 20
334.4350781646
  0
VERTEX
  8
0
 62
7
  6
CONTINUOUS
 10
374.941143196
 20
334.4925315995
  0
VERTEX
  8
0
 62
7
  6
CONTINUOUS
 10
374.9282808876
 20
334.5475699829
  0
VERTEX
  8
0
 62
7
  6
CONTINUOUS
 10
374.9156155857
 20
334.6003180663
  0
VERTEX
  8
0
 62
7
  6
CONTINUOUS
 10
374.9031211218
 20
334.6509124038
  0
VERTEX
  8
0
 62
7
  6
CONTINUOUS
 10
374.8907708293
 20
334.6994825971
  0
VERTEX
  8
0
 62
7
  6
CONTINUOUS
 10
374.8785364796
 20
334.7461553775
  0
VERTEX
  8
0
 62
7
  6
CONTINUOUS
 10
374.8663870915
 20
334.7910577354
  0
VERTEX
  8
0
 62
7
  6
CONTINUOUS
 10
374.8542915089
 20
334.8343064504
  0
VERTEX
  8
0
 62
7
  6
CONTINUOUS
 10
374.8422169806
 20
334.8760132344
  0
VERTEX
  8
0
 62
7
  6
CONTINUOUS
 10
374.8301182101
 20
334.9163205149
  0
VERTEX
  8
0
 62
7
  6
CONTINUOUS
 10
374.8179513967
 20
334.9553500664
  0
VERTEX
  8
0
 62
7
  6
CONTINUOUS
 10
374.8056519097
 20
334.9932718657
  0
SEQEND
  0
LINE
  8
0
 62
7
  6
CONTINUOUS
 10
375.0235942439
 20
334.107025103
 11
374.994984147
 21
334.2469068658
  0
LINE
  8
0
 62
7
  6
CONTINUOUS
 10
375.0534828085
 20
333.9544842032
 11
375.0235942439
 21
334.107025103
  0
POLYLINE
  8
0
 62
7
  6
CONTINUOUS
 66
1
 70
0
  0
VERTEX
  8
0
 62
7
  6
CONTINUOUS
 10
375.1009065251
 20
333.699952359
  0
VERTEX
  8
0
 62
7
  6
CONTINUOUS
 10
375.0847395779
 20
333.788376367
  0
VERTEX
  8
0
 62
7
  6
CONTINUOUS
 10
375.0534828085
 20
333.9544842032
  0
SEQEND
  0
POLYLINE
  8
SURFACE
 62
7
  6
CONTINUOUS
 66
1
 70
0
  0
VERTEX
  8
SURFACE
 62
7
  6
CONTINUOUS
 10
387.4588075797
 20
343.5226826352
  0
VERTEX
  8
SURFACE
 62
7
  6
CONTINUOUS
 10
387.4547216001
 20
343.552774142
  0
VERTEX
  8
SURFACE
 62
7
  6
CONTINUOUS
 10
387.4454891631
 20
343.6045545308
  0
VERTEX
  8
SURFACE
 62
7
  6
CONTINUOUS
 10
387.4335466165
 20
343.6557791208
  0
VERTEX
  8
SURFACE
 62
7
  6
CONTINUOUS
 10
387.4189260469
 20
343.7063085199
  0
VERTEX
  8
SURFACE
 62
7
  6
CONTINUOUS
 10
387.4016661731
 20
343.7560058316
  0
VERTEX
  8
SURFACE
 62
7
  6
CONTINUOUS
 10
387.3818152177
 20
343.8047297042
  0
VERTEX
  8
SURFACE
 62
7
  6
CONTINUOUS
 10
387.3594286181
 20
343.8523431293
  0
VERTEX
  8
SURFACE
 62
7
  6
CONTINUOUS
 10
387.3345686217
 20
343.8987134509
  0
VERTEX
  8
SURFACE
 62
7
  6
CONTINUOUS
 10
387.3073056655
 20
343.9437097081
  0
VERTEX
  8
SURFACE
 62
7
  6
CONTINUOUS
 10
387.2777126529
 20
343.987211663
  0
VERTEX
  8
SURFACE
 62
7
  6
CONTINUOUS
 10
387.2458661544
 20
344.0291049988
  0
VERTEX
  8
SURFACE
 62
7
  6
CONTINUOUS
 10
387.2118607002
 20
344.0692641699
  0
VERTEX
  8
SURFACE
 62
7
  6
CONTINUOUS
 10
387.1758004583
 20
344.1075681473
  0
VERTEX
  8
SURFACE
 62
7
  6
CONTINUOUS
 10
387.1377746977
 20
344.1439236889
  0
VERTEX
  8
SURFACE
 62
7
  6
CONTINUOUS
 10
387.0978741135
 20
344.1782417499
  0
VERTEX
  8
SURFACE
 62
7
  6
CONTINUOUS
 10
387.0562226687
 20
344.2104135517
  0
VERTEX
  8
SURFACE
 62
7
  6
CONTINUOUS
 10
387.0129501687
 20
344.2403404044
  0
VERTEX
  8
SURFACE
 62
7
  6
CONTINUOUS
 10
386.9681659179
 20
344.2679485625
  0
VERTEX
  8
SURFACE
 62
7
  6
CONTINUOUS
 10
386.921984043
 20
344.293167128
  0
VERTEX
  8
SURFACE
 62
7
  6
CONTINUOUS
 10
386.8745399283
 20
344.3159214344
  0
VERTEX
  8
SURFACE
 62
7
  6
CONTINUOUS
 10
386.8259706121
 20
344.336146353
  0
VERTEX
  8
SURFACE
 62
7
  6
CONTINUOUS
 10
386.776407742
 20
344.3537878767
  0
VERTEX
  8
SURFACE
 62
7
  6
CONTINUOUS
 10
386.7259871005
 20
344.368798056
  0
VERTEX
  8
SURFACE
 62
7
  6
CONTINUOUS
 10
386.6748485588
 20
344.3811355159
  0
VERTEX
  8
SURFACE
 62
7
  6
CONTINUOUS
 10
386.6231327597
 20
344.3907665308
  0
VERTEX
  8
SURFACE
 62
7
  6
CONTINUOUS
 10
386.5709844485
 20
344.3976644012
  0
VERTEX
  8
SURFACE
 62
7
  6
CONTINUOUS
 10
386.5185500987
 20
344.4018103051
  0
VERTEX
  8
SURFACE
 62
7
  6
CONTINUOUS
 10
386.465972073
 20
344.4031934861
  0
SEQEND
  0
LINE
  8
SURFACE
 62
7
  6
CONTINUOUS
 10
388.0266911069
 20
338.8082883966
 11
387.9525442584
 21
339.4177409287
  0
POLYLINE
  8
SURFACE
 62
7
  6
CONTINUOUS
 66
1
 70
0
  0
VERTEX
  8
SURFACE
 62
7
  6
CONTINUOUS
 10
387.9525442584
 20
339.4177409287
  0
VERTEX
  8
SURFACE
 62
7
  6
CONTINUOUS
 10
387.8639523707
 20
340.1549898921
  0
VERTEX
  8
SURFACE
 62
7
  6
CONTINUOUS
 10
387.7838141663
 20
340.8217153114
  0
VERTEX
  8
SURFACE
 62
7
  6
CONTINUOUS
 10
387.4587979413
 20
343.5227626932
  0
SEQEND
  0
LINE
  8
SURFACE
 62
7
  6
CONTINUOUS
 10
387.5169268531
 20
348.6742999953
 11
387.4585385777
 21
349.1595108335
  0
LINE
  8
SURFACE
 62
7
  6
CONTINUOUS
 10
388.0304694351
 20
338.7759511091
 11
388.026691351
 21
338.8082860476
  0
LINE
  8
SURFACE
 62
7
  6
CONTINUOUS
 10
387.6067921802
 20
347.9011361809
 11
387.5169268531
 21
348.6742999953
  0
LINE
  8
SURFACE
 62
7
  6
CONTINUOUS
 10
387.7340784173
 20
346.7712235129
 11
387.6067921802
 21
347.9011361809
  0
LINE
  8
SURFACE
 62
7
  6
CONTINUOUS
 10
387.8177714891
 20
346.0135943442
 11
387.7340784173
 21
346.7712235129
  0
POLYLINE
  8
SURFACE
 62
7
  6
CONTINUOUS
 66
1
 70
0
  0
VERTEX
  8
SURFACE
 62
7
  6
CONTINUOUS
 10
387.4585464324
 20
88.9161679889
  0
VERTEX
  8
SURFACE
 62
7
  6
CONTINUOUS
 10
387.4531349449
 20
88.8780905545
  0
VERTEX
  8
SURFACE
 62
7
  6
CONTINUOUS
 10
387.4435787319
 20
88.8273668379
  0
VERTEX
  8
SURFACE
 62
7
  6
CONTINUOUS
 10
387.4314504831
 20
88.7773242882
  0
VERTEX
  8
SURFACE
 62
7
  6
CONTINUOUS
 10
387.4166954534
 20
88.7277669698
  0
VERTEX
  8
SURFACE
 62
7
  6
CONTINUOUS
 10
387.3991439669
 20
88.6783769713
  0
VERTEX
  8
SURFACE
 62
7
  6
CONTINUOUS
 10
387.3789856125
 20
88.6298781224
  0
VERTEX
  8
SURFACE
 62
7
  6
CONTINUOUS
 10
387.3565464857
 20
88.5829698067
  0
VERTEX
  8
SURFACE
 62
7
  6
CONTINUOUS
 10
387.3316602612
 20
88.5372237569
  0
VERTEX
  8
SURFACE
 62
7
  6
CONTINUOUS
 10
387.3040634565
 20
88.4922775127
  0
VERTEX
  8
SURFACE
 62
7
  6
CONTINUOUS
 10
387.2740958332
 20
88.4487946537
  0
VERTEX
  8
SURFACE
 62
7
  6
CONTINUOUS
 10
387.242169783
 20
88.4073177935
  0
VERTEX
  8
SURFACE
 62
7
  6
CONTINUOUS
 10
387.2081294531
 20
88.3675817261
  0
VERTEX
  8
SURFACE
 62
7
  6
CONTINUOUS
 10
387.1718062101
 20
88.3294302381
  0
VERTEX
  8
SURFACE
 62
7
  6
CONTINUOUS
 10
387.1334833992
 20
88.2932077334
  0
VERTEX
  8
SURFACE
 62
7
  6
CONTINUOUS
 10
387.0933869234
 20
88.2591221996
  0
VERTEX
  8
SURFACE
 62
7
  6
CONTINUOUS
 10
387.0516339065
 20
88.2272518781
  0
VERTEX
  8
SURFACE
 62
7
  6
CONTINUOUS
 10
387.0084387273
 20
88.197730042
  0
VERTEX
  8
SURFACE
 62
7
  6
CONTINUOUS
 10
386.9637493491
 20
88.1705024806
  0
VERTEX
  8
SURFACE
 62
7
  6
CONTINUOUS
 10
386.9173983046
 20
88.1454989341
  0
VERTEX
  8
SURFACE
 62
7
  6
CONTINUOUS
 10
386.8698570001
 20
88.1229975795
  0
VERTEX
  8
SURFACE
 62
7
  6
CONTINUOUS
 10
386.8216248904
 20
88.1031892339
  0
VERTEX
  8
SURFACE
 62
7
  6
CONTINUOUS
 10
386.7725292278
 20
88.0859551244
  0
VERTEX
  8
SURFACE
 62
7
  6
CONTINUOUS
 10
386.7224094802
 20
88.0712465377
  0
VERTEX
  8
SURFACE
 62
7
  6
CONTINUOUS
 10
386.6716439503
 20
88.0591863682
  0
VERTEX
  8
SURFACE
 62
7
  6
CONTINUOUS
 10
386.6205423528
 20
88.0498255814
  0
VERTEX
  8
SURFACE
 62
7
  6
CONTINUOUS
 10
386.5691563383
 20
88.0431451191
  0
VERTEX
  8
SURFACE
 62
7
  6
CONTINUOUS
 10
386.5176158049
 20
88.0391418049
  0
VERTEX
  8
SURFACE
 62
7
  6
CONTINUOUS
 10
386.465972073
 20
88.037807377
  0
SEQEND
  0
LINE
  8
SURFACE
 62
7
  6
CONTINUOUS
 10
387.9640766257
 20
105.3524206783
 11
388.0231417744
 21
105.7392020986
  0
LINE
  8
SURFACE
 62
7
  6
CONTINUOUS
 10
387.924931117
 20
105.1051875561
 11
387.9640766257
 21
105.3524206783
  0
LINE
  8
SURFACE
 62
7
  6
CONTINUOUS
 10
387.8874800612
 20
104.8759185892
 11
387.924931117
 21
105.1051875561
  0
LINE
  8
SURFACE
 62
7
  6
CONTINUOUS
 10
387.851670657
 20
104.6637507225
 11
387.8874800612
 21
104.8759185892
  0
LINE
  8
SURFACE
 62
7
  6
CONTINUOUS
 10
387.8174451708
 20
104.4678164059
 11
387.851670657
 21
104.6637507225
  0
LINE
  8
SURFACE
 62
7
  6
CONTINUOUS
 10
387.7847397319
 20
104.2872392205
 11
387.8174451708
 21
104.4678164059
  0
LINE
  8
SURFACE
 62
7
  6
CONTINUOUS
 10
387.7534829758
 20
104.1211314213
 11
387.7847397319
 21
104.2872392205
  0
LINE
  8
SURFACE
 62
7
  6
CONTINUOUS
 10
387.7235944448
 20
103.9685906533
 11
387.7534829758
 21
104.1211314213
  0
POLYLINE
  8
SURFACE
 62
7
  6
CONTINUOUS
 66
1
 70
0
  0
VERTEX
  8
SURFACE
 62
7
  6
CONTINUOUS
 10
387.9846354483
 20
134.5814112859
  0
VERTEX
  8
SURFACE
 62
7
  6
CONTINUOUS
 10
387.9921300646
 20
134.6051198196
  0
VERTEX
  8
SURFACE
 62
7
  6
CONTINUOUS
 10
388.0078478454
 20
134.6612175922
  0
VERTEX
  8
SURFACE
 62
7
  6
CONTINUOUS
 10
388.0209871106
 20
134.7181504333
  0
VERTEX
  8
SURFACE
 62
7
  6
CONTINUOUS
 10
388.0314843935
 20
134.7757307683
  0
SEQEND
  0
POLYLINE
  8
SURFACE
 62
7
  6
CONTINUOUS
 66
1
 70
0
  0
VERTEX
  8
SURFACE
 62
7
  6
CONTINUOUS
 10
378.8973549612
 20
154.2618868274
  0
VERTEX
  8
SURFACE
 62
7
  6
CONTINUOUS
 10
378.9717539436
 20
154.3847473412
  0
VERTEX
  8
SURFACE
 62
7
  6
CONTINUOUS
 10
379.0470286885
 20
154.5111732494
  0
SEQEND
  0
LINE
  8
SURFACE
 62
7
  6
CONTINUOUS
 10
378.3799602412
 20
153.4243550309
 11
378.4339429834
 21
153.5130854748
  0
POLYLINE
  8
0
 62
7
  6
CONTINUOUS
 66
1
 70
0
  0
VERTEX
  8
0
 62
7
  6
CONTINUOUS
 10
375.1758444512
 20
159.6496598693
  0
VERTEX
  8
0
 62
7
  6
CONTINUOUS
 10
375.2017183391
 20
159.6920425685
  0
VERTEX
  8
0
 62
7
  6
CONTINUOUS
 10
375.2249517967
 20
159.7341859895
  0
VERTEX
  8
0
 62
7
  6
CONTINUOUS
 10
375.2465110764
 20
159.7777394146
  0
VERTEX
  8
0
 62
7
  6
CONTINUOUS
 10
375.2662517049
 20
159.8225808922
  0
VERTEX
  8
0
 62
7
  6
CONTINUOUS
 10
375.2840478923
 20
159.8685844841
  0
VERTEX
  8
0
 62
7
  6
CONTINUOUS
 10
375.2997808761
 20
159.9155881078
  0
VERTEX
  8
0
 62
7
  6
CONTINUOUS
 10
375.3133682258
 20
159.9634806122
  0
VERTEX
  8
0
 62
7
  6
CONTINUOUS
 10
375.3247313284
 20
160.0121173901
  0
VERTEX
  8
0
 62
7
  6
CONTINUOUS
 10
375.3338101944
 20
160.0613705199
  0
VERTEX
  8
0
 62
7
  6
CONTINUOUS
 10
375.3405544271
 20
160.1110958829
  0
VERTEX
  8
0
 62
7
  6
CONTINUOUS
 10
375.34492737
 20
160.1611528224
  0
SEQEND
  0
LINE
  8
SURFACE
 62
7
  6
CONTINUOUS
 10
378.7527874366
 20
154.0266242691
 11
378.8973549612
 21
154.2618868274
  0
POLYLINE
  8
SURFACE
 62
7
  6
CONTINUOUS
 66
1
 70
0
  0
VERTEX
  8
SURFACE
 62
7
  6
CONTINUOUS
 10
378.4339429834
 20
153.5130854748
  0
VERTEX
  8
SURFACE
 62
7
  6
CONTINUOUS
 10
378.5525679498
 20
153.7048432755
  0
VERTEX
  8
SURFACE
 62
7
  6
CONTINUOUS
 10
378.6166970754
 20
153.8077975305
  0
VERTEX
  8
SURFACE
 62
7
  6
CONTINUOUS
 10
378.7527874366
 20
154.0266242691
  0
SEQEND
  0
LINE
  8
0
 62
7
  6
CONTINUOUS
 10
375.1758444512
 20
159.6496598693
 11
375.1757833119
 21
159.649564577
  0
POLYLINE
  8
SURFACE
 62
7
  6
CONTINUOUS
 66
1
 70
0
  0
VERTEX
  8
SURFACE
 62
7
  6
CONTINUOUS
 10
379.0470286885
 20
264.2474454913
  0
VERTEX
  8
SURFACE
 62
7
  6
CONTINUOUS
 10
378.9371698132
 20
264.3713739899
  0
VERTEX
  8
SURFACE
 62
7
  6
CONTINUOUS
 10
378.8324415455
 20
264.49262739
  0
VERTEX
  8
SURFACE
 62
7
  6
CONTINUOUS
 10
378.732133434
 20
264.6116221038
  0
VERTEX
  8
SURFACE
 62
7
  6
CONTINUOUS
 10
378.6383768329
 20
264.7271088945
  0
VERTEX
  8
SURFACE
 62
7
  6
CONTINUOUS
 10
378.5533308936
 20
264.837747405
  0
VERTEX
  8
SURFACE
 62
7
  6
CONTINUOUS
 10
378.4762017741
 20
264.9442274088
  0
VERTEX
  8
SURFACE
 62
7
  6
CONTINUOUS
 10
378.4070975849
 20
265.0466978128
  0
VERTEX
  8
SURFACE
 62
7
  6
CONTINUOUS
 10
378.3454716191
 20
265.1454408601
  0
VERTEX
  8
SURFACE
 62
7
  6
CONTINUOUS
 10
378.2909254336
 20
265.2408333907
  0
VERTEX
  8
SURFACE
 62
7
  6
CONTINUOUS
 10
378.2431223467
 20
265.3327405215
  0
VERTEX
  8
SURFACE
 62
7
  6
CONTINUOUS
 10
378.2017606563
 20
265.4210961271
  0
VERTEX
  8
SURFACE
 62
7
  6
CONTINUOUS
 10
378.1663369806
 20
265.5060707743
  0
VERTEX
  8
SURFACE
 62
7
  6
CONTINUOUS
 10
378.1364040591
 20
265.5876621859
  0
VERTEX
  8
SURFACE
 62
7
  6
CONTINUOUS
 10
378.1114918249
 20
265.6663227676
  0
VERTEX
  8
SURFACE
 62
7
  6
CONTINUOUS
 10
378.0910653731
 20
265.7424041708
  0
VERTEX
  8
SURFACE
 62
7
  6
CONTINUOUS
 10
378.0748719558
 20
265.8162063801
  0
VERTEX
  8
SURFACE
 62
7
  6
CONTINUOUS
 10
378.0625216732
 20
265.8880220934
  0
VERTEX
  8
SURFACE
 62
7
  6
CONTINUOUS
 10
378.0538910759
 20
265.9582248219
  0
VERTEX
  8
SURFACE
 62
7
  6
CONTINUOUS
 10
378.0486950706
 20
266.0273445275
  0
VERTEX
  8
SURFACE
 62
7
  6
CONTINUOUS
 10
378.0470286885
 20
266.0952045563
  0
SEQEND
  0
POLYLINE
  8
SURFACE
 62
7
  6
CONTINUOUS
 66
1
 70
0
  0
VERTEX
  8
SURFACE
 62
7
  6
CONTINUOUS
 10
387.3712562223
 20
279.498537313
  0
VERTEX
  8
SURFACE
 62
7
  6
CONTINUOUS
 10
387.3636763609
 20
279.514329228
  0
VERTEX
  8
SURFACE
 62
7
  6
CONTINUOUS
 10
387.3380686899
 20
279.5630644791
  0
VERTEX
  8
SURFACE
 62
7
  6
CONTINUOUS
 10
387.3096790305
 20
279.6105347913
  0
VERTEX
  8
SURFACE
 62
7
  6
CONTINUOUS
 10
387.2776579904
 20
279.6578249034
  0
VERTEX
  8
SURFACE
 62
7
  6
CONTINUOUS
 10
387.2429933804
 20
279.7032050531
  0
VERTEX
  8
SURFACE
 62
7
  6
CONTINUOUS
 10
387.2070651575
 20
279.7451330505
  0
VERTEX
  8
SURFACE
 62
7
  6
CONTINUOUS
 10
387.1687911716
 20
279.7850993792
  0
VERTEX
  8
SURFACE
 62
7
  6
CONTINUOUS
 10
387.1268151717
 20
279.8242548398
  0
VERTEX
  8
SURFACE
 62
7
  6
CONTINUOUS
 10
387.0825132095
 20
279.8610534539
  0
VERTEX
  8
SURFACE
 62
7
  6
CONTINUOUS
 10
387.037104391
 20
279.89458877
  0
VERTEX
  8
SURFACE
 62
7
  6
CONTINUOUS
 10
386.9902952775
 20
279.9252500929
  0
VERTEX
  8
SURFACE
 62
7
  6
CONTINUOUS
 10
386.942199041
 20
279.9530531535
  0
VERTEX
  8
SURFACE
 62
7
  6
CONTINUOUS
 10
386.8926135184
 20
279.9781516101
  0
VERTEX
  8
SURFACE
 62
7
  6
CONTINUOUS
 10
386.8409649661
 20
280.0007584433
  0
VERTEX
  8
SURFACE
 62
7
  6
CONTINUOUS
 10
386.7882305609
 20
280.020382472
  0
VERTEX
  8
SURFACE
 62
7
  6
CONTINUOUS
 10
386.7352174885
 20
280.036802358
  0
VERTEX
  8
SURFACE
 62
7
  6
CONTINUOUS
 10
386.6818120975
 20
280.0501594981
  0
VERTEX
  8
SURFACE
 62
7
  6
CONTINUOUS
 10
386.6280665858
 20
280.0605059956
  0
VERTEX
  8
SURFACE
 62
7
  6
CONTINUOUS
 10
386.5741191055
 20
280.0678656683
  0
VERTEX
  8
SURFACE
 62
7
  6
CONTINUOUS
 10
386.5201353355
 20
280.0722628514
  0
VERTEX
  8
SURFACE
 62
7
  6
CONTINUOUS
 10
386.465972073
 20
280.0737307583
  0
SEQEND
  0
LINE
  8
SURFACE
 62
7
  6
CONTINUOUS
 10
387.8531761211
 20
278.4702929173
 11
387.3712440288
 21
279.4985632971
  0
POLYLINE
  8
0
 62
7
  6
CONTINUOUS
 66
1
 70
0
  0
VERTEX
  8
0
 62
7
  6
CONTINUOUS
 10
374.8056519097
 20
334.9932718657
  0
VERTEX
  8
0
 62
7
  6
CONTINUOUS
 10
374.7931565798
 20
335.0302275519
  0
VERTEX
  8
0
 62
7
  6
CONTINUOUS
 10
374.780375968
 20
335.0664094103
  0
VERTEX
  8
0
 62
7
  6
CONTINUOUS
 10
374.7672177305
 20
335.1019839365
  0
VERTEX
  8
0
 62
7
  6
CONTINUOUS
 10
374.7535652899
 20
335.1371456377
  0
VERTEX
  8
0
 62
7
  6
CONTINUOUS
 10
374.7392908483
 20
335.1720729255
  0
VERTEX
  8
0
 62
7
  6
CONTINUOUS
 10
374.7242436911
 20
335.2069507124
  0
VERTEX
  8
0
 62
7
  6
CONTINUOUS
 10
374.7082572025
 20
335.2419451153
  0
VERTEX
  8
0
 62
7
  6
CONTINUOUS
 10
374.6911238833
 20
335.2772485801
  0
VERTEX
  8
0
 62
7
  6
CONTINUOUS
 10
374.6726009261
 20
335.313050113
  0
VERTEX
  8
0
 62
7
  6
CONTINUOUS
 10
374.6524615647
 20
335.3494308865
  0
VERTEX
  8
0
 62
7
  6
CONTINUOUS
 10
374.6304130811
 20
335.3865158069
  0
VERTEX
  8
0
 62
7
  6
CONTINUOUS
 10
374.60623925
 20
335.4242285793
  0
VERTEX
  8
0
 62
7
  6
CONTINUOUS
 10
374.5796715151
 20
335.4625247204
  0
VERTEX
  8
0
 62
7
  6
CONTINUOUS
 10
374.5606734383
 20
335.4881002675
  0
SEQEND
  0
POLYLINE
  8
SURFACE
 62
7
  6
CONTINUOUS
 66
1
 70
0
  0
VERTEX
  8
SURFACE
 62
7
  6
CONTINUOUS
 10
387.450645105
 20
319.0094874274
  0
VERTEX
  8
SURFACE
 62
7
  6
CONTINUOUS
 10
387.4446729068
 20
319.0403686252
  0
VERTEX
  8
SURFACE
 62
7
  6
CONTINUOUS
 10
387.4326358196
 20
319.0911261512
  0
VERTEX
  8
SURFACE
 62
7
  6
CONTINUOUS
 10
387.4179421327
 20
319.1412680607
  0
VERTEX
  8
SURFACE
 62
7
  6
CONTINUOUS
 10
387.4005719793
 20
319.1907776733
  0
VERTEX
  8
SURFACE
 62
7
  6
CONTINUOUS
 10
387.3806052679
 20
319.2393616352
  0
VERTEX
  8
SURFACE
 62
7
  6
CONTINUOUS
 10
387.3581550241
 20
319.2867511339
  0
VERTEX
  8
SURFACE
 62
7
  6
CONTINUOUS
 10
387.3332422661
 20
319.3329146719
  0
VERTEX
  8
SURFACE
 62
7
  6
CONTINUOUS
 10
387.3058886493
 20
319.3777924636
  0
VERTEX
  8
SURFACE
 62
7
  6
CONTINUOUS
 10
387.2761930134
 20
319.4212015188
  0
VERTEX
  8
SURFACE
 62
7
  6
CONTINUOUS
 10
387.2442446198
 20
319.4630035574
  0
VERTEX
  8
SURFACE
 62
7
  6
CONTINUOUS
 10
387.2101530715
 20
319.5030549598
  0
VERTEX
  8
SURFACE
 62
7
  6
CONTINUOUS
 10
387.1740678137
 20
319.5411933716
  0
VERTEX
  8
SURFACE
 62
7
  6
CONTINUOUS
 10
387.1360115399
 20
319.5774024114
  0
VERTEX
  8
SURFACE
 62
7
  6
CONTINUOUS
 10
387.0959521033
 20
319.6116882674
  0
VERTEX
  8
SURFACE
 62
7
  6
CONTINUOUS
 10
387.0541661315
 20
319.6437967565
  0
VERTEX
  8
SURFACE
 62
7
  6
CONTINUOUS
 10
387.010987356
 20
319.6735030447
  0
VERTEX
  8
SURFACE
 62
7
  6
CONTINUOUS
 10
386.9663198902
 20
319.7009014334
  0
VERTEX
  8
SURFACE
 62
7
  6
CONTINUOUS
 10
386.920030289
 20
319.7260489528
  0
VERTEX
  8
SURFACE
 62
7
  6
CONTINUOUS
 10
386.8724825358
 20
319.7487230611
  0
VERTEX
  8
SURFACE
 62
7
  6
CONTINUOUS
 10
386.8240240404
 20
319.7687785944
  0
VERTEX
  8
SURFACE
 62
7
  6
CONTINUOUS
 10
386.7746486913
 20
319.7862439789
  0
VERTEX
  8
SURFACE
 62
7
  6
CONTINUOUS
 10
386.7243890079
 20
319.8011104167
  0
VERTEX
  8
SURFACE
 62
7
  6
CONTINUOUS
 10
386.6734478374
 20
319.8133170933
  0
VERTEX
  8
SURFACE
 62
7
  6
CONTINUOUS
 10
386.6219946541
 20
319.8228304236
  0
VERTEX
  8
SURFACE
 62
7
  6
CONTINUOUS
 10
386.5701675555
 20
319.8296337717
  0
VERTEX
  8
SURFACE
 62
7
  6
CONTINUOUS
 10
386.5181282043
 20
319.8337158778
  0
VERTEX
  8
SURFACE
 62
7
  6
CONTINUOUS
 10
386.465972073
 20
319.835076935
  0
SEQEND
  0
LINE
  8
SURFACE
 62
7
  6
CONTINUOUS
 10
388.0164805696
 20
315.8267140346
 11
387.9896883828
 21
315.9691285181
  0
LINE
  8
SURFACE
 62
7
  6
CONTINUOUS
 10
387.9896883828
 20
315.9691285181
 11
387.9594940304
 21
316.133896566
  0
POLYLINE
  8
SURFACE
 62
7
  6
CONTINUOUS
 66
1
 70
0
  0
VERTEX
  8
SURFACE
 62
7
  6
CONTINUOUS
 10
387.9594940304
 20
316.133896566
  0
VERTEX
  8
SURFACE
 62
7
  6
CONTINUOUS
 10
387.8558400712
 20
316.7188922811
  0
VERTEX
  8
SURFACE
 62
7
  6
CONTINUOUS
 10
387.7756944785
 20
317.1723629052
  0
VERTEX
  8
SURFACE
 62
7
  6
CONTINUOUS
 10
387.4506517529
 20
319.0094498916
  0
SEQEND
  0
POLYLINE
  8
SURFACE
 62
7
  6
CONTINUOUS
 66
1
 70
0
  0
VERTEX
  8
SURFACE
 62
7
  6
CONTINUOUS
 10
387.4585464324
 20
349.1594467652
  0
VERTEX
  8
SURFACE
 62
7
  6
CONTINUOUS
 10
387.4531349449
 20
349.1975241996
  0
VERTEX
  8
SURFACE
 62
7
  6
CONTINUOUS
 10
387.4435787319
 20
349.2482479162
  0
VERTEX
  8
SURFACE
 62
7
  6
CONTINUOUS
 10
387.4314504831
 20
349.2982904659
  0
VERTEX
  8
SURFACE
 62
7
  6
CONTINUOUS
 10
387.4166954534
 20
349.3478477843
  0
VERTEX
  8
SURFACE
 62
7
  6
CONTINUOUS
 10
387.3991439669
 20
349.3972377828
  0
VERTEX
  8
SURFACE
 62
7
  6
CONTINUOUS
 10
387.3789856125
 20
349.4457366317
  0
VERTEX
  8
SURFACE
 62
7
  6
CONTINUOUS
 10
387.3565464857
 20
349.4926449474
  0
VERTEX
  8
SURFACE
 62
7
  6
CONTINUOUS
 10
387.3316602612
 20
349.5383909972
  0
VERTEX
  8
SURFACE
 62
7
  6
CONTINUOUS
 10
387.3040634565
 20
349.5833372414
  0
VERTEX
  8
SURFACE
 62
7
  6
CONTINUOUS
 10
387.2740958332
 20
349.6268201004
  0
VERTEX
  8
SURFACE
 62
7
  6
CONTINUOUS
 10
387.242169783
 20
349.6682969606
  0
VERTEX
  8
SURFACE
 62
7
  6
CONTINUOUS
 10
387.2081294531
 20
349.708033028
  0
VERTEX
  8
SURFACE
 62
7
  6
CONTINUOUS
 10
387.1718062101
 20
349.746184516
  0
VERTEX
  8
SURFACE
 62
7
  6
CONTINUOUS
 10
387.1334833992
 20
349.7824070207
  0
VERTEX
  8
SURFACE
 62
7
  6
CONTINUOUS
 10
387.0933869234
 20
349.8164925545
  0
VERTEX
  8
SURFACE
 62
7
  6
CONTINUOUS
 10
387.0516339065
 20
349.848362876
  0
VERTEX
  8
SURFACE
 62
7
  6
CONTINUOUS
 10
387.0084387273
 20
349.8778847121
  0
VERTEX
  8
SURFACE
 62
7
  6
CONTINUOUS
 10
386.9637493491
 20
349.9051122735
  0
VERTEX
  8
SURFACE
 62
7
  6
CONTINUOUS
 10
386.9173983046
 20
349.93011582
  0
VERTEX
  8
SURFACE
 62
7
  6
CONTINUOUS
 10
386.8698570001
 20
349.9526171746
  0
VERTEX
  8
SURFACE
 62
7
  6
CONTINUOUS
 10
386.8216248904
 20
349.9724255202
  0
VERTEX
  8
SURFACE
 62
7
  6
CONTINUOUS
 10
386.7725292278
 20
349.9896596297
  0
VERTEX
  8
SURFACE
 62
7
  6
CONTINUOUS
 10
386.7224094802
 20
350.0043682164
  0
VERTEX
  8
SURFACE
 62
7
  6
CONTINUOUS
 10
386.6716439503
 20
350.0164283859
  0
VERTEX
  8
SURFACE
 62
7
  6
CONTINUOUS
 10
386.6205423528
 20
350.0257891727
  0
VERTEX
  8
SURFACE
 62
7
  6
CONTINUOUS
 10
386.5691563383
 20
350.032469635
  0
VERTEX
  8
SURFACE
 62
7
  6
CONTINUOUS
 10
386.5176158049
 20
350.0364729492
  0
VERTEX
  8
SURFACE
 62
7
  6
CONTINUOUS
 10
386.465972073
 20
350.037807377
  0
SEQEND
  0
LINE
  8
0
 62
7
  6
CONTINUOUS
 10
366.3470286885
 20
262.425819851
 11
374.3470286885
 21
262.425819851
  0
LINE
  8
SURFACE
 62
7
  6
CONTINUOUS
 10
387.8757832741
 20
278.4260502099
 11
387.8758434379
 21
278.4259564382
  0
POLYLINE
  8
SURFACE
 62
7
  6
CONTINUOUS
 66
1
 70
0
  0
VERTEX
  8
SURFACE
 62
7
  6
CONTINUOUS
 10
387.8757832998
 20
278.4260502264
  0
VERTEX
  8
SURFACE
 62
7
  6
CONTINUOUS
 10
387.8760872651
 20
278.4255715661
  0
VERTEX
  8
SURFACE
 62
7
  6
CONTINUOUS
 10
387.8747895542
 20
278.4277642476
  0
VERTEX
  8
SURFACE
 62
7
  6
CONTINUOUS
 10
387.8716319442
 20
278.4333940524
  0
VERTEX
  8
SURFACE
 62
7
  6
CONTINUOUS
 10
387.8666532126
 20
278.442778208
  0
VERTEX
  8
SURFACE
 62
7
  6
CONTINUOUS
 10
387.8598955628
 20
278.4562382096
  0
VERTEX
  8
SURFACE
 62
7
  6
CONTINUOUS
 10
387.8531766828
 20
278.4702917193
  0
SEQEND
  0
POLYLINE
  8
SURFACE
 62
7
  6
CONTINUOUS
 66
1
 70
0
  0
VERTEX
  8
SURFACE
 62
7
  6
CONTINUOUS
 10
387.5056527645
 20
103.0823454566
  0
VERTEX
  8
SURFACE
 62
7
  6
CONTINUOUS
 10
387.5179522569
 20
103.1202673893
  0
VERTEX
  8
SURFACE
 62
7
  6
CONTINUOUS
 10
387.5301190562
 20
103.1592970127
  0
VERTEX
  8
SURFACE
 62
7
  6
CONTINUOUS
 10
387.5422177856
 20
103.1996042607
  0
VERTEX
  8
SURFACE
 62
7
  6
CONTINUOUS
 10
387.5542922716
 20
103.2413109811
  0
VERTEX
  8
SURFACE
 62
7
  6
CONTINUOUS
 10
387.566387844
 20
103.2845597464
  0
VERTEX
  8
SURFACE
 62
7
  6
CONTINUOUS
 10
387.5785372173
 20
103.3294621448
  0
VERTEX
  8
SURFACE
 62
7
  6
CONTINUOUS
 10
387.5907715169
 20
103.3761348254
  0
VERTEX
  8
SURFACE
 62
7
  6
CONTINUOUS
 10
387.6031217509
 20
103.4247048641
  0
VERTEX
  8
SURFACE
 62
7
  6
CONTINUOUS
 10
387.6156161674
 20
103.47529907
  0
VERTEX
  8
SURFACE
 62
7
  6
CONTINUOUS
 10
387.6282814204
 20
103.5280470156
  0
VERTEX
  8
SURFACE
 62
7
  6
CONTINUOUS
 10
387.6411436686
 20
103.5830852046
  0
VERTEX
  8
SURFACE
 62
7
  6
CONTINUOUS
 10
387.6542243522
 20
103.6405384226
  0
VERTEX
  8
SURFACE
 62
7
  6
CONTINUOUS
 10
387.6675457375
 20
103.7005424418
  0
VERTEX
  8
SURFACE
 62
7
  6
CONTINUOUS
 10
387.6811259276
 20
103.7632208631
  0
VERTEX
  8
SURFACE
 62
7
  6
CONTINUOUS
 10
387.6949844108
 20
103.8287091485
  0
VERTEX
  8
SURFACE
 62
7
  6
CONTINUOUS
 10
387.7235944448
 20
103.9685906533
  0
SEQEND
  0
POLYLINE
  8
SURFACE
 62
7
  6
CONTINUOUS
 66
1
 70
0
  0
VERTEX
  8
SURFACE
 62
7
  6
CONTINUOUS
 10
379.628085304
 20
280.0737307583
  0
VERTEX
  8
SURFACE
 62
7
  6
CONTINUOUS
 10
379.5746365037
 20
280.0723013488
  0
VERTEX
  8
SURFACE
 62
7
  6
CONTINUOUS
 10
379.5219099426
 20
280.0680781788
  0
VERTEX
  8
SURFACE
 62
7
  6
CONTINUOUS
 10
379.4698086582
 20
280.0611255645
  0
VERTEX
  8
SURFACE
 62
7
  6
CONTINUOUS
 10
379.4183784076
 20
280.0514950538
  0
VERTEX
  8
SURFACE
 62
7
  6
CONTINUOUS
 10
379.367618401
 20
280.0392135351
  0
VERTEX
  8
SURFACE
 62
7
  6
CONTINUOUS
 10
379.3176839694
 20
280.0243363608
  0
VERTEX
  8
SURFACE
 62
7
  6
CONTINUOUS
 10
379.2686416379
 20
280.0068975444
  0
VERTEX
  8
SURFACE
 62
7
  6
CONTINUOUS
 10
379.2208825165
 20
279.9870685325
  0
VERTEX
  8
SURFACE
 62
7
  6
CONTINUOUS
 10
379.1750714341
 20
279.9652342261
  0
VERTEX
  8
SURFACE
 62
7
  6
CONTINUOUS
 10
379.1305179628
 20
279.9411561101
  0
VERTEX
  8
SURFACE
 62
7
  6
CONTINUOUS
 10
379.086525041
 20
279.9143926885
  0
VERTEX
  8
SURFACE
 62
7
  6
CONTINUOUS
 10
379.0440180192
 20
279.8854360046
  0
VERTEX
  8
SURFACE
 62
7
  6
CONTINUOUS
 10
379.0038532385
 20
279.8549697281
  0
VERTEX
  8
SURFACE
 62
7
  6
CONTINUOUS
 10
378.9653930076
 20
279.822622553
  0
VERTEX
  8
SURFACE
 62
7
  6
CONTINUOUS
 10
378.9282063831
 20
279.7879922622
  0
VERTEX
  8
SURFACE
 62
7
  6
CONTINUOUS
 10
378.8927791588
 20
279.7514658635
  0
VERTEX
  8
SURFACE
 62
7
  6
CONTINUOUS
 10
378.8594738018
 20
279.7134466004
  0
VERTEX
  8
SURFACE
 62
7
  6
CONTINUOUS
 10
378.8281062824
 20
279.6737587285
  0
VERTEX
  8
SURFACE
 62
7
  6
CONTINUOUS
 10
378.7985558527
 20
279.6321937288
  0
VERTEX
  8
SURFACE
 62
7
  6
CONTINUOUS
 10
378.7711370532
 20
279.5891332179
  0
VERTEX
  8
SURFACE
 62
7
  6
CONTINUOUS
 10
378.746148418
 20
279.5450982677
  0
VERTEX
  8
SURFACE
 62
7
  6
CONTINUOUS
 10
378.7227858116
 20
279.4985046146
  0
SEQEND
  0
LINE
  8
SURFACE
 62
7
  6
CONTINUOUS
 10
386.465972073
 20
280.0737307583
 11
379.628085304
 21
280.0737307583
  0
POLYLINE
  8
SURFACE
 62
7
  6
CONTINUOUS
 66
1
 70
0
  0
VERTEX
  8
SURFACE
 62
7
  6
CONTINUOUS
 10
379.0470286885
 20
301.274326029
  0
VERTEX
  8
SURFACE
 62
7
  6
CONTINUOUS
 10
378.9371698132
 20
301.3691767955
  0
VERTEX
  8
SURFACE
 62
7
  6
CONTINUOUS
 10
378.8324415455
 20
301.4619801301
  0
VERTEX
  8
SURFACE
 62
7
  6
CONTINUOUS
 10
378.732133434
 20
301.5530547411
  0
VERTEX
  8
SURFACE
 62
7
  6
CONTINUOUS
 10
378.6383768329
 20
301.6414445041
  0
VERTEX
  8
SURFACE
 62
7
  6
CONTINUOUS
 10
378.5533308937
 20
301.726123554
  0
VERTEX
  8
SURFACE
 62
7
  6
CONTINUOUS
 10
378.4762017741
 20
301.8076198207
  0
VERTEX
  8
SURFACE
 62
7
  6
CONTINUOUS
 10
378.4070975849
 20
301.8860472724
  0
VERTEX
  8
SURFACE
 62
7
  6
CONTINUOUS
 10
378.3454716191
 20
301.961621929
  0
VERTEX
  8
SURFACE
 62
7
  6
CONTINUOUS
 10
378.2909254336
 20
302.034632211
  0
VERTEX
  8
SURFACE
 62
7
  6
CONTINUOUS
 10
378.2431223467
 20
302.1049748836
  0
VERTEX
  8
SURFACE
 62
7
  6
CONTINUOUS
 10
378.2017606563
 20
302.1725993365
  0
VERTEX
  8
SURFACE
 62
7
  6
CONTINUOUS
 10
378.1663369806
 20
302.2376361157
  0
VERTEX
  8
SURFACE
 62
7
  6
CONTINUOUS
 10
378.1364040592
 20
302.3000834787
  0
VERTEX
  8
SURFACE
 62
7
  6
CONTINUOUS
 10
378.1114918249
 20
302.3602876814
  0
VERTEX
  8
SURFACE
 62
7
  6
CONTINUOUS
 10
378.0910653731
 20
302.4185178665
  0
VERTEX
  8
SURFACE
 62
7
  6
CONTINUOUS
 10
378.0748719558
 20
302.475003632
  0
VERTEX
  8
SURFACE
 62
7
  6
CONTINUOUS
 10
378.0625216732
 20
302.5299689993
  0
VERTEX
  8
SURFACE
 62
7
  6
CONTINUOUS
 10
378.0538910759
 20
302.5836998416
  0
VERTEX
  8
SURFACE
 62
7
  6
CONTINUOUS
 10
378.0486950706
 20
302.6366017739
  0
VERTEX
  8
SURFACE
 62
7
  6
CONTINUOUS
 10
378.0470286885
 20
302.6885395914
  0
SEQEND
  0
LINE
  8
0
 62
7
  6
CONTINUOUS
 10
374.5607679608
 20
335.4879765584
 11
374.5606692353
 21
335.488105833
  0
POLYLINE
  8
SURFACE
 62
7
  6
CONTINUOUS
 66
1
 70
0
  0
VERTEX
  8
SURFACE
 62
7
  6
CONTINUOUS
 10
387.2606722969
 20
102.5875129672
  0
VERTEX
  8
SURFACE
 62
7
  6
CONTINUOUS
 10
387.2796708014
 20
102.6130890095
  0
VERTEX
  8
SURFACE
 62
7
  6
CONTINUOUS
 10
387.3062391068
 20
102.6513859229
  0
VERTEX
  8
SURFACE
 62
7
  6
CONTINUOUS
 10
387.3304132909
 20
102.6890992644
  0
VERTEX
  8
SURFACE
 62
7
  6
CONTINUOUS
 10
387.3524619439
 20
102.7261845286
  0
VERTEX
  8
SURFACE
 62
7
  6
CONTINUOUS
 10
387.3726012647
 20
102.7625652948
  0
VERTEX
  8
SURFACE
 62
7
  6
CONTINUOUS
 10
387.3911241631
 20
102.7983667624
  0
VERTEX
  8
SURFACE
 62
7
  6
CONTINUOUS
 10
387.4082575669
 20
102.8336704274
  0
VERTEX
  8
SURFACE
 62
7
  6
CONTINUOUS
 10
387.4242441851
 20
102.868665152
  0
VERTEX
  8
SURFACE
 62
7
  6
CONTINUOUS
 10
387.4392915043
 20
102.9035433856
  0
VERTEX
  8
SURFACE
 62
7
  6
CONTINUOUS
 10
387.4535660741
 20
102.9384710846
  0
VERTEX
  8
SURFACE
 62
7
  6
CONTINUOUS
 10
387.4672185232
 20
102.9736329141
  0
VERTEX
  8
SURFACE
 62
7
  6
CONTINUOUS
 10
387.4803767478
 20
103.0092075036
  0
VERTEX
  8
SURFACE
 62
7
  6
CONTINUOUS
 10
387.493157398
 20
103.0453895578
  0
VERTEX
  8
SURFACE
 62
7
  6
CONTINUOUS
 10
387.5056527645
 20
103.0823454566
  0
SEQEND
  0
LINE
  8
SURFACE
 62
7
  6
CONTINUOUS
 10
387.2606680821
 20
102.5875074113
 11
387.2608668568
 21
102.5877677376
  0
POLYLINE
  8
SURFACE
 62
7
  6
CONTINUOUS
 66
1
 70
0
  0
VERTEX
  8
SURFACE
 62
7
  6
CONTINUOUS
 10
378.3799602412
 20
121.2905113334
  0
VERTEX
  8
SURFACE
 62
7
  6
CONTINUOUS
 10
378.4339429834
 20
121.339774793
  0
VERTEX
  8
SURFACE
 62
7
  6
CONTINUOUS
 10
378.491534333
 20
121.3940688896
  0
VERTEX
  8
SURFACE
 62
7
  6
CONTINUOUS
 10
378.5525679498
 20
121.453740955
  0
VERTEX
  8
SURFACE
 62
7
  6
CONTINUOUS
 10
378.6166970754
 20
121.5186746265
  0
VERTEX
  8
SURFACE
 62
7
  6
CONTINUOUS
 10
378.6835202641
 20
121.5888111834
  0
VERTEX
  8
SURFACE
 62
7
  6
CONTINUOUS
 10
378.7527874366
 20
121.6641790626
  0
VERTEX
  8
SURFACE
 62
7
  6
CONTINUOUS
 10
378.8242124522
 20
121.7448251146
  0
VERTEX
  8
SURFACE
 62
7
  6
CONTINUOUS
 10
378.8973549612
 20
121.8305704155
  0
VERTEX
  8
SURFACE
 62
7
  6
CONTINUOUS
 10
378.9717539436
 20
121.921113043
  0
VERTEX
  8
SURFACE
 62
7
  6
CONTINUOUS
 10
379.0470286885
 20
122.0167000503
  0
SEQEND
  0
POLYLINE
  8
SURFACE
 62
7
  6
CONTINUOUS
 66
1
 70
0
  0
VERTEX
  8
SURFACE
 62
7
  6
CONTINUOUS
 10
387.2608668568
 20
102.5877677376
  0
VERTEX
  8
SURFACE
 62
7
  6
CONTINUOUS
 10
387.2263089654
 20
102.5449861192
  0
VERTEX
  8
SURFACE
 62
7
  6
CONTINUOUS
 10
387.1882923251
 20
102.5029563218
  0
VERTEX
  8
SURFACE
 62
7
  6
CONTINUOUS
 10
387.1480910367
 20
102.4632738148
  0
VERTEX
  8
SURFACE
 62
7
  6
CONTINUOUS
 10
387.1048965031
 20
102.4252455274
  0
VERTEX
  8
SURFACE
 62
7
  6
CONTINUOUS
 10
387.0593382651
 20
102.3895823887
  0
VERTEX
  8
SURFACE
 62
7
  6
CONTINUOUS
 10
387.0115753349
 20
102.3564714311
  0
VERTEX
  8
SURFACE
 62
7
  6
CONTINUOUS
 10
386.9623288205
 20
102.3263963896
  0
VERTEX
  8
SURFACE
 62
7
  6
CONTINUOUS
 10
386.9122428733
 20
102.2996170659
  0
VERTEX
  8
SURFACE
 62
7
  6
CONTINUOUS
 10
386.8617130812
 20
102.2761528745
  0
VERTEX
  8
SURFACE
 62
7
  6
CONTINUOUS
 10
386.8112000362
 20
102.2559961718
  0
VERTEX
  8
SURFACE
 62
7
  6
CONTINUOUS
 10
386.7608914177
 20
102.2389928826
  0
VERTEX
  8
SURFACE
 62
7
  6
CONTINUOUS
 10
386.7110791493
 20
102.2250190192
  0
VERTEX
  8
SURFACE
 62
7
  6
CONTINUOUS
 10
386.6616090722
 20
102.213838652
  0
VERTEX
  8
SURFACE
 62
7
  6
CONTINUOUS
 10
386.6123256223
 20
102.205282685
  0
VERTEX
  8
SURFACE
 62
7
  6
CONTINUOUS
 10
386.5633025951
 20
102.1992629196
  0
VERTEX
  8
SURFACE
 62
7
  6
CONTINUOUS
 10
386.5146063678
 20
102.1956983808
  0
VERTEX
  8
SURFACE
 62
7
  6
CONTINUOUS
 10
386.465972073
 20
102.1945150331
  0
SEQEND
  0
POLYLINE
  8
0
 62
7
  6
CONTINUOUS
 66
1
 70
0
  0
VERTEX
  8
0
 62
7
  6
CONTINUOUS
 10
366.6688887106
 20
304.7000947489
  0
VERTEX
  8
0
 62
7
  6
CONTINUOUS
 10
366.6066863407
 20
304.6982942872
  0
VERTEX
  8
0
 62
7
  6
CONTINUOUS
 10
366.5451424689
 20
304.692952789
  0
VERTEX
  8
0
 62
7
  6
CONTINUOUS
 10
366.4840219339
 20
304.6840971688
  0
VERTEX
  8
0
 62
7
  6
CONTINUOUS
 10
366.4236273005
 20
304.6717928711
  0
VERTEX
  8
0
 62
7
  6
CONTINUOUS
 10
366.3642761398
 20
304.6561504087
  0
VERTEX
  8
0
 62
7
  6
CONTINUOUS
 10
366.3062492445
 20
304.637314914
  0
VERTEX
  8
0
 62
7
  6
CONTINUOUS
 10
366.2498408214
 20
304.6154803677
  0
VERTEX
  8
0
 62
7
  6
CONTINUOUS
 10
366.1952898689
 20
304.5908663994
  0
VERTEX
  8
0
 62
7
  6
CONTINUOUS
 10
366.142858062
 20
304.5637500201
  0
VERTEX
  8
0
 62
7
  6
CONTINUOUS
 10
366.0927589961
 20
304.5344371982
  0
VERTEX
  8
0
 62
7
  6
CONTINUOUS
 10
366.0451333427
 20
304.5032379355
  0
VERTEX
  8
0
 62
7
  6
CONTINUOUS
 10
366.0001081599
 20
304.4704942499
  0
VERTEX
  8
0
 62
7
  6
CONTINUOUS
 10
365.9576923249
 20
304.4364956422
  0
VERTEX
  8
0
 62
7
  6
CONTINUOUS
 10
365.9178970278
 20
304.4015521445
  0
VERTEX
  8
0
 62
7
  6
CONTINUOUS
 10
365.8806489253
 20
304.3659143747
  0
VERTEX
  8
0
 62
7
  6
CONTINUOUS
 10
365.8458981891
 20
304.3298606381
  0
VERTEX
  8
0
 62
7
  6
CONTINUOUS
 10
365.8134630997
 20
304.2935286482
  0
VERTEX
  8
0
 62
7
  6
CONTINUOUS
 10
365.7832071978
 20
304.2570824021
  0
VERTEX
  8
0
 62
7
  6
CONTINUOUS
 10
365.7549234691
 20
304.2205761296
  0
VERTEX
  8
0
 62
7
  6
CONTINUOUS
 10
365.7284388936
 20
304.1840707357
  0
VERTEX
  8
0
 62
7
  6
CONTINUOUS
 10
365.7035602872
 20
304.1475643084
  0
VERTEX
  8
0
 62
7
  6
CONTINUOUS
 10
365.6801255254
 20
304.1110625282
  0
VERTEX
  8
0
 62
7
  6
CONTINUOUS
 10
365.6579437076
 20
304.0744882859
  0
VERTEX
  8
0
 62
7
  6
CONTINUOUS
 10
365.6368586977
 20
304.0377787621
  0
VERTEX
  8
0
 62
7
  6
CONTINUOUS
 10
365.6166950089
 20
304.0007966275
  0
VERTEX
  8
0
 62
7
  6
CONTINUOUS
 10
365.5972952843
 20
303.963392151
  0
VERTEX
  8
0
 62
7
  6
CONTINUOUS
 10
365.5785361131
 20
303.9254417463
  0
VERTEX
  8
0
 62
7
  6
CONTINUOUS
 10
365.5602951212
 20
303.886790608
  0
VERTEX
  8
0
 62
7
  6
CONTINUOUS
 10
365.5424769666
 20
303.8473101159
  0
VERTEX
  8
0
 62
7
  6
CONTINUOUS
 10
365.5249879332
 20
303.8068488347
  0
VERTEX
  8
0
 62
7
  6
CONTINUOUS
 10
365.5077495464
 20
303.7652651719
  0
VERTEX
  8
0
 62
7
  6
CONTINUOUS
 10
365.4906853157
 20
303.7223994968
  0
VERTEX
  8
0
 62
7
  6
CONTINUOUS
 10
365.4737324242
 20
303.6781050526
  0
VERTEX
  8
0
 62
7
  6
CONTINUOUS
 10
365.4568288913
 20
303.6322186719
  0
VERTEX
  8
0
 62
7
  6
CONTINUOUS
 10
365.4399233841
 20
303.5845879209
  0
VERTEX
  8
0
 62
7
  6
CONTINUOUS
 10
365.4229538707
 20
303.535011937
  0
VERTEX
  8
0
 62
7
  6
CONTINUOUS
 10
365.4094439017
 20
303.4942706971
  0
SEQEND
  0
POLYLINE
  8
SURFACE
 62
7
  6
CONTINUOUS
 66
1
 70
0
  0
VERTEX
  8
SURFACE
 62
7
  6
CONTINUOUS
 10
379.0470286885
 20
325.7814420779
  0
VERTEX
  8
SURFACE
 62
7
  6
CONTINUOUS
 10
378.9371698132
 20
325.8327749428
  0
VERTEX
  8
SURFACE
 62
7
  6
CONTINUOUS
 10
378.8324415455
 20
325.8829997456
  0
VERTEX
  8
SURFACE
 62
7
  6
CONTINUOUS
 10
378.732133434
 20
325.9322889699
  0
VERTEX
  8
SURFACE
 62
7
  6
CONTINUOUS
 10
378.6383768329
 20
325.9801251649
  0
VERTEX
  8
SURFACE
 62
7
  6
CONTINUOUS
 10
378.5533308937
 20
326.0259531365
  0
VERTEX
  8
SURFACE
 62
7
  6
CONTINUOUS
 10
378.4762017741
 20
326.0700585982
  0
VERTEX
  8
SURFACE
 62
7
  6
CONTINUOUS
 10
378.4070975849
 20
326.1125032292
  0
VERTEX
  8
SURFACE
 62
7
  6
CONTINUOUS
 10
378.3454716191
 20
326.1534039386
  0
VERTEX
  8
SURFACE
 62
7
  6
CONTINUOUS
 10
378.2909254336
 20
326.1929168185
  0
VERTEX
  8
SURFACE
 62
7
  6
CONTINUOUS
 10
378.2431223467
 20
326.2309859986
  0
VERTEX
  8
SURFACE
 62
7
  6
CONTINUOUS
 10
378.2017606563
 20
326.2675840888
  0
VERTEX
  8
SURFACE
 62
7
  6
CONTINUOUS
 10
378.1663369806
 20
326.3027817401
  0
VERTEX
  8
SURFACE
 62
7
  6
CONTINUOUS
 10
378.1364040591
 20
326.3365780094
  0
VERTEX
  8
SURFACE
 62
7
  6
CONTINUOUS
 10
378.1114918249
 20
326.3691602891
  0
VERTEX
  8
SURFACE
 62
7
  6
CONTINUOUS
 10
378.0910653731
 20
326.4006742382
  0
VERTEX
  8
SURFACE
 62
7
  6
CONTINUOUS
 10
378.0748719558
 20
326.4312441142
  0
VERTEX
  8
SURFACE
 62
7
  6
CONTINUOUS
 10
378.0625216732
 20
326.4609911566
  0
VERTEX
  8
SURFACE
 62
7
  6
CONTINUOUS
 10
378.0538910759
 20
326.4900700789
  0
VERTEX
  8
SURFACE
 62
7
  6
CONTINUOUS
 10
378.0486950706
 20
326.5187003984
  0
VERTEX
  8
SURFACE
 62
7
  6
CONTINUOUS
 10
378.0470286885
 20
326.5468089427
  0
SEQEND
  0
POLYLINE
  8
SURFACE
 62
7
  6
CONTINUOUS
 66
1
 70
0
  0
VERTEX
  8
SURFACE
 62
7
  6
CONTINUOUS
 10
379.628085304
 20
319.835076935
  0
VERTEX
  8
SURFACE
 62
7
  6
CONTINUOUS
 10
379.5753320317
 20
319.8336845117
  0
VERTEX
  8
SURFACE
 62
7
  6
CONTINUOUS
 10
379.5228041599
 20
319.8295194325
  0
VERTEX
  8
SURFACE
 62
7
  6
CONTINUOUS
 10
379.4706028646
 20
319.8225987228
  0
VERTEX
  8
SURFACE
 62
7
  6
CONTINUOUS
 10
379.4188797289
 20
319.8129486175
  0
VERTEX
  8
SURFACE
 62
7
  6
CONTINUOUS
 10
379.3677622802
 20
319.800598516
  0
VERTEX
  8
SURFACE
 62
7
  6
CONTINUOUS
 10
379.3174210117
 20
319.7855966337
  0
VERTEX
  8
SURFACE
 62
7
  6
CONTINUOUS
 10
379.268061584
 20
319.768020085
  0
VERTEX
  8
SURFACE
 62
7
  6
CONTINUOUS
 10
379.2196937133
 20
319.7478837649
  0
VERTEX
  8
SURFACE
 62
7
  6
CONTINUOUS
 10
379.1722899996
 20
319.7251615605
  0
VERTEX
  8
SURFACE
 62
7
  6
CONTINUOUS
 10
379.1261957683
 20
319.700008663
  0
VERTEX
  8
SURFACE
 62
7
  6
CONTINUOUS
 10
379.0817723055
 20
319.6726580402
  0
VERTEX
  8
SURFACE
 62
7
  6
CONTINUOUS
 10
379.0388631729
 20
319.6430480237
  0
VERTEX
  8
SURFACE
 62
7
  6
CONTINUOUS
 10
378.997354437
 20
319.6110785931
  0
VERTEX
  8
SURFACE
 62
7
  6
CONTINUOUS
 10
378.957567981
 20
319.5769708086
  0
VERTEX
  8
SURFACE
 62
7
  6
CONTINUOUS
 10
378.9197679686
 20
319.540971086
  0
VERTEX
  8
SURFACE
 62
7
  6
CONTINUOUS
 10
378.8839136423
 20
319.5030653615
  0
VERTEX
  8
SURFACE
 62
7
  6
CONTINUOUS
 10
378.8500193016
 20
319.4632594689
  0
VERTEX
  8
SURFACE
 62
7
  6
CONTINUOUS
 10
378.8182298766
 20
319.421706449
  0
VERTEX
  8
SURFACE
 62
7
  6
CONTINUOUS
 10
378.7886523073
 20
319.3785401298
  0
VERTEX
  8
SURFACE
 62
7
  6
CONTINUOUS
 10
378.7613718009
 20
319.3338832135
  0
VERTEX
  8
SURFACE
 62
7
  6
CONTINUOUS
 10
378.7364858539
 20
319.2879018688
  0
VERTEX
  8
SURFACE
 62
7
  6
CONTINUOUS
 10
378.7140201082
 20
319.2406442141
  0
VERTEX
  8
SURFACE
 62
7
  6
CONTINUOUS
 10
378.6940028746
 20
319.1921343745
  0
VERTEX
  8
SURFACE
 62
7
  6
CONTINUOUS
 10
378.6765484121
 20
319.1426115564
  0
VERTEX
  8
SURFACE
 62
7
  6
CONTINUOUS
 10
378.6617441888
 20
319.0923410971
  0
VERTEX
  8
SURFACE
 62
7
  6
CONTINUOUS
 10
378.6495859091
 20
319.0413266238
  0
VERTEX
  8
SURFACE
 62
7
  6
CONTINUOUS
 10
378.6434123118
 20
319.0094876517
  0
SEQEND
  0
LINE
  8
SURFACE
 62
7
  6
CONTINUOUS
 10
398.8970286885
 20
319.037807377
 11
390.0470286885
 21
319.037807377
  0
LINE
  8
0
 62
7
  6
CONTINUOUS
 10
354.4970286885
 20
319.037807377
 11
363.3470286885
 21
319.037807377
  0
LINE
  8
SURFACE
 62
7
  6
CONTINUOUS
 10
386.465972073
 20
319.835076935
 11
379.628085304
 21
319.835076935
  0
LINE
  8
0
 62
7
  6
CONTINUOUS
 10
375.0373008822
 20
334.037807377
 11
378.0470286885
 21
334.037807377
  0
POLYLINE
  8
0
 62
7
  6
CONTINUOUS
 66
1
 70
0
  0
VERTEX
  8
0
 62
7
  6
CONTINUOUS
 10
373.765972073
 20
335.881099721
  0
VERTEX
  8
0
 62
7
  6
CONTINUOUS
 10
373.8118150624
 20
335.880048378
  0
VERTEX
  8
0
 62
7
  6
CONTINUOUS
 10
373.8571225933
 20
335.8769368475
  0
VERTEX
  8
0
 62
7
  6
CONTINUOUS
 10
373.9020788542
 20
335.8717938938
  0
VERTEX
  8
0
 62
7
  6
CONTINUOUS
 10
373.9466956514
 20
335.8646336493
  0
VERTEX
  8
0
 62
7
  6
CONTINUOUS
 10
373.9909315216
 20
335.8554678477
  0
VERTEX
  8
0
 62
7
  6
CONTINUOUS
 10
374.0349940539
 20
335.8442337582
  0
VERTEX
  8
0
 62
7
  6
CONTINUOUS
 10
374.0790255633
 20
335.8308352169
  0
VERTEX
  8
0
 62
7
  6
CONTINUOUS
 10
374.1230267592
 20
335.8151832028
  0
VERTEX
  8
0
 62
7
  6
CONTINUOUS
 10
374.1673163896
 20
335.7970269762
  0
VERTEX
  8
0
 62
7
  6
CONTINUOUS
 10
374.210906396
 20
335.7766629226
  0
VERTEX
  8
0
 62
7
  6
CONTINUOUS
 10
374.2526260286
 20
335.7546945509
  0
VERTEX
  8
0
 62
7
  6
CONTINUOUS
 10
374.2932541662
 20
335.7307900141
  0
VERTEX
  8
0
 62
7
  6
CONTINUOUS
 10
374.333286954
 20
335.7046006776
  0
VERTEX
  8
0
 62
7
  6
CONTINUOUS
 10
374.3722022082
 20
335.6763889911
  0
VERTEX
  8
0
 62
7
  6
CONTINUOUS
 10
374.4097503161
 20
335.6463118312
  0
VERTEX
  8
0
 62
7
  6
CONTINUOUS
 10
374.4456099172
 20
335.6146475386
  0
VERTEX
  8
0
 62
7
  6
CONTINUOUS
 10
374.4791605351
 20
335.5820720574
  0
VERTEX
  8
0
 62
7
  6
CONTINUOUS
 10
374.5111977815
 20
335.547912021
  0
VERTEX
  8
0
 62
7
  6
CONTINUOUS
 10
374.5425130523
 20
335.5111664688
  0
VERTEX
  8
0
 62
7
  6
CONTINUOUS
 10
374.5607679608
 20
335.4879765584
  0
SEQEND
  0
POLYLINE
  8
SURFACE
 62
7
  6
CONTINUOUS
 66
1
 70
0
  0
VERTEX
  8
SURFACE
 62
7
  6
CONTINUOUS
 10
379.628085304
 20
344.4031934861
  0
VERTEX
  8
SURFACE
 62
7
  6
CONTINUOUS
 10
379.5754765473
 20
344.4018086866
  0
VERTEX
  8
SURFACE
 62
7
  6
CONTINUOUS
 10
379.5230169815
 20
344.3976584918
  0
VERTEX
  8
SURFACE
 62
7
  6
CONTINUOUS
 10
379.4708492412
 20
344.3907545326
  0
VERTEX
  8
SURFACE
 62
7
  6
CONTINUOUS
 10
379.4191194683
 20
344.3811164276
  0
VERTEX
  8
SURFACE
 62
7
  6
CONTINUOUS
 10
379.3679721249
 20
344.3687716207
  0
VERTEX
  8
SURFACE
 62
7
  6
CONTINUOUS
 10
379.3175475303
 20
344.3537545262
  0
VERTEX
  8
SURFACE
 62
7
  6
CONTINUOUS
 10
379.2679852255
 20
344.3361071656
  0
VERTEX
  8
SURFACE
 62
7
  6
CONTINUOUS
 10
379.2194203681
 20
344.3158779716
  0
VERTEX
  8
SURFACE
 62
7
  6
CONTINUOUS
 10
379.1719840419
 20
344.2931213701
  0
VERTEX
  8
SURFACE
 62
7
  6
CONTINUOUS
 10
379.1258125777
 20
344.2679027484
  0
VERTEX
  8
SURFACE
 62
7
  6
CONTINUOUS
 10
379.0810407144
 20
344.2402969546
  0
VERTEX
  8
SURFACE
 62
7
  6
CONTINUOUS
 10
379.0377818189
 20
344.2103748755
  0
VERTEX
  8
SURFACE
 62
7
  6
CONTINUOUS
 10
378.9961445111
 20
344.1782101531
  0
VERTEX
  8
SURFACE
 62
7
  6
CONTINUOUS
 10
378.9562579248
 20
344.1439012372
  0
VERTEX
  8
SURFACE
 62
7
  6
CONTINUOUS
 10
378.9182454381
 20
344.1075565777
  0
VERTEX
  8
SURFACE
 62
7
  6
CONTINUOUS
 10
378.8821971845
 20
344.0692647384
  0
VERTEX
  8
SURFACE
 62
7
  6
CONTINUOUS
 10
378.8482019601
 20
344.0291183776
  0
VERTEX
  8
SURFACE
 62
7
  6
CONTINUOUS
 10
378.8163636393
 20
343.9872379527
  0
VERTEX
  8
SURFACE
 62
7
  6
CONTINUOUS
 10
378.7867765131
 20
343.9437483105
  0
VERTEX
  8
SURFACE
 62
7
  6
CONTINUOUS
 10
378.7595171425
 20
343.8987632074
  0
VERTEX
  8
SURFACE
 62
7
  6
CONTINUOUS
 10
378.7346585292
 20
343.8524023441
  0
VERTEX
  8
SURFACE
 62
7
  6
CONTINUOUS
 10
378.7122711341
 20
343.8047957846
  0
VERTEX
  8
SURFACE
 62
7
  6
CONTINUOUS
 10
378.6924174662
 20
343.7560754739
  0
VERTEX
  8
SURFACE
 62
7
  6
CONTINUOUS
 10
378.6751531942
 20
343.7063772489
  0
VERTEX
  8
SURFACE
 62
7
  6
CONTINUOUS
 10
378.6605270219
 20
343.6558414046
  0
VERTEX
  8
SURFACE
 62
7
  6
CONTINUOUS
 10
378.6485783502
 20
343.6046038319
  0
VERTEX
  8
SURFACE
 62
7
  6
CONTINUOUS
 10
378.6393400754
 20
343.5528025527
  0
VERTEX
  8
SURFACE
 62
7
  6
CONTINUOUS
 10
378.6352497976
 20
343.5226826368
  0
SEQEND
  0
POLYLINE
  8
SURFACE
 62
7
  6
CONTINUOUS
 66
1
 70
0
  0
VERTEX
  8
SURFACE
 62
7
  6
CONTINUOUS
 10
379.628085304
 20
350.037807377
  0
VERTEX
  8
SURFACE
 62
7
  6
CONTINUOUS
 10
379.5751479462
 20
350.036405212
  0
VERTEX
  8
SURFACE
 62
7
  6
CONTINUOUS
 10
379.5225520962
 20
350.0322231563
  0
VERTEX
  8
SURFACE
 62
7
  6
CONTINUOUS
 10
379.4703621183
 20
350.0252907423
  0
VERTEX
  8
SURFACE
 62
7
  6
CONTINUOUS
 10
379.4186773866
 20
350.0156357486
  0
VERTEX
  8
SURFACE
 62
7
  6
CONTINUOUS
 10
379.3675146513
 20
350.0032621584
  0
VERTEX
  8
SURFACE
 62
7
  6
CONTINUOUS
 10
379.3172036779
 20
349.9882560156
  0
VERTEX
  8
SURFACE
 62
7
  6
CONTINUOUS
 10
379.2681441095
 20
349.9707823695
  0
VERTEX
  8
SURFACE
 62
7
  6
CONTINUOUS
 10
379.2201233572
 20
349.9508063091
  0
VERTEX
  8
SURFACE
 62
7
  6
CONTINUOUS
 10
379.1729405825
 20
349.9282248535
  0
VERTEX
  8
SURFACE
 62
7
  6
CONTINUOUS
 10
379.1270438778
 20
349.9032306777
  0
VERTEX
  8
SURFACE
 62
7
  6
CONTINUOUS
 10
379.0828407495
 20
349.8760844051
  0
VERTEX
  8
SURFACE
 62
7
  6
CONTINUOUS
 10
379.0401826618
 20
349.8467390696
  0
VERTEX
  8
SURFACE
 62
7
  6
CONTINUOUS
 10
378.9990333851
 20
349.8151706662
  0
VERTEX
  8
SURFACE
 62
7
  6
CONTINUOUS
 10
378.9595411227
 20
349.7814798033
  0
VERTEX
  8
SURFACE
 62
7
  6
CONTINUOUS
 10
378.9217728009
 20
349.7457075451
  0
VERTEX
  8
SURFACE
 62
7
  6
CONTINUOUS
 10
378.8859476527
 20
349.7080548735
  0
VERTEX
  8
SURFACE
 62
7
  6
CONTINUOUS
 10
378.8523331871
 20
349.6688451359
  0
VERTEX
  8
SURFACE
 62
7
  6
CONTINUOUS
 10
378.8207542361
 20
349.6279061373
  0
VERTEX
  8
SURFACE
 62
7
  6
CONTINUOUS
 10
378.7910541548
 20
349.5849626158
  0
VERTEX
  8
SURFACE
 62
7
  6
CONTINUOUS
 10
378.7636253607
 20
349.5405090842
  0
VERTEX
  8
SURFACE
 62
7
  6
CONTINUOUS
 10
378.7387959478
 20
349.4951523681
  0
VERTEX
  8
SURFACE
 62
7
  6
CONTINUOUS
 10
378.7163217346
 20
349.4485228424
  0
VERTEX
  8
SURFACE
 62
7
  6
CONTINUOUS
 10
378.6960584378
 20
349.4001965609
  0
VERTEX
  8
SURFACE
 62
7
  6
CONTINUOUS
 10
378.6783260036
 20
349.3507886404
  0
VERTEX
  8
SURFACE
 62
7
  6
CONTINUOUS
 10
378.6633258152
 20
349.300940668
  0
VERTEX
  8
SURFACE
 62
7
  6
CONTINUOUS
 10
378.650928224
 20
349.2503257079
  0
VERTEX
  8
SURFACE
 62
7
  6
CONTINUOUS
 10
378.6411160536
 20
349.19871635
  0
VERTEX
  8
SURFACE
 62
7
  6
CONTINUOUS
 10
378.6355108143
 20
349.1594457019
  0
SEQEND
  0
LINE
  8
0
 62
7
  6
CONTINUOUS
 10
366.928085304
 20
335.881099721
 11
373.765972073
 21
335.881099721
  0
LINE
  8
SURFACE
 62
7
  6
CONTINUOUS
 10
386.465972073
 20
344.4031934861
 11
379.628085304
 21
344.4031934861
  0
LINE
  8
SURFACE
 62
7
  6
CONTINUOUS
 10
386.465972073
 20
350.037807377
 11
379.628085304
 21
350.037807377
  0
LINE
  8
0
 62
7
  6
CONTINUOUS
 10
366.928085304
 20
350.037807377
 11
373.765972073
 21
350.037807377
  0
POLYLINE
  8
0
 62
7
  6
CONTINUOUS
 66
1
 70
0
  0
VERTEX
  8
0
 62
7
  6
CONTINUOUS
 10
373.765972073
 20
350.037807377
  0
VERTEX
  8
0
 62
7
  6
CONTINUOUS
 10
373.8189094308
 20
350.036405212
  0
VERTEX
  8
0
 62
7
  6
CONTINUOUS
 10
373.8715052808
 20
350.0322231563
  0
VERTEX
  8
0
 62
7
  6
CONTINUOUS
 10
373.9236952587
 20
350.0252907423
  0
VERTEX
  8
0
 62
7
  6
CONTINUOUS
 10
373.9753799904
 20
350.0156357486
  0
VERTEX
  8
0
 62
7
  6
CONTINUOUS
 10
374.0265427257
 20
350.0032621584
  0
VERTEX
  8
0
 62
7
  6
CONTINUOUS
 10
374.0768536992
 20
349.9882560156
  0
VERTEX
  8
0
 62
7
  6
CONTINUOUS
 10
374.1259132675
 20
349.9707823695
  0
VERTEX
  8
0
 62
7
  6
CONTINUOUS
 10
374.1739340198
 20
349.9508063091
  0
VERTEX
  8
0
 62
7
  6
CONTINUOUS
 10
374.2211167945
 20
349.9282248535
  0
VERTEX
  8
0
 62
7
  6
CONTINUOUS
 10
374.2670134992
 20
349.9032306777
  0
VERTEX
  8
0
 62
7
  6
CONTINUOUS
 10
374.3112166276
 20
349.8760844051
  0
VERTEX
  8
0
 62
7
  6
CONTINUOUS
 10
374.3538747152
 20
349.8467390696
  0
VERTEX
  8
0
 62
7
  6
CONTINUOUS
 10
374.395023992
 20
349.8151706662
  0
VERTEX
  8
0
 62
7
  6
CONTINUOUS
 10
374.4345162544
 20
349.7814798033
  0
VERTEX
  8
0
 62
7
  6
CONTINUOUS
 10
374.4722845761
 20
349.7457075451
  0
VERTEX
  8
0
 62
7
  6
CONTINUOUS
 10
374.5081097243
 20
349.7080548735
  0
VERTEX
  8
0
 62
7
  6
CONTINUOUS
 10
374.5417241899
 20
349.6688451359
  0
VERTEX
  8
0
 62
7
  6
CONTINUOUS
 10
374.5733031409
 20
349.6279061373
  0
VERTEX
  8
0
 62
7
  6
CONTINUOUS
 10
374.6030032222
 20
349.5849626158
  0
VERTEX
  8
0
 62
7
  6
CONTINUOUS
 10
374.6304320164
 20
349.5405090842
  0
VERTEX
  8
0
 62
7
  6
CONTINUOUS
 10
374.6552614293
 20
349.4951523681
  0
VERTEX
  8
0
 62
7
  6
CONTINUOUS
 10
374.6777356425
 20
349.4485228424
  0
VERTEX
  8
0
 62
7
  6
CONTINUOUS
 10
374.6979989393
 20
349.4001965609
  0
VERTEX
  8
0
 62
7
  6
CONTINUOUS
 10
374.7157313735
 20
349.3507886404
  0
VERTEX
  8
0
 62
7
  6
CONTINUOUS
 10
374.7307315618
 20
349.300940668
  0
VERTEX
  8
0
 62
7
  6
CONTINUOUS
 10
374.7431291531
 20
349.2503257079
  0
VERTEX
  8
0
 62
7
  6
CONTINUOUS
 10
374.7529413235
 20
349.19871635
  0
VERTEX
  8
0
 62
7
  6
CONTINUOUS
 10
374.7585465627
 20
349.1594457019
  0
SEQEND
  0
ARC
  8
0
 62
7
  6
CONTINUOUS
 10
104.1074870166
 20
123.0232305935
 40
13.0
 50
145.0
 51
198.3743610157
  0
ARC
  8
SURFACE
 62
7
  6
CONTINUOUS
 10
80.7551978066
 20
146.3755198035
 40
13.0
 50
251.6256389843
 51
305.0
  0
ARC
  8
0
 62
7
  6
CONTINUOUS
 10
104.4941576209
 20
110.6997445673
 40
12.75
 50
67.5
 51
125.0
  0
ARC
  8
0
 62
7
  6
CONTINUOUS
 10
68.5366296408
 20
146.6051697333
 40
12.75
 50
45.0
 51
102.5
  0
ARC
  8
SURFACE
 62
7
  6
CONTINUOUS
 10
104.3371369464
 20
110.8046624277
 40
12.75
 50
347.5
 51
45.0
  0
ARC
  8
SURFACE
 62
7
  6
CONTINUOUS
 10
68.4317117804
 20
146.7621904078
 40
12.75
 50
325.0
 51
22.5
  0
ARC
  8
0
 62
7
  6
CONTINUOUS
 10
95.3110733975
 20
135.7406285533
 40
1.5
 50
325.0
 51
45.0
  0
ARC
  8
SURFACE
 62
7
  6
CONTINUOUS
 10
93.4725957664
 20
137.5791061844
 40
1.5
 50
45.0
 51
125.0
  0
ARC
  8
0
 62
7
  6
CONTINUOUS
 10
92.7192810397
 20
119.2405378191
 40
1.0
 50
198.3743610157
 51
305.0
  0
ARC
  8
SURFACE
 62
7
  6
CONTINUOUS
 10
76.9725050322
 20
134.9873138265
 40
1.0
 50
145.0
 51
251.6256389843
  0
ARC
  8
0
 62
7
  6
CONTINUOUS
 10
72.8953865149
 20
158.1385586761
 40
13.0
 50
122.5
 51
175.8743610157
  0
ARC
  8
0
 62
7
  6
CONTINUOUS
 10
57.497219974
 20
202.5252453204
 40
13.0
 50
100.0
 51
153.3743610157
  0
ARC
  8
SURFACE
 62
7
  6
CONTINUOUS
 10
60.2572186649
 20
188.649794903
 40
13.0
 50
229.1256389843
 51
282.5
  0
ARC
  8
0
 62
7
  6
CONTINUOUS
 10
49.0566168433
 20
193.537807377
 40
12.75
 50
22.5
 51
80.0
  0
ARC
  8
SURFACE
 62
7
  6
CONTINUOUS
 10
49.0197745902
 20
193.7230258913
 40
12.75
 50
302.5
 51
360.0
  0
ARC
  8
0
 62
7
  6
CONTINUOUS
 10
69.6352975147
 20
173.2541441143
 40
1.5
 50
302.5
 51
22.5
  0
ARC
  8
0
 62
7
  6
CONTINUOUS
 10
60.2697745902
 20
217.737807377
 40
1.5
 50
280.0
 51
360.0
  0
ARC
  8
SURFACE
 62
7
  6
CONTINUOUS
 10
68.6403205905
 20
175.6562308988
 40
1.5
 50
22.5
 51
102.5
  0
ARC
  8
0
 62
7
  6
CONTINUOUS
 10
60.9264822463
 20
159.0018839958
 40
1.0
 50
175.8743610157
 51
282.5
  0
ARC
  8
0
 62
7
  6
CONTINUOUS
 10
46.7697745902
 20
207.9031552803
 40
1.0
 50
153.3743610157
 51
260.0
  0
ARC
  8
SURFACE
 62
7
  6
CONTINUOUS
 10
52.4043884811
 20
179.5760383434
 40
1.0
 50
122.5
 51
229.1256389843
  0
ARC
  8
0
 62
7
  6
CONTINUOUS
 10
146.3817621162
 20
102.5252514518
 40
13.0
 50
167.5
 51
220.8743610157
  0
ARC
  8
SURFACE
 62
7
  6
CONTINUOUS
 10
115.8705258892
 20
115.1634193018
 40
13.0
 50
274.1256389843
 51
327.5
  0
ARC
  8
SURFACE
 62
7
  6
CONTINUOUS
 10
160.2572125335
 20
99.7652527609
 40
13.0
 50
296.6256389843
 51
350.0
  0
ARC
  8
0
 62
7
  6
CONTINUOUS
 10
151.4549931045
 20
91.287807377
 40
12.75
 50
90.0
 51
147.5
  0
ARC
  8
SURFACE
 62
7
  6
CONTINUOUS
 10
151.2697745902
 20
91.3246496302
 40
12.75
 50
10.0
 51
67.5
  0
ARC
  8
0
 62
7
  6
CONTINUOUS
 10
133.3881981119
 20
110.9083533774
 40
1.5
 50
347.5
 51
67.5
  0
ARC
  8
SURFACE
 62
7
  6
CONTINUOUS
 10
130.9861113274
 20
111.9033303016
 40
1.5
 50
67.5
 51
147.5
  0
ARC
  8
SURFACE
 62
7
  6
CONTINUOUS
 10
175.4697745902
 20
102.537807377
 40
1.5
 50
90.0
 51
170.0
  0
ARC
  8
0
 62
7
  6
CONTINUOUS
 10
137.3080055565
 20
94.672421268
 40
1.0
 50
220.8743610157
 51
327.5
  0
ARC
  8
SURFACE
 62
7
  6
CONTINUOUS
 10
116.7338512089
 20
103.1945150331
 40
1.0
 50
167.5
 51
274.1256389843
  0
ARC
  8
SURFACE
 62
7
  6
CONTINUOUS
 10
165.6351224934
 20
89.037807377
 40
1.0
 50
190.0
 51
296.6256389843
  0
ARC
  8
CURVE
 62
2
  6
DOT
 10
170.3747282079
 20
176.0060897544
 40
3.2
 50
2.2544307753
 51
45.0
  0
ARC
  8
CURVE
 62
2
  6
DOT
 10
166.1320875208
 20
180.2487304415
 40
3.2
 50
45.0
 51
86.4096221093
  0
ARC
  8
CURVE
 62
2
  6
DOT
 10
166.5328741611
 20
186.6361689006
 40
3.2
 50
225.0
 51
266.4096221093
  0
ARC
  8
CURVE
 62
2
  6
DOT
 10
144.3681361137
 20
208.8009069479
 40
3.2
 50
183.5903778907
 51
225.0
  0
ARC
  8
CURVE
 62
2
  6
DOT
 10
137.9806976546
 20
208.4001203077
 40
3.2
 50
3.5903778907
 51
45.0
  0
ARC
  8
CURVE
 62
2
  6
DOT
 10
133.7380569675
 20
212.6427609948
 40
3.2
 50
45.0
 51
87.7455692247
  0
ARC
  8
0
 62
7
  6
CONTINUOUS
 10
60.2572186649
 20
249.425819851
 40
13.0
 50
77.5
 51
130.8743610157
  0
ARC
  8
SURFACE
 62
7
  6
CONTINUOUS
 10
57.497219974
 20
235.5503694337
 40
13.0
 50
206.6256389843
 51
260.0
  0
ARC
  8
SURFACE
 62
7
  6
CONTINUOUS
 10
72.8953865149
 20
279.937056078
 40
13.0
 50
184.1256389843
 51
237.5
  0
ARC
  8
0
 62
7
  6
CONTINUOUS
 10
49.0197745902
 20
244.3525888628
 40
12.75
 50
0.0
 51
57.5
  0
ARC
  8
SURFACE
 62
7
  6
CONTINUOUS
 10
49.0566168433
 20
244.537807377
 40
12.75
 50
280.0
 51
337.5
  0
ARC
  8
0
 62
7
  6
CONTINUOUS
 10
68.6403205905
 20
262.4193838553
 40
1.5
 50
257.5
 51
337.5
  0
ARC
  8
SURFACE
 62
7
  6
CONTINUOUS
 10
60.2697745902
 20
220.337807377
 40
1.5
 50
0.0
 51
80.0
  0
ARC
  8
SURFACE
 62
7
  6
CONTINUOUS
 10
69.6352975147
 20
264.8214706398
 40
1.5
 50
337.5
 51
57.5
  0
ARC
  8
0
 62
7
  6
CONTINUOUS
 10
52.4043884811
 20
258.4995764107
 40
1.0
 50
130.8743610157
 51
237.5
  0
ARC
  8
SURFACE
 62
7
  6
CONTINUOUS
 10
46.7697745902
 20
230.1724594738
 40
1.0
 50
100.0
 51
206.6256389843
  0
ARC
  8
SURFACE
 62
7
  6
CONTINUOUS
 10
60.9264822463
 20
279.0737307583
 40
1.0
 50
77.5
 51
184.1256389843
  0
ARC
  8
0
 62
7
  6
CONTINUOUS
 10
80.7551978066
 20
291.7000949506
 40
13.0
 50
55.0
 51
108.3743610157
  0
ARC
  8
SURFACE
 62
7
  6
CONTINUOUS
 10
104.1074870166
 20
315.0523841606
 40
13.0
 50
161.6256389843
 51
215.0
  0
ARC
  8
0
 62
7
  6
CONTINUOUS
 10
68.4317117804
 20
291.3134243463
 40
12.75
 50
337.5
 51
35.0
  0
ARC
  8
0
 62
7
  6
CONTINUOUS
 10
104.3371369464
 20
327.2709523264
 40
12.75
 50
315.0
 51
12.5
  0
ARC
  8
SURFACE
 62
7
  6
CONTINUOUS
 10
68.5366296408
 20
291.4704450208
 40
12.75
 50
257.5
 51
315.0
  0
ARC
  8
SURFACE
 62
7
  6
CONTINUOUS
 10
104.4941576209
 20
327.3758701868
 40
12.75
 50
235.0
 51
292.5
  0
ARC
  8
0
 62
7
  6
CONTINUOUS
 10
93.4725957664
 20
300.4965085697
 40
1.5
 50
235.0
 51
315.0
  0
ARC
  8
SURFACE
 62
7
  6
CONTINUOUS
 10
95.3110733975
 20
302.3349862008
 40
1.5
 50
315.0
 51
35.0
  0
ARC
  8
0
 62
7
  6
CONTINUOUS
 10
76.9725050322
 20
303.0883009276
 40
1.0
 50
108.3743610157
 51
215.0
  0
ARC
  8
SURFACE
 62
7
  6
CONTINUOUS
 10
92.7192810397
 20
318.835076935
 40
1.0
 50
55.0
 51
161.6256389843
  0
ARC
  8
CURVE
 62
2
  6
DOT
 10
133.9898143284
 20
219.037807377
 40
3.2
 50
92.2544307753
 51
267.7455692247
  0
ARC
  8
CURVE
 62
2
  6
DOT
 10
133.7380569675
 20
225.4328537593
 40
3.2
 50
272.2544307753
 51
315.0
  0
ARC
  8
CURVE
 62
2
  6
DOT
 10
137.9806976546
 20
229.6754944464
 40
3.2
 50
315.0
 51
356.4096221093
  0
ARC
  8
CURVE
 62
2
  6
DOT
 10
144.3681361137
 20
229.2747078062
 40
3.2
 50
135.0
 51
176.4096221093
  0
ARC
  8
CURVE
 62
2
  6
DOT
 10
166.5328741611
 20
251.4394458535
 40
3.2
 50
93.5903778907
 51
135.0
  0
ARC
  8
CURVE
 62
2
  6
DOT
 10
166.1320875208
 20
257.8268843126
 40
3.2
 50
273.5903778907
 51
315.0
  0
ARC
  8
CURVE
 62
2
  6
DOT
 10
170.3747282079
 20
262.0695249997
 40
3.2
 50
315.0
 51
357.7455692247
  0
ARC
  8
0
 62
7
  6
CONTINUOUS
 10
160.2572125335
 20
338.3103619932
 40
13.0
 50
10.0
 51
63.3743610157
  0
ARC
  8
0
 62
7
  6
CONTINUOUS
 10
115.8705258892
 20
322.9121954523
 40
13.0
 50
32.5
 51
85.8743610157
  0
ARC
  8
SURFACE
 62
7
  6
CONTINUOUS
 10
146.3817621162
 20
335.5503633023
 40
13.0
 50
139.1256389843
 51
192.5
  0
ARC
  8
0
 62
7
  6
CONTINUOUS
 10
151.2697745902
 20
346.7509651239
 40
12.75
 50
292.5
 51
350.0
  0
ARC
  8
SURFACE
 62
7
  6
CONTINUOUS
 10
151.4549931045
 20
346.787807377
 40
12.75
 50
212.5
 51
270.0
  0
ARC
  8
0
 62
7
  6
CONTINUOUS
 10
175.4697745902
 20
335.537807377
 40
1.5
 50
190.0
 51
270.0
  0
ARC
  8
0
 62
7
  6
CONTINUOUS
 10
130.9861113274
 20
326.1722844525
 40
1.5
 50
212.5
 51
292.5
  0
ARC
  8
SURFACE
 62
7
  6
CONTINUOUS
 10
133.3881981119
 20
327.1672613767
 40
1.5
 50
292.5
 51
12.5
  0
ARC
  8
0
 62
7
  6
CONTINUOUS
 10
165.6351224934
 20
349.037807377
 40
1.0
 50
63.3743610157
 51
170.0
  0
ARC
  8
0
 62
7
  6
CONTINUOUS
 10
116.7338512089
 20
334.881099721
 40
1.0
 50
85.8743610157
 51
192.5
  0
ARC
  8
SURFACE
 62
7
  6
CONTINUOUS
 10
137.3080055565
 20
343.4031934861
 40
1.0
 50
32.5
 51
139.1256389843
  0
ARC
  8
0
 62
7
  6
CONTINUOUS
 10
237.6690232911
 20
115.1634193018
 40
13.0
 50
212.5
 51
265.8743610157
  0
ARC
  8
0
 62
7
  6
CONTINUOUS
 10
193.2823366468
 20
99.7652527609
 40
13.0
 50
190.0
 51
243.3743610157
  0
ARC
  8
SURFACE
 62
7
  6
CONTINUOUS
 10
207.1577870642
 20
102.5252514518
 40
13.0
 50
319.1256389843
 51
12.5
  0
ARC
  8
0
 62
7
  6
CONTINUOUS
 10
202.2697745902
 20
91.3246496302
 40
12.75
 50
112.5
 51
170.0
  0
ARC
  8
SURFACE
 62
7
  6
CONTINUOUS
 10
202.0845560759
 20
91.287807377
 40
12.75
 50
32.5
 51
90.0
  0
ARC
  8
0
 62
7
  6
CONTINUOUS
 10
222.553437853
 20
111.9033303016
 40
1.5
 50
32.5
 51
112.5
  0
ARC
  8
0
 62
7
  6
CONTINUOUS
 10
178.0697745902
 20
102.537807377
 40
1.5
 50
10.0
 51
90.0
  0
ARC
  8
SURFACE
 62
7
  6
CONTINUOUS
 10
220.1513510684
 20
110.9083533774
 40
1.5
 50
112.5
 51
192.5
  0
ARC
  8
0
 62
7
  6
CONTINUOUS
 10
236.8056979714
 20
103.1945150331
 40
1.0
 50
265.8743610157
 51
12.5
  0
ARC
  8
0
 62
7
  6
CONTINUOUS
 10
187.9044266869
 20
89.037807377
 40
1.0
 50
243.3743610157
 51
350.0
  0
ARC
  8
SURFACE
 62
7
  6
CONTINUOUS
 10
216.2315436238
 20
94.672421268
 40
1.0
 50
212.5
 51
319.1256389843
  0
ARC
  8
CURVE
 62
2
  6
DOT
 10
183.1648209724
 20
176.0060897544
 40
3.2
 50
135.0
 51
177.7455692247
  0
ARC
  8
CURVE
 62
2
  6
DOT
 10
176.7697745902
 20
176.2578471153
 40
3.2
 50
182.2544307753
 51
357.7455692247
  0
ARC
  8
CURVE
 62
2
  6
DOT
 10
219.8014922128
 20
212.6427609948
 40
3.2
 50
92.2544307753
 51
135.0
  0
ARC
  8
CURVE
 62
2
  6
DOT
 10
215.5588515257
 20
208.4001203077
 40
3.2
 50
135.0
 51
176.4096221093
  0
ARC
  8
CURVE
 62
2
  6
DOT
 10
209.1714130666
 20
208.8009069479
 40
3.2
 50
315.0
 51
356.4096221093
  0
ARC
  8
CURVE
 62
2
  6
DOT
 10
187.0066750193
 20
186.6361689006
 40
3.2
 50
273.5903778907
 51
315.0
  0
ARC
  8
CURVE
 62
2
  6
DOT
 10
187.4074616595
 20
180.2487304415
 40
3.2
 50
93.5903778907
 51
135.0
  0
ARC
  8
0
 62
7
  6
CONTINUOUS
 10
272.7843513737
 20
146.3755198035
 40
13.0
 50
235.0
 51
288.3743610157
  0
ARC
  8
SURFACE
 62
7
  6
CONTINUOUS
 10
249.4320621637
 20
123.0232305935
 40
13.0
 50
341.6256389843
 51
35.0
  0
ARC
  8
0
 62
7
  6
CONTINUOUS
 10
285.1078374
 20
146.7621904078
 40
12.75
 50
157.5
 51
215.0
  0
ARC
  8
0
 62
7
  6
CONTINUOUS
 10
249.2024122339
 20
110.8046624277
 40
12.75
 50
135.0
 51
192.5
  0
ARC
  8
SURFACE
 62
7
  6
CONTINUOUS
 10
249.0453915594
 20
110.6997445673
 40
12.75
 50
55.0
 51
112.5
  0
ARC
  8
SURFACE
 62
7
  6
CONTINUOUS
 10
285.0029195395
 20
146.6051697333
 40
12.75
 50
77.5
 51
135.0
  0
ARC
  8
0
 62
7
  6
CONTINUOUS
 10
260.0669534139
 20
137.5791061844
 40
1.5
 50
55.0
 51
135.0
  0
ARC
  8
SURFACE
 62
7
  6
CONTINUOUS
 10
258.2284757829
 20
135.7406285533
 40
1.5
 50
135.0
 51
215.0
  0
ARC
  8
0
 62
7
  6
CONTINUOUS
 10
276.5670441482
 20
134.9873138265
 40
1.0
 50
288.3743610157
 51
35.0
  0
ARC
  8
SURFACE
 62
7
  6
CONTINUOUS
 10
260.8202681407
 20
119.2405378191
 40
1.0
 50
235.0
 51
341.6256389843
  0
ARC
  8
0
 62
7
  6
CONTINUOUS
 10
293.2823305154
 20
188.649794903
 40
13.0
 50
257.5
 51
310.8743610157
  0
ARC
  8
SURFACE
 62
7
  6
CONTINUOUS
 10
280.6441626654
 20
158.1385586761
 40
13.0
 50
4.1256389843
 51
57.5
  0
ARC
  8
SURFACE
 62
7
  6
CONTINUOUS
 10
296.0423292064
 20
202.5252453204
 40
13.0
 50
26.6256389843
 51
80.0
  0
ARC
  8
0
 62
7
  6
CONTINUOUS
 10
304.5197745902
 20
193.7230258913
 40
12.75
 50
180.0
 51
237.5
  0
ARC
  8
SURFACE
 62
7
  6
CONTINUOUS
 10
304.482932337
 20
193.537807377
 40
12.75
 50
100.0
 51
157.5
  0
ARC
  8
0
 62
7
  6
CONTINUOUS
 10
284.8992285898
 20
175.6562308988
 40
1.5
 50
77.5
 51
157.5
  0
ARC
  8
SURFACE
 62
7
  6
CONTINUOUS
 10
283.9042516657
 20
173.2541441143
 40
1.5
 50
157.5
 51
237.5
  0
ARC
  8
SURFACE
 62
7
  6
CONTINUOUS
 10
293.2697745902
 20
217.737807377
 40
1.5
 50
180.0
 51
260.0
  0
ARC
  8
0
 62
7
  6
CONTINUOUS
 10
301.1351606992
 20
179.5760383434
 40
1.0
 50
310.8743610157
 51
57.5
  0
ARC
  8
SURFACE
 62
7
  6
CONTINUOUS
 10
292.6130669341
 20
159.0018839958
 40
1.0
 50
257.5
 51
4.1256389843
  0
ARC
  8
SURFACE
 62
7
  6
CONTINUOUS
 10
306.7697745902
 20
207.9031552803
 40
1.0
 50
280.0
 51
26.6256389843
  0
ARC
  8
0
 62
7
  6
CONTINUOUS
 10
176.7697745902
 20
219.037807377
 40
100.0
 50
180.0
 51
360.0
  0
CIRCLE
  8
SURFACE
 62
7
  6
CONTINUOUS
 10
176.7697745902
 20
219.037807377
 40
100.0
  0
CIRCLE
  8
CURVE
 62
2
  6
DOT
 10
176.7697745902
 20
219.037807377
 40
12.5
  0
ARC
  8
CURVE
 62
2
  6
DOT
 10
176.7697745902
 20
261.8177676388
 40
3.2
 50
2.2544307753
 51
177.7455692247
  0
ARC
  8
CURVE
 62
2
  6
DOT
 10
183.1648209724
 20
262.0695249997
 40
3.2
 50
182.2544307753
 51
225.0
  0
ARC
  8
CURVE
 62
2
  6
DOT
 10
187.4074616595
 20
257.8268843126
 40
3.2
 50
225.0
 51
266.4096221093
  0
ARC
  8
CURVE
 62
2
  6
DOT
 10
187.0066750193
 20
251.4394458535
 40
3.2
 50
45.0
 51
86.4096221093
  0
ARC
  8
CURVE
 62
2
  6
DOT
 10
209.1714130666
 20
229.2747078062
 40
3.2
 50
3.5903778907
 51
45.0
  0
ARC
  8
CURVE
 62
2
  6
DOT
 10
215.5588515257
 20
229.6754944464
 40
3.2
 50
183.5903778907
 51
225.0
  0
ARC
  8
CURVE
 62
2
  6
DOT
 10
219.8014922128
 20
225.4328537593
 40
3.2
 50
225.0
 51
267.7455692247
  0
ARC
  8
CURVE
 62
2
  6
DOT
 10
219.549734852
 20
219.037807377
 40
3.2
 50
272.2544307753
 51
87.7455692247
  0
ARC
  8
0
 62
7
  6
CONTINUOUS
 10
207.1577870642
 20
335.5503633023
 40
13.0
 50
347.5
 51
40.8743610157
  0
ARC
  8
SURFACE
 62
7
  6
CONTINUOUS
 10
193.2823366468
 20
338.3103619932
 40
13.0
 50
116.6256389843
 51
170.0
  0
ARC
  8
SURFACE
 62
7
  6
CONTINUOUS
 10
237.6690232911
 20
322.9121954523
 40
13.0
 50
94.1256389843
 51
147.5
  0
ARC
  8
0
 62
7
  6
CONTINUOUS
 10
202.0845560759
 20
346.787807377
 40
12.75
 50
270.0
 51
327.5
  0
ARC
  8
SURFACE
 62
7
  6
CONTINUOUS
 10
202.2697745902
 20
346.7509651239
 40
12.75
 50
190.0
 51
247.5
  0
ARC
  8
0
 62
7
  6
CONTINUOUS
 10
220.1513510684
 20
327.1672613767
 40
1.5
 50
167.5
 51
247.5
  0
ARC
  8
SURFACE
 62
7
  6
CONTINUOUS
 10
178.0697745902
 20
335.537807377
 40
1.5
 50
270.0
 51
350.0
  0
ARC
  8
SURFACE
 62
7
  6
CONTINUOUS
 10
222.553437853
 20
326.1722844525
 40
1.5
 50
247.5
 51
327.5
  0
ARC
  8
0
 62
7
  6
CONTINUOUS
 10
216.2315436238
 20
343.4031934861
 40
1.0
 50
40.8743610157
 51
147.5
  0
ARC
  8
SURFACE
 62
7
  6
CONTINUOUS
 10
187.9044266869
 20
349.037807377
 40
1.0
 50
10.0
 51
116.6256389843
  0
ARC
  8
SURFACE
 62
7
  6
CONTINUOUS
 10
236.8056979714
 20
334.881099721
 40
1.0
 50
347.5
 51
94.1256389843
  0
ARC
  8
0
 62
7
  6
CONTINUOUS
 10
296.0423292064
 20
235.5503694337
 40
13.0
 50
280.0
 51
333.3743610157
  0
ARC
  8
0
 62
7
  6
CONTINUOUS
 10
280.6441626654
 20
279.937056078
 40
13.0
 50
302.5
 51
355.8743610157
  0
ARC
  8
SURFACE
 62
7
  6
CONTINUOUS
 10
293.2823305154
 20
249.425819851
 40
13.0
 50
49.1256389843
 51
102.5
  0
ARC
  8
0
 62
7
  6
CONTINUOUS
 10
304.482932337
 20
244.537807377
 40
12.75
 50
202.5
 51
260.0
  0
ARC
  8
SURFACE
 62
7
  6
CONTINUOUS
 10
304.5197745902
 20
244.3525888628
 40
12.75
 50
122.5
 51
180.0
  0
ARC
  8
0
 62
7
  6
CONTINUOUS
 10
283.9042516657
 20
264.8214706398
 40
1.5
 50
122.5
 51
202.5
  0
ARC
  8
0
 62
7
  6
CONTINUOUS
 10
293.2697745902
 20
220.337807377
 40
1.5
 50
100.0
 51
180.0
  0
ARC
  8
SURFACE
 62
7
  6
CONTINUOUS
 10
284.8992285898
 20
262.4193838553
 40
1.5
 50
202.5
 51
282.5
  0
ARC
  8
0
 62
7
  6
CONTINUOUS
 10
292.6130669341
 20
279.0737307583
 40
1.0
 50
355.8743610157
 51
102.5
  0
ARC
  8
0
 62
7
  6
CONTINUOUS
 10
306.7697745902
 20
230.1724594738
 40
1.0
 50
333.3743610157
 51
80.0
  0
ARC
  8
SURFACE
 62
7
  6
CONTINUOUS
 10
301.1351606992
 20
258.4995764107
 40
1.0
 50
302.5
 51
49.1256389843
  0
ARC
  8
0
 62
7
  6
CONTINUOUS
 10
249.4320621637
 20
315.0523841606
 40
13.0
 50
325.0
 51
18.3743610157
  0
ARC
  8
SURFACE
 62
7
  6
CONTINUOUS
 10
272.7843513737
 20
291.7000949506
 40
13.0
 50
71.6256389843
 51
125.0
  0
ARC
  8
0
 62
7
  6
CONTINUOUS
 10
249.0453915594
 20
327.3758701868
 40
12.75
 50
247.5
 51
305.0
  0
ARC
  8
0
 62
7
  6
CONTINUOUS
 10
285.0029195395
 20
291.4704450208
 40
12.75
 50
225.0
 51
282.5
  0
ARC
  8
SURFACE
 62
7
  6
CONTINUOUS
 10
249.2024122339
 20
327.2709523264
 40
12.75
 50
167.5
 51
225.0
  0
ARC
  8
SURFACE
 62
7
  6
CONTINUOUS
 10
285.1078374
 20
291.3134243463
 40
12.75
 50
145.0
 51
202.5
  0
ARC
  8
0
 62
7
  6
CONTINUOUS
 10
258.2284757829
 20
302.3349862008
 40
1.5
 50
145.0
 51
225.0
  0
ARC
  8
SURFACE
 62
7
  6
CONTINUOUS
 10
260.0669534139
 20
300.4965085697
 40
1.5
 50
225.0
 51
305.0
  0
ARC
  8
0
 62
7
  6
CONTINUOUS
 10
260.8202681407
 20
318.835076935
 40
1.0
 50
18.3743610157
 51
125.0
  0
ARC
  8
SURFACE
 62
7
  6
CONTINUOUS
 10
276.5670441482
 20
303.0883009276
 40
1.0
 50
325.0
 51
71.6256389843
  0
ARC
  8
SURFACE
 62
7
  6
CONTINUOUS
 10
398.8970286885
 20
316.037807377
 40
3.0
 50
0.0
 51
90.0
  0
ARC
  8
SURFACE
 62
7
  6
CONTINUOUS
 10
398.8970286885
 20
122.037807377
 40
3.0
 50
270.0
 51
360.0
  0
ARC
  8
0
 62
7
  6
CONTINUOUS
 10
354.4970286885
 20
316.037807377
 40
3.0
 50
90.0
 51
180.0
  0
ARC
  8
0
 62
7
  6
CONTINUOUS
 10
354.4970286885
 20
122.037807377
 40
3.0
 50
180.0
 51
270.0
  0
ARC
  8
0
 62
7
  6
CONTINUOUS
 10
363.3470286885
 20
321.037807377
 40
2.0
 50
270.0
 51
360.0
  0
ARC
  8
0
 62
7
  6
CONTINUOUS
 10
363.3470286885
 20
117.037807377
 40
2.0
 50
0.0
 51
90.0
  0
ARC
  8
0
 62
7
  6
CONTINUOUS
 10
390.0470286885
 20
321.037807377
 40
2.0
 50
180.0
 51
270.0
  0
ARC
  8
0
 62
7
  6
CONTINUOUS
 10
390.0470286885
 20
117.037807377
 40
2.0
 50
90.0
 51
180.0
  0
ARC
  8
SURFACE
 62
7
  6
CONTINUOUS
 10
379.0470286885
 20
176.649794903
 40
1.0
 50
180.0
 51
270.0
  0
ARC
  8
SURFACE
 62
7
  6
CONTINUOUS
 10
387.0470286885
 20
176.649794903
 40
1.0
 50
270.0
 51
360.0
  0
ARC
  8
0
 62
7
  6
CONTINUOUS
 10
374.3470286885
 20
261.425819851
 40
1.0
 50
0.0
 51
90.0
  0
ARC
  8
0
 62
7
  6
CONTINUOUS
 10
366.3470286885
 20
261.425819851
 40
1.0
 50
90.0
 51
180.0
  0
ENDSEC
  0
EOF
