  0
SECTION
  2
HEADER
  9
$EXTMAX
 10
594.0
 20
420.0
 30
0.0
  9
$EXTMIN
 10
0.0
 20
0.0
 30
0.0
  9
$LIMMIN
 10
0.0
 20
0.0
  9
$LIMMAX
 10
594.0
 20
420.0
  9
$VIEWCTR
 10
297.0
 20
210.0
  9
$VIEWSIZE
 40
420.0
  9
$CLAYER
  8
0
  9
$LTSCALE
 40
32.67
  9
$CELTYPE
  6
BYLAYER
  9
$DIMSCALE
 40
1.0
  9
$DIMASZ
 40
3.5
  9
$DIMEXO
 40
1.0
  9
$DIMDLI
 40
22.572
  9
$DIMEXE
 40
2.0
  9
$DIMCEN
 40
5.346
  9
$DIMLFAC
 40
1.0
  9
$DIMBLK
  1
_FILLED
  9
$DIMTXT
 40
3.5
  9
$AUNITS
 70
0
  9
$PDMODE
 70
3
  9
$PDSIZE
 40
0.3125
  9
$TILEMODE
 70
1
  0
ENDSEC
  0
SECTION
  2
TABLES
  0
TABLE
  2
LTYPE
 70
6
  0
LTYPE
  2
BYBLOCK
 70
0
  3

 72
65
 73
0
 40
0.0
  0
LTYPE
  2
BYLAYER
 70
0
  3

 72
65
 73
0
 40
0.0
  0
LTYPE
  2
CONTINUOUS
 70
64
  3
Solid line
 72
65
 73
0
 40
0.0
  0
LTYPE
  2
CENTER
 70
64
  3
____ _ ____ _ ____ _ ____ _ ____ _ ____ _ ____
 72
65
 73
4
 40
0.6
 49
0.375
 49
-0.075
 49
0.075
 49
-0.075
  0
LTYPE
  2
HIDDEN
 70
64
  3
- - - - - - - - - - - - - - - - - - - -
 72
65
 73
2
 40
0.2
 49
0.1
 49
-0.1
  0
LTYPE
  2
PHANTOM
 70
64
  3
_____ _ _ _____ _ _ _____ _ _ _____
 72
65
 73
6
 40
0.8
 49
0.45
 49
-0.05
 49
0.1
 49
-0.05
 49
0.1
 49
-0.05
  0
LTYPE
  2
DOT
 70
64
  3
. . . . . . . . . . . . . . . . . . . .
 72
65
 73
2
 40
0.2
 49
0.1
 49
-0.1
  0
LTYPE
  2
DASHED
 70
64
  3
- - - - - - - - - - - - - - - - - - - -
 72
65
 73
2
 40
0.2
 49
0.1
 49
-0.1
  0
ENDTAB
  0
TABLE
  2
LAYER
 70
36
  0
LAYER
  2
0
 70
0
 62
7
  6
CONTINUOUS
  0
LAYER
  2
DEFAULT_1
 70
0
 62
7
  6
CENTER
  0
LAYER
  2
DEFAULT_2
 70
0
 62
8
  6
HIDDEN
  0
LAYER
  2
DEFAULT_3
 70
0
 62
7
  6
PHANTOM
  0
LAYER
  2
CSYS
 70
0
 62
7
  6
CONTINUOUS
  0
LAYER
  2
CURVE
 70
0
 62
7
  6
CONTINUOUS
  0
LAYER
  2
PITCH
 70
0
 62
7
  6
CONTINUOUS
  0
LAYER
  2
SURFACE
 70
0
 62
7
  6
CONTINUOUS
  0
ENDTAB
  0
TABLE
  2
STYLE
 70
1
  0
STYLE
  2
STANDARD
 70
0
 40
0.0
 41
0.8
 50
0.0
 71
0
 42
0.2
  3
txt
  4

  0
STYLE
  2
TEXTSTYLE_1
 70
0
 40
0.0
 41
0.8
 50
0.0
 71
0
 42
0.2
  3
gdt
  4

  0
STYLE
  2
TEXTSTYLE_2
 70
0
 40
0.0
 41
0.6
 50
0.0
 71
0
 42
0.2
  3
txt
  4

  0
STYLE
  2
TEXTSTYLE_3
 70
0
 40
0.0
 41
1.0
 50
0.0
 71
0
 42
0.2
  3
ftb_____.ttf
  4

  0
STYLE
  2
TEXTSTYLE_4
 70
0
 40
0.0
 41
1.0
 50
0.0
 71
0
 42
0.2
  3
fti_____.ttf
  4

  0
STYLE
  2
TEXTSTYLE_5
 70
0
 40
0.0
 41
1.0
 50
0.0
 71
0
 42
0.2
  3
frutiger light.ttf
  4

  0
STYLE
  2
TEXTSTYLE_6
 70
0
 40
0.0
 41
0.7
 50
0.0
 71
0
 42
0.2
  3
txt
  4

  0
STYLE
  2
TEXTSTYLE_7
 70
0
 40
0.0
 41
0.6
 50
0.0
 71
0
 42
0.2
  3
txt
  4

  0
ENDTAB
  0
ENDSEC
  0
SECTION
  2
BLOCKS
  0
BLOCK
  8
0
 62
2
  6
CONTINUOUS
  2
UNI_LOGO2_BL1
 70
64
 10
557.4079930916
 20
35.8092573885
  0
TEXT
  8
0
 62
7
  6
CONTINUOUS
 10
548.4662781001
 20
30.9020137655
  7
TEXTSTYLE_4
 40
1.0655737705
  1
The brand for plastic modular belts and chains
 41
1.0
 72
0
  0
LINE
  8
0
 62
7
  6
CONTINUOUS
 10
533.3860614807
 20
36.3830278803
 11
533.3860614807
 21
34.2518803393
  0
LINE
  8
0
 62
7
  6
CONTINUOUS
 10
533.6751239738
 20
31.2609490436
 11
533.6751239738
 21
31.3577401029
  0
LINE
  8
0
 62
7
  6
CONTINUOUS
 10
533.3860614807
 20
31.3254764164
 11
533.4438739824
 21
31.1318942979
  0
LINE
  8
0
 62
7
  6
CONTINUOUS
 10
534.7795041036
 20
34.1699131262
 11
534.7795041036
 21
36.3830278803
  0
LINE
  8
0
 62
7
  6
CONTINUOUS
 10
535.6985614255
 20
32.3256508311
 11
535.6985614255
 21
30.8092573885
  0
LINE
  8
0
 62
7
  6
CONTINUOUS
 10
535.9876239807
 20
30.8092573885
 11
535.9876239807
 21
31.5513222666
  0
LINE
  8
0
 62
7
  6
CONTINUOUS
 10
535.9876239807
 20
31.6803770123
 11
535.9876239807
 21
32.3256508311
  0
LINE
  8
0
 62
7
  6
CONTINUOUS
 10
533.4438739824
 20
31.5190585802
 11
533.3860614807
 21
31.3254764164
  0
LINE
  8
0
 62
7
  6
CONTINUOUS
 10
533.7907489669
 20
31.0996306115
 11
533.6751239738
 21
31.2609490436
  0
LINE
  8
0
 62
7
  6
CONTINUOUS
 10
534.8891865358
 20
31.6158496394
 11
534.9469989807
 21
31.5190585802
  0
LINE
  8
0
 62
7
  6
CONTINUOUS
 10
535.2360615358
 20
31.5190585802
 11
535.1782489255
 21
31.6481133259
  0
LINE
  8
0
 62
7
  6
CONTINUOUS
 10
536.6647500053
 20
36.3830278803
 11
536.6647500053
 21
34.5797491918
  0
LINE
  8
0
 62
7
  6
CONTINUOUS
 10
536.6647500053
 20
33.2682737819
 11
536.6647500053
 21
32.612536077
  0
LINE
  8
0
 62
7
  6
CONTINUOUS
 10
537.0282489807
 20
31.4545312073
 11
537.0282489807
 21
30.8092573885
  0
LINE
  8
0
 62
7
  6
CONTINUOUS
 10
537.3173113704
 20
30.8092573885
 11
537.3173113704
 21
31.4545312073
  0
LINE
  8
0
 62
7
  6
CONTINUOUS
 10
533.6751239738
 20
31.3577401029
 11
533.7329364807
 21
31.4867948937
  0
LINE
  8
0
 62
7
  6
CONTINUOUS
 10
533.4438739824
 20
31.1318942979
 11
533.5594989807
 21
31.0028395296
  0
LINE
  8
0
 62
7
  6
CONTINUOUS
 10
536.9704363704
 20
31.583585953
 11
537.0282489807
 21
31.4545312073
  0
LINE
  8
0
 62
7
  6
CONTINUOUS
 10
537.7798115909
 20
31.0996306115
 11
537.8376238704
 21
30.9705758432
  0
LINE
  8
0
 62
7
  6
CONTINUOUS
 10
537.3173113704
 20
31.4545312073
 11
537.2594990909
 21
31.6158496394
  0
LINE
  8
0
 62
7
  6
CONTINUOUS
 10
537.7798115909
 20
31.6481133259
 11
537.7798115909
 21
31.583585953
  0
LINE
  8
0
 62
7
  6
CONTINUOUS
 10
537.7798115909
 20
31.1964216708
 11
537.7798115909
 21
31.0996306115
  0
LINE
  8
0
 62
7
  6
CONTINUOUS
 10
538.0581926282
 20
32.612536077
 11
538.0581926282
 21
36.3830278803
  0
LINE
  8
0
 62
7
  6
CONTINUOUS
 10
538.0688739807
 20
31.0673669025
 11
538.0688739807
 21
31.1318942979
  0
LINE
  8
0
 62
7
  6
CONTINUOUS
 10
538.3860614807
 20
36.3830278803
 11
538.3860614807
 21
32.612536077
  0
LINE
  8
0
 62
7
  6
CONTINUOUS
 10
535.1782489255
 20
31.0028395296
 11
535.2360615358
 21
31.1318942979
  0
LINE
  8
0
 62
7
  6
CONTINUOUS
 10
539.5719992012
 20
30.9060484591
 11
539.5141862601
 21
31.0673669025
  0
LINE
  8
0
 62
7
  6
CONTINUOUS
 10
539.2251242012
 20
31.583585953
 11
539.2251242012
 21
31.4867948937
  0
LINE
  8
0
 62
7
  6
CONTINUOUS
 10
539.2251242012
 20
31.3577401029
 11
539.2251242012
 21
31.1641579843
  0
LINE
  8
0
 62
7
  6
CONTINUOUS
 10
539.5141862601
 20
31.0673669025
 11
539.5141862601
 21
31.583585953
  0
LINE
  8
0
 62
7
  6
CONTINUOUS
 10
539.7795041036
 20
32.612536077
 11
539.7795041036
 21
34.4158147655
  0
LINE
  8
0
 62
7
  6
CONTINUOUS
 10
539.7795041036
 20
35.7272901754
 11
539.7795041036
 21
36.3830278803
  0
LINE
  8
0
 62
7
  6
CONTINUOUS
 10
540.0923117012
 20
32.3256508311
 11
540.0923117012
 21
32.164332399
  0
LINE
  8
0
 62
7
  6
CONTINUOUS
 10
540.0923117012
 20
31.8416954444
 11
540.0923117012
 21
30.8092573885
  0
LINE
  8
0
 62
7
  6
CONTINUOUS
 10
540.3813737601
 20
30.8092573885
 11
540.3813737601
 21
31.8416954444
  0
LINE
  8
0
 62
7
  6
CONTINUOUS
 10
540.3813737601
 20
32.164332399
 11
540.3813737601
 21
32.3256508311
  0
LINE
  8
0
 62
7
  6
CONTINUOUS
 10
534.9469989807
 20
31.1318942979
 11
534.8891865358
 21
31.035103216
  0
LINE
  8
0
 62
7
  6
CONTINUOUS
 10
537.2594990909
 20
31.6158496394
 11
537.2016864807
 21
31.6803770123
  0
LINE
  8
0
 62
7
  6
CONTINUOUS
 10
538.1266865909
 20
31.0028395296
 11
538.0688739807
 21
31.0673669025
  0
LINE
  8
0
 62
7
  6
CONTINUOUS
 10
539.2829364807
 20
30.873784767
 11
539.3407487601
 21
30.8092573885
  0
LINE
  8
0
 62
7
  6
CONTINUOUS
 10
539.2251242012
 20
30.9705758432
 11
539.2829364807
 21
30.873784767
  0
LINE
  8
0
 62
7
  6
CONTINUOUS
 10
539.6298114807
 20
30.8092573885
 11
539.5719992012
 21
30.9060484591
  0
LINE
  8
0
 62
7
  6
CONTINUOUS
 10
539.5141862601
 20
31.583585953
 11
539.4563739807
 21
31.6803770123
  0
LINE
  8
0
 62
7
  6
CONTINUOUS
 10
540.8438739807
 20
31.8416954444
 11
540.8438739807
 21
30.8092573885
  0
LINE
  8
0
 62
7
  6
CONTINUOUS
 10
541.1329367012
 20
30.8092573885
 11
541.1329367012
 21
31.5513222666
  0
LINE
  8
0
 62
7
  6
CONTINUOUS
 10
541.1329367012
 20
31.6803770123
 11
541.1329367012
 21
31.8416954444
  0
LINE
  8
0
 62
7
  6
CONTINUOUS
 10
541.6647500053
 20
34.8256508311
 11
541.6647500053
 21
32.612536077
  0
LINE
  8
0
 62
7
  6
CONTINUOUS
 10
533.5594989807
 20
31.6481133259
 11
533.4438739824
 21
31.5190585802
  0
LINE
  8
0
 62
7
  6
CONTINUOUS
 10
533.7329364807
 20
31.4867948937
 11
533.7907489669
 21
31.5513222666
  0
LINE
  8
0
 62
7
  6
CONTINUOUS
 10
533.5594989807
 20
31.0028395296
 11
533.6751239738
 21
30.9383121455
  0
LINE
  8
0
 62
7
  6
CONTINUOUS
 10
533.9641864669
 20
31.0028395296
 11
533.7907489669
 21
31.0996306115
  0
LINE
  8
0
 62
7
  6
CONTINUOUS
 10
539.1673112601
 20
31.6481133259
 11
539.2251242012
 21
31.583585953
  0
LINE
  8
0
 62
7
  6
CONTINUOUS
 10
542.1157487601
 20
31.583585953
 11
542.1735617012
 21
31.4222675209
  0
LINE
  8
0
 62
7
  6
CONTINUOUS
 10
542.4626237601
 20
31.4222675209
 11
542.4048114807
 21
31.583585953
  0
LINE
  8
0
 62
7
  6
CONTINUOUS
 10
542.1735617012
 20
31.4222675209
 11
542.1735617012
 21
30.8092573885
  0
LINE
  8
0
 62
7
  6
CONTINUOUS
 10
542.4626237601
 20
30.8092573885
 11
542.4626237601
 21
31.4222675209
  0
LINE
  8
0
 62
7
  6
CONTINUOUS
 10
542.9251239807
 20
31.6481133259
 11
542.9251239807
 21
31.583585953
  0
LINE
  8
0
 62
7
  6
CONTINUOUS
 10
543.0581926282
 20
32.612536077
 11
543.0581926282
 21
34.743683618
  0
LINE
  8
0
 62
7
  6
CONTINUOUS
 10
543.3860614807
 20
36.3830278803
 11
543.3860614807
 21
32.612536077
  0
LINE
  8
0
 62
7
  6
CONTINUOUS
 10
538.0688739807
 20
31.1318942979
 11
538.1266865909
 21
31.2286853572
  0
LINE
  8
0
 62
7
  6
CONTINUOUS
 10
533.6751239738
 20
30.9383121455
 11
533.8485614944
 21
30.873784767
  0
LINE
  8
0
 62
7
  6
CONTINUOUS
 10
535.1782489255
 20
31.6481133259
 11
535.0048114255
 21
31.7449043851
  0
LINE
  8
0
 62
7
  6
CONTINUOUS
 10
537.8376238704
 20
30.9705758432
 11
538.0110613704
 21
30.873784767
  0
LINE
  8
0
 62
7
  6
CONTINUOUS
 10
536.8548114807
 20
31.6481133259
 11
536.9704363704
 21
31.583585953
  0
LINE
  8
0
 62
7
  6
CONTINUOUS
 10
537.2016864807
 20
31.6803770123
 11
537.0860615909
 21
31.7449043851
  0
LINE
  8
0
 62
7
  6
CONTINUOUS
 10
542.9251239807
 20
31.0673669025
 11
543.0407492012
 21
30.9383121455
  0
LINE
  8
0
 62
7
  6
CONTINUOUS
 10
543.2719989807
 20
31.0028395296
 11
543.2141867012
 21
31.0673669025
  0
LINE
  8
0
 62
7
  6
CONTINUOUS
 10
542.9251239807
 20
31.583585953
 11
543.0407492012
 21
31.4545312073
  0
LINE
  8
0
 62
7
  6
CONTINUOUS
 10
542.4048114807
 20
31.583585953
 11
542.3469992012
 21
31.6803770123
  0
LINE
  8
0
 62
7
  6
CONTINUOUS
 10
544.7751235396
 20
31.0028395296
 11
544.7751235396
 21
31.0673669025
  0
LINE
  8
0
 62
7
  6
CONTINUOUS
 10
544.7795041036
 20
32.612536077
 11
544.7795041036
 21
36.3830278803
  0
LINE
  8
0
 62
7
  6
CONTINUOUS
 10
537.8376238704
 20
31.7126406987
 11
537.7798115909
 21
31.6481133259
  0
LINE
  8
0
 62
7
  6
CONTINUOUS
 10
534.7157489531
 20
31.6803770123
 11
534.8891865358
 21
31.6158496394
  0
LINE
  8
0
 62
7
  6
CONTINUOUS
 10
539.4563739807
 20
31.6803770123
 11
539.3407487601
 21
31.7449043851
  0
LINE
  8
0
 62
7
  6
CONTINUOUS
 10
543.2719989807
 20
31.5190585802
 11
543.2141867012
 21
31.583585953
  0
LINE
  8
0
 62
7
  6
CONTINUOUS
 10
544.4282492012
 20
31.1318942979
 11
544.4860614807
 21
31.0673669025
  0
LINE
  8
0
 62
7
  6
CONTINUOUS
 10
544.7751235396
 20
31.0673669025
 11
544.6594989807
 21
31.1964216708
  0
LINE
  8
0
 62
7
  6
CONTINUOUS
 10
544.4282492012
 20
31.6481133259
 11
544.4860614807
 21
31.583585953
  0
LINE
  8
0
 62
7
  6
CONTINUOUS
 10
544.7751235396
 20
31.583585953
 11
544.6594989807
 21
31.7126406987
  0
LINE
  8
0
 62
7
  6
CONTINUOUS
 10
538.0688739807
 20
31.583585953
 11
538.1266865909
 21
31.6481133259
  0
LINE
  8
0
 62
7
  6
CONTINUOUS
 10
537.8954364807
 20
31.3254764164
 11
537.7798115909
 21
31.1964216708
  0
LINE
  8
0
 62
7
  6
CONTINUOUS
 10
539.2251242012
 20
31.1641579843
 11
539.1673112601
 21
31.0996306115
  0
LINE
  8
0
 62
7
  6
CONTINUOUS
 10
539.1673112601
 20
30.9060484591
 11
539.2251242012
 21
30.9705758432
  0
LINE
  8
0
 62
7
  6
CONTINUOUS
 10
538.0110613704
 20
30.873784767
 11
538.1266865909
 21
30.8415210777
  0
LINE
  8
0
 62
7
  6
CONTINUOUS
 10
535.0048114255
 20
31.7449043851
 11
534.7735614807
 21
31.809431758
  0
LINE
  8
0
 62
7
  6
CONTINUOUS
 10
538.3579363704
 20
30.9383121455
 11
538.1266865909
 21
31.0028395296
  0
LINE
  8
0
 62
7
  6
CONTINUOUS
 10
537.0860615909
 20
31.7449043851
 11
536.9126240909
 21
31.809431758
  0
LINE
  8
0
 62
7
  6
CONTINUOUS
 10
539.3407487601
 20
31.7449043851
 11
539.1673112601
 21
31.809431758
  0
LINE
  8
0
 62
7
  6
CONTINUOUS
 10
542.0001242012
 20
31.6481133259
 11
542.1157487601
 21
31.583585953
  0
LINE
  8
0
 62
7
  6
CONTINUOUS
 10
542.3469992012
 20
31.6803770123
 11
542.2313739807
 21
31.7449043851
  0
LINE
  8
0
 62
7
  6
CONTINUOUS
 10
533.8485614944
 20
30.873784767
 11
534.0219989944
 21
30.8415210777
  0
LINE
  8
0
 62
7
  6
CONTINUOUS
 10
534.3110615082
 20
30.9383121455
 11
533.9641864669
 21
31.0028395296
  0
LINE
  8
0
 62
7
  6
CONTINUOUS
 10
536.7391865909
 20
31.6803770123
 11
536.8548114807
 21
31.6481133259
  0
LINE
  8
0
 62
7
  6
CONTINUOUS
 10
539.0516867012
 20
31.6803770123
 11
539.1673112601
 21
31.6481133259
  0
LINE
  8
0
 62
7
  6
CONTINUOUS
 10
543.3876242012
 20
30.9705758432
 11
543.2719989807
 21
31.0028395296
  0
LINE
  8
0
 62
7
  6
CONTINUOUS
 10
541.8844989807
 20
31.6803770123
 11
542.0001242012
 21
31.6481133259
  0
LINE
  8
0
 62
7
  6
CONTINUOUS
 10
543.0407492012
 20
30.9383121455
 11
543.2141867012
 21
30.873784767
  0
LINE
  8
0
 62
7
  6
CONTINUOUS
 10
542.2313739807
 20
31.7449043851
 11
542.0579364807
 21
31.809431758
  0
LINE
  8
0
 62
7
  6
CONTINUOUS
 10
543.4454364807
 20
31.4545312073
 11
543.2719989807
 21
31.5190585802
  0
LINE
  8
0
 62
7
  6
CONTINUOUS
 10
544.2548117012
 20
31.1964216708
 11
544.4282492012
 21
31.1318942979
  0
LINE
  8
0
 62
7
  6
CONTINUOUS
 10
544.6594989807
 20
31.7126406987
 11
544.4860614807
 21
31.7771680715
  0
LINE
  8
0
 62
7
  6
CONTINUOUS
 10
543.0407492012
 20
31.4545312073
 11
543.2719989807
 21
31.3577401029
  0
LINE
  8
0
 62
7
  6
CONTINUOUS
 10
544.6594989807
 20
31.1964216708
 11
544.4282492012
 21
31.29321273
  0
LINE
  8
0
 62
7
  6
CONTINUOUS
 10
543.2141867012
 20
31.583585953
 11
543.2719989807
 21
31.6481133259
  0
LINE
  8
0
 62
7
  6
CONTINUOUS
 10
533.6751239738
 20
31.7126406987
 11
533.5594989807
 21
31.6481133259
  0
LINE
  8
0
 62
7
  6
CONTINUOUS
 10
533.7907489669
 20
31.5513222666
 11
533.9641864669
 21
31.6481133259
  0
LINE
  8
0
 62
7
  6
CONTINUOUS
 10
536.1032490358
 20
31.7449043851
 11
535.9876239807
 21
31.6803770123
  0
LINE
  8
0
 62
7
  6
CONTINUOUS
 10
535.9876239807
 20
31.5513222666
 11
536.1032490358
 21
31.6158496394
  0
LINE
  8
0
 62
7
  6
CONTINUOUS
 10
535.0048114255
 20
30.9060484591
 11
535.1782489255
 21
31.0028395296
  0
LINE
  8
0
 62
7
  6
CONTINUOUS
 10
534.0219989944
 20
30.8415210777
 11
534.3688739531
 21
30.8092573885
  0
LINE
  8
0
 62
7
  6
CONTINUOUS
 10
538.1266865909
 20
30.8415210777
 11
538.3579363704
 21
30.8092573885
  0
LINE
  8
0
 62
7
  6
CONTINUOUS
 10
536.5079364807
 20
31.7126406987
 11
536.7391865909
 21
31.6803770123
  0
LINE
  8
0
 62
7
  6
CONTINUOUS
 10
538.8204365909
 20
31.7126406987
 11
539.0516867012
 21
31.6803770123
  0
LINE
  8
0
 62
7
  6
CONTINUOUS
 10
543.2719989807
 20
31.3577401029
 11
544.2548117012
 21
31.1964216708
  0
LINE
  8
0
 62
7
  6
CONTINUOUS
 10
544.4282492012
 20
31.29321273
 11
543.4454364807
 21
31.4545312073
  0
LINE
  8
0
 62
7
  6
CONTINUOUS
 10
536.9126240909
 20
31.809431758
 11
536.7391865909
 21
31.8416954444
  0
LINE
  8
0
 62
7
  6
CONTINUOUS
 10
543.2141867012
 20
30.873784767
 11
543.3876242012
 21
30.8415210777
  0
LINE
  8
0
 62
7
  6
CONTINUOUS
 10
542.0579364807
 20
31.809431758
 11
541.8844989807
 21
31.8416954444
  0
LINE
  8
0
 62
7
  6
CONTINUOUS
 10
544.3126239807
 20
31.6803770123
 11
544.4282492012
 21
31.6481133259
  0
LINE
  8
0
 62
7
  6
CONTINUOUS
 10
544.4860614807
 20
31.0673669025
 11
544.4282492012
 21
31.0028395296
  0
LINE
  8
0
 62
7
  6
CONTINUOUS
 10
543.0407492012
 20
31.7449043851
 11
542.9251239807
 21
31.6481133259
  0
LINE
  8
0
 62
7
  6
CONTINUOUS
 10
537.9532490909
 20
31.7771680715
 11
537.8376238704
 21
31.7126406987
  0
LINE
  8
0
 62
7
  6
CONTINUOUS
 10
538.0110613704
 20
31.3900038345
 11
537.8954364807
 21
31.3254764164
  0
LINE
  8
0
 62
7
  6
CONTINUOUS
 10
538.1266865909
 20
31.2286853572
 11
538.2423114807
 21
31.29321273
  0
LINE
  8
0
 62
7
  6
CONTINUOUS
 10
535.6985614255
 20
30.8092573885
 11
535.9876239807
 21
30.8092573885
  0
LINE
  8
0
 62
7
  6
CONTINUOUS
 10
537.0282489807
 20
30.8092573885
 11
537.3173113704
 21
30.8092573885
  0
LINE
  8
0
 62
7
  6
CONTINUOUS
 10
538.3579363704
 20
30.8092573885
 11
538.7048113704
 21
30.8092573885
  0
LINE
  8
0
 62
7
  6
CONTINUOUS
 10
539.3407487601
 20
30.8092573885
 11
539.6298114807
 21
30.8092573885
  0
LINE
  8
0
 62
7
  6
CONTINUOUS
 10
540.0923117012
 20
30.8092573885
 11
540.3813737601
 21
30.8092573885
  0
LINE
  8
0
 62
7
  6
CONTINUOUS
 10
540.8438739807
 20
30.8092573885
 11
541.1329367012
 21
30.8092573885
  0
LINE
  8
0
 62
7
  6
CONTINUOUS
 10
542.1735617012
 20
30.8092573885
 11
542.4626237601
 21
30.8092573885
  0
LINE
  8
0
 62
7
  6
CONTINUOUS
 10
543.7344992012
 20
30.8092573885
 11
544.0813742012
 21
30.8092573885
  0
LINE
  8
0
 62
7
  6
CONTINUOUS
 10
544.0813742012
 20
30.9383121455
 11
543.7344992012
 21
30.9383121455
  0
LINE
  8
0
 62
7
  6
CONTINUOUS
 10
538.7048113704
 20
30.9383121455
 11
538.3579363704
 21
30.9383121455
  0
LINE
  8
0
 62
7
  6
CONTINUOUS
 10
543.2141867012
 20
31.0673669025
 11
542.9251239807
 21
31.0673669025
  0
LINE
  8
0
 62
7
  6
CONTINUOUS
 10
535.2360615358
 20
31.1318942979
 11
534.9469989807
 21
31.1318942979
  0
LINE
  8
0
 62
7
  6
CONTINUOUS
 10
534.3110615082
 20
31.7126406987
 11
534.7157489531
 21
31.6803770123
  0
LINE
  8
0
 62
7
  6
CONTINUOUS
 10
534.7735614807
 20
31.809431758
 11
534.3688739531
 21
31.8416954444
  0
LINE
  8
0
 62
7
  6
CONTINUOUS
 10
543.3876242012
 20
30.8415210777
 11
543.7344992012
 21
30.8092573885
  0
LINE
  8
0
 62
7
  6
CONTINUOUS
 10
543.7344992012
 20
30.9383121455
 11
543.3876242012
 21
30.9705758432
  0
LINE
  8
0
 62
7
  6
CONTINUOUS
 10
539.1673112601
 20
31.809431758
 11
538.8204365909
 21
31.8416954444
  0
LINE
  8
0
 62
7
  6
CONTINUOUS
 10
543.9657489807
 20
31.7126406987
 11
544.3126239807
 21
31.6803770123
  0
LINE
  8
0
 62
7
  6
CONTINUOUS
 10
544.3126239807
 20
31.809431758
 11
543.9657489807
 21
31.8416954444
  0
LINE
  8
0
 62
7
  6
CONTINUOUS
 10
541.6532492012
 20
31.7126406987
 11
541.8844989807
 21
31.6803770123
  0
LINE
  8
0
 62
7
  6
CONTINUOUS
 10
544.4860614807
 20
31.7771680715
 11
544.3126239807
 21
31.809431758
  0
LINE
  8
0
 62
7
  6
CONTINUOUS
 10
544.6594989807
 20
30.9060484591
 11
544.7751235396
 21
31.0028395296
  0
LINE
  8
0
 62
7
  6
CONTINUOUS
 10
539.1673112601
 20
31.0996306115
 11
538.9938737601
 21
31.0028395296
  0
LINE
  8
0
 62
7
  6
CONTINUOUS
 10
541.2485612601
 20
31.7449043851
 11
541.1329367012
 21
31.6803770123
  0
LINE
  8
0
 62
7
  6
CONTINUOUS
 10
541.1329367012
 20
31.5513222666
 11
541.2485612601
 21
31.6158496394
  0
LINE
  8
0
 62
7
  6
CONTINUOUS
 10
533.8485614944
 20
31.7771680715
 11
533.6751239738
 21
31.7126406987
  0
LINE
  8
0
 62
7
  6
CONTINUOUS
 10
536.2766863704
 20
31.809431758
 11
536.1032490358
 21
31.7449043851
  0
LINE
  8
0
 62
7
  6
CONTINUOUS
 10
536.1032490358
 20
31.6158496394
 11
536.2766863704
 21
31.6803770123
  0
LINE
  8
0
 62
7
  6
CONTINUOUS
 10
534.8891865358
 20
31.035103216
 11
534.7157489531
 21
30.9705758432
  0
LINE
  8
0
 62
7
  6
CONTINUOUS
 10
544.3126239807
 20
30.9705758432
 11
544.0813742012
 21
30.9383121455
  0
LINE
  8
0
 62
7
  6
CONTINUOUS
 10
538.7048113704
 20
30.8092573885
 11
538.9938737601
 21
30.8415210777
  0
LINE
  8
0
 62
7
  6
CONTINUOUS
 10
544.0813742012
 20
30.8092573885
 11
544.4282492012
 21
30.8415210777
  0
LINE
  8
0
 62
7
  6
CONTINUOUS
 10
534.3688739531
 20
30.8092573885
 11
534.7735614807
 21
30.8415210777
  0
LINE
  8
0
 62
7
  6
CONTINUOUS
 10
534.7157489531
 20
30.9705758432
 11
534.3110615082
 21
30.9383121455
  0
LINE
  8
0
 62
7
  6
CONTINUOUS
 10
538.5891864807
 20
31.3577401029
 11
539.2251242012
 21
31.3577401029
  0
LINE
  8
0
 62
7
  6
CONTINUOUS
 10
539.2251242012
 20
31.4867948937
 11
538.5891864807
 21
31.4867948937
  0
LINE
  8
0
 62
7
  6
CONTINUOUS
 10
534.9469989807
 20
31.5190585802
 11
535.2360615358
 21
31.5190585802
  0
LINE
  8
0
 62
7
  6
CONTINUOUS
 10
537.7798115909
 20
31.583585953
 11
538.0688739807
 21
31.583585953
  0
LINE
  8
0
 62
7
  6
CONTINUOUS
 10
544.4860614807
 20
31.583585953
 11
544.7751235396
 21
31.583585953
  0
LINE
  8
0
 62
7
  6
CONTINUOUS
 10
538.4735615909
 20
31.7126406987
 11
538.8204365909
 21
31.7126406987
  0
LINE
  8
0
 62
7
  6
CONTINUOUS
 10
543.6188739807
 20
31.7126406987
 11
543.9657489807
 21
31.7126406987
  0
LINE
  8
0
 62
7
  6
CONTINUOUS
 10
543.9657489807
 20
31.8416954444
 11
543.6188739807
 21
31.8416954444
  0
LINE
  8
0
 62
7
  6
CONTINUOUS
 10
541.8844989807
 20
31.8416954444
 11
541.6532492012
 21
31.8416954444
  0
LINE
  8
0
 62
7
  6
CONTINUOUS
 10
541.1329367012
 20
31.8416954444
 11
540.8438739807
 21
31.8416954444
  0
LINE
  8
0
 62
7
  6
CONTINUOUS
 10
540.3813737601
 20
31.8416954444
 11
540.0923117012
 21
31.8416954444
  0
LINE
  8
0
 62
7
  6
CONTINUOUS
 10
538.8204365909
 20
31.8416954444
 11
538.4735615909
 21
31.8416954444
  0
LINE
  8
0
 62
7
  6
CONTINUOUS
 10
536.7391865909
 20
31.8416954444
 11
536.5079364807
 21
31.8416954444
  0
LINE
  8
0
 62
7
  6
CONTINUOUS
 10
540.0923117012
 20
32.164332399
 11
540.3813737601
 21
32.164332399
  0
LINE
  8
0
 62
7
  6
CONTINUOUS
 10
540.3813737601
 20
32.3256508311
 11
540.0923117012
 21
32.3256508311
  0
LINE
  8
0
 62
7
  6
CONTINUOUS
 10
535.9876239807
 20
32.3256508311
 11
535.6985614255
 21
32.3256508311
  0
LINE
  8
0
 62
7
  6
CONTINUOUS
 10
535.025405743
 20
32.612536077
 11
535.4379770916
 21
32.612536077
  0
LINE
  8
0
 62
7
  6
CONTINUOUS
 10
536.6647500053
 20
32.612536077
 11
538.0581926282
 21
32.612536077
  0
LINE
  8
0
 62
7
  6
CONTINUOUS
 10
538.3860614807
 20
32.612536077
 11
539.7795041036
 21
32.612536077
  0
LINE
  8
0
 62
7
  6
CONTINUOUS
 10
541.6647500053
 20
32.612536077
 11
543.0581926282
 21
32.612536077
  0
LINE
  8
0
 62
7
  6
CONTINUOUS
 10
543.3860614807
 20
32.612536077
 11
544.7795041036
 21
32.612536077
  0
LINE
  8
0
 62
7
  6
CONTINUOUS
 10
541.4219987601
 20
31.809431758
 11
541.2485612601
 21
31.7449043851
  0
LINE
  8
0
 62
7
  6
CONTINUOUS
 10
538.9938737601
 20
30.8415210777
 11
539.1673112601
 21
30.9060484591
  0
LINE
  8
0
 62
7
  6
CONTINUOUS
 10
544.4282492012
 20
30.8415210777
 11
544.6594989807
 21
30.9060484591
  0
LINE
  8
0
 62
7
  6
CONTINUOUS
 10
544.4282492012
 20
31.0028395296
 11
544.3126239807
 21
30.9705758432
  0
LINE
  8
0
 62
7
  6
CONTINUOUS
 10
543.3876242012
 20
31.6803770123
 11
543.6188739807
 21
31.7126406987
  0
LINE
  8
0
 62
7
  6
CONTINUOUS
 10
541.4219987601
 20
31.6803770123
 11
541.6532492012
 21
31.7126406987
  0
LINE
  8
0
 62
7
  6
CONTINUOUS
 10
538.3579363704
 20
31.3254764164
 11
538.5891864807
 21
31.3577401029
  0
LINE
  8
0
 62
7
  6
CONTINUOUS
 10
541.6532492012
 20
31.8416954444
 11
541.4219987601
 21
31.809431758
  0
LINE
  8
0
 62
7
  6
CONTINUOUS
 10
538.2423114807
 20
31.6803770123
 11
538.4735615909
 21
31.7126406987
  0
LINE
  8
0
 62
7
  6
CONTINUOUS
 10
543.6188739807
 20
31.8416954444
 11
543.2719989807
 21
31.809431758
  0
LINE
  8
0
 62
7
  6
CONTINUOUS
 10
538.5891864807
 20
31.4867948937
 11
538.2423114807
 21
31.4545312073
  0
LINE
  8
0
 62
7
  6
CONTINUOUS
 10
534.3688739531
 20
31.8416954444
 11
534.0219989944
 21
31.809431758
  0
LINE
  8
0
 62
7
  6
CONTINUOUS
 10
538.4735615909
 20
31.8416954444
 11
538.0688739807
 21
31.809431758
  0
LINE
  8
0
 62
7
  6
CONTINUOUS
 10
535.8450778741
 20
33.7600770606
 11
535.1893401692
 21
33.7600770606
  0
LINE
  8
0
 62
7
  6
CONTINUOUS
 10
541.2485612601
 20
31.6158496394
 11
541.4219987601
 21
31.6803770123
  0
LINE
  8
0
 62
7
  6
CONTINUOUS
 10
543.2719989807
 20
31.6481133259
 11
543.3876242012
 21
31.6803770123
  0
LINE
  8
0
 62
7
  6
CONTINUOUS
 10
543.2719989807
 20
31.809431758
 11
543.0407492012
 21
31.7449043851
  0
LINE
  8
0
 62
7
  6
CONTINUOUS
 10
538.9938737601
 20
31.0028395296
 11
538.7048113704
 21
30.9383121455
  0
LINE
  8
0
 62
7
  6
CONTINUOUS
 10
536.2766863704
 20
31.6803770123
 11
536.5079364807
 21
31.7126406987
  0
LINE
  8
0
 62
7
  6
CONTINUOUS
 10
536.5079364807
 20
31.8416954444
 11
536.2766863704
 21
31.809431758
  0
LINE
  8
0
 62
7
  6
CONTINUOUS
 10
534.0798114807
 20
31.6803770123
 11
534.3110615082
 21
31.7126406987
  0
LINE
  8
0
 62
7
  6
CONTINUOUS
 10
540.5991762348
 20
35.2354868967
 11
541.2549139397
 21
35.2354868967
  0
LINE
  8
0
 62
7
  6
CONTINUOUS
 10
538.2423114807
 20
31.29321273
 11
538.3579363704
 21
31.3254764164
  0
LINE
  8
0
 62
7
  6
CONTINUOUS
 10
538.2423114807
 20
31.4545312073
 11
538.0110613704
 21
31.3900038345
  0
LINE
  8
0
 62
7
  6
CONTINUOUS
 10
538.1266865909
 20
31.6481133259
 11
538.2423114807
 21
31.6803770123
  0
LINE
  8
0
 62
7
  6
CONTINUOUS
 10
534.7735614807
 20
30.8415210777
 11
535.0048114255
 21
30.9060484591
  0
LINE
  8
0
 62
7
  6
CONTINUOUS
 10
538.0688739807
 20
31.809431758
 11
537.9532490909
 21
31.7771680715
  0
LINE
  8
0
 62
7
  6
CONTINUOUS
 10
534.0219989944
 20
31.809431758
 11
533.8485614944
 21
31.7771680715
  0
LINE
  8
0
 62
7
  6
CONTINUOUS
 10
544.7795041036
 20
36.3830278803
 11
543.3860614807
 21
36.3830278803
  0
LINE
  8
0
 62
7
  6
CONTINUOUS
 10
541.4188483659
 20
36.3830278803
 11
541.0062770173
 21
36.3830278803
  0
LINE
  8
0
 62
7
  6
CONTINUOUS
 10
539.7795041036
 20
36.3830278803
 11
538.3860614807
 21
36.3830278803
  0
LINE
  8
0
 62
7
  6
CONTINUOUS
 10
538.0581926282
 20
36.3830278803
 11
536.6647500053
 21
36.3830278803
  0
LINE
  8
0
 62
7
  6
CONTINUOUS
 10
534.7795041036
 20
36.3830278803
 11
533.3860614807
 21
36.3830278803
  0
LINE
  8
0
 62
7
  6
CONTINUOUS
 10
533.9641864669
 20
31.6481133259
 11
534.0798114807
 21
31.6803770123
  0
CIRCLE
  8
0
 62
7
  6
CONTINUOUS
 10
544.0827827921
 20
38.7190934541
 40
2.0901639344
  0
ARC
  8
0
 62
7
  6
CONTINUOUS
 10
535.025405743
 20
34.2518803393
 40
1.6393442623
 50
180.0
 51
270.0
  0
ARC
  8
0
 62
7
  6
CONTINUOUS
 10
541.4188483659
 20
34.743683618
 40
1.6393442623
 50
0.0
 51
90.0
  0
ARC
  8
0
 62
7
  6
CONTINUOUS
 10
535.4379770916
 20
34.0879459131
 40
1.4754098361
 50
270.0
 51
326.2510114041
  0
ARC
  8
0
 62
7
  6
CONTINUOUS
 10
541.0062770173
 20
34.9076180442
 40
1.4754098361
 50
90.0
 51
146.2510114041
  0
ARC
  8
0
 62
7
  6
CONTINUOUS
 10
535.8450778741
 20
34.5797491918
 40
0.8196721311
 50
270.0
 51
360.0
  0
ARC
  8
0
 62
7
  6
CONTINUOUS
 10
540.5991762348
 20
34.4158147655
 40
0.8196721311
 50
90.0
 51
180.0
  0
ARC
  8
0
 62
7
  6
CONTINUOUS
 10
535.1893401692
 20
34.1699131262
 40
0.4098360656
 50
180.0
 51
270.0
  0
ARC
  8
0
 62
7
  6
CONTINUOUS
 10
541.2549139397
 20
34.8256508311
 40
0.4098360656
 50
0.0
 51
90.0
  0
SOLID
  8
0
 62
7
  6
CONTINUOUS
 10
540.0923117012
 20
32.1643327593
 11
540.0923117012
 21
32.3256512429
 12
540.3813737601
 22
32.1643327593
 13
540.3813737601
 23
32.3256512429
  0
SOLID
  8
0
 62
7
  6
CONTINUOUS
 10
534.3688739531
 20
31.841695792
 11
534.7735614807
 21
31.8094316148
 12
534.0219989944
 22
31.8094316148
 13
534.0219989944
 23
31.8094316148
  0
SOLID
  8
0
 62
7
  6
CONTINUOUS
 10
533.8485614944
 20
31.7771687019
 11
534.0219989944
 21
31.8094316148
 12
534.7735614807
 22
31.8094316148
 13
534.7735614807
 23
31.8094316148
  0
SOLID
  8
0
 62
7
  6
CONTINUOUS
 10
534.7735614807
 20
31.8094316148
 11
535.0048114255
 21
31.7449043986
 12
533.8485614944
 22
31.7771687019
 13
533.8485614944
 23
31.7771687019
  0
SOLID
  8
0
 62
7
  6
CONTINUOUS
 10
533.6751239738
 20
31.712640202
 11
533.8485614944
 21
31.7771687019
 12
535.0048114255
 22
31.7449043986
 13
535.0048114255
 23
31.7449043986
  0
SOLID
  8
0
 62
7
  6
CONTINUOUS
 10
533.6751239738
 20
31.712640202
 11
535.0048114255
 21
31.7449043986
 12
534.3110615082
 22
31.712640202
 13
534.3110615082
 23
31.712640202
  0
SOLID
  8
0
 62
7
  6
CONTINUOUS
 10
534.3110615082
 20
31.712640202
 11
535.0048114255
 21
31.7449043986
 12
534.7157489531
 22
31.6803773084
 13
534.7157489531
 23
31.6803773084
  0
SOLID
  8
0
 62
7
  6
CONTINUOUS
 10
535.0048114255
 20
31.7449043986
 11
535.1782489255
 21
31.6481130052
 12
534.7157489531
 22
31.6803773084
 13
534.7157489531
 23
31.6803773084
  0
SOLID
  8
0
 62
7
  6
CONTINUOUS
 10
534.8891865358
 20
31.6158502183
 11
534.7157489531
 21
31.6803773084
 12
535.1782489255
 22
31.6481130052
 13
535.1782489255
 23
31.6481130052
  0
SOLID
  8
0
 62
7
  6
CONTINUOUS
 10
534.8891865358
 20
31.6158502183
 11
535.1782489255
 21
31.6481130052
 12
534.9469989807
 22
31.5190586669
 13
534.9469989807
 23
31.5190586669
  0
SOLID
  8
0
 62
7
  6
CONTINUOUS
 10
535.1782489255
 20
31.6481130052
 11
535.2360615358
 21
31.5190586669
 12
534.9469989807
 22
31.5190586669
 13
534.9469989807
 23
31.5190586669
  0
SOLID
  8
0
 62
7
  6
CONTINUOUS
 10
536.2766863704
 20
31.8094307377
 11
536.5079364807
 21
31.841695041
 12
536.7391865909
 22
31.841695041
 13
536.7391865909
 23
31.841695041
  0
SOLID
  8
0
 62
7
  6
CONTINUOUS
 10
536.7391865909
 20
31.841695041
 11
536.9126240909
 21
31.8094307377
 12
536.2766863704
 22
31.8094307377
 13
536.2766863704
 23
31.8094307377
  0
SOLID
  8
0
 62
7
  6
CONTINUOUS
 10
536.1032490358
 20
31.7449036475
 11
536.2766863704
 21
31.8094307377
 12
536.9126240909
 22
31.8094307377
 13
536.9126240909
 23
31.8094307377
  0
SOLID
  8
0
 62
7
  6
CONTINUOUS
 10
536.9126240909
 20
31.8094307377
 11
537.0860615909
 21
31.7449036475
 12
536.1032490358
 22
31.7449036475
 13
536.1032490358
 23
31.7449036475
  0
SOLID
  8
0
 62
7
  6
CONTINUOUS
 10
537.0860615909
 20
31.7449036475
 11
536.5079364807
 21
31.7126400953
 12
536.1032490358
 22
31.7449036475
 13
536.1032490358
 23
31.7449036475
  0
SOLID
  8
0
 62
7
  6
CONTINUOUS
 10
535.9876239807
 20
31.6803765574
 11
536.1032490358
 21
31.7449036475
 12
536.5079364807
 22
31.7126400953
 13
536.5079364807
 23
31.7126400953
  0
SOLID
  8
0
 62
7
  6
CONTINUOUS
 10
536.5079364807
 20
31.7126400953
 11
536.2766863704
 21
31.6803765574
 12
535.9876239807
 22
31.6803765574
 13
535.9876239807
 23
31.6803765574
  0
SOLID
  8
0
 62
7
  6
CONTINUOUS
 10
536.5079364807
 20
31.7126400953
 11
537.0860615909
 21
31.7449036475
 12
536.7391865909
 22
31.6803765574
 13
536.7391865909
 23
31.6803765574
  0
SOLID
  8
0
 62
7
  6
CONTINUOUS
 10
537.0860615909
 20
31.7449036475
 11
537.2016864807
 21
31.6803765574
 12
536.7391865909
 22
31.6803765574
 13
536.7391865909
 23
31.6803765574
  0
SOLID
  8
0
 62
7
  6
CONTINUOUS
 10
536.8548114807
 20
31.6481130052
 11
536.7391865909
 21
31.6803765574
 12
537.2016864807
 22
31.6803765574
 13
537.2016864807
 23
31.6803765574
  0
SOLID
  8
0
 62
7
  6
CONTINUOUS
 10
537.2016864807
 20
31.6803765574
 11
537.2594990909
 21
31.6158494672
 12
536.8548114807
 22
31.6481130052
 13
536.8548114807
 23
31.6481130052
  0
SOLID
  8
0
 62
7
  6
CONTINUOUS
 10
536.9704363704
 20
31.583585915
 11
536.8548114807
 21
31.6481130052
 12
537.2594990909
 22
31.6158494672
 13
537.2594990909
 23
31.6158494672
  0
SOLID
  8
0
 62
7
  6
CONTINUOUS
 10
536.9704363704
 20
31.583585915
 11
537.2594990909
 21
31.6158494672
 12
537.0282489807
 22
31.4545309836
 13
537.0282489807
 23
31.4545309836
  0
SOLID
  8
0
 62
7
  6
CONTINUOUS
 10
537.2594990909
 20
31.6158494672
 11
537.3173113704
 21
31.4545309836
 12
537.0282489807
 22
31.4545309836
 13
537.0282489807
 23
31.4545309836
  0
SOLID
  8
0
 62
7
  6
CONTINUOUS
 10
536.2766863704
 20
31.6803765574
 11
536.1032490358
 21
31.6158494672
 12
535.9876239807
 22
31.6803765574
 13
535.9876239807
 23
31.6803765574
  0
SOLID
  8
0
 62
7
  6
CONTINUOUS
 10
536.1032490358
 20
31.6158494672
 11
535.9876239807
 21
31.5513216117
 12
535.9876239807
 22
31.6803765574
 13
535.9876239807
 23
31.6803765574
  0
SOLID
  8
0
 62
7
  6
CONTINUOUS
 10
535.9876239807
 20
31.5513216117
 11
535.6985614255
 21
30.8092570492
 12
535.9876239807
 22
31.6803765574
 13
535.9876239807
 23
31.6803765574
  0
SOLID
  8
0
 62
7
  6
CONTINUOUS
 10
535.9876239807
 20
31.6803765574
 11
535.6985614255
 21
30.8092570492
 12
535.9876239807
 22
32.3256504918
 13
535.9876239807
 23
32.3256504918
  0
SOLID
  8
0
 62
7
  6
CONTINUOUS
 10
535.6985614255
 20
30.8092570492
 11
535.6985614255
 21
32.3256504918
 12
535.9876239807
 22
32.3256504918
 13
535.9876239807
 23
32.3256504918
  0
SOLID
  8
0
 62
7
  6
CONTINUOUS
 10
535.9876239807
 20
31.5513216117
 11
535.9876239807
 21
30.8092570492
 12
535.6985614255
 22
30.8092570492
 13
535.6985614255
 23
30.8092570492
  0
SOLID
  8
0
 62
7
  6
CONTINUOUS
 10
537.0282489807
 20
30.8092570492
 11
537.0282489807
 21
31.4545309836
 12
537.3173113704
 22
31.4545309836
 13
537.3173113704
 23
31.4545309836
  0
SOLID
  8
0
 62
7
  6
CONTINUOUS
 10
537.3173113704
 20
31.4545309836
 11
537.3173113704
 21
30.8092570492
 12
537.0282489807
 22
30.8092570492
 13
537.0282489807
 23
30.8092570492
  0
SOLID
  8
0
 62
7
  6
CONTINUOUS
 10
538.0688739807
 20
31.809431823
 11
538.4735615909
 21
31.8416958158
 12
538.8204365909
 22
31.8416958158
 13
538.8204365909
 23
31.8416958158
  0
SOLID
  8
0
 62
7
  6
CONTINUOUS
 10
538.8204365909
 20
31.8416958158
 11
539.1673112601
 21
31.809431823
 12
538.0688739807
 22
31.809431823
 13
538.0688739807
 23
31.809431823
  0
SOLID
  8
0
 62
7
  6
CONTINUOUS
 10
537.9532490909
 20
31.7771687019
 11
538.0688739807
 21
31.809431823
 12
539.1673112601
 22
31.809431823
 13
539.1673112601
 23
31.809431823
  0
SOLID
  8
0
 62
7
  6
CONTINUOUS
 10
539.1673112601
 20
31.809431823
 11
539.3407487601
 21
31.7449043986
 12
537.9532490909
 22
31.7771687019
 13
537.9532490909
 23
31.7771687019
  0
SOLID
  8
0
 62
7
  6
CONTINUOUS
 10
537.8376238704
 20
31.7126398448
 11
537.9532490909
 21
31.7771687019
 12
539.3407487601
 22
31.7449043986
 13
539.3407487601
 23
31.7449043986
  0
SOLID
  8
0
 62
7
  6
CONTINUOUS
 10
537.8376238704
 20
31.7126398448
 11
539.3407487601
 21
31.7449043986
 12
538.4735615909
 22
31.7126398448
 13
538.4735615909
 23
31.7126398448
  0
SOLID
  8
0
 62
7
  6
CONTINUOUS
 10
538.4735615909
 20
31.7126398448
 11
539.3407487601
 21
31.7449043986
 12
538.8204365909
 22
31.7126398448
 13
538.8204365909
 23
31.7126398448
  0
SOLID
  8
0
 62
7
  6
CONTINUOUS
 10
538.8204365909
 20
31.7126398448
 11
539.3407487601
 21
31.7449043986
 12
539.0516867012
 22
31.6803774007
 13
539.0516867012
 23
31.6803774007
  0
SOLID
  8
0
 62
7
  6
CONTINUOUS
 10
539.3407487601
 20
31.7449043986
 11
539.4563739807
 21
31.6803774007
 12
539.0516867012
 22
31.6803774007
 13
539.0516867012
 23
31.6803774007
  0
SOLID
  8
0
 62
7
  6
CONTINUOUS
 10
537.7798115909
 20
31.6481126336
 11
537.8376238704
 21
31.7126398448
 12
538.4735615909
 22
31.7126398448
 13
538.4735615909
 23
31.7126398448
  0
SOLID
  8
0
 62
7
  6
CONTINUOUS
 10
539.1673112601
 20
31.6481126336
 11
539.0516867012
 21
31.6803774007
 12
539.4563739807
 22
31.6803774007
 13
539.4563739807
 23
31.6803774007
  0
SOLID
  8
0
 62
7
  6
CONTINUOUS
 10
539.1673112601
 20
31.6481126336
 11
539.4563739807
 21
31.6803774007
 12
539.2251242012
 22
31.5835861968
 13
539.2251242012
 23
31.5835861968
  0
SOLID
  8
0
 62
7
  6
CONTINUOUS
 10
539.4563739807
 20
31.6803774007
 11
539.5141862601
 21
31.5835861968
 12
539.2251242012
 22
31.5835861968
 13
539.2251242012
 23
31.5835861968
  0
SOLID
  8
0
 62
7
  6
CONTINUOUS
 10
539.2251242012
 20
31.4867945216
 11
539.2251242012
 21
31.5835861968
 12
539.5141862601
 22
31.5835861968
 13
539.5141862601
 23
31.5835861968
  0
SOLID
  8
0
 62
7
  6
CONTINUOUS
 10
539.2251242012
 20
31.4867945216
 11
539.5141862601
 21
31.5835861968
 12
539.2251242012
 22
31.3577403412
 13
539.2251242012
 23
31.3577403412
  0
SOLID
  8
0
 62
7
  6
CONTINUOUS
 10
539.2251242012
 20
31.3577403412
 11
539.5141862601
 21
31.5835861968
 12
539.2251242012
 22
31.1641579843
 13
539.2251242012
 23
31.1641579843
  0
SOLID
  8
0
 62
7
  6
CONTINUOUS
 10
539.5141862601
 20
31.5835861968
 11
539.5141862601
 21
31.0673661609
 12
539.2251242012
 22
31.1641579843
 13
539.2251242012
 23
31.1641579843
  0
SOLID
  8
0
 62
7
  6
CONTINUOUS
 10
541.4219987601
 20
31.8094310465
 11
541.6532492012
 21
31.8416957661
 12
541.8844989807
 22
31.8416957661
 13
541.8844989807
 23
31.8416957661
  0
SOLID
  8
0
 62
7
  6
CONTINUOUS
 10
541.8844989807
 20
31.8416957661
 11
542.0579364807
 21
31.8094310465
 12
541.4219987601
 22
31.8094310465
 13
541.4219987601
 23
31.8094310465
  0
SOLID
  8
0
 62
7
  6
CONTINUOUS
 10
541.2485612601
 20
31.7449047044
 11
541.4219987601
 21
31.8094310465
 12
542.0579364807
 22
31.8094310465
 13
542.0579364807
 23
31.8094310465
  0
SOLID
  8
0
 62
7
  6
CONTINUOUS
 10
542.0579364807
 20
31.8094310465
 11
542.2313739807
 21
31.7449047044
 12
541.2485612601
 22
31.7449047044
 13
541.2485612601
 23
31.7449047044
  0
SOLID
  8
0
 62
7
  6
CONTINUOUS
 10
542.2313739807
 20
31.7449047044
 11
541.6532492012
 21
31.7126400953
 12
541.2485612601
 22
31.7449047044
 13
541.2485612601
 23
31.7449047044
  0
SOLID
  8
0
 62
7
  6
CONTINUOUS
 10
541.1329367012
 20
31.6803773299
 11
541.2485612601
 21
31.7449047044
 12
541.6532492012
 22
31.7126400953
 13
541.6532492012
 23
31.7126400953
  0
SOLID
  8
0
 62
7
  6
CONTINUOUS
 10
541.6532492012
 20
31.7126400953
 11
541.4219987601
 21
31.6803773299
 12
541.1329367012
 22
31.6803773299
 13
541.1329367012
 23
31.6803773299
  0
SOLID
  8
0
 62
7
  6
CONTINUOUS
 10
541.6532492012
 20
31.7126400953
 11
542.2313739807
 21
31.7449047044
 12
541.8844989807
 22
31.6803773299
 13
541.8844989807
 23
31.6803773299
  0
SOLID
  8
0
 62
7
  6
CONTINUOUS
 10
542.2313739807
 20
31.7449047044
 11
542.3469992012
 21
31.6803773299
 12
541.8844989807
 22
31.6803773299
 13
541.8844989807
 23
31.6803773299
  0
SOLID
  8
0
 62
7
  6
CONTINUOUS
 10
542.0001242012
 20
31.6481130052
 11
541.8844989807
 21
31.6803773299
 12
542.3469992012
 22
31.6803773299
 13
542.3469992012
 23
31.6803773299
  0
SOLID
  8
0
 62
7
  6
CONTINUOUS
 10
542.0001242012
 20
31.6481130052
 11
542.3469992012
 21
31.6803773299
 12
542.1157487601
 22
31.5835862682
 13
542.1157487601
 23
31.5835862682
  0
SOLID
  8
0
 62
7
  6
CONTINUOUS
 10
542.3469992012
 20
31.6803773299
 11
542.4048114807
 21
31.5835862682
 12
542.1157487601
 22
31.5835862682
 13
542.1157487601
 23
31.5835862682
  0
SOLID
  8
0
 62
7
  6
CONTINUOUS
 10
542.1735617012
 20
31.422267832
 11
542.1157487601
 21
31.5835862682
 12
542.4048114807
 22
31.5835862682
 13
542.4048114807
 23
31.5835862682
  0
SOLID
  8
0
 62
7
  6
CONTINUOUS
 10
542.4048114807
 20
31.5835862682
 11
542.4626237601
 21
31.422267832
 12
542.1735617012
 22
31.422267832
 13
542.1735617012
 23
31.422267832
  0
SOLID
  8
0
 62
7
  6
CONTINUOUS
 10
541.4219987601
 20
31.6803773299
 11
541.2485612601
 21
31.6158502183
 12
541.1329367012
 22
31.6803773299
 13
541.1329367012
 23
31.6803773299
  0
SOLID
  8
0
 62
7
  6
CONTINUOUS
 10
541.2485612601
 20
31.6158502183
 11
541.1329367012
 21
31.5513216117
 12
541.1329367012
 22
31.6803773299
 13
541.1329367012
 23
31.6803773299
  0
SOLID
  8
0
 62
7
  6
CONTINUOUS
 10
541.1329367012
 20
31.5513216117
 11
540.8438739807
 21
30.8092577743
 12
541.1329367012
 22
31.6803773299
 13
541.1329367012
 23
31.6803773299
  0
SOLID
  8
0
 62
7
  6
CONTINUOUS
 10
541.1329367012
 20
31.6803773299
 11
540.8438739807
 21
30.8092577743
 12
541.1329367012
 22
31.8416957661
 13
541.1329367012
 23
31.8416957661
  0
SOLID
  8
0
 62
7
  6
CONTINUOUS
 10
540.8438739807
 20
30.8092577743
 11
540.8438739807
 21
31.8416957661
 12
541.1329367012
 22
31.8416957661
 13
541.1329367012
 23
31.8416957661
  0
SOLID
  8
0
 62
7
  6
CONTINUOUS
 10
541.1329367012
 20
31.5513216117
 11
541.1329367012
 21
30.8092577743
 12
540.8438739807
 22
30.8092577743
 13
540.8438739807
 23
30.8092577743
  0
SOLID
  8
0
 62
7
  6
CONTINUOUS
 10
542.1735617012
 20
30.8092577743
 11
542.1735617012
 21
31.422267832
 12
542.4626237601
 22
31.422267832
 13
542.4626237601
 23
31.422267832
  0
SOLID
  8
0
 62
7
  6
CONTINUOUS
 10
542.4626237601
 20
31.422267832
 11
542.4626237601
 21
30.8092577743
 12
542.1735617012
 22
30.8092577743
 13
542.1735617012
 23
30.8092577743
  0
SOLID
  8
0
 62
7
  6
CONTINUOUS
 10
543.2719989807
 20
31.8094314924
 11
543.6188739807
 21
31.8416958387
 12
543.9657489807
 22
31.8416958387
 13
543.9657489807
 23
31.8416958387
  0
SOLID
  8
0
 62
7
  6
CONTINUOUS
 10
543.9657489807
 20
31.8416958387
 11
544.3126239807
 21
31.8094314924
 12
543.2719989807
 22
31.8094314924
 13
543.2719989807
 23
31.8094314924
  0
SOLID
  8
0
 62
7
  6
CONTINUOUS
 10
543.0407492012
 20
31.7449043986
 11
543.2719989807
 21
31.8094314924
 12
544.3126239807
 22
31.8094314924
 13
544.3126239807
 23
31.8094314924
  0
SOLID
  8
0
 62
7
  6
CONTINUOUS
 10
543.0407492012
 20
31.7449043986
 11
544.3126239807
 21
31.8094314888
 12
544.4860614807
 22
31.7771687019
 13
544.4860614807
 23
31.7771687019
  0
SOLID
  8
0
 62
7
  6
CONTINUOUS
 10
543.0407492012
 20
31.7449043986
 11
544.4860614807
 21
31.7771687019
 12
543.6188739807
 22
31.7126401399
 13
543.6188739807
 23
31.7126401399
  0
SOLID
  8
0
 62
7
  6
CONTINUOUS
 10
543.6188739807
 20
31.7126401399
 11
544.4860614807
 21
31.7771687019
 12
543.9657489807
 22
31.7126401399
 13
543.9657489807
 23
31.7126401399
  0
SOLID
  8
0
 62
7
  6
CONTINUOUS
 10
544.4860614807
 20
31.7771687019
 11
544.6594989807
 21
31.7126401399
 12
543.9657489807
 22
31.7126401399
 13
543.9657489807
 23
31.7126401399
  0
SOLID
  8
0
 62
7
  6
CONTINUOUS
 10
544.3126239807
 20
31.6803773084
 11
543.9657489807
 21
31.7126401399
 12
544.6594989807
 22
31.7126401399
 13
544.6594989807
 23
31.7126401399
  0
SOLID
  8
0
 62
7
  6
CONTINUOUS
 10
542.9251239807
 20
31.6481128977
 11
543.0407492012
 21
31.7449043986
 12
543.6188739807
 22
31.7126401399
 13
543.6188739807
 23
31.7126401399
  0
SOLID
  8
0
 62
7
  6
CONTINUOUS
 10
544.3126239807
 20
31.6803773084
 11
544.6594989807
 21
31.7126401399
 12
544.4282492012
 22
31.6481128977
 13
544.4282492012
 23
31.6481128977
  0
SOLID
  8
0
 62
7
  6
CONTINUOUS
 10
544.4282492012
 20
31.6481128977
 11
544.6594989807
 21
31.7126401399
 12
544.4860614807
 22
31.5835858812
 13
544.4860614807
 23
31.5835858812
  0
SOLID
  8
0
 62
7
  6
CONTINUOUS
 10
544.6594989807
 20
31.7126401399
 11
544.7751235396
 21
31.5835858812
 12
544.4860614807
 22
31.5835858812
 13
544.4860614807
 23
31.5835858812
  0
SOLID
  8
0
 62
7
  6
CONTINUOUS
 10
534.0798114807
 20
31.6803773084
 11
533.5594989807
 21
31.6481129264
 12
534.3110615082
 22
31.7126401456
 13
534.3110615082
 23
31.7126401456
  0
SOLID
  8
0
 62
7
  6
CONTINUOUS
 10
533.5594989807
 20
31.6481129264
 11
533.6751239738
 21
31.7126401456
 12
534.3110615082
 22
31.7126401456
 13
534.3110615082
 23
31.7126401456
  0
SOLID
  8
0
 62
7
  6
CONTINUOUS
 10
534.0798114807
 20
31.6803773084
 11
533.9641864669
 21
31.6481129264
 12
533.5594989807
 22
31.6481129264
 13
533.5594989807
 23
31.6481129264
  0
SOLID
  8
0
 62
7
  6
CONTINUOUS
 10
533.4438739824
 20
31.5190588248
 11
533.5594989807
 21
31.6481129264
 12
533.9641864669
 22
31.6481129264
 13
533.9641864669
 23
31.6481129264
  0
SOLID
  8
0
 62
7
  6
CONTINUOUS
 10
537.7798115909
 20
31.6481130555
 11
538.4735615909
 21
31.7126400953
 12
538.2423114807
 22
31.6803773084
 13
538.2423114807
 23
31.6803773084
  0
SOLID
  8
0
 62
7
  6
CONTINUOUS
 10
538.2423114807
 20
31.6803773084
 11
538.1266865909
 21
31.6481130555
 12
537.7798115909
 22
31.6481130555
 13
537.7798115909
 23
31.6481130555
  0
SOLID
  8
0
 62
7
  6
CONTINUOUS
 10
537.7798115909
 20
31.5835859653
 11
537.7798115909
 21
31.6481130555
 12
538.1266865909
 22
31.6481130555
 13
538.1266865909
 23
31.6481130555
  0
SOLID
  8
0
 62
7
  6
CONTINUOUS
 10
538.1266865909
 20
31.6481130555
 11
538.0688739807
 21
31.5835859653
 12
537.7798115909
 22
31.5835859653
 13
537.7798115909
 23
31.5835859653
  0
SOLID
  8
0
 62
7
  6
CONTINUOUS
 10
542.9251239807
 20
31.6481130555
 11
543.6188739807
 21
31.7126400953
 12
543.3876242012
 22
31.6803773084
 13
543.3876242012
 23
31.6803773084
  0
SOLID
  8
0
 62
7
  6
CONTINUOUS
 10
543.3876242012
 20
31.6803773084
 11
543.2719989807
 21
31.6481130555
 12
542.9251239807
 22
31.6481130555
 13
542.9251239807
 23
31.6481130555
  0
SOLID
  8
0
 62
7
  6
CONTINUOUS
 10
542.9251239807
 20
31.5835859653
 11
542.9251239807
 21
31.6481130555
 12
543.2719989807
 22
31.6481130555
 13
543.2719989807
 23
31.6481130555
  0
SOLID
  8
0
 62
7
  6
CONTINUOUS
 10
543.2719989807
 20
31.6481130555
 11
543.2141867012
 21
31.5835859653
 12
542.9251239807
 22
31.5835859653
 13
542.9251239807
 23
31.5835859653
  0
SOLID
  8
0
 62
7
  6
CONTINUOUS
 10
543.0407492012
 20
31.4545317347
 11
542.9251239807
 21
31.5835859653
 12
543.2141867012
 22
31.5835859653
 13
543.2141867012
 23
31.5835859653
  0
SOLID
  8
0
 62
7
  6
CONTINUOUS
 10
533.4438739824
 20
31.5190588248
 11
533.9641864669
 21
31.6481130052
 12
533.7907489669
 22
31.5513216117
 13
533.7907489669
 23
31.5513216117
  0
SOLID
  8
0
 62
7
  6
CONTINUOUS
 10
533.7907489669
 20
31.5513216117
 11
533.7329364807
 21
31.4867945216
 12
533.4438739824
 22
31.5190588248
 13
533.4438739824
 23
31.5190588248
  0
SOLID
  8
0
 62
7
  6
CONTINUOUS
 10
533.3860614807
 20
31.325476038
 11
533.4438739824
 21
31.5190588248
 12
533.7329364807
 22
31.4867945216
 13
533.7329364807
 23
31.4867945216
  0
SOLID
  8
0
 62
7
  6
CONTINUOUS
 10
538.2423114807
 20
31.4545317347
 11
538.5891864807
 21
31.4867945557
 12
539.2251242012
 22
31.4867945557
 13
539.2251242012
 23
31.4867945557
  0
SOLID
  8
0
 62
7
  6
CONTINUOUS
 10
538.2423114807
 20
31.4545317347
 11
539.2251242012
 21
31.4867945557
 12
538.0110613704
 22
31.3900038345
 13
538.0110613704
 23
31.3900038345
  0
SOLID
  8
0
 62
7
  6
CONTINUOUS
 10
538.0110613704
 20
31.3900038345
 11
539.2251242012
 21
31.4867945557
 12
538.5891864807
 22
31.3577403754
 13
538.5891864807
 23
31.3577403754
  0
SOLID
  8
0
 62
7
  6
CONTINUOUS
 10
539.2251242012
 20
31.4867945557
 11
539.2251242012
 21
31.3577403754
 12
538.5891864807
 22
31.3577403754
 13
538.5891864807
 23
31.3577403754
  0
SOLID
  8
0
 62
7
  6
CONTINUOUS
 10
543.0407492012
 20
31.4545313481
 11
543.2141867012
 21
31.583585915
 12
543.2719989807
 22
31.5190588248
 13
543.2719989807
 23
31.5190588248
  0
SOLID
  8
0
 62
7
  6
CONTINUOUS
 10
543.2719989807
 20
31.5190588248
 11
543.4454364807
 21
31.4545313481
 12
543.0407492012
 22
31.4545313481
 13
543.0407492012
 23
31.4545313481
  0
SOLID
  8
0
 62
7
  6
CONTINUOUS
 10
543.2719989807
 20
31.3577403412
 11
543.0407492012
 21
31.4545313481
 12
543.4454364807
 22
31.4545313481
 13
543.4454364807
 23
31.4545313481
  0
SOLID
  8
0
 62
7
  6
CONTINUOUS
 10
543.4454364807
 20
31.4545313481
 11
544.4282492012
 21
31.2932132511
 12
543.2719989807
 22
31.3577403412
 13
543.2719989807
 23
31.3577403412
  0
SOLID
  8
0
 62
7
  6
CONTINUOUS
 10
544.2548117012
 20
31.1964222346
 11
543.2719989807
 21
31.3577403412
 12
544.4282492012
 22
31.2932132511
 13
544.4282492012
 23
31.2932132511
  0
SOLID
  8
0
 62
7
  6
CONTINUOUS
 10
544.4282492012
 20
31.2932132511
 11
544.6594989807
 21
31.1964222346
 12
544.2548117012
 22
31.1964222346
 13
544.2548117012
 23
31.1964222346
  0
SOLID
  8
0
 62
7
  6
CONTINUOUS
 10
544.4282492012
 20
31.1318947675
 11
544.2548117012
 21
31.1964222346
 12
544.6594989807
 22
31.1964222346
 13
544.6594989807
 23
31.1964222346
  0
SOLID
  8
0
 62
7
  6
CONTINUOUS
 10
544.4282492012
 20
31.1318947675
 11
544.6594989807
 21
31.1964222346
 12
544.4860614807
 22
31.0673665164
 13
544.4860614807
 23
31.0673665164
  0
SOLID
  8
0
 62
7
  6
CONTINUOUS
 10
544.6594989807
 20
31.1964222346
 11
544.7751235396
 21
31.0673665164
 12
544.4860614807
 22
31.0673665164
 13
544.4860614807
 23
31.0673665164
  0
SOLID
  8
0
 62
7
  6
CONTINUOUS
 10
544.4282492012
 20
31.0028394316
 11
544.4860614807
 21
31.0673665164
 12
544.7751235396
 22
31.0673665164
 13
544.7751235396
 23
31.0673665164
  0
SOLID
  8
0
 62
7
  6
CONTINUOUS
 10
544.7751235396
 20
31.0673665164
 11
544.7751235396
 21
31.0028394316
 12
544.4282492012
 22
31.0028394316
 13
544.4282492012
 23
31.0028394316
  0
SOLID
  8
0
 62
7
  6
CONTINUOUS
 10
544.3126239807
 20
30.9705762839
 11
544.4282492012
 21
31.0028394316
 12
544.7751235396
 22
31.0028394316
 13
544.7751235396
 23
31.0028394316
  0
SOLID
  8
0
 62
7
  6
CONTINUOUS
 10
544.3126239807
 20
30.9705762839
 11
544.7751235396
 21
31.0028394316
 12
544.0813742012
 22
30.9383123468
 13
544.0813742012
 23
30.9383123468
  0
SOLID
  8
0
 62
7
  6
CONTINUOUS
 10
544.7751235396
 20
31.0028394316
 11
544.6594989807
 21
30.9060491937
 12
544.0813742012
 22
30.9383123468
 13
544.0813742012
 23
30.9383123468
  0
SOLID
  8
0
 62
7
  6
CONTINUOUS
 10
544.6594989807
 20
30.9060491937
 11
543.2141867012
 21
30.8737848904
 12
544.0813742012
 22
30.9383123468
 13
544.0813742012
 23
30.9383123468
  0
SOLID
  8
0
 62
7
  6
CONTINUOUS
 10
544.0813742012
 20
30.9383123468
 11
543.2141867012
 21
30.8737848904
 12
543.7344992012
 22
30.9383123468
 13
543.7344992012
 23
30.9383123468
  0
SOLID
  8
0
 62
7
  6
CONTINUOUS
 10
543.2141867012
 20
30.8737848904
 11
543.0407492012
 21
30.9383123468
 12
543.7344992012
 22
30.9383123468
 13
543.7344992012
 23
30.9383123468
  0
SOLID
  8
0
 62
7
  6
CONTINUOUS
 10
543.2141867012
 20
30.8737848904
 11
544.6594989807
 21
30.9060491937
 12
543.3876242012
 22
30.8415205581
 13
543.3876242012
 23
30.8415205581
  0
SOLID
  8
0
 62
7
  6
CONTINUOUS
 10
544.6594989807
 20
30.9060491937
 11
544.4282492012
 21
30.8415205581
 12
543.3876242012
 22
30.8415205581
 13
543.3876242012
 23
30.8415205581
  0
SOLID
  8
0
 62
7
  6
CONTINUOUS
 10
543.7344992012
 20
30.8092581772
 11
543.3876242012
 21
30.8415205581
 12
544.4282492012
 22
30.8415205581
 13
544.4282492012
 23
30.8415205581
  0
SOLID
  8
0
 62
7
  6
CONTINUOUS
 10
544.4282492012
 20
30.8415205581
 11
544.0813742012
 21
30.8092581772
 12
543.7344992012
 22
30.8092581772
 13
543.7344992012
 23
30.8092581772
  0
SOLID
  8
0
 62
7
  6
CONTINUOUS
 10
533.3860614807
 20
31.325476038
 11
533.7329364807
 21
31.4867945216
 12
533.6751239738
 22
31.3577403412
 13
533.6751239738
 23
31.3577403412
  0
SOLID
  8
0
 62
7
  6
CONTINUOUS
 10
533.6751239738
 20
31.3577403412
 11
533.6751239738
 21
31.2609490436
 12
533.3860614807
 22
31.325476038
 13
533.3860614807
 23
31.325476038
  0
SOLID
  8
0
 62
7
  6
CONTINUOUS
 10
533.4438739824
 20
31.1318947675
 11
533.3860614807
 21
31.325476038
 12
533.6751239738
 22
31.2609490436
 13
533.6751239738
 23
31.2609490436
  0
SOLID
  8
0
 62
7
  6
CONTINUOUS
 10
533.6751239738
 20
31.2609490436
 11
533.7907489669
 21
31.0996304642
 12
533.4438739824
 22
31.1318947675
 13
533.4438739824
 23
31.1318947675
  0
SOLID
  8
0
 62
7
  6
CONTINUOUS
 10
533.5594989807
 20
31.0028388804
 11
533.4438739824
 21
31.1318947675
 12
533.7907489669
 22
31.0996304642
 13
533.7907489669
 23
31.0996304642
  0
SOLID
  8
0
 62
7
  6
CONTINUOUS
 10
533.7907489669
 20
31.0996304642
 11
533.9641864669
 21
31.0028388804
 12
533.5594989807
 22
31.0028388804
 13
533.5594989807
 23
31.0028388804
  0
SOLID
  8
0
 62
7
  6
CONTINUOUS
 10
533.6751239738
 20
30.9383122606
 11
533.5594989807
 21
31.0028388804
 12
533.9641864669
 22
31.0028388804
 13
533.9641864669
 23
31.0028388804
  0
SOLID
  8
0
 62
7
  6
CONTINUOUS
 10
533.9641864669
 20
31.0028388804
 11
534.3110615082
 21
30.9383122606
 12
533.6751239738
 22
30.9383122606
 13
533.6751239738
 23
30.9383122606
  0
SOLID
  8
0
 62
7
  6
CONTINUOUS
 10
533.8485614944
 20
30.8737848904
 11
533.6751239738
 21
30.9383122606
 12
534.3110615082
 22
30.9383122606
 13
534.3110615082
 23
30.9383122606
  0
SOLID
  8
0
 62
7
  6
CONTINUOUS
 10
537.8954364807
 20
31.3254759532
 11
538.0110613704
 21
31.3900038345
 12
538.5891864807
 22
31.3577403412
 13
538.5891864807
 23
31.3577403412
  0
SOLID
  8
0
 62
7
  6
CONTINUOUS
 10
538.5891864807
 20
31.3577403412
 11
538.3579363704
 21
31.3254759532
 12
537.8954364807
 22
31.3254759532
 13
537.8954364807
 23
31.3254759532
  0
SOLID
  8
0
 62
7
  6
CONTINUOUS
 10
537.7798115909
 20
31.1964218576
 11
537.8954364807
 21
31.3254759532
 12
538.3579363704
 22
31.3254759532
 13
538.3579363704
 23
31.3254759532
  0
SOLID
  8
0
 62
7
  6
CONTINUOUS
 10
538.1266865909
 20
31.2286853572
 11
537.7798115909
 21
31.1964218576
 12
538.2423114807
 22
31.2932132511
 13
538.2423114807
 23
31.2932132511
  0
SOLID
  8
0
 62
7
  6
CONTINUOUS
 10
537.7798115909
 20
31.1964218576
 11
538.3579363704
 21
31.325476038
 12
538.2423114807
 22
31.2932132511
 13
538.2423114807
 23
31.2932132511
  0
SOLID
  8
0
 62
7
  6
CONTINUOUS
 10
538.1266865909
 20
31.2286853572
 11
538.0688739807
 21
31.1318947675
 12
537.7798115909
 22
31.1964218576
 13
537.7798115909
 23
31.1964218576
  0
SOLID
  8
0
 62
7
  6
CONTINUOUS
 10
537.7798115909
 20
31.0996304642
 11
537.7798115909
 21
31.1964218576
 12
538.0688739807
 22
31.1318947675
 13
538.0688739807
 23
31.1318947675
  0
SOLID
  8
0
 62
7
  6
CONTINUOUS
 10
538.0688739807
 20
31.1318947675
 11
538.0688739807
 21
31.0673661609
 12
537.7798115909
 22
31.0996304642
 13
537.7798115909
 23
31.0996304642
  0
SOLID
  8
0
 62
7
  6
CONTINUOUS
 10
537.8376238704
 20
30.9705762839
 11
537.7798115909
 21
31.0996304642
 12
538.0688739807
 22
31.0673661609
 13
538.0688739807
 23
31.0673661609
  0
SOLID
  8
0
 62
7
  6
CONTINUOUS
 10
539.2251242012
 20
31.1641579843
 11
539.5141862601
 21
31.0673661609
 12
539.1673112601
 22
31.0996304642
 13
539.1673112601
 23
31.0996304642
  0
SOLID
  8
0
 62
7
  6
CONTINUOUS
 10
538.9938737601
 20
31.0028390707
 11
539.1673112601
 21
31.0996304642
 12
539.5141862601
 22
31.0673661609
 13
539.5141862601
 23
31.0673661609
  0
SOLID
  8
0
 62
7
  6
CONTINUOUS
 10
538.9938737601
 20
31.0028390707
 11
539.5141862601
 21
31.0673661609
 12
539.2251242012
 22
30.9705762839
 13
539.2251242012
 23
30.9705762839
  0
SOLID
  8
0
 62
7
  6
CONTINUOUS
 10
539.5141862601
 20
31.0673661609
 11
539.5719992012
 21
30.9060491937
 12
539.2251242012
 22
30.9705762839
 13
539.2251242012
 23
30.9705762839
  0
SOLID
  8
0
 62
7
  6
CONTINUOUS
 10
539.2829364807
 20
30.8737848904
 11
539.2251242012
 21
30.9705762839
 12
539.5719992012
 22
30.9060491937
 13
539.5719992012
 23
30.9060491937
  0
SOLID
  8
0
 62
7
  6
CONTINUOUS
 10
539.2829364807
 20
30.8737848904
 11
539.5719992012
 21
30.9060491937
 12
539.3407487601
 22
30.8092576254
 13
539.3407487601
 23
30.8092576254
  0
SOLID
  8
0
 62
7
  6
CONTINUOUS
 10
539.5719992012
 20
30.9060491937
 11
539.6298114807
 21
30.8092576254
 12
539.3407487601
 22
30.8092576254
 13
539.3407487601
 23
30.8092576254
  0
SOLID
  8
0
 62
7
  6
CONTINUOUS
 10
534.8891865358
 20
31.035103216
 11
534.9469989807
 21
31.1318946289
 12
535.2360615358
 22
31.1318946289
 13
535.2360615358
 23
31.1318946289
  0
SOLID
  8
0
 62
7
  6
CONTINUOUS
 10
535.2360615358
 20
31.1318946289
 11
535.1782489255
 21
31.0028390707
 12
534.8891865358
 22
31.035103216
 13
534.8891865358
 23
31.035103216
  0
SOLID
  8
0
 62
7
  6
CONTINUOUS
 10
534.7157489531
 20
30.9705762839
 11
534.8891865358
 21
31.035103216
 12
535.1782489255
 22
31.0028390707
 13
535.1782489255
 23
31.0028390707
  0
SOLID
  8
0
 62
7
  6
CONTINUOUS
 10
534.7157489531
 20
30.9705762839
 11
535.1782489255
 21
31.0028390707
 12
534.3110615082
 22
30.9383119806
 13
534.3110615082
 23
30.9383119806
  0
SOLID
  8
0
 62
7
  6
CONTINUOUS
 10
535.1782489255
 20
31.0028390707
 11
535.0048114255
 21
30.9060491937
 12
534.3110615082
 22
30.9383119806
 13
534.3110615082
 23
30.9383119806
  0
SOLID
  8
0
 62
7
  6
CONTINUOUS
 10
533.8485614944
 20
30.8737848904
 11
534.3110615082
 21
30.9383119806
 12
535.0048114255
 22
30.9060491937
 13
535.0048114255
 23
30.9060491937
  0
SOLID
  8
0
 62
7
  6
CONTINUOUS
 10
533.8485614944
 20
30.8737848904
 11
535.0048114255
 21
30.9060491937
 12
534.0219989944
 22
30.8415207131
 13
534.0219989944
 23
30.8415207131
  0
SOLID
  8
0
 62
7
  6
CONTINUOUS
 10
535.0048114255
 20
30.9060491937
 11
534.7735614807
 21
30.8415207131
 12
534.0219989944
 22
30.8415207131
 13
534.0219989944
 23
30.8415207131
  0
SOLID
  8
0
 62
7
  6
CONTINUOUS
 10
534.3688739531
 20
30.8092578002
 11
534.0219989944
 21
30.8415207131
 12
534.7735614807
 22
30.8415207131
 13
534.7735614807
 23
30.8415207131
  0
SOLID
  8
0
 62
7
  6
CONTINUOUS
 10
537.8376238704
 20
30.9705762839
 11
538.0688739807
 21
31.0673661609
 12
538.1266865909
 22
31.0028390707
 13
538.1266865909
 23
31.0028390707
  0
SOLID
  8
0
 62
7
  6
CONTINUOUS
 10
538.1266865909
 20
31.0028390707
 11
538.3579363704
 21
30.9383119806
 12
537.8376238704
 22
30.9705762839
 13
537.8376238704
 23
30.9705762839
  0
SOLID
  8
0
 62
7
  6
CONTINUOUS
 10
538.0110613704
 20
30.8737848904
 11
537.8376238704
 21
30.9705762839
 12
538.3579363704
 22
30.9383119806
 13
538.3579363704
 23
30.9383119806
  0
SOLID
  8
0
 62
7
  6
CONTINUOUS
 10
538.7048113704
 20
30.9383119664
 11
538.9938737601
 21
31.0028390707
 12
539.2251242012
 22
30.9705762839
 13
539.2251242012
 23
30.9705762839
  0
SOLID
  8
0
 62
7
  6
CONTINUOUS
 10
539.2251242012
 20
30.9705762839
 11
539.1673112601
 21
30.9060491937
 12
538.7048113704
 22
30.9383119664
 13
538.7048113704
 23
30.9383119664
  0
SOLID
  8
0
 62
7
  6
CONTINUOUS
 10
539.1673112601
 20
30.9060491937
 11
538.0110613704
 21
30.8737848904
 12
538.7048113704
 22
30.9383119664
 13
538.7048113704
 23
30.9383119664
  0
SOLID
  8
0
 62
7
  6
CONTINUOUS
 10
538.0110613704
 20
30.8737848904
 11
538.3579363704
 21
30.9383119664
 12
538.7048113704
 22
30.9383119664
 13
538.7048113704
 23
30.9383119664
  0
SOLID
  8
0
 62
7
  6
CONTINUOUS
 10
538.0110613704
 20
30.8737848904
 11
539.1673112601
 21
30.9060491937
 12
538.1266865909
 22
30.8415205568
 13
538.1266865909
 23
30.8415205568
  0
SOLID
  8
0
 62
7
  6
CONTINUOUS
 10
539.1673112601
 20
30.9060491937
 11
538.9938737601
 21
30.8415205568
 12
538.1266865909
 22
30.8415205568
 13
538.1266865909
 23
30.8415205568
  0
SOLID
  8
0
 62
7
  6
CONTINUOUS
 10
538.3579363704
 20
30.8092577215
 11
538.1266865909
 21
30.8415205568
 12
538.9938737601
 22
30.8415205568
 13
538.9938737601
 23
30.8415205568
  0
SOLID
  8
0
 62
7
  6
CONTINUOUS
 10
538.9938737601
 20
30.8415205568
 11
538.7048113704
 21
30.8092577215
 12
538.3579363704
 22
30.8092577215
 13
538.3579363704
 23
30.8092577215
  0
SOLID
  8
0
 62
7
  6
CONTINUOUS
 10
543.3876242012
 20
30.9705762839
 11
543.0407492012
 21
30.9383119664
 12
543.2719989807
 22
31.0028390707
 13
543.2719989807
 23
31.0028390707
  0
SOLID
  8
0
 62
7
  6
CONTINUOUS
 10
543.2719989807
 20
31.0028390707
 11
543.0407492012
 21
30.9383119664
 12
543.2141867012
 22
31.0673661467
 13
543.2141867012
 23
31.0673661467
  0
SOLID
  8
0
 62
7
  6
CONTINUOUS
 10
543.0407492012
 20
30.9383119664
 11
542.9251239807
 21
31.0673661467
 12
543.2141867012
 22
31.0673661467
 13
543.2141867012
 23
31.0673661467
  0
SOLID
  8
0
 62
7
  6
CONTINUOUS
 10
543.3876242012
 20
30.9705762839
 11
543.7344992012
 21
30.9383119664
 12
543.0407492012
 22
30.9383119664
 13
543.0407492012
 23
30.9383119664
  0
SOLID
  8
0
 62
7
  6
CONTINUOUS
 10
540.0923117012
 20
30.8092578002
 11
540.0923117012
 21
31.841695792
 12
540.3813737601
 22
30.8092578002
 13
540.3813737601
 23
31.841695792
  0
ENDBLK
  8
0
  6
BYBLOCK
 62
0
  0
BLOCK
  8
0
 62
2
  6
CONTINUOUS
  2
AMMEAAL_LOGO_BL0
 70
64
 10
416.1419631151
 20
19.7009994242
  0
TEXT
  8
0
 62
7
  6
CONTINUOUS
 10
402.4066669574
 20
19.0744135318
  7
TEXTSTYLE_3
 40
2.7338706658
  1
Ammeraal Beltech
 41
1.0
 51
15.0
 72
0
  0
TEXT
  8
0
 62
7
  6
CONTINUOUS
 10
413.2074677831
 20
16.800876859
  7
TEXTSTYLE_4
 40
1.0935482663
  1
Innovation & Service in Belting
 41
1.0
 72
0
  0
LINE
  8
0
 62
7
  6
CONTINUOUS
 10
396.382126306
 20
19.8410068404
 11
397.1602782994
 21
23.5019241381
  0
LINE
  8
0
 62
7
  6
CONTINUOUS
 10
407.2554465892
 20
27.1653180497
 11
397.6480960424
 21
24.0437006284
  0
LINE
  8
0
 62
7
  6
CONTINUOUS
 10
396.6074096383
 20
19.1476560374
 11
404.1144848995
 21
12.3882551114
  0
LINE
  8
0
 62
7
  6
CONTINUOUS
 10
396.869944049
 20
20.3827833308
 11
407.6782134142
 21
23.8946029297
  0
LINE
  8
0
 62
7
  6
CONTINUOUS
 10
407.674008277
 20
13.544814366
 11
399.2285486083
 21
21.1491404077
  0
LINE
  8
0
 62
7
  6
CONTINUOUS
 10
408.1938309968
 20
26.320392934
 11
407.2172714596
 21
21.7260415315
  0
LINE
  8
0
 62
7
  6
CONTINUOUS
 10
406.5174695119
 20
18.4337322177
 11
405.8310213004
 21
15.2042472933
  0
LINE
  8
0
 62
7
  6
CONTINUOUS
 10
408.8749270954
 20
13.9350165436
 11
409.831158631
 21
18.4337322177
  0
LINE
  8
0
 62
7
  6
CONTINUOUS
 10
410.5309605787
 20
21.7260415315
 11
410.9752023811
 21
23.8160348909
  0
LINE
  8
0
 62
7
  6
CONTINUOUS
 10
404.8275859748
 20
12.2366807987
 11
408.3871093524
 21
13.3932400533
  0
LINE
  8
0
 62
7
  6
CONTINUOUS
 10
407.9685476645
 20
27.013743737
 11
410.7499190488
 21
24.5093856939
  0
ARC
  8
0
 62
7
  6
CONTINUOUS
 10
397.8733793747
 20
23.3503498254
 40
0.7290321776
 50
108.0
 51
168.0
  0
ARC
  8
0
 62
7
  6
CONTINUOUS
 10
407.4807299215
 20
26.4719672466
 40
0.7290321776
 50
348.0
 51
108.0
  0
ARC
  8
0
 62
7
  6
CONTINUOUS
 10
410.2621013058
 20
23.9676092036
 40
0.7290321776
 50
348.0
 51
48.0
  0
ARC
  8
0
 62
7
  6
CONTINUOUS
 10
404.6023026425
 20
12.9300316018
 40
0.7290321776
 50
228.0
 51
288.0
  0
ARC
  8
0
 62
7
  6
CONTINUOUS
 10
397.0952273813
 20
19.6894325277
 40
0.7290321776
 50
108.0
 51
228.0
  0
ARC
  8
0
 62
7
  6
CONTINUOUS
 10
408.1618260201
 20
14.0865908563
 40
0.7290321776
 50
228.0
 51
348.0
  0
ENDBLK
  8
0
  6
BYBLOCK
 62
0
  0
ENDSEC
  0
SECTION
  2
ENTITIES
  0
TEXT
  8
0
 62
5
  6
CONTINUOUS
 10
480.0
 20
25.636
  7
TEXTSTYLE_2
 40
2.8
  1
Scale :
 41
0.6
 51
0.000019
 72
0
  0
TEXT
  8
0
 62
5
  6
CONTINUOUS
 10
500.0
 20
25.636
  7
TEXTSTYLE_2
 40
2.8
  1
Belt type:
 41
0.6
 51
0.000019
 72
0
  0
INSERT
  8
0
 62
2
  6
CONTINUOUS
  2
AMMEAAL_LOGO_BL0
 10
416.1419631151
 20
19.7009994242
  0
INSERT
  8
0
 62
2
  6
CONTINUOUS
  2
UNI_LOGO2_BL1
 10
557.4079930916
 20
35.8092573885
  0
LINE
  8
0
 62
2
  6
CONTINUOUS
 10
394.0
 20
30.0
 11
584.0
 21
30.0
  0
LINE
  8
0
 62
2
  6
CONTINUOUS
 10
394.0
 20
30.0
 11
394.0
 21
10.0
  0
LINE
  8
0
 62
2
  6
CONTINUOUS
 10
394.0
 20
10.0
 11
584.0
 21
10.0
  0
LINE
  8
0
 62
2
  6
CONTINUOUS
 10
479.0
 20
30.0
 11
479.0
 21
10.0
  0
LINE
  8
0
 62
2
  6
CONTINUOUS
 10
499.0
 20
30.0
 11
499.0
 21
10.0
  0
LINE
  8
0
 62
2
  6
CONTINUOUS
 10
584.0
 20
30.0
 11
584.0
 21
10.0
  0
TEXT
  8
0
 62
5
  6
CONTINUOUS
 10
397.0
 20
23.303
  7
TEXTSTYLE_5
 40
1.52
  1
                                                                     Ammeraal Beltech Modular A/S
 41
1.0
 72
0
  0
TEXT
  8
0
 62
5
  6
CONTINUOUS
 10
397.0
 20
20.595
  7
TEXTSTYLE_5
 40
1.5
  1
                                                                      Hjulmagervej 21, 7100 Vejle,  DK
 41
1.0
 72
0
  0
TEXT
  8
0
 62
5
  6
CONTINUOUS
 10
397.0
 20
17.881
  7
TEXTSTYLE_5
 40
1.495
  1
                                                                      tel: 
 41
1.0
 72
0
  0
TEXT
  8
0
 62
5
  6
CONTINUOUS
 10
441.9869465649
 20
17.881
  7
TEXTSTYLE_5
 40
1.51
  1
+45 75723100     fax: +45 75723348
 41
1.0
 72
0
  0
TEXT
  8
0
 62
5
  6
CONTINUOUS
 10
397.0
 20
15.177
  7
TEXTSTYLE_5
 40
1.5
  1
                                                                      admin@unichains.dk  www.unichains.com
 41
1.0
 72
0
  0
TEXT
  8
0
 62
5
  6
CONTINUOUS
 10
483.75
 20
13.75
  7
TEXTSTYLE_6
 40
5.0
  1
1:1
 41
0.7
 72
1
 11
489.0
 21
13.75
  0
TEXT
  8
0
 62
5
  6
CONTINUOUS
 10
502.0
 20
13.75
  7
TEXTSTYLE_7
 40
7.5
  1
Sprocket Z16 120X120SQ
 41
0.4897727273
 72
0
  0
LINE
  8
0
 62
7
  6
CONTINUOUS
 10
0.0
 20
0.0
 11
0.0
 21
420.0
  0
LINE
  8
0
 62
7
  6
CONTINUOUS
 10
10.0
 20
10.0
 11
10.0
 21
410.0
  0
LINE
  8
0
 62
7
  6
CONTINUOUS
 10
0.0
 20
0.0
 11
594.0
 21
0.0
  0
LINE
  8
0
 62
7
  6
CONTINUOUS
 10
10.0
 20
10.0
 11
584.0
 21
10.0
  0
LINE
  8
0
 62
7
  6
CONTINUOUS
 10
394.0
 20
30.0
 11
584.0
 21
30.0
  0
LINE
  8
0
 62
7
  6
CONTINUOUS
 10
179.0
 20
5.0
 11
179.0
 21
10.0
  0
LINE
  8
0
 62
7
  6
CONTINUOUS
 10
179.0
 20
410.0
 11
179.0
 21
415.0
  0
LINE
  8
0
 62
7
  6
CONTINUOUS
 10
594.0
 20
420.0
 11
584.0
 21
410.0
  0
LINE
  8
0
 62
7
  6
CONTINUOUS
 10
384.0
 20
410.0
 11
384.0
 21
415.0
  0
LINE
  8
0
 62
7
  6
CONTINUOUS
 10
584.0
 20
297.0
 11
589.0
 21
297.0
  0
LINE
  8
0
 62
7
  6
CONTINUOUS
 10
10.0
 20
410.0
 11
584.0
 21
410.0
  0
LINE
  8
0
 62
7
  6
CONTINUOUS
 10
0.0
 20
420.0
 11
594.0
 21
420.0
  0
LINE
  8
0
 62
7
  6
CONTINUOUS
 10
584.0
 20
10.0
 11
584.0
 21
410.0
  0
LINE
  8
0
 62
7
  6
CONTINUOUS
 10
594.0
 20
0.0
 11
594.0
 21
420.0
  0
LINE
  8
0
 62
7
  6
CONTINUOUS
 10
110.1062179816
 20
258.7478053074
 11
110.1062179816
 21
256.3079460704
  0
LINE
  8
SURFACE
 62
7
  6
CONTINUOUS
 10
110.1062179816
 20
208.118242336
 11
110.1062179816
 21
234.8330238217
  0
LINE
  8
0
 62
7
  6
CONTINUOUS
 10
128.5476192113
 20
300.8294270283
 11
127.613925504
 21
298.575291017
  0
LINE
  8
SURFACE
 62
7
  6
CONTINUOUS
 10
109.1725242742
 20
254.0538100591
 11
119.3958285481
 21
278.7350498892
  0
LINE
  8
0
 62
7
  6
CONTINUOUS
 10
161.6891917979
 20
332.650557311
 11
159.9639507862
 21
330.9253162993
  0
LINE
  8
SURFACE
 62
7
  6
CONTINUOUS
 10
125.8886844923
 20
296.8500500054
 11
144.7788876388
 21
315.7402531518
  0
LINE
  8
0
 62
7
  6
CONTINUOUS
 10
204.4854317442
 20
349.366717529
 11
202.2312957329
 21
348.4330238217
  0
LINE
  8
SURFACE
 62
7
  6
CONTINUOUS
 10
157.7098147749
 20
329.991622592
 11
182.3910546051
 21
340.2149268658
  0
LINE
  8
SURFACE
 62
7
  6
CONTINUOUS
 10
250.4209994673
 20
118.4330238217
 11
223.7062179816
 21
118.4330238217
  0
LINE
  8
0
 62
7
  6
CONTINUOUS
 10
199.7914364959
 20
118.4330238217
 11
202.2312957329
 21
118.4330238217
  0
LINE
  8
SURFACE
 62
7
  6
CONTINUOUS
 10
204.4854317442
 20
117.4993301144
 11
179.8041919141
 21
127.7226343882
  0
LINE
  8
0
 62
7
  6
CONTINUOUS
 10
157.7098147749
 20
136.8744250514
 11
159.9639507862
 21
135.9407313441
  0
LINE
  8
0
 62
7
  6
CONTINUOUS
 10
125.8886844923
 20
170.0159976381
 11
127.613925504
 21
168.2907566264
  0
LINE
  8
SURFACE
 62
7
  6
CONTINUOUS
 10
161.6891917979
 20
134.2154903325
 11
142.7989886514
 21
153.1056934789
  0
LINE
  8
0
 62
7
  6
CONTINUOUS
 10
109.1725242742
 20
212.8122375844
 11
110.1062179816
 21
210.5581015731
  0
LINE
  8
SURFACE
 62
7
  6
CONTINUOUS
 10
128.5476192113
 20
166.0366206151
 11
118.3243149374
 21
190.7178604453
  0
LINE
  8
0
 62
7
  6
CONTINUOUS
 10
182.5943439216
 20
309.4743718277
 11
182.0590190994
 21
309.1797641789
  0
LINE
  8
0
 62
7
  6
CONTINUOUS
 10
182.7438045202
 20
308.6609637326
 11
183.1131443679
 21
308.7895864069
  0
LINE
  8
0
 62
7
  6
CONTINUOUS
 10
155.2279495181
 20
271.2757032931
 11
155.2735785073
 21
271.5620494768
  0
LINE
  8
0
 62
7
  6
CONTINUOUS
 10
165.2238577771
 20
290.6595826427
 11
165.3524804513
 21
291.0289224904
  0
LINE
  8
0
 62
7
  6
CONTINUOUS
 10
154.3186206676
 20
277.8286074716
 11
154.1070040814
 21
277.376273712
  0
LINE
  8
0
 62
7
  6
CONTINUOUS
 10
154.5884384282
 20
276.8948393652
 11
154.8000550145
 21
277.3471731248
  0
LINE
  8
0
 62
7
  6
CONTINUOUS
 10
161.2401585512
 20
286.6758834168
 11
161.4517746625
 21
287.1282167015
  0
LINE
  8
0
 62
7
  6
CONTINUOUS
 10
154.7465150975
 20
271.7571377137
 11
154.5348987909
 21
271.3048041493
  0
LINE
  8
0
 62
7
  6
CONTINUOUS
 10
164.6303289311
 20
291.7510740106
 11
164.4187137696
 21
291.2987416757
  0
LINE
  8
0
 62
7
  6
CONTINUOUS
 10
155.0163331799
 20
270.8233697604
 11
155.2279495181
 21
271.2757032931
  0
LINE
  8
0
 62
7
  6
CONTINUOUS
 10
166.6228856815
 20
284.1149426445
 11
166.4112695702
 21
283.6626093597
  0
LINE
  8
0
 62
7
  6
CONTINUOUS
 10
170.2746111592
 20
287.7666681221
 11
170.062994098
 21
287.3143338876
  0
LINE
  8
0
 62
7
  6
CONTINUOUS
 10
160.7296231423
 20
287.8503682218
 11
160.4350126441
 21
287.3150405502
  0
LINE
  8
0
 62
7
  6
CONTINUOUS
 10
167.1334211747
 20
282.9404577552
 11
167.4280316624
 21
283.4757854374
  0
LINE
  8
0
 62
7
  6
CONTINUOUS
 10
181.727041552
 20
308.8477866315
 11
181.4324339031
 21
308.3124618092
  0
LINE
  8
0
 62
7
  6
CONTINUOUS
 10
170.7851457026
 20
286.5921822831
 11
171.07975714
 21
287.127510915
  0
LINE
  8
0
 62
7
  6
CONTINUOUS
 10
182.0590190994
 20
309.1797641789
 11
181.727041552
 21
308.8477866315
  0
LINE
  8
0
 62
7
  6
CONTINUOUS
 10
179.7351933637
 20
306.8559384432
 11
179.2372308417
 21
306.3579759212
  0
LINE
  8
0
 62
7
  6
CONTINUOUS
 10
178.0753170241
 20
305.1960621036
 11
174.7555681441
 21
301.8763132236
  0
LINE
  8
0
 62
7
  6
CONTINUOUS
 10
169.0289991415
 20
296.149744221
 11
167.0371490536
 21
294.1578941331
  0
LINE
  8
0
 62
7
  6
CONTINUOUS
 10
165.0452989658
 20
292.1660440453
 11
164.6303289311
 21
291.7510740106
  0
LINE
  8
0
 62
7
  6
CONTINUOUS
 10
161.4765669252
 20
288.5973120047
 11
160.7296231423
 21
287.8503682218
  0
LINE
  8
0
 62
7
  6
CONTINUOUS
 10
154.7540728787
 20
281.8748179582
 11
154.3391042687
 21
281.4598493482
  0
LINE
  8
0
 62
7
  6
CONTINUOUS
 10
154.9408972022
 20
280.8580564147
 11
155.3558658122
 21
281.2730250247
  0
LINE
  8
0
 62
7
  6
CONTINUOUS
 10
175.3573610776
 20
301.27452029
 11
178.2621418225
 21
304.179301035
  0
LINE
  8
0
 62
7
  6
CONTINUOUS
 10
182.2458419982
 20
308.1630012107
 11
182.7438045202
 21
308.6609637326
  0
LINE
  8
0
 62
7
  6
CONTINUOUS
 10
161.4517746625
 20
287.1282167015
 11
162.1987184454
 21
287.8751604845
  0
LINE
  8
0
 62
7
  6
CONTINUOUS
 10
165.3524804513
 20
291.0289224904
 11
165.8504429733
 21
291.5268850123
  0
LINE
  8
0
 62
7
  6
CONTINUOUS
 10
168.2572630958
 20
293.9337051349
 11
169.834143149
 21
295.510585188
  0
LINE
  8
0
 62
7
  6
CONTINUOUS
 10
166.9501984288
 20
291.4230546008
 11
167.4481609508
 21
291.9210171227
  0
LINE
  8
0
 62
7
  6
CONTINUOUS
 10
184.1299073361
 20
308.6027635081
 11
184.5448735716
 21
309.0177297436
  0
LINE
  8
0
 62
7
  6
CONTINUOUS
 10
163.5848206487
 20
287.816958973
 11
164.0827831707
 21
288.3149214949
  0
LINE
  8
0
 62
7
  6
CONTINUOUS
 10
156.5594520165
 20
280.0694388205
 11
156.1444834065
 21
279.6544702105
  0
LINE
  8
0
 62
7
  6
CONTINUOUS
 10
154.6505958406
 20
278.1605826446
 11
154.3186206676
 21
277.8286074716
  0
LINE
  8
0
 62
7
  6
CONTINUOUS
 10
153.5716768847
 20
277.0816636887
 11
153.1567080372
 21
276.6666948412
  0
LINE
  8
0
 62
7
  6
CONTINUOUS
 10
152.3267705798
 20
275.8367573838
 11
151.9118017323
 21
275.4217885363
  0
LINE
  8
0
 62
7
  6
CONTINUOUS
 10
150.2519267284
 20
273.7619135324
 11
149.83695797
 21
273.346944774
  0
LINE
  8
0
 62
7
  6
CONTINUOUS
 10
184.1881078978
 20
307.216660355
 11
183.7731378631
 21
306.8016903203
  0
LINE
  8
0
 62
7
  6
CONTINUOUS
 10
171.5191637
 20
293.825564637
 11
169.9422836469
 21
292.2486845838
  0
LINE
  8
0
 62
7
  6
CONTINUOUS
 10
167.5354635244
 20
289.8418644613
 11
167.0375010024
 21
289.3439019393
  0
LINE
  8
0
 62
7
  6
CONTINUOUS
 10
184.2919383094
 20
306.1169048995
 11
184.8728933186
 21
306.6978599087
  0
LINE
  8
0
 62
7
  6
CONTINUOUS
 10
167.7596525226
 20
288.6217504191
 11
168.2576150446
 21
289.1197129411
  0
LINE
  8
0
 62
7
  6
CONTINUOUS
 10
170.6644351671
 20
291.5265330636
 11
172.2413152203
 21
293.1034131168
  0
LINE
  8
0
 62
7
  6
CONTINUOUS
 10
167.8925841648
 20
286.8289443369
 11
167.3946216429
 21
286.3309818149
  0
LINE
  8
0
 62
7
  6
CONTINUOUS
 10
166.8510308335
 20
285.5466738321
 11
166.3530683115
 21
285.0487113101
  0
LINE
  8
0
 62
7
  6
CONTINUOUS
 10
183.0100196691
 20
300.2613594586
 11
180.188233311
 21
297.4395731006
  0
LINE
  8
0
 62
7
  6
CONTINUOUS
 10
174.0466942737
 20
291.2980340633
 11
172.4698142206
 21
289.7211540101
  0
LINE
  8
0
 62
7
  6
CONTINUOUS
 10
170.062994098
 20
287.3143338876
 11
169.3990447019
 21
286.6503844915
  0
LINE
  8
0
 62
7
  6
CONTINUOUS
 10
166.4112695702
 20
283.6626093597
 11
165.6643257872
 21
282.9156655768
  0
LINE
  8
0
 62
7
  6
CONTINUOUS
 10
187.2800653056
 20
304.2906879218
 11
186.6991102964
 21
303.7097329125
  0
LINE
  8
0
 62
7
  6
CONTINUOUS
 10
154.5348987909
 20
271.3048041493
 11
154.2029237367
 21
270.9728290951
  0
LINE
  8
0
 62
7
  6
CONTINUOUS
 10
154.6843581256
 20
270.4913947062
 11
155.0163331799
 21
270.8233697604
  0
LINE
  8
0
 62
7
  6
CONTINUOUS
 10
155.9292644305
 20
271.7363010111
 11
156.344233278
 21
272.1512698585
  0
LINE
  8
0
 62
7
  6
CONTINUOUS
 10
157.008183149
 20
272.8152197295
 11
157.4231519964
 21
273.230188577
  0
LINE
  8
0
 62
7
  6
CONTINUOUS
 10
158.9170395623
 20
274.7240761428
 11
159.3320081723
 21
275.1390447528
  0
LINE
  8
0
 62
7
  6
CONTINUOUS
 10
159.9959585182
 20
275.8029950987
 11
160.4109271282
 21
276.2179637087
  0
LINE
  8
0
 62
7
  6
CONTINUOUS
 10
166.3864773918
 20
282.1935139723
 11
167.1334211747
 21
282.9404577552
  0
LINE
  8
0
 62
7
  6
CONTINUOUS
 10
170.1211963065
 20
285.928232887
 11
170.7851457026
 21
286.5921822831
  0
LINE
  8
0
 62
7
  6
CONTINUOUS
 10
172.6940033031
 20
288.5010398837
 11
174.685853391
 21
290.4928899715
  0
LINE
  8
0
 62
7
  6
CONTINUOUS
 10
180.4124223936
 20
296.2194589741
 11
183.7321712736
 21
299.5392078541
  0
LINE
  8
0
 62
7
  6
CONTINUOUS
 10
184.8940850912
 20
300.7011216717
 11
185.3920476132
 21
301.1990841937
  0
LINE
  8
0
 62
7
  6
CONTINUOUS
 10
187.3838958015
 20
303.190932382
 11
187.7988658361
 21
303.6059024167
  0
LINE
  8
0
 62
7
  6
CONTINUOUS
 10
213.7925094826
 20
324.6497985948
 11
133.8894432085
 21
244.7467323207
  0
LINE
  8
0
 62
7
  6
CONTINUOUS
 10
184.7234365192
 20
307.511271803
 11
184.1881078978
 21
307.216660355
  0
LINE
  8
0
 62
7
  6
CONTINUOUS
 10
169.5643258633
 20
296.4443537694
 11
169.0289991415
 21
296.149744221
  0
LINE
  8
0
 62
7
  6
CONTINUOUS
 10
165.5806256876
 20
292.4606535937
 11
165.0452989658
 21
292.1660440453
  0
LINE
  8
0
 62
7
  6
CONTINUOUS
 10
186.8485709687
 20
302.8963247437
 11
187.3838958015
 21
303.190932382
  0
LINE
  8
0
 62
7
  6
CONTINUOUS
 10
162.0118945968
 20
288.8919225029
 11
161.4765669252
 21
288.5973120047
  0
LINE
  8
0
 62
7
  6
CONTINUOUS
 10
168.0707921457
 20
290.1364759093
 11
167.5354635244
 21
289.8418644613
  0
LINE
  8
0
 62
7
  6
CONTINUOUS
 10
169.5858695741
 20
285.6336233491
 11
170.1211963065
 21
285.928232887
  0
LINE
  8
0
 62
7
  6
CONTINUOUS
 10
162.1987184454
 20
287.8751604845
 11
162.6510517302
 21
288.0867765958
  0
LINE
  8
0
 62
7
  6
CONTINUOUS
 10
168.2576150446
 20
289.1197129411
 11
168.7099492791
 21
289.3313300022
  0
LINE
  8
0
 62
7
  6
CONTINUOUS
 10
167.3073201877
 20
288.4101352576
 11
167.7596525226
 21
288.6217504191
  0
LINE
  8
0
 62
7
  6
CONTINUOUS
 10
184.8728933186
 20
306.6978599087
 11
185.2422331663
 21
306.826482583
  0
LINE
  8
0
 62
7
  6
CONTINUOUS
 10
186.6991102964
 20
303.7097329125
 11
186.3297704487
 21
303.5811102382
  0
LINE
  8
0
 62
7
  6
CONTINUOUS
 10
169.834143149
 20
295.510585188
 11
170.2034829967
 21
295.6392078623
  0
LINE
  8
0
 62
7
  6
CONTINUOUS
 10
165.8504429733
 20
291.5268850123
 11
166.219782821
 21
291.6555076866
  0
LINE
  8
0
 62
7
  6
CONTINUOUS
 10
172.2413152203
 20
293.1034131168
 11
172.610655068
 21
293.232035791
  0
LINE
  8
0
 62
7
  6
CONTINUOUS
 10
133.8894432085
 20
222.1193153227
 11
213.7925094826
 21
142.2162490487
  0
LINE
  8
0
 62
7
  6
CONTINUOUS
 10
154.1070040814
 20
277.376273712
 11
154.0987402313
 21
276.886575515
  0
LINE
  8
0
 62
7
  6
CONTINUOUS
 10
154.5801745781
 20
276.4051411682
 11
154.5884384282
 21
276.8948393652
  0
LINE
  8
0
 62
7
  6
CONTINUOUS
 10
154.7547791851
 20
272.2468361481
 11
154.7465150975
 21
271.7571377137
  0
LINE
  8
0
 62
7
  6
CONTINUOUS
 10
161.2318944636
 20
286.1861849824
 11
161.2401585512
 21
286.6758834168
  0
LINE
  8
0
 62
7
  6
CONTINUOUS
 10
165.2155936895
 20
290.1698842083
 11
165.2238577771
 21
290.6595826427
  0
LINE
  8
0
 62
7
  6
CONTINUOUS
 10
160.4350126441
 20
287.3150405502
 11
160.3437551194
 21
286.7423486787
  0
LINE
  8
0
 62
7
  6
CONTINUOUS
 10
164.4187137696
 20
291.2987416757
 11
164.3274552951
 21
290.7260488544
  0
LINE
  8
0
 62
7
  6
CONTINUOUS
 10
167.4280316624
 20
283.4757854374
 11
167.5192891554
 21
284.0484773404
  0
LINE
  8
0
 62
7
  6
CONTINUOUS
 10
171.07975714
 20
287.127510915
 11
171.1710136832
 21
287.7002018683
  0
LINE
  8
0
 62
7
  6
CONTINUOUS
 10
172.3782019821
 20
293.9624513988
 11
172.4238321691
 21
294.2487987593
  0
LINE
  8
0
 62
7
  6
CONTINUOUS
 10
171.6477863743
 20
294.1949044847
 11
171.5191637
 21
293.825564637
  0
LINE
  8
0
 62
7
  6
CONTINUOUS
 10
174.175316948
 20
291.667373911
 11
174.0466942737
 21
291.2980340633
  0
LINE
  8
0
 62
7
  6
CONTINUOUS
 10
182.1172193239
 20
307.793661363
 11
182.2458419982
 21
308.1630012107
  0
LINE
  8
0
 62
7
  6
CONTINUOUS
 10
184.1633156351
 20
305.7475650518
 11
184.2919383094
 21
306.1169048995
  0
LINE
  8
0
 62
7
  6
CONTINUOUS
 10
174.685853391
 20
290.4928899715
 11
174.9804629289
 21
291.0282167039
  0
LINE
  8
0
 62
7
  6
CONTINUOUS
 10
183.7731378631
 20
306.8016903203
 11
183.4785302143
 21
306.2663654981
  0
LINE
  8
0
 62
7
  6
CONTINUOUS
 10
187.7988658361
 20
303.6059024167
 11
188.0934772736
 21
304.1412310486
  0
LINE
  8
0
 62
7
  6
CONTINUOUS
 10
195.2772477877
 20
291.9924012762
 11
166.5468405271
 21
263.2619940155
  0
LINE
  8
0
 62
7
  6
CONTINUOUS
 10
165.8511497096
 20
281.8989034846
 11
166.3864773918
 21
282.1935139723
  0
LINE
  8
0
 62
7
  6
CONTINUOUS
 10
169.3990447019
 20
286.6503844915
 11
168.9467104674
 21
286.4387674304
  0
LINE
  8
0
 62
7
  6
CONTINUOUS
 10
165.6643257872
 20
282.9156655768
 11
165.2119925025
 21
282.7040494655
  0
LINE
  8
0
 62
7
  6
CONTINUOUS
 10
154.8000550145
 20
277.3471731248
 11
155.2523887741
 21
277.5587897111
  0
LINE
  8
0
 62
7
  6
CONTINUOUS
 10
154.2320245335
 20
270.2797783085
 11
154.6843581256
 21
270.4913947062
  0
LINE
  8
0
 62
7
  6
CONTINUOUS
 10
167.0375010024
 20
289.3439019393
 11
166.6681611547
 21
289.2152792651
  0
LINE
  8
0
 62
7
  6
CONTINUOUS
 10
155.0199356883
 20
278.2892053189
 11
154.6505958406
 21
278.1605826446
  0
LINE
  8
0
 62
7
  6
CONTINUOUS
 10
166.5468405271
 20
203.6040536279
 11
195.2772477877
 21
174.8736463672
  0
LINE
  8
0
 62
7
  6
CONTINUOUS
 10
154.0987402313
 20
276.886575515
 11
154.1734698182
 21
276.4798707552
  0
LINE
  8
0
 62
7
  6
CONTINUOUS
 10
155.2735785073
 20
271.5620494768
 11
155.1614838263
 21
272.1721064424
  0
LINE
  8
0
 62
7
  6
CONTINUOUS
 10
154.654904165
 20
275.9984364083
 11
154.5801745781
 21
276.4051411682
  0
LINE
  8
0
 62
7
  6
CONTINUOUS
 10
166.6311496848
 20
284.6046411632
 11
166.6228856815
 21
284.1149426445
  0
LINE
  8
0
 62
7
  6
CONTINUOUS
 10
170.2828751624
 20
288.2563666408
 11
170.2746111592
 21
287.7666681221
  0
LINE
  8
0
 62
7
  6
CONTINUOUS
 10
181.4324339031
 20
308.3124618092
 11
181.3785396286
 21
307.5364160144
  0
LINE
  8
0
 62
7
  6
CONTINUOUS
 10
187.4086879799
 20
304.6600277694
 11
187.2800653056
 21
304.2906879218
  0
LINE
  8
0
 62
7
  6
CONTINUOUS
 10
220.9739132991
 20
314.1535328816
 11
199.7607098635
 21
292.940329446
  0
LINE
  8
0
 62
7
  6
CONTINUOUS
 10
165.5989123572
 20
258.7785319398
 11
144.3857089216
 21
237.5653285042
  0
LINE
  8
0
 62
7
  6
CONTINUOUS
 10
271.4956288695
 20
307.2517657355
 11
270.2256486517
 21
306.8367257394
  0
LINE
  8
0
 62
7
  6
CONTINUOUS
 10
269.2627796209
 20
305.8738567086
 11
270.5327601759
 21
306.2888970418
  0
LINE
  8
0
 62
7
  6
CONTINUOUS
 10
144.3857089216
 20
229.3007191393
 11
165.5989123572
 21
208.0875157037
  0
LINE
  8
0
 62
7
  6
CONTINUOUS
 10
199.7607098635
 20
173.9257181974
 11
220.9739132991
 21
152.7125147618
  0
LINE
  8
0
 62
7
  6
CONTINUOUS
 10
154.5596908084
 20
272.7738994602
 11
154.7547791851
 21
272.2468361481
  0
LINE
  8
0
 62
7
  6
CONTINUOUS
 10
160.3437551194
 20
286.7423486787
 11
160.4932147682
 21
285.9289396338
  0
LINE
  8
0
 62
7
  6
CONTINUOUS
 10
164.3274552951
 20
290.7260488544
 11
164.4769149439
 21
289.9126398095
  0
LINE
  8
0
 62
7
  6
CONTINUOUS
 10
174.9804629289
 20
291.0282167039
 11
174.951362785
 21
291.7212681434
  0
LINE
  8
0
 62
7
  6
CONTINUOUS
 10
182.1089552364
 20
307.3039629286
 11
182.1172193239
 21
307.793661363
  0
LINE
  8
0
 62
7
  6
CONTINUOUS
 10
183.4785302143
 20
306.2663654981
 11
183.4620020392
 21
305.2869686293
  0
LINE
  8
0
 62
7
  6
CONTINUOUS
 10
184.1550515475
 20
305.2578666174
 11
184.1633156351
 21
305.7475650518
  0
LINE
  8
0
 62
7
  6
CONTINUOUS
 10
187.4169520674
 20
305.1497262038
 11
187.4086879799
 21
304.6600277694
  0
LINE
  8
0
 62
7
  6
CONTINUOUS
 10
188.0934772736
 20
304.1412310486
 11
188.1473677174
 21
304.9172730758
  0
LINE
  8
0
 62
7
  6
CONTINUOUS
 10
273.0657475822
 20
302.5523230941
 11
272.4418233343
 21
302.2133786483
  0
LINE
  8
0
 62
7
  6
CONTINUOUS
 10
275.0703097722
 20
301.992064619
 11
274.4463855243
 21
301.6531201732
  0
LINE
  8
0
 62
7
  6
CONTINUOUS
 10
271.5965848532
 20
304.5029208443
 11
272.1001505144
 21
304.7215067033
  0
LINE
  8
0
 62
7
  6
CONTINUOUS
 10
272.4369725307
 20
301.4960779317
 11
272.9405385995
 21
301.7146633831
  0
LINE
  8
0
 62
7
  6
CONTINUOUS
 10
274.3702896368
 20
301.0070638661
 11
275.3774212963
 21
301.4442359214
  0
LINE
  8
0
 62
7
  6
CONTINUOUS
 10
273.7933567642
 20
297.0103701067
 11
272.7862249499
 21
296.573198712
  0
LINE
  8
0
 62
7
  6
CONTINUOUS
 10
277.2055385084
 20
296.0053604338
 11
273.1057665045
 21
294.3279196015
  0
LINE
  8
0
 62
7
  6
CONTINUOUS
 10
281.1849511104
 20
297.5624434946
 11
277.9007079107
 21
296.2730597252
  0
LINE
  8
0
 62
7
  6
CONTINUOUS
 10
273.5332366153
 20
293.9004494907
 11
276.8174806303
 21
295.1898324448
  0
LINE
  8
0
 62
7
  6
CONTINUOUS
 10
277.6330086193
 20
295.5778903229
 11
281.6124212212
 21
297.1349733838
  0
LINE
  8
0
 62
7
  6
CONTINUOUS
 10
282.6098517516
 20
296.1375428534
 11
281.3398715338
 21
295.7225028573
  0
LINE
  8
0
 62
7
  6
CONTINUOUS
 10
280.377002503
 20
294.7596338265
 11
281.646983058
 21
295.1746741597
  0
LINE
  8
0
 62
7
  6
CONTINUOUS
 10
161.426982737
 20
285.6591210612
 11
161.2318944636
 21
286.1861849824
  0
LINE
  8
0
 62
7
  6
CONTINUOUS
 10
167.5192891554
 20
284.0484773404
 11
167.3698294645
 21
284.8618864274
  0
LINE
  8
0
 62
7
  6
CONTINUOUS
 10
171.1710136832
 20
287.7002018683
 11
171.0215549421
 21
288.5136119051
  0
LINE
  8
0
 62
7
  6
CONTINUOUS
 10
171.5730579746
 20
294.6016104318
 11
171.6477863743
 21
294.1949044847
  0
LINE
  8
0
 62
7
  6
CONTINUOUS
 10
174.100588464
 20
292.0740799424
 11
174.175316948
 21
291.667373911
  0
LINE
  8
0
 62
7
  6
CONTINUOUS
 10
212.9139040709
 20
363.1934960882
 11
212.1625168325
 21
358.9321673033
  0
LINE
  8
SURFACE
 62
7
  6
CONTINUOUS
 10
164.1848057933
 20
118.2157759015
 11
165.1213544286
 21
122.4402737946
  0
LINE
  8
0
 62
7
  6
CONTINUOUS
 10
263.4991716178
 20
357.9818648135
 11
261.1742404014
 21
354.3324538153
  0
LINE
  8
SURFACE
 62
7
  6
CONTINUOUS
 10
124.7304402674
 20
150.2997817967
 11
127.2123437364
 21
153.844307289
  0
LINE
  8
0
 62
7
  6
CONTINUOUS
 10
274.0140642726
 20
301.3632892303
 11
273.3410265924
 21
300.8327410434
  0
LINE
  8
0
 62
7
  6
CONTINUOUS
 10
271.7930390922
 20
305.269335299
 11
271.2403596929
 21
304.8591460046
  0
LINE
  8
0
 62
7
  6
CONTINUOUS
 10
272.9405385995
 20
301.7146633831
 11
273.4932176931
 21
302.1248529833
  0
LINE
  8
0
 62
7
  6
CONTINUOUS
 10
308.2394600066
 20
333.8088015359
 11
304.6949345143
 21
331.3268980668
  0
LINE
  8
0
 62
7
  6
CONTINUOUS
 10
274.4463855243
 20
301.6531201732
 11
274.0140642726
 21
301.3632892303
  0
LINE
  8
0
 62
7
  6
CONTINUOUS
 10
273.7172612139
 20
296.3643141368
 11
274.1495817207
 21
296.6541451503
  0
LINE
  8
SURFACE
 62
7
  6
CONTINUOUS
 10
100.5573769897
 20
195.0400701855
 11
104.206787988
 21
197.3650014019
  0
LINE
  8
0
 62
7
  6
CONTINUOUS
 10
273.093336474
 20
296.0253700144
 11
273.7172612139
 21
296.3643141368
  0
LINE
  8
0
 62
7
  6
CONTINUOUS
 10
282.7108079392
 20
293.3886977583
 11
283.2143731927
 21
293.607284025
  0
LINE
  8
0
 62
7
  6
CONTINUOUS
 10
283.5511950051
 20
290.3818554573
 11
284.0547618893
 21
290.6004400934
  0
LINE
  8
0
 62
7
  6
CONTINUOUS
 10
285.4845129265
 20
289.8928405764
 11
286.4916437707
 21
290.330013447
  0
LINE
  8
0
 62
7
  6
CONTINUOUS
 10
284.907580054
 20
285.896146817
 11
283.900447832
 21
285.4589758299
  0
LINE
  8
0
 62
7
  6
CONTINUOUS
 10
109.8889700613
 20
172.5116116335
 11
114.1134679545
 21
173.4481602687
  0
LINE
  8
SURFACE
 62
7
  6
CONTINUOUS
 10
354.8666902481
 20
221.2407099111
 11
350.6053614631
 21
220.4893226726
  0
LINE
  8
0
 62
7
  6
CONTINUOUS
 10
95.3457457151
 20
221.2407099111
 11
99.6070745
 21
220.4893226726
  0
LINE
  8
SURFACE
 62
7
  6
CONTINUOUS
 10
340.3234659018
 20
172.5116116335
 11
336.0989680086
 21
173.4481602687
  0
LINE
  8
0
 62
7
  6
CONTINUOUS
 10
100.5573769897
 20
271.825977458
 11
104.206787988
 21
269.5010462415
  0
LINE
  8
SURFACE
 62
7
  6
CONTINUOUS
 10
308.2394600066
 20
133.0572461075
 11
304.6949345143
 21
135.5391495766
  0
LINE
  8
0
 62
7
  6
CONTINUOUS
 10
149.83695797
 20
273.346944774
 11
152.2441298727
 21
270.9397728713
  0
LINE
  8
0
 62
7
  6
CONTINUOUS
 10
152.6590986311
 20
271.3547416297
 11
150.2519267284
 21
273.7619135324
  0
LINE
  8
0
 62
7
  6
CONTINUOUS
 10
124.7304402674
 20
316.5662658468
 11
127.2123437364
 21
313.0217403545
  0
LINE
  8
SURFACE
 62
7
  6
CONTINUOUS
 10
263.4991716178
 20
108.8841828299
 11
261.1742404014
 21
112.5335938281
  0
LINE
  8
0
 62
7
  6
CONTINUOUS
 10
160.4932147682
 20
285.9289396338
 11
160.8086612911
 21
285.2815174631
  0
LINE
  8
0
 62
7
  6
CONTINUOUS
 10
171.0215549421
 20
288.5136119051
 11
170.7061073851
 21
289.1610332103
  0
LINE
  8
0
 62
7
  6
CONTINUOUS
 10
170.0877862765
 20
288.7834292751
 11
170.2828751624
 21
288.2563666408
  0
LINE
  8
0
 62
7
  6
CONTINUOUS
 10
172.4238321691
 20
294.2487987593
 11
172.1913790833
 21
294.9792143671
  0
LINE
  8
0
 62
7
  6
CONTINUOUS
 10
174.951362785
 20
291.7212681434
 11
174.718909657
 21
292.4516837934
  0
LINE
  8
0
 62
7
  6
CONTINUOUS
 10
179.2372308417
 20
306.3579759212
 11
179.5817784267
 21
305.0175032923
  0
LINE
  8
0
 62
7
  6
CONTINUOUS
 10
180.5446474575
 20
304.0546342615
 11
180.2000995354
 21
305.3951072276
  0
LINE
  8
0
 62
7
  6
CONTINUOUS
 10
164.1848057933
 20
348.6502717419
 11
165.1213544286
 21
344.4257738488
  0
LINE
  8
0
 62
7
  6
CONTINUOUS
 10
180.188233311
 20
297.4395731006
 11
178.917827131
 21
304.3535519967
  0
LINE
  8
0
 62
7
  6
CONTINUOUS
 10
184.2297799472
 20
304.8511606703
 11
184.1550515475
 21
305.2578666174
  0
LINE
  8
SURFACE
 62
7
  6
CONTINUOUS
 10
212.9139040709
 20
103.6725515552
 11
212.1625168325
 21
107.9338803401
  0
LINE
  8
0
 62
7
  6
CONTINUOUS
 10
178.2621418225
 20
304.179301035
 11
179.4495536156
 21
297.182327752
  0
LINE
  8
SURFACE
 62
7
  6
CONTINUOUS
 10
227.9834296111
 20
349.6725515552
 11
228.986263527
 21
355.3599053109
  0
LINE
  8
0
 62
7
  6
CONTINUOUS
 10
182.0315151404
 20
119.3024444039
 11
181.8770276618
 21
118.481632429
  0
LINE
  8
SURFACE
 62
7
  6
CONTINUOUS
 10
228.986263527
 20
355.3599053109
 11
229.1576468514
 21
356.177356493
  0
LINE
  8
0
 62
7
  6
CONTINUOUS
 10
183.2814734672
 20
124.9406420579
 11
182.0315151404
 21
119.3024444039
  0
LINE
  8
SURFACE
 62
7
  6
CONTINUOUS
 10
272.2473563663
 20
339.7232831415
 11
275.3503101521
 21
344.5939449454
  0
LINE
  8
0
 62
7
  6
CONTINUOUS
 10
141.6344997882
 20
144.4740925953
 11
141.1776608248
 21
143.7748810103
  0
LINE
  8
SURFACE
 62
7
  6
CONTINUOUS
 10
275.3503101521
 20
344.5939449454
 11
275.8214727218
 21
345.2835858026
  0
LINE
  8
0
 62
7
  6
CONTINUOUS
 10
144.9469555334
 20
149.2047696653
 11
141.6344997882
 21
144.4740925953
  0
LINE
  8
0
 62
7
  6
CONTINUOUS
 10
270.2256486517
 20
306.8367257394
 11
269.2627796209
 21
305.8738567086
  0
LINE
  8
0
 62
7
  6
CONTINUOUS
 10
270.5327601759
 20
306.2888970418
 11
265.83877462
 21
301.594911486
  0
LINE
  8
0
 62
7
  6
CONTINUOUS
 10
266.2662447309
 20
301.1674413751
 11
271.9230989804
 21
306.8242956246
  0
LINE
  8
0
 62
7
  6
CONTINUOUS
 10
267.4379978625
 20
301.1992742791
 11
266.8362048447
 21
300.5974812613
  0
LINE
  8
0
 62
7
  6
CONTINUOUS
 10
273.3064650928
 20
302.7930406047
 11
273.0657475822
 21
302.5523230941
  0
LINE
  8
0
 62
7
  6
CONTINUOUS
 10
269.4010254079
 20
298.0326606981
 11
270.0028184257
 21
298.6344537159
  0
LINE
  8
0
 62
7
  6
CONTINUOUS
 10
273.4932176931
 20
302.1248529833
 11
273.7339352036
 21
302.3655704938
  0
LINE
  8
0
 62
7
  6
CONTINUOUS
 10
273.3410265924
 20
300.8327410434
 11
272.2577993121
 21
299.7495137631
  0
LINE
  8
0
 62
7
  6
CONTINUOUS
 10
272.7343828552
 20
299.5136473933
 11
273.5768929622
 21
300.3561575003
  0
LINE
  8
0
 62
7
  6
CONTINUOUS
 10
273.5768929622
 20
300.3561575003
 11
274.3702896368
 21
301.0070638661
  0
LINE
  8
0
 62
7
  6
CONTINUOUS
 10
274.5867531997
 20
297.6612770489
 11
273.7933567642
 21
297.0103701067
  0
LINE
  8
0
 62
7
  6
CONTINUOUS
 10
274.1495817207
 20
296.6541451503
 11
274.8226195695
 21
297.1846935057
  0
LINE
  8
0
 62
7
  6
CONTINUOUS
 10
282.9072616685
 20
294.1551127226
 11
282.354582575
 21
293.7449231225
  0
LINE
  8
0
 62
7
  6
CONTINUOUS
 10
284.0547618893
 20
290.6004400934
 11
284.6074401675
 21
291.0106305088
  0
LINE
  8
SURFACE
 62
7
  6
CONTINUOUS
 10
309.334472138
 20
313.5922862699
 11
314.065149208
 21
316.9047420151
  0
LINE
  8
0
 62
7
  6
CONTINUOUS
 10
113.9452968579
 20
183.1889316512
 11
113.2556560006
 21
182.7177690815
  0
LINE
  8
0
 62
7
  6
CONTINUOUS
 10
285.5606084064
 20
290.5388972911
 11
285.1282867471
 21
290.2490667558
  0
LINE
  8
SURFACE
 62
7
  6
CONTINUOUS
 10
314.065149208
 20
316.9047420151
 11
314.764360793
 21
317.3615809785
  0
LINE
  8
0
 62
7
  6
CONTINUOUS
 10
118.8159586618
 20
186.291885437
 11
113.9452968579
 21
183.1889316512
  0
LINE
  8
0
 62
7
  6
CONTINUOUS
 10
284.1799700566
 20
291.4381006197
 11
283.5560462164
 21
291.0991557662
  0
LINE
  8
0
 62
7
  6
CONTINUOUS
 10
286.1845322466
 20
290.8778421445
 11
285.5606084064
 21
290.5388972911
  0
LINE
  8
0
 62
7
  6
CONTINUOUS
 10
284.2075593561
 20
284.9111471323
 11
284.8314832806
 21
285.2500920701
  0
LINE
  8
0
 62
7
  6
CONTINUOUS
 10
291.2926495987
 20
279.0296429254
 11
290.7890827145
 21
278.8110582893
  0
LINE
  8
0
 62
7
  6
CONTINUOUS
 10
295.5570426495
 20
280.3017452002
 11
296.0606082402
 21
280.5203318041
  0
LINE
  8
0
 62
7
  6
CONTINUOUS
 10
294.6411649235
 20
275.6811276006
 11
294.1375980393
 21
275.4625429646
  0
LINE
  8
SURFACE
 62
7
  6
CONTINUOUS
 10
116.6138362178
 20
191.6082793074
 11
110.9756385637
 21
190.3583209806
  0
LINE
  8
0
 62
7
  6
CONTINUOUS
 10
347.0330994707
 20
237.3130693672
 11
347.8505506529
 21
237.4844526915
  0
LINE
  8
SURFACE
 62
7
  6
CONTINUOUS
 10
110.9756385637
 20
190.3583209806
 11
110.1548265889
 21
190.2038335019
  0
LINE
  8
0
 62
7
  6
CONTINUOUS
 10
341.3457457151
 20
236.3102354512
 11
347.0330994707
 21
237.3130693672
  0
LINE
  8
SURFACE
 62
7
  6
CONTINUOUS
 10
108.8666902481
 20
236.3102354512
 11
103.1793364924
 21
237.3130693672
  0
LINE
  8
0
 62
7
  6
CONTINUOUS
 10
339.2367973994
 20
190.3583209806
 11
340.0576093742
 21
190.2038335019
  0
LINE
  8
SURFACE
 62
7
  6
CONTINUOUS
 10
103.1793364924
 20
237.3130693672
 11
102.3618853102
 21
237.4844526915
  0
LINE
  8
0
 62
7
  6
CONTINUOUS
 10
333.5985997453
 20
191.6082793074
 11
339.2367973994
 21
190.3583209806
  0
LINE
  8
SURFACE
 62
7
  6
CONTINUOUS
 10
118.8159586618
 20
280.5741622065
 11
113.9452968579
 21
283.6771159922
  0
LINE
  8
0
 62
7
  6
CONTINUOUS
 10
314.065149208
 20
149.9613056283
 11
314.764360793
 21
149.5044666649
  0
LINE
  8
SURFACE
 62
7
  6
CONTINUOUS
 10
113.9452968579
 20
283.6771159922
 11
113.2556560006
 21
284.148278562
  0
LINE
  8
0
 62
7
  6
CONTINUOUS
 10
309.334472138
 20
153.2737613736
 11
314.065149208
 21
149.9613056283
  0
LINE
  8
0
 62
7
  6
CONTINUOUS
 10
152.2441298727
 20
270.9397728713
 11
152.8085580599
 21
270.5413321963
  0
LINE
  8
0
 62
7
  6
CONTINUOUS
 10
151.9118017323
 20
275.4217885363
 11
154.5596908084
 21
272.7738994602
  0
LINE
  8
0
 62
7
  6
CONTINUOUS
 10
155.456094087
 20
272.7074338766
 11
152.3267705798
 21
275.8367573838
  0
LINE
  8
0
 62
7
  6
CONTINUOUS
 10
153.1567080372
 20
276.6666948412
 11
157.008183149
 21
272.8152197295
  0
LINE
  8
0
 62
7
  6
CONTINUOUS
 10
157.4231519964
 20
273.230188577
 11
154.654904165
 21
275.9984364083
  0
LINE
  8
0
 62
7
  6
CONTINUOUS
 10
154.1734698182
 20
276.4798707552
 11
153.5716768847
 21
277.0816636887
  0
LINE
  8
0
 62
7
  6
CONTINUOUS
 10
156.6302260777
 20
277.0108896274
 11
158.9170395623
 21
274.7240761428
  0
LINE
  8
0
 62
7
  6
CONTINUOUS
 10
159.3320081723
 20
275.1390447528
 11
157.0451946878
 21
277.4258582374
  0
LINE
  8
0
 62
7
  6
CONTINUOUS
 10
154.3391042687
 20
281.4598493482
 11
154.9408972022
 21
280.8580564147
  0
LINE
  8
0
 62
7
  6
CONTINUOUS
 10
156.1444834065
 20
279.6544702105
 11
159.9959585182
 21
275.8029950987
  0
LINE
  8
0
 62
7
  6
CONTINUOUS
 10
160.4109271282
 20
276.2179637087
 11
156.5594520165
 21
280.0694388205
  0
LINE
  8
0
 62
7
  6
CONTINUOUS
 10
155.3558658122
 20
281.2730250247
 11
154.7540728787
 21
281.8748179582
  0
LINE
  8
0
 62
7
  6
CONTINUOUS
 10
160.8086612911
 20
285.2815174631
 11
161.3274611248
 21
284.5967307553
  0
LINE
  8
0
 62
7
  6
CONTINUOUS
 10
167.3698294645
 20
284.8618864274
 11
166.8510308335
 21
285.5466738321
  0
LINE
  8
0
 62
7
  6
CONTINUOUS
 10
161.8254236467
 20
285.0946932773
 11
161.426982737
 21
285.6591210612
  0
LINE
  8
0
 62
7
  6
CONTINUOUS
 10
164.4769149439
 20
289.9126398095
 11
164.8753549039
 21
289.3482110759
  0
LINE
  8
SURFACE
 62
7
  6
CONTINUOUS
 10
144.9469555334
 20
317.6612779781
 11
141.6344997882
 21
322.3919550481
  0
LINE
  8
0
 62
7
  6
CONTINUOUS
 10
275.3503101521
 20
122.272102698
 11
275.8214727218
 21
121.5824618408
  0
LINE
  8
SURFACE
 62
7
  6
CONTINUOUS
 10
141.6344997882
 20
322.3919550481
 11
141.1776608248
 21
323.0911666332
  0
LINE
  8
0
 62
7
  6
CONTINUOUS
 10
272.2473563663
 20
127.142764502
 11
275.3503101521
 21
122.272102698
  0
LINE
  8
0
 62
7
  6
CONTINUOUS
 10
166.3530683115
 20
285.0487113101
 11
166.6311496848
 21
284.6046411632
  0
LINE
  8
0
 62
7
  6
CONTINUOUS
 10
165.4936772995
 20
289.7258156237
 11
165.2155936895
 21
290.1698842083
  0
LINE
  8
0
 62
7
  6
CONTINUOUS
 10
171.2949747018
 20
295.0456786792
 11
171.5730579746
 21
294.6016104318
  0
LINE
  8
0
 62
7
  6
CONTINUOUS
 10
172.1913790833
 20
294.9792143671
 11
171.9132958104
 21
295.4232826144
  0
LINE
  8
0
 62
7
  6
CONTINUOUS
 10
173.8225051912
 20
292.5181481898
 11
174.100588464
 21
292.0740799424
  0
LINE
  8
0
 62
7
  6
CONTINUOUS
 10
174.718909657
 20
292.4516837934
 11
174.4408262998
 21
292.8957521251
  0
LINE
  8
0
 62
7
  6
CONTINUOUS
 10
182.3040422228
 20
306.7768983948
 11
182.1089552364
 21
307.3039629286
  0
LINE
  8
0
 62
7
  6
CONTINUOUS
 10
181.3785396286
 20
307.5364160144
 11
181.6109927144
 21
306.8060004066
  0
LINE
  8
0
 62
7
  6
CONTINUOUS
 10
188.1473677174
 20
304.9172730758
 11
187.9149145894
 21
305.6476887258
  0
LINE
  8
SURFACE
 62
7
  6
CONTINUOUS
 10
183.2814734672
 20
341.9254055855
 11
182.0315151404
 21
347.5636032395
  0
LINE
  8
0
 62
7
  6
CONTINUOUS
 10
228.986263527
 20
111.5061423326
 11
229.1576468514
 21
110.6886911504
  0
LINE
  8
SURFACE
 62
7
  6
CONTINUOUS
 10
182.0315151404
 20
347.5636032395
 11
181.8770276618
 21
348.3844152144
  0
LINE
  8
0
 62
7
  6
CONTINUOUS
 10
227.9834296111
 20
117.1934960882
 11
228.986263527
 21
111.5061423326
  0
LINE
  8
DEFAULT_1
 62
2
  6
CENTER
 10
225.1062179816
 20
91.6398277408
 11
225.1062179816
 21
375.2262199027
  0
LINE
  8
0
 62
7
  6
CONTINUOUS
 10
273.7339352036
 20
302.3655704938
 11
274.1441248038
 21
302.9182495874
  0
LINE
  8
0
 62
7
  6
CONTINUOUS
 10
272.2577993121
 20
299.7495137631
 11
271.7272509566
 21
299.0764759143
  0
LINE
  8
0
 62
7
  6
CONTINUOUS
 10
275.9058468498
 20
298.267920786
 11
276.4363950367
 21
298.9409584662
  0
LINE
  8
0
 62
7
  6
CONTINUOUS
 10
272.0834763208
 20
298.7202505501
 11
272.7343828552
 21
299.5136473933
  0
LINE
  8
0
 62
7
  6
CONTINUOUS
 10
276.0801700802
 20
299.2971834227
 11
275.4292633066
 21
298.5037871558
  0
LINE
  8
0
 62
7
  6
CONTINUOUS
 10
275.4292633066
 20
298.5037871558
 11
274.5867531997
 21
297.6612770489
  0
LINE
  8
0
 62
7
  6
CONTINUOUS
 10
274.8226195695
 20
297.1846935057
 11
275.9058468498
 21
298.267920786
  0
LINE
  8
0
 62
7
  6
CONTINUOUS
 10
281.3398715338
 20
295.7225028573
 11
280.377002503
 21
294.7596338265
  0
LINE
  8
0
 62
7
  6
CONTINUOUS
 10
281.646983058
 20
295.1746741597
 11
276.9529975021
 21
290.4806886039
  0
LINE
  8
0
 62
7
  6
CONTINUOUS
 10
277.380467613
 20
290.053218493
 11
283.0373218625
 21
295.7100727425
  0
LINE
  8
0
 62
7
  6
CONTINUOUS
 10
278.5522210504
 20
290.0850510913
 11
277.9504280326
 21
289.4832580734
  0
LINE
  8
0
 62
7
  6
CONTINUOUS
 10
284.4206875672
 20
291.6788181303
 11
284.1799700566
 21
291.4381006197
  0
LINE
  8
0
 62
7
  6
CONTINUOUS
 10
280.5152478823
 20
286.9184382237
 11
281.1170409002
 21
287.5202312415
  0
LINE
  8
0
 62
7
  6
CONTINUOUS
 10
284.6074401675
 20
291.0106305088
 11
284.8481576781
 21
291.2513480194
  0
LINE
  8
0
 62
7
  6
CONTINUOUS
 10
284.6911158443
 20
289.2419346182
 11
285.4845129265
 21
289.8928405764
  0
LINE
  8
0
 62
7
  6
CONTINUOUS
 10
285.7009756741
 20
286.5470545744
 11
284.907580054
 21
285.896146817
  0
LINE
  8
0
 62
7
  6
CONTINUOUS
 10
285.1282867471
 20
290.2490667558
 11
284.4552498822
 21
289.7185177537
  0
LINE
  8
0
 62
7
  6
CONTINUOUS
 10
285.2638046028
 20
285.5399222682
 11
285.9368432669
 21
286.0704698082
  0
LINE
  8
0
 62
7
  6
CONTINUOUS
 10
292.7390750334
 20
284.3232993577
 11
292.1863951246
 21
283.9131105729
  0
LINE
  8
0
 62
7
  6
CONTINUOUS
 10
284.8314832806
 20
285.2500920701
 11
285.2638046028
 21
285.5399222682
  0
LINE
  8
0
 62
7
  6
CONTINUOUS
 10
292.4935063115
 20
283.3652815382
 11
292.9258279708
 21
283.6551120735
  0
LINE
  8
0
 62
7
  6
CONTINUOUS
 10
295.8738553027
 20
281.1885190884
 11
295.2499314625
 21
280.8495742349
  0
LINE
  8
0
 62
7
  6
CONTINUOUS
 10
290.9758355677
 20
278.1428709208
 11
291.5997611229
 21
278.4818142278
  0
LINE
  8
0
 62
7
  6
CONTINUOUS
 10
294.3243508925
 20
274.794355596
 11
294.9482764476
 21
275.1332989031
  0
LINE
  8
DEFAULT_1
 62
2
  6
CENTER
 10
83.3130219006
 20
233.4330238217
 11
366.8994140625
 21
233.4330238217
  0
LINE
  8
0
 62
7
  6
CONTINUOUS
 10
155.1614838263
 20
272.1721064424
 11
155.9292644305
 21
271.7363010111
  0
LINE
  8
0
 62
7
  6
CONTINUOUS
 10
153.1031681547
 20
271.0766596331
 11
152.6590986311
 21
271.3547416297
  0
LINE
  8
0
 62
7
  6
CONTINUOUS
 10
156.3604083172
 20
277.9446577339
 11
155.9163386451
 21
278.222739582
  0
LINE
  8
0
 62
7
  6
CONTINUOUS
 10
156.0205221716
 20
272.308993141
 11
155.456094087
 21
272.7074338766
  0
LINE
  8
0
 62
7
  6
CONTINUOUS
 10
155.9454392323
 20
277.529688649
 11
156.6302260777
 21
277.0108896274
  0
LINE
  8
0
 62
7
  6
CONTINUOUS
 10
157.0451946878
 20
277.4258582374
 11
156.3604083172
 21
277.9446577339
  0
LINE
  8
0
 62
7
  6
CONTINUOUS
 10
161.3274611248
 20
284.5967307553
 11
163.1328400939
 21
282.7913517862
  0
LINE
  8
0
 62
7
  6
CONTINUOUS
 10
163.6308026159
 20
283.2893143081
 11
161.8254236467
 21
285.0946932773
  0
LINE
  8
0
 62
7
  6
CONTINUOUS
 10
164.8753549039
 20
289.3482110759
 11
165.3567895879
 21
288.8667763919
  0
LINE
  8
0
 62
7
  6
CONTINUOUS
 10
165.7343944729
 20
289.4850984503
 11
165.4936772995
 21
289.7258156237
  0
LINE
  8
0
 62
7
  6
CONTINUOUS
 10
169.7267105163
 20
289.1445050352
 11
170.0877862765
 21
288.7834292751
  0
LINE
  8
0
 62
7
  6
CONTINUOUS
 10
170.7061073851
 20
289.1610332103
 11
170.1043144516
 21
289.7628261439
  0
LINE
  8
0
 62
7
  6
CONTINUOUS
 10
181.6109927144
 20
306.8060004066
 11
182.0467972114
 21
306.0382183622
  0
LINE
  8
0
 62
7
  6
CONTINUOUS
 10
187.2218649967
 20
305.6767908219
 11
187.4169520674
 21
305.1497262038
  0
LINE
  8
0
 62
7
  6
CONTINUOUS
 10
271.4374203509
 20
298.6441549998
 11
271.0984758208
 21
298.0202306676
  0
LINE
  8
0
 62
7
  6
CONTINUOUS
 10
276.7262263873
 20
299.3732793102
 11
277.0651704253
 21
299.9972039658
  0
LINE
  8
0
 62
7
  6
CONTINUOUS
 10
271.7272509566
 20
299.0764759143
 11
271.4374203509
 21
298.6441549998
  0
LINE
  8
0
 62
7
  6
CONTINUOUS
 10
276.4363950367
 20
298.9409584662
 11
276.7262263873
 21
299.3732793102
  0
LINE
  8
0
 62
7
  6
CONTINUOUS
 10
284.8481576781
 20
291.2513480194
 11
285.2583480935
 21
291.8040262976
  0
LINE
  8
0
 62
7
  6
CONTINUOUS
 10
283.3720226018
 20
288.6352904733
 11
282.8414734311
 21
287.9622534399
  0
LINE
  8
0
 62
7
  6
CONTINUOUS
 10
283.1976996106
 20
287.6060272604
 11
283.8486057373
 21
288.3994245112
  0
LINE
  8
0
 62
7
  6
CONTINUOUS
 10
287.1943933699
 20
288.182960133
 11
286.5434857811
 21
287.3895646814
  0
LINE
  8
0
 62
7
  6
CONTINUOUS
 10
284.4552498822
 20
289.7185177537
 11
283.3720226018
 21
288.6352904733
  0
LINE
  8
0
 62
7
  6
CONTINUOUS
 10
283.8486057373
 20
288.3994245112
 11
284.6911158443
 21
289.2419346182
  0
LINE
  8
0
 62
7
  6
CONTINUOUS
 10
286.5434857811
 20
287.3895646814
 11
285.7009756741
 21
286.5470545744
  0
LINE
  8
0
 62
7
  6
CONTINUOUS
 10
285.9368432669
 20
286.0704698082
 11
287.0200705473
 21
287.1536970886
  0
LINE
  8
0
 62
7
  6
CONTINUOUS
 10
292.1863951246
 20
283.9131105729
 11
291.7049604406
 21
283.4316758889
  0
LINE
  8
0
 62
7
  6
CONTINUOUS
 10
292.2527891381
 20
283.1245643648
 11
292.4935063115
 21
283.3652815382
  0
LINE
  8
0
 62
7
  6
CONTINUOUS
 10
295.2499314625
 20
280.8495742349
 11
294.5768926298
 21
280.3190265263
  0
LINE
  8
0
 62
7
  6
CONTINUOUS
 10
294.9482764476
 20
275.1332989031
 11
295.6213133125
 21
275.6638479052
  0
LINE
  8
0
 62
7
  6
CONTINUOUS
 10
295.0043627407
 20
279.8915564154
 11
295.5570426495
 21
280.3017452002
  0
LINE
  8
0
 62
7
  6
CONTINUOUS
 10
295.1938432017
 20
276.0913180161
 11
294.6411649235
 21
275.6811276006
  0
LINE
  8
0
 62
7
  6
CONTINUOUS
 10
153.6302315263
 20
270.8815713158
 11
153.1031681547
 21
271.0766596331
  0
LINE
  8
0
 62
7
  6
CONTINUOUS
 10
152.8085580599
 20
270.5413321963
 11
153.1322689895
 21
270.383608779
  0
LINE
  8
0
 62
7
  6
CONTINUOUS
 10
156.344233278
 20
272.1512698585
 11
156.0205221716
 21
272.308993141
  0
LINE
  8
0
 62
7
  6
CONTINUOUS
 10
163.1407501646
 20
288.0950406834
 11
163.5848206487
 21
287.816958973
  0
LINE
  8
0
 62
7
  6
CONTINUOUS
 10
164.1952303998
 20
282.8908733984
 11
163.6308026159
 21
283.2893143081
  0
LINE
  8
0
 62
7
  6
CONTINUOUS
 10
167.3946216429
 20
286.3309818149
 11
167.9590503766
 21
285.9325418549
  0
LINE
  8
0
 62
7
  6
CONTINUOUS
 10
165.3567895879
 20
288.8667763919
 11
165.9212183215
 21
288.4683364319
  0
LINE
  8
0
 62
7
  6
CONTINUOUS
 10
163.1328400939
 20
282.7913517862
 11
163.8176264645
 21
282.2725522897
  0
LINE
  8
0
 62
7
  6
CONTINUOUS
 10
164.0827831707
 20
288.3149214949
 11
163.3979955131
 21
288.8337203788
  0
LINE
  8
0
 62
7
  6
CONTINUOUS
 10
167.0371490536
 20
294.1578941331
 11
172.6940033031
 21
288.5010398837
  0
LINE
  8
0
 62
7
  6
CONTINUOUS
 10
172.4698142206
 20
289.7211540101
 11
170.6644351671
 21
291.5265330636
  0
LINE
  8
0
 62
7
  6
CONTINUOUS
 10
169.9422836469
 20
292.2486845838
 11
168.2572630958
 21
293.9337051349
  0
LINE
  8
0
 62
7
  6
CONTINUOUS
 10
171.0542575284
 20
295.2863958526
 11
171.2949747018
 21
295.0456786792
  0
LINE
  8
0
 62
7
  6
CONTINUOUS
 10
173.4614294311
 20
292.8792239499
 11
173.8225051912
 21
292.5181481898
  0
LINE
  8
0
 62
7
  6
CONTINUOUS
 10
174.4408262998
 20
292.8957521251
 11
173.8390333663
 21
293.4975450586
  0
LINE
  8
0
 62
7
  6
CONTINUOUS
 10
171.9132958104
 20
295.4232826144
 11
171.4318611265
 21
295.9047172984
  0
LINE
  8
0
 62
7
  6
CONTINUOUS
 10
174.7555681441
 20
301.8763132236
 11
175.3573610776
 21
301.27452029
  0
LINE
  8
0
 62
7
  6
CONTINUOUS
 10
179.4495536156
 20
297.182327752
 11
180.4124223936
 21
296.2194589741
  0
LINE
  8
0
 62
7
  6
CONTINUOUS
 10
182.0467972114
 20
306.0382183622
 11
182.8063148311
 21
305.112715768
  0
LINE
  8
0
 62
7
  6
CONTINUOUS
 10
183.2212848657
 20
305.5276858027
 11
182.5821258328
 21
306.3328298102
  0
LINE
  8
0
 62
7
  6
CONTINUOUS
 10
182.5821258328
 20
306.3328298102
 11
182.3040422228
 21
306.7768983948
  0
LINE
  8
0
 62
7
  6
CONTINUOUS
 10
184.5078633887
 20
304.4070922543
 11
184.2297799472
 21
304.8511606703
  0
LINE
  8
0
 62
7
  6
CONTINUOUS
 10
186.9437817239
 20
306.1208590693
 11
187.2218649967
 21
305.6767908219
  0
LINE
  8
0
 62
7
  6
CONTINUOUS
 10
187.9149145894
 20
305.6476887258
 11
187.4791103453
 21
306.4154705173
  0
LINE
  8
SURFACE
 62
7
  6
CONTINUOUS
 10
222.229006352
 20
117.1934960882
 11
221.2261724361
 21
111.5061423326
  0
LINE
  8
0
 62
7
  6
CONTINUOUS
 10
268.1809208227
 20
347.5636032395
 11
268.3354083013
 21
348.3844152144
  0
LINE
  8
0
 62
7
  6
CONTINUOUS
 10
266.9309624959
 20
341.9254055855
 11
268.1809208227
 21
347.5636032395
  0
LINE
  8
0
 62
7
  6
CONTINUOUS
 10
278.762620754
 20
299.984773851
 11
277.2055385084
 21
296.0053604338
  0
LINE
  8
0
 62
7
  6
CONTINUOUS
 10
276.8174806303
 20
295.1898324448
 11
275.5280968609
 21
291.9055892451
  0
LINE
  8
0
 62
7
  6
CONTINUOUS
 10
277.9007079107
 20
296.2730597252
 11
279.1900908648
 21
299.5573037402
  0
LINE
  8
0
 62
7
  6
CONTINUOUS
 10
275.9555669717
 20
291.4781191343
 11
277.6330086193
 21
295.5778903229
  0
LINE
  8
0
 62
7
  6
CONTINUOUS
 10
273.5250509518
 20
303.2966062659
 11
273.3064650928
 21
302.7930406047
  0
LINE
  8
0
 62
7
  6
CONTINUOUS
 10
271.6463045184
 20
297.7131191435
 11
272.0834763208
 21
298.7202505501
  0
LINE
  8
0
 62
7
  6
CONTINUOUS
 10
276.5173417278
 20
300.3043154899
 11
276.0801700802
 21
299.2971834227
  0
LINE
  8
0
 62
7
  6
CONTINUOUS
 10
282.551643233
 20
287.5299321177
 11
282.2126982953
 21
286.9060081932
  0
LINE
  8
SURFACE
 62
7
  6
CONTINUOUS
 10
177.9650795968
 20
127.142764502
 11
174.862125811
 21
122.272102698
  0
LINE
  8
0
 62
7
  6
CONTINUOUS
 10
308.5779361749
 20
322.3919550481
 11
309.0347751383
 21
323.0911666332
  0
LINE
  8
0
 62
7
  6
CONTINUOUS
 10
282.8414734311
 20
287.9622534399
 11
282.551643233
 21
287.5299321177
  0
LINE
  8
0
 62
7
  6
CONTINUOUS
 10
287.5506179188
 20
287.8267355841
 11
287.840448454
 21
288.2590572435
  0
LINE
  8
0
 62
7
  6
CONTINUOUS
 10
305.2654804297
 20
317.6612779781
 11
308.5779361749
 21
322.3919550481
  0
LINE
  8
0
 62
7
  6
CONTINUOUS
 10
289.2044120691
 20
281.3585976284
 11
288.7942232844
 21
280.8059177195
  0
LINE
  8
0
 62
7
  6
CONTINUOUS
 10
291.7049604406
 20
283.4316758889
 11
291.2947716558
 21
282.8789959801
  0
LINE
  8
0
 62
7
  6
CONTINUOUS
 10
287.0200705473
 20
287.1536970886
 11
287.5506179188
 21
287.8267355841
  0
LINE
  8
0
 62
7
  6
CONTINUOUS
 10
292.7715136606
 20
278.5136475571
 11
292.2409662891
 21
277.8406090616
  0
LINE
  8
0
 62
7
  6
CONTINUOUS
 10
291.6537253588
 20
279.3907186855
 11
291.2926495987
 21
279.0296429254
  0
LINE
  8
0
 62
7
  6
CONTINUOUS
 10
291.5997611229
 20
278.4818142278
 11
292.2015540564
 21
279.0836071614
  0
LINE
  8
0
 62
7
  6
CONTINUOUS
 10
294.5768926298
 20
280.3190265263
 11
292.7715136606
 21
278.5136475571
  0
LINE
  8
0
 62
7
  6
CONTINUOUS
 10
293.1989837715
 20
278.0861774463
 11
295.0043627407
 21
279.8915564154
  0
LINE
  8
0
 62
7
  6
CONTINUOUS
 10
296.9992221708
 20
277.8966969852
 11
295.1938432017
 21
276.0913180161
  0
LINE
  8
0
 62
7
  6
CONTINUOUS
 10
295.6213133125
 20
275.6638479052
 11
297.4266922817
 21
277.4692268744
  0
LINE
  8
SURFACE
 62
7
  6
CONTINUOUS
 10
140.8779638251
 20
153.2737613736
 11
136.1472867551
 21
149.9613056283
  0
LINE
  8
0
 62
7
  6
CONTINUOUS
 10
336.2671391052
 20
283.6771159922
 11
336.9567799625
 21
284.148278562
  0
LINE
  8
0
 62
7
  6
CONTINUOUS
 10
331.3964773013
 20
280.5741622065
 11
336.2671391052
 21
283.6771159922
  0
LINE
  8
0
 62
7
  6
CONTINUOUS
 10
293.9411458563
 20
274.6961262853
 11
294.3243508925
 21
274.794355596
  0
LINE
  8
SURFACE
 62
7
  6
CONTINUOUS
 10
333.5985997453
 20
275.2577683361
 11
339.2367973994
 21
276.5077266629
  0
LINE
  8
0
 62
7
  6
CONTINUOUS
 10
103.1793364924
 20
229.5529782762
 11
102.3618853102
 21
229.3815949519
  0
LINE
  8
SURFACE
 62
7
  6
CONTINUOUS
 10
339.2367973994
 20
276.5077266629
 11
340.0576093742
 21
276.6622141415
  0
LINE
  8
0
 62
7
  6
CONTINUOUS
 10
108.8666902481
 20
230.5558121922
 11
103.1793364924
 21
229.5529782762
  0
LINE
  8
SURFACE
 62
7
  6
CONTINUOUS
 10
341.3457457151
 20
230.5558121922
 11
347.0330994707
 21
229.5529782762
  0
LINE
  8
0
 62
7
  6
CONTINUOUS
 10
153.1322689895
 20
270.383608779
 11
153.7423260379
 21
270.2715142229
  0
LINE
  8
0
 62
7
  6
CONTINUOUS
 10
110.9756385637
 20
276.5077266629
 11
110.1548265889
 21
276.6622141415
  0
LINE
  8
0
 62
7
  6
CONTINUOUS
 10
116.6138362178
 20
275.2577683361
 11
110.9756385637
 21
276.5077266629
  0
LINE
  8
0
 62
7
  6
CONTINUOUS
 10
164.7222939838
 20
282.6957854622
 11
164.1952303998
 21
282.8908733984
  0
LINE
  8
0
 62
7
  6
CONTINUOUS
 10
163.8176264645
 20
282.2725522897
 11
164.4650487195
 21
281.9571056825
  0
LINE
  8
0
 62
7
  6
CONTINUOUS
 10
168.3366543118
 20
286.5508629636
 11
167.8925841648
 21
286.8289443369
  0
LINE
  8
0
 62
7
  6
CONTINUOUS
 10
166.1784627203
 20
289.2070151775
 11
165.7343944729
 21
289.4850984503
  0
LINE
  8
0
 62
7
  6
CONTINUOUS
 10
167.4481609508
 20
291.9210171227
 11
167.0040927034
 21
292.1991003956
  0
LINE
  8
0
 62
7
  6
CONTINUOUS
 10
173.0173610151
 20
293.1573073913
 11
173.4614294311
 21
292.8792239499
  0
LINE
  8
0
 62
7
  6
CONTINUOUS
 10
173.8390333663
 20
293.4975450586
 11
173.3949649503
 21
293.7756285
  0
LINE
  8
0
 62
7
  6
CONTINUOUS
 10
170.6101889438
 20
295.5644794626
 11
171.0542575284
 21
295.2863958526
  0
LINE
  8
0
 62
7
  6
CONTINUOUS
 10
171.4318611265
 20
295.9047172984
 11
170.9877928791
 21
296.1828005713
  0
LINE
  8
SURFACE
 62
7
  6
CONTINUOUS
 10
331.3964773013
 20
186.291885437
 11
336.2671391052
 21
183.1889316512
  0
LINE
  8
0
 62
7
  6
CONTINUOUS
 10
136.1472867551
 20
316.9047420151
 11
135.4480751701
 21
317.3615809785
  0
LINE
  8
SURFACE
 62
7
  6
CONTINUOUS
 10
336.2671391052
 20
183.1889316512
 11
336.9567799625
 21
182.7177690815
  0
LINE
  8
0
 62
7
  6
CONTINUOUS
 10
140.8779638251
 20
313.5922862699
 11
136.1472867551
 21
316.9047420151
  0
LINE
  8
0
 62
7
  6
CONTINUOUS
 10
183.7321712736
 20
299.5392078541
 11
183.0100196691
 21
300.2613594586
  0
LINE
  8
0
 62
7
  6
CONTINUOUS
 10
178.917827131
 20
304.3535519967
 11
178.0753170241
 21
305.1960621036
  0
LINE
  8
0
 62
7
  6
CONTINUOUS
 10
179.5817784267
 20
305.0175032923
 11
180.5446474575
 21
304.0546342615
  0
LINE
  8
0
 62
7
  6
CONTINUOUS
 10
180.2000995354
 20
305.3951072276
 11
184.8940850912
 21
300.7011216717
  0
LINE
  8
0
 62
7
  6
CONTINUOUS
 10
185.3920476132
 20
301.1990841937
 11
179.7351933637
 21
306.8559384432
  0
LINE
  8
0
 62
7
  6
CONTINUOUS
 10
182.8063148311
 20
305.112715768
 11
183.648824938
 21
304.2702056611
  0
LINE
  8
0
 62
7
  6
CONTINUOUS
 10
183.4620020392
 20
305.2869686293
 11
183.2212848657
 21
305.5276858027
  0
LINE
  8
0
 62
7
  6
CONTINUOUS
 10
184.8689391488
 20
304.0460164942
 11
184.5078633887
 21
304.4070922543
  0
LINE
  8
0
 62
7
  6
CONTINUOUS
 10
186.5827059638
 20
306.4819348295
 11
186.9437817239
 21
306.1208590693
  0
LINE
  8
0
 62
7
  6
CONTINUOUS
 10
187.4791103453
 20
306.4154705173
 11
186.8773172432
 21
307.0172636194
  0
LINE
  8
SURFACE
 62
7
  6
CONTINUOUS
 10
305.2654804297
 20
149.2047696653
 11
308.5779361749
 21
144.4740925953
  0
LINE
  8
0
 62
7
  6
CONTINUOUS
 10
174.862125811
 20
344.5939449454
 11
174.3909632413
 21
345.2835858026
  0
LINE
  8
SURFACE
 62
7
  6
CONTINUOUS
 10
308.5779361749
 20
144.4740925953
 11
309.0347751383
 21
143.7748810103
  0
LINE
  8
0
 62
7
  6
CONTINUOUS
 10
177.9650795968
 20
339.7232831415
 11
174.862125811
 21
344.5939449454
  0
LINE
  8
SURFACE
 62
7
  6
CONTINUOUS
 10
266.9309624959
 20
124.9406420579
 11
268.1809208227
 21
119.3024444039
  0
LINE
  8
0
 62
7
  6
CONTINUOUS
 10
221.2261724361
 20
355.3599053109
 11
221.0547891117
 21
356.177356493
  0
LINE
  8
0
 62
7
  6
CONTINUOUS
 10
222.229006352
 20
349.6725515552
 11
221.2261724361
 21
355.3599053109
  0
LINE
  8
0
 62
7
  6
CONTINUOUS
 10
237.2985318922
 20
103.6725515552
 11
238.0499191307
 21
107.9338803401
  0
LINE
  8
SURFACE
 62
7
  6
CONTINUOUS
 10
286.0276301698
 20
348.6502717419
 11
285.0910815346
 21
344.4257738488
  0
LINE
  8
0
 62
7
  6
CONTINUOUS
 10
271.0984758208
 20
298.0202306676
 11
270.951135074
 21
297.4454198099
  0
LINE
  8
0
 62
7
  6
CONTINUOUS
 10
274.1441248038
 20
302.9182495874
 11
274.3405789408
 21
303.684664144
  0
LINE
  8
0
 62
7
  6
CONTINUOUS
 10
277.0651704253
 20
299.9972039658
 11
277.21251113
 21
300.5720147813
  0
LINE
  8
0
 62
7
  6
CONTINUOUS
 10
284.6392738339
 20
292.1823833838
 11
284.4206875672
 21
291.6788181303
  0
LINE
  8
0
 62
7
  6
CONTINUOUS
 10
282.7605269928
 20
286.5988966691
 11
283.1976996106
 21
287.6060272604
  0
LINE
  8
0
 62
7
  6
CONTINUOUS
 10
287.6315646099
 20
289.1900926078
 11
287.1943933699
 21
288.182960133
  0
LINE
  8
0
 62
7
  6
CONTINUOUS
 10
288.7942232844
 20
280.8059177195
 11
288.4061652798
 21
279.9903896041
  0
LINE
  8
0
 62
7
  6
CONTINUOUS
 10
287.840448454
 20
288.2590572435
 11
288.1793933074
 21
288.8829810837
  0
LINE
  8
0
 62
7
  6
CONTINUOUS
 10
292.2015540564
 20
279.0836071614
 11
292.5404974477
 21
279.7075328008
  0
LINE
  8
0
 62
7
  6
CONTINUOUS
 10
294.1369927414
 20
282.4439473029
 11
293.96752113
 21
282.1319845675
  0
LINE
  8
0
 62
7
  6
CONTINUOUS
 10
292.2409662891
 20
277.8406090616
 11
291.9020213514
 21
277.216685137
  0
LINE
  8
0
 62
7
  6
CONTINUOUS
 10
186.7132643453
 20
108.8841828299
 11
189.0381955617
 21
112.5335938281
  0
LINE
  8
0
 62
7
  6
CONTINUOUS
 10
289.3420519819
 20
280.4988061954
 11
289.63188218
 21
280.9311275175
  0
LINE
  8
0
 62
7
  6
CONTINUOUS
 10
291.96295894
 20
282.6922430426
 11
292.2527891381
 21
283.1245643648
  0
LINE
  8
0
 62
7
  6
CONTINUOUS
 10
294.3949912408
 20
281.7045144566
 11
294.6848214389
 21
282.1368357788
  0
LINE
  8
SURFACE
 62
7
  6
CONTINUOUS
 10
325.4819956957
 20
316.5662658468
 11
323.0000922267
 21
313.0217403545
  0
LINE
  8
0
 62
7
  6
CONTINUOUS
 10
292.7887949867
 20
277.5334975374
 11
293.1989837715
 21
278.0861774463
  0
LINE
  8
0
 62
7
  6
CONTINUOUS
 10
297.4094125863
 20
278.4493752634
 11
296.9992221708
 21
277.8966969852
  0
LINE
  8
0
 62
7
  6
CONTINUOUS
 10
297.4266922817
 20
277.4692268744
 11
297.957241621
 21
278.1422640765
  0
LINE
  8
0
 62
7
  6
CONTINUOUS
 10
141.9729759565
 20
133.0572461075
 11
145.5175014488
 21
135.5391495766
  0
LINE
  8
SURFACE
 62
7
  6
CONTINUOUS
 10
349.6550589734
 20
271.825977458
 11
346.0056479751
 21
269.5010462415
  0
LINE
  8
0
 62
7
  6
CONTINUOUS
 10
290.2094221919
 20
277.9464155186
 11
290.9758355677
 21
278.1428709208
  0
LINE
  8
0
 62
7
  6
CONTINUOUS
 10
296.640270267
 20
281.3849728177
 11
295.8738553027
 21
281.1885190884
  0
LINE
  8
0
 62
7
  6
CONTINUOUS
 10
293.505488367
 20
284.5197547177
 11
292.7390750334
 21
284.3232993577
  0
LINE
  8
0
 62
7
  6
CONTINUOUS
 10
283.6327484984
 20
284.7638063855
 11
284.2075593561
 21
284.9111471323
  0
LINE
  8
0
 62
7
  6
CONTINUOUS
 10
340.3234659018
 20
294.35443601
 11
336.0989680086
 21
293.4178873747
  0
LINE
  8
SURFACE
 62
7
  6
CONTINUOUS
 10
95.3457457151
 20
245.6253377324
 11
99.6070745
 21
246.3767249708
  0
LINE
  8
0
 62
7
  6
CONTINUOUS
 10
153.7423260379
 20
270.2715142229
 11
154.2320245335
 21
270.2797783085
  0
LINE
  8
0
 62
7
  6
CONTINUOUS
 10
354.8666902481
 20
245.6253377324
 11
350.6053614631
 21
246.3767249708
  0
LINE
  8
0
 62
7
  6
CONTINUOUS
 10
155.5387347098
 20
277.6044184734
 11
155.9454392323
 21
277.529688649
  0
LINE
  8
0
 62
7
  6
CONTINUOUS
 10
155.9163386451
 20
278.222739582
 11
155.5096341227
 21
278.2974694064
  0
LINE
  8
0
 62
7
  6
CONTINUOUS
 10
164.4650487195
 20
281.9571056825
 11
165.2784578066
 21
281.8076459916
  0
LINE
  8
SURFACE
 62
7
  6
CONTINUOUS
 10
109.8889700613
 20
294.35443601
 11
114.1134679545
 21
293.4178873747
  0
LINE
  8
0
 62
7
  6
CONTINUOUS
 10
167.0040927034
 20
292.1991003956
 11
166.2736770956
 21
292.4315534814
  0
LINE
  8
0
 62
7
  6
CONTINUOUS
 10
169.1996477135
 20
289.3395940898
 11
169.7267105163
 21
289.1445050352
  0
LINE
  8
0
 62
7
  6
CONTINUOUS
 10
167.9590503766
 20
285.9325418549
 11
168.8098246975
 21
285.579730056
  0
LINE
  8
0
 62
7
  6
CONTINUOUS
 10
170.1043144516
 20
289.7628261439
 11
169.4568930621
 21
290.0782737851
  0
LINE
  8
0
 62
7
  6
CONTINUOUS
 10
166.6264887681
 20
291.5807792869
 11
166.9501984288
 21
291.4230546008
  0
LINE
  8
0
 62
7
  6
CONTINUOUS
 10
185.3130073962
 20
303.7679332214
 11
184.8689391488
 21
304.0460164942
  0
LINE
  8
0
 62
7
  6
CONTINUOUS
 10
349.6550589734
 20
195.0400701855
 11
346.0056479751
 21
197.3650014019
  0
LINE
  8
SURFACE
 62
7
  6
CONTINUOUS
 10
141.9729759565
 20
333.8088015359
 11
145.5175014488
 21
331.3268980668
  0
LINE
  8
0
 62
7
  6
CONTINUOUS
 10
183.648824938
 20
304.2702056611
 11
184.5743277008
 21
303.5106878728
  0
LINE
  8
0
 62
7
  6
CONTINUOUS
 10
325.4819956957
 20
150.2997817967
 11
323.0000922267
 21
153.844307289
  0
LINE
  8
SURFACE
 62
7
  6
CONTINUOUS
 10
186.7132643453
 20
357.9818648135
 11
189.0381955617
 21
354.3324538153
  0
LINE
  8
0
 62
7
  6
CONTINUOUS
 10
286.0276301698
 20
118.2157759015
 11
285.0910815346
 21
122.4402737946
  0
LINE
  8
SURFACE
 62
7
  6
CONTINUOUS
 10
237.2985318922
 20
363.1934960882
 11
238.0499191307
 21
358.9321673033
  0
LINE
  8
0
 62
7
  6
CONTINUOUS
 10
270.951135074
 20
297.4454198099
 11
270.9462846464
 21
296.7281186541
  0
LINE
  8
0
 62
7
  6
CONTINUOUS
 10
271.6193224004
 20
297.2586669147
 11
271.6463045184
 21
297.7131191435
  0
LINE
  8
0
 62
7
  6
CONTINUOUS
 10
273.5520330698
 20
303.7510584947
 11
273.5250509518
 21
303.2966062659
  0
LINE
  8
0
 62
7
  6
CONTINUOUS
 10
276.5443238458
 20
300.7587677188
 11
276.5173417278
 21
300.3043154899
  0
LINE
  8
0
 62
7
  6
CONTINUOUS
 10
282.2126982953
 20
286.9060081932
 11
282.0653575484
 21
286.3311973355
  0
LINE
  8
0
 62
7
  6
CONTINUOUS
 10
285.2583480935
 20
291.8040262976
 11
285.4548018229
 21
292.5704412619
  0
LINE
  8
0
 62
7
  6
CONTINUOUS
 10
288.1793933074
 20
288.8829810837
 11
288.3267340121
 21
289.4577918992
  0
LINE
  8
0
 62
7
  6
CONTINUOUS
 10
289.1947111929
 20
279.9239952955
 11
289.3420519819
 21
280.4988061954
  0
LINE
  8
0
 62
7
  6
CONTINUOUS
 10
294.6848214389
 20
282.1368357788
 11
294.9525207303
 21
282.832005181
  0
LINE
  8
0
 62
7
  6
CONTINUOUS
 10
291.8723101635
 20
279.8942857383
 11
291.6537253588
 21
279.3907186855
  0
LINE
  8
0
 62
7
  6
CONTINUOUS
 10
292.57020872
 20
277.0299322839
 11
292.7887949867
 21
277.5334975374
  0
LINE
  8
0
 62
7
  6
CONTINUOUS
 10
297.6279975595
 20
278.9529424848
 11
297.4094125863
 21
278.4493752634
  0
LINE
  8
0
 62
7
  6
CONTINUOUS
 10
297.957241621
 20
278.1422640765
 11
298.2961848438
 21
278.7661895473
  0
LINE
  8
0
 62
7
  6
CONTINUOUS
 10
286.7593430621
 20
291.0251828492
 11
286.1845322466
 21
290.8778421445
  0
LINE
  8
0
 62
7
  6
CONTINUOUS
 10
283.6736766328
 20
294.351566452
 11
282.9072616685
 21
294.1551127226
  0
LINE
  8
0
 62
7
  6
CONTINUOUS
 10
272.5185256163
 20
295.8780292676
 11
273.093336474
 21
296.0253700144
  0
LINE
  8
0
 62
7
  6
CONTINUOUS
 10
283.5560462164
 20
291.0991557662
 11
278.5522210504
 21
290.0850510913
  0
LINE
  8
0
 62
7
  6
CONTINUOUS
 10
279.1221806546
 20
289.515091487
 11
283.5511950051
 21
290.3818554573
  0
LINE
  8
0
 62
7
  6
CONTINUOUS
 10
154.2029237367
 20
270.9728290951
 11
153.6302315263
 21
270.8815713158
  0
LINE
  8
0
 62
7
  6
CONTINUOUS
 10
290.7890827145
 20
278.8110582893
 11
290.3346304014
 21
278.7840760871
  0
LINE
  8
0
 62
7
  6
CONTINUOUS
 10
296.0606082402
 20
280.5203318041
 11
296.515060469
 21
280.5473139221
  0
LINE
  8
0
 62
7
  6
CONTINUOUS
 10
292.9258279708
 20
283.6551120735
 11
293.3802801997
 21
283.6820941914
  0
LINE
  8
0
 62
7
  6
CONTINUOUS
 10
283.900447832
 20
285.4589758299
 11
283.4459956031
 21
285.4319937119
  0
LINE
  8
0
 62
7
  6
CONTINUOUS
 10
155.5096341227
 20
278.2974694064
 11
155.0199356883
 21
278.2892053189
  0
LINE
  8
0
 62
7
  6
CONTINUOUS
 10
165.2119925025
 20
282.7040494655
 11
164.7222939838
 21
282.6957854622
  0
LINE
  8
0
 62
7
  6
CONTINUOUS
 10
282.9154481579
 20
284.7589551426
 11
283.6327484984
 21
284.7638063855
  0
LINE
  8
0
 62
7
  6
CONTINUOUS
 10
289.6837243695
 20
277.990678931
 11
290.2094221919
 21
277.9464155186
  0
LINE
  8
0
 62
7
  6
CONTINUOUS
 10
168.9467104674
 20
286.4387674304
 11
168.3366543118
 21
286.5508629636
  0
LINE
  8
0
 62
7
  6
CONTINUOUS
 10
163.3979955131
 20
288.8337203788
 11
162.5845864683
 21
288.9831800275
  0
LINE
  8
0
 62
7
  6
CONTINUOUS
 10
165.9212183215
 20
288.4683364319
 11
166.7346273664
 21
288.3188767831
  0
LINE
  8
0
 62
7
  6
CONTINUOUS
 10
169.4568930621
 20
290.0782737851
 11
168.6434830674
 21
290.2277324841
  0
LINE
  8
0
 62
7
  6
CONTINUOUS
 10
166.219782821
 20
291.6555076866
 11
166.6264887681
 21
291.5807792869
  0
LINE
  8
0
 62
7
  6
CONTINUOUS
 10
172.610655068
 20
293.232035791
 11
173.0173610151
 21
293.1573073913
  0
LINE
  8
0
 62
7
  6
CONTINUOUS
 10
173.3949649503
 20
293.7756285
 11
172.6645493425
 21
294.0080815858
  0
LINE
  8
0
 62
7
  6
CONTINUOUS
 10
170.9877928791
 20
296.1828005713
 11
170.2573772713
 21
296.4152536571
  0
LINE
  8
0
 62
7
  6
CONTINUOUS
 10
184.5743277008
 20
303.5106878728
 11
185.3421094923
 21
303.0748836287
  0
LINE
  8
0
 62
7
  6
CONTINUOUS
 10
186.8773172432
 20
307.0172636194
 11
186.1095355359
 21
307.4530677793
  0
LINE
  8
0
 62
7
  6
CONTINUOUS
 10
186.1386375478
 20
306.7600182709
 11
186.5827059638
 21
306.4819348295
  0
LINE
  8
0
 62
7
  6
CONTINUOUS
 10
184.5448735716
 20
309.0177297436
 11
184.1008053242
 21
309.2958130164
  0
LINE
  8
0
 62
7
  6
CONTINUOUS
 10
274.3405789408
 20
303.684664144
 11
274.2963161082
 21
304.2103613233
  0
LINE
  8
0
 62
7
  6
CONTINUOUS
 10
277.21251113
 20
300.5720147813
 11
277.2173619337
 21
301.2893154979
  0
LINE
  8
0
 62
7
  6
CONTINUOUS
 10
282.0653575484
 20
286.3311973355
 11
282.0605079362
 21
285.6138953643
  0
LINE
  8
0
 62
7
  6
CONTINUOUS
 10
288.3267340121
 20
289.4577918992
 11
288.3315852234
 21
290.1750922081
  0
LINE
  8
0
 62
7
  6
CONTINUOUS
 10
288.4061652798
 20
279.9903896041
 11
288.4013140369
 21
279.2730892636
  0
LINE
  8
0
 62
7
  6
CONTINUOUS
 10
282.7335448748
 20
286.1444444402
 11
282.7605269928
 21
286.5988966691
  0
LINE
  8
0
 62
7
  6
CONTINUOUS
 10
284.6662559519
 20
292.6368356126
 11
284.6392738339
 21
292.1823833838
  0
LINE
  8
0
 62
7
  6
CONTINUOUS
 10
287.6585467279
 20
289.6445448367
 11
287.6315646099
 21
289.1900926078
  0
LINE
  8
0
 62
7
  6
CONTINUOUS
 10
291.2947716558
 20
282.8789959801
 11
291.0983162957
 21
282.1125826465
  0
LINE
  8
0
 62
7
  6
CONTINUOUS
 10
292.5404974477
 20
279.7075328008
 11
292.7369528078
 21
280.4739461344
  0
LINE
  8
0
 62
7
  6
CONTINUOUS
 10
291.9020213514
 20
277.216685137
 11
291.7055675799
 21
276.4502701306
  0
LINE
  8
0
 62
7
  6
CONTINUOUS
 10
294.2352204214
 20
282.8271539697
 11
294.1369927414
 21
282.4439473029
  0
LINE
  8
0
 62
7
  6
CONTINUOUS
 10
293.3663349776
 20
274.5487855174
 11
293.2681056458
 21
274.1655804602
  0
LINE
  8
0
 62
7
  6
CONTINUOUS
 10
293.8574702638
 20
276.4648222603
 11
293.6119017948
 21
275.5068046936
  0
LINE
  8
0
 62
7
  6
CONTINUOUS
 10
293.6955757567
 20
273.7381103494
 11
293.9411458563
 21
274.6961262853
  0
LINE
  8
0
 62
7
  6
CONTINUOUS
 10
294.1375980393
 20
275.4625429646
 11
294.284938744
 21
276.0373537801
  0
LINE
  8
0
 62
7
  6
CONTINUOUS
 10
298.2961848438
 20
278.7661895473
 11
298.4926402038
 21
279.5326028809
  0
LINE
  8
0
 62
7
  6
CONTINUOUS
 10
229.238522664
 20
152.7125147618
 11
250.4517260996
 21
173.9257181974
  0
LINE
  8
0
 62
7
  6
CONTINUOUS
 10
284.6135236059
 20
208.0875157037
 11
305.8267270415
 21
229.3007191393
  0
LINE
  8
0
 62
7
  6
CONTINUOUS
 10
254.9351881754
 20
174.8736463672
 11
283.6655954361
 21
203.6040536279
  0
LINE
  8
0
 62
7
  6
CONTINUOUS
 10
275.6451205877
 20
302.1394053237
 11
275.0703097722
 21
301.992064619
  0
LINE
  8
0
 62
7
  6
CONTINUOUS
 10
272.5594535469
 20
305.4657895379
 11
271.7930390922
 21
305.269335299
  0
LINE
  8
0
 62
7
  6
CONTINUOUS
 10
272.4418233343
 20
302.2133786483
 11
267.4379978625
 21
301.1992742791
  0
LINE
  8
0
 62
7
  6
CONTINUOUS
 10
268.0079579764
 20
300.6293141653
 11
272.4369725307
 21
301.4960779317
  0
LINE
  8
0
 62
7
  6
CONTINUOUS
 10
155.2523887741
 20
277.5587897111
 11
155.5387347098
 21
277.6044184734
  0
LINE
  8
0
 62
7
  6
CONTINUOUS
 10
165.2784578066
 20
281.8076459916
 11
165.8511497096
 21
281.8989034846
  0
LINE
  8
0
 62
7
  6
CONTINUOUS
 10
166.7346273664
 20
288.3188767831
 11
167.3073201877
 21
288.4101352576
  0
LINE
  8
0
 62
7
  6
CONTINUOUS
 10
168.8098246975
 20
285.579730056
 11
169.5858695741
 21
285.6336233491
  0
LINE
  8
0
 62
7
  6
CONTINUOUS
 10
286.4916437707
 20
290.330013447
 11
286.9460959996
 21
290.356995565
  0
LINE
  8
0
 62
7
  6
CONTINUOUS
 10
283.2143731927
 20
293.607284025
 11
283.6688254215
 21
293.634266143
  0
LINE
  8
0
 62
7
  6
CONTINUOUS
 10
272.7862249499
 20
296.573198712
 11
272.331772721
 21
296.546216594
  0
LINE
  8
0
 62
7
  6
CONTINUOUS
 10
162.6510517302
 20
288.0867765958
 11
163.1407501646
 21
288.0950406834
  0
LINE
  8
0
 62
7
  6
CONTINUOUS
 10
166.6681611547
 20
289.2152792651
 11
166.1784627203
 21
289.2070151775
  0
LINE
  8
0
 62
7
  6
CONTINUOUS
 10
168.7099492791
 20
289.3313300022
 11
169.1996477135
 21
289.3395940898
  0
LINE
  8
0
 62
7
  6
CONTINUOUS
 10
287.4766450017
 20
291.0300324298
 11
286.7593430621
 21
291.0251828492
  0
LINE
  8
0
 62
7
  6
CONTINUOUS
 10
271.8012248681
 20
295.8731784324
 11
272.5185256163
 21
295.8780292676
  0
LINE
  8
0
 62
7
  6
CONTINUOUS
 10
166.2736770956
 20
292.4315534814
 11
165.5806256876
 21
292.4606535937
  0
LINE
  8
0
 62
7
  6
CONTINUOUS
 10
170.2573772713
 20
296.4152536571
 11
169.5643258633
 21
296.4443537694
  0
LINE
  8
0
 62
7
  6
CONTINUOUS
 10
297.1659664272
 20
281.3407110044
 11
296.640270267
 21
281.3849728177
  0
LINE
  8
0
 62
7
  6
CONTINUOUS
 10
294.0311861579
 20
284.4754912737
 11
293.505488367
 21
284.5197547177
  0
LINE
  8
0
 62
7
  6
CONTINUOUS
 10
170.2034829967
 20
295.6392078623
 11
170.6101889438
 21
295.5644794626
  0
LINE
  8
0
 62
7
  6
CONTINUOUS
 10
293.0322413249
 20
274.6421619756
 11
293.3663349776
 21
274.5487855174
  0
LINE
  8
0
 62
7
  6
CONTINUOUS
 10
293.6119017948
 20
275.5068046936
 11
293.2778081527
 21
275.6001811624
  0
LINE
  8
0
 62
7
  6
CONTINUOUS
 10
185.3421094923
 20
303.0748836287
 11
186.0725251423
 21
302.8424305007
  0
LINE
  8
0
 62
7
  6
CONTINUOUS
 10
184.1008053242
 20
309.2958130164
 11
183.3703897164
 21
309.5282661023
  0
LINE
  8
0
 62
7
  6
CONTINUOUS
 10
185.8400720143
 20
303.5728461507
 11
185.3130073962
 21
303.7679332214
  0
LINE
  8
0
 62
7
  6
CONTINUOUS
 10
183.6028428022
 20
308.7978504945
 11
184.1299073361
 21
308.6027635081
  0
LINE
  8
0
 62
7
  6
CONTINUOUS
 10
305.8267270415
 20
237.5653285042
 11
284.6135236059
 21
258.7785319398
  0
LINE
  8
0
 62
7
  6
CONTINUOUS
 10
250.4517260996
 20
292.940329446
 11
229.238522664
 21
314.1535328816
  0
LINE
  8
0
 62
7
  6
CONTINUOUS
 10
283.6655954361
 20
263.2619940155
 11
254.9351881754
 21
291.9924012762
  0
LINE
  8
0
 62
7
  6
CONTINUOUS
 10
285.4548018229
 20
292.5704412619
 11
285.4105383788
 21
293.0961390527
  0
LINE
  8
0
 62
7
  6
CONTINUOUS
 10
291.0983162957
 20
282.1125826465
 11
291.1425797398
 21
281.5868848556
  0
LINE
  8
0
 62
7
  6
CONTINUOUS
 10
291.7055675799
 20
276.4502701306
 11
291.7498293617
 21
275.9245739388
  0
LINE
  8
0
 62
7
  6
CONTINUOUS
 10
292.7369528078
 20
280.4739461344
 11
292.6926893637
 21
280.9996439253
  0
LINE
  8
0
 62
7
  6
CONTINUOUS
 10
291.935976822
 20
282.2377908138
 11
291.96295894
 21
282.6922430426
  0
LINE
  8
0
 62
7
  6
CONTINUOUS
 10
291.8992922815
 20
280.3487379671
 11
291.8723101635
 21
279.8942857383
  0
LINE
  8
0
 62
7
  6
CONTINUOUS
 10
292.5432265177
 20
276.5754799708
 11
292.57020872
 21
277.0299322839
  0
LINE
  8
0
 62
7
  6
CONTINUOUS
 10
297.6549796775
 20
279.4073947136
 11
297.6279975595
 21
278.9529424848
  0
LINE
  8
0
 62
7
  6
CONTINUOUS
 10
294.9525207303
 20
282.832005181
 11
295.028615873
 21
283.4780615586
  0
LINE
  8
0
 62
7
  6
CONTINUOUS
 10
236.4199264805
 20
142.2162490487
 11
316.3229927546
 21
222.1193153227
  0
LINE
  8
0
 62
7
  6
CONTINUOUS
 10
162.5845864683
 20
288.9831800275
 11
162.0118945968
 21
288.8919225029
  0
LINE
  8
0
 62
7
  6
CONTINUOUS
 10
168.6434830674
 20
290.2277324841
 11
168.0707921457
 21
290.1364759093
  0
LINE
  8
0
 62
7
  6
CONTINUOUS
 10
172.6645493425
 20
294.0080815858
 11
172.3782019821
 21
293.9624513988
  0
LINE
  8
0
 62
7
  6
CONTINUOUS
 10
186.0725251423
 20
302.8424305007
 11
186.8485709687
 21
302.8963247437
  0
LINE
  8
0
 62
7
  6
CONTINUOUS
 10
275.3774212963
 20
301.4442359214
 11
275.8318735251
 21
301.4712180394
  0
LINE
  8
0
 62
7
  6
CONTINUOUS
 10
272.1001505144
 20
304.7215067033
 11
272.5546027432
 21
304.7484888213
  0
LINE
  8
0
 62
7
  6
CONTINUOUS
 10
186.3297704487
 20
303.5811102382
 11
185.8400720143
 21
303.5728461507
  0
LINE
  8
0
 62
7
  6
CONTINUOUS
 10
185.2422331663
 20
306.826482583
 11
185.7319316007
 21
306.8347466706
  0
LINE
  8
0
 62
7
  6
CONTINUOUS
 10
276.362421712
 20
302.1442557196
 11
275.6451205877
 21
302.1394053237
  0
LINE
  8
0
 62
7
  6
CONTINUOUS
 10
284.1993736083
 20
294.3073038233
 11
283.6736766328
 21
294.351566452
  0
LINE
  8
0
 62
7
  6
CONTINUOUS
 10
273.0851507262
 20
305.4215267054
 11
272.5594535469
 21
305.4657895379
  0
LINE
  8
0
 62
7
  6
CONTINUOUS
 10
185.7319316007
 20
306.8347466706
 11
186.1386375478
 21
306.7600182709
  0
LINE
  8
0
 62
7
  6
CONTINUOUS
 10
186.1095355359
 20
307.4530677793
 11
185.4994785148
 21
307.5651622784
  0
LINE
  8
0
 62
7
  6
CONTINUOUS
 10
293.3802801997
 20
283.6820941914
 11
293.7143738418
 21
283.5887177227
  0
LINE
  8
0
 62
7
  6
CONTINUOUS
 10
290.3346304014
 20
278.7840760871
 11
289.9292928279
 21
278.9486964871
  0
LINE
  8
0
 62
7
  6
CONTINUOUS
 10
296.515060469
 20
280.5473139221
 11
296.9203996732
 21
280.3826918913
  0
LINE
  8
0
 62
7
  6
CONTINUOUS
 10
294.436525362
 20
284.310869243
 11
294.0311861579
 21
284.4754912737
  0
LINE
  8
0
 62
7
  6
CONTINUOUS
 10
292.5556565482
 20
274.8780295578
 11
293.0322413249
 21
274.6421619756
  0
LINE
  8
0
 62
7
  6
CONTINUOUS
 10
289.2071412234
 20
278.2265448826
 11
289.6837243695
 21
277.990678931
  0
LINE
  8
0
 62
7
  6
CONTINUOUS
 10
283.4459956031
 20
285.4319937119
 11
282.9694124676
 21
285.667859674
  0
LINE
  8
0
 62
7
  6
CONTINUOUS
 10
297.6425511934
 20
281.1048434116
 11
297.1659664272
 21
281.3407110044
  0
LINE
  8
0
 62
7
  6
CONTINUOUS
 10
282.3676194498
 20
285.0660666562
 11
282.9154481579
 21
284.7589551426
  0
LINE
  8
0
 62
7
  6
CONTINUOUS
 10
316.3229927546
 20
244.7467323207
 11
236.4199264805
 21
324.6497985948
  0
LINE
  8
0
 62
7
  6
CONTINUOUS
 10
270.9462846464
 20
296.7281186541
 11
271.25339616
 21
296.180289946
  0
LINE
  8
0
 62
7
  6
CONTINUOUS
 10
282.0605079362
 20
285.6138953643
 11
282.3676194498
 21
285.0660666562
  0
LINE
  8
0
 62
7
  6
CONTINUOUS
 10
271.8551891778
 20
296.7820829638
 11
271.6193224004
 21
297.2586669147
  0
LINE
  8
0
 62
7
  6
CONTINUOUS
 10
273.3161664962
 20
304.2276422417
 11
273.5520330698
 21
303.7510584947
  0
LINE
  8
0
 62
7
  6
CONTINUOUS
 10
282.9694124676
 20
285.667859674
 11
282.7335448748
 21
286.1444444402
  0
LINE
  8
0
 62
7
  6
CONTINUOUS
 10
298.4926402038
 20
279.5326028809
 11
298.4483783904
 21
280.0582990411
  0
LINE
  8
0
 62
7
  6
CONTINUOUS
 10
185.4994785148
 20
307.5651622784
 11
184.7234365192
 21
307.511271803
  0
LINE
  8
0
 62
7
  6
CONTINUOUS
 10
183.3703897164
 20
309.5282661023
 11
182.5943439216
 21
309.4743718277
  0
LINE
  8
0
 62
7
  6
CONTINUOUS
 10
183.1131443679
 20
308.7895864069
 11
183.6028428022
 21
308.7978504945
  0
LINE
  8
0
 62
7
  6
CONTINUOUS
 10
272.331772721
 20
296.546216594
 11
271.8551891778
 21
296.7820829638
  0
LINE
  8
0
 62
7
  6
CONTINUOUS
 10
286.9460959996
 20
290.356995565
 11
287.4226807658
 21
290.1211279722
  0
LINE
  8
0
 62
7
  6
CONTINUOUS
 10
283.6688254215
 20
293.634266143
 11
284.1454093724
 21
293.3983993656
  0
LINE
  8
0
 62
7
  6
CONTINUOUS
 10
275.8318735251
 20
301.4712180394
 11
276.308457476
 21
301.2353512619
  0
LINE
  8
0
 62
7
  6
CONTINUOUS
 10
272.5546027432
 20
304.7484888213
 11
273.0311864903
 21
304.5126222477
  0
LINE
  8
0
 62
7
  6
CONTINUOUS
 10
271.25339616
 20
296.180289946
 11
271.8012248681
 21
295.8731784324
  0
LINE
  8
0
 62
7
  6
CONTINUOUS
 10
288.0244736993
 20
290.7229209057
 11
287.4766450017
 21
291.0300324298
  0
LINE
  8
0
 62
7
  6
CONTINUOUS
 10
276.9102504095
 20
301.8371441955
 11
276.362421712
 21
302.1442557196
  0
LINE
  8
0
 62
7
  6
CONTINUOUS
 10
284.8184478679
 20
293.9289467371
 11
284.1993736083
 21
294.3073038233
  0
LINE
  8
0
 62
7
  6
CONTINUOUS
 10
273.7042243743
 20
305.0431702307
 11
273.0851507262
 21
305.4215267054
  0
LINE
  8
0
 62
7
  6
CONTINUOUS
 10
265.83877462
 20
301.594911486
 11
266.2662447309
 21
301.1674413751
  0
LINE
  8
0
 62
7
  6
CONTINUOUS
 10
266.8362048447
 20
300.5974812613
 11
269.4010254079
 21
298.0326606981
  0
LINE
  8
0
 62
7
  6
CONTINUOUS
 10
273.1057665045
 20
294.3279196015
 11
273.5332366153
 21
293.9004494907
  0
LINE
  8
0
 62
7
  6
CONTINUOUS
 10
275.5280968609
 20
291.9055892451
 11
275.9555669717
 21
291.4781191343
  0
LINE
  8
0
 62
7
  6
CONTINUOUS
 10
276.9529975021
 20
290.4806886039
 11
277.380467613
 21
290.053218493
  0
LINE
  8
0
 62
7
  6
CONTINUOUS
 10
277.9504280326
 20
289.4832580734
 11
280.5152478823
 21
286.9184382237
  0
LINE
  8
0
 62
7
  6
CONTINUOUS
 10
288.6371799885
 20
278.7965061175
 11
289.2071412234
 21
278.2265448826
  0
LINE
  8
0
 62
7
  6
CONTINUOUS
 10
291.9856969439
 20
275.4479891621
 11
292.5556565482
 21
274.8780295578
  0
LINE
  8
0
 62
7
  6
CONTINUOUS
 10
293.2681056458
 20
274.1655804602
 11
293.6955757567
 21
273.7381103494
  0
LINE
  8
0
 62
7
  6
CONTINUOUS
 10
281.1170409002
 20
287.5202312415
 11
279.1221806546
 21
289.515091487
  0
LINE
  8
0
 62
7
  6
CONTINUOUS
 10
270.0028184257
 20
298.6344537159
 11
268.0079579764
 21
300.6293141653
  0
LINE
  8
0
 62
7
  6
CONTINUOUS
 10
293.2778081527
 20
275.6001811624
 11
292.7078485484
 21
276.1701407666
  0
LINE
  8
0
 62
7
  6
CONTINUOUS
 10
289.9292928279
 20
278.9486964871
 11
289.359331593
 21
279.518657722
  0
LINE
  8
0
 62
7
  6
CONTINUOUS
 10
294.284938744
 20
276.0373537801
 11
293.8574702638
 21
276.4648222603
  0
LINE
  8
0
 62
7
  6
CONTINUOUS
 10
289.63188218
 20
280.9311275175
 11
289.2044120691
 21
281.3585976284
  0
LINE
  8
0
 62
7
  6
CONTINUOUS
 10
291.3072017705
 20
281.1815456514
 11
291.7346718814
 21
280.7540755406
  0
LINE
  8
0
 62
7
  6
CONTINUOUS
 10
292.4568234016
 20
281.4762270608
 11
292.0293532908
 21
281.9036971717
  0
LINE
  8
0
 62
7
  6
CONTINUOUS
 10
271.2403596929
 20
304.8591460046
 11
271.5965848532
 21
304.5029208443
  0
LINE
  8
0
 62
7
  6
CONTINUOUS
 10
282.354582575
 20
293.7449231225
 11
282.7108079392
 21
293.3886977583
  0
LINE
  8
0
 62
7
  6
CONTINUOUS
 10
293.96752113
 20
282.1319845675
 11
294.3949912408
 21
281.7045144566
  0
LINE
  8
0
 62
7
  6
CONTINUOUS
 10
293.7143738418
 20
283.5887177227
 11
294.1418439527
 21
283.1612476119
  0
LINE
  8
0
 62
7
  6
CONTINUOUS
 10
296.9203996732
 20
280.3826918913
 11
297.4903592774
 21
279.8127322871
  0
LINE
  8
0
 62
7
  6
CONTINUOUS
 10
273.0311864903
 20
304.5126222477
 11
273.3161664962
 21
304.2276422417
  0
LINE
  8
0
 62
7
  6
CONTINUOUS
 10
284.1454093724
 20
293.3983993656
 11
284.4303899898
 21
293.1134187481
  0
LINE
  8
0
 62
7
  6
CONTINUOUS
 10
298.2125107977
 20
280.5348838073
 11
297.6425511934
 21
281.1048434116
  0
LINE
  8
0
 62
7
  6
CONTINUOUS
 10
294.7927499109
 20
283.9546446941
 11
294.436525362
 21
284.310869243
  0
LINE
  8
0
 62
7
  6
CONTINUOUS
 10
285.1034268547
 20
293.6439677503
 11
284.8184478679
 21
293.9289467371
  0
LINE
  8
0
 62
7
  6
CONTINUOUS
 10
283.0373218625
 20
295.7100727425
 11
282.6098517516
 21
296.1375428534
  0
LINE
  8
0
 62
7
  6
CONTINUOUS
 10
281.6124212212
 20
297.1349733838
 11
281.1849511104
 21
297.5624434946
  0
LINE
  8
0
 62
7
  6
CONTINUOUS
 10
279.1900908648
 20
299.5573037402
 11
278.762620754
 21
299.984773851
  0
LINE
  8
0
 62
7
  6
CONTINUOUS
 10
273.9892045841
 20
304.7581900209
 11
273.7042243743
 21
305.0431702307
  0
LINE
  8
0
 62
7
  6
CONTINUOUS
 10
271.9230989804
 20
306.8242956246
 11
271.4956288695
 21
307.2517657355
  0
LINE
  8
0
 62
7
  6
CONTINUOUS
 10
274.2963161082
 20
304.2103613233
 11
273.9892045841
 21
304.7581900209
  0
LINE
  8
0
 62
7
  6
CONTINUOUS
 10
277.2173619337
 20
301.2893154979
 11
276.9102504095
 21
301.8371441955
  0
LINE
  8
0
 62
7
  6
CONTINUOUS
 10
285.4105383788
 20
293.0961390527
 11
285.1034268547
 21
293.6439677503
  0
LINE
  8
0
 62
7
  6
CONTINUOUS
 10
288.3315852234
 20
290.1750922081
 11
288.0244736993
 21
290.7229209057
  0
LINE
  8
0
 62
7
  6
CONTINUOUS
 10
276.308457476
 20
301.2353512619
 11
276.5443238458
 21
300.7587677188
  0
LINE
  8
0
 62
7
  6
CONTINUOUS
 10
288.4013140369
 20
279.2730892636
 11
288.6371799885
 21
278.7965061175
  0
LINE
  8
0
 62
7
  6
CONTINUOUS
 10
291.7498293617
 20
275.9245739388
 11
291.9856969439
 21
275.4479891621
  0
LINE
  8
0
 62
7
  6
CONTINUOUS
 10
284.4303899898
 20
293.1134187481
 11
284.6662559519
 21
292.6368356126
  0
LINE
  8
0
 62
7
  6
CONTINUOUS
 10
287.4226807658
 20
290.1211279722
 11
287.6585467279
 21
289.6445448367
  0
LINE
  8
0
 62
7
  6
CONTINUOUS
 10
292.6926893637
 20
280.9996439253
 11
292.4568234016
 21
281.4762270608
  0
LINE
  8
0
 62
7
  6
CONTINUOUS
 10
295.028615873
 20
283.4780615586
 11
294.7927499109
 21
283.9546446941
  0
LINE
  8
0
 62
7
  6
CONTINUOUS
 10
298.4483783904
 20
280.0582990411
 11
298.2125107977
 21
280.5348838073
  0
LINE
  8
0
 62
7
  6
CONTINUOUS
 10
289.359331593
 20
279.518657722
 11
289.1947111929
 21
279.9239952955
  0
LINE
  8
0
 62
7
  6
CONTINUOUS
 10
292.7078485484
 20
276.1701407666
 11
292.5432265177
 21
276.5754799708
  0
LINE
  8
0
 62
7
  6
CONTINUOUS
 10
291.1425797398
 20
281.5868848556
 11
291.3072017705
 21
281.1815456514
  0
LINE
  8
0
 62
7
  6
CONTINUOUS
 10
291.7346718814
 20
280.7540755406
 11
291.8992922815
 21
280.3487379671
  0
LINE
  8
0
 62
7
  6
CONTINUOUS
 10
297.4903592774
 20
279.8127322871
 11
297.6549796775
 21
279.4073947136
  0
LINE
  8
0
 62
7
  6
CONTINUOUS
 10
292.0293532908
 20
281.9036971717
 11
291.935976822
 21
282.2377908138
  0
LINE
  8
0
 62
7
  6
CONTINUOUS
 10
294.1418439527
 20
283.1612476119
 11
294.2352204214
 21
282.8271539697
  0
LINE
  8
SURFACE
 62
7
  6
CONTINUOUS
 10
340.1062179816
 20
258.7478053074
 11
340.1062179816
 21
232.0330238217
  0
LINE
  8
0
 62
7
  6
CONTINUOUS
 10
340.1062179816
 20
208.118242336
 11
340.1062179816
 21
210.5581015731
  0
LINE
  8
SURFACE
 62
7
  6
CONTINUOUS
 10
341.0399116889
 20
212.8122375844
 11
330.816607415
 21
188.1309977542
  0
LINE
  8
0
 62
7
  6
CONTINUOUS
 10
321.6648167518
 20
166.0366206151
 11
322.5985104592
 21
168.2907566264
  0
LINE
  8
SURFACE
 62
7
  6
CONTINUOUS
 10
324.3237514708
 20
170.0159976381
 11
305.4335483243
 21
151.1257944916
  0
LINE
  8
0
 62
7
  6
CONTINUOUS
 10
288.5232441652
 20
134.2154903325
 11
290.2484851769
 21
135.9407313441
  0
LINE
  8
SURFACE
 62
7
  6
CONTINUOUS
 10
292.5026211882
 20
136.8744250514
 11
267.821381358
 21
126.6511207776
  0
LINE
  8
0
 62
7
  6
CONTINUOUS
 10
245.7270042189
 20
117.4993301144
 11
247.9811402302
 21
118.4330238217
  0
LINE
  8
0
 62
7
  6
CONTINUOUS
 10
250.4209994673
 20
348.4330238217
 11
247.9811402302
 21
348.4330238217
  0
LINE
  8
SURFACE
 62
7
  6
CONTINUOUS
 10
199.7914364959
 20
348.4330238217
 11
226.5062179816
 21
348.4330238217
  0
LINE
  8
0
 62
7
  6
CONTINUOUS
 10
292.5026211882
 20
329.991622592
 11
290.2484851769
 21
330.9253162993
  0
LINE
  8
SURFACE
 62
7
  6
CONTINUOUS
 10
245.7270042189
 20
349.366717529
 11
270.4082440491
 21
339.1434132552
  0
LINE
  8
SURFACE
 62
7
  6
CONTINUOUS
 10
288.5232441652
 20
332.650557311
 11
307.4134473117
 21
313.7603541645
  0
LINE
  8
0
 62
7
  6
CONTINUOUS
 10
324.3237514708
 20
296.8500500054
 11
322.5985104592
 21
298.575291017
  0
LINE
  8
SURFACE
 62
7
  6
CONTINUOUS
 10
321.6648167518
 20
300.8294270283
 11
331.8881210257
 21
276.1481871982
  0
LINE
  8
0
 62
7
  6
CONTINUOUS
 10
341.0399116889
 20
254.0538100591
 11
340.1062179816
 21
256.3079460704
  0
POLYLINE
  8
SURFACE
 62
7
  6
CONTINUOUS
 66
1
 70
0
  0
VERTEX
  8
SURFACE
 62
7
  6
CONTINUOUS
 10
451.7960879577
 20
102.433023822
  0
VERTEX
  8
SURFACE
 62
7
  6
CONTINUOUS
 10
451.8576522306
 20
102.4349206298
  0
VERTEX
  8
SURFACE
 62
7
  6
CONTINUOUS
 10
451.9391123248
 20
102.4433042606
  0
VERTEX
  8
SURFACE
 62
7
  6
CONTINUOUS
 10
452.0173536802
 20
102.457809286
  0
VERTEX
  8
SURFACE
 62
7
  6
CONTINUOUS
 10
452.0920946314
 20
102.4778361059
  0
VERTEX
  8
SURFACE
 62
7
  6
CONTINUOUS
 10
452.1631297816
 20
102.5028163638
  0
VERTEX
  8
SURFACE
 62
7
  6
CONTINUOUS
 10
452.2303186661
 20
102.532217579
  0
VERTEX
  8
SURFACE
 62
7
  6
CONTINUOUS
 10
452.2935753847
 20
102.5655461305
  0
VERTEX
  8
SURFACE
 62
7
  6
CONTINUOUS
 10
452.3528589762
 20
102.6023488216
  0
VERTEX
  8
SURFACE
 62
7
  6
CONTINUOUS
 10
452.4081645883
 20
102.6422132454
  0
VERTEX
  8
SURFACE
 62
7
  6
CONTINUOUS
 10
452.4595110339
 20
102.6847632159
  0
VERTEX
  8
SURFACE
 62
7
  6
CONTINUOUS
 10
452.5068838589
 20
102.7296042748
  0
VERTEX
  8
SURFACE
 62
7
  6
CONTINUOUS
 10
452.5502634564
 20
102.776323028
  0
VERTEX
  8
SURFACE
 62
7
  6
CONTINUOUS
 10
452.5896677392
 20
102.8245209782
  0
VERTEX
  8
SURFACE
 62
7
  6
CONTINUOUS
 10
452.607894393
 20
102.8490551277
  0
VERTEX
  8
SURFACE
 62
7
  6
CONTINUOUS
 10
452.6414445648
 20
102.8987656117
  0
VERTEX
  8
SURFACE
 62
7
  6
CONTINUOUS
 10
452.6712073013
 20
102.9490416662
  0
VERTEX
  8
SURFACE
 62
7
  6
CONTINUOUS
 10
452.6972977392
 20
102.9995379668
  0
VERTEX
  8
SURFACE
 62
7
  6
CONTINUOUS
 10
452.7198142585
 20
103.0498261619
  0
VERTEX
  8
SURFACE
 62
7
  6
CONTINUOUS
 10
452.7388938435
 20
103.0994706864
  0
VERTEX
  8
SURFACE
 62
7
  6
CONTINUOUS
 10
452.7547121813
 20
103.1480250477
  0
VERTEX
  8
SURFACE
 62
7
  6
CONTINUOUS
 10
452.7673475096
 20
103.1944659304
  0
VERTEX
  8
SURFACE
 62
7
  6
CONTINUOUS
 10
452.7767889099
 20
103.2365513186
  0
VERTEX
  8
SURFACE
 62
7
  6
CONTINUOUS
 10
452.7831289761
 20
103.2707402019
  0
VERTEX
  8
SURFACE
 62
7
  6
CONTINUOUS
 10
452.7871601801
 20
103.296244343
  0
VERTEX
  8
SURFACE
 62
7
  6
CONTINUOUS
 10
452.7902247729
 20
103.3179777003
  0
VERTEX
  8
SURFACE
 62
7
  6
CONTINUOUS
 10
452.79313007
 20
103.3402226023
  0
VERTEX
  8
SURFACE
 62
7
  6
CONTINUOUS
 10
452.7962750219
 20
103.3655820109
  0
SEQEND
  0
POLYLINE
  8
0
 62
7
  6
CONTINUOUS
 66
1
 70
0
  0
VERTEX
  8
0
 62
7
  6
CONTINUOUS
 10
438.8960878757
 20
102.4330238519
  0
VERTEX
  8
0
 62
7
  6
CONTINUOUS
 10
438.9571490997
 20
102.434889758
  0
VERTEX
  8
0
 62
7
  6
CONTINUOUS
 10
439.0371638977
 20
102.4430246994
  0
VERTEX
  8
0
 62
7
  6
CONTINUOUS
 10
439.1140760872
 20
102.4570714935
  0
VERTEX
  8
0
 62
7
  6
CONTINUOUS
 10
439.1876178057
 20
102.476460351
  0
VERTEX
  8
0
 62
7
  6
CONTINUOUS
 10
439.2575926488
 20
102.5006506662
  0
VERTEX
  8
0
 62
7
  6
CONTINUOUS
 10
439.3238652279
 20
102.5291353125
  0
VERTEX
  8
0
 62
7
  6
CONTINUOUS
 10
439.3863515915
 20
102.5614434319
  0
VERTEX
  8
0
 62
7
  6
CONTINUOUS
 10
439.4450103452
 20
102.5971419405
  0
VERTEX
  8
0
 62
7
  6
CONTINUOUS
 10
439.4998344759
 20
102.6358359354
  0
VERTEX
  8
0
 62
7
  6
CONTINUOUS
 10
439.550842149
 20
102.6771666485
  0
VERTEX
  8
0
 62
7
  6
CONTINUOUS
 10
439.5980278598
 20
102.7207675559
  0
VERTEX
  8
0
 62
7
  6
CONTINUOUS
 10
439.6413683225
 20
102.7662463479
  0
VERTEX
  8
0
 62
7
  6
CONTINUOUS
 10
439.6808739294
 20
102.8132226225
  0
VERTEX
  8
0
 62
7
  6
CONTINUOUS
 10
439.7165882461
 20
102.8613326722
  0
VERTEX
  8
0
 62
7
  6
CONTINUOUS
 10
439.7485843392
 20
102.9102311045
  0
VERTEX
  8
0
 62
7
  6
CONTINUOUS
 10
439.7769598672
 20
102.9595891944
  0
VERTEX
  8
0
 62
7
  6
CONTINUOUS
 10
439.8018234092
 20
103.0090710482
  0
VERTEX
  8
0
 62
7
  6
CONTINUOUS
 10
439.823268836
 20
103.058256313
  0
VERTEX
  8
0
 62
7
  6
CONTINUOUS
 10
439.8414394703
 20
103.1067469722
  0
VERTEX
  8
0
 62
7
  6
CONTINUOUS
 10
439.856497263
 20
103.154086888
  0
VERTEX
  8
0
 62
7
  6
CONTINUOUS
 10
439.8684803497
 20
103.1991056959
  0
VERTEX
  8
0
 62
7
  6
CONTINUOUS
 10
439.8773925448
 20
103.2395560666
  0
VERTEX
  8
0
 62
7
  6
CONTINUOUS
 10
439.8833935666
 20
103.2723120879
  0
VERTEX
  8
0
 62
7
  6
CONTINUOUS
 10
439.8873106891
 20
103.2972643923
  0
VERTEX
  8
0
 62
7
  6
CONTINUOUS
 10
439.8903421589
 20
103.318848476
  0
VERTEX
  8
0
 62
7
  6
CONTINUOUS
 10
439.8932275745
 20
103.3409914549
  0
VERTEX
  8
0
 62
7
  6
CONTINUOUS
 10
439.8963372425
 20
103.3660939281
  0
VERTEX
  8
0
 62
7
  6
CONTINUOUS
 10
439.9863212319
 20
104.1378305008
  0
SEQEND
  0
POLYLINE
  8
0
 62
7
  6
CONTINUOUS
 66
1
 70
0
  0
VERTEX
  8
0
 62
7
  6
CONTINUOUS
 10
438.8984071826
 20
108.1901323421
  0
VERTEX
  8
0
 62
7
  6
CONTINUOUS
 10
438.9507487423
 20
108.1915023911
  0
VERTEX
  8
0
 62
7
  6
CONTINUOUS
 10
439.0976049694
 20
108.2101622506
  0
VERTEX
  8
0
 62
7
  6
CONTINUOUS
 10
439.2338042058
 20
108.2480218856
  0
VERTEX
  8
0
 62
7
  6
CONTINUOUS
 10
439.3573406129
 20
108.301589827
  0
VERTEX
  8
0
 62
7
  6
CONTINUOUS
 10
439.4670095505
 20
108.3673887961
  0
VERTEX
  8
0
 62
7
  6
CONTINUOUS
 10
439.5623126802
 20
108.4420951725
  0
VERTEX
  8
0
 62
7
  6
CONTINUOUS
 10
439.6432413767
 20
108.5225252248
  0
VERTEX
  8
0
 62
7
  6
CONTINUOUS
 10
439.7101263714
 20
108.6055135829
  0
VERTEX
  8
0
 62
7
  6
CONTINUOUS
 10
439.7638904055
 20
108.6882790898
  0
VERTEX
  8
0
 62
7
  6
CONTINUOUS
 10
439.7862789536
 20
108.7288738469
  0
VERTEX
  8
0
 62
7
  6
CONTINUOUS
 10
439.8229947932
 20
108.8072135335
  0
VERTEX
  8
0
 62
7
  6
CONTINUOUS
 10
439.8502698336
 20
108.8801811127
  0
VERTEX
  8
0
 62
7
  6
CONTINUOUS
 10
439.868925989
 20
108.94284991
  0
VERTEX
  8
0
 62
7
  6
CONTINUOUS
 10
439.8814279483
 20
108.9947740326
  0
VERTEX
  8
0
 62
7
  6
CONTINUOUS
 10
439.8917591919
 20
109.0468774949
  0
VERTEX
  8
0
 62
7
  6
CONTINUOUS
 10
439.9006302664
 20
109.0997455259
  0
VERTEX
  8
0
 62
7
  6
CONTINUOUS
 10
439.9094211728
 20
109.1592427941
  0
VERTEX
  8
0
 62
7
  6
CONTINUOUS
 10
439.918845696
 20
109.2295959719
  0
SEQEND
  0
LINE
  8
SURFACE
 62
7
  6
CONTINUOUS
 10
451.7961078539
 20
102.4330238217
 11
445.8649086903
 21
102.4330238217
  0
LINE
  8
0
 62
7
  6
CONTINUOUS
 10
432.9649064903
 20
102.4330238217
 11
438.896105654
 21
102.4330238217
  0
LINE
  8
0
 62
7
  6
CONTINUOUS
 10
432.9625800207
 20
108.1901322424
 11
438.8984380738
 21
108.1901322424
  0
POLYLINE
  8
SURFACE
 62
7
  6
CONTINUOUS
 66
1
 70
0
  0
VERTEX
  8
SURFACE
 62
7
  6
CONTINUOUS
 10
451.8017122862
 20
116.3911164777
  0
VERTEX
  8
SURFACE
 62
7
  6
CONTINUOUS
 10
451.9168178358
 20
116.3977554171
  0
VERTEX
  8
SURFACE
 62
7
  6
CONTINUOUS
 10
452.1118158765
 20
116.4403507585
  0
VERTEX
  8
SURFACE
 62
7
  6
CONTINUOUS
 10
452.2831175224
 20
116.5144360627
  0
VERTEX
  8
SURFACE
 62
7
  6
CONTINUOUS
 10
452.4284186787
 20
116.6114606056
  0
VERTEX
  8
SURFACE
 62
7
  6
CONTINUOUS
 10
452.5471500872
 20
116.7237437509
  0
VERTEX
  8
SURFACE
 62
7
  6
CONTINUOUS
 10
452.6386932567
 20
116.8423348087
  0
VERTEX
  8
SURFACE
 62
7
  6
CONTINUOUS
 10
452.7044965766
 20
116.9579559172
  0
VERTEX
  8
SURFACE
 62
7
  6
CONTINUOUS
 10
452.7329483145
 20
117.0219923601
  0
SEQEND
  0
LINE
  8
SURFACE
 62
7
  6
CONTINUOUS
 10
451.801757682
 20
116.3911164806
 11
445.8592569972
 21
116.3911164806
  0
LINE
  8
0
 62
7
  6
CONTINUOUS
 10
444.5837852922
 20
118.4330238217
 11
440.6805071721
 21
118.4330238217
  0
POLYLINE
  8
0
 62
7
  6
CONTINUOUS
 66
1
 70
0
  0
VERTEX
  8
0
 62
7
  6
CONTINUOUS
 10
438.9083217379
 20
132.7859744517
  0
VERTEX
  8
0
 62
7
  6
CONTINUOUS
 10
439.0061776099
 20
132.7907626775
  0
VERTEX
  8
0
 62
7
  6
CONTINUOUS
 10
439.1742981426
 20
132.8219057218
  0
VERTEX
  8
0
 62
7
  6
CONTINUOUS
 10
439.32618195
 20
132.8772117539
  0
VERTEX
  8
0
 62
7
  6
CONTINUOUS
 10
439.4597646658
 20
132.9512346749
  0
VERTEX
  8
0
 62
7
  6
CONTINUOUS
 10
439.5742283535
 20
133.0389617478
  0
VERTEX
  8
0
 62
7
  6
CONTINUOUS
 10
439.6695131384
 20
133.1357230929
  0
VERTEX
  8
0
 62
7
  6
CONTINUOUS
 10
439.709970602
 20
133.1859036033
  0
VERTEX
  8
0
 62
7
  6
CONTINUOUS
 10
439.7770288264
 20
133.2866603024
  0
VERTEX
  8
0
 62
7
  6
CONTINUOUS
 10
439.8271028448
 20
133.3840166061
  0
VERTEX
  8
0
 62
7
  6
CONTINUOUS
 10
439.8628406434
 20
133.4741381322
  0
VERTEX
  8
0
 62
7
  6
CONTINUOUS
 10
439.887579308
 20
133.5548100962
  0
VERTEX
  8
0
 62
7
  6
CONTINUOUS
 10
439.9057506041
 20
133.6303700324
  0
VERTEX
  8
0
 62
7
  6
CONTINUOUS
 10
439.919691999
 20
133.7020655692
  0
SEQEND
  0
LINE
  8
0
 62
7
  6
CONTINUOUS
 10
432.9526513919
 20
132.785974174
 11
438.9083637784
 21
132.785974174
  0
LINE
  8
0
 62
7
  6
CONTINUOUS
 10
445.0805071721
 20
135.9407313441
 11
440.3156071372
 21
135.9407313441
  0
POLYLINE
  8
0
 62
7
  6
CONTINUOUS
 66
1
 70
0
  0
VERTEX
  8
0
 62
7
  6
CONTINUOUS
 10
439.6805071721
 20
126.6511207776
  0
VERTEX
  8
0
 62
7
  6
CONTINUOUS
 10
440.0892055661
 20
126.452413311
  0
VERTEX
  8
0
 62
7
  6
CONTINUOUS
 10
440.382107023
 20
126.279129277
  0
VERTEX
  8
0
 62
7
  6
CONTINUOUS
 10
440.5612178615
 20
126.1297610274
  0
VERTEX
  8
0
 62
7
  6
CONTINUOUS
 10
440.6526676286
 20
126.0013108529
  0
VERTEX
  8
0
 62
7
  6
CONTINUOUS
 10
440.6805071721
 20
125.8857539129
  0
SEQEND
  0
LINE
  8
0
 62
7
  6
CONTINUOUS
 10
419.7805071721
 20
137.5299575476
 11
431.1805071721
 21
137.5299575476
  0
LINE
  8
0
 62
7
  6
CONTINUOUS
 10
453.5805071721
 20
137.5299575476
 11
464.9805071721
 21
137.5299575476
  0
POLYLINE
  8
SURFACE
 62
7
  6
CONTINUOUS
 66
1
 70
0
  0
VERTEX
  8
SURFACE
 62
7
  6
CONTINUOUS
 10
452.0088249595
 20
147.610282476
  0
VERTEX
  8
SURFACE
 62
7
  6
CONTINUOUS
 10
452.1842092048
 20
147.6246689833
  0
VERTEX
  8
SURFACE
 62
7
  6
CONTINUOUS
 10
452.4239751355
 20
147.6932574534
  0
VERTEX
  8
SURFACE
 62
7
  6
CONTINUOUS
 10
452.6334122088
 20
147.8076756526
  0
VERTEX
  8
SURFACE
 62
7
  6
CONTINUOUS
 10
452.8030797332
 20
147.9504200809
  0
VERTEX
  8
SURFACE
 62
7
  6
CONTINUOUS
 10
452.9329550782
 20
148.1033870244
  0
VERTEX
  8
SURFACE
 62
7
  6
CONTINUOUS
 10
453.0317833923
 20
148.2563214592
  0
VERTEX
  8
SURFACE
 62
7
  6
CONTINUOUS
 10
453.1120809738
 20
148.4117306537
  0
VERTEX
  8
SURFACE
 62
7
  6
CONTINUOUS
 10
453.1827208711
 20
148.5764852
  0
VERTEX
  8
SURFACE
 62
7
  6
CONTINUOUS
 10
453.2488374485
 20
148.757179713
  0
VERTEX
  8
SURFACE
 62
7
  6
CONTINUOUS
 10
453.3139462143
 20
148.9613727087
  0
VERTEX
  8
SURFACE
 62
7
  6
CONTINUOUS
 10
453.3802978361
 20
149.1965287377
  0
VERTEX
  8
SURFACE
 62
7
  6
CONTINUOUS
 10
453.4494098509
 20
149.4701640207
  0
VERTEX
  8
SURFACE
 62
7
  6
CONTINUOUS
 10
453.5191444563
 20
149.775252751
  0
SEQEND
  0
LINE
  8
SURFACE
 62
7
  6
CONTINUOUS
 10
452.0090991382
 20
147.6102822041
 11
445.6519289279
 21
147.6102822041
  0
LINE
  8
0
 62
7
  6
CONTINUOUS
 10
445.0805071721
 20
168.2907566264
 11
439.6805071721
 21
168.2907566264
  0
POLYLINE
  8
0
 62
7
  6
CONTINUOUS
 66
1
 70
0
  0
VERTEX
  8
0
 62
7
  6
CONTINUOUS
 10
439.6805071721
 20
151.1257944916
  0
VERTEX
  8
0
 62
7
  6
CONTINUOUS
 10
440.0892055661
 20
150.7586309689
  0
VERTEX
  8
0
 62
7
  6
CONTINUOUS
 10
440.382107023
 20
150.4384438242
  0
VERTEX
  8
0
 62
7
  6
CONTINUOUS
 10
440.5612178615
 20
150.1624472869
  0
VERTEX
  8
0
 62
7
  6
CONTINUOUS
 10
440.6526676286
 20
149.9251023126
  0
VERTEX
  8
0
 62
7
  6
CONTINUOUS
 10
440.6805071721
 20
149.7115809292
  0
SEQEND
  0
LINE
  8
0
 62
7
  6
CONTINUOUS
 10
432.0281194661
 20
349.8441873706
 11
432.0280660298
 21
349.8440552834
  0
POLYLINE
  8
0
 62
7
  6
CONTINUOUS
 66
1
 70
0
  0
VERTEX
  8
0
 62
7
  6
CONTINUOUS
 10
438.9243365903
 20
172.4760559418
  0
VERTEX
  8
0
 62
7
  6
CONTINUOUS
 10
439.0808046184
 20
172.4883180595
  0
VERTEX
  8
0
 62
7
  6
CONTINUOUS
 10
439.2875069918
 20
172.543998161
  0
VERTEX
  8
0
 62
7
  6
CONTINUOUS
 10
439.4749502444
 20
172.6403266814
  0
VERTEX
  8
0
 62
7
  6
CONTINUOUS
 10
439.5567906504
 20
172.6999655015
  0
VERTEX
  8
0
 62
7
  6
CONTINUOUS
 10
439.6915288485
 20
172.8314055298
  0
VERTEX
  8
0
 62
7
  6
CONTINUOUS
 10
439.7894233443
 20
172.9676911756
  0
VERTEX
  8
0
 62
7
  6
CONTINUOUS
 10
439.8402303413
 20
173.0629754255
  0
SEQEND
  0
LINE
  8
0
 62
7
  6
CONTINUOUS
 10
432.9366536762
 20
172.4760556441
 11
438.9243588619
 21
172.4760556441
  0
POLYLINE
  8
0
 62
7
  6
CONTINUOUS
 66
1
 70
0
  0
VERTEX
  8
0
 62
7
  6
CONTINUOUS
 10
432.0281194299
 20
349.8441873852
  0
VERTEX
  8
0
 62
7
  6
CONTINUOUS
 10
431.9090498645
 20
349.4804324586
  0
VERTEX
  8
0
 62
7
  6
CONTINUOUS
 10
431.7929969226
 20
348.9940266871
  0
VERTEX
  8
0
 62
7
  6
CONTINUOUS
 10
431.6715062426
 20
348.3699417548
  0
VERTEX
  8
0
 62
7
  6
CONTINUOUS
 10
431.60978425
 20
348.0162008773
  0
VERTEX
  8
0
 62
7
  6
CONTINUOUS
 10
431.4856237174
 20
347.2423872101
  0
VERTEX
  8
0
 62
7
  6
CONTINUOUS
 10
431.3582086362
 20
346.3742212622
  0
VERTEX
  8
0
 62
7
  6
CONTINUOUS
 10
431.2274768126
 20
345.4164386006
  0
SEQEND
  0
POLYLINE
  8
SURFACE
 62
7
  6
CONTINUOUS
 66
1
 70
0
  0
VERTEX
  8
SURFACE
 62
7
  6
CONTINUOUS
 10
452.432283296
 20
190.050169112
  0
VERTEX
  8
SURFACE
 62
7
  6
CONTINUOUS
 10
452.5154039136
 20
190.0532623537
  0
VERTEX
  8
SURFACE
 62
7
  6
CONTINUOUS
 10
452.7785495381
 20
190.1049539891
  0
VERTEX
  8
SURFACE
 62
7
  6
CONTINUOUS
 10
452.9045740946
 20
190.1540926549
  0
VERTEX
  8
SURFACE
 62
7
  6
CONTINUOUS
 10
453.1284956313
 20
190.2885379306
  0
VERTEX
  8
SURFACE
 62
7
  6
CONTINUOUS
 10
453.209998089
 20
190.3558369893
  0
SEQEND
  0
LINE
  8
SURFACE
 62
7
  6
CONTINUOUS
 10
452.4324569434
 20
190.0501690731
 11
445.228558175
 21
190.0501690731
  0
POLYLINE
  8
0
 62
7
  6
CONTINUOUS
 66
1
 70
0
  0
VERTEX
  8
0
 62
7
  6
CONTINUOUS
 10
431.5620543003
 20
174.0399530874
  0
VERTEX
  8
0
 62
7
  6
CONTINUOUS
 10
431.5607662201
 20
174.0413816728
  0
VERTEX
  8
0
 62
7
  6
CONTINUOUS
 10
431.5813979856
 20
174.0005747788
  0
SEQEND
  0
POLYLINE
  8
SURFACE
 62
7
  6
CONTINUOUS
 66
1
 70
0
  0
VERTEX
  8
SURFACE
 62
7
  6
CONTINUOUS
 10
444.9280580322
 20
117.0220119967
  0
VERTEX
  8
SURFACE
 62
7
  6
CONTINUOUS
 10
444.9563852709
 20
116.9582287766
  0
VERTEX
  8
SURFACE
 62
7
  6
CONTINUOUS
 10
445.0220139594
 20
116.8428009899
  0
VERTEX
  8
SURFACE
 62
7
  6
CONTINUOUS
 10
445.1133214143
 20
116.7243485749
  0
VERTEX
  8
SURFACE
 62
7
  6
CONTINUOUS
 10
445.2317401364
 20
116.612147472
  0
VERTEX
  8
SURFACE
 62
7
  6
CONTINUOUS
 10
445.3766558378
 20
116.5151174779
  0
VERTEX
  8
SURFACE
 62
7
  6
CONTINUOUS
 10
445.5475133382
 20
116.4409012899
  0
VERTEX
  8
SURFACE
 62
7
  6
CONTINUOUS
 10
445.7420254459
 20
116.3980091298
  0
VERTEX
  8
SURFACE
 62
7
  6
CONTINUOUS
 10
445.8593019948
 20
116.3911165283
  0
SEQEND
  0
POLYLINE
  8
0
 62
7
  6
CONTINUOUS
 66
1
 70
0
  0
VERTEX
  8
0
 62
7
  6
CONTINUOUS
 10
431.5508553415
 20
276.5100662112
  0
VERTEX
  8
0
 62
7
  6
CONTINUOUS
 10
431.4032187955
 20
276.3488115627
  0
VERTEX
  8
0
 62
7
  6
CONTINUOUS
 10
431.275824409
 20
276.1308556176
  0
VERTEX
  8
0
 62
7
  6
CONTINUOUS
 10
431.2009913974
 20
275.8906242122
  0
SEQEND
  0
LINE
  8
0
 62
7
  6
CONTINUOUS
 10
431.5510162553
 20
276.5102106541
 11
431.5508553268
 21
276.5100662275
  0
POLYLINE
  8
0
 62
7
  6
CONTINUOUS
 66
1
 70
0
  0
VERTEX
  8
0
 62
7
  6
CONTINUOUS
 10
432.0207923009
 20
173.0629579011
  0
VERTEX
  8
0
 62
7
  6
CONTINUOUS
 10
432.0717257081
 20
172.9674670795
  0
VERTEX
  8
0
 62
7
  6
CONTINUOUS
 10
432.1697643309
 20
172.8310779619
  0
VERTEX
  8
0
 62
7
  6
CONTINUOUS
 10
432.3046341492
 20
172.6996338024
  0
VERTEX
  8
0
 62
7
  6
CONTINUOUS
 10
432.3865650149
 20
172.6399989906
  0
VERTEX
  8
0
 62
7
  6
CONTINUOUS
 10
432.5743465774
 20
172.5436733997
  0
VERTEX
  8
0
 62
7
  6
CONTINUOUS
 10
432.7817355433
 20
172.4880788642
  0
VERTEX
  8
0
 62
7
  6
CONTINUOUS
 10
432.9366791602
 20
172.4760560399
  0
SEQEND
  0
LINE
  8
0
 62
7
  6
CONTINUOUS
 10
431.581415083
 20
174.0005382815
 11
432.020701129
 21
173.0631520123
  0
LINE
  8
SURFACE
 62
7
  6
CONTINUOUS
 10
444.9280580322
 20
117.0220119967
 11
444.928119968
 21
117.0218588955
  0
LINE
  8
0
 62
7
  6
CONTINUOUS
 10
431.241865143
 20
317.0907729599
 11
431.2091794873
 21
316.9106800443
  0
POLYLINE
  8
SURFACE
 62
7
  6
CONTINUOUS
 66
1
 70
0
  0
VERTEX
  8
SURFACE
 62
7
  6
CONTINUOUS
 10
444.4510133222
 20
190.3558395803
  0
VERTEX
  8
SURFACE
 62
7
  6
CONTINUOUS
 10
444.5322549086
 20
190.288737837
  0
VERTEX
  8
SURFACE
 62
7
  6
CONTINUOUS
 10
444.7553978523
 20
190.1545719091
  0
VERTEX
  8
SURFACE
 62
7
  6
CONTINUOUS
 10
444.8809326572
 20
190.1054507131
  0
VERTEX
  8
SURFACE
 62
7
  6
CONTINUOUS
 10
445.1430720176
 20
190.0534544325
  0
VERTEX
  8
SURFACE
 62
7
  6
CONTINUOUS
 10
445.2287300899
 20
190.0501691041
  0
SEQEND
  0
LINE
  8
SURFACE
 62
7
  6
CONTINUOUS
 10
444.4508640401
 20
190.3559735538
 11
444.4510133222
 21
190.3558395803
  0
POLYLINE
  8
0
 62
7
  6
CONTINUOUS
 66
1
 70
0
  0
VERTEX
  8
0
 62
7
  6
CONTINUOUS
 10
439.6805071721
 20
188.1309977542
  0
VERTEX
  8
0
 62
7
  6
CONTINUOUS
 10
440.0892055661
 20
187.6512754933
  0
VERTEX
  8
0
 62
7
  6
CONTINUOUS
 10
440.382107023
 20
187.2329308283
  0
VERTEX
  8
0
 62
7
  6
CONTINUOUS
 10
440.5612178615
 20
186.8723239743
  0
VERTEX
  8
0
 62
7
  6
CONTINUOUS
 10
440.6526676286
 20
186.5622178209
  0
VERTEX
  8
0
 62
7
  6
CONTINUOUS
 10
440.6805071721
 20
186.2832386892
  0
SEQEND
  0
LINE
  8
SURFACE
 62
7
  6
CONTINUOUS
 10
444.8090728902
 20
117.3855310937
 11
444.928119968
 21
117.0218588955
  0
LINE
  8
0
 62
7
  6
CONTINUOUS
 10
431.245066815
 20
137.4715307883
 11
431.3679873951
 21
136.9006888851
  0
POLYLINE
  8
0
 62
7
  6
CONTINUOUS
 66
1
 70
0
  0
VERTEX
  8
0
 62
7
  6
CONTINUOUS
 10
431.9413229733
 20
133.7020621089
  0
VERTEX
  8
0
 62
7
  6
CONTINUOUS
 10
431.9552907801
 20
133.6302438023
  0
VERTEX
  8
0
 62
7
  6
CONTINUOUS
 10
431.9735034065
 20
133.5545566107
  0
VERTEX
  8
0
 62
7
  6
CONTINUOUS
 10
431.9983269549
 20
133.4736959401
  0
VERTEX
  8
0
 62
7
  6
CONTINUOUS
 10
432.0341892247
 20
133.3833995327
  0
VERTEX
  8
0
 62
7
  6
CONTINUOUS
 10
432.0844055555
 20
133.2859408248
  0
VERTEX
  8
0
 62
7
  6
CONTINUOUS
 10
432.1516258969
 20
133.1851333389
  0
VERTEX
  8
0
 62
7
  6
CONTINUOUS
 10
432.1921805429
 20
133.1349341165
  0
VERTEX
  8
0
 62
7
  6
CONTINUOUS
 10
432.2877001092
 20
133.0381517336
  0
VERTEX
  8
0
 62
7
  6
CONTINUOUS
 10
432.4024548026
 20
132.9504427592
  0
VERTEX
  8
0
 62
7
  6
CONTINUOUS
 10
432.5363758817
 20
132.876505819
  0
VERTEX
  8
0
 62
7
  6
CONTINUOUS
 10
432.6886336877
 20
132.8213801686
  0
VERTEX
  8
0
 62
7
  6
CONTINUOUS
 10
432.8571412824
 20
132.7905392958
  0
VERTEX
  8
0
 62
7
  6
CONTINUOUS
 10
432.9526930675
 20
132.7859744141
  0
SEQEND
  0
LINE
  8
0
 62
7
  6
CONTINUOUS
 10
431.3679873951
 20
136.9006888851
 11
431.5023567395
 21
136.1843767144
  0
LINE
  8
0
 62
7
  6
CONTINUOUS
 10
431.7936028902
 20
134.5367426843
 11
431.9413228811
 21
133.7020625424
  0
LINE
  8
0
 62
7
  6
CONTINUOUS
 10
431.5023574821
 20
136.1843725198
 11
431.7936028902
 21
134.5367426843
  0
POLYLINE
  8
0
 62
7
  6
CONTINUOUS
 66
1
 70
0
  0
VERTEX
  8
0
 62
7
  6
CONTINUOUS
 10
431.9669748757
 20
103.347441034
  0
VERTEX
  8
0
 62
7
  6
CONTINUOUS
 10
431.9702191203
 20
103.322233414
  0
VERTEX
  8
0
 62
7
  6
CONTINUOUS
 10
431.9735721291
 20
103.2981598759
  0
VERTEX
  8
0
 62
7
  6
CONTINUOUS
 10
431.978033339
 20
103.2698669275
  0
VERTEX
  8
0
 62
7
  6
CONTINUOUS
 10
431.9845165296
 20
103.2351184417
  0
VERTEX
  8
0
 62
7
  6
CONTINUOUS
 10
431.9936455015
 20
103.1945524374
  0
VERTEX
  8
0
 62
7
  6
CONTINUOUS
 10
432.0057184367
 20
103.1499918861
  0
VERTEX
  8
0
 62
7
  6
CONTINUOUS
 10
432.0208790876
 20
103.102996669
  0
VERTEX
  8
0
 62
7
  6
CONTINUOUS
 10
432.039282506
 20
103.0544785752
  0
VERTEX
  8
0
 62
7
  6
CONTINUOUS
 10
432.0609612277
 20
103.0053110416
  0
VERTEX
  8
0
 62
7
  6
CONTINUOUS
 10
432.0862826494
 20
102.9554679084
  0
VERTEX
  8
0
 62
7
  6
CONTINUOUS
 10
432.1157355546
 20
102.9048799079
  0
VERTEX
  8
0
 62
7
  6
CONTINUOUS
 10
432.1321830827
 20
102.8793146235
  0
VERTEX
  8
0
 62
7
  6
CONTINUOUS
 10
432.1688834931
 20
102.8277463081
  0
VERTEX
  8
0
 62
7
  6
CONTINUOUS
 10
432.2111745532
 20
102.7758368512
  0
VERTEX
  8
0
 62
7
  6
CONTINUOUS
 10
432.2596719269
 20
102.724049019
  0
VERTEX
  8
0
 62
7
  6
CONTINUOUS
 10
432.3148188222
 20
102.6731666815
  0
VERTEX
  8
0
 62
7
  6
CONTINUOUS
 10
432.3769438449
 20
102.6241395702
  0
VERTEX
  8
0
 62
7
  6
CONTINUOUS
 10
432.446260279
 20
102.5780396343
  0
VERTEX
  8
0
 62
7
  6
CONTINUOUS
 10
432.5228420908
 20
102.5360455522
  0
VERTEX
  8
0
 62
7
  6
CONTINUOUS
 10
432.6066261
 20
102.4994145728
  0
VERTEX
  8
0
 62
7
  6
CONTINUOUS
 10
432.6977016368
 20
102.4693881182
  0
VERTEX
  8
0
 62
7
  6
CONTINUOUS
 10
432.796257941
 20
102.447350424
  0
VERTEX
  8
0
 62
7
  6
CONTINUOUS
 10
432.9022670585
 20
102.4349887747
  0
VERTEX
  8
0
 62
7
  6
CONTINUOUS
 10
432.9649263867
 20
102.433023822
  0
SEQEND
  0
POLYLINE
  8
0
 62
7
  6
CONTINUOUS
 66
1
 70
0
  0
VERTEX
  8
0
 62
7
  6
CONTINUOUS
 10
431.936827786
 20
109.2720158108
  0
VERTEX
  8
0
 62
7
  6
CONTINUOUS
 10
431.9463607513
 20
109.1975478353
  0
VERTEX
  8
0
 62
7
  6
CONTINUOUS
 10
431.9551861544
 20
109.1341398896
  0
VERTEX
  8
0
 62
7
  6
CONTINUOUS
 10
431.9635688445
 20
109.0798884443
  0
VERTEX
  8
0
 62
7
  6
CONTINUOUS
 10
431.9722355326
 20
109.0308384622
  0
VERTEX
  8
0
 62
7
  6
CONTINUOUS
 10
431.9829430552
 20
108.9797938779
  0
VERTEX
  8
0
 62
7
  6
CONTINUOUS
 10
431.9992442865
 20
108.9171291936
  0
VERTEX
  8
0
 62
7
  6
CONTINUOUS
 10
432.0246995849
 20
108.840754957
  0
VERTEX
  8
0
 62
7
  6
CONTINUOUS
 10
432.0613760224
 20
108.755415185
  0
VERTEX
  8
0
 62
7
  6
CONTINUOUS
 10
432.0844052276
 20
108.7107961528
  0
VERTEX
  8
0
 62
7
  6
CONTINUOUS
 10
432.1408531773
 20
108.6196718498
  0
VERTEX
  8
0
 62
7
  6
CONTINUOUS
 10
432.212524037
 20
108.5284190115
  0
VERTEX
  8
0
 62
7
  6
CONTINUOUS
 10
432.3005951785
 20
108.4404207673
  0
VERTEX
  8
0
 62
7
  6
CONTINUOUS
 10
432.4055981906
 20
108.3595027841
  0
VERTEX
  8
0
 62
7
  6
CONTINUOUS
 10
432.5275343274
 20
108.2896744252
  0
VERTEX
  8
0
 62
7
  6
CONTINUOUS
 10
432.665665823
 20
108.2352111209
  0
VERTEX
  8
0
 62
7
  6
CONTINUOUS
 10
432.8182514317
 20
108.2006009605
  0
VERTEX
  8
0
 62
7
  6
CONTINUOUS
 10
432.9823936897
 20
108.1903280162
  0
VERTEX
  8
0
 62
7
  6
CONTINUOUS
 10
432.9626071826
 20
108.1901323418
  0
SEQEND
  0
LINE
  8
0
 62
7
  6
CONTINUOUS
 10
431.2271539274
 20
115.0960068559
 11
431.3579561084
 21
114.0662401655
  0
LINE
  8
0
 62
7
  6
CONTINUOUS
 10
431.9620741545
 20
103.3877864263
 11
431.9669748757
 21
103.347441034
  0
LINE
  8
0
 62
7
  6
CONTINUOUS
 10
431.2022221479
 20
115.3241586715
 11
431.2271538819
 21
115.0960075319
  0
POLYLINE
  8
0
 62
7
  6
CONTINUOUS
 66
1
 70
0
  0
VERTEX
  8
0
 62
7
  6
CONTINUOUS
 10
431.2244661076
 20
110.0954462418
  0
VERTEX
  8
0
 62
7
  6
CONTINUOUS
 10
431.3558771227
 20
108.8641076381
  0
VERTEX
  8
0
 62
7
  6
CONTINUOUS
 10
431.4849460523
 20
107.6636420897
  0
VERTEX
  8
0
 62
7
  6
CONTINUOUS
 10
431.66530687
 20
106.007453602
  0
SEQEND
  0
LINE
  8
0
 62
7
  6
CONTINUOUS
 10
417.2805071721
 20
140.0299575476
 11
417.2805071721
 21
326.8360900958
  0
POLYLINE
  8
0
 62
7
  6
CONTINUOUS
 66
1
 70
0
  0
VERTEX
  8
0
 62
7
  6
CONTINUOUS
 10
431.2244661326
 20
356.7706012128
  0
VERTEX
  8
0
 62
7
  6
CONTINUOUS
 10
431.2005808739
 20
356.5022195995
  0
VERTEX
  8
0
 62
7
  6
CONTINUOUS
 10
431.1849699098
 20
356.2057811691
  0
VERTEX
  8
0
 62
7
  6
CONTINUOUS
 10
431.1805071917
 20
355.9408274466
  0
SEQEND
  0
POLYLINE
  8
0
 62
7
  6
CONTINUOUS
 66
1
 70
0
  0
VERTEX
  8
0
 62
7
  6
CONTINUOUS
 10
431.2091794873
 20
316.9106800443
  0
VERTEX
  8
0
 62
7
  6
CONTINUOUS
 10
431.1870388907
 20
316.7021474345
  0
VERTEX
  8
0
 62
7
  6
CONTINUOUS
 10
431.180507193
 20
316.5071971266
  0
SEQEND
  0
POLYLINE
  8
0
 62
7
  6
CONTINUOUS
 66
1
 70
0
  0
VERTEX
  8
0
 62
7
  6
CONTINUOUS
 10
431.4849460523
 20
359.2024055538
  0
VERTEX
  8
0
 62
7
  6
CONTINUOUS
 10
431.3558771227
 20
358.0019400054
  0
VERTEX
  8
0
 62
7
  6
CONTINUOUS
 10
431.2244661076
 20
356.7706014016
  0
SEQEND
  0
POLYLINE
  8
0
 62
7
  6
CONTINUOUS
 66
1
 70
0
  0
VERTEX
  8
0
 62
7
  6
CONTINUOUS
 10
431.2274767053
 20
345.4164374523
  0
VERTEX
  8
0
 62
7
  6
CONTINUOUS
 10
431.2020107563
 20
345.1852269681
  0
VERTEX
  8
0
 62
7
  6
CONTINUOUS
 10
431.1853018561
 20
344.9268472656
  0
VERTEX
  8
0
 62
7
  6
CONTINUOUS
 10
431.1805071917
 20
344.6932375455
  0
SEQEND
  0
POLYLINE
  8
0
 62
7
  6
CONTINUOUS
 66
1
 70
0
  0
VERTEX
  8
0
 62
7
  6
CONTINUOUS
 10
431.9620749173
 20
363.4782676569
  0
VERTEX
  8
0
 62
7
  6
CONTINUOUS
 10
431.8746898992
 20
362.7281891286
  0
VERTEX
  8
0
 62
7
  6
CONTINUOUS
 10
431.7748846805
 20
361.8466649628
  0
VERTEX
  8
0
 62
7
  6
CONTINUOUS
 10
431.66530687
 20
360.8585940414
  0
VERTEX
  8
0
 62
7
  6
CONTINUOUS
 10
431.4849460523
 20
359.2024055538
  0
SEQEND
  0
LINE
  8
SURFACE
 62
7
  6
CONTINUOUS
 10
444.1450608265
 20
329.3944912005
 11
444.1095501274
 21
329.2138970236
  0
LINE
  8
SURFACE
 62
7
  6
CONTINUOUS
 10
444.9207011287
 20
293.8028956305
 11
444.4814150833
 21
292.8655093626
  0
POLYLINE
  8
SURFACE
 62
7
  6
CONTINUOUS
 66
1
 70
0
  0
VERTEX
  8
SURFACE
 62
7
  6
CONTINUOUS
 10
444.4813976912
 20
292.8654722023
  0
VERTEX
  8
SURFACE
 62
7
  6
CONTINUOUS
 10
444.4607538883
 20
292.8246442281
  0
VERTEX
  8
SURFACE
 62
7
  6
CONTINUOUS
 10
444.4584771941
 20
292.8207447204
  0
SEQEND
  0
LINE
  8
0
 62
7
  6
CONTINUOUS
 10
445.0805071721
 20
210.5581015731
 11
439.6805071721
 21
210.5581015731
  0
POLYLINE
  8
SURFACE
 62
7
  6
CONTINUOUS
 66
1
 70
0
  0
VERTEX
  8
SURFACE
 62
7
  6
CONTINUOUS
 10
444.1418698513
 20
149.7752528876
  0
VERTEX
  8
SURFACE
 62
7
  6
CONTINUOUS
 10
444.2115796775
 20
149.4702674985
  0
VERTEX
  8
SURFACE
 62
7
  6
CONTINUOUS
 10
444.2806668462
 20
149.196714914
  0
VERTEX
  8
SURFACE
 62
7
  6
CONTINUOUS
 10
444.3469939692
 20
148.9616203258
  0
VERTEX
  8
SURFACE
 62
7
  6
CONTINUOUS
 10
444.4120781581
 20
148.7574694834
  0
VERTEX
  8
SURFACE
 62
7
  6
CONTINUOUS
 10
444.4781682696
 20
148.5768025591
  0
VERTEX
  8
SURFACE
 62
7
  6
CONTINUOUS
 10
444.5487748315
 20
148.4120695183
  0
VERTEX
  8
SURFACE
 62
7
  6
CONTINUOUS
 10
444.6290147611
 20
148.2566990368
  0
VERTEX
  8
SURFACE
 62
7
  6
CONTINUOUS
 10
444.727721034
 20
148.1038496098
  0
VERTEX
  8
SURFACE
 62
7
  6
CONTINUOUS
 10
444.8573444734
 20
147.9510168354
  0
VERTEX
  8
SURFACE
 62
7
  6
CONTINUOUS
 10
445.0265819272
 20
147.808382695
  0
VERTEX
  8
SURFACE
 62
7
  6
CONTINUOUS
 10
445.2354723332
 20
147.6939082911
  0
VERTEX
  8
SURFACE
 62
7
  6
CONTINUOUS
 10
445.4746085256
 20
147.6250338315
  0
VERTEX
  8
SURFACE
 62
7
  6
CONTINUOUS
 10
445.6521900473
 20
147.6102824371
  0
SEQEND
  0
LINE
  8
0
 62
7
  6
CONTINUOUS
 10
431.3579561084
 20
114.0662401655
 11
431.494252581
 21
112.9516336198
  0
LINE
  8
0
 62
7
  6
CONTINUOUS
 10
431.7854717629
 20
110.5291634827
 11
431.936827786
 21
109.2720158108
  0
LINE
  8
0
 62
7
  6
CONTINUOUS
 10
431.4942525788
 20
112.9516336224
 11
431.7854717629
 21
110.5291634827
  0
POLYLINE
  8
0
 62
7
  6
CONTINUOUS
 66
1
 70
0
  0
VERTEX
  8
0
 62
7
  6
CONTINUOUS
 10
431.66530687
 20
106.007453602
  0
VERTEX
  8
0
 62
7
  6
CONTINUOUS
 10
431.7748846805
 20
105.0193826806
  0
VERTEX
  8
0
 62
7
  6
CONTINUOUS
 10
431.8746898992
 20
104.1378585148
  0
VERTEX
  8
0
 62
7
  6
CONTINUOUS
 10
431.9620749173
 20
103.3877799865
  0
SEQEND
  0
POLYLINE
  8
SURFACE
 62
7
  6
CONTINUOUS
 66
1
 70
0
  0
VERTEX
  8
SURFACE
 62
7
  6
CONTINUOUS
 10
444.124466109
 20
110.0954462285
  0
VERTEX
  8
SURFACE
 62
7
  6
CONTINUOUS
 10
444.2558737892
 20
108.8641387658
  0
VERTEX
  8
SURFACE
 62
7
  6
CONTINUOUS
 10
444.3849440205
 20
107.6636609023
  0
VERTEX
  8
SURFACE
 62
7
  6
CONTINUOUS
 10
444.5653096688
 20
106.0074281574
  0
SEQEND
  0
POLYLINE
  8
0
 62
7
  6
CONTINUOUS
 66
1
 70
0
  0
VERTEX
  8
0
 62
7
  6
CONTINUOUS
 10
431.1805071894
 20
138.0104880023
  0
VERTEX
  8
0
 62
7
  6
CONTINUOUS
 10
431.1868444171
 20
137.8447880135
  0
VERTEX
  8
0
 62
7
  6
CONTINUOUS
 10
431.2095446113
 20
137.6521851942
  0
VERTEX
  8
0
 62
7
  6
CONTINUOUS
 10
431.2450600075
 20
137.471560118
  0
SEQEND
  0
POLYLINE
  8
0
 62
7
  6
CONTINUOUS
 66
1
 70
0
  0
VERTEX
  8
0
 62
7
  6
CONTINUOUS
 10
431.1805071881
 20
115.8100911587
  0
VERTEX
  8
0
 62
7
  6
CONTINUOUS
 10
431.1854327264
 20
115.5794452741
  0
VERTEX
  8
0
 62
7
  6
CONTINUOUS
 10
431.2022221479
 20
115.3241586715
  0
SEQEND
  0
POLYLINE
  8
0
 62
7
  6
CONTINUOUS
 66
1
 70
0
  0
VERTEX
  8
0
 62
7
  6
CONTINUOUS
 10
431.1805071917
 20
110.9252201968
  0
VERTEX
  8
0
 62
7
  6
CONTINUOUS
 10
431.1849699098
 20
110.6602664743
  0
VERTEX
  8
0
 62
7
  6
CONTINUOUS
 10
431.2005808739
 20
110.363828044
  0
VERTEX
  8
0
 62
7
  6
CONTINUOUS
 10
431.2244661326
 20
110.0954464306
  0
SEQEND
  0
LINE
  8
0
 62
7
  6
CONTINUOUS
 10
431.1805071721
 20
110.9252201883
 11
431.1805071721
 21
355.9408274551
  0
POLYLINE
  8
SURFACE
 62
7
  6
CONTINUOUS
 66
1
 70
0
  0
VERTEX
  8
SURFACE
 62
7
  6
CONTINUOUS
 10
444.1244661094
 20
356.7706014191
  0
VERTEX
  8
SURFACE
 62
7
  6
CONTINUOUS
 10
444.1005804131
 20
356.5022129813
  0
VERTEX
  8
SURFACE
 62
7
  6
CONTINUOUS
 10
444.0849696916
 20
356.2057746398
  0
VERTEX
  8
SURFACE
 62
7
  6
CONTINUOUS
 10
444.0805071721
 20
355.9408273723
  0
SEQEND
  0
LINE
  8
0
 62
7
  6
CONTINUOUS
 10
431.2009913974
 20
275.8906242122
 11
431.1805071938
 21
275.6739978853
  0
POLYLINE
  8
SURFACE
 62
7
  6
CONTINUOUS
 66
1
 70
0
  0
VERTEX
  8
SURFACE
 62
7
  6
CONTINUOUS
 10
444.3849440205
 20
359.2023867412
  0
VERTEX
  8
SURFACE
 62
7
  6
CONTINUOUS
 10
444.2558737892
 20
358.0019088777
  0
VERTEX
  8
SURFACE
 62
7
  6
CONTINUOUS
 10
444.124466109
 20
356.7706014149
  0
SEQEND
  0
POLYLINE
  8
SURFACE
 62
7
  6
CONTINUOUS
 66
1
 70
0
  0
VERTEX
  8
SURFACE
 62
7
  6
CONTINUOUS
 10
444.1271540121
 20
351.7700414526
  0
VERTEX
  8
SURFACE
 62
7
  6
CONTINUOUS
 10
444.1022271266
 20
351.5419447456
  0
VERTEX
  8
SURFACE
 62
7
  6
CONTINUOUS
 10
444.0854350577
 20
351.2866571666
  0
VERTEX
  8
SURFACE
 62
7
  6
CONTINUOUS
 10
444.0805071722
 20
351.0559374272
  0
SEQEND
  0
POLYLINE
  8
SURFACE
 62
7
  6
CONTINUOUS
 66
1
 70
0
  0
VERTEX
  8
SURFACE
 62
7
  6
CONTINUOUS
 10
444.7746931124
 20
362.7282171427
  0
VERTEX
  8
SURFACE
 62
7
  6
CONTINUOUS
 10
444.6748889921
 20
361.8467034758
  0
VERTEX
  8
SURFACE
 62
7
  6
CONTINUOUS
 10
444.5653096688
 20
360.8586194861
  0
VERTEX
  8
SURFACE
 62
7
  6
CONTINUOUS
 10
444.3849440205
 20
359.2023867412
  0
SEQEND
  0
POLYLINE
  8
SURFACE
 62
7
  6
CONTINUOUS
 66
1
 70
0
  0
VERTEX
  8
SURFACE
 62
7
  6
CONTINUOUS
 10
444.1095501274
 20
329.2138970236
  0
VERTEX
  8
SURFACE
 62
7
  6
CONTINUOUS
 10
444.0868470013
 20
329.0212937971
  0
VERTEX
  8
SURFACE
 62
7
  6
CONTINUOUS
 10
444.080507173
 20
328.8555771379
  0
SEQEND
  0
POLYLINE
  8
SURFACE
 62
7
  6
CONTINUOUS
 66
1
 70
0
  0
VERTEX
  8
SURFACE
 62
7
  6
CONTINUOUS
 10
444.3918998501
 20
353.8951738535
  0
VERTEX
  8
SURFACE
 62
7
  6
CONTINUOUS
 10
444.2579564761
 20
352.7998104288
  0
VERTEX
  8
SURFACE
 62
7
  6
CONTINUOUS
 10
444.127153916
 20
351.7700407112
  0
SEQEND
  0
LINE
  8
SURFACE
 62
7
  6
CONTINUOUS
 10
444.8421686482
 20
357.6364516715
 11
444.3918998501
 21
353.8951738535
  0
POLYLINE
  8
0
 62
7
  6
CONTINUOUS
 66
1
 70
0
  0
VERTEX
  8
0
 62
7
  6
CONTINUOUS
 10
440.6805071721
 20
331.9253162993
  0
VERTEX
  8
0
 62
7
  6
CONTINUOUS
 10
440.6397772252
 20
331.6428256531
  0
VERTEX
  8
0
 62
7
  6
CONTINUOUS
 10
440.5473069126
 20
331.4266598946
  0
VERTEX
  8
0
 62
7
  6
CONTINUOUS
 10
440.4286220931
 20
331.261747113
  0
VERTEX
  8
0
 62
7
  6
CONTINUOUS
 10
440.2970316404
 20
331.1379805513
  0
VERTEX
  8
0
 62
7
  6
CONTINUOUS
 10
440.1608753398
 20
331.0482493558
  0
VERTEX
  8
0
 62
7
  6
CONTINUOUS
 10
440.0264706547
 20
330.987068321
  0
VERTEX
  8
0
 62
7
  6
CONTINUOUS
 10
439.9006786512
 20
330.9498551162
  0
VERTEX
  8
0
 62
7
  6
CONTINUOUS
 10
439.7870250962
 20
330.931005517
  0
VERTEX
  8
0
 62
7
  6
CONTINUOUS
 10
439.6805071721
 20
330.9253162993
  0
SEQEND
  0
LINE
  8
SURFACE
 62
7
  6
CONTINUOUS
 10
444.8413228811
 20
333.1639851009
 11
444.4023574821
 21
330.6816751239
  0
POLYLINE
  8
SURFACE
 62
7
  6
CONTINUOUS
 66
1
 70
0
  0
VERTEX
  8
SURFACE
 62
7
  6
CONTINUOUS
 10
444.4023567371
 20
330.6816709054
  0
VERTEX
  8
SURFACE
 62
7
  6
CONTINUOUS
 10
444.2679870712
 20
329.9653571428
  0
VERTEX
  8
SURFACE
 62
7
  6
CONTINUOUS
 10
444.1450668191
 20
329.3945168568
  0
SEQEND
  0
POLYLINE
  8
SURFACE
 62
7
  6
CONTINUOUS
 66
1
 70
0
  0
VERTEX
  8
SURFACE
 62
7
  6
CONTINUOUS
 10
444.127476811
 20
121.4496090378
  0
VERTEX
  8
SURFACE
 62
7
  6
CONTINUOUS
 10
444.2582103739
 20
120.4918140765
  0
VERTEX
  8
SURFACE
 62
7
  6
CONTINUOUS
 10
444.3856303494
 20
119.6236170897
  0
VERTEX
  8
SURFACE
 62
7
  6
CONTINUOUS
 10
444.5097987202
 20
118.8497612558
  0
VERTEX
  8
SURFACE
 62
7
  6
CONTINUOUS
 10
444.5715253237
 20
118.4960000507
  0
VERTEX
  8
SURFACE
 62
7
  6
CONTINUOUS
 10
444.6930227245
 20
117.8718999058
  0
VERTEX
  8
SURFACE
 62
7
  6
CONTINUOUS
 10
444.8090728902
 20
117.3855310937
  0
SEQEND
  0
POLYLINE
  8
SURFACE
 62
7
  6
CONTINUOUS
 66
1
 70
0
  0
VERTEX
  8
SURFACE
 62
7
  6
CONTINUOUS
 10
444.8669701417
 20
103.3474788806
  0
VERTEX
  8
SURFACE
 62
7
  6
CONTINUOUS
 10
444.8702116472
 20
103.3222895771
  0
VERTEX
  8
SURFACE
 62
7
  6
CONTINUOUS
 10
444.8735598223
 20
103.2982438736
  0
VERTEX
  8
SURFACE
 62
7
  6
CONTINUOUS
 10
444.8780106947
 20
103.2700003002
  0
VERTEX
  8
SURFACE
 62
7
  6
CONTINUOUS
 10
444.8844753015
 20
103.2353207504
  0
VERTEX
  8
SURFACE
 62
7
  6
CONTINUOUS
 10
444.8935790967
 20
103.1948218944
  0
VERTEX
  8
SURFACE
 62
7
  6
CONTINUOUS
 10
444.905620278
 20
103.1503240657
  0
VERTEX
  8
SURFACE
 62
7
  6
CONTINUOUS
 10
444.9207410725
 20
103.1033912848
  0
VERTEX
  8
SURFACE
 62
7
  6
CONTINUOUS
 10
444.9390980042
 20
103.054929753
  0
VERTEX
  8
SURFACE
 62
7
  6
CONTINUOUS
 10
444.9607211129
 20
103.0058186893
  0
VERTEX
  8
SURFACE
 62
7
  6
CONTINUOUS
 10
444.9859737775
 20
102.9560364909
  0
VERTEX
  8
SURFACE
 62
7
  6
CONTINUOUS
 10
445.0153413971
 20
102.9055140905
  0
VERTEX
  8
SURFACE
 62
7
  6
CONTINUOUS
 10
445.0317390162
 20
102.8799829654
  0
VERTEX
  8
SURFACE
 62
7
  6
CONTINUOUS
 10
445.0683229849
 20
102.8284841176
  0
VERTEX
  8
SURFACE
 62
7
  6
CONTINUOUS
 10
445.1104722709
 20
102.776643149
  0
VERTEX
  8
SURFACE
 62
7
  6
CONTINUOUS
 10
445.1588019818
 20
102.724915431
  0
VERTEX
  8
SURFACE
 62
7
  6
CONTINUOUS
 10
445.2137604318
 20
102.6740734626
  0
VERTEX
  8
SURFACE
 62
7
  6
CONTINUOUS
 10
445.27568181
 20
102.6250584477
  0
VERTEX
  8
SURFACE
 62
7
  6
CONTINUOUS
 10
445.3447857822
 20
102.5789358612
  0
VERTEX
  8
SURFACE
 62
7
  6
CONTINUOUS
 10
445.4211527728
 20
102.5368801348
  0
VERTEX
  8
SURFACE
 62
7
  6
CONTINUOUS
 10
445.5047257979
 20
102.5001461042
  0
VERTEX
  8
SURFACE
 62
7
  6
CONTINUOUS
 10
445.5955956501
 20
102.4699746257
  0
VERTEX
  8
SURFACE
 62
7
  6
CONTINUOUS
 10
445.6939594327
 20
102.4477465279
  0
VERTEX
  8
SURFACE
 62
7
  6
CONTINUOUS
 10
445.7997994761
 20
102.4351467869
  0
VERTEX
  8
SURFACE
 62
7
  6
CONTINUOUS
 10
445.8649264688
 20
102.4330238519
  0
SEQEND
  0
LINE
  8
SURFACE
 62
7
  6
CONTINUOUS
 10
444.8620741414
 20
103.3877865177
 11
444.8669701417
 21
103.3474788806
  0
LINE
  8
SURFACE
 62
7
  6
CONTINUOUS
 10
444.7746931124
 20
104.1378305008
 11
444.862074925
 21
103.3877799136
  0
POLYLINE
  8
SURFACE
 62
7
  6
CONTINUOUS
 66
1
 70
0
  0
VERTEX
  8
SURFACE
 62
7
  6
CONTINUOUS
 10
444.5653096688
 20
106.0074281574
  0
VERTEX
  8
SURFACE
 62
7
  6
CONTINUOUS
 10
444.6748889921
 20
105.0193441677
  0
VERTEX
  8
SURFACE
 62
7
  6
CONTINUOUS
 10
444.7746931124
 20
104.1378305008
  0
SEQEND
  0
LINE
  8
SURFACE
 62
7
  6
CONTINUOUS
 10
444.1020088351
 20
121.6808425784
 11
444.1274768124
 21
121.4496090268
  0
POLYLINE
  8
SURFACE
 62
7
  6
CONTINUOUS
 66
1
 70
0
  0
VERTEX
  8
SURFACE
 62
7
  6
CONTINUOUS
 10
444.0805071742
 20
191.1920460246
  0
VERTEX
  8
SURFACE
 62
7
  6
CONTINUOUS
 10
444.1009965151
 20
190.9753966839
  0
VERTEX
  8
SURFACE
 62
7
  6
CONTINUOUS
 10
444.1758340517
 20
190.7351701088
  0
VERTEX
  8
SURFACE
 62
7
  6
CONTINUOUS
 10
444.3032235884
 20
190.5172296828
  0
VERTEX
  8
SURFACE
 62
7
  6
CONTINUOUS
 10
444.4508640401
 20
190.3559735538
  0
SEQEND
  0
POLYLINE
  8
SURFACE
 62
7
  6
CONTINUOUS
 66
1
 70
0
  0
VERTEX
  8
SURFACE
 62
7
  6
CONTINUOUS
 10
444.0805071728
 20
150.3588153337
  0
VERTEX
  8
SURFACE
 62
7
  6
CONTINUOUS
 10
444.0870385806
 20
150.1639048362
  0
VERTEX
  8
SURFACE
 62
7
  6
CONTINUOUS
 10
444.1091789324
 20
149.9553715445
  0
VERTEX
  8
SURFACE
 62
7
  6
CONTINUOUS
 10
444.1418658887
 20
149.7752710379
  0
SEQEND
  0
POLYLINE
  8
0
 62
7
  6
CONTINUOUS
 66
1
 70
0
  0
VERTEX
  8
0
 62
7
  6
CONTINUOUS
 10
440.6805071715
 20
316.5072323097
  0
VERTEX
  8
0
 62
7
  6
CONTINUOUS
 10
440.6739757636
 20
316.7021428073
  0
VERTEX
  8
0
 62
7
  6
CONTINUOUS
 10
440.6518354119
 20
316.9106760989
  0
VERTEX
  8
0
 62
7
  6
CONTINUOUS
 10
440.6191484556
 20
317.0907766056
  0
SEQEND
  0
POLYLINE
  8
SURFACE
 62
7
  6
CONTINUOUS
 66
1
 70
0
  0
VERTEX
  8
SURFACE
 62
7
  6
CONTINUOUS
 10
444.0805071721
 20
122.1728216068
  0
VERTEX
  8
SURFACE
 62
7
  6
CONTINUOUS
 10
444.0853009395
 20
121.9392226568
  0
VERTEX
  8
SURFACE
 62
7
  6
CONTINUOUS
 10
444.1020088351
 20
121.6808425784
  0
SEQEND
  0
POLYLINE
  8
0
 62
7
  6
CONTINUOUS
 66
1
 70
0
  0
VERTEX
  8
0
 62
7
  6
CONTINUOUS
 10
440.6805071721
 20
344.6932260366
  0
VERTEX
  8
0
 62
7
  6
CONTINUOUS
 10
440.6757134048
 20
344.9268249866
  0
VERTEX
  8
0
 62
7
  6
CONTINUOUS
 10
440.6590055091
 20
345.185205065
  0
SEQEND
  0
POLYLINE
  8
SURFACE
 62
7
  6
CONTINUOUS
 66
1
 70
0
  0
VERTEX
  8
SURFACE
 62
7
  6
CONTINUOUS
 10
444.0805071721
 20
110.9252202711
  0
VERTEX
  8
SURFACE
 62
7
  6
CONTINUOUS
 10
444.0849696916
 20
110.6602730037
  0
VERTEX
  8
SURFACE
 62
7
  6
CONTINUOUS
 10
444.1005804131
 20
110.3638346622
  0
VERTEX
  8
SURFACE
 62
7
  6
CONTINUOUS
 10
444.1244661094
 20
110.0954462243
  0
SEQEND
  0
POLYLINE
  8
0
 62
7
  6
CONTINUOUS
 66
1
 70
0
  0
VERTEX
  8
0
 62
7
  6
CONTINUOUS
 10
440.6805071721
 20
355.9408273723
  0
VERTEX
  8
0
 62
7
  6
CONTINUOUS
 10
440.6760446527
 20
356.2057746398
  0
VERTEX
  8
0
 62
7
  6
CONTINUOUS
 10
440.6604339311
 20
356.5022129813
  0
VERTEX
  8
0
 62
7
  6
CONTINUOUS
 10
440.6365482348
 20
356.7706014191
  0
SEQEND
  0
LINE
  8
0
 62
7
  6
CONTINUOUS
 10
440.6805071721
 20
355.9408274552
 11
440.6805071721
 21
348.4330238217
  0
LINE
  8
0
 62
7
  6
CONTINUOUS
 10
440.6805071721
 20
344.6932368976
 11
440.6805071721
 21
331.9253162993
  0
LINE
  8
0
 62
7
  6
CONTINUOUS
 10
440.6805071721
 20
316.5072874755
 11
440.6805071721
 21
300.4230500821
  0
LINE
  8
0
 62
7
  6
CONTINUOUS
 10
440.6805071721
 20
275.6740344822
 11
440.6805071721
 21
258.7221596328
  0
LINE
  8
0
 62
7
  6
CONTINUOUS
 10
440.6805071721
 20
230.0330238217
 11
440.6805071721
 21
213.1712275028
  0
LINE
  8
0
 62
7
  6
CONTINUOUS
 10
440.6805071721
 20
186.2832386892
 11
440.6805071721
 21
170.7049701888
  0
LINE
  8
0
 62
7
  6
CONTINUOUS
 10
440.6805071721
 20
149.7115809292
 11
440.6805071721
 21
137.7884904091
  0
LINE
  8
0
 62
7
  6
CONTINUOUS
 10
440.6805071721
 20
125.8857539129
 11
440.6805071721
 21
110.9252201882
  0
POLYLINE
  8
0
 62
7
  6
CONTINUOUS
 66
1
 70
0
  0
VERTEX
  8
0
 62
7
  6
CONTINUOUS
 10
440.6805071721
 20
213.1712275028
  0
VERTEX
  8
0
 62
7
  6
CONTINUOUS
 10
440.6397772252
 20
212.4330438702
  0
VERTEX
  8
0
 62
7
  6
CONTINUOUS
 10
440.5473069126
 20
211.8681755216
  0
VERTEX
  8
0
 62
7
  6
CONTINUOUS
 10
440.4286220931
 20
211.4372376558
  0
VERTEX
  8
0
 62
7
  6
CONTINUOUS
 10
440.2970316404
 20
211.1138200443
  0
VERTEX
  8
0
 62
7
  6
CONTINUOUS
 10
440.1608753398
 20
210.8793411305
  0
VERTEX
  8
0
 62
7
  6
CONTINUOUS
 10
440.0264706547
 20
210.7194673822
  0
VERTEX
  8
0
 62
7
  6
CONTINUOUS
 10
439.9006786512
 20
210.6222245917
  0
VERTEX
  8
0
 62
7
  6
CONTINUOUS
 10
439.7870250962
 20
210.5729682153
  0
VERTEX
  8
0
 62
7
  6
CONTINUOUS
 10
439.6805071721
 20
210.5581015731
  0
SEQEND
  0
POLYLINE
  8
SURFACE
 62
7
  6
CONTINUOUS
 66
1
 70
0
  0
VERTEX
  8
SURFACE
 62
7
  6
CONTINUOUS
 10
444.0805071721
 20
253.6948201406
  0
VERTEX
  8
SURFACE
 62
7
  6
CONTINUOUS
 10
444.121237119
 20
254.4330037732
  0
VERTEX
  8
SURFACE
 62
7
  6
CONTINUOUS
 10
444.2137074317
 20
254.9978721219
  0
VERTEX
  8
SURFACE
 62
7
  6
CONTINUOUS
 10
444.3323922512
 20
255.4288099876
  0
VERTEX
  8
SURFACE
 62
7
  6
CONTINUOUS
 10
444.4639827039
 20
255.7522275991
  0
VERTEX
  8
SURFACE
 62
7
  6
CONTINUOUS
 10
444.6001390045
 20
255.986706513
  0
VERTEX
  8
SURFACE
 62
7
  6
CONTINUOUS
 10
444.7345436896
 20
256.1465802612
  0
VERTEX
  8
SURFACE
 62
7
  6
CONTINUOUS
 10
444.8603356931
 20
256.2438230517
  0
VERTEX
  8
SURFACE
 62
7
  6
CONTINUOUS
 10
444.9739892481
 20
256.2930794282
  0
VERTEX
  8
SURFACE
 62
7
  6
CONTINUOUS
 10
445.0805071721
 20
256.3079460704
  0
SEQEND
  0
POLYLINE
  8
0
 62
7
  6
CONTINUOUS
 66
1
 70
0
  0
VERTEX
  8
0
 62
7
  6
CONTINUOUS
 10
440.6805071721
 20
258.7221596328
  0
VERTEX
  8
0
 62
7
  6
CONTINUOUS
 10
440.6397772252
 20
258.0401668834
  0
VERTEX
  8
0
 62
7
  6
CONTINUOUS
 10
440.5473069126
 20
257.5182965775
  0
VERTEX
  8
0
 62
7
  6
CONTINUOUS
 10
440.4286220931
 20
257.1201619035
  0
VERTEX
  8
0
 62
7
  6
CONTINUOUS
 10
440.2970316404
 20
256.8213629918
  0
VERTEX
  8
0
 62
7
  6
CONTINUOUS
 10
440.1608753398
 20
256.6047327225
  0
VERTEX
  8
0
 62
7
  6
CONTINUOUS
 10
440.0264706547
 20
256.4570286387
  0
VERTEX
  8
0
 62
7
  6
CONTINUOUS
 10
439.9006786512
 20
256.3671880149
  0
VERTEX
  8
0
 62
7
  6
CONTINUOUS
 10
439.7870250962
 20
256.3216810568
  0
VERTEX
  8
0
 62
7
  6
CONTINUOUS
 10
439.6805071721
 20
256.3079460704
  0
SEQEND
  0
POLYLINE
  8
SURFACE
 62
7
  6
CONTINUOUS
 66
1
 70
0
  0
VERTEX
  8
SURFACE
 62
7
  6
CONTINUOUS
 10
444.0805071721
 20
296.1610774547
  0
VERTEX
  8
SURFACE
 62
7
  6
CONTINUOUS
 10
444.121237119
 20
296.843070204
  0
VERTEX
  8
SURFACE
 62
7
  6
CONTINUOUS
 10
444.2137074317
 20
297.3649405099
  0
VERTEX
  8
SURFACE
 62
7
  6
CONTINUOUS
 10
444.3323922512
 20
297.7630751839
  0
VERTEX
  8
SURFACE
 62
7
  6
CONTINUOUS
 10
444.4639827039
 20
298.0618740956
  0
VERTEX
  8
SURFACE
 62
7
  6
CONTINUOUS
 10
444.6001390045
 20
298.2785043649
  0
VERTEX
  8
SURFACE
 62
7
  6
CONTINUOUS
 10
444.7345436896
 20
298.4262084487
  0
VERTEX
  8
SURFACE
 62
7
  6
CONTINUOUS
 10
444.8603356931
 20
298.5160490725
  0
VERTEX
  8
SURFACE
 62
7
  6
CONTINUOUS
 10
444.9739892481
 20
298.5615560306
  0
VERTEX
  8
SURFACE
 62
7
  6
CONTINUOUS
 10
445.0805071721
 20
298.575291017
  0
SEQEND
  0
POLYLINE
  8
0
 62
7
  6
CONTINUOUS
 66
1
 70
0
  0
VERTEX
  8
0
 62
7
  6
CONTINUOUS
 10
440.6805071721
 20
300.4230500821
  0
VERTEX
  8
0
 62
7
  6
CONTINUOUS
 10
440.6397772252
 20
299.9010754297
  0
VERTEX
  8
0
 62
7
  6
CONTINUOUS
 10
440.5473069126
 20
299.5016531899
  0
VERTEX
  8
0
 62
7
  6
CONTINUOUS
 10
440.4286220931
 20
299.1969341027
  0
VERTEX
  8
0
 62
7
  6
CONTINUOUS
 10
440.2970316404
 20
298.9682433165
  0
VERTEX
  8
0
 62
7
  6
CONTINUOUS
 10
440.1608753398
 20
298.8024416865
  0
VERTEX
  8
0
 62
7
  6
CONTINUOUS
 10
440.0264706547
 20
298.689393875
  0
VERTEX
  8
0
 62
7
  6
CONTINUOUS
 10
439.9006786512
 20
298.6206328383
  0
VERTEX
  8
0
 62
7
  6
CONTINUOUS
 10
439.7870250962
 20
298.5858033206
  0
VERTEX
  8
0
 62
7
  6
CONTINUOUS
 10
439.6805071721
 20
298.575291017
  0
SEQEND
  0
POLYLINE
  8
SURFACE
 62
7
  6
CONTINUOUS
 66
1
 70
0
  0
VERTEX
  8
SURFACE
 62
7
  6
CONTINUOUS
 10
444.0805071721
 20
329.0775572343
  0
VERTEX
  8
SURFACE
 62
7
  6
CONTINUOUS
 10
444.121237119
 20
329.5995318867
  0
VERTEX
  8
SURFACE
 62
7
  6
CONTINUOUS
 10
444.2137074317
 20
329.9989541265
  0
VERTEX
  8
SURFACE
 62
7
  6
CONTINUOUS
 10
444.3305747045
 20
330.2990067265
  0
SEQEND
  0
LINE
  8
DEFAULT_1
 62
2
  6
CENTER
 10
415.2805071721
 20
233.4330238217
 11
469.4805071721
 21
233.4330238217
  0
POLYLINE
  8
0
 62
7
  6
CONTINUOUS
 66
1
 70
0
  0
VERTEX
  8
0
 62
7
  6
CONTINUOUS
 10
439.6805071721
 20
232.0330238217
  0
VERTEX
  8
0
 62
7
  6
CONTINUOUS
 10
440.0892055661
 20
231.5137761882
  0
VERTEX
  8
0
 62
7
  6
CONTINUOUS
 10
440.382107023
 20
231.0609631857
  0
VERTEX
  8
0
 62
7
  6
CONTINUOUS
 10
440.5612178615
 20
230.6706451396
  0
VERTEX
  8
0
 62
7
  6
CONTINUOUS
 10
440.6526676286
 20
230.334988658
  0
VERTEX
  8
0
 62
7
  6
CONTINUOUS
 10
440.6805071721
 20
230.0330238217
  0
SEQEND
  0
POLYLINE
  8
0
 62
7
  6
CONTINUOUS
 66
1
 70
0
  0
VERTEX
  8
0
 62
7
  6
CONTINUOUS
 10
440.6805071701
 20
275.6740016189
  0
VERTEX
  8
0
 62
7
  6
CONTINUOUS
 10
440.6600178292
 20
275.8906509595
  0
VERTEX
  8
0
 62
7
  6
CONTINUOUS
 10
440.5851802926
 20
276.1308775347
  0
VERTEX
  8
0
 62
7
  6
CONTINUOUS
 10
440.4577907559
 20
276.3488179606
  0
VERTEX
  8
0
 62
7
  6
CONTINUOUS
 10
440.3101503042
 20
276.5100740897
  0
SEQEND
  0
LINE
  8
SURFACE
 62
7
  6
CONTINUOUS
 10
444.0805071721
 20
110.9252201882
 11
444.0805071721
 21
118.4330238217
  0
LINE
  8
SURFACE
 62
7
  6
CONTINUOUS
 10
444.0805071721
 20
122.1728107459
 11
444.0805071721
 21
134.9407313441
  0
LINE
  8
SURFACE
 62
7
  6
CONTINUOUS
 10
444.0805071721
 20
150.358760168
 11
444.0805071721
 21
166.4429975614
  0
LINE
  8
SURFACE
 62
7
  6
CONTINUOUS
 10
444.0805071721
 20
191.1920131613
 11
444.0805071721
 21
208.1438880107
  0
LINE
  8
SURFACE
 62
7
  6
CONTINUOUS
 10
444.0805071721
 20
236.8330238217
 11
444.0805071721
 21
253.6948201406
  0
LINE
  8
SURFACE
 62
7
  6
CONTINUOUS
 10
444.0805071721
 20
280.5828089542
 11
444.0805071721
 21
296.1610774547
  0
LINE
  8
SURFACE
 62
7
  6
CONTINUOUS
 10
444.0805071721
 20
317.1544667142
 11
444.0805071721
 21
329.0775572343
  0
LINE
  8
SURFACE
 62
7
  6
CONTINUOUS
 10
444.0805071721
 20
340.9802937306
 11
444.0805071721
 21
355.9408274552
  0
POLYLINE
  8
0
 62
7
  6
CONTINUOUS
 66
1
 70
0
  0
VERTEX
  8
0
 62
7
  6
CONTINUOUS
 10
440.6805071721
 20
170.7049701888
  0
VERTEX
  8
0
 62
7
  6
CONTINUOUS
 10
440.6397772252
 20
170.0229774394
  0
VERTEX
  8
0
 62
7
  6
CONTINUOUS
 10
440.5473069126
 20
169.5011071335
  0
VERTEX
  8
0
 62
7
  6
CONTINUOUS
 10
440.4286220931
 20
169.1029724596
  0
VERTEX
  8
0
 62
7
  6
CONTINUOUS
 10
440.2970316404
 20
168.8041735478
  0
VERTEX
  8
0
 62
7
  6
CONTINUOUS
 10
440.1608753398
 20
168.5875432785
  0
VERTEX
  8
0
 62
7
  6
CONTINUOUS
 10
440.0264706547
 20
168.4398391948
  0
VERTEX
  8
0
 62
7
  6
CONTINUOUS
 10
439.9006786512
 20
168.3499985709
  0
VERTEX
  8
0
 62
7
  6
CONTINUOUS
 10
439.7870250962
 20
168.3044916129
  0
VERTEX
  8
0
 62
7
  6
CONTINUOUS
 10
439.6805071721
 20
168.2907566264
  0
SEQEND
  0
POLYLINE
  8
SURFACE
 62
7
  6
CONTINUOUS
 66
1
 70
0
  0
VERTEX
  8
SURFACE
 62
7
  6
CONTINUOUS
 10
444.0805071721
 20
208.1438880107
  0
VERTEX
  8
SURFACE
 62
7
  6
CONTINUOUS
 10
444.121237119
 20
208.8258807601
  0
VERTEX
  8
SURFACE
 62
7
  6
CONTINUOUS
 10
444.2137074317
 20
209.347751066
  0
VERTEX
  8
SURFACE
 62
7
  6
CONTINUOUS
 10
444.3323922512
 20
209.7458857399
  0
VERTEX
  8
SURFACE
 62
7
  6
CONTINUOUS
 10
444.4639827039
 20
210.0446846516
  0
VERTEX
  8
SURFACE
 62
7
  6
CONTINUOUS
 10
444.6001390045
 20
210.2613149209
  0
VERTEX
  8
SURFACE
 62
7
  6
CONTINUOUS
 10
444.7345436896
 20
210.4090190047
  0
VERTEX
  8
SURFACE
 62
7
  6
CONTINUOUS
 10
444.8603356931
 20
210.4988596286
  0
VERTEX
  8
SURFACE
 62
7
  6
CONTINUOUS
 10
444.9739892481
 20
210.5443665866
  0
VERTEX
  8
SURFACE
 62
7
  6
CONTINUOUS
 10
445.0805071721
 20
210.5581015731
  0
SEQEND
  0
POLYLINE
  8
0
 62
7
  6
CONTINUOUS
 66
1
 70
0
  0
VERTEX
  8
0
 62
7
  6
CONTINUOUS
 10
440.6805071721
 20
137.7884904091
  0
VERTEX
  8
0
 62
7
  6
CONTINUOUS
 10
440.6397772252
 20
137.2665157568
  0
VERTEX
  8
0
 62
7
  6
CONTINUOUS
 10
440.5473069126
 20
136.867093517
  0
VERTEX
  8
0
 62
7
  6
CONTINUOUS
 10
440.4304396398
 20
136.5670409169
  0
SEQEND
  0
POLYLINE
  8
SURFACE
 62
7
  6
CONTINUOUS
 66
1
 70
0
  0
VERTEX
  8
SURFACE
 62
7
  6
CONTINUOUS
 10
444.0805071721
 20
166.4429975614
  0
VERTEX
  8
SURFACE
 62
7
  6
CONTINUOUS
 10
444.121237119
 20
166.9649722138
  0
VERTEX
  8
SURFACE
 62
7
  6
CONTINUOUS
 10
444.2137074317
 20
167.3643944536
  0
VERTEX
  8
SURFACE
 62
7
  6
CONTINUOUS
 10
444.3323922512
 20
167.6691135407
  0
VERTEX
  8
SURFACE
 62
7
  6
CONTINUOUS
 10
444.4639827039
 20
167.897804327
  0
VERTEX
  8
SURFACE
 62
7
  6
CONTINUOUS
 10
444.6001390045
 20
168.063605957
  0
VERTEX
  8
SURFACE
 62
7
  6
CONTINUOUS
 10
444.7345436896
 20
168.1766537685
  0
VERTEX
  8
SURFACE
 62
7
  6
CONTINUOUS
 10
444.8603356931
 20
168.2454148051
  0
VERTEX
  8
SURFACE
 62
7
  6
CONTINUOUS
 10
444.9739892481
 20
168.2802443229
  0
VERTEX
  8
SURFACE
 62
7
  6
CONTINUOUS
 10
445.0805071721
 20
168.2907566264
  0
SEQEND
  0
POLYLINE
  8
0
 62
7
  6
CONTINUOUS
 66
1
 70
0
  0
VERTEX
  8
0
 62
7
  6
CONTINUOUS
 10
440.6365482348
 20
110.0954462243
  0
VERTEX
  8
0
 62
7
  6
CONTINUOUS
 10
440.6604339311
 20
110.3638346622
  0
VERTEX
  8
0
 62
7
  6
CONTINUOUS
 10
440.6760446527
 20
110.6602730037
  0
VERTEX
  8
0
 62
7
  6
CONTINUOUS
 10
440.6805071721
 20
110.9252202711
  0
SEQEND
  0
POLYLINE
  8
0
 62
7
  6
CONTINUOUS
 66
1
 70
0
  0
VERTEX
  8
0
 62
7
  6
CONTINUOUS
 10
440.6514642168
 20
137.6521506199
  0
VERTEX
  8
0
 62
7
  6
CONTINUOUS
 10
440.6741673429
 20
137.8447538463
  0
VERTEX
  8
0
 62
7
  6
CONTINUOUS
 10
440.6805071712
 20
138.0104705056
  0
SEQEND
  0
POLYLINE
  8
SURFACE
 62
7
  6
CONTINUOUS
 66
1
 70
0
  0
VERTEX
  8
SURFACE
 62
7
  6
CONTINUOUS
 10
445.0805071721
 20
234.8330238217
  0
VERTEX
  8
SURFACE
 62
7
  6
CONTINUOUS
 10
444.6718087781
 20
235.3522714552
  0
VERTEX
  8
SURFACE
 62
7
  6
CONTINUOUS
 10
444.3789073213
 20
235.8050844577
  0
VERTEX
  8
SURFACE
 62
7
  6
CONTINUOUS
 10
444.1997964828
 20
236.1954025038
  0
VERTEX
  8
SURFACE
 62
7
  6
CONTINUOUS
 10
444.1083467157
 20
236.5310589855
  0
VERTEX
  8
SURFACE
 62
7
  6
CONTINUOUS
 10
444.0805071721
 20
236.8330238217
  0
SEQEND
  0
POLYLINE
  8
0
 62
7
  6
CONTINUOUS
 66
1
 70
0
  0
VERTEX
  8
0
 62
7
  6
CONTINUOUS
 10
440.6365482353
 20
356.7706014149
  0
VERTEX
  8
0
 62
7
  6
CONTINUOUS
 10
440.505140555
 20
358.0019088777
  0
VERTEX
  8
0
 62
7
  6
CONTINUOUS
 10
440.3760703238
 20
359.2023867412
  0
VERTEX
  8
0
 62
7
  6
CONTINUOUS
 10
440.1957046755
 20
360.8586194861
  0
SEQEND
  0
POLYLINE
  8
SURFACE
 62
7
  6
CONTINUOUS
 66
1
 70
0
  0
VERTEX
  8
SURFACE
 62
7
  6
CONTINUOUS
 10
453.5805071549
 20
328.8555596412
  0
VERTEX
  8
SURFACE
 62
7
  6
CONTINUOUS
 10
453.5741699272
 20
329.0212596299
  0
VERTEX
  8
SURFACE
 62
7
  6
CONTINUOUS
 10
453.5514697329
 20
329.2138624492
  0
VERTEX
  8
SURFACE
 62
7
  6
CONTINUOUS
 10
453.5159543368
 20
329.3944875254
  0
SEQEND
  0
POLYLINE
  8
SURFACE
 62
7
  6
CONTINUOUS
 66
1
 70
0
  0
VERTEX
  8
SURFACE
 62
7
  6
CONTINUOUS
 10
453.5805071562
 20
351.0559564848
  0
VERTEX
  8
SURFACE
 62
7
  6
CONTINUOUS
 10
453.5755816179
 20
351.2866023693
  0
VERTEX
  8
SURFACE
 62
7
  6
CONTINUOUS
 10
453.5587921963
 20
351.5418889719
  0
SEQEND
  0
POLYLINE
  8
SURFACE
 62
7
  6
CONTINUOUS
 66
1
 70
0
  0
VERTEX
  8
SURFACE
 62
7
  6
CONTINUOUS
 10
453.5805071526
 20
355.9408274466
  0
VERTEX
  8
SURFACE
 62
7
  6
CONTINUOUS
 10
453.5760444344
 20
356.2057811691
  0
VERTEX
  8
SURFACE
 62
7
  6
CONTINUOUS
 10
453.5604334704
 20
356.5022195995
  0
VERTEX
  8
SURFACE
 62
7
  6
CONTINUOUS
 10
453.5365482117
 20
356.7706012128
  0
SEQEND
  0
LINE
  8
SURFACE
 62
7
  6
CONTINUOUS
 10
453.5805071721
 20
110.9252201883
 11
453.5805071721
 21
355.9408274551
  0
LINE
  8
SURFACE
 62
7
  6
CONTINUOUS
 10
453.5600229469
 20
190.9754234312
 11
453.5805071505
 21
191.1920497582
  0
POLYLINE
  8
0
 62
7
  6
CONTINUOUS
 66
1
 70
0
  0
VERTEX
  8
0
 62
7
  6
CONTINUOUS
 10
440.3760703238
 20
107.6636609023
  0
VERTEX
  8
0
 62
7
  6
CONTINUOUS
 10
440.505140555
 20
108.8641387658
  0
VERTEX
  8
0
 62
7
  6
CONTINUOUS
 10
440.6365482353
 20
110.0954462285
  0
SEQEND
  0
POLYLINE
  8
0
 62
7
  6
CONTINUOUS
 66
1
 70
0
  0
VERTEX
  8
0
 62
7
  6
CONTINUOUS
 10
440.6338603322
 20
115.0960061908
  0
VERTEX
  8
0
 62
7
  6
CONTINUOUS
 10
440.6587872176
 20
115.3241028978
  0
VERTEX
  8
0
 62
7
  6
CONTINUOUS
 10
440.6755792866
 20
115.5793904768
  0
VERTEX
  8
0
 62
7
  6
CONTINUOUS
 10
440.6805071721
 20
115.8101102163
  0
SEQEND
  0
POLYLINE
  8
0
 62
7
  6
CONTINUOUS
 66
1
 70
0
  0
VERTEX
  8
0
 62
7
  6
CONTINUOUS
 10
439.9863212319
 20
104.1378305008
  0
VERTEX
  8
0
 62
7
  6
CONTINUOUS
 10
440.0861253521
 20
105.0193441677
  0
VERTEX
  8
0
 62
7
  6
CONTINUOUS
 10
440.1957046755
 20
106.0074281574
  0
VERTEX
  8
0
 62
7
  6
CONTINUOUS
 10
440.3760703238
 20
107.6636609023
  0
SEQEND
  0
POLYLINE
  8
0
 62
7
  6
CONTINUOUS
 66
1
 70
0
  0
VERTEX
  8
0
 62
7
  6
CONTINUOUS
 10
440.3691144941
 20
112.9708737899
  0
VERTEX
  8
0
 62
7
  6
CONTINUOUS
 10
440.5030578682
 20
114.0662372146
  0
VERTEX
  8
0
 62
7
  6
CONTINUOUS
 10
440.6338604283
 20
115.0960069323
  0
SEQEND
  0
LINE
  8
0
 62
7
  6
CONTINUOUS
 10
439.918845696
 20
109.2295959719
 11
440.3691144941
 21
112.9708737899
  0
POLYLINE
  8
SURFACE
 62
7
  6
CONTINUOUS
 66
1
 70
0
  0
VERTEX
  8
SURFACE
 62
7
  6
CONTINUOUS
 10
444.0805071721
 20
134.9407313441
  0
VERTEX
  8
SURFACE
 62
7
  6
CONTINUOUS
 10
444.121237119
 20
135.2232219904
  0
VERTEX
  8
SURFACE
 62
7
  6
CONTINUOUS
 10
444.2137074317
 20
135.4393877489
  0
VERTEX
  8
SURFACE
 62
7
  6
CONTINUOUS
 10
444.3323922512
 20
135.6043005305
  0
VERTEX
  8
SURFACE
 62
7
  6
CONTINUOUS
 10
444.4639827039
 20
135.7280670921
  0
VERTEX
  8
SURFACE
 62
7
  6
CONTINUOUS
 10
444.6001390045
 20
135.8177982877
  0
VERTEX
  8
SURFACE
 62
7
  6
CONTINUOUS
 10
444.7345436896
 20
135.8789793224
  0
VERTEX
  8
SURFACE
 62
7
  6
CONTINUOUS
 10
444.8603356931
 20
135.9161925273
  0
VERTEX
  8
SURFACE
 62
7
  6
CONTINUOUS
 10
444.9739892481
 20
135.9350421265
  0
VERTEX
  8
SURFACE
 62
7
  6
CONTINUOUS
 10
445.0805071721
 20
135.9407313441
  0
SEQEND
  0
LINE
  8
0
 62
7
  6
CONTINUOUS
 10
439.9196914631
 20
133.7020625426
 11
440.3586568621
 21
136.1843725195
  0
POLYLINE
  8
0
 62
7
  6
CONTINUOUS
 66
1
 70
0
  0
VERTEX
  8
0
 62
7
  6
CONTINUOUS
 10
440.3586576072
 20
136.1843767381
  0
VERTEX
  8
0
 62
7
  6
CONTINUOUS
 10
440.4930272731
 20
136.9006905007
  0
VERTEX
  8
0
 62
7
  6
CONTINUOUS
 10
440.6159475252
 20
137.4715307866
  0
SEQEND
  0
LINE
  8
0
 62
7
  6
CONTINUOUS
 10
440.6159535178
 20
137.4715564429
 11
440.6514642168
 21
137.6521506199
  0
POLYLINE
  8
0
 62
7
  6
CONTINUOUS
 66
1
 70
0
  0
VERTEX
  8
0
 62
7
  6
CONTINUOUS
 10
440.6191444929
 20
317.0907947559
  0
VERTEX
  8
0
 62
7
  6
CONTINUOUS
 10
440.5494346668
 20
317.3957801449
  0
VERTEX
  8
0
 62
7
  6
CONTINUOUS
 10
440.480347498
 20
317.6693327294
  0
VERTEX
  8
0
 62
7
  6
CONTINUOUS
 10
440.4140203751
 20
317.9044273176
  0
VERTEX
  8
0
 62
7
  6
CONTINUOUS
 10
440.3489361861
 20
318.10857816
  0
VERTEX
  8
0
 62
7
  6
CONTINUOUS
 10
440.2828460746
 20
318.2892450843
  0
VERTEX
  8
0
 62
7
  6
CONTINUOUS
 10
440.2122395128
 20
318.4539781251
  0
VERTEX
  8
0
 62
7
  6
CONTINUOUS
 10
440.1319995831
 20
318.6093486066
  0
VERTEX
  8
0
 62
7
  6
CONTINUOUS
 10
440.0332933103
 20
318.7621980336
  0
VERTEX
  8
0
 62
7
  6
CONTINUOUS
 10
439.9036698708
 20
318.915030808
  0
VERTEX
  8
0
 62
7
  6
CONTINUOUS
 10
439.7344324171
 20
319.0576649484
  0
VERTEX
  8
0
 62
7
  6
CONTINUOUS
 10
439.525542011
 20
319.1721393523
  0
VERTEX
  8
0
 62
7
  6
CONTINUOUS
 10
439.2864058187
 20
319.241013812
  0
VERTEX
  8
0
 62
7
  6
CONTINUOUS
 10
439.1088242969
 20
319.2557652063
  0
SEQEND
  0
POLYLINE
  8
0
 62
7
  6
CONTINUOUS
 66
1
 70
0
  0
VERTEX
  8
0
 62
7
  6
CONTINUOUS
 10
440.6335375333
 20
345.4164386056
  0
VERTEX
  8
0
 62
7
  6
CONTINUOUS
 10
440.5028039704
 20
346.3742335669
  0
VERTEX
  8
0
 62
7
  6
CONTINUOUS
 10
440.3753839948
 20
347.2424305537
  0
VERTEX
  8
0
 62
7
  6
CONTINUOUS
 10
440.2512156241
 20
348.0162863876
  0
VERTEX
  8
0
 62
7
  6
CONTINUOUS
 10
440.1894890206
 20
348.3700475928
  0
VERTEX
  8
0
 62
7
  6
CONTINUOUS
 10
440.0679916197
 20
348.9941477376
  0
VERTEX
  8
0
 62
7
  6
CONTINUOUS
 10
439.9519414541
 20
349.4805165498
  0
SEQEND
  0
POLYLINE
  8
0
 62
7
  6
CONTINUOUS
 66
1
 70
0
  0
VERTEX
  8
0
 62
7
  6
CONTINUOUS
 10
439.8940442025
 20
363.5185687629
  0
VERTEX
  8
0
 62
7
  6
CONTINUOUS
 10
439.8908026971
 20
363.5437580664
  0
VERTEX
  8
0
 62
7
  6
CONTINUOUS
 10
439.8874545219
 20
363.5678037698
  0
VERTEX
  8
0
 62
7
  6
CONTINUOUS
 10
439.8830036496
 20
363.5960473432
  0
VERTEX
  8
0
 62
7
  6
CONTINUOUS
 10
439.8765390427
 20
363.6307268931
  0
VERTEX
  8
0
 62
7
  6
CONTINUOUS
 10
439.8674352476
 20
363.671225749
  0
VERTEX
  8
0
 62
7
  6
CONTINUOUS
 10
439.8553940663
 20
363.7157235778
  0
VERTEX
  8
0
 62
7
  6
CONTINUOUS
 10
439.8402732718
 20
363.7626563586
  0
VERTEX
  8
0
 62
7
  6
CONTINUOUS
 10
439.82191634
 20
363.8111178904
  0
VERTEX
  8
0
 62
7
  6
CONTINUOUS
 10
439.8002932314
 20
363.8602289541
  0
VERTEX
  8
0
 62
7
  6
CONTINUOUS
 10
439.7750405667
 20
363.9100111526
  0
VERTEX
  8
0
 62
7
  6
CONTINUOUS
 10
439.7456729472
 20
363.960533553
  0
VERTEX
  8
0
 62
7
  6
CONTINUOUS
 10
439.7292753281
 20
363.9860646781
  0
VERTEX
  8
0
 62
7
  6
CONTINUOUS
 10
439.6926913594
 20
364.0375635259
  0
VERTEX
  8
0
 62
7
  6
CONTINUOUS
 10
439.6505420734
 20
364.0894044944
  0
VERTEX
  8
0
 62
7
  6
CONTINUOUS
 10
439.6022123625
 20
364.1411322124
  0
VERTEX
  8
0
 62
7
  6
CONTINUOUS
 10
439.5472539124
 20
364.1919741809
  0
VERTEX
  8
0
 62
7
  6
CONTINUOUS
 10
439.4853325342
 20
364.2409891958
  0
VERTEX
  8
0
 62
7
  6
CONTINUOUS
 10
439.4162285621
 20
364.2871117822
  0
VERTEX
  8
0
 62
7
  6
CONTINUOUS
 10
439.3398615715
 20
364.3291675087
  0
VERTEX
  8
0
 62
7
  6
CONTINUOUS
 10
439.2562885464
 20
364.3659015392
  0
VERTEX
  8
0
 62
7
  6
CONTINUOUS
 10
439.1654186941
 20
364.3960730178
  0
VERTEX
  8
0
 62
7
  6
CONTINUOUS
 10
439.0670549116
 20
364.4183011155
  0
VERTEX
  8
0
 62
7
  6
CONTINUOUS
 10
438.9612148682
 20
364.4309008565
  0
VERTEX
  8
0
 62
7
  6
CONTINUOUS
 10
438.8960878755
 20
364.4330237915
  0
SEQEND
  0
LINE
  8
0
 62
7
  6
CONTINUOUS
 10
439.8989402028
 20
363.4782611257
 11
439.8940442025
 21
363.5185687629
  0
LINE
  8
0
 62
7
  6
CONTINUOUS
 10
439.9863212319
 20
362.7282171427
 11
439.8989394192
 21
363.4782677299
  0
POLYLINE
  8
0
 62
7
  6
CONTINUOUS
 66
1
 70
0
  0
VERTEX
  8
0
 62
7
  6
CONTINUOUS
 10
440.1957046755
 20
360.8586194861
  0
VERTEX
  8
0
 62
7
  6
CONTINUOUS
 10
440.0861253521
 20
361.8467034758
  0
VERTEX
  8
0
 62
7
  6
CONTINUOUS
 10
439.9863212319
 20
362.7282171427
  0
SEQEND
  0
LINE
  8
0
 62
7
  6
CONTINUOUS
 10
440.6590055091
 20
345.185205065
 11
440.6335375318
 21
345.4164386167
  0
LINE
  8
SURFACE
 62
7
  6
CONTINUOUS
 10
453.5587921963
 20
351.5418889719
 11
453.5338604623
 21
351.7700401115
  0
POLYLINE
  8
SURFACE
 62
7
  6
CONTINUOUS
 66
1
 70
0
  0
VERTEX
  8
SURFACE
 62
7
  6
CONTINUOUS
 10
453.5365482366
 20
356.7706014016
  0
VERTEX
  8
SURFACE
 62
7
  6
CONTINUOUS
 10
453.4051372216
 20
358.0019400054
  0
VERTEX
  8
SURFACE
 62
7
  6
CONTINUOUS
 10
453.276068292
 20
359.2024055538
  0
VERTEX
  8
SURFACE
 62
7
  6
CONTINUOUS
 10
453.0957074743
 20
360.8585940414
  0
SEQEND
  0
LINE
  8
0
 62
7
  6
CONTINUOUS
 10
467.4805071721
 20
326.8360900958
 11
467.4805071721
 21
140.0299575476
  0
POLYLINE
  8
SURFACE
 62
7
  6
CONTINUOUS
 66
1
 70
0
  0
VERTEX
  8
SURFACE
 62
7
  6
CONTINUOUS
 10
453.5365482117
 20
110.0954464306
  0
VERTEX
  8
SURFACE
 62
7
  6
CONTINUOUS
 10
453.5604334704
 20
110.363828044
  0
VERTEX
  8
SURFACE
 62
7
  6
CONTINUOUS
 10
453.5760444344
 20
110.6602664743
  0
VERTEX
  8
SURFACE
 62
7
  6
CONTINUOUS
 10
453.5805071526
 20
110.9252201968
  0
SEQEND
  0
POLYLINE
  8
SURFACE
 62
7
  6
CONTINUOUS
 66
1
 70
0
  0
VERTEX
  8
SURFACE
 62
7
  6
CONTINUOUS
 10
453.5518348569
 20
149.9553675991
  0
VERTEX
  8
SURFACE
 62
7
  6
CONTINUOUS
 10
453.5739754536
 20
150.163900209
  0
VERTEX
  8
SURFACE
 62
7
  6
CONTINUOUS
 10
453.5805071513
 20
150.3588505168
  0
SEQEND
  0
POLYLINE
  8
SURFACE
 62
7
  6
CONTINUOUS
 66
1
 70
0
  0
VERTEX
  8
SURFACE
 62
7
  6
CONTINUOUS
 10
453.276068292
 20
107.6636420897
  0
VERTEX
  8
SURFACE
 62
7
  6
CONTINUOUS
 10
453.4051372216
 20
108.8641076381
  0
VERTEX
  8
SURFACE
 62
7
  6
CONTINUOUS
 10
453.5365482366
 20
110.0954462418
  0
SEQEND
  0
POLYLINE
  8
SURFACE
 62
7
  6
CONTINUOUS
 66
1
 70
0
  0
VERTEX
  8
SURFACE
 62
7
  6
CONTINUOUS
 10
453.5335376389
 20
121.4496101912
  0
VERTEX
  8
SURFACE
 62
7
  6
CONTINUOUS
 10
453.5590035879
 20
121.6808206753
  0
VERTEX
  8
SURFACE
 62
7
  6
CONTINUOUS
 10
453.5757124881
 20
121.9392003779
  0
VERTEX
  8
SURFACE
 62
7
  6
CONTINUOUS
 10
453.5805071526
 20
122.1728100979
  0
SEQEND
  0
POLYLINE
  8
SURFACE
 62
7
  6
CONTINUOUS
 66
1
 70
0
  0
VERTEX
  8
SURFACE
 62
7
  6
CONTINUOUS
 10
452.8863244451
 20
104.1378585148
  0
VERTEX
  8
SURFACE
 62
7
  6
CONTINUOUS
 10
452.9861296637
 20
105.0193826806
  0
VERTEX
  8
SURFACE
 62
7
  6
CONTINUOUS
 10
453.0957074743
 20
106.007453602
  0
VERTEX
  8
SURFACE
 62
7
  6
CONTINUOUS
 10
453.276068292
 20
107.6636420897
  0
SEQEND
  0
LINE
  8
SURFACE
 62
7
  6
CONTINUOUS
 10
452.7962750219
 20
103.3655820109
 11
452.8863244451
 21
104.1378585148
  0
LINE
  8
SURFACE
 62
7
  6
CONTINUOUS
 10
453.5191492012
 20
149.7752746835
 11
453.5518348569
 21
149.9553675991
  0
LINE
  8
0
 62
7
  6
CONTINUOUS
 10
439.8403132155
 20
173.0631520129
 11
440.2795992609
 21
174.0005382808
  0
POLYLINE
  8
0
 62
7
  6
CONTINUOUS
 66
1
 70
0
  0
VERTEX
  8
0
 62
7
  6
CONTINUOUS
 10
440.279616653
 20
174.0005754411
  0
VERTEX
  8
0
 62
7
  6
CONTINUOUS
 10
440.3002604559
 20
174.0414034154
  0
VERTEX
  8
0
 62
7
  6
CONTINUOUS
 10
440.3025371501
 20
174.0453029231
  0
SEQEND
  0
LINE
  8
0
 62
7
  6
CONTINUOUS
 10
445.0805071721
 20
256.3079460704
 11
439.6805071721
 21
256.3079460704
  0
LINE
  8
SURFACE
 62
7
  6
CONTINUOUS
 10
453.2586568622
 20
330.6816751237
 11
452.8196914631
 21
333.1639851011
  0
POLYLINE
  8
SURFACE
 62
7
  6
CONTINUOUS
 66
1
 70
0
  0
VERTEX
  8
SURFACE
 62
7
  6
CONTINUOUS
 10
452.7940394686
 20
363.5186066094
  0
VERTEX
  8
SURFACE
 62
7
  6
CONTINUOUS
 10
452.7907952239
 20
363.5438142295
  0
VERTEX
  8
SURFACE
 62
7
  6
CONTINUOUS
 10
452.7874422152
 20
363.5678877675
  0
VERTEX
  8
SURFACE
 62
7
  6
CONTINUOUS
 10
452.7829810053
 20
363.5961807159
  0
VERTEX
  8
SURFACE
 62
7
  6
CONTINUOUS
 10
452.7764978147
 20
363.6309292017
  0
VERTEX
  8
SURFACE
 62
7
  6
CONTINUOUS
 10
452.7673688428
 20
363.671495206
  0
VERTEX
  8
SURFACE
 62
7
  6
CONTINUOUS
 10
452.7552959076
 20
363.7160557573
  0
VERTEX
  8
SURFACE
 62
7
  6
CONTINUOUS
 10
452.7401352567
 20
363.7630509745
  0
VERTEX
  8
SURFACE
 62
7
  6
CONTINUOUS
 10
452.7217318383
 20
363.8115690682
  0
VERTEX
  8
SURFACE
 62
7
  6
CONTINUOUS
 10
452.7000531166
 20
363.8607366018
  0
VERTEX
  8
SURFACE
 62
7
  6
CONTINUOUS
 10
452.6747316949
 20
363.910579735
  0
VERTEX
  8
SURFACE
 62
7
  6
CONTINUOUS
 10
452.6452787896
 20
363.9611677356
  0
VERTEX
  8
SURFACE
 62
7
  6
CONTINUOUS
 10
452.6288312615
 20
363.9867330199
  0
VERTEX
  8
SURFACE
 62
7
  6
CONTINUOUS
 10
452.5921308512
 20
364.0383013353
  0
VERTEX
  8
SURFACE
 62
7
  6
CONTINUOUS
 10
452.549839791
 20
364.0902107923
  0
VERTEX
  8
SURFACE
 62
7
  6
CONTINUOUS
 10
452.5013424174
 20
364.1419986245
  0
VERTEX
  8
SURFACE
 62
7
  6
CONTINUOUS
 10
452.4461955221
 20
364.192880962
  0
VERTEX
  8
SURFACE
 62
7
  6
CONTINUOUS
 10
452.3840704994
 20
364.2419080733
  0
VERTEX
  8
SURFACE
 62
7
  6
CONTINUOUS
 10
452.3147540652
 20
364.2880080091
  0
VERTEX
  8
SURFACE
 62
7
  6
CONTINUOUS
 10
452.2381722535
 20
364.3300020913
  0
VERTEX
  8
SURFACE
 62
7
  6
CONTINUOUS
 10
452.1543882443
 20
364.3666330707
  0
VERTEX
  8
SURFACE
 62
7
  6
CONTINUOUS
 10
452.0633127075
 20
364.3966595253
  0
VERTEX
  8
SURFACE
 62
7
  6
CONTINUOUS
 10
451.9647564033
 20
364.4186972194
  0
VERTEX
  8
SURFACE
 62
7
  6
CONTINUOUS
 10
451.8587472857
 20
364.4310588687
  0
VERTEX
  8
SURFACE
 62
7
  6
CONTINUOUS
 10
451.7960879576
 20
364.4330238215
  0
SEQEND
  0
POLYLINE
  8
SURFACE
 62
7
  6
CONTINUOUS
 66
1
 70
0
  0
VERTEX
  8
SURFACE
 62
7
  6
CONTINUOUS
 10
452.8241865582
 20
357.5940318327
  0
VERTEX
  8
SURFACE
 62
7
  6
CONTINUOUS
 10
452.814653593
 20
357.6684998082
  0
VERTEX
  8
SURFACE
 62
7
  6
CONTINUOUS
 10
452.8058281899
 20
357.7319077538
  0
VERTEX
  8
SURFACE
 62
7
  6
CONTINUOUS
 10
452.7974454998
 20
357.7861591992
  0
VERTEX
  8
SURFACE
 62
7
  6
CONTINUOUS
 10
452.7887788116
 20
357.8352091812
  0
VERTEX
  8
SURFACE
 62
7
  6
CONTINUOUS
 10
452.7780712891
 20
357.8862537656
  0
VERTEX
  8
SURFACE
 62
7
  6
CONTINUOUS
 10
452.7617700578
 20
357.9489184498
  0
VERTEX
  8
SURFACE
 62
7
  6
CONTINUOUS
 10
452.7363147593
 20
358.0252926864
  0
VERTEX
  8
SURFACE
 62
7
  6
CONTINUOUS
 10
452.6996383219
 20
358.1106324584
  0
VERTEX
  8
SURFACE
 62
7
  6
CONTINUOUS
 10
452.6766091167
 20
358.1552514907
  0
VERTEX
  8
SURFACE
 62
7
  6
CONTINUOUS
 10
452.620161167
 20
358.2463757936
  0
VERTEX
  8
SURFACE
 62
7
  6
CONTINUOUS
 10
452.5484903073
 20
358.3376286319
  0
VERTEX
  8
SURFACE
 62
7
  6
CONTINUOUS
 10
452.4604191657
 20
358.4256268762
  0
VERTEX
  8
SURFACE
 62
7
  6
CONTINUOUS
 10
452.3554161537
 20
358.5065448593
  0
VERTEX
  8
SURFACE
 62
7
  6
CONTINUOUS
 10
452.2334800168
 20
358.5763732182
  0
VERTEX
  8
SURFACE
 62
7
  6
CONTINUOUS
 10
452.0953485213
 20
358.6308365226
  0
VERTEX
  8
SURFACE
 62
7
  6
CONTINUOUS
 10
451.9427629126
 20
358.6654466829
  0
VERTEX
  8
SURFACE
 62
7
  6
CONTINUOUS
 10
451.7786206546
 20
358.6757196273
  0
VERTEX
  8
SURFACE
 62
7
  6
CONTINUOUS
 10
451.7984071617
 20
358.6759153016
  0
SEQEND
  0
LINE
  8
SURFACE
 62
7
  6
CONTINUOUS
 10
453.5338604168
 20
351.7700407875
 11
453.4030582358
 21
352.7998074779
  0
LINE
  8
SURFACE
 62
7
  6
CONTINUOUS
 10
453.4030582358
 20
352.7998074779
 11
453.2667617632
 21
353.9144140236
  0
LINE
  8
SURFACE
 62
7
  6
CONTINUOUS
 10
453.2667617654
 20
353.914414021
 11
452.8241865582
 21
357.5940318327
  0
LINE
  8
SURFACE
 62
7
  6
CONTINUOUS
 10
452.7989401898
 20
363.4782612172
 11
452.7940394686
 21
363.5186066094
  0
POLYLINE
  8
SURFACE
 62
7
  6
CONTINUOUS
 66
1
 70
0
  0
VERTEX
  8
SURFACE
 62
7
  6
CONTINUOUS
 10
453.0957074743
 20
360.8585940414
  0
VERTEX
  8
SURFACE
 62
7
  6
CONTINUOUS
 10
452.9861296637
 20
361.8466649628
  0
VERTEX
  8
SURFACE
 62
7
  6
CONTINUOUS
 10
452.8863244451
 20
362.7281891286
  0
VERTEX
  8
SURFACE
 62
7
  6
CONTINUOUS
 10
452.7989394269
 20
363.4782676569
  0
SEQEND
  0
POLYLINE
  8
0
 62
7
  6
CONTINUOUS
 66
1
 70
0
  0
VERTEX
  8
0
 62
7
  6
CONTINUOUS
 10
440.310001022
 20
276.5102080631
  0
VERTEX
  8
0
 62
7
  6
CONTINUOUS
 10
440.2287594357
 20
276.5773098064
  0
VERTEX
  8
0
 62
7
  6
CONTINUOUS
 10
440.0056164919
 20
276.7114757343
  0
VERTEX
  8
0
 62
7
  6
CONTINUOUS
 10
439.8800816871
 20
276.7605969303
  0
VERTEX
  8
0
 62
7
  6
CONTINUOUS
 10
439.6179423267
 20
276.8125932109
  0
VERTEX
  8
0
 62
7
  6
CONTINUOUS
 10
439.5322842544
 20
276.8158785393
  0
SEQEND
  0
LINE
  8
0
 62
7
  6
CONTINUOUS
 10
440.3101503042
 20
276.5100740897
 11
440.310001022
 21
276.5102080631
  0
POLYLINE
  8
SURFACE
 62
7
  6
CONTINUOUS
 66
1
 70
0
  0
VERTEX
  8
SURFACE
 62
7
  6
CONTINUOUS
 10
445.0805071721
 20
278.7350498892
  0
VERTEX
  8
SURFACE
 62
7
  6
CONTINUOUS
 10
444.6718087781
 20
279.2147721501
  0
VERTEX
  8
SURFACE
 62
7
  6
CONTINUOUS
 10
444.3789073213
 20
279.6331168152
  0
VERTEX
  8
SURFACE
 62
7
  6
CONTINUOUS
 10
444.1997964828
 20
279.9937236692
  0
VERTEX
  8
SURFACE
 62
7
  6
CONTINUOUS
 10
444.1083467157
 20
280.3038298225
  0
VERTEX
  8
SURFACE
 62
7
  6
CONTINUOUS
 10
444.0805071721
 20
280.5828089542
  0
SEQEND
  0
LINE
  8
SURFACE
 62
7
  6
CONTINUOUS
 10
453.1795992613
 20
292.8655093619
 11
452.7403132152
 21
293.8028956311
  0
LINE
  8
0
 62
7
  6
CONTINUOUS
 10
439.9519414541
 20
349.4805165498
 11
439.8328943763
 21
349.844188748
  0
LINE
  8
SURFACE
 62
7
  6
CONTINUOUS
 10
453.5159475293
 20
329.3945168551
 11
453.3930269492
 21
329.9653587584
  0
POLYLINE
  8
SURFACE
 62
7
  6
CONTINUOUS
 66
1
 70
0
  0
VERTEX
  8
SURFACE
 62
7
  6
CONTINUOUS
 10
452.819691371
 20
333.1639855346
  0
VERTEX
  8
SURFACE
 62
7
  6
CONTINUOUS
 10
452.8057235641
 20
333.2358038411
  0
VERTEX
  8
SURFACE
 62
7
  6
CONTINUOUS
 10
452.7875109378
 20
333.3114910327
  0
VERTEX
  8
SURFACE
 62
7
  6
CONTINUOUS
 10
452.7626873893
 20
333.3923517033
  0
VERTEX
  8
SURFACE
 62
7
  6
CONTINUOUS
 10
452.7268251196
 20
333.4826481107
  0
VERTEX
  8
SURFACE
 62
7
  6
CONTINUOUS
 10
452.6766087888
 20
333.5801068187
  0
VERTEX
  8
SURFACE
 62
7
  6
CONTINUOUS
 10
452.6093884473
 20
333.6809143046
  0
VERTEX
  8
SURFACE
 62
7
  6
CONTINUOUS
 10
452.5688338014
 20
333.731113527
  0
VERTEX
  8
SURFACE
 62
7
  6
CONTINUOUS
 10
452.473314235
 20
333.8278959098
  0
VERTEX
  8
SURFACE
 62
7
  6
CONTINUOUS
 10
452.3585595417
 20
333.9156048842
  0
VERTEX
  8
SURFACE
 62
7
  6
CONTINUOUS
 10
452.2246384625
 20
333.9895418244
  0
VERTEX
  8
SURFACE
 62
7
  6
CONTINUOUS
 10
452.0723806566
 20
334.0446674748
  0
VERTEX
  8
SURFACE
 62
7
  6
CONTINUOUS
 10
451.9038730619
 20
334.0755083477
  0
VERTEX
  8
SURFACE
 62
7
  6
CONTINUOUS
 10
451.8083212768
 20
334.0800732293
  0
SEQEND
  0
LINE
  8
SURFACE
 62
7
  6
CONTINUOUS
 10
453.3930269492
 20
329.9653587584
 11
453.2586576047
 21
330.681670929
  0
POLYLINE
  8
SURFACE
 62
7
  6
CONTINUOUS
 66
1
 70
0
  0
VERTEX
  8
SURFACE
 62
7
  6
CONTINUOUS
 10
453.2101590028
 20
190.3559814323
  0
VERTEX
  8
SURFACE
 62
7
  6
CONTINUOUS
 10
453.3577955488
 20
190.5172360807
  0
VERTEX
  8
SURFACE
 62
7
  6
CONTINUOUS
 10
453.4851899353
 20
190.7351920259
  0
VERTEX
  8
SURFACE
 62
7
  6
CONTINUOUS
 10
453.5600229469
 20
190.9754234312
  0
SEQEND
  0
LINE
  8
SURFACE
 62
7
  6
CONTINUOUS
 10
453.209998089
 20
190.3558369893
 11
453.2101590175
 21
190.3559814159
  0
POLYLINE
  8
0
 62
7
  6
CONTINUOUS
 66
1
 70
0
  0
VERTEX
  8
0
 62
7
  6
CONTINUOUS
 10
432.3287310482
 20
276.8158785314
  0
VERTEX
  8
0
 62
7
  6
CONTINUOUS
 10
432.2456104307
 20
276.8127852897
  0
VERTEX
  8
0
 62
7
  6
CONTINUOUS
 10
431.9824648061
 20
276.7610936544
  0
VERTEX
  8
0
 62
7
  6
CONTINUOUS
 10
431.8564402496
 20
276.7119549886
  0
VERTEX
  8
0
 62
7
  6
CONTINUOUS
 10
431.632518713
 20
276.5775097129
  0
VERTEX
  8
0
 62
7
  6
CONTINUOUS
 10
431.5510162553
 20
276.5102106541
  0
SEQEND
  0
LINE
  8
0
 62
7
  6
CONTINUOUS
 10
432.3285574009
 20
276.8158785703
 11
439.5324561692
 21
276.8158785703
  0
POLYLINE
  8
SURFACE
 62
7
  6
CONTINUOUS
 66
1
 70
0
  0
VERTEX
  8
SURFACE
 62
7
  6
CONTINUOUS
 10
452.7402220433
 20
293.8030897424
  0
VERTEX
  8
SURFACE
 62
7
  6
CONTINUOUS
 10
452.6892886362
 20
293.898580564
  0
VERTEX
  8
SURFACE
 62
7
  6
CONTINUOUS
 10
452.5912500134
 20
294.0349696816
  0
VERTEX
  8
SURFACE
 62
7
  6
CONTINUOUS
 10
452.4563801951
 20
294.1664138411
  0
VERTEX
  8
SURFACE
 62
7
  6
CONTINUOUS
 10
452.3744493294
 20
294.2260486529
  0
VERTEX
  8
SURFACE
 62
7
  6
CONTINUOUS
 10
452.1866677669
 20
294.3223742437
  0
VERTEX
  8
SURFACE
 62
7
  6
CONTINUOUS
 10
451.979278801
 20
294.3779687792
  0
VERTEX
  8
SURFACE
 62
7
  6
CONTINUOUS
 10
451.8243351841
 20
294.3899916036
  0
SEQEND
  0
POLYLINE
  8
0
 62
7
  6
CONTINUOUS
 66
1
 70
0
  0
VERTEX
  8
0
 62
7
  6
CONTINUOUS
 10
439.832956312
 20
349.8440356468
  0
VERTEX
  8
0
 62
7
  6
CONTINUOUS
 10
439.8046290733
 20
349.9078188668
  0
VERTEX
  8
0
 62
7
  6
CONTINUOUS
 10
439.7390003849
 20
350.0232466535
  0
VERTEX
  8
0
 62
7
  6
CONTINUOUS
 10
439.64769293
 20
350.1416990686
  0
VERTEX
  8
0
 62
7
  6
CONTINUOUS
 10
439.5292742078
 20
350.2539001714
  0
VERTEX
  8
0
 62
7
  6
CONTINUOUS
 10
439.3843585064
 20
350.3509301655
  0
VERTEX
  8
0
 62
7
  6
CONTINUOUS
 10
439.2135010061
 20
350.4251463536
  0
VERTEX
  8
0
 62
7
  6
CONTINUOUS
 10
439.0189888984
 20
350.4680385136
  0
VERTEX
  8
0
 62
7
  6
CONTINUOUS
 10
438.9017123494
 20
350.4749311151
  0
SEQEND
  0
LINE
  8
0
 62
7
  6
CONTINUOUS
 10
439.832956312
 20
349.8440356468
 11
439.8328943763
 21
349.844188748
  0
POLYLINE
  8
SURFACE
 62
7
  6
CONTINUOUS
 66
1
 70
0
  0
VERTEX
  8
SURFACE
 62
7
  6
CONTINUOUS
 10
452.7328949143
 20
117.0218602583
  0
VERTEX
  8
SURFACE
 62
7
  6
CONTINUOUS
 10
452.8519644798
 20
117.3856151849
  0
VERTEX
  8
SURFACE
 62
7
  6
CONTINUOUS
 10
452.9680174216
 20
117.8720209563
  0
VERTEX
  8
SURFACE
 62
7
  6
CONTINUOUS
 10
453.0895081016
 20
118.4961058886
  0
VERTEX
  8
SURFACE
 62
7
  6
CONTINUOUS
 10
453.1512300943
 20
118.8498467661
  0
VERTEX
  8
SURFACE
 62
7
  6
CONTINUOUS
 10
453.2753906268
 20
119.6236604333
  0
VERTEX
  8
SURFACE
 62
7
  6
CONTINUOUS
 10
453.4028057081
 20
120.4918263813
  0
VERTEX
  8
SURFACE
 62
7
  6
CONTINUOUS
 10
453.5335375317
 20
121.4496090429
  0
SEQEND
  0
LINE
  8
SURFACE
 62
7
  6
CONTINUOUS
 10
452.7328948782
 20
117.0218602729
 11
452.7329483145
 21
117.0219923601
  0
POLYLINE
  8
SURFACE
 62
7
  6
CONTINUOUS
 66
1
 70
0
  0
VERTEX
  8
SURFACE
 62
7
  6
CONTINUOUS
 10
453.1989600439
 20
292.826094556
  0
VERTEX
  8
SURFACE
 62
7
  6
CONTINUOUS
 10
453.2002481242
 20
292.8246659706
  0
VERTEX
  8
SURFACE
 62
7
  6
CONTINUOUS
 10
453.1796163586
 20
292.8654728646
  0
SEQEND
  0
POLYLINE
  8
SURFACE
 62
7
  6
CONTINUOUS
 66
1
 70
0
  0
VERTEX
  8
SURFACE
 62
7
  6
CONTINUOUS
 10
445.836677754
 20
294.3899917016
  0
VERTEX
  8
SURFACE
 62
7
  6
CONTINUOUS
 10
445.6802097258
 20
294.3777295839
  0
VERTEX
  8
SURFACE
 62
7
  6
CONTINUOUS
 10
445.4735073524
 20
294.3220494825
  0
VERTEX
  8
SURFACE
 62
7
  6
CONTINUOUS
 10
445.2860640998
 20
294.225720962
  0
VERTEX
  8
SURFACE
 62
7
  6
CONTINUOUS
 10
445.2042236938
 20
294.1660821419
  0
VERTEX
  8
SURFACE
 62
7
  6
CONTINUOUS
 10
445.0694854958
 20
294.0346421136
  0
VERTEX
  8
SURFACE
 62
7
  6
CONTINUOUS
 10
444.9715909999
 20
293.8983564678
  0
VERTEX
  8
SURFACE
 62
7
  6
CONTINUOUS
 10
444.9207840029
 20
293.803072218
  0
SEQEND
  0
LINE
  8
SURFACE
 62
7
  6
CONTINUOUS
 10
451.8243606681
 20
294.3899919993
 11
445.8366554824
 21
294.3899919993
  0
POLYLINE
  8
SURFACE
 62
7
  6
CONTINUOUS
 66
1
 70
0
  0
VERTEX
  8
SURFACE
 62
7
  6
CONTINUOUS
 10
445.0805071721
 20
315.7402531518
  0
VERTEX
  8
SURFACE
 62
7
  6
CONTINUOUS
 10
444.6718087781
 20
316.1074166746
  0
VERTEX
  8
SURFACE
 62
7
  6
CONTINUOUS
 10
444.3789073213
 20
316.4276038193
  0
VERTEX
  8
SURFACE
 62
7
  6
CONTINUOUS
 10
444.1997964828
 20
316.7036003565
  0
VERTEX
  8
SURFACE
 62
7
  6
CONTINUOUS
 10
444.1083467157
 20
316.9409453308
  0
VERTEX
  8
SURFACE
 62
7
  6
CONTINUOUS
 10
444.0805071721
 20
317.1544667142
  0
SEQEND
  0
LINE
  8
0
 62
7
  6
CONTINUOUS
 10
445.0805071721
 20
298.575291017
 11
439.6805071721
 21
298.575291017
  0
POLYLINE
  8
0
 62
7
  6
CONTINUOUS
 66
1
 70
0
  0
VERTEX
  8
0
 62
7
  6
CONTINUOUS
 10
432.7521893848
 20
319.2557651674
  0
VERTEX
  8
0
 62
7
  6
CONTINUOUS
 10
432.5768051395
 20
319.2413786602
  0
VERTEX
  8
0
 62
7
  6
CONTINUOUS
 10
432.3370392088
 20
319.17279019
  0
VERTEX
  8
0
 62
7
  6
CONTINUOUS
 10
432.1276021355
 20
319.0583719908
  0
VERTEX
  8
0
 62
7
  6
CONTINUOUS
 10
431.9579346111
 20
318.9156275625
  0
VERTEX
  8
0
 62
7
  6
CONTINUOUS
 10
431.8280592661
 20
318.762660619
  0
VERTEX
  8
0
 62
7
  6
CONTINUOUS
 10
431.729230952
 20
318.6097261843
  0
VERTEX
  8
0
 62
7
  6
CONTINUOUS
 10
431.6489333705
 20
318.4543169897
  0
VERTEX
  8
0
 62
7
  6
CONTINUOUS
 10
431.5782934732
 20
318.2895624435
  0
VERTEX
  8
0
 62
7
  6
CONTINUOUS
 10
431.5121768958
 20
318.1088679304
  0
VERTEX
  8
0
 62
7
  6
CONTINUOUS
 10
431.44706813
 20
317.9046749348
  0
VERTEX
  8
0
 62
7
  6
CONTINUOUS
 10
431.3807165082
 20
317.6695189057
  0
VERTEX
  8
0
 62
7
  6
CONTINUOUS
 10
431.3116044933
 20
317.3958836228
  0
VERTEX
  8
0
 62
7
  6
CONTINUOUS
 10
431.241869888
 20
317.0907948924
  0
SEQEND
  0
LINE
  8
0
 62
7
  6
CONTINUOUS
 10
432.751915206
 20
319.2557654394
 11
439.1090854164
 21
319.2557654394
  0
LINE
  8
0
 62
7
  6
CONTINUOUS
 10
419.7805071721
 20
329.3360900958
 11
431.1805071721
 21
329.3360900958
  0
LINE
  8
0
 62
7
  6
CONTINUOUS
 10
453.5805071721
 20
329.3360900958
 11
464.9805071721
 21
329.3360900958
  0
LINE
  8
0
 62
7
  6
CONTINUOUS
 10
439.6805071721
 20
330.9253162993
 11
444.4454072071
 21
330.9253162993
  0
POLYLINE
  8
SURFACE
 62
7
  6
CONTINUOUS
 66
1
 70
0
  0
VERTEX
  8
SURFACE
 62
7
  6
CONTINUOUS
 10
445.0805071721
 20
340.2149268658
  0
VERTEX
  8
SURFACE
 62
7
  6
CONTINUOUS
 10
444.6718087781
 20
340.4136343325
  0
VERTEX
  8
SURFACE
 62
7
  6
CONTINUOUS
 10
444.3789073213
 20
340.5869183665
  0
VERTEX
  8
SURFACE
 62
7
  6
CONTINUOUS
 10
444.1997964828
 20
340.7362866161
  0
VERTEX
  8
SURFACE
 62
7
  6
CONTINUOUS
 10
444.1083467157
 20
340.8647367906
  0
VERTEX
  8
SURFACE
 62
7
  6
CONTINUOUS
 10
444.0805071721
 20
340.9802937306
  0
SEQEND
  0
POLYLINE
  8
SURFACE
 62
7
  6
CONTINUOUS
 66
1
 70
0
  0
VERTEX
  8
SURFACE
 62
7
  6
CONTINUOUS
 10
445.8526926063
 20
334.0800731917
  0
VERTEX
  8
SURFACE
 62
7
  6
CONTINUOUS
 10
445.7548367344
 20
334.0752849659
  0
VERTEX
  8
SURFACE
 62
7
  6
CONTINUOUS
 10
445.5867162017
 20
334.0441419217
  0
VERTEX
  8
SURFACE
 62
7
  6
CONTINUOUS
 10
445.4348323943
 20
333.9888358896
  0
VERTEX
  8
SURFACE
 62
7
  6
CONTINUOUS
 10
445.3012496785
 20
333.9148129685
  0
VERTEX
  8
SURFACE
 62
7
  6
CONTINUOUS
 10
445.1867859908
 20
333.8270858956
  0
VERTEX
  8
SURFACE
 62
7
  6
CONTINUOUS
 10
445.0915012059
 20
333.7303245506
  0
VERTEX
  8
SURFACE
 62
7
  6
CONTINUOUS
 10
445.0510437422
 20
333.6801440402
  0
VERTEX
  8
SURFACE
 62
7
  6
CONTINUOUS
 10
444.9839855179
 20
333.5793873411
  0
VERTEX
  8
SURFACE
 62
7
  6
CONTINUOUS
 10
444.9339114995
 20
333.4820310373
  0
VERTEX
  8
SURFACE
 62
7
  6
CONTINUOUS
 10
444.8981737009
 20
333.3919095112
  0
VERTEX
  8
SURFACE
 62
7
  6
CONTINUOUS
 10
444.8734350363
 20
333.3112375473
  0
VERTEX
  8
SURFACE
 62
7
  6
CONTINUOUS
 10
444.8552637401
 20
333.2356776111
  0
VERTEX
  8
SURFACE
 62
7
  6
CONTINUOUS
 10
444.8413223453
 20
333.1639820742
  0
SEQEND
  0
LINE
  8
SURFACE
 62
7
  6
CONTINUOUS
 10
451.8083629524
 20
334.0800734695
 11
445.8526505658
 21
334.0800734695
  0
LINE
  8
0
 62
7
  6
CONTINUOUS
 10
440.177229052
 20
348.4330238217
 11
444.0805071721
 21
348.4330238217
  0
POLYLINE
  8
0
 62
7
  6
CONTINUOUS
 66
1
 70
0
  0
VERTEX
  8
0
 62
7
  6
CONTINUOUS
 10
432.959302058
 20
350.4749311658
  0
VERTEX
  8
0
 62
7
  6
CONTINUOUS
 10
432.8441965085
 20
350.4682922263
  0
VERTEX
  8
0
 62
7
  6
CONTINUOUS
 10
432.6491984678
 20
350.425696885
  0
VERTEX
  8
0
 62
7
  6
CONTINUOUS
 10
432.4778968219
 20
350.3516115807
  0
VERTEX
  8
0
 62
7
  6
CONTINUOUS
 10
432.3325956655
 20
350.2545870378
  0
VERTEX
  8
0
 62
7
  6
CONTINUOUS
 10
432.2138642571
 20
350.1423038926
  0
VERTEX
  8
0
 62
7
  6
CONTINUOUS
 10
432.1223210875
 20
350.0237128348
  0
VERTEX
  8
0
 62
7
  6
CONTINUOUS
 10
432.0565177677
 20
349.9080917263
  0
VERTEX
  8
0
 62
7
  6
CONTINUOUS
 10
432.0280660298
 20
349.8440552834
  0
SEQEND
  0
POLYLINE
  8
0
 62
7
  6
CONTINUOUS
 66
1
 70
0
  0
VERTEX
  8
0
 62
7
  6
CONTINUOUS
 10
432.9649263866
 20
364.4330238215
  0
VERTEX
  8
0
 62
7
  6
CONTINUOUS
 10
432.9033621137
 20
364.4311270136
  0
VERTEX
  8
0
 62
7
  6
CONTINUOUS
 10
432.8219020195
 20
364.4227433828
  0
VERTEX
  8
0
 62
7
  6
CONTINUOUS
 10
432.7436606641
 20
364.4082383574
  0
VERTEX
  8
0
 62
7
  6
CONTINUOUS
 10
432.6689197129
 20
364.3882115376
  0
VERTEX
  8
0
 62
7
  6
CONTINUOUS
 10
432.5978845627
 20
364.3632312796
  0
VERTEX
  8
0
 62
7
  6
CONTINUOUS
 10
432.5306956781
 20
364.3338300644
  0
VERTEX
  8
0
 62
7
  6
CONTINUOUS
 10
432.4674389596
 20
364.3005015129
  0
VERTEX
  8
0
 62
7
  6
CONTINUOUS
 10
432.408155368
 20
364.2636988218
  0
VERTEX
  8
0
 62
7
  6
CONTINUOUS
 10
432.3528497559
 20
364.223834398
  0
VERTEX
  8
0
 62
7
  6
CONTINUOUS
 10
432.3015033103
 20
364.1812844275
  0
VERTEX
  8
0
 62
7
  6
CONTINUOUS
 10
432.2541304854
 20
364.1364433687
  0
VERTEX
  8
0
 62
7
  6
CONTINUOUS
 10
432.2107508879
 20
364.0897246154
  0
VERTEX
  8
0
 62
7
  6
CONTINUOUS
 10
432.171346605
 20
364.0415266652
  0
VERTEX
  8
0
 62
7
  6
CONTINUOUS
 10
432.1531199512
 20
364.0169925158
  0
VERTEX
  8
0
 62
7
  6
CONTINUOUS
 10
432.1195697794
 20
363.9672820318
  0
VERTEX
  8
0
 62
7
  6
CONTINUOUS
 10
432.0898070429
 20
363.9170059773
  0
VERTEX
  8
0
 62
7
  6
CONTINUOUS
 10
432.063716605
 20
363.8665096766
  0
VERTEX
  8
0
 62
7
  6
CONTINUOUS
 10
432.0412000858
 20
363.8162214815
  0
VERTEX
  8
0
 62
7
  6
CONTINUOUS
 10
432.0221205008
 20
363.766576957
  0
VERTEX
  8
0
 62
7
  6
CONTINUOUS
 10
432.006302163
 20
363.7180225958
  0
VERTEX
  8
0
 62
7
  6
CONTINUOUS
 10
431.9936668346
 20
363.671581713
  0
VERTEX
  8
0
 62
7
  6
CONTINUOUS
 10
431.9842254344
 20
363.6294963248
  0
VERTEX
  8
0
 62
7
  6
CONTINUOUS
 10
431.9778853682
 20
363.5953074415
  0
VERTEX
  8
0
 62
7
  6
CONTINUOUS
 10
431.9738541642
 20
363.5698033004
  0
VERTEX
  8
0
 62
7
  6
CONTINUOUS
 10
431.9707895713
 20
363.5480699431
  0
VERTEX
  8
0
 62
7
  6
CONTINUOUS
 10
431.9678842743
 20
363.5258250411
  0
VERTEX
  8
0
 62
7
  6
CONTINUOUS
 10
431.9620742908
 20
363.4782623657
  0
SEQEND
  0
POLYLINE
  8
SURFACE
 62
7
  6
CONTINUOUS
 66
1
 70
0
  0
VERTEX
  8
SURFACE
 62
7
  6
CONTINUOUS
 10
445.8649264686
 20
364.4330237915
  0
VERTEX
  8
SURFACE
 62
7
  6
CONTINUOUS
 10
445.8038652445
 20
364.4311578854
  0
VERTEX
  8
SURFACE
 62
7
  6
CONTINUOUS
 10
445.7238504466
 20
364.423022944
  0
VERTEX
  8
SURFACE
 62
7
  6
CONTINUOUS
 10
445.646938257
 20
364.4089761499
  0
VERTEX
  8
SURFACE
 62
7
  6
CONTINUOUS
 10
445.5733965386
 20
364.3895872924
  0
VERTEX
  8
SURFACE
 62
7
  6
CONTINUOUS
 10
445.5034216954
 20
364.3653969772
  0
VERTEX
  8
SURFACE
 62
7
  6
CONTINUOUS
 10
445.4371491164
 20
364.3369123309
  0
VERTEX
  8
SURFACE
 62
7
  6
CONTINUOUS
 10
445.3746627527
 20
364.3046042116
  0
VERTEX
  8
SURFACE
 62
7
  6
CONTINUOUS
 10
445.316003999
 20
364.268905703
  0
VERTEX
  8
SURFACE
 62
7
  6
CONTINUOUS
 10
445.2611798684
 20
364.2302117081
  0
VERTEX
  8
SURFACE
 62
7
  6
CONTINUOUS
 10
445.2101721952
 20
364.188880995
  0
VERTEX
  8
SURFACE
 62
7
  6
CONTINUOUS
 10
445.1629864845
 20
364.1452800875
  0
VERTEX
  8
SURFACE
 62
7
  6
CONTINUOUS
 10
445.1196460217
 20
364.0998012956
  0
VERTEX
  8
SURFACE
 62
7
  6
CONTINUOUS
 10
445.0801404148
 20
364.0528250209
  0
VERTEX
  8
SURFACE
 62
7
  6
CONTINUOUS
 10
445.0444260981
 20
364.0047149713
  0
VERTEX
  8
SURFACE
 62
7
  6
CONTINUOUS
 10
445.012430005
 20
363.955816539
  0
VERTEX
  8
SURFACE
 62
7
  6
CONTINUOUS
 10
444.9840544771
 20
363.9064584491
  0
VERTEX
  8
SURFACE
 62
7
  6
CONTINUOUS
 10
444.9591909351
 20
363.8569765953
  0
VERTEX
  8
SURFACE
 62
7
  6
CONTINUOUS
 10
444.9377455082
 20
363.8077913304
  0
VERTEX
  8
SURFACE
 62
7
  6
CONTINUOUS
 10
444.919574874
 20
363.7593006713
  0
VERTEX
  8
SURFACE
 62
7
  6
CONTINUOUS
 10
444.9045170813
 20
363.7119607554
  0
VERTEX
  8
SURFACE
 62
7
  6
CONTINUOUS
 10
444.8925339946
 20
363.6669419476
  0
VERTEX
  8
SURFACE
 62
7
  6
CONTINUOUS
 10
444.8836217995
 20
363.6264915769
  0
VERTEX
  8
SURFACE
 62
7
  6
CONTINUOUS
 10
444.8776207777
 20
363.5937355555
  0
VERTEX
  8
SURFACE
 62
7
  6
CONTINUOUS
 10
444.8737036552
 20
363.5687832511
  0
VERTEX
  8
SURFACE
 62
7
  6
CONTINUOUS
 10
444.8706721854
 20
363.5471991674
  0
VERTEX
  8
SURFACE
 62
7
  6
CONTINUOUS
 10
444.8677867697
 20
363.5250561886
  0
VERTEX
  8
SURFACE
 62
7
  6
CONTINUOUS
 10
444.8646771018
 20
363.4999537153
  0
VERTEX
  8
SURFACE
 62
7
  6
CONTINUOUS
 10
444.7746931124
 20
362.7282171427
  0
SEQEND
  0
POLYLINE
  8
SURFACE
 62
7
  6
CONTINUOUS
 66
1
 70
0
  0
VERTEX
  8
SURFACE
 62
7
  6
CONTINUOUS
 10
445.8626071616
 20
358.6759153013
  0
VERTEX
  8
SURFACE
 62
7
  6
CONTINUOUS
 10
445.810265602
 20
358.6745452523
  0
VERTEX
  8
SURFACE
 62
7
  6
CONTINUOUS
 10
445.6634093749
 20
358.6558853929
  0
VERTEX
  8
SURFACE
 62
7
  6
CONTINUOUS
 10
445.5272101384
 20
358.6180257578
  0
VERTEX
  8
SURFACE
 62
7
  6
CONTINUOUS
 10
445.4036737313
 20
358.5644578165
  0
VERTEX
  8
SURFACE
 62
7
  6
CONTINUOUS
 10
445.2940047938
 20
358.4986588473
  0
VERTEX
  8
SURFACE
 62
7
  6
CONTINUOUS
 10
445.1987016641
 20
358.423952471
  0
VERTEX
  8
SURFACE
 62
7
  6
CONTINUOUS
 10
445.1177729676
 20
358.3435224187
  0
VERTEX
  8
SURFACE
 62
7
  6
CONTINUOUS
 10
445.0508879729
 20
358.2605340605
  0
VERTEX
  8
SURFACE
 62
7
  6
CONTINUOUS
 10
444.9971239387
 20
358.1777685536
  0
VERTEX
  8
SURFACE
 62
7
  6
CONTINUOUS
 10
444.9747353906
 20
358.1371737966
  0
VERTEX
  8
SURFACE
 62
7
  6
CONTINUOUS
 10
444.9380195511
 20
358.05883411
  0
VERTEX
  8
SURFACE
 62
7
  6
CONTINUOUS
 10
444.9107445106
 20
357.9858665307
  0
VERTEX
  8
SURFACE
 62
7
  6
CONTINUOUS
 10
444.8920883553
 20
357.9231977335
  0
VERTEX
  8
SURFACE
 62
7
  6
CONTINUOUS
 10
444.879586396
 20
357.8712736108
  0
VERTEX
  8
SURFACE
 62
7
  6
CONTINUOUS
 10
444.8692551524
 20
357.8191701485
  0
VERTEX
  8
SURFACE
 62
7
  6
CONTINUOUS
 10
444.8603840779
 20
357.7663021176
  0
VERTEX
  8
SURFACE
 62
7
  6
CONTINUOUS
 10
444.8515931715
 20
357.7068048494
  0
VERTEX
  8
SURFACE
 62
7
  6
CONTINUOUS
 10
444.8421686482
 20
357.6364516715
  0
SEQEND
  0
LINE
  8
0
 62
7
  6
CONTINUOUS
 10
432.9592566623
 20
350.4749311628
 11
438.901757347
 21
350.4749311628
  0
LINE
  8
SURFACE
 62
7
  6
CONTINUOUS
 10
451.7984343235
 20
358.675915401
 11
445.8625762704
 21
358.675915401
  0
LINE
  8
SURFACE
 62
7
  6
CONTINUOUS
 10
451.7961078539
 20
364.4330238217
 11
445.8649086903
 21
364.4330238217
  0
LINE
  8
0
 62
7
  6
CONTINUOUS
 10
432.9649064903
 20
364.4330238217
 11
438.896105654
 21
364.4330238217
  0
ARC
  8
SURFACE
 62
7
  6
CONTINUOUS
 10
128.6907930826
 20
160.6102822041
 40
13.0
 50
256.2590427333
 51
305.0
  0
ARC
  8
0
 62
7
  6
CONTINUOUS
 10
116.8730730322
 20
161.0003861779
 40
12.75
 50
45.0
 51
102.5
  0
ARC
  8
SURFACE
 62
7
  6
CONTINUOUS
 10
116.7681551718
 20
161.1574068524
 40
12.75
 50
325.0
 51
22.5
  0
ARC
  8
SURFACE
 62
7
  6
CONTINUOUS
 10
125.9591683338
 20
149.4394171422
 40
1.5
 50
145.0
 51
256.2590427333
  0
ARC
  8
0
 62
7
  6
CONTINUOUS
 10
152.2834763639
 20
137.0175989227
 40
13.0
 50
145.0
 51
193.7409572667
  0
ARC
  8
0
 62
7
  6
CONTINUOUS
 10
152.8306010123
 20
125.0949610119
 40
12.75
 50
67.5
 51
125.0
  0
ARC
  8
SURFACE
 62
7
  6
CONTINUOUS
 10
152.6735803378
 20
125.1998788723
 40
12.75
 50
347.5
 51
45.0
  0
ARC
  8
0
 62
7
  6
CONTINUOUS
 10
141.112611302
 20
134.285974174
 40
1.5
 50
193.7409572667
 51
305.0
  0
ARC
  8
0
 62
7
  6
CONTINUOUS
 10
143.718227467
 20
150.0651343198
 40
1.5
 50
325.0
 51
45.0
  0
ARC
  8
SURFACE
 62
7
  6
CONTINUOUS
 10
141.7383284797
 20
152.0450333071
 40
1.5
 50
45.0
 51
125.0
  0
ARC
  8
0
 62
7
  6
CONTINUOUS
 10
118.0100092493
 20
187.5569726057
 40
1.5
 50
302.5
 51
22.5
  0
ARC
  8
0
 62
7
  6
CONTINUOUS
 10
109.5643106404
 20
173.9760556441
 40
1.5
 50
171.2409572667
 51
282.5
  0
ARC
  8
SURFACE
 62
7
  6
CONTINUOUS
 10
101.3633264023
 20
193.7749830167
 40
1.5
 50
122.5
 51
233.7590427333
  0
ARC
  8
SURFACE
 62
7
  6
CONTINUOUS
 10
116.9384956387
 20
190.1438352967
 40
1.5
 50
22.5
 51
102.5
  0
ARC
  8
0
 62
7
  6
CONTINUOUS
 10
105.4367628021
 20
216.7504774871
 40
13.0
 50
100.0
 51
148.7409572667
  0
ARC
  8
SURFACE
 62
7
  6
CONTINUOUS
 10
108.1619235825
 20
203.0501690731
 40
13.0
 50
233.7590427333
 51
282.5
  0
ARC
  8
0
 62
7
  6
CONTINUOUS
 10
97.3930602347
 20
207.9330238217
 40
12.75
 50
22.5
 51
80.0
  0
ARC
  8
SURFACE
 62
7
  6
CONTINUOUS
 10
97.3562179816
 20
208.118242336
 40
12.75
 50
302.5
 51
360.0
  0
ARC
  8
0
 62
7
  6
CONTINUOUS
 10
108.6062179816
 20
232.0330238217
 40
1.5
 50
280.0
 51
360.0
  0
ARC
  8
0
 62
7
  6
CONTINUOUS
 10
95.6062179816
 20
222.7179215406
 40
1.5
 50
148.7409572667
 51
260.0
  0
ARC
  8
0
 62
7
  6
CONTINUOUS
 10
120.9301917664
 20
172.2248428556
 40
13.0
 50
122.5
 51
171.2409572667
  0
ARC
  8
0
 62
7
  6
CONTINUOUS
 10
142.1229672218
 20
227.0379774395
 40
3.2
 50
45.0
 51
87.7455692246
  0
ARC
  8
0
 62
7
  6
CONTINUOUS
 10
181.8170294565
 20
125.2653014788
 40
1.5
 50
347.5
 51
67.5
  0
ARC
  8
0
 62
7
  6
CONTINUOUS
 10
185.4481771766
 20
109.6901322424
 40
1.5
 50
216.2409572667
 51
327.5
  0
ARC
  8
SURFACE
 62
7
  6
CONTINUOUS
 10
165.649249804
 20
117.8911164806
 40
1.5
 50
167.5
 51
278.7590427333
  0
ARC
  8
SURFACE
 62
7
  6
CONTINUOUS
 10
179.2301667655
 20
126.3368150895
 40
1.5
 50
67.5
 51
147.5
  0
ARC
  8
SURFACE
 62
7
  6
CONTINUOUS
 10
163.8980370155
 20
129.2569976066
 40
13.0
 50
278.7590427333
 51
327.5
  0
ARC
  8
0
 62
7
  6
CONTINUOUS
 10
199.7914364959
 20
105.6830238217
 40
12.75
 50
90.0
 51
147.5
  0
ARC
  8
SURFACE
 62
7
  6
CONTINUOUS
 10
199.6062179816
 20
105.7198660749
 40
12.75
 50
10.0
 51
67.5
  0
ARC
  8
0
 62
7
  6
CONTINUOUS
 10
194.723363233
 20
116.4887294227
 40
13.0
 50
167.5
 51
216.2409572667
  0
ARC
  8
SURFACE
 62
7
  6
CONTINUOUS
 10
208.4236716469
 20
113.7635686422
 40
13.0
 50
301.2590427333
 51
350.0
  0
ARC
  8
SURFACE
 62
7
  6
CONTINUOUS
 10
214.3911157004
 20
103.9330238217
 40
1.5
 50
190.0
 51
301.2590427333
  0
ARC
  8
SURFACE
 62
7
  6
CONTINUOUS
 10
223.7062179816
 20
116.9330238217
 40
1.5
 50
90.0
 51
170.0
  0
ARC
  8
0
 62
7
  6
CONTINUOUS
 10
218.7111715993
 20
150.449773062
 40
3.2
 50
2.2544307753
 51
45.0
  0
ARC
  8
0
 62
7
  6
CONTINUOUS
 10
198.275785623
 20
172.4407939569
 40
2.1
 50
45.0
 51
111.1237922694
  0
ARC
  8
0
 62
7
  6
CONTINUOUS
 10
196.7621720282
 20
176.3585706077
 40
2.1
 50
225.0
 51
291.1237922694
  0
ARC
  8
0
 62
7
  6
CONTINUOUS
 10
168.0317647676
 20
205.0889778684
 40
2.1
 50
158.8762077306
 51
225.0
  0
ARC
  8
0
 62
7
  6
CONTINUOUS
 10
164.1139881167
 20
206.6025914632
 40
2.1
 50
338.8762077306
 51
45.0
  0
ARC
  8
SURFACE
 62
7
  6
CONTINUOUS
 10
95.6062179816
 20
244.1481261028
 40
1.5
 50
100.0
 51
211.2590427333
  0
ARC
  8
0
 62
7
  6
CONTINUOUS
 10
97.3562179816
 20
258.7478053074
 40
12.75
 50
0.0
 51
57.5
  0
ARC
  8
SURFACE
 62
7
  6
CONTINUOUS
 10
97.3930602347
 20
258.9330238217
 40
12.75
 50
280.0
 51
337.5
  0
ARC
  8
SURFACE
 62
7
  6
CONTINUOUS
 10
108.6062179816
 20
234.8330238217
 40
1.5
 50
0.0
 51
80.0
  0
ARC
  8
0
 62
7
  6
CONTINUOUS
 10
108.1619235825
 20
263.8158785703
 40
13.0
 50
77.5
 51
126.2409572667
  0
ARC
  8
SURFACE
 62
7
  6
CONTINUOUS
 10
105.4367628021
 20
250.1155701564
 40
13.0
 50
211.2590427333
 51
260.0
  0
ARC
  8
0
 62
7
  6
CONTINUOUS
 10
116.9384956387
 20
276.7222123467
 40
1.5
 50
257.5
 51
337.5
  0
ARC
  8
0
 62
7
  6
CONTINUOUS
 10
101.3633264023
 20
273.0910646267
 40
1.5
 50
126.2409572667
 51
237.5
  0
ARC
  8
SURFACE
 62
7
  6
CONTINUOUS
 10
109.5643106404
 20
292.8899919993
 40
1.5
 50
77.5
 51
188.7590427333
  0
ARC
  8
SURFACE
 62
7
  6
CONTINUOUS
 10
118.0100092493
 20
279.3090750378
 40
1.5
 50
337.5
 51
57.5
  0
ARC
  8
0
 62
7
  6
CONTINUOUS
 10
145.2031517075
 20
233.4330238217
 40
16.0
 50
135.0
 51
225.0
  0
ARC
  8
0
 62
7
  6
CONTINUOUS
 10
142.3747245827
 20
233.4330238217
 40
3.2
 50
92.2544307753
 51
267.7455692247
  0
ARC
  8
0
 62
7
  6
CONTINUOUS
 10
142.1229672218
 20
239.828070204
 40
3.2
 50
272.2544307753
 51
315.0
  0
ARC
  8
SURFACE
 62
7
  6
CONTINUOUS
 10
120.9301917664
 20
294.6412047878
 40
13.0
 50
188.7590427333
 51
237.5
  0
ARC
  8
0
 62
7
  6
CONTINUOUS
 10
128.6907930826
 20
306.2557654394
 40
13.0
 50
55.0
 51
103.7409572667
  0
ARC
  8
0
 62
7
  6
CONTINUOUS
 10
116.7681551718
 20
305.708640791
 40
12.75
 50
337.5
 51
35.0
  0
ARC
  8
SURFACE
 62
7
  6
CONTINUOUS
 10
116.8730730322
 20
305.8656614655
 40
12.75
 50
257.5
 51
315.0
  0
ARC
  8
0
 62
7
  6
CONTINUOUS
 10
125.9591683338
 20
317.4266305013
 40
1.5
 50
103.7409572667
 51
215.0
  0
ARC
  8
0
 62
7
  6
CONTINUOUS
 10
141.7383284797
 20
314.8210143363
 40
1.5
 50
235.0
 51
315.0
  0
ARC
  8
SURFACE
 62
7
  6
CONTINUOUS
 10
143.718227467
 20
316.8009133236
 40
1.5
 50
315.0
 51
35.0
  0
ARC
  8
SURFACE
 62
7
  6
CONTINUOUS
 10
152.2834763639
 20
329.8484487207
 40
13.0
 50
166.2590427333
 51
215.0
  0
ARC
  8
0
 62
7
  6
CONTINUOUS
 10
152.6735803378
 20
341.6661687711
 40
12.75
 50
315.0
 51
12.5
  0
ARC
  8
SURFACE
 62
7
  6
CONTINUOUS
 10
152.8306010123
 20
341.7710866315
 40
12.75
 50
235.0
 51
292.5
  0
ARC
  8
SURFACE
 62
7
  6
CONTINUOUS
 10
141.112611302
 20
332.5800734695
 40
1.5
 50
55.0
 51
166.2590427333
  0
ARC
  8
0
 62
7
  6
CONTINUOUS
 10
164.1139881167
 20
260.2634561803
 40
2.1
 50
315.0
 51
21.1237922694
  0
ARC
  8
0
 62
7
  6
CONTINUOUS
 10
168.0317647676
 20
261.7770697751
 40
2.1
 50
135.0
 51
201.1237922695
  0
ARC
  8
0
 62
7
  6
CONTINUOUS
 10
196.7621720282
 20
290.5074770357
 40
2.1
 50
68.8762077306
 51
135.0
  0
ARC
  8
0
 62
7
  6
CONTINUOUS
 10
198.275785623
 20
294.4252536865
 40
2.1
 50
248.8762077306
 51
315.0
  0
ARC
  8
0
 62
7
  6
CONTINUOUS
 10
163.8980370155
 20
337.6090500369
 40
13.0
 50
32.5
 51
81.2409572667
  0
ARC
  8
0
 62
7
  6
CONTINUOUS
 10
179.2301667655
 20
340.529232554
 40
1.5
 50
212.5
 51
292.5
  0
ARC
  8
0
 62
7
  6
CONTINUOUS
 10
165.649249804
 20
348.9749311628
 40
1.5
 50
81.2409572667
 51
192.5
  0
ARC
  8
SURFACE
 62
7
  6
CONTINUOUS
 10
185.4481771766
 20
357.175915401
 40
1.5
 50
32.5
 51
143.7590427333
  0
ARC
  8
SURFACE
 62
7
  6
CONTINUOUS
 10
181.8170294565
 20
341.6007461646
 40
1.5
 50
292.5
 51
12.5
  0
ARC
  8
0
 62
7
  6
CONTINUOUS
 10
218.7111715993
 20
316.4162745814
 40
3.2
 50
315.0
 51
357.7455692247
  0
ARC
  8
0
 62
7
  6
CONTINUOUS
 10
208.4236716469
 20
353.1024790012
 40
13.0
 50
10.0
 51
58.7409572667
  0
ARC
  8
SURFACE
 62
7
  6
CONTINUOUS
 10
194.723363233
 20
350.3773182207
 40
13.0
 50
143.7590427333
 51
192.5
  0
ARC
  8
0
 62
7
  6
CONTINUOUS
 10
199.6062179816
 20
361.1461815686
 40
12.75
 50
292.5
 51
350.0
  0
ARC
  8
SURFACE
 62
7
  6
CONTINUOUS
 10
199.7914364959
 20
361.1830238217
 40
12.75
 50
212.5
 51
270.0
  0
ARC
  8
0
 62
7
  6
CONTINUOUS
 10
223.7062179816
 20
349.9330238217
 40
1.5
 50
190.0
 51
270.0
  0
ARC
  8
0
 62
7
  6
CONTINUOUS
 10
214.3911157004
 20
362.9330238217
 40
1.5
 50
58.7409572667
 51
170.0
  0
ARC
  8
0
 62
7
  6
CONTINUOUS
 10
241.7887643162
 20
113.7635686422
 40
13.0
 50
190.0
 51
238.7409572667
  0
ARC
  8
SURFACE
 62
7
  6
CONTINUOUS
 10
255.4890727302
 20
116.4887294227
 40
13.0
 50
323.7590427333
 51
12.5
  0
ARC
  8
0
 62
7
  6
CONTINUOUS
 10
250.6062179816
 20
105.7198660749
 40
12.75
 50
112.5
 51
170.0
  0
ARC
  8
SURFACE
 62
7
  6
CONTINUOUS
 10
250.4209994673
 20
105.6830238217
 40
12.75
 50
32.5
 51
90.0
  0
ARC
  8
0
 62
7
  6
CONTINUOUS
 10
226.5062179816
 20
116.9330238217
 40
1.5
 50
10.0
 51
90.0
  0
ARC
  8
0
 62
7
  6
CONTINUOUS
 10
235.8213202627
 20
103.9330238217
 40
1.5
 50
238.7409572667
 51
350.0
  0
ARC
  8
0
 62
7
  6
CONTINUOUS
 10
225.1062179816
 20
153.5299575476
 40
16.0
 50
225.0
 51
315.0
  0
ARC
  8
0
 62
7
  6
CONTINUOUS
 10
231.5012643638
 20
150.449773062
 40
3.2
 50
135.0
 51
177.7455692247
  0
ARC
  8
0
 62
7
  6
CONTINUOUS
 10
225.1062179816
 20
150.7015304229
 40
3.2
 50
182.2544307753
 51
357.7455692247
  0
ARC
  8
0
 62
7
  6
CONTINUOUS
 10
270.9822691976
 20
126.3368150895
 40
1.5
 50
32.5
 51
112.5
  0
ARC
  8
0
 62
7
  6
CONTINUOUS
 10
284.5631861591
 20
117.8911164806
 40
1.5
 50
261.2409572667
 51
12.5
  0
ARC
  8
SURFACE
 62
7
  6
CONTINUOUS
 10
264.7642587865
 20
109.6901322424
 40
1.5
 50
212.5
 51
323.7590427333
  0
ARC
  8
SURFACE
 62
7
  6
CONTINUOUS
 10
268.3954065066
 20
125.2653014788
 40
1.5
 50
112.5
 51
192.5
  0
ARC
  8
0
 62
7
  6
CONTINUOUS
 10
286.3143989476
 20
129.2569976066
 40
13.0
 50
212.5
 51
261.2409572667
  0
ARC
  8
0
 62
7
  6
CONTINUOUS
 10
286.0984478464
 20
206.6025914632
 40
2.1
 50
135.0
 51
201.1237922694
  0
ARC
  8
0
 62
7
  6
CONTINUOUS
 10
282.1806711956
 20
205.0889778684
 40
2.1
 50
315.0
 51
21.1237922694
  0
ARC
  8
0
 62
7
  6
CONTINUOUS
 10
253.4502639349
 20
176.3585706077
 40
2.1
 50
248.8762077306
 51
315.0
  0
ARC
  8
0
 62
7
  6
CONTINUOUS
 10
251.9366503401
 20
172.4407939569
 40
2.1
 50
68.8762077306
 51
135.0
  0
ARC
  8
SURFACE
 62
7
  6
CONTINUOUS
 10
297.9289595992
 20
137.0175989227
 40
13.0
 50
346.2590427333
 51
35.0
  0
ARC
  8
0
 62
7
  6
CONTINUOUS
 10
297.5388556253
 20
125.1998788723
 40
12.75
 50
135.0
 51
192.5
  0
ARC
  8
SURFACE
 62
7
  6
CONTINUOUS
 10
297.3818349508
 20
125.0949610119
 40
12.75
 50
55.0
 51
112.5
  0
ARC
  8
SURFACE
 62
7
  6
CONTINUOUS
 10
309.0998246611
 20
134.285974174
 40
1.5
 50
235.0
 51
346.2590427333
  0
ARC
  8
0
 62
7
  6
CONTINUOUS
 10
308.4741074835
 20
152.0450333071
 40
1.5
 50
55.0
 51
135.0
  0
ARC
  8
SURFACE
 62
7
  6
CONTINUOUS
 10
306.4942084961
 20
150.0651343198
 40
1.5
 50
135.0
 51
215.0
  0
ARC
  8
0
 62
7
  6
CONTINUOUS
 10
321.5216428805
 20
160.6102822041
 40
13.0
 50
235.0
 51
283.7409572667
  0
ARC
  8
0
 62
7
  6
CONTINUOUS
 10
333.4442807914
 20
161.1574068524
 40
12.75
 50
157.5
 51
215.0
  0
ARC
  8
SURFACE
 62
7
  6
CONTINUOUS
 10
333.3393629309
 20
161.0003861779
 40
12.75
 50
77.5
 51
135.0
  0
ARC
  8
0
 62
7
  6
CONTINUOUS
 10
324.2532676293
 20
149.4394171422
 40
1.5
 50
283.7409572667
 51
35.0
  0
ARC
  8
SURFACE
 62
7
  6
CONTINUOUS
 10
329.2822441967
 20
172.2248428556
 40
13.0
 50
8.7590427333
 51
57.5
  0
ARC
  8
0
 62
7
  6
CONTINUOUS
 10
308.0894687413
 20
227.0379774395
 40
3.2
 50
92.2544307753
 51
135.0
  0
ARC
  8
0
 62
7
  6
CONTINUOUS
 10
333.2739403244
 20
190.1438352967
 40
1.5
 50
77.5
 51
157.5
  0
ARC
  8
0
 62
7
  6
CONTINUOUS
 10
348.8491095609
 20
193.7749830167
 40
1.5
 50
306.2409572667
 51
57.5
  0
ARC
  8
SURFACE
 62
7
  6
CONTINUOUS
 10
340.6481253227
 20
173.9760556441
 40
1.5
 50
257.5
 51
8.7590427333
  0
ARC
  8
SURFACE
 62
7
  6
CONTINUOUS
 10
332.2024267138
 20
187.5569726057
 40
1.5
 50
157.5
 51
237.5
  0
ARC
  8
0
 62
7
  6
CONTINUOUS
 10
342.0505123806
 20
203.0501690731
 40
13.0
 50
257.5
 51
306.2409572667
  0
ARC
  8
SURFACE
 62
7
  6
CONTINUOUS
 10
344.775673161
 20
216.7504774871
 40
13.0
 50
31.2590427333
 51
80.0
  0
ARC
  8
SURFACE
 62
7
  6
CONTINUOUS
 10
341.6062179816
 20
232.0330238217
 40
1.5
 50
180.0
 51
260.0
  0
ARC
  8
0
 62
7
  6
CONTINUOUS
 10
352.8562179816
 20
208.118242336
 40
12.75
 50
180.0
 51
237.5
  0
ARC
  8
SURFACE
 62
7
  6
CONTINUOUS
 10
352.8193757284
 20
207.9330238217
 40
12.75
 50
100.0
 51
157.5
  0
ARC
  8
SURFACE
 62
7
  6
CONTINUOUS
 10
354.6062179816
 20
222.7179215406
 40
1.5
 50
280.0
 51
31.2590427333
  0
ARC
  8
0
 62
7
  6
CONTINUOUS
 10
251.9366503401
 20
294.4252536865
 40
2.1
 50
225.0
 51
291.1237922694
  0
ARC
  8
0
 62
7
  6
CONTINUOUS
 10
253.4502639349
 20
290.5074770357
 40
2.1
 50
45.0
 51
111.1237922694
  0
ARC
  8
0
 62
7
  6
CONTINUOUS
 10
282.1806711956
 20
261.7770697751
 40
2.1
 50
338.8762077306
 51
45.0
  0
ARC
  8
0
 62
7
  6
CONTINUOUS
 10
286.0984478464
 20
260.2634561803
 40
2.1
 50
158.8762077306
 51
225.0
  0
ARC
  8
0
 62
7
  6
CONTINUOUS
 10
225.1062179816
 20
313.3360900958
 40
16.0
 50
45.0
 51
135.0
  0
ARC
  8
0
 62
7
  6
CONTINUOUS
 10
225.1062179816
 20
316.1645172205
 40
3.2
 50
2.2544307753
 51
177.7455692247
  0
ARC
  8
0
 62
7
  6
CONTINUOUS
 10
231.5012643638
 20
316.4162745814
 40
3.2
 50
182.2544307753
 51
225.0
  0
ARC
  8
SURFACE
 62
7
  6
CONTINUOUS
 10
226.5062179816
 20
349.9330238217
 40
1.5
 50
270.0
 51
350.0
  0
ARC
  8
SURFACE
 62
7
  6
CONTINUOUS
 10
235.8213202627
 20
362.9330238217
 40
1.5
 50
10.0
 51
121.2590427333
  0
ARC
  8
0
 62
7
  6
CONTINUOUS
 10
255.4890727302
 20
350.3773182207
 40
13.0
 50
347.5
 51
36.2409572667
  0
ARC
  8
SURFACE
 62
7
  6
CONTINUOUS
 10
241.7887643162
 20
353.1024790012
 40
13.0
 50
121.2590427333
 51
170.0
  0
ARC
  8
0
 62
7
  6
CONTINUOUS
 10
250.4209994673
 20
361.1830238217
 40
12.75
 50
270.0
 51
327.5
  0
ARC
  8
SURFACE
 62
7
  6
CONTINUOUS
 10
250.6062179816
 20
361.1461815686
 40
12.75
 50
190.0
 51
247.5
  0
ARC
  8
SURFACE
 62
7
  6
CONTINUOUS
 10
286.3143989476
 20
337.6090500369
 40
13.0
 50
98.7590427333
 51
147.5
  0
ARC
  8
0
 62
7
  6
CONTINUOUS
 10
268.3954065066
 20
341.6007461646
 40
1.5
 50
167.5
 51
247.5
  0
ARC
  8
0
 62
7
  6
CONTINUOUS
 10
264.7642587865
 20
357.175915401
 40
1.5
 50
36.2409572667
 51
147.5
  0
ARC
  8
SURFACE
 62
7
  6
CONTINUOUS
 10
284.5631861591
 20
348.9749311628
 40
1.5
 50
347.5
 51
98.7590427333
  0
ARC
  8
SURFACE
 62
7
  6
CONTINUOUS
 10
270.9822691976
 20
340.529232554
 40
1.5
 50
247.5
 51
327.5
  0
ARC
  8
0
 62
7
  6
CONTINUOUS
 10
305.0092842556
 20
233.4330238217
 40
16.0
 50
315.0
 51
45.0
  0
ARC
  8
0
 62
7
  6
CONTINUOUS
 10
308.0894687413
 20
239.828070204
 40
3.2
 50
225.0
 51
267.7455692247
  0
ARC
  8
0
 62
7
  6
CONTINUOUS
 10
307.8377113804
 20
233.4330238217
 40
3.2
 50
272.2544307753
 51
87.7455692247
  0
ARC
  8
0
 62
7
  6
CONTINUOUS
 10
329.2822441967
 20
294.6412047878
 40
13.0
 50
302.5
 51
351.2409572667
  0
ARC
  8
0
 62
7
  6
CONTINUOUS
 10
344.775673161
 20
250.1155701564
 40
13.0
 50
280.0
 51
328.7409572667
  0
ARC
  8
SURFACE
 62
7
  6
CONTINUOUS
 10
342.0505123806
 20
263.8158785703
 40
13.0
 50
53.7590427333
 51
102.5
  0
ARC
  8
0
 62
7
  6
CONTINUOUS
 10
352.8193757284
 20
258.9330238217
 40
12.75
 50
202.5
 51
260.0
  0
ARC
  8
SURFACE
 62
7
  6
CONTINUOUS
 10
352.8562179816
 20
258.7478053074
 40
12.75
 50
122.5
 51
180.0
  0
ARC
  8
0
 62
7
  6
CONTINUOUS
 10
341.6062179816
 20
234.8330238217
 40
1.5
 50
100.0
 51
180.0
  0
ARC
  8
0
 62
7
  6
CONTINUOUS
 10
354.6062179816
 20
244.1481261028
 40
1.5
 50
328.7409572667
 51
80.0
  0
ARC
  8
0
 62
7
  6
CONTINUOUS
 10
332.2024267138
 20
279.3090750378
 40
1.5
 50
122.5
 51
202.5
  0
ARC
  8
0
 62
7
  6
CONTINUOUS
 10
340.6481253227
 20
292.8899919993
 40
1.5
 50
351.2409572667
 51
102.5
  0
ARC
  8
SURFACE
 62
7
  6
CONTINUOUS
 10
348.8491095609
 20
273.0910646267
 40
1.5
 50
302.5
 51
53.7590427333
  0
ARC
  8
SURFACE
 62
7
  6
CONTINUOUS
 10
333.2739403244
 20
276.7222123467
 40
1.5
 50
202.5
 51
282.5
  0
ARC
  8
0
 62
7
  6
CONTINUOUS
 10
306.4942084961
 20
316.8009133236
 40
1.5
 50
145.0
 51
225.0
  0
ARC
  8
SURFACE
 62
7
  6
CONTINUOUS
 10
308.4741074835
 20
314.8210143363
 40
1.5
 50
225.0
 51
305.0
  0
ARC
  8
0
 62
7
  6
CONTINUOUS
 10
297.9289595992
 20
329.8484487207
 40
13.0
 50
325.0
 51
13.7409572667
  0
ARC
  8
0
 62
7
  6
CONTINUOUS
 10
297.3818349508
 20
341.7710866315
 40
12.75
 50
247.5
 51
305.0
  0
ARC
  8
SURFACE
 62
7
  6
CONTINUOUS
 10
297.5388556253
 20
341.6661687711
 40
12.75
 50
167.5
 51
225.0
  0
ARC
  8
0
 62
7
  6
CONTINUOUS
 10
309.0998246611
 20
332.5800734695
 40
1.5
 50
13.7409572667
 51
125.0
  0
ARC
  8
SURFACE
 62
7
  6
CONTINUOUS
 10
321.5216428805
 20
306.2557654394
 40
13.0
 50
76.2590427333
 51
125.0
  0
ARC
  8
0
 62
7
  6
CONTINUOUS
 10
333.3393629309
 20
305.8656614655
 40
12.75
 50
225.0
 51
282.5
  0
ARC
  8
SURFACE
 62
7
  6
CONTINUOUS
 10
333.4442807914
 20
305.708640791
 40
12.75
 50
145.0
 51
202.5
  0
ARC
  8
SURFACE
 62
7
  6
CONTINUOUS
 10
324.2532676293
 20
317.4266305013
 40
1.5
 50
325.0
 51
76.2590427333
  0
ARC
  8
0
 62
7
  6
CONTINUOUS
 10
419.7805071721
 20
326.8360900958
 40
2.5
 50
90.0
 51
180.0
  0
ARC
  8
0
 62
7
  6
CONTINUOUS
 10
419.7805071721
 20
140.0299575476
 40
2.5
 50
180.0
 51
270.0
  0
ARC
  8
0
 62
7
  6
CONTINUOUS
 10
464.9805071721
 20
326.8360900958
 40
2.5
 50
0.0
 51
90.0
  0
ARC
  8
0
 62
7
  6
CONTINUOUS
 10
464.9805071721
 20
140.0299575476
 40
2.5
 50
270.0
 51
360.0
  0
ENDSEC
  0
EOF
