  0
SECTION
  2
HEADER
  9
$EXTMAX
 10
594.0
 20
420.0
 30
0.0
  9
$EXTMIN
 10
0.0
 20
0.0
 30
0.0
  9
$LIMMIN
 10
0.0
 20
0.0
  9
$LIMMAX
 10
594.0
 20
420.0
  9
$VIEWCTR
 10
297.0
 20
210.0
  9
$VIEWSIZE
 40
420.0
  9
$CLAYER
  8
0
  9
$LTSCALE
 40
32.67
  9
$CELTYPE
  6
BYLAYER
  9
$DIMSCALE
 40
1.0
  9
$DIMASZ
 40
3.5
  9
$DIMEXO
 40
1.0
  9
$DIMDLI
 40
22.572
  9
$DIMEXE
 40
2.0
  9
$DIMCEN
 40
5.346
  9
$DIMLFAC
 40
1.0
  9
$DIMBLK
  1
_FILLED
  9
$DIMTXT
 40
3.5
  9
$AUNITS
 70
0
  9
$PDMODE
 70
3
  9
$PDSIZE
 40
0.3125
  9
$TILEMODE
 70
1
  0
ENDSEC
  0
SECTION
  2
TABLES
  0
TABLE
  2
LTYPE
 70
6
  0
LTYPE
  2
BYBLOCK
 70
0
  3

 72
65
 73
0
 40
0.0
  0
LTYPE
  2
BYLAYER
 70
0
  3

 72
65
 73
0
 40
0.0
  0
LTYPE
  2
CONTINUOUS
 70
64
  3
Solid line
 72
65
 73
0
 40
0.0
  0
LTYPE
  2
CENTER
 70
64
  3
____ _ ____ _ ____ _ ____ _ ____ _ ____ _ ____
 72
65
 73
4
 40
0.6
 49
0.375
 49
-0.075
 49
0.075
 49
-0.075
  0
LTYPE
  2
HIDDEN
 70
64
  3
- - - - - - - - - - - - - - - - - - - -
 72
65
 73
2
 40
0.2
 49
0.1
 49
-0.1
  0
LTYPE
  2
PHANTOM
 70
64
  3
_____ _ _ _____ _ _ _____ _ _ _____
 72
65
 73
6
 40
0.8
 49
0.45
 49
-0.05
 49
0.1
 49
-0.05
 49
0.1
 49
-0.05
  0
LTYPE
  2
DOT
 70
64
  3
. . . . . . . . . . . . . . . . . . . .
 72
65
 73
2
 40
0.2
 49
0.1
 49
-0.1
  0
LTYPE
  2
DASHED
 70
64
  3
- - - - - - - - - - - - - - - - - - - -
 72
65
 73
2
 40
0.2
 49
0.1
 49
-0.1
  0
ENDTAB
  0
TABLE
  2
LAYER
 70
36
  0
LAYER
  2
0
 70
0
 62
7
  6
CONTINUOUS
  0
LAYER
  2
DEFAULT_1
 70
0
 62
7
  6
CENTER
  0
LAYER
  2
DEFAULT_2
 70
0
 62
8
  6
HIDDEN
  0
LAYER
  2
DEFAULT_3
 70
0
 62
7
  6
PHANTOM
  0
LAYER
  2
CSYS
 70
0
 62
7
  6
CONTINUOUS
  0
LAYER
  2
CURVE
 70
0
 62
7
  6
CONTINUOUS
  0
LAYER
  2
PITCH
 70
0
 62
7
  6
CONTINUOUS
  0
LAYER
  2
SURFACE
 70
0
 62
7
  6
CONTINUOUS
  0
ENDTAB
  0
TABLE
  2
STYLE
 70
1
  0
STYLE
  2
STANDARD
 70
0
 40
0.0
 41
0.8
 50
0.0
 71
0
 42
0.2
  3
txt
  4

  0
STYLE
  2
TEXTSTYLE_1
 70
0
 40
0.0
 41
0.8
 50
0.0
 71
0
 42
0.2
  3
gdt
  4

  0
STYLE
  2
TEXTSTYLE_2
 70
0
 40
0.0
 41
0.6
 50
0.0
 71
0
 42
0.2
  3
txt
  4

  0
STYLE
  2
TEXTSTYLE_3
 70
0
 40
0.0
 41
1.0
 50
0.0
 71
0
 42
0.2
  3
ftb_____.ttf
  4

  0
STYLE
  2
TEXTSTYLE_4
 70
0
 40
0.0
 41
1.0
 50
0.0
 71
0
 42
0.2
  3
fti_____.ttf
  4

  0
STYLE
  2
TEXTSTYLE_5
 70
0
 40
0.0
 41
1.0
 50
0.0
 71
0
 42
0.2
  3
frutiger light.ttf
  4

  0
STYLE
  2
TEXTSTYLE_6
 70
0
 40
0.0
 41
0.7
 50
0.0
 71
0
 42
0.2
  3
txt
  4

  0
STYLE
  2
TEXTSTYLE_7
 70
0
 40
0.0
 41
0.6
 50
0.0
 71
0
 42
0.2
  3
txt
  4

  0
ENDTAB
  0
ENDSEC
  0
SECTION
  2
BLOCKS
  0
BLOCK
  8
0
 62
2
  6
CONTINUOUS
  2
UNI_LOGO2_BL1
 70
64
 10
557.4079930916
 20
35.8092573885
  0
TEXT
  8
0
 62
7
  6
CONTINUOUS
 10
548.4662781001
 20
30.9020137655
  7
TEXTSTYLE_4
 40
1.0655737705
  1
The brand for plastic modular belts and chains
 41
1.0
 72
0
  0
LINE
  8
0
 62
7
  6
CONTINUOUS
 10
533.3860614807
 20
36.3830278803
 11
533.3860614807
 21
34.2518803393
  0
LINE
  8
0
 62
7
  6
CONTINUOUS
 10
533.6751239738
 20
31.2609490436
 11
533.6751239738
 21
31.3577401029
  0
LINE
  8
0
 62
7
  6
CONTINUOUS
 10
533.3860614807
 20
31.3254764164
 11
533.4438739824
 21
31.1318942979
  0
LINE
  8
0
 62
7
  6
CONTINUOUS
 10
534.7795041036
 20
34.1699131262
 11
534.7795041036
 21
36.3830278803
  0
LINE
  8
0
 62
7
  6
CONTINUOUS
 10
535.6985614255
 20
32.3256508311
 11
535.6985614255
 21
30.8092573885
  0
LINE
  8
0
 62
7
  6
CONTINUOUS
 10
535.9876239807
 20
30.8092573885
 11
535.9876239807
 21
31.5513222666
  0
LINE
  8
0
 62
7
  6
CONTINUOUS
 10
535.9876239807
 20
31.6803770123
 11
535.9876239807
 21
32.3256508311
  0
LINE
  8
0
 62
7
  6
CONTINUOUS
 10
533.4438739824
 20
31.5190585802
 11
533.3860614807
 21
31.3254764164
  0
LINE
  8
0
 62
7
  6
CONTINUOUS
 10
533.7907489669
 20
31.0996306115
 11
533.6751239738
 21
31.2609490436
  0
LINE
  8
0
 62
7
  6
CONTINUOUS
 10
534.8891865358
 20
31.6158496394
 11
534.9469989807
 21
31.5190585802
  0
LINE
  8
0
 62
7
  6
CONTINUOUS
 10
535.2360615358
 20
31.5190585802
 11
535.1782489255
 21
31.6481133259
  0
LINE
  8
0
 62
7
  6
CONTINUOUS
 10
536.6647500053
 20
36.3830278803
 11
536.6647500053
 21
34.5797491918
  0
LINE
  8
0
 62
7
  6
CONTINUOUS
 10
536.6647500053
 20
33.2682737819
 11
536.6647500053
 21
32.612536077
  0
LINE
  8
0
 62
7
  6
CONTINUOUS
 10
537.0282489807
 20
31.4545312073
 11
537.0282489807
 21
30.8092573885
  0
LINE
  8
0
 62
7
  6
CONTINUOUS
 10
537.3173113704
 20
30.8092573885
 11
537.3173113704
 21
31.4545312073
  0
LINE
  8
0
 62
7
  6
CONTINUOUS
 10
533.6751239738
 20
31.3577401029
 11
533.7329364807
 21
31.4867948937
  0
LINE
  8
0
 62
7
  6
CONTINUOUS
 10
533.4438739824
 20
31.1318942979
 11
533.5594989807
 21
31.0028395296
  0
LINE
  8
0
 62
7
  6
CONTINUOUS
 10
536.9704363704
 20
31.583585953
 11
537.0282489807
 21
31.4545312073
  0
LINE
  8
0
 62
7
  6
CONTINUOUS
 10
537.7798115909
 20
31.0996306115
 11
537.8376238704
 21
30.9705758432
  0
LINE
  8
0
 62
7
  6
CONTINUOUS
 10
537.3173113704
 20
31.4545312073
 11
537.2594990909
 21
31.6158496394
  0
LINE
  8
0
 62
7
  6
CONTINUOUS
 10
537.7798115909
 20
31.6481133259
 11
537.7798115909
 21
31.583585953
  0
LINE
  8
0
 62
7
  6
CONTINUOUS
 10
537.7798115909
 20
31.1964216708
 11
537.7798115909
 21
31.0996306115
  0
LINE
  8
0
 62
7
  6
CONTINUOUS
 10
538.0581926282
 20
32.612536077
 11
538.0581926282
 21
36.3830278803
  0
LINE
  8
0
 62
7
  6
CONTINUOUS
 10
538.0688739807
 20
31.0673669025
 11
538.0688739807
 21
31.1318942979
  0
LINE
  8
0
 62
7
  6
CONTINUOUS
 10
538.3860614807
 20
36.3830278803
 11
538.3860614807
 21
32.612536077
  0
LINE
  8
0
 62
7
  6
CONTINUOUS
 10
535.1782489255
 20
31.0028395296
 11
535.2360615358
 21
31.1318942979
  0
LINE
  8
0
 62
7
  6
CONTINUOUS
 10
539.5719992012
 20
30.9060484591
 11
539.5141862601
 21
31.0673669025
  0
LINE
  8
0
 62
7
  6
CONTINUOUS
 10
539.2251242012
 20
31.583585953
 11
539.2251242012
 21
31.4867948937
  0
LINE
  8
0
 62
7
  6
CONTINUOUS
 10
539.2251242012
 20
31.3577401029
 11
539.2251242012
 21
31.1641579843
  0
LINE
  8
0
 62
7
  6
CONTINUOUS
 10
539.5141862601
 20
31.0673669025
 11
539.5141862601
 21
31.583585953
  0
LINE
  8
0
 62
7
  6
CONTINUOUS
 10
539.7795041036
 20
32.612536077
 11
539.7795041036
 21
34.4158147655
  0
LINE
  8
0
 62
7
  6
CONTINUOUS
 10
539.7795041036
 20
35.7272901754
 11
539.7795041036
 21
36.3830278803
  0
LINE
  8
0
 62
7
  6
CONTINUOUS
 10
540.0923117012
 20
32.3256508311
 11
540.0923117012
 21
32.164332399
  0
LINE
  8
0
 62
7
  6
CONTINUOUS
 10
540.0923117012
 20
31.8416954444
 11
540.0923117012
 21
30.8092573885
  0
LINE
  8
0
 62
7
  6
CONTINUOUS
 10
540.3813737601
 20
30.8092573885
 11
540.3813737601
 21
31.8416954444
  0
LINE
  8
0
 62
7
  6
CONTINUOUS
 10
540.3813737601
 20
32.164332399
 11
540.3813737601
 21
32.3256508311
  0
LINE
  8
0
 62
7
  6
CONTINUOUS
 10
534.9469989807
 20
31.1318942979
 11
534.8891865358
 21
31.035103216
  0
LINE
  8
0
 62
7
  6
CONTINUOUS
 10
537.2594990909
 20
31.6158496394
 11
537.2016864807
 21
31.6803770123
  0
LINE
  8
0
 62
7
  6
CONTINUOUS
 10
538.1266865909
 20
31.0028395296
 11
538.0688739807
 21
31.0673669025
  0
LINE
  8
0
 62
7
  6
CONTINUOUS
 10
539.2829364807
 20
30.873784767
 11
539.3407487601
 21
30.8092573885
  0
LINE
  8
0
 62
7
  6
CONTINUOUS
 10
539.2251242012
 20
30.9705758432
 11
539.2829364807
 21
30.873784767
  0
LINE
  8
0
 62
7
  6
CONTINUOUS
 10
539.6298114807
 20
30.8092573885
 11
539.5719992012
 21
30.9060484591
  0
LINE
  8
0
 62
7
  6
CONTINUOUS
 10
539.5141862601
 20
31.583585953
 11
539.4563739807
 21
31.6803770123
  0
LINE
  8
0
 62
7
  6
CONTINUOUS
 10
540.8438739807
 20
31.8416954444
 11
540.8438739807
 21
30.8092573885
  0
LINE
  8
0
 62
7
  6
CONTINUOUS
 10
541.1329367012
 20
30.8092573885
 11
541.1329367012
 21
31.5513222666
  0
LINE
  8
0
 62
7
  6
CONTINUOUS
 10
541.1329367012
 20
31.6803770123
 11
541.1329367012
 21
31.8416954444
  0
LINE
  8
0
 62
7
  6
CONTINUOUS
 10
541.6647500053
 20
34.8256508311
 11
541.6647500053
 21
32.612536077
  0
LINE
  8
0
 62
7
  6
CONTINUOUS
 10
533.5594989807
 20
31.6481133259
 11
533.4438739824
 21
31.5190585802
  0
LINE
  8
0
 62
7
  6
CONTINUOUS
 10
533.7329364807
 20
31.4867948937
 11
533.7907489669
 21
31.5513222666
  0
LINE
  8
0
 62
7
  6
CONTINUOUS
 10
533.5594989807
 20
31.0028395296
 11
533.6751239738
 21
30.9383121455
  0
LINE
  8
0
 62
7
  6
CONTINUOUS
 10
533.9641864669
 20
31.0028395296
 11
533.7907489669
 21
31.0996306115
  0
LINE
  8
0
 62
7
  6
CONTINUOUS
 10
539.1673112601
 20
31.6481133259
 11
539.2251242012
 21
31.583585953
  0
LINE
  8
0
 62
7
  6
CONTINUOUS
 10
542.1157487601
 20
31.583585953
 11
542.1735617012
 21
31.4222675209
  0
LINE
  8
0
 62
7
  6
CONTINUOUS
 10
542.4626237601
 20
31.4222675209
 11
542.4048114807
 21
31.583585953
  0
LINE
  8
0
 62
7
  6
CONTINUOUS
 10
542.1735617012
 20
31.4222675209
 11
542.1735617012
 21
30.8092573885
  0
LINE
  8
0
 62
7
  6
CONTINUOUS
 10
542.4626237601
 20
30.8092573885
 11
542.4626237601
 21
31.4222675209
  0
LINE
  8
0
 62
7
  6
CONTINUOUS
 10
542.9251239807
 20
31.6481133259
 11
542.9251239807
 21
31.583585953
  0
LINE
  8
0
 62
7
  6
CONTINUOUS
 10
543.0581926282
 20
32.612536077
 11
543.0581926282
 21
34.743683618
  0
LINE
  8
0
 62
7
  6
CONTINUOUS
 10
543.3860614807
 20
36.3830278803
 11
543.3860614807
 21
32.612536077
  0
LINE
  8
0
 62
7
  6
CONTINUOUS
 10
538.0688739807
 20
31.1318942979
 11
538.1266865909
 21
31.2286853572
  0
LINE
  8
0
 62
7
  6
CONTINUOUS
 10
533.6751239738
 20
30.9383121455
 11
533.8485614944
 21
30.873784767
  0
LINE
  8
0
 62
7
  6
CONTINUOUS
 10
535.1782489255
 20
31.6481133259
 11
535.0048114255
 21
31.7449043851
  0
LINE
  8
0
 62
7
  6
CONTINUOUS
 10
537.8376238704
 20
30.9705758432
 11
538.0110613704
 21
30.873784767
  0
LINE
  8
0
 62
7
  6
CONTINUOUS
 10
536.8548114807
 20
31.6481133259
 11
536.9704363704
 21
31.583585953
  0
LINE
  8
0
 62
7
  6
CONTINUOUS
 10
537.2016864807
 20
31.6803770123
 11
537.0860615909
 21
31.7449043851
  0
LINE
  8
0
 62
7
  6
CONTINUOUS
 10
542.9251239807
 20
31.0673669025
 11
543.0407492012
 21
30.9383121455
  0
LINE
  8
0
 62
7
  6
CONTINUOUS
 10
543.2719989807
 20
31.0028395296
 11
543.2141867012
 21
31.0673669025
  0
LINE
  8
0
 62
7
  6
CONTINUOUS
 10
542.9251239807
 20
31.583585953
 11
543.0407492012
 21
31.4545312073
  0
LINE
  8
0
 62
7
  6
CONTINUOUS
 10
542.4048114807
 20
31.583585953
 11
542.3469992012
 21
31.6803770123
  0
LINE
  8
0
 62
7
  6
CONTINUOUS
 10
544.7751235396
 20
31.0028395296
 11
544.7751235396
 21
31.0673669025
  0
LINE
  8
0
 62
7
  6
CONTINUOUS
 10
544.7795041036
 20
32.612536077
 11
544.7795041036
 21
36.3830278803
  0
LINE
  8
0
 62
7
  6
CONTINUOUS
 10
537.8376238704
 20
31.7126406987
 11
537.7798115909
 21
31.6481133259
  0
LINE
  8
0
 62
7
  6
CONTINUOUS
 10
534.7157489531
 20
31.6803770123
 11
534.8891865358
 21
31.6158496394
  0
LINE
  8
0
 62
7
  6
CONTINUOUS
 10
539.4563739807
 20
31.6803770123
 11
539.3407487601
 21
31.7449043851
  0
LINE
  8
0
 62
7
  6
CONTINUOUS
 10
543.2719989807
 20
31.5190585802
 11
543.2141867012
 21
31.583585953
  0
LINE
  8
0
 62
7
  6
CONTINUOUS
 10
544.4282492012
 20
31.1318942979
 11
544.4860614807
 21
31.0673669025
  0
LINE
  8
0
 62
7
  6
CONTINUOUS
 10
544.7751235396
 20
31.0673669025
 11
544.6594989807
 21
31.1964216708
  0
LINE
  8
0
 62
7
  6
CONTINUOUS
 10
544.4282492012
 20
31.6481133259
 11
544.4860614807
 21
31.583585953
  0
LINE
  8
0
 62
7
  6
CONTINUOUS
 10
544.7751235396
 20
31.583585953
 11
544.6594989807
 21
31.7126406987
  0
LINE
  8
0
 62
7
  6
CONTINUOUS
 10
538.0688739807
 20
31.583585953
 11
538.1266865909
 21
31.6481133259
  0
LINE
  8
0
 62
7
  6
CONTINUOUS
 10
537.8954364807
 20
31.3254764164
 11
537.7798115909
 21
31.1964216708
  0
LINE
  8
0
 62
7
  6
CONTINUOUS
 10
539.2251242012
 20
31.1641579843
 11
539.1673112601
 21
31.0996306115
  0
LINE
  8
0
 62
7
  6
CONTINUOUS
 10
539.1673112601
 20
30.9060484591
 11
539.2251242012
 21
30.9705758432
  0
LINE
  8
0
 62
7
  6
CONTINUOUS
 10
538.0110613704
 20
30.873784767
 11
538.1266865909
 21
30.8415210777
  0
LINE
  8
0
 62
7
  6
CONTINUOUS
 10
535.0048114255
 20
31.7449043851
 11
534.7735614807
 21
31.809431758
  0
LINE
  8
0
 62
7
  6
CONTINUOUS
 10
538.3579363704
 20
30.9383121455
 11
538.1266865909
 21
31.0028395296
  0
LINE
  8
0
 62
7
  6
CONTINUOUS
 10
537.0860615909
 20
31.7449043851
 11
536.9126240909
 21
31.809431758
  0
LINE
  8
0
 62
7
  6
CONTINUOUS
 10
539.3407487601
 20
31.7449043851
 11
539.1673112601
 21
31.809431758
  0
LINE
  8
0
 62
7
  6
CONTINUOUS
 10
542.0001242012
 20
31.6481133259
 11
542.1157487601
 21
31.583585953
  0
LINE
  8
0
 62
7
  6
CONTINUOUS
 10
542.3469992012
 20
31.6803770123
 11
542.2313739807
 21
31.7449043851
  0
LINE
  8
0
 62
7
  6
CONTINUOUS
 10
533.8485614944
 20
30.873784767
 11
534.0219989944
 21
30.8415210777
  0
LINE
  8
0
 62
7
  6
CONTINUOUS
 10
534.3110615082
 20
30.9383121455
 11
533.9641864669
 21
31.0028395296
  0
LINE
  8
0
 62
7
  6
CONTINUOUS
 10
536.7391865909
 20
31.6803770123
 11
536.8548114807
 21
31.6481133259
  0
LINE
  8
0
 62
7
  6
CONTINUOUS
 10
539.0516867012
 20
31.6803770123
 11
539.1673112601
 21
31.6481133259
  0
LINE
  8
0
 62
7
  6
CONTINUOUS
 10
543.3876242012
 20
30.9705758432
 11
543.2719989807
 21
31.0028395296
  0
LINE
  8
0
 62
7
  6
CONTINUOUS
 10
541.8844989807
 20
31.6803770123
 11
542.0001242012
 21
31.6481133259
  0
LINE
  8
0
 62
7
  6
CONTINUOUS
 10
543.0407492012
 20
30.9383121455
 11
543.2141867012
 21
30.873784767
  0
LINE
  8
0
 62
7
  6
CONTINUOUS
 10
542.2313739807
 20
31.7449043851
 11
542.0579364807
 21
31.809431758
  0
LINE
  8
0
 62
7
  6
CONTINUOUS
 10
543.4454364807
 20
31.4545312073
 11
543.2719989807
 21
31.5190585802
  0
LINE
  8
0
 62
7
  6
CONTINUOUS
 10
544.2548117012
 20
31.1964216708
 11
544.4282492012
 21
31.1318942979
  0
LINE
  8
0
 62
7
  6
CONTINUOUS
 10
544.6594989807
 20
31.7126406987
 11
544.4860614807
 21
31.7771680715
  0
LINE
  8
0
 62
7
  6
CONTINUOUS
 10
543.0407492012
 20
31.4545312073
 11
543.2719989807
 21
31.3577401029
  0
LINE
  8
0
 62
7
  6
CONTINUOUS
 10
544.6594989807
 20
31.1964216708
 11
544.4282492012
 21
31.29321273
  0
LINE
  8
0
 62
7
  6
CONTINUOUS
 10
543.2141867012
 20
31.583585953
 11
543.2719989807
 21
31.6481133259
  0
LINE
  8
0
 62
7
  6
CONTINUOUS
 10
533.6751239738
 20
31.7126406987
 11
533.5594989807
 21
31.6481133259
  0
LINE
  8
0
 62
7
  6
CONTINUOUS
 10
533.7907489669
 20
31.5513222666
 11
533.9641864669
 21
31.6481133259
  0
LINE
  8
0
 62
7
  6
CONTINUOUS
 10
536.1032490358
 20
31.7449043851
 11
535.9876239807
 21
31.6803770123
  0
LINE
  8
0
 62
7
  6
CONTINUOUS
 10
535.9876239807
 20
31.5513222666
 11
536.1032490358
 21
31.6158496394
  0
LINE
  8
0
 62
7
  6
CONTINUOUS
 10
535.0048114255
 20
30.9060484591
 11
535.1782489255
 21
31.0028395296
  0
LINE
  8
0
 62
7
  6
CONTINUOUS
 10
534.0219989944
 20
30.8415210777
 11
534.3688739531
 21
30.8092573885
  0
LINE
  8
0
 62
7
  6
CONTINUOUS
 10
538.1266865909
 20
30.8415210777
 11
538.3579363704
 21
30.8092573885
  0
LINE
  8
0
 62
7
  6
CONTINUOUS
 10
536.5079364807
 20
31.7126406987
 11
536.7391865909
 21
31.6803770123
  0
LINE
  8
0
 62
7
  6
CONTINUOUS
 10
538.8204365909
 20
31.7126406987
 11
539.0516867012
 21
31.6803770123
  0
LINE
  8
0
 62
7
  6
CONTINUOUS
 10
543.2719989807
 20
31.3577401029
 11
544.2548117012
 21
31.1964216708
  0
LINE
  8
0
 62
7
  6
CONTINUOUS
 10
544.4282492012
 20
31.29321273
 11
543.4454364807
 21
31.4545312073
  0
LINE
  8
0
 62
7
  6
CONTINUOUS
 10
536.9126240909
 20
31.809431758
 11
536.7391865909
 21
31.8416954444
  0
LINE
  8
0
 62
7
  6
CONTINUOUS
 10
543.2141867012
 20
30.873784767
 11
543.3876242012
 21
30.8415210777
  0
LINE
  8
0
 62
7
  6
CONTINUOUS
 10
542.0579364807
 20
31.809431758
 11
541.8844989807
 21
31.8416954444
  0
LINE
  8
0
 62
7
  6
CONTINUOUS
 10
544.3126239807
 20
31.6803770123
 11
544.4282492012
 21
31.6481133259
  0
LINE
  8
0
 62
7
  6
CONTINUOUS
 10
544.4860614807
 20
31.0673669025
 11
544.4282492012
 21
31.0028395296
  0
LINE
  8
0
 62
7
  6
CONTINUOUS
 10
543.0407492012
 20
31.7449043851
 11
542.9251239807
 21
31.6481133259
  0
LINE
  8
0
 62
7
  6
CONTINUOUS
 10
537.9532490909
 20
31.7771680715
 11
537.8376238704
 21
31.7126406987
  0
LINE
  8
0
 62
7
  6
CONTINUOUS
 10
538.0110613704
 20
31.3900038345
 11
537.8954364807
 21
31.3254764164
  0
LINE
  8
0
 62
7
  6
CONTINUOUS
 10
538.1266865909
 20
31.2286853572
 11
538.2423114807
 21
31.29321273
  0
LINE
  8
0
 62
7
  6
CONTINUOUS
 10
535.6985614255
 20
30.8092573885
 11
535.9876239807
 21
30.8092573885
  0
LINE
  8
0
 62
7
  6
CONTINUOUS
 10
537.0282489807
 20
30.8092573885
 11
537.3173113704
 21
30.8092573885
  0
LINE
  8
0
 62
7
  6
CONTINUOUS
 10
538.3579363704
 20
30.8092573885
 11
538.7048113704
 21
30.8092573885
  0
LINE
  8
0
 62
7
  6
CONTINUOUS
 10
539.3407487601
 20
30.8092573885
 11
539.6298114807
 21
30.8092573885
  0
LINE
  8
0
 62
7
  6
CONTINUOUS
 10
540.0923117012
 20
30.8092573885
 11
540.3813737601
 21
30.8092573885
  0
LINE
  8
0
 62
7
  6
CONTINUOUS
 10
540.8438739807
 20
30.8092573885
 11
541.1329367012
 21
30.8092573885
  0
LINE
  8
0
 62
7
  6
CONTINUOUS
 10
542.1735617012
 20
30.8092573885
 11
542.4626237601
 21
30.8092573885
  0
LINE
  8
0
 62
7
  6
CONTINUOUS
 10
543.7344992012
 20
30.8092573885
 11
544.0813742012
 21
30.8092573885
  0
LINE
  8
0
 62
7
  6
CONTINUOUS
 10
544.0813742012
 20
30.9383121455
 11
543.7344992012
 21
30.9383121455
  0
LINE
  8
0
 62
7
  6
CONTINUOUS
 10
538.7048113704
 20
30.9383121455
 11
538.3579363704
 21
30.9383121455
  0
LINE
  8
0
 62
7
  6
CONTINUOUS
 10
543.2141867012
 20
31.0673669025
 11
542.9251239807
 21
31.0673669025
  0
LINE
  8
0
 62
7
  6
CONTINUOUS
 10
535.2360615358
 20
31.1318942979
 11
534.9469989807
 21
31.1318942979
  0
LINE
  8
0
 62
7
  6
CONTINUOUS
 10
534.3110615082
 20
31.7126406987
 11
534.7157489531
 21
31.6803770123
  0
LINE
  8
0
 62
7
  6
CONTINUOUS
 10
534.7735614807
 20
31.809431758
 11
534.3688739531
 21
31.8416954444
  0
LINE
  8
0
 62
7
  6
CONTINUOUS
 10
543.3876242012
 20
30.8415210777
 11
543.7344992012
 21
30.8092573885
  0
LINE
  8
0
 62
7
  6
CONTINUOUS
 10
543.7344992012
 20
30.9383121455
 11
543.3876242012
 21
30.9705758432
  0
LINE
  8
0
 62
7
  6
CONTINUOUS
 10
539.1673112601
 20
31.809431758
 11
538.8204365909
 21
31.8416954444
  0
LINE
  8
0
 62
7
  6
CONTINUOUS
 10
543.9657489807
 20
31.7126406987
 11
544.3126239807
 21
31.6803770123
  0
LINE
  8
0
 62
7
  6
CONTINUOUS
 10
544.3126239807
 20
31.809431758
 11
543.9657489807
 21
31.8416954444
  0
LINE
  8
0
 62
7
  6
CONTINUOUS
 10
541.6532492012
 20
31.7126406987
 11
541.8844989807
 21
31.6803770123
  0
LINE
  8
0
 62
7
  6
CONTINUOUS
 10
544.4860614807
 20
31.7771680715
 11
544.3126239807
 21
31.809431758
  0
LINE
  8
0
 62
7
  6
CONTINUOUS
 10
544.6594989807
 20
30.9060484591
 11
544.7751235396
 21
31.0028395296
  0
LINE
  8
0
 62
7
  6
CONTINUOUS
 10
539.1673112601
 20
31.0996306115
 11
538.9938737601
 21
31.0028395296
  0
LINE
  8
0
 62
7
  6
CONTINUOUS
 10
541.2485612601
 20
31.7449043851
 11
541.1329367012
 21
31.6803770123
  0
LINE
  8
0
 62
7
  6
CONTINUOUS
 10
541.1329367012
 20
31.5513222666
 11
541.2485612601
 21
31.6158496394
  0
LINE
  8
0
 62
7
  6
CONTINUOUS
 10
533.8485614944
 20
31.7771680715
 11
533.6751239738
 21
31.7126406987
  0
LINE
  8
0
 62
7
  6
CONTINUOUS
 10
536.2766863704
 20
31.809431758
 11
536.1032490358
 21
31.7449043851
  0
LINE
  8
0
 62
7
  6
CONTINUOUS
 10
536.1032490358
 20
31.6158496394
 11
536.2766863704
 21
31.6803770123
  0
LINE
  8
0
 62
7
  6
CONTINUOUS
 10
534.8891865358
 20
31.035103216
 11
534.7157489531
 21
30.9705758432
  0
LINE
  8
0
 62
7
  6
CONTINUOUS
 10
544.3126239807
 20
30.9705758432
 11
544.0813742012
 21
30.9383121455
  0
LINE
  8
0
 62
7
  6
CONTINUOUS
 10
538.7048113704
 20
30.8092573885
 11
538.9938737601
 21
30.8415210777
  0
LINE
  8
0
 62
7
  6
CONTINUOUS
 10
544.0813742012
 20
30.8092573885
 11
544.4282492012
 21
30.8415210777
  0
LINE
  8
0
 62
7
  6
CONTINUOUS
 10
534.3688739531
 20
30.8092573885
 11
534.7735614807
 21
30.8415210777
  0
LINE
  8
0
 62
7
  6
CONTINUOUS
 10
534.7157489531
 20
30.9705758432
 11
534.3110615082
 21
30.9383121455
  0
LINE
  8
0
 62
7
  6
CONTINUOUS
 10
538.5891864807
 20
31.3577401029
 11
539.2251242012
 21
31.3577401029
  0
LINE
  8
0
 62
7
  6
CONTINUOUS
 10
539.2251242012
 20
31.4867948937
 11
538.5891864807
 21
31.4867948937
  0
LINE
  8
0
 62
7
  6
CONTINUOUS
 10
534.9469989807
 20
31.5190585802
 11
535.2360615358
 21
31.5190585802
  0
LINE
  8
0
 62
7
  6
CONTINUOUS
 10
537.7798115909
 20
31.583585953
 11
538.0688739807
 21
31.583585953
  0
LINE
  8
0
 62
7
  6
CONTINUOUS
 10
544.4860614807
 20
31.583585953
 11
544.7751235396
 21
31.583585953
  0
LINE
  8
0
 62
7
  6
CONTINUOUS
 10
538.4735615909
 20
31.7126406987
 11
538.8204365909
 21
31.7126406987
  0
LINE
  8
0
 62
7
  6
CONTINUOUS
 10
543.6188739807
 20
31.7126406987
 11
543.9657489807
 21
31.7126406987
  0
LINE
  8
0
 62
7
  6
CONTINUOUS
 10
543.9657489807
 20
31.8416954444
 11
543.6188739807
 21
31.8416954444
  0
LINE
  8
0
 62
7
  6
CONTINUOUS
 10
541.8844989807
 20
31.8416954444
 11
541.6532492012
 21
31.8416954444
  0
LINE
  8
0
 62
7
  6
CONTINUOUS
 10
541.1329367012
 20
31.8416954444
 11
540.8438739807
 21
31.8416954444
  0
LINE
  8
0
 62
7
  6
CONTINUOUS
 10
540.3813737601
 20
31.8416954444
 11
540.0923117012
 21
31.8416954444
  0
LINE
  8
0
 62
7
  6
CONTINUOUS
 10
538.8204365909
 20
31.8416954444
 11
538.4735615909
 21
31.8416954444
  0
LINE
  8
0
 62
7
  6
CONTINUOUS
 10
536.7391865909
 20
31.8416954444
 11
536.5079364807
 21
31.8416954444
  0
LINE
  8
0
 62
7
  6
CONTINUOUS
 10
540.0923117012
 20
32.164332399
 11
540.3813737601
 21
32.164332399
  0
LINE
  8
0
 62
7
  6
CONTINUOUS
 10
540.3813737601
 20
32.3256508311
 11
540.0923117012
 21
32.3256508311
  0
LINE
  8
0
 62
7
  6
CONTINUOUS
 10
535.9876239807
 20
32.3256508311
 11
535.6985614255
 21
32.3256508311
  0
LINE
  8
0
 62
7
  6
CONTINUOUS
 10
535.025405743
 20
32.612536077
 11
535.4379770916
 21
32.612536077
  0
LINE
  8
0
 62
7
  6
CONTINUOUS
 10
536.6647500053
 20
32.612536077
 11
538.0581926282
 21
32.612536077
  0
LINE
  8
0
 62
7
  6
CONTINUOUS
 10
538.3860614807
 20
32.612536077
 11
539.7795041036
 21
32.612536077
  0
LINE
  8
0
 62
7
  6
CONTINUOUS
 10
541.6647500053
 20
32.612536077
 11
543.0581926282
 21
32.612536077
  0
LINE
  8
0
 62
7
  6
CONTINUOUS
 10
543.3860614807
 20
32.612536077
 11
544.7795041036
 21
32.612536077
  0
LINE
  8
0
 62
7
  6
CONTINUOUS
 10
541.4219987601
 20
31.809431758
 11
541.2485612601
 21
31.7449043851
  0
LINE
  8
0
 62
7
  6
CONTINUOUS
 10
538.9938737601
 20
30.8415210777
 11
539.1673112601
 21
30.9060484591
  0
LINE
  8
0
 62
7
  6
CONTINUOUS
 10
544.4282492012
 20
30.8415210777
 11
544.6594989807
 21
30.9060484591
  0
LINE
  8
0
 62
7
  6
CONTINUOUS
 10
544.4282492012
 20
31.0028395296
 11
544.3126239807
 21
30.9705758432
  0
LINE
  8
0
 62
7
  6
CONTINUOUS
 10
543.3876242012
 20
31.6803770123
 11
543.6188739807
 21
31.7126406987
  0
LINE
  8
0
 62
7
  6
CONTINUOUS
 10
541.4219987601
 20
31.6803770123
 11
541.6532492012
 21
31.7126406987
  0
LINE
  8
0
 62
7
  6
CONTINUOUS
 10
538.3579363704
 20
31.3254764164
 11
538.5891864807
 21
31.3577401029
  0
LINE
  8
0
 62
7
  6
CONTINUOUS
 10
541.6532492012
 20
31.8416954444
 11
541.4219987601
 21
31.809431758
  0
LINE
  8
0
 62
7
  6
CONTINUOUS
 10
538.2423114807
 20
31.6803770123
 11
538.4735615909
 21
31.7126406987
  0
LINE
  8
0
 62
7
  6
CONTINUOUS
 10
543.6188739807
 20
31.8416954444
 11
543.2719989807
 21
31.809431758
  0
LINE
  8
0
 62
7
  6
CONTINUOUS
 10
538.5891864807
 20
31.4867948937
 11
538.2423114807
 21
31.4545312073
  0
LINE
  8
0
 62
7
  6
CONTINUOUS
 10
534.3688739531
 20
31.8416954444
 11
534.0219989944
 21
31.809431758
  0
LINE
  8
0
 62
7
  6
CONTINUOUS
 10
538.4735615909
 20
31.8416954444
 11
538.0688739807
 21
31.809431758
  0
LINE
  8
0
 62
7
  6
CONTINUOUS
 10
535.8450778741
 20
33.7600770606
 11
535.1893401692
 21
33.7600770606
  0
LINE
  8
0
 62
7
  6
CONTINUOUS
 10
541.2485612601
 20
31.6158496394
 11
541.4219987601
 21
31.6803770123
  0
LINE
  8
0
 62
7
  6
CONTINUOUS
 10
543.2719989807
 20
31.6481133259
 11
543.3876242012
 21
31.6803770123
  0
LINE
  8
0
 62
7
  6
CONTINUOUS
 10
543.2719989807
 20
31.809431758
 11
543.0407492012
 21
31.7449043851
  0
LINE
  8
0
 62
7
  6
CONTINUOUS
 10
538.9938737601
 20
31.0028395296
 11
538.7048113704
 21
30.9383121455
  0
LINE
  8
0
 62
7
  6
CONTINUOUS
 10
536.2766863704
 20
31.6803770123
 11
536.5079364807
 21
31.7126406987
  0
LINE
  8
0
 62
7
  6
CONTINUOUS
 10
536.5079364807
 20
31.8416954444
 11
536.2766863704
 21
31.809431758
  0
LINE
  8
0
 62
7
  6
CONTINUOUS
 10
534.0798114807
 20
31.6803770123
 11
534.3110615082
 21
31.7126406987
  0
LINE
  8
0
 62
7
  6
CONTINUOUS
 10
540.5991762348
 20
35.2354868967
 11
541.2549139397
 21
35.2354868967
  0
LINE
  8
0
 62
7
  6
CONTINUOUS
 10
538.2423114807
 20
31.29321273
 11
538.3579363704
 21
31.3254764164
  0
LINE
  8
0
 62
7
  6
CONTINUOUS
 10
538.2423114807
 20
31.4545312073
 11
538.0110613704
 21
31.3900038345
  0
LINE
  8
0
 62
7
  6
CONTINUOUS
 10
538.1266865909
 20
31.6481133259
 11
538.2423114807
 21
31.6803770123
  0
LINE
  8
0
 62
7
  6
CONTINUOUS
 10
534.7735614807
 20
30.8415210777
 11
535.0048114255
 21
30.9060484591
  0
LINE
  8
0
 62
7
  6
CONTINUOUS
 10
538.0688739807
 20
31.809431758
 11
537.9532490909
 21
31.7771680715
  0
LINE
  8
0
 62
7
  6
CONTINUOUS
 10
534.0219989944
 20
31.809431758
 11
533.8485614944
 21
31.7771680715
  0
LINE
  8
0
 62
7
  6
CONTINUOUS
 10
544.7795041036
 20
36.3830278803
 11
543.3860614807
 21
36.3830278803
  0
LINE
  8
0
 62
7
  6
CONTINUOUS
 10
541.4188483659
 20
36.3830278803
 11
541.0062770173
 21
36.3830278803
  0
LINE
  8
0
 62
7
  6
CONTINUOUS
 10
539.7795041036
 20
36.3830278803
 11
538.3860614807
 21
36.3830278803
  0
LINE
  8
0
 62
7
  6
CONTINUOUS
 10
538.0581926282
 20
36.3830278803
 11
536.6647500053
 21
36.3830278803
  0
LINE
  8
0
 62
7
  6
CONTINUOUS
 10
534.7795041036
 20
36.3830278803
 11
533.3860614807
 21
36.3830278803
  0
LINE
  8
0
 62
7
  6
CONTINUOUS
 10
533.9641864669
 20
31.6481133259
 11
534.0798114807
 21
31.6803770123
  0
CIRCLE
  8
0
 62
7
  6
CONTINUOUS
 10
544.0827827921
 20
38.7190934541
 40
2.0901639344
  0
ARC
  8
0
 62
7
  6
CONTINUOUS
 10
535.025405743
 20
34.2518803393
 40
1.6393442623
 50
180.0
 51
270.0
  0
ARC
  8
0
 62
7
  6
CONTINUOUS
 10
541.4188483659
 20
34.743683618
 40
1.6393442623
 50
0.0
 51
90.0
  0
ARC
  8
0
 62
7
  6
CONTINUOUS
 10
535.4379770916
 20
34.0879459131
 40
1.4754098361
 50
270.0
 51
326.2510114041
  0
ARC
  8
0
 62
7
  6
CONTINUOUS
 10
541.0062770173
 20
34.9076180442
 40
1.4754098361
 50
90.0
 51
146.2510114041
  0
ARC
  8
0
 62
7
  6
CONTINUOUS
 10
535.8450778741
 20
34.5797491918
 40
0.8196721311
 50
270.0
 51
360.0
  0
ARC
  8
0
 62
7
  6
CONTINUOUS
 10
540.5991762348
 20
34.4158147655
 40
0.8196721311
 50
90.0
 51
180.0
  0
ARC
  8
0
 62
7
  6
CONTINUOUS
 10
535.1893401692
 20
34.1699131262
 40
0.4098360656
 50
180.0
 51
270.0
  0
ARC
  8
0
 62
7
  6
CONTINUOUS
 10
541.2549139397
 20
34.8256508311
 40
0.4098360656
 50
0.0
 51
90.0
  0
SOLID
  8
0
 62
7
  6
CONTINUOUS
 10
540.0923117012
 20
32.1643327593
 11
540.0923117012
 21
32.3256512429
 12
540.3813737601
 22
32.1643327593
 13
540.3813737601
 23
32.3256512429
  0
SOLID
  8
0
 62
7
  6
CONTINUOUS
 10
534.3688739531
 20
31.841695792
 11
534.7735614807
 21
31.8094316148
 12
534.0219989944
 22
31.8094316148
 13
534.0219989944
 23
31.8094316148
  0
SOLID
  8
0
 62
7
  6
CONTINUOUS
 10
533.8485614944
 20
31.7771687019
 11
534.0219989944
 21
31.8094316148
 12
534.7735614807
 22
31.8094316148
 13
534.7735614807
 23
31.8094316148
  0
SOLID
  8
0
 62
7
  6
CONTINUOUS
 10
534.7735614807
 20
31.8094316148
 11
535.0048114255
 21
31.7449043986
 12
533.8485614944
 22
31.7771687019
 13
533.8485614944
 23
31.7771687019
  0
SOLID
  8
0
 62
7
  6
CONTINUOUS
 10
533.6751239738
 20
31.712640202
 11
533.8485614944
 21
31.7771687019
 12
535.0048114255
 22
31.7449043986
 13
535.0048114255
 23
31.7449043986
  0
SOLID
  8
0
 62
7
  6
CONTINUOUS
 10
533.6751239738
 20
31.712640202
 11
535.0048114255
 21
31.7449043986
 12
534.3110615082
 22
31.712640202
 13
534.3110615082
 23
31.712640202
  0
SOLID
  8
0
 62
7
  6
CONTINUOUS
 10
534.3110615082
 20
31.712640202
 11
535.0048114255
 21
31.7449043986
 12
534.7157489531
 22
31.6803773084
 13
534.7157489531
 23
31.6803773084
  0
SOLID
  8
0
 62
7
  6
CONTINUOUS
 10
535.0048114255
 20
31.7449043986
 11
535.1782489255
 21
31.6481130052
 12
534.7157489531
 22
31.6803773084
 13
534.7157489531
 23
31.6803773084
  0
SOLID
  8
0
 62
7
  6
CONTINUOUS
 10
534.8891865358
 20
31.6158502183
 11
534.7157489531
 21
31.6803773084
 12
535.1782489255
 22
31.6481130052
 13
535.1782489255
 23
31.6481130052
  0
SOLID
  8
0
 62
7
  6
CONTINUOUS
 10
534.8891865358
 20
31.6158502183
 11
535.1782489255
 21
31.6481130052
 12
534.9469989807
 22
31.5190586669
 13
534.9469989807
 23
31.5190586669
  0
SOLID
  8
0
 62
7
  6
CONTINUOUS
 10
535.1782489255
 20
31.6481130052
 11
535.2360615358
 21
31.5190586669
 12
534.9469989807
 22
31.5190586669
 13
534.9469989807
 23
31.5190586669
  0
SOLID
  8
0
 62
7
  6
CONTINUOUS
 10
536.2766863704
 20
31.8094307377
 11
536.5079364807
 21
31.841695041
 12
536.7391865909
 22
31.841695041
 13
536.7391865909
 23
31.841695041
  0
SOLID
  8
0
 62
7
  6
CONTINUOUS
 10
536.7391865909
 20
31.841695041
 11
536.9126240909
 21
31.8094307377
 12
536.2766863704
 22
31.8094307377
 13
536.2766863704
 23
31.8094307377
  0
SOLID
  8
0
 62
7
  6
CONTINUOUS
 10
536.1032490358
 20
31.7449036475
 11
536.2766863704
 21
31.8094307377
 12
536.9126240909
 22
31.8094307377
 13
536.9126240909
 23
31.8094307377
  0
SOLID
  8
0
 62
7
  6
CONTINUOUS
 10
536.9126240909
 20
31.8094307377
 11
537.0860615909
 21
31.7449036475
 12
536.1032490358
 22
31.7449036475
 13
536.1032490358
 23
31.7449036475
  0
SOLID
  8
0
 62
7
  6
CONTINUOUS
 10
537.0860615909
 20
31.7449036475
 11
536.5079364807
 21
31.7126400953
 12
536.1032490358
 22
31.7449036475
 13
536.1032490358
 23
31.7449036475
  0
SOLID
  8
0
 62
7
  6
CONTINUOUS
 10
535.9876239807
 20
31.6803765574
 11
536.1032490358
 21
31.7449036475
 12
536.5079364807
 22
31.7126400953
 13
536.5079364807
 23
31.7126400953
  0
SOLID
  8
0
 62
7
  6
CONTINUOUS
 10
536.5079364807
 20
31.7126400953
 11
536.2766863704
 21
31.6803765574
 12
535.9876239807
 22
31.6803765574
 13
535.9876239807
 23
31.6803765574
  0
SOLID
  8
0
 62
7
  6
CONTINUOUS
 10
536.5079364807
 20
31.7126400953
 11
537.0860615909
 21
31.7449036475
 12
536.7391865909
 22
31.6803765574
 13
536.7391865909
 23
31.6803765574
  0
SOLID
  8
0
 62
7
  6
CONTINUOUS
 10
537.0860615909
 20
31.7449036475
 11
537.2016864807
 21
31.6803765574
 12
536.7391865909
 22
31.6803765574
 13
536.7391865909
 23
31.6803765574
  0
SOLID
  8
0
 62
7
  6
CONTINUOUS
 10
536.8548114807
 20
31.6481130052
 11
536.7391865909
 21
31.6803765574
 12
537.2016864807
 22
31.6803765574
 13
537.2016864807
 23
31.6803765574
  0
SOLID
  8
0
 62
7
  6
CONTINUOUS
 10
537.2016864807
 20
31.6803765574
 11
537.2594990909
 21
31.6158494672
 12
536.8548114807
 22
31.6481130052
 13
536.8548114807
 23
31.6481130052
  0
SOLID
  8
0
 62
7
  6
CONTINUOUS
 10
536.9704363704
 20
31.583585915
 11
536.8548114807
 21
31.6481130052
 12
537.2594990909
 22
31.6158494672
 13
537.2594990909
 23
31.6158494672
  0
SOLID
  8
0
 62
7
  6
CONTINUOUS
 10
536.9704363704
 20
31.583585915
 11
537.2594990909
 21
31.6158494672
 12
537.0282489807
 22
31.4545309836
 13
537.0282489807
 23
31.4545309836
  0
SOLID
  8
0
 62
7
  6
CONTINUOUS
 10
537.2594990909
 20
31.6158494672
 11
537.3173113704
 21
31.4545309836
 12
537.0282489807
 22
31.4545309836
 13
537.0282489807
 23
31.4545309836
  0
SOLID
  8
0
 62
7
  6
CONTINUOUS
 10
536.2766863704
 20
31.6803765574
 11
536.1032490358
 21
31.6158494672
 12
535.9876239807
 22
31.6803765574
 13
535.9876239807
 23
31.6803765574
  0
SOLID
  8
0
 62
7
  6
CONTINUOUS
 10
536.1032490358
 20
31.6158494672
 11
535.9876239807
 21
31.5513216117
 12
535.9876239807
 22
31.6803765574
 13
535.9876239807
 23
31.6803765574
  0
SOLID
  8
0
 62
7
  6
CONTINUOUS
 10
535.9876239807
 20
31.5513216117
 11
535.6985614255
 21
30.8092570492
 12
535.9876239807
 22
31.6803765574
 13
535.9876239807
 23
31.6803765574
  0
SOLID
  8
0
 62
7
  6
CONTINUOUS
 10
535.9876239807
 20
31.6803765574
 11
535.6985614255
 21
30.8092570492
 12
535.9876239807
 22
32.3256504918
 13
535.9876239807
 23
32.3256504918
  0
SOLID
  8
0
 62
7
  6
CONTINUOUS
 10
535.6985614255
 20
30.8092570492
 11
535.6985614255
 21
32.3256504918
 12
535.9876239807
 22
32.3256504918
 13
535.9876239807
 23
32.3256504918
  0
SOLID
  8
0
 62
7
  6
CONTINUOUS
 10
535.9876239807
 20
31.5513216117
 11
535.9876239807
 21
30.8092570492
 12
535.6985614255
 22
30.8092570492
 13
535.6985614255
 23
30.8092570492
  0
SOLID
  8
0
 62
7
  6
CONTINUOUS
 10
537.0282489807
 20
30.8092570492
 11
537.0282489807
 21
31.4545309836
 12
537.3173113704
 22
31.4545309836
 13
537.3173113704
 23
31.4545309836
  0
SOLID
  8
0
 62
7
  6
CONTINUOUS
 10
537.3173113704
 20
31.4545309836
 11
537.3173113704
 21
30.8092570492
 12
537.0282489807
 22
30.8092570492
 13
537.0282489807
 23
30.8092570492
  0
SOLID
  8
0
 62
7
  6
CONTINUOUS
 10
538.0688739807
 20
31.809431823
 11
538.4735615909
 21
31.8416958158
 12
538.8204365909
 22
31.8416958158
 13
538.8204365909
 23
31.8416958158
  0
SOLID
  8
0
 62
7
  6
CONTINUOUS
 10
538.8204365909
 20
31.8416958158
 11
539.1673112601
 21
31.809431823
 12
538.0688739807
 22
31.809431823
 13
538.0688739807
 23
31.809431823
  0
SOLID
  8
0
 62
7
  6
CONTINUOUS
 10
537.9532490909
 20
31.7771687019
 11
538.0688739807
 21
31.809431823
 12
539.1673112601
 22
31.809431823
 13
539.1673112601
 23
31.809431823
  0
SOLID
  8
0
 62
7
  6
CONTINUOUS
 10
539.1673112601
 20
31.809431823
 11
539.3407487601
 21
31.7449043986
 12
537.9532490909
 22
31.7771687019
 13
537.9532490909
 23
31.7771687019
  0
SOLID
  8
0
 62
7
  6
CONTINUOUS
 10
537.8376238704
 20
31.7126398448
 11
537.9532490909
 21
31.7771687019
 12
539.3407487601
 22
31.7449043986
 13
539.3407487601
 23
31.7449043986
  0
SOLID
  8
0
 62
7
  6
CONTINUOUS
 10
537.8376238704
 20
31.7126398448
 11
539.3407487601
 21
31.7449043986
 12
538.4735615909
 22
31.7126398448
 13
538.4735615909
 23
31.7126398448
  0
SOLID
  8
0
 62
7
  6
CONTINUOUS
 10
538.4735615909
 20
31.7126398448
 11
539.3407487601
 21
31.7449043986
 12
538.8204365909
 22
31.7126398448
 13
538.8204365909
 23
31.7126398448
  0
SOLID
  8
0
 62
7
  6
CONTINUOUS
 10
538.8204365909
 20
31.7126398448
 11
539.3407487601
 21
31.7449043986
 12
539.0516867012
 22
31.6803774007
 13
539.0516867012
 23
31.6803774007
  0
SOLID
  8
0
 62
7
  6
CONTINUOUS
 10
539.3407487601
 20
31.7449043986
 11
539.4563739807
 21
31.6803774007
 12
539.0516867012
 22
31.6803774007
 13
539.0516867012
 23
31.6803774007
  0
SOLID
  8
0
 62
7
  6
CONTINUOUS
 10
537.7798115909
 20
31.6481126336
 11
537.8376238704
 21
31.7126398448
 12
538.4735615909
 22
31.7126398448
 13
538.4735615909
 23
31.7126398448
  0
SOLID
  8
0
 62
7
  6
CONTINUOUS
 10
539.1673112601
 20
31.6481126336
 11
539.0516867012
 21
31.6803774007
 12
539.4563739807
 22
31.6803774007
 13
539.4563739807
 23
31.6803774007
  0
SOLID
  8
0
 62
7
  6
CONTINUOUS
 10
539.1673112601
 20
31.6481126336
 11
539.4563739807
 21
31.6803774007
 12
539.2251242012
 22
31.5835861968
 13
539.2251242012
 23
31.5835861968
  0
SOLID
  8
0
 62
7
  6
CONTINUOUS
 10
539.4563739807
 20
31.6803774007
 11
539.5141862601
 21
31.5835861968
 12
539.2251242012
 22
31.5835861968
 13
539.2251242012
 23
31.5835861968
  0
SOLID
  8
0
 62
7
  6
CONTINUOUS
 10
539.2251242012
 20
31.4867945216
 11
539.2251242012
 21
31.5835861968
 12
539.5141862601
 22
31.5835861968
 13
539.5141862601
 23
31.5835861968
  0
SOLID
  8
0
 62
7
  6
CONTINUOUS
 10
539.2251242012
 20
31.4867945216
 11
539.5141862601
 21
31.5835861968
 12
539.2251242012
 22
31.3577403412
 13
539.2251242012
 23
31.3577403412
  0
SOLID
  8
0
 62
7
  6
CONTINUOUS
 10
539.2251242012
 20
31.3577403412
 11
539.5141862601
 21
31.5835861968
 12
539.2251242012
 22
31.1641579843
 13
539.2251242012
 23
31.1641579843
  0
SOLID
  8
0
 62
7
  6
CONTINUOUS
 10
539.5141862601
 20
31.5835861968
 11
539.5141862601
 21
31.0673661609
 12
539.2251242012
 22
31.1641579843
 13
539.2251242012
 23
31.1641579843
  0
SOLID
  8
0
 62
7
  6
CONTINUOUS
 10
541.4219987601
 20
31.8094310465
 11
541.6532492012
 21
31.8416957661
 12
541.8844989807
 22
31.8416957661
 13
541.8844989807
 23
31.8416957661
  0
SOLID
  8
0
 62
7
  6
CONTINUOUS
 10
541.8844989807
 20
31.8416957661
 11
542.0579364807
 21
31.8094310465
 12
541.4219987601
 22
31.8094310465
 13
541.4219987601
 23
31.8094310465
  0
SOLID
  8
0
 62
7
  6
CONTINUOUS
 10
541.2485612601
 20
31.7449047044
 11
541.4219987601
 21
31.8094310465
 12
542.0579364807
 22
31.8094310465
 13
542.0579364807
 23
31.8094310465
  0
SOLID
  8
0
 62
7
  6
CONTINUOUS
 10
542.0579364807
 20
31.8094310465
 11
542.2313739807
 21
31.7449047044
 12
541.2485612601
 22
31.7449047044
 13
541.2485612601
 23
31.7449047044
  0
SOLID
  8
0
 62
7
  6
CONTINUOUS
 10
542.2313739807
 20
31.7449047044
 11
541.6532492012
 21
31.7126400953
 12
541.2485612601
 22
31.7449047044
 13
541.2485612601
 23
31.7449047044
  0
SOLID
  8
0
 62
7
  6
CONTINUOUS
 10
541.1329367012
 20
31.6803773299
 11
541.2485612601
 21
31.7449047044
 12
541.6532492012
 22
31.7126400953
 13
541.6532492012
 23
31.7126400953
  0
SOLID
  8
0
 62
7
  6
CONTINUOUS
 10
541.6532492012
 20
31.7126400953
 11
541.4219987601
 21
31.6803773299
 12
541.1329367012
 22
31.6803773299
 13
541.1329367012
 23
31.6803773299
  0
SOLID
  8
0
 62
7
  6
CONTINUOUS
 10
541.6532492012
 20
31.7126400953
 11
542.2313739807
 21
31.7449047044
 12
541.8844989807
 22
31.6803773299
 13
541.8844989807
 23
31.6803773299
  0
SOLID
  8
0
 62
7
  6
CONTINUOUS
 10
542.2313739807
 20
31.7449047044
 11
542.3469992012
 21
31.6803773299
 12
541.8844989807
 22
31.6803773299
 13
541.8844989807
 23
31.6803773299
  0
SOLID
  8
0
 62
7
  6
CONTINUOUS
 10
542.0001242012
 20
31.6481130052
 11
541.8844989807
 21
31.6803773299
 12
542.3469992012
 22
31.6803773299
 13
542.3469992012
 23
31.6803773299
  0
SOLID
  8
0
 62
7
  6
CONTINUOUS
 10
542.0001242012
 20
31.6481130052
 11
542.3469992012
 21
31.6803773299
 12
542.1157487601
 22
31.5835862682
 13
542.1157487601
 23
31.5835862682
  0
SOLID
  8
0
 62
7
  6
CONTINUOUS
 10
542.3469992012
 20
31.6803773299
 11
542.4048114807
 21
31.5835862682
 12
542.1157487601
 22
31.5835862682
 13
542.1157487601
 23
31.5835862682
  0
SOLID
  8
0
 62
7
  6
CONTINUOUS
 10
542.1735617012
 20
31.422267832
 11
542.1157487601
 21
31.5835862682
 12
542.4048114807
 22
31.5835862682
 13
542.4048114807
 23
31.5835862682
  0
SOLID
  8
0
 62
7
  6
CONTINUOUS
 10
542.4048114807
 20
31.5835862682
 11
542.4626237601
 21
31.422267832
 12
542.1735617012
 22
31.422267832
 13
542.1735617012
 23
31.422267832
  0
SOLID
  8
0
 62
7
  6
CONTINUOUS
 10
541.4219987601
 20
31.6803773299
 11
541.2485612601
 21
31.6158502183
 12
541.1329367012
 22
31.6803773299
 13
541.1329367012
 23
31.6803773299
  0
SOLID
  8
0
 62
7
  6
CONTINUOUS
 10
541.2485612601
 20
31.6158502183
 11
541.1329367012
 21
31.5513216117
 12
541.1329367012
 22
31.6803773299
 13
541.1329367012
 23
31.6803773299
  0
SOLID
  8
0
 62
7
  6
CONTINUOUS
 10
541.1329367012
 20
31.5513216117
 11
540.8438739807
 21
30.8092577743
 12
541.1329367012
 22
31.6803773299
 13
541.1329367012
 23
31.6803773299
  0
SOLID
  8
0
 62
7
  6
CONTINUOUS
 10
541.1329367012
 20
31.6803773299
 11
540.8438739807
 21
30.8092577743
 12
541.1329367012
 22
31.8416957661
 13
541.1329367012
 23
31.8416957661
  0
SOLID
  8
0
 62
7
  6
CONTINUOUS
 10
540.8438739807
 20
30.8092577743
 11
540.8438739807
 21
31.8416957661
 12
541.1329367012
 22
31.8416957661
 13
541.1329367012
 23
31.8416957661
  0
SOLID
  8
0
 62
7
  6
CONTINUOUS
 10
541.1329367012
 20
31.5513216117
 11
541.1329367012
 21
30.8092577743
 12
540.8438739807
 22
30.8092577743
 13
540.8438739807
 23
30.8092577743
  0
SOLID
  8
0
 62
7
  6
CONTINUOUS
 10
542.1735617012
 20
30.8092577743
 11
542.1735617012
 21
31.422267832
 12
542.4626237601
 22
31.422267832
 13
542.4626237601
 23
31.422267832
  0
SOLID
  8
0
 62
7
  6
CONTINUOUS
 10
542.4626237601
 20
31.422267832
 11
542.4626237601
 21
30.8092577743
 12
542.1735617012
 22
30.8092577743
 13
542.1735617012
 23
30.8092577743
  0
SOLID
  8
0
 62
7
  6
CONTINUOUS
 10
543.2719989807
 20
31.8094314924
 11
543.6188739807
 21
31.8416958387
 12
543.9657489807
 22
31.8416958387
 13
543.9657489807
 23
31.8416958387
  0
SOLID
  8
0
 62
7
  6
CONTINUOUS
 10
543.9657489807
 20
31.8416958387
 11
544.3126239807
 21
31.8094314924
 12
543.2719989807
 22
31.8094314924
 13
543.2719989807
 23
31.8094314924
  0
SOLID
  8
0
 62
7
  6
CONTINUOUS
 10
543.0407492012
 20
31.7449043986
 11
543.2719989807
 21
31.8094314924
 12
544.3126239807
 22
31.8094314924
 13
544.3126239807
 23
31.8094314924
  0
SOLID
  8
0
 62
7
  6
CONTINUOUS
 10
543.0407492012
 20
31.7449043986
 11
544.3126239807
 21
31.8094314888
 12
544.4860614807
 22
31.7771687019
 13
544.4860614807
 23
31.7771687019
  0
SOLID
  8
0
 62
7
  6
CONTINUOUS
 10
543.0407492012
 20
31.7449043986
 11
544.4860614807
 21
31.7771687019
 12
543.6188739807
 22
31.7126401399
 13
543.6188739807
 23
31.7126401399
  0
SOLID
  8
0
 62
7
  6
CONTINUOUS
 10
543.6188739807
 20
31.7126401399
 11
544.4860614807
 21
31.7771687019
 12
543.9657489807
 22
31.7126401399
 13
543.9657489807
 23
31.7126401399
  0
SOLID
  8
0
 62
7
  6
CONTINUOUS
 10
544.4860614807
 20
31.7771687019
 11
544.6594989807
 21
31.7126401399
 12
543.9657489807
 22
31.7126401399
 13
543.9657489807
 23
31.7126401399
  0
SOLID
  8
0
 62
7
  6
CONTINUOUS
 10
544.3126239807
 20
31.6803773084
 11
543.9657489807
 21
31.7126401399
 12
544.6594989807
 22
31.7126401399
 13
544.6594989807
 23
31.7126401399
  0
SOLID
  8
0
 62
7
  6
CONTINUOUS
 10
542.9251239807
 20
31.6481128977
 11
543.0407492012
 21
31.7449043986
 12
543.6188739807
 22
31.7126401399
 13
543.6188739807
 23
31.7126401399
  0
SOLID
  8
0
 62
7
  6
CONTINUOUS
 10
544.3126239807
 20
31.6803773084
 11
544.6594989807
 21
31.7126401399
 12
544.4282492012
 22
31.6481128977
 13
544.4282492012
 23
31.6481128977
  0
SOLID
  8
0
 62
7
  6
CONTINUOUS
 10
544.4282492012
 20
31.6481128977
 11
544.6594989807
 21
31.7126401399
 12
544.4860614807
 22
31.5835858812
 13
544.4860614807
 23
31.5835858812
  0
SOLID
  8
0
 62
7
  6
CONTINUOUS
 10
544.6594989807
 20
31.7126401399
 11
544.7751235396
 21
31.5835858812
 12
544.4860614807
 22
31.5835858812
 13
544.4860614807
 23
31.5835858812
  0
SOLID
  8
0
 62
7
  6
CONTINUOUS
 10
534.0798114807
 20
31.6803773084
 11
533.5594989807
 21
31.6481129264
 12
534.3110615082
 22
31.7126401456
 13
534.3110615082
 23
31.7126401456
  0
SOLID
  8
0
 62
7
  6
CONTINUOUS
 10
533.5594989807
 20
31.6481129264
 11
533.6751239738
 21
31.7126401456
 12
534.3110615082
 22
31.7126401456
 13
534.3110615082
 23
31.7126401456
  0
SOLID
  8
0
 62
7
  6
CONTINUOUS
 10
534.0798114807
 20
31.6803773084
 11
533.9641864669
 21
31.6481129264
 12
533.5594989807
 22
31.6481129264
 13
533.5594989807
 23
31.6481129264
  0
SOLID
  8
0
 62
7
  6
CONTINUOUS
 10
533.4438739824
 20
31.5190588248
 11
533.5594989807
 21
31.6481129264
 12
533.9641864669
 22
31.6481129264
 13
533.9641864669
 23
31.6481129264
  0
SOLID
  8
0
 62
7
  6
CONTINUOUS
 10
537.7798115909
 20
31.6481130555
 11
538.4735615909
 21
31.7126400953
 12
538.2423114807
 22
31.6803773084
 13
538.2423114807
 23
31.6803773084
  0
SOLID
  8
0
 62
7
  6
CONTINUOUS
 10
538.2423114807
 20
31.6803773084
 11
538.1266865909
 21
31.6481130555
 12
537.7798115909
 22
31.6481130555
 13
537.7798115909
 23
31.6481130555
  0
SOLID
  8
0
 62
7
  6
CONTINUOUS
 10
537.7798115909
 20
31.5835859653
 11
537.7798115909
 21
31.6481130555
 12
538.1266865909
 22
31.6481130555
 13
538.1266865909
 23
31.6481130555
  0
SOLID
  8
0
 62
7
  6
CONTINUOUS
 10
538.1266865909
 20
31.6481130555
 11
538.0688739807
 21
31.5835859653
 12
537.7798115909
 22
31.5835859653
 13
537.7798115909
 23
31.5835859653
  0
SOLID
  8
0
 62
7
  6
CONTINUOUS
 10
542.9251239807
 20
31.6481130555
 11
543.6188739807
 21
31.7126400953
 12
543.3876242012
 22
31.6803773084
 13
543.3876242012
 23
31.6803773084
  0
SOLID
  8
0
 62
7
  6
CONTINUOUS
 10
543.3876242012
 20
31.6803773084
 11
543.2719989807
 21
31.6481130555
 12
542.9251239807
 22
31.6481130555
 13
542.9251239807
 23
31.6481130555
  0
SOLID
  8
0
 62
7
  6
CONTINUOUS
 10
542.9251239807
 20
31.5835859653
 11
542.9251239807
 21
31.6481130555
 12
543.2719989807
 22
31.6481130555
 13
543.2719989807
 23
31.6481130555
  0
SOLID
  8
0
 62
7
  6
CONTINUOUS
 10
543.2719989807
 20
31.6481130555
 11
543.2141867012
 21
31.5835859653
 12
542.9251239807
 22
31.5835859653
 13
542.9251239807
 23
31.5835859653
  0
SOLID
  8
0
 62
7
  6
CONTINUOUS
 10
543.0407492012
 20
31.4545317347
 11
542.9251239807
 21
31.5835859653
 12
543.2141867012
 22
31.5835859653
 13
543.2141867012
 23
31.5835859653
  0
SOLID
  8
0
 62
7
  6
CONTINUOUS
 10
533.4438739824
 20
31.5190588248
 11
533.9641864669
 21
31.6481130052
 12
533.7907489669
 22
31.5513216117
 13
533.7907489669
 23
31.5513216117
  0
SOLID
  8
0
 62
7
  6
CONTINUOUS
 10
533.7907489669
 20
31.5513216117
 11
533.7329364807
 21
31.4867945216
 12
533.4438739824
 22
31.5190588248
 13
533.4438739824
 23
31.5190588248
  0
SOLID
  8
0
 62
7
  6
CONTINUOUS
 10
533.3860614807
 20
31.325476038
 11
533.4438739824
 21
31.5190588248
 12
533.7329364807
 22
31.4867945216
 13
533.7329364807
 23
31.4867945216
  0
SOLID
  8
0
 62
7
  6
CONTINUOUS
 10
538.2423114807
 20
31.4545317347
 11
538.5891864807
 21
31.4867945557
 12
539.2251242012
 22
31.4867945557
 13
539.2251242012
 23
31.4867945557
  0
SOLID
  8
0
 62
7
  6
CONTINUOUS
 10
538.2423114807
 20
31.4545317347
 11
539.2251242012
 21
31.4867945557
 12
538.0110613704
 22
31.3900038345
 13
538.0110613704
 23
31.3900038345
  0
SOLID
  8
0
 62
7
  6
CONTINUOUS
 10
538.0110613704
 20
31.3900038345
 11
539.2251242012
 21
31.4867945557
 12
538.5891864807
 22
31.3577403754
 13
538.5891864807
 23
31.3577403754
  0
SOLID
  8
0
 62
7
  6
CONTINUOUS
 10
539.2251242012
 20
31.4867945557
 11
539.2251242012
 21
31.3577403754
 12
538.5891864807
 22
31.3577403754
 13
538.5891864807
 23
31.3577403754
  0
SOLID
  8
0
 62
7
  6
CONTINUOUS
 10
543.0407492012
 20
31.4545313481
 11
543.2141867012
 21
31.583585915
 12
543.2719989807
 22
31.5190588248
 13
543.2719989807
 23
31.5190588248
  0
SOLID
  8
0
 62
7
  6
CONTINUOUS
 10
543.2719989807
 20
31.5190588248
 11
543.4454364807
 21
31.4545313481
 12
543.0407492012
 22
31.4545313481
 13
543.0407492012
 23
31.4545313481
  0
SOLID
  8
0
 62
7
  6
CONTINUOUS
 10
543.2719989807
 20
31.3577403412
 11
543.0407492012
 21
31.4545313481
 12
543.4454364807
 22
31.4545313481
 13
543.4454364807
 23
31.4545313481
  0
SOLID
  8
0
 62
7
  6
CONTINUOUS
 10
543.4454364807
 20
31.4545313481
 11
544.4282492012
 21
31.2932132511
 12
543.2719989807
 22
31.3577403412
 13
543.2719989807
 23
31.3577403412
  0
SOLID
  8
0
 62
7
  6
CONTINUOUS
 10
544.2548117012
 20
31.1964222346
 11
543.2719989807
 21
31.3577403412
 12
544.4282492012
 22
31.2932132511
 13
544.4282492012
 23
31.2932132511
  0
SOLID
  8
0
 62
7
  6
CONTINUOUS
 10
544.4282492012
 20
31.2932132511
 11
544.6594989807
 21
31.1964222346
 12
544.2548117012
 22
31.1964222346
 13
544.2548117012
 23
31.1964222346
  0
SOLID
  8
0
 62
7
  6
CONTINUOUS
 10
544.4282492012
 20
31.1318947675
 11
544.2548117012
 21
31.1964222346
 12
544.6594989807
 22
31.1964222346
 13
544.6594989807
 23
31.1964222346
  0
SOLID
  8
0
 62
7
  6
CONTINUOUS
 10
544.4282492012
 20
31.1318947675
 11
544.6594989807
 21
31.1964222346
 12
544.4860614807
 22
31.0673665164
 13
544.4860614807
 23
31.0673665164
  0
SOLID
  8
0
 62
7
  6
CONTINUOUS
 10
544.6594989807
 20
31.1964222346
 11
544.7751235396
 21
31.0673665164
 12
544.4860614807
 22
31.0673665164
 13
544.4860614807
 23
31.0673665164
  0
SOLID
  8
0
 62
7
  6
CONTINUOUS
 10
544.4282492012
 20
31.0028394316
 11
544.4860614807
 21
31.0673665164
 12
544.7751235396
 22
31.0673665164
 13
544.7751235396
 23
31.0673665164
  0
SOLID
  8
0
 62
7
  6
CONTINUOUS
 10
544.7751235396
 20
31.0673665164
 11
544.7751235396
 21
31.0028394316
 12
544.4282492012
 22
31.0028394316
 13
544.4282492012
 23
31.0028394316
  0
SOLID
  8
0
 62
7
  6
CONTINUOUS
 10
544.3126239807
 20
30.9705762839
 11
544.4282492012
 21
31.0028394316
 12
544.7751235396
 22
31.0028394316
 13
544.7751235396
 23
31.0028394316
  0
SOLID
  8
0
 62
7
  6
CONTINUOUS
 10
544.3126239807
 20
30.9705762839
 11
544.7751235396
 21
31.0028394316
 12
544.0813742012
 22
30.9383123468
 13
544.0813742012
 23
30.9383123468
  0
SOLID
  8
0
 62
7
  6
CONTINUOUS
 10
544.7751235396
 20
31.0028394316
 11
544.6594989807
 21
30.9060491937
 12
544.0813742012
 22
30.9383123468
 13
544.0813742012
 23
30.9383123468
  0
SOLID
  8
0
 62
7
  6
CONTINUOUS
 10
544.6594989807
 20
30.9060491937
 11
543.2141867012
 21
30.8737848904
 12
544.0813742012
 22
30.9383123468
 13
544.0813742012
 23
30.9383123468
  0
SOLID
  8
0
 62
7
  6
CONTINUOUS
 10
544.0813742012
 20
30.9383123468
 11
543.2141867012
 21
30.8737848904
 12
543.7344992012
 22
30.9383123468
 13
543.7344992012
 23
30.9383123468
  0
SOLID
  8
0
 62
7
  6
CONTINUOUS
 10
543.2141867012
 20
30.8737848904
 11
543.0407492012
 21
30.9383123468
 12
543.7344992012
 22
30.9383123468
 13
543.7344992012
 23
30.9383123468
  0
SOLID
  8
0
 62
7
  6
CONTINUOUS
 10
543.2141867012
 20
30.8737848904
 11
544.6594989807
 21
30.9060491937
 12
543.3876242012
 22
30.8415205581
 13
543.3876242012
 23
30.8415205581
  0
SOLID
  8
0
 62
7
  6
CONTINUOUS
 10
544.6594989807
 20
30.9060491937
 11
544.4282492012
 21
30.8415205581
 12
543.3876242012
 22
30.8415205581
 13
543.3876242012
 23
30.8415205581
  0
SOLID
  8
0
 62
7
  6
CONTINUOUS
 10
543.7344992012
 20
30.8092581772
 11
543.3876242012
 21
30.8415205581
 12
544.4282492012
 22
30.8415205581
 13
544.4282492012
 23
30.8415205581
  0
SOLID
  8
0
 62
7
  6
CONTINUOUS
 10
544.4282492012
 20
30.8415205581
 11
544.0813742012
 21
30.8092581772
 12
543.7344992012
 22
30.8092581772
 13
543.7344992012
 23
30.8092581772
  0
SOLID
  8
0
 62
7
  6
CONTINUOUS
 10
533.3860614807
 20
31.325476038
 11
533.7329364807
 21
31.4867945216
 12
533.6751239738
 22
31.3577403412
 13
533.6751239738
 23
31.3577403412
  0
SOLID
  8
0
 62
7
  6
CONTINUOUS
 10
533.6751239738
 20
31.3577403412
 11
533.6751239738
 21
31.2609490436
 12
533.3860614807
 22
31.325476038
 13
533.3860614807
 23
31.325476038
  0
SOLID
  8
0
 62
7
  6
CONTINUOUS
 10
533.4438739824
 20
31.1318947675
 11
533.3860614807
 21
31.325476038
 12
533.6751239738
 22
31.2609490436
 13
533.6751239738
 23
31.2609490436
  0
SOLID
  8
0
 62
7
  6
CONTINUOUS
 10
533.6751239738
 20
31.2609490436
 11
533.7907489669
 21
31.0996304642
 12
533.4438739824
 22
31.1318947675
 13
533.4438739824
 23
31.1318947675
  0
SOLID
  8
0
 62
7
  6
CONTINUOUS
 10
533.5594989807
 20
31.0028388804
 11
533.4438739824
 21
31.1318947675
 12
533.7907489669
 22
31.0996304642
 13
533.7907489669
 23
31.0996304642
  0
SOLID
  8
0
 62
7
  6
CONTINUOUS
 10
533.7907489669
 20
31.0996304642
 11
533.9641864669
 21
31.0028388804
 12
533.5594989807
 22
31.0028388804
 13
533.5594989807
 23
31.0028388804
  0
SOLID
  8
0
 62
7
  6
CONTINUOUS
 10
533.6751239738
 20
30.9383122606
 11
533.5594989807
 21
31.0028388804
 12
533.9641864669
 22
31.0028388804
 13
533.9641864669
 23
31.0028388804
  0
SOLID
  8
0
 62
7
  6
CONTINUOUS
 10
533.9641864669
 20
31.0028388804
 11
534.3110615082
 21
30.9383122606
 12
533.6751239738
 22
30.9383122606
 13
533.6751239738
 23
30.9383122606
  0
SOLID
  8
0
 62
7
  6
CONTINUOUS
 10
533.8485614944
 20
30.8737848904
 11
533.6751239738
 21
30.9383122606
 12
534.3110615082
 22
30.9383122606
 13
534.3110615082
 23
30.9383122606
  0
SOLID
  8
0
 62
7
  6
CONTINUOUS
 10
537.8954364807
 20
31.3254759532
 11
538.0110613704
 21
31.3900038345
 12
538.5891864807
 22
31.3577403412
 13
538.5891864807
 23
31.3577403412
  0
SOLID
  8
0
 62
7
  6
CONTINUOUS
 10
538.5891864807
 20
31.3577403412
 11
538.3579363704
 21
31.3254759532
 12
537.8954364807
 22
31.3254759532
 13
537.8954364807
 23
31.3254759532
  0
SOLID
  8
0
 62
7
  6
CONTINUOUS
 10
537.7798115909
 20
31.1964218576
 11
537.8954364807
 21
31.3254759532
 12
538.3579363704
 22
31.3254759532
 13
538.3579363704
 23
31.3254759532
  0
SOLID
  8
0
 62
7
  6
CONTINUOUS
 10
538.1266865909
 20
31.2286853572
 11
537.7798115909
 21
31.1964218576
 12
538.2423114807
 22
31.2932132511
 13
538.2423114807
 23
31.2932132511
  0
SOLID
  8
0
 62
7
  6
CONTINUOUS
 10
537.7798115909
 20
31.1964218576
 11
538.3579363704
 21
31.325476038
 12
538.2423114807
 22
31.2932132511
 13
538.2423114807
 23
31.2932132511
  0
SOLID
  8
0
 62
7
  6
CONTINUOUS
 10
538.1266865909
 20
31.2286853572
 11
538.0688739807
 21
31.1318947675
 12
537.7798115909
 22
31.1964218576
 13
537.7798115909
 23
31.1964218576
  0
SOLID
  8
0
 62
7
  6
CONTINUOUS
 10
537.7798115909
 20
31.0996304642
 11
537.7798115909
 21
31.1964218576
 12
538.0688739807
 22
31.1318947675
 13
538.0688739807
 23
31.1318947675
  0
SOLID
  8
0
 62
7
  6
CONTINUOUS
 10
538.0688739807
 20
31.1318947675
 11
538.0688739807
 21
31.0673661609
 12
537.7798115909
 22
31.0996304642
 13
537.7798115909
 23
31.0996304642
  0
SOLID
  8
0
 62
7
  6
CONTINUOUS
 10
537.8376238704
 20
30.9705762839
 11
537.7798115909
 21
31.0996304642
 12
538.0688739807
 22
31.0673661609
 13
538.0688739807
 23
31.0673661609
  0
SOLID
  8
0
 62
7
  6
CONTINUOUS
 10
539.2251242012
 20
31.1641579843
 11
539.5141862601
 21
31.0673661609
 12
539.1673112601
 22
31.0996304642
 13
539.1673112601
 23
31.0996304642
  0
SOLID
  8
0
 62
7
  6
CONTINUOUS
 10
538.9938737601
 20
31.0028390707
 11
539.1673112601
 21
31.0996304642
 12
539.5141862601
 22
31.0673661609
 13
539.5141862601
 23
31.0673661609
  0
SOLID
  8
0
 62
7
  6
CONTINUOUS
 10
538.9938737601
 20
31.0028390707
 11
539.5141862601
 21
31.0673661609
 12
539.2251242012
 22
30.9705762839
 13
539.2251242012
 23
30.9705762839
  0
SOLID
  8
0
 62
7
  6
CONTINUOUS
 10
539.5141862601
 20
31.0673661609
 11
539.5719992012
 21
30.9060491937
 12
539.2251242012
 22
30.9705762839
 13
539.2251242012
 23
30.9705762839
  0
SOLID
  8
0
 62
7
  6
CONTINUOUS
 10
539.2829364807
 20
30.8737848904
 11
539.2251242012
 21
30.9705762839
 12
539.5719992012
 22
30.9060491937
 13
539.5719992012
 23
30.9060491937
  0
SOLID
  8
0
 62
7
  6
CONTINUOUS
 10
539.2829364807
 20
30.8737848904
 11
539.5719992012
 21
30.9060491937
 12
539.3407487601
 22
30.8092576254
 13
539.3407487601
 23
30.8092576254
  0
SOLID
  8
0
 62
7
  6
CONTINUOUS
 10
539.5719992012
 20
30.9060491937
 11
539.6298114807
 21
30.8092576254
 12
539.3407487601
 22
30.8092576254
 13
539.3407487601
 23
30.8092576254
  0
SOLID
  8
0
 62
7
  6
CONTINUOUS
 10
534.8891865358
 20
31.035103216
 11
534.9469989807
 21
31.1318946289
 12
535.2360615358
 22
31.1318946289
 13
535.2360615358
 23
31.1318946289
  0
SOLID
  8
0
 62
7
  6
CONTINUOUS
 10
535.2360615358
 20
31.1318946289
 11
535.1782489255
 21
31.0028390707
 12
534.8891865358
 22
31.035103216
 13
534.8891865358
 23
31.035103216
  0
SOLID
  8
0
 62
7
  6
CONTINUOUS
 10
534.7157489531
 20
30.9705762839
 11
534.8891865358
 21
31.035103216
 12
535.1782489255
 22
31.0028390707
 13
535.1782489255
 23
31.0028390707
  0
SOLID
  8
0
 62
7
  6
CONTINUOUS
 10
534.7157489531
 20
30.9705762839
 11
535.1782489255
 21
31.0028390707
 12
534.3110615082
 22
30.9383119806
 13
534.3110615082
 23
30.9383119806
  0
SOLID
  8
0
 62
7
  6
CONTINUOUS
 10
535.1782489255
 20
31.0028390707
 11
535.0048114255
 21
30.9060491937
 12
534.3110615082
 22
30.9383119806
 13
534.3110615082
 23
30.9383119806
  0
SOLID
  8
0
 62
7
  6
CONTINUOUS
 10
533.8485614944
 20
30.8737848904
 11
534.3110615082
 21
30.9383119806
 12
535.0048114255
 22
30.9060491937
 13
535.0048114255
 23
30.9060491937
  0
SOLID
  8
0
 62
7
  6
CONTINUOUS
 10
533.8485614944
 20
30.8737848904
 11
535.0048114255
 21
30.9060491937
 12
534.0219989944
 22
30.8415207131
 13
534.0219989944
 23
30.8415207131
  0
SOLID
  8
0
 62
7
  6
CONTINUOUS
 10
535.0048114255
 20
30.9060491937
 11
534.7735614807
 21
30.8415207131
 12
534.0219989944
 22
30.8415207131
 13
534.0219989944
 23
30.8415207131
  0
SOLID
  8
0
 62
7
  6
CONTINUOUS
 10
534.3688739531
 20
30.8092578002
 11
534.0219989944
 21
30.8415207131
 12
534.7735614807
 22
30.8415207131
 13
534.7735614807
 23
30.8415207131
  0
SOLID
  8
0
 62
7
  6
CONTINUOUS
 10
537.8376238704
 20
30.9705762839
 11
538.0688739807
 21
31.0673661609
 12
538.1266865909
 22
31.0028390707
 13
538.1266865909
 23
31.0028390707
  0
SOLID
  8
0
 62
7
  6
CONTINUOUS
 10
538.1266865909
 20
31.0028390707
 11
538.3579363704
 21
30.9383119806
 12
537.8376238704
 22
30.9705762839
 13
537.8376238704
 23
30.9705762839
  0
SOLID
  8
0
 62
7
  6
CONTINUOUS
 10
538.0110613704
 20
30.8737848904
 11
537.8376238704
 21
30.9705762839
 12
538.3579363704
 22
30.9383119806
 13
538.3579363704
 23
30.9383119806
  0
SOLID
  8
0
 62
7
  6
CONTINUOUS
 10
538.7048113704
 20
30.9383119664
 11
538.9938737601
 21
31.0028390707
 12
539.2251242012
 22
30.9705762839
 13
539.2251242012
 23
30.9705762839
  0
SOLID
  8
0
 62
7
  6
CONTINUOUS
 10
539.2251242012
 20
30.9705762839
 11
539.1673112601
 21
30.9060491937
 12
538.7048113704
 22
30.9383119664
 13
538.7048113704
 23
30.9383119664
  0
SOLID
  8
0
 62
7
  6
CONTINUOUS
 10
539.1673112601
 20
30.9060491937
 11
538.0110613704
 21
30.8737848904
 12
538.7048113704
 22
30.9383119664
 13
538.7048113704
 23
30.9383119664
  0
SOLID
  8
0
 62
7
  6
CONTINUOUS
 10
538.0110613704
 20
30.8737848904
 11
538.3579363704
 21
30.9383119664
 12
538.7048113704
 22
30.9383119664
 13
538.7048113704
 23
30.9383119664
  0
SOLID
  8
0
 62
7
  6
CONTINUOUS
 10
538.0110613704
 20
30.8737848904
 11
539.1673112601
 21
30.9060491937
 12
538.1266865909
 22
30.8415205568
 13
538.1266865909
 23
30.8415205568
  0
SOLID
  8
0
 62
7
  6
CONTINUOUS
 10
539.1673112601
 20
30.9060491937
 11
538.9938737601
 21
30.8415205568
 12
538.1266865909
 22
30.8415205568
 13
538.1266865909
 23
30.8415205568
  0
SOLID
  8
0
 62
7
  6
CONTINUOUS
 10
538.3579363704
 20
30.8092577215
 11
538.1266865909
 21
30.8415205568
 12
538.9938737601
 22
30.8415205568
 13
538.9938737601
 23
30.8415205568
  0
SOLID
  8
0
 62
7
  6
CONTINUOUS
 10
538.9938737601
 20
30.8415205568
 11
538.7048113704
 21
30.8092577215
 12
538.3579363704
 22
30.8092577215
 13
538.3579363704
 23
30.8092577215
  0
SOLID
  8
0
 62
7
  6
CONTINUOUS
 10
543.3876242012
 20
30.9705762839
 11
543.0407492012
 21
30.9383119664
 12
543.2719989807
 22
31.0028390707
 13
543.2719989807
 23
31.0028390707
  0
SOLID
  8
0
 62
7
  6
CONTINUOUS
 10
543.2719989807
 20
31.0028390707
 11
543.0407492012
 21
30.9383119664
 12
543.2141867012
 22
31.0673661467
 13
543.2141867012
 23
31.0673661467
  0
SOLID
  8
0
 62
7
  6
CONTINUOUS
 10
543.0407492012
 20
30.9383119664
 11
542.9251239807
 21
31.0673661467
 12
543.2141867012
 22
31.0673661467
 13
543.2141867012
 23
31.0673661467
  0
SOLID
  8
0
 62
7
  6
CONTINUOUS
 10
543.3876242012
 20
30.9705762839
 11
543.7344992012
 21
30.9383119664
 12
543.0407492012
 22
30.9383119664
 13
543.0407492012
 23
30.9383119664
  0
SOLID
  8
0
 62
7
  6
CONTINUOUS
 10
540.0923117012
 20
30.8092578002
 11
540.0923117012
 21
31.841695792
 12
540.3813737601
 22
30.8092578002
 13
540.3813737601
 23
31.841695792
  0
ENDBLK
  8
0
  6
BYBLOCK
 62
0
  0
BLOCK
  8
0
 62
2
  6
CONTINUOUS
  2
AMMEAAL_LOGO_BL0
 70
64
 10
416.1419631151
 20
19.7009994242
  0
TEXT
  8
0
 62
7
  6
CONTINUOUS
 10
402.4066669574
 20
19.0744135318
  7
TEXTSTYLE_3
 40
2.7338706658
  1
Ammeraal Beltech
 41
1.0
 51
15.0
 72
0
  0
TEXT
  8
0
 62
7
  6
CONTINUOUS
 10
413.2074677831
 20
16.800876859
  7
TEXTSTYLE_4
 40
1.0935482663
  1
Innovation & Service in Belting
 41
1.0
 72
0
  0
LINE
  8
0
 62
7
  6
CONTINUOUS
 10
396.382126306
 20
19.8410068404
 11
397.1602782994
 21
23.5019241381
  0
LINE
  8
0
 62
7
  6
CONTINUOUS
 10
407.2554465892
 20
27.1653180497
 11
397.6480960424
 21
24.0437006284
  0
LINE
  8
0
 62
7
  6
CONTINUOUS
 10
396.6074096383
 20
19.1476560374
 11
404.1144848995
 21
12.3882551114
  0
LINE
  8
0
 62
7
  6
CONTINUOUS
 10
396.869944049
 20
20.3827833308
 11
407.6782134142
 21
23.8946029297
  0
LINE
  8
0
 62
7
  6
CONTINUOUS
 10
407.674008277
 20
13.544814366
 11
399.2285486083
 21
21.1491404077
  0
LINE
  8
0
 62
7
  6
CONTINUOUS
 10
408.1938309968
 20
26.320392934
 11
407.2172714596
 21
21.7260415315
  0
LINE
  8
0
 62
7
  6
CONTINUOUS
 10
406.5174695119
 20
18.4337322177
 11
405.8310213004
 21
15.2042472933
  0
LINE
  8
0
 62
7
  6
CONTINUOUS
 10
408.8749270954
 20
13.9350165436
 11
409.831158631
 21
18.4337322177
  0
LINE
  8
0
 62
7
  6
CONTINUOUS
 10
410.5309605787
 20
21.7260415315
 11
410.9752023811
 21
23.8160348909
  0
LINE
  8
0
 62
7
  6
CONTINUOUS
 10
404.8275859748
 20
12.2366807987
 11
408.3871093524
 21
13.3932400533
  0
LINE
  8
0
 62
7
  6
CONTINUOUS
 10
407.9685476645
 20
27.013743737
 11
410.7499190488
 21
24.5093856939
  0
ARC
  8
0
 62
7
  6
CONTINUOUS
 10
397.8733793747
 20
23.3503498254
 40
0.7290321776
 50
108.0
 51
168.0
  0
ARC
  8
0
 62
7
  6
CONTINUOUS
 10
407.4807299215
 20
26.4719672466
 40
0.7290321776
 50
348.0
 51
108.0
  0
ARC
  8
0
 62
7
  6
CONTINUOUS
 10
410.2621013058
 20
23.9676092036
 40
0.7290321776
 50
348.0
 51
48.0
  0
ARC
  8
0
 62
7
  6
CONTINUOUS
 10
404.6023026425
 20
12.9300316018
 40
0.7290321776
 50
228.0
 51
288.0
  0
ARC
  8
0
 62
7
  6
CONTINUOUS
 10
397.0952273813
 20
19.6894325277
 40
0.7290321776
 50
108.0
 51
228.0
  0
ARC
  8
0
 62
7
  6
CONTINUOUS
 10
408.1618260201
 20
14.0865908563
 40
0.7290321776
 50
228.0
 51
348.0
  0
ENDBLK
  8
0
  6
BYBLOCK
 62
0
  0
ENDSEC
  0
SECTION
  2
ENTITIES
  0
TEXT
  8
0
 62
5
  6
CONTINUOUS
 10
480.0
 20
25.636
  7
TEXTSTYLE_2
 40
2.8
  1
Scale :
 41
0.6
 51
0.000019
 72
0
  0
TEXT
  8
0
 62
5
  6
CONTINUOUS
 10
500.0
 20
25.636
  7
TEXTSTYLE_2
 40
2.8
  1
Belt type:
 41
0.6
 51
0.000019
 72
0
  0
INSERT
  8
0
 62
2
  6
CONTINUOUS
  2
AMMEAAL_LOGO_BL0
 10
416.1419631151
 20
19.7009994242
  0
INSERT
  8
0
 62
2
  6
CONTINUOUS
  2
UNI_LOGO2_BL1
 10
557.4079930916
 20
35.8092573885
  0
LINE
  8
0
 62
2
  6
CONTINUOUS
 10
394.0
 20
30.0
 11
584.0
 21
30.0
  0
LINE
  8
0
 62
2
  6
CONTINUOUS
 10
394.0
 20
30.0
 11
394.0
 21
10.0
  0
LINE
  8
0
 62
2
  6
CONTINUOUS
 10
394.0
 20
10.0
 11
584.0
 21
10.0
  0
LINE
  8
0
 62
2
  6
CONTINUOUS
 10
479.0
 20
30.0
 11
479.0
 21
10.0
  0
LINE
  8
0
 62
2
  6
CONTINUOUS
 10
499.0
 20
30.0
 11
499.0
 21
10.0
  0
LINE
  8
0
 62
2
  6
CONTINUOUS
 10
584.0
 20
30.0
 11
584.0
 21
10.0
  0
TEXT
  8
0
 62
5
  6
CONTINUOUS
 10
397.0
 20
23.303
  7
TEXTSTYLE_5
 40
1.52
  1
                                                                     Ammeraal Beltech Modular A/S
 41
1.0
 72
0
  0
TEXT
  8
0
 62
5
  6
CONTINUOUS
 10
397.0
 20
20.595
  7
TEXTSTYLE_5
 40
1.5
  1
                                                                      Hjulmagervej 21, 7100 Vejle,  DK
 41
1.0
 72
0
  0
TEXT
  8
0
 62
5
  6
CONTINUOUS
 10
397.0
 20
17.881
  7
TEXTSTYLE_5
 40
1.495
  1
                                                                      tel: 
 41
1.0
 72
0
  0
TEXT
  8
0
 62
5
  6
CONTINUOUS
 10
441.9869465649
 20
17.881
  7
TEXTSTYLE_5
 40
1.51
  1
+45 75723100     fax: +45 75723348
 41
1.0
 72
0
  0
TEXT
  8
0
 62
5
  6
CONTINUOUS
 10
397.0
 20
15.177
  7
TEXTSTYLE_5
 40
1.5
  1
                                                                      admin@unichains.dk  www.unichains.com
 41
1.0
 72
0
  0
TEXT
  8
0
 62
5
  6
CONTINUOUS
 10
483.75
 20
13.75
  7
TEXTSTYLE_6
 40
5.0
  1
1:1
 41
0.7
 72
1
 11
489.0
 21
13.75
  0
TEXT
  8
0
 62
5
  6
CONTINUOUS
 10
502.0
 20
13.75
  7
TEXTSTYLE_7
 40
7.5
  1
Sprocket Z16 9090SQ
 41
0.5092105263
 72
0
  0
LINE
  8
0
 62
7
  6
CONTINUOUS
 10
0.0
 20
0.0
 11
0.0
 21
420.0
  0
LINE
  8
0
 62
7
  6
CONTINUOUS
 10
10.0
 20
10.0
 11
10.0
 21
410.0
  0
LINE
  8
0
 62
7
  6
CONTINUOUS
 10
0.0
 20
0.0
 11
594.0
 21
0.0
  0
LINE
  8
0
 62
7
  6
CONTINUOUS
 10
10.0
 20
10.0
 11
584.0
 21
10.0
  0
LINE
  8
0
 62
7
  6
CONTINUOUS
 10
394.0
 20
30.0
 11
584.0
 21
30.0
  0
LINE
  8
0
 62
7
  6
CONTINUOUS
 10
179.0
 20
5.0
 11
179.0
 21
10.0
  0
LINE
  8
0
 62
7
  6
CONTINUOUS
 10
179.0
 20
410.0
 11
179.0
 21
415.0
  0
LINE
  8
0
 62
7
  6
CONTINUOUS
 10
594.0
 20
420.0
 11
584.0
 21
410.0
  0
LINE
  8
0
 62
7
  6
CONTINUOUS
 10
384.0
 20
410.0
 11
384.0
 21
415.0
  0
LINE
  8
0
 62
7
  6
CONTINUOUS
 10
584.0
 20
297.0
 11
589.0
 21
297.0
  0
LINE
  8
0
 62
7
  6
CONTINUOUS
 10
10.0
 20
410.0
 11
584.0
 21
410.0
  0
LINE
  8
0
 62
7
  6
CONTINUOUS
 10
0.0
 20
420.0
 11
594.0
 21
420.0
  0
LINE
  8
0
 62
7
  6
CONTINUOUS
 10
584.0
 20
10.0
 11
584.0
 21
410.0
  0
LINE
  8
0
 62
7
  6
CONTINUOUS
 10
594.0
 20
0.0
 11
594.0
 21
420.0
  0
LINE
  8
0
 62
7
  6
CONTINUOUS
 10
90.3835617316
 20
244.2458521824
 11
90.3835617316
 21
241.8059929454
  0
LINE
  8
SURFACE
 62
7
  6
CONTINUOUS
 10
90.3835617316
 20
193.616289211
 11
90.3835617316
 21
220.3310706967
  0
LINE
  8
0
 62
7
  6
CONTINUOUS
 10
108.8249629613
 20
286.3274739033
 11
107.891269254
 21
284.073337892
  0
LINE
  8
SURFACE
 62
7
  6
CONTINUOUS
 10
89.4498680242
 20
239.5518569341
 11
99.6731722981
 21
264.2330967642
  0
LINE
  8
0
 62
7
  6
CONTINUOUS
 10
141.9665355479
 20
318.148604186
 11
140.2412945362
 21
316.4233631743
  0
LINE
  8
SURFACE
 62
7
  6
CONTINUOUS
 10
106.1660282423
 20
282.3480968804
 11
125.0562313888
 21
301.2383000268
  0
LINE
  8
0
 62
7
  6
CONTINUOUS
 10
184.7627754942
 20
334.864764404
 11
182.5086394829
 21
333.9310706967
  0
LINE
  8
SURFACE
 62
7
  6
CONTINUOUS
 10
137.9871585249
 20
315.489669467
 11
162.6683983551
 21
325.7129737408
  0
LINE
  8
SURFACE
 62
7
  6
CONTINUOUS
 10
230.6983432173
 20
103.9310706967
 11
203.9835617316
 21
103.9310706967
  0
LINE
  8
0
 62
7
  6
CONTINUOUS
 10
180.0687802459
 20
103.9310706967
 11
182.5086394829
 21
103.9310706967
  0
LINE
  8
SURFACE
 62
7
  6
CONTINUOUS
 10
184.7627754942
 20
102.9973769894
 11
160.0815356641
 21
113.2206812632
  0
LINE
  8
0
 62
7
  6
CONTINUOUS
 10
137.9871585249
 20
122.3724719264
 11
140.2412945362
 21
121.4387782191
  0
LINE
  8
0
 62
7
  6
CONTINUOUS
 10
106.1660282423
 20
155.5140445131
 11
107.891269254
 21
153.7888035014
  0
LINE
  8
SURFACE
 62
7
  6
CONTINUOUS
 10
141.9665355479
 20
119.7135372075
 11
123.0763324014
 21
138.6037403539
  0
LINE
  8
0
 62
7
  6
CONTINUOUS
 10
89.4498680242
 20
198.3102844594
 11
90.3835617316
 21
196.0561484481
  0
LINE
  8
SURFACE
 62
7
  6
CONTINUOUS
 10
108.8249629613
 20
151.5346674901
 11
98.6016586874
 21
176.2159073203
  0
LINE
  8
0
 62
7
  6
CONTINUOUS
 10
147.8796619389
 20
244.3993814973
 11
147.9252909281
 21
244.6857276811
  0
LINE
  8
0
 62
7
  6
CONTINUOUS
 10
146.9703330884
 20
250.9522856759
 11
146.7587165022
 21
250.4999519162
  0
LINE
  8
0
 62
7
  6
CONTINUOUS
 10
147.240150849
 20
250.0185175694
 11
147.4517674352
 21
250.4708513291
  0
LINE
  8
0
 62
7
  6
CONTINUOUS
 10
153.8918709719
 20
259.799561621
 11
154.1034870833
 21
260.2518949058
  0
LINE
  8
0
 62
7
  6
CONTINUOUS
 10
147.3982275183
 20
244.8808159179
 11
147.1866112117
 21
244.4284823536
  0
LINE
  8
0
 62
7
  6
CONTINUOUS
 10
157.2820413519
 20
264.8747522148
 11
157.0704261903
 21
264.4224198799
  0
LINE
  8
0
 62
7
  6
CONTINUOUS
 10
147.6680456006
 20
243.9470479646
 11
147.8796619389
 21
244.3993814973
  0
LINE
  8
0
 62
7
  6
CONTINUOUS
 10
153.381335563
 20
260.974046426
 11
153.0867250648
 21
260.4387187544
  0
LINE
  8
0
 62
7
  6
CONTINUOUS
 10
174.7107315201
 20
282.3034423831
 11
174.3787539727
 21
281.9714648357
  0
LINE
  8
0
 62
7
  6
CONTINUOUS
 10
172.3869057845
 20
279.9796166474
 11
171.8889432625
 21
279.4816541255
  0
LINE
  8
0
 62
7
  6
CONTINUOUS
 10
170.7270294449
 20
278.3197403078
 11
167.4072805648
 21
274.9999914278
  0
LINE
  8
0
 62
7
  6
CONTINUOUS
 10
161.6807115623
 20
269.2734224252
 11
159.6888614744
 21
267.2815723374
  0
LINE
  8
0
 62
7
  6
CONTINUOUS
 10
157.6970113866
 20
265.2897222495
 11
157.2820413519
 21
264.8747522148
  0
LINE
  8
0
 62
7
  6
CONTINUOUS
 10
154.128279346
 20
261.7209902089
 11
153.381335563
 21
260.974046426
  0
LINE
  8
0
 62
7
  6
CONTINUOUS
 10
147.4057852995
 20
254.9984961625
 11
146.9908166895
 21
254.5835275525
  0
LINE
  8
0
 62
7
  6
CONTINUOUS
 10
147.592609623
 20
253.9817346189
 11
148.007578233
 21
254.3967032289
  0
LINE
  8
0
 62
7
  6
CONTINUOUS
 10
168.0090734984
 20
274.3981984943
 11
170.9138542433
 21
277.3029792392
  0
LINE
  8
0
 62
7
  6
CONTINUOUS
 10
174.897554419
 20
281.2866794149
 11
175.3955169409
 21
281.7846419369
  0
LINE
  8
0
 62
7
  6
CONTINUOUS
 10
154.1034870833
 20
260.2518949058
 11
154.8504308662
 21
260.9988386887
  0
LINE
  8
0
 62
7
  6
CONTINUOUS
 10
158.0041928721
 20
264.1526006946
 11
158.5021553941
 21
264.6505632166
  0
LINE
  8
0
 62
7
  6
CONTINUOUS
 10
160.9089755166
 20
267.0573833391
 11
162.4858555698
 21
268.6342633923
  0
LINE
  8
0
 62
7
  6
CONTINUOUS
 10
159.6019108496
 20
264.546732805
 11
160.0998733715
 21
265.044695327
  0
LINE
  8
0
 62
7
  6
CONTINUOUS
 10
176.7816197568
 20
281.7264417123
 11
177.1965859924
 21
282.1414079478
  0
LINE
  8
0
 62
7
  6
CONTINUOUS
 10
156.2365330695
 20
260.9406371772
 11
156.7344955915
 21
261.4385996992
  0
LINE
  8
0
 62
7
  6
CONTINUOUS
 10
149.2111644372
 20
253.1931170247
 11
148.7961958272
 21
252.7781484147
  0
LINE
  8
0
 62
7
  6
CONTINUOUS
 10
147.3023082613
 20
251.2842608488
 11
146.9703330884
 21
250.9522856759
  0
LINE
  8
0
 62
7
  6
CONTINUOUS
 10
146.2233893055
 20
250.2053418929
 11
145.808420458
 21
249.7903730455
  0
LINE
  8
0
 62
7
  6
CONTINUOUS
 10
144.9784830006
 20
248.960435588
 11
144.5635141531
 21
248.5454667406
  0
LINE
  8
0
 62
7
  6
CONTINUOUS
 10
142.9036391491
 20
246.8855917366
 11
142.4886703907
 21
246.4706229782
  0
LINE
  8
0
 62
7
  6
CONTINUOUS
 10
176.8398203186
 20
280.3403385592
 11
176.4248502839
 21
279.9253685245
  0
LINE
  8
0
 62
7
  6
CONTINUOUS
 10
164.1708761208
 20
266.9492428412
 11
162.5939960677
 21
265.3723627881
  0
LINE
  8
0
 62
7
  6
CONTINUOUS
 10
160.1871759451
 20
262.9655426655
 11
159.6892134232
 21
262.4675801436
  0
LINE
  8
0
 62
7
  6
CONTINUOUS
 10
176.9436507301
 20
279.2405831037
 11
177.5246057394
 21
279.821538113
  0
LINE
  8
0
 62
7
  6
CONTINUOUS
 10
160.4113649434
 20
261.7454286233
 11
160.9093274653
 21
262.2433911453
  0
LINE
  8
0
 62
7
  6
CONTINUOUS
 10
163.3161475879
 20
264.6502112678
 11
164.893027641
 21
266.227091321
  0
LINE
  8
0
 62
7
  6
CONTINUOUS
 10
160.5442965856
 20
259.9526225411
 11
160.0463340636
 21
259.4546600191
  0
LINE
  8
0
 62
7
  6
CONTINUOUS
 10
159.5027432543
 20
258.6703520363
 11
159.0047807323
 21
258.1723895144
  0
LINE
  8
0
 62
7
  6
CONTINUOUS
 10
175.2460563424
 20
282.5980500319
 11
174.7107315201
 21
282.3034423831
  0
LINE
  8
0
 62
7
  6
CONTINUOUS
 10
177.37514894
 20
280.6349500072
 11
176.8398203186
 21
280.3403385592
  0
LINE
  8
0
 62
7
  6
CONTINUOUS
 10
162.2160382841
 20
269.5680319736
 11
161.6807115623
 21
269.2734224252
  0
LINE
  8
0
 62
7
  6
CONTINUOUS
 10
158.2323381084
 20
265.5843317979
 11
157.6970113866
 21
265.2897222495
  0
LINE
  8
0
 62
7
  6
CONTINUOUS
 10
179.5002833894
 20
276.0200029479
 11
180.0356082222
 21
276.3146105862
  0
LINE
  8
0
 62
7
  6
CONTINUOUS
 10
154.6636070176
 20
262.0156007071
 11
154.128279346
 21
261.7209902089
  0
LINE
  8
0
 62
7
  6
CONTINUOUS
 10
160.7225045665
 20
263.2601541135
 11
160.1871759451
 21
262.9655426655
  0
LINE
  8
0
 62
7
  6
CONTINUOUS
 10
175.3955169409
 20
281.7846419369
 11
175.7648567886
 21
281.9132646111
  0
LINE
  8
0
 62
7
  6
CONTINUOUS
 10
177.5246057394
 20
279.821538113
 11
177.8939455871
 21
279.9501607872
  0
LINE
  8
0
 62
7
  6
CONTINUOUS
 10
179.3508227171
 20
276.8334111167
 11
178.9814828694
 21
276.7047884425
  0
LINE
  8
0
 62
7
  6
CONTINUOUS
 10
162.4858555698
 20
268.6342633923
 11
162.8551954175
 21
268.7628860666
  0
LINE
  8
0
 62
7
  6
CONTINUOUS
 10
146.7587165022
 20
250.4999519162
 11
146.750452652
 21
250.0102537193
  0
LINE
  8
0
 62
7
  6
CONTINUOUS
 10
147.2318869989
 20
249.5288193725
 11
147.240150849
 21
250.0185175694
  0
LINE
  8
0
 62
7
  6
CONTINUOUS
 10
147.4064916059
 20
245.3705143523
 11
147.3982275183
 21
244.8808159179
  0
LINE
  8
0
 62
7
  6
CONTINUOUS
 10
153.8836068843
 20
259.3098631866
 11
153.8918709719
 21
259.799561621
  0
LINE
  8
0
 62
7
  6
CONTINUOUS
 10
157.8673061103
 20
263.2935624125
 11
157.8755701978
 21
263.7832608469
  0
LINE
  8
0
 62
7
  6
CONTINUOUS
 10
153.0867250648
 20
260.4387187544
 11
152.9954675402
 21
259.8660268829
  0
LINE
  8
0
 62
7
  6
CONTINUOUS
 10
157.0704261903
 20
264.4224198799
 11
156.9791677159
 21
263.8497270586
  0
LINE
  8
0
 62
7
  6
CONTINUOUS
 10
160.0797440831
 20
256.5994636416
 11
160.1710015761
 21
257.1721555447
  0
LINE
  8
0
 62
7
  6
CONTINUOUS
 10
157.8755701978
 20
263.7832608469
 11
158.0041928721
 21
264.1526006946
  0
LINE
  8
0
 62
7
  6
CONTINUOUS
 10
164.2994987951
 20
267.3185826889
 11
164.1708761208
 21
266.9492428412
  0
LINE
  8
0
 62
7
  6
CONTINUOUS
 10
166.8270293688
 20
264.7910521152
 11
166.6984066945
 21
264.4217122675
  0
LINE
  8
0
 62
7
  6
CONTINUOUS
 10
174.7689317447
 20
280.9173395672
 11
174.897554419
 21
281.2866794149
  0
LINE
  8
0
 62
7
  6
CONTINUOUS
 10
159.2745981023
 20
257.2386208487
 11
159.0629819909
 21
256.786287564
  0
LINE
  8
0
 62
7
  6
CONTINUOUS
 10
162.9263235799
 20
260.8903463264
 11
162.7147065188
 21
260.4380120918
  0
LINE
  8
0
 62
7
  6
CONTINUOUS
 10
159.7851335955
 20
256.0641359595
 11
160.0797440831
 21
256.5994636416
  0
LINE
  8
0
 62
7
  6
CONTINUOUS
 10
174.3787539727
 20
281.9714648357
 11
174.0841463239
 21
281.4361400135
  0
LINE
  8
0
 62
7
  6
CONTINUOUS
 10
163.4368581233
 20
259.7158604873
 11
163.7314695608
 21
260.2511891192
  0
LINE
  8
0
 62
7
  6
CONTINUOUS
 10
167.3375658118
 20
263.6165681757
 11
167.6321753496
 21
264.1518949081
  0
LINE
  8
0
 62
7
  6
CONTINUOUS
 10
176.4248502839
 20
279.9253685245
 11
176.1302426351
 21
279.3900437023
  0
LINE
  8
0
 62
7
  6
CONTINUOUS
 10
180.4505782569
 20
276.7295806209
 11
180.7451896943
 21
277.2649092528
  0
LINE
  8
0
 62
7
  6
CONTINUOUS
 10
175.6617320898
 20
273.3850376629
 11
172.8399457318
 21
270.5632513048
  0
LINE
  8
0
 62
7
  6
CONTINUOUS
 10
166.6984066945
 20
264.4217122675
 11
165.1215266413
 21
262.8448322144
  0
LINE
  8
0
 62
7
  6
CONTINUOUS
 10
162.7147065188
 20
260.4380120918
 11
162.0507571227
 21
259.7740626958
  0
LINE
  8
0
 62
7
  6
CONTINUOUS
 10
159.0629819909
 20
256.786287564
 11
158.316038208
 21
256.039343781
  0
LINE
  8
0
 62
7
  6
CONTINUOUS
 10
179.9317777264
 20
277.414366126
 11
179.3508227171
 21
276.8334111167
  0
LINE
  8
0
 62
7
  6
CONTINUOUS
 10
147.1866112117
 20
244.4284823536
 11
146.8546361574
 21
244.0965072994
  0
LINE
  8
0
 62
7
  6
CONTINUOUS
 10
147.3360705464
 20
243.6150729104
 11
147.6680456006
 21
243.9470479646
  0
LINE
  8
0
 62
7
  6
CONTINUOUS
 10
148.5809768513
 20
244.8599792153
 11
148.9959456988
 21
245.2749480628
  0
LINE
  8
0
 62
7
  6
CONTINUOUS
 10
149.6598955697
 20
245.9388979337
 11
150.0748644172
 21
246.3538667812
  0
LINE
  8
0
 62
7
  6
CONTINUOUS
 10
151.5687519831
 20
247.8477543471
 11
151.9837205931
 21
248.2627229571
  0
LINE
  8
0
 62
7
  6
CONTINUOUS
 10
152.647670939
 20
248.926673303
 11
153.062639549
 21
249.341641913
  0
LINE
  8
0
 62
7
  6
CONTINUOUS
 10
159.0381898125
 20
255.3171921765
 11
159.7851335955
 21
256.0641359595
  0
LINE
  8
0
 62
7
  6
CONTINUOUS
 10
162.7729087272
 20
259.0519110912
 11
163.4368581233
 21
259.7158604873
  0
LINE
  8
0
 62
7
  6
CONTINUOUS
 10
165.3457157239
 20
261.6247180879
 11
167.3375658118
 21
263.6165681757
  0
LINE
  8
0
 62
7
  6
CONTINUOUS
 10
173.0641348143
 20
269.3431371783
 11
176.3838836944
 21
272.6628860583
  0
LINE
  8
0
 62
7
  6
CONTINUOUS
 10
177.545797512
 20
273.824799876
 11
178.0437600339
 21
274.3227623979
  0
LINE
  8
0
 62
7
  6
CONTINUOUS
 10
180.0356082222
 20
276.3146105862
 11
180.4505782569
 21
276.7295806209
  0
LINE
  8
0
 62
7
  6
CONTINUOUS
 10
194.0698532326
 20
285.3991081283
 11
138.9155243
 21
230.2447791957
  0
LINE
  8
0
 62
7
  6
CONTINUOUS
 10
162.2375819949
 20
258.7573015534
 11
162.7729087272
 21
259.0519110912
  0
LINE
  8
0
 62
7
  6
CONTINUOUS
 10
158.5028621304
 20
255.0225816889
 11
159.0381898125
 21
255.3171921765
  0
LINE
  8
0
 62
7
  6
CONTINUOUS
 10
154.8504308662
 20
260.9988386887
 11
155.302764151
 21
261.2104548001
  0
LINE
  8
0
 62
7
  6
CONTINUOUS
 10
160.9093274653
 20
262.2433911453
 11
161.3616616999
 21
262.4550082064
  0
LINE
  8
0
 62
7
  6
CONTINUOUS
 10
159.9590326084
 20
261.5338134618
 11
160.4113649434
 21
261.7454286233
  0
LINE
  8
0
 62
7
  6
CONTINUOUS
 10
162.0507571227
 20
259.7740626958
 11
161.5984228882
 21
259.5624456346
  0
LINE
  8
0
 62
7
  6
CONTINUOUS
 10
158.316038208
 20
256.039343781
 11
157.8637049232
 21
255.8277276697
  0
LINE
  8
0
 62
7
  6
CONTINUOUS
 10
147.4517674352
 20
250.4708513291
 11
147.9041011949
 21
250.6824679153
  0
LINE
  8
0
 62
7
  6
CONTINUOUS
 10
158.5021553941
 20
264.6505632166
 11
158.8714952418
 21
264.7791858909
  0
LINE
  8
0
 62
7
  6
CONTINUOUS
 10
164.893027641
 20
266.227091321
 11
165.2623674887
 21
266.3557139953
  0
LINE
  8
0
 62
7
  6
CONTINUOUS
 10
159.6892134232
 20
262.4675801436
 11
159.3198735755
 21
262.3389574693
  0
LINE
  8
0
 62
7
  6
CONTINUOUS
 10
147.671648109
 20
251.4128835231
 11
147.3023082613
 21
251.2842608488
  0
LINE
  8
0
 62
7
  6
CONTINUOUS
 10
138.9155243
 20
207.6173621977
 11
194.0698532326
 21
152.4630332652
  0
LINE
  8
0
 62
7
  6
CONTINUOUS
 10
146.750452652
 20
250.0102537193
 11
146.825182239
 21
249.6035489594
  0
LINE
  8
0
 62
7
  6
CONTINUOUS
 10
147.9252909281
 20
244.6857276811
 11
147.813196247
 21
245.2957846467
  0
LINE
  8
0
 62
7
  6
CONTINUOUS
 10
147.3066165858
 20
249.1221146126
 11
147.2318869989
 21
249.5288193725
  0
LINE
  8
0
 62
7
  6
CONTINUOUS
 10
167.6321753496
 20
264.1518949081
 11
167.6030752057
 21
264.8449463477
  0
LINE
  8
0
 62
7
  6
CONTINUOUS
 10
159.2828621056
 20
257.7283193674
 11
159.2745981023
 21
257.2386208487
  0
LINE
  8
0
 62
7
  6
CONTINUOUS
 10
162.9345875832
 20
261.3800448451
 11
162.9263235799
 21
260.8903463264
  0
LINE
  8
0
 62
7
  6
CONTINUOUS
 10
174.0841463239
 20
281.4361400135
 11
174.0302520493
 21
280.6600942187
  0
LINE
  8
0
 62
7
  6
CONTINUOUS
 10
163.7314695608
 20
260.2511891192
 11
163.822726104
 21
260.8238800725
  0
LINE
  8
0
 62
7
  6
CONTINUOUS
 10
165.0299144029
 20
267.0861296031
 11
165.0755445899
 21
267.3724769635
  0
LINE
  8
0
 62
7
  6
CONTINUOUS
 10
176.8150280559
 20
278.871243256
 11
176.9436507301
 21
279.2405831037
  0
LINE
  8
0
 62
7
  6
CONTINUOUS
 10
180.0604004006
 20
277.7837059737
 11
179.9317777264
 21
277.414366126
  0
LINE
  8
0
 62
7
  6
CONTINUOUS
 10
182.6256593496
 20
263.3483125275
 11
160.9663199008
 21
241.6889730787
  0
LINE
  8
0
 62
7
  6
CONTINUOUS
 10
201.2512570491
 20
278.438376321
 11
187.1091214254
 21
264.2962406973
  0
LINE
  8
0
 62
7
  6
CONTINUOUS
 10
160.018391731
 20
237.2055110029
 11
145.8762561072
 21
223.0633753792
  0
LINE
  8
0
 62
7
  6
CONTINUOUS
 10
238.1667204501
 20
279.6815900511
 11
237.4064718736
 21
279.2382520862
  0
LINE
  8
0
 62
7
  6
CONTINUOUS
 10
146.8837369543
 20
243.4034565128
 11
147.3360705464
 21
243.6150729104
  0
LINE
  8
0
 62
7
  6
CONTINUOUS
 10
238.1225552875
 20
279.0036036935
 11
238.6420863676
 21
279.2062241336
  0
LINE
  8
0
 62
7
  6
CONTINUOUS
 10
238.9819222949
 20
276.2184986244
 11
238.4623911582
 21
276.0158782409
  0
LINE
  8
0
 62
7
  6
CONTINUOUS
 10
236.9358261524
 20
274.1724024818
 11
236.4162949313
 21
273.9697820141
  0
LINE
  8
0
 62
7
  6
CONTINUOUS
 10
241.2474956634
 20
275.156511123
 11
242.2865582741
 21
275.561752227
  0
LINE
  8
0
 62
7
  6
CONTINUOUS
 10
240.8621459607
 20
270.9682341937
 11
239.8230840562
 21
270.5629928892
  0
LINE
  8
0
 62
7
  6
CONTINUOUS
 10
238.8858377344
 20
279.9253414604
 11
238.1667204501
 21
279.6815900511
  0
LINE
  8
0
 62
7
  6
CONTINUOUS
 10
236.172543494
 20
273.2506646734
 11
236.8916608346
 21
273.4944161107
  0
LINE
  8
0
 62
7
  6
CONTINUOUS
 10
160.9663199008
 20
196.1731683148
 11
182.6256593496
 21
174.513828866
  0
LINE
  8
0
 62
7
  6
CONTINUOUS
 10
145.8762561072
 20
214.7987660143
 11
160.018391731
 21
200.6566303905
  0
LINE
  8
0
 62
7
  6
CONTINUOUS
 10
187.1091214254
 20
173.5659006961
 11
201.2512570491
 21
159.4237650724
  0
LINE
  8
0
 62
7
  6
CONTINUOUS
 10
147.2114032292
 20
245.8975776645
 11
147.4064916059
 21
245.3705143523
  0
LINE
  8
0
 62
7
  6
CONTINUOUS
 10
152.9954675402
 20
259.8660268829
 11
153.144927189
 21
259.0526178381
  0
LINE
  8
0
 62
7
  6
CONTINUOUS
 10
156.9791677159
 20
263.8497270586
 11
157.1286273647
 21
263.0363180138
  0
LINE
  8
0
 62
7
  6
CONTINUOUS
 10
160.1710015761
 20
257.1721555447
 11
160.0215418852
 21
257.9855646317
  0
LINE
  8
0
 62
7
  6
CONTINUOUS
 10
174.7606676571
 20
280.4276411328
 11
174.7689317447
 21
280.9173395672
  0
LINE
  8
0
 62
7
  6
CONTINUOUS
 10
176.1302426351
 20
279.3900437023
 11
176.1137144599
 21
278.4106468335
  0
LINE
  8
0
 62
7
  6
CONTINUOUS
 10
176.8067639683
 20
278.3815448217
 11
176.8150280559
 21
278.871243256
  0
LINE
  8
0
 62
7
  6
CONTINUOUS
 10
180.0686644882
 20
278.2734044081
 11
180.0604004006
 21
277.7837059737
  0
LINE
  8
0
 62
7
  6
CONTINUOUS
 10
180.7451896943
 20
277.2649092528
 11
180.7990801382
 21
278.0409512801
  0
LINE
  8
0
 62
7
  6
CONTINUOUS
 10
193.1912478209
 20
348.6915429632
 11
192.4398605825
 21
344.4302141783
  0
LINE
  8
SURFACE
 62
7
  6
CONTINUOUS
 10
144.4621495433
 20
103.7138227765
 11
145.3986981786
 21
107.9383206696
  0
LINE
  8
0
 62
7
  6
CONTINUOUS
 10
243.7765153678
 20
343.4799116885
 11
241.4515841514
 21
339.8305006903
  0
LINE
  8
SURFACE
 62
7
  6
CONTINUOUS
 10
105.0077840174
 20
135.7978286717
 11
107.4896874864
 21
139.342354164
  0
LINE
  8
0
 62
7
  6
CONTINUOUS
 10
238.1775087513
 20
275.0971747807
 11
237.3761294875
 21
274.4542506669
  0
LINE
  8
0
 62
7
  6
CONTINUOUS
 10
240.8513575618
 20
275.5526492246
 11
240.1703370532
 21
275.0300838661
  0
LINE
  8
0
 62
7
  6
CONTINUOUS
 10
288.5168037566
 20
319.3068484109
 11
284.9722782643
 21
316.8249449418
  0
LINE
  8
0
 62
7
  6
CONTINUOUS
 10
237.6822515302
 20
278.7217552562
 11
238.1225552875
 21
279.0036036935
  0
LINE
  8
0
 62
7
  6
CONTINUOUS
 10
239.4222256301
 20
276.5003468095
 11
238.9819222949
 21
276.2184986244
  0
LINE
  8
0
 62
7
  6
CONTINUOUS
 10
237.3761294875
 20
274.4542506669
 11
236.9358261524
 21
274.1724024818
  0
LINE
  8
0
 62
7
  6
CONTINUOUS
 10
241.291661234
 20
275.8344977469
 11
240.8513575618
 21
275.5526492246
  0
LINE
  8
0
 62
7
  6
CONTINUOUS
 10
240.8179809539
 20
270.2902476803
 11
241.2582845157
 21
270.5720956387
  0
LINE
  8
SURFACE
 62
7
  6
CONTINUOUS
 10
80.8347207397
 20
180.5381170605
 11
84.484131738
 21
182.8630482769
  0
LINE
  8
0
 62
7
  6
CONTINUOUS
 10
236.8916608346
 20
273.4944161107
 11
237.6519092291
 21
273.9377537519
  0
LINE
  8
0
 62
7
  6
CONTINUOUS
 10
241.9315509575
 20
276.1574767171
 11
241.291661234
 21
275.8344977469
  0
LINE
  8
0
 62
7
  6
CONTINUOUS
 10
240.1780913728
 20
269.9672683991
 11
240.8179809539
 21
270.2902476803
  0
LINE
  8
0
 62
7
  6
CONTINUOUS
 10
248.8975154605
 20
268.2286435205
 11
249.4170468239
 21
268.4312636773
  0
LINE
  8
0
 62
7
  6
CONTINUOUS
 10
249.7568826946
 20
265.4435382247
 11
249.2373513312
 21
265.2409180679
  0
LINE
  8
0
 62
7
  6
CONTINUOUS
 10
247.710786552
 20
263.3974420821
 11
247.1912551043
 21
263.1948218411
  0
LINE
  8
0
 62
7
  6
CONTINUOUS
 10
252.0224562898
 20
264.3815504966
 11
253.0615184471
 21
264.786792054
  0
LINE
  8
0
 62
7
  6
CONTINUOUS
 10
244.5217893146
 20
269.7157629111
 11
240.2863129882
 21
268.1740264013
  0
LINE
  8
0
 62
7
  6
CONTINUOUS
 10
248.6369075076
 20
271.1371403808
 11
245.2409066131
 21
269.9595143062
  0
LINE
  8
0
 62
7
  6
CONTINUOUS
 10
240.7616788915
 20
267.6986604979
 11
244.1576793327
 21
268.8762870259
  0
LINE
  8
0
 62
7
  6
CONTINUOUS
 10
244.9971552179
 20
269.2403970078
 11
249.1122734109
 21
270.6617744775
  0
LINE
  8
0
 62
7
  6
CONTINUOUS
 10
249.6607982191
 20
269.1503809757
 11
248.9416809206
 21
268.9066295806
  0
LINE
  8
0
 62
7
  6
CONTINUOUS
 10
246.947503667
 20
262.4757045004
 11
247.6666210076
 21
262.7194559377
  0
LINE
  8
0
 62
7
  6
CONTINUOUS
 10
90.1663138113
 20
158.0096585085
 11
94.3908117045
 21
158.9462071437
  0
LINE
  8
SURFACE
 62
7
  6
CONTINUOUS
 10
335.1440339981
 20
206.7387567861
 11
330.8827052131
 21
205.9873695476
  0
LINE
  8
0
 62
7
  6
CONTINUOUS
 10
75.6230894651
 20
206.7387567861
 11
79.88441825
 21
205.9873695476
  0
LINE
  8
SURFACE
 62
7
  6
CONTINUOUS
 10
320.6008096518
 20
158.0096585085
 11
316.3763117586
 21
158.9462071437
  0
LINE
  8
0
 62
7
  6
CONTINUOUS
 10
80.8347207397
 20
257.324024333
 11
84.484131738
 21
254.9990931165
  0
LINE
  8
SURFACE
 62
7
  6
CONTINUOUS
 10
288.5168037566
 20
118.5552929825
 11
284.9722782643
 21
121.0371964516
  0
LINE
  8
0
 62
7
  6
CONTINUOUS
 10
142.4886703907
 20
246.4706229782
 11
144.8958422934
 21
244.0634510755
  0
LINE
  8
0
 62
7
  6
CONTINUOUS
 10
145.3108110518
 20
244.4784198339
 11
142.9036391491
 21
246.8855917366
  0
LINE
  8
0
 62
7
  6
CONTINUOUS
 10
105.0077840174
 20
302.0643127218
 11
107.4896874864
 21
298.5197872295
  0
LINE
  8
SURFACE
 62
7
  6
CONTINUOUS
 10
243.7765153678
 20
94.3822297049
 11
241.4515841514
 21
98.0316407031
  0
LINE
  8
0
 62
7
  6
CONTINUOUS
 10
153.144927189
 20
259.0526178381
 11
153.4603737119
 21
258.4051956673
  0
LINE
  8
0
 62
7
  6
CONTINUOUS
 10
154.0786951577
 20
258.7827992654
 11
153.8836068843
 21
259.3098631866
  0
LINE
  8
0
 62
7
  6
CONTINUOUS
 10
162.7394986972
 20
261.9071074793
 11
162.9345875832
 21
261.3800448451
  0
LINE
  8
0
 62
7
  6
CONTINUOUS
 10
165.0755445899
 20
267.3724769635
 11
164.8430915041
 21
268.1028925713
  0
LINE
  8
0
 62
7
  6
CONTINUOUS
 10
144.4621495433
 20
334.1483186169
 11
145.3986981786
 21
329.9238207238
  0
LINE
  8
0
 62
7
  6
CONTINUOUS
 10
163.822726104
 20
260.8238800725
 11
163.6732673629
 21
261.6372901093
  0
LINE
  8
0
 62
7
  6
CONTINUOUS
 10
164.2247703954
 20
267.725288636
 11
164.2994987951
 21
267.3185826889
  0
LINE
  8
0
 62
7
  6
CONTINUOUS
 10
166.7523008848
 20
265.1977581466
 11
166.8270293688
 21
264.7910521152
  0
LINE
  8
SURFACE
 62
7
  6
CONTINUOUS
 10
193.1912478209
 20
89.1705984302
 11
192.4398605825
 21
93.4319272151
  0
LINE
  8
0
 62
7
  6
CONTINUOUS
 10
170.9138542433
 20
277.3029792392
 11
172.1012660364
 21
270.3060059562
  0
LINE
  8
SURFACE
 62
7
  6
CONTINUOUS
 10
208.2607733611
 20
335.1705984302
 11
209.263607277
 21
340.8579521859
  0
LINE
  8
0
 62
7
  6
CONTINUOUS
 10
162.3088588904
 20
104.8004912789
 11
162.1543714118
 21
103.979679304
  0
LINE
  8
SURFACE
 62
7
  6
CONTINUOUS
 10
209.263607277
 20
340.8579521859
 11
209.4349906014
 21
341.675403368
  0
LINE
  8
0
 62
7
  6
CONTINUOUS
 10
163.5588172172
 20
110.4386889329
 11
162.3088588904
 21
104.8004912789
  0
LINE
  8
SURFACE
 62
7
  6
CONTINUOUS
 10
252.5247001163
 20
325.2213300165
 11
255.6276539021
 21
330.0919918204
  0
LINE
  8
0
 62
7
  6
CONTINUOUS
 10
121.9118435382
 20
129.9721394703
 11
121.4550045748
 21
129.2729278853
  0
LINE
  8
SURFACE
 62
7
  6
CONTINUOUS
 10
255.6276539021
 20
330.0919918204
 11
256.0988164718
 21
330.7816326776
  0
LINE
  8
0
 62
7
  6
CONTINUOUS
 10
125.2242992834
 20
134.7028165403
 11
121.9118435382
 21
129.9721394703
  0
LINE
  8
0
 62
7
  6
CONTINUOUS
 10
237.4064718736
 20
279.2382520862
 11
236.9250375268
 21
278.7568177394
  0
LINE
  8
0
 62
7
  6
CONTINUOUS
 10
237.4415343568
 20
278.4810380828
 11
237.6822515302
 21
278.7217552562
  0
LINE
  8
0
 62
7
  6
CONTINUOUS
 10
239.6629428035
 20
276.7410639829
 11
239.4222256301
 21
276.5003468095
  0
LINE
  8
0
 62
7
  6
CONTINUOUS
 10
238.4182259247
 20
275.3378919542
 11
238.1775087513
 21
275.0971747807
  0
LINE
  8
0
 62
7
  6
CONTINUOUS
 10
238.5736470796
 20
274.7010364524
 11
239.4161571866
 21
275.5435465594
  0
LINE
  8
0
 62
7
  6
CONTINUOUS
 10
240.1703370532
 20
275.0300838661
 11
239.0871097729
 21
273.9468565857
  0
LINE
  8
0
 62
7
  6
CONTINUOUS
 10
239.6036066879
 20
273.6710768441
 11
240.4461167949
 21
274.513586951
  0
LINE
  8
0
 62
7
  6
CONTINUOUS
 10
242.5060355581
 20
272.4536681878
 11
241.6635254512
 21
271.6111580808
  0
LINE
  8
0
 62
7
  6
CONTINUOUS
 10
241.9393049661
 20
271.0946613925
 11
243.0225322465
 21
272.1778886728
  0
LINE
  8
0
 62
7
  6
CONTINUOUS
 10
237.6519092291
 20
273.9377537519
 11
238.5736470796
 21
274.7010364524
  0
LINE
  8
0
 62
7
  6
CONTINUOUS
 10
240.4461167949
 20
274.513586951
 11
241.2474956634
 21
275.156511123
  0
LINE
  8
0
 62
7
  6
CONTINUOUS
 10
241.6635254512
 20
271.6111580808
 11
240.8621459607
 21
270.9682341937
  0
LINE
  8
0
 62
7
  6
CONTINUOUS
 10
241.2582845157
 20
270.5720956387
 11
241.9393049661
 21
271.0946613925
  0
LINE
  8
SURFACE
 62
7
  6
CONTINUOUS
 10
289.611815888
 20
299.0903331449
 11
294.342492958
 21
302.4027888901
  0
LINE
  8
0
 62
7
  6
CONTINUOUS
 10
94.2226406079
 20
168.6869785262
 11
93.5329997506
 21
168.2158159565
  0
LINE
  8
0
 62
7
  6
CONTINUOUS
 10
248.4572120149
 20
267.9467947715
 11
248.8975154605
 21
268.2286435205
  0
LINE
  8
0
 62
7
  6
CONTINUOUS
 10
250.197185803
 20
265.7253866365
 11
249.7568826946
 21
265.4435382247
  0
LINE
  8
0
 62
7
  6
CONTINUOUS
 10
248.1510896605
 20
263.6792904939
 11
247.710786552
 21
263.3974420821
  0
LINE
  8
0
 62
7
  6
CONTINUOUS
 10
252.0666220871
 20
265.0595368939
 11
251.6263177348
 21
264.7776890516
  0
LINE
  8
0
 62
7
  6
CONTINUOUS
 10
99.0933024118
 20
171.789932312
 11
94.2226406079
 21
168.6869785262
  0
LINE
  8
0
 62
7
  6
CONTINUOUS
 10
248.9416809206
 20
268.9066295806
 11
248.1814320466
 21
268.4632919132
  0
LINE
  8
0
 62
7
  6
CONTINUOUS
 10
247.6666210076
 20
262.7194559377
 11
248.4268696288
 21
263.1627933522
  0
LINE
  8
0
 62
7
  6
CONTINUOUS
 10
252.7065111305
 20
265.3825165441
 11
252.0666220871
 21
265.0595368939
  0
LINE
  8
0
 62
7
  6
CONTINUOUS
 10
250.9530510925
 20
259.1923086795
 11
251.5929420336
 21
259.5152866006
  0
LINE
  8
0
 62
7
  6
CONTINUOUS
 10
251.637106587
 20
260.1932735674
 11
250.5980437758
 21
259.7880331695
  0
LINE
  8
0
 62
7
  6
CONTINUOUS
 10
258.7645609151
 20
252.5843848925
 11
258.2450304583
 21
252.381763829
  0
LINE
  8
0
 62
7
  6
CONTINUOUS
 10
263.1965892395
 20
253.6888518937
 11
263.7161200334
 21
253.8914732943
  0
LINE
  8
SURFACE
 62
7
  6
CONTINUOUS
 10
96.8911799678
 20
177.1063261824
 11
91.2529823137
 21
175.8563678556
  0
LINE
  8
0
 62
7
  6
CONTINUOUS
 10
327.3104432207
 20
222.8111162422
 11
328.1278944029
 21
222.9824995665
  0
LINE
  8
SURFACE
 62
7
  6
CONTINUOUS
 10
91.2529823137
 20
175.8563678556
 11
90.4321703389
 21
175.7018803769
  0
LINE
  8
0
 62
7
  6
CONTINUOUS
 10
321.6230894651
 20
221.8082823262
 11
327.3104432207
 21
222.8111162422
  0
LINE
  8
SURFACE
 62
7
  6
CONTINUOUS
 10
89.1440339981
 20
221.8082823262
 11
83.4566802424
 21
222.8111162422
  0
LINE
  8
0
 62
7
  6
CONTINUOUS
 10
319.5141411494
 20
175.8563678556
 11
320.3349531242
 21
175.7018803769
  0
LINE
  8
SURFACE
 62
7
  6
CONTINUOUS
 10
83.4566802424
 20
222.8111162422
 11
82.6392290602
 21
222.9824995665
  0
LINE
  8
0
 62
7
  6
CONTINUOUS
 10
313.8759434953
 20
177.1063261824
 11
319.5141411494
 21
175.8563678556
  0
LINE
  8
SURFACE
 62
7
  6
CONTINUOUS
 10
99.0933024118
 20
266.0722090815
 11
94.2226406079
 21
269.1751628672
  0
LINE
  8
0
 62
7
  6
CONTINUOUS
 10
294.342492958
 20
135.4593525033
 11
295.041704543
 21
135.0025135399
  0
LINE
  8
SURFACE
 62
7
  6
CONTINUOUS
 10
94.2226406079
 20
269.1751628672
 11
93.5329997506
 21
269.646325437
  0
LINE
  8
0
 62
7
  6
CONTINUOUS
 10
289.611815888
 20
138.7718082486
 11
294.342492958
 21
135.4593525033
  0
LINE
  8
0
 62
7
  6
CONTINUOUS
 10
144.8958422934
 20
244.0634510755
 11
145.4602704807
 21
243.6650104005
  0
LINE
  8
0
 62
7
  6
CONTINUOUS
 10
148.6722345923
 20
245.4326713453
 11
148.1078065078
 21
245.8311120808
  0
LINE
  8
0
 62
7
  6
CONTINUOUS
 10
144.5635141531
 20
248.5454667406
 11
147.2114032292
 21
245.8975776645
  0
LINE
  8
0
 62
7
  6
CONTINUOUS
 10
148.1078065078
 20
245.8311120808
 11
144.9784830006
 21
248.960435588
  0
LINE
  8
0
 62
7
  6
CONTINUOUS
 10
145.808420458
 20
249.7903730455
 11
149.6598955697
 21
245.9388979337
  0
LINE
  8
0
 62
7
  6
CONTINUOUS
 10
150.0748644172
 20
246.3538667812
 11
147.3066165858
 21
249.1221146126
  0
LINE
  8
0
 62
7
  6
CONTINUOUS
 10
146.825182239
 20
249.6035489594
 11
146.2233893055
 21
250.2053418929
  0
LINE
  8
0
 62
7
  6
CONTINUOUS
 10
149.2819384985
 20
250.1345678316
 11
151.5687519831
 21
247.8477543471
  0
LINE
  8
0
 62
7
  6
CONTINUOUS
 10
151.9837205931
 20
248.2627229571
 11
149.6969071085
 21
250.5495364417
  0
LINE
  8
0
 62
7
  6
CONTINUOUS
 10
146.9908166895
 20
254.5835275525
 11
147.592609623
 21
253.9817346189
  0
LINE
  8
0
 62
7
  6
CONTINUOUS
 10
148.7961958272
 20
252.7781484147
 11
152.647670939
 21
248.926673303
  0
LINE
  8
0
 62
7
  6
CONTINUOUS
 10
153.062639549
 20
249.341641913
 11
149.2111644372
 21
253.1931170247
  0
LINE
  8
0
 62
7
  6
CONTINUOUS
 10
148.007578233
 20
254.3967032289
 11
147.4057852995
 21
254.9984961625
  0
LINE
  8
0
 62
7
  6
CONTINUOUS
 10
153.4603737119
 20
258.4051956673
 11
153.9791735455
 21
257.7204089596
  0
LINE
  8
0
 62
7
  6
CONTINUOUS
 10
160.0215418852
 20
257.9855646317
 11
159.5027432543
 21
258.6703520363
  0
LINE
  8
0
 62
7
  6
CONTINUOUS
 10
154.4771360675
 20
258.2183714815
 11
154.0786951577
 21
258.7827992654
  0
LINE
  8
0
 62
7
  6
CONTINUOUS
 10
157.1286273647
 20
263.0363180138
 11
157.5270673246
 21
262.4718892801
  0
LINE
  8
SURFACE
 62
7
  6
CONTINUOUS
 10
125.2242992834
 20
303.1593248531
 11
121.9118435382
 21
307.8900019231
  0
LINE
  8
0
 62
7
  6
CONTINUOUS
 10
255.6276539021
 20
107.770149573
 11
256.0988164718
 21
107.0805087158
  0
LINE
  8
SURFACE
 62
7
  6
CONTINUOUS
 10
121.9118435382
 20
307.8900019231
 11
121.4550045748
 21
308.5892135082
  0
LINE
  8
0
 62
7
  6
CONTINUOUS
 10
252.5247001163
 20
112.640811377
 11
255.6276539021
 21
107.770149573
  0
LINE
  8
0
 62
7
  6
CONTINUOUS
 10
159.0047807323
 20
258.1723895144
 11
159.2828621056
 21
257.7283193674
  0
LINE
  8
0
 62
7
  6
CONTINUOUS
 10
158.1453897203
 20
262.849493828
 11
157.8673061103
 21
263.2935624125
  0
LINE
  8
0
 62
7
  6
CONTINUOUS
 10
163.6732673629
 20
261.6372901093
 11
163.3578198059
 21
262.2847114146
  0
LINE
  8
0
 62
7
  6
CONTINUOUS
 10
167.6030752057
 20
264.8449463477
 11
167.3706220777
 21
265.5753619976
  0
LINE
  8
0
 62
7
  6
CONTINUOUS
 10
174.0302520493
 20
280.6600942187
 11
174.2627051352
 21
279.9296786109
  0
LINE
  8
0
 62
7
  6
CONTINUOUS
 10
171.8889432625
 20
279.4816541255
 11
172.2334908475
 21
278.1411814966
  0
LINE
  8
0
 62
7
  6
CONTINUOUS
 10
173.1963598783
 20
277.1783124657
 11
172.8518119561
 21
278.5187854318
  0
LINE
  8
SURFACE
 62
7
  6
CONTINUOUS
 10
163.5588172172
 20
327.4234524605
 11
162.3088588904
 21
333.0616501145
  0
LINE
  8
0
 62
7
  6
CONTINUOUS
 10
209.263607277
 20
97.0041892076
 11
209.4349906014
 21
96.1867380254
  0
LINE
  8
SURFACE
 62
7
  6
CONTINUOUS
 10
162.3088588904
 20
333.0616501145
 11
162.1543714118
 21
333.8824620894
  0
LINE
  8
0
 62
7
  6
CONTINUOUS
 10
172.8399457318
 20
270.5632513048
 11
171.5695395518
 21
277.4772302009
  0
LINE
  8
0
 62
7
  6
CONTINUOUS
 10
176.881492368
 20
277.9748388745
 11
176.8067639683
 21
278.3815448217
  0
LINE
  8
0
 62
7
  6
CONTINUOUS
 10
208.2607733611
 20
102.6915429632
 11
209.263607277
 21
97.0041892076
  0
LINE
  8
DEFAULT_1
 62
2
  6
CENTER
 10
205.3835617316
 20
77.7179527408
 11
205.3835617316
 21
360.1441886527
  0
LINE
  8
0
 62
7
  6
CONTINUOUS
 10
236.9250375268
 20
278.7568177394
 11
236.4816998991
 21
277.9965695
  0
LINE
  8
0
 62
7
  6
CONTINUOUS
 10
240.1794397185
 20
276.4652842413
 11
240.6227776125
 21
277.2255328887
  0
LINE
  8
0
 62
7
  6
CONTINUOUS
 10
234.7966795166
 20
276.3115491176
 11
234.514831318
 21
275.8712456273
  0
LINE
  8
0
 62
7
  6
CONTINUOUS
 10
237.1596862567
 20
278.0407346627
 11
237.4415343568
 21
278.4810380828
  0
LINE
  8
0
 62
7
  6
CONTINUOUS
 10
239.9447913258
 20
277.1813676552
 11
239.6629428035
 21
276.7410639829
  0
LINE
  8
0
 62
7
  6
CONTINUOUS
 10
238.5645442458
 20
273.2658359086
 11
238.2826960607
 21
272.8255325735
  0
LINE
  8
0
 62
7
  6
CONTINUOUS
 10
239.0871097729
 20
273.9468565857
 11
238.5645442458
 21
273.2658359086
  0
LINE
  8
0
 62
7
  6
CONTINUOUS
 10
243.0225322465
 20
272.1778886728
 11
243.5450978317
 21
272.8589089547
  0
LINE
  8
0
 62
7
  6
CONTINUOUS
 10
238.9606823474
 20
272.869697807
 11
239.6036066879
 21
273.6710768441
  0
LINE
  8
0
 62
7
  6
CONTINUOUS
 10
243.1489592767
 20
273.2550475097
 11
242.5060355581
 21
272.4536681878
  0
LINE
  8
0
 62
7
  6
CONTINUOUS
 10
239.4161571866
 20
275.5435465594
 11
240.1794397185
 21
276.4652842413
  0
LINE
  8
0
 62
7
  6
CONTINUOUS
 10
248.1814320466
 20
268.4632919132
 11
247.6999976997
 21
267.9818575664
  0
LINE
  8
0
 62
7
  6
CONTINUOUS
 10
248.2164948415
 20
267.7060775981
 11
248.4572120149
 21
267.9467947715
  0
LINE
  8
0
 62
7
  6
CONTINUOUS
 10
250.4379029765
 20
265.9661038099
 11
250.197185803
 21
265.7253866365
  0
LINE
  8
0
 62
7
  6
CONTINUOUS
 10
249.1931867777
 20
264.5629311011
 11
248.9524696043
 21
264.3222139277
  0
LINE
  8
0
 62
7
  6
CONTINUOUS
 10
249.3486072526
 20
263.9260762794
 11
250.1911173595
 21
264.7685863864
  0
LINE
  8
0
 62
7
  6
CONTINUOUS
 10
250.9452974529
 20
264.2551234664
 11
249.8620701726
 21
263.1718961861
  0
LINE
  8
0
 62
7
  6
CONTINUOUS
 10
250.3785673143
 20
262.8961162178
 11
251.2210774212
 21
263.7386263247
  0
LINE
  8
0
 62
7
  6
CONTINUOUS
 10
248.4268696288
 20
263.1627933522
 11
249.3486072526
 21
263.9260762794
  0
LINE
  8
0
 62
7
  6
CONTINUOUS
 10
248.9524696043
 20
264.3222139277
 11
248.1510896605
 21
263.6792904939
  0
LINE
  8
0
 62
7
  6
CONTINUOUS
 10
251.2210774212
 20
263.7386263247
 11
252.0224562898
 21
264.3815504966
  0
LINE
  8
0
 62
7
  6
CONTINUOUS
 10
252.4384865309
 20
260.8361970012
 11
251.637106587
 21
260.1932735674
  0
LINE
  8
0
 62
7
  6
CONTINUOUS
 10
251.6263177348
 20
264.7776890516
 11
250.9452974529
 21
264.2551234664
  0
LINE
  8
0
 62
7
  6
CONTINUOUS
 10
252.0332442353
 20
259.7971359191
 11
252.7142655925
 21
260.3197007662
  0
LINE
  8
0
 62
7
  6
CONTINUOUS
 10
259.9954552836
 20
258.0935723909
 11
259.4347926818
 21
257.6913662991
  0
LINE
  8
0
 62
7
  6
CONTINUOUS
 10
251.5929420336
 20
259.5152866006
 11
252.0332442353
 21
259.7971359191
  0
LINE
  8
0
 62
7
  6
CONTINUOUS
 10
259.7897996612
 20
257.0956414719
 11
260.2301040136
 21
257.3774893142
  0
LINE
  8
0
 62
7
  6
CONTINUOUS
 10
263.4814713035
 20
254.6075563711
 11
262.8415822601
 21
254.2845767209
  0
LINE
  8
0
 62
7
  6
CONTINUOUS
 10
258.4796791039
 20
251.665680668
 11
259.1195682317
 21
251.9886604025
  0
LINE
  8
0
 62
7
  6
CONTINUOUS
 10
262.2033780755
 20
247.9419816965
 11
262.8432672032
 21
248.2649614309
  0
LINE
  8
0
 62
7
  6
CONTINUOUS
 10
262.4882598866
 20
248.860685921
 11
261.9687294298
 21
248.6580648575
  0
LINE
  8
DEFAULT_1
 62
2
  6
CENTER
 10
64.1704437756
 20
218.9310706967
 11
346.5966796875
 21
218.9310706967
  0
LINE
  8
0
 62
7
  6
CONTINUOUS
 10
145.4602704807
 20
243.6650104005
 11
145.7839814102
 21
243.5072869833
  0
LINE
  8
0
 62
7
  6
CONTINUOUS
 10
148.9959456988
 20
245.2749480628
 11
148.6722345923
 21
245.4326713453
  0
LINE
  8
0
 62
7
  6
CONTINUOUS
 10
147.813196247
 20
245.2957846467
 11
148.5809768513
 21
244.8599792153
  0
LINE
  8
0
 62
7
  6
CONTINUOUS
 10
145.7548805755
 20
244.2003378374
 11
145.3108110518
 21
244.4784198339
  0
LINE
  8
0
 62
7
  6
CONTINUOUS
 10
149.0121207379
 20
251.0683359381
 11
148.5680510659
 21
251.3464177863
  0
LINE
  8
0
 62
7
  6
CONTINUOUS
 10
148.597151653
 20
250.6533668532
 11
149.2819384985
 21
250.1345678316
  0
LINE
  8
0
 62
7
  6
CONTINUOUS
 10
149.6969071085
 20
250.5495364417
 11
149.0121207379
 21
251.0683359381
  0
LINE
  8
0
 62
7
  6
CONTINUOUS
 10
155.7845525147
 20
255.9150299904
 11
156.4693388853
 21
255.3962304939
  0
LINE
  8
0
 62
7
  6
CONTINUOUS
 10
153.9791735455
 20
257.7204089596
 11
155.7845525147
 21
255.9150299904
  0
LINE
  8
0
 62
7
  6
CONTINUOUS
 10
156.2825150366
 20
256.4129925124
 11
154.4771360675
 21
258.2183714815
  0
LINE
  8
0
 62
7
  6
CONTINUOUS
 10
157.5270673246
 20
262.4718892801
 11
158.0085020086
 21
261.9904545961
  0
LINE
  8
0
 62
7
  6
CONTINUOUS
 10
158.3861068937
 20
262.6087766546
 11
158.1453897203
 21
262.849493828
  0
LINE
  8
0
 62
7
  6
CONTINUOUS
 10
162.3784229371
 20
262.2681832394
 11
162.7394986972
 21
261.9071074793
  0
LINE
  8
0
 62
7
  6
CONTINUOUS
 10
163.3578198059
 20
262.2847114146
 11
162.7560268724
 21
262.8865043481
  0
LINE
  8
0
 62
7
  6
CONTINUOUS
 10
163.9466871225
 20
268.1693568834
 11
164.2247703954
 21
267.725288636
  0
LINE
  8
0
 62
7
  6
CONTINUOUS
 10
164.8430915041
 20
268.1028925713
 11
164.5650082312
 21
268.5469608187
  0
LINE
  8
0
 62
7
  6
CONTINUOUS
 10
166.4742176119
 20
265.641826394
 11
166.7523008848
 21
265.1977581466
  0
LINE
  8
0
 62
7
  6
CONTINUOUS
 10
167.3706220777
 20
265.5753619976
 11
167.0925387206
 21
266.0194303293
  0
LINE
  8
0
 62
7
  6
CONTINUOUS
 10
174.9557546435
 20
279.900576599
 11
174.7606676571
 21
280.4276411328
  0
LINE
  8
0
 62
7
  6
CONTINUOUS
 10
179.8735774175
 20
278.8004690262
 11
180.0686644882
 21
278.2734044081
  0
LINE
  8
0
 62
7
  6
CONTINUOUS
 10
180.7990801382
 20
278.0409512801
 11
180.5666270102
 21
278.77136693
  0
LINE
  8
0
 62
7
  6
CONTINUOUS
 10
234.514831318
 20
275.8712456273
 11
234.2710798807
 21
275.1521282867
  0
LINE
  8
0
 62
7
  6
CONTINUOUS
 10
236.4816998991
 20
277.9965695
 11
236.2379484897
 21
277.2774522157
  0
LINE
  8
0
 62
7
  6
CONTINUOUS
 10
234.9901972213
 20
275.395879724
 11
235.1928177458
 21
275.9154108884
  0
LINE
  8
0
 62
7
  6
CONTINUOUS
 10
236.9570658165
 20
277.5212035825
 11
237.1596862567
 21
278.0407346627
  0
LINE
  8
0
 62
7
  6
CONTINUOUS
 10
240.1474117092
 20
277.700898792
 11
239.9447913258
 21
277.1813676552
  0
LINE
  8
0
 62
7
  6
CONTINUOUS
 10
238.5554414962
 20
271.8306354491
 11
238.9606823474
 21
272.869697807
  0
LINE
  8
0
 62
7
  6
CONTINUOUS
 10
238.2826960607
 20
272.8255325735
 11
237.9597170062
 21
272.1856427657
  0
LINE
  8
0
 62
7
  6
CONTINUOUS
 10
243.8269461273
 20
273.2992128536
 11
244.1499253241
 21
273.9391023505
  0
LINE
  8
0
 62
7
  6
CONTINUOUS
 10
247.6999976997
 20
267.9818575664
 11
247.2566603696
 21
267.2216090295
  0
LINE
  8
0
 62
7
  6
CONTINUOUS
 10
243.5450978317
 20
272.8589089547
 11
243.8269461273
 21
273.2992128536
  0
LINE
  8
0
 62
7
  6
CONTINUOUS
 10
245.5716399871
 20
265.5365886471
 11
245.289791491
 21
265.0962854543
  0
LINE
  8
0
 62
7
  6
CONTINUOUS
 10
247.9346464297
 20
267.2657744897
 11
248.2164948415
 21
267.7060775981
  0
LINE
  8
0
 62
7
  6
CONTINUOUS
 10
250.7197517254
 20
266.4064072555
 11
250.4379029765
 21
265.9661038099
  0
LINE
  8
0
 62
7
  6
CONTINUOUS
 10
249.3395044188
 20
262.4908757356
 11
249.0576569137
 21
262.0505717205
  0
LINE
  8
0
 62
7
  6
CONTINUOUS
 10
249.8620701726
 20
263.1718961861
 11
249.3395044188
 21
262.4908757356
  0
LINE
  8
0
 62
7
  6
CONTINUOUS
 10
253.7974928728
 20
261.4029280465
 11
254.3200575513
 21
262.083949235
  0
LINE
  8
0
 62
7
  6
CONTINUOUS
 10
249.7356429738
 20
262.0947371806
 11
250.3785673143
 21
262.8961162178
  0
LINE
  8
0
 62
7
  6
CONTINUOUS
 10
253.923919903
 20
262.4800868833
 11
253.2809966378
 21
261.6787071081
  0
LINE
  8
0
 62
7
  6
CONTINUOUS
 10
250.1911173595
 20
264.7685863864
 11
250.9544001182
 21
265.6903238416
  0
LINE
  8
0
 62
7
  6
CONTINUOUS
 10
253.2809966378
 20
261.6787071081
 11
252.4384865309
 21
260.8361970012
  0
LINE
  8
0
 62
7
  6
CONTINUOUS
 10
252.7142655925
 20
260.3197007662
 11
253.7974928728
 21
261.4029280465
  0
LINE
  8
0
 62
7
  6
CONTINUOUS
 10
259.4347926818
 20
257.6913662991
 11
258.9533579978
 21
257.2099316151
  0
LINE
  8
0
 62
7
  6
CONTINUOUS
 10
259.5490824878
 20
256.8549242985
 11
259.7897996612
 21
257.0956414719
  0
LINE
  8
0
 62
7
  6
CONTINUOUS
 10
259.1256366752
 20
252.9454606526
 11
258.7645609151
 21
252.5843848925
  0
LINE
  8
0
 62
7
  6
CONTINUOUS
 10
262.8415822601
 20
254.2845767209
 11
262.1605607343
 21
253.7620117052
  0
LINE
  8
0
 62
7
  6
CONTINUOUS
 10
262.8432672032
 20
248.2649614309
 11
263.5242883918
 21
248.7875261095
  0
LINE
  8
0
 62
7
  6
CONTINUOUS
 10
262.6359266377
 20
253.2866458019
 11
263.1965892395
 21
253.6888518937
  0
LINE
  8
0
 62
7
  6
CONTINUOUS
 10
263.0489224884
 20
249.2628920128
 11
262.4882598866
 21
248.860685921
  0
LINE
  8
0
 62
7
  6
CONTINUOUS
 10
145.7839814102
 20
243.5072869833
 11
146.3940384586
 21
243.3951924271
  0
LINE
  8
0
 62
7
  6
CONTINUOUS
 10
146.281943947
 20
244.0052495201
 11
145.7548805755
 21
244.2003378374
  0
LINE
  8
0
 62
7
  6
CONTINUOUS
 10
156.4693388853
 20
255.3962304939
 11
157.1167611403
 21
255.0807838868
  0
LINE
  8
0
 62
7
  6
CONTINUOUS
 10
155.7924625853
 20
261.2187188876
 11
156.2365330695
 21
260.9406371772
  0
LINE
  8
0
 62
7
  6
CONTINUOUS
 10
160.9883667326
 20
259.6745411678
 11
160.5442965856
 21
259.9526225411
  0
LINE
  8
0
 62
7
  6
CONTINUOUS
 10
158.8301751411
 20
262.3306933817
 11
158.3861068937
 21
262.6087766546
  0
LINE
  8
0
 62
7
  6
CONTINUOUS
 10
156.8469428205
 20
256.0145516026
 11
156.2825150366
 21
256.4129925124
  0
LINE
  8
0
 62
7
  6
CONTINUOUS
 10
160.0463340636
 20
259.4546600191
 11
160.6107627973
 21
259.0562200592
  0
LINE
  8
0
 62
7
  6
CONTINUOUS
 10
158.0085020086
 20
261.9904545961
 11
158.5729307423
 21
261.5920146361
  0
LINE
  8
0
 62
7
  6
CONTINUOUS
 10
156.7344955915
 20
261.4385996992
 11
156.0497079339
 21
261.957398583
  0
LINE
  8
0
 62
7
  6
CONTINUOUS
 10
159.6888614744
 20
267.2815723374
 11
165.3457157239
 21
261.6247180879
  0
LINE
  8
0
 62
7
  6
CONTINUOUS
 10
165.1215266413
 20
262.8448322144
 11
163.3161475879
 21
264.6502112678
  0
LINE
  8
0
 62
7
  6
CONTINUOUS
 10
162.5939960677
 20
265.3723627881
 11
160.9089755166
 21
267.0573833391
  0
LINE
  8
0
 62
7
  6
CONTINUOUS
 10
163.7059699491
 20
268.4100740568
 11
163.9466871225
 21
268.1693568834
  0
LINE
  8
0
 62
7
  6
CONTINUOUS
 10
166.1131418518
 20
266.0029021541
 11
166.4742176119
 21
265.641826394
  0
LINE
  8
0
 62
7
  6
CONTINUOUS
 10
167.0925387206
 20
266.0194303293
 11
166.4907457871
 21
266.6212232628
  0
LINE
  8
0
 62
7
  6
CONTINUOUS
 10
164.5650082312
 20
268.5469608187
 11
164.0835735472
 21
269.0283955027
  0
LINE
  8
0
 62
7
  6
CONTINUOUS
 10
167.4072805648
 20
274.9999914278
 11
168.0090734984
 21
274.3981984943
  0
LINE
  8
0
 62
7
  6
CONTINUOUS
 10
172.1012660364
 20
270.3060059562
 11
173.0641348143
 21
269.3431371783
  0
LINE
  8
0
 62
7
  6
CONTINUOUS
 10
175.2338382536
 20
279.4565080144
 11
174.9557546435
 21
279.900576599
  0
LINE
  8
0
 62
7
  6
CONTINUOUS
 10
177.1595758094
 20
277.5307704586
 11
176.881492368
 21
277.9748388745
  0
LINE
  8
0
 62
7
  6
CONTINUOUS
 10
179.5954941447
 20
279.2445372736
 11
179.8735774175
 21
278.8004690262
  0
LINE
  8
0
 62
7
  6
CONTINUOUS
 10
174.2627051352
 20
279.9296786109
 11
174.6985096322
 21
279.1618965665
  0
LINE
  8
0
 62
7
  6
CONTINUOUS
 10
180.5666270102
 20
278.77136693
 11
180.1308227661
 21
279.5391487216
  0
LINE
  8
SURFACE
 62
7
  6
CONTINUOUS
 10
202.506350102
 20
102.6915429632
 11
201.5035161861
 21
97.0041892076
  0
LINE
  8
0
 62
7
  6
CONTINUOUS
 10
248.4582645727
 20
333.0616501145
 11
248.6127520513
 21
333.8824620894
  0
LINE
  8
0
 62
7
  6
CONTINUOUS
 10
237.9597170062
 20
272.1856427657
 11
237.8363241556
 21
271.5868840118
  0
LINE
  8
0
 62
7
  6
CONTINUOUS
 10
247.2083062459
 20
327.4234524605
 11
248.4582645727
 21
333.0616501145
  0
LINE
  8
0
 62
7
  6
CONTINUOUS
 10
240.6227776125
 20
277.2255328887
 11
240.8665290077
 21
277.9446501871
  0
LINE
  8
0
 62
7
  6
CONTINUOUS
 10
245.289791491
 20
265.0962854543
 11
245.0460400537
 21
264.3771681137
  0
LINE
  8
0
 62
7
  6
CONTINUOUS
 10
247.2566603696
 20
267.2216090295
 11
247.0129089744
 21
266.502491731
  0
LINE
  8
0
 62
7
  6
CONTINUOUS
 10
245.9431672377
 20
273.8308806508
 11
244.5217893146
 21
269.7157629111
  0
LINE
  8
0
 62
7
  6
CONTINUOUS
 10
244.1576793327
 20
268.8762870259
 11
242.9800532581
 21
265.4802861313
  0
LINE
  8
0
 62
7
  6
CONTINUOUS
 10
245.2409066131
 20
269.9595143062
 11
246.418533141
 21
273.3555147474
  0
LINE
  8
0
 62
7
  6
CONTINUOUS
 10
243.4554191615
 20
265.004920228
 11
244.9971552179
 21
269.2403970078
  0
LINE
  8
0
 62
7
  6
CONTINUOUS
 10
243.5542008341
 20
274.2941096671
 11
243.1489592767
 21
273.2550475097
  0
LINE
  8
0
 62
7
  6
CONTINUOUS
 10
245.7651573943
 20
264.620919551
 11
245.9677785421
 21
265.1404500921
  0
LINE
  8
0
 62
7
  6
CONTINUOUS
 10
247.7320262729
 20
266.7462431262
 11
247.9346464297
 21
267.2657744897
  0
LINE
  8
0
 62
7
  6
CONTINUOUS
 10
250.9223718822
 20
266.925938619
 11
250.7197517254
 21
266.4064072555
  0
LINE
  8
0
 62
7
  6
CONTINUOUS
 10
249.3304016692
 20
261.0556752761
 11
249.7356429738
 21
262.0947371806
  0
LINE
  8
0
 62
7
  6
CONTINUOUS
 10
249.0576569137
 20
262.0505717205
 11
248.7346771792
 21
261.4106825927
  0
LINE
  8
0
 62
7
  6
CONTINUOUS
 10
254.601907207
 20
262.524251774
 11
254.9248850438
 21
263.1641426308
  0
LINE
  8
0
 62
7
  6
CONTINUOUS
 10
250.9544001182
 20
265.6903238416
 11
251.3977377855
 21
266.4505727157
  0
LINE
  8
SURFACE
 62
7
  6
CONTINUOUS
 10
158.2424233468
 20
112.640811377
 11
155.139469561
 21
107.770149573
  0
LINE
  8
0
 62
7
  6
CONTINUOUS
 10
254.3200575513
 20
262.083949235
 11
254.601907207
 21
262.524251774
  0
LINE
  8
0
 62
7
  6
CONTINUOUS
 10
256.6223801284
 20
254.2451313324
 11
256.9042276335
 21
254.6854353475
  0
LINE
  8
0
 62
7
  6
CONTINUOUS
 10
259.2672349827
 20
256.4146202834
 11
259.5490824878
 21
256.8549242985
  0
LINE
  8
0
 62
7
  6
CONTINUOUS
 10
288.8552799249
 20
307.8900019231
 11
289.3121188883
 21
308.5892135082
  0
LINE
  8
0
 62
7
  6
CONTINUOUS
 10
285.5428241797
 20
303.1593248531
 11
288.8552799249
 21
307.8900019231
  0
LINE
  8
0
 62
7
  6
CONTINUOUS
 10
256.4288617302
 20
255.1608012508
 11
256.0266556384
 21
254.600138649
  0
LINE
  8
0
 62
7
  6
CONTINUOUS
 10
258.9533579978
 20
257.2099316151
 11
258.551151906
 21
256.6492690133
  0
LINE
  8
0
 62
7
  6
CONTINUOUS
 10
260.4283415767
 20
250.9206042309
 11
260.8305476685
 21
251.4812668327
  0
LINE
  8
0
 62
7
  6
CONTINUOUS
 10
260.3551817652
 20
251.956632736
 11
259.8326170867
 21
251.2756115475
  0
LINE
  8
0
 62
7
  6
CONTINUOUS
 10
259.1195682317
 20
251.9886604025
 11
259.7213611652
 21
252.590453336
  0
LINE
  8
0
 62
7
  6
CONTINUOUS
 10
262.1605607343
 20
253.7620117052
 11
260.3551817652
 21
251.956632736
  0
LINE
  8
0
 62
7
  6
CONTINUOUS
 10
260.8305476685
 20
251.4812668327
 11
262.6359266377
 21
253.2866458019
  0
LINE
  8
0
 62
7
  6
CONTINUOUS
 10
264.8543014576
 20
251.0682709819
 11
263.0489224884
 21
249.2628920128
  0
LINE
  8
0
 62
7
  6
CONTINUOUS
 10
263.5242883918
 20
248.7875261095
 11
265.3296673609
 21
250.5929050786
  0
LINE
  8
SURFACE
 62
7
  6
CONTINUOUS
 10
121.1553075751
 20
138.7718082486
 11
116.4246305051
 21
135.4593525033
  0
LINE
  8
0
 62
7
  6
CONTINUOUS
 10
316.5444828552
 20
269.1751628672
 11
317.2341237125
 21
269.646325437
  0
LINE
  8
SURFACE
 62
7
  6
CONTINUOUS
 10
116.4246305051
 20
135.4593525033
 11
115.7254189201
 21
135.0025135399
  0
LINE
  8
0
 62
7
  6
CONTINUOUS
 10
311.6738210513
 20
266.0722090815
 11
316.5444828552
 21
269.1751628672
  0
LINE
  8
SURFACE
 62
7
  6
CONTINUOUS
 10
313.8759434953
 20
260.7558152111
 11
319.5141411494
 21
262.0057735379
  0
LINE
  8
0
 62
7
  6
CONTINUOUS
 10
83.4566802424
 20
215.0510251512
 11
82.6392290602
 21
214.8796418269
  0
LINE
  8
0
 62
7
  6
CONTINUOUS
 10
261.8042062054
 20
247.8597192197
 11
262.2033780755
 21
247.9419816965
  0
LINE
  8
0
 62
7
  6
CONTINUOUS
 10
257.6813335083
 20
251.5011574857
 11
258.4796791039
 21
251.665680668
  0
LINE
  8
0
 62
7
  6
CONTINUOUS
 10
264.279816857
 20
254.7720795112
 11
263.4814713035
 21
254.6075563711
  0
LINE
  8
SURFACE
 62
7
  6
CONTINUOUS
 10
319.5141411494
 20
262.0057735379
 11
320.3349531242
 21
262.1602610165
  0
LINE
  8
0
 62
7
  6
CONTINUOUS
 10
89.1440339981
 20
216.0538590672
 11
83.4566802424
 21
215.0510251512
  0
LINE
  8
0
 62
7
  6
CONTINUOUS
 10
146.3940384586
 20
243.3951924271
 11
146.8837369543
 21
243.4034565128
  0
LINE
  8
SURFACE
 62
7
  6
CONTINUOUS
 10
321.6230894651
 20
216.0538590672
 11
327.3104432207
 21
215.0510251512
  0
LINE
  8
0
 62
7
  6
CONTINUOUS
 10
148.1904471306
 20
250.7280966776
 11
148.597151653
 21
250.6533668532
  0
LINE
  8
0
 62
7
  6
CONTINUOUS
 10
148.5680510659
 20
251.3464177863
 11
148.1613465434
 21
251.4211476107
  0
LINE
  8
0
 62
7
  6
CONTINUOUS
 10
91.2529823137
 20
262.0057735379
 11
90.4321703389
 21
262.1602610165
  0
LINE
  8
0
 62
7
  6
CONTINUOUS
 10
96.8911799678
 20
260.7558152111
 11
91.2529823137
 21
262.0057735379
  0
LINE
  8
0
 62
7
  6
CONTINUOUS
 10
157.3740064046
 20
255.8194636664
 11
156.8469428205
 21
256.0145516026
  0
LINE
  8
0
 62
7
  6
CONTINUOUS
 10
161.8513601343
 20
262.463272294
 11
162.3784229371
 21
262.2681832394
  0
LINE
  8
0
 62
7
  6
CONTINUOUS
 10
160.6107627973
 20
259.0562200592
 11
161.4615371183
 21
258.7034082602
  0
LINE
  8
0
 62
7
  6
CONTINUOUS
 10
162.7560268724
 20
262.8865043481
 11
162.1086054828
 21
263.2019519894
  0
LINE
  8
0
 62
7
  6
CONTINUOUS
 10
159.2782011889
 20
264.7044574912
 11
159.6019108496
 21
264.546732805
  0
LINE
  8
0
 62
7
  6
CONTINUOUS
 10
160.0998733715
 20
265.044695327
 11
159.6558051241
 21
265.3227785998
  0
LINE
  8
0
 62
7
  6
CONTINUOUS
 10
165.6690734358
 20
266.2809855956
 11
166.1131418518
 21
266.0029021541
  0
LINE
  8
0
 62
7
  6
CONTINUOUS
 10
166.4907457871
 20
266.6212232628
 11
166.0466773711
 21
266.8993067042
  0
LINE
  8
0
 62
7
  6
CONTINUOUS
 10
163.2619013646
 20
268.6881576669
 11
163.7059699491
 21
268.4100740568
  0
LINE
  8
0
 62
7
  6
CONTINUOUS
 10
164.0835735472
 20
269.0283955027
 11
163.6395052998
 21
269.3064787755
  0
LINE
  8
SURFACE
 62
7
  6
CONTINUOUS
 10
311.6738210513
 20
171.789932312
 11
316.5444828552
 21
168.6869785262
  0
LINE
  8
0
 62
7
  6
CONTINUOUS
 10
116.4246305051
 20
302.4027888901
 11
115.7254189201
 21
302.8596278535
  0
LINE
  8
0
 62
7
  6
CONTINUOUS
 10
121.1553075751
 20
299.0903331449
 11
116.4246305051
 21
302.4027888901
  0
LINE
  8
0
 62
7
  6
CONTINUOUS
 10
176.3838836944
 20
272.6628860583
 11
175.6617320898
 21
273.3850376629
  0
LINE
  8
0
 62
7
  6
CONTINUOUS
 10
171.5695395518
 20
277.4772302009
 11
170.7270294449
 21
278.3197403078
  0
LINE
  8
0
 62
7
  6
CONTINUOUS
 10
172.2334908475
 20
278.1411814966
 11
173.1963598783
 21
277.1783124657
  0
LINE
  8
0
 62
7
  6
CONTINUOUS
 10
172.8518119561
 20
278.5187854318
 11
177.545797512
 21
273.824799876
  0
LINE
  8
0
 62
7
  6
CONTINUOUS
 10
178.0437600339
 20
274.3227623979
 11
172.3869057845
 21
279.9796166474
  0
LINE
  8
0
 62
7
  6
CONTINUOUS
 10
175.4580272518
 20
278.2363939722
 11
176.3005373588
 21
277.3938838653
  0
LINE
  8
0
 62
7
  6
CONTINUOUS
 10
176.1137144599
 20
278.4106468335
 11
175.8729972865
 21
278.6513640069
  0
LINE
  8
0
 62
7
  6
CONTINUOUS
 10
177.5206515695
 20
277.1696946984
 11
177.1595758094
 21
277.5307704586
  0
LINE
  8
0
 62
7
  6
CONTINUOUS
 10
179.2344183845
 20
279.6056130337
 11
179.5954941447
 21
279.2445372736
  0
LINE
  8
0
 62
7
  6
CONTINUOUS
 10
180.1308227661
 20
279.5391487216
 11
179.5290296639
 21
280.1409418237
  0
LINE
  8
0
 62
7
  6
CONTINUOUS
 10
174.6985096322
 20
279.1618965665
 11
175.4580272518
 21
278.2363939722
  0
LINE
  8
0
 62
7
  6
CONTINUOUS
 10
175.8729972865
 20
278.6513640069
 11
175.2338382536
 21
279.4565080144
  0
LINE
  8
SURFACE
 62
7
  6
CONTINUOUS
 10
285.5428241797
 20
134.7028165403
 11
288.8552799249
 21
129.9721394703
  0
LINE
  8
0
 62
7
  6
CONTINUOUS
 10
155.139469561
 20
330.0919918204
 11
154.6683069913
 21
330.7816326776
  0
LINE
  8
0
 62
7
  6
CONTINUOUS
 10
158.2424233468
 20
325.2213300165
 11
155.139469561
 21
330.0919918204
  0
LINE
  8
SURFACE
 62
7
  6
CONTINUOUS
 10
247.2083062459
 20
110.4386889329
 11
248.4582645727
 21
104.8004912789
  0
LINE
  8
0
 62
7
  6
CONTINUOUS
 10
201.5035161861
 20
340.8579521859
 11
201.3321328617
 21
341.675403368
  0
LINE
  8
0
 62
7
  6
CONTINUOUS
 10
202.506350102
 20
335.1705984302
 11
201.5035161861
 21
340.8579521859
  0
LINE
  8
0
 62
7
  6
CONTINUOUS
 10
234.2710798807
 20
275.1521282867
 11
234.3061423606
 21
274.3949142233
  0
LINE
  8
0
 62
7
  6
CONTINUOUS
 10
236.2379484897
 20
277.2774522157
 11
236.2730109729
 21
276.5202382123
  0
LINE
  8
0
 62
7
  6
CONTINUOUS
 10
237.8363241556
 20
271.5868840118
 11
237.8713864655
 21
270.8296701184
  0
LINE
  8
0
 62
7
  6
CONTINUOUS
 10
240.8665290077
 20
277.9446501871
 11
240.8314664395
 21
278.7018642756
  0
LINE
  8
0
 62
7
  6
CONTINUOUS
 10
234.9871629996
 20
274.9174795989
 11
234.9901972213
 21
275.395879724
  0
LINE
  8
0
 62
7
  6
CONTINUOUS
 10
236.9540315948
 20
277.0428034575
 11
236.9570658165
 21
277.5212035825
  0
LINE
  8
0
 62
7
  6
CONTINUOUS
 10
238.5524072745
 20
271.352235324
 11
238.5554414962
 21
271.8306354491
  0
LINE
  8
0
 62
7
  6
CONTINUOUS
 10
240.150445931
 20
278.179298917
 11
240.1474117092
 21
277.700898792
  0
LINE
  8
0
 62
7
  6
CONTINUOUS
 10
243.5572350559
 20
274.7725097921
 11
243.5542008341
 21
274.2941096671
  0
LINE
  8
0
 62
7
  6
CONTINUOUS
 10
217.5758756422
 20
89.1705984302
 11
218.3272628807
 21
93.4319272151
  0
LINE
  8
0
 62
7
  6
CONTINUOUS
 10
244.1499253241
 20
273.9391023505
 11
244.2733181326
 21
274.5378610622
  0
LINE
  8
0
 62
7
  6
CONTINUOUS
 10
248.7346771792
 20
261.4106825927
 11
248.6112843286
 21
260.8119238388
  0
LINE
  8
SURFACE
 62
7
  6
CONTINUOUS
 10
266.3049739198
 20
334.1483186169
 11
265.3684252846
 21
329.9238207238
  0
LINE
  8
0
 62
7
  6
CONTINUOUS
 10
251.3977377855
 20
266.4505727157
 11
251.6414891807
 21
267.1696900141
  0
LINE
  8
0
 62
7
  6
CONTINUOUS
 10
254.3291605538
 20
263.5191499474
 11
253.923919903
 21
262.4800868833
  0
LINE
  8
0
 62
7
  6
CONTINUOUS
 10
259.3282579072
 20
253.464991278
 11
259.1256366752
 21
252.9454606526
  0
LINE
  8
0
 62
7
  6
CONTINUOUS
 10
256.0266556384
 20
254.600138649
 11
255.6625455301
 21
253.7606626374
  0
LINE
  8
0
 62
7
  6
CONTINUOUS
 10
259.7213611652
 20
252.590453336
 11
260.044340984
 21
253.2303425481
  0
LINE
  8
0
 62
7
  6
CONTINUOUS
 10
261.5769734685
 20
256.0306198593
 11
261.4154845501
 21
255.7106744309
  0
LINE
  8
0
 62
7
  6
CONTINUOUS
 10
259.8326170867
 20
251.2756115475
 11
259.5096373522
 21
250.6357224197
  0
LINE
  8
0
 62
7
  6
CONTINUOUS
 10
166.9906080953
 20
94.3822297049
 11
169.3155393117
 21
98.0316407031
  0
LINE
  8
0
 62
7
  6
CONTINUOUS
 10
261.8908504534
 20
255.2353085275
 11
262.1726979585
 21
255.6756125427
  0
LINE
  8
SURFACE
 62
7
  6
CONTINUOUS
 10
305.7593394457
 20
302.0643127218
 11
303.2774359767
 21
298.5197872295
  0
LINE
  8
0
 62
7
  6
CONTINUOUS
 10
265.2565075494
 20
251.6289335838
 11
264.8543014576
 21
251.0682709819
  0
LINE
  8
0
 62
7
  6
CONTINUOUS
 10
265.3296673609
 20
250.5929050786
 11
265.8522323766
 21
251.2739266043
  0
LINE
  8
0
 62
7
  6
CONTINUOUS
 10
122.2503197065
 20
118.5552929825
 11
125.7948451988
 21
121.0371964516
  0
LINE
  8
SURFACE
 62
7
  6
CONTINUOUS
 10
329.9324027234
 20
257.324024333
 11
326.2829917251
 21
254.9990931165
  0
LINE
  8
0
 62
7
  6
CONTINUOUS
 10
320.6008096518
 20
279.852482885
 11
316.3763117586
 21
278.9159342497
  0
LINE
  8
0
 62
7
  6
CONTINUOUS
 10
260.7938008371
 20
258.2580955311
 11
259.9954552836
 21
258.0935723909
  0
LINE
  8
0
 62
7
  6
CONTINUOUS
 10
250.3542923385
 20
259.0689158289
 11
250.9530510925
 21
259.1923086795
  0
LINE
  8
0
 62
7
  6
CONTINUOUS
 10
253.3052698423
 20
265.5059093525
 11
252.7065111305
 21
265.3825165441
  0
LINE
  8
SURFACE
 62
7
  6
CONTINUOUS
 10
75.6230894651
 20
231.1233846074
 11
79.88441825
 21
231.8747718458
  0
LINE
  8
0
 62
7
  6
CONTINUOUS
 10
146.8546361574
 20
244.0965072994
 11
146.281943947
 21
244.0052495201
  0
LINE
  8
0
 62
7
  6
CONTINUOUS
 10
148.1613465434
 20
251.4211476107
 11
147.671648109
 21
251.4128835231
  0
LINE
  8
0
 62
7
  6
CONTINUOUS
 10
157.8637049232
 20
255.8277276697
 11
157.3740064046
 21
255.8194636664
  0
LINE
  8
0
 62
7
  6
CONTINUOUS
 10
258.2450304583
 20
252.381763829
 11
257.7666302489
 21
252.378729523
  0
LINE
  8
0
 62
7
  6
CONTINUOUS
 10
263.7161200334
 20
253.8914732943
 11
264.1945201585
 21
253.8945075161
  0
LINE
  8
0
 62
7
  6
CONTINUOUS
 10
260.2301040136
 20
257.3774893142
 11
260.7085041386
 21
257.380523536
  0
LINE
  8
0
 62
7
  6
CONTINUOUS
 10
335.1440339981
 20
231.1233846074
 11
330.8827052131
 21
231.8747718458
  0
LINE
  8
0
 62
7
  6
CONTINUOUS
 10
157.1167611403
 20
255.0807838868
 11
157.9301702273
 21
254.9313241958
  0
LINE
  8
0
 62
7
  6
CONTINUOUS
 10
161.5984228882
 20
259.5624456346
 11
160.9883667326
 21
259.6745411678
  0
LINE
  8
0
 62
7
  6
CONTINUOUS
 10
156.0497079339
 20
261.957398583
 11
155.236298889
 21
262.1068582318
  0
LINE
  8
0
 62
7
  6
CONTINUOUS
 10
158.5729307423
 20
261.5920146361
 11
159.3863397872
 21
261.4425549874
  0
LINE
  8
0
 62
7
  6
CONTINUOUS
 10
162.1086054828
 20
263.2019519894
 11
161.2951954882
 21
263.3514106884
  0
LINE
  8
0
 62
7
  6
CONTINUOUS
 10
158.8714952418
 20
264.7791858909
 11
159.2782011889
 21
264.7044574912
  0
LINE
  8
SURFACE
 62
7
  6
CONTINUOUS
 10
90.1663138113
 20
279.852482885
 11
94.3908117045
 21
278.9159342497
  0
LINE
  8
0
 62
7
  6
CONTINUOUS
 10
159.6558051241
 20
265.3227785998
 11
158.9253895163
 21
265.5552316857
  0
LINE
  8
0
 62
7
  6
CONTINUOUS
 10
166.0466773711
 20
266.8993067042
 11
165.3162617633
 21
267.1317597901
  0
LINE
  8
0
 62
7
  6
CONTINUOUS
 10
163.6395052998
 20
269.3064787755
 11
162.909089692
 21
269.5389318614
  0
LINE
  8
0
 62
7
  6
CONTINUOUS
 10
177.2260401216
 20
276.6343660771
 11
177.9938219131
 21
276.1985618329
  0
LINE
  8
0
 62
7
  6
CONTINUOUS
 10
177.9647198169
 20
276.8916114256
 11
177.5206515695
 21
277.1696946984
  0
LINE
  8
0
 62
7
  6
CONTINUOUS
 10
178.7903499686
 20
279.8836964751
 11
179.2344183845
 21
279.6056130337
  0
LINE
  8
0
 62
7
  6
CONTINUOUS
 10
177.1965859924
 20
282.1414079478
 11
176.752517745
 21
282.4194912207
  0
LINE
  8
0
 62
7
  6
CONTINUOUS
 10
329.9324027234
 20
180.5381170605
 11
326.2829917251
 21
182.8630482769
  0
LINE
  8
SURFACE
 62
7
  6
CONTINUOUS
 10
122.2503197065
 20
319.3068484109
 11
125.7948451988
 21
316.8249449418
  0
LINE
  8
0
 62
7
  6
CONTINUOUS
 10
176.3005373588
 20
277.3938838653
 11
177.2260401216
 21
276.6343660771
  0
LINE
  8
0
 62
7
  6
CONTINUOUS
 10
305.7593394457
 20
135.7978286717
 11
303.2774359767
 21
139.342354164
  0
LINE
  8
SURFACE
 62
7
  6
CONTINUOUS
 10
166.9906080953
 20
343.4799116885
 11
169.3155393117
 21
339.8305006903
  0
LINE
  8
0
 62
7
  6
CONTINUOUS
 10
266.3049739198
 20
103.7138227765
 11
265.3684252846
 21
107.9383206696
  0
LINE
  8
SURFACE
 62
7
  6
CONTINUOUS
 10
217.5758756422
 20
348.6915429632
 11
218.3272628807
 21
344.4302141783
  0
LINE
  8
0
 62
7
  6
CONTINUOUS
 10
244.2733181326
 20
274.5378610622
 11
244.2382553377
 21
275.2950753773
  0
LINE
  8
0
 62
7
  6
CONTINUOUS
 10
245.0460400537
 20
264.3771681137
 11
245.081102817
 21
263.619953767
  0
LINE
  8
0
 62
7
  6
CONTINUOUS
 10
247.0129089744
 20
266.502491731
 11
247.0479717693
 21
265.7452774159
  0
LINE
  8
0
 62
7
  6
CONTINUOUS
 10
248.6112843286
 20
260.8119238388
 11
248.6463470919
 21
260.0547094921
  0
LINE
  8
0
 62
7
  6
CONTINUOUS
 10
251.6414891807
 20
267.1696900141
 11
251.6064272925
 21
267.9269034226
  0
LINE
  8
0
 62
7
  6
CONTINUOUS
 10
245.7621231726
 20
264.1425194259
 11
245.7651573943
 21
264.620919551
  0
LINE
  8
0
 62
7
  6
CONTINUOUS
 10
247.7289920511
 20
266.2678430011
 11
247.7320262729
 21
266.7462431262
  0
LINE
  8
0
 62
7
  6
CONTINUOUS
 10
249.3273683542
 20
260.5772742444
 11
249.3304016692
 21
261.0556752761
  0
LINE
  8
0
 62
7
  6
CONTINUOUS
 10
250.925406104
 20
267.404338744
 11
250.9223718822
 21
266.925938619
  0
LINE
  8
0
 62
7
  6
CONTINUOUS
 10
254.3321947755
 20
263.9975500725
 11
254.3291605538
 21
263.5191499474
  0
LINE
  8
0
 62
7
  6
CONTINUOUS
 10
254.9248850438
 20
263.1641426308
 11
255.0482778522
 21
263.7629013426
  0
LINE
  8
0
 62
7
  6
CONTINUOUS
 10
256.4989872356
 20
253.6463725363
 11
256.6223801284
 21
254.2451313324
  0
LINE
  8
0
 62
7
  6
CONTINUOUS
 10
258.551151906
 20
256.6492690133
 11
258.3866287659
 21
255.8509234598
  0
LINE
  8
0
 62
7
  6
CONTINUOUS
 10
259.5096373522
 20
250.6357224197
 11
259.3451141699
 21
249.8373768241
  0
LINE
  8
0
 62
7
  6
CONTINUOUS
 10
260.044340984
 20
253.2303425481
 11
260.2088641241
 21
254.0286881016
  0
LINE
  8
0
 62
7
  6
CONTINUOUS
 10
261.6592359453
 20
256.4297917293
 11
261.5769734685
 21
256.0306198593
  0
LINE
  8
0
 62
7
  6
CONTINUOUS
 10
261.2054474304
 20
247.736326348
 11
261.1231849326
 21
247.3371544569
  0
LINE
  8
0
 62
7
  6
CONTINUOUS
 10
261.616756335
 20
249.7321894726
 11
261.4111009655
 21
248.7342588065
  0
LINE
  8
0
 62
7
  6
CONTINUOUS
 10
261.5985508359
 20
246.8617885536
 11
261.8042062054
 21
247.8597192197
  0
LINE
  8
0
 62
7
  6
CONTINUOUS
 10
261.9687294298
 20
248.6580648575
 11
262.0921222383
 21
249.2568235693
  0
LINE
  8
0
 62
7
  6
CONTINUOUS
 10
262.1726979585
 20
255.6756125427
 11
262.4164493537
 21
256.3947298411
  0
LINE
  8
0
 62
7
  6
CONTINUOUS
 10
260.2257205132
 20
250.4010737741
 11
260.4283415767
 21
250.9206042309
  0
LINE
  8
0
 62
7
  6
CONTINUOUS
 10
265.4591289501
 20
252.1484643777
 11
265.2565075494
 21
251.6289335838
  0
LINE
  8
0
 62
7
  6
CONTINUOUS
 10
265.8522323766
 20
251.2739266043
 11
266.1752120268
 21
251.9138156478
  0
LINE
  8
0
 62
7
  6
CONTINUOUS
 10
209.515866414
 20
159.4237650724
 11
223.6580020377
 21
173.5659006961
  0
LINE
  8
0
 62
7
  6
CONTINUOUS
 10
250.7487317322
 20
200.6566303905
 11
264.8908673559
 21
214.7987660143
  0
LINE
  8
0
 62
7
  6
CONTINUOUS
 10
228.1414641135
 20
174.513828866
 11
249.8008035623
 21
196.1731683148
  0
LINE
  8
0
 62
7
  6
CONTINUOUS
 10
239.5793326189
 20
269.8438755485
 11
240.1780913728
 21
269.9672683991
  0
LINE
  8
0
 62
7
  6
CONTINUOUS
 10
242.5303096693
 20
276.2808695255
 11
241.9315509575
 21
276.1574767171
  0
LINE
  8
0
 62
7
  6
CONTINUOUS
 10
147.9041011949
 20
250.6824679153
 11
148.1904471306
 21
250.7280966776
  0
LINE
  8
0
 62
7
  6
CONTINUOUS
 10
157.9301702273
 20
254.9313241958
 11
158.5028621304
 21
255.0225816889
  0
LINE
  8
0
 62
7
  6
CONTINUOUS
 10
159.3863397872
 20
261.4425549874
 11
159.9590326084
 21
261.5338134618
  0
LINE
  8
0
 62
7
  6
CONTINUOUS
 10
155.236298889
 20
262.1068582318
 11
154.6636070176
 21
262.0156007071
  0
LINE
  8
0
 62
7
  6
CONTINUOUS
 10
161.2951954882
 20
263.3514106884
 11
160.7225045665
 21
263.2601541135
  0
LINE
  8
0
 62
7
  6
CONTINUOUS
 10
161.4615371183
 20
258.7034082602
 11
162.2375819949
 21
258.7573015534
  0
LINE
  8
0
 62
7
  6
CONTINUOUS
 10
155.302764151
 20
261.2104548001
 11
155.7924625853
 21
261.2187188876
  0
LINE
  8
0
 62
7
  6
CONTINUOUS
 10
159.3198735755
 20
262.3389574693
 11
158.8301751411
 21
262.3306933817
  0
LINE
  8
0
 62
7
  6
CONTINUOUS
 10
161.3616616999
 20
262.4550082064
 11
161.8513601343
 21
262.463272294
  0
LINE
  8
0
 62
7
  6
CONTINUOUS
 10
250.5980437758
 20
259.7880331695
 11
250.1196436508
 21
259.7849989478
  0
LINE
  8
0
 62
7
  6
CONTINUOUS
 10
247.1912551043
 20
263.1948218411
 11
246.7128549792
 21
263.1917876193
  0
LINE
  8
0
 62
7
  6
CONTINUOUS
 10
248.2363865276
 20
264.5568626576
 11
249.1931867777
 21
264.5629311011
  0
LINE
  8
0
 62
7
  6
CONTINUOUS
 10
253.0615184471
 20
264.786792054
 11
253.5399194789
 21
264.7898253691
  0
LINE
  8
0
 62
7
  6
CONTINUOUS
 10
249.2373513312
 20
265.2409180679
 11
248.7589512061
 21
265.2378838462
  0
LINE
  8
0
 62
7
  6
CONTINUOUS
 10
249.4170468239
 20
268.4312636773
 11
249.895446949
 21
268.434297899
  0
LINE
  8
0
 62
7
  6
CONTINUOUS
 10
158.9253895163
 20
265.5552316857
 11
158.2323381084
 21
265.5843317979
  0
LINE
  8
0
 62
7
  6
CONTINUOUS
 10
162.909089692
 20
269.5389318614
 11
162.2160382841
 21
269.5680319736
  0
LINE
  8
0
 62
7
  6
CONTINUOUS
 10
249.5970788985
 20
259.1039776855
 11
250.3542923385
 21
259.0689158289
  0
LINE
  8
0
 62
7
  6
CONTINUOUS
 10
246.1902902269
 20
262.510766357
 11
246.947503667
 21
262.4757045004
  0
LINE
  8
0
 62
7
  6
CONTINUOUS
 10
254.0624841574
 20
265.4708465576
 11
253.3052698423
 21
265.5059093525
  0
LINE
  8
0
 62
7
  6
CONTINUOUS
 10
257.1237050966
 20
251.5773514874
 11
257.6813335083
 21
251.5011574857
  0
LINE
  8
0
 62
7
  6
CONTINUOUS
 10
264.8374452371
 20
254.695885478
 11
264.279816857
 21
254.7720795112
  0
LINE
  8
0
 62
7
  6
CONTINUOUS
 10
261.3514274038
 20
258.1819033112
 11
260.7938008371
 21
258.2580955311
  0
LINE
  8
0
 62
7
  6
CONTINUOUS
 10
165.2623674887
 20
266.3557139953
 11
165.6690734358
 21
266.2809855956
  0
LINE
  8
0
 62
7
  6
CONTINUOUS
 10
162.8551954175
 20
268.7628860666
 11
163.2619013646
 21
268.6881576669
  0
LINE
  8
0
 62
7
  6
CONTINUOUS
 10
177.9938219131
 20
276.1985618329
 11
178.724237563
 21
275.966108705
  0
LINE
  8
0
 62
7
  6
CONTINUOUS
 10
260.8474058815
 20
247.8536507025
 11
261.2054474304
 21
247.736326348
  0
LINE
  8
0
 62
7
  6
CONTINUOUS
 10
261.4111009655
 20
248.7342588065
 11
261.0530594271
 21
248.8515831714
  0
LINE
  8
0
 62
7
  6
CONTINUOUS
 10
178.491784435
 20
276.6965243549
 11
177.9647198169
 21
276.8916114256
  0
LINE
  8
0
 62
7
  6
CONTINUOUS
 10
176.254555223
 20
281.9215286987
 11
176.7816197568
 21
281.7264417123
  0
LINE
  8
0
 62
7
  6
CONTINUOUS
 10
179.5290296639
 20
280.1409418237
 11
178.7612479567
 21
280.5767459835
  0
LINE
  8
0
 62
7
  6
CONTINUOUS
 10
264.8908673559
 20
223.0633753792
 11
250.7487317322
 21
237.2055110029
  0
LINE
  8
0
 62
7
  6
CONTINUOUS
 10
223.6580020377
 20
264.2962406973
 11
209.515866414
 21
278.438376321
  0
LINE
  8
0
 62
7
  6
CONTINUOUS
 10
249.8008035623
 20
241.6889730787
 11
228.1414641135
 21
263.3483125275
  0
LINE
  8
0
 62
7
  6
CONTINUOUS
 10
235.1044873645
 20
274.5594380606
 11
234.9871629996
 21
274.9174795989
  0
LINE
  8
0
 62
7
  6
CONTINUOUS
 10
237.0713559031
 20
276.6847619758
 11
236.9540315948
 21
277.0428034575
  0
LINE
  8
0
 62
7
  6
CONTINUOUS
 10
255.0482778522
 20
263.7629013426
 11
255.013215964
 21
264.520114751
  0
LINE
  8
0
 62
7
  6
CONTINUOUS
 10
255.6625455301
 20
253.7606626374
 11
255.6976073866
 21
253.0034491973
  0
LINE
  8
0
 62
7
  6
CONTINUOUS
 10
259.264200761
 20
255.9362201583
 11
259.2672349827
 21
256.4146202834
  0
LINE
  8
0
 62
7
  6
CONTINUOUS
 10
259.331292129
 20
253.943391403
 11
259.3282579072
 21
253.464991278
  0
LINE
  8
0
 62
7
  6
CONTINUOUS
 10
260.2226862072
 20
249.9226735648
 11
260.2257205132
 21
250.4010737741
  0
LINE
  8
0
 62
7
  6
CONTINUOUS
 10
265.4621631718
 20
252.6268645028
 11
265.4591289501
 21
252.1484643777
  0
LINE
  8
0
 62
7
  6
CONTINUOUS
 10
262.4164493537
 20
256.3947298411
 11
262.4606157205
 21
257.0727149946
  0
LINE
  8
0
 62
7
  6
CONTINUOUS
 10
266.1752120268
 20
251.9138156478
 11
266.3397351669
 21
252.7121612013
  0
LINE
  8
0
 62
7
  6
CONTINUOUS
 10
216.6972702305
 20
152.4630332652
 11
271.8515991631
 21
207.6173621977
  0
LINE
  8
0
 62
7
  6
CONTINUOUS
 10
165.3162617633
 20
267.1317597901
 11
165.0299144029
 21
267.0861296031
  0
LINE
  8
0
 62
7
  6
CONTINUOUS
 10
178.724237563
 20
275.966108705
 11
179.5002833894
 21
276.0200029479
  0
LINE
  8
0
 62
7
  6
CONTINUOUS
 10
178.9814828694
 20
276.7047884425
 11
178.491784435
 21
276.6965243549
  0
LINE
  8
0
 62
7
  6
CONTINUOUS
 10
177.8939455871
 20
279.9501607872
 11
178.3836440215
 21
279.9584248748
  0
LINE
  8
0
 62
7
  6
CONTINUOUS
 10
239.8230840562
 20
270.5629928892
 11
239.3446839311
 21
270.5599586674
  0
LINE
  8
0
 62
7
  6
CONTINUOUS
 10
236.4162949313
 20
273.9697820141
 11
235.9378948062
 21
273.9667477923
  0
LINE
  8
0
 62
7
  6
CONTINUOUS
 10
237.4614256746
 20
275.3318235106
 11
238.4182259247
 21
275.3378919542
  0
LINE
  8
0
 62
7
  6
CONTINUOUS
 10
242.2865582741
 20
275.561752227
 11
242.7649583992
 21
275.5647864488
  0
LINE
  8
0
 62
7
  6
CONTINUOUS
 10
238.4623911582
 20
276.0158782409
 11
237.9839910331
 21
276.0128440192
  0
LINE
  8
0
 62
7
  6
CONTINUOUS
 10
238.6420863676
 20
279.2062241336
 11
239.1204864927
 21
279.2092583553
  0
LINE
  8
0
 62
7
  6
CONTINUOUS
 10
250.4180125342
 20
269.1153181809
 11
249.6607982191
 21
269.1503809757
  0
LINE
  8
0
 62
7
  6
CONTINUOUS
 10
238.8221182722
 20
269.8789383118
 11
239.5793326189
 21
269.8438755485
  0
LINE
  8
0
 62
7
  6
CONTINUOUS
 10
235.4153293739
 20
273.28572721
 11
236.172543494
 21
273.2506646734
  0
LINE
  8
0
 62
7
  6
CONTINUOUS
 10
243.2875235311
 20
276.245807184
 11
242.5303096693
 21
276.2808695255
  0
LINE
  8
0
 62
7
  6
CONTINUOUS
 10
239.6430517379
 20
279.8902789772
 11
238.8858377344
 21
279.9253414604
  0
LINE
  8
0
 62
7
  6
CONTINUOUS
 10
178.3836440215
 20
279.9584248748
 11
178.7903499686
 21
279.8836964751
  0
LINE
  8
0
 62
7
  6
CONTINUOUS
 10
178.7612479567
 20
280.5767459835
 11
178.1511909356
 21
280.6888404826
  0
LINE
  8
0
 62
7
  6
CONTINUOUS
 10
176.752517745
 20
282.4194912207
 11
176.0221021372
 21
282.6519443065
  0
LINE
  8
0
 62
7
  6
CONTINUOUS
 10
260.7085041386
 20
257.380523536
 11
261.066545677
 21
257.263199171
  0
LINE
  8
0
 62
7
  6
CONTINUOUS
 10
246.7128549792
 20
263.1917876193
 11
246.3548134409
 21
263.3091119843
  0
LINE
  8
0
 62
7
  6
CONTINUOUS
 10
248.7589512061
 20
265.2378838462
 11
248.4009096677
 21
265.3552082111
  0
LINE
  8
0
 62
7
  6
CONTINUOUS
 10
249.895446949
 20
268.434297899
 11
250.2534884874
 21
268.3169735341
  0
LINE
  8
0
 62
7
  6
CONTINUOUS
 10
235.9378948062
 20
273.9667477923
 11
235.5798532679
 21
274.0840721573
  0
LINE
  8
0
 62
7
  6
CONTINUOUS
 10
257.7666302489
 20
252.378729523
 11
257.3293604556
 21
252.575282143
  0
LINE
  8
0
 62
7
  6
CONTINUOUS
 10
264.1945201585
 20
253.8945075161
 11
264.6317899519
 21
253.6979548961
  0
LINE
  8
0
 62
7
  6
CONTINUOUS
 10
261.7886971972
 20
257.9853506912
 11
261.3514274038
 21
258.1819033112
  0
LINE
  8
0
 62
7
  6
CONTINUOUS
 10
260.3309078226
 20
248.1294315669
 11
260.8474058815
 21
247.8536507025
  0
LINE
  8
0
 62
7
  6
CONTINUOUS
 10
256.607208851
 20
251.8531305384
 11
257.1237050966
 21
251.5773514874
  0
LINE
  8
0
 62
7
  6
CONTINUOUS
 10
250.1196436508
 20
259.7849989478
 11
249.6031474158
 21
260.0607780094
  0
LINE
  8
0
 62
7
  6
CONTINUOUS
 10
245.6737930747
 20
262.7865463148
 11
246.1902902269
 21
262.510766357
  0
LINE
  8
0
 62
7
  6
CONTINUOUS
 10
265.3539414721
 20
254.4201064164
 11
264.8374452371
 21
254.695885478
  0
LINE
  8
0
 62
7
  6
CONTINUOUS
 10
247.7198892173
 20
264.8326424573
 11
248.2363865276
 21
264.5568626576
  0
LINE
  8
0
 62
7
  6
CONTINUOUS
 10
239.3446839311
 20
270.5599586674
 11
238.8281867894
 21
270.8357386357
  0
LINE
  8
0
 62
7
  6
CONTINUOUS
 10
234.8988325617
 20
273.5615068278
 11
235.4153293739
 21
273.28572721
  0
LINE
  8
0
 62
7
  6
CONTINUOUS
 10
253.5399194789
 20
264.7898253691
 11
254.0564157139
 21
264.5140463075
  0
LINE
  8
0
 62
7
  6
CONTINUOUS
 10
249.0013543979
 20
259.4589849915
 11
249.5970788985
 21
259.1039776855
  0
LINE
  8
0
 62
7
  6
CONTINUOUS
 10
238.2263937716
 20
270.2339456179
 11
238.8221182722
 21
269.8789383118
  0
LINE
  8
0
 62
7
  6
CONTINUOUS
 10
271.8515991631
 20
230.2447791957
 11
216.6972702305
 21
285.3991081283
  0
LINE
  8
0
 62
7
  6
CONTINUOUS
 10
234.5819220351
 20
273.8784173544
 11
234.8988325617
 21
273.5615068278
  0
LINE
  8
0
 62
7
  6
CONTINUOUS
 10
240.2863129882
 20
268.1740264013
 11
240.7616788915
 21
267.6986604979
  0
LINE
  8
0
 62
7
  6
CONTINUOUS
 10
242.9800532581
 20
265.4802861313
 11
243.4554191615
 21
265.004920228
  0
LINE
  8
0
 62
7
  6
CONTINUOUS
 10
245.3568827747
 20
263.1034566147
 11
245.6737930747
 21
262.7865463148
  0
LINE
  8
0
 62
7
  6
CONTINUOUS
 10
255.9733882511
 20
252.4869511384
 11
256.607208851
 21
251.8531305384
  0
LINE
  8
0
 62
7
  6
CONTINUOUS
 10
259.6970872226
 20
248.7632521669
 11
260.3309078226
 21
248.1294315669
  0
LINE
  8
0
 62
7
  6
CONTINUOUS
 10
261.1231849326
 20
247.3371544569
 11
261.5985508359
 21
246.8617885536
  0
LINE
  8
0
 62
7
  6
CONTINUOUS
 10
246.3548134409
 20
263.3091119843
 11
245.8794475375
 21
263.7844778876
  0
LINE
  8
0
 62
7
  6
CONTINUOUS
 10
235.5798532679
 20
274.0840721573
 11
235.1044873645
 21
274.5594380606
  0
LINE
  8
0
 62
7
  6
CONTINUOUS
 10
261.0530594271
 20
248.8515831714
 11
260.4192388271
 21
249.4854037714
  0
LINE
  8
0
 62
7
  6
CONTINUOUS
 10
257.3293604556
 20
252.575282143
 11
256.6955398556
 21
253.2091027429
  0
LINE
  8
0
 62
7
  6
CONTINUOUS
 10
245.9677785421
 20
265.1404500921
 11
245.5716399871
 21
265.5365886471
  0
LINE
  8
0
 62
7
  6
CONTINUOUS
 10
235.1928177458
 20
275.9154108884
 11
234.7966795166
 21
276.3115491176
  0
LINE
  8
0
 62
7
  6
CONTINUOUS
 10
262.0921222383
 20
249.2568235693
 11
261.616756335
 21
249.7321894726
  0
LINE
  8
0
 62
7
  6
CONTINUOUS
 10
256.9042276335
 20
254.6854353475
 11
256.4288617302
 21
255.1608012508
  0
LINE
  8
0
 62
7
  6
CONTINUOUS
 10
236.5487904893
 20
276.0037411853
 11
236.9449287043
 21
275.6076029703
  0
LINE
  8
0
 62
7
  6
CONTINUOUS
 10
247.3237506623
 20
265.2287810123
 11
247.7198892173
 21
264.8326424573
  0
LINE
  8
0
 62
7
  6
CONTINUOUS
 10
258.6593736057
 20
254.8560270997
 11
259.134739509
 21
254.3806611964
  0
LINE
  8
0
 62
7
  6
CONTINUOUS
 10
248.4009096677
 20
265.3552082111
 11
247.8463164161
 21
265.9098014628
  0
LINE
  8
0
 62
7
  6
CONTINUOUS
 10
237.6259494947
 20
276.1301683841
 11
237.0713559031
 21
276.6847619758
  0
LINE
  8
0
 62
7
  6
CONTINUOUS
 10
237.8713864655
 20
270.8296701184
 11
238.2263937716
 21
270.2339456179
  0
LINE
  8
0
 62
7
  6
CONTINUOUS
 10
248.6463470919
 20
260.0547094921
 11
249.0013543979
 21
259.4589849915
  0
LINE
  8
0
 62
7
  6
CONTINUOUS
 10
244.2382553377
 20
275.2950753773
 11
243.8832480211
 21
275.8907998674
  0
LINE
  8
0
 62
7
  6
CONTINUOUS
 10
234.3061423606
 20
274.3949142233
 11
234.5819220351
 21
273.8784173544
  0
LINE
  8
0
 62
7
  6
CONTINUOUS
 10
238.8281867894
 20
270.8357386357
 11
238.5524072745
 21
271.352235324
  0
LINE
  8
0
 62
7
  6
CONTINUOUS
 10
236.2730109729
 20
276.5202382123
 11
236.5487904893
 21
276.0037411853
  0
LINE
  8
0
 62
7
  6
CONTINUOUS
 10
245.081102817
 20
263.619953767
 11
245.3568827747
 21
263.1034566147
  0
LINE
  8
0
 62
7
  6
CONTINUOUS
 10
249.6031474158
 20
260.0607780094
 11
249.3273683542
 21
260.5772742444
  0
LINE
  8
0
 62
7
  6
CONTINUOUS
 10
247.0479717693
 20
265.7452774159
 11
247.3237506623
 21
265.2287810123
  0
LINE
  8
0
 62
7
  6
CONTINUOUS
 10
240.8314664395
 20
278.7018642756
 11
240.5556868112
 21
279.2183610773
  0
LINE
  8
0
 62
7
  6
CONTINUOUS
 10
243.2814550876
 20
275.2890069338
 11
243.5572350559
 21
274.7725097921
  0
LINE
  8
0
 62
7
  6
CONTINUOUS
 10
255.6976073866
 20
253.0034491973
 11
255.9733882511
 21
252.4869511384
  0
LINE
  8
0
 62
7
  6
CONTINUOUS
 10
259.4213081715
 20
249.2797484124
 11
259.6970872226
 21
248.7632521669
  0
LINE
  8
0
 62
7
  6
CONTINUOUS
 10
256.6955398556
 20
253.2091027429
 11
256.4989872356
 21
253.6463725363
  0
LINE
  8
0
 62
7
  6
CONTINUOUS
 10
260.4192388271
 20
249.4854037714
 11
260.2226862072
 21
249.9226735648
  0
LINE
  8
0
 62
7
  6
CONTINUOUS
 10
258.4628209857
 20
255.2932968931
 11
258.6593736057
 21
254.8560270997
  0
LINE
  8
0
 62
7
  6
CONTINUOUS
 10
240.033121566
 20
278.5373404554
 11
240.150445931
 21
278.179298917
  0
LINE
  8
0
 62
7
  6
CONTINUOUS
 10
245.8794475375
 20
263.7844778876
 11
245.7621231726
 21
264.1425194259
  0
LINE
  8
0
 62
7
  6
CONTINUOUS
 10
247.8463164161
 20
265.9098014628
 11
247.7289920511
 21
266.2678430011
  0
LINE
  8
0
 62
7
  6
CONTINUOUS
 10
250.808081739
 20
267.7623802824
 11
250.925406104
 21
267.404338744
  0
LINE
  8
0
 62
7
  6
CONTINUOUS
 10
259.3815251259
 20
255.57817862
 11
259.264200761
 21
255.9362201583
  0
LINE
  8
0
 62
7
  6
CONTINUOUS
 10
258.3866287659
 20
255.8509234598
 11
258.4628209857
 21
255.2932968931
  0
LINE
  8
0
 62
7
  6
CONTINUOUS
 10
259.3451141699
 20
249.8373768241
 11
259.4213081715
 21
249.2797484124
  0
LINE
  8
0
 62
7
  6
CONTINUOUS
 10
260.2088641241
 20
254.0286881016
 11
260.1326700909
 21
254.5863164816
  0
LINE
  8
0
 62
7
  6
CONTINUOUS
 10
178.1511909356
 20
280.6888404826
 11
177.37514894
 21
280.6349500072
  0
LINE
  8
0
 62
7
  6
CONTINUOUS
 10
176.0221021372
 20
282.6519443065
 11
175.2460563424
 21
282.5980500319
  0
LINE
  8
0
 62
7
  6
CONTINUOUS
 10
175.7648567886
 20
281.9132646111
 11
176.254555223
 21
281.9215286987
  0
LINE
  8
0
 62
7
  6
CONTINUOUS
 10
237.9839910331
 20
276.0128440192
 11
237.6259494947
 21
276.1301683841
  0
LINE
  8
0
 62
7
  6
CONTINUOUS
 10
239.1204864927
 20
279.2092583553
 11
239.4785279744
 21
279.0919340471
  0
LINE
  8
0
 62
7
  6
CONTINUOUS
 10
236.9449287043
 20
275.6076029703
 11
237.4614256746
 21
275.3318235106
  0
LINE
  8
0
 62
7
  6
CONTINUOUS
 10
250.9345087692
 20
268.8395391193
 11
250.4180125342
 21
269.1153181809
  0
LINE
  8
0
 62
7
  6
CONTINUOUS
 10
242.7649583992
 20
275.5647864488
 11
243.2814550876
 21
275.2890069338
  0
LINE
  8
0
 62
7
  6
CONTINUOUS
 10
240.1595485962
 20
279.6144992922
 11
239.6430517379
 21
279.8902789772
  0
LINE
  8
0
 62
7
  6
CONTINUOUS
 10
254.6582086474
 20
265.115839241
 11
254.0624841574
 21
265.4708465576
  0
LINE
  8
0
 62
7
  6
CONTINUOUS
 10
243.8832480211
 20
275.8907998674
 11
243.2875235311
 21
276.245807184
  0
LINE
  8
0
 62
7
  6
CONTINUOUS
 10
259.8568910293
 20
255.1028127167
 11
259.3815251259
 21
255.57817862
  0
LINE
  8
0
 62
7
  6
CONTINUOUS
 10
261.4154845501
 20
255.7106744309
 11
261.8908504534
 21
255.2353085275
  0
LINE
  8
0
 62
7
  6
CONTINUOUS
 10
261.066545677
 20
257.263199171
 11
261.5419115803
 21
256.7878332677
  0
LINE
  8
0
 62
7
  6
CONTINUOUS
 10
264.6317899519
 20
253.6979548961
 11
265.2656105518
 21
253.0641342962
  0
LINE
  8
0
 62
7
  6
CONTINUOUS
 10
239.4785279744
 20
279.0919340471
 11
240.033121566
 21
278.5373404554
  0
LINE
  8
0
 62
7
  6
CONTINUOUS
 10
250.2534884874
 20
268.3169735341
 11
250.808081739
 21
267.7623802824
  0
LINE
  8
0
 62
7
  6
CONTINUOUS
 10
265.9877620721
 20
253.7862858164
 11
265.3539414721
 21
254.4201064164
  0
LINE
  8
0
 62
7
  6
CONTINUOUS
 10
262.1848348455
 20
257.5892130429
 11
261.7886971972
 21
257.9853506912
  0
LINE
  8
0
 62
7
  6
CONTINUOUS
 10
251.3306473242
 20
268.4434005643
 11
250.9345087692
 21
268.8395391193
  0
LINE
  8
0
 62
7
  6
CONTINUOUS
 10
249.1122734109
 20
270.6617744775
 11
248.6369075076
 21
271.1371403808
  0
LINE
  8
0
 62
7
  6
CONTINUOUS
 10
246.418533141
 20
273.3555147474
 11
245.9431672377
 21
273.8308806508
  0
LINE
  8
0
 62
7
  6
CONTINUOUS
 10
240.5556868112
 20
279.2183610773
 11
240.1595485962
 21
279.6144992922
  0
LINE
  8
0
 62
7
  6
CONTINUOUS
 10
255.013215964
 20
264.520114751
 11
254.6582086474
 21
265.115839241
  0
LINE
  8
0
 62
7
  6
CONTINUOUS
 10
251.6064272925
 20
267.9269034226
 11
251.3306473242
 21
268.4434005643
  0
LINE
  8
0
 62
7
  6
CONTINUOUS
 10
254.0564157139
 20
264.5140463075
 11
254.3321947755
 21
263.9975500725
  0
LINE
  8
0
 62
7
  6
CONTINUOUS
 10
260.1326700909
 20
254.5863164816
 11
259.8568910293
 21
255.1028127167
  0
LINE
  8
0
 62
7
  6
CONTINUOUS
 10
262.4606157205
 20
257.0727149946
 11
262.1848348455
 21
257.5892130429
  0
LINE
  8
0
 62
7
  6
CONTINUOUS
 10
266.263542947
 20
253.269787768
 11
265.9877620721
 21
253.7862858164
  0
LINE
  8
0
 62
7
  6
CONTINUOUS
 10
259.134739509
 20
254.3806611964
 11
259.331292129
 21
253.943391403
  0
LINE
  8
0
 62
7
  6
CONTINUOUS
 10
265.2656105518
 20
253.0641342962
 11
265.4621631718
 21
252.6268645028
  0
LINE
  8
0
 62
7
  6
CONTINUOUS
 10
261.5419115803
 20
256.7878332677
 11
261.6592359453
 21
256.4297917293
  0
LINE
  8
0
 62
7
  6
CONTINUOUS
 10
266.3397351669
 20
252.7121612013
 11
266.263542947
 21
253.269787768
  0
LINE
  8
SURFACE
 62
7
  6
CONTINUOUS
 10
320.3835617316
 20
244.2458521824
 11
320.3835617316
 21
217.5310706967
  0
LINE
  8
0
 62
7
  6
CONTINUOUS
 10
320.3835617316
 20
193.616289211
 11
320.3835617316
 21
196.0561484481
  0
LINE
  8
SURFACE
 62
7
  6
CONTINUOUS
 10
321.3172554389
 20
198.3102844594
 11
311.093951165
 21
173.6290446292
  0
LINE
  8
0
 62
7
  6
CONTINUOUS
 10
301.9421605018
 20
151.5346674901
 11
302.8758542092
 21
153.7888035014
  0
LINE
  8
SURFACE
 62
7
  6
CONTINUOUS
 10
304.6010952208
 20
155.5140445131
 11
285.7108920743
 21
136.6238413666
  0
LINE
  8
0
 62
7
  6
CONTINUOUS
 10
268.8005879152
 20
119.7135372075
 11
270.5258289269
 21
121.4387782191
  0
LINE
  8
SURFACE
 62
7
  6
CONTINUOUS
 10
272.7799649382
 20
122.3724719264
 11
248.098725108
 21
112.1491676526
  0
LINE
  8
0
 62
7
  6
CONTINUOUS
 10
226.0043479689
 20
102.9973769894
 11
228.2584839802
 21
103.9310706967
  0
LINE
  8
0
 62
7
  6
CONTINUOUS
 10
230.6983432173
 20
333.9310706967
 11
228.2584839802
 21
333.9310706967
  0
LINE
  8
SURFACE
 62
7
  6
CONTINUOUS
 10
180.0687802459
 20
333.9310706967
 11
206.7835617316
 21
333.9310706967
  0
LINE
  8
0
 62
7
  6
CONTINUOUS
 10
272.7799649382
 20
315.489669467
 11
270.5258289269
 21
316.4233631743
  0
LINE
  8
SURFACE
 62
7
  6
CONTINUOUS
 10
226.0043479689
 20
334.864764404
 11
250.6855877991
 21
324.6414601302
  0
LINE
  8
SURFACE
 62
7
  6
CONTINUOUS
 10
268.8005879152
 20
318.148604186
 11
287.6907910617
 21
299.2584010395
  0
LINE
  8
0
 62
7
  6
CONTINUOUS
 10
304.6010952208
 20
282.3480968804
 11
302.8758542092
 21
284.073337892
  0
LINE
  8
SURFACE
 62
7
  6
CONTINUOUS
 10
301.9421605018
 20
286.3274739033
 11
312.1654647757
 21
261.6462340732
  0
LINE
  8
0
 62
7
  6
CONTINUOUS
 10
321.3172554389
 20
239.5518569341
 11
320.3835617316
 21
241.8059929454
  0
POLYLINE
  8
SURFACE
 62
7
  6
CONTINUOUS
 66
1
 70
0
  0
VERTEX
  8
SURFACE
 62
7
  6
CONTINUOUS
 10
430.3331973327
 20
87.931070697
  0
VERTEX
  8
SURFACE
 62
7
  6
CONTINUOUS
 10
430.3947616056
 20
87.9329675048
  0
VERTEX
  8
SURFACE
 62
7
  6
CONTINUOUS
 10
430.4762216998
 20
87.9413511356
  0
VERTEX
  8
SURFACE
 62
7
  6
CONTINUOUS
 10
430.5544630552
 20
87.955856161
  0
VERTEX
  8
SURFACE
 62
7
  6
CONTINUOUS
 10
430.6292040064
 20
87.9758829809
  0
VERTEX
  8
SURFACE
 62
7
  6
CONTINUOUS
 10
430.7002391566
 20
88.0008632388
  0
VERTEX
  8
SURFACE
 62
7
  6
CONTINUOUS
 10
430.7674280411
 20
88.030264454
  0
VERTEX
  8
SURFACE
 62
7
  6
CONTINUOUS
 10
430.8306847597
 20
88.0635930055
  0
VERTEX
  8
SURFACE
 62
7
  6
CONTINUOUS
 10
430.8899683512
 20
88.1003956966
  0
VERTEX
  8
SURFACE
 62
7
  6
CONTINUOUS
 10
430.9452739633
 20
88.1402601204
  0
VERTEX
  8
SURFACE
 62
7
  6
CONTINUOUS
 10
430.9966204089
 20
88.1828100909
  0
VERTEX
  8
SURFACE
 62
7
  6
CONTINUOUS
 10
431.0439932339
 20
88.2276511498
  0
VERTEX
  8
SURFACE
 62
7
  6
CONTINUOUS
 10
431.0873728314
 20
88.274369903
  0
VERTEX
  8
SURFACE
 62
7
  6
CONTINUOUS
 10
431.1267771142
 20
88.3225678532
  0
VERTEX
  8
SURFACE
 62
7
  6
CONTINUOUS
 10
431.145003768
 20
88.3471020027
  0
VERTEX
  8
SURFACE
 62
7
  6
CONTINUOUS
 10
431.1785539398
 20
88.3968124867
  0
VERTEX
  8
SURFACE
 62
7
  6
CONTINUOUS
 10
431.2083166763
 20
88.4470885412
  0
VERTEX
  8
SURFACE
 62
7
  6
CONTINUOUS
 10
431.2344071142
 20
88.4975848418
  0
VERTEX
  8
SURFACE
 62
7
  6
CONTINUOUS
 10
431.2569236335
 20
88.5478730369
  0
VERTEX
  8
SURFACE
 62
7
  6
CONTINUOUS
 10
431.2760032185
 20
88.5975175614
  0
VERTEX
  8
SURFACE
 62
7
  6
CONTINUOUS
 10
431.2918215563
 20
88.6460719227
  0
VERTEX
  8
SURFACE
 62
7
  6
CONTINUOUS
 10
431.3044568846
 20
88.6925128054
  0
VERTEX
  8
SURFACE
 62
7
  6
CONTINUOUS
 10
431.3138982849
 20
88.7345981936
  0
VERTEX
  8
SURFACE
 62
7
  6
CONTINUOUS
 10
431.3202383511
 20
88.7687870769
  0
VERTEX
  8
SURFACE
 62
7
  6
CONTINUOUS
 10
431.3242695551
 20
88.794291218
  0
VERTEX
  8
SURFACE
 62
7
  6
CONTINUOUS
 10
431.3273341479
 20
88.8160245753
  0
VERTEX
  8
SURFACE
 62
7
  6
CONTINUOUS
 10
431.330239445
 20
88.8382694773
  0
VERTEX
  8
SURFACE
 62
7
  6
CONTINUOUS
 10
431.3333843969
 20
88.8636288859
  0
SEQEND
  0
POLYLINE
  8
0
 62
7
  6
CONTINUOUS
 66
1
 70
0
  0
VERTEX
  8
0
 62
7
  6
CONTINUOUS
 10
417.4331972507
 20
87.9310707269
  0
VERTEX
  8
0
 62
7
  6
CONTINUOUS
 10
417.4942584747
 20
87.932936633
  0
VERTEX
  8
0
 62
7
  6
CONTINUOUS
 10
417.5742732727
 20
87.9410715744
  0
VERTEX
  8
0
 62
7
  6
CONTINUOUS
 10
417.6511854622
 20
87.9551183685
  0
VERTEX
  8
0
 62
7
  6
CONTINUOUS
 10
417.7247271807
 20
87.974507226
  0
VERTEX
  8
0
 62
7
  6
CONTINUOUS
 10
417.7947020238
 20
87.9986975412
  0
VERTEX
  8
0
 62
7
  6
CONTINUOUS
 10
417.8609746029
 20
88.0271821875
  0
VERTEX
  8
0
 62
7
  6
CONTINUOUS
 10
417.9234609665
 20
88.0594903069
  0
VERTEX
  8
0
 62
7
  6
CONTINUOUS
 10
417.9821197202
 20
88.0951888155
  0
VERTEX
  8
0
 62
7
  6
CONTINUOUS
 10
418.0369438509
 20
88.1338828104
  0
VERTEX
  8
0
 62
7
  6
CONTINUOUS
 10
418.087951524
 20
88.1752135235
  0
VERTEX
  8
0
 62
7
  6
CONTINUOUS
 10
418.1351372348
 20
88.2188144309
  0
VERTEX
  8
0
 62
7
  6
CONTINUOUS
 10
418.1784776975
 20
88.2642932229
  0
VERTEX
  8
0
 62
7
  6
CONTINUOUS
 10
418.2179833044
 20
88.3112694975
  0
VERTEX
  8
0
 62
7
  6
CONTINUOUS
 10
418.2536976211
 20
88.3593795472
  0
VERTEX
  8
0
 62
7
  6
CONTINUOUS
 10
418.2856937142
 20
88.4082779795
  0
VERTEX
  8
0
 62
7
  6
CONTINUOUS
 10
418.3140692422
 20
88.4576360694
  0
VERTEX
  8
0
 62
7
  6
CONTINUOUS
 10
418.3389327842
 20
88.5071179232
  0
VERTEX
  8
0
 62
7
  6
CONTINUOUS
 10
418.360378211
 20
88.556303188
  0
VERTEX
  8
0
 62
7
  6
CONTINUOUS
 10
418.3785488453
 20
88.6047938472
  0
VERTEX
  8
0
 62
7
  6
CONTINUOUS
 10
418.393606638
 20
88.652133763
  0
VERTEX
  8
0
 62
7
  6
CONTINUOUS
 10
418.4055897247
 20
88.6971525709
  0
VERTEX
  8
0
 62
7
  6
CONTINUOUS
 10
418.4145019198
 20
88.7376029416
  0
VERTEX
  8
0
 62
7
  6
CONTINUOUS
 10
418.4205029416
 20
88.7703589629
  0
VERTEX
  8
0
 62
7
  6
CONTINUOUS
 10
418.4244200641
 20
88.7953112673
  0
VERTEX
  8
0
 62
7
  6
CONTINUOUS
 10
418.4274515339
 20
88.816895351
  0
VERTEX
  8
0
 62
7
  6
CONTINUOUS
 10
418.4303369495
 20
88.8390383299
  0
VERTEX
  8
0
 62
7
  6
CONTINUOUS
 10
418.4334466175
 20
88.8641408031
  0
VERTEX
  8
0
 62
7
  6
CONTINUOUS
 10
418.5234306069
 20
89.6358773758
  0
SEQEND
  0
POLYLINE
  8
0
 62
7
  6
CONTINUOUS
 66
1
 70
0
  0
VERTEX
  8
0
 62
7
  6
CONTINUOUS
 10
417.4355165576
 20
93.6881792171
  0
VERTEX
  8
0
 62
7
  6
CONTINUOUS
 10
417.4878581173
 20
93.6895492661
  0
VERTEX
  8
0
 62
7
  6
CONTINUOUS
 10
417.6347143444
 20
93.7082091256
  0
VERTEX
  8
0
 62
7
  6
CONTINUOUS
 10
417.7709135808
 20
93.7460687606
  0
VERTEX
  8
0
 62
7
  6
CONTINUOUS
 10
417.8944499879
 20
93.799636702
  0
VERTEX
  8
0
 62
7
  6
CONTINUOUS
 10
418.0041189255
 20
93.8654356711
  0
VERTEX
  8
0
 62
7
  6
CONTINUOUS
 10
418.0994220552
 20
93.9401420475
  0
VERTEX
  8
0
 62
7
  6
CONTINUOUS
 10
418.1803507517
 20
94.0205720998
  0
VERTEX
  8
0
 62
7
  6
CONTINUOUS
 10
418.2472357464
 20
94.1035604579
  0
VERTEX
  8
0
 62
7
  6
CONTINUOUS
 10
418.3009997805
 20
94.1863259648
  0
VERTEX
  8
0
 62
7
  6
CONTINUOUS
 10
418.3233883286
 20
94.2269207219
  0
VERTEX
  8
0
 62
7
  6
CONTINUOUS
 10
418.3601041682
 20
94.3052604085
  0
VERTEX
  8
0
 62
7
  6
CONTINUOUS
 10
418.3873792086
 20
94.3782279877
  0
VERTEX
  8
0
 62
7
  6
CONTINUOUS
 10
418.406035364
 20
94.440896785
  0
VERTEX
  8
0
 62
7
  6
CONTINUOUS
 10
418.4185373233
 20
94.4928209076
  0
VERTEX
  8
0
 62
7
  6
CONTINUOUS
 10
418.4288685669
 20
94.5449243699
  0
VERTEX
  8
0
 62
7
  6
CONTINUOUS
 10
418.4377396414
 20
94.5977924009
  0
VERTEX
  8
0
 62
7
  6
CONTINUOUS
 10
418.4465305478
 20
94.6572896691
  0
VERTEX
  8
0
 62
7
  6
CONTINUOUS
 10
418.455955071
 20
94.7276428469
  0
SEQEND
  0
LINE
  8
SURFACE
 62
7
  6
CONTINUOUS
 10
430.3332172289
 20
87.9310706967
 11
424.4020180653
 21
87.9310706967
  0
LINE
  8
0
 62
7
  6
CONTINUOUS
 10
411.5020158653
 20
87.9310706967
 11
417.433215029
 21
87.9310706967
  0
LINE
  8
0
 62
7
  6
CONTINUOUS
 10
411.4996893957
 20
93.6881791174
 11
417.4355474488
 21
93.6881791174
  0
POLYLINE
  8
SURFACE
 62
7
  6
CONTINUOUS
 66
1
 70
0
  0
VERTEX
  8
SURFACE
 62
7
  6
CONTINUOUS
 10
430.3388216612
 20
101.8891633527
  0
VERTEX
  8
SURFACE
 62
7
  6
CONTINUOUS
 10
430.4539272108
 20
101.8958022921
  0
VERTEX
  8
SURFACE
 62
7
  6
CONTINUOUS
 10
430.6489252515
 20
101.9383976335
  0
VERTEX
  8
SURFACE
 62
7
  6
CONTINUOUS
 10
430.8202268974
 20
102.0124829377
  0
VERTEX
  8
SURFACE
 62
7
  6
CONTINUOUS
 10
430.9655280537
 20
102.1095074806
  0
VERTEX
  8
SURFACE
 62
7
  6
CONTINUOUS
 10
431.0842594622
 20
102.2217906259
  0
VERTEX
  8
SURFACE
 62
7
  6
CONTINUOUS
 10
431.1758026317
 20
102.3403816837
  0
VERTEX
  8
SURFACE
 62
7
  6
CONTINUOUS
 10
431.2416059516
 20
102.4560027922
  0
VERTEX
  8
SURFACE
 62
7
  6
CONTINUOUS
 10
431.2700576895
 20
102.5200392351
  0
SEQEND
  0
LINE
  8
SURFACE
 62
7
  6
CONTINUOUS
 10
430.338867057
 20
101.8891633556
 11
424.3963663722
 21
101.8891633556
  0
LINE
  8
0
 62
7
  6
CONTINUOUS
 10
423.1208946672
 20
103.9310706967
 11
419.2176165471
 21
103.9310706967
  0
POLYLINE
  8
0
 62
7
  6
CONTINUOUS
 66
1
 70
0
  0
VERTEX
  8
0
 62
7
  6
CONTINUOUS
 10
417.4454311129
 20
118.2840213267
  0
VERTEX
  8
0
 62
7
  6
CONTINUOUS
 10
417.5432869849
 20
118.2888095525
  0
VERTEX
  8
0
 62
7
  6
CONTINUOUS
 10
417.7114075176
 20
118.3199525968
  0
VERTEX
  8
0
 62
7
  6
CONTINUOUS
 10
417.863291325
 20
118.3752586289
  0
VERTEX
  8
0
 62
7
  6
CONTINUOUS
 10
417.9968740408
 20
118.4492815499
  0
VERTEX
  8
0
 62
7
  6
CONTINUOUS
 10
418.1113377285
 20
118.5370086228
  0
VERTEX
  8
0
 62
7
  6
CONTINUOUS
 10
418.2066225134
 20
118.6337699679
  0
VERTEX
  8
0
 62
7
  6
CONTINUOUS
 10
418.247079977
 20
118.6839504783
  0
VERTEX
  8
0
 62
7
  6
CONTINUOUS
 10
418.3141382014
 20
118.7847071774
  0
VERTEX
  8
0
 62
7
  6
CONTINUOUS
 10
418.3642122198
 20
118.8820634811
  0
VERTEX
  8
0
 62
7
  6
CONTINUOUS
 10
418.3999500184
 20
118.9721850072
  0
VERTEX
  8
0
 62
7
  6
CONTINUOUS
 10
418.424688683
 20
119.0528569712
  0
VERTEX
  8
0
 62
7
  6
CONTINUOUS
 10
418.4428599791
 20
119.1284169074
  0
VERTEX
  8
0
 62
7
  6
CONTINUOUS
 10
418.456801374
 20
119.2001124442
  0
SEQEND
  0
LINE
  8
0
 62
7
  6
CONTINUOUS
 10
411.4897607669
 20
118.284021049
 11
417.4454731534
 21
118.284021049
  0
LINE
  8
0
 62
7
  6
CONTINUOUS
 10
423.6176165471
 20
121.4387782191
 11
418.8527165122
 21
121.4387782191
  0
POLYLINE
  8
0
 62
7
  6
CONTINUOUS
 66
1
 70
0
  0
VERTEX
  8
0
 62
7
  6
CONTINUOUS
 10
418.2176165471
 20
112.1491676526
  0
VERTEX
  8
0
 62
7
  6
CONTINUOUS
 10
418.6263149411
 20
111.950460186
  0
VERTEX
  8
0
 62
7
  6
CONTINUOUS
 10
418.919216398
 20
111.777176152
  0
VERTEX
  8
0
 62
7
  6
CONTINUOUS
 10
419.0983272365
 20
111.6278079024
  0
VERTEX
  8
0
 62
7
  6
CONTINUOUS
 10
419.1897770036
 20
111.4993577279
  0
VERTEX
  8
0
 62
7
  6
CONTINUOUS
 10
419.2176165471
 20
111.3838007879
  0
SEQEND
  0
POLYLINE
  8
SURFACE
 62
7
  6
CONTINUOUS
 66
1
 70
0
  0
VERTEX
  8
SURFACE
 62
7
  6
CONTINUOUS
 10
430.5459343345
 20
133.108329351
  0
VERTEX
  8
SURFACE
 62
7
  6
CONTINUOUS
 10
430.7213185798
 20
133.1227158583
  0
VERTEX
  8
SURFACE
 62
7
  6
CONTINUOUS
 10
430.9610845105
 20
133.1913043284
  0
VERTEX
  8
SURFACE
 62
7
  6
CONTINUOUS
 10
431.1705215838
 20
133.3057225276
  0
VERTEX
  8
SURFACE
 62
7
  6
CONTINUOUS
 10
431.3401891082
 20
133.4484669559
  0
VERTEX
  8
SURFACE
 62
7
  6
CONTINUOUS
 10
431.4700644532
 20
133.6014338994
  0
VERTEX
  8
SURFACE
 62
7
  6
CONTINUOUS
 10
431.5688927673
 20
133.7543683342
  0
VERTEX
  8
SURFACE
 62
7
  6
CONTINUOUS
 10
431.6491903488
 20
133.9097775287
  0
VERTEX
  8
SURFACE
 62
7
  6
CONTINUOUS
 10
431.7198302461
 20
134.074532075
  0
VERTEX
  8
SURFACE
 62
7
  6
CONTINUOUS
 10
431.7859468235
 20
134.255226588
  0
VERTEX
  8
SURFACE
 62
7
  6
CONTINUOUS
 10
431.8510555893
 20
134.4594195837
  0
VERTEX
  8
SURFACE
 62
7
  6
CONTINUOUS
 10
431.9174072111
 20
134.6945756127
  0
VERTEX
  8
SURFACE
 62
7
  6
CONTINUOUS
 10
431.9865192259
 20
134.9682108957
  0
VERTEX
  8
SURFACE
 62
7
  6
CONTINUOUS
 10
432.0562538313
 20
135.273299626
  0
SEQEND
  0
LINE
  8
SURFACE
 62
7
  6
CONTINUOUS
 10
430.5462085132
 20
133.1083290791
 11
424.1890383029
 21
133.1083290791
  0
LINE
  8
0
 62
7
  6
CONTINUOUS
 10
398.3176165471
 20
147.7767417642
 11
409.7176165471
 21
147.7767417642
  0
LINE
  8
0
 62
7
  6
CONTINUOUS
 10
432.1176165471
 20
147.7767417642
 11
443.5176165471
 21
147.7767417642
  0
LINE
  8
0
 62
7
  6
CONTINUOUS
 10
423.6176165471
 20
153.7888035014
 11
418.2176165471
 21
153.7888035014
  0
POLYLINE
  8
0
 62
7
  6
CONTINUOUS
 66
1
 70
0
  0
VERTEX
  8
0
 62
7
  6
CONTINUOUS
 10
418.2176165471
 20
136.6238413666
  0
VERTEX
  8
0
 62
7
  6
CONTINUOUS
 10
418.6263149411
 20
136.2566778439
  0
VERTEX
  8
0
 62
7
  6
CONTINUOUS
 10
418.919216398
 20
135.9364906992
  0
VERTEX
  8
0
 62
7
  6
CONTINUOUS
 10
419.0983272365
 20
135.6604941619
  0
VERTEX
  8
0
 62
7
  6
CONTINUOUS
 10
419.1897770036
 20
135.4231491876
  0
VERTEX
  8
0
 62
7
  6
CONTINUOUS
 10
419.2176165471
 20
135.2096278042
  0
SEQEND
  0
LINE
  8
0
 62
7
  6
CONTINUOUS
 10
410.5652288411
 20
335.3422342456
 11
410.5651754048
 21
335.3421021584
  0
POLYLINE
  8
0
 62
7
  6
CONTINUOUS
 66
1
 70
0
  0
VERTEX
  8
0
 62
7
  6
CONTINUOUS
 10
417.4614459653
 20
157.9741028168
  0
VERTEX
  8
0
 62
7
  6
CONTINUOUS
 10
417.6179139934
 20
157.9863649345
  0
VERTEX
  8
0
 62
7
  6
CONTINUOUS
 10
417.8246163668
 20
158.042045036
  0
VERTEX
  8
0
 62
7
  6
CONTINUOUS
 10
418.0120596194
 20
158.1383735564
  0
VERTEX
  8
0
 62
7
  6
CONTINUOUS
 10
418.0939000254
 20
158.1980123765
  0
VERTEX
  8
0
 62
7
  6
CONTINUOUS
 10
418.2286382235
 20
158.3294524048
  0
VERTEX
  8
0
 62
7
  6
CONTINUOUS
 10
418.3265327193
 20
158.4657380506
  0
VERTEX
  8
0
 62
7
  6
CONTINUOUS
 10
418.3773397163
 20
158.5610223005
  0
SEQEND
  0
LINE
  8
0
 62
7
  6
CONTINUOUS
 10
411.4737630512
 20
157.9741025191
 11
417.4614682369
 21
157.9741025191
  0
POLYLINE
  8
0
 62
7
  6
CONTINUOUS
 66
1
 70
0
  0
VERTEX
  8
0
 62
7
  6
CONTINUOUS
 10
410.5652288049
 20
335.3422342602
  0
VERTEX
  8
0
 62
7
  6
CONTINUOUS
 10
410.4461592395
 20
334.9784793336
  0
VERTEX
  8
0
 62
7
  6
CONTINUOUS
 10
410.3301062976
 20
334.4920735621
  0
VERTEX
  8
0
 62
7
  6
CONTINUOUS
 10
410.2086156176
 20
333.8679886298
  0
VERTEX
  8
0
 62
7
  6
CONTINUOUS
 10
410.146893625
 20
333.5142477523
  0
VERTEX
  8
0
 62
7
  6
CONTINUOUS
 10
410.0227330924
 20
332.7404340851
  0
VERTEX
  8
0
 62
7
  6
CONTINUOUS
 10
409.8953180112
 20
331.8722681372
  0
VERTEX
  8
0
 62
7
  6
CONTINUOUS
 10
409.7645861876
 20
330.9144854756
  0
SEQEND
  0
POLYLINE
  8
SURFACE
 62
7
  6
CONTINUOUS
 66
1
 70
0
  0
VERTEX
  8
SURFACE
 62
7
  6
CONTINUOUS
 10
430.969392671
 20
175.548215987
  0
VERTEX
  8
SURFACE
 62
7
  6
CONTINUOUS
 10
431.0525132886
 20
175.5513092287
  0
VERTEX
  8
SURFACE
 62
7
  6
CONTINUOUS
 10
431.3156589131
 20
175.6030008641
  0
VERTEX
  8
SURFACE
 62
7
  6
CONTINUOUS
 10
431.4416834696
 20
175.6521395299
  0
VERTEX
  8
SURFACE
 62
7
  6
CONTINUOUS
 10
431.6656050063
 20
175.7865848056
  0
VERTEX
  8
SURFACE
 62
7
  6
CONTINUOUS
 10
431.747107464
 20
175.8538838643
  0
SEQEND
  0
LINE
  8
SURFACE
 62
7
  6
CONTINUOUS
 10
430.9695663184
 20
175.5482159481
 11
423.76566755
 21
175.5482159481
  0
POLYLINE
  8
0
 62
7
  6
CONTINUOUS
 66
1
 70
0
  0
VERTEX
  8
0
 62
7
  6
CONTINUOUS
 10
410.0991636753
 20
159.5379999624
  0
VERTEX
  8
0
 62
7
  6
CONTINUOUS
 10
410.0978755951
 20
159.5394285478
  0
VERTEX
  8
0
 62
7
  6
CONTINUOUS
 10
410.1185073606
 20
159.4986216538
  0
SEQEND
  0
POLYLINE
  8
SURFACE
 62
7
  6
CONTINUOUS
 66
1
 70
0
  0
VERTEX
  8
SURFACE
 62
7
  6
CONTINUOUS
 10
423.4651674072
 20
102.5200588717
  0
VERTEX
  8
SURFACE
 62
7
  6
CONTINUOUS
 10
423.4934946459
 20
102.4562756516
  0
VERTEX
  8
SURFACE
 62
7
  6
CONTINUOUS
 10
423.5591233344
 20
102.3408478649
  0
VERTEX
  8
SURFACE
 62
7
  6
CONTINUOUS
 10
423.6504307893
 20
102.2223954499
  0
VERTEX
  8
SURFACE
 62
7
  6
CONTINUOUS
 10
423.7688495114
 20
102.110194347
  0
VERTEX
  8
SURFACE
 62
7
  6
CONTINUOUS
 10
423.9137652128
 20
102.0131643529
  0
VERTEX
  8
SURFACE
 62
7
  6
CONTINUOUS
 10
424.0846227132
 20
101.9389481649
  0
VERTEX
  8
SURFACE
 62
7
  6
CONTINUOUS
 10
424.2791348209
 20
101.8960560048
  0
VERTEX
  8
SURFACE
 62
7
  6
CONTINUOUS
 10
424.3964113698
 20
101.8891634033
  0
SEQEND
  0
POLYLINE
  8
0
 62
7
  6
CONTINUOUS
 66
1
 70
0
  0
VERTEX
  8
0
 62
7
  6
CONTINUOUS
 10
410.0879647165
 20
262.0081130862
  0
VERTEX
  8
0
 62
7
  6
CONTINUOUS
 10
409.9403281705
 20
261.8468584377
  0
VERTEX
  8
0
 62
7
  6
CONTINUOUS
 10
409.812933784
 20
261.6289024926
  0
VERTEX
  8
0
 62
7
  6
CONTINUOUS
 10
409.7381007724
 20
261.3886710872
  0
SEQEND
  0
LINE
  8
0
 62
7
  6
CONTINUOUS
 10
410.0881256303
 20
262.0082575291
 11
410.0879647018
 21
262.0081131025
  0
POLYLINE
  8
0
 62
7
  6
CONTINUOUS
 66
1
 70
0
  0
VERTEX
  8
0
 62
7
  6
CONTINUOUS
 10
410.5579016759
 20
158.5610047761
  0
VERTEX
  8
0
 62
7
  6
CONTINUOUS
 10
410.6088350831
 20
158.4655139545
  0
VERTEX
  8
0
 62
7
  6
CONTINUOUS
 10
410.7068737059
 20
158.3291248369
  0
VERTEX
  8
0
 62
7
  6
CONTINUOUS
 10
410.8417435242
 20
158.1976806774
  0
VERTEX
  8
0
 62
7
  6
CONTINUOUS
 10
410.9236743899
 20
158.1380458656
  0
VERTEX
  8
0
 62
7
  6
CONTINUOUS
 10
411.1114559524
 20
158.0417202747
  0
VERTEX
  8
0
 62
7
  6
CONTINUOUS
 10
411.3188449183
 20
157.9861257392
  0
VERTEX
  8
0
 62
7
  6
CONTINUOUS
 10
411.4737885352
 20
157.9741029149
  0
SEQEND
  0
LINE
  8
0
 62
7
  6
CONTINUOUS
 10
410.118524458
 20
159.4985851565
 11
410.557810504
 21
158.5611988873
  0
LINE
  8
SURFACE
 62
7
  6
CONTINUOUS
 10
423.4651674072
 20
102.5200588717
 11
423.465229343
 21
102.5199057705
  0
LINE
  8
0
 62
7
  6
CONTINUOUS
 10
409.778974518
 20
302.5888198349
 11
409.7462888623
 21
302.4087269193
  0
POLYLINE
  8
SURFACE
 62
7
  6
CONTINUOUS
 66
1
 70
0
  0
VERTEX
  8
SURFACE
 62
7
  6
CONTINUOUS
 10
422.9881226972
 20
175.8538864553
  0
VERTEX
  8
SURFACE
 62
7
  6
CONTINUOUS
 10
423.0693642836
 20
175.786784712
  0
VERTEX
  8
SURFACE
 62
7
  6
CONTINUOUS
 10
423.2925072273
 20
175.6526187841
  0
VERTEX
  8
SURFACE
 62
7
  6
CONTINUOUS
 10
423.4180420322
 20
175.6034975881
  0
VERTEX
  8
SURFACE
 62
7
  6
CONTINUOUS
 10
423.6801813926
 20
175.5515013075
  0
VERTEX
  8
SURFACE
 62
7
  6
CONTINUOUS
 10
423.7658394649
 20
175.5482159791
  0
SEQEND
  0
LINE
  8
SURFACE
 62
7
  6
CONTINUOUS
 10
422.9879734151
 20
175.8540204288
 11
422.9881226972
 21
175.8538864553
  0
POLYLINE
  8
0
 62
7
  6
CONTINUOUS
 66
1
 70
0
  0
VERTEX
  8
0
 62
7
  6
CONTINUOUS
 10
418.2176165471
 20
173.6290446292
  0
VERTEX
  8
0
 62
7
  6
CONTINUOUS
 10
418.6263149411
 20
173.1493223683
  0
VERTEX
  8
0
 62
7
  6
CONTINUOUS
 10
418.919216398
 20
172.7309777033
  0
VERTEX
  8
0
 62
7
  6
CONTINUOUS
 10
419.0983272365
 20
172.3703708493
  0
VERTEX
  8
0
 62
7
  6
CONTINUOUS
 10
419.1897770036
 20
172.0602646959
  0
VERTEX
  8
0
 62
7
  6
CONTINUOUS
 10
419.2176165471
 20
171.7812855642
  0
SEQEND
  0
LINE
  8
SURFACE
 62
7
  6
CONTINUOUS
 10
423.3461822652
 20
102.8835779687
 11
423.465229343
 21
102.5199057705
  0
LINE
  8
0
 62
7
  6
CONTINUOUS
 10
409.78217619
 20
122.9695776633
 11
409.9050967701
 21
122.3987357601
  0
POLYLINE
  8
0
 62
7
  6
CONTINUOUS
 66
1
 70
0
  0
VERTEX
  8
0
 62
7
  6
CONTINUOUS
 10
410.4784323483
 20
119.2001089839
  0
VERTEX
  8
0
 62
7
  6
CONTINUOUS
 10
410.4924001551
 20
119.1282906773
  0
VERTEX
  8
0
 62
7
  6
CONTINUOUS
 10
410.5106127815
 20
119.0526034857
  0
VERTEX
  8
0
 62
7
  6
CONTINUOUS
 10
410.5354363299
 20
118.9717428151
  0
VERTEX
  8
0
 62
7
  6
CONTINUOUS
 10
410.5712985997
 20
118.8814464077
  0
VERTEX
  8
0
 62
7
  6
CONTINUOUS
 10
410.6215149305
 20
118.7839876998
  0
VERTEX
  8
0
 62
7
  6
CONTINUOUS
 10
410.6887352719
 20
118.6831802139
  0
VERTEX
  8
0
 62
7
  6
CONTINUOUS
 10
410.7292899179
 20
118.6329809915
  0
VERTEX
  8
0
 62
7
  6
CONTINUOUS
 10
410.8248094842
 20
118.5361986086
  0
VERTEX
  8
0
 62
7
  6
CONTINUOUS
 10
410.9395641776
 20
118.4484896342
  0
VERTEX
  8
0
 62
7
  6
CONTINUOUS
 10
411.0734852567
 20
118.374552694
  0
VERTEX
  8
0
 62
7
  6
CONTINUOUS
 10
411.2257430627
 20
118.3194270436
  0
VERTEX
  8
0
 62
7
  6
CONTINUOUS
 10
411.3942506574
 20
118.2885861708
  0
VERTEX
  8
0
 62
7
  6
CONTINUOUS
 10
411.4898024425
 20
118.2840212891
  0
SEQEND
  0
LINE
  8
0
 62
7
  6
CONTINUOUS
 10
409.9050967701
 20
122.3987357601
 11
410.0394661145
 21
121.6824235894
  0
LINE
  8
0
 62
7
  6
CONTINUOUS
 10
410.3307122652
 20
120.0347895593
 11
410.4784322561
 21
119.2001094174
  0
LINE
  8
0
 62
7
  6
CONTINUOUS
 10
410.0394668571
 20
121.6824193948
 11
410.3307122652
 21
120.0347895593
  0
POLYLINE
  8
0
 62
7
  6
CONTINUOUS
 66
1
 70
0
  0
VERTEX
  8
0
 62
7
  6
CONTINUOUS
 10
410.5040842507
 20
88.845487909
  0
VERTEX
  8
0
 62
7
  6
CONTINUOUS
 10
410.5073284953
 20
88.820280289
  0
VERTEX
  8
0
 62
7
  6
CONTINUOUS
 10
410.5106815041
 20
88.7962067509
  0
VERTEX
  8
0
 62
7
  6
CONTINUOUS
 10
410.515142714
 20
88.7679138025
  0
VERTEX
  8
0
 62
7
  6
CONTINUOUS
 10
410.5216259046
 20
88.7331653167
  0
VERTEX
  8
0
 62
7
  6
CONTINUOUS
 10
410.5307548765
 20
88.6925993124
  0
VERTEX
  8
0
 62
7
  6
CONTINUOUS
 10
410.5428278117
 20
88.6480387611
  0
VERTEX
  8
0
 62
7
  6
CONTINUOUS
 10
410.5579884626
 20
88.601043544
  0
VERTEX
  8
0
 62
7
  6
CONTINUOUS
 10
410.576391881
 20
88.5525254502
  0
VERTEX
  8
0
 62
7
  6
CONTINUOUS
 10
410.5980706027
 20
88.5033579166
  0
VERTEX
  8
0
 62
7
  6
CONTINUOUS
 10
410.6233920244
 20
88.4535147834
  0
VERTEX
  8
0
 62
7
  6
CONTINUOUS
 10
410.6528449296
 20
88.4029267829
  0
VERTEX
  8
0
 62
7
  6
CONTINUOUS
 10
410.6692924577
 20
88.3773614985
  0
VERTEX
  8
0
 62
7
  6
CONTINUOUS
 10
410.7059928681
 20
88.3257931831
  0
VERTEX
  8
0
 62
7
  6
CONTINUOUS
 10
410.7482839282
 20
88.2738837262
  0
VERTEX
  8
0
 62
7
  6
CONTINUOUS
 10
410.7967813019
 20
88.222095894
  0
VERTEX
  8
0
 62
7
  6
CONTINUOUS
 10
410.8519281972
 20
88.1712135565
  0
VERTEX
  8
0
 62
7
  6
CONTINUOUS
 10
410.9140532199
 20
88.1221864452
  0
VERTEX
  8
0
 62
7
  6
CONTINUOUS
 10
410.983369654
 20
88.0760865093
  0
VERTEX
  8
0
 62
7
  6
CONTINUOUS
 10
411.0599514658
 20
88.0340924272
  0
VERTEX
  8
0
 62
7
  6
CONTINUOUS
 10
411.143735475
 20
87.9974614478
  0
VERTEX
  8
0
 62
7
  6
CONTINUOUS
 10
411.2348110118
 20
87.9674349932
  0
VERTEX
  8
0
 62
7
  6
CONTINUOUS
 10
411.333367316
 20
87.945397299
  0
VERTEX
  8
0
 62
7
  6
CONTINUOUS
 10
411.4393764335
 20
87.9330356497
  0
VERTEX
  8
0
 62
7
  6
CONTINUOUS
 10
411.5020357617
 20
87.931070697
  0
SEQEND
  0
POLYLINE
  8
0
 62
7
  6
CONTINUOUS
 66
1
 70
0
  0
VERTEX
  8
0
 62
7
  6
CONTINUOUS
 10
410.473937161
 20
94.7700626858
  0
VERTEX
  8
0
 62
7
  6
CONTINUOUS
 10
410.4834701263
 20
94.6955947103
  0
VERTEX
  8
0
 62
7
  6
CONTINUOUS
 10
410.4922955294
 20
94.6321867646
  0
VERTEX
  8
0
 62
7
  6
CONTINUOUS
 10
410.5006782195
 20
94.5779353193
  0
VERTEX
  8
0
 62
7
  6
CONTINUOUS
 10
410.5093449076
 20
94.5288853372
  0
VERTEX
  8
0
 62
7
  6
CONTINUOUS
 10
410.5200524302
 20
94.4778407529
  0
VERTEX
  8
0
 62
7
  6
CONTINUOUS
 10
410.5363536615
 20
94.4151760686
  0
VERTEX
  8
0
 62
7
  6
CONTINUOUS
 10
410.5618089599
 20
94.338801832
  0
VERTEX
  8
0
 62
7
  6
CONTINUOUS
 10
410.5984853974
 20
94.25346206
  0
VERTEX
  8
0
 62
7
  6
CONTINUOUS
 10
410.6215146026
 20
94.2088430278
  0
VERTEX
  8
0
 62
7
  6
CONTINUOUS
 10
410.6779625523
 20
94.1177187248
  0
VERTEX
  8
0
 62
7
  6
CONTINUOUS
 10
410.749633412
 20
94.0264658865
  0
VERTEX
  8
0
 62
7
  6
CONTINUOUS
 10
410.8377045535
 20
93.9384676423
  0
VERTEX
  8
0
 62
7
  6
CONTINUOUS
 10
410.9427075656
 20
93.8575496591
  0
VERTEX
  8
0
 62
7
  6
CONTINUOUS
 10
411.0646437024
 20
93.7877213002
  0
VERTEX
  8
0
 62
7
  6
CONTINUOUS
 10
411.202775198
 20
93.7332579959
  0
VERTEX
  8
0
 62
7
  6
CONTINUOUS
 10
411.3553608067
 20
93.6986478355
  0
VERTEX
  8
0
 62
7
  6
CONTINUOUS
 10
411.5195030647
 20
93.6883748912
  0
VERTEX
  8
0
 62
7
  6
CONTINUOUS
 10
411.4997165576
 20
93.6881792168
  0
SEQEND
  0
LINE
  8
0
 62
7
  6
CONTINUOUS
 10
409.7642633024
 20
100.5940537309
 11
409.8950654834
 21
99.5642870405
  0
LINE
  8
0
 62
7
  6
CONTINUOUS
 10
410.4991835295
 20
88.8858333013
 11
410.5040842507
 21
88.845487909
  0
LINE
  8
0
 62
7
  6
CONTINUOUS
 10
409.7393315229
 20
100.8222055465
 11
409.7642632569
 21
100.5940544069
  0
POLYLINE
  8
0
 62
7
  6
CONTINUOUS
 66
1
 70
0
  0
VERTEX
  8
0
 62
7
  6
CONTINUOUS
 10
409.7615754826
 20
95.5934931168
  0
VERTEX
  8
0
 62
7
  6
CONTINUOUS
 10
409.8929864977
 20
94.3621545131
  0
VERTEX
  8
0
 62
7
  6
CONTINUOUS
 10
410.0220554273
 20
93.1616889647
  0
VERTEX
  8
0
 62
7
  6
CONTINUOUS
 10
410.202416245
 20
91.505500477
  0
SEQEND
  0
LINE
  8
0
 62
7
  6
CONTINUOUS
 10
395.8176165471
 20
150.2767417642
 11
395.8176165471
 21
287.5853996293
  0
POLYLINE
  8
0
 62
7
  6
CONTINUOUS
 66
1
 70
0
  0
VERTEX
  8
0
 62
7
  6
CONTINUOUS
 10
409.7615755076
 20
342.2686480878
  0
VERTEX
  8
0
 62
7
  6
CONTINUOUS
 10
409.7376902489
 20
342.0002664745
  0
VERTEX
  8
0
 62
7
  6
CONTINUOUS
 10
409.7220792848
 20
341.7038280441
  0
VERTEX
  8
0
 62
7
  6
CONTINUOUS
 10
409.7176165667
 20
341.4388743216
  0
SEQEND
  0
POLYLINE
  8
0
 62
7
  6
CONTINUOUS
 66
1
 70
0
  0
VERTEX
  8
0
 62
7
  6
CONTINUOUS
 10
409.7462888623
 20
302.4087269193
  0
VERTEX
  8
0
 62
7
  6
CONTINUOUS
 10
409.7241482657
 20
302.2001943095
  0
VERTEX
  8
0
 62
7
  6
CONTINUOUS
 10
409.717616568
 20
302.0052440016
  0
SEQEND
  0
POLYLINE
  8
0
 62
7
  6
CONTINUOUS
 66
1
 70
0
  0
VERTEX
  8
0
 62
7
  6
CONTINUOUS
 10
410.0220554273
 20
344.7004524288
  0
VERTEX
  8
0
 62
7
  6
CONTINUOUS
 10
409.8929864977
 20
343.4999868804
  0
VERTEX
  8
0
 62
7
  6
CONTINUOUS
 10
409.7615754826
 20
342.2686482766
  0
SEQEND
  0
POLYLINE
  8
0
 62
7
  6
CONTINUOUS
 66
1
 70
0
  0
VERTEX
  8
0
 62
7
  6
CONTINUOUS
 10
409.7645860803
 20
330.9144843273
  0
VERTEX
  8
0
 62
7
  6
CONTINUOUS
 10
409.7391201313
 20
330.6832738431
  0
VERTEX
  8
0
 62
7
  6
CONTINUOUS
 10
409.7224112311
 20
330.4248941406
  0
VERTEX
  8
0
 62
7
  6
CONTINUOUS
 10
409.7176165667
 20
330.1912844205
  0
SEQEND
  0
POLYLINE
  8
0
 62
7
  6
CONTINUOUS
 66
1
 70
0
  0
VERTEX
  8
0
 62
7
  6
CONTINUOUS
 10
410.4991842923
 20
348.9763145319
  0
VERTEX
  8
0
 62
7
  6
CONTINUOUS
 10
410.4117992742
 20
348.2262360036
  0
VERTEX
  8
0
 62
7
  6
CONTINUOUS
 10
410.3119940555
 20
347.3447118378
  0
VERTEX
  8
0
 62
7
  6
CONTINUOUS
 10
410.202416245
 20
346.3566409164
  0
VERTEX
  8
0
 62
7
  6
CONTINUOUS
 10
410.0220554273
 20
344.7004524288
  0
SEQEND
  0
LINE
  8
SURFACE
 62
7
  6
CONTINUOUS
 10
422.6821702015
 20
314.8925380755
 11
422.6466595024
 21
314.7119438986
  0
LINE
  8
SURFACE
 62
7
  6
CONTINUOUS
 10
423.4578105037
 20
279.3009425055
 11
423.0185244583
 21
278.3635562376
  0
POLYLINE
  8
SURFACE
 62
7
  6
CONTINUOUS
 66
1
 70
0
  0
VERTEX
  8
SURFACE
 62
7
  6
CONTINUOUS
 10
423.0185070662
 20
278.3635190773
  0
VERTEX
  8
SURFACE
 62
7
  6
CONTINUOUS
 10
422.9978632633
 20
278.3226911031
  0
VERTEX
  8
SURFACE
 62
7
  6
CONTINUOUS
 10
422.9955865691
 20
278.3187915954
  0
SEQEND
  0
LINE
  8
0
 62
7
  6
CONTINUOUS
 10
423.6176165471
 20
196.0561484481
 11
418.2176165471
 21
196.0561484481
  0
POLYLINE
  8
SURFACE
 62
7
  6
CONTINUOUS
 66
1
 70
0
  0
VERTEX
  8
SURFACE
 62
7
  6
CONTINUOUS
 10
422.6789792263
 20
135.2732997626
  0
VERTEX
  8
SURFACE
 62
7
  6
CONTINUOUS
 10
422.7486890525
 20
134.9683143735
  0
VERTEX
  8
SURFACE
 62
7
  6
CONTINUOUS
 10
422.8177762212
 20
134.694761789
  0
VERTEX
  8
SURFACE
 62
7
  6
CONTINUOUS
 10
422.8841033442
 20
134.4596672008
  0
VERTEX
  8
SURFACE
 62
7
  6
CONTINUOUS
 10
422.9491875331
 20
134.2555163584
  0
VERTEX
  8
SURFACE
 62
7
  6
CONTINUOUS
 10
423.0152776446
 20
134.0748494341
  0
VERTEX
  8
SURFACE
 62
7
  6
CONTINUOUS
 10
423.0858842065
 20
133.9101163933
  0
VERTEX
  8
SURFACE
 62
7
  6
CONTINUOUS
 10
423.1661241361
 20
133.7547459118
  0
VERTEX
  8
SURFACE
 62
7
  6
CONTINUOUS
 10
423.264830409
 20
133.6018964848
  0
VERTEX
  8
SURFACE
 62
7
  6
CONTINUOUS
 10
423.3944538484
 20
133.4490637104
  0
VERTEX
  8
SURFACE
 62
7
  6
CONTINUOUS
 10
423.5636913022
 20
133.30642957
  0
VERTEX
  8
SURFACE
 62
7
  6
CONTINUOUS
 10
423.7725817082
 20
133.1919551661
  0
VERTEX
  8
SURFACE
 62
7
  6
CONTINUOUS
 10
424.0117179006
 20
133.1230807065
  0
VERTEX
  8
SURFACE
 62
7
  6
CONTINUOUS
 10
424.1892994223
 20
133.1083293121
  0
SEQEND
  0
LINE
  8
0
 62
7
  6
CONTINUOUS
 10
409.8950654834
 20
99.5642870405
 11
410.031361956
 21
98.4496804948
  0
LINE
  8
0
 62
7
  6
CONTINUOUS
 10
410.3225811379
 20
96.0272103577
 11
410.473937161
 21
94.7700626858
  0
LINE
  8
0
 62
7
  6
CONTINUOUS
 10
410.0313619538
 20
98.4496804974
 11
410.3225811379
 21
96.0272103577
  0
POLYLINE
  8
0
 62
7
  6
CONTINUOUS
 66
1
 70
0
  0
VERTEX
  8
0
 62
7
  6
CONTINUOUS
 10
410.202416245
 20
91.505500477
  0
VERTEX
  8
0
 62
7
  6
CONTINUOUS
 10
410.3119940555
 20
90.5174295556
  0
VERTEX
  8
0
 62
7
  6
CONTINUOUS
 10
410.4117992742
 20
89.6359053898
  0
VERTEX
  8
0
 62
7
  6
CONTINUOUS
 10
410.4991842923
 20
88.8858268615
  0
SEQEND
  0
POLYLINE
  8
SURFACE
 62
7
  6
CONTINUOUS
 66
1
 70
0
  0
VERTEX
  8
SURFACE
 62
7
  6
CONTINUOUS
 10
422.661575484
 20
95.5934931035
  0
VERTEX
  8
SURFACE
 62
7
  6
CONTINUOUS
 10
422.7929831642
 20
94.3621856408
  0
VERTEX
  8
SURFACE
 62
7
  6
CONTINUOUS
 10
422.9220533955
 20
93.1617077773
  0
VERTEX
  8
SURFACE
 62
7
  6
CONTINUOUS
 10
423.1024190438
 20
91.5054750324
  0
SEQEND
  0
POLYLINE
  8
0
 62
7
  6
CONTINUOUS
 66
1
 70
0
  0
VERTEX
  8
0
 62
7
  6
CONTINUOUS
 10
409.7176165644
 20
123.5085348773
  0
VERTEX
  8
0
 62
7
  6
CONTINUOUS
 10
409.7239537921
 20
123.3428348885
  0
VERTEX
  8
0
 62
7
  6
CONTINUOUS
 10
409.7466539863
 20
123.1502320692
  0
VERTEX
  8
0
 62
7
  6
CONTINUOUS
 10
409.7821693825
 20
122.969606993
  0
SEQEND
  0
POLYLINE
  8
0
 62
7
  6
CONTINUOUS
 66
1
 70
0
  0
VERTEX
  8
0
 62
7
  6
CONTINUOUS
 10
409.7176165631
 20
101.3081380337
  0
VERTEX
  8
0
 62
7
  6
CONTINUOUS
 10
409.7225421014
 20
101.0774921491
  0
VERTEX
  8
0
 62
7
  6
CONTINUOUS
 10
409.7393315229
 20
100.8222055465
  0
SEQEND
  0
POLYLINE
  8
0
 62
7
  6
CONTINUOUS
 66
1
 70
0
  0
VERTEX
  8
0
 62
7
  6
CONTINUOUS
 10
409.7176165667
 20
96.4232670718
  0
VERTEX
  8
0
 62
7
  6
CONTINUOUS
 10
409.7220792848
 20
96.1583133493
  0
VERTEX
  8
0
 62
7
  6
CONTINUOUS
 10
409.7376902489
 20
95.861874919
  0
VERTEX
  8
0
 62
7
  6
CONTINUOUS
 10
409.7615755076
 20
95.5934933056
  0
SEQEND
  0
LINE
  8
0
 62
7
  6
CONTINUOUS
 10
409.7176165471
 20
96.4232670633
 11
409.7176165471
 21
341.4388743301
  0
POLYLINE
  8
SURFACE
 62
7
  6
CONTINUOUS
 66
1
 70
0
  0
VERTEX
  8
SURFACE
 62
7
  6
CONTINUOUS
 10
422.6615754844
 20
342.2686482941
  0
VERTEX
  8
SURFACE
 62
7
  6
CONTINUOUS
 10
422.6376897881
 20
342.0002598563
  0
VERTEX
  8
SURFACE
 62
7
  6
CONTINUOUS
 10
422.6220790666
 20
341.7038215148
  0
VERTEX
  8
SURFACE
 62
7
  6
CONTINUOUS
 10
422.6176165471
 20
341.4388742473
  0
SEQEND
  0
LINE
  8
0
 62
7
  6
CONTINUOUS
 10
409.7381007724
 20
261.3886710872
 11
409.7176165688
 21
261.1720447603
  0
POLYLINE
  8
SURFACE
 62
7
  6
CONTINUOUS
 66
1
 70
0
  0
VERTEX
  8
SURFACE
 62
7
  6
CONTINUOUS
 10
422.9220533955
 20
344.7004336162
  0
VERTEX
  8
SURFACE
 62
7
  6
CONTINUOUS
 10
422.7929831642
 20
343.4999557527
  0
VERTEX
  8
SURFACE
 62
7
  6
CONTINUOUS
 10
422.661575484
 20
342.2686482899
  0
SEQEND
  0
POLYLINE
  8
SURFACE
 62
7
  6
CONTINUOUS
 66
1
 70
0
  0
VERTEX
  8
SURFACE
 62
7
  6
CONTINUOUS
 10
422.6642633871
 20
337.2680883276
  0
VERTEX
  8
SURFACE
 62
7
  6
CONTINUOUS
 10
422.6393365016
 20
337.0399916206
  0
VERTEX
  8
SURFACE
 62
7
  6
CONTINUOUS
 10
422.6225444327
 20
336.7847040416
  0
VERTEX
  8
SURFACE
 62
7
  6
CONTINUOUS
 10
422.6176165472
 20
336.5539843022
  0
SEQEND
  0
POLYLINE
  8
SURFACE
 62
7
  6
CONTINUOUS
 66
1
 70
0
  0
VERTEX
  8
SURFACE
 62
7
  6
CONTINUOUS
 10
423.3118024874
 20
348.2262640177
  0
VERTEX
  8
SURFACE
 62
7
  6
CONTINUOUS
 10
423.2119983671
 20
347.3447503508
  0
VERTEX
  8
SURFACE
 62
7
  6
CONTINUOUS
 10
423.1024190438
 20
346.3566663611
  0
VERTEX
  8
SURFACE
 62
7
  6
CONTINUOUS
 10
422.9220533955
 20
344.7004336162
  0
SEQEND
  0
POLYLINE
  8
SURFACE
 62
7
  6
CONTINUOUS
 66
1
 70
0
  0
VERTEX
  8
SURFACE
 62
7
  6
CONTINUOUS
 10
422.6466595024
 20
314.7119438986
  0
VERTEX
  8
SURFACE
 62
7
  6
CONTINUOUS
 10
422.6239563763
 20
314.5193406721
  0
VERTEX
  8
SURFACE
 62
7
  6
CONTINUOUS
 10
422.617616548
 20
314.3536240129
  0
SEQEND
  0
POLYLINE
  8
SURFACE
 62
7
  6
CONTINUOUS
 66
1
 70
0
  0
VERTEX
  8
SURFACE
 62
7
  6
CONTINUOUS
 10
422.9290092251
 20
339.3932207285
  0
VERTEX
  8
SURFACE
 62
7
  6
CONTINUOUS
 10
422.7950658511
 20
338.2978573038
  0
VERTEX
  8
SURFACE
 62
7
  6
CONTINUOUS
 10
422.664263291
 20
337.2680875862
  0
SEQEND
  0
LINE
  8
SURFACE
 62
7
  6
CONTINUOUS
 10
423.3792780232
 20
343.1344985465
 11
422.9290092251
 21
339.3932207285
  0
POLYLINE
  8
0
 62
7
  6
CONTINUOUS
 66
1
 70
0
  0
VERTEX
  8
0
 62
7
  6
CONTINUOUS
 10
419.2176165471
 20
317.4233631743
  0
VERTEX
  8
0
 62
7
  6
CONTINUOUS
 10
419.1768866002
 20
317.1408725281
  0
VERTEX
  8
0
 62
7
  6
CONTINUOUS
 10
419.0844162876
 20
316.9247067696
  0
VERTEX
  8
0
 62
7
  6
CONTINUOUS
 10
418.9657314681
 20
316.759793988
  0
VERTEX
  8
0
 62
7
  6
CONTINUOUS
 10
418.8341410154
 20
316.6360274263
  0
VERTEX
  8
0
 62
7
  6
CONTINUOUS
 10
418.6979847148
 20
316.5462962308
  0
VERTEX
  8
0
 62
7
  6
CONTINUOUS
 10
418.5635800297
 20
316.485115196
  0
VERTEX
  8
0
 62
7
  6
CONTINUOUS
 10
418.4377880262
 20
316.4479019912
  0
VERTEX
  8
0
 62
7
  6
CONTINUOUS
 10
418.3241344712
 20
316.429052392
  0
VERTEX
  8
0
 62
7
  6
CONTINUOUS
 10
418.2176165471
 20
316.4233631743
  0
SEQEND
  0
LINE
  8
SURFACE
 62
7
  6
CONTINUOUS
 10
423.3784322561
 20
318.6620319759
 11
422.9394668571
 21
316.1797219989
  0
POLYLINE
  8
SURFACE
 62
7
  6
CONTINUOUS
 66
1
 70
0
  0
VERTEX
  8
SURFACE
 62
7
  6
CONTINUOUS
 10
422.9394661121
 20
316.1797177804
  0
VERTEX
  8
SURFACE
 62
7
  6
CONTINUOUS
 10
422.8050964462
 20
315.4634040178
  0
VERTEX
  8
SURFACE
 62
7
  6
CONTINUOUS
 10
422.6821761941
 20
314.8925637318
  0
SEQEND
  0
POLYLINE
  8
SURFACE
 62
7
  6
CONTINUOUS
 66
1
 70
0
  0
VERTEX
  8
SURFACE
 62
7
  6
CONTINUOUS
 10
422.664586186
 20
106.9476559128
  0
VERTEX
  8
SURFACE
 62
7
  6
CONTINUOUS
 10
422.7953197489
 20
105.9898609515
  0
VERTEX
  8
SURFACE
 62
7
  6
CONTINUOUS
 10
422.9227397244
 20
105.1216639647
  0
VERTEX
  8
SURFACE
 62
7
  6
CONTINUOUS
 10
423.0469080952
 20
104.3478081308
  0
VERTEX
  8
SURFACE
 62
7
  6
CONTINUOUS
 10
423.1086346987
 20
103.9940469257
  0
VERTEX
  8
SURFACE
 62
7
  6
CONTINUOUS
 10
423.2301320995
 20
103.3699467808
  0
VERTEX
  8
SURFACE
 62
7
  6
CONTINUOUS
 10
423.3461822652
 20
102.8835779687
  0
SEQEND
  0
POLYLINE
  8
SURFACE
 62
7
  6
CONTINUOUS
 66
1
 70
0
  0
VERTEX
  8
SURFACE
 62
7
  6
CONTINUOUS
 10
423.4040795167
 20
88.8455257556
  0
VERTEX
  8
SURFACE
 62
7
  6
CONTINUOUS
 10
423.4073210222
 20
88.8203364521
  0
VERTEX
  8
SURFACE
 62
7
  6
CONTINUOUS
 10
423.4106691973
 20
88.7962907486
  0
VERTEX
  8
SURFACE
 62
7
  6
CONTINUOUS
 10
423.4151200697
 20
88.7680471752
  0
VERTEX
  8
SURFACE
 62
7
  6
CONTINUOUS
 10
423.4215846765
 20
88.7333676254
  0
VERTEX
  8
SURFACE
 62
7
  6
CONTINUOUS
 10
423.4306884717
 20
88.6928687694
  0
VERTEX
  8
SURFACE
 62
7
  6
CONTINUOUS
 10
423.442729653
 20
88.6483709407
  0
VERTEX
  8
SURFACE
 62
7
  6
CONTINUOUS
 10
423.4578504475
 20
88.6014381598
  0
VERTEX
  8
SURFACE
 62
7
  6
CONTINUOUS
 10
423.4762073792
 20
88.552976628
  0
VERTEX
  8
SURFACE
 62
7
  6
CONTINUOUS
 10
423.4978304879
 20
88.5038655643
  0
VERTEX
  8
SURFACE
 62
7
  6
CONTINUOUS
 10
423.5230831525
 20
88.4540833659
  0
VERTEX
  8
SURFACE
 62
7
  6
CONTINUOUS
 10
423.5524507721
 20
88.4035609655
  0
VERTEX
  8
SURFACE
 62
7
  6
CONTINUOUS
 10
423.5688483912
 20
88.3780298404
  0
VERTEX
  8
SURFACE
 62
7
  6
CONTINUOUS
 10
423.6054323599
 20
88.3265309926
  0
VERTEX
  8
SURFACE
 62
7
  6
CONTINUOUS
 10
423.6475816459
 20
88.274690024
  0
VERTEX
  8
SURFACE
 62
7
  6
CONTINUOUS
 10
423.6959113568
 20
88.222962306
  0
VERTEX
  8
SURFACE
 62
7
  6
CONTINUOUS
 10
423.7508698068
 20
88.1721203376
  0
VERTEX
  8
SURFACE
 62
7
  6
CONTINUOUS
 10
423.812791185
 20
88.1231053227
  0
VERTEX
  8
SURFACE
 62
7
  6
CONTINUOUS
 10
423.8818951572
 20
88.0769827362
  0
VERTEX
  8
SURFACE
 62
7
  6
CONTINUOUS
 10
423.9582621478
 20
88.0349270098
  0
VERTEX
  8
SURFACE
 62
7
  6
CONTINUOUS
 10
424.0418351729
 20
87.9981929792
  0
VERTEX
  8
SURFACE
 62
7
  6
CONTINUOUS
 10
424.1327050251
 20
87.9680215007
  0
VERTEX
  8
SURFACE
 62
7
  6
CONTINUOUS
 10
424.2310688077
 20
87.9457934029
  0
VERTEX
  8
SURFACE
 62
7
  6
CONTINUOUS
 10
424.3369088511
 20
87.9331936619
  0
VERTEX
  8
SURFACE
 62
7
  6
CONTINUOUS
 10
424.4020358438
 20
87.9310707269
  0
SEQEND
  0
LINE
  8
SURFACE
 62
7
  6
CONTINUOUS
 10
423.3991835164
 20
88.8858333927
 11
423.4040795167
 21
88.8455257556
  0
LINE
  8
SURFACE
 62
7
  6
CONTINUOUS
 10
423.3118024874
 20
89.6358773758
 11
423.3991843
 21
88.8858267886
  0
POLYLINE
  8
SURFACE
 62
7
  6
CONTINUOUS
 66
1
 70
0
  0
VERTEX
  8
SURFACE
 62
7
  6
CONTINUOUS
 10
423.1024190438
 20
91.5054750324
  0
VERTEX
  8
SURFACE
 62
7
  6
CONTINUOUS
 10
423.2119983671
 20
90.5173910427
  0
VERTEX
  8
SURFACE
 62
7
  6
CONTINUOUS
 10
423.3118024874
 20
89.6358773758
  0
SEQEND
  0
LINE
  8
SURFACE
 62
7
  6
CONTINUOUS
 10
422.6391182101
 20
107.1788894534
 11
422.6645861874
 21
106.9476559018
  0
POLYLINE
  8
SURFACE
 62
7
  6
CONTINUOUS
 66
1
 70
0
  0
VERTEX
  8
SURFACE
 62
7
  6
CONTINUOUS
 10
422.6176165492
 20
176.6900928996
  0
VERTEX
  8
SURFACE
 62
7
  6
CONTINUOUS
 10
422.6381058901
 20
176.4734435589
  0
VERTEX
  8
SURFACE
 62
7
  6
CONTINUOUS
 10
422.7129434267
 20
176.2332169838
  0
VERTEX
  8
SURFACE
 62
7
  6
CONTINUOUS
 10
422.8403329634
 20
176.0152765578
  0
VERTEX
  8
SURFACE
 62
7
  6
CONTINUOUS
 10
422.9879734151
 20
175.8540204288
  0
SEQEND
  0
POLYLINE
  8
SURFACE
 62
7
  6
CONTINUOUS
 66
1
 70
0
  0
VERTEX
  8
SURFACE
 62
7
  6
CONTINUOUS
 10
422.6176165478
 20
135.8568622087
  0
VERTEX
  8
SURFACE
 62
7
  6
CONTINUOUS
 10
422.6241479556
 20
135.6619517112
  0
VERTEX
  8
SURFACE
 62
7
  6
CONTINUOUS
 10
422.6462883074
 20
135.4534184195
  0
VERTEX
  8
SURFACE
 62
7
  6
CONTINUOUS
 10
422.6789752637
 20
135.2733179129
  0
SEQEND
  0
POLYLINE
  8
0
 62
7
  6
CONTINUOUS
 66
1
 70
0
  0
VERTEX
  8
0
 62
7
  6
CONTINUOUS
 10
419.2176165465
 20
302.0052791847
  0
VERTEX
  8
0
 62
7
  6
CONTINUOUS
 10
419.2110851386
 20
302.2001896823
  0
VERTEX
  8
0
 62
7
  6
CONTINUOUS
 10
419.1889447869
 20
302.4087229739
  0
VERTEX
  8
0
 62
7
  6
CONTINUOUS
 10
419.1562578306
 20
302.5888234806
  0
SEQEND
  0
POLYLINE
  8
SURFACE
 62
7
  6
CONTINUOUS
 66
1
 70
0
  0
VERTEX
  8
SURFACE
 62
7
  6
CONTINUOUS
 10
422.6176165471
 20
107.6708684818
  0
VERTEX
  8
SURFACE
 62
7
  6
CONTINUOUS
 10
422.6224103145
 20
107.4372695318
  0
VERTEX
  8
SURFACE
 62
7
  6
CONTINUOUS
 10
422.6391182101
 20
107.1788894534
  0
SEQEND
  0
POLYLINE
  8
0
 62
7
  6
CONTINUOUS
 66
1
 70
0
  0
VERTEX
  8
0
 62
7
  6
CONTINUOUS
 10
419.2176165471
 20
330.1912729116
  0
VERTEX
  8
0
 62
7
  6
CONTINUOUS
 10
419.2128227798
 20
330.4248718616
  0
VERTEX
  8
0
 62
7
  6
CONTINUOUS
 10
419.1961148841
 20
330.68325194
  0
SEQEND
  0
POLYLINE
  8
SURFACE
 62
7
  6
CONTINUOUS
 66
1
 70
0
  0
VERTEX
  8
SURFACE
 62
7
  6
CONTINUOUS
 10
422.6176165471
 20
96.4232671461
  0
VERTEX
  8
SURFACE
 62
7
  6
CONTINUOUS
 10
422.6220790666
 20
96.1583198787
  0
VERTEX
  8
SURFACE
 62
7
  6
CONTINUOUS
 10
422.6376897881
 20
95.8618815372
  0
VERTEX
  8
SURFACE
 62
7
  6
CONTINUOUS
 10
422.6615754844
 20
95.5934930993
  0
SEQEND
  0
POLYLINE
  8
0
 62
7
  6
CONTINUOUS
 66
1
 70
0
  0
VERTEX
  8
0
 62
7
  6
CONTINUOUS
 10
419.2176165471
 20
341.4388742473
  0
VERTEX
  8
0
 62
7
  6
CONTINUOUS
 10
419.2131540277
 20
341.7038215148
  0
VERTEX
  8
0
 62
7
  6
CONTINUOUS
 10
419.1975433061
 20
342.0002598563
  0
VERTEX
  8
0
 62
7
  6
CONTINUOUS
 10
419.1736576098
 20
342.2686482941
  0
SEQEND
  0
LINE
  8
0
 62
7
  6
CONTINUOUS
 10
419.2176165471
 20
341.4388743302
 11
419.2176165471
 21
333.9310706967
  0
LINE
  8
0
 62
7
  6
CONTINUOUS
 10
419.2176165471
 20
330.1912837726
 11
419.2176165471
 21
317.4233631743
  0
LINE
  8
0
 62
7
  6
CONTINUOUS
 10
419.2176165471
 20
302.0053343505
 11
419.2176165471
 21
285.9210969571
  0
LINE
  8
0
 62
7
  6
CONTINUOUS
 10
419.2176165471
 20
261.1720813572
 11
419.2176165471
 21
244.2202065078
  0
LINE
  8
0
 62
7
  6
CONTINUOUS
 10
419.2176165471
 20
215.5310706967
 11
419.2176165471
 21
198.6692743778
  0
LINE
  8
0
 62
7
  6
CONTINUOUS
 10
419.2176165471
 20
171.7812855642
 11
419.2176165471
 21
156.2030170638
  0
LINE
  8
0
 62
7
  6
CONTINUOUS
 10
419.2176165471
 20
135.2096278042
 11
419.2176165471
 21
123.2865372841
  0
LINE
  8
0
 62
7
  6
CONTINUOUS
 10
419.2176165471
 20
111.3838007879
 11
419.2176165471
 21
96.4232670632
  0
POLYLINE
  8
0
 62
7
  6
CONTINUOUS
 66
1
 70
0
  0
VERTEX
  8
0
 62
7
  6
CONTINUOUS
 10
419.2176165471
 20
198.6692743778
  0
VERTEX
  8
0
 62
7
  6
CONTINUOUS
 10
419.1768866002
 20
197.9310907452
  0
VERTEX
  8
0
 62
7
  6
CONTINUOUS
 10
419.0844162876
 20
197.3662223966
  0
VERTEX
  8
0
 62
7
  6
CONTINUOUS
 10
418.9657314681
 20
196.9352845308
  0
VERTEX
  8
0
 62
7
  6
CONTINUOUS
 10
418.8341410154
 20
196.6118669193
  0
VERTEX
  8
0
 62
7
  6
CONTINUOUS
 10
418.6979847148
 20
196.3773880055
  0
VERTEX
  8
0
 62
7
  6
CONTINUOUS
 10
418.5635800297
 20
196.2175142572
  0
VERTEX
  8
0
 62
7
  6
CONTINUOUS
 10
418.4377880262
 20
196.1202714667
  0
VERTEX
  8
0
 62
7
  6
CONTINUOUS
 10
418.3241344712
 20
196.0710150903
  0
VERTEX
  8
0
 62
7
  6
CONTINUOUS
 10
418.2176165471
 20
196.0561484481
  0
SEQEND
  0
POLYLINE
  8
SURFACE
 62
7
  6
CONTINUOUS
 66
1
 70
0
  0
VERTEX
  8
SURFACE
 62
7
  6
CONTINUOUS
 10
422.6176165471
 20
239.1928670156
  0
VERTEX
  8
SURFACE
 62
7
  6
CONTINUOUS
 10
422.658346494
 20
239.9310506482
  0
VERTEX
  8
SURFACE
 62
7
  6
CONTINUOUS
 10
422.7508168067
 20
240.4959189969
  0
VERTEX
  8
SURFACE
 62
7
  6
CONTINUOUS
 10
422.8695016262
 20
240.9268568626
  0
VERTEX
  8
SURFACE
 62
7
  6
CONTINUOUS
 10
423.0010920789
 20
241.2502744741
  0
VERTEX
  8
SURFACE
 62
7
  6
CONTINUOUS
 10
423.1372483795
 20
241.484753388
  0
VERTEX
  8
SURFACE
 62
7
  6
CONTINUOUS
 10
423.2716530646
 20
241.6446271362
  0
VERTEX
  8
SURFACE
 62
7
  6
CONTINUOUS
 10
423.3974450681
 20
241.7418699267
  0
VERTEX
  8
SURFACE
 62
7
  6
CONTINUOUS
 10
423.5110986231
 20
241.7911263032
  0
VERTEX
  8
SURFACE
 62
7
  6
CONTINUOUS
 10
423.6176165471
 20
241.8059929454
  0
SEQEND
  0
POLYLINE
  8
0
 62
7
  6
CONTINUOUS
 66
1
 70
0
  0
VERTEX
  8
0
 62
7
  6
CONTINUOUS
 10
419.2176165471
 20
244.2202065078
  0
VERTEX
  8
0
 62
7
  6
CONTINUOUS
 10
419.1768866002
 20
243.5382137584
  0
VERTEX
  8
0
 62
7
  6
CONTINUOUS
 10
419.0844162876
 20
243.0163434525
  0
VERTEX
  8
0
 62
7
  6
CONTINUOUS
 10
418.9657314681
 20
242.6182087785
  0
VERTEX
  8
0
 62
7
  6
CONTINUOUS
 10
418.8341410154
 20
242.3194098668
  0
VERTEX
  8
0
 62
7
  6
CONTINUOUS
 10
418.6979847148
 20
242.1027795975
  0
VERTEX
  8
0
 62
7
  6
CONTINUOUS
 10
418.5635800297
 20
241.9550755137
  0
VERTEX
  8
0
 62
7
  6
CONTINUOUS
 10
418.4377880262
 20
241.8652348899
  0
VERTEX
  8
0
 62
7
  6
CONTINUOUS
 10
418.3241344712
 20
241.8197279318
  0
VERTEX
  8
0
 62
7
  6
CONTINUOUS
 10
418.2176165471
 20
241.8059929454
  0
SEQEND
  0
POLYLINE
  8
SURFACE
 62
7
  6
CONTINUOUS
 66
1
 70
0
  0
VERTEX
  8
SURFACE
 62
7
  6
CONTINUOUS
 10
422.6176165471
 20
281.6591243297
  0
VERTEX
  8
SURFACE
 62
7
  6
CONTINUOUS
 10
422.658346494
 20
282.341117079
  0
VERTEX
  8
SURFACE
 62
7
  6
CONTINUOUS
 10
422.7508168067
 20
282.8629873849
  0
VERTEX
  8
SURFACE
 62
7
  6
CONTINUOUS
 10
422.8695016262
 20
283.2611220589
  0
VERTEX
  8
SURFACE
 62
7
  6
CONTINUOUS
 10
423.0010920789
 20
283.5599209706
  0
VERTEX
  8
SURFACE
 62
7
  6
CONTINUOUS
 10
423.1372483795
 20
283.7765512399
  0
VERTEX
  8
SURFACE
 62
7
  6
CONTINUOUS
 10
423.2716530646
 20
283.9242553237
  0
VERTEX
  8
SURFACE
 62
7
  6
CONTINUOUS
 10
423.3974450681
 20
284.0140959475
  0
VERTEX
  8
SURFACE
 62
7
  6
CONTINUOUS
 10
423.5110986231
 20
284.0596029056
  0
VERTEX
  8
SURFACE
 62
7
  6
CONTINUOUS
 10
423.6176165471
 20
284.073337892
  0
SEQEND
  0
POLYLINE
  8
0
 62
7
  6
CONTINUOUS
 66
1
 70
0
  0
VERTEX
  8
0
 62
7
  6
CONTINUOUS
 10
419.2176165471
 20
285.9210969571
  0
VERTEX
  8
0
 62
7
  6
CONTINUOUS
 10
419.1768866002
 20
285.3991223047
  0
VERTEX
  8
0
 62
7
  6
CONTINUOUS
 10
419.0844162876
 20
284.9997000649
  0
VERTEX
  8
0
 62
7
  6
CONTINUOUS
 10
418.9657314681
 20
284.6949809777
  0
VERTEX
  8
0
 62
7
  6
CONTINUOUS
 10
418.8341410154
 20
284.4662901915
  0
VERTEX
  8
0
 62
7
  6
CONTINUOUS
 10
418.6979847148
 20
284.3004885615
  0
VERTEX
  8
0
 62
7
  6
CONTINUOUS
 10
418.5635800297
 20
284.18744075
  0
VERTEX
  8
0
 62
7
  6
CONTINUOUS
 10
418.4377880262
 20
284.1186797133
  0
VERTEX
  8
0
 62
7
  6
CONTINUOUS
 10
418.3241344712
 20
284.0838501956
  0
VERTEX
  8
0
 62
7
  6
CONTINUOUS
 10
418.2176165471
 20
284.073337892
  0
SEQEND
  0
POLYLINE
  8
SURFACE
 62
7
  6
CONTINUOUS
 66
1
 70
0
  0
VERTEX
  8
SURFACE
 62
7
  6
CONTINUOUS
 10
422.6176165471
 20
314.5756041093
  0
VERTEX
  8
SURFACE
 62
7
  6
CONTINUOUS
 10
422.658346494
 20
315.0975787617
  0
VERTEX
  8
SURFACE
 62
7
  6
CONTINUOUS
 10
422.7508168067
 20
315.4970010015
  0
VERTEX
  8
SURFACE
 62
7
  6
CONTINUOUS
 10
422.8676840795
 20
315.7970536015
  0
SEQEND
  0
LINE
  8
DEFAULT_1
 62
2
  6
CENTER
 10
393.8176165471
 20
218.9310706967
 11
448.0176165471
 21
218.9310706967
  0
POLYLINE
  8
0
 62
7
  6
CONTINUOUS
 66
1
 70
0
  0
VERTEX
  8
0
 62
7
  6
CONTINUOUS
 10
418.2176165471
 20
217.5310706967
  0
VERTEX
  8
0
 62
7
  6
CONTINUOUS
 10
418.6263149411
 20
217.0118230632
  0
VERTEX
  8
0
 62
7
  6
CONTINUOUS
 10
418.919216398
 20
216.5590100607
  0
VERTEX
  8
0
 62
7
  6
CONTINUOUS
 10
419.0983272365
 20
216.1686920146
  0
VERTEX
  8
0
 62
7
  6
CONTINUOUS
 10
419.1897770036
 20
215.833035533
  0
VERTEX
  8
0
 62
7
  6
CONTINUOUS
 10
419.2176165471
 20
215.5310706967
  0
SEQEND
  0
POLYLINE
  8
0
 62
7
  6
CONTINUOUS
 66
1
 70
0
  0
VERTEX
  8
0
 62
7
  6
CONTINUOUS
 10
419.2176165451
 20
261.1720484939
  0
VERTEX
  8
0
 62
7
  6
CONTINUOUS
 10
419.1971272042
 20
261.3886978345
  0
VERTEX
  8
0
 62
7
  6
CONTINUOUS
 10
419.1222896676
 20
261.6289244097
  0
VERTEX
  8
0
 62
7
  6
CONTINUOUS
 10
418.9949001309
 20
261.8468648356
  0
VERTEX
  8
0
 62
7
  6
CONTINUOUS
 10
418.8472596792
 20
262.0081209647
  0
SEQEND
  0
LINE
  8
SURFACE
 62
7
  6
CONTINUOUS
 10
422.6176165471
 20
96.4232670632
 11
422.6176165471
 21
103.9310706967
  0
LINE
  8
SURFACE
 62
7
  6
CONTINUOUS
 10
422.6176165471
 20
107.6708576209
 11
422.6176165471
 21
120.4387782191
  0
LINE
  8
SURFACE
 62
7
  6
CONTINUOUS
 10
422.6176165471
 20
135.856807043
 11
422.6176165471
 21
151.9410444364
  0
LINE
  8
SURFACE
 62
7
  6
CONTINUOUS
 10
422.6176165471
 20
176.6900600363
 11
422.6176165471
 21
193.6419348857
  0
LINE
  8
SURFACE
 62
7
  6
CONTINUOUS
 10
422.6176165471
 20
222.3310706967
 11
422.6176165471
 21
239.1928670156
  0
LINE
  8
SURFACE
 62
7
  6
CONTINUOUS
 10
422.6176165471
 20
266.0808558292
 11
422.6176165471
 21
281.6591243297
  0
LINE
  8
SURFACE
 62
7
  6
CONTINUOUS
 10
422.6176165471
 20
302.6525135892
 11
422.6176165471
 21
314.5756041093
  0
LINE
  8
SURFACE
 62
7
  6
CONTINUOUS
 10
422.6176165471
 20
326.4783406056
 11
422.6176165471
 21
341.4388743302
  0
POLYLINE
  8
0
 62
7
  6
CONTINUOUS
 66
1
 70
0
  0
VERTEX
  8
0
 62
7
  6
CONTINUOUS
 10
419.2176165471
 20
156.2030170638
  0
VERTEX
  8
0
 62
7
  6
CONTINUOUS
 10
419.1768866002
 20
155.5210243144
  0
VERTEX
  8
0
 62
7
  6
CONTINUOUS
 10
419.0844162876
 20
154.9991540085
  0
VERTEX
  8
0
 62
7
  6
CONTINUOUS
 10
418.9657314681
 20
154.6010193346
  0
VERTEX
  8
0
 62
7
  6
CONTINUOUS
 10
418.8341410154
 20
154.3022204228
  0
VERTEX
  8
0
 62
7
  6
CONTINUOUS
 10
418.6979847148
 20
154.0855901535
  0
VERTEX
  8
0
 62
7
  6
CONTINUOUS
 10
418.5635800297
 20
153.9378860698
  0
VERTEX
  8
0
 62
7
  6
CONTINUOUS
 10
418.4377880262
 20
153.8480454459
  0
VERTEX
  8
0
 62
7
  6
CONTINUOUS
 10
418.3241344712
 20
153.8025384879
  0
VERTEX
  8
0
 62
7
  6
CONTINUOUS
 10
418.2176165471
 20
153.7888035014
  0
SEQEND
  0
POLYLINE
  8
SURFACE
 62
7
  6
CONTINUOUS
 66
1
 70
0
  0
VERTEX
  8
SURFACE
 62
7
  6
CONTINUOUS
 10
422.6176165471
 20
193.6419348857
  0
VERTEX
  8
SURFACE
 62
7
  6
CONTINUOUS
 10
422.658346494
 20
194.3239276351
  0
VERTEX
  8
SURFACE
 62
7
  6
CONTINUOUS
 10
422.7508168067
 20
194.845797941
  0
VERTEX
  8
SURFACE
 62
7
  6
CONTINUOUS
 10
422.8695016262
 20
195.2439326149
  0
VERTEX
  8
SURFACE
 62
7
  6
CONTINUOUS
 10
423.0010920789
 20
195.5427315266
  0
VERTEX
  8
SURFACE
 62
7
  6
CONTINUOUS
 10
423.1372483795
 20
195.7593617959
  0
VERTEX
  8
SURFACE
 62
7
  6
CONTINUOUS
 10
423.2716530646
 20
195.9070658797
  0
VERTEX
  8
SURFACE
 62
7
  6
CONTINUOUS
 10
423.3974450681
 20
195.9969065036
  0
VERTEX
  8
SURFACE
 62
7
  6
CONTINUOUS
 10
423.5110986231
 20
196.0424134616
  0
VERTEX
  8
SURFACE
 62
7
  6
CONTINUOUS
 10
423.6176165471
 20
196.0561484481
  0
SEQEND
  0
POLYLINE
  8
0
 62
7
  6
CONTINUOUS
 66
1
 70
0
  0
VERTEX
  8
0
 62
7
  6
CONTINUOUS
 10
419.2176165471
 20
123.2865372841
  0
VERTEX
  8
0
 62
7
  6
CONTINUOUS
 10
419.1768866002
 20
122.7645626318
  0
VERTEX
  8
0
 62
7
  6
CONTINUOUS
 10
419.0844162876
 20
122.365140392
  0
VERTEX
  8
0
 62
7
  6
CONTINUOUS
 10
418.9675490148
 20
122.0650877919
  0
SEQEND
  0
POLYLINE
  8
SURFACE
 62
7
  6
CONTINUOUS
 66
1
 70
0
  0
VERTEX
  8
SURFACE
 62
7
  6
CONTINUOUS
 10
422.6176165471
 20
151.9410444364
  0
VERTEX
  8
SURFACE
 62
7
  6
CONTINUOUS
 10
422.658346494
 20
152.4630190888
  0
VERTEX
  8
SURFACE
 62
7
  6
CONTINUOUS
 10
422.7508168067
 20
152.8624413286
  0
VERTEX
  8
SURFACE
 62
7
  6
CONTINUOUS
 10
422.8695016262
 20
153.1671604157
  0
VERTEX
  8
SURFACE
 62
7
  6
CONTINUOUS
 10
423.0010920789
 20
153.395851202
  0
VERTEX
  8
SURFACE
 62
7
  6
CONTINUOUS
 10
423.1372483795
 20
153.561652832
  0
VERTEX
  8
SURFACE
 62
7
  6
CONTINUOUS
 10
423.2716530646
 20
153.6747006435
  0
VERTEX
  8
SURFACE
 62
7
  6
CONTINUOUS
 10
423.3974450681
 20
153.7434616801
  0
VERTEX
  8
SURFACE
 62
7
  6
CONTINUOUS
 10
423.5110986231
 20
153.7782911979
  0
VERTEX
  8
SURFACE
 62
7
  6
CONTINUOUS
 10
423.6176165471
 20
153.7888035014
  0
SEQEND
  0
POLYLINE
  8
0
 62
7
  6
CONTINUOUS
 66
1
 70
0
  0
VERTEX
  8
0
 62
7
  6
CONTINUOUS
 10
419.1736576098
 20
95.5934930993
  0
VERTEX
  8
0
 62
7
  6
CONTINUOUS
 10
419.1975433061
 20
95.8618815372
  0
VERTEX
  8
0
 62
7
  6
CONTINUOUS
 10
419.2131540277
 20
96.1583198787
  0
VERTEX
  8
0
 62
7
  6
CONTINUOUS
 10
419.2176165471
 20
96.4232671461
  0
SEQEND
  0
POLYLINE
  8
0
 62
7
  6
CONTINUOUS
 66
1
 70
0
  0
VERTEX
  8
0
 62
7
  6
CONTINUOUS
 10
419.1885735918
 20
123.1501974949
  0
VERTEX
  8
0
 62
7
  6
CONTINUOUS
 10
419.2112767179
 20
123.3428007213
  0
VERTEX
  8
0
 62
7
  6
CONTINUOUS
 10
419.2176165462
 20
123.5085173806
  0
SEQEND
  0
POLYLINE
  8
SURFACE
 62
7
  6
CONTINUOUS
 66
1
 70
0
  0
VERTEX
  8
SURFACE
 62
7
  6
CONTINUOUS
 10
423.6176165471
 20
220.3310706967
  0
VERTEX
  8
SURFACE
 62
7
  6
CONTINUOUS
 10
423.2089181531
 20
220.8503183302
  0
VERTEX
  8
SURFACE
 62
7
  6
CONTINUOUS
 10
422.9160166963
 20
221.3031313327
  0
VERTEX
  8
SURFACE
 62
7
  6
CONTINUOUS
 10
422.7369058578
 20
221.6934493788
  0
VERTEX
  8
SURFACE
 62
7
  6
CONTINUOUS
 10
422.6454560907
 20
222.0291058605
  0
VERTEX
  8
SURFACE
 62
7
  6
CONTINUOUS
 10
422.6176165471
 20
222.3310706967
  0
SEQEND
  0
POLYLINE
  8
0
 62
7
  6
CONTINUOUS
 66
1
 70
0
  0
VERTEX
  8
0
 62
7
  6
CONTINUOUS
 10
419.1736576103
 20
342.2686482899
  0
VERTEX
  8
0
 62
7
  6
CONTINUOUS
 10
419.04224993
 20
343.4999557527
  0
VERTEX
  8
0
 62
7
  6
CONTINUOUS
 10
418.9131796988
 20
344.7004336162
  0
VERTEX
  8
0
 62
7
  6
CONTINUOUS
 10
418.7328140505
 20
346.3566663611
  0
SEQEND
  0
POLYLINE
  8
SURFACE
 62
7
  6
CONTINUOUS
 66
1
 70
0
  0
VERTEX
  8
SURFACE
 62
7
  6
CONTINUOUS
 10
432.1176165299
 20
314.3536065162
  0
VERTEX
  8
SURFACE
 62
7
  6
CONTINUOUS
 10
432.1112793022
 20
314.5193065049
  0
VERTEX
  8
SURFACE
 62
7
  6
CONTINUOUS
 10
432.0885791079
 20
314.7119093242
  0
VERTEX
  8
SURFACE
 62
7
  6
CONTINUOUS
 10
432.0530637118
 20
314.8925344004
  0
SEQEND
  0
POLYLINE
  8
SURFACE
 62
7
  6
CONTINUOUS
 66
1
 70
0
  0
VERTEX
  8
SURFACE
 62
7
  6
CONTINUOUS
 10
432.1176165312
 20
336.5540033598
  0
VERTEX
  8
SURFACE
 62
7
  6
CONTINUOUS
 10
432.1126909929
 20
336.7846492443
  0
VERTEX
  8
SURFACE
 62
7
  6
CONTINUOUS
 10
432.0959015713
 20
337.0399358469
  0
SEQEND
  0
POLYLINE
  8
SURFACE
 62
7
  6
CONTINUOUS
 66
1
 70
0
  0
VERTEX
  8
SURFACE
 62
7
  6
CONTINUOUS
 10
432.1176165276
 20
341.4388743216
  0
VERTEX
  8
SURFACE
 62
7
  6
CONTINUOUS
 10
432.1131538094
 20
341.7038280441
  0
VERTEX
  8
SURFACE
 62
7
  6
CONTINUOUS
 10
432.0975428454
 20
342.0002664745
  0
VERTEX
  8
SURFACE
 62
7
  6
CONTINUOUS
 10
432.0736575867
 20
342.2686480878
  0
SEQEND
  0
LINE
  8
SURFACE
 62
7
  6
CONTINUOUS
 10
432.1176165471
 20
96.4232670633
 11
432.1176165471
 21
341.4388743301
  0
LINE
  8
SURFACE
 62
7
  6
CONTINUOUS
 10
432.0971323219
 20
176.4734703062
 11
432.1176165255
 21
176.6900966332
  0
POLYLINE
  8
0
 62
7
  6
CONTINUOUS
 66
1
 70
0
  0
VERTEX
  8
0
 62
7
  6
CONTINUOUS
 10
418.9131796988
 20
93.1617077773
  0
VERTEX
  8
0
 62
7
  6
CONTINUOUS
 10
419.04224993
 20
94.3621856408
  0
VERTEX
  8
0
 62
7
  6
CONTINUOUS
 10
419.1736576103
 20
95.5934931035
  0
SEQEND
  0
POLYLINE
  8
0
 62
7
  6
CONTINUOUS
 66
1
 70
0
  0
VERTEX
  8
0
 62
7
  6
CONTINUOUS
 10
419.1709697072
 20
100.5940530658
  0
VERTEX
  8
0
 62
7
  6
CONTINUOUS
 10
419.1958965926
 20
100.8221497728
  0
VERTEX
  8
0
 62
7
  6
CONTINUOUS
 10
419.2126886616
 20
101.0774373518
  0
VERTEX
  8
0
 62
7
  6
CONTINUOUS
 10
419.2176165471
 20
101.3081570913
  0
SEQEND
  0
POLYLINE
  8
0
 62
7
  6
CONTINUOUS
 66
1
 70
0
  0
VERTEX
  8
0
 62
7
  6
CONTINUOUS
 10
418.5234306069
 20
89.6358773758
  0
VERTEX
  8
0
 62
7
  6
CONTINUOUS
 10
418.6232347271
 20
90.5173910427
  0
VERTEX
  8
0
 62
7
  6
CONTINUOUS
 10
418.7328140505
 20
91.5054750324
  0
VERTEX
  8
0
 62
7
  6
CONTINUOUS
 10
418.9131796988
 20
93.1617077773
  0
SEQEND
  0
POLYLINE
  8
0
 62
7
  6
CONTINUOUS
 66
1
 70
0
  0
VERTEX
  8
0
 62
7
  6
CONTINUOUS
 10
418.9062238691
 20
98.4689206649
  0
VERTEX
  8
0
 62
7
  6
CONTINUOUS
 10
419.0401672432
 20
99.5642840896
  0
VERTEX
  8
0
 62
7
  6
CONTINUOUS
 10
419.1709698033
 20
100.5940538073
  0
SEQEND
  0
LINE
  8
0
 62
7
  6
CONTINUOUS
 10
418.455955071
 20
94.7276428469
 11
418.9062238691
 21
98.4689206649
  0
POLYLINE
  8
SURFACE
 62
7
  6
CONTINUOUS
 66
1
 70
0
  0
VERTEX
  8
SURFACE
 62
7
  6
CONTINUOUS
 10
422.6176165471
 20
120.4387782191
  0
VERTEX
  8
SURFACE
 62
7
  6
CONTINUOUS
 10
422.658346494
 20
120.7212688654
  0
VERTEX
  8
SURFACE
 62
7
  6
CONTINUOUS
 10
422.7508168067
 20
120.9374346239
  0
VERTEX
  8
SURFACE
 62
7
  6
CONTINUOUS
 10
422.8695016262
 20
121.1023474055
  0
VERTEX
  8
SURFACE
 62
7
  6
CONTINUOUS
 10
423.0010920789
 20
121.2261139671
  0
VERTEX
  8
SURFACE
 62
7
  6
CONTINUOUS
 10
423.1372483795
 20
121.3158451627
  0
VERTEX
  8
SURFACE
 62
7
  6
CONTINUOUS
 10
423.2716530646
 20
121.3770261974
  0
VERTEX
  8
SURFACE
 62
7
  6
CONTINUOUS
 10
423.3974450681
 20
121.4142394023
  0
VERTEX
  8
SURFACE
 62
7
  6
CONTINUOUS
 10
423.5110986231
 20
121.4330890015
  0
VERTEX
  8
SURFACE
 62
7
  6
CONTINUOUS
 10
423.6176165471
 20
121.4387782191
  0
SEQEND
  0
LINE
  8
0
 62
7
  6
CONTINUOUS
 10
418.4568008381
 20
119.2001094176
 11
418.8957662371
 21
121.6824193945
  0
POLYLINE
  8
0
 62
7
  6
CONTINUOUS
 66
1
 70
0
  0
VERTEX
  8
0
 62
7
  6
CONTINUOUS
 10
418.8957669822
 20
121.6824236131
  0
VERTEX
  8
0
 62
7
  6
CONTINUOUS
 10
419.0301366481
 20
122.3987373757
  0
VERTEX
  8
0
 62
7
  6
CONTINUOUS
 10
419.1530569002
 20
122.9695776616
  0
SEQEND
  0
LINE
  8
0
 62
7
  6
CONTINUOUS
 10
419.1530628928
 20
122.9696033179
 11
419.1885735918
 21
123.1501974949
  0
POLYLINE
  8
0
 62
7
  6
CONTINUOUS
 66
1
 70
0
  0
VERTEX
  8
0
 62
7
  6
CONTINUOUS
 10
419.1562538679
 20
302.5888416309
  0
VERTEX
  8
0
 62
7
  6
CONTINUOUS
 10
419.0865440418
 20
302.8938270199
  0
VERTEX
  8
0
 62
7
  6
CONTINUOUS
 10
419.017456873
 20
303.1673796044
  0
VERTEX
  8
0
 62
7
  6
CONTINUOUS
 10
418.9511297501
 20
303.4024741926
  0
VERTEX
  8
0
 62
7
  6
CONTINUOUS
 10
418.8860455611
 20
303.606625035
  0
VERTEX
  8
0
 62
7
  6
CONTINUOUS
 10
418.8199554496
 20
303.7872919593
  0
VERTEX
  8
0
 62
7
  6
CONTINUOUS
 10
418.7493488878
 20
303.9520250001
  0
VERTEX
  8
0
 62
7
  6
CONTINUOUS
 10
418.6691089581
 20
304.1073954816
  0
VERTEX
  8
0
 62
7
  6
CONTINUOUS
 10
418.5704026853
 20
304.2602449086
  0
VERTEX
  8
0
 62
7
  6
CONTINUOUS
 10
418.4407792458
 20
304.413077683
  0
VERTEX
  8
0
 62
7
  6
CONTINUOUS
 10
418.2715417921
 20
304.5557118234
  0
VERTEX
  8
0
 62
7
  6
CONTINUOUS
 10
418.062651386
 20
304.6701862273
  0
VERTEX
  8
0
 62
7
  6
CONTINUOUS
 10
417.8235151937
 20
304.739060687
  0
VERTEX
  8
0
 62
7
  6
CONTINUOUS
 10
417.6459336719
 20
304.7538120813
  0
SEQEND
  0
POLYLINE
  8
0
 62
7
  6
CONTINUOUS
 66
1
 70
0
  0
VERTEX
  8
0
 62
7
  6
CONTINUOUS
 10
419.1706469083
 20
330.9144854806
  0
VERTEX
  8
0
 62
7
  6
CONTINUOUS
 10
419.0399133454
 20
331.8722804419
  0
VERTEX
  8
0
 62
7
  6
CONTINUOUS
 10
418.9124933698
 20
332.7404774287
  0
VERTEX
  8
0
 62
7
  6
CONTINUOUS
 10
418.7883249991
 20
333.5143332626
  0
VERTEX
  8
0
 62
7
  6
CONTINUOUS
 10
418.7265983956
 20
333.8680944678
  0
VERTEX
  8
0
 62
7
  6
CONTINUOUS
 10
418.6051009947
 20
334.4921946126
  0
VERTEX
  8
0
 62
7
  6
CONTINUOUS
 10
418.4890508291
 20
334.9785634248
  0
SEQEND
  0
POLYLINE
  8
0
 62
7
  6
CONTINUOUS
 66
1
 70
0
  0
VERTEX
  8
0
 62
7
  6
CONTINUOUS
 10
418.4311535775
 20
349.0166156379
  0
VERTEX
  8
0
 62
7
  6
CONTINUOUS
 10
418.4279120721
 20
349.0418049414
  0
VERTEX
  8
0
 62
7
  6
CONTINUOUS
 10
418.4245638969
 20
349.0658506448
  0
VERTEX
  8
0
 62
7
  6
CONTINUOUS
 10
418.4201130246
 20
349.0940942182
  0
VERTEX
  8
0
 62
7
  6
CONTINUOUS
 10
418.4136484177
 20
349.1287737681
  0
VERTEX
  8
0
 62
7
  6
CONTINUOUS
 10
418.4045446226
 20
349.169272624
  0
VERTEX
  8
0
 62
7
  6
CONTINUOUS
 10
418.3925034413
 20
349.2137704528
  0
VERTEX
  8
0
 62
7
  6
CONTINUOUS
 10
418.3773826468
 20
349.2607032336
  0
VERTEX
  8
0
 62
7
  6
CONTINUOUS
 10
418.359025715
 20
349.3091647654
  0
VERTEX
  8
0
 62
7
  6
CONTINUOUS
 10
418.3374026064
 20
349.3582758291
  0
VERTEX
  8
0
 62
7
  6
CONTINUOUS
 10
418.3121499417
 20
349.4080580276
  0
VERTEX
  8
0
 62
7
  6
CONTINUOUS
 10
418.2827823222
 20
349.458580428
  0
VERTEX
  8
0
 62
7
  6
CONTINUOUS
 10
418.2663847031
 20
349.4841115531
  0
VERTEX
  8
0
 62
7
  6
CONTINUOUS
 10
418.2298007344
 20
349.5356104009
  0
VERTEX
  8
0
 62
7
  6
CONTINUOUS
 10
418.1876514484
 20
349.5874513694
  0
VERTEX
  8
0
 62
7
  6
CONTINUOUS
 10
418.1393217375
 20
349.6391790874
  0
VERTEX
  8
0
 62
7
  6
CONTINUOUS
 10
418.0843632874
 20
349.6900210559
  0
VERTEX
  8
0
 62
7
  6
CONTINUOUS
 10
418.0224419092
 20
349.7390360708
  0
VERTEX
  8
0
 62
7
  6
CONTINUOUS
 10
417.9533379371
 20
349.7851586572
  0
VERTEX
  8
0
 62
7
  6
CONTINUOUS
 10
417.8769709465
 20
349.8272143837
  0
VERTEX
  8
0
 62
7
  6
CONTINUOUS
 10
417.7933979214
 20
349.8639484142
  0
VERTEX
  8
0
 62
7
  6
CONTINUOUS
 10
417.7025280691
 20
349.8941198928
  0
VERTEX
  8
0
 62
7
  6
CONTINUOUS
 10
417.6041642866
 20
349.9163479905
  0
VERTEX
  8
0
 62
7
  6
CONTINUOUS
 10
417.4983242432
 20
349.9289477315
  0
VERTEX
  8
0
 62
7
  6
CONTINUOUS
 10
417.4331972505
 20
349.9310706665
  0
SEQEND
  0
LINE
  8
0
 62
7
  6
CONTINUOUS
 10
418.4360495778
 20
348.9763080007
 11
418.4311535775
 21
349.0166156379
  0
LINE
  8
0
 62
7
  6
CONTINUOUS
 10
418.5234306069
 20
348.2262640177
 11
418.4360487942
 21
348.9763146049
  0
POLYLINE
  8
0
 62
7
  6
CONTINUOUS
 66
1
 70
0
  0
VERTEX
  8
0
 62
7
  6
CONTINUOUS
 10
418.7328140505
 20
346.3566663611
  0
VERTEX
  8
0
 62
7
  6
CONTINUOUS
 10
418.6232347271
 20
347.3447503508
  0
VERTEX
  8
0
 62
7
  6
CONTINUOUS
 10
418.5234306069
 20
348.2262640177
  0
SEQEND
  0
LINE
  8
0
 62
7
  6
CONTINUOUS
 10
419.1961148841
 20
330.68325194
 11
419.1706469068
 21
330.9144854917
  0
LINE
  8
SURFACE
 62
7
  6
CONTINUOUS
 10
432.0959015713
 20
337.0399358469
 11
432.0709698373
 21
337.2680869865
  0
POLYLINE
  8
SURFACE
 62
7
  6
CONTINUOUS
 66
1
 70
0
  0
VERTEX
  8
SURFACE
 62
7
  6
CONTINUOUS
 10
432.0736576116
 20
342.2686482766
  0
VERTEX
  8
SURFACE
 62
7
  6
CONTINUOUS
 10
431.9422465966
 20
343.4999868804
  0
VERTEX
  8
SURFACE
 62
7
  6
CONTINUOUS
 10
431.813177667
 20
344.7004524288
  0
VERTEX
  8
SURFACE
 62
7
  6
CONTINUOUS
 10
431.6328168493
 20
346.3566409164
  0
SEQEND
  0
LINE
  8
0
 62
7
  6
CONTINUOUS
 10
446.0176165471
 20
287.5853996293
 11
446.0176165471
 21
150.2767417642
  0
POLYLINE
  8
SURFACE
 62
7
  6
CONTINUOUS
 66
1
 70
0
  0
VERTEX
  8
SURFACE
 62
7
  6
CONTINUOUS
 10
432.0736575867
 20
95.5934933056
  0
VERTEX
  8
SURFACE
 62
7
  6
CONTINUOUS
 10
432.0975428454
 20
95.861874919
  0
VERTEX
  8
SURFACE
 62
7
  6
CONTINUOUS
 10
432.1131538094
 20
96.1583133493
  0
VERTEX
  8
SURFACE
 62
7
  6
CONTINUOUS
 10
432.1176165276
 20
96.4232670718
  0
SEQEND
  0
POLYLINE
  8
SURFACE
 62
7
  6
CONTINUOUS
 66
1
 70
0
  0
VERTEX
  8
SURFACE
 62
7
  6
CONTINUOUS
 10
432.0889442319
 20
135.4534144741
  0
VERTEX
  8
SURFACE
 62
7
  6
CONTINUOUS
 10
432.1110848286
 20
135.661947084
  0
VERTEX
  8
SURFACE
 62
7
  6
CONTINUOUS
 10
432.1176165263
 20
135.8568973918
  0
SEQEND
  0
POLYLINE
  8
SURFACE
 62
7
  6
CONTINUOUS
 66
1
 70
0
  0
VERTEX
  8
SURFACE
 62
7
  6
CONTINUOUS
 10
431.813177667
 20
93.1616889647
  0
VERTEX
  8
SURFACE
 62
7
  6
CONTINUOUS
 10
431.9422465966
 20
94.3621545131
  0
VERTEX
  8
SURFACE
 62
7
  6
CONTINUOUS
 10
432.0736576116
 20
95.5934931168
  0
SEQEND
  0
POLYLINE
  8
SURFACE
 62
7
  6
CONTINUOUS
 66
1
 70
0
  0
VERTEX
  8
SURFACE
 62
7
  6
CONTINUOUS
 10
432.0706470139
 20
106.9476570662
  0
VERTEX
  8
SURFACE
 62
7
  6
CONTINUOUS
 10
432.0961129629
 20
107.1788675503
  0
VERTEX
  8
SURFACE
 62
7
  6
CONTINUOUS
 10
432.1128218631
 20
107.4372472529
  0
VERTEX
  8
SURFACE
 62
7
  6
CONTINUOUS
 10
432.1176165276
 20
107.6708569729
  0
SEQEND
  0
POLYLINE
  8
SURFACE
 62
7
  6
CONTINUOUS
 66
1
 70
0
  0
VERTEX
  8
SURFACE
 62
7
  6
CONTINUOUS
 10
431.4234338201
 20
89.6359053898
  0
VERTEX
  8
SURFACE
 62
7
  6
CONTINUOUS
 10
431.5232390387
 20
90.5174295556
  0
VERTEX
  8
SURFACE
 62
7
  6
CONTINUOUS
 10
431.6328168493
 20
91.505500477
  0
VERTEX
  8
SURFACE
 62
7
  6
CONTINUOUS
 10
431.813177667
 20
93.1616889647
  0
SEQEND
  0
LINE
  8
SURFACE
 62
7
  6
CONTINUOUS
 10
431.3333843969
 20
88.8636288859
 11
431.4234338201
 21
89.6359053898
  0
LINE
  8
SURFACE
 62
7
  6
CONTINUOUS
 10
432.0562585762
 20
135.2733215585
 11
432.0889442319
 21
135.4534144741
  0
LINE
  8
0
 62
7
  6
CONTINUOUS
 10
418.3774225905
 20
158.5611988879
 11
418.8167086359
 21
159.4985851558
  0
POLYLINE
  8
0
 62
7
  6
CONTINUOUS
 66
1
 70
0
  0
VERTEX
  8
0
 62
7
  6
CONTINUOUS
 10
418.816726028
 20
159.4986223161
  0
VERTEX
  8
0
 62
7
  6
CONTINUOUS
 10
418.8373698309
 20
159.5394502904
  0
VERTEX
  8
0
 62
7
  6
CONTINUOUS
 10
418.8396465251
 20
159.5433497981
  0
SEQEND
  0
LINE
  8
0
 62
7
  6
CONTINUOUS
 10
423.6176165471
 20
241.8059929454
 11
418.2176165471
 21
241.8059929454
  0
LINE
  8
SURFACE
 62
7
  6
CONTINUOUS
 10
431.7957662372
 20
316.1797219987
 11
431.3568008381
 21
318.6620319761
  0
POLYLINE
  8
SURFACE
 62
7
  6
CONTINUOUS
 66
1
 70
0
  0
VERTEX
  8
SURFACE
 62
7
  6
CONTINUOUS
 10
431.3311488436
 20
349.0166534844
  0
VERTEX
  8
SURFACE
 62
7
  6
CONTINUOUS
 10
431.3279045989
 20
349.0418611045
  0
VERTEX
  8
SURFACE
 62
7
  6
CONTINUOUS
 10
431.3245515902
 20
349.0659346425
  0
VERTEX
  8
SURFACE
 62
7
  6
CONTINUOUS
 10
431.3200903803
 20
349.0942275909
  0
VERTEX
  8
SURFACE
 62
7
  6
CONTINUOUS
 10
431.3136071897
 20
349.1289760767
  0
VERTEX
  8
SURFACE
 62
7
  6
CONTINUOUS
 10
431.3044782178
 20
349.169542081
  0
VERTEX
  8
SURFACE
 62
7
  6
CONTINUOUS
 10
431.2924052826
 20
349.2141026323
  0
VERTEX
  8
SURFACE
 62
7
  6
CONTINUOUS
 10
431.2772446317
 20
349.2610978495
  0
VERTEX
  8
SURFACE
 62
7
  6
CONTINUOUS
 10
431.2588412133
 20
349.3096159432
  0
VERTEX
  8
SURFACE
 62
7
  6
CONTINUOUS
 10
431.2371624916
 20
349.3587834768
  0
VERTEX
  8
SURFACE
 62
7
  6
CONTINUOUS
 10
431.2118410699
 20
349.40862661
  0
VERTEX
  8
SURFACE
 62
7
  6
CONTINUOUS
 10
431.1823881646
 20
349.4592146106
  0
VERTEX
  8
SURFACE
 62
7
  6
CONTINUOUS
 10
431.1659406365
 20
349.4847798949
  0
VERTEX
  8
SURFACE
 62
7
  6
CONTINUOUS
 10
431.1292402262
 20
349.5363482103
  0
VERTEX
  8
SURFACE
 62
7
  6
CONTINUOUS
 10
431.086949166
 20
349.5882576673
  0
VERTEX
  8
SURFACE
 62
7
  6
CONTINUOUS
 10
431.0384517924
 20
349.6400454995
  0
VERTEX
  8
SURFACE
 62
7
  6
CONTINUOUS
 10
430.9833048971
 20
349.690927837
  0
VERTEX
  8
SURFACE
 62
7
  6
CONTINUOUS
 10
430.9211798744
 20
349.7399549483
  0
VERTEX
  8
SURFACE
 62
7
  6
CONTINUOUS
 10
430.8518634402
 20
349.7860548841
  0
VERTEX
  8
SURFACE
 62
7
  6
CONTINUOUS
 10
430.7752816285
 20
349.8280489663
  0
VERTEX
  8
SURFACE
 62
7
  6
CONTINUOUS
 10
430.6914976193
 20
349.8646799457
  0
VERTEX
  8
SURFACE
 62
7
  6
CONTINUOUS
 10
430.6004220825
 20
349.8947064003
  0
VERTEX
  8
SURFACE
 62
7
  6
CONTINUOUS
 10
430.5018657783
 20
349.9167440944
  0
VERTEX
  8
SURFACE
 62
7
  6
CONTINUOUS
 10
430.3958566607
 20
349.9291057437
  0
VERTEX
  8
SURFACE
 62
7
  6
CONTINUOUS
 10
430.3331973326
 20
349.9310706965
  0
SEQEND
  0
POLYLINE
  8
SURFACE
 62
7
  6
CONTINUOUS
 66
1
 70
0
  0
VERTEX
  8
SURFACE
 62
7
  6
CONTINUOUS
 10
431.3612959332
 20
343.0920787077
  0
VERTEX
  8
SURFACE
 62
7
  6
CONTINUOUS
 10
431.351762968
 20
343.1665466832
  0
VERTEX
  8
SURFACE
 62
7
  6
CONTINUOUS
 10
431.3429375649
 20
343.2299546288
  0
VERTEX
  8
SURFACE
 62
7
  6
CONTINUOUS
 10
431.3345548748
 20
343.2842060742
  0
VERTEX
  8
SURFACE
 62
7
  6
CONTINUOUS
 10
431.3258881866
 20
343.3332560562
  0
VERTEX
  8
SURFACE
 62
7
  6
CONTINUOUS
 10
431.3151806641
 20
343.3843006406
  0
VERTEX
  8
SURFACE
 62
7
  6
CONTINUOUS
 10
431.2988794328
 20
343.4469653248
  0
VERTEX
  8
SURFACE
 62
7
  6
CONTINUOUS
 10
431.2734241343
 20
343.5233395614
  0
VERTEX
  8
SURFACE
 62
7
  6
CONTINUOUS
 10
431.2367476969
 20
343.6086793334
  0
VERTEX
  8
SURFACE
 62
7
  6
CONTINUOUS
 10
431.2137184917
 20
343.6532983657
  0
VERTEX
  8
SURFACE
 62
7
  6
CONTINUOUS
 10
431.157270542
 20
343.7444226686
  0
VERTEX
  8
SURFACE
 62
7
  6
CONTINUOUS
 10
431.0855996823
 20
343.8356755069
  0
VERTEX
  8
SURFACE
 62
7
  6
CONTINUOUS
 10
430.9975285407
 20
343.9236737512
  0
VERTEX
  8
SURFACE
 62
7
  6
CONTINUOUS
 10
430.8925255287
 20
344.0045917343
  0
VERTEX
  8
SURFACE
 62
7
  6
CONTINUOUS
 10
430.7705893918
 20
344.0744200932
  0
VERTEX
  8
SURFACE
 62
7
  6
CONTINUOUS
 10
430.6324578963
 20
344.1288833976
  0
VERTEX
  8
SURFACE
 62
7
  6
CONTINUOUS
 10
430.4798722876
 20
344.1634935579
  0
VERTEX
  8
SURFACE
 62
7
  6
CONTINUOUS
 10
430.3157300296
 20
344.1737665023
  0
VERTEX
  8
SURFACE
 62
7
  6
CONTINUOUS
 10
430.3355165367
 20
344.1739621766
  0
SEQEND
  0
LINE
  8
SURFACE
 62
7
  6
CONTINUOUS
 10
432.0709697918
 20
337.2680876625
 11
431.9401676108
 21
338.2978543529
  0
LINE
  8
SURFACE
 62
7
  6
CONTINUOUS
 10
431.9401676108
 20
338.2978543529
 11
431.8038711382
 21
339.4124608986
  0
LINE
  8
SURFACE
 62
7
  6
CONTINUOUS
 10
431.8038711404
 20
339.412460896
 11
431.3612959332
 21
343.0920787077
  0
LINE
  8
SURFACE
 62
7
  6
CONTINUOUS
 10
431.3360495648
 20
348.9763080922
 11
431.3311488436
 21
349.0166534844
  0
POLYLINE
  8
SURFACE
 62
7
  6
CONTINUOUS
 66
1
 70
0
  0
VERTEX
  8
SURFACE
 62
7
  6
CONTINUOUS
 10
431.6328168493
 20
346.3566409164
  0
VERTEX
  8
SURFACE
 62
7
  6
CONTINUOUS
 10
431.5232390387
 20
347.3447118378
  0
VERTEX
  8
SURFACE
 62
7
  6
CONTINUOUS
 10
431.4234338201
 20
348.2262360036
  0
VERTEX
  8
SURFACE
 62
7
  6
CONTINUOUS
 10
431.3360488019
 20
348.9763145319
  0
SEQEND
  0
POLYLINE
  8
0
 62
7
  6
CONTINUOUS
 66
1
 70
0
  0
VERTEX
  8
0
 62
7
  6
CONTINUOUS
 10
418.847110397
 20
262.0082549381
  0
VERTEX
  8
0
 62
7
  6
CONTINUOUS
 10
418.7658688107
 20
262.0753566814
  0
VERTEX
  8
0
 62
7
  6
CONTINUOUS
 10
418.5427258669
 20
262.2095226093
  0
VERTEX
  8
0
 62
7
  6
CONTINUOUS
 10
418.4171910621
 20
262.2586438053
  0
VERTEX
  8
0
 62
7
  6
CONTINUOUS
 10
418.1550517017
 20
262.3106400859
  0
VERTEX
  8
0
 62
7
  6
CONTINUOUS
 10
418.0693936294
 20
262.3139254143
  0
SEQEND
  0
LINE
  8
0
 62
7
  6
CONTINUOUS
 10
418.8472596792
 20
262.0081209647
 11
418.847110397
 21
262.0082549381
  0
POLYLINE
  8
SURFACE
 62
7
  6
CONTINUOUS
 66
1
 70
0
  0
VERTEX
  8
SURFACE
 62
7
  6
CONTINUOUS
 10
423.6176165471
 20
264.2330967642
  0
VERTEX
  8
SURFACE
 62
7
  6
CONTINUOUS
 10
423.2089181531
 20
264.7128190251
  0
VERTEX
  8
SURFACE
 62
7
  6
CONTINUOUS
 10
422.9160166963
 20
265.1311636902
  0
VERTEX
  8
SURFACE
 62
7
  6
CONTINUOUS
 10
422.7369058578
 20
265.4917705442
  0
VERTEX
  8
SURFACE
 62
7
  6
CONTINUOUS
 10
422.6454560907
 20
265.8018766975
  0
VERTEX
  8
SURFACE
 62
7
  6
CONTINUOUS
 10
422.6176165471
 20
266.0808558292
  0
SEQEND
  0
LINE
  8
SURFACE
 62
7
  6
CONTINUOUS
 10
431.7167086363
 20
278.3635562369
 11
431.2774225902
 21
279.3009425061
  0
LINE
  8
0
 62
7
  6
CONTINUOUS
 10
418.4890508291
 20
334.9785634248
 11
418.3700037513
 21
335.342235623
  0
LINE
  8
SURFACE
 62
7
  6
CONTINUOUS
 10
432.0530569043
 20
314.8925637301
 11
431.9301363242
 21
315.4634056334
  0
POLYLINE
  8
SURFACE
 62
7
  6
CONTINUOUS
 66
1
 70
0
  0
VERTEX
  8
SURFACE
 62
7
  6
CONTINUOUS
 10
431.356800746
 20
318.6620324096
  0
VERTEX
  8
SURFACE
 62
7
  6
CONTINUOUS
 10
431.3428329391
 20
318.7338507161
  0
VERTEX
  8
SURFACE
 62
7
  6
CONTINUOUS
 10
431.3246203128
 20
318.8095379077
  0
VERTEX
  8
SURFACE
 62
7
  6
CONTINUOUS
 10
431.2997967643
 20
318.8903985783
  0
VERTEX
  8
SURFACE
 62
7
  6
CONTINUOUS
 10
431.2639344946
 20
318.9806949857
  0
VERTEX
  8
SURFACE
 62
7
  6
CONTINUOUS
 10
431.2137181638
 20
319.0781536937
  0
VERTEX
  8
SURFACE
 62
7
  6
CONTINUOUS
 10
431.1464978223
 20
319.1789611796
  0
VERTEX
  8
SURFACE
 62
7
  6
CONTINUOUS
 10
431.1059431764
 20
319.229160402
  0
VERTEX
  8
SURFACE
 62
7
  6
CONTINUOUS
 10
431.01042361
 20
319.3259427848
  0
VERTEX
  8
SURFACE
 62
7
  6
CONTINUOUS
 10
430.8956689167
 20
319.4136517592
  0
VERTEX
  8
SURFACE
 62
7
  6
CONTINUOUS
 10
430.7617478375
 20
319.4875886994
  0
VERTEX
  8
SURFACE
 62
7
  6
CONTINUOUS
 10
430.6094900316
 20
319.5427143498
  0
VERTEX
  8
SURFACE
 62
7
  6
CONTINUOUS
 10
430.4409824369
 20
319.5735552227
  0
VERTEX
  8
SURFACE
 62
7
  6
CONTINUOUS
 10
430.3454306518
 20
319.5781201043
  0
SEQEND
  0
LINE
  8
SURFACE
 62
7
  6
CONTINUOUS
 10
431.9301363242
 20
315.4634056334
 11
431.7957669797
 21
316.179717804
  0
POLYLINE
  8
SURFACE
 62
7
  6
CONTINUOUS
 66
1
 70
0
  0
VERTEX
  8
SURFACE
 62
7
  6
CONTINUOUS
 10
431.7472683778
 20
175.8540283073
  0
VERTEX
  8
SURFACE
 62
7
  6
CONTINUOUS
 10
431.8949049238
 20
176.0152829557
  0
VERTEX
  8
SURFACE
 62
7
  6
CONTINUOUS
 10
432.0222993103
 20
176.2332389009
  0
VERTEX
  8
SURFACE
 62
7
  6
CONTINUOUS
 10
432.0971323219
 20
176.4734703062
  0
SEQEND
  0
LINE
  8
SURFACE
 62
7
  6
CONTINUOUS
 10
431.747107464
 20
175.8538838643
 11
431.7472683925
 21
175.8540282909
  0
POLYLINE
  8
0
 62
7
  6
CONTINUOUS
 66
1
 70
0
  0
VERTEX
  8
0
 62
7
  6
CONTINUOUS
 10
410.8658404232
 20
262.3139254064
  0
VERTEX
  8
0
 62
7
  6
CONTINUOUS
 10
410.7827198057
 20
262.3108321647
  0
VERTEX
  8
0
 62
7
  6
CONTINUOUS
 10
410.5195741811
 20
262.2591405294
  0
VERTEX
  8
0
 62
7
  6
CONTINUOUS
 10
410.3935496246
 20
262.2100018636
  0
VERTEX
  8
0
 62
7
  6
CONTINUOUS
 10
410.169628088
 20
262.0755565879
  0
VERTEX
  8
0
 62
7
  6
CONTINUOUS
 10
410.0881256303
 20
262.0082575291
  0
SEQEND
  0
LINE
  8
0
 62
7
  6
CONTINUOUS
 10
410.8656667759
 20
262.3139254453
 11
418.0695655442
 21
262.3139254453
  0
POLYLINE
  8
SURFACE
 62
7
  6
CONTINUOUS
 66
1
 70
0
  0
VERTEX
  8
SURFACE
 62
7
  6
CONTINUOUS
 10
431.2773314183
 20
279.3011366174
  0
VERTEX
  8
SURFACE
 62
7
  6
CONTINUOUS
 10
431.2263980112
 20
279.396627439
  0
VERTEX
  8
SURFACE
 62
7
  6
CONTINUOUS
 10
431.1283593884
 20
279.5330165566
  0
VERTEX
  8
SURFACE
 62
7
  6
CONTINUOUS
 10
430.9934895701
 20
279.6644607161
  0
VERTEX
  8
SURFACE
 62
7
  6
CONTINUOUS
 10
430.9115587044
 20
279.7240955279
  0
VERTEX
  8
SURFACE
 62
7
  6
CONTINUOUS
 10
430.7237771419
 20
279.8204211187
  0
VERTEX
  8
SURFACE
 62
7
  6
CONTINUOUS
 10
430.516388176
 20
279.8760156542
  0
VERTEX
  8
SURFACE
 62
7
  6
CONTINUOUS
 10
430.3614445591
 20
279.8880384786
  0
SEQEND
  0
POLYLINE
  8
0
 62
7
  6
CONTINUOUS
 66
1
 70
0
  0
VERTEX
  8
0
 62
7
  6
CONTINUOUS
 10
418.370065687
 20
335.3420825218
  0
VERTEX
  8
0
 62
7
  6
CONTINUOUS
 10
418.3417384483
 20
335.4058657418
  0
VERTEX
  8
0
 62
7
  6
CONTINUOUS
 10
418.2761097599
 20
335.5212935285
  0
VERTEX
  8
0
 62
7
  6
CONTINUOUS
 10
418.184802305
 20
335.6397459436
  0
VERTEX
  8
0
 62
7
  6
CONTINUOUS
 10
418.0663835828
 20
335.7519470464
  0
VERTEX
  8
0
 62
7
  6
CONTINUOUS
 10
417.9214678814
 20
335.8489770405
  0
VERTEX
  8
0
 62
7
  6
CONTINUOUS
 10
417.7506103811
 20
335.9231932286
  0
VERTEX
  8
0
 62
7
  6
CONTINUOUS
 10
417.5560982734
 20
335.9660853886
  0
VERTEX
  8
0
 62
7
  6
CONTINUOUS
 10
417.4388217244
 20
335.9729779901
  0
SEQEND
  0
LINE
  8
0
 62
7
  6
CONTINUOUS
 10
418.370065687
 20
335.3420825218
 11
418.3700037513
 21
335.342235623
  0
POLYLINE
  8
SURFACE
 62
7
  6
CONTINUOUS
 66
1
 70
0
  0
VERTEX
  8
SURFACE
 62
7
  6
CONTINUOUS
 10
431.2700042893
 20
102.5199071333
  0
VERTEX
  8
SURFACE
 62
7
  6
CONTINUOUS
 10
431.3890738548
 20
102.8836620599
  0
VERTEX
  8
SURFACE
 62
7
  6
CONTINUOUS
 10
431.5051267966
 20
103.3700678313
  0
VERTEX
  8
SURFACE
 62
7
  6
CONTINUOUS
 10
431.6266174766
 20
103.9941527636
  0
VERTEX
  8
SURFACE
 62
7
  6
CONTINUOUS
 10
431.6883394693
 20
104.3478936411
  0
VERTEX
  8
SURFACE
 62
7
  6
CONTINUOUS
 10
431.8125000018
 20
105.1217073083
  0
VERTEX
  8
SURFACE
 62
7
  6
CONTINUOUS
 10
431.9399150831
 20
105.9898732563
  0
VERTEX
  8
SURFACE
 62
7
  6
CONTINUOUS
 10
432.0706469067
 20
106.9476559179
  0
SEQEND
  0
LINE
  8
SURFACE
 62
7
  6
CONTINUOUS
 10
431.2700042532
 20
102.5199071479
 11
431.2700576895
 21
102.5200392351
  0
POLYLINE
  8
SURFACE
 62
7
  6
CONTINUOUS
 66
1
 70
0
  0
VERTEX
  8
SURFACE
 62
7
  6
CONTINUOUS
 10
431.7360694189
 20
278.324141431
  0
VERTEX
  8
SURFACE
 62
7
  6
CONTINUOUS
 10
431.7373574992
 20
278.3227128456
  0
VERTEX
  8
SURFACE
 62
7
  6
CONTINUOUS
 10
431.7167257336
 20
278.3635197396
  0
SEQEND
  0
POLYLINE
  8
SURFACE
 62
7
  6
CONTINUOUS
 66
1
 70
0
  0
VERTEX
  8
SURFACE
 62
7
  6
CONTINUOUS
 10
424.373787129
 20
279.8880385766
  0
VERTEX
  8
SURFACE
 62
7
  6
CONTINUOUS
 10
424.2173191008
 20
279.8757764589
  0
VERTEX
  8
SURFACE
 62
7
  6
CONTINUOUS
 10
424.0106167274
 20
279.8200963575
  0
VERTEX
  8
SURFACE
 62
7
  6
CONTINUOUS
 10
423.8231734748
 20
279.723767837
  0
VERTEX
  8
SURFACE
 62
7
  6
CONTINUOUS
 10
423.7413330688
 20
279.6641290169
  0
VERTEX
  8
SURFACE
 62
7
  6
CONTINUOUS
 10
423.6065948708
 20
279.5326889886
  0
VERTEX
  8
SURFACE
 62
7
  6
CONTINUOUS
 10
423.5087003749
 20
279.3964033428
  0
VERTEX
  8
SURFACE
 62
7
  6
CONTINUOUS
 10
423.4578933779
 20
279.301119093
  0
SEQEND
  0
LINE
  8
SURFACE
 62
7
  6
CONTINUOUS
 10
430.3614700431
 20
279.8880388743
 11
424.3737648574
 21
279.8880388743
  0
POLYLINE
  8
SURFACE
 62
7
  6
CONTINUOUS
 66
1
 70
0
  0
VERTEX
  8
SURFACE
 62
7
  6
CONTINUOUS
 10
423.6176165471
 20
301.2383000268
  0
VERTEX
  8
SURFACE
 62
7
  6
CONTINUOUS
 10
423.2089181531
 20
301.6054635496
  0
VERTEX
  8
SURFACE
 62
7
  6
CONTINUOUS
 10
422.9160166963
 20
301.9256506943
  0
VERTEX
  8
SURFACE
 62
7
  6
CONTINUOUS
 10
422.7369058578
 20
302.2016472315
  0
VERTEX
  8
SURFACE
 62
7
  6
CONTINUOUS
 10
422.6454560907
 20
302.4389922058
  0
VERTEX
  8
SURFACE
 62
7
  6
CONTINUOUS
 10
422.6176165471
 20
302.6525135892
  0
SEQEND
  0
LINE
  8
0
 62
7
  6
CONTINUOUS
 10
423.6176165471
 20
284.073337892
 11
418.2176165471
 21
284.073337892
  0
LINE
  8
0
 62
7
  6
CONTINUOUS
 10
398.3176165471
 20
290.0853996293
 11
409.7176165471
 21
290.0853996293
  0
LINE
  8
0
 62
7
  6
CONTINUOUS
 10
432.1176165471
 20
290.0853996293
 11
443.5176165471
 21
290.0853996293
  0
POLYLINE
  8
0
 62
7
  6
CONTINUOUS
 66
1
 70
0
  0
VERTEX
  8
0
 62
7
  6
CONTINUOUS
 10
411.2892987598
 20
304.7538120424
  0
VERTEX
  8
0
 62
7
  6
CONTINUOUS
 10
411.1139145145
 20
304.7394255352
  0
VERTEX
  8
0
 62
7
  6
CONTINUOUS
 10
410.8741485838
 20
304.670837065
  0
VERTEX
  8
0
 62
7
  6
CONTINUOUS
 10
410.6647115105
 20
304.5564188658
  0
VERTEX
  8
0
 62
7
  6
CONTINUOUS
 10
410.4950439861
 20
304.4136744375
  0
VERTEX
  8
0
 62
7
  6
CONTINUOUS
 10
410.3651686411
 20
304.260707494
  0
VERTEX
  8
0
 62
7
  6
CONTINUOUS
 10
410.266340327
 20
304.1077730593
  0
VERTEX
  8
0
 62
7
  6
CONTINUOUS
 10
410.1860427455
 20
303.9523638647
  0
VERTEX
  8
0
 62
7
  6
CONTINUOUS
 10
410.1154028482
 20
303.7876093185
  0
VERTEX
  8
0
 62
7
  6
CONTINUOUS
 10
410.0492862708
 20
303.6069148054
  0
VERTEX
  8
0
 62
7
  6
CONTINUOUS
 10
409.984177505
 20
303.4027218098
  0
VERTEX
  8
0
 62
7
  6
CONTINUOUS
 10
409.9178258832
 20
303.1675657807
  0
VERTEX
  8
0
 62
7
  6
CONTINUOUS
 10
409.8487138683
 20
302.8939304978
  0
VERTEX
  8
0
 62
7
  6
CONTINUOUS
 10
409.778979263
 20
302.5888417674
  0
SEQEND
  0
LINE
  8
0
 62
7
  6
CONTINUOUS
 10
411.289024581
 20
304.7538123144
 11
417.6461947914
 21
304.7538123144
  0
LINE
  8
0
 62
7
  6
CONTINUOUS
 10
418.2176165471
 20
316.4233631743
 11
422.9825165821
 21
316.4233631743
  0
POLYLINE
  8
SURFACE
 62
7
  6
CONTINUOUS
 66
1
 70
0
  0
VERTEX
  8
SURFACE
 62
7
  6
CONTINUOUS
 10
423.6176165471
 20
325.7129737408
  0
VERTEX
  8
SURFACE
 62
7
  6
CONTINUOUS
 10
423.2089181531
 20
325.9116812075
  0
VERTEX
  8
SURFACE
 62
7
  6
CONTINUOUS
 10
422.9160166963
 20
326.0849652415
  0
VERTEX
  8
SURFACE
 62
7
  6
CONTINUOUS
 10
422.7369058578
 20
326.2343334911
  0
VERTEX
  8
SURFACE
 62
7
  6
CONTINUOUS
 10
422.6454560907
 20
326.3627836656
  0
VERTEX
  8
SURFACE
 62
7
  6
CONTINUOUS
 10
422.6176165471
 20
326.4783406056
  0
SEQEND
  0
POLYLINE
  8
SURFACE
 62
7
  6
CONTINUOUS
 66
1
 70
0
  0
VERTEX
  8
SURFACE
 62
7
  6
CONTINUOUS
 10
424.3898019813
 20
319.5781200667
  0
VERTEX
  8
SURFACE
 62
7
  6
CONTINUOUS
 10
424.2919461094
 20
319.5733318409
  0
VERTEX
  8
SURFACE
 62
7
  6
CONTINUOUS
 10
424.1238255767
 20
319.5421887967
  0
VERTEX
  8
SURFACE
 62
7
  6
CONTINUOUS
 10
423.9719417693
 20
319.4868827646
  0
VERTEX
  8
SURFACE
 62
7
  6
CONTINUOUS
 10
423.8383590535
 20
319.4128598435
  0
VERTEX
  8
SURFACE
 62
7
  6
CONTINUOUS
 10
423.7238953658
 20
319.3251327706
  0
VERTEX
  8
SURFACE
 62
7
  6
CONTINUOUS
 10
423.6286105809
 20
319.2283714256
  0
VERTEX
  8
SURFACE
 62
7
  6
CONTINUOUS
 10
423.5881531172
 20
319.1781909152
  0
VERTEX
  8
SURFACE
 62
7
  6
CONTINUOUS
 10
423.5210948929
 20
319.0774342161
  0
VERTEX
  8
SURFACE
 62
7
  6
CONTINUOUS
 10
423.4710208745
 20
318.9800779123
  0
VERTEX
  8
SURFACE
 62
7
  6
CONTINUOUS
 10
423.4352830759
 20
318.8899563862
  0
VERTEX
  8
SURFACE
 62
7
  6
CONTINUOUS
 10
423.4105444113
 20
318.8092844223
  0
VERTEX
  8
SURFACE
 62
7
  6
CONTINUOUS
 10
423.3923731151
 20
318.7337244861
  0
VERTEX
  8
SURFACE
 62
7
  6
CONTINUOUS
 10
423.3784317203
 20
318.6620289492
  0
SEQEND
  0
LINE
  8
SURFACE
 62
7
  6
CONTINUOUS
 10
430.3454723274
 20
319.5781203445
 11
424.3897599408
 21
319.5781203445
  0
LINE
  8
0
 62
7
  6
CONTINUOUS
 10
418.714338427
 20
333.9310706967
 11
422.6176165471
 21
333.9310706967
  0
POLYLINE
  8
0
 62
7
  6
CONTINUOUS
 66
1
 70
0
  0
VERTEX
  8
0
 62
7
  6
CONTINUOUS
 10
411.496411433
 20
335.9729780408
  0
VERTEX
  8
0
 62
7
  6
CONTINUOUS
 10
411.3813058835
 20
335.9663391013
  0
VERTEX
  8
0
 62
7
  6
CONTINUOUS
 10
411.1863078428
 20
335.92374376
  0
VERTEX
  8
0
 62
7
  6
CONTINUOUS
 10
411.0150061969
 20
335.8496584557
  0
VERTEX
  8
0
 62
7
  6
CONTINUOUS
 10
410.8697050405
 20
335.7526339128
  0
VERTEX
  8
0
 62
7
  6
CONTINUOUS
 10
410.7509736321
 20
335.6403507676
  0
VERTEX
  8
0
 62
7
  6
CONTINUOUS
 10
410.6594304625
 20
335.5217597098
  0
VERTEX
  8
0
 62
7
  6
CONTINUOUS
 10
410.5936271427
 20
335.4061386013
  0
VERTEX
  8
0
 62
7
  6
CONTINUOUS
 10
410.5651754048
 20
335.3421021584
  0
SEQEND
  0
POLYLINE
  8
0
 62
7
  6
CONTINUOUS
 66
1
 70
0
  0
VERTEX
  8
0
 62
7
  6
CONTINUOUS
 10
411.5020357616
 20
349.9310706965
  0
VERTEX
  8
0
 62
7
  6
CONTINUOUS
 10
411.4404714887
 20
349.9291738886
  0
VERTEX
  8
0
 62
7
  6
CONTINUOUS
 10
411.3590113945
 20
349.9207902578
  0
VERTEX
  8
0
 62
7
  6
CONTINUOUS
 10
411.2807700391
 20
349.9062852324
  0
VERTEX
  8
0
 62
7
  6
CONTINUOUS
 10
411.2060290879
 20
349.8862584126
  0
VERTEX
  8
0
 62
7
  6
CONTINUOUS
 10
411.1349939377
 20
349.8612781546
  0
VERTEX
  8
0
 62
7
  6
CONTINUOUS
 10
411.0678050531
 20
349.8318769394
  0
VERTEX
  8
0
 62
7
  6
CONTINUOUS
 10
411.0045483346
 20
349.7985483879
  0
VERTEX
  8
0
 62
7
  6
CONTINUOUS
 10
410.945264743
 20
349.7617456968
  0
VERTEX
  8
0
 62
7
  6
CONTINUOUS
 10
410.8899591309
 20
349.721881273
  0
VERTEX
  8
0
 62
7
  6
CONTINUOUS
 10
410.8386126853
 20
349.6793313025
  0
VERTEX
  8
0
 62
7
  6
CONTINUOUS
 10
410.7912398604
 20
349.6344902437
  0
VERTEX
  8
0
 62
7
  6
CONTINUOUS
 10
410.7478602629
 20
349.5877714904
  0
VERTEX
  8
0
 62
7
  6
CONTINUOUS
 10
410.70845598
 20
349.5395735402
  0
VERTEX
  8
0
 62
7
  6
CONTINUOUS
 10
410.6902293262
 20
349.5150393908
  0
VERTEX
  8
0
 62
7
  6
CONTINUOUS
 10
410.6566791544
 20
349.4653289068
  0
VERTEX
  8
0
 62
7
  6
CONTINUOUS
 10
410.6269164179
 20
349.4150528523
  0
VERTEX
  8
0
 62
7
  6
CONTINUOUS
 10
410.60082598
 20
349.3645565516
  0
VERTEX
  8
0
 62
7
  6
CONTINUOUS
 10
410.5783094608
 20
349.3142683565
  0
VERTEX
  8
0
 62
7
  6
CONTINUOUS
 10
410.5592298758
 20
349.264623832
  0
VERTEX
  8
0
 62
7
  6
CONTINUOUS
 10
410.543411538
 20
349.2160694708
  0
VERTEX
  8
0
 62
7
  6
CONTINUOUS
 10
410.5307762096
 20
349.169628588
  0
VERTEX
  8
0
 62
7
  6
CONTINUOUS
 10
410.5213348094
 20
349.1275431998
  0
VERTEX
  8
0
 62
7
  6
CONTINUOUS
 10
410.5149947432
 20
349.0933543165
  0
VERTEX
  8
0
 62
7
  6
CONTINUOUS
 10
410.5109635392
 20
349.0678501754
  0
VERTEX
  8
0
 62
7
  6
CONTINUOUS
 10
410.5078989463
 20
349.0461168181
  0
VERTEX
  8
0
 62
7
  6
CONTINUOUS
 10
410.5049936493
 20
349.0238719161
  0
VERTEX
  8
0
 62
7
  6
CONTINUOUS
 10
410.4991836658
 20
348.9763092407
  0
SEQEND
  0
POLYLINE
  8
SURFACE
 62
7
  6
CONTINUOUS
 66
1
 70
0
  0
VERTEX
  8
SURFACE
 62
7
  6
CONTINUOUS
 10
424.4020358436
 20
349.9310706665
  0
VERTEX
  8
SURFACE
 62
7
  6
CONTINUOUS
 10
424.3409746195
 20
349.9292047604
  0
VERTEX
  8
SURFACE
 62
7
  6
CONTINUOUS
 10
424.2609598216
 20
349.921069819
  0
VERTEX
  8
SURFACE
 62
7
  6
CONTINUOUS
 10
424.184047632
 20
349.9070230249
  0
VERTEX
  8
SURFACE
 62
7
  6
CONTINUOUS
 10
424.1105059136
 20
349.8876341674
  0
VERTEX
  8
SURFACE
 62
7
  6
CONTINUOUS
 10
424.0405310704
 20
349.8634438522
  0
VERTEX
  8
SURFACE
 62
7
  6
CONTINUOUS
 10
423.9742584914
 20
349.8349592059
  0
VERTEX
  8
SURFACE
 62
7
  6
CONTINUOUS
 10
423.9117721277
 20
349.8026510866
  0
VERTEX
  8
SURFACE
 62
7
  6
CONTINUOUS
 10
423.853113374
 20
349.766952578
  0
VERTEX
  8
SURFACE
 62
7
  6
CONTINUOUS
 10
423.7982892434
 20
349.7282585831
  0
VERTEX
  8
SURFACE
 62
7
  6
CONTINUOUS
 10
423.7472815702
 20
349.68692787
  0
VERTEX
  8
SURFACE
 62
7
  6
CONTINUOUS
 10
423.7000958595
 20
349.6433269625
  0
VERTEX
  8
SURFACE
 62
7
  6
CONTINUOUS
 10
423.6567553967
 20
349.5978481706
  0
VERTEX
  8
SURFACE
 62
7
  6
CONTINUOUS
 10
423.6172497898
 20
349.5508718959
  0
VERTEX
  8
SURFACE
 62
7
  6
CONTINUOUS
 10
423.5815354731
 20
349.5027618463
  0
VERTEX
  8
SURFACE
 62
7
  6
CONTINUOUS
 10
423.54953938
 20
349.453863414
  0
VERTEX
  8
SURFACE
 62
7
  6
CONTINUOUS
 10
423.5211638521
 20
349.4045053241
  0
VERTEX
  8
SURFACE
 62
7
  6
CONTINUOUS
 10
423.4963003101
 20
349.3550234703
  0
VERTEX
  8
SURFACE
 62
7
  6
CONTINUOUS
 10
423.4748548832
 20
349.3058382054
  0
VERTEX
  8
SURFACE
 62
7
  6
CONTINUOUS
 10
423.456684249
 20
349.2573475463
  0
VERTEX
  8
SURFACE
 62
7
  6
CONTINUOUS
 10
423.4416264563
 20
349.2100076304
  0
VERTEX
  8
SURFACE
 62
7
  6
CONTINUOUS
 10
423.4296433696
 20
349.1649888226
  0
VERTEX
  8
SURFACE
 62
7
  6
CONTINUOUS
 10
423.4207311745
 20
349.1245384519
  0
VERTEX
  8
SURFACE
 62
7
  6
CONTINUOUS
 10
423.4147301527
 20
349.0917824305
  0
VERTEX
  8
SURFACE
 62
7
  6
CONTINUOUS
 10
423.4108130302
 20
349.0668301261
  0
VERTEX
  8
SURFACE
 62
7
  6
CONTINUOUS
 10
423.4077815604
 20
349.0452460424
  0
VERTEX
  8
SURFACE
 62
7
  6
CONTINUOUS
 10
423.4048961447
 20
349.0231030636
  0
VERTEX
  8
SURFACE
 62
7
  6
CONTINUOUS
 10
423.4017864768
 20
348.9980005903
  0
VERTEX
  8
SURFACE
 62
7
  6
CONTINUOUS
 10
423.3118024874
 20
348.2262640177
  0
SEQEND
  0
POLYLINE
  8
SURFACE
 62
7
  6
CONTINUOUS
 66
1
 70
0
  0
VERTEX
  8
SURFACE
 62
7
  6
CONTINUOUS
 10
424.3997165366
 20
344.1739621763
  0
VERTEX
  8
SURFACE
 62
7
  6
CONTINUOUS
 10
424.347374977
 20
344.1725921273
  0
VERTEX
  8
SURFACE
 62
7
  6
CONTINUOUS
 10
424.2005187499
 20
344.1539322679
  0
VERTEX
  8
SURFACE
 62
7
  6
CONTINUOUS
 10
424.0643195134
 20
344.1160726328
  0
VERTEX
  8
SURFACE
 62
7
  6
CONTINUOUS
 10
423.9407831063
 20
344.0625046915
  0
VERTEX
  8
SURFACE
 62
7
  6
CONTINUOUS
 10
423.8311141688
 20
343.9967057223
  0
VERTEX
  8
SURFACE
 62
7
  6
CONTINUOUS
 10
423.7358110391
 20
343.921999346
  0
VERTEX
  8
SURFACE
 62
7
  6
CONTINUOUS
 10
423.6548823426
 20
343.8415692937
  0
VERTEX
  8
SURFACE
 62
7
  6
CONTINUOUS
 10
423.5879973479
 20
343.7585809355
  0
VERTEX
  8
SURFACE
 62
7
  6
CONTINUOUS
 10
423.5342333137
 20
343.6758154286
  0
VERTEX
  8
SURFACE
 62
7
  6
CONTINUOUS
 10
423.5118447656
 20
343.6352206716
  0
VERTEX
  8
SURFACE
 62
7
  6
CONTINUOUS
 10
423.4751289261
 20
343.556880985
  0
VERTEX
  8
SURFACE
 62
7
  6
CONTINUOUS
 10
423.4478538856
 20
343.4839134057
  0
VERTEX
  8
SURFACE
 62
7
  6
CONTINUOUS
 10
423.4291977303
 20
343.4212446085
  0
VERTEX
  8
SURFACE
 62
7
  6
CONTINUOUS
 10
423.416695771
 20
343.3693204858
  0
VERTEX
  8
SURFACE
 62
7
  6
CONTINUOUS
 10
423.4063645274
 20
343.3172170235
  0
VERTEX
  8
SURFACE
 62
7
  6
CONTINUOUS
 10
423.3974934529
 20
343.2643489926
  0
VERTEX
  8
SURFACE
 62
7
  6
CONTINUOUS
 10
423.3887025465
 20
343.2048517244
  0
VERTEX
  8
SURFACE
 62
7
  6
CONTINUOUS
 10
423.3792780232
 20
343.1344985465
  0
SEQEND
  0
LINE
  8
0
 62
7
  6
CONTINUOUS
 10
411.4963660373
 20
335.9729780378
 11
417.438866722
 21
335.9729780378
  0
LINE
  8
SURFACE
 62
7
  6
CONTINUOUS
 10
430.3355436985
 20
344.173962276
 11
424.3996856454
 21
344.173962276
  0
LINE
  8
SURFACE
 62
7
  6
CONTINUOUS
 10
430.3332172289
 20
349.9310706967
 11
424.4020180653
 21
349.9310706967
  0
LINE
  8
0
 62
7
  6
CONTINUOUS
 10
411.5020158653
 20
349.9310706967
 11
417.433215029
 21
349.9310706967
  0
ARC
  8
SURFACE
 62
7
  6
CONTINUOUS
 10
108.9681368326
 20
146.1083290791
 40
13.0
 50
256.2590427333
 51
305.0
  0
ARC
  8
0
 62
7
  6
CONTINUOUS
 10
97.1504167822
 20
146.4984330529
 40
12.75
 50
45.0
 51
102.5
  0
ARC
  8
SURFACE
 62
7
  6
CONTINUOUS
 10
97.0454989218
 20
146.6554537274
 40
12.75
 50
325.0
 51
22.5
  0
ARC
  8
SURFACE
 62
7
  6
CONTINUOUS
 10
106.2365120838
 20
134.9374640172
 40
1.5
 50
145.0
 51
256.2590427333
  0
ARC
  8
0
 62
7
  6
CONTINUOUS
 10
132.5608201139
 20
122.5156457977
 40
13.0
 50
145.0
 51
193.7409572667
  0
ARC
  8
0
 62
7
  6
CONTINUOUS
 10
133.1079447623
 20
110.5930078869
 40
12.75
 50
67.5
 51
125.0
  0
ARC
  8
SURFACE
 62
7
  6
CONTINUOUS
 10
132.9509240878
 20
110.6979257473
 40
12.75
 50
347.5
 51
45.0
  0
ARC
  8
0
 62
7
  6
CONTINUOUS
 10
121.389955052
 20
119.784021049
 40
1.5
 50
193.7409572667
 51
305.0
  0
ARC
  8
0
 62
7
  6
CONTINUOUS
 10
123.995571217
 20
135.5631811948
 40
1.5
 50
325.0
 51
45.0
  0
ARC
  8
SURFACE
 62
7
  6
CONTINUOUS
 10
122.0156722297
 20
137.5430801821
 40
1.5
 50
45.0
 51
125.0
  0
ARC
  8
SURFACE
 62
7
  6
CONTINUOUS
 10
81.6406701523
 20
179.2730298917
 40
1.5
 50
122.5
 51
233.7590427333
  0
ARC
  8
0
 62
7
  6
CONTINUOUS
 10
85.7141065521
 20
202.2485243621
 40
13.0
 50
100.0
 51
148.7409572667
  0
ARC
  8
SURFACE
 62
7
  6
CONTINUOUS
 10
88.4392673325
 20
188.5482159481
 40
13.0
 50
233.7590427333
 51
282.5
  0
ARC
  8
0
 62
7
  6
CONTINUOUS
 10
77.6704039847
 20
193.4310706967
 40
12.75
 50
22.5
 51
80.0
  0
ARC
  8
SURFACE
 62
7
  6
CONTINUOUS
 10
77.6335617316
 20
193.616289211
 40
12.75
 50
302.5
 51
360.0
  0
ARC
  8
0
 62
7
  6
CONTINUOUS
 10
75.8835617316
 20
208.2159684156
 40
1.5
 50
148.7409572667
 51
260.0
  0
ARC
  8
0
 62
7
  6
CONTINUOUS
 10
101.2075355164
 20
157.7228897306
 40
13.0
 50
122.5
 51
171.2409572667
  0
ARC
  8
0
 62
7
  6
CONTINUOUS
 10
98.2873529993
 20
173.0550194807
 40
1.5
 50
302.5
 51
22.5
  0
ARC
  8
0
 62
7
  6
CONTINUOUS
 10
89.8416543904
 20
159.4741025191
 40
1.5
 50
171.2409572667
 51
282.5
  0
ARC
  8
SURFACE
 62
7
  6
CONTINUOUS
 10
97.2158393887
 20
175.6418821717
 40
1.5
 50
22.5
 51
102.5
  0
ARC
  8
0
 62
7
  6
CONTINUOUS
 10
88.8835617316
 20
217.5310706967
 40
1.5
 50
280.0
 51
360.0
  0
ARC
  8
0
 62
7
  6
CONTINUOUS
 10
165.7255209266
 20
95.1881791174
 40
1.5
 50
216.2409572667
 51
327.5
  0
ARC
  8
SURFACE
 62
7
  6
CONTINUOUS
 10
144.1753807655
 20
114.7550444816
 40
13.0
 50
278.7590427333
 51
327.5
  0
ARC
  8
0
 62
7
  6
CONTINUOUS
 10
162.0943732065
 20
110.7633483538
 40
1.5
 50
347.5
 51
67.5
  0
ARC
  8
SURFACE
 62
7
  6
CONTINUOUS
 10
145.926593554
 20
103.3891633556
 40
1.5
 50
167.5
 51
278.7590427333
  0
ARC
  8
SURFACE
 62
7
  6
CONTINUOUS
 10
159.5075105155
 20
111.8348619645
 40
1.5
 50
67.5
 51
147.5
  0
ARC
  8
0
 62
7
  6
CONTINUOUS
 10
175.000706983
 20
101.9867762977
 40
13.0
 50
167.5
 51
216.2409572667
  0
ARC
  8
SURFACE
 62
7
  6
CONTINUOUS
 10
188.7010153969
 20
99.2616155172
 40
13.0
 50
301.2590427333
 51
350.0
  0
ARC
  8
0
 62
7
  6
CONTINUOUS
 10
180.0687802459
 20
91.1810706967
 40
12.75
 50
90.0
 51
147.5
  0
ARC
  8
SURFACE
 62
7
  6
CONTINUOUS
 10
179.8835617316
 20
91.2179129499
 40
12.75
 50
10.0
 51
67.5
  0
ARC
  8
SURFACE
 62
7
  6
CONTINUOUS
 10
194.6684594504
 20
89.4310706967
 40
1.5
 50
190.0
 51
301.2590427333
  0
ARC
  8
SURFACE
 62
7
  6
CONTINUOUS
 10
203.9835617316
 20
102.4310706967
 40
1.5
 50
90.0
 51
170.0
  0
ARC
  8
0
 62
7
  6
CONTINUOUS
 10
198.9885153493
 20
157.1610233726
 40
3.2
 50
2.2544307753
 51
45.0
  0
ARC
  8
0
 62
7
  6
CONTINUOUS
 10
143.6135144074
 20
212.5360243145
 40
3.2
 50
45.0
 51
87.7455692247
  0
ARC
  8
0
 62
7
  6
CONTINUOUS
 10
185.6241971849
 20
172.0809764556
 40
2.1
 50
45.0
 51
111.1237922695
  0
ARC
  8
0
 62
7
  6
CONTINUOUS
 10
184.1105835901
 20
175.9987531064
 40
2.1
 50
225.0
 51
291.1237922694
  0
ARC
  8
0
 62
7
  6
CONTINUOUS
 10
162.4512441413
 20
197.6580925553
 40
2.1
 50
158.8762077306
 51
225.0
  0
ARC
  8
0
 62
7
  6
CONTINUOUS
 10
158.5334674905
 20
199.17170615
 40
2.1
 50
338.8762077306
 51
45.0
  0
ARC
  8
0
 62
7
  6
CONTINUOUS
 10
88.4392673325
 20
249.3139254453
 40
13.0
 50
77.5
 51
126.2409572667
  0
ARC
  8
SURFACE
 62
7
  6
CONTINUOUS
 10
85.7141065521
 20
235.6136170314
 40
13.0
 50
211.2590427333
 51
260.0
  0
ARC
  8
0
 62
7
  6
CONTINUOUS
 10
77.6335617316
 20
244.2458521824
 40
12.75
 50
0.0
 51
57.5
  0
ARC
  8
SURFACE
 62
7
  6
CONTINUOUS
 10
77.6704039847
 20
244.4310706967
 40
12.75
 50
280.0
 51
337.5
  0
ARC
  8
SURFACE
 62
7
  6
CONTINUOUS
 10
75.8835617316
 20
229.6461729778
 40
1.5
 50
100.0
 51
211.2590427333
  0
ARC
  8
0
 62
7
  6
CONTINUOUS
 10
81.6406701523
 20
258.5891115017
 40
1.5
 50
126.2409572667
 51
237.5
  0
ARC
  8
SURFACE
 62
7
  6
CONTINUOUS
 10
88.8835617316
 20
220.3310706967
 40
1.5
 50
0.0
 51
80.0
  0
ARC
  8
SURFACE
 62
7
  6
CONTINUOUS
 10
101.2075355164
 20
280.1392516628
 40
13.0
 50
188.7590427333
 51
237.5
  0
ARC
  8
0
 62
7
  6
CONTINUOUS
 10
97.2158393887
 20
262.2202592217
 40
1.5
 50
257.5
 51
337.5
  0
ARC
  8
SURFACE
 62
7
  6
CONTINUOUS
 10
89.8416543904
 20
278.3880388743
 40
1.5
 50
77.5
 51
188.7590427333
  0
ARC
  8
SURFACE
 62
7
  6
CONTINUOUS
 10
98.2873529993
 20
264.8071219128
 40
1.5
 50
337.5
 51
57.5
  0
ARC
  8
0
 62
7
  6
CONTINUOUS
 10
108.9681368326
 20
291.7538123144
 40
13.0
 50
55.0
 51
103.7409572667
  0
ARC
  8
0
 62
7
  6
CONTINUOUS
 10
97.0454989218
 20
291.206687666
 40
12.75
 50
337.5
 51
35.0
  0
ARC
  8
SURFACE
 62
7
  6
CONTINUOUS
 10
97.1504167822
 20
291.3637083405
 40
12.75
 50
257.5
 51
315.0
  0
ARC
  8
0
 62
7
  6
CONTINUOUS
 10
106.2365120838
 20
302.9246773763
 40
1.5
 50
103.7409572667
 51
215.0
  0
ARC
  8
0
 62
7
  6
CONTINUOUS
 10
122.0156722297
 20
300.3190612113
 40
1.5
 50
235.0
 51
315.0
  0
ARC
  8
SURFACE
 62
7
  6
CONTINUOUS
 10
123.995571217
 20
302.2989601986
 40
1.5
 50
315.0
 51
35.0
  0
ARC
  8
SURFACE
 62
7
  6
CONTINUOUS
 10
132.5608201139
 20
315.3464955957
 40
13.0
 50
166.2590427333
 51
215.0
  0
ARC
  8
0
 62
7
  6
CONTINUOUS
 10
132.9509240878
 20
327.1642156461
 40
12.75
 50
315.0
 51
12.5
  0
ARC
  8
SURFACE
 62
7
  6
CONTINUOUS
 10
133.1079447623
 20
327.2691335065
 40
12.75
 50
235.0
 51
292.5
  0
ARC
  8
SURFACE
 62
7
  6
CONTINUOUS
 10
121.389955052
 20
318.0781203445
 40
1.5
 50
55.0
 51
166.2590427333
  0
ARC
  8
0
 62
7
  6
CONTINUOUS
 10
150.229232799
 20
218.9310706967
 40
16.0
 50
135.0
 51
225.0
  0
ARC
  8
0
 62
7
  6
CONTINUOUS
 10
143.8652717683
 20
218.9310706967
 40
3.2
 50
92.2544307754
 51
267.7455692247
  0
ARC
  8
0
 62
7
  6
CONTINUOUS
 10
143.6135144074
 20
225.326117079
 40
3.2
 50
272.2544307753
 51
315.0
  0
ARC
  8
0
 62
7
  6
CONTINUOUS
 10
198.9885153493
 20
280.7011180208
 40
3.2
 50
315.0
 51
357.7455692247
  0
ARC
  8
0
 62
7
  6
CONTINUOUS
 10
158.5334674905
 20
238.6904352434
 40
2.1
 50
315.0
 51
21.1237922694
  0
ARC
  8
0
 62
7
  6
CONTINUOUS
 10
162.4512441413
 20
240.2040488382
 40
2.1
 50
135.0
 51
201.1237922694
  0
ARC
  8
0
 62
7
  6
CONTINUOUS
 10
184.1105835901
 20
261.863388287
 40
2.1
 50
68.8762077306
 51
135.0
  0
ARC
  8
0
 62
7
  6
CONTINUOUS
 10
185.6241971849
 20
265.7811649378
 40
2.1
 50
248.8762077306
 51
315.0
  0
ARC
  8
0
 62
7
  6
CONTINUOUS
 10
144.1753807655
 20
323.1070969119
 40
13.0
 50
32.5
 51
81.2409572667
  0
ARC
  8
0
 62
7
  6
CONTINUOUS
 10
159.5075105155
 20
326.027279429
 40
1.5
 50
212.5
 51
292.5
  0
ARC
  8
0
 62
7
  6
CONTINUOUS
 10
145.926593554
 20
334.4729780378
 40
1.5
 50
81.2409572667
 51
192.5
  0
ARC
  8
SURFACE
 62
7
  6
CONTINUOUS
 10
162.0943732065
 20
327.0987930396
 40
1.5
 50
292.5
 51
12.5
  0
ARC
  8
SURFACE
 62
7
  6
CONTINUOUS
 10
165.7255209266
 20
342.673962276
 40
1.5
 50
32.5
 51
143.7590427333
  0
ARC
  8
0
 62
7
  6
CONTINUOUS
 10
203.9835617316
 20
335.4310706967
 40
1.5
 50
190.0
 51
270.0
  0
ARC
  8
0
 62
7
  6
CONTINUOUS
 10
188.7010153969
 20
338.6005258762
 40
13.0
 50
10.0
 51
58.7409572667
  0
ARC
  8
SURFACE
 62
7
  6
CONTINUOUS
 10
175.000706983
 20
335.8753650957
 40
13.0
 50
143.7590427333
 51
192.5
  0
ARC
  8
0
 62
7
  6
CONTINUOUS
 10
179.8835617316
 20
346.6442284436
 40
12.75
 50
292.5
 51
350.0
  0
ARC
  8
SURFACE
 62
7
  6
CONTINUOUS
 10
180.0687802459
 20
346.6810706967
 40
12.75
 50
212.5
 51
270.0
  0
ARC
  8
0
 62
7
  6
CONTINUOUS
 10
194.6684594504
 20
348.4310706967
 40
1.5
 50
58.7409572667
 51
170.0
  0
ARC
  8
0
 62
7
  6
CONTINUOUS
 10
222.0661080662
 20
99.2616155172
 40
13.0
 50
190.0
 51
238.7409572667
  0
ARC
  8
SURFACE
 62
7
  6
CONTINUOUS
 10
235.7664164802
 20
101.9867762977
 40
13.0
 50
323.7590427333
 51
12.5
  0
ARC
  8
0
 62
7
  6
CONTINUOUS
 10
230.8835617316
 20
91.2179129499
 40
12.75
 50
112.5
 51
170.0
  0
ARC
  8
SURFACE
 62
7
  6
CONTINUOUS
 10
230.6983432173
 20
91.1810706967
 40
12.75
 50
32.5
 51
90.0
  0
ARC
  8
0
 62
7
  6
CONTINUOUS
 10
216.0986640127
 20
89.4310706967
 40
1.5
 50
238.7409572667
 51
350.0
  0
ARC
  8
0
 62
7
  6
CONTINUOUS
 10
206.7835617316
 20
102.4310706967
 40
1.5
 50
10.0
 51
90.0
  0
ARC
  8
SURFACE
 62
7
  6
CONTINUOUS
 10
245.0416025365
 20
95.1881791174
 40
1.5
 50
212.5
 51
323.7590427333
  0
ARC
  8
0
 62
7
  6
CONTINUOUS
 10
266.5917426976
 20
114.7550444816
 40
13.0
 50
212.5
 51
261.2409572667
  0
ARC
  8
0
 62
7
  6
CONTINUOUS
 10
251.2596129476
 20
111.8348619645
 40
1.5
 50
32.5
 51
112.5
  0
ARC
  8
0
 62
7
  6
CONTINUOUS
 10
264.8405299091
 20
103.3891633556
 40
1.5
 50
261.2409572667
 51
12.5
  0
ARC
  8
SURFACE
 62
7
  6
CONTINUOUS
 10
248.6727502566
 20
110.7633483538
 40
1.5
 50
112.5
 51
192.5
  0
ARC
  8
0
 62
7
  6
CONTINUOUS
 10
205.3835617316
 20
163.7767417642
 40
16.0
 50
225.0
 51
315.0
  0
ARC
  8
0
 62
7
  6
CONTINUOUS
 10
267.1536090557
 20
212.5360243145
 40
3.2
 50
92.2544307753
 51
135.0
  0
ARC
  8
0
 62
7
  6
CONTINUOUS
 10
211.7786081138
 20
157.1610233726
 40
3.2
 50
135.0
 51
177.7455692247
  0
ARC
  8
0
 62
7
  6
CONTINUOUS
 10
205.3835617316
 20
157.4127807335
 40
3.2
 50
182.2544307753
 51
357.7455692247
  0
ARC
  8
0
 62
7
  6
CONTINUOUS
 10
252.2336559726
 20
199.17170615
 40
2.1
 50
135.0
 51
201.1237922694
  0
ARC
  8
0
 62
7
  6
CONTINUOUS
 10
248.3158793218
 20
197.6580925553
 40
2.1
 50
315.0
 51
21.1237922694
  0
ARC
  8
0
 62
7
  6
CONTINUOUS
 10
226.656539873
 20
175.9987531064
 40
2.1
 50
248.8762077306
 51
315.0
  0
ARC
  8
0
 62
7
  6
CONTINUOUS
 10
225.1429262782
 20
172.0809764556
 40
2.1
 50
68.8762077306
 51
135.0
  0
ARC
  8
SURFACE
 62
7
  6
CONTINUOUS
 10
278.2063033492
 20
122.5156457977
 40
13.0
 50
346.2590427333
 51
35.0
  0
ARC
  8
0
 62
7
  6
CONTINUOUS
 10
277.8161993753
 20
110.6979257473
 40
12.75
 50
135.0
 51
192.5
  0
ARC
  8
SURFACE
 62
7
  6
CONTINUOUS
 10
277.6591787008
 20
110.5930078869
 40
12.75
 50
55.0
 51
112.5
  0
ARC
  8
SURFACE
 62
7
  6
CONTINUOUS
 10
289.3771684111
 20
119.784021049
 40
1.5
 50
235.0
 51
346.2590427333
  0
ARC
  8
0
 62
7
  6
CONTINUOUS
 10
288.7514512335
 20
137.5430801821
 40
1.5
 50
55.0
 51
135.0
  0
ARC
  8
SURFACE
 62
7
  6
CONTINUOUS
 10
286.7715522461
 20
135.5631811948
 40
1.5
 50
135.0
 51
215.0
  0
ARC
  8
0
 62
7
  6
CONTINUOUS
 10
301.7989866305
 20
146.1083290791
 40
13.0
 50
235.0
 51
283.7409572667
  0
ARC
  8
0
 62
7
  6
CONTINUOUS
 10
313.7216245414
 20
146.6554537274
 40
12.75
 50
157.5
 51
215.0
  0
ARC
  8
SURFACE
 62
7
  6
CONTINUOUS
 10
313.6167066809
 20
146.4984330529
 40
12.75
 50
77.5
 51
135.0
  0
ARC
  8
0
 62
7
  6
CONTINUOUS
 10
304.5306113793
 20
134.9374640172
 40
1.5
 50
283.7409572667
 51
35.0
  0
ARC
  8
SURFACE
 62
7
  6
CONTINUOUS
 10
309.5595879467
 20
157.7228897306
 40
13.0
 50
8.7590427333
 51
57.5
  0
ARC
  8
0
 62
7
  6
CONTINUOUS
 10
313.5512840744
 20
175.6418821717
 40
1.5
 50
77.5
 51
157.5
  0
ARC
  8
SURFACE
 62
7
  6
CONTINUOUS
 10
320.9254690727
 20
159.4741025191
 40
1.5
 50
257.5
 51
8.7590427333
  0
ARC
  8
SURFACE
 62
7
  6
CONTINUOUS
 10
312.4797704638
 20
173.0550194807
 40
1.5
 50
157.5
 51
237.5
  0
ARC
  8
SURFACE
 62
7
  6
CONTINUOUS
 10
321.8835617316
 20
217.5310706967
 40
1.5
 50
180.0
 51
260.0
  0
ARC
  8
0
 62
7
  6
CONTINUOUS
 10
329.1264533109
 20
179.2730298917
 40
1.5
 50
306.2409572667
 51
57.5
  0
ARC
  8
0
 62
7
  6
CONTINUOUS
 10
322.3278561306
 20
188.5482159481
 40
13.0
 50
257.5
 51
306.2409572667
  0
ARC
  8
SURFACE
 62
7
  6
CONTINUOUS
 10
325.053016911
 20
202.2485243621
 40
13.0
 50
31.2590427333
 51
80.0
  0
ARC
  8
0
 62
7
  6
CONTINUOUS
 10
333.1335617316
 20
193.616289211
 40
12.75
 50
180.0
 51
237.5
  0
ARC
  8
SURFACE
 62
7
  6
CONTINUOUS
 10
333.0967194784
 20
193.4310706967
 40
12.75
 50
100.0
 51
157.5
  0
ARC
  8
SURFACE
 62
7
  6
CONTINUOUS
 10
334.8835617316
 20
208.2159684156
 40
1.5
 50
280.0
 51
31.2590427333
  0
ARC
  8
0
 62
7
  6
CONTINUOUS
 10
205.3835617316
 20
274.0853996293
 40
16.0
 50
45.0
 51
135.0
  0
ARC
  8
0
 62
7
  6
CONTINUOUS
 10
260.5378906641
 20
218.9310706967
 40
16.0
 50
315.0
 51
45.0
  0
ARC
  8
0
 62
7
  6
CONTINUOUS
 10
267.1536090557
 20
225.326117079
 40
3.2
 50
225.0
 51
267.7455692247
  0
ARC
  8
0
 62
7
  6
CONTINUOUS
 10
266.9018516948
 20
218.9310706967
 40
3.2
 50
272.2544307753
 51
87.7455692247
  0
ARC
  8
0
 62
7
  6
CONTINUOUS
 10
205.3835617316
 20
280.44936066
 40
3.2
 50
2.2544307753
 51
177.7455692246
  0
ARC
  8
0
 62
7
  6
CONTINUOUS
 10
211.7786081138
 20
280.7011180208
 40
3.2
 50
182.2544307753
 51
225.0
  0
ARC
  8
0
 62
7
  6
CONTINUOUS
 10
225.1429262782
 20
265.7811649378
 40
2.1
 50
225.0
 51
291.1237922694
  0
ARC
  8
0
 62
7
  6
CONTINUOUS
 10
226.656539873
 20
261.863388287
 40
2.1
 50
45.0
 51
111.1237922694
  0
ARC
  8
0
 62
7
  6
CONTINUOUS
 10
248.3158793218
 20
240.2040488382
 40
2.1
 50
338.8762077306
 51
45.0
  0
ARC
  8
0
 62
7
  6
CONTINUOUS
 10
252.2336559726
 20
238.6904352434
 40
2.1
 50
158.8762077306
 51
225.0
  0
ARC
  8
SURFACE
 62
7
  6
CONTINUOUS
 10
206.7835617316
 20
335.4310706967
 40
1.5
 50
270.0
 51
350.0
  0
ARC
  8
0
 62
7
  6
CONTINUOUS
 10
235.7664164802
 20
335.8753650957
 40
13.0
 50
347.5
 51
36.2409572667
  0
ARC
  8
SURFACE
 62
7
  6
CONTINUOUS
 10
222.0661080662
 20
338.6005258762
 40
13.0
 50
121.2590427333
 51
170.0
  0
ARC
  8
0
 62
7
  6
CONTINUOUS
 10
230.6983432173
 20
346.6810706967
 40
12.75
 50
270.0
 51
327.5
  0
ARC
  8
SURFACE
 62
7
  6
CONTINUOUS
 10
230.8835617316
 20
346.6442284436
 40
12.75
 50
190.0
 51
247.5
  0
ARC
  8
SURFACE
 62
7
  6
CONTINUOUS
 10
216.0986640127
 20
348.4310706967
 40
1.5
 50
10.0
 51
121.2590427333
  0
ARC
  8
SURFACE
 62
7
  6
CONTINUOUS
 10
266.5917426976
 20
323.1070969119
 40
13.0
 50
98.7590427333
 51
147.5
  0
ARC
  8
0
 62
7
  6
CONTINUOUS
 10
248.6727502566
 20
327.0987930396
 40
1.5
 50
167.5
 51
247.5
  0
ARC
  8
SURFACE
 62
7
  6
CONTINUOUS
 10
264.8405299091
 20
334.4729780378
 40
1.5
 50
347.5
 51
98.7590427333
  0
ARC
  8
SURFACE
 62
7
  6
CONTINUOUS
 10
251.2596129476
 20
326.027279429
 40
1.5
 50
247.5
 51
327.5
  0
ARC
  8
0
 62
7
  6
CONTINUOUS
 10
245.0416025365
 20
342.673962276
 40
1.5
 50
36.2409572667
 51
147.5
  0
ARC
  8
0
 62
7
  6
CONTINUOUS
 10
321.8835617316
 20
220.3310706967
 40
1.5
 50
100.0
 51
180.0
  0
ARC
  8
0
 62
7
  6
CONTINUOUS
 10
309.5595879467
 20
280.1392516628
 40
13.0
 50
302.5
 51
351.2409572667
  0
ARC
  8
0
 62
7
  6
CONTINUOUS
 10
312.4797704638
 20
264.8071219128
 40
1.5
 50
122.5
 51
202.5
  0
ARC
  8
0
 62
7
  6
CONTINUOUS
 10
320.9254690727
 20
278.3880388743
 40
1.5
 50
351.2409572667
 51
102.5
  0
ARC
  8
SURFACE
 62
7
  6
CONTINUOUS
 10
313.5512840744
 20
262.2202592217
 40
1.5
 50
202.5
 51
282.5
  0
ARC
  8
0
 62
7
  6
CONTINUOUS
 10
325.053016911
 20
235.6136170314
 40
13.0
 50
280.0
 51
328.7409572667
  0
ARC
  8
SURFACE
 62
7
  6
CONTINUOUS
 10
322.3278561306
 20
249.3139254453
 40
13.0
 50
53.7590427333
 51
102.5
  0
ARC
  8
0
 62
7
  6
CONTINUOUS
 10
333.0967194784
 20
244.4310706967
 40
12.75
 50
202.5
 51
260.0
  0
ARC
  8
SURFACE
 62
7
  6
CONTINUOUS
 10
333.1335617316
 20
244.2458521824
 40
12.75
 50
122.5
 51
180.0
  0
ARC
  8
0
 62
7
  6
CONTINUOUS
 10
334.8835617316
 20
229.6461729778
 40
1.5
 50
328.7409572667
 51
80.0
  0
ARC
  8
SURFACE
 62
7
  6
CONTINUOUS
 10
329.1264533109
 20
258.5891115017
 40
1.5
 50
302.5
 51
53.7590427333
  0
ARC
  8
0
 62
7
  6
CONTINUOUS
 10
286.7715522461
 20
302.2989601986
 40
1.5
 50
145.0
 51
225.0
  0
ARC
  8
SURFACE
 62
7
  6
CONTINUOUS
 10
288.7514512335
 20
300.3190612113
 40
1.5
 50
225.0
 51
305.0
  0
ARC
  8
0
 62
7
  6
CONTINUOUS
 10
278.2063033492
 20
315.3464955957
 40
13.0
 50
325.0
 51
13.7409572667
  0
ARC
  8
0
 62
7
  6
CONTINUOUS
 10
277.6591787008
 20
327.2691335065
 40
12.75
 50
247.5
 51
305.0
  0
ARC
  8
SURFACE
 62
7
  6
CONTINUOUS
 10
277.8161993753
 20
327.1642156461
 40
12.75
 50
167.5
 51
225.0
  0
ARC
  8
0
 62
7
  6
CONTINUOUS
 10
289.3771684111
 20
318.0781203445
 40
1.5
 50
13.7409572667
 51
125.0
  0
ARC
  8
SURFACE
 62
7
  6
CONTINUOUS
 10
301.7989866305
 20
291.7538123144
 40
13.0
 50
76.2590427333
 51
125.0
  0
ARC
  8
0
 62
7
  6
CONTINUOUS
 10
313.6167066809
 20
291.3637083405
 40
12.75
 50
225.0
 51
282.5
  0
ARC
  8
SURFACE
 62
7
  6
CONTINUOUS
 10
313.7216245414
 20
291.206687666
 40
12.75
 50
145.0
 51
202.5
  0
ARC
  8
SURFACE
 62
7
  6
CONTINUOUS
 10
304.5306113793
 20
302.9246773763
 40
1.5
 50
325.0
 51
76.2590427333
  0
ARC
  8
0
 62
7
  6
CONTINUOUS
 10
398.3176165471
 20
287.5853996293
 40
2.5
 50
90.0
 51
180.0
  0
ARC
  8
0
 62
7
  6
CONTINUOUS
 10
398.3176165471
 20
150.2767417642
 40
2.5
 50
180.0
 51
270.0
  0
ARC
  8
0
 62
7
  6
CONTINUOUS
 10
443.5176165471
 20
287.5853996293
 40
2.5
 50
0.0
 51
90.0
  0
ARC
  8
0
 62
7
  6
CONTINUOUS
 10
443.5176165471
 20
150.2767417642
 40
2.5
 50
270.0
 51
360.0
  0
ENDSEC
  0
EOF
