  0
SECTION
  2
HEADER
  9
$EXTMAX
 10
420.0
 20
297.0
 30
0.0
  9
$EXTMIN
 10
0.0
 20
0.0
 30
0.0
  9
$LIMMIN
 10
0.0
 20
0.0
  9
$LIMMAX
 10
420.0
 20
297.0
  9
$VIEWCTR
 10
210.0
 20
148.5
  9
$VIEWSIZE
 40
297.0
  9
$CLAYER
  8
0
  9
$LTSCALE
 40
23.1
  9
$CELTYPE
  6
BYLAYER
  9
$DIMSCALE
 40
1.0
  9
$DIMASZ
 40
3.5
  9
$DIMEXO
 40
1.0
  9
$DIMDLI
 40
15.96
  9
$DIMEXE
 40
2.0
  9
$DIMCEN
 40
3.78
  9
$DIMLFAC
 40
1.0
  9
$DIMBLK
  1
_FILLED
  9
$DIMTXT
 40
3.5
  9
$PDMODE
 70
3
  9
$PDSIZE
 40
0.3125
  9
$TILEMODE
 70
1
  0
ENDSEC
  0
SECTION
  2
TABLES
  0
TABLE
  2
LTYPE
 70
6
  0
LTYPE
  2
BYBLOCK
 70
0
  3

 72
65
 73
0
 40
0.0
  0
LTYPE
  2
BYLAYER
 70
0
  3

 72
65
 73
0
 40
0.0
  0
LTYPE
  2
CONTINUOUS
 70
64
  3
Solid line
 72
65
 73
0
 40
0.0
  0
LTYPE
  2
CENTER
 70
64
  3
____ _ ____ _ ____ _ ____ _ ____ _ ____ _ ____
 72
65
 73
4
 40
0.6
 49
0.375
 49
-0.075
 49
0.075
 49
-0.075
  0
LTYPE
  2
HIDDEN
 70
64
  3
- - - - - - - - - - - - - - - - - - - -
 72
65
 73
2
 40
0.2
 49
0.1
 49
-0.1
  0
LTYPE
  2
PHANTOM
 70
64
  3
_____ _ _ _____ _ _ _____ _ _ _____
 72
65
 73
6
 40
0.8
 49
0.45
 49
-0.05
 49
0.1
 49
-0.05
 49
0.1
 49
-0.05
  0
LTYPE
  2
DOT
 70
64
  3
. . . . . . . . . . . . . . . . . . . .
 72
65
 73
2
 40
0.2
 49
0.1
 49
-0.1
  0
LTYPE
  2
DASHED
 70
64
  3
- - - - - - - - - - - - - - - - - - - -
 72
65
 73
2
 40
0.2
 49
0.1
 49
-0.1
  0
ENDTAB
  0
TABLE
  2
LAYER
 70
36
  0
LAYER
  2
0
 70
0
 62
7
  6
CONTINUOUS
  0
LAYER
  2
DEFAULT_1
 70
0
 62
7
  6
CENTER
  0
LAYER
  2
DEFAULT_2
 70
0
 62
8
  6
HIDDEN
  0
LAYER
  2
DEFAULT_3
 70
0
 62
7
  6
PHANTOM
  0
LAYER
  2
CSYS
 70
0
 62
7
  6
CONTINUOUS
  0
LAYER
  2
CURVE
 70
0
 62
7
  6
CONTINUOUS
  0
LAYER
  2
SURFACE
 70
0
 62
7
  6
CONTINUOUS
  0
ENDTAB
  0
TABLE
  2
STYLE
 70
1
  0
STYLE
  2
STANDARD
 70
0
 40
0.0
 41
0.8
 50
0.0
 71
0
 42
0.2
  3
txt
  4

  0
STYLE
  2
TEXTSTYLE_1
 70
0
 40
0.0
 41
0.8
 50
0.0
 71
0
 42
0.2
  3
gdt
  4

  0
STYLE
  2
TEXTSTYLE_2
 70
0
 40
0.0
 41
0.6
 50
0.0
 71
0
 42
0.2
  3
txt
  4

  0
STYLE
  2
TEXTSTYLE_3
 70
0
 40
0.0
 41
1.0
 50
0.0
 71
0
 42
0.2
  3
ftb_____.ttf
  4

  0
STYLE
  2
TEXTSTYLE_4
 70
0
 40
0.0
 41
1.0
 50
0.0
 71
0
 42
0.2
  3
fti_____.ttf
  4

  0
STYLE
  2
TEXTSTYLE_5
 70
0
 40
0.0
 41
1.0
 50
0.0
 71
0
 42
0.2
  3
frutiger light.ttf
  4

  0
STYLE
  2
TEXTSTYLE_6
 70
0
 40
0.0
 41
0.7
 50
0.0
 71
0
 42
0.2
  3
txt
  4

  0
STYLE
  2
TEXTSTYLE_7
 70
0
 40
0.0
 41
0.8
 50
0.0
 71
0
 42
0.2
  3
txt
  4

  0
ENDTAB
  0
ENDSEC
  0
SECTION
  2
BLOCKS
  0
BLOCK
  8
0
 62
2
  6
CONTINUOUS
  2
SYMBOL_5_BL1
 70
64
 10
382.7840918555
 20
35.5067593403
  0
TEXT
  8
0
 62
7
  6
CONTINUOUS
 10
373.842376864
 20
30.5995157174
  7
TEXTSTYLE_4
 40
1.0655737705
  1
The brand for plastic modular belts and chains
 41
1.0
 72
0
  0
LINE
  8
0
 62
7
  6
CONTINUOUS
 10
358.7621602445
 20
36.0805298321
 11
358.7621602445
 21
33.9493822911
  0
LINE
  8
0
 62
7
  6
CONTINUOUS
 10
359.0512227376
 20
30.9584509954
 11
359.0512227376
 21
31.0552420547
  0
LINE
  8
0
 62
7
  6
CONTINUOUS
 10
358.7621602445
 20
31.0229783683
 11
358.8199727462
 21
30.8293962497
  0
LINE
  8
0
 62
7
  6
CONTINUOUS
 10
360.1556028675
 20
33.867415078
 11
360.1556028675
 21
36.0805298321
  0
LINE
  8
0
 62
7
  6
CONTINUOUS
 10
361.0746601894
 20
32.0231527829
 11
361.0746601894
 21
30.5067593403
  0
LINE
  8
0
 62
7
  6
CONTINUOUS
 10
361.3637227445
 20
30.5067593403
 11
361.3637227445
 21
31.2488242184
  0
LINE
  8
0
 62
7
  6
CONTINUOUS
 10
361.3637227445
 20
31.3778789641
 11
361.3637227445
 21
32.0231527829
  0
LINE
  8
0
 62
7
  6
CONTINUOUS
 10
358.8199727462
 20
31.216560532
 11
358.7621602445
 21
31.0229783683
  0
LINE
  8
0
 62
7
  6
CONTINUOUS
 10
359.1668477307
 20
30.7971325633
 11
359.0512227376
 21
30.9584509954
  0
LINE
  8
0
 62
7
  6
CONTINUOUS
 10
360.2652852997
 20
31.3133515913
 11
360.3230977445
 21
31.216560532
  0
LINE
  8
0
 62
7
  6
CONTINUOUS
 10
360.6121602997
 20
31.216560532
 11
360.5543476894
 21
31.3456152777
  0
LINE
  8
0
 62
7
  6
CONTINUOUS
 10
362.0408487691
 20
36.0805298321
 11
362.0408487691
 21
34.2772511436
  0
LINE
  8
0
 62
7
  6
CONTINUOUS
 10
362.0408487691
 20
32.9657757338
 11
362.0408487691
 21
32.3100380288
  0
LINE
  8
0
 62
7
  6
CONTINUOUS
 10
362.4043477445
 20
31.1520331591
 11
362.4043477445
 21
30.5067593403
  0
LINE
  8
0
 62
7
  6
CONTINUOUS
 10
362.6934101343
 20
30.5067593403
 11
362.6934101343
 21
31.1520331591
  0
LINE
  8
0
 62
7
  6
CONTINUOUS
 10
359.0512227376
 20
31.0552420547
 11
359.1090352445
 21
31.1842968456
  0
LINE
  8
0
 62
7
  6
CONTINUOUS
 10
358.8199727462
 20
30.8293962497
 11
358.9355977445
 21
30.7003414814
  0
LINE
  8
0
 62
7
  6
CONTINUOUS
 10
362.3465351343
 20
31.2810879048
 11
362.4043477445
 21
31.1520331591
  0
LINE
  8
0
 62
7
  6
CONTINUOUS
 10
363.1559103548
 20
30.7971325633
 11
363.2137226343
 21
30.668077795
  0
LINE
  8
0
 62
7
  6
CONTINUOUS
 10
362.6934101343
 20
31.1520331591
 11
362.6355978548
 21
31.3133515913
  0
LINE
  8
0
 62
7
  6
CONTINUOUS
 10
363.1559103548
 20
31.3456152777
 11
363.1559103548
 21
31.2810879048
  0
LINE
  8
0
 62
7
  6
CONTINUOUS
 10
363.1559103548
 20
30.8939236226
 11
363.1559103548
 21
30.7971325633
  0
LINE
  8
0
 62
7
  6
CONTINUOUS
 10
363.4342913921
 20
32.3100380288
 11
363.4342913921
 21
36.0805298321
  0
LINE
  8
0
 62
7
  6
CONTINUOUS
 10
363.4449727445
 20
30.7648688543
 11
363.4449727445
 21
30.8293962497
  0
LINE
  8
0
 62
7
  6
CONTINUOUS
 10
363.7621602445
 20
36.0805298321
 11
363.7621602445
 21
32.3100380288
  0
LINE
  8
0
 62
7
  6
CONTINUOUS
 10
360.5543476894
 20
30.7003414814
 11
360.6121602997
 21
30.8293962497
  0
LINE
  8
0
 62
7
  6
CONTINUOUS
 10
364.9480979651
 20
30.6035504109
 11
364.890285024
 21
30.7648688543
  0
LINE
  8
0
 62
7
  6
CONTINUOUS
 10
364.6012229651
 20
31.2810879048
 11
364.6012229651
 21
31.1842968456
  0
LINE
  8
0
 62
7
  6
CONTINUOUS
 10
364.6012229651
 20
31.0552420547
 11
364.6012229651
 21
30.8616599362
  0
LINE
  8
0
 62
7
  6
CONTINUOUS
 10
364.890285024
 20
30.7648688543
 11
364.890285024
 21
31.2810879048
  0
LINE
  8
0
 62
7
  6
CONTINUOUS
 10
365.1556028675
 20
32.3100380288
 11
365.1556028675
 21
34.1133167174
  0
LINE
  8
0
 62
7
  6
CONTINUOUS
 10
365.1556028675
 20
35.4247921272
 11
365.1556028675
 21
36.0805298321
  0
LINE
  8
0
 62
7
  6
CONTINUOUS
 10
365.4684104651
 20
32.0231527829
 11
365.4684104651
 21
31.8618343508
  0
LINE
  8
0
 62
7
  6
CONTINUOUS
 10
365.4684104651
 20
31.5391973962
 11
365.4684104651
 21
30.5067593403
  0
LINE
  8
0
 62
7
  6
CONTINUOUS
 10
365.757472524
 20
30.5067593403
 11
365.757472524
 21
31.5391973962
  0
LINE
  8
0
 62
7
  6
CONTINUOUS
 10
365.757472524
 20
31.8618343508
 11
365.757472524
 21
32.0231527829
  0
LINE
  8
0
 62
7
  6
CONTINUOUS
 10
360.3230977445
 20
30.8293962497
 11
360.2652852997
 21
30.7326051679
  0
LINE
  8
0
 62
7
  6
CONTINUOUS
 10
362.6355978548
 20
31.3133515913
 11
362.5777852445
 21
31.3778789641
  0
LINE
  8
0
 62
7
  6
CONTINUOUS
 10
363.5027853548
 20
30.7003414814
 11
363.4449727445
 21
30.7648688543
  0
LINE
  8
0
 62
7
  6
CONTINUOUS
 10
364.6590352445
 20
30.5712867188
 11
364.716847524
 21
30.5067593403
  0
LINE
  8
0
 62
7
  6
CONTINUOUS
 10
364.6012229651
 20
30.668077795
 11
364.6590352445
 21
30.5712867188
  0
LINE
  8
0
 62
7
  6
CONTINUOUS
 10
365.0059102445
 20
30.5067593403
 11
364.9480979651
 21
30.6035504109
  0
LINE
  8
0
 62
7
  6
CONTINUOUS
 10
364.890285024
 20
31.2810879048
 11
364.8324727445
 21
31.3778789641
  0
LINE
  8
0
 62
7
  6
CONTINUOUS
 10
366.2199727445
 20
31.5391973962
 11
366.2199727445
 21
30.5067593403
  0
LINE
  8
0
 62
7
  6
CONTINUOUS
 10
366.5090354651
 20
30.5067593403
 11
366.5090354651
 21
31.2488242184
  0
LINE
  8
0
 62
7
  6
CONTINUOUS
 10
366.5090354651
 20
31.3778789641
 11
366.5090354651
 21
31.5391973962
  0
LINE
  8
0
 62
7
  6
CONTINUOUS
 10
367.0408487691
 20
34.5231527829
 11
367.0408487691
 21
32.3100380288
  0
LINE
  8
0
 62
7
  6
CONTINUOUS
 10
358.9355977445
 20
31.3456152777
 11
358.8199727462
 21
31.216560532
  0
LINE
  8
0
 62
7
  6
CONTINUOUS
 10
359.1090352445
 20
31.1842968456
 11
359.1668477307
 21
31.2488242184
  0
LINE
  8
0
 62
7
  6
CONTINUOUS
 10
358.9355977445
 20
30.7003414814
 11
359.0512227376
 21
30.6358140973
  0
LINE
  8
0
 62
7
  6
CONTINUOUS
 10
359.3402852307
 20
30.7003414814
 11
359.1668477307
 21
30.7971325633
  0
LINE
  8
0
 62
7
  6
CONTINUOUS
 10
364.543410024
 20
31.3456152777
 11
364.6012229651
 21
31.2810879048
  0
LINE
  8
0
 62
7
  6
CONTINUOUS
 10
367.491847524
 20
31.2810879048
 11
367.5496604651
 21
31.1197694727
  0
LINE
  8
0
 62
7
  6
CONTINUOUS
 10
367.838722524
 20
31.1197694727
 11
367.7809102445
 21
31.2810879048
  0
LINE
  8
0
 62
7
  6
CONTINUOUS
 10
367.5496604651
 20
31.1197694727
 11
367.5496604651
 21
30.5067593403
  0
LINE
  8
0
 62
7
  6
CONTINUOUS
 10
367.838722524
 20
30.5067593403
 11
367.838722524
 21
31.1197694727
  0
LINE
  8
0
 62
7
  6
CONTINUOUS
 10
368.3012227445
 20
31.3456152777
 11
368.3012227445
 21
31.2810879048
  0
LINE
  8
0
 62
7
  6
CONTINUOUS
 10
368.4342913921
 20
32.3100380288
 11
368.4342913921
 21
34.4411855698
  0
LINE
  8
0
 62
7
  6
CONTINUOUS
 10
368.7621602445
 20
36.0805298321
 11
368.7621602445
 21
32.3100380288
  0
LINE
  8
0
 62
7
  6
CONTINUOUS
 10
363.4449727445
 20
30.8293962497
 11
363.5027853548
 21
30.926187309
  0
LINE
  8
0
 62
7
  6
CONTINUOUS
 10
359.0512227376
 20
30.6358140973
 11
359.2246602583
 21
30.5712867188
  0
LINE
  8
0
 62
7
  6
CONTINUOUS
 10
360.5543476894
 20
31.3456152777
 11
360.3809101894
 21
31.4424063369
  0
LINE
  8
0
 62
7
  6
CONTINUOUS
 10
363.2137226343
 20
30.668077795
 11
363.3871601343
 21
30.5712867188
  0
LINE
  8
0
 62
7
  6
CONTINUOUS
 10
362.2309102445
 20
31.3456152777
 11
362.3465351343
 21
31.2810879048
  0
LINE
  8
0
 62
7
  6
CONTINUOUS
 10
362.5777852445
 20
31.3778789641
 11
362.4621603548
 21
31.4424063369
  0
LINE
  8
0
 62
7
  6
CONTINUOUS
 10
368.3012227445
 20
30.7648688543
 11
368.4168479651
 21
30.6358140973
  0
LINE
  8
0
 62
7
  6
CONTINUOUS
 10
368.6480977445
 20
30.7003414814
 11
368.5902854651
 21
30.7648688543
  0
LINE
  8
0
 62
7
  6
CONTINUOUS
 10
368.3012227445
 20
31.2810879048
 11
368.4168479651
 21
31.1520331591
  0
LINE
  8
0
 62
7
  6
CONTINUOUS
 10
367.7809102445
 20
31.2810879048
 11
367.7230979651
 21
31.3778789641
  0
LINE
  8
0
 62
7
  6
CONTINUOUS
 10
370.1512223035
 20
30.7003414814
 11
370.1512223035
 21
30.7648688543
  0
LINE
  8
0
 62
7
  6
CONTINUOUS
 10
370.1556028675
 20
32.3100380288
 11
370.1556028675
 21
36.0805298321
  0
LINE
  8
0
 62
7
  6
CONTINUOUS
 10
363.2137226343
 20
31.4101426505
 11
363.1559103548
 21
31.3456152777
  0
LINE
  8
0
 62
7
  6
CONTINUOUS
 10
360.091847717
 20
31.3778789641
 11
360.2652852997
 21
31.3133515913
  0
LINE
  8
0
 62
7
  6
CONTINUOUS
 10
364.8324727445
 20
31.3778789641
 11
364.716847524
 21
31.4424063369
  0
LINE
  8
0
 62
7
  6
CONTINUOUS
 10
368.6480977445
 20
31.216560532
 11
368.5902854651
 21
31.2810879048
  0
LINE
  8
0
 62
7
  6
CONTINUOUS
 10
369.8043479651
 20
30.8293962497
 11
369.8621602445
 21
30.7648688543
  0
LINE
  8
0
 62
7
  6
CONTINUOUS
 10
370.1512223035
 20
30.7648688543
 11
370.0355977445
 21
30.8939236226
  0
LINE
  8
0
 62
7
  6
CONTINUOUS
 10
369.8043479651
 20
31.3456152777
 11
369.8621602445
 21
31.2810879048
  0
LINE
  8
0
 62
7
  6
CONTINUOUS
 10
370.1512223035
 20
31.2810879048
 11
370.0355977445
 21
31.4101426505
  0
LINE
  8
0
 62
7
  6
CONTINUOUS
 10
363.4449727445
 20
31.2810879048
 11
363.5027853548
 21
31.3456152777
  0
LINE
  8
0
 62
7
  6
CONTINUOUS
 10
363.2715352445
 20
31.0229783683
 11
363.1559103548
 21
30.8939236226
  0
LINE
  8
0
 62
7
  6
CONTINUOUS
 10
364.6012229651
 20
30.8616599362
 11
364.543410024
 21
30.7971325633
  0
LINE
  8
0
 62
7
  6
CONTINUOUS
 10
364.543410024
 20
30.6035504109
 11
364.6012229651
 21
30.668077795
  0
LINE
  8
0
 62
7
  6
CONTINUOUS
 10
363.3871601343
 20
30.5712867188
 11
363.5027853548
 21
30.5390230296
  0
LINE
  8
0
 62
7
  6
CONTINUOUS
 10
360.3809101894
 20
31.4424063369
 11
360.1496602445
 21
31.5069337098
  0
LINE
  8
0
 62
7
  6
CONTINUOUS
 10
363.7340351343
 20
30.6358140973
 11
363.5027853548
 21
30.7003414814
  0
LINE
  8
0
 62
7
  6
CONTINUOUS
 10
362.4621603548
 20
31.4424063369
 11
362.2887228548
 21
31.5069337098
  0
LINE
  8
0
 62
7
  6
CONTINUOUS
 10
364.716847524
 20
31.4424063369
 11
364.543410024
 21
31.5069337098
  0
LINE
  8
0
 62
7
  6
CONTINUOUS
 10
367.3762229651
 20
31.3456152777
 11
367.491847524
 21
31.2810879048
  0
LINE
  8
0
 62
7
  6
CONTINUOUS
 10
367.7230979651
 20
31.3778789641
 11
367.6074727445
 21
31.4424063369
  0
LINE
  8
0
 62
7
  6
CONTINUOUS
 10
359.2246602583
 20
30.5712867188
 11
359.3980977583
 21
30.5390230296
  0
LINE
  8
0
 62
7
  6
CONTINUOUS
 10
359.6871602721
 20
30.6358140973
 11
359.3402852307
 21
30.7003414814
  0
LINE
  8
0
 62
7
  6
CONTINUOUS
 10
362.1152853548
 20
31.3778789641
 11
362.2309102445
 21
31.3456152777
  0
LINE
  8
0
 62
7
  6
CONTINUOUS
 10
364.4277854651
 20
31.3778789641
 11
364.543410024
 21
31.3456152777
  0
LINE
  8
0
 62
7
  6
CONTINUOUS
 10
368.7637229651
 20
30.668077795
 11
368.6480977445
 21
30.7003414814
  0
LINE
  8
0
 62
7
  6
CONTINUOUS
 10
367.2605977445
 20
31.3778789641
 11
367.3762229651
 21
31.3456152777
  0
LINE
  8
0
 62
7
  6
CONTINUOUS
 10
368.4168479651
 20
30.6358140973
 11
368.5902854651
 21
30.5712867188
  0
LINE
  8
0
 62
7
  6
CONTINUOUS
 10
367.6074727445
 20
31.4424063369
 11
367.4340352445
 21
31.5069337098
  0
LINE
  8
0
 62
7
  6
CONTINUOUS
 10
368.8215352445
 20
31.1520331591
 11
368.6480977445
 21
31.216560532
  0
LINE
  8
0
 62
7
  6
CONTINUOUS
 10
369.6309104651
 20
30.8939236226
 11
369.8043479651
 21
30.8293962497
  0
LINE
  8
0
 62
7
  6
CONTINUOUS
 10
370.0355977445
 20
31.4101426505
 11
369.8621602445
 21
31.4746700234
  0
LINE
  8
0
 62
7
  6
CONTINUOUS
 10
368.4168479651
 20
31.1520331591
 11
368.6480977445
 21
31.0552420547
  0
LINE
  8
0
 62
7
  6
CONTINUOUS
 10
370.0355977445
 20
30.8939236226
 11
369.8043479651
 21
30.9907146818
  0
LINE
  8
0
 62
7
  6
CONTINUOUS
 10
368.5902854651
 20
31.2810879048
 11
368.6480977445
 21
31.3456152777
  0
LINE
  8
0
 62
7
  6
CONTINUOUS
 10
359.0512227376
 20
31.4101426505
 11
358.9355977445
 21
31.3456152777
  0
LINE
  8
0
 62
7
  6
CONTINUOUS
 10
359.1668477307
 20
31.2488242184
 11
359.3402852307
 21
31.3456152777
  0
LINE
  8
0
 62
7
  6
CONTINUOUS
 10
361.4793477997
 20
31.4424063369
 11
361.3637227445
 21
31.3778789641
  0
LINE
  8
0
 62
7
  6
CONTINUOUS
 10
361.3637227445
 20
31.2488242184
 11
361.4793477997
 21
31.3133515913
  0
LINE
  8
0
 62
7
  6
CONTINUOUS
 10
360.3809101894
 20
30.6035504109
 11
360.5543476894
 21
30.7003414814
  0
LINE
  8
0
 62
7
  6
CONTINUOUS
 10
359.3980977583
 20
30.5390230296
 11
359.744972717
 21
30.5067593403
  0
LINE
  8
0
 62
7
  6
CONTINUOUS
 10
363.5027853548
 20
30.5390230296
 11
363.7340351343
 21
30.5067593403
  0
LINE
  8
0
 62
7
  6
CONTINUOUS
 10
361.8840352445
 20
31.4101426505
 11
362.1152853548
 21
31.3778789641
  0
LINE
  8
0
 62
7
  6
CONTINUOUS
 10
364.1965353548
 20
31.4101426505
 11
364.4277854651
 21
31.3778789641
  0
LINE
  8
0
 62
7
  6
CONTINUOUS
 10
368.6480977445
 20
31.0552420547
 11
369.6309104651
 21
30.8939236226
  0
LINE
  8
0
 62
7
  6
CONTINUOUS
 10
369.8043479651
 20
30.9907146818
 11
368.8215352445
 21
31.1520331591
  0
LINE
  8
0
 62
7
  6
CONTINUOUS
 10
362.2887228548
 20
31.5069337098
 11
362.1152853548
 21
31.5391973962
  0
LINE
  8
0
 62
7
  6
CONTINUOUS
 10
368.5902854651
 20
30.5712867188
 11
368.7637229651
 21
30.5390230296
  0
LINE
  8
0
 62
7
  6
CONTINUOUS
 10
367.4340352445
 20
31.5069337098
 11
367.2605977445
 21
31.5391973962
  0
LINE
  8
0
 62
7
  6
CONTINUOUS
 10
369.6887227445
 20
31.3778789641
 11
369.8043479651
 21
31.3456152777
  0
LINE
  8
0
 62
7
  6
CONTINUOUS
 10
369.8621602445
 20
30.7648688543
 11
369.8043479651
 21
30.7003414814
  0
LINE
  8
0
 62
7
  6
CONTINUOUS
 10
368.4168479651
 20
31.4424063369
 11
368.3012227445
 21
31.3456152777
  0
LINE
  8
0
 62
7
  6
CONTINUOUS
 10
363.3293478548
 20
31.4746700234
 11
363.2137226343
 21
31.4101426505
  0
LINE
  8
0
 62
7
  6
CONTINUOUS
 10
363.3871601343
 20
31.0875057863
 11
363.2715352445
 21
31.0229783683
  0
LINE
  8
0
 62
7
  6
CONTINUOUS
 10
363.5027853548
 20
30.926187309
 11
363.6184102445
 21
30.9907146818
  0
LINE
  8
0
 62
7
  6
CONTINUOUS
 10
361.0746601894
 20
30.5067593403
 11
361.3637227445
 21
30.5067593403
  0
LINE
  8
0
 62
7
  6
CONTINUOUS
 10
362.4043477445
 20
30.5067593403
 11
362.6934101343
 21
30.5067593403
  0
LINE
  8
0
 62
7
  6
CONTINUOUS
 10
363.7340351343
 20
30.5067593403
 11
364.0809101343
 21
30.5067593403
  0
LINE
  8
0
 62
7
  6
CONTINUOUS
 10
364.716847524
 20
30.5067593403
 11
365.0059102445
 21
30.5067593403
  0
LINE
  8
0
 62
7
  6
CONTINUOUS
 10
365.4684104651
 20
30.5067593403
 11
365.757472524
 21
30.5067593403
  0
LINE
  8
0
 62
7
  6
CONTINUOUS
 10
366.2199727445
 20
30.5067593403
 11
366.5090354651
 21
30.5067593403
  0
LINE
  8
0
 62
7
  6
CONTINUOUS
 10
367.5496604651
 20
30.5067593403
 11
367.838722524
 21
30.5067593403
  0
LINE
  8
0
 62
7
  6
CONTINUOUS
 10
369.1105979651
 20
30.5067593403
 11
369.4574729651
 21
30.5067593403
  0
LINE
  8
0
 62
7
  6
CONTINUOUS
 10
369.4574729651
 20
30.6358140973
 11
369.1105979651
 21
30.6358140973
  0
LINE
  8
0
 62
7
  6
CONTINUOUS
 10
364.0809101343
 20
30.6358140973
 11
363.7340351343
 21
30.6358140973
  0
LINE
  8
0
 62
7
  6
CONTINUOUS
 10
368.5902854651
 20
30.7648688543
 11
368.3012227445
 21
30.7648688543
  0
LINE
  8
0
 62
7
  6
CONTINUOUS
 10
360.6121602997
 20
30.8293962497
 11
360.3230977445
 21
30.8293962497
  0
LINE
  8
0
 62
7
  6
CONTINUOUS
 10
359.6871602721
 20
31.4101426505
 11
360.091847717
 21
31.3778789641
  0
LINE
  8
0
 62
7
  6
CONTINUOUS
 10
360.1496602445
 20
31.5069337098
 11
359.744972717
 21
31.5391973962
  0
LINE
  8
0
 62
7
  6
CONTINUOUS
 10
368.7637229651
 20
30.5390230296
 11
369.1105979651
 21
30.5067593403
  0
LINE
  8
0
 62
7
  6
CONTINUOUS
 10
369.1105979651
 20
30.6358140973
 11
368.7637229651
 21
30.668077795
  0
LINE
  8
0
 62
7
  6
CONTINUOUS
 10
364.543410024
 20
31.5069337098
 11
364.1965353548
 21
31.5391973962
  0
LINE
  8
0
 62
7
  6
CONTINUOUS
 10
369.3418477445
 20
31.4101426505
 11
369.6887227445
 21
31.3778789641
  0
LINE
  8
0
 62
7
  6
CONTINUOUS
 10
369.6887227445
 20
31.5069337098
 11
369.3418477445
 21
31.5391973962
  0
LINE
  8
0
 62
7
  6
CONTINUOUS
 10
367.0293479651
 20
31.4101426505
 11
367.2605977445
 21
31.3778789641
  0
LINE
  8
0
 62
7
  6
CONTINUOUS
 10
369.8621602445
 20
31.4746700234
 11
369.6887227445
 21
31.5069337098
  0
LINE
  8
0
 62
7
  6
CONTINUOUS
 10
370.0355977445
 20
30.6035504109
 11
370.1512223035
 21
30.7003414814
  0
LINE
  8
0
 62
7
  6
CONTINUOUS
 10
364.543410024
 20
30.7971325633
 11
364.369972524
 21
30.7003414814
  0
LINE
  8
0
 62
7
  6
CONTINUOUS
 10
366.624660024
 20
31.4424063369
 11
366.5090354651
 21
31.3778789641
  0
LINE
  8
0
 62
7
  6
CONTINUOUS
 10
366.5090354651
 20
31.2488242184
 11
366.624660024
 21
31.3133515913
  0
LINE
  8
0
 62
7
  6
CONTINUOUS
 10
359.2246602583
 20
31.4746700234
 11
359.0512227376
 21
31.4101426505
  0
LINE
  8
0
 62
7
  6
CONTINUOUS
 10
361.6527851343
 20
31.5069337098
 11
361.4793477997
 21
31.4424063369
  0
LINE
  8
0
 62
7
  6
CONTINUOUS
 10
361.4793477997
 20
31.3133515913
 11
361.6527851343
 21
31.3778789641
  0
LINE
  8
0
 62
7
  6
CONTINUOUS
 10
360.2652852997
 20
30.7326051679
 11
360.091847717
 21
30.668077795
  0
LINE
  8
0
 62
7
  6
CONTINUOUS
 10
369.6887227445
 20
30.668077795
 11
369.4574729651
 21
30.6358140973
  0
LINE
  8
0
 62
7
  6
CONTINUOUS
 10
364.0809101343
 20
30.5067593403
 11
364.369972524
 21
30.5390230296
  0
LINE
  8
0
 62
7
  6
CONTINUOUS
 10
369.4574729651
 20
30.5067593403
 11
369.8043479651
 21
30.5390230296
  0
LINE
  8
0
 62
7
  6
CONTINUOUS
 10
359.744972717
 20
30.5067593403
 11
360.1496602445
 21
30.5390230296
  0
LINE
  8
0
 62
7
  6
CONTINUOUS
 10
360.091847717
 20
30.668077795
 11
359.6871602721
 21
30.6358140973
  0
LINE
  8
0
 62
7
  6
CONTINUOUS
 10
363.9652852445
 20
31.0552420547
 11
364.6012229651
 21
31.0552420547
  0
LINE
  8
0
 62
7
  6
CONTINUOUS
 10
364.6012229651
 20
31.1842968456
 11
363.9652852445
 21
31.1842968456
  0
LINE
  8
0
 62
7
  6
CONTINUOUS
 10
360.3230977445
 20
31.216560532
 11
360.6121602997
 21
31.216560532
  0
LINE
  8
0
 62
7
  6
CONTINUOUS
 10
363.1559103548
 20
31.2810879048
 11
363.4449727445
 21
31.2810879048
  0
LINE
  8
0
 62
7
  6
CONTINUOUS
 10
369.8621602445
 20
31.2810879048
 11
370.1512223035
 21
31.2810879048
  0
LINE
  8
0
 62
7
  6
CONTINUOUS
 10
363.8496603548
 20
31.4101426505
 11
364.1965353548
 21
31.4101426505
  0
LINE
  8
0
 62
7
  6
CONTINUOUS
 10
368.9949727445
 20
31.4101426505
 11
369.3418477445
 21
31.4101426505
  0
LINE
  8
0
 62
7
  6
CONTINUOUS
 10
369.3418477445
 20
31.5391973962
 11
368.9949727445
 21
31.5391973962
  0
LINE
  8
0
 62
7
  6
CONTINUOUS
 10
367.2605977445
 20
31.5391973962
 11
367.0293479651
 21
31.5391973962
  0
LINE
  8
0
 62
7
  6
CONTINUOUS
 10
366.5090354651
 20
31.5391973962
 11
366.2199727445
 21
31.5391973962
  0
LINE
  8
0
 62
7
  6
CONTINUOUS
 10
365.757472524
 20
31.5391973962
 11
365.4684104651
 21
31.5391973962
  0
LINE
  8
0
 62
7
  6
CONTINUOUS
 10
364.1965353548
 20
31.5391973962
 11
363.8496603548
 21
31.5391973962
  0
LINE
  8
0
 62
7
  6
CONTINUOUS
 10
362.1152853548
 20
31.5391973962
 11
361.8840352445
 21
31.5391973962
  0
LINE
  8
0
 62
7
  6
CONTINUOUS
 10
365.4684104651
 20
31.8618343508
 11
365.757472524
 21
31.8618343508
  0
LINE
  8
0
 62
7
  6
CONTINUOUS
 10
365.757472524
 20
32.0231527829
 11
365.4684104651
 21
32.0231527829
  0
LINE
  8
0
 62
7
  6
CONTINUOUS
 10
361.3637227445
 20
32.0231527829
 11
361.0746601894
 21
32.0231527829
  0
LINE
  8
0
 62
7
  6
CONTINUOUS
 10
360.4015045068
 20
32.3100380288
 11
360.8140758554
 21
32.3100380288
  0
LINE
  8
0
 62
7
  6
CONTINUOUS
 10
362.0408487691
 20
32.3100380288
 11
363.4342913921
 21
32.3100380288
  0
LINE
  8
0
 62
7
  6
CONTINUOUS
 10
363.7621602445
 20
32.3100380288
 11
365.1556028675
 21
32.3100380288
  0
LINE
  8
0
 62
7
  6
CONTINUOUS
 10
367.0408487691
 20
32.3100380288
 11
368.4342913921
 21
32.3100380288
  0
LINE
  8
0
 62
7
  6
CONTINUOUS
 10
368.7621602445
 20
32.3100380288
 11
370.1556028675
 21
32.3100380288
  0
LINE
  8
0
 62
7
  6
CONTINUOUS
 10
366.798097524
 20
31.5069337098
 11
366.624660024
 21
31.4424063369
  0
LINE
  8
0
 62
7
  6
CONTINUOUS
 10
364.369972524
 20
30.5390230296
 11
364.543410024
 21
30.6035504109
  0
LINE
  8
0
 62
7
  6
CONTINUOUS
 10
369.8043479651
 20
30.5390230296
 11
370.0355977445
 21
30.6035504109
  0
LINE
  8
0
 62
7
  6
CONTINUOUS
 10
369.8043479651
 20
30.7003414814
 11
369.6887227445
 21
30.668077795
  0
LINE
  8
0
 62
7
  6
CONTINUOUS
 10
368.7637229651
 20
31.3778789641
 11
368.9949727445
 21
31.4101426505
  0
LINE
  8
0
 62
7
  6
CONTINUOUS
 10
366.798097524
 20
31.3778789641
 11
367.0293479651
 21
31.4101426505
  0
LINE
  8
0
 62
7
  6
CONTINUOUS
 10
363.7340351343
 20
31.0229783683
 11
363.9652852445
 21
31.0552420547
  0
LINE
  8
0
 62
7
  6
CONTINUOUS
 10
367.0293479651
 20
31.5391973962
 11
366.798097524
 21
31.5069337098
  0
LINE
  8
0
 62
7
  6
CONTINUOUS
 10
363.6184102445
 20
31.3778789641
 11
363.8496603548
 21
31.4101426505
  0
LINE
  8
0
 62
7
  6
CONTINUOUS
 10
368.9949727445
 20
31.5391973962
 11
368.6480977445
 21
31.5069337098
  0
LINE
  8
0
 62
7
  6
CONTINUOUS
 10
363.9652852445
 20
31.1842968456
 11
363.6184102445
 21
31.1520331591
  0
LINE
  8
0
 62
7
  6
CONTINUOUS
 10
359.744972717
 20
31.5391973962
 11
359.3980977583
 21
31.5069337098
  0
LINE
  8
0
 62
7
  6
CONTINUOUS
 10
363.8496603548
 20
31.5391973962
 11
363.4449727445
 21
31.5069337098
  0
LINE
  8
0
 62
7
  6
CONTINUOUS
 10
361.221176638
 20
33.4575790124
 11
360.565438933
 21
33.4575790124
  0
LINE
  8
0
 62
7
  6
CONTINUOUS
 10
366.624660024
 20
31.3133515913
 11
366.798097524
 21
31.3778789641
  0
LINE
  8
0
 62
7
  6
CONTINUOUS
 10
368.6480977445
 20
31.3456152777
 11
368.7637229651
 21
31.3778789641
  0
LINE
  8
0
 62
7
  6
CONTINUOUS
 10
368.6480977445
 20
31.5069337098
 11
368.4168479651
 21
31.4424063369
  0
LINE
  8
0
 62
7
  6
CONTINUOUS
 10
364.369972524
 20
30.7003414814
 11
364.0809101343
 21
30.6358140973
  0
LINE
  8
0
 62
7
  6
CONTINUOUS
 10
361.6527851343
 20
31.3778789641
 11
361.8840352445
 21
31.4101426505
  0
LINE
  8
0
 62
7
  6
CONTINUOUS
 10
361.8840352445
 20
31.5391973962
 11
361.6527851343
 21
31.5069337098
  0
LINE
  8
0
 62
7
  6
CONTINUOUS
 10
359.4559102445
 20
31.3778789641
 11
359.6871602721
 21
31.4101426505
  0
LINE
  8
0
 62
7
  6
CONTINUOUS
 10
365.9752749986
 20
34.9329888485
 11
366.6310127035
 21
34.9329888485
  0
LINE
  8
0
 62
7
  6
CONTINUOUS
 10
363.6184102445
 20
30.9907146818
 11
363.7340351343
 21
31.0229783683
  0
LINE
  8
0
 62
7
  6
CONTINUOUS
 10
363.6184102445
 20
31.1520331591
 11
363.3871601343
 21
31.0875057863
  0
LINE
  8
0
 62
7
  6
CONTINUOUS
 10
363.5027853548
 20
31.3456152777
 11
363.6184102445
 21
31.3778789641
  0
LINE
  8
0
 62
7
  6
CONTINUOUS
 10
360.1496602445
 20
30.5390230296
 11
360.3809101894
 21
30.6035504109
  0
LINE
  8
0
 62
7
  6
CONTINUOUS
 10
363.4449727445
 20
31.5069337098
 11
363.3293478548
 21
31.4746700234
  0
LINE
  8
0
 62
7
  6
CONTINUOUS
 10
359.3980977583
 20
31.5069337098
 11
359.2246602583
 21
31.4746700234
  0
LINE
  8
0
 62
7
  6
CONTINUOUS
 10
370.1556028675
 20
36.0805298321
 11
368.7621602445
 21
36.0805298321
  0
LINE
  8
0
 62
7
  6
CONTINUOUS
 10
366.7949471298
 20
36.0805298321
 11
366.3823757812
 21
36.0805298321
  0
LINE
  8
0
 62
7
  6
CONTINUOUS
 10
365.1556028675
 20
36.0805298321
 11
363.7621602445
 21
36.0805298321
  0
LINE
  8
0
 62
7
  6
CONTINUOUS
 10
363.4342913921
 20
36.0805298321
 11
362.0408487691
 21
36.0805298321
  0
LINE
  8
0
 62
7
  6
CONTINUOUS
 10
360.1556028675
 20
36.0805298321
 11
358.7621602445
 21
36.0805298321
  0
LINE
  8
0
 62
7
  6
CONTINUOUS
 10
359.3402852307
 20
31.3456152777
 11
359.4559102445
 21
31.3778789641
  0
CIRCLE
  8
0
 62
7
  6
CONTINUOUS
 10
369.458881556
 20
38.4165954059
 40
2.0901639344
  0
ARC
  8
0
 62
7
  6
CONTINUOUS
 10
360.4015045068
 20
33.9493822911
 40
1.6393442623
 50
180.0
 51
270.0
  0
ARC
  8
0
 62
7
  6
CONTINUOUS
 10
366.7949471298
 20
34.4411855698
 40
1.6393442623
 50
0.0
 51
90.0
  0
ARC
  8
0
 62
7
  6
CONTINUOUS
 10
360.8140758554
 20
33.7854478649
 40
1.4754098361
 50
270.0
 51
326.2510114041
  0
ARC
  8
0
 62
7
  6
CONTINUOUS
 10
366.3823757812
 20
34.6051199961
 40
1.4754098361
 50
90.0
 51
146.2510114041
  0
ARC
  8
0
 62
7
  6
CONTINUOUS
 10
361.221176638
 20
34.2772511436
 40
0.8196721311
 50
270.0
 51
360.0
  0
ARC
  8
0
 62
7
  6
CONTINUOUS
 10
365.9752749986
 20
34.1133167174
 40
0.8196721311
 50
90.0
 51
180.0
  0
ARC
  8
0
 62
7
  6
CONTINUOUS
 10
360.565438933
 20
33.867415078
 40
0.4098360656
 50
180.0
 51
270.0
  0
ARC
  8
0
 62
7
  6
CONTINUOUS
 10
366.6310127035
 20
34.5231527829
 40
0.4098360656
 50
0.0
 51
90.0
  0
SOLID
  8
0
 62
7
  6
CONTINUOUS
 10
365.4684104651
 20
31.8618347111
 11
365.4684104651
 21
32.0231531947
 12
365.757472524
 22
31.8618347111
 13
365.757472524
 23
32.0231531947
  0
SOLID
  8
0
 62
7
  6
CONTINUOUS
 10
359.744972717
 20
31.5391977439
 11
360.1496602445
 21
31.5069333244
 12
359.3980977583
 22
31.5069333244
 13
359.3980977583
 23
31.5069333244
  0
SOLID
  8
0
 62
7
  6
CONTINUOUS
 10
359.2246602583
 20
31.4746706537
 11
359.3980977583
 21
31.5069333244
 12
360.1496602445
 22
31.5069333244
 13
360.1496602445
 23
31.5069333244
  0
SOLID
  8
0
 62
7
  6
CONTINUOUS
 10
360.1496602445
 20
31.5069333244
 11
360.3809101894
 21
31.4424063504
 12
359.2246602583
 22
31.4746706537
 13
359.2246602583
 23
31.4746706537
  0
SOLID
  8
0
 62
7
  6
CONTINUOUS
 10
359.0512227376
 20
31.4101419116
 11
359.2246602583
 21
31.4746706537
 12
360.3809101894
 22
31.4424063504
 13
360.3809101894
 23
31.4424063504
  0
SOLID
  8
0
 62
7
  6
CONTINUOUS
 10
359.0512227376
 20
31.4101419116
 11
360.3809101894
 21
31.4424063504
 12
359.6871602721
 22
31.4101419116
 13
359.6871602721
 23
31.4101419116
  0
SOLID
  8
0
 62
7
  6
CONTINUOUS
 10
359.6871602721
 20
31.4101419116
 11
360.3809101894
 21
31.4424063504
 12
360.091847717
 22
31.3778792603
 13
360.091847717
 23
31.3778792603
  0
SOLID
  8
0
 62
7
  6
CONTINUOUS
 10
360.3809101894
 20
31.4424063504
 11
360.5543476894
 21
31.345614957
 12
360.091847717
 22
31.3778792603
 13
360.091847717
 23
31.3778792603
  0
SOLID
  8
0
 62
7
  6
CONTINUOUS
 10
360.2652852997
 20
31.3133521701
 11
360.091847717
 21
31.3778792603
 12
360.5543476894
 22
31.345614957
 13
360.5543476894
 23
31.345614957
  0
SOLID
  8
0
 62
7
  6
CONTINUOUS
 10
360.2652852997
 20
31.3133521701
 11
360.5543476894
 21
31.345614957
 12
360.3230977445
 22
31.2165606992
 13
360.3230977445
 23
31.2165606992
  0
SOLID
  8
0
 62
7
  6
CONTINUOUS
 10
360.5543476894
 20
31.345614957
 11
360.6121602997
 21
31.2165606992
 12
360.3230977445
 22
31.2165606992
 13
360.3230977445
 23
31.2165606992
  0
SOLID
  8
0
 62
7
  6
CONTINUOUS
 10
361.6527851343
 20
31.5069329918
 11
361.8840352445
 21
31.5391972951
 12
362.1152853548
 22
31.5391972951
 13
362.1152853548
 23
31.5391972951
  0
SOLID
  8
0
 62
7
  6
CONTINUOUS
 10
362.1152853548
 20
31.5391972951
 11
362.2887228548
 21
31.5069329918
 12
361.6527851343
 22
31.5069329918
 13
361.6527851343
 23
31.5069329918
  0
SOLID
  8
0
 62
7
  6
CONTINUOUS
 10
361.4793477997
 20
31.4424059016
 11
361.6527851343
 21
31.5069329918
 12
362.2887228548
 22
31.5069329918
 13
362.2887228548
 23
31.5069329918
  0
SOLID
  8
0
 62
7
  6
CONTINUOUS
 10
362.2887228548
 20
31.5069329918
 11
362.4621603548
 21
31.4424059016
 12
361.4793477997
 22
31.4424059016
 13
361.4793477997
 23
31.4424059016
  0
SOLID
  8
0
 62
7
  6
CONTINUOUS
 10
362.4621603548
 20
31.4424059016
 11
361.8840352445
 21
31.4101420472
 12
361.4793477997
 22
31.4424059016
 13
361.4793477997
 23
31.4424059016
  0
SOLID
  8
0
 62
7
  6
CONTINUOUS
 10
361.3637227445
 20
31.3778788115
 11
361.4793477997
 21
31.4424059016
 12
361.8840352445
 22
31.4101420472
 13
361.8840352445
 23
31.4101420472
  0
SOLID
  8
0
 62
7
  6
CONTINUOUS
 10
361.8840352445
 20
31.4101420472
 11
361.6527851343
 21
31.3778788115
 12
361.3637227445
 22
31.3778788115
 13
361.3637227445
 23
31.3778788115
  0
SOLID
  8
0
 62
7
  6
CONTINUOUS
 10
361.8840352445
 20
31.4101420472
 11
362.4621603548
 21
31.4424059016
 12
362.1152853548
 22
31.3778788115
 13
362.1152853548
 23
31.3778788115
  0
SOLID
  8
0
 62
7
  6
CONTINUOUS
 10
362.4621603548
 20
31.4424059016
 11
362.5777852445
 21
31.3778788115
 12
362.1152853548
 22
31.3778788115
 13
362.1152853548
 23
31.3778788115
  0
SOLID
  8
0
 62
7
  6
CONTINUOUS
 10
362.2309102445
 20
31.345614957
 11
362.1152853548
 21
31.3778788115
 12
362.5777852445
 22
31.3778788115
 13
362.5777852445
 23
31.3778788115
  0
SOLID
  8
0
 62
7
  6
CONTINUOUS
 10
362.5777852445
 20
31.3778788115
 11
362.6355978548
 21
31.3133517213
 12
362.2309102445
 22
31.345614957
 13
362.2309102445
 23
31.345614957
  0
SOLID
  8
0
 62
7
  6
CONTINUOUS
 10
362.3465351343
 20
31.2810878668
 11
362.2309102445
 21
31.345614957
 12
362.6355978548
 22
31.3133517213
 13
362.6355978548
 23
31.3133517213
  0
SOLID
  8
0
 62
7
  6
CONTINUOUS
 10
362.3465351343
 20
31.2810878668
 11
362.6355978548
 21
31.3133517213
 12
362.4043477445
 22
31.1520332377
 13
362.4043477445
 23
31.1520332377
  0
SOLID
  8
0
 62
7
  6
CONTINUOUS
 10
362.6355978548
 20
31.3133517213
 11
362.6934101343
 21
31.1520332377
 12
362.4043477445
 22
31.1520332377
 13
362.4043477445
 23
31.1520332377
  0
SOLID
  8
0
 62
7
  6
CONTINUOUS
 10
361.6527851343
 20
31.3778788115
 11
361.4793477997
 21
31.3133517213
 12
361.3637227445
 22
31.3778788115
 13
361.3637227445
 23
31.3778788115
  0
SOLID
  8
0
 62
7
  6
CONTINUOUS
 10
361.4793477997
 20
31.3133517213
 11
361.3637227445
 21
31.2488235635
 12
361.3637227445
 22
31.3778788115
 13
361.3637227445
 23
31.3778788115
  0
SOLID
  8
0
 62
7
  6
CONTINUOUS
 10
361.3637227445
 20
31.2488235635
 11
361.0746601894
 21
30.5067593033
 12
361.3637227445
 22
31.3778788115
 13
361.3637227445
 23
31.3778788115
  0
SOLID
  8
0
 62
7
  6
CONTINUOUS
 10
361.3637227445
 20
31.3778788115
 11
361.0746601894
 21
30.5067593033
 12
361.3637227445
 22
32.0231527459
 13
361.3637227445
 23
32.0231527459
  0
SOLID
  8
0
 62
7
  6
CONTINUOUS
 10
361.0746601894
 20
30.5067593033
 11
361.0746601894
 21
32.0231527459
 12
361.3637227445
 22
32.0231527459
 13
361.3637227445
 23
32.0231527459
  0
SOLID
  8
0
 62
7
  6
CONTINUOUS
 10
361.3637227445
 20
31.2488235635
 11
361.3637227445
 21
30.5067593033
 12
361.0746601894
 22
30.5067593033
 13
361.0746601894
 23
30.5067593033
  0
SOLID
  8
0
 62
7
  6
CONTINUOUS
 10
362.4043477445
 20
30.5067593033
 11
362.4043477445
 21
31.1520332377
 12
362.6934101343
 22
31.1520332377
 13
362.6934101343
 23
31.1520332377
  0
SOLID
  8
0
 62
7
  6
CONTINUOUS
 10
362.6934101343
 20
31.1520332377
 11
362.6934101343
 21
30.5067593033
 12
362.4043477445
 22
30.5067593033
 13
362.4043477445
 23
30.5067593033
  0
SOLID
  8
0
 62
7
  6
CONTINUOUS
 10
363.4449727445
 20
31.506933758
 11
363.8496603548
 21
31.5391977507
 12
364.1965353548
 22
31.5391977507
 13
364.1965353548
 23
31.5391977507
  0
SOLID
  8
0
 62
7
  6
CONTINUOUS
 10
364.1965353548
 20
31.5391977507
 11
364.543410024
 21
31.506933758
 12
363.4449727445
 22
31.506933758
 13
363.4449727445
 23
31.506933758
  0
SOLID
  8
0
 62
7
  6
CONTINUOUS
 10
363.3293478548
 20
31.4746706537
 11
363.4449727445
 21
31.506933758
 12
364.543410024
 22
31.506933758
 13
364.543410024
 23
31.506933758
  0
SOLID
  8
0
 62
7
  6
CONTINUOUS
 10
364.543410024
 20
31.506933758
 11
364.716847524
 21
31.4424063504
 12
363.3293478548
 22
31.4746706537
 13
363.3293478548
 23
31.4746706537
  0
SOLID
  8
0
 62
7
  6
CONTINUOUS
 10
363.2137226343
 20
31.4101417797
 11
363.3293478548
 21
31.4746706537
 12
364.716847524
 22
31.4424063504
 13
364.716847524
 23
31.4424063504
  0
SOLID
  8
0
 62
7
  6
CONTINUOUS
 10
363.2137226343
 20
31.4101417797
 11
364.716847524
 21
31.4424063504
 12
363.8496603548
 22
31.4101417797
 13
363.8496603548
 23
31.4101417797
  0
SOLID
  8
0
 62
7
  6
CONTINUOUS
 10
363.8496603548
 20
31.4101417797
 11
364.716847524
 21
31.4424063504
 12
364.1965353548
 22
31.4101417797
 13
364.1965353548
 23
31.4101417797
  0
SOLID
  8
0
 62
7
  6
CONTINUOUS
 10
364.1965353548
 20
31.4101417797
 11
364.716847524
 21
31.4424063504
 12
364.4277854651
 22
31.3778793357
 13
364.4277854651
 23
31.3778793357
  0
SOLID
  8
0
 62
7
  6
CONTINUOUS
 10
364.716847524
 20
31.4424063504
 11
364.8324727445
 21
31.3778793357
 12
364.4277854651
 22
31.3778793357
 13
364.4277854651
 23
31.3778793357
  0
SOLID
  8
0
 62
7
  6
CONTINUOUS
 10
363.1559103548
 20
31.3456153429
 11
363.2137226343
 21
31.4101417797
 12
363.8496603548
 22
31.4101417797
 13
363.8496603548
 23
31.4101417797
  0
SOLID
  8
0
 62
7
  6
CONTINUOUS
 10
364.543410024
 20
31.3456153429
 11
364.4277854651
 21
31.3778793357
 12
364.8324727445
 22
31.3778793357
 13
364.8324727445
 23
31.3778793357
  0
SOLID
  8
0
 62
7
  6
CONTINUOUS
 10
364.543410024
 20
31.3456153429
 11
364.8324727445
 21
31.3778793357
 12
364.6012229651
 22
31.2810881318
 13
364.6012229651
 23
31.2810881318
  0
SOLID
  8
0
 62
7
  6
CONTINUOUS
 10
364.8324727445
 20
31.3778793357
 11
364.890285024
 21
31.2810881318
 12
364.6012229651
 22
31.2810881318
 13
364.6012229651
 23
31.2810881318
  0
SOLID
  8
0
 62
7
  6
CONTINUOUS
 10
364.6012229651
 20
31.1842964734
 11
364.6012229651
 21
31.2810881318
 12
364.890285024
 22
31.2810881318
 13
364.890285024
 23
31.2810881318
  0
SOLID
  8
0
 62
7
  6
CONTINUOUS
 10
364.6012229651
 20
31.1842964734
 11
364.890285024
 21
31.2810881318
 12
364.6012229651
 22
31.0552422931
 13
364.6012229651
 23
31.0552422931
  0
SOLID
  8
0
 62
7
  6
CONTINUOUS
 10
364.6012229651
 20
31.0552422931
 11
364.890285024
 21
31.2810881318
 12
364.6012229651
 22
30.8616599362
 13
364.6012229651
 23
30.8616599362
  0
SOLID
  8
0
 62
7
  6
CONTINUOUS
 10
364.890285024
 20
31.2810881318
 11
364.890285024
 21
30.7648681127
 12
364.6012229651
 22
30.8616599362
 13
364.6012229651
 23
30.8616599362
  0
SOLID
  8
0
 62
7
  6
CONTINUOUS
 10
366.798097524
 20
31.5069339419
 11
367.0293479651
 21
31.5391976292
 12
367.2605977445
 22
31.5391976292
 13
367.2605977445
 23
31.5391976292
  0
SOLID
  8
0
 62
7
  6
CONTINUOUS
 10
367.2605977445
 20
31.5391976292
 11
367.4340352445
 21
31.5069339419
 12
366.798097524
 22
31.5069339419
 13
366.798097524
 23
31.5069339419
  0
SOLID
  8
0
 62
7
  6
CONTINUOUS
 10
366.624660024
 20
31.4424065674
 11
366.798097524
 21
31.5069339419
 12
367.4340352445
 22
31.5069339419
 13
367.4340352445
 23
31.5069339419
  0
SOLID
  8
0
 62
7
  6
CONTINUOUS
 10
367.4340352445
 20
31.5069339419
 11
367.6074727445
 21
31.4424065674
 12
366.624660024
 22
31.4424065674
 13
366.624660024
 23
31.4424065674
  0
SOLID
  8
0
 62
7
  6
CONTINUOUS
 10
367.6074727445
 20
31.4424065674
 11
367.0293479651
 21
31.4101420472
 12
366.624660024
 22
31.4424065674
 13
366.624660024
 23
31.4424065674
  0
SOLID
  8
0
 62
7
  6
CONTINUOUS
 10
366.5090354651
 20
31.377879193
 11
366.624660024
 21
31.4424065674
 12
367.0293479651
 22
31.4101420472
 13
367.0293479651
 23
31.4101420472
  0
SOLID
  8
0
 62
7
  6
CONTINUOUS
 10
367.0293479651
 20
31.4101420472
 11
366.798097524
 21
31.377879193
 12
366.5090354651
 22
31.377879193
 13
366.5090354651
 23
31.377879193
  0
SOLID
  8
0
 62
7
  6
CONTINUOUS
 10
367.0293479651
 20
31.4101420472
 11
367.6074727445
 21
31.4424065674
 12
367.2605977445
 22
31.377879193
 13
367.2605977445
 23
31.377879193
  0
SOLID
  8
0
 62
7
  6
CONTINUOUS
 10
367.6074727445
 20
31.4424065674
 11
367.7230979651
 21
31.377879193
 12
367.2605977445
 22
31.377879193
 13
367.2605977445
 23
31.377879193
  0
SOLID
  8
0
 62
7
  6
CONTINUOUS
 10
367.3762229651
 20
31.345614957
 11
367.2605977445
 21
31.377879193
 12
367.7230979651
 22
31.377879193
 13
367.7230979651
 23
31.377879193
  0
SOLID
  8
0
 62
7
  6
CONTINUOUS
 10
367.3762229651
 20
31.345614957
 11
367.7230979651
 21
31.377879193
 12
367.491847524
 22
31.2810881312
 13
367.491847524
 23
31.2810881312
  0
SOLID
  8
0
 62
7
  6
CONTINUOUS
 10
367.7230979651
 20
31.377879193
 11
367.7809102445
 21
31.2810881312
 12
367.491847524
 22
31.2810881312
 13
367.491847524
 23
31.2810881312
  0
SOLID
  8
0
 62
7
  6
CONTINUOUS
 10
367.5496604651
 20
31.119769695
 11
367.491847524
 21
31.2810881312
 12
367.7809102445
 22
31.2810881312
 13
367.7809102445
 23
31.2810881312
  0
SOLID
  8
0
 62
7
  6
CONTINUOUS
 10
367.7809102445
 20
31.2810881312
 11
367.838722524
 21
31.119769695
 12
367.5496604651
 22
31.119769695
 13
367.5496604651
 23
31.119769695
  0
SOLID
  8
0
 62
7
  6
CONTINUOUS
 10
366.798097524
 20
31.377879193
 11
366.624660024
 21
31.3133521701
 12
366.5090354651
 22
31.377879193
 13
366.5090354651
 23
31.377879193
  0
SOLID
  8
0
 62
7
  6
CONTINUOUS
 10
366.624660024
 20
31.3133521701
 11
366.5090354651
 21
31.2488235635
 12
366.5090354651
 22
31.377879193
 13
366.5090354651
 23
31.377879193
  0
SOLID
  8
0
 62
7
  6
CONTINUOUS
 10
366.5090354651
 20
31.2488235635
 11
366.2199727445
 21
30.5067596374
 12
366.5090354651
 22
31.377879193
 13
366.5090354651
 23
31.377879193
  0
SOLID
  8
0
 62
7
  6
CONTINUOUS
 10
366.5090354651
 20
31.377879193
 11
366.2199727445
 21
30.5067596374
 12
366.5090354651
 22
31.5391976292
 13
366.5090354651
 23
31.5391976292
  0
SOLID
  8
0
 62
7
  6
CONTINUOUS
 10
366.2199727445
 20
30.5067596374
 11
366.2199727445
 21
31.5391976292
 12
366.5090354651
 22
31.5391976292
 13
366.5090354651
 23
31.5391976292
  0
SOLID
  8
0
 62
7
  6
CONTINUOUS
 10
366.5090354651
 20
31.2488235635
 11
366.5090354651
 21
30.5067596374
 12
366.2199727445
 22
30.5067596374
 13
366.2199727445
 23
30.5067596374
  0
SOLID
  8
0
 62
7
  6
CONTINUOUS
 10
367.5496604651
 20
30.5067596374
 11
367.5496604651
 21
31.119769695
 12
367.838722524
 22
31.119769695
 13
367.838722524
 23
31.119769695
  0
SOLID
  8
0
 62
7
  6
CONTINUOUS
 10
367.838722524
 20
31.119769695
 11
367.838722524
 21
30.5067596374
 12
367.5496604651
 22
30.5067596374
 13
367.5496604651
 23
30.5067596374
  0
SOLID
  8
0
 62
7
  6
CONTINUOUS
 10
368.6480977445
 20
31.5069334157
 11
368.9949727445
 21
31.539197762
 12
369.3418477445
 22
31.539197762
 13
369.3418477445
 23
31.539197762
  0
SOLID
  8
0
 62
7
  6
CONTINUOUS
 10
369.3418477445
 20
31.539197762
 11
369.6887227445
 21
31.5069334157
 12
368.6480977445
 22
31.5069334157
 13
368.6480977445
 23
31.5069334157
  0
SOLID
  8
0
 62
7
  6
CONTINUOUS
 10
368.4168479651
 20
31.4424063504
 11
368.6480977445
 21
31.5069334157
 12
369.6887227445
 22
31.5069334157
 13
369.6887227445
 23
31.5069334157
  0
SOLID
  8
0
 62
7
  6
CONTINUOUS
 10
368.4168479651
 20
31.4424063504
 11
369.6887227445
 21
31.5069334406
 12
369.8621602445
 22
31.4746706537
 13
369.8621602445
 23
31.4746706537
  0
SOLID
  8
0
 62
7
  6
CONTINUOUS
 10
368.4168479651
 20
31.4424063504
 11
369.8621602445
 21
31.4746706537
 12
368.9949727445
 22
31.4101421267
 13
368.9949727445
 23
31.4101421267
  0
SOLID
  8
0
 62
7
  6
CONTINUOUS
 10
368.9949727445
 20
31.4101421267
 11
369.8621602445
 21
31.4746706537
 12
369.3418477445
 22
31.4101421267
 13
369.3418477445
 23
31.4101421267
  0
SOLID
  8
0
 62
7
  6
CONTINUOUS
 10
369.8621602445
 20
31.4746706537
 11
370.0355977445
 21
31.4101421267
 12
369.3418477445
 22
31.4101421267
 13
369.3418477445
 23
31.4101421267
  0
SOLID
  8
0
 62
7
  6
CONTINUOUS
 10
369.6887227445
 20
31.3778792603
 11
369.3418477445
 21
31.4101421267
 12
370.0355977445
 22
31.4101421267
 13
370.0355977445
 23
31.4101421267
  0
SOLID
  8
0
 62
7
  6
CONTINUOUS
 10
368.3012227445
 20
31.3456148845
 11
368.4168479651
 21
31.4424063504
 12
368.9949727445
 22
31.4101421267
 13
368.9949727445
 23
31.4101421267
  0
SOLID
  8
0
 62
7
  6
CONTINUOUS
 10
369.6887227445
 20
31.3778792603
 11
370.0355977445
 21
31.4101421267
 12
369.8043479651
 22
31.3456148845
 13
369.8043479651
 23
31.3456148845
  0
SOLID
  8
0
 62
7
  6
CONTINUOUS
 10
369.8043479651
 20
31.3456148845
 11
370.0355977445
 21
31.4101421267
 12
369.8621602445
 22
31.281087868
 13
369.8621602445
 23
31.281087868
  0
SOLID
  8
0
 62
7
  6
CONTINUOUS
 10
370.0355977445
 20
31.4101421267
 11
370.1512223035
 21
31.281087868
 12
369.8621602445
 22
31.281087868
 13
369.8621602445
 23
31.281087868
  0
SOLID
  8
0
 62
7
  6
CONTINUOUS
 10
359.4559102445
 20
31.3778792603
 11
358.9355977445
 21
31.3456148963
 12
359.6871602721
 22
31.4101421155
 13
359.6871602721
 23
31.4101421155
  0
SOLID
  8
0
 62
7
  6
CONTINUOUS
 10
358.9355977445
 20
31.3456148963
 11
359.0512227376
 21
31.4101421155
 12
359.6871602721
 22
31.4101421155
 13
359.6871602721
 23
31.4101421155
  0
SOLID
  8
0
 62
7
  6
CONTINUOUS
 10
359.4559102445
 20
31.3778792603
 11
359.3402852307
 21
31.3456148963
 12
358.9355977445
 22
31.3456148963
 13
358.9355977445
 23
31.3456148963
  0
SOLID
  8
0
 62
7
  6
CONTINUOUS
 10
358.8199727462
 20
31.2165607767
 11
358.9355977445
 21
31.3456148963
 12
359.3402852307
 22
31.3456148963
 13
359.3402852307
 23
31.3456148963
  0
SOLID
  8
0
 62
7
  6
CONTINUOUS
 10
363.1559103548
 20
31.3456149608
 11
363.8496603548
 21
31.4101420472
 12
363.6184102445
 22
31.3778792603
 13
363.6184102445
 23
31.3778792603
  0
SOLID
  8
0
 62
7
  6
CONTINUOUS
 10
363.6184102445
 20
31.3778792603
 11
363.5027853548
 21
31.3456149608
 12
363.1559103548
 22
31.3456149608
 13
363.1559103548
 23
31.3456149608
  0
SOLID
  8
0
 62
7
  6
CONTINUOUS
 10
363.1559103548
 20
31.2810878707
 11
363.1559103548
 21
31.3456149608
 12
363.5027853548
 22
31.3456149608
 13
363.5027853548
 23
31.3456149608
  0
SOLID
  8
0
 62
7
  6
CONTINUOUS
 10
363.5027853548
 20
31.3456149608
 11
363.4449727445
 21
31.2810878707
 12
363.1559103548
 22
31.2810878707
 13
363.1559103548
 23
31.2810878707
  0
SOLID
  8
0
 62
7
  6
CONTINUOUS
 10
368.3012227445
 20
31.3456149608
 11
368.9949727445
 21
31.4101420472
 12
368.7637229651
 22
31.3778792603
 13
368.7637229651
 23
31.3778792603
  0
SOLID
  8
0
 62
7
  6
CONTINUOUS
 10
368.7637229651
 20
31.3778792603
 11
368.6480977445
 21
31.3456149608
 12
368.3012227445
 22
31.3456149608
 13
368.3012227445
 23
31.3456149608
  0
SOLID
  8
0
 62
7
  6
CONTINUOUS
 10
368.3012227445
 20
31.2810878707
 11
368.3012227445
 21
31.3456149608
 12
368.6480977445
 22
31.3456149608
 13
368.6480977445
 23
31.3456149608
  0
SOLID
  8
0
 62
7
  6
CONTINUOUS
 10
368.6480977445
 20
31.3456149608
 11
368.5902854651
 21
31.2810878707
 12
368.3012227445
 22
31.2810878707
 13
368.3012227445
 23
31.2810878707
  0
SOLID
  8
0
 62
7
  6
CONTINUOUS
 10
368.4168479651
 20
31.1520336865
 11
368.3012227445
 21
31.2810878707
 12
368.5902854651
 22
31.2810878707
 13
368.5902854651
 23
31.2810878707
  0
SOLID
  8
0
 62
7
  6
CONTINUOUS
 10
358.8199727462
 20
31.2165607767
 11
359.3402852307
 21
31.345614957
 12
359.1668477307
 22
31.2488235635
 13
359.1668477307
 23
31.2488235635
  0
SOLID
  8
0
 62
7
  6
CONTINUOUS
 10
359.1668477307
 20
31.2488235635
 11
359.1090352445
 21
31.1842964734
 12
358.8199727462
 22
31.2165607767
 13
358.8199727462
 23
31.2165607767
  0
SOLID
  8
0
 62
7
  6
CONTINUOUS
 10
358.7621602445
 20
31.0229779898
 11
358.8199727462
 21
31.2165607767
 12
359.1090352445
 22
31.1842964734
 13
359.1090352445
 23
31.1842964734
  0
SOLID
  8
0
 62
7
  6
CONTINUOUS
 10
363.6184102445
 20
31.1520336865
 11
363.9652852445
 21
31.1842964611
 12
364.6012229651
 22
31.1842964611
 13
364.6012229651
 23
31.1842964611
  0
SOLID
  8
0
 62
7
  6
CONTINUOUS
 10
363.6184102445
 20
31.1520336865
 11
364.6012229651
 21
31.1842964611
 12
363.3871601343
 22
31.0875057863
 13
363.3871601343
 23
31.0875057863
  0
SOLID
  8
0
 62
7
  6
CONTINUOUS
 10
363.3871601343
 20
31.0875057863
 11
364.6012229651
 21
31.1842964611
 12
363.9652852445
 22
31.0552422808
 13
363.9652852445
 23
31.0552422808
  0
SOLID
  8
0
 62
7
  6
CONTINUOUS
 10
364.6012229651
 20
31.1842964611
 11
364.6012229651
 21
31.0552422808
 12
363.9652852445
 22
31.0552422808
 13
363.9652852445
 23
31.0552422808
  0
SOLID
  8
0
 62
7
  6
CONTINUOUS
 10
368.4168479651
 20
31.1520338754
 11
368.5902854651
 21
31.2810878668
 12
368.6480977445
 22
31.2165607767
 13
368.6480977445
 23
31.2165607767
  0
SOLID
  8
0
 62
7
  6
CONTINUOUS
 10
368.6480977445
 20
31.2165607767
 11
368.8215352445
 21
31.1520338754
 12
368.4168479651
 22
31.1520338754
 13
368.4168479651
 23
31.1520338754
  0
SOLID
  8
0
 62
7
  6
CONTINUOUS
 10
368.6480977445
 20
31.0552422931
 11
368.4168479651
 21
31.1520338754
 12
368.8215352445
 22
31.1520338754
 13
368.8215352445
 23
31.1520338754
  0
SOLID
  8
0
 62
7
  6
CONTINUOUS
 10
368.8215352445
 20
31.1520338754
 11
369.8043479651
 21
30.9907152029
 12
368.6480977445
 22
31.0552422931
 13
368.6480977445
 23
31.0552422931
  0
SOLID
  8
0
 62
7
  6
CONTINUOUS
 10
369.6309104651
 20
30.8939239876
 11
368.6480977445
 21
31.0552422931
 12
369.8043479651
 22
30.9907152029
 13
369.8043479651
 23
30.9907152029
  0
SOLID
  8
0
 62
7
  6
CONTINUOUS
 10
369.8043479651
 20
30.9907152029
 11
370.0355977445
 21
30.8939239876
 12
369.6309104651
 22
30.8939239876
 13
369.6309104651
 23
30.8939239876
  0
SOLID
  8
0
 62
7
  6
CONTINUOUS
 10
369.8043479651
 20
30.8293967193
 11
369.6309104651
 21
30.8939239876
 12
370.0355977445
 22
30.8939239876
 13
370.0355977445
 23
30.8939239876
  0
SOLID
  8
0
 62
7
  6
CONTINUOUS
 10
369.8043479651
 20
30.8293967193
 11
370.0355977445
 21
30.8939239876
 12
369.8621602445
 22
30.7648682694
 13
369.8621602445
 23
30.7648682694
  0
SOLID
  8
0
 62
7
  6
CONTINUOUS
 10
370.0355977445
 20
30.8939239876
 11
370.1512223035
 21
30.7648682694
 12
369.8621602445
 22
30.7648682694
 13
369.8621602445
 23
30.7648682694
  0
SOLID
  8
0
 62
7
  6
CONTINUOUS
 10
369.8043479651
 20
30.7003411846
 11
369.8621602445
 21
30.7648682694
 12
370.1512223035
 22
30.7648682694
 13
370.1512223035
 23
30.7648682694
  0
SOLID
  8
0
 62
7
  6
CONTINUOUS
 10
370.1512223035
 20
30.7648682694
 11
370.1512223035
 21
30.7003411846
 12
369.8043479651
 22
30.7003411846
 13
369.8043479651
 23
30.7003411846
  0
SOLID
  8
0
 62
7
  6
CONTINUOUS
 10
369.6887227445
 20
30.6680782357
 11
369.8043479651
 21
30.7003411846
 12
370.1512223035
 22
30.7003411846
 13
370.1512223035
 23
30.7003411846
  0
SOLID
  8
0
 62
7
  6
CONTINUOUS
 10
369.6887227445
 20
30.6680782357
 11
370.1512223035
 21
30.7003411846
 12
369.4574729651
 22
30.6358140998
 13
369.4574729651
 23
30.6358140998
  0
SOLID
  8
0
 62
7
  6
CONTINUOUS
 10
370.1512223035
 20
30.7003411846
 11
370.0355977445
 21
30.6035511455
 12
369.4574729651
 22
30.6358140998
 13
369.4574729651
 23
30.6358140998
  0
SOLID
  8
0
 62
7
  6
CONTINUOUS
 10
370.0355977445
 20
30.6035511455
 11
368.5902854651
 21
30.5712868422
 12
369.4574729651
 22
30.6358140998
 13
369.4574729651
 23
30.6358140998
  0
SOLID
  8
0
 62
7
  6
CONTINUOUS
 10
369.4574729651
 20
30.6358140998
 11
368.5902854651
 21
30.5712868422
 12
369.1105979651
 22
30.6358140998
 13
369.1105979651
 23
30.6358140998
  0
SOLID
  8
0
 62
7
  6
CONTINUOUS
 10
368.5902854651
 20
30.5712868422
 11
368.4168479651
 21
30.6358140998
 12
369.1105979651
 22
30.6358140998
 13
369.1105979651
 23
30.6358140998
  0
SOLID
  8
0
 62
7
  6
CONTINUOUS
 10
368.5902854651
 20
30.5712868422
 11
370.0355977445
 21
30.6035511455
 12
368.7637229651
 22
30.5390223111
 13
368.7637229651
 23
30.5390223111
  0
SOLID
  8
0
 62
7
  6
CONTINUOUS
 10
370.0355977445
 20
30.6035511455
 11
369.8043479651
 21
30.5390223111
 12
368.7637229651
 22
30.5390223111
 13
368.7637229651
 23
30.5390223111
  0
SOLID
  8
0
 62
7
  6
CONTINUOUS
 10
369.1105979651
 20
30.5067599302
 11
368.7637229651
 21
30.5390223111
 12
369.8043479651
 22
30.5390223111
 13
369.8043479651
 23
30.5390223111
  0
SOLID
  8
0
 62
7
  6
CONTINUOUS
 10
369.8043479651
 20
30.5390223111
 11
369.4574729651
 21
30.5067599302
 12
369.1105979651
 22
30.5067599302
 13
369.1105979651
 23
30.5067599302
  0
SOLID
  8
0
 62
7
  6
CONTINUOUS
 10
358.7621602445
 20
31.0229779898
 11
359.1090352445
 21
31.1842964734
 12
359.0512227376
 22
31.0552422931
 13
359.0512227376
 23
31.0552422931
  0
SOLID
  8
0
 62
7
  6
CONTINUOUS
 10
359.0512227376
 20
31.0552422931
 11
359.0512227376
 21
30.9584509954
 12
358.7621602445
 22
31.0229779898
 13
358.7621602445
 23
31.0229779898
  0
SOLID
  8
0
 62
7
  6
CONTINUOUS
 10
358.8199727462
 20
30.8293967193
 11
358.7621602445
 21
31.0229779898
 12
359.0512227376
 22
30.9584509954
 13
359.0512227376
 23
30.9584509954
  0
SOLID
  8
0
 62
7
  6
CONTINUOUS
 10
359.0512227376
 20
30.9584509954
 11
359.1668477307
 21
30.797132416
 12
358.8199727462
 22
30.8293967193
 13
358.8199727462
 23
30.8293967193
  0
SOLID
  8
0
 62
7
  6
CONTINUOUS
 10
358.9355977445
 20
30.7003413087
 11
358.8199727462
 21
30.8293967193
 12
359.1668477307
 22
30.797132416
 13
359.1668477307
 23
30.797132416
  0
SOLID
  8
0
 62
7
  6
CONTINUOUS
 10
359.1668477307
 20
30.797132416
 11
359.3402852307
 21
30.7003413087
 12
358.9355977445
 22
30.7003413087
 13
358.9355977445
 23
30.7003413087
  0
SOLID
  8
0
 62
7
  6
CONTINUOUS
 10
359.0512227376
 20
30.6358140759
 11
358.9355977445
 21
30.7003413087
 12
359.3402852307
 22
30.7003413087
 13
359.3402852307
 23
30.7003413087
  0
SOLID
  8
0
 62
7
  6
CONTINUOUS
 10
359.3402852307
 20
30.7003413087
 11
359.6871602721
 21
30.6358140759
 12
359.0512227376
 22
30.6358140759
 13
359.0512227376
 23
30.6358140759
  0
SOLID
  8
0
 62
7
  6
CONTINUOUS
 10
359.2246602583
 20
30.5712868422
 11
359.0512227376
 21
30.6358140759
 12
359.6871602721
 22
30.6358140759
 13
359.6871602721
 23
30.6358140759
  0
SOLID
  8
0
 62
7
  6
CONTINUOUS
 10
363.2715352445
 20
31.0229779808
 11
363.3871601343
 21
31.0875057863
 12
363.9652852445
 22
31.0552422931
 13
363.9652852445
 23
31.0552422931
  0
SOLID
  8
0
 62
7
  6
CONTINUOUS
 10
363.9652852445
 20
31.0552422931
 11
363.7340351343
 21
31.0229779808
 12
363.2715352445
 22
31.0229779808
 13
363.2715352445
 23
31.0229779808
  0
SOLID
  8
0
 62
7
  6
CONTINUOUS
 10
363.1559103548
 20
30.8939238094
 11
363.2715352445
 21
31.0229779808
 12
363.7340351343
 22
31.0229779808
 13
363.7340351343
 23
31.0229779808
  0
SOLID
  8
0
 62
7
  6
CONTINUOUS
 10
363.5027853548
 20
30.926187309
 11
363.1559103548
 21
30.8939238094
 12
363.6184102445
 22
30.9907152029
 13
363.6184102445
 23
30.9907152029
  0
SOLID
  8
0
 62
7
  6
CONTINUOUS
 10
363.1559103548
 20
30.8939238094
 11
363.7340351343
 21
31.0229779898
 12
363.6184102445
 22
30.9907152029
 13
363.6184102445
 23
30.9907152029
  0
SOLID
  8
0
 62
7
  6
CONTINUOUS
 10
363.5027853548
 20
30.926187309
 11
363.4449727445
 21
30.8293967193
 12
363.1559103548
 22
30.8939238094
 13
363.1559103548
 23
30.8939238094
  0
SOLID
  8
0
 62
7
  6
CONTINUOUS
 10
363.1559103548
 20
30.797132416
 11
363.1559103548
 21
30.8939238094
 12
363.4449727445
 22
30.8293967193
 13
363.4449727445
 23
30.8293967193
  0
SOLID
  8
0
 62
7
  6
CONTINUOUS
 10
363.4449727445
 20
30.8293967193
 11
363.4449727445
 21
30.7648681127
 12
363.1559103548
 22
30.797132416
 13
363.1559103548
 23
30.797132416
  0
SOLID
  8
0
 62
7
  6
CONTINUOUS
 10
363.2137226343
 20
30.6680782357
 11
363.1559103548
 21
30.797132416
 12
363.4449727445
 22
30.7648681127
 13
363.4449727445
 23
30.7648681127
  0
SOLID
  8
0
 62
7
  6
CONTINUOUS
 10
364.6012229651
 20
30.8616599362
 11
364.890285024
 21
30.7648681127
 12
364.543410024
 22
30.797132416
 13
364.543410024
 23
30.797132416
  0
SOLID
  8
0
 62
7
  6
CONTINUOUS
 10
364.369972524
 20
30.7003410226
 11
364.543410024
 21
30.797132416
 12
364.890285024
 22
30.7648681127
 13
364.890285024
 23
30.7648681127
  0
SOLID
  8
0
 62
7
  6
CONTINUOUS
 10
364.369972524
 20
30.7003410226
 11
364.890285024
 21
30.7648681127
 12
364.6012229651
 22
30.6680782357
 13
364.6012229651
 23
30.6680782357
  0
SOLID
  8
0
 62
7
  6
CONTINUOUS
 10
364.890285024
 20
30.7648681127
 11
364.9480979651
 21
30.6035511455
 12
364.6012229651
 22
30.6680782357
 13
364.6012229651
 23
30.6680782357
  0
SOLID
  8
0
 62
7
  6
CONTINUOUS
 10
364.6590352445
 20
30.5712868422
 11
364.6012229651
 21
30.6680782357
 12
364.9480979651
 22
30.6035511455
 13
364.9480979651
 23
30.6035511455
  0
SOLID
  8
0
 62
7
  6
CONTINUOUS
 10
364.6590352445
 20
30.5712868422
 11
364.9480979651
 21
30.6035511455
 12
364.716847524
 22
30.5067598731
 13
364.716847524
 23
30.5067598731
  0
SOLID
  8
0
 62
7
  6
CONTINUOUS
 10
364.9480979651
 20
30.6035511455
 11
365.0059102445
 21
30.5067598731
 12
364.716847524
 22
30.5067598731
 13
364.716847524
 23
30.5067598731
  0
SOLID
  8
0
 62
7
  6
CONTINUOUS
 10
360.2652852997
 20
30.7326051679
 11
360.3230977445
 21
30.8293966612
 12
360.6121602997
 22
30.8293966612
 13
360.6121602997
 23
30.8293966612
  0
SOLID
  8
0
 62
7
  6
CONTINUOUS
 10
360.6121602997
 20
30.8293966612
 11
360.5543476894
 21
30.7003410226
 12
360.2652852997
 22
30.7326051679
 13
360.2652852997
 23
30.7326051679
  0
SOLID
  8
0
 62
7
  6
CONTINUOUS
 10
360.091847717
 20
30.6680782357
 11
360.2652852997
 21
30.7326051679
 12
360.5543476894
 22
30.7003410226
 13
360.5543476894
 23
30.7003410226
  0
SOLID
  8
0
 62
7
  6
CONTINUOUS
 10
360.091847717
 20
30.6680782357
 11
360.5543476894
 21
30.7003410226
 12
359.6871602721
 22
30.6358139324
 13
359.6871602721
 23
30.6358139324
  0
SOLID
  8
0
 62
7
  6
CONTINUOUS
 10
360.5543476894
 20
30.7003410226
 11
360.3809101894
 21
30.6035511455
 12
359.6871602721
 22
30.6358139324
 13
359.6871602721
 23
30.6358139324
  0
SOLID
  8
0
 62
7
  6
CONTINUOUS
 10
359.2246602583
 20
30.5712868422
 11
359.6871602721
 21
30.6358139324
 12
360.3809101894
 22
30.6035511455
 13
360.3809101894
 23
30.6035511455
  0
SOLID
  8
0
 62
7
  6
CONTINUOUS
 10
359.2246602583
 20
30.5712868422
 11
360.3809101894
 21
30.6035511455
 12
359.3980977583
 22
30.5390224228
 13
359.3980977583
 23
30.5390224228
  0
SOLID
  8
0
 62
7
  6
CONTINUOUS
 10
360.3809101894
 20
30.6035511455
 11
360.1496602445
 21
30.5390224228
 12
359.3980977583
 22
30.5390224228
 13
359.3980977583
 23
30.5390224228
  0
SOLID
  8
0
 62
7
  6
CONTINUOUS
 10
359.744972717
 20
30.5067597521
 11
359.3980977583
 21
30.5390224228
 12
360.1496602445
 22
30.5390224228
 13
360.1496602445
 23
30.5390224228
  0
SOLID
  8
0
 62
7
  6
CONTINUOUS
 10
363.2137226343
 20
30.6680782357
 11
363.4449727445
 21
30.7648681127
 12
363.5027853548
 22
30.7003410226
 13
363.5027853548
 23
30.7003410226
  0
SOLID
  8
0
 62
7
  6
CONTINUOUS
 10
363.5027853548
 20
30.7003410226
 11
363.7340351343
 21
30.6358139324
 12
363.2137226343
 22
30.6680782357
 13
363.2137226343
 23
30.6680782357
  0
SOLID
  8
0
 62
7
  6
CONTINUOUS
 10
363.3871601343
 20
30.5712868422
 11
363.2137226343
 21
30.6680782357
 12
363.7340351343
 22
30.6358139324
 13
363.7340351343
 23
30.6358139324
  0
SOLID
  8
0
 62
7
  6
CONTINUOUS
 10
364.0809101343
 20
30.6358139363
 11
364.369972524
 21
30.7003410226
 12
364.6012229651
 22
30.6680782357
 13
364.6012229651
 23
30.6680782357
  0
SOLID
  8
0
 62
7
  6
CONTINUOUS
 10
364.6012229651
 20
30.6680782357
 11
364.543410024
 21
30.6035511455
 12
364.0809101343
 22
30.6358139363
 13
364.0809101343
 23
30.6358139363
  0
SOLID
  8
0
 62
7
  6
CONTINUOUS
 10
364.543410024
 20
30.6035511455
 11
363.3871601343
 21
30.5712868422
 12
364.0809101343
 22
30.6358139363
 13
364.0809101343
 23
30.6358139363
  0
SOLID
  8
0
 62
7
  6
CONTINUOUS
 10
363.3871601343
 20
30.5712868422
 11
363.7340351343
 21
30.6358139363
 12
364.0809101343
 22
30.6358139363
 13
364.0809101343
 23
30.6358139363
  0
SOLID
  8
0
 62
7
  6
CONTINUOUS
 10
363.3871601343
 20
30.5712868422
 11
364.543410024
 21
30.6035511455
 12
363.5027853548
 22
30.5390225267
 13
363.5027853548
 23
30.5390225267
  0
SOLID
  8
0
 62
7
  6
CONTINUOUS
 10
364.543410024
 20
30.6035511455
 11
364.369972524
 21
30.5390225267
 12
363.5027853548
 22
30.5390225267
 13
363.5027853548
 23
30.5390225267
  0
SOLID
  8
0
 62
7
  6
CONTINUOUS
 10
363.7340351343
 20
30.5067596914
 11
363.5027853548
 21
30.5390225267
 12
364.369972524
 22
30.5390225267
 13
364.369972524
 23
30.5390225267
  0
SOLID
  8
0
 62
7
  6
CONTINUOUS
 10
364.369972524
 20
30.5390225267
 11
364.0809101343
 21
30.5067596914
 12
363.7340351343
 22
30.5067596914
 13
363.7340351343
 23
30.5067596914
  0
SOLID
  8
0
 62
7
  6
CONTINUOUS
 10
368.7637229651
 20
30.6680782357
 11
368.4168479651
 21
30.6358138717
 12
368.6480977445
 22
30.7003410226
 13
368.6480977445
 23
30.7003410226
  0
SOLID
  8
0
 62
7
  6
CONTINUOUS
 10
368.6480977445
 20
30.7003410226
 11
368.4168479651
 21
30.6358138717
 12
368.5902854651
 22
30.7648680521
 13
368.5902854651
 23
30.7648680521
  0
SOLID
  8
0
 62
7
  6
CONTINUOUS
 10
368.4168479651
 20
30.6358138717
 11
368.3012227445
 21
30.7648680521
 12
368.5902854651
 22
30.7648680521
 13
368.5902854651
 23
30.7648680521
  0
SOLID
  8
0
 62
7
  6
CONTINUOUS
 10
368.7637229651
 20
30.6680782357
 11
369.1105979651
 21
30.6358138717
 12
368.4168479651
 22
30.6358138717
 13
368.4168479651
 23
30.6358138717
  0
SOLID
  8
0
 62
7
  6
CONTINUOUS
 10
365.4684104651
 20
30.5067597521
 11
365.4684104651
 21
31.5391977439
 12
365.757472524
 22
30.5067597521
 13
365.757472524
 23
31.5391977439
  0
ENDBLK
  8
0
  6
BYBLOCK
 62
0
  0
BLOCK
  8
0
 62
2
  6
CONTINUOUS
  2
SYMBOL_0_BL0
 70
64
 10
240.8592468615
 20
19.762288695
  0
TEXT
  8
0
 62
7
  6
CONTINUOUS
 10
227.1239507038
 20
19.1357028027
  7
TEXTSTYLE_3
 40
2.7338706658
  1
Ammeraal Beltech
 41
1.0
 51
15.0
 72
0
  0
TEXT
  8
0
 62
7
  6
CONTINUOUS
 10
237.9247515296
 20
16.8621661299
  7
TEXTSTYLE_4
 40
1.0935482663
  1
Innovation & Service in Belting
 41
1.0
 72
0
  0
LINE
  8
0
 62
7
  6
CONTINUOUS
 10
221.0994100525
 20
19.9022961113
 11
221.8775620458
 21
23.5632134089
  0
LINE
  8
0
 62
7
  6
CONTINUOUS
 10
231.9727303357
 20
27.2266073205
 11
222.3653797889
 21
24.1049898993
  0
LINE
  8
0
 62
7
  6
CONTINUOUS
 10
221.3246933848
 20
19.2089453082
 11
228.8317686459
 21
12.4495443822
  0
LINE
  8
0
 62
7
  6
CONTINUOUS
 10
221.5872277955
 20
20.4440726016
 11
232.3954971607
 21
23.9558922005
  0
LINE
  8
0
 62
7
  6
CONTINUOUS
 10
232.3912920235
 20
13.6061036368
 11
223.9458323548
 21
21.2104296785
  0
LINE
  8
0
 62
7
  6
CONTINUOUS
 10
232.9111147433
 20
26.3816822048
 11
231.9345552061
 21
21.7873308023
  0
LINE
  8
0
 62
7
  6
CONTINUOUS
 10
231.2347532584
 20
18.4950214885
 11
230.5483050469
 21
15.2655365641
  0
LINE
  8
0
 62
7
  6
CONTINUOUS
 10
233.5922108419
 20
13.9963058145
 11
234.5484423775
 21
18.4950214885
  0
LINE
  8
0
 62
7
  6
CONTINUOUS
 10
235.2482443252
 20
21.7873308023
 11
235.6924861276
 21
23.8773241617
  0
LINE
  8
0
 62
7
  6
CONTINUOUS
 10
229.5448697213
 20
12.2979700695
 11
233.1043930989
 21
13.4545293241
  0
LINE
  8
0
 62
7
  6
CONTINUOUS
 10
232.685831411
 20
27.0750330078
 11
235.4672027953
 21
24.5706749648
  0
ARC
  8
0
 62
7
  6
CONTINUOUS
 10
222.5906631212
 20
23.4116390962
 40
0.7290321776
 50
108.0
 51
168.0
  0
ARC
  8
0
 62
7
  6
CONTINUOUS
 10
232.198013668
 20
26.5332565175
 40
0.7290321776
 50
348.0
 51
108.0
  0
ARC
  8
0
 62
7
  6
CONTINUOUS
 10
234.9793850522
 20
24.0288984744
 40
0.7290321776
 50
348.0
 51
48.0
  0
ARC
  8
0
 62
7
  6
CONTINUOUS
 10
229.319586389
 20
12.9913208726
 40
0.7290321776
 50
228.0
 51
288.0
  0
ARC
  8
0
 62
7
  6
CONTINUOUS
 10
221.8125111278
 20
19.7507217986
 40
0.7290321776
 50
108.0
 51
228.0
  0
ARC
  8
0
 62
7
  6
CONTINUOUS
 10
232.8791097665
 20
14.1478801272
 40
0.7290321776
 50
228.0
 51
348.0
  0
ENDBLK
  8
0
  6
BYBLOCK
 62
0
  0
ENDSEC
  0
SECTION
  2
ENTITIES
  0
TEXT
  8
0
 62
5
  6
CONTINUOUS
 10
304.937007874
 20
25.636
  7
TEXTSTYLE_2
 40
2.8
  1
Scale :
 41
0.6
 51
0.000019
 72
0
  0
TEXT
  8
0
 62
5
  6
CONTINUOUS
 10
324.937007874
 20
25.636
  7
TEXTSTYLE_2
 40
2.8
  1
Belt type:
 41
0.6
 51
0.000019
 72
0
  0
INSERT
  8
0
 62
2
  6
CONTINUOUS
  2
SYMBOL_0_BL0
 10
240.8592468615
 20
19.762288695
  0
INSERT
  8
0
 62
2
  6
CONTINUOUS
  2
SYMBOL_5_BL1
 10
382.7840918555
 20
35.5067593403
  0
LINE
  8
0
 62
2
  6
CONTINUOUS
 10
218.937007874
 20
30.0
 11
408.937007874
 21
30.0
  0
LINE
  8
0
 62
2
  6
CONTINUOUS
 10
218.937007874
 20
30.0
 11
218.937007874
 21
10.0
  0
LINE
  8
0
 62
2
  6
CONTINUOUS
 10
218.937007874
 20
10.0
 11
408.937007874
 21
10.0
  0
LINE
  8
0
 62
2
  6
CONTINUOUS
 10
303.937007874
 20
30.0
 11
303.937007874
 21
10.0
  0
LINE
  8
0
 62
2
  6
CONTINUOUS
 10
323.937007874
 20
30.0
 11
323.937007874
 21
10.0
  0
LINE
  8
0
 62
2
  6
CONTINUOUS
 10
408.937007874
 20
30.0
 11
408.937007874
 21
10.0
  0
TEXT
  8
0
 62
5
  6
CONTINUOUS
 10
221.937007874
 20
23.303
  7
TEXTSTYLE_5
 40
1.52
  1
                                                                     Ammeraal Beltech Modular A/S
 41
1.0
 72
0
  0
TEXT
  8
0
 62
5
  6
CONTINUOUS
 10
221.937007874
 20
20.595
  7
TEXTSTYLE_5
 40
1.5
  1
                                                                      Hjulmagervej 21, 7100 Vejle,  DK
 41
1.0
 72
0
  0
TEXT
  8
0
 62
5
  6
CONTINUOUS
 10
221.937007874
 20
17.881
  7
TEXTSTYLE_5
 40
1.495
  1
                                                                      tel: 
 41
1.0
 72
0
  0
TEXT
  8
0
 62
5
  6
CONTINUOUS
 10
266.9239544389
 20
17.881
  7
TEXTSTYLE_5
 40
1.51
  1
+45 75723100     fax: +45 75723348
 41
1.0
 72
0
  0
TEXT
  8
0
 62
5
  6
CONTINUOUS
 10
221.937007874
 20
15.177
  7
TEXTSTYLE_5
 40
1.5
  1
                                                                      admin@unichains.dk  www.unichains.com
 41
1.0
 72
0
  0
TEXT
  8
0
 62
5
  6
CONTINUOUS
 10
308.687007874
 20
13.75
  7
TEXTSTYLE_6
 40
5.0
  1
1:1
 41
0.7
 72
1
 11
313.937007874
 21
13.75
  0
TEXT
  8
0
 62
5
  6
CONTINUOUS
 10
326.937007874
 20
13.75
  7
TEXTSTYLE_7
 40
7.5
  1
Sprocket Z12
 41
0.6361111111
 72
0
  0
LINE
  8
0
 62
7
  6
CONTINUOUS
 10
0.0
 20
0.0
 11
0.0
 21
297.0
  0
LINE
  8
0
 62
7
  6
CONTINUOUS
 10
8.937007874
 20
10.0
 11
8.937007874
 21
287.0
  0
LINE
  8
0
 62
7
  6
CONTINUOUS
 10
0.0
 20
0.0
 11
420.0
 21
0.0
  0
LINE
  8
0
 62
7
  6
CONTINUOUS
 10
408.937007874
 20
10.0
 11
8.937007874
 21
10.0
  0
LINE
  8
0
 62
7
  6
CONTINUOUS
 10
218.937007874
 20
30.0
 11
408.937007874
 21
30.0
  0
LINE
  8
0
 62
7
  6
CONTINUOUS
 10
210.0
 20
297.0
 11
210.0
 21
292.0
  0
LINE
  8
0
 62
7
  6
CONTINUOUS
 10
210.0
 20
0.0
 11
210.0
 21
5.0
  0
LINE
  8
0
 62
7
  6
CONTINUOUS
 10
8.937007874
 20
287.0
 11
408.937007874
 21
287.0
  0
LINE
  8
0
 62
7
  6
CONTINUOUS
 10
0.0
 20
297.0
 11
420.0
 21
297.0
  0
LINE
  8
0
 62
7
  6
CONTINUOUS
 10
408.937007874
 20
287.0
 11
408.937007874
 21
10.0
  0
LINE
  8
0
 62
7
  6
CONTINUOUS
 10
420.0
 20
0.0
 11
420.0
 21
297.0
  0
LINE
  8
0
 62
7
  6
CONTINUOUS
 10
48.5534836066
 20
188.5026449738
 11
48.5534836066
 21
185.2154044761
  0
LINE
  8
SURFACE
 62
7
  6
CONTINUOUS
 10
48.5534836066
 20
137.9844964197
 11
48.5534836066
 21
164.5435706967
  0
LINE
  8
0
 62
7
  6
CONTINUOUS
 10
72.1689376348
 20
226.1185706967
 11
70.5253173859
 21
223.2717369174
  0
LINE
  8
SURFACE
 62
7
  6
CONTINUOUS
 10
46.9098633577
 20
182.3685706967
 11
60.1894004962
 21
205.3694037216
  0
LINE
  8
0
 62
7
  6
CONTINUOUS
 10
111.4284836066
 20
246.8871909456
 11
108.5816498272
 21
245.2435706967
  0
LINE
  8
SURFACE
 62
7
  6
CONTINUOUS
 10
67.6784836066
 20
221.6281166685
 11
90.6793166315
 21
234.907653807
  0
LINE
  8
SURFACE
 62
7
  6
CONTINUOUS
 10
155.8125578836
 20
81.2435706967
 11
129.2534836066
 21
81.2435706967
  0
LINE
  8
0
 62
7
  6
CONTINUOUS
 10
105.2944093295
 20
81.2435706967
 11
108.5816498272
 21
81.2435706967
  0
LINE
  8
SURFACE
 62
7
  6
CONTINUOUS
 10
111.4284836066
 20
79.5999504479
 11
88.4276505816
 21
92.8794875864
  0
LINE
  8
0
 62
7
  6
CONTINUOUS
 10
67.6784836066
 20
104.8590247249
 11
70.5253173859
 21
103.2154044761
  0
LINE
  8
0
 62
7
  6
CONTINUOUS
 10
46.9098633577
 20
144.1185706967
 11
48.5534836066
 21
141.2717369174
  0
LINE
  8
SURFACE
 62
7
  6
CONTINUOUS
 10
72.1689376348
 20
100.3685706967
 11
58.8894004962
 21
123.3694037216
  0
LINE
  8
0
 62
7
  6
CONTINUOUS
 10
86.8982734445
 20
212.0590579055
 11
86.297288057
 21
211.4817700455
  0
LINE
  8
0
 62
7
  6
CONTINUOUS
 10
83.8933470656
 20
209.1726191422
 11
83.2923618071
 21
208.5953314061
  0
LINE
  8
0
 62
7
  6
CONTINUOUS
 10
90.9675068851
 20
215.3653474685
 11
90.4407361294
 21
214.956743211
  0
LINE
  8
0
 62
7
  6
CONTINUOUS
 10
89.2555024943
 20
214.0373840699
 11
88.5970392381
 21
213.5266288941
  0
LINE
  8
0
 62
7
  6
CONTINUOUS
 10
104.9195477151
 20
224.9512764019
 11
105.4775368546
 21
225.3538482535
  0
LINE
  8
0
 62
7
  6
CONTINUOUS
 10
92.9720274756
 20
219.9163839854
 11
92.2803559777
 21
219.4515889191
  0
LINE
  8
0
 62
7
  6
CONTINUOUS
 10
92.7550404253
 20
218.7452008211
 11
93.4467119231
 21
219.2099958874
  0
LINE
  8
0
 62
7
  6
CONTINUOUS
 10
94.3960810842
 20
217.7972192957
 11
93.7044095863
 21
217.3324242294
  0
LINE
  8
0
 62
7
  6
CONTINUOUS
 10
105.1034608785
 20
226.3041496796
 11
104.390386624
 21
225.8405302339
  0
LINE
  8
0
 62
7
  6
CONTINUOUS
 10
113.3151583105
 20
227.7963206926
 11
113.758300067
 21
228.0837189571
  0
LINE
  8
0
 62
7
  6
CONTINUOUS
 10
113.5083709579
 20
229.073941698
 11
112.9036327978
 21
228.745757009
  0
LINE
  8
0
 62
7
  6
CONTINUOUS
 10
106.4992162645
 20
226.853573835
 11
105.1034608785
 21
226.3041496796
  0
LINE
  8
0
 62
7
  6
CONTINUOUS
 10
105.4775368546
 20
225.3538482535
 11
106.8732922406
 21
225.9032724089
  0
LINE
  8
0
 62
7
  6
CONTINUOUS
 10
108.4880404371
 20
225.4413477989
 11
109.4185440278
 21
225.8076305691
  0
LINE
  8
0
 62
7
  6
CONTINUOUS
 10
90.0182898028
 20
214.4136443726
 11
89.8318611595
 21
213.8382024561
  0
LINE
  8
0
 62
7
  6
CONTINUOUS
 10
88.8799832367
 20
207.5901126424
 11
88.5171092539
 21
207.0055280855
  0
LINE
  8
0
 62
7
  6
CONTINUOUS
 10
88.9887656133
 20
206.5145103461
 11
89.3516396272
 21
207.0990948708
  0
LINE
  8
0
 62
7
  6
CONTINUOUS
 10
104.5789879118
 20
224.4513678747
 11
104.9195477151
 21
224.9512764019
  0
LINE
  8
0
 62
7
  6
CONTINUOUS
 10
90.4407361294
 20
214.956743211
 11
90.0182898028
 21
214.4136443726
  0
LINE
  8
0
 62
7
  6
CONTINUOUS
 10
90.4355875192
 20
213.8756660491
 11
90.8580338458
 21
214.4187648875
  0
LINE
  8
0
 62
7
  6
CONTINUOUS
 10
104.390386624
 20
225.8405302339
 11
103.8947434805
 21
225.2795748112
  0
LINE
  8
0
 62
7
  6
CONTINUOUS
 10
112.9136714055
 20
227.3438853047
 11
113.3151583105
 21
227.7963206926
  0
LINE
  8
0
 62
7
  6
CONTINUOUS
 10
88.5171092539
 20
207.0055280855
 11
88.0363209782
 21
206.5436978305
  0
LINE
  8
0
 62
7
  6
CONTINUOUS
 10
88.5079773377
 20
206.0526800912
 11
88.9887656133
 21
206.5145103461
  0
LINE
  8
0
 62
7
  6
CONTINUOUS
 10
90.3109331564
 20
207.7845433409
 11
90.911918544
 21
208.3618312009
  0
LINE
  8
0
 62
7
  6
CONTINUOUS
 10
112.9036327978
 20
228.745757009
 11
112.3405457905
 21
228.2525342629
  0
LINE
  8
0
 62
7
  6
CONTINUOUS
 10
91.9354212616
 20
209.2228019299
 11
92.5938845178
 21
209.7335571057
  0
LINE
  8
0
 62
7
  6
CONTINUOUS
 10
94.964351788
 20
211.5722753878
 11
95.6228146674
 21
212.0830302713
  0
LINE
  8
0
 62
7
  6
CONTINUOUS
 10
109.6133915461
 20
220.7624184983
 11
109.0554024066
 21
220.3598466467
  0
LINE
  8
0
 62
7
  6
CONTINUOUS
 10
124.8074331141
 20
227.1045449692
 11
125.1175280252
 21
227.3141310647
  0
LINE
  8
0
 62
7
  6
CONTINUOUS
 10
96.7423903165
 20
212.8115400067
 11
97.4340618144
 21
213.276335073
  0
LINE
  8
0
 62
7
  6
CONTINUOUS
 10
109.4294784263
 20
219.4095451097
 11
110.1425526753
 21
219.8731645693
  0
LINE
  8
0
 62
7
  6
CONTINUOUS
 10
87.9092750582
 20
205.7136043536
 11
88.5079773377
 21
206.0526800912
  0
LINE
  8
0
 62
7
  6
CONTINUOUS
 10
116.7905551495
 20
222.88032673
 11
116.1858132907
 21
222.5521411075
  0
LINE
  8
0
 62
7
  6
CONTINUOUS
 10
124.2281481691
 20
227.7193514535
 11
123.7526326463
 21
227.4894441539
  0
LINE
  8
0
 62
7
  6
CONTINUOUS
 10
124.6639797862
 20
224.1715532062
 11
124.1884642635
 21
223.9416459066
  0
LINE
  8
0
 62
7
  6
CONTINUOUS
 10
116.435742429
 20
221.5619182509
 11
117.2020843864
 21
221.9308912461
  0
LINE
  8
0
 62
7
  6
CONTINUOUS
 10
90.8580338458
 20
214.4187648875
 11
91.4891290306
 21
214.6928745642
  0
LINE
  8
0
 62
7
  6
CONTINUOUS
 10
110.8525020233
 20
222.1648082138
 11
109.9219984327
 21
221.7985254436
  0
LINE
  8
0
 62
7
  6
CONTINUOUS
 10
109.0554024066
 20
220.3598466467
 11
107.6596470206
 21
219.8104224914
  0
LINE
  8
0
 62
7
  6
CONTINUOUS
 10
108.0337230403
 20
218.8601209543
 11
109.4294784263
 21
219.4095451097
  0
LINE
  8
0
 62
7
  6
CONTINUOUS
 10
91.4669091926
 20
215.5373059346
 11
90.9675068851
 21
215.3653474685
  0
LINE
  8
0
 62
7
  6
CONTINUOUS
 10
124.1475669731
 20
222.9076680434
 11
124.9539275034
 21
223.1782182313
  0
LINE
  8
0
 62
7
  6
CONTINUOUS
 10
89.8318611595
 20
213.8382024561
 11
89.7771246398
 21
213.3649111656
  0
LINE
  8
0
 62
7
  6
CONTINUOUS
 10
90.1944223562
 20
212.8269328422
 11
90.2491588759
 21
213.3002241327
  0
LINE
  8
0
 62
7
  6
CONTINUOUS
 10
89.0047462414
 20
208.1819941405
 11
88.8799832367
 21
207.5901126424
  0
LINE
  8
0
 62
7
  6
CONTINUOUS
 10
90.2491588759
 20
213.3002241327
 11
90.4355875192
 21
213.8756660491
  0
LINE
  8
0
 62
7
  6
CONTINUOUS
 10
89.3516396272
 20
207.0990948708
 11
89.4741197611
 21
207.4527645157
  0
LINE
  8
0
 62
7
  6
CONTINUOUS
 10
103.8947434805
 20
225.2795748112
 11
103.5237923291
 21
224.4018522466
  0
LINE
  8
0
 62
7
  6
CONTINUOUS
 10
112.3405457905
 20
228.2525342629
 11
111.8607703357
 21
227.4292377366
  0
LINE
  8
0
 62
7
  6
CONTINUOUS
 10
109.9539513057
 20
221.2623271364
 11
109.6133915461
 21
220.7624184983
  0
LINE
  8
0
 62
7
  6
CONTINUOUS
 10
110.1425526753
 20
219.8731645693
 11
110.6381958024
 21
220.4341200335
  0
LINE
  8
0
 62
7
  6
CONTINUOUS
 10
117.1920420253
 20
223.3327622336
 11
116.7905551495
 21
222.88032673
  0
LINE
  8
0
 62
7
  6
CONTINUOUS
 10
124.9539275034
 20
223.1782182313
 11
125.5533596496
 21
223.7663327582
  0
LINE
  8
0
 62
7
  6
CONTINUOUS
 10
117.2020843864
 20
221.9308912461
 11
117.765167684
 21
222.424113102
  0
LINE
  8
0
 62
7
  6
CONTINUOUS
 10
142.4168392979
 20
229.3835014055
 11
135.8317005689
 21
224.4686473487
  0
LINE
  8
0
 62
7
  6
CONTINUOUS
 10
150.1176822484
 20
227.8659823097
 11
149.2691218699
 21
227.4324567645
  0
LINE
  8
0
 62
7
  6
CONTINUOUS
 10
152.8362907209
 20
224.4407549767
 11
147.0587271835
 21
221.8902151518
  0
LINE
  8
0
 62
7
  6
CONTINUOUS
 10
148.3228586611
 20
221.4662385405
 11
153.4640001063
 21
223.6916348131
  0
LINE
  8
0
 62
7
  6
CONTINUOUS
 10
88.0363209782
 20
206.5436978305
 11
87.3197045882
 21
206.3273765493
  0
LINE
  8
0
 62
7
  6
CONTINUOUS
 10
89.4741197611
 20
207.4527645157
 11
89.4809684523
 21
208.1674003372
  0
LINE
  8
0
 62
7
  6
CONTINUOUS
 10
104.4558576193
 20
223.8541222284
 11
104.5789879118
 21
224.4513678747
  0
LINE
  8
0
 62
7
  6
CONTINUOUS
 10
110.6381958024
 20
220.4341200335
 11
111.0091469321
 21
221.3118426537
  0
LINE
  8
0
 62
7
  6
CONTINUOUS
 10
125.1175280252
 20
227.3141310647
 11
125.5307818946
 21
228.0508666346
  0
LINE
  8
0
 62
7
  6
CONTINUOUS
 10
117.765167684
 20
222.424113102
 11
118.2449449736
 21
223.2474101529
  0
LINE
  8
0
 62
7
  6
CONTINUOUS
 10
124.5174891958
 20
228.0978803057
 11
124.2281481691
 21
227.7193514535
  0
LINE
  8
0
 62
7
  6
CONTINUOUS
 10
124.9533207984
 20
224.5500821767
 11
124.6639797862
 21
224.1715532062
  0
LINE
  8
0
 62
7
  6
CONTINUOUS
 10
149.6846857356
 20
226.5749570341
 11
150.1630941056
 21
226.9530967531
  0
LINE
  8
0
 62
7
  6
CONTINUOUS
 10
136.7742853497
 20
223.9917580051
 11
143.1943930303
 21
228.9299134497
  0
LINE
  8
0
 62
7
  6
CONTINUOUS
 10
146.3677091099
 20
229.3791153889
 11
145.1180322879
 21
228.452857109
  0
LINE
  8
0
 62
7
  6
CONTINUOUS
 10
144.8013518542
 20
227.1284904513
 11
146.0510287871
 21
228.054749195
  0
LINE
  8
0
 62
7
  6
CONTINUOUS
 10
103.5237923291
 20
224.4018522466
 11
103.463007858
 21
223.6462234729
  0
LINE
  8
0
 62
7
  6
CONTINUOUS
 10
118.4389104122
 20
260.4172188744
 11
117.6097824575
 21
255.7150005786
  0
LINE
  8
0
 62
7
  6
CONTINUOUS
 10
117.3902739765
 20
223.9094473868
 11
117.1920420253
 21
223.3327622336
  0
LINE
  8
SURFACE
 62
7
  6
CONTINUOUS
 10
71.4751313754
 20
85.1460093936
 11
73.1081946515
 21
89.6328138693
  0
LINE
  8
0
 62
7
  6
CONTINUOUS
 10
125.5533596496
 20
223.7663327582
 11
125.9666135117
 21
224.5030683873
  0
LINE
  8
0
 62
7
  6
CONTINUOUS
 10
168.6487795531
 20
253.4557051942
 11
165.5796245334
 21
249.7980286732
  0
LINE
  8
0
 62
7
  6
CONTINUOUS
 10
153.3688236551
 20
224.9802728552
 11
152.8362907209
 21
224.4407549767
  0
LINE
  8
CURVE
 62
2
  6
DOT
 10
95.8891034303
 20
175.7432128256
 11
118.0538414777
 21
197.907950873
  0
LINE
  8
CURVE
 62
2
  6
DOT
 10
126.4211789241
 20
204.0125466196
 11
122.178538237
 21
199.7699059325
  0
LINE
  8
CURVE
 62
2
  6
DOT
 10
89.7845076837
 20
167.3758753792
 11
94.0271483708
 21
171.6185160663
  0
LINE
  8
SURFACE
 62
7
  6
CONTINUOUS
 10
40.3413491091
 20
125.1482747502
 11
43.9990256301
 21
128.2174297699
  0
LINE
  8
0
 62
7
  6
CONTINUOUS
 10
153.4640001063
 20
223.6916348131
 11
153.9424084763
 21
224.0697745321
  0
LINE
  8
0
 62
7
  6
CONTINUOUS
 10
208.6510449096
 20
222.3219229279
 11
204.164240434
 21
220.6888596518
  0
LINE
  8
SURFACE
 62
7
  6
CONTINUOUS
 10
227.7271317842
 20
151.1289975024
 11
223.0249134884
 21
150.2998695476
  0
LINE
  8
0
 62
7
  6
CONTINUOUS
 10
33.3798354289
 20
151.1289975024
 11
38.0820537247
 21
150.2998695476
  0
LINE
  8
SURFACE
 62
7
  6
CONTINUOUS
 10
208.6510449096
 20
104.1652184656
 11
204.164240434
 21
105.7982817417
  0
LINE
  8
0
 62
7
  6
CONTINUOUS
 10
40.3413491091
 20
201.3388666432
 11
43.9990256301
 21
198.2697116235
  0
LINE
  8
CURVE
 62
2
  6
DOT
 10
95.8891034303
 20
150.7439285678
 11
118.0538414777
 21
128.5791905205
  0
LINE
  8
CURVE
 62
2
  6
DOT
 10
122.178538237
 20
126.717235461
 11
126.4211789241
 21
122.4745947738
  0
LINE
  8
CURVE
 62
2
  6
DOT
 10
94.0271483708
 20
154.8686253271
 11
89.7845076837
 21
159.1112660143
  0
LINE
  8
SURFACE
 62
7
  6
CONTINUOUS
 10
168.6487795531
 20
73.0314361993
 11
165.5796245334
 21
76.6891127202
  0
LINE
  8
0
 62
7
  6
CONTINUOUS
 10
71.4751313754
 20
241.3411319998
 11
73.1081946515
 21
236.8543275241
  0
LINE
  8
0
 62
7
  6
CONTINUOUS
 10
88.8913979721
 20
208.7811725436
 11
89.0047462414
 21
208.1819941405
  0
LINE
  8
SURFACE
 62
7
  6
CONTINUOUS
 10
118.4389104122
 20
66.0699225191
 11
117.6097824575
 21
70.7721408149
  0
LINE
  8
0
 62
7
  6
CONTINUOUS
 10
111.8607703357
 20
227.4292377366
 11
111.8657896395
 21
226.7283018844
  0
LINE
  8
0
 62
7
  6
CONTINUOUS
 10
112.8770396732
 20
226.8079870473
 11
112.9136714055
 21
227.3438853047
  0
LINE
  8
0
 62
7
  6
CONTINUOUS
 10
124.620648154
 20
228.6250297802
 11
124.5174891958
 21
228.0978803057
  0
LINE
  8
0
 62
7
  6
CONTINUOUS
 10
125.5307818946
 20
228.0508666346
 11
125.6339408528
 21
228.5780161092
  0
LINE
  8
0
 62
7
  6
CONTINUOUS
 10
125.0564797566
 20
225.0772316513
 11
124.9533207984
 21
224.5500821767
  0
LINE
  8
0
 62
7
  6
CONTINUOUS
 10
118.2449449736
 20
223.2474101529
 11
118.4015220442
 21
223.9891325452
  0
LINE
  8
0
 62
7
  6
CONTINUOUS
 10
149.2691218699
 20
227.4324567645
 11
148.894602658
 21
226.8399427194
  0
LINE
  8
0
 62
7
  6
CONTINUOUS
 10
104.5501582631
 20
223.1595410488
 11
104.4558576193
 21
223.8541222284
  0
LINE
  8
0
 62
7
  6
CONTINUOUS
 10
109.9219984327
 20
221.7985254436
 11
109.9539513057
 21
221.2623271364
  0
LINE
  8
SURFACE
 62
7
  6
CONTINUOUS
 10
133.3306952361
 20
246.4830984302
 11
134.2640190494
 21
251.7762408043
  0
LINE
  8
0
 62
7
  6
CONTINUOUS
 10
125.9666135117
 20
224.5030683873
 11
126.0697724554
 21
225.0302179802
  0
LINE
  8
0
 62
7
  6
CONTINUOUS
 10
91.3388555627
 20
89.7674192657
 11
89.5005665079
 21
84.7167615973
  0
LINE
  8
0
 62
7
  6
CONTINUOUS
 10
153.9424084763
 20
224.0697745321
 11
154.3169204549
 21
224.6622910033
  0
LINE
  8
SURFACE
 62
7
  6
CONTINUOUS
 10
174.5783832962
 20
233.9425104982
 11
178.0332366154
 21
238.0598443533
  0
LINE
  8
0
 62
7
  6
CONTINUOUS
 10
59.8545438051
 20
119.2186710071
 11
55.73720995
 21
115.7638176878
  0
LINE
  8
SURFACE
 62
7
  6
CONTINUOUS
 10
204.0296350375
 20
202.4581987406
 11
209.080292706
 21
204.2964877954
  0
LINE
  8
0
 62
7
  6
CONTINUOUS
 10
213.7930113401
 20
166.0207823262
 11
219.0861537141
 21
166.9541061395
  0
LINE
  8
SURFACE
 62
7
  6
CONTINUOUS
 10
47.3139558731
 20
166.0207823262
 11
42.020813499
 21
166.9541061395
  0
LINE
  8
0
 62
7
  6
CONTINUOUS
 10
204.0296350375
 20
124.0289426528
 11
209.080292706
 21
122.1906535981
  0
LINE
  8
SURFACE
 62
7
  6
CONTINUOUS
 10
59.8545438051
 20
207.2684703863
 11
55.73720995
 21
210.7233237056
  0
LINE
  8
0
 62
7
  6
CONTINUOUS
 10
174.5783832962
 20
92.5446308953
 11
178.0332366154
 21
88.4272970401
  0
LINE
  8
SURFACE
 62
7
  6
CONTINUOUS
 10
91.3388555627
 20
236.7197221277
 11
89.5005665079
 21
241.7703797961
  0
LINE
  8
0
 62
7
  6
CONTINUOUS
 10
103.463007858
 20
223.6462234729
 11
103.6196546725
 21
222.7932582786
  0
LINE
  8
0
 62
7
  6
CONTINUOUS
 10
111.0091469321
 20
221.3118426537
 11
110.8525020233
 21
222.1648082138
  0
LINE
  8
0
 62
7
  6
CONTINUOUS
 10
133.3306952361
 20
80.0040429632
 11
134.2640190494
 21
74.7109005892
  0
LINE
  8
DEFAULT_1
 62
2
  6
CENTER
 10
130.5534836066
 20
260.525102459
 11
130.5534836066
 21
165.2436706967
  0
LINE
  8
0
 62
2
  6
CONTINUOUS
 10
130.5534836066
 20
164.2935706967
 11
130.5534836066
 21
162.1935706967
  0
LINE
  8
DEFAULT_1
 62
2
  6
CENTER
 10
130.5534836066
 20
73.8488729508
 11
130.5534836066
 21
161.2434706967
  0
LINE
  8
0
 62
7
  6
CONTINUOUS
 10
136.7597828173
 20
231.0417487898
 11
136.6407979286
 21
230.1990435828
  0
LINE
  8
0
 62
7
  6
CONTINUOUS
 10
135.8317005689
 20
224.4686473487
 11
135.6413247303
 21
223.1203188995
  0
LINE
  8
0
 62
7
  6
CONTINUOUS
 10
145.1180322879
 20
228.452857109
 11
144.8013518542
 21
227.1284904513
  0
LINE
  8
0
 62
7
  6
CONTINUOUS
 10
146.0510287871
 20
228.054749195
 11
144.5072119918
 21
221.5984630722
  0
LINE
  8
0
 62
7
  6
CONTINUOUS
 10
145.4797935314
 20
221.3659009324
 11
147.3402906495
 21
229.1465532491
  0
LINE
  8
0
 62
7
  6
CONTINUOUS
 10
147.0587271835
 20
221.8902151518
 11
146.7881043251
 21
221.0833242415
  0
LINE
  8
DEFAULT_1
 62
2
  6
CENTER
 10
222.5628842213
 20
163.2435706967
 11
132.5535836066
 21
163.2435706967
  0
LINE
  8
0
 62
2
  6
CONTINUOUS
 10
131.6034836066
 20
163.2435706967
 11
129.5034836066
 21
163.2435706967
  0
LINE
  8
DEFAULT_1
 62
2
  6
CENTER
 10
37.823130123
 20
163.2435706967
 11
128.5533836066
 21
163.2435706967
  0
LINE
  8
0
 62
7
  6
CONTINUOUS
 10
83.2923618071
 20
208.5953314061
 11
85.6506435631
 21
206.1402427524
  0
LINE
  8
0
 62
7
  6
CONTINUOUS
 10
86.2516288216
 20
206.7175304885
 11
83.8933470656
 21
209.1726191422
  0
LINE
  8
0
 62
7
  6
CONTINUOUS
 10
88.5970392381
 20
213.5266288941
 11
91.9354212616
 21
209.2228019299
  0
LINE
  8
0
 62
7
  6
CONTINUOUS
 10
92.5938845178
 20
209.7335571057
 11
90.1944223562
 21
212.8269328422
  0
LINE
  8
0
 62
7
  6
CONTINUOUS
 10
89.7771246398
 20
213.3649111656
 11
89.2555024943
 21
214.0373840699
  0
LINE
  8
0
 62
7
  6
CONTINUOUS
 10
92.2803559777
 20
219.4515889191
 11
92.7550404253
 21
218.7452008211
  0
LINE
  8
0
 62
7
  6
CONTINUOUS
 10
93.7044095863
 20
217.3324242294
 11
96.7423903165
 21
212.8115400067
  0
LINE
  8
0
 62
7
  6
CONTINUOUS
 10
97.4340618144
 20
213.276335073
 11
94.3960810842
 21
217.7972192957
  0
LINE
  8
0
 62
7
  6
CONTINUOUS
 10
93.4467119231
 20
219.2099958874
 11
92.9720274756
 21
219.9163839854
  0
LINE
  8
0
 62
7
  6
CONTINUOUS
 10
103.6196546725
 20
222.7932582786
 11
104.5548447
 21
220.4175044914
  0
LINE
  8
0
 62
7
  6
CONTINUOUS
 10
105.4853482906
 20
220.7837872617
 11
104.5501582631
 21
223.1595410488
  0
LINE
  8
0
 62
7
  6
CONTINUOUS
 10
111.8657896395
 20
226.7283018844
 11
112.0324091623
 21
226.0681529281
  0
LINE
  8
0
 62
7
  6
CONTINUOUS
 10
112.9603493762
 20
226.4779128003
 11
112.8770396732
 21
226.8079870473
  0
LINE
  8
0
 62
7
  6
CONTINUOUS
 10
119.20197903
 20
230.3602622157
 11
120.1774117156
 21
222.4199517006
  0
LINE
  8
0
 62
7
  6
CONTINUOUS
 10
121.0454272087
 20
223.5555374453
 11
120.7341188983
 21
226.0896791519
  0
LINE
  8
0
 62
7
  6
CONTINUOUS
 10
120.6095955916
 20
227.1033356926
 11
120.3190411511
 21
229.4685347607
  0
LINE
  8
0
 62
7
  6
CONTINUOUS
 10
142.2425137875
 20
222.1882708492
 11
142.3852956705
 21
223.1995172157
  0
LINE
  8
0
 62
7
  6
CONTINUOUS
 10
143.1943930303
 20
228.9299134497
 11
143.3609718744
 21
230.1097007395
  0
LINE
  8
0
 62
7
  6
CONTINUOUS
 10
153.4770729349
 20
225.3030296262
 11
153.3688236551
 21
224.9802728552
  0
LINE
  8
0
 62
7
  6
CONTINUOUS
 10
152.476685124
 20
219.1754331297
 11
152.7473079824
 21
219.98232404
  0
LINE
  8
0
 62
7
  6
CONTINUOUS
 10
154.3169204549
 20
224.6622910033
 11
154.4251697347
 21
224.9850477743
  0
LINE
  8
0
 62
7
  6
CONTINUOUS
 10
86.297288057
 20
211.4817700455
 11
88.8913979721
 21
208.7811725436
  0
LINE
  8
0
 62
7
  6
CONTINUOUS
 10
89.9640397603
 20
208.8674426213
 11
86.8982734445
 21
212.0590579055
  0
LINE
  8
0
 62
7
  6
CONTINUOUS
 10
92.9821873428
 20
214.1276728009
 11
94.964351788
 21
211.5722753878
  0
LINE
  8
0
 62
7
  6
CONTINUOUS
 10
95.6228146674
 20
212.0830302713
 11
93.6406502223
 21
214.6384276844
  0
LINE
  8
0
 62
7
  6
CONTINUOUS
 10
104.5548447
 20
220.4175044914
 11
105.0216580202
 21
219.6866335318
  0
LINE
  8
0
 62
7
  6
CONTINUOUS
 10
117.265309422
 20
224.4045587573
 11
117.3902739765
 21
223.9094473868
  0
LINE
  8
0
 62
7
  6
CONTINUOUS
 10
118.4015220442
 20
223.9891325452
 11
118.1932477866
 21
224.8143181627
  0
LINE
  8
0
 62
7
  6
CONTINUOUS
 10
124.5791403851
 20
228.9629152938
 11
124.620648154
 21
228.6250297802
  0
LINE
  8
0
 62
7
  6
CONTINUOUS
 10
124.9942181032
 20
225.5840599216
 11
125.0564797566
 21
225.0772316513
  0
LINE
  8
0
 62
7
  6
CONTINUOUS
 10
126.0697724554
 20
225.0302179802
 11
125.9660030332
 21
225.8749317641
  0
LINE
  8
0
 62
7
  6
CONTINUOUS
 10
125.6339408528
 20
228.5780161092
 11
125.5509252569
 21
229.2537876095
  0
LINE
  8
0
 62
7
  6
CONTINUOUS
 10
154.4251697347
 20
224.9850477743
 11
154.4836542689
 21
225.6835565787
  0
LINE
  8
SURFACE
 62
7
  6
CONTINUOUS
 10
127.776271977
 20
80.0040429632
 11
126.8429481638
 21
74.7109005892
  0
LINE
  8
0
 62
7
  6
CONTINUOUS
 10
169.7681116505
 20
236.7197221277
 11
171.6064007052
 21
241.7703797961
  0
LINE
  8
SURFACE
 62
7
  6
CONTINUOUS
 10
86.528583917
 20
92.5446308953
 11
83.0737305977
 21
88.4272970401
  0
LINE
  8
0
 62
7
  6
CONTINUOUS
 10
201.252423408
 20
207.2684703863
 11
205.3697572632
 21
210.7233237056
  0
LINE
  8
SURFACE
 62
7
  6
CONTINUOUS
 10
57.0773321756
 20
124.0289426528
 11
52.0266745072
 21
122.1906535981
  0
LINE
  8
0
 62
7
  6
CONTINUOUS
 10
47.3139558731
 20
160.4663590672
 11
42.020813499
 21
159.5330352539
  0
LINE
  8
SURFACE
 62
7
  6
CONTINUOUS
 10
213.7930113401
 20
160.4663590672
 11
219.0861537141
 21
159.5330352539
  0
LINE
  8
0
 62
7
  6
CONTINUOUS
 10
57.0773321756
 20
202.4581987406
 11
52.0266745072
 21
204.2964877954
  0
LINE
  8
0
 62
7
  6
CONTINUOUS
 10
86.7255681292
 20
206.46472478
 11
86.2516288216
 21
206.7175304885
  0
LINE
  8
0
 62
7
  6
CONTINUOUS
 10
85.6506435631
 20
206.1402427524
 11
86.242497022
 21
205.7646825235
  0
LINE
  8
0
 62
7
  6
CONTINUOUS
 10
90.5558930804
 20
208.4918823004
 11
89.9640397603
 21
208.8674426213
  0
LINE
  8
SURFACE
 62
7
  6
CONTINUOUS
 10
201.252423408
 20
119.2186710071
 11
205.3697572632
 21
115.7638176878
  0
LINE
  8
0
 62
7
  6
CONTINUOUS
 10
92.32887232
 20
214.6979944946
 11
92.9821873428
 21
214.1276728009
  0
LINE
  8
0
 62
7
  6
CONTINUOUS
 10
93.6406502223
 20
214.6384276844
 11
92.987335953
 21
215.2087499627
  0
LINE
  8
0
 62
7
  6
CONTINUOUS
 10
86.528583917
 20
233.9425104982
 11
83.0737305977
 21
238.0598443533
  0
LINE
  8
0
 62
7
  6
CONTINUOUS
 10
105.8898156149
 20
220.2112998731
 11
105.4853482906
 21
220.7837872617
  0
LINE
  8
0
 62
7
  6
CONTINUOUS
 10
109.4185440278
 20
225.8076305691
 11
108.9517287581
 21
226.5385012738
  0
LINE
  8
0
 62
7
  6
CONTINUOUS
 10
113.5952126644
 20
222.6004844791
 11
113.3086480076
 21
223.0548084915
  0
LINE
  8
0
 62
7
  6
CONTINUOUS
 10
113.2469103343
 20
226.0235878544
 11
112.9603493762
 21
226.4779128003
  0
LINE
  8
0
 62
7
  6
CONTINUOUS
 10
112.3390547915
 20
222.8100862096
 11
112.6672742998
 21
222.1907250738
  0
LINE
  8
0
 62
7
  6
CONTINUOUS
 10
112.0324091623
 20
226.0681529281
 11
112.3606286706
 21
225.4487917923
  0
LINE
  8
SURFACE
 62
7
  6
CONTINUOUS
 10
169.7681116505
 20
89.7674192657
 11
171.6064007052
 21
84.7167615973
  0
LINE
  8
0
 62
7
  6
CONTINUOUS
 10
127.776271977
 20
246.4830984302
 11
126.8429481638
 21
251.7762408043
  0
LINE
  8
0
 62
7
  6
CONTINUOUS
 10
142.6680568009
 20
66.0699225191
 11
143.4971847557
 21
70.7721408149
  0
LINE
  8
SURFACE
 62
7
  6
CONTINUOUS
 10
189.6318358377
 20
241.3411319998
 11
187.9987725616
 21
236.8543275241
  0
LINE
  8
0
 62
7
  6
CONTINUOUS
 10
92.45818766
 20
73.0314361993
 11
95.5273426797
 21
76.6891127202
  0
LINE
  8
SURFACE
 62
7
  6
CONTINUOUS
 10
220.765618104
 20
201.3388666432
 11
217.1079415831
 21
198.2697116235
  0
LINE
  8
0
 62
7
  6
CONTINUOUS
 10
52.4559223035
 20
104.1652184656
 11
56.9427267792
 21
105.7982817417
  0
LINE
  8
SURFACE
 62
7
  6
CONTINUOUS
 10
33.3798354289
 20
175.3581438911
 11
38.0820537247
 21
176.1872718458
  0
LINE
  8
0
 62
7
  6
CONTINUOUS
 10
227.7271317842
 20
175.3581438911
 11
223.0249134884
 21
176.1872718458
  0
LINE
  8
SURFACE
 62
7
  6
CONTINUOUS
 10
52.4559223035
 20
222.3219229279
 11
56.9427267792
 21
220.6888596518
  0
LINE
  8
0
 62
7
  6
CONTINUOUS
 10
86.242497022
 20
205.7646825235
 11
86.5985222392
 21
205.6346312287
  0
LINE
  8
0
 62
7
  6
CONTINUOUS
 10
90.911918544
 20
208.3618312009
 11
90.5558930804
 21
208.4918823004
  0
LINE
  8
0
 62
7
  6
CONTINUOUS
 10
89.4809684523
 20
208.1674003372
 11
90.3109331564
 21
207.7845433409
  0
LINE
  8
0
 62
7
  6
CONTINUOUS
 10
92.987335953
 20
215.2087499627
 11
92.5426697884
 21
215.5100824947
  0
LINE
  8
0
 62
7
  6
CONTINUOUS
 10
220.765618104
 20
125.1482747502
 11
217.1079415831
 21
128.2174297699
  0
LINE
  8
0
 62
7
  6
CONTINUOUS
 10
105.0216580202
 20
219.6866335318
 11
105.5812105031
 21
219.1751936265
  0
LINE
  8
0
 62
7
  6
CONTINUOUS
 10
112.6672742998
 20
222.1907250738
 11
113.3603452093
 21
221.4879004238
  0
LINE
  8
SURFACE
 62
7
  6
CONTINUOUS
 10
92.45818766
 20
253.4557051942
 11
95.5273426797
 21
249.7980286732
  0
LINE
  8
0
 62
7
  6
CONTINUOUS
 10
108.1459171594
 20
225.8554513615
 11
108.4880404371
 21
225.4413477989
  0
LINE
  8
0
 62
7
  6
CONTINUOUS
 10
116.875353973
 20
227.9927001852
 11
116.5887930149
 21
228.4470251311
  0
LINE
  8
0
 62
7
  6
CONTINUOUS
 10
124.7665358092
 20
226.0705672244
 11
124.9942181032
 21
225.5840599216
  0
LINE
  8
0
 62
7
  6
CONTINUOUS
 10
125.9660030332
 20
225.8749317641
 11
125.7383207391
 21
226.3614390668
  0
LINE
  8
0
 62
7
  6
CONTINUOUS
 10
124.351458062
 20
229.4494228332
 11
124.5791403851
 21
228.9629152938
  0
LINE
  8
0
 62
7
  6
CONTINUOUS
 10
125.5509252569
 20
229.2537876095
 11
125.3232429919
 21
229.7402946757
  0
LINE
  8
0
 62
7
  6
CONTINUOUS
 10
189.6318358377
 20
85.1460093936
 11
187.9987725616
 21
89.6328138693
  0
LINE
  8
SURFACE
 62
7
  6
CONTINUOUS
 10
142.6680568009
 20
260.4172188744
 11
143.4971847557
 21
255.7150005786
  0
LINE
  8
CURVE
 62
2
  6
DOT
 10
171.3224595294
 20
159.1112660143
 11
167.0798188423
 21
154.8686253271
  0
LINE
  8
CURVE
 62
2
  6
DOT
 10
134.685788289
 20
122.4745947738
 11
138.9284289761
 21
126.717235461
  0
LINE
  8
CURVE
 62
2
  6
DOT
 10
143.0531257355
 20
128.5791905205
 11
165.2178637828
 21
150.7439285678
  0
LINE
  8
0
 62
7
  6
CONTINUOUS
 10
87.3197045882
 20
206.3273765493
 11
86.7255681292
 21
206.46472478
  0
LINE
  8
0
 62
7
  6
CONTINUOUS
 10
106.387022058
 20
219.8582436496
 11
105.8898156149
 21
220.2112998731
  0
LINE
  8
0
 62
7
  6
CONTINUOUS
 10
116.8171483032
 20
224.8180965762
 11
117.265309422
 21
224.4045587573
  0
LINE
  8
CURVE
 62
2
  6
DOT
 10
167.0798188423
 20
171.6185160663
 11
171.3224595294
 21
167.3758753792
  0
LINE
  8
CURVE
 62
2
  6
DOT
 10
138.9284289761
 20
199.7699059325
 11
134.685788289
 21
204.0125466196
  0
LINE
  8
CURVE
 62
2
  6
DOT
 10
143.0531257355
 20
197.907950873
 11
165.2178637828
 21
175.7432128256
  0
LINE
  8
0
 62
7
  6
CONTINUOUS
 10
118.1932477866
 20
224.8143181627
 11
117.7034318163
 21
225.3928931051
  0
LINE
  8
0
 62
7
  6
CONTINUOUS
 10
115.6608546503
 20
228.0372657257
 11
115.9057607569
 21
227.7479779033
  0
LINE
  8
0
 62
7
  6
CONTINUOUS
 10
153.3234119494
 20
225.8931588639
 11
153.4770729349
 21
225.3030296262
  0
LINE
  8
0
 62
7
  6
CONTINUOUS
 10
86.5985222392
 20
205.6346312287
 11
87.3128556614
 21
205.6127405428
  0
LINE
  8
0
 62
7
  6
CONTINUOUS
 10
91.8568384608
 20
214.7626818198
 11
92.32887232
 21
214.6979944946
  0
LINE
  8
0
 62
7
  6
CONTINUOUS
 10
92.5426697884
 20
215.5100824947
 11
92.0706359291
 21
215.5747698199
  0
LINE
  8
0
 62
7
  6
CONTINUOUS
 10
105.5812105031
 20
219.1751936265
 11
106.4509296444
 21
218.7858475675
  0
LINE
  8
0
 62
7
  6
CONTINUOUS
 10
114.2049720069
 20
222.2277336672
 11
113.5952126644
 21
222.6004844791
  0
LINE
  8
0
 62
7
  6
CONTINUOUS
 10
112.3606286706
 20
225.4487917923
 11
113.1736429377
 21
224.9517913306
  0
LINE
  8
0
 62
7
  6
CONTINUOUS
 10
117.7034318163
 20
225.3928931051
 11
116.8904156999
 21
225.8898930999
  0
LINE
  8
0
 62
7
  6
CONTINUOUS
 10
124.3941792447
 20
226.3678093993
 11
124.7665358092
 21
226.0705672244
  0
LINE
  8
0
 62
7
  6
CONTINUOUS
 10
116.5887930149
 20
228.4470251311
 11
115.9373770007
 21
228.9848124841
  0
LINE
  8
0
 62
7
  6
CONTINUOUS
 10
125.7383207391
 20
226.3614390668
 11
125.1590357941
 21
226.9762455511
  0
LINE
  8
0
 62
7
  6
CONTINUOUS
 10
125.3232429919
 20
229.7402946757
 11
124.7439580469
 21
230.3551011599
  0
LINE
  8
0
 62
7
  6
CONTINUOUS
 10
150.1630941056
 20
226.9530967531
 11
150.7453916337
 21
227.1168621461
  0
LINE
  8
0
 62
7
  6
CONTINUOUS
 10
87.3128556614
 20
205.6127405428
 11
87.9092750582
 21
205.7136043536
  0
LINE
  8
0
 62
7
  6
CONTINUOUS
 10
92.0706359291
 20
215.5747698199
 11
91.4669091926
 21
215.5373059346
  0
LINE
  8
0
 62
7
  6
CONTINUOUS
 10
106.4509296444
 20
218.7858475675
 11
107.1959567883
 21
218.7132686645
  0
LINE
  8
0
 62
7
  6
CONTINUOUS
 10
106.976965889
 20
219.7246177818
 11
106.387022058
 21
219.8582436496
  0
LINE
  8
0
 62
7
  6
CONTINUOUS
 10
107.5559733721
 20
225.9890771184
 11
108.1459171594
 21
225.8554513615
  0
LINE
  8
0
 62
7
  6
CONTINUOUS
 10
113.1736429377
 20
224.9517913306
 11
113.903349351
 21
224.7848655827
  0
LINE
  8
0
 62
7
  6
CONTINUOUS
 10
113.3603452093
 20
221.4879004238
 11
114.293304738
 21
221.1967244005
  0
LINE
  8
0
 62
7
  6
CONTINUOUS
 10
113.8150166455
 20
225.8158747483
 11
113.2469103343
 21
226.0235878544
  0
LINE
  8
0
 62
7
  6
CONTINUOUS
 10
116.2490419921
 20
225.0258096823
 11
116.8171483032
 21
224.8180965762
  0
LINE
  8
0
 62
7
  6
CONTINUOUS
 10
115.9373770007
 20
228.9848124841
 11
115.1660157359
 21
229.3167753555
  0
LINE
  8
0
 62
7
  6
CONTINUOUS
 10
108.9517287581
 20
226.5385012738
 11
108.0820096385
 21
226.9278472773
  0
LINE
  8
0
 62
7
  6
CONTINUOUS
 10
124.7439580469
 20
230.3551011599
 11
124.0200025886
 21
230.7806432181
  0
LINE
  8
0
 62
7
  6
CONTINUOUS
 10
115.2543447427
 20
228.2857652564
 11
115.6608546503
 21
228.0372657257
  0
LINE
  8
0
 62
7
  6
CONTINUOUS
 10
123.9791014975
 20
229.7466650081
 11
124.351458062
 21
229.4494228332
  0
LINE
  8
0
 62
7
  6
CONTINUOUS
 10
152.9576126777
 20
226.3749061088
 11
153.3234119494
 21
225.8931588639
  0
LINE
  8
0
 62
7
  6
CONTINUOUS
 10
154.4836542689
 20
225.6835565787
 11
154.0680831698
 21
226.5410587352
  0
LINE
  8
0
 62
7
  6
CONTINUOUS
 10
115.142952707
 20
221.2356221863
 11
116.435742429
 21
221.5619182509
  0
LINE
  8
0
 62
7
  6
CONTINUOUS
 10
116.1858132907
 20
222.5521411075
 11
114.8930235687
 21
222.2258450428
  0
LINE
  8
0
 62
7
  6
CONTINUOUS
 10
113.3086480076
 20
223.0548084915
 11
112.3390547915
 21
222.8100862096
  0
LINE
  8
0
 62
7
  6
CONTINUOUS
 10
114.5913972142
 20
224.7829760248
 11
115.5609904303
 21
225.0276983067
  0
LINE
  8
0
 62
7
  6
CONTINUOUS
 10
115.3110613212
 20
226.0179210476
 11
114.341468105
 21
225.7731987658
  0
LINE
  8
0
 62
7
  6
CONTINUOUS
 10
91.4891290306
 20
214.6928745642
 11
91.8568384608
 21
214.7626818198
  0
LINE
  8
0
 62
7
  6
CONTINUOUS
 10
107.1959567883
 20
218.7132686645
 11
108.0337230403
 21
218.8601209543
  0
LINE
  8
0
 62
7
  6
CONTINUOUS
 10
150.8579934986
 20
227.976751536
 11
150.1176822484
 21
227.8659823097
  0
LINE
  8
0
 62
7
  6
CONTINUOUS
 10
107.6596470206
 20
219.8104224914
 11
106.976965889
 21
219.7246177818
  0
LINE
  8
0
 62
7
  6
CONTINUOUS
 10
106.8732922406
 20
225.9032724089
 11
107.5559733721
 21
225.9890771184
  0
LINE
  8
0
 62
7
  6
CONTINUOUS
 10
120.1774117156
 20
222.4199517006
 11
124.1475669731
 21
222.9076680434
  0
LINE
  8
0
 62
7
  6
CONTINUOUS
 10
124.1884642635
 20
223.9416459066
 11
121.0454272087
 21
223.5555374453
  0
LINE
  8
0
 62
7
  6
CONTINUOUS
 10
120.7341188983
 20
226.0896791519
 11
123.877155953
 21
226.4757876132
  0
LINE
  8
0
 62
7
  6
CONTINUOUS
 10
123.7526326463
 20
227.4894441539
 11
120.6095955916
 21
227.1033356926
  0
LINE
  8
0
 62
7
  6
CONTINUOUS
 10
114.293304738
 20
221.1967244005
 11
115.142952707
 21
221.2356221863
  0
LINE
  8
0
 62
7
  6
CONTINUOUS
 10
116.1607129853
 20
226.0568197814
 11
115.3110613212
 21
226.0179210476
  0
LINE
  8
0
 62
7
  6
CONTINUOUS
 10
114.8930235687
 20
222.2258450428
 11
114.2049720069
 21
222.2277336672
  0
LINE
  8
0
 62
7
  6
CONTINUOUS
 10
113.903349351
 20
224.7848655827
 11
114.5913972142
 21
224.7829760248
  0
LINE
  8
0
 62
7
  6
CONTINUOUS
 10
115.5609904303
 20
225.0276983067
 11
116.2490419921
 21
225.0258096823
  0
LINE
  8
0
 62
7
  6
CONTINUOUS
 10
114.341468105
 20
225.7731987658
 11
113.8150166455
 21
225.8158747483
  0
LINE
  8
0
 62
7
  6
CONTINUOUS
 10
114.7278932832
 20
228.3284412389
 11
115.2543447427
 21
228.2857652564
  0
LINE
  8
0
 62
7
  6
CONTINUOUS
 10
108.0820096385
 20
226.9278472773
 11
107.336982511
 21
227.0004261387
  0
LINE
  8
0
 62
7
  6
CONTINUOUS
 10
150.7453916337
 20
227.1168621461
 11
151.5895920421
 21
227.0132570462
  0
LINE
  8
0
 62
7
  6
CONTINUOUS
 10
135.6413247303
 20
223.1203188995
 11
142.2425137875
 21
222.1882708492
  0
LINE
  8
0
 62
7
  6
CONTINUOUS
 10
142.3852956705
 20
223.1995172157
 11
136.7742853497
 21
223.9917580051
  0
LINE
  8
0
 62
7
  6
CONTINUOUS
 10
123.877155953
 20
226.4757876132
 11
124.3941792447
 21
226.3678093993
  0
LINE
  8
0
 62
7
  6
CONTINUOUS
 10
123.4620782058
 20
229.854643222
 11
123.9791014975
 21
229.7466650081
  0
LINE
  8
0
 62
7
  6
CONTINUOUS
 10
116.8904156999
 20
225.8898930999
 11
116.1607129853
 21
226.0568197814
  0
LINE
  8
0
 62
7
  6
CONTINUOUS
 10
144.5072119918
 20
221.5984630722
 11
145.4797935314
 21
221.3659009324
  0
LINE
  8
0
 62
7
  6
CONTINUOUS
 10
146.7881043251
 20
221.0833242415
 11
152.476685124
 21
219.1754331297
  0
LINE
  8
0
 62
7
  6
CONTINUOUS
 10
152.7473079824
 20
219.98232404
 11
148.3228586611
 21
221.4662385405
  0
LINE
  8
0
 62
7
  6
CONTINUOUS
 10
125.1590357941
 20
226.9762455511
 11
124.8074331141
 21
227.1045449692
  0
LINE
  8
0
 62
7
  6
CONTINUOUS
 10
152.2216613976
 20
226.8012675276
 11
152.9576126777
 21
226.3749061088
  0
LINE
  8
0
 62
7
  6
CONTINUOUS
 10
154.0680831698
 20
226.5410587352
 11
153.5442701759
 21
227.0758021467
  0
LINE
  8
0
 62
7
  6
CONTINUOUS
 10
115.9057607569
 20
227.7479779033
 11
116.875353973
 21
227.9927001852
  0
LINE
  8
0
 62
7
  6
CONTINUOUS
 10
113.758300067
 20
228.0837189571
 11
114.7278932832
 21
228.3284412389
  0
LINE
  8
0
 62
7
  6
CONTINUOUS
 10
114.3163677705
 20
229.2778775553
 11
113.5083709579
 21
229.073941698
  0
LINE
  8
0
 62
7
  6
CONTINUOUS
 10
107.336982511
 20
227.0004261387
 11
106.4992162645
 21
226.853573835
  0
LINE
  8
0
 62
7
  6
CONTINUOUS
 10
120.3190411511
 20
229.4685347607
 11
123.4620782058
 21
229.854643222
  0
LINE
  8
0
 62
7
  6
CONTINUOUS
 10
123.1721342875
 20
230.8479785585
 11
119.20197903
 21
230.3602622157
  0
LINE
  8
0
 62
7
  6
CONTINUOUS
 10
115.1660157359
 20
229.3167753555
 11
114.3163677705
 21
229.2778775553
  0
LINE
  8
0
 62
7
  6
CONTINUOUS
 10
124.0200025886
 20
230.7806432181
 11
123.1721342875
 21
230.8479785585
  0
LINE
  8
0
 62
7
  6
CONTINUOUS
 10
136.6407979286
 20
230.1990435828
 11
142.4168392979
 21
229.3835014055
  0
LINE
  8
0
 62
7
  6
CONTINUOUS
 10
143.3609718744
 20
230.1097007395
 11
136.7597828173
 21
231.0417487898
  0
LINE
  8
0
 62
7
  6
CONTINUOUS
 10
152.0182358181
 20
227.7671492508
 11
150.8579934986
 21
227.976751536
  0
LINE
  8
0
 62
7
  6
CONTINUOUS
 10
147.3402906495
 20
229.1465532491
 11
146.3677091099
 21
229.3791153889
  0
LINE
  8
0
 62
7
  6
CONTINUOUS
 10
148.894602658
 20
226.8399427194
 11
149.6846857356
 21
226.5749570341
  0
LINE
  8
0
 62
7
  6
CONTINUOUS
 10
151.5895920421
 20
227.0132570462
 11
152.2216613976
 21
226.8012675276
  0
LINE
  8
0
 62
7
  6
CONTINUOUS
 10
152.6502979402
 20
227.5551621582
 11
152.0182358181
 21
227.7671492508
  0
LINE
  8
0
 62
7
  6
CONTINUOUS
 10
153.5442701759
 20
227.0758021467
 11
152.6502979402
 21
227.5551621582
  0
LINE
  8
SURFACE
 62
7
  6
CONTINUOUS
 10
212.5534836066
 20
188.5026449738
 11
212.5534836066
 21
161.9435706967
  0
LINE
  8
0
 62
7
  6
CONTINUOUS
 10
212.5534836066
 20
137.9844964197
 11
212.5534836066
 21
141.2717369174
  0
LINE
  8
SURFACE
 62
7
  6
CONTINUOUS
 10
214.1971038554
 20
144.1185706967
 11
200.9175667169
 21
121.1177376718
  0
LINE
  8
0
 62
7
  6
CONTINUOUS
 10
188.9380295784
 20
100.3685706967
 11
190.5816498272
 21
103.2154044761
  0
LINE
  8
SURFACE
 62
7
  6
CONTINUOUS
 10
193.4284836066
 20
104.8590247249
 11
170.4276505816
 21
91.5794875864
  0
LINE
  8
0
 62
7
  6
CONTINUOUS
 10
149.6784836066
 20
79.5999504479
 11
152.5253173859
 21
81.2435706967
  0
LINE
  8
0
 62
7
  6
CONTINUOUS
 10
155.8125578836
 20
245.2435706967
 11
152.5253173859
 21
245.2435706967
  0
LINE
  8
SURFACE
 62
7
  6
CONTINUOUS
 10
105.2944093295
 20
245.2435706967
 11
131.8534836066
 21
245.2435706967
  0
LINE
  8
0
 62
7
  6
CONTINUOUS
 10
193.4284836066
 20
221.6281166685
 11
190.5816498272
 21
223.2717369174
  0
LINE
  8
SURFACE
 62
7
  6
CONTINUOUS
 10
149.6784836066
 20
246.8871909456
 11
172.6793166315
 21
233.607653807
  0
LINE
  8
SURFACE
 62
7
  6
CONTINUOUS
 10
188.9380295784
 20
226.1185706967
 11
202.2175667169
 21
203.1177376718
  0
LINE
  8
0
 62
7
  6
CONTINUOUS
 10
214.1971038554
 20
182.3685706967
 11
212.5534836066
 21
185.2154044761
  0
POLYLINE
  8
0
 62
7
  6
CONTINUOUS
 66
1
 70
0
  0
VERTEX
  8
0
 62
7
  6
CONTINUOUS
 10
311.81539915
 20
65.2435706967
  0
VERTEX
  8
0
 62
7
  6
CONTINUOUS
 10
311.8723743155
 20
65.2451951009
  0
VERTEX
  8
0
 62
7
  6
CONTINUOUS
 10
311.9289197999
 20
65.2500350597
  0
VERTEX
  8
0
 62
7
  6
CONTINUOUS
 10
311.984945687
 20
65.2580485144
  0
VERTEX
  8
0
 62
7
  6
CONTINUOUS
 10
312.0403572671
 20
65.2692022625
  0
VERTEX
  8
0
 62
7
  6
CONTINUOUS
 10
312.0951567846
 20
65.2835000401
  0
VERTEX
  8
0
 62
7
  6
CONTINUOUS
 10
312.148934624
 20
65.300833147
  0
VERTEX
  8
0
 62
7
  6
CONTINUOUS
 10
312.2012540535
 20
65.3210112171
  0
VERTEX
  8
0
 62
7
  6
CONTINUOUS
 10
312.2522246564
 20
65.344024435
  0
VERTEX
  8
0
 62
7
  6
CONTINUOUS
 10
312.3018156193
 20
65.3698436121
  0
VERTEX
  8
0
 62
7
  6
CONTINUOUS
 10
312.3499440651
 20
65.3984306292
  0
VERTEX
  8
0
 62
7
  6
CONTINUOUS
 10
312.3966720898
 20
65.4298620454
  0
VERTEX
  8
0
 62
7
  6
CONTINUOUS
 10
312.4414610409
 20
65.4637973266
  0
VERTEX
  8
0
 62
7
  6
CONTINUOUS
 10
312.4837133161
 20
65.4996915565
  0
VERTEX
  8
0
 62
7
  6
CONTINUOUS
 10
312.5238647484
 20
65.537825349
  0
VERTEX
  8
0
 62
7
  6
CONTINUOUS
 10
312.5622211053
 20
65.5785466619
  0
VERTEX
  8
0
 62
7
  6
CONTINUOUS
 10
312.5983019817
 20
65.6214266972
  0
VERTEX
  8
0
 62
7
  6
CONTINUOUS
 10
312.6317743244
 20
65.6660487712
  0
VERTEX
  8
0
 62
7
  6
CONTINUOUS
 10
312.6626967357
 20
65.712452253
  0
VERTEX
  8
0
 62
7
  6
CONTINUOUS
 10
312.6910252442
 20
65.7605811077
  0
VERTEX
  8
0
 62
7
  6
CONTINUOUS
 10
312.7166749931
 20
65.8103249758
  0
VERTEX
  8
0
 62
7
  6
CONTINUOUS
 10
312.7395957487
 20
65.8616536287
  0
VERTEX
  8
0
 62
7
  6
CONTINUOUS
 10
312.7596159111
 20
65.9142460726
  0
VERTEX
  8
0
 62
7
  6
CONTINUOUS
 10
312.7765935303
 20
65.9676986915
  0
VERTEX
  8
0
 62
7
  6
CONTINUOUS
 10
312.7905702986
 20
66.0221181491
  0
VERTEX
  8
0
 62
7
  6
CONTINUOUS
 10
312.8015262725
 20
66.0775788398
  0
VERTEX
  8
0
 62
7
  6
CONTINUOUS
 10
312.8072816768
 20
66.1164131083
  0
SEQEND
  0
LINE
  8
SURFACE
 62
7
  6
CONTINUOUS
 10
324.51539915
 20
65.2435706967
 11
317.7112401943
 21
65.2435706967
  0
LINE
  8
0
 62
7
  6
CONTINUOUS
 10
305.0112401943
 20
65.2435706967
 11
311.81539915
 21
65.2435706967
  0
POLYLINE
  8
SURFACE
 62
7
  6
CONTINUOUS
 66
1
 70
0
  0
VERTEX
  8
SURFACE
 62
7
  6
CONTINUOUS
 10
317.7112401943
 20
65.2435706967
  0
VERTEX
  8
SURFACE
 62
7
  6
CONTINUOUS
 10
317.6542650287
 20
65.2451951009
  0
VERTEX
  8
SURFACE
 62
7
  6
CONTINUOUS
 10
317.5977195444
 20
65.2500350597
  0
VERTEX
  8
SURFACE
 62
7
  6
CONTINUOUS
 10
317.5416936573
 20
65.2580485144
  0
VERTEX
  8
SURFACE
 62
7
  6
CONTINUOUS
 10
317.4862820772
 20
65.2692022625
  0
VERTEX
  8
SURFACE
 62
7
  6
CONTINUOUS
 10
317.4314825596
 20
65.2835000401
  0
VERTEX
  8
SURFACE
 62
7
  6
CONTINUOUS
 10
317.3777047203
 20
65.300833147
  0
VERTEX
  8
SURFACE
 62
7
  6
CONTINUOUS
 10
317.3253852907
 20
65.3210112171
  0
VERTEX
  8
SURFACE
 62
7
  6
CONTINUOUS
 10
317.2744146878
 20
65.344024435
  0
VERTEX
  8
SURFACE
 62
7
  6
CONTINUOUS
 10
317.224823725
 20
65.3698436121
  0
VERTEX
  8
SURFACE
 62
7
  6
CONTINUOUS
 10
317.1766952791
 20
65.3984306292
  0
VERTEX
  8
SURFACE
 62
7
  6
CONTINUOUS
 10
317.1299672544
 20
65.4298620454
  0
VERTEX
  8
SURFACE
 62
7
  6
CONTINUOUS
 10
317.0851783034
 20
65.4637973266
  0
VERTEX
  8
SURFACE
 62
7
  6
CONTINUOUS
 10
317.0429260282
 20
65.4996915565
  0
VERTEX
  8
SURFACE
 62
7
  6
CONTINUOUS
 10
317.0027745959
 20
65.537825349
  0
VERTEX
  8
SURFACE
 62
7
  6
CONTINUOUS
 10
316.9644182389
 20
65.5785466619
  0
VERTEX
  8
SURFACE
 62
7
  6
CONTINUOUS
 10
316.9283373626
 20
65.6214266972
  0
VERTEX
  8
SURFACE
 62
7
  6
CONTINUOUS
 10
316.8948650198
 20
65.6660487712
  0
VERTEX
  8
SURFACE
 62
7
  6
CONTINUOUS
 10
316.8639426086
 20
65.712452253
  0
VERTEX
  8
SURFACE
 62
7
  6
CONTINUOUS
 10
316.8356141
 20
65.7605811077
  0
VERTEX
  8
SURFACE
 62
7
  6
CONTINUOUS
 10
316.8099643512
 20
65.8103249758
  0
VERTEX
  8
SURFACE
 62
7
  6
CONTINUOUS
 10
316.7870435955
 20
65.8616536287
  0
VERTEX
  8
SURFACE
 62
7
  6
CONTINUOUS
 10
316.7670234332
 20
65.9142460726
  0
VERTEX
  8
SURFACE
 62
7
  6
CONTINUOUS
 10
316.750045814
 20
65.9676986915
  0
VERTEX
  8
SURFACE
 62
7
  6
CONTINUOUS
 10
316.7360690456
 20
66.0221181491
  0
VERTEX
  8
SURFACE
 62
7
  6
CONTINUOUS
 10
316.7251130718
 20
66.0775788398
  0
VERTEX
  8
SURFACE
 62
7
  6
CONTINUOUS
 10
316.7193576675
 20
66.1164131083
  0
SEQEND
  0
POLYLINE
  8
0
 62
7
  6
CONTINUOUS
 66
1
 70
0
  0
VERTEX
  8
0
 62
7
  6
CONTINUOUS
 10
311.81539915
 20
72.674223809
  0
VERTEX
  8
0
 62
7
  6
CONTINUOUS
 10
311.8720062349
 20
72.6758272755
  0
VERTEX
  8
0
 62
7
  6
CONTINUOUS
 10
311.9284286938
 20
72.6806321815
  0
VERTEX
  8
0
 62
7
  6
CONTINUOUS
 10
311.9844871852
 20
72.6886228571
  0
VERTEX
  8
0
 62
7
  6
CONTINUOUS
 10
312.0400021325
 20
72.6997734509
  0
VERTEX
  8
0
 62
7
  6
CONTINUOUS
 10
312.09479683
 20
72.7140483373
  0
VERTEX
  8
0
 62
7
  6
CONTINUOUS
 10
312.1486935652
 20
72.7314010087
  0
VERTEX
  8
0
 62
7
  6
CONTINUOUS
 10
312.2015163535
 20
72.7517740785
  0
VERTEX
  8
0
 62
7
  6
CONTINUOUS
 10
312.2531009127
 20
72.7751035907
  0
VERTEX
  8
0
 62
7
  6
CONTINUOUS
 10
312.3032871893
 20
72.8013175935
  0
VERTEX
  8
0
 62
7
  6
CONTINUOUS
 10
312.3519083712
 20
72.8303293514
  0
VERTEX
  8
0
 62
7
  6
CONTINUOUS
 10
312.3988031484
 20
72.8620417022
  0
VERTEX
  8
0
 62
7
  6
CONTINUOUS
 10
312.443826897
 20
72.8963558467
  0
VERTEX
  8
0
 62
7
  6
CONTINUOUS
 10
312.4868384761
 20
72.933164276
  0
VERTEX
  8
0
 62
7
  6
CONTINUOUS
 10
312.5276993566
 20
72.9723488802
  0
VERTEX
  8
0
 62
7
  6
CONTINUOUS
 10
312.5662797148
 20
73.0137857896
  0
VERTEX
  8
0
 62
7
  6
CONTINUOUS
 10
312.6024525771
 20
73.0573389713
  0
VERTEX
  8
0
 62
7
  6
CONTINUOUS
 10
312.6360981493
 20
73.1028630188
  0
VERTEX
  8
0
 62
7
  6
CONTINUOUS
 10
312.6671140305
 20
73.1502183106
  0
VERTEX
  8
0
 62
7
  6
CONTINUOUS
 10
312.6954045121
 20
73.1992600602
  0
VERTEX
  8
0
 62
7
  6
CONTINUOUS
 10
312.7208749853
 20
73.2498259866
  0
VERTEX
  8
0
 62
7
  6
CONTINUOUS
 10
312.7434415515
 20
73.3017492447
  0
VERTEX
  8
0
 62
7
  6
CONTINUOUS
 10
312.7630336582
 20
73.3548668946
  0
VERTEX
  8
0
 62
7
  6
CONTINUOUS
 10
312.7795889721
 20
73.4090107117
  0
VERTEX
  8
0
 62
7
  6
CONTINUOUS
 10
312.79305395
 20
73.4640070351
  0
VERTEX
  8
0
 62
7
  6
CONTINUOUS
 10
312.8033851318
 20
73.5196802886
  0
VERTEX
  8
0
 62
7
  6
CONTINUOUS
 10
312.8068744537
 20
73.5439290579
  0
SEQEND
  0
LINE
  8
0
 62
7
  6
CONTINUOUS
 10
305.0112401943
 20
72.674223809
 11
311.81539915
 21
72.674223809
  0
POLYLINE
  8
SURFACE
 62
7
  6
CONTINUOUS
 66
1
 70
0
  0
VERTEX
  8
SURFACE
 62
7
  6
CONTINUOUS
 10
316.278936677
 20
81.2435706967
  0
VERTEX
  8
SURFACE
 62
7
  6
CONTINUOUS
 10
316.3161742832
 20
81.2453207265
  0
VERTEX
  8
SURFACE
 62
7
  6
CONTINUOUS
 10
316.357457924
 20
81.2507740356
  0
VERTEX
  8
SURFACE
 62
7
  6
CONTINUOUS
 10
316.4027768982
 20
81.2602492082
  0
VERTEX
  8
SURFACE
 62
7
  6
CONTINUOUS
 10
316.4521077954
 20
81.2740413838
  0
VERTEX
  8
SURFACE
 62
7
  6
CONTINUOUS
 10
316.5054250767
 20
81.2924948358
  0
VERTEX
  8
SURFACE
 62
7
  6
CONTINUOUS
 10
316.5625382802
 20
81.3158460272
  0
VERTEX
  8
SURFACE
 62
7
  6
CONTINUOUS
 10
316.6232701916
 20
81.3443852024
  0
VERTEX
  8
SURFACE
 62
7
  6
CONTINUOUS
 10
316.687264201
 20
81.3782318435
  0
VERTEX
  8
SURFACE
 62
7
  6
CONTINUOUS
 10
316.7541671119
 20
81.4175421328
  0
VERTEX
  8
SURFACE
 62
7
  6
CONTINUOUS
 10
316.8234621189
 20
81.462267892
  0
VERTEX
  8
SURFACE
 62
7
  6
CONTINUOUS
 10
316.894615663
 20
81.5123495134
  0
VERTEX
  8
SURFACE
 62
7
  6
CONTINUOUS
 10
316.9670458941
 20
81.5675843219
  0
VERTEX
  8
SURFACE
 62
7
  6
CONTINUOUS
 10
317.0400447937
 20
81.6275386161
  0
VERTEX
  8
SURFACE
 62
7
  6
CONTINUOUS
 10
317.1133196721
 20
81.692385594
  0
SEQEND
  0
LINE
  8
0
 62
7
  6
CONTINUOUS
 10
316.278936677
 20
81.2435706967
 11
313.4133196721
 21
81.2435706967
  0
POLYLINE
  8
SURFACE
 62
7
  6
CONTINUOUS
 66
1
 70
0
  0
VERTEX
  8
SURFACE
 62
7
  6
CONTINUOUS
 10
324.5573142667
 20
83.7835359055
  0
VERTEX
  8
SURFACE
 62
7
  6
CONTINUOUS
 10
324.6140285046
 20
83.7850733156
  0
VERTEX
  8
SURFACE
 62
7
  6
CONTINUOUS
 10
324.6796201536
 20
83.7907040623
  0
VERTEX
  8
SURFACE
 62
7
  6
CONTINUOUS
 10
324.7439243473
 20
83.8002938391
  0
VERTEX
  8
SURFACE
 62
7
  6
CONTINUOUS
 10
324.8067164683
 20
83.8136473802
  0
VERTEX
  8
SURFACE
 62
7
  6
CONTINUOUS
 10
324.8677799343
 20
83.8305532685
  0
VERTEX
  8
SURFACE
 62
7
  6
CONTINUOUS
 10
324.9269545123
 20
83.8507992511
  0
VERTEX
  8
SURFACE
 62
7
  6
CONTINUOUS
 10
324.9840059872
 20
83.8741274623
  0
VERTEX
  8
SURFACE
 62
7
  6
CONTINUOUS
 10
325.0387897287
 20
83.9002866208
  0
VERTEX
  8
SURFACE
 62
7
  6
CONTINUOUS
 10
325.0910763847
 20
83.9289538808
  0
VERTEX
  8
SURFACE
 62
7
  6
CONTINUOUS
 10
325.1407133716
 20
83.9598020404
  0
VERTEX
  8
SURFACE
 62
7
  6
CONTINUOUS
 10
325.1875814909
 20
83.9924860148
  0
VERTEX
  8
SURFACE
 62
7
  6
CONTINUOUS
 10
325.2316182625
 20
84.0266647491
  0
VERTEX
  8
SURFACE
 62
7
  6
CONTINUOUS
 10
325.2727644897
 20
84.0619660749
  0
VERTEX
  8
SURFACE
 62
7
  6
CONTINUOUS
 10
325.3110060832
 20
84.0980197977
  0
VERTEX
  8
SURFACE
 62
7
  6
CONTINUOUS
 10
325.346397724
 20
84.1344938471
  0
VERTEX
  8
SURFACE
 62
7
  6
CONTINUOUS
 10
325.3789766904
 20
84.1710177395
  0
VERTEX
  8
SURFACE
 62
7
  6
CONTINUOUS
 10
325.4089567051
 20
84.2074146494
  0
VERTEX
  8
SURFACE
 62
7
  6
CONTINUOUS
 10
325.4364890095
 20
84.2434588356
  0
VERTEX
  8
SURFACE
 62
7
  6
CONTINUOUS
 10
325.4618266225
 20
84.2790865379
  0
VERTEX
  8
SURFACE
 62
7
  6
CONTINUOUS
 10
325.4851640568
 20
84.3141997624
  0
VERTEX
  8
SURFACE
 62
7
  6
CONTINUOUS
 10
325.506755903
 20
84.3488380626
  0
VERTEX
  8
SURFACE
 62
7
  6
CONTINUOUS
 10
325.5267936799
 20
84.3829970917
  0
VERTEX
  8
SURFACE
 62
7
  6
CONTINUOUS
 10
325.5455387305
 20
84.416848747
  0
VERTEX
  8
SURFACE
 62
7
  6
CONTINUOUS
 10
325.5632098687
 20
84.4505611987
  0
VERTEX
  8
SURFACE
 62
7
  6
CONTINUOUS
 10
325.5799862802
 20
84.4842875325
  0
VERTEX
  8
SURFACE
 62
7
  6
CONTINUOUS
 10
325.5960432043
 20
84.518226365
  0
VERTEX
  8
SURFACE
 62
7
  6
CONTINUOUS
 10
325.6115064062
 20
84.5525196653
  0
VERTEX
  8
SURFACE
 62
7
  6
CONTINUOUS
 10
325.6265071897
 20
84.587360172
  0
VERTEX
  8
SURFACE
 62
7
  6
CONTINUOUS
 10
325.6411322573
 20
84.6228721185
  0
VERTEX
  8
SURFACE
 62
7
  6
CONTINUOUS
 10
325.6554796683
 20
84.6592346324
  0
VERTEX
  8
SURFACE
 62
7
  6
CONTINUOUS
 10
325.6695969795
 20
84.6965227458
  0
VERTEX
  8
SURFACE
 62
7
  6
CONTINUOUS
 10
325.6835397568
 20
84.7348457126
  0
VERTEX
  8
SURFACE
 62
7
  6
CONTINUOUS
 10
325.6973469909
 20
84.7742808527
  0
VERTEX
  8
SURFACE
 62
7
  6
CONTINUOUS
 10
325.711055669
 20
84.8149092379
  0
VERTEX
  8
SURFACE
 62
7
  6
CONTINUOUS
 10
325.7246995165
 20
84.856811633
  0
VERTEX
  8
SURFACE
 62
7
  6
CONTINUOUS
 10
325.7383049038
 20
84.9000544836
  0
VERTEX
  8
SURFACE
 62
7
  6
CONTINUOUS
 10
325.7519079354
 20
84.9447436751
  0
VERTEX
  8
SURFACE
 62
7
  6
CONTINUOUS
 10
325.7655388013
 20
84.9909763234
  0
VERTEX
  8
SURFACE
 62
7
  6
CONTINUOUS
 10
325.7792239473
 20
85.0388453914
  0
VERTEX
  8
SURFACE
 62
7
  6
CONTINUOUS
 10
325.7929888532
 20
85.0884482241
  0
VERTEX
  8
SURFACE
 62
7
  6
CONTINUOUS
 10
325.8068536589
 20
85.1398702311
  0
VERTEX
  8
SURFACE
 62
7
  6
CONTINUOUS
 10
325.8208387216
 20
85.1932038389
  0
VERTEX
  8
SURFACE
 62
7
  6
CONTINUOUS
 10
325.8349591294
 20
85.2485269865
  0
VERTEX
  8
SURFACE
 62
7
  6
CONTINUOUS
 10
325.8492302258
 20
85.3059226069
  0
VERTEX
  8
SURFACE
 62
7
  6
CONTINUOUS
 10
325.863664225
 20
85.3654650236
  0
VERTEX
  8
SURFACE
 62
7
  6
CONTINUOUS
 10
325.8782734148
 20
85.4272324684
  0
VERTEX
  8
SURFACE
 62
7
  6
CONTINUOUS
 10
325.8930671575
 20
85.491294116
  0
VERTEX
  8
SURFACE
 62
7
  6
CONTINUOUS
 10
325.908054526
 20
85.5577202234
  0
VERTEX
  8
SURFACE
 62
7
  6
CONTINUOUS
 10
325.9232439884
 20
85.6265803441
  0
VERTEX
  8
SURFACE
 62
7
  6
CONTINUOUS
 10
325.9386436251
 20
85.697944679
  0
VERTEX
  8
SURFACE
 62
7
  6
CONTINUOUS
 10
325.9542599347
 20
85.7718783411
  0
VERTEX
  8
SURFACE
 62
7
  6
CONTINUOUS
 10
325.9861671936
 20
85.9277158313
  0
SEQEND
  0
LINE
  8
SURFACE
 62
7
  6
CONTINUOUS
 10
324.5573767002
 20
83.783535966
 11
317.6692626662
 21
83.783535966
  0
LINE
  8
SURFACE
 62
7
  6
CONTINUOUS
 10
336.9633196721
 20
88.2435706967
 11
328.1133196721
 21
88.2435706967
  0
LINE
  8
0
 62
7
  6
CONTINUOUS
 10
292.5633196721
 20
88.2435706967
 11
301.4133196721
 21
88.2435706967
  0
POLYLINE
  8
0
 62
7
  6
CONTINUOUS
 66
1
 70
0
  0
VERTEX
  8
0
 62
7
  6
CONTINUOUS
 10
312.4133196721
 20
91.5794875864
  0
VERTEX
  8
0
 62
7
  6
CONTINUOUS
 10
312.5363798946
 20
91.5043455453
  0
VERTEX
  8
0
 62
7
  6
CONTINUOUS
 10
312.651782581
 20
91.431689233
  0
VERTEX
  8
0
 62
7
  6
CONTINUOUS
 10
312.7598840077
 20
91.361565695
  0
VERTEX
  8
0
 62
7
  6
CONTINUOUS
 10
312.859615346
 20
91.2938337947
  0
VERTEX
  8
0
 62
7
  6
CONTINUOUS
 10
312.9500121529
 20
91.2282937534
  0
VERTEX
  8
0
 62
7
  6
CONTINUOUS
 10
313.0311175477
 20
91.1651685428
  0
VERTEX
  8
0
 62
7
  6
CONTINUOUS
 10
313.1024322794
 20
91.1046010864
  0
VERTEX
  8
0
 62
7
  6
CONTINUOUS
 10
313.1646190169
 20
91.0466317508
  0
VERTEX
  8
0
 62
7
  6
CONTINUOUS
 10
313.2178519683
 20
90.9914602921
  0
VERTEX
  8
0
 62
7
  6
CONTINUOUS
 10
313.2630972655
 20
90.9387514654
  0
VERTEX
  8
0
 62
7
  6
CONTINUOUS
 10
313.301160307
 20
90.8883620276
  0
VERTEX
  8
0
 62
7
  6
CONTINUOUS
 10
313.3326975017
 20
90.8399157291
  0
VERTEX
  8
0
 62
7
  6
CONTINUOUS
 10
313.3585515199
 20
90.7929930596
  0
VERTEX
  8
0
 62
7
  6
CONTINUOUS
 10
313.378968977
 20
90.7475805578
  0
VERTEX
  8
0
 62
7
  6
CONTINUOUS
 10
313.394399634
 20
90.7035160736
  0
VERTEX
  8
0
 62
7
  6
CONTINUOUS
 10
313.4050767249
 20
90.6608261637
  0
VERTEX
  8
0
 62
7
  6
CONTINUOUS
 10
313.4114312986
 20
90.6194798979
  0
VERTEX
  8
0
 62
7
  6
CONTINUOUS
 10
313.4133196721
 20
90.5794875864
  0
SEQEND
  0
POLYLINE
  8
0
 62
7
  6
CONTINUOUS
 66
1
 70
0
  0
VERTEX
  8
0
 62
7
  6
CONTINUOUS
 10
311.81539915
 20
104.1049110864
  0
VERTEX
  8
0
 62
7
  6
CONTINUOUS
 10
311.8726005962
 20
104.1065484298
  0
VERTEX
  8
0
 62
7
  6
CONTINUOUS
 10
311.9292010753
 20
104.111407628
  0
VERTEX
  8
0
 62
7
  6
CONTINUOUS
 10
311.9851933991
 20
104.1194315518
  0
VERTEX
  8
0
 62
7
  6
CONTINUOUS
 10
312.0404822798
 20
104.130571523
  0
VERTEX
  8
0
 62
7
  6
CONTINUOUS
 10
312.0950357199
 20
104.1448051606
  0
VERTEX
  8
0
 62
7
  6
CONTINUOUS
 10
312.1485943093
 20
104.1620532043
  0
VERTEX
  8
0
 62
7
  6
CONTINUOUS
 10
312.2009447452
 20
104.1822223014
  0
VERTEX
  8
0
 62
7
  6
CONTINUOUS
 10
312.2518619455
 20
104.2051887803
  0
VERTEX
  8
0
 62
7
  6
CONTINUOUS
 10
312.3009372242
 20
104.2306955647
  0
VERTEX
  8
0
 62
7
  6
CONTINUOUS
 10
312.3484832767
 20
104.2588488464
  0
VERTEX
  8
0
 62
7
  6
CONTINUOUS
 10
312.3948138188
 20
104.2898781782
  0
VERTEX
  8
0
 62
7
  6
CONTINUOUS
 10
312.4393281688
 20
104.3234300697
  0
VERTEX
  8
0
 62
7
  6
CONTINUOUS
 10
312.4815028203
 20
104.3590519171
  0
VERTEX
  8
0
 62
7
  6
CONTINUOUS
 10
312.5215525288
 20
104.3968521865
  0
VERTEX
  8
0
 62
7
  6
CONTINUOUS
 10
312.5594962478
 20
104.4368396014
  0
VERTEX
  8
0
 62
7
  6
CONTINUOUS
 10
312.595272561
 20
104.478973819
  0
VERTEX
  8
0
 62
7
  6
CONTINUOUS
 10
312.6289296005
 20
104.5233887686
  0
VERTEX
  8
0
 62
7
  6
CONTINUOUS
 10
312.660055041
 20
104.5696014322
  0
VERTEX
  8
0
 62
7
  6
CONTINUOUS
 10
312.6882369882
 20
104.6169007298
  0
VERTEX
  8
0
 62
7
  6
CONTINUOUS
 10
312.7138263412
 20
104.6657885726
  0
VERTEX
  8
0
 62
7
  6
CONTINUOUS
 10
312.737059383
 20
104.7169131292
  0
VERTEX
  8
0
 62
7
  6
CONTINUOUS
 10
312.7574312773
 20
104.7693884031
  0
VERTEX
  8
0
 62
7
  6
CONTINUOUS
 10
312.7746374218
 20
104.822312541
  0
SEQEND
  0
LINE
  8
0
 62
7
  6
CONTINUOUS
 10
305.0112401943
 20
104.1049110864
 11
311.81539915
 21
104.1049110864
  0
POLYLINE
  8
0
 62
7
  6
CONTINUOUS
 66
1
 70
0
  0
VERTEX
  8
0
 62
7
  6
CONTINUOUS
 10
304.0614007093
 20
205.003104693
  0
VERTEX
  8
0
 62
7
  6
CONTINUOUS
 10
304.0220311915
 20
204.9867491267
  0
VERTEX
  8
0
 62
7
  6
CONTINUOUS
 10
303.9789265583
 20
204.9666144847
  0
VERTEX
  8
0
 62
7
  6
CONTINUOUS
 10
303.9350043667
 20
204.9435302662
  0
VERTEX
  8
0
 62
7
  6
CONTINUOUS
 10
303.8908385538
 20
204.9174837332
  0
VERTEX
  8
0
 62
7
  6
CONTINUOUS
 10
303.8469082441
 20
204.8884830459
  0
VERTEX
  8
0
 62
7
  6
CONTINUOUS
 10
303.8037398093
 20
204.8566467751
  0
VERTEX
  8
0
 62
7
  6
CONTINUOUS
 10
303.7616836174
 20
204.822045566
  0
VERTEX
  8
0
 62
7
  6
CONTINUOUS
 10
303.7211301469
 20
204.7848480612
  0
VERTEX
  8
0
 62
7
  6
CONTINUOUS
 10
303.6823656153
 20
204.7452007295
  0
VERTEX
  8
0
 62
7
  6
CONTINUOUS
 10
303.6457081322
 20
204.7033519143
  0
VERTEX
  8
0
 62
7
  6
CONTINUOUS
 10
303.611296855
 20
204.6594095737
  0
VERTEX
  8
0
 62
7
  6
CONTINUOUS
 10
303.5793062711
 20
204.6135545441
  0
VERTEX
  8
0
 62
7
  6
CONTINUOUS
 10
303.5498571973
 20
204.5659295352
  0
VERTEX
  8
0
 62
7
  6
CONTINUOUS
 10
303.5230728703
 20
204.5167107787
  0
VERTEX
  8
0
 62
7
  6
CONTINUOUS
 10
303.4990433235
 20
204.4660468585
  0
VERTEX
  8
0
 62
7
  6
CONTINUOUS
 10
303.4778544734
 20
204.4141038984
  0
VERTEX
  8
0
 62
7
  6
CONTINUOUS
 10
303.4595781487
 20
204.3610462159
  0
VERTEX
  8
0
 62
7
  6
CONTINUOUS
 10
303.44427645
 20
204.3070451436
  0
VERTEX
  8
0
 62
7
  6
CONTINUOUS
 10
303.4319998135
 20
204.2522737065
  0
VERTEX
  8
0
 62
7
  6
CONTINUOUS
 10
303.4227876713
 20
204.1969079902
  0
VERTEX
  8
0
 62
7
  6
CONTINUOUS
 10
303.4166683104
 20
204.1411274073
  0
VERTEX
  8
0
 62
7
  6
CONTINUOUS
 10
303.4136584773
 20
204.0851165512
  0
SEQEND
  0
LINE
  8
0
 62
7
  6
CONTINUOUS
 10
304.0615885112
 20
205.0031782285
 11
304.0614007166
 21
205.0031046742
  0
POLYLINE
  8
SURFACE
 62
7
  6
CONTINUOUS
 66
1
 70
0
  0
VERTEX
  8
SURFACE
 62
7
  6
CONTINUOUS
 10
325.0575459475
 20
121.4066582785
  0
VERTEX
  8
SURFACE
 62
7
  6
CONTINUOUS
 10
325.0789081707
 20
121.4068640473
  0
VERTEX
  8
SURFACE
 62
7
  6
CONTINUOUS
 10
325.1397239645
 20
121.4097105487
  0
VERTEX
  8
SURFACE
 62
7
  6
CONTINUOUS
 10
325.2004045728
 20
121.4159055455
  0
VERTEX
  8
SURFACE
 62
7
  6
CONTINUOUS
 10
325.2605089131
 20
121.4253932114
  0
VERTEX
  8
SURFACE
 62
7
  6
CONTINUOUS
 10
325.3197044467
 20
121.4380718066
  0
VERTEX
  8
SURFACE
 62
7
  6
CONTINUOUS
 10
325.3776641891
 20
121.4537905667
  0
VERTEX
  8
SURFACE
 62
7
  6
CONTINUOUS
 10
325.433998115
 20
121.4723229939
  0
VERTEX
  8
SURFACE
 62
7
  6
CONTINUOUS
 10
325.4650508331
 20
121.4839631649
  0
SEQEND
  0
LINE
  8
SURFACE
 62
7
  6
CONTINUOUS
 10
325.0577531341
 20
121.4066576683
 11
317.1688862117
 21
121.4066576683
  0
POLYLINE
  8
0
 62
7
  6
CONTINUOUS
 66
1
 70
0
  0
VERTEX
  8
0
 62
7
  6
CONTINUOUS
 10
313.2477026673
 20
223.7205518147
  0
VERTEX
  8
0
 62
7
  6
CONTINUOUS
 10
313.210465061
 20
223.6649183732
  0
VERTEX
  8
0
 62
7
  6
CONTINUOUS
 10
313.1691814202
 20
223.6045291123
  0
VERTEX
  8
0
 62
7
  6
CONTINUOUS
 10
313.123862446
 20
223.5391948776
  0
SEQEND
  0
POLYLINE
  8
0
 62
7
  6
CONTINUOUS
 66
1
 70
0
  0
VERTEX
  8
0
 62
7
  6
CONTINUOUS
 10
312.7724722323
 20
223.0371306868
  0
VERTEX
  8
0
 62
7
  6
CONTINUOUS
 10
312.7031772254
 20
222.9358724654
  0
VERTEX
  8
0
 62
7
  6
CONTINUOUS
 10
312.6320236813
 20
222.8304071045
  0
VERTEX
  8
0
 62
7
  6
CONTINUOUS
 10
312.5595934502
 20
222.7212847095
  0
VERTEX
  8
0
 62
7
  6
CONTINUOUS
 10
312.4865945505
 20
222.6093731898
  0
VERTEX
  8
0
 62
7
  6
CONTINUOUS
 10
312.4133196721
 20
222.494366712
  0
SEQEND
  0
LINE
  8
0
 62
7
  6
CONTINUOUS
 10
312.9033691527
 20
223.2254264537
 11
312.7724722323
 21
223.0371306868
  0
LINE
  8
0
 62
7
  6
CONTINUOUS
 10
313.123862446
 20
223.5391948776
 11
312.9033691527
 21
223.2254264537
  0
POLYLINE
  8
SURFACE
 62
7
  6
CONTINUOUS
 66
1
 70
0
  0
VERTEX
  8
SURFACE
 62
7
  6
CONTINUOUS
 10
316.7615880496
 20
121.4839633562
  0
VERTEX
  8
SURFACE
 62
7
  6
CONTINUOUS
 10
316.7923098608
 20
121.4724417918
  0
VERTEX
  8
SURFACE
 62
7
  6
CONTINUOUS
 10
316.8482919827
 20
121.4539958404
  0
VERTEX
  8
SURFACE
 62
7
  6
CONTINUOUS
 10
316.9058809447
 20
121.4383281247
  0
VERTEX
  8
SURFACE
 62
7
  6
CONTINUOUS
 10
316.9646939013
 20
121.4256613704
  0
VERTEX
  8
SURFACE
 62
7
  6
CONTINUOUS
 10
317.024410043
 20
121.4161441847
  0
VERTEX
  8
SURFACE
 62
7
  6
CONTINUOUS
 10
317.0847030645
 20
121.4098773385
  0
VERTEX
  8
SURFACE
 62
7
  6
CONTINUOUS
 10
317.1451399495
 20
121.4069170489
  0
VERTEX
  8
SURFACE
 62
7
  6
CONTINUOUS
 10
317.169092813
 20
121.4066582739
  0
SEQEND
  0
LINE
  8
SURFACE
 62
7
  6
CONTINUOUS
 10
316.7613985362
 20
121.4840375841
 11
316.7615880496
 21
121.4839633562
  0
POLYLINE
  8
0
 62
7
  6
CONTINUOUS
 66
1
 70
0
  0
VERTEX
  8
0
 62
7
  6
CONTINUOUS
 10
312.4133196721
 20
121.1177376718
  0
VERTEX
  8
0
 62
7
  6
CONTINUOUS
 10
312.5363798946
 20
120.9875878389
  0
VERTEX
  8
0
 62
7
  6
CONTINUOUS
 10
312.651782581
 20
120.8617434145
  0
VERTEX
  8
0
 62
7
  6
CONTINUOUS
 10
312.7598840077
 20
120.7402858839
  0
VERTEX
  8
0
 62
7
  6
CONTINUOUS
 10
312.859615346
 20
120.6229707913
  0
VERTEX
  8
0
 62
7
  6
CONTINUOUS
 10
312.9500121529
 20
120.5094521097
  0
VERTEX
  8
0
 62
7
  6
CONTINUOUS
 10
313.0311175477
 20
120.4001160378
  0
VERTEX
  8
0
 62
7
  6
CONTINUOUS
 10
313.1024322794
 20
120.295210126
  0
VERTEX
  8
0
 62
7
  6
CONTINUOUS
 10
313.1646190169
 20
120.1948042914
  0
VERTEX
  8
0
 62
7
  6
CONTINUOUS
 10
313.2178519683
 20
120.0992445218
  0
VERTEX
  8
0
 62
7
  6
CONTINUOUS
 10
313.2630972655
 20
120.0079501559
  0
VERTEX
  8
0
 62
7
  6
CONTINUOUS
 10
313.301160307
 20
119.9206730896
  0
VERTEX
  8
0
 62
7
  6
CONTINUOUS
 10
313.3326975017
 20
119.8367616391
  0
VERTEX
  8
0
 62
7
  6
CONTINUOUS
 10
313.3585515199
 20
119.7554891914
  0
VERTEX
  8
0
 62
7
  6
CONTINUOUS
 10
313.378968977
 20
119.6768324311
  0
VERTEX
  8
0
 62
7
  6
CONTINUOUS
 10
313.394399634
 20
119.6005105057
  0
VERTEX
  8
0
 62
7
  6
CONTINUOUS
 10
313.4050767249
 20
119.5265694127
  0
VERTEX
  8
0
 62
7
  6
CONTINUOUS
 10
313.4114312986
 20
119.4549555797
  0
VERTEX
  8
0
 62
7
  6
CONTINUOUS
 10
313.4133196721
 20
119.3856868642
  0
SEQEND
  0
LINE
  8
0
 62
7
  6
CONTINUOUS
 10
303.4861656992
 20
106.7211253574
 11
303.4861171001
 21
106.7212593227
  0
LINE
  8
0
 62
7
  6
CONTINUOUS
 10
303.4861656662
 20
106.7211253455
 11
303.496975609
 21
106.6908292572
  0
POLYLINE
  8
0
 62
7
  6
CONTINUOUS
 66
1
 70
0
  0
VERTEX
  8
0
 62
7
  6
CONTINUOUS
 10
303.496975609
 20
106.6908292572
  0
VERTEX
  8
0
 62
7
  6
CONTINUOUS
 10
303.510877308
 20
106.6504348937
  0
VERTEX
  8
0
 62
7
  6
CONTINUOUS
 10
303.5256238623
 20
106.6059022656
  0
VERTEX
  8
0
 62
7
  6
CONTINUOUS
 10
303.5411748717
 20
106.5571427021
  0
VERTEX
  8
0
 62
7
  6
CONTINUOUS
 10
303.5574935965
 20
106.5040671605
  0
SEQEND
  0
POLYLINE
  8
0
 62
7
  6
CONTINUOUS
 66
1
 70
0
  0
VERTEX
  8
0
 62
7
  6
CONTINUOUS
 10
304.0520054754
 20
104.8223004814
  0
VERTEX
  8
0
 62
7
  6
CONTINUOUS
 10
304.067515587
 20
104.7741787693
  0
VERTEX
  8
0
 62
7
  6
CONTINUOUS
 10
304.0876255974
 20
104.7215886682
  0
VERTEX
  8
0
 62
7
  6
CONTINUOUS
 10
304.1107551987
 20
104.6700240058
  0
VERTEX
  8
0
 62
7
  6
CONTINUOUS
 10
304.1363671731
 20
104.6205587386
  0
VERTEX
  8
0
 62
7
  6
CONTINUOUS
 10
304.1647448212
 20
104.5725150089
  0
VERTEX
  8
0
 62
7
  6
CONTINUOUS
 10
304.1962821415
 20
104.5253911367
  0
VERTEX
  8
0
 62
7
  6
CONTINUOUS
 10
304.2305315124
 20
104.480015932
  0
VERTEX
  8
0
 62
7
  6
CONTINUOUS
 10
304.2670357891
 20
104.4369591395
  0
VERTEX
  8
0
 62
7
  6
CONTINUOUS
 10
304.305822429
 20
104.3961193141
  0
VERTEX
  8
0
 62
7
  6
CONTINUOUS
 10
304.3467866304
 20
104.357581533
  0
VERTEX
  8
0
 62
7
  6
CONTINUOUS
 10
304.3899348059
 20
104.3213425735
  0
VERTEX
  8
0
 62
7
  6
CONTINUOUS
 10
304.4354819811
 20
104.287291077
  0
VERTEX
  8
0
 62
7
  6
CONTINUOUS
 10
304.4828181853
 20
104.2559292371
  0
VERTEX
  8
0
 62
7
  6
CONTINUOUS
 10
304.5312844609
 20
104.2276183792
  0
VERTEX
  8
0
 62
7
  6
CONTINUOUS
 10
304.5810825792
 20
104.2021572848
  0
VERTEX
  8
0
 62
7
  6
CONTINUOUS
 10
304.6323588317
 20
104.1794658351
  0
VERTEX
  8
0
 62
7
  6
CONTINUOUS
 10
304.6847884373
 20
104.1596972215
  0
VERTEX
  8
0
 62
7
  6
CONTINUOUS
 10
304.7382310144
 20
104.1428996584
  0
VERTEX
  8
0
 62
7
  6
CONTINUOUS
 10
304.7923379328
 20
104.1291642955
  0
VERTEX
  8
0
 62
7
  6
CONTINUOUS
 10
304.8467329402
 20
104.1185352131
  0
VERTEX
  8
0
 62
7
  6
CONTINUOUS
 10
304.9014055188
 20
104.1109612164
  0
VERTEX
  8
0
 62
7
  6
CONTINUOUS
 10
304.9562414347
 20
104.1064246636
  0
VERTEX
  8
0
 62
7
  6
CONTINUOUS
 10
305.0112401943
 20
104.1049110864
  0
SEQEND
  0
LINE
  8
0
 62
7
  6
CONTINUOUS
 10
303.5574935965
 20
106.5040671605
 11
304.0519948314
 21
104.8223366116
  0
POLYLINE
  8
0
 62
7
  6
CONTINUOUS
 66
1
 70
0
  0
VERTEX
  8
0
 62
7
  6
CONTINUOUS
 10
303.4241938264
 20
78.0791664483
  0
VERTEX
  8
0
 62
7
  6
CONTINUOUS
 10
303.4312215985
 20
78.0148638626
  0
VERTEX
  8
0
 62
7
  6
CONTINUOUS
 10
303.4353704531
 20
77.9828621878
  0
SEQEND
  0
LINE
  8
0
 62
7
  6
CONTINUOUS
 10
303.4320223068
 20
71.2550879882
 11
303.5685659193
 21
70.0046800779
  0
LINE
  8
0
 62
7
  6
CONTINUOUS
 10
289.5633196721
 20
235.2435706967
 11
289.5633196721
 21
91.2435706967
  0
LINE
  8
0
 62
7
  6
CONTINUOUS
 10
303.4320222624
 20
255.232052796
 11
303.4280507353
 21
255.1932270478
  0
POLYLINE
  8
0
 62
7
  6
CONTINUOUS
 66
1
 70
0
  0
VERTEX
  8
0
 62
7
  6
CONTINUOUS
 10
303.4271563464
 20
239.9426095704
  0
VERTEX
  8
0
 62
7
  6
CONTINUOUS
 10
303.4204498749
 20
239.8795422268
  0
VERTEX
  8
0
 62
7
  6
CONTINUOUS
 10
303.4159399715
 20
239.8161084951
  0
VERTEX
  8
0
 62
7
  6
CONTINUOUS
 10
303.4136400764
 20
239.7523961756
  0
VERTEX
  8
0
 62
7
  6
CONTINUOUS
 10
303.413319686
 20
239.7180110054
  0
SEQEND
  0
LINE
  8
0
 62
7
  6
CONTINUOUS
 10
303.6349591304
 20
257.0829756192
 11
303.4320223068
 21
255.2320534053
  0
LINE
  8
0
 62
7
  6
CONTINUOUS
 10
303.7600780255
 20
258.1964678441
 11
303.6349591304
 21
257.0829756192
  0
LINE
  8
0
 62
7
  6
CONTINUOUS
 10
303.8465185859
 20
258.9469769043
 11
303.7600780255
 21
258.1964678441
  0
LINE
  8
0
 62
7
  6
CONTINUOUS
 10
303.926122718
 20
259.6187675231
 11
303.8465185859
 21
258.9469769043
  0
LINE
  8
0
 62
7
  6
CONTINUOUS
 10
303.9752077238
 20
260.0204123612
 11
303.926122718
 21
259.6187675231
  0
LINE
  8
0
 62
7
  6
CONTINUOUS
 10
304.0193694305
 20
260.3708199978
 11
303.9752077238
 21
260.0204123612
  0
LINE
  8
0
 62
7
  6
CONTINUOUS
 10
303.4360390804
 20
240.0052228937
 11
303.4271563464
 21
239.9426095704
  0
POLYLINE
  8
0
 62
7
  6
CONTINUOUS
 66
1
 70
0
  0
VERTEX
  8
0
 62
7
  6
CONTINUOUS
 10
304.0193578857
 20
260.3707299875
  0
VERTEX
  8
0
 62
7
  6
CONTINUOUS
 10
304.0249014499
 20
260.4083004132
  0
VERTEX
  8
0
 62
7
  6
CONTINUOUS
 10
304.0355782118
 20
260.4628506453
  0
VERTEX
  8
0
 62
7
  6
CONTINUOUS
 10
304.0492688393
 20
260.5167210438
  0
VERTEX
  8
0
 62
7
  6
CONTINUOUS
 10
304.0659976912
 20
260.5699395223
  0
VERTEX
  8
0
 62
7
  6
CONTINUOUS
 10
304.0858520845
 20
260.6225916015
  0
VERTEX
  8
0
 62
7
  6
CONTINUOUS
 10
304.1087022675
 20
260.6741810666
  0
VERTEX
  8
0
 62
7
  6
CONTINUOUS
 10
304.1343670013
 20
260.7242924494
  0
VERTEX
  8
0
 62
7
  6
CONTINUOUS
 10
304.1628186613
 20
260.7728918681
  0
VERTEX
  8
0
 62
7
  6
CONTINUOUS
 10
304.193987926
 20
260.8198507762
  0
VERTEX
  8
0
 62
7
  6
CONTINUOUS
 10
304.2278171937
 20
260.8650595559
  0
VERTEX
  8
0
 62
7
  6
CONTINUOUS
 10
304.2643438222
 20
260.9085111522
  0
VERTEX
  8
0
 62
7
  6
CONTINUOUS
 10
304.3032304585
 20
260.9497733687
  0
VERTEX
  8
0
 62
7
  6
CONTINUOUS
 10
304.3439960565
 20
260.9884097804
  0
VERTEX
  8
0
 62
7
  6
CONTINUOUS
 10
304.3868933625
 20
261.0247179515
  0
VERTEX
  8
0
 62
7
  6
CONTINUOUS
 10
304.4322932118
 20
261.0589358857
  0
VERTEX
  8
0
 62
7
  6
CONTINUOUS
 10
304.47960008
 20
261.0905410556
  0
VERTEX
  8
0
 62
7
  6
CONTINUOUS
 10
304.528285088
 20
261.1192158105
  0
VERTEX
  8
0
 62
7
  6
CONTINUOUS
 10
304.5783268975
 20
261.1450062615
  0
VERTEX
  8
0
 62
7
  6
CONTINUOUS
 10
304.6295472436
 20
261.1678598784
  0
VERTEX
  8
0
 62
7
  6
CONTINUOUS
 10
304.6819426083
 20
261.1877968878
  0
VERTEX
  8
0
 62
7
  6
CONTINUOUS
 10
304.7356446968
 20
261.2048443943
  0
VERTEX
  8
0
 62
7
  6
CONTINUOUS
 10
304.7901541077
 20
261.218824993
  0
VERTEX
  8
0
 62
7
  6
CONTINUOUS
 10
304.8450058704
 20
261.2296569757
  0
VERTEX
  8
0
 62
7
  6
CONTINUOUS
 10
304.9002054914
 20
261.2373872264
  0
VERTEX
  8
0
 62
7
  6
CONTINUOUS
 10
304.955644288
 20
261.2420240483
  0
VERTEX
  8
0
 62
7
  6
CONTINUOUS
 10
305.0112401943
 20
261.2435706967
  0
SEQEND
  0
LINE
  8
0
 62
7
  6
CONTINUOUS
 10
303.4420377407
 20
240.0405199158
 11
303.4360390804
 21
240.0052228937
  0
LINE
  8
0
 62
7
  6
CONTINUOUS
 10
303.4738281081
 20
240.2141669213
 11
303.442041112
 21
240.0405387307
  0
LINE
  8
0
 62
7
  6
CONTINUOUS
 10
303.5076322355
 20
240.3925498723
 11
303.4738281081
 21
240.2141669213
  0
LINE
  8
0
 62
7
  6
CONTINUOUS
 10
303.5404721506
 20
240.5594255621
 11
303.5076322355
 21
240.3925498723
  0
POLYLINE
  8
SURFACE
 62
7
  6
CONTINUOUS
 66
1
 70
0
  0
VERTEX
  8
SURFACE
 62
7
  6
CONTINUOUS
 10
316.278936677
 20
222.494366712
  0
VERTEX
  8
SURFACE
 62
7
  6
CONTINUOUS
 10
316.3161742832
 20
222.5872265998
  0
VERTEX
  8
SURFACE
 62
7
  6
CONTINUOUS
 10
316.357457924
 20
222.6809172497
  0
VERTEX
  8
SURFACE
 62
7
  6
CONTINUOUS
 10
316.4027768982
 20
222.7751291184
  0
VERTEX
  8
SURFACE
 62
7
  6
CONTINUOUS
 10
316.4521077954
 20
222.8695399437
  0
VERTEX
  8
SURFACE
 62
7
  6
CONTINUOUS
 10
316.5054250767
 20
222.963889305
  0
VERTEX
  8
SURFACE
 62
7
  6
CONTINUOUS
 10
316.5625382802
 20
223.0576168539
  0
VERTEX
  8
SURFACE
 62
7
  6
CONTINUOUS
 10
316.6232701916
 20
223.150319982
  0
VERTEX
  8
SURFACE
 62
7
  6
CONTINUOUS
 10
316.687264201
 20
223.2413284967
  0
VERTEX
  8
SURFACE
 62
7
  6
CONTINUOUS
 10
316.7541671119
 20
223.3301439564
  0
VERTEX
  8
SURFACE
 62
7
  6
CONTINUOUS
 10
316.8234621189
 20
223.4160768221
  0
VERTEX
  8
SURFACE
 62
7
  6
CONTINUOUS
 10
316.894615663
 20
223.4985849427
  0
VERTEX
  8
SURFACE
 62
7
  6
CONTINUOUS
 10
316.9670458941
 20
223.5771208582
  0
VERTEX
  8
SURFACE
 62
7
  6
CONTINUOUS
 10
317.0400447937
 20
223.651048708
  0
VERTEX
  8
SURFACE
 62
7
  6
CONTINUOUS
 10
317.1133196721
 20
223.7205518147
  0
SEQEND
  0
POLYLINE
  8
0
 62
7
  6
CONTINUOUS
 66
1
 70
0
  0
VERTEX
  8
0
 62
7
  6
CONTINUOUS
 10
304.0193578857
 20
66.116411406
  0
VERTEX
  8
0
 62
7
  6
CONTINUOUS
 10
304.0249014499
 20
66.0788409802
  0
VERTEX
  8
0
 62
7
  6
CONTINUOUS
 10
304.0355782118
 20
66.0242907482
  0
VERTEX
  8
0
 62
7
  6
CONTINUOUS
 10
304.0492688393
 20
65.9704203497
  0
VERTEX
  8
0
 62
7
  6
CONTINUOUS
 10
304.0659976912
 20
65.9172018712
  0
VERTEX
  8
0
 62
7
  6
CONTINUOUS
 10
304.0858520845
 20
65.864549792
  0
VERTEX
  8
0
 62
7
  6
CONTINUOUS
 10
304.1087022675
 20
65.8129603268
  0
VERTEX
  8
0
 62
7
  6
CONTINUOUS
 10
304.1343670013
 20
65.7628489441
  0
VERTEX
  8
0
 62
7
  6
CONTINUOUS
 10
304.1628186613
 20
65.7142495254
  0
VERTEX
  8
0
 62
7
  6
CONTINUOUS
 10
304.193987926
 20
65.6672906173
  0
VERTEX
  8
0
 62
7
  6
CONTINUOUS
 10
304.2278171937
 20
65.6220818375
  0
VERTEX
  8
0
 62
7
  6
CONTINUOUS
 10
304.2643438222
 20
65.5786302412
  0
VERTEX
  8
0
 62
7
  6
CONTINUOUS
 10
304.3032304585
 20
65.5373680247
  0
VERTEX
  8
0
 62
7
  6
CONTINUOUS
 10
304.3439960565
 20
65.498731613
  0
VERTEX
  8
0
 62
7
  6
CONTINUOUS
 10
304.3868933625
 20
65.462423442
  0
VERTEX
  8
0
 62
7
  6
CONTINUOUS
 10
304.4322932118
 20
65.4282055078
  0
VERTEX
  8
0
 62
7
  6
CONTINUOUS
 10
304.47960008
 20
65.3966003378
  0
VERTEX
  8
0
 62
7
  6
CONTINUOUS
 10
304.528285088
 20
65.3679255829
  0
VERTEX
  8
0
 62
7
  6
CONTINUOUS
 10
304.5783268975
 20
65.3421351319
  0
VERTEX
  8
0
 62
7
  6
CONTINUOUS
 10
304.6295472436
 20
65.319281515
  0
VERTEX
  8
0
 62
7
  6
CONTINUOUS
 10
304.6819426083
 20
65.2993445057
  0
VERTEX
  8
0
 62
7
  6
CONTINUOUS
 10
304.7356446968
 20
65.2822969991
  0
VERTEX
  8
0
 62
7
  6
CONTINUOUS
 10
304.7901541077
 20
65.2683164005
  0
VERTEX
  8
0
 62
7
  6
CONTINUOUS
 10
304.8450058704
 20
65.2574844178
  0
VERTEX
  8
0
 62
7
  6
CONTINUOUS
 10
304.9002054914
 20
65.249754167
  0
VERTEX
  8
0
 62
7
  6
CONTINUOUS
 10
304.955644288
 20
65.2451173452
  0
VERTEX
  8
0
 62
7
  6
CONTINUOUS
 10
305.0112401943
 20
65.2435706967
  0
SEQEND
  0
POLYLINE
  8
0
 62
7
  6
CONTINUOUS
 66
1
 70
0
  0
VERTEX
  8
0
 62
7
  6
CONTINUOUS
 10
304.0197648908
 20
73.5439290564
  0
VERTEX
  8
0
 62
7
  6
CONTINUOUS
 10
304.02325124
 20
73.5196992927
  0
VERTEX
  8
0
 62
7
  6
CONTINUOUS
 10
304.0335783867
 20
73.464039628
  0
VERTEX
  8
0
 62
7
  6
CONTINUOUS
 10
304.0470392419
 20
73.4090511794
  0
VERTEX
  8
0
 62
7
  6
CONTINUOUS
 10
304.06359095
 20
73.3549106245
  0
VERTEX
  8
0
 62
7
  6
CONTINUOUS
 10
304.0831804554
 20
73.3017924447
  0
VERTEX
  8
0
 62
7
  6
CONTINUOUS
 10
304.1057457594
 20
73.2498656719
  0
VERTEX
  8
0
 62
7
  6
CONTINUOUS
 10
304.1312164241
 20
73.199294168
  0
VERTEX
  8
0
 62
7
  6
CONTINUOUS
 10
304.1595087363
 20
73.1502452564
  0
VERTEX
  8
0
 62
7
  6
CONTINUOUS
 10
304.1905281003
 20
73.1028818283
  0
VERTEX
  8
0
 62
7
  6
CONTINUOUS
 10
304.2241788082
 20
73.0573491259
  0
VERTEX
  8
0
 62
7
  6
CONTINUOUS
 10
304.2603583954
 20
73.0137871927
  0
VERTEX
  8
0
 62
7
  6
CONTINUOUS
 10
304.2989467807
 20
72.9723419863
  0
VERTEX
  8
0
 62
7
  6
CONTINUOUS
 10
304.3398166453
 20
72.9331499814
  0
VERTEX
  8
0
 62
7
  6
CONTINUOUS
 10
304.3828377452
 20
72.8963354095
  0
VERTEX
  8
0
 62
7
  6
CONTINUOUS
 10
304.4278710467
 20
72.8620166693
  0
VERTEX
  8
0
 62
7
  6
CONTINUOUS
 10
304.4747749145
 20
72.830301417
  0
VERTEX
  8
0
 62
7
  6
CONTINUOUS
 10
304.5234041661
 20
72.8012885252
  0
VERTEX
  8
0
 62
7
  6
CONTINUOUS
 10
304.5735969531
 20
72.7750751041
  0
VERTEX
  8
0
 62
7
  6
CONTINUOUS
 10
304.6251858743
 20
72.7517477594
  0
VERTEX
  8
0
 62
7
  6
CONTINUOUS
 10
304.6780104102
 20
72.7313781636
  0
VERTEX
  8
0
 62
7
  6
CONTINUOUS
 10
304.7319057527
 20
72.714029938
  0
VERTEX
  8
0
 62
7
  6
CONTINUOUS
 10
304.7866956307
 20
72.6997599877
  0
VERTEX
  8
0
 62
7
  6
CONTINUOUS
 10
304.8422020406
 20
72.6886143008
  0
VERTEX
  8
0
 62
7
  6
CONTINUOUS
 10
304.8982480496
 20
72.6806279277
  0
VERTEX
  8
0
 62
7
  6
CONTINUOUS
 10
304.9546538129
 20
72.6758261019
  0
VERTEX
  8
0
 62
7
  6
CONTINUOUS
 10
305.0112401943
 20
72.674223809
  0
SEQEND
  0
LINE
  8
0
 62
7
  6
CONTINUOUS
 10
303.4353711145
 20
77.9828570435
 11
303.4872406416
 21
77.5985998272
  0
LINE
  8
0
 62
7
  6
CONTINUOUS
 10
303.8567378752
 20
74.7843478301
 11
304.019778696
 21
73.5438240487
  0
LINE
  8
0
 62
7
  6
CONTINUOUS
 10
303.6946458689
 20
76.0194681658
 11
303.8567378752
 21
74.7843478301
  0
LINE
  8
0
 62
7
  6
CONTINUOUS
 10
303.4872406416
 20
77.5985998272
 11
303.6946458689
 21
76.0194681658
  0
LINE
  8
0
 62
7
  6
CONTINUOUS
 10
303.9752077238
 20
66.4667290322
 11
304.0193694305
 21
66.1163213957
  0
LINE
  8
0
 62
7
  6
CONTINUOUS
 10
303.926122718
 20
66.8683738703
 11
303.9752077238
 21
66.4667290322
  0
LINE
  8
0
 62
7
  6
CONTINUOUS
 10
303.8465185859
 20
67.5401644891
 11
303.926122718
 21
66.8683738703
  0
LINE
  8
0
 62
7
  6
CONTINUOUS
 10
303.7600780255
 20
68.2906735493
 11
303.8465185859
 21
67.5401644891
  0
LINE
  8
0
 62
7
  6
CONTINUOUS
 10
303.6349591304
 20
69.4041657742
 11
303.7600780255
 21
68.2906735493
  0
LINE
  8
0
 62
7
  6
CONTINUOUS
 10
303.5685659193
 20
70.0046800779
 11
303.6349591304
 21
69.4041657742
  0
POLYLINE
  8
0
 62
7
  6
CONTINUOUS
 66
1
 70
0
  0
VERTEX
  8
0
 62
7
  6
CONTINUOUS
 10
303.4280507353
 20
255.1932270478
  0
VERTEX
  8
0
 62
7
  6
CONTINUOUS
 10
303.4222587073
 20
255.1254429772
  0
VERTEX
  8
0
 62
7
  6
CONTINUOUS
 10
303.4179079473
 20
255.0575998566
  0
VERTEX
  8
0
 62
7
  6
CONTINUOUS
 10
303.4149961966
 20
254.9897257377
  0
VERTEX
  8
0
 62
7
  6
CONTINUOUS
 10
303.4135206082
 20
254.921849447
  0
VERTEX
  8
0
 62
7
  6
CONTINUOUS
 10
303.413319685
 20
254.8858992904
  0
SEQEND
  0
LINE
  8
SURFACE
 62
7
  6
CONTINUOUS
 10
316.7519948314
 20
221.6648047818
 11
316.2716310943
 21
220.0305846168
  0
POLYLINE
  8
SURFACE
 62
7
  6
CONTINUOUS
 66
1
 70
0
  0
VERTEX
  8
SURFACE
 62
7
  6
CONTINUOUS
 10
316.2716289734
 20
220.0305773895
  0
VERTEX
  8
SURFACE
 62
7
  6
CONTINUOUS
 10
316.2574936482
 20
219.9830744055
  0
VERTEX
  8
SURFACE
 62
7
  6
CONTINUOUS
 10
316.241174959
 20
219.9299989694
  0
VERTEX
  8
SURFACE
 62
7
  6
CONTINUOUS
 10
316.2256239621
 20
219.8812394349
  0
VERTEX
  8
SURFACE
 62
7
  6
CONTINUOUS
 10
316.2108773897
 20
219.8367067422
  0
VERTEX
  8
SURFACE
 62
7
  6
CONTINUOUS
 10
316.196975654
 20
219.7963122662
  0
SEQEND
  0
POLYLINE
  8
SURFACE
 62
7
  6
CONTINUOUS
 66
1
 70
0
  0
VERTEX
  8
SURFACE
 62
7
  6
CONTINUOUS
 10
316.1861167286
 20
219.7658810943
  0
VERTEX
  8
SURFACE
 62
7
  6
CONTINUOUS
 10
316.1779125409
 20
219.7425427362
  0
VERTEX
  8
SURFACE
 62
7
  6
CONTINUOUS
 10
316.1592950715
 20
219.6829524825
  0
VERTEX
  8
SURFACE
 62
7
  6
CONTINUOUS
 10
316.1437486096
 20
219.6225316173
  0
VERTEX
  8
SURFACE
 62
7
  6
CONTINUOUS
 10
316.1313659868
 20
219.5615587811
  0
VERTEX
  8
SURFACE
 62
7
  6
CONTINUOUS
 10
316.1221955202
 20
219.5002840257
  0
SEQEND
  0
LINE
  8
SURFACE
 62
7
  6
CONTINUOUS
 10
316.196975654
 20
219.7963122662
 11
316.1861656593
 21
219.7660160297
  0
LINE
  8
SURFACE
 62
7
  6
CONTINUOUS
 10
316.1861167286
 20
219.7658810943
 11
316.1861656771
 21
219.7660160233
  0
POLYLINE
  8
SURFACE
 62
7
  6
CONTINUOUS
 66
1
 70
0
  0
VERTEX
  8
SURFACE
 62
7
  6
CONTINUOUS
 10
316.287949025
 20
85.6981634156
  0
VERTEX
  8
SURFACE
 62
7
  6
CONTINUOUS
 10
316.3033444625
 20
85.6268136383
  0
VERTEX
  8
SURFACE
 62
7
  6
CONTINUOUS
 10
316.3185298542
 20
85.5579666254
  0
VERTEX
  8
SURFACE
 62
7
  6
CONTINUOUS
 10
316.3335132622
 20
85.4915522887
  0
VERTEX
  8
SURFACE
 62
7
  6
CONTINUOUS
 10
316.3483031366
 20
85.4275011814
  0
VERTEX
  8
SURFACE
 62
7
  6
CONTINUOUS
 10
316.3629085246
 20
85.3657431766
  0
VERTEX
  8
SURFACE
 62
7
  6
CONTINUOUS
 10
316.377338764
 20
85.3062092134
  0
VERTEX
  8
SURFACE
 62
7
  6
CONTINUOUS
 10
316.3916061155
 20
85.2488211734
  0
VERTEX
  8
SURFACE
 62
7
  6
CONTINUOUS
 10
316.4057227681
 20
85.1935048287
  0
VERTEX
  8
SURFACE
 62
7
  6
CONTINUOUS
 10
316.419704025
 20
85.1401773976
  0
VERTEX
  8
SURFACE
 62
7
  6
CONTINUOUS
 10
316.4335649362
 20
85.08876106
  0
VERTEX
  8
SURFACE
 62
7
  6
CONTINUOUS
 10
316.4473258116
 20
85.0391635215
  0
VERTEX
  8
SURFACE
 62
7
  6
CONTINUOUS
 10
316.4610067421
 20
84.9912994918
  0
VERTEX
  8
SURFACE
 62
7
  6
CONTINUOUS
 10
316.4746331509
 20
84.9450717489
  0
VERTEX
  8
SURFACE
 62
7
  6
CONTINUOUS
 10
316.4882314279
 20
84.9003874453
  0
VERTEX
  8
SURFACE
 62
7
  6
CONTINUOUS
 10
316.501831679
 20
84.8571496285
  0
VERTEX
  8
SURFACE
 62
7
  6
CONTINUOUS
 10
316.515469939
 20
84.8152524939
  0
VERTEX
  8
SURFACE
 62
7
  6
CONTINUOUS
 10
316.5291724205
 20
84.7746299163
  0
VERTEX
  8
SURFACE
 62
7
  6
CONTINUOUS
 10
316.5429727461
 20
84.7352012343
  0
VERTEX
  8
SURFACE
 62
7
  6
CONTINUOUS
 10
316.5569075976
 20
84.6968860075
  0
VERTEX
  8
SURFACE
 62
7
  6
CONTINUOUS
 10
316.571015699
 20
84.6596073125
  0
VERTEX
  8
SURFACE
 62
7
  6
CONTINUOUS
 10
316.5853522581
 20
84.6232563961
  0
VERTEX
  8
SURFACE
 62
7
  6
CONTINUOUS
 10
316.5999643832
 20
84.5877588188
  0
VERTEX
  8
SURFACE
 62
7
  6
CONTINUOUS
 10
316.6149499
 20
84.5529353354
  0
VERTEX
  8
SURFACE
 62
7
  6
CONTINUOUS
 10
316.6303952093
 20
84.5186616894
  0
VERTEX
  8
SURFACE
 62
7
  6
CONTINUOUS
 10
316.6464310929
 20
84.4847454401
  0
VERTEX
  8
SURFACE
 62
7
  6
CONTINUOUS
 10
316.6631827838
 20
84.4510447429
  0
VERTEX
  8
SURFACE
 62
7
  6
CONTINUOUS
 10
316.6808247851
 20
84.4173612387
  0
VERTEX
  8
SURFACE
 62
7
  6
CONTINUOUS
 10
316.6995355598
 20
84.3835418227
  0
VERTEX
  8
SURFACE
 62
7
  6
CONTINUOUS
 10
316.7195326983
 20
84.3494188483
  0
VERTEX
  8
SURFACE
 62
7
  6
CONTINUOUS
 10
316.7410761937
 20
84.3148206561
  0
VERTEX
  8
SURFACE
 62
7
  6
CONTINUOUS
 10
316.7643563202
 20
84.2797513846
  0
VERTEX
  8
SURFACE
 62
7
  6
CONTINUOUS
 10
316.7896258491
 20
84.2441715926
  0
VERTEX
  8
SURFACE
 62
7
  6
CONTINUOUS
 10
316.817078825
 20
84.2081772332
  0
VERTEX
  8
SURFACE
 62
7
  6
CONTINUOUS
 10
316.8469670097
 20
84.1718308455
  0
VERTEX
  8
SURFACE
 62
7
  6
CONTINUOUS
 10
316.8794422466
 20
84.1353548746
  0
VERTEX
  8
SURFACE
 62
7
  6
CONTINUOUS
 10
316.9147183833
 20
84.0989235913
  0
VERTEX
  8
SURFACE
 62
7
  6
CONTINUOUS
 10
316.952834538
 20
84.062903939
  0
VERTEX
  8
SURFACE
 62
7
  6
CONTINUOUS
 10
316.9938471471
 20
84.0276251909
  0
VERTEX
  8
SURFACE
 62
7
  6
CONTINUOUS
 10
317.0377455775
 20
83.9934542131
  0
VERTEX
  8
SURFACE
 62
7
  6
CONTINUOUS
 10
317.0844759874
 20
83.9607596893
  0
VERTEX
  8
SURFACE
 62
7
  6
CONTINUOUS
 10
317.1339755841
 20
83.929883925
  0
VERTEX
  8
SURFACE
 62
7
  6
CONTINUOUS
 10
317.1861265881
 20
83.9011721105
  0
VERTEX
  8
SURFACE
 62
7
  6
CONTINUOUS
 10
317.2407771773
 20
83.8749520289
  0
VERTEX
  8
SURFACE
 62
7
  6
CONTINUOUS
 10
317.2976991566
 20
83.8515470377
  0
VERTEX
  8
SURFACE
 62
7
  6
CONTINUOUS
 10
317.3567480324
 20
83.831209064
  0
VERTEX
  8
SURFACE
 62
7
  6
CONTINUOUS
 10
317.4176901212
 20
83.8141964715
  0
VERTEX
  8
SURFACE
 62
7
  6
CONTINUOUS
 10
317.4803647345
 20
83.8007218784
  0
VERTEX
  8
SURFACE
 62
7
  6
CONTINUOUS
 10
317.5445549445
 20
83.7909967907
  0
VERTEX
  8
SURFACE
 62
7
  6
CONTINUOUS
 10
317.6100361054
 20
83.785216198
  0
VERTEX
  8
SURFACE
 62
7
  6
CONTINUOUS
 10
317.6693256195
 20
83.7835358979
  0
SEQEND
  0
LINE
  8
SURFACE
 62
7
  6
CONTINUOUS
 10
316.2565021048
 20
85.848632963
 11
316.287949025
 21
85.6981634156
  0
LINE
  8
SURFACE
 62
7
  6
CONTINUOUS
 10
316.2241427286
 20
86.0098873148
 11
316.2565021048
 21
85.848632963
  0
POLYLINE
  8
SURFACE
 62
7
  6
CONTINUOUS
 66
1
 70
0
  0
VERTEX
  8
SURFACE
 62
7
  6
CONTINUOUS
 10
316.1738160402
 20
86.2730393237
  0
VERTEX
  8
SURFACE
 62
7
  6
CONTINUOUS
 10
316.190834461
 20
86.1824108695
  0
VERTEX
  8
SURFACE
 62
7
  6
CONTINUOUS
 10
316.2241427286
 20
86.0098873148
  0
SEQEND
  0
LINE
  8
SURFACE
 62
7
  6
CONTINUOUS
 10
316.1320223063
 20
71.2550879932
 11
316.2685663412
 21
70.0046762441
  0
LINE
  8
SURFACE
 62
7
  6
CONTINUOUS
 10
316.1280509438
 20
71.2939121438
 11
316.1320222587
 21
71.2550885373
  0
POLYLINE
  8
0
 62
7
  6
CONTINUOUS
 66
1
 70
0
  0
VERTEX
  8
0
 62
7
  6
CONTINUOUS
 10
303.4133196919
 20
107.1312502493
  0
VERTEX
  8
0
 62
7
  6
CONTINUOUS
 10
303.4135789337
 20
107.1065208902
  0
VERTEX
  8
0
 62
7
  6
CONTINUOUS
 10
303.4164258069
 20
107.0457759523
  0
VERTEX
  8
0
 62
7
  6
CONTINUOUS
 10
303.4224469475
 20
106.9848306992
  0
VERTEX
  8
0
 62
7
  6
CONTINUOUS
 10
303.4316514019
 20
106.9239698898
  0
VERTEX
  8
0
 62
7
  6
CONTINUOUS
 10
303.4440250316
 20
106.8634111846
  0
VERTEX
  8
0
 62
7
  6
CONTINUOUS
 10
303.4595199376
 20
106.8034002337
  0
VERTEX
  8
0
 62
7
  6
CONTINUOUS
 10
303.4780447139
 20
106.7442106096
  0
VERTEX
  8
0
 62
7
  6
CONTINUOUS
 10
303.4861171001
 20
106.7212593227
  0
SEQEND
  0
POLYLINE
  8
0
 62
7
  6
CONTINUOUS
 66
1
 70
0
  0
VERTEX
  8
0
 62
7
  6
CONTINUOUS
 10
303.4133196897
 20
78.3063340021
  0
VERTEX
  8
0
 62
7
  6
CONTINUOUS
 10
303.4135684318
 20
78.2719529687
  0
VERTEX
  8
0
 62
7
  6
CONTINUOUS
 10
303.4153680345
 20
78.207753021
  0
VERTEX
  8
0
 62
7
  6
CONTINUOUS
 10
303.4189093107
 20
78.1434766517
  0
VERTEX
  8
0
 62
7
  6
CONTINUOUS
 10
303.4241938264
 20
78.0791664483
  0
SEQEND
  0
POLYLINE
  8
0
 62
7
  6
CONTINUOUS
 66
1
 70
0
  0
VERTEX
  8
0
 62
7
  6
CONTINUOUS
 10
303.413319685
 20
71.601242103
  0
VERTEX
  8
0
 62
7
  6
CONTINUOUS
 10
303.4135206082
 20
71.5652919465
  0
VERTEX
  8
0
 62
7
  6
CONTINUOUS
 10
303.4149961966
 20
71.4974156557
  0
VERTEX
  8
0
 62
7
  6
CONTINUOUS
 10
303.4179079473
 20
71.4295415368
  0
VERTEX
  8
0
 62
7
  6
CONTINUOUS
 10
303.4222587073
 20
71.3616984162
  0
VERTEX
  8
0
 62
7
  6
CONTINUOUS
 10
303.4280507353
 20
71.2939143456
  0
VERTEX
  8
0
 62
7
  6
CONTINUOUS
 10
303.4320222624
 20
71.2550885974
  0
SEQEND
  0
LINE
  8
0
 62
7
  6
CONTINUOUS
 10
303.4133196721
 20
71.6012426115
 11
303.4133196721
 21
254.8858987825
  0
LINE
  8
0
 62
7
  6
CONTINUOUS
 10
303.4136584773
 20
204.0851165512
 11
303.4133196852
 21
204.0589530837
  0
POLYLINE
  8
SURFACE
 62
7
  6
CONTINUOUS
 66
1
 70
0
  0
VERTEX
  8
SURFACE
 62
7
  6
CONTINUOUS
 10
316.1320222587
 20
255.2320528561
  0
VERTEX
  8
SURFACE
 62
7
  6
CONTINUOUS
 10
316.1280509438
 20
255.1932292497
  0
VERTEX
  8
SURFACE
 62
7
  6
CONTINUOUS
 10
316.1222589649
 20
255.1254463075
  0
VERTEX
  8
SURFACE
 62
7
  6
CONTINUOUS
 10
316.1179081458
 20
255.057603511
  0
VERTEX
  8
SURFACE
 62
7
  6
CONTINUOUS
 10
316.1149963003
 20
254.989729199
  0
VERTEX
  8
SURFACE
 62
7
  6
CONTINUOUS
 10
316.1135206317
 20
254.9218517197
  0
VERTEX
  8
SURFACE
 62
7
  6
CONTINUOUS
 10
316.1133196875
 20
254.885899332
  0
SEQEND
  0
POLYLINE
  8
SURFACE
 62
7
  6
CONTINUOUS
 66
1
 70
0
  0
VERTEX
  8
SURFACE
 62
7
  6
CONTINUOUS
 10
316.1312224337
 20
248.472284391
  0
VERTEX
  8
SURFACE
 62
7
  6
CONTINUOUS
 10
316.1241948422
 20
248.4079854489
  0
VERTEX
  8
SURFACE
 62
7
  6
CONTINUOUS
 10
316.1189101105
 20
248.3436763772
  0
VERTEX
  8
SURFACE
 62
7
  6
CONTINUOUS
 10
316.1153684637
 20
248.2793988835
  0
VERTEX
  8
SURFACE
 62
7
  6
CONTINUOUS
 10
316.1135685256
 20
248.2151951135
  0
VERTEX
  8
SURFACE
 62
7
  6
CONTINUOUS
 10
316.1133196926
 20
248.180808281
  0
SEQEND
  0
LINE
  8
SURFACE
 62
7
  6
CONTINUOUS
 10
316.3349595522
 20
257.0829794152
 11
316.1320223063
 21
255.2320534002
  0
LINE
  8
SURFACE
 62
7
  6
CONTINUOUS
 10
316.4600779397
 20
258.1964670902
 11
316.3349595522
 21
257.0829794152
  0
LINE
  8
SURFACE
 62
7
  6
CONTINUOUS
 10
316.5465178282
 20
258.9469704123
 11
316.4600779397
 21
258.1964670902
  0
LINE
  8
SURFACE
 62
7
  6
CONTINUOUS
 10
316.6261216851
 20
259.6187589523
 11
316.5465178282
 21
258.9469704123
  0
LINE
  8
SURFACE
 62
7
  6
CONTINUOUS
 10
316.675206998
 20
260.0204065091
 11
316.6261216851
 21
259.6187589523
  0
LINE
  8
SURFACE
 62
7
  6
CONTINUOUS
 10
316.7193694244
 20
260.370819942
 11
316.675206998
 21
260.0204065091
  0
LINE
  8
SURFACE
 62
7
  6
CONTINUOUS
 10
316.1353704998
 20
248.5042796897
 11
316.1312224337
 21
248.472284391
  0
LINE
  8
SURFACE
 62
7
  6
CONTINUOUS
 10
316.719778696
 20
252.9433173448
 11
316.639351044
 21
252.3315928337
  0
LINE
  8
SURFACE
 62
7
  6
CONTINUOUS
 10
316.639351044
 20
252.3315928337
 11
316.1872404169
 21
248.8885398852
  0
LINE
  8
SURFACE
 62
7
  6
CONTINUOUS
 10
316.1872404169
 20
248.8885398852
 11
316.1353711149
 21
248.504284352
  0
POLYLINE
  8
0
 62
7
  6
CONTINUOUS
 66
1
 70
0
  0
VERTEX
  8
0
 62
7
  6
CONTINUOUS
 10
313.2477026673
 20
185.9927746814
  0
VERTEX
  8
0
 62
7
  6
CONTINUOUS
 10
313.210465061
 20
185.8981647639
  0
VERTEX
  8
0
 62
7
  6
CONTINUOUS
 10
313.1691814202
 20
185.7990208049
  0
VERTEX
  8
0
 62
7
  6
CONTINUOUS
 10
313.123862446
 20
185.6953337636
  0
VERTEX
  8
0
 62
7
  6
CONTINUOUS
 10
313.0745315489
 20
185.5871307626
  0
VERTEX
  8
0
 62
7
  6
CONTINUOUS
 10
313.0212142676
 20
185.4743279494
  0
VERTEX
  8
0
 62
7
  6
CONTINUOUS
 10
312.9641010641
 20
185.357249209
  0
VERTEX
  8
0
 62
7
  6
CONTINUOUS
 10
312.9033691527
 20
185.2360069058
  0
VERTEX
  8
0
 62
7
  6
CONTINUOUS
 10
312.8393751432
 20
185.11115175
  0
VERTEX
  8
0
 62
7
  6
CONTINUOUS
 10
312.7724722323
 20
184.983026001
  0
VERTEX
  8
0
 62
7
  6
CONTINUOUS
 10
312.7031772254
 20
184.8523673761
  0
SEQEND
  0
LINE
  8
0
 62
7
  6
CONTINUOUS
 10
312.7031772254
 20
184.8523673761
 11
312.5595934502
 21
184.5860069101
  0
LINE
  8
0
 62
7
  6
CONTINUOUS
 10
312.5595934502
 20
184.5860069101
 11
312.4133196721
 21
184.3177746814
  0
LINE
  8
SURFACE
 62
7
  6
CONTINUOUS
 10
316.1420411145
 20
86.4466026554
 11
316.1738160402
 21
86.2730393237
  0
LINE
  8
SURFACE
 62
7
  6
CONTINUOUS
 10
316.675206998
 20
66.4667348843
 11
316.7193694244
 21
66.1163214514
  0
LINE
  8
SURFACE
 62
7
  6
CONTINUOUS
 10
316.6261216851
 20
66.8683824411
 11
316.675206998
 21
66.4667348843
  0
LINE
  8
SURFACE
 62
7
  6
CONTINUOUS
 10
316.5465178282
 20
67.5401709811
 11
316.6261216851
 21
66.8683824411
  0
LINE
  8
SURFACE
 62
7
  6
CONTINUOUS
 10
316.4600779397
 20
68.2906743032
 11
316.5465178282
 21
67.5401709811
  0
LINE
  8
SURFACE
 62
7
  6
CONTINUOUS
 10
316.3349595522
 20
69.4041619782
 11
316.4600779397
 21
68.2906743032
  0
LINE
  8
SURFACE
 62
7
  6
CONTINUOUS
 10
316.2685663412
 20
70.0046762441
 11
316.3349595522
 21
69.4041619782
  0
POLYLINE
  8
0
 62
7
  6
CONTINUOUS
 66
1
 70
0
  0
VERTEX
  8
0
 62
7
  6
CONTINUOUS
 10
313.4133196566
 20
204.0589528055
  0
VERTEX
  8
0
 62
7
  6
CONTINUOUS
 10
313.4130446104
 20
204.0825281165
  0
VERTEX
  8
0
 62
7
  6
CONTINUOUS
 10
313.410169749
 20
204.138656208
  0
VERTEX
  8
0
 62
7
  6
CONTINUOUS
 10
313.4041725111
 20
204.1945616138
  0
VERTEX
  8
0
 62
7
  6
CONTINUOUS
 10
313.3950691976
 20
204.2500583347
  0
VERTEX
  8
0
 62
7
  6
CONTINUOUS
 10
313.3828877991
 20
204.3049656164
  0
VERTEX
  8
0
 62
7
  6
CONTINUOUS
 10
313.3676675682
 20
204.3591061092
  0
VERTEX
  8
0
 62
7
  6
CONTINUOUS
 10
313.3494588959
 20
204.4123054883
  0
VERTEX
  8
0
 62
7
  6
CONTINUOUS
 10
313.3283239428
 20
204.4643911766
  0
VERTEX
  8
0
 62
7
  6
CONTINUOUS
 10
313.3043348364
 20
204.5151974027
  0
VERTEX
  8
0
 62
7
  6
CONTINUOUS
 10
313.2775774453
 20
204.5645575055
  0
VERTEX
  8
0
 62
7
  6
CONTINUOUS
 10
313.2481419754
 20
204.6123219814
  0
VERTEX
  8
0
 62
7
  6
CONTINUOUS
 10
313.2161514145
 20
204.6583142284
  0
VERTEX
  8
0
 62
7
  6
CONTINUOUS
 10
313.1817262407
 20
204.7023911773
  0
VERTEX
  8
0
 62
7
  6
CONTINUOUS
 10
313.1450412247
 20
204.7443706647
  0
VERTEX
  8
0
 62
7
  6
CONTINUOUS
 10
313.1062352715
 20
204.7841442349
  0
VERTEX
  8
0
 62
7
  6
CONTINUOUS
 10
313.0656283325
 20
204.8214608153
  0
VERTEX
  8
0
 62
7
  6
CONTINUOUS
 10
313.0235084451
 20
204.8561721389
  0
VERTEX
  8
0
 62
7
  6
CONTINUOUS
 10
312.9802679491
 20
204.8881082187
  0
VERTEX
  8
0
 62
7
  6
CONTINUOUS
 10
312.9362602222
 20
204.9171969248
  0
VERTEX
  8
0
 62
7
  6
CONTINUOUS
 10
312.8920113175
 20
204.9433206689
  0
VERTEX
  8
0
 62
7
  6
CONTINUOUS
 10
312.8480005877
 20
204.9664718715
  0
VERTEX
  8
0
 62
7
  6
CONTINUOUS
 10
312.8048027869
 20
204.986663558
  0
VERTEX
  8
0
 62
7
  6
CONTINUOUS
 10
312.7652408228
 20
205.0031038469
  0
SEQEND
  0
POLYLINE
  8
SURFACE
 62
7
  6
CONTINUOUS
 66
1
 70
0
  0
VERTEX
  8
SURFACE
 62
7
  6
CONTINUOUS
 10
316.1133196877
 20
122.428188588
  0
VERTEX
  8
SURFACE
 62
7
  6
CONTINUOUS
 10
316.1135947339
 20
122.4046132769
  0
VERTEX
  8
SURFACE
 62
7
  6
CONTINUOUS
 10
316.1164695952
 20
122.3484851854
  0
VERTEX
  8
SURFACE
 62
7
  6
CONTINUOUS
 10
316.1224668331
 20
122.2925797797
  0
VERTEX
  8
SURFACE
 62
7
  6
CONTINUOUS
 10
316.1315701466
 20
122.2370830588
  0
VERTEX
  8
SURFACE
 62
7
  6
CONTINUOUS
 10
316.1437515451
 20
122.182175777
  0
VERTEX
  8
SURFACE
 62
7
  6
CONTINUOUS
 10
316.1589717761
 20
122.1280352843
  0
VERTEX
  8
SURFACE
 62
7
  6
CONTINUOUS
 10
316.1771804484
 20
122.0748359052
  0
VERTEX
  8
SURFACE
 62
7
  6
CONTINUOUS
 10
316.1983154014
 20
122.0227502168
  0
VERTEX
  8
SURFACE
 62
7
  6
CONTINUOUS
 10
316.2223045079
 20
121.9719439907
  0
VERTEX
  8
SURFACE
 62
7
  6
CONTINUOUS
 10
316.2490618989
 20
121.9225838879
  0
VERTEX
  8
SURFACE
 62
7
  6
CONTINUOUS
 10
316.2784973689
 20
121.8748194121
  0
VERTEX
  8
SURFACE
 62
7
  6
CONTINUOUS
 10
316.3104879297
 20
121.8288271651
  0
VERTEX
  8
SURFACE
 62
7
  6
CONTINUOUS
 10
316.3449131035
 20
121.7847502161
  0
VERTEX
  8
SURFACE
 62
7
  6
CONTINUOUS
 10
316.3815981196
 20
121.7427707287
  0
VERTEX
  8
SURFACE
 62
7
  6
CONTINUOUS
 10
316.4204040728
 20
121.7029971585
  0
VERTEX
  8
SURFACE
 62
7
  6
CONTINUOUS
 10
316.4610110118
 20
121.6656805782
  0
VERTEX
  8
SURFACE
 62
7
  6
CONTINUOUS
 10
316.5031308991
 20
121.6309692546
  0
VERTEX
  8
SURFACE
 62
7
  6
CONTINUOUS
 10
316.5463713951
 20
121.5990331748
  0
VERTEX
  8
SURFACE
 62
7
  6
CONTINUOUS
 10
316.5903791221
 20
121.5699444686
  0
VERTEX
  8
SURFACE
 62
7
  6
CONTINUOUS
 10
316.6346280268
 20
121.5438207246
  0
VERTEX
  8
SURFACE
 62
7
  6
CONTINUOUS
 10
316.6786387566
 20
121.520669522
  0
VERTEX
  8
SURFACE
 62
7
  6
CONTINUOUS
 10
316.7218365574
 20
121.5004778354
  0
VERTEX
  8
SURFACE
 62
7
  6
CONTINUOUS
 10
316.7613985214
 20
121.4840375465
  0
SEQEND
  0
POLYLINE
  8
0
 62
7
  6
CONTINUOUS
 66
1
 70
0
  0
VERTEX
  8
0
 62
7
  6
CONTINUOUS
 10
313.4133196557
 20
239.7180106848
  0
VERTEX
  8
0
 62
7
  6
CONTINUOUS
 10
313.4129992243
 20
239.7523986173
  0
VERTEX
  8
0
 62
7
  6
CONTINUOUS
 10
313.4106991853
 20
239.816112142
  0
VERTEX
  8
0
 62
7
  6
CONTINUOUS
 10
313.4061891224
 20
239.8795461035
  0
VERTEX
  8
0
 62
7
  6
CONTINUOUS
 10
313.3994825566
 20
239.9426130572
  0
VERTEX
  8
0
 62
7
  6
CONTINUOUS
 10
313.3905998886
 20
240.0052252642
  0
VERTEX
  8
0
 62
7
  6
CONTINUOUS
 10
313.3846015537
 20
240.0405202536
  0
SEQEND
  0
POLYLINE
  8
SURFACE
 62
7
  6
CONTINUOUS
 66
1
 70
0
  0
VERTEX
  8
SURFACE
 62
7
  6
CONTINUOUS
 10
316.1133196885
 20
86.7691307087
  0
VERTEX
  8
SURFACE
 62
7
  6
CONTINUOUS
 10
316.11364012
 20
86.7347427761
  0
VERTEX
  8
SURFACE
 62
7
  6
CONTINUOUS
 10
316.1159401589
 20
86.6710292514
  0
VERTEX
  8
SURFACE
 62
7
  6
CONTINUOUS
 10
316.1204502219
 20
86.6075952899
  0
VERTEX
  8
SURFACE
 62
7
  6
CONTINUOUS
 10
316.1271567877
 20
86.5445283363
  0
VERTEX
  8
SURFACE
 62
7
  6
CONTINUOUS
 10
316.1360394556
 20
86.4819161292
  0
VERTEX
  8
SURFACE
 62
7
  6
CONTINUOUS
 10
316.1420377906
 20
86.4466211399
  0
SEQEND
  0
POLYLINE
  8
0
 62
7
  6
CONTINUOUS
 66
1
 70
0
  0
VERTEX
  8
0
 62
7
  6
CONTINUOUS
 10
313.4133196568
 20
254.885899332
  0
VERTEX
  8
0
 62
7
  6
CONTINUOUS
 10
313.4131187126
 20
254.9218517197
  0
VERTEX
  8
0
 62
7
  6
CONTINUOUS
 10
313.411643044
 20
254.989729199
  0
VERTEX
  8
0
 62
7
  6
CONTINUOUS
 10
313.4087311985
 20
255.057603511
  0
VERTEX
  8
0
 62
7
  6
CONTINUOUS
 10
313.4043803794
 20
255.1254463075
  0
VERTEX
  8
0
 62
7
  6
CONTINUOUS
 10
313.3985884005
 20
255.1932292497
  0
SEQEND
  0
POLYLINE
  8
SURFACE
 62
7
  6
CONTINUOUS
 66
1
 70
0
  0
VERTEX
  8
SURFACE
 62
7
  6
CONTINUOUS
 10
316.1133196875
 20
71.6012420615
  0
VERTEX
  8
SURFACE
 62
7
  6
CONTINUOUS
 10
316.1135206317
 20
71.5652896738
  0
VERTEX
  8
SURFACE
 62
7
  6
CONTINUOUS
 10
316.1149963003
 20
71.4974121944
  0
VERTEX
  8
SURFACE
 62
7
  6
CONTINUOUS
 10
316.1179081458
 20
71.4295378825
  0
VERTEX
  8
SURFACE
 62
7
  6
CONTINUOUS
 10
316.1222589649
 20
71.3616950859
  0
VERTEX
  8
SURFACE
 62
7
  6
CONTINUOUS
 10
316.1280509438
 20
71.2939121438
  0
SEQEND
  0
LINE
  8
0
 62
7
  6
CONTINUOUS
 10
313.4133196721
 20
254.885898782
 11
313.4133196721
 21
245.2435706967
  0
LINE
  8
0
 62
7
  6
CONTINUOUS
 10
313.4133196721
 20
239.7180696173
 11
313.4133196721
 21
224.2717369174
  0
LINE
  8
0
 62
7
  6
CONTINUOUS
 10
313.4133196721
 20
204.0589602252
 11
313.4133196721
 21
186.9474552836
  0
LINE
  8
0
 62
7
  6
CONTINUOUS
 10
313.4133196721
 20
159.9435706967
 11
313.4133196721
 21
143.2717369174
  0
LINE
  8
0
 62
7
  6
CONTINUOUS
 10
313.4133196721
 20
119.3856868642
 11
313.4133196721
 21
104.9474552836
  0
LINE
  8
0
 62
7
  6
CONTINUOUS
 10
313.4133196721
 20
90.5794875864
 11
313.4133196721
 21
71.6012426114
  0
POLYLINE
  8
0
 62
7
  6
CONTINUOUS
 66
1
 70
0
  0
VERTEX
  8
0
 62
7
  6
CONTINUOUS
 10
313.4133196721
 20
143.2717369174
  0
VERTEX
  8
0
 62
7
  6
CONTINUOUS
 10
313.4098778721
 20
143.1105622804
  0
VERTEX
  8
0
 62
7
  6
CONTINUOUS
 10
313.4006379351
 20
142.9542300826
  0
VERTEX
  8
0
 62
7
  6
CONTINUOUS
 10
313.3852129133
 20
142.8016938311
  0
VERTEX
  8
0
 62
7
  6
CONTINUOUS
 10
313.3647636501
 20
142.6560930045
  0
VERTEX
  8
0
 62
7
  6
CONTINUOUS
 10
313.3400952551
 20
142.5204916482
  0
VERTEX
  8
0
 62
7
  6
CONTINUOUS
 10
313.3118879815
 20
142.3940695695
  0
VERTEX
  8
0
 62
7
  6
CONTINUOUS
 10
313.2812090301
 20
142.2770530685
  0
VERTEX
  8
0
 62
7
  6
CONTINUOUS
 10
313.2477026673
 20
142.169366712
  0
SEQEND
  0
POLYLINE
  8
SURFACE
 62
7
  6
CONTINUOUS
 66
1
 70
0
  0
VERTEX
  8
SURFACE
 62
7
  6
CONTINUOUS
 10
316.1133196721
 20
221.5396861098
  0
VERTEX
  8
SURFACE
 62
7
  6
CONTINUOUS
 10
316.1167614721
 20
221.6792674399
  0
VERTEX
  8
SURFACE
 62
7
  6
CONTINUOUS
 10
316.1260014091
 20
221.8146550946
  0
VERTEX
  8
SURFACE
 62
7
  6
CONTINUOUS
 10
316.1414264309
 20
221.9467553634
  0
VERTEX
  8
SURFACE
 62
7
  6
CONTINUOUS
 10
316.1618756942
 20
222.072849378
  0
VERTEX
  8
SURFACE
 62
7
  6
CONTINUOUS
 10
316.1865440892
 20
222.1902835974
  0
VERTEX
  8
SURFACE
 62
7
  6
CONTINUOUS
 10
316.2147513628
 20
222.2997683292
  0
VERTEX
  8
SURFACE
 62
7
  6
CONTINUOUS
 10
316.2454303142
 20
222.4011075916
  0
VERTEX
  8
SURFACE
 62
7
  6
CONTINUOUS
 10
316.278936677
 20
222.494366712
  0
SEQEND
  0
POLYLINE
  8
0
 62
7
  6
CONTINUOUS
 66
1
 70
0
  0
VERTEX
  8
0
 62
7
  6
CONTINUOUS
 10
313.4133196721
 20
104.9474552836
  0
VERTEX
  8
0
 62
7
  6
CONTINUOUS
 10
313.4098778721
 20
104.8078739536
  0
VERTEX
  8
0
 62
7
  6
CONTINUOUS
 10
313.4006379351
 20
104.6724862989
  0
VERTEX
  8
0
 62
7
  6
CONTINUOUS
 10
313.3852129133
 20
104.5403860301
  0
VERTEX
  8
0
 62
7
  6
CONTINUOUS
 10
313.3647636501
 20
104.4142920155
  0
VERTEX
  8
0
 62
7
  6
CONTINUOUS
 10
313.3400952551
 20
104.2968577961
  0
VERTEX
  8
0
 62
7
  6
CONTINUOUS
 10
313.3118879815
 20
104.1873730643
  0
VERTEX
  8
0
 62
7
  6
CONTINUOUS
 10
313.2812090301
 20
104.0860338018
  0
VERTEX
  8
0
 62
7
  6
CONTINUOUS
 10
313.2477026673
 20
103.9927746814
  0
SEQEND
  0
POLYLINE
  8
0
 62
7
  6
CONTINUOUS
 66
1
 70
0
  0
VERTEX
  8
0
 62
7
  6
CONTINUOUS
 10
313.4133196721
 20
186.9474552836
  0
VERTEX
  8
0
 62
7
  6
CONTINUOUS
 10
313.4098760792
 20
186.8078501256
  0
VERTEX
  8
0
 62
7
  6
CONTINUOUS
 10
313.4006344332
 20
186.6724485792
  0
VERTEX
  8
0
 62
7
  6
CONTINUOUS
 10
313.3852074037
 20
186.540345482
  0
VERTEX
  8
0
 62
7
  6
CONTINUOUS
 10
313.3647569825
 20
186.4142563214
  0
VERTEX
  8
0
 62
7
  6
CONTINUOUS
 10
313.3400898273
 20
186.2968333508
  0
VERTEX
  8
0
 62
7
  6
CONTINUOUS
 10
313.3118846106
 20
186.187361109
  0
VERTEX
  8
0
 62
7
  6
CONTINUOUS
 10
313.2812073353
 20
186.0860292971
  0
VERTEX
  8
0
 62
7
  6
CONTINUOUS
 10
313.2477026673
 20
185.9927746814
  0
SEQEND
  0
POLYLINE
  8
0
 62
7
  6
CONTINUOUS
 66
1
 70
0
  0
VERTEX
  8
0
 62
7
  6
CONTINUOUS
 10
313.4133196721
 20
224.2717369174
  0
VERTEX
  8
0
 62
7
  6
CONTINUOUS
 10
313.4098760792
 20
224.1911358418
  0
VERTEX
  8
0
 62
7
  6
CONTINUOUS
 10
313.4006344332
 20
224.1129617225
  0
VERTEX
  8
0
 62
7
  6
CONTINUOUS
 10
313.3852074037
 20
224.0366919638
  0
VERTEX
  8
0
 62
7
  6
CONTINUOUS
 10
313.3647569825
 20
223.963894353
  0
VERTEX
  8
0
 62
7
  6
CONTINUOUS
 10
313.3400898273
 20
223.8961001693
  0
VERTEX
  8
0
 62
7
  6
CONTINUOUS
 10
313.3118846106
 20
223.832896341
  0
VERTEX
  8
0
 62
7
  6
CONTINUOUS
 10
313.2812073353
 20
223.7743923922
  0
VERTEX
  8
0
 62
7
  6
CONTINUOUS
 10
313.2477026673
 20
223.7205518147
  0
SEQEND
  0
POLYLINE
  8
SURFACE
 62
7
  6
CONTINUOUS
 66
1
 70
0
  0
VERTEX
  8
SURFACE
 62
7
  6
CONTINUOUS
 10
316.1221955202
 20
219.5002840257
  0
VERTEX
  8
SURFACE
 62
7
  6
CONTINUOUS
 10
316.1162511493
 20
219.4389296638
  0
VERTEX
  8
SURFACE
 62
7
  6
CONTINUOUS
 10
316.1135228026
 20
219.3777861151
  0
VERTEX
  8
SURFACE
 62
7
  6
CONTINUOUS
 10
316.1133196951
 20
219.3558884744
  0
SEQEND
  0
POLYLINE
  8
SURFACE
 62
7
  6
CONTINUOUS
 66
1
 70
0
  0
VERTEX
  8
SURFACE
 62
7
  6
CONTINUOUS
 10
316.278936677
 20
184.3177746814
  0
VERTEX
  8
SURFACE
 62
7
  6
CONTINUOUS
 10
316.3161742832
 20
184.426010424
  0
VERTEX
  8
SURFACE
 62
7
  6
CONTINUOUS
 10
316.357457924
 20
184.5373435373
  0
VERTEX
  8
SURFACE
 62
7
  6
CONTINUOUS
 10
316.4027768982
 20
184.6516005263
  0
VERTEX
  8
SURFACE
 62
7
  6
CONTINUOUS
 10
316.4521077954
 20
184.7685796735
  0
VERTEX
  8
SURFACE
 62
7
  6
CONTINUOUS
 10
316.5054250767
 20
184.8881790372
  0
VERTEX
  8
SURFACE
 62
7
  6
CONTINUOUS
 10
316.5625382801
 20
185.009888105
  0
VERTEX
  8
SURFACE
 62
7
  6
CONTINUOUS
 10
316.6232701915
 20
185.1334095574
  0
VERTEX
  8
SURFACE
 62
7
  6
CONTINUOUS
 10
316.687264201
 20
185.2580385056
  0
VERTEX
  8
SURFACE
 62
7
  6
CONTINUOUS
 10
316.7541671119
 20
185.3832895709
  0
VERTEX
  8
SURFACE
 62
7
  6
CONTINUOUS
 10
316.8234621188
 20
185.5083387262
  0
VERTEX
  8
SURFACE
 62
7
  6
CONTINUOUS
 10
316.8946156629
 20
185.6325255351
  0
VERTEX
  8
SURFACE
 62
7
  6
CONTINUOUS
 10
316.967045894
 20
185.7551008306
  0
VERTEX
  8
SURFACE
 62
7
  6
CONTINUOUS
 10
317.0400447937
 20
185.8750799865
  0
VERTEX
  8
SURFACE
 62
7
  6
CONTINUOUS
 10
317.1133196721
 20
185.9927746814
  0
SEQEND
  0
LINE
  8
DEFAULT_1
 62
2
  6
CENTER
 10
287.5633196721
 20
163.2435706967
 11
341.9633196721
 21
163.2435706967
  0
POLYLINE
  8
0
 62
7
  6
CONTINUOUS
 66
1
 70
0
  0
VERTEX
  8
0
 62
7
  6
CONTINUOUS
 10
312.4133196721
 20
161.9435706967
  0
VERTEX
  8
0
 62
7
  6
CONTINUOUS
 10
312.5363798946
 20
161.7932866146
  0
VERTEX
  8
0
 62
7
  6
CONTINUOUS
 10
312.651782581
 20
161.64797399
  0
VERTEX
  8
0
 62
7
  6
CONTINUOUS
 10
312.7598840077
 20
161.507726914
  0
VERTEX
  8
0
 62
7
  6
CONTINUOUS
 10
312.859615346
 20
161.3722631134
  0
VERTEX
  8
0
 62
7
  6
CONTINUOUS
 10
312.9500121529
 20
161.2411830307
  0
VERTEX
  8
0
 62
7
  6
CONTINUOUS
 10
313.0311175477
 20
161.1149326096
  0
VERTEX
  8
0
 62
7
  6
CONTINUOUS
 10
313.1024322794
 20
160.9937976967
  0
VERTEX
  8
0
 62
7
  6
CONTINUOUS
 10
313.1646190169
 20
160.8778590254
  0
VERTEX
  8
0
 62
7
  6
CONTINUOUS
 10
313.2178519683
 20
160.7675161081
  0
VERTEX
  8
0
 62
7
  6
CONTINUOUS
 10
313.2630972655
 20
160.6620984547
  0
VERTEX
  8
0
 62
7
  6
CONTINUOUS
 10
313.301160307
 20
160.5613195791
  0
VERTEX
  8
0
 62
7
  6
CONTINUOUS
 10
313.3326975017
 20
160.4644269821
  0
VERTEX
  8
0
 62
7
  6
CONTINUOUS
 10
313.3585515199
 20
160.370581643
  0
VERTEX
  8
0
 62
7
  6
CONTINUOUS
 10
313.378968977
 20
160.2797566395
  0
VERTEX
  8
0
 62
7
  6
CONTINUOUS
 10
313.394399634
 20
160.1916276711
  0
VERTEX
  8
0
 62
7
  6
CONTINUOUS
 10
313.4050767249
 20
160.1062478513
  0
VERTEX
  8
0
 62
7
  6
CONTINUOUS
 10
313.4114312986
 20
160.0235553198
  0
VERTEX
  8
0
 62
7
  6
CONTINUOUS
 10
313.4133196721
 20
159.9435706967
  0
SEQEND
  0
LINE
  8
SURFACE
 62
7
  6
CONTINUOUS
 10
316.1133196721
 20
71.6012426114
 11
316.1133196721
 21
81.2435706967
  0
LINE
  8
SURFACE
 62
7
  6
CONTINUOUS
 10
316.1133196721
 20
86.7690717761
 11
316.1133196721
 21
102.2154044761
  0
LINE
  8
SURFACE
 62
7
  6
CONTINUOUS
 10
316.1133196721
 20
122.4281811682
 11
316.1133196721
 21
139.5396861098
  0
LINE
  8
SURFACE
 62
7
  6
CONTINUOUS
 10
316.1133196721
 20
166.5435706967
 11
316.1133196721
 21
183.2154044761
  0
LINE
  8
SURFACE
 62
7
  6
CONTINUOUS
 10
316.1133196721
 20
207.1014545292
 11
316.1133196721
 21
221.5396861098
  0
LINE
  8
SURFACE
 62
7
  6
CONTINUOUS
 10
316.1133196721
 20
235.907653807
 11
316.1133196721
 21
254.885898782
  0
POLYLINE
  8
SURFACE
 62
7
  6
CONTINUOUS
 66
1
 70
0
  0
VERTEX
  8
SURFACE
 62
7
  6
CONTINUOUS
 10
316.1133196721
 20
183.2154044761
  0
VERTEX
  8
SURFACE
 62
7
  6
CONTINUOUS
 10
316.1167614721
 20
183.376579113
  0
VERTEX
  8
SURFACE
 62
7
  6
CONTINUOUS
 10
316.1260014091
 20
183.5329113108
  0
VERTEX
  8
SURFACE
 62
7
  6
CONTINUOUS
 10
316.1414264309
 20
183.6854475623
  0
VERTEX
  8
SURFACE
 62
7
  6
CONTINUOUS
 10
316.1618756942
 20
183.8310483889
  0
VERTEX
  8
SURFACE
 62
7
  6
CONTINUOUS
 10
316.1865440892
 20
183.9666497452
  0
VERTEX
  8
SURFACE
 62
7
  6
CONTINUOUS
 10
316.2147513628
 20
184.093071824
  0
VERTEX
  8
SURFACE
 62
7
  6
CONTINUOUS
 10
316.2454303142
 20
184.2100883249
  0
VERTEX
  8
SURFACE
 62
7
  6
CONTINUOUS
 10
316.278936677
 20
184.3177746814
  0
SEQEND
  0
POLYLINE
  8
SURFACE
 62
7
  6
CONTINUOUS
 66
1
 70
0
  0
VERTEX
  8
SURFACE
 62
7
  6
CONTINUOUS
 10
316.1133196721
 20
139.5396861098
  0
VERTEX
  8
SURFACE
 62
7
  6
CONTINUOUS
 10
316.1167632651
 20
139.6792912679
  0
VERTEX
  8
SURFACE
 62
7
  6
CONTINUOUS
 10
316.126004911
 20
139.8146928143
  0
VERTEX
  8
SURFACE
 62
7
  6
CONTINUOUS
 10
316.1414319406
 20
139.9467959114
  0
VERTEX
  8
SURFACE
 62
7
  6
CONTINUOUS
 10
316.1618823618
 20
140.072885072
  0
VERTEX
  8
SURFACE
 62
7
  6
CONTINUOUS
 10
316.186549517
 20
140.1903080426
  0
VERTEX
  8
SURFACE
 62
7
  6
CONTINUOUS
 10
316.2147547337
 20
140.2997802844
  0
VERTEX
  8
SURFACE
 62
7
  6
CONTINUOUS
 10
316.2454320089
 20
140.4011120963
  0
VERTEX
  8
SURFACE
 62
7
  6
CONTINUOUS
 10
316.278936677
 20
140.494366712
  0
SEQEND
  0
POLYLINE
  8
SURFACE
 62
7
  6
CONTINUOUS
 66
1
 70
0
  0
VERTEX
  8
SURFACE
 62
7
  6
CONTINUOUS
 10
316.1133196721
 20
102.2154044761
  0
VERTEX
  8
SURFACE
 62
7
  6
CONTINUOUS
 10
316.1167632651
 20
102.2960055517
  0
VERTEX
  8
SURFACE
 62
7
  6
CONTINUOUS
 10
316.126004911
 20
102.3741796709
  0
VERTEX
  8
SURFACE
 62
7
  6
CONTINUOUS
 10
316.1414319406
 20
102.4504494296
  0
VERTEX
  8
SURFACE
 62
7
  6
CONTINUOUS
 10
316.1618823618
 20
102.5232470404
  0
VERTEX
  8
SURFACE
 62
7
  6
CONTINUOUS
 10
316.186549517
 20
102.5910412241
  0
VERTEX
  8
SURFACE
 62
7
  6
CONTINUOUS
 10
316.2147547337
 20
102.6542450524
  0
VERTEX
  8
SURFACE
 62
7
  6
CONTINUOUS
 10
316.2454320089
 20
102.7127490013
  0
VERTEX
  8
SURFACE
 62
7
  6
CONTINUOUS
 10
316.278936677
 20
102.7665895788
  0
SEQEND
  0
POLYLINE
  8
0
 62
7
  6
CONTINUOUS
 66
1
 70
0
  0
VERTEX
  8
0
 62
7
  6
CONTINUOUS
 10
313.4044438241
 20
106.9868573677
  0
VERTEX
  8
0
 62
7
  6
CONTINUOUS
 10
313.410388195
 20
107.0482117297
  0
VERTEX
  8
0
 62
7
  6
CONTINUOUS
 10
313.4131165417
 20
107.1093552784
  0
VERTEX
  8
0
 62
7
  6
CONTINUOUS
 10
313.4133196491
 20
107.1312529191
  0
SEQEND
  0
POLYLINE
  8
0
 62
7
  6
CONTINUOUS
 66
1
 70
0
  0
VERTEX
  8
0
 62
7
  6
CONTINUOUS
 10
313.2477026673
 20
142.169366712
  0
VERTEX
  8
0
 62
7
  6
CONTINUOUS
 10
313.210465061
 20
142.0611309694
  0
VERTEX
  8
0
 62
7
  6
CONTINUOUS
 10
313.1691814202
 20
141.9497978561
  0
VERTEX
  8
0
 62
7
  6
CONTINUOUS
 10
313.123862446
 20
141.8355408671
  0
VERTEX
  8
0
 62
7
  6
CONTINUOUS
 10
313.0745315489
 20
141.71856172
  0
VERTEX
  8
0
 62
7
  6
CONTINUOUS
 10
313.0212142676
 20
141.5989623563
  0
VERTEX
  8
0
 62
7
  6
CONTINUOUS
 10
312.9641010641
 20
141.4772532885
  0
VERTEX
  8
0
 62
7
  6
CONTINUOUS
 10
312.9033691527
 20
141.3537318361
  0
VERTEX
  8
0
 62
7
  6
CONTINUOUS
 10
312.8393751433
 20
141.2291028879
  0
VERTEX
  8
0
 62
7
  6
CONTINUOUS
 10
312.7724722324
 20
141.1038518226
  0
VERTEX
  8
0
 62
7
  6
CONTINUOUS
 10
312.7031772255
 20
140.9788026672
  0
VERTEX
  8
0
 62
7
  6
CONTINUOUS
 10
312.6320236814
 20
140.8546158583
  0
VERTEX
  8
0
 62
7
  6
CONTINUOUS
 10
312.5595934503
 20
140.7320405629
  0
VERTEX
  8
0
 62
7
  6
CONTINUOUS
 10
312.4865945506
 20
140.612061407
  0
VERTEX
  8
0
 62
7
  6
CONTINUOUS
 10
312.4133196721
 20
140.494366712
  0
SEQEND
  0
POLYLINE
  8
SURFACE
 62
7
  6
CONTINUOUS
 66
1
 70
0
  0
VERTEX
  8
SURFACE
 62
7
  6
CONTINUOUS
 10
317.1133196721
 20
164.5435706967
  0
VERTEX
  8
SURFACE
 62
7
  6
CONTINUOUS
 10
316.9902594497
 20
164.6938547789
  0
VERTEX
  8
SURFACE
 62
7
  6
CONTINUOUS
 10
316.8748567632
 20
164.8391674035
  0
VERTEX
  8
SURFACE
 62
7
  6
CONTINUOUS
 10
316.7667553365
 20
164.9794144794
  0
VERTEX
  8
SURFACE
 62
7
  6
CONTINUOUS
 10
316.6670239982
 20
165.1148782801
  0
VERTEX
  8
SURFACE
 62
7
  6
CONTINUOUS
 10
316.5766271914
 20
165.2459583627
  0
VERTEX
  8
SURFACE
 62
7
  6
CONTINUOUS
 10
316.4955217965
 20
165.3722087839
  0
VERTEX
  8
SURFACE
 62
7
  6
CONTINUOUS
 10
316.4242070649
 20
165.4933436967
  0
VERTEX
  8
SURFACE
 62
7
  6
CONTINUOUS
 10
316.3620203273
 20
165.609282368
  0
VERTEX
  8
SURFACE
 62
7
  6
CONTINUOUS
 10
316.308787376
 20
165.7196252854
  0
VERTEX
  8
SURFACE
 62
7
  6
CONTINUOUS
 10
316.2635420788
 20
165.8250429388
  0
VERTEX
  8
SURFACE
 62
7
  6
CONTINUOUS
 10
316.2254790373
 20
165.9258218143
  0
VERTEX
  8
SURFACE
 62
7
  6
CONTINUOUS
 10
316.1939418425
 20
166.0227144113
  0
VERTEX
  8
SURFACE
 62
7
  6
CONTINUOUS
 10
316.1680878244
 20
166.1165597504
  0
VERTEX
  8
SURFACE
 62
7
  6
CONTINUOUS
 10
316.1476703672
 20
166.207384754
  0
VERTEX
  8
SURFACE
 62
7
  6
CONTINUOUS
 10
316.1322397103
 20
166.2955137223
  0
VERTEX
  8
SURFACE
 62
7
  6
CONTINUOUS
 10
316.1215626194
 20
166.3808935421
  0
VERTEX
  8
SURFACE
 62
7
  6
CONTINUOUS
 10
316.1152080457
 20
166.4635860736
  0
VERTEX
  8
SURFACE
 62
7
  6
CONTINUOUS
 10
316.1133196721
 20
166.5435706967
  0
SEQEND
  0
LINE
  8
0
 62
7
  6
CONTINUOUS
 10
313.394617038
 20
255.2320534002
 11
313.258073003
 21
256.4824651493
  0
LINE
  8
0
 62
7
  6
CONTINUOUS
 10
313.3985884005
 20
255.1932292497
 11
313.3946170856
 21
255.2320528561
  0
POLYLINE
  8
SURFACE
 62
7
  6
CONTINUOUS
 66
1
 70
0
  0
VERTEX
  8
SURFACE
 62
7
  6
CONTINUOUS
 10
326.1133196524
 20
219.3558911441
  0
VERTEX
  8
SURFACE
 62
7
  6
CONTINUOUS
 10
326.1130604105
 20
219.3806205033
  0
VERTEX
  8
SURFACE
 62
7
  6
CONTINUOUS
 10
326.1102135374
 20
219.4413654411
  0
VERTEX
  8
SURFACE
 62
7
  6
CONTINUOUS
 10
326.1041923967
 20
219.5023106942
  0
VERTEX
  8
SURFACE
 62
7
  6
CONTINUOUS
 10
326.0949879424
 20
219.5631715037
  0
VERTEX
  8
SURFACE
 62
7
  6
CONTINUOUS
 10
326.0826143127
 20
219.6237302089
  0
VERTEX
  8
SURFACE
 62
7
  6
CONTINUOUS
 10
326.0671194067
 20
219.6837411597
  0
VERTEX
  8
SURFACE
 62
7
  6
CONTINUOUS
 10
326.0485946304
 20
219.7429307839
  0
VERTEX
  8
SURFACE
 62
7
  6
CONTINUOUS
 10
326.0405222441
 20
219.7658820708
  0
SEQEND
  0
POLYLINE
  8
SURFACE
 62
7
  6
CONTINUOUS
 66
1
 70
0
  0
VERTEX
  8
SURFACE
 62
7
  6
CONTINUOUS
 10
326.1133196546
 20
248.1808073913
  0
VERTEX
  8
SURFACE
 62
7
  6
CONTINUOUS
 10
326.1130709125
 20
248.2151884247
  0
VERTEX
  8
SURFACE
 62
7
  6
CONTINUOUS
 10
326.1112713097
 20
248.2793883724
  0
VERTEX
  8
SURFACE
 62
7
  6
CONTINUOUS
 10
326.1077300335
 20
248.3436647418
  0
VERTEX
  8
SURFACE
 62
7
  6
CONTINUOUS
 10
326.1024455178
 20
248.4079749452
  0
SEQEND
  0
POLYLINE
  8
SURFACE
 62
7
  6
CONTINUOUS
 66
1
 70
0
  0
VERTEX
  8
SURFACE
 62
7
  6
CONTINUOUS
 10
326.1133196593
 20
254.8858992904
  0
VERTEX
  8
SURFACE
 62
7
  6
CONTINUOUS
 10
326.1131187361
 20
254.921849447
  0
VERTEX
  8
SURFACE
 62
7
  6
CONTINUOUS
 10
326.1116431477
 20
254.9897257377
  0
VERTEX
  8
SURFACE
 62
7
  6
CONTINUOUS
 10
326.108731397
 20
255.0575998566
  0
VERTEX
  8
SURFACE
 62
7
  6
CONTINUOUS
 10
326.1043806369
 20
255.1254429772
  0
VERTEX
  8
SURFACE
 62
7
  6
CONTINUOUS
 10
326.098588609
 20
255.1932270478
  0
VERTEX
  8
SURFACE
 62
7
  6
CONTINUOUS
 10
326.0946170819
 20
255.232052796
  0
SEQEND
  0
LINE
  8
SURFACE
 62
7
  6
CONTINUOUS
 10
326.1133196721
 20
71.6012426115
 11
326.1133196721
 21
254.8858987825
  0
LINE
  8
SURFACE
 62
7
  6
CONTINUOUS
 10
326.1129808669
 20
122.4020248422
 11
326.1133196591
 21
122.4281883098
  0
POLYLINE
  8
0
 62
7
  6
CONTINUOUS
 66
1
 70
0
  0
VERTEX
  8
0
 62
7
  6
CONTINUOUS
 10
313.3946170856
 20
71.2550885373
  0
VERTEX
  8
0
 62
7
  6
CONTINUOUS
 10
313.3985884005
 20
71.2939121438
  0
VERTEX
  8
0
 62
7
  6
CONTINUOUS
 10
313.4043803794
 20
71.3616950859
  0
VERTEX
  8
0
 62
7
  6
CONTINUOUS
 10
313.4087311985
 20
71.4295378825
  0
VERTEX
  8
0
 62
7
  6
CONTINUOUS
 10
313.411643044
 20
71.4974121944
  0
VERTEX
  8
0
 62
7
  6
CONTINUOUS
 10
313.4131187126
 20
71.5652896738
  0
VERTEX
  8
0
 62
7
  6
CONTINUOUS
 10
313.4133196568
 20
71.6012420615
  0
SEQEND
  0
POLYLINE
  8
0
 62
7
  6
CONTINUOUS
 66
1
 70
0
  0
VERTEX
  8
0
 62
7
  6
CONTINUOUS
 10
313.3954169105
 20
78.0148570025
  0
VERTEX
  8
0
 62
7
  6
CONTINUOUS
 10
313.4024445021
 20
78.0791559445
  0
VERTEX
  8
0
 62
7
  6
CONTINUOUS
 10
313.4077292338
 20
78.1434650162
  0
VERTEX
  8
0
 62
7
  6
CONTINUOUS
 10
313.4112708805
 20
78.2077425099
  0
VERTEX
  8
0
 62
7
  6
CONTINUOUS
 10
313.4130708186
 20
78.2719462799
  0
VERTEX
  8
0
 62
7
  6
CONTINUOUS
 10
313.4133196517
 20
78.3063331125
  0
SEQEND
  0
LINE
  8
0
 62
7
  6
CONTINUOUS
 10
313.1916797921
 20
69.4041619782
 11
313.394617038
 21
71.2550879932
  0
LINE
  8
0
 62
7
  6
CONTINUOUS
 10
313.0665614046
 20
68.2906743032
 11
313.1916797921
 21
69.4041619782
  0
LINE
  8
0
 62
7
  6
CONTINUOUS
 10
312.9801215161
 20
67.5401709811
 11
313.0665614046
 21
68.2906743032
  0
LINE
  8
0
 62
7
  6
CONTINUOUS
 10
312.9005176592
 20
66.8683824411
 11
312.9801215161
 21
67.5401709811
  0
LINE
  8
0
 62
7
  6
CONTINUOUS
 10
312.8514323462
 20
66.4667348843
 11
312.9005176592
 21
66.8683824411
  0
LINE
  8
0
 62
7
  6
CONTINUOUS
 10
312.8072699199
 20
66.1163214514
 11
312.8514323462
 21
66.4667348843
  0
LINE
  8
0
 62
7
  6
CONTINUOUS
 10
313.3912688445
 20
77.9828617037
 11
313.3954169105
 21
78.0148570025
  0
LINE
  8
0
 62
7
  6
CONTINUOUS
 10
313.0514701547
 20
75.4056584225
 11
313.2869591605
 21
77.2020706632
  0
POLYLINE
  8
0
 62
7
  6
CONTINUOUS
 66
1
 70
0
  0
VERTEX
  8
0
 62
7
  6
CONTINUOUS
 10
312.8068606482
 20
73.5438240487
  0
VERTEX
  8
0
 62
7
  6
CONTINUOUS
 10
312.8872883003
 20
74.1555485597
  0
VERTEX
  8
0
 62
7
  6
CONTINUOUS
 10
313.0514701547
 20
75.4056584225
  0
SEQEND
  0
LINE
  8
0
 62
7
  6
CONTINUOUS
 10
313.2869591676
 20
77.2020707198
 11
313.3393989274
 21
77.5986015083
  0
LINE
  8
0
 62
7
  6
CONTINUOUS
 10
313.3393989274
 20
77.5986015083
 11
313.3912682294
 21
77.9828570414
  0
POLYLINE
  8
SURFACE
 62
7
  6
CONTINUOUS
 66
1
 70
0
  0
VERTEX
  8
SURFACE
 62
7
  6
CONTINUOUS
 10
316.278936677
 20
140.494366712
  0
VERTEX
  8
SURFACE
 62
7
  6
CONTINUOUS
 10
316.3161742832
 20
140.5889766296
  0
VERTEX
  8
SURFACE
 62
7
  6
CONTINUOUS
 10
316.357457924
 20
140.6881205885
  0
VERTEX
  8
SURFACE
 62
7
  6
CONTINUOUS
 10
316.4027768982
 20
140.7918076299
  0
VERTEX
  8
SURFACE
 62
7
  6
CONTINUOUS
 10
316.4521077954
 20
140.9000106308
  0
VERTEX
  8
SURFACE
 62
7
  6
CONTINUOUS
 10
316.5054250767
 20
141.0128134441
  0
VERTEX
  8
SURFACE
 62
7
  6
CONTINUOUS
 10
316.5625382802
 20
141.1298921844
  0
VERTEX
  8
SURFACE
 62
7
  6
CONTINUOUS
 10
316.6232701916
 20
141.2511344877
  0
VERTEX
  8
SURFACE
 62
7
  6
CONTINUOUS
 10
316.687264201
 20
141.3759896435
  0
VERTEX
  8
SURFACE
 62
7
  6
CONTINUOUS
 10
316.7541671119
 20
141.5041153925
  0
VERTEX
  8
SURFACE
 62
7
  6
CONTINUOUS
 10
316.8234621189
 20
141.6347740173
  0
SEQEND
  0
LINE
  8
SURFACE
 62
7
  6
CONTINUOUS
 10
316.8234621189
 20
141.6347740173
 11
316.9670458941
 21
141.9011344833
  0
LINE
  8
SURFACE
 62
7
  6
CONTINUOUS
 10
316.9670458941
 20
141.9011344833
 11
317.1133196721
 21
142.169366712
  0
LINE
  8
0
 62
7
  6
CONTINUOUS
 10
313.2862003168
 20
240.5592605176
 11
313.2543022804
 21
240.7150604543
  0
LINE
  8
0
 62
7
  6
CONTINUOUS
 10
313.3190301758
 20
240.3924304075
 11
313.2862003168
 21
240.5592605176
  0
LINE
  8
0
 62
7
  6
CONTINUOUS
 10
313.352823304
 20
240.2141020698
 11
313.3190301758
 21
240.3924304075
  0
LINE
  8
0
 62
7
  6
CONTINUOUS
 10
313.3845982298
 20
240.0405387381
 11
313.352823304
 21
240.2141020698
  0
LINE
  8
0
 62
7
  6
CONTINUOUS
 10
312.8514323462
 20
260.0204065091
 11
312.8072699199
 21
260.370819942
  0
LINE
  8
0
 62
7
  6
CONTINUOUS
 10
312.9005176592
 20
259.6187589523
 11
312.8514323462
 21
260.0204065091
  0
LINE
  8
0
 62
7
  6
CONTINUOUS
 10
312.9801215161
 20
258.9469704123
 11
312.9005176592
 21
259.6187589523
  0
LINE
  8
0
 62
7
  6
CONTINUOUS
 10
313.0665614046
 20
258.1964670902
 11
312.9801215161
 21
258.9469704123
  0
LINE
  8
0
 62
7
  6
CONTINUOUS
 10
313.1916797921
 20
257.0829794152
 11
313.0665614046
 21
258.1964670902
  0
LINE
  8
0
 62
7
  6
CONTINUOUS
 10
313.258073003
 20
256.4824651493
 11
313.1916797921
 21
257.0829794152
  0
POLYLINE
  8
SURFACE
 62
7
  6
CONTINUOUS
 66
1
 70
0
  0
VERTEX
  8
SURFACE
 62
7
  6
CONTINUOUS
 10
326.1024455178
 20
248.4079749452
  0
VERTEX
  8
SURFACE
 62
7
  6
CONTINUOUS
 10
326.0954177458
 20
248.4722775308
  0
VERTEX
  8
SURFACE
 62
7
  6
CONTINUOUS
 10
326.0912688912
 20
248.5042792056
  0
SEQEND
  0
POLYLINE
  8
SURFACE
 62
7
  6
CONTINUOUS
 66
1
 70
0
  0
VERTEX
  8
SURFACE
 62
7
  6
CONTINUOUS
 10
326.098588609
 20
71.2939143456
  0
VERTEX
  8
SURFACE
 62
7
  6
CONTINUOUS
 10
326.1043806369
 20
71.3616984162
  0
VERTEX
  8
SURFACE
 62
7
  6
CONTINUOUS
 10
326.108731397
 20
71.4295415368
  0
VERTEX
  8
SURFACE
 62
7
  6
CONTINUOUS
 10
326.1116431477
 20
71.4974156557
  0
VERTEX
  8
SURFACE
 62
7
  6
CONTINUOUS
 10
326.1131187361
 20
71.5652919465
  0
VERTEX
  8
SURFACE
 62
7
  6
CONTINUOUS
 10
326.1133196593
 20
71.601242103
  0
SEQEND
  0
LINE
  8
SURFACE
 62
7
  6
CONTINUOUS
 10
326.0946170819
 20
71.2550885974
 11
326.098588609
 21
71.2939143456
  0
POLYLINE
  8
SURFACE
 62
7
  6
CONTINUOUS
 66
1
 70
0
  0
VERTEX
  8
SURFACE
 62
7
  6
CONTINUOUS
 10
326.0994829978
 20
86.544531823
  0
VERTEX
  8
SURFACE
 62
7
  6
CONTINUOUS
 10
326.1061894694
 20
86.6075991666
  0
VERTEX
  8
SURFACE
 62
7
  6
CONTINUOUS
 10
326.1106993728
 20
86.6710328984
  0
VERTEX
  8
SURFACE
 62
7
  6
CONTINUOUS
 10
326.1129992679
 20
86.7347452178
  0
VERTEX
  8
SURFACE
 62
7
  6
CONTINUOUS
 10
326.1133196583
 20
86.769130388
  0
SEQEND
  0
LINE
  8
0
 62
7
  6
CONTINUOUS
 10
312.7746445129
 20
104.8223366116
 11
313.25500825
 21
106.4565567766
  0
POLYLINE
  8
0
 62
7
  6
CONTINUOUS
 66
1
 70
0
  0
VERTEX
  8
0
 62
7
  6
CONTINUOUS
 10
313.2550103709
 20
106.456564004
  0
VERTEX
  8
0
 62
7
  6
CONTINUOUS
 10
313.2691456961
 20
106.504066988
  0
VERTEX
  8
0
 62
7
  6
CONTINUOUS
 10
313.2854643853
 20
106.557142424
  0
VERTEX
  8
0
 62
7
  6
CONTINUOUS
 10
313.3010153821
 20
106.6059019585
  0
VERTEX
  8
0
 62
7
  6
CONTINUOUS
 10
313.3157619546
 20
106.6504346512
  0
VERTEX
  8
0
 62
7
  6
CONTINUOUS
 10
313.3296636903
 20
106.6908291272
  0
SEQEND
  0
POLYLINE
  8
0
 62
7
  6
CONTINUOUS
 66
1
 70
0
  0
VERTEX
  8
0
 62
7
  6
CONTINUOUS
 10
313.3405226157
 20
106.7212602992
  0
VERTEX
  8
0
 62
7
  6
CONTINUOUS
 10
313.3487268033
 20
106.7445986572
  0
VERTEX
  8
0
 62
7
  6
CONTINUOUS
 10
313.3673442728
 20
106.8041889109
  0
VERTEX
  8
0
 62
7
  6
CONTINUOUS
 10
313.3828907347
 20
106.8646097762
  0
VERTEX
  8
0
 62
7
  6
CONTINUOUS
 10
313.3952733575
 20
106.9255826123
  0
VERTEX
  8
0
 62
7
  6
CONTINUOUS
 10
313.4044438241
 20
106.9868573677
  0
SEQEND
  0
LINE
  8
0
 62
7
  6
CONTINUOUS
 10
313.3296636903
 20
106.6908291272
 11
313.3404736849
 21
106.7211253637
  0
LINE
  8
0
 62
7
  6
CONTINUOUS
 10
313.3405226157
 20
106.7212602992
 11
313.3404736671
 21
106.7211253702
  0
POLYLINE
  8
0
 62
7
  6
CONTINUOUS
 66
1
 70
0
  0
VERTEX
  8
0
 62
7
  6
CONTINUOUS
 10
313.2477026673
 20
103.9927746814
  0
VERTEX
  8
0
 62
7
  6
CONTINUOUS
 10
313.210465061
 20
103.8999147936
  0
VERTEX
  8
0
 62
7
  6
CONTINUOUS
 10
313.1691814202
 20
103.8062241438
  0
VERTEX
  8
0
 62
7
  6
CONTINUOUS
 10
313.123862446
 20
103.7120122751
  0
VERTEX
  8
0
 62
7
  6
CONTINUOUS
 10
313.0745315489
 20
103.6176014497
  0
VERTEX
  8
0
 62
7
  6
CONTINUOUS
 10
313.0212142676
 20
103.5232520884
  0
VERTEX
  8
0
 62
7
  6
CONTINUOUS
 10
312.9641010641
 20
103.4295245396
  0
VERTEX
  8
0
 62
7
  6
CONTINUOUS
 10
312.9033691527
 20
103.3368214114
  0
VERTEX
  8
0
 62
7
  6
CONTINUOUS
 10
312.8393751432
 20
103.2458128968
  0
VERTEX
  8
0
 62
7
  6
CONTINUOUS
 10
312.7724722323
 20
103.156997437
  0
VERTEX
  8
0
 62
7
  6
CONTINUOUS
 10
312.7031772254
 20
103.0710645713
  0
VERTEX
  8
0
 62
7
  6
CONTINUOUS
 10
312.6320236813
 20
102.9885564507
  0
VERTEX
  8
0
 62
7
  6
CONTINUOUS
 10
312.5595934502
 20
102.9100205353
  0
VERTEX
  8
0
 62
7
  6
CONTINUOUS
 10
312.4865945505
 20
102.8360926854
  0
VERTEX
  8
0
 62
7
  6
CONTINUOUS
 10
312.4133196721
 20
102.7665895788
  0
SEQEND
  0
POLYLINE
  8
0
 62
7
  6
CONTINUOUS
 66
1
 70
0
  0
VERTEX
  8
0
 62
7
  6
CONTINUOUS
 10
313.2543022804
 20
240.7150604543
  0
VERTEX
  8
0
 62
7
  6
CONTINUOUS
 10
313.2386903192
 20
240.7889779778
  0
VERTEX
  8
0
 62
7
  6
CONTINUOUS
 10
313.2232948818
 20
240.8603277552
  0
VERTEX
  8
0
 62
7
  6
CONTINUOUS
 10
313.2081094901
 20
240.929174768
  0
VERTEX
  8
0
 62
7
  6
CONTINUOUS
 10
313.193126082
 20
240.9955891048
  0
VERTEX
  8
0
 62
7
  6
CONTINUOUS
 10
313.1783362077
 20
241.0596402121
  0
VERTEX
  8
0
 62
7
  6
CONTINUOUS
 10
313.1637308196
 20
241.1213982169
  0
VERTEX
  8
0
 62
7
  6
CONTINUOUS
 10
313.1493005803
 20
241.1809321801
  0
VERTEX
  8
0
 62
7
  6
CONTINUOUS
 10
313.1350332288
 20
241.23832022
  0
VERTEX
  8
0
 62
7
  6
CONTINUOUS
 10
313.1209165761
 20
241.2936365647
  0
VERTEX
  8
0
 62
7
  6
CONTINUOUS
 10
313.1069353192
 20
241.3469639959
  0
VERTEX
  8
0
 62
7
  6
CONTINUOUS
 10
313.093074408
 20
241.3983803334
  0
VERTEX
  8
0
 62
7
  6
CONTINUOUS
 10
313.0793135326
 20
241.4479778719
  0
VERTEX
  8
0
 62
7
  6
CONTINUOUS
 10
313.0656326022
 20
241.4958419017
  0
VERTEX
  8
0
 62
7
  6
CONTINUOUS
 10
313.0520061934
 20
241.5420696445
  0
VERTEX
  8
0
 62
7
  6
CONTINUOUS
 10
313.0384079164
 20
241.5867539481
  0
VERTEX
  8
0
 62
7
  6
CONTINUOUS
 10
313.0248076653
 20
241.6299917649
  0
VERTEX
  8
0
 62
7
  6
CONTINUOUS
 10
313.0111694053
 20
241.6718888995
  0
VERTEX
  8
0
 62
7
  6
CONTINUOUS
 10
312.9974669237
 20
241.7125114772
  0
VERTEX
  8
0
 62
7
  6
CONTINUOUS
 10
312.9836665981
 20
241.7519401591
  0
VERTEX
  8
0
 62
7
  6
CONTINUOUS
 10
312.9697317466
 20
241.790255386
  0
VERTEX
  8
0
 62
7
  6
CONTINUOUS
 10
312.9556236453
 20
241.827534081
  0
VERTEX
  8
0
 62
7
  6
CONTINUOUS
 10
312.9412870862
 20
241.8638849973
  0
VERTEX
  8
0
 62
7
  6
CONTINUOUS
 10
312.926674961
 20
241.8993825746
  0
VERTEX
  8
0
 62
7
  6
CONTINUOUS
 10
312.9116894443
 20
241.9342060581
  0
VERTEX
  8
0
 62
7
  6
CONTINUOUS
 10
312.896244135
 20
241.968479704
  0
VERTEX
  8
0
 62
7
  6
CONTINUOUS
 10
312.8802082514
 20
242.0023959534
  0
VERTEX
  8
0
 62
7
  6
CONTINUOUS
 10
312.8634565604
 20
242.0360966505
  0
VERTEX
  8
0
 62
7
  6
CONTINUOUS
 10
312.8458145592
 20
242.0697801547
  0
VERTEX
  8
0
 62
7
  6
CONTINUOUS
 10
312.8271037845
 20
242.1035995707
  0
VERTEX
  8
0
 62
7
  6
CONTINUOUS
 10
312.807106646
 20
242.1377225451
  0
VERTEX
  8
0
 62
7
  6
CONTINUOUS
 10
312.7855631505
 20
242.1723207373
  0
VERTEX
  8
0
 62
7
  6
CONTINUOUS
 10
312.762283024
 20
242.2073900089
  0
VERTEX
  8
0
 62
7
  6
CONTINUOUS
 10
312.7370134952
 20
242.2429698009
  0
VERTEX
  8
0
 62
7
  6
CONTINUOUS
 10
312.7095605192
 20
242.2789641603
  0
VERTEX
  8
0
 62
7
  6
CONTINUOUS
 10
312.6796723346
 20
242.315310548
  0
VERTEX
  8
0
 62
7
  6
CONTINUOUS
 10
312.6471970977
 20
242.3517865188
  0
VERTEX
  8
0
 62
7
  6
CONTINUOUS
 10
312.611920961
 20
242.3882178022
  0
VERTEX
  8
0
 62
7
  6
CONTINUOUS
 10
312.5738048063
 20
242.4242374545
  0
VERTEX
  8
0
 62
7
  6
CONTINUOUS
 10
312.5327921972
 20
242.4595162026
  0
VERTEX
  8
0
 62
7
  6
CONTINUOUS
 10
312.4888937667
 20
242.4936871804
  0
VERTEX
  8
0
 62
7
  6
CONTINUOUS
 10
312.4421633569
 20
242.5263817041
  0
VERTEX
  8
0
 62
7
  6
CONTINUOUS
 10
312.3926637602
 20
242.5572574685
  0
VERTEX
  8
0
 62
7
  6
CONTINUOUS
 10
312.3405127561
 20
242.585969283
  0
VERTEX
  8
0
 62
7
  6
CONTINUOUS
 10
312.285862167
 20
242.6121893645
  0
VERTEX
  8
0
 62
7
  6
CONTINUOUS
 10
312.2289401877
 20
242.6355943558
  0
VERTEX
  8
0
 62
7
  6
CONTINUOUS
 10
312.1698913118
 20
242.6559323295
  0
VERTEX
  8
0
 62
7
  6
CONTINUOUS
 10
312.1089492231
 20
242.6729449219
  0
VERTEX
  8
0
 62
7
  6
CONTINUOUS
 10
312.0462746098
 20
242.686419515
  0
VERTEX
  8
0
 62
7
  6
CONTINUOUS
 10
311.9820843998
 20
242.6961446027
  0
VERTEX
  8
0
 62
7
  6
CONTINUOUS
 10
311.9166032389
 20
242.7019251955
  0
VERTEX
  8
0
 62
7
  6
CONTINUOUS
 10
311.8573137248
 20
242.7036054955
  0
SEQEND
  0
LINE
  8
SURFACE
 62
7
  6
CONTINUOUS
 10
326.0946170375
 20
255.2320534053
 11
325.958073425
 21
256.4824613155
  0
LINE
  8
SURFACE
 62
7
  6
CONTINUOUS
 10
339.9633196721
 20
235.2435706967
 11
339.9633196721
 21
91.2435706967
  0
LINE
  8
SURFACE
 62
7
  6
CONTINUOUS
 10
325.8916802139
 20
69.4041657742
 11
326.0946170375
 21
71.2550879882
  0
LINE
  8
SURFACE
 62
7
  6
CONTINUOUS
 10
325.7665613188
 20
68.2906735493
 11
325.8916802139
 21
69.4041657742
  0
LINE
  8
SURFACE
 62
7
  6
CONTINUOUS
 10
325.6801207583
 20
67.5401644891
 11
325.7665613188
 21
68.2906735493
  0
LINE
  8
SURFACE
 62
7
  6
CONTINUOUS
 10
325.6005166263
 20
66.8683738703
 11
325.6801207583
 21
67.5401644891
  0
LINE
  8
SURFACE
 62
7
  6
CONTINUOUS
 10
325.5514316205
 20
66.4667290322
 11
325.6005166263
 21
66.8683738703
  0
LINE
  8
SURFACE
 62
7
  6
CONTINUOUS
 10
325.5072699138
 20
66.1163213957
 11
325.5514316205
 21
66.4667290322
  0
LINE
  8
SURFACE
 62
7
  6
CONTINUOUS
 10
326.0906002639
 20
86.4819184998
 11
326.0994829978
 21
86.544531823
  0
POLYLINE
  8
SURFACE
 62
7
  6
CONTINUOUS
 66
1
 70
0
  0
VERTEX
  8
SURFACE
 62
7
  6
CONTINUOUS
 10
325.5072814585
 20
66.116411406
  0
VERTEX
  8
SURFACE
 62
7
  6
CONTINUOUS
 10
325.5017378944
 20
66.0788409802
  0
VERTEX
  8
SURFACE
 62
7
  6
CONTINUOUS
 10
325.4910611325
 20
66.0242907482
  0
VERTEX
  8
SURFACE
 62
7
  6
CONTINUOUS
 10
325.477370505
 20
65.9704203497
  0
VERTEX
  8
SURFACE
 62
7
  6
CONTINUOUS
 10
325.4606416531
 20
65.9172018712
  0
VERTEX
  8
SURFACE
 62
7
  6
CONTINUOUS
 10
325.4407872598
 20
65.864549792
  0
VERTEX
  8
SURFACE
 62
7
  6
CONTINUOUS
 10
325.4179370768
 20
65.8129603268
  0
VERTEX
  8
SURFACE
 62
7
  6
CONTINUOUS
 10
325.3922723429
 20
65.7628489441
  0
VERTEX
  8
SURFACE
 62
7
  6
CONTINUOUS
 10
325.3638206829
 20
65.7142495254
  0
VERTEX
  8
SURFACE
 62
7
  6
CONTINUOUS
 10
325.3326514183
 20
65.6672906173
  0
VERTEX
  8
SURFACE
 62
7
  6
CONTINUOUS
 10
325.2988221506
 20
65.6220818375
  0
VERTEX
  8
SURFACE
 62
7
  6
CONTINUOUS
 10
325.262295522
 20
65.5786302412
  0
VERTEX
  8
SURFACE
 62
7
  6
CONTINUOUS
 10
325.2234088858
 20
65.5373680247
  0
VERTEX
  8
SURFACE
 62
7
  6
CONTINUOUS
 10
325.1826432877
 20
65.498731613
  0
VERTEX
  8
SURFACE
 62
7
  6
CONTINUOUS
 10
325.1397459818
 20
65.462423442
  0
VERTEX
  8
SURFACE
 62
7
  6
CONTINUOUS
 10
325.0943461324
 20
65.4282055078
  0
VERTEX
  8
SURFACE
 62
7
  6
CONTINUOUS
 10
325.0470392643
 20
65.3966003378
  0
VERTEX
  8
SURFACE
 62
7
  6
CONTINUOUS
 10
324.9983542563
 20
65.3679255829
  0
VERTEX
  8
SURFACE
 62
7
  6
CONTINUOUS
 10
324.9483124468
 20
65.3421351319
  0
VERTEX
  8
SURFACE
 62
7
  6
CONTINUOUS
 10
324.8970921007
 20
65.319281515
  0
VERTEX
  8
SURFACE
 62
7
  6
CONTINUOUS
 10
324.844696736
 20
65.2993445057
  0
VERTEX
  8
SURFACE
 62
7
  6
CONTINUOUS
 10
324.7909946474
 20
65.2822969991
  0
VERTEX
  8
SURFACE
 62
7
  6
CONTINUOUS
 10
324.7364852365
 20
65.2683164005
  0
VERTEX
  8
SURFACE
 62
7
  6
CONTINUOUS
 10
324.6816334739
 20
65.2574844178
  0
VERTEX
  8
SURFACE
 62
7
  6
CONTINUOUS
 10
324.6264338529
 20
65.249754167
  0
VERTEX
  8
SURFACE
 62
7
  6
CONTINUOUS
 10
324.5709950563
 20
65.2451173452
  0
VERTEX
  8
SURFACE
 62
7
  6
CONTINUOUS
 10
324.51539915
 20
65.2435706967
  0
SEQEND
  0
LINE
  8
SURFACE
 62
7
  6
CONTINUOUS
 10
326.0846016036
 20
86.4466214777
 11
326.0906002639
 21
86.4819184998
  0
LINE
  8
SURFACE
 62
7
  6
CONTINUOUS
 10
326.0528112362
 20
86.2729744721
 11
326.0845982322
 21
86.4466026627
  0
LINE
  8
SURFACE
 62
7
  6
CONTINUOUS
 10
326.0190071087
 20
86.0945915212
 11
326.0528112362
 21
86.2729744721
  0
LINE
  8
SURFACE
 62
7
  6
CONTINUOUS
 10
325.9861671936
 20
85.9277158313
 11
326.0190071087
 21
86.0945915212
  0
LINE
  8
SURFACE
 62
7
  6
CONTINUOUS
 10
325.9691457478
 20
219.983074233
 11
325.4746445129
 21
221.6648047819
  0
POLYLINE
  8
SURFACE
 62
7
  6
CONTINUOUS
 66
1
 70
0
  0
VERTEX
  8
SURFACE
 62
7
  6
CONTINUOUS
 10
325.5072814585
 20
260.3707299875
  0
VERTEX
  8
SURFACE
 62
7
  6
CONTINUOUS
 10
325.5017378944
 20
260.4083004132
  0
VERTEX
  8
SURFACE
 62
7
  6
CONTINUOUS
 10
325.4910611325
 20
260.4628506453
  0
VERTEX
  8
SURFACE
 62
7
  6
CONTINUOUS
 10
325.477370505
 20
260.5167210438
  0
VERTEX
  8
SURFACE
 62
7
  6
CONTINUOUS
 10
325.4606416531
 20
260.5699395223
  0
VERTEX
  8
SURFACE
 62
7
  6
CONTINUOUS
 10
325.4407872598
 20
260.6225916015
  0
VERTEX
  8
SURFACE
 62
7
  6
CONTINUOUS
 10
325.4179370768
 20
260.6741810666
  0
VERTEX
  8
SURFACE
 62
7
  6
CONTINUOUS
 10
325.3922723429
 20
260.7242924494
  0
VERTEX
  8
SURFACE
 62
7
  6
CONTINUOUS
 10
325.3638206829
 20
260.7728918681
  0
VERTEX
  8
SURFACE
 62
7
  6
CONTINUOUS
 10
325.3326514183
 20
260.8198507762
  0
VERTEX
  8
SURFACE
 62
7
  6
CONTINUOUS
 10
325.2988221506
 20
260.8650595559
  0
VERTEX
  8
SURFACE
 62
7
  6
CONTINUOUS
 10
325.262295522
 20
260.9085111522
  0
VERTEX
  8
SURFACE
 62
7
  6
CONTINUOUS
 10
325.2234088858
 20
260.9497733687
  0
VERTEX
  8
SURFACE
 62
7
  6
CONTINUOUS
 10
325.1826432877
 20
260.9884097804
  0
VERTEX
  8
SURFACE
 62
7
  6
CONTINUOUS
 10
325.1397459818
 20
261.0247179515
  0
VERTEX
  8
SURFACE
 62
7
  6
CONTINUOUS
 10
325.0943461324
 20
261.0589358857
  0
VERTEX
  8
SURFACE
 62
7
  6
CONTINUOUS
 10
325.0470392643
 20
261.0905410556
  0
VERTEX
  8
SURFACE
 62
7
  6
CONTINUOUS
 10
324.9983542563
 20
261.1192158105
  0
VERTEX
  8
SURFACE
 62
7
  6
CONTINUOUS
 10
324.9483124468
 20
261.1450062615
  0
VERTEX
  8
SURFACE
 62
7
  6
CONTINUOUS
 10
324.8970921007
 20
261.1678598784
  0
VERTEX
  8
SURFACE
 62
7
  6
CONTINUOUS
 10
324.844696736
 20
261.1877968878
  0
VERTEX
  8
SURFACE
 62
7
  6
CONTINUOUS
 10
324.7909946474
 20
261.2048443943
  0
VERTEX
  8
SURFACE
 62
7
  6
CONTINUOUS
 10
324.7364852365
 20
261.218824993
  0
VERTEX
  8
SURFACE
 62
7
  6
CONTINUOUS
 10
324.6816334739
 20
261.2296569757
  0
VERTEX
  8
SURFACE
 62
7
  6
CONTINUOUS
 10
324.6264338529
 20
261.2373872264
  0
VERTEX
  8
SURFACE
 62
7
  6
CONTINUOUS
 10
324.5709950563
 20
261.2420240483
  0
VERTEX
  8
SURFACE
 62
7
  6
CONTINUOUS
 10
324.51539915
 20
261.2435706967
  0
SEQEND
  0
POLYLINE
  8
SURFACE
 62
7
  6
CONTINUOUS
 66
1
 70
0
  0
VERTEX
  8
SURFACE
 62
7
  6
CONTINUOUS
 10
325.5068744535
 20
252.9432123371
  0
VERTEX
  8
SURFACE
 62
7
  6
CONTINUOUS
 10
325.5033881043
 20
252.9674421007
  0
VERTEX
  8
SURFACE
 62
7
  6
CONTINUOUS
 10
325.4930609576
 20
253.0231017654
  0
VERTEX
  8
SURFACE
 62
7
  6
CONTINUOUS
 10
325.4796001023
 20
253.0780902141
  0
VERTEX
  8
SURFACE
 62
7
  6
CONTINUOUS
 10
325.4630483943
 20
253.132230769
  0
VERTEX
  8
SURFACE
 62
7
  6
CONTINUOUS
 10
325.4434588889
 20
253.1853489487
  0
VERTEX
  8
SURFACE
 62
7
  6
CONTINUOUS
 10
325.4208935848
 20
253.2372757215
  0
VERTEX
  8
SURFACE
 62
7
  6
CONTINUOUS
 10
325.3954229202
 20
253.2878472254
  0
VERTEX
  8
SURFACE
 62
7
  6
CONTINUOUS
 10
325.3671306079
 20
253.336896137
  0
VERTEX
  8
SURFACE
 62
7
  6
CONTINUOUS
 10
325.3361112439
 20
253.3842595651
  0
VERTEX
  8
SURFACE
 62
7
  6
CONTINUOUS
 10
325.302460536
 20
253.4297922675
  0
VERTEX
  8
SURFACE
 62
7
  6
CONTINUOUS
 10
325.2662809488
 20
253.4733542008
  0
VERTEX
  8
SURFACE
 62
7
  6
CONTINUOUS
 10
325.2276925635
 20
253.5147994071
  0
VERTEX
  8
SURFACE
 62
7
  6
CONTINUOUS
 10
325.1868226989
 20
253.553991412
  0
VERTEX
  8
SURFACE
 62
7
  6
CONTINUOUS
 10
325.143801599
 20
253.5908059839
  0
VERTEX
  8
SURFACE
 62
7
  6
CONTINUOUS
 10
325.0987682975
 20
253.6251247241
  0
VERTEX
  8
SURFACE
 62
7
  6
CONTINUOUS
 10
325.0518644297
 20
253.6568399764
  0
VERTEX
  8
SURFACE
 62
7
  6
CONTINUOUS
 10
325.0032351781
 20
253.6858528683
  0
VERTEX
  8
SURFACE
 62
7
  6
CONTINUOUS
 10
324.9530423912
 20
253.7120662893
  0
VERTEX
  8
SURFACE
 62
7
  6
CONTINUOUS
 10
324.9014534699
 20
253.7353936341
  0
VERTEX
  8
SURFACE
 62
7
  6
CONTINUOUS
 10
324.8486289341
 20
253.7557632298
  0
VERTEX
  8
SURFACE
 62
7
  6
CONTINUOUS
 10
324.7947335916
 20
253.7731114554
  0
VERTEX
  8
SURFACE
 62
7
  6
CONTINUOUS
 10
324.7399437136
 20
253.7873814057
  0
VERTEX
  8
SURFACE
 62
7
  6
CONTINUOUS
 10
324.6844373036
 20
253.7985270927
  0
VERTEX
  8
SURFACE
 62
7
  6
CONTINUOUS
 10
324.6283912947
 20
253.8065134657
  0
VERTEX
  8
SURFACE
 62
7
  6
CONTINUOUS
 10
324.5719855314
 20
253.8113152915
  0
VERTEX
  8
SURFACE
 62
7
  6
CONTINUOUS
 10
324.51539915
 20
253.8129175845
  0
SEQEND
  0
LINE
  8
SURFACE
 62
7
  6
CONTINUOUS
 10
326.0912682297
 20
248.5042843499
 11
326.0393987027
 21
248.8885415662
  0
LINE
  8
SURFACE
 62
7
  6
CONTINUOUS
 10
326.0393987027
 20
248.8885415662
 11
325.5068606482
 21
252.9433173448
  0
LINE
  8
SURFACE
 62
7
  6
CONTINUOUS
 10
325.5514316205
 20
260.0204123612
 11
325.5072699138
 21
260.3708199978
  0
LINE
  8
SURFACE
 62
7
  6
CONTINUOUS
 10
325.6005166263
 20
259.6187675231
 11
325.5514316205
 21
260.0204123612
  0
LINE
  8
SURFACE
 62
7
  6
CONTINUOUS
 10
325.6801207583
 20
258.9469769043
 11
325.6005166263
 21
259.6187675231
  0
LINE
  8
SURFACE
 62
7
  6
CONTINUOUS
 10
325.7665613188
 20
258.1964678441
 11
325.6801207583
 21
258.9469769043
  0
LINE
  8
SURFACE
 62
7
  6
CONTINUOUS
 10
325.8916802139
 20
257.0829756192
 11
325.7665613188
 21
258.1964678441
  0
LINE
  8
SURFACE
 62
7
  6
CONTINUOUS
 10
325.958073425
 20
256.4824613155
 11
325.8916802139
 21
257.0829756192
  0
POLYLINE
  8
SURFACE
 62
7
  6
CONTINUOUS
 66
1
 70
0
  0
VERTEX
  8
SURFACE
 62
7
  6
CONTINUOUS
 10
317.1133196721
 20
205.3694037216
  0
VERTEX
  8
SURFACE
 62
7
  6
CONTINUOUS
 10
316.9902594497
 20
205.4995535546
  0
VERTEX
  8
SURFACE
 62
7
  6
CONTINUOUS
 10
316.8748567632
 20
205.625397979
  0
VERTEX
  8
SURFACE
 62
7
  6
CONTINUOUS
 10
316.7667553365
 20
205.7468555096
  0
VERTEX
  8
SURFACE
 62
7
  6
CONTINUOUS
 10
316.6670239982
 20
205.8641706022
  0
VERTEX
  8
SURFACE
 62
7
  6
CONTINUOUS
 10
316.5766271914
 20
205.9776892837
  0
VERTEX
  8
SURFACE
 62
7
  6
CONTINUOUS
 10
316.4955217965
 20
206.0870253557
  0
VERTEX
  8
SURFACE
 62
7
  6
CONTINUOUS
 10
316.4242070649
 20
206.1919312675
  0
VERTEX
  8
SURFACE
 62
7
  6
CONTINUOUS
 10
316.3620203273
 20
206.2923371021
  0
VERTEX
  8
SURFACE
 62
7
  6
CONTINUOUS
 10
316.308787376
 20
206.3878968716
  0
VERTEX
  8
SURFACE
 62
7
  6
CONTINUOUS
 10
316.2635420788
 20
206.4791912375
  0
VERTEX
  8
SURFACE
 62
7
  6
CONTINUOUS
 10
316.2254790373
 20
206.5664683039
  0
VERTEX
  8
SURFACE
 62
7
  6
CONTINUOUS
 10
316.1939418425
 20
206.6503797543
  0
VERTEX
  8
SURFACE
 62
7
  6
CONTINUOUS
 10
316.1680878244
 20
206.731652202
  0
VERTEX
  8
SURFACE
 62
7
  6
CONTINUOUS
 10
316.1476703672
 20
206.8103089624
  0
VERTEX
  8
SURFACE
 62
7
  6
CONTINUOUS
 10
316.1322397103
 20
206.8866308878
  0
VERTEX
  8
SURFACE
 62
7
  6
CONTINUOUS
 10
316.1215626194
 20
206.9605719807
  0
VERTEX
  8
SURFACE
 62
7
  6
CONTINUOUS
 10
316.1152080457
 20
207.0321858137
  0
VERTEX
  8
SURFACE
 62
7
  6
CONTINUOUS
 10
316.1133196721
 20
207.1014545292
  0
SEQEND
  0
LINE
  8
SURFACE
 62
7
  6
CONTINUOUS
 10
326.0404736451
 20
219.766016036
 11
326.0405222441
 21
219.7658820708
  0
LINE
  8
SURFACE
 62
7
  6
CONTINUOUS
 10
326.040473678
 20
219.766016048
 11
326.0296637353
 21
219.7963121362
  0
POLYLINE
  8
SURFACE
 62
7
  6
CONTINUOUS
 66
1
 70
0
  0
VERTEX
  8
SURFACE
 62
7
  6
CONTINUOUS
 10
326.0296637353
 20
219.7963121362
  0
VERTEX
  8
SURFACE
 62
7
  6
CONTINUOUS
 10
326.0157620363
 20
219.8367064997
  0
VERTEX
  8
SURFACE
 62
7
  6
CONTINUOUS
 10
326.001015482
 20
219.8812391279
  0
VERTEX
  8
SURFACE
 62
7
  6
CONTINUOUS
 10
325.9854644725
 20
219.9299986913
  0
VERTEX
  8
SURFACE
 62
7
  6
CONTINUOUS
 10
325.9691457478
 20
219.983074233
  0
SEQEND
  0
POLYLINE
  8
SURFACE
 62
7
  6
CONTINUOUS
 66
1
 70
0
  0
VERTEX
  8
SURFACE
 62
7
  6
CONTINUOUS
 10
325.4746338688
 20
221.664840912
  0
VERTEX
  8
SURFACE
 62
7
  6
CONTINUOUS
 10
325.4591237573
 20
221.7129626242
  0
VERTEX
  8
SURFACE
 62
7
  6
CONTINUOUS
 10
325.4390137469
 20
221.7655527252
  0
VERTEX
  8
SURFACE
 62
7
  6
CONTINUOUS
 10
325.4158841455
 20
221.8171173876
  0
VERTEX
  8
SURFACE
 62
7
  6
CONTINUOUS
 10
325.3902721711
 20
221.8665826548
  0
VERTEX
  8
SURFACE
 62
7
  6
CONTINUOUS
 10
325.3618945231
 20
221.9146263846
  0
VERTEX
  8
SURFACE
 62
7
  6
CONTINUOUS
 10
325.3303572028
 20
221.9617502567
  0
VERTEX
  8
SURFACE
 62
7
  6
CONTINUOUS
 10
325.2961078319
 20
222.0071254615
  0
VERTEX
  8
SURFACE
 62
7
  6
CONTINUOUS
 10
325.2596035551
 20
222.0501822539
  0
VERTEX
  8
SURFACE
 62
7
  6
CONTINUOUS
 10
325.2208169153
 20
222.0910220793
  0
VERTEX
  8
SURFACE
 62
7
  6
CONTINUOUS
 10
325.1798527139
 20
222.1295598605
  0
VERTEX
  8
SURFACE
 62
7
  6
CONTINUOUS
 10
325.1367045384
 20
222.1657988199
  0
VERTEX
  8
SURFACE
 62
7
  6
CONTINUOUS
 10
325.0911573632
 20
222.1998503164
  0
VERTEX
  8
SURFACE
 62
7
  6
CONTINUOUS
 10
325.043821159
 20
222.2312121564
  0
VERTEX
  8
SURFACE
 62
7
  6
CONTINUOUS
 10
324.9953548834
 20
222.2595230142
  0
VERTEX
  8
SURFACE
 62
7
  6
CONTINUOUS
 10
324.9455567651
 20
222.2849841086
  0
VERTEX
  8
SURFACE
 62
7
  6
CONTINUOUS
 10
324.8942805125
 20
222.3076755583
  0
VERTEX
  8
SURFACE
 62
7
  6
CONTINUOUS
 10
324.841850907
 20
222.327444172
  0
VERTEX
  8
SURFACE
 62
7
  6
CONTINUOUS
 10
324.7884083298
 20
222.3442417351
  0
VERTEX
  8
SURFACE
 62
7
  6
CONTINUOUS
 10
324.7343014115
 20
222.357977098
  0
VERTEX
  8
SURFACE
 62
7
  6
CONTINUOUS
 10
324.6799064041
 20
222.3686061803
  0
VERTEX
  8
SURFACE
 62
7
  6
CONTINUOUS
 10
324.6252338255
 20
222.3761801771
  0
VERTEX
  8
SURFACE
 62
7
  6
CONTINUOUS
 10
324.5703979095
 20
222.3807167299
  0
VERTEX
  8
SURFACE
 62
7
  6
CONTINUOUS
 10
324.51539915
 20
222.3822303071
  0
SEQEND
  0
POLYLINE
  8
SURFACE
 62
7
  6
CONTINUOUS
 66
1
 70
0
  0
VERTEX
  8
SURFACE
 62
7
  6
CONTINUOUS
 10
316.278936677
 20
102.7665895788
  0
VERTEX
  8
SURFACE
 62
7
  6
CONTINUOUS
 10
316.3161742832
 20
102.8222230203
  0
VERTEX
  8
SURFACE
 62
7
  6
CONTINUOUS
 10
316.357457924
 20
102.8826122812
  0
VERTEX
  8
SURFACE
 62
7
  6
CONTINUOUS
 10
316.4027768982
 20
102.9479465158
  0
SEQEND
  0
POLYLINE
  8
SURFACE
 62
7
  6
CONTINUOUS
 66
1
 70
0
  0
VERTEX
  8
SURFACE
 62
7
  6
CONTINUOUS
 10
316.7541671119
 20
103.4500107067
  0
VERTEX
  8
SURFACE
 62
7
  6
CONTINUOUS
 10
316.8234621189
 20
103.551268928
  0
VERTEX
  8
SURFACE
 62
7
  6
CONTINUOUS
 10
316.894615663
 20
103.6567342889
  0
VERTEX
  8
SURFACE
 62
7
  6
CONTINUOUS
 10
316.9670458941
 20
103.7658566839
  0
VERTEX
  8
SURFACE
 62
7
  6
CONTINUOUS
 10
317.0400447937
 20
103.8777682037
  0
VERTEX
  8
SURFACE
 62
7
  6
CONTINUOUS
 10
317.1133196721
 20
103.9927746814
  0
SEQEND
  0
LINE
  8
SURFACE
 62
7
  6
CONTINUOUS
 10
316.6232701916
 20
103.2617149397
 11
316.7541671119
 21
103.4500107067
  0
LINE
  8
SURFACE
 62
7
  6
CONTINUOUS
 10
316.4027768982
 20
102.9479465158
 11
316.6232701916
 21
103.2617149397
  0
POLYLINE
  8
0
 62
7
  6
CONTINUOUS
 66
1
 70
0
  0
VERTEX
  8
0
 62
7
  6
CONTINUOUS
 10
312.7650512946
 20
205.0031780372
  0
VERTEX
  8
0
 62
7
  6
CONTINUOUS
 10
312.7343294834
 20
205.0146996017
  0
VERTEX
  8
0
 62
7
  6
CONTINUOUS
 10
312.6783473616
 20
205.033145553
  0
VERTEX
  8
0
 62
7
  6
CONTINUOUS
 10
312.6207583995
 20
205.0488132688
  0
VERTEX
  8
0
 62
7
  6
CONTINUOUS
 10
312.561945443
 20
205.061480023
  0
VERTEX
  8
0
 62
7
  6
CONTINUOUS
 10
312.5022293013
 20
205.0709972087
  0
VERTEX
  8
0
 62
7
  6
CONTINUOUS
 10
312.4419362797
 20
205.077264055
  0
VERTEX
  8
0
 62
7
  6
CONTINUOUS
 10
312.3814993948
 20
205.0802243445
  0
VERTEX
  8
0
 62
7
  6
CONTINUOUS
 10
312.3575465313
 20
205.0804831195
  0
SEQEND
  0
LINE
  8
0
 62
7
  6
CONTINUOUS
 10
312.7652408081
 20
205.0031038093
 11
312.7650512946
 21
205.0031780372
  0
POLYLINE
  8
SURFACE
 62
7
  6
CONTINUOUS
 66
1
 70
0
  0
VERTEX
  8
SURFACE
 62
7
  6
CONTINUOUS
 10
325.465238635
 20
121.4840367005
  0
VERTEX
  8
SURFACE
 62
7
  6
CONTINUOUS
 10
325.5046081528
 20
121.5003922667
  0
VERTEX
  8
SURFACE
 62
7
  6
CONTINUOUS
 10
325.547712786
 20
121.5205269087
  0
VERTEX
  8
SURFACE
 62
7
  6
CONTINUOUS
 10
325.5916349776
 20
121.5436111273
  0
VERTEX
  8
SURFACE
 62
7
  6
CONTINUOUS
 10
325.6358007905
 20
121.5696576602
  0
VERTEX
  8
SURFACE
 62
7
  6
CONTINUOUS
 10
325.6797311002
 20
121.5986583475
  0
VERTEX
  8
SURFACE
 62
7
  6
CONTINUOUS
 10
325.722899535
 20
121.6304946183
  0
VERTEX
  8
SURFACE
 62
7
  6
CONTINUOUS
 10
325.7649557269
 20
121.6650958274
  0
VERTEX
  8
SURFACE
 62
7
  6
CONTINUOUS
 10
325.8055091974
 20
121.7022933322
  0
VERTEX
  8
SURFACE
 62
7
  6
CONTINUOUS
 10
325.8442737289
 20
121.7419406639
  0
VERTEX
  8
SURFACE
 62
7
  6
CONTINUOUS
 10
325.880931212
 20
121.7837894792
  0
VERTEX
  8
SURFACE
 62
7
  6
CONTINUOUS
 10
325.9153424893
 20
121.8277318198
  0
VERTEX
  8
SURFACE
 62
7
  6
CONTINUOUS
 10
325.9473330732
 20
121.8735868493
  0
VERTEX
  8
SURFACE
 62
7
  6
CONTINUOUS
 10
325.976782147
 20
121.9212118583
  0
VERTEX
  8
SURFACE
 62
7
  6
CONTINUOUS
 10
326.0035664739
 20
121.9704306147
  0
VERTEX
  8
SURFACE
 62
7
  6
CONTINUOUS
 10
326.0275960208
 20
122.021094535
  0
VERTEX
  8
SURFACE
 62
7
  6
CONTINUOUS
 10
326.0487848709
 20
122.073037495
  0
VERTEX
  8
SURFACE
 62
7
  6
CONTINUOUS
 10
326.0670611955
 20
122.1260951776
  0
VERTEX
  8
SURFACE
 62
7
  6
CONTINUOUS
 10
326.0823628942
 20
122.1800962499
  0
VERTEX
  8
SURFACE
 62
7
  6
CONTINUOUS
 10
326.0946395307
 20
122.2348676869
  0
VERTEX
  8
SURFACE
 62
7
  6
CONTINUOUS
 10
326.103851673
 20
122.2902334032
  0
VERTEX
  8
SURFACE
 62
7
  6
CONTINUOUS
 10
326.1099710339
 20
122.3460139861
  0
VERTEX
  8
SURFACE
 62
7
  6
CONTINUOUS
 10
326.1129808669
 20
122.4020248422
  0
SEQEND
  0
LINE
  8
SURFACE
 62
7
  6
CONTINUOUS
 10
325.4650508331
 20
121.4839631649
 11
325.4652386276
 21
121.4840367193
  0
POLYLINE
  8
0
 62
7
  6
CONTINUOUS
 66
1
 70
0
  0
VERTEX
  8
0
 62
7
  6
CONTINUOUS
 10
304.4690933967
 20
205.080483115
  0
VERTEX
  8
0
 62
7
  6
CONTINUOUS
 10
304.4477311736
 20
205.0802773462
  0
VERTEX
  8
0
 62
7
  6
CONTINUOUS
 10
304.3869153798
 20
205.0774308448
  0
VERTEX
  8
0
 62
7
  6
CONTINUOUS
 10
304.3262347714
 20
205.0712358479
  0
VERTEX
  8
0
 62
7
  6
CONTINUOUS
 10
304.2661304312
 20
205.0617481821
  0
VERTEX
  8
0
 62
7
  6
CONTINUOUS
 10
304.2069348976
 20
205.0490695868
  0
VERTEX
  8
0
 62
7
  6
CONTINUOUS
 10
304.1489751551
 20
205.0333508267
  0
VERTEX
  8
0
 62
7
  6
CONTINUOUS
 10
304.0926412293
 20
205.0148183995
  0
VERTEX
  8
0
 62
7
  6
CONTINUOUS
 10
304.0615885112
 20
205.0031782285
  0
SEQEND
  0
LINE
  8
0
 62
7
  6
CONTINUOUS
 10
304.4688862101
 20
205.0804837252
 11
312.3577531326
 21
205.0804837252
  0
POLYLINE
  8
SURFACE
 62
7
  6
CONTINUOUS
 66
1
 70
0
  0
VERTEX
  8
SURFACE
 62
7
  6
CONTINUOUS
 10
317.7112401943
 20
222.3822303071
  0
VERTEX
  8
SURFACE
 62
7
  6
CONTINUOUS
 10
317.654038748
 20
222.3805929636
  0
VERTEX
  8
SURFACE
 62
7
  6
CONTINUOUS
 10
317.5974382689
 20
222.3757337655
  0
VERTEX
  8
SURFACE
 62
7
  6
CONTINUOUS
 10
317.5414459452
 20
222.3677098416
  0
VERTEX
  8
SURFACE
 62
7
  6
CONTINUOUS
 10
317.4861570644
 20
222.3565698704
  0
VERTEX
  8
SURFACE
 62
7
  6
CONTINUOUS
 10
317.4316036244
 20
222.3423362329
  0
VERTEX
  8
SURFACE
 62
7
  6
CONTINUOUS
 10
317.378045035
 20
222.3250881892
  0
VERTEX
  8
SURFACE
 62
7
  6
CONTINUOUS
 10
317.3256945991
 20
222.3049190921
  0
VERTEX
  8
SURFACE
 62
7
  6
CONTINUOUS
 10
317.2747773987
 20
222.2819526132
  0
VERTEX
  8
SURFACE
 62
7
  6
CONTINUOUS
 10
317.2257021201
 20
222.2564458288
  0
VERTEX
  8
SURFACE
 62
7
  6
CONTINUOUS
 10
317.1781560676
 20
222.228292547
  0
VERTEX
  8
SURFACE
 62
7
  6
CONTINUOUS
 10
317.1318255254
 20
222.1972632152
  0
VERTEX
  8
SURFACE
 62
7
  6
CONTINUOUS
 10
317.0873111754
 20
222.1637113238
  0
VERTEX
  8
SURFACE
 62
7
  6
CONTINUOUS
 10
317.045136524
 20
222.1280894763
  0
VERTEX
  8
SURFACE
 62
7
  6
CONTINUOUS
 10
317.0050868155
 20
222.0902892069
  0
VERTEX
  8
SURFACE
 62
7
  6
CONTINUOUS
 10
316.9671430965
 20
222.0503017921
  0
VERTEX
  8
SURFACE
 62
7
  6
CONTINUOUS
 10
316.9313667832
 20
222.0081675745
  0
VERTEX
  8
SURFACE
 62
7
  6
CONTINUOUS
 10
316.8977097438
 20
221.9637526249
  0
VERTEX
  8
SURFACE
 62
7
  6
CONTINUOUS
 10
316.8665843033
 20
221.9175399612
  0
VERTEX
  8
SURFACE
 62
7
  6
CONTINUOUS
 10
316.8384023561
 20
221.8702406636
  0
VERTEX
  8
SURFACE
 62
7
  6
CONTINUOUS
 10
316.8128130031
 20
221.8213528209
  0
VERTEX
  8
SURFACE
 62
7
  6
CONTINUOUS
 10
316.7895799612
 20
221.7702282642
  0
VERTEX
  8
SURFACE
 62
7
  6
CONTINUOUS
 10
316.7692080669
 20
221.7177529904
  0
VERTEX
  8
SURFACE
 62
7
  6
CONTINUOUS
 10
316.7520019225
 20
221.6648288525
  0
SEQEND
  0
LINE
  8
SURFACE
 62
7
  6
CONTINUOUS
 10
324.51539915
 20
222.3822303071
 11
317.7112401943
 21
222.3822303071
  0
POLYLINE
  8
SURFACE
 62
7
  6
CONTINUOUS
 66
1
 70
0
  0
VERTEX
  8
SURFACE
 62
7
  6
CONTINUOUS
 10
317.1133196721
 20
234.907653807
  0
VERTEX
  8
SURFACE
 62
7
  6
CONTINUOUS
 10
316.9902594497
 20
234.9827958481
  0
VERTEX
  8
SURFACE
 62
7
  6
CONTINUOUS
 10
316.8748567632
 20
235.0554521604
  0
VERTEX
  8
SURFACE
 62
7
  6
CONTINUOUS
 10
316.7667553365
 20
235.1255756984
  0
VERTEX
  8
SURFACE
 62
7
  6
CONTINUOUS
 10
316.6670239982
 20
235.1933075987
  0
VERTEX
  8
SURFACE
 62
7
  6
CONTINUOUS
 10
316.5766271914
 20
235.2588476401
  0
VERTEX
  8
SURFACE
 62
7
  6
CONTINUOUS
 10
316.4955217965
 20
235.3219728506
  0
VERTEX
  8
SURFACE
 62
7
  6
CONTINUOUS
 10
316.4242070649
 20
235.3825403071
  0
VERTEX
  8
SURFACE
 62
7
  6
CONTINUOUS
 10
316.3620203273
 20
235.4405096427
  0
VERTEX
  8
SURFACE
 62
7
  6
CONTINUOUS
 10
316.308787376
 20
235.4956811014
  0
VERTEX
  8
SURFACE
 62
7
  6
CONTINUOUS
 10
316.2635420788
 20
235.5483899281
  0
VERTEX
  8
SURFACE
 62
7
  6
CONTINUOUS
 10
316.2254790373
 20
235.5987793658
  0
VERTEX
  8
SURFACE
 62
7
  6
CONTINUOUS
 10
316.1939418425
 20
235.6472256643
  0
VERTEX
  8
SURFACE
 62
7
  6
CONTINUOUS
 10
316.1680878244
 20
235.6941483339
  0
VERTEX
  8
SURFACE
 62
7
  6
CONTINUOUS
 10
316.1476703672
 20
235.7395608357
  0
VERTEX
  8
SURFACE
 62
7
  6
CONTINUOUS
 10
316.1322397103
 20
235.7836253198
  0
VERTEX
  8
SURFACE
 62
7
  6
CONTINUOUS
 10
316.1215626194
 20
235.8263152298
  0
VERTEX
  8
SURFACE
 62
7
  6
CONTINUOUS
 10
316.1152080457
 20
235.8676614955
  0
VERTEX
  8
SURFACE
 62
7
  6
CONTINUOUS
 10
316.1133196721
 20
235.907653807
  0
SEQEND
  0
LINE
  8
SURFACE
 62
7
  6
CONTINUOUS
 10
336.9633196721
 20
238.2435706967
 11
328.1133196721
 21
238.2435706967
  0
LINE
  8
0
 62
7
  6
CONTINUOUS
 10
292.5633196721
 20
238.2435706967
 11
301.4133196721
 21
238.2435706967
  0
POLYLINE
  8
0
 62
7
  6
CONTINUOUS
 66
1
 70
0
  0
VERTEX
  8
0
 62
7
  6
CONTINUOUS
 10
304.9693250775
 20
242.703605488
  0
VERTEX
  8
0
 62
7
  6
CONTINUOUS
 10
304.9126108396
 20
242.7020680779
  0
VERTEX
  8
0
 62
7
  6
CONTINUOUS
 10
304.8470191907
 20
242.6964373311
  0
VERTEX
  8
0
 62
7
  6
CONTINUOUS
 10
304.782714997
 20
242.6868475543
  0
VERTEX
  8
0
 62
7
  6
CONTINUOUS
 10
304.719922876
 20
242.6734940133
  0
VERTEX
  8
0
 62
7
  6
CONTINUOUS
 10
304.65885941
 20
242.656588125
  0
VERTEX
  8
0
 62
7
  6
CONTINUOUS
 10
304.599684832
 20
242.6363421423
  0
VERTEX
  8
0
 62
7
  6
CONTINUOUS
 10
304.542633357
 20
242.6130139311
  0
VERTEX
  8
0
 62
7
  6
CONTINUOUS
 10
304.4878496156
 20
242.5868547727
  0
VERTEX
  8
0
 62
7
  6
CONTINUOUS
 10
304.4355629595
 20
242.5581875126
  0
VERTEX
  8
0
 62
7
  6
CONTINUOUS
 10
304.3859259726
 20
242.527339353
  0
VERTEX
  8
0
 62
7
  6
CONTINUOUS
 10
304.3390578534
 20
242.4946553786
  0
VERTEX
  8
0
 62
7
  6
CONTINUOUS
 10
304.2950210818
 20
242.4604766443
  0
VERTEX
  8
0
 62
7
  6
CONTINUOUS
 10
304.2538748546
 20
242.4251753185
  0
VERTEX
  8
0
 62
7
  6
CONTINUOUS
 10
304.2156332611
 20
242.3891215958
  0
VERTEX
  8
0
 62
7
  6
CONTINUOUS
 10
304.1802416203
 20
242.3526475463
  0
VERTEX
  8
0
 62
7
  6
CONTINUOUS
 10
304.1476626538
 20
242.316123654
  0
VERTEX
  8
0
 62
7
  6
CONTINUOUS
 10
304.1176826392
 20
242.2797267441
  0
VERTEX
  8
0
 62
7
  6
CONTINUOUS
 10
304.0901503348
 20
242.2436825578
  0
VERTEX
  8
0
 62
7
  6
CONTINUOUS
 10
304.0648127217
 20
242.2080548555
  0
VERTEX
  8
0
 62
7
  6
CONTINUOUS
 10
304.0414752875
 20
242.172941631
  0
VERTEX
  8
0
 62
7
  6
CONTINUOUS
 10
304.0198834412
 20
242.1383033309
  0
VERTEX
  8
0
 62
7
  6
CONTINUOUS
 10
303.9998456643
 20
242.1041443017
  0
VERTEX
  8
0
 62
7
  6
CONTINUOUS
 10
303.9811006138
 20
242.0702926465
  0
VERTEX
  8
0
 62
7
  6
CONTINUOUS
 10
303.9634294756
 20
242.0365801948
  0
VERTEX
  8
0
 62
7
  6
CONTINUOUS
 10
303.9466530641
 20
242.0028538609
  0
VERTEX
  8
0
 62
7
  6
CONTINUOUS
 10
303.93059614
 20
241.9689150284
  0
VERTEX
  8
0
 62
7
  6
CONTINUOUS
 10
303.9151329381
 20
241.9346217281
  0
VERTEX
  8
0
 62
7
  6
CONTINUOUS
 10
303.9001321546
 20
241.8997812214
  0
VERTEX
  8
0
 62
7
  6
CONTINUOUS
 10
303.885507087
 20
241.8642692749
  0
VERTEX
  8
0
 62
7
  6
CONTINUOUS
 10
303.8711596759
 20
241.8279067611
  0
VERTEX
  8
0
 62
7
  6
CONTINUOUS
 10
303.8570423647
 20
241.7906186477
  0
VERTEX
  8
0
 62
7
  6
CONTINUOUS
 10
303.8430995875
 20
241.7522956809
  0
VERTEX
  8
0
 62
7
  6
CONTINUOUS
 10
303.8292923533
 20
241.7128605407
  0
VERTEX
  8
0
 62
7
  6
CONTINUOUS
 10
303.8155836753
 20
241.6722321556
  0
VERTEX
  8
0
 62
7
  6
CONTINUOUS
 10
303.8019398277
 20
241.6303297604
  0
VERTEX
  8
0
 62
7
  6
CONTINUOUS
 10
303.7883344405
 20
241.5870869099
  0
VERTEX
  8
0
 62
7
  6
CONTINUOUS
 10
303.7747314089
 20
241.5423977183
  0
VERTEX
  8
0
 62
7
  6
CONTINUOUS
 10
303.761100543
 20
241.4961650701
  0
VERTEX
  8
0
 62
7
  6
CONTINUOUS
 10
303.7474153969
 20
241.4482960021
  0
VERTEX
  8
0
 62
7
  6
CONTINUOUS
 10
303.733650491
 20
241.3986931694
  0
VERTEX
  8
0
 62
7
  6
CONTINUOUS
 10
303.7197856854
 20
241.3472711623
  0
VERTEX
  8
0
 62
7
  6
CONTINUOUS
 10
303.7058006226
 20
241.2939375546
  0
VERTEX
  8
0
 62
7
  6
CONTINUOUS
 10
303.6916802148
 20
241.238614407
  0
VERTEX
  8
0
 62
7
  6
CONTINUOUS
 10
303.6774091185
 20
241.1812187866
  0
VERTEX
  8
0
 62
7
  6
CONTINUOUS
 10
303.6629751193
 20
241.1216763698
  0
VERTEX
  8
0
 62
7
  6
CONTINUOUS
 10
303.6483659295
 20
241.059908925
  0
VERTEX
  8
0
 62
7
  6
CONTINUOUS
 10
303.6335721868
 20
240.9958472775
  0
VERTEX
  8
0
 62
7
  6
CONTINUOUS
 10
303.6185848183
 20
240.92942117
  0
VERTEX
  8
0
 62
7
  6
CONTINUOUS
 10
303.6033953558
 20
240.8605610493
  0
VERTEX
  8
0
 62
7
  6
CONTINUOUS
 10
303.5879957191
 20
240.7891967145
  0
VERTEX
  8
0
 62
7
  6
CONTINUOUS
 10
303.5723794096
 20
240.7152630523
  0
VERTEX
  8
0
 62
7
  6
CONTINUOUS
 10
303.5404721506
 20
240.5594255621
  0
SEQEND
  0
LINE
  8
0
 62
7
  6
CONTINUOUS
 10
304.969262644
 20
242.7036054274
 11
311.857376678
 21
242.7036054274
  0
POLYLINE
  8
0
 62
7
  6
CONTINUOUS
 66
1
 70
0
  0
VERTEX
  8
0
 62
7
  6
CONTINUOUS
 10
313.2477026673
 20
245.2435706967
  0
VERTEX
  8
0
 62
7
  6
CONTINUOUS
 10
313.210465061
 20
245.241820667
  0
VERTEX
  8
0
 62
7
  6
CONTINUOUS
 10
313.1691814202
 20
245.2363673578
  0
VERTEX
  8
0
 62
7
  6
CONTINUOUS
 10
313.123862446
 20
245.2268921852
  0
VERTEX
  8
0
 62
7
  6
CONTINUOUS
 10
313.0745315489
 20
245.2131000096
  0
VERTEX
  8
0
 62
7
  6
CONTINUOUS
 10
313.0212142676
 20
245.1946465577
  0
VERTEX
  8
0
 62
7
  6
CONTINUOUS
 10
312.9641010641
 20
245.1712953662
  0
VERTEX
  8
0
 62
7
  6
CONTINUOUS
 10
312.9033691527
 20
245.1427561911
  0
VERTEX
  8
0
 62
7
  6
CONTINUOUS
 10
312.8393751432
 20
245.1089095499
  0
VERTEX
  8
0
 62
7
  6
CONTINUOUS
 10
312.7724722323
 20
245.0695992607
  0
VERTEX
  8
0
 62
7
  6
CONTINUOUS
 10
312.7031772254
 20
245.0248735015
  0
VERTEX
  8
0
 62
7
  6
CONTINUOUS
 10
312.6320236813
 20
244.97479188
  0
VERTEX
  8
0
 62
7
  6
CONTINUOUS
 10
312.5595934502
 20
244.9195570716
  0
VERTEX
  8
0
 62
7
  6
CONTINUOUS
 10
312.4865945505
 20
244.8596027774
  0
VERTEX
  8
0
 62
7
  6
CONTINUOUS
 10
312.4133196721
 20
244.7947557994
  0
SEQEND
  0
LINE
  8
0
 62
7
  6
CONTINUOUS
 10
313.2477026673
 20
245.2435706967
 11
316.1133196721
 21
245.2435706967
  0
POLYLINE
  8
SURFACE
 62
7
  6
CONTINUOUS
 66
1
 70
0
  0
VERTEX
  8
SURFACE
 62
7
  6
CONTINUOUS
 10
317.7112401943
 20
261.2435706967
  0
VERTEX
  8
SURFACE
 62
7
  6
CONTINUOUS
 10
317.6542650287
 20
261.2419462925
  0
VERTEX
  8
SURFACE
 62
7
  6
CONTINUOUS
 10
317.5977195444
 20
261.2371063338
  0
VERTEX
  8
SURFACE
 62
7
  6
CONTINUOUS
 10
317.5416936573
 20
261.229092879
  0
VERTEX
  8
SURFACE
 62
7
  6
CONTINUOUS
 10
317.4862820772
 20
261.2179391309
  0
VERTEX
  8
SURFACE
 62
7
  6
CONTINUOUS
 10
317.4314825596
 20
261.2036413534
  0
VERTEX
  8
SURFACE
 62
7
  6
CONTINUOUS
 10
317.3777047203
 20
261.1863082464
  0
VERTEX
  8
SURFACE
 62
7
  6
CONTINUOUS
 10
317.3253852907
 20
261.1661301763
  0
VERTEX
  8
SURFACE
 62
7
  6
CONTINUOUS
 10
317.2744146878
 20
261.1431169584
  0
VERTEX
  8
SURFACE
 62
7
  6
CONTINUOUS
 10
317.224823725
 20
261.1172977813
  0
VERTEX
  8
SURFACE
 62
7
  6
CONTINUOUS
 10
317.1766952791
 20
261.0887107642
  0
VERTEX
  8
SURFACE
 62
7
  6
CONTINUOUS
 10
317.1299672544
 20
261.0572793481
  0
VERTEX
  8
SURFACE
 62
7
  6
CONTINUOUS
 10
317.0851783034
 20
261.0233440669
  0
VERTEX
  8
SURFACE
 62
7
  6
CONTINUOUS
 10
317.0429260282
 20
260.9874498369
  0
VERTEX
  8
SURFACE
 62
7
  6
CONTINUOUS
 10
317.0027745959
 20
260.9493160445
  0
VERTEX
  8
SURFACE
 62
7
  6
CONTINUOUS
 10
316.9644182389
 20
260.9085947316
  0
VERTEX
  8
SURFACE
 62
7
  6
CONTINUOUS
 10
316.9283373626
 20
260.8657146962
  0
VERTEX
  8
SURFACE
 62
7
  6
CONTINUOUS
 10
316.8948650198
 20
260.8210926223
  0
VERTEX
  8
SURFACE
 62
7
  6
CONTINUOUS
 10
316.8639426086
 20
260.7746891404
  0
VERTEX
  8
SURFACE
 62
7
  6
CONTINUOUS
 10
316.8356141
 20
260.7265602857
  0
VERTEX
  8
SURFACE
 62
7
  6
CONTINUOUS
 10
316.8099643512
 20
260.6768164176
  0
VERTEX
  8
SURFACE
 62
7
  6
CONTINUOUS
 10
316.7870435955
 20
260.6254877648
  0
VERTEX
  8
SURFACE
 62
7
  6
CONTINUOUS
 10
316.7670234332
 20
260.5728953208
  0
VERTEX
  8
SURFACE
 62
7
  6
CONTINUOUS
 10
316.750045814
 20
260.5194427019
  0
VERTEX
  8
SURFACE
 62
7
  6
CONTINUOUS
 10
316.7360690456
 20
260.4650232443
  0
VERTEX
  8
SURFACE
 62
7
  6
CONTINUOUS
 10
316.7251130718
 20
260.4095625537
  0
VERTEX
  8
SURFACE
 62
7
  6
CONTINUOUS
 10
316.7193576675
 20
260.3707282852
  0
SEQEND
  0
POLYLINE
  8
SURFACE
 62
7
  6
CONTINUOUS
 66
1
 70
0
  0
VERTEX
  8
SURFACE
 62
7
  6
CONTINUOUS
 10
317.7112401943
 20
253.8129175845
  0
VERTEX
  8
SURFACE
 62
7
  6
CONTINUOUS
 10
317.6546331094
 20
253.8113141179
  0
VERTEX
  8
SURFACE
 62
7
  6
CONTINUOUS
 10
317.5982106504
 20
253.806509212
  0
VERTEX
  8
SURFACE
 62
7
  6
CONTINUOUS
 10
317.5421521591
 20
253.7985185364
  0
VERTEX
  8
SURFACE
 62
7
  6
CONTINUOUS
 10
317.4866372118
 20
253.7873679425
  0
VERTEX
  8
SURFACE
 62
7
  6
CONTINUOUS
 10
317.4318425142
 20
253.7730930561
  0
VERTEX
  8
SURFACE
 62
7
  6
CONTINUOUS
 10
317.377945779
 20
253.7557403848
  0
VERTEX
  8
SURFACE
 62
7
  6
CONTINUOUS
 10
317.3251229908
 20
253.7353673149
  0
VERTEX
  8
SURFACE
 62
7
  6
CONTINUOUS
 10
317.2735384315
 20
253.7120378027
  0
VERTEX
  8
SURFACE
 62
7
  6
CONTINUOUS
 10
317.2233521549
 20
253.6858238
  0
VERTEX
  8
SURFACE
 62
7
  6
CONTINUOUS
 10
317.1747309731
 20
253.6568120421
  0
VERTEX
  8
SURFACE
 62
7
  6
CONTINUOUS
 10
317.1278361959
 20
253.6250996913
  0
VERTEX
  8
SURFACE
 62
7
  6
CONTINUOUS
 10
317.0828124473
 20
253.5907855468
  0
VERTEX
  8
SURFACE
 62
7
  6
CONTINUOUS
 10
317.0398008682
 20
253.5539771174
  0
VERTEX
  8
SURFACE
 62
7
  6
CONTINUOUS
 10
316.9989399877
 20
253.5147925133
  0
VERTEX
  8
SURFACE
 62
7
  6
CONTINUOUS
 10
316.9603596295
 20
253.4733556038
  0
VERTEX
  8
SURFACE
 62
7
  6
CONTINUOUS
 10
316.9241867672
 20
253.4298024221
  0
VERTEX
  8
SURFACE
 62
7
  6
CONTINUOUS
 10
316.890541195
 20
253.3842783746
  0
VERTEX
  8
SURFACE
 62
7
  6
CONTINUOUS
 10
316.8595253138
 20
253.3369230828
  0
VERTEX
  8
SURFACE
 62
7
  6
CONTINUOUS
 10
316.8312348322
 20
253.2878813333
  0
VERTEX
  8
SURFACE
 62
7
  6
CONTINUOUS
 10
316.805764359
 20
253.2373154068
  0
VERTEX
  8
SURFACE
 62
7
  6
CONTINUOUS
 10
316.7831977928
 20
253.1853921488
  0
VERTEX
  8
SURFACE
 62
7
  6
CONTINUOUS
 10
316.763605686
 20
253.1322744988
  0
VERTEX
  8
SURFACE
 62
7
  6
CONTINUOUS
 10
316.7470503722
 20
253.0781306817
  0
VERTEX
  8
SURFACE
 62
7
  6
CONTINUOUS
 10
316.7335853943
 20
253.0231343583
  0
VERTEX
  8
SURFACE
 62
7
  6
CONTINUOUS
 10
316.7232542125
 20
252.9674611049
  0
VERTEX
  8
SURFACE
 62
7
  6
CONTINUOUS
 10
316.7197648906
 20
252.9432123356
  0
SEQEND
  0
LINE
  8
SURFACE
 62
7
  6
CONTINUOUS
 10
324.51539915
 20
253.8129175845
 11
317.7112401943
 21
253.8129175845
  0
LINE
  8
SURFACE
 62
7
  6
CONTINUOUS
 10
324.51539915
 20
261.2435706967
 11
317.7112401943
 21
261.2435706967
  0
LINE
  8
0
 62
7
  6
CONTINUOUS
 10
305.0112401943
 20
261.2435706967
 11
311.81539915
 21
261.2435706967
  0
POLYLINE
  8
0
 62
7
  6
CONTINUOUS
 66
1
 70
0
  0
VERTEX
  8
0
 62
7
  6
CONTINUOUS
 10
311.81539915
 20
261.2435706967
  0
VERTEX
  8
0
 62
7
  6
CONTINUOUS
 10
311.8723743155
 20
261.2419462925
  0
VERTEX
  8
0
 62
7
  6
CONTINUOUS
 10
311.9289197999
 20
261.2371063338
  0
VERTEX
  8
0
 62
7
  6
CONTINUOUS
 10
311.984945687
 20
261.229092879
  0
VERTEX
  8
0
 62
7
  6
CONTINUOUS
 10
312.0403572671
 20
261.2179391309
  0
VERTEX
  8
0
 62
7
  6
CONTINUOUS
 10
312.0951567846
 20
261.2036413534
  0
VERTEX
  8
0
 62
7
  6
CONTINUOUS
 10
312.148934624
 20
261.1863082464
  0
VERTEX
  8
0
 62
7
  6
CONTINUOUS
 10
312.2012540535
 20
261.1661301763
  0
VERTEX
  8
0
 62
7
  6
CONTINUOUS
 10
312.2522246564
 20
261.1431169584
  0
VERTEX
  8
0
 62
7
  6
CONTINUOUS
 10
312.3018156193
 20
261.1172977813
  0
VERTEX
  8
0
 62
7
  6
CONTINUOUS
 10
312.3499440651
 20
261.0887107642
  0
VERTEX
  8
0
 62
7
  6
CONTINUOUS
 10
312.3966720898
 20
261.0572793481
  0
VERTEX
  8
0
 62
7
  6
CONTINUOUS
 10
312.4414610409
 20
261.0233440669
  0
VERTEX
  8
0
 62
7
  6
CONTINUOUS
 10
312.4837133161
 20
260.9874498369
  0
VERTEX
  8
0
 62
7
  6
CONTINUOUS
 10
312.5238647484
 20
260.9493160445
  0
VERTEX
  8
0
 62
7
  6
CONTINUOUS
 10
312.5622211053
 20
260.9085947316
  0
VERTEX
  8
0
 62
7
  6
CONTINUOUS
 10
312.5983019817
 20
260.8657146962
  0
VERTEX
  8
0
 62
7
  6
CONTINUOUS
 10
312.6317743244
 20
260.8210926223
  0
VERTEX
  8
0
 62
7
  6
CONTINUOUS
 10
312.6626967357
 20
260.7746891404
  0
VERTEX
  8
0
 62
7
  6
CONTINUOUS
 10
312.6910252442
 20
260.7265602857
  0
VERTEX
  8
0
 62
7
  6
CONTINUOUS
 10
312.7166749931
 20
260.6768164176
  0
VERTEX
  8
0
 62
7
  6
CONTINUOUS
 10
312.7395957487
 20
260.6254877648
  0
VERTEX
  8
0
 62
7
  6
CONTINUOUS
 10
312.7596159111
 20
260.5728953208
  0
VERTEX
  8
0
 62
7
  6
CONTINUOUS
 10
312.7765935303
 20
260.5194427019
  0
VERTEX
  8
0
 62
7
  6
CONTINUOUS
 10
312.7905702986
 20
260.4650232443
  0
VERTEX
  8
0
 62
7
  6
CONTINUOUS
 10
312.8015262725
 20
260.4095625537
  0
VERTEX
  8
0
 62
7
  6
CONTINUOUS
 10
312.8072816768
 20
260.3707282852
  0
SEQEND
  0
ARC
  8
0
 62
7
  6
CONTINUOUS
 10
64.0934488759
 20
105.8052399273
 40
13.0
 50
130.0
 51
183.3457249838
  0
ARC
  8
SURFACE
 62
7
  6
CONTINUOUS
 10
73.1151528371
 20
96.783535966
 40
13.0
 50
266.6542750162
 51
320.0
  0
ARC
  8
0
 62
7
  6
CONTINUOUS
 10
61.3034836066
 20
93.8172008267
 40
12.75
 50
60.0
 51
110.0
  0
ARC
  8
SURFACE
 62
7
  6
CONTINUOUS
 10
61.1271137365
 20
93.9935706967
 40
12.75
 50
340.0
 51
30.0
  0
ARC
  8
0
 62
7
  6
CONTINUOUS
 10
52.1139021601
 20
105.1049110864
 40
1.0
 50
183.3457249838
 51
290.0
  0
ARC
  8
SURFACE
 62
7
  6
CONTINUOUS
 10
72.4148239962
 20
84.8039892503
 40
1.0
 50
160.0
 51
266.6542750162
  0
ARC
  8
0
 62
7
  6
CONTINUOUS
 10
44.2782398087
 20
146.7305344648
 40
13.0
 50
100.0
 51
153.3457249838
  0
ARC
  8
SURFACE
 62
7
  6
CONTINUOUS
 10
47.5804126439
 20
134.4066576683
 40
13.0
 50
236.6542750162
 51
290.0
  0
ARC
  8
0
 62
7
  6
CONTINUOUS
 10
35.8680394595
 20
137.7435706967
 40
12.75
 50
30.0
 51
80.0
  0
ARC
  8
SURFACE
 62
7
  6
CONTINUOUS
 10
35.8034836066
 20
137.9844964197
 40
12.75
 50
310.0
 51
360.0
  0
ARC
  8
0
 62
7
  6
CONTINUOUS
 10
58.8903623906
 20
120.3677376718
 40
1.5
 50
310.0
 51
30.0
  0
ARC
  8
0
 62
7
  6
CONTINUOUS
 10
47.0534836066
 20
161.9435706967
 40
1.5
 50
280.0
 51
360.0
  0
ARC
  8
SURFACE
 62
7
  6
CONTINUOUS
 10
57.5903623906
 20
122.6194037216
 40
1.5
 50
30.0
 51
110.0
  0
ARC
  8
0
 62
7
  6
CONTINUOUS
 10
33.5534836066
 20
152.1138052554
 40
1.0
 50
153.3457249838
 51
260.0
  0
ARC
  8
SURFACE
 62
7
  6
CONTINUOUS
 10
40.9841367188
 20
124.3822303071
 40
1.0
 50
130.0
 51
236.6542750162
  0
ARC
  8
0
 62
7
  6
CONTINUOUS
 10
101.7165705781
 20
80.2704997341
 40
13.0
 50
160.0
 51
213.3457249838
  0
ARC
  8
SURFACE
 62
7
  6
CONTINUOUS
 10
114.0404473746
 20
76.9683268988
 40
13.0
 50
296.6542750162
 51
350.0
  0
ARC
  8
0
 62
7
  6
CONTINUOUS
 10
105.2944093295
 20
68.4935706967
 40
12.75
 50
90.0
 51
140.0
  0
ARC
  8
SURFACE
 62
7
  6
CONTINUOUS
 10
105.0534836066
 20
68.5581265496
 40
12.75
 50
10.0
 51
60.0
  0
ARC
  8
0
 62
7
  6
CONTINUOUS
 10
89.9293166315
 20
90.2804494807
 40
1.5
 50
340.0
 51
60.0
  0
ARC
  8
SURFACE
 62
7
  6
CONTINUOUS
 10
87.6776505816
 20
91.5804494807
 40
1.5
 50
60.0
 51
140.0
  0
ARC
  8
SURFACE
 62
7
  6
CONTINUOUS
 10
129.2534836066
 20
79.7435706967
 40
1.5
 50
90.0
 51
170.0
  0
ARC
  8
0
 62
7
  6
CONTINUOUS
 10
91.6921432169
 20
73.674223809
 40
1.0
 50
213.3457249838
 51
320.0
  0
ARC
  8
SURFACE
 62
7
  6
CONTINUOUS
 10
119.4237181652
 20
66.2435706967
 40
1.0
 50
190.0
 51
296.6542750162
  0
ARC
  8
CURVE
 62
2
  6
DOT
 10
124.1584372243
 20
120.211853074
 40
3.2
 50
2.2544307753
 51
45.0
  0
ARC
  8
CURVE
 62
2
  6
DOT
 10
119.9157965372
 20
124.4544937612
 40
3.2
 50
45.0
 51
86.4096221093
  0
ARC
  8
CURVE
 62
2
  6
DOT
 10
120.3165831775
 20
130.8419322203
 40
3.2
 50
225.0
 51
266.4096221093
  0
ARC
  8
CURVE
 62
2
  6
DOT
 10
98.1518451301
 20
153.0066702676
 40
3.2
 50
183.5903778907
 51
225.0
  0
ARC
  8
CURVE
 62
2
  6
DOT
 10
91.764406671
 20
152.6058836273
 40
3.2
 50
3.5903778907
 51
45.0
  0
ARC
  8
CURVE
 62
2
  6
DOT
 10
87.5217659839
 20
156.8485243145
 40
3.2
 50
45.0
 51
87.7455692247
  0
ARC
  8
0
 62
7
  6
CONTINUOUS
 10
47.5804126439
 20
192.0804837252
 40
13.0
 50
70.0
 51
123.3457249838
  0
ARC
  8
SURFACE
 62
7
  6
CONTINUOUS
 10
44.2782398087
 20
179.7566069287
 40
13.0
 50
206.6542750162
 51
260.0
  0
ARC
  8
0
 62
7
  6
CONTINUOUS
 10
35.8034836066
 20
188.5026449738
 40
12.75
 50
0.0
 51
50.0
  0
ARC
  8
SURFACE
 62
7
  6
CONTINUOUS
 10
35.8680394595
 20
188.7435706967
 40
12.75
 50
280.0
 51
330.0
  0
ARC
  8
0
 62
7
  6
CONTINUOUS
 10
57.5903623906
 20
203.8677376718
 40
1.5
 50
250.0
 51
330.0
  0
ARC
  8
SURFACE
 62
7
  6
CONTINUOUS
 10
47.0534836066
 20
164.5435706967
 40
1.5
 50
0.0
 51
80.0
  0
ARC
  8
SURFACE
 62
7
  6
CONTINUOUS
 10
58.8903623906
 20
206.1194037216
 40
1.5
 50
330.0
 51
50.0
  0
ARC
  8
0
 62
7
  6
CONTINUOUS
 10
40.9841367188
 20
202.1049110864
 40
1.0
 50
123.3457249838
 51
230.0
  0
ARC
  8
SURFACE
 62
7
  6
CONTINUOUS
 10
33.5534836066
 20
174.3733361381
 40
1.0
 50
100.0
 51
206.6542750162
  0
ARC
  8
0
 62
7
  6
CONTINUOUS
 10
73.1151528371
 20
229.7036054274
 40
13.0
 50
40.0
 51
93.3457249838
  0
ARC
  8
SURFACE
 62
7
  6
CONTINUOUS
 10
64.0934488759
 20
220.6819014661
 40
13.0
 50
176.6542750162
 51
230.0
  0
ARC
  8
0
 62
7
  6
CONTINUOUS
 10
61.1271137365
 20
232.4935706967
 40
12.75
 50
330.0
 51
20.0
  0
ARC
  8
SURFACE
 62
7
  6
CONTINUOUS
 10
61.3034836066
 20
232.6699405668
 40
12.75
 50
250.0
 51
300.0
  0
ARC
  8
0
 62
7
  6
CONTINUOUS
 10
72.4148239962
 20
241.6831521431
 40
1.0
 50
93.3457249838
 51
200.0
  0
ARC
  8
SURFACE
 62
7
  6
CONTINUOUS
 10
52.1139021601
 20
221.3822303071
 40
1.0
 50
70.0
 51
176.6542750162
  0
ARC
  8
CURVE
 62
2
  6
DOT
 10
87.7735233448
 20
163.2435706967
 40
3.2
 50
92.2544307753
 51
267.7455692247
  0
ARC
  8
CURVE
 62
2
  6
DOT
 10
87.5217659839
 20
169.638617079
 40
3.2
 50
272.2544307753
 51
315.0
  0
ARC
  8
CURVE
 62
2
  6
DOT
 10
91.764406671
 20
173.8812577661
 40
3.2
 50
315.0
 51
356.4096221093
  0
ARC
  8
CURVE
 62
2
  6
DOT
 10
98.1518451301
 20
173.4804711258
 40
3.2
 50
135.0
 51
176.4096221093
  0
ARC
  8
CURVE
 62
2
  6
DOT
 10
120.3165831775
 20
195.6452091732
 40
3.2
 50
93.5903778907
 51
135.0
  0
ARC
  8
CURVE
 62
2
  6
DOT
 10
119.9157965372
 20
202.0326476323
 40
3.2
 50
273.5903778907
 51
315.0
  0
ARC
  8
CURVE
 62
2
  6
DOT
 10
124.1584372243
 20
206.2752883194
 40
3.2
 50
315.0
 51
357.7455692247
  0
ARC
  8
0
 62
7
  6
CONTINUOUS
 10
114.0404473746
 20
249.5188144946
 40
13.0
 50
10.0
 51
63.3457249838
  0
ARC
  8
SURFACE
 62
7
  6
CONTINUOUS
 10
101.7165705781
 20
246.2166416594
 40
13.0
 50
146.6542750162
 51
200.0
  0
ARC
  8
0
 62
7
  6
CONTINUOUS
 10
105.0534836066
 20
257.9290148438
 40
12.75
 50
300.0
 51
350.0
  0
ARC
  8
SURFACE
 62
7
  6
CONTINUOUS
 10
105.2944093295
 20
257.9935706967
 40
12.75
 50
220.0
 51
270.0
  0
ARC
  8
0
 62
7
  6
CONTINUOUS
 10
129.2534836066
 20
246.7435706967
 40
1.5
 50
190.0
 51
270.0
  0
ARC
  8
0
 62
7
  6
CONTINUOUS
 10
87.6776505816
 20
234.9066919127
 40
1.5
 50
220.0
 51
300.0
  0
ARC
  8
SURFACE
 62
7
  6
CONTINUOUS
 10
89.9293166315
 20
236.2066919127
 40
1.5
 50
300.0
 51
20.0
  0
ARC
  8
0
 62
7
  6
CONTINUOUS
 10
119.4237181652
 20
260.2435706967
 40
1.0
 50
63.3457249838
 51
170.0
  0
ARC
  8
SURFACE
 62
7
  6
CONTINUOUS
 10
91.6921432169
 20
252.8129175845
 40
1.0
 50
40.0
 51
146.6542750162
  0
ARC
  8
0
 62
7
  6
CONTINUOUS
 10
147.0665198385
 20
76.9683268988
 40
13.0
 50
190.0
 51
243.3457249838
  0
ARC
  8
SURFACE
 62
7
  6
CONTINUOUS
 10
159.390396635
 20
80.2704997341
 40
13.0
 50
326.6542750162
 51
20.0
  0
ARC
  8
0
 62
7
  6
CONTINUOUS
 10
156.0534836066
 20
68.5581265496
 40
12.75
 50
120.0
 51
170.0
  0
ARC
  8
SURFACE
 62
7
  6
CONTINUOUS
 10
155.8125578836
 20
68.4935706967
 40
12.75
 50
40.0
 51
90.0
  0
ARC
  8
0
 62
7
  6
CONTINUOUS
 10
173.4293166315
 20
91.5804494807
 40
1.5
 50
40.0
 51
120.0
  0
ARC
  8
0
 62
7
  6
CONTINUOUS
 10
131.8534836066
 20
79.7435706967
 40
1.5
 50
10.0
 51
90.0
  0
ARC
  8
SURFACE
 62
7
  6
CONTINUOUS
 10
171.1776505816
 20
90.2804494807
 40
1.5
 50
120.0
 51
200.0
  0
ARC
  8
0
 62
7
  6
CONTINUOUS
 10
141.6832490479
 20
66.2435706967
 40
1.0
 50
243.3457249838
 51
350.0
  0
ARC
  8
SURFACE
 62
7
  6
CONTINUOUS
 10
169.4148239962
 20
73.674223809
 40
1.0
 50
220.0
 51
326.6542750162
  0
ARC
  8
CURVE
 62
2
  6
DOT
 10
173.5852012292
 20
156.8485243145
 40
3.2
 50
92.2544307753
 51
135.0
  0
ARC
  8
CURVE
 62
2
  6
DOT
 10
169.3425605421
 20
152.6058836273
 40
3.2
 50
135.0
 51
176.4096221093
  0
ARC
  8
CURVE
 62
2
  6
DOT
 10
162.955122083
 20
153.0066702676
 40
3.2
 50
315.0
 51
356.4096221093
  0
ARC
  8
CURVE
 62
2
  6
DOT
 10
140.7903840357
 20
130.8419322203
 40
3.2
 50
273.5903778907
 51
315.0
  0
ARC
  8
CURVE
 62
2
  6
DOT
 10
141.1911706759
 20
124.4544937612
 40
3.2
 50
93.5903778907
 51
135.0
  0
ARC
  8
CURVE
 62
2
  6
DOT
 10
136.9485299888
 20
120.211853074
 40
3.2
 50
135.0
 51
177.7455692247
  0
ARC
  8
CURVE
 62
2
  6
DOT
 10
130.5534836066
 20
120.4636104349
 40
3.2
 50
182.2544307753
 51
357.7455692247
  0
ARC
  8
0
 62
7
  6
CONTINUOUS
 10
187.991814376
 20
96.783535966
 40
13.0
 50
220.0
 51
273.3457249838
  0
ARC
  8
SURFACE
 62
7
  6
CONTINUOUS
 10
197.0135183372
 20
105.8052399273
 40
13.0
 50
356.6542750162
 51
50.0
  0
ARC
  8
0
 62
7
  6
CONTINUOUS
 10
199.9798534766
 20
93.9935706967
 40
12.75
 50
150.0
 51
200.0
  0
ARC
  8
SURFACE
 62
7
  6
CONTINUOUS
 10
199.8034836066
 20
93.8172008267
 40
12.75
 50
70.0
 51
120.0
  0
ARC
  8
0
 62
7
  6
CONTINUOUS
 10
188.6921432169
 20
84.8039892503
 40
1.0
 50
273.3457249838
 51
20.0
  0
ARC
  8
SURFACE
 62
7
  6
CONTINUOUS
 10
208.993065053
 20
105.1049110864
 40
1.0
 50
250.0
 51
356.6542750162
  0
ARC
  8
0
 62
7
  6
CONTINUOUS
 10
213.5265545692
 20
134.4066576683
 40
13.0
 50
250.0
 51
303.3457249838
  0
ARC
  8
SURFACE
 62
7
  6
CONTINUOUS
 10
216.8287274044
 20
146.7305344648
 40
13.0
 50
26.6542750162
 51
80.0
  0
ARC
  8
0
 62
7
  6
CONTINUOUS
 10
225.3034836066
 20
137.9844964197
 40
12.75
 50
180.0
 51
230.0
  0
ARC
  8
SURFACE
 62
7
  6
CONTINUOUS
 10
225.2389277537
 20
137.7435706967
 40
12.75
 50
100.0
 51
150.0
  0
ARC
  8
0
 62
7
  6
CONTINUOUS
 10
203.5166048226
 20
122.6194037216
 40
1.5
 50
70.0
 51
150.0
  0
ARC
  8
SURFACE
 62
7
  6
CONTINUOUS
 10
202.2166048226
 20
120.3677376718
 40
1.5
 50
150.0
 51
230.0
  0
ARC
  8
SURFACE
 62
7
  6
CONTINUOUS
 10
214.0534836066
 20
161.9435706967
 40
1.5
 50
180.0
 51
260.0
  0
ARC
  8
0
 62
7
  6
CONTINUOUS
 10
220.1228304943
 20
124.3822303071
 40
1.0
 50
303.3457249838
 51
50.0
  0
ARC
  8
SURFACE
 62
7
  6
CONTINUOUS
 10
227.5534836066
 20
152.1138052554
 40
1.0
 50
280.0
 51
26.6542750162
  0
CIRCLE
  8
0
 62
7
  6
CONTINUOUS
 10
130.5534836066
 20
163.2435706967
 40
75.0
  0
CIRCLE
  8
SURFACE
 62
7
  6
CONTINUOUS
 10
130.5534836066
 20
163.2435706967
 40
75.0
  0
CIRCLE
  8
CURVE
 62
2
  6
DOT
 10
130.5534836066
 20
163.2435706967
 40
12.5
  0
ARC
  8
CURVE
 62
2
  6
DOT
 10
173.3334438683
 20
163.2435706967
 40
3.2
 50
272.2544307753
 51
87.7455692247
  0
ARC
  8
CURVE
 62
2
  6
DOT
 10
130.5534836066
 20
206.0235309585
 40
3.2
 50
2.2544307753
 51
177.7455692247
  0
ARC
  8
CURVE
 62
2
  6
DOT
 10
136.9485299888
 20
206.2752883194
 40
3.2
 50
182.2544307753
 51
225.0
  0
ARC
  8
CURVE
 62
2
  6
DOT
 10
141.1911706759
 20
202.0326476323
 40
3.2
 50
225.0
 51
266.4096221093
  0
ARC
  8
CURVE
 62
2
  6
DOT
 10
140.7903840357
 20
195.6452091732
 40
3.2
 50
45.0
 51
86.4096221093
  0
ARC
  8
CURVE
 62
2
  6
DOT
 10
162.955122083
 20
173.4804711258
 40
3.2
 50
3.5903778907
 51
45.0
  0
ARC
  8
CURVE
 62
2
  6
DOT
 10
169.3425605421
 20
173.8812577661
 40
3.2
 50
183.5903778907
 51
225.0
  0
ARC
  8
CURVE
 62
2
  6
DOT
 10
173.5852012292
 20
169.638617079
 40
3.2
 50
225.0
 51
267.7455692247
  0
ARC
  8
0
 62
7
  6
CONTINUOUS
 10
159.390396635
 20
246.2166416594
 40
13.0
 50
340.0
 51
33.3457249838
  0
ARC
  8
SURFACE
 62
7
  6
CONTINUOUS
 10
147.0665198385
 20
249.5188144946
 40
13.0
 50
116.6542750162
 51
170.0
  0
ARC
  8
0
 62
7
  6
CONTINUOUS
 10
155.8125578836
 20
257.9935706967
 40
12.75
 50
270.0
 51
320.0
  0
ARC
  8
SURFACE
 62
7
  6
CONTINUOUS
 10
156.0534836066
 20
257.9290148438
 40
12.75
 50
190.0
 51
240.0
  0
ARC
  8
0
 62
7
  6
CONTINUOUS
 10
171.1776505816
 20
236.2066919127
 40
1.5
 50
160.0
 51
240.0
  0
ARC
  8
SURFACE
 62
7
  6
CONTINUOUS
 10
131.8534836066
 20
246.7435706967
 40
1.5
 50
270.0
 51
350.0
  0
ARC
  8
SURFACE
 62
7
  6
CONTINUOUS
 10
173.4293166315
 20
234.9066919127
 40
1.5
 50
240.0
 51
320.0
  0
ARC
  8
0
 62
7
  6
CONTINUOUS
 10
169.4148239962
 20
252.8129175845
 40
1.0
 50
33.3457249838
 51
140.0
  0
ARC
  8
SURFACE
 62
7
  6
CONTINUOUS
 10
141.6832490479
 20
260.2435706967
 40
1.0
 50
10.0
 51
116.6542750162
  0
ARC
  8
0
 62
7
  6
CONTINUOUS
 10
216.8287274044
 20
179.7566069287
 40
13.0
 50
280.0
 51
333.3457249838
  0
ARC
  8
SURFACE
 62
7
  6
CONTINUOUS
 10
213.5265545692
 20
192.0804837252
 40
13.0
 50
56.6542750162
 51
110.0
  0
ARC
  8
0
 62
7
  6
CONTINUOUS
 10
225.2389277537
 20
188.7435706967
 40
12.75
 50
210.0
 51
260.0
  0
ARC
  8
SURFACE
 62
7
  6
CONTINUOUS
 10
225.3034836066
 20
188.5026449738
 40
12.75
 50
130.0
 51
180.0
  0
ARC
  8
0
 62
7
  6
CONTINUOUS
 10
202.2166048226
 20
206.1194037216
 40
1.5
 50
130.0
 51
210.0
  0
ARC
  8
0
 62
7
  6
CONTINUOUS
 10
214.0534836066
 20
164.5435706967
 40
1.5
 50
100.0
 51
180.0
  0
ARC
  8
SURFACE
 62
7
  6
CONTINUOUS
 10
203.5166048226
 20
203.8677376718
 40
1.5
 50
210.0
 51
290.0
  0
ARC
  8
0
 62
7
  6
CONTINUOUS
 10
227.5534836066
 20
174.3733361381
 40
1.0
 50
333.3457249838
 51
80.0
  0
ARC
  8
SURFACE
 62
7
  6
CONTINUOUS
 10
220.1228304943
 20
202.1049110864
 40
1.0
 50
310.0
 51
56.6542750162
  0
ARC
  8
0
 62
7
  6
CONTINUOUS
 10
197.0135183372
 20
220.6819014661
 40
13.0
 50
310.0
 51
3.3457249838
  0
ARC
  8
SURFACE
 62
7
  6
CONTINUOUS
 10
187.991814376
 20
229.7036054274
 40
13.0
 50
86.6542750162
 51
140.0
  0
ARC
  8
0
 62
7
  6
CONTINUOUS
 10
199.8034836066
 20
232.6699405668
 40
12.75
 50
240.0
 51
290.0
  0
ARC
  8
SURFACE
 62
7
  6
CONTINUOUS
 10
199.9798534766
 20
232.4935706967
 40
12.75
 50
160.0
 51
210.0
  0
ARC
  8
0
 62
7
  6
CONTINUOUS
 10
208.993065053
 20
221.3822303071
 40
1.0
 50
3.3457249838
 51
110.0
  0
ARC
  8
SURFACE
 62
7
  6
CONTINUOUS
 10
188.6921432169
 20
241.6831521431
 40
1.0
 50
340.0
 51
86.6542750162
  0
ARC
  8
SURFACE
 62
7
  6
CONTINUOUS
 10
336.9633196721
 20
235.2435706967
 40
3.0
 50
0.0
 51
90.0
  0
ARC
  8
SURFACE
 62
7
  6
CONTINUOUS
 10
336.9633196721
 20
91.2435706967
 40
3.0
 50
270.0
 51
360.0
  0
ARC
  8
0
 62
7
  6
CONTINUOUS
 10
292.5633196721
 20
235.2435706967
 40
3.0
 50
90.0
 51
180.0
  0
ARC
  8
0
 62
7
  6
CONTINUOUS
 10
292.5633196721
 20
91.2435706967
 40
3.0
 50
180.0
 51
270.0
  0
ARC
  8
0
 62
7
  6
CONTINUOUS
 10
301.4133196721
 20
240.2435706967
 40
2.0
 50
270.0
 51
360.0
  0
ARC
  8
0
 62
7
  6
CONTINUOUS
 10
301.4133196721
 20
86.2435706967
 40
2.0
 50
0.0
 51
90.0
  0
ARC
  8
0
 62
7
  6
CONTINUOUS
 10
328.1133196721
 20
240.2435706967
 40
2.0
 50
180.0
 51
270.0
  0
ARC
  8
0
 62
7
  6
CONTINUOUS
 10
328.1133196721
 20
86.2435706967
 40
2.0
 50
90.0
 51
180.0
  0
ENDSEC
  0
EOF
