  0
SECTION
  2
HEADER
  9
$EXTMAX
 10
420.0
 20
297.0
 30
0.0
  9
$EXTMIN
 10
0.0
 20
0.0
 30
0.0
  9
$LIMMIN
 10
0.0
 20
0.0
  9
$LIMMAX
 10
420.0
 20
297.0
  9
$VIEWCTR
 10
210.0
 20
148.5
  9
$VIEWSIZE
 40
297.0
  9
$CLAYER
  8
0
  9
$LTSCALE
 40
23.1
  9
$CELTYPE
  6
BYLAYER
  9
$DIMSCALE
 40
1.0
  9
$DIMASZ
 40
3.5
  9
$DIMEXO
 40
1.0
  9
$DIMDLI
 40
15.96
  9
$DIMEXE
 40
2.0
  9
$DIMCEN
 40
3.78
  9
$DIMLFAC
 40
1.0
  9
$DIMBLK
  1
_FILLED
  9
$DIMTXT
 40
3.5
  9
$AUNITS
 70
0
  9
$PDMODE
 70
3
  9
$PDSIZE
 40
0.3125
  9
$TILEMODE
 70
1
  0
ENDSEC
  0
SECTION
  2
TABLES
  0
TABLE
  2
LTYPE
 70
6
  0
LTYPE
  2
BYBLOCK
 70
0
  3

 72
65
 73
0
 40
0.0
  0
LTYPE
  2
BYLAYER
 70
0
  3

 72
65
 73
0
 40
0.0
  0
LTYPE
  2
CONTINUOUS
 70
64
  3
Solid line
 72
65
 73
0
 40
0.0
  0
LTYPE
  2
CENTER
 70
64
  3
____ _ ____ _ ____ _ ____ _ ____ _ ____ _ ____
 72
65
 73
4
 40
0.6
 49
0.375
 49
-0.075
 49
0.075
 49
-0.075
  0
LTYPE
  2
HIDDEN
 70
64
  3
- - - - - - - - - - - - - - - - - - - -
 72
65
 73
2
 40
0.2
 49
0.1
 49
-0.1
  0
LTYPE
  2
PHANTOM
 70
64
  3
_____ _ _ _____ _ _ _____ _ _ _____
 72
65
 73
6
 40
0.8
 49
0.45
 49
-0.05
 49
0.1
 49
-0.05
 49
0.1
 49
-0.05
  0
LTYPE
  2
DOT
 70
64
  3
. . . . . . . . . . . . . . . . . . . .
 72
65
 73
2
 40
0.2
 49
0.1
 49
-0.1
  0
LTYPE
  2
DASHED
 70
64
  3
- - - - - - - - - - - - - - - - - - - -
 72
65
 73
2
 40
0.2
 49
0.1
 49
-0.1
  0
ENDTAB
  0
TABLE
  2
LAYER
 70
36
  0
LAYER
  2
0
 70
0
 62
7
  6
CONTINUOUS
  0
LAYER
  2
DEFAULT_1
 70
0
 62
7
  6
CENTER
  0
LAYER
  2
DEFAULT_2
 70
0
 62
8
  6
HIDDEN
  0
LAYER
  2
DEFAULT_3
 70
0
 62
7
  6
PHANTOM
  0
LAYER
  2
CSYS
 70
0
 62
7
  6
CONTINUOUS
  0
LAYER
  2
CURVE
 70
0
 62
7
  6
CONTINUOUS
  0
LAYER
  2
PITCH
 70
0
 62
7
  6
CONTINUOUS
  0
LAYER
  2
SURFACE
 70
0
 62
7
  6
CONTINUOUS
  0
ENDTAB
  0
TABLE
  2
STYLE
 70
1
  0
STYLE
  2
STANDARD
 70
0
 40
0.0
 41
0.8
 50
0.0
 71
0
 42
0.2
  3
txt
  4

  0
STYLE
  2
TEXTSTYLE_1
 70
0
 40
0.0
 41
0.8
 50
0.0
 71
0
 42
0.2
  3
gdt
  4

  0
STYLE
  2
TEXTSTYLE_2
 70
0
 40
0.0
 41
0.6
 50
0.0
 71
0
 42
0.2
  3
txt
  4

  0
STYLE
  2
TEXTSTYLE_3
 70
0
 40
0.0
 41
1.0
 50
0.0
 71
0
 42
0.2
  3
ftb_____.ttf
  4

  0
STYLE
  2
TEXTSTYLE_4
 70
0
 40
0.0
 41
1.0
 50
0.0
 71
0
 42
0.2
  3
fti_____.ttf
  4

  0
STYLE
  2
TEXTSTYLE_5
 70
0
 40
0.0
 41
1.0
 50
0.0
 71
0
 42
0.2
  3
frutiger light.ttf
  4

  0
STYLE
  2
TEXTSTYLE_6
 70
0
 40
0.0
 41
0.7
 50
0.0
 71
0
 42
0.2
  3
txt
  4

  0
STYLE
  2
TEXTSTYLE_7
 70
0
 40
0.0
 41
0.6
 50
0.0
 71
0
 42
0.2
  3
txt
  4

  0
ENDTAB
  0
ENDSEC
  0
SECTION
  2
BLOCKS
  0
BLOCK
  8
0
 62
2
  6
CONTINUOUS
  2
UNI_LOGO2_BL1
 70
64
 10
382.7840918555
 20
35.5067593403
  0
TEXT
  8
0
 62
7
  6
CONTINUOUS
 10
373.842376864
 20
30.5995157174
  7
TEXTSTYLE_4
 40
1.0655737705
  1
The brand for plastic modular belts and chains
 41
1.0
 72
0
  0
LINE
  8
0
 62
7
  6
CONTINUOUS
 10
358.7621602445
 20
36.0805298321
 11
358.7621602445
 21
33.9493822911
  0
LINE
  8
0
 62
7
  6
CONTINUOUS
 10
359.0512227376
 20
30.9584509954
 11
359.0512227376
 21
31.0552420547
  0
LINE
  8
0
 62
7
  6
CONTINUOUS
 10
358.7621602445
 20
31.0229783683
 11
358.8199727462
 21
30.8293962497
  0
LINE
  8
0
 62
7
  6
CONTINUOUS
 10
360.1556028675
 20
33.867415078
 11
360.1556028675
 21
36.0805298321
  0
LINE
  8
0
 62
7
  6
CONTINUOUS
 10
361.0746601894
 20
32.0231527829
 11
361.0746601894
 21
30.5067593403
  0
LINE
  8
0
 62
7
  6
CONTINUOUS
 10
361.3637227445
 20
30.5067593403
 11
361.3637227445
 21
31.2488242184
  0
LINE
  8
0
 62
7
  6
CONTINUOUS
 10
361.3637227445
 20
31.3778789641
 11
361.3637227445
 21
32.0231527829
  0
LINE
  8
0
 62
7
  6
CONTINUOUS
 10
358.8199727462
 20
31.216560532
 11
358.7621602445
 21
31.0229783683
  0
LINE
  8
0
 62
7
  6
CONTINUOUS
 10
359.1668477307
 20
30.7971325633
 11
359.0512227376
 21
30.9584509954
  0
LINE
  8
0
 62
7
  6
CONTINUOUS
 10
360.2652852997
 20
31.3133515913
 11
360.3230977445
 21
31.216560532
  0
LINE
  8
0
 62
7
  6
CONTINUOUS
 10
360.6121602997
 20
31.216560532
 11
360.5543476894
 21
31.3456152777
  0
LINE
  8
0
 62
7
  6
CONTINUOUS
 10
362.0408487691
 20
36.0805298321
 11
362.0408487691
 21
34.2772511436
  0
LINE
  8
0
 62
7
  6
CONTINUOUS
 10
362.0408487691
 20
32.9657757338
 11
362.0408487691
 21
32.3100380288
  0
LINE
  8
0
 62
7
  6
CONTINUOUS
 10
362.4043477445
 20
31.1520331591
 11
362.4043477445
 21
30.5067593403
  0
LINE
  8
0
 62
7
  6
CONTINUOUS
 10
362.6934101343
 20
30.5067593403
 11
362.6934101343
 21
31.1520331591
  0
LINE
  8
0
 62
7
  6
CONTINUOUS
 10
359.0512227376
 20
31.0552420547
 11
359.1090352445
 21
31.1842968456
  0
LINE
  8
0
 62
7
  6
CONTINUOUS
 10
358.8199727462
 20
30.8293962497
 11
358.9355977445
 21
30.7003414814
  0
LINE
  8
0
 62
7
  6
CONTINUOUS
 10
362.3465351343
 20
31.2810879048
 11
362.4043477445
 21
31.1520331591
  0
LINE
  8
0
 62
7
  6
CONTINUOUS
 10
363.1559103548
 20
30.7971325633
 11
363.2137226343
 21
30.668077795
  0
LINE
  8
0
 62
7
  6
CONTINUOUS
 10
362.6934101343
 20
31.1520331591
 11
362.6355978548
 21
31.3133515913
  0
LINE
  8
0
 62
7
  6
CONTINUOUS
 10
363.1559103548
 20
31.3456152777
 11
363.1559103548
 21
31.2810879048
  0
LINE
  8
0
 62
7
  6
CONTINUOUS
 10
363.1559103548
 20
30.8939236226
 11
363.1559103548
 21
30.7971325633
  0
LINE
  8
0
 62
7
  6
CONTINUOUS
 10
363.4342913921
 20
32.3100380288
 11
363.4342913921
 21
36.0805298321
  0
LINE
  8
0
 62
7
  6
CONTINUOUS
 10
363.4449727445
 20
30.7648688543
 11
363.4449727445
 21
30.8293962497
  0
LINE
  8
0
 62
7
  6
CONTINUOUS
 10
363.7621602445
 20
36.0805298321
 11
363.7621602445
 21
32.3100380288
  0
LINE
  8
0
 62
7
  6
CONTINUOUS
 10
360.5543476894
 20
30.7003414814
 11
360.6121602997
 21
30.8293962497
  0
LINE
  8
0
 62
7
  6
CONTINUOUS
 10
364.9480979651
 20
30.6035504109
 11
364.890285024
 21
30.7648688543
  0
LINE
  8
0
 62
7
  6
CONTINUOUS
 10
364.6012229651
 20
31.2810879048
 11
364.6012229651
 21
31.1842968456
  0
LINE
  8
0
 62
7
  6
CONTINUOUS
 10
364.6012229651
 20
31.0552420547
 11
364.6012229651
 21
30.8616599362
  0
LINE
  8
0
 62
7
  6
CONTINUOUS
 10
364.890285024
 20
30.7648688543
 11
364.890285024
 21
31.2810879048
  0
LINE
  8
0
 62
7
  6
CONTINUOUS
 10
365.1556028675
 20
32.3100380288
 11
365.1556028675
 21
34.1133167174
  0
LINE
  8
0
 62
7
  6
CONTINUOUS
 10
365.1556028675
 20
35.4247921272
 11
365.1556028675
 21
36.0805298321
  0
LINE
  8
0
 62
7
  6
CONTINUOUS
 10
365.4684104651
 20
32.0231527829
 11
365.4684104651
 21
31.8618343508
  0
LINE
  8
0
 62
7
  6
CONTINUOUS
 10
365.4684104651
 20
31.5391973962
 11
365.4684104651
 21
30.5067593403
  0
LINE
  8
0
 62
7
  6
CONTINUOUS
 10
365.757472524
 20
30.5067593403
 11
365.757472524
 21
31.5391973962
  0
LINE
  8
0
 62
7
  6
CONTINUOUS
 10
365.757472524
 20
31.8618343508
 11
365.757472524
 21
32.0231527829
  0
LINE
  8
0
 62
7
  6
CONTINUOUS
 10
360.3230977445
 20
30.8293962497
 11
360.2652852997
 21
30.7326051679
  0
LINE
  8
0
 62
7
  6
CONTINUOUS
 10
362.6355978548
 20
31.3133515913
 11
362.5777852445
 21
31.3778789641
  0
LINE
  8
0
 62
7
  6
CONTINUOUS
 10
363.5027853548
 20
30.7003414814
 11
363.4449727445
 21
30.7648688543
  0
LINE
  8
0
 62
7
  6
CONTINUOUS
 10
364.6590352445
 20
30.5712867188
 11
364.716847524
 21
30.5067593403
  0
LINE
  8
0
 62
7
  6
CONTINUOUS
 10
364.6012229651
 20
30.668077795
 11
364.6590352445
 21
30.5712867188
  0
LINE
  8
0
 62
7
  6
CONTINUOUS
 10
365.0059102445
 20
30.5067593403
 11
364.9480979651
 21
30.6035504109
  0
LINE
  8
0
 62
7
  6
CONTINUOUS
 10
364.890285024
 20
31.2810879048
 11
364.8324727445
 21
31.3778789641
  0
LINE
  8
0
 62
7
  6
CONTINUOUS
 10
366.2199727445
 20
31.5391973962
 11
366.2199727445
 21
30.5067593403
  0
LINE
  8
0
 62
7
  6
CONTINUOUS
 10
366.5090354651
 20
30.5067593403
 11
366.5090354651
 21
31.2488242184
  0
LINE
  8
0
 62
7
  6
CONTINUOUS
 10
366.5090354651
 20
31.3778789641
 11
366.5090354651
 21
31.5391973962
  0
LINE
  8
0
 62
7
  6
CONTINUOUS
 10
367.0408487691
 20
34.5231527829
 11
367.0408487691
 21
32.3100380288
  0
LINE
  8
0
 62
7
  6
CONTINUOUS
 10
358.9355977445
 20
31.3456152777
 11
358.8199727462
 21
31.216560532
  0
LINE
  8
0
 62
7
  6
CONTINUOUS
 10
359.1090352445
 20
31.1842968456
 11
359.1668477307
 21
31.2488242184
  0
LINE
  8
0
 62
7
  6
CONTINUOUS
 10
358.9355977445
 20
30.7003414814
 11
359.0512227376
 21
30.6358140973
  0
LINE
  8
0
 62
7
  6
CONTINUOUS
 10
359.3402852307
 20
30.7003414814
 11
359.1668477307
 21
30.7971325633
  0
LINE
  8
0
 62
7
  6
CONTINUOUS
 10
364.543410024
 20
31.3456152777
 11
364.6012229651
 21
31.2810879048
  0
LINE
  8
0
 62
7
  6
CONTINUOUS
 10
367.491847524
 20
31.2810879048
 11
367.5496604651
 21
31.1197694727
  0
LINE
  8
0
 62
7
  6
CONTINUOUS
 10
367.838722524
 20
31.1197694727
 11
367.7809102445
 21
31.2810879048
  0
LINE
  8
0
 62
7
  6
CONTINUOUS
 10
367.5496604651
 20
31.1197694727
 11
367.5496604651
 21
30.5067593403
  0
LINE
  8
0
 62
7
  6
CONTINUOUS
 10
367.838722524
 20
30.5067593403
 11
367.838722524
 21
31.1197694727
  0
LINE
  8
0
 62
7
  6
CONTINUOUS
 10
368.3012227445
 20
31.3456152777
 11
368.3012227445
 21
31.2810879048
  0
LINE
  8
0
 62
7
  6
CONTINUOUS
 10
368.4342913921
 20
32.3100380288
 11
368.4342913921
 21
34.4411855698
  0
LINE
  8
0
 62
7
  6
CONTINUOUS
 10
368.7621602445
 20
36.0805298321
 11
368.7621602445
 21
32.3100380288
  0
LINE
  8
0
 62
7
  6
CONTINUOUS
 10
363.4449727445
 20
30.8293962497
 11
363.5027853548
 21
30.926187309
  0
LINE
  8
0
 62
7
  6
CONTINUOUS
 10
359.0512227376
 20
30.6358140973
 11
359.2246602583
 21
30.5712867188
  0
LINE
  8
0
 62
7
  6
CONTINUOUS
 10
360.5543476894
 20
31.3456152777
 11
360.3809101894
 21
31.4424063369
  0
LINE
  8
0
 62
7
  6
CONTINUOUS
 10
363.2137226343
 20
30.668077795
 11
363.3871601343
 21
30.5712867188
  0
LINE
  8
0
 62
7
  6
CONTINUOUS
 10
362.2309102445
 20
31.3456152777
 11
362.3465351343
 21
31.2810879048
  0
LINE
  8
0
 62
7
  6
CONTINUOUS
 10
362.5777852445
 20
31.3778789641
 11
362.4621603548
 21
31.4424063369
  0
LINE
  8
0
 62
7
  6
CONTINUOUS
 10
368.3012227445
 20
30.7648688543
 11
368.4168479651
 21
30.6358140973
  0
LINE
  8
0
 62
7
  6
CONTINUOUS
 10
368.6480977445
 20
30.7003414814
 11
368.5902854651
 21
30.7648688543
  0
LINE
  8
0
 62
7
  6
CONTINUOUS
 10
368.3012227445
 20
31.2810879048
 11
368.4168479651
 21
31.1520331591
  0
LINE
  8
0
 62
7
  6
CONTINUOUS
 10
367.7809102445
 20
31.2810879048
 11
367.7230979651
 21
31.3778789641
  0
LINE
  8
0
 62
7
  6
CONTINUOUS
 10
370.1512223035
 20
30.7003414814
 11
370.1512223035
 21
30.7648688543
  0
LINE
  8
0
 62
7
  6
CONTINUOUS
 10
370.1556028675
 20
32.3100380288
 11
370.1556028675
 21
36.0805298321
  0
LINE
  8
0
 62
7
  6
CONTINUOUS
 10
363.2137226343
 20
31.4101426505
 11
363.1559103548
 21
31.3456152777
  0
LINE
  8
0
 62
7
  6
CONTINUOUS
 10
360.091847717
 20
31.3778789641
 11
360.2652852997
 21
31.3133515913
  0
LINE
  8
0
 62
7
  6
CONTINUOUS
 10
364.8324727445
 20
31.3778789641
 11
364.716847524
 21
31.4424063369
  0
LINE
  8
0
 62
7
  6
CONTINUOUS
 10
368.6480977445
 20
31.216560532
 11
368.5902854651
 21
31.2810879048
  0
LINE
  8
0
 62
7
  6
CONTINUOUS
 10
369.8043479651
 20
30.8293962497
 11
369.8621602445
 21
30.7648688543
  0
LINE
  8
0
 62
7
  6
CONTINUOUS
 10
370.1512223035
 20
30.7648688543
 11
370.0355977445
 21
30.8939236226
  0
LINE
  8
0
 62
7
  6
CONTINUOUS
 10
369.8043479651
 20
31.3456152777
 11
369.8621602445
 21
31.2810879048
  0
LINE
  8
0
 62
7
  6
CONTINUOUS
 10
370.1512223035
 20
31.2810879048
 11
370.0355977445
 21
31.4101426505
  0
LINE
  8
0
 62
7
  6
CONTINUOUS
 10
363.4449727445
 20
31.2810879048
 11
363.5027853548
 21
31.3456152777
  0
LINE
  8
0
 62
7
  6
CONTINUOUS
 10
363.2715352445
 20
31.0229783683
 11
363.1559103548
 21
30.8939236226
  0
LINE
  8
0
 62
7
  6
CONTINUOUS
 10
364.6012229651
 20
30.8616599362
 11
364.543410024
 21
30.7971325633
  0
LINE
  8
0
 62
7
  6
CONTINUOUS
 10
364.543410024
 20
30.6035504109
 11
364.6012229651
 21
30.668077795
  0
LINE
  8
0
 62
7
  6
CONTINUOUS
 10
363.3871601343
 20
30.5712867188
 11
363.5027853548
 21
30.5390230296
  0
LINE
  8
0
 62
7
  6
CONTINUOUS
 10
360.3809101894
 20
31.4424063369
 11
360.1496602445
 21
31.5069337098
  0
LINE
  8
0
 62
7
  6
CONTINUOUS
 10
363.7340351343
 20
30.6358140973
 11
363.5027853548
 21
30.7003414814
  0
LINE
  8
0
 62
7
  6
CONTINUOUS
 10
362.4621603548
 20
31.4424063369
 11
362.2887228548
 21
31.5069337098
  0
LINE
  8
0
 62
7
  6
CONTINUOUS
 10
364.716847524
 20
31.4424063369
 11
364.543410024
 21
31.5069337098
  0
LINE
  8
0
 62
7
  6
CONTINUOUS
 10
367.3762229651
 20
31.3456152777
 11
367.491847524
 21
31.2810879048
  0
LINE
  8
0
 62
7
  6
CONTINUOUS
 10
367.7230979651
 20
31.3778789641
 11
367.6074727445
 21
31.4424063369
  0
LINE
  8
0
 62
7
  6
CONTINUOUS
 10
359.2246602583
 20
30.5712867188
 11
359.3980977583
 21
30.5390230296
  0
LINE
  8
0
 62
7
  6
CONTINUOUS
 10
359.6871602721
 20
30.6358140973
 11
359.3402852307
 21
30.7003414814
  0
LINE
  8
0
 62
7
  6
CONTINUOUS
 10
362.1152853548
 20
31.3778789641
 11
362.2309102445
 21
31.3456152777
  0
LINE
  8
0
 62
7
  6
CONTINUOUS
 10
364.4277854651
 20
31.3778789641
 11
364.543410024
 21
31.3456152777
  0
LINE
  8
0
 62
7
  6
CONTINUOUS
 10
368.7637229651
 20
30.668077795
 11
368.6480977445
 21
30.7003414814
  0
LINE
  8
0
 62
7
  6
CONTINUOUS
 10
367.2605977445
 20
31.3778789641
 11
367.3762229651
 21
31.3456152777
  0
LINE
  8
0
 62
7
  6
CONTINUOUS
 10
368.4168479651
 20
30.6358140973
 11
368.5902854651
 21
30.5712867188
  0
LINE
  8
0
 62
7
  6
CONTINUOUS
 10
367.6074727445
 20
31.4424063369
 11
367.4340352445
 21
31.5069337098
  0
LINE
  8
0
 62
7
  6
CONTINUOUS
 10
368.8215352445
 20
31.1520331591
 11
368.6480977445
 21
31.216560532
  0
LINE
  8
0
 62
7
  6
CONTINUOUS
 10
369.6309104651
 20
30.8939236226
 11
369.8043479651
 21
30.8293962497
  0
LINE
  8
0
 62
7
  6
CONTINUOUS
 10
370.0355977445
 20
31.4101426505
 11
369.8621602445
 21
31.4746700234
  0
LINE
  8
0
 62
7
  6
CONTINUOUS
 10
368.4168479651
 20
31.1520331591
 11
368.6480977445
 21
31.0552420547
  0
LINE
  8
0
 62
7
  6
CONTINUOUS
 10
370.0355977445
 20
30.8939236226
 11
369.8043479651
 21
30.9907146818
  0
LINE
  8
0
 62
7
  6
CONTINUOUS
 10
368.5902854651
 20
31.2810879048
 11
368.6480977445
 21
31.3456152777
  0
LINE
  8
0
 62
7
  6
CONTINUOUS
 10
359.0512227376
 20
31.4101426505
 11
358.9355977445
 21
31.3456152777
  0
LINE
  8
0
 62
7
  6
CONTINUOUS
 10
359.1668477307
 20
31.2488242184
 11
359.3402852307
 21
31.3456152777
  0
LINE
  8
0
 62
7
  6
CONTINUOUS
 10
361.4793477997
 20
31.4424063369
 11
361.3637227445
 21
31.3778789641
  0
LINE
  8
0
 62
7
  6
CONTINUOUS
 10
361.3637227445
 20
31.2488242184
 11
361.4793477997
 21
31.3133515913
  0
LINE
  8
0
 62
7
  6
CONTINUOUS
 10
360.3809101894
 20
30.6035504109
 11
360.5543476894
 21
30.7003414814
  0
LINE
  8
0
 62
7
  6
CONTINUOUS
 10
359.3980977583
 20
30.5390230296
 11
359.744972717
 21
30.5067593403
  0
LINE
  8
0
 62
7
  6
CONTINUOUS
 10
363.5027853548
 20
30.5390230296
 11
363.7340351343
 21
30.5067593403
  0
LINE
  8
0
 62
7
  6
CONTINUOUS
 10
361.8840352445
 20
31.4101426505
 11
362.1152853548
 21
31.3778789641
  0
LINE
  8
0
 62
7
  6
CONTINUOUS
 10
364.1965353548
 20
31.4101426505
 11
364.4277854651
 21
31.3778789641
  0
LINE
  8
0
 62
7
  6
CONTINUOUS
 10
368.6480977445
 20
31.0552420547
 11
369.6309104651
 21
30.8939236226
  0
LINE
  8
0
 62
7
  6
CONTINUOUS
 10
369.8043479651
 20
30.9907146818
 11
368.8215352445
 21
31.1520331591
  0
LINE
  8
0
 62
7
  6
CONTINUOUS
 10
362.2887228548
 20
31.5069337098
 11
362.1152853548
 21
31.5391973962
  0
LINE
  8
0
 62
7
  6
CONTINUOUS
 10
368.5902854651
 20
30.5712867188
 11
368.7637229651
 21
30.5390230296
  0
LINE
  8
0
 62
7
  6
CONTINUOUS
 10
367.4340352445
 20
31.5069337098
 11
367.2605977445
 21
31.5391973962
  0
LINE
  8
0
 62
7
  6
CONTINUOUS
 10
369.6887227445
 20
31.3778789641
 11
369.8043479651
 21
31.3456152777
  0
LINE
  8
0
 62
7
  6
CONTINUOUS
 10
369.8621602445
 20
30.7648688543
 11
369.8043479651
 21
30.7003414814
  0
LINE
  8
0
 62
7
  6
CONTINUOUS
 10
368.4168479651
 20
31.4424063369
 11
368.3012227445
 21
31.3456152777
  0
LINE
  8
0
 62
7
  6
CONTINUOUS
 10
363.3293478548
 20
31.4746700234
 11
363.2137226343
 21
31.4101426505
  0
LINE
  8
0
 62
7
  6
CONTINUOUS
 10
363.3871601343
 20
31.0875057863
 11
363.2715352445
 21
31.0229783683
  0
LINE
  8
0
 62
7
  6
CONTINUOUS
 10
363.5027853548
 20
30.926187309
 11
363.6184102445
 21
30.9907146818
  0
LINE
  8
0
 62
7
  6
CONTINUOUS
 10
361.0746601894
 20
30.5067593403
 11
361.3637227445
 21
30.5067593403
  0
LINE
  8
0
 62
7
  6
CONTINUOUS
 10
362.4043477445
 20
30.5067593403
 11
362.6934101343
 21
30.5067593403
  0
LINE
  8
0
 62
7
  6
CONTINUOUS
 10
363.7340351343
 20
30.5067593403
 11
364.0809101343
 21
30.5067593403
  0
LINE
  8
0
 62
7
  6
CONTINUOUS
 10
364.716847524
 20
30.5067593403
 11
365.0059102445
 21
30.5067593403
  0
LINE
  8
0
 62
7
  6
CONTINUOUS
 10
365.4684104651
 20
30.5067593403
 11
365.757472524
 21
30.5067593403
  0
LINE
  8
0
 62
7
  6
CONTINUOUS
 10
366.2199727445
 20
30.5067593403
 11
366.5090354651
 21
30.5067593403
  0
LINE
  8
0
 62
7
  6
CONTINUOUS
 10
367.5496604651
 20
30.5067593403
 11
367.838722524
 21
30.5067593403
  0
LINE
  8
0
 62
7
  6
CONTINUOUS
 10
369.1105979651
 20
30.5067593403
 11
369.4574729651
 21
30.5067593403
  0
LINE
  8
0
 62
7
  6
CONTINUOUS
 10
369.4574729651
 20
30.6358140973
 11
369.1105979651
 21
30.6358140973
  0
LINE
  8
0
 62
7
  6
CONTINUOUS
 10
364.0809101343
 20
30.6358140973
 11
363.7340351343
 21
30.6358140973
  0
LINE
  8
0
 62
7
  6
CONTINUOUS
 10
368.5902854651
 20
30.7648688543
 11
368.3012227445
 21
30.7648688543
  0
LINE
  8
0
 62
7
  6
CONTINUOUS
 10
360.6121602997
 20
30.8293962497
 11
360.3230977445
 21
30.8293962497
  0
LINE
  8
0
 62
7
  6
CONTINUOUS
 10
359.6871602721
 20
31.4101426505
 11
360.091847717
 21
31.3778789641
  0
LINE
  8
0
 62
7
  6
CONTINUOUS
 10
360.1496602445
 20
31.5069337098
 11
359.744972717
 21
31.5391973962
  0
LINE
  8
0
 62
7
  6
CONTINUOUS
 10
368.7637229651
 20
30.5390230296
 11
369.1105979651
 21
30.5067593403
  0
LINE
  8
0
 62
7
  6
CONTINUOUS
 10
369.1105979651
 20
30.6358140973
 11
368.7637229651
 21
30.668077795
  0
LINE
  8
0
 62
7
  6
CONTINUOUS
 10
364.543410024
 20
31.5069337098
 11
364.1965353548
 21
31.5391973962
  0
LINE
  8
0
 62
7
  6
CONTINUOUS
 10
369.3418477445
 20
31.4101426505
 11
369.6887227445
 21
31.3778789641
  0
LINE
  8
0
 62
7
  6
CONTINUOUS
 10
369.6887227445
 20
31.5069337098
 11
369.3418477445
 21
31.5391973962
  0
LINE
  8
0
 62
7
  6
CONTINUOUS
 10
367.0293479651
 20
31.4101426505
 11
367.2605977445
 21
31.3778789641
  0
LINE
  8
0
 62
7
  6
CONTINUOUS
 10
369.8621602445
 20
31.4746700234
 11
369.6887227445
 21
31.5069337098
  0
LINE
  8
0
 62
7
  6
CONTINUOUS
 10
370.0355977445
 20
30.6035504109
 11
370.1512223035
 21
30.7003414814
  0
LINE
  8
0
 62
7
  6
CONTINUOUS
 10
364.543410024
 20
30.7971325633
 11
364.369972524
 21
30.7003414814
  0
LINE
  8
0
 62
7
  6
CONTINUOUS
 10
366.624660024
 20
31.4424063369
 11
366.5090354651
 21
31.3778789641
  0
LINE
  8
0
 62
7
  6
CONTINUOUS
 10
366.5090354651
 20
31.2488242184
 11
366.624660024
 21
31.3133515913
  0
LINE
  8
0
 62
7
  6
CONTINUOUS
 10
359.2246602583
 20
31.4746700234
 11
359.0512227376
 21
31.4101426505
  0
LINE
  8
0
 62
7
  6
CONTINUOUS
 10
361.6527851343
 20
31.5069337098
 11
361.4793477997
 21
31.4424063369
  0
LINE
  8
0
 62
7
  6
CONTINUOUS
 10
361.4793477997
 20
31.3133515913
 11
361.6527851343
 21
31.3778789641
  0
LINE
  8
0
 62
7
  6
CONTINUOUS
 10
360.2652852997
 20
30.7326051679
 11
360.091847717
 21
30.668077795
  0
LINE
  8
0
 62
7
  6
CONTINUOUS
 10
369.6887227445
 20
30.668077795
 11
369.4574729651
 21
30.6358140973
  0
LINE
  8
0
 62
7
  6
CONTINUOUS
 10
364.0809101343
 20
30.5067593403
 11
364.369972524
 21
30.5390230296
  0
LINE
  8
0
 62
7
  6
CONTINUOUS
 10
369.4574729651
 20
30.5067593403
 11
369.8043479651
 21
30.5390230296
  0
LINE
  8
0
 62
7
  6
CONTINUOUS
 10
359.744972717
 20
30.5067593403
 11
360.1496602445
 21
30.5390230296
  0
LINE
  8
0
 62
7
  6
CONTINUOUS
 10
360.091847717
 20
30.668077795
 11
359.6871602721
 21
30.6358140973
  0
LINE
  8
0
 62
7
  6
CONTINUOUS
 10
363.9652852445
 20
31.0552420547
 11
364.6012229651
 21
31.0552420547
  0
LINE
  8
0
 62
7
  6
CONTINUOUS
 10
364.6012229651
 20
31.1842968456
 11
363.9652852445
 21
31.1842968456
  0
LINE
  8
0
 62
7
  6
CONTINUOUS
 10
360.3230977445
 20
31.216560532
 11
360.6121602997
 21
31.216560532
  0
LINE
  8
0
 62
7
  6
CONTINUOUS
 10
363.1559103548
 20
31.2810879048
 11
363.4449727445
 21
31.2810879048
  0
LINE
  8
0
 62
7
  6
CONTINUOUS
 10
369.8621602445
 20
31.2810879048
 11
370.1512223035
 21
31.2810879048
  0
LINE
  8
0
 62
7
  6
CONTINUOUS
 10
363.8496603548
 20
31.4101426505
 11
364.1965353548
 21
31.4101426505
  0
LINE
  8
0
 62
7
  6
CONTINUOUS
 10
368.9949727445
 20
31.4101426505
 11
369.3418477445
 21
31.4101426505
  0
LINE
  8
0
 62
7
  6
CONTINUOUS
 10
369.3418477445
 20
31.5391973962
 11
368.9949727445
 21
31.5391973962
  0
LINE
  8
0
 62
7
  6
CONTINUOUS
 10
367.2605977445
 20
31.5391973962
 11
367.0293479651
 21
31.5391973962
  0
LINE
  8
0
 62
7
  6
CONTINUOUS
 10
366.5090354651
 20
31.5391973962
 11
366.2199727445
 21
31.5391973962
  0
LINE
  8
0
 62
7
  6
CONTINUOUS
 10
365.757472524
 20
31.5391973962
 11
365.4684104651
 21
31.5391973962
  0
LINE
  8
0
 62
7
  6
CONTINUOUS
 10
364.1965353548
 20
31.5391973962
 11
363.8496603548
 21
31.5391973962
  0
LINE
  8
0
 62
7
  6
CONTINUOUS
 10
362.1152853548
 20
31.5391973962
 11
361.8840352445
 21
31.5391973962
  0
LINE
  8
0
 62
7
  6
CONTINUOUS
 10
365.4684104651
 20
31.8618343508
 11
365.757472524
 21
31.8618343508
  0
LINE
  8
0
 62
7
  6
CONTINUOUS
 10
365.757472524
 20
32.0231527829
 11
365.4684104651
 21
32.0231527829
  0
LINE
  8
0
 62
7
  6
CONTINUOUS
 10
361.3637227445
 20
32.0231527829
 11
361.0746601894
 21
32.0231527829
  0
LINE
  8
0
 62
7
  6
CONTINUOUS
 10
360.4015045068
 20
32.3100380288
 11
360.8140758554
 21
32.3100380288
  0
LINE
  8
0
 62
7
  6
CONTINUOUS
 10
362.0408487691
 20
32.3100380288
 11
363.4342913921
 21
32.3100380288
  0
LINE
  8
0
 62
7
  6
CONTINUOUS
 10
363.7621602445
 20
32.3100380288
 11
365.1556028675
 21
32.3100380288
  0
LINE
  8
0
 62
7
  6
CONTINUOUS
 10
367.0408487691
 20
32.3100380288
 11
368.4342913921
 21
32.3100380288
  0
LINE
  8
0
 62
7
  6
CONTINUOUS
 10
368.7621602445
 20
32.3100380288
 11
370.1556028675
 21
32.3100380288
  0
LINE
  8
0
 62
7
  6
CONTINUOUS
 10
366.798097524
 20
31.5069337098
 11
366.624660024
 21
31.4424063369
  0
LINE
  8
0
 62
7
  6
CONTINUOUS
 10
364.369972524
 20
30.5390230296
 11
364.543410024
 21
30.6035504109
  0
LINE
  8
0
 62
7
  6
CONTINUOUS
 10
369.8043479651
 20
30.5390230296
 11
370.0355977445
 21
30.6035504109
  0
LINE
  8
0
 62
7
  6
CONTINUOUS
 10
369.8043479651
 20
30.7003414814
 11
369.6887227445
 21
30.668077795
  0
LINE
  8
0
 62
7
  6
CONTINUOUS
 10
368.7637229651
 20
31.3778789641
 11
368.9949727445
 21
31.4101426505
  0
LINE
  8
0
 62
7
  6
CONTINUOUS
 10
366.798097524
 20
31.3778789641
 11
367.0293479651
 21
31.4101426505
  0
LINE
  8
0
 62
7
  6
CONTINUOUS
 10
363.7340351343
 20
31.0229783683
 11
363.9652852445
 21
31.0552420547
  0
LINE
  8
0
 62
7
  6
CONTINUOUS
 10
367.0293479651
 20
31.5391973962
 11
366.798097524
 21
31.5069337098
  0
LINE
  8
0
 62
7
  6
CONTINUOUS
 10
363.6184102445
 20
31.3778789641
 11
363.8496603548
 21
31.4101426505
  0
LINE
  8
0
 62
7
  6
CONTINUOUS
 10
368.9949727445
 20
31.5391973962
 11
368.6480977445
 21
31.5069337098
  0
LINE
  8
0
 62
7
  6
CONTINUOUS
 10
363.9652852445
 20
31.1842968456
 11
363.6184102445
 21
31.1520331591
  0
LINE
  8
0
 62
7
  6
CONTINUOUS
 10
359.744972717
 20
31.5391973962
 11
359.3980977583
 21
31.5069337098
  0
LINE
  8
0
 62
7
  6
CONTINUOUS
 10
363.8496603548
 20
31.5391973962
 11
363.4449727445
 21
31.5069337098
  0
LINE
  8
0
 62
7
  6
CONTINUOUS
 10
361.221176638
 20
33.4575790124
 11
360.565438933
 21
33.4575790124
  0
LINE
  8
0
 62
7
  6
CONTINUOUS
 10
366.624660024
 20
31.3133515913
 11
366.798097524
 21
31.3778789641
  0
LINE
  8
0
 62
7
  6
CONTINUOUS
 10
368.6480977445
 20
31.3456152777
 11
368.7637229651
 21
31.3778789641
  0
LINE
  8
0
 62
7
  6
CONTINUOUS
 10
368.6480977445
 20
31.5069337098
 11
368.4168479651
 21
31.4424063369
  0
LINE
  8
0
 62
7
  6
CONTINUOUS
 10
364.369972524
 20
30.7003414814
 11
364.0809101343
 21
30.6358140973
  0
LINE
  8
0
 62
7
  6
CONTINUOUS
 10
361.6527851343
 20
31.3778789641
 11
361.8840352445
 21
31.4101426505
  0
LINE
  8
0
 62
7
  6
CONTINUOUS
 10
361.8840352445
 20
31.5391973962
 11
361.6527851343
 21
31.5069337098
  0
LINE
  8
0
 62
7
  6
CONTINUOUS
 10
359.4559102445
 20
31.3778789641
 11
359.6871602721
 21
31.4101426505
  0
LINE
  8
0
 62
7
  6
CONTINUOUS
 10
365.9752749986
 20
34.9329888485
 11
366.6310127035
 21
34.9329888485
  0
LINE
  8
0
 62
7
  6
CONTINUOUS
 10
363.6184102445
 20
30.9907146818
 11
363.7340351343
 21
31.0229783683
  0
LINE
  8
0
 62
7
  6
CONTINUOUS
 10
363.6184102445
 20
31.1520331591
 11
363.3871601343
 21
31.0875057863
  0
LINE
  8
0
 62
7
  6
CONTINUOUS
 10
363.5027853548
 20
31.3456152777
 11
363.6184102445
 21
31.3778789641
  0
LINE
  8
0
 62
7
  6
CONTINUOUS
 10
360.1496602445
 20
30.5390230296
 11
360.3809101894
 21
30.6035504109
  0
LINE
  8
0
 62
7
  6
CONTINUOUS
 10
363.4449727445
 20
31.5069337098
 11
363.3293478548
 21
31.4746700234
  0
LINE
  8
0
 62
7
  6
CONTINUOUS
 10
359.3980977583
 20
31.5069337098
 11
359.2246602583
 21
31.4746700234
  0
LINE
  8
0
 62
7
  6
CONTINUOUS
 10
370.1556028675
 20
36.0805298321
 11
368.7621602445
 21
36.0805298321
  0
LINE
  8
0
 62
7
  6
CONTINUOUS
 10
366.7949471298
 20
36.0805298321
 11
366.3823757812
 21
36.0805298321
  0
LINE
  8
0
 62
7
  6
CONTINUOUS
 10
365.1556028675
 20
36.0805298321
 11
363.7621602445
 21
36.0805298321
  0
LINE
  8
0
 62
7
  6
CONTINUOUS
 10
363.4342913921
 20
36.0805298321
 11
362.0408487691
 21
36.0805298321
  0
LINE
  8
0
 62
7
  6
CONTINUOUS
 10
360.1556028675
 20
36.0805298321
 11
358.7621602445
 21
36.0805298321
  0
LINE
  8
0
 62
7
  6
CONTINUOUS
 10
359.3402852307
 20
31.3456152777
 11
359.4559102445
 21
31.3778789641
  0
CIRCLE
  8
0
 62
7
  6
CONTINUOUS
 10
369.458881556
 20
38.4165954059
 40
2.0901639344
  0
ARC
  8
0
 62
7
  6
CONTINUOUS
 10
360.4015045068
 20
33.9493822911
 40
1.6393442623
 50
180.0
 51
270.0
  0
ARC
  8
0
 62
7
  6
CONTINUOUS
 10
366.7949471298
 20
34.4411855698
 40
1.6393442623
 50
0.0
 51
90.0
  0
ARC
  8
0
 62
7
  6
CONTINUOUS
 10
360.8140758554
 20
33.7854478649
 40
1.4754098361
 50
270.0
 51
326.2510114041
  0
ARC
  8
0
 62
7
  6
CONTINUOUS
 10
366.3823757812
 20
34.6051199961
 40
1.4754098361
 50
90.0
 51
146.2510114041
  0
ARC
  8
0
 62
7
  6
CONTINUOUS
 10
361.221176638
 20
34.2772511436
 40
0.8196721311
 50
270.0
 51
360.0
  0
ARC
  8
0
 62
7
  6
CONTINUOUS
 10
365.9752749986
 20
34.1133167174
 40
0.8196721311
 50
90.0
 51
180.0
  0
ARC
  8
0
 62
7
  6
CONTINUOUS
 10
360.565438933
 20
33.867415078
 40
0.4098360656
 50
180.0
 51
270.0
  0
ARC
  8
0
 62
7
  6
CONTINUOUS
 10
366.6310127035
 20
34.5231527829
 40
0.4098360656
 50
0.0
 51
90.0
  0
SOLID
  8
0
 62
7
  6
CONTINUOUS
 10
365.4684104651
 20
31.8618347111
 11
365.4684104651
 21
32.0231531947
 12
365.757472524
 22
31.8618347111
 13
365.757472524
 23
32.0231531947
  0
SOLID
  8
0
 62
7
  6
CONTINUOUS
 10
359.744972717
 20
31.5391977439
 11
360.1496602445
 21
31.5069333244
 12
359.3980977583
 22
31.5069333244
 13
359.3980977583
 23
31.5069333244
  0
SOLID
  8
0
 62
7
  6
CONTINUOUS
 10
359.2246602583
 20
31.4746706537
 11
359.3980977583
 21
31.5069333244
 12
360.1496602445
 22
31.5069333244
 13
360.1496602445
 23
31.5069333244
  0
SOLID
  8
0
 62
7
  6
CONTINUOUS
 10
360.1496602445
 20
31.5069333244
 11
360.3809101894
 21
31.4424063504
 12
359.2246602583
 22
31.4746706537
 13
359.2246602583
 23
31.4746706537
  0
SOLID
  8
0
 62
7
  6
CONTINUOUS
 10
359.0512227376
 20
31.4101419116
 11
359.2246602583
 21
31.4746706537
 12
360.3809101894
 22
31.4424063504
 13
360.3809101894
 23
31.4424063504
  0
SOLID
  8
0
 62
7
  6
CONTINUOUS
 10
359.0512227376
 20
31.4101419116
 11
360.3809101894
 21
31.4424063504
 12
359.6871602721
 22
31.4101419116
 13
359.6871602721
 23
31.4101419116
  0
SOLID
  8
0
 62
7
  6
CONTINUOUS
 10
359.6871602721
 20
31.4101419116
 11
360.3809101894
 21
31.4424063504
 12
360.091847717
 22
31.3778792603
 13
360.091847717
 23
31.3778792603
  0
SOLID
  8
0
 62
7
  6
CONTINUOUS
 10
360.3809101894
 20
31.4424063504
 11
360.5543476894
 21
31.345614957
 12
360.091847717
 22
31.3778792603
 13
360.091847717
 23
31.3778792603
  0
SOLID
  8
0
 62
7
  6
CONTINUOUS
 10
360.2652852997
 20
31.3133521701
 11
360.091847717
 21
31.3778792603
 12
360.5543476894
 22
31.345614957
 13
360.5543476894
 23
31.345614957
  0
SOLID
  8
0
 62
7
  6
CONTINUOUS
 10
360.2652852997
 20
31.3133521701
 11
360.5543476894
 21
31.345614957
 12
360.3230977445
 22
31.2165606992
 13
360.3230977445
 23
31.2165606992
  0
SOLID
  8
0
 62
7
  6
CONTINUOUS
 10
360.5543476894
 20
31.345614957
 11
360.6121602997
 21
31.2165606992
 12
360.3230977445
 22
31.2165606992
 13
360.3230977445
 23
31.2165606992
  0
SOLID
  8
0
 62
7
  6
CONTINUOUS
 10
361.6527851343
 20
31.5069329918
 11
361.8840352445
 21
31.5391972951
 12
362.1152853548
 22
31.5391972951
 13
362.1152853548
 23
31.5391972951
  0
SOLID
  8
0
 62
7
  6
CONTINUOUS
 10
362.1152853548
 20
31.5391972951
 11
362.2887228548
 21
31.5069329918
 12
361.6527851343
 22
31.5069329918
 13
361.6527851343
 23
31.5069329918
  0
SOLID
  8
0
 62
7
  6
CONTINUOUS
 10
361.4793477997
 20
31.4424059016
 11
361.6527851343
 21
31.5069329918
 12
362.2887228548
 22
31.5069329918
 13
362.2887228548
 23
31.5069329918
  0
SOLID
  8
0
 62
7
  6
CONTINUOUS
 10
362.2887228548
 20
31.5069329918
 11
362.4621603548
 21
31.4424059016
 12
361.4793477997
 22
31.4424059016
 13
361.4793477997
 23
31.4424059016
  0
SOLID
  8
0
 62
7
  6
CONTINUOUS
 10
362.4621603548
 20
31.4424059016
 11
361.8840352445
 21
31.4101420472
 12
361.4793477997
 22
31.4424059016
 13
361.4793477997
 23
31.4424059016
  0
SOLID
  8
0
 62
7
  6
CONTINUOUS
 10
361.3637227445
 20
31.3778788115
 11
361.4793477997
 21
31.4424059016
 12
361.8840352445
 22
31.4101420472
 13
361.8840352445
 23
31.4101420472
  0
SOLID
  8
0
 62
7
  6
CONTINUOUS
 10
361.8840352445
 20
31.4101420472
 11
361.6527851343
 21
31.3778788115
 12
361.3637227445
 22
31.3778788115
 13
361.3637227445
 23
31.3778788115
  0
SOLID
  8
0
 62
7
  6
CONTINUOUS
 10
361.8840352445
 20
31.4101420472
 11
362.4621603548
 21
31.4424059016
 12
362.1152853548
 22
31.3778788115
 13
362.1152853548
 23
31.3778788115
  0
SOLID
  8
0
 62
7
  6
CONTINUOUS
 10
362.4621603548
 20
31.4424059016
 11
362.5777852445
 21
31.3778788115
 12
362.1152853548
 22
31.3778788115
 13
362.1152853548
 23
31.3778788115
  0
SOLID
  8
0
 62
7
  6
CONTINUOUS
 10
362.2309102445
 20
31.345614957
 11
362.1152853548
 21
31.3778788115
 12
362.5777852445
 22
31.3778788115
 13
362.5777852445
 23
31.3778788115
  0
SOLID
  8
0
 62
7
  6
CONTINUOUS
 10
362.5777852445
 20
31.3778788115
 11
362.6355978548
 21
31.3133517213
 12
362.2309102445
 22
31.345614957
 13
362.2309102445
 23
31.345614957
  0
SOLID
  8
0
 62
7
  6
CONTINUOUS
 10
362.3465351343
 20
31.2810878668
 11
362.2309102445
 21
31.345614957
 12
362.6355978548
 22
31.3133517213
 13
362.6355978548
 23
31.3133517213
  0
SOLID
  8
0
 62
7
  6
CONTINUOUS
 10
362.3465351343
 20
31.2810878668
 11
362.6355978548
 21
31.3133517213
 12
362.4043477445
 22
31.1520332377
 13
362.4043477445
 23
31.1520332377
  0
SOLID
  8
0
 62
7
  6
CONTINUOUS
 10
362.6355978548
 20
31.3133517213
 11
362.6934101343
 21
31.1520332377
 12
362.4043477445
 22
31.1520332377
 13
362.4043477445
 23
31.1520332377
  0
SOLID
  8
0
 62
7
  6
CONTINUOUS
 10
361.6527851343
 20
31.3778788115
 11
361.4793477997
 21
31.3133517213
 12
361.3637227445
 22
31.3778788115
 13
361.3637227445
 23
31.3778788115
  0
SOLID
  8
0
 62
7
  6
CONTINUOUS
 10
361.4793477997
 20
31.3133517213
 11
361.3637227445
 21
31.2488235635
 12
361.3637227445
 22
31.3778788115
 13
361.3637227445
 23
31.3778788115
  0
SOLID
  8
0
 62
7
  6
CONTINUOUS
 10
361.3637227445
 20
31.2488235635
 11
361.0746601894
 21
30.5067593033
 12
361.3637227445
 22
31.3778788115
 13
361.3637227445
 23
31.3778788115
  0
SOLID
  8
0
 62
7
  6
CONTINUOUS
 10
361.3637227445
 20
31.3778788115
 11
361.0746601894
 21
30.5067593033
 12
361.3637227445
 22
32.0231527459
 13
361.3637227445
 23
32.0231527459
  0
SOLID
  8
0
 62
7
  6
CONTINUOUS
 10
361.0746601894
 20
30.5067593033
 11
361.0746601894
 21
32.0231527459
 12
361.3637227445
 22
32.0231527459
 13
361.3637227445
 23
32.0231527459
  0
SOLID
  8
0
 62
7
  6
CONTINUOUS
 10
361.3637227445
 20
31.2488235635
 11
361.3637227445
 21
30.5067593033
 12
361.0746601894
 22
30.5067593033
 13
361.0746601894
 23
30.5067593033
  0
SOLID
  8
0
 62
7
  6
CONTINUOUS
 10
362.4043477445
 20
30.5067593033
 11
362.4043477445
 21
31.1520332377
 12
362.6934101343
 22
31.1520332377
 13
362.6934101343
 23
31.1520332377
  0
SOLID
  8
0
 62
7
  6
CONTINUOUS
 10
362.6934101343
 20
31.1520332377
 11
362.6934101343
 21
30.5067593033
 12
362.4043477445
 22
30.5067593033
 13
362.4043477445
 23
30.5067593033
  0
SOLID
  8
0
 62
7
  6
CONTINUOUS
 10
363.4449727445
 20
31.506933758
 11
363.8496603548
 21
31.5391977507
 12
364.1965353548
 22
31.5391977507
 13
364.1965353548
 23
31.5391977507
  0
SOLID
  8
0
 62
7
  6
CONTINUOUS
 10
364.1965353548
 20
31.5391977507
 11
364.543410024
 21
31.506933758
 12
363.4449727445
 22
31.506933758
 13
363.4449727445
 23
31.506933758
  0
SOLID
  8
0
 62
7
  6
CONTINUOUS
 10
363.3293478548
 20
31.4746706537
 11
363.4449727445
 21
31.506933758
 12
364.543410024
 22
31.506933758
 13
364.543410024
 23
31.506933758
  0
SOLID
  8
0
 62
7
  6
CONTINUOUS
 10
364.543410024
 20
31.506933758
 11
364.716847524
 21
31.4424063504
 12
363.3293478548
 22
31.4746706537
 13
363.3293478548
 23
31.4746706537
  0
SOLID
  8
0
 62
7
  6
CONTINUOUS
 10
363.2137226343
 20
31.4101417797
 11
363.3293478548
 21
31.4746706537
 12
364.716847524
 22
31.4424063504
 13
364.716847524
 23
31.4424063504
  0
SOLID
  8
0
 62
7
  6
CONTINUOUS
 10
363.2137226343
 20
31.4101417797
 11
364.716847524
 21
31.4424063504
 12
363.8496603548
 22
31.4101417797
 13
363.8496603548
 23
31.4101417797
  0
SOLID
  8
0
 62
7
  6
CONTINUOUS
 10
363.8496603548
 20
31.4101417797
 11
364.716847524
 21
31.4424063504
 12
364.1965353548
 22
31.4101417797
 13
364.1965353548
 23
31.4101417797
  0
SOLID
  8
0
 62
7
  6
CONTINUOUS
 10
364.1965353548
 20
31.4101417797
 11
364.716847524
 21
31.4424063504
 12
364.4277854651
 22
31.3778793357
 13
364.4277854651
 23
31.3778793357
  0
SOLID
  8
0
 62
7
  6
CONTINUOUS
 10
364.716847524
 20
31.4424063504
 11
364.8324727445
 21
31.3778793357
 12
364.4277854651
 22
31.3778793357
 13
364.4277854651
 23
31.3778793357
  0
SOLID
  8
0
 62
7
  6
CONTINUOUS
 10
363.1559103548
 20
31.3456153429
 11
363.2137226343
 21
31.4101417797
 12
363.8496603548
 22
31.4101417797
 13
363.8496603548
 23
31.4101417797
  0
SOLID
  8
0
 62
7
  6
CONTINUOUS
 10
364.543410024
 20
31.3456153429
 11
364.4277854651
 21
31.3778793357
 12
364.8324727445
 22
31.3778793357
 13
364.8324727445
 23
31.3778793357
  0
SOLID
  8
0
 62
7
  6
CONTINUOUS
 10
364.543410024
 20
31.3456153429
 11
364.8324727445
 21
31.3778793357
 12
364.6012229651
 22
31.2810881318
 13
364.6012229651
 23
31.2810881318
  0
SOLID
  8
0
 62
7
  6
CONTINUOUS
 10
364.8324727445
 20
31.3778793357
 11
364.890285024
 21
31.2810881318
 12
364.6012229651
 22
31.2810881318
 13
364.6012229651
 23
31.2810881318
  0
SOLID
  8
0
 62
7
  6
CONTINUOUS
 10
364.6012229651
 20
31.1842964734
 11
364.6012229651
 21
31.2810881318
 12
364.890285024
 22
31.2810881318
 13
364.890285024
 23
31.2810881318
  0
SOLID
  8
0
 62
7
  6
CONTINUOUS
 10
364.6012229651
 20
31.1842964734
 11
364.890285024
 21
31.2810881318
 12
364.6012229651
 22
31.0552422931
 13
364.6012229651
 23
31.0552422931
  0
SOLID
  8
0
 62
7
  6
CONTINUOUS
 10
364.6012229651
 20
31.0552422931
 11
364.890285024
 21
31.2810881318
 12
364.6012229651
 22
30.8616599362
 13
364.6012229651
 23
30.8616599362
  0
SOLID
  8
0
 62
7
  6
CONTINUOUS
 10
364.890285024
 20
31.2810881318
 11
364.890285024
 21
30.7648681127
 12
364.6012229651
 22
30.8616599362
 13
364.6012229651
 23
30.8616599362
  0
SOLID
  8
0
 62
7
  6
CONTINUOUS
 10
366.798097524
 20
31.5069339419
 11
367.0293479651
 21
31.5391976292
 12
367.2605977445
 22
31.5391976292
 13
367.2605977445
 23
31.5391976292
  0
SOLID
  8
0
 62
7
  6
CONTINUOUS
 10
367.2605977445
 20
31.5391976292
 11
367.4340352445
 21
31.5069339419
 12
366.798097524
 22
31.5069339419
 13
366.798097524
 23
31.5069339419
  0
SOLID
  8
0
 62
7
  6
CONTINUOUS
 10
366.624660024
 20
31.4424065674
 11
366.798097524
 21
31.5069339419
 12
367.4340352445
 22
31.5069339419
 13
367.4340352445
 23
31.5069339419
  0
SOLID
  8
0
 62
7
  6
CONTINUOUS
 10
367.4340352445
 20
31.5069339419
 11
367.6074727445
 21
31.4424065674
 12
366.624660024
 22
31.4424065674
 13
366.624660024
 23
31.4424065674
  0
SOLID
  8
0
 62
7
  6
CONTINUOUS
 10
367.6074727445
 20
31.4424065674
 11
367.0293479651
 21
31.4101420472
 12
366.624660024
 22
31.4424065674
 13
366.624660024
 23
31.4424065674
  0
SOLID
  8
0
 62
7
  6
CONTINUOUS
 10
366.5090354651
 20
31.377879193
 11
366.624660024
 21
31.4424065674
 12
367.0293479651
 22
31.4101420472
 13
367.0293479651
 23
31.4101420472
  0
SOLID
  8
0
 62
7
  6
CONTINUOUS
 10
367.0293479651
 20
31.4101420472
 11
366.798097524
 21
31.377879193
 12
366.5090354651
 22
31.377879193
 13
366.5090354651
 23
31.377879193
  0
SOLID
  8
0
 62
7
  6
CONTINUOUS
 10
367.0293479651
 20
31.4101420472
 11
367.6074727445
 21
31.4424065674
 12
367.2605977445
 22
31.377879193
 13
367.2605977445
 23
31.377879193
  0
SOLID
  8
0
 62
7
  6
CONTINUOUS
 10
367.6074727445
 20
31.4424065674
 11
367.7230979651
 21
31.377879193
 12
367.2605977445
 22
31.377879193
 13
367.2605977445
 23
31.377879193
  0
SOLID
  8
0
 62
7
  6
CONTINUOUS
 10
367.3762229651
 20
31.345614957
 11
367.2605977445
 21
31.377879193
 12
367.7230979651
 22
31.377879193
 13
367.7230979651
 23
31.377879193
  0
SOLID
  8
0
 62
7
  6
CONTINUOUS
 10
367.3762229651
 20
31.345614957
 11
367.7230979651
 21
31.377879193
 12
367.491847524
 22
31.2810881312
 13
367.491847524
 23
31.2810881312
  0
SOLID
  8
0
 62
7
  6
CONTINUOUS
 10
367.7230979651
 20
31.377879193
 11
367.7809102445
 21
31.2810881312
 12
367.491847524
 22
31.2810881312
 13
367.491847524
 23
31.2810881312
  0
SOLID
  8
0
 62
7
  6
CONTINUOUS
 10
367.5496604651
 20
31.119769695
 11
367.491847524
 21
31.2810881312
 12
367.7809102445
 22
31.2810881312
 13
367.7809102445
 23
31.2810881312
  0
SOLID
  8
0
 62
7
  6
CONTINUOUS
 10
367.7809102445
 20
31.2810881312
 11
367.838722524
 21
31.119769695
 12
367.5496604651
 22
31.119769695
 13
367.5496604651
 23
31.119769695
  0
SOLID
  8
0
 62
7
  6
CONTINUOUS
 10
366.798097524
 20
31.377879193
 11
366.624660024
 21
31.3133521701
 12
366.5090354651
 22
31.377879193
 13
366.5090354651
 23
31.377879193
  0
SOLID
  8
0
 62
7
  6
CONTINUOUS
 10
366.624660024
 20
31.3133521701
 11
366.5090354651
 21
31.2488235635
 12
366.5090354651
 22
31.377879193
 13
366.5090354651
 23
31.377879193
  0
SOLID
  8
0
 62
7
  6
CONTINUOUS
 10
366.5090354651
 20
31.2488235635
 11
366.2199727445
 21
30.5067596374
 12
366.5090354651
 22
31.377879193
 13
366.5090354651
 23
31.377879193
  0
SOLID
  8
0
 62
7
  6
CONTINUOUS
 10
366.5090354651
 20
31.377879193
 11
366.2199727445
 21
30.5067596374
 12
366.5090354651
 22
31.5391976292
 13
366.5090354651
 23
31.5391976292
  0
SOLID
  8
0
 62
7
  6
CONTINUOUS
 10
366.2199727445
 20
30.5067596374
 11
366.2199727445
 21
31.5391976292
 12
366.5090354651
 22
31.5391976292
 13
366.5090354651
 23
31.5391976292
  0
SOLID
  8
0
 62
7
  6
CONTINUOUS
 10
366.5090354651
 20
31.2488235635
 11
366.5090354651
 21
30.5067596374
 12
366.2199727445
 22
30.5067596374
 13
366.2199727445
 23
30.5067596374
  0
SOLID
  8
0
 62
7
  6
CONTINUOUS
 10
367.5496604651
 20
30.5067596374
 11
367.5496604651
 21
31.119769695
 12
367.838722524
 22
31.119769695
 13
367.838722524
 23
31.119769695
  0
SOLID
  8
0
 62
7
  6
CONTINUOUS
 10
367.838722524
 20
31.119769695
 11
367.838722524
 21
30.5067596374
 12
367.5496604651
 22
30.5067596374
 13
367.5496604651
 23
30.5067596374
  0
SOLID
  8
0
 62
7
  6
CONTINUOUS
 10
368.6480977445
 20
31.5069334157
 11
368.9949727445
 21
31.539197762
 12
369.3418477445
 22
31.539197762
 13
369.3418477445
 23
31.539197762
  0
SOLID
  8
0
 62
7
  6
CONTINUOUS
 10
369.3418477445
 20
31.539197762
 11
369.6887227445
 21
31.5069334157
 12
368.6480977445
 22
31.5069334157
 13
368.6480977445
 23
31.5069334157
  0
SOLID
  8
0
 62
7
  6
CONTINUOUS
 10
368.4168479651
 20
31.4424063504
 11
368.6480977445
 21
31.5069334157
 12
369.6887227445
 22
31.5069334157
 13
369.6887227445
 23
31.5069334157
  0
SOLID
  8
0
 62
7
  6
CONTINUOUS
 10
368.4168479651
 20
31.4424063504
 11
369.6887227445
 21
31.5069334406
 12
369.8621602445
 22
31.4746706537
 13
369.8621602445
 23
31.4746706537
  0
SOLID
  8
0
 62
7
  6
CONTINUOUS
 10
368.4168479651
 20
31.4424063504
 11
369.8621602445
 21
31.4746706537
 12
368.9949727445
 22
31.4101421267
 13
368.9949727445
 23
31.4101421267
  0
SOLID
  8
0
 62
7
  6
CONTINUOUS
 10
368.9949727445
 20
31.4101421267
 11
369.8621602445
 21
31.4746706537
 12
369.3418477445
 22
31.4101421267
 13
369.3418477445
 23
31.4101421267
  0
SOLID
  8
0
 62
7
  6
CONTINUOUS
 10
369.8621602445
 20
31.4746706537
 11
370.0355977445
 21
31.4101421267
 12
369.3418477445
 22
31.4101421267
 13
369.3418477445
 23
31.4101421267
  0
SOLID
  8
0
 62
7
  6
CONTINUOUS
 10
369.6887227445
 20
31.3778792603
 11
369.3418477445
 21
31.4101421267
 12
370.0355977445
 22
31.4101421267
 13
370.0355977445
 23
31.4101421267
  0
SOLID
  8
0
 62
7
  6
CONTINUOUS
 10
368.3012227445
 20
31.3456148845
 11
368.4168479651
 21
31.4424063504
 12
368.9949727445
 22
31.4101421267
 13
368.9949727445
 23
31.4101421267
  0
SOLID
  8
0
 62
7
  6
CONTINUOUS
 10
369.6887227445
 20
31.3778792603
 11
370.0355977445
 21
31.4101421267
 12
369.8043479651
 22
31.3456148845
 13
369.8043479651
 23
31.3456148845
  0
SOLID
  8
0
 62
7
  6
CONTINUOUS
 10
369.8043479651
 20
31.3456148845
 11
370.0355977445
 21
31.4101421267
 12
369.8621602445
 22
31.281087868
 13
369.8621602445
 23
31.281087868
  0
SOLID
  8
0
 62
7
  6
CONTINUOUS
 10
370.0355977445
 20
31.4101421267
 11
370.1512223035
 21
31.281087868
 12
369.8621602445
 22
31.281087868
 13
369.8621602445
 23
31.281087868
  0
SOLID
  8
0
 62
7
  6
CONTINUOUS
 10
359.4559102445
 20
31.3778792603
 11
358.9355977445
 21
31.3456148963
 12
359.6871602721
 22
31.4101421155
 13
359.6871602721
 23
31.4101421155
  0
SOLID
  8
0
 62
7
  6
CONTINUOUS
 10
358.9355977445
 20
31.3456148963
 11
359.0512227376
 21
31.4101421155
 12
359.6871602721
 22
31.4101421155
 13
359.6871602721
 23
31.4101421155
  0
SOLID
  8
0
 62
7
  6
CONTINUOUS
 10
359.4559102445
 20
31.3778792603
 11
359.3402852307
 21
31.3456148963
 12
358.9355977445
 22
31.3456148963
 13
358.9355977445
 23
31.3456148963
  0
SOLID
  8
0
 62
7
  6
CONTINUOUS
 10
358.8199727462
 20
31.2165607767
 11
358.9355977445
 21
31.3456148963
 12
359.3402852307
 22
31.3456148963
 13
359.3402852307
 23
31.3456148963
  0
SOLID
  8
0
 62
7
  6
CONTINUOUS
 10
363.1559103548
 20
31.3456149608
 11
363.8496603548
 21
31.4101420472
 12
363.6184102445
 22
31.3778792603
 13
363.6184102445
 23
31.3778792603
  0
SOLID
  8
0
 62
7
  6
CONTINUOUS
 10
363.6184102445
 20
31.3778792603
 11
363.5027853548
 21
31.3456149608
 12
363.1559103548
 22
31.3456149608
 13
363.1559103548
 23
31.3456149608
  0
SOLID
  8
0
 62
7
  6
CONTINUOUS
 10
363.1559103548
 20
31.2810878707
 11
363.1559103548
 21
31.3456149608
 12
363.5027853548
 22
31.3456149608
 13
363.5027853548
 23
31.3456149608
  0
SOLID
  8
0
 62
7
  6
CONTINUOUS
 10
363.5027853548
 20
31.3456149608
 11
363.4449727445
 21
31.2810878707
 12
363.1559103548
 22
31.2810878707
 13
363.1559103548
 23
31.2810878707
  0
SOLID
  8
0
 62
7
  6
CONTINUOUS
 10
368.3012227445
 20
31.3456149608
 11
368.9949727445
 21
31.4101420472
 12
368.7637229651
 22
31.3778792603
 13
368.7637229651
 23
31.3778792603
  0
SOLID
  8
0
 62
7
  6
CONTINUOUS
 10
368.7637229651
 20
31.3778792603
 11
368.6480977445
 21
31.3456149608
 12
368.3012227445
 22
31.3456149608
 13
368.3012227445
 23
31.3456149608
  0
SOLID
  8
0
 62
7
  6
CONTINUOUS
 10
368.3012227445
 20
31.2810878707
 11
368.3012227445
 21
31.3456149608
 12
368.6480977445
 22
31.3456149608
 13
368.6480977445
 23
31.3456149608
  0
SOLID
  8
0
 62
7
  6
CONTINUOUS
 10
368.6480977445
 20
31.3456149608
 11
368.5902854651
 21
31.2810878707
 12
368.3012227445
 22
31.2810878707
 13
368.3012227445
 23
31.2810878707
  0
SOLID
  8
0
 62
7
  6
CONTINUOUS
 10
368.4168479651
 20
31.1520336865
 11
368.3012227445
 21
31.2810878707
 12
368.5902854651
 22
31.2810878707
 13
368.5902854651
 23
31.2810878707
  0
SOLID
  8
0
 62
7
  6
CONTINUOUS
 10
358.8199727462
 20
31.2165607767
 11
359.3402852307
 21
31.345614957
 12
359.1668477307
 22
31.2488235635
 13
359.1668477307
 23
31.2488235635
  0
SOLID
  8
0
 62
7
  6
CONTINUOUS
 10
359.1668477307
 20
31.2488235635
 11
359.1090352445
 21
31.1842964734
 12
358.8199727462
 22
31.2165607767
 13
358.8199727462
 23
31.2165607767
  0
SOLID
  8
0
 62
7
  6
CONTINUOUS
 10
358.7621602445
 20
31.0229779898
 11
358.8199727462
 21
31.2165607767
 12
359.1090352445
 22
31.1842964734
 13
359.1090352445
 23
31.1842964734
  0
SOLID
  8
0
 62
7
  6
CONTINUOUS
 10
363.6184102445
 20
31.1520336865
 11
363.9652852445
 21
31.1842964611
 12
364.6012229651
 22
31.1842964611
 13
364.6012229651
 23
31.1842964611
  0
SOLID
  8
0
 62
7
  6
CONTINUOUS
 10
363.6184102445
 20
31.1520336865
 11
364.6012229651
 21
31.1842964611
 12
363.3871601343
 22
31.0875057863
 13
363.3871601343
 23
31.0875057863
  0
SOLID
  8
0
 62
7
  6
CONTINUOUS
 10
363.3871601343
 20
31.0875057863
 11
364.6012229651
 21
31.1842964611
 12
363.9652852445
 22
31.0552422808
 13
363.9652852445
 23
31.0552422808
  0
SOLID
  8
0
 62
7
  6
CONTINUOUS
 10
364.6012229651
 20
31.1842964611
 11
364.6012229651
 21
31.0552422808
 12
363.9652852445
 22
31.0552422808
 13
363.9652852445
 23
31.0552422808
  0
SOLID
  8
0
 62
7
  6
CONTINUOUS
 10
368.4168479651
 20
31.1520338754
 11
368.5902854651
 21
31.2810878668
 12
368.6480977445
 22
31.2165607767
 13
368.6480977445
 23
31.2165607767
  0
SOLID
  8
0
 62
7
  6
CONTINUOUS
 10
368.6480977445
 20
31.2165607767
 11
368.8215352445
 21
31.1520338754
 12
368.4168479651
 22
31.1520338754
 13
368.4168479651
 23
31.1520338754
  0
SOLID
  8
0
 62
7
  6
CONTINUOUS
 10
368.6480977445
 20
31.0552422931
 11
368.4168479651
 21
31.1520338754
 12
368.8215352445
 22
31.1520338754
 13
368.8215352445
 23
31.1520338754
  0
SOLID
  8
0
 62
7
  6
CONTINUOUS
 10
368.8215352445
 20
31.1520338754
 11
369.8043479651
 21
30.9907152029
 12
368.6480977445
 22
31.0552422931
 13
368.6480977445
 23
31.0552422931
  0
SOLID
  8
0
 62
7
  6
CONTINUOUS
 10
369.6309104651
 20
30.8939239876
 11
368.6480977445
 21
31.0552422931
 12
369.8043479651
 22
30.9907152029
 13
369.8043479651
 23
30.9907152029
  0
SOLID
  8
0
 62
7
  6
CONTINUOUS
 10
369.8043479651
 20
30.9907152029
 11
370.0355977445
 21
30.8939239876
 12
369.6309104651
 22
30.8939239876
 13
369.6309104651
 23
30.8939239876
  0
SOLID
  8
0
 62
7
  6
CONTINUOUS
 10
369.8043479651
 20
30.8293967193
 11
369.6309104651
 21
30.8939239876
 12
370.0355977445
 22
30.8939239876
 13
370.0355977445
 23
30.8939239876
  0
SOLID
  8
0
 62
7
  6
CONTINUOUS
 10
369.8043479651
 20
30.8293967193
 11
370.0355977445
 21
30.8939239876
 12
369.8621602445
 22
30.7648682694
 13
369.8621602445
 23
30.7648682694
  0
SOLID
  8
0
 62
7
  6
CONTINUOUS
 10
370.0355977445
 20
30.8939239876
 11
370.1512223035
 21
30.7648682694
 12
369.8621602445
 22
30.7648682694
 13
369.8621602445
 23
30.7648682694
  0
SOLID
  8
0
 62
7
  6
CONTINUOUS
 10
369.8043479651
 20
30.7003411846
 11
369.8621602445
 21
30.7648682694
 12
370.1512223035
 22
30.7648682694
 13
370.1512223035
 23
30.7648682694
  0
SOLID
  8
0
 62
7
  6
CONTINUOUS
 10
370.1512223035
 20
30.7648682694
 11
370.1512223035
 21
30.7003411846
 12
369.8043479651
 22
30.7003411846
 13
369.8043479651
 23
30.7003411846
  0
SOLID
  8
0
 62
7
  6
CONTINUOUS
 10
369.6887227445
 20
30.6680782357
 11
369.8043479651
 21
30.7003411846
 12
370.1512223035
 22
30.7003411846
 13
370.1512223035
 23
30.7003411846
  0
SOLID
  8
0
 62
7
  6
CONTINUOUS
 10
369.6887227445
 20
30.6680782357
 11
370.1512223035
 21
30.7003411846
 12
369.4574729651
 22
30.6358140998
 13
369.4574729651
 23
30.6358140998
  0
SOLID
  8
0
 62
7
  6
CONTINUOUS
 10
370.1512223035
 20
30.7003411846
 11
370.0355977445
 21
30.6035511455
 12
369.4574729651
 22
30.6358140998
 13
369.4574729651
 23
30.6358140998
  0
SOLID
  8
0
 62
7
  6
CONTINUOUS
 10
370.0355977445
 20
30.6035511455
 11
368.5902854651
 21
30.5712868422
 12
369.4574729651
 22
30.6358140998
 13
369.4574729651
 23
30.6358140998
  0
SOLID
  8
0
 62
7
  6
CONTINUOUS
 10
369.4574729651
 20
30.6358140998
 11
368.5902854651
 21
30.5712868422
 12
369.1105979651
 22
30.6358140998
 13
369.1105979651
 23
30.6358140998
  0
SOLID
  8
0
 62
7
  6
CONTINUOUS
 10
368.5902854651
 20
30.5712868422
 11
368.4168479651
 21
30.6358140998
 12
369.1105979651
 22
30.6358140998
 13
369.1105979651
 23
30.6358140998
  0
SOLID
  8
0
 62
7
  6
CONTINUOUS
 10
368.5902854651
 20
30.5712868422
 11
370.0355977445
 21
30.6035511455
 12
368.7637229651
 22
30.5390223111
 13
368.7637229651
 23
30.5390223111
  0
SOLID
  8
0
 62
7
  6
CONTINUOUS
 10
370.0355977445
 20
30.6035511455
 11
369.8043479651
 21
30.5390223111
 12
368.7637229651
 22
30.5390223111
 13
368.7637229651
 23
30.5390223111
  0
SOLID
  8
0
 62
7
  6
CONTINUOUS
 10
369.1105979651
 20
30.5067599302
 11
368.7637229651
 21
30.5390223111
 12
369.8043479651
 22
30.5390223111
 13
369.8043479651
 23
30.5390223111
  0
SOLID
  8
0
 62
7
  6
CONTINUOUS
 10
369.8043479651
 20
30.5390223111
 11
369.4574729651
 21
30.5067599302
 12
369.1105979651
 22
30.5067599302
 13
369.1105979651
 23
30.5067599302
  0
SOLID
  8
0
 62
7
  6
CONTINUOUS
 10
358.7621602445
 20
31.0229779898
 11
359.1090352445
 21
31.1842964734
 12
359.0512227376
 22
31.0552422931
 13
359.0512227376
 23
31.0552422931
  0
SOLID
  8
0
 62
7
  6
CONTINUOUS
 10
359.0512227376
 20
31.0552422931
 11
359.0512227376
 21
30.9584509954
 12
358.7621602445
 22
31.0229779898
 13
358.7621602445
 23
31.0229779898
  0
SOLID
  8
0
 62
7
  6
CONTINUOUS
 10
358.8199727462
 20
30.8293967193
 11
358.7621602445
 21
31.0229779898
 12
359.0512227376
 22
30.9584509954
 13
359.0512227376
 23
30.9584509954
  0
SOLID
  8
0
 62
7
  6
CONTINUOUS
 10
359.0512227376
 20
30.9584509954
 11
359.1668477307
 21
30.797132416
 12
358.8199727462
 22
30.8293967193
 13
358.8199727462
 23
30.8293967193
  0
SOLID
  8
0
 62
7
  6
CONTINUOUS
 10
358.9355977445
 20
30.7003413087
 11
358.8199727462
 21
30.8293967193
 12
359.1668477307
 22
30.797132416
 13
359.1668477307
 23
30.797132416
  0
SOLID
  8
0
 62
7
  6
CONTINUOUS
 10
359.1668477307
 20
30.797132416
 11
359.3402852307
 21
30.7003413087
 12
358.9355977445
 22
30.7003413087
 13
358.9355977445
 23
30.7003413087
  0
SOLID
  8
0
 62
7
  6
CONTINUOUS
 10
359.0512227376
 20
30.6358140759
 11
358.9355977445
 21
30.7003413087
 12
359.3402852307
 22
30.7003413087
 13
359.3402852307
 23
30.7003413087
  0
SOLID
  8
0
 62
7
  6
CONTINUOUS
 10
359.3402852307
 20
30.7003413087
 11
359.6871602721
 21
30.6358140759
 12
359.0512227376
 22
30.6358140759
 13
359.0512227376
 23
30.6358140759
  0
SOLID
  8
0
 62
7
  6
CONTINUOUS
 10
359.2246602583
 20
30.5712868422
 11
359.0512227376
 21
30.6358140759
 12
359.6871602721
 22
30.6358140759
 13
359.6871602721
 23
30.6358140759
  0
SOLID
  8
0
 62
7
  6
CONTINUOUS
 10
363.2715352445
 20
31.0229779808
 11
363.3871601343
 21
31.0875057863
 12
363.9652852445
 22
31.0552422931
 13
363.9652852445
 23
31.0552422931
  0
SOLID
  8
0
 62
7
  6
CONTINUOUS
 10
363.9652852445
 20
31.0552422931
 11
363.7340351343
 21
31.0229779808
 12
363.2715352445
 22
31.0229779808
 13
363.2715352445
 23
31.0229779808
  0
SOLID
  8
0
 62
7
  6
CONTINUOUS
 10
363.1559103548
 20
30.8939238094
 11
363.2715352445
 21
31.0229779808
 12
363.7340351343
 22
31.0229779808
 13
363.7340351343
 23
31.0229779808
  0
SOLID
  8
0
 62
7
  6
CONTINUOUS
 10
363.5027853548
 20
30.926187309
 11
363.1559103548
 21
30.8939238094
 12
363.6184102445
 22
30.9907152029
 13
363.6184102445
 23
30.9907152029
  0
SOLID
  8
0
 62
7
  6
CONTINUOUS
 10
363.1559103548
 20
30.8939238094
 11
363.7340351343
 21
31.0229779898
 12
363.6184102445
 22
30.9907152029
 13
363.6184102445
 23
30.9907152029
  0
SOLID
  8
0
 62
7
  6
CONTINUOUS
 10
363.5027853548
 20
30.926187309
 11
363.4449727445
 21
30.8293967193
 12
363.1559103548
 22
30.8939238094
 13
363.1559103548
 23
30.8939238094
  0
SOLID
  8
0
 62
7
  6
CONTINUOUS
 10
363.1559103548
 20
30.797132416
 11
363.1559103548
 21
30.8939238094
 12
363.4449727445
 22
30.8293967193
 13
363.4449727445
 23
30.8293967193
  0
SOLID
  8
0
 62
7
  6
CONTINUOUS
 10
363.4449727445
 20
30.8293967193
 11
363.4449727445
 21
30.7648681127
 12
363.1559103548
 22
30.797132416
 13
363.1559103548
 23
30.797132416
  0
SOLID
  8
0
 62
7
  6
CONTINUOUS
 10
363.2137226343
 20
30.6680782357
 11
363.1559103548
 21
30.797132416
 12
363.4449727445
 22
30.7648681127
 13
363.4449727445
 23
30.7648681127
  0
SOLID
  8
0
 62
7
  6
CONTINUOUS
 10
364.6012229651
 20
30.8616599362
 11
364.890285024
 21
30.7648681127
 12
364.543410024
 22
30.797132416
 13
364.543410024
 23
30.797132416
  0
SOLID
  8
0
 62
7
  6
CONTINUOUS
 10
364.369972524
 20
30.7003410226
 11
364.543410024
 21
30.797132416
 12
364.890285024
 22
30.7648681127
 13
364.890285024
 23
30.7648681127
  0
SOLID
  8
0
 62
7
  6
CONTINUOUS
 10
364.369972524
 20
30.7003410226
 11
364.890285024
 21
30.7648681127
 12
364.6012229651
 22
30.6680782357
 13
364.6012229651
 23
30.6680782357
  0
SOLID
  8
0
 62
7
  6
CONTINUOUS
 10
364.890285024
 20
30.7648681127
 11
364.9480979651
 21
30.6035511455
 12
364.6012229651
 22
30.6680782357
 13
364.6012229651
 23
30.6680782357
  0
SOLID
  8
0
 62
7
  6
CONTINUOUS
 10
364.6590352445
 20
30.5712868422
 11
364.6012229651
 21
30.6680782357
 12
364.9480979651
 22
30.6035511455
 13
364.9480979651
 23
30.6035511455
  0
SOLID
  8
0
 62
7
  6
CONTINUOUS
 10
364.6590352445
 20
30.5712868422
 11
364.9480979651
 21
30.6035511455
 12
364.716847524
 22
30.5067598731
 13
364.716847524
 23
30.5067598731
  0
SOLID
  8
0
 62
7
  6
CONTINUOUS
 10
364.9480979651
 20
30.6035511455
 11
365.0059102445
 21
30.5067598731
 12
364.716847524
 22
30.5067598731
 13
364.716847524
 23
30.5067598731
  0
SOLID
  8
0
 62
7
  6
CONTINUOUS
 10
360.2652852997
 20
30.7326051679
 11
360.3230977445
 21
30.8293966612
 12
360.6121602997
 22
30.8293966612
 13
360.6121602997
 23
30.8293966612
  0
SOLID
  8
0
 62
7
  6
CONTINUOUS
 10
360.6121602997
 20
30.8293966612
 11
360.5543476894
 21
30.7003410226
 12
360.2652852997
 22
30.7326051679
 13
360.2652852997
 23
30.7326051679
  0
SOLID
  8
0
 62
7
  6
CONTINUOUS
 10
360.091847717
 20
30.6680782357
 11
360.2652852997
 21
30.7326051679
 12
360.5543476894
 22
30.7003410226
 13
360.5543476894
 23
30.7003410226
  0
SOLID
  8
0
 62
7
  6
CONTINUOUS
 10
360.091847717
 20
30.6680782357
 11
360.5543476894
 21
30.7003410226
 12
359.6871602721
 22
30.6358139324
 13
359.6871602721
 23
30.6358139324
  0
SOLID
  8
0
 62
7
  6
CONTINUOUS
 10
360.5543476894
 20
30.7003410226
 11
360.3809101894
 21
30.6035511455
 12
359.6871602721
 22
30.6358139324
 13
359.6871602721
 23
30.6358139324
  0
SOLID
  8
0
 62
7
  6
CONTINUOUS
 10
359.2246602583
 20
30.5712868422
 11
359.6871602721
 21
30.6358139324
 12
360.3809101894
 22
30.6035511455
 13
360.3809101894
 23
30.6035511455
  0
SOLID
  8
0
 62
7
  6
CONTINUOUS
 10
359.2246602583
 20
30.5712868422
 11
360.3809101894
 21
30.6035511455
 12
359.3980977583
 22
30.5390224228
 13
359.3980977583
 23
30.5390224228
  0
SOLID
  8
0
 62
7
  6
CONTINUOUS
 10
360.3809101894
 20
30.6035511455
 11
360.1496602445
 21
30.5390224228
 12
359.3980977583
 22
30.5390224228
 13
359.3980977583
 23
30.5390224228
  0
SOLID
  8
0
 62
7
  6
CONTINUOUS
 10
359.744972717
 20
30.5067597521
 11
359.3980977583
 21
30.5390224228
 12
360.1496602445
 22
30.5390224228
 13
360.1496602445
 23
30.5390224228
  0
SOLID
  8
0
 62
7
  6
CONTINUOUS
 10
363.2137226343
 20
30.6680782357
 11
363.4449727445
 21
30.7648681127
 12
363.5027853548
 22
30.7003410226
 13
363.5027853548
 23
30.7003410226
  0
SOLID
  8
0
 62
7
  6
CONTINUOUS
 10
363.5027853548
 20
30.7003410226
 11
363.7340351343
 21
30.6358139324
 12
363.2137226343
 22
30.6680782357
 13
363.2137226343
 23
30.6680782357
  0
SOLID
  8
0
 62
7
  6
CONTINUOUS
 10
363.3871601343
 20
30.5712868422
 11
363.2137226343
 21
30.6680782357
 12
363.7340351343
 22
30.6358139324
 13
363.7340351343
 23
30.6358139324
  0
SOLID
  8
0
 62
7
  6
CONTINUOUS
 10
364.0809101343
 20
30.6358139363
 11
364.369972524
 21
30.7003410226
 12
364.6012229651
 22
30.6680782357
 13
364.6012229651
 23
30.6680782357
  0
SOLID
  8
0
 62
7
  6
CONTINUOUS
 10
364.6012229651
 20
30.6680782357
 11
364.543410024
 21
30.6035511455
 12
364.0809101343
 22
30.6358139363
 13
364.0809101343
 23
30.6358139363
  0
SOLID
  8
0
 62
7
  6
CONTINUOUS
 10
364.543410024
 20
30.6035511455
 11
363.3871601343
 21
30.5712868422
 12
364.0809101343
 22
30.6358139363
 13
364.0809101343
 23
30.6358139363
  0
SOLID
  8
0
 62
7
  6
CONTINUOUS
 10
363.3871601343
 20
30.5712868422
 11
363.7340351343
 21
30.6358139363
 12
364.0809101343
 22
30.6358139363
 13
364.0809101343
 23
30.6358139363
  0
SOLID
  8
0
 62
7
  6
CONTINUOUS
 10
363.3871601343
 20
30.5712868422
 11
364.543410024
 21
30.6035511455
 12
363.5027853548
 22
30.5390225267
 13
363.5027853548
 23
30.5390225267
  0
SOLID
  8
0
 62
7
  6
CONTINUOUS
 10
364.543410024
 20
30.6035511455
 11
364.369972524
 21
30.5390225267
 12
363.5027853548
 22
30.5390225267
 13
363.5027853548
 23
30.5390225267
  0
SOLID
  8
0
 62
7
  6
CONTINUOUS
 10
363.7340351343
 20
30.5067596914
 11
363.5027853548
 21
30.5390225267
 12
364.369972524
 22
30.5390225267
 13
364.369972524
 23
30.5390225267
  0
SOLID
  8
0
 62
7
  6
CONTINUOUS
 10
364.369972524
 20
30.5390225267
 11
364.0809101343
 21
30.5067596914
 12
363.7340351343
 22
30.5067596914
 13
363.7340351343
 23
30.5067596914
  0
SOLID
  8
0
 62
7
  6
CONTINUOUS
 10
368.7637229651
 20
30.6680782357
 11
368.4168479651
 21
30.6358138717
 12
368.6480977445
 22
30.7003410226
 13
368.6480977445
 23
30.7003410226
  0
SOLID
  8
0
 62
7
  6
CONTINUOUS
 10
368.6480977445
 20
30.7003410226
 11
368.4168479651
 21
30.6358138717
 12
368.5902854651
 22
30.7648680521
 13
368.5902854651
 23
30.7648680521
  0
SOLID
  8
0
 62
7
  6
CONTINUOUS
 10
368.4168479651
 20
30.6358138717
 11
368.3012227445
 21
30.7648680521
 12
368.5902854651
 22
30.7648680521
 13
368.5902854651
 23
30.7648680521
  0
SOLID
  8
0
 62
7
  6
CONTINUOUS
 10
368.7637229651
 20
30.6680782357
 11
369.1105979651
 21
30.6358138717
 12
368.4168479651
 22
30.6358138717
 13
368.4168479651
 23
30.6358138717
  0
SOLID
  8
0
 62
7
  6
CONTINUOUS
 10
365.4684104651
 20
30.5067597521
 11
365.4684104651
 21
31.5391977439
 12
365.757472524
 22
30.5067597521
 13
365.757472524
 23
31.5391977439
  0
ENDBLK
  8
0
  6
BYBLOCK
 62
0
  0
BLOCK
  8
0
 62
2
  6
CONTINUOUS
  2
AMMEAAL_LOGO_BL0
 70
64
 10
240.8592468615
 20
19.762288695
  0
TEXT
  8
0
 62
7
  6
CONTINUOUS
 10
227.1239507038
 20
19.1357028027
  7
TEXTSTYLE_3
 40
2.7338706658
  1
Ammeraal Beltech
 41
1.0
 51
15.0
 72
0
  0
TEXT
  8
0
 62
7
  6
CONTINUOUS
 10
237.9247515296
 20
16.8621661299
  7
TEXTSTYLE_4
 40
1.0935482663
  1
Innovation & Service in Belting
 41
1.0
 72
0
  0
LINE
  8
0
 62
7
  6
CONTINUOUS
 10
221.0994100525
 20
19.9022961113
 11
221.8775620458
 21
23.5632134089
  0
LINE
  8
0
 62
7
  6
CONTINUOUS
 10
231.9727303357
 20
27.2266073205
 11
222.3653797889
 21
24.1049898993
  0
LINE
  8
0
 62
7
  6
CONTINUOUS
 10
221.3246933848
 20
19.2089453082
 11
228.8317686459
 21
12.4495443822
  0
LINE
  8
0
 62
7
  6
CONTINUOUS
 10
221.5872277955
 20
20.4440726016
 11
232.3954971607
 21
23.9558922005
  0
LINE
  8
0
 62
7
  6
CONTINUOUS
 10
232.3912920235
 20
13.6061036368
 11
223.9458323548
 21
21.2104296785
  0
LINE
  8
0
 62
7
  6
CONTINUOUS
 10
232.9111147433
 20
26.3816822048
 11
231.9345552061
 21
21.7873308023
  0
LINE
  8
0
 62
7
  6
CONTINUOUS
 10
231.2347532584
 20
18.4950214885
 11
230.5483050469
 21
15.2655365641
  0
LINE
  8
0
 62
7
  6
CONTINUOUS
 10
233.5922108419
 20
13.9963058145
 11
234.5484423775
 21
18.4950214885
  0
LINE
  8
0
 62
7
  6
CONTINUOUS
 10
235.2482443252
 20
21.7873308023
 11
235.6924861276
 21
23.8773241617
  0
LINE
  8
0
 62
7
  6
CONTINUOUS
 10
229.5448697213
 20
12.2979700695
 11
233.1043930989
 21
13.4545293241
  0
LINE
  8
0
 62
7
  6
CONTINUOUS
 10
232.685831411
 20
27.0750330078
 11
235.4672027953
 21
24.5706749648
  0
ARC
  8
0
 62
7
  6
CONTINUOUS
 10
222.5906631212
 20
23.4116390962
 40
0.7290321776
 50
108.0
 51
168.0
  0
ARC
  8
0
 62
7
  6
CONTINUOUS
 10
232.198013668
 20
26.5332565175
 40
0.7290321776
 50
348.0
 51
108.0
  0
ARC
  8
0
 62
7
  6
CONTINUOUS
 10
234.9793850522
 20
24.0288984744
 40
0.7290321776
 50
348.0
 51
48.0
  0
ARC
  8
0
 62
7
  6
CONTINUOUS
 10
229.319586389
 20
12.9913208726
 40
0.7290321776
 50
228.0
 51
288.0
  0
ARC
  8
0
 62
7
  6
CONTINUOUS
 10
221.8125111278
 20
19.7507217986
 40
0.7290321776
 50
108.0
 51
228.0
  0
ARC
  8
0
 62
7
  6
CONTINUOUS
 10
232.8791097665
 20
14.1478801272
 40
0.7290321776
 50
228.0
 51
348.0
  0
ENDBLK
  8
0
  6
BYBLOCK
 62
0
  0
ENDSEC
  0
SECTION
  2
ENTITIES
  0
TEXT
  8
0
 62
5
  6
CONTINUOUS
 10
304.937007874
 20
25.636
  7
TEXTSTYLE_2
 40
2.8
  1
Scale :
 41
0.6
 51
0.000019
 72
0
  0
TEXT
  8
0
 62
5
  6
CONTINUOUS
 10
324.937007874
 20
25.636
  7
TEXTSTYLE_2
 40
2.8
  1
Belt type:
 41
0.6
 51
0.000019
 72
0
  0
INSERT
  8
0
 62
2
  6
CONTINUOUS
  2
AMMEAAL_LOGO_BL0
 10
240.8592468615
 20
19.762288695
  0
INSERT
  8
0
 62
2
  6
CONTINUOUS
  2
UNI_LOGO2_BL1
 10
382.7840918555
 20
35.5067593403
  0
LINE
  8
0
 62
2
  6
CONTINUOUS
 10
218.937007874
 20
30.0
 11
408.937007874
 21
30.0
  0
LINE
  8
0
 62
2
  6
CONTINUOUS
 10
218.937007874
 20
30.0
 11
218.937007874
 21
10.0
  0
LINE
  8
0
 62
2
  6
CONTINUOUS
 10
218.937007874
 20
10.0
 11
408.937007874
 21
10.0
  0
LINE
  8
0
 62
2
  6
CONTINUOUS
 10
303.937007874
 20
30.0
 11
303.937007874
 21
10.0
  0
LINE
  8
0
 62
2
  6
CONTINUOUS
 10
323.937007874
 20
30.0
 11
323.937007874
 21
10.0
  0
LINE
  8
0
 62
2
  6
CONTINUOUS
 10
408.937007874
 20
30.0
 11
408.937007874
 21
10.0
  0
TEXT
  8
0
 62
5
  6
CONTINUOUS
 10
221.937007874
 20
23.303
  7
TEXTSTYLE_5
 40
1.52
  1
                                                                     Ammeraal Beltech Modular A/S
 41
1.0
 72
0
  0
TEXT
  8
0
 62
5
  6
CONTINUOUS
 10
221.937007874
 20
20.595
  7
TEXTSTYLE_5
 40
1.5
  1
                                                                      Hjulmagervej 21, 7100 Vejle,  DK
 41
1.0
 72
0
  0
TEXT
  8
0
 62
5
  6
CONTINUOUS
 10
221.937007874
 20
17.881
  7
TEXTSTYLE_5
 40
1.495
  1
                                                                      tel: 
 41
1.0
 72
0
  0
TEXT
  8
0
 62
5
  6
CONTINUOUS
 10
266.9239544389
 20
17.881
  7
TEXTSTYLE_5
 40
1.51
  1
+45 75723100     fax: +45 75723348
 41
1.0
 72
0
  0
TEXT
  8
0
 62
5
  6
CONTINUOUS
 10
221.937007874
 20
15.177
  7
TEXTSTYLE_5
 40
1.5
  1
                                                                      admin@unichains.dk  www.unichains.com
 41
1.0
 72
0
  0
TEXT
  8
0
 62
5
  6
CONTINUOUS
 10
308.687007874
 20
13.75
  7
TEXTSTYLE_6
 40
5.0
  1
1:1
 41
0.7
 72
1
 11
313.937007874
 21
13.75
  0
TEXT
  8
0
 62
5
  6
CONTINUOUS
 10
326.937007874
 20
13.75
  7
TEXTSTYLE_7
 40
7.5
  1
Sprocket Z12 90X90SQ
 41
0.51375
 72
0
  0
LINE
  8
0
 62
7
  6
CONTINUOUS
 10
0.0
 20
0.0
 11
0.0
 21
297.0
  0
LINE
  8
0
 62
7
  6
CONTINUOUS
 10
8.937007874
 20
10.0
 11
8.937007874
 21
287.0
  0
LINE
  8
0
 62
7
  6
CONTINUOUS
 10
0.0
 20
0.0
 11
420.0
 21
0.0
  0
LINE
  8
0
 62
7
  6
CONTINUOUS
 10
408.937007874
 20
10.0
 11
8.937007874
 21
10.0
  0
LINE
  8
0
 62
7
  6
CONTINUOUS
 10
218.937007874
 20
30.0
 11
408.937007874
 21
30.0
  0
LINE
  8
0
 62
7
  6
CONTINUOUS
 10
210.0
 20
297.0
 11
210.0
 21
292.0
  0
LINE
  8
0
 62
7
  6
CONTINUOUS
 10
210.0
 20
0.0
 11
210.0
 21
5.0
  0
LINE
  8
0
 62
7
  6
CONTINUOUS
 10
8.937007874
 20
287.0
 11
408.937007874
 21
287.0
  0
LINE
  8
0
 62
7
  6
CONTINUOUS
 10
0.0
 20
297.0
 11
420.0
 21
297.0
  0
LINE
  8
0
 62
7
  6
CONTINUOUS
 10
408.937007874
 20
287.0
 11
408.937007874
 21
10.0
  0
LINE
  8
0
 62
7
  6
CONTINUOUS
 10
420.0
 20
0.0
 11
420.0
 21
297.0
  0
LINE
  8
0
 62
7
  6
CONTINUOUS
 10
48.5534836066
 20
188.5026449738
 11
48.5534836066
 21
185.2154044761
  0
LINE
  8
SURFACE
 62
7
  6
CONTINUOUS
 10
48.5534836066
 20
137.9844964197
 11
48.5534836066
 21
164.6435706967
  0
LINE
  8
0
 62
7
  6
CONTINUOUS
 10
72.1689376348
 20
226.1185706967
 11
70.5253173859
 21
223.2717369174
  0
LINE
  8
SURFACE
 62
7
  6
CONTINUOUS
 10
46.9098633577
 20
182.3685706967
 11
60.2394004962
 21
205.456006262
  0
LINE
  8
0
 62
7
  6
CONTINUOUS
 10
111.4284836066
 20
246.8871909456
 11
108.5816498272
 21
245.2435706967
  0
LINE
  8
SURFACE
 62
7
  6
CONTINUOUS
 10
67.6784836066
 20
221.6281166685
 11
90.7659191719
 21
234.957653807
  0
LINE
  8
SURFACE
 62
7
  6
CONTINUOUS
 10
155.8125578836
 20
81.2435706967
 11
129.1534836066
 21
81.2435706967
  0
LINE
  8
0
 62
7
  6
CONTINUOUS
 10
105.2944093295
 20
81.2435706967
 11
108.5816498272
 21
81.2435706967
  0
LINE
  8
SURFACE
 62
7
  6
CONTINUOUS
 10
111.4284836066
 20
79.5999504479
 11
88.3410480413
 21
92.9294875864
  0
LINE
  8
0
 62
7
  6
CONTINUOUS
 10
67.6784836066
 20
104.8590247249
 11
70.5253173859
 21
103.2154044761
  0
LINE
  8
0
 62
7
  6
CONTINUOUS
 10
46.9098633577
 20
144.1185706967
 11
48.5534836066
 21
141.2717369174
  0
LINE
  8
SURFACE
 62
7
  6
CONTINUOUS
 10
72.1689376348
 20
100.3685706967
 11
58.8394004962
 21
123.456006262
  0
LINE
  8
0
 62
7
  6
CONTINUOUS
 10
72.1402549634
 20
195.2647856759
 11
71.9286383772
 21
194.8124519162
  0
LINE
  8
0
 62
7
  6
CONTINUOUS
 10
72.410072724
 20
194.3310175694
 11
72.6216893102
 21
194.7833513291
  0
LINE
  8
0
 62
7
  6
CONTINUOUS
 10
79.0617928469
 20
204.112061621
 11
79.2734089583
 21
204.5643949058
  0
LINE
  8
0
 62
7
  6
CONTINUOUS
 10
78.551257438
 20
205.286546426
 11
78.2566469398
 21
204.7512187544
  0
LINE
  8
0
 62
7
  6
CONTINUOUS
 10
99.9636458824
 20
226.6989348704
 11
99.6316721342
 21
226.3669611221
  0
LINE
  8
0
 62
7
  6
CONTINUOUS
 10
97.5568276595
 20
224.2921166474
 11
97.0588651375
 21
223.7941541255
  0
LINE
  8
0
 62
7
  6
CONTINUOUS
 10
95.8969513199
 20
222.6322403078
 11
92.5772024398
 21
219.3124914278
  0
LINE
  8
0
 62
7
  6
CONTINUOUS
 10
86.8506334373
 20
213.5859224252
 11
84.8587833494
 21
211.5940723374
  0
LINE
  8
0
 62
7
  6
CONTINUOUS
 10
82.8669332616
 20
209.6022222495
 11
82.4519632269
 21
209.1872522148
  0
LINE
  8
0
 62
7
  6
CONTINUOUS
 10
79.298201221
 20
206.0334902089
 11
78.551257438
 21
205.286546426
  0
LINE
  8
0
 62
7
  6
CONTINUOUS
 10
72.5757071745
 20
199.3109961625
 11
72.1607385645
 21
198.8960275525
  0
LINE
  8
0
 62
7
  6
CONTINUOUS
 10
72.762531498
 20
198.2942346189
 11
73.177500108
 21
198.7092032289
  0
LINE
  8
0
 62
7
  6
CONTINUOUS
 10
93.1789953734
 20
218.7106984943
 11
96.0837761183
 21
221.6154792392
  0
LINE
  8
0
 62
7
  6
CONTINUOUS
 10
100.1504687812
 20
225.6821719022
 11
100.4824463287
 21
226.0141494496
  0
LINE
  8
0
 62
7
  6
CONTINUOUS
 10
79.2734089583
 20
204.5643949058
 11
80.0203527412
 21
205.3113386887
  0
LINE
  8
0
 62
7
  6
CONTINUOUS
 10
83.1741147471
 20
208.4651006946
 11
83.6720772691
 21
208.9630632166
  0
LINE
  8
0
 62
7
  6
CONTINUOUS
 10
86.0788973916
 20
211.3698833391
 11
87.6557774448
 21
212.9467633923
  0
LINE
  8
0
 62
7
  6
CONTINUOUS
 10
84.7718327246
 20
208.859232805
 11
85.2697952465
 21
209.357195327
  0
LINE
  8
0
 62
7
  6
CONTINUOUS
 10
99.6277139966
 20
223.715114077
 11
100.0426840313
 21
224.1300841117
  0
LINE
  8
0
 62
7
  6
CONTINUOUS
 10
81.4064549445
 20
205.2531371772
 11
81.9044174665
 21
205.7510996992
  0
LINE
  8
0
 62
7
  6
CONTINUOUS
 10
74.3810863122
 20
197.5056170247
 11
73.9661177022
 21
197.0906484147
  0
LINE
  8
0
 62
7
  6
CONTINUOUS
 10
72.4722301363
 20
195.5967608488
 11
72.1402549634
 21
195.2647856759
  0
LINE
  8
0
 62
7
  6
CONTINUOUS
 10
71.3933111805
 20
194.5178418929
 11
70.978342333
 21
194.1028730455
  0
LINE
  8
0
 62
7
  6
CONTINUOUS
 10
70.1484048756
 20
193.272935588
 11
69.7334360281
 21
192.8579667406
  0
LINE
  8
0
 62
7
  6
CONTINUOUS
 10
68.0735610241
 20
191.1980917366
 11
67.6585922657
 21
190.7831229782
  0
LINE
  8
0
 62
7
  6
CONTINUOUS
 10
100.5819669911
 20
227.0765388056
 11
99.9636458824
 21
226.6989348704
  0
LINE
  8
0
 62
7
  6
CONTINUOUS
 10
100.4824463287
 20
226.0141494496
 11
101.0177711509
 21
226.3087570984
  0
LINE
  8
0
 62
7
  6
CONTINUOUS
 10
87.3859601591
 20
213.8805319736
 11
86.8506334373
 21
213.5859224252
  0
LINE
  8
0
 62
7
  6
CONTINUOUS
 10
71.9286383772
 20
194.8124519162
 11
71.920374527
 21
194.3227537193
  0
LINE
  8
0
 62
7
  6
CONTINUOUS
 10
72.4018088739
 20
193.8413193725
 11
72.410072724
 21
194.3310175694
  0
LINE
  8
0
 62
7
  6
CONTINUOUS
 10
72.5764134809
 20
189.6830143523
 11
72.5681493933
 21
189.1933159179
  0
LINE
  8
0
 62
7
  6
CONTINUOUS
 10
73.0495838139
 20
188.7118814973
 11
73.0952128031
 21
188.9982276811
  0
LINE
  8
0
 62
7
  6
CONTINUOUS
 10
78.2566469398
 20
204.7512187544
 11
78.1653894152
 21
204.1785268829
  0
LINE
  8
0
 62
7
  6
CONTINUOUS
 10
82.2403480653
 20
208.7349198799
 11
82.1490895909
 21
208.1622270586
  0
LINE
  8
0
 62
7
  6
CONTINUOUS
 10
83.0454920728
 20
208.0957608469
 11
83.1741147471
 21
208.4651006946
  0
LINE
  8
0
 62
7
  6
CONTINUOUS
 10
89.4694206701
 20
211.6310826889
 11
89.3407979958
 21
211.2617428412
  0
LINE
  8
0
 62
7
  6
CONTINUOUS
 10
72.5681493933
 20
189.1933159179
 11
72.3565330867
 21
188.7409823536
  0
LINE
  8
0
 62
7
  6
CONTINUOUS
 10
82.4519632269
 20
209.1872522148
 11
82.2403480653
 21
208.7349198799
  0
LINE
  8
0
 62
7
  6
CONTINUOUS
 10
72.8379674756
 20
188.2595479646
 11
73.0495838139
 21
188.7118814973
  0
LINE
  8
0
 62
7
  6
CONTINUOUS
 10
84.4445199773
 20
201.5511208487
 11
84.2329038659
 21
201.098787564
  0
LINE
  8
0
 62
7
  6
CONTINUOUS
 10
88.0962454549
 20
205.2028463264
 11
87.8846283938
 21
204.7505120918
  0
LINE
  8
0
 62
7
  6
CONTINUOUS
 10
84.9550554705
 20
200.3766359595
 11
85.2496659581
 21
200.9119636416
  0
LINE
  8
0
 62
7
  6
CONTINUOUS
 10
99.8558611324
 20
225.1468470799
 11
100.1504687812
 21
225.6821719022
  0
LINE
  8
0
 62
7
  6
CONTINUOUS
 10
88.6067799983
 20
204.0283604873
 11
88.9013914358
 21
204.5636891192
  0
LINE
  8
0
 62
7
  6
CONTINUOUS
 10
92.5074876868
 20
207.9290681757
 11
92.8020972246
 21
208.4643949081
  0
LINE
  8
0
 62
7
  6
CONTINUOUS
 10
99.6316721342
 20
226.3669611221
 11
99.1710719125
 21
225.665643727
  0
LINE
  8
0
 62
7
  6
CONTINUOUS
 10
89.3407979958
 20
211.2617428412
 11
87.7639179427
 21
209.6848627881
  0
LINE
  8
0
 62
7
  6
CONTINUOUS
 10
85.3570978201
 20
207.2780426655
 11
84.8591352982
 21
206.7800801436
  0
LINE
  8
0
 62
7
  6
CONTINUOUS
 10
85.5812868184
 20
206.0579286233
 11
86.0792493403
 21
206.5558911453
  0
LINE
  8
0
 62
7
  6
CONTINUOUS
 10
88.4860694629
 20
208.9627112678
 11
90.062949516
 21
210.539591321
  0
LINE
  8
0
 62
7
  6
CONTINUOUS
 10
85.7142184606
 20
204.2651225411
 11
85.2162559386
 21
203.7671600191
  0
LINE
  8
0
 62
7
  6
CONTINUOUS
 10
84.6726651293
 20
202.9828520363
 11
84.1747026073
 21
202.4848895144
  0
LINE
  8
0
 62
7
  6
CONTINUOUS
 10
100.8316539648
 20
217.6975376629
 11
98.0098676068
 21
214.8757513048
  0
LINE
  8
0
 62
7
  6
CONTINUOUS
 10
91.8683285695
 20
208.7342122675
 11
90.2914485163
 21
207.1573322144
  0
LINE
  8
0
 62
7
  6
CONTINUOUS
 10
87.8846283938
 20
204.7505120918
 11
87.2206789977
 21
204.0865626958
  0
LINE
  8
0
 62
7
  6
CONTINUOUS
 10
84.2329038659
 20
201.098787564
 11
83.485960083
 21
200.351843781
  0
LINE
  8
0
 62
7
  6
CONTINUOUS
 10
106.263613419
 20
222.8887799436
 11
103.9397895829
 21
220.5649561075
  0
LINE
  8
0
 62
7
  6
CONTINUOUS
 10
72.3565330867
 20
188.7409823536
 11
72.0245580324
 21
188.4090072994
  0
LINE
  8
0
 62
7
  6
CONTINUOUS
 10
72.5059924214
 20
187.9275729104
 11
72.8379674756
 21
188.2595479646
  0
LINE
  8
0
 62
7
  6
CONTINUOUS
 10
73.7508987263
 20
189.1724792153
 11
74.1658675738
 21
189.5874480628
  0
LINE
  8
0
 62
7
  6
CONTINUOUS
 10
74.8298174447
 20
190.2513979337
 11
75.2447862922
 21
190.6663667812
  0
LINE
  8
0
 62
7
  6
CONTINUOUS
 10
76.7386738581
 20
192.1602543471
 11
77.1536424681
 21
192.5752229571
  0
LINE
  8
0
 62
7
  6
CONTINUOUS
 10
77.817592814
 20
193.239173303
 11
78.232561424
 21
193.654141913
  0
LINE
  8
0
 62
7
  6
CONTINUOUS
 10
84.2081116875
 20
199.6296921765
 11
84.9550554705
 21
200.3766359595
  0
LINE
  8
0
 62
7
  6
CONTINUOUS
 10
87.9428306022
 20
203.3644110912
 11
88.6067799983
 21
204.0283604873
  0
LINE
  8
0
 62
7
  6
CONTINUOUS
 10
90.5156375989
 20
205.9372180879
 11
92.5074876868
 21
207.9290681757
  0
LINE
  8
0
 62
7
  6
CONTINUOUS
 10
98.2340566893
 20
213.6556371783
 11
101.5538055694
 21
216.9753860583
  0
LINE
  8
0
 62
7
  6
CONTINUOUS
 10
102.715719387
 20
218.137299876
 11
103.2136819089
 21
218.6352623979
  0
LINE
  8
0
 62
7
  6
CONTINUOUS
 10
103.877631305
 20
219.299211794
 11
106.8654064368
 21
222.2869869258
  0
LINE
  8
0
 62
7
  6
CONTINUOUS
 10
119.2397751076
 20
229.7116081283
 11
64.085446175
 21
174.5572791957
  0
LINE
  8
0
 62
7
  6
CONTINUOUS
 10
83.4022599834
 20
209.8968317979
 11
82.8669332616
 21
209.6022222495
  0
LINE
  8
0
 62
7
  6
CONTINUOUS
 10
79.8335288926
 20
206.3281007071
 11
79.298201221
 21
206.0334902089
  0
LINE
  8
0
 62
7
  6
CONTINUOUS
 10
85.8924264415
 20
207.5726541135
 11
85.3570978201
 21
207.2780426655
  0
LINE
  8
0
 62
7
  6
CONTINUOUS
 10
87.4075038699
 20
203.0698015534
 11
87.9428306022
 21
203.3644110912
  0
LINE
  8
0
 62
7
  6
CONTINUOUS
 10
80.0203527412
 20
205.3113386887
 11
80.472686026
 21
205.5229548001
  0
LINE
  8
0
 62
7
  6
CONTINUOUS
 10
86.0792493403
 20
206.5558911453
 11
86.5315835749
 21
206.7675082064
  0
LINE
  8
0
 62
7
  6
CONTINUOUS
 10
85.1289544834
 20
205.8463134618
 11
85.5812868184
 21
206.0579286233
  0
LINE
  8
0
 62
7
  6
CONTINUOUS
 10
87.2206789977
 20
204.0865626958
 11
86.7683447632
 21
203.8749456346
  0
LINE
  8
0
 62
7
  6
CONTINUOUS
 10
87.6557774448
 20
212.9467633923
 11
88.0251172925
 21
213.0753860666
  0
LINE
  8
0
 62
7
  6
CONTINUOUS
 10
83.6720772691
 20
208.9630632166
 11
84.0414171168
 21
209.0916858909
  0
LINE
  8
0
 62
7
  6
CONTINUOUS
 10
90.062949516
 20
210.539591321
 11
90.4322893637
 21
210.6682139953
  0
LINE
  8
0
 62
7
  6
CONTINUOUS
 10
84.8591352982
 20
206.7800801436
 11
84.4897954505
 21
206.6514574693
  0
LINE
  8
0
 62
7
  6
CONTINUOUS
 10
64.085446175
 20
151.9298621977
 11
119.2397751076
 21
96.7755332652
  0
LINE
  8
0
 62
7
  6
CONTINUOUS
 10
79.0535287593
 20
203.6223631866
 11
79.0617928469
 21
204.112061621
  0
LINE
  8
0
 62
7
  6
CONTINUOUS
 10
83.0372279853
 20
207.6060624125
 11
83.0454920728
 21
208.0957608469
  0
LINE
  8
0
 62
7
  6
CONTINUOUS
 10
84.4527839806
 20
202.0408193674
 11
84.4445199773
 21
201.5511208487
  0
LINE
  8
0
 62
7
  6
CONTINUOUS
 10
85.2496659581
 20
200.9119636416
 11
85.3409234511
 21
201.4846555447
  0
LINE
  8
0
 62
7
  6
CONTINUOUS
 10
88.9013914358
 20
204.5636891192
 11
88.992647979
 21
205.1363800725
  0
LINE
  8
0
 62
7
  6
CONTINUOUS
 10
90.1998362779
 20
211.3986296031
 11
90.2454664649
 21
211.6849769635
  0
LINE
  8
0
 62
7
  6
CONTINUOUS
 10
91.9969512438
 20
209.1035521152
 11
91.8683285695
 21
208.7342122675
  0
LINE
  8
0
 62
7
  6
CONTINUOUS
 10
107.7955812246
 20
207.6608125275
 11
86.1362417758
 21
186.0014730787
  0
LINE
  8
0
 62
7
  6
CONTINUOUS
 10
83.6727840054
 20
199.3350816889
 11
84.2081116875
 21
199.6296921765
  0
LINE
  8
0
 62
7
  6
CONTINUOUS
 10
83.485960083
 20
200.351843781
 11
83.0336267982
 21
200.1402276697
  0
LINE
  8
0
 62
7
  6
CONTINUOUS
 10
72.6216893102
 20
194.7833513291
 11
73.0740230699
 21
194.9949679153
  0
LINE
  8
0
 62
7
  6
CONTINUOUS
 10
72.0536588293
 20
187.7159565128
 11
72.5059924214
 21
187.9275729104
  0
LINE
  8
0
 62
7
  6
CONTINUOUS
 10
72.841569984
 20
195.7253835231
 11
72.4722301363
 21
195.5967608488
  0
LINE
  8
0
 62
7
  6
CONTINUOUS
 10
164.0557596094
 20
224.2378414604
 11
163.3366423251
 21
223.9940900511
  0
LINE
  8
0
 62
7
  6
CONTINUOUS
 10
86.1362417758
 20
140.4856683148
 11
107.7955812246
 21
118.826328866
  0
LINE
  8
0
 62
7
  6
CONTINUOUS
 10
72.3813251042
 20
190.2100776645
 11
72.5764134809
 21
189.6830143523
  0
LINE
  8
0
 62
7
  6
CONTINUOUS
 10
71.920374527
 20
194.3227537193
 11
71.995104114
 21
193.9160489594
  0
LINE
  8
0
 62
7
  6
CONTINUOUS
 10
73.0952128031
 20
188.9982276811
 11
72.983118122
 21
189.6082846467
  0
LINE
  8
0
 62
7
  6
CONTINUOUS
 10
72.4765384608
 20
193.4346146126
 11
72.4018088739
 21
193.8413193725
  0
LINE
  8
0
 62
7
  6
CONTINUOUS
 10
88.1045094582
 20
205.6925448451
 11
88.0962454549
 21
205.2028463264
  0
LINE
  8
0
 62
7
  6
CONTINUOUS
 10
99.1710719125
 20
225.665643727
 11
99.0798153376
 21
225.0929528054
  0
LINE
  8
0
 62
7
  6
CONTINUOUS
 10
126.4211789241
 20
222.750876321
 11
112.2790433004
 21
208.6087406973
  0
LINE
  8
0
 62
7
  6
CONTINUOUS
 10
85.188313606
 20
181.5180110029
 11
71.0461779822
 21
167.3758753792
  0
LINE
  8
0
 62
7
  6
CONTINUOUS
 10
163.3366423251
 20
223.9940900511
 11
162.5763937486
 21
223.5507520862
  0
LINE
  8
0
 62
7
  6
CONTINUOUS
 10
163.2924771625
 20
223.3161036935
 11
163.8120082426
 21
223.5187241336
  0
LINE
  8
0
 62
7
  6
CONTINUOUS
 10
164.1518441699
 20
220.5309986244
 11
163.6323130332
 21
220.3283782409
  0
LINE
  8
0
 62
7
  6
CONTINUOUS
 10
162.1057480274
 20
218.4849024818
 11
161.5862168063
 21
218.2822820141
  0
LINE
  8
0
 62
7
  6
CONTINUOUS
 10
166.4174175384
 20
219.469011123
 11
167.4564801491
 21
219.874252227
  0
LINE
  8
0
 62
7
  6
CONTINUOUS
 10
161.342465369
 20
217.5631646734
 11
162.0615827096
 21
217.8069161107
  0
LINE
  8
0
 62
7
  6
CONTINUOUS
 10
71.0461779822
 20
159.1112660143
 11
85.188313606
 21
144.9691303905
  0
LINE
  8
0
 62
7
  6
CONTINUOUS
 10
112.2790433004
 20
117.8784006961
 11
126.4211789241
 21
103.7362650724
  0
LINE
  8
0
 62
7
  6
CONTINUOUS
 10
78.1653894152
 20
204.1785268829
 11
78.314849064
 21
203.3651178381
  0
LINE
  8
0
 62
7
  6
CONTINUOUS
 10
82.1490895909
 20
208.1622270586
 11
82.2985492397
 21
207.3488180138
  0
LINE
  8
0
 62
7
  6
CONTINUOUS
 10
85.3409234511
 20
201.4846555447
 11
85.1914637602
 21
202.2980646317
  0
LINE
  8
0
 62
7
  6
CONTINUOUS
 10
92.8020972246
 20
208.4643949081
 11
92.7729970807
 21
209.1574463477
  0
LINE
  8
0
 62
7
  6
CONTINUOUS
 10
99.8475970448
 20
224.6571486455
 11
99.8558611324
 21
225.1468470799
  0
LINE
  8
0
 62
7
  6
CONTINUOUS
 10
118.3660563513
 20
260.0040429632
 11
117.6097824575
 21
255.7150005786
  0
LINE
  8
SURFACE
 62
7
  6
CONTINUOUS
 10
71.6186258635
 20
85.5402572594
 11
73.1081946515
 21
89.6328138693
  0
LINE
  8
0
 62
7
  6
CONTINUOUS
 10
168.37909813
 20
253.1343113893
 11
165.5796245334
 21
249.7980286732
  0
LINE
  8
SURFACE
 62
7
  6
CONTINUOUS
 10
40.6627429139
 20
125.4179561733
 11
43.9990256301
 21
128.2174297699
  0
LINE
  8
0
 62
7
  6
CONTINUOUS
 10
162.8521734052
 20
223.0342552562
 11
163.2924771625
 21
223.3161036935
  0
LINE
  8
0
 62
7
  6
CONTINUOUS
 10
164.5921475051
 20
220.8128468095
 11
164.1518441699
 21
220.5309986244
  0
LINE
  8
0
 62
7
  6
CONTINUOUS
 10
162.5460513625
 20
218.7667506669
 11
162.1057480274
 21
218.4849024818
  0
LINE
  8
0
 62
7
  6
CONTINUOUS
 10
166.461583109
 20
220.1469977469
 11
166.0212794368
 21
219.8651492246
  0
LINE
  8
0
 62
7
  6
CONTINUOUS
 10
162.0615827096
 20
217.8069161107
 11
162.8218311041
 21
218.2502537519
  0
LINE
  8
0
 62
7
  6
CONTINUOUS
 10
167.1014728325
 20
220.4699767171
 11
166.461583109
 21
220.1469977469
  0
LINE
  8
0
 62
7
  6
CONTINUOUS
 10
165.3480132478
 20
214.2797683991
 11
165.9879028289
 21
214.6027476803
  0
LINE
  8
0
 62
7
  6
CONTINUOUS
 10
166.0320678357
 20
215.2807341937
 11
164.9930059312
 21
214.8754928892
  0
LINE
  8
0
 62
7
  6
CONTINUOUS
 10
174.0674373355
 20
212.5411435205
 11
174.5869686989
 21
212.7437636773
  0
LINE
  8
0
 62
7
  6
CONTINUOUS
 10
174.9268045696
 20
209.7560382247
 11
174.4072732062
 21
209.5534180679
  0
LINE
  8
0
 62
7
  6
CONTINUOUS
 10
169.6917111896
 20
214.0282629111
 11
165.4562348632
 21
212.4865264013
  0
LINE
  8
0
 62
7
  6
CONTINUOUS
 10
208.2567970439
 20
222.1784284398
 11
204.164240434
 21
220.6888596518
  0
LINE
  8
0
 62
7
  6
CONTINUOUS
 10
173.8068293826
 20
215.4496403808
 11
170.4108284881
 21
214.2720143062
  0
LINE
  8
0
 62
7
  6
CONTINUOUS
 10
165.9316007665
 20
212.0111604979
 11
169.3276012077
 21
213.1887870259
  0
LINE
  8
0
 62
7
  6
CONTINUOUS
 10
170.1670770929
 20
213.5528970078
 11
174.2821952859
 21
214.9742744775
  0
LINE
  8
0
 62
7
  6
CONTINUOUS
 10
174.8307200941
 20
213.4628809757
 11
174.1116027956
 21
213.2191295806
  0
LINE
  8
0
 62
7
  6
CONTINUOUS
 10
172.117425542
 20
206.7882045004
 11
172.8365428826
 21
207.0319559377
  0
LINE
  8
SURFACE
 62
7
  6
CONTINUOUS
 10
227.3139558731
 20
151.0561434414
 11
223.0249134884
 21
150.2998695476
  0
LINE
  8
0
 62
7
  6
CONTINUOUS
 10
33.7930113401
 20
151.0561434414
 11
38.0820537247
 21
150.2998695476
  0
LINE
  8
SURFACE
 62
7
  6
CONTINUOUS
 10
208.2567970439
 20
104.3087129536
 11
204.164240434
 21
105.7982817417
  0
LINE
  8
0
 62
7
  6
CONTINUOUS
 10
40.6627429139
 20
201.0691852201
 11
43.9990256301
 21
198.2697116235
  0
LINE
  8
SURFACE
 62
7
  6
CONTINUOUS
 10
168.37909813
 20
73.3528300041
 11
165.5796245334
 21
76.6891127202
  0
LINE
  8
0
 62
7
  6
CONTINUOUS
 10
78.314849064
 20
203.3651178381
 11
78.6302955869
 21
202.7176956673
  0
LINE
  8
0
 62
7
  6
CONTINUOUS
 10
79.2486170327
 20
203.0952992654
 11
79.0535287593
 21
203.6223631866
  0
LINE
  8
0
 62
7
  6
CONTINUOUS
 10
71.6186258635
 20
240.9468841341
 11
73.1081946515
 21
236.8543275241
  0
LINE
  8
0
 62
7
  6
CONTINUOUS
 10
88.992647979
 20
205.1363800725
 11
88.8431892379
 21
205.9497901093
  0
LINE
  8
0
 62
7
  6
CONTINUOUS
 10
89.3946922704
 20
212.037788636
 11
89.4694206701
 21
211.6310826889
  0
LINE
  8
0
 62
7
  6
CONTINUOUS
 10
91.9222227598
 20
209.5102581466
 11
91.9969512438
 21
209.1035521152
  0
LINE
  8
SURFACE
 62
7
  6
CONTINUOUS
 10
118.3660563513
 20
66.4830984302
 11
117.6097824575
 21
70.7721408149
  0
LINE
  8
0
 62
7
  6
CONTINUOUS
 10
162.5763937486
 20
223.5507520862
 11
162.0949594018
 21
223.0693177394
  0
LINE
  8
0
 62
7
  6
CONTINUOUS
 10
162.6114562318
 20
222.7935380828
 11
162.8521734052
 21
223.0342552562
  0
LINE
  8
0
 62
7
  6
CONTINUOUS
 10
162.8218311041
 20
218.2502537519
 11
163.7435689546
 21
219.0135364524
  0
LINE
  8
0
 62
7
  6
CONTINUOUS
 10
163.3474306263
 20
219.4096747807
 11
162.5460513625
 21
218.7667506669
  0
LINE
  8
0
 62
7
  6
CONTINUOUS
 10
165.6160386699
 20
218.826086951
 11
166.4174175384
 21
219.469011123
  0
LINE
  8
0
 62
7
  6
CONTINUOUS
 10
166.8334473262
 20
215.9236580808
 11
166.0320678357
 21
215.2807341937
  0
LINE
  8
0
 62
7
  6
CONTINUOUS
 10
166.0212794368
 20
219.8651492246
 11
165.3402589282
 21
219.3425838661
  0
LINE
  8
0
 62
7
  6
CONTINUOUS
 10
166.4282063907
 20
214.8845956387
 11
167.1092268411
 21
215.4071613925
  0
LINE
  8
0
 62
7
  6
CONTINUOUS
 10
165.9879028289
 20
214.6027476803
 11
166.4282063907
 21
214.8845956387
  0
LINE
  8
0
 62
7
  6
CONTINUOUS
 10
173.6271338899
 20
212.2592947715
 11
174.0674373355
 21
212.5411435205
  0
LINE
  8
0
 62
7
  6
CONTINUOUS
 10
174.1116027956
 20
213.2191295806
 11
173.3513539216
 21
212.7757919132
  0
LINE
  8
0
 62
7
  6
CONTINUOUS
 10
177.8764330055
 20
209.6950165441
 11
177.2365439621
 21
209.3720368939
  0
LINE
  8
0
 62
7
  6
CONTINUOUS
 10
172.880708427
 20
207.7099420821
 11
172.3611769793
 21
207.5073218411
  0
LINE
  8
0
 62
7
  6
CONTINUOUS
 10
177.1923781648
 20
208.6940504966
 11
178.2314403221
 21
209.099292054
  0
LINE
  8
0
 62
7
  6
CONTINUOUS
 10
176.807028462
 20
204.5057735674
 11
175.7679656508
 21
204.1005331695
  0
LINE
  8
0
 62
7
  6
CONTINUOUS
 10
67.6585922657
 20
190.7831229782
 11
70.0657641684
 21
188.3759510755
  0
LINE
  8
0
 62
7
  6
CONTINUOUS
 10
70.4807329268
 20
188.7909198339
 11
68.0735610241
 21
191.1980917366
  0
LINE
  8
0
 62
7
  6
CONTINUOUS
 10
69.7334360281
 20
192.8579667406
 11
72.3813251042
 21
190.2100776645
  0
LINE
  8
0
 62
7
  6
CONTINUOUS
 10
73.2777283828
 20
190.1436120808
 11
70.1484048756
 21
193.272935588
  0
LINE
  8
0
 62
7
  6
CONTINUOUS
 10
70.978342333
 20
194.1028730455
 11
74.8298174447
 21
190.2513979337
  0
LINE
  8
0
 62
7
  6
CONTINUOUS
 10
75.2447862922
 20
190.6663667812
 11
72.4765384608
 21
193.4346146126
  0
LINE
  8
0
 62
7
  6
CONTINUOUS
 10
71.995104114
 20
193.9160489594
 11
71.3933111805
 21
194.5178418929
  0
LINE
  8
0
 62
7
  6
CONTINUOUS
 10
74.4518603735
 20
194.4470678316
 11
76.7386738581
 21
192.1602543471
  0
LINE
  8
0
 62
7
  6
CONTINUOUS
 10
78.6302955869
 20
202.7176956673
 11
79.1490954205
 21
202.0329089596
  0
LINE
  8
0
 62
7
  6
CONTINUOUS
 10
79.6470579425
 20
202.5308714815
 11
79.2486170327
 21
203.0952992654
  0
LINE
  8
0
 62
7
  6
CONTINUOUS
 10
84.1747026073
 20
202.4848895144
 11
84.4527839806
 21
202.0408193674
  0
LINE
  8
0
 62
7
  6
CONTINUOUS
 10
88.8431892379
 20
205.9497901093
 11
88.5277416809
 21
206.5972114146
  0
LINE
  8
0
 62
7
  6
CONTINUOUS
 10
87.9094205722
 20
206.2196074793
 11
88.1045094582
 21
205.6925448451
  0
LINE
  8
0
 62
7
  6
CONTINUOUS
 10
90.2454664649
 20
211.6849769635
 11
90.0130133791
 21
212.4153925713
  0
LINE
  8
0
 62
7
  6
CONTINUOUS
 10
92.7729970807
 20
209.1574463477
 11
92.5405439527
 21
209.8878619976
  0
LINE
  8
0
 62
7
  6
CONTINUOUS
 10
97.0588651375
 20
223.7941541255
 11
97.4034127225
 21
222.4536814966
  0
LINE
  8
0
 62
7
  6
CONTINUOUS
 10
98.0098676068
 20
214.8757513048
 11
96.7394614268
 21
221.7897302009
  0
LINE
  8
0
 62
7
  6
CONTINUOUS
 10
99.0798153376
 20
225.0929528054
 11
99.2292759362
 21
224.2795447103
  0
LINE
  8
0
 62
7
  6
CONTINUOUS
 10
96.0837761183
 20
221.6154792392
 11
97.2711879114
 21
214.6185059562
  0
LINE
  8
0
 62
7
  6
CONTINUOUS
 10
102.5906972028
 20
225.2337935685
 11
103.2758382872
 21
219.9010048118
  0
LINE
  8
0
 62
7
  6
CONTINUOUS
 10
103.9397895829
 20
220.5649561075
 11
103.3667429976
 21
225.287687843
  0
LINE
  8
SURFACE
 62
7
  6
CONTINUOUS
 10
133.4306952361
 20
246.4830984302
 11
134.434115307
 21
252.1737764361
  0
LINE
  8
SURFACE
 62
7
  6
CONTINUOUS
 10
134.434115307
 20
252.1737764361
 11
134.5948302208
 21
252.9470678437
  0
LINE
  8
0
 62
7
  6
CONTINUOUS
 10
89.4491063722
 20
84.2874375124
 11
89.2016438665
 21
83.537390052
  0
LINE
  8
0
 62
7
  6
CONTINUOUS
 10
91.425458103
 20
89.7174192657
 11
89.4491063722
 21
84.2874375124
  0
LINE
  8
0
 62
7
  6
CONTINUOUS
 10
164.5860790616
 20
219.8560465594
 11
165.3493615935
 21
220.7777842413
  0
LINE
  8
SURFACE
 62
7
  6
CONTINUOUS
 10
174.6649858365
 20
233.8925104982
 11
178.3793121116
 21
238.3190721806
  0
LINE
  8
SURFACE
 62
7
  6
CONTINUOUS
 10
178.3793121116
 20
238.3190721806
 11
178.9051410135
 21
238.9084047272
  0
LINE
  8
0
 62
7
  6
CONTINUOUS
 10
164.8328646785
 20
221.0535639829
 11
164.5921475051
 21
220.8128468095
  0
LINE
  8
0
 62
7
  6
CONTINUOUS
 10
163.5881477997
 20
219.6503919542
 11
163.3474306263
 21
219.4096747807
  0
LINE
  8
0
 62
7
  6
CONTINUOUS
 10
163.7435689546
 20
219.0135364524
 11
164.5860790616
 21
219.8560465594
  0
LINE
  8
0
 62
7
  6
CONTINUOUS
 10
165.3402589282
 20
219.3425838661
 11
164.2570316479
 21
218.2593565857
  0
LINE
  8
0
 62
7
  6
CONTINUOUS
 10
164.7735285629
 20
217.9835768441
 11
165.6160386699
 21
218.826086951
  0
LINE
  8
0
 62
7
  6
CONTINUOUS
 10
167.6759574331
 20
216.7661681878
 11
166.8334473262
 21
215.9236580808
  0
LINE
  8
0
 62
7
  6
CONTINUOUS
 10
167.1092268411
 20
215.4071613925
 11
168.1924541215
 21
216.4903886728
  0
LINE
  8
0
 62
7
  6
CONTINUOUS
 10
55.4779821227
 20
115.4177421917
 11
54.8886495761
 21
114.8919132898
  0
LINE
  8
0
 62
7
  6
CONTINUOUS
 10
59.9045438051
 20
119.1320684667
 11
55.4779821227
 21
115.4177421917
  0
LINE
  8
0
 62
7
  6
CONTINUOUS
 10
174.1223914793
 20
208.6347139277
 11
173.3210115355
 21
207.9917904939
  0
LINE
  8
0
 62
7
  6
CONTINUOUS
 10
176.7962396098
 20
209.0901890516
 11
176.1152193279
 21
208.5676234664
  0
LINE
  8
0
 62
7
  6
CONTINUOUS
 10
175.367107678
 20
210.0378866365
 11
174.9268045696
 21
209.7560382247
  0
LINE
  8
0
 62
7
  6
CONTINUOUS
 10
173.3210115355
 20
207.9917904939
 11
172.880708427
 21
207.7099420821
  0
LINE
  8
0
 62
7
  6
CONTINUOUS
 10
177.2365439621
 20
209.3720368939
 11
176.7962396098
 21
209.0901890516
  0
LINE
  8
0
 62
7
  6
CONTINUOUS
 10
176.7628639086
 20
203.8277866006
 11
177.2031661103
 21
204.1096359191
  0
LINE
  8
0
 62
7
  6
CONTINUOUS
 10
172.8365428826
 20
207.0319559377
 11
173.5967915038
 21
207.4752933522
  0
LINE
  8
0
 62
7
  6
CONTINUOUS
 10
176.1229729675
 20
203.5048086795
 11
176.7628639086
 21
203.8277866006
  0
LINE
  8
0
 62
7
  6
CONTINUOUS
 10
183.9344827901
 20
196.8968848925
 11
183.4149523333
 21
196.694263829
  0
LINE
  8
0
 62
7
  6
CONTINUOUS
 10
188.3665111145
 20
198.0013518937
 11
188.8860419084
 21
198.2039732943
  0
LINE
  8
SURFACE
 62
7
  6
CONTINUOUS
 10
204.0796350375
 20
202.3715962002
 11
209.5096167909
 21
204.3479479311
  0
LINE
  8
0
 62
7
  6
CONTINUOUS
 10
219.4836893459
 20
167.1242023972
 11
220.2569807535
 21
167.284917311
  0
LINE
  8
0
 62
7
  6
CONTINUOUS
 10
213.7930113401
 20
166.1207823262
 11
219.4836893459
 21
167.1242023972
  0
LINE
  8
SURFACE
 62
7
  6
CONTINUOUS
 10
47.3139558731
 20
166.1207823262
 11
41.6232778672
 21
167.1242023972
  0
LINE
  8
0
 62
7
  6
CONTINUOUS
 10
209.5096167909
 20
122.1391934624
 11
210.2596642513
 21
121.8917309567
  0
LINE
  8
0
 62
7
  6
CONTINUOUS
 10
204.0796350375
 20
124.1155451932
 11
209.5096167909
 21
122.1391934624
  0
LINE
  8
0
 62
7
  6
CONTINUOUS
 10
70.9248024505
 20
188.5128378374
 11
70.4807329268
 21
188.7909198339
  0
LINE
  8
0
 62
7
  6
CONTINUOUS
 10
70.0657641684
 20
188.3759510755
 11
70.6301923557
 21
187.9775104005
  0
LINE
  8
0
 62
7
  6
CONTINUOUS
 10
73.8421564673
 20
189.7451713453
 11
73.2777283828
 21
190.1436120808
  0
LINE
  8
0
 62
7
  6
CONTINUOUS
 10
73.767073528
 20
194.9658668532
 11
74.4518603735
 21
194.4470678316
  0
LINE
  8
0
 62
7
  6
CONTINUOUS
 10
74.8668289835
 20
194.8620364417
 11
74.1820426129
 21
195.3808359381
  0
LINE
  8
SURFACE
 62
7
  6
CONTINUOUS
 10
59.9045438051
 20
207.3550729267
 11
55.4779821227
 21
211.0693992018
  0
LINE
  8
SURFACE
 62
7
  6
CONTINUOUS
 10
55.4779821227
 20
211.0693992018
 11
54.8886495761
 21
211.5952281037
  0
LINE
  8
0
 62
7
  6
CONTINUOUS
 10
77.1536424681
 20
192.5752229571
 11
74.8668289835
 21
194.8620364417
  0
LINE
  8
0
 62
7
  6
CONTINUOUS
 10
72.1607385645
 20
198.8960275525
 11
72.762531498
 21
198.2942346189
  0
LINE
  8
0
 62
7
  6
CONTINUOUS
 10
73.9661177022
 20
197.0906484147
 11
77.817592814
 21
193.239173303
  0
LINE
  8
0
 62
7
  6
CONTINUOUS
 10
78.232561424
 20
193.654141913
 11
74.3810863122
 21
197.5056170247
  0
LINE
  8
0
 62
7
  6
CONTINUOUS
 10
73.177500108
 20
198.7092032289
 11
72.5757071745
 21
199.3109961625
  0
LINE
  8
0
 62
7
  6
CONTINUOUS
 10
79.1490954205
 20
202.0329089596
 11
80.9544743897
 21
200.2275299904
  0
LINE
  8
0
 62
7
  6
CONTINUOUS
 10
81.4524369116
 20
200.7254925124
 11
79.6470579425
 21
202.5308714815
  0
LINE
  8
0
 62
7
  6
CONTINUOUS
 10
178.3793121116
 20
88.1680692129
 11
178.9051410135
 21
87.5787366663
  0
LINE
  8
0
 62
7
  6
CONTINUOUS
 10
174.6649858365
 20
92.5946308953
 11
178.3793121116
 21
88.1680692129
  0
LINE
  8
0
 62
7
  6
CONTINUOUS
 10
85.1914637602
 20
202.2980646317
 11
84.6726651293
 21
202.9828520363
  0
LINE
  8
0
 62
7
  6
CONTINUOUS
 10
82.2985492397
 20
207.3488180138
 11
82.6969891996
 21
206.7843892801
  0
LINE
  8
0
 62
7
  6
CONTINUOUS
 10
83.3153115953
 20
207.161993828
 11
83.0372279853
 21
207.6060624125
  0
LINE
  8
0
 62
7
  6
CONTINUOUS
 10
89.1166089975
 20
212.4818568834
 11
89.3946922704
 21
212.037788636
  0
LINE
  8
0
 62
7
  6
CONTINUOUS
 10
90.0130133791
 20
212.4153925713
 11
89.7349301062
 21
212.8594608187
  0
LINE
  8
0
 62
7
  6
CONTINUOUS
 10
91.6441394869
 20
209.954326394
 11
91.9222227598
 21
209.5102581466
  0
LINE
  8
SURFACE
 62
7
  6
CONTINUOUS
 10
91.425458103
 20
236.7697221277
 11
89.4491063722
 21
242.199703881
  0
LINE
  8
0
 62
7
  6
CONTINUOUS
 10
98.3662817533
 20
221.4908124657
 11
98.0217338311
 21
222.8312854318
  0
LINE
  8
0
 62
7
  6
CONTINUOUS
 10
134.434115307
 20
74.3133649573
 11
134.5948302208
 21
73.5400735498
  0
LINE
  8
0
 62
7
  6
CONTINUOUS
 10
133.4306952361
 20
80.0040429632
 11
134.434115307
 21
74.3133649573
  0
LINE
  8
DEFAULT_1
 62
2
  6
CENTER
 10
130.5534836066
 20
260.525102459
 11
130.5534836066
 21
165.2436706967
  0
LINE
  8
0
 62
2
  6
CONTINUOUS
 10
130.5534836066
 20
164.2935706967
 11
130.5534836066
 21
162.1935706967
  0
LINE
  8
DEFAULT_1
 62
2
  6
CENTER
 10
130.5534836066
 20
73.8488729508
 11
130.5534836066
 21
161.2434706967
  0
LINE
  8
0
 62
7
  6
CONTINUOUS
 10
162.0949594018
 20
223.0693177394
 11
161.6516217741
 21
222.3090695
  0
LINE
  8
0
 62
7
  6
CONTINUOUS
 10
165.3493615935
 20
220.7777842413
 11
165.7926994875
 21
221.5380328887
  0
LINE
  8
0
 62
7
  6
CONTINUOUS
 10
159.9666013916
 20
220.6240491176
 11
159.684753193
 21
220.1837456273
  0
LINE
  8
0
 62
7
  6
CONTINUOUS
 10
162.3296081317
 20
222.3532346627
 11
162.6114562318
 21
222.7935380828
  0
LINE
  8
0
 62
7
  6
CONTINUOUS
 10
165.1147132008
 20
221.4938676552
 11
164.8328646785
 21
221.0535639829
  0
LINE
  8
0
 62
7
  6
CONTINUOUS
 10
163.7344661208
 20
217.5783359086
 11
163.4526179357
 21
217.1380325735
  0
LINE
  8
0
 62
7
  6
CONTINUOUS
 10
164.2570316479
 20
218.2593565857
 11
163.7344661208
 21
217.5783359086
  0
LINE
  8
0
 62
7
  6
CONTINUOUS
 10
168.1924541215
 20
216.4903886728
 11
168.7150197067
 21
217.1714089547
  0
LINE
  8
0
 62
7
  6
CONTINUOUS
 10
164.1306042224
 20
217.182197807
 11
164.7735285629
 21
217.9835768441
  0
LINE
  8
0
 62
7
  6
CONTINUOUS
 10
168.3188811517
 20
217.5675475097
 11
167.6759574331
 21
216.7661681878
  0
LINE
  8
0
 62
7
  6
CONTINUOUS
 10
173.3513539216
 20
212.7757919132
 11
172.8699195747
 21
212.2943575664
  0
LINE
  8
0
 62
7
  6
CONTINUOUS
 10
173.3864167165
 20
212.0185775981
 11
173.6271338899
 21
212.2592947715
  0
LINE
  8
0
 62
7
  6
CONTINUOUS
 10
175.6078248515
 20
210.2786038099
 11
175.367107678
 21
210.0378866365
  0
LINE
  8
0
 62
7
  6
CONTINUOUS
 10
174.3631086527
 20
208.8754311011
 11
174.1223914793
 21
208.6347139277
  0
LINE
  8
0
 62
7
  6
CONTINUOUS
 10
174.5185291276
 20
208.2385762794
 11
175.3610392345
 21
209.0810863864
  0
LINE
  8
0
 62
7
  6
CONTINUOUS
 10
176.1152193279
 20
208.5676234664
 11
175.0319920476
 21
207.4843961861
  0
LINE
  8
0
 62
7
  6
CONTINUOUS
 10
175.5484891893
 20
207.2086162178
 11
176.3909992962
 21
208.0511263247
  0
LINE
  8
0
 62
7
  6
CONTINUOUS
 10
173.5967915038
 20
207.4752933522
 11
174.5185291276
 21
208.2385762794
  0
LINE
  8
0
 62
7
  6
CONTINUOUS
 10
176.3909992962
 20
208.0511263247
 11
177.1923781648
 21
208.6940504966
  0
LINE
  8
0
 62
7
  6
CONTINUOUS
 10
177.6084084059
 20
205.1486970012
 11
176.807028462
 21
204.5057735674
  0
LINE
  8
0
 62
7
  6
CONTINUOUS
 10
177.2031661103
 20
204.1096359191
 11
177.8841874675
 21
204.6322007662
  0
LINE
  8
0
 62
7
  6
CONTINUOUS
 10
185.1653771586
 20
202.4060723909
 11
184.6047145568
 21
202.0038662991
  0
LINE
  8
0
 62
7
  6
CONTINUOUS
 10
184.9597215362
 20
201.4081414719
 11
185.4000258886
 21
201.6899893142
  0
LINE
  8
0
 62
7
  6
CONTINUOUS
 10
188.6513931785
 20
198.9200563711
 11
188.0115041351
 21
198.5970767209
  0
LINE
  8
0
 62
7
  6
CONTINUOUS
 10
183.6496009789
 20
195.978180668
 11
184.2894901067
 21
196.3011604025
  0
LINE
  8
0
 62
7
  6
CONTINUOUS
 10
187.3732999505
 20
192.2544816965
 11
188.0131890782
 21
192.5774614309
  0
LINE
  8
0
 62
7
  6
CONTINUOUS
 10
187.6581817616
 20
193.173185921
 11
187.1386513048
 21
192.9705648575
  0
LINE
  8
DEFAULT_1
 62
2
  6
CENTER
 10
222.5628842213
 20
163.2435706967
 11
132.5535836066
 21
163.2435706967
  0
LINE
  8
0
 62
2
  6
CONTINUOUS
 10
131.6034836066
 20
163.2435706967
 11
129.5034836066
 21
163.2435706967
  0
LINE
  8
DEFAULT_1
 62
2
  6
CENTER
 10
37.823130123
 20
163.2435706967
 11
128.5533836066
 21
163.2435706967
  0
LINE
  8
0
 62
7
  6
CONTINUOUS
 10
70.6301923557
 20
187.9775104005
 11
70.9539032852
 21
187.8197869833
  0
LINE
  8
0
 62
7
  6
CONTINUOUS
 10
74.1658675738
 20
189.5874480628
 11
73.8421564673
 21
189.7451713453
  0
LINE
  8
0
 62
7
  6
CONTINUOUS
 10
72.983118122
 20
189.6082846467
 11
73.7508987263
 21
189.1724792153
  0
LINE
  8
0
 62
7
  6
CONTINUOUS
 10
74.1820426129
 20
195.3808359381
 11
73.7379729409
 21
195.6589177863
  0
LINE
  8
0
 62
7
  6
CONTINUOUS
 10
80.9544743897
 20
200.2275299904
 11
81.6392607603
 21
199.7087304939
  0
LINE
  8
0
 62
7
  6
CONTINUOUS
 10
82.6969891996
 20
206.7843892801
 11
83.1784238836
 21
206.3029545961
  0
LINE
  8
0
 62
7
  6
CONTINUOUS
 10
83.5560287687
 20
206.9212766546
 11
83.3153115953
 21
207.161993828
  0
LINE
  8
0
 62
7
  6
CONTINUOUS
 10
87.5483448121
 20
206.5806832394
 11
87.9094205722
 21
206.2196074793
  0
LINE
  8
0
 62
7
  6
CONTINUOUS
 10
88.5277416809
 20
206.5972114146
 11
87.9259487474
 21
207.1990043481
  0
LINE
  8
0
 62
7
  6
CONTINUOUS
 10
92.5405439527
 20
209.8878619976
 11
92.2624605956
 21
210.3319303293
  0
LINE
  8
0
 62
7
  6
CONTINUOUS
 10
100.0426840313
 20
224.1300841117
 11
99.8475970448
 21
224.6571486455
  0
LINE
  8
0
 62
7
  6
CONTINUOUS
 10
103.3667429976
 20
225.287687843
 11
103.1716560112
 21
225.8147523769
  0
LINE
  8
0
 62
7
  6
CONTINUOUS
 10
159.684753193
 20
220.1837456273
 11
159.4410017557
 21
219.4646282867
  0
LINE
  8
0
 62
7
  6
CONTINUOUS
 10
161.6516217741
 20
222.3090695
 11
161.4078703647
 21
221.5899522157
  0
LINE
  8
0
 62
7
  6
CONTINUOUS
 10
160.1601190963
 20
219.708379724
 11
160.3627396208
 21
220.2279108884
  0
LINE
  8
0
 62
7
  6
CONTINUOUS
 10
162.1269876915
 20
221.8337035825
 11
162.3296081317
 21
222.3532346627
  0
LINE
  8
0
 62
7
  6
CONTINUOUS
 10
163.4526179357
 20
217.1380325735
 11
163.1296388812
 21
216.4981427657
  0
LINE
  8
0
 62
7
  6
CONTINUOUS
 10
168.9968680023
 20
217.6117128536
 11
169.3198471991
 21
218.2516023505
  0
LINE
  8
0
 62
7
  6
CONTINUOUS
 10
168.7150197067
 20
217.1714089547
 11
168.9968680023
 21
217.6117128536
  0
LINE
  8
0
 62
7
  6
CONTINUOUS
 10
170.7415618621
 20
209.8490886471
 11
170.459713366
 21
209.4087854543
  0
LINE
  8
0
 62
7
  6
CONTINUOUS
 10
173.1045683047
 20
211.5782744897
 11
173.3864167165
 21
212.0185775981
  0
LINE
  8
0
 62
7
  6
CONTINUOUS
 10
175.0319920476
 20
207.4843961861
 11
174.5094262938
 21
206.8033757356
  0
LINE
  8
0
 62
7
  6
CONTINUOUS
 10
174.9055648488
 20
206.4072371806
 11
175.5484891893
 21
207.2086162178
  0
LINE
  8
0
 62
7
  6
CONTINUOUS
 10
175.3610392345
 20
209.0810863864
 11
176.1243219932
 21
210.0028238416
  0
LINE
  8
0
 62
7
  6
CONTINUOUS
 10
178.4509185128
 20
205.9912071081
 11
177.6084084059
 21
205.1486970012
  0
LINE
  8
0
 62
7
  6
CONTINUOUS
 10
177.8841874675
 20
204.6322007662
 11
178.9674147478
 21
205.7154280465
  0
LINE
  8
0
 62
7
  6
CONTINUOUS
 10
188.0115041351
 20
198.5970767209
 11
187.3304826093
 21
198.0745117052
  0
LINE
  8
0
 62
7
  6
CONTINUOUS
 10
187.8058485127
 20
197.5991458019
 11
188.3665111145
 21
198.0013518937
  0
LINE
  8
0
 62
7
  6
CONTINUOUS
 10
188.2188443634
 20
193.5753920128
 11
187.6581817616
 21
193.173185921
  0
LINE
  8
0
 62
7
  6
CONTINUOUS
 10
71.451865822
 20
188.3177495201
 11
70.9248024505
 21
188.5128378374
  0
LINE
  8
0
 62
7
  6
CONTINUOUS
 10
80.9623844603
 20
205.5312188876
 11
81.4064549445
 21
205.2531371772
  0
LINE
  8
0
 62
7
  6
CONTINUOUS
 10
82.0168646955
 20
200.3270516026
 11
81.4524369116
 21
200.7254925124
  0
LINE
  8
0
 62
7
  6
CONTINUOUS
 10
85.2162559386
 20
203.7671600191
 11
85.7806846723
 21
203.3687200592
  0
LINE
  8
0
 62
7
  6
CONTINUOUS
 10
83.1784238836
 20
206.3029545961
 11
83.7428526173
 21
205.9045146361
  0
LINE
  8
0
 62
7
  6
CONTINUOUS
 10
81.9044174665
 20
205.7510996992
 11
81.2196298089
 21
206.269898583
  0
LINE
  8
0
 62
7
  6
CONTINUOUS
 10
84.8587833494
 20
211.5940723374
 11
90.5156375989
 21
205.9372180879
  0
LINE
  8
0
 62
7
  6
CONTINUOUS
 10
90.2914485163
 20
207.1573322144
 11
88.4860694629
 21
208.9627112678
  0
LINE
  8
0
 62
7
  6
CONTINUOUS
 10
87.7639179427
 20
209.6848627881
 11
86.0788973916
 21
211.3698833391
  0
LINE
  8
0
 62
7
  6
CONTINUOUS
 10
88.8758918241
 20
212.7225740568
 11
89.1166089975
 21
212.4818568834
  0
LINE
  8
0
 62
7
  6
CONTINUOUS
 10
91.2830637268
 20
210.3154021541
 11
91.6441394869
 21
209.954326394
  0
LINE
  8
0
 62
7
  6
CONTINUOUS
 10
92.2624605956
 20
210.3319303293
 11
91.6606676621
 21
210.9337232628
  0
LINE
  8
0
 62
7
  6
CONTINUOUS
 10
89.7349301062
 20
212.8594608187
 11
89.2534954222
 21
213.3408955027
  0
LINE
  8
0
 62
7
  6
CONTINUOUS
 10
99.2292759362
 20
224.2795447103
 11
99.6277139966
 21
223.715114077
  0
LINE
  8
0
 62
7
  6
CONTINUOUS
 10
102.2752516297
 20
225.881216689
 11
102.5906972028
 21
225.2337935685
  0
LINE
  8
SURFACE
 62
7
  6
CONTINUOUS
 10
127.676271977
 20
80.0040429632
 11
126.6728519061
 21
74.3133649573
  0
LINE
  8
SURFACE
 62
7
  6
CONTINUOUS
 10
126.6728519061
 20
74.3133649573
 11
126.5121369923
 21
73.5400735498
  0
LINE
  8
0
 62
7
  6
CONTINUOUS
 10
171.6578608409
 20
242.199703881
 11
171.9053233466
 21
242.9497513414
  0
LINE
  8
0
 62
7
  6
CONTINUOUS
 10
165.7926994875
 20
221.5380328887
 11
166.0364508827
 21
222.2571501871
  0
LINE
  8
0
 62
7
  6
CONTINUOUS
 10
169.6815091101
 20
236.7697221277
 11
171.6578608409
 21
242.199703881
  0
LINE
  8
0
 62
7
  6
CONTINUOUS
 10
165.3173335842
 20
222.013398792
 11
165.1147132008
 21
221.4938676552
  0
LINE
  8
0
 62
7
  6
CONTINUOUS
 10
163.7253633712
 20
216.1431354491
 11
164.1306042224
 21
217.182197807
  0
LINE
  8
0
 62
7
  6
CONTINUOUS
 10
168.7241227091
 20
218.6066096671
 11
168.3188811517
 21
217.5675475097
  0
LINE
  8
0
 62
7
  6
CONTINUOUS
 10
174.2275787887
 20
206.3630717205
 11
173.9045990542
 21
205.7231825927
  0
LINE
  8
0
 62
7
  6
CONTINUOUS
 10
172.8699195747
 20
212.2943575664
 11
172.4265822446
 21
211.5341090295
  0
LINE
  8
0
 62
7
  6
CONTINUOUS
 10
176.1243219932
 20
210.0028238416
 11
176.5676596605
 21
210.7630727157
  0
LINE
  8
0
 62
7
  6
CONTINUOUS
 10
175.8896736004
 20
210.7189072555
 11
175.6078248515
 21
210.2786038099
  0
LINE
  8
0
 62
7
  6
CONTINUOUS
 10
174.5094262938
 20
206.8033757356
 11
174.2275787887
 21
206.3630717205
  0
LINE
  8
0
 62
7
  6
CONTINUOUS
 10
179.4899794263
 20
206.396449235
 11
179.771829082
 21
206.836751774
  0
LINE
  8
0
 62
7
  6
CONTINUOUS
 10
178.9674147478
 20
205.7154280465
 11
179.4899794263
 21
206.396449235
  0
LINE
  8
0
 62
7
  6
CONTINUOUS
 10
179.093841778
 20
206.7925868833
 11
178.4509185128
 21
205.9912071081
  0
LINE
  8
SURFACE
 62
7
  6
CONTINUOUS
 10
86.4419813766
 20
92.5946308953
 11
82.7276551015
 21
88.1680692129
  0
LINE
  8
SURFACE
 62
7
  6
CONTINUOUS
 10
82.7276551015
 20
88.1680692129
 11
82.2018261996
 21
87.5787366663
  0
LINE
  8
0
 62
7
  6
CONTINUOUS
 10
184.6047145568
 20
202.0038662991
 11
184.1232798728
 21
201.5224316151
  0
LINE
  8
0
 62
7
  6
CONTINUOUS
 10
184.7190043628
 20
201.1674242985
 11
184.9597215362
 21
201.4081414719
  0
LINE
  8
0
 62
7
  6
CONTINUOUS
 10
184.2955585502
 20
197.2579606526
 11
183.9344827901
 21
196.8968848925
  0
LINE
  8
0
 62
7
  6
CONTINUOUS
 10
184.2894901067
 20
196.3011604025
 11
184.8912830402
 21
196.902953336
  0
LINE
  8
0
 62
7
  6
CONTINUOUS
 10
187.3304826093
 20
198.0745117052
 11
185.5251036402
 21
196.269132736
  0
LINE
  8
0
 62
7
  6
CONTINUOUS
 10
186.0004695435
 20
195.7937668327
 11
187.8058485127
 21
197.5991458019
  0
LINE
  8
0
 62
7
  6
CONTINUOUS
 10
190.0242233326
 20
195.3807709819
 11
188.2188443634
 21
193.5753920128
  0
LINE
  8
0
 62
7
  6
CONTINUOUS
 10
205.6289850904
 20
211.0693992018
 11
206.218317637
 21
211.5952281037
  0
LINE
  8
0
 62
7
  6
CONTINUOUS
 10
201.202423408
 20
207.3550729267
 11
205.6289850904
 21
211.0693992018
  0
LINE
  8
0
 62
7
  6
CONTINUOUS
 10
188.0131890782
 20
192.5774614309
 11
188.6942102668
 21
193.1000261095
  0
LINE
  8
SURFACE
 62
7
  6
CONTINUOUS
 10
57.0273321756
 20
124.1155451932
 11
51.5973504222
 21
122.1391934624
  0
LINE
  8
0
 62
7
  6
CONTINUOUS
 10
41.6232778672
 20
159.3629389962
 11
40.8499864596
 21
159.2022240824
  0
LINE
  8
0
 62
7
  6
CONTINUOUS
 10
186.9741280804
 20
192.1722192197
 11
187.3732999505
 21
192.2544816965
  0
LINE
  8
0
 62
7
  6
CONTINUOUS
 10
47.3139558731
 20
160.3663590672
 11
41.6232778672
 21
159.3629389962
  0
LINE
  8
SURFACE
 62
7
  6
CONTINUOUS
 10
213.7930113401
 20
160.3663590672
 11
219.4836893459
 21
159.3629389962
  0
LINE
  8
0
 62
7
  6
CONTINUOUS
 10
70.9539032852
 20
187.8197869833
 11
71.5639603336
 21
187.7076924271
  0
LINE
  8
SURFACE
 62
7
  6
CONTINUOUS
 10
219.4836893459
 20
159.3629389962
 11
220.2569807535
 21
159.2022240824
  0
LINE
  8
0
 62
7
  6
CONTINUOUS
 10
51.5973504222
 20
204.3479479311
 11
50.8473029618
 21
204.5954104367
  0
LINE
  8
0
 62
7
  6
CONTINUOUS
 10
57.0273321756
 20
202.3715962002
 11
51.5973504222
 21
204.3479479311
  0
LINE
  8
0
 62
7
  6
CONTINUOUS
 10
82.5439282796
 20
200.1319636664
 11
82.0168646955
 21
200.3270516026
  0
LINE
  8
0
 62
7
  6
CONTINUOUS
 10
81.6392607603
 20
199.7087304939
 11
82.2866830153
 21
199.3932838868
  0
LINE
  8
0
 62
7
  6
CONTINUOUS
 10
86.1582886076
 20
203.9870411678
 11
85.7142184606
 21
204.2651225411
  0
LINE
  8
0
 62
7
  6
CONTINUOUS
 10
84.0000970161
 20
206.6431933817
 11
83.5560287687
 21
206.9212766546
  0
LINE
  8
0
 62
7
  6
CONTINUOUS
 10
85.2697952465
 20
209.357195327
 11
84.8257269991
 21
209.6352785998
  0
LINE
  8
0
 62
7
  6
CONTINUOUS
 10
90.8389953108
 20
210.5934855956
 11
91.2830637268
 21
210.3154021541
  0
LINE
  8
0
 62
7
  6
CONTINUOUS
 10
91.6606676621
 20
210.9337232628
 11
91.2165992461
 21
211.2118067042
  0
LINE
  8
0
 62
7
  6
CONTINUOUS
 10
88.4318232396
 20
213.0006576669
 11
88.8758918241
 21
212.7225740568
  0
LINE
  8
SURFACE
 62
7
  6
CONTINUOUS
 10
201.202423408
 20
119.1320684667
 11
205.6289850904
 21
115.4177421917
  0
LINE
  8
SURFACE
 62
7
  6
CONTINUOUS
 10
205.6289850904
 20
115.4177421917
 11
206.218317637
 21
114.8919132898
  0
LINE
  8
0
 62
7
  6
CONTINUOUS
 10
92.5772024398
 20
219.3124914278
 11
93.1789953734
 21
218.7106984943
  0
LINE
  8
0
 62
7
  6
CONTINUOUS
 10
97.2711879114
 20
214.6185059562
 11
98.2340566893
 21
213.6556371783
  0
LINE
  8
0
 62
7
  6
CONTINUOUS
 10
101.5538055694
 20
216.9753860583
 11
100.8316539648
 21
217.6975376629
  0
LINE
  8
0
 62
7
  6
CONTINUOUS
 10
96.7394614268
 20
221.7897302009
 11
95.8969513199
 21
222.6322403078
  0
LINE
  8
0
 62
7
  6
CONTINUOUS
 10
97.4034127225
 20
222.4536814966
 11
98.3662817533
 21
221.4908124657
  0
LINE
  8
0
 62
7
  6
CONTINUOUS
 10
98.0217338311
 20
222.8312854318
 11
102.715719387
 21
218.137299876
  0
LINE
  8
0
 62
7
  6
CONTINUOUS
 10
82.7276551015
 20
238.3190721806
 11
82.2018261996
 21
238.9084047272
  0
LINE
  8
0
 62
7
  6
CONTINUOUS
 10
86.4419813766
 20
233.8925104982
 11
82.7276551015
 21
238.3190721806
  0
LINE
  8
0
 62
7
  6
CONTINUOUS
 10
103.1716560112
 20
225.8147523769
 11
102.7732141517
 21
226.3791792109
  0
LINE
  8
SURFACE
 62
7
  6
CONTINUOUS
 10
169.6815091101
 20
89.7174192657
 11
171.6578608409
 21
84.2874375124
  0
LINE
  8
0
 62
7
  6
CONTINUOUS
 10
126.6728519061
 20
252.1737764361
 11
126.5121369923
 21
252.9470678437
  0
LINE
  8
0
 62
7
  6
CONTINUOUS
 10
127.676271977
 20
246.4830984302
 11
126.6728519061
 21
252.1737764361
  0
LINE
  8
0
 62
7
  6
CONTINUOUS
 10
142.7409108618
 20
66.4830984302
 11
143.4971847557
 21
70.7721408149
  0
LINE
  8
0
 62
7
  6
CONTINUOUS
 10
163.1296388812
 20
216.4981427657
 11
163.0062460306
 21
215.8993840118
  0
LINE
  8
0
 62
7
  6
CONTINUOUS
 10
169.3198471991
 20
218.2516023505
 11
169.4432400076
 21
218.8503610622
  0
LINE
  8
0
 62
7
  6
CONTINUOUS
 10
170.459713366
 20
209.4087854543
 11
170.2159619287
 21
208.6896681137
  0
LINE
  8
0
 62
7
  6
CONTINUOUS
 10
172.4265822446
 20
211.5341090295
 11
172.1828308494
 21
210.814991731
  0
LINE
  8
0
 62
7
  6
CONTINUOUS
 10
176.5676596605
 20
210.7630727157
 11
176.8114110557
 21
211.4821900141
  0
LINE
  8
0
 62
7
  6
CONTINUOUS
 10
171.1130891127
 20
218.1433806508
 11
169.6917111896
 21
214.0282629111
  0
LINE
  8
0
 62
7
  6
CONTINUOUS
 10
169.3276012077
 20
213.1887870259
 11
168.1499751331
 21
209.7927861313
  0
LINE
  8
0
 62
7
  6
CONTINUOUS
 10
170.4108284881
 20
214.2720143062
 11
171.588455016
 21
217.6680147474
  0
LINE
  8
0
 62
7
  6
CONTINUOUS
 10
168.6253410365
 20
209.317420228
 11
170.1670770929
 21
213.5528970078
  0
LINE
  8
SURFACE
 62
7
  6
CONTINUOUS
 10
189.4883413497
 20
240.9468841341
 11
187.9987725616
 21
236.8543275241
  0
LINE
  8
0
 62
7
  6
CONTINUOUS
 10
170.9350792693
 20
208.933419551
 11
171.1377004171
 21
209.4529500921
  0
LINE
  8
0
 62
7
  6
CONTINUOUS
 10
172.9019481479
 20
211.0587431262
 11
173.1045683047
 21
211.5782744897
  0
LINE
  8
0
 62
7
  6
CONTINUOUS
 10
176.0922937572
 20
211.238438619
 11
175.8896736004
 21
210.7189072555
  0
LINE
  8
0
 62
7
  6
CONTINUOUS
 10
174.5003235442
 20
205.3681752761
 11
174.9055648488
 21
206.4072371806
  0
LINE
  8
0
 62
7
  6
CONTINUOUS
 10
179.771829082
 20
206.836751774
 11
180.0948069188
 21
207.4766426308
  0
LINE
  8
0
 62
7
  6
CONTINUOUS
 10
181.7923020034
 20
198.5576313324
 11
182.0741495085
 21
198.9979353475
  0
LINE
  8
0
 62
7
  6
CONTINUOUS
 10
184.4371568577
 20
200.7271202834
 11
184.7190043628
 21
201.1674242985
  0
LINE
  8
0
 62
7
  6
CONTINUOUS
 10
187.0607723284
 20
199.5478085275
 11
187.3426198335
 21
199.9881125427
  0
LINE
  8
0
 62
7
  6
CONTINUOUS
 10
181.5987836052
 20
199.4733012508
 11
181.1965775134
 21
198.912638649
  0
LINE
  8
0
 62
7
  6
CONTINUOUS
 10
184.1232798728
 20
201.5224316151
 11
183.721073781
 21
200.9617690133
  0
LINE
  8
0
 62
7
  6
CONTINUOUS
 10
185.5982634517
 20
195.2331042309
 11
186.0004695435
 21
195.7937668327
  0
LINE
  8
0
 62
7
  6
CONTINUOUS
 10
185.5251036402
 20
196.269132736
 11
185.0025389617
 21
195.5881115475
  0
LINE
  8
0
 62
7
  6
CONTINUOUS
 10
190.4995892359
 20
194.9054050786
 11
191.0221542516
 21
195.5864266043
  0
LINE
  8
0
 62
7
  6
CONTINUOUS
 10
92.7278690832
 20
73.3528300041
 11
95.5273426797
 21
76.6891127202
  0
LINE
  8
0
 62
7
  6
CONTINUOUS
 10
188.6942102668
 20
193.1000261095
 11
190.4995892359
 21
194.9054050786
  0
LINE
  8
SURFACE
 62
7
  6
CONTINUOUS
 10
220.4442242992
 20
201.0691852201
 11
217.1079415831
 21
198.2697116235
  0
LINE
  8
0
 62
7
  6
CONTINUOUS
 10
52.8501701692
 20
104.3087129536
 11
56.9427267792
 21
105.7982817417
  0
LINE
  8
0
 62
7
  6
CONTINUOUS
 10
182.8512553833
 20
195.8136574857
 11
183.6496009789
 21
195.978180668
  0
LINE
  8
0
 62
7
  6
CONTINUOUS
 10
189.449738732
 20
199.0845795112
 11
188.6513931785
 21
198.9200563711
  0
LINE
  8
0
 62
7
  6
CONTINUOUS
 10
185.9637227121
 20
202.5705955311
 11
185.1653771586
 21
202.4060723909
  0
LINE
  8
SURFACE
 62
7
  6
CONTINUOUS
 10
33.7930113401
 20
175.430997952
 11
38.0820537247
 21
176.1872718458
  0
LINE
  8
0
 62
7
  6
CONTINUOUS
 10
71.5639603336
 20
187.7076924271
 11
72.0536588293
 21
187.7159565128
  0
LINE
  8
0
 62
7
  6
CONTINUOUS
 10
227.3139558731
 20
175.430997952
 11
223.0249134884
 21
176.1872718458
  0
LINE
  8
0
 62
7
  6
CONTINUOUS
 10
73.3603690056
 20
195.0405966776
 11
73.767073528
 21
194.9658668532
  0
LINE
  8
0
 62
7
  6
CONTINUOUS
 10
73.7379729409
 20
195.6589177863
 11
73.3312684184
 21
195.7336476107
  0
LINE
  8
0
 62
7
  6
CONTINUOUS
 10
82.2866830153
 20
199.3932838868
 11
83.1000921023
 21
199.2438241958
  0
LINE
  8
SURFACE
 62
7
  6
CONTINUOUS
 10
52.8501701692
 20
222.1784284398
 11
56.9427267792
 21
220.6888596518
  0
LINE
  8
0
 62
7
  6
CONTINUOUS
 10
87.0212820093
 20
206.775772294
 11
87.5483448121
 21
206.5806832394
  0
LINE
  8
0
 62
7
  6
CONTINUOUS
 10
85.7806846723
 20
203.3687200592
 11
86.6314589933
 21
203.0159082602
  0
LINE
  8
0
 62
7
  6
CONTINUOUS
 10
87.9259487474
 20
207.1990043481
 11
87.2785273578
 21
207.5144519894
  0
LINE
  8
0
 62
7
  6
CONTINUOUS
 10
84.4481230639
 20
209.0169574912
 11
84.7718327246
 21
208.859232805
  0
LINE
  8
0
 62
7
  6
CONTINUOUS
 10
89.2534954222
 20
213.3408955027
 11
88.8094271748
 21
213.6189787755
  0
LINE
  8
0
 62
7
  6
CONTINUOUS
 10
220.4442242992
 20
125.4179561733
 11
217.1079415831
 21
128.2174297699
  0
LINE
  8
0
 62
7
  6
CONTINUOUS
 10
103.2136819089
 20
218.6352623979
 11
97.5568276595
 21
224.2921166474
  0
LINE
  8
0
 62
7
  6
CONTINUOUS
 10
103.2758382872
 20
219.9010048118
 11
103.877631305
 21
219.299211794
  0
LINE
  8
0
 62
7
  6
CONTINUOUS
 10
102.0345341191
 20
226.1219341996
 11
102.2752516297
 21
225.881216689
  0
LINE
  8
0
 62
7
  6
CONTINUOUS
 10
106.8654064368
 20
222.2869869258
 11
106.263613419
 21
222.8887799436
  0
LINE
  8
0
 62
7
  6
CONTINUOUS
 10
102.7732141517
 20
226.3791792109
 11
102.5324966411
 21
226.6198967215
  0
LINE
  8
SURFACE
 62
7
  6
CONTINUOUS
 10
92.7278690832
 20
253.1343113893
 11
95.5273426797
 21
249.7980286732
  0
LINE
  8
0
 62
7
  6
CONTINUOUS
 10
189.4883413497
 20
85.5402572594
 11
187.9987725616
 21
89.6328138693
  0
LINE
  8
SURFACE
 62
7
  6
CONTINUOUS
 10
142.7409108618
 20
260.0040429632
 11
143.4971847557
 21
255.7150005786
  0
LINE
  8
0
 62
7
  6
CONTINUOUS
 10
159.4410017557
 20
219.4646282867
 11
159.4760642356
 21
218.7074142233
  0
LINE
  8
0
 62
7
  6
CONTINUOUS
 10
161.4078703647
 20
221.5899522157
 11
161.4429328479
 21
220.8327382123
  0
LINE
  8
0
 62
7
  6
CONTINUOUS
 10
163.0062460306
 20
215.8993840118
 11
163.0413083405
 21
215.1421701184
  0
LINE
  8
0
 62
7
  6
CONTINUOUS
 10
166.0364508827
 20
222.2571501871
 11
166.0013883145
 21
223.0143642756
  0
LINE
  8
0
 62
7
  6
CONTINUOUS
 10
160.1570848746
 20
219.2299795989
 11
160.1601190963
 21
219.708379724
  0
LINE
  8
0
 62
7
  6
CONTINUOUS
 10
162.1239534698
 20
221.3553034575
 11
162.1269876915
 21
221.8337035825
  0
LINE
  8
0
 62
7
  6
CONTINUOUS
 10
163.7223291495
 20
215.664735324
 11
163.7253633712
 21
216.1431354491
  0
LINE
  8
0
 62
7
  6
CONTINUOUS
 10
165.320367806
 20
222.491798917
 11
165.3173335842
 21
222.013398792
  0
LINE
  8
0
 62
7
  6
CONTINUOUS
 10
168.7271569309
 20
219.0850097921
 11
168.7241227091
 21
218.6066096671
  0
LINE
  8
0
 62
7
  6
CONTINUOUS
 10
173.9045990542
 20
205.7231825927
 11
173.7812062036
 21
205.1244238388
  0
LINE
  8
0
 62
7
  6
CONTINUOUS
 10
179.4990824288
 20
207.8316499474
 11
179.093841778
 21
206.7925868833
  0
LINE
  8
0
 62
7
  6
CONTINUOUS
 10
184.4981797822
 20
197.777491278
 11
184.2955585502
 21
197.2579606526
  0
LINE
  8
0
 62
7
  6
CONTINUOUS
 10
181.1965775134
 20
198.912638649
 11
180.8324674051
 21
198.0731626374
  0
LINE
  8
0
 62
7
  6
CONTINUOUS
 10
184.8912830402
 20
196.902953336
 11
185.214262859
 21
197.5428425481
  0
LINE
  8
0
 62
7
  6
CONTINUOUS
 10
186.7468953435
 20
200.3431198593
 11
186.5854064251
 21
200.0231744309
  0
LINE
  8
0
 62
7
  6
CONTINUOUS
 10
185.0025389617
 20
195.5881115475
 11
184.6795592272
 21
194.9482224197
  0
LINE
  8
0
 62
7
  6
CONTINUOUS
 10
190.4264294244
 20
195.9414335838
 11
190.0242233326
 21
195.3807709819
  0
LINE
  8
0
 62
7
  6
CONTINUOUS
 10
175.5242142135
 20
203.3814158289
 11
176.1229729675
 21
203.5048086795
  0
LINE
  8
0
 62
7
  6
CONTINUOUS
 10
178.4751917173
 20
209.8184093525
 11
177.8764330055
 21
209.6950165441
  0
LINE
  8
0
 62
7
  6
CONTINUOUS
 10
72.0245580324
 20
188.4090072994
 11
71.451865822
 21
188.3177495201
  0
LINE
  8
0
 62
7
  6
CONTINUOUS
 10
73.3312684184
 20
195.7336476107
 11
72.841569984
 21
195.7253835231
  0
LINE
  8
0
 62
7
  6
CONTINUOUS
 10
83.0336267982
 20
200.1402276697
 11
82.5439282796
 21
200.1319636664
  0
LINE
  8
0
 62
7
  6
CONTINUOUS
 10
183.4149523333
 20
196.694263829
 11
182.9365521239
 21
196.691229523
  0
LINE
  8
0
 62
7
  6
CONTINUOUS
 10
188.8860419084
 20
198.2039732943
 11
189.3644420335
 21
198.2070075161
  0
LINE
  8
0
 62
7
  6
CONTINUOUS
 10
185.4000258886
 20
201.6899893142
 11
185.8784260136
 21
201.693023536
  0
LINE
  8
0
 62
7
  6
CONTINUOUS
 10
86.7683447632
 20
203.8749456346
 11
86.1582886076
 21
203.9870411678
  0
LINE
  8
0
 62
7
  6
CONTINUOUS
 10
81.2196298089
 20
206.269898583
 11
80.406220764
 21
206.4193582318
  0
LINE
  8
0
 62
7
  6
CONTINUOUS
 10
83.7428526173
 20
205.9045146361
 11
84.5562616622
 21
205.7550549874
  0
LINE
  8
0
 62
7
  6
CONTINUOUS
 10
87.2785273578
 20
207.5144519894
 11
86.4651173632
 21
207.6639106884
  0
LINE
  8
0
 62
7
  6
CONTINUOUS
 10
84.0414171168
 20
209.0916858909
 11
84.4481230639
 21
209.0169574912
  0
LINE
  8
0
 62
7
  6
CONTINUOUS
 10
84.8257269991
 20
209.6352785998
 11
84.0953113913
 21
209.8677316857
  0
LINE
  8
0
 62
7
  6
CONTINUOUS
 10
91.2165992461
 20
211.2118067042
 11
90.4861836383
 21
211.4442597901
  0
LINE
  8
0
 62
7
  6
CONTINUOUS
 10
88.8094271748
 20
213.6189787755
 11
88.079011567
 21
213.8514318614
  0
LINE
  8
0
 62
7
  6
CONTINUOUS
 10
102.5324966411
 20
226.6198967215
 11
101.968069807
 21
227.0183385811
  0
LINE
  8
0
 62
7
  6
CONTINUOUS
 10
169.4432400076
 20
218.8503610622
 11
169.4081772127
 21
219.6075753773
  0
LINE
  8
0
 62
7
  6
CONTINUOUS
 10
170.2159619287
 20
208.6896681137
 11
170.251024692
 21
207.932453767
  0
LINE
  8
0
 62
7
  6
CONTINUOUS
 10
172.1828308494
 20
210.814991731
 11
172.2178936443
 21
210.0577774159
  0
LINE
  8
0
 62
7
  6
CONTINUOUS
 10
173.7812062036
 20
205.1244238388
 11
173.8162689669
 21
204.3672094921
  0
LINE
  8
0
 62
7
  6
CONTINUOUS
 10
170.9320450476
 20
208.4550194259
 11
170.9350792693
 21
208.933419551
  0
LINE
  8
0
 62
7
  6
CONTINUOUS
 10
172.8989139261
 20
210.5803430011
 11
172.9019481479
 21
211.0587431262
  0
LINE
  8
0
 62
7
  6
CONTINUOUS
 10
174.4972902292
 20
204.8897742444
 11
174.5003235442
 21
205.3681752761
  0
LINE
  8
0
 62
7
  6
CONTINUOUS
 10
176.095327979
 20
211.716838744
 11
176.0922937572
 21
211.238438619
  0
LINE
  8
0
 62
7
  6
CONTINUOUS
 10
180.0948069188
 20
207.4766426308
 11
180.2181997272
 21
208.0754013426
  0
LINE
  8
0
 62
7
  6
CONTINUOUS
 10
181.6689091106
 20
197.9588725363
 11
181.7923020034
 21
198.5576313324
  0
LINE
  8
0
 62
7
  6
CONTINUOUS
 10
183.721073781
 20
200.9617690133
 11
183.5565506409
 21
200.1634234598
  0
LINE
  8
0
 62
7
  6
CONTINUOUS
 10
184.6795592272
 20
194.9482224197
 11
184.5150360449
 21
194.1498768241
  0
LINE
  8
0
 62
7
  6
CONTINUOUS
 10
185.214262859
 20
197.5428425481
 11
185.3787859991
 21
198.3411881016
  0
LINE
  8
0
 62
7
  6
CONTINUOUS
 10
186.8291578203
 20
200.7422917293
 11
186.7468953435
 21
200.3431198593
  0
LINE
  8
0
 62
7
  6
CONTINUOUS
 10
187.3426198335
 20
199.9881125427
 11
187.5863712287
 21
200.7072298411
  0
LINE
  8
0
 62
7
  6
CONTINUOUS
 10
185.3956423882
 20
194.7135737741
 11
185.5982634517
 21
195.2331042309
  0
LINE
  8
0
 62
7
  6
CONTINUOUS
 10
190.6290508251
 20
196.4609643777
 11
190.4264294244
 21
195.9414335838
  0
LINE
  8
0
 62
7
  6
CONTINUOUS
 10
191.0221542516
 20
195.5864266043
 11
191.3451339018
 21
196.2263156478
  0
LINE
  8
0
 62
7
  6
CONTINUOUS
 10
134.685788289
 20
103.7362650724
 11
148.8279239127
 21
117.8784006961
  0
LINE
  8
0
 62
7
  6
CONTINUOUS
 10
175.9186536072
 20
144.9691303905
 11
190.0607892309
 21
159.1112660143
  0
LINE
  8
0
 62
7
  6
CONTINUOUS
 10
153.3113859885
 20
118.826328866
 11
174.9707254373
 21
140.4856683148
  0
LINE
  8
0
 62
7
  6
CONTINUOUS
 10
164.7492544939
 20
214.1563755485
 11
165.3480132478
 21
214.2797683991
  0
LINE
  8
0
 62
7
  6
CONTINUOUS
 10
73.0740230699
 20
194.9949679153
 11
73.3603690056
 21
195.0405966776
  0
LINE
  8
0
 62
7
  6
CONTINUOUS
 10
83.1000921023
 20
199.2438241958
 11
83.6727840054
 21
199.3350816889
  0
LINE
  8
0
 62
7
  6
CONTINUOUS
 10
86.6314589933
 20
203.0159082602
 11
87.4075038699
 21
203.0698015534
  0
LINE
  8
0
 62
7
  6
CONTINUOUS
 10
80.472686026
 20
205.5229548001
 11
80.9623844603
 21
205.5312188876
  0
LINE
  8
0
 62
7
  6
CONTINUOUS
 10
84.4897954505
 20
206.6514574693
 11
84.0000970161
 21
206.6431933817
  0
LINE
  8
0
 62
7
  6
CONTINUOUS
 10
86.5315835749
 20
206.7675082064
 11
87.0212820093
 21
206.775772294
  0
LINE
  8
0
 62
7
  6
CONTINUOUS
 10
175.7679656508
 20
204.1005331695
 11
175.2895655258
 21
204.0974989478
  0
LINE
  8
0
 62
7
  6
CONTINUOUS
 10
172.3611769793
 20
207.5073218411
 11
171.8827768542
 21
207.5042876193
  0
LINE
  8
0
 62
7
  6
CONTINUOUS
 10
173.4063084026
 20
208.8693626576
 11
174.3631086527
 21
208.8754311011
  0
LINE
  8
0
 62
7
  6
CONTINUOUS
 10
178.2314403221
 20
209.099292054
 11
178.7098413539
 21
209.1023253691
  0
LINE
  8
0
 62
7
  6
CONTINUOUS
 10
174.4072732062
 20
209.5534180679
 11
173.9288730811
 21
209.5503838462
  0
LINE
  8
0
 62
7
  6
CONTINUOUS
 10
84.0953113913
 20
209.8677316857
 11
83.4022599834
 21
209.8968317979
  0
LINE
  8
0
 62
7
  6
CONTINUOUS
 10
174.7670007735
 20
203.4164776855
 11
175.5242142135
 21
203.3814158289
  0
LINE
  8
0
 62
7
  6
CONTINUOUS
 10
171.3602121019
 20
206.823266357
 11
172.117425542
 21
206.7882045004
  0
LINE
  8
0
 62
7
  6
CONTINUOUS
 10
182.2936269716
 20
195.8898514874
 11
182.8512553833
 21
195.8136574857
  0
LINE
  8
0
 62
7
  6
CONTINUOUS
 10
190.0073671121
 20
199.008385478
 11
189.449738732
 21
199.0845795112
  0
LINE
  8
0
 62
7
  6
CONTINUOUS
 10
186.5213492788
 20
202.4944033112
 11
185.9637227121
 21
202.5705955311
  0
LINE
  8
0
 62
7
  6
CONTINUOUS
 10
90.4322893637
 20
210.6682139953
 11
90.8389953108
 21
210.5934855956
  0
LINE
  8
0
 62
7
  6
CONTINUOUS
 10
88.0251172925
 20
213.0753860666
 11
88.4318232396
 21
213.0006576669
  0
LINE
  8
0
 62
7
  6
CONTINUOUS
 10
186.0173277565
 20
192.1661507025
 11
186.3753693054
 21
192.048826348
  0
LINE
  8
0
 62
7
  6
CONTINUOUS
 10
186.5810228405
 20
193.0467588065
 11
186.2229813021
 21
193.1640831714
  0
LINE
  8
0
 62
7
  6
CONTINUOUS
 10
190.0607892309
 20
167.3758753792
 11
175.9186536072
 21
181.5180110029
  0
LINE
  8
0
 62
7
  6
CONTINUOUS
 10
148.8279239127
 20
208.6087406973
 11
134.685788289
 21
222.750876321
  0
LINE
  8
0
 62
7
  6
CONTINUOUS
 10
174.9707254373
 20
186.0014730787
 11
153.3113859885
 21
207.6608125275
  0
LINE
  8
0
 62
7
  6
CONTINUOUS
 10
160.2744092395
 20
218.8719380606
 11
160.1570848746
 21
219.2299795989
  0
LINE
  8
0
 62
7
  6
CONTINUOUS
 10
176.8114110557
 20
211.4821900141
 11
176.7763491675
 21
212.2394034226
  0
LINE
  8
0
 62
7
  6
CONTINUOUS
 10
180.2181997272
 20
208.0754013426
 11
180.183137839
 21
208.832614751
  0
LINE
  8
0
 62
7
  6
CONTINUOUS
 10
180.8324674051
 20
198.0731626374
 11
180.8675292616
 21
197.3159491973
  0
LINE
  8
0
 62
7
  6
CONTINUOUS
 10
179.5021166505
 20
208.3100500725
 11
179.4990824288
 21
207.8316499474
  0
LINE
  8
0
 62
7
  6
CONTINUOUS
 10
184.434122636
 20
200.2487201583
 11
184.4371568577
 21
200.7271202834
  0
LINE
  8
0
 62
7
  6
CONTINUOUS
 10
184.501214004
 20
198.255891403
 11
184.4981797822
 21
197.777491278
  0
LINE
  8
0
 62
7
  6
CONTINUOUS
 10
185.3926080822
 20
194.2351735648
 11
185.3956423882
 21
194.7135737741
  0
LINE
  8
0
 62
7
  6
CONTINUOUS
 10
187.5863712287
 20
200.7072298411
 11
187.6305375955
 21
201.3852149946
  0
LINE
  8
0
 62
7
  6
CONTINUOUS
 10
186.3753693054
 20
192.048826348
 11
186.2931068076
 21
191.6496544569
  0
LINE
  8
0
 62
7
  6
CONTINUOUS
 10
186.78667821
 20
194.0446894726
 11
186.5810228405
 21
193.0467588065
  0
LINE
  8
0
 62
7
  6
CONTINUOUS
 10
186.7684727109
 20
191.1742885536
 11
186.9741280804
 21
192.1722192197
  0
LINE
  8
0
 62
7
  6
CONTINUOUS
 10
187.1386513048
 20
192.9705648575
 11
187.2620441133
 21
193.5693235693
  0
LINE
  8
0
 62
7
  6
CONTINUOUS
 10
191.3451339018
 20
196.2263156478
 11
191.5096570419
 21
197.0246612013
  0
LINE
  8
0
 62
7
  6
CONTINUOUS
 10
141.8671921055
 20
96.7755332652
 11
197.0215210381
 21
151.9298621977
  0
LINE
  8
0
 62
7
  6
CONTINUOUS
 10
167.7002315443
 20
220.5933695255
 11
167.1014728325
 21
220.4699767171
  0
LINE
  8
0
 62
7
  6
CONTINUOUS
 10
84.5562616622
 20
205.7550549874
 11
85.1289544834
 21
205.8463134618
  0
LINE
  8
0
 62
7
  6
CONTINUOUS
 10
80.406220764
 20
206.4193582318
 11
79.8335288926
 21
206.3281007071
  0
LINE
  8
0
 62
7
  6
CONTINUOUS
 10
86.4651173632
 20
207.6639106884
 11
85.8924264415
 21
207.5726541135
  0
LINE
  8
0
 62
7
  6
CONTINUOUS
 10
90.4861836383
 20
211.4442597901
 11
90.1998362779
 21
211.3986296031
  0
LINE
  8
0
 62
7
  6
CONTINUOUS
 10
174.5869686989
 20
212.7437636773
 11
175.065368824
 21
212.746797899
  0
LINE
  8
0
 62
7
  6
CONTINUOUS
 10
164.9930059312
 20
214.8754928892
 11
164.5146058061
 21
214.8724586674
  0
LINE
  8
0
 62
7
  6
CONTINUOUS
 10
161.5862168063
 20
218.2822820141
 11
161.1078166812
 21
218.2792477923
  0
LINE
  8
0
 62
7
  6
CONTINUOUS
 10
162.6313475496
 20
219.6443235106
 11
163.5881477997
 21
219.6503919542
  0
LINE
  8
0
 62
7
  6
CONTINUOUS
 10
167.4564801491
 20
219.874252227
 11
167.9348802742
 21
219.8772864488
  0
LINE
  8
0
 62
7
  6
CONTINUOUS
 10
163.6323130332
 20
220.3283782409
 11
163.1539129081
 21
220.3253440192
  0
LINE
  8
0
 62
7
  6
CONTINUOUS
 10
88.079011567
 20
213.8514318614
 11
87.3859601591
 21
213.8805319736
  0
LINE
  8
0
 62
7
  6
CONTINUOUS
 10
179.2324060324
 20
209.7833465576
 11
178.4751917173
 21
209.8184093525
  0
LINE
  8
0
 62
7
  6
CONTINUOUS
 10
175.5879344092
 20
213.4278181809
 11
174.8307200941
 21
213.4628809757
  0
LINE
  8
0
 62
7
  6
CONTINUOUS
 10
163.9920401472
 20
214.1914383118
 11
164.7492544939
 21
214.1563755485
  0
LINE
  8
0
 62
7
  6
CONTINUOUS
 10
160.5852512489
 20
217.59822721
 11
161.342465369
 21
217.5631646734
  0
LINE
  8
0
 62
7
  6
CONTINUOUS
 10
185.8784260136
 20
201.693023536
 11
186.236467552
 21
201.575699171
  0
LINE
  8
0
 62
7
  6
CONTINUOUS
 10
171.8827768542
 20
207.5042876193
 11
171.5247353159
 21
207.6216119843
  0
LINE
  8
0
 62
7
  6
CONTINUOUS
 10
101.5074695853
 20
226.317021186
 11
102.0345341191
 21
226.1219341996
  0
LINE
  8
0
 62
7
  6
CONTINUOUS
 10
182.9365521239
 20
196.691229523
 11
182.4992823306
 21
196.887782143
  0
LINE
  8
0
 62
7
  6
CONTINUOUS
 10
189.3644420335
 20
198.2070075161
 11
189.8017118269
 21
198.0104548961
  0
LINE
  8
0
 62
7
  6
CONTINUOUS
 10
185.5008296976
 20
192.4419315669
 11
186.0173277565
 21
192.1661507025
  0
LINE
  8
0
 62
7
  6
CONTINUOUS
 10
181.777130726
 20
196.1656305384
 11
182.2936269716
 21
195.8898514874
  0
LINE
  8
0
 62
7
  6
CONTINUOUS
 10
197.0215210381
 20
174.5572791957
 11
141.8671921055
 21
229.7116081283
  0
LINE
  8
0
 62
7
  6
CONTINUOUS
 10
163.0413083405
 20
215.1421701184
 11
163.3963156466
 21
214.5464456179
  0
LINE
  8
0
 62
7
  6
CONTINUOUS
 10
159.4760642356
 20
218.7074142233
 11
159.7518439101
 21
218.1909173544
  0
LINE
  8
0
 62
7
  6
CONTINUOUS
 10
163.9981086644
 20
215.1482386357
 11
163.7223291495
 21
215.664735324
  0
LINE
  8
0
 62
7
  6
CONTINUOUS
 10
161.4429328479
 20
220.8327382123
 11
161.7187123643
 21
220.3162411853
  0
LINE
  8
0
 62
7
  6
CONTINUOUS
 10
170.251024692
 20
207.932453767
 11
170.5268046497
 21
207.4159566147
  0
LINE
  8
0
 62
7
  6
CONTINUOUS
 10
162.2412777781
 20
220.9972619758
 11
162.1239534698
 21
221.3553034575
  0
LINE
  8
0
 62
7
  6
CONTINUOUS
 10
165.203043441
 20
222.8498404554
 11
165.320367806
 21
222.491798917
  0
LINE
  8
0
 62
7
  6
CONTINUOUS
 10
171.0493694125
 20
208.0969778876
 11
170.9320450476
 21
208.4550194259
  0
LINE
  8
0
 62
7
  6
CONTINUOUS
 10
173.0162382911
 20
210.2223014628
 11
172.8989139261
 21
210.5803430011
  0
LINE
  8
0
 62
7
  6
CONTINUOUS
 10
190.6320850468
 20
196.9393645028
 11
190.6290508251
 21
196.4609643777
  0
LINE
  8
0
 62
7
  6
CONTINUOUS
 10
101.0177711509
 20
226.3087570984
 11
101.5074695853
 21
226.317021186
  0
LINE
  8
0
 62
7
  6
CONTINUOUS
 10
163.8120082426
 20
223.5187241336
 11
164.2904083677
 21
223.5217583553
  0
LINE
  8
0
 62
7
  6
CONTINUOUS
 10
168.4574454061
 20
220.558307184
 11
167.7002315443
 21
220.5933695255
  0
LINE
  8
0
 62
7
  6
CONTINUOUS
 10
164.8129736129
 20
224.2027789772
 11
164.0557596094
 21
224.2378414604
  0
LINE
  8
0
 62
7
  6
CONTINUOUS
 10
101.968069807
 20
227.0183385811
 11
101.1546579127
 21
227.1677953805
  0
LINE
  8
0
 62
7
  6
CONTINUOUS
 10
173.9288730811
 20
209.5503838462
 11
173.5708315427
 21
209.6677082111
  0
LINE
  8
0
 62
7
  6
CONTINUOUS
 10
175.065368824
 20
212.746797899
 11
175.4234103624
 21
212.6294735341
  0
LINE
  8
0
 62
7
  6
CONTINUOUS
 10
161.1078166812
 20
218.2792477923
 11
160.7497751429
 21
218.3965721573
  0
LINE
  8
0
 62
7
  6
CONTINUOUS
 10
163.1539129081
 20
220.3253440192
 11
162.7958713697
 21
220.4426683841
  0
LINE
  8
0
 62
7
  6
CONTINUOUS
 10
186.9586190722
 20
202.2978506912
 11
186.5213492788
 21
202.4944033112
  0
LINE
  8
0
 62
7
  6
CONTINUOUS
 10
175.2895655258
 20
204.0974989478
 11
174.7730692908
 21
204.3732780094
  0
LINE
  8
0
 62
7
  6
CONTINUOUS
 10
170.8437149497
 20
207.0990463148
 11
171.3602121019
 21
206.823266357
  0
LINE
  8
0
 62
7
  6
CONTINUOUS
 10
190.5238633471
 20
198.7326064164
 11
190.0073671121
 21
199.008385478
  0
LINE
  8
0
 62
7
  6
CONTINUOUS
 10
172.8898110923
 20
209.1451424573
 11
173.4063084026
 21
208.8693626576
  0
LINE
  8
0
 62
7
  6
CONTINUOUS
 10
164.5146058061
 20
214.8724586674
 11
163.9981086644
 21
215.1482386357
  0
LINE
  8
0
 62
7
  6
CONTINUOUS
 10
160.0687544367
 20
217.8740068278
 11
160.5852512489
 21
217.59822721
  0
LINE
  8
0
 62
7
  6
CONTINUOUS
 10
178.7098413539
 20
209.1023253691
 11
179.2263375889
 21
208.8265463075
  0
LINE
  8
0
 62
7
  6
CONTINUOUS
 10
162.1148505793
 20
219.9201029703
 11
162.6313475496
 21
219.6443235106
  0
LINE
  8
0
 62
7
  6
CONTINUOUS
 10
176.1044306442
 20
213.1520391193
 11
175.5879344092
 21
213.4278181809
  0
LINE
  8
0
 62
7
  6
CONTINUOUS
 10
174.1712762729
 20
203.7714849915
 11
174.7670007735
 21
203.4164776855
  0
LINE
  8
0
 62
7
  6
CONTINUOUS
 10
163.3963156466
 20
214.5464456179
 11
163.9920401472
 21
214.1914383118
  0
LINE
  8
0
 62
7
  6
CONTINUOUS
 10
179.8281305224
 20
209.428339241
 11
179.2324060324
 21
209.7833465576
  0
LINE
  8
0
 62
7
  6
CONTINUOUS
 10
159.7518439101
 20
218.1909173544
 11
160.0687544367
 21
217.8740068278
  0
LINE
  8
0
 62
7
  6
CONTINUOUS
 10
165.4562348632
 20
212.4865264013
 11
165.9316007665
 21
212.0111604979
  0
LINE
  8
0
 62
7
  6
CONTINUOUS
 10
168.1499751331
 20
209.7927861313
 11
168.6253410365
 21
209.317420228
  0
LINE
  8
0
 62
7
  6
CONTINUOUS
 10
170.5268046497
 20
207.4159566147
 11
170.8437149497
 21
207.0990463148
  0
LINE
  8
0
 62
7
  6
CONTINUOUS
 10
181.1433101261
 20
196.7994511384
 11
181.777130726
 21
196.1656305384
  0
LINE
  8
0
 62
7
  6
CONTINUOUS
 10
184.8670090976
 20
193.0757521669
 11
185.5008296976
 21
192.4419315669
  0
LINE
  8
0
 62
7
  6
CONTINUOUS
 10
186.2931068076
 20
191.6496544569
 11
186.7684727109
 21
191.1742885536
  0
LINE
  8
0
 62
7
  6
CONTINUOUS
 10
171.5247353159
 20
207.6216119843
 11
171.0493694125
 21
208.0969778876
  0
LINE
  8
0
 62
7
  6
CONTINUOUS
 10
160.7497751429
 20
218.3965721573
 11
160.2744092395
 21
218.8719380606
  0
LINE
  8
0
 62
7
  6
CONTINUOUS
 10
186.2229813021
 20
193.1640831714
 11
185.5891607021
 21
193.7979037714
  0
LINE
  8
0
 62
7
  6
CONTINUOUS
 10
182.4992823306
 20
196.887782143
 11
181.8654617306
 21
197.5216027429
  0
LINE
  8
0
 62
7
  6
CONTINUOUS
 10
171.1377004171
 20
209.4529500921
 11
170.7415618621
 21
209.8490886471
  0
LINE
  8
0
 62
7
  6
CONTINUOUS
 10
160.3627396208
 20
220.2279108884
 11
159.9666013916
 21
220.6240491176
  0
LINE
  8
0
 62
7
  6
CONTINUOUS
 10
187.2620441133
 20
193.5693235693
 11
186.78667821
 21
194.0446894726
  0
LINE
  8
0
 62
7
  6
CONTINUOUS
 10
182.0741495085
 20
198.9979353475
 11
181.5987836052
 21
199.4733012508
  0
LINE
  8
0
 62
7
  6
CONTINUOUS
 10
161.7187123643
 20
220.3162411853
 11
162.1148505793
 21
219.9201029703
  0
LINE
  8
0
 62
7
  6
CONTINUOUS
 10
172.4936725373
 20
209.5412810123
 11
172.8898110923
 21
209.1451424573
  0
LINE
  8
0
 62
7
  6
CONTINUOUS
 10
183.8292954807
 20
199.1685270997
 11
184.304661384
 21
198.6931611964
  0
LINE
  8
0
 62
7
  6
CONTINUOUS
 10
173.5708315427
 20
209.6677082111
 11
173.0162382911
 21
210.2223014628
  0
LINE
  8
0
 62
7
  6
CONTINUOUS
 10
162.7958713697
 20
220.4426683841
 11
162.2412777781
 21
220.9972619758
  0
LINE
  8
0
 62
7
  6
CONTINUOUS
 10
185.0268129043
 20
199.4153127167
 11
184.5514470009
 21
199.89067862
  0
LINE
  8
0
 62
7
  6
CONTINUOUS
 10
186.5854064251
 20
200.0231744309
 11
187.0607723284
 21
199.5478085275
  0
LINE
  8
0
 62
7
  6
CONTINUOUS
 10
173.8162689669
 20
204.3672094921
 11
174.1712762729
 21
203.7714849915
  0
LINE
  8
0
 62
7
  6
CONTINUOUS
 10
169.4081772127
 20
219.6075753773
 11
169.0531698961
 21
220.2032998674
  0
LINE
  8
0
 62
7
  6
CONTINUOUS
 10
180.183137839
 20
208.832614751
 11
179.8281305224
 21
209.428339241
  0
LINE
  8
0
 62
7
  6
CONTINUOUS
 10
174.7730692908
 20
204.3732780094
 11
174.4972902292
 21
204.8897742444
  0
LINE
  8
0
 62
7
  6
CONTINUOUS
 10
172.2178936443
 20
210.0577774159
 11
172.4936725373
 21
209.5412810123
  0
LINE
  8
0
 62
7
  6
CONTINUOUS
 10
166.0013883145
 20
223.0143642756
 11
165.7256086862
 21
223.5308610773
  0
LINE
  8
0
 62
7
  6
CONTINUOUS
 10
168.4513769626
 20
219.6015069338
 11
168.7271569309
 21
219.0850097921
  0
LINE
  8
0
 62
7
  6
CONTINUOUS
 10
180.8675292616
 20
197.3159491973
 11
181.1433101261
 21
196.7994511384
  0
LINE
  8
0
 62
7
  6
CONTINUOUS
 10
184.5912300465
 20
193.5922484124
 11
184.8670090976
 21
193.0757521669
  0
LINE
  8
0
 62
7
  6
CONTINUOUS
 10
176.7763491675
 20
212.2394034226
 11
176.5005691992
 21
212.7559005643
  0
LINE
  8
0
 62
7
  6
CONTINUOUS
 10
179.2263375889
 20
208.8265463075
 11
179.5021166505
 21
208.3100500725
  0
LINE
  8
0
 62
7
  6
CONTINUOUS
 10
185.3025919659
 20
198.8988164816
 11
185.0268129043
 21
199.4153127167
  0
LINE
  8
0
 62
7
  6
CONTINUOUS
 10
181.8654617306
 20
197.5216027429
 11
181.6689091106
 21
197.9588725363
  0
LINE
  8
0
 62
7
  6
CONTINUOUS
 10
185.5891607021
 20
193.7979037714
 11
185.3926080822
 21
194.2351735648
  0
LINE
  8
0
 62
7
  6
CONTINUOUS
 10
183.6327428607
 20
199.6057968931
 11
183.8292954807
 21
199.1685270997
  0
LINE
  8
0
 62
7
  6
CONTINUOUS
 10
184.304661384
 20
198.6931611964
 11
184.501214004
 21
198.255891403
  0
LINE
  8
0
 62
7
  6
CONTINUOUS
 10
175.978003614
 20
212.0748802824
 11
176.095327979
 21
211.716838744
  0
LINE
  8
0
 62
7
  6
CONTINUOUS
 10
184.5514470009
 20
199.89067862
 11
184.434122636
 21
200.2487201583
  0
LINE
  8
0
 62
7
  6
CONTINUOUS
 10
186.7118334553
 20
201.1003332677
 11
186.8291578203
 21
200.7422917293
  0
LINE
  8
0
 62
7
  6
CONTINUOUS
 10
183.5565506409
 20
200.1634234598
 11
183.6327428607
 21
199.6057968931
  0
LINE
  8
0
 62
7
  6
CONTINUOUS
 10
184.5150360449
 20
194.1498768241
 11
184.5912300465
 21
193.5922484124
  0
LINE
  8
0
 62
7
  6
CONTINUOUS
 10
185.3787859991
 20
198.3411881016
 11
185.3025919659
 21
198.8988164816
  0
LINE
  8
0
 62
7
  6
CONTINUOUS
 10
191.5096570419
 20
197.0246612013
 11
191.433464822
 21
197.582287768
  0
LINE
  8
0
 62
7
  6
CONTINUOUS
 10
101.1546579127
 20
227.1677953805
 11
100.5819669911
 21
227.0765388056
  0
LINE
  8
0
 62
7
  6
CONTINUOUS
 10
164.2904083677
 20
223.5217583553
 11
164.6484498494
 21
223.4044340471
  0
LINE
  8
0
 62
7
  6
CONTINUOUS
 10
167.9348802742
 20
219.8772864488
 11
168.4513769626
 21
219.6015069338
  0
LINE
  8
0
 62
7
  6
CONTINUOUS
 10
165.3294704712
 20
223.9269992922
 11
164.8129736129
 21
224.2027789772
  0
LINE
  8
0
 62
7
  6
CONTINUOUS
 10
169.0531698961
 20
220.2032998674
 11
168.4574454061
 21
220.558307184
  0
LINE
  8
0
 62
7
  6
CONTINUOUS
 10
186.236467552
 20
201.575699171
 11
186.7118334553
 21
201.1003332677
  0
LINE
  8
0
 62
7
  6
CONTINUOUS
 10
189.8017118269
 20
198.0104548961
 11
190.4355324268
 21
197.3766342962
  0
LINE
  8
0
 62
7
  6
CONTINUOUS
 10
164.6484498494
 20
223.4044340471
 11
165.203043441
 21
222.8498404554
  0
LINE
  8
0
 62
7
  6
CONTINUOUS
 10
175.4234103624
 20
212.6294735341
 11
175.978003614
 21
212.0748802824
  0
LINE
  8
0
 62
7
  6
CONTINUOUS
 10
191.1576839471
 20
198.0987858164
 11
190.5238633471
 21
198.7326064164
  0
LINE
  8
0
 62
7
  6
CONTINUOUS
 10
187.3547567205
 20
201.9017130429
 11
186.9586190722
 21
202.2978506912
  0
LINE
  8
0
 62
7
  6
CONTINUOUS
 10
176.5005691992
 20
212.7559005643
 11
176.1044306442
 21
213.1520391193
  0
LINE
  8
0
 62
7
  6
CONTINUOUS
 10
174.2821952859
 20
214.9742744775
 11
173.8068293826
 21
215.4496403808
  0
LINE
  8
0
 62
7
  6
CONTINUOUS
 10
171.588455016
 20
217.6680147474
 11
171.1130891127
 21
218.1433806508
  0
LINE
  8
0
 62
7
  6
CONTINUOUS
 10
165.7256086862
 20
223.5308610773
 11
165.3294704712
 21
223.9269992922
  0
LINE
  8
0
 62
7
  6
CONTINUOUS
 10
187.6305375955
 20
201.3852149946
 11
187.3547567205
 21
201.9017130429
  0
LINE
  8
0
 62
7
  6
CONTINUOUS
 10
191.433464822
 20
197.582287768
 11
191.1576839471
 21
198.0987858164
  0
LINE
  8
0
 62
7
  6
CONTINUOUS
 10
190.4355324268
 20
197.3766342962
 11
190.6320850468
 21
196.9393645028
  0
LINE
  8
SURFACE
 62
7
  6
CONTINUOUS
 10
212.5534836066
 20
188.5026449738
 11
212.5534836066
 21
161.8435706967
  0
LINE
  8
0
 62
7
  6
CONTINUOUS
 10
212.5534836066
 20
137.9844964197
 11
212.5534836066
 21
141.2717369174
  0
LINE
  8
SURFACE
 62
7
  6
CONTINUOUS
 10
214.1971038554
 20
144.1185706967
 11
200.8675667169
 21
121.0311351314
  0
LINE
  8
0
 62
7
  6
CONTINUOUS
 10
188.9380295784
 20
100.3685706967
 11
190.5816498272
 21
103.2154044761
  0
LINE
  8
SURFACE
 62
7
  6
CONTINUOUS
 10
193.4284836066
 20
104.8590247249
 11
170.3410480413
 21
91.5294875864
  0
LINE
  8
0
 62
7
  6
CONTINUOUS
 10
149.6784836066
 20
79.5999504479
 11
152.5253173859
 21
81.2435706967
  0
LINE
  8
0
 62
7
  6
CONTINUOUS
 10
155.8125578836
 20
245.2435706967
 11
152.5253173859
 21
245.2435706967
  0
LINE
  8
SURFACE
 62
7
  6
CONTINUOUS
 10
105.2944093295
 20
245.2435706967
 11
131.9534836066
 21
245.2435706967
  0
LINE
  8
0
 62
7
  6
CONTINUOUS
 10
193.4284836066
 20
221.6281166685
 11
190.5816498272
 21
223.2717369174
  0
LINE
  8
SURFACE
 62
7
  6
CONTINUOUS
 10
149.6784836066
 20
246.8871909456
 11
172.7659191719
 21
233.557653807
  0
LINE
  8
SURFACE
 62
7
  6
CONTINUOUS
 10
188.9380295784
 20
226.1185706967
 11
202.2675667169
 21
203.0311351314
  0
LINE
  8
0
 62
7
  6
CONTINUOUS
 10
214.1971038554
 20
182.3685706967
 11
212.5534836066
 21
185.2154044761
  0
POLYLINE
  8
0
 62
7
  6
CONTINUOUS
 66
1
 70
0
  0
VERTEX
  8
0
 62
7
  6
CONTINUOUS
 10
311.2632770816
 20
65.2435711635
  0
VERTEX
  8
0
 62
7
  6
CONTINUOUS
 10
311.3720950857
 20
65.2495090718
  0
VERTEX
  8
0
 62
7
  6
CONTINUOUS
 10
311.4714577145
 20
65.2654792237
  0
VERTEX
  8
0
 62
7
  6
CONTINUOUS
 10
311.5653763892
 20
65.2902912419
  0
VERTEX
  8
0
 62
7
  6
CONTINUOUS
 10
311.6534403644
 20
65.3228192176
  0
VERTEX
  8
0
 62
7
  6
CONTINUOUS
 10
311.7353977083
 20
65.3620270819
  0
VERTEX
  8
0
 62
7
  6
CONTINUOUS
 10
311.8111235585
 20
65.4069769358
  0
VERTEX
  8
0
 62
7
  6
CONTINUOUS
 10
311.8805912907
 20
65.4568321241
  0
VERTEX
  8
0
 62
7
  6
CONTINUOUS
 10
311.9438329489
 20
65.5108431614
  0
VERTEX
  8
0
 62
7
  6
CONTINUOUS
 10
312.0008180551
 20
65.5682239744
  0
VERTEX
  8
0
 62
7
  6
CONTINUOUS
 10
312.0515397729
 20
65.6281692842
  0
VERTEX
  8
0
 62
7
  6
CONTINUOUS
 10
312.0745751937
 20
65.6588636044
  0
VERTEX
  8
0
 62
7
  6
CONTINUOUS
 10
312.1160867079
 20
65.7212424187
  0
VERTEX
  8
0
 62
7
  6
CONTINUOUS
 10
312.1516878821
 20
65.7843660663
  0
VERTEX
  8
0
 62
7
  6
CONTINUOUS
 10
312.1815954824
 20
65.8474932228
  0
VERTEX
  8
0
 62
7
  6
CONTINUOUS
 10
312.2060452064
 20
65.9097472162
  0
VERTEX
  8
0
 62
7
  6
CONTINUOUS
 10
312.2253763513
 20
65.9702243485
  0
VERTEX
  8
0
 62
7
  6
CONTINUOUS
 10
312.2396588817
 20
66.0262722901
  0
VERTEX
  8
0
 62
7
  6
CONTINUOUS
 10
312.2488199135
 20
66.0715561428
  0
VERTEX
  8
0
 62
7
  6
CONTINUOUS
 10
312.2542726938
 20
66.1042927521
  0
VERTEX
  8
0
 62
7
  6
CONTINUOUS
 10
312.2584482974
 20
66.1330159008
  0
VERTEX
  8
0
 62
7
  6
CONTINUOUS
 10
312.262619223
 20
66.164433473
  0
VERTEX
  8
0
 62
7
  6
CONTINUOUS
 10
312.2663538337
 20
66.1941948095
  0
SEQEND
  0
POLYLINE
  8
SURFACE
 62
7
  6
CONTINUOUS
 66
1
 70
0
  0
VERTEX
  8
SURFACE
 62
7
  6
CONTINUOUS
 10
324.1632770473
 20
65.2435711754
  0
VERTEX
  8
SURFACE
 62
7
  6
CONTINUOUS
 10
324.2697801614
 20
65.2492584204
  0
VERTEX
  8
SURFACE
 62
7
  6
CONTINUOUS
 10
324.3693347974
 20
65.2650298306
  0
VERTEX
  8
SURFACE
 62
7
  6
CONTINUOUS
 10
324.4634520905
 20
65.2896836234
  0
VERTEX
  8
SURFACE
 62
7
  6
CONTINUOUS
 10
324.5517160558
 20
65.3220905369
  0
VERTEX
  8
SURFACE
 62
7
  6
CONTINUOUS
 10
324.6338705778
 20
65.36121101
  0
VERTEX
  8
SURFACE
 62
7
  6
CONTINUOUS
 10
324.7097875173
 20
65.4061036651
  0
VERTEX
  8
SURFACE
 62
7
  6
CONTINUOUS
 10
324.7794377368
 20
65.4559284925
  0
VERTEX
  8
SURFACE
 62
7
  6
CONTINUOUS
 10
324.8428511953
 20
65.5099326994
  0
VERTEX
  8
SURFACE
 62
7
  6
CONTINUOUS
 10
324.8999954027
 20
65.5673268575
  0
VERTEX
  8
SURFACE
 62
7
  6
CONTINUOUS
 10
324.9508623268
 20
65.6273027755
  0
VERTEX
  8
SURFACE
 62
7
  6
CONTINUOUS
 10
324.9739648859
 20
65.6580179873
  0
VERTEX
  8
SURFACE
 62
7
  6
CONTINUOUS
 10
325.0155994412
 20
65.7204480381
  0
VERTEX
  8
SURFACE
 62
7
  6
CONTINUOUS
 10
325.0513085467
 20
65.7836333966
  0
VERTEX
  8
SURFACE
 62
7
  6
CONTINUOUS
 10
325.0813085034
 20
65.846829213
  0
VERTEX
  8
SURFACE
 62
7
  6
CONTINUOUS
 10
325.1058350294
 20
65.9091553662
  0
VERTEX
  8
SURFACE
 62
7
  6
CONTINUOUS
 10
325.1252272563
 20
65.9697022782
  0
VERTEX
  8
SURFACE
 62
7
  6
CONTINUOUS
 10
325.1395552731
 20
66.0258123786
  0
VERTEX
  8
SURFACE
 62
7
  6
CONTINUOUS
 10
325.1487574949
 20
66.0712105783
  0
VERTEX
  8
SURFACE
 62
7
  6
CONTINUOUS
 10
325.1542402792
 20
66.1040822345
  0
VERTEX
  8
SURFACE
 62
7
  6
CONTINUOUS
 10
325.1584316694
 20
66.1328955585
  0
VERTEX
  8
SURFACE
 62
7
  6
CONTINUOUS
 10
325.1626114459
 20
66.1643728896
  0
VERTEX
  8
SURFACE
 62
7
  6
CONTINUOUS
 10
325.1663538441
 20
66.1941948952
  0
SEQEND
  0
LINE
  8
SURFACE
 62
7
  6
CONTINUOUS
 10
324.163338156
 20
65.2435706967
 11
318.2633012066
 21
65.2435706967
  0
LINE
  8
0
 62
7
  6
CONTINUOUS
 10
305.3633011882
 20
65.2435706967
 11
311.2633381376
 21
65.2435706967
  0
POLYLINE
  8
0
 62
7
  6
CONTINUOUS
 66
1
 70
0
  0
VERTEX
  8
0
 62
7
  6
CONTINUOUS
 10
311.2673556771
 20
72.8170118757
  0
VERTEX
  8
0
 62
7
  6
CONTINUOUS
 10
311.3577434962
 20
72.8211015572
  0
VERTEX
  8
0
 62
7
  6
CONTINUOUS
 10
311.5312002686
 20
72.8524127494
  0
VERTEX
  8
0
 62
7
  6
CONTINUOUS
 10
311.6875745645
 20
72.9094900982
  0
VERTEX
  8
0
 62
7
  6
CONTINUOUS
 10
311.8241842632
 20
72.9861727514
  0
VERTEX
  8
0
 62
7
  6
CONTINUOUS
 10
311.9399074788
 20
73.0765635671
  0
VERTEX
  8
0
 62
7
  6
CONTINUOUS
 10
312.0347261266
 20
73.1750973471
  0
VERTEX
  8
0
 62
7
  6
CONTINUOUS
 10
312.1094226098
 20
73.2763857553
  0
VERTEX
  8
0
 62
7
  6
CONTINUOUS
 10
312.1398002447
 20
73.326624415
  0
VERTEX
  8
0
 62
7
  6
CONTINUOUS
 10
312.1881634102
 20
73.4239053781
  0
VERTEX
  8
0
 62
7
  6
CONTINUOUS
 10
312.2215068544
 20
73.5116754792
  0
VERTEX
  8
0
 62
7
  6
CONTINUOUS
 10
312.2431502386
 20
73.585908612
  0
VERTEX
  8
0
 62
7
  6
CONTINUOUS
 10
312.2579036806
 20
73.650414713
  0
VERTEX
  8
0
 62
7
  6
CONTINUOUS
 10
312.2697833404
 20
73.7142865973
  0
VERTEX
  8
0
 62
7
  6
CONTINUOUS
 10
312.2812777964
 20
73.7873248316
  0
VERTEX
  8
0
 62
7
  6
CONTINUOUS
 10
312.2920756497
 20
73.8652746739
  0
SEQEND
  0
LINE
  8
0
 62
7
  6
CONTINUOUS
 10
305.3592210436
 20
72.8170114186
 11
311.2674184228
 21
72.8170114186
  0
LINE
  8
0
 62
7
  6
CONTINUOUS
 10
317.4633196721
 20
81.2435706967
 11
313.0633196721
 21
81.2435706967
  0
POLYLINE
  8
0
 62
7
  6
CONTINUOUS
 66
1
 70
0
  0
VERTEX
  8
0
 62
7
  6
CONTINUOUS
 10
305.0200649744
 20
242.9028068179
  0
VERTEX
  8
0
 62
7
  6
CONTINUOUS
 10
304.8358542673
 20
242.8173014504
  0
VERTEX
  8
0
 62
7
  6
CONTINUOUS
 10
304.6569983882
 20
242.6867958122
  0
VERTEX
  8
0
 62
7
  6
CONTINUOUS
 10
304.5204689678
 20
242.5419282386
  0
VERTEX
  8
0
 62
7
  6
CONTINUOUS
 10
304.4194835557
 20
242.3962342068
  0
VERTEX
  8
0
 62
7
  6
CONTINUOUS
 10
304.3423048014
 20
242.2523487295
  0
VERTEX
  8
0
 62
7
  6
CONTINUOUS
 10
304.2781572073
 20
242.1043289314
  0
VERTEX
  8
0
 62
7
  6
CONTINUOUS
 10
304.2196626875
 20
241.9429971586
  0
VERTEX
  8
0
 62
7
  6
CONTINUOUS
 10
304.1620675127
 20
241.7580957935
  0
VERTEX
  8
0
 62
7
  6
CONTINUOUS
 10
304.1020304182
 20
241.5380541381
  0
VERTEX
  8
0
 62
7
  6
CONTINUOUS
 10
304.0376887952
 20
241.2727703933
  0
VERTEX
  8
0
 62
7
  6
CONTINUOUS
 10
303.9678665343
 20
240.9528130332
  0
VERTEX
  8
0
 62
7
  6
CONTINUOUS
 10
303.891515493
 20
240.5678402937
  0
VERTEX
  8
0
 62
7
  6
CONTINUOUS
 10
303.8074875646
 20
240.1054262438
  0
VERTEX
  8
0
 62
7
  6
CONTINUOUS
 10
303.7140740048
 20
239.5477988579
  0
VERTEX
  8
0
 62
7
  6
CONTINUOUS
 10
303.6127080736
 20
238.8949693301
  0
SEQEND
  0
LINE
  8
0
 62
7
  6
CONTINUOUS
 10
305.0205585323
 20
242.9029805272
 11
305.0200650666
 21
242.9028065566
  0
POLYLINE
  8
SURFACE
 62
7
  6
CONTINUOUS
 66
1
 70
0
  0
VERTEX
  8
SURFACE
 62
7
  6
CONTINUOUS
 10
324.1731284432
 20
83.5272278973
  0
VERTEX
  8
SURFACE
 62
7
  6
CONTINUOUS
 10
324.1902334582
 20
83.5273739193
  0
VERTEX
  8
SURFACE
 62
7
  6
CONTINUOUS
 10
324.3969421128
 20
83.5525442909
  0
VERTEX
  8
SURFACE
 62
7
  6
CONTINUOUS
 10
324.5060808119
 20
83.5841608662
  0
SEQEND
  0
LINE
  8
SURFACE
 62
7
  6
CONTINUOUS
 10
324.1731658761
 20
83.5272270444
 11
318.2534734719
 21
83.5272270444
  0
POLYLINE
  8
SURFACE
 62
7
  6
CONTINUOUS
 66
1
 70
0
  0
VERTEX
  8
SURFACE
 62
7
  6
CONTINUOUS
 10
317.9205569452
 20
83.5841614056
  0
VERTEX
  8
SURFACE
 62
7
  6
CONTINUOUS
 10
318.0281990298
 20
83.5528887944
  0
VERTEX
  8
SURFACE
 62
7
  6
CONTINUOUS
 10
318.2341092197
 20
83.5274157649
  0
VERTEX
  8
SURFACE
 62
7
  6
CONTINUOUS
 10
318.2535107983
 20
83.5272278962
  0
SEQEND
  0
LINE
  8
SURFACE
 62
7
  6
CONTINUOUS
 10
317.9200607489
 20
83.5843363406
 11
317.9205569452
 21
83.5841614056
  0
LINE
  8
0
 62
7
  6
CONTINUOUS
 10
292.1633196721
 20
92.0892417642
 11
303.5633196721
 21
92.0892417642
  0
LINE
  8
0
 62
7
  6
CONTINUOUS
 10
325.9633196721
 20
92.0892417642
 11
337.3633196721
 21
92.0892417642
  0
POLYLINE
  8
0
 62
7
  6
CONTINUOUS
 66
1
 70
0
  0
VERTEX
  8
0
 62
7
  6
CONTINUOUS
 10
312.0633196721
 20
91.5294875864
  0
VERTEX
  8
0
 62
7
  6
CONTINUOUS
 10
312.509712736
 20
91.2437655625
  0
VERTEX
  8
0
 62
7
  6
CONTINUOUS
 10
312.8147037985
 20
90.9965484235
  0
VERTEX
  8
0
 62
7
  6
CONTINUOUS
 10
312.9131544722
 20
90.8886804716
  0
VERTEX
  8
0
 62
7
  6
CONTINUOUS
 10
313.0289823077
 20
90.6975472049
  0
VERTEX
  8
0
 62
7
  6
CONTINUOUS
 10
313.0633196721
 20
90.5294875864
  0
SEQEND
  0
POLYLINE
  8
0
 62
7
  6
CONTINUOUS
 66
1
 70
0
  0
VERTEX
  8
0
 62
7
  6
CONTINUOUS
 10
311.2842852473
 20
104.2182522532
  0
VERTEX
  8
0
 62
7
  6
CONTINUOUS
 10
311.4286092864
 20
104.2286835396
  0
VERTEX
  8
0
 62
7
  6
CONTINUOUS
 10
311.6177432671
 20
104.2752599886
  0
VERTEX
  8
0
 62
7
  6
CONTINUOUS
 10
311.7838025216
 20
104.3513369822
  0
VERTEX
  8
0
 62
7
  6
CONTINUOUS
 10
311.9239629916
 20
104.4483194087
  0
VERTEX
  8
0
 62
7
  6
CONTINUOUS
 10
312.037601573
 20
104.5581175128
  0
VERTEX
  8
0
 62
7
  6
CONTINUOUS
 10
312.1252112256
 20
104.6724842535
  0
VERTEX
  8
0
 62
7
  6
CONTINUOUS
 10
312.1894280238
 20
104.7844235
  0
VERTEX
  8
0
 62
7
  6
CONTINUOUS
 10
312.2347613823
 20
104.8899615503
  0
VERTEX
  8
0
 62
7
  6
CONTINUOUS
 10
312.2598849503
 20
104.9659430493
  0
SEQEND
  0
LINE
  8
0
 62
7
  6
CONTINUOUS
 10
317.4633196721
 20
103.2154044761
 11
312.0633196721
 21
103.2154044761
  0
LINE
  8
0
 62
7
  6
CONTINUOUS
 10
305.3423127327
 20
104.2182518848
 11
311.2843267181
 21
104.2182518848
  0
POLYLINE
  8
SURFACE
 62
7
  6
CONTINUOUS
 66
1
 70
0
  0
VERTEX
  8
SURFACE
 62
7
  6
CONTINUOUS
 10
324.6575968496
 20
121.3551977712
  0
VERTEX
  8
SURFACE
 62
7
  6
CONTINUOUS
 10
324.8718295155
 20
121.3760841272
  0
VERTEX
  8
SURFACE
 62
7
  6
CONTINUOUS
 10
325.136929442
 20
121.4634816963
  0
VERTEX
  8
SURFACE
 62
7
  6
CONTINUOUS
 10
325.3647939959
 20
121.6049585992
  0
VERTEX
  8
SURFACE
 62
7
  6
CONTINUOUS
 10
325.4598779122
 20
121.6878293489
  0
VERTEX
  8
SURFACE
 62
7
  6
CONTINUOUS
 10
325.6151536903
 20
121.8647283108
  0
VERTEX
  8
SURFACE
 62
7
  6
CONTINUOUS
 10
325.7366924347
 20
122.0519439409
  0
VERTEX
  8
SURFACE
 62
7
  6
CONTINUOUS
 10
325.8349520675
 20
122.2455675828
  0
SEQEND
  0
LINE
  8
SURFACE
 62
7
  6
CONTINUOUS
 10
324.6578166195
 20
121.3551975326
 11
317.7688227252
 21
121.3551975326
  0
POLYLINE
  8
0
 62
7
  6
CONTINUOUS
 66
1
 70
0
  0
VERTEX
  8
0
 62
7
  6
CONTINUOUS
 10
303.7715952283
 20
106.8911087736
  0
VERTEX
  8
0
 62
7
  6
CONTINUOUS
 10
303.7714271509
 20
106.8913904934
  0
VERTEX
  8
0
 62
7
  6
CONTINUOUS
 10
303.7956496249
 20
106.841311804
  0
VERTEX
  8
0
 62
7
  6
CONTINUOUS
 10
303.821293301
 20
106.7793714307
  0
SEQEND
  0
LINE
  8
0
 62
7
  6
CONTINUOUS
 10
303.6916872767
 20
204.2415738107
 11
303.6916439339
 21
204.2414786782
  0
POLYLINE
  8
SURFACE
 62
7
  6
CONTINUOUS
 66
1
 70
0
  0
VERTEX
  8
SURFACE
 62
7
  6
CONTINUOUS
 10
316.6759666533
 20
219.6024682313
  0
VERTEX
  8
SURFACE
 62
7
  6
CONTINUOUS
 10
316.6014088387
 20
219.4812487823
  0
VERTEX
  8
SURFACE
 62
7
  6
CONTINUOUS
 10
316.5281866052
 20
219.3183919263
  0
VERTEX
  8
SURFACE
 62
7
  6
CONTINUOUS
 10
316.4779059678
 20
219.1269408615
  0
SEQEND
  0
POLYLINE
  8
0
 62
7
  6
CONTINUOUS
 66
1
 70
0
  0
VERTEX
  8
0
 62
7
  6
CONTINUOUS
 10
312.0633196721
 20
121.0311351314
  0
VERTEX
  8
0
 62
7
  6
CONTINUOUS
 10
312.509712736
 20
120.5362500693
  0
VERTEX
  8
0
 62
7
  6
CONTINUOUS
 10
312.8147037985
 20
120.108057424
  0
VERTEX
  8
0
 62
7
  6
CONTINUOUS
 10
312.9131544722
 20
119.9212246507
  0
VERTEX
  8
0
 62
7
  6
CONTINUOUS
 10
313.0289823077
 20
119.5901721218
  0
VERTEX
  8
0
 62
7
  6
CONTINUOUS
 10
313.0633196721
 20
119.2990843239
  0
SEQEND
  0
POLYLINE
  8
0
 62
7
  6
CONTINUOUS
 66
1
 70
0
  0
VERTEX
  8
0
 62
7
  6
CONTINUOUS
 10
303.821293301
 20
106.7793714307
  0
VERTEX
  8
0
 62
7
  6
CONTINUOUS
 10
303.8902641036
 20
106.582345761
  0
VERTEX
  8
0
 62
7
  6
CONTINUOUS
 10
303.9286814665
 20
106.4565736954
  0
SEQEND
  0
POLYLINE
  8
0
 62
7
  6
CONTINUOUS
 66
1
 70
0
  0
VERTEX
  8
0
 62
7
  6
CONTINUOUS
 10
304.3667546682
 20
104.9659420136
  0
VERTEX
  8
0
 62
7
  6
CONTINUOUS
 10
304.3919533369
 20
104.8897574364
  0
VERTEX
  8
0
 62
7
  6
CONTINUOUS
 10
304.4374214387
 20
104.7839986731
  0
VERTEX
  8
0
 62
7
  6
CONTINUOUS
 10
304.5018206125
 20
104.6718896894
  0
VERTEX
  8
0
 62
7
  6
CONTINUOUS
 10
304.5896597151
 20
104.5574154686
  0
VERTEX
  8
0
 62
7
  6
CONTINUOUS
 10
304.7035942216
 20
104.4475629308
  0
VERTEX
  8
0
 62
7
  6
CONTINUOUS
 10
304.8441239726
 20
104.3506002727
  0
VERTEX
  8
0
 62
7
  6
CONTINUOUS
 10
305.0106174913
 20
104.2746554551
  0
VERTEX
  8
0
 62
7
  6
CONTINUOUS
 10
305.2002295658
 20
104.2283663868
  0
VERTEX
  8
0
 62
7
  6
CONTINUOUS
 10
305.3423535587
 20
104.2182522787
  0
SEQEND
  0
LINE
  8
0
 62
7
  6
CONTINUOUS
 10
303.9286864379
 20
106.4565567761
 11
304.3667592737
 21
104.9659262139
  0
POLYLINE
  8
0
 62
7
  6
CONTINUOUS
 66
1
 70
0
  0
VERTEX
  8
0
 62
7
  6
CONTINUOUS
 10
303.6073200262
 20
72.9453478281
  0
VERTEX
  8
0
 62
7
  6
CONTINUOUS
 10
303.7511586332
 20
71.6044261787
  0
VERTEX
  8
0
 62
7
  6
CONTINUOUS
 10
303.8919526816
 20
70.3060766261
  0
VERTEX
  8
0
 62
7
  6
CONTINUOUS
 10
304.0248674247
 20
69.0981751371
  0
VERTEX
  8
0
 62
7
  6
CONTINUOUS
 10
304.1483512745
 20
67.9980912936
  0
VERTEX
  8
0
 62
7
  6
CONTINUOUS
 10
304.2611242397
 20
67.0207827783
  0
VERTEX
  8
0
 62
7
  6
CONTINUOUS
 10
304.3602869357
 20
66.1941832088
  0
SEQEND
  0
LINE
  8
0
 62
7
  6
CONTINUOUS
 10
289.6633196721
 20
94.5892417642
 11
289.6633196721
 21
231.8978996293
  0
POLYLINE
  8
0
 62
7
  6
CONTINUOUS
 66
1
 70
0
  0
VERTEX
  8
0
 62
7
  6
CONTINUOUS
 10
304.3602869357
 20
260.2929581846
  0
VERTEX
  8
0
 62
7
  6
CONTINUOUS
 10
304.2611242397
 20
259.4663586152
  0
VERTEX
  8
0
 62
7
  6
CONTINUOUS
 10
304.1483512745
 20
258.4890500998
  0
VERTEX
  8
0
 62
7
  6
CONTINUOUS
 10
304.0248674247
 20
257.3889662564
  0
VERTEX
  8
0
 62
7
  6
CONTINUOUS
 10
303.8919526816
 20
256.1810647673
  0
VERTEX
  8
0
 62
7
  6
CONTINUOUS
 10
303.7511586332
 20
254.8827152147
  0
VERTEX
  8
0
 62
7
  6
CONTINUOUS
 10
303.6073200262
 20
253.5417935653
  0
SEQEND
  0
POLYLINE
  8
0
 62
7
  6
CONTINUOUS
 66
1
 70
0
  0
VERTEX
  8
0
 62
7
  6
CONTINUOUS
 10
303.6127075583
 20
238.8949655988
  0
VERTEX
  8
0
 62
7
  6
CONTINUOUS
 10
303.5860130625
 20
238.6809285656
  0
VERTEX
  8
0
 62
7
  6
CONTINUOUS
 10
303.5683976497
 20
238.4398297349
  0
VERTEX
  8
0
 62
7
  6
CONTINUOUS
 10
303.5633196936
 20
238.2201438611
  0
SEQEND
  0
LINE
  8
0
 62
7
  6
CONTINUOUS
 10
303.6916439642
 20
204.2414786644
 11
303.596783364
 21
203.95474772
  0
LINE
  8
0
 62
7
  6
CONTINUOUS
 10
317.4633196721
 20
141.2717369174
 11
312.0633196721
 21
141.2717369174
  0
LINE
  8
0
 62
7
  6
CONTINUOUS
 10
303.6125101664
 20
79.2497076328
 11
303.750656586
 21
78.286346147
  0
POLYLINE
  8
0
 62
7
  6
CONTINUOUS
 66
1
 70
0
  0
VERTEX
  8
0
 62
7
  6
CONTINUOUS
 10
304.3345636522
 20
73.8652749552
  0
VERTEX
  8
0
 62
7
  6
CONTINUOUS
 10
304.3453738332
 20
73.787241085
  0
VERTEX
  8
0
 62
7
  6
CONTINUOUS
 10
304.356880388
 20
73.7141433365
  0
VERTEX
  8
0
 62
7
  6
CONTINUOUS
 10
304.3687750817
 20
73.6502219896
  0
VERTEX
  8
0
 62
7
  6
CONTINUOUS
 10
304.3835609625
 20
73.5856275199
  0
VERTEX
  8
0
 62
7
  6
CONTINUOUS
 10
304.4052836708
 20
73.5112174491
  0
VERTEX
  8
0
 62
7
  6
CONTINUOUS
 10
304.4387568331
 20
73.4232564713
  0
VERTEX
  8
0
 62
7
  6
CONTINUOUS
 10
304.4872867413
 20
73.3258339668
  0
VERTEX
  8
0
 62
7
  6
CONTINUOUS
 10
304.5177620172
 20
73.2755414302
  0
VERTEX
  8
0
 62
7
  6
CONTINUOUS
 10
304.5926771324
 20
73.1741878388
  0
VERTEX
  8
0
 62
7
  6
CONTINUOUS
 10
304.6877449238
 20
73.0756463925
  0
VERTEX
  8
0
 62
7
  6
CONTINUOUS
 10
304.8037552267
 20
72.9853040555
  0
VERTEX
  8
0
 62
7
  6
CONTINUOUS
 10
304.9406868996
 20
72.9087415667
  0
VERTEX
  8
0
 62
7
  6
CONTINUOUS
 10
305.0974086507
 20
72.8518766838
  0
VERTEX
  8
0
 62
7
  6
CONTINUOUS
 10
305.2712205526
 20
72.8208935004
  0
VERTEX
  8
0
 62
7
  6
CONTINUOUS
 10
305.3592834435
 20
72.8170118988
  0
SEQEND
  0
LINE
  8
0
 62
7
  6
CONTINUOUS
 10
303.750656586
 20
78.286346147
 11
303.8967354898
 21
77.2020709592
  0
LINE
  8
0
 62
7
  6
CONTINUOUS
 10
303.8967355273
 20
77.2020706631
 11
304.3345649861
 21
73.8652647421
  0
POLYLINE
  8
0
 62
7
  6
CONTINUOUS
 66
1
 70
0
  0
VERTEX
  8
0
 62
7
  6
CONTINUOUS
 10
304.3602860296
 20
66.1941905915
  0
VERTEX
  8
0
 62
7
  6
CONTINUOUS
 10
304.3638889888
 20
66.1654559791
  0
VERTEX
  8
0
 62
7
  6
CONTINUOUS
 10
304.3677568609
 20
66.1361736242
  0
VERTEX
  8
0
 62
7
  6
CONTINUOUS
 10
304.3716067426
 20
66.1092845788
  0
VERTEX
  8
0
 62
7
  6
CONTINUOUS
 10
304.3767477537
 20
66.077585264
  0
VERTEX
  8
0
 62
7
  6
CONTINUOUS
 10
304.3850610473
 20
66.0349748369
  0
VERTEX
  8
0
 62
7
  6
CONTINUOUS
 10
304.397610286
 20
65.9833616361
  0
VERTEX
  8
0
 62
7
  6
CONTINUOUS
 10
304.4146225376
 20
65.9270794371
  0
VERTEX
  8
0
 62
7
  6
CONTINUOUS
 10
304.4362860917
 20
65.8684250833
  0
VERTEX
  8
0
 62
7
  6
CONTINUOUS
 10
304.4629336017
 20
65.8083861264
  0
VERTEX
  8
0
 62
7
  6
CONTINUOUS
 10
304.4947005832
 20
65.7480404081
  0
VERTEX
  8
0
 62
7
  6
CONTINUOUS
 10
304.5320972675
 20
65.6876067628
  0
VERTEX
  8
0
 62
7
  6
CONTINUOUS
 10
304.5531220755
 20
65.6573989486
  0
VERTEX
  8
0
 62
7
  6
CONTINUOUS
 10
304.6003051039
 20
65.5971872902
  0
VERTEX
  8
0
 62
7
  6
CONTINUOUS
 10
304.6548480272
 20
65.5378371868
  0
VERTEX
  8
0
 62
7
  6
CONTINUOUS
 10
304.7170024494
 20
65.4805122134
  0
VERTEX
  8
0
 62
7
  6
CONTINUOUS
 10
304.7868330199
 20
65.4264767651
  0
VERTEX
  8
0
 62
7
  6
CONTINUOUS
 10
304.8643395325
 20
65.3769705313
  0
VERTEX
  8
0
 62
7
  6
CONTINUOUS
 10
304.9494045372
 20
65.3332678408
  0
VERTEX
  8
0
 62
7
  6
CONTINUOUS
 10
305.0417234911
 20
65.2967047443
  0
VERTEX
  8
0
 62
7
  6
CONTINUOUS
 10
305.1407801228
 20
65.2686554615
  0
VERTEX
  8
0
 62
7
  6
CONTINUOUS
 10
305.245824762
 20
65.2505022624
  0
VERTEX
  8
0
 62
7
  6
CONTINUOUS
 10
305.3633622972
 20
65.2435711754
  0
SEQEND
  0
LINE
  8
0
 62
7
  6
CONTINUOUS
 10
303.5861773839
 20
79.4598403054
 11
303.6125099759
 21
79.2497091873
  0
POLYLINE
  8
0
 62
7
  6
CONTINUOUS
 66
1
 70
0
  0
VERTEX
  8
0
 62
7
  6
CONTINUOUS
 10
303.5633197207
 20
107.5347694946
  0
VERTEX
  8
0
 62
7
  6
CONTINUOUS
 10
303.5782171583
 20
107.3583512431
  0
VERTEX
  8
0
 62
7
  6
CONTINUOUS
 10
303.6285599254
 20
107.1677159634
  0
VERTEX
  8
0
 62
7
  6
CONTINUOUS
 10
303.7016391307
 20
107.0054673703
  0
VERTEX
  8
0
 62
7
  6
CONTINUOUS
 10
303.77189295
 20
106.8912919662
  0
SEQEND
  0
POLYLINE
  8
0
 62
7
  6
CONTINUOUS
 66
1
 70
0
  0
VERTEX
  8
0
 62
7
  6
CONTINUOUS
 10
303.5633196884
 20
79.9036530758
  0
VERTEX
  8
0
 62
7
  6
CONTINUOUS
 10
303.5685172185
 20
79.69313832
  0
VERTEX
  8
0
 62
7
  6
CONTINUOUS
 10
303.5861773839
 20
79.4598403054
  0
SEQEND
  0
POLYLINE
  8
0
 62
7
  6
CONTINUOUS
 66
1
 70
0
  0
VERTEX
  8
0
 62
7
  6
CONTINUOUS
 10
303.5633196918
 20
73.7732056883
  0
VERTEX
  8
0
 62
7
  6
CONTINUOUS
 10
303.5677882087
 20
73.508736812
  0
VERTEX
  8
0
 62
7
  6
CONTINUOUS
 10
303.5834203446
 20
73.2129165159
  0
VERTEX
  8
0
 62
7
  6
CONTINUOUS
 10
303.6073200527
 20
72.945348006
  0
SEQEND
  0
POLYLINE
  8
0
 62
7
  6
CONTINUOUS
 66
1
 70
0
  0
VERTEX
  8
0
 62
7
  6
CONTINUOUS
 10
303.6073200527
 20
253.5417933875
  0
VERTEX
  8
0
 62
7
  6
CONTINUOUS
 10
303.5834203446
 20
253.2742248776
  0
VERTEX
  8
0
 62
7
  6
CONTINUOUS
 10
303.5677882087
 20
252.9784045815
  0
VERTEX
  8
0
 62
7
  6
CONTINUOUS
 10
303.5633196918
 20
252.7139357051
  0
SEQEND
  0
LINE
  8
0
 62
7
  6
CONTINUOUS
 10
303.596783364
 20
203.95474772
 11
303.5633196968
 21
203.6367786523
  0
LINE
  8
SURFACE
 62
7
  6
CONTINUOUS
 10
317.2667592736
 20
221.5212151795
 11
316.8286864377
 21
220.0305846167
  0
LINE
  8
SURFACE
 62
7
  6
CONTINUOUS
 10
316.8286813947
 20
220.0305674431
 11
316.7902640453
 21
219.904795169
  0
POLYLINE
  8
SURFACE
 62
7
  6
CONTINUOUS
 66
1
 70
0
  0
VERTEX
  8
SURFACE
 62
7
  6
CONTINUOUS
 10
316.7902640453
 20
219.904795169
  0
VERTEX
  8
SURFACE
 62
7
  6
CONTINUOUS
 10
316.7212938399
 20
219.7077714007
  0
VERTEX
  8
SURFACE
 62
7
  6
CONTINUOUS
 10
316.6956492394
 20
219.6458285899
  0
VERTEX
  8
SURFACE
 62
7
  6
CONTINUOUS
 10
316.6752989718
 20
219.6028788987
  0
SEQEND
  0
POLYLINE
  8
SURFACE
 62
7
  6
CONTINUOUS
 66
1
 70
0
  0
VERTEX
  8
SURFACE
 62
7
  6
CONTINUOUS
 10
316.5916874573
 20
122.2455671971
  0
VERTEX
  8
SURFACE
 62
7
  6
CONTINUOUS
 10
316.6898924693
 20
122.0520397846
  0
VERTEX
  8
SURFACE
 62
7
  6
CONTINUOUS
 10
316.8112798324
 20
121.865004415
  0
VERTEX
  8
SURFACE
 62
7
  6
CONTINUOUS
 10
316.9662618099
 20
121.6883099281
  0
VERTEX
  8
SURFACE
 62
7
  6
CONTINUOUS
 10
317.0611421208
 20
121.605512778
  0
VERTEX
  8
SURFACE
 62
7
  6
CONTINUOUS
 10
317.2884710062
 20
121.4640680166
  0
VERTEX
  8
SURFACE
 62
7
  6
CONTINUOUS
 10
317.5528288425
 20
121.376475474
  0
VERTEX
  8
SURFACE
 62
7
  6
CONTINUOUS
 10
317.7690423348
 20
121.3551977745
  0
SEQEND
  0
LINE
  8
SURFACE
 62
7
  6
CONTINUOUS
 10
316.5916448055
 20
122.2456608124
 11
316.5916874573
 21
122.2455671971
  0
POLYLINE
  8
SURFACE
 62
7
  6
CONTINUOUS
 66
1
 70
0
  0
VERTEX
  8
SURFACE
 62
7
  6
CONTINUOUS
 10
316.5073200258
 20
72.9453478317
  0
VERTEX
  8
SURFACE
 62
7
  6
CONTINUOUS
 10
316.6511579913
 20
71.6044321336
  0
VERTEX
  8
SURFACE
 62
7
  6
CONTINUOUS
 10
316.7919508842
 20
70.3060930916
  0
VERTEX
  8
SURFACE
 62
7
  6
CONTINUOUS
 10
316.9248647131
 20
69.0981995573
  0
VERTEX
  8
SURFACE
 62
7
  6
CONTINUOUS
 10
317.048348496
 20
67.9981157397
  0
VERTEX
  8
SURFACE
 62
7
  6
CONTINUOUS
 10
317.1611224546
 20
67.0207979804
  0
SEQEND
  0
LINE
  8
0
 62
7
  6
CONTINUOUS
 10
303.5633196721
 20
73.7732056819
 11
303.5633196721
 21
252.7139357115
  0
POLYLINE
  8
0
 62
7
  6
CONTINUOUS
 66
1
 70
0
  0
VERTEX
  8
0
 62
7
  6
CONTINUOUS
 10
313.0633196721
 20
224.2717369174
  0
VERTEX
  8
0
 62
7
  6
CONTINUOUS
 10
313.0504364111
 20
224.1117352183
  0
VERTEX
  8
0
 62
7
  6
CONTINUOUS
 10
312.9603753176
 20
223.8298193132
  0
VERTEX
  8
0
 62
7
  6
CONTINUOUS
 10
312.8225476899
 20
223.6209121968
  0
VERTEX
  8
0
 62
7
  6
CONTINUOUS
 10
312.6638969543
 20
223.4721702046
  0
VERTEX
  8
0
 62
7
  6
CONTINUOUS
 10
312.5820659635
 20
223.4168086834
  0
VERTEX
  8
0
 62
7
  6
CONTINUOUS
 10
312.4215306166
 20
223.3380962374
  0
VERTEX
  8
0
 62
7
  6
CONTINUOUS
 10
312.2720036545
 20
223.293753791
  0
VERTEX
  8
0
 62
7
  6
CONTINUOUS
 10
312.1317553411
 20
223.274081386
  0
VERTEX
  8
0
 62
7
  6
CONTINUOUS
 10
312.0633196721
 20
223.2717369174
  0
SEQEND
  0
POLYLINE
  8
SURFACE
 62
7
  6
CONTINUOUS
 66
1
 70
0
  0
VERTEX
  8
SURFACE
 62
7
  6
CONTINUOUS
 10
316.5073200357
 20
253.5417934485
  0
VERTEX
  8
SURFACE
 62
7
  6
CONTINUOUS
 10
316.4834210804
 20
253.274235007
  0
VERTEX
  8
SURFACE
 62
7
  6
CONTINUOUS
 10
316.4677885455
 20
252.9784148438
  0
VERTEX
  8
SURFACE
 62
7
  6
CONTINUOUS
 10
316.4633196972
 20
252.7139357201
  0
SEQEND
  0
POLYLINE
  8
SURFACE
 62
7
  6
CONTINUOUS
 66
1
 70
0
  0
VERTEX
  8
SURFACE
 62
7
  6
CONTINUOUS
 10
317.2602869304
 20
260.2929581327
  0
VERTEX
  8
SURFACE
 62
7
  6
CONTINUOUS
 10
317.1611224546
 20
259.4663434131
  0
VERTEX
  8
SURFACE
 62
7
  6
CONTINUOUS
 10
317.048348496
 20
258.4890256537
  0
VERTEX
  8
SURFACE
 62
7
  6
CONTINUOUS
 10
316.9248647131
 20
257.3889418362
  0
VERTEX
  8
SURFACE
 62
7
  6
CONTINUOUS
 10
316.7919508842
 20
256.1810483018
  0
VERTEX
  8
SURFACE
 62
7
  6
CONTINUOUS
 10
316.6511579913
 20
254.8827092598
  0
VERTEX
  8
SURFACE
 62
7
  6
CONTINUOUS
 10
316.5073200258
 20
253.5417935617
  0
SEQEND
  0
POLYLINE
  8
SURFACE
 62
7
  6
CONTINUOUS
 66
1
 70
0
  0
VERTEX
  8
SURFACE
 62
7
  6
CONTINUOUS
 10
316.5125100369
 20
247.2374327633
  0
VERTEX
  8
SURFACE
 62
7
  6
CONTINUOUS
 10
316.4861792101
 20
247.0273188903
  0
VERTEX
  8
SURFACE
 62
7
  6
CONTINUOUS
 10
316.4685180666
 20
246.7940204569
  0
VERTEX
  8
SURFACE
 62
7
  6
CONTINUOUS
 10
316.4633196924
 20
246.5834801052
  0
SEQEND
  0
LINE
  8
SURFACE
 62
7
  6
CONTINUOUS
 10
317.2345649861
 20
252.6218766514
 11
316.7922706343
 21
249.2519299077
  0
POLYLINE
  8
SURFACE
 62
7
  6
CONTINUOUS
 66
1
 70
0
  0
VERTEX
  8
SURFACE
 62
7
  6
CONTINUOUS
 10
316.7922706343
 20
249.2519299077
  0
VERTEX
  8
SURFACE
 62
7
  6
CONTINUOUS
 10
316.6506560972
 20
248.2007916253
  0
VERTEX
  8
SURFACE
 62
7
  6
CONTINUOUS
 10
316.5125101642
 20
247.2374337487
  0
SEQEND
  0
POLYLINE
  8
SURFACE
 62
7
  6
CONTINUOUS
 66
1
 70
0
  0
VERTEX
  8
SURFACE
 62
7
  6
CONTINUOUS
 10
316.5127080742
 20
87.5921720649
  0
VERTEX
  8
SURFACE
 62
7
  6
CONTINUOUS
 10
316.6141197402
 20
86.939058913
  0
VERTEX
  8
SURFACE
 62
7
  6
CONTINUOUS
 10
316.7075710616
 20
86.3812366681
  0
VERTEX
  8
SURFACE
 62
7
  6
CONTINUOUS
 10
316.7916282421
 20
85.9187071138
  0
VERTEX
  8
SURFACE
 62
7
  6
CONTINUOUS
 10
316.8680005951
 20
85.5336837438
  0
VERTEX
  8
SURFACE
 62
7
  6
CONTINUOUS
 10
316.9378446244
 20
85.2136933019
  0
VERTEX
  8
SURFACE
 62
7
  6
CONTINUOUS
 10
317.002218418
 20
84.9483558906
  0
VERTEX
  8
SURFACE
 62
7
  6
CONTINUOUS
 10
317.0622938188
 20
84.7282683433
  0
VERTEX
  8
SURFACE
 62
7
  6
CONTINUOUS
 10
317.1199241917
 20
84.543364038
  0
VERTEX
  8
SURFACE
 62
7
  6
CONTINUOUS
 10
317.178441707
 20
84.3820913606
  0
VERTEX
  8
SURFACE
 62
7
  6
CONTINUOUS
 10
317.2425896774
 20
84.2341973936
  0
VERTEX
  8
SURFACE
 62
7
  6
CONTINUOUS
 10
317.3197386244
 20
84.0904844473
  0
VERTEX
  8
SURFACE
 62
7
  6
CONTINUOUS
 10
317.4206220392
 20
83.945021272
  0
VERTEX
  8
SURFACE
 62
7
  6
CONTINUOUS
 10
317.5570235703
 20
83.8003230336
  0
VERTEX
  8
SURFACE
 62
7
  6
CONTINUOUS
 10
317.7358012319
 20
83.6698710171
  0
VERTEX
  8
SURFACE
 62
7
  6
CONTINUOUS
 10
317.9200606734
 20
83.5843361267
  0
SEQEND
  0
POLYLINE
  8
SURFACE
 62
7
  6
CONTINUOUS
 66
1
 70
0
  0
VERTEX
  8
SURFACE
 62
7
  6
CONTINUOUS
 10
317.2602860361
 20
66.1941905379
  0
VERTEX
  8
SURFACE
 62
7
  6
CONTINUOUS
 10
317.2638825111
 20
66.1655065359
  0
VERTEX
  8
SURFACE
 62
7
  6
CONTINUOUS
 10
317.2677441433
 20
66.1362665528
  0
VERTEX
  8
SURFACE
 62
7
  6
CONTINUOUS
 10
317.2715837077
 20
66.1094375813
  0
VERTEX
  8
SURFACE
 62
7
  6
CONTINUOUS
 10
317.2767005697
 20
66.0778549821
  0
VERTEX
  8
SURFACE
 62
7
  6
CONTINUOUS
 10
317.2849691928
 20
66.035400327
  0
VERTEX
  8
SURFACE
 62
7
  6
CONTINUOUS
 10
317.2974595136
 20
65.9839190129
  0
VERTEX
  8
SURFACE
 62
7
  6
CONTINUOUS
 10
317.3143983142
 20
65.9277508058
  0
VERTEX
  8
SURFACE
 62
7
  6
CONTINUOUS
 10
317.3359711266
 20
65.86920339
  0
VERTEX
  8
SURFACE
 62
7
  6
CONTINUOUS
 10
317.3625144444
 20
65.8092537897
  0
VERTEX
  8
SURFACE
 62
7
  6
CONTINUOUS
 10
317.3941657025
 20
65.7489787446
  0
VERTEX
  8
SURFACE
 62
7
  6
CONTINUOUS
 10
317.4314334726
 20
65.6886001732
  0
VERTEX
  8
SURFACE
 62
7
  6
CONTINUOUS
 10
317.4523895917
 20
65.6584124425
  0
VERTEX
  8
SURFACE
 62
7
  6
CONTINUOUS
 10
317.4994288244
 20
65.5982229113
  0
VERTEX
  8
SURFACE
 62
7
  6
CONTINUOUS
 10
317.5538194597
 20
65.5388711117
  0
VERTEX
  8
SURFACE
 62
7
  6
CONTINUOUS
 10
317.6158105709
 20
65.4815232474
  0
VERTEX
  8
SURFACE
 62
7
  6
CONTINUOUS
 10
317.6854641681
 20
65.42744419
  0
VERTEX
  8
SURFACE
 62
7
  6
CONTINUOUS
 10
317.7627811662
 20
65.3778696562
  0
VERTEX
  8
SURFACE
 62
7
  6
CONTINUOUS
 10
317.8476479827
 20
65.3340685848
  0
VERTEX
  8
SURFACE
 62
7
  6
CONTINUOUS
 10
317.9397652565
 20
65.2973721206
  0
VERTEX
  8
SURFACE
 62
7
  6
CONTINUOUS
 10
318.0386232097
 20
65.2691503628
  0
VERTEX
  8
SURFACE
 62
7
  6
CONTINUOUS
 10
318.1434799222
 20
65.2507825664
  0
VERTEX
  8
SURFACE
 62
7
  6
CONTINUOUS
 10
318.2633622628
 20
65.2435711635
  0
SEQEND
  0
LINE
  8
SURFACE
 62
7
  6
CONTINUOUS
 10
317.1611224546
 20
67.0207979804
 11
317.2602869304
 21
66.1941832607
  0
POLYLINE
  8
SURFACE
 62
7
  6
CONTINUOUS
 66
1
 70
0
  0
VERTEX
  8
SURFACE
 62
7
  6
CONTINUOUS
 10
316.4633197024
 20
122.8503619601
  0
VERTEX
  8
SURFACE
 62
7
  6
CONTINUOUS
 10
316.4967845338
 20
122.5323882468
  0
VERTEX
  8
SURFACE
 62
7
  6
CONTINUOUS
 10
316.5916448069
 20
122.2456608131
  0
SEQEND
  0
POLYLINE
  8
SURFACE
 62
7
  6
CONTINUOUS
 66
1
 70
0
  0
VERTEX
  8
SURFACE
 62
7
  6
CONTINUOUS
 10
316.4633196993
 20
88.2670085963
  0
VERTEX
  8
SURFACE
 62
7
  6
CONTINUOUS
 10
316.4683980606
 20
88.0473026374
  0
VERTEX
  8
SURFACE
 62
7
  6
CONTINUOUS
 10
316.4860139596
 20
87.8062039446
  0
VERTEX
  8
SURFACE
 62
7
  6
CONTINUOUS
 10
316.5127076099
 20
87.5921752846
  0
SEQEND
  0
POLYLINE
  8
0
 62
7
  6
CONTINUOUS
 66
1
 70
0
  0
VERTEX
  8
0
 62
7
  6
CONTINUOUS
 10
313.0633196449
 20
238.2201327971
  0
VERTEX
  8
0
 62
7
  6
CONTINUOUS
 10
313.0582412837
 20
238.439838756
  0
VERTEX
  8
0
 62
7
  6
CONTINUOUS
 10
313.0406253847
 20
238.6809374489
  0
VERTEX
  8
0
 62
7
  6
CONTINUOUS
 10
313.0139317343
 20
238.8949661088
  0
SEQEND
  0
POLYLINE
  8
0
 62
7
  6
CONTINUOUS
 66
1
 70
0
  0
VERTEX
  8
0
 62
7
  6
CONTINUOUS
 10
313.063319647
 20
252.7139357201
  0
VERTEX
  8
0
 62
7
  6
CONTINUOUS
 10
313.0588507988
 20
252.9784148438
  0
VERTEX
  8
0
 62
7
  6
CONTINUOUS
 10
313.0432182638
 20
253.274235007
  0
VERTEX
  8
0
 62
7
  6
CONTINUOUS
 10
313.0193193086
 20
253.5417934485
  0
SEQEND
  0
POLYLINE
  8
SURFACE
 62
7
  6
CONTINUOUS
 66
1
 70
0
  0
VERTEX
  8
SURFACE
 62
7
  6
CONTINUOUS
 10
316.4633196972
 20
73.7732056733
  0
VERTEX
  8
SURFACE
 62
7
  6
CONTINUOUS
 10
316.4677885455
 20
73.5087265496
  0
VERTEX
  8
SURFACE
 62
7
  6
CONTINUOUS
 10
316.4834210804
 20
73.2129063864
  0
VERTEX
  8
SURFACE
 62
7
  6
CONTINUOUS
 10
316.5073200357
 20
72.9453479449
  0
SEQEND
  0
LINE
  8
0
 62
7
  6
CONTINUOUS
 10
313.0633196721
 20
252.7139357115
 11
313.0633196721
 21
245.2435706967
  0
LINE
  8
0
 62
7
  6
CONTINUOUS
 10
313.0633196721
 20
238.2202838446
 11
313.0633196721
 21
224.2717369174
  0
LINE
  8
0
 62
7
  6
CONTINUOUS
 10
313.0633196721
 20
203.6366822386
 11
313.0633196721
 21
186.9474552836
  0
LINE
  8
0
 62
7
  6
CONTINUOUS
 10
313.0633196721
 20
159.8435706967
 11
313.0633196721
 21
143.2717369174
  0
LINE
  8
0
 62
7
  6
CONTINUOUS
 10
313.0633196721
 20
119.2990843239
 11
313.0633196721
 21
104.9474552836
  0
LINE
  8
0
 62
7
  6
CONTINUOUS
 10
313.0633196721
 20
90.5294875864
 11
313.0633196721
 21
73.7732056819
  0
LINE
  8
0
 62
7
  6
CONTINUOUS
 10
313.0633196721
 20
203.6366822386
 11
313.063319667
 21
203.6367794333
  0
POLYLINE
  8
0
 62
7
  6
CONTINUOUS
 66
1
 70
0
  0
VERTEX
  8
0
 62
7
  6
CONTINUOUS
 10
313.0633196721
 20
143.2717369174
  0
VERTEX
  8
0
 62
7
  6
CONTINUOUS
 10
313.0504364111
 20
142.9517335193
  0
VERTEX
  8
0
 62
7
  6
CONTINUOUS
 10
312.9603753176
 20
142.3879017091
  0
VERTEX
  8
0
 62
7
  6
CONTINUOUS
 10
312.8225476899
 20
141.9700874761
  0
VERTEX
  8
0
 62
7
  6
CONTINUOUS
 10
312.6638969543
 20
141.6726034919
  0
VERTEX
  8
0
 62
7
  6
CONTINUOUS
 10
312.5820659635
 20
141.5618804495
  0
VERTEX
  8
0
 62
7
  6
CONTINUOUS
 10
312.4215306166
 20
141.4044555575
  0
VERTEX
  8
0
 62
7
  6
CONTINUOUS
 10
312.2720036545
 20
141.3157706646
  0
VERTEX
  8
0
 62
7
  6
CONTINUOUS
 10
312.1317553411
 20
141.2764258547
  0
VERTEX
  8
0
 62
7
  6
CONTINUOUS
 10
312.0633196721
 20
141.2717369174
  0
SEQEND
  0
POLYLINE
  8
SURFACE
 62
7
  6
CONTINUOUS
 66
1
 70
0
  0
VERTEX
  8
SURFACE
 62
7
  6
CONTINUOUS
 10
316.4633196721
 20
183.2154044761
  0
VERTEX
  8
SURFACE
 62
7
  6
CONTINUOUS
 10
316.4762029332
 20
183.5354078741
  0
VERTEX
  8
SURFACE
 62
7
  6
CONTINUOUS
 10
316.5662640266
 20
184.0992396844
  0
VERTEX
  8
SURFACE
 62
7
  6
CONTINUOUS
 10
316.7040916543
 20
184.5170539173
  0
VERTEX
  8
SURFACE
 62
7
  6
CONTINUOUS
 10
316.86274239
 20
184.8145379016
  0
VERTEX
  8
SURFACE
 62
7
  6
CONTINUOUS
 10
316.9445733807
 20
184.9252609439
  0
VERTEX
  8
SURFACE
 62
7
  6
CONTINUOUS
 10
317.1051087277
 20
185.082685836
  0
VERTEX
  8
SURFACE
 62
7
  6
CONTINUOUS
 10
317.2546356898
 20
185.1713707289
  0
VERTEX
  8
SURFACE
 62
7
  6
CONTINUOUS
 10
317.3948840031
 20
185.2107155387
  0
VERTEX
  8
SURFACE
 62
7
  6
CONTINUOUS
 10
317.4633196721
 20
185.2154044761
  0
SEQEND
  0
POLYLINE
  8
0
 62
7
  6
CONTINUOUS
 66
1
 70
0
  0
VERTEX
  8
0
 62
7
  6
CONTINUOUS
 10
313.0633196721
 20
186.9474552836
  0
VERTEX
  8
0
 62
7
  6
CONTINUOUS
 10
313.0504364111
 20
186.6703242116
  0
VERTEX
  8
0
 62
7
  6
CONTINUOUS
 10
312.9603753176
 20
186.1820315405
  0
VERTEX
  8
0
 62
7
  6
CONTINUOUS
 10
312.8225476899
 20
185.8201938007
  0
VERTEX
  8
0
 62
7
  6
CONTINUOUS
 10
312.6638969543
 20
185.5625651131
  0
VERTEX
  8
0
 62
7
  6
CONTINUOUS
 10
312.5820659635
 20
185.4666761457
  0
VERTEX
  8
0
 62
7
  6
CONTINUOUS
 10
312.4215306166
 20
185.3303421899
  0
VERTEX
  8
0
 62
7
  6
CONTINUOUS
 10
312.2720036545
 20
185.2535388198
  0
VERTEX
  8
0
 62
7
  6
CONTINUOUS
 10
312.1317553411
 20
185.2194652149
  0
VERTEX
  8
0
 62
7
  6
CONTINUOUS
 10
312.0633196721
 20
185.2154044761
  0
SEQEND
  0
POLYLINE
  8
SURFACE
 62
7
  6
CONTINUOUS
 66
1
 70
0
  0
VERTEX
  8
SURFACE
 62
7
  6
CONTINUOUS
 10
316.4633196721
 20
221.5396861098
  0
VERTEX
  8
SURFACE
 62
7
  6
CONTINUOUS
 10
316.4762029332
 20
221.8168171818
  0
VERTEX
  8
SURFACE
 62
7
  6
CONTINUOUS
 10
316.5662640266
 20
222.305109853
  0
VERTEX
  8
SURFACE
 62
7
  6
CONTINUOUS
 10
316.7040916543
 20
222.6669475927
  0
VERTEX
  8
SURFACE
 62
7
  6
CONTINUOUS
 10
316.86274239
 20
222.9245762803
  0
VERTEX
  8
SURFACE
 62
7
  6
CONTINUOUS
 10
316.9445733807
 20
223.0204652478
  0
VERTEX
  8
SURFACE
 62
7
  6
CONTINUOUS
 10
317.1051087277
 20
223.1567992035
  0
VERTEX
  8
SURFACE
 62
7
  6
CONTINUOUS
 10
317.2546356898
 20
223.2336025737
  0
VERTEX
  8
SURFACE
 62
7
  6
CONTINUOUS
 10
317.3948840031
 20
223.2676761785
  0
VERTEX
  8
SURFACE
 62
7
  6
CONTINUOUS
 10
317.4633196721
 20
223.2717369174
  0
SEQEND
  0
LINE
  8
SURFACE
 62
7
  6
CONTINUOUS
 10
316.4779059678
 20
219.1269408615
 11
316.463319727
 21
218.9523815834
  0
LINE
  8
DEFAULT_1
 62
2
  6
CENTER
 10
287.6633196721
 20
163.2435706967
 11
341.8633196721
 21
163.2435706967
  0
POLYLINE
  8
0
 62
7
  6
CONTINUOUS
 66
1
 70
0
  0
VERTEX
  8
0
 62
7
  6
CONTINUOUS
 10
312.0633196721
 20
161.8435706967
  0
VERTEX
  8
0
 62
7
  6
CONTINUOUS
 10
312.509712736
 20
161.272126649
  0
VERTEX
  8
0
 62
7
  6
CONTINUOUS
 10
312.8147037985
 20
160.777692371
  0
VERTEX
  8
0
 62
7
  6
CONTINUOUS
 10
312.9131544722
 20
160.5619564671
  0
VERTEX
  8
0
 62
7
  6
CONTINUOUS
 10
313.0289823077
 20
160.1796899338
  0
VERTEX
  8
0
 62
7
  6
CONTINUOUS
 10
313.0633196721
 20
159.8435706967
  0
SEQEND
  0
POLYLINE
  8
0
 62
7
  6
CONTINUOUS
 66
1
 70
0
  0
VERTEX
  8
0
 62
7
  6
CONTINUOUS
 10
313.0633196419
 20
203.6367794333
  0
VERTEX
  8
0
 62
7
  6
CONTINUOUS
 10
313.0298548105
 20
203.9547531467
  0
VERTEX
  8
0
 62
7
  6
CONTINUOUS
 10
312.9349945373
 20
204.2414805804
  0
SEQEND
  0
LINE
  8
SURFACE
 62
7
  6
CONTINUOUS
 10
316.4633196721
 20
122.8504591549
 11
316.4633196773
 21
122.8503619601
  0
LINE
  8
SURFACE
 62
7
  6
CONTINUOUS
 10
316.4633196721
 20
73.7732056819
 11
316.4633196721
 21
81.2435706967
  0
LINE
  8
SURFACE
 62
7
  6
CONTINUOUS
 10
316.4633196721
 20
88.2668575488
 11
316.4633196721
 21
102.2154044761
  0
LINE
  8
SURFACE
 62
7
  6
CONTINUOUS
 10
316.4633196721
 20
122.8504591549
 11
316.4633196721
 21
139.5396861098
  0
LINE
  8
SURFACE
 62
7
  6
CONTINUOUS
 10
316.4633196721
 20
166.6435706967
 11
316.4633196721
 21
183.2154044761
  0
LINE
  8
SURFACE
 62
7
  6
CONTINUOUS
 10
316.4633196721
 20
207.1880570696
 11
316.4633196721
 21
221.5396861098
  0
LINE
  8
SURFACE
 62
7
  6
CONTINUOUS
 10
316.4633196721
 20
235.957653807
 11
316.4633196721
 21
252.7139357115
  0
POLYLINE
  8
0
 62
7
  6
CONTINUOUS
 66
1
 70
0
  0
VERTEX
  8
0
 62
7
  6
CONTINUOUS
 10
313.0633196721
 20
104.9474552836
  0
VERTEX
  8
0
 62
7
  6
CONTINUOUS
 10
313.0504364111
 20
104.6703242116
  0
VERTEX
  8
0
 62
7
  6
CONTINUOUS
 10
312.9603753176
 20
104.1820315405
  0
VERTEX
  8
0
 62
7
  6
CONTINUOUS
 10
312.8225476899
 20
103.8201938007
  0
VERTEX
  8
0
 62
7
  6
CONTINUOUS
 10
312.6638969543
 20
103.5625651131
  0
VERTEX
  8
0
 62
7
  6
CONTINUOUS
 10
312.5820659635
 20
103.4666761457
  0
VERTEX
  8
0
 62
7
  6
CONTINUOUS
 10
312.4215306166
 20
103.3303421899
  0
VERTEX
  8
0
 62
7
  6
CONTINUOUS
 10
312.2720036545
 20
103.2535388198
  0
VERTEX
  8
0
 62
7
  6
CONTINUOUS
 10
312.1317553411
 20
103.2194652149
  0
VERTEX
  8
0
 62
7
  6
CONTINUOUS
 10
312.0633196721
 20
103.2154044761
  0
SEQEND
  0
POLYLINE
  8
SURFACE
 62
7
  6
CONTINUOUS
 66
1
 70
0
  0
VERTEX
  8
SURFACE
 62
7
  6
CONTINUOUS
 10
316.4633196721
 20
139.5396861098
  0
VERTEX
  8
SURFACE
 62
7
  6
CONTINUOUS
 10
316.4762029332
 20
139.8168171818
  0
VERTEX
  8
SURFACE
 62
7
  6
CONTINUOUS
 10
316.5662640266
 20
140.305109853
  0
VERTEX
  8
SURFACE
 62
7
  6
CONTINUOUS
 10
316.7040916543
 20
140.6669475927
  0
VERTEX
  8
SURFACE
 62
7
  6
CONTINUOUS
 10
316.86274239
 20
140.9245762803
  0
VERTEX
  8
SURFACE
 62
7
  6
CONTINUOUS
 10
316.9445733807
 20
141.0204652478
  0
VERTEX
  8
SURFACE
 62
7
  6
CONTINUOUS
 10
317.1051087277
 20
141.1567992035
  0
VERTEX
  8
SURFACE
 62
7
  6
CONTINUOUS
 10
317.2546356898
 20
141.2336025737
  0
VERTEX
  8
SURFACE
 62
7
  6
CONTINUOUS
 10
317.3948840031
 20
141.2676761785
  0
VERTEX
  8
SURFACE
 62
7
  6
CONTINUOUS
 10
317.4633196721
 20
141.2717369174
  0
SEQEND
  0
POLYLINE
  8
SURFACE
 62
7
  6
CONTINUOUS
 66
1
 70
0
  0
VERTEX
  8
SURFACE
 62
7
  6
CONTINUOUS
 10
316.4633196721
 20
102.2154044761
  0
VERTEX
  8
SURFACE
 62
7
  6
CONTINUOUS
 10
316.4762029332
 20
102.3754061751
  0
VERTEX
  8
SURFACE
 62
7
  6
CONTINUOUS
 10
316.5662640266
 20
102.6573220802
  0
VERTEX
  8
SURFACE
 62
7
  6
CONTINUOUS
 10
316.7040916543
 20
102.8662291967
  0
VERTEX
  8
SURFACE
 62
7
  6
CONTINUOUS
 10
316.86274239
 20
103.0149711888
  0
VERTEX
  8
SURFACE
 62
7
  6
CONTINUOUS
 10
316.9445733807
 20
103.07033271
  0
VERTEX
  8
SURFACE
 62
7
  6
CONTINUOUS
 10
317.1051087277
 20
103.149045156
  0
VERTEX
  8
SURFACE
 62
7
  6
CONTINUOUS
 10
317.2546356898
 20
103.1933876025
  0
VERTEX
  8
SURFACE
 62
7
  6
CONTINUOUS
 10
317.3948840031
 20
103.2130600074
  0
VERTEX
  8
SURFACE
 62
7
  6
CONTINUOUS
 10
317.4633196721
 20
103.2154044761
  0
SEQEND
  0
LINE
  8
0
 62
7
  6
CONTINUOUS
 10
313.0487333764
 20
107.3602005319
 11
313.0633196172
 21
107.5347598101
  0
POLYLINE
  8
0
 62
7
  6
CONTINUOUS
 66
1
 70
0
  0
VERTEX
  8
0
 62
7
  6
CONTINUOUS
 10
313.0193193086
 20
72.9453479449
  0
VERTEX
  8
0
 62
7
  6
CONTINUOUS
 10
313.0432182638
 20
73.2129063864
  0
VERTEX
  8
0
 62
7
  6
CONTINUOUS
 10
313.0588507988
 20
73.5087265496
  0
VERTEX
  8
0
 62
7
  6
CONTINUOUS
 10
313.063319647
 20
73.7732056733
  0
SEQEND
  0
POLYLINE
  8
SURFACE
 62
7
  6
CONTINUOUS
 66
1
 70
0
  0
VERTEX
  8
SURFACE
 62
7
  6
CONTINUOUS
 10
317.4633196721
 20
164.6435706967
  0
VERTEX
  8
SURFACE
 62
7
  6
CONTINUOUS
 10
317.0169266083
 20
165.2150147444
  0
VERTEX
  8
SURFACE
 62
7
  6
CONTINUOUS
 10
316.7119355457
 20
165.7094490224
  0
VERTEX
  8
SURFACE
 62
7
  6
CONTINUOUS
 10
316.6134848721
 20
165.9251849263
  0
VERTEX
  8
SURFACE
 62
7
  6
CONTINUOUS
 10
316.4976570366
 20
166.3074514597
  0
VERTEX
  8
SURFACE
 62
7
  6
CONTINUOUS
 10
316.4633196721
 20
166.6435706967
  0
SEQEND
  0
POLYLINE
  8
0
 62
7
  6
CONTINUOUS
 66
1
 70
0
  0
VERTEX
  8
0
 62
7
  6
CONTINUOUS
 10
313.0193193185
 20
253.5417935617
  0
VERTEX
  8
0
 62
7
  6
CONTINUOUS
 10
312.8754813529
 20
254.8827092598
  0
VERTEX
  8
0
 62
7
  6
CONTINUOUS
 10
312.7346884601
 20
256.1810483018
  0
VERTEX
  8
0
 62
7
  6
CONTINUOUS
 10
312.6017746312
 20
257.3889418362
  0
VERTEX
  8
0
 62
7
  6
CONTINUOUS
 10
312.4782908483
 20
258.4890256537
  0
VERTEX
  8
0
 62
7
  6
CONTINUOUS
 10
312.3655168897
 20
259.4663434131
  0
SEQEND
  0
POLYLINE
  8
SURFACE
 62
7
  6
CONTINUOUS
 66
1
 70
0
  0
VERTEX
  8
SURFACE
 62
7
  6
CONTINUOUS
 10
325.9633196558
 20
246.5834883177
  0
VERTEX
  8
SURFACE
 62
7
  6
CONTINUOUS
 10
325.9581221258
 20
246.7940030735
  0
VERTEX
  8
SURFACE
 62
7
  6
CONTINUOUS
 10
325.9404619604
 20
247.027301088
  0
SEQEND
  0
POLYLINE
  8
SURFACE
 62
7
  6
CONTINUOUS
 66
1
 70
0
  0
VERTEX
  8
SURFACE
 62
7
  6
CONTINUOUS
 10
325.9633196525
 20
252.7139357051
  0
VERTEX
  8
SURFACE
 62
7
  6
CONTINUOUS
 10
325.9588511356
 20
252.9784045815
  0
VERTEX
  8
SURFACE
 62
7
  6
CONTINUOUS
 10
325.9432189996
 20
253.2742248776
  0
VERTEX
  8
SURFACE
 62
7
  6
CONTINUOUS
 10
325.9193192916
 20
253.5417933875
  0
SEQEND
  0
LINE
  8
SURFACE
 62
7
  6
CONTINUOUS
 10
325.9633196721
 20
73.7732056819
 11
325.9633196721
 21
252.7139357115
  0
POLYLINE
  8
0
 62
7
  6
CONTINUOUS
 66
1
 70
0
  0
VERTEX
  8
0
 62
7
  6
CONTINUOUS
 10
312.2663524139
 20
66.1941832607
  0
VERTEX
  8
0
 62
7
  6
CONTINUOUS
 10
312.3655168897
 20
67.0207979804
  0
VERTEX
  8
0
 62
7
  6
CONTINUOUS
 10
312.4782908483
 20
67.9981157397
  0
VERTEX
  8
0
 62
7
  6
CONTINUOUS
 10
312.6017746312
 20
69.0981995573
  0
VERTEX
  8
0
 62
7
  6
CONTINUOUS
 10
312.7346884601
 20
70.3060930916
  0
VERTEX
  8
0
 62
7
  6
CONTINUOUS
 10
312.8754813529
 20
71.6044321336
  0
VERTEX
  8
0
 62
7
  6
CONTINUOUS
 10
313.0193193185
 20
72.9453478317
  0
SEQEND
  0
POLYLINE
  8
0
 62
7
  6
CONTINUOUS
 66
1
 70
0
  0
VERTEX
  8
0
 62
7
  6
CONTINUOUS
 10
313.0141293074
 20
79.2497086301
  0
VERTEX
  8
0
 62
7
  6
CONTINUOUS
 10
313.0404601341
 20
79.4598225032
  0
VERTEX
  8
0
 62
7
  6
CONTINUOUS
 10
313.0581212776
 20
79.6931209366
  0
VERTEX
  8
0
 62
7
  6
CONTINUOUS
 10
313.0633196519
 20
79.9036612883
  0
SEQEND
  0
LINE
  8
0
 62
7
  6
CONTINUOUS
 10
312.2920743581
 20
73.8652647421
 11
312.7343687099
 21
77.2352114858
  0
POLYLINE
  8
0
 62
7
  6
CONTINUOUS
 66
1
 70
0
  0
VERTEX
  8
0
 62
7
  6
CONTINUOUS
 10
312.7343687099
 20
77.2352114858
  0
VERTEX
  8
0
 62
7
  6
CONTINUOUS
 10
312.875983247
 20
78.2863497681
  0
VERTEX
  8
0
 62
7
  6
CONTINUOUS
 10
313.01412918
 20
79.2497076447
  0
SEQEND
  0
LINE
  8
0
 62
7
  6
CONTINUOUS
 10
312.2598800706
 20
104.9659262139
 11
312.6979529065
 21
106.4565567767
  0
POLYLINE
  8
0
 62
7
  6
CONTINUOUS
 66
1
 70
0
  0
VERTEX
  8
0
 62
7
  6
CONTINUOUS
 10
313.01393127
 20
238.8949693286
  0
VERTEX
  8
0
 62
7
  6
CONTINUOUS
 10
312.9125196041
 20
239.5480824805
  0
VERTEX
  8
0
 62
7
  6
CONTINUOUS
 10
312.8190682826
 20
240.1059047254
  0
VERTEX
  8
0
 62
7
  6
CONTINUOUS
 10
312.7350111022
 20
240.5684342796
  0
VERTEX
  8
0
 62
7
  6
CONTINUOUS
 10
312.6586387492
 20
240.9534576496
  0
VERTEX
  8
0
 62
7
  6
CONTINUOUS
 10
312.5887947198
 20
241.2734480915
  0
VERTEX
  8
0
 62
7
  6
CONTINUOUS
 10
312.5244209263
 20
241.5387855029
  0
VERTEX
  8
0
 62
7
  6
CONTINUOUS
 10
312.4643455255
 20
241.7588730501
  0
VERTEX
  8
0
 62
7
  6
CONTINUOUS
 10
312.4067151526
 20
241.9437773555
  0
VERTEX
  8
0
 62
7
  6
CONTINUOUS
 10
312.3481976373
 20
242.1050500328
  0
VERTEX
  8
0
 62
7
  6
CONTINUOUS
 10
312.2840496669
 20
242.2529439998
  0
VERTEX
  8
0
 62
7
  6
CONTINUOUS
 10
312.2069007199
 20
242.3966569461
  0
VERTEX
  8
0
 62
7
  6
CONTINUOUS
 10
312.1060173051
 20
242.5421201215
  0
VERTEX
  8
0
 62
7
  6
CONTINUOUS
 10
311.9696157739
 20
242.6868183598
  0
VERTEX
  8
0
 62
7
  6
CONTINUOUS
 10
311.7908381123
 20
242.8172703764
  0
VERTEX
  8
0
 62
7
  6
CONTINUOUS
 10
311.6065786708
 20
242.9028052668
  0
SEQEND
  0
POLYLINE
  8
0
 62
7
  6
CONTINUOUS
 66
1
 70
0
  0
VERTEX
  8
0
 62
7
  6
CONTINUOUS
 10
312.2663533082
 20
260.2929508556
  0
VERTEX
  8
0
 62
7
  6
CONTINUOUS
 10
312.2627568331
 20
260.3216348575
  0
VERTEX
  8
0
 62
7
  6
CONTINUOUS
 10
312.258895201
 20
260.3508748406
  0
VERTEX
  8
0
 62
7
  6
CONTINUOUS
 10
312.2550556365
 20
260.3777038122
  0
VERTEX
  8
0
 62
7
  6
CONTINUOUS
 10
312.2499387745
 20
260.4092864114
  0
VERTEX
  8
0
 62
7
  6
CONTINUOUS
 10
312.2416701515
 20
260.4517410665
  0
VERTEX
  8
0
 62
7
  6
CONTINUOUS
 10
312.2291798307
 20
260.5032223805
  0
VERTEX
  8
0
 62
7
  6
CONTINUOUS
 10
312.2122410301
 20
260.5593905876
  0
VERTEX
  8
0
 62
7
  6
CONTINUOUS
 10
312.1906682176
 20
260.6179380034
  0
VERTEX
  8
0
 62
7
  6
CONTINUOUS
 10
312.1641248999
 20
260.6778876038
  0
VERTEX
  8
0
 62
7
  6
CONTINUOUS
 10
312.1324736418
 20
260.7381626489
  0
VERTEX
  8
0
 62
7
  6
CONTINUOUS
 10
312.0952058716
 20
260.7985412203
  0
VERTEX
  8
0
 62
7
  6
CONTINUOUS
 10
312.0742497525
 20
260.828728951
  0
VERTEX
  8
0
 62
7
  6
CONTINUOUS
 10
312.0272105199
 20
260.8889184821
  0
VERTEX
  8
0
 62
7
  6
CONTINUOUS
 10
311.9728198846
 20
260.9482702817
  0
VERTEX
  8
0
 62
7
  6
CONTINUOUS
 10
311.9108287734
 20
261.005618146
  0
VERTEX
  8
0
 62
7
  6
CONTINUOUS
 10
311.8411751761
 20
261.0596972034
  0
VERTEX
  8
0
 62
7
  6
CONTINUOUS
 10
311.7638581781
 20
261.1092717373
  0
VERTEX
  8
0
 62
7
  6
CONTINUOUS
 10
311.6789913616
 20
261.1530728086
  0
VERTEX
  8
0
 62
7
  6
CONTINUOUS
 10
311.5868740878
 20
261.1897692729
  0
VERTEX
  8
0
 62
7
  6
CONTINUOUS
 10
311.4880161346
 20
261.2179910306
  0
VERTEX
  8
0
 62
7
  6
CONTINUOUS
 10
311.3831594221
 20
261.2363588271
  0
VERTEX
  8
0
 62
7
  6
CONTINUOUS
 10
311.2632770814
 20
261.24357023
  0
SEQEND
  0
LINE
  8
0
 62
7
  6
CONTINUOUS
 10
312.3655168897
 20
259.4663434131
 11
312.2663524139
 21
260.2929581327
  0
POLYLINE
  8
SURFACE
 62
7
  6
CONTINUOUS
 66
1
 70
0
  0
VERTEX
  8
SURFACE
 62
7
  6
CONTINUOUS
 10
325.9193193181
 20
253.5417935653
  0
VERTEX
  8
SURFACE
 62
7
  6
CONTINUOUS
 10
325.775480711
 20
254.8827152147
  0
VERTEX
  8
SURFACE
 62
7
  6
CONTINUOUS
 10
325.6346866626
 20
256.1810647673
  0
VERTEX
  8
SURFACE
 62
7
  6
CONTINUOUS
 10
325.5017719196
 20
257.3889662564
  0
VERTEX
  8
SURFACE
 62
7
  6
CONTINUOUS
 10
325.3782880697
 20
258.4890500998
  0
VERTEX
  8
SURFACE
 62
7
  6
CONTINUOUS
 10
325.2655151045
 20
259.4663586152
  0
VERTEX
  8
SURFACE
 62
7
  6
CONTINUOUS
 10
325.1663524086
 20
260.2929581846
  0
SEQEND
  0
POLYLINE
  8
SURFACE
 62
7
  6
CONTINUOUS
 66
1
 70
0
  0
VERTEX
  8
SURFACE
 62
7
  6
CONTINUOUS
 10
325.9633196235
 20
218.9523718989
  0
VERTEX
  8
SURFACE
 62
7
  6
CONTINUOUS
 10
325.948422186
 20
219.1287901503
  0
VERTEX
  8
SURFACE
 62
7
  6
CONTINUOUS
 10
325.8980794188
 20
219.3194254301
  0
VERTEX
  8
SURFACE
 62
7
  6
CONTINUOUS
 10
325.8250002136
 20
219.4816740232
  0
VERTEX
  8
SURFACE
 62
7
  6
CONTINUOUS
 10
325.7547463943
 20
219.5958494273
  0
SEQEND
  0
POLYLINE
  8
SURFACE
 62
7
  6
CONTINUOUS
 66
1
 70
0
  0
VERTEX
  8
SURFACE
 62
7
  6
CONTINUOUS
 10
325.9193192916
 20
72.945348006
  0
VERTEX
  8
SURFACE
 62
7
  6
CONTINUOUS
 10
325.9432189996
 20
73.2129165159
  0
VERTEX
  8
SURFACE
 62
7
  6
CONTINUOUS
 10
325.9588511356
 20
73.508736812
  0
VERTEX
  8
SURFACE
 62
7
  6
CONTINUOUS
 10
325.9633196525
 20
73.7732056883
  0
SEQEND
  0
LINE
  8
SURFACE
 62
7
  6
CONTINUOUS
 10
325.9298559803
 20
122.5323936735
 11
325.9633196474
 21
122.8503627412
  0
POLYLINE
  8
SURFACE
 62
7
  6
CONTINUOUS
 66
1
 70
0
  0
VERTEX
  8
SURFACE
 62
7
  6
CONTINUOUS
 10
325.9139317859
 20
87.5921757947
  0
VERTEX
  8
SURFACE
 62
7
  6
CONTINUOUS
 10
325.9406262817
 20
87.8062128278
  0
VERTEX
  8
SURFACE
 62
7
  6
CONTINUOUS
 10
325.9582416946
 20
88.0473116586
  0
VERTEX
  8
SURFACE
 62
7
  6
CONTINUOUS
 10
325.9633196507
 20
88.2669975324
  0
SEQEND
  0
LINE
  8
0
 62
7
  6
CONTINUOUS
 10
312.6979579496
 20
106.4565739503
 11
312.7363752989
 21
106.5823462244
  0
POLYLINE
  8
0
 62
7
  6
CONTINUOUS
 66
1
 70
0
  0
VERTEX
  8
0
 62
7
  6
CONTINUOUS
 10
312.7363752989
 20
106.5823462244
  0
VERTEX
  8
0
 62
7
  6
CONTINUOUS
 10
312.8053455043
 20
106.7793699928
  0
VERTEX
  8
0
 62
7
  6
CONTINUOUS
 10
312.8309901048
 20
106.8413128036
  0
VERTEX
  8
0
 62
7
  6
CONTINUOUS
 10
312.8513403725
 20
106.8842624948
  0
SEQEND
  0
POLYLINE
  8
0
 62
7
  6
CONTINUOUS
 66
1
 70
0
  0
VERTEX
  8
0
 62
7
  6
CONTINUOUS
 10
312.934951887
 20
204.2415741964
  0
VERTEX
  8
0
 62
7
  6
CONTINUOUS
 10
312.836746875
 20
204.4351016088
  0
VERTEX
  8
0
 62
7
  6
CONTINUOUS
 10
312.7153595119
 20
204.6221369785
  0
VERTEX
  8
0
 62
7
  6
CONTINUOUS
 10
312.5603775343
 20
204.7988314653
  0
VERTEX
  8
0
 62
7
  6
CONTINUOUS
 10
312.4654972234
 20
204.8816286155
  0
VERTEX
  8
0
 62
7
  6
CONTINUOUS
 10
312.2381683381
 20
205.0230733768
  0
VERTEX
  8
0
 62
7
  6
CONTINUOUS
 10
311.9738105018
 20
205.1106659195
  0
VERTEX
  8
0
 62
7
  6
CONTINUOUS
 10
311.7575970095
 20
205.1319436189
  0
SEQEND
  0
LINE
  8
0
 62
7
  6
CONTINUOUS
 10
312.9349945387
 20
204.241480581
 11
312.934951887
 21
204.2415741964
  0
LINE
  8
0
 62
7
  6
CONTINUOUS
 10
339.8633196721
 20
231.8978996293
 11
339.8633196721
 21
94.5892417642
  0
POLYLINE
  8
SURFACE
 62
7
  6
CONTINUOUS
 66
1
 70
0
  0
VERTEX
  8
SURFACE
 62
7
  6
CONTINUOUS
 10
325.1663524086
 20
66.1941832088
  0
VERTEX
  8
SURFACE
 62
7
  6
CONTINUOUS
 10
325.2655151045
 20
67.0207827783
  0
VERTEX
  8
SURFACE
 62
7
  6
CONTINUOUS
 10
325.3782880697
 20
67.9980912936
  0
VERTEX
  8
SURFACE
 62
7
  6
CONTINUOUS
 10
325.5017719196
 20
69.0981751371
  0
VERTEX
  8
SURFACE
 62
7
  6
CONTINUOUS
 10
325.6346866626
 20
70.3060766261
  0
VERTEX
  8
SURFACE
 62
7
  6
CONTINUOUS
 10
325.775480711
 20
71.6044261787
  0
VERTEX
  8
SURFACE
 62
7
  6
CONTINUOUS
 10
325.9193193181
 20
72.9453478281
  0
SEQEND
  0
LINE
  8
SURFACE
 62
7
  6
CONTINUOUS
 10
325.83499538
 20
122.2456627291
 11
325.9298559803
 21
122.5323936735
  0
LINE
  8
SURFACE
 62
7
  6
CONTINUOUS
 10
325.8349520675
 20
122.2455675828
 11
325.8349954104
 21
122.2456627152
  0
POLYLINE
  8
0
 62
7
  6
CONTINUOUS
 66
1
 70
0
  0
VERTEX
  8
0
 62
7
  6
CONTINUOUS
 10
312.850672691
 20
106.8846731622
  0
VERTEX
  8
0
 62
7
  6
CONTINUOUS
 10
312.9252305056
 20
107.0058926111
  0
VERTEX
  8
0
 62
7
  6
CONTINUOUS
 10
312.9984527391
 20
107.1687494672
  0
VERTEX
  8
0
 62
7
  6
CONTINUOUS
 10
313.0487333764
 20
107.3602005319
  0
SEQEND
  0
LINE
  8
0
 62
7
  6
CONTINUOUS
 10
317.4633196721
 20
185.2154044761
 11
312.0633196721
 21
185.2154044761
  0
LINE
  8
SURFACE
 62
7
  6
CONTINUOUS
 10
325.5979529063
 20
220.0305846174
 11
325.1598800706
 21
221.5212151796
  0
LINE
  8
SURFACE
 62
7
  6
CONTINUOUS
 10
325.9141291778
 20
247.2374337607
 11
325.7759827583
 21
248.2007952464
  0
POLYLINE
  8
SURFACE
 62
7
  6
CONTINUOUS
 66
1
 70
0
  0
VERTEX
  8
SURFACE
 62
7
  6
CONTINUOUS
 10
325.192075692
 20
252.6218664383
  0
VERTEX
  8
SURFACE
 62
7
  6
CONTINUOUS
 10
325.1812655111
 20
252.6999003084
  0
VERTEX
  8
SURFACE
 62
7
  6
CONTINUOUS
 10
325.1697589563
 20
252.7729980569
  0
VERTEX
  8
SURFACE
 62
7
  6
CONTINUOUS
 10
325.1578642626
 20
252.8369194038
  0
VERTEX
  8
SURFACE
 62
7
  6
CONTINUOUS
 10
325.1430783818
 20
252.9015138735
  0
VERTEX
  8
SURFACE
 62
7
  6
CONTINUOUS
 10
325.1213556735
 20
252.9759239443
  0
VERTEX
  8
SURFACE
 62
7
  6
CONTINUOUS
 10
325.0878825112
 20
253.0638849222
  0
VERTEX
  8
SURFACE
 62
7
  6
CONTINUOUS
 10
325.0393526029
 20
253.1613074266
  0
VERTEX
  8
SURFACE
 62
7
  6
CONTINUOUS
 10
325.0088773271
 20
253.2115999632
  0
VERTEX
  8
SURFACE
 62
7
  6
CONTINUOUS
 10
324.9339622119
 20
253.3129535546
  0
VERTEX
  8
SURFACE
 62
7
  6
CONTINUOUS
 10
324.8388944205
 20
253.4114950009
  0
VERTEX
  8
SURFACE
 62
7
  6
CONTINUOUS
 10
324.7228841176
 20
253.501837338
  0
VERTEX
  8
SURFACE
 62
7
  6
CONTINUOUS
 10
324.5859524447
 20
253.5783998267
  0
VERTEX
  8
SURFACE
 62
7
  6
CONTINUOUS
 10
324.4292306936
 20
253.6352647097
  0
VERTEX
  8
SURFACE
 62
7
  6
CONTINUOUS
 10
324.2554187916
 20
253.666247893
  0
VERTEX
  8
SURFACE
 62
7
  6
CONTINUOUS
 10
324.1673559008
 20
253.6701294947
  0
SEQEND
  0
LINE
  8
SURFACE
 62
7
  6
CONTINUOUS
 10
325.7759827583
 20
248.2007952464
 11
325.6299038544
 21
249.2850704342
  0
LINE
  8
SURFACE
 62
7
  6
CONTINUOUS
 10
325.629903817
 20
249.2850707303
 11
325.1920743581
 21
252.6218766514
  0
LINE
  8
SURFACE
 62
7
  6
CONTINUOUS
 10
325.9404619604
 20
247.027301088
 11
325.9141293684
 21
247.2374322062
  0
POLYLINE
  8
SURFACE
 62
7
  6
CONTINUOUS
 66
1
 70
0
  0
VERTEX
  8
SURFACE
 62
7
  6
CONTINUOUS
 10
325.1663533146
 20
260.2929508019
  0
VERTEX
  8
SURFACE
 62
7
  6
CONTINUOUS
 10
325.1627503555
 20
260.3216854144
  0
VERTEX
  8
SURFACE
 62
7
  6
CONTINUOUS
 10
325.1588824834
 20
260.3509677693
  0
VERTEX
  8
SURFACE
 62
7
  6
CONTINUOUS
 10
325.1550326016
 20
260.3778568146
  0
VERTEX
  8
SURFACE
 62
7
  6
CONTINUOUS
 10
325.1498915906
 20
260.4095561294
  0
VERTEX
  8
SURFACE
 62
7
  6
CONTINUOUS
 10
325.141578297
 20
260.4521665566
  0
VERTEX
  8
SURFACE
 62
7
  6
CONTINUOUS
 10
325.1290290583
 20
260.5037797573
  0
VERTEX
  8
SURFACE
 62
7
  6
CONTINUOUS
 10
325.1120168066
 20
260.5600619563
  0
VERTEX
  8
SURFACE
 62
7
  6
CONTINUOUS
 10
325.0903532526
 20
260.6187163101
  0
VERTEX
  8
SURFACE
 62
7
  6
CONTINUOUS
 10
325.0637057426
 20
260.678755267
  0
VERTEX
  8
SURFACE
 62
7
  6
CONTINUOUS
 10
325.0319387611
 20
260.7391009854
  0
VERTEX
  8
SURFACE
 62
7
  6
CONTINUOUS
 10
324.9945420768
 20
260.7995346306
  0
VERTEX
  8
SURFACE
 62
7
  6
CONTINUOUS
 10
324.9735172688
 20
260.8297424449
  0
VERTEX
  8
SURFACE
 62
7
  6
CONTINUOUS
 10
324.9263342404
 20
260.8899541032
  0
VERTEX
  8
SURFACE
 62
7
  6
CONTINUOUS
 10
324.8717913171
 20
260.9493042066
  0
VERTEX
  8
SURFACE
 62
7
  6
CONTINUOUS
 10
324.8096368949
 20
261.00662918
  0
VERTEX
  8
SURFACE
 62
7
  6
CONTINUOUS
 10
324.7398063244
 20
261.0606646284
  0
VERTEX
  8
SURFACE
 62
7
  6
CONTINUOUS
 10
324.6622998117
 20
261.1101708621
  0
VERTEX
  8
SURFACE
 62
7
  6
CONTINUOUS
 10
324.5772348071
 20
261.1538735527
  0
VERTEX
  8
SURFACE
 62
7
  6
CONTINUOUS
 10
324.4849158532
 20
261.1904366492
  0
VERTEX
  8
SURFACE
 62
7
  6
CONTINUOUS
 10
324.3858592214
 20
261.2184859319
  0
VERTEX
  8
SURFACE
 62
7
  6
CONTINUOUS
 10
324.2808145822
 20
261.2366391311
  0
VERTEX
  8
SURFACE
 62
7
  6
CONTINUOUS
 10
324.1632770471
 20
261.243570218
  0
SEQEND
  0
POLYLINE
  8
SURFACE
 62
7
  6
CONTINUOUS
 66
1
 70
0
  0
VERTEX
  8
SURFACE
 62
7
  6
CONTINUOUS
 10
317.4633196721
 20
205.456006262
  0
VERTEX
  8
SURFACE
 62
7
  6
CONTINUOUS
 10
317.0169266083
 20
205.9508913242
  0
VERTEX
  8
SURFACE
 62
7
  6
CONTINUOUS
 10
316.7119355457
 20
206.3790839694
  0
VERTEX
  8
SURFACE
 62
7
  6
CONTINUOUS
 10
316.6134848721
 20
206.5659167427
  0
VERTEX
  8
SURFACE
 62
7
  6
CONTINUOUS
 10
316.4976570366
 20
206.8969692716
  0
VERTEX
  8
SURFACE
 62
7
  6
CONTINUOUS
 10
316.4633196721
 20
207.1880570696
  0
SEQEND
  0
POLYLINE
  8
SURFACE
 62
7
  6
CONTINUOUS
 66
1
 70
0
  0
VERTEX
  8
SURFACE
 62
7
  6
CONTINUOUS
 10
325.7053460433
 20
219.7077699628
  0
VERTEX
  8
SURFACE
 62
7
  6
CONTINUOUS
 10
325.6363752407
 20
219.9047956324
  0
VERTEX
  8
SURFACE
 62
7
  6
CONTINUOUS
 10
325.5979578778
 20
220.030567698
  0
SEQEND
  0
POLYLINE
  8
SURFACE
 62
7
  6
CONTINUOUS
 66
1
 70
0
  0
VERTEX
  8
SURFACE
 62
7
  6
CONTINUOUS
 10
325.1598846761
 20
221.5211993798
  0
VERTEX
  8
SURFACE
 62
7
  6
CONTINUOUS
 10
325.1346860074
 20
221.5973839571
  0
VERTEX
  8
SURFACE
 62
7
  6
CONTINUOUS
 10
325.0892179056
 20
221.7031427203
  0
VERTEX
  8
SURFACE
 62
7
  6
CONTINUOUS
 10
325.0248187317
 20
221.8152517041
  0
VERTEX
  8
SURFACE
 62
7
  6
CONTINUOUS
 10
324.9369796292
 20
221.9297259248
  0
VERTEX
  8
SURFACE
 62
7
  6
CONTINUOUS
 10
324.8230451227
 20
222.0395784627
  0
VERTEX
  8
SURFACE
 62
7
  6
CONTINUOUS
 10
324.6825153716
 20
222.1365411208
  0
VERTEX
  8
SURFACE
 62
7
  6
CONTINUOUS
 10
324.5160218529
 20
222.2124859383
  0
VERTEX
  8
SURFACE
 62
7
  6
CONTINUOUS
 10
324.3264097785
 20
222.2587750067
  0
VERTEX
  8
SURFACE
 62
7
  6
CONTINUOUS
 10
324.1842857856
 20
222.2688891147
  0
SEQEND
  0
POLYLINE
  8
SURFACE
 62
7
  6
CONTINUOUS
 66
1
 70
0
  0
VERTEX
  8
SURFACE
 62
7
  6
CONTINUOUS
 10
325.755044116
 20
219.5960326198
  0
VERTEX
  8
SURFACE
 62
7
  6
CONTINUOUS
 10
325.7552121934
 20
219.5957509001
  0
VERTEX
  8
SURFACE
 62
7
  6
CONTINUOUS
 10
325.7309897194
 20
219.6458295895
  0
VERTEX
  8
SURFACE
 62
7
  6
CONTINUOUS
 10
325.7053460433
 20
219.7077699628
  0
SEQEND
  0
POLYLINE
  8
0
 62
7
  6
CONTINUOUS
 66
1
 70
0
  0
VERTEX
  8
0
 62
7
  6
CONTINUOUS
 10
304.8690424947
 20
205.1319436222
  0
VERTEX
  8
0
 62
7
  6
CONTINUOUS
 10
304.6548098288
 20
205.1110572662
  0
VERTEX
  8
0
 62
7
  6
CONTINUOUS
 10
304.3897099023
 20
205.0236596971
  0
VERTEX
  8
0
 62
7
  6
CONTINUOUS
 10
304.1618453484
 20
204.8821827943
  0
VERTEX
  8
0
 62
7
  6
CONTINUOUS
 10
304.066761432
 20
204.7993120446
  0
VERTEX
  8
0
 62
7
  6
CONTINUOUS
 10
303.911485654
 20
204.6224130826
  0
VERTEX
  8
0
 62
7
  6
CONTINUOUS
 10
303.7899469096
 20
204.4351974525
  0
VERTEX
  8
0
 62
7
  6
CONTINUOUS
 10
303.6916872767
 20
204.2415738107
  0
SEQEND
  0
LINE
  8
0
 62
7
  6
CONTINUOUS
 10
304.8688227247
 20
205.1319438608
 11
311.7578166191
 21
205.1319438608
  0
POLYLINE
  8
SURFACE
 62
7
  6
CONTINUOUS
 66
1
 70
0
  0
VERTEX
  8
SURFACE
 62
7
  6
CONTINUOUS
 10
318.242354097
 20
222.2688891403
  0
VERTEX
  8
SURFACE
 62
7
  6
CONTINUOUS
 10
318.0980300579
 20
222.2584578538
  0
VERTEX
  8
SURFACE
 62
7
  6
CONTINUOUS
 10
317.9088960771
 20
222.2118814049
  0
VERTEX
  8
SURFACE
 62
7
  6
CONTINUOUS
 10
317.7428368226
 20
222.1358044112
  0
VERTEX
  8
SURFACE
 62
7
  6
CONTINUOUS
 10
317.6026763527
 20
222.0388219847
  0
VERTEX
  8
SURFACE
 62
7
  6
CONTINUOUS
 10
317.4890377713
 20
221.9290238806
  0
VERTEX
  8
SURFACE
 62
7
  6
CONTINUOUS
 10
317.4014281186
 20
221.81465714
  0
VERTEX
  8
SURFACE
 62
7
  6
CONTINUOUS
 10
317.3372113204
 20
221.7027178934
  0
VERTEX
  8
SURFACE
 62
7
  6
CONTINUOUS
 10
317.291877962
 20
221.5971798431
  0
VERTEX
  8
SURFACE
 62
7
  6
CONTINUOUS
 10
317.266754394
 20
221.5211983441
  0
SEQEND
  0
LINE
  8
SURFACE
 62
7
  6
CONTINUOUS
 10
324.1843266116
 20
222.2688895086
 11
318.2423126261
 21
222.2688895086
  0
LINE
  8
0
 62
7
  6
CONTINUOUS
 10
312.0633196721
 20
223.2717369174
 11
317.4633196721
 21
223.2717369174
  0
POLYLINE
  8
SURFACE
 62
7
  6
CONTINUOUS
 66
1
 70
0
  0
VERTEX
  8
SURFACE
 62
7
  6
CONTINUOUS
 10
317.4633196721
 20
234.957653807
  0
VERTEX
  8
SURFACE
 62
7
  6
CONTINUOUS
 10
317.0169266083
 20
235.2433758309
  0
VERTEX
  8
SURFACE
 62
7
  6
CONTINUOUS
 10
316.7119355457
 20
235.4905929699
  0
VERTEX
  8
SURFACE
 62
7
  6
CONTINUOUS
 10
316.6134848721
 20
235.5984609218
  0
VERTEX
  8
SURFACE
 62
7
  6
CONTINUOUS
 10
316.4976570366
 20
235.7895941885
  0
VERTEX
  8
SURFACE
 62
7
  6
CONTINUOUS
 10
316.4633196721
 20
235.957653807
  0
SEQEND
  0
LINE
  8
0
 62
7
  6
CONTINUOUS
 10
292.1633196721
 20
234.3978996293
 11
303.5633196721
 21
234.3978996293
  0
LINE
  8
0
 62
7
  6
CONTINUOUS
 10
325.9633196721
 20
234.3978996293
 11
337.3633196721
 21
234.3978996293
  0
LINE
  8
0
 62
7
  6
CONTINUOUS
 10
311.6065785954
 20
242.9028050529
 11
311.606082399
 21
242.9029799879
  0
POLYLINE
  8
SURFACE
 62
7
  6
CONTINUOUS
 66
1
 70
0
  0
VERTEX
  8
SURFACE
 62
7
  6
CONTINUOUS
 10
324.5065743699
 20
83.5843345755
  0
VERTEX
  8
SURFACE
 62
7
  6
CONTINUOUS
 10
324.690785077
 20
83.669839943
  0
VERTEX
  8
SURFACE
 62
7
  6
CONTINUOUS
 10
324.869640956
 20
83.8003455813
  0
VERTEX
  8
SURFACE
 62
7
  6
CONTINUOUS
 10
325.0061703764
 20
83.9452131548
  0
VERTEX
  8
SURFACE
 62
7
  6
CONTINUOUS
 10
325.1071557885
 20
84.0909071867
  0
VERTEX
  8
SURFACE
 62
7
  6
CONTINUOUS
 10
325.1843345428
 20
84.234792664
  0
VERTEX
  8
SURFACE
 62
7
  6
CONTINUOUS
 10
325.2484821369
 20
84.382812462
  0
VERTEX
  8
SURFACE
 62
7
  6
CONTINUOUS
 10
325.3069766568
 20
84.5441442349
  0
VERTEX
  8
SURFACE
 62
7
  6
CONTINUOUS
 10
325.3645718316
 20
84.7290456
  0
VERTEX
  8
SURFACE
 62
7
  6
CONTINUOUS
 10
325.4246089261
 20
84.9490872553
  0
VERTEX
  8
SURFACE
 62
7
  6
CONTINUOUS
 10
325.4889505491
 20
85.2143710001
  0
VERTEX
  8
SURFACE
 62
7
  6
CONTINUOUS
 10
325.55877281
 20
85.5343283603
  0
VERTEX
  8
SURFACE
 62
7
  6
CONTINUOUS
 10
325.6351238513
 20
85.9193010998
  0
VERTEX
  8
SURFACE
 62
7
  6
CONTINUOUS
 10
325.7191517797
 20
86.3817151497
  0
VERTEX
  8
SURFACE
 62
7
  6
CONTINUOUS
 10
325.8125653394
 20
86.9393425355
  0
VERTEX
  8
SURFACE
 62
7
  6
CONTINUOUS
 10
325.9139312707
 20
87.5921720633
  0
SEQEND
  0
LINE
  8
SURFACE
 62
7
  6
CONTINUOUS
 10
324.5060808119
 20
83.5841608662
 11
324.5065742777
 21
83.5843348368
  0
POLYLINE
  8
0
 62
7
  6
CONTINUOUS
 66
1
 70
0
  0
VERTEX
  8
0
 62
7
  6
CONTINUOUS
 10
305.353510901
 20
242.9599134962
  0
VERTEX
  8
0
 62
7
  6
CONTINUOUS
 10
305.3364058861
 20
242.9597674741
  0
VERTEX
  8
0
 62
7
  6
CONTINUOUS
 10
305.1296972315
 20
242.9345971026
  0
VERTEX
  8
0
 62
7
  6
CONTINUOUS
 10
305.0205585323
 20
242.9029805272
  0
SEQEND
  0
LINE
  8
0
 62
7
  6
CONTINUOUS
 10
305.3534734681
 20
242.959914349
 11
311.2731658724
 21
242.959914349
  0
LINE
  8
0
 62
7
  6
CONTINUOUS
 10
312.0633196721
 20
245.2435706967
 11
316.4633196721
 21
245.2435706967
  0
POLYLINE
  8
0
 62
7
  6
CONTINUOUS
 66
1
 70
0
  0
VERTEX
  8
0
 62
7
  6
CONTINUOUS
 10
311.606082399
 20
242.9029799879
  0
VERTEX
  8
0
 62
7
  6
CONTINUOUS
 10
311.4984403145
 20
242.9342525991
  0
VERTEX
  8
0
 62
7
  6
CONTINUOUS
 10
311.2925301246
 20
242.9597256285
  0
VERTEX
  8
0
 62
7
  6
CONTINUOUS
 10
311.273128546
 20
242.9599134972
  0
SEQEND
  0
POLYLINE
  8
SURFACE
 62
7
  6
CONTINUOUS
 66
1
 70
0
  0
VERTEX
  8
SURFACE
 62
7
  6
CONTINUOUS
 10
318.2633622627
 20
261.24357023
  0
VERTEX
  8
SURFACE
 62
7
  6
CONTINUOUS
 10
318.1545442585
 20
261.2376323216
  0
VERTEX
  8
SURFACE
 62
7
  6
CONTINUOUS
 10
318.0551816298
 20
261.2216621698
  0
VERTEX
  8
SURFACE
 62
7
  6
CONTINUOUS
 10
317.9612629551
 20
261.1968501515
  0
VERTEX
  8
SURFACE
 62
7
  6
CONTINUOUS
 10
317.8731989799
 20
261.1643221758
  0
VERTEX
  8
SURFACE
 62
7
  6
CONTINUOUS
 10
317.7912416359
 20
261.1251143116
  0
VERTEX
  8
SURFACE
 62
7
  6
CONTINUOUS
 10
317.7155157858
 20
261.0801644577
  0
VERTEX
  8
SURFACE
 62
7
  6
CONTINUOUS
 10
317.6460480536
 20
261.0303092694
  0
VERTEX
  8
SURFACE
 62
7
  6
CONTINUOUS
 10
317.5828063954
 20
260.976298232
  0
VERTEX
  8
SURFACE
 62
7
  6
CONTINUOUS
 10
317.5258212891
 20
260.918917419
  0
VERTEX
  8
SURFACE
 62
7
  6
CONTINUOUS
 10
317.4750995713
 20
260.8589721093
  0
VERTEX
  8
SURFACE
 62
7
  6
CONTINUOUS
 10
317.4520641505
 20
260.8282777891
  0
VERTEX
  8
SURFACE
 62
7
  6
CONTINUOUS
 10
317.4105526363
 20
260.7658989747
  0
VERTEX
  8
SURFACE
 62
7
  6
CONTINUOUS
 10
317.3749514622
 20
260.7027753272
  0
VERTEX
  8
SURFACE
 62
7
  6
CONTINUOUS
 10
317.3450438619
 20
260.6396481706
  0
VERTEX
  8
SURFACE
 62
7
  6
CONTINUOUS
 10
317.3205941379
 20
260.5773941772
  0
VERTEX
  8
SURFACE
 62
7
  6
CONTINUOUS
 10
317.301262993
 20
260.5169170449
  0
VERTEX
  8
SURFACE
 62
7
  6
CONTINUOUS
 10
317.2869804626
 20
260.4608691034
  0
VERTEX
  8
SURFACE
 62
7
  6
CONTINUOUS
 10
317.2778194307
 20
260.4155852507
  0
VERTEX
  8
SURFACE
 62
7
  6
CONTINUOUS
 10
317.2723666505
 20
260.3828486414
  0
VERTEX
  8
SURFACE
 62
7
  6
CONTINUOUS
 10
317.2681910469
 20
260.3541254927
  0
VERTEX
  8
SURFACE
 62
7
  6
CONTINUOUS
 10
317.2640201213
 20
260.3227079204
  0
VERTEX
  8
SURFACE
 62
7
  6
CONTINUOUS
 10
317.2602855105
 20
260.292946584
  0
SEQEND
  0
POLYLINE
  8
0
 62
7
  6
CONTINUOUS
 66
1
 70
0
  0
VERTEX
  8
0
 62
7
  6
CONTINUOUS
 10
305.363362297
 20
261.243570218
  0
VERTEX
  8
0
 62
7
  6
CONTINUOUS
 10
305.2568591829
 20
261.237882973
  0
VERTEX
  8
0
 62
7
  6
CONTINUOUS
 10
305.1573045469
 20
261.2221115628
  0
VERTEX
  8
0
 62
7
  6
CONTINUOUS
 10
305.0631872538
 20
261.19745777
  0
VERTEX
  8
0
 62
7
  6
CONTINUOUS
 10
304.9749232885
 20
261.1650508565
  0
VERTEX
  8
0
 62
7
  6
CONTINUOUS
 10
304.8927687665
 20
261.1259303835
  0
VERTEX
  8
0
 62
7
  6
CONTINUOUS
 10
304.816851827
 20
261.0810377283
  0
VERTEX
  8
0
 62
7
  6
CONTINUOUS
 10
304.7472016075
 20
261.031212901
  0
VERTEX
  8
0
 62
7
  6
CONTINUOUS
 10
304.683788149
 20
260.9772086941
  0
VERTEX
  8
0
 62
7
  6
CONTINUOUS
 10
304.6266439416
 20
260.9198145359
  0
VERTEX
  8
0
 62
7
  6
CONTINUOUS
 10
304.5757770174
 20
260.859838618
  0
VERTEX
  8
0
 62
7
  6
CONTINUOUS
 10
304.5526744584
 20
260.8291234061
  0
VERTEX
  8
0
 62
7
  6
CONTINUOUS
 10
304.511039903
 20
260.7666933553
  0
VERTEX
  8
0
 62
7
  6
CONTINUOUS
 10
304.4753307975
 20
260.7035079968
  0
VERTEX
  8
0
 62
7
  6
CONTINUOUS
 10
304.4453308408
 20
260.6403121804
  0
VERTEX
  8
0
 62
7
  6
CONTINUOUS
 10
304.4208043149
 20
260.5779860272
  0
VERTEX
  8
0
 62
7
  6
CONTINUOUS
 10
304.401412088
 20
260.5174391152
  0
VERTEX
  8
0
 62
7
  6
CONTINUOUS
 10
304.3870840712
 20
260.4613290148
  0
VERTEX
  8
0
 62
7
  6
CONTINUOUS
 10
304.3778818494
 20
260.4159308151
  0
VERTEX
  8
0
 62
7
  6
CONTINUOUS
 10
304.372399065
 20
260.3830591589
  0
VERTEX
  8
0
 62
7
  6
CONTINUOUS
 10
304.3682076748
 20
260.3542458349
  0
VERTEX
  8
0
 62
7
  6
CONTINUOUS
 10
304.3640278984
 20
260.3227685039
  0
VERTEX
  8
0
 62
7
  6
CONTINUOUS
 10
304.3602855002
 20
260.2929464982
  0
SEQEND
  0
POLYLINE
  8
SURFACE
 62
7
  6
CONTINUOUS
 66
1
 70
0
  0
VERTEX
  8
SURFACE
 62
7
  6
CONTINUOUS
 10
318.2592836672
 20
253.6701295178
  0
VERTEX
  8
SURFACE
 62
7
  6
CONTINUOUS
 10
318.1688958481
 20
253.6660398363
  0
VERTEX
  8
SURFACE
 62
7
  6
CONTINUOUS
 10
317.9954390757
 20
253.634728644
  0
VERTEX
  8
SURFACE
 62
7
  6
CONTINUOUS
 10
317.8390647798
 20
253.5776512952
  0
VERTEX
  8
SURFACE
 62
7
  6
CONTINUOUS
 10
317.7024550811
 20
253.5009686421
  0
VERTEX
  8
SURFACE
 62
7
  6
CONTINUOUS
 10
317.5867318655
 20
253.4105778263
  0
VERTEX
  8
SURFACE
 62
7
  6
CONTINUOUS
 10
317.4919132177
 20
253.3120440464
  0
VERTEX
  8
SURFACE
 62
7
  6
CONTINUOUS
 10
317.4172167344
 20
253.2107556381
  0
VERTEX
  8
SURFACE
 62
7
  6
CONTINUOUS
 10
317.3868390996
 20
253.1605169785
  0
VERTEX
  8
SURFACE
 62
7
  6
CONTINUOUS
 10
317.338475934
 20
253.0632360153
  0
VERTEX
  8
SURFACE
 62
7
  6
CONTINUOUS
 10
317.3051324899
 20
252.9754659143
  0
VERTEX
  8
SURFACE
 62
7
  6
CONTINUOUS
 10
317.2834891057
 20
252.9012327815
  0
VERTEX
  8
SURFACE
 62
7
  6
CONTINUOUS
 10
317.2687356636
 20
252.8367266804
  0
VERTEX
  8
SURFACE
 62
7
  6
CONTINUOUS
 10
317.2568560039
 20
252.7728547962
  0
VERTEX
  8
SURFACE
 62
7
  6
CONTINUOUS
 10
317.2453615478
 20
252.6998165618
  0
VERTEX
  8
SURFACE
 62
7
  6
CONTINUOUS
 10
317.2345636945
 20
252.6218667196
  0
SEQEND
  0
LINE
  8
SURFACE
 62
7
  6
CONTINUOUS
 10
324.1674183007
 20
253.6701299748
 11
318.2592209214
 21
253.6701299748
  0
LINE
  8
SURFACE
 62
7
  6
CONTINUOUS
 10
324.163338156
 20
261.2435706967
 11
318.2633012066
 21
261.2435706967
  0
LINE
  8
0
 62
7
  6
CONTINUOUS
 10
305.3633011882
 20
261.2435706967
 11
311.2633381376
 21
261.2435706967
  0
ARC
  8
0
 62
7
  6
CONTINUOUS
 10
63.8342210486
 20
105.4591644311
 40
13.0
 50
130.0
 51
178.7090544617
  0
ARC
  8
SURFACE
 62
7
  6
CONTINUOUS
 10
72.769077341
 20
96.5243081388
 40
13.0
 50
271.2909455383
 51
320.0
  0
ARC
  8
0
 62
7
  6
CONTINUOUS
 10
61.3034836066
 20
93.8172008267
 40
12.75
 50
60.0
 51
110.0
  0
ARC
  8
SURFACE
 62
7
  6
CONTINUOUS
 10
61.1271137365
 20
93.9935706967
 40
12.75
 50
340.0
 51
30.0
  0
ARC
  8
0
 62
7
  6
CONTINUOUS
 10
52.3371399542
 20
105.7182518848
 40
1.5
 50
178.7090544617
 51
290.0
  0
ARC
  8
SURFACE
 62
7
  6
CONTINUOUS
 10
73.0281647946
 20
85.0272270444
 40
1.5
 50
160.0
 51
271.2909455383
  0
ARC
  8
SURFACE
 62
7
  6
CONTINUOUS
 10
47.151088559
 20
134.3551975326
 40
13.0
 50
241.2909455383
 51
290.0
  0
ARC
  8
0
 62
7
  6
CONTINUOUS
 10
35.8680394595
 20
137.7435706967
 40
12.75
 50
30.0
 51
80.0
  0
ARC
  8
SURFACE
 62
7
  6
CONTINUOUS
 10
35.8034836066
 20
137.9844964197
 40
12.75
 50
310.0
 51
360.0
  0
ARC
  8
SURFACE
 62
7
  6
CONTINUOUS
 10
41.6269243285
 20
124.2688895086
 40
1.5
 50
130.0
 51
241.2909455383
  0
ARC
  8
0
 62
7
  6
CONTINUOUS
 10
43.8807041769
 20
146.5604382071
 40
13.0
 50
100.0
 51
148.7090544617
  0
ARC
  8
0
 62
7
  6
CONTINUOUS
 10
47.0534836066
 20
161.8435706967
 40
1.5
 50
280.0
 51
360.0
  0
ARC
  8
0
 62
7
  6
CONTINUOUS
 10
34.0534836066
 20
152.533355071
 40
1.5
 50
148.7090544617
 51
260.0
  0
ARC
  8
0
 62
7
  6
CONTINUOUS
 10
58.9403623906
 20
120.2811351314
 40
1.5
 50
310.0
 51
30.0
  0
ARC
  8
SURFACE
 62
7
  6
CONTINUOUS
 10
57.5403623906
 20
122.706006262
 40
1.5
 50
30.0
 51
110.0
  0
ARC
  8
0
 62
7
  6
CONTINUOUS
 10
68.7834362824
 20
156.8485243145
 40
3.2
 50
45.0
 51
87.7455692247
  0
ARC
  8
0
 62
7
  6
CONTINUOUS
 10
101.6651104424
 20
79.8411756492
 40
13.0
 50
160.0
 51
208.7090544617
  0
ARC
  8
0
 62
7
  6
CONTINUOUS
 10
105.2944093295
 20
68.4935706967
 40
12.75
 50
90.0
 51
140.0
  0
ARC
  8
SURFACE
 62
7
  6
CONTINUOUS
 10
105.0534836066
 20
68.5581265496
 40
12.75
 50
10.0
 51
60.0
  0
ARC
  8
0
 62
7
  6
CONTINUOUS
 10
91.5788024185
 20
74.3170114186
 40
1.5
 50
208.7090544617
 51
320.0
  0
ARC
  8
0
 62
7
  6
CONTINUOUS
 10
90.0159191719
 20
90.2304494807
 40
1.5
 50
340.0
 51
60.0
  0
ARC
  8
SURFACE
 62
7
  6
CONTINUOUS
 10
87.5910480413
 20
91.6304494807
 40
1.5
 50
60.0
 51
140.0
  0
ARC
  8
SURFACE
 62
7
  6
CONTINUOUS
 10
113.8703511169
 20
76.570791267
 40
13.0
 50
301.2909455383
 51
350.0
  0
ARC
  8
SURFACE
 62
7
  6
CONTINUOUS
 10
119.8432679808
 20
66.7435706967
 40
1.5
 50
190.0
 51
301.2909455383
  0
ARC
  8
SURFACE
 62
7
  6
CONTINUOUS
 10
129.1534836066
 20
79.7435706967
 40
1.5
 50
90.0
 51
170.0
  0
ARC
  8
0
 62
7
  6
CONTINUOUS
 10
124.1584372243
 20
101.4735233726
 40
3.2
 50
2.2544307753
 51
45.0
  0
ARC
  8
0
 62
7
  6
CONTINUOUS
 10
110.7941190599
 20
116.3934764556
 40
2.1
 50
45.0
 51
111.1237922694
  0
ARC
  8
0
 62
7
  6
CONTINUOUS
 10
109.2805054651
 20
120.3112531064
 40
2.1
 50
225.0
 51
291.1237922694
  0
ARC
  8
0
 62
7
  6
CONTINUOUS
 10
87.6211660163
 20
141.9705925553
 40
2.1
 50
158.8762077306
 51
225.0
  0
ARC
  8
0
 62
7
  6
CONTINUOUS
 10
83.7033893655
 20
143.48420615
 40
2.1
 50
338.8762077305
 51
45.0
  0
ARC
  8
SURFACE
 62
7
  6
CONTINUOUS
 10
43.8807041769
 20
179.9267031864
 40
13.0
 50
211.2909455383
 51
260.0
  0
ARC
  8
SURFACE
 62
7
  6
CONTINUOUS
 10
34.0534836066
 20
173.9537863225
 40
1.5
 50
100.0
 51
211.2909455383
  0
ARC
  8
SURFACE
 62
7
  6
CONTINUOUS
 10
47.0534836066
 20
164.6435706967
 40
1.5
 50
0.0
 51
80.0
  0
ARC
  8
0
 62
7
  6
CONTINUOUS
 10
47.151088559
 20
192.1319438608
 40
13.0
 50
70.0
 51
118.7090544617
  0
ARC
  8
0
 62
7
  6
CONTINUOUS
 10
35.8034836066
 20
188.5026449738
 40
12.75
 50
0.0
 51
50.0
  0
ARC
  8
SURFACE
 62
7
  6
CONTINUOUS
 10
35.8680394595
 20
188.7435706967
 40
12.75
 50
280.0
 51
330.0
  0
ARC
  8
0
 62
7
  6
CONTINUOUS
 10
41.6269243285
 20
202.2182518848
 40
1.5
 50
118.7090544617
 51
230.0
  0
ARC
  8
0
 62
7
  6
CONTINUOUS
 10
75.399154674
 20
163.2435706967
 40
16.0
 50
135.0
 51
225.0
  0
ARC
  8
0
 62
7
  6
CONTINUOUS
 10
69.0351936433
 20
163.2435706967
 40
3.2
 50
92.2544307754
 51
267.7455692246
  0
ARC
  8
0
 62
7
  6
CONTINUOUS
 10
68.7834362824
 20
169.638617079
 40
3.2
 50
272.2544307753
 51
315.0
  0
ARC
  8
0
 62
7
  6
CONTINUOUS
 10
57.5403623906
 20
203.7811351314
 40
1.5
 50
250.0
 51
330.0
  0
ARC
  8
SURFACE
 62
7
  6
CONTINUOUS
 10
58.9403623906
 20
206.206006262
 40
1.5
 50
330.0
 51
50.0
  0
ARC
  8
0
 62
7
  6
CONTINUOUS
 10
72.769077341
 20
229.9628332546
 40
13.0
 50
40.0
 51
88.7090544617
  0
ARC
  8
SURFACE
 62
7
  6
CONTINUOUS
 10
63.8342210486
 20
221.0279769623
 40
13.0
 50
181.2909455383
 51
230.0
  0
ARC
  8
0
 62
7
  6
CONTINUOUS
 10
61.1271137365
 20
232.4935706967
 40
12.75
 50
330.0
 51
20.0
  0
ARC
  8
SURFACE
 62
7
  6
CONTINUOUS
 10
61.3034836066
 20
232.6699405668
 40
12.75
 50
250.0
 51
300.0
  0
ARC
  8
0
 62
7
  6
CONTINUOUS
 10
73.0281647946
 20
241.459914349
 40
1.5
 50
88.7090544617
 51
200.0
  0
ARC
  8
SURFACE
 62
7
  6
CONTINUOUS
 10
52.3371399542
 20
220.7688895086
 40
1.5
 50
70.0
 51
181.2909455383
  0
ARC
  8
0
 62
7
  6
CONTINUOUS
 10
83.7033893655
 20
183.0029352434
 40
2.1
 50
315.0
 51
21.1237922694
  0
ARC
  8
0
 62
7
  6
CONTINUOUS
 10
87.6211660163
 20
184.5165488382
 40
2.1
 50
135.0
 51
201.1237922694
  0
ARC
  8
0
 62
7
  6
CONTINUOUS
 10
109.2805054651
 20
206.175888287
 40
2.1
 50
68.8762077306
 51
135.0
  0
ARC
  8
0
 62
7
  6
CONTINUOUS
 10
110.7941190599
 20
210.0936649378
 40
2.1
 50
248.8762077306
 51
315.0
  0
ARC
  8
0
 62
7
  6
CONTINUOUS
 10
87.5910480413
 20
234.8566919127
 40
1.5
 50
220.0
 51
300.0
  0
ARC
  8
SURFACE
 62
7
  6
CONTINUOUS
 10
90.0159191719
 20
236.2566919127
 40
1.5
 50
300.0
 51
20.0
  0
ARC
  8
SURFACE
 62
7
  6
CONTINUOUS
 10
101.6651104424
 20
246.6459657443
 40
13.0
 50
151.2909455383
 51
200.0
  0
ARC
  8
0
 62
7
  6
CONTINUOUS
 10
105.0534836066
 20
257.9290148438
 40
12.75
 50
300.0
 51
350.0
  0
ARC
  8
SURFACE
 62
7
  6
CONTINUOUS
 10
105.2944093295
 20
257.9935706967
 40
12.75
 50
220.0
 51
270.0
  0
ARC
  8
SURFACE
 62
7
  6
CONTINUOUS
 10
91.5788024185
 20
252.1701299748
 40
1.5
 50
40.0
 51
151.2909455383
  0
ARC
  8
0
 62
7
  6
CONTINUOUS
 10
124.1584372243
 20
225.0136180208
 40
3.2
 50
315.0
 51
357.7455692247
  0
ARC
  8
0
 62
7
  6
CONTINUOUS
 10
113.8703511169
 20
249.9163501264
 40
13.0
 50
10.0
 51
58.7090544617
  0
ARC
  8
0
 62
7
  6
CONTINUOUS
 10
129.1534836066
 20
246.7435706967
 40
1.5
 50
190.0
 51
270.0
  0
ARC
  8
0
 62
7
  6
CONTINUOUS
 10
119.8432679808
 20
259.7435706967
 40
1.5
 50
58.7090544617
 51
170.0
  0
ARC
  8
0
 62
7
  6
CONTINUOUS
 10
147.2366160962
 20
76.570791267
 40
13.0
 50
190.0
 51
238.7090544617
  0
ARC
  8
0
 62
7
  6
CONTINUOUS
 10
131.9534836066
 20
79.7435706967
 40
1.5
 50
10.0
 51
90.0
  0
ARC
  8
0
 62
7
  6
CONTINUOUS
 10
141.2636992323
 20
66.7435706967
 40
1.5
 50
238.7090544617
 51
350.0
  0
ARC
  8
0
 62
7
  6
CONTINUOUS
 10
130.5534836066
 20
108.0892417642
 40
16.0
 50
225.0
 51
315.0
  0
ARC
  8
0
 62
7
  6
CONTINUOUS
 10
136.9485299888
 20
101.4735233726
 40
3.2
 50
135.0
 51
177.7455692247
  0
ARC
  8
0
 62
7
  6
CONTINUOUS
 10
130.5534836066
 20
101.7252807335
 40
3.2
 50
182.2544307754
 51
357.7455692246
  0
ARC
  8
SURFACE
 62
7
  6
CONTINUOUS
 10
159.4418567707
 20
79.8411756492
 40
13.0
 50
331.2909455383
 51
20.0
  0
ARC
  8
0
 62
7
  6
CONTINUOUS
 10
156.0534836066
 20
68.5581265496
 40
12.75
 50
120.0
 51
170.0
  0
ARC
  8
SURFACE
 62
7
  6
CONTINUOUS
 10
155.8125578836
 20
68.4935706967
 40
12.75
 50
40.0
 51
90.0
  0
ARC
  8
SURFACE
 62
7
  6
CONTINUOUS
 10
169.5281647946
 20
74.3170114186
 40
1.5
 50
220.0
 51
331.2909455383
  0
ARC
  8
0
 62
7
  6
CONTINUOUS
 10
173.5159191719
 20
91.6304494807
 40
1.5
 50
40.0
 51
120.0
  0
ARC
  8
SURFACE
 62
7
  6
CONTINUOUS
 10
171.0910480413
 20
90.2304494807
 40
1.5
 50
120.0
 51
200.0
  0
ARC
  8
0
 62
7
  6
CONTINUOUS
 10
177.4035778476
 20
143.48420615
 40
2.1
 50
135.0
 51
201.1237922694
  0
ARC
  8
0
 62
7
  6
CONTINUOUS
 10
173.4858011968
 20
141.9705925553
 40
2.1
 50
315.0
 51
21.1237922694
  0
ARC
  8
0
 62
7
  6
CONTINUOUS
 10
151.826461748
 20
120.3112531064
 40
2.1
 50
248.8762077306
 51
315.0
  0
ARC
  8
0
 62
7
  6
CONTINUOUS
 10
150.3128481532
 20
116.3934764556
 40
2.1
 50
68.8762077306
 51
135.0
  0
ARC
  8
0
 62
7
  6
CONTINUOUS
 10
188.3378898721
 20
96.5243081388
 40
13.0
 50
220.0
 51
268.7090544617
  0
ARC
  8
SURFACE
 62
7
  6
CONTINUOUS
 10
197.2727461645
 20
105.4591644311
 40
13.0
 50
1.2909455383
 51
50.0
  0
ARC
  8
0
 62
7
  6
CONTINUOUS
 10
199.9798534766
 20
93.9935706967
 40
12.75
 50
150.0
 51
200.0
  0
ARC
  8
SURFACE
 62
7
  6
CONTINUOUS
 10
199.8034836066
 20
93.8172008267
 40
12.75
 50
70.0
 51
120.0
  0
ARC
  8
0
 62
7
  6
CONTINUOUS
 10
188.0788024185
 20
85.0272270444
 40
1.5
 50
268.7090544617
 51
20.0
  0
ARC
  8
SURFACE
 62
7
  6
CONTINUOUS
 10
208.7698272589
 20
105.7182518848
 40
1.5
 50
250.0
 51
1.2909455383
  0
ARC
  8
0
 62
7
  6
CONTINUOUS
 10
203.5666048226
 20
122.706006262
 40
1.5
 50
70.0
 51
150.0
  0
ARC
  8
SURFACE
 62
7
  6
CONTINUOUS
 10
202.1666048226
 20
120.2811351314
 40
1.5
 50
150.0
 51
230.0
  0
ARC
  8
0
 62
7
  6
CONTINUOUS
 10
192.3235309307
 20
156.8485243145
 40
3.2
 50
92.2544307753
 51
135.0
  0
ARC
  8
0
 62
7
  6
CONTINUOUS
 10
213.9558786541
 20
134.3551975326
 40
13.0
 50
250.0
 51
298.7090544617
  0
ARC
  8
0
 62
7
  6
CONTINUOUS
 10
225.3034836066
 20
137.9844964197
 40
12.75
 50
180.0
 51
230.0
  0
ARC
  8
SURFACE
 62
7
  6
CONTINUOUS
 10
225.2389277537
 20
137.7435706967
 40
12.75
 50
100.0
 51
150.0
  0
ARC
  8
0
 62
7
  6
CONTINUOUS
 10
219.4800428846
 20
124.2688895086
 40
1.5
 50
298.7090544617
 51
50.0
  0
ARC
  8
SURFACE
 62
7
  6
CONTINUOUS
 10
217.2262630363
 20
146.5604382071
 40
13.0
 50
31.2909455383
 51
80.0
  0
ARC
  8
SURFACE
 62
7
  6
CONTINUOUS
 10
227.0534836066
 20
152.533355071
 40
1.5
 50
280.0
 51
31.2909455383
  0
ARC
  8
SURFACE
 62
7
  6
CONTINUOUS
 10
214.0534836066
 20
161.8435706967
 40
1.5
 50
180.0
 51
260.0
  0
ARC
  8
0
 62
7
  6
CONTINUOUS
 10
150.3128481532
 20
210.0936649378
 40
2.1
 50
225.0
 51
291.1237922694
  0
ARC
  8
0
 62
7
  6
CONTINUOUS
 10
151.826461748
 20
206.175888287
 40
2.1
 50
45.0
 51
111.1237922694
  0
ARC
  8
0
 62
7
  6
CONTINUOUS
 10
173.4858011968
 20
184.5165488382
 40
2.1
 50
338.8762077306
 51
45.0
  0
ARC
  8
0
 62
7
  6
CONTINUOUS
 10
177.4035778476
 20
183.0029352434
 40
2.1
 50
158.8762077306
 51
225.0
  0
ARC
  8
0
 62
7
  6
CONTINUOUS
 10
130.5534836066
 20
218.3978996293
 40
16.0
 50
45.0
 51
135.0
  0
ARC
  8
0
 62
7
  6
CONTINUOUS
 10
130.5534836066
 20
224.76186066
 40
3.2
 50
2.2544307753
 51
177.7455692246
  0
ARC
  8
0
 62
7
  6
CONTINUOUS
 10
136.9485299888
 20
225.0136180208
 40
3.2
 50
182.2544307754
 51
225.0
  0
ARC
  8
SURFACE
 62
7
  6
CONTINUOUS
 10
147.2366160962
 20
249.9163501264
 40
13.0
 50
121.2909455383
 51
170.0
  0
ARC
  8
SURFACE
 62
7
  6
CONTINUOUS
 10
141.2636992323
 20
259.7435706967
 40
1.5
 50
10.0
 51
121.2909455383
  0
ARC
  8
SURFACE
 62
7
  6
CONTINUOUS
 10
131.9534836066
 20
246.7435706967
 40
1.5
 50
270.0
 51
350.0
  0
ARC
  8
0
 62
7
  6
CONTINUOUS
 10
171.0910480413
 20
236.2566919127
 40
1.5
 50
160.0
 51
240.0
  0
ARC
  8
SURFACE
 62
7
  6
CONTINUOUS
 10
173.5159191719
 20
234.8566919127
 40
1.5
 50
240.0
 51
320.0
  0
ARC
  8
0
 62
7
  6
CONTINUOUS
 10
159.4418567707
 20
246.6459657443
 40
13.0
 50
340.0
 51
28.7090544617
  0
ARC
  8
0
 62
7
  6
CONTINUOUS
 10
155.8125578836
 20
257.9935706967
 40
12.75
 50
270.0
 51
320.0
  0
ARC
  8
SURFACE
 62
7
  6
CONTINUOUS
 10
156.0534836066
 20
257.9290148438
 40
12.75
 50
190.0
 51
240.0
  0
ARC
  8
0
 62
7
  6
CONTINUOUS
 10
169.5281647946
 20
252.1701299748
 40
1.5
 50
28.7090544617
 51
140.0
  0
ARC
  8
0
 62
7
  6
CONTINUOUS
 10
185.7078125391
 20
163.2435706967
 40
16.0
 50
315.0
 51
45.0
  0
ARC
  8
0
 62
7
  6
CONTINUOUS
 10
192.3235309307
 20
169.638617079
 40
3.2
 50
225.0
 51
267.7455692247
  0
ARC
  8
0
 62
7
  6
CONTINUOUS
 10
192.0717735698
 20
163.2435706967
 40
3.2
 50
272.2544307754
 51
87.7455692247
  0
ARC
  8
0
 62
7
  6
CONTINUOUS
 10
202.1666048226
 20
206.206006262
 40
1.5
 50
130.0
 51
210.0
  0
ARC
  8
SURFACE
 62
7
  6
CONTINUOUS
 10
203.5666048226
 20
203.7811351314
 40
1.5
 50
210.0
 51
290.0
  0
ARC
  8
0
 62
7
  6
CONTINUOUS
 10
217.2262630363
 20
179.9267031864
 40
13.0
 50
280.0
 51
328.7090544617
  0
ARC
  8
0
 62
7
  6
CONTINUOUS
 10
214.0534836066
 20
164.6435706967
 40
1.5
 50
100.0
 51
180.0
  0
ARC
  8
0
 62
7
  6
CONTINUOUS
 10
227.0534836066
 20
173.9537863225
 40
1.5
 50
328.7090544617
 51
80.0
  0
ARC
  8
SURFACE
 62
7
  6
CONTINUOUS
 10
213.9558786541
 20
192.1319438608
 40
13.0
 50
61.2909455383
 51
110.0
  0
ARC
  8
0
 62
7
  6
CONTINUOUS
 10
225.2389277537
 20
188.7435706967
 40
12.75
 50
210.0
 51
260.0
  0
ARC
  8
SURFACE
 62
7
  6
CONTINUOUS
 10
225.3034836066
 20
188.5026449738
 40
12.75
 50
130.0
 51
180.0
  0
ARC
  8
SURFACE
 62
7
  6
CONTINUOUS
 10
219.4800428846
 20
202.2182518848
 40
1.5
 50
310.0
 51
61.2909455383
  0
ARC
  8
0
 62
7
  6
CONTINUOUS
 10
197.2727461645
 20
221.0279769623
 40
13.0
 50
310.0
 51
358.7090544617
  0
ARC
  8
SURFACE
 62
7
  6
CONTINUOUS
 10
188.3378898721
 20
229.9628332546
 40
13.0
 50
91.2909455383
 51
140.0
  0
ARC
  8
0
 62
7
  6
CONTINUOUS
 10
199.8034836066
 20
232.6699405668
 40
12.75
 50
240.0
 51
290.0
  0
ARC
  8
SURFACE
 62
7
  6
CONTINUOUS
 10
199.9798534766
 20
232.4935706967
 40
12.75
 50
160.0
 51
210.0
  0
ARC
  8
0
 62
7
  6
CONTINUOUS
 10
208.7698272589
 20
220.7688895086
 40
1.5
 50
358.7090544617
 51
110.0
  0
ARC
  8
SURFACE
 62
7
  6
CONTINUOUS
 10
188.0788024185
 20
241.459914349
 40
1.5
 50
340.0
 51
91.2909455383
  0
ARC
  8
0
 62
7
  6
CONTINUOUS
 10
292.1633196721
 20
231.8978996293
 40
2.5
 50
90.0
 51
180.0
  0
ARC
  8
0
 62
7
  6
CONTINUOUS
 10
292.1633196721
 20
94.5892417642
 40
2.5
 50
180.0
 51
270.0
  0
ARC
  8
0
 62
7
  6
CONTINUOUS
 10
337.3633196721
 20
231.8978996293
 40
2.5
 50
0.0
 51
90.0
  0
ARC
  8
0
 62
7
  6
CONTINUOUS
 10
337.3633196721
 20
94.5892417642
 40
2.5
 50
270.0
 51
360.0
  0
ENDSEC
  0
EOF
