  0
SECTION
  2
HEADER
  9
$EXTMAX
 10
420.0
 20
297.0
 30
0.0
  9
$EXTMIN
 10
0.0
 20
0.0
 30
0.0
  9
$LIMMIN
 10
0.0
 20
0.0
  9
$LIMMAX
 10
420.0
 20
297.0
  9
$VIEWCTR
 10
210.0
 20
148.5
  9
$VIEWSIZE
 40
297.0
  9
$CLAYER
  8
0
  9
$LTSCALE
 40
23.1
  9
$CELTYPE
  6
BYLAYER
  9
$DIMSCALE
 40
1.0
  9
$DIMASZ
 40
3.5
  9
$DIMEXO
 40
1.0
  9
$DIMDLI
 40
15.96
  9
$DIMEXE
 40
2.0
  9
$DIMCEN
 40
3.78
  9
$DIMLFAC
 40
1.0
  9
$DIMBLK
  1
_FILLED
  9
$DIMTXT
 40
3.5
  9
$AUNITS
 70
0
  9
$PDMODE
 70
3
  9
$PDSIZE
 40
0.3125
  9
$TILEMODE
 70
1
  0
ENDSEC
  0
SECTION
  2
TABLES
  0
TABLE
  2
LTYPE
 70
6
  0
LTYPE
  2
BYBLOCK
 70
0
  3

 72
65
 73
0
 40
0.0
  0
LTYPE
  2
BYLAYER
 70
0
  3

 72
65
 73
0
 40
0.0
  0
LTYPE
  2
CONTINUOUS
 70
64
  3
Solid line
 72
65
 73
0
 40
0.0
  0
LTYPE
  2
CENTER
 70
64
  3
____ _ ____ _ ____ _ ____ _ ____ _ ____ _ ____
 72
65
 73
4
 40
0.6
 49
0.375
 49
-0.075
 49
0.075
 49
-0.075
  0
LTYPE
  2
HIDDEN
 70
64
  3
- - - - - - - - - - - - - - - - - - - -
 72
65
 73
2
 40
0.2
 49
0.1
 49
-0.1
  0
LTYPE
  2
PHANTOM
 70
64
  3
_____ _ _ _____ _ _ _____ _ _ _____
 72
65
 73
6
 40
0.8
 49
0.45
 49
-0.05
 49
0.1
 49
-0.05
 49
0.1
 49
-0.05
  0
LTYPE
  2
DOT
 70
64
  3
. . . . . . . . . . . . . . . . . . . .
 72
65
 73
2
 40
0.2
 49
0.1
 49
-0.1
  0
LTYPE
  2
DASHED
 70
64
  3
- - - - - - - - - - - - - - - - - - - -
 72
65
 73
2
 40
0.2
 49
0.1
 49
-0.1
  0
ENDTAB
  0
TABLE
  2
LAYER
 70
36
  0
LAYER
  2
0
 70
0
 62
7
  6
CONTINUOUS
  0
LAYER
  2
DEFAULT_1
 70
0
 62
7
  6
CENTER
  0
LAYER
  2
DEFAULT_2
 70
0
 62
8
  6
HIDDEN
  0
LAYER
  2
DEFAULT_3
 70
0
 62
7
  6
PHANTOM
  0
LAYER
  2
CSYS
 70
0
 62
7
  6
CONTINUOUS
  0
LAYER
  2
CURVE
 70
0
 62
7
  6
CONTINUOUS
  0
LAYER
  2
PITCH
 70
0
 62
7
  6
CONTINUOUS
  0
LAYER
  2
SURFACE
 70
0
 62
7
  6
CONTINUOUS
  0
ENDTAB
  0
TABLE
  2
STYLE
 70
1
  0
STYLE
  2
STANDARD
 70
0
 40
0.0
 41
0.8
 50
0.0
 71
0
 42
0.2
  3
txt
  4

  0
STYLE
  2
TEXTSTYLE_1
 70
0
 40
0.0
 41
0.8
 50
0.0
 71
0
 42
0.2
  3
gdt
  4

  0
STYLE
  2
TEXTSTYLE_2
 70
0
 40
0.0
 41
0.6
 50
0.0
 71
0
 42
0.2
  3
txt
  4

  0
STYLE
  2
TEXTSTYLE_3
 70
0
 40
0.0
 41
1.0
 50
0.0
 71
0
 42
0.2
  3
ftb_____.ttf
  4

  0
STYLE
  2
TEXTSTYLE_4
 70
0
 40
0.0
 41
1.0
 50
0.0
 71
0
 42
0.2
  3
fti_____.ttf
  4

  0
STYLE
  2
TEXTSTYLE_5
 70
0
 40
0.0
 41
1.0
 50
0.0
 71
0
 42
0.2
  3
frutiger light.ttf
  4

  0
STYLE
  2
TEXTSTYLE_6
 70
0
 40
0.0
 41
0.7
 50
0.0
 71
0
 42
0.2
  3
txt
  4

  0
STYLE
  2
TEXTSTYLE_7
 70
0
 40
0.0
 41
0.5
 50
0.0
 71
0
 42
0.2
  3
txt
  4

  0
ENDTAB
  0
ENDSEC
  0
SECTION
  2
BLOCKS
  0
BLOCK
  8
0
 62
2
  6
CONTINUOUS
  2
UNI_LOGO2_BL1
 70
64
 10
382.7840918555
 20
35.5067593403
  0
TEXT
  8
0
 62
7
  6
CONTINUOUS
 10
373.842376864
 20
30.5995157174
  7
TEXTSTYLE_4
 40
1.0655737705
  1
The brand for plastic modular belts and chains
 41
1.0
 72
0
  0
LINE
  8
0
 62
7
  6
CONTINUOUS
 10
358.7621602445
 20
36.0805298321
 11
358.7621602445
 21
33.9493822911
  0
LINE
  8
0
 62
7
  6
CONTINUOUS
 10
359.0512227376
 20
30.9584509954
 11
359.0512227376
 21
31.0552420547
  0
LINE
  8
0
 62
7
  6
CONTINUOUS
 10
358.7621602445
 20
31.0229783683
 11
358.8199727462
 21
30.8293962497
  0
LINE
  8
0
 62
7
  6
CONTINUOUS
 10
360.1556028675
 20
33.867415078
 11
360.1556028675
 21
36.0805298321
  0
LINE
  8
0
 62
7
  6
CONTINUOUS
 10
361.0746601894
 20
32.0231527829
 11
361.0746601894
 21
30.5067593403
  0
LINE
  8
0
 62
7
  6
CONTINUOUS
 10
361.3637227445
 20
30.5067593403
 11
361.3637227445
 21
31.2488242184
  0
LINE
  8
0
 62
7
  6
CONTINUOUS
 10
361.3637227445
 20
31.3778789641
 11
361.3637227445
 21
32.0231527829
  0
LINE
  8
0
 62
7
  6
CONTINUOUS
 10
358.8199727462
 20
31.216560532
 11
358.7621602445
 21
31.0229783683
  0
LINE
  8
0
 62
7
  6
CONTINUOUS
 10
359.1668477307
 20
30.7971325633
 11
359.0512227376
 21
30.9584509954
  0
LINE
  8
0
 62
7
  6
CONTINUOUS
 10
360.2652852997
 20
31.3133515913
 11
360.3230977445
 21
31.216560532
  0
LINE
  8
0
 62
7
  6
CONTINUOUS
 10
360.6121602997
 20
31.216560532
 11
360.5543476894
 21
31.3456152777
  0
LINE
  8
0
 62
7
  6
CONTINUOUS
 10
362.0408487691
 20
36.0805298321
 11
362.0408487691
 21
34.2772511436
  0
LINE
  8
0
 62
7
  6
CONTINUOUS
 10
362.0408487691
 20
32.9657757338
 11
362.0408487691
 21
32.3100380288
  0
LINE
  8
0
 62
7
  6
CONTINUOUS
 10
362.4043477445
 20
31.1520331591
 11
362.4043477445
 21
30.5067593403
  0
LINE
  8
0
 62
7
  6
CONTINUOUS
 10
362.6934101343
 20
30.5067593403
 11
362.6934101343
 21
31.1520331591
  0
LINE
  8
0
 62
7
  6
CONTINUOUS
 10
359.0512227376
 20
31.0552420547
 11
359.1090352445
 21
31.1842968456
  0
LINE
  8
0
 62
7
  6
CONTINUOUS
 10
358.8199727462
 20
30.8293962497
 11
358.9355977445
 21
30.7003414814
  0
LINE
  8
0
 62
7
  6
CONTINUOUS
 10
362.3465351343
 20
31.2810879048
 11
362.4043477445
 21
31.1520331591
  0
LINE
  8
0
 62
7
  6
CONTINUOUS
 10
363.1559103548
 20
30.7971325633
 11
363.2137226343
 21
30.668077795
  0
LINE
  8
0
 62
7
  6
CONTINUOUS
 10
362.6934101343
 20
31.1520331591
 11
362.6355978548
 21
31.3133515913
  0
LINE
  8
0
 62
7
  6
CONTINUOUS
 10
363.1559103548
 20
31.3456152777
 11
363.1559103548
 21
31.2810879048
  0
LINE
  8
0
 62
7
  6
CONTINUOUS
 10
363.1559103548
 20
30.8939236226
 11
363.1559103548
 21
30.7971325633
  0
LINE
  8
0
 62
7
  6
CONTINUOUS
 10
363.4342913921
 20
32.3100380288
 11
363.4342913921
 21
36.0805298321
  0
LINE
  8
0
 62
7
  6
CONTINUOUS
 10
363.4449727445
 20
30.7648688543
 11
363.4449727445
 21
30.8293962497
  0
LINE
  8
0
 62
7
  6
CONTINUOUS
 10
363.7621602445
 20
36.0805298321
 11
363.7621602445
 21
32.3100380288
  0
LINE
  8
0
 62
7
  6
CONTINUOUS
 10
360.5543476894
 20
30.7003414814
 11
360.6121602997
 21
30.8293962497
  0
LINE
  8
0
 62
7
  6
CONTINUOUS
 10
364.9480979651
 20
30.6035504109
 11
364.890285024
 21
30.7648688543
  0
LINE
  8
0
 62
7
  6
CONTINUOUS
 10
364.6012229651
 20
31.2810879048
 11
364.6012229651
 21
31.1842968456
  0
LINE
  8
0
 62
7
  6
CONTINUOUS
 10
364.6012229651
 20
31.0552420547
 11
364.6012229651
 21
30.8616599362
  0
LINE
  8
0
 62
7
  6
CONTINUOUS
 10
364.890285024
 20
30.7648688543
 11
364.890285024
 21
31.2810879048
  0
LINE
  8
0
 62
7
  6
CONTINUOUS
 10
365.1556028675
 20
32.3100380288
 11
365.1556028675
 21
34.1133167174
  0
LINE
  8
0
 62
7
  6
CONTINUOUS
 10
365.1556028675
 20
35.4247921272
 11
365.1556028675
 21
36.0805298321
  0
LINE
  8
0
 62
7
  6
CONTINUOUS
 10
365.4684104651
 20
32.0231527829
 11
365.4684104651
 21
31.8618343508
  0
LINE
  8
0
 62
7
  6
CONTINUOUS
 10
365.4684104651
 20
31.5391973962
 11
365.4684104651
 21
30.5067593403
  0
LINE
  8
0
 62
7
  6
CONTINUOUS
 10
365.757472524
 20
30.5067593403
 11
365.757472524
 21
31.5391973962
  0
LINE
  8
0
 62
7
  6
CONTINUOUS
 10
365.757472524
 20
31.8618343508
 11
365.757472524
 21
32.0231527829
  0
LINE
  8
0
 62
7
  6
CONTINUOUS
 10
360.3230977445
 20
30.8293962497
 11
360.2652852997
 21
30.7326051679
  0
LINE
  8
0
 62
7
  6
CONTINUOUS
 10
362.6355978548
 20
31.3133515913
 11
362.5777852445
 21
31.3778789641
  0
LINE
  8
0
 62
7
  6
CONTINUOUS
 10
363.5027853548
 20
30.7003414814
 11
363.4449727445
 21
30.7648688543
  0
LINE
  8
0
 62
7
  6
CONTINUOUS
 10
364.6590352445
 20
30.5712867188
 11
364.716847524
 21
30.5067593403
  0
LINE
  8
0
 62
7
  6
CONTINUOUS
 10
364.6012229651
 20
30.668077795
 11
364.6590352445
 21
30.5712867188
  0
LINE
  8
0
 62
7
  6
CONTINUOUS
 10
365.0059102445
 20
30.5067593403
 11
364.9480979651
 21
30.6035504109
  0
LINE
  8
0
 62
7
  6
CONTINUOUS
 10
364.890285024
 20
31.2810879048
 11
364.8324727445
 21
31.3778789641
  0
LINE
  8
0
 62
7
  6
CONTINUOUS
 10
366.2199727445
 20
31.5391973962
 11
366.2199727445
 21
30.5067593403
  0
LINE
  8
0
 62
7
  6
CONTINUOUS
 10
366.5090354651
 20
30.5067593403
 11
366.5090354651
 21
31.2488242184
  0
LINE
  8
0
 62
7
  6
CONTINUOUS
 10
366.5090354651
 20
31.3778789641
 11
366.5090354651
 21
31.5391973962
  0
LINE
  8
0
 62
7
  6
CONTINUOUS
 10
367.0408487691
 20
34.5231527829
 11
367.0408487691
 21
32.3100380288
  0
LINE
  8
0
 62
7
  6
CONTINUOUS
 10
358.9355977445
 20
31.3456152777
 11
358.8199727462
 21
31.216560532
  0
LINE
  8
0
 62
7
  6
CONTINUOUS
 10
359.1090352445
 20
31.1842968456
 11
359.1668477307
 21
31.2488242184
  0
LINE
  8
0
 62
7
  6
CONTINUOUS
 10
358.9355977445
 20
30.7003414814
 11
359.0512227376
 21
30.6358140973
  0
LINE
  8
0
 62
7
  6
CONTINUOUS
 10
359.3402852307
 20
30.7003414814
 11
359.1668477307
 21
30.7971325633
  0
LINE
  8
0
 62
7
  6
CONTINUOUS
 10
364.543410024
 20
31.3456152777
 11
364.6012229651
 21
31.2810879048
  0
LINE
  8
0
 62
7
  6
CONTINUOUS
 10
367.491847524
 20
31.2810879048
 11
367.5496604651
 21
31.1197694727
  0
LINE
  8
0
 62
7
  6
CONTINUOUS
 10
367.838722524
 20
31.1197694727
 11
367.7809102445
 21
31.2810879048
  0
LINE
  8
0
 62
7
  6
CONTINUOUS
 10
367.5496604651
 20
31.1197694727
 11
367.5496604651
 21
30.5067593403
  0
LINE
  8
0
 62
7
  6
CONTINUOUS
 10
367.838722524
 20
30.5067593403
 11
367.838722524
 21
31.1197694727
  0
LINE
  8
0
 62
7
  6
CONTINUOUS
 10
368.3012227445
 20
31.3456152777
 11
368.3012227445
 21
31.2810879048
  0
LINE
  8
0
 62
7
  6
CONTINUOUS
 10
368.4342913921
 20
32.3100380288
 11
368.4342913921
 21
34.4411855698
  0
LINE
  8
0
 62
7
  6
CONTINUOUS
 10
368.7621602445
 20
36.0805298321
 11
368.7621602445
 21
32.3100380288
  0
LINE
  8
0
 62
7
  6
CONTINUOUS
 10
363.4449727445
 20
30.8293962497
 11
363.5027853548
 21
30.926187309
  0
LINE
  8
0
 62
7
  6
CONTINUOUS
 10
359.0512227376
 20
30.6358140973
 11
359.2246602583
 21
30.5712867188
  0
LINE
  8
0
 62
7
  6
CONTINUOUS
 10
360.5543476894
 20
31.3456152777
 11
360.3809101894
 21
31.4424063369
  0
LINE
  8
0
 62
7
  6
CONTINUOUS
 10
363.2137226343
 20
30.668077795
 11
363.3871601343
 21
30.5712867188
  0
LINE
  8
0
 62
7
  6
CONTINUOUS
 10
362.2309102445
 20
31.3456152777
 11
362.3465351343
 21
31.2810879048
  0
LINE
  8
0
 62
7
  6
CONTINUOUS
 10
362.5777852445
 20
31.3778789641
 11
362.4621603548
 21
31.4424063369
  0
LINE
  8
0
 62
7
  6
CONTINUOUS
 10
368.3012227445
 20
30.7648688543
 11
368.4168479651
 21
30.6358140973
  0
LINE
  8
0
 62
7
  6
CONTINUOUS
 10
368.6480977445
 20
30.7003414814
 11
368.5902854651
 21
30.7648688543
  0
LINE
  8
0
 62
7
  6
CONTINUOUS
 10
368.3012227445
 20
31.2810879048
 11
368.4168479651
 21
31.1520331591
  0
LINE
  8
0
 62
7
  6
CONTINUOUS
 10
367.7809102445
 20
31.2810879048
 11
367.7230979651
 21
31.3778789641
  0
LINE
  8
0
 62
7
  6
CONTINUOUS
 10
370.1512223035
 20
30.7003414814
 11
370.1512223035
 21
30.7648688543
  0
LINE
  8
0
 62
7
  6
CONTINUOUS
 10
370.1556028675
 20
32.3100380288
 11
370.1556028675
 21
36.0805298321
  0
LINE
  8
0
 62
7
  6
CONTINUOUS
 10
363.2137226343
 20
31.4101426505
 11
363.1559103548
 21
31.3456152777
  0
LINE
  8
0
 62
7
  6
CONTINUOUS
 10
360.091847717
 20
31.3778789641
 11
360.2652852997
 21
31.3133515913
  0
LINE
  8
0
 62
7
  6
CONTINUOUS
 10
364.8324727445
 20
31.3778789641
 11
364.716847524
 21
31.4424063369
  0
LINE
  8
0
 62
7
  6
CONTINUOUS
 10
368.6480977445
 20
31.216560532
 11
368.5902854651
 21
31.2810879048
  0
LINE
  8
0
 62
7
  6
CONTINUOUS
 10
369.8043479651
 20
30.8293962497
 11
369.8621602445
 21
30.7648688543
  0
LINE
  8
0
 62
7
  6
CONTINUOUS
 10
370.1512223035
 20
30.7648688543
 11
370.0355977445
 21
30.8939236226
  0
LINE
  8
0
 62
7
  6
CONTINUOUS
 10
369.8043479651
 20
31.3456152777
 11
369.8621602445
 21
31.2810879048
  0
LINE
  8
0
 62
7
  6
CONTINUOUS
 10
370.1512223035
 20
31.2810879048
 11
370.0355977445
 21
31.4101426505
  0
LINE
  8
0
 62
7
  6
CONTINUOUS
 10
363.4449727445
 20
31.2810879048
 11
363.5027853548
 21
31.3456152777
  0
LINE
  8
0
 62
7
  6
CONTINUOUS
 10
363.2715352445
 20
31.0229783683
 11
363.1559103548
 21
30.8939236226
  0
LINE
  8
0
 62
7
  6
CONTINUOUS
 10
364.6012229651
 20
30.8616599362
 11
364.543410024
 21
30.7971325633
  0
LINE
  8
0
 62
7
  6
CONTINUOUS
 10
364.543410024
 20
30.6035504109
 11
364.6012229651
 21
30.668077795
  0
LINE
  8
0
 62
7
  6
CONTINUOUS
 10
363.3871601343
 20
30.5712867188
 11
363.5027853548
 21
30.5390230296
  0
LINE
  8
0
 62
7
  6
CONTINUOUS
 10
360.3809101894
 20
31.4424063369
 11
360.1496602445
 21
31.5069337098
  0
LINE
  8
0
 62
7
  6
CONTINUOUS
 10
363.7340351343
 20
30.6358140973
 11
363.5027853548
 21
30.7003414814
  0
LINE
  8
0
 62
7
  6
CONTINUOUS
 10
362.4621603548
 20
31.4424063369
 11
362.2887228548
 21
31.5069337098
  0
LINE
  8
0
 62
7
  6
CONTINUOUS
 10
364.716847524
 20
31.4424063369
 11
364.543410024
 21
31.5069337098
  0
LINE
  8
0
 62
7
  6
CONTINUOUS
 10
367.3762229651
 20
31.3456152777
 11
367.491847524
 21
31.2810879048
  0
LINE
  8
0
 62
7
  6
CONTINUOUS
 10
367.7230979651
 20
31.3778789641
 11
367.6074727445
 21
31.4424063369
  0
LINE
  8
0
 62
7
  6
CONTINUOUS
 10
359.2246602583
 20
30.5712867188
 11
359.3980977583
 21
30.5390230296
  0
LINE
  8
0
 62
7
  6
CONTINUOUS
 10
359.6871602721
 20
30.6358140973
 11
359.3402852307
 21
30.7003414814
  0
LINE
  8
0
 62
7
  6
CONTINUOUS
 10
362.1152853548
 20
31.3778789641
 11
362.2309102445
 21
31.3456152777
  0
LINE
  8
0
 62
7
  6
CONTINUOUS
 10
364.4277854651
 20
31.3778789641
 11
364.543410024
 21
31.3456152777
  0
LINE
  8
0
 62
7
  6
CONTINUOUS
 10
368.7637229651
 20
30.668077795
 11
368.6480977445
 21
30.7003414814
  0
LINE
  8
0
 62
7
  6
CONTINUOUS
 10
367.2605977445
 20
31.3778789641
 11
367.3762229651
 21
31.3456152777
  0
LINE
  8
0
 62
7
  6
CONTINUOUS
 10
368.4168479651
 20
30.6358140973
 11
368.5902854651
 21
30.5712867188
  0
LINE
  8
0
 62
7
  6
CONTINUOUS
 10
367.6074727445
 20
31.4424063369
 11
367.4340352445
 21
31.5069337098
  0
LINE
  8
0
 62
7
  6
CONTINUOUS
 10
368.8215352445
 20
31.1520331591
 11
368.6480977445
 21
31.216560532
  0
LINE
  8
0
 62
7
  6
CONTINUOUS
 10
369.6309104651
 20
30.8939236226
 11
369.8043479651
 21
30.8293962497
  0
LINE
  8
0
 62
7
  6
CONTINUOUS
 10
370.0355977445
 20
31.4101426505
 11
369.8621602445
 21
31.4746700234
  0
LINE
  8
0
 62
7
  6
CONTINUOUS
 10
368.4168479651
 20
31.1520331591
 11
368.6480977445
 21
31.0552420547
  0
LINE
  8
0
 62
7
  6
CONTINUOUS
 10
370.0355977445
 20
30.8939236226
 11
369.8043479651
 21
30.9907146818
  0
LINE
  8
0
 62
7
  6
CONTINUOUS
 10
368.5902854651
 20
31.2810879048
 11
368.6480977445
 21
31.3456152777
  0
LINE
  8
0
 62
7
  6
CONTINUOUS
 10
359.0512227376
 20
31.4101426505
 11
358.9355977445
 21
31.3456152777
  0
LINE
  8
0
 62
7
  6
CONTINUOUS
 10
359.1668477307
 20
31.2488242184
 11
359.3402852307
 21
31.3456152777
  0
LINE
  8
0
 62
7
  6
CONTINUOUS
 10
361.4793477997
 20
31.4424063369
 11
361.3637227445
 21
31.3778789641
  0
LINE
  8
0
 62
7
  6
CONTINUOUS
 10
361.3637227445
 20
31.2488242184
 11
361.4793477997
 21
31.3133515913
  0
LINE
  8
0
 62
7
  6
CONTINUOUS
 10
360.3809101894
 20
30.6035504109
 11
360.5543476894
 21
30.7003414814
  0
LINE
  8
0
 62
7
  6
CONTINUOUS
 10
359.3980977583
 20
30.5390230296
 11
359.744972717
 21
30.5067593403
  0
LINE
  8
0
 62
7
  6
CONTINUOUS
 10
363.5027853548
 20
30.5390230296
 11
363.7340351343
 21
30.5067593403
  0
LINE
  8
0
 62
7
  6
CONTINUOUS
 10
361.8840352445
 20
31.4101426505
 11
362.1152853548
 21
31.3778789641
  0
LINE
  8
0
 62
7
  6
CONTINUOUS
 10
364.1965353548
 20
31.4101426505
 11
364.4277854651
 21
31.3778789641
  0
LINE
  8
0
 62
7
  6
CONTINUOUS
 10
368.6480977445
 20
31.0552420547
 11
369.6309104651
 21
30.8939236226
  0
LINE
  8
0
 62
7
  6
CONTINUOUS
 10
369.8043479651
 20
30.9907146818
 11
368.8215352445
 21
31.1520331591
  0
LINE
  8
0
 62
7
  6
CONTINUOUS
 10
362.2887228548
 20
31.5069337098
 11
362.1152853548
 21
31.5391973962
  0
LINE
  8
0
 62
7
  6
CONTINUOUS
 10
368.5902854651
 20
30.5712867188
 11
368.7637229651
 21
30.5390230296
  0
LINE
  8
0
 62
7
  6
CONTINUOUS
 10
367.4340352445
 20
31.5069337098
 11
367.2605977445
 21
31.5391973962
  0
LINE
  8
0
 62
7
  6
CONTINUOUS
 10
369.6887227445
 20
31.3778789641
 11
369.8043479651
 21
31.3456152777
  0
LINE
  8
0
 62
7
  6
CONTINUOUS
 10
369.8621602445
 20
30.7648688543
 11
369.8043479651
 21
30.7003414814
  0
LINE
  8
0
 62
7
  6
CONTINUOUS
 10
368.4168479651
 20
31.4424063369
 11
368.3012227445
 21
31.3456152777
  0
LINE
  8
0
 62
7
  6
CONTINUOUS
 10
363.3293478548
 20
31.4746700234
 11
363.2137226343
 21
31.4101426505
  0
LINE
  8
0
 62
7
  6
CONTINUOUS
 10
363.3871601343
 20
31.0875057863
 11
363.2715352445
 21
31.0229783683
  0
LINE
  8
0
 62
7
  6
CONTINUOUS
 10
363.5027853548
 20
30.926187309
 11
363.6184102445
 21
30.9907146818
  0
LINE
  8
0
 62
7
  6
CONTINUOUS
 10
361.0746601894
 20
30.5067593403
 11
361.3637227445
 21
30.5067593403
  0
LINE
  8
0
 62
7
  6
CONTINUOUS
 10
362.4043477445
 20
30.5067593403
 11
362.6934101343
 21
30.5067593403
  0
LINE
  8
0
 62
7
  6
CONTINUOUS
 10
363.7340351343
 20
30.5067593403
 11
364.0809101343
 21
30.5067593403
  0
LINE
  8
0
 62
7
  6
CONTINUOUS
 10
364.716847524
 20
30.5067593403
 11
365.0059102445
 21
30.5067593403
  0
LINE
  8
0
 62
7
  6
CONTINUOUS
 10
365.4684104651
 20
30.5067593403
 11
365.757472524
 21
30.5067593403
  0
LINE
  8
0
 62
7
  6
CONTINUOUS
 10
366.2199727445
 20
30.5067593403
 11
366.5090354651
 21
30.5067593403
  0
LINE
  8
0
 62
7
  6
CONTINUOUS
 10
367.5496604651
 20
30.5067593403
 11
367.838722524
 21
30.5067593403
  0
LINE
  8
0
 62
7
  6
CONTINUOUS
 10
369.1105979651
 20
30.5067593403
 11
369.4574729651
 21
30.5067593403
  0
LINE
  8
0
 62
7
  6
CONTINUOUS
 10
369.4574729651
 20
30.6358140973
 11
369.1105979651
 21
30.6358140973
  0
LINE
  8
0
 62
7
  6
CONTINUOUS
 10
364.0809101343
 20
30.6358140973
 11
363.7340351343
 21
30.6358140973
  0
LINE
  8
0
 62
7
  6
CONTINUOUS
 10
368.5902854651
 20
30.7648688543
 11
368.3012227445
 21
30.7648688543
  0
LINE
  8
0
 62
7
  6
CONTINUOUS
 10
360.6121602997
 20
30.8293962497
 11
360.3230977445
 21
30.8293962497
  0
LINE
  8
0
 62
7
  6
CONTINUOUS
 10
359.6871602721
 20
31.4101426505
 11
360.091847717
 21
31.3778789641
  0
LINE
  8
0
 62
7
  6
CONTINUOUS
 10
360.1496602445
 20
31.5069337098
 11
359.744972717
 21
31.5391973962
  0
LINE
  8
0
 62
7
  6
CONTINUOUS
 10
368.7637229651
 20
30.5390230296
 11
369.1105979651
 21
30.5067593403
  0
LINE
  8
0
 62
7
  6
CONTINUOUS
 10
369.1105979651
 20
30.6358140973
 11
368.7637229651
 21
30.668077795
  0
LINE
  8
0
 62
7
  6
CONTINUOUS
 10
364.543410024
 20
31.5069337098
 11
364.1965353548
 21
31.5391973962
  0
LINE
  8
0
 62
7
  6
CONTINUOUS
 10
369.3418477445
 20
31.4101426505
 11
369.6887227445
 21
31.3778789641
  0
LINE
  8
0
 62
7
  6
CONTINUOUS
 10
369.6887227445
 20
31.5069337098
 11
369.3418477445
 21
31.5391973962
  0
LINE
  8
0
 62
7
  6
CONTINUOUS
 10
367.0293479651
 20
31.4101426505
 11
367.2605977445
 21
31.3778789641
  0
LINE
  8
0
 62
7
  6
CONTINUOUS
 10
369.8621602445
 20
31.4746700234
 11
369.6887227445
 21
31.5069337098
  0
LINE
  8
0
 62
7
  6
CONTINUOUS
 10
370.0355977445
 20
30.6035504109
 11
370.1512223035
 21
30.7003414814
  0
LINE
  8
0
 62
7
  6
CONTINUOUS
 10
364.543410024
 20
30.7971325633
 11
364.369972524
 21
30.7003414814
  0
LINE
  8
0
 62
7
  6
CONTINUOUS
 10
366.624660024
 20
31.4424063369
 11
366.5090354651
 21
31.3778789641
  0
LINE
  8
0
 62
7
  6
CONTINUOUS
 10
366.5090354651
 20
31.2488242184
 11
366.624660024
 21
31.3133515913
  0
LINE
  8
0
 62
7
  6
CONTINUOUS
 10
359.2246602583
 20
31.4746700234
 11
359.0512227376
 21
31.4101426505
  0
LINE
  8
0
 62
7
  6
CONTINUOUS
 10
361.6527851343
 20
31.5069337098
 11
361.4793477997
 21
31.4424063369
  0
LINE
  8
0
 62
7
  6
CONTINUOUS
 10
361.4793477997
 20
31.3133515913
 11
361.6527851343
 21
31.3778789641
  0
LINE
  8
0
 62
7
  6
CONTINUOUS
 10
360.2652852997
 20
30.7326051679
 11
360.091847717
 21
30.668077795
  0
LINE
  8
0
 62
7
  6
CONTINUOUS
 10
369.6887227445
 20
30.668077795
 11
369.4574729651
 21
30.6358140973
  0
LINE
  8
0
 62
7
  6
CONTINUOUS
 10
364.0809101343
 20
30.5067593403
 11
364.369972524
 21
30.5390230296
  0
LINE
  8
0
 62
7
  6
CONTINUOUS
 10
369.4574729651
 20
30.5067593403
 11
369.8043479651
 21
30.5390230296
  0
LINE
  8
0
 62
7
  6
CONTINUOUS
 10
359.744972717
 20
30.5067593403
 11
360.1496602445
 21
30.5390230296
  0
LINE
  8
0
 62
7
  6
CONTINUOUS
 10
360.091847717
 20
30.668077795
 11
359.6871602721
 21
30.6358140973
  0
LINE
  8
0
 62
7
  6
CONTINUOUS
 10
363.9652852445
 20
31.0552420547
 11
364.6012229651
 21
31.0552420547
  0
LINE
  8
0
 62
7
  6
CONTINUOUS
 10
364.6012229651
 20
31.1842968456
 11
363.9652852445
 21
31.1842968456
  0
LINE
  8
0
 62
7
  6
CONTINUOUS
 10
360.3230977445
 20
31.216560532
 11
360.6121602997
 21
31.216560532
  0
LINE
  8
0
 62
7
  6
CONTINUOUS
 10
363.1559103548
 20
31.2810879048
 11
363.4449727445
 21
31.2810879048
  0
LINE
  8
0
 62
7
  6
CONTINUOUS
 10
369.8621602445
 20
31.2810879048
 11
370.1512223035
 21
31.2810879048
  0
LINE
  8
0
 62
7
  6
CONTINUOUS
 10
363.8496603548
 20
31.4101426505
 11
364.1965353548
 21
31.4101426505
  0
LINE
  8
0
 62
7
  6
CONTINUOUS
 10
368.9949727445
 20
31.4101426505
 11
369.3418477445
 21
31.4101426505
  0
LINE
  8
0
 62
7
  6
CONTINUOUS
 10
369.3418477445
 20
31.5391973962
 11
368.9949727445
 21
31.5391973962
  0
LINE
  8
0
 62
7
  6
CONTINUOUS
 10
367.2605977445
 20
31.5391973962
 11
367.0293479651
 21
31.5391973962
  0
LINE
  8
0
 62
7
  6
CONTINUOUS
 10
366.5090354651
 20
31.5391973962
 11
366.2199727445
 21
31.5391973962
  0
LINE
  8
0
 62
7
  6
CONTINUOUS
 10
365.757472524
 20
31.5391973962
 11
365.4684104651
 21
31.5391973962
  0
LINE
  8
0
 62
7
  6
CONTINUOUS
 10
364.1965353548
 20
31.5391973962
 11
363.8496603548
 21
31.5391973962
  0
LINE
  8
0
 62
7
  6
CONTINUOUS
 10
362.1152853548
 20
31.5391973962
 11
361.8840352445
 21
31.5391973962
  0
LINE
  8
0
 62
7
  6
CONTINUOUS
 10
365.4684104651
 20
31.8618343508
 11
365.757472524
 21
31.8618343508
  0
LINE
  8
0
 62
7
  6
CONTINUOUS
 10
365.757472524
 20
32.0231527829
 11
365.4684104651
 21
32.0231527829
  0
LINE
  8
0
 62
7
  6
CONTINUOUS
 10
361.3637227445
 20
32.0231527829
 11
361.0746601894
 21
32.0231527829
  0
LINE
  8
0
 62
7
  6
CONTINUOUS
 10
360.4015045068
 20
32.3100380288
 11
360.8140758554
 21
32.3100380288
  0
LINE
  8
0
 62
7
  6
CONTINUOUS
 10
362.0408487691
 20
32.3100380288
 11
363.4342913921
 21
32.3100380288
  0
LINE
  8
0
 62
7
  6
CONTINUOUS
 10
363.7621602445
 20
32.3100380288
 11
365.1556028675
 21
32.3100380288
  0
LINE
  8
0
 62
7
  6
CONTINUOUS
 10
367.0408487691
 20
32.3100380288
 11
368.4342913921
 21
32.3100380288
  0
LINE
  8
0
 62
7
  6
CONTINUOUS
 10
368.7621602445
 20
32.3100380288
 11
370.1556028675
 21
32.3100380288
  0
LINE
  8
0
 62
7
  6
CONTINUOUS
 10
366.798097524
 20
31.5069337098
 11
366.624660024
 21
31.4424063369
  0
LINE
  8
0
 62
7
  6
CONTINUOUS
 10
364.369972524
 20
30.5390230296
 11
364.543410024
 21
30.6035504109
  0
LINE
  8
0
 62
7
  6
CONTINUOUS
 10
369.8043479651
 20
30.5390230296
 11
370.0355977445
 21
30.6035504109
  0
LINE
  8
0
 62
7
  6
CONTINUOUS
 10
369.8043479651
 20
30.7003414814
 11
369.6887227445
 21
30.668077795
  0
LINE
  8
0
 62
7
  6
CONTINUOUS
 10
368.7637229651
 20
31.3778789641
 11
368.9949727445
 21
31.4101426505
  0
LINE
  8
0
 62
7
  6
CONTINUOUS
 10
366.798097524
 20
31.3778789641
 11
367.0293479651
 21
31.4101426505
  0
LINE
  8
0
 62
7
  6
CONTINUOUS
 10
363.7340351343
 20
31.0229783683
 11
363.9652852445
 21
31.0552420547
  0
LINE
  8
0
 62
7
  6
CONTINUOUS
 10
367.0293479651
 20
31.5391973962
 11
366.798097524
 21
31.5069337098
  0
LINE
  8
0
 62
7
  6
CONTINUOUS
 10
363.6184102445
 20
31.3778789641
 11
363.8496603548
 21
31.4101426505
  0
LINE
  8
0
 62
7
  6
CONTINUOUS
 10
368.9949727445
 20
31.5391973962
 11
368.6480977445
 21
31.5069337098
  0
LINE
  8
0
 62
7
  6
CONTINUOUS
 10
363.9652852445
 20
31.1842968456
 11
363.6184102445
 21
31.1520331591
  0
LINE
  8
0
 62
7
  6
CONTINUOUS
 10
359.744972717
 20
31.5391973962
 11
359.3980977583
 21
31.5069337098
  0
LINE
  8
0
 62
7
  6
CONTINUOUS
 10
363.8496603548
 20
31.5391973962
 11
363.4449727445
 21
31.5069337098
  0
LINE
  8
0
 62
7
  6
CONTINUOUS
 10
361.221176638
 20
33.4575790124
 11
360.565438933
 21
33.4575790124
  0
LINE
  8
0
 62
7
  6
CONTINUOUS
 10
366.624660024
 20
31.3133515913
 11
366.798097524
 21
31.3778789641
  0
LINE
  8
0
 62
7
  6
CONTINUOUS
 10
368.6480977445
 20
31.3456152777
 11
368.7637229651
 21
31.3778789641
  0
LINE
  8
0
 62
7
  6
CONTINUOUS
 10
368.6480977445
 20
31.5069337098
 11
368.4168479651
 21
31.4424063369
  0
LINE
  8
0
 62
7
  6
CONTINUOUS
 10
364.369972524
 20
30.7003414814
 11
364.0809101343
 21
30.6358140973
  0
LINE
  8
0
 62
7
  6
CONTINUOUS
 10
361.6527851343
 20
31.3778789641
 11
361.8840352445
 21
31.4101426505
  0
LINE
  8
0
 62
7
  6
CONTINUOUS
 10
361.8840352445
 20
31.5391973962
 11
361.6527851343
 21
31.5069337098
  0
LINE
  8
0
 62
7
  6
CONTINUOUS
 10
359.4559102445
 20
31.3778789641
 11
359.6871602721
 21
31.4101426505
  0
LINE
  8
0
 62
7
  6
CONTINUOUS
 10
365.9752749986
 20
34.9329888485
 11
366.6310127035
 21
34.9329888485
  0
LINE
  8
0
 62
7
  6
CONTINUOUS
 10
363.6184102445
 20
30.9907146818
 11
363.7340351343
 21
31.0229783683
  0
LINE
  8
0
 62
7
  6
CONTINUOUS
 10
363.6184102445
 20
31.1520331591
 11
363.3871601343
 21
31.0875057863
  0
LINE
  8
0
 62
7
  6
CONTINUOUS
 10
363.5027853548
 20
31.3456152777
 11
363.6184102445
 21
31.3778789641
  0
LINE
  8
0
 62
7
  6
CONTINUOUS
 10
360.1496602445
 20
30.5390230296
 11
360.3809101894
 21
30.6035504109
  0
LINE
  8
0
 62
7
  6
CONTINUOUS
 10
363.4449727445
 20
31.5069337098
 11
363.3293478548
 21
31.4746700234
  0
LINE
  8
0
 62
7
  6
CONTINUOUS
 10
359.3980977583
 20
31.5069337098
 11
359.2246602583
 21
31.4746700234
  0
LINE
  8
0
 62
7
  6
CONTINUOUS
 10
370.1556028675
 20
36.0805298321
 11
368.7621602445
 21
36.0805298321
  0
LINE
  8
0
 62
7
  6
CONTINUOUS
 10
366.7949471298
 20
36.0805298321
 11
366.3823757812
 21
36.0805298321
  0
LINE
  8
0
 62
7
  6
CONTINUOUS
 10
365.1556028675
 20
36.0805298321
 11
363.7621602445
 21
36.0805298321
  0
LINE
  8
0
 62
7
  6
CONTINUOUS
 10
363.4342913921
 20
36.0805298321
 11
362.0408487691
 21
36.0805298321
  0
LINE
  8
0
 62
7
  6
CONTINUOUS
 10
360.1556028675
 20
36.0805298321
 11
358.7621602445
 21
36.0805298321
  0
LINE
  8
0
 62
7
  6
CONTINUOUS
 10
359.3402852307
 20
31.3456152777
 11
359.4559102445
 21
31.3778789641
  0
CIRCLE
  8
0
 62
7
  6
CONTINUOUS
 10
369.458881556
 20
38.4165954059
 40
2.0901639344
  0
ARC
  8
0
 62
7
  6
CONTINUOUS
 10
360.4015045068
 20
33.9493822911
 40
1.6393442623
 50
180.0
 51
270.0
  0
ARC
  8
0
 62
7
  6
CONTINUOUS
 10
366.7949471298
 20
34.4411855698
 40
1.6393442623
 50
0.0
 51
90.0
  0
ARC
  8
0
 62
7
  6
CONTINUOUS
 10
360.8140758554
 20
33.7854478649
 40
1.4754098361
 50
270.0
 51
326.2510114041
  0
ARC
  8
0
 62
7
  6
CONTINUOUS
 10
366.3823757812
 20
34.6051199961
 40
1.4754098361
 50
90.0
 51
146.2510114041
  0
ARC
  8
0
 62
7
  6
CONTINUOUS
 10
361.221176638
 20
34.2772511436
 40
0.8196721311
 50
270.0
 51
360.0
  0
ARC
  8
0
 62
7
  6
CONTINUOUS
 10
365.9752749986
 20
34.1133167174
 40
0.8196721311
 50
90.0
 51
180.0
  0
ARC
  8
0
 62
7
  6
CONTINUOUS
 10
360.565438933
 20
33.867415078
 40
0.4098360656
 50
180.0
 51
270.0
  0
ARC
  8
0
 62
7
  6
CONTINUOUS
 10
366.6310127035
 20
34.5231527829
 40
0.4098360656
 50
0.0
 51
90.0
  0
SOLID
  8
0
 62
7
  6
CONTINUOUS
 10
365.4684104651
 20
31.8618347111
 11
365.4684104651
 21
32.0231531947
 12
365.757472524
 22
31.8618347111
 13
365.757472524
 23
32.0231531947
  0
SOLID
  8
0
 62
7
  6
CONTINUOUS
 10
359.744972717
 20
31.5391977439
 11
360.1496602445
 21
31.5069333244
 12
359.3980977583
 22
31.5069333244
 13
359.3980977583
 23
31.5069333244
  0
SOLID
  8
0
 62
7
  6
CONTINUOUS
 10
359.2246602583
 20
31.4746706537
 11
359.3980977583
 21
31.5069333244
 12
360.1496602445
 22
31.5069333244
 13
360.1496602445
 23
31.5069333244
  0
SOLID
  8
0
 62
7
  6
CONTINUOUS
 10
360.1496602445
 20
31.5069333244
 11
360.3809101894
 21
31.4424063504
 12
359.2246602583
 22
31.4746706537
 13
359.2246602583
 23
31.4746706537
  0
SOLID
  8
0
 62
7
  6
CONTINUOUS
 10
359.0512227376
 20
31.4101419116
 11
359.2246602583
 21
31.4746706537
 12
360.3809101894
 22
31.4424063504
 13
360.3809101894
 23
31.4424063504
  0
SOLID
  8
0
 62
7
  6
CONTINUOUS
 10
359.0512227376
 20
31.4101419116
 11
360.3809101894
 21
31.4424063504
 12
359.6871602721
 22
31.4101419116
 13
359.6871602721
 23
31.4101419116
  0
SOLID
  8
0
 62
7
  6
CONTINUOUS
 10
359.6871602721
 20
31.4101419116
 11
360.3809101894
 21
31.4424063504
 12
360.091847717
 22
31.3778792603
 13
360.091847717
 23
31.3778792603
  0
SOLID
  8
0
 62
7
  6
CONTINUOUS
 10
360.3809101894
 20
31.4424063504
 11
360.5543476894
 21
31.345614957
 12
360.091847717
 22
31.3778792603
 13
360.091847717
 23
31.3778792603
  0
SOLID
  8
0
 62
7
  6
CONTINUOUS
 10
360.2652852997
 20
31.3133521701
 11
360.091847717
 21
31.3778792603
 12
360.5543476894
 22
31.345614957
 13
360.5543476894
 23
31.345614957
  0
SOLID
  8
0
 62
7
  6
CONTINUOUS
 10
360.2652852997
 20
31.3133521701
 11
360.5543476894
 21
31.345614957
 12
360.3230977445
 22
31.2165606992
 13
360.3230977445
 23
31.2165606992
  0
SOLID
  8
0
 62
7
  6
CONTINUOUS
 10
360.5543476894
 20
31.345614957
 11
360.6121602997
 21
31.2165606992
 12
360.3230977445
 22
31.2165606992
 13
360.3230977445
 23
31.2165606992
  0
SOLID
  8
0
 62
7
  6
CONTINUOUS
 10
361.6527851343
 20
31.5069329918
 11
361.8840352445
 21
31.5391972951
 12
362.1152853548
 22
31.5391972951
 13
362.1152853548
 23
31.5391972951
  0
SOLID
  8
0
 62
7
  6
CONTINUOUS
 10
362.1152853548
 20
31.5391972951
 11
362.2887228548
 21
31.5069329918
 12
361.6527851343
 22
31.5069329918
 13
361.6527851343
 23
31.5069329918
  0
SOLID
  8
0
 62
7
  6
CONTINUOUS
 10
361.4793477997
 20
31.4424059016
 11
361.6527851343
 21
31.5069329918
 12
362.2887228548
 22
31.5069329918
 13
362.2887228548
 23
31.5069329918
  0
SOLID
  8
0
 62
7
  6
CONTINUOUS
 10
362.2887228548
 20
31.5069329918
 11
362.4621603548
 21
31.4424059016
 12
361.4793477997
 22
31.4424059016
 13
361.4793477997
 23
31.4424059016
  0
SOLID
  8
0
 62
7
  6
CONTINUOUS
 10
362.4621603548
 20
31.4424059016
 11
361.8840352445
 21
31.4101420472
 12
361.4793477997
 22
31.4424059016
 13
361.4793477997
 23
31.4424059016
  0
SOLID
  8
0
 62
7
  6
CONTINUOUS
 10
361.3637227445
 20
31.3778788115
 11
361.4793477997
 21
31.4424059016
 12
361.8840352445
 22
31.4101420472
 13
361.8840352445
 23
31.4101420472
  0
SOLID
  8
0
 62
7
  6
CONTINUOUS
 10
361.8840352445
 20
31.4101420472
 11
361.6527851343
 21
31.3778788115
 12
361.3637227445
 22
31.3778788115
 13
361.3637227445
 23
31.3778788115
  0
SOLID
  8
0
 62
7
  6
CONTINUOUS
 10
361.8840352445
 20
31.4101420472
 11
362.4621603548
 21
31.4424059016
 12
362.1152853548
 22
31.3778788115
 13
362.1152853548
 23
31.3778788115
  0
SOLID
  8
0
 62
7
  6
CONTINUOUS
 10
362.4621603548
 20
31.4424059016
 11
362.5777852445
 21
31.3778788115
 12
362.1152853548
 22
31.3778788115
 13
362.1152853548
 23
31.3778788115
  0
SOLID
  8
0
 62
7
  6
CONTINUOUS
 10
362.2309102445
 20
31.345614957
 11
362.1152853548
 21
31.3778788115
 12
362.5777852445
 22
31.3778788115
 13
362.5777852445
 23
31.3778788115
  0
SOLID
  8
0
 62
7
  6
CONTINUOUS
 10
362.5777852445
 20
31.3778788115
 11
362.6355978548
 21
31.3133517213
 12
362.2309102445
 22
31.345614957
 13
362.2309102445
 23
31.345614957
  0
SOLID
  8
0
 62
7
  6
CONTINUOUS
 10
362.3465351343
 20
31.2810878668
 11
362.2309102445
 21
31.345614957
 12
362.6355978548
 22
31.3133517213
 13
362.6355978548
 23
31.3133517213
  0
SOLID
  8
0
 62
7
  6
CONTINUOUS
 10
362.3465351343
 20
31.2810878668
 11
362.6355978548
 21
31.3133517213
 12
362.4043477445
 22
31.1520332377
 13
362.4043477445
 23
31.1520332377
  0
SOLID
  8
0
 62
7
  6
CONTINUOUS
 10
362.6355978548
 20
31.3133517213
 11
362.6934101343
 21
31.1520332377
 12
362.4043477445
 22
31.1520332377
 13
362.4043477445
 23
31.1520332377
  0
SOLID
  8
0
 62
7
  6
CONTINUOUS
 10
361.6527851343
 20
31.3778788115
 11
361.4793477997
 21
31.3133517213
 12
361.3637227445
 22
31.3778788115
 13
361.3637227445
 23
31.3778788115
  0
SOLID
  8
0
 62
7
  6
CONTINUOUS
 10
361.4793477997
 20
31.3133517213
 11
361.3637227445
 21
31.2488235635
 12
361.3637227445
 22
31.3778788115
 13
361.3637227445
 23
31.3778788115
  0
SOLID
  8
0
 62
7
  6
CONTINUOUS
 10
361.3637227445
 20
31.2488235635
 11
361.0746601894
 21
30.5067593033
 12
361.3637227445
 22
31.3778788115
 13
361.3637227445
 23
31.3778788115
  0
SOLID
  8
0
 62
7
  6
CONTINUOUS
 10
361.3637227445
 20
31.3778788115
 11
361.0746601894
 21
30.5067593033
 12
361.3637227445
 22
32.0231527459
 13
361.3637227445
 23
32.0231527459
  0
SOLID
  8
0
 62
7
  6
CONTINUOUS
 10
361.0746601894
 20
30.5067593033
 11
361.0746601894
 21
32.0231527459
 12
361.3637227445
 22
32.0231527459
 13
361.3637227445
 23
32.0231527459
  0
SOLID
  8
0
 62
7
  6
CONTINUOUS
 10
361.3637227445
 20
31.2488235635
 11
361.3637227445
 21
30.5067593033
 12
361.0746601894
 22
30.5067593033
 13
361.0746601894
 23
30.5067593033
  0
SOLID
  8
0
 62
7
  6
CONTINUOUS
 10
362.4043477445
 20
30.5067593033
 11
362.4043477445
 21
31.1520332377
 12
362.6934101343
 22
31.1520332377
 13
362.6934101343
 23
31.1520332377
  0
SOLID
  8
0
 62
7
  6
CONTINUOUS
 10
362.6934101343
 20
31.1520332377
 11
362.6934101343
 21
30.5067593033
 12
362.4043477445
 22
30.5067593033
 13
362.4043477445
 23
30.5067593033
  0
SOLID
  8
0
 62
7
  6
CONTINUOUS
 10
363.4449727445
 20
31.506933758
 11
363.8496603548
 21
31.5391977507
 12
364.1965353548
 22
31.5391977507
 13
364.1965353548
 23
31.5391977507
  0
SOLID
  8
0
 62
7
  6
CONTINUOUS
 10
364.1965353548
 20
31.5391977507
 11
364.543410024
 21
31.506933758
 12
363.4449727445
 22
31.506933758
 13
363.4449727445
 23
31.506933758
  0
SOLID
  8
0
 62
7
  6
CONTINUOUS
 10
363.3293478548
 20
31.4746706537
 11
363.4449727445
 21
31.506933758
 12
364.543410024
 22
31.506933758
 13
364.543410024
 23
31.506933758
  0
SOLID
  8
0
 62
7
  6
CONTINUOUS
 10
364.543410024
 20
31.506933758
 11
364.716847524
 21
31.4424063504
 12
363.3293478548
 22
31.4746706537
 13
363.3293478548
 23
31.4746706537
  0
SOLID
  8
0
 62
7
  6
CONTINUOUS
 10
363.2137226343
 20
31.4101417797
 11
363.3293478548
 21
31.4746706537
 12
364.716847524
 22
31.4424063504
 13
364.716847524
 23
31.4424063504
  0
SOLID
  8
0
 62
7
  6
CONTINUOUS
 10
363.2137226343
 20
31.4101417797
 11
364.716847524
 21
31.4424063504
 12
363.8496603548
 22
31.4101417797
 13
363.8496603548
 23
31.4101417797
  0
SOLID
  8
0
 62
7
  6
CONTINUOUS
 10
363.8496603548
 20
31.4101417797
 11
364.716847524
 21
31.4424063504
 12
364.1965353548
 22
31.4101417797
 13
364.1965353548
 23
31.4101417797
  0
SOLID
  8
0
 62
7
  6
CONTINUOUS
 10
364.1965353548
 20
31.4101417797
 11
364.716847524
 21
31.4424063504
 12
364.4277854651
 22
31.3778793357
 13
364.4277854651
 23
31.3778793357
  0
SOLID
  8
0
 62
7
  6
CONTINUOUS
 10
364.716847524
 20
31.4424063504
 11
364.8324727445
 21
31.3778793357
 12
364.4277854651
 22
31.3778793357
 13
364.4277854651
 23
31.3778793357
  0
SOLID
  8
0
 62
7
  6
CONTINUOUS
 10
363.1559103548
 20
31.3456153429
 11
363.2137226343
 21
31.4101417797
 12
363.8496603548
 22
31.4101417797
 13
363.8496603548
 23
31.4101417797
  0
SOLID
  8
0
 62
7
  6
CONTINUOUS
 10
364.543410024
 20
31.3456153429
 11
364.4277854651
 21
31.3778793357
 12
364.8324727445
 22
31.3778793357
 13
364.8324727445
 23
31.3778793357
  0
SOLID
  8
0
 62
7
  6
CONTINUOUS
 10
364.543410024
 20
31.3456153429
 11
364.8324727445
 21
31.3778793357
 12
364.6012229651
 22
31.2810881318
 13
364.6012229651
 23
31.2810881318
  0
SOLID
  8
0
 62
7
  6
CONTINUOUS
 10
364.8324727445
 20
31.3778793357
 11
364.890285024
 21
31.2810881318
 12
364.6012229651
 22
31.2810881318
 13
364.6012229651
 23
31.2810881318
  0
SOLID
  8
0
 62
7
  6
CONTINUOUS
 10
364.6012229651
 20
31.1842964734
 11
364.6012229651
 21
31.2810881318
 12
364.890285024
 22
31.2810881318
 13
364.890285024
 23
31.2810881318
  0
SOLID
  8
0
 62
7
  6
CONTINUOUS
 10
364.6012229651
 20
31.1842964734
 11
364.890285024
 21
31.2810881318
 12
364.6012229651
 22
31.0552422931
 13
364.6012229651
 23
31.0552422931
  0
SOLID
  8
0
 62
7
  6
CONTINUOUS
 10
364.6012229651
 20
31.0552422931
 11
364.890285024
 21
31.2810881318
 12
364.6012229651
 22
30.8616599362
 13
364.6012229651
 23
30.8616599362
  0
SOLID
  8
0
 62
7
  6
CONTINUOUS
 10
364.890285024
 20
31.2810881318
 11
364.890285024
 21
30.7648681127
 12
364.6012229651
 22
30.8616599362
 13
364.6012229651
 23
30.8616599362
  0
SOLID
  8
0
 62
7
  6
CONTINUOUS
 10
366.798097524
 20
31.5069339419
 11
367.0293479651
 21
31.5391976292
 12
367.2605977445
 22
31.5391976292
 13
367.2605977445
 23
31.5391976292
  0
SOLID
  8
0
 62
7
  6
CONTINUOUS
 10
367.2605977445
 20
31.5391976292
 11
367.4340352445
 21
31.5069339419
 12
366.798097524
 22
31.5069339419
 13
366.798097524
 23
31.5069339419
  0
SOLID
  8
0
 62
7
  6
CONTINUOUS
 10
366.624660024
 20
31.4424065674
 11
366.798097524
 21
31.5069339419
 12
367.4340352445
 22
31.5069339419
 13
367.4340352445
 23
31.5069339419
  0
SOLID
  8
0
 62
7
  6
CONTINUOUS
 10
367.4340352445
 20
31.5069339419
 11
367.6074727445
 21
31.4424065674
 12
366.624660024
 22
31.4424065674
 13
366.624660024
 23
31.4424065674
  0
SOLID
  8
0
 62
7
  6
CONTINUOUS
 10
367.6074727445
 20
31.4424065674
 11
367.0293479651
 21
31.4101420472
 12
366.624660024
 22
31.4424065674
 13
366.624660024
 23
31.4424065674
  0
SOLID
  8
0
 62
7
  6
CONTINUOUS
 10
366.5090354651
 20
31.377879193
 11
366.624660024
 21
31.4424065674
 12
367.0293479651
 22
31.4101420472
 13
367.0293479651
 23
31.4101420472
  0
SOLID
  8
0
 62
7
  6
CONTINUOUS
 10
367.0293479651
 20
31.4101420472
 11
366.798097524
 21
31.377879193
 12
366.5090354651
 22
31.377879193
 13
366.5090354651
 23
31.377879193
  0
SOLID
  8
0
 62
7
  6
CONTINUOUS
 10
367.0293479651
 20
31.4101420472
 11
367.6074727445
 21
31.4424065674
 12
367.2605977445
 22
31.377879193
 13
367.2605977445
 23
31.377879193
  0
SOLID
  8
0
 62
7
  6
CONTINUOUS
 10
367.6074727445
 20
31.4424065674
 11
367.7230979651
 21
31.377879193
 12
367.2605977445
 22
31.377879193
 13
367.2605977445
 23
31.377879193
  0
SOLID
  8
0
 62
7
  6
CONTINUOUS
 10
367.3762229651
 20
31.345614957
 11
367.2605977445
 21
31.377879193
 12
367.7230979651
 22
31.377879193
 13
367.7230979651
 23
31.377879193
  0
SOLID
  8
0
 62
7
  6
CONTINUOUS
 10
367.3762229651
 20
31.345614957
 11
367.7230979651
 21
31.377879193
 12
367.491847524
 22
31.2810881312
 13
367.491847524
 23
31.2810881312
  0
SOLID
  8
0
 62
7
  6
CONTINUOUS
 10
367.7230979651
 20
31.377879193
 11
367.7809102445
 21
31.2810881312
 12
367.491847524
 22
31.2810881312
 13
367.491847524
 23
31.2810881312
  0
SOLID
  8
0
 62
7
  6
CONTINUOUS
 10
367.5496604651
 20
31.119769695
 11
367.491847524
 21
31.2810881312
 12
367.7809102445
 22
31.2810881312
 13
367.7809102445
 23
31.2810881312
  0
SOLID
  8
0
 62
7
  6
CONTINUOUS
 10
367.7809102445
 20
31.2810881312
 11
367.838722524
 21
31.119769695
 12
367.5496604651
 22
31.119769695
 13
367.5496604651
 23
31.119769695
  0
SOLID
  8
0
 62
7
  6
CONTINUOUS
 10
366.798097524
 20
31.377879193
 11
366.624660024
 21
31.3133521701
 12
366.5090354651
 22
31.377879193
 13
366.5090354651
 23
31.377879193
  0
SOLID
  8
0
 62
7
  6
CONTINUOUS
 10
366.624660024
 20
31.3133521701
 11
366.5090354651
 21
31.2488235635
 12
366.5090354651
 22
31.377879193
 13
366.5090354651
 23
31.377879193
  0
SOLID
  8
0
 62
7
  6
CONTINUOUS
 10
366.5090354651
 20
31.2488235635
 11
366.2199727445
 21
30.5067596374
 12
366.5090354651
 22
31.377879193
 13
366.5090354651
 23
31.377879193
  0
SOLID
  8
0
 62
7
  6
CONTINUOUS
 10
366.5090354651
 20
31.377879193
 11
366.2199727445
 21
30.5067596374
 12
366.5090354651
 22
31.5391976292
 13
366.5090354651
 23
31.5391976292
  0
SOLID
  8
0
 62
7
  6
CONTINUOUS
 10
366.2199727445
 20
30.5067596374
 11
366.2199727445
 21
31.5391976292
 12
366.5090354651
 22
31.5391976292
 13
366.5090354651
 23
31.5391976292
  0
SOLID
  8
0
 62
7
  6
CONTINUOUS
 10
366.5090354651
 20
31.2488235635
 11
366.5090354651
 21
30.5067596374
 12
366.2199727445
 22
30.5067596374
 13
366.2199727445
 23
30.5067596374
  0
SOLID
  8
0
 62
7
  6
CONTINUOUS
 10
367.5496604651
 20
30.5067596374
 11
367.5496604651
 21
31.119769695
 12
367.838722524
 22
31.119769695
 13
367.838722524
 23
31.119769695
  0
SOLID
  8
0
 62
7
  6
CONTINUOUS
 10
367.838722524
 20
31.119769695
 11
367.838722524
 21
30.5067596374
 12
367.5496604651
 22
30.5067596374
 13
367.5496604651
 23
30.5067596374
  0
SOLID
  8
0
 62
7
  6
CONTINUOUS
 10
368.6480977445
 20
31.5069334157
 11
368.9949727445
 21
31.539197762
 12
369.3418477445
 22
31.539197762
 13
369.3418477445
 23
31.539197762
  0
SOLID
  8
0
 62
7
  6
CONTINUOUS
 10
369.3418477445
 20
31.539197762
 11
369.6887227445
 21
31.5069334157
 12
368.6480977445
 22
31.5069334157
 13
368.6480977445
 23
31.5069334157
  0
SOLID
  8
0
 62
7
  6
CONTINUOUS
 10
368.4168479651
 20
31.4424063504
 11
368.6480977445
 21
31.5069334157
 12
369.6887227445
 22
31.5069334157
 13
369.6887227445
 23
31.5069334157
  0
SOLID
  8
0
 62
7
  6
CONTINUOUS
 10
368.4168479651
 20
31.4424063504
 11
369.6887227445
 21
31.5069334406
 12
369.8621602445
 22
31.4746706537
 13
369.8621602445
 23
31.4746706537
  0
SOLID
  8
0
 62
7
  6
CONTINUOUS
 10
368.4168479651
 20
31.4424063504
 11
369.8621602445
 21
31.4746706537
 12
368.9949727445
 22
31.4101421267
 13
368.9949727445
 23
31.4101421267
  0
SOLID
  8
0
 62
7
  6
CONTINUOUS
 10
368.9949727445
 20
31.4101421267
 11
369.8621602445
 21
31.4746706537
 12
369.3418477445
 22
31.4101421267
 13
369.3418477445
 23
31.4101421267
  0
SOLID
  8
0
 62
7
  6
CONTINUOUS
 10
369.8621602445
 20
31.4746706537
 11
370.0355977445
 21
31.4101421267
 12
369.3418477445
 22
31.4101421267
 13
369.3418477445
 23
31.4101421267
  0
SOLID
  8
0
 62
7
  6
CONTINUOUS
 10
369.6887227445
 20
31.3778792603
 11
369.3418477445
 21
31.4101421267
 12
370.0355977445
 22
31.4101421267
 13
370.0355977445
 23
31.4101421267
  0
SOLID
  8
0
 62
7
  6
CONTINUOUS
 10
368.3012227445
 20
31.3456148845
 11
368.4168479651
 21
31.4424063504
 12
368.9949727445
 22
31.4101421267
 13
368.9949727445
 23
31.4101421267
  0
SOLID
  8
0
 62
7
  6
CONTINUOUS
 10
369.6887227445
 20
31.3778792603
 11
370.0355977445
 21
31.4101421267
 12
369.8043479651
 22
31.3456148845
 13
369.8043479651
 23
31.3456148845
  0
SOLID
  8
0
 62
7
  6
CONTINUOUS
 10
369.8043479651
 20
31.3456148845
 11
370.0355977445
 21
31.4101421267
 12
369.8621602445
 22
31.281087868
 13
369.8621602445
 23
31.281087868
  0
SOLID
  8
0
 62
7
  6
CONTINUOUS
 10
370.0355977445
 20
31.4101421267
 11
370.1512223035
 21
31.281087868
 12
369.8621602445
 22
31.281087868
 13
369.8621602445
 23
31.281087868
  0
SOLID
  8
0
 62
7
  6
CONTINUOUS
 10
359.4559102445
 20
31.3778792603
 11
358.9355977445
 21
31.3456148963
 12
359.6871602721
 22
31.4101421155
 13
359.6871602721
 23
31.4101421155
  0
SOLID
  8
0
 62
7
  6
CONTINUOUS
 10
358.9355977445
 20
31.3456148963
 11
359.0512227376
 21
31.4101421155
 12
359.6871602721
 22
31.4101421155
 13
359.6871602721
 23
31.4101421155
  0
SOLID
  8
0
 62
7
  6
CONTINUOUS
 10
359.4559102445
 20
31.3778792603
 11
359.3402852307
 21
31.3456148963
 12
358.9355977445
 22
31.3456148963
 13
358.9355977445
 23
31.3456148963
  0
SOLID
  8
0
 62
7
  6
CONTINUOUS
 10
358.8199727462
 20
31.2165607767
 11
358.9355977445
 21
31.3456148963
 12
359.3402852307
 22
31.3456148963
 13
359.3402852307
 23
31.3456148963
  0
SOLID
  8
0
 62
7
  6
CONTINUOUS
 10
363.1559103548
 20
31.3456149608
 11
363.8496603548
 21
31.4101420472
 12
363.6184102445
 22
31.3778792603
 13
363.6184102445
 23
31.3778792603
  0
SOLID
  8
0
 62
7
  6
CONTINUOUS
 10
363.6184102445
 20
31.3778792603
 11
363.5027853548
 21
31.3456149608
 12
363.1559103548
 22
31.3456149608
 13
363.1559103548
 23
31.3456149608
  0
SOLID
  8
0
 62
7
  6
CONTINUOUS
 10
363.1559103548
 20
31.2810878707
 11
363.1559103548
 21
31.3456149608
 12
363.5027853548
 22
31.3456149608
 13
363.5027853548
 23
31.3456149608
  0
SOLID
  8
0
 62
7
  6
CONTINUOUS
 10
363.5027853548
 20
31.3456149608
 11
363.4449727445
 21
31.2810878707
 12
363.1559103548
 22
31.2810878707
 13
363.1559103548
 23
31.2810878707
  0
SOLID
  8
0
 62
7
  6
CONTINUOUS
 10
368.3012227445
 20
31.3456149608
 11
368.9949727445
 21
31.4101420472
 12
368.7637229651
 22
31.3778792603
 13
368.7637229651
 23
31.3778792603
  0
SOLID
  8
0
 62
7
  6
CONTINUOUS
 10
368.7637229651
 20
31.3778792603
 11
368.6480977445
 21
31.3456149608
 12
368.3012227445
 22
31.3456149608
 13
368.3012227445
 23
31.3456149608
  0
SOLID
  8
0
 62
7
  6
CONTINUOUS
 10
368.3012227445
 20
31.2810878707
 11
368.3012227445
 21
31.3456149608
 12
368.6480977445
 22
31.3456149608
 13
368.6480977445
 23
31.3456149608
  0
SOLID
  8
0
 62
7
  6
CONTINUOUS
 10
368.6480977445
 20
31.3456149608
 11
368.5902854651
 21
31.2810878707
 12
368.3012227445
 22
31.2810878707
 13
368.3012227445
 23
31.2810878707
  0
SOLID
  8
0
 62
7
  6
CONTINUOUS
 10
368.4168479651
 20
31.1520336865
 11
368.3012227445
 21
31.2810878707
 12
368.5902854651
 22
31.2810878707
 13
368.5902854651
 23
31.2810878707
  0
SOLID
  8
0
 62
7
  6
CONTINUOUS
 10
358.8199727462
 20
31.2165607767
 11
359.3402852307
 21
31.345614957
 12
359.1668477307
 22
31.2488235635
 13
359.1668477307
 23
31.2488235635
  0
SOLID
  8
0
 62
7
  6
CONTINUOUS
 10
359.1668477307
 20
31.2488235635
 11
359.1090352445
 21
31.1842964734
 12
358.8199727462
 22
31.2165607767
 13
358.8199727462
 23
31.2165607767
  0
SOLID
  8
0
 62
7
  6
CONTINUOUS
 10
358.7621602445
 20
31.0229779898
 11
358.8199727462
 21
31.2165607767
 12
359.1090352445
 22
31.1842964734
 13
359.1090352445
 23
31.1842964734
  0
SOLID
  8
0
 62
7
  6
CONTINUOUS
 10
363.6184102445
 20
31.1520336865
 11
363.9652852445
 21
31.1842964611
 12
364.6012229651
 22
31.1842964611
 13
364.6012229651
 23
31.1842964611
  0
SOLID
  8
0
 62
7
  6
CONTINUOUS
 10
363.6184102445
 20
31.1520336865
 11
364.6012229651
 21
31.1842964611
 12
363.3871601343
 22
31.0875057863
 13
363.3871601343
 23
31.0875057863
  0
SOLID
  8
0
 62
7
  6
CONTINUOUS
 10
363.3871601343
 20
31.0875057863
 11
364.6012229651
 21
31.1842964611
 12
363.9652852445
 22
31.0552422808
 13
363.9652852445
 23
31.0552422808
  0
SOLID
  8
0
 62
7
  6
CONTINUOUS
 10
364.6012229651
 20
31.1842964611
 11
364.6012229651
 21
31.0552422808
 12
363.9652852445
 22
31.0552422808
 13
363.9652852445
 23
31.0552422808
  0
SOLID
  8
0
 62
7
  6
CONTINUOUS
 10
368.4168479651
 20
31.1520338754
 11
368.5902854651
 21
31.2810878668
 12
368.6480977445
 22
31.2165607767
 13
368.6480977445
 23
31.2165607767
  0
SOLID
  8
0
 62
7
  6
CONTINUOUS
 10
368.6480977445
 20
31.2165607767
 11
368.8215352445
 21
31.1520338754
 12
368.4168479651
 22
31.1520338754
 13
368.4168479651
 23
31.1520338754
  0
SOLID
  8
0
 62
7
  6
CONTINUOUS
 10
368.6480977445
 20
31.0552422931
 11
368.4168479651
 21
31.1520338754
 12
368.8215352445
 22
31.1520338754
 13
368.8215352445
 23
31.1520338754
  0
SOLID
  8
0
 62
7
  6
CONTINUOUS
 10
368.8215352445
 20
31.1520338754
 11
369.8043479651
 21
30.9907152029
 12
368.6480977445
 22
31.0552422931
 13
368.6480977445
 23
31.0552422931
  0
SOLID
  8
0
 62
7
  6
CONTINUOUS
 10
369.6309104651
 20
30.8939239876
 11
368.6480977445
 21
31.0552422931
 12
369.8043479651
 22
30.9907152029
 13
369.8043479651
 23
30.9907152029
  0
SOLID
  8
0
 62
7
  6
CONTINUOUS
 10
369.8043479651
 20
30.9907152029
 11
370.0355977445
 21
30.8939239876
 12
369.6309104651
 22
30.8939239876
 13
369.6309104651
 23
30.8939239876
  0
SOLID
  8
0
 62
7
  6
CONTINUOUS
 10
369.8043479651
 20
30.8293967193
 11
369.6309104651
 21
30.8939239876
 12
370.0355977445
 22
30.8939239876
 13
370.0355977445
 23
30.8939239876
  0
SOLID
  8
0
 62
7
  6
CONTINUOUS
 10
369.8043479651
 20
30.8293967193
 11
370.0355977445
 21
30.8939239876
 12
369.8621602445
 22
30.7648682694
 13
369.8621602445
 23
30.7648682694
  0
SOLID
  8
0
 62
7
  6
CONTINUOUS
 10
370.0355977445
 20
30.8939239876
 11
370.1512223035
 21
30.7648682694
 12
369.8621602445
 22
30.7648682694
 13
369.8621602445
 23
30.7648682694
  0
SOLID
  8
0
 62
7
  6
CONTINUOUS
 10
369.8043479651
 20
30.7003411846
 11
369.8621602445
 21
30.7648682694
 12
370.1512223035
 22
30.7648682694
 13
370.1512223035
 23
30.7648682694
  0
SOLID
  8
0
 62
7
  6
CONTINUOUS
 10
370.1512223035
 20
30.7648682694
 11
370.1512223035
 21
30.7003411846
 12
369.8043479651
 22
30.7003411846
 13
369.8043479651
 23
30.7003411846
  0
SOLID
  8
0
 62
7
  6
CONTINUOUS
 10
369.6887227445
 20
30.6680782357
 11
369.8043479651
 21
30.7003411846
 12
370.1512223035
 22
30.7003411846
 13
370.1512223035
 23
30.7003411846
  0
SOLID
  8
0
 62
7
  6
CONTINUOUS
 10
369.6887227445
 20
30.6680782357
 11
370.1512223035
 21
30.7003411846
 12
369.4574729651
 22
30.6358140998
 13
369.4574729651
 23
30.6358140998
  0
SOLID
  8
0
 62
7
  6
CONTINUOUS
 10
370.1512223035
 20
30.7003411846
 11
370.0355977445
 21
30.6035511455
 12
369.4574729651
 22
30.6358140998
 13
369.4574729651
 23
30.6358140998
  0
SOLID
  8
0
 62
7
  6
CONTINUOUS
 10
370.0355977445
 20
30.6035511455
 11
368.5902854651
 21
30.5712868422
 12
369.4574729651
 22
30.6358140998
 13
369.4574729651
 23
30.6358140998
  0
SOLID
  8
0
 62
7
  6
CONTINUOUS
 10
369.4574729651
 20
30.6358140998
 11
368.5902854651
 21
30.5712868422
 12
369.1105979651
 22
30.6358140998
 13
369.1105979651
 23
30.6358140998
  0
SOLID
  8
0
 62
7
  6
CONTINUOUS
 10
368.5902854651
 20
30.5712868422
 11
368.4168479651
 21
30.6358140998
 12
369.1105979651
 22
30.6358140998
 13
369.1105979651
 23
30.6358140998
  0
SOLID
  8
0
 62
7
  6
CONTINUOUS
 10
368.5902854651
 20
30.5712868422
 11
370.0355977445
 21
30.6035511455
 12
368.7637229651
 22
30.5390223111
 13
368.7637229651
 23
30.5390223111
  0
SOLID
  8
0
 62
7
  6
CONTINUOUS
 10
370.0355977445
 20
30.6035511455
 11
369.8043479651
 21
30.5390223111
 12
368.7637229651
 22
30.5390223111
 13
368.7637229651
 23
30.5390223111
  0
SOLID
  8
0
 62
7
  6
CONTINUOUS
 10
369.1105979651
 20
30.5067599302
 11
368.7637229651
 21
30.5390223111
 12
369.8043479651
 22
30.5390223111
 13
369.8043479651
 23
30.5390223111
  0
SOLID
  8
0
 62
7
  6
CONTINUOUS
 10
369.8043479651
 20
30.5390223111
 11
369.4574729651
 21
30.5067599302
 12
369.1105979651
 22
30.5067599302
 13
369.1105979651
 23
30.5067599302
  0
SOLID
  8
0
 62
7
  6
CONTINUOUS
 10
358.7621602445
 20
31.0229779898
 11
359.1090352445
 21
31.1842964734
 12
359.0512227376
 22
31.0552422931
 13
359.0512227376
 23
31.0552422931
  0
SOLID
  8
0
 62
7
  6
CONTINUOUS
 10
359.0512227376
 20
31.0552422931
 11
359.0512227376
 21
30.9584509954
 12
358.7621602445
 22
31.0229779898
 13
358.7621602445
 23
31.0229779898
  0
SOLID
  8
0
 62
7
  6
CONTINUOUS
 10
358.8199727462
 20
30.8293967193
 11
358.7621602445
 21
31.0229779898
 12
359.0512227376
 22
30.9584509954
 13
359.0512227376
 23
30.9584509954
  0
SOLID
  8
0
 62
7
  6
CONTINUOUS
 10
359.0512227376
 20
30.9584509954
 11
359.1668477307
 21
30.797132416
 12
358.8199727462
 22
30.8293967193
 13
358.8199727462
 23
30.8293967193
  0
SOLID
  8
0
 62
7
  6
CONTINUOUS
 10
358.9355977445
 20
30.7003413087
 11
358.8199727462
 21
30.8293967193
 12
359.1668477307
 22
30.797132416
 13
359.1668477307
 23
30.797132416
  0
SOLID
  8
0
 62
7
  6
CONTINUOUS
 10
359.1668477307
 20
30.797132416
 11
359.3402852307
 21
30.7003413087
 12
358.9355977445
 22
30.7003413087
 13
358.9355977445
 23
30.7003413087
  0
SOLID
  8
0
 62
7
  6
CONTINUOUS
 10
359.0512227376
 20
30.6358140759
 11
358.9355977445
 21
30.7003413087
 12
359.3402852307
 22
30.7003413087
 13
359.3402852307
 23
30.7003413087
  0
SOLID
  8
0
 62
7
  6
CONTINUOUS
 10
359.3402852307
 20
30.7003413087
 11
359.6871602721
 21
30.6358140759
 12
359.0512227376
 22
30.6358140759
 13
359.0512227376
 23
30.6358140759
  0
SOLID
  8
0
 62
7
  6
CONTINUOUS
 10
359.2246602583
 20
30.5712868422
 11
359.0512227376
 21
30.6358140759
 12
359.6871602721
 22
30.6358140759
 13
359.6871602721
 23
30.6358140759
  0
SOLID
  8
0
 62
7
  6
CONTINUOUS
 10
363.2715352445
 20
31.0229779808
 11
363.3871601343
 21
31.0875057863
 12
363.9652852445
 22
31.0552422931
 13
363.9652852445
 23
31.0552422931
  0
SOLID
  8
0
 62
7
  6
CONTINUOUS
 10
363.9652852445
 20
31.0552422931
 11
363.7340351343
 21
31.0229779808
 12
363.2715352445
 22
31.0229779808
 13
363.2715352445
 23
31.0229779808
  0
SOLID
  8
0
 62
7
  6
CONTINUOUS
 10
363.1559103548
 20
30.8939238094
 11
363.2715352445
 21
31.0229779808
 12
363.7340351343
 22
31.0229779808
 13
363.7340351343
 23
31.0229779808
  0
SOLID
  8
0
 62
7
  6
CONTINUOUS
 10
363.5027853548
 20
30.926187309
 11
363.1559103548
 21
30.8939238094
 12
363.6184102445
 22
30.9907152029
 13
363.6184102445
 23
30.9907152029
  0
SOLID
  8
0
 62
7
  6
CONTINUOUS
 10
363.1559103548
 20
30.8939238094
 11
363.7340351343
 21
31.0229779898
 12
363.6184102445
 22
30.9907152029
 13
363.6184102445
 23
30.9907152029
  0
SOLID
  8
0
 62
7
  6
CONTINUOUS
 10
363.5027853548
 20
30.926187309
 11
363.4449727445
 21
30.8293967193
 12
363.1559103548
 22
30.8939238094
 13
363.1559103548
 23
30.8939238094
  0
SOLID
  8
0
 62
7
  6
CONTINUOUS
 10
363.1559103548
 20
30.797132416
 11
363.1559103548
 21
30.8939238094
 12
363.4449727445
 22
30.8293967193
 13
363.4449727445
 23
30.8293967193
  0
SOLID
  8
0
 62
7
  6
CONTINUOUS
 10
363.4449727445
 20
30.8293967193
 11
363.4449727445
 21
30.7648681127
 12
363.1559103548
 22
30.797132416
 13
363.1559103548
 23
30.797132416
  0
SOLID
  8
0
 62
7
  6
CONTINUOUS
 10
363.2137226343
 20
30.6680782357
 11
363.1559103548
 21
30.797132416
 12
363.4449727445
 22
30.7648681127
 13
363.4449727445
 23
30.7648681127
  0
SOLID
  8
0
 62
7
  6
CONTINUOUS
 10
364.6012229651
 20
30.8616599362
 11
364.890285024
 21
30.7648681127
 12
364.543410024
 22
30.797132416
 13
364.543410024
 23
30.797132416
  0
SOLID
  8
0
 62
7
  6
CONTINUOUS
 10
364.369972524
 20
30.7003410226
 11
364.543410024
 21
30.797132416
 12
364.890285024
 22
30.7648681127
 13
364.890285024
 23
30.7648681127
  0
SOLID
  8
0
 62
7
  6
CONTINUOUS
 10
364.369972524
 20
30.7003410226
 11
364.890285024
 21
30.7648681127
 12
364.6012229651
 22
30.6680782357
 13
364.6012229651
 23
30.6680782357
  0
SOLID
  8
0
 62
7
  6
CONTINUOUS
 10
364.890285024
 20
30.7648681127
 11
364.9480979651
 21
30.6035511455
 12
364.6012229651
 22
30.6680782357
 13
364.6012229651
 23
30.6680782357
  0
SOLID
  8
0
 62
7
  6
CONTINUOUS
 10
364.6590352445
 20
30.5712868422
 11
364.6012229651
 21
30.6680782357
 12
364.9480979651
 22
30.6035511455
 13
364.9480979651
 23
30.6035511455
  0
SOLID
  8
0
 62
7
  6
CONTINUOUS
 10
364.6590352445
 20
30.5712868422
 11
364.9480979651
 21
30.6035511455
 12
364.716847524
 22
30.5067598731
 13
364.716847524
 23
30.5067598731
  0
SOLID
  8
0
 62
7
  6
CONTINUOUS
 10
364.9480979651
 20
30.6035511455
 11
365.0059102445
 21
30.5067598731
 12
364.716847524
 22
30.5067598731
 13
364.716847524
 23
30.5067598731
  0
SOLID
  8
0
 62
7
  6
CONTINUOUS
 10
360.2652852997
 20
30.7326051679
 11
360.3230977445
 21
30.8293966612
 12
360.6121602997
 22
30.8293966612
 13
360.6121602997
 23
30.8293966612
  0
SOLID
  8
0
 62
7
  6
CONTINUOUS
 10
360.6121602997
 20
30.8293966612
 11
360.5543476894
 21
30.7003410226
 12
360.2652852997
 22
30.7326051679
 13
360.2652852997
 23
30.7326051679
  0
SOLID
  8
0
 62
7
  6
CONTINUOUS
 10
360.091847717
 20
30.6680782357
 11
360.2652852997
 21
30.7326051679
 12
360.5543476894
 22
30.7003410226
 13
360.5543476894
 23
30.7003410226
  0
SOLID
  8
0
 62
7
  6
CONTINUOUS
 10
360.091847717
 20
30.6680782357
 11
360.5543476894
 21
30.7003410226
 12
359.6871602721
 22
30.6358139324
 13
359.6871602721
 23
30.6358139324
  0
SOLID
  8
0
 62
7
  6
CONTINUOUS
 10
360.5543476894
 20
30.7003410226
 11
360.3809101894
 21
30.6035511455
 12
359.6871602721
 22
30.6358139324
 13
359.6871602721
 23
30.6358139324
  0
SOLID
  8
0
 62
7
  6
CONTINUOUS
 10
359.2246602583
 20
30.5712868422
 11
359.6871602721
 21
30.6358139324
 12
360.3809101894
 22
30.6035511455
 13
360.3809101894
 23
30.6035511455
  0
SOLID
  8
0
 62
7
  6
CONTINUOUS
 10
359.2246602583
 20
30.5712868422
 11
360.3809101894
 21
30.6035511455
 12
359.3980977583
 22
30.5390224228
 13
359.3980977583
 23
30.5390224228
  0
SOLID
  8
0
 62
7
  6
CONTINUOUS
 10
360.3809101894
 20
30.6035511455
 11
360.1496602445
 21
30.5390224228
 12
359.3980977583
 22
30.5390224228
 13
359.3980977583
 23
30.5390224228
  0
SOLID
  8
0
 62
7
  6
CONTINUOUS
 10
359.744972717
 20
30.5067597521
 11
359.3980977583
 21
30.5390224228
 12
360.1496602445
 22
30.5390224228
 13
360.1496602445
 23
30.5390224228
  0
SOLID
  8
0
 62
7
  6
CONTINUOUS
 10
363.2137226343
 20
30.6680782357
 11
363.4449727445
 21
30.7648681127
 12
363.5027853548
 22
30.7003410226
 13
363.5027853548
 23
30.7003410226
  0
SOLID
  8
0
 62
7
  6
CONTINUOUS
 10
363.5027853548
 20
30.7003410226
 11
363.7340351343
 21
30.6358139324
 12
363.2137226343
 22
30.6680782357
 13
363.2137226343
 23
30.6680782357
  0
SOLID
  8
0
 62
7
  6
CONTINUOUS
 10
363.3871601343
 20
30.5712868422
 11
363.2137226343
 21
30.6680782357
 12
363.7340351343
 22
30.6358139324
 13
363.7340351343
 23
30.6358139324
  0
SOLID
  8
0
 62
7
  6
CONTINUOUS
 10
364.0809101343
 20
30.6358139363
 11
364.369972524
 21
30.7003410226
 12
364.6012229651
 22
30.6680782357
 13
364.6012229651
 23
30.6680782357
  0
SOLID
  8
0
 62
7
  6
CONTINUOUS
 10
364.6012229651
 20
30.6680782357
 11
364.543410024
 21
30.6035511455
 12
364.0809101343
 22
30.6358139363
 13
364.0809101343
 23
30.6358139363
  0
SOLID
  8
0
 62
7
  6
CONTINUOUS
 10
364.543410024
 20
30.6035511455
 11
363.3871601343
 21
30.5712868422
 12
364.0809101343
 22
30.6358139363
 13
364.0809101343
 23
30.6358139363
  0
SOLID
  8
0
 62
7
  6
CONTINUOUS
 10
363.3871601343
 20
30.5712868422
 11
363.7340351343
 21
30.6358139363
 12
364.0809101343
 22
30.6358139363
 13
364.0809101343
 23
30.6358139363
  0
SOLID
  8
0
 62
7
  6
CONTINUOUS
 10
363.3871601343
 20
30.5712868422
 11
364.543410024
 21
30.6035511455
 12
363.5027853548
 22
30.5390225267
 13
363.5027853548
 23
30.5390225267
  0
SOLID
  8
0
 62
7
  6
CONTINUOUS
 10
364.543410024
 20
30.6035511455
 11
364.369972524
 21
30.5390225267
 12
363.5027853548
 22
30.5390225267
 13
363.5027853548
 23
30.5390225267
  0
SOLID
  8
0
 62
7
  6
CONTINUOUS
 10
363.7340351343
 20
30.5067596914
 11
363.5027853548
 21
30.5390225267
 12
364.369972524
 22
30.5390225267
 13
364.369972524
 23
30.5390225267
  0
SOLID
  8
0
 62
7
  6
CONTINUOUS
 10
364.369972524
 20
30.5390225267
 11
364.0809101343
 21
30.5067596914
 12
363.7340351343
 22
30.5067596914
 13
363.7340351343
 23
30.5067596914
  0
SOLID
  8
0
 62
7
  6
CONTINUOUS
 10
368.7637229651
 20
30.6680782357
 11
368.4168479651
 21
30.6358138717
 12
368.6480977445
 22
30.7003410226
 13
368.6480977445
 23
30.7003410226
  0
SOLID
  8
0
 62
7
  6
CONTINUOUS
 10
368.6480977445
 20
30.7003410226
 11
368.4168479651
 21
30.6358138717
 12
368.5902854651
 22
30.7648680521
 13
368.5902854651
 23
30.7648680521
  0
SOLID
  8
0
 62
7
  6
CONTINUOUS
 10
368.4168479651
 20
30.6358138717
 11
368.3012227445
 21
30.7648680521
 12
368.5902854651
 22
30.7648680521
 13
368.5902854651
 23
30.7648680521
  0
SOLID
  8
0
 62
7
  6
CONTINUOUS
 10
368.7637229651
 20
30.6680782357
 11
369.1105979651
 21
30.6358138717
 12
368.4168479651
 22
30.6358138717
 13
368.4168479651
 23
30.6358138717
  0
SOLID
  8
0
 62
7
  6
CONTINUOUS
 10
365.4684104651
 20
30.5067597521
 11
365.4684104651
 21
31.5391977439
 12
365.757472524
 22
30.5067597521
 13
365.757472524
 23
31.5391977439
  0
ENDBLK
  8
0
  6
BYBLOCK
 62
0
  0
BLOCK
  8
0
 62
2
  6
CONTINUOUS
  2
AMMEAAL_LOGO_BL0
 70
64
 10
240.8592468615
 20
19.762288695
  0
TEXT
  8
0
 62
7
  6
CONTINUOUS
 10
227.1239507038
 20
19.1357028027
  7
TEXTSTYLE_3
 40
2.7338706658
  1
Ammeraal Beltech
 41
1.0
 51
15.0
 72
0
  0
TEXT
  8
0
 62
7
  6
CONTINUOUS
 10
237.9247515296
 20
16.8621661299
  7
TEXTSTYLE_4
 40
1.0935482663
  1
Innovation & Service in Belting
 41
1.0
 72
0
  0
LINE
  8
0
 62
7
  6
CONTINUOUS
 10
221.0994100525
 20
19.9022961113
 11
221.8775620458
 21
23.5632134089
  0
LINE
  8
0
 62
7
  6
CONTINUOUS
 10
231.9727303357
 20
27.2266073205
 11
222.3653797889
 21
24.1049898993
  0
LINE
  8
0
 62
7
  6
CONTINUOUS
 10
221.3246933848
 20
19.2089453082
 11
228.8317686459
 21
12.4495443822
  0
LINE
  8
0
 62
7
  6
CONTINUOUS
 10
221.5872277955
 20
20.4440726016
 11
232.3954971607
 21
23.9558922005
  0
LINE
  8
0
 62
7
  6
CONTINUOUS
 10
232.3912920235
 20
13.6061036368
 11
223.9458323548
 21
21.2104296785
  0
LINE
  8
0
 62
7
  6
CONTINUOUS
 10
232.9111147433
 20
26.3816822048
 11
231.9345552061
 21
21.7873308023
  0
LINE
  8
0
 62
7
  6
CONTINUOUS
 10
231.2347532584
 20
18.4950214885
 11
230.5483050469
 21
15.2655365641
  0
LINE
  8
0
 62
7
  6
CONTINUOUS
 10
233.5922108419
 20
13.9963058145
 11
234.5484423775
 21
18.4950214885
  0
LINE
  8
0
 62
7
  6
CONTINUOUS
 10
235.2482443252
 20
21.7873308023
 11
235.6924861276
 21
23.8773241617
  0
LINE
  8
0
 62
7
  6
CONTINUOUS
 10
229.5448697213
 20
12.2979700695
 11
233.1043930989
 21
13.4545293241
  0
LINE
  8
0
 62
7
  6
CONTINUOUS
 10
232.685831411
 20
27.0750330078
 11
235.4672027953
 21
24.5706749648
  0
ARC
  8
0
 62
7
  6
CONTINUOUS
 10
222.5906631212
 20
23.4116390962
 40
0.7290321776
 50
108.0
 51
168.0
  0
ARC
  8
0
 62
7
  6
CONTINUOUS
 10
232.198013668
 20
26.5332565175
 40
0.7290321776
 50
348.0
 51
108.0
  0
ARC
  8
0
 62
7
  6
CONTINUOUS
 10
234.9793850522
 20
24.0288984744
 40
0.7290321776
 50
348.0
 51
48.0
  0
ARC
  8
0
 62
7
  6
CONTINUOUS
 10
229.319586389
 20
12.9913208726
 40
0.7290321776
 50
228.0
 51
288.0
  0
ARC
  8
0
 62
7
  6
CONTINUOUS
 10
221.8125111278
 20
19.7507217986
 40
0.7290321776
 50
108.0
 51
228.0
  0
ARC
  8
0
 62
7
  6
CONTINUOUS
 10
232.8791097665
 20
14.1478801272
 40
0.7290321776
 50
228.0
 51
348.0
  0
ENDBLK
  8
0
  6
BYBLOCK
 62
0
  0
ENDSEC
  0
SECTION
  2
ENTITIES
  0
TEXT
  8
0
 62
5
  6
CONTINUOUS
 10
304.937007874
 20
25.636
  7
TEXTSTYLE_2
 40
2.8
  1
Scale :
 41
0.6
 51
0.000019
 72
0
  0
TEXT
  8
0
 62
5
  6
CONTINUOUS
 10
324.937007874
 20
25.636
  7
TEXTSTYLE_2
 40
2.8
  1
Belt type:
 41
0.6
 51
0.000019
 72
0
  0
INSERT
  8
0
 62
2
  6
CONTINUOUS
  2
AMMEAAL_LOGO_BL0
 10
240.8592468615
 20
19.762288695
  0
INSERT
  8
0
 62
2
  6
CONTINUOUS
  2
UNI_LOGO2_BL1
 10
382.7840918555
 20
35.5067593403
  0
LINE
  8
0
 62
2
  6
CONTINUOUS
 10
218.937007874
 20
30.0
 11
408.937007874
 21
30.0
  0
LINE
  8
0
 62
2
  6
CONTINUOUS
 10
218.937007874
 20
30.0
 11
218.937007874
 21
10.0
  0
LINE
  8
0
 62
2
  6
CONTINUOUS
 10
218.937007874
 20
10.0
 11
408.937007874
 21
10.0
  0
LINE
  8
0
 62
2
  6
CONTINUOUS
 10
303.937007874
 20
30.0
 11
303.937007874
 21
10.0
  0
LINE
  8
0
 62
2
  6
CONTINUOUS
 10
323.937007874
 20
30.0
 11
323.937007874
 21
10.0
  0
LINE
  8
0
 62
2
  6
CONTINUOUS
 10
408.937007874
 20
30.0
 11
408.937007874
 21
10.0
  0
TEXT
  8
0
 62
5
  6
CONTINUOUS
 10
221.937007874
 20
23.303
  7
TEXTSTYLE_5
 40
1.52
  1
                                                                     Ammeraal Beltech Modular A/S
 41
1.0
 72
0
  0
TEXT
  8
0
 62
5
  6
CONTINUOUS
 10
221.937007874
 20
20.595
  7
TEXTSTYLE_5
 40
1.5
  1
                                                                      Hjulmagervej 21, 7100 Vejle,  DK
 41
1.0
 72
0
  0
TEXT
  8
0
 62
5
  6
CONTINUOUS
 10
221.937007874
 20
17.881
  7
TEXTSTYLE_5
 40
1.495
  1
                                                                      tel: 
 41
1.0
 72
0
  0
TEXT
  8
0
 62
5
  6
CONTINUOUS
 10
266.9239544389
 20
17.881
  7
TEXTSTYLE_5
 40
1.51
  1
+45 75723100     fax: +45 75723348
 41
1.0
 72
0
  0
TEXT
  8
0
 62
5
  6
CONTINUOUS
 10
221.937007874
 20
15.177
  7
TEXTSTYLE_5
 40
1.5
  1
                                                                      admin@unichains.dk  www.unichains.com
 41
1.0
 72
0
  0
TEXT
  8
0
 62
5
  6
CONTINUOUS
 10
308.687007874
 20
13.75
  7
TEXTSTYLE_6
 40
5.0
  1
1:1
 41
0.7
 72
1
 11
313.937007874
 21
13.75
  0
TEXT
  8
0
 62
5
  6
CONTINUOUS
 10
326.937007874
 20
13.75
  7
TEXTSTYLE_7
 40
7.5
  1
Sprocket Z12 60X60SQ
 41
0.428125
 72
0
  0
LINE
  8
0
 62
7
  6
CONTINUOUS
 10
0.0
 20
0.0
 11
0.0
 21
297.0
  0
LINE
  8
0
 62
7
  6
CONTINUOUS
 10
8.937007874
 20
10.0
 11
8.937007874
 21
287.0
  0
LINE
  8
0
 62
7
  6
CONTINUOUS
 10
0.0
 20
0.0
 11
420.0
 21
0.0
  0
LINE
  8
0
 62
7
  6
CONTINUOUS
 10
408.937007874
 20
10.0
 11
8.937007874
 21
10.0
  0
LINE
  8
0
 62
7
  6
CONTINUOUS
 10
218.937007874
 20
30.0
 11
408.937007874
 21
30.0
  0
LINE
  8
0
 62
7
  6
CONTINUOUS
 10
210.0
 20
297.0
 11
210.0
 21
292.0
  0
LINE
  8
0
 62
7
  6
CONTINUOUS
 10
210.0
 20
0.0
 11
210.0
 21
5.0
  0
LINE
  8
0
 62
7
  6
CONTINUOUS
 10
8.937007874
 20
287.0
 11
408.937007874
 21
287.0
  0
LINE
  8
0
 62
7
  6
CONTINUOUS
 10
0.0
 20
297.0
 11
420.0
 21
297.0
  0
LINE
  8
0
 62
7
  6
CONTINUOUS
 10
408.937007874
 20
287.0
 11
408.937007874
 21
10.0
  0
LINE
  8
0
 62
7
  6
CONTINUOUS
 10
420.0
 20
0.0
 11
420.0
 21
297.0
  0
LINE
  8
0
 62
7
  6
CONTINUOUS
 10
48.5534836066
 20
188.5026449738
 11
48.5534836066
 21
185.2154044761
  0
LINE
  8
SURFACE
 62
7
  6
CONTINUOUS
 10
48.5534836066
 20
137.9844964197
 11
48.5534836066
 21
164.6435706967
  0
LINE
  8
0
 62
7
  6
CONTINUOUS
 10
72.1689376348
 20
226.1185706967
 11
70.5253173859
 21
223.2717369174
  0
LINE
  8
SURFACE
 62
7
  6
CONTINUOUS
 10
46.9098633577
 20
182.3685706967
 11
60.2394004962
 21
205.456006262
  0
LINE
  8
0
 62
7
  6
CONTINUOUS
 10
111.4284836066
 20
246.8871909456
 11
108.5816498272
 21
245.2435706967
  0
LINE
  8
SURFACE
 62
7
  6
CONTINUOUS
 10
67.6784836066
 20
221.6281166685
 11
90.7659191719
 21
234.957653807
  0
LINE
  8
SURFACE
 62
7
  6
CONTINUOUS
 10
155.8125578836
 20
81.2435706967
 11
129.1534836066
 21
81.2435706967
  0
LINE
  8
0
 62
7
  6
CONTINUOUS
 10
105.2944093295
 20
81.2435706967
 11
108.5816498272
 21
81.2435706967
  0
LINE
  8
SURFACE
 62
7
  6
CONTINUOUS
 10
111.4284836066
 20
79.5999504479
 11
88.3410480413
 21
92.9294875864
  0
LINE
  8
0
 62
7
  6
CONTINUOUS
 10
67.6784836066
 20
104.8590247249
 11
70.5253173859
 21
103.2154044761
  0
LINE
  8
0
 62
7
  6
CONTINUOUS
 10
46.9098633577
 20
144.1185706967
 11
48.5534836066
 21
141.2717369174
  0
LINE
  8
SURFACE
 62
7
  6
CONTINUOUS
 10
72.1689376348
 20
100.3685706967
 11
58.8394004962
 21
123.456006262
  0
LINE
  8
0
 62
7
  6
CONTINUOUS
 10
111.1885687089
 20
216.4699370878
 11
110.5702476002
 21
216.0923331526
  0
LINE
  8
0
 62
7
  6
CONTINUOUS
 10
111.0890480465
 20
215.4075477318
 11
111.6243728687
 21
215.7021553806
  0
LINE
  8
0
 62
7
  6
CONTINUOUS
 10
82.535240095
 20
184.2058501984
 11
82.5269762448
 21
183.7161520015
  0
LINE
  8
0
 62
7
  6
CONTINUOUS
 10
83.0084105917
 20
183.2347176547
 11
83.0166744418
 21
183.7244158516
  0
LINE
  8
0
 62
7
  6
CONTINUOUS
 10
83.1830151987
 20
179.0764126345
 11
83.1747511111
 21
178.5867142001
  0
LINE
  8
0
 62
7
  6
CONTINUOUS
 10
83.6561855317
 20
178.1052797795
 11
83.7018145209
 21
178.3916259633
  0
LINE
  8
0
 62
7
  6
CONTINUOUS
 10
88.8632486576
 20
194.1446170366
 11
88.771991133
 21
193.5719251651
  0
LINE
  8
0
 62
7
  6
CONTINUOUS
 10
93.6520937906
 20
197.4891591291
 11
93.7807164649
 21
197.8584989768
  0
LINE
  8
0
 62
7
  6
CONTINUOUS
 10
82.7468566812
 20
184.6581839581
 11
82.535240095
 21
184.2058501984
  0
LINE
  8
0
 62
7
  6
CONTINUOUS
 10
83.0166744418
 20
183.7244158516
 11
83.228291028
 21
184.1767496113
  0
LINE
  8
0
 62
7
  6
CONTINUOUS
 10
89.6683945647
 20
193.5054599032
 11
89.8800106761
 21
193.957793188
  0
LINE
  8
0
 62
7
  6
CONTINUOUS
 10
83.1747511111
 20
178.5867142001
 11
82.9631348045
 21
178.1343806358
  0
LINE
  8
0
 62
7
  6
CONTINUOUS
 10
93.0585649447
 20
198.5806504971
 11
92.8469497831
 21
198.1283181621
  0
LINE
  8
0
 62
7
  6
CONTINUOUS
 10
83.4445691934
 20
177.6529462468
 11
83.6561855317
 21
178.1052797795
  0
LINE
  8
0
 62
7
  6
CONTINUOUS
 10
89.1578591558
 20
194.6799447082
 11
88.8632486576
 21
194.1446170366
  0
LINE
  8
0
 62
7
  6
CONTINUOUS
 10
110.238273852
 20
215.7603594043
 11
109.7776736303
 21
215.0590420092
  0
LINE
  8
0
 62
7
  6
CONTINUOUS
 10
110.5702476002
 20
216.0923331526
 11
110.238273852
 21
215.7603594043
  0
LINE
  8
0
 62
7
  6
CONTINUOUS
 10
108.1634293772
 20
213.6855149296
 11
107.6654668553
 21
213.1875524077
  0
LINE
  8
0
 62
7
  6
CONTINUOUS
 10
106.5035530377
 20
212.02563859
 11
103.1838041576
 21
208.70588971
  0
LINE
  8
0
 62
7
  6
CONTINUOUS
 10
97.4572351551
 20
202.9793207074
 11
95.4653850672
 21
200.9874706196
  0
LINE
  8
0
 62
7
  6
CONTINUOUS
 10
93.4735349794
 20
198.9956205317
 11
93.0585649447
 21
198.5806504971
  0
LINE
  8
0
 62
7
  6
CONTINUOUS
 10
89.9048029388
 20
195.4268884911
 11
89.1578591558
 21
194.6799447082
  0
LINE
  8
0
 62
7
  6
CONTINUOUS
 10
83.1823088923
 20
188.7043944447
 11
82.7673402823
 21
188.2894258347
  0
LINE
  8
0
 62
7
  6
CONTINUOUS
 10
83.3691332158
 20
187.6876329011
 11
83.7841018258
 21
188.1026015111
  0
LINE
  8
0
 62
7
  6
CONTINUOUS
 10
103.7855970912
 20
208.1040967765
 11
106.6903778361
 21
211.0088775214
  0
LINE
  8
0
 62
7
  6
CONTINUOUS
 10
110.757070499
 20
215.0755701844
 11
111.0890480465
 21
215.4075477318
  0
LINE
  8
0
 62
7
  6
CONTINUOUS
 10
89.8800106761
 20
193.957793188
 11
90.626954459
 21
194.7047369709
  0
LINE
  8
0
 62
7
  6
CONTINUOUS
 10
93.7807164649
 20
197.8584989768
 11
94.2786789869
 21
198.3564614988
  0
LINE
  8
0
 62
7
  6
CONTINUOUS
 10
96.6854991094
 20
200.7632816213
 11
98.2623791626
 21
202.3401616745
  0
LINE
  8
0
 62
7
  6
CONTINUOUS
 10
95.3784344424
 20
198.2526310872
 11
95.8763969643
 21
198.7505936092
  0
LINE
  8
0
 62
7
  6
CONTINUOUS
 10
110.2343157144
 20
213.1085123592
 11
110.6492857491
 21
213.5234823939
  0
LINE
  8
0
 62
7
  6
CONTINUOUS
 10
92.0130566623
 20
194.6465354594
 11
92.5110191842
 21
195.1444979814
  0
LINE
  8
0
 62
7
  6
CONTINUOUS
 10
84.98768803
 20
186.8990153069
 11
84.57271942
 21
186.4840466969
  0
LINE
  8
0
 62
7
  6
CONTINUOUS
 10
83.0788318541
 20
184.990159131
 11
82.7468566812
 21
184.6581839581
  0
LINE
  8
0
 62
7
  6
CONTINUOUS
 10
81.9999128983
 20
183.9112401751
 11
81.5849440508
 21
183.4962713277
  0
LINE
  8
0
 62
7
  6
CONTINUOUS
 10
80.7550065934
 20
182.6663338702
 11
80.3400377459
 21
182.2513650228
  0
LINE
  8
0
 62
7
  6
CONTINUOUS
 10
78.6801627419
 20
180.5914900188
 11
78.2651939835
 21
180.1765212604
  0
LINE
  8
0
 62
7
  6
CONTINUOUS
 10
99.9473997136
 20
200.6551411234
 11
98.3705196604
 21
199.0782610703
  0
LINE
  8
0
 62
7
  6
CONTINUOUS
 10
95.9636995379
 20
196.6714409477
 11
95.465737016
 21
196.1734784258
  0
LINE
  8
0
 62
7
  6
CONTINUOUS
 10
96.1878885362
 20
195.4513269055
 11
96.6858510581
 21
195.9492894275
  0
LINE
  8
0
 62
7
  6
CONTINUOUS
 10
99.0926711807
 20
198.35610955
 11
100.6695512338
 21
199.9329896032
  0
LINE
  8
0
 62
7
  6
CONTINUOUS
 10
96.3208201784
 20
193.6585208233
 11
95.8228576564
 21
193.1605583013
  0
LINE
  8
0
 62
7
  6
CONTINUOUS
 10
95.2792668471
 20
192.3762503185
 11
94.7813043251
 21
191.8782877966
  0
LINE
  8
0
 62
7
  6
CONTINUOUS
 10
97.9925618769
 20
203.2739302558
 11
97.4572351551
 21
202.9793207074
  0
LINE
  8
0
 62
7
  6
CONTINUOUS
 10
94.0088617012
 20
199.2902300801
 11
93.4735349794
 21
198.9956205317
  0
LINE
  8
0
 62
7
  6
CONTINUOUS
 10
90.4401306104
 20
195.7214989893
 11
89.9048029388
 21
195.4268884911
  0
LINE
  8
0
 62
7
  6
CONTINUOUS
 10
96.4990281593
 20
196.9660523957
 11
95.9636995379
 21
196.6714409477
  0
LINE
  8
0
 62
7
  6
CONTINUOUS
 10
90.626954459
 20
194.7047369709
 11
91.0792877438
 21
194.9163530823
  0
LINE
  8
0
 62
7
  6
CONTINUOUS
 10
98.2623791626
 20
202.3401616745
 11
98.6317190103
 21
202.4687843488
  0
LINE
  8
0
 62
7
  6
CONTINUOUS
 10
89.6601304771
 20
193.0157614688
 11
89.6683945647
 21
193.5054599032
  0
LINE
  8
0
 62
7
  6
CONTINUOUS
 10
93.6438297031
 20
196.9994606947
 11
93.6520937906
 21
197.4891591291
  0
LINE
  8
0
 62
7
  6
CONTINUOUS
 10
95.0593856984
 20
191.4342176496
 11
95.0511216951
 21
190.9445191309
  0
LINE
  8
0
 62
7
  6
CONTINUOUS
 10
92.8469497831
 20
198.1283181621
 11
92.7556913087
 21
197.5556253408
  0
LINE
  8
0
 62
7
  6
CONTINUOUS
 10
95.8562676759
 20
190.3053619238
 11
95.9475251689
 21
190.8780538269
  0
LINE
  8
0
 62
7
  6
CONTINUOUS
 10
100.0760223879
 20
201.0244809711
 11
99.9473997136
 21
200.6551411234
  0
LINE
  8
0
 62
7
  6
CONTINUOUS
 10
102.6035529616
 20
198.4969503974
 11
102.4749302873
 21
198.1276105497
  0
LINE
  8
0
 62
7
  6
CONTINUOUS
 10
95.0511216951
 20
190.9445191309
 11
94.8395055837
 21
190.4921858462
  0
LINE
  8
0
 62
7
  6
CONTINUOUS
 10
98.7028471727
 20
194.5962446086
 11
98.4912301116
 21
194.143910374
  0
LINE
  8
0
 62
7
  6
CONTINUOUS
 10
95.5616571883
 20
189.7700342417
 11
95.8562676759
 21
190.3053619238
  0
LINE
  8
0
 62
7
  6
CONTINUOUS
 10
110.4624628502
 20
214.5402453621
 11
110.757070499
 21
215.0755701844
  0
LINE
  8
0
 62
7
  6
CONTINUOUS
 10
99.2133817161
 20
193.4217587695
 11
99.5079931536
 21
193.9570874014
  0
LINE
  8
0
 62
7
  6
CONTINUOUS
 10
103.1140894046
 20
197.3224664579
 11
103.4086989424
 21
197.8577931903
  0
LINE
  8
0
 62
7
  6
CONTINUOUS
 10
111.4382556826
 20
207.0909359451
 11
108.6164693246
 21
204.269149587
  0
LINE
  8
0
 62
7
  6
CONTINUOUS
 10
102.4749302873
 20
198.1276105497
 11
100.8980502341
 21
196.5507304966
  0
LINE
  8
0
 62
7
  6
CONTINUOUS
 10
98.4912301116
 20
194.143910374
 11
97.8272807155
 21
193.479960978
  0
LINE
  8
0
 62
7
  6
CONTINUOUS
 10
94.8395055837
 20
190.4921858462
 11
94.0925618008
 21
189.7452420632
  0
LINE
  8
0
 62
7
  6
CONTINUOUS
 10
116.8702151368
 20
212.2821782258
 11
114.5463913007
 21
209.9583543897
  0
LINE
  8
0
 62
7
  6
CONTINUOUS
 10
82.9631348045
 20
178.1343806358
 11
82.6311597502
 21
177.8024055816
  0
LINE
  8
0
 62
7
  6
CONTINUOUS
 10
83.1125941392
 20
177.3209711926
 11
83.4445691934
 21
177.6529462468
  0
LINE
  8
0
 62
7
  6
CONTINUOUS
 10
84.3575004441
 20
178.5658774975
 11
84.7724692916
 21
178.980846345
  0
LINE
  8
0
 62
7
  6
CONTINUOUS
 10
85.4364191625
 20
179.6447962159
 11
85.85138801
 21
180.0597650634
  0
LINE
  8
0
 62
7
  6
CONTINUOUS
 10
87.3452755759
 20
181.5536526293
 11
87.7602441859
 21
181.9686212393
  0
LINE
  8
0
 62
7
  6
CONTINUOUS
 10
88.4241945318
 20
182.6325715852
 11
88.8391631418
 21
183.0475401952
  0
LINE
  8
0
 62
7
  6
CONTINUOUS
 10
94.8147134053
 20
189.0230904587
 11
95.5616571883
 21
189.7700342417
  0
LINE
  8
0
 62
7
  6
CONTINUOUS
 10
98.54943232
 20
192.7578093734
 11
99.2133817161
 21
193.4217587695
  0
LINE
  8
0
 62
7
  6
CONTINUOUS
 10
101.1222393167
 20
195.3306163701
 11
103.1140894046
 21
197.3224664579
  0
LINE
  8
0
 62
7
  6
CONTINUOUS
 10
108.8406584071
 20
203.0490354605
 11
112.1604072871
 21
206.3687843405
  0
LINE
  8
0
 62
7
  6
CONTINUOUS
 10
113.3223211048
 20
207.5306981582
 11
113.8202836267
 21
208.0286606801
  0
LINE
  8
0
 62
7
  6
CONTINUOUS
 10
114.4842330228
 20
208.6926100762
 11
117.4720081546
 21
211.680385208
  0
LINE
  8
0
 62
7
  6
CONTINUOUS
 10
119.2397751076
 20
208.4984046927
 11
85.2986496106
 21
174.5572791957
  0
LINE
  8
0
 62
7
  6
CONTINUOUS
 10
98.0141055877
 20
192.4631998356
 11
98.54943232
 21
192.7578093734
  0
LINE
  8
0
 62
7
  6
CONTINUOUS
 10
94.2793857232
 20
188.7284799711
 11
94.8147134053
 21
189.0230904587
  0
LINE
  8
0
 62
7
  6
CONTINUOUS
 10
96.6858510581
 20
195.9492894275
 11
97.1381852927
 21
196.1609064886
  0
LINE
  8
0
 62
7
  6
CONTINUOUS
 10
95.7355562012
 20
195.239711744
 11
96.1878885362
 21
195.4513269055
  0
LINE
  8
0
 62
7
  6
CONTINUOUS
 10
97.8272807155
 20
193.479960978
 11
97.374946481
 21
193.2683439168
  0
LINE
  8
0
 62
7
  6
CONTINUOUS
 10
94.0925618008
 20
189.7452420632
 11
93.640228516
 21
189.5336259519
  0
LINE
  8
0
 62
7
  6
CONTINUOUS
 10
83.228291028
 20
184.1767496113
 11
83.6806247877
 21
184.3883661975
  0
LINE
  8
0
 62
7
  6
CONTINUOUS
 10
152.7651030763
 20
212.630274344
 11
153.2846341565
 21
212.8328947841
  0
LINE
  8
0
 62
7
  6
CONTINUOUS
 10
94.2786789869
 20
198.3564614988
 11
94.6480188346
 21
198.4850841731
  0
LINE
  8
0
 62
7
  6
CONTINUOUS
 10
100.6695512338
 20
199.9329896032
 11
101.0388910815
 21
200.0616122775
  0
LINE
  8
0
 62
7
  6
CONTINUOUS
 10
95.465737016
 20
196.1734784258
 11
95.0963971683
 21
196.0448557515
  0
LINE
  8
0
 62
7
  6
CONTINUOUS
 10
83.4481717018
 20
185.1187818053
 11
83.0788318541
 21
184.990159131
  0
LINE
  8
0
 62
7
  6
CONTINUOUS
 10
153.5283855516
 20
213.5520120826
 11
152.8092682531
 21
213.3082606874
  0
LINE
  8
0
 62
7
  6
CONTINUOUS
 10
85.2986496106
 20
151.9298621977
 11
119.2397751076
 21
117.9887367008
  0
LINE
  8
0
 62
7
  6
CONTINUOUS
 10
82.987926822
 20
179.6034759467
 11
83.1830151987
 21
179.0764126345
  0
LINE
  8
0
 62
7
  6
CONTINUOUS
 10
82.5269762448
 20
183.7161520015
 11
82.6017058318
 21
183.3094472416
  0
LINE
  8
0
 62
7
  6
CONTINUOUS
 10
83.7018145209
 20
178.3916259633
 11
83.5897198398
 21
179.0016829289
  0
LINE
  8
0
 62
7
  6
CONTINUOUS
 10
83.0831401786
 20
182.8280128948
 11
83.0084105917
 21
183.2347176547
  0
LINE
  8
0
 62
7
  6
CONTINUOUS
 10
98.711111176
 20
195.0859431273
 11
98.7028471727
 21
194.5962446086
  0
LINE
  8
0
 62
7
  6
CONTINUOUS
 10
99.5079931536
 20
193.9570874014
 11
99.5992496968
 21
194.5297783547
  0
LINE
  8
0
 62
7
  6
CONTINUOUS
 10
100.8064379957
 20
200.7920278853
 11
100.8520681827
 21
201.0783752457
  0
LINE
  8
0
 62
7
  6
CONTINUOUS
 10
109.7776736303
 20
215.0590420092
 11
109.6864170554
 21
214.4863510876
  0
LINE
  8
0
 62
7
  6
CONTINUOUS
 10
118.3660563513
 20
260.0040429632
 11
117.6097824575
 21
255.7150005786
  0
LINE
  8
SURFACE
 62
7
  6
CONTINUOUS
 10
71.6186258635
 20
85.5402572594
 11
73.1081946515
 21
89.6328138693
  0
LINE
  8
0
 62
7
  6
CONTINUOUS
 10
168.37909813
 20
253.1343113893
 11
165.5796245334
 21
249.7980286732
  0
LINE
  8
0
 62
7
  6
CONTINUOUS
 10
114.8666490365
 20
193.5186769038
 11
100.2783773995
 21
178.9304052668
  0
LINE
  8
0
 62
7
  6
CONTINUOUS
 10
126.4211789241
 20
201.5376728855
 11
119.3501111122
 21
194.4666050736
  0
LINE
  8
0
 62
7
  6
CONTINUOUS
 10
99.3304492297
 20
174.446943191
 11
92.2593814178
 21
167.3758753792
  0
LINE
  8
SURFACE
 62
7
  6
CONTINUOUS
 10
40.6627429139
 20
125.4179561733
 11
43.9990256301
 21
128.2174297699
  0
LINE
  8
0
 62
7
  6
CONTINUOUS
 10
152.3247993474
 20
212.3484258784
 11
152.7651030763
 21
212.630274344
  0
LINE
  8
0
 62
7
  6
CONTINUOUS
 10
150.3990617915
 20
210.4226883225
 11
150.8393653519
 21
210.7045366195
  0
LINE
  8
0
 62
7
  6
CONTINUOUS
 10
152.8092682531
 20
213.3082606874
 11
152.0490196837
 21
212.8649227155
  0
LINE
  8
0
 62
7
  6
CONTINUOUS
 10
151.5342085668
 20
207.1210868179
 11
152.2944569613
 21
207.5644244591
  0
LINE
  8
0
 62
7
  6
CONTINUOUS
 10
156.4948711147
 20
209.8633749993
 11
155.8549813912
 21
209.5403960291
  0
LINE
  8
0
 62
7
  6
CONTINUOUS
 10
82.6602605471
 20
177.109354795
 11
83.1125941392
 21
177.3209711926
  0
LINE
  8
0
 62
7
  6
CONTINUOUS
 10
151.5783738846
 20
207.799073189
 11
151.0588426635
 21
207.5964527213
  0
LINE
  8
0
 62
7
  6
CONTINUOUS
 10
155.8108158206
 20
208.8624094052
 11
156.8498784313
 21
209.2676505092
  0
LINE
  8
0
 62
7
  6
CONTINUOUS
 10
155.4254661179
 20
204.6741324759
 11
154.3864042134
 21
204.2688911714
  0
LINE
  8
0
 62
7
  6
CONTINUOUS
 10
208.2567970439
 20
222.1784284398
 11
204.164240434
 21
220.6888596518
  0
LINE
  8
0
 62
7
  6
CONTINUOUS
 10
159.0851094718
 20
203.4216611933
 11
154.8496331454
 21
201.8799246835
  0
LINE
  8
0
 62
7
  6
CONTINUOUS
 10
163.2002276648
 20
204.843038663
 11
159.8042267703
 21
203.6654125884
  0
LINE
  8
0
 62
7
  6
CONTINUOUS
 10
155.3249990487
 20
201.4045587801
 11
158.7209994899
 21
202.5821853081
  0
LINE
  8
0
 62
7
  6
CONTINUOUS
 10
159.5604753751
 20
202.94629529
 11
163.6755935681
 21
204.3676727597
  0
LINE
  8
0
 62
7
  6
CONTINUOUS
 10
150.8150912262
 20
206.8773353806
 11
151.5342085668
 21
207.1210868179
  0
LINE
  8
SURFACE
 62
7
  6
CONTINUOUS
 10
227.3139558731
 20
151.0561434414
 11
223.0249134884
 21
150.2998695476
  0
LINE
  8
0
 62
7
  6
CONTINUOUS
 10
33.7930113401
 20
151.0561434414
 11
38.0820537247
 21
150.2998695476
  0
LINE
  8
SURFACE
 62
7
  6
CONTINUOUS
 10
208.2567970439
 20
104.3087129536
 11
204.164240434
 21
105.7982817417
  0
LINE
  8
0
 62
7
  6
CONTINUOUS
 10
40.6627429139
 20
201.0691852201
 11
43.9990256301
 21
198.2697116235
  0
LINE
  8
0
 62
7
  6
CONTINUOUS
 10
100.2783773995
 20
147.5567361266
 11
114.8666490365
 21
132.9684644897
  0
LINE
  8
0
 62
7
  6
CONTINUOUS
 10
92.2593814178
 20
159.1112660143
 11
99.3304492297
 21
152.0401982024
  0
LINE
  8
0
 62
7
  6
CONTINUOUS
 10
119.3501111122
 20
132.0205363199
 11
126.4211789241
 21
124.949468508
  0
LINE
  8
SURFACE
 62
7
  6
CONTINUOUS
 10
168.37909813
 20
73.3528300041
 11
165.5796245334
 21
76.6891127202
  0
LINE
  8
0
 62
7
  6
CONTINUOUS
 10
89.8552187505
 20
192.4886975476
 11
89.6601304771
 21
193.0157614688
  0
LINE
  8
0
 62
7
  6
CONTINUOUS
 10
71.6186258635
 20
240.9468841341
 11
73.1081946515
 21
236.8543275241
  0
LINE
  8
0
 62
7
  6
CONTINUOUS
 10
88.771991133
 20
193.5719251651
 11
88.9214507818
 21
192.7585161203
  0
LINE
  8
0
 62
7
  6
CONTINUOUS
 10
92.7556913087
 20
197.5556253408
 11
92.9051509575
 21
196.742216296
  0
LINE
  8
0
 62
7
  6
CONTINUOUS
 10
95.9475251689
 20
190.8780538269
 11
95.798065478
 21
191.6914629139
  0
LINE
  8
SURFACE
 62
7
  6
CONTINUOUS
 10
118.3660563513
 20
66.4830984302
 11
117.6097824575
 21
70.7721408149
  0
LINE
  8
0
 62
7
  6
CONTINUOUS
 10
103.4086989424
 20
197.8577931903
 11
103.3795987985
 21
198.5508446299
  0
LINE
  8
0
 62
7
  6
CONTINUOUS
 10
110.4541987626
 20
214.0505469277
 11
110.4624628502
 21
214.5402453621
  0
LINE
  8
0
 62
7
  6
CONTINUOUS
 10
151.1272819238
 20
212.1016402615
 11
150.2847718169
 21
211.2591301545
  0
LINE
  8
0
 62
7
  6
CONTINUOUS
 10
151.2827029938
 20
211.4647848447
 11
151.5234201672
 21
211.7055020181
  0
LINE
  8
0
 62
7
  6
CONTINUOUS
 10
150.0379860314
 20
210.0616125624
 11
150.3990617915
 21
210.4226883225
  0
LINE
  8
0
 62
7
  6
CONTINUOUS
 10
152.0490196837
 20
212.8649227155
 11
151.1272819238
 21
212.1016402615
  0
LINE
  8
0
 62
7
  6
CONTINUOUS
 10
151.5234201672
 20
211.7055020181
 11
152.3247993474
 21
212.3484258784
  0
LINE
  8
0
 62
7
  6
CONTINUOUS
 10
155.0094369521
 20
208.2194852333
 11
155.8108158206
 21
208.8624094052
  0
LINE
  8
0
 62
7
  6
CONTINUOUS
 10
155.414677719
 20
209.2585475068
 11
154.7336572104
 21
208.7359821483
  0
LINE
  8
0
 62
7
  6
CONTINUOUS
 10
152.0186772197
 20
208.0809213741
 11
151.5783738846
 21
207.799073189
  0
LINE
  8
0
 62
7
  6
CONTINUOUS
 10
155.8549813912
 20
209.5403960291
 11
155.414677719
 21
209.2585475068
  0
LINE
  8
0
 62
7
  6
CONTINUOUS
 10
155.3813011111
 20
203.9961459625
 11
155.8216046729
 21
204.2779939209
  0
LINE
  8
0
 62
7
  6
CONTINUOUS
 10
154.74141153
 20
203.6731666813
 11
155.3813011111
 21
203.9961459625
  0
LINE
  8
0
 62
7
  6
CONTINUOUS
 10
163.5400638727
 20
201.8553135477
 11
164.0595943295
 21
202.0579346111
  0
LINE
  8
0
 62
7
  6
CONTINUOUS
 10
162.3533340576
 20
197.024113016
 11
161.8338035165
 21
196.8214918682
  0
LINE
  8
0
 62
7
  6
CONTINUOUS
 10
166.585776447
 20
198.0874487788
 11
167.6248386043
 21
198.4926903362
  0
LINE
  8
0
 62
7
  6
CONTINUOUS
 10
164.3033457246
 20
202.7770519096
 11
163.5842284261
 21
202.5333005145
  0
LINE
  8
0
 62
7
  6
CONTINUOUS
 10
161.5900520792
 20
196.1023745276
 11
162.3091694198
 21
196.3461259649
  0
LINE
  8
0
 62
7
  6
CONTINUOUS
 10
78.2651939835
 20
180.1765212604
 11
80.6723658862
 21
177.7693493577
  0
LINE
  8
0
 62
7
  6
CONTINUOUS
 10
81.0873346446
 20
178.1843181161
 11
78.6801627419
 21
180.5914900188
  0
LINE
  8
0
 62
7
  6
CONTINUOUS
 10
80.3400377459
 20
182.2513650228
 11
82.987926822
 21
179.6034759467
  0
LINE
  8
0
 62
7
  6
CONTINUOUS
 10
83.8843301006
 20
179.537010363
 11
80.7550065934
 21
182.6663338702
  0
LINE
  8
0
 62
7
  6
CONTINUOUS
 10
81.5849440508
 20
183.4962713277
 11
85.4364191625
 21
179.6447962159
  0
LINE
  8
0
 62
7
  6
CONTINUOUS
 10
85.85138801
 20
180.0597650634
 11
83.0831401786
 21
182.8280128948
  0
LINE
  8
0
 62
7
  6
CONTINUOUS
 10
82.6017058318
 20
183.3094472416
 11
81.9999128983
 21
183.9112401751
  0
LINE
  8
0
 62
7
  6
CONTINUOUS
 10
85.0584620913
 20
183.8404661139
 11
87.3452755759
 21
181.5536526293
  0
LINE
  8
0
 62
7
  6
CONTINUOUS
 10
88.9214507818
 20
192.7585161203
 11
89.2368973047
 21
192.1110939495
  0
LINE
  8
0
 62
7
  6
CONTINUOUS
 10
98.51602229
 20
195.6130057615
 11
98.711111176
 21
195.0859431273
  0
LINE
  8
0
 62
7
  6
CONTINUOUS
 10
99.5992496968
 20
194.5297783547
 11
99.4497909557
 21
195.3431883915
  0
LINE
  8
0
 62
7
  6
CONTINUOUS
 10
100.0012939882
 20
201.4311869182
 11
100.0760223879
 21
201.0244809711
  0
LINE
  8
0
 62
7
  6
CONTINUOUS
 10
102.5288244776
 20
198.9036564288
 11
102.6035529616
 21
198.4969503974
  0
LINE
  8
SURFACE
 62
7
  6
CONTINUOUS
 10
133.4306952361
 20
246.4830984302
 11
134.434115307
 21
252.1737764361
  0
LINE
  8
SURFACE
 62
7
  6
CONTINUOUS
 10
134.434115307
 20
252.1737764361
 11
134.5948302208
 21
252.9470678437
  0
LINE
  8
0
 62
7
  6
CONTINUOUS
 10
89.4491063722
 20
84.2874375124
 11
89.2016438665
 21
83.537390052
  0
LINE
  8
0
 62
7
  6
CONTINUOUS
 10
91.425458103
 20
89.7174192657
 11
89.4491063722
 21
84.2874375124
  0
LINE
  8
0
 62
7
  6
CONTINUOUS
 10
149.756137903
 20
209.6213091706
 11
150.0379860314
 21
210.0616125624
  0
LINE
  8
0
 62
7
  6
CONTINUOUS
 10
153.6504299301
 20
207.6527548679
 11
153.127864403
 21
206.9717341908
  0
LINE
  8
0
 62
7
  6
CONTINUOUS
 10
153.5240025046
 20
206.5755960892
 11
154.1669268451
 21
207.3769751263
  0
LINE
  8
0
 62
7
  6
CONTINUOUS
 10
150.2847718169
 20
211.2591301545
 11
149.5214891943
 21
210.3373922261
  0
LINE
  8
SURFACE
 62
7
  6
CONTINUOUS
 10
174.6649858365
 20
233.8925104982
 11
178.3793121116
 21
238.3190721806
  0
LINE
  8
SURFACE
 62
7
  6
CONTINUOUS
 10
178.3793121116
 20
238.3190721806
 11
178.9051410135
 21
238.9084047272
  0
LINE
  8
0
 62
7
  6
CONTINUOUS
 10
152.3797529798
 20
208.4419971342
 11
152.0186772197
 21
208.0809213741
  0
LINE
  8
0
 62
7
  6
CONTINUOUS
 10
152.2944569613
 20
207.5644244591
 11
152.8962500634
 21
208.1662175612
  0
LINE
  8
0
 62
7
  6
CONTINUOUS
 10
154.7336572104
 20
208.7359821483
 11
153.6504299301
 21
207.6527548679
  0
LINE
  8
0
 62
7
  6
CONTINUOUS
 10
154.1669268451
 20
207.3769751263
 11
155.0094369521
 21
208.2194852333
  0
LINE
  8
0
 62
7
  6
CONTINUOUS
 10
157.0693557153
 20
206.15956647
 11
156.2268456084
 21
205.317056363
  0
LINE
  8
0
 62
7
  6
CONTINUOUS
 10
156.5026251233
 20
204.8005596747
 11
157.5858524037
 21
205.883786955
  0
LINE
  8
0
 62
7
  6
CONTINUOUS
 10
55.4779821227
 20
115.4177421917
 11
54.8886495761
 21
114.8919132898
  0
LINE
  8
0
 62
7
  6
CONTINUOUS
 10
59.9045438051
 20
119.1320684667
 11
55.4779821227
 21
115.4177421917
  0
LINE
  8
0
 62
7
  6
CONTINUOUS
 10
162.8239804588
 20
202.0899619404
 11
161.9022420968
 21
201.3266800885
  0
LINE
  8
0
 62
7
  6
CONTINUOUS
 10
156.2268456084
 20
205.317056363
 11
155.4254661179
 21
204.6741324759
  0
LINE
  8
0
 62
7
  6
CONTINUOUS
 10
162.2983806518
 20
200.9305415335
 11
163.0997595204
 21
201.5734657054
  0
LINE
  8
0
 62
7
  6
CONTINUOUS
 10
155.8216046729
 20
204.2779939209
 11
156.5026251233
 21
204.8005596747
  0
LINE
  8
0
 62
7
  6
CONTINUOUS
 10
163.0997595204
 20
201.5734657054
 11
163.5400638727
 21
201.8553135477
  0
LINE
  8
0
 62
7
  6
CONTINUOUS
 10
161.1740219645
 20
199.6477281495
 11
161.6143261482
 21
199.9295758232
  0
LINE
  8
0
 62
7
  6
CONTINUOUS
 10
162.7936380727
 20
197.3059605211
 11
162.3533340576
 21
197.024113016
  0
LINE
  8
0
 62
7
  6
CONTINUOUS
 10
166.6299422443
 20
198.7654351761
 11
166.189637892
 21
198.4835873338
  0
LINE
  8
0
 62
7
  6
CONTINUOUS
 10
163.5842284261
 20
202.5333005145
 11
162.8239804588
 21
202.0899619404
  0
LINE
  8
0
 62
7
  6
CONTINUOUS
 10
162.3091694198
 20
196.3461259649
 11
163.0694171343
 21
196.7894642861
  0
LINE
  8
0
 62
7
  6
CONTINUOUS
 10
167.2698312877
 20
199.0884148263
 11
166.6299422443
 21
198.7654351761
  0
LINE
  8
0
 62
7
  6
CONTINUOUS
 10
165.5163712497
 20
192.8982069617
 11
166.1562621908
 21
193.2211848828
  0
LINE
  8
0
 62
7
  6
CONTINUOUS
 10
166.2004267442
 20
193.8991718496
 11
165.161363933
 21
193.4939314517
  0
LINE
  8
SURFACE
 62
7
  6
CONTINUOUS
 10
204.0796350375
 20
202.3715962002
 11
209.5096167909
 21
204.3479479311
  0
LINE
  8
0
 62
7
  6
CONTINUOUS
 10
219.4836893459
 20
167.1242023972
 11
220.2569807535
 21
167.284917311
  0
LINE
  8
0
 62
7
  6
CONTINUOUS
 10
213.7930113401
 20
166.1207823262
 11
219.4836893459
 21
167.1242023972
  0
LINE
  8
SURFACE
 62
7
  6
CONTINUOUS
 10
47.3139558731
 20
166.1207823262
 11
41.6232778672
 21
167.1242023972
  0
LINE
  8
0
 62
7
  6
CONTINUOUS
 10
209.5096167909
 20
122.1391934624
 11
210.2596642513
 21
121.8917309567
  0
LINE
  8
0
 62
7
  6
CONTINUOUS
 10
204.0796350375
 20
124.1155451932
 11
209.5096167909
 21
122.1391934624
  0
LINE
  8
0
 62
7
  6
CONTINUOUS
 10
81.2367940735
 20
177.3709086827
 11
81.560505003
 21
177.2131852655
  0
LINE
  8
0
 62
7
  6
CONTINUOUS
 10
83.5897198398
 20
179.0016829289
 11
84.3575004441
 21
178.5658774975
  0
LINE
  8
0
 62
7
  6
CONTINUOUS
 10
81.5314041683
 20
177.9062361196
 11
81.0873346446
 21
178.1843181161
  0
LINE
  8
0
 62
7
  6
CONTINUOUS
 10
80.6723658862
 20
177.7693493577
 11
81.2367940735
 21
177.3709086827
  0
LINE
  8
0
 62
7
  6
CONTINUOUS
 10
84.4487581851
 20
179.1385696275
 11
83.8843301006
 21
179.537010363
  0
LINE
  8
0
 62
7
  6
CONTINUOUS
 10
84.3736752458
 20
184.3592651354
 11
85.0584620913
 21
183.8404661139
  0
LINE
  8
0
 62
7
  6
CONTINUOUS
 10
85.4734307013
 20
184.2554347239
 11
84.7886443307
 21
184.7742342203
  0
LINE
  8
SURFACE
 62
7
  6
CONTINUOUS
 10
59.9045438051
 20
207.3550729267
 11
55.4779821227
 21
211.0693992018
  0
LINE
  8
SURFACE
 62
7
  6
CONTINUOUS
 10
55.4779821227
 20
211.0693992018
 11
54.8886495761
 21
211.5952281037
  0
LINE
  8
0
 62
7
  6
CONTINUOUS
 10
87.7602441859
 20
181.9686212393
 11
85.4734307013
 21
184.2554347239
  0
LINE
  8
0
 62
7
  6
CONTINUOUS
 10
82.7673402823
 20
188.2894258347
 11
83.3691332158
 21
187.6876329011
  0
LINE
  8
0
 62
7
  6
CONTINUOUS
 10
84.57271942
 20
186.4840466969
 11
88.4241945318
 21
182.6325715852
  0
LINE
  8
0
 62
7
  6
CONTINUOUS
 10
88.8391631418
 20
183.0475401952
 11
84.98768803
 21
186.8990153069
  0
LINE
  8
0
 62
7
  6
CONTINUOUS
 10
83.7841018258
 20
188.1026015111
 11
83.1823088923
 21
188.7043944447
  0
LINE
  8
0
 62
7
  6
CONTINUOUS
 10
89.7556971383
 20
191.4263072418
 11
91.5610761075
 21
189.6209282726
  0
LINE
  8
0
 62
7
  6
CONTINUOUS
 10
92.0590386294
 20
190.1188907946
 11
90.2536596603
 21
191.9242697637
  0
LINE
  8
0
 62
7
  6
CONTINUOUS
 10
178.3793121116
 20
88.1680692129
 11
178.9051410135
 21
87.5787366663
  0
LINE
  8
0
 62
7
  6
CONTINUOUS
 10
174.6649858365
 20
92.5946308953
 11
178.3793121116
 21
88.1680692129
  0
LINE
  8
0
 62
7
  6
CONTINUOUS
 10
89.2368973047
 20
192.1110939495
 11
89.7556971383
 21
191.4263072418
  0
LINE
  8
0
 62
7
  6
CONTINUOUS
 10
95.798065478
 20
191.6914629139
 11
95.2792668471
 21
192.3762503185
  0
LINE
  8
0
 62
7
  6
CONTINUOUS
 10
90.2536596603
 20
191.9242697637
 11
89.8552187505
 21
192.4886975476
  0
LINE
  8
0
 62
7
  6
CONTINUOUS
 10
92.9051509575
 20
196.742216296
 11
93.3035909174
 21
196.1777875623
  0
LINE
  8
0
 62
7
  6
CONTINUOUS
 10
94.7813043251
 20
191.8782877966
 11
95.0593856984
 21
191.4342176496
  0
LINE
  8
0
 62
7
  6
CONTINUOUS
 10
93.9219133131
 20
196.5553921102
 11
93.6438297031
 21
196.9994606947
  0
LINE
  8
0
 62
7
  6
CONTINUOUS
 10
99.4497909557
 20
195.3431883915
 11
99.1343433987
 21
195.9906096968
  0
LINE
  8
SURFACE
 62
7
  6
CONTINUOUS
 10
91.425458103
 20
236.7697221277
 11
89.4491063722
 21
242.199703881
  0
LINE
  8
0
 62
7
  6
CONTINUOUS
 10
100.8520681827
 20
201.0783752457
 11
100.6196150969
 21
201.8087908535
  0
LINE
  8
0
 62
7
  6
CONTINUOUS
 10
103.3795987985
 20
198.5508446299
 11
103.1471456705
 21
199.2812602798
  0
LINE
  8
0
 62
7
  6
CONTINUOUS
 10
107.6654668553
 20
213.1875524077
 11
108.0100144403
 21
211.8470797788
  0
LINE
  8
0
 62
7
  6
CONTINUOUS
 10
108.9728834711
 20
210.884210748
 11
108.6283355489
 21
212.224683714
  0
LINE
  8
0
 62
7
  6
CONTINUOUS
 10
134.434115307
 20
74.3133649573
 11
134.5948302208
 21
73.5400735498
  0
LINE
  8
0
 62
7
  6
CONTINUOUS
 10
108.6164693246
 20
204.269149587
 11
107.3460631446
 21
211.1831284831
  0
LINE
  8
0
 62
7
  6
CONTINUOUS
 10
109.6864170554
 20
214.4863510876
 11
109.835877654
 21
213.6729429925
  0
LINE
  8
0
 62
7
  6
CONTINUOUS
 10
133.4306952361
 20
80.0040429632
 11
134.434115307
 21
74.3133649573
  0
LINE
  8
0
 62
7
  6
CONTINUOUS
 10
106.6903778361
 20
211.0088775214
 11
107.8777896292
 21
204.0119042384
  0
LINE
  8
0
 62
7
  6
CONTINUOUS
 10
113.1972989206
 20
214.6271918507
 11
113.882440005
 21
209.294403094
  0
LINE
  8
0
 62
7
  6
CONTINUOUS
 10
114.5463913007
 20
209.9583543897
 11
113.9733447154
 21
214.6810861252
  0
LINE
  8
DEFAULT_1
 62
2
  6
CENTER
 10
130.5534836066
 20
260.525102459
 11
130.5534836066
 21
165.2436706967
  0
LINE
  8
0
 62
2
  6
CONTINUOUS
 10
130.5534836066
 20
164.2935706967
 11
130.5534836066
 21
162.1935706967
  0
LINE
  8
DEFAULT_1
 62
2
  6
CENTER
 10
130.5534836066
 20
73.8488729508
 11
130.5534836066
 21
161.2434706967
  0
LINE
  8
0
 62
7
  6
CONTINUOUS
 10
149.5535173785
 20
209.1017780062
 11
149.756137903
 21
209.6213091706
  0
LINE
  8
0
 62
7
  6
CONTINUOUS
 10
152.8460162179
 20
206.5314308557
 11
152.5230371634
 21
205.8915410479
  0
LINE
  8
0
 62
7
  6
CONTINUOUS
 10
149.5214891943
 20
210.3373922261
 11
149.0781514752
 21
209.5771439095
  0
LINE
  8
0
 62
7
  6
CONTINUOUS
 10
152.8962500634
 20
208.1662175612
 11
153.3395876203
 21
208.9264658714
  0
LINE
  8
0
 62
7
  6
CONTINUOUS
 10
152.6616013335
 20
208.8823006379
 11
152.3797529798
 21
208.4419971342
  0
LINE
  8
0
 62
7
  6
CONTINUOUS
 10
154.9042495846
 20
210.4911278357
 11
155.1860977697
 21
210.9314311709
  0
LINE
  8
0
 62
7
  6
CONTINUOUS
 10
153.127864403
 20
206.9717341908
 11
152.8460162179
 21
206.5314308557
  0
LINE
  8
0
 62
7
  6
CONTINUOUS
 10
158.1084179889
 20
206.5648072369
 11
158.3902662845
 21
207.0051111358
  0
LINE
  8
0
 62
7
  6
CONTINUOUS
 10
157.5858524037
 20
205.883786955
 11
158.1084179889
 21
206.5648072369
  0
LINE
  8
0
 62
7
  6
CONTINUOUS
 10
157.7122794339
 20
206.9609457919
 11
157.0693557153
 21
206.15956647
  0
LINE
  8
0
 62
7
  6
CONTINUOUS
 10
161.0597319899
 20
200.4841699815
 11
160.2964499694
 21
199.562431451
  0
LINE
  8
0
 62
7
  6
CONTINUOUS
 10
161.9022420968
 20
201.3266800885
 11
161.0597319899
 21
200.4841699815
  0
LINE
  8
0
 62
7
  6
CONTINUOUS
 10
162.0576634784
 20
200.6898243601
 11
162.2983806518
 21
200.9305415335
  0
LINE
  8
0
 62
7
  6
CONTINUOUS
 10
160.8129462044
 20
199.2866523894
 11
161.1740219645
 21
199.6477281495
  0
LINE
  8
0
 62
7
  6
CONTINUOUS
 10
163.1547138328
 20
197.6670362812
 11
162.7936380727
 21
197.3059605211
  0
LINE
  8
0
 62
7
  6
CONTINUOUS
 10
163.0694171343
 20
196.7894642861
 11
163.6712102364
 21
197.3912573882
  0
LINE
  8
0
 62
7
  6
CONTINUOUS
 10
165.5086176101
 20
197.9610217486
 11
164.4253903298
 21
196.8777944683
  0
LINE
  8
0
 62
7
  6
CONTINUOUS
 10
164.9418874715
 20
196.6020145
 11
165.7843975784
 21
197.4445246069
  0
LINE
  8
0
 62
7
  6
CONTINUOUS
 10
165.7843975784
 20
197.4445246069
 11
166.585776447
 21
198.0874487788
  0
LINE
  8
0
 62
7
  6
CONTINUOUS
 10
167.0018066881
 20
194.5420952834
 11
166.2004267442
 21
193.8991718496
  0
LINE
  8
0
 62
7
  6
CONTINUOUS
 10
166.189637892
 20
198.4835873338
 11
165.5086176101
 21
197.9610217486
  0
LINE
  8
0
 62
7
  6
CONTINUOUS
 10
166.5965643925
 20
193.5030342013
 11
167.2775857497
 21
194.0255990484
  0
LINE
  8
0
 62
7
  6
CONTINUOUS
 10
166.1562621908
 20
193.2211848828
 11
166.5965643925
 21
193.5030342013
  0
LINE
  8
0
 62
7
  6
CONTINUOUS
 10
174.3531198184
 20
190.8015397541
 11
174.7934241708
 21
191.0833875964
  0
LINE
  8
0
 62
7
  6
CONTINUOUS
 10
178.0447914607
 20
188.3134546533
 11
177.4049024173
 21
187.9904750031
  0
LINE
  8
0
 62
7
  6
CONTINUOUS
 10
173.0429992611
 20
185.3715789502
 11
173.6828883889
 21
185.6945586847
  0
LINE
  8
0
 62
7
  6
CONTINUOUS
 10
173.3278810723
 20
186.2902831747
 11
172.8083506155
 21
186.0876621112
  0
LINE
  8
0
 62
7
  6
CONTINUOUS
 10
177.7599093967
 20
187.3947501759
 11
178.2794401906
 21
187.5973715765
  0
LINE
  8
0
 62
7
  6
CONTINUOUS
 10
177.0515800438
 20
182.5665842032
 11
176.532049587
 21
182.3639631397
  0
LINE
  8
DEFAULT_1
 62
2
  6
CENTER
 10
222.5628842213
 20
163.2435706967
 11
132.5535836066
 21
163.2435706967
  0
LINE
  8
0
 62
2
  6
CONTINUOUS
 10
131.6034836066
 20
163.2435706967
 11
129.5034836066
 21
163.2435706967
  0
LINE
  8
DEFAULT_1
 62
2
  6
CENTER
 10
37.823130123
 20
163.2435706967
 11
128.5533836066
 21
163.2435706967
  0
LINE
  8
0
 62
7
  6
CONTINUOUS
 10
82.0584675398
 20
177.7111478023
 11
81.5314041683
 21
177.9062361196
  0
LINE
  8
0
 62
7
  6
CONTINUOUS
 10
84.7724692916
 20
178.980846345
 11
84.4487581851
 21
179.1385696275
  0
LINE
  8
0
 62
7
  6
CONTINUOUS
 10
84.7886443307
 20
184.7742342203
 11
84.3445746587
 21
185.0523160685
  0
LINE
  8
0
 62
7
  6
CONTINUOUS
 10
92.6234664133
 20
189.7204498848
 11
92.0590386294
 21
190.1188907946
  0
LINE
  8
0
 62
7
  6
CONTINUOUS
 10
91.5610761075
 20
189.6209282726
 11
92.2458624781
 21
189.1021287762
  0
LINE
  8
0
 62
7
  6
CONTINUOUS
 10
93.3035909174
 20
196.1777875623
 11
93.7850256014
 21
195.6963528783
  0
LINE
  8
0
 62
7
  6
CONTINUOUS
 10
94.1626304865
 20
196.3146749368
 11
93.9219133131
 21
196.5553921102
  0
LINE
  8
0
 62
7
  6
CONTINUOUS
 10
98.1549465299
 20
195.9740815216
 11
98.51602229
 21
195.6130057615
  0
LINE
  8
0
 62
7
  6
CONTINUOUS
 10
99.1343433987
 20
195.9906096968
 11
98.5325504652
 21
196.5924026303
  0
LINE
  8
0
 62
7
  6
CONTINUOUS
 10
99.7232107153
 20
201.8752551656
 11
100.0012939882
 21
201.4311869182
  0
LINE
  8
0
 62
7
  6
CONTINUOUS
 10
100.6196150969
 20
201.8087908535
 11
100.341531824
 21
202.2528591009
  0
LINE
  8
0
 62
7
  6
CONTINUOUS
 10
102.2507412047
 20
199.3477246762
 11
102.5288244776
 21
198.9036564288
  0
LINE
  8
0
 62
7
  6
CONTINUOUS
 10
103.1471456705
 20
199.2812602798
 11
102.8690623134
 21
199.7253286115
  0
LINE
  8
0
 62
7
  6
CONTINUOUS
 10
110.6492857491
 20
213.5234823939
 11
110.4541987626
 21
214.0505469277
  0
LINE
  8
0
 62
7
  6
CONTINUOUS
 10
149.0781514752
 20
209.5771439095
 11
148.8344000379
 21
208.8580265689
  0
LINE
  8
0
 62
7
  6
CONTINUOUS
 10
155.1860977697
 20
210.9314311709
 11
155.4298491649
 21
211.6505484693
  0
LINE
  8
0
 62
7
  6
CONTINUOUS
 10
154.7107318664
 20
211.4067970742
 11
154.508111483
 21
210.8872659374
  0
LINE
  8
0
 62
7
  6
CONTINUOUS
 10
153.1187616534
 20
205.5365337313
 11
153.5240025046
 21
206.5755960892
  0
LINE
  8
0
 62
7
  6
CONTINUOUS
 10
158.1175209913
 20
208.0000079493
 11
157.7122794339
 21
206.9609457919
  0
LINE
  8
0
 62
7
  6
CONTINUOUS
 10
158.3902662845
 20
207.0051111358
 11
158.7132454813
 21
207.6450006327
  0
LINE
  8
0
 62
7
  6
CONTINUOUS
 10
160.2964499694
 20
199.562431451
 11
159.8531116482
 21
198.8021837365
  0
LINE
  8
0
 62
7
  6
CONTINUOUS
 10
160.5310986993
 20
198.8463483743
 11
160.8129462044
 21
199.2866523894
  0
LINE
  8
0
 62
7
  6
CONTINUOUS
 10
163.4365615065
 20
198.1073404649
 11
163.1547138328
 21
197.6670362812
  0
LINE
  8
0
 62
7
  6
CONTINUOUS
 10
165.6792104376
 20
199.7161669827
 11
165.9610579427
 21
200.1564709979
  0
LINE
  8
0
 62
7
  6
CONTINUOUS
 10
163.902824576
 20
196.1967740178
 11
163.6209770709
 21
195.7564700027
  0
LINE
  8
0
 62
7
  6
CONTINUOUS
 10
164.4253903298
 20
196.8777944683
 11
163.902824576
 21
196.1967740178
  0
LINE
  8
0
 62
7
  6
CONTINUOUS
 10
164.298963131
 20
195.8006354628
 11
164.9418874715
 21
196.6020145
  0
LINE
  8
0
 62
7
  6
CONTINUOUS
 10
168.4872400602
 20
196.1859851655
 11
167.844316795
 21
195.3846053903
  0
LINE
  8
0
 62
7
  6
CONTINUOUS
 10
167.844316795
 20
195.3846053903
 11
167.0018066881
 21
194.5420952834
  0
LINE
  8
0
 62
7
  6
CONTINUOUS
 10
167.2775857497
 20
194.0255990484
 11
168.36081303
 21
195.1088263287
  0
LINE
  8
0
 62
7
  6
CONTINUOUS
 10
177.4049024173
 20
187.9904750031
 11
176.7238808915
 21
187.4679099874
  0
LINE
  8
0
 62
7
  6
CONTINUOUS
 10
174.5587754408
 20
191.7994706732
 11
173.998112839
 21
191.3972645813
  0
LINE
  8
0
 62
7
  6
CONTINUOUS
 10
177.1992467949
 20
186.9925440841
 11
177.7599093967
 21
187.3947501759
  0
LINE
  8
0
 62
7
  6
CONTINUOUS
 10
176.7666982327
 20
181.6478799787
 11
177.4065873604
 21
181.9708597131
  0
LINE
  8
0
 62
7
  6
CONTINUOUS
 10
176.3675263626
 20
181.5656175019
 11
176.7666982327
 21
181.6478799787
  0
LINE
  8
0
 62
7
  6
CONTINUOUS
 10
81.560505003
 20
177.2131852655
 11
82.1705620514
 21
177.1010907093
  0
LINE
  8
0
 62
7
  6
CONTINUOUS
 10
92.2458624781
 20
189.1021287762
 11
92.8932847331
 21
188.786682169
  0
LINE
  8
0
 62
7
  6
CONTINUOUS
 10
91.5689861781
 20
194.9246171698
 11
92.0130566623
 21
194.6465354594
  0
LINE
  8
0
 62
7
  6
CONTINUOUS
 10
96.7648903254
 20
193.38043945
 11
96.3208201784
 21
193.6585208233
  0
LINE
  8
0
 62
7
  6
CONTINUOUS
 10
94.6066987339
 20
196.0365916639
 11
94.1626304865
 21
196.3146749368
  0
LINE
  8
0
 62
7
  6
CONTINUOUS
 10
95.8228576564
 20
193.1605583013
 11
96.3872863901
 21
192.7621183414
  0
LINE
  8
0
 62
7
  6
CONTINUOUS
 10
93.7850256014
 20
195.6963528783
 11
94.3494543351
 21
195.2979129183
  0
LINE
  8
0
 62
7
  6
CONTINUOUS
 10
92.5110191842
 20
195.1444979814
 11
91.8262315267
 21
195.6632968652
  0
LINE
  8
0
 62
7
  6
CONTINUOUS
 10
95.4653850672
 20
200.9874706196
 11
101.1222393167
 21
195.3306163701
  0
LINE
  8
0
 62
7
  6
CONTINUOUS
 10
100.8980502341
 20
196.5507304966
 11
99.0926711807
 21
198.35610955
  0
LINE
  8
0
 62
7
  6
CONTINUOUS
 10
98.3705196604
 20
199.0782610703
 11
96.6854991094
 21
200.7632816213
  0
LINE
  8
0
 62
7
  6
CONTINUOUS
 10
99.4824935419
 20
202.115972339
 11
99.7232107153
 21
201.8752551656
  0
LINE
  8
0
 62
7
  6
CONTINUOUS
 10
101.8896654446
 20
199.7088004363
 11
102.2507412047
 21
199.3477246762
  0
LINE
  8
0
 62
7
  6
CONTINUOUS
 10
102.8690623134
 20
199.7253286115
 11
102.2672693799
 21
200.327121545
  0
LINE
  8
0
 62
7
  6
CONTINUOUS
 10
100.341531824
 20
202.2528591009
 11
99.86009714
 21
202.7342937849
  0
LINE
  8
0
 62
7
  6
CONTINUOUS
 10
112.8818533475
 20
215.2746149712
 11
113.1972989206
 21
214.6271918507
  0
LINE
  8
0
 62
7
  6
CONTINUOUS
 10
113.9733447154
 20
214.6810861252
 11
113.778257729
 21
215.2081506591
  0
LINE
  8
0
 62
7
  6
CONTINUOUS
 10
149.5504831568
 20
208.6233778811
 11
149.5535173785
 21
209.1017780062
  0
LINE
  8
SURFACE
 62
7
  6
CONTINUOUS
 10
127.676271977
 20
80.0040429632
 11
126.6728519061
 21
74.3133649573
  0
LINE
  8
0
 62
7
  6
CONTINUOUS
 10
152.7438631302
 20
209.281473188
 11
152.6616013335
 21
208.8823006379
  0
LINE
  8
0
 62
7
  6
CONTINUOUS
 10
152.5230371634
 20
205.8915410479
 11
152.3996443128
 21
205.292782294
  0
LINE
  8
0
 62
7
  6
CONTINUOUS
 10
153.3395876203
 20
208.9264658714
 11
153.4629804287
 21
209.5252245832
  0
LINE
  8
0
 62
7
  6
CONTINUOUS
 10
158.7132454813
 20
207.6450006327
 11
158.8366382898
 21
208.2437593444
  0
LINE
  8
SURFACE
 62
7
  6
CONTINUOUS
 10
126.6728519061
 20
74.3133649573
 11
126.5121369923
 21
73.5400735498
  0
LINE
  8
0
 62
7
  6
CONTINUOUS
 10
171.6578608409
 20
242.199703881
 11
171.9053233466
 21
242.9497513414
  0
LINE
  8
0
 62
7
  6
CONTINUOUS
 10
159.8531116482
 20
198.8021837365
 11
159.6093602109
 21
198.0830663959
  0
LINE
  8
0
 62
7
  6
CONTINUOUS
 10
160.5064873949
 20
207.536778933
 11
159.0851094718
 21
203.4216611933
  0
LINE
  8
0
 62
7
  6
CONTINUOUS
 10
158.7209994899
 20
202.5821853081
 11
157.5433734153
 21
199.1861844135
  0
LINE
  8
0
 62
7
  6
CONTINUOUS
 10
159.8042267703
 20
203.6654125884
 11
160.9818532982
 21
207.0614130296
  0
LINE
  8
0
 62
7
  6
CONTINUOUS
 10
169.6815091101
 20
236.7697221277
 11
171.6578608409
 21
242.199703881
  0
LINE
  8
0
 62
7
  6
CONTINUOUS
 10
158.0187393187
 20
198.7108185102
 11
159.5604753751
 21
202.94629529
  0
LINE
  8
0
 62
7
  6
CONTINUOUS
 10
160.3284775515
 20
198.3268178332
 11
160.5310986993
 21
198.8463483743
  0
LINE
  8
0
 62
7
  6
CONTINUOUS
 10
165.4856920394
 20
200.6318369012
 11
165.2830718826
 21
200.1123055377
  0
LINE
  8
0
 62
7
  6
CONTINUOUS
 10
163.8937218264
 20
194.7615735583
 11
164.298963131
 21
195.8006354628
  0
LINE
  8
0
 62
7
  6
CONTINUOUS
 10
163.6209770709
 20
195.7564700027
 11
163.2979973364
 21
195.1165808749
  0
LINE
  8
0
 62
7
  6
CONTINUOUS
 10
169.1652273642
 20
196.2301500562
 11
169.488205201
 21
196.870040913
  0
LINE
  8
0
 62
7
  6
CONTINUOUS
 10
163.6712102364
 20
197.3912573882
 11
164.1145484733
 21
198.1515050184
  0
LINE
  8
0
 62
7
  6
CONTINUOUS
 10
168.8833777085
 20
195.7898475172
 11
169.1652273642
 21
196.2301500562
  0
LINE
  8
0
 62
7
  6
CONTINUOUS
 10
170.9921818874
 20
188.866699533
 11
170.5899757956
 21
188.3060369312
  0
LINE
  8
0
 62
7
  6
CONTINUOUS
 10
173.516678155
 20
190.9158298973
 11
173.1144720632
 21
190.3551672955
  0
LINE
  8
0
 62
7
  6
CONTINUOUS
 10
168.36081303
 20
195.1088263287
 11
168.8833777085
 21
195.7898475172
  0
LINE
  8
SURFACE
 62
7
  6
CONTINUOUS
 10
86.4419813766
 20
92.5946308953
 11
82.7276551015
 21
88.1680692129
  0
LINE
  8
SURFACE
 62
7
  6
CONTINUOUS
 10
82.7276551015
 20
88.1680692129
 11
82.2018261996
 21
87.5787366663
  0
LINE
  8
0
 62
7
  6
CONTINUOUS
 10
173.998112839
 20
191.3972645813
 11
173.516678155
 21
190.9158298973
  0
LINE
  8
0
 62
7
  6
CONTINUOUS
 10
174.112402645
 20
190.5608225807
 11
174.3531198184
 21
190.8015397541
  0
LINE
  8
0
 62
7
  6
CONTINUOUS
 10
173.6889568324
 20
186.6513589348
 11
173.3278810723
 21
186.2902831747
  0
LINE
  8
0
 62
7
  6
CONTINUOUS
 10
173.6828883889
 20
185.6945586847
 11
174.2846813224
 21
186.2963516182
  0
LINE
  8
0
 62
7
  6
CONTINUOUS
 10
176.7238808915
 20
187.4679099874
 11
174.9185019224
 21
185.6625310182
  0
LINE
  8
0
 62
7
  6
CONTINUOUS
 10
175.3938678257
 20
185.1871651149
 11
177.1992467949
 21
186.9925440841
  0
LINE
  8
0
 62
7
  6
CONTINUOUS
 10
179.4176216148
 20
184.7741692641
 11
177.6122426456
 21
182.968790295
  0
LINE
  8
0
 62
7
  6
CONTINUOUS
 10
205.6289850904
 20
211.0693992018
 11
206.218317637
 21
211.5952281037
  0
LINE
  8
0
 62
7
  6
CONTINUOUS
 10
201.202423408
 20
207.3550729267
 11
205.6289850904
 21
211.0693992018
  0
LINE
  8
0
 62
7
  6
CONTINUOUS
 10
177.4065873604
 20
181.9708597131
 11
178.087608549
 21
182.4934243917
  0
LINE
  8
0
 62
7
  6
CONTINUOUS
 10
177.6122426456
 20
182.968790295
 11
177.0515800438
 21
182.5665842032
  0
LINE
  8
SURFACE
 62
7
  6
CONTINUOUS
 10
57.0273321756
 20
124.1155451932
 11
51.5973504222
 21
122.1391934624
  0
LINE
  8
0
 62
7
  6
CONTINUOUS
 10
41.6232778672
 20
159.3629389962
 11
40.8499864596
 21
159.2022240824
  0
LINE
  8
0
 62
7
  6
CONTINUOUS
 10
172.2446536655
 20
185.2070557679
 11
173.0429992611
 21
185.3715789502
  0
LINE
  8
0
 62
7
  6
CONTINUOUS
 10
178.8431370142
 20
188.4779777934
 11
178.0447914607
 21
188.3134546533
  0
LINE
  8
0
 62
7
  6
CONTINUOUS
 10
175.3571209943
 20
191.9639938133
 11
174.5587754408
 21
191.7994706732
  0
LINE
  8
0
 62
7
  6
CONTINUOUS
 10
47.3139558731
 20
160.3663590672
 11
41.6232778672
 21
159.3629389962
  0
LINE
  8
0
 62
7
  6
CONTINUOUS
 10
82.1705620514
 20
177.1010907093
 11
82.6602605471
 21
177.109354795
  0
LINE
  8
SURFACE
 62
7
  6
CONTINUOUS
 10
213.7930113401
 20
160.3663590672
 11
219.4836893459
 21
159.3629389962
  0
LINE
  8
0
 62
7
  6
CONTINUOUS
 10
83.9669707234
 20
184.4339949598
 11
84.3736752458
 21
184.3592651354
  0
LINE
  8
0
 62
7
  6
CONTINUOUS
 10
84.3445746587
 20
185.0523160685
 11
83.9378701362
 21
185.1270458929
  0
LINE
  8
0
 62
7
  6
CONTINUOUS
 10
92.8932847331
 20
188.786682169
 11
93.7066938201
 21
188.637222478
  0
LINE
  8
SURFACE
 62
7
  6
CONTINUOUS
 10
219.4836893459
 20
159.3629389962
 11
220.2569807535
 21
159.2022240824
  0
LINE
  8
0
 62
7
  6
CONTINUOUS
 10
51.5973504222
 20
204.3479479311
 11
50.8473029618
 21
204.5954104367
  0
LINE
  8
0
 62
7
  6
CONTINUOUS
 10
57.0273321756
 20
202.3715962002
 11
51.5973504222
 21
204.3479479311
  0
LINE
  8
0
 62
7
  6
CONTINUOUS
 10
93.1505299974
 20
189.5253619486
 11
92.6234664133
 21
189.7204498848
  0
LINE
  8
0
 62
7
  6
CONTINUOUS
 10
97.6278837271
 20
196.1691705762
 11
98.1549465299
 21
195.9740815216
  0
LINE
  8
0
 62
7
  6
CONTINUOUS
 10
96.3872863901
 20
192.7621183414
 11
97.2380607111
 21
192.4093065424
  0
LINE
  8
0
 62
7
  6
CONTINUOUS
 10
98.5325504652
 20
196.5924026303
 11
97.8851290756
 21
196.9078502716
  0
LINE
  8
0
 62
7
  6
CONTINUOUS
 10
95.0547247817
 20
198.4103557734
 11
95.3784344424
 21
198.2526310872
  0
LINE
  8
0
 62
7
  6
CONTINUOUS
 10
95.8763969643
 20
198.7505936092
 11
95.4323287169
 21
199.028676882
  0
LINE
  8
0
 62
7
  6
CONTINUOUS
 10
101.4455970286
 20
199.9868838778
 11
101.8896654446
 21
199.7088004363
  0
LINE
  8
0
 62
7
  6
CONTINUOUS
 10
102.2672693799
 20
200.327121545
 11
101.8232009639
 21
200.6052049864
  0
LINE
  8
0
 62
7
  6
CONTINUOUS
 10
99.0384249574
 20
202.3940559491
 11
99.4824935419
 21
202.115972339
  0
LINE
  8
0
 62
7
  6
CONTINUOUS
 10
99.86009714
 20
202.7342937849
 11
99.4160288926
 21
203.0123770577
  0
LINE
  8
SURFACE
 62
7
  6
CONTINUOUS
 10
201.202423408
 20
119.1320684667
 11
205.6289850904
 21
115.4177421917
  0
LINE
  8
SURFACE
 62
7
  6
CONTINUOUS
 10
205.6289850904
 20
115.4177421917
 11
206.218317637
 21
114.8919132898
  0
LINE
  8
0
 62
7
  6
CONTINUOUS
 10
103.1838041576
 20
208.70588971
 11
103.7855970912
 21
208.1040967765
  0
LINE
  8
0
 62
7
  6
CONTINUOUS
 10
107.8777896292
 20
204.0119042384
 11
108.8406584071
 21
203.0490354605
  0
LINE
  8
0
 62
7
  6
CONTINUOUS
 10
112.1604072871
 20
206.3687843405
 11
111.4382556826
 21
207.0909359451
  0
LINE
  8
0
 62
7
  6
CONTINUOUS
 10
107.3460631446
 20
211.1831284831
 11
106.5035530377
 21
212.02563859
  0
LINE
  8
0
 62
7
  6
CONTINUOUS
 10
108.0100144403
 20
211.8470797788
 11
108.9728834711
 21
210.884210748
  0
LINE
  8
0
 62
7
  6
CONTINUOUS
 10
108.6283355489
 20
212.224683714
 11
113.3223211048
 21
207.5306981582
  0
LINE
  8
0
 62
7
  6
CONTINUOUS
 10
82.7276551015
 20
238.3190721806
 11
82.2018261996
 21
238.9084047272
  0
LINE
  8
0
 62
7
  6
CONTINUOUS
 10
86.4419813766
 20
233.8925104982
 11
82.7276551015
 21
238.3190721806
  0
LINE
  8
0
 62
7
  6
CONTINUOUS
 10
109.835877654
 20
213.6729429925
 11
110.2343157144
 21
213.1085123592
  0
LINE
  8
0
 62
7
  6
CONTINUOUS
 10
113.778257729
 20
215.2081506591
 11
113.3798158695
 21
215.7725774932
  0
LINE
  8
SURFACE
 62
7
  6
CONTINUOUS
 10
169.6815091101
 20
89.7174192657
 11
171.6578608409
 21
84.2874375124
  0
LINE
  8
0
 62
7
  6
CONTINUOUS
 10
126.6728519061
 20
252.1737764361
 11
126.5121369923
 21
252.9470678437
  0
LINE
  8
0
 62
7
  6
CONTINUOUS
 10
127.676271977
 20
246.4830984302
 11
126.6728519061
 21
252.1737764361
  0
LINE
  8
0
 62
7
  6
CONTINUOUS
 10
148.8344000379
 20
208.8580265689
 11
148.8694625178
 21
208.1008125055
  0
LINE
  8
0
 62
7
  6
CONTINUOUS
 10
152.3996443128
 20
205.292782294
 11
152.4347066227
 21
204.5355684006
  0
LINE
  8
0
 62
7
  6
CONTINUOUS
 10
153.4629804287
 20
209.5252245832
 11
153.4279180872
 21
210.2824384449
  0
LINE
  8
0
 62
7
  6
CONTINUOUS
 10
155.4298491649
 20
211.6505484693
 11
155.3947865967
 21
212.4077625578
  0
LINE
  8
0
 62
7
  6
CONTINUOUS
 10
152.746897352
 20
209.7598733131
 11
152.7438631302
 21
209.281473188
  0
LINE
  8
0
 62
7
  6
CONTINUOUS
 10
153.1157274317
 20
205.0581336063
 11
153.1187616534
 21
205.5365337313
  0
LINE
  8
0
 62
7
  6
CONTINUOUS
 10
154.7137660882
 20
211.8851971992
 11
154.7107318664
 21
211.4067970742
  0
LINE
  8
0
 62
7
  6
CONTINUOUS
 10
158.1205552131
 20
208.4784080743
 11
158.1175209913
 21
208.0000079493
  0
LINE
  8
0
 62
7
  6
CONTINUOUS
 10
142.7409108618
 20
66.4830984302
 11
143.4971847557
 21
70.7721408149
  0
LINE
  8
0
 62
7
  6
CONTINUOUS
 10
163.5188239833
 20
198.506512335
 11
163.4365615065
 21
198.1073404649
  0
LINE
  8
0
 62
7
  6
CONTINUOUS
 10
163.2979973364
 20
195.1165808749
 11
163.1746044858
 21
194.517822121
  0
LINE
  8
0
 62
7
  6
CONTINUOUS
 10
164.1145484733
 20
198.1515050184
 11
164.2379412817
 21
198.7502637302
  0
LINE
  8
0
 62
7
  6
CONTINUOUS
 10
165.9610579427
 20
200.1564709979
 11
166.2048093379
 21
200.8755882963
  0
LINE
  8
SURFACE
 62
7
  6
CONTINUOUS
 10
189.4883413497
 20
240.9468841341
 11
187.9987725616
 21
236.8543275241
  0
LINE
  8
0
 62
7
  6
CONTINUOUS
 10
168.892480711
 20
197.2250482296
 11
168.4872400602
 21
196.1859851655
  0
LINE
  8
0
 62
7
  6
CONTINUOUS
 10
170.5899757956
 20
188.3060369312
 11
170.2258656873
 21
187.4665609196
  0
LINE
  8
0
 62
7
  6
CONTINUOUS
 10
174.2846813224
 20
186.2963516182
 11
174.6076611412
 21
186.9362408303
  0
LINE
  8
0
 62
7
  6
CONTINUOUS
 10
176.1402936257
 20
189.7365181415
 11
175.9788047073
 21
189.4165727131
  0
LINE
  8
0
 62
7
  6
CONTINUOUS
 10
171.1857002856
 20
187.9510296146
 11
171.4675477907
 21
188.3913336297
  0
LINE
  8
0
 62
7
  6
CONTINUOUS
 10
173.8305551399
 20
190.1205185656
 11
174.112402645
 21
190.5608225807
  0
LINE
  8
0
 62
7
  6
CONTINUOUS
 10
176.4541706106
 20
188.9412068097
 11
176.7360181157
 21
189.3815108249
  0
LINE
  8
0
 62
7
  6
CONTINUOUS
 10
174.9916617339
 20
184.6265025131
 11
175.3938678257
 21
185.1871651149
  0
LINE
  8
0
 62
7
  6
CONTINUOUS
 10
179.8198277066
 20
185.334831866
 11
179.4176216148
 21
184.7741692641
  0
LINE
  8
0
 62
7
  6
CONTINUOUS
 10
174.9185019224
 20
185.6625310182
 11
174.3959372439
 21
184.9815098297
  0
LINE
  8
0
 62
7
  6
CONTINUOUS
 10
179.8929875181
 20
184.2988033608
 11
180.4155525338
 21
184.9798248865
  0
LINE
  8
0
 62
7
  6
CONTINUOUS
 10
92.7278690832
 20
73.3528300041
 11
95.5273426797
 21
76.6891127202
  0
LINE
  8
0
 62
7
  6
CONTINUOUS
 10
178.087608549
 20
182.4934243917
 11
179.8929875181
 21
184.2988033608
  0
LINE
  8
SURFACE
 62
7
  6
CONTINUOUS
 10
220.4442242992
 20
201.0691852201
 11
217.1079415831
 21
198.2697116235
  0
LINE
  8
0
 62
7
  6
CONTINUOUS
 10
52.8501701692
 20
104.3087129536
 11
56.9427267792
 21
105.7982817417
  0
LINE
  8
0
 62
7
  6
CONTINUOUS
 10
164.9176124957
 20
192.7748141111
 11
165.5163712497
 21
192.8982069617
  0
LINE
  8
0
 62
7
  6
CONTINUOUS
 10
167.8685899995
 20
199.2118076347
 11
167.2698312877
 21
199.0884148263
  0
LINE
  8
SURFACE
 62
7
  6
CONTINUOUS
 10
33.7930113401
 20
175.430997952
 11
38.0820537247
 21
176.1872718458
  0
LINE
  8
0
 62
7
  6
CONTINUOUS
 10
82.6311597502
 20
177.8024055816
 11
82.0584675398
 21
177.7111478023
  0
LINE
  8
0
 62
7
  6
CONTINUOUS
 10
83.6806247877
 20
184.3883661975
 11
83.9669707234
 21
184.4339949598
  0
LINE
  8
0
 62
7
  6
CONTINUOUS
 10
83.9378701362
 20
185.1270458929
 11
83.4481717018
 21
185.1187818053
  0
LINE
  8
0
 62
7
  6
CONTINUOUS
 10
93.640228516
 20
189.5336259519
 11
93.1505299974
 21
189.5253619486
  0
LINE
  8
0
 62
7
  6
CONTINUOUS
 10
172.8083506155
 20
186.0876621112
 11
172.3299504061
 21
186.0846278052
  0
LINE
  8
0
 62
7
  6
CONTINUOUS
 10
178.2794401906
 20
187.5973715765
 11
178.7578403157
 21
187.6004057983
  0
LINE
  8
0
 62
7
  6
CONTINUOUS
 10
174.7934241708
 20
191.0833875964
 11
175.2718242958
 21
191.0864218182
  0
LINE
  8
0
 62
7
  6
CONTINUOUS
 10
171.6870252538
 20
185.2832497696
 11
172.2446536655
 21
185.2070557679
  0
LINE
  8
0
 62
7
  6
CONTINUOUS
 10
227.3139558731
 20
175.430997952
 11
223.0249134884
 21
176.1872718458
  0
LINE
  8
0
 62
7
  6
CONTINUOUS
 10
97.374946481
 20
193.2683439168
 11
96.7648903254
 21
193.38043945
  0
LINE
  8
0
 62
7
  6
CONTINUOUS
 10
91.8262315267
 20
195.6632968652
 11
91.0128224818
 21
195.812756514
  0
LINE
  8
0
 62
7
  6
CONTINUOUS
 10
94.3494543351
 20
195.2979129183
 11
95.16286338
 21
195.1484532696
  0
LINE
  8
0
 62
7
  6
CONTINUOUS
 10
97.8851290756
 20
196.9078502716
 11
97.071719081
 21
197.0573089706
  0
LINE
  8
0
 62
7
  6
CONTINUOUS
 10
94.6480188346
 20
198.4850841731
 11
95.0547247817
 21
198.4103557734
  0
LINE
  8
0
 62
7
  6
CONTINUOUS
 10
95.4323287169
 20
199.028676882
 11
94.7019131091
 21
199.2611299679
  0
LINE
  8
0
 62
7
  6
CONTINUOUS
 10
101.8232009639
 20
200.6052049864
 11
101.0927853561
 21
200.8376580723
  0
LINE
  8
0
 62
7
  6
CONTINUOUS
 10
99.4160288926
 20
203.0123770577
 11
98.6856132848
 21
203.2448301436
  0
LINE
  8
SURFACE
 62
7
  6
CONTINUOUS
 10
52.8501701692
 20
222.1784284398
 11
56.9427267792
 21
220.6888596518
  0
LINE
  8
0
 62
7
  6
CONTINUOUS
 10
220.4442242992
 20
125.4179561733
 11
217.1079415831
 21
128.2174297699
  0
LINE
  8
0
 62
7
  6
CONTINUOUS
 10
113.8202836267
 20
208.0286606801
 11
108.1634293772
 21
213.6855149296
  0
LINE
  8
0
 62
7
  6
CONTINUOUS
 10
113.882440005
 20
209.294403094
 11
114.4842330228
 21
208.6926100762
  0
LINE
  8
0
 62
7
  6
CONTINUOUS
 10
112.6411358369
 20
215.5153324818
 11
112.8818533475
 21
215.2746149712
  0
LINE
  8
0
 62
7
  6
CONTINUOUS
 10
117.4720081546
 20
211.680385208
 11
116.8702151368
 21
212.2821782258
  0
LINE
  8
0
 62
7
  6
CONTINUOUS
 10
113.3798158695
 20
215.7725774932
 11
113.1390983589
 21
216.0132950037
  0
LINE
  8
SURFACE
 62
7
  6
CONTINUOUS
 10
92.7278690832
 20
253.1343113893
 11
95.5273426797
 21
249.7980286732
  0
LINE
  8
0
 62
7
  6
CONTINUOUS
 10
189.4883413497
 20
85.5402572594
 11
187.9987725616
 21
89.6328138693
  0
LINE
  8
SURFACE
 62
7
  6
CONTINUOUS
 10
142.7409108618
 20
260.0040429632
 11
143.4971847557
 21
255.7150005786
  0
LINE
  8
0
 62
7
  6
CONTINUOUS
 10
158.8366382898
 20
208.2437593444
 11
158.8015754949
 21
209.0009736595
  0
LINE
  8
0
 62
7
  6
CONTINUOUS
 10
159.6093602109
 20
198.0830663959
 11
159.6444229742
 21
197.3258520492
  0
LINE
  8
0
 62
7
  6
CONTINUOUS
 10
163.1746044858
 20
194.517822121
 11
163.2096672491
 21
193.7606077743
  0
LINE
  8
0
 62
7
  6
CONTINUOUS
 10
164.2379412817
 20
198.7502637302
 11
164.2028784869
 21
199.5074780453
  0
LINE
  8
0
 62
7
  6
CONTINUOUS
 10
166.2048093379
 20
200.8755882963
 11
166.1697474497
 21
201.6328017048
  0
LINE
  8
0
 62
7
  6
CONTINUOUS
 10
160.3254433298
 20
197.8484177081
 11
160.3284775515
 21
198.3268178332
  0
LINE
  8
0
 62
7
  6
CONTINUOUS
 10
163.521858205
 20
198.9849124601
 11
163.5188239833
 21
198.506512335
  0
LINE
  8
0
 62
7
  6
CONTINUOUS
 10
163.8906885114
 20
194.2831725266
 11
163.8937218264
 21
194.7615735583
  0
LINE
  8
0
 62
7
  6
CONTINUOUS
 10
165.4887262612
 20
201.1102370262
 11
165.4856920394
 21
200.6318369012
  0
LINE
  8
0
 62
7
  6
CONTINUOUS
 10
168.8955149327
 20
197.7034483547
 11
168.892480711
 21
197.2250482296
  0
LINE
  8
0
 62
7
  6
CONTINUOUS
 10
169.488205201
 20
196.870040913
 11
169.6115980094
 21
197.4687996248
  0
LINE
  8
0
 62
7
  6
CONTINUOUS
 10
171.0623073928
 20
187.3522708185
 11
171.1857002856
 21
187.9510296146
  0
LINE
  8
0
 62
7
  6
CONTINUOUS
 10
173.1144720632
 20
190.3551672955
 11
172.9499489231
 21
189.556821742
  0
LINE
  8
0
 62
7
  6
CONTINUOUS
 10
174.0729575094
 20
184.3416207019
 11
173.9084343271
 21
183.5432751063
  0
LINE
  8
0
 62
7
  6
CONTINUOUS
 10
174.6076611412
 20
186.9362408303
 11
174.7721842813
 21
187.7345863838
  0
LINE
  8
0
 62
7
  6
CONTINUOUS
 10
176.7360181157
 20
189.3815108249
 11
176.9797695109
 21
190.1006281233
  0
LINE
  8
0
 62
7
  6
CONTINUOUS
 10
173.8915780644
 20
187.1708895602
 11
173.6889568324
 21
186.6513589348
  0
LINE
  8
0
 62
7
  6
CONTINUOUS
 10
174.7890406704
 20
184.1069720563
 11
174.9916617339
 21
184.6265025131
  0
LINE
  8
0
 62
7
  6
CONTINUOUS
 10
180.0224491073
 20
185.8543626599
 11
179.8198277066
 21
185.334831866
  0
LINE
  8
0
 62
7
  6
CONTINUOUS
 10
174.3959372439
 20
184.9815098297
 11
174.0729575094
 21
184.3416207019
  0
LINE
  8
0
 62
7
  6
CONTINUOUS
 10
180.4155525338
 20
184.9798248865
 11
180.738532184
 21
185.61971393
  0
LINE
  8
0
 62
7
  6
CONTINUOUS
 10
134.685788289
 20
124.949468508
 11
141.7568561009
 21
132.0205363199
  0
LINE
  8
0
 62
7
  6
CONTINUOUS
 10
161.7765179834
 20
152.0401982024
 11
168.8475857953
 21
159.1112660143
  0
LINE
  8
0
 62
7
  6
CONTINUOUS
 10
146.2403181767
 20
132.9684644897
 11
160.8285898136
 21
147.5567361266
  0
LINE
  8
0
 62
7
  6
CONTINUOUS
 10
161.6143261482
 20
199.9295758232
 11
162.0134980183
 21
200.0118383
  0
LINE
  8
0
 62
7
  6
CONTINUOUS
 10
154.1426527761
 20
203.5497738307
 11
154.74141153
 21
203.6731666813
  0
LINE
  8
0
 62
7
  6
CONTINUOUS
 10
93.7066938201
 20
188.637222478
 11
94.2793857232
 21
188.7284799711
  0
LINE
  8
0
 62
7
  6
CONTINUOUS
 10
95.16286338
 20
195.1484532696
 11
95.7355562012
 21
195.239711744
  0
LINE
  8
0
 62
7
  6
CONTINUOUS
 10
91.0128224818
 20
195.812756514
 11
90.4401306104
 21
195.7214989893
  0
LINE
  8
0
 62
7
  6
CONTINUOUS
 10
97.2380607111
 20
192.4093065424
 11
98.0141055877
 21
192.4631998356
  0
LINE
  8
0
 62
7
  6
CONTINUOUS
 10
91.0792877438
 20
194.9163530823
 11
91.5689861781
 21
194.9246171698
  0
LINE
  8
0
 62
7
  6
CONTINUOUS
 10
95.0963971683
 20
196.0448557515
 11
94.6066987339
 21
196.0365916639
  0
LINE
  8
0
 62
7
  6
CONTINUOUS
 10
97.1381852927
 20
196.1609064886
 11
97.6278837271
 21
196.1691705762
  0
LINE
  8
0
 62
7
  6
CONTINUOUS
 10
165.161363933
 20
193.4939314517
 11
164.682963808
 21
193.49089723
  0
LINE
  8
0
 62
7
  6
CONTINUOUS
 10
161.8338035165
 20
196.8214918682
 11
161.3554033914
 21
196.8184576465
  0
LINE
  8
0
 62
7
  6
CONTINUOUS
 10
167.6248386043
 20
198.4926903362
 11
168.1032396361
 21
198.4957236513
  0
LINE
  8
0
 62
7
  6
CONTINUOUS
 10
162.0134980183
 20
200.0118383
 11
162.4918981434
 21
200.0148725217
  0
LINE
  8
0
 62
7
  6
CONTINUOUS
 10
163.0144637286
 20
200.6958928036
 11
162.0576634784
 21
200.6898243601
  0
LINE
  8
0
 62
7
  6
CONTINUOUS
 10
94.7019131091
 20
199.2611299679
 11
94.0088617012
 21
199.2902300801
  0
LINE
  8
0
 62
7
  6
CONTINUOUS
 10
164.1603990557
 20
192.8098759677
 11
164.9176124957
 21
192.7748141111
  0
LINE
  8
0
 62
7
  6
CONTINUOUS
 10
160.8328377325
 20
196.1374372909
 11
161.5900520792
 21
196.1023745276
  0
LINE
  8
0
 62
7
  6
CONTINUOUS
 10
168.6258043146
 20
199.1767448398
 11
167.8685899995
 21
199.2118076347
  0
LINE
  8
0
 62
7
  6
CONTINUOUS
 10
179.4007653943
 20
188.4017837602
 11
178.8431370142
 21
188.4779777934
  0
LINE
  8
0
 62
7
  6
CONTINUOUS
 10
175.914747561
 20
191.8878015934
 11
175.3571209943
 21
191.9639938133
  0
LINE
  8
0
 62
7
  6
CONTINUOUS
 10
101.0388910815
 20
200.0616122775
 11
101.4455970286
 21
199.9868838778
  0
LINE
  8
0
 62
7
  6
CONTINUOUS
 10
98.6317190103
 20
202.4687843488
 11
99.0384249574
 21
202.3940559491
  0
LINE
  8
0
 62
7
  6
CONTINUOUS
 10
175.4107260387
 20
181.5595489847
 11
175.7687675876
 21
181.4422246302
  0
LINE
  8
0
 62
7
  6
CONTINUOUS
 10
175.9744211227
 20
182.4401570887
 11
175.6163795843
 21
182.5574814536
  0
LINE
  8
0
 62
7
  6
CONTINUOUS
 10
172.3299504061
 20
186.0846278052
 11
171.8926806128
 21
186.2811804252
  0
LINE
  8
0
 62
7
  6
CONTINUOUS
 10
174.8942279798
 20
181.8353298491
 11
175.4107260387
 21
181.5595489847
  0
LINE
  8
0
 62
7
  6
CONTINUOUS
 10
113.1390983589
 20
216.0132950037
 11
112.5746715248
 21
216.4117368633
  0
LINE
  8
0
 62
7
  6
CONTINUOUS
 10
168.8475857953
 20
167.3758753792
 11
161.7765179834
 21
174.446943191
  0
LINE
  8
0
 62
7
  6
CONTINUOUS
 10
141.7568561009
 20
194.4666050736
 11
134.685788289
 21
201.5376728855
  0
LINE
  8
0
 62
7
  6
CONTINUOUS
 10
160.8285898136
 20
178.9304052668
 11
146.2403181767
 21
193.5186769038
  0
LINE
  8
0
 62
7
  6
CONTINUOUS
 10
148.8694625178
 20
208.1008125055
 11
149.1452421923
 21
207.5843156366
  0
LINE
  8
0
 62
7
  6
CONTINUOUS
 10
149.6678075217
 20
208.2653363428
 11
149.5504831568
 21
208.6233778811
  0
LINE
  8
0
 62
7
  6
CONTINUOUS
 10
152.6295731004
 20
210.1179147381
 11
152.746897352
 21
209.7598733131
  0
LINE
  8
0
 62
7
  6
CONTINUOUS
 10
154.5964417232
 20
212.2432387376
 11
154.7137660882
 21
211.8851971992
  0
LINE
  8
0
 62
7
  6
CONTINUOUS
 10
169.6115980094
 20
197.4687996248
 11
169.5765361213
 21
198.2260130332
  0
LINE
  8
0
 62
7
  6
CONTINUOUS
 10
170.2258656873
 20
187.4665609196
 11
170.2609275438
 21
186.7093474795
  0
LINE
  8
0
 62
7
  6
CONTINUOUS
 10
173.8275209182
 20
189.6421184405
 11
173.8305551399
 21
190.1205185656
  0
LINE
  8
0
 62
7
  6
CONTINUOUS
 10
173.8946122862
 20
187.6492896852
 11
173.8915780644
 21
187.1708895602
  0
LINE
  8
0
 62
7
  6
CONTINUOUS
 10
174.7860063644
 20
183.628571847
 11
174.7890406704
 21
184.1069720563
  0
LINE
  8
0
 62
7
  6
CONTINUOUS
 10
176.9797695109
 20
190.1006281233
 11
177.0239358777
 21
190.7786132768
  0
LINE
  8
0
 62
7
  6
CONTINUOUS
 10
176.2225561025
 20
190.1356900115
 11
176.1402936257
 21
189.7365181415
  0
LINE
  8
0
 62
7
  6
CONTINUOUS
 10
175.7687675876
 20
181.4422246302
 11
175.6865050898
 21
181.0430527391
  0
LINE
  8
0
 62
7
  6
CONTINUOUS
 10
176.1800764922
 20
183.4380877548
 11
175.9744211227
 21
182.4401570887
  0
LINE
  8
0
 62
7
  6
CONTINUOUS
 10
176.1618709931
 20
180.5676868358
 11
176.3675263626
 21
181.5656175019
  0
LINE
  8
0
 62
7
  6
CONTINUOUS
 10
176.532049587
 20
182.3639631397
 11
176.6554423955
 21
182.9627218515
  0
LINE
  8
0
 62
7
  6
CONTINUOUS
 10
180.738532184
 20
185.61971393
 11
180.9030553241
 21
186.4180594835
  0
LINE
  8
0
 62
7
  6
CONTINUOUS
 10
141.8671921055
 20
117.9887367008
 11
175.8083176025
 21
151.9298621977
  0
LINE
  8
0
 62
7
  6
CONTINUOUS
 10
157.0936298265
 20
209.9867678077
 11
156.4948711147
 21
209.8633749993
  0
LINE
  8
0
 62
7
  6
CONTINUOUS
 10
150.8393653519
 20
210.7045366195
 11
151.2385378453
 21
210.786798473
  0
LINE
  8
0
 62
7
  6
CONTINUOUS
 10
97.071719081
 20
197.0573089706
 11
96.4990281593
 21
196.9660523957
  0
LINE
  8
0
 62
7
  6
CONTINUOUS
 10
101.0927853561
 20
200.8376580723
 11
100.8064379957
 21
200.7920278853
  0
LINE
  8
0
 62
7
  6
CONTINUOUS
 10
164.0595943295
 20
202.0579346111
 11
164.5379944545
 21
202.0609688329
  0
LINE
  8
0
 62
7
  6
CONTINUOUS
 10
154.3864042134
 20
204.2688911714
 11
153.9080040883
 21
204.2658569496
  0
LINE
  8
0
 62
7
  6
CONTINUOUS
 10
151.0588426635
 20
207.5964527213
 11
150.5804425384
 21
207.5934184995
  0
LINE
  8
0
 62
7
  6
CONTINUOUS
 10
156.8498784313
 20
209.2676505092
 11
157.3282785564
 21
209.270684731
  0
LINE
  8
0
 62
7
  6
CONTINUOUS
 10
151.2385378453
 20
210.786798473
 11
151.7169379704
 21
210.7898326947
  0
LINE
  8
0
 62
7
  6
CONTINUOUS
 10
98.6856132848
 20
203.2448301436
 11
97.9925618769
 21
203.2739302558
  0
LINE
  8
0
 62
7
  6
CONTINUOUS
 10
165.0605600397
 20
202.7419891147
 11
164.3033457246
 21
202.7770519096
  0
LINE
  8
0
 62
7
  6
CONTINUOUS
 10
153.3854384294
 20
203.584836594
 11
154.1426527761
 21
203.5497738307
  0
LINE
  8
0
 62
7
  6
CONTINUOUS
 10
150.0578773328
 20
206.9123976906
 11
150.8150912262
 21
206.8773353806
  0
LINE
  8
0
 62
7
  6
CONTINUOUS
 10
175.2718242958
 20
191.0864218182
 11
175.6298658342
 21
190.9690974532
  0
LINE
  8
0
 62
7
  6
CONTINUOUS
 10
161.3554033914
 20
196.8184576465
 11
160.9973618531
 21
196.9357820115
  0
LINE
  8
0
 62
7
  6
CONTINUOUS
 10
162.4918981434
 20
200.0148725217
 11
162.8499396817
 21
199.8975481568
  0
LINE
  8
0
 62
7
  6
CONTINUOUS
 10
164.5379944545
 20
202.0609688329
 11
164.8960359929
 21
201.9436444679
  0
LINE
  8
0
 62
7
  6
CONTINUOUS
 10
112.1140713031
 20
215.7104194682
 11
112.6411358369
 21
215.5153324818
  0
LINE
  8
0
 62
7
  6
CONTINUOUS
 10
178.7578403157
 20
187.6004057983
 11
179.1951101091
 21
187.4038531783
  0
LINE
  8
0
 62
7
  6
CONTINUOUS
 10
176.3520173544
 20
191.6912489734
 11
175.914747561
 21
191.8878015934
  0
LINE
  8
0
 62
7
  6
CONTINUOUS
 10
171.1705290082
 20
185.5590288206
 11
171.6870252538
 21
185.2832497696
  0
LINE
  8
0
 62
7
  6
CONTINUOUS
 10
164.682963808
 20
193.49089723
 11
164.166467573
 21
193.7666762916
  0
LINE
  8
0
 62
7
  6
CONTINUOUS
 10
160.3163405802
 20
196.4132172486
 11
160.8328377325
 21
196.1374372909
  0
LINE
  8
0
 62
7
  6
CONTINUOUS
 10
179.9172616293
 20
188.1260046986
 11
179.4007653943
 21
188.4017837602
  0
LINE
  8
0
 62
7
  6
CONTINUOUS
 10
153.9080040883
 20
204.2658569496
 11
153.3915069466
 21
204.5416369179
  0
LINE
  8
0
 62
7
  6
CONTINUOUS
 10
163.5646745551
 20
193.1648832737
 11
164.1603990557
 21
192.8098759677
  0
LINE
  8
0
 62
7
  6
CONTINUOUS
 10
152.7897139288
 20
203.9398439001
 11
153.3854384294
 21
203.584836594
  0
LINE
  8
0
 62
7
  6
CONTINUOUS
 10
175.8083176025
 20
174.5572791957
 11
141.8671921055
 21
208.4984046927
  0
LINE
  8
0
 62
7
  6
CONTINUOUS
 10
149.1452421923
 20
207.5843156366
 11
149.5413804072
 21
207.1881774216
  0
LINE
  8
0
 62
7
  6
CONTINUOUS
 10
154.8496331454
 20
201.8799246835
 11
155.3249990487
 21
201.4045587801
  0
LINE
  8
0
 62
7
  6
CONTINUOUS
 10
157.5433734153
 20
199.1861844135
 11
158.0187393187
 21
198.7108185102
  0
LINE
  8
0
 62
7
  6
CONTINUOUS
 10
159.9202029319
 20
196.809354897
 11
160.3163405802
 21
196.4132172486
  0
LINE
  8
0
 62
7
  6
CONTINUOUS
 10
170.5367084083
 20
186.1928494206
 11
171.1705290082
 21
185.5590288206
  0
LINE
  8
0
 62
7
  6
CONTINUOUS
 10
174.2604073798
 20
182.4691504491
 11
174.8942279798
 21
181.8353298491
  0
LINE
  8
0
 62
7
  6
CONTINUOUS
 10
175.6865050898
 20
181.0430527391
 11
176.1618709931
 21
180.5676868358
  0
LINE
  8
0
 62
7
  6
CONTINUOUS
 10
160.9973618531
 20
196.9357820115
 11
160.4427676947
 21
197.4903761698
  0
LINE
  8
0
 62
7
  6
CONTINUOUS
 10
150.2224011134
 20
207.7107427511
 11
149.6678075217
 21
208.2653363428
  0
LINE
  8
0
 62
7
  6
CONTINUOUS
 10
175.6163795843
 20
182.5574814536
 11
174.9825589843
 21
183.1913020536
  0
LINE
  8
0
 62
7
  6
CONTINUOUS
 10
171.8926806128
 20
186.2811804252
 11
171.2588600128
 21
186.9150010251
  0
LINE
  8
0
 62
7
  6
CONTINUOUS
 10
176.6554423955
 20
182.9627218515
 11
176.1800764922
 21
183.4380877548
  0
LINE
  8
0
 62
7
  6
CONTINUOUS
 10
171.4675477907
 20
188.3913336297
 11
170.9921818874
 21
188.866699533
  0
LINE
  8
0
 62
7
  6
CONTINUOUS
 10
152.4347066227
 20
204.5355684006
 11
152.7897139288
 21
203.9398439001
  0
LINE
  8
0
 62
7
  6
CONTINUOUS
 10
163.2096672491
 20
193.7606077743
 11
163.5646745551
 21
193.1648832737
  0
LINE
  8
0
 62
7
  6
CONTINUOUS
 10
153.3915069466
 20
204.5416369179
 11
153.1157274317
 21
205.0581336063
  0
LINE
  8
0
 62
7
  6
CONTINUOUS
 10
159.6444229742
 20
197.3258520492
 11
159.9202029319
 21
196.809354897
  0
LINE
  8
0
 62
7
  6
CONTINUOUS
 10
153.4279180872
 20
210.2824384449
 11
153.1521383456
 21
210.79893536
  0
LINE
  8
0
 62
7
  6
CONTINUOUS
 10
164.166467573
 20
193.7666762916
 11
163.8906885114
 21
194.2831725266
  0
LINE
  8
0
 62
7
  6
CONTINUOUS
 10
155.3947865967
 20
212.4077625578
 11
155.1190069684
 21
212.9242593595
  0
LINE
  8
0
 62
7
  6
CONTINUOUS
 10
157.8447752448
 20
208.994905216
 11
158.1205552131
 21
208.4784080743
  0
LINE
  8
0
 62
7
  6
CONTINUOUS
 10
170.2609275438
 20
186.7093474795
 11
170.5367084083
 21
186.1928494206
  0
LINE
  8
0
 62
7
  6
CONTINUOUS
 10
164.2028784869
 20
199.5074780453
 11
163.9270985186
 21
200.023975187
  0
LINE
  8
0
 62
7
  6
CONTINUOUS
 10
173.9846283288
 20
182.9856466946
 11
174.2604073798
 21
182.4691504491
  0
LINE
  8
0
 62
7
  6
CONTINUOUS
 10
171.2588600128
 20
186.9150010251
 11
171.0623073928
 21
187.3522708185
  0
LINE
  8
0
 62
7
  6
CONTINUOUS
 10
160.4427676947
 20
197.4903761698
 11
160.3254433298
 21
197.8484177081
  0
LINE
  8
0
 62
7
  6
CONTINUOUS
 10
163.4045338401
 20
199.3429539984
 11
163.521858205
 21
198.9849124601
  0
LINE
  8
0
 62
7
  6
CONTINUOUS
 10
165.3714018962
 20
201.4682785646
 11
165.4887262612
 21
201.1102370262
  0
LINE
  8
0
 62
7
  6
CONTINUOUS
 10
172.9499489231
 20
189.556821742
 11
173.0261411429
 21
188.9991951753
  0
LINE
  8
0
 62
7
  6
CONTINUOUS
 10
173.9084343271
 20
183.5432751063
 11
173.9846283288
 21
182.9856466946
  0
LINE
  8
0
 62
7
  6
CONTINUOUS
 10
174.7721842813
 20
187.7345863838
 11
174.6959902481
 21
188.2922147638
  0
LINE
  8
0
 62
7
  6
CONTINUOUS
 10
180.025483329
 20
186.332762785
 11
180.0224491073
 21
185.8543626599
  0
LINE
  8
0
 62
7
  6
CONTINUOUS
 10
111.7612596305
 20
216.5611936627
 11
111.1885687089
 21
216.4699370878
  0
LINE
  8
0
 62
7
  6
CONTINUOUS
 10
111.6243728687
 20
215.7021553806
 11
112.1140713031
 21
215.7104194682
  0
LINE
  8
0
 62
7
  6
CONTINUOUS
 10
152.2395032722
 20
211.4708532599
 11
151.2827029938
 21
211.4647848447
  0
LINE
  8
0
 62
7
  6
CONTINUOUS
 10
153.2846341565
 20
212.8328947841
 11
153.7630342815
 21
212.8359290059
  0
LINE
  8
0
 62
7
  6
CONTINUOUS
 10
157.8508436883
 20
209.9517054662
 11
157.0936298265
 21
209.9867678077
  0
LINE
  8
0
 62
7
  6
CONTINUOUS
 10
154.2855995834
 20
213.5169495711
 11
153.5283855516
 21
213.5520120826
  0
LINE
  8
0
 62
7
  6
CONTINUOUS
 10
112.5746715248
 20
216.4117368633
 11
111.7612596305
 21
216.5611936627
  0
LINE
  8
0
 62
7
  6
CONTINUOUS
 10
150.5804425384
 20
207.5934184995
 11
150.2224011134
 21
207.7107427511
  0
LINE
  8
0
 62
7
  6
CONTINUOUS
 10
151.7169379704
 20
210.7898326947
 11
152.0749795087
 21
210.6725083298
  0
LINE
  8
0
 62
7
  6
CONTINUOUS
 10
153.7630342815
 20
212.8359290059
 11
154.1210758199
 21
212.7186046409
  0
LINE
  8
0
 62
7
  6
CONTINUOUS
 10
149.5413804072
 20
207.1881774216
 11
150.0578773328
 21
206.9123976906
  0
LINE
  8
0
 62
7
  6
CONTINUOUS
 10
163.5309608703
 20
200.4201128353
 11
163.0144637286
 21
200.6958928036
  0
LINE
  8
0
 62
7
  6
CONTINUOUS
 10
168.1032396361
 20
198.4957236513
 11
168.6197358711
 21
198.2199445897
  0
LINE
  8
0
 62
7
  6
CONTINUOUS
 10
165.5770571814
 20
202.4662091464
 11
165.0605600397
 21
202.7419891147
  0
LINE
  8
0
 62
7
  6
CONTINUOUS
 10
152.7560001306
 20
211.195073575
 11
152.2395032722
 21
211.4708532599
  0
LINE
  8
0
 62
7
  6
CONTINUOUS
 10
157.3282785564
 20
209.270684731
 11
157.8447752448
 21
208.994905216
  0
LINE
  8
0
 62
7
  6
CONTINUOUS
 10
154.8020964417
 20
213.2411698861
 11
154.2855995834
 21
213.5169495711
  0
LINE
  8
0
 62
7
  6
CONTINUOUS
 10
169.2215288046
 20
198.8217375232
 11
168.6258043146
 21
199.1767448398
  0
LINE
  8
0
 62
7
  6
CONTINUOUS
 10
158.4465681783
 20
209.5966981496
 11
157.8508436883
 21
209.9517054662
  0
LINE
  8
0
 62
7
  6
CONTINUOUS
 10
173.2226937629
 20
188.5619253819
 11
173.6980596662
 21
188.0865594786
  0
LINE
  8
0
 62
7
  6
CONTINUOUS
 10
152.0749795087
 20
210.6725083298
 11
152.6295731004
 21
210.1179147381
  0
LINE
  8
0
 62
7
  6
CONTINUOUS
 10
162.8499396817
 20
199.8975481568
 11
163.4045338401
 21
199.3429539984
  0
LINE
  8
0
 62
7
  6
CONTINUOUS
 10
174.4202111865
 20
188.8087109989
 11
173.9448452831
 21
189.2840769022
  0
LINE
  8
0
 62
7
  6
CONTINUOUS
 10
163.9270985186
 20
200.023975187
 11
163.5309608703
 21
200.4201128353
  0
LINE
  8
0
 62
7
  6
CONTINUOUS
 10
153.1521383456
 20
210.79893536
 11
152.7560001306
 21
211.195073575
  0
LINE
  8
0
 62
7
  6
CONTINUOUS
 10
154.508111483
 20
210.8872659374
 11
154.9042495846
 21
210.4911278357
  0
LINE
  8
0
 62
7
  6
CONTINUOUS
 10
165.2830718826
 20
200.1123055377
 11
165.6792104376
 21
199.7161669827
  0
LINE
  8
0
 62
7
  6
CONTINUOUS
 10
175.9788047073
 20
189.4165727131
 11
176.4541706106
 21
188.9412068097
  0
LINE
  8
0
 62
7
  6
CONTINUOUS
 10
175.6298658342
 20
190.9690974532
 11
176.1052317375
 21
190.4937315499
  0
LINE
  8
0
 62
7
  6
CONTINUOUS
 10
179.1951101091
 20
187.4038531783
 11
179.828930709
 21
186.7700325784
  0
LINE
  8
0
 62
7
  6
CONTINUOUS
 10
154.1210758199
 20
212.7186046409
 11
154.5964417232
 21
212.2432387376
  0
LINE
  8
0
 62
7
  6
CONTINUOUS
 10
164.8960359929
 20
201.9436444679
 11
165.3714018962
 21
201.4682785646
  0
LINE
  8
0
 62
7
  6
CONTINUOUS
 10
180.5510822293
 20
187.4921840986
 11
179.9172616293
 21
188.1260046986
  0
LINE
  8
0
 62
7
  6
CONTINUOUS
 10
176.7481550027
 20
191.2951113251
 11
176.3520173544
 21
191.6912489734
  0
LINE
  8
0
 62
7
  6
CONTINUOUS
 10
165.8939674814
 20
202.1492988465
 11
165.5770571814
 21
202.4662091464
  0
LINE
  8
0
 62
7
  6
CONTINUOUS
 10
163.6755935681
 20
204.3676727597
 11
163.2002276648
 21
204.843038663
  0
LINE
  8
0
 62
7
  6
CONTINUOUS
 10
160.9818532982
 20
207.0614130296
 11
160.5064873949
 21
207.536778933
  0
LINE
  8
0
 62
7
  6
CONTINUOUS
 10
155.1190069684
 20
212.9242593595
 11
154.8020964417
 21
213.2411698861
  0
LINE
  8
0
 62
7
  6
CONTINUOUS
 10
158.8015754949
 20
209.0009736595
 11
158.4465681783
 21
209.5966981496
  0
LINE
  8
0
 62
7
  6
CONTINUOUS
 10
169.5765361213
 20
198.2260130332
 11
169.2215288046
 21
198.8217375232
  0
LINE
  8
0
 62
7
  6
CONTINUOUS
 10
166.1697474497
 20
201.6328017048
 11
165.8939674814
 21
202.1492988465
  0
LINE
  8
0
 62
7
  6
CONTINUOUS
 10
168.6197358711
 20
198.2199445897
 11
168.8955149327
 21
197.7034483547
  0
LINE
  8
0
 62
7
  6
CONTINUOUS
 10
174.6959902481
 20
188.2922147638
 11
174.4202111865
 21
188.8087109989
  0
LINE
  8
0
 62
7
  6
CONTINUOUS
 10
177.0239358777
 20
190.7786132768
 11
176.7481550027
 21
191.2951113251
  0
LINE
  8
0
 62
7
  6
CONTINUOUS
 10
180.8268631043
 20
186.9756860502
 11
180.5510822293
 21
187.4921840986
  0
LINE
  8
0
 62
7
  6
CONTINUOUS
 10
174.9825589843
 20
183.1913020536
 11
174.7860063644
 21
183.628571847
  0
LINE
  8
0
 62
7
  6
CONTINUOUS
 10
173.0261411429
 20
188.9991951753
 11
173.2226937629
 21
188.5619253819
  0
LINE
  8
0
 62
7
  6
CONTINUOUS
 10
173.6980596662
 20
188.0865594786
 11
173.8946122862
 21
187.6492896852
  0
LINE
  8
0
 62
7
  6
CONTINUOUS
 10
179.828930709
 20
186.7700325784
 11
180.025483329
 21
186.332762785
  0
LINE
  8
0
 62
7
  6
CONTINUOUS
 10
173.9448452831
 20
189.2840769022
 11
173.8275209182
 21
189.6421184405
  0
LINE
  8
0
 62
7
  6
CONTINUOUS
 10
176.1052317375
 20
190.4937315499
 11
176.2225561025
 21
190.1356900115
  0
LINE
  8
0
 62
7
  6
CONTINUOUS
 10
180.9030553241
 20
186.4180594835
 11
180.8268631043
 21
186.9756860502
  0
LINE
  8
SURFACE
 62
7
  6
CONTINUOUS
 10
212.5534836066
 20
188.5026449738
 11
212.5534836066
 21
161.8435706967
  0
LINE
  8
0
 62
7
  6
CONTINUOUS
 10
212.5534836066
 20
137.9844964197
 11
212.5534836066
 21
141.2717369174
  0
LINE
  8
SURFACE
 62
7
  6
CONTINUOUS
 10
214.1971038554
 20
144.1185706967
 11
200.8675667169
 21
121.0311351314
  0
LINE
  8
0
 62
7
  6
CONTINUOUS
 10
188.9380295784
 20
100.3685706967
 11
190.5816498272
 21
103.2154044761
  0
LINE
  8
SURFACE
 62
7
  6
CONTINUOUS
 10
193.4284836066
 20
104.8590247249
 11
170.3410480413
 21
91.5294875864
  0
LINE
  8
0
 62
7
  6
CONTINUOUS
 10
149.6784836066
 20
79.5999504479
 11
152.5253173859
 21
81.2435706967
  0
LINE
  8
0
 62
7
  6
CONTINUOUS
 10
155.8125578836
 20
245.2435706967
 11
152.5253173859
 21
245.2435706967
  0
LINE
  8
SURFACE
 62
7
  6
CONTINUOUS
 10
105.2944093295
 20
245.2435706967
 11
131.9534836066
 21
245.2435706967
  0
LINE
  8
0
 62
7
  6
CONTINUOUS
 10
193.4284836066
 20
221.6281166685
 11
190.5816498272
 21
223.2717369174
  0
LINE
  8
SURFACE
 62
7
  6
CONTINUOUS
 10
149.6784836066
 20
246.8871909456
 11
172.7659191719
 21
233.557653807
  0
LINE
  8
SURFACE
 62
7
  6
CONTINUOUS
 10
188.9380295784
 20
226.1185706967
 11
202.2675667169
 21
203.0311351314
  0
LINE
  8
0
 62
7
  6
CONTINUOUS
 10
214.1971038554
 20
182.3685706967
 11
212.5534836066
 21
185.2154044761
  0
POLYLINE
  8
0
 62
7
  6
CONTINUOUS
 66
1
 70
0
  0
VERTEX
  8
0
 62
7
  6
CONTINUOUS
 10
311.2632770816
 20
65.2435711635
  0
VERTEX
  8
0
 62
7
  6
CONTINUOUS
 10
311.3720950857
 20
65.2495090718
  0
VERTEX
  8
0
 62
7
  6
CONTINUOUS
 10
311.4714577145
 20
65.2654792237
  0
VERTEX
  8
0
 62
7
  6
CONTINUOUS
 10
311.5653763892
 20
65.2902912419
  0
VERTEX
  8
0
 62
7
  6
CONTINUOUS
 10
311.6534403644
 20
65.3228192176
  0
VERTEX
  8
0
 62
7
  6
CONTINUOUS
 10
311.7353977083
 20
65.3620270819
  0
VERTEX
  8
0
 62
7
  6
CONTINUOUS
 10
311.8111235585
 20
65.4069769358
  0
VERTEX
  8
0
 62
7
  6
CONTINUOUS
 10
311.8805912907
 20
65.4568321241
  0
VERTEX
  8
0
 62
7
  6
CONTINUOUS
 10
311.9438329489
 20
65.5108431614
  0
VERTEX
  8
0
 62
7
  6
CONTINUOUS
 10
312.0008180551
 20
65.5682239744
  0
VERTEX
  8
0
 62
7
  6
CONTINUOUS
 10
312.0515397729
 20
65.6281692842
  0
VERTEX
  8
0
 62
7
  6
CONTINUOUS
 10
312.0745751937
 20
65.6588636044
  0
VERTEX
  8
0
 62
7
  6
CONTINUOUS
 10
312.1160867079
 20
65.7212424187
  0
VERTEX
  8
0
 62
7
  6
CONTINUOUS
 10
312.1516878821
 20
65.7843660663
  0
VERTEX
  8
0
 62
7
  6
CONTINUOUS
 10
312.1815954824
 20
65.8474932228
  0
VERTEX
  8
0
 62
7
  6
CONTINUOUS
 10
312.2060452064
 20
65.9097472162
  0
VERTEX
  8
0
 62
7
  6
CONTINUOUS
 10
312.2253763513
 20
65.9702243485
  0
VERTEX
  8
0
 62
7
  6
CONTINUOUS
 10
312.2396588817
 20
66.0262722901
  0
VERTEX
  8
0
 62
7
  6
CONTINUOUS
 10
312.2488199135
 20
66.0715561428
  0
VERTEX
  8
0
 62
7
  6
CONTINUOUS
 10
312.2542726938
 20
66.1042927521
  0
VERTEX
  8
0
 62
7
  6
CONTINUOUS
 10
312.2584482974
 20
66.1330159008
  0
VERTEX
  8
0
 62
7
  6
CONTINUOUS
 10
312.262619223
 20
66.164433473
  0
VERTEX
  8
0
 62
7
  6
CONTINUOUS
 10
312.2663538337
 20
66.1941948095
  0
SEQEND
  0
POLYLINE
  8
SURFACE
 62
7
  6
CONTINUOUS
 66
1
 70
0
  0
VERTEX
  8
SURFACE
 62
7
  6
CONTINUOUS
 10
324.1632770473
 20
65.2435711754
  0
VERTEX
  8
SURFACE
 62
7
  6
CONTINUOUS
 10
324.2697801614
 20
65.2492584204
  0
VERTEX
  8
SURFACE
 62
7
  6
CONTINUOUS
 10
324.3693347974
 20
65.2650298306
  0
VERTEX
  8
SURFACE
 62
7
  6
CONTINUOUS
 10
324.4634520905
 20
65.2896836234
  0
VERTEX
  8
SURFACE
 62
7
  6
CONTINUOUS
 10
324.5517160558
 20
65.3220905369
  0
VERTEX
  8
SURFACE
 62
7
  6
CONTINUOUS
 10
324.6338705778
 20
65.36121101
  0
VERTEX
  8
SURFACE
 62
7
  6
CONTINUOUS
 10
324.7097875173
 20
65.4061036651
  0
VERTEX
  8
SURFACE
 62
7
  6
CONTINUOUS
 10
324.7794377368
 20
65.4559284925
  0
VERTEX
  8
SURFACE
 62
7
  6
CONTINUOUS
 10
324.8428511953
 20
65.5099326994
  0
VERTEX
  8
SURFACE
 62
7
  6
CONTINUOUS
 10
324.8999954027
 20
65.5673268575
  0
VERTEX
  8
SURFACE
 62
7
  6
CONTINUOUS
 10
324.9508623268
 20
65.6273027755
  0
VERTEX
  8
SURFACE
 62
7
  6
CONTINUOUS
 10
324.9739648859
 20
65.6580179873
  0
VERTEX
  8
SURFACE
 62
7
  6
CONTINUOUS
 10
325.0155994412
 20
65.7204480381
  0
VERTEX
  8
SURFACE
 62
7
  6
CONTINUOUS
 10
325.0513085467
 20
65.7836333966
  0
VERTEX
  8
SURFACE
 62
7
  6
CONTINUOUS
 10
325.0813085034
 20
65.846829213
  0
VERTEX
  8
SURFACE
 62
7
  6
CONTINUOUS
 10
325.1058350294
 20
65.9091553662
  0
VERTEX
  8
SURFACE
 62
7
  6
CONTINUOUS
 10
325.1252272563
 20
65.9697022782
  0
VERTEX
  8
SURFACE
 62
7
  6
CONTINUOUS
 10
325.1395552731
 20
66.0258123786
  0
VERTEX
  8
SURFACE
 62
7
  6
CONTINUOUS
 10
325.1487574949
 20
66.0712105783
  0
VERTEX
  8
SURFACE
 62
7
  6
CONTINUOUS
 10
325.1542402792
 20
66.1040822345
  0
VERTEX
  8
SURFACE
 62
7
  6
CONTINUOUS
 10
325.1584316694
 20
66.1328955585
  0
VERTEX
  8
SURFACE
 62
7
  6
CONTINUOUS
 10
325.1626114459
 20
66.1643728896
  0
VERTEX
  8
SURFACE
 62
7
  6
CONTINUOUS
 10
325.1663538441
 20
66.1941948952
  0
SEQEND
  0
LINE
  8
SURFACE
 62
7
  6
CONTINUOUS
 10
324.163338156
 20
65.2435706967
 11
318.2633012066
 21
65.2435706967
  0
LINE
  8
0
 62
7
  6
CONTINUOUS
 10
305.3633011882
 20
65.2435706967
 11
311.2633381376
 21
65.2435706967
  0
POLYLINE
  8
0
 62
7
  6
CONTINUOUS
 66
1
 70
0
  0
VERTEX
  8
0
 62
7
  6
CONTINUOUS
 10
311.2673556771
 20
72.8170118757
  0
VERTEX
  8
0
 62
7
  6
CONTINUOUS
 10
311.3577434962
 20
72.8211015572
  0
VERTEX
  8
0
 62
7
  6
CONTINUOUS
 10
311.5312002686
 20
72.8524127494
  0
VERTEX
  8
0
 62
7
  6
CONTINUOUS
 10
311.6875745645
 20
72.9094900982
  0
VERTEX
  8
0
 62
7
  6
CONTINUOUS
 10
311.8241842632
 20
72.9861727514
  0
VERTEX
  8
0
 62
7
  6
CONTINUOUS
 10
311.9399074788
 20
73.0765635671
  0
VERTEX
  8
0
 62
7
  6
CONTINUOUS
 10
312.0347261266
 20
73.1750973471
  0
VERTEX
  8
0
 62
7
  6
CONTINUOUS
 10
312.1094226098
 20
73.2763857553
  0
VERTEX
  8
0
 62
7
  6
CONTINUOUS
 10
312.1398002447
 20
73.326624415
  0
VERTEX
  8
0
 62
7
  6
CONTINUOUS
 10
312.1881634102
 20
73.4239053781
  0
VERTEX
  8
0
 62
7
  6
CONTINUOUS
 10
312.2215068544
 20
73.5116754792
  0
VERTEX
  8
0
 62
7
  6
CONTINUOUS
 10
312.2431502386
 20
73.585908612
  0
VERTEX
  8
0
 62
7
  6
CONTINUOUS
 10
312.2579036806
 20
73.650414713
  0
VERTEX
  8
0
 62
7
  6
CONTINUOUS
 10
312.2697833404
 20
73.7142865973
  0
VERTEX
  8
0
 62
7
  6
CONTINUOUS
 10
312.2812777964
 20
73.7873248316
  0
VERTEX
  8
0
 62
7
  6
CONTINUOUS
 10
312.2920756497
 20
73.8652746739
  0
SEQEND
  0
LINE
  8
0
 62
7
  6
CONTINUOUS
 10
305.3592210436
 20
72.8170114186
 11
311.2674184228
 21
72.8170114186
  0
LINE
  8
0
 62
7
  6
CONTINUOUS
 10
317.4633196721
 20
81.2435706967
 11
313.0633196721
 21
81.2435706967
  0
POLYLINE
  8
0
 62
7
  6
CONTINUOUS
 66
1
 70
0
  0
VERTEX
  8
0
 62
7
  6
CONTINUOUS
 10
305.0200649744
 20
242.9028068179
  0
VERTEX
  8
0
 62
7
  6
CONTINUOUS
 10
304.8358542673
 20
242.8173014504
  0
VERTEX
  8
0
 62
7
  6
CONTINUOUS
 10
304.6569983882
 20
242.6867958122
  0
VERTEX
  8
0
 62
7
  6
CONTINUOUS
 10
304.5204689678
 20
242.5419282386
  0
VERTEX
  8
0
 62
7
  6
CONTINUOUS
 10
304.4194835557
 20
242.3962342068
  0
VERTEX
  8
0
 62
7
  6
CONTINUOUS
 10
304.3423048014
 20
242.2523487295
  0
VERTEX
  8
0
 62
7
  6
CONTINUOUS
 10
304.2781572073
 20
242.1043289314
  0
VERTEX
  8
0
 62
7
  6
CONTINUOUS
 10
304.2196626875
 20
241.9429971586
  0
VERTEX
  8
0
 62
7
  6
CONTINUOUS
 10
304.1620675127
 20
241.7580957935
  0
VERTEX
  8
0
 62
7
  6
CONTINUOUS
 10
304.1020304182
 20
241.5380541381
  0
VERTEX
  8
0
 62
7
  6
CONTINUOUS
 10
304.0376887952
 20
241.2727703933
  0
VERTEX
  8
0
 62
7
  6
CONTINUOUS
 10
303.9678665343
 20
240.9528130332
  0
VERTEX
  8
0
 62
7
  6
CONTINUOUS
 10
303.891515493
 20
240.5678402937
  0
VERTEX
  8
0
 62
7
  6
CONTINUOUS
 10
303.8074875646
 20
240.1054262438
  0
VERTEX
  8
0
 62
7
  6
CONTINUOUS
 10
303.7140740048
 20
239.5477988579
  0
VERTEX
  8
0
 62
7
  6
CONTINUOUS
 10
303.6127080736
 20
238.8949693301
  0
SEQEND
  0
LINE
  8
0
 62
7
  6
CONTINUOUS
 10
305.0205585323
 20
242.9029805272
 11
305.0200650666
 21
242.9028065566
  0
POLYLINE
  8
SURFACE
 62
7
  6
CONTINUOUS
 66
1
 70
0
  0
VERTEX
  8
SURFACE
 62
7
  6
CONTINUOUS
 10
324.1731284432
 20
83.5272278973
  0
VERTEX
  8
SURFACE
 62
7
  6
CONTINUOUS
 10
324.1902334582
 20
83.5273739193
  0
VERTEX
  8
SURFACE
 62
7
  6
CONTINUOUS
 10
324.3969421128
 20
83.5525442909
  0
VERTEX
  8
SURFACE
 62
7
  6
CONTINUOUS
 10
324.5060808119
 20
83.5841608662
  0
SEQEND
  0
LINE
  8
SURFACE
 62
7
  6
CONTINUOUS
 10
324.1731658761
 20
83.5272270444
 11
318.2534734719
 21
83.5272270444
  0
POLYLINE
  8
SURFACE
 62
7
  6
CONTINUOUS
 66
1
 70
0
  0
VERTEX
  8
SURFACE
 62
7
  6
CONTINUOUS
 10
317.9205569452
 20
83.5841614056
  0
VERTEX
  8
SURFACE
 62
7
  6
CONTINUOUS
 10
318.0281990298
 20
83.5528887944
  0
VERTEX
  8
SURFACE
 62
7
  6
CONTINUOUS
 10
318.2341092197
 20
83.5274157649
  0
VERTEX
  8
SURFACE
 62
7
  6
CONTINUOUS
 10
318.2535107983
 20
83.5272278962
  0
SEQEND
  0
LINE
  8
SURFACE
 62
7
  6
CONTINUOUS
 10
317.9200607489
 20
83.5843363406
 11
317.9205569452
 21
83.5841614056
  0
POLYLINE
  8
0
 62
7
  6
CONTINUOUS
 66
1
 70
0
  0
VERTEX
  8
0
 62
7
  6
CONTINUOUS
 10
312.0633196721
 20
91.5294875864
  0
VERTEX
  8
0
 62
7
  6
CONTINUOUS
 10
312.509712736
 20
91.2437655625
  0
VERTEX
  8
0
 62
7
  6
CONTINUOUS
 10
312.8147037985
 20
90.9965484235
  0
VERTEX
  8
0
 62
7
  6
CONTINUOUS
 10
312.9131544722
 20
90.8886804716
  0
VERTEX
  8
0
 62
7
  6
CONTINUOUS
 10
313.0289823077
 20
90.6975472049
  0
VERTEX
  8
0
 62
7
  6
CONTINUOUS
 10
313.0633196721
 20
90.5294875864
  0
SEQEND
  0
POLYLINE
  8
0
 62
7
  6
CONTINUOUS
 66
1
 70
0
  0
VERTEX
  8
0
 62
7
  6
CONTINUOUS
 10
311.2842852473
 20
104.2182522532
  0
VERTEX
  8
0
 62
7
  6
CONTINUOUS
 10
311.4286092864
 20
104.2286835396
  0
VERTEX
  8
0
 62
7
  6
CONTINUOUS
 10
311.6177432671
 20
104.2752599886
  0
VERTEX
  8
0
 62
7
  6
CONTINUOUS
 10
311.7838025216
 20
104.3513369822
  0
VERTEX
  8
0
 62
7
  6
CONTINUOUS
 10
311.9239629916
 20
104.4483194087
  0
VERTEX
  8
0
 62
7
  6
CONTINUOUS
 10
312.037601573
 20
104.5581175128
  0
VERTEX
  8
0
 62
7
  6
CONTINUOUS
 10
312.1252112256
 20
104.6724842535
  0
VERTEX
  8
0
 62
7
  6
CONTINUOUS
 10
312.1894280238
 20
104.7844235
  0
VERTEX
  8
0
 62
7
  6
CONTINUOUS
 10
312.2347613823
 20
104.8899615503
  0
VERTEX
  8
0
 62
7
  6
CONTINUOUS
 10
312.2598849503
 20
104.9659430493
  0
SEQEND
  0
LINE
  8
0
 62
7
  6
CONTINUOUS
 10
317.4633196721
 20
103.2154044761
 11
312.0633196721
 21
103.2154044761
  0
LINE
  8
0
 62
7
  6
CONTINUOUS
 10
305.3423127327
 20
104.2182518848
 11
311.2843267181
 21
104.2182518848
  0
LINE
  8
0
 62
7
  6
CONTINUOUS
 10
292.1633196721
 20
113.3024451998
 11
303.5633196721
 21
113.3024451998
  0
LINE
  8
0
 62
7
  6
CONTINUOUS
 10
325.9633196721
 20
113.3024451998
 11
337.3633196721
 21
113.3024451998
  0
POLYLINE
  8
SURFACE
 62
7
  6
CONTINUOUS
 66
1
 70
0
  0
VERTEX
  8
SURFACE
 62
7
  6
CONTINUOUS
 10
324.6575968496
 20
121.3551977712
  0
VERTEX
  8
SURFACE
 62
7
  6
CONTINUOUS
 10
324.8718295155
 20
121.3760841272
  0
VERTEX
  8
SURFACE
 62
7
  6
CONTINUOUS
 10
325.136929442
 20
121.4634816963
  0
VERTEX
  8
SURFACE
 62
7
  6
CONTINUOUS
 10
325.3647939959
 20
121.6049585992
  0
VERTEX
  8
SURFACE
 62
7
  6
CONTINUOUS
 10
325.4598779122
 20
121.6878293489
  0
VERTEX
  8
SURFACE
 62
7
  6
CONTINUOUS
 10
325.6151536903
 20
121.8647283108
  0
VERTEX
  8
SURFACE
 62
7
  6
CONTINUOUS
 10
325.7366924347
 20
122.0519439409
  0
VERTEX
  8
SURFACE
 62
7
  6
CONTINUOUS
 10
325.8349520675
 20
122.2455675828
  0
SEQEND
  0
LINE
  8
SURFACE
 62
7
  6
CONTINUOUS
 10
324.6578166195
 20
121.3551975326
 11
317.7688227252
 21
121.3551975326
  0
POLYLINE
  8
0
 62
7
  6
CONTINUOUS
 66
1
 70
0
  0
VERTEX
  8
0
 62
7
  6
CONTINUOUS
 10
303.7715952283
 20
106.8911087736
  0
VERTEX
  8
0
 62
7
  6
CONTINUOUS
 10
303.7714271509
 20
106.8913904934
  0
VERTEX
  8
0
 62
7
  6
CONTINUOUS
 10
303.7956496249
 20
106.841311804
  0
VERTEX
  8
0
 62
7
  6
CONTINUOUS
 10
303.821293301
 20
106.7793714307
  0
SEQEND
  0
LINE
  8
0
 62
7
  6
CONTINUOUS
 10
303.6916872767
 20
204.2415738107
 11
303.6916439339
 21
204.2414786782
  0
POLYLINE
  8
SURFACE
 62
7
  6
CONTINUOUS
 66
1
 70
0
  0
VERTEX
  8
SURFACE
 62
7
  6
CONTINUOUS
 10
316.6759666533
 20
219.6024682313
  0
VERTEX
  8
SURFACE
 62
7
  6
CONTINUOUS
 10
316.6014088387
 20
219.4812487823
  0
VERTEX
  8
SURFACE
 62
7
  6
CONTINUOUS
 10
316.5281866052
 20
219.3183919263
  0
VERTEX
  8
SURFACE
 62
7
  6
CONTINUOUS
 10
316.4779059678
 20
219.1269408615
  0
SEQEND
  0
POLYLINE
  8
0
 62
7
  6
CONTINUOUS
 66
1
 70
0
  0
VERTEX
  8
0
 62
7
  6
CONTINUOUS
 10
312.0633196721
 20
121.0311351314
  0
VERTEX
  8
0
 62
7
  6
CONTINUOUS
 10
312.509712736
 20
120.5362500693
  0
VERTEX
  8
0
 62
7
  6
CONTINUOUS
 10
312.8147037985
 20
120.108057424
  0
VERTEX
  8
0
 62
7
  6
CONTINUOUS
 10
312.9131544722
 20
119.9212246507
  0
VERTEX
  8
0
 62
7
  6
CONTINUOUS
 10
313.0289823077
 20
119.5901721218
  0
VERTEX
  8
0
 62
7
  6
CONTINUOUS
 10
313.0633196721
 20
119.2990843239
  0
SEQEND
  0
POLYLINE
  8
0
 62
7
  6
CONTINUOUS
 66
1
 70
0
  0
VERTEX
  8
0
 62
7
  6
CONTINUOUS
 10
303.821293301
 20
106.7793714307
  0
VERTEX
  8
0
 62
7
  6
CONTINUOUS
 10
303.8902641036
 20
106.582345761
  0
VERTEX
  8
0
 62
7
  6
CONTINUOUS
 10
303.9286814665
 20
106.4565736954
  0
SEQEND
  0
POLYLINE
  8
0
 62
7
  6
CONTINUOUS
 66
1
 70
0
  0
VERTEX
  8
0
 62
7
  6
CONTINUOUS
 10
304.3667546682
 20
104.9659420136
  0
VERTEX
  8
0
 62
7
  6
CONTINUOUS
 10
304.3919533369
 20
104.8897574364
  0
VERTEX
  8
0
 62
7
  6
CONTINUOUS
 10
304.4374214387
 20
104.7839986731
  0
VERTEX
  8
0
 62
7
  6
CONTINUOUS
 10
304.5018206125
 20
104.6718896894
  0
VERTEX
  8
0
 62
7
  6
CONTINUOUS
 10
304.5896597151
 20
104.5574154686
  0
VERTEX
  8
0
 62
7
  6
CONTINUOUS
 10
304.7035942216
 20
104.4475629308
  0
VERTEX
  8
0
 62
7
  6
CONTINUOUS
 10
304.8441239726
 20
104.3506002727
  0
VERTEX
  8
0
 62
7
  6
CONTINUOUS
 10
305.0106174913
 20
104.2746554551
  0
VERTEX
  8
0
 62
7
  6
CONTINUOUS
 10
305.2002295658
 20
104.2283663868
  0
VERTEX
  8
0
 62
7
  6
CONTINUOUS
 10
305.3423535587
 20
104.2182522787
  0
SEQEND
  0
LINE
  8
0
 62
7
  6
CONTINUOUS
 10
303.9286864379
 20
106.4565567761
 11
304.3667592737
 21
104.9659262139
  0
POLYLINE
  8
0
 62
7
  6
CONTINUOUS
 66
1
 70
0
  0
VERTEX
  8
0
 62
7
  6
CONTINUOUS
 10
303.6073200262
 20
72.9453478281
  0
VERTEX
  8
0
 62
7
  6
CONTINUOUS
 10
303.7511586332
 20
71.6044261787
  0
VERTEX
  8
0
 62
7
  6
CONTINUOUS
 10
303.8919526816
 20
70.3060766261
  0
VERTEX
  8
0
 62
7
  6
CONTINUOUS
 10
304.0248674247
 20
69.0981751371
  0
VERTEX
  8
0
 62
7
  6
CONTINUOUS
 10
304.1483512745
 20
67.9980912936
  0
VERTEX
  8
0
 62
7
  6
CONTINUOUS
 10
304.2611242397
 20
67.0207827783
  0
VERTEX
  8
0
 62
7
  6
CONTINUOUS
 10
304.3602869357
 20
66.1941832088
  0
SEQEND
  0
LINE
  8
0
 62
7
  6
CONTINUOUS
 10
289.6633196721
 20
115.8024451998
 11
289.6633196721
 21
210.6846961937
  0
POLYLINE
  8
0
 62
7
  6
CONTINUOUS
 66
1
 70
0
  0
VERTEX
  8
0
 62
7
  6
CONTINUOUS
 10
304.3602869357
 20
260.2929581846
  0
VERTEX
  8
0
 62
7
  6
CONTINUOUS
 10
304.2611242397
 20
259.4663586152
  0
VERTEX
  8
0
 62
7
  6
CONTINUOUS
 10
304.1483512745
 20
258.4890500998
  0
VERTEX
  8
0
 62
7
  6
CONTINUOUS
 10
304.0248674247
 20
257.3889662564
  0
VERTEX
  8
0
 62
7
  6
CONTINUOUS
 10
303.8919526816
 20
256.1810647673
  0
VERTEX
  8
0
 62
7
  6
CONTINUOUS
 10
303.7511586332
 20
254.8827152147
  0
VERTEX
  8
0
 62
7
  6
CONTINUOUS
 10
303.6073200262
 20
253.5417935653
  0
SEQEND
  0
POLYLINE
  8
0
 62
7
  6
CONTINUOUS
 66
1
 70
0
  0
VERTEX
  8
0
 62
7
  6
CONTINUOUS
 10
303.6127075583
 20
238.8949655988
  0
VERTEX
  8
0
 62
7
  6
CONTINUOUS
 10
303.5860130625
 20
238.6809285656
  0
VERTEX
  8
0
 62
7
  6
CONTINUOUS
 10
303.5683976497
 20
238.4398297349
  0
VERTEX
  8
0
 62
7
  6
CONTINUOUS
 10
303.5633196936
 20
238.2201438611
  0
SEQEND
  0
LINE
  8
0
 62
7
  6
CONTINUOUS
 10
303.6916439642
 20
204.2414786644
 11
303.596783364
 21
203.95474772
  0
LINE
  8
0
 62
7
  6
CONTINUOUS
 10
317.4633196721
 20
141.2717369174
 11
312.0633196721
 21
141.2717369174
  0
LINE
  8
0
 62
7
  6
CONTINUOUS
 10
303.6125101664
 20
79.2497076328
 11
303.750656586
 21
78.286346147
  0
POLYLINE
  8
0
 62
7
  6
CONTINUOUS
 66
1
 70
0
  0
VERTEX
  8
0
 62
7
  6
CONTINUOUS
 10
304.3345636522
 20
73.8652749552
  0
VERTEX
  8
0
 62
7
  6
CONTINUOUS
 10
304.3453738332
 20
73.787241085
  0
VERTEX
  8
0
 62
7
  6
CONTINUOUS
 10
304.356880388
 20
73.7141433365
  0
VERTEX
  8
0
 62
7
  6
CONTINUOUS
 10
304.3687750817
 20
73.6502219896
  0
VERTEX
  8
0
 62
7
  6
CONTINUOUS
 10
304.3835609625
 20
73.5856275199
  0
VERTEX
  8
0
 62
7
  6
CONTINUOUS
 10
304.4052836708
 20
73.5112174491
  0
VERTEX
  8
0
 62
7
  6
CONTINUOUS
 10
304.4387568331
 20
73.4232564713
  0
VERTEX
  8
0
 62
7
  6
CONTINUOUS
 10
304.4872867413
 20
73.3258339668
  0
VERTEX
  8
0
 62
7
  6
CONTINUOUS
 10
304.5177620172
 20
73.2755414302
  0
VERTEX
  8
0
 62
7
  6
CONTINUOUS
 10
304.5926771324
 20
73.1741878388
  0
VERTEX
  8
0
 62
7
  6
CONTINUOUS
 10
304.6877449238
 20
73.0756463925
  0
VERTEX
  8
0
 62
7
  6
CONTINUOUS
 10
304.8037552267
 20
72.9853040555
  0
VERTEX
  8
0
 62
7
  6
CONTINUOUS
 10
304.9406868996
 20
72.9087415667
  0
VERTEX
  8
0
 62
7
  6
CONTINUOUS
 10
305.0974086507
 20
72.8518766838
  0
VERTEX
  8
0
 62
7
  6
CONTINUOUS
 10
305.2712205526
 20
72.8208935004
  0
VERTEX
  8
0
 62
7
  6
CONTINUOUS
 10
305.3592834435
 20
72.8170118988
  0
SEQEND
  0
LINE
  8
0
 62
7
  6
CONTINUOUS
 10
303.750656586
 20
78.286346147
 11
303.8967354898
 21
77.2020709592
  0
LINE
  8
0
 62
7
  6
CONTINUOUS
 10
303.8967355273
 20
77.2020706631
 11
304.3345649861
 21
73.8652647421
  0
POLYLINE
  8
0
 62
7
  6
CONTINUOUS
 66
1
 70
0
  0
VERTEX
  8
0
 62
7
  6
CONTINUOUS
 10
304.3602860296
 20
66.1941905915
  0
VERTEX
  8
0
 62
7
  6
CONTINUOUS
 10
304.3638889888
 20
66.1654559791
  0
VERTEX
  8
0
 62
7
  6
CONTINUOUS
 10
304.3677568609
 20
66.1361736242
  0
VERTEX
  8
0
 62
7
  6
CONTINUOUS
 10
304.3716067426
 20
66.1092845788
  0
VERTEX
  8
0
 62
7
  6
CONTINUOUS
 10
304.3767477537
 20
66.077585264
  0
VERTEX
  8
0
 62
7
  6
CONTINUOUS
 10
304.3850610473
 20
66.0349748369
  0
VERTEX
  8
0
 62
7
  6
CONTINUOUS
 10
304.397610286
 20
65.9833616361
  0
VERTEX
  8
0
 62
7
  6
CONTINUOUS
 10
304.4146225376
 20
65.9270794371
  0
VERTEX
  8
0
 62
7
  6
CONTINUOUS
 10
304.4362860917
 20
65.8684250833
  0
VERTEX
  8
0
 62
7
  6
CONTINUOUS
 10
304.4629336017
 20
65.8083861264
  0
VERTEX
  8
0
 62
7
  6
CONTINUOUS
 10
304.4947005832
 20
65.7480404081
  0
VERTEX
  8
0
 62
7
  6
CONTINUOUS
 10
304.5320972675
 20
65.6876067628
  0
VERTEX
  8
0
 62
7
  6
CONTINUOUS
 10
304.5531220755
 20
65.6573989486
  0
VERTEX
  8
0
 62
7
  6
CONTINUOUS
 10
304.6003051039
 20
65.5971872902
  0
VERTEX
  8
0
 62
7
  6
CONTINUOUS
 10
304.6548480272
 20
65.5378371868
  0
VERTEX
  8
0
 62
7
  6
CONTINUOUS
 10
304.7170024494
 20
65.4805122134
  0
VERTEX
  8
0
 62
7
  6
CONTINUOUS
 10
304.7868330199
 20
65.4264767651
  0
VERTEX
  8
0
 62
7
  6
CONTINUOUS
 10
304.8643395325
 20
65.3769705313
  0
VERTEX
  8
0
 62
7
  6
CONTINUOUS
 10
304.9494045372
 20
65.3332678408
  0
VERTEX
  8
0
 62
7
  6
CONTINUOUS
 10
305.0417234911
 20
65.2967047443
  0
VERTEX
  8
0
 62
7
  6
CONTINUOUS
 10
305.1407801228
 20
65.2686554615
  0
VERTEX
  8
0
 62
7
  6
CONTINUOUS
 10
305.245824762
 20
65.2505022624
  0
VERTEX
  8
0
 62
7
  6
CONTINUOUS
 10
305.3633622972
 20
65.2435711754
  0
SEQEND
  0
LINE
  8
0
 62
7
  6
CONTINUOUS
 10
303.5861773839
 20
79.4598403054
 11
303.6125099759
 21
79.2497091873
  0
POLYLINE
  8
0
 62
7
  6
CONTINUOUS
 66
1
 70
0
  0
VERTEX
  8
0
 62
7
  6
CONTINUOUS
 10
303.5633197207
 20
107.5347694946
  0
VERTEX
  8
0
 62
7
  6
CONTINUOUS
 10
303.5782171583
 20
107.3583512431
  0
VERTEX
  8
0
 62
7
  6
CONTINUOUS
 10
303.6285599254
 20
107.1677159634
  0
VERTEX
  8
0
 62
7
  6
CONTINUOUS
 10
303.7016391307
 20
107.0054673703
  0
VERTEX
  8
0
 62
7
  6
CONTINUOUS
 10
303.77189295
 20
106.8912919662
  0
SEQEND
  0
POLYLINE
  8
0
 62
7
  6
CONTINUOUS
 66
1
 70
0
  0
VERTEX
  8
0
 62
7
  6
CONTINUOUS
 10
303.5633196884
 20
79.9036530758
  0
VERTEX
  8
0
 62
7
  6
CONTINUOUS
 10
303.5685172185
 20
79.69313832
  0
VERTEX
  8
0
 62
7
  6
CONTINUOUS
 10
303.5861773839
 20
79.4598403054
  0
SEQEND
  0
POLYLINE
  8
0
 62
7
  6
CONTINUOUS
 66
1
 70
0
  0
VERTEX
  8
0
 62
7
  6
CONTINUOUS
 10
303.5633196918
 20
73.7732056883
  0
VERTEX
  8
0
 62
7
  6
CONTINUOUS
 10
303.5677882087
 20
73.508736812
  0
VERTEX
  8
0
 62
7
  6
CONTINUOUS
 10
303.5834203446
 20
73.2129165159
  0
VERTEX
  8
0
 62
7
  6
CONTINUOUS
 10
303.6073200527
 20
72.945348006
  0
SEQEND
  0
POLYLINE
  8
0
 62
7
  6
CONTINUOUS
 66
1
 70
0
  0
VERTEX
  8
0
 62
7
  6
CONTINUOUS
 10
303.6073200527
 20
253.5417933875
  0
VERTEX
  8
0
 62
7
  6
CONTINUOUS
 10
303.5834203446
 20
253.2742248776
  0
VERTEX
  8
0
 62
7
  6
CONTINUOUS
 10
303.5677882087
 20
252.9784045815
  0
VERTEX
  8
0
 62
7
  6
CONTINUOUS
 10
303.5633196918
 20
252.7139357051
  0
SEQEND
  0
LINE
  8
0
 62
7
  6
CONTINUOUS
 10
303.596783364
 20
203.95474772
 11
303.5633196968
 21
203.6367786523
  0
LINE
  8
SURFACE
 62
7
  6
CONTINUOUS
 10
317.2667592736
 20
221.5212151795
 11
316.8286864377
 21
220.0305846167
  0
LINE
  8
SURFACE
 62
7
  6
CONTINUOUS
 10
316.8286813947
 20
220.0305674431
 11
316.7902640453
 21
219.904795169
  0
POLYLINE
  8
SURFACE
 62
7
  6
CONTINUOUS
 66
1
 70
0
  0
VERTEX
  8
SURFACE
 62
7
  6
CONTINUOUS
 10
316.7902640453
 20
219.904795169
  0
VERTEX
  8
SURFACE
 62
7
  6
CONTINUOUS
 10
316.7212938399
 20
219.7077714007
  0
VERTEX
  8
SURFACE
 62
7
  6
CONTINUOUS
 10
316.6956492394
 20
219.6458285899
  0
VERTEX
  8
SURFACE
 62
7
  6
CONTINUOUS
 10
316.6752989718
 20
219.6028788987
  0
SEQEND
  0
POLYLINE
  8
SURFACE
 62
7
  6
CONTINUOUS
 66
1
 70
0
  0
VERTEX
  8
SURFACE
 62
7
  6
CONTINUOUS
 10
316.5916874573
 20
122.2455671971
  0
VERTEX
  8
SURFACE
 62
7
  6
CONTINUOUS
 10
316.6898924693
 20
122.0520397846
  0
VERTEX
  8
SURFACE
 62
7
  6
CONTINUOUS
 10
316.8112798324
 20
121.865004415
  0
VERTEX
  8
SURFACE
 62
7
  6
CONTINUOUS
 10
316.9662618099
 20
121.6883099281
  0
VERTEX
  8
SURFACE
 62
7
  6
CONTINUOUS
 10
317.0611421208
 20
121.605512778
  0
VERTEX
  8
SURFACE
 62
7
  6
CONTINUOUS
 10
317.2884710062
 20
121.4640680166
  0
VERTEX
  8
SURFACE
 62
7
  6
CONTINUOUS
 10
317.5528288425
 20
121.376475474
  0
VERTEX
  8
SURFACE
 62
7
  6
CONTINUOUS
 10
317.7690423348
 20
121.3551977745
  0
SEQEND
  0
LINE
  8
SURFACE
 62
7
  6
CONTINUOUS
 10
316.5916448055
 20
122.2456608124
 11
316.5916874573
 21
122.2455671971
  0
POLYLINE
  8
SURFACE
 62
7
  6
CONTINUOUS
 66
1
 70
0
  0
VERTEX
  8
SURFACE
 62
7
  6
CONTINUOUS
 10
316.5073200258
 20
72.9453478317
  0
VERTEX
  8
SURFACE
 62
7
  6
CONTINUOUS
 10
316.6511579913
 20
71.6044321336
  0
VERTEX
  8
SURFACE
 62
7
  6
CONTINUOUS
 10
316.7919508842
 20
70.3060930916
  0
VERTEX
  8
SURFACE
 62
7
  6
CONTINUOUS
 10
316.9248647131
 20
69.0981995573
  0
VERTEX
  8
SURFACE
 62
7
  6
CONTINUOUS
 10
317.048348496
 20
67.9981157397
  0
VERTEX
  8
SURFACE
 62
7
  6
CONTINUOUS
 10
317.1611224546
 20
67.0207979804
  0
SEQEND
  0
LINE
  8
0
 62
7
  6
CONTINUOUS
 10
303.5633196721
 20
73.7732056819
 11
303.5633196721
 21
252.7139357115
  0
POLYLINE
  8
0
 62
7
  6
CONTINUOUS
 66
1
 70
0
  0
VERTEX
  8
0
 62
7
  6
CONTINUOUS
 10
313.0633196721
 20
224.2717369174
  0
VERTEX
  8
0
 62
7
  6
CONTINUOUS
 10
313.0504364111
 20
224.1117352183
  0
VERTEX
  8
0
 62
7
  6
CONTINUOUS
 10
312.9603753176
 20
223.8298193132
  0
VERTEX
  8
0
 62
7
  6
CONTINUOUS
 10
312.8225476899
 20
223.6209121968
  0
VERTEX
  8
0
 62
7
  6
CONTINUOUS
 10
312.6638969543
 20
223.4721702046
  0
VERTEX
  8
0
 62
7
  6
CONTINUOUS
 10
312.5820659635
 20
223.4168086834
  0
VERTEX
  8
0
 62
7
  6
CONTINUOUS
 10
312.4215306166
 20
223.3380962374
  0
VERTEX
  8
0
 62
7
  6
CONTINUOUS
 10
312.2720036545
 20
223.293753791
  0
VERTEX
  8
0
 62
7
  6
CONTINUOUS
 10
312.1317553411
 20
223.274081386
  0
VERTEX
  8
0
 62
7
  6
CONTINUOUS
 10
312.0633196721
 20
223.2717369174
  0
SEQEND
  0
POLYLINE
  8
SURFACE
 62
7
  6
CONTINUOUS
 66
1
 70
0
  0
VERTEX
  8
SURFACE
 62
7
  6
CONTINUOUS
 10
316.5073200357
 20
253.5417934485
  0
VERTEX
  8
SURFACE
 62
7
  6
CONTINUOUS
 10
316.4834210804
 20
253.274235007
  0
VERTEX
  8
SURFACE
 62
7
  6
CONTINUOUS
 10
316.4677885455
 20
252.9784148438
  0
VERTEX
  8
SURFACE
 62
7
  6
CONTINUOUS
 10
316.4633196972
 20
252.7139357201
  0
SEQEND
  0
POLYLINE
  8
SURFACE
 62
7
  6
CONTINUOUS
 66
1
 70
0
  0
VERTEX
  8
SURFACE
 62
7
  6
CONTINUOUS
 10
317.2602869304
 20
260.2929581327
  0
VERTEX
  8
SURFACE
 62
7
  6
CONTINUOUS
 10
317.1611224546
 20
259.4663434131
  0
VERTEX
  8
SURFACE
 62
7
  6
CONTINUOUS
 10
317.048348496
 20
258.4890256537
  0
VERTEX
  8
SURFACE
 62
7
  6
CONTINUOUS
 10
316.9248647131
 20
257.3889418362
  0
VERTEX
  8
SURFACE
 62
7
  6
CONTINUOUS
 10
316.7919508842
 20
256.1810483018
  0
VERTEX
  8
SURFACE
 62
7
  6
CONTINUOUS
 10
316.6511579913
 20
254.8827092598
  0
VERTEX
  8
SURFACE
 62
7
  6
CONTINUOUS
 10
316.5073200258
 20
253.5417935617
  0
SEQEND
  0
POLYLINE
  8
SURFACE
 62
7
  6
CONTINUOUS
 66
1
 70
0
  0
VERTEX
  8
SURFACE
 62
7
  6
CONTINUOUS
 10
316.5125100369
 20
247.2374327633
  0
VERTEX
  8
SURFACE
 62
7
  6
CONTINUOUS
 10
316.4861792101
 20
247.0273188903
  0
VERTEX
  8
SURFACE
 62
7
  6
CONTINUOUS
 10
316.4685180666
 20
246.7940204569
  0
VERTEX
  8
SURFACE
 62
7
  6
CONTINUOUS
 10
316.4633196924
 20
246.5834801052
  0
SEQEND
  0
LINE
  8
SURFACE
 62
7
  6
CONTINUOUS
 10
317.2345649861
 20
252.6218766514
 11
316.7922706343
 21
249.2519299077
  0
POLYLINE
  8
SURFACE
 62
7
  6
CONTINUOUS
 66
1
 70
0
  0
VERTEX
  8
SURFACE
 62
7
  6
CONTINUOUS
 10
316.7922706343
 20
249.2519299077
  0
VERTEX
  8
SURFACE
 62
7
  6
CONTINUOUS
 10
316.6506560972
 20
248.2007916253
  0
VERTEX
  8
SURFACE
 62
7
  6
CONTINUOUS
 10
316.5125101642
 20
247.2374337487
  0
SEQEND
  0
POLYLINE
  8
SURFACE
 62
7
  6
CONTINUOUS
 66
1
 70
0
  0
VERTEX
  8
SURFACE
 62
7
  6
CONTINUOUS
 10
316.5127080742
 20
87.5921720649
  0
VERTEX
  8
SURFACE
 62
7
  6
CONTINUOUS
 10
316.6141197402
 20
86.939058913
  0
VERTEX
  8
SURFACE
 62
7
  6
CONTINUOUS
 10
316.7075710616
 20
86.3812366681
  0
VERTEX
  8
SURFACE
 62
7
  6
CONTINUOUS
 10
316.7916282421
 20
85.9187071138
  0
VERTEX
  8
SURFACE
 62
7
  6
CONTINUOUS
 10
316.8680005951
 20
85.5336837438
  0
VERTEX
  8
SURFACE
 62
7
  6
CONTINUOUS
 10
316.9378446244
 20
85.2136933019
  0
VERTEX
  8
SURFACE
 62
7
  6
CONTINUOUS
 10
317.002218418
 20
84.9483558906
  0
VERTEX
  8
SURFACE
 62
7
  6
CONTINUOUS
 10
317.0622938188
 20
84.7282683433
  0
VERTEX
  8
SURFACE
 62
7
  6
CONTINUOUS
 10
317.1199241917
 20
84.543364038
  0
VERTEX
  8
SURFACE
 62
7
  6
CONTINUOUS
 10
317.178441707
 20
84.3820913606
  0
VERTEX
  8
SURFACE
 62
7
  6
CONTINUOUS
 10
317.2425896774
 20
84.2341973936
  0
VERTEX
  8
SURFACE
 62
7
  6
CONTINUOUS
 10
317.3197386244
 20
84.0904844473
  0
VERTEX
  8
SURFACE
 62
7
  6
CONTINUOUS
 10
317.4206220392
 20
83.945021272
  0
VERTEX
  8
SURFACE
 62
7
  6
CONTINUOUS
 10
317.5570235703
 20
83.8003230336
  0
VERTEX
  8
SURFACE
 62
7
  6
CONTINUOUS
 10
317.7358012319
 20
83.6698710171
  0
VERTEX
  8
SURFACE
 62
7
  6
CONTINUOUS
 10
317.9200606734
 20
83.5843361267
  0
SEQEND
  0
POLYLINE
  8
SURFACE
 62
7
  6
CONTINUOUS
 66
1
 70
0
  0
VERTEX
  8
SURFACE
 62
7
  6
CONTINUOUS
 10
317.2602860361
 20
66.1941905379
  0
VERTEX
  8
SURFACE
 62
7
  6
CONTINUOUS
 10
317.2638825111
 20
66.1655065359
  0
VERTEX
  8
SURFACE
 62
7
  6
CONTINUOUS
 10
317.2677441433
 20
66.1362665528
  0
VERTEX
  8
SURFACE
 62
7
  6
CONTINUOUS
 10
317.2715837077
 20
66.1094375813
  0
VERTEX
  8
SURFACE
 62
7
  6
CONTINUOUS
 10
317.2767005697
 20
66.0778549821
  0
VERTEX
  8
SURFACE
 62
7
  6
CONTINUOUS
 10
317.2849691928
 20
66.035400327
  0
VERTEX
  8
SURFACE
 62
7
  6
CONTINUOUS
 10
317.2974595136
 20
65.9839190129
  0
VERTEX
  8
SURFACE
 62
7
  6
CONTINUOUS
 10
317.3143983142
 20
65.9277508058
  0
VERTEX
  8
SURFACE
 62
7
  6
CONTINUOUS
 10
317.3359711266
 20
65.86920339
  0
VERTEX
  8
SURFACE
 62
7
  6
CONTINUOUS
 10
317.3625144444
 20
65.8092537897
  0
VERTEX
  8
SURFACE
 62
7
  6
CONTINUOUS
 10
317.3941657025
 20
65.7489787446
  0
VERTEX
  8
SURFACE
 62
7
  6
CONTINUOUS
 10
317.4314334726
 20
65.6886001732
  0
VERTEX
  8
SURFACE
 62
7
  6
CONTINUOUS
 10
317.4523895917
 20
65.6584124425
  0
VERTEX
  8
SURFACE
 62
7
  6
CONTINUOUS
 10
317.4994288244
 20
65.5982229113
  0
VERTEX
  8
SURFACE
 62
7
  6
CONTINUOUS
 10
317.5538194597
 20
65.5388711117
  0
VERTEX
  8
SURFACE
 62
7
  6
CONTINUOUS
 10
317.6158105709
 20
65.4815232474
  0
VERTEX
  8
SURFACE
 62
7
  6
CONTINUOUS
 10
317.6854641681
 20
65.42744419
  0
VERTEX
  8
SURFACE
 62
7
  6
CONTINUOUS
 10
317.7627811662
 20
65.3778696562
  0
VERTEX
  8
SURFACE
 62
7
  6
CONTINUOUS
 10
317.8476479827
 20
65.3340685848
  0
VERTEX
  8
SURFACE
 62
7
  6
CONTINUOUS
 10
317.9397652565
 20
65.2973721206
  0
VERTEX
  8
SURFACE
 62
7
  6
CONTINUOUS
 10
318.0386232097
 20
65.2691503628
  0
VERTEX
  8
SURFACE
 62
7
  6
CONTINUOUS
 10
318.1434799222
 20
65.2507825664
  0
VERTEX
  8
SURFACE
 62
7
  6
CONTINUOUS
 10
318.2633622628
 20
65.2435711635
  0
SEQEND
  0
LINE
  8
SURFACE
 62
7
  6
CONTINUOUS
 10
317.1611224546
 20
67.0207979804
 11
317.2602869304
 21
66.1941832607
  0
POLYLINE
  8
SURFACE
 62
7
  6
CONTINUOUS
 66
1
 70
0
  0
VERTEX
  8
SURFACE
 62
7
  6
CONTINUOUS
 10
316.4633197024
 20
122.8503619601
  0
VERTEX
  8
SURFACE
 62
7
  6
CONTINUOUS
 10
316.4967845338
 20
122.5323882468
  0
VERTEX
  8
SURFACE
 62
7
  6
CONTINUOUS
 10
316.5916448069
 20
122.2456608131
  0
SEQEND
  0
POLYLINE
  8
SURFACE
 62
7
  6
CONTINUOUS
 66
1
 70
0
  0
VERTEX
  8
SURFACE
 62
7
  6
CONTINUOUS
 10
316.4633196993
 20
88.2670085963
  0
VERTEX
  8
SURFACE
 62
7
  6
CONTINUOUS
 10
316.4683980606
 20
88.0473026374
  0
VERTEX
  8
SURFACE
 62
7
  6
CONTINUOUS
 10
316.4860139596
 20
87.8062039446
  0
VERTEX
  8
SURFACE
 62
7
  6
CONTINUOUS
 10
316.5127076099
 20
87.5921752846
  0
SEQEND
  0
POLYLINE
  8
0
 62
7
  6
CONTINUOUS
 66
1
 70
0
  0
VERTEX
  8
0
 62
7
  6
CONTINUOUS
 10
313.0633196449
 20
238.2201327971
  0
VERTEX
  8
0
 62
7
  6
CONTINUOUS
 10
313.0582412837
 20
238.439838756
  0
VERTEX
  8
0
 62
7
  6
CONTINUOUS
 10
313.0406253847
 20
238.6809374489
  0
VERTEX
  8
0
 62
7
  6
CONTINUOUS
 10
313.0139317343
 20
238.8949661088
  0
SEQEND
  0
POLYLINE
  8
0
 62
7
  6
CONTINUOUS
 66
1
 70
0
  0
VERTEX
  8
0
 62
7
  6
CONTINUOUS
 10
313.063319647
 20
252.7139357201
  0
VERTEX
  8
0
 62
7
  6
CONTINUOUS
 10
313.0588507988
 20
252.9784148438
  0
VERTEX
  8
0
 62
7
  6
CONTINUOUS
 10
313.0432182638
 20
253.274235007
  0
VERTEX
  8
0
 62
7
  6
CONTINUOUS
 10
313.0193193086
 20
253.5417934485
  0
SEQEND
  0
POLYLINE
  8
SURFACE
 62
7
  6
CONTINUOUS
 66
1
 70
0
  0
VERTEX
  8
SURFACE
 62
7
  6
CONTINUOUS
 10
316.4633196972
 20
73.7732056733
  0
VERTEX
  8
SURFACE
 62
7
  6
CONTINUOUS
 10
316.4677885455
 20
73.5087265496
  0
VERTEX
  8
SURFACE
 62
7
  6
CONTINUOUS
 10
316.4834210804
 20
73.2129063864
  0
VERTEX
  8
SURFACE
 62
7
  6
CONTINUOUS
 10
316.5073200357
 20
72.9453479449
  0
SEQEND
  0
LINE
  8
0
 62
7
  6
CONTINUOUS
 10
313.0633196721
 20
252.7139357115
 11
313.0633196721
 21
245.2435706967
  0
LINE
  8
0
 62
7
  6
CONTINUOUS
 10
313.0633196721
 20
238.2202838446
 11
313.0633196721
 21
224.2717369174
  0
LINE
  8
0
 62
7
  6
CONTINUOUS
 10
313.0633196721
 20
203.6366822386
 11
313.0633196721
 21
186.9474552836
  0
LINE
  8
0
 62
7
  6
CONTINUOUS
 10
313.0633196721
 20
159.8435706967
 11
313.0633196721
 21
143.2717369174
  0
LINE
  8
0
 62
7
  6
CONTINUOUS
 10
313.0633196721
 20
119.2990843239
 11
313.0633196721
 21
104.9474552836
  0
LINE
  8
0
 62
7
  6
CONTINUOUS
 10
313.0633196721
 20
90.5294875864
 11
313.0633196721
 21
73.7732056819
  0
LINE
  8
0
 62
7
  6
CONTINUOUS
 10
313.0633196721
 20
203.6366822386
 11
313.063319667
 21
203.6367794333
  0
POLYLINE
  8
0
 62
7
  6
CONTINUOUS
 66
1
 70
0
  0
VERTEX
  8
0
 62
7
  6
CONTINUOUS
 10
313.0633196721
 20
143.2717369174
  0
VERTEX
  8
0
 62
7
  6
CONTINUOUS
 10
313.0504364111
 20
142.9517335193
  0
VERTEX
  8
0
 62
7
  6
CONTINUOUS
 10
312.9603753176
 20
142.3879017091
  0
VERTEX
  8
0
 62
7
  6
CONTINUOUS
 10
312.8225476899
 20
141.9700874761
  0
VERTEX
  8
0
 62
7
  6
CONTINUOUS
 10
312.6638969543
 20
141.6726034919
  0
VERTEX
  8
0
 62
7
  6
CONTINUOUS
 10
312.5820659635
 20
141.5618804495
  0
VERTEX
  8
0
 62
7
  6
CONTINUOUS
 10
312.4215306166
 20
141.4044555575
  0
VERTEX
  8
0
 62
7
  6
CONTINUOUS
 10
312.2720036545
 20
141.3157706646
  0
VERTEX
  8
0
 62
7
  6
CONTINUOUS
 10
312.1317553411
 20
141.2764258547
  0
VERTEX
  8
0
 62
7
  6
CONTINUOUS
 10
312.0633196721
 20
141.2717369174
  0
SEQEND
  0
POLYLINE
  8
SURFACE
 62
7
  6
CONTINUOUS
 66
1
 70
0
  0
VERTEX
  8
SURFACE
 62
7
  6
CONTINUOUS
 10
316.4633196721
 20
183.2154044761
  0
VERTEX
  8
SURFACE
 62
7
  6
CONTINUOUS
 10
316.4762029332
 20
183.5354078741
  0
VERTEX
  8
SURFACE
 62
7
  6
CONTINUOUS
 10
316.5662640266
 20
184.0992396844
  0
VERTEX
  8
SURFACE
 62
7
  6
CONTINUOUS
 10
316.7040916543
 20
184.5170539173
  0
VERTEX
  8
SURFACE
 62
7
  6
CONTINUOUS
 10
316.86274239
 20
184.8145379016
  0
VERTEX
  8
SURFACE
 62
7
  6
CONTINUOUS
 10
316.9445733807
 20
184.9252609439
  0
VERTEX
  8
SURFACE
 62
7
  6
CONTINUOUS
 10
317.1051087277
 20
185.082685836
  0
VERTEX
  8
SURFACE
 62
7
  6
CONTINUOUS
 10
317.2546356898
 20
185.1713707289
  0
VERTEX
  8
SURFACE
 62
7
  6
CONTINUOUS
 10
317.3948840031
 20
185.2107155387
  0
VERTEX
  8
SURFACE
 62
7
  6
CONTINUOUS
 10
317.4633196721
 20
185.2154044761
  0
SEQEND
  0
POLYLINE
  8
0
 62
7
  6
CONTINUOUS
 66
1
 70
0
  0
VERTEX
  8
0
 62
7
  6
CONTINUOUS
 10
313.0633196721
 20
186.9474552836
  0
VERTEX
  8
0
 62
7
  6
CONTINUOUS
 10
313.0504364111
 20
186.6703242116
  0
VERTEX
  8
0
 62
7
  6
CONTINUOUS
 10
312.9603753176
 20
186.1820315405
  0
VERTEX
  8
0
 62
7
  6
CONTINUOUS
 10
312.8225476899
 20
185.8201938007
  0
VERTEX
  8
0
 62
7
  6
CONTINUOUS
 10
312.6638969543
 20
185.5625651131
  0
VERTEX
  8
0
 62
7
  6
CONTINUOUS
 10
312.5820659635
 20
185.4666761457
  0
VERTEX
  8
0
 62
7
  6
CONTINUOUS
 10
312.4215306166
 20
185.3303421899
  0
VERTEX
  8
0
 62
7
  6
CONTINUOUS
 10
312.2720036545
 20
185.2535388198
  0
VERTEX
  8
0
 62
7
  6
CONTINUOUS
 10
312.1317553411
 20
185.2194652149
  0
VERTEX
  8
0
 62
7
  6
CONTINUOUS
 10
312.0633196721
 20
185.2154044761
  0
SEQEND
  0
POLYLINE
  8
SURFACE
 62
7
  6
CONTINUOUS
 66
1
 70
0
  0
VERTEX
  8
SURFACE
 62
7
  6
CONTINUOUS
 10
316.4633196721
 20
221.5396861098
  0
VERTEX
  8
SURFACE
 62
7
  6
CONTINUOUS
 10
316.4762029332
 20
221.8168171818
  0
VERTEX
  8
SURFACE
 62
7
  6
CONTINUOUS
 10
316.5662640266
 20
222.305109853
  0
VERTEX
  8
SURFACE
 62
7
  6
CONTINUOUS
 10
316.7040916543
 20
222.6669475927
  0
VERTEX
  8
SURFACE
 62
7
  6
CONTINUOUS
 10
316.86274239
 20
222.9245762803
  0
VERTEX
  8
SURFACE
 62
7
  6
CONTINUOUS
 10
316.9445733807
 20
223.0204652478
  0
VERTEX
  8
SURFACE
 62
7
  6
CONTINUOUS
 10
317.1051087277
 20
223.1567992035
  0
VERTEX
  8
SURFACE
 62
7
  6
CONTINUOUS
 10
317.2546356898
 20
223.2336025737
  0
VERTEX
  8
SURFACE
 62
7
  6
CONTINUOUS
 10
317.3948840031
 20
223.2676761785
  0
VERTEX
  8
SURFACE
 62
7
  6
CONTINUOUS
 10
317.4633196721
 20
223.2717369174
  0
SEQEND
  0
LINE
  8
SURFACE
 62
7
  6
CONTINUOUS
 10
316.4779059678
 20
219.1269408615
 11
316.463319727
 21
218.9523815834
  0
LINE
  8
DEFAULT_1
 62
2
  6
CENTER
 10
287.6633196721
 20
163.2435706967
 11
341.8633196721
 21
163.2435706967
  0
POLYLINE
  8
0
 62
7
  6
CONTINUOUS
 66
1
 70
0
  0
VERTEX
  8
0
 62
7
  6
CONTINUOUS
 10
312.0633196721
 20
161.8435706967
  0
VERTEX
  8
0
 62
7
  6
CONTINUOUS
 10
312.509712736
 20
161.272126649
  0
VERTEX
  8
0
 62
7
  6
CONTINUOUS
 10
312.8147037985
 20
160.777692371
  0
VERTEX
  8
0
 62
7
  6
CONTINUOUS
 10
312.9131544722
 20
160.5619564671
  0
VERTEX
  8
0
 62
7
  6
CONTINUOUS
 10
313.0289823077
 20
160.1796899338
  0
VERTEX
  8
0
 62
7
  6
CONTINUOUS
 10
313.0633196721
 20
159.8435706967
  0
SEQEND
  0
POLYLINE
  8
0
 62
7
  6
CONTINUOUS
 66
1
 70
0
  0
VERTEX
  8
0
 62
7
  6
CONTINUOUS
 10
313.0633196419
 20
203.6367794333
  0
VERTEX
  8
0
 62
7
  6
CONTINUOUS
 10
313.0298548105
 20
203.9547531467
  0
VERTEX
  8
0
 62
7
  6
CONTINUOUS
 10
312.9349945373
 20
204.2414805804
  0
SEQEND
  0
LINE
  8
SURFACE
 62
7
  6
CONTINUOUS
 10
316.4633196721
 20
122.8504591549
 11
316.4633196773
 21
122.8503619601
  0
LINE
  8
SURFACE
 62
7
  6
CONTINUOUS
 10
316.4633196721
 20
73.7732056819
 11
316.4633196721
 21
81.2435706967
  0
LINE
  8
SURFACE
 62
7
  6
CONTINUOUS
 10
316.4633196721
 20
88.2668575488
 11
316.4633196721
 21
102.2154044761
  0
LINE
  8
SURFACE
 62
7
  6
CONTINUOUS
 10
316.4633196721
 20
122.8504591549
 11
316.4633196721
 21
139.5396861098
  0
LINE
  8
SURFACE
 62
7
  6
CONTINUOUS
 10
316.4633196721
 20
166.6435706967
 11
316.4633196721
 21
183.2154044761
  0
LINE
  8
SURFACE
 62
7
  6
CONTINUOUS
 10
316.4633196721
 20
207.1880570696
 11
316.4633196721
 21
221.5396861098
  0
LINE
  8
SURFACE
 62
7
  6
CONTINUOUS
 10
316.4633196721
 20
235.957653807
 11
316.4633196721
 21
252.7139357115
  0
POLYLINE
  8
0
 62
7
  6
CONTINUOUS
 66
1
 70
0
  0
VERTEX
  8
0
 62
7
  6
CONTINUOUS
 10
313.0633196721
 20
104.9474552836
  0
VERTEX
  8
0
 62
7
  6
CONTINUOUS
 10
313.0504364111
 20
104.6703242116
  0
VERTEX
  8
0
 62
7
  6
CONTINUOUS
 10
312.9603753176
 20
104.1820315405
  0
VERTEX
  8
0
 62
7
  6
CONTINUOUS
 10
312.8225476899
 20
103.8201938007
  0
VERTEX
  8
0
 62
7
  6
CONTINUOUS
 10
312.6638969543
 20
103.5625651131
  0
VERTEX
  8
0
 62
7
  6
CONTINUOUS
 10
312.5820659635
 20
103.4666761457
  0
VERTEX
  8
0
 62
7
  6
CONTINUOUS
 10
312.4215306166
 20
103.3303421899
  0
VERTEX
  8
0
 62
7
  6
CONTINUOUS
 10
312.2720036545
 20
103.2535388198
  0
VERTEX
  8
0
 62
7
  6
CONTINUOUS
 10
312.1317553411
 20
103.2194652149
  0
VERTEX
  8
0
 62
7
  6
CONTINUOUS
 10
312.0633196721
 20
103.2154044761
  0
SEQEND
  0
POLYLINE
  8
SURFACE
 62
7
  6
CONTINUOUS
 66
1
 70
0
  0
VERTEX
  8
SURFACE
 62
7
  6
CONTINUOUS
 10
316.4633196721
 20
139.5396861098
  0
VERTEX
  8
SURFACE
 62
7
  6
CONTINUOUS
 10
316.4762029332
 20
139.8168171818
  0
VERTEX
  8
SURFACE
 62
7
  6
CONTINUOUS
 10
316.5662640266
 20
140.305109853
  0
VERTEX
  8
SURFACE
 62
7
  6
CONTINUOUS
 10
316.7040916543
 20
140.6669475927
  0
VERTEX
  8
SURFACE
 62
7
  6
CONTINUOUS
 10
316.86274239
 20
140.9245762803
  0
VERTEX
  8
SURFACE
 62
7
  6
CONTINUOUS
 10
316.9445733807
 20
141.0204652478
  0
VERTEX
  8
SURFACE
 62
7
  6
CONTINUOUS
 10
317.1051087277
 20
141.1567992035
  0
VERTEX
  8
SURFACE
 62
7
  6
CONTINUOUS
 10
317.2546356898
 20
141.2336025737
  0
VERTEX
  8
SURFACE
 62
7
  6
CONTINUOUS
 10
317.3948840031
 20
141.2676761785
  0
VERTEX
  8
SURFACE
 62
7
  6
CONTINUOUS
 10
317.4633196721
 20
141.2717369174
  0
SEQEND
  0
POLYLINE
  8
SURFACE
 62
7
  6
CONTINUOUS
 66
1
 70
0
  0
VERTEX
  8
SURFACE
 62
7
  6
CONTINUOUS
 10
316.4633196721
 20
102.2154044761
  0
VERTEX
  8
SURFACE
 62
7
  6
CONTINUOUS
 10
316.4762029332
 20
102.3754061751
  0
VERTEX
  8
SURFACE
 62
7
  6
CONTINUOUS
 10
316.5662640266
 20
102.6573220802
  0
VERTEX
  8
SURFACE
 62
7
  6
CONTINUOUS
 10
316.7040916543
 20
102.8662291967
  0
VERTEX
  8
SURFACE
 62
7
  6
CONTINUOUS
 10
316.86274239
 20
103.0149711888
  0
VERTEX
  8
SURFACE
 62
7
  6
CONTINUOUS
 10
316.9445733807
 20
103.07033271
  0
VERTEX
  8
SURFACE
 62
7
  6
CONTINUOUS
 10
317.1051087277
 20
103.149045156
  0
VERTEX
  8
SURFACE
 62
7
  6
CONTINUOUS
 10
317.2546356898
 20
103.1933876025
  0
VERTEX
  8
SURFACE
 62
7
  6
CONTINUOUS
 10
317.3948840031
 20
103.2130600074
  0
VERTEX
  8
SURFACE
 62
7
  6
CONTINUOUS
 10
317.4633196721
 20
103.2154044761
  0
SEQEND
  0
LINE
  8
0
 62
7
  6
CONTINUOUS
 10
313.0487333764
 20
107.3602005319
 11
313.0633196172
 21
107.5347598101
  0
POLYLINE
  8
0
 62
7
  6
CONTINUOUS
 66
1
 70
0
  0
VERTEX
  8
0
 62
7
  6
CONTINUOUS
 10
313.0193193086
 20
72.9453479449
  0
VERTEX
  8
0
 62
7
  6
CONTINUOUS
 10
313.0432182638
 20
73.2129063864
  0
VERTEX
  8
0
 62
7
  6
CONTINUOUS
 10
313.0588507988
 20
73.5087265496
  0
VERTEX
  8
0
 62
7
  6
CONTINUOUS
 10
313.063319647
 20
73.7732056733
  0
SEQEND
  0
POLYLINE
  8
SURFACE
 62
7
  6
CONTINUOUS
 66
1
 70
0
  0
VERTEX
  8
SURFACE
 62
7
  6
CONTINUOUS
 10
317.4633196721
 20
164.6435706967
  0
VERTEX
  8
SURFACE
 62
7
  6
CONTINUOUS
 10
317.0169266083
 20
165.2150147444
  0
VERTEX
  8
SURFACE
 62
7
  6
CONTINUOUS
 10
316.7119355457
 20
165.7094490224
  0
VERTEX
  8
SURFACE
 62
7
  6
CONTINUOUS
 10
316.6134848721
 20
165.9251849263
  0
VERTEX
  8
SURFACE
 62
7
  6
CONTINUOUS
 10
316.4976570366
 20
166.3074514597
  0
VERTEX
  8
SURFACE
 62
7
  6
CONTINUOUS
 10
316.4633196721
 20
166.6435706967
  0
SEQEND
  0
POLYLINE
  8
0
 62
7
  6
CONTINUOUS
 66
1
 70
0
  0
VERTEX
  8
0
 62
7
  6
CONTINUOUS
 10
313.0193193185
 20
253.5417935617
  0
VERTEX
  8
0
 62
7
  6
CONTINUOUS
 10
312.8754813529
 20
254.8827092598
  0
VERTEX
  8
0
 62
7
  6
CONTINUOUS
 10
312.7346884601
 20
256.1810483018
  0
VERTEX
  8
0
 62
7
  6
CONTINUOUS
 10
312.6017746312
 20
257.3889418362
  0
VERTEX
  8
0
 62
7
  6
CONTINUOUS
 10
312.4782908483
 20
258.4890256537
  0
VERTEX
  8
0
 62
7
  6
CONTINUOUS
 10
312.3655168897
 20
259.4663434131
  0
SEQEND
  0
POLYLINE
  8
SURFACE
 62
7
  6
CONTINUOUS
 66
1
 70
0
  0
VERTEX
  8
SURFACE
 62
7
  6
CONTINUOUS
 10
325.9633196558
 20
246.5834883177
  0
VERTEX
  8
SURFACE
 62
7
  6
CONTINUOUS
 10
325.9581221258
 20
246.7940030735
  0
VERTEX
  8
SURFACE
 62
7
  6
CONTINUOUS
 10
325.9404619604
 20
247.027301088
  0
SEQEND
  0
POLYLINE
  8
SURFACE
 62
7
  6
CONTINUOUS
 66
1
 70
0
  0
VERTEX
  8
SURFACE
 62
7
  6
CONTINUOUS
 10
325.9633196525
 20
252.7139357051
  0
VERTEX
  8
SURFACE
 62
7
  6
CONTINUOUS
 10
325.9588511356
 20
252.9784045815
  0
VERTEX
  8
SURFACE
 62
7
  6
CONTINUOUS
 10
325.9432189996
 20
253.2742248776
  0
VERTEX
  8
SURFACE
 62
7
  6
CONTINUOUS
 10
325.9193192916
 20
253.5417933875
  0
SEQEND
  0
LINE
  8
SURFACE
 62
7
  6
CONTINUOUS
 10
325.9633196721
 20
73.7732056819
 11
325.9633196721
 21
252.7139357115
  0
POLYLINE
  8
0
 62
7
  6
CONTINUOUS
 66
1
 70
0
  0
VERTEX
  8
0
 62
7
  6
CONTINUOUS
 10
312.2663524139
 20
66.1941832607
  0
VERTEX
  8
0
 62
7
  6
CONTINUOUS
 10
312.3655168897
 20
67.0207979804
  0
VERTEX
  8
0
 62
7
  6
CONTINUOUS
 10
312.4782908483
 20
67.9981157397
  0
VERTEX
  8
0
 62
7
  6
CONTINUOUS
 10
312.6017746312
 20
69.0981995573
  0
VERTEX
  8
0
 62
7
  6
CONTINUOUS
 10
312.7346884601
 20
70.3060930916
  0
VERTEX
  8
0
 62
7
  6
CONTINUOUS
 10
312.8754813529
 20
71.6044321336
  0
VERTEX
  8
0
 62
7
  6
CONTINUOUS
 10
313.0193193185
 20
72.9453478317
  0
SEQEND
  0
POLYLINE
  8
0
 62
7
  6
CONTINUOUS
 66
1
 70
0
  0
VERTEX
  8
0
 62
7
  6
CONTINUOUS
 10
313.0141293074
 20
79.2497086301
  0
VERTEX
  8
0
 62
7
  6
CONTINUOUS
 10
313.0404601341
 20
79.4598225032
  0
VERTEX
  8
0
 62
7
  6
CONTINUOUS
 10
313.0581212776
 20
79.6931209366
  0
VERTEX
  8
0
 62
7
  6
CONTINUOUS
 10
313.0633196519
 20
79.9036612883
  0
SEQEND
  0
LINE
  8
0
 62
7
  6
CONTINUOUS
 10
312.2920743581
 20
73.8652647421
 11
312.7343687099
 21
77.2352114858
  0
POLYLINE
  8
0
 62
7
  6
CONTINUOUS
 66
1
 70
0
  0
VERTEX
  8
0
 62
7
  6
CONTINUOUS
 10
312.7343687099
 20
77.2352114858
  0
VERTEX
  8
0
 62
7
  6
CONTINUOUS
 10
312.875983247
 20
78.2863497681
  0
VERTEX
  8
0
 62
7
  6
CONTINUOUS
 10
313.01412918
 20
79.2497076447
  0
SEQEND
  0
LINE
  8
0
 62
7
  6
CONTINUOUS
 10
312.2598800706
 20
104.9659262139
 11
312.6979529065
 21
106.4565567767
  0
POLYLINE
  8
0
 62
7
  6
CONTINUOUS
 66
1
 70
0
  0
VERTEX
  8
0
 62
7
  6
CONTINUOUS
 10
313.01393127
 20
238.8949693286
  0
VERTEX
  8
0
 62
7
  6
CONTINUOUS
 10
312.9125196041
 20
239.5480824805
  0
VERTEX
  8
0
 62
7
  6
CONTINUOUS
 10
312.8190682826
 20
240.1059047254
  0
VERTEX
  8
0
 62
7
  6
CONTINUOUS
 10
312.7350111022
 20
240.5684342796
  0
VERTEX
  8
0
 62
7
  6
CONTINUOUS
 10
312.6586387492
 20
240.9534576496
  0
VERTEX
  8
0
 62
7
  6
CONTINUOUS
 10
312.5887947198
 20
241.2734480915
  0
VERTEX
  8
0
 62
7
  6
CONTINUOUS
 10
312.5244209263
 20
241.5387855029
  0
VERTEX
  8
0
 62
7
  6
CONTINUOUS
 10
312.4643455255
 20
241.7588730501
  0
VERTEX
  8
0
 62
7
  6
CONTINUOUS
 10
312.4067151526
 20
241.9437773555
  0
VERTEX
  8
0
 62
7
  6
CONTINUOUS
 10
312.3481976373
 20
242.1050500328
  0
VERTEX
  8
0
 62
7
  6
CONTINUOUS
 10
312.2840496669
 20
242.2529439998
  0
VERTEX
  8
0
 62
7
  6
CONTINUOUS
 10
312.2069007199
 20
242.3966569461
  0
VERTEX
  8
0
 62
7
  6
CONTINUOUS
 10
312.1060173051
 20
242.5421201215
  0
VERTEX
  8
0
 62
7
  6
CONTINUOUS
 10
311.9696157739
 20
242.6868183598
  0
VERTEX
  8
0
 62
7
  6
CONTINUOUS
 10
311.7908381123
 20
242.8172703764
  0
VERTEX
  8
0
 62
7
  6
CONTINUOUS
 10
311.6065786708
 20
242.9028052668
  0
SEQEND
  0
POLYLINE
  8
0
 62
7
  6
CONTINUOUS
 66
1
 70
0
  0
VERTEX
  8
0
 62
7
  6
CONTINUOUS
 10
312.2663533082
 20
260.2929508556
  0
VERTEX
  8
0
 62
7
  6
CONTINUOUS
 10
312.2627568331
 20
260.3216348575
  0
VERTEX
  8
0
 62
7
  6
CONTINUOUS
 10
312.258895201
 20
260.3508748406
  0
VERTEX
  8
0
 62
7
  6
CONTINUOUS
 10
312.2550556365
 20
260.3777038122
  0
VERTEX
  8
0
 62
7
  6
CONTINUOUS
 10
312.2499387745
 20
260.4092864114
  0
VERTEX
  8
0
 62
7
  6
CONTINUOUS
 10
312.2416701515
 20
260.4517410665
  0
VERTEX
  8
0
 62
7
  6
CONTINUOUS
 10
312.2291798307
 20
260.5032223805
  0
VERTEX
  8
0
 62
7
  6
CONTINUOUS
 10
312.2122410301
 20
260.5593905876
  0
VERTEX
  8
0
 62
7
  6
CONTINUOUS
 10
312.1906682176
 20
260.6179380034
  0
VERTEX
  8
0
 62
7
  6
CONTINUOUS
 10
312.1641248999
 20
260.6778876038
  0
VERTEX
  8
0
 62
7
  6
CONTINUOUS
 10
312.1324736418
 20
260.7381626489
  0
VERTEX
  8
0
 62
7
  6
CONTINUOUS
 10
312.0952058716
 20
260.7985412203
  0
VERTEX
  8
0
 62
7
  6
CONTINUOUS
 10
312.0742497525
 20
260.828728951
  0
VERTEX
  8
0
 62
7
  6
CONTINUOUS
 10
312.0272105199
 20
260.8889184821
  0
VERTEX
  8
0
 62
7
  6
CONTINUOUS
 10
311.9728198846
 20
260.9482702817
  0
VERTEX
  8
0
 62
7
  6
CONTINUOUS
 10
311.9108287734
 20
261.005618146
  0
VERTEX
  8
0
 62
7
  6
CONTINUOUS
 10
311.8411751761
 20
261.0596972034
  0
VERTEX
  8
0
 62
7
  6
CONTINUOUS
 10
311.7638581781
 20
261.1092717373
  0
VERTEX
  8
0
 62
7
  6
CONTINUOUS
 10
311.6789913616
 20
261.1530728086
  0
VERTEX
  8
0
 62
7
  6
CONTINUOUS
 10
311.5868740878
 20
261.1897692729
  0
VERTEX
  8
0
 62
7
  6
CONTINUOUS
 10
311.4880161346
 20
261.2179910306
  0
VERTEX
  8
0
 62
7
  6
CONTINUOUS
 10
311.3831594221
 20
261.2363588271
  0
VERTEX
  8
0
 62
7
  6
CONTINUOUS
 10
311.2632770814
 20
261.24357023
  0
SEQEND
  0
LINE
  8
0
 62
7
  6
CONTINUOUS
 10
312.3655168897
 20
259.4663434131
 11
312.2663524139
 21
260.2929581327
  0
POLYLINE
  8
SURFACE
 62
7
  6
CONTINUOUS
 66
1
 70
0
  0
VERTEX
  8
SURFACE
 62
7
  6
CONTINUOUS
 10
325.9193193181
 20
253.5417935653
  0
VERTEX
  8
SURFACE
 62
7
  6
CONTINUOUS
 10
325.775480711
 20
254.8827152147
  0
VERTEX
  8
SURFACE
 62
7
  6
CONTINUOUS
 10
325.6346866626
 20
256.1810647673
  0
VERTEX
  8
SURFACE
 62
7
  6
CONTINUOUS
 10
325.5017719196
 20
257.3889662564
  0
VERTEX
  8
SURFACE
 62
7
  6
CONTINUOUS
 10
325.3782880697
 20
258.4890500998
  0
VERTEX
  8
SURFACE
 62
7
  6
CONTINUOUS
 10
325.2655151045
 20
259.4663586152
  0
VERTEX
  8
SURFACE
 62
7
  6
CONTINUOUS
 10
325.1663524086
 20
260.2929581846
  0
SEQEND
  0
POLYLINE
  8
SURFACE
 62
7
  6
CONTINUOUS
 66
1
 70
0
  0
VERTEX
  8
SURFACE
 62
7
  6
CONTINUOUS
 10
325.9633196235
 20
218.9523718989
  0
VERTEX
  8
SURFACE
 62
7
  6
CONTINUOUS
 10
325.948422186
 20
219.1287901503
  0
VERTEX
  8
SURFACE
 62
7
  6
CONTINUOUS
 10
325.8980794188
 20
219.3194254301
  0
VERTEX
  8
SURFACE
 62
7
  6
CONTINUOUS
 10
325.8250002136
 20
219.4816740232
  0
VERTEX
  8
SURFACE
 62
7
  6
CONTINUOUS
 10
325.7547463943
 20
219.5958494273
  0
SEQEND
  0
POLYLINE
  8
SURFACE
 62
7
  6
CONTINUOUS
 66
1
 70
0
  0
VERTEX
  8
SURFACE
 62
7
  6
CONTINUOUS
 10
325.9193192916
 20
72.945348006
  0
VERTEX
  8
SURFACE
 62
7
  6
CONTINUOUS
 10
325.9432189996
 20
73.2129165159
  0
VERTEX
  8
SURFACE
 62
7
  6
CONTINUOUS
 10
325.9588511356
 20
73.508736812
  0
VERTEX
  8
SURFACE
 62
7
  6
CONTINUOUS
 10
325.9633196525
 20
73.7732056883
  0
SEQEND
  0
LINE
  8
SURFACE
 62
7
  6
CONTINUOUS
 10
325.9298559803
 20
122.5323936735
 11
325.9633196474
 21
122.8503627412
  0
POLYLINE
  8
SURFACE
 62
7
  6
CONTINUOUS
 66
1
 70
0
  0
VERTEX
  8
SURFACE
 62
7
  6
CONTINUOUS
 10
325.9139317859
 20
87.5921757947
  0
VERTEX
  8
SURFACE
 62
7
  6
CONTINUOUS
 10
325.9406262817
 20
87.8062128278
  0
VERTEX
  8
SURFACE
 62
7
  6
CONTINUOUS
 10
325.9582416946
 20
88.0473116586
  0
VERTEX
  8
SURFACE
 62
7
  6
CONTINUOUS
 10
325.9633196507
 20
88.2669975324
  0
SEQEND
  0
LINE
  8
0
 62
7
  6
CONTINUOUS
 10
312.6979579496
 20
106.4565739503
 11
312.7363752989
 21
106.5823462244
  0
POLYLINE
  8
0
 62
7
  6
CONTINUOUS
 66
1
 70
0
  0
VERTEX
  8
0
 62
7
  6
CONTINUOUS
 10
312.7363752989
 20
106.5823462244
  0
VERTEX
  8
0
 62
7
  6
CONTINUOUS
 10
312.8053455043
 20
106.7793699928
  0
VERTEX
  8
0
 62
7
  6
CONTINUOUS
 10
312.8309901048
 20
106.8413128036
  0
VERTEX
  8
0
 62
7
  6
CONTINUOUS
 10
312.8513403725
 20
106.8842624948
  0
SEQEND
  0
POLYLINE
  8
0
 62
7
  6
CONTINUOUS
 66
1
 70
0
  0
VERTEX
  8
0
 62
7
  6
CONTINUOUS
 10
312.934951887
 20
204.2415741964
  0
VERTEX
  8
0
 62
7
  6
CONTINUOUS
 10
312.836746875
 20
204.4351016088
  0
VERTEX
  8
0
 62
7
  6
CONTINUOUS
 10
312.7153595119
 20
204.6221369785
  0
VERTEX
  8
0
 62
7
  6
CONTINUOUS
 10
312.5603775343
 20
204.7988314653
  0
VERTEX
  8
0
 62
7
  6
CONTINUOUS
 10
312.4654972234
 20
204.8816286155
  0
VERTEX
  8
0
 62
7
  6
CONTINUOUS
 10
312.2381683381
 20
205.0230733768
  0
VERTEX
  8
0
 62
7
  6
CONTINUOUS
 10
311.9738105018
 20
205.1106659195
  0
VERTEX
  8
0
 62
7
  6
CONTINUOUS
 10
311.7575970095
 20
205.1319436189
  0
SEQEND
  0
LINE
  8
0
 62
7
  6
CONTINUOUS
 10
312.9349945387
 20
204.241480581
 11
312.934951887
 21
204.2415741964
  0
LINE
  8
0
 62
7
  6
CONTINUOUS
 10
339.8633196721
 20
210.6846961937
 11
339.8633196721
 21
115.8024451998
  0
POLYLINE
  8
SURFACE
 62
7
  6
CONTINUOUS
 66
1
 70
0
  0
VERTEX
  8
SURFACE
 62
7
  6
CONTINUOUS
 10
325.1663524086
 20
66.1941832088
  0
VERTEX
  8
SURFACE
 62
7
  6
CONTINUOUS
 10
325.2655151045
 20
67.0207827783
  0
VERTEX
  8
SURFACE
 62
7
  6
CONTINUOUS
 10
325.3782880697
 20
67.9980912936
  0
VERTEX
  8
SURFACE
 62
7
  6
CONTINUOUS
 10
325.5017719196
 20
69.0981751371
  0
VERTEX
  8
SURFACE
 62
7
  6
CONTINUOUS
 10
325.6346866626
 20
70.3060766261
  0
VERTEX
  8
SURFACE
 62
7
  6
CONTINUOUS
 10
325.775480711
 20
71.6044261787
  0
VERTEX
  8
SURFACE
 62
7
  6
CONTINUOUS
 10
325.9193193181
 20
72.9453478281
  0
SEQEND
  0
LINE
  8
SURFACE
 62
7
  6
CONTINUOUS
 10
325.83499538
 20
122.2456627291
 11
325.9298559803
 21
122.5323936735
  0
LINE
  8
SURFACE
 62
7
  6
CONTINUOUS
 10
325.8349520675
 20
122.2455675828
 11
325.8349954104
 21
122.2456627152
  0
POLYLINE
  8
0
 62
7
  6
CONTINUOUS
 66
1
 70
0
  0
VERTEX
  8
0
 62
7
  6
CONTINUOUS
 10
312.850672691
 20
106.8846731622
  0
VERTEX
  8
0
 62
7
  6
CONTINUOUS
 10
312.9252305056
 20
107.0058926111
  0
VERTEX
  8
0
 62
7
  6
CONTINUOUS
 10
312.9984527391
 20
107.1687494672
  0
VERTEX
  8
0
 62
7
  6
CONTINUOUS
 10
313.0487333764
 20
107.3602005319
  0
SEQEND
  0
LINE
  8
0
 62
7
  6
CONTINUOUS
 10
317.4633196721
 20
185.2154044761
 11
312.0633196721
 21
185.2154044761
  0
LINE
  8
SURFACE
 62
7
  6
CONTINUOUS
 10
325.5979529063
 20
220.0305846174
 11
325.1598800706
 21
221.5212151796
  0
LINE
  8
SURFACE
 62
7
  6
CONTINUOUS
 10
325.9141291778
 20
247.2374337607
 11
325.7759827583
 21
248.2007952464
  0
POLYLINE
  8
SURFACE
 62
7
  6
CONTINUOUS
 66
1
 70
0
  0
VERTEX
  8
SURFACE
 62
7
  6
CONTINUOUS
 10
325.192075692
 20
252.6218664383
  0
VERTEX
  8
SURFACE
 62
7
  6
CONTINUOUS
 10
325.1812655111
 20
252.6999003084
  0
VERTEX
  8
SURFACE
 62
7
  6
CONTINUOUS
 10
325.1697589563
 20
252.7729980569
  0
VERTEX
  8
SURFACE
 62
7
  6
CONTINUOUS
 10
325.1578642626
 20
252.8369194038
  0
VERTEX
  8
SURFACE
 62
7
  6
CONTINUOUS
 10
325.1430783818
 20
252.9015138735
  0
VERTEX
  8
SURFACE
 62
7
  6
CONTINUOUS
 10
325.1213556735
 20
252.9759239443
  0
VERTEX
  8
SURFACE
 62
7
  6
CONTINUOUS
 10
325.0878825112
 20
253.0638849222
  0
VERTEX
  8
SURFACE
 62
7
  6
CONTINUOUS
 10
325.0393526029
 20
253.1613074266
  0
VERTEX
  8
SURFACE
 62
7
  6
CONTINUOUS
 10
325.0088773271
 20
253.2115999632
  0
VERTEX
  8
SURFACE
 62
7
  6
CONTINUOUS
 10
324.9339622119
 20
253.3129535546
  0
VERTEX
  8
SURFACE
 62
7
  6
CONTINUOUS
 10
324.8388944205
 20
253.4114950009
  0
VERTEX
  8
SURFACE
 62
7
  6
CONTINUOUS
 10
324.7228841176
 20
253.501837338
  0
VERTEX
  8
SURFACE
 62
7
  6
CONTINUOUS
 10
324.5859524447
 20
253.5783998267
  0
VERTEX
  8
SURFACE
 62
7
  6
CONTINUOUS
 10
324.4292306936
 20
253.6352647097
  0
VERTEX
  8
SURFACE
 62
7
  6
CONTINUOUS
 10
324.2554187916
 20
253.666247893
  0
VERTEX
  8
SURFACE
 62
7
  6
CONTINUOUS
 10
324.1673559008
 20
253.6701294947
  0
SEQEND
  0
LINE
  8
SURFACE
 62
7
  6
CONTINUOUS
 10
325.7759827583
 20
248.2007952464
 11
325.6299038544
 21
249.2850704342
  0
LINE
  8
SURFACE
 62
7
  6
CONTINUOUS
 10
325.629903817
 20
249.2850707303
 11
325.1920743581
 21
252.6218766514
  0
LINE
  8
SURFACE
 62
7
  6
CONTINUOUS
 10
325.9404619604
 20
247.027301088
 11
325.9141293684
 21
247.2374322062
  0
POLYLINE
  8
SURFACE
 62
7
  6
CONTINUOUS
 66
1
 70
0
  0
VERTEX
  8
SURFACE
 62
7
  6
CONTINUOUS
 10
325.1663533146
 20
260.2929508019
  0
VERTEX
  8
SURFACE
 62
7
  6
CONTINUOUS
 10
325.1627503555
 20
260.3216854144
  0
VERTEX
  8
SURFACE
 62
7
  6
CONTINUOUS
 10
325.1588824834
 20
260.3509677693
  0
VERTEX
  8
SURFACE
 62
7
  6
CONTINUOUS
 10
325.1550326016
 20
260.3778568146
  0
VERTEX
  8
SURFACE
 62
7
  6
CONTINUOUS
 10
325.1498915906
 20
260.4095561294
  0
VERTEX
  8
SURFACE
 62
7
  6
CONTINUOUS
 10
325.141578297
 20
260.4521665566
  0
VERTEX
  8
SURFACE
 62
7
  6
CONTINUOUS
 10
325.1290290583
 20
260.5037797573
  0
VERTEX
  8
SURFACE
 62
7
  6
CONTINUOUS
 10
325.1120168066
 20
260.5600619563
  0
VERTEX
  8
SURFACE
 62
7
  6
CONTINUOUS
 10
325.0903532526
 20
260.6187163101
  0
VERTEX
  8
SURFACE
 62
7
  6
CONTINUOUS
 10
325.0637057426
 20
260.678755267
  0
VERTEX
  8
SURFACE
 62
7
  6
CONTINUOUS
 10
325.0319387611
 20
260.7391009854
  0
VERTEX
  8
SURFACE
 62
7
  6
CONTINUOUS
 10
324.9945420768
 20
260.7995346306
  0
VERTEX
  8
SURFACE
 62
7
  6
CONTINUOUS
 10
324.9735172688
 20
260.8297424449
  0
VERTEX
  8
SURFACE
 62
7
  6
CONTINUOUS
 10
324.9263342404
 20
260.8899541032
  0
VERTEX
  8
SURFACE
 62
7
  6
CONTINUOUS
 10
324.8717913171
 20
260.9493042066
  0
VERTEX
  8
SURFACE
 62
7
  6
CONTINUOUS
 10
324.8096368949
 20
261.00662918
  0
VERTEX
  8
SURFACE
 62
7
  6
CONTINUOUS
 10
324.7398063244
 20
261.0606646284
  0
VERTEX
  8
SURFACE
 62
7
  6
CONTINUOUS
 10
324.6622998117
 20
261.1101708621
  0
VERTEX
  8
SURFACE
 62
7
  6
CONTINUOUS
 10
324.5772348071
 20
261.1538735527
  0
VERTEX
  8
SURFACE
 62
7
  6
CONTINUOUS
 10
324.4849158532
 20
261.1904366492
  0
VERTEX
  8
SURFACE
 62
7
  6
CONTINUOUS
 10
324.3858592214
 20
261.2184859319
  0
VERTEX
  8
SURFACE
 62
7
  6
CONTINUOUS
 10
324.2808145822
 20
261.2366391311
  0
VERTEX
  8
SURFACE
 62
7
  6
CONTINUOUS
 10
324.1632770471
 20
261.243570218
  0
SEQEND
  0
POLYLINE
  8
SURFACE
 62
7
  6
CONTINUOUS
 66
1
 70
0
  0
VERTEX
  8
SURFACE
 62
7
  6
CONTINUOUS
 10
317.4633196721
 20
205.456006262
  0
VERTEX
  8
SURFACE
 62
7
  6
CONTINUOUS
 10
317.0169266083
 20
205.9508913242
  0
VERTEX
  8
SURFACE
 62
7
  6
CONTINUOUS
 10
316.7119355457
 20
206.3790839694
  0
VERTEX
  8
SURFACE
 62
7
  6
CONTINUOUS
 10
316.6134848721
 20
206.5659167427
  0
VERTEX
  8
SURFACE
 62
7
  6
CONTINUOUS
 10
316.4976570366
 20
206.8969692716
  0
VERTEX
  8
SURFACE
 62
7
  6
CONTINUOUS
 10
316.4633196721
 20
207.1880570696
  0
SEQEND
  0
POLYLINE
  8
SURFACE
 62
7
  6
CONTINUOUS
 66
1
 70
0
  0
VERTEX
  8
SURFACE
 62
7
  6
CONTINUOUS
 10
325.7053460433
 20
219.7077699628
  0
VERTEX
  8
SURFACE
 62
7
  6
CONTINUOUS
 10
325.6363752407
 20
219.9047956324
  0
VERTEX
  8
SURFACE
 62
7
  6
CONTINUOUS
 10
325.5979578778
 20
220.030567698
  0
SEQEND
  0
POLYLINE
  8
SURFACE
 62
7
  6
CONTINUOUS
 66
1
 70
0
  0
VERTEX
  8
SURFACE
 62
7
  6
CONTINUOUS
 10
325.1598846761
 20
221.5211993798
  0
VERTEX
  8
SURFACE
 62
7
  6
CONTINUOUS
 10
325.1346860074
 20
221.5973839571
  0
VERTEX
  8
SURFACE
 62
7
  6
CONTINUOUS
 10
325.0892179056
 20
221.7031427203
  0
VERTEX
  8
SURFACE
 62
7
  6
CONTINUOUS
 10
325.0248187317
 20
221.8152517041
  0
VERTEX
  8
SURFACE
 62
7
  6
CONTINUOUS
 10
324.9369796292
 20
221.9297259248
  0
VERTEX
  8
SURFACE
 62
7
  6
CONTINUOUS
 10
324.8230451227
 20
222.0395784627
  0
VERTEX
  8
SURFACE
 62
7
  6
CONTINUOUS
 10
324.6825153716
 20
222.1365411208
  0
VERTEX
  8
SURFACE
 62
7
  6
CONTINUOUS
 10
324.5160218529
 20
222.2124859383
  0
VERTEX
  8
SURFACE
 62
7
  6
CONTINUOUS
 10
324.3264097785
 20
222.2587750067
  0
VERTEX
  8
SURFACE
 62
7
  6
CONTINUOUS
 10
324.1842857856
 20
222.2688891147
  0
SEQEND
  0
POLYLINE
  8
SURFACE
 62
7
  6
CONTINUOUS
 66
1
 70
0
  0
VERTEX
  8
SURFACE
 62
7
  6
CONTINUOUS
 10
325.755044116
 20
219.5960326198
  0
VERTEX
  8
SURFACE
 62
7
  6
CONTINUOUS
 10
325.7552121934
 20
219.5957509001
  0
VERTEX
  8
SURFACE
 62
7
  6
CONTINUOUS
 10
325.7309897194
 20
219.6458295895
  0
VERTEX
  8
SURFACE
 62
7
  6
CONTINUOUS
 10
325.7053460433
 20
219.7077699628
  0
SEQEND
  0
POLYLINE
  8
0
 62
7
  6
CONTINUOUS
 66
1
 70
0
  0
VERTEX
  8
0
 62
7
  6
CONTINUOUS
 10
304.8690424947
 20
205.1319436222
  0
VERTEX
  8
0
 62
7
  6
CONTINUOUS
 10
304.6548098288
 20
205.1110572662
  0
VERTEX
  8
0
 62
7
  6
CONTINUOUS
 10
304.3897099023
 20
205.0236596971
  0
VERTEX
  8
0
 62
7
  6
CONTINUOUS
 10
304.1618453484
 20
204.8821827943
  0
VERTEX
  8
0
 62
7
  6
CONTINUOUS
 10
304.066761432
 20
204.7993120446
  0
VERTEX
  8
0
 62
7
  6
CONTINUOUS
 10
303.911485654
 20
204.6224130826
  0
VERTEX
  8
0
 62
7
  6
CONTINUOUS
 10
303.7899469096
 20
204.4351974525
  0
VERTEX
  8
0
 62
7
  6
CONTINUOUS
 10
303.6916872767
 20
204.2415738107
  0
SEQEND
  0
LINE
  8
0
 62
7
  6
CONTINUOUS
 10
304.8688227247
 20
205.1319438608
 11
311.7578166191
 21
205.1319438608
  0
LINE
  8
0
 62
7
  6
CONTINUOUS
 10
292.1633196721
 20
213.1846961937
 11
303.5633196721
 21
213.1846961937
  0
LINE
  8
0
 62
7
  6
CONTINUOUS
 10
325.9633196721
 20
213.1846961937
 11
337.3633196721
 21
213.1846961937
  0
POLYLINE
  8
SURFACE
 62
7
  6
CONTINUOUS
 66
1
 70
0
  0
VERTEX
  8
SURFACE
 62
7
  6
CONTINUOUS
 10
318.242354097
 20
222.2688891403
  0
VERTEX
  8
SURFACE
 62
7
  6
CONTINUOUS
 10
318.0980300579
 20
222.2584578538
  0
VERTEX
  8
SURFACE
 62
7
  6
CONTINUOUS
 10
317.9088960771
 20
222.2118814049
  0
VERTEX
  8
SURFACE
 62
7
  6
CONTINUOUS
 10
317.7428368226
 20
222.1358044112
  0
VERTEX
  8
SURFACE
 62
7
  6
CONTINUOUS
 10
317.6026763527
 20
222.0388219847
  0
VERTEX
  8
SURFACE
 62
7
  6
CONTINUOUS
 10
317.4890377713
 20
221.9290238806
  0
VERTEX
  8
SURFACE
 62
7
  6
CONTINUOUS
 10
317.4014281186
 20
221.81465714
  0
VERTEX
  8
SURFACE
 62
7
  6
CONTINUOUS
 10
317.3372113204
 20
221.7027178934
  0
VERTEX
  8
SURFACE
 62
7
  6
CONTINUOUS
 10
317.291877962
 20
221.5971798431
  0
VERTEX
  8
SURFACE
 62
7
  6
CONTINUOUS
 10
317.266754394
 20
221.5211983441
  0
SEQEND
  0
LINE
  8
SURFACE
 62
7
  6
CONTINUOUS
 10
324.1843266116
 20
222.2688895086
 11
318.2423126261
 21
222.2688895086
  0
LINE
  8
0
 62
7
  6
CONTINUOUS
 10
312.0633196721
 20
223.2717369174
 11
317.4633196721
 21
223.2717369174
  0
POLYLINE
  8
SURFACE
 62
7
  6
CONTINUOUS
 66
1
 70
0
  0
VERTEX
  8
SURFACE
 62
7
  6
CONTINUOUS
 10
317.4633196721
 20
234.957653807
  0
VERTEX
  8
SURFACE
 62
7
  6
CONTINUOUS
 10
317.0169266083
 20
235.2433758309
  0
VERTEX
  8
SURFACE
 62
7
  6
CONTINUOUS
 10
316.7119355457
 20
235.4905929699
  0
VERTEX
  8
SURFACE
 62
7
  6
CONTINUOUS
 10
316.6134848721
 20
235.5984609218
  0
VERTEX
  8
SURFACE
 62
7
  6
CONTINUOUS
 10
316.4976570366
 20
235.7895941885
  0
VERTEX
  8
SURFACE
 62
7
  6
CONTINUOUS
 10
316.4633196721
 20
235.957653807
  0
SEQEND
  0
LINE
  8
0
 62
7
  6
CONTINUOUS
 10
311.6065785954
 20
242.9028050529
 11
311.606082399
 21
242.9029799879
  0
POLYLINE
  8
SURFACE
 62
7
  6
CONTINUOUS
 66
1
 70
0
  0
VERTEX
  8
SURFACE
 62
7
  6
CONTINUOUS
 10
324.5065743699
 20
83.5843345755
  0
VERTEX
  8
SURFACE
 62
7
  6
CONTINUOUS
 10
324.690785077
 20
83.669839943
  0
VERTEX
  8
SURFACE
 62
7
  6
CONTINUOUS
 10
324.869640956
 20
83.8003455813
  0
VERTEX
  8
SURFACE
 62
7
  6
CONTINUOUS
 10
325.0061703764
 20
83.9452131548
  0
VERTEX
  8
SURFACE
 62
7
  6
CONTINUOUS
 10
325.1071557885
 20
84.0909071867
  0
VERTEX
  8
SURFACE
 62
7
  6
CONTINUOUS
 10
325.1843345428
 20
84.234792664
  0
VERTEX
  8
SURFACE
 62
7
  6
CONTINUOUS
 10
325.2484821369
 20
84.382812462
  0
VERTEX
  8
SURFACE
 62
7
  6
CONTINUOUS
 10
325.3069766568
 20
84.5441442349
  0
VERTEX
  8
SURFACE
 62
7
  6
CONTINUOUS
 10
325.3645718316
 20
84.7290456
  0
VERTEX
  8
SURFACE
 62
7
  6
CONTINUOUS
 10
325.4246089261
 20
84.9490872553
  0
VERTEX
  8
SURFACE
 62
7
  6
CONTINUOUS
 10
325.4889505491
 20
85.2143710001
  0
VERTEX
  8
SURFACE
 62
7
  6
CONTINUOUS
 10
325.55877281
 20
85.5343283603
  0
VERTEX
  8
SURFACE
 62
7
  6
CONTINUOUS
 10
325.6351238513
 20
85.9193010998
  0
VERTEX
  8
SURFACE
 62
7
  6
CONTINUOUS
 10
325.7191517797
 20
86.3817151497
  0
VERTEX
  8
SURFACE
 62
7
  6
CONTINUOUS
 10
325.8125653394
 20
86.9393425355
  0
VERTEX
  8
SURFACE
 62
7
  6
CONTINUOUS
 10
325.9139312707
 20
87.5921720633
  0
SEQEND
  0
LINE
  8
SURFACE
 62
7
  6
CONTINUOUS
 10
324.5060808119
 20
83.5841608662
 11
324.5065742777
 21
83.5843348368
  0
POLYLINE
  8
0
 62
7
  6
CONTINUOUS
 66
1
 70
0
  0
VERTEX
  8
0
 62
7
  6
CONTINUOUS
 10
305.353510901
 20
242.9599134962
  0
VERTEX
  8
0
 62
7
  6
CONTINUOUS
 10
305.3364058861
 20
242.9597674741
  0
VERTEX
  8
0
 62
7
  6
CONTINUOUS
 10
305.1296972315
 20
242.9345971026
  0
VERTEX
  8
0
 62
7
  6
CONTINUOUS
 10
305.0205585323
 20
242.9029805272
  0
SEQEND
  0
LINE
  8
0
 62
7
  6
CONTINUOUS
 10
305.3534734681
 20
242.959914349
 11
311.2731658724
 21
242.959914349
  0
LINE
  8
0
 62
7
  6
CONTINUOUS
 10
312.0633196721
 20
245.2435706967
 11
316.4633196721
 21
245.2435706967
  0
POLYLINE
  8
0
 62
7
  6
CONTINUOUS
 66
1
 70
0
  0
VERTEX
  8
0
 62
7
  6
CONTINUOUS
 10
311.606082399
 20
242.9029799879
  0
VERTEX
  8
0
 62
7
  6
CONTINUOUS
 10
311.4984403145
 20
242.9342525991
  0
VERTEX
  8
0
 62
7
  6
CONTINUOUS
 10
311.2925301246
 20
242.9597256285
  0
VERTEX
  8
0
 62
7
  6
CONTINUOUS
 10
311.273128546
 20
242.9599134972
  0
SEQEND
  0
POLYLINE
  8
SURFACE
 62
7
  6
CONTINUOUS
 66
1
 70
0
  0
VERTEX
  8
SURFACE
 62
7
  6
CONTINUOUS
 10
318.2633622627
 20
261.24357023
  0
VERTEX
  8
SURFACE
 62
7
  6
CONTINUOUS
 10
318.1545442585
 20
261.2376323216
  0
VERTEX
  8
SURFACE
 62
7
  6
CONTINUOUS
 10
318.0551816298
 20
261.2216621698
  0
VERTEX
  8
SURFACE
 62
7
  6
CONTINUOUS
 10
317.9612629551
 20
261.1968501515
  0
VERTEX
  8
SURFACE
 62
7
  6
CONTINUOUS
 10
317.8731989799
 20
261.1643221758
  0
VERTEX
  8
SURFACE
 62
7
  6
CONTINUOUS
 10
317.7912416359
 20
261.1251143116
  0
VERTEX
  8
SURFACE
 62
7
  6
CONTINUOUS
 10
317.7155157858
 20
261.0801644577
  0
VERTEX
  8
SURFACE
 62
7
  6
CONTINUOUS
 10
317.6460480536
 20
261.0303092694
  0
VERTEX
  8
SURFACE
 62
7
  6
CONTINUOUS
 10
317.5828063954
 20
260.976298232
  0
VERTEX
  8
SURFACE
 62
7
  6
CONTINUOUS
 10
317.5258212891
 20
260.918917419
  0
VERTEX
  8
SURFACE
 62
7
  6
CONTINUOUS
 10
317.4750995713
 20
260.8589721093
  0
VERTEX
  8
SURFACE
 62
7
  6
CONTINUOUS
 10
317.4520641505
 20
260.8282777891
  0
VERTEX
  8
SURFACE
 62
7
  6
CONTINUOUS
 10
317.4105526363
 20
260.7658989747
  0
VERTEX
  8
SURFACE
 62
7
  6
CONTINUOUS
 10
317.3749514622
 20
260.7027753272
  0
VERTEX
  8
SURFACE
 62
7
  6
CONTINUOUS
 10
317.3450438619
 20
260.6396481706
  0
VERTEX
  8
SURFACE
 62
7
  6
CONTINUOUS
 10
317.3205941379
 20
260.5773941772
  0
VERTEX
  8
SURFACE
 62
7
  6
CONTINUOUS
 10
317.301262993
 20
260.5169170449
  0
VERTEX
  8
SURFACE
 62
7
  6
CONTINUOUS
 10
317.2869804626
 20
260.4608691034
  0
VERTEX
  8
SURFACE
 62
7
  6
CONTINUOUS
 10
317.2778194307
 20
260.4155852507
  0
VERTEX
  8
SURFACE
 62
7
  6
CONTINUOUS
 10
317.2723666505
 20
260.3828486414
  0
VERTEX
  8
SURFACE
 62
7
  6
CONTINUOUS
 10
317.2681910469
 20
260.3541254927
  0
VERTEX
  8
SURFACE
 62
7
  6
CONTINUOUS
 10
317.2640201213
 20
260.3227079204
  0
VERTEX
  8
SURFACE
 62
7
  6
CONTINUOUS
 10
317.2602855105
 20
260.292946584
  0
SEQEND
  0
POLYLINE
  8
0
 62
7
  6
CONTINUOUS
 66
1
 70
0
  0
VERTEX
  8
0
 62
7
  6
CONTINUOUS
 10
305.363362297
 20
261.243570218
  0
VERTEX
  8
0
 62
7
  6
CONTINUOUS
 10
305.2568591829
 20
261.237882973
  0
VERTEX
  8
0
 62
7
  6
CONTINUOUS
 10
305.1573045469
 20
261.2221115628
  0
VERTEX
  8
0
 62
7
  6
CONTINUOUS
 10
305.0631872538
 20
261.19745777
  0
VERTEX
  8
0
 62
7
  6
CONTINUOUS
 10
304.9749232885
 20
261.1650508565
  0
VERTEX
  8
0
 62
7
  6
CONTINUOUS
 10
304.8927687665
 20
261.1259303835
  0
VERTEX
  8
0
 62
7
  6
CONTINUOUS
 10
304.816851827
 20
261.0810377283
  0
VERTEX
  8
0
 62
7
  6
CONTINUOUS
 10
304.7472016075
 20
261.031212901
  0
VERTEX
  8
0
 62
7
  6
CONTINUOUS
 10
304.683788149
 20
260.9772086941
  0
VERTEX
  8
0
 62
7
  6
CONTINUOUS
 10
304.6266439416
 20
260.9198145359
  0
VERTEX
  8
0
 62
7
  6
CONTINUOUS
 10
304.5757770174
 20
260.859838618
  0
VERTEX
  8
0
 62
7
  6
CONTINUOUS
 10
304.5526744584
 20
260.8291234061
  0
VERTEX
  8
0
 62
7
  6
CONTINUOUS
 10
304.511039903
 20
260.7666933553
  0
VERTEX
  8
0
 62
7
  6
CONTINUOUS
 10
304.4753307975
 20
260.7035079968
  0
VERTEX
  8
0
 62
7
  6
CONTINUOUS
 10
304.4453308408
 20
260.6403121804
  0
VERTEX
  8
0
 62
7
  6
CONTINUOUS
 10
304.4208043149
 20
260.5779860272
  0
VERTEX
  8
0
 62
7
  6
CONTINUOUS
 10
304.401412088
 20
260.5174391152
  0
VERTEX
  8
0
 62
7
  6
CONTINUOUS
 10
304.3870840712
 20
260.4613290148
  0
VERTEX
  8
0
 62
7
  6
CONTINUOUS
 10
304.3778818494
 20
260.4159308151
  0
VERTEX
  8
0
 62
7
  6
CONTINUOUS
 10
304.372399065
 20
260.3830591589
  0
VERTEX
  8
0
 62
7
  6
CONTINUOUS
 10
304.3682076748
 20
260.3542458349
  0
VERTEX
  8
0
 62
7
  6
CONTINUOUS
 10
304.3640278984
 20
260.3227685039
  0
VERTEX
  8
0
 62
7
  6
CONTINUOUS
 10
304.3602855002
 20
260.2929464982
  0
SEQEND
  0
POLYLINE
  8
SURFACE
 62
7
  6
CONTINUOUS
 66
1
 70
0
  0
VERTEX
  8
SURFACE
 62
7
  6
CONTINUOUS
 10
318.2592836672
 20
253.6701295178
  0
VERTEX
  8
SURFACE
 62
7
  6
CONTINUOUS
 10
318.1688958481
 20
253.6660398363
  0
VERTEX
  8
SURFACE
 62
7
  6
CONTINUOUS
 10
317.9954390757
 20
253.634728644
  0
VERTEX
  8
SURFACE
 62
7
  6
CONTINUOUS
 10
317.8390647798
 20
253.5776512952
  0
VERTEX
  8
SURFACE
 62
7
  6
CONTINUOUS
 10
317.7024550811
 20
253.5009686421
  0
VERTEX
  8
SURFACE
 62
7
  6
CONTINUOUS
 10
317.5867318655
 20
253.4105778263
  0
VERTEX
  8
SURFACE
 62
7
  6
CONTINUOUS
 10
317.4919132177
 20
253.3120440464
  0
VERTEX
  8
SURFACE
 62
7
  6
CONTINUOUS
 10
317.4172167344
 20
253.2107556381
  0
VERTEX
  8
SURFACE
 62
7
  6
CONTINUOUS
 10
317.3868390996
 20
253.1605169785
  0
VERTEX
  8
SURFACE
 62
7
  6
CONTINUOUS
 10
317.338475934
 20
253.0632360153
  0
VERTEX
  8
SURFACE
 62
7
  6
CONTINUOUS
 10
317.3051324899
 20
252.9754659143
  0
VERTEX
  8
SURFACE
 62
7
  6
CONTINUOUS
 10
317.2834891057
 20
252.9012327815
  0
VERTEX
  8
SURFACE
 62
7
  6
CONTINUOUS
 10
317.2687356636
 20
252.8367266804
  0
VERTEX
  8
SURFACE
 62
7
  6
CONTINUOUS
 10
317.2568560039
 20
252.7728547962
  0
VERTEX
  8
SURFACE
 62
7
  6
CONTINUOUS
 10
317.2453615478
 20
252.6998165618
  0
VERTEX
  8
SURFACE
 62
7
  6
CONTINUOUS
 10
317.2345636945
 20
252.6218667196
  0
SEQEND
  0
LINE
  8
SURFACE
 62
7
  6
CONTINUOUS
 10
324.1674183007
 20
253.6701299748
 11
318.2592209214
 21
253.6701299748
  0
LINE
  8
SURFACE
 62
7
  6
CONTINUOUS
 10
324.163338156
 20
261.2435706967
 11
318.2633012066
 21
261.2435706967
  0
LINE
  8
0
 62
7
  6
CONTINUOUS
 10
305.3633011882
 20
261.2435706967
 11
311.2633381376
 21
261.2435706967
  0
ARC
  8
0
 62
7
  6
CONTINUOUS
 10
63.8342210486
 20
105.4591644311
 40
13.0
 50
130.0
 51
178.7090544617
  0
ARC
  8
SURFACE
 62
7
  6
CONTINUOUS
 10
72.769077341
 20
96.5243081388
 40
13.0
 50
271.2909455383
 51
320.0
  0
ARC
  8
0
 62
7
  6
CONTINUOUS
 10
61.3034836066
 20
93.8172008267
 40
12.75
 50
60.0
 51
110.0
  0
ARC
  8
SURFACE
 62
7
  6
CONTINUOUS
 10
61.1271137365
 20
93.9935706967
 40
12.75
 50
340.0
 51
30.0
  0
ARC
  8
0
 62
7
  6
CONTINUOUS
 10
52.3371399542
 20
105.7182518848
 40
1.5
 50
178.7090544617
 51
290.0
  0
ARC
  8
SURFACE
 62
7
  6
CONTINUOUS
 10
73.0281647946
 20
85.0272270444
 40
1.5
 50
160.0
 51
271.2909455383
  0
ARC
  8
0
 62
7
  6
CONTINUOUS
 10
35.8680394595
 20
137.7435706967
 40
12.75
 50
30.0
 51
80.0
  0
ARC
  8
SURFACE
 62
7
  6
CONTINUOUS
 10
35.8034836066
 20
137.9844964197
 40
12.75
 50
310.0
 51
360.0
  0
ARC
  8
SURFACE
 62
7
  6
CONTINUOUS
 10
41.6269243285
 20
124.2688895086
 40
1.5
 50
130.0
 51
241.2909455383
  0
ARC
  8
0
 62
7
  6
CONTINUOUS
 10
43.8807041769
 20
146.5604382071
 40
13.0
 50
100.0
 51
148.7090544617
  0
ARC
  8
0
 62
7
  6
CONTINUOUS
 10
34.0534836066
 20
152.533355071
 40
1.5
 50
148.7090544617
 51
260.0
  0
ARC
  8
SURFACE
 62
7
  6
CONTINUOUS
 10
47.151088559
 20
134.3551975326
 40
13.0
 50
241.2909455383
 51
290.0
  0
ARC
  8
0
 62
7
  6
CONTINUOUS
 10
58.9403623906
 20
120.2811351314
 40
1.5
 50
310.0
 51
30.0
  0
ARC
  8
SURFACE
 62
7
  6
CONTINUOUS
 10
57.5403623906
 20
122.706006262
 40
1.5
 50
30.0
 51
110.0
  0
ARC
  8
0
 62
7
  6
CONTINUOUS
 10
47.0534836066
 20
161.8435706967
 40
1.5
 50
280.0
 51
360.0
  0
ARC
  8
0
 62
7
  6
CONTINUOUS
 10
105.2944093295
 20
68.4935706967
 40
12.75
 50
90.0
 51
140.0
  0
ARC
  8
SURFACE
 62
7
  6
CONTINUOUS
 10
105.0534836066
 20
68.5581265496
 40
12.75
 50
10.0
 51
60.0
  0
ARC
  8
0
 62
7
  6
CONTINUOUS
 10
91.5788024185
 20
74.3170114186
 40
1.5
 50
208.7090544617
 51
320.0
  0
ARC
  8
0
 62
7
  6
CONTINUOUS
 10
101.6651104424
 20
79.8411756492
 40
13.0
 50
160.0
 51
208.7090544617
  0
ARC
  8
0
 62
7
  6
CONTINUOUS
 10
90.0159191719
 20
90.2304494807
 40
1.5
 50
340.0
 51
60.0
  0
ARC
  8
SURFACE
 62
7
  6
CONTINUOUS
 10
87.5910480413
 20
91.6304494807
 40
1.5
 50
60.0
 51
140.0
  0
ARC
  8
SURFACE
 62
7
  6
CONTINUOUS
 10
113.8703511169
 20
76.570791267
 40
13.0
 50
301.2909455383
 51
350.0
  0
ARC
  8
SURFACE
 62
7
  6
CONTINUOUS
 10
119.8432679808
 20
66.7435706967
 40
1.5
 50
190.0
 51
301.2909455383
  0
ARC
  8
SURFACE
 62
7
  6
CONTINUOUS
 10
129.1534836066
 20
79.7435706967
 40
1.5
 50
90.0
 51
170.0
  0
ARC
  8
0
 62
7
  6
CONTINUOUS
 10
124.1584372243
 20
122.6867268082
 40
3.2
 50
2.2544307753
 51
45.0
  0
ARC
  8
0
 62
7
  6
CONTINUOUS
 10
89.996639718
 20
156.8485243145
 40
3.2
 50
45.0
 51
87.7455692247
  0
ARC
  8
0
 62
7
  6
CONTINUOUS
 10
117.8651868717
 20
130.5356120794
 40
2.1
 50
45.0
 51
111.1237922694
  0
ARC
  8
0
 62
7
  6
CONTINUOUS
 10
116.351573277
 20
134.4533887302
 40
2.1
 50
225.0
 51
291.1237922694
  0
ARC
  8
0
 62
7
  6
CONTINUOUS
 10
101.76330164
 20
149.0416603671
 40
2.1
 50
158.8762077306
 51
225.0
  0
ARC
  8
0
 62
7
  6
CONTINUOUS
 10
97.8455249892
 20
150.5552739619
 40
2.1
 50
338.8762077306
 51
45.0
  0
ARC
  8
SURFACE
 62
7
  6
CONTINUOUS
 10
43.8807041769
 20
179.9267031864
 40
13.0
 50
211.2909455383
 51
260.0
  0
ARC
  8
SURFACE
 62
7
  6
CONTINUOUS
 10
34.0534836066
 20
173.9537863225
 40
1.5
 50
100.0
 51
211.2909455383
  0
ARC
  8
0
 62
7
  6
CONTINUOUS
 10
35.8034836066
 20
188.5026449738
 40
12.75
 50
0.0
 51
50.0
  0
ARC
  8
SURFACE
 62
7
  6
CONTINUOUS
 10
35.8680394595
 20
188.7435706967
 40
12.75
 50
280.0
 51
330.0
  0
ARC
  8
0
 62
7
  6
CONTINUOUS
 10
41.6269243285
 20
202.2182518848
 40
1.5
 50
118.7090544617
 51
230.0
  0
ARC
  8
SURFACE
 62
7
  6
CONTINUOUS
 10
47.0534836066
 20
164.6435706967
 40
1.5
 50
0.0
 51
80.0
  0
ARC
  8
0
 62
7
  6
CONTINUOUS
 10
47.151088559
 20
192.1319438608
 40
13.0
 50
70.0
 51
118.7090544617
  0
ARC
  8
0
 62
7
  6
CONTINUOUS
 10
57.5403623906
 20
203.7811351314
 40
1.5
 50
250.0
 51
330.0
  0
ARC
  8
SURFACE
 62
7
  6
CONTINUOUS
 10
58.9403623906
 20
206.206006262
 40
1.5
 50
330.0
 51
50.0
  0
ARC
  8
0
 62
7
  6
CONTINUOUS
 10
72.769077341
 20
229.9628332546
 40
13.0
 50
40.0
 51
88.7090544617
  0
ARC
  8
SURFACE
 62
7
  6
CONTINUOUS
 10
63.8342210486
 20
221.0279769623
 40
13.0
 50
181.2909455383
 51
230.0
  0
ARC
  8
0
 62
7
  6
CONTINUOUS
 10
61.1271137365
 20
232.4935706967
 40
12.75
 50
330.0
 51
20.0
  0
ARC
  8
SURFACE
 62
7
  6
CONTINUOUS
 10
61.3034836066
 20
232.6699405668
 40
12.75
 50
250.0
 51
300.0
  0
ARC
  8
0
 62
7
  6
CONTINUOUS
 10
73.0281647946
 20
241.459914349
 40
1.5
 50
88.7090544617
 51
200.0
  0
ARC
  8
SURFACE
 62
7
  6
CONTINUOUS
 10
52.3371399542
 20
220.7688895086
 40
1.5
 50
70.0
 51
181.2909455383
  0
ARC
  8
0
 62
7
  6
CONTINUOUS
 10
96.6123581096
 20
163.2435706967
 40
16.0
 50
135.0
 51
225.0
  0
ARC
  8
0
 62
7
  6
CONTINUOUS
 10
90.2483970789
 20
163.2435706967
 40
3.2
 50
92.2544307753
 51
267.7455692247
  0
ARC
  8
0
 62
7
  6
CONTINUOUS
 10
89.996639718
 20
169.638617079
 40
3.2
 50
272.2544307753
 51
315.0
  0
ARC
  8
0
 62
7
  6
CONTINUOUS
 10
124.1584372243
 20
203.8004145852
 40
3.2
 50
315.0
 51
357.7455692247
  0
ARC
  8
0
 62
7
  6
CONTINUOUS
 10
97.8455249892
 20
175.9318674315
 40
2.1
 50
315.0
 51
21.1237922695
  0
ARC
  8
0
 62
7
  6
CONTINUOUS
 10
101.76330164
 20
177.4454810263
 40
2.1
 50
135.0
 51
201.1237922694
  0
ARC
  8
0
 62
7
  6
CONTINUOUS
 10
116.351573277
 20
192.0337526633
 40
2.1
 50
68.8762077306
 51
135.0
  0
ARC
  8
0
 62
7
  6
CONTINUOUS
 10
117.8651868717
 20
195.9515293141
 40
2.1
 50
248.8762077305
 51
315.0
  0
ARC
  8
SURFACE
 62
7
  6
CONTINUOUS
 10
101.6651104424
 20
246.6459657443
 40
13.0
 50
151.2909455383
 51
200.0
  0
ARC
  8
0
 62
7
  6
CONTINUOUS
 10
87.5910480413
 20
234.8566919127
 40
1.5
 50
220.0
 51
300.0
  0
ARC
  8
SURFACE
 62
7
  6
CONTINUOUS
 10
90.0159191719
 20
236.2566919127
 40
1.5
 50
300.0
 51
20.0
  0
ARC
  8
0
 62
7
  6
CONTINUOUS
 10
105.0534836066
 20
257.9290148438
 40
12.75
 50
300.0
 51
350.0
  0
ARC
  8
SURFACE
 62
7
  6
CONTINUOUS
 10
105.2944093295
 20
257.9935706967
 40
12.75
 50
220.0
 51
270.0
  0
ARC
  8
SURFACE
 62
7
  6
CONTINUOUS
 10
91.5788024185
 20
252.1701299748
 40
1.5
 50
40.0
 51
151.2909455383
  0
ARC
  8
0
 62
7
  6
CONTINUOUS
 10
129.1534836066
 20
246.7435706967
 40
1.5
 50
190.0
 51
270.0
  0
ARC
  8
0
 62
7
  6
CONTINUOUS
 10
113.8703511169
 20
249.9163501264
 40
13.0
 50
10.0
 51
58.7090544617
  0
ARC
  8
0
 62
7
  6
CONTINUOUS
 10
119.8432679808
 20
259.7435706967
 40
1.5
 50
58.7090544617
 51
170.0
  0
ARC
  8
0
 62
7
  6
CONTINUOUS
 10
147.2366160962
 20
76.570791267
 40
13.0
 50
190.0
 51
238.7090544617
  0
ARC
  8
0
 62
7
  6
CONTINUOUS
 10
141.2636992323
 20
66.7435706967
 40
1.5
 50
238.7090544617
 51
350.0
  0
ARC
  8
0
 62
7
  6
CONTINUOUS
 10
131.9534836066
 20
79.7435706967
 40
1.5
 50
10.0
 51
90.0
  0
ARC
  8
0
 62
7
  6
CONTINUOUS
 10
156.0534836066
 20
68.5581265496
 40
12.75
 50
120.0
 51
170.0
  0
ARC
  8
SURFACE
 62
7
  6
CONTINUOUS
 10
155.8125578836
 20
68.4935706967
 40
12.75
 50
40.0
 51
90.0
  0
ARC
  8
SURFACE
 62
7
  6
CONTINUOUS
 10
169.5281647946
 20
74.3170114186
 40
1.5
 50
220.0
 51
331.2909455383
  0
ARC
  8
SURFACE
 62
7
  6
CONTINUOUS
 10
159.4418567707
 20
79.8411756492
 40
13.0
 50
331.2909455383
 51
20.0
  0
ARC
  8
0
 62
7
  6
CONTINUOUS
 10
173.5159191719
 20
91.6304494807
 40
1.5
 50
40.0
 51
120.0
  0
ARC
  8
SURFACE
 62
7
  6
CONTINUOUS
 10
171.0910480413
 20
90.2304494807
 40
1.5
 50
120.0
 51
200.0
  0
ARC
  8
0
 62
7
  6
CONTINUOUS
 10
130.5534836066
 20
129.3024451998
 40
16.0
 50
225.0
 51
315.0
  0
ARC
  8
0
 62
7
  6
CONTINUOUS
 10
171.1103274951
 20
156.8485243145
 40
3.2
 50
92.2544307753
 51
135.0
  0
ARC
  8
0
 62
7
  6
CONTINUOUS
 10
136.9485299888
 20
122.6867268082
 40
3.2
 50
135.0
 51
177.7455692246
  0
ARC
  8
0
 62
7
  6
CONTINUOUS
 10
130.5534836066
 20
122.9384841691
 40
3.2
 50
182.2544307754
 51
357.7455692247
  0
ARC
  8
0
 62
7
  6
CONTINUOUS
 10
163.2614422239
 20
150.5552739619
 40
2.1
 50
135.0
 51
201.1237922694
  0
ARC
  8
0
 62
7
  6
CONTINUOUS
 10
159.3436655731
 20
149.0416603671
 40
2.1
 50
315.0
 51
21.1237922694
  0
ARC
  8
0
 62
7
  6
CONTINUOUS
 10
144.7553939362
 20
134.4533887302
 40
2.1
 50
248.8762077306
 51
315.0
  0
ARC
  8
0
 62
7
  6
CONTINUOUS
 10
143.2417803414
 20
130.5356120794
 40
2.1
 50
68.8762077306
 51
135.0
  0
ARC
  8
0
 62
7
  6
CONTINUOUS
 10
188.3378898721
 20
96.5243081388
 40
13.0
 50
220.0
 51
268.7090544617
  0
ARC
  8
SURFACE
 62
7
  6
CONTINUOUS
 10
197.2727461645
 20
105.4591644311
 40
13.0
 50
1.2909455383
 51
50.0
  0
ARC
  8
0
 62
7
  6
CONTINUOUS
 10
199.9798534766
 20
93.9935706967
 40
12.75
 50
150.0
 51
200.0
  0
ARC
  8
SURFACE
 62
7
  6
CONTINUOUS
 10
199.8034836066
 20
93.8172008267
 40
12.75
 50
70.0
 51
120.0
  0
ARC
  8
0
 62
7
  6
CONTINUOUS
 10
188.0788024185
 20
85.0272270444
 40
1.5
 50
268.7090544617
 51
20.0
  0
ARC
  8
SURFACE
 62
7
  6
CONTINUOUS
 10
208.7698272589
 20
105.7182518848
 40
1.5
 50
250.0
 51
1.2909455383
  0
ARC
  8
0
 62
7
  6
CONTINUOUS
 10
213.9558786541
 20
134.3551975326
 40
13.0
 50
250.0
 51
298.7090544617
  0
ARC
  8
0
 62
7
  6
CONTINUOUS
 10
203.5666048226
 20
122.706006262
 40
1.5
 50
70.0
 51
150.0
  0
ARC
  8
SURFACE
 62
7
  6
CONTINUOUS
 10
202.1666048226
 20
120.2811351314
 40
1.5
 50
150.0
 51
230.0
  0
ARC
  8
SURFACE
 62
7
  6
CONTINUOUS
 10
214.0534836066
 20
161.8435706967
 40
1.5
 50
180.0
 51
260.0
  0
ARC
  8
0
 62
7
  6
CONTINUOUS
 10
225.3034836066
 20
137.9844964197
 40
12.75
 50
180.0
 51
230.0
  0
ARC
  8
SURFACE
 62
7
  6
CONTINUOUS
 10
225.2389277537
 20
137.7435706967
 40
12.75
 50
100.0
 51
150.0
  0
ARC
  8
0
 62
7
  6
CONTINUOUS
 10
219.4800428846
 20
124.2688895086
 40
1.5
 50
298.7090544617
 51
50.0
  0
ARC
  8
SURFACE
 62
7
  6
CONTINUOUS
 10
217.2262630363
 20
146.5604382071
 40
13.0
 50
31.2909455383
 51
80.0
  0
ARC
  8
SURFACE
 62
7
  6
CONTINUOUS
 10
227.0534836066
 20
152.533355071
 40
1.5
 50
280.0
 51
31.2909455383
  0
ARC
  8
0
 62
7
  6
CONTINUOUS
 10
130.5534836066
 20
197.1846961937
 40
16.0
 50
45.0
 51
135.0
  0
ARC
  8
0
 62
7
  6
CONTINUOUS
 10
164.4946091035
 20
163.2435706967
 40
16.0
 50
315.0
 51
45.0
  0
ARC
  8
0
 62
7
  6
CONTINUOUS
 10
171.1103274951
 20
169.638617079
 40
3.2
 50
225.0
 51
267.7455692246
  0
ARC
  8
0
 62
7
  6
CONTINUOUS
 10
170.8585701342
 20
163.2435706967
 40
3.2
 50
272.2544307754
 51
87.7455692247
  0
ARC
  8
0
 62
7
  6
CONTINUOUS
 10
130.5534836066
 20
203.5486572244
 40
3.2
 50
2.2544307753
 51
177.7455692246
  0
ARC
  8
0
 62
7
  6
CONTINUOUS
 10
136.9485299888
 20
203.8004145852
 40
3.2
 50
182.2544307754
 51
225.0
  0
ARC
  8
0
 62
7
  6
CONTINUOUS
 10
143.2417803414
 20
195.9515293141
 40
2.1
 50
225.0
 51
291.1237922694
  0
ARC
  8
0
 62
7
  6
CONTINUOUS
 10
144.7553939362
 20
192.0337526633
 40
2.1
 50
45.0
 51
111.1237922694
  0
ARC
  8
0
 62
7
  6
CONTINUOUS
 10
159.3436655731
 20
177.4454810263
 40
2.1
 50
338.8762077306
 51
45.0
  0
ARC
  8
0
 62
7
  6
CONTINUOUS
 10
163.2614422239
 20
175.9318674315
 40
2.1
 50
158.8762077306
 51
225.0
  0
ARC
  8
SURFACE
 62
7
  6
CONTINUOUS
 10
131.9534836066
 20
246.7435706967
 40
1.5
 50
270.0
 51
350.0
  0
ARC
  8
SURFACE
 62
7
  6
CONTINUOUS
 10
147.2366160962
 20
249.9163501264
 40
13.0
 50
121.2909455383
 51
170.0
  0
ARC
  8
SURFACE
 62
7
  6
CONTINUOUS
 10
141.2636992323
 20
259.7435706967
 40
1.5
 50
10.0
 51
121.2909455383
  0
ARC
  8
0
 62
7
  6
CONTINUOUS
 10
159.4418567707
 20
246.6459657443
 40
13.0
 50
340.0
 51
28.7090544617
  0
ARC
  8
0
 62
7
  6
CONTINUOUS
 10
171.0910480413
 20
236.2566919127
 40
1.5
 50
160.0
 51
240.0
  0
ARC
  8
SURFACE
 62
7
  6
CONTINUOUS
 10
173.5159191719
 20
234.8566919127
 40
1.5
 50
240.0
 51
320.0
  0
ARC
  8
0
 62
7
  6
CONTINUOUS
 10
155.8125578836
 20
257.9935706967
 40
12.75
 50
270.0
 51
320.0
  0
ARC
  8
SURFACE
 62
7
  6
CONTINUOUS
 10
156.0534836066
 20
257.9290148438
 40
12.75
 50
190.0
 51
240.0
  0
ARC
  8
0
 62
7
  6
CONTINUOUS
 10
169.5281647946
 20
252.1701299748
 40
1.5
 50
28.7090544617
 51
140.0
  0
ARC
  8
0
 62
7
  6
CONTINUOUS
 10
214.0534836066
 20
164.6435706967
 40
1.5
 50
100.0
 51
180.0
  0
ARC
  8
SURFACE
 62
7
  6
CONTINUOUS
 10
213.9558786541
 20
192.1319438608
 40
13.0
 50
61.2909455383
 51
110.0
  0
ARC
  8
0
 62
7
  6
CONTINUOUS
 10
202.1666048226
 20
206.206006262
 40
1.5
 50
130.0
 51
210.0
  0
ARC
  8
SURFACE
 62
7
  6
CONTINUOUS
 10
203.5666048226
 20
203.7811351314
 40
1.5
 50
210.0
 51
290.0
  0
ARC
  8
0
 62
7
  6
CONTINUOUS
 10
217.2262630363
 20
179.9267031864
 40
13.0
 50
280.0
 51
328.7090544617
  0
ARC
  8
0
 62
7
  6
CONTINUOUS
 10
227.0534836066
 20
173.9537863225
 40
1.5
 50
328.7090544617
 51
80.0
  0
ARC
  8
0
 62
7
  6
CONTINUOUS
 10
225.2389277537
 20
188.7435706967
 40
12.75
 50
210.0
 51
260.0
  0
ARC
  8
SURFACE
 62
7
  6
CONTINUOUS
 10
225.3034836066
 20
188.5026449738
 40
12.75
 50
130.0
 51
180.0
  0
ARC
  8
SURFACE
 62
7
  6
CONTINUOUS
 10
219.4800428846
 20
202.2182518848
 40
1.5
 50
310.0
 51
61.2909455383
  0
ARC
  8
0
 62
7
  6
CONTINUOUS
 10
197.2727461645
 20
221.0279769623
 40
13.0
 50
310.0
 51
358.7090544617
  0
ARC
  8
SURFACE
 62
7
  6
CONTINUOUS
 10
188.3378898721
 20
229.9628332546
 40
13.0
 50
91.2909455383
 51
140.0
  0
ARC
  8
0
 62
7
  6
CONTINUOUS
 10
199.8034836066
 20
232.6699405668
 40
12.75
 50
240.0
 51
290.0
  0
ARC
  8
SURFACE
 62
7
  6
CONTINUOUS
 10
199.9798534766
 20
232.4935706967
 40
12.75
 50
160.0
 51
210.0
  0
ARC
  8
0
 62
7
  6
CONTINUOUS
 10
208.7698272589
 20
220.7688895086
 40
1.5
 50
358.7090544617
 51
110.0
  0
ARC
  8
SURFACE
 62
7
  6
CONTINUOUS
 10
188.0788024185
 20
241.459914349
 40
1.5
 50
340.0
 51
91.2909455383
  0
ARC
  8
0
 62
7
  6
CONTINUOUS
 10
292.1633196721
 20
210.6846961937
 40
2.5
 50
90.0
 51
180.0
  0
ARC
  8
0
 62
7
  6
CONTINUOUS
 10
292.1633196721
 20
115.8024451998
 40
2.5
 50
180.0
 51
270.0
  0
ARC
  8
0
 62
7
  6
CONTINUOUS
 10
337.3633196721
 20
210.6846961937
 40
2.5
 50
0.0
 51
90.0
  0
ARC
  8
0
 62
7
  6
CONTINUOUS
 10
337.3633196721
 20
115.8024451998
 40
2.5
 50
270.0
 51
360.0
  0
ENDSEC
  0
EOF
