  0
SECTION
  2
HEADER
  9
$EXTMAX
 10
420.0
 20
297.0
 30
0.0
  9
$EXTMIN
 10
0.0
 20
0.0
 30
0.0
  9
$LIMMIN
 10
0.0
 20
0.0
  9
$LIMMAX
 10
420.0
 20
297.0
  9
$VIEWCTR
 10
210.0
 20
148.5
  9
$VIEWSIZE
 40
297.0
  9
$CLAYER
  8
0
  9
$LTSCALE
 40
23.1
  9
$CELTYPE
  6
BYLAYER
  9
$DIMSCALE
 40
1.0
  9
$DIMASZ
 40
3.5
  9
$DIMEXO
 40
1.0
  9
$DIMDLI
 40
15.96
  9
$DIMEXE
 40
2.0
  9
$DIMCEN
 40
3.78
  9
$DIMLFAC
 40
1.0
  9
$DIMBLK
  1
_FILLED
  9
$DIMALT
 70
0
  9
$DIMALTF
 40
0.0393700787
  9
$DIMTXT
 40
3.5
  9
$AUNITS
 70
0
  9
$PDMODE
 70
3
  9
$PDSIZE
 40
0.3125
  9
$TILEMODE
 70
0
  0
ENDSEC
  0
SECTION
  2
TABLES
  0
TABLE
  2
LTYPE
 70
6
  0
LTYPE
  2
BYBLOCK
 70
0
  3

 72
65
 73
0
 40
0.0
  0
LTYPE
  2
BYLAYER
 70
0
  3

 72
65
 73
0
 40
0.0
  0
LTYPE
  2
CONTINUOUS
 70
64
  3
Solid line
 72
65
 73
0
 40
0.0
  0
LTYPE
  2
CENTER
 70
64
  3
____ _ ____ _ ____ _ ____ _ ____ _ ____ _ ____
 72
65
 73
4
 40
0.6
 49
0.375
 49
-0.075
 49
0.075
 49
-0.075
  0
LTYPE
  2
HIDDEN
 70
64
  3
- - - - - - - - - - - - - - - - - - - -
 72
65
 73
2
 40
0.2
 49
0.1
 49
-0.1
  0
LTYPE
  2
PHANTOM
 70
64
  3
_____ _ _ _____ _ _ _____ _ _ _____
 72
65
 73
6
 40
0.8
 49
0.45
 49
-0.05
 49
0.1
 49
-0.05
 49
0.1
 49
-0.05
  0
LTYPE
  2
DOT
 70
64
  3
. . . . . . . . . . . . . . . . . . . .
 72
65
 73
2
 40
0.2
 49
0.1
 49
-0.1
  0
LTYPE
  2
DASHED
 70
64
  3
- - - - - - - - - - - - - - - - - - - -
 72
65
 73
2
 40
0.2
 49
0.1
 49
-0.1
  0
ENDTAB
  0
TABLE
  2
LAYER
 70
36
  0
LAYER
  2
0
 70
0
 62
7
  6
CONTINUOUS
  0
LAYER
  2
DEFAULT_1
 70
0
 62
7
  6
CENTER
  0
LAYER
  2
DEFAULT_2
 70
0
 62
8
  6
HIDDEN
  0
LAYER
  2
DEFAULT_3
 70
0
 62
7
  6
PHANTOM
  0
LAYER
  2
00_CURVE
 70
0
 62
7
  6
CONTINUOUS
  0
LAYER
  2
01_SURFACE
 70
0
 62
7
  6
CONTINUOUS
  0
LAYER
  2
02_QUILT
 70
0
 62
7
  6
CONTINUOUS
  0
LAYER
  2
03_COPY_GEOM_FEAT
 70
0
 62
7
  6
CONTINUOUS
  0
LAYER
  2
10_SKELETON
 70
0
 62
7
  6
CONTINUOUS
  0
LAYER
  2
11_EMNER
 70
0
 62
7
  6
CONTINUOUS
  0
LAYER
  2
12_WORKPIECE
 70
0
 62
7
  6
CONTINUOUS
  0
LAYER
  2
13_KOMPONENTER
 70
0
 62
7
  6
CONTINUOUS
  0
LAYER
  2
CSYS
 70
0
 62
7
  6
CONTINUOUS
  0
LAYER
  2
CURVE
 70
0
 62
7
  6
CONTINUOUS
  0
LAYER
  2
PLANE
 70
0
 62
7
  6
CONTINUOUS
  0
LAYER
  2
SURF
 70
0
 62
7
  6
CONTINUOUS
  0
LAYER
  2
SURFACE
 70
0
 62
7
  6
CONTINUOUS
  0
ENDTAB
  0
TABLE
  2
STYLE
 70
1
  0
STYLE
  2
STANDARD
 70
0
 40
0.0
 41
0.8
 50
0.0
 71
0
 42
0.2
  3
txt
  4

  0
STYLE
  2
TEXTSTYLE_1
 70
0
 40
0.0
 41
0.8
 50
0.0
 71
0
 42
0.2
  3
gdt
  4

  0
STYLE
  2
TEXTSTYLE_2
 70
0
 40
0.0
 41
0.6
 50
0.0
 71
0
 42
0.2
  3
txt
  4

  0
STYLE
  2
TEXTSTYLE_3
 70
0
 40
0.0
 41
1.0
 50
0.0
 71
0
 42
0.2
  3
ftb_____.ttf
  4

  0
STYLE
  2
TEXTSTYLE_4
 70
0
 40
0.0
 41
1.0
 50
0.0
 71
0
 42
0.2
  3
fti_____.ttf
  4

  0
STYLE
  2
TEXTSTYLE_5
 70
0
 40
0.0
 41
1.0
 50
0.0
 71
0
 42
0.2
  3
frutiger light.ttf
  4

  0
STYLE
  2
TEXTSTYLE_6
 70
0
 40
0.0
 41
0.7
 50
0.0
 71
0
 42
0.2
  3
txt
  4

  0
STYLE
  2
TEXTSTYLE_7
 70
0
 40
0.0
 41
0.4
 50
0.0
 71
0
 42
0.2
  3
txt
  4

  0
ENDTAB
  0
ENDSEC
  0
SECTION
  2
BLOCKS
  0
BLOCK
  8
0
 62
2
  6
CONTINUOUS
  2
UNI_LOGO2_BL1
 70
64
 10
382.7840918555
 20
35.5067593403
  0
TEXT
  8
0
 62
7
  6
CONTINUOUS
 10
373.842376864
 20
30.5995157174
  7
TEXTSTYLE_4
 40
1.0655737705
  1
The brand for plastic modular belts and chains
 41
1.0
 72
0
  0
LINE
  8
0
 62
7
  6
CONTINUOUS
 10
358.7621602445
 20
36.0805298321
 11
358.7621602445
 21
33.9493822911
  0
LINE
  8
0
 62
7
  6
CONTINUOUS
 10
359.0512227376
 20
30.9584509954
 11
359.0512227376
 21
31.0552420547
  0
LINE
  8
0
 62
7
  6
CONTINUOUS
 10
358.7621602445
 20
31.0229783683
 11
358.8199727462
 21
30.8293962497
  0
LINE
  8
0
 62
7
  6
CONTINUOUS
 10
360.1556028675
 20
33.867415078
 11
360.1556028675
 21
36.0805298321
  0
LINE
  8
0
 62
7
  6
CONTINUOUS
 10
361.0746601894
 20
32.0231527829
 11
361.0746601894
 21
30.5067593403
  0
LINE
  8
0
 62
7
  6
CONTINUOUS
 10
361.3637227445
 20
30.5067593403
 11
361.3637227445
 21
31.2488242184
  0
LINE
  8
0
 62
7
  6
CONTINUOUS
 10
361.3637227445
 20
31.3778789641
 11
361.3637227445
 21
32.0231527829
  0
LINE
  8
0
 62
7
  6
CONTINUOUS
 10
358.8199727462
 20
31.216560532
 11
358.7621602445
 21
31.0229783683
  0
LINE
  8
0
 62
7
  6
CONTINUOUS
 10
359.1668477307
 20
30.7971325633
 11
359.0512227376
 21
30.9584509954
  0
LINE
  8
0
 62
7
  6
CONTINUOUS
 10
360.2652852997
 20
31.3133515913
 11
360.3230977445
 21
31.216560532
  0
LINE
  8
0
 62
7
  6
CONTINUOUS
 10
360.6121602997
 20
31.216560532
 11
360.5543476894
 21
31.3456152777
  0
LINE
  8
0
 62
7
  6
CONTINUOUS
 10
362.0408487691
 20
36.0805298321
 11
362.0408487691
 21
34.2772511436
  0
LINE
  8
0
 62
7
  6
CONTINUOUS
 10
362.0408487691
 20
32.9657757338
 11
362.0408487691
 21
32.3100380288
  0
LINE
  8
0
 62
7
  6
CONTINUOUS
 10
362.4043477445
 20
31.1520331591
 11
362.4043477445
 21
30.5067593403
  0
LINE
  8
0
 62
7
  6
CONTINUOUS
 10
362.6934101343
 20
30.5067593403
 11
362.6934101343
 21
31.1520331591
  0
LINE
  8
0
 62
7
  6
CONTINUOUS
 10
359.0512227376
 20
31.0552420547
 11
359.1090352445
 21
31.1842968456
  0
LINE
  8
0
 62
7
  6
CONTINUOUS
 10
358.8199727462
 20
30.8293962497
 11
358.9355977445
 21
30.7003414814
  0
LINE
  8
0
 62
7
  6
CONTINUOUS
 10
362.3465351343
 20
31.2810879048
 11
362.4043477445
 21
31.1520331591
  0
LINE
  8
0
 62
7
  6
CONTINUOUS
 10
363.1559103548
 20
30.7971325633
 11
363.2137226343
 21
30.668077795
  0
LINE
  8
0
 62
7
  6
CONTINUOUS
 10
362.6934101343
 20
31.1520331591
 11
362.6355978548
 21
31.3133515913
  0
LINE
  8
0
 62
7
  6
CONTINUOUS
 10
363.1559103548
 20
31.3456152777
 11
363.1559103548
 21
31.2810879048
  0
LINE
  8
0
 62
7
  6
CONTINUOUS
 10
363.1559103548
 20
30.8939236226
 11
363.1559103548
 21
30.7971325633
  0
LINE
  8
0
 62
7
  6
CONTINUOUS
 10
363.4342913921
 20
32.3100380288
 11
363.4342913921
 21
36.0805298321
  0
LINE
  8
0
 62
7
  6
CONTINUOUS
 10
363.4449727445
 20
30.7648688543
 11
363.4449727445
 21
30.8293962497
  0
LINE
  8
0
 62
7
  6
CONTINUOUS
 10
363.7621602445
 20
36.0805298321
 11
363.7621602445
 21
32.3100380288
  0
LINE
  8
0
 62
7
  6
CONTINUOUS
 10
360.5543476894
 20
30.7003414814
 11
360.6121602997
 21
30.8293962497
  0
LINE
  8
0
 62
7
  6
CONTINUOUS
 10
364.9480979651
 20
30.6035504109
 11
364.890285024
 21
30.7648688543
  0
LINE
  8
0
 62
7
  6
CONTINUOUS
 10
364.6012229651
 20
31.2810879048
 11
364.6012229651
 21
31.1842968456
  0
LINE
  8
0
 62
7
  6
CONTINUOUS
 10
364.6012229651
 20
31.0552420547
 11
364.6012229651
 21
30.8616599362
  0
LINE
  8
0
 62
7
  6
CONTINUOUS
 10
364.890285024
 20
30.7648688543
 11
364.890285024
 21
31.2810879048
  0
LINE
  8
0
 62
7
  6
CONTINUOUS
 10
365.1556028675
 20
32.3100380288
 11
365.1556028675
 21
34.1133167174
  0
LINE
  8
0
 62
7
  6
CONTINUOUS
 10
365.1556028675
 20
35.4247921272
 11
365.1556028675
 21
36.0805298321
  0
LINE
  8
0
 62
7
  6
CONTINUOUS
 10
365.4684104651
 20
32.0231527829
 11
365.4684104651
 21
31.8618343508
  0
LINE
  8
0
 62
7
  6
CONTINUOUS
 10
365.4684104651
 20
31.5391973962
 11
365.4684104651
 21
30.5067593403
  0
LINE
  8
0
 62
7
  6
CONTINUOUS
 10
365.757472524
 20
30.5067593403
 11
365.757472524
 21
31.5391973962
  0
LINE
  8
0
 62
7
  6
CONTINUOUS
 10
365.757472524
 20
31.8618343508
 11
365.757472524
 21
32.0231527829
  0
LINE
  8
0
 62
7
  6
CONTINUOUS
 10
360.3230977445
 20
30.8293962497
 11
360.2652852997
 21
30.7326051679
  0
LINE
  8
0
 62
7
  6
CONTINUOUS
 10
362.6355978548
 20
31.3133515913
 11
362.5777852445
 21
31.3778789641
  0
LINE
  8
0
 62
7
  6
CONTINUOUS
 10
363.5027853548
 20
30.7003414814
 11
363.4449727445
 21
30.7648688543
  0
LINE
  8
0
 62
7
  6
CONTINUOUS
 10
364.6590352445
 20
30.5712867188
 11
364.716847524
 21
30.5067593403
  0
LINE
  8
0
 62
7
  6
CONTINUOUS
 10
364.6012229651
 20
30.668077795
 11
364.6590352445
 21
30.5712867188
  0
LINE
  8
0
 62
7
  6
CONTINUOUS
 10
365.0059102445
 20
30.5067593403
 11
364.9480979651
 21
30.6035504109
  0
LINE
  8
0
 62
7
  6
CONTINUOUS
 10
364.890285024
 20
31.2810879048
 11
364.8324727445
 21
31.3778789641
  0
LINE
  8
0
 62
7
  6
CONTINUOUS
 10
366.2199727445
 20
31.5391973962
 11
366.2199727445
 21
30.5067593403
  0
LINE
  8
0
 62
7
  6
CONTINUOUS
 10
366.5090354651
 20
30.5067593403
 11
366.5090354651
 21
31.2488242184
  0
LINE
  8
0
 62
7
  6
CONTINUOUS
 10
366.5090354651
 20
31.3778789641
 11
366.5090354651
 21
31.5391973962
  0
LINE
  8
0
 62
7
  6
CONTINUOUS
 10
367.0408487691
 20
34.5231527829
 11
367.0408487691
 21
32.3100380288
  0
LINE
  8
0
 62
7
  6
CONTINUOUS
 10
358.9355977445
 20
31.3456152777
 11
358.8199727462
 21
31.216560532
  0
LINE
  8
0
 62
7
  6
CONTINUOUS
 10
359.1090352445
 20
31.1842968456
 11
359.1668477307
 21
31.2488242184
  0
LINE
  8
0
 62
7
  6
CONTINUOUS
 10
358.9355977445
 20
30.7003414814
 11
359.0512227376
 21
30.6358140973
  0
LINE
  8
0
 62
7
  6
CONTINUOUS
 10
359.3402852307
 20
30.7003414814
 11
359.1668477307
 21
30.7971325633
  0
LINE
  8
0
 62
7
  6
CONTINUOUS
 10
364.543410024
 20
31.3456152777
 11
364.6012229651
 21
31.2810879048
  0
LINE
  8
0
 62
7
  6
CONTINUOUS
 10
367.491847524
 20
31.2810879048
 11
367.5496604651
 21
31.1197694727
  0
LINE
  8
0
 62
7
  6
CONTINUOUS
 10
367.838722524
 20
31.1197694727
 11
367.7809102445
 21
31.2810879048
  0
LINE
  8
0
 62
7
  6
CONTINUOUS
 10
367.5496604651
 20
31.1197694727
 11
367.5496604651
 21
30.5067593403
  0
LINE
  8
0
 62
7
  6
CONTINUOUS
 10
367.838722524
 20
30.5067593403
 11
367.838722524
 21
31.1197694727
  0
LINE
  8
0
 62
7
  6
CONTINUOUS
 10
368.3012227445
 20
31.3456152777
 11
368.3012227445
 21
31.2810879048
  0
LINE
  8
0
 62
7
  6
CONTINUOUS
 10
368.4342913921
 20
32.3100380288
 11
368.4342913921
 21
34.4411855698
  0
LINE
  8
0
 62
7
  6
CONTINUOUS
 10
368.7621602445
 20
36.0805298321
 11
368.7621602445
 21
32.3100380288
  0
LINE
  8
0
 62
7
  6
CONTINUOUS
 10
363.4449727445
 20
30.8293962497
 11
363.5027853548
 21
30.926187309
  0
LINE
  8
0
 62
7
  6
CONTINUOUS
 10
359.0512227376
 20
30.6358140973
 11
359.2246602583
 21
30.5712867188
  0
LINE
  8
0
 62
7
  6
CONTINUOUS
 10
360.5543476894
 20
31.3456152777
 11
360.3809101894
 21
31.4424063369
  0
LINE
  8
0
 62
7
  6
CONTINUOUS
 10
363.2137226343
 20
30.668077795
 11
363.3871601343
 21
30.5712867188
  0
LINE
  8
0
 62
7
  6
CONTINUOUS
 10
362.2309102445
 20
31.3456152777
 11
362.3465351343
 21
31.2810879048
  0
LINE
  8
0
 62
7
  6
CONTINUOUS
 10
362.5777852445
 20
31.3778789641
 11
362.4621603548
 21
31.4424063369
  0
LINE
  8
0
 62
7
  6
CONTINUOUS
 10
368.3012227445
 20
30.7648688543
 11
368.4168479651
 21
30.6358140973
  0
LINE
  8
0
 62
7
  6
CONTINUOUS
 10
368.6480977445
 20
30.7003414814
 11
368.5902854651
 21
30.7648688543
  0
LINE
  8
0
 62
7
  6
CONTINUOUS
 10
368.3012227445
 20
31.2810879048
 11
368.4168479651
 21
31.1520331591
  0
LINE
  8
0
 62
7
  6
CONTINUOUS
 10
367.7809102445
 20
31.2810879048
 11
367.7230979651
 21
31.3778789641
  0
LINE
  8
0
 62
7
  6
CONTINUOUS
 10
370.1512223035
 20
30.7003414814
 11
370.1512223035
 21
30.7648688543
  0
LINE
  8
0
 62
7
  6
CONTINUOUS
 10
370.1556028675
 20
32.3100380288
 11
370.1556028675
 21
36.0805298321
  0
LINE
  8
0
 62
7
  6
CONTINUOUS
 10
363.2137226343
 20
31.4101426505
 11
363.1559103548
 21
31.3456152777
  0
LINE
  8
0
 62
7
  6
CONTINUOUS
 10
360.091847717
 20
31.3778789641
 11
360.2652852997
 21
31.3133515913
  0
LINE
  8
0
 62
7
  6
CONTINUOUS
 10
364.8324727445
 20
31.3778789641
 11
364.716847524
 21
31.4424063369
  0
LINE
  8
0
 62
7
  6
CONTINUOUS
 10
368.6480977445
 20
31.216560532
 11
368.5902854651
 21
31.2810879048
  0
LINE
  8
0
 62
7
  6
CONTINUOUS
 10
369.8043479651
 20
30.8293962497
 11
369.8621602445
 21
30.7648688543
  0
LINE
  8
0
 62
7
  6
CONTINUOUS
 10
370.1512223035
 20
30.7648688543
 11
370.0355977445
 21
30.8939236226
  0
LINE
  8
0
 62
7
  6
CONTINUOUS
 10
369.8043479651
 20
31.3456152777
 11
369.8621602445
 21
31.2810879048
  0
LINE
  8
0
 62
7
  6
CONTINUOUS
 10
370.1512223035
 20
31.2810879048
 11
370.0355977445
 21
31.4101426505
  0
LINE
  8
0
 62
7
  6
CONTINUOUS
 10
363.4449727445
 20
31.2810879048
 11
363.5027853548
 21
31.3456152777
  0
LINE
  8
0
 62
7
  6
CONTINUOUS
 10
363.2715352445
 20
31.0229783683
 11
363.1559103548
 21
30.8939236226
  0
LINE
  8
0
 62
7
  6
CONTINUOUS
 10
364.6012229651
 20
30.8616599362
 11
364.543410024
 21
30.7971325633
  0
LINE
  8
0
 62
7
  6
CONTINUOUS
 10
364.543410024
 20
30.6035504109
 11
364.6012229651
 21
30.668077795
  0
LINE
  8
0
 62
7
  6
CONTINUOUS
 10
363.3871601343
 20
30.5712867188
 11
363.5027853548
 21
30.5390230296
  0
LINE
  8
0
 62
7
  6
CONTINUOUS
 10
360.3809101894
 20
31.4424063369
 11
360.1496602445
 21
31.5069337098
  0
LINE
  8
0
 62
7
  6
CONTINUOUS
 10
363.7340351343
 20
30.6358140973
 11
363.5027853548
 21
30.7003414814
  0
LINE
  8
0
 62
7
  6
CONTINUOUS
 10
362.4621603548
 20
31.4424063369
 11
362.2887228548
 21
31.5069337098
  0
LINE
  8
0
 62
7
  6
CONTINUOUS
 10
364.716847524
 20
31.4424063369
 11
364.543410024
 21
31.5069337098
  0
LINE
  8
0
 62
7
  6
CONTINUOUS
 10
367.3762229651
 20
31.3456152777
 11
367.491847524
 21
31.2810879048
  0
LINE
  8
0
 62
7
  6
CONTINUOUS
 10
367.7230979651
 20
31.3778789641
 11
367.6074727445
 21
31.4424063369
  0
LINE
  8
0
 62
7
  6
CONTINUOUS
 10
359.2246602583
 20
30.5712867188
 11
359.3980977583
 21
30.5390230296
  0
LINE
  8
0
 62
7
  6
CONTINUOUS
 10
359.6871602721
 20
30.6358140973
 11
359.3402852307
 21
30.7003414814
  0
LINE
  8
0
 62
7
  6
CONTINUOUS
 10
362.1152853548
 20
31.3778789641
 11
362.2309102445
 21
31.3456152777
  0
LINE
  8
0
 62
7
  6
CONTINUOUS
 10
364.4277854651
 20
31.3778789641
 11
364.543410024
 21
31.3456152777
  0
LINE
  8
0
 62
7
  6
CONTINUOUS
 10
368.7637229651
 20
30.668077795
 11
368.6480977445
 21
30.7003414814
  0
LINE
  8
0
 62
7
  6
CONTINUOUS
 10
367.2605977445
 20
31.3778789641
 11
367.3762229651
 21
31.3456152777
  0
LINE
  8
0
 62
7
  6
CONTINUOUS
 10
368.4168479651
 20
30.6358140973
 11
368.5902854651
 21
30.5712867188
  0
LINE
  8
0
 62
7
  6
CONTINUOUS
 10
367.6074727445
 20
31.4424063369
 11
367.4340352445
 21
31.5069337098
  0
LINE
  8
0
 62
7
  6
CONTINUOUS
 10
368.8215352445
 20
31.1520331591
 11
368.6480977445
 21
31.216560532
  0
LINE
  8
0
 62
7
  6
CONTINUOUS
 10
369.6309104651
 20
30.8939236226
 11
369.8043479651
 21
30.8293962497
  0
LINE
  8
0
 62
7
  6
CONTINUOUS
 10
370.0355977445
 20
31.4101426505
 11
369.8621602445
 21
31.4746700234
  0
LINE
  8
0
 62
7
  6
CONTINUOUS
 10
368.4168479651
 20
31.1520331591
 11
368.6480977445
 21
31.0552420547
  0
LINE
  8
0
 62
7
  6
CONTINUOUS
 10
370.0355977445
 20
30.8939236226
 11
369.8043479651
 21
30.9907146818
  0
LINE
  8
0
 62
7
  6
CONTINUOUS
 10
368.5902854651
 20
31.2810879048
 11
368.6480977445
 21
31.3456152777
  0
LINE
  8
0
 62
7
  6
CONTINUOUS
 10
359.0512227376
 20
31.4101426505
 11
358.9355977445
 21
31.3456152777
  0
LINE
  8
0
 62
7
  6
CONTINUOUS
 10
359.1668477307
 20
31.2488242184
 11
359.3402852307
 21
31.3456152777
  0
LINE
  8
0
 62
7
  6
CONTINUOUS
 10
361.4793477997
 20
31.4424063369
 11
361.3637227445
 21
31.3778789641
  0
LINE
  8
0
 62
7
  6
CONTINUOUS
 10
361.3637227445
 20
31.2488242184
 11
361.4793477997
 21
31.3133515913
  0
LINE
  8
0
 62
7
  6
CONTINUOUS
 10
360.3809101894
 20
30.6035504109
 11
360.5543476894
 21
30.7003414814
  0
LINE
  8
0
 62
7
  6
CONTINUOUS
 10
359.3980977583
 20
30.5390230296
 11
359.744972717
 21
30.5067593403
  0
LINE
  8
0
 62
7
  6
CONTINUOUS
 10
363.5027853548
 20
30.5390230296
 11
363.7340351343
 21
30.5067593403
  0
LINE
  8
0
 62
7
  6
CONTINUOUS
 10
361.8840352445
 20
31.4101426505
 11
362.1152853548
 21
31.3778789641
  0
LINE
  8
0
 62
7
  6
CONTINUOUS
 10
364.1965353548
 20
31.4101426505
 11
364.4277854651
 21
31.3778789641
  0
LINE
  8
0
 62
7
  6
CONTINUOUS
 10
368.6480977445
 20
31.0552420547
 11
369.6309104651
 21
30.8939236226
  0
LINE
  8
0
 62
7
  6
CONTINUOUS
 10
369.8043479651
 20
30.9907146818
 11
368.8215352445
 21
31.1520331591
  0
LINE
  8
0
 62
7
  6
CONTINUOUS
 10
362.2887228548
 20
31.5069337098
 11
362.1152853548
 21
31.5391973962
  0
LINE
  8
0
 62
7
  6
CONTINUOUS
 10
368.5902854651
 20
30.5712867188
 11
368.7637229651
 21
30.5390230296
  0
LINE
  8
0
 62
7
  6
CONTINUOUS
 10
367.4340352445
 20
31.5069337098
 11
367.2605977445
 21
31.5391973962
  0
LINE
  8
0
 62
7
  6
CONTINUOUS
 10
369.6887227445
 20
31.3778789641
 11
369.8043479651
 21
31.3456152777
  0
LINE
  8
0
 62
7
  6
CONTINUOUS
 10
369.8621602445
 20
30.7648688543
 11
369.8043479651
 21
30.7003414814
  0
LINE
  8
0
 62
7
  6
CONTINUOUS
 10
368.4168479651
 20
31.4424063369
 11
368.3012227445
 21
31.3456152777
  0
LINE
  8
0
 62
7
  6
CONTINUOUS
 10
363.3293478548
 20
31.4746700234
 11
363.2137226343
 21
31.4101426505
  0
LINE
  8
0
 62
7
  6
CONTINUOUS
 10
363.3871601343
 20
31.0875057863
 11
363.2715352445
 21
31.0229783683
  0
LINE
  8
0
 62
7
  6
CONTINUOUS
 10
363.5027853548
 20
30.926187309
 11
363.6184102445
 21
30.9907146818
  0
LINE
  8
0
 62
7
  6
CONTINUOUS
 10
361.0746601894
 20
30.5067593403
 11
361.3637227445
 21
30.5067593403
  0
LINE
  8
0
 62
7
  6
CONTINUOUS
 10
362.4043477445
 20
30.5067593403
 11
362.6934101343
 21
30.5067593403
  0
LINE
  8
0
 62
7
  6
CONTINUOUS
 10
363.7340351343
 20
30.5067593403
 11
364.0809101343
 21
30.5067593403
  0
LINE
  8
0
 62
7
  6
CONTINUOUS
 10
364.716847524
 20
30.5067593403
 11
365.0059102445
 21
30.5067593403
  0
LINE
  8
0
 62
7
  6
CONTINUOUS
 10
365.4684104651
 20
30.5067593403
 11
365.757472524
 21
30.5067593403
  0
LINE
  8
0
 62
7
  6
CONTINUOUS
 10
366.2199727445
 20
30.5067593403
 11
366.5090354651
 21
30.5067593403
  0
LINE
  8
0
 62
7
  6
CONTINUOUS
 10
367.5496604651
 20
30.5067593403
 11
367.838722524
 21
30.5067593403
  0
LINE
  8
0
 62
7
  6
CONTINUOUS
 10
369.1105979651
 20
30.5067593403
 11
369.4574729651
 21
30.5067593403
  0
LINE
  8
0
 62
7
  6
CONTINUOUS
 10
369.4574729651
 20
30.6358140973
 11
369.1105979651
 21
30.6358140973
  0
LINE
  8
0
 62
7
  6
CONTINUOUS
 10
364.0809101343
 20
30.6358140973
 11
363.7340351343
 21
30.6358140973
  0
LINE
  8
0
 62
7
  6
CONTINUOUS
 10
368.5902854651
 20
30.7648688543
 11
368.3012227445
 21
30.7648688543
  0
LINE
  8
0
 62
7
  6
CONTINUOUS
 10
360.6121602997
 20
30.8293962497
 11
360.3230977445
 21
30.8293962497
  0
LINE
  8
0
 62
7
  6
CONTINUOUS
 10
359.6871602721
 20
31.4101426505
 11
360.091847717
 21
31.3778789641
  0
LINE
  8
0
 62
7
  6
CONTINUOUS
 10
360.1496602445
 20
31.5069337098
 11
359.744972717
 21
31.5391973962
  0
LINE
  8
0
 62
7
  6
CONTINUOUS
 10
368.7637229651
 20
30.5390230296
 11
369.1105979651
 21
30.5067593403
  0
LINE
  8
0
 62
7
  6
CONTINUOUS
 10
369.1105979651
 20
30.6358140973
 11
368.7637229651
 21
30.668077795
  0
LINE
  8
0
 62
7
  6
CONTINUOUS
 10
364.543410024
 20
31.5069337098
 11
364.1965353548
 21
31.5391973962
  0
LINE
  8
0
 62
7
  6
CONTINUOUS
 10
369.3418477445
 20
31.4101426505
 11
369.6887227445
 21
31.3778789641
  0
LINE
  8
0
 62
7
  6
CONTINUOUS
 10
369.6887227445
 20
31.5069337098
 11
369.3418477445
 21
31.5391973962
  0
LINE
  8
0
 62
7
  6
CONTINUOUS
 10
367.0293479651
 20
31.4101426505
 11
367.2605977445
 21
31.3778789641
  0
LINE
  8
0
 62
7
  6
CONTINUOUS
 10
369.8621602445
 20
31.4746700234
 11
369.6887227445
 21
31.5069337098
  0
LINE
  8
0
 62
7
  6
CONTINUOUS
 10
370.0355977445
 20
30.6035504109
 11
370.1512223035
 21
30.7003414814
  0
LINE
  8
0
 62
7
  6
CONTINUOUS
 10
364.543410024
 20
30.7971325633
 11
364.369972524
 21
30.7003414814
  0
LINE
  8
0
 62
7
  6
CONTINUOUS
 10
366.624660024
 20
31.4424063369
 11
366.5090354651
 21
31.3778789641
  0
LINE
  8
0
 62
7
  6
CONTINUOUS
 10
366.5090354651
 20
31.2488242184
 11
366.624660024
 21
31.3133515913
  0
LINE
  8
0
 62
7
  6
CONTINUOUS
 10
359.2246602583
 20
31.4746700234
 11
359.0512227376
 21
31.4101426505
  0
LINE
  8
0
 62
7
  6
CONTINUOUS
 10
361.6527851343
 20
31.5069337098
 11
361.4793477997
 21
31.4424063369
  0
LINE
  8
0
 62
7
  6
CONTINUOUS
 10
361.4793477997
 20
31.3133515913
 11
361.6527851343
 21
31.3778789641
  0
LINE
  8
0
 62
7
  6
CONTINUOUS
 10
360.2652852997
 20
30.7326051679
 11
360.091847717
 21
30.668077795
  0
LINE
  8
0
 62
7
  6
CONTINUOUS
 10
369.6887227445
 20
30.668077795
 11
369.4574729651
 21
30.6358140973
  0
LINE
  8
0
 62
7
  6
CONTINUOUS
 10
364.0809101343
 20
30.5067593403
 11
364.369972524
 21
30.5390230296
  0
LINE
  8
0
 62
7
  6
CONTINUOUS
 10
369.4574729651
 20
30.5067593403
 11
369.8043479651
 21
30.5390230296
  0
LINE
  8
0
 62
7
  6
CONTINUOUS
 10
359.744972717
 20
30.5067593403
 11
360.1496602445
 21
30.5390230296
  0
LINE
  8
0
 62
7
  6
CONTINUOUS
 10
360.091847717
 20
30.668077795
 11
359.6871602721
 21
30.6358140973
  0
LINE
  8
0
 62
7
  6
CONTINUOUS
 10
363.9652852445
 20
31.0552420547
 11
364.6012229651
 21
31.0552420547
  0
LINE
  8
0
 62
7
  6
CONTINUOUS
 10
364.6012229651
 20
31.1842968456
 11
363.9652852445
 21
31.1842968456
  0
LINE
  8
0
 62
7
  6
CONTINUOUS
 10
360.3230977445
 20
31.216560532
 11
360.6121602997
 21
31.216560532
  0
LINE
  8
0
 62
7
  6
CONTINUOUS
 10
363.1559103548
 20
31.2810879048
 11
363.4449727445
 21
31.2810879048
  0
LINE
  8
0
 62
7
  6
CONTINUOUS
 10
369.8621602445
 20
31.2810879048
 11
370.1512223035
 21
31.2810879048
  0
LINE
  8
0
 62
7
  6
CONTINUOUS
 10
363.8496603548
 20
31.4101426505
 11
364.1965353548
 21
31.4101426505
  0
LINE
  8
0
 62
7
  6
CONTINUOUS
 10
368.9949727445
 20
31.4101426505
 11
369.3418477445
 21
31.4101426505
  0
LINE
  8
0
 62
7
  6
CONTINUOUS
 10
369.3418477445
 20
31.5391973962
 11
368.9949727445
 21
31.5391973962
  0
LINE
  8
0
 62
7
  6
CONTINUOUS
 10
367.2605977445
 20
31.5391973962
 11
367.0293479651
 21
31.5391973962
  0
LINE
  8
0
 62
7
  6
CONTINUOUS
 10
366.5090354651
 20
31.5391973962
 11
366.2199727445
 21
31.5391973962
  0
LINE
  8
0
 62
7
  6
CONTINUOUS
 10
365.757472524
 20
31.5391973962
 11
365.4684104651
 21
31.5391973962
  0
LINE
  8
0
 62
7
  6
CONTINUOUS
 10
364.1965353548
 20
31.5391973962
 11
363.8496603548
 21
31.5391973962
  0
LINE
  8
0
 62
7
  6
CONTINUOUS
 10
362.1152853548
 20
31.5391973962
 11
361.8840352445
 21
31.5391973962
  0
LINE
  8
0
 62
7
  6
CONTINUOUS
 10
365.4684104651
 20
31.8618343508
 11
365.757472524
 21
31.8618343508
  0
LINE
  8
0
 62
7
  6
CONTINUOUS
 10
365.757472524
 20
32.0231527829
 11
365.4684104651
 21
32.0231527829
  0
LINE
  8
0
 62
7
  6
CONTINUOUS
 10
361.3637227445
 20
32.0231527829
 11
361.0746601894
 21
32.0231527829
  0
LINE
  8
0
 62
7
  6
CONTINUOUS
 10
360.4015045068
 20
32.3100380288
 11
360.8140758554
 21
32.3100380288
  0
LINE
  8
0
 62
7
  6
CONTINUOUS
 10
362.0408487691
 20
32.3100380288
 11
363.4342913921
 21
32.3100380288
  0
LINE
  8
0
 62
7
  6
CONTINUOUS
 10
363.7621602445
 20
32.3100380288
 11
365.1556028675
 21
32.3100380288
  0
LINE
  8
0
 62
7
  6
CONTINUOUS
 10
367.0408487691
 20
32.3100380288
 11
368.4342913921
 21
32.3100380288
  0
LINE
  8
0
 62
7
  6
CONTINUOUS
 10
368.7621602445
 20
32.3100380288
 11
370.1556028675
 21
32.3100380288
  0
LINE
  8
0
 62
7
  6
CONTINUOUS
 10
366.798097524
 20
31.5069337098
 11
366.624660024
 21
31.4424063369
  0
LINE
  8
0
 62
7
  6
CONTINUOUS
 10
364.369972524
 20
30.5390230296
 11
364.543410024
 21
30.6035504109
  0
LINE
  8
0
 62
7
  6
CONTINUOUS
 10
369.8043479651
 20
30.5390230296
 11
370.0355977445
 21
30.6035504109
  0
LINE
  8
0
 62
7
  6
CONTINUOUS
 10
369.8043479651
 20
30.7003414814
 11
369.6887227445
 21
30.668077795
  0
LINE
  8
0
 62
7
  6
CONTINUOUS
 10
368.7637229651
 20
31.3778789641
 11
368.9949727445
 21
31.4101426505
  0
LINE
  8
0
 62
7
  6
CONTINUOUS
 10
366.798097524
 20
31.3778789641
 11
367.0293479651
 21
31.4101426505
  0
LINE
  8
0
 62
7
  6
CONTINUOUS
 10
363.7340351343
 20
31.0229783683
 11
363.9652852445
 21
31.0552420547
  0
LINE
  8
0
 62
7
  6
CONTINUOUS
 10
367.0293479651
 20
31.5391973962
 11
366.798097524
 21
31.5069337098
  0
LINE
  8
0
 62
7
  6
CONTINUOUS
 10
363.6184102445
 20
31.3778789641
 11
363.8496603548
 21
31.4101426505
  0
LINE
  8
0
 62
7
  6
CONTINUOUS
 10
368.9949727445
 20
31.5391973962
 11
368.6480977445
 21
31.5069337098
  0
LINE
  8
0
 62
7
  6
CONTINUOUS
 10
363.9652852445
 20
31.1842968456
 11
363.6184102445
 21
31.1520331591
  0
LINE
  8
0
 62
7
  6
CONTINUOUS
 10
359.744972717
 20
31.5391973962
 11
359.3980977583
 21
31.5069337098
  0
LINE
  8
0
 62
7
  6
CONTINUOUS
 10
363.8496603548
 20
31.5391973962
 11
363.4449727445
 21
31.5069337098
  0
LINE
  8
0
 62
7
  6
CONTINUOUS
 10
361.221176638
 20
33.4575790124
 11
360.565438933
 21
33.4575790124
  0
LINE
  8
0
 62
7
  6
CONTINUOUS
 10
366.624660024
 20
31.3133515913
 11
366.798097524
 21
31.3778789641
  0
LINE
  8
0
 62
7
  6
CONTINUOUS
 10
368.6480977445
 20
31.3456152777
 11
368.7637229651
 21
31.3778789641
  0
LINE
  8
0
 62
7
  6
CONTINUOUS
 10
368.6480977445
 20
31.5069337098
 11
368.4168479651
 21
31.4424063369
  0
LINE
  8
0
 62
7
  6
CONTINUOUS
 10
364.369972524
 20
30.7003414814
 11
364.0809101343
 21
30.6358140973
  0
LINE
  8
0
 62
7
  6
CONTINUOUS
 10
361.6527851343
 20
31.3778789641
 11
361.8840352445
 21
31.4101426505
  0
LINE
  8
0
 62
7
  6
CONTINUOUS
 10
361.8840352445
 20
31.5391973962
 11
361.6527851343
 21
31.5069337098
  0
LINE
  8
0
 62
7
  6
CONTINUOUS
 10
359.4559102445
 20
31.3778789641
 11
359.6871602721
 21
31.4101426505
  0
LINE
  8
0
 62
7
  6
CONTINUOUS
 10
365.9752749986
 20
34.9329888485
 11
366.6310127035
 21
34.9329888485
  0
LINE
  8
0
 62
7
  6
CONTINUOUS
 10
363.6184102445
 20
30.9907146818
 11
363.7340351343
 21
31.0229783683
  0
LINE
  8
0
 62
7
  6
CONTINUOUS
 10
363.6184102445
 20
31.1520331591
 11
363.3871601343
 21
31.0875057863
  0
LINE
  8
0
 62
7
  6
CONTINUOUS
 10
363.5027853548
 20
31.3456152777
 11
363.6184102445
 21
31.3778789641
  0
LINE
  8
0
 62
7
  6
CONTINUOUS
 10
360.1496602445
 20
30.5390230296
 11
360.3809101894
 21
30.6035504109
  0
LINE
  8
0
 62
7
  6
CONTINUOUS
 10
363.4449727445
 20
31.5069337098
 11
363.3293478548
 21
31.4746700234
  0
LINE
  8
0
 62
7
  6
CONTINUOUS
 10
359.3980977583
 20
31.5069337098
 11
359.2246602583
 21
31.4746700234
  0
LINE
  8
0
 62
7
  6
CONTINUOUS
 10
370.1556028675
 20
36.0805298321
 11
368.7621602445
 21
36.0805298321
  0
LINE
  8
0
 62
7
  6
CONTINUOUS
 10
366.7949471298
 20
36.0805298321
 11
366.3823757812
 21
36.0805298321
  0
LINE
  8
0
 62
7
  6
CONTINUOUS
 10
365.1556028675
 20
36.0805298321
 11
363.7621602445
 21
36.0805298321
  0
LINE
  8
0
 62
7
  6
CONTINUOUS
 10
363.4342913921
 20
36.0805298321
 11
362.0408487691
 21
36.0805298321
  0
LINE
  8
0
 62
7
  6
CONTINUOUS
 10
360.1556028675
 20
36.0805298321
 11
358.7621602445
 21
36.0805298321
  0
LINE
  8
0
 62
7
  6
CONTINUOUS
 10
359.3402852307
 20
31.3456152777
 11
359.4559102445
 21
31.3778789641
  0
CIRCLE
  8
0
 62
7
  6
CONTINUOUS
 10
369.458881556
 20
38.4165954059
 40
2.0901639344
  0
ARC
  8
0
 62
7
  6
CONTINUOUS
 10
360.4015045068
 20
33.9493822911
 40
1.6393442623
 50
180.0
 51
270.0
  0
ARC
  8
0
 62
7
  6
CONTINUOUS
 10
366.7949471298
 20
34.4411855698
 40
1.6393442623
 50
0.0
 51
90.0
  0
ARC
  8
0
 62
7
  6
CONTINUOUS
 10
360.8140758554
 20
33.7854478649
 40
1.4754098361
 50
270.0
 51
326.2510114041
  0
ARC
  8
0
 62
7
  6
CONTINUOUS
 10
366.3823757812
 20
34.6051199961
 40
1.4754098361
 50
90.0
 51
146.2510114041
  0
ARC
  8
0
 62
7
  6
CONTINUOUS
 10
361.221176638
 20
34.2772511436
 40
0.8196721311
 50
270.0
 51
360.0
  0
ARC
  8
0
 62
7
  6
CONTINUOUS
 10
365.9752749986
 20
34.1133167174
 40
0.8196721311
 50
90.0
 51
180.0
  0
ARC
  8
0
 62
7
  6
CONTINUOUS
 10
360.565438933
 20
33.867415078
 40
0.4098360656
 50
180.0
 51
270.0
  0
ARC
  8
0
 62
7
  6
CONTINUOUS
 10
366.6310127035
 20
34.5231527829
 40
0.4098360656
 50
0.0
 51
90.0
  0
SOLID
  8
0
 62
7
  6
CONTINUOUS
 10
365.4684104651
 20
31.8618347111
 11
365.4684104651
 21
32.0231531947
 12
365.757472524
 22
31.8618347111
 13
365.757472524
 23
32.0231531947
  0
SOLID
  8
0
 62
7
  6
CONTINUOUS
 10
359.744972717
 20
31.5391977439
 11
360.1496602445
 21
31.5069333244
 12
359.3980977583
 22
31.5069333244
 13
359.3980977583
 23
31.5069333244
  0
SOLID
  8
0
 62
7
  6
CONTINUOUS
 10
359.2246602583
 20
31.4746706537
 11
359.3980977583
 21
31.5069333244
 12
360.1496602445
 22
31.5069333244
 13
360.1496602445
 23
31.5069333244
  0
SOLID
  8
0
 62
7
  6
CONTINUOUS
 10
360.1496602445
 20
31.5069333244
 11
360.3809101894
 21
31.4424063504
 12
359.2246602583
 22
31.4746706537
 13
359.2246602583
 23
31.4746706537
  0
SOLID
  8
0
 62
7
  6
CONTINUOUS
 10
359.0512227376
 20
31.4101419116
 11
359.2246602583
 21
31.4746706537
 12
360.3809101894
 22
31.4424063504
 13
360.3809101894
 23
31.4424063504
  0
SOLID
  8
0
 62
7
  6
CONTINUOUS
 10
359.0512227376
 20
31.4101419116
 11
360.3809101894
 21
31.4424063504
 12
359.6871602721
 22
31.4101419116
 13
359.6871602721
 23
31.4101419116
  0
SOLID
  8
0
 62
7
  6
CONTINUOUS
 10
359.6871602721
 20
31.4101419116
 11
360.3809101894
 21
31.4424063504
 12
360.091847717
 22
31.3778792603
 13
360.091847717
 23
31.3778792603
  0
SOLID
  8
0
 62
7
  6
CONTINUOUS
 10
360.3809101894
 20
31.4424063504
 11
360.5543476894
 21
31.345614957
 12
360.091847717
 22
31.3778792603
 13
360.091847717
 23
31.3778792603
  0
SOLID
  8
0
 62
7
  6
CONTINUOUS
 10
360.2652852997
 20
31.3133521701
 11
360.091847717
 21
31.3778792603
 12
360.5543476894
 22
31.345614957
 13
360.5543476894
 23
31.345614957
  0
SOLID
  8
0
 62
7
  6
CONTINUOUS
 10
360.2652852997
 20
31.3133521701
 11
360.5543476894
 21
31.345614957
 12
360.3230977445
 22
31.2165606992
 13
360.3230977445
 23
31.2165606992
  0
SOLID
  8
0
 62
7
  6
CONTINUOUS
 10
360.5543476894
 20
31.345614957
 11
360.6121602997
 21
31.2165606992
 12
360.3230977445
 22
31.2165606992
 13
360.3230977445
 23
31.2165606992
  0
SOLID
  8
0
 62
7
  6
CONTINUOUS
 10
361.6527851343
 20
31.5069329918
 11
361.8840352445
 21
31.5391972951
 12
362.1152853548
 22
31.5391972951
 13
362.1152853548
 23
31.5391972951
  0
SOLID
  8
0
 62
7
  6
CONTINUOUS
 10
362.1152853548
 20
31.5391972951
 11
362.2887228548
 21
31.5069329918
 12
361.6527851343
 22
31.5069329918
 13
361.6527851343
 23
31.5069329918
  0
SOLID
  8
0
 62
7
  6
CONTINUOUS
 10
361.4793477997
 20
31.4424059016
 11
361.6527851343
 21
31.5069329918
 12
362.2887228548
 22
31.5069329918
 13
362.2887228548
 23
31.5069329918
  0
SOLID
  8
0
 62
7
  6
CONTINUOUS
 10
362.2887228548
 20
31.5069329918
 11
362.4621603548
 21
31.4424059016
 12
361.4793477997
 22
31.4424059016
 13
361.4793477997
 23
31.4424059016
  0
SOLID
  8
0
 62
7
  6
CONTINUOUS
 10
362.4621603548
 20
31.4424059016
 11
361.8840352445
 21
31.4101420472
 12
361.4793477997
 22
31.4424059016
 13
361.4793477997
 23
31.4424059016
  0
SOLID
  8
0
 62
7
  6
CONTINUOUS
 10
361.3637227445
 20
31.3778788115
 11
361.4793477997
 21
31.4424059016
 12
361.8840352445
 22
31.4101420472
 13
361.8840352445
 23
31.4101420472
  0
SOLID
  8
0
 62
7
  6
CONTINUOUS
 10
361.8840352445
 20
31.4101420472
 11
361.6527851343
 21
31.3778788115
 12
361.3637227445
 22
31.3778788115
 13
361.3637227445
 23
31.3778788115
  0
SOLID
  8
0
 62
7
  6
CONTINUOUS
 10
361.8840352445
 20
31.4101420472
 11
362.4621603548
 21
31.4424059016
 12
362.1152853548
 22
31.3778788115
 13
362.1152853548
 23
31.3778788115
  0
SOLID
  8
0
 62
7
  6
CONTINUOUS
 10
362.4621603548
 20
31.4424059016
 11
362.5777852445
 21
31.3778788115
 12
362.1152853548
 22
31.3778788115
 13
362.1152853548
 23
31.3778788115
  0
SOLID
  8
0
 62
7
  6
CONTINUOUS
 10
362.2309102445
 20
31.345614957
 11
362.1152853548
 21
31.3778788115
 12
362.5777852445
 22
31.3778788115
 13
362.5777852445
 23
31.3778788115
  0
SOLID
  8
0
 62
7
  6
CONTINUOUS
 10
362.5777852445
 20
31.3778788115
 11
362.6355978548
 21
31.3133517213
 12
362.2309102445
 22
31.345614957
 13
362.2309102445
 23
31.345614957
  0
SOLID
  8
0
 62
7
  6
CONTINUOUS
 10
362.3465351343
 20
31.2810878668
 11
362.2309102445
 21
31.345614957
 12
362.6355978548
 22
31.3133517213
 13
362.6355978548
 23
31.3133517213
  0
SOLID
  8
0
 62
7
  6
CONTINUOUS
 10
362.3465351343
 20
31.2810878668
 11
362.6355978548
 21
31.3133517213
 12
362.4043477445
 22
31.1520332377
 13
362.4043477445
 23
31.1520332377
  0
SOLID
  8
0
 62
7
  6
CONTINUOUS
 10
362.6355978548
 20
31.3133517213
 11
362.6934101343
 21
31.1520332377
 12
362.4043477445
 22
31.1520332377
 13
362.4043477445
 23
31.1520332377
  0
SOLID
  8
0
 62
7
  6
CONTINUOUS
 10
361.6527851343
 20
31.3778788115
 11
361.4793477997
 21
31.3133517213
 12
361.3637227445
 22
31.3778788115
 13
361.3637227445
 23
31.3778788115
  0
SOLID
  8
0
 62
7
  6
CONTINUOUS
 10
361.4793477997
 20
31.3133517213
 11
361.3637227445
 21
31.2488235635
 12
361.3637227445
 22
31.3778788115
 13
361.3637227445
 23
31.3778788115
  0
SOLID
  8
0
 62
7
  6
CONTINUOUS
 10
361.3637227445
 20
31.2488235635
 11
361.0746601894
 21
30.5067593033
 12
361.3637227445
 22
31.3778788115
 13
361.3637227445
 23
31.3778788115
  0
SOLID
  8
0
 62
7
  6
CONTINUOUS
 10
361.3637227445
 20
31.3778788115
 11
361.0746601894
 21
30.5067593033
 12
361.3637227445
 22
32.0231527459
 13
361.3637227445
 23
32.0231527459
  0
SOLID
  8
0
 62
7
  6
CONTINUOUS
 10
361.0746601894
 20
30.5067593033
 11
361.0746601894
 21
32.0231527459
 12
361.3637227445
 22
32.0231527459
 13
361.3637227445
 23
32.0231527459
  0
SOLID
  8
0
 62
7
  6
CONTINUOUS
 10
361.3637227445
 20
31.2488235635
 11
361.3637227445
 21
30.5067593033
 12
361.0746601894
 22
30.5067593033
 13
361.0746601894
 23
30.5067593033
  0
SOLID
  8
0
 62
7
  6
CONTINUOUS
 10
362.4043477445
 20
30.5067593033
 11
362.4043477445
 21
31.1520332377
 12
362.6934101343
 22
31.1520332377
 13
362.6934101343
 23
31.1520332377
  0
SOLID
  8
0
 62
7
  6
CONTINUOUS
 10
362.6934101343
 20
31.1520332377
 11
362.6934101343
 21
30.5067593033
 12
362.4043477445
 22
30.5067593033
 13
362.4043477445
 23
30.5067593033
  0
SOLID
  8
0
 62
7
  6
CONTINUOUS
 10
363.4449727445
 20
31.506933758
 11
363.8496603548
 21
31.5391977507
 12
364.1965353548
 22
31.5391977507
 13
364.1965353548
 23
31.5391977507
  0
SOLID
  8
0
 62
7
  6
CONTINUOUS
 10
364.1965353548
 20
31.5391977507
 11
364.543410024
 21
31.506933758
 12
363.4449727445
 22
31.506933758
 13
363.4449727445
 23
31.506933758
  0
SOLID
  8
0
 62
7
  6
CONTINUOUS
 10
363.3293478548
 20
31.4746706537
 11
363.4449727445
 21
31.506933758
 12
364.543410024
 22
31.506933758
 13
364.543410024
 23
31.506933758
  0
SOLID
  8
0
 62
7
  6
CONTINUOUS
 10
364.543410024
 20
31.506933758
 11
364.716847524
 21
31.4424063504
 12
363.3293478548
 22
31.4746706537
 13
363.3293478548
 23
31.4746706537
  0
SOLID
  8
0
 62
7
  6
CONTINUOUS
 10
363.2137226343
 20
31.4101417797
 11
363.3293478548
 21
31.4746706537
 12
364.716847524
 22
31.4424063504
 13
364.716847524
 23
31.4424063504
  0
SOLID
  8
0
 62
7
  6
CONTINUOUS
 10
363.2137226343
 20
31.4101417797
 11
364.716847524
 21
31.4424063504
 12
363.8496603548
 22
31.4101417797
 13
363.8496603548
 23
31.4101417797
  0
SOLID
  8
0
 62
7
  6
CONTINUOUS
 10
363.8496603548
 20
31.4101417797
 11
364.716847524
 21
31.4424063504
 12
364.1965353548
 22
31.4101417797
 13
364.1965353548
 23
31.4101417797
  0
SOLID
  8
0
 62
7
  6
CONTINUOUS
 10
364.1965353548
 20
31.4101417797
 11
364.716847524
 21
31.4424063504
 12
364.4277854651
 22
31.3778793357
 13
364.4277854651
 23
31.3778793357
  0
SOLID
  8
0
 62
7
  6
CONTINUOUS
 10
364.716847524
 20
31.4424063504
 11
364.8324727445
 21
31.3778793357
 12
364.4277854651
 22
31.3778793357
 13
364.4277854651
 23
31.3778793357
  0
SOLID
  8
0
 62
7
  6
CONTINUOUS
 10
363.1559103548
 20
31.3456153429
 11
363.2137226343
 21
31.4101417797
 12
363.8496603548
 22
31.4101417797
 13
363.8496603548
 23
31.4101417797
  0
SOLID
  8
0
 62
7
  6
CONTINUOUS
 10
364.543410024
 20
31.3456153429
 11
364.4277854651
 21
31.3778793357
 12
364.8324727445
 22
31.3778793357
 13
364.8324727445
 23
31.3778793357
  0
SOLID
  8
0
 62
7
  6
CONTINUOUS
 10
364.543410024
 20
31.3456153429
 11
364.8324727445
 21
31.3778793357
 12
364.6012229651
 22
31.2810881318
 13
364.6012229651
 23
31.2810881318
  0
SOLID
  8
0
 62
7
  6
CONTINUOUS
 10
364.8324727445
 20
31.3778793357
 11
364.890285024
 21
31.2810881318
 12
364.6012229651
 22
31.2810881318
 13
364.6012229651
 23
31.2810881318
  0
SOLID
  8
0
 62
7
  6
CONTINUOUS
 10
364.6012229651
 20
31.1842964734
 11
364.6012229651
 21
31.2810881318
 12
364.890285024
 22
31.2810881318
 13
364.890285024
 23
31.2810881318
  0
SOLID
  8
0
 62
7
  6
CONTINUOUS
 10
364.6012229651
 20
31.1842964734
 11
364.890285024
 21
31.2810881318
 12
364.6012229651
 22
31.0552422931
 13
364.6012229651
 23
31.0552422931
  0
SOLID
  8
0
 62
7
  6
CONTINUOUS
 10
364.6012229651
 20
31.0552422931
 11
364.890285024
 21
31.2810881318
 12
364.6012229651
 22
30.8616599362
 13
364.6012229651
 23
30.8616599362
  0
SOLID
  8
0
 62
7
  6
CONTINUOUS
 10
364.890285024
 20
31.2810881318
 11
364.890285024
 21
30.7648681127
 12
364.6012229651
 22
30.8616599362
 13
364.6012229651
 23
30.8616599362
  0
SOLID
  8
0
 62
7
  6
CONTINUOUS
 10
366.798097524
 20
31.5069339419
 11
367.0293479651
 21
31.5391976292
 12
367.2605977445
 22
31.5391976292
 13
367.2605977445
 23
31.5391976292
  0
SOLID
  8
0
 62
7
  6
CONTINUOUS
 10
367.2605977445
 20
31.5391976292
 11
367.4340352445
 21
31.5069339419
 12
366.798097524
 22
31.5069339419
 13
366.798097524
 23
31.5069339419
  0
SOLID
  8
0
 62
7
  6
CONTINUOUS
 10
366.624660024
 20
31.4424065674
 11
366.798097524
 21
31.5069339419
 12
367.4340352445
 22
31.5069339419
 13
367.4340352445
 23
31.5069339419
  0
SOLID
  8
0
 62
7
  6
CONTINUOUS
 10
367.4340352445
 20
31.5069339419
 11
367.6074727445
 21
31.4424065674
 12
366.624660024
 22
31.4424065674
 13
366.624660024
 23
31.4424065674
  0
SOLID
  8
0
 62
7
  6
CONTINUOUS
 10
367.6074727445
 20
31.4424065674
 11
367.0293479651
 21
31.4101420472
 12
366.624660024
 22
31.4424065674
 13
366.624660024
 23
31.4424065674
  0
SOLID
  8
0
 62
7
  6
CONTINUOUS
 10
366.5090354651
 20
31.377879193
 11
366.624660024
 21
31.4424065674
 12
367.0293479651
 22
31.4101420472
 13
367.0293479651
 23
31.4101420472
  0
SOLID
  8
0
 62
7
  6
CONTINUOUS
 10
367.0293479651
 20
31.4101420472
 11
366.798097524
 21
31.377879193
 12
366.5090354651
 22
31.377879193
 13
366.5090354651
 23
31.377879193
  0
SOLID
  8
0
 62
7
  6
CONTINUOUS
 10
367.0293479651
 20
31.4101420472
 11
367.6074727445
 21
31.4424065674
 12
367.2605977445
 22
31.377879193
 13
367.2605977445
 23
31.377879193
  0
SOLID
  8
0
 62
7
  6
CONTINUOUS
 10
367.6074727445
 20
31.4424065674
 11
367.7230979651
 21
31.377879193
 12
367.2605977445
 22
31.377879193
 13
367.2605977445
 23
31.377879193
  0
SOLID
  8
0
 62
7
  6
CONTINUOUS
 10
367.3762229651
 20
31.345614957
 11
367.2605977445
 21
31.377879193
 12
367.7230979651
 22
31.377879193
 13
367.7230979651
 23
31.377879193
  0
SOLID
  8
0
 62
7
  6
CONTINUOUS
 10
367.3762229651
 20
31.345614957
 11
367.7230979651
 21
31.377879193
 12
367.491847524
 22
31.2810881312
 13
367.491847524
 23
31.2810881312
  0
SOLID
  8
0
 62
7
  6
CONTINUOUS
 10
367.7230979651
 20
31.377879193
 11
367.7809102445
 21
31.2810881312
 12
367.491847524
 22
31.2810881312
 13
367.491847524
 23
31.2810881312
  0
SOLID
  8
0
 62
7
  6
CONTINUOUS
 10
367.5496604651
 20
31.119769695
 11
367.491847524
 21
31.2810881312
 12
367.7809102445
 22
31.2810881312
 13
367.7809102445
 23
31.2810881312
  0
SOLID
  8
0
 62
7
  6
CONTINUOUS
 10
367.7809102445
 20
31.2810881312
 11
367.838722524
 21
31.119769695
 12
367.5496604651
 22
31.119769695
 13
367.5496604651
 23
31.119769695
  0
SOLID
  8
0
 62
7
  6
CONTINUOUS
 10
366.798097524
 20
31.377879193
 11
366.624660024
 21
31.3133521701
 12
366.5090354651
 22
31.377879193
 13
366.5090354651
 23
31.377879193
  0
SOLID
  8
0
 62
7
  6
CONTINUOUS
 10
366.624660024
 20
31.3133521701
 11
366.5090354651
 21
31.2488235635
 12
366.5090354651
 22
31.377879193
 13
366.5090354651
 23
31.377879193
  0
SOLID
  8
0
 62
7
  6
CONTINUOUS
 10
366.5090354651
 20
31.2488235635
 11
366.2199727445
 21
30.5067596374
 12
366.5090354651
 22
31.377879193
 13
366.5090354651
 23
31.377879193
  0
SOLID
  8
0
 62
7
  6
CONTINUOUS
 10
366.5090354651
 20
31.377879193
 11
366.2199727445
 21
30.5067596374
 12
366.5090354651
 22
31.5391976292
 13
366.5090354651
 23
31.5391976292
  0
SOLID
  8
0
 62
7
  6
CONTINUOUS
 10
366.2199727445
 20
30.5067596374
 11
366.2199727445
 21
31.5391976292
 12
366.5090354651
 22
31.5391976292
 13
366.5090354651
 23
31.5391976292
  0
SOLID
  8
0
 62
7
  6
CONTINUOUS
 10
366.5090354651
 20
31.2488235635
 11
366.5090354651
 21
30.5067596374
 12
366.2199727445
 22
30.5067596374
 13
366.2199727445
 23
30.5067596374
  0
SOLID
  8
0
 62
7
  6
CONTINUOUS
 10
367.5496604651
 20
30.5067596374
 11
367.5496604651
 21
31.119769695
 12
367.838722524
 22
31.119769695
 13
367.838722524
 23
31.119769695
  0
SOLID
  8
0
 62
7
  6
CONTINUOUS
 10
367.838722524
 20
31.119769695
 11
367.838722524
 21
30.5067596374
 12
367.5496604651
 22
30.5067596374
 13
367.5496604651
 23
30.5067596374
  0
SOLID
  8
0
 62
7
  6
CONTINUOUS
 10
368.6480977445
 20
31.5069334157
 11
368.9949727445
 21
31.539197762
 12
369.3418477445
 22
31.539197762
 13
369.3418477445
 23
31.539197762
  0
SOLID
  8
0
 62
7
  6
CONTINUOUS
 10
369.3418477445
 20
31.539197762
 11
369.6887227445
 21
31.5069334157
 12
368.6480977445
 22
31.5069334157
 13
368.6480977445
 23
31.5069334157
  0
SOLID
  8
0
 62
7
  6
CONTINUOUS
 10
368.4168479651
 20
31.4424063504
 11
368.6480977445
 21
31.5069334157
 12
369.6887227445
 22
31.5069334157
 13
369.6887227445
 23
31.5069334157
  0
SOLID
  8
0
 62
7
  6
CONTINUOUS
 10
368.4168479651
 20
31.4424063504
 11
369.6887227445
 21
31.5069334406
 12
369.8621602445
 22
31.4746706537
 13
369.8621602445
 23
31.4746706537
  0
SOLID
  8
0
 62
7
  6
CONTINUOUS
 10
368.4168479651
 20
31.4424063504
 11
369.8621602445
 21
31.4746706537
 12
368.9949727445
 22
31.4101421267
 13
368.9949727445
 23
31.4101421267
  0
SOLID
  8
0
 62
7
  6
CONTINUOUS
 10
368.9949727445
 20
31.4101421267
 11
369.8621602445
 21
31.4746706537
 12
369.3418477445
 22
31.4101421267
 13
369.3418477445
 23
31.4101421267
  0
SOLID
  8
0
 62
7
  6
CONTINUOUS
 10
369.8621602445
 20
31.4746706537
 11
370.0355977445
 21
31.4101421267
 12
369.3418477445
 22
31.4101421267
 13
369.3418477445
 23
31.4101421267
  0
SOLID
  8
0
 62
7
  6
CONTINUOUS
 10
369.6887227445
 20
31.3778792603
 11
369.3418477445
 21
31.4101421267
 12
370.0355977445
 22
31.4101421267
 13
370.0355977445
 23
31.4101421267
  0
SOLID
  8
0
 62
7
  6
CONTINUOUS
 10
368.3012227445
 20
31.3456148845
 11
368.4168479651
 21
31.4424063504
 12
368.9949727445
 22
31.4101421267
 13
368.9949727445
 23
31.4101421267
  0
SOLID
  8
0
 62
7
  6
CONTINUOUS
 10
369.6887227445
 20
31.3778792603
 11
370.0355977445
 21
31.4101421267
 12
369.8043479651
 22
31.3456148845
 13
369.8043479651
 23
31.3456148845
  0
SOLID
  8
0
 62
7
  6
CONTINUOUS
 10
369.8043479651
 20
31.3456148845
 11
370.0355977445
 21
31.4101421267
 12
369.8621602445
 22
31.281087868
 13
369.8621602445
 23
31.281087868
  0
SOLID
  8
0
 62
7
  6
CONTINUOUS
 10
370.0355977445
 20
31.4101421267
 11
370.1512223035
 21
31.281087868
 12
369.8621602445
 22
31.281087868
 13
369.8621602445
 23
31.281087868
  0
SOLID
  8
0
 62
7
  6
CONTINUOUS
 10
359.4559102445
 20
31.3778792603
 11
358.9355977445
 21
31.3456148963
 12
359.6871602721
 22
31.4101421155
 13
359.6871602721
 23
31.4101421155
  0
SOLID
  8
0
 62
7
  6
CONTINUOUS
 10
358.9355977445
 20
31.3456148963
 11
359.0512227376
 21
31.4101421155
 12
359.6871602721
 22
31.4101421155
 13
359.6871602721
 23
31.4101421155
  0
SOLID
  8
0
 62
7
  6
CONTINUOUS
 10
359.4559102445
 20
31.3778792603
 11
359.3402852307
 21
31.3456148963
 12
358.9355977445
 22
31.3456148963
 13
358.9355977445
 23
31.3456148963
  0
SOLID
  8
0
 62
7
  6
CONTINUOUS
 10
358.8199727462
 20
31.2165607767
 11
358.9355977445
 21
31.3456148963
 12
359.3402852307
 22
31.3456148963
 13
359.3402852307
 23
31.3456148963
  0
SOLID
  8
0
 62
7
  6
CONTINUOUS
 10
363.1559103548
 20
31.3456149608
 11
363.8496603548
 21
31.4101420472
 12
363.6184102445
 22
31.3778792603
 13
363.6184102445
 23
31.3778792603
  0
SOLID
  8
0
 62
7
  6
CONTINUOUS
 10
363.6184102445
 20
31.3778792603
 11
363.5027853548
 21
31.3456149608
 12
363.1559103548
 22
31.3456149608
 13
363.1559103548
 23
31.3456149608
  0
SOLID
  8
0
 62
7
  6
CONTINUOUS
 10
363.1559103548
 20
31.2810878707
 11
363.1559103548
 21
31.3456149608
 12
363.5027853548
 22
31.3456149608
 13
363.5027853548
 23
31.3456149608
  0
SOLID
  8
0
 62
7
  6
CONTINUOUS
 10
363.5027853548
 20
31.3456149608
 11
363.4449727445
 21
31.2810878707
 12
363.1559103548
 22
31.2810878707
 13
363.1559103548
 23
31.2810878707
  0
SOLID
  8
0
 62
7
  6
CONTINUOUS
 10
368.3012227445
 20
31.3456149608
 11
368.9949727445
 21
31.4101420472
 12
368.7637229651
 22
31.3778792603
 13
368.7637229651
 23
31.3778792603
  0
SOLID
  8
0
 62
7
  6
CONTINUOUS
 10
368.7637229651
 20
31.3778792603
 11
368.6480977445
 21
31.3456149608
 12
368.3012227445
 22
31.3456149608
 13
368.3012227445
 23
31.3456149608
  0
SOLID
  8
0
 62
7
  6
CONTINUOUS
 10
368.3012227445
 20
31.2810878707
 11
368.3012227445
 21
31.3456149608
 12
368.6480977445
 22
31.3456149608
 13
368.6480977445
 23
31.3456149608
  0
SOLID
  8
0
 62
7
  6
CONTINUOUS
 10
368.6480977445
 20
31.3456149608
 11
368.5902854651
 21
31.2810878707
 12
368.3012227445
 22
31.2810878707
 13
368.3012227445
 23
31.2810878707
  0
SOLID
  8
0
 62
7
  6
CONTINUOUS
 10
368.4168479651
 20
31.1520336865
 11
368.3012227445
 21
31.2810878707
 12
368.5902854651
 22
31.2810878707
 13
368.5902854651
 23
31.2810878707
  0
SOLID
  8
0
 62
7
  6
CONTINUOUS
 10
358.8199727462
 20
31.2165607767
 11
359.3402852307
 21
31.345614957
 12
359.1668477307
 22
31.2488235635
 13
359.1668477307
 23
31.2488235635
  0
SOLID
  8
0
 62
7
  6
CONTINUOUS
 10
359.1668477307
 20
31.2488235635
 11
359.1090352445
 21
31.1842964734
 12
358.8199727462
 22
31.2165607767
 13
358.8199727462
 23
31.2165607767
  0
SOLID
  8
0
 62
7
  6
CONTINUOUS
 10
358.7621602445
 20
31.0229779898
 11
358.8199727462
 21
31.2165607767
 12
359.1090352445
 22
31.1842964734
 13
359.1090352445
 23
31.1842964734
  0
SOLID
  8
0
 62
7
  6
CONTINUOUS
 10
363.6184102445
 20
31.1520336865
 11
363.9652852445
 21
31.1842964611
 12
364.6012229651
 22
31.1842964611
 13
364.6012229651
 23
31.1842964611
  0
SOLID
  8
0
 62
7
  6
CONTINUOUS
 10
363.6184102445
 20
31.1520336865
 11
364.6012229651
 21
31.1842964611
 12
363.3871601343
 22
31.0875057863
 13
363.3871601343
 23
31.0875057863
  0
SOLID
  8
0
 62
7
  6
CONTINUOUS
 10
363.3871601343
 20
31.0875057863
 11
364.6012229651
 21
31.1842964611
 12
363.9652852445
 22
31.0552422808
 13
363.9652852445
 23
31.0552422808
  0
SOLID
  8
0
 62
7
  6
CONTINUOUS
 10
364.6012229651
 20
31.1842964611
 11
364.6012229651
 21
31.0552422808
 12
363.9652852445
 22
31.0552422808
 13
363.9652852445
 23
31.0552422808
  0
SOLID
  8
0
 62
7
  6
CONTINUOUS
 10
368.4168479651
 20
31.1520338754
 11
368.5902854651
 21
31.2810878668
 12
368.6480977445
 22
31.2165607767
 13
368.6480977445
 23
31.2165607767
  0
SOLID
  8
0
 62
7
  6
CONTINUOUS
 10
368.6480977445
 20
31.2165607767
 11
368.8215352445
 21
31.1520338754
 12
368.4168479651
 22
31.1520338754
 13
368.4168479651
 23
31.1520338754
  0
SOLID
  8
0
 62
7
  6
CONTINUOUS
 10
368.6480977445
 20
31.0552422931
 11
368.4168479651
 21
31.1520338754
 12
368.8215352445
 22
31.1520338754
 13
368.8215352445
 23
31.1520338754
  0
SOLID
  8
0
 62
7
  6
CONTINUOUS
 10
368.8215352445
 20
31.1520338754
 11
369.8043479651
 21
30.9907152029
 12
368.6480977445
 22
31.0552422931
 13
368.6480977445
 23
31.0552422931
  0
SOLID
  8
0
 62
7
  6
CONTINUOUS
 10
369.6309104651
 20
30.8939239876
 11
368.6480977445
 21
31.0552422931
 12
369.8043479651
 22
30.9907152029
 13
369.8043479651
 23
30.9907152029
  0
SOLID
  8
0
 62
7
  6
CONTINUOUS
 10
369.8043479651
 20
30.9907152029
 11
370.0355977445
 21
30.8939239876
 12
369.6309104651
 22
30.8939239876
 13
369.6309104651
 23
30.8939239876
  0
SOLID
  8
0
 62
7
  6
CONTINUOUS
 10
369.8043479651
 20
30.8293967193
 11
369.6309104651
 21
30.8939239876
 12
370.0355977445
 22
30.8939239876
 13
370.0355977445
 23
30.8939239876
  0
SOLID
  8
0
 62
7
  6
CONTINUOUS
 10
369.8043479651
 20
30.8293967193
 11
370.0355977445
 21
30.8939239876
 12
369.8621602445
 22
30.7648682694
 13
369.8621602445
 23
30.7648682694
  0
SOLID
  8
0
 62
7
  6
CONTINUOUS
 10
370.0355977445
 20
30.8939239876
 11
370.1512223035
 21
30.7648682694
 12
369.8621602445
 22
30.7648682694
 13
369.8621602445
 23
30.7648682694
  0
SOLID
  8
0
 62
7
  6
CONTINUOUS
 10
369.8043479651
 20
30.7003411846
 11
369.8621602445
 21
30.7648682694
 12
370.1512223035
 22
30.7648682694
 13
370.1512223035
 23
30.7648682694
  0
SOLID
  8
0
 62
7
  6
CONTINUOUS
 10
370.1512223035
 20
30.7648682694
 11
370.1512223035
 21
30.7003411846
 12
369.8043479651
 22
30.7003411846
 13
369.8043479651
 23
30.7003411846
  0
SOLID
  8
0
 62
7
  6
CONTINUOUS
 10
369.6887227445
 20
30.6680782357
 11
369.8043479651
 21
30.7003411846
 12
370.1512223035
 22
30.7003411846
 13
370.1512223035
 23
30.7003411846
  0
SOLID
  8
0
 62
7
  6
CONTINUOUS
 10
369.6887227445
 20
30.6680782357
 11
370.1512223035
 21
30.7003411846
 12
369.4574729651
 22
30.6358140998
 13
369.4574729651
 23
30.6358140998
  0
SOLID
  8
0
 62
7
  6
CONTINUOUS
 10
370.1512223035
 20
30.7003411846
 11
370.0355977445
 21
30.6035511455
 12
369.4574729651
 22
30.6358140998
 13
369.4574729651
 23
30.6358140998
  0
SOLID
  8
0
 62
7
  6
CONTINUOUS
 10
370.0355977445
 20
30.6035511455
 11
368.5902854651
 21
30.5712868422
 12
369.4574729651
 22
30.6358140998
 13
369.4574729651
 23
30.6358140998
  0
SOLID
  8
0
 62
7
  6
CONTINUOUS
 10
369.4574729651
 20
30.6358140998
 11
368.5902854651
 21
30.5712868422
 12
369.1105979651
 22
30.6358140998
 13
369.1105979651
 23
30.6358140998
  0
SOLID
  8
0
 62
7
  6
CONTINUOUS
 10
368.5902854651
 20
30.5712868422
 11
368.4168479651
 21
30.6358140998
 12
369.1105979651
 22
30.6358140998
 13
369.1105979651
 23
30.6358140998
  0
SOLID
  8
0
 62
7
  6
CONTINUOUS
 10
368.5902854651
 20
30.5712868422
 11
370.0355977445
 21
30.6035511455
 12
368.7637229651
 22
30.5390223111
 13
368.7637229651
 23
30.5390223111
  0
SOLID
  8
0
 62
7
  6
CONTINUOUS
 10
370.0355977445
 20
30.6035511455
 11
369.8043479651
 21
30.5390223111
 12
368.7637229651
 22
30.5390223111
 13
368.7637229651
 23
30.5390223111
  0
SOLID
  8
0
 62
7
  6
CONTINUOUS
 10
369.1105979651
 20
30.5067599302
 11
368.7637229651
 21
30.5390223111
 12
369.8043479651
 22
30.5390223111
 13
369.8043479651
 23
30.5390223111
  0
SOLID
  8
0
 62
7
  6
CONTINUOUS
 10
369.8043479651
 20
30.5390223111
 11
369.4574729651
 21
30.5067599302
 12
369.1105979651
 22
30.5067599302
 13
369.1105979651
 23
30.5067599302
  0
SOLID
  8
0
 62
7
  6
CONTINUOUS
 10
358.7621602445
 20
31.0229779898
 11
359.1090352445
 21
31.1842964734
 12
359.0512227376
 22
31.0552422931
 13
359.0512227376
 23
31.0552422931
  0
SOLID
  8
0
 62
7
  6
CONTINUOUS
 10
359.0512227376
 20
31.0552422931
 11
359.0512227376
 21
30.9584509954
 12
358.7621602445
 22
31.0229779898
 13
358.7621602445
 23
31.0229779898
  0
SOLID
  8
0
 62
7
  6
CONTINUOUS
 10
358.8199727462
 20
30.8293967193
 11
358.7621602445
 21
31.0229779898
 12
359.0512227376
 22
30.9584509954
 13
359.0512227376
 23
30.9584509954
  0
SOLID
  8
0
 62
7
  6
CONTINUOUS
 10
359.0512227376
 20
30.9584509954
 11
359.1668477307
 21
30.797132416
 12
358.8199727462
 22
30.8293967193
 13
358.8199727462
 23
30.8293967193
  0
SOLID
  8
0
 62
7
  6
CONTINUOUS
 10
358.9355977445
 20
30.7003413087
 11
358.8199727462
 21
30.8293967193
 12
359.1668477307
 22
30.797132416
 13
359.1668477307
 23
30.797132416
  0
SOLID
  8
0
 62
7
  6
CONTINUOUS
 10
359.1668477307
 20
30.797132416
 11
359.3402852307
 21
30.7003413087
 12
358.9355977445
 22
30.7003413087
 13
358.9355977445
 23
30.7003413087
  0
SOLID
  8
0
 62
7
  6
CONTINUOUS
 10
359.0512227376
 20
30.6358140759
 11
358.9355977445
 21
30.7003413087
 12
359.3402852307
 22
30.7003413087
 13
359.3402852307
 23
30.7003413087
  0
SOLID
  8
0
 62
7
  6
CONTINUOUS
 10
359.3402852307
 20
30.7003413087
 11
359.6871602721
 21
30.6358140759
 12
359.0512227376
 22
30.6358140759
 13
359.0512227376
 23
30.6358140759
  0
SOLID
  8
0
 62
7
  6
CONTINUOUS
 10
359.2246602583
 20
30.5712868422
 11
359.0512227376
 21
30.6358140759
 12
359.6871602721
 22
30.6358140759
 13
359.6871602721
 23
30.6358140759
  0
SOLID
  8
0
 62
7
  6
CONTINUOUS
 10
363.2715352445
 20
31.0229779808
 11
363.3871601343
 21
31.0875057863
 12
363.9652852445
 22
31.0552422931
 13
363.9652852445
 23
31.0552422931
  0
SOLID
  8
0
 62
7
  6
CONTINUOUS
 10
363.9652852445
 20
31.0552422931
 11
363.7340351343
 21
31.0229779808
 12
363.2715352445
 22
31.0229779808
 13
363.2715352445
 23
31.0229779808
  0
SOLID
  8
0
 62
7
  6
CONTINUOUS
 10
363.1559103548
 20
30.8939238094
 11
363.2715352445
 21
31.0229779808
 12
363.7340351343
 22
31.0229779808
 13
363.7340351343
 23
31.0229779808
  0
SOLID
  8
0
 62
7
  6
CONTINUOUS
 10
363.5027853548
 20
30.926187309
 11
363.1559103548
 21
30.8939238094
 12
363.6184102445
 22
30.9907152029
 13
363.6184102445
 23
30.9907152029
  0
SOLID
  8
0
 62
7
  6
CONTINUOUS
 10
363.1559103548
 20
30.8939238094
 11
363.7340351343
 21
31.0229779898
 12
363.6184102445
 22
30.9907152029
 13
363.6184102445
 23
30.9907152029
  0
SOLID
  8
0
 62
7
  6
CONTINUOUS
 10
363.5027853548
 20
30.926187309
 11
363.4449727445
 21
30.8293967193
 12
363.1559103548
 22
30.8939238094
 13
363.1559103548
 23
30.8939238094
  0
SOLID
  8
0
 62
7
  6
CONTINUOUS
 10
363.1559103548
 20
30.797132416
 11
363.1559103548
 21
30.8939238094
 12
363.4449727445
 22
30.8293967193
 13
363.4449727445
 23
30.8293967193
  0
SOLID
  8
0
 62
7
  6
CONTINUOUS
 10
363.4449727445
 20
30.8293967193
 11
363.4449727445
 21
30.7648681127
 12
363.1559103548
 22
30.797132416
 13
363.1559103548
 23
30.797132416
  0
SOLID
  8
0
 62
7
  6
CONTINUOUS
 10
363.2137226343
 20
30.6680782357
 11
363.1559103548
 21
30.797132416
 12
363.4449727445
 22
30.7648681127
 13
363.4449727445
 23
30.7648681127
  0
SOLID
  8
0
 62
7
  6
CONTINUOUS
 10
364.6012229651
 20
30.8616599362
 11
364.890285024
 21
30.7648681127
 12
364.543410024
 22
30.797132416
 13
364.543410024
 23
30.797132416
  0
SOLID
  8
0
 62
7
  6
CONTINUOUS
 10
364.369972524
 20
30.7003410226
 11
364.543410024
 21
30.797132416
 12
364.890285024
 22
30.7648681127
 13
364.890285024
 23
30.7648681127
  0
SOLID
  8
0
 62
7
  6
CONTINUOUS
 10
364.369972524
 20
30.7003410226
 11
364.890285024
 21
30.7648681127
 12
364.6012229651
 22
30.6680782357
 13
364.6012229651
 23
30.6680782357
  0
SOLID
  8
0
 62
7
  6
CONTINUOUS
 10
364.890285024
 20
30.7648681127
 11
364.9480979651
 21
30.6035511455
 12
364.6012229651
 22
30.6680782357
 13
364.6012229651
 23
30.6680782357
  0
SOLID
  8
0
 62
7
  6
CONTINUOUS
 10
364.6590352445
 20
30.5712868422
 11
364.6012229651
 21
30.6680782357
 12
364.9480979651
 22
30.6035511455
 13
364.9480979651
 23
30.6035511455
  0
SOLID
  8
0
 62
7
  6
CONTINUOUS
 10
364.6590352445
 20
30.5712868422
 11
364.9480979651
 21
30.6035511455
 12
364.716847524
 22
30.5067598731
 13
364.716847524
 23
30.5067598731
  0
SOLID
  8
0
 62
7
  6
CONTINUOUS
 10
364.9480979651
 20
30.6035511455
 11
365.0059102445
 21
30.5067598731
 12
364.716847524
 22
30.5067598731
 13
364.716847524
 23
30.5067598731
  0
SOLID
  8
0
 62
7
  6
CONTINUOUS
 10
360.2652852997
 20
30.7326051679
 11
360.3230977445
 21
30.8293966612
 12
360.6121602997
 22
30.8293966612
 13
360.6121602997
 23
30.8293966612
  0
SOLID
  8
0
 62
7
  6
CONTINUOUS
 10
360.6121602997
 20
30.8293966612
 11
360.5543476894
 21
30.7003410226
 12
360.2652852997
 22
30.7326051679
 13
360.2652852997
 23
30.7326051679
  0
SOLID
  8
0
 62
7
  6
CONTINUOUS
 10
360.091847717
 20
30.6680782357
 11
360.2652852997
 21
30.7326051679
 12
360.5543476894
 22
30.7003410226
 13
360.5543476894
 23
30.7003410226
  0
SOLID
  8
0
 62
7
  6
CONTINUOUS
 10
360.091847717
 20
30.6680782357
 11
360.5543476894
 21
30.7003410226
 12
359.6871602721
 22
30.6358139324
 13
359.6871602721
 23
30.6358139324
  0
SOLID
  8
0
 62
7
  6
CONTINUOUS
 10
360.5543476894
 20
30.7003410226
 11
360.3809101894
 21
30.6035511455
 12
359.6871602721
 22
30.6358139324
 13
359.6871602721
 23
30.6358139324
  0
SOLID
  8
0
 62
7
  6
CONTINUOUS
 10
359.2246602583
 20
30.5712868422
 11
359.6871602721
 21
30.6358139324
 12
360.3809101894
 22
30.6035511455
 13
360.3809101894
 23
30.6035511455
  0
SOLID
  8
0
 62
7
  6
CONTINUOUS
 10
359.2246602583
 20
30.5712868422
 11
360.3809101894
 21
30.6035511455
 12
359.3980977583
 22
30.5390224228
 13
359.3980977583
 23
30.5390224228
  0
SOLID
  8
0
 62
7
  6
CONTINUOUS
 10
360.3809101894
 20
30.6035511455
 11
360.1496602445
 21
30.5390224228
 12
359.3980977583
 22
30.5390224228
 13
359.3980977583
 23
30.5390224228
  0
SOLID
  8
0
 62
7
  6
CONTINUOUS
 10
359.744972717
 20
30.5067597521
 11
359.3980977583
 21
30.5390224228
 12
360.1496602445
 22
30.5390224228
 13
360.1496602445
 23
30.5390224228
  0
SOLID
  8
0
 62
7
  6
CONTINUOUS
 10
363.2137226343
 20
30.6680782357
 11
363.4449727445
 21
30.7648681127
 12
363.5027853548
 22
30.7003410226
 13
363.5027853548
 23
30.7003410226
  0
SOLID
  8
0
 62
7
  6
CONTINUOUS
 10
363.5027853548
 20
30.7003410226
 11
363.7340351343
 21
30.6358139324
 12
363.2137226343
 22
30.6680782357
 13
363.2137226343
 23
30.6680782357
  0
SOLID
  8
0
 62
7
  6
CONTINUOUS
 10
363.3871601343
 20
30.5712868422
 11
363.2137226343
 21
30.6680782357
 12
363.7340351343
 22
30.6358139324
 13
363.7340351343
 23
30.6358139324
  0
SOLID
  8
0
 62
7
  6
CONTINUOUS
 10
364.0809101343
 20
30.6358139363
 11
364.369972524
 21
30.7003410226
 12
364.6012229651
 22
30.6680782357
 13
364.6012229651
 23
30.6680782357
  0
SOLID
  8
0
 62
7
  6
CONTINUOUS
 10
364.6012229651
 20
30.6680782357
 11
364.543410024
 21
30.6035511455
 12
364.0809101343
 22
30.6358139363
 13
364.0809101343
 23
30.6358139363
  0
SOLID
  8
0
 62
7
  6
CONTINUOUS
 10
364.543410024
 20
30.6035511455
 11
363.3871601343
 21
30.5712868422
 12
364.0809101343
 22
30.6358139363
 13
364.0809101343
 23
30.6358139363
  0
SOLID
  8
0
 62
7
  6
CONTINUOUS
 10
363.3871601343
 20
30.5712868422
 11
363.7340351343
 21
30.6358139363
 12
364.0809101343
 22
30.6358139363
 13
364.0809101343
 23
30.6358139363
  0
SOLID
  8
0
 62
7
  6
CONTINUOUS
 10
363.3871601343
 20
30.5712868422
 11
364.543410024
 21
30.6035511455
 12
363.5027853548
 22
30.5390225267
 13
363.5027853548
 23
30.5390225267
  0
SOLID
  8
0
 62
7
  6
CONTINUOUS
 10
364.543410024
 20
30.6035511455
 11
364.369972524
 21
30.5390225267
 12
363.5027853548
 22
30.5390225267
 13
363.5027853548
 23
30.5390225267
  0
SOLID
  8
0
 62
7
  6
CONTINUOUS
 10
363.7340351343
 20
30.5067596914
 11
363.5027853548
 21
30.5390225267
 12
364.369972524
 22
30.5390225267
 13
364.369972524
 23
30.5390225267
  0
SOLID
  8
0
 62
7
  6
CONTINUOUS
 10
364.369972524
 20
30.5390225267
 11
364.0809101343
 21
30.5067596914
 12
363.7340351343
 22
30.5067596914
 13
363.7340351343
 23
30.5067596914
  0
SOLID
  8
0
 62
7
  6
CONTINUOUS
 10
368.7637229651
 20
30.6680782357
 11
368.4168479651
 21
30.6358138717
 12
368.6480977445
 22
30.7003410226
 13
368.6480977445
 23
30.7003410226
  0
SOLID
  8
0
 62
7
  6
CONTINUOUS
 10
368.6480977445
 20
30.7003410226
 11
368.4168479651
 21
30.6358138717
 12
368.5902854651
 22
30.7648680521
 13
368.5902854651
 23
30.7648680521
  0
SOLID
  8
0
 62
7
  6
CONTINUOUS
 10
368.4168479651
 20
30.6358138717
 11
368.3012227445
 21
30.7648680521
 12
368.5902854651
 22
30.7648680521
 13
368.5902854651
 23
30.7648680521
  0
SOLID
  8
0
 62
7
  6
CONTINUOUS
 10
368.7637229651
 20
30.6680782357
 11
369.1105979651
 21
30.6358138717
 12
368.4168479651
 22
30.6358138717
 13
368.4168479651
 23
30.6358138717
  0
SOLID
  8
0
 62
7
  6
CONTINUOUS
 10
365.4684104651
 20
30.5067597521
 11
365.4684104651
 21
31.5391977439
 12
365.757472524
 22
30.5067597521
 13
365.757472524
 23
31.5391977439
  0
ENDBLK
  8
0
  6
BYBLOCK
 62
0
  0
BLOCK
  8
0
 62
2
  6
CONTINUOUS
  2
AMMEAAL_LOGO_BL0
 70
64
 10
240.8592468615
 20
19.762288695
  0
TEXT
  8
0
 62
7
  6
CONTINUOUS
 10
227.1239507038
 20
19.1357028027
  7
TEXTSTYLE_3
 40
2.7338706658
  1
Ammeraal Beltech
 41
1.0
 51
15.0
 72
0
  0
TEXT
  8
0
 62
7
  6
CONTINUOUS
 10
237.9247515296
 20
16.8621661299
  7
TEXTSTYLE_4
 40
1.0935482663
  1
Innovation & Service in Belting
 41
1.0
 72
0
  0
LINE
  8
0
 62
7
  6
CONTINUOUS
 10
221.0994100525
 20
19.9022961113
 11
221.8775620458
 21
23.5632134089
  0
LINE
  8
0
 62
7
  6
CONTINUOUS
 10
231.9727303357
 20
27.2266073205
 11
222.3653797889
 21
24.1049898993
  0
LINE
  8
0
 62
7
  6
CONTINUOUS
 10
221.3246933848
 20
19.2089453082
 11
228.8317686459
 21
12.4495443822
  0
LINE
  8
0
 62
7
  6
CONTINUOUS
 10
221.5872277955
 20
20.4440726016
 11
232.3954971607
 21
23.9558922005
  0
LINE
  8
0
 62
7
  6
CONTINUOUS
 10
232.3912920235
 20
13.6061036368
 11
223.9458323548
 21
21.2104296785
  0
LINE
  8
0
 62
7
  6
CONTINUOUS
 10
232.9111147433
 20
26.3816822048
 11
231.9345552061
 21
21.7873308023
  0
LINE
  8
0
 62
7
  6
CONTINUOUS
 10
231.2347532584
 20
18.4950214885
 11
230.5483050469
 21
15.2655365641
  0
LINE
  8
0
 62
7
  6
CONTINUOUS
 10
233.5922108419
 20
13.9963058145
 11
234.5484423775
 21
18.4950214885
  0
LINE
  8
0
 62
7
  6
CONTINUOUS
 10
235.2482443252
 20
21.7873308023
 11
235.6924861276
 21
23.8773241617
  0
LINE
  8
0
 62
7
  6
CONTINUOUS
 10
229.5448697213
 20
12.2979700695
 11
233.1043930989
 21
13.4545293241
  0
LINE
  8
0
 62
7
  6
CONTINUOUS
 10
232.685831411
 20
27.0750330078
 11
235.4672027953
 21
24.5706749648
  0
ARC
  8
0
 62
7
  6
CONTINUOUS
 10
222.5906631212
 20
23.4116390962
 40
0.7290321776
 50
108.0
 51
168.0
  0
ARC
  8
0
 62
7
  6
CONTINUOUS
 10
232.198013668
 20
26.5332565175
 40
0.7290321776
 50
348.0
 51
108.0
  0
ARC
  8
0
 62
7
  6
CONTINUOUS
 10
234.9793850522
 20
24.0288984744
 40
0.7290321776
 50
348.0
 51
48.0
  0
ARC
  8
0
 62
7
  6
CONTINUOUS
 10
229.319586389
 20
12.9913208726
 40
0.7290321776
 50
228.0
 51
288.0
  0
ARC
  8
0
 62
7
  6
CONTINUOUS
 10
221.8125111278
 20
19.7507217986
 40
0.7290321776
 50
108.0
 51
228.0
  0
ARC
  8
0
 62
7
  6
CONTINUOUS
 10
232.8791097665
 20
14.1478801272
 40
0.7290321776
 50
228.0
 51
348.0
  0
ENDBLK
  8
0
  6
BYBLOCK
 62
0
  0
ENDSEC
  0
SECTION
  2
ENTITIES
  0
TEXT
 67
1
  8
0
 62
5
  6
CONTINUOUS
 10
304.937007874
 20
25.636
  7
TEXTSTYLE_2
 40
2.8
  1
Scale :
 41
0.6
 51
0.000019
 72
0
  0
TEXT
 67
1
  8
0
 62
5
  6
CONTINUOUS
 10
324.937007874
 20
25.636
  7
TEXTSTYLE_2
 40
2.8
  1
Belt type:
 41
0.6
 51
0.000019
 72
0
  0
INSERT
 67
1
  8
0
 62
2
  6
CONTINUOUS
  2
AMMEAAL_LOGO_BL0
 10
240.8592468615
 20
19.762288695
  0
INSERT
 67
1
  8
0
 62
2
  6
CONTINUOUS
  2
UNI_LOGO2_BL1
 10
382.7840918555
 20
35.5067593403
  0
VIEWPORT
 67
1
  8
0
 10
210.0
 20
148.5
 30
0.0
 40
420.0
 41
297.0
 69
1
1001
ACAD
1000
MVIEW
1002
{
1070
16
1010
0.0
1020
0.0
1030
0.0
1010
0.0
1020
0.0
1030
1.0
1040
0.0
1040
297.0
1040
210.0
1040
148.5
1040
50.0
1040
0.0
1040
0.0
1070
0
1070
100
1070
1
1070
1
1070
0
1070
0
1070
0
1070
0
1040
0.0
1040
0.0
1040
0.0
1040
1.0
1040
1.0
1040
0.0
1040
0.0
1070
0
1002
{
1002
}
1002
}
  0
LINE
 67
1
  8
0
 62
2
  6
CONTINUOUS
 10
218.937007874
 20
30.0
 11
408.937007874
 21
30.0
  0
LINE
 67
1
  8
0
 62
2
  6
CONTINUOUS
 10
218.937007874
 20
30.0
 11
218.937007874
 21
10.0
  0
LINE
 67
1
  8
0
 62
2
  6
CONTINUOUS
 10
218.937007874
 20
10.0
 11
408.937007874
 21
10.0
  0
LINE
 67
1
  8
0
 62
2
  6
CONTINUOUS
 10
303.937007874
 20
30.0
 11
303.937007874
 21
10.0
  0
LINE
 67
1
  8
0
 62
2
  6
CONTINUOUS
 10
323.937007874
 20
30.0
 11
323.937007874
 21
10.0
  0
LINE
 67
1
  8
0
 62
2
  6
CONTINUOUS
 10
408.937007874
 20
30.0
 11
408.937007874
 21
10.0
  0
TEXT
 67
1
  8
0
 62
5
  6
CONTINUOUS
 10
221.937007874
 20
23.303
  7
TEXTSTYLE_5
 40
1.52
  1
                                                                     Ammeraal Beltech Modular A/S
 41
1.0
 72
0
  0
TEXT
 67
1
  8
0
 62
5
  6
CONTINUOUS
 10
221.937007874
 20
20.595
  7
TEXTSTYLE_5
 40
1.5
  1
                                                                      Hjulmagervej 21, 7100 Vejle,  DK
 41
1.0
 72
0
  0
TEXT
 67
1
  8
0
 62
5
  6
CONTINUOUS
 10
221.937007874
 20
17.881
  7
TEXTSTYLE_5
 40
1.495
  1
                                                                      tel: 
 41
1.0
 72
0
  0
TEXT
 67
1
  8
0
 62
5
  6
CONTINUOUS
 10
266.9239544389
 20
17.881
  7
TEXTSTYLE_5
 40
1.51
  1
+45 75723100     fax: +45 75723348
 41
1.0
 72
0
  0
TEXT
 67
1
  8
0
 62
5
  6
CONTINUOUS
 10
221.937007874
 20
15.177
  7
TEXTSTYLE_5
 40
1.5
  1
                                                                      admin@unichains.dk  www.unichains.com
 41
1.0
 72
0
  0
TEXT
 67
1
  8
0
 62
5
  6
CONTINUOUS
 10
308.687007874
 20
13.75
  7
TEXTSTYLE_6
 40
5.0
  1
1:1
 41
0.7
 72
1
 11
313.937007874
 21
13.75
  0
TEXT
 67
1
  8
0
 62
5
  6
CONTINUOUS
 10
326.937007874
 20
13.75
  7
TEXTSTYLE_7
 40
7.5
  1
uni CSB Flat/Rib RubberTop K600
 41
0.327688172
 72
0
  0
LINE
 67
1
  8
0
 62
7
  6
CONTINUOUS
 10
0.0
 20
0.0
 11
0.0
 21
297.0
  0
LINE
 67
1
  8
0
 62
7
  6
CONTINUOUS
 10
8.937007874
 20
10.0
 11
8.937007874
 21
287.0
  0
LINE
 67
1
  8
0
 62
7
  6
CONTINUOUS
 10
0.0
 20
0.0
 11
420.0
 21
0.0
  0
LINE
 67
1
  8
0
 62
7
  6
CONTINUOUS
 10
408.937007874
 20
10.0
 11
8.937007874
 21
10.0
  0
LINE
 67
1
  8
0
 62
7
  6
CONTINUOUS
 10
218.937007874
 20
30.0
 11
408.937007874
 21
30.0
  0
LINE
 67
1
  8
0
 62
7
  6
CONTINUOUS
 10
210.0
 20
297.0
 11
210.0
 21
292.0
  0
LINE
 67
1
  8
0
 62
7
  6
CONTINUOUS
 10
210.0
 20
0.0
 11
210.0
 21
5.0
  0
LINE
 67
1
  8
0
 62
7
  6
CONTINUOUS
 10
8.937007874
 20
287.0
 11
408.937007874
 21
287.0
  0
LINE
 67
1
  8
0
 62
7
  6
CONTINUOUS
 10
0.0
 20
297.0
 11
420.0
 21
297.0
  0
LINE
 67
1
  8
0
 62
7
  6
CONTINUOUS
 10
408.937007874
 20
287.0
 11
408.937007874
 21
10.0
  0
LINE
 67
1
  8
0
 62
7
  6
CONTINUOUS
 10
420.0
 20
0.0
 11
420.0
 21
297.0
  0
LINE
 67
1
  8
13_KOMPONENTER
 62
7
  6
CONTINUOUS
 10
39.3658959538
 20
91.645743117
 11
39.3658959538
 21
144.9164383882
  0
LINE
 67
1
  8
13_KOMPONENTER
 62
7
  6
CONTINUOUS
 10
41.5858959538
 20
143.3207369942
 11
41.5859034154
 21
104.2180054035
  0
LINE
 67
1
  8
13_KOMPONENTER
 62
7
  6
CONTINUOUS
 10
41.5859034154
 20
143.3234685849
 11
41.5858959538
 21
143.3207369942
  0
LINE
 67
1
  8
13_KOMPONENTER
 62
7
  6
CONTINUOUS
 10
51.7029382347
 20
109.5212587912
 11
51.7029382347
 21
102.6457369942
  0
LINE
 67
1
  8
13_KOMPONENTER
 62
7
  6
CONTINUOUS
 10
52.0288536728
 20
146.9202150678
 11
52.0288536728
 21
153.7957369942
  0
LINE
 67
1
  8
13_KOMPONENTER
 62
7
  6
CONTINUOUS
 10
49.4658959538
 20
104.2207369942
 11
49.4659258003
 21
110.6316633569
  0
LINE
 67
1
  8
13_KOMPONENTER
 62
7
  6
CONTINUOUS
 10
49.4658884921
 20
104.2180054035
 11
49.4658959538
 21
104.2207369942
  0
POLYLINE
 67
1
  8
13_KOMPONENTER
 62
7
  6
CONTINUOUS
 66
1
 70
0
  0
VERTEX
 67
1
  8
13_KOMPONENTER
 62
7
  6
CONTINUOUS
 10
52.0288521649
 20
146.9202150678
  0
VERTEX
 67
1
  8
13_KOMPONENTER
 62
7
  6
CONTINUOUS
 10
52.0042063373
 20
146.6995037114
  0
VERTEX
 67
1
  8
13_KOMPONENTER
 62
7
  6
CONTINUOUS
 10
51.9190319629
 20
146.4644600432
  0
VERTEX
 67
1
  8
13_KOMPONENTER
 62
7
  6
CONTINUOUS
 10
51.7777808941
 20
146.2573264934
  0
VERTEX
 67
1
  8
13_KOMPONENTER
 62
7
  6
CONTINUOUS
 10
51.5914693961
 20
146.0931384502
  0
VERTEX
 67
1
  8
13_KOMPONENTER
 62
7
  6
CONTINUOUS
 10
51.3456205437
 20
145.9711075716
  0
VERTEX
 67
1
  8
13_KOMPONENTER
 62
7
  6
CONTINUOUS
 10
51.0848322016
 20
145.9178326091
  0
SEQEND
  0
LINE
 67
1
  8
13_KOMPONENTER
 62
7
  6
CONTINUOUS
 10
54.2659034154
 20
152.2234685849
 11
54.2658959538
 21
145.8207369942
  0
LINE
 67
1
  8
13_KOMPONENTER
 62
7
  6
CONTINUOUS
 10
54.2658959538
 20
145.8207369942
 11
54.2658661072
 21
145.8098106315
  0
POLYLINE
 67
1
  8
13_KOMPONENTER
 62
7
  6
CONTINUOUS
 66
1
 70
0
  0
VERTEX
 67
1
  8
13_KOMPONENTER
 62
7
  6
CONTINUOUS
 10
51.70293963
 20
109.5212587912
  0
VERTEX
 67
1
  8
13_KOMPONENTER
 62
7
  6
CONTINUOUS
 10
51.7275710616
 20
109.7419068864
  0
VERTEX
 67
1
  8
13_KOMPONENTER
 62
7
  6
CONTINUOUS
 10
51.8127000671
 20
109.9768971058
  0
VERTEX
 67
1
  8
13_KOMPONENTER
 62
7
  6
CONTINUOUS
 10
51.9539152851
 20
110.1840390128
  0
VERTEX
 67
1
  8
13_KOMPONENTER
 62
7
  6
CONTINUOUS
 10
52.1402109555
 20
110.3482595304
  0
VERTEX
 67
1
  8
13_KOMPONENTER
 62
7
  6
CONTINUOUS
 10
52.3854920037
 20
110.4701383615
  0
VERTEX
 67
1
  8
13_KOMPONENTER
 62
7
  6
CONTINUOUS
 10
52.6469438882
 20
110.5236388521
  0
SEQEND
  0
LINE
 67
1
  8
13_KOMPONENTER
 62
7
  6
CONTINUOUS
 10
62.1658959538
 20
152.2207369942
 11
62.1658884921
 21
152.2234685849
  0
POLYLINE
 67
1
  8
13_KOMPONENTER
 62
7
  6
CONTINUOUS
 66
1
 70
0
  0
VERTEX
 67
1
  8
13_KOMPONENTER
 62
7
  6
CONTINUOUS
 10
64.4029382321
 20
153.7957369942
  0
VERTEX
 67
1
  8
13_KOMPONENTER
 62
7
  6
CONTINUOUS
 10
64.4018948579
 20
154.8213021288
  0
VERTEX
 67
1
  8
13_KOMPONENTER
 62
7
  6
CONTINUOUS
 10
64.398909709
 20
155.8046599698
  0
VERTEX
 67
1
  8
13_KOMPONENTER
 62
7
  6
CONTINUOUS
 10
64.3943334172
 20
156.7176857845
  0
VERTEX
 67
1
  8
13_KOMPONENTER
 62
7
  6
CONTINUOUS
 10
64.3884620716
 20
157.5620696238
  0
VERTEX
 67
1
  8
13_KOMPONENTER
 62
7
  6
CONTINUOUS
 10
64.3815380018
 20
158.3410297526
  0
VERTEX
 67
1
  8
13_KOMPONENTER
 62
7
  6
CONTINUOUS
 10
64.3737584675
 20
159.0582844915
  0
VERTEX
 67
1
  8
13_KOMPONENTER
 62
7
  6
CONTINUOUS
 10
64.3652955032
 20
159.7168231051
  0
VERTEX
 67
1
  8
13_KOMPONENTER
 62
7
  6
CONTINUOUS
 10
64.3562929608
 20
160.3198868036
  0
VERTEX
 67
1
  8
13_KOMPONENTER
 62
7
  6
CONTINUOUS
 10
64.3468695594
 20
160.8708592593
  0
VERTEX
 67
1
  8
13_KOMPONENTER
 62
7
  6
CONTINUOUS
 10
64.3371287889
 20
161.372819234
  0
VERTEX
 67
1
  8
13_KOMPONENTER
 62
7
  6
CONTINUOUS
 10
64.3271558848
 20
161.828885013
  0
VERTEX
 67
1
  8
13_KOMPONENTER
 62
7
  6
CONTINUOUS
 10
64.3170181087
 20
162.2422077103
  0
VERTEX
 67
1
  8
13_KOMPONENTER
 62
7
  6
CONTINUOUS
 10
64.3067676659
 20
162.6158433975
  0
VERTEX
 67
1
  8
13_KOMPONENTER
 62
7
  6
CONTINUOUS
 10
64.2964428746
 20
162.9527211274
  0
VERTEX
 67
1
  8
13_KOMPONENTER
 62
7
  6
CONTINUOUS
 10
64.2860680683
 20
163.2556433628
  0
VERTEX
 67
1
  8
13_KOMPONENTER
 62
7
  6
CONTINUOUS
 10
64.2756560389
 20
163.5272036105
  0
VERTEX
 67
1
  8
13_KOMPONENTER
 62
7
  6
CONTINUOUS
 10
64.265239674
 20
163.7690995014
  0
VERTEX
 67
1
  8
13_KOMPONENTER
 62
7
  6
CONTINUOUS
 10
64.2548670871
 20
163.9826200623
  0
VERTEX
 67
1
  8
13_KOMPONENTER
 62
7
  6
CONTINUOUS
 10
64.2445732718
 20
164.1693755511
  0
VERTEX
 67
1
  8
13_KOMPONENTER
 62
7
  6
CONTINUOUS
 10
64.2343716432
 20
164.3313224953
  0
VERTEX
 67
1
  8
13_KOMPONENTER
 62
7
  6
CONTINUOUS
 10
64.2242552464
 20
164.4705936084
  0
VERTEX
 67
1
  8
13_KOMPONENTER
 62
7
  6
CONTINUOUS
 10
64.2142105922
 20
164.589256131
  0
VERTEX
 67
1
  8
13_KOMPONENTER
 62
7
  6
CONTINUOUS
 10
64.2041212194
 20
164.6902995185
  0
VERTEX
 67
1
  8
13_KOMPONENTER
 62
7
  6
CONTINUOUS
 10
64.1936110168
 20
164.7781985244
  0
VERTEX
 67
1
  8
13_KOMPONENTER
 62
7
  6
CONTINUOUS
 10
64.181914168
 20
164.8582785383
  0
VERTEX
 67
1
  8
13_KOMPONENTER
 62
7
  6
CONTINUOUS
 10
64.1676161017
 20
164.9363926704
  0
VERTEX
 67
1
  8
13_KOMPONENTER
 62
7
  6
CONTINUOUS
 10
64.1475306302
 20
165.0212121675
  0
VERTEX
 67
1
  8
13_KOMPONENTER
 62
7
  6
CONTINUOUS
 10
64.1138711067
 20
165.1264623304
  0
VERTEX
 67
1
  8
13_KOMPONENTER
 62
7
  6
CONTINUOUS
 10
64.0539966016
 20
165.2591597729
  0
VERTEX
 67
1
  8
13_KOMPONENTER
 62
7
  6
CONTINUOUS
 10
63.9591356742
 20
165.4051770595
  0
VERTEX
 67
1
  8
13_KOMPONENTER
 62
7
  6
CONTINUOUS
 10
63.8164831953
 20
165.5545355172
  0
VERTEX
 67
1
  8
13_KOMPONENTER
 62
7
  6
CONTINUOUS
 10
63.6131602367
 20
165.6893038978
  0
VERTEX
 67
1
  8
13_KOMPONENTER
 62
7
  6
CONTINUOUS
 10
63.3666665077
 20
165.7748728814
  0
VERTEX
 67
1
  8
13_KOMPONENTER
 62
7
  6
CONTINUOUS
 10
63.1629160119
 20
165.7957369933
  0
SEQEND
  0
LINE
 67
1
  8
13_KOMPONENTER
 62
7
  6
CONTINUOUS
 10
62.1659258003
 20
145.8098106315
 11
62.1658959538
 21
152.2207369942
  0
LINE
 67
1
  8
13_KOMPONENTER
 62
7
  6
CONTINUOUS
 10
64.4029382347
 20
153.7957369942
 11
64.4029382347
 21
146.9202150723
  0
POLYLINE
 67
1
  8
13_KOMPONENTER
 62
7
  6
CONTINUOUS
 66
1
 70
0
  0
VERTEX
 67
1
  8
13_KOMPONENTER
 62
7
  6
CONTINUOUS
 10
64.7288536754
 20
102.6457369942
  0
VERTEX
 67
1
  8
13_KOMPONENTER
 62
7
  6
CONTINUOUS
 10
64.7298970497
 20
101.6201718597
  0
VERTEX
 67
1
  8
13_KOMPONENTER
 62
7
  6
CONTINUOUS
 10
64.7328821985
 20
100.6368140187
  0
VERTEX
 67
1
  8
13_KOMPONENTER
 62
7
  6
CONTINUOUS
 10
64.7374584903
 20
99.7237882039
  0
VERTEX
 67
1
  8
13_KOMPONENTER
 62
7
  6
CONTINUOUS
 10
64.743329836
 20
98.8794043646
  0
VERTEX
 67
1
  8
13_KOMPONENTER
 62
7
  6
CONTINUOUS
 10
64.7502539057
 20
98.1004442358
  0
VERTEX
 67
1
  8
13_KOMPONENTER
 62
7
  6
CONTINUOUS
 10
64.75803344
 20
97.3831894969
  0
VERTEX
 67
1
  8
13_KOMPONENTER
 62
7
  6
CONTINUOUS
 10
64.7664964044
 20
96.7246508833
  0
VERTEX
 67
1
  8
13_KOMPONENTER
 62
7
  6
CONTINUOUS
 10
64.7754989468
 20
96.1215871849
  0
VERTEX
 67
1
  8
13_KOMPONENTER
 62
7
  6
CONTINUOUS
 10
64.7849223481
 20
95.5706147292
  0
VERTEX
 67
1
  8
13_KOMPONENTER
 62
7
  6
CONTINUOUS
 10
64.7946631186
 20
95.0686547544
  0
VERTEX
 67
1
  8
13_KOMPONENTER
 62
7
  6
CONTINUOUS
 10
64.8046360227
 20
94.6125889754
  0
VERTEX
 67
1
  8
13_KOMPONENTER
 62
7
  6
CONTINUOUS
 10
64.8147737988
 20
94.1992662782
  0
VERTEX
 67
1
  8
13_KOMPONENTER
 62
7
  6
CONTINUOUS
 10
64.8250242416
 20
93.825630591
  0
VERTEX
 67
1
  8
13_KOMPONENTER
 62
7
  6
CONTINUOUS
 10
64.8353490329
 20
93.4887528611
  0
VERTEX
 67
1
  8
13_KOMPONENTER
 62
7
  6
CONTINUOUS
 10
64.8457238392
 20
93.1858306256
  0
VERTEX
 67
1
  8
13_KOMPONENTER
 62
7
  6
CONTINUOUS
 10
64.8561358687
 20
92.914270378
  0
VERTEX
 67
1
  8
13_KOMPONENTER
 62
7
  6
CONTINUOUS
 10
64.8665522336
 20
92.672374487
  0
VERTEX
 67
1
  8
13_KOMPONENTER
 62
7
  6
CONTINUOUS
 10
64.8769248204
 20
92.4588539261
  0
VERTEX
 67
1
  8
13_KOMPONENTER
 62
7
  6
CONTINUOUS
 10
64.8872186357
 20
92.2720984373
  0
VERTEX
 67
1
  8
13_KOMPONENTER
 62
7
  6
CONTINUOUS
 10
64.8974202643
 20
92.1101514931
  0
VERTEX
 67
1
  8
13_KOMPONENTER
 62
7
  6
CONTINUOUS
 10
64.9075366611
 20
91.9708803801
  0
VERTEX
 67
1
  8
13_KOMPONENTER
 62
7
  6
CONTINUOUS
 10
64.9175813153
 20
91.8522178574
  0
VERTEX
 67
1
  8
13_KOMPONENTER
 62
7
  6
CONTINUOUS
 10
64.9276706881
 20
91.7511744699
  0
VERTEX
 67
1
  8
13_KOMPONENTER
 62
7
  6
CONTINUOUS
 10
64.9381808907
 20
91.6632754641
  0
VERTEX
 67
1
  8
13_KOMPONENTER
 62
7
  6
CONTINUOUS
 10
64.9498777395
 20
91.5831954501
  0
VERTEX
 67
1
  8
13_KOMPONENTER
 62
7
  6
CONTINUOUS
 10
64.9641758059
 20
91.505081318
  0
VERTEX
 67
1
  8
13_KOMPONENTER
 62
7
  6
CONTINUOUS
 10
64.9842612773
 20
91.420261821
  0
VERTEX
 67
1
  8
13_KOMPONENTER
 62
7
  6
CONTINUOUS
 10
65.0179208008
 20
91.315011658
  0
VERTEX
 67
1
  8
13_KOMPONENTER
 62
7
  6
CONTINUOUS
 10
65.0777953059
 20
91.1823142155
  0
VERTEX
 67
1
  8
13_KOMPONENTER
 62
7
  6
CONTINUOUS
 10
65.1726562333
 20
91.0362969289
  0
VERTEX
 67
1
  8
13_KOMPONENTER
 62
7
  6
CONTINUOUS
 10
65.3153087122
 20
90.8869384713
  0
VERTEX
 67
1
  8
13_KOMPONENTER
 62
7
  6
CONTINUOUS
 10
65.5186316708
 20
90.7521700906
  0
VERTEX
 67
1
  8
13_KOMPONENTER
 62
7
  6
CONTINUOUS
 10
65.7651253999
 20
90.666601107
  0
VERTEX
 67
1
  8
13_KOMPONENTER
 62
7
  6
CONTINUOUS
 10
65.9688758956
 20
90.6457369951
  0
SEQEND
  0
LINE
 67
1
  8
13_KOMPONENTER
 62
7
  6
CONTINUOUS
 10
64.7288536728
 20
102.6457369942
 11
64.7288536728
 21
109.5212587633
  0
LINE
 67
1
  8
13_KOMPONENTER
 62
7
  6
CONTINUOUS
 10
66.9658661072
 20
110.6316633569
 11
66.9659034154
 21
104.2180054035
  0
LINE
 67
1
  8
13_KOMPONENTER
 62
7
  6
CONTINUOUS
 10
74.8658959538
 20
104.2207369942
 11
74.8659258003
 21
110.6316633569
  0
LINE
 67
1
  8
13_KOMPONENTER
 62
7
  6
CONTINUOUS
 10
74.8658884921
 20
104.2180054035
 11
74.8658959538
 21
104.2207369942
  0
POLYLINE
 67
1
  8
13_KOMPONENTER
 62
7
  6
CONTINUOUS
 66
1
 70
0
  0
VERTEX
 67
1
  8
13_KOMPONENTER
 62
7
  6
CONTINUOUS
 10
77.4288521648
 20
146.9202150678
  0
VERTEX
 67
1
  8
13_KOMPONENTER
 62
7
  6
CONTINUOUS
 10
77.4042063372
 20
146.6995037112
  0
VERTEX
 67
1
  8
13_KOMPONENTER
 62
7
  6
CONTINUOUS
 10
77.3190319627
 20
146.4644600428
  0
VERTEX
 67
1
  8
13_KOMPONENTER
 62
7
  6
CONTINUOUS
 10
77.1777808936
 20
146.2573264929
  0
VERTEX
 67
1
  8
13_KOMPONENTER
 62
7
  6
CONTINUOUS
 10
76.9914693954
 20
146.0931384497
  0
VERTEX
 67
1
  8
13_KOMPONENTER
 62
7
  6
CONTINUOUS
 10
76.7456205372
 20
145.9711075694
  0
VERTEX
 67
1
  8
13_KOMPONENTER
 62
7
  6
CONTINUOUS
 10
76.4848322012
 20
145.9178326091
  0
SEQEND
  0
POLYLINE
 67
1
  8
13_KOMPONENTER
 62
7
  6
CONTINUOUS
 66
1
 70
0
  0
VERTEX
 67
1
  8
13_KOMPONENTER
 62
7
  6
CONTINUOUS
 10
177.4629159633
 20
90.6457369951
  0
VERTEX
 67
1
  8
13_KOMPONENTER
 62
7
  6
CONTINUOUS
 10
177.6698831287
 20
90.6672723026
  0
VERTEX
 67
1
  8
13_KOMPONENTER
 62
7
  6
CONTINUOUS
 10
177.9176468643
 20
90.7544299743
  0
VERTEX
 67
1
  8
13_KOMPONENTER
 62
7
  6
CONTINUOUS
 10
178.1227653435
 20
90.892343547
  0
VERTEX
 67
1
  8
13_KOMPONENTER
 62
7
  6
CONTINUOUS
 10
178.2676501169
 20
91.0474049238
  0
VERTEX
 67
1
  8
13_KOMPONENTER
 62
7
  6
CONTINUOUS
 10
178.3590836442
 20
91.1919212832
  0
VERTEX
 67
1
  8
13_KOMPONENTER
 62
7
  6
CONTINUOUS
 10
178.4142052065
 20
91.315908482
  0
VERTEX
 67
1
  8
13_KOMPONENTER
 62
7
  6
CONTINUOUS
 10
178.4469318112
 20
91.4180556361
  0
VERTEX
 67
1
  8
13_KOMPONENTER
 62
7
  6
CONTINUOUS
 10
178.4671094665
 20
91.5026321558
  0
VERTEX
 67
1
  8
13_KOMPONENTER
 62
7
  6
CONTINUOUS
 10
178.4811872715
 20
91.5787506372
  0
VERTEX
 67
1
  8
13_KOMPONENTER
 62
7
  6
CONTINUOUS
 10
178.4923667864
 20
91.6539299558
  0
VERTEX
 67
1
  8
13_KOMPONENTER
 62
7
  6
CONTINUOUS
 10
178.5022123001
 20
91.7339593119
  0
VERTEX
 67
1
  8
13_KOMPONENTER
 62
7
  6
CONTINUOUS
 10
178.5114559032
 20
91.8228953462
  0
VERTEX
 67
1
  8
13_KOMPONENTER
 62
7
  6
CONTINUOUS
 10
178.5204553609
 20
91.9237691891
  0
VERTEX
 67
1
  8
13_KOMPONENTER
 62
7
  6
CONTINUOUS
 10
178.5294229886
 20
92.0394569833
  0
VERTEX
 67
1
  8
13_KOMPONENTER
 62
7
  6
CONTINUOUS
 10
178.5384865277
 20
92.1727960414
  0
VERTEX
 67
1
  8
13_KOMPONENTER
 62
7
  6
CONTINUOUS
 10
178.5477007755
 20
92.3262899489
  0
VERTEX
 67
1
  8
13_KOMPONENTER
 62
7
  6
CONTINUOUS
 10
178.557063124
 20
92.5018786049
  0
VERTEX
 67
1
  8
13_KOMPONENTER
 62
7
  6
CONTINUOUS
 10
178.5665511177
 20
92.7012723332
  0
VERTEX
 67
1
  8
13_KOMPONENTER
 62
7
  6
CONTINUOUS
 10
178.5761311287
 20
92.9259947285
  0
VERTEX
 67
1
  8
13_KOMPONENTER
 62
7
  6
CONTINUOUS
 10
178.5857913645
 20
93.1782068143
  0
VERTEX
 67
1
  8
13_KOMPONENTER
 62
7
  6
CONTINUOUS
 10
178.5955378633
 20
93.4609628389
  0
VERTEX
 67
1
  8
13_KOMPONENTER
 62
7
  6
CONTINUOUS
 10
178.6053638273
 20
93.777605454
  0
VERTEX
 67
1
  8
13_KOMPONENTER
 62
7
  6
CONTINUOUS
 10
178.6152507552
 20
94.1318397459
  0
VERTEX
 67
1
  8
13_KOMPONENTER
 62
7
  6
CONTINUOUS
 10
178.6251704806
 20
94.5279050069
  0
VERTEX
 67
1
  8
13_KOMPONENTER
 62
7
  6
CONTINUOUS
 10
178.6350759079
 20
94.9703474245
  0
VERTEX
 67
1
  8
13_KOMPONENTER
 62
7
  6
CONTINUOUS
 10
178.6448902762
 20
95.4635415439
  0
VERTEX
 67
1
  8
13_KOMPONENTER
 62
7
  6
CONTINUOUS
 10
178.6545009859
 20
96.0111317856
  0
VERTEX
 67
1
  8
13_KOMPONENTER
 62
7
  6
CONTINUOUS
 10
178.6637724074
 20
96.6164019412
  0
VERTEX
 67
1
  8
13_KOMPONENTER
 62
7
  6
CONTINUOUS
 10
178.6725447106
 20
97.2820541878
  0
VERTEX
 67
1
  8
13_KOMPONENTER
 62
7
  6
CONTINUOUS
 10
178.6806347327
 20
98.0100620715
  0
VERTEX
 67
1
  8
13_KOMPONENTER
 62
7
  6
CONTINUOUS
 10
178.687840342
 20
98.8019339637
  0
VERTEX
 67
1
  8
13_KOMPONENTER
 62
7
  6
CONTINUOUS
 10
178.6939541375
 20
99.6612827175
  0
VERTEX
 67
1
  8
13_KOMPONENTER
 62
7
  6
CONTINUOUS
 10
178.6987269317
 20
100.5921382193
  0
VERTEX
 67
1
  8
13_KOMPONENTER
 62
7
  6
CONTINUOUS
 10
178.7018469872
 20
101.5969613592
  0
VERTEX
 67
1
  8
13_KOMPONENTER
 62
7
  6
CONTINUOUS
 10
178.7029382321
 20
102.6457369942
  0
SEQEND
  0
LINE
 67
1
  8
13_KOMPONENTER
 62
7
  6
CONTINUOUS
 10
77.1029382347
 20
109.5212587913
 11
77.1029382347
 21
102.6457369942
  0
LINE
 67
1
  8
13_KOMPONENTER
 62
7
  6
CONTINUOUS
 10
77.4288536728
 20
146.9202150678
 11
77.4288536728
 21
153.7957369942
  0
LINE
 67
1
  8
13_KOMPONENTER
 62
7
  6
CONTINUOUS
 10
79.6659034154
 20
152.2234685849
 11
79.6658959538
 21
145.8207369942
  0
LINE
 67
1
  8
13_KOMPONENTER
 62
7
  6
CONTINUOUS
 10
79.6658959538
 20
145.8207369942
 11
79.6658661072
 21
145.8098106315
  0
POLYLINE
 67
1
  8
13_KOMPONENTER
 62
7
  6
CONTINUOUS
 66
1
 70
0
  0
VERTEX
 67
1
  8
13_KOMPONENTER
 62
7
  6
CONTINUOUS
 10
77.10293963
 20
109.5212587913
  0
VERTEX
 67
1
  8
13_KOMPONENTER
 62
7
  6
CONTINUOUS
 10
77.1275710617
 20
109.7419068866
  0
VERTEX
 67
1
  8
13_KOMPONENTER
 62
7
  6
CONTINUOUS
 10
77.2127000673
 20
109.9768971061
  0
VERTEX
 67
1
  8
13_KOMPONENTER
 62
7
  6
CONTINUOUS
 10
77.3539152854
 20
110.1840390131
  0
VERTEX
 67
1
  8
13_KOMPONENTER
 62
7
  6
CONTINUOUS
 10
77.540210956
 20
110.3482595307
  0
VERTEX
 67
1
  8
13_KOMPONENTER
 62
7
  6
CONTINUOUS
 10
77.7854920091
 20
110.4701383633
  0
VERTEX
 67
1
  8
13_KOMPONENTER
 62
7
  6
CONTINUOUS
 10
78.0469438883
 20
110.5236388521
  0
SEQEND
  0
POLYLINE
 67
1
  8
13_KOMPONENTER
 62
7
  6
CONTINUOUS
 66
1
 70
0
  0
VERTEX
 67
1
  8
13_KOMPONENTER
 62
7
  6
CONTINUOUS
 10
152.0629159633
 20
90.6457369951
  0
VERTEX
 67
1
  8
13_KOMPONENTER
 62
7
  6
CONTINUOUS
 10
152.2698831287
 20
90.6672723026
  0
VERTEX
 67
1
  8
13_KOMPONENTER
 62
7
  6
CONTINUOUS
 10
152.5176468643
 20
90.7544299743
  0
VERTEX
 67
1
  8
13_KOMPONENTER
 62
7
  6
CONTINUOUS
 10
152.7227653435
 20
90.892343547
  0
VERTEX
 67
1
  8
13_KOMPONENTER
 62
7
  6
CONTINUOUS
 10
152.8676501169
 20
91.0474049238
  0
VERTEX
 67
1
  8
13_KOMPONENTER
 62
7
  6
CONTINUOUS
 10
152.9590836442
 20
91.1919212832
  0
VERTEX
 67
1
  8
13_KOMPONENTER
 62
7
  6
CONTINUOUS
 10
153.0142052065
 20
91.315908482
  0
VERTEX
 67
1
  8
13_KOMPONENTER
 62
7
  6
CONTINUOUS
 10
153.0469318112
 20
91.4180556361
  0
VERTEX
 67
1
  8
13_KOMPONENTER
 62
7
  6
CONTINUOUS
 10
153.0671094665
 20
91.5026321558
  0
VERTEX
 67
1
  8
13_KOMPONENTER
 62
7
  6
CONTINUOUS
 10
153.0811872715
 20
91.5787506372
  0
VERTEX
 67
1
  8
13_KOMPONENTER
 62
7
  6
CONTINUOUS
 10
153.0923667864
 20
91.6539299558
  0
VERTEX
 67
1
  8
13_KOMPONENTER
 62
7
  6
CONTINUOUS
 10
153.1022123001
 20
91.7339593119
  0
VERTEX
 67
1
  8
13_KOMPONENTER
 62
7
  6
CONTINUOUS
 10
153.1114559032
 20
91.8228953462
  0
VERTEX
 67
1
  8
13_KOMPONENTER
 62
7
  6
CONTINUOUS
 10
153.1204553609
 20
91.9237691891
  0
VERTEX
 67
1
  8
13_KOMPONENTER
 62
7
  6
CONTINUOUS
 10
153.1294229886
 20
92.0394569833
  0
VERTEX
 67
1
  8
13_KOMPONENTER
 62
7
  6
CONTINUOUS
 10
153.1384865277
 20
92.1727960414
  0
VERTEX
 67
1
  8
13_KOMPONENTER
 62
7
  6
CONTINUOUS
 10
153.1477007755
 20
92.3262899489
  0
VERTEX
 67
1
  8
13_KOMPONENTER
 62
7
  6
CONTINUOUS
 10
153.157063124
 20
92.5018786049
  0
VERTEX
 67
1
  8
13_KOMPONENTER
 62
7
  6
CONTINUOUS
 10
153.1665511177
 20
92.7012723332
  0
VERTEX
 67
1
  8
13_KOMPONENTER
 62
7
  6
CONTINUOUS
 10
153.1761311287
 20
92.9259947285
  0
VERTEX
 67
1
  8
13_KOMPONENTER
 62
7
  6
CONTINUOUS
 10
153.1857913645
 20
93.1782068143
  0
VERTEX
 67
1
  8
13_KOMPONENTER
 62
7
  6
CONTINUOUS
 10
153.1955378633
 20
93.4609628389
  0
VERTEX
 67
1
  8
13_KOMPONENTER
 62
7
  6
CONTINUOUS
 10
153.2053638273
 20
93.777605454
  0
VERTEX
 67
1
  8
13_KOMPONENTER
 62
7
  6
CONTINUOUS
 10
153.2152507552
 20
94.1318397459
  0
VERTEX
 67
1
  8
13_KOMPONENTER
 62
7
  6
CONTINUOUS
 10
153.2251704806
 20
94.5279050069
  0
VERTEX
 67
1
  8
13_KOMPONENTER
 62
7
  6
CONTINUOUS
 10
153.2350759079
 20
94.9703474245
  0
VERTEX
 67
1
  8
13_KOMPONENTER
 62
7
  6
CONTINUOUS
 10
153.2448902762
 20
95.4635415439
  0
VERTEX
 67
1
  8
13_KOMPONENTER
 62
7
  6
CONTINUOUS
 10
153.2545009859
 20
96.0111317856
  0
VERTEX
 67
1
  8
13_KOMPONENTER
 62
7
  6
CONTINUOUS
 10
153.2637724074
 20
96.6164019412
  0
VERTEX
 67
1
  8
13_KOMPONENTER
 62
7
  6
CONTINUOUS
 10
153.2725447106
 20
97.2820541878
  0
VERTEX
 67
1
  8
13_KOMPONENTER
 62
7
  6
CONTINUOUS
 10
153.2806347327
 20
98.0100620715
  0
VERTEX
 67
1
  8
13_KOMPONENTER
 62
7
  6
CONTINUOUS
 10
153.287840342
 20
98.8019339637
  0
VERTEX
 67
1
  8
13_KOMPONENTER
 62
7
  6
CONTINUOUS
 10
153.2939541375
 20
99.6612827175
  0
VERTEX
 67
1
  8
13_KOMPONENTER
 62
7
  6
CONTINUOUS
 10
153.2987269317
 20
100.5921382193
  0
VERTEX
 67
1
  8
13_KOMPONENTER
 62
7
  6
CONTINUOUS
 10
153.3018469872
 20
101.5969613592
  0
VERTEX
 67
1
  8
13_KOMPONENTER
 62
7
  6
CONTINUOUS
 10
153.3029382321
 20
102.6457369942
  0
SEQEND
  0
POLYLINE
 67
1
  8
13_KOMPONENTER
 62
7
  6
CONTINUOUS
 66
1
 70
0
  0
VERTEX
 67
1
  8
13_KOMPONENTER
 62
7
  6
CONTINUOUS
 10
126.6629159633
 20
90.6457369951
  0
VERTEX
 67
1
  8
13_KOMPONENTER
 62
7
  6
CONTINUOUS
 10
126.8698831287
 20
90.6672723026
  0
VERTEX
 67
1
  8
13_KOMPONENTER
 62
7
  6
CONTINUOUS
 10
127.1176468643
 20
90.7544299743
  0
VERTEX
 67
1
  8
13_KOMPONENTER
 62
7
  6
CONTINUOUS
 10
127.3227653435
 20
90.892343547
  0
VERTEX
 67
1
  8
13_KOMPONENTER
 62
7
  6
CONTINUOUS
 10
127.4676501169
 20
91.0474049238
  0
VERTEX
 67
1
  8
13_KOMPONENTER
 62
7
  6
CONTINUOUS
 10
127.5590836442
 20
91.1919212832
  0
VERTEX
 67
1
  8
13_KOMPONENTER
 62
7
  6
CONTINUOUS
 10
127.6142052065
 20
91.315908482
  0
VERTEX
 67
1
  8
13_KOMPONENTER
 62
7
  6
CONTINUOUS
 10
127.6469318112
 20
91.4180556361
  0
VERTEX
 67
1
  8
13_KOMPONENTER
 62
7
  6
CONTINUOUS
 10
127.6671094665
 20
91.5026321558
  0
VERTEX
 67
1
  8
13_KOMPONENTER
 62
7
  6
CONTINUOUS
 10
127.6811872715
 20
91.5787506372
  0
VERTEX
 67
1
  8
13_KOMPONENTER
 62
7
  6
CONTINUOUS
 10
127.6923667864
 20
91.6539299558
  0
VERTEX
 67
1
  8
13_KOMPONENTER
 62
7
  6
CONTINUOUS
 10
127.7022123001
 20
91.7339593119
  0
VERTEX
 67
1
  8
13_KOMPONENTER
 62
7
  6
CONTINUOUS
 10
127.7114559032
 20
91.8228953462
  0
VERTEX
 67
1
  8
13_KOMPONENTER
 62
7
  6
CONTINUOUS
 10
127.7204553609
 20
91.9237691891
  0
VERTEX
 67
1
  8
13_KOMPONENTER
 62
7
  6
CONTINUOUS
 10
127.7294229886
 20
92.0394569833
  0
VERTEX
 67
1
  8
13_KOMPONENTER
 62
7
  6
CONTINUOUS
 10
127.7384865277
 20
92.1727960414
  0
VERTEX
 67
1
  8
13_KOMPONENTER
 62
7
  6
CONTINUOUS
 10
127.7477007755
 20
92.3262899489
  0
VERTEX
 67
1
  8
13_KOMPONENTER
 62
7
  6
CONTINUOUS
 10
127.757063124
 20
92.5018786049
  0
VERTEX
 67
1
  8
13_KOMPONENTER
 62
7
  6
CONTINUOUS
 10
127.7665511177
 20
92.7012723332
  0
VERTEX
 67
1
  8
13_KOMPONENTER
 62
7
  6
CONTINUOUS
 10
127.7761311287
 20
92.9259947285
  0
VERTEX
 67
1
  8
13_KOMPONENTER
 62
7
  6
CONTINUOUS
 10
127.7857913645
 20
93.1782068143
  0
VERTEX
 67
1
  8
13_KOMPONENTER
 62
7
  6
CONTINUOUS
 10
127.7955378633
 20
93.4609628389
  0
VERTEX
 67
1
  8
13_KOMPONENTER
 62
7
  6
CONTINUOUS
 10
127.8053638273
 20
93.777605454
  0
VERTEX
 67
1
  8
13_KOMPONENTER
 62
7
  6
CONTINUOUS
 10
127.8152507552
 20
94.1318397459
  0
VERTEX
 67
1
  8
13_KOMPONENTER
 62
7
  6
CONTINUOUS
 10
127.8251704806
 20
94.5279050069
  0
VERTEX
 67
1
  8
13_KOMPONENTER
 62
7
  6
CONTINUOUS
 10
127.8350759079
 20
94.9703474245
  0
VERTEX
 67
1
  8
13_KOMPONENTER
 62
7
  6
CONTINUOUS
 10
127.8448902762
 20
95.4635415439
  0
VERTEX
 67
1
  8
13_KOMPONENTER
 62
7
  6
CONTINUOUS
 10
127.8545009859
 20
96.0111317856
  0
VERTEX
 67
1
  8
13_KOMPONENTER
 62
7
  6
CONTINUOUS
 10
127.8637724074
 20
96.6164019412
  0
VERTEX
 67
1
  8
13_KOMPONENTER
 62
7
  6
CONTINUOUS
 10
127.8725447106
 20
97.2820541878
  0
VERTEX
 67
1
  8
13_KOMPONENTER
 62
7
  6
CONTINUOUS
 10
127.8806347327
 20
98.0100620715
  0
VERTEX
 67
1
  8
13_KOMPONENTER
 62
7
  6
CONTINUOUS
 10
127.887840342
 20
98.8019339637
  0
VERTEX
 67
1
  8
13_KOMPONENTER
 62
7
  6
CONTINUOUS
 10
127.8939541375
 20
99.6612827175
  0
VERTEX
 67
1
  8
13_KOMPONENTER
 62
7
  6
CONTINUOUS
 10
127.8987269317
 20
100.5921382193
  0
VERTEX
 67
1
  8
13_KOMPONENTER
 62
7
  6
CONTINUOUS
 10
127.9018469872
 20
101.5969613592
  0
VERTEX
 67
1
  8
13_KOMPONENTER
 62
7
  6
CONTINUOUS
 10
127.9029382321
 20
102.6457369942
  0
SEQEND
  0
LINE
 67
1
  8
13_KOMPONENTER
 62
7
  6
CONTINUOUS
 10
177.4629173853
 20
90.6457369942
 11
167.5688745222
 21
90.6457369942
  0
LINE
 67
1
  8
13_KOMPONENTER
 62
7
  6
CONTINUOUS
 10
152.0629173853
 20
90.6457369942
 11
142.1688745222
 21
90.6457369942
  0
LINE
 67
1
  8
13_KOMPONENTER
 62
7
  6
CONTINUOUS
 10
126.6629173853
 20
90.6457369942
 11
116.7688745222
 21
90.6457369942
  0
LINE
 67
1
  8
13_KOMPONENTER
 62
7
  6
CONTINUOUS
 10
101.2629173853
 20
90.6457369942
 11
91.3688745222
 21
90.6457369942
  0
LINE
 67
1
  8
13_KOMPONENTER
 62
7
  6
CONTINUOUS
 10
75.8629173853
 20
90.6457369942
 11
65.9688745222
 21
90.6457369942
  0
LINE
 67
1
  8
13_KOMPONENTER
 62
7
  6
CONTINUOUS
 10
50.4629173853
 20
90.6457369942
 11
40.3658959538
 21
90.6457369942
  0
LINE
 67
1
  8
13_KOMPONENTER
 62
7
  6
CONTINUOUS
 10
87.5658959538
 20
152.2207369942
 11
87.5658884921
 21
152.2234685849
  0
LINE
 67
1
  8
13_KOMPONENTER
 62
7
  6
CONTINUOUS
 10
87.5659258003
 20
145.8098106315
 11
87.5658959538
 21
152.2207369942
  0
POLYLINE
 67
1
  8
13_KOMPONENTER
 62
7
  6
CONTINUOUS
 66
1
 70
0
  0
VERTEX
 67
1
  8
13_KOMPONENTER
 62
7
  6
CONTINUOUS
 10
101.2629159633
 20
90.6457369951
  0
VERTEX
 67
1
  8
13_KOMPONENTER
 62
7
  6
CONTINUOUS
 10
101.4698831287
 20
90.6672723026
  0
VERTEX
 67
1
  8
13_KOMPONENTER
 62
7
  6
CONTINUOUS
 10
101.7176468643
 20
90.7544299743
  0
VERTEX
 67
1
  8
13_KOMPONENTER
 62
7
  6
CONTINUOUS
 10
101.9227653435
 20
90.892343547
  0
VERTEX
 67
1
  8
13_KOMPONENTER
 62
7
  6
CONTINUOUS
 10
102.0676501169
 20
91.0474049238
  0
VERTEX
 67
1
  8
13_KOMPONENTER
 62
7
  6
CONTINUOUS
 10
102.1590836442
 20
91.1919212832
  0
VERTEX
 67
1
  8
13_KOMPONENTER
 62
7
  6
CONTINUOUS
 10
102.2142052065
 20
91.315908482
  0
VERTEX
 67
1
  8
13_KOMPONENTER
 62
7
  6
CONTINUOUS
 10
102.2469318112
 20
91.4180556361
  0
VERTEX
 67
1
  8
13_KOMPONENTER
 62
7
  6
CONTINUOUS
 10
102.2671094665
 20
91.5026321558
  0
VERTEX
 67
1
  8
13_KOMPONENTER
 62
7
  6
CONTINUOUS
 10
102.2811872715
 20
91.5787506372
  0
VERTEX
 67
1
  8
13_KOMPONENTER
 62
7
  6
CONTINUOUS
 10
102.2923667864
 20
91.6539299558
  0
VERTEX
 67
1
  8
13_KOMPONENTER
 62
7
  6
CONTINUOUS
 10
102.3022123001
 20
91.7339593119
  0
VERTEX
 67
1
  8
13_KOMPONENTER
 62
7
  6
CONTINUOUS
 10
102.3114559032
 20
91.8228953462
  0
VERTEX
 67
1
  8
13_KOMPONENTER
 62
7
  6
CONTINUOUS
 10
102.3204553609
 20
91.9237691891
  0
VERTEX
 67
1
  8
13_KOMPONENTER
 62
7
  6
CONTINUOUS
 10
102.3294229886
 20
92.0394569833
  0
VERTEX
 67
1
  8
13_KOMPONENTER
 62
7
  6
CONTINUOUS
 10
102.3384865277
 20
92.1727960414
  0
VERTEX
 67
1
  8
13_KOMPONENTER
 62
7
  6
CONTINUOUS
 10
102.3477007755
 20
92.3262899489
  0
VERTEX
 67
1
  8
13_KOMPONENTER
 62
7
  6
CONTINUOUS
 10
102.357063124
 20
92.5018786049
  0
VERTEX
 67
1
  8
13_KOMPONENTER
 62
7
  6
CONTINUOUS
 10
102.3665511177
 20
92.7012723332
  0
VERTEX
 67
1
  8
13_KOMPONENTER
 62
7
  6
CONTINUOUS
 10
102.3761311287
 20
92.9259947285
  0
VERTEX
 67
1
  8
13_KOMPONENTER
 62
7
  6
CONTINUOUS
 10
102.3857913645
 20
93.1782068143
  0
VERTEX
 67
1
  8
13_KOMPONENTER
 62
7
  6
CONTINUOUS
 10
102.3955378633
 20
93.4609628389
  0
VERTEX
 67
1
  8
13_KOMPONENTER
 62
7
  6
CONTINUOUS
 10
102.4053638273
 20
93.777605454
  0
VERTEX
 67
1
  8
13_KOMPONENTER
 62
7
  6
CONTINUOUS
 10
102.4152507552
 20
94.1318397459
  0
VERTEX
 67
1
  8
13_KOMPONENTER
 62
7
  6
CONTINUOUS
 10
102.4251704806
 20
94.5279050069
  0
VERTEX
 67
1
  8
13_KOMPONENTER
 62
7
  6
CONTINUOUS
 10
102.4350759079
 20
94.9703474245
  0
VERTEX
 67
1
  8
13_KOMPONENTER
 62
7
  6
CONTINUOUS
 10
102.4448902762
 20
95.4635415439
  0
VERTEX
 67
1
  8
13_KOMPONENTER
 62
7
  6
CONTINUOUS
 10
102.4545009859
 20
96.0111317856
  0
VERTEX
 67
1
  8
13_KOMPONENTER
 62
7
  6
CONTINUOUS
 10
102.4637724074
 20
96.6164019412
  0
VERTEX
 67
1
  8
13_KOMPONENTER
 62
7
  6
CONTINUOUS
 10
102.4725447106
 20
97.2820541878
  0
VERTEX
 67
1
  8
13_KOMPONENTER
 62
7
  6
CONTINUOUS
 10
102.4806347327
 20
98.0100620715
  0
VERTEX
 67
1
  8
13_KOMPONENTER
 62
7
  6
CONTINUOUS
 10
102.487840342
 20
98.8019339637
  0
VERTEX
 67
1
  8
13_KOMPONENTER
 62
7
  6
CONTINUOUS
 10
102.4939541375
 20
99.6612827175
  0
VERTEX
 67
1
  8
13_KOMPONENTER
 62
7
  6
CONTINUOUS
 10
102.4987269317
 20
100.5921382193
  0
VERTEX
 67
1
  8
13_KOMPONENTER
 62
7
  6
CONTINUOUS
 10
102.5018469872
 20
101.5969613592
  0
VERTEX
 67
1
  8
13_KOMPONENTER
 62
7
  6
CONTINUOUS
 10
102.5029382321
 20
102.6457369942
  0
SEQEND
  0
POLYLINE
 67
1
  8
13_KOMPONENTER
 62
7
  6
CONTINUOUS
 66
1
 70
0
  0
VERTEX
 67
1
  8
13_KOMPONENTER
 62
7
  6
CONTINUOUS
 10
75.8629159633
 20
90.6457369951
  0
VERTEX
 67
1
  8
13_KOMPONENTER
 62
7
  6
CONTINUOUS
 10
76.0698831287
 20
90.6672723026
  0
VERTEX
 67
1
  8
13_KOMPONENTER
 62
7
  6
CONTINUOUS
 10
76.3176468643
 20
90.7544299743
  0
VERTEX
 67
1
  8
13_KOMPONENTER
 62
7
  6
CONTINUOUS
 10
76.5227653435
 20
90.892343547
  0
VERTEX
 67
1
  8
13_KOMPONENTER
 62
7
  6
CONTINUOUS
 10
76.6676501169
 20
91.0474049238
  0
VERTEX
 67
1
  8
13_KOMPONENTER
 62
7
  6
CONTINUOUS
 10
76.7590836442
 20
91.1919212832
  0
VERTEX
 67
1
  8
13_KOMPONENTER
 62
7
  6
CONTINUOUS
 10
76.8142052065
 20
91.315908482
  0
VERTEX
 67
1
  8
13_KOMPONENTER
 62
7
  6
CONTINUOUS
 10
76.8469318112
 20
91.4180556361
  0
VERTEX
 67
1
  8
13_KOMPONENTER
 62
7
  6
CONTINUOUS
 10
76.8671094665
 20
91.5026321558
  0
VERTEX
 67
1
  8
13_KOMPONENTER
 62
7
  6
CONTINUOUS
 10
76.8811872715
 20
91.5787506372
  0
VERTEX
 67
1
  8
13_KOMPONENTER
 62
7
  6
CONTINUOUS
 10
76.8923667864
 20
91.6539299558
  0
VERTEX
 67
1
  8
13_KOMPONENTER
 62
7
  6
CONTINUOUS
 10
76.9022123001
 20
91.7339593119
  0
VERTEX
 67
1
  8
13_KOMPONENTER
 62
7
  6
CONTINUOUS
 10
76.9114559032
 20
91.8228953462
  0
VERTEX
 67
1
  8
13_KOMPONENTER
 62
7
  6
CONTINUOUS
 10
76.9204553609
 20
91.9237691891
  0
VERTEX
 67
1
  8
13_KOMPONENTER
 62
7
  6
CONTINUOUS
 10
76.9294229886
 20
92.0394569833
  0
VERTEX
 67
1
  8
13_KOMPONENTER
 62
7
  6
CONTINUOUS
 10
76.9384865277
 20
92.1727960414
  0
VERTEX
 67
1
  8
13_KOMPONENTER
 62
7
  6
CONTINUOUS
 10
76.9477007755
 20
92.3262899489
  0
VERTEX
 67
1
  8
13_KOMPONENTER
 62
7
  6
CONTINUOUS
 10
76.957063124
 20
92.5018786049
  0
VERTEX
 67
1
  8
13_KOMPONENTER
 62
7
  6
CONTINUOUS
 10
76.9665511177
 20
92.7012723332
  0
VERTEX
 67
1
  8
13_KOMPONENTER
 62
7
  6
CONTINUOUS
 10
76.9761311287
 20
92.9259947285
  0
VERTEX
 67
1
  8
13_KOMPONENTER
 62
7
  6
CONTINUOUS
 10
76.9857913645
 20
93.1782068143
  0
VERTEX
 67
1
  8
13_KOMPONENTER
 62
7
  6
CONTINUOUS
 10
76.9955378633
 20
93.4609628389
  0
VERTEX
 67
1
  8
13_KOMPONENTER
 62
7
  6
CONTINUOUS
 10
77.0053638273
 20
93.777605454
  0
VERTEX
 67
1
  8
13_KOMPONENTER
 62
7
  6
CONTINUOUS
 10
77.0152507552
 20
94.1318397459
  0
VERTEX
 67
1
  8
13_KOMPONENTER
 62
7
  6
CONTINUOUS
 10
77.0251704806
 20
94.5279050069
  0
VERTEX
 67
1
  8
13_KOMPONENTER
 62
7
  6
CONTINUOUS
 10
77.0350759079
 20
94.9703474245
  0
VERTEX
 67
1
  8
13_KOMPONENTER
 62
7
  6
CONTINUOUS
 10
77.0448902762
 20
95.4635415439
  0
VERTEX
 67
1
  8
13_KOMPONENTER
 62
7
  6
CONTINUOUS
 10
77.0545009859
 20
96.0111317856
  0
VERTEX
 67
1
  8
13_KOMPONENTER
 62
7
  6
CONTINUOUS
 10
77.0637724074
 20
96.6164019412
  0
VERTEX
 67
1
  8
13_KOMPONENTER
 62
7
  6
CONTINUOUS
 10
77.0725447106
 20
97.2820541878
  0
VERTEX
 67
1
  8
13_KOMPONENTER
 62
7
  6
CONTINUOUS
 10
77.0806347327
 20
98.0100620715
  0
VERTEX
 67
1
  8
13_KOMPONENTER
 62
7
  6
CONTINUOUS
 10
77.087840342
 20
98.8019339637
  0
VERTEX
 67
1
  8
13_KOMPONENTER
 62
7
  6
CONTINUOUS
 10
77.0939541375
 20
99.6612827175
  0
VERTEX
 67
1
  8
13_KOMPONENTER
 62
7
  6
CONTINUOUS
 10
77.0987269317
 20
100.5921382193
  0
VERTEX
 67
1
  8
13_KOMPONENTER
 62
7
  6
CONTINUOUS
 10
77.1018469872
 20
101.5969613592
  0
VERTEX
 67
1
  8
13_KOMPONENTER
 62
7
  6
CONTINUOUS
 10
77.1029382321
 20
102.6457369942
  0
SEQEND
  0
POLYLINE
 67
1
  8
13_KOMPONENTER
 62
7
  6
CONTINUOUS
 66
1
 70
0
  0
VERTEX
 67
1
  8
13_KOMPONENTER
 62
7
  6
CONTINUOUS
 10
50.4629159633
 20
90.6457369951
  0
VERTEX
 67
1
  8
13_KOMPONENTER
 62
7
  6
CONTINUOUS
 10
50.6698831287
 20
90.6672723026
  0
VERTEX
 67
1
  8
13_KOMPONENTER
 62
7
  6
CONTINUOUS
 10
50.9176468643
 20
90.7544299743
  0
VERTEX
 67
1
  8
13_KOMPONENTER
 62
7
  6
CONTINUOUS
 10
51.1227653435
 20
90.892343547
  0
VERTEX
 67
1
  8
13_KOMPONENTER
 62
7
  6
CONTINUOUS
 10
51.2676501169
 20
91.0474049238
  0
VERTEX
 67
1
  8
13_KOMPONENTER
 62
7
  6
CONTINUOUS
 10
51.3590836442
 20
91.1919212832
  0
VERTEX
 67
1
  8
13_KOMPONENTER
 62
7
  6
CONTINUOUS
 10
51.4142052065
 20
91.315908482
  0
VERTEX
 67
1
  8
13_KOMPONENTER
 62
7
  6
CONTINUOUS
 10
51.4469318112
 20
91.4180556361
  0
VERTEX
 67
1
  8
13_KOMPONENTER
 62
7
  6
CONTINUOUS
 10
51.4671094665
 20
91.5026321558
  0
VERTEX
 67
1
  8
13_KOMPONENTER
 62
7
  6
CONTINUOUS
 10
51.4811872715
 20
91.5787506372
  0
VERTEX
 67
1
  8
13_KOMPONENTER
 62
7
  6
CONTINUOUS
 10
51.4923667864
 20
91.6539299558
  0
VERTEX
 67
1
  8
13_KOMPONENTER
 62
7
  6
CONTINUOUS
 10
51.5022123001
 20
91.7339593119
  0
VERTEX
 67
1
  8
13_KOMPONENTER
 62
7
  6
CONTINUOUS
 10
51.5114559032
 20
91.8228953462
  0
VERTEX
 67
1
  8
13_KOMPONENTER
 62
7
  6
CONTINUOUS
 10
51.5204553609
 20
91.9237691891
  0
VERTEX
 67
1
  8
13_KOMPONENTER
 62
7
  6
CONTINUOUS
 10
51.5294229886
 20
92.0394569833
  0
VERTEX
 67
1
  8
13_KOMPONENTER
 62
7
  6
CONTINUOUS
 10
51.5384865277
 20
92.1727960414
  0
VERTEX
 67
1
  8
13_KOMPONENTER
 62
7
  6
CONTINUOUS
 10
51.5477007755
 20
92.3262899489
  0
VERTEX
 67
1
  8
13_KOMPONENTER
 62
7
  6
CONTINUOUS
 10
51.557063124
 20
92.5018786049
  0
VERTEX
 67
1
  8
13_KOMPONENTER
 62
7
  6
CONTINUOUS
 10
51.5665511177
 20
92.7012723332
  0
VERTEX
 67
1
  8
13_KOMPONENTER
 62
7
  6
CONTINUOUS
 10
51.5761311287
 20
92.9259947285
  0
VERTEX
 67
1
  8
13_KOMPONENTER
 62
7
  6
CONTINUOUS
 10
51.5857913645
 20
93.1782068143
  0
VERTEX
 67
1
  8
13_KOMPONENTER
 62
7
  6
CONTINUOUS
 10
51.5955378633
 20
93.4609628389
  0
VERTEX
 67
1
  8
13_KOMPONENTER
 62
7
  6
CONTINUOUS
 10
51.6053638273
 20
93.777605454
  0
VERTEX
 67
1
  8
13_KOMPONENTER
 62
7
  6
CONTINUOUS
 10
51.6152507552
 20
94.1318397459
  0
VERTEX
 67
1
  8
13_KOMPONENTER
 62
7
  6
CONTINUOUS
 10
51.6251704806
 20
94.5279050069
  0
VERTEX
 67
1
  8
13_KOMPONENTER
 62
7
  6
CONTINUOUS
 10
51.6350759079
 20
94.9703474245
  0
VERTEX
 67
1
  8
13_KOMPONENTER
 62
7
  6
CONTINUOUS
 10
51.6448902762
 20
95.4635415439
  0
VERTEX
 67
1
  8
13_KOMPONENTER
 62
7
  6
CONTINUOUS
 10
51.6545009859
 20
96.0111317856
  0
VERTEX
 67
1
  8
13_KOMPONENTER
 62
7
  6
CONTINUOUS
 10
51.6637724074
 20
96.6164019412
  0
VERTEX
 67
1
  8
13_KOMPONENTER
 62
7
  6
CONTINUOUS
 10
51.6725447106
 20
97.2820541878
  0
VERTEX
 67
1
  8
13_KOMPONENTER
 62
7
  6
CONTINUOUS
 10
51.6806347327
 20
98.0100620715
  0
VERTEX
 67
1
  8
13_KOMPONENTER
 62
7
  6
CONTINUOUS
 10
51.687840342
 20
98.8019339637
  0
VERTEX
 67
1
  8
13_KOMPONENTER
 62
7
  6
CONTINUOUS
 10
51.6939541375
 20
99.6612827175
  0
VERTEX
 67
1
  8
13_KOMPONENTER
 62
7
  6
CONTINUOUS
 10
51.6987269317
 20
100.5921382193
  0
VERTEX
 67
1
  8
13_KOMPONENTER
 62
7
  6
CONTINUOUS
 10
51.7018469872
 20
101.5969613592
  0
VERTEX
 67
1
  8
13_KOMPONENTER
 62
7
  6
CONTINUOUS
 10
51.7029382321
 20
102.6457369942
  0
SEQEND
  0
POLYLINE
 67
1
  8
13_KOMPONENTER
 62
7
  6
CONTINUOUS
 66
1
 70
0
  0
VERTEX
 67
1
  8
13_KOMPONENTER
 62
7
  6
CONTINUOUS
 10
89.8029382321
 20
153.7957369942
  0
VERTEX
 67
1
  8
13_KOMPONENTER
 62
7
  6
CONTINUOUS
 10
89.8018948579
 20
154.8213021288
  0
VERTEX
 67
1
  8
13_KOMPONENTER
 62
7
  6
CONTINUOUS
 10
89.798909709
 20
155.8046599698
  0
VERTEX
 67
1
  8
13_KOMPONENTER
 62
7
  6
CONTINUOUS
 10
89.7943334172
 20
156.7176857845
  0
VERTEX
 67
1
  8
13_KOMPONENTER
 62
7
  6
CONTINUOUS
 10
89.7884620716
 20
157.5620696238
  0
VERTEX
 67
1
  8
13_KOMPONENTER
 62
7
  6
CONTINUOUS
 10
89.7815380018
 20
158.3410297526
  0
VERTEX
 67
1
  8
13_KOMPONENTER
 62
7
  6
CONTINUOUS
 10
89.7737584675
 20
159.0582844915
  0
VERTEX
 67
1
  8
13_KOMPONENTER
 62
7
  6
CONTINUOUS
 10
89.7652955032
 20
159.7168231051
  0
VERTEX
 67
1
  8
13_KOMPONENTER
 62
7
  6
CONTINUOUS
 10
89.7562929608
 20
160.3198868036
  0
VERTEX
 67
1
  8
13_KOMPONENTER
 62
7
  6
CONTINUOUS
 10
89.7468695594
 20
160.8708592593
  0
VERTEX
 67
1
  8
13_KOMPONENTER
 62
7
  6
CONTINUOUS
 10
89.7371287889
 20
161.372819234
  0
VERTEX
 67
1
  8
13_KOMPONENTER
 62
7
  6
CONTINUOUS
 10
89.7271558848
 20
161.828885013
  0
VERTEX
 67
1
  8
13_KOMPONENTER
 62
7
  6
CONTINUOUS
 10
89.7170181087
 20
162.2422077103
  0
VERTEX
 67
1
  8
13_KOMPONENTER
 62
7
  6
CONTINUOUS
 10
89.7067676659
 20
162.6158433974
  0
VERTEX
 67
1
  8
13_KOMPONENTER
 62
7
  6
CONTINUOUS
 10
89.6964428746
 20
162.9527211274
  0
VERTEX
 67
1
  8
13_KOMPONENTER
 62
7
  6
CONTINUOUS
 10
89.6860680683
 20
163.2556433628
  0
VERTEX
 67
1
  8
13_KOMPONENTER
 62
7
  6
CONTINUOUS
 10
89.6756560389
 20
163.5272036105
  0
VERTEX
 67
1
  8
13_KOMPONENTER
 62
7
  6
CONTINUOUS
 10
89.665239674
 20
163.7690995014
  0
VERTEX
 67
1
  8
13_KOMPONENTER
 62
7
  6
CONTINUOUS
 10
89.6548670871
 20
163.9826200623
  0
VERTEX
 67
1
  8
13_KOMPONENTER
 62
7
  6
CONTINUOUS
 10
89.6445732718
 20
164.1693755511
  0
VERTEX
 67
1
  8
13_KOMPONENTER
 62
7
  6
CONTINUOUS
 10
89.6343716432
 20
164.3313224953
  0
VERTEX
 67
1
  8
13_KOMPONENTER
 62
7
  6
CONTINUOUS
 10
89.6242552464
 20
164.4705936084
  0
VERTEX
 67
1
  8
13_KOMPONENTER
 62
7
  6
CONTINUOUS
 10
89.6142105922
 20
164.589256131
  0
VERTEX
 67
1
  8
13_KOMPONENTER
 62
7
  6
CONTINUOUS
 10
89.6041212194
 20
164.6902995185
  0
VERTEX
 67
1
  8
13_KOMPONENTER
 62
7
  6
CONTINUOUS
 10
89.5936110168
 20
164.7781985244
  0
VERTEX
 67
1
  8
13_KOMPONENTER
 62
7
  6
CONTINUOUS
 10
89.581914168
 20
164.8582785383
  0
VERTEX
 67
1
  8
13_KOMPONENTER
 62
7
  6
CONTINUOUS
 10
89.5676161017
 20
164.9363926704
  0
VERTEX
 67
1
  8
13_KOMPONENTER
 62
7
  6
CONTINUOUS
 10
89.5475306302
 20
165.0212121675
  0
VERTEX
 67
1
  8
13_KOMPONENTER
 62
7
  6
CONTINUOUS
 10
89.5138711067
 20
165.1264623304
  0
VERTEX
 67
1
  8
13_KOMPONENTER
 62
7
  6
CONTINUOUS
 10
89.4539966016
 20
165.2591597729
  0
VERTEX
 67
1
  8
13_KOMPONENTER
 62
7
  6
CONTINUOUS
 10
89.3591356742
 20
165.4051770595
  0
VERTEX
 67
1
  8
13_KOMPONENTER
 62
7
  6
CONTINUOUS
 10
89.2164831953
 20
165.5545355171
  0
VERTEX
 67
1
  8
13_KOMPONENTER
 62
7
  6
CONTINUOUS
 10
89.0131602367
 20
165.6893038978
  0
VERTEX
 67
1
  8
13_KOMPONENTER
 62
7
  6
CONTINUOUS
 10
88.7666665077
 20
165.7748728814
  0
VERTEX
 67
1
  8
13_KOMPONENTER
 62
7
  6
CONTINUOUS
 10
88.5629160119
 20
165.7957369933
  0
SEQEND
  0
POLYLINE
 67
1
  8
13_KOMPONENTER
 62
7
  6
CONTINUOUS
 66
1
 70
0
  0
VERTEX
 67
1
  8
13_KOMPONENTER
 62
7
  6
CONTINUOUS
 10
90.1288536754
 20
102.6457369942
  0
VERTEX
 67
1
  8
13_KOMPONENTER
 62
7
  6
CONTINUOUS
 10
90.1298970497
 20
101.6201718597
  0
VERTEX
 67
1
  8
13_KOMPONENTER
 62
7
  6
CONTINUOUS
 10
90.1328821985
 20
100.6368140187
  0
VERTEX
 67
1
  8
13_KOMPONENTER
 62
7
  6
CONTINUOUS
 10
90.1374584903
 20
99.7237882039
  0
VERTEX
 67
1
  8
13_KOMPONENTER
 62
7
  6
CONTINUOUS
 10
90.143329836
 20
98.8794043646
  0
VERTEX
 67
1
  8
13_KOMPONENTER
 62
7
  6
CONTINUOUS
 10
90.1502539057
 20
98.1004442358
  0
VERTEX
 67
1
  8
13_KOMPONENTER
 62
7
  6
CONTINUOUS
 10
90.15803344
 20
97.3831894969
  0
VERTEX
 67
1
  8
13_KOMPONENTER
 62
7
  6
CONTINUOUS
 10
90.1664964044
 20
96.7246508833
  0
VERTEX
 67
1
  8
13_KOMPONENTER
 62
7
  6
CONTINUOUS
 10
90.1754989468
 20
96.1215871849
  0
VERTEX
 67
1
  8
13_KOMPONENTER
 62
7
  6
CONTINUOUS
 10
90.1849223481
 20
95.5706147292
  0
VERTEX
 67
1
  8
13_KOMPONENTER
 62
7
  6
CONTINUOUS
 10
90.1946631186
 20
95.0686547544
  0
VERTEX
 67
1
  8
13_KOMPONENTER
 62
7
  6
CONTINUOUS
 10
90.2046360227
 20
94.6125889754
  0
VERTEX
 67
1
  8
13_KOMPONENTER
 62
7
  6
CONTINUOUS
 10
90.2147737988
 20
94.1992662782
  0
VERTEX
 67
1
  8
13_KOMPONENTER
 62
7
  6
CONTINUOUS
 10
90.2250242416
 20
93.825630591
  0
VERTEX
 67
1
  8
13_KOMPONENTER
 62
7
  6
CONTINUOUS
 10
90.2353490329
 20
93.4887528611
  0
VERTEX
 67
1
  8
13_KOMPONENTER
 62
7
  6
CONTINUOUS
 10
90.2457238392
 20
93.1858306256
  0
VERTEX
 67
1
  8
13_KOMPONENTER
 62
7
  6
CONTINUOUS
 10
90.2561358687
 20
92.914270378
  0
VERTEX
 67
1
  8
13_KOMPONENTER
 62
7
  6
CONTINUOUS
 10
90.2665522336
 20
92.672374487
  0
VERTEX
 67
1
  8
13_KOMPONENTER
 62
7
  6
CONTINUOUS
 10
90.2769248204
 20
92.4588539261
  0
VERTEX
 67
1
  8
13_KOMPONENTER
 62
7
  6
CONTINUOUS
 10
90.2872186357
 20
92.2720984373
  0
VERTEX
 67
1
  8
13_KOMPONENTER
 62
7
  6
CONTINUOUS
 10
90.2974202643
 20
92.1101514931
  0
VERTEX
 67
1
  8
13_KOMPONENTER
 62
7
  6
CONTINUOUS
 10
90.3075366611
 20
91.9708803801
  0
VERTEX
 67
1
  8
13_KOMPONENTER
 62
7
  6
CONTINUOUS
 10
90.3175813153
 20
91.8522178574
  0
VERTEX
 67
1
  8
13_KOMPONENTER
 62
7
  6
CONTINUOUS
 10
90.3276706881
 20
91.7511744699
  0
VERTEX
 67
1
  8
13_KOMPONENTER
 62
7
  6
CONTINUOUS
 10
90.3381808907
 20
91.6632754641
  0
VERTEX
 67
1
  8
13_KOMPONENTER
 62
7
  6
CONTINUOUS
 10
90.3498777395
 20
91.5831954501
  0
VERTEX
 67
1
  8
13_KOMPONENTER
 62
7
  6
CONTINUOUS
 10
90.3641758059
 20
91.505081318
  0
VERTEX
 67
1
  8
13_KOMPONENTER
 62
7
  6
CONTINUOUS
 10
90.3842612773
 20
91.420261821
  0
VERTEX
 67
1
  8
13_KOMPONENTER
 62
7
  6
CONTINUOUS
 10
90.4179208008
 20
91.315011658
  0
VERTEX
 67
1
  8
13_KOMPONENTER
 62
7
  6
CONTINUOUS
 10
90.4777953059
 20
91.1823142155
  0
VERTEX
 67
1
  8
13_KOMPONENTER
 62
7
  6
CONTINUOUS
 10
90.5726562333
 20
91.0362969289
  0
VERTEX
 67
1
  8
13_KOMPONENTER
 62
7
  6
CONTINUOUS
 10
90.7153087122
 20
90.8869384713
  0
VERTEX
 67
1
  8
13_KOMPONENTER
 62
7
  6
CONTINUOUS
 10
90.9186316708
 20
90.7521700906
  0
VERTEX
 67
1
  8
13_KOMPONENTER
 62
7
  6
CONTINUOUS
 10
91.1651253999
 20
90.666601107
  0
VERTEX
 67
1
  8
13_KOMPONENTER
 62
7
  6
CONTINUOUS
 10
91.3688758956
 20
90.6457369951
  0
SEQEND
  0
LINE
 67
1
  8
13_KOMPONENTER
 62
7
  6
CONTINUOUS
 10
89.8029382347
 20
153.7957369942
 11
89.8029382347
 21
146.9202150723
  0
LINE
 67
1
  8
13_KOMPONENTER
 62
7
  6
CONTINUOUS
 10
90.1288536728
 20
102.6457369942
 11
90.1288536728
 21
109.5212587633
  0
LINE
 67
1
  8
13_KOMPONENTER
 62
7
  6
CONTINUOUS
 10
92.3658661072
 20
110.6316633569
 11
92.3659034154
 21
104.2180054035
  0
POLYLINE
 67
1
  8
13_KOMPONENTER
 62
7
  6
CONTINUOUS
 66
1
 70
0
  0
VERTEX
 67
1
  8
13_KOMPONENTER
 62
7
  6
CONTINUOUS
 10
190.3658959538
 20
110.5250356002
  0
VERTEX
 67
1
  8
13_KOMPONENTER
 62
7
  6
CONTINUOUS
 10
190.6061530172
 20
110.5543263011
  0
VERTEX
 67
1
  8
13_KOMPONENTER
 62
7
  6
CONTINUOUS
 10
190.831471804
 20
110.6400276185
  0
VERTEX
 67
1
  8
13_KOMPONENTER
 62
7
  6
CONTINUOUS
 10
191.0294054179
 20
110.7768677107
  0
VERTEX
 67
1
  8
13_KOMPONENTER
 62
7
  6
CONTINUOUS
 10
191.1143665369
 20
110.8618676078
  0
VERTEX
 67
1
  8
13_KOMPONENTER
 62
7
  6
CONTINUOUS
 10
191.2510200168
 20
111.0596804746
  0
VERTEX
 67
1
  8
13_KOMPONENTER
 62
7
  6
CONTINUOUS
 10
191.3366573147
 20
111.2849889795
  0
VERTEX
 67
1
  8
13_KOMPONENTER
 62
7
  6
CONTINUOUS
 10
191.3658959538
 20
111.5250356002
  0
SEQEND
  0
LINE
 67
1
  8
DEFAULT_1
 62
2
  6
CENTER
 10
37.3658959538
 20
102.8207369942
 11
180.5804383276
 21
102.8207369942
  0
LINE
 67
1
  8
13_KOMPONENTER
 62
7
  6
CONTINUOUS
 10
42.0858959538
 20
103.7207369942
 11
48.9686275444
 21
103.7207444559
  0
LINE
 67
1
  8
13_KOMPONENTER
 62
7
  6
CONTINUOUS
 10
67.4658959538
 20
103.7207369942
 11
74.3686275444
 21
103.7207444559
  0
LINE
 67
1
  8
13_KOMPONENTER
 62
7
  6
CONTINUOUS
 10
92.8658959538
 20
103.7207369942
 11
99.7686275444
 21
103.7207444559
  0
LINE
 67
1
  8
13_KOMPONENTER
 62
7
  6
CONTINUOUS
 10
118.2658959538
 20
103.7207369942
 11
125.1686275444
 21
103.7207444559
  0
LINE
 67
1
  8
13_KOMPONENTER
 62
7
  6
CONTINUOUS
 10
143.6658959538
 20
103.7207369942
 11
150.5686275444
 21
103.7207444559
  0
LINE
 67
1
  8
13_KOMPONENTER
 62
7
  6
CONTINUOUS
 10
169.0658959538
 20
103.7207369942
 11
175.9686275444
 21
103.7207444559
  0
LINE
 67
1
  8
13_KOMPONENTER
 62
7
  6
CONTINUOUS
 10
42.0831643631
 20
103.7207444559
 11
42.0858959538
 21
103.7207369942
  0
LINE
 67
1
  8
13_KOMPONENTER
 62
7
  6
CONTINUOUS
 10
67.4631643631
 20
103.7207444559
 11
67.4658959538
 21
103.7207369942
  0
LINE
 67
1
  8
13_KOMPONENTER
 62
7
  6
CONTINUOUS
 10
92.8631643631
 20
103.7207444559
 11
92.8658959538
 21
103.7207369942
  0
LINE
 67
1
  8
13_KOMPONENTER
 62
7
  6
CONTINUOUS
 10
118.2631643631
 20
103.7207444559
 11
118.2658959538
 21
103.7207369942
  0
LINE
 67
1
  8
13_KOMPONENTER
 62
7
  6
CONTINUOUS
 10
143.6631643631
 20
103.7207444559
 11
143.6658959538
 21
103.7207369942
  0
LINE
 67
1
  8
13_KOMPONENTER
 62
7
  6
CONTINUOUS
 10
169.0631643631
 20
103.7207444559
 11
169.0658959538
 21
103.7207369942
  0
POLYLINE
 67
1
  8
13_KOMPONENTER
 62
7
  6
CONTINUOUS
 66
1
 70
0
  0
VERTEX
 67
1
  8
13_KOMPONENTER
 62
7
  6
CONTINUOUS
 10
63.7847454396
 20
110.5236524784
  0
VERTEX
 67
1
  8
13_KOMPONENTER
 62
7
  6
CONTINUOUS
 10
64.0488363691
 20
110.4692814606
  0
VERTEX
 67
1
  8
13_KOMPONENTER
 62
7
  6
CONTINUOUS
 10
64.2931773594
 20
110.3471694185
  0
VERTEX
 67
1
  8
13_KOMPONENTER
 62
7
  6
CONTINUOUS
 10
64.4792292621
 20
110.1825060399
  0
VERTEX
 67
1
  8
13_KOMPONENTER
 62
7
  6
CONTINUOUS
 10
64.6200804837
 20
109.9749588588
  0
VERTEX
 67
1
  8
13_KOMPONENTER
 62
7
  6
CONTINUOUS
 10
64.7047411417
 20
109.7395927151
  0
VERTEX
 67
1
  8
13_KOMPONENTER
 62
7
  6
CONTINUOUS
 10
64.7288523651
 20
109.5212588348
  0
SEQEND
  0
LINE
 67
1
  8
13_KOMPONENTER
 62
7
  6
CONTINUOUS
 10
100.2658959538
 20
104.2207369942
 11
100.2659258003
 21
110.6316633569
  0
LINE
 67
1
  8
13_KOMPONENTER
 62
7
  6
CONTINUOUS
 10
100.2658884921
 20
104.2180054035
 11
100.2658959538
 21
104.2207369942
  0
POLYLINE
 67
1
  8
13_KOMPONENTER
 62
7
  6
CONTINUOUS
 66
1
 70
0
  0
VERTEX
 67
1
  8
13_KOMPONENTER
 62
7
  6
CONTINUOUS
 10
102.8288521649
 20
146.9202150678
  0
VERTEX
 67
1
  8
13_KOMPONENTER
 62
7
  6
CONTINUOUS
 10
102.8042063373
 20
146.6995037114
  0
VERTEX
 67
1
  8
13_KOMPONENTER
 62
7
  6
CONTINUOUS
 10
102.7190319629
 20
146.4644600432
  0
VERTEX
 67
1
  8
13_KOMPONENTER
 62
7
  6
CONTINUOUS
 10
102.5777808941
 20
146.2573264934
  0
VERTEX
 67
1
  8
13_KOMPONENTER
 62
7
  6
CONTINUOUS
 10
102.3914693961
 20
146.0931384502
  0
VERTEX
 67
1
  8
13_KOMPONENTER
 62
7
  6
CONTINUOUS
 10
102.1456205437
 20
145.9711075716
  0
VERTEX
 67
1
  8
13_KOMPONENTER
 62
7
  6
CONTINUOUS
 10
101.8848322016
 20
145.9178326091
  0
SEQEND
  0
POLYLINE
 67
1
  8
13_KOMPONENTER
 62
7
  6
CONTINUOUS
 66
1
 70
0
  0
VERTEX
 67
1
  8
13_KOMPONENTER
 62
7
  6
CONTINUOUS
 10
179.6469381669
 20
110.5236369328
  0
VERTEX
 67
1
  8
13_KOMPONENTER
 62
7
  6
CONTINUOUS
 10
179.6587715618
 20
110.5247729703
  0
VERTEX
 67
1
  8
13_KOMPONENTER
 62
7
  6
CONTINUOUS
 10
179.6677751324
 20
110.5250360323
  0
SEQEND
  0
POLYLINE
 67
1
  8
13_KOMPONENTER
 62
7
  6
CONTINUOUS
 66
1
 70
0
  0
VERTEX
 67
1
  8
13_KOMPONENTER
 62
7
  6
CONTINUOUS
 10
154.246938167
 20
110.5236369328
  0
VERTEX
 67
1
  8
13_KOMPONENTER
 62
7
  6
CONTINUOUS
 10
154.2587715667
 20
110.5247729706
  0
VERTEX
 67
1
  8
13_KOMPONENTER
 62
7
  6
CONTINUOUS
 10
154.2677751459
 20
110.5250360323
  0
SEQEND
  0
POLYLINE
 67
1
  8
13_KOMPONENTER
 62
7
  6
CONTINUOUS
 66
1
 70
0
  0
VERTEX
 67
1
  8
13_KOMPONENTER
 62
7
  6
CONTINUOUS
 10
128.8469381669
 20
110.5236369328
  0
VERTEX
 67
1
  8
13_KOMPONENTER
 62
7
  6
CONTINUOUS
 10
128.8587715666
 20
110.5247729706
  0
VERTEX
 67
1
  8
13_KOMPONENTER
 62
7
  6
CONTINUOUS
 10
128.8677751459
 20
110.5250360323
  0
SEQEND
  0
LINE
 67
1
  8
13_KOMPONENTER
 62
7
  6
CONTINUOUS
 10
190.3658959538
 20
110.5250356002
 11
179.6677751325
 21
110.5250356002
  0
LINE
 67
1
  8
13_KOMPONENTER
 62
7
  6
CONTINUOUS
 10
165.3640170647
 20
110.5250356002
 11
154.267775146
 21
110.5250356002
  0
LINE
 67
1
  8
13_KOMPONENTER
 62
7
  6
CONTINUOUS
 10
139.9640170647
 20
110.5250356002
 11
128.867775146
 21
110.5250356002
  0
LINE
 67
1
  8
13_KOMPONENTER
 62
7
  6
CONTINUOUS
 10
114.5640170647
 20
110.5250356002
 11
103.4677751968
 21
110.5250356002
  0
LINE
 67
1
  8
13_KOMPONENTER
 62
7
  6
CONTINUOUS
 10
89.1640170647
 20
110.5250356002
 11
78.0677751968
 21
110.5250356002
  0
LINE
 67
1
  8
13_KOMPONENTER
 62
7
  6
CONTINUOUS
 10
63.7640170647
 20
110.5250356002
 11
52.6677751968
 21
110.5250356002
  0
POLYLINE
 67
1
  8
13_KOMPONENTER
 62
7
  6
CONTINUOUS
 66
1
 70
0
  0
VERTEX
 67
1
  8
13_KOMPONENTER
 62
7
  6
CONTINUOUS
 10
63.7640170642
 20
110.5250360282
  0
VERTEX
 67
1
  8
13_KOMPONENTER
 62
7
  6
CONTINUOUS
 10
63.7732128688
 20
110.5247617505
  0
VERTEX
 67
1
  8
13_KOMPONENTER
 62
7
  6
CONTINUOUS
 10
63.7847452862
 20
110.52365131
  0
SEQEND
  0
POLYLINE
 67
1
  8
13_KOMPONENTER
 62
7
  6
CONTINUOUS
 66
1
 70
0
  0
VERTEX
 67
1
  8
13_KOMPONENTER
 62
7
  6
CONTINUOUS
 10
89.1640170642
 20
110.5250360282
  0
VERTEX
 67
1
  8
13_KOMPONENTER
 62
7
  6
CONTINUOUS
 10
89.1732128688
 20
110.5247617505
  0
VERTEX
 67
1
  8
13_KOMPONENTER
 62
7
  6
CONTINUOUS
 10
89.184745286
 20
110.52365131
  0
SEQEND
  0
POLYLINE
 67
1
  8
13_KOMPONENTER
 62
7
  6
CONTINUOUS
 66
1
 70
0
  0
VERTEX
 67
1
  8
13_KOMPONENTER
 62
7
  6
CONTINUOUS
 10
114.5640170643
 20
110.5250360605
  0
VERTEX
 67
1
  8
13_KOMPONENTER
 62
7
  6
CONTINUOUS
 10
114.5731975519
 20
110.524762543
  0
VERTEX
 67
1
  8
13_KOMPONENTER
 62
7
  6
CONTINUOUS
 10
114.5847465222
 20
110.5236512214
  0
SEQEND
  0
POLYLINE
 67
1
  8
13_KOMPONENTER
 62
7
  6
CONTINUOUS
 66
1
 70
0
  0
VERTEX
 67
1
  8
13_KOMPONENTER
 62
7
  6
CONTINUOUS
 10
114.5847466588
 20
110.5236522622
  0
VERTEX
 67
1
  8
13_KOMPONENTER
 62
7
  6
CONTINUOUS
 10
114.8488002232
 20
110.4692937198
  0
VERTEX
 67
1
  8
13_KOMPONENTER
 62
7
  6
CONTINUOUS
 10
115.0931739778
 20
110.3471717216
  0
VERTEX
 67
1
  8
13_KOMPONENTER
 62
7
  6
CONTINUOUS
 10
115.2792275997
 20
110.1825079307
  0
VERTEX
 67
1
  8
13_KOMPONENTER
 62
7
  6
CONTINUOUS
 10
115.4200789575
 20
109.9749618298
  0
VERTEX
 67
1
  8
13_KOMPONENTER
 62
7
  6
CONTINUOUS
 10
115.5047390936
 20
109.7396016551
  0
VERTEX
 67
1
  8
13_KOMPONENTER
 62
7
  6
CONTINUOUS
 10
115.528852282
 20
109.5212588835
  0
SEQEND
  0
POLYLINE
 67
1
  8
13_KOMPONENTER
 62
7
  6
CONTINUOUS
 66
1
 70
0
  0
VERTEX
 67
1
  8
13_KOMPONENTER
 62
7
  6
CONTINUOUS
 10
89.1847454395
 20
110.5236524785
  0
VERTEX
 67
1
  8
13_KOMPONENTER
 62
7
  6
CONTINUOUS
 10
89.4488363749
 20
110.4692814587
  0
VERTEX
 67
1
  8
13_KOMPONENTER
 62
7
  6
CONTINUOUS
 10
89.6931773599
 20
110.3471694181
  0
VERTEX
 67
1
  8
13_KOMPONENTER
 62
7
  6
CONTINUOUS
 10
89.8792292625
 20
110.1825060395
  0
VERTEX
 67
1
  8
13_KOMPONENTER
 62
7
  6
CONTINUOUS
 10
90.0200804839
 20
109.9749588585
  0
VERTEX
 67
1
  8
13_KOMPONENTER
 62
7
  6
CONTINUOUS
 10
90.1047411418
 20
109.7395927149
  0
VERTEX
 67
1
  8
13_KOMPONENTER
 62
7
  6
CONTINUOUS
 10
90.1288523652
 20
109.5212588348
  0
SEQEND
  0
LINE
 67
1
  8
13_KOMPONENTER
 62
7
  6
CONTINUOUS
 10
102.5029382347
 20
109.5212587912
 11
102.5029382347
 21
102.6457369942
  0
LINE
 67
1
  8
13_KOMPONENTER
 62
7
  6
CONTINUOUS
 10
102.8288536728
 20
146.9202150678
 11
102.8288536728
 21
153.7957369942
  0
LINE
 67
1
  8
13_KOMPONENTER
 62
7
  6
CONTINUOUS
 10
105.0659034154
 20
152.2234685849
 11
105.0658959538
 21
145.8207369942
  0
LINE
 67
1
  8
13_KOMPONENTER
 62
7
  6
CONTINUOUS
 10
105.0658959538
 20
145.8207369942
 11
105.0658661072
 21
145.8098106315
  0
POLYLINE
 67
1
  8
13_KOMPONENTER
 62
7
  6
CONTINUOUS
 66
1
 70
0
  0
VERTEX
 67
1
  8
13_KOMPONENTER
 62
7
  6
CONTINUOUS
 10
102.50293963
 20
109.5212587912
  0
VERTEX
 67
1
  8
13_KOMPONENTER
 62
7
  6
CONTINUOUS
 10
102.5275710616
 20
109.7419068864
  0
VERTEX
 67
1
  8
13_KOMPONENTER
 62
7
  6
CONTINUOUS
 10
102.6127000671
 20
109.9768971058
  0
VERTEX
 67
1
  8
13_KOMPONENTER
 62
7
  6
CONTINUOUS
 10
102.7539152851
 20
110.1840390128
  0
VERTEX
 67
1
  8
13_KOMPONENTER
 62
7
  6
CONTINUOUS
 10
102.9402109555
 20
110.3482595304
  0
VERTEX
 67
1
  8
13_KOMPONENTER
 62
7
  6
CONTINUOUS
 10
103.1854920037
 20
110.4701383615
  0
VERTEX
 67
1
  8
13_KOMPONENTER
 62
7
  6
CONTINUOUS
 10
103.4469438882
 20
110.5236388521
  0
SEQEND
  0
POLYLINE
 67
1
  8
13_KOMPONENTER
 62
7
  6
CONTINUOUS
 66
1
 70
0
  0
VERTEX
 67
1
  8
13_KOMPONENTER
 62
7
  6
CONTINUOUS
 10
103.4469441678
 20
110.5236377506
  0
VERTEX
 67
1
  8
13_KOMPONENTER
 62
7
  6
CONTINUOUS
 10
103.4587608111
 20
110.5247724252
  0
VERTEX
 67
1
  8
13_KOMPONENTER
 62
7
  6
CONTINUOUS
 10
103.4677751968
 20
110.5250360569
  0
SEQEND
  0
POLYLINE
 67
1
  8
13_KOMPONENTER
 62
7
  6
CONTINUOUS
 66
1
 70
0
  0
VERTEX
 67
1
  8
13_KOMPONENTER
 62
7
  6
CONTINUOUS
 10
78.0469441679
 20
110.5236377506
  0
VERTEX
 67
1
  8
13_KOMPONENTER
 62
7
  6
CONTINUOUS
 10
78.0587608111
 20
110.5247724252
  0
VERTEX
 67
1
  8
13_KOMPONENTER
 62
7
  6
CONTINUOUS
 10
78.0677751968
 20
110.5250360569
  0
SEQEND
  0
LINE
 67
1
  8
13_KOMPONENTER
 62
7
  6
CONTINUOUS
 10
51.4549695911
 20
112.6207071476
 11
64.9658959538
 21
112.6207369942
  0
LINE
 67
1
  8
13_KOMPONENTER
 62
7
  6
CONTINUOUS
 10
76.8549695911
 20
112.6207071476
 11
90.3658959538
 21
112.6207369942
  0
LINE
 67
1
  8
13_KOMPONENTER
 62
7
  6
CONTINUOUS
 10
102.2549695911
 20
112.6207071476
 11
115.7658959538
 21
112.6207369942
  0
LINE
 67
1
  8
13_KOMPONENTER
 62
7
  6
CONTINUOUS
 10
127.6549695911
 20
112.6207071476
 11
141.1658959538
 21
112.6207369942
  0
LINE
 67
1
  8
13_KOMPONENTER
 62
7
  6
CONTINUOUS
 10
153.0549695911
 20
112.6207071476
 11
166.5658959538
 21
112.6207369942
  0
LINE
 67
1
  8
13_KOMPONENTER
 62
7
  6
CONTINUOUS
 10
178.4549695911
 20
112.6207071476
 11
188.6486275444
 21
112.6207444559
  0
LINE
 67
1
  8
13_KOMPONENTER
 62
7
  6
CONTINUOUS
 10
64.9658959538
 20
112.6207369942
 11
64.9768223164
 21
112.6207071476
  0
LINE
 67
1
  8
13_KOMPONENTER
 62
7
  6
CONTINUOUS
 10
90.3658959538
 20
112.6207369942
 11
90.3768223164
 21
112.6207071476
  0
LINE
 67
1
  8
13_KOMPONENTER
 62
7
  6
CONTINUOUS
 10
115.7658959538
 20
112.6207369942
 11
115.7768223164
 21
112.6207071476
  0
LINE
 67
1
  8
13_KOMPONENTER
 62
7
  6
CONTINUOUS
 10
141.1658959538
 20
112.6207369942
 11
141.1768223164
 21
112.6207071476
  0
LINE
 67
1
  8
13_KOMPONENTER
 62
7
  6
CONTINUOUS
 10
166.5658959538
 20
112.6207369942
 11
166.5768223164
 21
112.6207071476
  0
POLYLINE
 67
1
  8
13_KOMPONENTER
 62
7
  6
CONTINUOUS
 66
1
 70
0
  0
VERTEX
 67
1
  8
13_KOMPONENTER
 62
7
  6
CONTINUOUS
 10
139.9640170643
 20
110.5250360605
  0
VERTEX
 67
1
  8
13_KOMPONENTER
 62
7
  6
CONTINUOUS
 10
139.9731975519
 20
110.524762543
  0
VERTEX
 67
1
  8
13_KOMPONENTER
 62
7
  6
CONTINUOUS
 10
139.9847465223
 20
110.5236512214
  0
SEQEND
  0
POLYLINE
 67
1
  8
13_KOMPONENTER
 62
7
  6
CONTINUOUS
 66
1
 70
0
  0
VERTEX
 67
1
  8
13_KOMPONENTER
 62
7
  6
CONTINUOUS
 10
165.3640170643
 20
110.5250360605
  0
VERTEX
 67
1
  8
13_KOMPONENTER
 62
7
  6
CONTINUOUS
 10
165.3731975519
 20
110.524762543
  0
VERTEX
 67
1
  8
13_KOMPONENTER
 62
7
  6
CONTINUOUS
 10
165.3847465222
 20
110.5236512214
  0
SEQEND
  0
POLYLINE
 67
1
  8
13_KOMPONENTER
 62
7
  6
CONTINUOUS
 66
1
 70
0
  0
VERTEX
 67
1
  8
13_KOMPONENTER
 62
7
  6
CONTINUOUS
 10
139.9847466589
 20
110.5236522622
  0
VERTEX
 67
1
  8
13_KOMPONENTER
 62
7
  6
CONTINUOUS
 10
140.2488002188
 20
110.4692937213
  0
VERTEX
 67
1
  8
13_KOMPONENTER
 62
7
  6
CONTINUOUS
 10
140.4931739774
 20
110.3471717219
  0
VERTEX
 67
1
  8
13_KOMPONENTER
 62
7
  6
CONTINUOUS
 10
140.6792275994
 20
110.182507931
  0
VERTEX
 67
1
  8
13_KOMPONENTER
 62
7
  6
CONTINUOUS
 10
140.8200789574
 20
109.9749618301
  0
VERTEX
 67
1
  8
13_KOMPONENTER
 62
7
  6
CONTINUOUS
 10
140.9047390935
 20
109.7396016553
  0
VERTEX
 67
1
  8
13_KOMPONENTER
 62
7
  6
CONTINUOUS
 10
140.9288522819
 20
109.5212588835
  0
SEQEND
  0
LINE
 67
1
  8
13_KOMPONENTER
 62
7
  6
CONTINUOUS
 10
112.9658959538
 20
152.2207369942
 11
112.9658884921
 21
152.2234685849
  0
LINE
 67
1
  8
13_KOMPONENTER
 62
7
  6
CONTINUOUS
 10
112.9659258003
 20
145.8098106315
 11
112.9658959538
 21
152.2207369942
  0
POLYLINE
 67
1
  8
13_KOMPONENTER
 62
7
  6
CONTINUOUS
 66
1
 70
0
  0
VERTEX
 67
1
  8
13_KOMPONENTER
 62
7
  6
CONTINUOUS
 10
52.6469441678
 20
110.5236377506
  0
VERTEX
 67
1
  8
13_KOMPONENTER
 62
7
  6
CONTINUOUS
 10
52.6587608111
 20
110.5247724252
  0
VERTEX
 67
1
  8
13_KOMPONENTER
 62
7
  6
CONTINUOUS
 10
52.6677751968
 20
110.5250360569
  0
SEQEND
  0
POLYLINE
 67
1
  8
13_KOMPONENTER
 62
7
  6
CONTINUOUS
 66
1
 70
0
  0
VERTEX
 67
1
  8
13_KOMPONENTER
 62
7
  6
CONTINUOUS
 10
165.3847466588
 20
110.5236522622
  0
VERTEX
 67
1
  8
13_KOMPONENTER
 62
7
  6
CONTINUOUS
 10
165.6488002232
 20
110.4692937198
  0
VERTEX
 67
1
  8
13_KOMPONENTER
 62
7
  6
CONTINUOUS
 10
165.8931739778
 20
110.3471717216
  0
VERTEX
 67
1
  8
13_KOMPONENTER
 62
7
  6
CONTINUOUS
 10
166.0792275997
 20
110.1825079307
  0
VERTEX
 67
1
  8
13_KOMPONENTER
 62
7
  6
CONTINUOUS
 10
166.2200789575
 20
109.9749618298
  0
VERTEX
 67
1
  8
13_KOMPONENTER
 62
7
  6
CONTINUOUS
 10
166.3047390936
 20
109.7396016551
  0
VERTEX
 67
1
  8
13_KOMPONENTER
 62
7
  6
CONTINUOUS
 10
166.328852282
 20
109.5212588835
  0
SEQEND
  0
POLYLINE
 67
1
  8
13_KOMPONENTER
 62
7
  6
CONTINUOUS
 66
1
 70
0
  0
VERTEX
 67
1
  8
13_KOMPONENTER
 62
7
  6
CONTINUOUS
 10
115.2029382321
 20
153.7957369942
  0
VERTEX
 67
1
  8
13_KOMPONENTER
 62
7
  6
CONTINUOUS
 10
115.2018948579
 20
154.8213021288
  0
VERTEX
 67
1
  8
13_KOMPONENTER
 62
7
  6
CONTINUOUS
 10
115.198909709
 20
155.8046599698
  0
VERTEX
 67
1
  8
13_KOMPONENTER
 62
7
  6
CONTINUOUS
 10
115.1943334172
 20
156.7176857845
  0
VERTEX
 67
1
  8
13_KOMPONENTER
 62
7
  6
CONTINUOUS
 10
115.1884620716
 20
157.5620696238
  0
VERTEX
 67
1
  8
13_KOMPONENTER
 62
7
  6
CONTINUOUS
 10
115.1815380018
 20
158.3410297526
  0
VERTEX
 67
1
  8
13_KOMPONENTER
 62
7
  6
CONTINUOUS
 10
115.1737584675
 20
159.0582844915
  0
VERTEX
 67
1
  8
13_KOMPONENTER
 62
7
  6
CONTINUOUS
 10
115.1652955032
 20
159.7168231051
  0
VERTEX
 67
1
  8
13_KOMPONENTER
 62
7
  6
CONTINUOUS
 10
115.1562929608
 20
160.3198868036
  0
VERTEX
 67
1
  8
13_KOMPONENTER
 62
7
  6
CONTINUOUS
 10
115.1468695594
 20
160.8708592593
  0
VERTEX
 67
1
  8
13_KOMPONENTER
 62
7
  6
CONTINUOUS
 10
115.1371287889
 20
161.372819234
  0
VERTEX
 67
1
  8
13_KOMPONENTER
 62
7
  6
CONTINUOUS
 10
115.1271558848
 20
161.828885013
  0
VERTEX
 67
1
  8
13_KOMPONENTER
 62
7
  6
CONTINUOUS
 10
115.1170181087
 20
162.2422077103
  0
VERTEX
 67
1
  8
13_KOMPONENTER
 62
7
  6
CONTINUOUS
 10
115.1067676659
 20
162.6158433974
  0
VERTEX
 67
1
  8
13_KOMPONENTER
 62
7
  6
CONTINUOUS
 10
115.0964428746
 20
162.9527211274
  0
VERTEX
 67
1
  8
13_KOMPONENTER
 62
7
  6
CONTINUOUS
 10
115.0860680683
 20
163.2556433628
  0
VERTEX
 67
1
  8
13_KOMPONENTER
 62
7
  6
CONTINUOUS
 10
115.0756560389
 20
163.5272036105
  0
VERTEX
 67
1
  8
13_KOMPONENTER
 62
7
  6
CONTINUOUS
 10
115.065239674
 20
163.7690995014
  0
VERTEX
 67
1
  8
13_KOMPONENTER
 62
7
  6
CONTINUOUS
 10
115.0548670871
 20
163.9826200623
  0
VERTEX
 67
1
  8
13_KOMPONENTER
 62
7
  6
CONTINUOUS
 10
115.0445732718
 20
164.1693755511
  0
VERTEX
 67
1
  8
13_KOMPONENTER
 62
7
  6
CONTINUOUS
 10
115.0343716432
 20
164.3313224953
  0
VERTEX
 67
1
  8
13_KOMPONENTER
 62
7
  6
CONTINUOUS
 10
115.0242552464
 20
164.4705936084
  0
VERTEX
 67
1
  8
13_KOMPONENTER
 62
7
  6
CONTINUOUS
 10
115.0142105922
 20
164.589256131
  0
VERTEX
 67
1
  8
13_KOMPONENTER
 62
7
  6
CONTINUOUS
 10
115.0041212194
 20
164.6902995185
  0
VERTEX
 67
1
  8
13_KOMPONENTER
 62
7
  6
CONTINUOUS
 10
114.9936110168
 20
164.7781985244
  0
VERTEX
 67
1
  8
13_KOMPONENTER
 62
7
  6
CONTINUOUS
 10
114.981914168
 20
164.8582785383
  0
VERTEX
 67
1
  8
13_KOMPONENTER
 62
7
  6
CONTINUOUS
 10
114.9676161017
 20
164.9363926704
  0
VERTEX
 67
1
  8
13_KOMPONENTER
 62
7
  6
CONTINUOUS
 10
114.9475306302
 20
165.0212121675
  0
VERTEX
 67
1
  8
13_KOMPONENTER
 62
7
  6
CONTINUOUS
 10
114.9138711067
 20
165.1264623304
  0
VERTEX
 67
1
  8
13_KOMPONENTER
 62
7
  6
CONTINUOUS
 10
114.8539966016
 20
165.2591597729
  0
VERTEX
 67
1
  8
13_KOMPONENTER
 62
7
  6
CONTINUOUS
 10
114.7591356742
 20
165.4051770595
  0
VERTEX
 67
1
  8
13_KOMPONENTER
 62
7
  6
CONTINUOUS
 10
114.6164831953
 20
165.5545355171
  0
VERTEX
 67
1
  8
13_KOMPONENTER
 62
7
  6
CONTINUOUS
 10
114.4131602367
 20
165.6893038978
  0
VERTEX
 67
1
  8
13_KOMPONENTER
 62
7
  6
CONTINUOUS
 10
114.1666665077
 20
165.7748728814
  0
VERTEX
 67
1
  8
13_KOMPONENTER
 62
7
  6
CONTINUOUS
 10
113.9629160119
 20
165.7957369933
  0
SEQEND
  0
POLYLINE
 67
1
  8
13_KOMPONENTER
 62
7
  6
CONTINUOUS
 66
1
 70
0
  0
VERTEX
 67
1
  8
13_KOMPONENTER
 62
7
  6
CONTINUOUS
 10
115.5288536754
 20
102.6457369942
  0
VERTEX
 67
1
  8
13_KOMPONENTER
 62
7
  6
CONTINUOUS
 10
115.5298970497
 20
101.6201718597
  0
VERTEX
 67
1
  8
13_KOMPONENTER
 62
7
  6
CONTINUOUS
 10
115.5328821985
 20
100.6368140187
  0
VERTEX
 67
1
  8
13_KOMPONENTER
 62
7
  6
CONTINUOUS
 10
115.5374584903
 20
99.7237882039
  0
VERTEX
 67
1
  8
13_KOMPONENTER
 62
7
  6
CONTINUOUS
 10
115.543329836
 20
98.8794043646
  0
VERTEX
 67
1
  8
13_KOMPONENTER
 62
7
  6
CONTINUOUS
 10
115.5502539057
 20
98.1004442358
  0
VERTEX
 67
1
  8
13_KOMPONENTER
 62
7
  6
CONTINUOUS
 10
115.55803344
 20
97.3831894969
  0
VERTEX
 67
1
  8
13_KOMPONENTER
 62
7
  6
CONTINUOUS
 10
115.5664964044
 20
96.7246508833
  0
VERTEX
 67
1
  8
13_KOMPONENTER
 62
7
  6
CONTINUOUS
 10
115.5754989468
 20
96.1215871849
  0
VERTEX
 67
1
  8
13_KOMPONENTER
 62
7
  6
CONTINUOUS
 10
115.5849223481
 20
95.5706147292
  0
VERTEX
 67
1
  8
13_KOMPONENTER
 62
7
  6
CONTINUOUS
 10
115.5946631186
 20
95.0686547544
  0
VERTEX
 67
1
  8
13_KOMPONENTER
 62
7
  6
CONTINUOUS
 10
115.6046360227
 20
94.6125889754
  0
VERTEX
 67
1
  8
13_KOMPONENTER
 62
7
  6
CONTINUOUS
 10
115.6147737988
 20
94.1992662782
  0
VERTEX
 67
1
  8
13_KOMPONENTER
 62
7
  6
CONTINUOUS
 10
115.6250242416
 20
93.825630591
  0
VERTEX
 67
1
  8
13_KOMPONENTER
 62
7
  6
CONTINUOUS
 10
115.6353490329
 20
93.4887528611
  0
VERTEX
 67
1
  8
13_KOMPONENTER
 62
7
  6
CONTINUOUS
 10
115.6457238392
 20
93.1858306256
  0
VERTEX
 67
1
  8
13_KOMPONENTER
 62
7
  6
CONTINUOUS
 10
115.6561358687
 20
92.914270378
  0
VERTEX
 67
1
  8
13_KOMPONENTER
 62
7
  6
CONTINUOUS
 10
115.6665522336
 20
92.672374487
  0
VERTEX
 67
1
  8
13_KOMPONENTER
 62
7
  6
CONTINUOUS
 10
115.6769248204
 20
92.4588539261
  0
VERTEX
 67
1
  8
13_KOMPONENTER
 62
7
  6
CONTINUOUS
 10
115.6872186357
 20
92.2720984373
  0
VERTEX
 67
1
  8
13_KOMPONENTER
 62
7
  6
CONTINUOUS
 10
115.6974202643
 20
92.1101514931
  0
VERTEX
 67
1
  8
13_KOMPONENTER
 62
7
  6
CONTINUOUS
 10
115.7075366611
 20
91.9708803801
  0
VERTEX
 67
1
  8
13_KOMPONENTER
 62
7
  6
CONTINUOUS
 10
115.7175813153
 20
91.8522178574
  0
VERTEX
 67
1
  8
13_KOMPONENTER
 62
7
  6
CONTINUOUS
 10
115.7276706881
 20
91.7511744699
  0
VERTEX
 67
1
  8
13_KOMPONENTER
 62
7
  6
CONTINUOUS
 10
115.7381808907
 20
91.6632754641
  0
VERTEX
 67
1
  8
13_KOMPONENTER
 62
7
  6
CONTINUOUS
 10
115.7498777395
 20
91.5831954501
  0
VERTEX
 67
1
  8
13_KOMPONENTER
 62
7
  6
CONTINUOUS
 10
115.7641758059
 20
91.505081318
  0
VERTEX
 67
1
  8
13_KOMPONENTER
 62
7
  6
CONTINUOUS
 10
115.7842612773
 20
91.420261821
  0
VERTEX
 67
1
  8
13_KOMPONENTER
 62
7
  6
CONTINUOUS
 10
115.8179208008
 20
91.315011658
  0
VERTEX
 67
1
  8
13_KOMPONENTER
 62
7
  6
CONTINUOUS
 10
115.8777953059
 20
91.1823142155
  0
VERTEX
 67
1
  8
13_KOMPONENTER
 62
7
  6
CONTINUOUS
 10
115.9726562333
 20
91.036296929
  0
VERTEX
 67
1
  8
13_KOMPONENTER
 62
7
  6
CONTINUOUS
 10
116.1153087122
 20
90.8869384713
  0
VERTEX
 67
1
  8
13_KOMPONENTER
 62
7
  6
CONTINUOUS
 10
116.3186316708
 20
90.7521700906
  0
VERTEX
 67
1
  8
13_KOMPONENTER
 62
7
  6
CONTINUOUS
 10
116.5651253999
 20
90.666601107
  0
VERTEX
 67
1
  8
13_KOMPONENTER
 62
7
  6
CONTINUOUS
 10
116.7688758956
 20
90.6457369951
  0
SEQEND
  0
LINE
 67
1
  8
13_KOMPONENTER
 62
7
  6
CONTINUOUS
 10
115.2029382347
 20
153.7957369942
 11
115.2029382347
 21
146.9202150471
  0
LINE
 67
1
  8
DEFAULT_1
 62
2
  6
CENTER
 10
115.3658959538
 20
133.4707369942
 11
115.3658959538
 21
130.2208369942
  0
LINE
 67
1
  8
0
 62
2
  6
CONTINUOUS
 10
115.3658959538
 20
129.2707369942
 11
115.3658959538
 21
127.1707369942
  0
LINE
 67
1
  8
DEFAULT_1
 62
2
  6
CENTER
 10
115.3658959538
 20
122.9707369942
 11
115.3658959538
 21
126.2206369942
  0
LINE
 67
1
  8
13_KOMPONENTER
 62
7
  6
CONTINUOUS
 10
115.5288536728
 20
102.6457369942
 11
115.5288536728
 21
109.521258814
  0
LINE
 67
1
  8
13_KOMPONENTER
 62
7
  6
CONTINUOUS
 10
117.7658661072
 20
110.6316633569
 11
117.7659034154
 21
104.2180054035
  0
LINE
 67
1
  8
DEFAULT_1
 62
2
  6
CENTER
 10
120.6158959538
 20
128.2207369942
 11
117.3659959538
 21
128.2207369942
  0
LINE
 67
1
  8
0
 62
2
  6
CONTINUOUS
 10
116.4158959538
 20
128.2207369942
 11
114.3158959538
 21
128.2207369942
  0
LINE
 67
1
  8
DEFAULT_1
 62
2
  6
CENTER
 10
110.1158959538
 20
128.2207369942
 11
113.3657959538
 21
128.2207369942
  0
POLYLINE
 67
1
  8
13_KOMPONENTER
 62
7
  6
CONTINUOUS
 66
1
 70
0
  0
VERTEX
 67
1
  8
13_KOMPONENTER
 62
7
  6
CONTINUOUS
 10
65.347037167
 20
145.9178223022
  0
VERTEX
 67
1
  8
13_KOMPONENTER
 62
7
  6
CONTINUOUS
 10
65.0835269821
 20
145.971998828
  0
VERTEX
 67
1
  8
13_KOMPONENTER
 62
7
  6
CONTINUOUS
 10
64.8386671265
 20
146.0942686228
  0
VERTEX
 67
1
  8
13_KOMPONENTER
 62
7
  6
CONTINUOUS
 10
64.65259444
 20
146.2589318462
  0
VERTEX
 67
1
  8
13_KOMPONENTER
 62
7
  6
CONTINUOUS
 10
64.5117261631
 20
146.4664863067
  0
VERTEX
 67
1
  8
13_KOMPONENTER
 62
7
  6
CONTINUOUS
 10
64.4270544238
 20
146.7018655011
  0
VERTEX
 67
1
  8
13_KOMPONENTER
 62
7
  6
CONTINUOUS
 10
64.4029397049
 20
146.9202150069
  0
SEQEND
  0
LINE
 67
1
  8
13_KOMPONENTER
 62
7
  6
CONTINUOUS
 10
127.9029382347
 20
109.5212587399
 11
127.9029382347
 21
102.6457369942
  0
LINE
 67
1
  8
13_KOMPONENTER
 62
7
  6
CONTINUOUS
 10
128.2288536728
 20
146.9202150938
 11
128.2288536728
 21
153.7957369942
  0
LINE
 67
1
  8
13_KOMPONENTER
 62
7
  6
CONTINUOUS
 10
125.6658959538
 20
104.2207369942
 11
125.6659258003
 21
110.6316633569
  0
LINE
 67
1
  8
13_KOMPONENTER
 62
7
  6
CONTINUOUS
 10
125.6658884921
 20
104.2180054035
 11
125.6658959538
 21
104.2207369942
  0
LINE
 67
1
  8
13_KOMPONENTER
 62
7
  6
CONTINUOUS
 10
130.4659034154
 20
152.2234685849
 11
130.4658959538
 21
145.8207369942
  0
LINE
 67
1
  8
13_KOMPONENTER
 62
7
  6
CONTINUOUS
 10
130.4658959538
 20
145.8207369942
 11
130.4658661072
 21
145.8098106315
  0
POLYLINE
 67
1
  8
13_KOMPONENTER
 62
7
  6
CONTINUOUS
 66
1
 70
0
  0
VERTEX
 67
1
  8
13_KOMPONENTER
 62
7
  6
CONTINUOUS
 10
128.2288521585
 20
146.9202150938
  0
VERTEX
 67
1
  8
13_KOMPONENTER
 62
7
  6
CONTINUOUS
 10
128.2042046443
 20
146.6994961538
  0
VERTEX
 67
1
  8
13_KOMPONENTER
 62
7
  6
CONTINUOUS
 10
128.1190308336
 20
146.4644578028
  0
VERTEX
 67
1
  8
13_KOMPONENTER
 62
7
  6
CONTINUOUS
 10
127.9777814835
 20
146.2573271575
  0
VERTEX
 67
1
  8
13_KOMPONENTER
 62
7
  6
CONTINUOUS
 10
127.7914714178
 20
146.0931398232
  0
VERTEX
 67
1
  8
13_KOMPONENTER
 62
7
  6
CONTINUOUS
 10
127.5456440154
 20
145.9711154534
  0
VERTEX
 67
1
  8
13_KOMPONENTER
 62
7
  6
CONTINUOUS
 10
127.2848368609
 20
145.917833181
  0
SEQEND
  0
POLYLINE
 67
1
  8
13_KOMPONENTER
 62
7
  6
CONTINUOUS
 66
1
 70
0
  0
VERTEX
 67
1
  8
13_KOMPONENTER
 62
7
  6
CONTINUOUS
 10
127.9029395868
 20
109.5212587399
  0
VERTEX
 67
1
  8
13_KOMPONENTER
 62
7
  6
CONTINUOUS
 10
127.927582385
 20
109.741956841
  0
VERTEX
 67
1
  8
13_KOMPONENTER
 62
7
  6
CONTINUOUS
 10
128.0127414187
 20
109.9769779127
  0
VERTEX
 67
1
  8
13_KOMPONENTER
 62
7
  6
CONTINUOUS
 10
128.1539678337
 20
110.1840986736
  0
VERTEX
 67
1
  8
13_KOMPONENTER
 62
7
  6
CONTINUOUS
 10
128.3402498245
 20
110.3482860485
  0
VERTEX
 67
1
  8
13_KOMPONENTER
 62
7
  6
CONTINUOUS
 10
128.5855192517
 20
110.470147339
  0
VERTEX
 67
1
  8
13_KOMPONENTER
 62
7
  6
CONTINUOUS
 10
128.8469378696
 20
110.5236380958
  0
SEQEND
  0
POLYLINE
 67
1
  8
13_KOMPONENTER
 62
7
  6
CONTINUOUS
 66
1
 70
0
  0
VERTEX
 67
1
  8
13_KOMPONENTER
 62
7
  6
CONTINUOUS
 10
178.0848365341
 20
145.917834827
  0
VERTEX
 67
1
  8
13_KOMPONENTER
 62
7
  6
CONTINUOUS
 10
178.0730130841
 20
145.9167006629
  0
VERTEX
 67
1
  8
13_KOMPONENTER
 62
7
  6
CONTINUOUS
 10
178.0640167498
 20
145.916438024
  0
SEQEND
  0
POLYLINE
 67
1
  8
13_KOMPONENTER
 62
7
  6
CONTINUOUS
 66
1
 70
0
  0
VERTEX
 67
1
  8
13_KOMPONENTER
 62
7
  6
CONTINUOUS
 10
90.7470371672
 20
145.9178223022
  0
VERTEX
 67
1
  8
13_KOMPONENTER
 62
7
  6
CONTINUOUS
 10
90.4835269759
 20
145.9719988301
  0
VERTEX
 67
1
  8
13_KOMPONENTER
 62
7
  6
CONTINUOUS
 10
90.238667126
 20
146.0942686231
  0
VERTEX
 67
1
  8
13_KOMPONENTER
 62
7
  6
CONTINUOUS
 10
90.0525944397
 20
146.2589318466
  0
VERTEX
 67
1
  8
13_KOMPONENTER
 62
7
  6
CONTINUOUS
 10
89.911726163
 20
146.466486307
  0
VERTEX
 67
1
  8
13_KOMPONENTER
 62
7
  6
CONTINUOUS
 10
89.8270544237
 20
146.7018655012
  0
VERTEX
 67
1
  8
13_KOMPONENTER
 62
7
  6
CONTINUOUS
 10
89.8029397049
 20
146.9202150069
  0
SEQEND
  0
POLYLINE
 67
1
  8
13_KOMPONENTER
 62
7
  6
CONTINUOUS
 66
1
 70
0
  0
VERTEX
 67
1
  8
13_KOMPONENTER
 62
7
  6
CONTINUOUS
 10
152.6848365336
 20
145.917834827
  0
VERTEX
 67
1
  8
13_KOMPONENTER
 62
7
  6
CONTINUOUS
 10
152.6730130839
 20
145.9167006629
  0
VERTEX
 67
1
  8
13_KOMPONENTER
 62
7
  6
CONTINUOUS
 10
152.6640167498
 20
145.916438024
  0
SEQEND
  0
POLYLINE
 67
1
  8
13_KOMPONENTER
 62
7
  6
CONTINUOUS
 66
1
 70
0
  0
VERTEX
 67
1
  8
13_KOMPONENTER
 62
7
  6
CONTINUOUS
 10
127.2848365341
 20
145.917834827
  0
VERTEX
 67
1
  8
13_KOMPONENTER
 62
7
  6
CONTINUOUS
 10
127.2730130841
 20
145.9167006629
  0
VERTEX
 67
1
  8
13_KOMPONENTER
 62
7
  6
CONTINUOUS
 10
127.2640167498
 20
145.916438024
  0
SEQEND
  0
LINE
 67
1
  8
13_KOMPONENTER
 62
7
  6
CONTINUOUS
 10
42.0858959538
 20
143.8207369942
 11
42.0831643631
 21
143.8207295326
  0
LINE
 67
1
  8
13_KOMPONENTER
 62
7
  6
CONTINUOUS
 10
179.2768223164
 20
143.8207668408
 11
165.7658959538
 21
143.8207369942
  0
LINE
 67
1
  8
13_KOMPONENTER
 62
7
  6
CONTINUOUS
 10
153.8768223164
 20
143.8207668408
 11
140.3658959538
 21
143.8207369942
  0
LINE
 67
1
  8
13_KOMPONENTER
 62
7
  6
CONTINUOUS
 10
128.4768223164
 20
143.8207668408
 11
114.9658959538
 21
143.8207369942
  0
LINE
 67
1
  8
13_KOMPONENTER
 62
7
  6
CONTINUOUS
 10
103.0768223164
 20
143.8207668408
 11
89.5658959538
 21
143.8207369942
  0
LINE
 67
1
  8
13_KOMPONENTER
 62
7
  6
CONTINUOUS
 10
77.6768223164
 20
143.8207668408
 11
64.1658959538
 21
143.8207369942
  0
LINE
 67
1
  8
13_KOMPONENTER
 62
7
  6
CONTINUOUS
 10
52.2768223164
 20
143.8207668408
 11
42.0858959538
 21
143.8207369942
  0
LINE
 67
1
  8
13_KOMPONENTER
 62
7
  6
CONTINUOUS
 10
40.3658959538
 20
145.9164383882
 11
51.0640167152
 21
145.9164383882
  0
LINE
 67
1
  8
13_KOMPONENTER
 62
7
  6
CONTINUOUS
 10
65.3677748447
 20
145.9164383882
 11
76.4640166989
 21
145.9164383882
  0
LINE
 67
1
  8
13_KOMPONENTER
 62
7
  6
CONTINUOUS
 10
90.7677748447
 20
145.9164383882
 11
101.8640166989
 21
145.9164383882
  0
LINE
 67
1
  8
13_KOMPONENTER
 62
7
  6
CONTINUOUS
 10
116.1677748447
 20
145.9164383882
 11
127.2640167498
 21
145.9164383882
  0
LINE
 67
1
  8
13_KOMPONENTER
 62
7
  6
CONTINUOUS
 10
141.5677748447
 20
145.9164383882
 11
152.6640167498
 21
145.9164383882
  0
LINE
 67
1
  8
13_KOMPONENTER
 62
7
  6
CONTINUOUS
 10
166.9677748447
 20
145.9164383882
 11
178.0640167498
 21
145.9164383882
  0
LINE
 67
1
  8
13_KOMPONENTER
 62
7
  6
CONTINUOUS
 10
64.1658959538
 20
143.8207369942
 11
64.1549695911
 21
143.8207668408
  0
LINE
 67
1
  8
13_KOMPONENTER
 62
7
  6
CONTINUOUS
 10
89.5658959538
 20
143.8207369942
 11
89.5549695911
 21
143.8207668408
  0
LINE
 67
1
  8
13_KOMPONENTER
 62
7
  6
CONTINUOUS
 10
114.9658959538
 20
143.8207369942
 11
114.9549695911
 21
143.8207668408
  0
LINE
 67
1
  8
13_KOMPONENTER
 62
7
  6
CONTINUOUS
 10
140.3658959538
 20
143.8207369942
 11
140.3549695911
 21
143.8207668408
  0
LINE
 67
1
  8
13_KOMPONENTER
 62
7
  6
CONTINUOUS
 10
165.7658959538
 20
143.8207369942
 11
165.7549695911
 21
143.8207668408
  0
POLYLINE
 67
1
  8
13_KOMPONENTER
 62
7
  6
CONTINUOUS
 66
1
 70
0
  0
VERTEX
 67
1
  8
13_KOMPONENTER
 62
7
  6
CONTINUOUS
 10
65.3677748451
 20
145.9164380281
  0
VERTEX
 67
1
  8
13_KOMPONENTER
 62
7
  6
CONTINUOUS
 10
65.3585743141
 20
145.9167125857
  0
VERTEX
 67
1
  8
13_KOMPONENTER
 62
7
  6
CONTINUOUS
 10
65.3470373861
 20
145.9178239635
  0
SEQEND
  0
POLYLINE
 67
1
  8
13_KOMPONENTER
 62
7
  6
CONTINUOUS
 66
1
 70
0
  0
VERTEX
 67
1
  8
13_KOMPONENTER
 62
7
  6
CONTINUOUS
 10
90.7677748451
 20
145.9164380281
  0
VERTEX
 67
1
  8
13_KOMPONENTER
 62
7
  6
CONTINUOUS
 10
90.7585743143
 20
145.9167125857
  0
VERTEX
 67
1
  8
13_KOMPONENTER
 62
7
  6
CONTINUOUS
 10
90.7470373864
 20
145.9178239635
  0
SEQEND
  0
POLYLINE
 67
1
  8
13_KOMPONENTER
 62
7
  6
CONTINUOUS
 66
1
 70
0
  0
VERTEX
 67
1
  8
13_KOMPONENTER
 62
7
  6
CONTINUOUS
 10
116.1677748451
 20
145.9164379957
  0
VERTEX
 67
1
  8
13_KOMPONENTER
 62
7
  6
CONTINUOUS
 10
116.1585898541
 20
145.9167117794
  0
VERTEX
 67
1
  8
13_KOMPONENTER
 62
7
  6
CONTINUOUS
 10
116.1470365851
 20
145.9178239946
  0
SEQEND
  0
POLYLINE
 67
1
  8
13_KOMPONENTER
 62
7
  6
CONTINUOUS
 66
1
 70
0
  0
VERTEX
 67
1
  8
13_KOMPONENTER
 62
7
  6
CONTINUOUS
 10
141.5677748451
 20
145.9164379957
  0
VERTEX
 67
1
  8
13_KOMPONENTER
 62
7
  6
CONTINUOUS
 10
141.558589854
 20
145.9167117794
  0
VERTEX
 67
1
  8
13_KOMPONENTER
 62
7
  6
CONTINUOUS
 10
141.5470365849
 20
145.9178239946
  0
SEQEND
  0
POLYLINE
 67
1
  8
13_KOMPONENTER
 62
7
  6
CONTINUOUS
 66
1
 70
0
  0
VERTEX
 67
1
  8
13_KOMPONENTER
 62
7
  6
CONTINUOUS
 10
166.9677748451
 20
145.9164379957
  0
VERTEX
 67
1
  8
13_KOMPONENTER
 62
7
  6
CONTINUOUS
 10
166.9585898541
 20
145.9167117794
  0
VERTEX
 67
1
  8
13_KOMPONENTER
 62
7
  6
CONTINUOUS
 10
166.9470365851
 20
145.9178239946
  0
SEQEND
  0
POLYLINE
 67
1
  8
13_KOMPONENTER
 62
7
  6
CONTINUOUS
 66
1
 70
0
  0
VERTEX
 67
1
  8
13_KOMPONENTER
 62
7
  6
CONTINUOUS
 10
116.1470363819
 20
145.9178224542
  0
VERTEX
 67
1
  8
13_KOMPONENTER
 62
7
  6
CONTINUOUS
 10
115.8835462243
 20
145.9719923045
  0
VERTEX
 67
1
  8
13_KOMPONENTER
 62
7
  6
CONTINUOUS
 10
115.6386692585
 20
146.0942671698
  0
VERTEX
 67
1
  8
13_KOMPONENTER
 62
7
  6
CONTINUOUS
 10
115.4525951716
 20
146.258931014
  0
VERTEX
 67
1
  8
13_KOMPONENTER
 62
7
  6
CONTINUOUS
 10
115.3117271899
 20
146.4664842994
  0
VERTEX
 67
1
  8
13_KOMPONENTER
 62
7
  6
CONTINUOUS
 10
115.2270563403
 20
146.7018570646
  0
VERTEX
 67
1
  8
13_KOMPONENTER
 62
7
  6
CONTINUOUS
 10
115.2029397623
 20
146.9202149837
  0
SEQEND
  0
LINE
 67
1
  8
13_KOMPONENTER
 62
7
  6
CONTINUOUS
 10
138.3658959538
 20
152.2207369942
 11
138.3658884921
 21
152.2234685849
  0
POLYLINE
 67
1
  8
13_KOMPONENTER
 62
7
  6
CONTINUOUS
 66
1
 70
0
  0
VERTEX
 67
1
  8
13_KOMPONENTER
 62
7
  6
CONTINUOUS
 10
140.6029382321
 20
153.7957369942
  0
VERTEX
 67
1
  8
13_KOMPONENTER
 62
7
  6
CONTINUOUS
 10
140.6018948579
 20
154.8213021288
  0
VERTEX
 67
1
  8
13_KOMPONENTER
 62
7
  6
CONTINUOUS
 10
140.598909709
 20
155.8046599698
  0
VERTEX
 67
1
  8
13_KOMPONENTER
 62
7
  6
CONTINUOUS
 10
140.5943334172
 20
156.7176857845
  0
VERTEX
 67
1
  8
13_KOMPONENTER
 62
7
  6
CONTINUOUS
 10
140.5884620716
 20
157.5620696238
  0
VERTEX
 67
1
  8
13_KOMPONENTER
 62
7
  6
CONTINUOUS
 10
140.5815380018
 20
158.3410297526
  0
VERTEX
 67
1
  8
13_KOMPONENTER
 62
7
  6
CONTINUOUS
 10
140.5737584675
 20
159.0582844915
  0
VERTEX
 67
1
  8
13_KOMPONENTER
 62
7
  6
CONTINUOUS
 10
140.5652955032
 20
159.7168231051
  0
VERTEX
 67
1
  8
13_KOMPONENTER
 62
7
  6
CONTINUOUS
 10
140.5562929608
 20
160.3198868036
  0
VERTEX
 67
1
  8
13_KOMPONENTER
 62
7
  6
CONTINUOUS
 10
140.5468695594
 20
160.8708592593
  0
VERTEX
 67
1
  8
13_KOMPONENTER
 62
7
  6
CONTINUOUS
 10
140.5371287889
 20
161.372819234
  0
VERTEX
 67
1
  8
13_KOMPONENTER
 62
7
  6
CONTINUOUS
 10
140.5271558848
 20
161.828885013
  0
VERTEX
 67
1
  8
13_KOMPONENTER
 62
7
  6
CONTINUOUS
 10
140.5170181087
 20
162.2422077103
  0
VERTEX
 67
1
  8
13_KOMPONENTER
 62
7
  6
CONTINUOUS
 10
140.5067676659
 20
162.6158433974
  0
VERTEX
 67
1
  8
13_KOMPONENTER
 62
7
  6
CONTINUOUS
 10
140.4964428746
 20
162.9527211274
  0
VERTEX
 67
1
  8
13_KOMPONENTER
 62
7
  6
CONTINUOUS
 10
140.4860680683
 20
163.2556433628
  0
VERTEX
 67
1
  8
13_KOMPONENTER
 62
7
  6
CONTINUOUS
 10
140.4756560389
 20
163.5272036105
  0
VERTEX
 67
1
  8
13_KOMPONENTER
 62
7
  6
CONTINUOUS
 10
140.465239674
 20
163.7690995014
  0
VERTEX
 67
1
  8
13_KOMPONENTER
 62
7
  6
CONTINUOUS
 10
140.4548670871
 20
163.9826200623
  0
VERTEX
 67
1
  8
13_KOMPONENTER
 62
7
  6
CONTINUOUS
 10
140.4445732718
 20
164.1693755511
  0
VERTEX
 67
1
  8
13_KOMPONENTER
 62
7
  6
CONTINUOUS
 10
140.4343716432
 20
164.3313224953
  0
VERTEX
 67
1
  8
13_KOMPONENTER
 62
7
  6
CONTINUOUS
 10
140.4242552464
 20
164.4705936084
  0
VERTEX
 67
1
  8
13_KOMPONENTER
 62
7
  6
CONTINUOUS
 10
140.4142105922
 20
164.589256131
  0
VERTEX
 67
1
  8
13_KOMPONENTER
 62
7
  6
CONTINUOUS
 10
140.4041212194
 20
164.6902995185
  0
VERTEX
 67
1
  8
13_KOMPONENTER
 62
7
  6
CONTINUOUS
 10
140.3936110168
 20
164.7781985244
  0
VERTEX
 67
1
  8
13_KOMPONENTER
 62
7
  6
CONTINUOUS
 10
140.381914168
 20
164.8582785383
  0
VERTEX
 67
1
  8
13_KOMPONENTER
 62
7
  6
CONTINUOUS
 10
140.3676161017
 20
164.9363926704
  0
VERTEX
 67
1
  8
13_KOMPONENTER
 62
7
  6
CONTINUOUS
 10
140.3475306302
 20
165.0212121675
  0
VERTEX
 67
1
  8
13_KOMPONENTER
 62
7
  6
CONTINUOUS
 10
140.3138711067
 20
165.1264623304
  0
VERTEX
 67
1
  8
13_KOMPONENTER
 62
7
  6
CONTINUOUS
 10
140.2539966016
 20
165.2591597729
  0
VERTEX
 67
1
  8
13_KOMPONENTER
 62
7
  6
CONTINUOUS
 10
140.1591356742
 20
165.4051770595
  0
VERTEX
 67
1
  8
13_KOMPONENTER
 62
7
  6
CONTINUOUS
 10
140.0164831953
 20
165.5545355171
  0
VERTEX
 67
1
  8
13_KOMPONENTER
 62
7
  6
CONTINUOUS
 10
139.8131602367
 20
165.6893038978
  0
VERTEX
 67
1
  8
13_KOMPONENTER
 62
7
  6
CONTINUOUS
 10
139.5666665077
 20
165.7748728814
  0
VERTEX
 67
1
  8
13_KOMPONENTER
 62
7
  6
CONTINUOUS
 10
139.3629160119
 20
165.7957369933
  0
SEQEND
  0
POLYLINE
 67
1
  8
13_KOMPONENTER
 62
7
  6
CONTINUOUS
 66
1
 70
0
  0
VERTEX
 67
1
  8
13_KOMPONENTER
 62
7
  6
CONTINUOUS
 10
140.9288536754
 20
102.6457369942
  0
VERTEX
 67
1
  8
13_KOMPONENTER
 62
7
  6
CONTINUOUS
 10
140.9298970497
 20
101.6201718597
  0
VERTEX
 67
1
  8
13_KOMPONENTER
 62
7
  6
CONTINUOUS
 10
140.9328821985
 20
100.6368140187
  0
VERTEX
 67
1
  8
13_KOMPONENTER
 62
7
  6
CONTINUOUS
 10
140.9374584903
 20
99.7237882039
  0
VERTEX
 67
1
  8
13_KOMPONENTER
 62
7
  6
CONTINUOUS
 10
140.943329836
 20
98.8794043646
  0
VERTEX
 67
1
  8
13_KOMPONENTER
 62
7
  6
CONTINUOUS
 10
140.9502539057
 20
98.1004442358
  0
VERTEX
 67
1
  8
13_KOMPONENTER
 62
7
  6
CONTINUOUS
 10
140.95803344
 20
97.3831894969
  0
VERTEX
 67
1
  8
13_KOMPONENTER
 62
7
  6
CONTINUOUS
 10
140.9664964044
 20
96.7246508833
  0
VERTEX
 67
1
  8
13_KOMPONENTER
 62
7
  6
CONTINUOUS
 10
140.9754989468
 20
96.1215871849
  0
VERTEX
 67
1
  8
13_KOMPONENTER
 62
7
  6
CONTINUOUS
 10
140.9849223481
 20
95.5706147292
  0
VERTEX
 67
1
  8
13_KOMPONENTER
 62
7
  6
CONTINUOUS
 10
140.9946631186
 20
95.0686547544
  0
VERTEX
 67
1
  8
13_KOMPONENTER
 62
7
  6
CONTINUOUS
 10
141.0046360227
 20
94.6125889754
  0
VERTEX
 67
1
  8
13_KOMPONENTER
 62
7
  6
CONTINUOUS
 10
141.0147737988
 20
94.1992662782
  0
VERTEX
 67
1
  8
13_KOMPONENTER
 62
7
  6
CONTINUOUS
 10
141.0250242416
 20
93.825630591
  0
VERTEX
 67
1
  8
13_KOMPONENTER
 62
7
  6
CONTINUOUS
 10
141.0353490329
 20
93.4887528611
  0
VERTEX
 67
1
  8
13_KOMPONENTER
 62
7
  6
CONTINUOUS
 10
141.0457238392
 20
93.1858306256
  0
VERTEX
 67
1
  8
13_KOMPONENTER
 62
7
  6
CONTINUOUS
 10
141.0561358687
 20
92.914270378
  0
VERTEX
 67
1
  8
13_KOMPONENTER
 62
7
  6
CONTINUOUS
 10
141.0665522336
 20
92.672374487
  0
VERTEX
 67
1
  8
13_KOMPONENTER
 62
7
  6
CONTINUOUS
 10
141.0769248204
 20
92.4588539261
  0
VERTEX
 67
1
  8
13_KOMPONENTER
 62
7
  6
CONTINUOUS
 10
141.0872186357
 20
92.2720984373
  0
VERTEX
 67
1
  8
13_KOMPONENTER
 62
7
  6
CONTINUOUS
 10
141.0974202643
 20
92.1101514931
  0
VERTEX
 67
1
  8
13_KOMPONENTER
 62
7
  6
CONTINUOUS
 10
141.1075366611
 20
91.9708803801
  0
VERTEX
 67
1
  8
13_KOMPONENTER
 62
7
  6
CONTINUOUS
 10
141.1175813153
 20
91.8522178574
  0
VERTEX
 67
1
  8
13_KOMPONENTER
 62
7
  6
CONTINUOUS
 10
141.1276706881
 20
91.7511744699
  0
VERTEX
 67
1
  8
13_KOMPONENTER
 62
7
  6
CONTINUOUS
 10
141.1381808907
 20
91.6632754641
  0
VERTEX
 67
1
  8
13_KOMPONENTER
 62
7
  6
CONTINUOUS
 10
141.1498777395
 20
91.5831954501
  0
VERTEX
 67
1
  8
13_KOMPONENTER
 62
7
  6
CONTINUOUS
 10
141.1641758059
 20
91.505081318
  0
VERTEX
 67
1
  8
13_KOMPONENTER
 62
7
  6
CONTINUOUS
 10
141.1842612773
 20
91.420261821
  0
VERTEX
 67
1
  8
13_KOMPONENTER
 62
7
  6
CONTINUOUS
 10
141.2179208008
 20
91.315011658
  0
VERTEX
 67
1
  8
13_KOMPONENTER
 62
7
  6
CONTINUOUS
 10
141.2777953059
 20
91.1823142155
  0
VERTEX
 67
1
  8
13_KOMPONENTER
 62
7
  6
CONTINUOUS
 10
141.3726562333
 20
91.0362969289
  0
VERTEX
 67
1
  8
13_KOMPONENTER
 62
7
  6
CONTINUOUS
 10
141.5153087122
 20
90.8869384713
  0
VERTEX
 67
1
  8
13_KOMPONENTER
 62
7
  6
CONTINUOUS
 10
141.7186316708
 20
90.7521700906
  0
VERTEX
 67
1
  8
13_KOMPONENTER
 62
7
  6
CONTINUOUS
 10
141.9651253999
 20
90.666601107
  0
VERTEX
 67
1
  8
13_KOMPONENTER
 62
7
  6
CONTINUOUS
 10
142.1688758956
 20
90.6457369951
  0
SEQEND
  0
LINE
 67
1
  8
13_KOMPONENTER
 62
7
  6
CONTINUOUS
 10
138.3659258003
 20
145.8098106315
 11
138.3658959538
 21
152.2207369942
  0
LINE
 67
1
  8
13_KOMPONENTER
 62
7
  6
CONTINUOUS
 10
140.6029382347
 20
153.7957369942
 11
140.6029382347
 21
146.920215047
  0
LINE
 67
1
  8
13_KOMPONENTER
 62
7
  6
CONTINUOUS
 10
140.9288536728
 20
102.6457369942
 11
140.9288536728
 21
109.521258814
  0
LINE
 67
1
  8
13_KOMPONENTER
 62
7
  6
CONTINUOUS
 10
143.1658661072
 20
110.6316633569
 11
143.1659034154
 21
104.2180054035
  0
POLYLINE
 67
1
  8
13_KOMPONENTER
 62
7
  6
CONTINUOUS
 66
1
 70
0
  0
VERTEX
 67
1
  8
13_KOMPONENTER
 62
7
  6
CONTINUOUS
 10
101.8848318905
 20
145.9178341901
  0
VERTEX
 67
1
  8
13_KOMPONENTER
 62
7
  6
CONTINUOUS
 10
101.873024408
 20
145.9167012409
  0
VERTEX
 67
1
  8
13_KOMPONENTER
 62
7
  6
CONTINUOUS
 10
101.864016699
 20
145.9164379993
  0
SEQEND
  0
POLYLINE
 67
1
  8
13_KOMPONENTER
 62
7
  6
CONTINUOUS
 66
1
 70
0
  0
VERTEX
 67
1
  8
13_KOMPONENTER
 62
7
  6
CONTINUOUS
 10
76.4848318901
 20
145.91783419
  0
VERTEX
 67
1
  8
13_KOMPONENTER
 62
7
  6
CONTINUOUS
 10
76.4730244078
 20
145.9167012409
  0
VERTEX
 67
1
  8
13_KOMPONENTER
 62
7
  6
CONTINUOUS
 10
76.464016699
 20
145.9164379993
  0
SEQEND
  0
POLYLINE
 67
1
  8
13_KOMPONENTER
 62
7
  6
CONTINUOUS
 66
1
 70
0
  0
VERTEX
 67
1
  8
13_KOMPONENTER
 62
7
  6
CONTINUOUS
 10
51.0848318905
 20
145.9178341901
  0
VERTEX
 67
1
  8
13_KOMPONENTER
 62
7
  6
CONTINUOUS
 10
51.0730244138
 20
145.9167012413
  0
VERTEX
 67
1
  8
13_KOMPONENTER
 62
7
  6
CONTINUOUS
 10
51.0640167152
 20
145.9164379993
  0
SEQEND
  0
LINE
 67
1
  8
13_KOMPONENTER
 62
7
  6
CONTINUOUS
 10
188.6458959538
 20
152.7207369942
 11
181.7631643631
 21
152.7207295326
  0
LINE
 67
1
  8
13_KOMPONENTER
 62
7
  6
CONTINUOUS
 10
163.2658959538
 20
152.7207369942
 11
156.3631643631
 21
152.7207295326
  0
LINE
 67
1
  8
13_KOMPONENTER
 62
7
  6
CONTINUOUS
 10
137.8658959538
 20
152.7207369942
 11
130.9631643631
 21
152.7207295326
  0
LINE
 67
1
  8
13_KOMPONENTER
 62
7
  6
CONTINUOUS
 10
112.4658959538
 20
152.7207369942
 11
105.5631643631
 21
152.7207295326
  0
LINE
 67
1
  8
13_KOMPONENTER
 62
7
  6
CONTINUOUS
 10
87.0658959538
 20
152.7207369942
 11
80.1631643631
 21
152.7207295326
  0
LINE
 67
1
  8
13_KOMPONENTER
 62
7
  6
CONTINUOUS
 10
61.6658959538
 20
152.7207369942
 11
54.7631643631
 21
152.7207295326
  0
LINE
 67
1
  8
13_KOMPONENTER
 62
7
  6
CONTINUOUS
 10
61.6686275444
 20
152.7207295326
 11
61.6658959538
 21
152.7207369942
  0
LINE
 67
1
  8
13_KOMPONENTER
 62
7
  6
CONTINUOUS
 10
87.0686275444
 20
152.7207295326
 11
87.0658959538
 21
152.7207369942
  0
LINE
 67
1
  8
13_KOMPONENTER
 62
7
  6
CONTINUOUS
 10
112.4686275444
 20
152.7207295326
 11
112.4658959538
 21
152.7207369942
  0
LINE
 67
1
  8
13_KOMPONENTER
 62
7
  6
CONTINUOUS
 10
137.8686275444
 20
152.7207295326
 11
137.8658959538
 21
152.7207369942
  0
LINE
 67
1
  8
13_KOMPONENTER
 62
7
  6
CONTINUOUS
 10
163.2686275444
 20
152.7207295326
 11
163.2658959538
 21
152.7207369942
  0
LINE
 67
1
  8
13_KOMPONENTER
 62
7
  6
CONTINUOUS
 10
188.6486275444
 20
152.7207295326
 11
188.6458959538
 21
152.7207369942
  0
POLYLINE
 67
1
  8
13_KOMPONENTER
 62
7
  6
CONTINUOUS
 66
1
 70
0
  0
VERTEX
 67
1
  8
13_KOMPONENTER
 62
7
  6
CONTINUOUS
 10
141.5470363817
 20
145.9178224542
  0
VERTEX
 67
1
  8
13_KOMPONENTER
 62
7
  6
CONTINUOUS
 10
141.2835462296
 20
145.9719923027
  0
VERTEX
 67
1
  8
13_KOMPONENTER
 62
7
  6
CONTINUOUS
 10
141.0386692588
 20
146.0942671696
  0
VERTEX
 67
1
  8
13_KOMPONENTER
 62
7
  6
CONTINUOUS
 10
140.8525951718
 20
146.2589310138
  0
VERTEX
 67
1
  8
13_KOMPONENTER
 62
7
  6
CONTINUOUS
 10
140.71172719
 20
146.4664842993
  0
VERTEX
 67
1
  8
13_KOMPONENTER
 62
7
  6
CONTINUOUS
 10
140.6270563403
 20
146.7018570645
  0
VERTEX
 67
1
  8
13_KOMPONENTER
 62
7
  6
CONTINUOUS
 10
140.6029397623
 20
146.9202149837
  0
SEQEND
  0
POLYLINE
 67
1
  8
13_KOMPONENTER
 62
7
  6
CONTINUOUS
 66
1
 70
0
  0
VERTEX
 67
1
  8
13_KOMPONENTER
 62
7
  6
CONTINUOUS
 10
40.3658959538
 20
145.9164383882
  0
VERTEX
 67
1
  8
13_KOMPONENTER
 62
7
  6
CONTINUOUS
 10
40.1256388903
 20
145.8871476874
  0
VERTEX
 67
1
  8
13_KOMPONENTER
 62
7
  6
CONTINUOUS
 10
39.9003201035
 20
145.8014463699
  0
VERTEX
 67
1
  8
13_KOMPONENTER
 62
7
  6
CONTINUOUS
 10
39.7023864896
 20
145.6646062778
  0
VERTEX
 67
1
  8
13_KOMPONENTER
 62
7
  6
CONTINUOUS
 10
39.6174253706
 20
145.5796063806
  0
VERTEX
 67
1
  8
13_KOMPONENTER
 62
7
  6
CONTINUOUS
 10
39.4807718907
 20
145.3817935139
  0
VERTEX
 67
1
  8
13_KOMPONENTER
 62
7
  6
CONTINUOUS
 10
39.3951345928
 20
145.1564850089
  0
VERTEX
 67
1
  8
13_KOMPONENTER
 62
7
  6
CONTINUOUS
 10
39.3658959538
 20
144.9164383882
  0
SEQEND
  0
POLYLINE
 67
1
  8
13_KOMPONENTER
 62
7
  6
CONTINUOUS
 66
1
 70
0
  0
VERTEX
 67
1
  8
13_KOMPONENTER
 62
7
  6
CONTINUOUS
 10
180.2688759442
 20
165.7957369933
  0
VERTEX
 67
1
  8
13_KOMPONENTER
 62
7
  6
CONTINUOUS
 10
180.0619087788
 20
165.7742016858
  0
VERTEX
 67
1
  8
13_KOMPONENTER
 62
7
  6
CONTINUOUS
 10
179.8141450432
 20
165.6870440141
  0
VERTEX
 67
1
  8
13_KOMPONENTER
 62
7
  6
CONTINUOUS
 10
179.609026564
 20
165.5491304415
  0
VERTEX
 67
1
  8
13_KOMPONENTER
 62
7
  6
CONTINUOUS
 10
179.4641417906
 20
165.3940690646
  0
VERTEX
 67
1
  8
13_KOMPONENTER
 62
7
  6
CONTINUOUS
 10
179.3727082633
 20
165.2495527052
  0
VERTEX
 67
1
  8
13_KOMPONENTER
 62
7
  6
CONTINUOUS
 10
179.3175867011
 20
165.1255655065
  0
VERTEX
 67
1
  8
13_KOMPONENTER
 62
7
  6
CONTINUOUS
 10
179.2848600963
 20
165.0234183524
  0
VERTEX
 67
1
  8
13_KOMPONENTER
 62
7
  6
CONTINUOUS
 10
179.264682441
 20
164.9388418326
  0
VERTEX
 67
1
  8
13_KOMPONENTER
 62
7
  6
CONTINUOUS
 10
179.250604636
 20
164.8627233512
  0
VERTEX
 67
1
  8
13_KOMPONENTER
 62
7
  6
CONTINUOUS
 10
179.2394251211
 20
164.7875440326
  0
VERTEX
 67
1
  8
13_KOMPONENTER
 62
7
  6
CONTINUOUS
 10
179.2295796074
 20
164.7075146765
  0
VERTEX
 67
1
  8
13_KOMPONENTER
 62
7
  6
CONTINUOUS
 10
179.2203360043
 20
164.6185786423
  0
VERTEX
 67
1
  8
13_KOMPONENTER
 62
7
  6
CONTINUOUS
 10
179.2113365466
 20
164.5177047994
  0
VERTEX
 67
1
  8
13_KOMPONENTER
 62
7
  6
CONTINUOUS
 10
179.2023689189
 20
164.4020170052
  0
VERTEX
 67
1
  8
13_KOMPONENTER
 62
7
  6
CONTINUOUS
 10
179.1933053798
 20
164.2686779471
  0
VERTEX
 67
1
  8
13_KOMPONENTER
 62
7
  6
CONTINUOUS
 10
179.1840911321
 20
164.1151840395
  0
VERTEX
 67
1
  8
13_KOMPONENTER
 62
7
  6
CONTINUOUS
 10
179.1747287836
 20
163.9395953836
  0
VERTEX
 67
1
  8
13_KOMPONENTER
 62
7
  6
CONTINUOUS
 10
179.1652407899
 20
163.7402016553
  0
VERTEX
 67
1
  8
13_KOMPONENTER
 62
7
  6
CONTINUOUS
 10
179.1556607788
 20
163.5154792599
  0
VERTEX
 67
1
  8
13_KOMPONENTER
 62
7
  6
CONTINUOUS
 10
179.146000543
 20
163.2632671742
  0
VERTEX
 67
1
  8
13_KOMPONENTER
 62
7
  6
CONTINUOUS
 10
179.1362540442
 20
162.9805111496
  0
VERTEX
 67
1
  8
13_KOMPONENTER
 62
7
  6
CONTINUOUS
 10
179.1264280802
 20
162.6638685345
  0
VERTEX
 67
1
  8
13_KOMPONENTER
 62
7
  6
CONTINUOUS
 10
179.1165411524
 20
162.3096342425
  0
VERTEX
 67
1
  8
13_KOMPONENTER
 62
7
  6
CONTINUOUS
 10
179.106621427
 20
161.9135689816
  0
VERTEX
 67
1
  8
13_KOMPONENTER
 62
7
  6
CONTINUOUS
 10
179.0967159996
 20
161.471126564
  0
VERTEX
 67
1
  8
13_KOMPONENTER
 62
7
  6
CONTINUOUS
 10
179.0869016314
 20
160.9779324445
  0
VERTEX
 67
1
  8
13_KOMPONENTER
 62
7
  6
CONTINUOUS
 10
179.0772909216
 20
160.4303422028
  0
VERTEX
 67
1
  8
13_KOMPONENTER
 62
7
  6
CONTINUOUS
 10
179.0680195001
 20
159.8250720473
  0
VERTEX
 67
1
  8
13_KOMPONENTER
 62
7
  6
CONTINUOUS
 10
179.0592471969
 20
159.1594198006
  0
VERTEX
 67
1
  8
13_KOMPONENTER
 62
7
  6
CONTINUOUS
 10
179.0511571748
 20
158.431411917
  0
VERTEX
 67
1
  8
13_KOMPONENTER
 62
7
  6
CONTINUOUS
 10
179.0439515655
 20
157.6395400247
  0
VERTEX
 67
1
  8
13_KOMPONENTER
 62
7
  6
CONTINUOUS
 10
179.03783777
 20
156.7801912709
  0
VERTEX
 67
1
  8
13_KOMPONENTER
 62
7
  6
CONTINUOUS
 10
179.0330649758
 20
155.8493357691
  0
VERTEX
 67
1
  8
13_KOMPONENTER
 62
7
  6
CONTINUOUS
 10
179.0299449203
 20
154.8445126293
  0
VERTEX
 67
1
  8
13_KOMPONENTER
 62
7
  6
CONTINUOUS
 10
179.0288536754
 20
153.7957369942
  0
SEQEND
  0
LINE
 67
1
  8
DEFAULT_1
 62
2
  6
CENTER
 10
50.1513535799
 20
153.6207369942
 11
193.3658959538
 21
153.6207369942
  0
POLYLINE
 67
1
  8
13_KOMPONENTER
 62
7
  6
CONTINUOUS
 66
1
 70
0
  0
VERTEX
 67
1
  8
13_KOMPONENTER
 62
7
  6
CONTINUOUS
 10
166.9470363819
 20
145.9178224542
  0
VERTEX
 67
1
  8
13_KOMPONENTER
 62
7
  6
CONTINUOUS
 10
166.6835462243
 20
145.9719923045
  0
VERTEX
 67
1
  8
13_KOMPONENTER
 62
7
  6
CONTINUOUS
 10
166.4386692585
 20
146.0942671698
  0
VERTEX
 67
1
  8
13_KOMPONENTER
 62
7
  6
CONTINUOUS
 10
166.2525951716
 20
146.258931014
  0
VERTEX
 67
1
  8
13_KOMPONENTER
 62
7
  6
CONTINUOUS
 10
166.1117271899
 20
146.4664842994
  0
VERTEX
 67
1
  8
13_KOMPONENTER
 62
7
  6
CONTINUOUS
 10
166.0270563403
 20
146.7018570646
  0
VERTEX
 67
1
  8
13_KOMPONENTER
 62
7
  6
CONTINUOUS
 10
166.0029397623
 20
146.9202149837
  0
SEQEND
  0
LINE
 67
1
  8
13_KOMPONENTER
 62
7
  6
CONTINUOUS
 10
153.3029382347
 20
109.5212587399
 11
153.3029382347
 21
102.6457369942
  0
LINE
 67
1
  8
13_KOMPONENTER
 62
7
  6
CONTINUOUS
 10
153.6288536728
 20
146.9202150937
 11
153.6288536728
 21
153.7957369942
  0
LINE
 67
1
  8
13_KOMPONENTER
 62
7
  6
CONTINUOUS
 10
151.0658959538
 20
104.2207369942
 11
151.0659258003
 21
110.6316633569
  0
LINE
 67
1
  8
13_KOMPONENTER
 62
7
  6
CONTINUOUS
 10
151.0658884921
 20
104.2180054035
 11
151.0658959538
 21
104.2207369942
  0
LINE
 67
1
  8
13_KOMPONENTER
 62
7
  6
CONTINUOUS
 10
155.8659034154
 20
152.2234685849
 11
155.8658959538
 21
145.8207369942
  0
LINE
 67
1
  8
13_KOMPONENTER
 62
7
  6
CONTINUOUS
 10
155.8658959538
 20
145.8207369942
 11
155.8658661072
 21
145.8098106315
  0
POLYLINE
 67
1
  8
13_KOMPONENTER
 62
7
  6
CONTINUOUS
 66
1
 70
0
  0
VERTEX
 67
1
  8
13_KOMPONENTER
 62
7
  6
CONTINUOUS
 10
153.6288521585
 20
146.9202150937
  0
VERTEX
 67
1
  8
13_KOMPONENTER
 62
7
  6
CONTINUOUS
 10
153.6042046442
 20
146.6994961535
  0
VERTEX
 67
1
  8
13_KOMPONENTER
 62
7
  6
CONTINUOUS
 10
153.5190308333
 20
146.4644578024
  0
VERTEX
 67
1
  8
13_KOMPONENTER
 62
7
  6
CONTINUOUS
 10
153.377781483
 20
146.257327157
  0
VERTEX
 67
1
  8
13_KOMPONENTER
 62
7
  6
CONTINUOUS
 10
153.191471417
 20
146.0931398227
  0
VERTEX
 67
1
  8
13_KOMPONENTER
 62
7
  6
CONTINUOUS
 10
152.9456440081
 20
145.971115451
  0
VERTEX
 67
1
  8
13_KOMPONENTER
 62
7
  6
CONTINUOUS
 10
152.6848368605
 20
145.917833181
  0
SEQEND
  0
POLYLINE
 67
1
  8
13_KOMPONENTER
 62
7
  6
CONTINUOUS
 66
1
 70
0
  0
VERTEX
 67
1
  8
13_KOMPONENTER
 62
7
  6
CONTINUOUS
 10
153.3029395868
 20
109.5212587399
  0
VERTEX
 67
1
  8
13_KOMPONENTER
 62
7
  6
CONTINUOUS
 10
153.3275823851
 20
109.7419568413
  0
VERTEX
 67
1
  8
13_KOMPONENTER
 62
7
  6
CONTINUOUS
 10
153.4127414189
 20
109.9769779131
  0
VERTEX
 67
1
  8
13_KOMPONENTER
 62
7
  6
CONTINUOUS
 10
153.5539678342
 20
110.1840986742
  0
VERTEX
 67
1
  8
13_KOMPONENTER
 62
7
  6
CONTINUOUS
 10
153.7402498252
 20
110.348286049
  0
VERTEX
 67
1
  8
13_KOMPONENTER
 62
7
  6
CONTINUOUS
 10
153.9855192582
 20
110.4701473412
  0
VERTEX
 67
1
  8
13_KOMPONENTER
 62
7
  6
CONTINUOUS
 10
154.2469378697
 20
110.5236380958
  0
SEQEND
  0
POLYLINE
 67
1
  8
13_KOMPONENTER
 62
7
  6
CONTINUOUS
 66
1
 70
0
  0
VERTEX
 67
1
  8
13_KOMPONENTER
 62
7
  6
CONTINUOUS
 10
154.8688759442
 20
165.7957369933
  0
VERTEX
 67
1
  8
13_KOMPONENTER
 62
7
  6
CONTINUOUS
 10
154.6619087788
 20
165.7742016858
  0
VERTEX
 67
1
  8
13_KOMPONENTER
 62
7
  6
CONTINUOUS
 10
154.4141450432
 20
165.6870440141
  0
VERTEX
 67
1
  8
13_KOMPONENTER
 62
7
  6
CONTINUOUS
 10
154.209026564
 20
165.5491304415
  0
VERTEX
 67
1
  8
13_KOMPONENTER
 62
7
  6
CONTINUOUS
 10
154.0641417906
 20
165.3940690646
  0
VERTEX
 67
1
  8
13_KOMPONENTER
 62
7
  6
CONTINUOUS
 10
153.9727082633
 20
165.2495527052
  0
VERTEX
 67
1
  8
13_KOMPONENTER
 62
7
  6
CONTINUOUS
 10
153.9175867011
 20
165.1255655065
  0
VERTEX
 67
1
  8
13_KOMPONENTER
 62
7
  6
CONTINUOUS
 10
153.8848600963
 20
165.0234183524
  0
VERTEX
 67
1
  8
13_KOMPONENTER
 62
7
  6
CONTINUOUS
 10
153.864682441
 20
164.9388418326
  0
VERTEX
 67
1
  8
13_KOMPONENTER
 62
7
  6
CONTINUOUS
 10
153.850604636
 20
164.8627233512
  0
VERTEX
 67
1
  8
13_KOMPONENTER
 62
7
  6
CONTINUOUS
 10
153.8394251211
 20
164.7875440326
  0
VERTEX
 67
1
  8
13_KOMPONENTER
 62
7
  6
CONTINUOUS
 10
153.8295796074
 20
164.7075146765
  0
VERTEX
 67
1
  8
13_KOMPONENTER
 62
7
  6
CONTINUOUS
 10
153.8203360043
 20
164.6185786423
  0
VERTEX
 67
1
  8
13_KOMPONENTER
 62
7
  6
CONTINUOUS
 10
153.8113365466
 20
164.5177047994
  0
VERTEX
 67
1
  8
13_KOMPONENTER
 62
7
  6
CONTINUOUS
 10
153.8023689189
 20
164.4020170052
  0
VERTEX
 67
1
  8
13_KOMPONENTER
 62
7
  6
CONTINUOUS
 10
153.7933053798
 20
164.2686779471
  0
VERTEX
 67
1
  8
13_KOMPONENTER
 62
7
  6
CONTINUOUS
 10
153.7840911321
 20
164.1151840395
  0
VERTEX
 67
1
  8
13_KOMPONENTER
 62
7
  6
CONTINUOUS
 10
153.7747287836
 20
163.9395953836
  0
VERTEX
 67
1
  8
13_KOMPONENTER
 62
7
  6
CONTINUOUS
 10
153.7652407899
 20
163.7402016553
  0
VERTEX
 67
1
  8
13_KOMPONENTER
 62
7
  6
CONTINUOUS
 10
153.7556607788
 20
163.5154792599
  0
VERTEX
 67
1
  8
13_KOMPONENTER
 62
7
  6
CONTINUOUS
 10
153.746000543
 20
163.2632671742
  0
VERTEX
 67
1
  8
13_KOMPONENTER
 62
7
  6
CONTINUOUS
 10
153.7362540442
 20
162.9805111496
  0
VERTEX
 67
1
  8
13_KOMPONENTER
 62
7
  6
CONTINUOUS
 10
153.7264280802
 20
162.6638685345
  0
VERTEX
 67
1
  8
13_KOMPONENTER
 62
7
  6
CONTINUOUS
 10
153.7165411524
 20
162.3096342425
  0
VERTEX
 67
1
  8
13_KOMPONENTER
 62
7
  6
CONTINUOUS
 10
153.706621427
 20
161.9135689816
  0
VERTEX
 67
1
  8
13_KOMPONENTER
 62
7
  6
CONTINUOUS
 10
153.6967159996
 20
161.471126564
  0
VERTEX
 67
1
  8
13_KOMPONENTER
 62
7
  6
CONTINUOUS
 10
153.6869016314
 20
160.9779324445
  0
VERTEX
 67
1
  8
13_KOMPONENTER
 62
7
  6
CONTINUOUS
 10
153.6772909216
 20
160.4303422028
  0
VERTEX
 67
1
  8
13_KOMPONENTER
 62
7
  6
CONTINUOUS
 10
153.6680195001
 20
159.8250720473
  0
VERTEX
 67
1
  8
13_KOMPONENTER
 62
7
  6
CONTINUOUS
 10
153.6592471969
 20
159.1594198006
  0
VERTEX
 67
1
  8
13_KOMPONENTER
 62
7
  6
CONTINUOUS
 10
153.6511571748
 20
158.431411917
  0
VERTEX
 67
1
  8
13_KOMPONENTER
 62
7
  6
CONTINUOUS
 10
153.6439515655
 20
157.6395400247
  0
VERTEX
 67
1
  8
13_KOMPONENTER
 62
7
  6
CONTINUOUS
 10
153.63783777
 20
156.7801912709
  0
VERTEX
 67
1
  8
13_KOMPONENTER
 62
7
  6
CONTINUOUS
 10
153.6330649758
 20
155.8493357691
  0
VERTEX
 67
1
  8
13_KOMPONENTER
 62
7
  6
CONTINUOUS
 10
153.6299449203
 20
154.8445126293
  0
VERTEX
 67
1
  8
13_KOMPONENTER
 62
7
  6
CONTINUOUS
 10
153.6288536754
 20
153.7957369942
  0
SEQEND
  0
POLYLINE
 67
1
  8
13_KOMPONENTER
 62
7
  6
CONTINUOUS
 66
1
 70
0
  0
VERTEX
 67
1
  8
13_KOMPONENTER
 62
7
  6
CONTINUOUS
 10
129.4688759442
 20
165.7957369933
  0
VERTEX
 67
1
  8
13_KOMPONENTER
 62
7
  6
CONTINUOUS
 10
129.2619087788
 20
165.7742016858
  0
VERTEX
 67
1
  8
13_KOMPONENTER
 62
7
  6
CONTINUOUS
 10
129.0141450432
 20
165.6870440141
  0
VERTEX
 67
1
  8
13_KOMPONENTER
 62
7
  6
CONTINUOUS
 10
128.809026564
 20
165.5491304415
  0
VERTEX
 67
1
  8
13_KOMPONENTER
 62
7
  6
CONTINUOUS
 10
128.6641417906
 20
165.3940690646
  0
VERTEX
 67
1
  8
13_KOMPONENTER
 62
7
  6
CONTINUOUS
 10
128.5727082633
 20
165.2495527052
  0
VERTEX
 67
1
  8
13_KOMPONENTER
 62
7
  6
CONTINUOUS
 10
128.5175867011
 20
165.1255655065
  0
VERTEX
 67
1
  8
13_KOMPONENTER
 62
7
  6
CONTINUOUS
 10
128.4848600963
 20
165.0234183524
  0
VERTEX
 67
1
  8
13_KOMPONENTER
 62
7
  6
CONTINUOUS
 10
128.464682441
 20
164.9388418326
  0
VERTEX
 67
1
  8
13_KOMPONENTER
 62
7
  6
CONTINUOUS
 10
128.450604636
 20
164.8627233512
  0
VERTEX
 67
1
  8
13_KOMPONENTER
 62
7
  6
CONTINUOUS
 10
128.4394251211
 20
164.7875440326
  0
VERTEX
 67
1
  8
13_KOMPONENTER
 62
7
  6
CONTINUOUS
 10
128.4295796074
 20
164.7075146765
  0
VERTEX
 67
1
  8
13_KOMPONENTER
 62
7
  6
CONTINUOUS
 10
128.4203360043
 20
164.6185786423
  0
VERTEX
 67
1
  8
13_KOMPONENTER
 62
7
  6
CONTINUOUS
 10
128.4113365466
 20
164.5177047994
  0
VERTEX
 67
1
  8
13_KOMPONENTER
 62
7
  6
CONTINUOUS
 10
128.4023689189
 20
164.4020170052
  0
VERTEX
 67
1
  8
13_KOMPONENTER
 62
7
  6
CONTINUOUS
 10
128.3933053798
 20
164.2686779471
  0
VERTEX
 67
1
  8
13_KOMPONENTER
 62
7
  6
CONTINUOUS
 10
128.3840911321
 20
164.1151840395
  0
VERTEX
 67
1
  8
13_KOMPONENTER
 62
7
  6
CONTINUOUS
 10
128.3747287836
 20
163.9395953836
  0
VERTEX
 67
1
  8
13_KOMPONENTER
 62
7
  6
CONTINUOUS
 10
128.3652407899
 20
163.7402016553
  0
VERTEX
 67
1
  8
13_KOMPONENTER
 62
7
  6
CONTINUOUS
 10
128.3556607788
 20
163.5154792599
  0
VERTEX
 67
1
  8
13_KOMPONENTER
 62
7
  6
CONTINUOUS
 10
128.346000543
 20
163.2632671742
  0
VERTEX
 67
1
  8
13_KOMPONENTER
 62
7
  6
CONTINUOUS
 10
128.3362540442
 20
162.9805111496
  0
VERTEX
 67
1
  8
13_KOMPONENTER
 62
7
  6
CONTINUOUS
 10
128.3264280802
 20
162.6638685345
  0
VERTEX
 67
1
  8
13_KOMPONENTER
 62
7
  6
CONTINUOUS
 10
128.3165411524
 20
162.3096342425
  0
VERTEX
 67
1
  8
13_KOMPONENTER
 62
7
  6
CONTINUOUS
 10
128.306621427
 20
161.9135689816
  0
VERTEX
 67
1
  8
13_KOMPONENTER
 62
7
  6
CONTINUOUS
 10
128.2967159996
 20
161.471126564
  0
VERTEX
 67
1
  8
13_KOMPONENTER
 62
7
  6
CONTINUOUS
 10
128.2869016314
 20
160.9779324445
  0
VERTEX
 67
1
  8
13_KOMPONENTER
 62
7
  6
CONTINUOUS
 10
128.2772909216
 20
160.4303422028
  0
VERTEX
 67
1
  8
13_KOMPONENTER
 62
7
  6
CONTINUOUS
 10
128.2680195001
 20
159.8250720473
  0
VERTEX
 67
1
  8
13_KOMPONENTER
 62
7
  6
CONTINUOUS
 10
128.2592471969
 20
159.1594198006
  0
VERTEX
 67
1
  8
13_KOMPONENTER
 62
7
  6
CONTINUOUS
 10
128.2511571748
 20
158.431411917
  0
VERTEX
 67
1
  8
13_KOMPONENTER
 62
7
  6
CONTINUOUS
 10
128.2439515655
 20
157.6395400247
  0
VERTEX
 67
1
  8
13_KOMPONENTER
 62
7
  6
CONTINUOUS
 10
128.23783777
 20
156.7801912709
  0
VERTEX
 67
1
  8
13_KOMPONENTER
 62
7
  6
CONTINUOUS
 10
128.2330649758
 20
155.8493357691
  0
VERTEX
 67
1
  8
13_KOMPONENTER
 62
7
  6
CONTINUOUS
 10
128.2299449203
 20
154.8445126293
  0
VERTEX
 67
1
  8
13_KOMPONENTER
 62
7
  6
CONTINUOUS
 10
128.2288536754
 20
153.7957369942
  0
SEQEND
  0
POLYLINE
 67
1
  8
13_KOMPONENTER
 62
7
  6
CONTINUOUS
 66
1
 70
0
  0
VERTEX
 67
1
  8
13_KOMPONENTER
 62
7
  6
CONTINUOUS
 10
104.0688759442
 20
165.7957369933
  0
VERTEX
 67
1
  8
13_KOMPONENTER
 62
7
  6
CONTINUOUS
 10
103.8619087788
 20
165.7742016858
  0
VERTEX
 67
1
  8
13_KOMPONENTER
 62
7
  6
CONTINUOUS
 10
103.6141450432
 20
165.6870440141
  0
VERTEX
 67
1
  8
13_KOMPONENTER
 62
7
  6
CONTINUOUS
 10
103.409026564
 20
165.5491304415
  0
VERTEX
 67
1
  8
13_KOMPONENTER
 62
7
  6
CONTINUOUS
 10
103.2641417906
 20
165.3940690646
  0
VERTEX
 67
1
  8
13_KOMPONENTER
 62
7
  6
CONTINUOUS
 10
103.1727082633
 20
165.2495527052
  0
VERTEX
 67
1
  8
13_KOMPONENTER
 62
7
  6
CONTINUOUS
 10
103.1175867011
 20
165.1255655065
  0
VERTEX
 67
1
  8
13_KOMPONENTER
 62
7
  6
CONTINUOUS
 10
103.0848600963
 20
165.0234183524
  0
VERTEX
 67
1
  8
13_KOMPONENTER
 62
7
  6
CONTINUOUS
 10
103.064682441
 20
164.9388418326
  0
VERTEX
 67
1
  8
13_KOMPONENTER
 62
7
  6
CONTINUOUS
 10
103.050604636
 20
164.8627233512
  0
VERTEX
 67
1
  8
13_KOMPONENTER
 62
7
  6
CONTINUOUS
 10
103.0394251211
 20
164.7875440326
  0
VERTEX
 67
1
  8
13_KOMPONENTER
 62
7
  6
CONTINUOUS
 10
103.0295796074
 20
164.7075146765
  0
VERTEX
 67
1
  8
13_KOMPONENTER
 62
7
  6
CONTINUOUS
 10
103.0203360043
 20
164.6185786423
  0
VERTEX
 67
1
  8
13_KOMPONENTER
 62
7
  6
CONTINUOUS
 10
103.0113365466
 20
164.5177047994
  0
VERTEX
 67
1
  8
13_KOMPONENTER
 62
7
  6
CONTINUOUS
 10
103.0023689189
 20
164.4020170052
  0
VERTEX
 67
1
  8
13_KOMPONENTER
 62
7
  6
CONTINUOUS
 10
102.9933053798
 20
164.2686779471
  0
VERTEX
 67
1
  8
13_KOMPONENTER
 62
7
  6
CONTINUOUS
 10
102.984091132
 20
164.1151840395
  0
VERTEX
 67
1
  8
13_KOMPONENTER
 62
7
  6
CONTINUOUS
 10
102.9747287836
 20
163.9395953836
  0
VERTEX
 67
1
  8
13_KOMPONENTER
 62
7
  6
CONTINUOUS
 10
102.9652407899
 20
163.7402016553
  0
VERTEX
 67
1
  8
13_KOMPONENTER
 62
7
  6
CONTINUOUS
 10
102.9556607788
 20
163.5154792599
  0
VERTEX
 67
1
  8
13_KOMPONENTER
 62
7
  6
CONTINUOUS
 10
102.946000543
 20
163.2632671742
  0
VERTEX
 67
1
  8
13_KOMPONENTER
 62
7
  6
CONTINUOUS
 10
102.9362540442
 20
162.9805111496
  0
VERTEX
 67
1
  8
13_KOMPONENTER
 62
7
  6
CONTINUOUS
 10
102.9264280802
 20
162.6638685345
  0
VERTEX
 67
1
  8
13_KOMPONENTER
 62
7
  6
CONTINUOUS
 10
102.9165411524
 20
162.3096342425
  0
VERTEX
 67
1
  8
13_KOMPONENTER
 62
7
  6
CONTINUOUS
 10
102.906621427
 20
161.9135689816
  0
VERTEX
 67
1
  8
13_KOMPONENTER
 62
7
  6
CONTINUOUS
 10
102.8967159996
 20
161.471126564
  0
VERTEX
 67
1
  8
13_KOMPONENTER
 62
7
  6
CONTINUOUS
 10
102.8869016313
 20
160.9779324445
  0
VERTEX
 67
1
  8
13_KOMPONENTER
 62
7
  6
CONTINUOUS
 10
102.8772909216
 20
160.4303422028
  0
VERTEX
 67
1
  8
13_KOMPONENTER
 62
7
  6
CONTINUOUS
 10
102.8680195001
 20
159.8250720473
  0
VERTEX
 67
1
  8
13_KOMPONENTER
 62
7
  6
CONTINUOUS
 10
102.8592471969
 20
159.1594198006
  0
VERTEX
 67
1
  8
13_KOMPONENTER
 62
7
  6
CONTINUOUS
 10
102.8511571748
 20
158.431411917
  0
VERTEX
 67
1
  8
13_KOMPONENTER
 62
7
  6
CONTINUOUS
 10
102.8439515655
 20
157.6395400247
  0
VERTEX
 67
1
  8
13_KOMPONENTER
 62
7
  6
CONTINUOUS
 10
102.83783777
 20
156.7801912709
  0
VERTEX
 67
1
  8
13_KOMPONENTER
 62
7
  6
CONTINUOUS
 10
102.8330649758
 20
155.8493357691
  0
VERTEX
 67
1
  8
13_KOMPONENTER
 62
7
  6
CONTINUOUS
 10
102.8299449203
 20
154.8445126293
  0
VERTEX
 67
1
  8
13_KOMPONENTER
 62
7
  6
CONTINUOUS
 10
102.8288536754
 20
153.7957369942
  0
SEQEND
  0
POLYLINE
 67
1
  8
13_KOMPONENTER
 62
7
  6
CONTINUOUS
 66
1
 70
0
  0
VERTEX
 67
1
  8
13_KOMPONENTER
 62
7
  6
CONTINUOUS
 10
78.6688759442
 20
165.7957369933
  0
VERTEX
 67
1
  8
13_KOMPONENTER
 62
7
  6
CONTINUOUS
 10
78.4619087788
 20
165.7742016858
  0
VERTEX
 67
1
  8
13_KOMPONENTER
 62
7
  6
CONTINUOUS
 10
78.2141450432
 20
165.6870440141
  0
VERTEX
 67
1
  8
13_KOMPONENTER
 62
7
  6
CONTINUOUS
 10
78.009026564
 20
165.5491304415
  0
VERTEX
 67
1
  8
13_KOMPONENTER
 62
7
  6
CONTINUOUS
 10
77.8641417906
 20
165.3940690646
  0
VERTEX
 67
1
  8
13_KOMPONENTER
 62
7
  6
CONTINUOUS
 10
77.7727082633
 20
165.2495527052
  0
VERTEX
 67
1
  8
13_KOMPONENTER
 62
7
  6
CONTINUOUS
 10
77.7175867011
 20
165.1255655065
  0
VERTEX
 67
1
  8
13_KOMPONENTER
 62
7
  6
CONTINUOUS
 10
77.6848600963
 20
165.0234183524
  0
VERTEX
 67
1
  8
13_KOMPONENTER
 62
7
  6
CONTINUOUS
 10
77.664682441
 20
164.9388418326
  0
VERTEX
 67
1
  8
13_KOMPONENTER
 62
7
  6
CONTINUOUS
 10
77.650604636
 20
164.8627233512
  0
VERTEX
 67
1
  8
13_KOMPONENTER
 62
7
  6
CONTINUOUS
 10
77.6394251211
 20
164.7875440326
  0
VERTEX
 67
1
  8
13_KOMPONENTER
 62
7
  6
CONTINUOUS
 10
77.6295796074
 20
164.7075146765
  0
VERTEX
 67
1
  8
13_KOMPONENTER
 62
7
  6
CONTINUOUS
 10
77.6203360043
 20
164.6185786423
  0
VERTEX
 67
1
  8
13_KOMPONENTER
 62
7
  6
CONTINUOUS
 10
77.6113365466
 20
164.5177047994
  0
VERTEX
 67
1
  8
13_KOMPONENTER
 62
7
  6
CONTINUOUS
 10
77.6023689189
 20
164.4020170052
  0
VERTEX
 67
1
  8
13_KOMPONENTER
 62
7
  6
CONTINUOUS
 10
77.5933053798
 20
164.2686779471
  0
VERTEX
 67
1
  8
13_KOMPONENTER
 62
7
  6
CONTINUOUS
 10
77.5840911321
 20
164.1151840395
  0
VERTEX
 67
1
  8
13_KOMPONENTER
 62
7
  6
CONTINUOUS
 10
77.5747287836
 20
163.9395953836
  0
VERTEX
 67
1
  8
13_KOMPONENTER
 62
7
  6
CONTINUOUS
 10
77.5652407899
 20
163.7402016553
  0
VERTEX
 67
1
  8
13_KOMPONENTER
 62
7
  6
CONTINUOUS
 10
77.5556607788
 20
163.5154792599
  0
VERTEX
 67
1
  8
13_KOMPONENTER
 62
7
  6
CONTINUOUS
 10
77.546000543
 20
163.2632671742
  0
VERTEX
 67
1
  8
13_KOMPONENTER
 62
7
  6
CONTINUOUS
 10
77.5362540442
 20
162.9805111496
  0
VERTEX
 67
1
  8
13_KOMPONENTER
 62
7
  6
CONTINUOUS
 10
77.5264280802
 20
162.6638685345
  0
VERTEX
 67
1
  8
13_KOMPONENTER
 62
7
  6
CONTINUOUS
 10
77.5165411524
 20
162.3096342425
  0
VERTEX
 67
1
  8
13_KOMPONENTER
 62
7
  6
CONTINUOUS
 10
77.506621427
 20
161.9135689816
  0
VERTEX
 67
1
  8
13_KOMPONENTER
 62
7
  6
CONTINUOUS
 10
77.4967159996
 20
161.471126564
  0
VERTEX
 67
1
  8
13_KOMPONENTER
 62
7
  6
CONTINUOUS
 10
77.4869016313
 20
160.9779324445
  0
VERTEX
 67
1
  8
13_KOMPONENTER
 62
7
  6
CONTINUOUS
 10
77.4772909216
 20
160.4303422028
  0
VERTEX
 67
1
  8
13_KOMPONENTER
 62
7
  6
CONTINUOUS
 10
77.4680195001
 20
159.8250720473
  0
VERTEX
 67
1
  8
13_KOMPONENTER
 62
7
  6
CONTINUOUS
 10
77.4592471969
 20
159.1594198006
  0
VERTEX
 67
1
  8
13_KOMPONENTER
 62
7
  6
CONTINUOUS
 10
77.4511571748
 20
158.431411917
  0
VERTEX
 67
1
  8
13_KOMPONENTER
 62
7
  6
CONTINUOUS
 10
77.4439515655
 20
157.6395400247
  0
VERTEX
 67
1
  8
13_KOMPONENTER
 62
7
  6
CONTINUOUS
 10
77.43783777
 20
156.7801912709
  0
VERTEX
 67
1
  8
13_KOMPONENTER
 62
7
  6
CONTINUOUS
 10
77.4330649758
 20
155.8493357691
  0
VERTEX
 67
1
  8
13_KOMPONENTER
 62
7
  6
CONTINUOUS
 10
77.4299449203
 20
154.8445126293
  0
VERTEX
 67
1
  8
13_KOMPONENTER
 62
7
  6
CONTINUOUS
 10
77.4288536754
 20
153.7957369942
  0
SEQEND
  0
LINE
 67
1
  8
13_KOMPONENTER
 62
7
  6
CONTINUOUS
 10
53.2688745222
 20
165.7957369942
 11
63.1629173853
 21
165.7957369942
  0
LINE
 67
1
  8
13_KOMPONENTER
 62
7
  6
CONTINUOUS
 10
78.6688745222
 20
165.7957369942
 11
88.5629173853
 21
165.7957369942
  0
LINE
 67
1
  8
13_KOMPONENTER
 62
7
  6
CONTINUOUS
 10
104.0688745222
 20
165.7957369942
 11
113.9629173853
 21
165.7957369942
  0
LINE
 67
1
  8
13_KOMPONENTER
 62
7
  6
CONTINUOUS
 10
129.4688745222
 20
165.7957369942
 11
139.3629173853
 21
165.7957369942
  0
LINE
 67
1
  8
13_KOMPONENTER
 62
7
  6
CONTINUOUS
 10
154.8688745222
 20
165.7957369942
 11
164.7629173853
 21
165.7957369942
  0
LINE
 67
1
  8
13_KOMPONENTER
 62
7
  6
CONTINUOUS
 10
180.2688745222
 20
165.7957369942
 11
190.3658959538
 21
165.7957369942
  0
LINE
 67
1
  8
13_KOMPONENTER
 62
7
  6
CONTINUOUS
 10
163.7658959538
 20
152.2207369942
 11
163.7658884921
 21
152.2234685849
  0
POLYLINE
 67
1
  8
13_KOMPONENTER
 62
7
  6
CONTINUOUS
 66
1
 70
0
  0
VERTEX
 67
1
  8
13_KOMPONENTER
 62
7
  6
CONTINUOUS
 10
166.0029382321
 20
153.7957369942
  0
VERTEX
 67
1
  8
13_KOMPONENTER
 62
7
  6
CONTINUOUS
 10
166.0018948579
 20
154.8213021288
  0
VERTEX
 67
1
  8
13_KOMPONENTER
 62
7
  6
CONTINUOUS
 10
165.998909709
 20
155.8046599698
  0
VERTEX
 67
1
  8
13_KOMPONENTER
 62
7
  6
CONTINUOUS
 10
165.9943334172
 20
156.7176857845
  0
VERTEX
 67
1
  8
13_KOMPONENTER
 62
7
  6
CONTINUOUS
 10
165.9884620716
 20
157.5620696238
  0
VERTEX
 67
1
  8
13_KOMPONENTER
 62
7
  6
CONTINUOUS
 10
165.9815380018
 20
158.3410297526
  0
VERTEX
 67
1
  8
13_KOMPONENTER
 62
7
  6
CONTINUOUS
 10
165.9737584675
 20
159.0582844915
  0
VERTEX
 67
1
  8
13_KOMPONENTER
 62
7
  6
CONTINUOUS
 10
165.9652955032
 20
159.7168231051
  0
VERTEX
 67
1
  8
13_KOMPONENTER
 62
7
  6
CONTINUOUS
 10
165.9562929608
 20
160.3198868036
  0
VERTEX
 67
1
  8
13_KOMPONENTER
 62
7
  6
CONTINUOUS
 10
165.9468695594
 20
160.8708592593
  0
VERTEX
 67
1
  8
13_KOMPONENTER
 62
7
  6
CONTINUOUS
 10
165.9371287889
 20
161.372819234
  0
VERTEX
 67
1
  8
13_KOMPONENTER
 62
7
  6
CONTINUOUS
 10
165.9271558848
 20
161.828885013
  0
VERTEX
 67
1
  8
13_KOMPONENTER
 62
7
  6
CONTINUOUS
 10
165.9170181087
 20
162.2422077103
  0
VERTEX
 67
1
  8
13_KOMPONENTER
 62
7
  6
CONTINUOUS
 10
165.9067676659
 20
162.6158433974
  0
VERTEX
 67
1
  8
13_KOMPONENTER
 62
7
  6
CONTINUOUS
 10
165.8964428746
 20
162.9527211274
  0
VERTEX
 67
1
  8
13_KOMPONENTER
 62
7
  6
CONTINUOUS
 10
165.8860680683
 20
163.2556433628
  0
VERTEX
 67
1
  8
13_KOMPONENTER
 62
7
  6
CONTINUOUS
 10
165.8756560389
 20
163.5272036105
  0
VERTEX
 67
1
  8
13_KOMPONENTER
 62
7
  6
CONTINUOUS
 10
165.865239674
 20
163.7690995014
  0
VERTEX
 67
1
  8
13_KOMPONENTER
 62
7
  6
CONTINUOUS
 10
165.8548670871
 20
163.9826200623
  0
VERTEX
 67
1
  8
13_KOMPONENTER
 62
7
  6
CONTINUOUS
 10
165.8445732718
 20
164.1693755511
  0
VERTEX
 67
1
  8
13_KOMPONENTER
 62
7
  6
CONTINUOUS
 10
165.8343716432
 20
164.3313224953
  0
VERTEX
 67
1
  8
13_KOMPONENTER
 62
7
  6
CONTINUOUS
 10
165.8242552464
 20
164.4705936084
  0
VERTEX
 67
1
  8
13_KOMPONENTER
 62
7
  6
CONTINUOUS
 10
165.8142105922
 20
164.589256131
  0
VERTEX
 67
1
  8
13_KOMPONENTER
 62
7
  6
CONTINUOUS
 10
165.8041212194
 20
164.6902995185
  0
VERTEX
 67
1
  8
13_KOMPONENTER
 62
7
  6
CONTINUOUS
 10
165.7936110168
 20
164.7781985244
  0
VERTEX
 67
1
  8
13_KOMPONENTER
 62
7
  6
CONTINUOUS
 10
165.781914168
 20
164.8582785383
  0
VERTEX
 67
1
  8
13_KOMPONENTER
 62
7
  6
CONTINUOUS
 10
165.7676161017
 20
164.9363926704
  0
VERTEX
 67
1
  8
13_KOMPONENTER
 62
7
  6
CONTINUOUS
 10
165.7475306302
 20
165.0212121675
  0
VERTEX
 67
1
  8
13_KOMPONENTER
 62
7
  6
CONTINUOUS
 10
165.7138711067
 20
165.1264623304
  0
VERTEX
 67
1
  8
13_KOMPONENTER
 62
7
  6
CONTINUOUS
 10
165.6539966016
 20
165.2591597729
  0
VERTEX
 67
1
  8
13_KOMPONENTER
 62
7
  6
CONTINUOUS
 10
165.5591356742
 20
165.4051770595
  0
VERTEX
 67
1
  8
13_KOMPONENTER
 62
7
  6
CONTINUOUS
 10
165.4164831953
 20
165.5545355171
  0
VERTEX
 67
1
  8
13_KOMPONENTER
 62
7
  6
CONTINUOUS
 10
165.2131602367
 20
165.6893038978
  0
VERTEX
 67
1
  8
13_KOMPONENTER
 62
7
  6
CONTINUOUS
 10
164.9666665077
 20
165.7748728814
  0
VERTEX
 67
1
  8
13_KOMPONENTER
 62
7
  6
CONTINUOUS
 10
164.7629160119
 20
165.7957369933
  0
SEQEND
  0
POLYLINE
 67
1
  8
13_KOMPONENTER
 62
7
  6
CONTINUOUS
 66
1
 70
0
  0
VERTEX
 67
1
  8
13_KOMPONENTER
 62
7
  6
CONTINUOUS
 10
166.3288536754
 20
102.6457369942
  0
VERTEX
 67
1
  8
13_KOMPONENTER
 62
7
  6
CONTINUOUS
 10
166.3298970497
 20
101.6201718597
  0
VERTEX
 67
1
  8
13_KOMPONENTER
 62
7
  6
CONTINUOUS
 10
166.3328821985
 20
100.6368140187
  0
VERTEX
 67
1
  8
13_KOMPONENTER
 62
7
  6
CONTINUOUS
 10
166.3374584903
 20
99.7237882039
  0
VERTEX
 67
1
  8
13_KOMPONENTER
 62
7
  6
CONTINUOUS
 10
166.343329836
 20
98.8794043646
  0
VERTEX
 67
1
  8
13_KOMPONENTER
 62
7
  6
CONTINUOUS
 10
166.3502539057
 20
98.1004442358
  0
VERTEX
 67
1
  8
13_KOMPONENTER
 62
7
  6
CONTINUOUS
 10
166.35803344
 20
97.3831894969
  0
VERTEX
 67
1
  8
13_KOMPONENTER
 62
7
  6
CONTINUOUS
 10
166.3664964044
 20
96.7246508833
  0
VERTEX
 67
1
  8
13_KOMPONENTER
 62
7
  6
CONTINUOUS
 10
166.3754989468
 20
96.1215871849
  0
VERTEX
 67
1
  8
13_KOMPONENTER
 62
7
  6
CONTINUOUS
 10
166.3849223481
 20
95.5706147292
  0
VERTEX
 67
1
  8
13_KOMPONENTER
 62
7
  6
CONTINUOUS
 10
166.3946631186
 20
95.0686547544
  0
VERTEX
 67
1
  8
13_KOMPONENTER
 62
7
  6
CONTINUOUS
 10
166.4046360227
 20
94.6125889754
  0
VERTEX
 67
1
  8
13_KOMPONENTER
 62
7
  6
CONTINUOUS
 10
166.4147737988
 20
94.1992662782
  0
VERTEX
 67
1
  8
13_KOMPONENTER
 62
7
  6
CONTINUOUS
 10
166.4250242416
 20
93.825630591
  0
VERTEX
 67
1
  8
13_KOMPONENTER
 62
7
  6
CONTINUOUS
 10
166.4353490329
 20
93.4887528611
  0
VERTEX
 67
1
  8
13_KOMPONENTER
 62
7
  6
CONTINUOUS
 10
166.4457238392
 20
93.1858306256
  0
VERTEX
 67
1
  8
13_KOMPONENTER
 62
7
  6
CONTINUOUS
 10
166.4561358687
 20
92.914270378
  0
VERTEX
 67
1
  8
13_KOMPONENTER
 62
7
  6
CONTINUOUS
 10
166.4665522336
 20
92.672374487
  0
VERTEX
 67
1
  8
13_KOMPONENTER
 62
7
  6
CONTINUOUS
 10
166.4769248204
 20
92.4588539261
  0
VERTEX
 67
1
  8
13_KOMPONENTER
 62
7
  6
CONTINUOUS
 10
166.4872186357
 20
92.2720984373
  0
VERTEX
 67
1
  8
13_KOMPONENTER
 62
7
  6
CONTINUOUS
 10
166.4974202643
 20
92.1101514931
  0
VERTEX
 67
1
  8
13_KOMPONENTER
 62
7
  6
CONTINUOUS
 10
166.5075366611
 20
91.9708803801
  0
VERTEX
 67
1
  8
13_KOMPONENTER
 62
7
  6
CONTINUOUS
 10
166.5175813153
 20
91.8522178574
  0
VERTEX
 67
1
  8
13_KOMPONENTER
 62
7
  6
CONTINUOUS
 10
166.5276706881
 20
91.7511744699
  0
VERTEX
 67
1
  8
13_KOMPONENTER
 62
7
  6
CONTINUOUS
 10
166.5381808907
 20
91.6632754641
  0
VERTEX
 67
1
  8
13_KOMPONENTER
 62
7
  6
CONTINUOUS
 10
166.5498777395
 20
91.5831954501
  0
VERTEX
 67
1
  8
13_KOMPONENTER
 62
7
  6
CONTINUOUS
 10
166.5641758059
 20
91.505081318
  0
VERTEX
 67
1
  8
13_KOMPONENTER
 62
7
  6
CONTINUOUS
 10
166.5842612773
 20
91.420261821
  0
VERTEX
 67
1
  8
13_KOMPONENTER
 62
7
  6
CONTINUOUS
 10
166.6179208008
 20
91.315011658
  0
VERTEX
 67
1
  8
13_KOMPONENTER
 62
7
  6
CONTINUOUS
 10
166.6777953059
 20
91.1823142155
  0
VERTEX
 67
1
  8
13_KOMPONENTER
 62
7
  6
CONTINUOUS
 10
166.7726562333
 20
91.0362969289
  0
VERTEX
 67
1
  8
13_KOMPONENTER
 62
7
  6
CONTINUOUS
 10
166.9153087122
 20
90.8869384713
  0
VERTEX
 67
1
  8
13_KOMPONENTER
 62
7
  6
CONTINUOUS
 10
167.1186316708
 20
90.7521700906
  0
VERTEX
 67
1
  8
13_KOMPONENTER
 62
7
  6
CONTINUOUS
 10
167.3651253999
 20
90.666601107
  0
VERTEX
 67
1
  8
13_KOMPONENTER
 62
7
  6
CONTINUOUS
 10
167.5688758956
 20
90.6457369951
  0
SEQEND
  0
LINE
 67
1
  8
13_KOMPONENTER
 62
7
  6
CONTINUOUS
 10
163.7659258003
 20
145.8098106315
 11
163.7658959538
 21
152.2207369942
  0
LINE
 67
1
  8
13_KOMPONENTER
 62
7
  6
CONTINUOUS
 10
166.0029382347
 20
153.7957369942
 11
166.0029382347
 21
146.9202150471
  0
LINE
 67
1
  8
13_KOMPONENTER
 62
7
  6
CONTINUOUS
 10
166.3288536728
 20
102.6457369942
 11
166.3288536728
 21
109.521258814
  0
POLYLINE
 67
1
  8
13_KOMPONENTER
 62
7
  6
CONTINUOUS
 66
1
 70
0
  0
VERTEX
 67
1
  8
13_KOMPONENTER
 62
7
  6
CONTINUOUS
 10
53.2688759442
 20
165.7957369933
  0
VERTEX
 67
1
  8
13_KOMPONENTER
 62
7
  6
CONTINUOUS
 10
53.0619087788
 20
165.7742016858
  0
VERTEX
 67
1
  8
13_KOMPONENTER
 62
7
  6
CONTINUOUS
 10
52.8141450432
 20
165.6870440141
  0
VERTEX
 67
1
  8
13_KOMPONENTER
 62
7
  6
CONTINUOUS
 10
52.609026564
 20
165.5491304415
  0
VERTEX
 67
1
  8
13_KOMPONENTER
 62
7
  6
CONTINUOUS
 10
52.4641417906
 20
165.3940690646
  0
VERTEX
 67
1
  8
13_KOMPONENTER
 62
7
  6
CONTINUOUS
 10
52.3727082633
 20
165.2495527052
  0
VERTEX
 67
1
  8
13_KOMPONENTER
 62
7
  6
CONTINUOUS
 10
52.3175867011
 20
165.1255655065
  0
VERTEX
 67
1
  8
13_KOMPONENTER
 62
7
  6
CONTINUOUS
 10
52.2848600963
 20
165.0234183524
  0
VERTEX
 67
1
  8
13_KOMPONENTER
 62
7
  6
CONTINUOUS
 10
52.264682441
 20
164.9388418326
  0
VERTEX
 67
1
  8
13_KOMPONENTER
 62
7
  6
CONTINUOUS
 10
52.250604636
 20
164.8627233512
  0
VERTEX
 67
1
  8
13_KOMPONENTER
 62
7
  6
CONTINUOUS
 10
52.2394251211
 20
164.7875440326
  0
VERTEX
 67
1
  8
13_KOMPONENTER
 62
7
  6
CONTINUOUS
 10
52.2295796074
 20
164.7075146765
  0
VERTEX
 67
1
  8
13_KOMPONENTER
 62
7
  6
CONTINUOUS
 10
52.2203360043
 20
164.6185786423
  0
VERTEX
 67
1
  8
13_KOMPONENTER
 62
7
  6
CONTINUOUS
 10
52.2113365466
 20
164.5177047994
  0
VERTEX
 67
1
  8
13_KOMPONENTER
 62
7
  6
CONTINUOUS
 10
52.2023689189
 20
164.4020170052
  0
VERTEX
 67
1
  8
13_KOMPONENTER
 62
7
  6
CONTINUOUS
 10
52.1933053798
 20
164.2686779471
  0
VERTEX
 67
1
  8
13_KOMPONENTER
 62
7
  6
CONTINUOUS
 10
52.1840911321
 20
164.1151840395
  0
VERTEX
 67
1
  8
13_KOMPONENTER
 62
7
  6
CONTINUOUS
 10
52.1747287836
 20
163.9395953836
  0
VERTEX
 67
1
  8
13_KOMPONENTER
 62
7
  6
CONTINUOUS
 10
52.1652407899
 20
163.7402016553
  0
VERTEX
 67
1
  8
13_KOMPONENTER
 62
7
  6
CONTINUOUS
 10
52.1556607788
 20
163.5154792599
  0
VERTEX
 67
1
  8
13_KOMPONENTER
 62
7
  6
CONTINUOUS
 10
52.146000543
 20
163.2632671742
  0
VERTEX
 67
1
  8
13_KOMPONENTER
 62
7
  6
CONTINUOUS
 10
52.1362540442
 20
162.9805111496
  0
VERTEX
 67
1
  8
13_KOMPONENTER
 62
7
  6
CONTINUOUS
 10
52.1264280802
 20
162.6638685345
  0
VERTEX
 67
1
  8
13_KOMPONENTER
 62
7
  6
CONTINUOUS
 10
52.1165411524
 20
162.3096342425
  0
VERTEX
 67
1
  8
13_KOMPONENTER
 62
7
  6
CONTINUOUS
 10
52.106621427
 20
161.9135689816
  0
VERTEX
 67
1
  8
13_KOMPONENTER
 62
7
  6
CONTINUOUS
 10
52.0967159996
 20
161.471126564
  0
VERTEX
 67
1
  8
13_KOMPONENTER
 62
7
  6
CONTINUOUS
 10
52.0869016314
 20
160.9779324445
  0
VERTEX
 67
1
  8
13_KOMPONENTER
 62
7
  6
CONTINUOUS
 10
52.0772909216
 20
160.4303422028
  0
VERTEX
 67
1
  8
13_KOMPONENTER
 62
7
  6
CONTINUOUS
 10
52.0680195001
 20
159.8250720473
  0
VERTEX
 67
1
  8
13_KOMPONENTER
 62
7
  6
CONTINUOUS
 10
52.0592471969
 20
159.1594198006
  0
VERTEX
 67
1
  8
13_KOMPONENTER
 62
7
  6
CONTINUOUS
 10
52.0511571748
 20
158.431411917
  0
VERTEX
 67
1
  8
13_KOMPONENTER
 62
7
  6
CONTINUOUS
 10
52.0439515655
 20
157.6395400247
  0
VERTEX
 67
1
  8
13_KOMPONENTER
 62
7
  6
CONTINUOUS
 10
52.03783777
 20
156.7801912709
  0
VERTEX
 67
1
  8
13_KOMPONENTER
 62
7
  6
CONTINUOUS
 10
52.0330649758
 20
155.8493357691
  0
VERTEX
 67
1
  8
13_KOMPONENTER
 62
7
  6
CONTINUOUS
 10
52.0299449203
 20
154.8445126293
  0
VERTEX
 67
1
  8
13_KOMPONENTER
 62
7
  6
CONTINUOUS
 10
52.0288536754
 20
153.7957369942
  0
SEQEND
  0
LINE
 67
1
  8
13_KOMPONENTER
 62
7
  6
CONTINUOUS
 10
168.5658661072
 20
110.6316633569
 11
168.5659034154
 21
104.2180054035
  0
LINE
 67
1
  8
13_KOMPONENTER
 62
7
  6
CONTINUOUS
 10
178.7029382347
 20
109.5212587399
 11
178.7029382347
 21
102.6457369942
  0
LINE
 67
1
  8
13_KOMPONENTER
 62
7
  6
CONTINUOUS
 10
179.0288536728
 20
146.9202150938
 11
179.0288536728
 21
153.7957369942
  0
LINE
 67
1
  8
13_KOMPONENTER
 62
7
  6
CONTINUOUS
 10
176.4658959538
 20
104.2207369942
 11
176.4659258003
 21
110.6316633569
  0
LINE
 67
1
  8
13_KOMPONENTER
 62
7
  6
CONTINUOUS
 10
176.4658884921
 20
104.2180054035
 11
176.4658959538
 21
104.2207369942
  0
POLYLINE
 67
1
  8
13_KOMPONENTER
 62
7
  6
CONTINUOUS
 66
1
 70
0
  0
VERTEX
 67
1
  8
13_KOMPONENTER
 62
7
  6
CONTINUOUS
 10
179.0288521585
 20
146.9202150938
  0
VERTEX
 67
1
  8
13_KOMPONENTER
 62
7
  6
CONTINUOUS
 10
179.0042046443
 20
146.6994961538
  0
VERTEX
 67
1
  8
13_KOMPONENTER
 62
7
  6
CONTINUOUS
 10
178.9190308336
 20
146.4644578028
  0
VERTEX
 67
1
  8
13_KOMPONENTER
 62
7
  6
CONTINUOUS
 10
178.7777814835
 20
146.2573271575
  0
VERTEX
 67
1
  8
13_KOMPONENTER
 62
7
  6
CONTINUOUS
 10
178.5914714178
 20
146.0931398232
  0
VERTEX
 67
1
  8
13_KOMPONENTER
 62
7
  6
CONTINUOUS
 10
178.3456440154
 20
145.9711154534
  0
VERTEX
 67
1
  8
13_KOMPONENTER
 62
7
  6
CONTINUOUS
 10
178.0848368609
 20
145.917833181
  0
SEQEND
  0
POLYLINE
 67
1
  8
13_KOMPONENTER
 62
7
  6
CONTINUOUS
 66
1
 70
0
  0
VERTEX
 67
1
  8
13_KOMPONENTER
 62
7
  6
CONTINUOUS
 10
178.7029395868
 20
109.5212587399
  0
VERTEX
 67
1
  8
13_KOMPONENTER
 62
7
  6
CONTINUOUS
 10
178.727582385
 20
109.741956841
  0
VERTEX
 67
1
  8
13_KOMPONENTER
 62
7
  6
CONTINUOUS
 10
178.8127414187
 20
109.9769779127
  0
VERTEX
 67
1
  8
13_KOMPONENTER
 62
7
  6
CONTINUOUS
 10
178.9539678337
 20
110.1840986736
  0
VERTEX
 67
1
  8
13_KOMPONENTER
 62
7
  6
CONTINUOUS
 10
179.1402498245
 20
110.3482860485
  0
VERTEX
 67
1
  8
13_KOMPONENTER
 62
7
  6
CONTINUOUS
 10
179.3855192517
 20
110.470147339
  0
VERTEX
 67
1
  8
13_KOMPONENTER
 62
7
  6
CONTINUOUS
 10
179.6469378696
 20
110.5236380958
  0
SEQEND
  0
LINE
 67
1
  8
13_KOMPONENTER
 62
7
  6
CONTINUOUS
 10
181.2659034154
 20
152.2234685849
 11
181.2658959538
 21
145.8207369942
  0
LINE
 67
1
  8
13_KOMPONENTER
 62
7
  6
CONTINUOUS
 10
181.2658959538
 20
145.8207369942
 11
181.2658661072
 21
145.8098106315
  0
LINE
 67
1
  8
13_KOMPONENTER
 62
7
  6
CONTINUOUS
 10
189.1458959538
 20
113.1207369942
 11
189.1458884921
 21
152.2234685849
  0
LINE
 67
1
  8
13_KOMPONENTER
 62
7
  6
CONTINUOUS
 10
191.3658959538
 20
164.7957308715
 11
191.3658959538
 21
111.5250356002
  0
LINE
 67
1
  8
13_KOMPONENTER
 62
7
  6
CONTINUOUS
 10
189.1458884921
 20
113.1180054035
 11
189.1458959538
 21
113.1207369942
  0
LINE
 67
1
  8
13_KOMPONENTER
 62
7
  6
CONTINUOUS
 10
39.3658959538
 20
219.0299855512
 11
39.3658959538
 21
241.0299855512
  0
LINE
 67
1
  8
13_KOMPONENTER
 62
7
  6
CONTINUOUS
 10
41.5858959538
 20
242.5299855512
 11
41.5858959538
 21
242.0299855512
  0
LINE
 67
1
  8
13_KOMPONENTER
 62
7
  6
CONTINUOUS
 10
41.9592539693
 20
246.0822497829
 11
41.5859034154
 21
242.530056544
  0
LINE
 67
1
  8
13_KOMPONENTER
 62
7
  6
CONTINUOUS
 10
49.4658959538
 20
242.5299855512
 11
49.4658959538
 21
242.0299855512
  0
POLYLINE
 67
1
  8
13_KOMPONENTER
 62
7
  6
CONTINUOUS
 66
1
 70
0
  0
VERTEX
 67
1
  8
13_KOMPONENTER
 62
7
  6
CONTINUOUS
 10
44.2513928299
 20
221.6378980461
  0
VERTEX
 67
1
  8
13_KOMPONENTER
 62
7
  6
CONTINUOUS
 10
44.2684657136
 20
221.7019689073
  0
VERTEX
 67
1
  8
13_KOMPONENTER
 62
7
  6
CONTINUOUS
 10
44.2975768774
 20
221.7841071857
  0
VERTEX
 67
1
  8
13_KOMPONENTER
 62
7
  6
CONTINUOUS
 10
44.3358002151
 20
221.8704793825
  0
VERTEX
 67
1
  8
13_KOMPONENTER
 62
7
  6
CONTINUOUS
 10
44.3816855624
 20
221.9576212479
  0
VERTEX
 67
1
  8
13_KOMPONENTER
 62
7
  6
CONTINUOUS
 10
44.4335927234
 20
222.0429062104
  0
VERTEX
 67
1
  8
13_KOMPONENTER
 62
7
  6
CONTINUOUS
 10
44.4898410823
 20
222.1243398548
  0
VERTEX
 67
1
  8
13_KOMPONENTER
 62
7
  6
CONTINUOUS
 10
44.5491186978
 20
222.2008374588
  0
VERTEX
 67
1
  8
13_KOMPONENTER
 62
7
  6
CONTINUOUS
 10
44.6107991368
 20
222.2722408284
  0
VERTEX
 67
1
  8
13_KOMPONENTER
 62
7
  6
CONTINUOUS
 10
44.6744845601
 20
222.3385027331
  0
VERTEX
 67
1
  8
13_KOMPONENTER
 62
7
  6
CONTINUOUS
 10
44.7397941982
 20
222.3994603637
  0
VERTEX
 67
1
  8
13_KOMPONENTER
 62
7
  6
CONTINUOUS
 10
44.8063037553
 20
222.4548331272
  0
VERTEX
 67
1
  8
13_KOMPONENTER
 62
7
  6
CONTINUOUS
 10
44.8738677033
 20
222.504491561
  0
VERTEX
 67
1
  8
13_KOMPONENTER
 62
7
  6
CONTINUOUS
 10
44.9427508707
 20
222.5484098943
  0
VERTEX
 67
1
  8
13_KOMPONENTER
 62
7
  6
CONTINUOUS
 10
45.0129516643
 20
222.5861204243
  0
VERTEX
 67
1
  8
13_KOMPONENTER
 62
7
  6
CONTINUOUS
 10
45.0844646166
 20
222.6168988138
  0
VERTEX
 67
1
  8
13_KOMPONENTER
 62
7
  6
CONTINUOUS
 10
45.1569483649
 20
222.6396074851
  0
VERTEX
 67
1
  8
13_KOMPONENTER
 62
7
  6
CONTINUOUS
 10
45.229333775
 20
222.6528267242
  0
VERTEX
 67
1
  8
13_KOMPONENTER
 62
7
  6
CONTINUOUS
 10
45.2837584641
 20
222.6559102854
  0
SEQEND
  0
POLYLINE
 67
1
  8
13_KOMPONENTER
 62
7
  6
CONTINUOUS
 66
1
 70
0
  0
VERTEX
 67
1
  8
13_KOMPONENTER
 62
7
  6
CONTINUOUS
 10
46.7121517336
 20
221.6418343361
  0
VERTEX
 67
1
  8
13_KOMPONENTER
 62
7
  6
CONTINUOUS
 10
46.9383036757
 20
220.7194255989
  0
VERTEX
 67
1
  8
13_KOMPONENTER
 62
7
  6
CONTINUOUS
 10
47.1651309376
 20
219.9912304213
  0
VERTEX
 67
1
  8
13_KOMPONENTER
 62
7
  6
CONTINUOUS
 10
47.3953920854
 20
219.4159185213
  0
VERTEX
 67
1
  8
13_KOMPONENTER
 62
7
  6
CONTINUOUS
 10
47.5159787698
 20
219.1708120018
  0
VERTEX
 67
1
  8
13_KOMPONENTER
 62
7
  6
CONTINUOUS
 10
47.7783294503
 20
218.7495118419
  0
VERTEX
 67
1
  8
13_KOMPONENTER
 62
7
  6
CONTINUOUS
 10
48.0931013215
 20
218.4054218658
  0
VERTEX
 67
1
  8
13_KOMPONENTER
 62
7
  6
CONTINUOUS
 10
48.4745729157
 20
218.1572444646
  0
SEQEND
  0
LINE
 67
1
  8
13_KOMPONENTER
 62
7
  6
CONTINUOUS
 10
49.0925379382
 20
246.0822497829
 11
49.4658884921
 21
242.530056544
  0
LINE
 67
1
  8
13_KOMPONENTER
 62
7
  6
CONTINUOUS
 10
51.7027002618
 20
241.0081706662
 11
51.2226585541
 21
219.0081706662
  0
LINE
 67
1
  8
13_KOMPONENTER
 62
7
  6
CONTINUOUS
 10
52.9067134645
 20
221.1583484827
 11
52.8592230044
 21
219.0079121078
  0
POLYLINE
 67
1
  8
13_KOMPONENTER
 62
7
  6
CONTINUOUS
 66
1
 70
0
  0
VERTEX
 67
1
  8
13_KOMPONENTER
 62
7
  6
CONTINUOUS
 10
52.9067133858
 20
221.1583484844
  0
VERTEX
 67
1
  8
13_KOMPONENTER
 62
7
  6
CONTINUOUS
 10
52.9166167793
 20
221.4232306262
  0
VERTEX
 67
1
  8
13_KOMPONENTER
 62
7
  6
CONTINUOUS
 10
52.9359756177
 20
221.702443813
  0
VERTEX
 67
1
  8
13_KOMPONENTER
 62
7
  6
CONTINUOUS
 10
52.9605152558
 20
221.9391651038
  0
VERTEX
 67
1
  8
13_KOMPONENTER
 62
7
  6
CONTINUOUS
 10
52.9868438309
 20
222.1266723146
  0
VERTEX
 67
1
  8
13_KOMPONENTER
 62
7
  6
CONTINUOUS
 10
53.0124758547
 20
222.2672563155
  0
VERTEX
 67
1
  8
13_KOMPONENTER
 62
7
  6
CONTINUOUS
 10
53.0347294366
 20
222.3625952204
  0
VERTEX
 67
1
  8
13_KOMPONENTER
 62
7
  6
CONTINUOUS
 10
53.0491816543
 20
222.411054163
  0
VERTEX
 67
1
  8
13_KOMPONENTER
 62
7
  6
CONTINUOUS
 10
53.0507269367
 20
222.4153661844
  0
SEQEND
  0
LINE
 67
1
  8
13_KOMPONENTER
 62
7
  6
CONTINUOUS
 10
54.3898237592
 20
243.7090798586
 11
54.6392539693
 21
246.0822497829
  0
LINE
 67
1
  8
13_KOMPONENTER
 62
7
  6
CONTINUOUS
 10
55.6726585541
 20
219.0081706662
 11
55.7385947894
 21
222.0299855512
  0
POLYLINE
 67
1
  8
13_KOMPONENTER
 62
7
  6
CONTINUOUS
 66
1
 70
0
  0
VERTEX
 67
1
  8
13_KOMPONENTER
 62
7
  6
CONTINUOUS
 10
59.4121516841
 20
221.6418345628
  0
VERTEX
 67
1
  8
13_KOMPONENTER
 62
7
  6
CONTINUOUS
 10
59.6378622116
 20
220.7210207246
  0
VERTEX
 67
1
  8
13_KOMPONENTER
 62
7
  6
CONTINUOUS
 10
59.8646225557
 20
219.9926718339
  0
VERTEX
 67
1
  8
13_KOMPONENTER
 62
7
  6
CONTINUOUS
 10
60.0948070016
 20
219.4171960542
  0
VERTEX
 67
1
  8
13_KOMPONENTER
 62
7
  6
CONTINUOUS
 10
60.2153464249
 20
219.1720060153
  0
VERTEX
 67
1
  8
13_KOMPONENTER
 62
7
  6
CONTINUOUS
 10
60.4775564209
 20
218.7505537283
  0
VERTEX
 67
1
  8
13_KOMPONENTER
 62
7
  6
CONTINUOUS
 10
60.7920708166
 20
218.4063156325
  0
VERTEX
 67
1
  8
13_KOMPONENTER
 62
7
  6
CONTINUOUS
 10
61.1745798936
 20
218.1572412683
  0
SEQEND
  0
LINE
 67
1
  8
13_KOMPONENTER
 62
7
  6
CONTINUOUS
 10
62.0419681483
 20
243.7090798586
 11
61.7925379382
 21
246.0822497829
  0
LINE
 67
1
  8
13_KOMPONENTER
 62
7
  6
CONTINUOUS
 10
63.5725689031
 20
219.0079121075
 11
63.525078443
 21
221.1583484828
  0
LINE
 67
1
  8
13_KOMPONENTER
 62
7
  6
CONTINUOUS
 10
60.6931971181
 20
222.0299855512
 11
60.7591333534
 21
219.0081706662
  0
LINE
 67
1
  8
13_KOMPONENTER
 62
7
  6
CONTINUOUS
 10
65.2091333534
 20
219.0081706662
 11
64.7290916458
 21
241.0081706662
  0
POLYLINE
 67
1
  8
13_KOMPONENTER
 62
7
  6
CONTINUOUS
 66
1
 70
0
  0
VERTEX
 67
1
  8
13_KOMPONENTER
 62
7
  6
CONTINUOUS
 10
57.0196433854
 20
221.6418499086
  0
VERTEX
 67
1
  8
13_KOMPONENTER
 62
7
  6
CONTINUOUS
 10
57.0360136681
 20
221.704502747
  0
VERTEX
 67
1
  8
13_KOMPONENTER
 62
7
  6
CONTINUOUS
 10
57.0644497009
 20
221.7860892057
  0
VERTEX
 67
1
  8
13_KOMPONENTER
 62
7
  6
CONTINUOUS
 10
57.1019508984
 20
221.8719826531
  0
VERTEX
 67
1
  8
13_KOMPONENTER
 62
7
  6
CONTINUOUS
 10
57.1471057969
 20
221.9587272764
  0
VERTEX
 67
1
  8
13_KOMPONENTER
 62
7
  6
CONTINUOUS
 10
57.1900415155
 20
222.0299855512
  0
SEQEND
  0
POLYLINE
 67
1
  8
13_KOMPONENTER
 62
7
  6
CONTINUOUS
 66
1
 70
0
  0
VERTEX
 67
1
  8
13_KOMPONENTER
 62
7
  6
CONTINUOUS
 10
59.2417234771
 20
222.0299855512
  0
VERTEX
 67
1
  8
13_KOMPONENTER
 62
7
  6
CONTINUOUS
 10
59.2840957802
 20
221.9597770445
  0
VERTEX
 67
1
  8
13_KOMPONENTER
 62
7
  6
CONTINUOUS
 10
59.3293251148
 20
221.8730584832
  0
VERTEX
 67
1
  8
13_KOMPONENTER
 62
7
  6
CONTINUOUS
 10
59.3669249861
 20
221.7871491221
  0
VERTEX
 67
1
  8
13_KOMPONENTER
 62
7
  6
CONTINUOUS
 10
59.395479244
 20
221.705491724
  0
VERTEX
 67
1
  8
13_KOMPONENTER
 62
7
  6
CONTINUOUS
 10
59.4121486096
 20
221.641849546
  0
SEQEND
  0
POLYLINE
 67
1
  8
13_KOMPONENTER
 62
7
  6
CONTINUOUS
 66
1
 70
0
  0
VERTEX
 67
1
  8
13_KOMPONENTER
 62
7
  6
CONTINUOUS
 10
63.381131854
 20
222.4153277191
  0
VERTEX
 67
1
  8
13_KOMPONENTER
 62
7
  6
CONTINUOUS
 10
63.3826829124
 20
222.4108450071
  0
VERTEX
 67
1
  8
13_KOMPONENTER
 62
7
  6
CONTINUOUS
 10
63.3972382883
 20
222.3619353739
  0
VERTEX
 67
1
  8
13_KOMPONENTER
 62
7
  6
CONTINUOUS
 10
63.4195480914
 20
222.266136938
  0
VERTEX
 67
1
  8
13_KOMPONENTER
 62
7
  6
CONTINUOUS
 10
63.4452072265
 20
222.125062744
  0
VERTEX
 67
1
  8
13_KOMPONENTER
 62
7
  6
CONTINUOUS
 10
63.4715392132
 20
221.9370125264
  0
VERTEX
 67
1
  8
13_KOMPONENTER
 62
7
  6
CONTINUOUS
 10
63.4960564517
 20
221.6996699216
  0
VERTEX
 67
1
  8
13_KOMPONENTER
 62
7
  6
CONTINUOUS
 10
63.5153523935
 20
221.4198511919
  0
VERTEX
 67
1
  8
13_KOMPONENTER
 62
7
  6
CONTINUOUS
 10
63.5250785218
 20
221.1583484846
  0
SEQEND
  0
POLYLINE
 67
1
  8
13_KOMPONENTER
 62
7
  6
CONTINUOUS
 66
1
 70
0
  0
VERTEX
 67
1
  8
13_KOMPONENTER
 62
7
  6
CONTINUOUS
 10
63.5725695418
 20
219.0079121216
  0
VERTEX
 67
1
  8
13_KOMPONENTER
 62
7
  6
CONTINUOUS
 10
63.5994129881
 20
218.7988378527
  0
VERTEX
 67
1
  8
13_KOMPONENTER
 62
7
  6
CONTINUOUS
 10
63.6871531389
 20
218.5647742282
  0
VERTEX
 67
1
  8
13_KOMPONENTER
 62
7
  6
CONTINUOUS
 10
63.8303652139
 20
218.3596100739
  0
VERTEX
 67
1
  8
13_KOMPONENTER
 62
7
  6
CONTINUOUS
 10
63.9200996795
 20
218.2720326105
  0
VERTEX
 67
1
  8
13_KOMPONENTER
 62
7
  6
CONTINUOUS
 10
64.1287593424
 20
218.1338102139
  0
VERTEX
 67
1
  8
13_KOMPONENTER
 62
7
  6
CONTINUOUS
 10
64.3650941931
 20
218.0517341589
  0
VERTEX
 67
1
  8
13_KOMPONENTER
 62
7
  6
CONTINUOUS
 10
64.5725671997
 20
218.0299862988
  0
SEQEND
  0
LINE
 67
1
  8
13_KOMPONENTER
 62
7
  6
CONTINUOUS
 10
66.9658959538
 20
242.5299855512
 11
66.9658959538
 21
242.0299855512
  0
LINE
 67
1
  8
13_KOMPONENTER
 62
7
  6
CONTINUOUS
 10
67.3392539693
 20
246.0822497829
 11
66.9659034154
 21
242.530056544
  0
POLYLINE
 67
1
  8
13_KOMPONENTER
 62
7
  6
CONTINUOUS
 66
1
 70
0
  0
VERTEX
 67
1
  8
13_KOMPONENTER
 62
7
  6
CONTINUOUS
 10
72.1121517336
 20
221.6418343361
  0
VERTEX
 67
1
  8
13_KOMPONENTER
 62
7
  6
CONTINUOUS
 10
72.3383036757
 20
220.7194255989
  0
VERTEX
 67
1
  8
13_KOMPONENTER
 62
7
  6
CONTINUOUS
 10
72.5651309376
 20
219.9912304213
  0
VERTEX
 67
1
  8
13_KOMPONENTER
 62
7
  6
CONTINUOUS
 10
72.7953920854
 20
219.4159185213
  0
VERTEX
 67
1
  8
13_KOMPONENTER
 62
7
  6
CONTINUOUS
 10
72.9159787698
 20
219.1708120018
  0
VERTEX
 67
1
  8
13_KOMPONENTER
 62
7
  6
CONTINUOUS
 10
73.1783294503
 20
218.7495118419
  0
VERTEX
 67
1
  8
13_KOMPONENTER
 62
7
  6
CONTINUOUS
 10
73.4931013215
 20
218.4054218658
  0
VERTEX
 67
1
  8
13_KOMPONENTER
 62
7
  6
CONTINUOUS
 10
73.8745729157
 20
218.1572444646
  0
SEQEND
  0
LINE
 67
1
  8
13_KOMPONENTER
 62
7
  6
CONTINUOUS
 10
74.4925379382
 20
246.0822497829
 11
74.8658884921
 21
242.530056544
  0
LINE
 67
1
  8
13_KOMPONENTER
 62
7
  6
CONTINUOUS
 10
74.8658959538
 20
242.5299855512
 11
74.8658959538
 21
242.0299855512
  0
POLYLINE
 67
1
  8
13_KOMPONENTER
 62
7
  6
CONTINUOUS
 66
1
 70
0
  0
VERTEX
 67
1
  8
13_KOMPONENTER
 62
7
  6
CONTINUOUS
 10
69.719643298
 20
221.641849546
  0
VERTEX
 67
1
  8
13_KOMPONENTER
 62
7
  6
CONTINUOUS
 10
69.7363126635
 20
221.705491724
  0
VERTEX
 67
1
  8
13_KOMPONENTER
 62
7
  6
CONTINUOUS
 10
69.7648669214
 20
221.7871491221
  0
VERTEX
 67
1
  8
13_KOMPONENTER
 62
7
  6
CONTINUOUS
 10
69.8024667927
 20
221.8730584832
  0
VERTEX
 67
1
  8
13_KOMPONENTER
 62
7
  6
CONTINUOUS
 10
69.8476961273
 20
221.9597770445
  0
VERTEX
 67
1
  8
13_KOMPONENTER
 62
7
  6
CONTINUOUS
 10
69.8989415836
 20
222.0446878637
  0
VERTEX
 67
1
  8
13_KOMPONENTER
 62
7
  6
CONTINUOUS
 10
69.9545428509
 20
222.1257989559
  0
VERTEX
 67
1
  8
13_KOMPONENTER
 62
7
  6
CONTINUOUS
 10
70.0132007324
 20
222.2020240112
  0
VERTEX
 67
1
  8
13_KOMPONENTER
 62
7
  6
CONTINUOUS
 10
70.0742930074
 20
222.2731997114
  0
VERTEX
 67
1
  8
13_KOMPONENTER
 62
7
  6
CONTINUOUS
 10
70.1374243992
 20
222.3392740355
  0
VERTEX
 67
1
  8
13_KOMPONENTER
 62
7
  6
CONTINUOUS
 10
70.2022131746
 20
222.4000764666
  0
VERTEX
 67
1
  8
13_KOMPONENTER
 62
7
  6
CONTINUOUS
 10
70.2682304912
 20
222.4553170089
  0
VERTEX
 67
1
  8
13_KOMPONENTER
 62
7
  6
CONTINUOUS
 10
70.3353214686
 20
222.5048568254
  0
VERTEX
 67
1
  8
13_KOMPONENTER
 62
7
  6
CONTINUOUS
 10
70.4037514238
 20
222.5486709464
  0
VERTEX
 67
1
  8
13_KOMPONENTER
 62
7
  6
CONTINUOUS
 10
70.4735272259
 20
222.5862946144
  0
VERTEX
 67
1
  8
13_KOMPONENTER
 62
7
  6
CONTINUOUS
 10
70.5446527575
 20
222.6170033761
  0
VERTEX
 67
1
  8
13_KOMPONENTER
 62
7
  6
CONTINUOUS
 10
70.6168124028
 20
222.6396613586
  0
VERTEX
 67
1
  8
13_KOMPONENTER
 62
7
  6
CONTINUOUS
 10
70.6889573691
 20
222.6528437221
  0
VERTEX
 67
1
  8
13_KOMPONENTER
 62
7
  6
CONTINUOUS
 10
70.7431740418
 20
222.6559104024
  0
SEQEND
  0
LINE
 67
1
  8
13_KOMPONENTER
 62
7
  6
CONTINUOUS
 10
77.1027002618
 20
241.0081706662
 11
76.6226585541
 21
219.0081706662
  0
LINE
 67
1
  8
13_KOMPONENTER
 62
7
  6
CONTINUOUS
 10
81.0726585541
 20
219.0081706662
 11
81.1385947894
 21
222.0299855512
  0
LINE
 67
1
  8
13_KOMPONENTER
 62
7
  6
CONTINUOUS
 10
78.3067134645
 20
221.1583484827
 11
78.2592230044
 21
219.0079121078
  0
POLYLINE
 67
1
  8
13_KOMPONENTER
 62
7
  6
CONTINUOUS
 66
1
 70
0
  0
VERTEX
 67
1
  8
13_KOMPONENTER
 62
7
  6
CONTINUOUS
 10
78.3067133858
 20
221.1583484844
  0
VERTEX
 67
1
  8
13_KOMPONENTER
 62
7
  6
CONTINUOUS
 10
78.3166167793
 20
221.4232306262
  0
VERTEX
 67
1
  8
13_KOMPONENTER
 62
7
  6
CONTINUOUS
 10
78.3359756177
 20
221.702443813
  0
VERTEX
 67
1
  8
13_KOMPONENTER
 62
7
  6
CONTINUOUS
 10
78.3605152558
 20
221.9391651037
  0
VERTEX
 67
1
  8
13_KOMPONENTER
 62
7
  6
CONTINUOUS
 10
78.3868438309
 20
222.1266723146
  0
VERTEX
 67
1
  8
13_KOMPONENTER
 62
7
  6
CONTINUOUS
 10
78.4124758547
 20
222.2672563155
  0
VERTEX
 67
1
  8
13_KOMPONENTER
 62
7
  6
CONTINUOUS
 10
78.4347294366
 20
222.3625952204
  0
VERTEX
 67
1
  8
13_KOMPONENTER
 62
7
  6
CONTINUOUS
 10
78.4491816543
 20
222.411054163
  0
VERTEX
 67
1
  8
13_KOMPONENTER
 62
7
  6
CONTINUOUS
 10
78.4507269367
 20
222.4153661844
  0
SEQEND
  0
LINE
 67
1
  8
13_KOMPONENTER
 62
7
  6
CONTINUOUS
 10
79.7898237592
 20
243.7090798586
 11
80.0392539693
 21
246.0822497829
  0
POLYLINE
 67
1
  8
13_KOMPONENTER
 62
7
  6
CONTINUOUS
 66
1
 70
0
  0
VERTEX
 67
1
  8
13_KOMPONENTER
 62
7
  6
CONTINUOUS
 10
48.4746187681
 20
218.1572233998
  0
VERTEX
 67
1
  8
13_KOMPONENTER
 62
7
  6
CONTINUOUS
 10
48.5292442763
 20
218.1332852011
  0
VERTEX
 67
1
  8
13_KOMPONENTER
 62
7
  6
CONTINUOUS
 10
48.6734718644
 20
218.0813128627
  0
VERTEX
 67
1
  8
13_KOMPONENTER
 62
7
  6
CONTINUOUS
 10
48.7557988325
 20
218.0595024579
  0
SEQEND
  0
LINE
 67
1
  8
13_KOMPONENTER
 62
7
  6
CONTINUOUS
 10
48.4745729157
 20
218.1572444646
 11
48.4746187918
 21
218.1572234516
  0
LINE
 67
1
  8
13_KOMPONENTER
 62
7
  6
CONTINUOUS
 10
86.0931971181
 20
222.0299855512
 11
86.1591333534
 21
219.0081706662
  0
POLYLINE
 67
1
  8
13_KOMPONENTER
 62
7
  6
CONTINUOUS
 66
1
 70
0
  0
VERTEX
 67
1
  8
13_KOMPONENTER
 62
7
  6
CONTINUOUS
 10
82.4196433854
 20
221.6418499086
  0
VERTEX
 67
1
  8
13_KOMPONENTER
 62
7
  6
CONTINUOUS
 10
82.4360136681
 20
221.704502747
  0
VERTEX
 67
1
  8
13_KOMPONENTER
 62
7
  6
CONTINUOUS
 10
82.4644497009
 20
221.7860892057
  0
VERTEX
 67
1
  8
13_KOMPONENTER
 62
7
  6
CONTINUOUS
 10
82.5019508984
 20
221.8719826531
  0
VERTEX
 67
1
  8
13_KOMPONENTER
 62
7
  6
CONTINUOUS
 10
82.5471057969
 20
221.9587272764
  0
VERTEX
 67
1
  8
13_KOMPONENTER
 62
7
  6
CONTINUOUS
 10
82.5900415155
 20
222.0299855512
  0
SEQEND
  0
POLYLINE
 67
1
  8
13_KOMPONENTER
 62
7
  6
CONTINUOUS
 66
1
 70
0
  0
VERTEX
 67
1
  8
13_KOMPONENTER
 62
7
  6
CONTINUOUS
 10
61.1746154941
 20
218.1572248993
  0
VERTEX
 67
1
  8
13_KOMPONENTER
 62
7
  6
CONTINUOUS
 10
61.2281167996
 20
218.1337569239
  0
VERTEX
 67
1
  8
13_KOMPONENTER
 62
7
  6
CONTINUOUS
 10
61.3718813121
 20
218.0817918654
  0
VERTEX
 67
1
  8
13_KOMPONENTER
 62
7
  6
CONTINUOUS
 10
61.4538852238
 20
218.0599424067
  0
VERTEX
 67
1
  8
13_KOMPONENTER
 62
7
  6
CONTINUOUS
 10
61.6414485973
 20
218.0322432317
  0
VERTEX
 67
1
  8
13_KOMPONENTER
 62
7
  6
CONTINUOUS
 10
61.711721013
 20
218.0299855978
  0
SEQEND
  0
POLYLINE
 67
1
  8
13_KOMPONENTER
 62
7
  6
CONTINUOUS
 66
1
 70
0
  0
VERTEX
 67
1
  8
13_KOMPONENTER
 62
7
  6
CONTINUOUS
 10
84.6417234771
 20
222.0299855512
  0
VERTEX
 67
1
  8
13_KOMPONENTER
 62
7
  6
CONTINUOUS
 10
84.6840957802
 20
221.9597770445
  0
VERTEX
 67
1
  8
13_KOMPONENTER
 62
7
  6
CONTINUOUS
 10
84.7293251148
 20
221.8730584832
  0
VERTEX
 67
1
  8
13_KOMPONENTER
 62
7
  6
CONTINUOUS
 10
84.7669249861
 20
221.7871491221
  0
VERTEX
 67
1
  8
13_KOMPONENTER
 62
7
  6
CONTINUOUS
 10
84.795479244
 20
221.705491724
  0
VERTEX
 67
1
  8
13_KOMPONENTER
 62
7
  6
CONTINUOUS
 10
84.8121486096
 20
221.641849546
  0
SEQEND
  0
POLYLINE
 67
1
  8
13_KOMPONENTER
 62
7
  6
CONTINUOUS
 66
1
 70
0
  0
VERTEX
 67
1
  8
13_KOMPONENTER
 62
7
  6
CONTINUOUS
 10
84.8121516841
 20
221.6418345628
  0
VERTEX
 67
1
  8
13_KOMPONENTER
 62
7
  6
CONTINUOUS
 10
85.0378622116
 20
220.7210207246
  0
VERTEX
 67
1
  8
13_KOMPONENTER
 62
7
  6
CONTINUOUS
 10
85.2646225557
 20
219.9926718339
  0
VERTEX
 67
1
  8
13_KOMPONENTER
 62
7
  6
CONTINUOUS
 10
85.4948070016
 20
219.4171960542
  0
VERTEX
 67
1
  8
13_KOMPONENTER
 62
7
  6
CONTINUOUS
 10
85.6153464249
 20
219.1720060153
  0
VERTEX
 67
1
  8
13_KOMPONENTER
 62
7
  6
CONTINUOUS
 10
85.8775564209
 20
218.7505537283
  0
VERTEX
 67
1
  8
13_KOMPONENTER
 62
7
  6
CONTINUOUS
 10
86.1920708166
 20
218.4063156325
  0
VERTEX
 67
1
  8
13_KOMPONENTER
 62
7
  6
CONTINUOUS
 10
86.5745798936
 20
218.1572412683
  0
SEQEND
  0
LINE
 67
1
  8
13_KOMPONENTER
 62
7
  6
CONTINUOUS
 10
87.4419681483
 20
243.7090798586
 11
87.1925379382
 21
246.0822497829
  0
LINE
 67
1
  8
13_KOMPONENTER
 62
7
  6
CONTINUOUS
 10
88.9725689031
 20
219.0079121075
 11
88.925078443
 21
221.1583484828
  0
LINE
 67
1
  8
13_KOMPONENTER
 62
7
  6
CONTINUOUS
 10
90.6091333534
 20
219.0081706662
 11
90.1290916458
 21
241.0081706662
  0
LINE
 67
1
  8
13_KOMPONENTER
 62
7
  6
CONTINUOUS
 10
92.3658959538
 20
242.5299855512
 11
92.3658959538
 21
242.0299855512
  0
LINE
 67
1
  8
13_KOMPONENTER
 62
7
  6
CONTINUOUS
 10
92.7392539693
 20
246.0822497829
 11
92.3659034154
 21
242.530056544
  0
POLYLINE
 67
1
  8
13_KOMPONENTER
 62
7
  6
CONTINUOUS
 66
1
 70
0
  0
VERTEX
 67
1
  8
13_KOMPONENTER
 62
7
  6
CONTINUOUS
 10
42.4805596094
 20
218.158659828
  0
VERTEX
 67
1
  8
13_KOMPONENTER
 62
7
  6
CONTINUOUS
 10
42.8616930118
 20
218.4074356972
  0
VERTEX
 67
1
  8
13_KOMPONENTER
 62
7
  6
CONTINUOUS
 10
43.175939126
 20
218.7508257837
  0
VERTEX
 67
1
  8
13_KOMPONENTER
 62
7
  6
CONTINUOUS
 10
43.4390079228
 20
219.1715506878
  0
VERTEX
 67
1
  8
13_KOMPONENTER
 62
7
  6
CONTINUOUS
 10
43.5602886202
 20
219.4164151622
  0
VERTEX
 67
1
  8
13_KOMPONENTER
 62
7
  6
CONTINUOUS
 10
43.7924742803
 20
219.9911563842
  0
VERTEX
 67
1
  8
13_KOMPONENTER
 62
7
  6
CONTINUOUS
 10
44.0220033651
 20
220.7184949484
  0
VERTEX
 67
1
  8
13_KOMPONENTER
 62
7
  6
CONTINUOUS
 10
44.25138958
 20
221.6378827235
  0
SEQEND
  0
POLYLINE
 67
1
  8
13_KOMPONENTER
 62
7
  6
CONTINUOUS
 66
1
 70
0
  0
VERTEX
 67
1
  8
13_KOMPONENTER
 62
7
  6
CONTINUOUS
 10
73.8746187681
 20
218.1572233998
  0
VERTEX
 67
1
  8
13_KOMPONENTER
 62
7
  6
CONTINUOUS
 10
73.9292442763
 20
218.1332852011
  0
VERTEX
 67
1
  8
13_KOMPONENTER
 62
7
  6
CONTINUOUS
 10
74.0734718644
 20
218.0813128627
  0
VERTEX
 67
1
  8
13_KOMPONENTER
 62
7
  6
CONTINUOUS
 10
74.1557988325
 20
218.0595024579
  0
SEQEND
  0
LINE
 67
1
  8
13_KOMPONENTER
 62
7
  6
CONTINUOUS
 10
73.8745729157
 20
218.1572444646
 11
73.8746187918
 21
218.1572234516
  0
POLYLINE
 67
1
  8
13_KOMPONENTER
 62
7
  6
CONTINUOUS
 66
1
 70
0
  0
VERTEX
 67
1
  8
13_KOMPONENTER
 62
7
  6
CONTINUOUS
 10
88.781131854
 20
222.4153277191
  0
VERTEX
 67
1
  8
13_KOMPONENTER
 62
7
  6
CONTINUOUS
 10
88.7826829124
 20
222.4108450071
  0
VERTEX
 67
1
  8
13_KOMPONENTER
 62
7
  6
CONTINUOUS
 10
88.7972382883
 20
222.3619353739
  0
VERTEX
 67
1
  8
13_KOMPONENTER
 62
7
  6
CONTINUOUS
 10
88.8195480914
 20
222.266136938
  0
VERTEX
 67
1
  8
13_KOMPONENTER
 62
7
  6
CONTINUOUS
 10
88.8452072265
 20
222.125062744
  0
VERTEX
 67
1
  8
13_KOMPONENTER
 62
7
  6
CONTINUOUS
 10
88.8715392132
 20
221.9370125264
  0
VERTEX
 67
1
  8
13_KOMPONENTER
 62
7
  6
CONTINUOUS
 10
88.8960564517
 20
221.6996699216
  0
VERTEX
 67
1
  8
13_KOMPONENTER
 62
7
  6
CONTINUOUS
 10
88.9153523935
 20
221.419851192
  0
VERTEX
 67
1
  8
13_KOMPONENTER
 62
7
  6
CONTINUOUS
 10
88.9250785218
 20
221.1583484846
  0
SEQEND
  0
POLYLINE
 67
1
  8
13_KOMPONENTER
 62
7
  6
CONTINUOUS
 66
1
 70
0
  0
VERTEX
 67
1
  8
13_KOMPONENTER
 62
7
  6
CONTINUOUS
 10
88.9725695418
 20
219.0079121216
  0
VERTEX
 67
1
  8
13_KOMPONENTER
 62
7
  6
CONTINUOUS
 10
88.9994129881
 20
218.7988378527
  0
VERTEX
 67
1
  8
13_KOMPONENTER
 62
7
  6
CONTINUOUS
 10
89.0871531389
 20
218.5647742282
  0
VERTEX
 67
1
  8
13_KOMPONENTER
 62
7
  6
CONTINUOUS
 10
89.2303652139
 20
218.3596100739
  0
VERTEX
 67
1
  8
13_KOMPONENTER
 62
7
  6
CONTINUOUS
 10
89.3200996795
 20
218.2720326105
  0
VERTEX
 67
1
  8
13_KOMPONENTER
 62
7
  6
CONTINUOUS
 10
89.5287593424
 20
218.1338102139
  0
VERTEX
 67
1
  8
13_KOMPONENTER
 62
7
  6
CONTINUOUS
 10
89.7650941931
 20
218.0517341589
  0
VERTEX
 67
1
  8
13_KOMPONENTER
 62
7
  6
CONTINUOUS
 10
89.9725671997
 20
218.0299862988
  0
SEQEND
  0
POLYLINE
 67
1
  8
13_KOMPONENTER
 62
7
  6
CONTINUOUS
 66
1
 70
0
  0
VERTEX
 67
1
  8
13_KOMPONENTER
 62
7
  6
CONTINUOUS
 10
55.2572189918
 20
218.1572444646
  0
VERTEX
 67
1
  8
13_KOMPONENTER
 62
7
  6
CONTINUOUS
 10
55.6386905861
 20
218.4054218658
  0
VERTEX
 67
1
  8
13_KOMPONENTER
 62
7
  6
CONTINUOUS
 10
55.9534624572
 20
218.7495118419
  0
VERTEX
 67
1
  8
13_KOMPONENTER
 62
7
  6
CONTINUOUS
 10
56.2158131377
 20
219.1708120018
  0
VERTEX
 67
1
  8
13_KOMPONENTER
 62
7
  6
CONTINUOUS
 10
56.3363998221
 20
219.4159185213
  0
VERTEX
 67
1
  8
13_KOMPONENTER
 62
7
  6
CONTINUOUS
 10
56.5666609699
 20
219.9912304213
  0
VERTEX
 67
1
  8
13_KOMPONENTER
 62
7
  6
CONTINUOUS
 10
56.7934882318
 20
220.7194255989
  0
VERTEX
 67
1
  8
13_KOMPONENTER
 62
7
  6
CONTINUOUS
 10
57.0196401739
 20
221.6418343361
  0
SEQEND
  0
POLYLINE
 67
1
  8
13_KOMPONENTER
 62
7
  6
CONTINUOUS
 66
1
 70
0
  0
VERTEX
 67
1
  8
13_KOMPONENTER
 62
7
  6
CONTINUOUS
 10
169.0903433102
 20
218.0322432317
  0
VERTEX
 67
1
  8
13_KOMPONENTER
 62
7
  6
CONTINUOUS
 10
169.2779066838
 20
218.0599424067
  0
VERTEX
 67
1
  8
13_KOMPONENTER
 62
7
  6
CONTINUOUS
 10
169.3599105954
 20
218.0817918654
  0
VERTEX
 67
1
  8
13_KOMPONENTER
 62
7
  6
CONTINUOUS
 10
169.5036751079
 20
218.1337569239
  0
VERTEX
 67
1
  8
13_KOMPONENTER
 62
7
  6
CONTINUOUS
 10
169.5571764134
 20
218.1572248993
  0
SEQEND
  0
LINE
 67
1
  8
13_KOMPONENTER
 62
7
  6
CONTINUOUS
 10
51.8658959538
 20
218.0306974322
 11
51.8725671997
 21
218.0299862988
  0
POLYLINE
 67
1
  8
13_KOMPONENTER
 62
7
  6
CONTINUOUS
 66
1
 70
0
  0
VERTEX
 67
1
  8
13_KOMPONENTER
 62
7
  6
CONTINUOUS
 10
48.7557988325
 20
218.0595024579
  0
VERTEX
 67
1
  8
13_KOMPONENTER
 62
7
  6
CONTINUOUS
 10
48.9441113073
 20
218.0320762451
  0
VERTEX
 67
1
  8
13_KOMPONENTER
 62
7
  6
CONTINUOUS
 10
49.011712686
 20
218.0299855996
  0
SEQEND
  0
POLYLINE
 67
1
  8
13_KOMPONENTER
 62
7
  6
CONTINUOUS
 66
1
 70
0
  0
VERTEX
 67
1
  8
13_KOMPONENTER
 62
7
  6
CONTINUOUS
 10
86.5746154941
 20
218.1572248993
  0
VERTEX
 67
1
  8
13_KOMPONENTER
 62
7
  6
CONTINUOUS
 10
86.6281167996
 20
218.1337569239
  0
VERTEX
 67
1
  8
13_KOMPONENTER
 62
7
  6
CONTINUOUS
 10
86.7718813121
 20
218.0817918654
  0
VERTEX
 67
1
  8
13_KOMPONENTER
 62
7
  6
CONTINUOUS
 10
86.8538852238
 20
218.0599424067
  0
VERTEX
 67
1
  8
13_KOMPONENTER
 62
7
  6
CONTINUOUS
 10
87.0414485973
 20
218.0322432317
  0
VERTEX
 67
1
  8
13_KOMPONENTER
 62
7
  6
CONTINUOUS
 10
87.111721013
 20
218.0299855978
  0
SEQEND
  0
LINE
 67
1
  8
13_KOMPONENTER
 62
7
  6
CONTINUOUS
 10
99.2745729157
 20
218.1572444646
 11
99.2746187918
 21
218.1572234516
  0
POLYLINE
 67
1
  8
13_KOMPONENTER
 62
7
  6
CONTINUOUS
 66
1
 70
0
  0
VERTEX
 67
1
  8
13_KOMPONENTER
 62
7
  6
CONTINUOUS
 10
97.5121517336
 20
221.6418343361
  0
VERTEX
 67
1
  8
13_KOMPONENTER
 62
7
  6
CONTINUOUS
 10
97.7383036757
 20
220.7194255989
  0
VERTEX
 67
1
  8
13_KOMPONENTER
 62
7
  6
CONTINUOUS
 10
97.9651309376
 20
219.9912304213
  0
VERTEX
 67
1
  8
13_KOMPONENTER
 62
7
  6
CONTINUOUS
 10
98.1953920854
 20
219.4159185213
  0
VERTEX
 67
1
  8
13_KOMPONENTER
 62
7
  6
CONTINUOUS
 10
98.3159787698
 20
219.1708120018
  0
VERTEX
 67
1
  8
13_KOMPONENTER
 62
7
  6
CONTINUOUS
 10
98.5783294503
 20
218.7495118419
  0
VERTEX
 67
1
  8
13_KOMPONENTER
 62
7
  6
CONTINUOUS
 10
98.8931013215
 20
218.4054218658
  0
VERTEX
 67
1
  8
13_KOMPONENTER
 62
7
  6
CONTINUOUS
 10
99.2745729157
 20
218.1572444646
  0
SEQEND
  0
LINE
 67
1
  8
13_KOMPONENTER
 62
7
  6
CONTINUOUS
 10
99.8925379382
 20
246.0822497829
 11
100.2658884921
 21
242.530056544
  0
LINE
 67
1
  8
13_KOMPONENTER
 62
7
  6
CONTINUOUS
 10
100.2658959538
 20
242.5299855512
 11
100.2658959538
 21
242.0299855512
  0
LINE
 67
1
  8
13_KOMPONENTER
 62
7
  6
CONTINUOUS
 10
102.5027002618
 20
241.0081706662
 11
102.0226585541
 21
219.0081706662
  0
POLYLINE
 67
1
  8
13_KOMPONENTER
 62
7
  6
CONTINUOUS
 66
1
 70
0
  0
VERTEX
 67
1
  8
13_KOMPONENTER
 62
7
  6
CONTINUOUS
 10
95.119643298
 20
221.641849546
  0
VERTEX
 67
1
  8
13_KOMPONENTER
 62
7
  6
CONTINUOUS
 10
95.1363126635
 20
221.705491724
  0
VERTEX
 67
1
  8
13_KOMPONENTER
 62
7
  6
CONTINUOUS
 10
95.1648669214
 20
221.7871491221
  0
VERTEX
 67
1
  8
13_KOMPONENTER
 62
7
  6
CONTINUOUS
 10
95.2024667927
 20
221.8730584832
  0
VERTEX
 67
1
  8
13_KOMPONENTER
 62
7
  6
CONTINUOUS
 10
95.2476961273
 20
221.9597770445
  0
VERTEX
 67
1
  8
13_KOMPONENTER
 62
7
  6
CONTINUOUS
 10
95.2989415836
 20
222.0446878637
  0
VERTEX
 67
1
  8
13_KOMPONENTER
 62
7
  6
CONTINUOUS
 10
95.3545428509
 20
222.1257989559
  0
VERTEX
 67
1
  8
13_KOMPONENTER
 62
7
  6
CONTINUOUS
 10
95.4132007324
 20
222.2020240112
  0
VERTEX
 67
1
  8
13_KOMPONENTER
 62
7
  6
CONTINUOUS
 10
95.4742930074
 20
222.2731997114
  0
VERTEX
 67
1
  8
13_KOMPONENTER
 62
7
  6
CONTINUOUS
 10
95.5374243992
 20
222.3392740355
  0
VERTEX
 67
1
  8
13_KOMPONENTER
 62
7
  6
CONTINUOUS
 10
95.6022131746
 20
222.4000764666
  0
VERTEX
 67
1
  8
13_KOMPONENTER
 62
7
  6
CONTINUOUS
 10
95.6682304912
 20
222.4553170089
  0
VERTEX
 67
1
  8
13_KOMPONENTER
 62
7
  6
CONTINUOUS
 10
95.7353214686
 20
222.5048568254
  0
VERTEX
 67
1
  8
13_KOMPONENTER
 62
7
  6
CONTINUOUS
 10
95.8037514238
 20
222.5486709464
  0
VERTEX
 67
1
  8
13_KOMPONENTER
 62
7
  6
CONTINUOUS
 10
95.8735272259
 20
222.5862946144
  0
VERTEX
 67
1
  8
13_KOMPONENTER
 62
7
  6
CONTINUOUS
 10
95.9446527575
 20
222.6170033761
  0
VERTEX
 67
1
  8
13_KOMPONENTER
 62
7
  6
CONTINUOUS
 10
96.0168124028
 20
222.6396613586
  0
VERTEX
 67
1
  8
13_KOMPONENTER
 62
7
  6
CONTINUOUS
 10
96.0889573691
 20
222.6528437221
  0
VERTEX
 67
1
  8
13_KOMPONENTER
 62
7
  6
CONTINUOUS
 10
96.1431740418
 20
222.6559104024
  0
SEQEND
  0
POLYLINE
 67
1
  8
13_KOMPONENTER
 62
7
  6
CONTINUOUS
 66
1
 70
0
  0
VERTEX
 67
1
  8
13_KOMPONENTER
 62
7
  6
CONTINUOUS
 10
67.9572120139
 20
218.1572412683
  0
VERTEX
 67
1
  8
13_KOMPONENTER
 62
7
  6
CONTINUOUS
 10
68.3397210909
 20
218.4063156325
  0
VERTEX
 67
1
  8
13_KOMPONENTER
 62
7
  6
CONTINUOUS
 10
68.6542354866
 20
218.7505537283
  0
VERTEX
 67
1
  8
13_KOMPONENTER
 62
7
  6
CONTINUOUS
 10
68.9164454826
 20
219.1720060153
  0
VERTEX
 67
1
  8
13_KOMPONENTER
 62
7
  6
CONTINUOUS
 10
69.0369849059
 20
219.4171960542
  0
VERTEX
 67
1
  8
13_KOMPONENTER
 62
7
  6
CONTINUOUS
 10
69.2671693518
 20
219.9926718339
  0
VERTEX
 67
1
  8
13_KOMPONENTER
 62
7
  6
CONTINUOUS
 10
69.493929696
 20
220.7210207246
  0
VERTEX
 67
1
  8
13_KOMPONENTER
 62
7
  6
CONTINUOUS
 10
69.7196402234
 20
221.6418345628
  0
SEQEND
  0
POLYLINE
 67
1
  8
13_KOMPONENTER
 62
7
  6
CONTINUOUS
 66
1
 70
0
  0
VERTEX
 67
1
  8
13_KOMPONENTER
 62
7
  6
CONTINUOUS
 10
143.6903433102
 20
218.0322432317
  0
VERTEX
 67
1
  8
13_KOMPONENTER
 62
7
  6
CONTINUOUS
 10
143.8779066838
 20
218.0599424067
  0
VERTEX
 67
1
  8
13_KOMPONENTER
 62
7
  6
CONTINUOUS
 10
143.9599105954
 20
218.0817918654
  0
VERTEX
 67
1
  8
13_KOMPONENTER
 62
7
  6
CONTINUOUS
 10
144.1036751079
 20
218.1337569239
  0
VERTEX
 67
1
  8
13_KOMPONENTER
 62
7
  6
CONTINUOUS
 10
144.1571764134
 20
218.1572248993
  0
SEQEND
  0
POLYLINE
 67
1
  8
13_KOMPONENTER
 62
7
  6
CONTINUOUS
 66
1
 70
0
  0
VERTEX
 67
1
  8
13_KOMPONENTER
 62
7
  6
CONTINUOUS
 10
178.8592247078
 20
218.0299862988
  0
VERTEX
 67
1
  8
13_KOMPONENTER
 62
7
  6
CONTINUOUS
 10
179.0701303741
 20
218.0524681653
  0
VERTEX
 67
1
  8
13_KOMPONENTER
 62
7
  6
CONTINUOUS
 10
179.3062143176
 20
218.1353922131
  0
VERTEX
 67
1
  8
13_KOMPONENTER
 62
7
  6
CONTINUOUS
 10
179.5144004546
 20
218.2743713022
  0
VERTEX
 67
1
  8
13_KOMPONENTER
 62
7
  6
CONTINUOUS
 10
179.6038263123
 20
218.3622751718
  0
VERTEX
 67
1
  8
13_KOMPONENTER
 62
7
  6
CONTINUOUS
 10
179.7463041387
 20
218.5679562798
  0
VERTEX
 67
1
  8
13_KOMPONENTER
 62
7
  6
CONTINUOUS
 10
179.8331989404
 20
218.8023162587
  0
VERTEX
 67
1
  8
13_KOMPONENTER
 62
7
  6
CONTINUOUS
 10
179.8592223657
 20
219.007912122
  0
SEQEND
  0
POLYLINE
 67
1
  8
13_KOMPONENTER
 62
7
  6
CONTINUOUS
 66
1
 70
0
  0
VERTEX
 67
1
  8
13_KOMPONENTER
 62
7
  6
CONTINUOUS
 10
153.4592247078
 20
218.0299862988
  0
VERTEX
 67
1
  8
13_KOMPONENTER
 62
7
  6
CONTINUOUS
 10
153.6701303741
 20
218.0524681653
  0
VERTEX
 67
1
  8
13_KOMPONENTER
 62
7
  6
CONTINUOUS
 10
153.9062143176
 20
218.1353922131
  0
VERTEX
 67
1
  8
13_KOMPONENTER
 62
7
  6
CONTINUOUS
 10
154.1144004546
 20
218.2743713022
  0
VERTEX
 67
1
  8
13_KOMPONENTER
 62
7
  6
CONTINUOUS
 10
154.2038263123
 20
218.3622751718
  0
VERTEX
 67
1
  8
13_KOMPONENTER
 62
7
  6
CONTINUOUS
 10
154.3463041387
 20
218.5679562798
  0
VERTEX
 67
1
  8
13_KOMPONENTER
 62
7
  6
CONTINUOUS
 10
154.4331989404
 20
218.8023162587
  0
VERTEX
 67
1
  8
13_KOMPONENTER
 62
7
  6
CONTINUOUS
 10
154.4592223657
 20
219.007912122
  0
SEQEND
  0
LINE
 67
1
  8
13_KOMPONENTER
 62
7
  6
CONTINUOUS
 10
166.1592247078
 20
218.0299862988
 11
166.1658959538
 21
218.0306855962
  0
LINE
 67
1
  8
13_KOMPONENTER
 62
7
  6
CONTINUOUS
 10
140.7592247078
 20
218.0299862988
 11
140.7658959538
 21
218.0306855962
  0
LINE
 67
1
  8
13_KOMPONENTER
 62
7
  6
CONTINUOUS
 10
169.0200708945
 20
218.0299855978
 11
169.0903433102
 21
218.0322432317
  0
POLYLINE
 67
1
  8
13_KOMPONENTER
 62
7
  6
CONTINUOUS
 66
1
 70
0
  0
VERTEX
 67
1
  8
13_KOMPONENTER
 62
7
  6
CONTINUOUS
 10
181.7200792215
 20
218.0299855996
  0
VERTEX
 67
1
  8
13_KOMPONENTER
 62
7
  6
CONTINUOUS
 10
181.7876806003
 20
218.0320762451
  0
VERTEX
 67
1
  8
13_KOMPONENTER
 62
7
  6
CONTINUOUS
 10
181.975993075
 20
218.0595024579
  0
VERTEX
 67
1
  8
13_KOMPONENTER
 62
7
  6
CONTINUOUS
 10
182.0583200431
 20
218.0813128627
  0
VERTEX
 67
1
  8
13_KOMPONENTER
 62
7
  6
CONTINUOUS
 10
182.2025476313
 20
218.1332852011
  0
VERTEX
 67
1
  8
13_KOMPONENTER
 62
7
  6
CONTINUOUS
 10
182.2571731394
 20
218.1572233998
  0
SEQEND
  0
POLYLINE
 67
1
  8
13_KOMPONENTER
 62
7
  6
CONTINUOUS
 66
1
 70
0
  0
VERTEX
 67
1
  8
13_KOMPONENTER
 62
7
  6
CONTINUOUS
 10
156.3200792215
 20
218.0299855996
  0
VERTEX
 67
1
  8
13_KOMPONENTER
 62
7
  6
CONTINUOUS
 10
156.3876806003
 20
218.0320762451
  0
VERTEX
 67
1
  8
13_KOMPONENTER
 62
7
  6
CONTINUOUS
 10
156.575993075
 20
218.0595024579
  0
VERTEX
 67
1
  8
13_KOMPONENTER
 62
7
  6
CONTINUOUS
 10
156.6583200431
 20
218.0813128627
  0
VERTEX
 67
1
  8
13_KOMPONENTER
 62
7
  6
CONTINUOUS
 10
156.8025476313
 20
218.1332852011
  0
VERTEX
 67
1
  8
13_KOMPONENTER
 62
7
  6
CONTINUOUS
 10
156.8571731394
 20
218.1572233998
  0
SEQEND
  0
LINE
 67
1
  8
13_KOMPONENTER
 62
7
  6
CONTINUOUS
 10
77.2658959538
 20
218.0306974322
 11
77.2725671997
 21
218.0299862988
  0
LINE
 67
1
  8
13_KOMPONENTER
 62
7
  6
CONTINUOUS
 10
102.6658959538
 20
218.0306974322
 11
102.6725671997
 21
218.0299862988
  0
POLYLINE
 67
1
  8
13_KOMPONENTER
 62
7
  6
CONTINUOUS
 66
1
 70
0
  0
VERTEX
 67
1
  8
13_KOMPONENTER
 62
7
  6
CONTINUOUS
 10
74.1557988325
 20
218.0595024579
  0
VERTEX
 67
1
  8
13_KOMPONENTER
 62
7
  6
CONTINUOUS
 10
74.3441113073
 20
218.0320762451
  0
VERTEX
 67
1
  8
13_KOMPONENTER
 62
7
  6
CONTINUOUS
 10
74.411712686
 20
218.0299855996
  0
SEQEND
  0
POLYLINE
 67
1
  8
13_KOMPONENTER
 62
7
  6
CONTINUOUS
 66
1
 70
0
  0
VERTEX
 67
1
  8
13_KOMPONENTER
 62
7
  6
CONTINUOUS
 10
99.5557988325
 20
218.0595024579
  0
VERTEX
 67
1
  8
13_KOMPONENTER
 62
7
  6
CONTINUOUS
 10
99.7441113073
 20
218.0320762451
  0
VERTEX
 67
1
  8
13_KOMPONENTER
 62
7
  6
CONTINUOUS
 10
99.811712686
 20
218.0299855996
  0
SEQEND
  0
POLYLINE
 67
1
  8
13_KOMPONENTER
 62
7
  6
CONTINUOUS
 66
1
 70
0
  0
VERTEX
 67
1
  8
13_KOMPONENTER
 62
7
  6
CONTINUOUS
 10
49.4659258003
 20
242.5297015801
  0
VERTEX
 67
1
  8
13_KOMPONENTER
 62
7
  6
CONTINUOUS
 10
49.517844582
 20
242.5093166601
  0
VERTEX
 67
1
  8
13_KOMPONENTER
 62
7
  6
CONTINUOUS
 10
49.6661269248
 20
242.4951476633
  0
VERTEX
 67
1
  8
13_KOMPONENTER
 62
7
  6
CONTINUOUS
 10
49.9033073436
 20
242.4878886453
  0
VERTEX
 67
1
  8
13_KOMPONENTER
 62
7
  6
CONTINUOUS
 10
50.217570341
 20
242.4878886453
  0
VERTEX
 67
1
  8
13_KOMPONENTER
 62
7
  6
CONTINUOUS
 10
50.5936394304
 20
242.4951476633
  0
VERTEX
 67
1
  8
13_KOMPONENTER
 62
7
  6
CONTINUOUS
 10
51.0130208572
 20
242.5093166601
  0
VERTEX
 67
1
  8
13_KOMPONENTER
 62
7
  6
CONTINUOUS
 10
51.4549695911
 20
242.5297015801
  0
SEQEND
  0
POLYLINE
 67
1
  8
13_KOMPONENTER
 62
7
  6
CONTINUOUS
 66
1
 70
0
  0
VERTEX
 67
1
  8
13_KOMPONENTER
 62
7
  6
CONTINUOUS
 10
99.2746187681
 20
218.1572233998
  0
VERTEX
 67
1
  8
13_KOMPONENTER
 62
7
  6
CONTINUOUS
 10
99.3292442763
 20
218.1332852011
  0
VERTEX
 67
1
  8
13_KOMPONENTER
 62
7
  6
CONTINUOUS
 10
99.4734718644
 20
218.0813128627
  0
VERTEX
 67
1
  8
13_KOMPONENTER
 62
7
  6
CONTINUOUS
 10
99.5557988325
 20
218.0595024579
  0
SEQEND
  0
POLYLINE
 67
1
  8
13_KOMPONENTER
 62
7
  6
CONTINUOUS
 66
1
 70
0
  0
VERTEX
 67
1
  8
13_KOMPONENTER
 62
7
  6
CONTINUOUS
 10
111.9746154941
 20
218.1572248993
  0
VERTEX
 67
1
  8
13_KOMPONENTER
 62
7
  6
CONTINUOUS
 10
112.0281167996
 20
218.1337569239
  0
VERTEX
 67
1
  8
13_KOMPONENTER
 62
7
  6
CONTINUOUS
 10
112.1718813121
 20
218.0817918654
  0
VERTEX
 67
1
  8
13_KOMPONENTER
 62
7
  6
CONTINUOUS
 10
112.2538852238
 20
218.0599424067
  0
VERTEX
 67
1
  8
13_KOMPONENTER
 62
7
  6
CONTINUOUS
 10
112.4414485973
 20
218.0322432317
  0
VERTEX
 67
1
  8
13_KOMPONENTER
 62
7
  6
CONTINUOUS
 10
112.511721013
 20
218.0299855978
  0
SEQEND
  0
LINE
 67
1
  8
13_KOMPONENTER
 62
7
  6
CONTINUOUS
 10
106.4726585541
 20
219.0081706662
 11
106.5385947894
 21
222.0299855512
  0
LINE
 67
1
  8
13_KOMPONENTER
 62
7
  6
CONTINUOUS
 10
103.7067134645
 20
221.1583484827
 11
103.6592230044
 21
219.0079121078
  0
POLYLINE
 67
1
  8
13_KOMPONENTER
 62
7
  6
CONTINUOUS
 66
1
 70
0
  0
VERTEX
 67
1
  8
13_KOMPONENTER
 62
7
  6
CONTINUOUS
 10
103.7067133858
 20
221.1583484844
  0
VERTEX
 67
1
  8
13_KOMPONENTER
 62
7
  6
CONTINUOUS
 10
103.7166167793
 20
221.4232306262
  0
VERTEX
 67
1
  8
13_KOMPONENTER
 62
7
  6
CONTINUOUS
 10
103.7359756177
 20
221.702443813
  0
VERTEX
 67
1
  8
13_KOMPONENTER
 62
7
  6
CONTINUOUS
 10
103.7605152558
 20
221.9391651038
  0
VERTEX
 67
1
  8
13_KOMPONENTER
 62
7
  6
CONTINUOUS
 10
103.7868438309
 20
222.1266723146
  0
VERTEX
 67
1
  8
13_KOMPONENTER
 62
7
  6
CONTINUOUS
 10
103.8124758547
 20
222.2672563155
  0
VERTEX
 67
1
  8
13_KOMPONENTER
 62
7
  6
CONTINUOUS
 10
103.8347294366
 20
222.3625952204
  0
VERTEX
 67
1
  8
13_KOMPONENTER
 62
7
  6
CONTINUOUS
 10
103.8491816543
 20
222.411054163
  0
VERTEX
 67
1
  8
13_KOMPONENTER
 62
7
  6
CONTINUOUS
 10
103.8507269367
 20
222.4153661844
  0
SEQEND
  0
LINE
 67
1
  8
13_KOMPONENTER
 62
7
  6
CONTINUOUS
 10
105.1898237592
 20
243.7090798586
 11
105.4392539693
 21
246.0822497829
  0
LINE
 67
1
  8
13_KOMPONENTER
 62
7
  6
CONTINUOUS
 10
55.2572189918
 20
218.1572444646
 11
55.2571731157
 21
218.1572234516
  0
POLYLINE
 67
1
  8
13_KOMPONENTER
 62
7
  6
CONTINUOUS
 66
1
 70
0
  0
VERTEX
 67
1
  8
13_KOMPONENTER
 62
7
  6
CONTINUOUS
 10
118.2903433102
 20
218.0322432317
  0
VERTEX
 67
1
  8
13_KOMPONENTER
 62
7
  6
CONTINUOUS
 10
118.4779066838
 20
218.0599424067
  0
VERTEX
 67
1
  8
13_KOMPONENTER
 62
7
  6
CONTINUOUS
 10
118.5599105954
 20
218.0817918654
  0
VERTEX
 67
1
  8
13_KOMPONENTER
 62
7
  6
CONTINUOUS
 10
118.7036751079
 20
218.1337569239
  0
VERTEX
 67
1
  8
13_KOMPONENTER
 62
7
  6
CONTINUOUS
 10
118.7571764134
 20
218.1572248993
  0
SEQEND
  0
POLYLINE
 67
1
  8
13_KOMPONENTER
 62
7
  6
CONTINUOUS
 66
1
 70
0
  0
VERTEX
 67
1
  8
13_KOMPONENTER
 62
7
  6
CONTINUOUS
 10
92.8903433102
 20
218.0322432317
  0
VERTEX
 67
1
  8
13_KOMPONENTER
 62
7
  6
CONTINUOUS
 10
93.0779066838
 20
218.0599424067
  0
VERTEX
 67
1
  8
13_KOMPONENTER
 62
7
  6
CONTINUOUS
 10
93.1599105954
 20
218.0817918654
  0
VERTEX
 67
1
  8
13_KOMPONENTER
 62
7
  6
CONTINUOUS
 10
93.3036751079
 20
218.1337569239
  0
VERTEX
 67
1
  8
13_KOMPONENTER
 62
7
  6
CONTINUOUS
 10
93.3571764134
 20
218.1572248993
  0
SEQEND
  0
POLYLINE
 67
1
  8
13_KOMPONENTER
 62
7
  6
CONTINUOUS
 66
1
 70
0
  0
VERTEX
 67
1
  8
13_KOMPONENTER
 62
7
  6
CONTINUOUS
 10
128.0592247078
 20
218.0299862988
  0
VERTEX
 67
1
  8
13_KOMPONENTER
 62
7
  6
CONTINUOUS
 10
128.2701303741
 20
218.0524681653
  0
VERTEX
 67
1
  8
13_KOMPONENTER
 62
7
  6
CONTINUOUS
 10
128.5062143176
 20
218.1353922131
  0
VERTEX
 67
1
  8
13_KOMPONENTER
 62
7
  6
CONTINUOUS
 10
128.7144004546
 20
218.2743713022
  0
VERTEX
 67
1
  8
13_KOMPONENTER
 62
7
  6
CONTINUOUS
 10
128.8038263123
 20
218.3622751718
  0
VERTEX
 67
1
  8
13_KOMPONENTER
 62
7
  6
CONTINUOUS
 10
128.9463041387
 20
218.5679562798
  0
VERTEX
 67
1
  8
13_KOMPONENTER
 62
7
  6
CONTINUOUS
 10
129.0331989404
 20
218.8023162587
  0
VERTEX
 67
1
  8
13_KOMPONENTER
 62
7
  6
CONTINUOUS
 10
129.0592223657
 20
219.007912122
  0
SEQEND
  0
POLYLINE
 67
1
  8
13_KOMPONENTER
 62
7
  6
CONTINUOUS
 66
1
 70
0
  0
VERTEX
 67
1
  8
13_KOMPONENTER
 62
7
  6
CONTINUOUS
 10
102.6592247078
 20
218.0299862988
  0
VERTEX
 67
1
  8
13_KOMPONENTER
 62
7
  6
CONTINUOUS
 10
102.8701303741
 20
218.0524681653
  0
VERTEX
 67
1
  8
13_KOMPONENTER
 62
7
  6
CONTINUOUS
 10
103.1062143176
 20
218.1353922131
  0
VERTEX
 67
1
  8
13_KOMPONENTER
 62
7
  6
CONTINUOUS
 10
103.3144004546
 20
218.2743713022
  0
VERTEX
 67
1
  8
13_KOMPONENTER
 62
7
  6
CONTINUOUS
 10
103.4038263123
 20
218.3622751718
  0
VERTEX
 67
1
  8
13_KOMPONENTER
 62
7
  6
CONTINUOUS
 10
103.5463041387
 20
218.5679562798
  0
VERTEX
 67
1
  8
13_KOMPONENTER
 62
7
  6
CONTINUOUS
 10
103.6331989404
 20
218.8023162587
  0
VERTEX
 67
1
  8
13_KOMPONENTER
 62
7
  6
CONTINUOUS
 10
103.6592223657
 20
219.007912122
  0
SEQEND
  0
LINE
 67
1
  8
13_KOMPONENTER
 62
7
  6
CONTINUOUS
 10
115.3592247078
 20
218.0299862988
 11
115.3658959538
 21
218.0306855962
  0
LINE
 67
1
  8
13_KOMPONENTER
 62
7
  6
CONTINUOUS
 10
89.9592247078
 20
218.0299862988
 11
89.9658959538
 21
218.0306855962
  0
LINE
 67
1
  8
13_KOMPONENTER
 62
7
  6
CONTINUOUS
 10
41.9407468407
 20
218.0299855996
 11
42.0117494999
 21
218.0322933807
  0
LINE
 67
1
  8
13_KOMPONENTER
 62
7
  6
CONTINUOUS
 10
143.6200708945
 20
218.0299855978
 11
143.6903433102
 21
218.0322432317
  0
LINE
 67
1
  8
13_KOMPONENTER
 62
7
  6
CONTINUOUS
 10
118.2200708945
 20
218.0299855978
 11
118.2903433102
 21
218.0322432317
  0
LINE
 67
1
  8
13_KOMPONENTER
 62
7
  6
CONTINUOUS
 10
92.8200708945
 20
218.0299855978
 11
92.8903433102
 21
218.0322432317
  0
LINE
 67
1
  8
13_KOMPONENTER
 62
7
  6
CONTINUOUS
 10
67.4200708945
 20
218.0299855978
 11
67.4903433102
 21
218.0322432317
  0
POLYLINE
 67
1
  8
13_KOMPONENTER
 62
7
  6
CONTINUOUS
 66
1
 70
0
  0
VERTEX
 67
1
  8
13_KOMPONENTER
 62
7
  6
CONTINUOUS
 10
130.9200792215
 20
218.0299855996
  0
VERTEX
 67
1
  8
13_KOMPONENTER
 62
7
  6
CONTINUOUS
 10
130.9876806003
 20
218.0320762451
  0
VERTEX
 67
1
  8
13_KOMPONENTER
 62
7
  6
CONTINUOUS
 10
131.175993075
 20
218.0595024579
  0
VERTEX
 67
1
  8
13_KOMPONENTER
 62
7
  6
CONTINUOUS
 10
131.2583200431
 20
218.0813128627
  0
VERTEX
 67
1
  8
13_KOMPONENTER
 62
7
  6
CONTINUOUS
 10
131.4025476313
 20
218.1332852011
  0
VERTEX
 67
1
  8
13_KOMPONENTER
 62
7
  6
CONTINUOUS
 10
131.4571731394
 20
218.1572233998
  0
SEQEND
  0
POLYLINE
 67
1
  8
13_KOMPONENTER
 62
7
  6
CONTINUOUS
 66
1
 70
0
  0
VERTEX
 67
1
  8
13_KOMPONENTER
 62
7
  6
CONTINUOUS
 10
105.5200792215
 20
218.0299855996
  0
VERTEX
 67
1
  8
13_KOMPONENTER
 62
7
  6
CONTINUOUS
 10
105.5876806003
 20
218.0320762451
  0
VERTEX
 67
1
  8
13_KOMPONENTER
 62
7
  6
CONTINUOUS
 10
105.775993075
 20
218.0595024579
  0
VERTEX
 67
1
  8
13_KOMPONENTER
 62
7
  6
CONTINUOUS
 10
105.8583200431
 20
218.0813128627
  0
VERTEX
 67
1
  8
13_KOMPONENTER
 62
7
  6
CONTINUOUS
 10
106.0025476313
 20
218.1332852011
  0
VERTEX
 67
1
  8
13_KOMPONENTER
 62
7
  6
CONTINUOUS
 10
106.0571731394
 20
218.1572233998
  0
SEQEND
  0
POLYLINE
 67
1
  8
13_KOMPONENTER
 62
7
  6
CONTINUOUS
 66
1
 70
0
  0
VERTEX
 67
1
  8
13_KOMPONENTER
 62
7
  6
CONTINUOUS
 10
80.1200792215
 20
218.0299855996
  0
VERTEX
 67
1
  8
13_KOMPONENTER
 62
7
  6
CONTINUOUS
 10
80.1876806003
 20
218.0320762451
  0
VERTEX
 67
1
  8
13_KOMPONENTER
 62
7
  6
CONTINUOUS
 10
80.375993075
 20
218.0595024579
  0
VERTEX
 67
1
  8
13_KOMPONENTER
 62
7
  6
CONTINUOUS
 10
80.4583200431
 20
218.0813128627
  0
VERTEX
 67
1
  8
13_KOMPONENTER
 62
7
  6
CONTINUOUS
 10
80.6025476313
 20
218.1332852011
  0
VERTEX
 67
1
  8
13_KOMPONENTER
 62
7
  6
CONTINUOUS
 10
80.6571731394
 20
218.1572233998
  0
SEQEND
  0
POLYLINE
 67
1
  8
13_KOMPONENTER
 62
7
  6
CONTINUOUS
 66
1
 70
0
  0
VERTEX
 67
1
  8
13_KOMPONENTER
 62
7
  6
CONTINUOUS
 10
54.7200792215
 20
218.0299855996
  0
VERTEX
 67
1
  8
13_KOMPONENTER
 62
7
  6
CONTINUOUS
 10
54.7876806003
 20
218.0320762451
  0
VERTEX
 67
1
  8
13_KOMPONENTER
 62
7
  6
CONTINUOUS
 10
54.975993075
 20
218.0595024579
  0
VERTEX
 67
1
  8
13_KOMPONENTER
 62
7
  6
CONTINUOUS
 10
55.0583200431
 20
218.0813128627
  0
VERTEX
 67
1
  8
13_KOMPONENTER
 62
7
  6
CONTINUOUS
 10
55.2025476313
 20
218.1332852011
  0
VERTEX
 67
1
  8
13_KOMPONENTER
 62
7
  6
CONTINUOUS
 10
55.2571731394
 20
218.1572233998
  0
SEQEND
  0
LINE
 67
1
  8
13_KOMPONENTER
 62
7
  6
CONTINUOUS
 10
181.7200792215
 20
218.0299855996
 11
181.7198616784
 21
218.0299855757
  0
LINE
 67
1
  8
13_KOMPONENTER
 62
7
  6
CONTINUOUS
 10
169.0200708945
 20
218.029985574
 11
169.0198616784
 21
218.029985552
  0
LINE
 67
1
  8
13_KOMPONENTER
 62
7
  6
CONTINUOUS
 10
156.3200792215
 20
218.0299855996
 11
156.3198616784
 21
218.0299855757
  0
LINE
 67
1
  8
13_KOMPONENTER
 62
7
  6
CONTINUOUS
 10
143.6200708945
 20
218.029985574
 11
143.6198616784
 21
218.029985552
  0
LINE
 67
1
  8
13_KOMPONENTER
 62
7
  6
CONTINUOUS
 10
190.3658959538
 20
218.0299855512
 11
188.791260722
 21
218.0299855512
  0
LINE
 67
1
  8
13_KOMPONENTER
 62
7
  6
CONTINUOUS
 10
40.3658959538
 20
218.0299855512
 11
41.9405311855
 21
218.0299855512
  0
LINE
 67
1
  8
13_KOMPONENTER
 62
7
  6
CONTINUOUS
 10
49.0119302292
 20
218.0299855512
 11
51.8592247078
 21
218.0299855512
  0
LINE
 67
1
  8
13_KOMPONENTER
 62
7
  6
CONTINUOUS
 10
51.8725671997
 20
218.0299855512
 11
54.7198616784
 21
218.0299855512
  0
LINE
 67
1
  8
13_KOMPONENTER
 62
7
  6
CONTINUOUS
 10
61.7119302292
 20
218.0299855512
 11
64.5592247078
 21
218.0299855512
  0
LINE
 67
1
  8
13_KOMPONENTER
 62
7
  6
CONTINUOUS
 10
64.5725671997
 20
218.0299855512
 11
67.4198616784
 21
218.0299855512
  0
LINE
 67
1
  8
13_KOMPONENTER
 62
7
  6
CONTINUOUS
 10
74.4119302292
 20
218.0299855512
 11
77.2592247078
 21
218.0299855512
  0
LINE
 67
1
  8
13_KOMPONENTER
 62
7
  6
CONTINUOUS
 10
77.2725671997
 20
218.0299855512
 11
80.1198616784
 21
218.0299855512
  0
LINE
 67
1
  8
13_KOMPONENTER
 62
7
  6
CONTINUOUS
 10
87.1119302292
 20
218.0299855512
 11
89.9592247078
 21
218.0299855512
  0
LINE
 67
1
  8
13_KOMPONENTER
 62
7
  6
CONTINUOUS
 10
89.9725671997
 20
218.0299855512
 11
92.8198616784
 21
218.0299855512
  0
LINE
 67
1
  8
13_KOMPONENTER
 62
7
  6
CONTINUOUS
 10
99.8119302292
 20
218.0299855512
 11
102.6592247078
 21
218.0299855512
  0
LINE
 67
1
  8
13_KOMPONENTER
 62
7
  6
CONTINUOUS
 10
102.6725671997
 20
218.0299855512
 11
105.5198616784
 21
218.0299855512
  0
LINE
 67
1
  8
13_KOMPONENTER
 62
7
  6
CONTINUOUS
 10
112.5119302292
 20
218.0299855512
 11
115.3592247078
 21
218.0299855512
  0
LINE
 67
1
  8
13_KOMPONENTER
 62
7
  6
CONTINUOUS
 10
115.3725671997
 20
218.0299855512
 11
118.2198616784
 21
218.0299855512
  0
LINE
 67
1
  8
13_KOMPONENTER
 62
7
  6
CONTINUOUS
 10
125.2119302292
 20
218.0299855512
 11
128.0592247078
 21
218.0299855512
  0
LINE
 67
1
  8
13_KOMPONENTER
 62
7
  6
CONTINUOUS
 10
128.0725671997
 20
218.0299855512
 11
130.9198616784
 21
218.0299855512
  0
LINE
 67
1
  8
13_KOMPONENTER
 62
7
  6
CONTINUOUS
 10
137.9119302292
 20
218.0299855512
 11
140.7592247078
 21
218.0299855512
  0
LINE
 67
1
  8
13_KOMPONENTER
 62
7
  6
CONTINUOUS
 10
140.7725671997
 20
218.0299855512
 11
143.6198616784
 21
218.0299855512
  0
LINE
 67
1
  8
13_KOMPONENTER
 62
7
  6
CONTINUOUS
 10
150.6119302292
 20
218.0299855512
 11
153.4592247078
 21
218.0299855512
  0
LINE
 67
1
  8
13_KOMPONENTER
 62
7
  6
CONTINUOUS
 10
153.4725671997
 20
218.0299855512
 11
156.3198616784
 21
218.0299855512
  0
LINE
 67
1
  8
13_KOMPONENTER
 62
7
  6
CONTINUOUS
 10
163.3119302292
 20
218.0299855512
 11
166.1592247078
 21
218.0299855512
  0
LINE
 67
1
  8
13_KOMPONENTER
 62
7
  6
CONTINUOUS
 10
166.1725671997
 20
218.0299855512
 11
169.0198616784
 21
218.0299855512
  0
LINE
 67
1
  8
13_KOMPONENTER
 62
7
  6
CONTINUOUS
 10
176.0119302292
 20
218.0299855512
 11
178.8592247078
 21
218.0299855512
  0
LINE
 67
1
  8
13_KOMPONENTER
 62
7
  6
CONTINUOUS
 10
178.8725671997
 20
218.0299855512
 11
181.7198616784
 21
218.0299855512
  0
LINE
 67
1
  8
13_KOMPONENTER
 62
7
  6
CONTINUOUS
 10
92.8200708945
 20
218.029985574
 11
92.8198616784
 21
218.029985552
  0
LINE
 67
1
  8
13_KOMPONENTER
 62
7
  6
CONTINUOUS
 10
80.1200792215
 20
218.0299855996
 11
80.1198616784
 21
218.0299855757
  0
LINE
 67
1
  8
13_KOMPONENTER
 62
7
  6
CONTINUOUS
 10
67.4200708945
 20
218.029985574
 11
67.4198616784
 21
218.029985552
  0
LINE
 67
1
  8
13_KOMPONENTER
 62
7
  6
CONTINUOUS
 10
54.7200792215
 20
218.0299855996
 11
54.7198616784
 21
218.0299855757
  0
LINE
 67
1
  8
13_KOMPONENTER
 62
7
  6
CONTINUOUS
 10
41.9407468407
 20
218.0299855766
 11
41.9405311855
 21
218.0299855532
  0
LINE
 67
1
  8
13_KOMPONENTER
 62
7
  6
CONTINUOUS
 10
44.4257287962
 20
222.0299855512
 11
46.541750392
 21
222.0299855512
  0
LINE
 67
1
  8
13_KOMPONENTER
 62
7
  6
CONTINUOUS
 10
52.9732676879
 20
222.0299855512
 11
63.4585205393
 21
222.0299855512
  0
LINE
 67
1
  8
13_KOMPONENTER
 62
7
  6
CONTINUOUS
 10
69.8900684304
 20
222.0299855512
 11
71.941750392
 21
222.0299855512
  0
LINE
 67
1
  8
13_KOMPONENTER
 62
7
  6
CONTINUOUS
 10
78.3732676879
 20
222.0299855512
 11
88.8585205393
 21
222.0299855512
  0
LINE
 67
1
  8
13_KOMPONENTER
 62
7
  6
CONTINUOUS
 10
95.2900684304
 20
222.0299855512
 11
97.341750392
 21
222.0299855512
  0
LINE
 67
1
  8
13_KOMPONENTER
 62
7
  6
CONTINUOUS
 10
103.7732676879
 20
222.0299855512
 11
114.2585205393
 21
222.0299855512
  0
LINE
 67
1
  8
13_KOMPONENTER
 62
7
  6
CONTINUOUS
 10
120.6900684304
 20
222.0299855512
 11
122.741750392
 21
222.0299855512
  0
LINE
 67
1
  8
13_KOMPONENTER
 62
7
  6
CONTINUOUS
 10
129.1732676879
 20
222.0299855512
 11
139.6585205393
 21
222.0299855512
  0
LINE
 67
1
  8
13_KOMPONENTER
 62
7
  6
CONTINUOUS
 10
146.0900684304
 20
222.0299855512
 11
148.141750392
 21
222.0299855512
  0
LINE
 67
1
  8
13_KOMPONENTER
 62
7
  6
CONTINUOUS
 10
154.5732676879
 20
222.0299855512
 11
165.0585205393
 21
222.0299855512
  0
LINE
 67
1
  8
13_KOMPONENTER
 62
7
  6
CONTINUOUS
 10
171.4900684304
 20
222.0299855512
 11
173.541750392
 21
222.0299855512
  0
LINE
 67
1
  8
13_KOMPONENTER
 62
7
  6
CONTINUOUS
 10
179.9732676879
 20
222.0299855512
 11
186.9306516953
 21
222.0299855512
  0
POLYLINE
 67
1
  8
13_KOMPONENTER
 62
7
  6
CONTINUOUS
 66
1
 70
0
  0
VERTEX
 67
1
  8
13_KOMPONENTER
 62
7
  6
CONTINUOUS
 10
45.6886180342
 20
222.6559103678
  0
VERTEX
 67
1
  8
13_KOMPONENTER
 62
7
  6
CONTINUOUS
 10
45.7439620541
 20
222.652715994
  0
VERTEX
 67
1
  8
13_KOMPONENTER
 62
7
  6
CONTINUOUS
 10
45.816037079
 20
222.6393951911
  0
VERTEX
 67
1
  8
13_KOMPONENTER
 62
7
  6
CONTINUOUS
 10
45.8881302153
 20
222.6166308469
  0
VERTEX
 67
1
  8
13_KOMPONENTER
 62
7
  6
CONTINUOUS
 10
45.9592081107
 20
222.5858343295
  0
VERTEX
 67
1
  8
13_KOMPONENTER
 62
7
  6
CONTINUOUS
 10
46.0289467548
 20
222.5481349379
  0
VERTEX
 67
1
  8
13_KOMPONENTER
 62
7
  6
CONTINUOUS
 10
46.0973435696
 20
222.504253995
  0
VERTEX
 67
1
  8
13_KOMPONENTER
 62
7
  6
CONTINUOUS
 10
46.1643980651
 20
222.4546576946
  0
VERTEX
 67
1
  8
13_KOMPONENTER
 62
7
  6
CONTINUOUS
 10
46.2303702281
 20
222.3993739282
  0
VERTEX
 67
1
  8
13_KOMPONENTER
 62
7
  6
CONTINUOUS
 10
46.2951140233
 20
222.3385334367
  0
VERTEX
 67
1
  8
13_KOMPONENTER
 62
7
  6
CONTINUOUS
 10
46.3582103984
 20
222.2724136994
  0
VERTEX
 67
1
  8
13_KOMPONENTER
 62
7
  6
CONTINUOUS
 10
46.4192797745
 20
222.2011768856
  0
VERTEX
 67
1
  8
13_KOMPONENTER
 62
7
  6
CONTINUOUS
 10
46.4779177755
 20
222.1248790338
  0
VERTEX
 67
1
  8
13_KOMPONENTER
 62
7
  6
CONTINUOUS
 10
46.533490595
 20
222.0436939251
  0
VERTEX
 67
1
  8
13_KOMPONENTER
 62
7
  6
CONTINUOUS
 10
46.5846861107
 20
221.9587272764
  0
VERTEX
 67
1
  8
13_KOMPONENTER
 62
7
  6
CONTINUOUS
 10
46.6298410091
 20
221.8719826531
  0
VERTEX
 67
1
  8
13_KOMPONENTER
 62
7
  6
CONTINUOUS
 10
46.6673422067
 20
221.7860892057
  0
VERTEX
 67
1
  8
13_KOMPONENTER
 62
7
  6
CONTINUOUS
 10
46.6957782394
 20
221.704502747
  0
VERTEX
 67
1
  8
13_KOMPONENTER
 62
7
  6
CONTINUOUS
 10
46.7121485221
 20
221.6418499086
  0
SEQEND
  0
POLYLINE
 67
1
  8
13_KOMPONENTER
 62
7
  6
CONTINUOUS
 66
1
 70
0
  0
VERTEX
 67
1
  8
13_KOMPONENTER
 62
7
  6
CONTINUOUS
 10
71.0886180342
 20
222.6559103678
  0
VERTEX
 67
1
  8
13_KOMPONENTER
 62
7
  6
CONTINUOUS
 10
71.1439620541
 20
222.652715994
  0
VERTEX
 67
1
  8
13_KOMPONENTER
 62
7
  6
CONTINUOUS
 10
71.216037079
 20
222.6393951911
  0
VERTEX
 67
1
  8
13_KOMPONENTER
 62
7
  6
CONTINUOUS
 10
71.2881302153
 20
222.6166308469
  0
VERTEX
 67
1
  8
13_KOMPONENTER
 62
7
  6
CONTINUOUS
 10
71.3592081107
 20
222.5858343295
  0
VERTEX
 67
1
  8
13_KOMPONENTER
 62
7
  6
CONTINUOUS
 10
71.4289467548
 20
222.5481349379
  0
VERTEX
 67
1
  8
13_KOMPONENTER
 62
7
  6
CONTINUOUS
 10
71.4973435696
 20
222.504253995
  0
VERTEX
 67
1
  8
13_KOMPONENTER
 62
7
  6
CONTINUOUS
 10
71.5643980651
 20
222.4546576946
  0
VERTEX
 67
1
  8
13_KOMPONENTER
 62
7
  6
CONTINUOUS
 10
71.6303702281
 20
222.3993739282
  0
VERTEX
 67
1
  8
13_KOMPONENTER
 62
7
  6
CONTINUOUS
 10
71.6951140233
 20
222.3385334367
  0
VERTEX
 67
1
  8
13_KOMPONENTER
 62
7
  6
CONTINUOUS
 10
71.7582103984
 20
222.2724136994
  0
VERTEX
 67
1
  8
13_KOMPONENTER
 62
7
  6
CONTINUOUS
 10
71.8192797744
 20
222.2011768856
  0
VERTEX
 67
1
  8
13_KOMPONENTER
 62
7
  6
CONTINUOUS
 10
71.8779177755
 20
222.1248790338
  0
VERTEX
 67
1
  8
13_KOMPONENTER
 62
7
  6
CONTINUOUS
 10
71.933490595
 20
222.0436939251
  0
VERTEX
 67
1
  8
13_KOMPONENTER
 62
7
  6
CONTINUOUS
 10
71.9846861107
 20
221.9587272764
  0
VERTEX
 67
1
  8
13_KOMPONENTER
 62
7
  6
CONTINUOUS
 10
72.0298410091
 20
221.8719826531
  0
VERTEX
 67
1
  8
13_KOMPONENTER
 62
7
  6
CONTINUOUS
 10
72.0673422067
 20
221.7860892057
  0
VERTEX
 67
1
  8
13_KOMPONENTER
 62
7
  6
CONTINUOUS
 10
72.0957782394
 20
221.704502747
  0
VERTEX
 67
1
  8
13_KOMPONENTER
 62
7
  6
CONTINUOUS
 10
72.1121485221
 20
221.6418499086
  0
SEQEND
  0
POLYLINE
 67
1
  8
13_KOMPONENTER
 62
7
  6
CONTINUOUS
 66
1
 70
0
  0
VERTEX
 67
1
  8
13_KOMPONENTER
 62
7
  6
CONTINUOUS
 10
96.4886180342
 20
222.6559103678
  0
VERTEX
 67
1
  8
13_KOMPONENTER
 62
7
  6
CONTINUOUS
 10
96.5439620541
 20
222.652715994
  0
VERTEX
 67
1
  8
13_KOMPONENTER
 62
7
  6
CONTINUOUS
 10
96.616037079
 20
222.6393951911
  0
VERTEX
 67
1
  8
13_KOMPONENTER
 62
7
  6
CONTINUOUS
 10
96.6881302153
 20
222.6166308469
  0
VERTEX
 67
1
  8
13_KOMPONENTER
 62
7
  6
CONTINUOUS
 10
96.7592081107
 20
222.5858343295
  0
VERTEX
 67
1
  8
13_KOMPONENTER
 62
7
  6
CONTINUOUS
 10
96.8289467548
 20
222.5481349379
  0
VERTEX
 67
1
  8
13_KOMPONENTER
 62
7
  6
CONTINUOUS
 10
96.8973435696
 20
222.504253995
  0
VERTEX
 67
1
  8
13_KOMPONENTER
 62
7
  6
CONTINUOUS
 10
96.9643980651
 20
222.4546576946
  0
VERTEX
 67
1
  8
13_KOMPONENTER
 62
7
  6
CONTINUOUS
 10
97.0303702281
 20
222.3993739282
  0
VERTEX
 67
1
  8
13_KOMPONENTER
 62
7
  6
CONTINUOUS
 10
97.0951140233
 20
222.3385334367
  0
VERTEX
 67
1
  8
13_KOMPONENTER
 62
7
  6
CONTINUOUS
 10
97.1582103984
 20
222.2724136994
  0
VERTEX
 67
1
  8
13_KOMPONENTER
 62
7
  6
CONTINUOUS
 10
97.2192797744
 20
222.2011768856
  0
VERTEX
 67
1
  8
13_KOMPONENTER
 62
7
  6
CONTINUOUS
 10
97.2779177755
 20
222.1248790338
  0
VERTEX
 67
1
  8
13_KOMPONENTER
 62
7
  6
CONTINUOUS
 10
97.333490595
 20
222.0436939251
  0
VERTEX
 67
1
  8
13_KOMPONENTER
 62
7
  6
CONTINUOUS
 10
97.3846861107
 20
221.9587272764
  0
VERTEX
 67
1
  8
13_KOMPONENTER
 62
7
  6
CONTINUOUS
 10
97.4298410091
 20
221.8719826531
  0
VERTEX
 67
1
  8
13_KOMPONENTER
 62
7
  6
CONTINUOUS
 10
97.4673422067
 20
221.7860892057
  0
VERTEX
 67
1
  8
13_KOMPONENTER
 62
7
  6
CONTINUOUS
 10
97.4957782394
 20
221.704502747
  0
VERTEX
 67
1
  8
13_KOMPONENTER
 62
7
  6
CONTINUOUS
 10
97.5121485221
 20
221.6418499086
  0
SEQEND
  0
LINE
 67
1
  8
13_KOMPONENTER
 62
7
  6
CONTINUOUS
 10
128.0658959538
 20
218.0306974322
 11
128.0725671997
 21
218.0299862988
  0
LINE
 67
1
  8
13_KOMPONENTER
 62
7
  6
CONTINUOUS
 10
153.4658959538
 20
218.0306974322
 11
153.4725671997
 21
218.0299862988
  0
POLYLINE
 67
1
  8
13_KOMPONENTER
 62
7
  6
CONTINUOUS
 66
1
 70
0
  0
VERTEX
 67
1
  8
13_KOMPONENTER
 62
7
  6
CONTINUOUS
 10
124.9557988325
 20
218.0595024579
  0
VERTEX
 67
1
  8
13_KOMPONENTER
 62
7
  6
CONTINUOUS
 10
125.1441113073
 20
218.0320762451
  0
VERTEX
 67
1
  8
13_KOMPONENTER
 62
7
  6
CONTINUOUS
 10
125.211712686
 20
218.0299855996
  0
SEQEND
  0
POLYLINE
 67
1
  8
13_KOMPONENTER
 62
7
  6
CONTINUOUS
 66
1
 70
0
  0
VERTEX
 67
1
  8
13_KOMPONENTER
 62
7
  6
CONTINUOUS
 10
124.6746187681
 20
218.1572233998
  0
VERTEX
 67
1
  8
13_KOMPONENTER
 62
7
  6
CONTINUOUS
 10
124.7292442763
 20
218.1332852011
  0
VERTEX
 67
1
  8
13_KOMPONENTER
 62
7
  6
CONTINUOUS
 10
124.8734718644
 20
218.0813128627
  0
VERTEX
 67
1
  8
13_KOMPONENTER
 62
7
  6
CONTINUOUS
 10
124.9557988325
 20
218.0595024579
  0
SEQEND
  0
LINE
 67
1
  8
13_KOMPONENTER
 62
7
  6
CONTINUOUS
 10
124.6745729157
 20
218.1572444646
 11
124.6746187918
 21
218.1572234516
  0
POLYLINE
 67
1
  8
13_KOMPONENTER
 62
7
  6
CONTINUOUS
 66
1
 70
0
  0
VERTEX
 67
1
  8
13_KOMPONENTER
 62
7
  6
CONTINUOUS
 10
110.0417234771
 20
222.0299855512
  0
VERTEX
 67
1
  8
13_KOMPONENTER
 62
7
  6
CONTINUOUS
 10
110.0840957802
 20
221.9597770445
  0
VERTEX
 67
1
  8
13_KOMPONENTER
 62
7
  6
CONTINUOUS
 10
110.1293251148
 20
221.8730584832
  0
VERTEX
 67
1
  8
13_KOMPONENTER
 62
7
  6
CONTINUOUS
 10
110.1669249861
 20
221.7871491221
  0
VERTEX
 67
1
  8
13_KOMPONENTER
 62
7
  6
CONTINUOUS
 10
110.195479244
 20
221.705491724
  0
VERTEX
 67
1
  8
13_KOMPONENTER
 62
7
  6
CONTINUOUS
 10
110.2121486096
 20
221.641849546
  0
SEQEND
  0
POLYLINE
 67
1
  8
13_KOMPONENTER
 62
7
  6
CONTINUOUS
 66
1
 70
0
  0
VERTEX
 67
1
  8
13_KOMPONENTER
 62
7
  6
CONTINUOUS
 10
110.2121516841
 20
221.6418345628
  0
VERTEX
 67
1
  8
13_KOMPONENTER
 62
7
  6
CONTINUOUS
 10
110.4378622116
 20
220.7210207246
  0
VERTEX
 67
1
  8
13_KOMPONENTER
 62
7
  6
CONTINUOUS
 10
110.6646225557
 20
219.9926718339
  0
VERTEX
 67
1
  8
13_KOMPONENTER
 62
7
  6
CONTINUOUS
 10
110.8948070016
 20
219.4171960542
  0
VERTEX
 67
1
  8
13_KOMPONENTER
 62
7
  6
CONTINUOUS
 10
111.0153464249
 20
219.1720060153
  0
VERTEX
 67
1
  8
13_KOMPONENTER
 62
7
  6
CONTINUOUS
 10
111.2775564209
 20
218.7505537283
  0
VERTEX
 67
1
  8
13_KOMPONENTER
 62
7
  6
CONTINUOUS
 10
111.5920708166
 20
218.4063156325
  0
VERTEX
 67
1
  8
13_KOMPONENTER
 62
7
  6
CONTINUOUS
 10
111.9745798936
 20
218.1572412683
  0
SEQEND
  0
LINE
 67
1
  8
13_KOMPONENTER
 62
7
  6
CONTINUOUS
 10
111.5591333534
 20
219.0081706662
 11
111.4931971181
 21
222.0299855512
  0
POLYLINE
 67
1
  8
13_KOMPONENTER
 62
7
  6
CONTINUOUS
 66
1
 70
0
  0
VERTEX
 67
1
  8
13_KOMPONENTER
 62
7
  6
CONTINUOUS
 10
107.8196433854
 20
221.6418499086
  0
VERTEX
 67
1
  8
13_KOMPONENTER
 62
7
  6
CONTINUOUS
 10
107.8360136681
 20
221.704502747
  0
VERTEX
 67
1
  8
13_KOMPONENTER
 62
7
  6
CONTINUOUS
 10
107.8644497009
 20
221.7860892057
  0
VERTEX
 67
1
  8
13_KOMPONENTER
 62
7
  6
CONTINUOUS
 10
107.9019508984
 20
221.8719826531
  0
VERTEX
 67
1
  8
13_KOMPONENTER
 62
7
  6
CONTINUOUS
 10
107.9471057969
 20
221.9587272764
  0
VERTEX
 67
1
  8
13_KOMPONENTER
 62
7
  6
CONTINUOUS
 10
107.9900415155
 20
222.0299855512
  0
SEQEND
  0
POLYLINE
 67
1
  8
13_KOMPONENTER
 62
7
  6
CONTINUOUS
 66
1
 70
0
  0
VERTEX
 67
1
  8
13_KOMPONENTER
 62
7
  6
CONTINUOUS
 10
80.6572189918
 20
218.1572444646
  0
VERTEX
 67
1
  8
13_KOMPONENTER
 62
7
  6
CONTINUOUS
 10
81.0386905861
 20
218.4054218658
  0
VERTEX
 67
1
  8
13_KOMPONENTER
 62
7
  6
CONTINUOUS
 10
81.3534624572
 20
218.7495118419
  0
VERTEX
 67
1
  8
13_KOMPONENTER
 62
7
  6
CONTINUOUS
 10
81.6158131377
 20
219.1708120018
  0
VERTEX
 67
1
  8
13_KOMPONENTER
 62
7
  6
CONTINUOUS
 10
81.7363998221
 20
219.4159185213
  0
VERTEX
 67
1
  8
13_KOMPONENTER
 62
7
  6
CONTINUOUS
 10
81.9666609699
 20
219.9912304213
  0
VERTEX
 67
1
  8
13_KOMPONENTER
 62
7
  6
CONTINUOUS
 10
82.1934882318
 20
220.7194255989
  0
VERTEX
 67
1
  8
13_KOMPONENTER
 62
7
  6
CONTINUOUS
 10
82.4196401739
 20
221.6418343361
  0
SEQEND
  0
POLYLINE
 67
1
  8
13_KOMPONENTER
 62
7
  6
CONTINUOUS
 66
1
 70
0
  0
VERTEX
 67
1
  8
13_KOMPONENTER
 62
7
  6
CONTINUOUS
 10
67.4903433102
 20
218.0322432317
  0
VERTEX
 67
1
  8
13_KOMPONENTER
 62
7
  6
CONTINUOUS
 10
67.6779066838
 20
218.0599424067
  0
VERTEX
 67
1
  8
13_KOMPONENTER
 62
7
  6
CONTINUOUS
 10
67.7599105954
 20
218.0817918654
  0
VERTEX
 67
1
  8
13_KOMPONENTER
 62
7
  6
CONTINUOUS
 10
67.9036751079
 20
218.1337569239
  0
VERTEX
 67
1
  8
13_KOMPONENTER
 62
7
  6
CONTINUOUS
 10
67.9571764134
 20
218.1572248993
  0
SEQEND
  0
POLYLINE
 67
1
  8
13_KOMPONENTER
 62
7
  6
CONTINUOUS
 66
1
 70
0
  0
VERTEX
 67
1
  8
13_KOMPONENTER
 62
7
  6
CONTINUOUS
 10
77.2592247078
 20
218.0299862988
  0
VERTEX
 67
1
  8
13_KOMPONENTER
 62
7
  6
CONTINUOUS
 10
77.4701303741
 20
218.0524681653
  0
VERTEX
 67
1
  8
13_KOMPONENTER
 62
7
  6
CONTINUOUS
 10
77.7062143176
 20
218.1353922131
  0
VERTEX
 67
1
  8
13_KOMPONENTER
 62
7
  6
CONTINUOUS
 10
77.9144004546
 20
218.2743713022
  0
VERTEX
 67
1
  8
13_KOMPONENTER
 62
7
  6
CONTINUOUS
 10
78.0038263123
 20
218.3622751718
  0
VERTEX
 67
1
  8
13_KOMPONENTER
 62
7
  6
CONTINUOUS
 10
78.1463041387
 20
218.5679562798
  0
VERTEX
 67
1
  8
13_KOMPONENTER
 62
7
  6
CONTINUOUS
 10
78.2331989404
 20
218.8023162587
  0
VERTEX
 67
1
  8
13_KOMPONENTER
 62
7
  6
CONTINUOUS
 10
78.2592223657
 20
219.007912122
  0
SEQEND
  0
POLYLINE
 67
1
  8
13_KOMPONENTER
 62
7
  6
CONTINUOUS
 66
1
 70
0
  0
VERTEX
 67
1
  8
13_KOMPONENTER
 62
7
  6
CONTINUOUS
 10
51.8592247078
 20
218.0299862988
  0
VERTEX
 67
1
  8
13_KOMPONENTER
 62
7
  6
CONTINUOUS
 10
52.0701303741
 20
218.0524681653
  0
VERTEX
 67
1
  8
13_KOMPONENTER
 62
7
  6
CONTINUOUS
 10
52.3062143176
 20
218.1353922131
  0
VERTEX
 67
1
  8
13_KOMPONENTER
 62
7
  6
CONTINUOUS
 10
52.5144004546
 20
218.2743713022
  0
VERTEX
 67
1
  8
13_KOMPONENTER
 62
7
  6
CONTINUOUS
 10
52.6038263123
 20
218.3622751718
  0
VERTEX
 67
1
  8
13_KOMPONENTER
 62
7
  6
CONTINUOUS
 10
52.7463041387
 20
218.5679562798
  0
VERTEX
 67
1
  8
13_KOMPONENTER
 62
7
  6
CONTINUOUS
 10
52.8331989404
 20
218.8023162587
  0
VERTEX
 67
1
  8
13_KOMPONENTER
 62
7
  6
CONTINUOUS
 10
52.8592223657
 20
219.007912122
  0
SEQEND
  0
LINE
 67
1
  8
13_KOMPONENTER
 62
7
  6
CONTINUOUS
 10
64.5592247078
 20
218.0299862988
 11
64.5658959538
 21
218.0306855962
  0
LINE
 67
1
  8
13_KOMPONENTER
 62
7
  6
CONTINUOUS
 10
172.6886180341
 20
222.6559096632
 11
172.3431740419
 21
222.6559096632
  0
LINE
 67
1
  8
13_KOMPONENTER
 62
7
  6
CONTINUOUS
 10
147.2886180341
 20
222.6559096632
 11
146.9431740419
 21
222.6559096632
  0
LINE
 67
1
  8
13_KOMPONENTER
 62
7
  6
CONTINUOUS
 10
121.8886180341
 20
222.6559096632
 11
121.5431740419
 21
222.6559096632
  0
LINE
 67
1
  8
13_KOMPONENTER
 62
7
  6
CONTINUOUS
 10
96.4886180341
 20
222.6559096632
 11
96.1431740419
 21
222.6559096632
  0
LINE
 67
1
  8
13_KOMPONENTER
 62
7
  6
CONTINUOUS
 10
71.0886180341
 20
222.6559096632
 11
70.7431740419
 21
222.6559096632
  0
LINE
 67
1
  8
13_KOMPONENTER
 62
7
  6
CONTINUOUS
 10
45.6886180341
 20
222.6559096632
 11
45.2837584641
 21
222.6559096632
  0
POLYLINE
 67
1
  8
13_KOMPONENTER
 62
7
  6
CONTINUOUS
 66
1
 70
0
  0
VERTEX
 67
1
  8
13_KOMPONENTER
 62
7
  6
CONTINUOUS
 10
121.8886180342
 20
222.6559103678
  0
VERTEX
 67
1
  8
13_KOMPONENTER
 62
7
  6
CONTINUOUS
 10
121.9439620541
 20
222.652715994
  0
VERTEX
 67
1
  8
13_KOMPONENTER
 62
7
  6
CONTINUOUS
 10
122.016037079
 20
222.6393951911
  0
VERTEX
 67
1
  8
13_KOMPONENTER
 62
7
  6
CONTINUOUS
 10
122.0881302153
 20
222.6166308469
  0
VERTEX
 67
1
  8
13_KOMPONENTER
 62
7
  6
CONTINUOUS
 10
122.1592081107
 20
222.5858343295
  0
VERTEX
 67
1
  8
13_KOMPONENTER
 62
7
  6
CONTINUOUS
 10
122.2289467548
 20
222.5481349379
  0
VERTEX
 67
1
  8
13_KOMPONENTER
 62
7
  6
CONTINUOUS
 10
122.2973435696
 20
222.504253995
  0
VERTEX
 67
1
  8
13_KOMPONENTER
 62
7
  6
CONTINUOUS
 10
122.3643980651
 20
222.4546576946
  0
VERTEX
 67
1
  8
13_KOMPONENTER
 62
7
  6
CONTINUOUS
 10
122.4303702281
 20
222.3993739282
  0
VERTEX
 67
1
  8
13_KOMPONENTER
 62
7
  6
CONTINUOUS
 10
122.4951140233
 20
222.3385334367
  0
VERTEX
 67
1
  8
13_KOMPONENTER
 62
7
  6
CONTINUOUS
 10
122.5582103984
 20
222.2724136994
  0
VERTEX
 67
1
  8
13_KOMPONENTER
 62
7
  6
CONTINUOUS
 10
122.6192797745
 20
222.2011768856
  0
VERTEX
 67
1
  8
13_KOMPONENTER
 62
7
  6
CONTINUOUS
 10
122.6779177755
 20
222.1248790338
  0
VERTEX
 67
1
  8
13_KOMPONENTER
 62
7
  6
CONTINUOUS
 10
122.733490595
 20
222.0436939251
  0
VERTEX
 67
1
  8
13_KOMPONENTER
 62
7
  6
CONTINUOUS
 10
122.7846861107
 20
221.9587272764
  0
VERTEX
 67
1
  8
13_KOMPONENTER
 62
7
  6
CONTINUOUS
 10
122.8298410091
 20
221.8719826531
  0
VERTEX
 67
1
  8
13_KOMPONENTER
 62
7
  6
CONTINUOUS
 10
122.8673422067
 20
221.7860892057
  0
VERTEX
 67
1
  8
13_KOMPONENTER
 62
7
  6
CONTINUOUS
 10
122.8957782394
 20
221.704502747
  0
VERTEX
 67
1
  8
13_KOMPONENTER
 62
7
  6
CONTINUOUS
 10
122.9121485221
 20
221.6418499086
  0
SEQEND
  0
POLYLINE
 67
1
  8
13_KOMPONENTER
 62
7
  6
CONTINUOUS
 66
1
 70
0
  0
VERTEX
 67
1
  8
13_KOMPONENTER
 62
7
  6
CONTINUOUS
 10
147.2886180342
 20
222.6559103678
  0
VERTEX
 67
1
  8
13_KOMPONENTER
 62
7
  6
CONTINUOUS
 10
147.3439620541
 20
222.652715994
  0
VERTEX
 67
1
  8
13_KOMPONENTER
 62
7
  6
CONTINUOUS
 10
147.416037079
 20
222.6393951911
  0
VERTEX
 67
1
  8
13_KOMPONENTER
 62
7
  6
CONTINUOUS
 10
147.4881302153
 20
222.6166308469
  0
VERTEX
 67
1
  8
13_KOMPONENTER
 62
7
  6
CONTINUOUS
 10
147.5592081107
 20
222.5858343295
  0
VERTEX
 67
1
  8
13_KOMPONENTER
 62
7
  6
CONTINUOUS
 10
147.6289467548
 20
222.5481349379
  0
VERTEX
 67
1
  8
13_KOMPONENTER
 62
7
  6
CONTINUOUS
 10
147.6973435696
 20
222.504253995
  0
VERTEX
 67
1
  8
13_KOMPONENTER
 62
7
  6
CONTINUOUS
 10
147.7643980651
 20
222.4546576946
  0
VERTEX
 67
1
  8
13_KOMPONENTER
 62
7
  6
CONTINUOUS
 10
147.8303702281
 20
222.3993739282
  0
VERTEX
 67
1
  8
13_KOMPONENTER
 62
7
  6
CONTINUOUS
 10
147.8951140233
 20
222.3385334367
  0
VERTEX
 67
1
  8
13_KOMPONENTER
 62
7
  6
CONTINUOUS
 10
147.9582103984
 20
222.2724136994
  0
VERTEX
 67
1
  8
13_KOMPONENTER
 62
7
  6
CONTINUOUS
 10
148.0192797745
 20
222.2011768856
  0
VERTEX
 67
1
  8
13_KOMPONENTER
 62
7
  6
CONTINUOUS
 10
148.0779177755
 20
222.1248790338
  0
VERTEX
 67
1
  8
13_KOMPONENTER
 62
7
  6
CONTINUOUS
 10
148.133490595
 20
222.0436939251
  0
VERTEX
 67
1
  8
13_KOMPONENTER
 62
7
  6
CONTINUOUS
 10
148.1846861107
 20
221.9587272764
  0
VERTEX
 67
1
  8
13_KOMPONENTER
 62
7
  6
CONTINUOUS
 10
148.2298410091
 20
221.8719826531
  0
VERTEX
 67
1
  8
13_KOMPONENTER
 62
7
  6
CONTINUOUS
 10
148.2673422067
 20
221.7860892057
  0
VERTEX
 67
1
  8
13_KOMPONENTER
 62
7
  6
CONTINUOUS
 10
148.2957782394
 20
221.704502747
  0
VERTEX
 67
1
  8
13_KOMPONENTER
 62
7
  6
CONTINUOUS
 10
148.3121485221
 20
221.6418499086
  0
SEQEND
  0
POLYLINE
 67
1
  8
13_KOMPONENTER
 62
7
  6
CONTINUOUS
 66
1
 70
0
  0
VERTEX
 67
1
  8
13_KOMPONENTER
 62
7
  6
CONTINUOUS
 10
172.6886180342
 20
222.6559103678
  0
VERTEX
 67
1
  8
13_KOMPONENTER
 62
7
  6
CONTINUOUS
 10
172.7439620541
 20
222.652715994
  0
VERTEX
 67
1
  8
13_KOMPONENTER
 62
7
  6
CONTINUOUS
 10
172.816037079
 20
222.6393951911
  0
VERTEX
 67
1
  8
13_KOMPONENTER
 62
7
  6
CONTINUOUS
 10
172.8881302153
 20
222.6166308469
  0
VERTEX
 67
1
  8
13_KOMPONENTER
 62
7
  6
CONTINUOUS
 10
172.9592081107
 20
222.5858343295
  0
VERTEX
 67
1
  8
13_KOMPONENTER
 62
7
  6
CONTINUOUS
 10
173.0289467548
 20
222.5481349379
  0
VERTEX
 67
1
  8
13_KOMPONENTER
 62
7
  6
CONTINUOUS
 10
173.0973435696
 20
222.504253995
  0
VERTEX
 67
1
  8
13_KOMPONENTER
 62
7
  6
CONTINUOUS
 10
173.1643980651
 20
222.4546576946
  0
VERTEX
 67
1
  8
13_KOMPONENTER
 62
7
  6
CONTINUOUS
 10
173.2303702281
 20
222.3993739282
  0
VERTEX
 67
1
  8
13_KOMPONENTER
 62
7
  6
CONTINUOUS
 10
173.2951140233
 20
222.3385334367
  0
VERTEX
 67
1
  8
13_KOMPONENTER
 62
7
  6
CONTINUOUS
 10
173.3582103984
 20
222.2724136994
  0
VERTEX
 67
1
  8
13_KOMPONENTER
 62
7
  6
CONTINUOUS
 10
173.4192797745
 20
222.2011768856
  0
VERTEX
 67
1
  8
13_KOMPONENTER
 62
7
  6
CONTINUOUS
 10
173.4779177755
 20
222.1248790338
  0
VERTEX
 67
1
  8
13_KOMPONENTER
 62
7
  6
CONTINUOUS
 10
173.533490595
 20
222.0436939251
  0
VERTEX
 67
1
  8
13_KOMPONENTER
 62
7
  6
CONTINUOUS
 10
173.5846861107
 20
221.9587272764
  0
VERTEX
 67
1
  8
13_KOMPONENTER
 62
7
  6
CONTINUOUS
 10
173.6298410091
 20
221.8719826531
  0
VERTEX
 67
1
  8
13_KOMPONENTER
 62
7
  6
CONTINUOUS
 10
173.6673422067
 20
221.7860892057
  0
VERTEX
 67
1
  8
13_KOMPONENTER
 62
7
  6
CONTINUOUS
 10
173.6957782394
 20
221.704502747
  0
VERTEX
 67
1
  8
13_KOMPONENTER
 62
7
  6
CONTINUOUS
 10
173.7121485221
 20
221.6418499086
  0
SEQEND
  0
LINE
 67
1
  8
13_KOMPONENTER
 62
7
  6
CONTINUOUS
 10
178.8658959538
 20
218.0306974322
 11
178.8725671997
 21
218.0299862988
  0
POLYLINE
 67
1
  8
13_KOMPONENTER
 62
7
  6
CONTINUOUS
 66
1
 70
0
  0
VERTEX
 67
1
  8
13_KOMPONENTER
 62
7
  6
CONTINUOUS
 10
150.3557988325
 20
218.0595024579
  0
VERTEX
 67
1
  8
13_KOMPONENTER
 62
7
  6
CONTINUOUS
 10
150.5441113073
 20
218.0320762451
  0
VERTEX
 67
1
  8
13_KOMPONENTER
 62
7
  6
CONTINUOUS
 10
150.611712686
 20
218.0299855996
  0
SEQEND
  0
POLYLINE
 67
1
  8
13_KOMPONENTER
 62
7
  6
CONTINUOUS
 66
1
 70
0
  0
VERTEX
 67
1
  8
13_KOMPONENTER
 62
7
  6
CONTINUOUS
 10
175.7557988325
 20
218.0595024579
  0
VERTEX
 67
1
  8
13_KOMPONENTER
 62
7
  6
CONTINUOUS
 10
175.9441113073
 20
218.0320762451
  0
VERTEX
 67
1
  8
13_KOMPONENTER
 62
7
  6
CONTINUOUS
 10
176.011712686
 20
218.0299855996
  0
SEQEND
  0
POLYLINE
 67
1
  8
13_KOMPONENTER
 62
7
  6
CONTINUOUS
 66
1
 70
0
  0
VERTEX
 67
1
  8
13_KOMPONENTER
 62
7
  6
CONTINUOUS
 10
74.8659258003
 20
242.5297015801
  0
VERTEX
 67
1
  8
13_KOMPONENTER
 62
7
  6
CONTINUOUS
 10
74.917844582
 20
242.5093166601
  0
VERTEX
 67
1
  8
13_KOMPONENTER
 62
7
  6
CONTINUOUS
 10
75.0661269248
 20
242.4951476633
  0
VERTEX
 67
1
  8
13_KOMPONENTER
 62
7
  6
CONTINUOUS
 10
75.3033073436
 20
242.4878886453
  0
VERTEX
 67
1
  8
13_KOMPONENTER
 62
7
  6
CONTINUOUS
 10
75.617570341
 20
242.4878886453
  0
VERTEX
 67
1
  8
13_KOMPONENTER
 62
7
  6
CONTINUOUS
 10
75.9936394304
 20
242.4951476633
  0
VERTEX
 67
1
  8
13_KOMPONENTER
 62
7
  6
CONTINUOUS
 10
76.4130208572
 20
242.5093166601
  0
VERTEX
 67
1
  8
13_KOMPONENTER
 62
7
  6
CONTINUOUS
 10
76.8549695911
 20
242.5297015801
  0
SEQEND
  0
POLYLINE
 67
1
  8
13_KOMPONENTER
 62
7
  6
CONTINUOUS
 66
1
 70
0
  0
VERTEX
 67
1
  8
13_KOMPONENTER
 62
7
  6
CONTINUOUS
 10
137.3746154941
 20
218.1572248993
  0
VERTEX
 67
1
  8
13_KOMPONENTER
 62
7
  6
CONTINUOUS
 10
137.4281167996
 20
218.1337569239
  0
VERTEX
 67
1
  8
13_KOMPONENTER
 62
7
  6
CONTINUOUS
 10
137.5718813121
 20
218.0817918654
  0
VERTEX
 67
1
  8
13_KOMPONENTER
 62
7
  6
CONTINUOUS
 10
137.6538852238
 20
218.0599424067
  0
VERTEX
 67
1
  8
13_KOMPONENTER
 62
7
  6
CONTINUOUS
 10
137.8414485973
 20
218.0322432317
  0
VERTEX
 67
1
  8
13_KOMPONENTER
 62
7
  6
CONTINUOUS
 10
137.911721013
 20
218.0299855978
  0
SEQEND
  0
POLYLINE
 67
1
  8
13_KOMPONENTER
 62
7
  6
CONTINUOUS
 66
1
 70
0
  0
VERTEX
 67
1
  8
13_KOMPONENTER
 62
7
  6
CONTINUOUS
 10
114.181131854
 20
222.4153277191
  0
VERTEX
 67
1
  8
13_KOMPONENTER
 62
7
  6
CONTINUOUS
 10
114.1826829124
 20
222.4108450071
  0
VERTEX
 67
1
  8
13_KOMPONENTER
 62
7
  6
CONTINUOUS
 10
114.1972382883
 20
222.3619353739
  0
VERTEX
 67
1
  8
13_KOMPONENTER
 62
7
  6
CONTINUOUS
 10
114.2195480914
 20
222.266136938
  0
VERTEX
 67
1
  8
13_KOMPONENTER
 62
7
  6
CONTINUOUS
 10
114.2452072265
 20
222.125062744
  0
VERTEX
 67
1
  8
13_KOMPONENTER
 62
7
  6
CONTINUOUS
 10
114.2715392132
 20
221.9370125264
  0
VERTEX
 67
1
  8
13_KOMPONENTER
 62
7
  6
CONTINUOUS
 10
114.2960564517
 20
221.6996699216
  0
VERTEX
 67
1
  8
13_KOMPONENTER
 62
7
  6
CONTINUOUS
 10
114.3153523935
 20
221.419851192
  0
VERTEX
 67
1
  8
13_KOMPONENTER
 62
7
  6
CONTINUOUS
 10
114.3250785218
 20
221.1583484846
  0
SEQEND
  0
POLYLINE
 67
1
  8
13_KOMPONENTER
 62
7
  6
CONTINUOUS
 66
1
 70
0
  0
VERTEX
 67
1
  8
13_KOMPONENTER
 62
7
  6
CONTINUOUS
 10
114.3725695418
 20
219.0079121216
  0
VERTEX
 67
1
  8
13_KOMPONENTER
 62
7
  6
CONTINUOUS
 10
114.3994129881
 20
218.7988378527
  0
VERTEX
 67
1
  8
13_KOMPONENTER
 62
7
  6
CONTINUOUS
 10
114.4871531389
 20
218.5647742282
  0
VERTEX
 67
1
  8
13_KOMPONENTER
 62
7
  6
CONTINUOUS
 10
114.6303652139
 20
218.3596100739
  0
VERTEX
 67
1
  8
13_KOMPONENTER
 62
7
  6
CONTINUOUS
 10
114.7200996795
 20
218.2720326105
  0
VERTEX
 67
1
  8
13_KOMPONENTER
 62
7
  6
CONTINUOUS
 10
114.9287593424
 20
218.1338102139
  0
VERTEX
 67
1
  8
13_KOMPONENTER
 62
7
  6
CONTINUOUS
 10
115.1650941931
 20
218.0517341589
  0
VERTEX
 67
1
  8
13_KOMPONENTER
 62
7
  6
CONTINUOUS
 10
115.3725671997
 20
218.0299862988
  0
SEQEND
  0
LINE
 67
1
  8
13_KOMPONENTER
 62
7
  6
CONTINUOUS
 10
112.8419681483
 20
243.7090798586
 11
112.5925379382
 21
246.0822497829
  0
LINE
 67
1
  8
13_KOMPONENTER
 62
7
  6
CONTINUOUS
 10
114.3725689031
 20
219.0079121075
 11
114.325078443
 21
221.1583484828
  0
LINE
 67
1
  8
13_KOMPONENTER
 62
7
  6
CONTINUOUS
 10
116.0091333534
 20
219.0081706662
 11
115.5290916458
 21
241.0081706662
  0
LINE
 67
1
  8
DEFAULT_1
 62
2
  6
CENTER
 10
115.3658959538
 20
216.0291460016
 11
115.3658959538
 21
245.0406441411
  0
LINE
 67
1
  8
13_KOMPONENTER
 62
7
  6
CONTINUOUS
 10
117.7658959538
 20
242.5299855512
 11
117.7658959538
 21
242.0299855512
  0
LINE
 67
1
  8
13_KOMPONENTER
 62
7
  6
CONTINUOUS
 10
118.1392539693
 20
246.0822497829
 11
117.7659034154
 21
242.530056544
  0
POLYLINE
 67
1
  8
13_KOMPONENTER
 62
7
  6
CONTINUOUS
 66
1
 70
0
  0
VERTEX
 67
1
  8
13_KOMPONENTER
 62
7
  6
CONTINUOUS
 10
93.3572120139
 20
218.1572412683
  0
VERTEX
 67
1
  8
13_KOMPONENTER
 62
7
  6
CONTINUOUS
 10
93.7397210909
 20
218.4063156325
  0
VERTEX
 67
1
  8
13_KOMPONENTER
 62
7
  6
CONTINUOUS
 10
94.0542354866
 20
218.7505537283
  0
VERTEX
 67
1
  8
13_KOMPONENTER
 62
7
  6
CONTINUOUS
 10
94.3164454826
 20
219.1720060153
  0
VERTEX
 67
1
  8
13_KOMPONENTER
 62
7
  6
CONTINUOUS
 10
94.4369849059
 20
219.4171960542
  0
VERTEX
 67
1
  8
13_KOMPONENTER
 62
7
  6
CONTINUOUS
 10
94.6671693518
 20
219.9926718339
  0
VERTEX
 67
1
  8
13_KOMPONENTER
 62
7
  6
CONTINUOUS
 10
94.893929696
 20
220.7210207246
  0
VERTEX
 67
1
  8
13_KOMPONENTER
 62
7
  6
CONTINUOUS
 10
95.1196402234
 20
221.6418345628
  0
SEQEND
  0
LINE
 67
1
  8
13_KOMPONENTER
 62
7
  6
CONTINUOUS
 10
80.6572189918
 20
218.1572444646
 11
80.6571731157
 21
218.1572234516
  0
POLYLINE
 67
1
  8
13_KOMPONENTER
 62
7
  6
CONTINUOUS
 66
1
 70
0
  0
VERTEX
 67
1
  8
13_KOMPONENTER
 62
7
  6
CONTINUOUS
 10
168.5659034154
 20
242.530056544
  0
VERTEX
 67
1
  8
13_KOMPONENTER
 62
7
  6
CONTINUOUS
 10
168.5908915924
 20
242.5367669488
  0
VERTEX
 67
1
  8
13_KOMPONENTER
 62
7
  6
CONTINUOUS
 10
168.6617247181
 20
242.5402902097
  0
VERTEX
 67
1
  8
13_KOMPONENTER
 62
7
  6
CONTINUOUS
 10
168.7715396862
 20
242.5402902097
  0
VERTEX
 67
1
  8
13_KOMPONENTER
 62
7
  6
CONTINUOUS
 10
168.9097842737
 20
242.5367669488
  0
VERTEX
 67
1
  8
13_KOMPONENTER
 62
7
  6
CONTINUOUS
 10
169.0631643631
 20
242.530056544
  0
SEQEND
  0
POLYLINE
 67
1
  8
13_KOMPONENTER
 62
7
  6
CONTINUOUS
 66
1
 70
0
  0
VERTEX
 67
1
  8
13_KOMPONENTER
 62
7
  6
CONTINUOUS
 10
42.0117494999
 20
218.0322933807
  0
VERTEX
 67
1
  8
13_KOMPONENTER
 62
7
  6
CONTINUOUS
 10
42.2005800738
 20
218.0604480946
  0
VERTEX
 67
1
  8
13_KOMPONENTER
 62
7
  6
CONTINUOUS
 10
42.2828829491
 20
218.0825641064
  0
VERTEX
 67
1
  8
13_KOMPONENTER
 62
7
  6
CONTINUOUS
 10
42.4268754914
 20
218.1349748892
  0
VERTEX
 67
1
  8
13_KOMPONENTER
 62
7
  6
CONTINUOUS
 10
42.4805296986
 20
218.1586459947
  0
SEQEND
  0
LINE
 67
1
  8
DEFAULT_1
 62
2
  6
CENTER
 10
50.1513535799
 20
231.2299855512
 11
193.3658959538
 21
231.2299855512
  0
POLYLINE
 67
1
  8
13_KOMPONENTER
 62
7
  6
CONTINUOUS
 66
1
 70
0
  0
VERTEX
 67
1
  8
13_KOMPONENTER
 62
7
  6
CONTINUOUS
 10
150.0746187681
 20
218.1572233998
  0
VERTEX
 67
1
  8
13_KOMPONENTER
 62
7
  6
CONTINUOUS
 10
150.1292442763
 20
218.1332852011
  0
VERTEX
 67
1
  8
13_KOMPONENTER
 62
7
  6
CONTINUOUS
 10
150.2734718644
 20
218.0813128627
  0
VERTEX
 67
1
  8
13_KOMPONENTER
 62
7
  6
CONTINUOUS
 10
150.3557988325
 20
218.0595024579
  0
SEQEND
  0
LINE
 67
1
  8
13_KOMPONENTER
 62
7
  6
CONTINUOUS
 10
150.0745729157
 20
218.1572444646
 11
150.0746187918
 21
218.1572234516
  0
POLYLINE
 67
1
  8
13_KOMPONENTER
 62
7
  6
CONTINUOUS
 66
1
 70
0
  0
VERTEX
 67
1
  8
13_KOMPONENTER
 62
7
  6
CONTINUOUS
 10
120.519643298
 20
221.641849546
  0
VERTEX
 67
1
  8
13_KOMPONENTER
 62
7
  6
CONTINUOUS
 10
120.5363126635
 20
221.705491724
  0
VERTEX
 67
1
  8
13_KOMPONENTER
 62
7
  6
CONTINUOUS
 10
120.5648669214
 20
221.7871491221
  0
VERTEX
 67
1
  8
13_KOMPONENTER
 62
7
  6
CONTINUOUS
 10
120.6024667927
 20
221.8730584832
  0
VERTEX
 67
1
  8
13_KOMPONENTER
 62
7
  6
CONTINUOUS
 10
120.6476961273
 20
221.9597770445
  0
VERTEX
 67
1
  8
13_KOMPONENTER
 62
7
  6
CONTINUOUS
 10
120.6989415836
 20
222.0446878637
  0
VERTEX
 67
1
  8
13_KOMPONENTER
 62
7
  6
CONTINUOUS
 10
120.7545428509
 20
222.1257989559
  0
VERTEX
 67
1
  8
13_KOMPONENTER
 62
7
  6
CONTINUOUS
 10
120.8132007324
 20
222.2020240112
  0
VERTEX
 67
1
  8
13_KOMPONENTER
 62
7
  6
CONTINUOUS
 10
120.8742930074
 20
222.2731997114
  0
VERTEX
 67
1
  8
13_KOMPONENTER
 62
7
  6
CONTINUOUS
 10
120.9374243992
 20
222.3392740355
  0
VERTEX
 67
1
  8
13_KOMPONENTER
 62
7
  6
CONTINUOUS
 10
121.0022131746
 20
222.4000764666
  0
VERTEX
 67
1
  8
13_KOMPONENTER
 62
7
  6
CONTINUOUS
 10
121.0682304912
 20
222.4553170089
  0
VERTEX
 67
1
  8
13_KOMPONENTER
 62
7
  6
CONTINUOUS
 10
121.1353214686
 20
222.5048568254
  0
VERTEX
 67
1
  8
13_KOMPONENTER
 62
7
  6
CONTINUOUS
 10
121.2037514238
 20
222.5486709464
  0
VERTEX
 67
1
  8
13_KOMPONENTER
 62
7
  6
CONTINUOUS
 10
121.2735272259
 20
222.5862946144
  0
VERTEX
 67
1
  8
13_KOMPONENTER
 62
7
  6
CONTINUOUS
 10
121.3446527575
 20
222.6170033761
  0
VERTEX
 67
1
  8
13_KOMPONENTER
 62
7
  6
CONTINUOUS
 10
121.4168124028
 20
222.6396613586
  0
VERTEX
 67
1
  8
13_KOMPONENTER
 62
7
  6
CONTINUOUS
 10
121.4889573691
 20
222.6528437221
  0
VERTEX
 67
1
  8
13_KOMPONENTER
 62
7
  6
CONTINUOUS
 10
121.5431740418
 20
222.6559104024
  0
SEQEND
  0
POLYLINE
 67
1
  8
13_KOMPONENTER
 62
7
  6
CONTINUOUS
 66
1
 70
0
  0
VERTEX
 67
1
  8
13_KOMPONENTER
 62
7
  6
CONTINUOUS
 10
106.0572189918
 20
218.1572444646
  0
VERTEX
 67
1
  8
13_KOMPONENTER
 62
7
  6
CONTINUOUS
 10
106.4386905861
 20
218.4054218658
  0
VERTEX
 67
1
  8
13_KOMPONENTER
 62
7
  6
CONTINUOUS
 10
106.7534624572
 20
218.7495118419
  0
VERTEX
 67
1
  8
13_KOMPONENTER
 62
7
  6
CONTINUOUS
 10
107.0158131377
 20
219.1708120018
  0
VERTEX
 67
1
  8
13_KOMPONENTER
 62
7
  6
CONTINUOUS
 10
107.1363998221
 20
219.4159185213
  0
VERTEX
 67
1
  8
13_KOMPONENTER
 62
7
  6
CONTINUOUS
 10
107.3666609699
 20
219.9912304213
  0
VERTEX
 67
1
  8
13_KOMPONENTER
 62
7
  6
CONTINUOUS
 10
107.5934882318
 20
220.7194255989
  0
VERTEX
 67
1
  8
13_KOMPONENTER
 62
7
  6
CONTINUOUS
 10
107.8196401739
 20
221.6418343361
  0
SEQEND
  0
POLYLINE
 67
1
  8
13_KOMPONENTER
 62
7
  6
CONTINUOUS
 66
1
 70
0
  0
VERTEX
 67
1
  8
13_KOMPONENTER
 62
7
  6
CONTINUOUS
 10
143.1659034154
 20
242.530056544
  0
VERTEX
 67
1
  8
13_KOMPONENTER
 62
7
  6
CONTINUOUS
 10
143.1908915924
 20
242.5367669488
  0
VERTEX
 67
1
  8
13_KOMPONENTER
 62
7
  6
CONTINUOUS
 10
143.2617247181
 20
242.5402902097
  0
VERTEX
 67
1
  8
13_KOMPONENTER
 62
7
  6
CONTINUOUS
 10
143.3715396862
 20
242.5402902097
  0
VERTEX
 67
1
  8
13_KOMPONENTER
 62
7
  6
CONTINUOUS
 10
143.5097842737
 20
242.5367669488
  0
VERTEX
 67
1
  8
13_KOMPONENTER
 62
7
  6
CONTINUOUS
 10
143.6631643631
 20
242.530056544
  0
SEQEND
  0
LINE
 67
1
  8
13_KOMPONENTER
 62
7
  6
CONTINUOUS
 10
114.5037648628
 20
238.0299855512
 11
103.5280270447
 21
238.0299855512
  0
LINE
 67
1
  8
13_KOMPONENTER
 62
7
  6
CONTINUOUS
 10
89.1037648628
 20
238.0299855512
 11
78.1280270447
 21
238.0299855512
  0
LINE
 67
1
  8
13_KOMPONENTER
 62
7
  6
CONTINUOUS
 10
63.7037648628
 20
238.0299855512
 11
52.7280270447
 21
238.0299855512
  0
LINE
 67
1
  8
13_KOMPONENTER
 62
7
  6
CONTINUOUS
 10
128.9280270447
 20
238.0299855512
 11
139.9037648628
 21
238.0299855512
  0
LINE
 67
1
  8
13_KOMPONENTER
 62
7
  6
CONTINUOUS
 10
154.3280270447
 20
238.0299855512
 11
165.3037648628
 21
238.0299855512
  0
LINE
 67
1
  8
13_KOMPONENTER
 62
7
  6
CONTINUOUS
 10
179.7280270447
 20
238.0299855512
 11
190.3658959538
 21
238.0299855512
  0
POLYLINE
 67
1
  8
13_KOMPONENTER
 62
7
  6
CONTINUOUS
 66
1
 70
0
  0
VERTEX
 67
1
  8
13_KOMPONENTER
 62
7
  6
CONTINUOUS
 10
100.2659258003
 20
242.5297015801
  0
VERTEX
 67
1
  8
13_KOMPONENTER
 62
7
  6
CONTINUOUS
 10
100.317844582
 20
242.5093166601
  0
VERTEX
 67
1
  8
13_KOMPONENTER
 62
7
  6
CONTINUOUS
 10
100.4661269248
 20
242.4951476633
  0
VERTEX
 67
1
  8
13_KOMPONENTER
 62
7
  6
CONTINUOUS
 10
100.7033073436
 20
242.4878886453
  0
VERTEX
 67
1
  8
13_KOMPONENTER
 62
7
  6
CONTINUOUS
 10
101.017570341
 20
242.4878886453
  0
VERTEX
 67
1
  8
13_KOMPONENTER
 62
7
  6
CONTINUOUS
 10
101.3936394304
 20
242.4951476633
  0
VERTEX
 67
1
  8
13_KOMPONENTER
 62
7
  6
CONTINUOUS
 10
101.8130208572
 20
242.5093166601
  0
VERTEX
 67
1
  8
13_KOMPONENTER
 62
7
  6
CONTINUOUS
 10
102.2549695911
 20
242.5297015801
  0
SEQEND
  0
POLYLINE
 67
1
  8
13_KOMPONENTER
 62
7
  6
CONTINUOUS
 66
1
 70
0
  0
VERTEX
 67
1
  8
13_KOMPONENTER
 62
7
  6
CONTINUOUS
 10
162.7746154941
 20
218.1572248993
  0
VERTEX
 67
1
  8
13_KOMPONENTER
 62
7
  6
CONTINUOUS
 10
162.8281167996
 20
218.1337569239
  0
VERTEX
 67
1
  8
13_KOMPONENTER
 62
7
  6
CONTINUOUS
 10
162.9718813121
 20
218.0817918654
  0
VERTEX
 67
1
  8
13_KOMPONENTER
 62
7
  6
CONTINUOUS
 10
163.0538852238
 20
218.0599424067
  0
VERTEX
 67
1
  8
13_KOMPONENTER
 62
7
  6
CONTINUOUS
 10
163.2414485973
 20
218.0322432317
  0
VERTEX
 67
1
  8
13_KOMPONENTER
 62
7
  6
CONTINUOUS
 10
163.311721013
 20
218.0299855978
  0
SEQEND
  0
POLYLINE
 67
1
  8
13_KOMPONENTER
 62
7
  6
CONTINUOUS
 66
1
 70
0
  0
VERTEX
 67
1
  8
13_KOMPONENTER
 62
7
  6
CONTINUOUS
 10
122.9121517336
 20
221.6418343361
  0
VERTEX
 67
1
  8
13_KOMPONENTER
 62
7
  6
CONTINUOUS
 10
123.1383036757
 20
220.7194255989
  0
VERTEX
 67
1
  8
13_KOMPONENTER
 62
7
  6
CONTINUOUS
 10
123.3651309376
 20
219.9912304213
  0
VERTEX
 67
1
  8
13_KOMPONENTER
 62
7
  6
CONTINUOUS
 10
123.5953920854
 20
219.4159185213
  0
VERTEX
 67
1
  8
13_KOMPONENTER
 62
7
  6
CONTINUOUS
 10
123.7159787698
 20
219.1708120018
  0
VERTEX
 67
1
  8
13_KOMPONENTER
 62
7
  6
CONTINUOUS
 10
123.9783294503
 20
218.7495118419
  0
VERTEX
 67
1
  8
13_KOMPONENTER
 62
7
  6
CONTINUOUS
 10
124.2931013215
 20
218.4054218658
  0
VERTEX
 67
1
  8
13_KOMPONENTER
 62
7
  6
CONTINUOUS
 10
124.6745729157
 20
218.1572444646
  0
SEQEND
  0
LINE
 67
1
  8
13_KOMPONENTER
 62
7
  6
CONTINUOUS
 10
125.2925379382
 20
246.0822497829
 11
125.6658884921
 21
242.530056544
  0
LINE
 67
1
  8
13_KOMPONENTER
 62
7
  6
CONTINUOUS
 10
125.6658959538
 20
242.5299855512
 11
125.6658959538
 21
242.0299855512
  0
LINE
 67
1
  8
13_KOMPONENTER
 62
7
  6
CONTINUOUS
 10
127.9027001726
 20
241.0081665782
 11
127.4226585541
 21
219.0081706662
  0
LINE
 67
1
  8
13_KOMPONENTER
 62
7
  6
CONTINUOUS
 10
129.1067134645
 20
221.1583484827
 11
129.0592230044
 21
219.0079121078
  0
POLYLINE
 67
1
  8
13_KOMPONENTER
 62
7
  6
CONTINUOUS
 66
1
 70
0
  0
VERTEX
 67
1
  8
13_KOMPONENTER
 62
7
  6
CONTINUOUS
 10
129.1067133858
 20
221.1583484844
  0
VERTEX
 67
1
  8
13_KOMPONENTER
 62
7
  6
CONTINUOUS
 10
129.1166167793
 20
221.4232306262
  0
VERTEX
 67
1
  8
13_KOMPONENTER
 62
7
  6
CONTINUOUS
 10
129.1359756177
 20
221.7024438131
  0
VERTEX
 67
1
  8
13_KOMPONENTER
 62
7
  6
CONTINUOUS
 10
129.1605152558
 20
221.9391651038
  0
VERTEX
 67
1
  8
13_KOMPONENTER
 62
7
  6
CONTINUOUS
 10
129.1868438309
 20
222.1266723146
  0
VERTEX
 67
1
  8
13_KOMPONENTER
 62
7
  6
CONTINUOUS
 10
129.2124758548
 20
222.2672563156
  0
VERTEX
 67
1
  8
13_KOMPONENTER
 62
7
  6
CONTINUOUS
 10
129.2347294366
 20
222.3625952204
  0
VERTEX
 67
1
  8
13_KOMPONENTER
 62
7
  6
CONTINUOUS
 10
129.2491816543
 20
222.411054163
  0
VERTEX
 67
1
  8
13_KOMPONENTER
 62
7
  6
CONTINUOUS
 10
129.2507269367
 20
222.4153661844
  0
SEQEND
  0
LINE
 67
1
  8
13_KOMPONENTER
 62
7
  6
CONTINUOUS
 10
130.5898237592
 20
243.7090798586
 11
130.8392539693
 21
246.0822497829
  0
LINE
 67
1
  8
13_KOMPONENTER
 62
7
  6
CONTINUOUS
 10
106.0572189918
 20
218.1572444646
 11
106.0571731157
 21
218.1572234516
  0
POLYLINE
 67
1
  8
13_KOMPONENTER
 62
7
  6
CONTINUOUS
 66
1
 70
0
  0
VERTEX
 67
1
  8
13_KOMPONENTER
 62
7
  6
CONTINUOUS
 10
117.7659034154
 20
242.530056544
  0
VERTEX
 67
1
  8
13_KOMPONENTER
 62
7
  6
CONTINUOUS
 10
117.7908915924
 20
242.5367669488
  0
VERTEX
 67
1
  8
13_KOMPONENTER
 62
7
  6
CONTINUOUS
 10
117.8617247181
 20
242.5402902097
  0
VERTEX
 67
1
  8
13_KOMPONENTER
 62
7
  6
CONTINUOUS
 10
117.9715396862
 20
242.5402902097
  0
VERTEX
 67
1
  8
13_KOMPONENTER
 62
7
  6
CONTINUOUS
 10
118.1097842737
 20
242.5367669488
  0
VERTEX
 67
1
  8
13_KOMPONENTER
 62
7
  6
CONTINUOUS
 10
118.2631643631
 20
242.530056544
  0
SEQEND
  0
POLYLINE
 67
1
  8
13_KOMPONENTER
 62
7
  6
CONTINUOUS
 66
1
 70
0
  0
VERTEX
 67
1
  8
13_KOMPONENTER
 62
7
  6
CONTINUOUS
 10
188.6486275444
 20
242.530056544
  0
VERTEX
 67
1
  8
13_KOMPONENTER
 62
7
  6
CONTINUOUS
 10
188.8020076338
 20
242.5367669488
  0
VERTEX
 67
1
  8
13_KOMPONENTER
 62
7
  6
CONTINUOUS
 10
188.9402522213
 20
242.5402902097
  0
VERTEX
 67
1
  8
13_KOMPONENTER
 62
7
  6
CONTINUOUS
 10
189.0500671894
 20
242.5402902097
  0
VERTEX
 67
1
  8
13_KOMPONENTER
 62
7
  6
CONTINUOUS
 10
189.1209003151
 20
242.5367669488
  0
VERTEX
 67
1
  8
13_KOMPONENTER
 62
7
  6
CONTINUOUS
 10
189.1458884921
 20
242.530056544
  0
SEQEND
  0
POLYLINE
 67
1
  8
13_KOMPONENTER
 62
7
  6
CONTINUOUS
 66
1
 70
0
  0
VERTEX
 67
1
  8
13_KOMPONENTER
 62
7
  6
CONTINUOUS
 10
175.9686275444
 20
242.530056544
  0
VERTEX
 67
1
  8
13_KOMPONENTER
 62
7
  6
CONTINUOUS
 10
176.1220076338
 20
242.5367669488
  0
VERTEX
 67
1
  8
13_KOMPONENTER
 62
7
  6
CONTINUOUS
 10
176.2602522213
 20
242.5402902097
  0
VERTEX
 67
1
  8
13_KOMPONENTER
 62
7
  6
CONTINUOUS
 10
176.3700671894
 20
242.5402902097
  0
VERTEX
 67
1
  8
13_KOMPONENTER
 62
7
  6
CONTINUOUS
 10
176.4409003151
 20
242.5367669488
  0
VERTEX
 67
1
  8
13_KOMPONENTER
 62
7
  6
CONTINUOUS
 10
176.4658884921
 20
242.530056544
  0
SEQEND
  0
POLYLINE
 67
1
  8
13_KOMPONENTER
 62
7
  6
CONTINUOUS
 66
1
 70
0
  0
VERTEX
 67
1
  8
13_KOMPONENTER
 62
7
  6
CONTINUOUS
 10
150.5686275444
 20
242.530056544
  0
VERTEX
 67
1
  8
13_KOMPONENTER
 62
7
  6
CONTINUOUS
 10
150.7220076338
 20
242.5367669488
  0
VERTEX
 67
1
  8
13_KOMPONENTER
 62
7
  6
CONTINUOUS
 10
150.8602522213
 20
242.5402902097
  0
VERTEX
 67
1
  8
13_KOMPONENTER
 62
7
  6
CONTINUOUS
 10
150.9700671894
 20
242.5402902097
  0
VERTEX
 67
1
  8
13_KOMPONENTER
 62
7
  6
CONTINUOUS
 10
151.0409003151
 20
242.5367669488
  0
VERTEX
 67
1
  8
13_KOMPONENTER
 62
7
  6
CONTINUOUS
 10
151.0658884921
 20
242.530056544
  0
SEQEND
  0
POLYLINE
 67
1
  8
13_KOMPONENTER
 62
7
  6
CONTINUOUS
 66
1
 70
0
  0
VERTEX
 67
1
  8
13_KOMPONENTER
 62
7
  6
CONTINUOUS
 10
125.1686275444
 20
242.530056544
  0
VERTEX
 67
1
  8
13_KOMPONENTER
 62
7
  6
CONTINUOUS
 10
125.3220076338
 20
242.5367669488
  0
VERTEX
 67
1
  8
13_KOMPONENTER
 62
7
  6
CONTINUOUS
 10
125.4602522213
 20
242.5402902097
  0
VERTEX
 67
1
  8
13_KOMPONENTER
 62
7
  6
CONTINUOUS
 10
125.5700671894
 20
242.5402902097
  0
VERTEX
 67
1
  8
13_KOMPONENTER
 62
7
  6
CONTINUOUS
 10
125.6409003151
 20
242.5367669488
  0
VERTEX
 67
1
  8
13_KOMPONENTER
 62
7
  6
CONTINUOUS
 10
125.6658884921
 20
242.530056544
  0
SEQEND
  0
POLYLINE
 67
1
  8
13_KOMPONENTER
 62
7
  6
CONTINUOUS
 66
1
 70
0
  0
VERTEX
 67
1
  8
13_KOMPONENTER
 62
7
  6
CONTINUOUS
 10
99.7686275444
 20
242.530056544
  0
VERTEX
 67
1
  8
13_KOMPONENTER
 62
7
  6
CONTINUOUS
 10
99.9220076338
 20
242.5367669488
  0
VERTEX
 67
1
  8
13_KOMPONENTER
 62
7
  6
CONTINUOUS
 10
100.0602522213
 20
242.5402902097
  0
VERTEX
 67
1
  8
13_KOMPONENTER
 62
7
  6
CONTINUOUS
 10
100.1700671894
 20
242.5402902097
  0
VERTEX
 67
1
  8
13_KOMPONENTER
 62
7
  6
CONTINUOUS
 10
100.2409003151
 20
242.5367669488
  0
VERTEX
 67
1
  8
13_KOMPONENTER
 62
7
  6
CONTINUOUS
 10
100.2658884921
 20
242.530056544
  0
SEQEND
  0
LINE
 67
1
  8
13_KOMPONENTER
 62
7
  6
CONTINUOUS
 10
188.6458959538
 20
242.5299855512
 11
188.6486275444
 21
242.530056544
  0
LINE
 67
1
  8
13_KOMPONENTER
 62
7
  6
CONTINUOUS
 10
178.4549695911
 20
242.5297015801
 11
178.4658959538
 21
242.5299855512
  0
LINE
 67
1
  8
13_KOMPONENTER
 62
7
  6
CONTINUOUS
 10
175.9658959538
 20
242.5299855512
 11
175.9686275444
 21
242.530056544
  0
LINE
 67
1
  8
13_KOMPONENTER
 62
7
  6
CONTINUOUS
 10
153.0549695911
 20
242.5297015801
 11
153.0658959538
 21
242.5299855512
  0
LINE
 67
1
  8
13_KOMPONENTER
 62
7
  6
CONTINUOUS
 10
150.5658959538
 20
242.5299855512
 11
150.5686275444
 21
242.530056544
  0
LINE
 67
1
  8
13_KOMPONENTER
 62
7
  6
CONTINUOUS
 10
127.6549695911
 20
242.5297015801
 11
127.6658959538
 21
242.5299855512
  0
LINE
 67
1
  8
13_KOMPONENTER
 62
7
  6
CONTINUOUS
 10
125.1658959538
 20
242.5299855512
 11
125.1686275444
 21
242.530056544
  0
LINE
 67
1
  8
13_KOMPONENTER
 62
7
  6
CONTINUOUS
 10
102.2549695911
 20
242.5297015801
 11
102.2658959538
 21
242.5299855512
  0
LINE
 67
1
  8
13_KOMPONENTER
 62
7
  6
CONTINUOUS
 10
99.7658959538
 20
242.5299855512
 11
99.7686275444
 21
242.530056544
  0
LINE
 67
1
  8
13_KOMPONENTER
 62
7
  6
CONTINUOUS
 10
76.8549695911
 20
242.5297015801
 11
76.8658959538
 21
242.5299855512
  0
LINE
 67
1
  8
13_KOMPONENTER
 62
7
  6
CONTINUOUS
 10
74.3658959538
 20
242.5299855512
 11
74.3686275444
 21
242.530056544
  0
LINE
 67
1
  8
13_KOMPONENTER
 62
7
  6
CONTINUOUS
 10
40.3658959538
 20
242.0299855512
 11
190.3658959538
 21
242.0299855512
  0
LINE
 67
1
  8
13_KOMPONENTER
 62
7
  6
CONTINUOUS
 10
42.0858959538
 20
242.5299855512
 11
48.9658959538
 21
242.5299855512
  0
LINE
 67
1
  8
13_KOMPONENTER
 62
7
  6
CONTINUOUS
 10
51.4658959538
 20
242.5299855512
 11
64.9658959538
 21
242.5299855512
  0
LINE
 67
1
  8
13_KOMPONENTER
 62
7
  6
CONTINUOUS
 10
67.4658959538
 20
242.5299855512
 11
74.3658959538
 21
242.5299855512
  0
LINE
 67
1
  8
13_KOMPONENTER
 62
7
  6
CONTINUOUS
 10
76.8658959538
 20
242.5299855512
 11
90.3658959538
 21
242.5299855512
  0
LINE
 67
1
  8
13_KOMPONENTER
 62
7
  6
CONTINUOUS
 10
92.8658959538
 20
242.5299855512
 11
99.7658959538
 21
242.5299855512
  0
LINE
 67
1
  8
13_KOMPONENTER
 62
7
  6
CONTINUOUS
 10
102.2658959538
 20
242.5299855512
 11
115.7658959538
 21
242.5299855512
  0
LINE
 67
1
  8
13_KOMPONENTER
 62
7
  6
CONTINUOUS
 10
118.2658959538
 20
242.5299855512
 11
125.1658959538
 21
242.5299855512
  0
LINE
 67
1
  8
13_KOMPONENTER
 62
7
  6
CONTINUOUS
 10
127.6658959538
 20
242.5299855512
 11
141.1658959538
 21
242.5299855512
  0
LINE
 67
1
  8
13_KOMPONENTER
 62
7
  6
CONTINUOUS
 10
143.6658959538
 20
242.5299855512
 11
150.5658959538
 21
242.5299855512
  0
LINE
 67
1
  8
13_KOMPONENTER
 62
7
  6
CONTINUOUS
 10
153.0658959538
 20
242.5299855512
 11
166.5658959538
 21
242.5299855512
  0
LINE
 67
1
  8
13_KOMPONENTER
 62
7
  6
CONTINUOUS
 10
169.0658959538
 20
242.5299855512
 11
175.9658959538
 21
242.5299855512
  0
LINE
 67
1
  8
13_KOMPONENTER
 62
7
  6
CONTINUOUS
 10
178.4658959538
 20
242.5299855512
 11
188.6458959538
 21
242.5299855512
  0
LINE
 67
1
  8
13_KOMPONENTER
 62
7
  6
CONTINUOUS
 10
181.1909193802
 20
243.5299855512
 11
176.5408727109
 21
243.5299855512
  0
LINE
 67
1
  8
13_KOMPONENTER
 62
7
  6
CONTINUOUS
 10
168.4909191621
 20
243.5299855512
 11
163.8408725274
 21
243.5299855512
  0
LINE
 67
1
  8
13_KOMPONENTER
 62
7
  6
CONTINUOUS
 10
155.7909193802
 20
243.5299855512
 11
151.1408727109
 21
243.5299855512
  0
LINE
 67
1
  8
13_KOMPONENTER
 62
7
  6
CONTINUOUS
 10
143.0909191621
 20
243.5299855512
 11
138.4408725274
 21
243.5299855512
  0
LINE
 67
1
  8
13_KOMPONENTER
 62
7
  6
CONTINUOUS
 10
130.3909193802
 20
243.5299855512
 11
125.7408727109
 21
243.5299855512
  0
LINE
 67
1
  8
13_KOMPONENTER
 62
7
  6
CONTINUOUS
 10
117.6909191621
 20
243.5299855512
 11
113.0408725274
 21
243.5299855512
  0
LINE
 67
1
  8
13_KOMPONENTER
 62
7
  6
CONTINUOUS
 10
104.9909193802
 20
243.5299855512
 11
100.3408727109
 21
243.5299855512
  0
LINE
 67
1
  8
13_KOMPONENTER
 62
7
  6
CONTINUOUS
 10
92.2909191621
 20
243.5299855512
 11
87.6408725274
 21
243.5299855512
  0
LINE
 67
1
  8
13_KOMPONENTER
 62
7
  6
CONTINUOUS
 10
79.5909193802
 20
243.5299855512
 11
74.9408727109
 21
243.5299855512
  0
LINE
 67
1
  8
13_KOMPONENTER
 62
7
  6
CONTINUOUS
 10
66.8909191621
 20
243.5299855512
 11
62.2408725274
 21
243.5299855512
  0
LINE
 67
1
  8
13_KOMPONENTER
 62
7
  6
CONTINUOUS
 10
54.1909193802
 20
243.5299855512
 11
49.5408727109
 21
243.5299855512
  0
LINE
 67
1
  8
13_KOMPONENTER
 62
7
  6
CONTINUOUS
 10
42.0831643631
 20
242.530056544
 11
42.0858959538
 21
242.5299855512
  0
LINE
 67
1
  8
13_KOMPONENTER
 62
7
  6
CONTINUOUS
 10
64.9658959538
 20
242.5299855512
 11
64.9768223164
 21
242.5297015801
  0
LINE
 67
1
  8
13_KOMPONENTER
 62
7
  6
CONTINUOUS
 10
67.4631643631
 20
242.530056544
 11
67.4658959538
 21
242.5299855512
  0
LINE
 67
1
  8
13_KOMPONENTER
 62
7
  6
CONTINUOUS
 10
90.3658959538
 20
242.5299855512
 11
90.3768223164
 21
242.5297015801
  0
LINE
 67
1
  8
13_KOMPONENTER
 62
7
  6
CONTINUOUS
 10
92.8631643631
 20
242.530056544
 11
92.8658959538
 21
242.5299855512
  0
LINE
 67
1
  8
13_KOMPONENTER
 62
7
  6
CONTINUOUS
 10
115.7658959538
 20
242.5299855512
 11
115.7768223164
 21
242.5297015801
  0
LINE
 67
1
  8
13_KOMPONENTER
 62
7
  6
CONTINUOUS
 10
118.2631643631
 20
242.530056544
 11
118.2658959538
 21
242.5299855512
  0
LINE
 67
1
  8
13_KOMPONENTER
 62
7
  6
CONTINUOUS
 10
141.1658959538
 20
242.5299855512
 11
141.1768223164
 21
242.5297015801
  0
LINE
 67
1
  8
13_KOMPONENTER
 62
7
  6
CONTINUOUS
 10
143.6631643631
 20
242.530056544
 11
143.6658959538
 21
242.5299855512
  0
POLYLINE
 67
1
  8
13_KOMPONENTER
 62
7
  6
CONTINUOUS
 66
1
 70
0
  0
VERTEX
 67
1
  8
13_KOMPONENTER
 62
7
  6
CONTINUOUS
 10
64.9768223164
 20
242.5297015801
  0
VERTEX
 67
1
  8
13_KOMPONENTER
 62
7
  6
CONTINUOUS
 10
65.4187710504
 20
242.5093166601
  0
VERTEX
 67
1
  8
13_KOMPONENTER
 62
7
  6
CONTINUOUS
 10
65.8381524771
 20
242.4951476633
  0
VERTEX
 67
1
  8
13_KOMPONENTER
 62
7
  6
CONTINUOUS
 10
66.2142215665
 20
242.4878886453
  0
VERTEX
 67
1
  8
13_KOMPONENTER
 62
7
  6
CONTINUOUS
 10
66.5284845639
 20
242.4878886453
  0
VERTEX
 67
1
  8
13_KOMPONENTER
 62
7
  6
CONTINUOUS
 10
66.7656649827
 20
242.4951476633
  0
VERTEX
 67
1
  8
13_KOMPONENTER
 62
7
  6
CONTINUOUS
 10
66.9139473255
 20
242.5093166601
  0
VERTEX
 67
1
  8
13_KOMPONENTER
 62
7
  6
CONTINUOUS
 10
66.9658661072
 20
242.5297015801
  0
SEQEND
  0
POLYLINE
 67
1
  8
13_KOMPONENTER
 62
7
  6
CONTINUOUS
 66
1
 70
0
  0
VERTEX
 67
1
  8
13_KOMPONENTER
 62
7
  6
CONTINUOUS
 10
90.3768223164
 20
242.5297015801
  0
VERTEX
 67
1
  8
13_KOMPONENTER
 62
7
  6
CONTINUOUS
 10
90.8187710504
 20
242.5093166601
  0
VERTEX
 67
1
  8
13_KOMPONENTER
 62
7
  6
CONTINUOUS
 10
91.2381524771
 20
242.4951476633
  0
VERTEX
 67
1
  8
13_KOMPONENTER
 62
7
  6
CONTINUOUS
 10
91.6142215665
 20
242.4878886453
  0
VERTEX
 67
1
  8
13_KOMPONENTER
 62
7
  6
CONTINUOUS
 10
91.9284845639
 20
242.4878886453
  0
VERTEX
 67
1
  8
13_KOMPONENTER
 62
7
  6
CONTINUOUS
 10
92.1656649827
 20
242.4951476633
  0
VERTEX
 67
1
  8
13_KOMPONENTER
 62
7
  6
CONTINUOUS
 10
92.3139473255
 20
242.5093166601
  0
VERTEX
 67
1
  8
13_KOMPONENTER
 62
7
  6
CONTINUOUS
 10
92.3658661072
 20
242.5297015801
  0
SEQEND
  0
POLYLINE
 67
1
  8
13_KOMPONENTER
 62
7
  6
CONTINUOUS
 66
1
 70
0
  0
VERTEX
 67
1
  8
13_KOMPONENTER
 62
7
  6
CONTINUOUS
 10
115.7768223164
 20
242.5297015801
  0
VERTEX
 67
1
  8
13_KOMPONENTER
 62
7
  6
CONTINUOUS
 10
116.2187710504
 20
242.5093166601
  0
VERTEX
 67
1
  8
13_KOMPONENTER
 62
7
  6
CONTINUOUS
 10
116.6381524771
 20
242.4951476633
  0
VERTEX
 67
1
  8
13_KOMPONENTER
 62
7
  6
CONTINUOUS
 10
117.0142215665
 20
242.4878886453
  0
VERTEX
 67
1
  8
13_KOMPONENTER
 62
7
  6
CONTINUOUS
 10
117.3284845639
 20
242.4878886453
  0
VERTEX
 67
1
  8
13_KOMPONENTER
 62
7
  6
CONTINUOUS
 10
117.5656649827
 20
242.4951476633
  0
VERTEX
 67
1
  8
13_KOMPONENTER
 62
7
  6
CONTINUOUS
 10
117.7139473255
 20
242.5093166601
  0
VERTEX
 67
1
  8
13_KOMPONENTER
 62
7
  6
CONTINUOUS
 10
117.7658661072
 20
242.5297015801
  0
SEQEND
  0
POLYLINE
 67
1
  8
13_KOMPONENTER
 62
7
  6
CONTINUOUS
 66
1
 70
0
  0
VERTEX
 67
1
  8
13_KOMPONENTER
 62
7
  6
CONTINUOUS
 10
141.1768223164
 20
242.5297015801
  0
VERTEX
 67
1
  8
13_KOMPONENTER
 62
7
  6
CONTINUOUS
 10
141.6187710504
 20
242.5093166601
  0
VERTEX
 67
1
  8
13_KOMPONENTER
 62
7
  6
CONTINUOUS
 10
142.0381524771
 20
242.4951476633
  0
VERTEX
 67
1
  8
13_KOMPONENTER
 62
7
  6
CONTINUOUS
 10
142.4142215665
 20
242.4878886453
  0
VERTEX
 67
1
  8
13_KOMPONENTER
 62
7
  6
CONTINUOUS
 10
142.7284845639
 20
242.4878886453
  0
VERTEX
 67
1
  8
13_KOMPONENTER
 62
7
  6
CONTINUOUS
 10
142.9656649827
 20
242.4951476633
  0
VERTEX
 67
1
  8
13_KOMPONENTER
 62
7
  6
CONTINUOUS
 10
143.1139473255
 20
242.5093166601
  0
VERTEX
 67
1
  8
13_KOMPONENTER
 62
7
  6
CONTINUOUS
 10
143.1658661072
 20
242.5297015801
  0
SEQEND
  0
POLYLINE
 67
1
  8
13_KOMPONENTER
 62
7
  6
CONTINUOUS
 66
1
 70
0
  0
VERTEX
 67
1
  8
13_KOMPONENTER
 62
7
  6
CONTINUOUS
 10
175.4746187681
 20
218.1572233998
  0
VERTEX
 67
1
  8
13_KOMPONENTER
 62
7
  6
CONTINUOUS
 10
175.5292442763
 20
218.1332852011
  0
VERTEX
 67
1
  8
13_KOMPONENTER
 62
7
  6
CONTINUOUS
 10
175.6734718644
 20
218.0813128627
  0
VERTEX
 67
1
  8
13_KOMPONENTER
 62
7
  6
CONTINUOUS
 10
175.7557988325
 20
218.0595024579
  0
SEQEND
  0
LINE
 67
1
  8
13_KOMPONENTER
 62
7
  6
CONTINUOUS
 10
175.4745729157
 20
218.1572444646
 11
175.4746187918
 21
218.1572234516
  0
POLYLINE
 67
1
  8
13_KOMPONENTER
 62
7
  6
CONTINUOUS
 66
1
 70
0
  0
VERTEX
 67
1
  8
13_KOMPONENTER
 62
7
  6
CONTINUOUS
 10
135.4417234771
 20
222.0299855512
  0
VERTEX
 67
1
  8
13_KOMPONENTER
 62
7
  6
CONTINUOUS
 10
135.4840957802
 20
221.9597770445
  0
VERTEX
 67
1
  8
13_KOMPONENTER
 62
7
  6
CONTINUOUS
 10
135.5293251148
 20
221.8730584832
  0
VERTEX
 67
1
  8
13_KOMPONENTER
 62
7
  6
CONTINUOUS
 10
135.5669249861
 20
221.7871491221
  0
VERTEX
 67
1
  8
13_KOMPONENTER
 62
7
  6
CONTINUOUS
 10
135.595479244
 20
221.705491724
  0
VERTEX
 67
1
  8
13_KOMPONENTER
 62
7
  6
CONTINUOUS
 10
135.6121486096
 20
221.641849546
  0
SEQEND
  0
LINE
 67
1
  8
13_KOMPONENTER
 62
7
  6
CONTINUOUS
 10
131.9385947894
 20
222.0299855512
 11
131.8726585541
 21
219.0081706662
  0
POLYLINE
 67
1
  8
13_KOMPONENTER
 62
7
  6
CONTINUOUS
 66
1
 70
0
  0
VERTEX
 67
1
  8
13_KOMPONENTER
 62
7
  6
CONTINUOUS
 10
133.2196433854
 20
221.6418499086
  0
VERTEX
 67
1
  8
13_KOMPONENTER
 62
7
  6
CONTINUOUS
 10
133.2360136681
 20
221.704502747
  0
VERTEX
 67
1
  8
13_KOMPONENTER
 62
7
  6
CONTINUOUS
 10
133.2644497009
 20
221.7860892057
  0
VERTEX
 67
1
  8
13_KOMPONENTER
 62
7
  6
CONTINUOUS
 10
133.3019508984
 20
221.8719826531
  0
VERTEX
 67
1
  8
13_KOMPONENTER
 62
7
  6
CONTINUOUS
 10
133.3471057969
 20
221.9587272764
  0
VERTEX
 67
1
  8
13_KOMPONENTER
 62
7
  6
CONTINUOUS
 10
133.3900415155
 20
222.0299855512
  0
SEQEND
  0
POLYLINE
 67
1
  8
13_KOMPONENTER
 62
7
  6
CONTINUOUS
 66
1
 70
0
  0
VERTEX
 67
1
  8
13_KOMPONENTER
 62
7
  6
CONTINUOUS
 10
118.7572120139
 20
218.1572412683
  0
VERTEX
 67
1
  8
13_KOMPONENTER
 62
7
  6
CONTINUOUS
 10
119.1397210909
 20
218.4063156325
  0
VERTEX
 67
1
  8
13_KOMPONENTER
 62
7
  6
CONTINUOUS
 10
119.4542354866
 20
218.7505537283
  0
VERTEX
 67
1
  8
13_KOMPONENTER
 62
7
  6
CONTINUOUS
 10
119.7164454826
 20
219.1720060153
  0
VERTEX
 67
1
  8
13_KOMPONENTER
 62
7
  6
CONTINUOUS
 10
119.8369849059
 20
219.4171960542
  0
VERTEX
 67
1
  8
13_KOMPONENTER
 62
7
  6
CONTINUOUS
 10
120.0671693518
 20
219.9926718339
  0
VERTEX
 67
1
  8
13_KOMPONENTER
 62
7
  6
CONTINUOUS
 10
120.293929696
 20
220.7210207246
  0
VERTEX
 67
1
  8
13_KOMPONENTER
 62
7
  6
CONTINUOUS
 10
120.5196402234
 20
221.6418345628
  0
SEQEND
  0
POLYLINE
 67
1
  8
13_KOMPONENTER
 62
7
  6
CONTINUOUS
 66
1
 70
0
  0
VERTEX
 67
1
  8
13_KOMPONENTER
 62
7
  6
CONTINUOUS
 10
92.3659034154
 20
242.530056544
  0
VERTEX
 67
1
  8
13_KOMPONENTER
 62
7
  6
CONTINUOUS
 10
92.3908915924
 20
242.5367669488
  0
VERTEX
 67
1
  8
13_KOMPONENTER
 62
7
  6
CONTINUOUS
 10
92.4617247181
 20
242.5402902097
  0
VERTEX
 67
1
  8
13_KOMPONENTER
 62
7
  6
CONTINUOUS
 10
92.5715396862
 20
242.5402902097
  0
VERTEX
 67
1
  8
13_KOMPONENTER
 62
7
  6
CONTINUOUS
 10
92.7097842737
 20
242.5367669488
  0
VERTEX
 67
1
  8
13_KOMPONENTER
 62
7
  6
CONTINUOUS
 10
92.8631643631
 20
242.530056544
  0
SEQEND
  0
POLYLINE
 67
1
  8
13_KOMPONENTER
 62
7
  6
CONTINUOUS
 66
1
 70
0
  0
VERTEX
 67
1
  8
13_KOMPONENTER
 62
7
  6
CONTINUOUS
 10
74.3686275444
 20
242.530056544
  0
VERTEX
 67
1
  8
13_KOMPONENTER
 62
7
  6
CONTINUOUS
 10
74.5220076338
 20
242.5367669488
  0
VERTEX
 67
1
  8
13_KOMPONENTER
 62
7
  6
CONTINUOUS
 10
74.6602522213
 20
242.5402902097
  0
VERTEX
 67
1
  8
13_KOMPONENTER
 62
7
  6
CONTINUOUS
 10
74.7700671894
 20
242.5402902097
  0
VERTEX
 67
1
  8
13_KOMPONENTER
 62
7
  6
CONTINUOUS
 10
74.8409003151
 20
242.5367669488
  0
VERTEX
 67
1
  8
13_KOMPONENTER
 62
7
  6
CONTINUOUS
 10
74.8658884921
 20
242.530056544
  0
SEQEND
  0
POLYLINE
 67
1
  8
13_KOMPONENTER
 62
7
  6
CONTINUOUS
 66
1
 70
0
  0
VERTEX
 67
1
  8
13_KOMPONENTER
 62
7
  6
CONTINUOUS
 10
48.9686275444
 20
242.530056544
  0
VERTEX
 67
1
  8
13_KOMPONENTER
 62
7
  6
CONTINUOUS
 10
49.1220076338
 20
242.5367669488
  0
VERTEX
 67
1
  8
13_KOMPONENTER
 62
7
  6
CONTINUOUS
 10
49.2602522213
 20
242.5402902097
  0
VERTEX
 67
1
  8
13_KOMPONENTER
 62
7
  6
CONTINUOUS
 10
49.3700671894
 20
242.5402902097
  0
VERTEX
 67
1
  8
13_KOMPONENTER
 62
7
  6
CONTINUOUS
 10
49.4409003151
 20
242.5367669488
  0
VERTEX
 67
1
  8
13_KOMPONENTER
 62
7
  6
CONTINUOUS
 10
49.4658884921
 20
242.530056544
  0
SEQEND
  0
LINE
 67
1
  8
13_KOMPONENTER
 62
7
  6
CONTINUOUS
 10
51.4549695911
 20
242.5297015801
 11
51.4658959538
 21
242.5299855512
  0
LINE
 67
1
  8
13_KOMPONENTER
 62
7
  6
CONTINUOUS
 10
48.9658959538
 20
242.5299855512
 11
48.9686275444
 21
242.530056544
  0
LINE
 67
1
  8
13_KOMPONENTER
 62
7
  6
CONTINUOUS
 10
42.456514917
 20
246.5299855512
 11
48.5952769905
 21
246.5299855512
  0
LINE
 67
1
  8
13_KOMPONENTER
 62
7
  6
CONTINUOUS
 10
55.136514917
 20
246.5299855512
 11
61.2952769905
 21
246.5299855512
  0
LINE
 67
1
  8
13_KOMPONENTER
 62
7
  6
CONTINUOUS
 10
67.836514917
 20
246.5299855512
 11
73.9952769905
 21
246.5299855512
  0
LINE
 67
1
  8
13_KOMPONENTER
 62
7
  6
CONTINUOUS
 10
80.536514917
 20
246.5299855512
 11
86.6952769905
 21
246.5299855512
  0
LINE
 67
1
  8
13_KOMPONENTER
 62
7
  6
CONTINUOUS
 10
93.236514917
 20
246.5299855512
 11
99.3952769905
 21
246.5299855512
  0
LINE
 67
1
  8
13_KOMPONENTER
 62
7
  6
CONTINUOUS
 10
105.936514917
 20
246.5299855512
 11
112.0952769905
 21
246.5299855512
  0
LINE
 67
1
  8
13_KOMPONENTER
 62
7
  6
CONTINUOUS
 10
118.636514917
 20
246.5299855512
 11
124.7952769905
 21
246.5299855512
  0
LINE
 67
1
  8
13_KOMPONENTER
 62
7
  6
CONTINUOUS
 10
131.336514917
 20
246.5299855512
 11
137.4952769905
 21
246.5299855512
  0
LINE
 67
1
  8
13_KOMPONENTER
 62
7
  6
CONTINUOUS
 10
144.036514917
 20
246.5299855512
 11
150.1952769905
 21
246.5299855512
  0
LINE
 67
1
  8
13_KOMPONENTER
 62
7
  6
CONTINUOUS
 10
156.736514917
 20
246.5299855512
 11
162.8952769905
 21
246.5299855512
  0
LINE
 67
1
  8
13_KOMPONENTER
 62
7
  6
CONTINUOUS
 10
169.436514917
 20
246.5299855512
 11
175.5952769905
 21
246.5299855512
  0
LINE
 67
1
  8
13_KOMPONENTER
 62
7
  6
CONTINUOUS
 10
182.136514917
 20
246.5299855512
 11
188.2752769905
 21
246.5299855512
  0
LINE
 67
1
  8
13_KOMPONENTER
 62
7
  6
CONTINUOUS
 10
166.5658959538
 20
242.5299855512
 11
166.5768223164
 21
242.5297015801
  0
LINE
 67
1
  8
13_KOMPONENTER
 62
7
  6
CONTINUOUS
 10
169.0631643631
 20
242.530056544
 11
169.0658959538
 21
242.5299855512
  0
POLYLINE
 67
1
  8
13_KOMPONENTER
 62
7
  6
CONTINUOUS
 66
1
 70
0
  0
VERTEX
 67
1
  8
13_KOMPONENTER
 62
7
  6
CONTINUOUS
 10
166.5768223164
 20
242.5297015801
  0
VERTEX
 67
1
  8
13_KOMPONENTER
 62
7
  6
CONTINUOUS
 10
167.0187710504
 20
242.5093166601
  0
VERTEX
 67
1
  8
13_KOMPONENTER
 62
7
  6
CONTINUOUS
 10
167.4381524771
 20
242.4951476633
  0
VERTEX
 67
1
  8
13_KOMPONENTER
 62
7
  6
CONTINUOUS
 10
167.8142215665
 20
242.4878886453
  0
VERTEX
 67
1
  8
13_KOMPONENTER
 62
7
  6
CONTINUOUS
 10
168.1284845639
 20
242.4878886453
  0
VERTEX
 67
1
  8
13_KOMPONENTER
 62
7
  6
CONTINUOUS
 10
168.3656649827
 20
242.4951476633
  0
VERTEX
 67
1
  8
13_KOMPONENTER
 62
7
  6
CONTINUOUS
 10
168.5139473255
 20
242.5093166601
  0
VERTEX
 67
1
  8
13_KOMPONENTER
 62
7
  6
CONTINUOUS
 10
168.5658661072
 20
242.5297015801
  0
SEQEND
  0
POLYLINE
 67
1
  8
13_KOMPONENTER
 62
7
  6
CONTINUOUS
 66
1
 70
0
  0
VERTEX
 67
1
  8
13_KOMPONENTER
 62
7
  6
CONTINUOUS
 10
125.6659258003
 20
242.5297015801
  0
VERTEX
 67
1
  8
13_KOMPONENTER
 62
7
  6
CONTINUOUS
 10
125.717844582
 20
242.5093166601
  0
VERTEX
 67
1
  8
13_KOMPONENTER
 62
7
  6
CONTINUOUS
 10
125.8661269248
 20
242.4951476633
  0
VERTEX
 67
1
  8
13_KOMPONENTER
 62
7
  6
CONTINUOUS
 10
126.1033073436
 20
242.4878886453
  0
VERTEX
 67
1
  8
13_KOMPONENTER
 62
7
  6
CONTINUOUS
 10
126.417570341
 20
242.4878886453
  0
VERTEX
 67
1
  8
13_KOMPONENTER
 62
7
  6
CONTINUOUS
 10
126.7936394304
 20
242.4951476633
  0
VERTEX
 67
1
  8
13_KOMPONENTER
 62
7
  6
CONTINUOUS
 10
127.2130208572
 20
242.5093166601
  0
VERTEX
 67
1
  8
13_KOMPONENTER
 62
7
  6
CONTINUOUS
 10
127.6549695911
 20
242.5297015801
  0
SEQEND
  0
POLYLINE
 67
1
  8
13_KOMPONENTER
 62
7
  6
CONTINUOUS
 66
1
 70
0
  0
VERTEX
 67
1
  8
13_KOMPONENTER
 62
7
  6
CONTINUOUS
 10
188.2512622089
 20
218.1586459947
  0
VERTEX
 67
1
  8
13_KOMPONENTER
 62
7
  6
CONTINUOUS
 10
188.3049164161
 20
218.1349748892
  0
VERTEX
 67
1
  8
13_KOMPONENTER
 62
7
  6
CONTINUOUS
 10
188.4489089584
 20
218.0825641064
  0
VERTEX
 67
1
  8
13_KOMPONENTER
 62
7
  6
CONTINUOUS
 10
188.5312118337
 20
218.0604480946
  0
VERTEX
 67
1
  8
13_KOMPONENTER
 62
7
  6
CONTINUOUS
 10
188.7200424076
 20
218.0322933807
  0
VERTEX
 67
1
  8
13_KOMPONENTER
 62
7
  6
CONTINUOUS
 10
188.7910450668
 20
218.0299855996
  0
SEQEND
  0
POLYLINE
 67
1
  8
13_KOMPONENTER
 62
7
  6
CONTINUOUS
 66
1
 70
0
  0
VERTEX
 67
1
  8
13_KOMPONENTER
 62
7
  6
CONTINUOUS
 10
139.581131854
 20
222.4153277191
  0
VERTEX
 67
1
  8
13_KOMPONENTER
 62
7
  6
CONTINUOUS
 10
139.5826829124
 20
222.4108450071
  0
VERTEX
 67
1
  8
13_KOMPONENTER
 62
7
  6
CONTINUOUS
 10
139.5972382883
 20
222.3619353739
  0
VERTEX
 67
1
  8
13_KOMPONENTER
 62
7
  6
CONTINUOUS
 10
139.6195480914
 20
222.266136938
  0
VERTEX
 67
1
  8
13_KOMPONENTER
 62
7
  6
CONTINUOUS
 10
139.6452072265
 20
222.125062744
  0
VERTEX
 67
1
  8
13_KOMPONENTER
 62
7
  6
CONTINUOUS
 10
139.6715392132
 20
221.9370125264
  0
VERTEX
 67
1
  8
13_KOMPONENTER
 62
7
  6
CONTINUOUS
 10
139.6960564517
 20
221.6996699216
  0
VERTEX
 67
1
  8
13_KOMPONENTER
 62
7
  6
CONTINUOUS
 10
139.7153523935
 20
221.419851192
  0
VERTEX
 67
1
  8
13_KOMPONENTER
 62
7
  6
CONTINUOUS
 10
139.7250785218
 20
221.1583484846
  0
SEQEND
  0
POLYLINE
 67
1
  8
13_KOMPONENTER
 62
7
  6
CONTINUOUS
 66
1
 70
0
  0
VERTEX
 67
1
  8
13_KOMPONENTER
 62
7
  6
CONTINUOUS
 10
135.6121516841
 20
221.6418345628
  0
VERTEX
 67
1
  8
13_KOMPONENTER
 62
7
  6
CONTINUOUS
 10
135.8378622116
 20
220.7210207246
  0
VERTEX
 67
1
  8
13_KOMPONENTER
 62
7
  6
CONTINUOUS
 10
136.0646225557
 20
219.9926718339
  0
VERTEX
 67
1
  8
13_KOMPONENTER
 62
7
  6
CONTINUOUS
 10
136.2948070016
 20
219.4171960542
  0
VERTEX
 67
1
  8
13_KOMPONENTER
 62
7
  6
CONTINUOUS
 10
136.4153464249
 20
219.1720060153
  0
VERTEX
 67
1
  8
13_KOMPONENTER
 62
7
  6
CONTINUOUS
 10
136.6775564209
 20
218.7505537283
  0
VERTEX
 67
1
  8
13_KOMPONENTER
 62
7
  6
CONTINUOUS
 10
136.9920708166
 20
218.4063156325
  0
VERTEX
 67
1
  8
13_KOMPONENTER
 62
7
  6
CONTINUOUS
 10
137.3745798936
 20
218.1572412683
  0
SEQEND
  0
LINE
 67
1
  8
13_KOMPONENTER
 62
7
  6
CONTINUOUS
 10
138.2419681483
 20
243.7090798586
 11
137.9925379382
 21
246.0822497829
  0
LINE
 67
1
  8
13_KOMPONENTER
 62
7
  6
CONTINUOUS
 10
139.7725689031
 20
219.0079121075
 11
139.725078443
 21
221.1583484828
  0
LINE
 67
1
  8
13_KOMPONENTER
 62
7
  6
CONTINUOUS
 10
136.9591333534
 20
219.0081706662
 11
136.8931971181
 21
222.0299855512
  0
POLYLINE
 67
1
  8
13_KOMPONENTER
 62
7
  6
CONTINUOUS
 66
1
 70
0
  0
VERTEX
 67
1
  8
13_KOMPONENTER
 62
7
  6
CONTINUOUS
 10
131.4572189918
 20
218.1572444646
  0
VERTEX
 67
1
  8
13_KOMPONENTER
 62
7
  6
CONTINUOUS
 10
131.8386905861
 20
218.4054218658
  0
VERTEX
 67
1
  8
13_KOMPONENTER
 62
7
  6
CONTINUOUS
 10
132.1534624572
 20
218.7495118419
  0
VERTEX
 67
1
  8
13_KOMPONENTER
 62
7
  6
CONTINUOUS
 10
132.4158131377
 20
219.1708120018
  0
VERTEX
 67
1
  8
13_KOMPONENTER
 62
7
  6
CONTINUOUS
 10
132.5363998221
 20
219.4159185213
  0
VERTEX
 67
1
  8
13_KOMPONENTER
 62
7
  6
CONTINUOUS
 10
132.7666609699
 20
219.9912304213
  0
VERTEX
 67
1
  8
13_KOMPONENTER
 62
7
  6
CONTINUOUS
 10
132.9934882318
 20
220.7194255989
  0
VERTEX
 67
1
  8
13_KOMPONENTER
 62
7
  6
CONTINUOUS
 10
133.2196401739
 20
221.6418343361
  0
SEQEND
  0
LINE
 67
1
  8
13_KOMPONENTER
 62
7
  6
CONTINUOUS
 10
131.4572189918
 20
218.1572444646
 11
131.4571731157
 21
218.1572234516
  0
POLYLINE
 67
1
  8
13_KOMPONENTER
 62
7
  6
CONTINUOUS
 66
1
 70
0
  0
VERTEX
 67
1
  8
13_KOMPONENTER
 62
7
  6
CONTINUOUS
 10
151.0659258003
 20
242.5297015801
  0
VERTEX
 67
1
  8
13_KOMPONENTER
 62
7
  6
CONTINUOUS
 10
151.117844582
 20
242.5093166601
  0
VERTEX
 67
1
  8
13_KOMPONENTER
 62
7
  6
CONTINUOUS
 10
151.2661269248
 20
242.4951476633
  0
VERTEX
 67
1
  8
13_KOMPONENTER
 62
7
  6
CONTINUOUS
 10
151.5033073436
 20
242.4878886453
  0
VERTEX
 67
1
  8
13_KOMPONENTER
 62
7
  6
CONTINUOUS
 10
151.817570341
 20
242.4878886453
  0
VERTEX
 67
1
  8
13_KOMPONENTER
 62
7
  6
CONTINUOUS
 10
152.1936394304
 20
242.4951476633
  0
VERTEX
 67
1
  8
13_KOMPONENTER
 62
7
  6
CONTINUOUS
 10
152.6130208572
 20
242.5093166601
  0
VERTEX
 67
1
  8
13_KOMPONENTER
 62
7
  6
CONTINUOUS
 10
153.0549695911
 20
242.5297015801
  0
SEQEND
  0
POLYLINE
 67
1
  8
13_KOMPONENTER
 62
7
  6
CONTINUOUS
 66
1
 70
0
  0
VERTEX
 67
1
  8
13_KOMPONENTER
 62
7
  6
CONTINUOUS
 10
139.7725695418
 20
219.0079121216
  0
VERTEX
 67
1
  8
13_KOMPONENTER
 62
7
  6
CONTINUOUS
 10
139.7994129881
 20
218.7988378527
  0
VERTEX
 67
1
  8
13_KOMPONENTER
 62
7
  6
CONTINUOUS
 10
139.8871531389
 20
218.5647742282
  0
VERTEX
 67
1
  8
13_KOMPONENTER
 62
7
  6
CONTINUOUS
 10
140.0303652139
 20
218.3596100739
  0
VERTEX
 67
1
  8
13_KOMPONENTER
 62
7
  6
CONTINUOUS
 10
140.1200996795
 20
218.2720326105
  0
VERTEX
 67
1
  8
13_KOMPONENTER
 62
7
  6
CONTINUOUS
 10
140.3287593424
 20
218.1338102139
  0
VERTEX
 67
1
  8
13_KOMPONENTER
 62
7
  6
CONTINUOUS
 10
140.5650941931
 20
218.0517341589
  0
VERTEX
 67
1
  8
13_KOMPONENTER
 62
7
  6
CONTINUOUS
 10
140.7725671997
 20
218.0299862988
  0
SEQEND
  0
LINE
 67
1
  8
13_KOMPONENTER
 62
7
  6
CONTINUOUS
 10
141.4091333534
 20
219.0081706662
 11
140.9290916458
 21
241.0081706662
  0
LINE
 67
1
  8
13_KOMPONENTER
 62
7
  6
CONTINUOUS
 10
143.1658959538
 20
242.5299855512
 11
143.1658959538
 21
242.0299855512
  0
LINE
 67
1
  8
13_KOMPONENTER
 62
7
  6
CONTINUOUS
 10
143.5392539693
 20
246.0822497829
 11
143.1659034154
 21
242.530056544
  0
POLYLINE
 67
1
  8
13_KOMPONENTER
 62
7
  6
CONTINUOUS
 66
1
 70
0
  0
VERTEX
 67
1
  8
13_KOMPONENTER
 62
7
  6
CONTINUOUS
 10
144.1572120139
 20
218.1572412683
  0
VERTEX
 67
1
  8
13_KOMPONENTER
 62
7
  6
CONTINUOUS
 10
144.5397210909
 20
218.4063156325
  0
VERTEX
 67
1
  8
13_KOMPONENTER
 62
7
  6
CONTINUOUS
 10
144.8542354866
 20
218.7505537283
  0
VERTEX
 67
1
  8
13_KOMPONENTER
 62
7
  6
CONTINUOUS
 10
145.1164454826
 20
219.1720060153
  0
VERTEX
 67
1
  8
13_KOMPONENTER
 62
7
  6
CONTINUOUS
 10
145.2369849059
 20
219.4171960542
  0
VERTEX
 67
1
  8
13_KOMPONENTER
 62
7
  6
CONTINUOUS
 10
145.4671693518
 20
219.9926718339
  0
VERTEX
 67
1
  8
13_KOMPONENTER
 62
7
  6
CONTINUOUS
 10
145.693929696
 20
220.7210207246
  0
VERTEX
 67
1
  8
13_KOMPONENTER
 62
7
  6
CONTINUOUS
 10
145.9196402234
 20
221.6418345628
  0
SEQEND
  0
POLYLINE
 67
1
  8
13_KOMPONENTER
 62
7
  6
CONTINUOUS
 66
1
 70
0
  0
VERTEX
 67
1
  8
13_KOMPONENTER
 62
7
  6
CONTINUOUS
 10
66.9659034154
 20
242.530056544
  0
VERTEX
 67
1
  8
13_KOMPONENTER
 62
7
  6
CONTINUOUS
 10
66.9908915924
 20
242.5367669488
  0
VERTEX
 67
1
  8
13_KOMPONENTER
 62
7
  6
CONTINUOUS
 10
67.0617247181
 20
242.5402902097
  0
VERTEX
 67
1
  8
13_KOMPONENTER
 62
7
  6
CONTINUOUS
 10
67.1715396862
 20
242.5402902097
  0
VERTEX
 67
1
  8
13_KOMPONENTER
 62
7
  6
CONTINUOUS
 10
67.3097842737
 20
242.5367669488
  0
VERTEX
 67
1
  8
13_KOMPONENTER
 62
7
  6
CONTINUOUS
 10
67.4631643631
 20
242.530056544
  0
SEQEND
  0
POLYLINE
 67
1
  8
13_KOMPONENTER
 62
7
  6
CONTINUOUS
 66
1
 70
0
  0
VERTEX
 67
1
  8
13_KOMPONENTER
 62
7
  6
CONTINUOUS
 10
148.3121517336
 20
221.6418343361
  0
VERTEX
 67
1
  8
13_KOMPONENTER
 62
7
  6
CONTINUOUS
 10
148.5383036757
 20
220.7194255989
  0
VERTEX
 67
1
  8
13_KOMPONENTER
 62
7
  6
CONTINUOUS
 10
148.7651309376
 20
219.9912304213
  0
VERTEX
 67
1
  8
13_KOMPONENTER
 62
7
  6
CONTINUOUS
 10
148.9953920854
 20
219.4159185213
  0
VERTEX
 67
1
  8
13_KOMPONENTER
 62
7
  6
CONTINUOUS
 10
149.1159787698
 20
219.1708120018
  0
VERTEX
 67
1
  8
13_KOMPONENTER
 62
7
  6
CONTINUOUS
 10
149.3783294503
 20
218.7495118419
  0
VERTEX
 67
1
  8
13_KOMPONENTER
 62
7
  6
CONTINUOUS
 10
149.6931013215
 20
218.4054218658
  0
VERTEX
 67
1
  8
13_KOMPONENTER
 62
7
  6
CONTINUOUS
 10
150.0745729157
 20
218.1572444646
  0
SEQEND
  0
LINE
 67
1
  8
13_KOMPONENTER
 62
7
  6
CONTINUOUS
 10
151.0658959538
 20
242.5299855512
 11
151.0658959538
 21
242.0299855512
  0
POLYLINE
 67
1
  8
13_KOMPONENTER
 62
7
  6
CONTINUOUS
 66
1
 70
0
  0
VERTEX
 67
1
  8
13_KOMPONENTER
 62
7
  6
CONTINUOUS
 10
145.919643298
 20
221.641849546
  0
VERTEX
 67
1
  8
13_KOMPONENTER
 62
7
  6
CONTINUOUS
 10
145.9363126635
 20
221.705491724
  0
VERTEX
 67
1
  8
13_KOMPONENTER
 62
7
  6
CONTINUOUS
 10
145.9648669214
 20
221.7871491221
  0
VERTEX
 67
1
  8
13_KOMPONENTER
 62
7
  6
CONTINUOUS
 10
146.0024667927
 20
221.8730584832
  0
VERTEX
 67
1
  8
13_KOMPONENTER
 62
7
  6
CONTINUOUS
 10
146.0476961273
 20
221.9597770445
  0
VERTEX
 67
1
  8
13_KOMPONENTER
 62
7
  6
CONTINUOUS
 10
146.0989415836
 20
222.0446878637
  0
VERTEX
 67
1
  8
13_KOMPONENTER
 62
7
  6
CONTINUOUS
 10
146.1545428509
 20
222.1257989559
  0
VERTEX
 67
1
  8
13_KOMPONENTER
 62
7
  6
CONTINUOUS
 10
146.2132007324
 20
222.2020240112
  0
VERTEX
 67
1
  8
13_KOMPONENTER
 62
7
  6
CONTINUOUS
 10
146.2742930074
 20
222.2731997114
  0
VERTEX
 67
1
  8
13_KOMPONENTER
 62
7
  6
CONTINUOUS
 10
146.3374243992
 20
222.3392740355
  0
VERTEX
 67
1
  8
13_KOMPONENTER
 62
7
  6
CONTINUOUS
 10
146.4022131746
 20
222.4000764666
  0
VERTEX
 67
1
  8
13_KOMPONENTER
 62
7
  6
CONTINUOUS
 10
146.4682304912
 20
222.4553170089
  0
VERTEX
 67
1
  8
13_KOMPONENTER
 62
7
  6
CONTINUOUS
 10
146.5353214686
 20
222.5048568254
  0
VERTEX
 67
1
  8
13_KOMPONENTER
 62
7
  6
CONTINUOUS
 10
146.6037514238
 20
222.5486709464
  0
VERTEX
 67
1
  8
13_KOMPONENTER
 62
7
  6
CONTINUOUS
 10
146.6735272259
 20
222.5862946144
  0
VERTEX
 67
1
  8
13_KOMPONENTER
 62
7
  6
CONTINUOUS
 10
146.7446527575
 20
222.6170033761
  0
VERTEX
 67
1
  8
13_KOMPONENTER
 62
7
  6
CONTINUOUS
 10
146.8168124028
 20
222.6396613586
  0
VERTEX
 67
1
  8
13_KOMPONENTER
 62
7
  6
CONTINUOUS
 10
146.8889573691
 20
222.6528437221
  0
VERTEX
 67
1
  8
13_KOMPONENTER
 62
7
  6
CONTINUOUS
 10
146.9431740418
 20
222.6559104024
  0
SEQEND
  0
POLYLINE
 67
1
  8
13_KOMPONENTER
 62
7
  6
CONTINUOUS
 66
1
 70
0
  0
VERTEX
 67
1
  8
13_KOMPONENTER
 62
7
  6
CONTINUOUS
 10
156.8572189918
 20
218.1572444646
  0
VERTEX
 67
1
  8
13_KOMPONENTER
 62
7
  6
CONTINUOUS
 10
157.2386905861
 20
218.4054218658
  0
VERTEX
 67
1
  8
13_KOMPONENTER
 62
7
  6
CONTINUOUS
 10
157.5534624572
 20
218.7495118419
  0
VERTEX
 67
1
  8
13_KOMPONENTER
 62
7
  6
CONTINUOUS
 10
157.8158131377
 20
219.1708120018
  0
VERTEX
 67
1
  8
13_KOMPONENTER
 62
7
  6
CONTINUOUS
 10
157.9363998221
 20
219.4159185213
  0
VERTEX
 67
1
  8
13_KOMPONENTER
 62
7
  6
CONTINUOUS
 10
158.1666609699
 20
219.9912304213
  0
VERTEX
 67
1
  8
13_KOMPONENTER
 62
7
  6
CONTINUOUS
 10
158.3934882318
 20
220.7194255989
  0
VERTEX
 67
1
  8
13_KOMPONENTER
 62
7
  6
CONTINUOUS
 10
158.6196401739
 20
221.6418343361
  0
SEQEND
  0
LINE
 67
1
  8
13_KOMPONENTER
 62
7
  6
CONTINUOUS
 10
156.8572189918
 20
218.1572444646
 11
156.8571731157
 21
218.1572234516
  0
POLYLINE
 67
1
  8
13_KOMPONENTER
 62
7
  6
CONTINUOUS
 66
1
 70
0
  0
VERTEX
 67
1
  8
13_KOMPONENTER
 62
7
  6
CONTINUOUS
 10
41.5859034154
 20
242.530056544
  0
VERTEX
 67
1
  8
13_KOMPONENTER
 62
7
  6
CONTINUOUS
 10
41.6108915924
 20
242.5367669488
  0
VERTEX
 67
1
  8
13_KOMPONENTER
 62
7
  6
CONTINUOUS
 10
41.6817247181
 20
242.5402902097
  0
VERTEX
 67
1
  8
13_KOMPONENTER
 62
7
  6
CONTINUOUS
 10
41.7915396862
 20
242.5402902097
  0
VERTEX
 67
1
  8
13_KOMPONENTER
 62
7
  6
CONTINUOUS
 10
41.9297842737
 20
242.5367669488
  0
VERTEX
 67
1
  8
13_KOMPONENTER
 62
7
  6
CONTINUOUS
 10
42.0831643631
 20
242.530056544
  0
SEQEND
  0
POLYLINE
 67
1
  8
13_KOMPONENTER
 62
7
  6
CONTINUOUS
 66
1
 70
0
  0
VERTEX
 67
1
  8
13_KOMPONENTER
 62
7
  6
CONTINUOUS
 10
176.4659258003
 20
242.5297015801
  0
VERTEX
 67
1
  8
13_KOMPONENTER
 62
7
  6
CONTINUOUS
 10
176.517844582
 20
242.5093166601
  0
VERTEX
 67
1
  8
13_KOMPONENTER
 62
7
  6
CONTINUOUS
 10
176.6661269248
 20
242.4951476633
  0
VERTEX
 67
1
  8
13_KOMPONENTER
 62
7
  6
CONTINUOUS
 10
176.9033073436
 20
242.4878886453
  0
VERTEX
 67
1
  8
13_KOMPONENTER
 62
7
  6
CONTINUOUS
 10
177.217570341
 20
242.4878886453
  0
VERTEX
 67
1
  8
13_KOMPONENTER
 62
7
  6
CONTINUOUS
 10
177.5936394304
 20
242.4951476633
  0
VERTEX
 67
1
  8
13_KOMPONENTER
 62
7
  6
CONTINUOUS
 10
178.0130208572
 20
242.5093166601
  0
VERTEX
 67
1
  8
13_KOMPONENTER
 62
7
  6
CONTINUOUS
 10
178.4549695911
 20
242.5297015801
  0
SEQEND
  0
POLYLINE
 67
1
  8
13_KOMPONENTER
 62
7
  6
CONTINUOUS
 66
1
 70
0
  0
VERTEX
 67
1
  8
13_KOMPONENTER
 62
7
  6
CONTINUOUS
 10
160.8417234771
 20
222.0299855512
  0
VERTEX
 67
1
  8
13_KOMPONENTER
 62
7
  6
CONTINUOUS
 10
160.8840957802
 20
221.9597770445
  0
VERTEX
 67
1
  8
13_KOMPONENTER
 62
7
  6
CONTINUOUS
 10
160.9293251148
 20
221.8730584832
  0
VERTEX
 67
1
  8
13_KOMPONENTER
 62
7
  6
CONTINUOUS
 10
160.9669249861
 20
221.7871491221
  0
VERTEX
 67
1
  8
13_KOMPONENTER
 62
7
  6
CONTINUOUS
 10
160.995479244
 20
221.705491724
  0
VERTEX
 67
1
  8
13_KOMPONENTER
 62
7
  6
CONTINUOUS
 10
161.0121486096
 20
221.641849546
  0
SEQEND
  0
LINE
 67
1
  8
13_KOMPONENTER
 62
7
  6
CONTINUOUS
 10
150.6925379382
 20
246.0822497829
 11
151.0658884921
 21
242.530056544
  0
LINE
 67
1
  8
13_KOMPONENTER
 62
7
  6
CONTINUOUS
 10
153.3027001726
 20
241.0081665783
 11
152.8226585541
 21
219.0081706662
  0
LINE
 67
1
  8
13_KOMPONENTER
 62
7
  6
CONTINUOUS
 10
154.5067134645
 20
221.1583484827
 11
154.4592230044
 21
219.0079121078
  0
POLYLINE
 67
1
  8
13_KOMPONENTER
 62
7
  6
CONTINUOUS
 66
1
 70
0
  0
VERTEX
 67
1
  8
13_KOMPONENTER
 62
7
  6
CONTINUOUS
 10
154.5067133858
 20
221.1583484844
  0
VERTEX
 67
1
  8
13_KOMPONENTER
 62
7
  6
CONTINUOUS
 10
154.5166167793
 20
221.4232306262
  0
VERTEX
 67
1
  8
13_KOMPONENTER
 62
7
  6
CONTINUOUS
 10
154.5359756177
 20
221.702443813
  0
VERTEX
 67
1
  8
13_KOMPONENTER
 62
7
  6
CONTINUOUS
 10
154.5605152558
 20
221.9391651038
  0
VERTEX
 67
1
  8
13_KOMPONENTER
 62
7
  6
CONTINUOUS
 10
154.5868438309
 20
222.1266723146
  0
VERTEX
 67
1
  8
13_KOMPONENTER
 62
7
  6
CONTINUOUS
 10
154.6124758547
 20
222.2672563155
  0
VERTEX
 67
1
  8
13_KOMPONENTER
 62
7
  6
CONTINUOUS
 10
154.6347294366
 20
222.3625952204
  0
VERTEX
 67
1
  8
13_KOMPONENTER
 62
7
  6
CONTINUOUS
 10
154.6491816543
 20
222.411054163
  0
VERTEX
 67
1
  8
13_KOMPONENTER
 62
7
  6
CONTINUOUS
 10
154.6507269367
 20
222.4153661844
  0
SEQEND
  0
LINE
 67
1
  8
13_KOMPONENTER
 62
7
  6
CONTINUOUS
 10
155.9898237592
 20
243.7090798586
 11
156.2392539693
 21
246.0822497829
  0
LINE
 67
1
  8
13_KOMPONENTER
 62
7
  6
CONTINUOUS
 10
162.3591333534
 20
219.0081706662
 11
162.2931971181
 21
222.0299855512
  0
LINE
 67
1
  8
13_KOMPONENTER
 62
7
  6
CONTINUOUS
 10
157.3385947894
 20
222.0299855512
 11
157.2726585541
 21
219.0081706662
  0
POLYLINE
 67
1
  8
13_KOMPONENTER
 62
7
  6
CONTINUOUS
 66
1
 70
0
  0
VERTEX
 67
1
  8
13_KOMPONENTER
 62
7
  6
CONTINUOUS
 10
158.6196433854
 20
221.6418499086
  0
VERTEX
 67
1
  8
13_KOMPONENTER
 62
7
  6
CONTINUOUS
 10
158.6360136681
 20
221.704502747
  0
VERTEX
 67
1
  8
13_KOMPONENTER
 62
7
  6
CONTINUOUS
 10
158.6644497009
 20
221.7860892057
  0
VERTEX
 67
1
  8
13_KOMPONENTER
 62
7
  6
CONTINUOUS
 10
158.7019508984
 20
221.8719826531
  0
VERTEX
 67
1
  8
13_KOMPONENTER
 62
7
  6
CONTINUOUS
 10
158.7471057969
 20
221.9587272764
  0
VERTEX
 67
1
  8
13_KOMPONENTER
 62
7
  6
CONTINUOUS
 10
158.7900415155
 20
222.0299855512
  0
SEQEND
  0
POLYLINE
 67
1
  8
13_KOMPONENTER
 62
7
  6
CONTINUOUS
 66
1
 70
0
  0
VERTEX
 67
1
  8
13_KOMPONENTER
 62
7
  6
CONTINUOUS
 10
169.5572120139
 20
218.1572412683
  0
VERTEX
 67
1
  8
13_KOMPONENTER
 62
7
  6
CONTINUOUS
 10
169.9397210909
 20
218.4063156325
  0
VERTEX
 67
1
  8
13_KOMPONENTER
 62
7
  6
CONTINUOUS
 10
170.2542354866
 20
218.7505537283
  0
VERTEX
 67
1
  8
13_KOMPONENTER
 62
7
  6
CONTINUOUS
 10
170.5164454826
 20
219.1720060153
  0
VERTEX
 67
1
  8
13_KOMPONENTER
 62
7
  6
CONTINUOUS
 10
170.6369849059
 20
219.4171960542
  0
VERTEX
 67
1
  8
13_KOMPONENTER
 62
7
  6
CONTINUOUS
 10
170.8671693518
 20
219.9926718339
  0
VERTEX
 67
1
  8
13_KOMPONENTER
 62
7
  6
CONTINUOUS
 10
171.093929696
 20
220.7210207246
  0
VERTEX
 67
1
  8
13_KOMPONENTER
 62
7
  6
CONTINUOUS
 10
171.3196402234
 20
221.6418345628
  0
SEQEND
  0
LINE
 67
1
  8
13_KOMPONENTER
 62
7
  6
CONTINUOUS
 10
182.2572189918
 20
218.1572444646
 11
182.2571731157
 21
218.1572234516
  0
POLYLINE
 67
1
  8
13_KOMPONENTER
 62
7
  6
CONTINUOUS
 66
1
 70
0
  0
VERTEX
 67
1
  8
13_KOMPONENTER
 62
7
  6
CONTINUOUS
 10
164.981131854
 20
222.4153277191
  0
VERTEX
 67
1
  8
13_KOMPONENTER
 62
7
  6
CONTINUOUS
 10
164.9826829124
 20
222.4108450071
  0
VERTEX
 67
1
  8
13_KOMPONENTER
 62
7
  6
CONTINUOUS
 10
164.9972382883
 20
222.3619353739
  0
VERTEX
 67
1
  8
13_KOMPONENTER
 62
7
  6
CONTINUOUS
 10
165.0195480914
 20
222.266136938
  0
VERTEX
 67
1
  8
13_KOMPONENTER
 62
7
  6
CONTINUOUS
 10
165.0452072265
 20
222.125062744
  0
VERTEX
 67
1
  8
13_KOMPONENTER
 62
7
  6
CONTINUOUS
 10
165.0715392132
 20
221.9370125264
  0
VERTEX
 67
1
  8
13_KOMPONENTER
 62
7
  6
CONTINUOUS
 10
165.0960564517
 20
221.6996699216
  0
VERTEX
 67
1
  8
13_KOMPONENTER
 62
7
  6
CONTINUOUS
 10
165.1153523935
 20
221.419851192
  0
VERTEX
 67
1
  8
13_KOMPONENTER
 62
7
  6
CONTINUOUS
 10
165.1250785218
 20
221.1583484846
  0
SEQEND
  0
POLYLINE
 67
1
  8
13_KOMPONENTER
 62
7
  6
CONTINUOUS
 66
1
 70
0
  0
VERTEX
 67
1
  8
13_KOMPONENTER
 62
7
  6
CONTINUOUS
 10
161.0121516841
 20
221.6418345628
  0
VERTEX
 67
1
  8
13_KOMPONENTER
 62
7
  6
CONTINUOUS
 10
161.2378622116
 20
220.7210207246
  0
VERTEX
 67
1
  8
13_KOMPONENTER
 62
7
  6
CONTINUOUS
 10
161.4646225557
 20
219.9926718339
  0
VERTEX
 67
1
  8
13_KOMPONENTER
 62
7
  6
CONTINUOUS
 10
161.6948070016
 20
219.4171960542
  0
VERTEX
 67
1
  8
13_KOMPONENTER
 62
7
  6
CONTINUOUS
 10
161.8153464249
 20
219.1720060153
  0
VERTEX
 67
1
  8
13_KOMPONENTER
 62
7
  6
CONTINUOUS
 10
162.0775564209
 20
218.7505537283
  0
VERTEX
 67
1
  8
13_KOMPONENTER
 62
7
  6
CONTINUOUS
 10
162.3920708166
 20
218.4063156325
  0
VERTEX
 67
1
  8
13_KOMPONENTER
 62
7
  6
CONTINUOUS
 10
162.7745798936
 20
218.1572412683
  0
SEQEND
  0
LINE
 67
1
  8
13_KOMPONENTER
 62
7
  6
CONTINUOUS
 10
163.6419681483
 20
243.7090798586
 11
163.3925379382
 21
246.0822497829
  0
LINE
 67
1
  8
13_KOMPONENTER
 62
7
  6
CONTINUOUS
 10
165.1725689031
 20
219.0079121075
 11
165.125078443
 21
221.1583484828
  0
LINE
 67
1
  8
13_KOMPONENTER
 62
7
  6
CONTINUOUS
 10
166.8091333534
 20
219.0081706662
 11
166.3290916458
 21
241.0081706662
  0
LINE
 67
1
  8
13_KOMPONENTER
 62
7
  6
CONTINUOUS
 10
168.9392539693
 20
246.0822497829
 11
168.5659034154
 21
242.530056544
  0
POLYLINE
 67
1
  8
13_KOMPONENTER
 62
7
  6
CONTINUOUS
 66
1
 70
0
  0
VERTEX
 67
1
  8
13_KOMPONENTER
 62
7
  6
CONTINUOUS
 10
182.2572189918
 20
218.1572444646
  0
VERTEX
 67
1
  8
13_KOMPONENTER
 62
7
  6
CONTINUOUS
 10
182.6386905861
 20
218.4054218658
  0
VERTEX
 67
1
  8
13_KOMPONENTER
 62
7
  6
CONTINUOUS
 10
182.9534624572
 20
218.7495118419
  0
VERTEX
 67
1
  8
13_KOMPONENTER
 62
7
  6
CONTINUOUS
 10
183.2158131377
 20
219.1708120018
  0
VERTEX
 67
1
  8
13_KOMPONENTER
 62
7
  6
CONTINUOUS
 10
183.3363998221
 20
219.4159185213
  0
VERTEX
 67
1
  8
13_KOMPONENTER
 62
7
  6
CONTINUOUS
 10
183.5666609699
 20
219.9912304213
  0
VERTEX
 67
1
  8
13_KOMPONENTER
 62
7
  6
CONTINUOUS
 10
183.7934882318
 20
220.7194255989
  0
VERTEX
 67
1
  8
13_KOMPONENTER
 62
7
  6
CONTINUOUS
 10
184.0196401739
 20
221.6418343361
  0
SEQEND
  0
POLYLINE
 67
1
  8
13_KOMPONENTER
 62
7
  6
CONTINUOUS
 66
1
 70
0
  0
VERTEX
 67
1
  8
13_KOMPONENTER
 62
7
  6
CONTINUOUS
 10
165.1725695418
 20
219.0079121216
  0
VERTEX
 67
1
  8
13_KOMPONENTER
 62
7
  6
CONTINUOUS
 10
165.1994129881
 20
218.7988378527
  0
VERTEX
 67
1
  8
13_KOMPONENTER
 62
7
  6
CONTINUOUS
 10
165.2871531389
 20
218.5647742282
  0
VERTEX
 67
1
  8
13_KOMPONENTER
 62
7
  6
CONTINUOUS
 10
165.4303652139
 20
218.3596100739
  0
VERTEX
 67
1
  8
13_KOMPONENTER
 62
7
  6
CONTINUOUS
 10
165.5200996795
 20
218.2720326105
  0
VERTEX
 67
1
  8
13_KOMPONENTER
 62
7
  6
CONTINUOUS
 10
165.7287593424
 20
218.1338102139
  0
VERTEX
 67
1
  8
13_KOMPONENTER
 62
7
  6
CONTINUOUS
 10
165.9650941931
 20
218.0517341589
  0
VERTEX
 67
1
  8
13_KOMPONENTER
 62
7
  6
CONTINUOUS
 10
166.1725671997
 20
218.0299862988
  0
SEQEND
  0
LINE
 67
1
  8
13_KOMPONENTER
 62
7
  6
CONTINUOUS
 10
168.5658959538
 20
242.5299855512
 11
168.5658959538
 21
242.0299855512
  0
POLYLINE
 67
1
  8
13_KOMPONENTER
 62
7
  6
CONTINUOUS
 66
1
 70
0
  0
VERTEX
 67
1
  8
13_KOMPONENTER
 62
7
  6
CONTINUOUS
 10
171.319643298
 20
221.641849546
  0
VERTEX
 67
1
  8
13_KOMPONENTER
 62
7
  6
CONTINUOUS
 10
171.3363126635
 20
221.705491724
  0
VERTEX
 67
1
  8
13_KOMPONENTER
 62
7
  6
CONTINUOUS
 10
171.3648669214
 20
221.7871491221
  0
VERTEX
 67
1
  8
13_KOMPONENTER
 62
7
  6
CONTINUOUS
 10
171.4024667927
 20
221.8730584832
  0
VERTEX
 67
1
  8
13_KOMPONENTER
 62
7
  6
CONTINUOUS
 10
171.4476961273
 20
221.9597770445
  0
VERTEX
 67
1
  8
13_KOMPONENTER
 62
7
  6
CONTINUOUS
 10
171.4989415836
 20
222.0446878637
  0
VERTEX
 67
1
  8
13_KOMPONENTER
 62
7
  6
CONTINUOUS
 10
171.5545428509
 20
222.1257989559
  0
VERTEX
 67
1
  8
13_KOMPONENTER
 62
7
  6
CONTINUOUS
 10
171.6132007324
 20
222.2020240112
  0
VERTEX
 67
1
  8
13_KOMPONENTER
 62
7
  6
CONTINUOUS
 10
171.6742930074
 20
222.2731997114
  0
VERTEX
 67
1
  8
13_KOMPONENTER
 62
7
  6
CONTINUOUS
 10
171.7374243992
 20
222.3392740355
  0
VERTEX
 67
1
  8
13_KOMPONENTER
 62
7
  6
CONTINUOUS
 10
171.8022131746
 20
222.4000764666
  0
VERTEX
 67
1
  8
13_KOMPONENTER
 62
7
  6
CONTINUOUS
 10
171.8682304912
 20
222.4553170089
  0
VERTEX
 67
1
  8
13_KOMPONENTER
 62
7
  6
CONTINUOUS
 10
171.9353214686
 20
222.5048568254
  0
VERTEX
 67
1
  8
13_KOMPONENTER
 62
7
  6
CONTINUOUS
 10
172.0037514238
 20
222.5486709464
  0
VERTEX
 67
1
  8
13_KOMPONENTER
 62
7
  6
CONTINUOUS
 10
172.0735272259
 20
222.5862946144
  0
VERTEX
 67
1
  8
13_KOMPONENTER
 62
7
  6
CONTINUOUS
 10
172.1446527575
 20
222.6170033761
  0
VERTEX
 67
1
  8
13_KOMPONENTER
 62
7
  6
CONTINUOUS
 10
172.2168124028
 20
222.6396613586
  0
VERTEX
 67
1
  8
13_KOMPONENTER
 62
7
  6
CONTINUOUS
 10
172.2889573691
 20
222.6528437221
  0
VERTEX
 67
1
  8
13_KOMPONENTER
 62
7
  6
CONTINUOUS
 10
172.3431740418
 20
222.6559104024
  0
SEQEND
  0
POLYLINE
 67
1
  8
13_KOMPONENTER
 62
7
  6
CONTINUOUS
 66
1
 70
0
  0
VERTEX
 67
1
  8
13_KOMPONENTER
 62
7
  6
CONTINUOUS
 10
186.3060631113
 20
222.0299855512
  0
VERTEX
 67
1
  8
13_KOMPONENTER
 62
7
  6
CONTINUOUS
 10
186.3501063451
 20
221.9576212479
  0
VERTEX
 67
1
  8
13_KOMPONENTER
 62
7
  6
CONTINUOUS
 10
186.3959916924
 20
221.8704793825
  0
SEQEND
  0
POLYLINE
 67
1
  8
13_KOMPONENTER
 62
7
  6
CONTINUOUS
 66
1
 70
0
  0
VERTEX
 67
1
  8
13_KOMPONENTER
 62
7
  6
CONTINUOUS
 10
173.7121517336
 20
221.6418343361
  0
VERTEX
 67
1
  8
13_KOMPONENTER
 62
7
  6
CONTINUOUS
 10
173.9383036757
 20
220.7194255989
  0
VERTEX
 67
1
  8
13_KOMPONENTER
 62
7
  6
CONTINUOUS
 10
174.1651309376
 20
219.9912304213
  0
VERTEX
 67
1
  8
13_KOMPONENTER
 62
7
  6
CONTINUOUS
 10
174.3953920854
 20
219.4159185213
  0
VERTEX
 67
1
  8
13_KOMPONENTER
 62
7
  6
CONTINUOUS
 10
174.5159787698
 20
219.1708120018
  0
VERTEX
 67
1
  8
13_KOMPONENTER
 62
7
  6
CONTINUOUS
 10
174.7783294503
 20
218.7495118419
  0
VERTEX
 67
1
  8
13_KOMPONENTER
 62
7
  6
CONTINUOUS
 10
175.0931013215
 20
218.4054218658
  0
VERTEX
 67
1
  8
13_KOMPONENTER
 62
7
  6
CONTINUOUS
 10
175.4745729157
 20
218.1572444646
  0
SEQEND
  0
LINE
 67
1
  8
13_KOMPONENTER
 62
7
  6
CONTINUOUS
 10
176.0925379382
 20
246.0822497829
 11
176.4658884921
 21
242.530056544
  0
LINE
 67
1
  8
13_KOMPONENTER
 62
7
  6
CONTINUOUS
 10
176.4658959538
 20
242.5299855512
 11
176.4658959538
 21
242.0299855512
  0
POLYLINE
 67
1
  8
13_KOMPONENTER
 62
7
  6
CONTINUOUS
 66
1
 70
0
  0
VERTEX
 67
1
  8
13_KOMPONENTER
 62
7
  6
CONTINUOUS
 10
186.3959916924
 20
221.8704793825
  0
VERTEX
 67
1
  8
13_KOMPONENTER
 62
7
  6
CONTINUOUS
 10
186.4342150301
 20
221.7841071857
  0
VERTEX
 67
1
  8
13_KOMPONENTER
 62
7
  6
CONTINUOUS
 10
186.4633261939
 20
221.7019689073
  0
VERTEX
 67
1
  8
13_KOMPONENTER
 62
7
  6
CONTINUOUS
 10
186.4803990776
 20
221.6378980461
  0
SEQEND
  0
LINE
 67
1
  8
13_KOMPONENTER
 62
7
  6
CONTINUOUS
 10
178.7027002618
 20
241.0081706662
 11
178.2226585541
 21
219.0081706662
  0
LINE
 67
1
  8
13_KOMPONENTER
 62
7
  6
CONTINUOUS
 10
182.7234069495
 20
221.3339367032
 11
182.6726585541
 21
219.0081706662
  0
LINE
 67
1
  8
13_KOMPONENTER
 62
7
  6
CONTINUOUS
 10
179.9067134645
 20
221.1583484827
 11
179.8592230044
 21
219.0079121078
  0
POLYLINE
 67
1
  8
13_KOMPONENTER
 62
7
  6
CONTINUOUS
 66
1
 70
0
  0
VERTEX
 67
1
  8
13_KOMPONENTER
 62
7
  6
CONTINUOUS
 10
179.9067133858
 20
221.1583484844
  0
VERTEX
 67
1
  8
13_KOMPONENTER
 62
7
  6
CONTINUOUS
 10
179.9166167793
 20
221.4232306262
  0
VERTEX
 67
1
  8
13_KOMPONENTER
 62
7
  6
CONTINUOUS
 10
179.9359756177
 20
221.7024438131
  0
VERTEX
 67
1
  8
13_KOMPONENTER
 62
7
  6
CONTINUOUS
 10
179.9605152558
 20
221.9391651038
  0
VERTEX
 67
1
  8
13_KOMPONENTER
 62
7
  6
CONTINUOUS
 10
179.9868438309
 20
222.1266723146
  0
VERTEX
 67
1
  8
13_KOMPONENTER
 62
7
  6
CONTINUOUS
 10
180.0124758547
 20
222.2672563156
  0
VERTEX
 67
1
  8
13_KOMPONENTER
 62
7
  6
CONTINUOUS
 10
180.0347294366
 20
222.3625952204
  0
VERTEX
 67
1
  8
13_KOMPONENTER
 62
7
  6
CONTINUOUS
 10
180.0491816543
 20
222.411054163
  0
VERTEX
 67
1
  8
13_KOMPONENTER
 62
7
  6
CONTINUOUS
 10
180.0507269367
 20
222.4153661844
  0
SEQEND
  0
LINE
 67
1
  8
13_KOMPONENTER
 62
7
  6
CONTINUOUS
 10
181.3898237592
 20
243.7090798586
 11
181.6392539693
 21
246.0822497829
  0
POLYLINE
 67
1
  8
13_KOMPONENTER
 62
7
  6
CONTINUOUS
 66
1
 70
0
  0
VERTEX
 67
1
  8
13_KOMPONENTER
 62
7
  6
CONTINUOUS
 10
186.4804023275
 20
221.6378827235
  0
VERTEX
 67
1
  8
13_KOMPONENTER
 62
7
  6
CONTINUOUS
 10
186.7097885424
 20
220.7184949484
  0
VERTEX
 67
1
  8
13_KOMPONENTER
 62
7
  6
CONTINUOUS
 10
186.9393176272
 20
219.9911563842
  0
VERTEX
 67
1
  8
13_KOMPONENTER
 62
7
  6
CONTINUOUS
 10
187.1715032873
 20
219.4164151622
  0
VERTEX
 67
1
  8
13_KOMPONENTER
 62
7
  6
CONTINUOUS
 10
187.2927839847
 20
219.1715506878
  0
VERTEX
 67
1
  8
13_KOMPONENTER
 62
7
  6
CONTINUOUS
 10
187.5558527815
 20
218.7508257837
  0
VERTEX
 67
1
  8
13_KOMPONENTER
 62
7
  6
CONTINUOUS
 10
187.8700988957
 20
218.4074356972
  0
VERTEX
 67
1
  8
13_KOMPONENTER
 62
7
  6
CONTINUOUS
 10
188.2512322981
 20
218.158659828
  0
SEQEND
  0
LINE
 67
1
  8
13_KOMPONENTER
 62
7
  6
CONTINUOUS
 10
187.8379280095
 20
219.0038086029
 11
187.7478075829
 21
222.4453688464
  0
LINE
 67
1
  8
13_KOMPONENTER
 62
7
  6
CONTINUOUS
 10
187.7045921708
 20
224.0956988515
 11
187.3652104862
 21
237.0561624995
  0
LINE
 67
1
  8
13_KOMPONENTER
 62
7
  6
CONTINUOUS
 10
189.1458959538
 20
242.5299855512
 11
189.1458959538
 21
242.0299855512
  0
POLYLINE
 67
1
  8
13_KOMPONENTER
 62
7
  6
CONTINUOUS
 66
1
 70
0
  0
VERTEX
 67
1
  8
13_KOMPONENTER
 62
7
  6
CONTINUOUS
 10
184.0196433854
 20
221.6418499086
  0
VERTEX
 67
1
  8
13_KOMPONENTER
 62
7
  6
CONTINUOUS
 10
184.0360136681
 20
221.704502747
  0
VERTEX
 67
1
  8
13_KOMPONENTER
 62
7
  6
CONTINUOUS
 10
184.0644497009
 20
221.7860892057
  0
VERTEX
 67
1
  8
13_KOMPONENTER
 62
7
  6
CONTINUOUS
 10
184.1019508984
 20
221.8719826531
  0
VERTEX
 67
1
  8
13_KOMPONENTER
 62
7
  6
CONTINUOUS
 10
184.1471057969
 20
221.9587272764
  0
VERTEX
 67
1
  8
13_KOMPONENTER
 62
7
  6
CONTINUOUS
 10
184.1900415155
 20
222.0299855512
  0
SEQEND
  0
LINE
 67
1
  8
13_KOMPONENTER
 62
7
  6
CONTINUOUS
 10
188.7725379382
 20
246.0822497829
 11
189.1458884921
 21
242.530056544
  0
LINE
 67
1
  8
13_KOMPONENTER
 62
7
  6
CONTINUOUS
 10
191.3658959538
 20
241.0299855512
 11
191.3658959538
 21
219.0299855512
  0
LINE
 67
1
  8
0
 62
2
  6
CONTINUOUS
 10
277.5978323699
 20
232.2799855512
 11
277.5978323699
 21
230.1799855512
  0
LINE
 67
1
  8
DEFAULT_1
 62
2
  6
CENTER
 10
277.5978323699
 20
225.9799855512
 11
277.5978323699
 21
225.0549855512
  0
LINE
 67
1
  8
DEFAULT_1
 62
2
  6
CENTER
 10
277.5978323699
 20
236.4799855512
 11
277.5978323699
 21
237.4049855512
  0
LINE
 67
1
  8
13_KOMPONENTER
 62
7
  6
CONTINUOUS
 10
278.6735428982
 20
244.2017595557
 11
278.4978398316
 21
242.530056544
  0
LINE
 67
1
  8
13_KOMPONENTER
 62
7
  6
CONTINUOUS
 10
278.4978323699
 20
242.5299855512
 11
278.4978323699
 21
242.0299855512
  0
LINE
 67
1
  8
13_KOMPONENTER
 62
7
  6
CONTINUOUS
 10
287.3978323699
 20
242.5299855512
 11
287.5735428982
 21
244.2017595557
  0
LINE
 67
1
  8
13_KOMPONENTER
 62
7
  6
CONTINUOUS
 10
287.3978323699
 20
242.5299855512
 11
287.3978323699
 21
242.0299855512
  0
LINE
 67
1
  8
13_KOMPONENTER
 62
7
  6
CONTINUOUS
 10
277.4228323699
 20
218.0299855512
 11
302.1970242813
 21
218.0299855512
  0
LINE
 67
1
  8
13_KOMPONENTER
 62
7
  6
CONTINUOUS
 10
303.7986404585
 20
218.0299855512
 11
328.5728323699
 21
218.0299855512
  0
LINE
 67
1
  8
13_KOMPONENTER
 62
7
  6
CONTINUOUS
 10
301.5774154289
 20
222.0299855512
 11
300.8478323699
 21
222.0299855512
  0
LINE
 67
1
  8
13_KOMPONENTER
 62
7
  6
CONTINUOUS
 10
299.9978323699
 20
221.1799855512
 11
299.9978323699
 21
219.0099855512
  0
LINE
 67
1
  8
13_KOMPONENTER
 62
7
  6
CONTINUOUS
 10
301.0281438422
 20
227.2559556108
 11
301.8095966678
 21
219.8209286247
  0
LINE
 67
1
  8
0
 62
2
  6
CONTINUOUS
 10
329.4478323699
 20
231.2299855512
 11
327.3478323699
 21
231.2299855512
  0
LINE
 67
1
  8
DEFAULT_1
 62
2
  6
CENTER
 10
323.1478323699
 20
231.2299855512
 11
322.2228323699
 21
231.2299855512
  0
LINE
 67
1
  8
0
 62
2
  6
CONTINUOUS
 10
278.6478323699
 20
231.2299855512
 11
276.5478323699
 21
231.2299855512
  0
LINE
 67
1
  8
DEFAULT_1
 62
2
  6
CENTER
 10
272.3478323699
 20
231.2299855512
 11
271.4228323699
 21
231.2299855512
  0
LINE
 67
1
  8
DEFAULT_1
 62
2
  6
CENTER
 10
282.8478323699
 20
231.2299855512
 11
283.7728323699
 21
231.2299855512
  0
LINE
 67
1
  8
DEFAULT_1
 62
2
  6
CENTER
 10
333.6478323699
 20
231.2299855512
 11
334.5728323699
 21
231.2299855512
  0
POLYLINE
 67
1
  8
13_KOMPONENTER
 62
7
  6
CONTINUOUS
 66
1
 70
0
  0
VERTEX
 67
1
  8
13_KOMPONENTER
 62
7
  6
CONTINUOUS
 10
327.0005639606
 20
242.530056544
  0
VERTEX
 67
1
  8
13_KOMPONENTER
 62
7
  6
CONTINUOUS
 10
327.15394405
 20
242.5367669488
  0
VERTEX
 67
1
  8
13_KOMPONENTER
 62
7
  6
CONTINUOUS
 10
327.2921886375
 20
242.5402902097
  0
VERTEX
 67
1
  8
13_KOMPONENTER
 62
7
  6
CONTINUOUS
 10
327.4020036056
 20
242.5402902097
  0
VERTEX
 67
1
  8
13_KOMPONENTER
 62
7
  6
CONTINUOUS
 10
327.4728367313
 20
242.5367669488
  0
VERTEX
 67
1
  8
13_KOMPONENTER
 62
7
  6
CONTINUOUS
 10
327.4978249083
 20
242.530056544
  0
SEQEND
  0
LINE
 67
1
  8
13_KOMPONENTER
 62
7
  6
CONTINUOUS
 10
326.9978323699
 20
242.5299855512
 11
327.0005639606
 21
242.530056544
  0
LINE
 67
1
  8
13_KOMPONENTER
 62
7
  6
CONTINUOUS
 10
328.5728323699
 20
242.0299855512
 11
277.4228323699
 21
242.0299855512
  0
LINE
 67
1
  8
13_KOMPONENTER
 62
7
  6
CONTINUOUS
 10
278.9951007793
 20
242.530056544
 11
278.9978323699
 21
242.5299855512
  0
LINE
 67
1
  8
13_KOMPONENTER
 62
7
  6
CONTINUOUS
 10
285.3978323699
 20
242.5299855512
 11
285.4087587326
 21
242.5297015801
  0
LINE
 67
1
  8
13_KOMPONENTER
 62
7
  6
CONTINUOUS
 10
287.8951007793
 20
242.530056544
 11
287.8978323699
 21
242.5299855512
  0
POLYLINE
 67
1
  8
13_KOMPONENTER
 62
7
  6
CONTINUOUS
 66
1
 70
0
  0
VERTEX
 67
1
  8
13_KOMPONENTER
 62
7
  6
CONTINUOUS
 10
285.4087587326
 20
242.5297015801
  0
VERTEX
 67
1
  8
13_KOMPONENTER
 62
7
  6
CONTINUOUS
 10
285.8507074665
 20
242.5093166601
  0
VERTEX
 67
1
  8
13_KOMPONENTER
 62
7
  6
CONTINUOUS
 10
286.2700888933
 20
242.4951476633
  0
VERTEX
 67
1
  8
13_KOMPONENTER
 62
7
  6
CONTINUOUS
 10
286.6461579827
 20
242.4878886453
  0
VERTEX
 67
1
  8
13_KOMPONENTER
 62
7
  6
CONTINUOUS
 10
286.9604209801
 20
242.4878886453
  0
VERTEX
 67
1
  8
13_KOMPONENTER
 62
7
  6
CONTINUOUS
 10
287.1976013989
 20
242.4951476633
  0
VERTEX
 67
1
  8
13_KOMPONENTER
 62
7
  6
CONTINUOUS
 10
287.3458837417
 20
242.5093166601
  0
VERTEX
 67
1
  8
13_KOMPONENTER
 62
7
  6
CONTINUOUS
 10
287.3978025234
 20
242.5297015801
  0
SEQEND
  0
LINE
 67
1
  8
13_KOMPONENTER
 62
7
  6
CONTINUOUS
 10
278.9978323699
 20
242.5299855512
 11
285.3978323699
 21
242.5299855512
  0
LINE
 67
1
  8
13_KOMPONENTER
 62
7
  6
CONTINUOUS
 10
287.8978323699
 20
242.5299855512
 11
326.9978323699
 21
242.5299855512
  0
LINE
 67
1
  8
13_KOMPONENTER
 62
7
  6
CONTINUOUS
 10
287.5029366052
 20
243.5299855512
 11
287.1246341835
 21
243.5299855512
  0
POLYLINE
 67
1
  8
13_KOMPONENTER
 62
7
  6
CONTINUOUS
 66
1
 70
0
  0
VERTEX
 67
1
  8
13_KOMPONENTER
 62
7
  6
CONTINUOUS
 10
287.3978398316
 20
242.530056544
  0
VERTEX
 67
1
  8
13_KOMPONENTER
 62
7
  6
CONTINUOUS
 10
287.4228280086
 20
242.5367669488
  0
VERTEX
 67
1
  8
13_KOMPONENTER
 62
7
  6
CONTINUOUS
 10
287.4936611343
 20
242.5402902097
  0
VERTEX
 67
1
  8
13_KOMPONENTER
 62
7
  6
CONTINUOUS
 10
287.6034761024
 20
242.5402902097
  0
VERTEX
 67
1
  8
13_KOMPONENTER
 62
7
  6
CONTINUOUS
 10
287.7417206899
 20
242.5367669488
  0
VERTEX
 67
1
  8
13_KOMPONENTER
 62
7
  6
CONTINUOUS
 10
287.8951007793
 20
242.530056544
  0
SEQEND
  0
POLYLINE
 67
1
  8
13_KOMPONENTER
 62
7
  6
CONTINUOUS
 66
1
 70
0
  0
VERTEX
 67
1
  8
13_KOMPONENTER
 62
7
  6
CONTINUOUS
 10
278.4978398316
 20
242.530056544
  0
VERTEX
 67
1
  8
13_KOMPONENTER
 62
7
  6
CONTINUOUS
 10
278.5228280086
 20
242.5367669488
  0
VERTEX
 67
1
  8
13_KOMPONENTER
 62
7
  6
CONTINUOUS
 10
278.5936611343
 20
242.5402902097
  0
VERTEX
 67
1
  8
13_KOMPONENTER
 62
7
  6
CONTINUOUS
 10
278.7034761024
 20
242.5402902097
  0
VERTEX
 67
1
  8
13_KOMPONENTER
 62
7
  6
CONTINUOUS
 10
278.8417206899
 20
242.5367669488
  0
VERTEX
 67
1
  8
13_KOMPONENTER
 62
7
  6
CONTINUOUS
 10
278.9951007793
 20
242.530056544
  0
SEQEND
  0
LINE
 67
1
  8
13_KOMPONENTER
 62
7
  6
CONTINUOUS
 10
281.2592998262
 20
246.5299855512
 11
324.7363649137
 21
246.5299855512
  0
LINE
 67
1
  8
13_KOMPONENTER
 62
7
  6
CONTINUOUS
 10
327.3221218417
 20
244.2017595557
 11
327.4978249083
 21
242.530056544
  0
LINE
 67
1
  8
13_KOMPONENTER
 62
7
  6
CONTINUOUS
 10
327.4978323699
 20
242.5299855512
 11
327.4978323699
 21
242.0299855512
  0
LINE
 67
1
  8
0
 62
2
  6
CONTINUOUS
 10
328.3978323699
 20
232.2799855512
 11
328.3978323699
 21
230.1799855512
  0
LINE
 67
1
  8
DEFAULT_1
 62
2
  6
CENTER
 10
328.3978323699
 20
225.9799855512
 11
328.3978323699
 21
225.0549855512
  0
LINE
 67
1
  8
DEFAULT_1
 62
2
  6
CENTER
 10
328.3978323699
 20
236.4799855512
 11
328.3978323699
 21
237.4049855512
  0
ARC
 67
1
  8
13_KOMPONENTER
 62
7
  6
CONTINUOUS
 10
76.8658959538
 20
110.6207369942
 40
2.0
 50
90.3130187909
 51
179.6869812091
  0
ARC
 67
1
  8
13_KOMPONENTER
 62
7
  6
CONTINUOUS
 10
90.3658959538
 20
110.6207369942
 40
2.0
 50
0.3130187909
 51
89.6869812091
  0
ARC
 67
1
  8
13_KOMPONENTER
 62
7
  6
CONTINUOUS
 10
102.2658959538
 20
110.6207369942
 40
2.0
 50
90.3130187909
 51
179.6869812091
  0
ARC
 67
1
  8
13_KOMPONENTER
 62
7
  6
CONTINUOUS
 10
64.9658959538
 20
110.6207369942
 40
2.0
 50
0.3130187909
 51
89.6869812091
  0
ARC
 67
1
  8
13_KOMPONENTER
 62
7
  6
CONTINUOUS
 10
51.4658959538
 20
110.6207369942
 40
2.0
 50
90.3130187909
 51
179.6869812091
  0
ARC
 67
1
  8
13_KOMPONENTER
 62
7
  6
CONTINUOUS
 10
40.3658959538
 20
91.6457369942
 40
1.0
 50
180.0
 51
270.0
  0
ARC
 67
1
  8
13_KOMPONENTER
 62
7
  6
CONTINUOUS
 10
42.0858959538
 20
104.2207369942
 40
0.5
 50
180.3130187909
 51
269.6869812091
  0
ARC
 67
1
  8
13_KOMPONENTER
 62
7
  6
CONTINUOUS
 10
99.7658959538
 20
104.2207369942
 40
0.5
 50
270.3130187909
 51
359.6869812091
  0
ARC
 67
1
  8
13_KOMPONENTER
 62
7
  6
CONTINUOUS
 10
92.8658959538
 20
104.2207369942
 40
0.5
 50
180.3130187909
 51
269.6869812091
  0
ARC
 67
1
  8
13_KOMPONENTER
 62
7
  6
CONTINUOUS
 10
74.3658959538
 20
104.2207369942
 40
0.5
 50
270.3130187909
 51
359.6869812091
  0
ARC
 67
1
  8
13_KOMPONENTER
 62
7
  6
CONTINUOUS
 10
67.4658959538
 20
104.2207369942
 40
0.5
 50
180.3130187909
 51
269.6869812091
  0
ARC
 67
1
  8
13_KOMPONENTER
 62
7
  6
CONTINUOUS
 10
48.9658959538
 20
104.2207369942
 40
0.5
 50
270.3130187909
 51
359.6869812091
  0
ARC
 67
1
  8
13_KOMPONENTER
 62
7
  6
CONTINUOUS
 10
114.9658959538
 20
145.8207369942
 40
2.0
 50
180.3130187909
 51
269.6869812091
  0
ARC
 67
1
  8
13_KOMPONENTER
 62
7
  6
CONTINUOUS
 10
103.0658959538
 20
145.8207369942
 40
2.0
 50
270.3130187909
 51
359.6869812091
  0
ARC
 67
1
  8
13_KOMPONENTER
 62
7
  6
CONTINUOUS
 10
89.5658959538
 20
145.8207369942
 40
2.0
 50
180.3130187909
 51
269.6869812091
  0
ARC
 67
1
  8
13_KOMPONENTER
 62
7
  6
CONTINUOUS
 10
77.6658959538
 20
145.8207369942
 40
2.0
 50
270.3130187909
 51
359.6869812091
  0
ARC
 67
1
  8
13_KOMPONENTER
 62
7
  6
CONTINUOUS
 10
64.1658959538
 20
145.8207369942
 40
2.0
 50
180.3130187909
 51
269.6869812091
  0
ARC
 67
1
  8
13_KOMPONENTER
 62
7
  6
CONTINUOUS
 10
52.2658959538
 20
145.8207369942
 40
2.0
 50
270.3130187909
 51
359.6869812091
  0
ARC
 67
1
  8
13_KOMPONENTER
 62
7
  6
CONTINUOUS
 10
42.0858959538
 20
143.3207369942
 40
0.5
 50
90.3130187909
 51
179.6869812091
  0
ARC
 67
1
  8
13_KOMPONENTER
 62
7
  6
CONTINUOUS
 10
80.1658959538
 20
152.2207369942
 40
0.5
 50
90.3130187909
 51
179.6869812091
  0
ARC
 67
1
  8
13_KOMPONENTER
 62
7
  6
CONTINUOUS
 10
87.0658959538
 20
152.2207369942
 40
0.5
 50
0.3130187909
 51
89.6869812091
  0
ARC
 67
1
  8
13_KOMPONENTER
 62
7
  6
CONTINUOUS
 10
105.5658959538
 20
152.2207369942
 40
0.5
 50
90.3130187909
 51
179.6869812091
  0
ARC
 67
1
  8
13_KOMPONENTER
 62
7
  6
CONTINUOUS
 10
112.4658959538
 20
152.2207369942
 40
0.5
 50
0.3130187909
 51
89.6869812091
  0
ARC
 67
1
  8
13_KOMPONENTER
 62
7
  6
CONTINUOUS
 10
61.6658959538
 20
152.2207369942
 40
0.5
 50
0.3130187909
 51
89.6869812091
  0
ARC
 67
1
  8
13_KOMPONENTER
 62
7
  6
CONTINUOUS
 10
54.7658959538
 20
152.2207369942
 40
0.5
 50
90.3130187909
 51
179.6869812091
  0
ARC
 67
1
  8
13_KOMPONENTER
 62
7
  6
CONTINUOUS
 10
115.7658959538
 20
110.6207369942
 40
2.0
 50
0.3130187909
 51
89.6869812091
  0
ARC
 67
1
  8
13_KOMPONENTER
 62
7
  6
CONTINUOUS
 10
141.1658959538
 20
110.6207369942
 40
2.0
 50
0.3130187909
 51
89.6869812091
  0
ARC
 67
1
  8
13_KOMPONENTER
 62
7
  6
CONTINUOUS
 10
178.4658959538
 20
110.6207369942
 40
2.0
 50
90.3130187909
 51
179.6869812091
  0
ARC
 67
1
  8
13_KOMPONENTER
 62
7
  6
CONTINUOUS
 10
127.6658959538
 20
110.6207369942
 40
2.0
 50
90.3130187909
 51
179.6869812091
  0
ARC
 67
1
  8
13_KOMPONENTER
 62
7
  6
CONTINUOUS
 10
153.0658959538
 20
110.6207369942
 40
2.0
 50
90.3130187909
 51
179.6869812091
  0
ARC
 67
1
  8
13_KOMPONENTER
 62
7
  6
CONTINUOUS
 10
166.5658959538
 20
110.6207369942
 40
2.0
 50
0.3130187909
 51
89.6869812091
  0
ARC
 67
1
  8
13_KOMPONENTER
 62
7
  6
CONTINUOUS
 10
188.6458959538
 20
113.1207369942
 40
0.5
 50
270.3130187909
 51
359.6869812091
  0
ARC
 67
1
  8
13_KOMPONENTER
 62
7
  6
CONTINUOUS
 10
169.0658959538
 20
104.2207369942
 40
0.5
 50
180.3130187909
 51
269.6869812091
  0
ARC
 67
1
  8
13_KOMPONENTER
 62
7
  6
CONTINUOUS
 10
150.5658959538
 20
104.2207369942
 40
0.5
 50
270.3130187909
 51
359.6869812091
  0
ARC
 67
1
  8
13_KOMPONENTER
 62
7
  6
CONTINUOUS
 10
143.6658959538
 20
104.2207369942
 40
0.5
 50
180.3130187909
 51
269.6869812091
  0
ARC
 67
1
  8
13_KOMPONENTER
 62
7
  6
CONTINUOUS
 10
125.1658959538
 20
104.2207369942
 40
0.5
 50
270.3130187909
 51
359.6869812091
  0
ARC
 67
1
  8
13_KOMPONENTER
 62
7
  6
CONTINUOUS
 10
118.2658959538
 20
104.2207369942
 40
0.5
 50
180.3130187909
 51
269.6869812091
  0
ARC
 67
1
  8
13_KOMPONENTER
 62
7
  6
CONTINUOUS
 10
175.9658959538
 20
104.2207369942
 40
0.5
 50
270.3130187909
 51
359.6869812091
  0
ARC
 67
1
  8
13_KOMPONENTER
 62
7
  6
CONTINUOUS
 10
165.7658959538
 20
145.8207369942
 40
2.0
 50
180.3130187909
 51
269.6869812091
  0
ARC
 67
1
  8
13_KOMPONENTER
 62
7
  6
CONTINUOUS
 10
153.8658959538
 20
145.8207369942
 40
2.0
 50
270.3130187909
 51
359.6869812091
  0
ARC
 67
1
  8
13_KOMPONENTER
 62
7
  6
CONTINUOUS
 10
140.3658959538
 20
145.8207369942
 40
2.0
 50
180.3130187909
 51
269.6869812091
  0
ARC
 67
1
  8
13_KOMPONENTER
 62
7
  6
CONTINUOUS
 10
128.4658959538
 20
145.8207369942
 40
2.0
 50
270.3130187909
 51
359.6869812091
  0
ARC
 67
1
  8
13_KOMPONENTER
 62
7
  6
CONTINUOUS
 10
179.2658959538
 20
145.8207369942
 40
2.0
 50
270.3130187909
 51
359.6869812091
  0
ARC
 67
1
  8
13_KOMPONENTER
 62
7
  6
CONTINUOUS
 10
190.3658959538
 20
164.7957369942
 40
1.0
 50
0.0
 51
90.0
  0
ARC
 67
1
  8
13_KOMPONENTER
 62
7
  6
CONTINUOUS
 10
188.6458959538
 20
152.2207369942
 40
0.5
 50
0.3130187909
 51
89.6869812091
  0
ARC
 67
1
  8
13_KOMPONENTER
 62
7
  6
CONTINUOUS
 10
137.8658959538
 20
152.2207369942
 40
0.5
 50
0.3130187909
 51
89.6869812091
  0
ARC
 67
1
  8
13_KOMPONENTER
 62
7
  6
CONTINUOUS
 10
130.9658959538
 20
152.2207369942
 40
0.5
 50
90.3130187909
 51
179.6869812091
  0
ARC
 67
1
  8
13_KOMPONENTER
 62
7
  6
CONTINUOUS
 10
181.7658959538
 20
152.2207369942
 40
0.5
 50
90.3130187909
 51
179.6869812091
  0
ARC
 67
1
  8
13_KOMPONENTER
 62
7
  6
CONTINUOUS
 10
156.3658959538
 20
152.2207369942
 40
0.5
 50
90.3130187909
 51
179.6869812091
  0
ARC
 67
1
  8
13_KOMPONENTER
 62
7
  6
CONTINUOUS
 10
163.2658959538
 20
152.2207369942
 40
0.5
 50
0.3130187909
 51
89.6869812091
  0
ARC
 67
1
  8
13_KOMPONENTER
 62
7
  6
CONTINUOUS
 10
40.3658959538
 20
219.0299855512
 40
1.0
 50
180.0
 51
270.0
  0
ARC
 67
1
  8
13_KOMPONENTER
 62
7
  6
CONTINUOUS
 10
41.8942065793
 20
219.0299857927
 40
1.0
 50
306.2077738963
 51
314.2499921331
  0
ARC
 67
1
  8
13_KOMPONENTER
 62
7
  6
CONTINUOUS
 10
112.5588953805
 20
219.0299855512
 40
1.0
 50
181.25
 51
270.0
  0
ARC
 67
1
  8
13_KOMPONENTER
 62
7
  6
CONTINUOUS
 10
92.7728964999
 20
219.0299855512
 40
1.0
 50
306.8232987803
 51
314.375000951
  0
ARC
 67
1
  8
13_KOMPONENTER
 62
7
  6
CONTINUOUS
 10
91.6088953805
 20
219.0299855512
 40
1.0
 50
181.25
 51
270.0
  0
ARC
 67
1
  8
13_KOMPONENTER
 62
7
  6
CONTINUOUS
 10
87.1588953805
 20
219.0299855512
 40
1.0
 50
181.25
 51
270.0
  0
ARC
 67
1
  8
13_KOMPONENTER
 62
7
  6
CONTINUOUS
 10
67.3728964999
 20
219.0299855512
 40
1.0
 50
306.8235074902
 51
314.375000951
  0
ARC
 67
1
  8
13_KOMPONENTER
 62
7
  6
CONTINUOUS
 10
66.2088953805
 20
219.0299855512
 40
1.0
 50
181.25
 51
270.0
  0
ARC
 67
1
  8
13_KOMPONENTER
 62
7
  6
CONTINUOUS
 10
61.7588953805
 20
219.0299855512
 40
1.0
 50
181.25
 51
270.0
  0
ARC
 67
1
  8
13_KOMPONENTER
 62
7
  6
CONTINUOUS
 10
105.4728965362
 20
219.0299855512
 40
0.9999999992
 50
269.9999994718
 51
358.7499999885
  0
ARC
 67
1
  8
13_KOMPONENTER
 62
7
  6
CONTINUOUS
 10
80.0728965362
 20
219.0299855512
 40
0.9999999992
 50
269.9999994718
 51
358.7499999885
  0
ARC
 67
1
  8
13_KOMPONENTER
 62
7
  6
CONTINUOUS
 10
54.6728965362
 20
219.0299855512
 40
0.9999999992
 50
269.9999994718
 51
358.7499999885
  0
ARC
 67
1
  8
13_KOMPONENTER
 62
7
  6
CONTINUOUS
 10
101.0228965603
 20
219.0299855512
 40
0.999999997
 50
269.9999980931
 51
358.7499999584
  0
ARC
 67
1
  8
13_KOMPONENTER
 62
7
  6
CONTINUOUS
 10
75.6228965603
 20
219.0299855512
 40
0.999999997
 50
269.9999980931
 51
358.7499999584
  0
ARC
 67
1
  8
13_KOMPONENTER
 62
7
  6
CONTINUOUS
 10
50.2228965603
 20
219.0299855512
 40
0.999999997
 50
269.9999980931
 51
358.7499999584
  0
ARC
 67
1
  8
13_KOMPONENTER
 62
7
  6
CONTINUOUS
 10
40.3658959538
 20
241.0299855512
 40
1.0
 50
90.0
 51
180.0
  0
ARC
 67
1
  8
13_KOMPONENTER
 62
7
  6
CONTINUOUS
 10
76.1029382347
 20
241.0299855512
 40
1.0
 50
358.7497722498
 51
89.999982896
  0
ARC
 67
1
  8
13_KOMPONENTER
 62
7
  6
CONTINUOUS
 10
65.7288536728
 20
241.0299855512
 40
1.0
 50
90.0
 51
181.25
  0
ARC
 67
1
  8
13_KOMPONENTER
 62
7
  6
CONTINUOUS
 10
50.7029382347
 20
241.0299855512
 40
1.0
 50
358.7497722452
 51
89.9999828967
  0
ARC
 67
1
  8
13_KOMPONENTER
 62
7
  6
CONTINUOUS
 10
54.1909193802
 20
243.7299855512
 40
0.2
 50
270.0
 51
354.0
  0
ARC
 67
1
  8
13_KOMPONENTER
 62
7
  6
CONTINUOUS
 10
49.5408725274
 20
243.7299855512
 40
0.2
 50
186.0000452748
 51
270.0000525846
  0
ARC
 67
1
  8
13_KOMPONENTER
 62
7
  6
CONTINUOUS
 10
42.456514917
 20
246.0299855512
 40
0.5
 50
90.0
 51
174.0
  0
ARC
 67
1
  8
13_KOMPONENTER
 62
7
  6
CONTINUOUS
 10
55.136514917
 20
246.0299855512
 40
0.5
 50
90.0
 51
174.0
  0
ARC
 67
1
  8
13_KOMPONENTER
 62
7
  6
CONTINUOUS
 10
48.5952769905
 20
246.0299855512
 40
0.5
 50
6.0
 51
90.0
  0
ARC
 67
1
  8
13_KOMPONENTER
 62
7
  6
CONTINUOUS
 10
62.2408725274
 20
243.7299855512
 40
0.2
 50
186.0
 51
270.0
  0
ARC
 67
1
  8
13_KOMPONENTER
 62
7
  6
CONTINUOUS
 10
74.9408725274
 20
243.7299855512
 40
0.2
 50
186.0000452748
 51
270.0000525846
  0
ARC
 67
1
  8
13_KOMPONENTER
 62
7
  6
CONTINUOUS
 10
66.8909193802
 20
243.7299855512
 40
0.2
 50
270.0
 51
354.0000000001
  0
ARC
 67
1
  8
13_KOMPONENTER
 62
7
  6
CONTINUOUS
 10
67.836514917
 20
246.0299855512
 40
0.5
 50
90.0
 51
174.0
  0
ARC
 67
1
  8
13_KOMPONENTER
 62
7
  6
CONTINUOUS
 10
73.9952769905
 20
246.0299855512
 40
0.5
 50
6.0
 51
90.0
  0
ARC
 67
1
  8
13_KOMPONENTER
 62
7
  6
CONTINUOUS
 10
61.2952769905
 20
246.0299855512
 40
0.5
 50
6.0
 51
90.0
  0
ARC
 67
1
  8
13_KOMPONENTER
 62
7
  6
CONTINUOUS
 10
101.5029382347
 20
241.0299855512
 40
1.0
 50
358.7497722452
 51
89.9999828967
  0
ARC
 67
1
  8
13_KOMPONENTER
 62
7
  6
CONTINUOUS
 10
91.1288536728
 20
241.0299855512
 40
1.0
 50
90.0
 51
181.25
  0
ARC
 67
1
  8
13_KOMPONENTER
 62
7
  6
CONTINUOUS
 10
87.6408725274
 20
243.7299855512
 40
0.2
 50
186.0
 51
270.0
  0
ARC
 67
1
  8
13_KOMPONENTER
 62
7
  6
CONTINUOUS
 10
79.5909193802
 20
243.7299855512
 40
0.2
 50
270.0
 51
354.0
  0
ARC
 67
1
  8
13_KOMPONENTER
 62
7
  6
CONTINUOUS
 10
92.2909193802
 20
243.7299855512
 40
0.2
 50
270.0
 51
354.0000000001
  0
ARC
 67
1
  8
13_KOMPONENTER
 62
7
  6
CONTINUOUS
 10
80.536514917
 20
246.0299855512
 40
0.5
 50
90.0
 51
174.0
  0
ARC
 67
1
  8
13_KOMPONENTER
 62
7
  6
CONTINUOUS
 10
86.6952769905
 20
246.0299855512
 40
0.5
 50
6.0
 51
90.0
  0
ARC
 67
1
  8
13_KOMPONENTER
 62
7
  6
CONTINUOUS
 10
93.236514917
 20
246.0299855512
 40
0.5
 50
90.0
 51
174.0
  0
ARC
 67
1
  8
13_KOMPONENTER
 62
7
  6
CONTINUOUS
 10
100.3408725274
 20
243.7299855512
 40
0.2
 50
186.0000452747
 51
270.0000525846
  0
ARC
 67
1
  8
13_KOMPONENTER
 62
7
  6
CONTINUOUS
 10
113.0408725274
 20
243.7299855512
 40
0.2
 50
186.0
 51
270.0
  0
ARC
 67
1
  8
13_KOMPONENTER
 62
7
  6
CONTINUOUS
 10
104.9909193802
 20
243.7299855512
 40
0.2
 50
270.0
 51
354.0
  0
ARC
 67
1
  8
13_KOMPONENTER
 62
7
  6
CONTINUOUS
 10
105.936514917
 20
246.0299855512
 40
0.5
 50
90.0
 51
174.0
  0
ARC
 67
1
  8
13_KOMPONENTER
 62
7
  6
CONTINUOUS
 10
112.0952769905
 20
246.0299855512
 40
0.5
 50
6.0
 51
90.0
  0
ARC
 67
1
  8
13_KOMPONENTER
 62
7
  6
CONTINUOUS
 10
99.3952769905
 20
246.0299855512
 40
0.5
 50
6.0
 51
90.0
  0
ARC
 67
1
  8
13_KOMPONENTER
 62
7
  6
CONTINUOUS
 10
137.9588954076
 20
219.0299855512
 40
1.0
 50
181.2499999661
 51
269.9999984471
  0
ARC
 67
1
  8
13_KOMPONENTER
 62
7
  6
CONTINUOUS
 10
142.4088953788
 20
219.0299856285
 40
1.0
 50
181.2500044265
 51
270.0000000966
  0
ARC
 67
1
  8
13_KOMPONENTER
 62
7
  6
CONTINUOUS
 10
143.5728964999
 20
219.0299855512
 40
1.0
 50
306.8231086425
 51
314.375000951
  0
ARC
 67
1
  8
13_KOMPONENTER
 62
7
  6
CONTINUOUS
 10
118.1728964999
 20
219.0299855512
 40
1.0
 50
306.8233069998
 51
314.375000951
  0
ARC
 67
1
  8
13_KOMPONENTER
 62
7
  6
CONTINUOUS
 10
117.0088953805
 20
219.0299855512
 40
1.0
 50
181.25
 51
270.0
  0
ARC
 67
1
  8
13_KOMPONENTER
 62
7
  6
CONTINUOUS
 10
130.8728965362
 20
219.0299855512
 40
0.9999999992
 50
269.9999994718
 51
358.7499999885
  0
ARC
 67
1
  8
13_KOMPONENTER
 62
7
  6
CONTINUOUS
 10
151.8228965603
 20
219.0299855512
 40
0.999999997
 50
269.9999980931
 51
358.7499999584
  0
ARC
 67
1
  8
13_KOMPONENTER
 62
7
  6
CONTINUOUS
 10
126.4228965603
 20
219.0299855512
 40
0.999999997
 50
269.9999980931
 51
358.7499999584
  0
ARC
 67
1
  8
13_KOMPONENTER
 62
7
  6
CONTINUOUS
 10
190.3658959538
 20
219.0299855512
 40
1.0
 50
270.0
 51
360.0
  0
ARC
 67
1
  8
13_KOMPONENTER
 62
7
  6
CONTINUOUS
 10
188.8375853345
 20
219.0299855512
 40
1.0
 50
181.5
 51
270.0
  0
ARC
 67
1
  8
13_KOMPONENTER
 62
7
  6
CONTINUOUS
 10
163.3588954076
 20
219.0299855512
 40
1.0
 50
181.2499999661
 51
269.9999984471
  0
ARC
 67
1
  8
13_KOMPONENTER
 62
7
  6
CONTINUOUS
 10
167.8088953788
 20
219.0299856285
 40
1.0
 50
181.2500044265
 51
270.0000000966
  0
ARC
 67
1
  8
13_KOMPONENTER
 62
7
  6
CONTINUOUS
 10
168.9728964999
 20
219.0299855512
 40
1.0
 50
306.8231086425
 51
314.375000951
  0
ARC
 67
1
  8
13_KOMPONENTER
 62
7
  6
CONTINUOUS
 10
181.6728965362
 20
219.0299855512
 40
0.9999999992
 50
269.9999994718
 51
358.7499999885
  0
ARC
 67
1
  8
13_KOMPONENTER
 62
7
  6
CONTINUOUS
 10
156.2728965362
 20
219.0299855512
 40
0.9999999992
 50
269.9999994718
 51
358.7499999885
  0
ARC
 67
1
  8
13_KOMPONENTER
 62
7
  6
CONTINUOUS
 10
177.2228965603
 20
219.0299855512
 40
0.999999997
 50
269.9999980931
 51
358.7499999584
  0
ARC
 67
1
  8
13_KOMPONENTER
 62
7
  6
CONTINUOUS
 10
186.7845278826
 20
221.0299864587
 40
0.9999995463
 50
1.4999479897
 51
89.9999986385
  0
ARC
 67
1
  8
13_KOMPONENTER
 62
7
  6
CONTINUOUS
 10
183.717012767
 20
221.0299867269
 40
0.9999994122
 50
90.0000014698
 51
178.75
  0
ARC
 67
1
  8
13_KOMPONENTER
 62
7
  6
CONTINUOUS
 10
186.9306514234
 20
221.1799860692
 40
0.849999712
 50
1.4999650736
 51
89.9999816758
  0
ARC
 67
1
  8
13_KOMPONENTER
 62
7
  6
CONTINUOUS
 10
152.3029382321
 20
241.0299854315
 40
1.0
 50
358.7500068623
 51
89.9999998503
  0
ARC
 67
1
  8
13_KOMPONENTER
 62
7
  6
CONTINUOUS
 10
126.9029382321
 20
241.0299854315
 40
1.0
 50
358.7500068623
 51
89.9999998503
  0
ARC
 67
1
  8
13_KOMPONENTER
 62
7
  6
CONTINUOUS
 10
141.9288518197
 20
241.0299855512
 40
1.0
 50
90.0
 51
181.2502300669
  0
ARC
 67
1
  8
13_KOMPONENTER
 62
7
  6
CONTINUOUS
 10
116.5288536728
 20
241.0299855512
 40
1.0
 50
90.0
 51
181.25
  0
ARC
 67
1
  8
13_KOMPONENTER
 62
7
  6
CONTINUOUS
 10
125.7408725274
 20
243.7299855512
 40
0.2
 50
186.0000452748
 51
270.0000525846
  0
ARC
 67
1
  8
13_KOMPONENTER
 62
7
  6
CONTINUOUS
 10
130.3909193802
 20
243.7299855512
 40
0.2
 50
270.0
 51
354.0
  0
ARC
 67
1
  8
13_KOMPONENTER
 62
7
  6
CONTINUOUS
 10
117.6909193802
 20
243.7299855512
 40
0.2
 50
270.0
 51
354.0000000001
  0
ARC
 67
1
  8
13_KOMPONENTER
 62
7
  6
CONTINUOUS
 10
131.336514917
 20
246.0299855512
 40
0.5
 50
90.0
 51
174.0
  0
ARC
 67
1
  8
13_KOMPONENTER
 62
7
  6
CONTINUOUS
 10
118.636514917
 20
246.0299855512
 40
0.5
 50
90.0
 51
174.0
  0
ARC
 67
1
  8
13_KOMPONENTER
 62
7
  6
CONTINUOUS
 10
124.7952769905
 20
246.0299855512
 40
0.5
 50
6.0
 51
90.0
  0
ARC
 67
1
  8
13_KOMPONENTER
 62
7
  6
CONTINUOUS
 10
138.4408725274
 20
243.7299855512
 40
0.2
 50
186.0
 51
270.0
  0
ARC
 67
1
  8
13_KOMPONENTER
 62
7
  6
CONTINUOUS
 10
151.1408725274
 20
243.7299855512
 40
0.2
 50
186.0000452747
 51
270.0000525846
  0
ARC
 67
1
  8
13_KOMPONENTER
 62
7
  6
CONTINUOUS
 10
143.0909193802
 20
243.7299855512
 40
0.2
 50
270.0
 51
354.0000000001
  0
ARC
 67
1
  8
13_KOMPONENTER
 62
7
  6
CONTINUOUS
 10
137.4952769905
 20
246.0299855512
 40
0.5
 50
6.0
 51
90.0
  0
ARC
 67
1
  8
13_KOMPONENTER
 62
7
  6
CONTINUOUS
 10
144.036514917
 20
246.0299855512
 40
0.5
 50
90.0
 51
174.0
  0
ARC
 67
1
  8
13_KOMPONENTER
 62
7
  6
CONTINUOUS
 10
150.1952769905
 20
246.0299855512
 40
0.5
 50
6.0
 51
90.0
  0
ARC
 67
1
  8
13_KOMPONENTER
 62
7
  6
CONTINUOUS
 10
177.7029382347
 20
241.0299855512
 40
1.0
 50
358.7497657216
 51
89.9999998503
  0
ARC
 67
1
  8
13_KOMPONENTER
 62
7
  6
CONTINUOUS
 10
167.3288518197
 20
241.0299855512
 40
1.0
 50
90.0
 51
181.2502300714
  0
ARC
 67
1
  8
13_KOMPONENTER
 62
7
  6
CONTINUOUS
 10
186.3655531613
 20
237.0299855512
 40
1.0
 50
1.5
 51
90.0
  0
ARC
 67
1
  8
13_KOMPONENTER
 62
7
  6
CONTINUOUS
 10
190.3658959538
 20
241.0299855512
 40
1.0
 50
0.0
 51
90.0
  0
ARC
 67
1
  8
13_KOMPONENTER
 62
7
  6
CONTINUOUS
 10
190.3658959538
 20
239.0299855512
 40
1.0
 50
270.0
 51
360.0
  0
ARC
 67
1
  8
13_KOMPONENTER
 62
7
  6
CONTINUOUS
 10
163.8408725274
 20
243.7299855512
 40
0.2
 50
186.0
 51
270.0
  0
ARC
 67
1
  8
13_KOMPONENTER
 62
7
  6
CONTINUOUS
 10
168.4909193802
 20
243.7299855512
 40
0.2
 50
270.0
 51
354.0000000001
  0
ARC
 67
1
  8
13_KOMPONENTER
 62
7
  6
CONTINUOUS
 10
155.7909193802
 20
243.7299855512
 40
0.2
 50
270.0
 51
354.0
  0
ARC
 67
1
  8
13_KOMPONENTER
 62
7
  6
CONTINUOUS
 10
162.8952769905
 20
246.0299855512
 40
0.5
 50
6.0
 51
90.0
  0
ARC
 67
1
  8
13_KOMPONENTER
 62
7
  6
CONTINUOUS
 10
156.736514917
 20
246.0299855512
 40
0.5
 50
90.0
 51
174.0
  0
ARC
 67
1
  8
13_KOMPONENTER
 62
7
  6
CONTINUOUS
 10
169.436514917
 20
246.0299855512
 40
0.5
 50
90.0
 51
174.0
  0
ARC
 67
1
  8
13_KOMPONENTER
 62
7
  6
CONTINUOUS
 10
176.5408725274
 20
243.7299855512
 40
0.2
 50
186.0000452748
 51
270.0000525846
  0
ARC
 67
1
  8
13_KOMPONENTER
 62
7
  6
CONTINUOUS
 10
181.1909193802
 20
243.7299855512
 40
0.2
 50
270.0
 51
354.0
  0
ARC
 67
1
  8
13_KOMPONENTER
 62
7
  6
CONTINUOUS
 10
188.2752769905
 20
246.0299855512
 40
0.5
 50
6.0
 51
90.0
  0
ARC
 67
1
  8
13_KOMPONENTER
 62
7
  6
CONTINUOUS
 10
175.5952769905
 20
246.0299855512
 40
0.5
 50
6.0
 51
90.0
  0
ARC
 67
1
  8
13_KOMPONENTER
 62
7
  6
CONTINUOUS
 10
182.136514917
 20
246.0299855512
 40
0.5
 50
90.0
 51
174.0
  0
ARC
 67
1
  8
13_KOMPONENTER
 62
7
  6
CONTINUOUS
 10
277.4228323699
 20
230.0299855512
 40
12.0
 50
90.0
 51
270.0
  0
CIRCLE
 67
1
  8
13_KOMPONENTER
 62
7
  6
CONTINUOUS
 10
277.5978323699
 20
231.2299855512
 40
4.175
  0
ARC
 67
1
  8
13_KOMPONENTER
 62
7
  6
CONTINUOUS
 10
279.3768150987
 20
231.2299855512
 40
11.0
 50
43.1134761482
 51
54.7524930079
  0
ARC
 67
1
  8
13_KOMPONENTER
 62
7
  6
CONTINUOUS
 10
289.0623713553
 20
225.9983022442
 40
12.031683307
 50
6.0
 51
90.0
  0
ARC
 67
1
  8
13_KOMPONENTER
 62
7
  6
CONTINUOUS
 10
299.0178323699
 20
219.0099855512
 40
0.98
 50
270.0
 51
360.0
  0
ARC
 67
1
  8
13_KOMPONENTER
 62
7
  6
CONTINUOUS
 10
302.1970242813
 20
220.0299855512
 40
2.0
 50
270.0
 51
293.6176251962
  0
ARC
 67
1
  8
13_KOMPONENTER
 62
7
  6
CONTINUOUS
 10
300.8478323699
 20
221.1799855512
 40
0.85
 50
90.0
 51
180.0
  0
ARC
 67
1
  8
13_KOMPONENTER
 62
7
  6
CONTINUOUS
 10
281.2592998262
 20
243.9299855512
 40
2.6
 50
90.0
 51
174.0
  0
ARC
 67
1
  8
13_KOMPONENTER
 62
7
  6
CONTINUOUS
 10
289.0623713553
 20
240.2978426941
 40
2.2678571428
 50
223.113427584
 51
270.0
  0
ARC
 67
1
  8
13_KOMPONENTER
 62
7
  6
CONTINUOUS
 10
286.3021293965
 20
241.0299855512
 40
0.9999995719
 50
89.9999144346
 51
234.7525083505
  0
ARC
 67
1
  8
13_KOMPONENTER
 62
7
  6
CONTINUOUS
 10
290.1592998262
 20
243.9299855512
 40
2.6
 50
90.0
 51
174.0
  0
ARC
 67
1
  8
13_KOMPONENTER
 62
7
  6
CONTINUOUS
 10
303.7986404585
 20
220.0299855512
 40
2.0
 50
186.0
 51
270.0
  0
CIRCLE
 67
1
  8
13_KOMPONENTER
 62
7
  6
CONTINUOUS
 10
328.3978323699
 20
231.2299855512
 40
4.175
  0
ARC
 67
1
  8
13_KOMPONENTER
 62
7
  6
CONTINUOUS
 10
328.5728323699
 20
230.0299855512
 40
12.0
 50
270.0
 51
90.0
  0
ARC
 67
1
  8
13_KOMPONENTER
 62
7
  6
CONTINUOUS
 10
324.7363649137
 20
243.9299855512
 40
2.6
 50
6.0
 51
90.0
  0
ENDSEC
  0
EOF
