  0
SECTION
  2
HEADER
  9
$EXTMAX
 10
420.0
 20
297.0
 30
0.0
  9
$EXTMIN
 10
0.0
 20
0.0
 30
0.0
  9
$LIMMIN
 10
0.0
 20
0.0
  9
$LIMMAX
 10
420.0
 20
297.0
  9
$VIEWCTR
 10
210.0
 20
148.5
  9
$VIEWSIZE
 40
297.0
  9
$CLAYER
  8
0
  9
$LTSCALE
 40
23.1
  9
$CELTYPE
  6
BYLAYER
  9
$DIMSCALE
 40
1.0
  9
$DIMASZ
 40
3.5
  9
$DIMEXO
 40
1.0
  9
$DIMDLI
 40
15.96
  9
$DIMEXE
 40
2.0
  9
$DIMCEN
 40
3.78
  9
$DIMLFAC
 40
1.0
  9
$DIMBLK
  1
_FILLED
  9
$DIMTXT
 40
3.5
  9
$PDMODE
 70
3
  9
$PDSIZE
 40
0.3125
  9
$TILEMODE
 70
1
  0
ENDSEC
  0
SECTION
  2
TABLES
  0
TABLE
  2
LTYPE
 70
6
  0
LTYPE
  2
BYBLOCK
 70
0
  3

 72
65
 73
0
 40
0.0
  0
LTYPE
  2
BYLAYER
 70
0
  3

 72
65
 73
0
 40
0.0
  0
LTYPE
  2
CONTINUOUS
 70
64
  3
Solid line
 72
65
 73
0
 40
0.0
  0
LTYPE
  2
CENTER
 70
64
  3
____ _ ____ _ ____ _ ____ _ ____ _ ____ _ ____
 72
65
 73
4
 40
0.6
 49
0.375
 49
-0.075
 49
0.075
 49
-0.075
  0
LTYPE
  2
HIDDEN
 70
64
  3
- - - - - - - - - - - - - - - - - - - -
 72
65
 73
2
 40
0.2
 49
0.1
 49
-0.1
  0
LTYPE
  2
PHANTOM
 70
64
  3
_____ _ _ _____ _ _ _____ _ _ _____
 72
65
 73
6
 40
0.8
 49
0.45
 49
-0.05
 49
0.1
 49
-0.05
 49
0.1
 49
-0.05
  0
LTYPE
  2
DOT
 70
64
  3
. . . . . . . . . . . . . . . . . . . .
 72
65
 73
2
 40
0.2
 49
0.1
 49
-0.1
  0
LTYPE
  2
DASHED
 70
64
  3
- - - - - - - - - - - - - - - - - - - -
 72
65
 73
2
 40
0.2
 49
0.1
 49
-0.1
  0
ENDTAB
  0
TABLE
  2
LAYER
 70
36
  0
LAYER
  2
0
 70
0
 62
7
  6
CONTINUOUS
  0
LAYER
  2
DEFAULT_1
 70
0
 62
7
  6
CENTER
  0
LAYER
  2
DEFAULT_2
 70
0
 62
8
  6
HIDDEN
  0
LAYER
  2
DEFAULT_3
 70
0
 62
7
  6
PHANTOM
  0
LAYER
  2
CURVE
 70
0
 62
7
  6
CONTINUOUS
  0
LAYER
  2
PLANE
 70
0
 62
7
  6
CONTINUOUS
  0
LAYER
  2
SURF
 70
0
 62
7
  6
CONTINUOUS
  0
LAYER
  2
SURFACE
 70
0
 62
7
  6
CONTINUOUS
  0
ENDTAB
  0
TABLE
  2
STYLE
 70
1
  0
STYLE
  2
STANDARD
 70
0
 40
0.0
 41
0.8
 50
0.0
 71
0
 42
0.2
  3
txt
  4

  0
STYLE
  2
TEXTSTYLE_1
 70
0
 40
0.0
 41
0.8
 50
0.0
 71
0
 42
0.2
  3
gdt
  4

  0
STYLE
  2
TEXTSTYLE_2
 70
0
 40
0.0
 41
0.6
 50
0.0
 71
0
 42
0.2
  3
txt
  4

  0
STYLE
  2
TEXTSTYLE_3
 70
0
 40
0.0
 41
1.0
 50
0.0
 71
0
 42
0.2
  3
ftb_____.ttf
  4

  0
STYLE
  2
TEXTSTYLE_4
 70
0
 40
0.0
 41
1.0
 50
0.0
 71
0
 42
0.2
  3
fti_____.ttf
  4

  0
STYLE
  2
TEXTSTYLE_5
 70
0
 40
0.0
 41
1.0
 50
0.0
 71
0
 42
0.2
  3
frutiger light.ttf
  4

  0
STYLE
  2
TEXTSTYLE_6
 70
0
 40
0.0
 41
0.7
 50
0.0
 71
0
 42
0.2
  3
txt
  4

  0
STYLE
  2
TEXTSTYLE_7
 70
0
 40
0.0
 41
0.7
 50
0.0
 71
0
 42
0.2
  3
txt
  4

  0
ENDTAB
  0
ENDSEC
  0
SECTION
  2
BLOCKS
  0
BLOCK
  8
0
 62
2
  6
CONTINUOUS
  2
SYMBOL_5_BL1
 70
64
 10
382.7840918555
 20
35.5067593403
  0
TEXT
  8
0
 62
7
  6
CONTINUOUS
 10
373.842376864
 20
30.5995157174
  7
TEXTSTYLE_4
 40
1.0655737705
  1
The brand for plastic modular belts and chains
 41
1.0
 72
0
  0
LINE
  8
0
 62
7
  6
CONTINUOUS
 10
358.7621602445
 20
36.0805298321
 11
358.7621602445
 21
33.9493822911
  0
LINE
  8
0
 62
7
  6
CONTINUOUS
 10
359.0512227376
 20
30.9584509954
 11
359.0512227376
 21
31.0552420547
  0
LINE
  8
0
 62
7
  6
CONTINUOUS
 10
358.7621602445
 20
31.0229783683
 11
358.8199727462
 21
30.8293962497
  0
LINE
  8
0
 62
7
  6
CONTINUOUS
 10
360.1556028675
 20
33.867415078
 11
360.1556028675
 21
36.0805298321
  0
LINE
  8
0
 62
7
  6
CONTINUOUS
 10
361.0746601894
 20
32.0231527829
 11
361.0746601894
 21
30.5067593403
  0
LINE
  8
0
 62
7
  6
CONTINUOUS
 10
361.3637227445
 20
30.5067593403
 11
361.3637227445
 21
31.2488242184
  0
LINE
  8
0
 62
7
  6
CONTINUOUS
 10
361.3637227445
 20
31.3778789641
 11
361.3637227445
 21
32.0231527829
  0
LINE
  8
0
 62
7
  6
CONTINUOUS
 10
358.8199727462
 20
31.216560532
 11
358.7621602445
 21
31.0229783683
  0
LINE
  8
0
 62
7
  6
CONTINUOUS
 10
359.1668477307
 20
30.7971325633
 11
359.0512227376
 21
30.9584509954
  0
LINE
  8
0
 62
7
  6
CONTINUOUS
 10
360.2652852997
 20
31.3133515913
 11
360.3230977445
 21
31.216560532
  0
LINE
  8
0
 62
7
  6
CONTINUOUS
 10
360.6121602997
 20
31.216560532
 11
360.5543476894
 21
31.3456152777
  0
LINE
  8
0
 62
7
  6
CONTINUOUS
 10
362.0408487691
 20
36.0805298321
 11
362.0408487691
 21
34.2772511436
  0
LINE
  8
0
 62
7
  6
CONTINUOUS
 10
362.0408487691
 20
32.9657757338
 11
362.0408487691
 21
32.3100380288
  0
LINE
  8
0
 62
7
  6
CONTINUOUS
 10
362.4043477445
 20
31.1520331591
 11
362.4043477445
 21
30.5067593403
  0
LINE
  8
0
 62
7
  6
CONTINUOUS
 10
362.6934101343
 20
30.5067593403
 11
362.6934101343
 21
31.1520331591
  0
LINE
  8
0
 62
7
  6
CONTINUOUS
 10
359.0512227376
 20
31.0552420547
 11
359.1090352445
 21
31.1842968456
  0
LINE
  8
0
 62
7
  6
CONTINUOUS
 10
358.8199727462
 20
30.8293962497
 11
358.9355977445
 21
30.7003414814
  0
LINE
  8
0
 62
7
  6
CONTINUOUS
 10
362.3465351343
 20
31.2810879048
 11
362.4043477445
 21
31.1520331591
  0
LINE
  8
0
 62
7
  6
CONTINUOUS
 10
363.1559103548
 20
30.7971325633
 11
363.2137226343
 21
30.668077795
  0
LINE
  8
0
 62
7
  6
CONTINUOUS
 10
362.6934101343
 20
31.1520331591
 11
362.6355978548
 21
31.3133515913
  0
LINE
  8
0
 62
7
  6
CONTINUOUS
 10
363.1559103548
 20
31.3456152777
 11
363.1559103548
 21
31.2810879048
  0
LINE
  8
0
 62
7
  6
CONTINUOUS
 10
363.1559103548
 20
30.8939236226
 11
363.1559103548
 21
30.7971325633
  0
LINE
  8
0
 62
7
  6
CONTINUOUS
 10
363.4342913921
 20
32.3100380288
 11
363.4342913921
 21
36.0805298321
  0
LINE
  8
0
 62
7
  6
CONTINUOUS
 10
363.4449727445
 20
30.7648688543
 11
363.4449727445
 21
30.8293962497
  0
LINE
  8
0
 62
7
  6
CONTINUOUS
 10
363.7621602445
 20
36.0805298321
 11
363.7621602445
 21
32.3100380288
  0
LINE
  8
0
 62
7
  6
CONTINUOUS
 10
360.5543476894
 20
30.7003414814
 11
360.6121602997
 21
30.8293962497
  0
LINE
  8
0
 62
7
  6
CONTINUOUS
 10
364.9480979651
 20
30.6035504109
 11
364.890285024
 21
30.7648688543
  0
LINE
  8
0
 62
7
  6
CONTINUOUS
 10
364.6012229651
 20
31.2810879048
 11
364.6012229651
 21
31.1842968456
  0
LINE
  8
0
 62
7
  6
CONTINUOUS
 10
364.6012229651
 20
31.0552420547
 11
364.6012229651
 21
30.8616599362
  0
LINE
  8
0
 62
7
  6
CONTINUOUS
 10
364.890285024
 20
30.7648688543
 11
364.890285024
 21
31.2810879048
  0
LINE
  8
0
 62
7
  6
CONTINUOUS
 10
365.1556028675
 20
32.3100380288
 11
365.1556028675
 21
34.1133167174
  0
LINE
  8
0
 62
7
  6
CONTINUOUS
 10
365.1556028675
 20
35.4247921272
 11
365.1556028675
 21
36.0805298321
  0
LINE
  8
0
 62
7
  6
CONTINUOUS
 10
365.4684104651
 20
32.0231527829
 11
365.4684104651
 21
31.8618343508
  0
LINE
  8
0
 62
7
  6
CONTINUOUS
 10
365.4684104651
 20
31.5391973962
 11
365.4684104651
 21
30.5067593403
  0
LINE
  8
0
 62
7
  6
CONTINUOUS
 10
365.757472524
 20
30.5067593403
 11
365.757472524
 21
31.5391973962
  0
LINE
  8
0
 62
7
  6
CONTINUOUS
 10
365.757472524
 20
31.8618343508
 11
365.757472524
 21
32.0231527829
  0
LINE
  8
0
 62
7
  6
CONTINUOUS
 10
360.3230977445
 20
30.8293962497
 11
360.2652852997
 21
30.7326051679
  0
LINE
  8
0
 62
7
  6
CONTINUOUS
 10
362.6355978548
 20
31.3133515913
 11
362.5777852445
 21
31.3778789641
  0
LINE
  8
0
 62
7
  6
CONTINUOUS
 10
363.5027853548
 20
30.7003414814
 11
363.4449727445
 21
30.7648688543
  0
LINE
  8
0
 62
7
  6
CONTINUOUS
 10
364.6590352445
 20
30.5712867188
 11
364.716847524
 21
30.5067593403
  0
LINE
  8
0
 62
7
  6
CONTINUOUS
 10
364.6012229651
 20
30.668077795
 11
364.6590352445
 21
30.5712867188
  0
LINE
  8
0
 62
7
  6
CONTINUOUS
 10
365.0059102445
 20
30.5067593403
 11
364.9480979651
 21
30.6035504109
  0
LINE
  8
0
 62
7
  6
CONTINUOUS
 10
364.890285024
 20
31.2810879048
 11
364.8324727445
 21
31.3778789641
  0
LINE
  8
0
 62
7
  6
CONTINUOUS
 10
366.2199727445
 20
31.5391973962
 11
366.2199727445
 21
30.5067593403
  0
LINE
  8
0
 62
7
  6
CONTINUOUS
 10
366.5090354651
 20
30.5067593403
 11
366.5090354651
 21
31.2488242184
  0
LINE
  8
0
 62
7
  6
CONTINUOUS
 10
366.5090354651
 20
31.3778789641
 11
366.5090354651
 21
31.5391973962
  0
LINE
  8
0
 62
7
  6
CONTINUOUS
 10
367.0408487691
 20
34.5231527829
 11
367.0408487691
 21
32.3100380288
  0
LINE
  8
0
 62
7
  6
CONTINUOUS
 10
358.9355977445
 20
31.3456152777
 11
358.8199727462
 21
31.216560532
  0
LINE
  8
0
 62
7
  6
CONTINUOUS
 10
359.1090352445
 20
31.1842968456
 11
359.1668477307
 21
31.2488242184
  0
LINE
  8
0
 62
7
  6
CONTINUOUS
 10
358.9355977445
 20
30.7003414814
 11
359.0512227376
 21
30.6358140973
  0
LINE
  8
0
 62
7
  6
CONTINUOUS
 10
359.3402852307
 20
30.7003414814
 11
359.1668477307
 21
30.7971325633
  0
LINE
  8
0
 62
7
  6
CONTINUOUS
 10
364.543410024
 20
31.3456152777
 11
364.6012229651
 21
31.2810879048
  0
LINE
  8
0
 62
7
  6
CONTINUOUS
 10
367.491847524
 20
31.2810879048
 11
367.5496604651
 21
31.1197694727
  0
LINE
  8
0
 62
7
  6
CONTINUOUS
 10
367.838722524
 20
31.1197694727
 11
367.7809102445
 21
31.2810879048
  0
LINE
  8
0
 62
7
  6
CONTINUOUS
 10
367.5496604651
 20
31.1197694727
 11
367.5496604651
 21
30.5067593403
  0
LINE
  8
0
 62
7
  6
CONTINUOUS
 10
367.838722524
 20
30.5067593403
 11
367.838722524
 21
31.1197694727
  0
LINE
  8
0
 62
7
  6
CONTINUOUS
 10
368.3012227445
 20
31.3456152777
 11
368.3012227445
 21
31.2810879048
  0
LINE
  8
0
 62
7
  6
CONTINUOUS
 10
368.4342913921
 20
32.3100380288
 11
368.4342913921
 21
34.4411855698
  0
LINE
  8
0
 62
7
  6
CONTINUOUS
 10
368.7621602445
 20
36.0805298321
 11
368.7621602445
 21
32.3100380288
  0
LINE
  8
0
 62
7
  6
CONTINUOUS
 10
363.4449727445
 20
30.8293962497
 11
363.5027853548
 21
30.926187309
  0
LINE
  8
0
 62
7
  6
CONTINUOUS
 10
359.0512227376
 20
30.6358140973
 11
359.2246602583
 21
30.5712867188
  0
LINE
  8
0
 62
7
  6
CONTINUOUS
 10
360.5543476894
 20
31.3456152777
 11
360.3809101894
 21
31.4424063369
  0
LINE
  8
0
 62
7
  6
CONTINUOUS
 10
363.2137226343
 20
30.668077795
 11
363.3871601343
 21
30.5712867188
  0
LINE
  8
0
 62
7
  6
CONTINUOUS
 10
362.2309102445
 20
31.3456152777
 11
362.3465351343
 21
31.2810879048
  0
LINE
  8
0
 62
7
  6
CONTINUOUS
 10
362.5777852445
 20
31.3778789641
 11
362.4621603548
 21
31.4424063369
  0
LINE
  8
0
 62
7
  6
CONTINUOUS
 10
368.3012227445
 20
30.7648688543
 11
368.4168479651
 21
30.6358140973
  0
LINE
  8
0
 62
7
  6
CONTINUOUS
 10
368.6480977445
 20
30.7003414814
 11
368.5902854651
 21
30.7648688543
  0
LINE
  8
0
 62
7
  6
CONTINUOUS
 10
368.3012227445
 20
31.2810879048
 11
368.4168479651
 21
31.1520331591
  0
LINE
  8
0
 62
7
  6
CONTINUOUS
 10
367.7809102445
 20
31.2810879048
 11
367.7230979651
 21
31.3778789641
  0
LINE
  8
0
 62
7
  6
CONTINUOUS
 10
370.1512223035
 20
30.7003414814
 11
370.1512223035
 21
30.7648688543
  0
LINE
  8
0
 62
7
  6
CONTINUOUS
 10
370.1556028675
 20
32.3100380288
 11
370.1556028675
 21
36.0805298321
  0
LINE
  8
0
 62
7
  6
CONTINUOUS
 10
363.2137226343
 20
31.4101426505
 11
363.1559103548
 21
31.3456152777
  0
LINE
  8
0
 62
7
  6
CONTINUOUS
 10
360.091847717
 20
31.3778789641
 11
360.2652852997
 21
31.3133515913
  0
LINE
  8
0
 62
7
  6
CONTINUOUS
 10
364.8324727445
 20
31.3778789641
 11
364.716847524
 21
31.4424063369
  0
LINE
  8
0
 62
7
  6
CONTINUOUS
 10
368.6480977445
 20
31.216560532
 11
368.5902854651
 21
31.2810879048
  0
LINE
  8
0
 62
7
  6
CONTINUOUS
 10
369.8043479651
 20
30.8293962497
 11
369.8621602445
 21
30.7648688543
  0
LINE
  8
0
 62
7
  6
CONTINUOUS
 10
370.1512223035
 20
30.7648688543
 11
370.0355977445
 21
30.8939236226
  0
LINE
  8
0
 62
7
  6
CONTINUOUS
 10
369.8043479651
 20
31.3456152777
 11
369.8621602445
 21
31.2810879048
  0
LINE
  8
0
 62
7
  6
CONTINUOUS
 10
370.1512223035
 20
31.2810879048
 11
370.0355977445
 21
31.4101426505
  0
LINE
  8
0
 62
7
  6
CONTINUOUS
 10
363.4449727445
 20
31.2810879048
 11
363.5027853548
 21
31.3456152777
  0
LINE
  8
0
 62
7
  6
CONTINUOUS
 10
363.2715352445
 20
31.0229783683
 11
363.1559103548
 21
30.8939236226
  0
LINE
  8
0
 62
7
  6
CONTINUOUS
 10
364.6012229651
 20
30.8616599362
 11
364.543410024
 21
30.7971325633
  0
LINE
  8
0
 62
7
  6
CONTINUOUS
 10
364.543410024
 20
30.6035504109
 11
364.6012229651
 21
30.668077795
  0
LINE
  8
0
 62
7
  6
CONTINUOUS
 10
363.3871601343
 20
30.5712867188
 11
363.5027853548
 21
30.5390230296
  0
LINE
  8
0
 62
7
  6
CONTINUOUS
 10
360.3809101894
 20
31.4424063369
 11
360.1496602445
 21
31.5069337098
  0
LINE
  8
0
 62
7
  6
CONTINUOUS
 10
363.7340351343
 20
30.6358140973
 11
363.5027853548
 21
30.7003414814
  0
LINE
  8
0
 62
7
  6
CONTINUOUS
 10
362.4621603548
 20
31.4424063369
 11
362.2887228548
 21
31.5069337098
  0
LINE
  8
0
 62
7
  6
CONTINUOUS
 10
364.716847524
 20
31.4424063369
 11
364.543410024
 21
31.5069337098
  0
LINE
  8
0
 62
7
  6
CONTINUOUS
 10
367.3762229651
 20
31.3456152777
 11
367.491847524
 21
31.2810879048
  0
LINE
  8
0
 62
7
  6
CONTINUOUS
 10
367.7230979651
 20
31.3778789641
 11
367.6074727445
 21
31.4424063369
  0
LINE
  8
0
 62
7
  6
CONTINUOUS
 10
359.2246602583
 20
30.5712867188
 11
359.3980977583
 21
30.5390230296
  0
LINE
  8
0
 62
7
  6
CONTINUOUS
 10
359.6871602721
 20
30.6358140973
 11
359.3402852307
 21
30.7003414814
  0
LINE
  8
0
 62
7
  6
CONTINUOUS
 10
362.1152853548
 20
31.3778789641
 11
362.2309102445
 21
31.3456152777
  0
LINE
  8
0
 62
7
  6
CONTINUOUS
 10
364.4277854651
 20
31.3778789641
 11
364.543410024
 21
31.3456152777
  0
LINE
  8
0
 62
7
  6
CONTINUOUS
 10
368.7637229651
 20
30.668077795
 11
368.6480977445
 21
30.7003414814
  0
LINE
  8
0
 62
7
  6
CONTINUOUS
 10
367.2605977445
 20
31.3778789641
 11
367.3762229651
 21
31.3456152777
  0
LINE
  8
0
 62
7
  6
CONTINUOUS
 10
368.4168479651
 20
30.6358140973
 11
368.5902854651
 21
30.5712867188
  0
LINE
  8
0
 62
7
  6
CONTINUOUS
 10
367.6074727445
 20
31.4424063369
 11
367.4340352445
 21
31.5069337098
  0
LINE
  8
0
 62
7
  6
CONTINUOUS
 10
368.8215352445
 20
31.1520331591
 11
368.6480977445
 21
31.216560532
  0
LINE
  8
0
 62
7
  6
CONTINUOUS
 10
369.6309104651
 20
30.8939236226
 11
369.8043479651
 21
30.8293962497
  0
LINE
  8
0
 62
7
  6
CONTINUOUS
 10
370.0355977445
 20
31.4101426505
 11
369.8621602445
 21
31.4746700234
  0
LINE
  8
0
 62
7
  6
CONTINUOUS
 10
368.4168479651
 20
31.1520331591
 11
368.6480977445
 21
31.0552420547
  0
LINE
  8
0
 62
7
  6
CONTINUOUS
 10
370.0355977445
 20
30.8939236226
 11
369.8043479651
 21
30.9907146818
  0
LINE
  8
0
 62
7
  6
CONTINUOUS
 10
368.5902854651
 20
31.2810879048
 11
368.6480977445
 21
31.3456152777
  0
LINE
  8
0
 62
7
  6
CONTINUOUS
 10
359.0512227376
 20
31.4101426505
 11
358.9355977445
 21
31.3456152777
  0
LINE
  8
0
 62
7
  6
CONTINUOUS
 10
359.1668477307
 20
31.2488242184
 11
359.3402852307
 21
31.3456152777
  0
LINE
  8
0
 62
7
  6
CONTINUOUS
 10
361.4793477997
 20
31.4424063369
 11
361.3637227445
 21
31.3778789641
  0
LINE
  8
0
 62
7
  6
CONTINUOUS
 10
361.3637227445
 20
31.2488242184
 11
361.4793477997
 21
31.3133515913
  0
LINE
  8
0
 62
7
  6
CONTINUOUS
 10
360.3809101894
 20
30.6035504109
 11
360.5543476894
 21
30.7003414814
  0
LINE
  8
0
 62
7
  6
CONTINUOUS
 10
359.3980977583
 20
30.5390230296
 11
359.744972717
 21
30.5067593403
  0
LINE
  8
0
 62
7
  6
CONTINUOUS
 10
363.5027853548
 20
30.5390230296
 11
363.7340351343
 21
30.5067593403
  0
LINE
  8
0
 62
7
  6
CONTINUOUS
 10
361.8840352445
 20
31.4101426505
 11
362.1152853548
 21
31.3778789641
  0
LINE
  8
0
 62
7
  6
CONTINUOUS
 10
364.1965353548
 20
31.4101426505
 11
364.4277854651
 21
31.3778789641
  0
LINE
  8
0
 62
7
  6
CONTINUOUS
 10
368.6480977445
 20
31.0552420547
 11
369.6309104651
 21
30.8939236226
  0
LINE
  8
0
 62
7
  6
CONTINUOUS
 10
369.8043479651
 20
30.9907146818
 11
368.8215352445
 21
31.1520331591
  0
LINE
  8
0
 62
7
  6
CONTINUOUS
 10
362.2887228548
 20
31.5069337098
 11
362.1152853548
 21
31.5391973962
  0
LINE
  8
0
 62
7
  6
CONTINUOUS
 10
368.5902854651
 20
30.5712867188
 11
368.7637229651
 21
30.5390230296
  0
LINE
  8
0
 62
7
  6
CONTINUOUS
 10
367.4340352445
 20
31.5069337098
 11
367.2605977445
 21
31.5391973962
  0
LINE
  8
0
 62
7
  6
CONTINUOUS
 10
369.6887227445
 20
31.3778789641
 11
369.8043479651
 21
31.3456152777
  0
LINE
  8
0
 62
7
  6
CONTINUOUS
 10
369.8621602445
 20
30.7648688543
 11
369.8043479651
 21
30.7003414814
  0
LINE
  8
0
 62
7
  6
CONTINUOUS
 10
368.4168479651
 20
31.4424063369
 11
368.3012227445
 21
31.3456152777
  0
LINE
  8
0
 62
7
  6
CONTINUOUS
 10
363.3293478548
 20
31.4746700234
 11
363.2137226343
 21
31.4101426505
  0
LINE
  8
0
 62
7
  6
CONTINUOUS
 10
363.3871601343
 20
31.0875057863
 11
363.2715352445
 21
31.0229783683
  0
LINE
  8
0
 62
7
  6
CONTINUOUS
 10
363.5027853548
 20
30.926187309
 11
363.6184102445
 21
30.9907146818
  0
LINE
  8
0
 62
7
  6
CONTINUOUS
 10
361.0746601894
 20
30.5067593403
 11
361.3637227445
 21
30.5067593403
  0
LINE
  8
0
 62
7
  6
CONTINUOUS
 10
362.4043477445
 20
30.5067593403
 11
362.6934101343
 21
30.5067593403
  0
LINE
  8
0
 62
7
  6
CONTINUOUS
 10
363.7340351343
 20
30.5067593403
 11
364.0809101343
 21
30.5067593403
  0
LINE
  8
0
 62
7
  6
CONTINUOUS
 10
364.716847524
 20
30.5067593403
 11
365.0059102445
 21
30.5067593403
  0
LINE
  8
0
 62
7
  6
CONTINUOUS
 10
365.4684104651
 20
30.5067593403
 11
365.757472524
 21
30.5067593403
  0
LINE
  8
0
 62
7
  6
CONTINUOUS
 10
366.2199727445
 20
30.5067593403
 11
366.5090354651
 21
30.5067593403
  0
LINE
  8
0
 62
7
  6
CONTINUOUS
 10
367.5496604651
 20
30.5067593403
 11
367.838722524
 21
30.5067593403
  0
LINE
  8
0
 62
7
  6
CONTINUOUS
 10
369.1105979651
 20
30.5067593403
 11
369.4574729651
 21
30.5067593403
  0
LINE
  8
0
 62
7
  6
CONTINUOUS
 10
369.4574729651
 20
30.6358140973
 11
369.1105979651
 21
30.6358140973
  0
LINE
  8
0
 62
7
  6
CONTINUOUS
 10
364.0809101343
 20
30.6358140973
 11
363.7340351343
 21
30.6358140973
  0
LINE
  8
0
 62
7
  6
CONTINUOUS
 10
368.5902854651
 20
30.7648688543
 11
368.3012227445
 21
30.7648688543
  0
LINE
  8
0
 62
7
  6
CONTINUOUS
 10
360.6121602997
 20
30.8293962497
 11
360.3230977445
 21
30.8293962497
  0
LINE
  8
0
 62
7
  6
CONTINUOUS
 10
359.6871602721
 20
31.4101426505
 11
360.091847717
 21
31.3778789641
  0
LINE
  8
0
 62
7
  6
CONTINUOUS
 10
360.1496602445
 20
31.5069337098
 11
359.744972717
 21
31.5391973962
  0
LINE
  8
0
 62
7
  6
CONTINUOUS
 10
368.7637229651
 20
30.5390230296
 11
369.1105979651
 21
30.5067593403
  0
LINE
  8
0
 62
7
  6
CONTINUOUS
 10
369.1105979651
 20
30.6358140973
 11
368.7637229651
 21
30.668077795
  0
LINE
  8
0
 62
7
  6
CONTINUOUS
 10
364.543410024
 20
31.5069337098
 11
364.1965353548
 21
31.5391973962
  0
LINE
  8
0
 62
7
  6
CONTINUOUS
 10
369.3418477445
 20
31.4101426505
 11
369.6887227445
 21
31.3778789641
  0
LINE
  8
0
 62
7
  6
CONTINUOUS
 10
369.6887227445
 20
31.5069337098
 11
369.3418477445
 21
31.5391973962
  0
LINE
  8
0
 62
7
  6
CONTINUOUS
 10
367.0293479651
 20
31.4101426505
 11
367.2605977445
 21
31.3778789641
  0
LINE
  8
0
 62
7
  6
CONTINUOUS
 10
369.8621602445
 20
31.4746700234
 11
369.6887227445
 21
31.5069337098
  0
LINE
  8
0
 62
7
  6
CONTINUOUS
 10
370.0355977445
 20
30.6035504109
 11
370.1512223035
 21
30.7003414814
  0
LINE
  8
0
 62
7
  6
CONTINUOUS
 10
364.543410024
 20
30.7971325633
 11
364.369972524
 21
30.7003414814
  0
LINE
  8
0
 62
7
  6
CONTINUOUS
 10
366.624660024
 20
31.4424063369
 11
366.5090354651
 21
31.3778789641
  0
LINE
  8
0
 62
7
  6
CONTINUOUS
 10
366.5090354651
 20
31.2488242184
 11
366.624660024
 21
31.3133515913
  0
LINE
  8
0
 62
7
  6
CONTINUOUS
 10
359.2246602583
 20
31.4746700234
 11
359.0512227376
 21
31.4101426505
  0
LINE
  8
0
 62
7
  6
CONTINUOUS
 10
361.6527851343
 20
31.5069337098
 11
361.4793477997
 21
31.4424063369
  0
LINE
  8
0
 62
7
  6
CONTINUOUS
 10
361.4793477997
 20
31.3133515913
 11
361.6527851343
 21
31.3778789641
  0
LINE
  8
0
 62
7
  6
CONTINUOUS
 10
360.2652852997
 20
30.7326051679
 11
360.091847717
 21
30.668077795
  0
LINE
  8
0
 62
7
  6
CONTINUOUS
 10
369.6887227445
 20
30.668077795
 11
369.4574729651
 21
30.6358140973
  0
LINE
  8
0
 62
7
  6
CONTINUOUS
 10
364.0809101343
 20
30.5067593403
 11
364.369972524
 21
30.5390230296
  0
LINE
  8
0
 62
7
  6
CONTINUOUS
 10
369.4574729651
 20
30.5067593403
 11
369.8043479651
 21
30.5390230296
  0
LINE
  8
0
 62
7
  6
CONTINUOUS
 10
359.744972717
 20
30.5067593403
 11
360.1496602445
 21
30.5390230296
  0
LINE
  8
0
 62
7
  6
CONTINUOUS
 10
360.091847717
 20
30.668077795
 11
359.6871602721
 21
30.6358140973
  0
LINE
  8
0
 62
7
  6
CONTINUOUS
 10
363.9652852445
 20
31.0552420547
 11
364.6012229651
 21
31.0552420547
  0
LINE
  8
0
 62
7
  6
CONTINUOUS
 10
364.6012229651
 20
31.1842968456
 11
363.9652852445
 21
31.1842968456
  0
LINE
  8
0
 62
7
  6
CONTINUOUS
 10
360.3230977445
 20
31.216560532
 11
360.6121602997
 21
31.216560532
  0
LINE
  8
0
 62
7
  6
CONTINUOUS
 10
363.1559103548
 20
31.2810879048
 11
363.4449727445
 21
31.2810879048
  0
LINE
  8
0
 62
7
  6
CONTINUOUS
 10
369.8621602445
 20
31.2810879048
 11
370.1512223035
 21
31.2810879048
  0
LINE
  8
0
 62
7
  6
CONTINUOUS
 10
363.8496603548
 20
31.4101426505
 11
364.1965353548
 21
31.4101426505
  0
LINE
  8
0
 62
7
  6
CONTINUOUS
 10
368.9949727445
 20
31.4101426505
 11
369.3418477445
 21
31.4101426505
  0
LINE
  8
0
 62
7
  6
CONTINUOUS
 10
369.3418477445
 20
31.5391973962
 11
368.9949727445
 21
31.5391973962
  0
LINE
  8
0
 62
7
  6
CONTINUOUS
 10
367.2605977445
 20
31.5391973962
 11
367.0293479651
 21
31.5391973962
  0
LINE
  8
0
 62
7
  6
CONTINUOUS
 10
366.5090354651
 20
31.5391973962
 11
366.2199727445
 21
31.5391973962
  0
LINE
  8
0
 62
7
  6
CONTINUOUS
 10
365.757472524
 20
31.5391973962
 11
365.4684104651
 21
31.5391973962
  0
LINE
  8
0
 62
7
  6
CONTINUOUS
 10
364.1965353548
 20
31.5391973962
 11
363.8496603548
 21
31.5391973962
  0
LINE
  8
0
 62
7
  6
CONTINUOUS
 10
362.1152853548
 20
31.5391973962
 11
361.8840352445
 21
31.5391973962
  0
LINE
  8
0
 62
7
  6
CONTINUOUS
 10
365.4684104651
 20
31.8618343508
 11
365.757472524
 21
31.8618343508
  0
LINE
  8
0
 62
7
  6
CONTINUOUS
 10
365.757472524
 20
32.0231527829
 11
365.4684104651
 21
32.0231527829
  0
LINE
  8
0
 62
7
  6
CONTINUOUS
 10
361.3637227445
 20
32.0231527829
 11
361.0746601894
 21
32.0231527829
  0
LINE
  8
0
 62
7
  6
CONTINUOUS
 10
360.4015045068
 20
32.3100380288
 11
360.8140758554
 21
32.3100380288
  0
LINE
  8
0
 62
7
  6
CONTINUOUS
 10
362.0408487691
 20
32.3100380288
 11
363.4342913921
 21
32.3100380288
  0
LINE
  8
0
 62
7
  6
CONTINUOUS
 10
363.7621602445
 20
32.3100380288
 11
365.1556028675
 21
32.3100380288
  0
LINE
  8
0
 62
7
  6
CONTINUOUS
 10
367.0408487691
 20
32.3100380288
 11
368.4342913921
 21
32.3100380288
  0
LINE
  8
0
 62
7
  6
CONTINUOUS
 10
368.7621602445
 20
32.3100380288
 11
370.1556028675
 21
32.3100380288
  0
LINE
  8
0
 62
7
  6
CONTINUOUS
 10
366.798097524
 20
31.5069337098
 11
366.624660024
 21
31.4424063369
  0
LINE
  8
0
 62
7
  6
CONTINUOUS
 10
364.369972524
 20
30.5390230296
 11
364.543410024
 21
30.6035504109
  0
LINE
  8
0
 62
7
  6
CONTINUOUS
 10
369.8043479651
 20
30.5390230296
 11
370.0355977445
 21
30.6035504109
  0
LINE
  8
0
 62
7
  6
CONTINUOUS
 10
369.8043479651
 20
30.7003414814
 11
369.6887227445
 21
30.668077795
  0
LINE
  8
0
 62
7
  6
CONTINUOUS
 10
368.7637229651
 20
31.3778789641
 11
368.9949727445
 21
31.4101426505
  0
LINE
  8
0
 62
7
  6
CONTINUOUS
 10
366.798097524
 20
31.3778789641
 11
367.0293479651
 21
31.4101426505
  0
LINE
  8
0
 62
7
  6
CONTINUOUS
 10
363.7340351343
 20
31.0229783683
 11
363.9652852445
 21
31.0552420547
  0
LINE
  8
0
 62
7
  6
CONTINUOUS
 10
367.0293479651
 20
31.5391973962
 11
366.798097524
 21
31.5069337098
  0
LINE
  8
0
 62
7
  6
CONTINUOUS
 10
363.6184102445
 20
31.3778789641
 11
363.8496603548
 21
31.4101426505
  0
LINE
  8
0
 62
7
  6
CONTINUOUS
 10
368.9949727445
 20
31.5391973962
 11
368.6480977445
 21
31.5069337098
  0
LINE
  8
0
 62
7
  6
CONTINUOUS
 10
363.9652852445
 20
31.1842968456
 11
363.6184102445
 21
31.1520331591
  0
LINE
  8
0
 62
7
  6
CONTINUOUS
 10
359.744972717
 20
31.5391973962
 11
359.3980977583
 21
31.5069337098
  0
LINE
  8
0
 62
7
  6
CONTINUOUS
 10
363.8496603548
 20
31.5391973962
 11
363.4449727445
 21
31.5069337098
  0
LINE
  8
0
 62
7
  6
CONTINUOUS
 10
361.221176638
 20
33.4575790124
 11
360.565438933
 21
33.4575790124
  0
LINE
  8
0
 62
7
  6
CONTINUOUS
 10
366.624660024
 20
31.3133515913
 11
366.798097524
 21
31.3778789641
  0
LINE
  8
0
 62
7
  6
CONTINUOUS
 10
368.6480977445
 20
31.3456152777
 11
368.7637229651
 21
31.3778789641
  0
LINE
  8
0
 62
7
  6
CONTINUOUS
 10
368.6480977445
 20
31.5069337098
 11
368.4168479651
 21
31.4424063369
  0
LINE
  8
0
 62
7
  6
CONTINUOUS
 10
364.369972524
 20
30.7003414814
 11
364.0809101343
 21
30.6358140973
  0
LINE
  8
0
 62
7
  6
CONTINUOUS
 10
361.6527851343
 20
31.3778789641
 11
361.8840352445
 21
31.4101426505
  0
LINE
  8
0
 62
7
  6
CONTINUOUS
 10
361.8840352445
 20
31.5391973962
 11
361.6527851343
 21
31.5069337098
  0
LINE
  8
0
 62
7
  6
CONTINUOUS
 10
359.4559102445
 20
31.3778789641
 11
359.6871602721
 21
31.4101426505
  0
LINE
  8
0
 62
7
  6
CONTINUOUS
 10
365.9752749986
 20
34.9329888485
 11
366.6310127035
 21
34.9329888485
  0
LINE
  8
0
 62
7
  6
CONTINUOUS
 10
363.6184102445
 20
30.9907146818
 11
363.7340351343
 21
31.0229783683
  0
LINE
  8
0
 62
7
  6
CONTINUOUS
 10
363.6184102445
 20
31.1520331591
 11
363.3871601343
 21
31.0875057863
  0
LINE
  8
0
 62
7
  6
CONTINUOUS
 10
363.5027853548
 20
31.3456152777
 11
363.6184102445
 21
31.3778789641
  0
LINE
  8
0
 62
7
  6
CONTINUOUS
 10
360.1496602445
 20
30.5390230296
 11
360.3809101894
 21
30.6035504109
  0
LINE
  8
0
 62
7
  6
CONTINUOUS
 10
363.4449727445
 20
31.5069337098
 11
363.3293478548
 21
31.4746700234
  0
LINE
  8
0
 62
7
  6
CONTINUOUS
 10
359.3980977583
 20
31.5069337098
 11
359.2246602583
 21
31.4746700234
  0
LINE
  8
0
 62
7
  6
CONTINUOUS
 10
370.1556028675
 20
36.0805298321
 11
368.7621602445
 21
36.0805298321
  0
LINE
  8
0
 62
7
  6
CONTINUOUS
 10
366.7949471298
 20
36.0805298321
 11
366.3823757812
 21
36.0805298321
  0
LINE
  8
0
 62
7
  6
CONTINUOUS
 10
365.1556028675
 20
36.0805298321
 11
363.7621602445
 21
36.0805298321
  0
LINE
  8
0
 62
7
  6
CONTINUOUS
 10
363.4342913921
 20
36.0805298321
 11
362.0408487691
 21
36.0805298321
  0
LINE
  8
0
 62
7
  6
CONTINUOUS
 10
360.1556028675
 20
36.0805298321
 11
358.7621602445
 21
36.0805298321
  0
LINE
  8
0
 62
7
  6
CONTINUOUS
 10
359.3402852307
 20
31.3456152777
 11
359.4559102445
 21
31.3778789641
  0
CIRCLE
  8
0
 62
7
  6
CONTINUOUS
 10
369.458881556
 20
38.4165954059
 40
2.0901639344
  0
ARC
  8
0
 62
7
  6
CONTINUOUS
 10
360.4015045068
 20
33.9493822911
 40
1.6393442623
 50
180.0
 51
270.0
  0
ARC
  8
0
 62
7
  6
CONTINUOUS
 10
366.7949471298
 20
34.4411855698
 40
1.6393442623
 50
0.0
 51
90.0
  0
ARC
  8
0
 62
7
  6
CONTINUOUS
 10
360.8140758554
 20
33.7854478649
 40
1.4754098361
 50
270.0
 51
326.2510114041
  0
ARC
  8
0
 62
7
  6
CONTINUOUS
 10
366.3823757812
 20
34.6051199961
 40
1.4754098361
 50
90.0
 51
146.2510114041
  0
ARC
  8
0
 62
7
  6
CONTINUOUS
 10
361.221176638
 20
34.2772511436
 40
0.8196721311
 50
270.0
 51
360.0
  0
ARC
  8
0
 62
7
  6
CONTINUOUS
 10
365.9752749986
 20
34.1133167174
 40
0.8196721311
 50
90.0
 51
180.0
  0
ARC
  8
0
 62
7
  6
CONTINUOUS
 10
360.565438933
 20
33.867415078
 40
0.4098360656
 50
180.0
 51
270.0
  0
ARC
  8
0
 62
7
  6
CONTINUOUS
 10
366.6310127035
 20
34.5231527829
 40
0.4098360656
 50
0.0
 51
90.0
  0
SOLID
  8
0
 62
7
  6
CONTINUOUS
 10
365.4684104651
 20
31.8618347111
 11
365.4684104651
 21
32.0231531947
 12
365.757472524
 22
31.8618347111
 13
365.757472524
 23
32.0231531947
  0
SOLID
  8
0
 62
7
  6
CONTINUOUS
 10
359.744972717
 20
31.5391977439
 11
360.1496602445
 21
31.5069333244
 12
359.3980977583
 22
31.5069333244
 13
359.3980977583
 23
31.5069333244
  0
SOLID
  8
0
 62
7
  6
CONTINUOUS
 10
359.2246602583
 20
31.4746706537
 11
359.3980977583
 21
31.5069333244
 12
360.1496602445
 22
31.5069333244
 13
360.1496602445
 23
31.5069333244
  0
SOLID
  8
0
 62
7
  6
CONTINUOUS
 10
360.1496602445
 20
31.5069333244
 11
360.3809101894
 21
31.4424063504
 12
359.2246602583
 22
31.4746706537
 13
359.2246602583
 23
31.4746706537
  0
SOLID
  8
0
 62
7
  6
CONTINUOUS
 10
359.0512227376
 20
31.4101419116
 11
359.2246602583
 21
31.4746706537
 12
360.3809101894
 22
31.4424063504
 13
360.3809101894
 23
31.4424063504
  0
SOLID
  8
0
 62
7
  6
CONTINUOUS
 10
359.0512227376
 20
31.4101419116
 11
360.3809101894
 21
31.4424063504
 12
359.6871602721
 22
31.4101419116
 13
359.6871602721
 23
31.4101419116
  0
SOLID
  8
0
 62
7
  6
CONTINUOUS
 10
359.6871602721
 20
31.4101419116
 11
360.3809101894
 21
31.4424063504
 12
360.091847717
 22
31.3778792603
 13
360.091847717
 23
31.3778792603
  0
SOLID
  8
0
 62
7
  6
CONTINUOUS
 10
360.3809101894
 20
31.4424063504
 11
360.5543476894
 21
31.345614957
 12
360.091847717
 22
31.3778792603
 13
360.091847717
 23
31.3778792603
  0
SOLID
  8
0
 62
7
  6
CONTINUOUS
 10
360.2652852997
 20
31.3133521701
 11
360.091847717
 21
31.3778792603
 12
360.5543476894
 22
31.345614957
 13
360.5543476894
 23
31.345614957
  0
SOLID
  8
0
 62
7
  6
CONTINUOUS
 10
360.2652852997
 20
31.3133521701
 11
360.5543476894
 21
31.345614957
 12
360.3230977445
 22
31.2165606992
 13
360.3230977445
 23
31.2165606992
  0
SOLID
  8
0
 62
7
  6
CONTINUOUS
 10
360.5543476894
 20
31.345614957
 11
360.6121602997
 21
31.2165606992
 12
360.3230977445
 22
31.2165606992
 13
360.3230977445
 23
31.2165606992
  0
SOLID
  8
0
 62
7
  6
CONTINUOUS
 10
361.6527851343
 20
31.5069329918
 11
361.8840352445
 21
31.5391972951
 12
362.1152853548
 22
31.5391972951
 13
362.1152853548
 23
31.5391972951
  0
SOLID
  8
0
 62
7
  6
CONTINUOUS
 10
362.1152853548
 20
31.5391972951
 11
362.2887228548
 21
31.5069329918
 12
361.6527851343
 22
31.5069329918
 13
361.6527851343
 23
31.5069329918
  0
SOLID
  8
0
 62
7
  6
CONTINUOUS
 10
361.4793477997
 20
31.4424059016
 11
361.6527851343
 21
31.5069329918
 12
362.2887228548
 22
31.5069329918
 13
362.2887228548
 23
31.5069329918
  0
SOLID
  8
0
 62
7
  6
CONTINUOUS
 10
362.2887228548
 20
31.5069329918
 11
362.4621603548
 21
31.4424059016
 12
361.4793477997
 22
31.4424059016
 13
361.4793477997
 23
31.4424059016
  0
SOLID
  8
0
 62
7
  6
CONTINUOUS
 10
362.4621603548
 20
31.4424059016
 11
361.8840352445
 21
31.4101420472
 12
361.4793477997
 22
31.4424059016
 13
361.4793477997
 23
31.4424059016
  0
SOLID
  8
0
 62
7
  6
CONTINUOUS
 10
361.3637227445
 20
31.3778788115
 11
361.4793477997
 21
31.4424059016
 12
361.8840352445
 22
31.4101420472
 13
361.8840352445
 23
31.4101420472
  0
SOLID
  8
0
 62
7
  6
CONTINUOUS
 10
361.8840352445
 20
31.4101420472
 11
361.6527851343
 21
31.3778788115
 12
361.3637227445
 22
31.3778788115
 13
361.3637227445
 23
31.3778788115
  0
SOLID
  8
0
 62
7
  6
CONTINUOUS
 10
361.8840352445
 20
31.4101420472
 11
362.4621603548
 21
31.4424059016
 12
362.1152853548
 22
31.3778788115
 13
362.1152853548
 23
31.3778788115
  0
SOLID
  8
0
 62
7
  6
CONTINUOUS
 10
362.4621603548
 20
31.4424059016
 11
362.5777852445
 21
31.3778788115
 12
362.1152853548
 22
31.3778788115
 13
362.1152853548
 23
31.3778788115
  0
SOLID
  8
0
 62
7
  6
CONTINUOUS
 10
362.2309102445
 20
31.345614957
 11
362.1152853548
 21
31.3778788115
 12
362.5777852445
 22
31.3778788115
 13
362.5777852445
 23
31.3778788115
  0
SOLID
  8
0
 62
7
  6
CONTINUOUS
 10
362.5777852445
 20
31.3778788115
 11
362.6355978548
 21
31.3133517213
 12
362.2309102445
 22
31.345614957
 13
362.2309102445
 23
31.345614957
  0
SOLID
  8
0
 62
7
  6
CONTINUOUS
 10
362.3465351343
 20
31.2810878668
 11
362.2309102445
 21
31.345614957
 12
362.6355978548
 22
31.3133517213
 13
362.6355978548
 23
31.3133517213
  0
SOLID
  8
0
 62
7
  6
CONTINUOUS
 10
362.3465351343
 20
31.2810878668
 11
362.6355978548
 21
31.3133517213
 12
362.4043477445
 22
31.1520332377
 13
362.4043477445
 23
31.1520332377
  0
SOLID
  8
0
 62
7
  6
CONTINUOUS
 10
362.6355978548
 20
31.3133517213
 11
362.6934101343
 21
31.1520332377
 12
362.4043477445
 22
31.1520332377
 13
362.4043477445
 23
31.1520332377
  0
SOLID
  8
0
 62
7
  6
CONTINUOUS
 10
361.6527851343
 20
31.3778788115
 11
361.4793477997
 21
31.3133517213
 12
361.3637227445
 22
31.3778788115
 13
361.3637227445
 23
31.3778788115
  0
SOLID
  8
0
 62
7
  6
CONTINUOUS
 10
361.4793477997
 20
31.3133517213
 11
361.3637227445
 21
31.2488235635
 12
361.3637227445
 22
31.3778788115
 13
361.3637227445
 23
31.3778788115
  0
SOLID
  8
0
 62
7
  6
CONTINUOUS
 10
361.3637227445
 20
31.2488235635
 11
361.0746601894
 21
30.5067593033
 12
361.3637227445
 22
31.3778788115
 13
361.3637227445
 23
31.3778788115
  0
SOLID
  8
0
 62
7
  6
CONTINUOUS
 10
361.3637227445
 20
31.3778788115
 11
361.0746601894
 21
30.5067593033
 12
361.3637227445
 22
32.0231527459
 13
361.3637227445
 23
32.0231527459
  0
SOLID
  8
0
 62
7
  6
CONTINUOUS
 10
361.0746601894
 20
30.5067593033
 11
361.0746601894
 21
32.0231527459
 12
361.3637227445
 22
32.0231527459
 13
361.3637227445
 23
32.0231527459
  0
SOLID
  8
0
 62
7
  6
CONTINUOUS
 10
361.3637227445
 20
31.2488235635
 11
361.3637227445
 21
30.5067593033
 12
361.0746601894
 22
30.5067593033
 13
361.0746601894
 23
30.5067593033
  0
SOLID
  8
0
 62
7
  6
CONTINUOUS
 10
362.4043477445
 20
30.5067593033
 11
362.4043477445
 21
31.1520332377
 12
362.6934101343
 22
31.1520332377
 13
362.6934101343
 23
31.1520332377
  0
SOLID
  8
0
 62
7
  6
CONTINUOUS
 10
362.6934101343
 20
31.1520332377
 11
362.6934101343
 21
30.5067593033
 12
362.4043477445
 22
30.5067593033
 13
362.4043477445
 23
30.5067593033
  0
SOLID
  8
0
 62
7
  6
CONTINUOUS
 10
363.4449727445
 20
31.506933758
 11
363.8496603548
 21
31.5391977507
 12
364.1965353548
 22
31.5391977507
 13
364.1965353548
 23
31.5391977507
  0
SOLID
  8
0
 62
7
  6
CONTINUOUS
 10
364.1965353548
 20
31.5391977507
 11
364.543410024
 21
31.506933758
 12
363.4449727445
 22
31.506933758
 13
363.4449727445
 23
31.506933758
  0
SOLID
  8
0
 62
7
  6
CONTINUOUS
 10
363.3293478548
 20
31.4746706537
 11
363.4449727445
 21
31.506933758
 12
364.543410024
 22
31.506933758
 13
364.543410024
 23
31.506933758
  0
SOLID
  8
0
 62
7
  6
CONTINUOUS
 10
364.543410024
 20
31.506933758
 11
364.716847524
 21
31.4424063504
 12
363.3293478548
 22
31.4746706537
 13
363.3293478548
 23
31.4746706537
  0
SOLID
  8
0
 62
7
  6
CONTINUOUS
 10
363.2137226343
 20
31.4101417797
 11
363.3293478548
 21
31.4746706537
 12
364.716847524
 22
31.4424063504
 13
364.716847524
 23
31.4424063504
  0
SOLID
  8
0
 62
7
  6
CONTINUOUS
 10
363.2137226343
 20
31.4101417797
 11
364.716847524
 21
31.4424063504
 12
363.8496603548
 22
31.4101417797
 13
363.8496603548
 23
31.4101417797
  0
SOLID
  8
0
 62
7
  6
CONTINUOUS
 10
363.8496603548
 20
31.4101417797
 11
364.716847524
 21
31.4424063504
 12
364.1965353548
 22
31.4101417797
 13
364.1965353548
 23
31.4101417797
  0
SOLID
  8
0
 62
7
  6
CONTINUOUS
 10
364.1965353548
 20
31.4101417797
 11
364.716847524
 21
31.4424063504
 12
364.4277854651
 22
31.3778793357
 13
364.4277854651
 23
31.3778793357
  0
SOLID
  8
0
 62
7
  6
CONTINUOUS
 10
364.716847524
 20
31.4424063504
 11
364.8324727445
 21
31.3778793357
 12
364.4277854651
 22
31.3778793357
 13
364.4277854651
 23
31.3778793357
  0
SOLID
  8
0
 62
7
  6
CONTINUOUS
 10
363.1559103548
 20
31.3456153429
 11
363.2137226343
 21
31.4101417797
 12
363.8496603548
 22
31.4101417797
 13
363.8496603548
 23
31.4101417797
  0
SOLID
  8
0
 62
7
  6
CONTINUOUS
 10
364.543410024
 20
31.3456153429
 11
364.4277854651
 21
31.3778793357
 12
364.8324727445
 22
31.3778793357
 13
364.8324727445
 23
31.3778793357
  0
SOLID
  8
0
 62
7
  6
CONTINUOUS
 10
364.543410024
 20
31.3456153429
 11
364.8324727445
 21
31.3778793357
 12
364.6012229651
 22
31.2810881318
 13
364.6012229651
 23
31.2810881318
  0
SOLID
  8
0
 62
7
  6
CONTINUOUS
 10
364.8324727445
 20
31.3778793357
 11
364.890285024
 21
31.2810881318
 12
364.6012229651
 22
31.2810881318
 13
364.6012229651
 23
31.2810881318
  0
SOLID
  8
0
 62
7
  6
CONTINUOUS
 10
364.6012229651
 20
31.1842964734
 11
364.6012229651
 21
31.2810881318
 12
364.890285024
 22
31.2810881318
 13
364.890285024
 23
31.2810881318
  0
SOLID
  8
0
 62
7
  6
CONTINUOUS
 10
364.6012229651
 20
31.1842964734
 11
364.890285024
 21
31.2810881318
 12
364.6012229651
 22
31.0552422931
 13
364.6012229651
 23
31.0552422931
  0
SOLID
  8
0
 62
7
  6
CONTINUOUS
 10
364.6012229651
 20
31.0552422931
 11
364.890285024
 21
31.2810881318
 12
364.6012229651
 22
30.8616599362
 13
364.6012229651
 23
30.8616599362
  0
SOLID
  8
0
 62
7
  6
CONTINUOUS
 10
364.890285024
 20
31.2810881318
 11
364.890285024
 21
30.7648681127
 12
364.6012229651
 22
30.8616599362
 13
364.6012229651
 23
30.8616599362
  0
SOLID
  8
0
 62
7
  6
CONTINUOUS
 10
366.798097524
 20
31.5069339419
 11
367.0293479651
 21
31.5391976292
 12
367.2605977445
 22
31.5391976292
 13
367.2605977445
 23
31.5391976292
  0
SOLID
  8
0
 62
7
  6
CONTINUOUS
 10
367.2605977445
 20
31.5391976292
 11
367.4340352445
 21
31.5069339419
 12
366.798097524
 22
31.5069339419
 13
366.798097524
 23
31.5069339419
  0
SOLID
  8
0
 62
7
  6
CONTINUOUS
 10
366.624660024
 20
31.4424065674
 11
366.798097524
 21
31.5069339419
 12
367.4340352445
 22
31.5069339419
 13
367.4340352445
 23
31.5069339419
  0
SOLID
  8
0
 62
7
  6
CONTINUOUS
 10
367.4340352445
 20
31.5069339419
 11
367.6074727445
 21
31.4424065674
 12
366.624660024
 22
31.4424065674
 13
366.624660024
 23
31.4424065674
  0
SOLID
  8
0
 62
7
  6
CONTINUOUS
 10
367.6074727445
 20
31.4424065674
 11
367.0293479651
 21
31.4101420472
 12
366.624660024
 22
31.4424065674
 13
366.624660024
 23
31.4424065674
  0
SOLID
  8
0
 62
7
  6
CONTINUOUS
 10
366.5090354651
 20
31.377879193
 11
366.624660024
 21
31.4424065674
 12
367.0293479651
 22
31.4101420472
 13
367.0293479651
 23
31.4101420472
  0
SOLID
  8
0
 62
7
  6
CONTINUOUS
 10
367.0293479651
 20
31.4101420472
 11
366.798097524
 21
31.377879193
 12
366.5090354651
 22
31.377879193
 13
366.5090354651
 23
31.377879193
  0
SOLID
  8
0
 62
7
  6
CONTINUOUS
 10
367.0293479651
 20
31.4101420472
 11
367.6074727445
 21
31.4424065674
 12
367.2605977445
 22
31.377879193
 13
367.2605977445
 23
31.377879193
  0
SOLID
  8
0
 62
7
  6
CONTINUOUS
 10
367.6074727445
 20
31.4424065674
 11
367.7230979651
 21
31.377879193
 12
367.2605977445
 22
31.377879193
 13
367.2605977445
 23
31.377879193
  0
SOLID
  8
0
 62
7
  6
CONTINUOUS
 10
367.3762229651
 20
31.345614957
 11
367.2605977445
 21
31.377879193
 12
367.7230979651
 22
31.377879193
 13
367.7230979651
 23
31.377879193
  0
SOLID
  8
0
 62
7
  6
CONTINUOUS
 10
367.3762229651
 20
31.345614957
 11
367.7230979651
 21
31.377879193
 12
367.491847524
 22
31.2810881312
 13
367.491847524
 23
31.2810881312
  0
SOLID
  8
0
 62
7
  6
CONTINUOUS
 10
367.7230979651
 20
31.377879193
 11
367.7809102445
 21
31.2810881312
 12
367.491847524
 22
31.2810881312
 13
367.491847524
 23
31.2810881312
  0
SOLID
  8
0
 62
7
  6
CONTINUOUS
 10
367.5496604651
 20
31.119769695
 11
367.491847524
 21
31.2810881312
 12
367.7809102445
 22
31.2810881312
 13
367.7809102445
 23
31.2810881312
  0
SOLID
  8
0
 62
7
  6
CONTINUOUS
 10
367.7809102445
 20
31.2810881312
 11
367.838722524
 21
31.119769695
 12
367.5496604651
 22
31.119769695
 13
367.5496604651
 23
31.119769695
  0
SOLID
  8
0
 62
7
  6
CONTINUOUS
 10
366.798097524
 20
31.377879193
 11
366.624660024
 21
31.3133521701
 12
366.5090354651
 22
31.377879193
 13
366.5090354651
 23
31.377879193
  0
SOLID
  8
0
 62
7
  6
CONTINUOUS
 10
366.624660024
 20
31.3133521701
 11
366.5090354651
 21
31.2488235635
 12
366.5090354651
 22
31.377879193
 13
366.5090354651
 23
31.377879193
  0
SOLID
  8
0
 62
7
  6
CONTINUOUS
 10
366.5090354651
 20
31.2488235635
 11
366.2199727445
 21
30.5067596374
 12
366.5090354651
 22
31.377879193
 13
366.5090354651
 23
31.377879193
  0
SOLID
  8
0
 62
7
  6
CONTINUOUS
 10
366.5090354651
 20
31.377879193
 11
366.2199727445
 21
30.5067596374
 12
366.5090354651
 22
31.5391976292
 13
366.5090354651
 23
31.5391976292
  0
SOLID
  8
0
 62
7
  6
CONTINUOUS
 10
366.2199727445
 20
30.5067596374
 11
366.2199727445
 21
31.5391976292
 12
366.5090354651
 22
31.5391976292
 13
366.5090354651
 23
31.5391976292
  0
SOLID
  8
0
 62
7
  6
CONTINUOUS
 10
366.5090354651
 20
31.2488235635
 11
366.5090354651
 21
30.5067596374
 12
366.2199727445
 22
30.5067596374
 13
366.2199727445
 23
30.5067596374
  0
SOLID
  8
0
 62
7
  6
CONTINUOUS
 10
367.5496604651
 20
30.5067596374
 11
367.5496604651
 21
31.119769695
 12
367.838722524
 22
31.119769695
 13
367.838722524
 23
31.119769695
  0
SOLID
  8
0
 62
7
  6
CONTINUOUS
 10
367.838722524
 20
31.119769695
 11
367.838722524
 21
30.5067596374
 12
367.5496604651
 22
30.5067596374
 13
367.5496604651
 23
30.5067596374
  0
SOLID
  8
0
 62
7
  6
CONTINUOUS
 10
368.6480977445
 20
31.5069334157
 11
368.9949727445
 21
31.539197762
 12
369.3418477445
 22
31.539197762
 13
369.3418477445
 23
31.539197762
  0
SOLID
  8
0
 62
7
  6
CONTINUOUS
 10
369.3418477445
 20
31.539197762
 11
369.6887227445
 21
31.5069334157
 12
368.6480977445
 22
31.5069334157
 13
368.6480977445
 23
31.5069334157
  0
SOLID
  8
0
 62
7
  6
CONTINUOUS
 10
368.4168479651
 20
31.4424063504
 11
368.6480977445
 21
31.5069334157
 12
369.6887227445
 22
31.5069334157
 13
369.6887227445
 23
31.5069334157
  0
SOLID
  8
0
 62
7
  6
CONTINUOUS
 10
368.4168479651
 20
31.4424063504
 11
369.6887227445
 21
31.5069334406
 12
369.8621602445
 22
31.4746706537
 13
369.8621602445
 23
31.4746706537
  0
SOLID
  8
0
 62
7
  6
CONTINUOUS
 10
368.4168479651
 20
31.4424063504
 11
369.8621602445
 21
31.4746706537
 12
368.9949727445
 22
31.4101421267
 13
368.9949727445
 23
31.4101421267
  0
SOLID
  8
0
 62
7
  6
CONTINUOUS
 10
368.9949727445
 20
31.4101421267
 11
369.8621602445
 21
31.4746706537
 12
369.3418477445
 22
31.4101421267
 13
369.3418477445
 23
31.4101421267
  0
SOLID
  8
0
 62
7
  6
CONTINUOUS
 10
369.8621602445
 20
31.4746706537
 11
370.0355977445
 21
31.4101421267
 12
369.3418477445
 22
31.4101421267
 13
369.3418477445
 23
31.4101421267
  0
SOLID
  8
0
 62
7
  6
CONTINUOUS
 10
369.6887227445
 20
31.3778792603
 11
369.3418477445
 21
31.4101421267
 12
370.0355977445
 22
31.4101421267
 13
370.0355977445
 23
31.4101421267
  0
SOLID
  8
0
 62
7
  6
CONTINUOUS
 10
368.3012227445
 20
31.3456148845
 11
368.4168479651
 21
31.4424063504
 12
368.9949727445
 22
31.4101421267
 13
368.9949727445
 23
31.4101421267
  0
SOLID
  8
0
 62
7
  6
CONTINUOUS
 10
369.6887227445
 20
31.3778792603
 11
370.0355977445
 21
31.4101421267
 12
369.8043479651
 22
31.3456148845
 13
369.8043479651
 23
31.3456148845
  0
SOLID
  8
0
 62
7
  6
CONTINUOUS
 10
369.8043479651
 20
31.3456148845
 11
370.0355977445
 21
31.4101421267
 12
369.8621602445
 22
31.281087868
 13
369.8621602445
 23
31.281087868
  0
SOLID
  8
0
 62
7
  6
CONTINUOUS
 10
370.0355977445
 20
31.4101421267
 11
370.1512223035
 21
31.281087868
 12
369.8621602445
 22
31.281087868
 13
369.8621602445
 23
31.281087868
  0
SOLID
  8
0
 62
7
  6
CONTINUOUS
 10
359.4559102445
 20
31.3778792603
 11
358.9355977445
 21
31.3456148963
 12
359.6871602721
 22
31.4101421155
 13
359.6871602721
 23
31.4101421155
  0
SOLID
  8
0
 62
7
  6
CONTINUOUS
 10
358.9355977445
 20
31.3456148963
 11
359.0512227376
 21
31.4101421155
 12
359.6871602721
 22
31.4101421155
 13
359.6871602721
 23
31.4101421155
  0
SOLID
  8
0
 62
7
  6
CONTINUOUS
 10
359.4559102445
 20
31.3778792603
 11
359.3402852307
 21
31.3456148963
 12
358.9355977445
 22
31.3456148963
 13
358.9355977445
 23
31.3456148963
  0
SOLID
  8
0
 62
7
  6
CONTINUOUS
 10
358.8199727462
 20
31.2165607767
 11
358.9355977445
 21
31.3456148963
 12
359.3402852307
 22
31.3456148963
 13
359.3402852307
 23
31.3456148963
  0
SOLID
  8
0
 62
7
  6
CONTINUOUS
 10
363.1559103548
 20
31.3456149608
 11
363.8496603548
 21
31.4101420472
 12
363.6184102445
 22
31.3778792603
 13
363.6184102445
 23
31.3778792603
  0
SOLID
  8
0
 62
7
  6
CONTINUOUS
 10
363.6184102445
 20
31.3778792603
 11
363.5027853548
 21
31.3456149608
 12
363.1559103548
 22
31.3456149608
 13
363.1559103548
 23
31.3456149608
  0
SOLID
  8
0
 62
7
  6
CONTINUOUS
 10
363.1559103548
 20
31.2810878707
 11
363.1559103548
 21
31.3456149608
 12
363.5027853548
 22
31.3456149608
 13
363.5027853548
 23
31.3456149608
  0
SOLID
  8
0
 62
7
  6
CONTINUOUS
 10
363.5027853548
 20
31.3456149608
 11
363.4449727445
 21
31.2810878707
 12
363.1559103548
 22
31.2810878707
 13
363.1559103548
 23
31.2810878707
  0
SOLID
  8
0
 62
7
  6
CONTINUOUS
 10
368.3012227445
 20
31.3456149608
 11
368.9949727445
 21
31.4101420472
 12
368.7637229651
 22
31.3778792603
 13
368.7637229651
 23
31.3778792603
  0
SOLID
  8
0
 62
7
  6
CONTINUOUS
 10
368.7637229651
 20
31.3778792603
 11
368.6480977445
 21
31.3456149608
 12
368.3012227445
 22
31.3456149608
 13
368.3012227445
 23
31.3456149608
  0
SOLID
  8
0
 62
7
  6
CONTINUOUS
 10
368.3012227445
 20
31.2810878707
 11
368.3012227445
 21
31.3456149608
 12
368.6480977445
 22
31.3456149608
 13
368.6480977445
 23
31.3456149608
  0
SOLID
  8
0
 62
7
  6
CONTINUOUS
 10
368.6480977445
 20
31.3456149608
 11
368.5902854651
 21
31.2810878707
 12
368.3012227445
 22
31.2810878707
 13
368.3012227445
 23
31.2810878707
  0
SOLID
  8
0
 62
7
  6
CONTINUOUS
 10
368.4168479651
 20
31.1520336865
 11
368.3012227445
 21
31.2810878707
 12
368.5902854651
 22
31.2810878707
 13
368.5902854651
 23
31.2810878707
  0
SOLID
  8
0
 62
7
  6
CONTINUOUS
 10
358.8199727462
 20
31.2165607767
 11
359.3402852307
 21
31.345614957
 12
359.1668477307
 22
31.2488235635
 13
359.1668477307
 23
31.2488235635
  0
SOLID
  8
0
 62
7
  6
CONTINUOUS
 10
359.1668477307
 20
31.2488235635
 11
359.1090352445
 21
31.1842964734
 12
358.8199727462
 22
31.2165607767
 13
358.8199727462
 23
31.2165607767
  0
SOLID
  8
0
 62
7
  6
CONTINUOUS
 10
358.7621602445
 20
31.0229779898
 11
358.8199727462
 21
31.2165607767
 12
359.1090352445
 22
31.1842964734
 13
359.1090352445
 23
31.1842964734
  0
SOLID
  8
0
 62
7
  6
CONTINUOUS
 10
363.6184102445
 20
31.1520336865
 11
363.9652852445
 21
31.1842964611
 12
364.6012229651
 22
31.1842964611
 13
364.6012229651
 23
31.1842964611
  0
SOLID
  8
0
 62
7
  6
CONTINUOUS
 10
363.6184102445
 20
31.1520336865
 11
364.6012229651
 21
31.1842964611
 12
363.3871601343
 22
31.0875057863
 13
363.3871601343
 23
31.0875057863
  0
SOLID
  8
0
 62
7
  6
CONTINUOUS
 10
363.3871601343
 20
31.0875057863
 11
364.6012229651
 21
31.1842964611
 12
363.9652852445
 22
31.0552422808
 13
363.9652852445
 23
31.0552422808
  0
SOLID
  8
0
 62
7
  6
CONTINUOUS
 10
364.6012229651
 20
31.1842964611
 11
364.6012229651
 21
31.0552422808
 12
363.9652852445
 22
31.0552422808
 13
363.9652852445
 23
31.0552422808
  0
SOLID
  8
0
 62
7
  6
CONTINUOUS
 10
368.4168479651
 20
31.1520338754
 11
368.5902854651
 21
31.2810878668
 12
368.6480977445
 22
31.2165607767
 13
368.6480977445
 23
31.2165607767
  0
SOLID
  8
0
 62
7
  6
CONTINUOUS
 10
368.6480977445
 20
31.2165607767
 11
368.8215352445
 21
31.1520338754
 12
368.4168479651
 22
31.1520338754
 13
368.4168479651
 23
31.1520338754
  0
SOLID
  8
0
 62
7
  6
CONTINUOUS
 10
368.6480977445
 20
31.0552422931
 11
368.4168479651
 21
31.1520338754
 12
368.8215352445
 22
31.1520338754
 13
368.8215352445
 23
31.1520338754
  0
SOLID
  8
0
 62
7
  6
CONTINUOUS
 10
368.8215352445
 20
31.1520338754
 11
369.8043479651
 21
30.9907152029
 12
368.6480977445
 22
31.0552422931
 13
368.6480977445
 23
31.0552422931
  0
SOLID
  8
0
 62
7
  6
CONTINUOUS
 10
369.6309104651
 20
30.8939239876
 11
368.6480977445
 21
31.0552422931
 12
369.8043479651
 22
30.9907152029
 13
369.8043479651
 23
30.9907152029
  0
SOLID
  8
0
 62
7
  6
CONTINUOUS
 10
369.8043479651
 20
30.9907152029
 11
370.0355977445
 21
30.8939239876
 12
369.6309104651
 22
30.8939239876
 13
369.6309104651
 23
30.8939239876
  0
SOLID
  8
0
 62
7
  6
CONTINUOUS
 10
369.8043479651
 20
30.8293967193
 11
369.6309104651
 21
30.8939239876
 12
370.0355977445
 22
30.8939239876
 13
370.0355977445
 23
30.8939239876
  0
SOLID
  8
0
 62
7
  6
CONTINUOUS
 10
369.8043479651
 20
30.8293967193
 11
370.0355977445
 21
30.8939239876
 12
369.8621602445
 22
30.7648682694
 13
369.8621602445
 23
30.7648682694
  0
SOLID
  8
0
 62
7
  6
CONTINUOUS
 10
370.0355977445
 20
30.8939239876
 11
370.1512223035
 21
30.7648682694
 12
369.8621602445
 22
30.7648682694
 13
369.8621602445
 23
30.7648682694
  0
SOLID
  8
0
 62
7
  6
CONTINUOUS
 10
369.8043479651
 20
30.7003411846
 11
369.8621602445
 21
30.7648682694
 12
370.1512223035
 22
30.7648682694
 13
370.1512223035
 23
30.7648682694
  0
SOLID
  8
0
 62
7
  6
CONTINUOUS
 10
370.1512223035
 20
30.7648682694
 11
370.1512223035
 21
30.7003411846
 12
369.8043479651
 22
30.7003411846
 13
369.8043479651
 23
30.7003411846
  0
SOLID
  8
0
 62
7
  6
CONTINUOUS
 10
369.6887227445
 20
30.6680782357
 11
369.8043479651
 21
30.7003411846
 12
370.1512223035
 22
30.7003411846
 13
370.1512223035
 23
30.7003411846
  0
SOLID
  8
0
 62
7
  6
CONTINUOUS
 10
369.6887227445
 20
30.6680782357
 11
370.1512223035
 21
30.7003411846
 12
369.4574729651
 22
30.6358140998
 13
369.4574729651
 23
30.6358140998
  0
SOLID
  8
0
 62
7
  6
CONTINUOUS
 10
370.1512223035
 20
30.7003411846
 11
370.0355977445
 21
30.6035511455
 12
369.4574729651
 22
30.6358140998
 13
369.4574729651
 23
30.6358140998
  0
SOLID
  8
0
 62
7
  6
CONTINUOUS
 10
370.0355977445
 20
30.6035511455
 11
368.5902854651
 21
30.5712868422
 12
369.4574729651
 22
30.6358140998
 13
369.4574729651
 23
30.6358140998
  0
SOLID
  8
0
 62
7
  6
CONTINUOUS
 10
369.4574729651
 20
30.6358140998
 11
368.5902854651
 21
30.5712868422
 12
369.1105979651
 22
30.6358140998
 13
369.1105979651
 23
30.6358140998
  0
SOLID
  8
0
 62
7
  6
CONTINUOUS
 10
368.5902854651
 20
30.5712868422
 11
368.4168479651
 21
30.6358140998
 12
369.1105979651
 22
30.6358140998
 13
369.1105979651
 23
30.6358140998
  0
SOLID
  8
0
 62
7
  6
CONTINUOUS
 10
368.5902854651
 20
30.5712868422
 11
370.0355977445
 21
30.6035511455
 12
368.7637229651
 22
30.5390223111
 13
368.7637229651
 23
30.5390223111
  0
SOLID
  8
0
 62
7
  6
CONTINUOUS
 10
370.0355977445
 20
30.6035511455
 11
369.8043479651
 21
30.5390223111
 12
368.7637229651
 22
30.5390223111
 13
368.7637229651
 23
30.5390223111
  0
SOLID
  8
0
 62
7
  6
CONTINUOUS
 10
369.1105979651
 20
30.5067599302
 11
368.7637229651
 21
30.5390223111
 12
369.8043479651
 22
30.5390223111
 13
369.8043479651
 23
30.5390223111
  0
SOLID
  8
0
 62
7
  6
CONTINUOUS
 10
369.8043479651
 20
30.5390223111
 11
369.4574729651
 21
30.5067599302
 12
369.1105979651
 22
30.5067599302
 13
369.1105979651
 23
30.5067599302
  0
SOLID
  8
0
 62
7
  6
CONTINUOUS
 10
358.7621602445
 20
31.0229779898
 11
359.1090352445
 21
31.1842964734
 12
359.0512227376
 22
31.0552422931
 13
359.0512227376
 23
31.0552422931
  0
SOLID
  8
0
 62
7
  6
CONTINUOUS
 10
359.0512227376
 20
31.0552422931
 11
359.0512227376
 21
30.9584509954
 12
358.7621602445
 22
31.0229779898
 13
358.7621602445
 23
31.0229779898
  0
SOLID
  8
0
 62
7
  6
CONTINUOUS
 10
358.8199727462
 20
30.8293967193
 11
358.7621602445
 21
31.0229779898
 12
359.0512227376
 22
30.9584509954
 13
359.0512227376
 23
30.9584509954
  0
SOLID
  8
0
 62
7
  6
CONTINUOUS
 10
359.0512227376
 20
30.9584509954
 11
359.1668477307
 21
30.797132416
 12
358.8199727462
 22
30.8293967193
 13
358.8199727462
 23
30.8293967193
  0
SOLID
  8
0
 62
7
  6
CONTINUOUS
 10
358.9355977445
 20
30.7003413087
 11
358.8199727462
 21
30.8293967193
 12
359.1668477307
 22
30.797132416
 13
359.1668477307
 23
30.797132416
  0
SOLID
  8
0
 62
7
  6
CONTINUOUS
 10
359.1668477307
 20
30.797132416
 11
359.3402852307
 21
30.7003413087
 12
358.9355977445
 22
30.7003413087
 13
358.9355977445
 23
30.7003413087
  0
SOLID
  8
0
 62
7
  6
CONTINUOUS
 10
359.0512227376
 20
30.6358140759
 11
358.9355977445
 21
30.7003413087
 12
359.3402852307
 22
30.7003413087
 13
359.3402852307
 23
30.7003413087
  0
SOLID
  8
0
 62
7
  6
CONTINUOUS
 10
359.3402852307
 20
30.7003413087
 11
359.6871602721
 21
30.6358140759
 12
359.0512227376
 22
30.6358140759
 13
359.0512227376
 23
30.6358140759
  0
SOLID
  8
0
 62
7
  6
CONTINUOUS
 10
359.2246602583
 20
30.5712868422
 11
359.0512227376
 21
30.6358140759
 12
359.6871602721
 22
30.6358140759
 13
359.6871602721
 23
30.6358140759
  0
SOLID
  8
0
 62
7
  6
CONTINUOUS
 10
363.2715352445
 20
31.0229779808
 11
363.3871601343
 21
31.0875057863
 12
363.9652852445
 22
31.0552422931
 13
363.9652852445
 23
31.0552422931
  0
SOLID
  8
0
 62
7
  6
CONTINUOUS
 10
363.9652852445
 20
31.0552422931
 11
363.7340351343
 21
31.0229779808
 12
363.2715352445
 22
31.0229779808
 13
363.2715352445
 23
31.0229779808
  0
SOLID
  8
0
 62
7
  6
CONTINUOUS
 10
363.1559103548
 20
30.8939238094
 11
363.2715352445
 21
31.0229779808
 12
363.7340351343
 22
31.0229779808
 13
363.7340351343
 23
31.0229779808
  0
SOLID
  8
0
 62
7
  6
CONTINUOUS
 10
363.5027853548
 20
30.926187309
 11
363.1559103548
 21
30.8939238094
 12
363.6184102445
 22
30.9907152029
 13
363.6184102445
 23
30.9907152029
  0
SOLID
  8
0
 62
7
  6
CONTINUOUS
 10
363.1559103548
 20
30.8939238094
 11
363.7340351343
 21
31.0229779898
 12
363.6184102445
 22
30.9907152029
 13
363.6184102445
 23
30.9907152029
  0
SOLID
  8
0
 62
7
  6
CONTINUOUS
 10
363.5027853548
 20
30.926187309
 11
363.4449727445
 21
30.8293967193
 12
363.1559103548
 22
30.8939238094
 13
363.1559103548
 23
30.8939238094
  0
SOLID
  8
0
 62
7
  6
CONTINUOUS
 10
363.1559103548
 20
30.797132416
 11
363.1559103548
 21
30.8939238094
 12
363.4449727445
 22
30.8293967193
 13
363.4449727445
 23
30.8293967193
  0
SOLID
  8
0
 62
7
  6
CONTINUOUS
 10
363.4449727445
 20
30.8293967193
 11
363.4449727445
 21
30.7648681127
 12
363.1559103548
 22
30.797132416
 13
363.1559103548
 23
30.797132416
  0
SOLID
  8
0
 62
7
  6
CONTINUOUS
 10
363.2137226343
 20
30.6680782357
 11
363.1559103548
 21
30.797132416
 12
363.4449727445
 22
30.7648681127
 13
363.4449727445
 23
30.7648681127
  0
SOLID
  8
0
 62
7
  6
CONTINUOUS
 10
364.6012229651
 20
30.8616599362
 11
364.890285024
 21
30.7648681127
 12
364.543410024
 22
30.797132416
 13
364.543410024
 23
30.797132416
  0
SOLID
  8
0
 62
7
  6
CONTINUOUS
 10
364.369972524
 20
30.7003410226
 11
364.543410024
 21
30.797132416
 12
364.890285024
 22
30.7648681127
 13
364.890285024
 23
30.7648681127
  0
SOLID
  8
0
 62
7
  6
CONTINUOUS
 10
364.369972524
 20
30.7003410226
 11
364.890285024
 21
30.7648681127
 12
364.6012229651
 22
30.6680782357
 13
364.6012229651
 23
30.6680782357
  0
SOLID
  8
0
 62
7
  6
CONTINUOUS
 10
364.890285024
 20
30.7648681127
 11
364.9480979651
 21
30.6035511455
 12
364.6012229651
 22
30.6680782357
 13
364.6012229651
 23
30.6680782357
  0
SOLID
  8
0
 62
7
  6
CONTINUOUS
 10
364.6590352445
 20
30.5712868422
 11
364.6012229651
 21
30.6680782357
 12
364.9480979651
 22
30.6035511455
 13
364.9480979651
 23
30.6035511455
  0
SOLID
  8
0
 62
7
  6
CONTINUOUS
 10
364.6590352445
 20
30.5712868422
 11
364.9480979651
 21
30.6035511455
 12
364.716847524
 22
30.5067598731
 13
364.716847524
 23
30.5067598731
  0
SOLID
  8
0
 62
7
  6
CONTINUOUS
 10
364.9480979651
 20
30.6035511455
 11
365.0059102445
 21
30.5067598731
 12
364.716847524
 22
30.5067598731
 13
364.716847524
 23
30.5067598731
  0
SOLID
  8
0
 62
7
  6
CONTINUOUS
 10
360.2652852997
 20
30.7326051679
 11
360.3230977445
 21
30.8293966612
 12
360.6121602997
 22
30.8293966612
 13
360.6121602997
 23
30.8293966612
  0
SOLID
  8
0
 62
7
  6
CONTINUOUS
 10
360.6121602997
 20
30.8293966612
 11
360.5543476894
 21
30.7003410226
 12
360.2652852997
 22
30.7326051679
 13
360.2652852997
 23
30.7326051679
  0
SOLID
  8
0
 62
7
  6
CONTINUOUS
 10
360.091847717
 20
30.6680782357
 11
360.2652852997
 21
30.7326051679
 12
360.5543476894
 22
30.7003410226
 13
360.5543476894
 23
30.7003410226
  0
SOLID
  8
0
 62
7
  6
CONTINUOUS
 10
360.091847717
 20
30.6680782357
 11
360.5543476894
 21
30.7003410226
 12
359.6871602721
 22
30.6358139324
 13
359.6871602721
 23
30.6358139324
  0
SOLID
  8
0
 62
7
  6
CONTINUOUS
 10
360.5543476894
 20
30.7003410226
 11
360.3809101894
 21
30.6035511455
 12
359.6871602721
 22
30.6358139324
 13
359.6871602721
 23
30.6358139324
  0
SOLID
  8
0
 62
7
  6
CONTINUOUS
 10
359.2246602583
 20
30.5712868422
 11
359.6871602721
 21
30.6358139324
 12
360.3809101894
 22
30.6035511455
 13
360.3809101894
 23
30.6035511455
  0
SOLID
  8
0
 62
7
  6
CONTINUOUS
 10
359.2246602583
 20
30.5712868422
 11
360.3809101894
 21
30.6035511455
 12
359.3980977583
 22
30.5390224228
 13
359.3980977583
 23
30.5390224228
  0
SOLID
  8
0
 62
7
  6
CONTINUOUS
 10
360.3809101894
 20
30.6035511455
 11
360.1496602445
 21
30.5390224228
 12
359.3980977583
 22
30.5390224228
 13
359.3980977583
 23
30.5390224228
  0
SOLID
  8
0
 62
7
  6
CONTINUOUS
 10
359.744972717
 20
30.5067597521
 11
359.3980977583
 21
30.5390224228
 12
360.1496602445
 22
30.5390224228
 13
360.1496602445
 23
30.5390224228
  0
SOLID
  8
0
 62
7
  6
CONTINUOUS
 10
363.2137226343
 20
30.6680782357
 11
363.4449727445
 21
30.7648681127
 12
363.5027853548
 22
30.7003410226
 13
363.5027853548
 23
30.7003410226
  0
SOLID
  8
0
 62
7
  6
CONTINUOUS
 10
363.5027853548
 20
30.7003410226
 11
363.7340351343
 21
30.6358139324
 12
363.2137226343
 22
30.6680782357
 13
363.2137226343
 23
30.6680782357
  0
SOLID
  8
0
 62
7
  6
CONTINUOUS
 10
363.3871601343
 20
30.5712868422
 11
363.2137226343
 21
30.6680782357
 12
363.7340351343
 22
30.6358139324
 13
363.7340351343
 23
30.6358139324
  0
SOLID
  8
0
 62
7
  6
CONTINUOUS
 10
364.0809101343
 20
30.6358139363
 11
364.369972524
 21
30.7003410226
 12
364.6012229651
 22
30.6680782357
 13
364.6012229651
 23
30.6680782357
  0
SOLID
  8
0
 62
7
  6
CONTINUOUS
 10
364.6012229651
 20
30.6680782357
 11
364.543410024
 21
30.6035511455
 12
364.0809101343
 22
30.6358139363
 13
364.0809101343
 23
30.6358139363
  0
SOLID
  8
0
 62
7
  6
CONTINUOUS
 10
364.543410024
 20
30.6035511455
 11
363.3871601343
 21
30.5712868422
 12
364.0809101343
 22
30.6358139363
 13
364.0809101343
 23
30.6358139363
  0
SOLID
  8
0
 62
7
  6
CONTINUOUS
 10
363.3871601343
 20
30.5712868422
 11
363.7340351343
 21
30.6358139363
 12
364.0809101343
 22
30.6358139363
 13
364.0809101343
 23
30.6358139363
  0
SOLID
  8
0
 62
7
  6
CONTINUOUS
 10
363.3871601343
 20
30.5712868422
 11
364.543410024
 21
30.6035511455
 12
363.5027853548
 22
30.5390225267
 13
363.5027853548
 23
30.5390225267
  0
SOLID
  8
0
 62
7
  6
CONTINUOUS
 10
364.543410024
 20
30.6035511455
 11
364.369972524
 21
30.5390225267
 12
363.5027853548
 22
30.5390225267
 13
363.5027853548
 23
30.5390225267
  0
SOLID
  8
0
 62
7
  6
CONTINUOUS
 10
363.7340351343
 20
30.5067596914
 11
363.5027853548
 21
30.5390225267
 12
364.369972524
 22
30.5390225267
 13
364.369972524
 23
30.5390225267
  0
SOLID
  8
0
 62
7
  6
CONTINUOUS
 10
364.369972524
 20
30.5390225267
 11
364.0809101343
 21
30.5067596914
 12
363.7340351343
 22
30.5067596914
 13
363.7340351343
 23
30.5067596914
  0
SOLID
  8
0
 62
7
  6
CONTINUOUS
 10
368.7637229651
 20
30.6680782357
 11
368.4168479651
 21
30.6358138717
 12
368.6480977445
 22
30.7003410226
 13
368.6480977445
 23
30.7003410226
  0
SOLID
  8
0
 62
7
  6
CONTINUOUS
 10
368.6480977445
 20
30.7003410226
 11
368.4168479651
 21
30.6358138717
 12
368.5902854651
 22
30.7648680521
 13
368.5902854651
 23
30.7648680521
  0
SOLID
  8
0
 62
7
  6
CONTINUOUS
 10
368.4168479651
 20
30.6358138717
 11
368.3012227445
 21
30.7648680521
 12
368.5902854651
 22
30.7648680521
 13
368.5902854651
 23
30.7648680521
  0
SOLID
  8
0
 62
7
  6
CONTINUOUS
 10
368.7637229651
 20
30.6680782357
 11
369.1105979651
 21
30.6358138717
 12
368.4168479651
 22
30.6358138717
 13
368.4168479651
 23
30.6358138717
  0
SOLID
  8
0
 62
7
  6
CONTINUOUS
 10
365.4684104651
 20
30.5067597521
 11
365.4684104651
 21
31.5391977439
 12
365.757472524
 22
30.5067597521
 13
365.757472524
 23
31.5391977439
  0
ENDBLK
  8
0
  6
BYBLOCK
 62
0
  0
BLOCK
  8
0
 62
2
  6
CONTINUOUS
  2
SYMBOL_0_BL0
 70
64
 10
240.8592468615
 20
19.762288695
  0
TEXT
  8
0
 62
7
  6
CONTINUOUS
 10
227.1239507038
 20
19.1357028027
  7
TEXTSTYLE_3
 40
2.7338706658
  1
Ammeraal Beltech
 41
1.0
 51
15.0
 72
0
  0
TEXT
  8
0
 62
7
  6
CONTINUOUS
 10
237.9247515296
 20
16.8621661299
  7
TEXTSTYLE_4
 40
1.0935482663
  1
Innovation & Service in Belting
 41
1.0
 72
0
  0
LINE
  8
0
 62
7
  6
CONTINUOUS
 10
221.0994100525
 20
19.9022961113
 11
221.8775620458
 21
23.5632134089
  0
LINE
  8
0
 62
7
  6
CONTINUOUS
 10
231.9727303357
 20
27.2266073205
 11
222.3653797889
 21
24.1049898993
  0
LINE
  8
0
 62
7
  6
CONTINUOUS
 10
221.3246933848
 20
19.2089453082
 11
228.8317686459
 21
12.4495443822
  0
LINE
  8
0
 62
7
  6
CONTINUOUS
 10
221.5872277955
 20
20.4440726016
 11
232.3954971607
 21
23.9558922005
  0
LINE
  8
0
 62
7
  6
CONTINUOUS
 10
232.3912920235
 20
13.6061036368
 11
223.9458323548
 21
21.2104296785
  0
LINE
  8
0
 62
7
  6
CONTINUOUS
 10
232.9111147433
 20
26.3816822048
 11
231.9345552061
 21
21.7873308023
  0
LINE
  8
0
 62
7
  6
CONTINUOUS
 10
231.2347532584
 20
18.4950214885
 11
230.5483050469
 21
15.2655365641
  0
LINE
  8
0
 62
7
  6
CONTINUOUS
 10
233.5922108419
 20
13.9963058145
 11
234.5484423775
 21
18.4950214885
  0
LINE
  8
0
 62
7
  6
CONTINUOUS
 10
235.2482443252
 20
21.7873308023
 11
235.6924861276
 21
23.8773241617
  0
LINE
  8
0
 62
7
  6
CONTINUOUS
 10
229.5448697213
 20
12.2979700695
 11
233.1043930989
 21
13.4545293241
  0
LINE
  8
0
 62
7
  6
CONTINUOUS
 10
232.685831411
 20
27.0750330078
 11
235.4672027953
 21
24.5706749648
  0
ARC
  8
0
 62
7
  6
CONTINUOUS
 10
222.5906631212
 20
23.4116390962
 40
0.7290321776
 50
108.0
 51
168.0
  0
ARC
  8
0
 62
7
  6
CONTINUOUS
 10
232.198013668
 20
26.5332565175
 40
0.7290321776
 50
348.0
 51
108.0
  0
ARC
  8
0
 62
7
  6
CONTINUOUS
 10
234.9793850522
 20
24.0288984744
 40
0.7290321776
 50
348.0
 51
48.0
  0
ARC
  8
0
 62
7
  6
CONTINUOUS
 10
229.319586389
 20
12.9913208726
 40
0.7290321776
 50
228.0
 51
288.0
  0
ARC
  8
0
 62
7
  6
CONTINUOUS
 10
221.8125111278
 20
19.7507217986
 40
0.7290321776
 50
108.0
 51
228.0
  0
ARC
  8
0
 62
7
  6
CONTINUOUS
 10
232.8791097665
 20
14.1478801272
 40
0.7290321776
 50
228.0
 51
348.0
  0
ENDBLK
  8
0
  6
BYBLOCK
 62
0
  0
ENDSEC
  0
SECTION
  2
ENTITIES
  0
TEXT
  8
0
 62
5
  6
CONTINUOUS
 10
304.937007874
 20
25.636
  7
TEXTSTYLE_2
 40
2.8
  1
Scale :
 41
0.6
 51
0.000019
 72
0
  0
TEXT
  8
0
 62
5
  6
CONTINUOUS
 10
324.937007874
 20
25.636
  7
TEXTSTYLE_2
 40
2.8
  1
Belt type:
 41
0.6
 51
0.000019
 72
0
  0
INSERT
  8
0
 62
2
  6
CONTINUOUS
  2
SYMBOL_0_BL0
 10
240.8592468615
 20
19.762288695
  0
INSERT
  8
0
 62
2
  6
CONTINUOUS
  2
SYMBOL_5_BL1
 10
382.7840918555
 20
35.5067593403
  0
LINE
  8
0
 62
2
  6
CONTINUOUS
 10
218.937007874
 20
30.0
 11
408.937007874
 21
30.0
  0
LINE
  8
0
 62
2
  6
CONTINUOUS
 10
218.937007874
 20
30.0
 11
218.937007874
 21
10.0
  0
LINE
  8
0
 62
2
  6
CONTINUOUS
 10
218.937007874
 20
10.0
 11
408.937007874
 21
10.0
  0
LINE
  8
0
 62
2
  6
CONTINUOUS
 10
303.937007874
 20
30.0
 11
303.937007874
 21
10.0
  0
LINE
  8
0
 62
2
  6
CONTINUOUS
 10
323.937007874
 20
30.0
 11
323.937007874
 21
10.0
  0
LINE
  8
0
 62
2
  6
CONTINUOUS
 10
408.937007874
 20
30.0
 11
408.937007874
 21
10.0
  0
TEXT
  8
0
 62
5
  6
CONTINUOUS
 10
221.937007874
 20
23.303
  7
TEXTSTYLE_5
 40
1.52
  1
                                                                     Ammeraal Beltech Modular A/S
 41
1.0
 72
0
  0
TEXT
  8
0
 62
5
  6
CONTINUOUS
 10
221.937007874
 20
20.595
  7
TEXTSTYLE_5
 40
1.5
  1
                                                                      Hjulmagervej 21, 7100 Vejle,  DK
 41
1.0
 72
0
  0
TEXT
  8
0
 62
5
  6
CONTINUOUS
 10
221.937007874
 20
17.881
  7
TEXTSTYLE_5
 40
1.495
  1
                                                                      tel: 
 41
1.0
 72
0
  0
TEXT
  8
0
 62
5
  6
CONTINUOUS
 10
266.9239544389
 20
17.881
  7
TEXTSTYLE_5
 40
1.51
  1
+45 75723100     fax: +45 75723348
 41
1.0
 72
0
  0
TEXT
  8
0
 62
5
  6
CONTINUOUS
 10
221.937007874
 20
15.177
  7
TEXTSTYLE_5
 40
1.5
  1
                                                                      admin@unichains.dk  www.unichains.com
 41
1.0
 72
0
  0
TEXT
  8
0
 62
5
  6
CONTINUOUS
 10
308.687007874
 20
13.75
  7
TEXTSTYLE_6
 40
5.0
  1
1:1
 41
0.7
 72
1
 11
313.937007874
 21
13.75
  0
TEXT
  8
0
 62
5
  6
CONTINUOUS
 10
326.937007874
 20
13.75
  7
TEXTSTYLE_7
 40
7.5
  1
uni CSB-8 Rough K600
 41
0.5928125
 72
0
  0
LINE
  8
0
 62
7
  6
CONTINUOUS
 10
0.0
 20
0.0
 11
0.0
 21
297.0
  0
LINE
  8
0
 62
7
  6
CONTINUOUS
 10
8.937007874
 20
10.0
 11
8.937007874
 21
287.0
  0
LINE
  8
0
 62
7
  6
CONTINUOUS
 10
0.0
 20
0.0
 11
420.0
 21
0.0
  0
LINE
  8
0
 62
7
  6
CONTINUOUS
 10
408.937007874
 20
10.0
 11
8.937007874
 21
10.0
  0
LINE
  8
0
 62
7
  6
CONTINUOUS
 10
218.937007874
 20
30.0
 11
408.937007874
 21
30.0
  0
LINE
  8
0
 62
7
  6
CONTINUOUS
 10
210.0
 20
297.0
 11
210.0
 21
292.0
  0
LINE
  8
0
 62
7
  6
CONTINUOUS
 10
210.0
 20
0.0
 11
210.0
 21
5.0
  0
LINE
  8
0
 62
7
  6
CONTINUOUS
 10
8.937007874
 20
287.0
 11
408.937007874
 21
287.0
  0
LINE
  8
0
 62
7
  6
CONTINUOUS
 10
0.0
 20
297.0
 11
420.0
 21
297.0
  0
LINE
  8
0
 62
7
  6
CONTINUOUS
 10
408.937007874
 20
287.0
 11
408.937007874
 21
10.0
  0
LINE
  8
0
 62
7
  6
CONTINUOUS
 10
420.0
 20
0.0
 11
420.0
 21
297.0
  0
LINE
  8
0
 62
7
  6
CONTINUOUS
 10
60.6789473684
 20
97.6256640175
 11
60.6789473684
 21
150.8963592887
  0
LINE
  8
0
 62
7
  6
CONTINUOUS
 10
64.7289473684
 20
122.0006578947
 11
64.7289473684
 21
126.4006578947
  0
LINE
  8
0
 62
7
  6
CONTINUOUS
 10
64.8289473684
 20
109.2006578947
 11
64.8289473684
 21
115.2006578947
  0
LINE
  8
0
 62
7
  6
CONTINUOUS
 10
64.8289473684
 20
117.2006578947
 11
64.8289473684
 21
121.1006578947
  0
LINE
  8
0
 62
7
  6
CONTINUOUS
 10
64.8289473684
 20
127.3006578947
 11
64.8289473684
 21
131.2006578947
  0
LINE
  8
0
 62
7
  6
CONTINUOUS
 10
64.8289473684
 20
133.2006578947
 11
64.8289473684
 21
139.2006578947
  0
LINE
  8
0
 62
7
  6
CONTINUOUS
 10
64.8289473684
 20
141.2006578947
 11
64.8289473684
 21
147.2006578947
  0
LINE
  8
0
 62
7
  6
CONTINUOUS
 10
66.8289473684
 20
109.2006578947
 11
66.8289473684
 21
115.2006578947
  0
LINE
  8
0
 62
7
  6
CONTINUOUS
 10
66.8289473684
 20
117.2006578947
 11
66.8289473684
 21
121.1006578947
  0
LINE
  8
0
 62
7
  6
CONTINUOUS
 10
66.8289473684
 20
127.3006578947
 11
66.8289473684
 21
131.2006578947
  0
LINE
  8
0
 62
7
  6
CONTINUOUS
 10
66.8289473684
 20
133.2006578947
 11
66.8289473684
 21
139.2006578947
  0
LINE
  8
0
 62
7
  6
CONTINUOUS
 10
66.8289473684
 20
141.2006578947
 11
66.8289473684
 21
147.2006578947
  0
LINE
  8
0
 62
7
  6
CONTINUOUS
 10
68.8289473684
 20
109.2006578947
 11
68.8289473684
 21
115.2006578947
  0
LINE
  8
0
 62
7
  6
CONTINUOUS
 10
68.8289473684
 20
117.2006578947
 11
68.8289473684
 21
121.1006578947
  0
LINE
  8
0
 62
7
  6
CONTINUOUS
 10
68.8289473684
 20
127.3006578947
 11
68.8289473684
 21
131.2006578947
  0
LINE
  8
0
 62
7
  6
CONTINUOUS
 10
68.8289473684
 20
133.2006578947
 11
68.8289473684
 21
139.2006578947
  0
LINE
  8
0
 62
7
  6
CONTINUOUS
 10
68.8289473684
 20
141.2006578947
 11
68.8289473684
 21
147.2006578947
  0
LINE
  8
0
 62
7
  6
CONTINUOUS
 10
68.9289473684
 20
126.4006578947
 11
68.9289473684
 21
122.0006578947
  0
LINE
  8
0
 62
7
  6
CONTINUOUS
 10
73.0159896493
 20
115.5011796918
 11
73.0159896493
 21
108.6256578947
  0
LINE
  8
0
 62
7
  6
CONTINUOUS
 10
73.3419050875
 20
152.9001359683
 11
73.3419050875
 21
159.7756578947
  0
POLYLINE
  8
0
 62
7
  6
CONTINUOUS
 66
1
 70
0
  0
VERTEX
  8
0
 62
7
  6
CONTINUOUS
 10
73.3419035795
 20
152.9001359684
  0
VERTEX
  8
0
 62
7
  6
CONTINUOUS
 10
73.317257752
 20
152.6794246119
  0
VERTEX
  8
0
 62
7
  6
CONTINUOUS
 10
73.2320833776
 20
152.4443809437
  0
VERTEX
  8
0
 62
7
  6
CONTINUOUS
 10
73.0908323087
 20
152.2372473939
  0
VERTEX
  8
0
 62
7
  6
CONTINUOUS
 10
72.9045208107
 20
152.0730593507
  0
VERTEX
  8
0
 62
7
  6
CONTINUOUS
 10
72.6586719584
 20
151.9510284721
  0
VERTEX
  8
0
 62
7
  6
CONTINUOUS
 10
72.3978836162
 20
151.8977535096
  0
SEQEND
  0
LINE
  8
0
 62
7
  6
CONTINUOUS
 10
64.8289473684
 20
111.2006578947
 11
66.8289473684
 21
109.2006578947
  0
LINE
  8
0
 62
7
  6
CONTINUOUS
 10
64.8289473684
 20
113.2006578947
 11
68.8289473684
 21
109.2006578947
  0
LINE
  8
0
 62
7
  6
CONTINUOUS
 10
64.8289473684
 20
115.2006578947
 11
68.8289473684
 21
111.2006578947
  0
LINE
  8
0
 62
7
  6
CONTINUOUS
 10
77.4289473684
 20
142.0006578947
 11
77.4289473684
 21
154.4006578947
  0
LINE
  8
0
 62
7
  6
CONTINUOUS
 10
77.5289473684
 20
121.2006578947
 11
77.5289473684
 21
127.2006578947
  0
LINE
  8
0
 62
7
  6
CONTINUOUS
 10
77.5289473684
 20
129.2006578947
 11
77.5289473684
 21
135.2006578947
  0
LINE
  8
0
 62
7
  6
CONTINUOUS
 10
77.5289473684
 20
137.2006578947
 11
77.5289473684
 21
141.1006578947
  0
LINE
  8
0
 62
7
  6
CONTINUOUS
 10
77.5289473684
 20
155.3006578947
 11
77.5289473684
 21
159.2006578947
  0
LINE
  8
0
 62
7
  6
CONTINUOUS
 10
79.5289473684
 20
121.2006578947
 11
79.5289473684
 21
127.2006578947
  0
LINE
  8
0
 62
7
  6
CONTINUOUS
 10
79.5289473684
 20
129.2006578947
 11
79.5289473684
 21
135.2006578947
  0
LINE
  8
0
 62
7
  6
CONTINUOUS
 10
79.5289473684
 20
137.2006578947
 11
79.5289473684
 21
141.1006578947
  0
LINE
  8
0
 62
7
  6
CONTINUOUS
 10
79.5289473684
 20
155.3006578947
 11
79.5289473684
 21
159.2006578947
  0
POLYLINE
  8
0
 62
7
  6
CONTINUOUS
 66
1
 70
0
  0
VERTEX
  8
0
 62
7
  6
CONTINUOUS
 10
73.0159910446
 20
115.5011796917
  0
VERTEX
  8
0
 62
7
  6
CONTINUOUS
 10
73.0406224763
 20
115.7218277869
  0
VERTEX
  8
0
 62
7
  6
CONTINUOUS
 10
73.1257514818
 20
115.9568180063
  0
VERTEX
  8
0
 62
7
  6
CONTINUOUS
 10
73.2669666998
 20
116.1639599133
  0
VERTEX
  8
0
 62
7
  6
CONTINUOUS
 10
73.4532623702
 20
116.3281804309
  0
VERTEX
  8
0
 62
7
  6
CONTINUOUS
 10
73.6985434184
 20
116.450059262
  0
VERTEX
  8
0
 62
7
  6
CONTINUOUS
 10
73.9599953028
 20
116.5035597526
  0
SEQEND
  0
LINE
  8
0
 62
7
  6
CONTINUOUS
 10
64.8289473684
 20
145.2006578947
 11
66.8289473684
 21
147.2006578947
  0
LINE
  8
0
 62
7
  6
CONTINUOUS
 10
77.5289473684
 20
157.2006578947
 11
79.5289473684
 21
159.2006578947
  0
LINE
  8
0
 62
7
  6
CONTINUOUS
 10
66.8289473684
 20
115.2006578947
 11
68.8289473684
 21
113.2006578947
  0
LINE
  8
0
 62
7
  6
CONTINUOUS
 10
64.8289473684
 20
119.2006578947
 11
66.8289473684
 21
117.2006578947
  0
LINE
  8
0
 62
7
  6
CONTINUOUS
 10
64.9289473684
 20
121.1006578947
 11
68.8289473684
 21
117.2006578947
  0
LINE
  8
0
 62
7
  6
CONTINUOUS
 10
66.9289473684
 20
121.1006578947
 11
68.8289473684
 21
119.2006578947
  0
POLYLINE
  8
0
 62
7
  6
CONTINUOUS
 66
1
 70
0
  0
VERTEX
  8
0
 62
7
  6
CONTINUOUS
 10
85.7159896467
 20
159.7756578947
  0
VERTEX
  8
0
 62
7
  6
CONTINUOUS
 10
85.7149462725
 20
160.8012230293
  0
VERTEX
  8
0
 62
7
  6
CONTINUOUS
 10
85.7119611236
 20
161.7845808703
  0
VERTEX
  8
0
 62
7
  6
CONTINUOUS
 10
85.7073848318
 20
162.6976066851
  0
VERTEX
  8
0
 62
7
  6
CONTINUOUS
 10
85.7015134862
 20
163.5419905243
  0
VERTEX
  8
0
 62
7
  6
CONTINUOUS
 10
85.6945894164
 20
164.3209506532
  0
VERTEX
  8
0
 62
7
  6
CONTINUOUS
 10
85.6868098822
 20
165.0382053921
  0
VERTEX
  8
0
 62
7
  6
CONTINUOUS
 10
85.6783469178
 20
165.6967440056
  0
VERTEX
  8
0
 62
7
  6
CONTINUOUS
 10
85.6693443754
 20
166.2998077041
  0
VERTEX
  8
0
 62
7
  6
CONTINUOUS
 10
85.659920974
 20
166.8507801598
  0
VERTEX
  8
0
 62
7
  6
CONTINUOUS
 10
85.6501802035
 20
167.3527401346
  0
VERTEX
  8
0
 62
7
  6
CONTINUOUS
 10
85.6402072994
 20
167.8088059135
  0
VERTEX
  8
0
 62
7
  6
CONTINUOUS
 10
85.6300695234
 20
168.2221286108
  0
VERTEX
  8
0
 62
7
  6
CONTINUOUS
 10
85.6198190805
 20
168.595764298
  0
VERTEX
  8
0
 62
7
  6
CONTINUOUS
 10
85.6094942892
 20
168.9326420279
  0
VERTEX
  8
0
 62
7
  6
CONTINUOUS
 10
85.599119483
 20
169.2355642633
  0
VERTEX
  8
0
 62
7
  6
CONTINUOUS
 10
85.5887074535
 20
169.507124511
  0
VERTEX
  8
0
 62
7
  6
CONTINUOUS
 10
85.5782910886
 20
169.7490204019
  0
VERTEX
  8
0
 62
7
  6
CONTINUOUS
 10
85.5679185018
 20
169.9625409628
  0
VERTEX
  8
0
 62
7
  6
CONTINUOUS
 10
85.5576246865
 20
170.1492964517
  0
VERTEX
  8
0
 62
7
  6
CONTINUOUS
 10
85.5474230579
 20
170.3112433958
  0
VERTEX
  8
0
 62
7
  6
CONTINUOUS
 10
85.5373066611
 20
170.4505145089
  0
VERTEX
  8
0
 62
7
  6
CONTINUOUS
 10
85.5272620068
 20
170.5691770315
  0
VERTEX
  8
0
 62
7
  6
CONTINUOUS
 10
85.5171726341
 20
170.670220419
  0
VERTEX
  8
0
 62
7
  6
CONTINUOUS
 10
85.5066624314
 20
170.7581194249
  0
VERTEX
  8
0
 62
7
  6
CONTINUOUS
 10
85.4949655827
 20
170.8381994388
  0
VERTEX
  8
0
 62
7
  6
CONTINUOUS
 10
85.4806675163
 20
170.916313571
  0
VERTEX
  8
0
 62
7
  6
CONTINUOUS
 10
85.4605820449
 20
171.001133068
  0
VERTEX
  8
0
 62
7
  6
CONTINUOUS
 10
85.4269225213
 20
171.1063832309
  0
VERTEX
  8
0
 62
7
  6
CONTINUOUS
 10
85.3670480162
 20
171.2390806734
  0
VERTEX
  8
0
 62
7
  6
CONTINUOUS
 10
85.2721870888
 20
171.38509796
  0
VERTEX
  8
0
 62
7
  6
CONTINUOUS
 10
85.12953461
 20
171.5344564177
  0
VERTEX
  8
0
 62
7
  6
CONTINUOUS
 10
84.9262116514
 20
171.6692247984
  0
VERTEX
  8
0
 62
7
  6
CONTINUOUS
 10
84.6797179223
 20
171.7547937819
  0
VERTEX
  8
0
 62
7
  6
CONTINUOUS
 10
84.4759674266
 20
171.7756578938
  0
SEQEND
  0
LINE
  8
0
 62
7
  6
CONTINUOUS
 10
81.5289473684
 20
121.2006578947
 11
81.5289473684
 21
127.2006578947
  0
LINE
  8
0
 62
7
  6
CONTINUOUS
 10
81.5289473684
 20
129.2006578947
 11
81.5289473684
 21
135.2006578947
  0
LINE
  8
0
 62
7
  6
CONTINUOUS
 10
81.5289473684
 20
137.2006578947
 11
81.5289473684
 21
141.1006578947
  0
LINE
  8
0
 62
7
  6
CONTINUOUS
 10
81.5289473684
 20
155.3006578947
 11
81.5289473684
 21
159.2006578947
  0
LINE
  8
0
 62
7
  6
CONTINUOUS
 10
81.6289473684
 20
154.4006578947
 11
81.6289473684
 21
142.0006578947
  0
LINE
  8
0
 62
7
  6
CONTINUOUS
 10
85.7159896493
 20
159.7756578947
 11
85.7159896493
 21
152.9001359789
  0
LINE
  8
0
 62
7
  6
CONTINUOUS
 10
64.8289473684
 20
143.2006578947
 11
68.8289473684
 21
147.2006578947
  0
LINE
  8
0
 62
7
  6
CONTINUOUS
 10
77.6289473684
 20
155.3006578947
 11
81.5289473684
 21
159.2006578947
  0
LINE
  8
0
 62
7
  6
CONTINUOUS
 10
64.8289473684
 20
141.2006578947
 11
68.8289473684
 21
145.2006578947
  0
LINE
  8
0
 62
7
  6
CONTINUOUS
 10
79.6289473684
 20
155.3006578947
 11
81.5289473684
 21
157.2006578947
  0
LINE
  8
0
 62
7
  6
CONTINUOUS
 10
66.8289473684
 20
141.2006578947
 11
68.8289473684
 21
143.2006578947
  0
LINE
  8
0
 62
7
  6
CONTINUOUS
 10
64.8289473684
 20
137.2006578947
 11
66.8289473684
 21
139.2006578947
  0
LINE
  8
0
 62
7
  6
CONTINUOUS
 10
64.8289473684
 20
129.2006578947
 11
66.7289473684
 21
127.3006578947
  0
LINE
  8
0
 62
7
  6
CONTINUOUS
 10
64.8289473684
 20
131.2006578947
 11
68.7289473684
 21
127.3006578947
  0
POLYLINE
  8
0
 62
7
  6
CONTINUOUS
 66
1
 70
0
  0
VERTEX
  8
0
 62
7
  6
CONTINUOUS
 10
86.0419050901
 20
108.6256578947
  0
VERTEX
  8
0
 62
7
  6
CONTINUOUS
 10
86.0429484643
 20
107.6000927602
  0
VERTEX
  8
0
 62
7
  6
CONTINUOUS
 10
86.0459336132
 20
106.6167349192
  0
VERTEX
  8
0
 62
7
  6
CONTINUOUS
 10
86.050509905
 20
105.7037091044
  0
VERTEX
  8
0
 62
7
  6
CONTINUOUS
 10
86.0563812506
 20
104.8593252651
  0
VERTEX
  8
0
 62
7
  6
CONTINUOUS
 10
86.0633053204
 20
104.0803651363
  0
VERTEX
  8
0
 62
7
  6
CONTINUOUS
 10
86.0710848547
 20
103.3631103974
  0
VERTEX
  8
0
 62
7
  6
CONTINUOUS
 10
86.079547819
 20
102.7045717838
  0
VERTEX
  8
0
 62
7
  6
CONTINUOUS
 10
86.0885503614
 20
102.1015080854
  0
VERTEX
  8
0
 62
7
  6
CONTINUOUS
 10
86.0979737628
 20
101.5505356297
  0
VERTEX
  8
0
 62
7
  6
CONTINUOUS
 10
86.1077145333
 20
101.0485756549
  0
VERTEX
  8
0
 62
7
  6
CONTINUOUS
 10
86.1176874374
 20
100.592509876
  0
VERTEX
  8
0
 62
7
  6
CONTINUOUS
 10
86.1278252135
 20
100.1791871787
  0
VERTEX
  8
0
 62
7
  6
CONTINUOUS
 10
86.1380756563
 20
99.8055514915
  0
VERTEX
  8
0
 62
7
  6
CONTINUOUS
 10
86.1484004476
 20
99.4686737616
  0
VERTEX
  8
0
 62
7
  6
CONTINUOUS
 10
86.1587752539
 20
99.1657515261
  0
VERTEX
  8
0
 62
7
  6
CONTINUOUS
 10
86.1691872833
 20
98.8941912785
  0
VERTEX
  8
0
 62
7
  6
CONTINUOUS
 10
86.1796036482
 20
98.6522953875
  0
VERTEX
  8
0
 62
7
  6
CONTINUOUS
 10
86.1899762351
 20
98.4387748266
  0
VERTEX
  8
0
 62
7
  6
CONTINUOUS
 10
86.2002700503
 20
98.2520193378
  0
VERTEX
  8
0
 62
7
  6
CONTINUOUS
 10
86.2104716789
 20
98.0900723937
  0
VERTEX
  8
0
 62
7
  6
CONTINUOUS
 10
86.2205880757
 20
97.9508012806
  0
VERTEX
  8
0
 62
7
  6
CONTINUOUS
 10
86.23063273
 20
97.832138758
  0
VERTEX
  8
0
 62
7
  6
CONTINUOUS
 10
86.2407221028
 20
97.7310953705
  0
VERTEX
  8
0
 62
7
  6
CONTINUOUS
 10
86.2512323054
 20
97.6431963646
  0
VERTEX
  8
0
 62
7
  6
CONTINUOUS
 10
86.2629291542
 20
97.5631163506
  0
VERTEX
  8
0
 62
7
  6
CONTINUOUS
 10
86.2772272205
 20
97.4850022185
  0
VERTEX
  8
0
 62
7
  6
CONTINUOUS
 10
86.297312692
 20
97.4001827215
  0
VERTEX
  8
0
 62
7
  6
CONTINUOUS
 10
86.3309722155
 20
97.2949325585
  0
VERTEX
  8
0
 62
7
  6
CONTINUOUS
 10
86.3908467206
 20
97.162235116
  0
VERTEX
  8
0
 62
7
  6
CONTINUOUS
 10
86.485707648
 20
97.0162178295
  0
VERTEX
  8
0
 62
7
  6
CONTINUOUS
 10
86.6283601269
 20
96.8668593718
  0
VERTEX
  8
0
 62
7
  6
CONTINUOUS
 10
86.8316830855
 20
96.7320909911
  0
VERTEX
  8
0
 62
7
  6
CONTINUOUS
 10
87.0781768145
 20
96.6465220075
  0
VERTEX
  8
0
 62
7
  6
CONTINUOUS
 10
87.2819273102
 20
96.6256578956
  0
SEQEND
  0
LINE
  8
0
 62
7
  6
CONTINUOUS
 10
86.0419050875
 20
108.6256578947
 11
86.0419050875
 21
115.5011796572
  0
LINE
  8
0
 62
7
  6
CONTINUOUS
 10
90.1289473684
 20
114.0006578947
 11
90.1289473684
 21
126.4006578947
  0
LINE
  8
0
 62
7
  6
CONTINUOUS
 10
90.2289473684
 20
109.2006578947
 11
90.2289473684
 21
113.1006578947
  0
LINE
  8
0
 62
7
  6
CONTINUOUS
 10
90.2289473684
 20
127.3006578947
 11
90.2289473684
 21
131.2006578947
  0
LINE
  8
0
 62
7
  6
CONTINUOUS
 10
90.2289473684
 20
133.2006578947
 11
90.2289473684
 21
139.2006578947
  0
LINE
  8
0
 62
7
  6
CONTINUOUS
 10
90.2289473684
 20
141.2006578947
 11
90.2289473684
 21
147.2006578947
  0
LINE
  8
0
 62
7
  6
CONTINUOUS
 10
64.8289473684
 20
135.2006578947
 11
68.8289473684
 21
139.2006578947
  0
LINE
  8
0
 62
7
  6
CONTINUOUS
 10
64.8289473684
 20
133.2006578947
 11
68.8289473684
 21
137.2006578947
  0
LINE
  8
0
 62
7
  6
CONTINUOUS
 10
66.8289473684
 20
133.2006578947
 11
68.8289473684
 21
135.2006578947
  0
LINE
  8
0
 62
7
  6
CONTINUOUS
 10
64.8289473684
 20
129.2006578947
 11
66.8289473684
 21
131.2006578947
  0
LINE
  8
0
 62
7
  6
CONTINUOUS
 10
64.9289473684
 20
127.3006578947
 11
68.8289473684
 21
131.2006578947
  0
LINE
  8
0
 62
7
  6
CONTINUOUS
 10
66.8289473684
 20
131.2006578947
 11
68.8289473684
 21
129.2006578947
  0
LINE
  8
0
 62
7
  6
CONTINUOUS
 10
64.8289473684
 20
135.2006578947
 11
66.8289473684
 21
133.2006578947
  0
LINE
  8
0
 62
7
  6
CONTINUOUS
 10
77.5289473684
 20
123.2006578947
 11
79.5289473684
 21
121.2006578947
  0
LINE
  8
0
 62
7
  6
CONTINUOUS
 10
90.2289473684
 20
111.2006578947
 11
92.2289473684
 21
109.2006578947
  0
LINE
  8
0
 62
7
  6
CONTINUOUS
 10
64.8289473684
 20
137.2006578947
 11
68.8289473684
 21
133.2006578947
  0
LINE
  8
0
 62
7
  6
CONTINUOUS
 10
77.5289473684
 20
125.2006578947
 11
81.5289473684
 21
121.2006578947
  0
LINE
  8
0
 62
7
  6
CONTINUOUS
 10
90.3289473684
 20
113.1006578947
 11
94.2289473684
 21
109.2006578947
  0
LINE
  8
0
 62
7
  6
CONTINUOUS
 10
64.8289473684
 20
139.2006578947
 11
68.8289473684
 21
135.2006578947
  0
LINE
  8
0
 62
7
  6
CONTINUOUS
 10
77.5289473684
 20
127.2006578947
 11
81.5289473684
 21
123.2006578947
  0
LINE
  8
0
 62
7
  6
CONTINUOUS
 10
92.3289473684
 20
113.1006578947
 11
94.2289473684
 21
111.2006578947
  0
LINE
  8
0
 62
7
  6
CONTINUOUS
 10
66.8289473684
 20
139.2006578947
 11
68.8289473684
 21
137.2006578947
  0
LINE
  8
0
 62
7
  6
CONTINUOUS
 10
92.2289473684
 20
109.2006578947
 11
92.2289473684
 21
113.1006578947
  0
LINE
  8
0
 62
7
  6
CONTINUOUS
 10
92.2289473684
 20
127.3006578947
 11
92.2289473684
 21
131.2006578947
  0
LINE
  8
0
 62
7
  6
CONTINUOUS
 10
92.2289473684
 20
133.2006578947
 11
92.2289473684
 21
139.2006578947
  0
LINE
  8
0
 62
7
  6
CONTINUOUS
 10
92.2289473684
 20
141.2006578947
 11
92.2289473684
 21
147.2006578947
  0
LINE
  8
0
 62
7
  6
CONTINUOUS
 10
94.2289473684
 20
109.2006578947
 11
94.2289473684
 21
113.1006578947
  0
LINE
  8
0
 62
7
  6
CONTINUOUS
 10
94.2289473684
 20
127.3006578947
 11
94.2289473684
 21
131.2006578947
  0
LINE
  8
0
 62
7
  6
CONTINUOUS
 10
94.2289473684
 20
133.2006578947
 11
94.2289473684
 21
139.2006578947
  0
LINE
  8
0
 62
7
  6
CONTINUOUS
 10
94.2289473684
 20
141.2006578947
 11
94.2289473684
 21
147.2006578947
  0
LINE
  8
0
 62
7
  6
CONTINUOUS
 10
94.3289473684
 20
126.4006578947
 11
94.3289473684
 21
114.0006578947
  0
POLYLINE
  8
0
 62
7
  6
CONTINUOUS
 66
1
 70
0
  0
VERTEX
  8
0
 62
7
  6
CONTINUOUS
 10
98.7419035795
 20
152.9001359683
  0
VERTEX
  8
0
 62
7
  6
CONTINUOUS
 10
98.7172577519
 20
152.6794246117
  0
VERTEX
  8
0
 62
7
  6
CONTINUOUS
 10
98.6320833774
 20
152.4443809434
  0
VERTEX
  8
0
 62
7
  6
CONTINUOUS
 10
98.4908323083
 20
152.2372473934
  0
VERTEX
  8
0
 62
7
  6
CONTINUOUS
 10
98.3045208101
 20
152.0730593502
  0
VERTEX
  8
0
 62
7
  6
CONTINUOUS
 10
98.0586719519
 20
151.9510284699
  0
VERTEX
  8
0
 62
7
  6
CONTINUOUS
 10
97.7978836158
 20
151.8977535096
  0
SEQEND
  0
LINE
  8
0
 62
7
  6
CONTINUOUS
 10
77.5289473684
 20
139.2006578947
 11
79.4289473684
 21
141.1006578947
  0
LINE
  8
0
 62
7
  6
CONTINUOUS
 10
66.9289473684
 20
127.3006578947
 11
68.8289473684
 21
129.2006578947
  0
LINE
  8
0
 62
7
  6
CONTINUOUS
 10
77.5289473684
 20
137.2006578947
 11
81.4289473684
 21
141.1006578947
  0
LINE
  8
0
 62
7
  6
CONTINUOUS
 10
79.5289473684
 20
137.2006578947
 11
81.5289473684
 21
139.2006578947
  0
LINE
  8
0
 62
7
  6
CONTINUOUS
 10
77.5289473684
 20
133.2006578947
 11
79.5289473684
 21
135.2006578947
  0
LINE
  8
0
 62
7
  6
CONTINUOUS
 10
90.2289473684
 20
145.2006578947
 11
92.2289473684
 21
147.2006578947
  0
LINE
  8
0
 62
7
  6
CONTINUOUS
 10
64.8289473684
 20
119.2006578947
 11
66.7289473684
 21
121.1006578947
  0
LINE
  8
0
 62
7
  6
CONTINUOUS
 10
102.9289473684
 20
157.2006578947
 11
104.9289473684
 21
159.2006578947
  0
LINE
  8
0
 62
7
  6
CONTINUOUS
 10
77.5289473684
 20
131.2006578947
 11
81.5289473684
 21
135.2006578947
  0
POLYLINE
  8
0
 62
7
  6
CONTINUOUS
 66
1
 70
0
  0
VERTEX
  8
0
 62
7
  6
CONTINUOUS
 10
198.775967378
 20
96.6256578956
  0
VERTEX
  8
0
 62
7
  6
CONTINUOUS
 10
198.9829345434
 20
96.6471932031
  0
VERTEX
  8
0
 62
7
  6
CONTINUOUS
 10
199.2306982789
 20
96.7343508748
  0
VERTEX
  8
0
 62
7
  6
CONTINUOUS
 10
199.4358167582
 20
96.8722644475
  0
VERTEX
  8
0
 62
7
  6
CONTINUOUS
 10
199.5807015315
 20
97.0273258243
  0
VERTEX
  8
0
 62
7
  6
CONTINUOUS
 10
199.6721350589
 20
97.1718421837
  0
VERTEX
  8
0
 62
7
  6
CONTINUOUS
 10
199.7272566211
 20
97.2958293825
  0
VERTEX
  8
0
 62
7
  6
CONTINUOUS
 10
199.7599832259
 20
97.3979765366
  0
VERTEX
  8
0
 62
7
  6
CONTINUOUS
 10
199.7801608811
 20
97.4825530563
  0
VERTEX
  8
0
 62
7
  6
CONTINUOUS
 10
199.7942386862
 20
97.5586715378
  0
VERTEX
  8
0
 62
7
  6
CONTINUOUS
 10
199.8054182011
 20
97.6338508563
  0
VERTEX
  8
0
 62
7
  6
CONTINUOUS
 10
199.8152637148
 20
97.7138802124
  0
VERTEX
  8
0
 62
7
  6
CONTINUOUS
 10
199.8245073179
 20
97.8028162467
  0
VERTEX
  8
0
 62
7
  6
CONTINUOUS
 10
199.8335067756
 20
97.9036900896
  0
VERTEX
  8
0
 62
7
  6
CONTINUOUS
 10
199.8424744032
 20
98.0193778838
  0
VERTEX
  8
0
 62
7
  6
CONTINUOUS
 10
199.8515379424
 20
98.1527169419
  0
VERTEX
  8
0
 62
7
  6
CONTINUOUS
 10
199.8607521901
 20
98.3062108494
  0
VERTEX
  8
0
 62
7
  6
CONTINUOUS
 10
199.8701145386
 20
98.4817995054
  0
VERTEX
  8
0
 62
7
  6
CONTINUOUS
 10
199.8796025323
 20
98.6811932337
  0
VERTEX
  8
0
 62
7
  6
CONTINUOUS
 10
199.8891825434
 20
98.905915629
  0
VERTEX
  8
0
 62
7
  6
CONTINUOUS
 10
199.8988427792
 20
99.1581277148
  0
VERTEX
  8
0
 62
7
  6
CONTINUOUS
 10
199.908589278
 20
99.4408837394
  0
VERTEX
  8
0
 62
7
  6
CONTINUOUS
 10
199.918415242
 20
99.7575263545
  0
VERTEX
  8
0
 62
7
  6
CONTINUOUS
 10
199.9283021698
 20
100.1117606464
  0
VERTEX
  8
0
 62
7
  6
CONTINUOUS
 10
199.9382218952
 20
100.5078259074
  0
VERTEX
  8
0
 62
7
  6
CONTINUOUS
 10
199.9481273225
 20
100.950268325
  0
VERTEX
  8
0
 62
7
  6
CONTINUOUS
 10
199.9579416908
 20
101.4434624444
  0
VERTEX
  8
0
 62
7
  6
CONTINUOUS
 10
199.9675524006
 20
101.9910526862
  0
VERTEX
  8
0
 62
7
  6
CONTINUOUS
 10
199.9768238221
 20
102.5963228417
  0
VERTEX
  8
0
 62
7
  6
CONTINUOUS
 10
199.9855961252
 20
103.2619750884
  0
VERTEX
  8
0
 62
7
  6
CONTINUOUS
 10
199.9936861473
 20
103.989982972
  0
VERTEX
  8
0
 62
7
  6
CONTINUOUS
 10
200.0008917567
 20
104.7818548642
  0
VERTEX
  8
0
 62
7
  6
CONTINUOUS
 10
200.0070055521
 20
105.641203618
  0
VERTEX
  8
0
 62
7
  6
CONTINUOUS
 10
200.0117783464
 20
106.5720591199
  0
VERTEX
  8
0
 62
7
  6
CONTINUOUS
 10
200.0148984019
 20
107.5768822597
  0
VERTEX
  8
0
 62
7
  6
CONTINUOUS
 10
200.0159896467
 20
108.6256578947
  0
SEQEND
  0
LINE
  8
0
 62
7
  6
CONTINUOUS
 10
79.5289473684
 20
127.2006578947
 11
81.5289473684
 21
125.2006578947
  0
LINE
  8
0
 62
7
  6
CONTINUOUS
 10
64.8289473684
 20
143.2006578947
 11
66.8289473684
 21
141.2006578947
  0
LINE
  8
0
 62
7
  6
CONTINUOUS
 10
77.5289473684
 20
131.2006578947
 11
79.5289473684
 21
129.2006578947
  0
LINE
  8
0
 62
7
  6
CONTINUOUS
 10
64.8289473684
 20
145.2006578947
 11
68.8289473684
 21
141.2006578947
  0
LINE
  8
0
 62
7
  6
CONTINUOUS
 10
77.5289473684
 20
133.2006578947
 11
81.5289473684
 21
129.2006578947
  0
LINE
  8
0
 62
7
  6
CONTINUOUS
 10
64.8289473684
 20
147.2006578947
 11
68.8289473684
 21
143.2006578947
  0
LINE
  8
0
 62
7
  6
CONTINUOUS
 10
77.5289473684
 20
135.2006578947
 11
81.5289473684
 21
131.2006578947
  0
LINE
  8
0
 62
7
  6
CONTINUOUS
 10
66.8289473684
 20
147.2006578947
 11
68.8289473684
 21
145.2006578947
  0
LINE
  8
0
 62
7
  6
CONTINUOUS
 10
79.5289473684
 20
135.2006578947
 11
81.5289473684
 21
133.2006578947
  0
LINE
  8
0
 62
7
  6
CONTINUOUS
 10
98.4159896493
 20
115.5011796918
 11
98.4159896493
 21
108.6256578947
  0
LINE
  8
0
 62
7
  6
CONTINUOUS
 10
98.7419050875
 20
152.9001359683
 11
98.7419050875
 21
159.7756578947
  0
LINE
  8
0
 62
7
  6
CONTINUOUS
 10
102.8289473684
 20
142.0006578947
 11
102.8289473684
 21
154.4006578947
  0
LINE
  8
0
 62
7
  6
CONTINUOUS
 10
102.9289473684
 20
121.2006578947
 11
102.9289473684
 21
127.2006578947
  0
LINE
  8
0
 62
7
  6
CONTINUOUS
 10
102.9289473684
 20
129.2006578947
 11
102.9289473684
 21
135.2006578947
  0
LINE
  8
0
 62
7
  6
CONTINUOUS
 10
102.9289473684
 20
137.2006578947
 11
102.9289473684
 21
141.1006578947
  0
LINE
  8
0
 62
7
  6
CONTINUOUS
 10
102.9289473684
 20
155.3006578947
 11
102.9289473684
 21
159.2006578947
  0
POLYLINE
  8
0
 62
7
  6
CONTINUOUS
 66
1
 70
0
  0
VERTEX
  8
0
 62
7
  6
CONTINUOUS
 10
98.4159910447
 20
115.5011796918
  0
VERTEX
  8
0
 62
7
  6
CONTINUOUS
 10
98.4406224763
 20
115.7218277871
  0
VERTEX
  8
0
 62
7
  6
CONTINUOUS
 10
98.525751482
 20
115.9568180066
  0
VERTEX
  8
0
 62
7
  6
CONTINUOUS
 10
98.6669667001
 20
116.1639599136
  0
VERTEX
  8
0
 62
7
  6
CONTINUOUS
 10
98.8532623707
 20
116.3281804312
  0
VERTEX
  8
0
 62
7
  6
CONTINUOUS
 10
99.0985434238
 20
116.4500592638
  0
VERTEX
  8
0
 62
7
  6
CONTINUOUS
 10
99.3599953029
 20
116.5035597526
  0
SEQEND
  0
LINE
  8
0
 62
7
  6
CONTINUOUS
 10
90.2289473684
 20
143.2006578947
 11
94.2289473684
 21
147.2006578947
  0
LINE
  8
0
 62
7
  6
CONTINUOUS
 10
64.8289473684
 20
117.2006578947
 11
68.7289473684
 21
121.1006578947
  0
LINE
  8
0
 62
7
  6
CONTINUOUS
 10
103.0289473684
 20
155.3006578947
 11
106.9289473684
 21
159.2006578947
  0
LINE
  8
0
 62
7
  6
CONTINUOUS
 10
77.5289473684
 20
129.2006578947
 11
81.5289473684
 21
133.2006578947
  0
LINE
  8
0
 62
7
  6
CONTINUOUS
 10
90.2289473684
 20
141.2006578947
 11
94.2289473684
 21
145.2006578947
  0
LINE
  8
0
 62
7
  6
CONTINUOUS
 10
66.8289473684
 20
117.2006578947
 11
68.8289473684
 21
119.2006578947
  0
LINE
  8
0
 62
7
  6
CONTINUOUS
 10
105.0289473684
 20
155.3006578947
 11
106.9289473684
 21
157.2006578947
  0
LINE
  8
0
 62
7
  6
CONTINUOUS
 10
79.5289473684
 20
129.2006578947
 11
81.5289473684
 21
131.2006578947
  0
LINE
  8
0
 62
7
  6
CONTINUOUS
 10
92.2289473684
 20
141.2006578947
 11
94.2289473684
 21
143.2006578947
  0
LINE
  8
0
 62
7
  6
CONTINUOUS
 10
64.8289473684
 20
113.2006578947
 11
66.8289473684
 21
115.2006578947
  0
LINE
  8
0
 62
7
  6
CONTINUOUS
 10
77.5289473684
 20
125.2006578947
 11
79.5289473684
 21
127.2006578947
  0
LINE
  8
0
 62
7
  6
CONTINUOUS
 10
90.2289473684
 20
137.2006578947
 11
92.2289473684
 21
139.2006578947
  0
LINE
  8
0
 62
7
  6
CONTINUOUS
 10
64.8289473684
 20
111.2006578947
 11
68.8289473684
 21
115.2006578947
  0
LINE
  8
0
 62
7
  6
CONTINUOUS
 10
77.5289473684
 20
123.2006578947
 11
81.5289473684
 21
127.2006578947
  0
LINE
  8
0
 62
7
  6
CONTINUOUS
 10
90.2289473684
 20
135.2006578947
 11
94.2289473684
 21
139.2006578947
  0
POLYLINE
  8
0
 62
7
  6
CONTINUOUS
 66
1
 70
0
  0
VERTEX
  8
0
 62
7
  6
CONTINUOUS
 10
173.375967378
 20
96.6256578956
  0
VERTEX
  8
0
 62
7
  6
CONTINUOUS
 10
173.5829345434
 20
96.6471932031
  0
VERTEX
  8
0
 62
7
  6
CONTINUOUS
 10
173.8306982789
 20
96.7343508748
  0
VERTEX
  8
0
 62
7
  6
CONTINUOUS
 10
174.0358167582
 20
96.8722644475
  0
VERTEX
  8
0
 62
7
  6
CONTINUOUS
 10
174.1807015315
 20
97.0273258243
  0
VERTEX
  8
0
 62
7
  6
CONTINUOUS
 10
174.2721350589
 20
97.1718421837
  0
VERTEX
  8
0
 62
7
  6
CONTINUOUS
 10
174.3272566211
 20
97.2958293825
  0
VERTEX
  8
0
 62
7
  6
CONTINUOUS
 10
174.3599832259
 20
97.3979765366
  0
VERTEX
  8
0
 62
7
  6
CONTINUOUS
 10
174.3801608811
 20
97.4825530563
  0
VERTEX
  8
0
 62
7
  6
CONTINUOUS
 10
174.3942386862
 20
97.5586715378
  0
VERTEX
  8
0
 62
7
  6
CONTINUOUS
 10
174.4054182011
 20
97.6338508563
  0
VERTEX
  8
0
 62
7
  6
CONTINUOUS
 10
174.4152637148
 20
97.7138802124
  0
VERTEX
  8
0
 62
7
  6
CONTINUOUS
 10
174.4245073179
 20
97.8028162467
  0
VERTEX
  8
0
 62
7
  6
CONTINUOUS
 10
174.4335067756
 20
97.9036900896
  0
VERTEX
  8
0
 62
7
  6
CONTINUOUS
 10
174.4424744032
 20
98.0193778838
  0
VERTEX
  8
0
 62
7
  6
CONTINUOUS
 10
174.4515379424
 20
98.1527169419
  0
VERTEX
  8
0
 62
7
  6
CONTINUOUS
 10
174.4607521901
 20
98.3062108494
  0
VERTEX
  8
0
 62
7
  6
CONTINUOUS
 10
174.4701145386
 20
98.4817995054
  0
VERTEX
  8
0
 62
7
  6
CONTINUOUS
 10
174.4796025323
 20
98.6811932337
  0
VERTEX
  8
0
 62
7
  6
CONTINUOUS
 10
174.4891825434
 20
98.905915629
  0
VERTEX
  8
0
 62
7
  6
CONTINUOUS
 10
174.4988427792
 20
99.1581277148
  0
VERTEX
  8
0
 62
7
  6
CONTINUOUS
 10
174.508589278
 20
99.4408837394
  0
VERTEX
  8
0
 62
7
  6
CONTINUOUS
 10
174.518415242
 20
99.7575263545
  0
VERTEX
  8
0
 62
7
  6
CONTINUOUS
 10
174.5283021698
 20
100.1117606464
  0
VERTEX
  8
0
 62
7
  6
CONTINUOUS
 10
174.5382218952
 20
100.5078259074
  0
VERTEX
  8
0
 62
7
  6
CONTINUOUS
 10
174.5481273226
 20
100.950268325
  0
VERTEX
  8
0
 62
7
  6
CONTINUOUS
 10
174.5579416908
 20
101.4434624444
  0
VERTEX
  8
0
 62
7
  6
CONTINUOUS
 10
174.5675524006
 20
101.9910526862
  0
VERTEX
  8
0
 62
7
  6
CONTINUOUS
 10
174.5768238221
 20
102.5963228417
  0
VERTEX
  8
0
 62
7
  6
CONTINUOUS
 10
174.5855961252
 20
103.2619750884
  0
VERTEX
  8
0
 62
7
  6
CONTINUOUS
 10
174.5936861473
 20
103.989982972
  0
VERTEX
  8
0
 62
7
  6
CONTINUOUS
 10
174.6008917567
 20
104.7818548642
  0
VERTEX
  8
0
 62
7
  6
CONTINUOUS
 10
174.6070055521
 20
105.641203618
  0
VERTEX
  8
0
 62
7
  6
CONTINUOUS
 10
174.6117783464
 20
106.5720591199
  0
VERTEX
  8
0
 62
7
  6
CONTINUOUS
 10
174.6148984019
 20
107.5768822597
  0
VERTEX
  8
0
 62
7
  6
CONTINUOUS
 10
174.6159896467
 20
108.6256578947
  0
SEQEND
  0
POLYLINE
  8
0
 62
7
  6
CONTINUOUS
 66
1
 70
0
  0
VERTEX
  8
0
 62
7
  6
CONTINUOUS
 10
147.975967378
 20
96.6256578956
  0
VERTEX
  8
0
 62
7
  6
CONTINUOUS
 10
148.1829345434
 20
96.6471932031
  0
VERTEX
  8
0
 62
7
  6
CONTINUOUS
 10
148.4306982789
 20
96.7343508748
  0
VERTEX
  8
0
 62
7
  6
CONTINUOUS
 10
148.6358167582
 20
96.8722644475
  0
VERTEX
  8
0
 62
7
  6
CONTINUOUS
 10
148.7807015315
 20
97.0273258243
  0
VERTEX
  8
0
 62
7
  6
CONTINUOUS
 10
148.8721350589
 20
97.1718421837
  0
VERTEX
  8
0
 62
7
  6
CONTINUOUS
 10
148.9272566211
 20
97.2958293825
  0
VERTEX
  8
0
 62
7
  6
CONTINUOUS
 10
148.9599832259
 20
97.3979765366
  0
VERTEX
  8
0
 62
7
  6
CONTINUOUS
 10
148.9801608811
 20
97.4825530563
  0
VERTEX
  8
0
 62
7
  6
CONTINUOUS
 10
148.9942386862
 20
97.5586715378
  0
VERTEX
  8
0
 62
7
  6
CONTINUOUS
 10
149.0054182011
 20
97.6338508563
  0
VERTEX
  8
0
 62
7
  6
CONTINUOUS
 10
149.0152637148
 20
97.7138802124
  0
VERTEX
  8
0
 62
7
  6
CONTINUOUS
 10
149.0245073179
 20
97.8028162467
  0
VERTEX
  8
0
 62
7
  6
CONTINUOUS
 10
149.0335067756
 20
97.9036900896
  0
VERTEX
  8
0
 62
7
  6
CONTINUOUS
 10
149.0424744032
 20
98.0193778838
  0
VERTEX
  8
0
 62
7
  6
CONTINUOUS
 10
149.0515379424
 20
98.1527169419
  0
VERTEX
  8
0
 62
7
  6
CONTINUOUS
 10
149.0607521901
 20
98.3062108494
  0
VERTEX
  8
0
 62
7
  6
CONTINUOUS
 10
149.0701145386
 20
98.4817995054
  0
VERTEX
  8
0
 62
7
  6
CONTINUOUS
 10
149.0796025323
 20
98.6811932337
  0
VERTEX
  8
0
 62
7
  6
CONTINUOUS
 10
149.0891825434
 20
98.9059156291
  0
VERTEX
  8
0
 62
7
  6
CONTINUOUS
 10
149.0988427792
 20
99.1581277148
  0
VERTEX
  8
0
 62
7
  6
CONTINUOUS
 10
149.108589278
 20
99.4408837394
  0
VERTEX
  8
0
 62
7
  6
CONTINUOUS
 10
149.118415242
 20
99.7575263545
  0
VERTEX
  8
0
 62
7
  6
CONTINUOUS
 10
149.1283021698
 20
100.1117606465
  0
VERTEX
  8
0
 62
7
  6
CONTINUOUS
 10
149.1382218952
 20
100.5078259074
  0
VERTEX
  8
0
 62
7
  6
CONTINUOUS
 10
149.1481273226
 20
100.950268325
  0
VERTEX
  8
0
 62
7
  6
CONTINUOUS
 10
149.1579416908
 20
101.4434624444
  0
VERTEX
  8
0
 62
7
  6
CONTINUOUS
 10
149.1675524006
 20
101.9910526862
  0
VERTEX
  8
0
 62
7
  6
CONTINUOUS
 10
149.1768238221
 20
102.5963228417
  0
VERTEX
  8
0
 62
7
  6
CONTINUOUS
 10
149.1855961252
 20
103.2619750884
  0
VERTEX
  8
0
 62
7
  6
CONTINUOUS
 10
149.1936861473
 20
103.989982972
  0
VERTEX
  8
0
 62
7
  6
CONTINUOUS
 10
149.2008917567
 20
104.7818548642
  0
VERTEX
  8
0
 62
7
  6
CONTINUOUS
 10
149.2070055521
 20
105.641203618
  0
VERTEX
  8
0
 62
7
  6
CONTINUOUS
 10
149.2117783464
 20
106.5720591199
  0
VERTEX
  8
0
 62
7
  6
CONTINUOUS
 10
149.2148984019
 20
107.5768822597
  0
VERTEX
  8
0
 62
7
  6
CONTINUOUS
 10
149.2159896467
 20
108.6256578947
  0
SEQEND
  0
LINE
  8
SURF
 62
7
  6
CONTINUOUS
 10
198.7759687959
 20
96.6256578947
 11
188.881925941
 21
96.6256578947
  0
LINE
  8
SURF
 62
7
  6
CONTINUOUS
 10
173.3759687959
 20
96.6256578947
 11
163.481925941
 21
96.6256578947
  0
LINE
  8
SURF
 62
7
  6
CONTINUOUS
 10
147.9759687959
 20
96.6256578947
 11
138.081925941
 21
96.6256578947
  0
LINE
  8
SURF
 62
7
  6
CONTINUOUS
 10
122.5759687959
 20
96.6256578947
 11
112.681925941
 21
96.6256578947
  0
LINE
  8
SURF
 62
7
  6
CONTINUOUS
 10
97.1759687959
 20
96.6256578947
 11
87.281925941
 21
96.6256578947
  0
LINE
  8
SURF
 62
7
  6
CONTINUOUS
 10
71.7759687959
 20
96.6256578947
 11
61.6789473684
 21
96.6256578947
  0
LINE
  8
0
 62
7
  6
CONTINUOUS
 10
77.5289473684
 20
139.2006578947
 11
79.5289473684
 21
137.2006578947
  0
LINE
  8
0
 62
7
  6
CONTINUOUS
 10
77.6289473684
 20
141.1006578947
 11
81.5289473684
 21
137.2006578947
  0
LINE
  8
0
 62
7
  6
CONTINUOUS
 10
90.2289473684
 20
129.2006578947
 11
92.1289473684
 21
127.3006578947
  0
LINE
  8
0
 62
7
  6
CONTINUOUS
 10
79.6289473684
 20
141.1006578947
 11
81.5289473684
 21
139.2006578947
  0
LINE
  8
0
 62
7
  6
CONTINUOUS
 10
90.2289473684
 20
131.2006578947
 11
94.1289473684
 21
127.3006578947
  0
LINE
  8
0
 62
7
  6
CONTINUOUS
 10
92.2289473684
 20
131.2006578947
 11
94.2289473684
 21
129.2006578947
  0
LINE
  8
0
 62
7
  6
CONTINUOUS
 10
104.9289473684
 20
121.2006578947
 11
104.9289473684
 21
127.2006578947
  0
LINE
  8
0
 62
7
  6
CONTINUOUS
 10
104.9289473684
 20
129.2006578947
 11
104.9289473684
 21
135.2006578947
  0
LINE
  8
0
 62
7
  6
CONTINUOUS
 10
104.9289473684
 20
137.2006578947
 11
104.9289473684
 21
141.1006578947
  0
LINE
  8
0
 62
7
  6
CONTINUOUS
 10
104.9289473684
 20
155.3006578947
 11
104.9289473684
 21
159.2006578947
  0
LINE
  8
0
 62
7
  6
CONTINUOUS
 10
106.9289473684
 20
121.2006578947
 11
106.9289473684
 21
127.2006578947
  0
LINE
  8
0
 62
7
  6
CONTINUOUS
 10
106.9289473684
 20
129.2006578947
 11
106.9289473684
 21
135.2006578947
  0
LINE
  8
0
 62
7
  6
CONTINUOUS
 10
106.9289473684
 20
137.2006578947
 11
106.9289473684
 21
141.1006578947
  0
LINE
  8
0
 62
7
  6
CONTINUOUS
 10
106.9289473684
 20
155.3006578947
 11
106.9289473684
 21
159.2006578947
  0
LINE
  8
0
 62
7
  6
CONTINUOUS
 10
107.0289473684
 20
154.4006578947
 11
107.0289473684
 21
142.0006578947
  0
LINE
  8
0
 62
7
  6
CONTINUOUS
 10
64.8289473684
 20
109.2006578947
 11
68.8289473684
 21
113.2006578947
  0
LINE
  8
0
 62
7
  6
CONTINUOUS
 10
77.5289473684
 20
121.2006578947
 11
81.5289473684
 21
125.2006578947
  0
LINE
  8
0
 62
7
  6
CONTINUOUS
 10
90.2289473684
 20
133.2006578947
 11
94.2289473684
 21
137.2006578947
  0
LINE
  8
0
 62
7
  6
CONTINUOUS
 10
66.8289473684
 20
109.2006578947
 11
68.8289473684
 21
111.2006578947
  0
LINE
  8
0
 62
7
  6
CONTINUOUS
 10
79.5289473684
 20
121.2006578947
 11
81.5289473684
 21
123.2006578947
  0
LINE
  8
0
 62
7
  6
CONTINUOUS
 10
92.2289473684
 20
133.2006578947
 11
94.2289473684
 21
135.2006578947
  0
LINE
  8
0
 62
7
  6
CONTINUOUS
 10
90.2289473684
 20
129.2006578947
 11
92.2289473684
 21
131.2006578947
  0
LINE
  8
0
 62
7
  6
CONTINUOUS
 10
90.3289473684
 20
127.3006578947
 11
94.2289473684
 21
131.2006578947
  0
POLYLINE
  8
0
 62
7
  6
CONTINUOUS
 66
1
 70
0
  0
VERTEX
  8
0
 62
7
  6
CONTINUOUS
 10
122.575967378
 20
96.6256578956
  0
VERTEX
  8
0
 62
7
  6
CONTINUOUS
 10
122.7829345434
 20
96.6471932031
  0
VERTEX
  8
0
 62
7
  6
CONTINUOUS
 10
123.0306982789
 20
96.7343508748
  0
VERTEX
  8
0
 62
7
  6
CONTINUOUS
 10
123.2358167582
 20
96.8722644475
  0
VERTEX
  8
0
 62
7
  6
CONTINUOUS
 10
123.3807015315
 20
97.0273258243
  0
VERTEX
  8
0
 62
7
  6
CONTINUOUS
 10
123.4721350589
 20
97.1718421837
  0
VERTEX
  8
0
 62
7
  6
CONTINUOUS
 10
123.5272566211
 20
97.2958293825
  0
VERTEX
  8
0
 62
7
  6
CONTINUOUS
 10
123.5599832259
 20
97.3979765366
  0
VERTEX
  8
0
 62
7
  6
CONTINUOUS
 10
123.5801608811
 20
97.4825530563
  0
VERTEX
  8
0
 62
7
  6
CONTINUOUS
 10
123.5942386862
 20
97.5586715378
  0
VERTEX
  8
0
 62
7
  6
CONTINUOUS
 10
123.6054182011
 20
97.6338508563
  0
VERTEX
  8
0
 62
7
  6
CONTINUOUS
 10
123.6152637148
 20
97.7138802124
  0
VERTEX
  8
0
 62
7
  6
CONTINUOUS
 10
123.6245073179
 20
97.8028162467
  0
VERTEX
  8
0
 62
7
  6
CONTINUOUS
 10
123.6335067756
 20
97.9036900896
  0
VERTEX
  8
0
 62
7
  6
CONTINUOUS
 10
123.6424744032
 20
98.0193778838
  0
VERTEX
  8
0
 62
7
  6
CONTINUOUS
 10
123.6515379424
 20
98.1527169419
  0
VERTEX
  8
0
 62
7
  6
CONTINUOUS
 10
123.6607521901
 20
98.3062108494
  0
VERTEX
  8
0
 62
7
  6
CONTINUOUS
 10
123.6701145386
 20
98.4817995054
  0
VERTEX
  8
0
 62
7
  6
CONTINUOUS
 10
123.6796025323
 20
98.6811932337
  0
VERTEX
  8
0
 62
7
  6
CONTINUOUS
 10
123.6891825434
 20
98.905915629
  0
VERTEX
  8
0
 62
7
  6
CONTINUOUS
 10
123.6988427792
 20
99.1581277148
  0
VERTEX
  8
0
 62
7
  6
CONTINUOUS
 10
123.708589278
 20
99.4408837394
  0
VERTEX
  8
0
 62
7
  6
CONTINUOUS
 10
123.718415242
 20
99.7575263545
  0
VERTEX
  8
0
 62
7
  6
CONTINUOUS
 10
123.7283021698
 20
100.1117606464
  0
VERTEX
  8
0
 62
7
  6
CONTINUOUS
 10
123.7382218952
 20
100.5078259074
  0
VERTEX
  8
0
 62
7
  6
CONTINUOUS
 10
123.7481273225
 20
100.950268325
  0
VERTEX
  8
0
 62
7
  6
CONTINUOUS
 10
123.7579416908
 20
101.4434624444
  0
VERTEX
  8
0
 62
7
  6
CONTINUOUS
 10
123.7675524006
 20
101.9910526862
  0
VERTEX
  8
0
 62
7
  6
CONTINUOUS
 10
123.7768238221
 20
102.5963228417
  0
VERTEX
  8
0
 62
7
  6
CONTINUOUS
 10
123.7855961252
 20
103.2619750884
  0
VERTEX
  8
0
 62
7
  6
CONTINUOUS
 10
123.7936861473
 20
103.989982972
  0
VERTEX
  8
0
 62
7
  6
CONTINUOUS
 10
123.8008917567
 20
104.7818548642
  0
VERTEX
  8
0
 62
7
  6
CONTINUOUS
 10
123.8070055521
 20
105.641203618
  0
VERTEX
  8
0
 62
7
  6
CONTINUOUS
 10
123.8117783464
 20
106.5720591199
  0
VERTEX
  8
0
 62
7
  6
CONTINUOUS
 10
123.8148984019
 20
107.5768822597
  0
VERTEX
  8
0
 62
7
  6
CONTINUOUS
 10
123.8159896467
 20
108.6256578947
  0
SEQEND
  0
POLYLINE
  8
0
 62
7
  6
CONTINUOUS
 66
1
 70
0
  0
VERTEX
  8
0
 62
7
  6
CONTINUOUS
 10
97.175967378
 20
96.6256578956
  0
VERTEX
  8
0
 62
7
  6
CONTINUOUS
 10
97.3829345434
 20
96.6471932031
  0
VERTEX
  8
0
 62
7
  6
CONTINUOUS
 10
97.6306982789
 20
96.7343508748
  0
VERTEX
  8
0
 62
7
  6
CONTINUOUS
 10
97.8358167582
 20
96.8722644475
  0
VERTEX
  8
0
 62
7
  6
CONTINUOUS
 10
97.9807015315
 20
97.0273258243
  0
VERTEX
  8
0
 62
7
  6
CONTINUOUS
 10
98.0721350589
 20
97.1718421837
  0
VERTEX
  8
0
 62
7
  6
CONTINUOUS
 10
98.1272566211
 20
97.2958293825
  0
VERTEX
  8
0
 62
7
  6
CONTINUOUS
 10
98.1599832259
 20
97.3979765366
  0
VERTEX
  8
0
 62
7
  6
CONTINUOUS
 10
98.1801608811
 20
97.4825530563
  0
VERTEX
  8
0
 62
7
  6
CONTINUOUS
 10
98.1942386862
 20
97.5586715378
  0
VERTEX
  8
0
 62
7
  6
CONTINUOUS
 10
98.2054182011
 20
97.6338508563
  0
VERTEX
  8
0
 62
7
  6
CONTINUOUS
 10
98.2152637148
 20
97.7138802124
  0
VERTEX
  8
0
 62
7
  6
CONTINUOUS
 10
98.2245073179
 20
97.8028162467
  0
VERTEX
  8
0
 62
7
  6
CONTINUOUS
 10
98.2335067756
 20
97.9036900896
  0
VERTEX
  8
0
 62
7
  6
CONTINUOUS
 10
98.2424744032
 20
98.0193778838
  0
VERTEX
  8
0
 62
7
  6
CONTINUOUS
 10
98.2515379424
 20
98.1527169419
  0
VERTEX
  8
0
 62
7
  6
CONTINUOUS
 10
98.2607521901
 20
98.3062108494
  0
VERTEX
  8
0
 62
7
  6
CONTINUOUS
 10
98.2701145386
 20
98.4817995054
  0
VERTEX
  8
0
 62
7
  6
CONTINUOUS
 10
98.2796025323
 20
98.6811932337
  0
VERTEX
  8
0
 62
7
  6
CONTINUOUS
 10
98.2891825434
 20
98.905915629
  0
VERTEX
  8
0
 62
7
  6
CONTINUOUS
 10
98.2988427792
 20
99.1581277148
  0
VERTEX
  8
0
 62
7
  6
CONTINUOUS
 10
98.308589278
 20
99.4408837394
  0
VERTEX
  8
0
 62
7
  6
CONTINUOUS
 10
98.318415242
 20
99.7575263545
  0
VERTEX
  8
0
 62
7
  6
CONTINUOUS
 10
98.3283021698
 20
100.1117606464
  0
VERTEX
  8
0
 62
7
  6
CONTINUOUS
 10
98.3382218952
 20
100.5078259074
  0
VERTEX
  8
0
 62
7
  6
CONTINUOUS
 10
98.3481273225
 20
100.950268325
  0
VERTEX
  8
0
 62
7
  6
CONTINUOUS
 10
98.3579416908
 20
101.4434624444
  0
VERTEX
  8
0
 62
7
  6
CONTINUOUS
 10
98.3675524006
 20
101.9910526862
  0
VERTEX
  8
0
 62
7
  6
CONTINUOUS
 10
98.3768238221
 20
102.5963228417
  0
VERTEX
  8
0
 62
7
  6
CONTINUOUS
 10
98.3855961252
 20
103.2619750884
  0
VERTEX
  8
0
 62
7
  6
CONTINUOUS
 10
98.3936861473
 20
103.989982972
  0
VERTEX
  8
0
 62
7
  6
CONTINUOUS
 10
98.4008917567
 20
104.7818548642
  0
VERTEX
  8
0
 62
7
  6
CONTINUOUS
 10
98.4070055521
 20
105.641203618
  0
VERTEX
  8
0
 62
7
  6
CONTINUOUS
 10
98.4117783464
 20
106.5720591199
  0
VERTEX
  8
0
 62
7
  6
CONTINUOUS
 10
98.4148984019
 20
107.5768822597
  0
VERTEX
  8
0
 62
7
  6
CONTINUOUS
 10
98.4159896467
 20
108.6256578947
  0
SEQEND
  0
POLYLINE
  8
0
 62
7
  6
CONTINUOUS
 66
1
 70
0
  0
VERTEX
  8
0
 62
7
  6
CONTINUOUS
 10
71.775967378
 20
96.6256578956
  0
VERTEX
  8
0
 62
7
  6
CONTINUOUS
 10
71.9829345434
 20
96.6471932031
  0
VERTEX
  8
0
 62
7
  6
CONTINUOUS
 10
72.2306982789
 20
96.7343508748
  0
VERTEX
  8
0
 62
7
  6
CONTINUOUS
 10
72.4358167582
 20
96.8722644475
  0
VERTEX
  8
0
 62
7
  6
CONTINUOUS
 10
72.5807015315
 20
97.0273258243
  0
VERTEX
  8
0
 62
7
  6
CONTINUOUS
 10
72.6721350589
 20
97.1718421837
  0
VERTEX
  8
0
 62
7
  6
CONTINUOUS
 10
72.7272566211
 20
97.2958293825
  0
VERTEX
  8
0
 62
7
  6
CONTINUOUS
 10
72.7599832259
 20
97.3979765366
  0
VERTEX
  8
0
 62
7
  6
CONTINUOUS
 10
72.7801608811
 20
97.4825530563
  0
VERTEX
  8
0
 62
7
  6
CONTINUOUS
 10
72.7942386862
 20
97.5586715378
  0
VERTEX
  8
0
 62
7
  6
CONTINUOUS
 10
72.8054182011
 20
97.6338508563
  0
VERTEX
  8
0
 62
7
  6
CONTINUOUS
 10
72.8152637148
 20
97.7138802124
  0
VERTEX
  8
0
 62
7
  6
CONTINUOUS
 10
72.8245073179
 20
97.8028162467
  0
VERTEX
  8
0
 62
7
  6
CONTINUOUS
 10
72.8335067756
 20
97.9036900896
  0
VERTEX
  8
0
 62
7
  6
CONTINUOUS
 10
72.8424744032
 20
98.0193778838
  0
VERTEX
  8
0
 62
7
  6
CONTINUOUS
 10
72.8515379424
 20
98.1527169419
  0
VERTEX
  8
0
 62
7
  6
CONTINUOUS
 10
72.8607521901
 20
98.3062108494
  0
VERTEX
  8
0
 62
7
  6
CONTINUOUS
 10
72.8701145386
 20
98.4817995054
  0
VERTEX
  8
0
 62
7
  6
CONTINUOUS
 10
72.8796025323
 20
98.6811932337
  0
VERTEX
  8
0
 62
7
  6
CONTINUOUS
 10
72.8891825434
 20
98.9059156291
  0
VERTEX
  8
0
 62
7
  6
CONTINUOUS
 10
72.8988427792
 20
99.1581277148
  0
VERTEX
  8
0
 62
7
  6
CONTINUOUS
 10
72.908589278
 20
99.4408837394
  0
VERTEX
  8
0
 62
7
  6
CONTINUOUS
 10
72.918415242
 20
99.7575263545
  0
VERTEX
  8
0
 62
7
  6
CONTINUOUS
 10
72.9283021698
 20
100.1117606465
  0
VERTEX
  8
0
 62
7
  6
CONTINUOUS
 10
72.9382218952
 20
100.5078259074
  0
VERTEX
  8
0
 62
7
  6
CONTINUOUS
 10
72.9481273225
 20
100.950268325
  0
VERTEX
  8
0
 62
7
  6
CONTINUOUS
 10
72.9579416908
 20
101.4434624444
  0
VERTEX
  8
0
 62
7
  6
CONTINUOUS
 10
72.9675524006
 20
101.9910526862
  0
VERTEX
  8
0
 62
7
  6
CONTINUOUS
 10
72.9768238221
 20
102.5963228417
  0
VERTEX
  8
0
 62
7
  6
CONTINUOUS
 10
72.9855961252
 20
103.2619750884
  0
VERTEX
  8
0
 62
7
  6
CONTINUOUS
 10
72.9936861473
 20
103.989982972
  0
VERTEX
  8
0
 62
7
  6
CONTINUOUS
 10
73.0008917567
 20
104.7818548642
  0
VERTEX
  8
0
 62
7
  6
CONTINUOUS
 10
73.0070055521
 20
105.641203618
  0
VERTEX
  8
0
 62
7
  6
CONTINUOUS
 10
73.0117783464
 20
106.5720591199
  0
VERTEX
  8
0
 62
7
  6
CONTINUOUS
 10
73.0148984019
 20
107.5768822597
  0
VERTEX
  8
0
 62
7
  6
CONTINUOUS
 10
73.0159896467
 20
108.6256578947
  0
SEQEND
  0
LINE
  8
0
 62
7
  6
CONTINUOUS
 10
90.2289473684
 20
135.2006578947
 11
92.2289473684
 21
133.2006578947
  0
LINE
  8
0
 62
7
  6
CONTINUOUS
 10
102.9289473684
 20
123.2006578947
 11
104.9289473684
 21
121.2006578947
  0
LINE
  8
0
 62
7
  6
CONTINUOUS
 10
115.6289473684
 20
111.2006578947
 11
117.6289473684
 21
109.2006578947
  0
LINE
  8
0
 62
7
  6
CONTINUOUS
 10
90.2289473684
 20
137.2006578947
 11
94.2289473684
 21
133.2006578947
  0
LINE
  8
0
 62
7
  6
CONTINUOUS
 10
102.9289473684
 20
125.2006578947
 11
106.9289473684
 21
121.2006578947
  0
LINE
  8
0
 62
7
  6
CONTINUOUS
 10
115.7289473684
 20
113.1006578947
 11
119.6289473684
 21
109.2006578947
  0
LINE
  8
0
 62
7
  6
CONTINUOUS
 10
90.2289473684
 20
139.2006578947
 11
94.2289473684
 21
135.2006578947
  0
LINE
  8
0
 62
7
  6
CONTINUOUS
 10
102.9289473684
 20
127.2006578947
 11
106.9289473684
 21
123.2006578947
  0
LINE
  8
0
 62
7
  6
CONTINUOUS
 10
117.7289473684
 20
113.1006578947
 11
119.6289473684
 21
111.2006578947
  0
LINE
  8
0
 62
7
  6
CONTINUOUS
 10
92.2289473684
 20
139.2006578947
 11
94.2289473684
 21
137.2006578947
  0
POLYLINE
  8
0
 62
7
  6
CONTINUOUS
 66
1
 70
0
  0
VERTEX
  8
0
 62
7
  6
CONTINUOUS
 10
111.1159896467
 20
159.7756578947
  0
VERTEX
  8
0
 62
7
  6
CONTINUOUS
 10
111.1149462725
 20
160.8012230293
  0
VERTEX
  8
0
 62
7
  6
CONTINUOUS
 10
111.1119611236
 20
161.7845808703
  0
VERTEX
  8
0
 62
7
  6
CONTINUOUS
 10
111.1073848318
 20
162.6976066851
  0
VERTEX
  8
0
 62
7
  6
CONTINUOUS
 10
111.1015134862
 20
163.5419905243
  0
VERTEX
  8
0
 62
7
  6
CONTINUOUS
 10
111.0945894164
 20
164.3209506531
  0
VERTEX
  8
0
 62
7
  6
CONTINUOUS
 10
111.0868098822
 20
165.038205392
  0
VERTEX
  8
0
 62
7
  6
CONTINUOUS
 10
111.0783469178
 20
165.6967440056
  0
VERTEX
  8
0
 62
7
  6
CONTINUOUS
 10
111.0693443754
 20
166.2998077041
  0
VERTEX
  8
0
 62
7
  6
CONTINUOUS
 10
111.059920974
 20
166.8507801598
  0
VERTEX
  8
0
 62
7
  6
CONTINUOUS
 10
111.0501802035
 20
167.3527401346
  0
VERTEX
  8
0
 62
7
  6
CONTINUOUS
 10
111.0402072994
 20
167.8088059135
  0
VERTEX
  8
0
 62
7
  6
CONTINUOUS
 10
111.0300695234
 20
168.2221286108
  0
VERTEX
  8
0
 62
7
  6
CONTINUOUS
 10
111.0198190805
 20
168.595764298
  0
VERTEX
  8
0
 62
7
  6
CONTINUOUS
 10
111.0094942892
 20
168.9326420279
  0
VERTEX
  8
0
 62
7
  6
CONTINUOUS
 10
110.999119483
 20
169.2355642633
  0
VERTEX
  8
0
 62
7
  6
CONTINUOUS
 10
110.9887074535
 20
169.507124511
  0
VERTEX
  8
0
 62
7
  6
CONTINUOUS
 10
110.9782910886
 20
169.7490204019
  0
VERTEX
  8
0
 62
7
  6
CONTINUOUS
 10
110.9679185018
 20
169.9625409628
  0
VERTEX
  8
0
 62
7
  6
CONTINUOUS
 10
110.9576246865
 20
170.1492964517
  0
VERTEX
  8
0
 62
7
  6
CONTINUOUS
 10
110.9474230579
 20
170.3112433958
  0
VERTEX
  8
0
 62
7
  6
CONTINUOUS
 10
110.9373066611
 20
170.4505145089
  0
VERTEX
  8
0
 62
7
  6
CONTINUOUS
 10
110.9272620068
 20
170.5691770315
  0
VERTEX
  8
0
 62
7
  6
CONTINUOUS
 10
110.9171726341
 20
170.670220419
  0
VERTEX
  8
0
 62
7
  6
CONTINUOUS
 10
110.9066624314
 20
170.7581194249
  0
VERTEX
  8
0
 62
7
  6
CONTINUOUS
 10
110.8949655827
 20
170.8381994388
  0
VERTEX
  8
0
 62
7
  6
CONTINUOUS
 10
110.8806675163
 20
170.916313571
  0
VERTEX
  8
0
 62
7
  6
CONTINUOUS
 10
110.8605820449
 20
171.001133068
  0
VERTEX
  8
0
 62
7
  6
CONTINUOUS
 10
110.8269225213
 20
171.1063832309
  0
VERTEX
  8
0
 62
7
  6
CONTINUOUS
 10
110.7670480162
 20
171.2390806734
  0
VERTEX
  8
0
 62
7
  6
CONTINUOUS
 10
110.6721870888
 20
171.38509796
  0
VERTEX
  8
0
 62
7
  6
CONTINUOUS
 10
110.52953461
 20
171.5344564177
  0
VERTEX
  8
0
 62
7
  6
CONTINUOUS
 10
110.3262116514
 20
171.6692247984
  0
VERTEX
  8
0
 62
7
  6
CONTINUOUS
 10
110.0797179223
 20
171.7547937819
  0
VERTEX
  8
0
 62
7
  6
CONTINUOUS
 10
109.8759674266
 20
171.7756578938
  0
SEQEND
  0
POLYLINE
  8
0
 62
7
  6
CONTINUOUS
 66
1
 70
0
  0
VERTEX
  8
0
 62
7
  6
CONTINUOUS
 10
111.4419050901
 20
108.6256578947
  0
VERTEX
  8
0
 62
7
  6
CONTINUOUS
 10
111.4429484643
 20
107.6000927602
  0
VERTEX
  8
0
 62
7
  6
CONTINUOUS
 10
111.4459336132
 20
106.6167349192
  0
VERTEX
  8
0
 62
7
  6
CONTINUOUS
 10
111.450509905
 20
105.7037091044
  0
VERTEX
  8
0
 62
7
  6
CONTINUOUS
 10
111.4563812506
 20
104.8593252651
  0
VERTEX
  8
0
 62
7
  6
CONTINUOUS
 10
111.4633053204
 20
104.0803651363
  0
VERTEX
  8
0
 62
7
  6
CONTINUOUS
 10
111.4710848547
 20
103.3631103974
  0
VERTEX
  8
0
 62
7
  6
CONTINUOUS
 10
111.479547819
 20
102.7045717838
  0
VERTEX
  8
0
 62
7
  6
CONTINUOUS
 10
111.4885503614
 20
102.1015080854
  0
VERTEX
  8
0
 62
7
  6
CONTINUOUS
 10
111.4979737628
 20
101.5505356297
  0
VERTEX
  8
0
 62
7
  6
CONTINUOUS
 10
111.5077145333
 20
101.0485756549
  0
VERTEX
  8
0
 62
7
  6
CONTINUOUS
 10
111.5176874374
 20
100.592509876
  0
VERTEX
  8
0
 62
7
  6
CONTINUOUS
 10
111.5278252135
 20
100.1791871787
  0
VERTEX
  8
0
 62
7
  6
CONTINUOUS
 10
111.5380756563
 20
99.8055514915
  0
VERTEX
  8
0
 62
7
  6
CONTINUOUS
 10
111.5484004476
 20
99.4686737616
  0
VERTEX
  8
0
 62
7
  6
CONTINUOUS
 10
111.5587752539
 20
99.1657515261
  0
VERTEX
  8
0
 62
7
  6
CONTINUOUS
 10
111.5691872833
 20
98.8941912785
  0
VERTEX
  8
0
 62
7
  6
CONTINUOUS
 10
111.5796036482
 20
98.6522953875
  0
VERTEX
  8
0
 62
7
  6
CONTINUOUS
 10
111.5899762351
 20
98.4387748266
  0
VERTEX
  8
0
 62
7
  6
CONTINUOUS
 10
111.6002700503
 20
98.2520193378
  0
VERTEX
  8
0
 62
7
  6
CONTINUOUS
 10
111.6104716789
 20
98.0900723936
  0
VERTEX
  8
0
 62
7
  6
CONTINUOUS
 10
111.6205880757
 20
97.9508012806
  0
VERTEX
  8
0
 62
7
  6
CONTINUOUS
 10
111.63063273
 20
97.832138758
  0
VERTEX
  8
0
 62
7
  6
CONTINUOUS
 10
111.6407221028
 20
97.7310953705
  0
VERTEX
  8
0
 62
7
  6
CONTINUOUS
 10
111.6512323054
 20
97.6431963646
  0
VERTEX
  8
0
 62
7
  6
CONTINUOUS
 10
111.6629291542
 20
97.5631163506
  0
VERTEX
  8
0
 62
7
  6
CONTINUOUS
 10
111.6772272205
 20
97.4850022185
  0
VERTEX
  8
0
 62
7
  6
CONTINUOUS
 10
111.697312692
 20
97.4001827215
  0
VERTEX
  8
0
 62
7
  6
CONTINUOUS
 10
111.7309722155
 20
97.2949325585
  0
VERTEX
  8
0
 62
7
  6
CONTINUOUS
 10
111.7908467206
 20
97.162235116
  0
VERTEX
  8
0
 62
7
  6
CONTINUOUS
 10
111.885707648
 20
97.0162178295
  0
VERTEX
  8
0
 62
7
  6
CONTINUOUS
 10
112.0283601269
 20
96.8668593718
  0
VERTEX
  8
0
 62
7
  6
CONTINUOUS
 10
112.2316830855
 20
96.7320909911
  0
VERTEX
  8
0
 62
7
  6
CONTINUOUS
 10
112.4781768145
 20
96.6465220075
  0
VERTEX
  8
0
 62
7
  6
CONTINUOUS
 10
112.6819273102
 20
96.6256578956
  0
SEQEND
  0
LINE
  8
0
 62
7
  6
CONTINUOUS
 10
111.1159896493
 20
159.7756578947
 11
111.1159896493
 21
152.9001359789
  0
LINE
  8
0
 62
7
  6
CONTINUOUS
 10
111.4419050875
 20
108.6256578947
 11
111.4419050875
 21
115.5011796572
  0
LINE
  8
0
 62
7
  6
CONTINUOUS
 10
115.5289473684
 20
114.0006578947
 11
115.5289473684
 21
126.4006578947
  0
LINE
  8
0
 62
7
  6
CONTINUOUS
 10
115.6289473684
 20
109.2006578947
 11
115.6289473684
 21
113.1006578947
  0
LINE
  8
0
 62
7
  6
CONTINUOUS
 10
115.6289473684
 20
127.3006578947
 11
115.6289473684
 21
131.2006578947
  0
LINE
  8
0
 62
7
  6
CONTINUOUS
 10
115.6289473684
 20
133.2006578947
 11
115.6289473684
 21
139.2006578947
  0
LINE
  8
0
 62
7
  6
CONTINUOUS
 10
115.6289473684
 20
141.2006578947
 11
115.6289473684
 21
147.2006578947
  0
LINE
  8
0
 62
7
  6
CONTINUOUS
 10
102.9289473684
 20
139.2006578947
 11
104.8289473684
 21
141.1006578947
  0
LINE
  8
0
 62
7
  6
CONTINUOUS
 10
92.3289473684
 20
127.3006578947
 11
94.2289473684
 21
129.2006578947
  0
LINE
  8
0
 62
7
  6
CONTINUOUS
 10
102.9289473684
 20
137.2006578947
 11
106.8289473684
 21
141.1006578947
  0
LINE
  8
0
 62
7
  6
CONTINUOUS
 10
104.9289473684
 20
137.2006578947
 11
106.9289473684
 21
139.2006578947
  0
LINE
  8
0
 62
7
  6
CONTINUOUS
 10
102.9289473684
 20
133.2006578947
 11
104.9289473684
 21
135.2006578947
  0
LINE
  8
0
 62
7
  6
CONTINUOUS
 10
115.6289473684
 20
145.2006578947
 11
117.6289473684
 21
147.2006578947
  0
LINE
  8
0
 62
7
  6
CONTINUOUS
 10
128.3289473684
 20
157.2006578947
 11
130.3289473684
 21
159.2006578947
  0
LINE
  8
0
 62
7
  6
CONTINUOUS
 10
102.9289473684
 20
131.2006578947
 11
106.9289473684
 21
135.2006578947
  0
POLYLINE
  8
0
 62
7
  6
CONTINUOUS
 66
1
 70
0
  0
VERTEX
  8
0
 62
7
  6
CONTINUOUS
 10
211.6789473684
 20
116.5049565007
  0
VERTEX
  8
0
 62
7
  6
CONTINUOUS
 10
211.9192044319
 20
116.5342472016
  0
VERTEX
  8
0
 62
7
  6
CONTINUOUS
 10
212.1445232186
 20
116.619948519
  0
VERTEX
  8
0
 62
7
  6
CONTINUOUS
 10
212.3424568326
 20
116.7567886112
  0
VERTEX
  8
0
 62
7
  6
CONTINUOUS
 10
212.4274179516
 20
116.8417885084
  0
VERTEX
  8
0
 62
7
  6
CONTINUOUS
 10
212.5640714315
 20
117.0396013751
  0
VERTEX
  8
0
 62
7
  6
CONTINUOUS
 10
212.6497087294
 20
117.26490988
  0
VERTEX
  8
0
 62
7
  6
CONTINUOUS
 10
212.6789473684
 20
117.5049565007
  0
SEQEND
  0
LINE
  8
DEFAULT_1
 62
2
  6
CENTER
 10
47.8060452596
 20
108.8006578947
 11
221.570557598
 21
108.8006578947
  0
LINE
  8
0
 62
7
  6
CONTINUOUS
 10
64.8289473684
 20
109.2006578947
 11
68.8289473684
 21
109.2006578947
  0
LINE
  8
0
 62
7
  6
CONTINUOUS
 10
90.2289473684
 20
109.2006578947
 11
94.2289473684
 21
109.2006578947
  0
LINE
  8
0
 62
7
  6
CONTINUOUS
 10
115.6289473684
 20
109.2006578947
 11
119.6289473684
 21
109.2006578947
  0
LINE
  8
0
 62
7
  6
CONTINUOUS
 10
141.0289473684
 20
109.2006578947
 11
145.0289473684
 21
109.2006578947
  0
LINE
  8
0
 62
7
  6
CONTINUOUS
 10
166.4289473684
 20
109.2006578947
 11
170.4289473684
 21
109.2006578947
  0
LINE
  8
0
 62
7
  6
CONTINUOUS
 10
191.8289473684
 20
109.2006578947
 11
195.8289473684
 21
109.2006578947
  0
POLYLINE
  8
0
 62
7
  6
CONTINUOUS
 66
1
 70
0
  0
VERTEX
  8
0
 62
7
  6
CONTINUOUS
 10
85.0977968543
 20
116.503573379
  0
VERTEX
  8
0
 62
7
  6
CONTINUOUS
 10
85.3618877838
 20
116.4492023612
  0
VERTEX
  8
0
 62
7
  6
CONTINUOUS
 10
85.6062287741
 20
116.327090319
  0
VERTEX
  8
0
 62
7
  6
CONTINUOUS
 10
85.7922806768
 20
116.1624269404
  0
VERTEX
  8
0
 62
7
  6
CONTINUOUS
 10
85.9331318984
 20
115.9548797593
  0
VERTEX
  8
0
 62
7
  6
CONTINUOUS
 10
86.0177925564
 20
115.7195136156
  0
VERTEX
  8
0
 62
7
  6
CONTINUOUS
 10
86.0419037798
 20
115.5011797354
  0
SEQEND
  0
LINE
  8
0
 62
7
  6
CONTINUOUS
 10
104.9289473684
 20
127.2006578947
 11
106.9289473684
 21
125.2006578947
  0
LINE
  8
0
 62
7
  6
CONTINUOUS
 10
90.2289473684
 20
143.2006578947
 11
92.2289473684
 21
141.2006578947
  0
LINE
  8
0
 62
7
  6
CONTINUOUS
 10
102.9289473684
 20
131.2006578947
 11
104.9289473684
 21
129.2006578947
  0
LINE
  8
0
 62
7
  6
CONTINUOUS
 10
77.5289473684
 20
157.2006578947
 11
79.4289473684
 21
155.3006578947
  0
LINE
  8
0
 62
7
  6
CONTINUOUS
 10
90.2289473684
 20
145.2006578947
 11
94.2289473684
 21
141.2006578947
  0
LINE
  8
0
 62
7
  6
CONTINUOUS
 10
102.9289473684
 20
133.2006578947
 11
106.9289473684
 21
129.2006578947
  0
LINE
  8
0
 62
7
  6
CONTINUOUS
 10
77.5289473684
 20
159.2006578947
 11
81.4289473684
 21
155.3006578947
  0
LINE
  8
0
 62
7
  6
CONTINUOUS
 10
90.2289473684
 20
147.2006578947
 11
94.2289473684
 21
143.2006578947
  0
LINE
  8
0
 62
7
  6
CONTINUOUS
 10
102.9289473684
 20
135.2006578947
 11
106.9289473684
 21
131.2006578947
  0
LINE
  8
0
 62
7
  6
CONTINUOUS
 10
79.5289473684
 20
159.2006578947
 11
81.5289473684
 21
157.2006578947
  0
LINE
  8
0
 62
7
  6
CONTINUOUS
 10
92.2289473684
 20
147.2006578947
 11
94.2289473684
 21
145.2006578947
  0
LINE
  8
0
 62
7
  6
CONTINUOUS
 10
104.9289473684
 20
135.2006578947
 11
106.9289473684
 21
133.2006578947
  0
LINE
  8
0
 62
7
  6
CONTINUOUS
 10
117.6289473684
 20
109.2006578947
 11
117.6289473684
 21
113.1006578947
  0
LINE
  8
0
 62
7
  6
CONTINUOUS
 10
117.6289473684
 20
127.3006578947
 11
117.6289473684
 21
131.2006578947
  0
LINE
  8
0
 62
7
  6
CONTINUOUS
 10
117.6289473684
 20
133.2006578947
 11
117.6289473684
 21
139.2006578947
  0
LINE
  8
0
 62
7
  6
CONTINUOUS
 10
117.6289473684
 20
141.2006578947
 11
117.6289473684
 21
147.2006578947
  0
LINE
  8
0
 62
7
  6
CONTINUOUS
 10
119.6289473684
 20
109.2006578947
 11
119.6289473684
 21
113.1006578947
  0
LINE
  8
0
 62
7
  6
CONTINUOUS
 10
119.6289473684
 20
127.3006578947
 11
119.6289473684
 21
131.2006578947
  0
LINE
  8
0
 62
7
  6
CONTINUOUS
 10
119.6289473684
 20
133.2006578947
 11
119.6289473684
 21
139.2006578947
  0
LINE
  8
0
 62
7
  6
CONTINUOUS
 10
119.6289473684
 20
141.2006578947
 11
119.6289473684
 21
147.2006578947
  0
LINE
  8
0
 62
7
  6
CONTINUOUS
 10
119.7289473684
 20
126.4006578947
 11
119.7289473684
 21
114.0006578947
  0
POLYLINE
  8
0
 62
7
  6
CONTINUOUS
 66
1
 70
0
  0
VERTEX
  8
0
 62
7
  6
CONTINUOUS
 10
124.1419035795
 20
152.9001359684
  0
VERTEX
  8
0
 62
7
  6
CONTINUOUS
 10
124.117257752
 20
152.6794246119
  0
VERTEX
  8
0
 62
7
  6
CONTINUOUS
 10
124.0320833776
 20
152.4443809437
  0
VERTEX
  8
0
 62
7
  6
CONTINUOUS
 10
123.8908323087
 20
152.2372473939
  0
VERTEX
  8
0
 62
7
  6
CONTINUOUS
 10
123.7045208107
 20
152.0730593507
  0
VERTEX
  8
0
 62
7
  6
CONTINUOUS
 10
123.4586719584
 20
151.9510284721
  0
VERTEX
  8
0
 62
7
  6
CONTINUOUS
 10
123.1978836162
 20
151.8977535096
  0
SEQEND
  0
LINE
  8
0
 62
7
  6
CONTINUOUS
 10
115.6289473684
 20
143.2006578947
 11
119.6289473684
 21
147.2006578947
  0
LINE
  8
0
 62
7
  6
CONTINUOUS
 10
128.4289473684
 20
155.3006578947
 11
132.3289473684
 21
159.2006578947
  0
LINE
  8
0
 62
7
  6
CONTINUOUS
 10
102.9289473684
 20
129.2006578947
 11
106.9289473684
 21
133.2006578947
  0
LINE
  8
0
 62
7
  6
CONTINUOUS
 10
115.6289473684
 20
141.2006578947
 11
119.6289473684
 21
145.2006578947
  0
LINE
  8
0
 62
7
  6
CONTINUOUS
 10
130.4289473684
 20
155.3006578947
 11
132.3289473684
 21
157.2006578947
  0
LINE
  8
0
 62
7
  6
CONTINUOUS
 10
104.9289473684
 20
129.2006578947
 11
106.9289473684
 21
131.2006578947
  0
LINE
  8
0
 62
7
  6
CONTINUOUS
 10
117.6289473684
 20
141.2006578947
 11
119.6289473684
 21
143.2006578947
  0
LINE
  8
0
 62
7
  6
CONTINUOUS
 10
102.9289473684
 20
125.2006578947
 11
104.9289473684
 21
127.2006578947
  0
LINE
  8
0
 62
7
  6
CONTINUOUS
 10
115.6289473684
 20
137.2006578947
 11
117.6289473684
 21
139.2006578947
  0
LINE
  8
0
 62
7
  6
CONTINUOUS
 10
90.2289473684
 20
111.2006578947
 11
92.1289473684
 21
113.1006578947
  0
LINE
  8
0
 62
7
  6
CONTINUOUS
 10
102.9289473684
 20
123.2006578947
 11
106.9289473684
 21
127.2006578947
  0
LINE
  8
0
 62
7
  6
CONTINUOUS
 10
115.6289473684
 20
135.2006578947
 11
119.6289473684
 21
139.2006578947
  0
POLYLINE
  8
0
 62
7
  6
CONTINUOUS
 66
1
 70
0
  0
VERTEX
  8
0
 62
7
  6
CONTINUOUS
 10
200.9599895815
 20
116.5035578333
  0
VERTEX
  8
0
 62
7
  6
CONTINUOUS
 10
200.9718229765
 20
116.5046938708
  0
VERTEX
  8
0
 62
7
  6
CONTINUOUS
 10
200.9808265471
 20
116.5049569329
  0
SEQEND
  0
POLYLINE
  8
0
 62
7
  6
CONTINUOUS
 66
1
 70
0
  0
VERTEX
  8
0
 62
7
  6
CONTINUOUS
 10
175.5599895817
 20
116.5035578333
  0
VERTEX
  8
0
 62
7
  6
CONTINUOUS
 10
175.5718229814
 20
116.5046938711
  0
VERTEX
  8
0
 62
7
  6
CONTINUOUS
 10
175.5808265606
 20
116.5049569329
  0
SEQEND
  0
POLYLINE
  8
0
 62
7
  6
CONTINUOUS
 66
1
 70
0
  0
VERTEX
  8
0
 62
7
  6
CONTINUOUS
 10
150.1599895815
 20
116.5035578333
  0
VERTEX
  8
0
 62
7
  6
CONTINUOUS
 10
150.1718229813
 20
116.5046938711
  0
VERTEX
  8
0
 62
7
  6
CONTINUOUS
 10
150.1808265606
 20
116.5049569329
  0
SEQEND
  0
LINE
  8
0
 62
7
  6
CONTINUOUS
 10
195.8289473684
 20
111.2006578947
 11
191.8289473684
 21
111.2006578947
  0
LINE
  8
0
 62
7
  6
CONTINUOUS
 10
170.4289473684
 20
111.2006578947
 11
166.4289473684
 21
111.2006578947
  0
LINE
  8
0
 62
7
  6
CONTINUOUS
 10
145.0289473684
 20
111.2006578947
 11
141.0289473684
 21
111.2006578947
  0
LINE
  8
0
 62
7
  6
CONTINUOUS
 10
119.6289473684
 20
111.2006578947
 11
115.6289473684
 21
111.2006578947
  0
LINE
  8
0
 62
7
  6
CONTINUOUS
 10
94.2289473684
 20
111.2006578947
 11
90.2289473684
 21
111.2006578947
  0
LINE
  8
0
 62
7
  6
CONTINUOUS
 10
68.8289473684
 20
111.2006578947
 11
64.8289473684
 21
111.2006578947
  0
LINE
  8
0
 62
7
  6
CONTINUOUS
 10
90.2289473684
 20
113.1006578947
 11
94.2289473684
 21
113.1006578947
  0
LINE
  8
0
 62
7
  6
CONTINUOUS
 10
115.6289473684
 20
113.1006578947
 11
119.6289473684
 21
113.1006578947
  0
LINE
  8
0
 62
7
  6
CONTINUOUS
 10
141.0289473684
 20
113.1006578947
 11
145.0289473684
 21
113.1006578947
  0
LINE
  8
0
 62
7
  6
CONTINUOUS
 10
166.4289473684
 20
113.1006578947
 11
170.4289473684
 21
113.1006578947
  0
LINE
  8
0
 62
7
  6
CONTINUOUS
 10
191.8289473684
 20
113.1006578947
 11
195.8289473684
 21
113.1006578947
  0
LINE
  8
0
 62
7
  6
CONTINUOUS
 10
68.8289473684
 20
113.2006578947
 11
64.8289473684
 21
113.2006578947
  0
LINE
  8
0
 62
7
  6
CONTINUOUS
 10
68.8289473684
 20
115.2006578947
 11
64.8289473684
 21
115.2006578947
  0
LINE
  8
0
 62
7
  6
CONTINUOUS
 10
211.6789473684
 20
116.5049565007
 11
200.9808265464
 21
116.5049565007
  0
LINE
  8
0
 62
7
  6
CONTINUOUS
 10
186.6770684794
 20
116.5049565007
 11
175.5808265598
 21
116.5049565007
  0
LINE
  8
0
 62
7
  6
CONTINUOUS
 10
161.2770684794
 20
116.5049565007
 11
150.1808265598
 21
116.5049565007
  0
LINE
  8
0
 62
7
  6
CONTINUOUS
 10
135.8770684794
 20
116.5049565007
 11
124.7808266105
 21
116.5049565007
  0
LINE
  8
0
 62
7
  6
CONTINUOUS
 10
110.4770684794
 20
116.5049565007
 11
99.3808266105
 21
116.5049565007
  0
LINE
  8
0
 62
7
  6
CONTINUOUS
 10
85.0770684794
 20
116.5049565007
 11
73.9808266105
 21
116.5049565007
  0
POLYLINE
  8
0
 62
7
  6
CONTINUOUS
 66
1
 70
0
  0
VERTEX
  8
0
 62
7
  6
CONTINUOUS
 10
85.0770684789
 20
116.5049569287
  0
VERTEX
  8
0
 62
7
  6
CONTINUOUS
 10
85.0862642835
 20
116.504682651
  0
VERTEX
  8
0
 62
7
  6
CONTINUOUS
 10
85.0977967008
 20
116.5035722105
  0
SEQEND
  0
POLYLINE
  8
0
 62
7
  6
CONTINUOUS
 66
1
 70
0
  0
VERTEX
  8
0
 62
7
  6
CONTINUOUS
 10
110.4770684789
 20
116.5049569287
  0
VERTEX
  8
0
 62
7
  6
CONTINUOUS
 10
110.4862642834
 20
116.504682651
  0
VERTEX
  8
0
 62
7
  6
CONTINUOUS
 10
110.4977967007
 20
116.5035722105
  0
SEQEND
  0
POLYLINE
  8
0
 62
7
  6
CONTINUOUS
 66
1
 70
0
  0
VERTEX
  8
0
 62
7
  6
CONTINUOUS
 10
135.877068479
 20
116.5049569611
  0
VERTEX
  8
0
 62
7
  6
CONTINUOUS
 10
135.8862489666
 20
116.5046834435
  0
VERTEX
  8
0
 62
7
  6
CONTINUOUS
 10
135.8977979368
 20
116.5035721219
  0
SEQEND
  0
POLYLINE
  8
0
 62
7
  6
CONTINUOUS
 66
1
 70
0
  0
VERTEX
  8
0
 62
7
  6
CONTINUOUS
 10
135.8977980735
 20
116.5035731627
  0
VERTEX
  8
0
 62
7
  6
CONTINUOUS
 10
136.1618516378
 20
116.4492146203
  0
VERTEX
  8
0
 62
7
  6
CONTINUOUS
 10
136.4062253925
 20
116.3270926222
  0
VERTEX
  8
0
 62
7
  6
CONTINUOUS
 10
136.5922790143
 20
116.1624288312
  0
VERTEX
  8
0
 62
7
  6
CONTINUOUS
 10
136.7331303722
 20
115.9548827303
  0
VERTEX
  8
0
 62
7
  6
CONTINUOUS
 10
136.8177905083
 20
115.7195225556
  0
VERTEX
  8
0
 62
7
  6
CONTINUOUS
 10
136.8419036966
 20
115.501179784
  0
SEQEND
  0
POLYLINE
  8
0
 62
7
  6
CONTINUOUS
 66
1
 70
0
  0
VERTEX
  8
0
 62
7
  6
CONTINUOUS
 10
110.4977968542
 20
116.503573379
  0
VERTEX
  8
0
 62
7
  6
CONTINUOUS
 10
110.7618877895
 20
116.4492023592
  0
VERTEX
  8
0
 62
7
  6
CONTINUOUS
 10
111.0062287746
 20
116.3270903186
  0
VERTEX
  8
0
 62
7
  6
CONTINUOUS
 10
111.1922806771
 20
116.16242694
  0
VERTEX
  8
0
 62
7
  6
CONTINUOUS
 10
111.3331318986
 20
115.954879759
  0
VERTEX
  8
0
 62
7
  6
CONTINUOUS
 10
111.4177925565
 20
115.7195136154
  0
VERTEX
  8
0
 62
7
  6
CONTINUOUS
 10
111.4419037798
 20
115.5011797353
  0
SEQEND
  0
LINE
  8
0
 62
7
  6
CONTINUOUS
 10
102.9289473684
 20
139.2006578947
 11
104.9289473684
 21
137.2006578947
  0
LINE
  8
0
 62
7
  6
CONTINUOUS
 10
103.0289473684
 20
141.1006578947
 11
106.9289473684
 21
137.2006578947
  0
LINE
  8
0
 62
7
  6
CONTINUOUS
 10
115.6289473684
 20
129.2006578947
 11
117.5289473684
 21
127.3006578947
  0
LINE
  8
0
 62
7
  6
CONTINUOUS
 10
105.0289473684
 20
141.1006578947
 11
106.9289473684
 21
139.2006578947
  0
LINE
  8
0
 62
7
  6
CONTINUOUS
 10
115.6289473684
 20
131.2006578947
 11
119.5289473684
 21
127.3006578947
  0
LINE
  8
0
 62
7
  6
CONTINUOUS
 10
117.6289473684
 20
131.2006578947
 11
119.6289473684
 21
129.2006578947
  0
LINE
  8
0
 62
7
  6
CONTINUOUS
 10
123.8159896493
 20
115.5011796918
 11
123.8159896493
 21
108.6256578947
  0
LINE
  8
0
 62
7
  6
CONTINUOUS
 10
124.1419050875
 20
152.9001359683
 11
124.1419050875
 21
159.7756578947
  0
LINE
  8
0
 62
7
  6
CONTINUOUS
 10
128.2289473684
 20
142.0006578947
 11
128.2289473684
 21
154.4006578947
  0
LINE
  8
0
 62
7
  6
CONTINUOUS
 10
128.3289473684
 20
121.2006578947
 11
128.3289473684
 21
127.2006578947
  0
LINE
  8
0
 62
7
  6
CONTINUOUS
 10
128.3289473684
 20
129.2006578947
 11
128.3289473684
 21
135.2006578947
  0
LINE
  8
0
 62
7
  6
CONTINUOUS
 10
128.3289473684
 20
137.2006578947
 11
128.3289473684
 21
141.1006578947
  0
LINE
  8
0
 62
7
  6
CONTINUOUS
 10
128.3289473684
 20
155.3006578947
 11
128.3289473684
 21
159.2006578947
  0
POLYLINE
  8
0
 62
7
  6
CONTINUOUS
 66
1
 70
0
  0
VERTEX
  8
0
 62
7
  6
CONTINUOUS
 10
123.8159910446
 20
115.5011796917
  0
VERTEX
  8
0
 62
7
  6
CONTINUOUS
 10
123.8406224763
 20
115.7218277869
  0
VERTEX
  8
0
 62
7
  6
CONTINUOUS
 10
123.9257514818
 20
115.9568180063
  0
VERTEX
  8
0
 62
7
  6
CONTINUOUS
 10
124.0669666998
 20
116.1639599133
  0
VERTEX
  8
0
 62
7
  6
CONTINUOUS
 10
124.2532623702
 20
116.3281804309
  0
VERTEX
  8
0
 62
7
  6
CONTINUOUS
 10
124.4985434184
 20
116.450059262
  0
VERTEX
  8
0
 62
7
  6
CONTINUOUS
 10
124.7599953028
 20
116.5035597526
  0
SEQEND
  0
LINE
  8
0
 62
7
  6
CONTINUOUS
 10
90.2289473684
 20
109.2006578947
 11
94.1289473684
 21
113.1006578947
  0
LINE
  8
0
 62
7
  6
CONTINUOUS
 10
102.9289473684
 20
121.2006578947
 11
106.9289473684
 21
125.2006578947
  0
LINE
  8
0
 62
7
  6
CONTINUOUS
 10
115.6289473684
 20
133.2006578947
 11
119.6289473684
 21
137.2006578947
  0
LINE
  8
0
 62
7
  6
CONTINUOUS
 10
92.2289473684
 20
109.2006578947
 11
94.2289473684
 21
111.2006578947
  0
LINE
  8
0
 62
7
  6
CONTINUOUS
 10
104.9289473684
 20
121.2006578947
 11
106.9289473684
 21
123.2006578947
  0
LINE
  8
0
 62
7
  6
CONTINUOUS
 10
117.6289473684
 20
133.2006578947
 11
119.6289473684
 21
135.2006578947
  0
LINE
  8
0
 62
7
  6
CONTINUOUS
 10
115.6289473684
 20
129.2006578947
 11
117.6289473684
 21
131.2006578947
  0
LINE
  8
0
 62
7
  6
CONTINUOUS
 10
115.7289473684
 20
127.3006578947
 11
119.6289473684
 21
131.2006578947
  0
LINE
  8
0
 62
7
  6
CONTINUOUS
 10
128.3289473684
 20
139.2006578947
 11
130.2289473684
 21
141.1006578947
  0
POLYLINE
  8
0
 62
7
  6
CONTINUOUS
 66
1
 70
0
  0
VERTEX
  8
0
 62
7
  6
CONTINUOUS
 10
124.7599955824
 20
116.5035586511
  0
VERTEX
  8
0
 62
7
  6
CONTINUOUS
 10
124.7718122257
 20
116.5046933257
  0
VERTEX
  8
0
 62
7
  6
CONTINUOUS
 10
124.7808266114
 20
116.5049569574
  0
SEQEND
  0
POLYLINE
  8
0
 62
7
  6
CONTINUOUS
 66
1
 70
0
  0
VERTEX
  8
0
 62
7
  6
CONTINUOUS
 10
99.3599955826
 20
116.5035586511
  0
VERTEX
  8
0
 62
7
  6
CONTINUOUS
 10
99.3718122258
 20
116.5046933257
  0
VERTEX
  8
0
 62
7
  6
CONTINUOUS
 10
99.3808266114
 20
116.5049569574
  0
SEQEND
  0
LINE
  8
0
 62
7
  6
CONTINUOUS
 10
64.8289473684
 20
117.2006578947
 11
68.8289473684
 21
117.2006578947
  0
LINE
  8
0
 62
7
  6
CONTINUOUS
 10
68.8289473684
 20
119.2006578947
 11
64.8289473684
 21
119.2006578947
  0
LINE
  8
0
 62
7
  6
CONTINUOUS
 10
64.8289473684
 20
121.1006578947
 11
68.8289473684
 21
121.1006578947
  0
LINE
  8
0
 62
7
  6
CONTINUOUS
 10
77.5289473684
 20
121.2006578947
 11
81.5289473684
 21
121.2006578947
  0
LINE
  8
0
 62
7
  6
CONTINUOUS
 10
102.9289473684
 20
121.2006578947
 11
106.9289473684
 21
121.2006578947
  0
LINE
  8
0
 62
7
  6
CONTINUOUS
 10
128.3289473684
 20
121.2006578947
 11
132.3289473684
 21
121.2006578947
  0
LINE
  8
0
 62
7
  6
CONTINUOUS
 10
153.7289473684
 20
121.2006578947
 11
157.7289473684
 21
121.2006578947
  0
LINE
  8
0
 62
7
  6
CONTINUOUS
 10
179.1289473684
 20
121.2006578947
 11
183.1289473684
 21
121.2006578947
  0
LINE
  8
0
 62
7
  6
CONTINUOUS
 10
204.5289473684
 20
121.2006578947
 11
208.5289473684
 21
121.2006578947
  0
POLYLINE
  8
0
 62
7
  6
CONTINUOUS
 66
1
 70
0
  0
VERTEX
  8
0
 62
7
  6
CONTINUOUS
 10
161.277068479
 20
116.5049569611
  0
VERTEX
  8
0
 62
7
  6
CONTINUOUS
 10
161.2862489666
 20
116.5046834435
  0
VERTEX
  8
0
 62
7
  6
CONTINUOUS
 10
161.2977979369
 20
116.5035721219
  0
SEQEND
  0
POLYLINE
  8
0
 62
7
  6
CONTINUOUS
 66
1
 70
0
  0
VERTEX
  8
0
 62
7
  6
CONTINUOUS
 10
186.677068479
 20
116.5049569611
  0
VERTEX
  8
0
 62
7
  6
CONTINUOUS
 10
186.6862489666
 20
116.5046834435
  0
VERTEX
  8
0
 62
7
  6
CONTINUOUS
 10
186.6977979368
 20
116.5035721219
  0
SEQEND
  0
POLYLINE
  8
0
 62
7
  6
CONTINUOUS
 66
1
 70
0
  0
VERTEX
  8
0
 62
7
  6
CONTINUOUS
 10
161.2977980736
 20
116.5035731627
  0
VERTEX
  8
0
 62
7
  6
CONTINUOUS
 10
161.5618516334
 20
116.4492146218
  0
VERTEX
  8
0
 62
7
  6
CONTINUOUS
 10
161.806225392
 20
116.3270926224
  0
VERTEX
  8
0
 62
7
  6
CONTINUOUS
 10
161.992279014
 20
116.1624288315
  0
VERTEX
  8
0
 62
7
  6
CONTINUOUS
 10
162.1331303721
 20
115.9548827306
  0
VERTEX
  8
0
 62
7
  6
CONTINUOUS
 10
162.2177905082
 20
115.7195225558
  0
VERTEX
  8
0
 62
7
  6
CONTINUOUS
 10
162.2419036966
 20
115.501179784
  0
SEQEND
  0
LINE
  8
0
 62
7
  6
CONTINUOUS
 10
115.6289473684
 20
135.2006578947
 11
117.6289473684
 21
133.2006578947
  0
LINE
  8
0
 62
7
  6
CONTINUOUS
 10
128.3289473684
 20
123.2006578947
 11
130.3289473684
 21
121.2006578947
  0
LINE
  8
0
 62
7
  6
CONTINUOUS
 10
141.0289473684
 20
111.2006578947
 11
143.0289473684
 21
109.2006578947
  0
LINE
  8
0
 62
7
  6
CONTINUOUS
 10
115.6289473684
 20
137.2006578947
 11
119.6289473684
 21
133.2006578947
  0
LINE
  8
0
 62
7
  6
CONTINUOUS
 10
128.3289473684
 20
125.2006578947
 11
132.3289473684
 21
121.2006578947
  0
LINE
  8
0
 62
7
  6
CONTINUOUS
 10
141.1289473684
 20
113.1006578947
 11
145.0289473684
 21
109.2006578947
  0
LINE
  8
0
 62
7
  6
CONTINUOUS
 10
115.6289473684
 20
139.2006578947
 11
119.6289473684
 21
135.2006578947
  0
LINE
  8
0
 62
7
  6
CONTINUOUS
 10
128.3289473684
 20
127.2006578947
 11
132.3289473684
 21
123.2006578947
  0
LINE
  8
0
 62
7
  6
CONTINUOUS
 10
143.1289473684
 20
113.1006578947
 11
145.0289473684
 21
111.2006578947
  0
LINE
  8
0
 62
7
  6
CONTINUOUS
 10
117.6289473684
 20
139.2006578947
 11
119.6289473684
 21
137.2006578947
  0
LINE
  8
0
 62
7
  6
CONTINUOUS
 10
130.3289473684
 20
127.2006578947
 11
132.3289473684
 21
125.2006578947
  0
LINE
  8
0
 62
7
  6
CONTINUOUS
 10
130.3289473684
 20
121.2006578947
 11
130.3289473684
 21
127.2006578947
  0
LINE
  8
0
 62
7
  6
CONTINUOUS
 10
130.3289473684
 20
129.2006578947
 11
130.3289473684
 21
135.2006578947
  0
LINE
  8
0
 62
7
  6
CONTINUOUS
 10
130.3289473684
 20
137.2006578947
 11
130.3289473684
 21
141.1006578947
  0
LINE
  8
0
 62
7
  6
CONTINUOUS
 10
130.3289473684
 20
155.3006578947
 11
130.3289473684
 21
159.2006578947
  0
LINE
  8
0
 62
7
  6
CONTINUOUS
 10
132.3289473684
 20
121.2006578947
 11
132.3289473684
 21
127.2006578947
  0
LINE
  8
0
 62
7
  6
CONTINUOUS
 10
132.3289473684
 20
129.2006578947
 11
132.3289473684
 21
135.2006578947
  0
LINE
  8
0
 62
7
  6
CONTINUOUS
 10
132.3289473684
 20
137.2006578947
 11
132.3289473684
 21
141.1006578947
  0
LINE
  8
0
 62
7
  6
CONTINUOUS
 10
132.3289473684
 20
155.3006578947
 11
132.3289473684
 21
159.2006578947
  0
LINE
  8
0
 62
7
  6
CONTINUOUS
 10
132.4289473684
 20
154.4006578947
 11
132.4289473684
 21
142.0006578947
  0
LINE
  8
0
 62
7
  6
CONTINUOUS
 10
117.7289473684
 20
127.3006578947
 11
119.6289473684
 21
129.2006578947
  0
LINE
  8
0
 62
7
  6
CONTINUOUS
 10
128.3289473684
 20
137.2006578947
 11
132.2289473684
 21
141.1006578947
  0
LINE
  8
0
 62
7
  6
CONTINUOUS
 10
130.3289473684
 20
137.2006578947
 11
132.3289473684
 21
139.2006578947
  0
LINE
  8
0
 62
7
  6
CONTINUOUS
 10
128.3289473684
 20
133.2006578947
 11
130.3289473684
 21
135.2006578947
  0
LINE
  8
0
 62
7
  6
CONTINUOUS
 10
141.0289473684
 20
145.2006578947
 11
143.0289473684
 21
147.2006578947
  0
LINE
  8
0
 62
7
  6
CONTINUOUS
 10
153.7289473684
 20
157.2006578947
 11
155.7289473684
 21
159.2006578947
  0
LINE
  8
0
 62
7
  6
CONTINUOUS
 10
128.3289473684
 20
131.2006578947
 11
132.3289473684
 21
135.2006578947
  0
LINE
  8
0
 62
7
  6
CONTINUOUS
 10
141.0289473684
 20
143.2006578947
 11
145.0289473684
 21
147.2006578947
  0
POLYLINE
  8
0
 62
7
  6
CONTINUOUS
 66
1
 70
0
  0
VERTEX
  8
0
 62
7
  6
CONTINUOUS
 10
73.9599955825
 20
116.5035586511
  0
VERTEX
  8
0
 62
7
  6
CONTINUOUS
 10
73.9718122258
 20
116.5046933257
  0
VERTEX
  8
0
 62
7
  6
CONTINUOUS
 10
73.9808266114
 20
116.5049569574
  0
SEQEND
  0
LINE
  8
0
 62
7
  6
CONTINUOUS
 10
208.5289473684
 20
123.2006578947
 11
204.5289473684
 21
123.2006578947
  0
LINE
  8
0
 62
7
  6
CONTINUOUS
 10
183.1289473684
 20
123.2006578947
 11
179.1289473684
 21
123.2006578947
  0
LINE
  8
0
 62
7
  6
CONTINUOUS
 10
157.7289473684
 20
123.2006578947
 11
153.7289473684
 21
123.2006578947
  0
LINE
  8
0
 62
7
  6
CONTINUOUS
 10
132.3289473684
 20
123.2006578947
 11
128.3289473684
 21
123.2006578947
  0
LINE
  8
0
 62
7
  6
CONTINUOUS
 10
106.9289473684
 20
123.2006578947
 11
102.9289473684
 21
123.2006578947
  0
LINE
  8
0
 62
7
  6
CONTINUOUS
 10
81.5289473684
 20
123.2006578947
 11
77.5289473684
 21
123.2006578947
  0
LINE
  8
0
 62
7
  6
CONTINUOUS
 10
208.5289473684
 20
125.2006578947
 11
204.5289473684
 21
125.2006578947
  0
LINE
  8
0
 62
7
  6
CONTINUOUS
 10
183.1289473684
 20
125.2006578947
 11
179.1289473684
 21
125.2006578947
  0
LINE
  8
0
 62
7
  6
CONTINUOUS
 10
157.7289473684
 20
125.2006578947
 11
153.7289473684
 21
125.2006578947
  0
LINE
  8
0
 62
7
  6
CONTINUOUS
 10
132.3289473684
 20
125.2006578947
 11
128.3289473684
 21
125.2006578947
  0
LINE
  8
0
 62
7
  6
CONTINUOUS
 10
106.9289473684
 20
125.2006578947
 11
102.9289473684
 21
125.2006578947
  0
LINE
  8
0
 62
7
  6
CONTINUOUS
 10
81.5289473684
 20
125.2006578947
 11
77.5289473684
 21
125.2006578947
  0
LINE
  8
0
 62
7
  6
CONTINUOUS
 10
208.5289473684
 20
127.2006578947
 11
204.5289473684
 21
127.2006578947
  0
LINE
  8
0
 62
7
  6
CONTINUOUS
 10
183.1289473684
 20
127.2006578947
 11
179.1289473684
 21
127.2006578947
  0
LINE
  8
0
 62
7
  6
CONTINUOUS
 10
157.7289473684
 20
127.2006578947
 11
153.7289473684
 21
127.2006578947
  0
LINE
  8
0
 62
7
  6
CONTINUOUS
 10
132.3289473684
 20
127.2006578947
 11
128.3289473684
 21
127.2006578947
  0
LINE
  8
0
 62
7
  6
CONTINUOUS
 10
106.9289473684
 20
127.2006578947
 11
102.9289473684
 21
127.2006578947
  0
LINE
  8
0
 62
7
  6
CONTINUOUS
 10
81.5289473684
 20
127.2006578947
 11
77.5289473684
 21
127.2006578947
  0
LINE
  8
0
 62
7
  6
CONTINUOUS
 10
64.8289473684
 20
127.3006578947
 11
68.8289473684
 21
127.3006578947
  0
LINE
  8
0
 62
7
  6
CONTINUOUS
 10
90.2289473684
 20
127.3006578947
 11
94.2289473684
 21
127.3006578947
  0
LINE
  8
0
 62
7
  6
CONTINUOUS
 10
115.6289473684
 20
127.3006578947
 11
119.6289473684
 21
127.3006578947
  0
LINE
  8
0
 62
7
  6
CONTINUOUS
 10
141.0289473684
 20
127.3006578947
 11
145.0289473684
 21
127.3006578947
  0
LINE
  8
0
 62
7
  6
CONTINUOUS
 10
166.4289473684
 20
127.3006578947
 11
170.4289473684
 21
127.3006578947
  0
LINE
  8
0
 62
7
  6
CONTINUOUS
 10
191.8289473684
 20
127.3006578947
 11
195.8289473684
 21
127.3006578947
  0
POLYLINE
  8
0
 62
7
  6
CONTINUOUS
 66
1
 70
0
  0
VERTEX
  8
0
 62
7
  6
CONTINUOUS
 10
186.6977980735
 20
116.5035731627
  0
VERTEX
  8
0
 62
7
  6
CONTINUOUS
 10
186.9618516378
 20
116.4492146203
  0
VERTEX
  8
0
 62
7
  6
CONTINUOUS
 10
187.2062253925
 20
116.3270926222
  0
VERTEX
  8
0
 62
7
  6
CONTINUOUS
 10
187.3922790143
 20
116.1624288312
  0
VERTEX
  8
0
 62
7
  6
CONTINUOUS
 10
187.5331303722
 20
115.9548827303
  0
VERTEX
  8
0
 62
7
  6
CONTINUOUS
 10
187.6177905083
 20
115.7195225556
  0
VERTEX
  8
0
 62
7
  6
CONTINUOUS
 10
187.6419036966
 20
115.501179784
  0
SEQEND
  0
LINE
  8
0
 62
7
  6
CONTINUOUS
 10
115.6289473684
 20
143.2006578947
 11
117.6289473684
 21
141.2006578947
  0
LINE
  8
0
 62
7
  6
CONTINUOUS
 10
128.3289473684
 20
131.2006578947
 11
130.3289473684
 21
129.2006578947
  0
LINE
  8
0
 62
7
  6
CONTINUOUS
 10
102.9289473684
 20
157.2006578947
 11
104.8289473684
 21
155.3006578947
  0
LINE
  8
0
 62
7
  6
CONTINUOUS
 10
115.6289473684
 20
145.2006578947
 11
119.6289473684
 21
141.2006578947
  0
LINE
  8
0
 62
7
  6
CONTINUOUS
 10
128.3289473684
 20
133.2006578947
 11
132.3289473684
 21
129.2006578947
  0
LINE
  8
0
 62
7
  6
CONTINUOUS
 10
102.9289473684
 20
159.2006578947
 11
106.8289473684
 21
155.3006578947
  0
LINE
  8
0
 62
7
  6
CONTINUOUS
 10
115.6289473684
 20
147.2006578947
 11
119.6289473684
 21
143.2006578947
  0
LINE
  8
0
 62
7
  6
CONTINUOUS
 10
128.3289473684
 20
135.2006578947
 11
132.3289473684
 21
131.2006578947
  0
LINE
  8
0
 62
7
  6
CONTINUOUS
 10
104.9289473684
 20
159.2006578947
 11
106.9289473684
 21
157.2006578947
  0
LINE
  8
0
 62
7
  6
CONTINUOUS
 10
117.6289473684
 20
147.2006578947
 11
119.6289473684
 21
145.2006578947
  0
LINE
  8
0
 62
7
  6
CONTINUOUS
 10
130.3289473684
 20
135.2006578947
 11
132.3289473684
 21
133.2006578947
  0
POLYLINE
  8
0
 62
7
  6
CONTINUOUS
 66
1
 70
0
  0
VERTEX
  8
0
 62
7
  6
CONTINUOUS
 10
136.5159896467
 20
159.7756578947
  0
VERTEX
  8
0
 62
7
  6
CONTINUOUS
 10
136.5149462725
 20
160.8012230293
  0
VERTEX
  8
0
 62
7
  6
CONTINUOUS
 10
136.5119611236
 20
161.7845808703
  0
VERTEX
  8
0
 62
7
  6
CONTINUOUS
 10
136.5073848318
 20
162.6976066851
  0
VERTEX
  8
0
 62
7
  6
CONTINUOUS
 10
136.5015134862
 20
163.5419905243
  0
VERTEX
  8
0
 62
7
  6
CONTINUOUS
 10
136.4945894164
 20
164.3209506531
  0
VERTEX
  8
0
 62
7
  6
CONTINUOUS
 10
136.4868098822
 20
165.038205392
  0
VERTEX
  8
0
 62
7
  6
CONTINUOUS
 10
136.4783469178
 20
165.6967440056
  0
VERTEX
  8
0
 62
7
  6
CONTINUOUS
 10
136.4693443754
 20
166.2998077041
  0
VERTEX
  8
0
 62
7
  6
CONTINUOUS
 10
136.459920974
 20
166.8507801598
  0
VERTEX
  8
0
 62
7
  6
CONTINUOUS
 10
136.4501802035
 20
167.3527401346
  0
VERTEX
  8
0
 62
7
  6
CONTINUOUS
 10
136.4402072994
 20
167.8088059135
  0
VERTEX
  8
0
 62
7
  6
CONTINUOUS
 10
136.4300695234
 20
168.2221286108
  0
VERTEX
  8
0
 62
7
  6
CONTINUOUS
 10
136.4198190805
 20
168.595764298
  0
VERTEX
  8
0
 62
7
  6
CONTINUOUS
 10
136.4094942892
 20
168.9326420279
  0
VERTEX
  8
0
 62
7
  6
CONTINUOUS
 10
136.399119483
 20
169.2355642633
  0
VERTEX
  8
0
 62
7
  6
CONTINUOUS
 10
136.3887074535
 20
169.507124511
  0
VERTEX
  8
0
 62
7
  6
CONTINUOUS
 10
136.3782910886
 20
169.7490204019
  0
VERTEX
  8
0
 62
7
  6
CONTINUOUS
 10
136.3679185018
 20
169.9625409628
  0
VERTEX
  8
0
 62
7
  6
CONTINUOUS
 10
136.3576246865
 20
170.1492964517
  0
VERTEX
  8
0
 62
7
  6
CONTINUOUS
 10
136.3474230579
 20
170.3112433958
  0
VERTEX
  8
0
 62
7
  6
CONTINUOUS
 10
136.3373066611
 20
170.4505145089
  0
VERTEX
  8
0
 62
7
  6
CONTINUOUS
 10
136.3272620068
 20
170.5691770315
  0
VERTEX
  8
0
 62
7
  6
CONTINUOUS
 10
136.3171726341
 20
170.670220419
  0
VERTEX
  8
0
 62
7
  6
CONTINUOUS
 10
136.3066624314
 20
170.7581194249
  0
VERTEX
  8
0
 62
7
  6
CONTINUOUS
 10
136.2949655827
 20
170.8381994388
  0
VERTEX
  8
0
 62
7
  6
CONTINUOUS
 10
136.2806675163
 20
170.916313571
  0
VERTEX
  8
0
 62
7
  6
CONTINUOUS
 10
136.2605820449
 20
171.001133068
  0
VERTEX
  8
0
 62
7
  6
CONTINUOUS
 10
136.2269225213
 20
171.1063832309
  0
VERTEX
  8
0
 62
7
  6
CONTINUOUS
 10
136.1670480162
 20
171.2390806734
  0
VERTEX
  8
0
 62
7
  6
CONTINUOUS
 10
136.0721870888
 20
171.38509796
  0
VERTEX
  8
0
 62
7
  6
CONTINUOUS
 10
135.92953461
 20
171.5344564177
  0
VERTEX
  8
0
 62
7
  6
CONTINUOUS
 10
135.7262116514
 20
171.6692247984
  0
VERTEX
  8
0
 62
7
  6
CONTINUOUS
 10
135.4797179223
 20
171.7547937819
  0
VERTEX
  8
0
 62
7
  6
CONTINUOUS
 10
135.2759674266
 20
171.7756578938
  0
SEQEND
  0
POLYLINE
  8
0
 62
7
  6
CONTINUOUS
 66
1
 70
0
  0
VERTEX
  8
0
 62
7
  6
CONTINUOUS
 10
136.8419050901
 20
108.6256578947
  0
VERTEX
  8
0
 62
7
  6
CONTINUOUS
 10
136.8429484643
 20
107.6000927602
  0
VERTEX
  8
0
 62
7
  6
CONTINUOUS
 10
136.8459336132
 20
106.6167349192
  0
VERTEX
  8
0
 62
7
  6
CONTINUOUS
 10
136.850509905
 20
105.7037091044
  0
VERTEX
  8
0
 62
7
  6
CONTINUOUS
 10
136.8563812506
 20
104.8593252651
  0
VERTEX
  8
0
 62
7
  6
CONTINUOUS
 10
136.8633053204
 20
104.0803651363
  0
VERTEX
  8
0
 62
7
  6
CONTINUOUS
 10
136.8710848547
 20
103.3631103974
  0
VERTEX
  8
0
 62
7
  6
CONTINUOUS
 10
136.879547819
 20
102.7045717838
  0
VERTEX
  8
0
 62
7
  6
CONTINUOUS
 10
136.8885503614
 20
102.1015080854
  0
VERTEX
  8
0
 62
7
  6
CONTINUOUS
 10
136.8979737628
 20
101.5505356297
  0
VERTEX
  8
0
 62
7
  6
CONTINUOUS
 10
136.9077145333
 20
101.0485756549
  0
VERTEX
  8
0
 62
7
  6
CONTINUOUS
 10
136.9176874374
 20
100.592509876
  0
VERTEX
  8
0
 62
7
  6
CONTINUOUS
 10
136.9278252135
 20
100.1791871787
  0
VERTEX
  8
0
 62
7
  6
CONTINUOUS
 10
136.9380756563
 20
99.8055514915
  0
VERTEX
  8
0
 62
7
  6
CONTINUOUS
 10
136.9484004476
 20
99.4686737616
  0
VERTEX
  8
0
 62
7
  6
CONTINUOUS
 10
136.9587752539
 20
99.1657515261
  0
VERTEX
  8
0
 62
7
  6
CONTINUOUS
 10
136.9691872833
 20
98.8941912785
  0
VERTEX
  8
0
 62
7
  6
CONTINUOUS
 10
136.9796036482
 20
98.6522953875
  0
VERTEX
  8
0
 62
7
  6
CONTINUOUS
 10
136.9899762351
 20
98.4387748266
  0
VERTEX
  8
0
 62
7
  6
CONTINUOUS
 10
137.0002700503
 20
98.2520193378
  0
VERTEX
  8
0
 62
7
  6
CONTINUOUS
 10
137.0104716789
 20
98.0900723937
  0
VERTEX
  8
0
 62
7
  6
CONTINUOUS
 10
137.0205880757
 20
97.9508012806
  0
VERTEX
  8
0
 62
7
  6
CONTINUOUS
 10
137.03063273
 20
97.832138758
  0
VERTEX
  8
0
 62
7
  6
CONTINUOUS
 10
137.0407221028
 20
97.7310953705
  0
VERTEX
  8
0
 62
7
  6
CONTINUOUS
 10
137.0512323054
 20
97.6431963646
  0
VERTEX
  8
0
 62
7
  6
CONTINUOUS
 10
137.0629291542
 20
97.5631163506
  0
VERTEX
  8
0
 62
7
  6
CONTINUOUS
 10
137.0772272205
 20
97.4850022185
  0
VERTEX
  8
0
 62
7
  6
CONTINUOUS
 10
137.097312692
 20
97.4001827215
  0
VERTEX
  8
0
 62
7
  6
CONTINUOUS
 10
137.1309722155
 20
97.2949325585
  0
VERTEX
  8
0
 62
7
  6
CONTINUOUS
 10
137.1908467206
 20
97.162235116
  0
VERTEX
  8
0
 62
7
  6
CONTINUOUS
 10
137.285707648
 20
97.0162178295
  0
VERTEX
  8
0
 62
7
  6
CONTINUOUS
 10
137.4283601269
 20
96.8668593718
  0
VERTEX
  8
0
 62
7
  6
CONTINUOUS
 10
137.6316830855
 20
96.7320909911
  0
VERTEX
  8
0
 62
7
  6
CONTINUOUS
 10
137.8781768145
 20
96.6465220075
  0
VERTEX
  8
0
 62
7
  6
CONTINUOUS
 10
138.0819273103
 20
96.6256578956
  0
SEQEND
  0
LINE
  8
0
 62
7
  6
CONTINUOUS
 10
136.5159896493
 20
159.7756578947
 11
136.5159896493
 21
152.9001359535
  0
LINE
  8
DEFAULT_1
 62
2
  6
CENTER
 10
136.6789473684
 20
179.9556146806
 11
136.6789473684
 21
136.2007578947
  0
LINE
  8
0
 62
2
  6
CONTINUOUS
 10
136.6789473684
 20
135.2506578947
 11
136.6789473684
 21
133.1506578947
  0
LINE
  8
DEFAULT_1
 62
2
  6
CENTER
 10
136.6789473684
 20
90.5788250213
 11
136.6789473684
 21
132.2005578947
  0
LINE
  8
0
 62
7
  6
CONTINUOUS
 10
136.8419050875
 20
108.6256578947
 11
136.8419050875
 21
115.501179708
  0
LINE
  8
0
 62
7
  6
CONTINUOUS
 10
153.8289473684
 20
155.3006578947
 11
157.7289473684
 21
159.2006578947
  0
LINE
  8
0
 62
7
  6
CONTINUOUS
 10
128.3289473684
 20
129.2006578947
 11
132.3289473684
 21
133.2006578947
  0
LINE
  8
0
 62
7
  6
CONTINUOUS
 10
141.0289473684
 20
141.2006578947
 11
145.0289473684
 21
145.2006578947
  0
LINE
  8
0
 62
7
  6
CONTINUOUS
 10
155.8289473684
 20
155.3006578947
 11
157.7289473684
 21
157.2006578947
  0
LINE
  8
0
 62
7
  6
CONTINUOUS
 10
130.3289473684
 20
129.2006578947
 11
132.3289473684
 21
131.2006578947
  0
LINE
  8
0
 62
7
  6
CONTINUOUS
 10
143.0289473684
 20
141.2006578947
 11
145.0289473684
 21
143.2006578947
  0
LINE
  8
0
 62
7
  6
CONTINUOUS
 10
128.3289473684
 20
125.2006578947
 11
130.3289473684
 21
127.2006578947
  0
LINE
  8
0
 62
7
  6
CONTINUOUS
 10
141.0289473684
 20
137.2006578947
 11
143.0289473684
 21
139.2006578947
  0
LINE
  8
0
 62
7
  6
CONTINUOUS
 10
115.6289473684
 20
111.2006578947
 11
117.5289473684
 21
113.1006578947
  0
LINE
  8
0
 62
7
  6
CONTINUOUS
 10
128.3289473684
 20
123.2006578947
 11
132.3289473684
 21
127.2006578947
  0
LINE
  8
0
 62
7
  6
CONTINUOUS
 10
141.0289473684
 20
135.2006578947
 11
145.0289473684
 21
139.2006578947
  0
LINE
  8
0
 62
7
  6
CONTINUOUS
 10
115.6289473684
 20
109.2006578947
 11
119.5289473684
 21
113.1006578947
  0
LINE
  8
0
 62
7
  6
CONTINUOUS
 10
195.8289473684
 20
129.2006578947
 11
191.8289473684
 21
129.2006578947
  0
LINE
  8
0
 62
7
  6
CONTINUOUS
 10
170.4289473684
 20
129.2006578947
 11
166.4289473684
 21
129.2006578947
  0
LINE
  8
0
 62
7
  6
CONTINUOUS
 10
145.0289473684
 20
129.2006578947
 11
141.0289473684
 21
129.2006578947
  0
LINE
  8
0
 62
7
  6
CONTINUOUS
 10
119.6289473684
 20
129.2006578947
 11
115.6289473684
 21
129.2006578947
  0
LINE
  8
0
 62
7
  6
CONTINUOUS
 10
94.2289473684
 20
129.2006578947
 11
90.2289473684
 21
129.2006578947
  0
LINE
  8
0
 62
7
  6
CONTINUOUS
 10
68.8289473684
 20
129.2006578947
 11
64.8289473684
 21
129.2006578947
  0
LINE
  8
0
 62
7
  6
CONTINUOUS
 10
77.5289473684
 20
129.2006578947
 11
81.5289473684
 21
129.2006578947
  0
LINE
  8
0
 62
7
  6
CONTINUOUS
 10
102.9289473684
 20
129.2006578947
 11
106.9289473684
 21
129.2006578947
  0
LINE
  8
0
 62
7
  6
CONTINUOUS
 10
128.3289473684
 20
129.2006578947
 11
132.3289473684
 21
129.2006578947
  0
LINE
  8
0
 62
7
  6
CONTINUOUS
 10
153.7289473684
 20
129.2006578947
 11
157.7289473684
 21
129.2006578947
  0
LINE
  8
0
 62
7
  6
CONTINUOUS
 10
179.1289473684
 20
129.2006578947
 11
183.1289473684
 21
129.2006578947
  0
LINE
  8
0
 62
7
  6
CONTINUOUS
 10
204.5289473684
 20
129.2006578947
 11
208.5289473684
 21
129.2006578947
  0
LINE
  8
0
 62
7
  6
CONTINUOUS
 10
208.5289473684
 20
131.2006578947
 11
204.5289473684
 21
131.2006578947
  0
LINE
  8
0
 62
7
  6
CONTINUOUS
 10
195.8289473684
 20
131.2006578947
 11
191.8289473684
 21
131.2006578947
  0
LINE
  8
0
 62
7
  6
CONTINUOUS
 10
183.1289473684
 20
131.2006578947
 11
179.1289473684
 21
131.2006578947
  0
LINE
  8
0
 62
7
  6
CONTINUOUS
 10
170.4289473684
 20
131.2006578947
 11
166.4289473684
 21
131.2006578947
  0
LINE
  8
0
 62
7
  6
CONTINUOUS
 10
157.7289473684
 20
131.2006578947
 11
153.7289473684
 21
131.2006578947
  0
LINE
  8
0
 62
7
  6
CONTINUOUS
 10
145.0289473684
 20
131.2006578947
 11
141.0289473684
 21
131.2006578947
  0
LINE
  8
0
 62
7
  6
CONTINUOUS
 10
132.3289473684
 20
131.2006578947
 11
128.3289473684
 21
131.2006578947
  0
LINE
  8
0
 62
7
  6
CONTINUOUS
 10
119.6289473684
 20
131.2006578947
 11
115.6289473684
 21
131.2006578947
  0
LINE
  8
0
 62
7
  6
CONTINUOUS
 10
106.9289473684
 20
131.2006578947
 11
102.9289473684
 21
131.2006578947
  0
LINE
  8
0
 62
7
  6
CONTINUOUS
 10
94.2289473684
 20
131.2006578947
 11
90.2289473684
 21
131.2006578947
  0
LINE
  8
0
 62
7
  6
CONTINUOUS
 10
81.5289473684
 20
131.2006578947
 11
77.5289473684
 21
131.2006578947
  0
LINE
  8
0
 62
7
  6
CONTINUOUS
 10
68.8289473684
 20
131.2006578947
 11
64.8289473684
 21
131.2006578947
  0
LINE
  8
0
 62
7
  6
CONTINUOUS
 10
208.5289473684
 20
133.2006578947
 11
204.5289473684
 21
133.2006578947
  0
LINE
  8
0
 62
7
  6
CONTINUOUS
 10
183.1289473684
 20
133.2006578947
 11
179.1289473684
 21
133.2006578947
  0
LINE
  8
0
 62
7
  6
CONTINUOUS
 10
157.7289473684
 20
133.2006578947
 11
153.7289473684
 21
133.2006578947
  0
LINE
  8
0
 62
7
  6
CONTINUOUS
 10
132.3289473684
 20
133.2006578947
 11
128.3289473684
 21
133.2006578947
  0
LINE
  8
0
 62
7
  6
CONTINUOUS
 10
106.9289473684
 20
133.2006578947
 11
102.9289473684
 21
133.2006578947
  0
LINE
  8
0
 62
7
  6
CONTINUOUS
 10
81.5289473684
 20
133.2006578947
 11
77.5289473684
 21
133.2006578947
  0
LINE
  8
0
 62
7
  6
CONTINUOUS
 10
64.8289473684
 20
133.2006578947
 11
68.8289473684
 21
133.2006578947
  0
LINE
  8
0
 62
7
  6
CONTINUOUS
 10
90.2289473684
 20
133.2006578947
 11
94.2289473684
 21
133.2006578947
  0
LINE
  8
0
 62
7
  6
CONTINUOUS
 10
115.6289473684
 20
133.2006578947
 11
119.6289473684
 21
133.2006578947
  0
LINE
  8
0
 62
7
  6
CONTINUOUS
 10
141.0289473684
 20
133.2006578947
 11
145.0289473684
 21
133.2006578947
  0
LINE
  8
0
 62
7
  6
CONTINUOUS
 10
166.4289473684
 20
133.2006578947
 11
170.4289473684
 21
133.2006578947
  0
LINE
  8
0
 62
7
  6
CONTINUOUS
 10
191.8289473684
 20
133.2006578947
 11
195.8289473684
 21
133.2006578947
  0
LINE
  8
DEFAULT_1
 62
2
  6
CENTER
 10
227.2901222302
 20
134.2006578947
 11
138.6790473684
 21
134.2006578947
  0
LINE
  8
0
 62
2
  6
CONTINUOUS
 10
137.7289473684
 20
134.2006578947
 11
135.6289473684
 21
134.2006578947
  0
LINE
  8
DEFAULT_1
 62
2
  6
CENTER
 10
42.968368916
 20
134.2006578947
 11
134.6788473684
 21
134.2006578947
  0
LINE
  8
0
 62
7
  6
CONTINUOUS
 10
128.3289473684
 20
139.2006578947
 11
130.3289473684
 21
137.2006578947
  0
LINE
  8
0
 62
7
  6
CONTINUOUS
 10
128.4289473684
 20
141.1006578947
 11
132.3289473684
 21
137.2006578947
  0
LINE
  8
0
 62
7
  6
CONTINUOUS
 10
141.0289473684
 20
129.2006578947
 11
142.9289473684
 21
127.3006578947
  0
LINE
  8
0
 62
7
  6
CONTINUOUS
 10
130.4289473684
 20
141.1006578947
 11
132.3289473684
 21
139.2006578947
  0
LINE
  8
0
 62
7
  6
CONTINUOUS
 10
141.0289473684
 20
131.2006578947
 11
144.9289473684
 21
127.3006578947
  0
LINE
  8
0
 62
7
  6
CONTINUOUS
 10
143.0289473684
 20
131.2006578947
 11
145.0289473684
 21
129.2006578947
  0
LINE
  8
0
 62
7
  6
CONTINUOUS
 10
140.9289473684
 20
114.0006578947
 11
140.9289473684
 21
126.4006578947
  0
LINE
  8
0
 62
7
  6
CONTINUOUS
 10
141.0289473684
 20
109.2006578947
 11
141.0289473684
 21
113.1006578947
  0
LINE
  8
0
 62
7
  6
CONTINUOUS
 10
141.0289473684
 20
127.3006578947
 11
141.0289473684
 21
131.2006578947
  0
LINE
  8
0
 62
7
  6
CONTINUOUS
 10
141.0289473684
 20
133.2006578947
 11
141.0289473684
 21
139.2006578947
  0
LINE
  8
0
 62
7
  6
CONTINUOUS
 10
141.0289473684
 20
141.2006578947
 11
141.0289473684
 21
147.2006578947
  0
LINE
  8
0
 62
7
  6
CONTINUOUS
 10
143.0289473684
 20
109.2006578947
 11
143.0289473684
 21
113.1006578947
  0
LINE
  8
0
 62
7
  6
CONTINUOUS
 10
143.0289473684
 20
127.3006578947
 11
143.0289473684
 21
131.2006578947
  0
LINE
  8
0
 62
7
  6
CONTINUOUS
 10
143.0289473684
 20
133.2006578947
 11
143.0289473684
 21
139.2006578947
  0
LINE
  8
0
 62
7
  6
CONTINUOUS
 10
143.0289473684
 20
141.2006578947
 11
143.0289473684
 21
147.2006578947
  0
LINE
  8
0
 62
7
  6
CONTINUOUS
 10
145.0289473684
 20
109.2006578947
 11
145.0289473684
 21
113.1006578947
  0
LINE
  8
0
 62
7
  6
CONTINUOUS
 10
145.0289473684
 20
127.3006578947
 11
145.0289473684
 21
131.2006578947
  0
LINE
  8
0
 62
7
  6
CONTINUOUS
 10
145.0289473684
 20
133.2006578947
 11
145.0289473684
 21
139.2006578947
  0
LINE
  8
0
 62
7
  6
CONTINUOUS
 10
145.0289473684
 20
141.2006578947
 11
145.0289473684
 21
147.2006578947
  0
LINE
  8
0
 62
7
  6
CONTINUOUS
 10
145.1289473684
 20
126.4006578947
 11
145.1289473684
 21
114.0006578947
  0
LINE
  8
0
 62
7
  6
CONTINUOUS
 10
128.3289473684
 20
121.2006578947
 11
132.3289473684
 21
125.2006578947
  0
LINE
  8
0
 62
7
  6
CONTINUOUS
 10
141.0289473684
 20
133.2006578947
 11
145.0289473684
 21
137.2006578947
  0
LINE
  8
0
 62
7
  6
CONTINUOUS
 10
117.6289473684
 20
109.2006578947
 11
119.6289473684
 21
111.2006578947
  0
LINE
  8
0
 62
7
  6
CONTINUOUS
 10
130.3289473684
 20
121.2006578947
 11
132.3289473684
 21
123.2006578947
  0
LINE
  8
0
 62
7
  6
CONTINUOUS
 10
143.0289473684
 20
133.2006578947
 11
145.0289473684
 21
135.2006578947
  0
LINE
  8
0
 62
7
  6
CONTINUOUS
 10
141.0289473684
 20
129.2006578947
 11
143.0289473684
 21
131.2006578947
  0
LINE
  8
0
 62
7
  6
CONTINUOUS
 10
141.1289473684
 20
127.3006578947
 11
145.0289473684
 21
131.2006578947
  0
LINE
  8
0
 62
7
  6
CONTINUOUS
 10
153.7289473684
 20
139.2006578947
 11
155.6289473684
 21
141.1006578947
  0
LINE
  8
0
 62
7
  6
CONTINUOUS
 10
208.5289473684
 20
135.2006578947
 11
204.5289473684
 21
135.2006578947
  0
LINE
  8
0
 62
7
  6
CONTINUOUS
 10
195.8289473684
 20
135.2006578947
 11
191.8289473684
 21
135.2006578947
  0
LINE
  8
0
 62
7
  6
CONTINUOUS
 10
183.1289473684
 20
135.2006578947
 11
179.1289473684
 21
135.2006578947
  0
LINE
  8
0
 62
7
  6
CONTINUOUS
 10
170.4289473684
 20
135.2006578947
 11
166.4289473684
 21
135.2006578947
  0
LINE
  8
0
 62
7
  6
CONTINUOUS
 10
157.7289473684
 20
135.2006578947
 11
153.7289473684
 21
135.2006578947
  0
LINE
  8
0
 62
7
  6
CONTINUOUS
 10
145.0289473684
 20
135.2006578947
 11
141.0289473684
 21
135.2006578947
  0
LINE
  8
0
 62
7
  6
CONTINUOUS
 10
132.3289473684
 20
135.2006578947
 11
128.3289473684
 21
135.2006578947
  0
LINE
  8
0
 62
7
  6
CONTINUOUS
 10
119.6289473684
 20
135.2006578947
 11
115.6289473684
 21
135.2006578947
  0
LINE
  8
0
 62
7
  6
CONTINUOUS
 10
106.9289473684
 20
135.2006578947
 11
102.9289473684
 21
135.2006578947
  0
LINE
  8
0
 62
7
  6
CONTINUOUS
 10
94.2289473684
 20
135.2006578947
 11
90.2289473684
 21
135.2006578947
  0
LINE
  8
0
 62
7
  6
CONTINUOUS
 10
81.5289473684
 20
135.2006578947
 11
77.5289473684
 21
135.2006578947
  0
LINE
  8
0
 62
7
  6
CONTINUOUS
 10
68.8289473684
 20
135.2006578947
 11
64.8289473684
 21
135.2006578947
  0
LINE
  8
0
 62
7
  6
CONTINUOUS
 10
195.8289473684
 20
137.2006578947
 11
191.8289473684
 21
137.2006578947
  0
LINE
  8
0
 62
7
  6
CONTINUOUS
 10
170.4289473684
 20
137.2006578947
 11
166.4289473684
 21
137.2006578947
  0
LINE
  8
0
 62
7
  6
CONTINUOUS
 10
145.0289473684
 20
137.2006578947
 11
141.0289473684
 21
137.2006578947
  0
LINE
  8
0
 62
7
  6
CONTINUOUS
 10
119.6289473684
 20
137.2006578947
 11
115.6289473684
 21
137.2006578947
  0
LINE
  8
0
 62
7
  6
CONTINUOUS
 10
94.2289473684
 20
137.2006578947
 11
90.2289473684
 21
137.2006578947
  0
LINE
  8
0
 62
7
  6
CONTINUOUS
 10
68.8289473684
 20
137.2006578947
 11
64.8289473684
 21
137.2006578947
  0
LINE
  8
0
 62
7
  6
CONTINUOUS
 10
77.5289473684
 20
137.2006578947
 11
81.5289473684
 21
137.2006578947
  0
LINE
  8
0
 62
7
  6
CONTINUOUS
 10
102.9289473684
 20
137.2006578947
 11
106.9289473684
 21
137.2006578947
  0
LINE
  8
0
 62
7
  6
CONTINUOUS
 10
128.3289473684
 20
137.2006578947
 11
132.3289473684
 21
137.2006578947
  0
LINE
  8
0
 62
7
  6
CONTINUOUS
 10
153.7289473684
 20
137.2006578947
 11
157.7289473684
 21
137.2006578947
  0
LINE
  8
0
 62
7
  6
CONTINUOUS
 10
179.1289473684
 20
137.2006578947
 11
183.1289473684
 21
137.2006578947
  0
LINE
  8
0
 62
7
  6
CONTINUOUS
 10
204.5289473684
 20
137.2006578947
 11
208.5289473684
 21
137.2006578947
  0
LINE
  8
0
 62
7
  6
CONTINUOUS
 10
208.5289473684
 20
139.2006578947
 11
204.5289473684
 21
139.2006578947
  0
LINE
  8
0
 62
7
  6
CONTINUOUS
 10
195.8289473684
 20
139.2006578947
 11
191.8289473684
 21
139.2006578947
  0
LINE
  8
0
 62
7
  6
CONTINUOUS
 10
183.1289473684
 20
139.2006578947
 11
179.1289473684
 21
139.2006578947
  0
LINE
  8
0
 62
7
  6
CONTINUOUS
 10
170.4289473684
 20
139.2006578947
 11
166.4289473684
 21
139.2006578947
  0
LINE
  8
0
 62
7
  6
CONTINUOUS
 10
157.7289473684
 20
139.2006578947
 11
153.7289473684
 21
139.2006578947
  0
LINE
  8
0
 62
7
  6
CONTINUOUS
 10
145.0289473684
 20
139.2006578947
 11
141.0289473684
 21
139.2006578947
  0
LINE
  8
0
 62
7
  6
CONTINUOUS
 10
132.3289473684
 20
139.2006578947
 11
128.3289473684
 21
139.2006578947
  0
LINE
  8
0
 62
7
  6
CONTINUOUS
 10
119.6289473684
 20
139.2006578947
 11
115.6289473684
 21
139.2006578947
  0
LINE
  8
0
 62
7
  6
CONTINUOUS
 10
106.9289473684
 20
139.2006578947
 11
102.9289473684
 21
139.2006578947
  0
LINE
  8
0
 62
7
  6
CONTINUOUS
 10
94.2289473684
 20
139.2006578947
 11
90.2289473684
 21
139.2006578947
  0
LINE
  8
0
 62
7
  6
CONTINUOUS
 10
81.5289473684
 20
139.2006578947
 11
77.5289473684
 21
139.2006578947
  0
LINE
  8
0
 62
7
  6
CONTINUOUS
 10
68.8289473684
 20
139.2006578947
 11
64.8289473684
 21
139.2006578947
  0
LINE
  8
0
 62
7
  6
CONTINUOUS
 10
77.5289473684
 20
141.1006578947
 11
81.5289473684
 21
141.1006578947
  0
LINE
  8
0
 62
7
  6
CONTINUOUS
 10
102.9289473684
 20
141.1006578947
 11
106.9289473684
 21
141.1006578947
  0
LINE
  8
0
 62
7
  6
CONTINUOUS
 10
128.3289473684
 20
141.1006578947
 11
132.3289473684
 21
141.1006578947
  0
LINE
  8
0
 62
7
  6
CONTINUOUS
 10
153.7289473684
 20
141.1006578947
 11
157.7289473684
 21
141.1006578947
  0
LINE
  8
0
 62
7
  6
CONTINUOUS
 10
179.1289473684
 20
141.1006578947
 11
183.1289473684
 21
141.1006578947
  0
LINE
  8
0
 62
7
  6
CONTINUOUS
 10
204.5289473684
 20
141.1006578947
 11
208.5289473684
 21
141.1006578947
  0
POLYLINE
  8
0
 62
7
  6
CONTINUOUS
 66
1
 70
0
  0
VERTEX
  8
0
 62
7
  6
CONTINUOUS
 10
86.6600885816
 20
151.8977432027
  0
VERTEX
  8
0
 62
7
  6
CONTINUOUS
 10
86.3965783968
 20
151.9519197285
  0
VERTEX
  8
0
 62
7
  6
CONTINUOUS
 10
86.1517185411
 20
152.0741895233
  0
VERTEX
  8
0
 62
7
  6
CONTINUOUS
 10
85.9656458547
 20
152.2388527467
  0
VERTEX
  8
0
 62
7
  6
CONTINUOUS
 10
85.8247775778
 20
152.4464072072
  0
VERTEX
  8
0
 62
7
  6
CONTINUOUS
 10
85.7401058384
 20
152.6817864016
  0
VERTEX
  8
0
 62
7
  6
CONTINUOUS
 10
85.7159911196
 20
152.9001359074
  0
SEQEND
  0
LINE
  8
0
 62
7
  6
CONTINUOUS
 10
141.0289473684
 20
135.2006578947
 11
143.0289473684
 21
133.2006578947
  0
LINE
  8
0
 62
7
  6
CONTINUOUS
 10
153.7289473684
 20
123.2006578947
 11
155.7289473684
 21
121.2006578947
  0
LINE
  8
0
 62
7
  6
CONTINUOUS
 10
166.4289473684
 20
111.2006578947
 11
168.4289473684
 21
109.2006578947
  0
LINE
  8
0
 62
7
  6
CONTINUOUS
 10
141.0289473684
 20
137.2006578947
 11
145.0289473684
 21
133.2006578947
  0
LINE
  8
0
 62
7
  6
CONTINUOUS
 10
153.7289473684
 20
125.2006578947
 11
157.7289473684
 21
121.2006578947
  0
LINE
  8
0
 62
7
  6
CONTINUOUS
 10
166.5289473684
 20
113.1006578947
 11
170.4289473684
 21
109.2006578947
  0
LINE
  8
0
 62
7
  6
CONTINUOUS
 10
141.0289473684
 20
139.2006578947
 11
145.0289473684
 21
135.2006578947
  0
LINE
  8
0
 62
7
  6
CONTINUOUS
 10
153.7289473684
 20
127.2006578947
 11
157.7289473684
 21
123.2006578947
  0
LINE
  8
0
 62
7
  6
CONTINUOUS
 10
168.5289473684
 20
113.1006578947
 11
170.4289473684
 21
111.2006578947
  0
LINE
  8
0
 62
7
  6
CONTINUOUS
 10
143.0289473684
 20
139.2006578947
 11
145.0289473684
 21
137.2006578947
  0
LINE
  8
0
 62
7
  6
CONTINUOUS
 10
155.7289473684
 20
127.2006578947
 11
157.7289473684
 21
125.2006578947
  0
LINE
  8
0
 62
7
  6
CONTINUOUS
 10
149.2159896493
 20
115.5011796404
 11
149.2159896493
 21
108.6256578947
  0
LINE
  8
0
 62
7
  6
CONTINUOUS
 10
149.5419050875
 20
152.9001359943
 11
149.5419050875
 21
159.7756578947
  0
POLYLINE
  8
0
 62
7
  6
CONTINUOUS
 66
1
 70
0
  0
VERTEX
  8
0
 62
7
  6
CONTINUOUS
 10
149.5419035732
 20
152.9001359943
  0
VERTEX
  8
0
 62
7
  6
CONTINUOUS
 10
149.517256059
 20
152.6794170543
  0
VERTEX
  8
0
 62
7
  6
CONTINUOUS
 10
149.4320822482
 20
152.4443787033
  0
VERTEX
  8
0
 62
7
  6
CONTINUOUS
 10
149.2908328982
 20
152.237248058
  0
VERTEX
  8
0
 62
7
  6
CONTINUOUS
 10
149.1045228324
 20
152.0730607237
  0
VERTEX
  8
0
 62
7
  6
CONTINUOUS
 10
148.85869543
 20
151.9510363539
  0
VERTEX
  8
0
 62
7
  6
CONTINUOUS
 10
148.5978882756
 20
151.8977540816
  0
SEQEND
  0
POLYLINE
  8
0
 62
7
  6
CONTINUOUS
 66
1
 70
0
  0
VERTEX
  8
0
 62
7
  6
CONTINUOUS
 10
149.2159910014
 20
115.5011796404
  0
VERTEX
  8
0
 62
7
  6
CONTINUOUS
 10
149.2406337997
 20
115.7218777415
  0
VERTEX
  8
0
 62
7
  6
CONTINUOUS
 10
149.3257928333
 20
115.9568988132
  0
VERTEX
  8
0
 62
7
  6
CONTINUOUS
 10
149.4670192484
 20
116.1640195741
  0
VERTEX
  8
0
 62
7
  6
CONTINUOUS
 10
149.6533012391
 20
116.328206949
  0
VERTEX
  8
0
 62
7
  6
CONTINUOUS
 10
149.8985706663
 20
116.4500682395
  0
VERTEX
  8
0
 62
7
  6
CONTINUOUS
 10
150.1599892843
 20
116.5035589963
  0
SEQEND
  0
LINE
  8
0
 62
7
  6
CONTINUOUS
 10
143.1289473684
 20
127.3006578947
 11
145.0289473684
 21
129.2006578947
  0
LINE
  8
0
 62
7
  6
CONTINUOUS
 10
153.7289473684
 20
137.2006578947
 11
157.6289473684
 21
141.1006578947
  0
LINE
  8
0
 62
7
  6
CONTINUOUS
 10
155.7289473684
 20
137.2006578947
 11
157.7289473684
 21
139.2006578947
  0
LINE
  8
0
 62
7
  6
CONTINUOUS
 10
153.7289473684
 20
133.2006578947
 11
155.7289473684
 21
135.2006578947
  0
LINE
  8
0
 62
7
  6
CONTINUOUS
 10
166.4289473684
 20
145.2006578947
 11
168.4289473684
 21
147.2006578947
  0
LINE
  8
0
 62
7
  6
CONTINUOUS
 10
179.1289473684
 20
157.2006578947
 11
181.1289473684
 21
159.2006578947
  0
LINE
  8
0
 62
7
  6
CONTINUOUS
 10
153.7289473684
 20
131.2006578947
 11
157.7289473684
 21
135.2006578947
  0
LINE
  8
0
 62
7
  6
CONTINUOUS
 10
166.4289473684
 20
143.2006578947
 11
170.4289473684
 21
147.2006578947
  0
LINE
  8
0
 62
7
  6
CONTINUOUS
 10
179.2289473684
 20
155.3006578947
 11
183.1289473684
 21
159.2006578947
  0
POLYLINE
  8
0
 62
7
  6
CONTINUOUS
 66
1
 70
0
  0
VERTEX
  8
0
 62
7
  6
CONTINUOUS
 10
199.3978879487
 20
151.8977557276
  0
VERTEX
  8
0
 62
7
  6
CONTINUOUS
 10
199.3860644987
 20
151.8966215634
  0
VERTEX
  8
0
 62
7
  6
CONTINUOUS
 10
199.3770681645
 20
151.8963589245
  0
SEQEND
  0
LINE
  8
0
 62
7
  6
CONTINUOUS
 10
64.8289473684
 20
141.2006578947
 11
68.8289473684
 21
141.2006578947
  0
LINE
  8
0
 62
7
  6
CONTINUOUS
 10
90.2289473684
 20
141.2006578947
 11
94.2289473684
 21
141.2006578947
  0
LINE
  8
0
 62
7
  6
CONTINUOUS
 10
115.6289473684
 20
141.2006578947
 11
119.6289473684
 21
141.2006578947
  0
LINE
  8
0
 62
7
  6
CONTINUOUS
 10
141.0289473684
 20
141.2006578947
 11
145.0289473684
 21
141.2006578947
  0
LINE
  8
0
 62
7
  6
CONTINUOUS
 10
166.4289473684
 20
141.2006578947
 11
170.4289473684
 21
141.2006578947
  0
LINE
  8
0
 62
7
  6
CONTINUOUS
 10
191.8289473684
 20
141.2006578947
 11
195.8289473684
 21
141.2006578947
  0
LINE
  8
0
 62
7
  6
CONTINUOUS
 10
195.8289473684
 20
143.2006578947
 11
191.8289473684
 21
143.2006578947
  0
LINE
  8
0
 62
7
  6
CONTINUOUS
 10
170.4289473684
 20
143.2006578947
 11
166.4289473684
 21
143.2006578947
  0
LINE
  8
0
 62
7
  6
CONTINUOUS
 10
145.0289473684
 20
143.2006578947
 11
141.0289473684
 21
143.2006578947
  0
LINE
  8
0
 62
7
  6
CONTINUOUS
 10
119.6289473684
 20
143.2006578947
 11
115.6289473684
 21
143.2006578947
  0
LINE
  8
0
 62
7
  6
CONTINUOUS
 10
94.2289473684
 20
143.2006578947
 11
90.2289473684
 21
143.2006578947
  0
LINE
  8
0
 62
7
  6
CONTINUOUS
 10
68.8289473684
 20
143.2006578947
 11
64.8289473684
 21
143.2006578947
  0
LINE
  8
0
 62
7
  6
CONTINUOUS
 10
195.8289473684
 20
145.2006578947
 11
191.8289473684
 21
145.2006578947
  0
LINE
  8
0
 62
7
  6
CONTINUOUS
 10
170.4289473684
 20
145.2006578947
 11
166.4289473684
 21
145.2006578947
  0
LINE
  8
0
 62
7
  6
CONTINUOUS
 10
145.0289473684
 20
145.2006578947
 11
141.0289473684
 21
145.2006578947
  0
LINE
  8
0
 62
7
  6
CONTINUOUS
 10
119.6289473684
 20
145.2006578947
 11
115.6289473684
 21
145.2006578947
  0
LINE
  8
0
 62
7
  6
CONTINUOUS
 10
94.2289473684
 20
145.2006578947
 11
90.2289473684
 21
145.2006578947
  0
LINE
  8
0
 62
7
  6
CONTINUOUS
 10
68.8289473684
 20
145.2006578947
 11
64.8289473684
 21
145.2006578947
  0
LINE
  8
0
 62
7
  6
CONTINUOUS
 10
195.8289473684
 20
147.2006578947
 11
191.8289473684
 21
147.2006578947
  0
LINE
  8
0
 62
7
  6
CONTINUOUS
 10
170.4289473684
 20
147.2006578947
 11
166.4289473684
 21
147.2006578947
  0
LINE
  8
0
 62
7
  6
CONTINUOUS
 10
145.0289473684
 20
147.2006578947
 11
141.0289473684
 21
147.2006578947
  0
LINE
  8
0
 62
7
  6
CONTINUOUS
 10
119.6289473684
 20
147.2006578947
 11
115.6289473684
 21
147.2006578947
  0
LINE
  8
0
 62
7
  6
CONTINUOUS
 10
94.2289473684
 20
147.2006578947
 11
90.2289473684
 21
147.2006578947
  0
LINE
  8
0
 62
7
  6
CONTINUOUS
 10
68.8289473684
 20
147.2006578947
 11
64.8289473684
 21
147.2006578947
  0
POLYLINE
  8
0
 62
7
  6
CONTINUOUS
 66
1
 70
0
  0
VERTEX
  8
0
 62
7
  6
CONTINUOUS
 10
112.0600885819
 20
151.8977432027
  0
VERTEX
  8
0
 62
7
  6
CONTINUOUS
 10
111.7965783906
 20
151.9519197306
  0
VERTEX
  8
0
 62
7
  6
CONTINUOUS
 10
111.5517185407
 20
152.0741895236
  0
VERTEX
  8
0
 62
7
  6
CONTINUOUS
 10
111.3656458543
 20
152.2388527471
  0
VERTEX
  8
0
 62
7
  6
CONTINUOUS
 10
111.2247775776
 20
152.4464072075
  0
VERTEX
  8
0
 62
7
  6
CONTINUOUS
 10
111.1401058383
 20
152.6817864018
  0
VERTEX
  8
0
 62
7
  6
CONTINUOUS
 10
111.1159911195
 20
152.9001359075
  0
SEQEND
  0
LINE
  8
0
 62
7
  6
CONTINUOUS
 10
141.0289473684
 20
143.2006578947
 11
143.0289473684
 21
141.2006578947
  0
LINE
  8
0
 62
7
  6
CONTINUOUS
 10
153.7289473684
 20
131.2006578947
 11
155.7289473684
 21
129.2006578947
  0
LINE
  8
0
 62
7
  6
CONTINUOUS
 10
128.3289473684
 20
157.2006578947
 11
130.2289473684
 21
155.3006578947
  0
LINE
  8
0
 62
7
  6
CONTINUOUS
 10
141.0289473684
 20
145.2006578947
 11
145.0289473684
 21
141.2006578947
  0
LINE
  8
0
 62
7
  6
CONTINUOUS
 10
153.7289473684
 20
133.2006578947
 11
157.7289473684
 21
129.2006578947
  0
LINE
  8
0
 62
7
  6
CONTINUOUS
 10
128.3289473684
 20
159.2006578947
 11
132.2289473684
 21
155.3006578947
  0
LINE
  8
0
 62
7
  6
CONTINUOUS
 10
141.0289473684
 20
147.2006578947
 11
145.0289473684
 21
143.2006578947
  0
LINE
  8
0
 62
7
  6
CONTINUOUS
 10
153.7289473684
 20
135.2006578947
 11
157.7289473684
 21
131.2006578947
  0
LINE
  8
0
 62
7
  6
CONTINUOUS
 10
130.3289473684
 20
159.2006578947
 11
132.3289473684
 21
157.2006578947
  0
LINE
  8
0
 62
7
  6
CONTINUOUS
 10
143.0289473684
 20
147.2006578947
 11
145.0289473684
 21
145.2006578947
  0
LINE
  8
0
 62
7
  6
CONTINUOUS
 10
155.7289473684
 20
135.2006578947
 11
157.7289473684
 21
133.2006578947
  0
LINE
  8
0
 62
7
  6
CONTINUOUS
 10
153.6289473684
 20
142.0006578947
 11
153.6289473684
 21
154.4006578947
  0
LINE
  8
0
 62
7
  6
CONTINUOUS
 10
153.7289473684
 20
121.2006578947
 11
153.7289473684
 21
127.2006578947
  0
LINE
  8
0
 62
7
  6
CONTINUOUS
 10
153.7289473684
 20
129.2006578947
 11
153.7289473684
 21
135.2006578947
  0
LINE
  8
0
 62
7
  6
CONTINUOUS
 10
153.7289473684
 20
137.2006578947
 11
153.7289473684
 21
141.1006578947
  0
LINE
  8
0
 62
7
  6
CONTINUOUS
 10
153.7289473684
 20
155.3006578947
 11
153.7289473684
 21
159.2006578947
  0
LINE
  8
0
 62
7
  6
CONTINUOUS
 10
155.7289473684
 20
121.2006578947
 11
155.7289473684
 21
127.2006578947
  0
LINE
  8
0
 62
7
  6
CONTINUOUS
 10
155.7289473684
 20
129.2006578947
 11
155.7289473684
 21
135.2006578947
  0
LINE
  8
0
 62
7
  6
CONTINUOUS
 10
155.7289473684
 20
137.2006578947
 11
155.7289473684
 21
141.1006578947
  0
LINE
  8
0
 62
7
  6
CONTINUOUS
 10
155.7289473684
 20
155.3006578947
 11
155.7289473684
 21
159.2006578947
  0
LINE
  8
0
 62
7
  6
CONTINUOUS
 10
157.7289473684
 20
121.2006578947
 11
157.7289473684
 21
127.2006578947
  0
LINE
  8
0
 62
7
  6
CONTINUOUS
 10
157.7289473684
 20
129.2006578947
 11
157.7289473684
 21
135.2006578947
  0
LINE
  8
0
 62
7
  6
CONTINUOUS
 10
157.7289473684
 20
137.2006578947
 11
157.7289473684
 21
141.1006578947
  0
LINE
  8
0
 62
7
  6
CONTINUOUS
 10
157.7289473684
 20
155.3006578947
 11
157.7289473684
 21
159.2006578947
  0
LINE
  8
0
 62
7
  6
CONTINUOUS
 10
157.8289473684
 20
154.4006578947
 11
157.8289473684
 21
142.0006578947
  0
LINE
  8
0
 62
7
  6
CONTINUOUS
 10
153.7289473684
 20
129.2006578947
 11
157.7289473684
 21
133.2006578947
  0
LINE
  8
0
 62
7
  6
CONTINUOUS
 10
166.4289473684
 20
141.2006578947
 11
170.4289473684
 21
145.2006578947
  0
LINE
  8
0
 62
7
  6
CONTINUOUS
 10
181.2289473684
 20
155.3006578947
 11
183.1289473684
 21
157.2006578947
  0
LINE
  8
0
 62
7
  6
CONTINUOUS
 10
155.7289473684
 20
129.2006578947
 11
157.7289473684
 21
131.2006578947
  0
LINE
  8
0
 62
7
  6
CONTINUOUS
 10
168.4289473684
 20
141.2006578947
 11
170.4289473684
 21
143.2006578947
  0
LINE
  8
0
 62
7
  6
CONTINUOUS
 10
153.7289473684
 20
125.2006578947
 11
155.7289473684
 21
127.2006578947
  0
LINE
  8
0
 62
7
  6
CONTINUOUS
 10
166.4289473684
 20
137.2006578947
 11
168.4289473684
 21
139.2006578947
  0
LINE
  8
0
 62
7
  6
CONTINUOUS
 10
141.0289473684
 20
111.2006578947
 11
142.9289473684
 21
113.1006578947
  0
LINE
  8
0
 62
7
  6
CONTINUOUS
 10
153.7289473684
 20
123.2006578947
 11
157.7289473684
 21
127.2006578947
  0
LINE
  8
0
 62
7
  6
CONTINUOUS
 10
166.4289473684
 20
135.2006578947
 11
170.4289473684
 21
139.2006578947
  0
LINE
  8
0
 62
7
  6
CONTINUOUS
 10
141.0289473684
 20
109.2006578947
 11
144.9289473684
 21
113.1006578947
  0
LINE
  8
0
 62
7
  6
CONTINUOUS
 10
153.7289473684
 20
121.2006578947
 11
157.7289473684
 21
125.2006578947
  0
POLYLINE
  8
0
 62
7
  6
CONTINUOUS
 66
1
 70
0
  0
VERTEX
  8
0
 62
7
  6
CONTINUOUS
 10
173.9978879483
 20
151.8977557275
  0
VERTEX
  8
0
 62
7
  6
CONTINUOUS
 10
173.9860644986
 20
151.8966215634
  0
VERTEX
  8
0
 62
7
  6
CONTINUOUS
 10
173.9770681645
 20
151.8963589245
  0
SEQEND
  0
POLYLINE
  8
0
 62
7
  6
CONTINUOUS
 66
1
 70
0
  0
VERTEX
  8
0
 62
7
  6
CONTINUOUS
 10
148.5978879487
 20
151.8977557276
  0
VERTEX
  8
0
 62
7
  6
CONTINUOUS
 10
148.5860644987
 20
151.8966215634
  0
VERTEX
  8
0
 62
7
  6
CONTINUOUS
 10
148.5770681645
 20
151.8963589245
  0
SEQEND
  0
LINE
  8
0
 62
7
  6
CONTINUOUS
 10
204.5289473684
 20
147.3006578947
 11
208.5289473684
 21
147.3006578947
  0
LINE
  8
0
 62
7
  6
CONTINUOUS
 10
208.5289473684
 20
149.2006578947
 11
204.5289473684
 21
149.2006578947
  0
LINE
  8
0
 62
7
  6
CONTINUOUS
 10
208.5289473684
 20
151.2006578947
 11
204.5289473684
 21
151.2006578947
  0
LINE
  8
0
 62
7
  6
CONTINUOUS
 10
61.6789473684
 20
151.8963592887
 11
72.3770681307
 21
151.8963592887
  0
LINE
  8
0
 62
7
  6
CONTINUOUS
 10
86.6808262593
 20
151.8963592887
 11
97.7770681146
 21
151.8963592887
  0
LINE
  8
0
 62
7
  6
CONTINUOUS
 10
112.0808262593
 20
151.8963592887
 11
123.1770681146
 21
151.8963592887
  0
LINE
  8
0
 62
7
  6
CONTINUOUS
 10
137.4808262593
 20
151.8963592887
 11
148.5770681653
 21
151.8963592887
  0
LINE
  8
0
 62
7
  6
CONTINUOUS
 10
162.8808262593
 20
151.8963592887
 11
173.9770681653
 21
151.8963592887
  0
LINE
  8
0
 62
7
  6
CONTINUOUS
 10
188.2808262593
 20
151.8963592887
 11
199.3770681653
 21
151.8963592887
  0
LINE
  8
0
 62
7
  6
CONTINUOUS
 10
204.5289473684
 20
153.2006578947
 11
208.5289473684
 21
153.2006578947
  0
POLYLINE
  8
0
 62
7
  6
CONTINUOUS
 66
1
 70
0
  0
VERTEX
  8
0
 62
7
  6
CONTINUOUS
 10
86.6808262598
 20
151.8963589286
  0
VERTEX
  8
0
 62
7
  6
CONTINUOUS
 10
86.6716257288
 20
151.8966334862
  0
VERTEX
  8
0
 62
7
  6
CONTINUOUS
 10
86.6600888008
 20
151.897744864
  0
SEQEND
  0
POLYLINE
  8
0
 62
7
  6
CONTINUOUS
 66
1
 70
0
  0
VERTEX
  8
0
 62
7
  6
CONTINUOUS
 10
112.0808262598
 20
151.8963589286
  0
VERTEX
  8
0
 62
7
  6
CONTINUOUS
 10
112.0716257289
 20
151.8966334862
  0
VERTEX
  8
0
 62
7
  6
CONTINUOUS
 10
112.060088801
 20
151.897744864
  0
SEQEND
  0
POLYLINE
  8
0
 62
7
  6
CONTINUOUS
 66
1
 70
0
  0
VERTEX
  8
0
 62
7
  6
CONTINUOUS
 10
137.4808262598
 20
151.8963588962
  0
VERTEX
  8
0
 62
7
  6
CONTINUOUS
 10
137.4716412688
 20
151.8966326799
  0
VERTEX
  8
0
 62
7
  6
CONTINUOUS
 10
137.4600879998
 20
151.8977448951
  0
SEQEND
  0
POLYLINE
  8
0
 62
7
  6
CONTINUOUS
 66
1
 70
0
  0
VERTEX
  8
0
 62
7
  6
CONTINUOUS
 10
162.8808262598
 20
151.8963588962
  0
VERTEX
  8
0
 62
7
  6
CONTINUOUS
 10
162.8716412687
 20
151.8966326799
  0
VERTEX
  8
0
 62
7
  6
CONTINUOUS
 10
162.8600879996
 20
151.8977448951
  0
SEQEND
  0
POLYLINE
  8
0
 62
7
  6
CONTINUOUS
 66
1
 70
0
  0
VERTEX
  8
0
 62
7
  6
CONTINUOUS
 10
188.2808262598
 20
151.8963588962
  0
VERTEX
  8
0
 62
7
  6
CONTINUOUS
 10
188.2716412688
 20
151.8966326799
  0
VERTEX
  8
0
 62
7
  6
CONTINUOUS
 10
188.2600879998
 20
151.8977448951
  0
SEQEND
  0
POLYLINE
  8
0
 62
7
  6
CONTINUOUS
 66
1
 70
0
  0
VERTEX
  8
0
 62
7
  6
CONTINUOUS
 10
137.4600877965
 20
151.8977433547
  0
VERTEX
  8
0
 62
7
  6
CONTINUOUS
 10
137.196597639
 20
151.9519132051
  0
VERTEX
  8
0
 62
7
  6
CONTINUOUS
 10
136.9517206732
 20
152.0741880703
  0
VERTEX
  8
0
 62
7
  6
CONTINUOUS
 10
136.7656465863
 20
152.2388519146
  0
VERTEX
  8
0
 62
7
  6
CONTINUOUS
 10
136.6247786045
 20
152.4464051999
  0
VERTEX
  8
0
 62
7
  6
CONTINUOUS
 10
136.5401077549
 20
152.6817779651
  0
VERTEX
  8
0
 62
7
  6
CONTINUOUS
 10
136.515991177
 20
152.9001358842
  0
SEQEND
  0
LINE
  8
0
 62
7
  6
CONTINUOUS
 10
153.7289473684
 20
139.2006578947
 11
155.7289473684
 21
137.2006578947
  0
LINE
  8
0
 62
7
  6
CONTINUOUS
 10
153.8289473684
 20
141.1006578947
 11
157.7289473684
 21
137.2006578947
  0
LINE
  8
0
 62
7
  6
CONTINUOUS
 10
166.4289473684
 20
129.2006578947
 11
168.3289473684
 21
127.3006578947
  0
LINE
  8
0
 62
7
  6
CONTINUOUS
 10
155.8289473684
 20
141.1006578947
 11
157.7289473684
 21
139.2006578947
  0
LINE
  8
0
 62
7
  6
CONTINUOUS
 10
166.4289473684
 20
131.2006578947
 11
170.3289473684
 21
127.3006578947
  0
LINE
  8
0
 62
7
  6
CONTINUOUS
 10
168.4289473684
 20
131.2006578947
 11
170.4289473684
 21
129.2006578947
  0
POLYLINE
  8
0
 62
7
  6
CONTINUOUS
 66
1
 70
0
  0
VERTEX
  8
0
 62
7
  6
CONTINUOUS
 10
161.9159896467
 20
159.7756578947
  0
VERTEX
  8
0
 62
7
  6
CONTINUOUS
 10
161.9149462725
 20
160.8012230293
  0
VERTEX
  8
0
 62
7
  6
CONTINUOUS
 10
161.9119611236
 20
161.7845808703
  0
VERTEX
  8
0
 62
7
  6
CONTINUOUS
 10
161.9073848318
 20
162.6976066851
  0
VERTEX
  8
0
 62
7
  6
CONTINUOUS
 10
161.9015134862
 20
163.5419905243
  0
VERTEX
  8
0
 62
7
  6
CONTINUOUS
 10
161.8945894164
 20
164.3209506531
  0
VERTEX
  8
0
 62
7
  6
CONTINUOUS
 10
161.8868098822
 20
165.038205392
  0
VERTEX
  8
0
 62
7
  6
CONTINUOUS
 10
161.8783469178
 20
165.6967440056
  0
VERTEX
  8
0
 62
7
  6
CONTINUOUS
 10
161.8693443754
 20
166.2998077041
  0
VERTEX
  8
0
 62
7
  6
CONTINUOUS
 10
161.859920974
 20
166.8507801598
  0
VERTEX
  8
0
 62
7
  6
CONTINUOUS
 10
161.8501802035
 20
167.3527401346
  0
VERTEX
  8
0
 62
7
  6
CONTINUOUS
 10
161.8402072994
 20
167.8088059135
  0
VERTEX
  8
0
 62
7
  6
CONTINUOUS
 10
161.8300695234
 20
168.2221286108
  0
VERTEX
  8
0
 62
7
  6
CONTINUOUS
 10
161.8198190805
 20
168.595764298
  0
VERTEX
  8
0
 62
7
  6
CONTINUOUS
 10
161.8094942892
 20
168.9326420279
  0
VERTEX
  8
0
 62
7
  6
CONTINUOUS
 10
161.799119483
 20
169.2355642633
  0
VERTEX
  8
0
 62
7
  6
CONTINUOUS
 10
161.7887074535
 20
169.507124511
  0
VERTEX
  8
0
 62
7
  6
CONTINUOUS
 10
161.7782910886
 20
169.7490204019
  0
VERTEX
  8
0
 62
7
  6
CONTINUOUS
 10
161.7679185018
 20
169.9625409628
  0
VERTEX
  8
0
 62
7
  6
CONTINUOUS
 10
161.7576246865
 20
170.1492964517
  0
VERTEX
  8
0
 62
7
  6
CONTINUOUS
 10
161.7474230579
 20
170.3112433958
  0
VERTEX
  8
0
 62
7
  6
CONTINUOUS
 10
161.7373066611
 20
170.4505145089
  0
VERTEX
  8
0
 62
7
  6
CONTINUOUS
 10
161.7272620068
 20
170.5691770315
  0
VERTEX
  8
0
 62
7
  6
CONTINUOUS
 10
161.7171726341
 20
170.670220419
  0
VERTEX
  8
0
 62
7
  6
CONTINUOUS
 10
161.7066624314
 20
170.7581194249
  0
VERTEX
  8
0
 62
7
  6
CONTINUOUS
 10
161.6949655827
 20
170.8381994388
  0
VERTEX
  8
0
 62
7
  6
CONTINUOUS
 10
161.6806675163
 20
170.916313571
  0
VERTEX
  8
0
 62
7
  6
CONTINUOUS
 10
161.6605820449
 20
171.001133068
  0
VERTEX
  8
0
 62
7
  6
CONTINUOUS
 10
161.6269225213
 20
171.1063832309
  0
VERTEX
  8
0
 62
7
  6
CONTINUOUS
 10
161.5670480162
 20
171.2390806734
  0
VERTEX
  8
0
 62
7
  6
CONTINUOUS
 10
161.4721870888
 20
171.38509796
  0
VERTEX
  8
0
 62
7
  6
CONTINUOUS
 10
161.32953461
 20
171.5344564177
  0
VERTEX
  8
0
 62
7
  6
CONTINUOUS
 10
161.1262116514
 20
171.6692247984
  0
VERTEX
  8
0
 62
7
  6
CONTINUOUS
 10
160.8797179223
 20
171.7547937819
  0
VERTEX
  8
0
 62
7
  6
CONTINUOUS
 10
160.6759674266
 20
171.7756578938
  0
SEQEND
  0
POLYLINE
  8
0
 62
7
  6
CONTINUOUS
 66
1
 70
0
  0
VERTEX
  8
0
 62
7
  6
CONTINUOUS
 10
162.2419050901
 20
108.6256578947
  0
VERTEX
  8
0
 62
7
  6
CONTINUOUS
 10
162.2429484643
 20
107.6000927602
  0
VERTEX
  8
0
 62
7
  6
CONTINUOUS
 10
162.2459336132
 20
106.6167349192
  0
VERTEX
  8
0
 62
7
  6
CONTINUOUS
 10
162.250509905
 20
105.7037091044
  0
VERTEX
  8
0
 62
7
  6
CONTINUOUS
 10
162.2563812506
 20
104.8593252651
  0
VERTEX
  8
0
 62
7
  6
CONTINUOUS
 10
162.2633053204
 20
104.0803651363
  0
VERTEX
  8
0
 62
7
  6
CONTINUOUS
 10
162.2710848547
 20
103.3631103974
  0
VERTEX
  8
0
 62
7
  6
CONTINUOUS
 10
162.279547819
 20
102.7045717838
  0
VERTEX
  8
0
 62
7
  6
CONTINUOUS
 10
162.2885503614
 20
102.1015080854
  0
VERTEX
  8
0
 62
7
  6
CONTINUOUS
 10
162.2979737628
 20
101.5505356297
  0
VERTEX
  8
0
 62
7
  6
CONTINUOUS
 10
162.3077145333
 20
101.0485756549
  0
VERTEX
  8
0
 62
7
  6
CONTINUOUS
 10
162.3176874374
 20
100.592509876
  0
VERTEX
  8
0
 62
7
  6
CONTINUOUS
 10
162.3278252135
 20
100.1791871787
  0
VERTEX
  8
0
 62
7
  6
CONTINUOUS
 10
162.3380756563
 20
99.8055514915
  0
VERTEX
  8
0
 62
7
  6
CONTINUOUS
 10
162.3484004476
 20
99.4686737616
  0
VERTEX
  8
0
 62
7
  6
CONTINUOUS
 10
162.3587752539
 20
99.1657515261
  0
VERTEX
  8
0
 62
7
  6
CONTINUOUS
 10
162.3691872833
 20
98.8941912785
  0
VERTEX
  8
0
 62
7
  6
CONTINUOUS
 10
162.3796036482
 20
98.6522953875
  0
VERTEX
  8
0
 62
7
  6
CONTINUOUS
 10
162.3899762351
 20
98.4387748266
  0
VERTEX
  8
0
 62
7
  6
CONTINUOUS
 10
162.4002700503
 20
98.2520193378
  0
VERTEX
  8
0
 62
7
  6
CONTINUOUS
 10
162.4104716789
 20
98.0900723937
  0
VERTEX
  8
0
 62
7
  6
CONTINUOUS
 10
162.4205880757
 20
97.9508012806
  0
VERTEX
  8
0
 62
7
  6
CONTINUOUS
 10
162.43063273
 20
97.832138758
  0
VERTEX
  8
0
 62
7
  6
CONTINUOUS
 10
162.4407221028
 20
97.7310953705
  0
VERTEX
  8
0
 62
7
  6
CONTINUOUS
 10
162.4512323054
 20
97.6431963646
  0
VERTEX
  8
0
 62
7
  6
CONTINUOUS
 10
162.4629291542
 20
97.5631163506
  0
VERTEX
  8
0
 62
7
  6
CONTINUOUS
 10
162.4772272205
 20
97.4850022185
  0
VERTEX
  8
0
 62
7
  6
CONTINUOUS
 10
162.497312692
 20
97.4001827215
  0
VERTEX
  8
0
 62
7
  6
CONTINUOUS
 10
162.5309722155
 20
97.2949325585
  0
VERTEX
  8
0
 62
7
  6
CONTINUOUS
 10
162.5908467206
 20
97.162235116
  0
VERTEX
  8
0
 62
7
  6
CONTINUOUS
 10
162.685707648
 20
97.0162178295
  0
VERTEX
  8
0
 62
7
  6
CONTINUOUS
 10
162.8283601269
 20
96.8668593718
  0
VERTEX
  8
0
 62
7
  6
CONTINUOUS
 10
163.0316830855
 20
96.7320909911
  0
VERTEX
  8
0
 62
7
  6
CONTINUOUS
 10
163.2781768145
 20
96.6465220075
  0
VERTEX
  8
0
 62
7
  6
CONTINUOUS
 10
163.4819273103
 20
96.6256578956
  0
SEQEND
  0
LINE
  8
0
 62
7
  6
CONTINUOUS
 10
161.9159896493
 20
159.7756578947
 11
161.9159896493
 21
152.9001359535
  0
LINE
  8
0
 62
7
  6
CONTINUOUS
 10
162.2419050875
 20
108.6256578947
 11
162.2419050875
 21
115.5011797081
  0
LINE
  8
0
 62
7
  6
CONTINUOUS
 10
166.4289473684
 20
133.2006578947
 11
170.4289473684
 21
137.2006578947
  0
LINE
  8
0
 62
7
  6
CONTINUOUS
 10
143.0289473684
 20
109.2006578947
 11
145.0289473684
 21
111.2006578947
  0
LINE
  8
0
 62
7
  6
CONTINUOUS
 10
155.7289473684
 20
121.2006578947
 11
157.7289473684
 21
123.2006578947
  0
LINE
  8
0
 62
7
  6
CONTINUOUS
 10
168.4289473684
 20
133.2006578947
 11
170.4289473684
 21
135.2006578947
  0
LINE
  8
0
 62
7
  6
CONTINUOUS
 10
166.4289473684
 20
129.2006578947
 11
168.4289473684
 21
131.2006578947
  0
LINE
  8
0
 62
7
  6
CONTINUOUS
 10
166.5289473684
 20
127.3006578947
 11
170.4289473684
 21
131.2006578947
  0
LINE
  8
0
 62
7
  6
CONTINUOUS
 10
179.1289473684
 20
139.2006578947
 11
181.0289473684
 21
141.1006578947
  0
LINE
  8
0
 62
7
  6
CONTINUOUS
 10
168.5289473684
 20
127.3006578947
 11
170.4289473684
 21
129.2006578947
  0
POLYLINE
  8
0
 62
7
  6
CONTINUOUS
 66
1
 70
0
  0
VERTEX
  8
0
 62
7
  6
CONTINUOUS
 10
123.1978833052
 20
151.8977550906
  0
VERTEX
  8
0
 62
7
  6
CONTINUOUS
 10
123.1860758226
 20
151.8966221414
  0
VERTEX
  8
0
 62
7
  6
CONTINUOUS
 10
123.1770681136
 20
151.8963588998
  0
SEQEND
  0
POLYLINE
  8
0
 62
7
  6
CONTINUOUS
 66
1
 70
0
  0
VERTEX
  8
0
 62
7
  6
CONTINUOUS
 10
97.7978833048
 20
151.8977550906
  0
VERTEX
  8
0
 62
7
  6
CONTINUOUS
 10
97.7860758225
 20
151.8966221414
  0
VERTEX
  8
0
 62
7
  6
CONTINUOUS
 10
97.7770681136
 20
151.8963588998
  0
SEQEND
  0
POLYLINE
  8
0
 62
7
  6
CONTINUOUS
 66
1
 70
0
  0
VERTEX
  8
0
 62
7
  6
CONTINUOUS
 10
72.3978833052
 20
151.8977550906
  0
VERTEX
  8
0
 62
7
  6
CONTINUOUS
 10
72.3860758285
 20
151.8966221418
  0
VERTEX
  8
0
 62
7
  6
CONTINUOUS
 10
72.3770681299
 20
151.8963588998
  0
SEQEND
  0
LINE
  8
0
 62
7
  6
CONTINUOUS
 10
208.5289473684
 20
155.2006578947
 11
204.5289473684
 21
155.2006578947
  0
LINE
  8
0
 62
7
  6
CONTINUOUS
 10
77.5289473684
 20
155.3006578947
 11
81.5289473684
 21
155.3006578947
  0
LINE
  8
0
 62
7
  6
CONTINUOUS
 10
102.9289473684
 20
155.3006578947
 11
106.9289473684
 21
155.3006578947
  0
LINE
  8
0
 62
7
  6
CONTINUOUS
 10
128.3289473684
 20
155.3006578947
 11
132.3289473684
 21
155.3006578947
  0
LINE
  8
0
 62
7
  6
CONTINUOUS
 10
153.7289473684
 20
155.3006578947
 11
157.7289473684
 21
155.3006578947
  0
LINE
  8
0
 62
7
  6
CONTINUOUS
 10
179.1289473684
 20
155.3006578947
 11
183.1289473684
 21
155.3006578947
  0
LINE
  8
0
 62
7
  6
CONTINUOUS
 10
208.5289473684
 20
157.2006578947
 11
204.5289473684
 21
157.2006578947
  0
LINE
  8
0
 62
7
  6
CONTINUOUS
 10
183.1289473684
 20
157.2006578947
 11
179.1289473684
 21
157.2006578947
  0
LINE
  8
0
 62
7
  6
CONTINUOUS
 10
157.7289473684
 20
157.2006578947
 11
153.7289473684
 21
157.2006578947
  0
LINE
  8
0
 62
7
  6
CONTINUOUS
 10
132.3289473684
 20
157.2006578947
 11
128.3289473684
 21
157.2006578947
  0
LINE
  8
0
 62
7
  6
CONTINUOUS
 10
106.9289473684
 20
157.2006578947
 11
102.9289473684
 21
157.2006578947
  0
LINE
  8
0
 62
7
  6
CONTINUOUS
 10
81.5289473684
 20
157.2006578947
 11
77.5289473684
 21
157.2006578947
  0
LINE
  8
0
 62
7
  6
CONTINUOUS
 10
208.5289473684
 20
159.2006578947
 11
204.5289473684
 21
159.2006578947
  0
LINE
  8
0
 62
7
  6
CONTINUOUS
 10
183.1289473684
 20
159.2006578947
 11
179.1289473684
 21
159.2006578947
  0
LINE
  8
0
 62
7
  6
CONTINUOUS
 10
157.7289473684
 20
159.2006578947
 11
153.7289473684
 21
159.2006578947
  0
LINE
  8
0
 62
7
  6
CONTINUOUS
 10
132.3289473684
 20
159.2006578947
 11
128.3289473684
 21
159.2006578947
  0
LINE
  8
0
 62
7
  6
CONTINUOUS
 10
106.9289473684
 20
159.2006578947
 11
102.9289473684
 21
159.2006578947
  0
LINE
  8
0
 62
7
  6
CONTINUOUS
 10
81.5289473684
 20
159.2006578947
 11
77.5289473684
 21
159.2006578947
  0
POLYLINE
  8
0
 62
7
  6
CONTINUOUS
 66
1
 70
0
  0
VERTEX
  8
0
 62
7
  6
CONTINUOUS
 10
162.8600877963
 20
151.8977433548
  0
VERTEX
  8
0
 62
7
  6
CONTINUOUS
 10
162.5965976443
 20
151.9519132032
  0
VERTEX
  8
0
 62
7
  6
CONTINUOUS
 10
162.3517206735
 20
152.0741880701
  0
VERTEX
  8
0
 62
7
  6
CONTINUOUS
 10
162.1656465864
 20
152.2388519144
  0
VERTEX
  8
0
 62
7
  6
CONTINUOUS
 10
162.0247786046
 20
152.4464051998
  0
VERTEX
  8
0
 62
7
  6
CONTINUOUS
 10
161.940107755
 20
152.681777965
  0
VERTEX
  8
0
 62
7
  6
CONTINUOUS
 10
161.915991177
 20
152.9001358842
  0
SEQEND
  0
LINE
  8
0
 62
7
  6
CONTINUOUS
 10
166.4289473684
 20
135.2006578947
 11
168.4289473684
 21
133.2006578947
  0
LINE
  8
0
 62
7
  6
CONTINUOUS
 10
179.1289473684
 20
123.2006578947
 11
181.1289473684
 21
121.2006578947
  0
LINE
  8
0
 62
7
  6
CONTINUOUS
 10
191.8289473684
 20
111.2006578947
 11
193.8289473684
 21
109.2006578947
  0
LINE
  8
0
 62
7
  6
CONTINUOUS
 10
166.4289473684
 20
137.2006578947
 11
170.4289473684
 21
133.2006578947
  0
LINE
  8
0
 62
7
  6
CONTINUOUS
 10
179.1289473684
 20
125.2006578947
 11
183.1289473684
 21
121.2006578947
  0
LINE
  8
0
 62
7
  6
CONTINUOUS
 10
191.9289473684
 20
113.1006578947
 11
195.8289473684
 21
109.2006578947
  0
LINE
  8
0
 62
7
  6
CONTINUOUS
 10
166.4289473684
 20
139.2006578947
 11
170.4289473684
 21
135.2006578947
  0
LINE
  8
0
 62
7
  6
CONTINUOUS
 10
179.1289473684
 20
127.2006578947
 11
183.1289473684
 21
123.2006578947
  0
LINE
  8
0
 62
7
  6
CONTINUOUS
 10
193.9289473684
 20
113.1006578947
 11
195.8289473684
 21
111.2006578947
  0
LINE
  8
0
 62
7
  6
CONTINUOUS
 10
168.4289473684
 20
139.2006578947
 11
170.4289473684
 21
137.2006578947
  0
LINE
  8
0
 62
7
  6
CONTINUOUS
 10
181.1289473684
 20
127.2006578947
 11
183.1289473684
 21
125.2006578947
  0
LINE
  8
0
 62
7
  6
CONTINUOUS
 10
166.4289473684
 20
143.2006578947
 11
168.4289473684
 21
141.2006578947
  0
LINE
  8
0
 62
7
  6
CONTINUOUS
 10
166.3289473684
 20
114.0006578947
 11
166.3289473684
 21
126.4006578947
  0
LINE
  8
0
 62
7
  6
CONTINUOUS
 10
166.4289473684
 20
109.2006578947
 11
166.4289473684
 21
113.1006578947
  0
LINE
  8
0
 62
7
  6
CONTINUOUS
 10
166.4289473684
 20
127.3006578947
 11
166.4289473684
 21
131.2006578947
  0
LINE
  8
0
 62
7
  6
CONTINUOUS
 10
166.4289473684
 20
133.2006578947
 11
166.4289473684
 21
139.2006578947
  0
LINE
  8
0
 62
7
  6
CONTINUOUS
 10
166.4289473684
 20
141.2006578947
 11
166.4289473684
 21
147.2006578947
  0
LINE
  8
0
 62
7
  6
CONTINUOUS
 10
168.4289473684
 20
109.2006578947
 11
168.4289473684
 21
113.1006578947
  0
LINE
  8
0
 62
7
  6
CONTINUOUS
 10
168.4289473684
 20
127.3006578947
 11
168.4289473684
 21
131.2006578947
  0
LINE
  8
0
 62
7
  6
CONTINUOUS
 10
168.4289473684
 20
133.2006578947
 11
168.4289473684
 21
139.2006578947
  0
LINE
  8
0
 62
7
  6
CONTINUOUS
 10
168.4289473684
 20
141.2006578947
 11
168.4289473684
 21
147.2006578947
  0
LINE
  8
0
 62
7
  6
CONTINUOUS
 10
170.4289473684
 20
109.2006578947
 11
170.4289473684
 21
113.1006578947
  0
LINE
  8
0
 62
7
  6
CONTINUOUS
 10
170.4289473684
 20
127.3006578947
 11
170.4289473684
 21
131.2006578947
  0
LINE
  8
0
 62
7
  6
CONTINUOUS
 10
170.4289473684
 20
133.2006578947
 11
170.4289473684
 21
139.2006578947
  0
LINE
  8
0
 62
7
  6
CONTINUOUS
 10
170.4289473684
 20
141.2006578947
 11
170.4289473684
 21
147.2006578947
  0
LINE
  8
0
 62
7
  6
CONTINUOUS
 10
170.5289473684
 20
126.4006578947
 11
170.5289473684
 21
114.0006578947
  0
LINE
  8
0
 62
7
  6
CONTINUOUS
 10
179.1289473684
 20
137.2006578947
 11
183.0289473684
 21
141.1006578947
  0
LINE
  8
0
 62
7
  6
CONTINUOUS
 10
181.1289473684
 20
137.2006578947
 11
183.1289473684
 21
139.2006578947
  0
LINE
  8
0
 62
7
  6
CONTINUOUS
 10
179.1289473684
 20
133.2006578947
 11
181.1289473684
 21
135.2006578947
  0
LINE
  8
0
 62
7
  6
CONTINUOUS
 10
191.8289473684
 20
145.2006578947
 11
193.8289473684
 21
147.2006578947
  0
LINE
  8
0
 62
7
  6
CONTINUOUS
 10
204.5289473684
 20
157.2006578947
 11
206.5289473684
 21
159.2006578947
  0
LINE
  8
0
 62
7
  6
CONTINUOUS
 10
179.1289473684
 20
131.2006578947
 11
183.1289473684
 21
135.2006578947
  0
LINE
  8
0
 62
7
  6
CONTINUOUS
 10
191.8289473684
 20
143.2006578947
 11
195.8289473684
 21
147.2006578947
  0
LINE
  8
0
 62
7
  6
CONTINUOUS
 10
204.5289473684
 20
155.2006578947
 11
208.5289473684
 21
159.2006578947
  0
LINE
  8
0
 62
7
  6
CONTINUOUS
 10
179.1289473684
 20
129.2006578947
 11
183.1289473684
 21
133.2006578947
  0
POLYLINE
  8
0
 62
7
  6
CONTINUOUS
 66
1
 70
0
  0
VERTEX
  8
0
 62
7
  6
CONTINUOUS
 10
61.6789473684
 20
151.8963592887
  0
VERTEX
  8
0
 62
7
  6
CONTINUOUS
 10
61.438690305
 20
151.8670685879
  0
VERTEX
  8
0
 62
7
  6
CONTINUOUS
 10
61.2133715182
 20
151.7813672704
  0
VERTEX
  8
0
 62
7
  6
CONTINUOUS
 10
61.0154379043
 20
151.6445271783
  0
VERTEX
  8
0
 62
7
  6
CONTINUOUS
 10
60.9304767853
 20
151.5595272811
  0
VERTEX
  8
0
 62
7
  6
CONTINUOUS
 10
60.7938233054
 20
151.3617144144
  0
VERTEX
  8
0
 62
7
  6
CONTINUOUS
 10
60.7081860075
 20
151.1364059094
  0
VERTEX
  8
0
 62
7
  6
CONTINUOUS
 10
60.6789473684
 20
150.8963592887
  0
SEQEND
  0
POLYLINE
  8
0
 62
7
  6
CONTINUOUS
 66
1
 70
0
  0
VERTEX
  8
0
 62
7
  6
CONTINUOUS
 10
201.5819273588
 20
171.7756578938
  0
VERTEX
  8
0
 62
7
  6
CONTINUOUS
 10
201.3749601935
 20
171.7541225864
  0
VERTEX
  8
0
 62
7
  6
CONTINUOUS
 10
201.1271964579
 20
171.6669649146
  0
VERTEX
  8
0
 62
7
  6
CONTINUOUS
 10
200.9220779786
 20
171.529051342
  0
VERTEX
  8
0
 62
7
  6
CONTINUOUS
 10
200.7771932053
 20
171.3739899652
  0
VERTEX
  8
0
 62
7
  6
CONTINUOUS
 10
200.685759678
 20
171.2294736058
  0
VERTEX
  8
0
 62
7
  6
CONTINUOUS
 10
200.6306381157
 20
171.105486407
  0
VERTEX
  8
0
 62
7
  6
CONTINUOUS
 10
200.5979115109
 20
171.0033392529
  0
VERTEX
  8
0
 62
7
  6
CONTINUOUS
 10
200.5777338557
 20
170.9187627331
  0
VERTEX
  8
0
 62
7
  6
CONTINUOUS
 10
200.5636560506
 20
170.8426442517
  0
VERTEX
  8
0
 62
7
  6
CONTINUOUS
 10
200.5524765358
 20
170.7674649332
  0
VERTEX
  8
0
 62
7
  6
CONTINUOUS
 10
200.542631022
 20
170.6874355771
  0
VERTEX
  8
0
 62
7
  6
CONTINUOUS
 10
200.533387419
 20
170.5984995428
  0
VERTEX
  8
0
 62
7
  6
CONTINUOUS
 10
200.5243879613
 20
170.4976256999
  0
VERTEX
  8
0
 62
7
  6
CONTINUOUS
 10
200.5154203336
 20
170.3819379057
  0
VERTEX
  8
0
 62
7
  6
CONTINUOUS
 10
200.5063567944
 20
170.2485988476
  0
VERTEX
  8
0
 62
7
  6
CONTINUOUS
 10
200.4971425467
 20
170.09510494
  0
VERTEX
  8
0
 62
7
  6
CONTINUOUS
 10
200.4877801982
 20
169.9195162841
  0
VERTEX
  8
0
 62
7
  6
CONTINUOUS
 10
200.4782922045
 20
169.7201225558
  0
VERTEX
  8
0
 62
7
  6
CONTINUOUS
 10
200.4687121935
 20
169.4954001604
  0
VERTEX
  8
0
 62
7
  6
CONTINUOUS
 10
200.4590519577
 20
169.2431880747
  0
VERTEX
  8
0
 62
7
  6
CONTINUOUS
 10
200.4493054589
 20
168.9604320501
  0
VERTEX
  8
0
 62
7
  6
CONTINUOUS
 10
200.4394794949
 20
168.643789435
  0
VERTEX
  8
0
 62
7
  6
CONTINUOUS
 10
200.429592567
 20
168.289555143
  0
VERTEX
  8
0
 62
7
  6
CONTINUOUS
 10
200.4196728416
 20
167.8934898821
  0
VERTEX
  8
0
 62
7
  6
CONTINUOUS
 10
200.4097674143
 20
167.4510474645
  0
VERTEX
  8
0
 62
7
  6
CONTINUOUS
 10
200.399953046
 20
166.9578533451
  0
VERTEX
  8
0
 62
7
  6
CONTINUOUS
 10
200.3903423363
 20
166.4102631033
  0
VERTEX
  8
0
 62
7
  6
CONTINUOUS
 10
200.3810709148
 20
165.8049929478
  0
VERTEX
  8
0
 62
7
  6
CONTINUOUS
 10
200.3722986116
 20
165.1393407011
  0
VERTEX
  8
0
 62
7
  6
CONTINUOUS
 10
200.3642085895
 20
164.4113328175
  0
VERTEX
  8
0
 62
7
  6
CONTINUOUS
 10
200.3570029802
 20
163.6194609253
  0
VERTEX
  8
0
 62
7
  6
CONTINUOUS
 10
200.3508891847
 20
162.7601121715
  0
VERTEX
  8
0
 62
7
  6
CONTINUOUS
 10
200.3461163905
 20
161.8292566696
  0
VERTEX
  8
0
 62
7
  6
CONTINUOUS
 10
200.342996335
 20
160.8244335298
  0
VERTEX
  8
0
 62
7
  6
CONTINUOUS
 10
200.3419050901
 20
159.7756578947
  0
SEQEND
  0
LINE
  8
DEFAULT_1
 62
2
  6
CENTER
 10
51.2244662548
 20
159.6006578947
 11
221.3644427531
 21
159.6006578947
  0
POLYLINE
  8
0
 62
7
  6
CONTINUOUS
 66
1
 70
0
  0
VERTEX
  8
0
 62
7
  6
CONTINUOUS
 10
188.2600877965
 20
151.8977433547
  0
VERTEX
  8
0
 62
7
  6
CONTINUOUS
 10
187.996597639
 20
151.9519132051
  0
VERTEX
  8
0
 62
7
  6
CONTINUOUS
 10
187.7517206732
 20
152.0741880703
  0
VERTEX
  8
0
 62
7
  6
CONTINUOUS
 10
187.5656465863
 20
152.2388519146
  0
VERTEX
  8
0
 62
7
  6
CONTINUOUS
 10
187.4247786045
 20
152.4464051999
  0
VERTEX
  8
0
 62
7
  6
CONTINUOUS
 10
187.3401077549
 20
152.6817779651
  0
VERTEX
  8
0
 62
7
  6
CONTINUOUS
 10
187.315991177
 20
152.9001358842
  0
SEQEND
  0
LINE
  8
0
 62
7
  6
CONTINUOUS
 10
179.1289473684
 20
131.2006578947
 11
181.1289473684
 21
129.2006578947
  0
LINE
  8
0
 62
7
  6
CONTINUOUS
 10
153.7289473684
 20
157.2006578947
 11
155.6289473684
 21
155.3006578947
  0
LINE
  8
0
 62
7
  6
CONTINUOUS
 10
166.4289473684
 20
145.2006578947
 11
170.4289473684
 21
141.2006578947
  0
LINE
  8
0
 62
7
  6
CONTINUOUS
 10
179.1289473684
 20
133.2006578947
 11
183.1289473684
 21
129.2006578947
  0
LINE
  8
0
 62
7
  6
CONTINUOUS
 10
153.7289473684
 20
159.2006578947
 11
157.6289473684
 21
155.3006578947
  0
LINE
  8
0
 62
7
  6
CONTINUOUS
 10
166.4289473684
 20
147.2006578947
 11
170.4289473684
 21
143.2006578947
  0
LINE
  8
0
 62
7
  6
CONTINUOUS
 10
179.1289473684
 20
135.2006578947
 11
183.1289473684
 21
131.2006578947
  0
LINE
  8
0
 62
7
  6
CONTINUOUS
 10
155.7289473684
 20
159.2006578947
 11
157.7289473684
 21
157.2006578947
  0
LINE
  8
0
 62
7
  6
CONTINUOUS
 10
168.4289473684
 20
147.2006578947
 11
170.4289473684
 21
145.2006578947
  0
LINE
  8
0
 62
7
  6
CONTINUOUS
 10
181.1289473684
 20
135.2006578947
 11
183.1289473684
 21
133.2006578947
  0
LINE
  8
0
 62
7
  6
CONTINUOUS
 10
179.1289473684
 20
139.2006578947
 11
181.1289473684
 21
137.2006578947
  0
LINE
  8
0
 62
7
  6
CONTINUOUS
 10
174.6159896493
 20
115.5011796404
 11
174.6159896493
 21
108.6256578947
  0
LINE
  8
0
 62
7
  6
CONTINUOUS
 10
174.9419050875
 20
152.9001359942
 11
174.9419050875
 21
159.7756578947
  0
POLYLINE
  8
0
 62
7
  6
CONTINUOUS
 66
1
 70
0
  0
VERTEX
  8
0
 62
7
  6
CONTINUOUS
 10
174.9419035732
 20
152.9001359942
  0
VERTEX
  8
0
 62
7
  6
CONTINUOUS
 10
174.9172560589
 20
152.6794170541
  0
VERTEX
  8
0
 62
7
  6
CONTINUOUS
 10
174.832082248
 20
152.4443787029
  0
VERTEX
  8
0
 62
7
  6
CONTINUOUS
 10
174.6908328977
 20
152.2372480575
  0
VERTEX
  8
0
 62
7
  6
CONTINUOUS
 10
174.5045228316
 20
152.0730607232
  0
VERTEX
  8
0
 62
7
  6
CONTINUOUS
 10
174.2586954227
 20
151.9510363515
  0
VERTEX
  8
0
 62
7
  6
CONTINUOUS
 10
173.9978882751
 20
151.8977540815
  0
SEQEND
  0
POLYLINE
  8
0
 62
7
  6
CONTINUOUS
 66
1
 70
0
  0
VERTEX
  8
0
 62
7
  6
CONTINUOUS
 10
174.6159910015
 20
115.5011796404
  0
VERTEX
  8
0
 62
7
  6
CONTINUOUS
 10
174.6406337997
 20
115.7218777418
  0
VERTEX
  8
0
 62
7
  6
CONTINUOUS
 10
174.7257928335
 20
115.9568988136
  0
VERTEX
  8
0
 62
7
  6
CONTINUOUS
 10
174.8670192489
 20
116.1640195747
  0
VERTEX
  8
0
 62
7
  6
CONTINUOUS
 10
175.0533012398
 20
116.3282069495
  0
VERTEX
  8
0
 62
7
  6
CONTINUOUS
 10
175.2985706728
 20
116.4500682417
  0
VERTEX
  8
0
 62
7
  6
CONTINUOUS
 10
175.5599892844
 20
116.5035589963
  0
SEQEND
  0
LINE
  8
0
 62
7
  6
CONTINUOUS
 10
191.8289473684
 20
141.2006578947
 11
195.8289473684
 21
145.2006578947
  0
LINE
  8
0
 62
7
  6
CONTINUOUS
 10
204.5289473684
 20
153.2006578947
 11
208.5289473684
 21
157.2006578947
  0
LINE
  8
0
 62
7
  6
CONTINUOUS
 10
181.1289473684
 20
129.2006578947
 11
183.1289473684
 21
131.2006578947
  0
LINE
  8
0
 62
7
  6
CONTINUOUS
 10
193.8289473684
 20
141.2006578947
 11
195.8289473684
 21
143.2006578947
  0
LINE
  8
0
 62
7
  6
CONTINUOUS
 10
206.5289473684
 20
153.2006578947
 11
208.5289473684
 21
155.2006578947
  0
LINE
  8
0
 62
7
  6
CONTINUOUS
 10
179.1289473684
 20
125.2006578947
 11
181.1289473684
 21
127.2006578947
  0
LINE
  8
0
 62
7
  6
CONTINUOUS
 10
191.8289473684
 20
137.2006578947
 11
193.8289473684
 21
139.2006578947
  0
LINE
  8
0
 62
7
  6
CONTINUOUS
 10
166.4289473684
 20
111.2006578947
 11
168.3289473684
 21
113.1006578947
  0
LINE
  8
0
 62
7
  6
CONTINUOUS
 10
204.5289473684
 20
149.2006578947
 11
206.5289473684
 21
151.2006578947
  0
LINE
  8
0
 62
7
  6
CONTINUOUS
 10
179.1289473684
 20
123.2006578947
 11
183.1289473684
 21
127.2006578947
  0
LINE
  8
0
 62
7
  6
CONTINUOUS
 10
191.8289473684
 20
135.2006578947
 11
195.8289473684
 21
139.2006578947
  0
LINE
  8
0
 62
7
  6
CONTINUOUS
 10
166.4289473684
 20
109.2006578947
 11
170.3289473684
 21
113.1006578947
  0
LINE
  8
0
 62
7
  6
CONTINUOUS
 10
204.6289473684
 20
147.3006578947
 11
208.5289473684
 21
151.2006578947
  0
LINE
  8
0
 62
7
  6
CONTINUOUS
 10
179.1289473684
 20
121.2006578947
 11
183.1289473684
 21
125.2006578947
  0
LINE
  8
0
 62
7
  6
CONTINUOUS
 10
191.8289473684
 20
133.2006578947
 11
195.8289473684
 21
137.2006578947
  0
POLYLINE
  8
0
 62
7
  6
CONTINUOUS
 66
1
 70
0
  0
VERTEX
  8
0
 62
7
  6
CONTINUOUS
 10
176.1819273588
 20
171.7756578938
  0
VERTEX
  8
0
 62
7
  6
CONTINUOUS
 10
175.9749601935
 20
171.7541225864
  0
VERTEX
  8
0
 62
7
  6
CONTINUOUS
 10
175.7271964579
 20
171.6669649146
  0
VERTEX
  8
0
 62
7
  6
CONTINUOUS
 10
175.5220779786
 20
171.529051342
  0
VERTEX
  8
0
 62
7
  6
CONTINUOUS
 10
175.3771932053
 20
171.3739899652
  0
VERTEX
  8
0
 62
7
  6
CONTINUOUS
 10
175.285759678
 20
171.2294736058
  0
VERTEX
  8
0
 62
7
  6
CONTINUOUS
 10
175.2306381157
 20
171.105486407
  0
VERTEX
  8
0
 62
7
  6
CONTINUOUS
 10
175.1979115109
 20
171.0033392529
  0
VERTEX
  8
0
 62
7
  6
CONTINUOUS
 10
175.1777338557
 20
170.9187627331
  0
VERTEX
  8
0
 62
7
  6
CONTINUOUS
 10
175.1636560506
 20
170.8426442517
  0
VERTEX
  8
0
 62
7
  6
CONTINUOUS
 10
175.1524765358
 20
170.7674649332
  0
VERTEX
  8
0
 62
7
  6
CONTINUOUS
 10
175.142631022
 20
170.6874355771
  0
VERTEX
  8
0
 62
7
  6
CONTINUOUS
 10
175.133387419
 20
170.5984995428
  0
VERTEX
  8
0
 62
7
  6
CONTINUOUS
 10
175.1243879613
 20
170.4976256999
  0
VERTEX
  8
0
 62
7
  6
CONTINUOUS
 10
175.1154203336
 20
170.3819379057
  0
VERTEX
  8
0
 62
7
  6
CONTINUOUS
 10
175.1063567944
 20
170.2485988476
  0
VERTEX
  8
0
 62
7
  6
CONTINUOUS
 10
175.0971425467
 20
170.09510494
  0
VERTEX
  8
0
 62
7
  6
CONTINUOUS
 10
175.0877801982
 20
169.9195162841
  0
VERTEX
  8
0
 62
7
  6
CONTINUOUS
 10
175.0782922045
 20
169.7201225558
  0
VERTEX
  8
0
 62
7
  6
CONTINUOUS
 10
175.0687121935
 20
169.4954001604
  0
VERTEX
  8
0
 62
7
  6
CONTINUOUS
 10
175.0590519577
 20
169.2431880747
  0
VERTEX
  8
0
 62
7
  6
CONTINUOUS
 10
175.0493054589
 20
168.9604320501
  0
VERTEX
  8
0
 62
7
  6
CONTINUOUS
 10
175.0394794949
 20
168.643789435
  0
VERTEX
  8
0
 62
7
  6
CONTINUOUS
 10
175.029592567
 20
168.289555143
  0
VERTEX
  8
0
 62
7
  6
CONTINUOUS
 10
175.0196728416
 20
167.8934898821
  0
VERTEX
  8
0
 62
7
  6
CONTINUOUS
 10
175.0097674143
 20
167.4510474645
  0
VERTEX
  8
0
 62
7
  6
CONTINUOUS
 10
174.999953046
 20
166.9578533451
  0
VERTEX
  8
0
 62
7
  6
CONTINUOUS
 10
174.9903423363
 20
166.4102631033
  0
VERTEX
  8
0
 62
7
  6
CONTINUOUS
 10
174.9810709148
 20
165.8049929478
  0
VERTEX
  8
0
 62
7
  6
CONTINUOUS
 10
174.9722986116
 20
165.1393407011
  0
VERTEX
  8
0
 62
7
  6
CONTINUOUS
 10
174.9642085895
 20
164.4113328175
  0
VERTEX
  8
0
 62
7
  6
CONTINUOUS
 10
174.9570029802
 20
163.6194609253
  0
VERTEX
  8
0
 62
7
  6
CONTINUOUS
 10
174.9508891847
 20
162.7601121715
  0
VERTEX
  8
0
 62
7
  6
CONTINUOUS
 10
174.9461163905
 20
161.8292566696
  0
VERTEX
  8
0
 62
7
  6
CONTINUOUS
 10
174.942996335
 20
160.8244335298
  0
VERTEX
  8
0
 62
7
  6
CONTINUOUS
 10
174.9419050901
 20
159.7756578947
  0
SEQEND
  0
POLYLINE
  8
0
 62
7
  6
CONTINUOUS
 66
1
 70
0
  0
VERTEX
  8
0
 62
7
  6
CONTINUOUS
 10
150.7819273588
 20
171.7756578938
  0
VERTEX
  8
0
 62
7
  6
CONTINUOUS
 10
150.5749601935
 20
171.7541225864
  0
VERTEX
  8
0
 62
7
  6
CONTINUOUS
 10
150.3271964579
 20
171.6669649146
  0
VERTEX
  8
0
 62
7
  6
CONTINUOUS
 10
150.1220779786
 20
171.529051342
  0
VERTEX
  8
0
 62
7
  6
CONTINUOUS
 10
149.9771932053
 20
171.3739899652
  0
VERTEX
  8
0
 62
7
  6
CONTINUOUS
 10
149.885759678
 20
171.2294736058
  0
VERTEX
  8
0
 62
7
  6
CONTINUOUS
 10
149.8306381157
 20
171.105486407
  0
VERTEX
  8
0
 62
7
  6
CONTINUOUS
 10
149.7979115109
 20
171.0033392529
  0
VERTEX
  8
0
 62
7
  6
CONTINUOUS
 10
149.7777338557
 20
170.9187627331
  0
VERTEX
  8
0
 62
7
  6
CONTINUOUS
 10
149.7636560506
 20
170.8426442517
  0
VERTEX
  8
0
 62
7
  6
CONTINUOUS
 10
149.7524765358
 20
170.7674649332
  0
VERTEX
  8
0
 62
7
  6
CONTINUOUS
 10
149.742631022
 20
170.6874355771
  0
VERTEX
  8
0
 62
7
  6
CONTINUOUS
 10
149.733387419
 20
170.5984995428
  0
VERTEX
  8
0
 62
7
  6
CONTINUOUS
 10
149.7243879613
 20
170.4976256999
  0
VERTEX
  8
0
 62
7
  6
CONTINUOUS
 10
149.7154203336
 20
170.3819379057
  0
VERTEX
  8
0
 62
7
  6
CONTINUOUS
 10
149.7063567944
 20
170.2485988476
  0
VERTEX
  8
0
 62
7
  6
CONTINUOUS
 10
149.6971425467
 20
170.09510494
  0
VERTEX
  8
0
 62
7
  6
CONTINUOUS
 10
149.6877801982
 20
169.9195162841
  0
VERTEX
  8
0
 62
7
  6
CONTINUOUS
 10
149.6782922045
 20
169.7201225558
  0
VERTEX
  8
0
 62
7
  6
CONTINUOUS
 10
149.6687121935
 20
169.4954001604
  0
VERTEX
  8
0
 62
7
  6
CONTINUOUS
 10
149.6590519577
 20
169.2431880747
  0
VERTEX
  8
0
 62
7
  6
CONTINUOUS
 10
149.6493054589
 20
168.9604320501
  0
VERTEX
  8
0
 62
7
  6
CONTINUOUS
 10
149.6394794949
 20
168.643789435
  0
VERTEX
  8
0
 62
7
  6
CONTINUOUS
 10
149.629592567
 20
168.289555143
  0
VERTEX
  8
0
 62
7
  6
CONTINUOUS
 10
149.6196728416
 20
167.8934898821
  0
VERTEX
  8
0
 62
7
  6
CONTINUOUS
 10
149.6097674143
 20
167.4510474645
  0
VERTEX
  8
0
 62
7
  6
CONTINUOUS
 10
149.599953046
 20
166.9578533451
  0
VERTEX
  8
0
 62
7
  6
CONTINUOUS
 10
149.5903423363
 20
166.4102631033
  0
VERTEX
  8
0
 62
7
  6
CONTINUOUS
 10
149.5810709148
 20
165.8049929478
  0
VERTEX
  8
0
 62
7
  6
CONTINUOUS
 10
149.5722986116
 20
165.1393407011
  0
VERTEX
  8
0
 62
7
  6
CONTINUOUS
 10
149.5642085895
 20
164.4113328175
  0
VERTEX
  8
0
 62
7
  6
CONTINUOUS
 10
149.5570029802
 20
163.6194609253
  0
VERTEX
  8
0
 62
7
  6
CONTINUOUS
 10
149.5508891847
 20
162.7601121715
  0
VERTEX
  8
0
 62
7
  6
CONTINUOUS
 10
149.5461163905
 20
161.8292566696
  0
VERTEX
  8
0
 62
7
  6
CONTINUOUS
 10
149.542996335
 20
160.8244335298
  0
VERTEX
  8
0
 62
7
  6
CONTINUOUS
 10
149.5419050901
 20
159.7756578947
  0
SEQEND
  0
LINE
  8
0
 62
7
  6
CONTINUOUS
 10
179.2289473684
 20
141.1006578947
 11
183.1289473684
 21
137.2006578947
  0
LINE
  8
0
 62
7
  6
CONTINUOUS
 10
191.8289473684
 20
129.2006578947
 11
193.7289473684
 21
127.3006578947
  0
LINE
  8
0
 62
7
  6
CONTINUOUS
 10
181.2289473684
 20
141.1006578947
 11
183.1289473684
 21
139.2006578947
  0
LINE
  8
0
 62
7
  6
CONTINUOUS
 10
191.8289473684
 20
131.2006578947
 11
195.7289473684
 21
127.3006578947
  0
LINE
  8
0
 62
7
  6
CONTINUOUS
 10
193.8289473684
 20
131.2006578947
 11
195.8289473684
 21
129.2006578947
  0
LINE
  8
0
 62
7
  6
CONTINUOUS
 10
191.8289473684
 20
135.2006578947
 11
193.8289473684
 21
133.2006578947
  0
LINE
  8
0
 62
7
  6
CONTINUOUS
 10
179.0289473684
 20
142.0006578947
 11
179.0289473684
 21
154.4006578947
  0
LINE
  8
0
 62
7
  6
CONTINUOUS
 10
179.1289473684
 20
121.2006578947
 11
179.1289473684
 21
127.2006578947
  0
LINE
  8
0
 62
7
  6
CONTINUOUS
 10
179.1289473684
 20
129.2006578947
 11
179.1289473684
 21
135.2006578947
  0
LINE
  8
0
 62
7
  6
CONTINUOUS
 10
179.1289473684
 20
137.2006578947
 11
179.1289473684
 21
141.1006578947
  0
LINE
  8
0
 62
7
  6
CONTINUOUS
 10
179.1289473684
 20
155.3006578947
 11
179.1289473684
 21
159.2006578947
  0
LINE
  8
0
 62
7
  6
CONTINUOUS
 10
181.1289473684
 20
121.2006578947
 11
181.1289473684
 21
127.2006578947
  0
LINE
  8
0
 62
7
  6
CONTINUOUS
 10
181.1289473684
 20
129.2006578947
 11
181.1289473684
 21
135.2006578947
  0
LINE
  8
0
 62
7
  6
CONTINUOUS
 10
181.1289473684
 20
137.2006578947
 11
181.1289473684
 21
141.1006578947
  0
LINE
  8
0
 62
7
  6
CONTINUOUS
 10
181.1289473684
 20
155.3006578947
 11
181.1289473684
 21
159.2006578947
  0
LINE
  8
0
 62
7
  6
CONTINUOUS
 10
183.1289473684
 20
121.2006578947
 11
183.1289473684
 21
127.2006578947
  0
LINE
  8
0
 62
7
  6
CONTINUOUS
 10
183.1289473684
 20
129.2006578947
 11
183.1289473684
 21
135.2006578947
  0
LINE
  8
0
 62
7
  6
CONTINUOUS
 10
183.1289473684
 20
137.2006578947
 11
183.1289473684
 21
141.1006578947
  0
LINE
  8
0
 62
7
  6
CONTINUOUS
 10
183.1289473684
 20
155.3006578947
 11
183.1289473684
 21
159.2006578947
  0
LINE
  8
0
 62
7
  6
CONTINUOUS
 10
183.2289473684
 20
154.4006578947
 11
183.2289473684
 21
142.0006578947
  0
LINE
  8
0
 62
7
  6
CONTINUOUS
 10
168.4289473684
 20
109.2006578947
 11
170.4289473684
 21
111.2006578947
  0
LINE
  8
0
 62
7
  6
CONTINUOUS
 10
206.6289473684
 20
147.3006578947
 11
208.5289473684
 21
149.2006578947
  0
LINE
  8
0
 62
7
  6
CONTINUOUS
 10
181.1289473684
 20
121.2006578947
 11
183.1289473684
 21
123.2006578947
  0
LINE
  8
0
 62
7
  6
CONTINUOUS
 10
193.8289473684
 20
133.2006578947
 11
195.8289473684
 21
135.2006578947
  0
LINE
  8
0
 62
7
  6
CONTINUOUS
 10
191.8289473684
 20
129.2006578947
 11
193.8289473684
 21
131.2006578947
  0
LINE
  8
0
 62
7
  6
CONTINUOUS
 10
191.9289473684
 20
127.3006578947
 11
195.8289473684
 21
131.2006578947
  0
LINE
  8
0
 62
7
  6
CONTINUOUS
 10
204.5289473684
 20
139.2006578947
 11
206.4289473684
 21
141.1006578947
  0
LINE
  8
0
 62
7
  6
CONTINUOUS
 10
193.9289473684
 20
127.3006578947
 11
195.8289473684
 21
129.2006578947
  0
LINE
  8
0
 62
7
  6
CONTINUOUS
 10
204.5289473684
 20
137.2006578947
 11
208.4289473684
 21
141.1006578947
  0
POLYLINE
  8
0
 62
7
  6
CONTINUOUS
 66
1
 70
0
  0
VERTEX
  8
0
 62
7
  6
CONTINUOUS
 10
125.3819273588
 20
171.7756578938
  0
VERTEX
  8
0
 62
7
  6
CONTINUOUS
 10
125.1749601935
 20
171.7541225864
  0
VERTEX
  8
0
 62
7
  6
CONTINUOUS
 10
124.9271964579
 20
171.6669649146
  0
VERTEX
  8
0
 62
7
  6
CONTINUOUS
 10
124.7220779786
 20
171.529051342
  0
VERTEX
  8
0
 62
7
  6
CONTINUOUS
 10
124.5771932053
 20
171.3739899652
  0
VERTEX
  8
0
 62
7
  6
CONTINUOUS
 10
124.485759678
 20
171.2294736058
  0
VERTEX
  8
0
 62
7
  6
CONTINUOUS
 10
124.4306381157
 20
171.105486407
  0
VERTEX
  8
0
 62
7
  6
CONTINUOUS
 10
124.3979115109
 20
171.0033392529
  0
VERTEX
  8
0
 62
7
  6
CONTINUOUS
 10
124.3777338557
 20
170.9187627331
  0
VERTEX
  8
0
 62
7
  6
CONTINUOUS
 10
124.3636560506
 20
170.8426442517
  0
VERTEX
  8
0
 62
7
  6
CONTINUOUS
 10
124.3524765358
 20
170.7674649332
  0
VERTEX
  8
0
 62
7
  6
CONTINUOUS
 10
124.342631022
 20
170.6874355771
  0
VERTEX
  8
0
 62
7
  6
CONTINUOUS
 10
124.333387419
 20
170.5984995428
  0
VERTEX
  8
0
 62
7
  6
CONTINUOUS
 10
124.3243879613
 20
170.4976256999
  0
VERTEX
  8
0
 62
7
  6
CONTINUOUS
 10
124.3154203336
 20
170.3819379057
  0
VERTEX
  8
0
 62
7
  6
CONTINUOUS
 10
124.3063567944
 20
170.2485988476
  0
VERTEX
  8
0
 62
7
  6
CONTINUOUS
 10
124.2971425467
 20
170.09510494
  0
VERTEX
  8
0
 62
7
  6
CONTINUOUS
 10
124.2877801982
 20
169.9195162841
  0
VERTEX
  8
0
 62
7
  6
CONTINUOUS
 10
124.2782922045
 20
169.7201225558
  0
VERTEX
  8
0
 62
7
  6
CONTINUOUS
 10
124.2687121935
 20
169.4954001604
  0
VERTEX
  8
0
 62
7
  6
CONTINUOUS
 10
124.2590519577
 20
169.2431880747
  0
VERTEX
  8
0
 62
7
  6
CONTINUOUS
 10
124.2493054589
 20
168.9604320501
  0
VERTEX
  8
0
 62
7
  6
CONTINUOUS
 10
124.2394794949
 20
168.643789435
  0
VERTEX
  8
0
 62
7
  6
CONTINUOUS
 10
124.229592567
 20
168.289555143
  0
VERTEX
  8
0
 62
7
  6
CONTINUOUS
 10
124.2196728416
 20
167.8934898821
  0
VERTEX
  8
0
 62
7
  6
CONTINUOUS
 10
124.2097674143
 20
167.4510474645
  0
VERTEX
  8
0
 62
7
  6
CONTINUOUS
 10
124.199953046
 20
166.9578533451
  0
VERTEX
  8
0
 62
7
  6
CONTINUOUS
 10
124.1903423363
 20
166.4102631033
  0
VERTEX
  8
0
 62
7
  6
CONTINUOUS
 10
124.1810709148
 20
165.8049929478
  0
VERTEX
  8
0
 62
7
  6
CONTINUOUS
 10
124.1722986116
 20
165.1393407011
  0
VERTEX
  8
0
 62
7
  6
CONTINUOUS
 10
124.1642085895
 20
164.4113328175
  0
VERTEX
  8
0
 62
7
  6
CONTINUOUS
 10
124.1570029802
 20
163.6194609253
  0
VERTEX
  8
0
 62
7
  6
CONTINUOUS
 10
124.1508891847
 20
162.7601121715
  0
VERTEX
  8
0
 62
7
  6
CONTINUOUS
 10
124.1461163905
 20
161.8292566696
  0
VERTEX
  8
0
 62
7
  6
CONTINUOUS
 10
124.142996335
 20
160.8244335298
  0
VERTEX
  8
0
 62
7
  6
CONTINUOUS
 10
124.1419050901
 20
159.7756578947
  0
SEQEND
  0
POLYLINE
  8
0
 62
7
  6
CONTINUOUS
 66
1
 70
0
  0
VERTEX
  8
0
 62
7
  6
CONTINUOUS
 10
99.9819273588
 20
171.7756578938
  0
VERTEX
  8
0
 62
7
  6
CONTINUOUS
 10
99.7749601935
 20
171.7541225864
  0
VERTEX
  8
0
 62
7
  6
CONTINUOUS
 10
99.5271964579
 20
171.6669649146
  0
VERTEX
  8
0
 62
7
  6
CONTINUOUS
 10
99.3220779786
 20
171.529051342
  0
VERTEX
  8
0
 62
7
  6
CONTINUOUS
 10
99.1771932053
 20
171.3739899652
  0
VERTEX
  8
0
 62
7
  6
CONTINUOUS
 10
99.085759678
 20
171.2294736058
  0
VERTEX
  8
0
 62
7
  6
CONTINUOUS
 10
99.0306381157
 20
171.105486407
  0
VERTEX
  8
0
 62
7
  6
CONTINUOUS
 10
98.9979115109
 20
171.0033392529
  0
VERTEX
  8
0
 62
7
  6
CONTINUOUS
 10
98.9777338557
 20
170.9187627331
  0
VERTEX
  8
0
 62
7
  6
CONTINUOUS
 10
98.9636560506
 20
170.8426442517
  0
VERTEX
  8
0
 62
7
  6
CONTINUOUS
 10
98.9524765358
 20
170.7674649332
  0
VERTEX
  8
0
 62
7
  6
CONTINUOUS
 10
98.942631022
 20
170.6874355771
  0
VERTEX
  8
0
 62
7
  6
CONTINUOUS
 10
98.933387419
 20
170.5984995428
  0
VERTEX
  8
0
 62
7
  6
CONTINUOUS
 10
98.9243879613
 20
170.4976256999
  0
VERTEX
  8
0
 62
7
  6
CONTINUOUS
 10
98.9154203336
 20
170.3819379057
  0
VERTEX
  8
0
 62
7
  6
CONTINUOUS
 10
98.9063567944
 20
170.2485988476
  0
VERTEX
  8
0
 62
7
  6
CONTINUOUS
 10
98.8971425467
 20
170.09510494
  0
VERTEX
  8
0
 62
7
  6
CONTINUOUS
 10
98.8877801982
 20
169.9195162841
  0
VERTEX
  8
0
 62
7
  6
CONTINUOUS
 10
98.8782922045
 20
169.7201225558
  0
VERTEX
  8
0
 62
7
  6
CONTINUOUS
 10
98.8687121935
 20
169.4954001604
  0
VERTEX
  8
0
 62
7
  6
CONTINUOUS
 10
98.8590519577
 20
169.2431880747
  0
VERTEX
  8
0
 62
7
  6
CONTINUOUS
 10
98.8493054589
 20
168.9604320501
  0
VERTEX
  8
0
 62
7
  6
CONTINUOUS
 10
98.8394794949
 20
168.643789435
  0
VERTEX
  8
0
 62
7
  6
CONTINUOUS
 10
98.829592567
 20
168.289555143
  0
VERTEX
  8
0
 62
7
  6
CONTINUOUS
 10
98.8196728416
 20
167.8934898821
  0
VERTEX
  8
0
 62
7
  6
CONTINUOUS
 10
98.8097674143
 20
167.4510474645
  0
VERTEX
  8
0
 62
7
  6
CONTINUOUS
 10
98.799953046
 20
166.9578533451
  0
VERTEX
  8
0
 62
7
  6
CONTINUOUS
 10
98.7903423363
 20
166.4102631033
  0
VERTEX
  8
0
 62
7
  6
CONTINUOUS
 10
98.7810709148
 20
165.8049929478
  0
VERTEX
  8
0
 62
7
  6
CONTINUOUS
 10
98.7722986116
 20
165.1393407011
  0
VERTEX
  8
0
 62
7
  6
CONTINUOUS
 10
98.7642085895
 20
164.4113328175
  0
VERTEX
  8
0
 62
7
  6
CONTINUOUS
 10
98.7570029802
 20
163.6194609253
  0
VERTEX
  8
0
 62
7
  6
CONTINUOUS
 10
98.7508891847
 20
162.7601121715
  0
VERTEX
  8
0
 62
7
  6
CONTINUOUS
 10
98.7461163905
 20
161.8292566696
  0
VERTEX
  8
0
 62
7
  6
CONTINUOUS
 10
98.742996335
 20
160.8244335298
  0
VERTEX
  8
0
 62
7
  6
CONTINUOUS
 10
98.7419050901
 20
159.7756578947
  0
SEQEND
  0
LINE
  8
SURF
 62
7
  6
CONTINUOUS
 10
74.581925941
 20
171.7756578947
 11
84.4759687959
 21
171.7756578947
  0
LINE
  8
SURF
 62
7
  6
CONTINUOUS
 10
99.981925941
 20
171.7756578947
 11
109.8759687959
 21
171.7756578947
  0
LINE
  8
SURF
 62
7
  6
CONTINUOUS
 10
125.381925941
 20
171.7756578947
 11
135.2759687959
 21
171.7756578947
  0
LINE
  8
SURF
 62
7
  6
CONTINUOUS
 10
150.781925941
 20
171.7756578947
 11
160.6759687959
 21
171.7756578947
  0
LINE
  8
SURF
 62
7
  6
CONTINUOUS
 10
176.181925941
 20
171.7756578947
 11
186.0759687959
 21
171.7756578947
  0
LINE
  8
0
 62
7
  6
CONTINUOUS
 10
201.581925941
 20
171.7756578947
 11
211.6789473684
 21
171.7756578947
  0
LINE
  8
0
 62
7
  6
CONTINUOUS
 10
204.5289473684
 20
123.2006578947
 11
206.5289473684
 21
121.2006578947
  0
LINE
  8
0
 62
7
  6
CONTINUOUS
 10
191.8289473684
 20
137.2006578947
 11
195.8289473684
 21
133.2006578947
  0
LINE
  8
0
 62
7
  6
CONTINUOUS
 10
204.5289473684
 20
125.2006578947
 11
208.5289473684
 21
121.2006578947
  0
LINE
  8
0
 62
7
  6
CONTINUOUS
 10
191.8289473684
 20
139.2006578947
 11
195.8289473684
 21
135.2006578947
  0
LINE
  8
0
 62
7
  6
CONTINUOUS
 10
204.5289473684
 20
127.2006578947
 11
208.5289473684
 21
123.2006578947
  0
LINE
  8
0
 62
7
  6
CONTINUOUS
 10
193.8289473684
 20
139.2006578947
 11
195.8289473684
 21
137.2006578947
  0
LINE
  8
0
 62
7
  6
CONTINUOUS
 10
206.5289473684
 20
127.2006578947
 11
208.5289473684
 21
125.2006578947
  0
LINE
  8
0
 62
7
  6
CONTINUOUS
 10
191.8289473684
 20
143.2006578947
 11
193.8289473684
 21
141.2006578947
  0
LINE
  8
0
 62
7
  6
CONTINUOUS
 10
204.5289473684
 20
131.2006578947
 11
206.5289473684
 21
129.2006578947
  0
POLYLINE
  8
0
 62
7
  6
CONTINUOUS
 66
1
 70
0
  0
VERTEX
  8
0
 62
7
  6
CONTINUOUS
 10
187.3159896467
 20
159.7756578947
  0
VERTEX
  8
0
 62
7
  6
CONTINUOUS
 10
187.3149462725
 20
160.8012230293
  0
VERTEX
  8
0
 62
7
  6
CONTINUOUS
 10
187.3119611236
 20
161.7845808703
  0
VERTEX
  8
0
 62
7
  6
CONTINUOUS
 10
187.3073848318
 20
162.6976066851
  0
VERTEX
  8
0
 62
7
  6
CONTINUOUS
 10
187.3015134862
 20
163.5419905243
  0
VERTEX
  8
0
 62
7
  6
CONTINUOUS
 10
187.2945894164
 20
164.3209506531
  0
VERTEX
  8
0
 62
7
  6
CONTINUOUS
 10
187.2868098822
 20
165.038205392
  0
VERTEX
  8
0
 62
7
  6
CONTINUOUS
 10
187.2783469178
 20
165.6967440056
  0
VERTEX
  8
0
 62
7
  6
CONTINUOUS
 10
187.2693443754
 20
166.2998077041
  0
VERTEX
  8
0
 62
7
  6
CONTINUOUS
 10
187.259920974
 20
166.8507801598
  0
VERTEX
  8
0
 62
7
  6
CONTINUOUS
 10
187.2501802035
 20
167.3527401346
  0
VERTEX
  8
0
 62
7
  6
CONTINUOUS
 10
187.2402072994
 20
167.8088059135
  0
VERTEX
  8
0
 62
7
  6
CONTINUOUS
 10
187.2300695234
 20
168.2221286108
  0
VERTEX
  8
0
 62
7
  6
CONTINUOUS
 10
187.2198190805
 20
168.595764298
  0
VERTEX
  8
0
 62
7
  6
CONTINUOUS
 10
187.2094942892
 20
168.9326420279
  0
VERTEX
  8
0
 62
7
  6
CONTINUOUS
 10
187.199119483
 20
169.2355642633
  0
VERTEX
  8
0
 62
7
  6
CONTINUOUS
 10
187.1887074535
 20
169.507124511
  0
VERTEX
  8
0
 62
7
  6
CONTINUOUS
 10
187.1782910886
 20
169.7490204019
  0
VERTEX
  8
0
 62
7
  6
CONTINUOUS
 10
187.1679185018
 20
169.9625409628
  0
VERTEX
  8
0
 62
7
  6
CONTINUOUS
 10
187.1576246865
 20
170.1492964517
  0
VERTEX
  8
0
 62
7
  6
CONTINUOUS
 10
187.1474230579
 20
170.3112433958
  0
VERTEX
  8
0
 62
7
  6
CONTINUOUS
 10
187.1373066611
 20
170.4505145089
  0
VERTEX
  8
0
 62
7
  6
CONTINUOUS
 10
187.1272620068
 20
170.5691770315
  0
VERTEX
  8
0
 62
7
  6
CONTINUOUS
 10
187.1171726341
 20
170.670220419
  0
VERTEX
  8
0
 62
7
  6
CONTINUOUS
 10
187.1066624314
 20
170.7581194249
  0
VERTEX
  8
0
 62
7
  6
CONTINUOUS
 10
187.0949655827
 20
170.8381994388
  0
VERTEX
  8
0
 62
7
  6
CONTINUOUS
 10
187.0806675163
 20
170.916313571
  0
VERTEX
  8
0
 62
7
  6
CONTINUOUS
 10
187.0605820449
 20
171.001133068
  0
VERTEX
  8
0
 62
7
  6
CONTINUOUS
 10
187.0269225213
 20
171.1063832309
  0
VERTEX
  8
0
 62
7
  6
CONTINUOUS
 10
186.9670480162
 20
171.2390806734
  0
VERTEX
  8
0
 62
7
  6
CONTINUOUS
 10
186.8721870888
 20
171.38509796
  0
VERTEX
  8
0
 62
7
  6
CONTINUOUS
 10
186.72953461
 20
171.5344564177
  0
VERTEX
  8
0
 62
7
  6
CONTINUOUS
 10
186.5262116514
 20
171.6692247984
  0
VERTEX
  8
0
 62
7
  6
CONTINUOUS
 10
186.2797179223
 20
171.7547937819
  0
VERTEX
  8
0
 62
7
  6
CONTINUOUS
 10
186.0759674266
 20
171.7756578938
  0
SEQEND
  0
POLYLINE
  8
0
 62
7
  6
CONTINUOUS
 66
1
 70
0
  0
VERTEX
  8
0
 62
7
  6
CONTINUOUS
 10
187.6419050901
 20
108.6256578947
  0
VERTEX
  8
0
 62
7
  6
CONTINUOUS
 10
187.6429484643
 20
107.6000927602
  0
VERTEX
  8
0
 62
7
  6
CONTINUOUS
 10
187.6459336132
 20
106.6167349192
  0
VERTEX
  8
0
 62
7
  6
CONTINUOUS
 10
187.650509905
 20
105.7037091044
  0
VERTEX
  8
0
 62
7
  6
CONTINUOUS
 10
187.6563812506
 20
104.8593252651
  0
VERTEX
  8
0
 62
7
  6
CONTINUOUS
 10
187.6633053204
 20
104.0803651363
  0
VERTEX
  8
0
 62
7
  6
CONTINUOUS
 10
187.6710848547
 20
103.3631103974
  0
VERTEX
  8
0
 62
7
  6
CONTINUOUS
 10
187.679547819
 20
102.7045717838
  0
VERTEX
  8
0
 62
7
  6
CONTINUOUS
 10
187.6885503614
 20
102.1015080854
  0
VERTEX
  8
0
 62
7
  6
CONTINUOUS
 10
187.6979737628
 20
101.5505356297
  0
VERTEX
  8
0
 62
7
  6
CONTINUOUS
 10
187.7077145333
 20
101.0485756549
  0
VERTEX
  8
0
 62
7
  6
CONTINUOUS
 10
187.7176874374
 20
100.592509876
  0
VERTEX
  8
0
 62
7
  6
CONTINUOUS
 10
187.7278252135
 20
100.1791871787
  0
VERTEX
  8
0
 62
7
  6
CONTINUOUS
 10
187.7380756563
 20
99.8055514915
  0
VERTEX
  8
0
 62
7
  6
CONTINUOUS
 10
187.7484004476
 20
99.4686737616
  0
VERTEX
  8
0
 62
7
  6
CONTINUOUS
 10
187.7587752539
 20
99.1657515261
  0
VERTEX
  8
0
 62
7
  6
CONTINUOUS
 10
187.7691872833
 20
98.8941912785
  0
VERTEX
  8
0
 62
7
  6
CONTINUOUS
 10
187.7796036482
 20
98.6522953875
  0
VERTEX
  8
0
 62
7
  6
CONTINUOUS
 10
187.7899762351
 20
98.4387748266
  0
VERTEX
  8
0
 62
7
  6
CONTINUOUS
 10
187.8002700503
 20
98.2520193378
  0
VERTEX
  8
0
 62
7
  6
CONTINUOUS
 10
187.8104716789
 20
98.0900723937
  0
VERTEX
  8
0
 62
7
  6
CONTINUOUS
 10
187.8205880757
 20
97.9508012806
  0
VERTEX
  8
0
 62
7
  6
CONTINUOUS
 10
187.83063273
 20
97.832138758
  0
VERTEX
  8
0
 62
7
  6
CONTINUOUS
 10
187.8407221028
 20
97.7310953705
  0
VERTEX
  8
0
 62
7
  6
CONTINUOUS
 10
187.8512323054
 20
97.6431963646
  0
VERTEX
  8
0
 62
7
  6
CONTINUOUS
 10
187.8629291542
 20
97.5631163506
  0
VERTEX
  8
0
 62
7
  6
CONTINUOUS
 10
187.8772272205
 20
97.4850022185
  0
VERTEX
  8
0
 62
7
  6
CONTINUOUS
 10
187.897312692
 20
97.4001827215
  0
VERTEX
  8
0
 62
7
  6
CONTINUOUS
 10
187.9309722155
 20
97.2949325585
  0
VERTEX
  8
0
 62
7
  6
CONTINUOUS
 10
187.9908467206
 20
97.162235116
  0
VERTEX
  8
0
 62
7
  6
CONTINUOUS
 10
188.085707648
 20
97.0162178295
  0
VERTEX
  8
0
 62
7
  6
CONTINUOUS
 10
188.2283601269
 20
96.8668593718
  0
VERTEX
  8
0
 62
7
  6
CONTINUOUS
 10
188.4316830855
 20
96.7320909911
  0
VERTEX
  8
0
 62
7
  6
CONTINUOUS
 10
188.6781768145
 20
96.6465220075
  0
VERTEX
  8
0
 62
7
  6
CONTINUOUS
 10
188.8819273103
 20
96.6256578956
  0
SEQEND
  0
LINE
  8
0
 62
7
  6
CONTINUOUS
 10
187.3159896493
 20
159.7756578947
 11
187.3159896493
 21
152.9001359535
  0
LINE
  8
0
 62
7
  6
CONTINUOUS
 10
187.6419050875
 20
108.6256578947
 11
187.6419050875
 21
115.501179708
  0
LINE
  8
0
 62
7
  6
CONTINUOUS
 10
206.5289473684
 20
137.2006578947
 11
208.5289473684
 21
139.2006578947
  0
LINE
  8
0
 62
7
  6
CONTINUOUS
 10
204.5289473684
 20
133.2006578947
 11
206.5289473684
 21
135.2006578947
  0
LINE
  8
0
 62
7
  6
CONTINUOUS
 10
204.5289473684
 20
131.2006578947
 11
208.5289473684
 21
135.2006578947
  0
LINE
  8
0
 62
7
  6
CONTINUOUS
 10
204.5289473684
 20
129.2006578947
 11
208.5289473684
 21
133.2006578947
  0
POLYLINE
  8
0
 62
7
  6
CONTINUOUS
 66
1
 70
0
  0
VERTEX
  8
0
 62
7
  6
CONTINUOUS
 10
74.5819273588
 20
171.7756578938
  0
VERTEX
  8
0
 62
7
  6
CONTINUOUS
 10
74.3749601935
 20
171.7541225864
  0
VERTEX
  8
0
 62
7
  6
CONTINUOUS
 10
74.1271964579
 20
171.6669649146
  0
VERTEX
  8
0
 62
7
  6
CONTINUOUS
 10
73.9220779786
 20
171.529051342
  0
VERTEX
  8
0
 62
7
  6
CONTINUOUS
 10
73.7771932053
 20
171.3739899652
  0
VERTEX
  8
0
 62
7
  6
CONTINUOUS
 10
73.685759678
 20
171.2294736058
  0
VERTEX
  8
0
 62
7
  6
CONTINUOUS
 10
73.6306381157
 20
171.105486407
  0
VERTEX
  8
0
 62
7
  6
CONTINUOUS
 10
73.5979115109
 20
171.0033392529
  0
VERTEX
  8
0
 62
7
  6
CONTINUOUS
 10
73.5777338557
 20
170.9187627331
  0
VERTEX
  8
0
 62
7
  6
CONTINUOUS
 10
73.5636560506
 20
170.8426442517
  0
VERTEX
  8
0
 62
7
  6
CONTINUOUS
 10
73.5524765358
 20
170.7674649332
  0
VERTEX
  8
0
 62
7
  6
CONTINUOUS
 10
73.542631022
 20
170.6874355771
  0
VERTEX
  8
0
 62
7
  6
CONTINUOUS
 10
73.533387419
 20
170.5984995428
  0
VERTEX
  8
0
 62
7
  6
CONTINUOUS
 10
73.5243879613
 20
170.4976256999
  0
VERTEX
  8
0
 62
7
  6
CONTINUOUS
 10
73.5154203336
 20
170.3819379057
  0
VERTEX
  8
0
 62
7
  6
CONTINUOUS
 10
73.5063567944
 20
170.2485988476
  0
VERTEX
  8
0
 62
7
  6
CONTINUOUS
 10
73.4971425467
 20
170.09510494
  0
VERTEX
  8
0
 62
7
  6
CONTINUOUS
 10
73.4877801982
 20
169.9195162841
  0
VERTEX
  8
0
 62
7
  6
CONTINUOUS
 10
73.4782922045
 20
169.7201225558
  0
VERTEX
  8
0
 62
7
  6
CONTINUOUS
 10
73.4687121935
 20
169.4954001604
  0
VERTEX
  8
0
 62
7
  6
CONTINUOUS
 10
73.4590519577
 20
169.2431880747
  0
VERTEX
  8
0
 62
7
  6
CONTINUOUS
 10
73.4493054589
 20
168.9604320501
  0
VERTEX
  8
0
 62
7
  6
CONTINUOUS
 10
73.4394794949
 20
168.643789435
  0
VERTEX
  8
0
 62
7
  6
CONTINUOUS
 10
73.429592567
 20
168.289555143
  0
VERTEX
  8
0
 62
7
  6
CONTINUOUS
 10
73.4196728416
 20
167.8934898821
  0
VERTEX
  8
0
 62
7
  6
CONTINUOUS
 10
73.4097674143
 20
167.4510474645
  0
VERTEX
  8
0
 62
7
  6
CONTINUOUS
 10
73.399953046
 20
166.9578533451
  0
VERTEX
  8
0
 62
7
  6
CONTINUOUS
 10
73.3903423363
 20
166.4102631033
  0
VERTEX
  8
0
 62
7
  6
CONTINUOUS
 10
73.3810709148
 20
165.8049929478
  0
VERTEX
  8
0
 62
7
  6
CONTINUOUS
 10
73.3722986116
 20
165.1393407011
  0
VERTEX
  8
0
 62
7
  6
CONTINUOUS
 10
73.3642085895
 20
164.4113328175
  0
VERTEX
  8
0
 62
7
  6
CONTINUOUS
 10
73.3570029802
 20
163.6194609253
  0
VERTEX
  8
0
 62
7
  6
CONTINUOUS
 10
73.3508891847
 20
162.7601121715
  0
VERTEX
  8
0
 62
7
  6
CONTINUOUS
 10
73.3461163905
 20
161.8292566696
  0
VERTEX
  8
0
 62
7
  6
CONTINUOUS
 10
73.342996335
 20
160.8244335298
  0
VERTEX
  8
0
 62
7
  6
CONTINUOUS
 10
73.3419050901
 20
159.7756578947
  0
SEQEND
  0
LINE
  8
0
 62
7
  6
CONTINUOUS
 10
179.1289473684
 20
157.2006578947
 11
181.0289473684
 21
155.3006578947
  0
LINE
  8
0
 62
7
  6
CONTINUOUS
 10
191.8289473684
 20
145.2006578947
 11
195.8289473684
 21
141.2006578947
  0
LINE
  8
0
 62
7
  6
CONTINUOUS
 10
204.5289473684
 20
133.2006578947
 11
208.5289473684
 21
129.2006578947
  0
LINE
  8
0
 62
7
  6
CONTINUOUS
 10
179.1289473684
 20
159.2006578947
 11
183.0289473684
 21
155.3006578947
  0
LINE
  8
0
 62
7
  6
CONTINUOUS
 10
191.8289473684
 20
147.2006578947
 11
195.8289473684
 21
143.2006578947
  0
LINE
  8
0
 62
7
  6
CONTINUOUS
 10
204.5289473684
 20
135.2006578947
 11
208.5289473684
 21
131.2006578947
  0
LINE
  8
0
 62
7
  6
CONTINUOUS
 10
181.1289473684
 20
159.2006578947
 11
183.1289473684
 21
157.2006578947
  0
LINE
  8
0
 62
7
  6
CONTINUOUS
 10
193.8289473684
 20
147.2006578947
 11
195.8289473684
 21
145.2006578947
  0
LINE
  8
0
 62
7
  6
CONTINUOUS
 10
206.5289473684
 20
135.2006578947
 11
208.5289473684
 21
133.2006578947
  0
LINE
  8
0
 62
7
  6
CONTINUOUS
 10
204.5289473684
 20
139.2006578947
 11
206.5289473684
 21
137.2006578947
  0
LINE
  8
0
 62
7
  6
CONTINUOUS
 10
191.7289473684
 20
114.0006578947
 11
191.7289473684
 21
126.4006578947
  0
LINE
  8
0
 62
7
  6
CONTINUOUS
 10
191.8289473684
 20
109.2006578947
 11
191.8289473684
 21
113.1006578947
  0
LINE
  8
0
 62
7
  6
CONTINUOUS
 10
191.8289473684
 20
127.3006578947
 11
191.8289473684
 21
131.2006578947
  0
LINE
  8
0
 62
7
  6
CONTINUOUS
 10
191.8289473684
 20
133.2006578947
 11
191.8289473684
 21
139.2006578947
  0
LINE
  8
0
 62
7
  6
CONTINUOUS
 10
191.8289473684
 20
141.2006578947
 11
191.8289473684
 21
147.2006578947
  0
LINE
  8
0
 62
7
  6
CONTINUOUS
 10
193.8289473684
 20
109.2006578947
 11
193.8289473684
 21
113.1006578947
  0
LINE
  8
0
 62
7
  6
CONTINUOUS
 10
193.8289473684
 20
127.3006578947
 11
193.8289473684
 21
131.2006578947
  0
LINE
  8
0
 62
7
  6
CONTINUOUS
 10
193.8289473684
 20
133.2006578947
 11
193.8289473684
 21
139.2006578947
  0
LINE
  8
0
 62
7
  6
CONTINUOUS
 10
193.8289473684
 20
141.2006578947
 11
193.8289473684
 21
147.2006578947
  0
LINE
  8
0
 62
7
  6
CONTINUOUS
 10
206.5289473684
 20
129.2006578947
 11
208.5289473684
 21
131.2006578947
  0
LINE
  8
0
 62
7
  6
CONTINUOUS
 10
204.5289473684
 20
125.2006578947
 11
206.5289473684
 21
127.2006578947
  0
LINE
  8
0
 62
7
  6
CONTINUOUS
 10
191.8289473684
 20
111.2006578947
 11
193.7289473684
 21
113.1006578947
  0
LINE
  8
0
 62
7
  6
CONTINUOUS
 10
204.5289473684
 20
123.2006578947
 11
208.5289473684
 21
127.2006578947
  0
LINE
  8
0
 62
7
  6
CONTINUOUS
 10
191.8289473684
 20
109.2006578947
 11
195.7289473684
 21
113.1006578947
  0
LINE
  8
0
 62
7
  6
CONTINUOUS
 10
204.5289473684
 20
121.2006578947
 11
208.5289473684
 21
125.2006578947
  0
LINE
  8
0
 62
7
  6
CONTINUOUS
 10
193.8289473684
 20
109.2006578947
 11
195.8289473684
 21
111.2006578947
  0
LINE
  8
0
 62
7
  6
CONTINUOUS
 10
204.6289473684
 20
141.1006578947
 11
208.5289473684
 21
137.2006578947
  0
LINE
  8
0
 62
7
  6
CONTINUOUS
 10
206.6289473684
 20
141.1006578947
 11
208.5289473684
 21
139.2006578947
  0
LINE
  8
0
 62
7
  6
CONTINUOUS
 10
195.8289473684
 20
109.2006578947
 11
195.8289473684
 21
113.1006578947
  0
LINE
  8
0
 62
7
  6
CONTINUOUS
 10
195.8289473684
 20
127.3006578947
 11
195.8289473684
 21
131.2006578947
  0
LINE
  8
0
 62
7
  6
CONTINUOUS
 10
195.8289473684
 20
133.2006578947
 11
195.8289473684
 21
139.2006578947
  0
LINE
  8
0
 62
7
  6
CONTINUOUS
 10
195.8289473684
 20
141.2006578947
 11
195.8289473684
 21
147.2006578947
  0
LINE
  8
0
 62
7
  6
CONTINUOUS
 10
195.9289473684
 20
126.4006578947
 11
195.9289473684
 21
114.0006578947
  0
LINE
  8
0
 62
7
  6
CONTINUOUS
 10
200.0159896493
 20
115.5011796404
 11
200.0159896493
 21
108.6256578947
  0
LINE
  8
0
 62
7
  6
CONTINUOUS
 10
200.3419050875
 20
152.9001359943
 11
200.3419050875
 21
159.7756578947
  0
POLYLINE
  8
0
 62
7
  6
CONTINUOUS
 66
1
 70
0
  0
VERTEX
  8
0
 62
7
  6
CONTINUOUS
 10
200.3419035732
 20
152.9001359943
  0
VERTEX
  8
0
 62
7
  6
CONTINUOUS
 10
200.317256059
 20
152.6794170543
  0
VERTEX
  8
0
 62
7
  6
CONTINUOUS
 10
200.2320822482
 20
152.4443787033
  0
VERTEX
  8
0
 62
7
  6
CONTINUOUS
 10
200.0908328982
 20
152.237248058
  0
VERTEX
  8
0
 62
7
  6
CONTINUOUS
 10
199.9045228324
 20
152.0730607237
  0
VERTEX
  8
0
 62
7
  6
CONTINUOUS
 10
199.65869543
 20
151.9510363539
  0
VERTEX
  8
0
 62
7
  6
CONTINUOUS
 10
199.3978882756
 20
151.8977540816
  0
SEQEND
  0
POLYLINE
  8
0
 62
7
  6
CONTINUOUS
 66
1
 70
0
  0
VERTEX
  8
0
 62
7
  6
CONTINUOUS
 10
200.0159910014
 20
115.5011796404
  0
VERTEX
  8
0
 62
7
  6
CONTINUOUS
 10
200.0406337997
 20
115.7218777415
  0
VERTEX
  8
0
 62
7
  6
CONTINUOUS
 10
200.1257928333
 20
115.9568988132
  0
VERTEX
  8
0
 62
7
  6
CONTINUOUS
 10
200.2670192484
 20
116.1640195741
  0
VERTEX
  8
0
 62
7
  6
CONTINUOUS
 10
200.4533012391
 20
116.328206949
  0
VERTEX
  8
0
 62
7
  6
CONTINUOUS
 10
200.6985706663
 20
116.4500682395
  0
VERTEX
  8
0
 62
7
  6
CONTINUOUS
 10
200.9599892843
 20
116.5035589963
  0
SEQEND
  0
LINE
  8
0
 62
7
  6
CONTINUOUS
 10
206.5289473684
 20
121.2006578947
 11
208.5289473684
 21
123.2006578947
  0
LINE
  8
0
 62
7
  6
CONTINUOUS
 10
204.5289473684
 20
149.2006578947
 11
206.4289473684
 21
147.3006578947
  0
LINE
  8
0
 62
7
  6
CONTINUOUS
 10
204.5289473684
 20
151.2006578947
 11
208.4289473684
 21
147.3006578947
  0
LINE
  8
0
 62
7
  6
CONTINUOUS
 10
206.5289473684
 20
151.2006578947
 11
208.5289473684
 21
149.2006578947
  0
LINE
  8
0
 62
7
  6
CONTINUOUS
 10
204.5289473684
 20
155.2006578947
 11
206.5289473684
 21
153.2006578947
  0
LINE
  8
0
 62
7
  6
CONTINUOUS
 10
204.4289473684
 20
142.0006578947
 11
204.4289473684
 21
146.4006578947
  0
LINE
  8
0
 62
7
  6
CONTINUOUS
 10
204.5289473684
 20
121.2006578947
 11
204.5289473684
 21
127.2006578947
  0
LINE
  8
0
 62
7
  6
CONTINUOUS
 10
204.5289473684
 20
129.2006578947
 11
204.5289473684
 21
135.2006578947
  0
LINE
  8
0
 62
7
  6
CONTINUOUS
 10
204.5289473684
 20
137.2006578947
 11
204.5289473684
 21
141.1006578947
  0
LINE
  8
0
 62
7
  6
CONTINUOUS
 10
204.5289473684
 20
147.3006578947
 11
204.5289473684
 21
151.2006578947
  0
LINE
  8
0
 62
7
  6
CONTINUOUS
 10
204.5289473684
 20
153.2006578947
 11
204.5289473684
 21
159.2006578947
  0
LINE
  8
0
 62
7
  6
CONTINUOUS
 10
206.5289473684
 20
121.2006578947
 11
206.5289473684
 21
127.2006578947
  0
LINE
  8
0
 62
7
  6
CONTINUOUS
 10
206.5289473684
 20
129.2006578947
 11
206.5289473684
 21
135.2006578947
  0
LINE
  8
0
 62
7
  6
CONTINUOUS
 10
206.5289473684
 20
137.2006578947
 11
206.5289473684
 21
141.1006578947
  0
LINE
  8
0
 62
7
  6
CONTINUOUS
 10
206.5289473684
 20
147.3006578947
 11
206.5289473684
 21
151.2006578947
  0
LINE
  8
0
 62
7
  6
CONTINUOUS
 10
206.5289473684
 20
153.2006578947
 11
206.5289473684
 21
159.2006578947
  0
LINE
  8
0
 62
7
  6
CONTINUOUS
 10
204.5289473684
 20
157.2006578947
 11
208.5289473684
 21
153.2006578947
  0
LINE
  8
0
 62
7
  6
CONTINUOUS
 10
204.5289473684
 20
159.2006578947
 11
208.5289473684
 21
155.2006578947
  0
LINE
  8
0
 62
7
  6
CONTINUOUS
 10
206.5289473684
 20
159.2006578947
 11
208.5289473684
 21
157.2006578947
  0
LINE
  8
0
 62
7
  6
CONTINUOUS
 10
208.5289473684
 20
121.2006578947
 11
208.5289473684
 21
127.2006578947
  0
LINE
  8
0
 62
7
  6
CONTINUOUS
 10
208.5289473684
 20
129.2006578947
 11
208.5289473684
 21
135.2006578947
  0
LINE
  8
0
 62
7
  6
CONTINUOUS
 10
208.5289473684
 20
137.2006578947
 11
208.5289473684
 21
141.1006578947
  0
LINE
  8
0
 62
7
  6
CONTINUOUS
 10
208.5289473684
 20
147.3006578947
 11
208.5289473684
 21
151.2006578947
  0
LINE
  8
0
 62
7
  6
CONTINUOUS
 10
208.5289473684
 20
153.2006578947
 11
208.5289473684
 21
159.2006578947
  0
LINE
  8
0
 62
7
  6
CONTINUOUS
 10
208.6289473684
 20
146.4006578947
 11
208.6289473684
 21
142.0006578947
  0
LINE
  8
0
 62
7
  6
CONTINUOUS
 10
212.6789473684
 20
170.775651772
 11
212.6789473684
 21
117.5049565007
  0
LINE
  8
0
 62
7
  6
CONTINUOUS
 10
60.6789473684
 20
216.7861842126
 11
60.6789473684
 21
238.7861842126
  0
POLYLINE
  8
0
 62
7
  6
CONTINUOUS
 66
1
 70
0
  0
VERTEX
  8
0
 62
7
  6
CONTINUOUS
 10
65.5644442446
 20
219.3940967075
  0
VERTEX
  8
0
 62
7
  6
CONTINUOUS
 10
65.5815171283
 20
219.4581675687
  0
VERTEX
  8
0
 62
7
  6
CONTINUOUS
 10
65.6106282921
 20
219.5403058471
  0
VERTEX
  8
0
 62
7
  6
CONTINUOUS
 10
65.6488516298
 20
219.6266780439
  0
VERTEX
  8
0
 62
7
  6
CONTINUOUS
 10
65.6947369771
 20
219.7138199093
  0
VERTEX
  8
0
 62
7
  6
CONTINUOUS
 10
65.7466441381
 20
219.7991048718
  0
VERTEX
  8
0
 62
7
  6
CONTINUOUS
 10
65.8028924969
 20
219.8805385162
  0
VERTEX
  8
0
 62
7
  6
CONTINUOUS
 10
65.8621701125
 20
219.9570361202
  0
VERTEX
  8
0
 62
7
  6
CONTINUOUS
 10
65.9238505515
 20
220.0284394898
  0
VERTEX
  8
0
 62
7
  6
CONTINUOUS
 10
65.9875359748
 20
220.0947013945
  0
VERTEX
  8
0
 62
7
  6
CONTINUOUS
 10
66.0528456128
 20
220.1556590251
  0
VERTEX
  8
0
 62
7
  6
CONTINUOUS
 10
66.1193551699
 20
220.2110317886
  0
VERTEX
  8
0
 62
7
  6
CONTINUOUS
 10
66.186919118
 20
220.2606902224
  0
VERTEX
  8
0
 62
7
  6
CONTINUOUS
 10
66.2558022854
 20
220.3046085557
  0
VERTEX
  8
0
 62
7
  6
CONTINUOUS
 10
66.3260030789
 20
220.3423190857
  0
VERTEX
  8
0
 62
7
  6
CONTINUOUS
 10
66.3975160313
 20
220.3730974752
  0
VERTEX
  8
0
 62
7
  6
CONTINUOUS
 10
66.4699997795
 20
220.3958061465
  0
VERTEX
  8
0
 62
7
  6
CONTINUOUS
 10
66.5423851897
 20
220.4090253856
  0
VERTEX
  8
0
 62
7
  6
CONTINUOUS
 10
66.5968098788
 20
220.4121089468
  0
SEQEND
  0
POLYLINE
  8
0
 62
7
  6
CONTINUOUS
 66
1
 70
0
  0
VERTEX
  8
0
 62
7
  6
CONTINUOUS
 10
68.0252031483
 20
219.3980329974
  0
VERTEX
  8
0
 62
7
  6
CONTINUOUS
 10
68.2513550904
 20
218.4756242603
  0
VERTEX
  8
0
 62
7
  6
CONTINUOUS
 10
68.4781823523
 20
217.7474290827
  0
VERTEX
  8
0
 62
7
  6
CONTINUOUS
 10
68.7084435001
 20
217.1721171827
  0
VERTEX
  8
0
 62
7
  6
CONTINUOUS
 10
68.8290301844
 20
216.9270106632
  0
VERTEX
  8
0
 62
7
  6
CONTINUOUS
 10
69.091380865
 20
216.5057105033
  0
VERTEX
  8
0
 62
7
  6
CONTINUOUS
 10
69.4061527361
 20
216.1616205272
  0
VERTEX
  8
0
 62
7
  6
CONTINUOUS
 10
69.7876243304
 20
215.913443126
  0
SEQEND
  0
LINE
  8
0
 62
7
  6
CONTINUOUS
 10
73.0157516764
 20
238.7643693276
 11
72.5357099687
 21
216.7643693276
  0
LINE
  8
SURF
 62
7
  6
CONTINUOUS
 10
72.9364601377
 20
235.1304895539
 11
72.9811302986
 21
237.1776940468
  0
LINE
  8
0
 62
7
  6
CONTINUOUS
 10
74.2197648792
 20
218.9145471434
 11
74.172274419
 21
216.7641107692
  0
POLYLINE
  8
0
 62
7
  6
CONTINUOUS
 66
1
 70
0
  0
VERTEX
  8
0
 62
7
  6
CONTINUOUS
 10
74.2197648004
 20
218.9145471458
  0
VERTEX
  8
0
 62
7
  6
CONTINUOUS
 10
74.229668194
 20
219.1794292876
  0
VERTEX
  8
0
 62
7
  6
CONTINUOUS
 10
74.2490270324
 20
219.4586424744
  0
VERTEX
  8
0
 62
7
  6
CONTINUOUS
 10
74.2735666704
 20
219.6953637652
  0
VERTEX
  8
0
 62
7
  6
CONTINUOUS
 10
74.2998952455
 20
219.882870976
  0
VERTEX
  8
0
 62
7
  6
CONTINUOUS
 10
74.3255272694
 20
220.0234549769
  0
VERTEX
  8
0
 62
7
  6
CONTINUOUS
 10
74.3477808513
 20
220.1187938818
  0
VERTEX
  8
0
 62
7
  6
CONTINUOUS
 10
74.362233069
 20
220.1672528244
  0
VERTEX
  8
0
 62
7
  6
CONTINUOUS
 10
74.3637783514
 20
220.1715648458
  0
SEQEND
  0
LINE
  8
0
 62
7
  6
CONTINUOUS
 10
76.9857099687
 20
216.7643693276
 11
77.0516462041
 21
219.7861842126
  0
LINE
  8
0
 62
7
  6
CONTINUOUS
 10
64.8289473684
 20
239.7861842126
 11
65.8289473684
 21
240.7861842126
  0
LINE
  8
0
 62
7
  6
CONTINUOUS
 10
66.8289473684
 20
239.7861842126
 11
67.8289473684
 21
240.7861842126
  0
POLYLINE
  8
0
 62
7
  6
CONTINUOUS
 66
1
 70
0
  0
VERTEX
  8
0
 62
7
  6
CONTINUOUS
 10
80.7252030988
 20
219.3980332242
  0
VERTEX
  8
0
 62
7
  6
CONTINUOUS
 10
80.9509136262
 20
218.477219386
  0
VERTEX
  8
0
 62
7
  6
CONTINUOUS
 10
81.1776739704
 20
217.7488704953
  0
VERTEX
  8
0
 62
7
  6
CONTINUOUS
 10
81.4078584162
 20
217.1733947156
  0
VERTEX
  8
0
 62
7
  6
CONTINUOUS
 10
81.5283978396
 20
216.9282046767
  0
VERTEX
  8
0
 62
7
  6
CONTINUOUS
 10
81.7906078356
 20
216.5067523897
  0
VERTEX
  8
0
 62
7
  6
CONTINUOUS
 10
82.1051222313
 20
216.1625142939
  0
VERTEX
  8
0
 62
7
  6
CONTINUOUS
 10
82.4876313083
 20
215.9134399297
  0
SEQEND
  0
LINE
  8
0
 62
7
  6
CONTINUOUS
 10
84.8856203178
 20
216.7641107689
 11
84.8381298577
 21
218.9145471435
  0
LINE
  8
0
 62
7
  6
CONTINUOUS
 10
82.0062485328
 20
219.7861842126
 11
82.0721847681
 21
216.7643693276
  0
LINE
  8
SURF
 62
7
  6
CONTINUOUS
 10
82.0721847681
 20
216.7643693276
 11
82.0062485328
 21
219.7861842126
  0
LINE
  8
SURF
 62
7
  6
CONTINUOUS
 10
86.0767644382
 20
237.1776940468
 11
86.1214345993
 21
235.1304895475
  0
LINE
  8
0
 62
7
  6
CONTINUOUS
 10
86.5221847681
 20
216.7643693276
 11
86.0421430604
 21
238.7643693276
  0
POLYLINE
  8
0
 62
7
  6
CONTINUOUS
 66
1
 70
0
  0
VERTEX
  8
0
 62
7
  6
CONTINUOUS
 10
78.3326948001
 20
219.39804857
  0
VERTEX
  8
0
 62
7
  6
CONTINUOUS
 10
78.3490650828
 20
219.4607014084
  0
VERTEX
  8
0
 62
7
  6
CONTINUOUS
 10
78.3775011155
 20
219.5422878671
  0
VERTEX
  8
0
 62
7
  6
CONTINUOUS
 10
78.4150023131
 20
219.6281813145
  0
VERTEX
  8
0
 62
7
  6
CONTINUOUS
 10
78.4601572115
 20
219.7149259378
  0
VERTEX
  8
0
 62
7
  6
CONTINUOUS
 10
78.5030929302
 20
219.7861842126
  0
SEQEND
  0
POLYLINE
  8
0
 62
7
  6
CONTINUOUS
 66
1
 70
0
  0
VERTEX
  8
0
 62
7
  6
CONTINUOUS
 10
80.5547748918
 20
219.7861842126
  0
VERTEX
  8
0
 62
7
  6
CONTINUOUS
 10
80.5971471949
 20
219.7159757059
  0
VERTEX
  8
0
 62
7
  6
CONTINUOUS
 10
80.6423765295
 20
219.6292571446
  0
VERTEX
  8
0
 62
7
  6
CONTINUOUS
 10
80.6799764007
 20
219.5433477835
  0
VERTEX
  8
0
 62
7
  6
CONTINUOUS
 10
80.7085306586
 20
219.4616903854
  0
VERTEX
  8
0
 62
7
  6
CONTINUOUS
 10
80.7252000242
 20
219.3980482074
  0
SEQEND
  0
POLYLINE
  8
0
 62
7
  6
CONTINUOUS
 66
1
 70
0
  0
VERTEX
  8
0
 62
7
  6
CONTINUOUS
 10
84.6941832687
 20
220.1715263805
  0
VERTEX
  8
0
 62
7
  6
CONTINUOUS
 10
84.6957343271
 20
220.1670436685
  0
VERTEX
  8
0
 62
7
  6
CONTINUOUS
 10
84.710289703
 20
220.1181340353
  0
VERTEX
  8
0
 62
7
  6
CONTINUOUS
 10
84.7325995061
 20
220.0223355995
  0
VERTEX
  8
0
 62
7
  6
CONTINUOUS
 10
84.7582586411
 20
219.8812614054
  0
VERTEX
  8
0
 62
7
  6
CONTINUOUS
 10
84.7845906278
 20
219.6932111878
  0
VERTEX
  8
0
 62
7
  6
CONTINUOUS
 10
84.8091078664
 20
219.4558685831
  0
VERTEX
  8
0
 62
7
  6
CONTINUOUS
 10
84.8284038082
 20
219.1760498534
  0
VERTEX
  8
0
 62
7
  6
CONTINUOUS
 10
84.8381299365
 20
218.9145471459
  0
SEQEND
  0
POLYLINE
  8
0
 62
7
  6
CONTINUOUS
 66
1
 70
0
  0
VERTEX
  8
0
 62
7
  6
CONTINUOUS
 10
84.8856209565
 20
216.764110783
  0
VERTEX
  8
0
 62
7
  6
CONTINUOUS
 10
84.9124644027
 20
216.5550365141
  0
VERTEX
  8
0
 62
7
  6
CONTINUOUS
 10
85.0002045535
 20
216.3209728896
  0
VERTEX
  8
0
 62
7
  6
CONTINUOUS
 10
85.1434166286
 20
216.1158087353
  0
VERTEX
  8
0
 62
7
  6
CONTINUOUS
 10
85.2331510942
 20
216.0282312719
  0
VERTEX
  8
0
 62
7
  6
CONTINUOUS
 10
85.441810757
 20
215.8900088753
  0
VERTEX
  8
0
 62
7
  6
CONTINUOUS
 10
85.6781456078
 20
215.8079328203
  0
VERTEX
  8
0
 62
7
  6
CONTINUOUS
 10
85.8856186144
 20
215.7861849602
  0
SEQEND
  0
LINE
  8
0
 62
7
  6
CONTINUOUS
 10
77.5289473684
 20
239.7861842126
 11
78.5289473684
 21
240.7861842126
  0
LINE
  8
0
 62
7
  6
CONTINUOUS
 10
79.5289473684
 20
239.7861842126
 11
80.5289473684
 21
240.7861842126
  0
POLYLINE
  8
0
 62
7
  6
CONTINUOUS
 66
1
 70
0
  0
VERTEX
  8
0
 62
7
  6
CONTINUOUS
 10
91.0326947126
 20
219.3980482074
  0
VERTEX
  8
0
 62
7
  6
CONTINUOUS
 10
91.0493640782
 20
219.4616903854
  0
VERTEX
  8
0
 62
7
  6
CONTINUOUS
 10
91.0779183361
 20
219.5433477835
  0
VERTEX
  8
0
 62
7
  6
CONTINUOUS
 10
91.1155182074
 20
219.6292571446
  0
VERTEX
  8
0
 62
7
  6
CONTINUOUS
 10
91.1607475419
 20
219.7159757059
  0
VERTEX
  8
0
 62
7
  6
CONTINUOUS
 10
91.2119929983
 20
219.8008865251
  0
VERTEX
  8
0
 62
7
  6
CONTINUOUS
 10
91.2675942655
 20
219.8819976173
  0
VERTEX
  8
0
 62
7
  6
CONTINUOUS
 10
91.3262521471
 20
219.9582226726
  0
VERTEX
  8
0
 62
7
  6
CONTINUOUS
 10
91.3873444221
 20
220.0293983728
  0
VERTEX
  8
0
 62
7
  6
CONTINUOUS
 10
91.4504758138
 20
220.0954726969
  0
VERTEX
  8
0
 62
7
  6
CONTINUOUS
 10
91.5152645893
 20
220.156275128
  0
VERTEX
  8
0
 62
7
  6
CONTINUOUS
 10
91.5812819059
 20
220.2115156703
  0
VERTEX
  8
0
 62
7
  6
CONTINUOUS
 10
91.6483728832
 20
220.2610554867
  0
VERTEX
  8
0
 62
7
  6
CONTINUOUS
 10
91.7168028385
 20
220.3048696078
  0
VERTEX
  8
0
 62
7
  6
CONTINUOUS
 10
91.7865786405
 20
220.3424932758
  0
VERTEX
  8
0
 62
7
  6
CONTINUOUS
 10
91.8577041722
 20
220.3732020375
  0
VERTEX
  8
0
 62
7
  6
CONTINUOUS
 10
91.9298638174
 20
220.39586002
  0
VERTEX
  8
0
 62
7
  6
CONTINUOUS
 10
92.0020087838
 20
220.4090423834
  0
VERTEX
  8
0
 62
7
  6
CONTINUOUS
 10
92.0562254565
 20
220.4121090638
  0
SEQEND
  0
LINE
  8
0
 62
7
  6
CONTINUOUS
 10
90.2289473684
 20
239.7861842126
 11
91.2289473684
 21
240.7861842126
  0
LINE
  8
0
 62
7
  6
CONTINUOUS
 10
65.8289473684
 20
240.7861842126
 11
66.8289473684
 21
239.7861842126
  0
LINE
  8
0
 62
7
  6
CONTINUOUS
 10
67.8289473684
 20
240.7861842126
 11
68.8289473684
 21
239.7861842126
  0
POLYLINE
  8
0
 62
7
  6
CONTINUOUS
 66
1
 70
0
  0
VERTEX
  8
0
 62
7
  6
CONTINUOUS
 10
93.4252031483
 20
219.3980329974
  0
VERTEX
  8
0
 62
7
  6
CONTINUOUS
 10
93.6513550904
 20
218.4756242603
  0
VERTEX
  8
0
 62
7
  6
CONTINUOUS
 10
93.8781823523
 20
217.7474290827
  0
VERTEX
  8
0
 62
7
  6
CONTINUOUS
 10
94.1084435001
 20
217.1721171827
  0
VERTEX
  8
0
 62
7
  6
CONTINUOUS
 10
94.2290301844
 20
216.9270106632
  0
VERTEX
  8
0
 62
7
  6
CONTINUOUS
 10
94.491380865
 20
216.5057105033
  0
VERTEX
  8
0
 62
7
  6
CONTINUOUS
 10
94.8061527361
 20
216.1616205272
  0
VERTEX
  8
0
 62
7
  6
CONTINUOUS
 10
95.1876243304
 20
215.913443126
  0
SEQEND
  0
LINE
  8
0
 62
7
  6
CONTINUOUS
 10
98.4157516764
 20
238.7643693276
 11
97.9357099687
 21
216.7643693276
  0
LINE
  8
SURF
 62
7
  6
CONTINUOUS
 10
98.3364601377
 20
235.1304895539
 11
98.3811302986
 21
237.1776940468
  0
LINE
  8
SURF
 62
7
  6
CONTINUOUS
 10
102.4516462041
 20
219.7861842126
 11
102.3857099687
 21
216.7643693276
  0
LINE
  8
0
 62
7
  6
CONTINUOUS
 10
102.3857099687
 20
216.7643693276
 11
102.4516462041
 21
219.7861842126
  0
LINE
  8
0
 62
7
  6
CONTINUOUS
 10
99.6197648792
 20
218.9145471434
 11
99.572274419
 21
216.7641107692
  0
POLYLINE
  8
0
 62
7
  6
CONTINUOUS
 66
1
 70
0
  0
VERTEX
  8
0
 62
7
  6
CONTINUOUS
 10
99.6197648004
 20
218.9145471458
  0
VERTEX
  8
0
 62
7
  6
CONTINUOUS
 10
99.629668194
 20
219.1794292876
  0
VERTEX
  8
0
 62
7
  6
CONTINUOUS
 10
99.6490270324
 20
219.4586424744
  0
VERTEX
  8
0
 62
7
  6
CONTINUOUS
 10
99.6735666704
 20
219.6953637651
  0
VERTEX
  8
0
 62
7
  6
CONTINUOUS
 10
99.6998952455
 20
219.882870976
  0
VERTEX
  8
0
 62
7
  6
CONTINUOUS
 10
99.7255272694
 20
220.0234549769
  0
VERTEX
  8
0
 62
7
  6
CONTINUOUS
 10
99.7477808513
 20
220.1187938818
  0
VERTEX
  8
0
 62
7
  6
CONTINUOUS
 10
99.762233069
 20
220.1672528244
  0
VERTEX
  8
0
 62
7
  6
CONTINUOUS
 10
99.7637783514
 20
220.1715648458
  0
SEQEND
  0
LINE
  8
0
 62
7
  6
CONTINUOUS
 10
92.2289473684
 20
239.7861842126
 11
93.2289473684
 21
240.7861842126
  0
POLYLINE
  8
0
 62
7
  6
CONTINUOUS
 66
1
 70
0
  0
VERTEX
  8
0
 62
7
  6
CONTINUOUS
 10
69.7876701827
 20
215.9134220612
  0
VERTEX
  8
0
 62
7
  6
CONTINUOUS
 10
69.8422956909
 20
215.8894838625
  0
VERTEX
  8
0
 62
7
  6
CONTINUOUS
 10
69.986523279
 20
215.8375115241
  0
VERTEX
  8
0
 62
7
  6
CONTINUOUS
 10
70.0688502471
 20
215.8157011192
  0
SEQEND
  0
LINE
  8
0
 62
7
  6
CONTINUOUS
 10
69.7876243304
 20
215.913443126
 11
69.7876702065
 21
215.913422113
  0
LINE
  8
0
 62
7
  6
CONTINUOUS
 10
107.4062485328
 20
219.7861842126
 11
107.4721847681
 21
216.7643693276
  0
LINE
  8
SURF
 62
7
  6
CONTINUOUS
 10
107.4721847681
 20
216.7643693276
 11
107.4062485328
 21
219.7861842126
  0
POLYLINE
  8
0
 62
7
  6
CONTINUOUS
 66
1
 70
0
  0
VERTEX
  8
0
 62
7
  6
CONTINUOUS
 10
103.7326948001
 20
219.39804857
  0
VERTEX
  8
0
 62
7
  6
CONTINUOUS
 10
103.7490650828
 20
219.4607014084
  0
VERTEX
  8
0
 62
7
  6
CONTINUOUS
 10
103.7775011155
 20
219.5422878671
  0
VERTEX
  8
0
 62
7
  6
CONTINUOUS
 10
103.8150023131
 20
219.6281813145
  0
VERTEX
  8
0
 62
7
  6
CONTINUOUS
 10
103.8601572115
 20
219.7149259378
  0
VERTEX
  8
0
 62
7
  6
CONTINUOUS
 10
103.9030929302
 20
219.7861842126
  0
SEQEND
  0
LINE
  8
0
 62
7
  6
CONTINUOUS
 10
102.9289473684
 20
239.7861842126
 11
103.9289473684
 21
240.7861842126
  0
LINE
  8
0
 62
7
  6
CONTINUOUS
 10
104.9289473684
 20
239.7861842126
 11
105.9289473684
 21
240.7861842126
  0
POLYLINE
  8
0
 62
7
  6
CONTINUOUS
 66
1
 70
0
  0
VERTEX
  8
0
 62
7
  6
CONTINUOUS
 10
82.4876669088
 20
215.9134235607
  0
VERTEX
  8
0
 62
7
  6
CONTINUOUS
 10
82.5411682143
 20
215.8899555853
  0
VERTEX
  8
0
 62
7
  6
CONTINUOUS
 10
82.6849327267
 20
215.8379905268
  0
VERTEX
  8
0
 62
7
  6
CONTINUOUS
 10
82.7669366384
 20
215.8161410681
  0
VERTEX
  8
0
 62
7
  6
CONTINUOUS
 10
82.954500012
 20
215.7884418931
  0
VERTEX
  8
0
 62
7
  6
CONTINUOUS
 10
83.0247724277
 20
215.7861842592
  0
SEQEND
  0
LINE
  8
0
 62
7
  6
CONTINUOUS
 10
78.5289473684
 20
240.7861842126
 11
79.5289473684
 21
239.7861842126
  0
LINE
  8
0
 62
7
  6
CONTINUOUS
 10
80.5289473684
 20
240.7861842126
 11
81.5289473684
 21
239.7861842126
  0
POLYLINE
  8
0
 62
7
  6
CONTINUOUS
 66
1
 70
0
  0
VERTEX
  8
0
 62
7
  6
CONTINUOUS
 10
105.9547748918
 20
219.7861842126
  0
VERTEX
  8
0
 62
7
  6
CONTINUOUS
 10
105.9971471949
 20
219.7159757059
  0
VERTEX
  8
0
 62
7
  6
CONTINUOUS
 10
106.0423765295
 20
219.6292571446
  0
VERTEX
  8
0
 62
7
  6
CONTINUOUS
 10
106.0799764007
 20
219.5433477835
  0
VERTEX
  8
0
 62
7
  6
CONTINUOUS
 10
106.1085306586
 20
219.4616903854
  0
VERTEX
  8
0
 62
7
  6
CONTINUOUS
 10
106.1252000242
 20
219.3980482074
  0
SEQEND
  0
POLYLINE
  8
0
 62
7
  6
CONTINUOUS
 66
1
 70
0
  0
VERTEX
  8
0
 62
7
  6
CONTINUOUS
 10
106.1252030988
 20
219.3980332242
  0
VERTEX
  8
0
 62
7
  6
CONTINUOUS
 10
106.3509136262
 20
218.477219386
  0
VERTEX
  8
0
 62
7
  6
CONTINUOUS
 10
106.5776739704
 20
217.7488704953
  0
VERTEX
  8
0
 62
7
  6
CONTINUOUS
 10
106.8078584162
 20
217.1733947156
  0
VERTEX
  8
0
 62
7
  6
CONTINUOUS
 10
106.9283978396
 20
216.9282046767
  0
VERTEX
  8
0
 62
7
  6
CONTINUOUS
 10
107.1906078356
 20
216.5067523897
  0
VERTEX
  8
0
 62
7
  6
CONTINUOUS
 10
107.5051222313
 20
216.1625142939
  0
VERTEX
  8
0
 62
7
  6
CONTINUOUS
 10
107.8876313083
 20
215.9134399297
  0
SEQEND
  0
LINE
  8
0
 62
7
  6
CONTINUOUS
 10
110.2856203178
 20
216.7641107689
 11
110.2381298577
 21
218.9145471435
  0
LINE
  8
SURF
 62
7
  6
CONTINUOUS
 10
111.4767644382
 20
237.1776940468
 11
111.5214345993
 21
235.1304895475
  0
LINE
  8
0
 62
7
  6
CONTINUOUS
 10
111.9221847681
 20
216.7643693276
 11
111.4421430604
 21
238.7643693276
  0
POLYLINE
  8
0
 62
7
  6
CONTINUOUS
 66
1
 70
0
  0
VERTEX
  8
0
 62
7
  6
CONTINUOUS
 10
63.7936110241
 20
215.9148584894
  0
VERTEX
  8
0
 62
7
  6
CONTINUOUS
 10
64.1747444265
 20
216.1636343586
  0
VERTEX
  8
0
 62
7
  6
CONTINUOUS
 10
64.4889905406
 20
216.5070244451
  0
VERTEX
  8
0
 62
7
  6
CONTINUOUS
 10
64.7520593374
 20
216.9277493492
  0
VERTEX
  8
0
 62
7
  6
CONTINUOUS
 10
64.8733400349
 20
217.1726138236
  0
VERTEX
  8
0
 62
7
  6
CONTINUOUS
 10
65.1055256949
 20
217.7473550456
  0
VERTEX
  8
0
 62
7
  6
CONTINUOUS
 10
65.3350547798
 20
218.4746936098
  0
VERTEX
  8
0
 62
7
  6
CONTINUOUS
 10
65.5644409947
 20
219.3940813849
  0
SEQEND
  0
POLYLINE
  8
0
 62
7
  6
CONTINUOUS
 66
1
 70
0
  0
VERTEX
  8
0
 62
7
  6
CONTINUOUS
 10
95.1876701827
 20
215.9134220612
  0
VERTEX
  8
0
 62
7
  6
CONTINUOUS
 10
95.2422956909
 20
215.8894838625
  0
VERTEX
  8
0
 62
7
  6
CONTINUOUS
 10
95.386523279
 20
215.8375115241
  0
VERTEX
  8
0
 62
7
  6
CONTINUOUS
 10
95.4688502471
 20
215.8157011192
  0
SEQEND
  0
LINE
  8
0
 62
7
  6
CONTINUOUS
 10
95.1876243304
 20
215.913443126
 11
95.1876702065
 21
215.913422113
  0
POLYLINE
  8
0
 62
7
  6
CONTINUOUS
 66
1
 70
0
  0
VERTEX
  8
0
 62
7
  6
CONTINUOUS
 10
110.0941832687
 20
220.1715263805
  0
VERTEX
  8
0
 62
7
  6
CONTINUOUS
 10
110.0957343271
 20
220.1670436685
  0
VERTEX
  8
0
 62
7
  6
CONTINUOUS
 10
110.110289703
 20
220.1181340353
  0
VERTEX
  8
0
 62
7
  6
CONTINUOUS
 10
110.1325995061
 20
220.0223355994
  0
VERTEX
  8
0
 62
7
  6
CONTINUOUS
 10
110.1582586411
 20
219.8812614054
  0
VERTEX
  8
0
 62
7
  6
CONTINUOUS
 10
110.1845906278
 20
219.6932111878
  0
VERTEX
  8
0
 62
7
  6
CONTINUOUS
 10
110.2091078664
 20
219.455868583
  0
VERTEX
  8
0
 62
7
  6
CONTINUOUS
 10
110.2284038082
 20
219.1760498533
  0
VERTEX
  8
0
 62
7
  6
CONTINUOUS
 10
110.2381299365
 20
218.9145471459
  0
SEQEND
  0
POLYLINE
  8
0
 62
7
  6
CONTINUOUS
 66
1
 70
0
  0
VERTEX
  8
0
 62
7
  6
CONTINUOUS
 10
110.2856209565
 20
216.764110783
  0
VERTEX
  8
0
 62
7
  6
CONTINUOUS
 10
110.3124644027
 20
216.5550365141
  0
VERTEX
  8
0
 62
7
  6
CONTINUOUS
 10
110.4002045535
 20
216.3209728896
  0
VERTEX
  8
0
 62
7
  6
CONTINUOUS
 10
110.5434166286
 20
216.1158087353
  0
VERTEX
  8
0
 62
7
  6
CONTINUOUS
 10
110.6331510942
 20
216.0282312719
  0
VERTEX
  8
0
 62
7
  6
CONTINUOUS
 10
110.841810757
 20
215.8900088753
  0
VERTEX
  8
0
 62
7
  6
CONTINUOUS
 10
111.0781456078
 20
215.8079328203
  0
VERTEX
  8
0
 62
7
  6
CONTINUOUS
 10
111.2856186144
 20
215.7861849602
  0
SEQEND
  0
LINE
  8
0
 62
7
  6
CONTINUOUS
 10
115.6289473684
 20
239.7861842126
 11
116.6289473684
 21
240.7861842126
  0
LINE
  8
0
 62
7
  6
CONTINUOUS
 10
117.6289473684
 20
239.7861842126
 11
118.6289473684
 21
240.7861842126
  0
POLYLINE
  8
0
 62
7
  6
CONTINUOUS
 66
1
 70
0
  0
VERTEX
  8
0
 62
7
  6
CONTINUOUS
 10
76.5702704065
 20
215.913443126
  0
VERTEX
  8
0
 62
7
  6
CONTINUOUS
 10
76.9517420007
 20
216.1616205272
  0
VERTEX
  8
0
 62
7
  6
CONTINUOUS
 10
77.2665138719
 20
216.5057105033
  0
VERTEX
  8
0
 62
7
  6
CONTINUOUS
 10
77.5288645524
 20
216.9270106632
  0
VERTEX
  8
0
 62
7
  6
CONTINUOUS
 10
77.6494512367
 20
217.1721171827
  0
VERTEX
  8
0
 62
7
  6
CONTINUOUS
 10
77.8797123845
 20
217.7474290827
  0
VERTEX
  8
0
 62
7
  6
CONTINUOUS
 10
78.1065396465
 20
218.4756242603
  0
VERTEX
  8
0
 62
7
  6
CONTINUOUS
 10
78.3326915885
 20
219.3980329974
  0
SEQEND
  0
POLYLINE
  8
0
 62
7
  6
CONTINUOUS
 66
1
 70
0
  0
VERTEX
  8
0
 62
7
  6
CONTINUOUS
 10
70.0688502471
 20
215.8157011192
  0
VERTEX
  8
0
 62
7
  6
CONTINUOUS
 10
70.2571627219
 20
215.7882749065
  0
VERTEX
  8
0
 62
7
  6
CONTINUOUS
 10
70.3247641007
 20
215.786184261
  0
SEQEND
  0
POLYLINE
  8
0
 62
7
  6
CONTINUOUS
 66
1
 70
0
  0
VERTEX
  8
0
 62
7
  6
CONTINUOUS
 10
107.8876669088
 20
215.9134235607
  0
VERTEX
  8
0
 62
7
  6
CONTINUOUS
 10
107.9411682143
 20
215.8899555853
  0
VERTEX
  8
0
 62
7
  6
CONTINUOUS
 10
108.0849327267
 20
215.8379905268
  0
VERTEX
  8
0
 62
7
  6
CONTINUOUS
 10
108.1669366384
 20
215.8161410681
  0
VERTEX
  8
0
 62
7
  6
CONTINUOUS
 10
108.354500012
 20
215.7884418931
  0
VERTEX
  8
0
 62
7
  6
CONTINUOUS
 10
108.4247724277
 20
215.7861842592
  0
SEQEND
  0
LINE
  8
0
 62
7
  6
CONTINUOUS
 10
91.2289473684
 20
240.7861842126
 11
92.2289473684
 21
239.7861842126
  0
LINE
  8
0
 62
7
  6
CONTINUOUS
 10
93.2289473684
 20
240.7861842126
 11
94.2289473684
 21
239.7861842126
  0
POLYLINE
  8
0
 62
7
  6
CONTINUOUS
 66
1
 70
0
  0
VERTEX
  8
0
 62
7
  6
CONTINUOUS
 10
118.8252031483
 20
219.3980329974
  0
VERTEX
  8
0
 62
7
  6
CONTINUOUS
 10
119.0513550904
 20
218.4756242603
  0
VERTEX
  8
0
 62
7
  6
CONTINUOUS
 10
119.2781823523
 20
217.7474290827
  0
VERTEX
  8
0
 62
7
  6
CONTINUOUS
 10
119.5084435001
 20
217.1721171827
  0
VERTEX
  8
0
 62
7
  6
CONTINUOUS
 10
119.6290301844
 20
216.9270106632
  0
VERTEX
  8
0
 62
7
  6
CONTINUOUS
 10
119.891380865
 20
216.5057105033
  0
VERTEX
  8
0
 62
7
  6
CONTINUOUS
 10
120.2061527361
 20
216.1616205272
  0
VERTEX
  8
0
 62
7
  6
CONTINUOUS
 10
120.5876243304
 20
215.913443126
  0
SEQEND
  0
LINE
  8
0
 62
7
  6
CONTINUOUS
 10
123.8157516764
 20
238.7643693276
 11
123.3357099687
 21
216.7643693276
  0
LINE
  8
SURF
 62
7
  6
CONTINUOUS
 10
123.7364601377
 20
235.1304895539
 11
123.7811302986
 21
237.1776940468
  0
POLYLINE
  8
0
 62
7
  6
CONTINUOUS
 66
1
 70
0
  0
VERTEX
  8
0
 62
7
  6
CONTINUOUS
 10
116.4326947126
 20
219.3980482074
  0
VERTEX
  8
0
 62
7
  6
CONTINUOUS
 10
116.4493640782
 20
219.4616903854
  0
VERTEX
  8
0
 62
7
  6
CONTINUOUS
 10
116.4779183361
 20
219.5433477835
  0
VERTEX
  8
0
 62
7
  6
CONTINUOUS
 10
116.5155182074
 20
219.6292571446
  0
VERTEX
  8
0
 62
7
  6
CONTINUOUS
 10
116.5607475419
 20
219.7159757059
  0
VERTEX
  8
0
 62
7
  6
CONTINUOUS
 10
116.6119929983
 20
219.8008865251
  0
VERTEX
  8
0
 62
7
  6
CONTINUOUS
 10
116.6675942655
 20
219.8819976173
  0
VERTEX
  8
0
 62
7
  6
CONTINUOUS
 10
116.7262521471
 20
219.9582226726
  0
VERTEX
  8
0
 62
7
  6
CONTINUOUS
 10
116.7873444221
 20
220.0293983728
  0
VERTEX
  8
0
 62
7
  6
CONTINUOUS
 10
116.8504758138
 20
220.0954726969
  0
VERTEX
  8
0
 62
7
  6
CONTINUOUS
 10
116.9152645893
 20
220.156275128
  0
VERTEX
  8
0
 62
7
  6
CONTINUOUS
 10
116.9812819059
 20
220.2115156703
  0
VERTEX
  8
0
 62
7
  6
CONTINUOUS
 10
117.0483728832
 20
220.2610554867
  0
VERTEX
  8
0
 62
7
  6
CONTINUOUS
 10
117.1168028385
 20
220.3048696078
  0
VERTEX
  8
0
 62
7
  6
CONTINUOUS
 10
117.1865786405
 20
220.3424932758
  0
VERTEX
  8
0
 62
7
  6
CONTINUOUS
 10
117.2577041722
 20
220.3732020375
  0
VERTEX
  8
0
 62
7
  6
CONTINUOUS
 10
117.3298638174
 20
220.39586002
  0
VERTEX
  8
0
 62
7
  6
CONTINUOUS
 10
117.4020087838
 20
220.4090423834
  0
VERTEX
  8
0
 62
7
  6
CONTINUOUS
 10
117.4562254565
 20
220.4121090638
  0
SEQEND
  0
LINE
  8
0
 62
7
  6
CONTINUOUS
 10
128.3289473684
 20
239.7861842126
 11
129.3289473684
 21
240.7861842126
  0
POLYLINE
  8
0
 62
7
  6
CONTINUOUS
 66
1
 70
0
  0
VERTEX
  8
0
 62
7
  6
CONTINUOUS
 10
89.2702634285
 20
215.9134399297
  0
VERTEX
  8
0
 62
7
  6
CONTINUOUS
 10
89.6527725056
 20
216.1625142939
  0
VERTEX
  8
0
 62
7
  6
CONTINUOUS
 10
89.9672869013
 20
216.5067523897
  0
VERTEX
  8
0
 62
7
  6
CONTINUOUS
 10
90.2294968973
 20
216.9282046767
  0
VERTEX
  8
0
 62
7
  6
CONTINUOUS
 10
90.3500363206
 20
217.1733947156
  0
VERTEX
  8
0
 62
7
  6
CONTINUOUS
 10
90.5802207664
 20
217.7488704953
  0
VERTEX
  8
0
 62
7
  6
CONTINUOUS
 10
90.8069811106
 20
218.477219386
  0
VERTEX
  8
0
 62
7
  6
CONTINUOUS
 10
91.032691638
 20
219.3980332242
  0
SEQEND
  0
POLYLINE
  8
0
 62
7
  6
CONTINUOUS
 66
1
 70
0
  0
VERTEX
  8
0
 62
7
  6
CONTINUOUS
 10
190.4033947249
 20
215.7884418931
  0
VERTEX
  8
0
 62
7
  6
CONTINUOUS
 10
190.5909580984
 20
215.8161410681
  0
VERTEX
  8
0
 62
7
  6
CONTINUOUS
 10
190.6729620101
 20
215.8379905268
  0
VERTEX
  8
0
 62
7
  6
CONTINUOUS
 10
190.8167265225
 20
215.8899555853
  0
VERTEX
  8
0
 62
7
  6
CONTINUOUS
 10
190.8702278281
 20
215.9134235607
  0
SEQEND
  0
POLYLINE
  8
0
 62
7
  6
CONTINUOUS
 66
1
 70
0
  0
VERTEX
  8
0
 62
7
  6
CONTINUOUS
 10
165.0033947249
 20
215.7884418931
  0
VERTEX
  8
0
 62
7
  6
CONTINUOUS
 10
165.1909580984
 20
215.8161410681
  0
VERTEX
  8
0
 62
7
  6
CONTINUOUS
 10
165.2729620101
 20
215.8379905268
  0
VERTEX
  8
0
 62
7
  6
CONTINUOUS
 10
165.4167265225
 20
215.8899555853
  0
VERTEX
  8
0
 62
7
  6
CONTINUOUS
 10
165.4702278281
 20
215.9134235607
  0
SEQEND
  0
POLYLINE
  8
0
 62
7
  6
CONTINUOUS
 66
1
 70
0
  0
VERTEX
  8
0
 62
7
  6
CONTINUOUS
 10
200.1722761225
 20
215.7861849602
  0
VERTEX
  8
0
 62
7
  6
CONTINUOUS
 10
200.3831817888
 20
215.8086668267
  0
VERTEX
  8
0
 62
7
  6
CONTINUOUS
 10
200.6192657323
 20
215.8915908745
  0
VERTEX
  8
0
 62
7
  6
CONTINUOUS
 10
200.8274518693
 20
216.0305699636
  0
VERTEX
  8
0
 62
7
  6
CONTINUOUS
 10
200.916877727
 20
216.1184738331
  0
VERTEX
  8
0
 62
7
  6
CONTINUOUS
 10
201.0593555533
 20
216.3241549412
  0
VERTEX
  8
0
 62
7
  6
CONTINUOUS
 10
201.1462503551
 20
216.55851492
  0
VERTEX
  8
0
 62
7
  6
CONTINUOUS
 10
201.1722737804
 20
216.7641107833
  0
SEQEND
  0
POLYLINE
  8
0
 62
7
  6
CONTINUOUS
 66
1
 70
0
  0
VERTEX
  8
0
 62
7
  6
CONTINUOUS
 10
174.7722761225
 20
215.7861849602
  0
VERTEX
  8
0
 62
7
  6
CONTINUOUS
 10
174.9831817888
 20
215.8086668267
  0
VERTEX
  8
0
 62
7
  6
CONTINUOUS
 10
175.2192657323
 20
215.8915908745
  0
VERTEX
  8
0
 62
7
  6
CONTINUOUS
 10
175.4274518693
 20
216.0305699636
  0
VERTEX
  8
0
 62
7
  6
CONTINUOUS
 10
175.516877727
 20
216.1184738331
  0
VERTEX
  8
0
 62
7
  6
CONTINUOUS
 10
175.6593555533
 20
216.3241549412
  0
VERTEX
  8
0
 62
7
  6
CONTINUOUS
 10
175.7462503551
 20
216.55851492
  0
VERTEX
  8
0
 62
7
  6
CONTINUOUS
 10
175.7722737804
 20
216.7641107833
  0
SEQEND
  0
LINE
  8
0
 62
7
  6
CONTINUOUS
 10
187.4722761225
 20
215.7861849602
 11
187.4789473684
 21
215.7868842576
  0
LINE
  8
0
 62
7
  6
CONTINUOUS
 10
73.1789473684
 20
215.7868960936
 11
73.1856186144
 21
215.7861849602
  0
LINE
  8
0
 62
7
  6
CONTINUOUS
 10
98.5789473684
 20
215.7868960936
 11
98.5856186144
 21
215.7861849602
  0
POLYLINE
  8
0
 62
7
  6
CONTINUOUS
 66
1
 70
0
  0
VERTEX
  8
0
 62
7
  6
CONTINUOUS
 10
95.4688502471
 20
215.8157011192
  0
VERTEX
  8
0
 62
7
  6
CONTINUOUS
 10
95.6571627219
 20
215.7882749065
  0
VERTEX
  8
0
 62
7
  6
CONTINUOUS
 10
95.7247641007
 20
215.786184261
  0
SEQEND
  0
POLYLINE
  8
0
 62
7
  6
CONTINUOUS
 66
1
 70
0
  0
VERTEX
  8
0
 62
7
  6
CONTINUOUS
 10
120.5876701827
 20
215.9134220612
  0
VERTEX
  8
0
 62
7
  6
CONTINUOUS
 10
120.6422956909
 20
215.8894838625
  0
VERTEX
  8
0
 62
7
  6
CONTINUOUS
 10
120.786523279
 20
215.8375115241
  0
VERTEX
  8
0
 62
7
  6
CONTINUOUS
 10
120.8688502471
 20
215.8157011192
  0
SEQEND
  0
LINE
  8
0
 62
7
  6
CONTINUOUS
 10
120.5876243304
 20
215.913443126
 11
120.5876702065
 21
215.913422113
  0
LINE
  8
0
 62
7
  6
CONTINUOUS
 10
103.9289473684
 20
240.7861842126
 11
104.9289473684
 21
239.7861842126
  0
LINE
  8
SURF
 62
7
  6
CONTINUOUS
 10
127.8516462041
 20
219.7861842126
 11
127.7857099687
 21
216.7643693276
  0
LINE
  8
0
 62
7
  6
CONTINUOUS
 10
127.7857099687
 20
216.7643693276
 11
127.8516462041
 21
219.7861842126
  0
LINE
  8
0
 62
7
  6
CONTINUOUS
 10
125.0197648792
 20
218.9145471434
 11
124.972274419
 21
216.7641107692
  0
POLYLINE
  8
0
 62
7
  6
CONTINUOUS
 66
1
 70
0
  0
VERTEX
  8
0
 62
7
  6
CONTINUOUS
 10
125.0197648004
 20
218.9145471458
  0
VERTEX
  8
0
 62
7
  6
CONTINUOUS
 10
125.029668194
 20
219.1794292876
  0
VERTEX
  8
0
 62
7
  6
CONTINUOUS
 10
125.0490270324
 20
219.4586424744
  0
VERTEX
  8
0
 62
7
  6
CONTINUOUS
 10
125.0735666704
 20
219.6953637652
  0
VERTEX
  8
0
 62
7
  6
CONTINUOUS
 10
125.0998952455
 20
219.882870976
  0
VERTEX
  8
0
 62
7
  6
CONTINUOUS
 10
125.1255272694
 20
220.0234549769
  0
VERTEX
  8
0
 62
7
  6
CONTINUOUS
 10
125.1477808513
 20
220.1187938818
  0
VERTEX
  8
0
 62
7
  6
CONTINUOUS
 10
125.162233069
 20
220.1672528244
  0
VERTEX
  8
0
 62
7
  6
CONTINUOUS
 10
125.1637783514
 20
220.1715648458
  0
SEQEND
  0
LINE
  8
0
 62
7
  6
CONTINUOUS
 10
130.3289473684
 20
239.7861842126
 11
131.3289473684
 21
240.7861842126
  0
POLYLINE
  8
0
 62
7
  6
CONTINUOUS
 66
1
 70
0
  0
VERTEX
  8
0
 62
7
  6
CONTINUOUS
 10
101.9702704065
 20
215.913443126
  0
VERTEX
  8
0
 62
7
  6
CONTINUOUS
 10
102.3517420007
 20
216.1616205272
  0
VERTEX
  8
0
 62
7
  6
CONTINUOUS
 10
102.6665138719
 20
216.5057105033
  0
VERTEX
  8
0
 62
7
  6
CONTINUOUS
 10
102.9288645524
 20
216.9270106632
  0
VERTEX
  8
0
 62
7
  6
CONTINUOUS
 10
103.0494512367
 20
217.1721171827
  0
VERTEX
  8
0
 62
7
  6
CONTINUOUS
 10
103.2797123845
 20
217.7474290827
  0
VERTEX
  8
0
 62
7
  6
CONTINUOUS
 10
103.5065396465
 20
218.4756242603
  0
VERTEX
  8
0
 62
7
  6
CONTINUOUS
 10
103.7326915885
 20
219.3980329974
  0
SEQEND
  0
LINE
  8
0
 62
7
  6
CONTINUOUS
 10
76.5702704065
 20
215.913443126
 11
76.5702245304
 21
215.913422113
  0
POLYLINE
  8
0
 62
7
  6
CONTINUOUS
 66
1
 70
0
  0
VERTEX
  8
0
 62
7
  6
CONTINUOUS
 10
139.6033947249
 20
215.7884418931
  0
VERTEX
  8
0
 62
7
  6
CONTINUOUS
 10
139.7909580984
 20
215.8161410681
  0
VERTEX
  8
0
 62
7
  6
CONTINUOUS
 10
139.8729620101
 20
215.8379905268
  0
VERTEX
  8
0
 62
7
  6
CONTINUOUS
 10
140.0167265225
 20
215.8899555853
  0
VERTEX
  8
0
 62
7
  6
CONTINUOUS
 10
140.0702278281
 20
215.9134235607
  0
SEQEND
  0
POLYLINE
  8
0
 62
7
  6
CONTINUOUS
 66
1
 70
0
  0
VERTEX
  8
0
 62
7
  6
CONTINUOUS
 10
149.3722761225
 20
215.7861849602
  0
VERTEX
  8
0
 62
7
  6
CONTINUOUS
 10
149.5831817888
 20
215.8086668267
  0
VERTEX
  8
0
 62
7
  6
CONTINUOUS
 10
149.8192657323
 20
215.8915908745
  0
VERTEX
  8
0
 62
7
  6
CONTINUOUS
 10
150.0274518693
 20
216.0305699636
  0
VERTEX
  8
0
 62
7
  6
CONTINUOUS
 10
150.116877727
 20
216.1184738331
  0
VERTEX
  8
0
 62
7
  6
CONTINUOUS
 10
150.2593555533
 20
216.3241549412
  0
VERTEX
  8
0
 62
7
  6
CONTINUOUS
 10
150.3462503551
 20
216.55851492
  0
VERTEX
  8
0
 62
7
  6
CONTINUOUS
 10
150.3722737804
 20
216.7641107833
  0
SEQEND
  0
POLYLINE
  8
0
 62
7
  6
CONTINUOUS
 66
1
 70
0
  0
VERTEX
  8
0
 62
7
  6
CONTINUOUS
 10
123.9722761225
 20
215.7861849602
  0
VERTEX
  8
0
 62
7
  6
CONTINUOUS
 10
124.1831817888
 20
215.8086668267
  0
VERTEX
  8
0
 62
7
  6
CONTINUOUS
 10
124.4192657323
 20
215.8915908745
  0
VERTEX
  8
0
 62
7
  6
CONTINUOUS
 10
124.6274518693
 20
216.0305699636
  0
VERTEX
  8
0
 62
7
  6
CONTINUOUS
 10
124.716877727
 20
216.1184738331
  0
VERTEX
  8
0
 62
7
  6
CONTINUOUS
 10
124.8593555533
 20
216.3241549412
  0
VERTEX
  8
0
 62
7
  6
CONTINUOUS
 10
124.9462503551
 20
216.55851492
  0
VERTEX
  8
0
 62
7
  6
CONTINUOUS
 10
124.9722737804
 20
216.7641107833
  0
SEQEND
  0
LINE
  8
0
 62
7
  6
CONTINUOUS
 10
162.0722761225
 20
215.7861849602
 11
162.0789473684
 21
215.7868842576
  0
LINE
  8
0
 62
7
  6
CONTINUOUS
 10
136.6722761225
 20
215.7861849602
 11
136.6789473684
 21
215.7868842576
  0
LINE
  8
0
 62
7
  6
CONTINUOUS
 10
63.2537982554
 20
215.786184261
 11
63.3248009146
 21
215.7884920421
  0
LINE
  8
0
 62
7
  6
CONTINUOUS
 10
190.3331223092
 20
215.7861842592
 11
190.4033947249
 21
215.7884418931
  0
LINE
  8
0
 62
7
  6
CONTINUOUS
 10
164.9331223092
 20
215.7861842592
 11
165.0033947249
 21
215.7884418931
  0
LINE
  8
0
 62
7
  6
CONTINUOUS
 10
139.5331223092
 20
215.7861842592
 11
139.6033947249
 21
215.7884418931
  0
LINE
  8
0
 62
7
  6
CONTINUOUS
 10
114.1331223092
 20
215.7861842592
 11
114.2033947249
 21
215.7884418931
  0
LINE
  8
0
 62
7
  6
CONTINUOUS
 10
88.7331223092
 20
215.7861842592
 11
88.8033947249
 21
215.7884418931
  0
POLYLINE
  8
0
 62
7
  6
CONTINUOUS
 66
1
 70
0
  0
VERTEX
  8
0
 62
7
  6
CONTINUOUS
 10
203.0331306362
 20
215.786184261
  0
VERTEX
  8
0
 62
7
  6
CONTINUOUS
 10
203.1007320149
 20
215.7882749065
  0
VERTEX
  8
0
 62
7
  6
CONTINUOUS
 10
203.2890444897
 20
215.8157011192
  0
VERTEX
  8
0
 62
7
  6
CONTINUOUS
 10
203.3713714578
 20
215.8375115241
  0
VERTEX
  8
0
 62
7
  6
CONTINUOUS
 10
203.5155990459
 20
215.8894838625
  0
VERTEX
  8
0
 62
7
  6
CONTINUOUS
 10
203.5702245541
 20
215.9134220612
  0
SEQEND
  0
POLYLINE
  8
0
 62
7
  6
CONTINUOUS
 66
1
 70
0
  0
VERTEX
  8
0
 62
7
  6
CONTINUOUS
 10
177.6331306362
 20
215.786184261
  0
VERTEX
  8
0
 62
7
  6
CONTINUOUS
 10
177.7007320149
 20
215.7882749065
  0
VERTEX
  8
0
 62
7
  6
CONTINUOUS
 10
177.8890444897
 20
215.8157011192
  0
VERTEX
  8
0
 62
7
  6
CONTINUOUS
 10
177.9713714578
 20
215.8375115241
  0
VERTEX
  8
0
 62
7
  6
CONTINUOUS
 10
178.1155990459
 20
215.8894838625
  0
VERTEX
  8
0
 62
7
  6
CONTINUOUS
 10
178.1702245541
 20
215.9134220612
  0
SEQEND
  0
POLYLINE
  8
0
 62
7
  6
CONTINUOUS
 66
1
 70
0
  0
VERTEX
  8
0
 62
7
  6
CONTINUOUS
 10
152.2331306362
 20
215.786184261
  0
VERTEX
  8
0
 62
7
  6
CONTINUOUS
 10
152.3007320149
 20
215.7882749065
  0
VERTEX
  8
0
 62
7
  6
CONTINUOUS
 10
152.4890444897
 20
215.8157011192
  0
VERTEX
  8
0
 62
7
  6
CONTINUOUS
 10
152.5713714578
 20
215.8375115241
  0
VERTEX
  8
0
 62
7
  6
CONTINUOUS
 10
152.7155990459
 20
215.8894838625
  0
VERTEX
  8
0
 62
7
  6
CONTINUOUS
 10
152.7702245541
 20
215.9134220612
  0
SEQEND
  0
POLYLINE
  8
0
 62
7
  6
CONTINUOUS
 66
1
 70
0
  0
VERTEX
  8
0
 62
7
  6
CONTINUOUS
 10
126.8331306362
 20
215.786184261
  0
VERTEX
  8
0
 62
7
  6
CONTINUOUS
 10
126.9007320149
 20
215.7882749065
  0
VERTEX
  8
0
 62
7
  6
CONTINUOUS
 10
127.0890444897
 20
215.8157011192
  0
VERTEX
  8
0
 62
7
  6
CONTINUOUS
 10
127.1713714578
 20
215.8375115241
  0
VERTEX
  8
0
 62
7
  6
CONTINUOUS
 10
127.3155990459
 20
215.8894838625
  0
VERTEX
  8
0
 62
7
  6
CONTINUOUS
 10
127.3702245541
 20
215.9134220612
  0
SEQEND
  0
POLYLINE
  8
0
 62
7
  6
CONTINUOUS
 66
1
 70
0
  0
VERTEX
  8
0
 62
7
  6
CONTINUOUS
 10
101.4331306362
 20
215.786184261
  0
VERTEX
  8
0
 62
7
  6
CONTINUOUS
 10
101.5007320149
 20
215.7882749065
  0
VERTEX
  8
0
 62
7
  6
CONTINUOUS
 10
101.6890444897
 20
215.8157011192
  0
VERTEX
  8
0
 62
7
  6
CONTINUOUS
 10
101.7713714578
 20
215.8375115241
  0
VERTEX
  8
0
 62
7
  6
CONTINUOUS
 10
101.9155990459
 20
215.8894838625
  0
VERTEX
  8
0
 62
7
  6
CONTINUOUS
 10
101.9702245541
 20
215.9134220612
  0
SEQEND
  0
POLYLINE
  8
0
 62
7
  6
CONTINUOUS
 66
1
 70
0
  0
VERTEX
  8
0
 62
7
  6
CONTINUOUS
 10
76.0331306362
 20
215.786184261
  0
VERTEX
  8
0
 62
7
  6
CONTINUOUS
 10
76.1007320149
 20
215.7882749065
  0
VERTEX
  8
0
 62
7
  6
CONTINUOUS
 10
76.2890444897
 20
215.8157011192
  0
VERTEX
  8
0
 62
7
  6
CONTINUOUS
 10
76.3713714578
 20
215.8375115241
  0
VERTEX
  8
0
 62
7
  6
CONTINUOUS
 10
76.5155990459
 20
215.8894838625
  0
VERTEX
  8
0
 62
7
  6
CONTINUOUS
 10
76.5702245541
 20
215.9134220612
  0
SEQEND
  0
LINE
  8
0
 62
7
  6
CONTINUOUS
 10
203.0331306362
 20
215.786184261
 11
203.032913093
 21
215.7861842371
  0
LINE
  8
0
 62
7
  6
CONTINUOUS
 10
190.3331223092
 20
215.7861842354
 11
190.332913093
 21
215.7861842134
  0
LINE
  8
0
 62
7
  6
CONTINUOUS
 10
177.6331306362
 20
215.786184261
 11
177.632913093
 21
215.7861842371
  0
LINE
  8
0
 62
7
  6
CONTINUOUS
 10
164.9331223092
 20
215.7861842354
 11
164.932913093
 21
215.7861842134
  0
LINE
  8
SURF
 62
7
  6
CONTINUOUS
 10
198.5359479417
 20
215.7861842126
 11
197.3249816438
 21
215.7861842126
  0
LINE
  8
SURF
 62
7
  6
CONTINUOUS
 10
190.332913093
 20
215.7861842126
 11
189.1219467952
 21
215.7861842126
  0
LINE
  8
SURF
 62
7
  6
CONTINUOUS
 10
173.1359479417
 20
215.7861842126
 11
171.9249816438
 21
215.7861842126
  0
LINE
  8
SURF
 62
7
  6
CONTINUOUS
 10
164.932913093
 20
215.7861842126
 11
163.7219467952
 21
215.7861842126
  0
LINE
  8
SURF
 62
7
  6
CONTINUOUS
 10
139.532913093
 20
215.7861842126
 11
138.3219467952
 21
215.7861842126
  0
LINE
  8
SURF
 62
7
  6
CONTINUOUS
 10
122.3359479417
 20
215.7861842126
 11
121.1249816438
 21
215.7861842126
  0
LINE
  8
SURF
 62
7
  6
CONTINUOUS
 10
71.5359479417
 20
215.7861842126
 11
70.3249816438
 21
215.7861842126
  0
LINE
  8
SURF
 62
7
  6
CONTINUOUS
 10
63.2535826002
 20
215.7861842126
 11
61.6789473684
 21
215.7861842126
  0
LINE
  8
0
 62
7
  6
CONTINUOUS
 10
61.6789473684
 20
215.7861842126
 11
63.2535826002
 21
215.7861842126
  0
LINE
  8
0
 62
7
  6
CONTINUOUS
 10
70.3249816438
 20
215.7861842126
 11
73.1722761225
 21
215.7861842126
  0
LINE
  8
SURF
 62
7
  6
CONTINUOUS
 10
75.8783741783
 20
215.7861842126
 11
76.032913093
 21
215.7861842126
  0
LINE
  8
0
 62
7
  6
CONTINUOUS
 10
73.1856186144
 20
215.7861842126
 11
76.032913093
 21
215.7861842126
  0
LINE
  8
SURF
 62
7
  6
CONTINUOUS
 10
83.0249816438
 20
215.7861842126
 11
83.1795205585
 21
215.7861842126
  0
LINE
  8
0
 62
7
  6
CONTINUOUS
 10
83.0249816438
 20
215.7861842126
 11
85.8722761225
 21
215.7861842126
  0
LINE
  8
0
 62
7
  6
CONTINUOUS
 10
85.8856186144
 20
215.7861842126
 11
88.732913093
 21
215.7861842126
  0
LINE
  8
0
 62
7
  6
CONTINUOUS
 10
95.7249816438
 20
215.7861842126
 11
98.5722761225
 21
215.7861842126
  0
LINE
  8
SURF
 62
7
  6
CONTINUOUS
 10
101.2783741783
 20
215.7861842126
 11
101.432913093
 21
215.7861842126
  0
LINE
  8
0
 62
7
  6
CONTINUOUS
 10
98.5856186144
 20
215.7861842126
 11
101.432913093
 21
215.7861842126
  0
LINE
  8
SURF
 62
7
  6
CONTINUOUS
 10
108.4249816438
 20
215.7861842126
 11
108.5795205585
 21
215.7861842126
  0
LINE
  8
0
 62
7
  6
CONTINUOUS
 10
108.4249816438
 20
215.7861842126
 11
111.2722761225
 21
215.7861842126
  0
LINE
  8
0
 62
7
  6
CONTINUOUS
 10
111.2856186144
 20
215.7861842126
 11
114.132913093
 21
215.7861842126
  0
LINE
  8
0
 62
7
  6
CONTINUOUS
 10
121.1249816438
 20
215.7861842126
 11
123.9722761225
 21
215.7861842126
  0
LINE
  8
SURF
 62
7
  6
CONTINUOUS
 10
126.6783741783
 20
215.7861842126
 11
126.832913093
 21
215.7861842126
  0
LINE
  8
0
 62
7
  6
CONTINUOUS
 10
123.9856186144
 20
215.7861842126
 11
126.832913093
 21
215.7861842126
  0
LINE
  8
SURF
 62
7
  6
CONTINUOUS
 10
133.8249816438
 20
215.7861842126
 11
133.9795205585
 21
215.7861842126
  0
LINE
  8
0
 62
7
  6
CONTINUOUS
 10
133.8249816438
 20
215.7861842126
 11
136.6722761225
 21
215.7861842126
  0
LINE
  8
0
 62
7
  6
CONTINUOUS
 10
136.6856186144
 20
215.7861842126
 11
139.532913093
 21
215.7861842126
  0
LINE
  8
0
 62
7
  6
CONTINUOUS
 10
146.5249816438
 20
215.7861842126
 11
149.3722761225
 21
215.7861842126
  0
LINE
  8
0
 62
7
  6
CONTINUOUS
 10
149.3856186144
 20
215.7861842126
 11
152.232913093
 21
215.7861842126
  0
LINE
  8
SURF
 62
7
  6
CONTINUOUS
 10
152.0783741783
 20
215.7861842126
 11
152.232913093
 21
215.7861842126
  0
LINE
  8
0
 62
7
  6
CONTINUOUS
 10
159.2249816438
 20
215.7861842126
 11
162.0722761225
 21
215.7861842126
  0
LINE
  8
0
 62
7
  6
CONTINUOUS
 10
162.0856186144
 20
215.7861842126
 11
164.932913093
 21
215.7861842126
  0
LINE
  8
0
 62
7
  6
CONTINUOUS
 10
171.9249816438
 20
215.7861842126
 11
174.7722761225
 21
215.7861842126
  0
LINE
  8
0
 62
7
  6
CONTINUOUS
 10
174.7856186144
 20
215.7861842126
 11
177.632913093
 21
215.7861842126
  0
LINE
  8
SURF
 62
7
  6
CONTINUOUS
 10
177.4783741783
 20
215.7861842126
 11
177.632913093
 21
215.7861842126
  0
LINE
  8
0
 62
7
  6
CONTINUOUS
 10
184.6249816438
 20
215.7861842126
 11
187.4722761225
 21
215.7861842126
  0
LINE
  8
0
 62
7
  6
CONTINUOUS
 10
187.4856186144
 20
215.7861842126
 11
190.332913093
 21
215.7861842126
  0
LINE
  8
0
 62
7
  6
CONTINUOUS
 10
197.3249816438
 20
215.7861842126
 11
200.1722761225
 21
215.7861842126
  0
LINE
  8
0
 62
7
  6
CONTINUOUS
 10
200.1856186144
 20
215.7861842126
 11
203.032913093
 21
215.7861842126
  0
LINE
  8
0
 62
7
  6
CONTINUOUS
 10
210.1043121367
 20
215.7861842126
 11
211.6789473684
 21
215.7861842126
  0
LINE
  8
0
 62
7
  6
CONTINUOUS
 10
114.1331223092
 20
215.7861842354
 11
114.132913093
 21
215.7861842134
  0
LINE
  8
0
 62
7
  6
CONTINUOUS
 10
101.4331306362
 20
215.786184261
 11
101.432913093
 21
215.7861842371
  0
LINE
  8
0
 62
7
  6
CONTINUOUS
 10
88.7331223092
 20
215.7861842354
 11
88.732913093
 21
215.7861842134
  0
LINE
  8
0
 62
7
  6
CONTINUOUS
 10
76.0331306362
 20
215.786184261
 11
76.032913093
 21
215.7861842371
  0
LINE
  8
0
 62
7
  6
CONTINUOUS
 10
63.2537982554
 20
215.786184238
 11
63.2535826002
 21
215.7861842146
  0
POLYLINE
  8
0
 62
7
  6
CONTINUOUS
 66
1
 70
0
  0
VERTEX
  8
0
 62
7
  6
CONTINUOUS
 10
67.0016694488
 20
220.4121090292
  0
VERTEX
  8
0
 62
7
  6
CONTINUOUS
 10
67.0570134687
 20
220.4089146554
  0
VERTEX
  8
0
 62
7
  6
CONTINUOUS
 10
67.1290884937
 20
220.3955938525
  0
VERTEX
  8
0
 62
7
  6
CONTINUOUS
 10
67.20118163
 20
220.3728295083
  0
VERTEX
  8
0
 62
7
  6
CONTINUOUS
 10
67.2722595254
 20
220.3420329909
  0
VERTEX
  8
0
 62
7
  6
CONTINUOUS
 10
67.3419981695
 20
220.3043335993
  0
VERTEX
  8
0
 62
7
  6
CONTINUOUS
 10
67.4103949842
 20
220.2604526564
  0
VERTEX
  8
0
 62
7
  6
CONTINUOUS
 10
67.4774494797
 20
220.210856356
  0
VERTEX
  8
0
 62
7
  6
CONTINUOUS
 10
67.5434216427
 20
220.1555725896
  0
VERTEX
  8
0
 62
7
  6
CONTINUOUS
 10
67.6081654379
 20
220.0947320981
  0
VERTEX
  8
0
 62
7
  6
CONTINUOUS
 10
67.6712618131
 20
220.0286123608
  0
VERTEX
  8
0
 62
7
  6
CONTINUOUS
 10
67.7323311891
 20
219.957375547
  0
VERTEX
  8
0
 62
7
  6
CONTINUOUS
 10
67.7909691901
 20
219.8810776951
  0
VERTEX
  8
0
 62
7
  6
CONTINUOUS
 10
67.8465420097
 20
219.7998925865
  0
VERTEX
  8
0
 62
7
  6
CONTINUOUS
 10
67.8977375253
 20
219.7149259378
  0
VERTEX
  8
0
 62
7
  6
CONTINUOUS
 10
67.9428924237
 20
219.6281813145
  0
VERTEX
  8
0
 62
7
  6
CONTINUOUS
 10
67.9803936213
 20
219.5422878671
  0
VERTEX
  8
0
 62
7
  6
CONTINUOUS
 10
68.0088296541
 20
219.4607014084
  0
VERTEX
  8
0
 62
7
  6
CONTINUOUS
 10
68.0251999368
 20
219.39804857
  0
SEQEND
  0
POLYLINE
  8
0
 62
7
  6
CONTINUOUS
 66
1
 70
0
  0
VERTEX
  8
0
 62
7
  6
CONTINUOUS
 10
92.4016694488
 20
220.4121090292
  0
VERTEX
  8
0
 62
7
  6
CONTINUOUS
 10
92.4570134687
 20
220.4089146554
  0
VERTEX
  8
0
 62
7
  6
CONTINUOUS
 10
92.5290884937
 20
220.3955938525
  0
VERTEX
  8
0
 62
7
  6
CONTINUOUS
 10
92.60118163
 20
220.3728295083
  0
VERTEX
  8
0
 62
7
  6
CONTINUOUS
 10
92.6722595254
 20
220.3420329909
  0
VERTEX
  8
0
 62
7
  6
CONTINUOUS
 10
92.7419981695
 20
220.3043335993
  0
VERTEX
  8
0
 62
7
  6
CONTINUOUS
 10
92.8103949842
 20
220.2604526564
  0
VERTEX
  8
0
 62
7
  6
CONTINUOUS
 10
92.8774494797
 20
220.210856356
  0
VERTEX
  8
0
 62
7
  6
CONTINUOUS
 10
92.9434216427
 20
220.1555725896
  0
VERTEX
  8
0
 62
7
  6
CONTINUOUS
 10
93.0081654379
 20
220.0947320981
  0
VERTEX
  8
0
 62
7
  6
CONTINUOUS
 10
93.0712618131
 20
220.0286123608
  0
VERTEX
  8
0
 62
7
  6
CONTINUOUS
 10
93.1323311891
 20
219.957375547
  0
VERTEX
  8
0
 62
7
  6
CONTINUOUS
 10
93.1909691901
 20
219.8810776951
  0
VERTEX
  8
0
 62
7
  6
CONTINUOUS
 10
93.2465420097
 20
219.7998925865
  0
VERTEX
  8
0
 62
7
  6
CONTINUOUS
 10
93.2977375253
 20
219.7149259378
  0
VERTEX
  8
0
 62
7
  6
CONTINUOUS
 10
93.3428924237
 20
219.6281813145
  0
VERTEX
  8
0
 62
7
  6
CONTINUOUS
 10
93.3803936213
 20
219.5422878671
  0
VERTEX
  8
0
 62
7
  6
CONTINUOUS
 10
93.4088296541
 20
219.4607014084
  0
VERTEX
  8
0
 62
7
  6
CONTINUOUS
 10
93.4251999368
 20
219.39804857
  0
SEQEND
  0
LINE
  8
0
 62
7
  6
CONTINUOUS
 10
123.9789473684
 20
215.7868960936
 11
123.9856186144
 21
215.7861849602
  0
LINE
  8
0
 62
7
  6
CONTINUOUS
 10
149.3789473684
 20
215.7868960936
 11
149.3856186144
 21
215.7861849602
  0
POLYLINE
  8
0
 62
7
  6
CONTINUOUS
 66
1
 70
0
  0
VERTEX
  8
0
 62
7
  6
CONTINUOUS
 10
120.8688502471
 20
215.8157011192
  0
VERTEX
  8
0
 62
7
  6
CONTINUOUS
 10
121.0571627219
 20
215.7882749065
  0
VERTEX
  8
0
 62
7
  6
CONTINUOUS
 10
121.1247641007
 20
215.786184261
  0
SEQEND
  0
POLYLINE
  8
0
 62
7
  6
CONTINUOUS
 66
1
 70
0
  0
VERTEX
  8
0
 62
7
  6
CONTINUOUS
 10
146.2688502472
 20
215.8157011192
  0
VERTEX
  8
0
 62
7
  6
CONTINUOUS
 10
146.4571627219
 20
215.7882749065
  0
VERTEX
  8
0
 62
7
  6
CONTINUOUS
 10
146.5247641007
 20
215.786184261
  0
SEQEND
  0
POLYLINE
  8
0
 62
7
  6
CONTINUOUS
 66
1
 70
0
  0
VERTEX
  8
0
 62
7
  6
CONTINUOUS
 10
133.2876669088
 20
215.9134235607
  0
VERTEX
  8
0
 62
7
  6
CONTINUOUS
 10
133.3411682143
 20
215.8899555853
  0
VERTEX
  8
0
 62
7
  6
CONTINUOUS
 10
133.4849327267
 20
215.8379905268
  0
VERTEX
  8
0
 62
7
  6
CONTINUOUS
 10
133.5669366384
 20
215.8161410681
  0
VERTEX
  8
0
 62
7
  6
CONTINUOUS
 10
133.754500012
 20
215.7884418931
  0
VERTEX
  8
0
 62
7
  6
CONTINUOUS
 10
133.8247724277
 20
215.7861842592
  0
SEQEND
  0
LINE
  8
0
 62
7
  6
CONTINUOUS
 10
105.9289473684
 20
240.7861842126
 11
106.9289473684
 21
239.7861842126
  0
POLYLINE
  8
0
 62
7
  6
CONTINUOUS
 66
1
 70
0
  0
VERTEX
  8
0
 62
7
  6
CONTINUOUS
 10
131.3547748918
 20
219.7861842126
  0
VERTEX
  8
0
 62
7
  6
CONTINUOUS
 10
131.3971471949
 20
219.7159757059
  0
VERTEX
  8
0
 62
7
  6
CONTINUOUS
 10
131.4423765295
 20
219.6292571446
  0
VERTEX
  8
0
 62
7
  6
CONTINUOUS
 10
131.4799764007
 20
219.5433477835
  0
VERTEX
  8
0
 62
7
  6
CONTINUOUS
 10
131.5085306586
 20
219.4616903854
  0
VERTEX
  8
0
 62
7
  6
CONTINUOUS
 10
131.5252000242
 20
219.3980482074
  0
SEQEND
  0
POLYLINE
  8
0
 62
7
  6
CONTINUOUS
 66
1
 70
0
  0
VERTEX
  8
0
 62
7
  6
CONTINUOUS
 10
131.5252030988
 20
219.3980332242
  0
VERTEX
  8
0
 62
7
  6
CONTINUOUS
 10
131.7509136262
 20
218.477219386
  0
VERTEX
  8
0
 62
7
  6
CONTINUOUS
 10
131.9776739704
 20
217.7488704953
  0
VERTEX
  8
0
 62
7
  6
CONTINUOUS
 10
132.2078584162
 20
217.1733947156
  0
VERTEX
  8
0
 62
7
  6
CONTINUOUS
 10
132.3283978396
 20
216.9282046767
  0
VERTEX
  8
0
 62
7
  6
CONTINUOUS
 10
132.5906078356
 20
216.5067523897
  0
VERTEX
  8
0
 62
7
  6
CONTINUOUS
 10
132.9051222313
 20
216.1625142939
  0
VERTEX
  8
0
 62
7
  6
CONTINUOUS
 10
133.2876313083
 20
215.9134399297
  0
SEQEND
  0
LINE
  8
0
 62
7
  6
CONTINUOUS
 10
132.8721847681
 20
216.7643693276
 11
132.8062485328
 21
219.7861842126
  0
POLYLINE
  8
0
 62
7
  6
CONTINUOUS
 66
1
 70
0
  0
VERTEX
  8
0
 62
7
  6
CONTINUOUS
 10
129.1326948001
 20
219.39804857
  0
VERTEX
  8
0
 62
7
  6
CONTINUOUS
 10
129.1490650828
 20
219.4607014084
  0
VERTEX
  8
0
 62
7
  6
CONTINUOUS
 10
129.1775011155
 20
219.5422878671
  0
VERTEX
  8
0
 62
7
  6
CONTINUOUS
 10
129.2150023131
 20
219.6281813145
  0
VERTEX
  8
0
 62
7
  6
CONTINUOUS
 10
129.2601572115
 20
219.7149259378
  0
VERTEX
  8
0
 62
7
  6
CONTINUOUS
 10
129.3030929302
 20
219.7861842126
  0
SEQEND
  0
LINE
  8
0
 62
7
  6
CONTINUOUS
 10
141.0289473684
 20
239.7861842126
 11
142.0289473684
 21
240.7861842126
  0
LINE
  8
0
 62
7
  6
CONTINUOUS
 10
143.0289473684
 20
239.7861842126
 11
144.0289473684
 21
240.7861842126
  0
POLYLINE
  8
0
 62
7
  6
CONTINUOUS
 66
1
 70
0
  0
VERTEX
  8
0
 62
7
  6
CONTINUOUS
 10
114.2033947249
 20
215.7884418931
  0
VERTEX
  8
0
 62
7
  6
CONTINUOUS
 10
114.3909580984
 20
215.8161410681
  0
VERTEX
  8
0
 62
7
  6
CONTINUOUS
 10
114.4729620101
 20
215.8379905268
  0
VERTEX
  8
0
 62
7
  6
CONTINUOUS
 10
114.6167265225
 20
215.8899555853
  0
VERTEX
  8
0
 62
7
  6
CONTINUOUS
 10
114.6702278281
 20
215.9134235607
  0
SEQEND
  0
POLYLINE
  8
0
 62
7
  6
CONTINUOUS
 66
1
 70
0
  0
VERTEX
  8
0
 62
7
  6
CONTINUOUS
 10
88.8033947249
 20
215.7884418931
  0
VERTEX
  8
0
 62
7
  6
CONTINUOUS
 10
88.9909580984
 20
215.8161410681
  0
VERTEX
  8
0
 62
7
  6
CONTINUOUS
 10
89.0729620101
 20
215.8379905268
  0
VERTEX
  8
0
 62
7
  6
CONTINUOUS
 10
89.2167265225
 20
215.8899555853
  0
VERTEX
  8
0
 62
7
  6
CONTINUOUS
 10
89.2702278281
 20
215.9134235607
  0
SEQEND
  0
POLYLINE
  8
0
 62
7
  6
CONTINUOUS
 66
1
 70
0
  0
VERTEX
  8
0
 62
7
  6
CONTINUOUS
 10
98.5722761225
 20
215.7861849602
  0
VERTEX
  8
0
 62
7
  6
CONTINUOUS
 10
98.7831817888
 20
215.8086668267
  0
VERTEX
  8
0
 62
7
  6
CONTINUOUS
 10
99.0192657323
 20
215.8915908745
  0
VERTEX
  8
0
 62
7
  6
CONTINUOUS
 10
99.2274518693
 20
216.0305699636
  0
VERTEX
  8
0
 62
7
  6
CONTINUOUS
 10
99.316877727
 20
216.1184738331
  0
VERTEX
  8
0
 62
7
  6
CONTINUOUS
 10
99.4593555533
 20
216.3241549412
  0
VERTEX
  8
0
 62
7
  6
CONTINUOUS
 10
99.5462503551
 20
216.55851492
  0
VERTEX
  8
0
 62
7
  6
CONTINUOUS
 10
99.5722737804
 20
216.7641107833
  0
SEQEND
  0
POLYLINE
  8
0
 62
7
  6
CONTINUOUS
 66
1
 70
0
  0
VERTEX
  8
0
 62
7
  6
CONTINUOUS
 10
73.1722761225
 20
215.7861849602
  0
VERTEX
  8
0
 62
7
  6
CONTINUOUS
 10
73.3831817888
 20
215.8086668267
  0
VERTEX
  8
0
 62
7
  6
CONTINUOUS
 10
73.6192657323
 20
215.8915908745
  0
VERTEX
  8
0
 62
7
  6
CONTINUOUS
 10
73.8274518693
 20
216.0305699636
  0
VERTEX
  8
0
 62
7
  6
CONTINUOUS
 10
73.916877727
 20
216.1184738331
  0
VERTEX
  8
0
 62
7
  6
CONTINUOUS
 10
74.0593555533
 20
216.3241549412
  0
VERTEX
  8
0
 62
7
  6
CONTINUOUS
 10
74.1462503551
 20
216.55851492
  0
VERTEX
  8
0
 62
7
  6
CONTINUOUS
 10
74.1722737804
 20
216.7641107833
  0
SEQEND
  0
LINE
  8
0
 62
7
  6
CONTINUOUS
 10
111.2722761225
 20
215.7861849602
 11
111.2789473684
 21
215.7868842576
  0
LINE
  8
0
 62
7
  6
CONTINUOUS
 10
85.8722761225
 20
215.7861849602
 11
85.8789473684
 21
215.7868842576
  0
LINE
  8
0
 62
7
  6
CONTINUOUS
 10
65.7387802109
 20
219.7861842126
 11
67.8548018067
 21
219.7861842126
  0
LINE
  8
0
 62
7
  6
CONTINUOUS
 10
74.2863191025
 20
219.7861842126
 11
84.771571954
 21
219.7861842126
  0
LINE
  8
0
 62
7
  6
CONTINUOUS
 10
91.203119845
 20
219.7861842126
 11
93.2548018067
 21
219.7861842126
  0
LINE
  8
0
 62
7
  6
CONTINUOUS
 10
99.6863191025
 20
219.7861842126
 11
110.171571954
 21
219.7861842126
  0
LINE
  8
0
 62
7
  6
CONTINUOUS
 10
116.603119845
 20
219.7861842126
 11
118.6548018067
 21
219.7861842126
  0
LINE
  8
0
 62
7
  6
CONTINUOUS
 10
125.0863191025
 20
219.7861842126
 11
135.571571954
 21
219.7861842126
  0
LINE
  8
0
 62
7
  6
CONTINUOUS
 10
142.003119845
 20
219.7861842126
 11
144.0548018067
 21
219.7861842126
  0
LINE
  8
0
 62
7
  6
CONTINUOUS
 10
150.4863191025
 20
219.7861842126
 11
160.971571954
 21
219.7861842126
  0
LINE
  8
0
 62
7
  6
CONTINUOUS
 10
167.403119845
 20
219.7861842126
 11
169.4548018067
 21
219.7861842126
  0
LINE
  8
0
 62
7
  6
CONTINUOUS
 10
175.8863191025
 20
219.7861842126
 11
186.371571954
 21
219.7861842126
  0
LINE
  8
0
 62
7
  6
CONTINUOUS
 10
192.803119845
 20
219.7861842126
 11
194.8548018067
 21
219.7861842126
  0
LINE
  8
0
 62
7
  6
CONTINUOUS
 10
201.2863191025
 20
219.7861842126
 11
208.24370311
 21
219.7861842126
  0
LINE
  8
0
 62
7
  6
CONTINUOUS
 10
194.0016694488
 20
220.4121083246
 11
193.6562254561
 21
220.4121083246
  0
LINE
  8
0
 62
7
  6
CONTINUOUS
 10
168.6016694488
 20
220.4121083246
 11
168.2562254561
 21
220.4121083246
  0
LINE
  8
0
 62
7
  6
CONTINUOUS
 10
143.2016694488
 20
220.4121083246
 11
142.8562254561
 21
220.4121083246
  0
LINE
  8
0
 62
7
  6
CONTINUOUS
 10
117.8016694488
 20
220.4121083246
 11
117.4562254561
 21
220.4121083246
  0
LINE
  8
0
 62
7
  6
CONTINUOUS
 10
92.4016694488
 20
220.4121083246
 11
92.0562254561
 21
220.4121083246
  0
LINE
  8
0
 62
7
  6
CONTINUOUS
 10
67.0016694488
 20
220.4121083246
 11
66.5968098784
 21
220.4121083246
  0
POLYLINE
  8
0
 62
7
  6
CONTINUOUS
 66
1
 70
0
  0
VERTEX
  8
0
 62
7
  6
CONTINUOUS
 10
117.8016694488
 20
220.4121090292
  0
VERTEX
  8
0
 62
7
  6
CONTINUOUS
 10
117.8570134687
 20
220.4089146554
  0
VERTEX
  8
0
 62
7
  6
CONTINUOUS
 10
117.9290884937
 20
220.3955938525
  0
VERTEX
  8
0
 62
7
  6
CONTINUOUS
 10
118.00118163
 20
220.3728295083
  0
VERTEX
  8
0
 62
7
  6
CONTINUOUS
 10
118.0722595254
 20
220.3420329909
  0
VERTEX
  8
0
 62
7
  6
CONTINUOUS
 10
118.1419981695
 20
220.3043335993
  0
VERTEX
  8
0
 62
7
  6
CONTINUOUS
 10
118.2103949842
 20
220.2604526564
  0
VERTEX
  8
0
 62
7
  6
CONTINUOUS
 10
118.2774494797
 20
220.210856356
  0
VERTEX
  8
0
 62
7
  6
CONTINUOUS
 10
118.3434216427
 20
220.1555725896
  0
VERTEX
  8
0
 62
7
  6
CONTINUOUS
 10
118.4081654379
 20
220.0947320981
  0
VERTEX
  8
0
 62
7
  6
CONTINUOUS
 10
118.4712618131
 20
220.0286123608
  0
VERTEX
  8
0
 62
7
  6
CONTINUOUS
 10
118.5323311891
 20
219.957375547
  0
VERTEX
  8
0
 62
7
  6
CONTINUOUS
 10
118.5909691901
 20
219.8810776951
  0
VERTEX
  8
0
 62
7
  6
CONTINUOUS
 10
118.6465420097
 20
219.7998925865
  0
VERTEX
  8
0
 62
7
  6
CONTINUOUS
 10
118.6977375253
 20
219.7149259378
  0
VERTEX
  8
0
 62
7
  6
CONTINUOUS
 10
118.7428924237
 20
219.6281813145
  0
VERTEX
  8
0
 62
7
  6
CONTINUOUS
 10
118.7803936213
 20
219.5422878671
  0
VERTEX
  8
0
 62
7
  6
CONTINUOUS
 10
118.8088296541
 20
219.4607014084
  0
VERTEX
  8
0
 62
7
  6
CONTINUOUS
 10
118.8251999368
 20
219.39804857
  0
SEQEND
  0
POLYLINE
  8
0
 62
7
  6
CONTINUOUS
 66
1
 70
0
  0
VERTEX
  8
0
 62
7
  6
CONTINUOUS
 10
143.2016694488
 20
220.4121090292
  0
VERTEX
  8
0
 62
7
  6
CONTINUOUS
 10
143.2570134687
 20
220.4089146554
  0
VERTEX
  8
0
 62
7
  6
CONTINUOUS
 10
143.3290884937
 20
220.3955938525
  0
VERTEX
  8
0
 62
7
  6
CONTINUOUS
 10
143.40118163
 20
220.3728295083
  0
VERTEX
  8
0
 62
7
  6
CONTINUOUS
 10
143.4722595254
 20
220.3420329909
  0
VERTEX
  8
0
 62
7
  6
CONTINUOUS
 10
143.5419981695
 20
220.3043335993
  0
VERTEX
  8
0
 62
7
  6
CONTINUOUS
 10
143.6103949842
 20
220.2604526564
  0
VERTEX
  8
0
 62
7
  6
CONTINUOUS
 10
143.6774494797
 20
220.210856356
  0
VERTEX
  8
0
 62
7
  6
CONTINUOUS
 10
143.7434216427
 20
220.1555725896
  0
VERTEX
  8
0
 62
7
  6
CONTINUOUS
 10
143.8081654379
 20
220.0947320981
  0
VERTEX
  8
0
 62
7
  6
CONTINUOUS
 10
143.8712618131
 20
220.0286123608
  0
VERTEX
  8
0
 62
7
  6
CONTINUOUS
 10
143.9323311891
 20
219.957375547
  0
VERTEX
  8
0
 62
7
  6
CONTINUOUS
 10
143.9909691901
 20
219.8810776951
  0
VERTEX
  8
0
 62
7
  6
CONTINUOUS
 10
144.0465420097
 20
219.7998925865
  0
VERTEX
  8
0
 62
7
  6
CONTINUOUS
 10
144.0977375253
 20
219.7149259378
  0
VERTEX
  8
0
 62
7
  6
CONTINUOUS
 10
144.1428924237
 20
219.6281813145
  0
VERTEX
  8
0
 62
7
  6
CONTINUOUS
 10
144.1803936213
 20
219.5422878671
  0
VERTEX
  8
0
 62
7
  6
CONTINUOUS
 10
144.2088296541
 20
219.4607014084
  0
VERTEX
  8
0
 62
7
  6
CONTINUOUS
 10
144.2251999368
 20
219.39804857
  0
SEQEND
  0
POLYLINE
  8
0
 62
7
  6
CONTINUOUS
 66
1
 70
0
  0
VERTEX
  8
0
 62
7
  6
CONTINUOUS
 10
168.6016694488
 20
220.4121090292
  0
VERTEX
  8
0
 62
7
  6
CONTINUOUS
 10
168.6570134687
 20
220.4089146554
  0
VERTEX
  8
0
 62
7
  6
CONTINUOUS
 10
168.7290884937
 20
220.3955938525
  0
VERTEX
  8
0
 62
7
  6
CONTINUOUS
 10
168.80118163
 20
220.3728295083
  0
VERTEX
  8
0
 62
7
  6
CONTINUOUS
 10
168.8722595254
 20
220.3420329909
  0
VERTEX
  8
0
 62
7
  6
CONTINUOUS
 10
168.9419981695
 20
220.3043335993
  0
VERTEX
  8
0
 62
7
  6
CONTINUOUS
 10
169.0103949842
 20
220.2604526564
  0
VERTEX
  8
0
 62
7
  6
CONTINUOUS
 10
169.0774494797
 20
220.210856356
  0
VERTEX
  8
0
 62
7
  6
CONTINUOUS
 10
169.1434216427
 20
220.1555725896
  0
VERTEX
  8
0
 62
7
  6
CONTINUOUS
 10
169.2081654379
 20
220.0947320981
  0
VERTEX
  8
0
 62
7
  6
CONTINUOUS
 10
169.2712618131
 20
220.0286123608
  0
VERTEX
  8
0
 62
7
  6
CONTINUOUS
 10
169.3323311891
 20
219.957375547
  0
VERTEX
  8
0
 62
7
  6
CONTINUOUS
 10
169.3909691901
 20
219.8810776951
  0
VERTEX
  8
0
 62
7
  6
CONTINUOUS
 10
169.4465420097
 20
219.7998925865
  0
VERTEX
  8
0
 62
7
  6
CONTINUOUS
 10
169.4977375253
 20
219.7149259378
  0
VERTEX
  8
0
 62
7
  6
CONTINUOUS
 10
169.5428924237
 20
219.6281813145
  0
VERTEX
  8
0
 62
7
  6
CONTINUOUS
 10
169.5803936213
 20
219.5422878671
  0
VERTEX
  8
0
 62
7
  6
CONTINUOUS
 10
169.6088296541
 20
219.4607014084
  0
VERTEX
  8
0
 62
7
  6
CONTINUOUS
 10
169.6251999368
 20
219.39804857
  0
SEQEND
  0
POLYLINE
  8
0
 62
7
  6
CONTINUOUS
 66
1
 70
0
  0
VERTEX
  8
0
 62
7
  6
CONTINUOUS
 10
194.0016694488
 20
220.4121090292
  0
VERTEX
  8
0
 62
7
  6
CONTINUOUS
 10
194.0570134687
 20
220.4089146554
  0
VERTEX
  8
0
 62
7
  6
CONTINUOUS
 10
194.1290884937
 20
220.3955938525
  0
VERTEX
  8
0
 62
7
  6
CONTINUOUS
 10
194.20118163
 20
220.3728295083
  0
VERTEX
  8
0
 62
7
  6
CONTINUOUS
 10
194.2722595254
 20
220.3420329909
  0
VERTEX
  8
0
 62
7
  6
CONTINUOUS
 10
194.3419981695
 20
220.3043335993
  0
VERTEX
  8
0
 62
7
  6
CONTINUOUS
 10
194.4103949842
 20
220.2604526564
  0
VERTEX
  8
0
 62
7
  6
CONTINUOUS
 10
194.4774494797
 20
220.210856356
  0
VERTEX
  8
0
 62
7
  6
CONTINUOUS
 10
194.5434216427
 20
220.1555725896
  0
VERTEX
  8
0
 62
7
  6
CONTINUOUS
 10
194.6081654379
 20
220.0947320981
  0
VERTEX
  8
0
 62
7
  6
CONTINUOUS
 10
194.6712618131
 20
220.0286123608
  0
VERTEX
  8
0
 62
7
  6
CONTINUOUS
 10
194.7323311891
 20
219.957375547
  0
VERTEX
  8
0
 62
7
  6
CONTINUOUS
 10
194.7909691901
 20
219.8810776951
  0
VERTEX
  8
0
 62
7
  6
CONTINUOUS
 10
194.8465420097
 20
219.7998925865
  0
VERTEX
  8
0
 62
7
  6
CONTINUOUS
 10
194.8977375253
 20
219.7149259378
  0
VERTEX
  8
0
 62
7
  6
CONTINUOUS
 10
194.9428924237
 20
219.6281813145
  0
VERTEX
  8
0
 62
7
  6
CONTINUOUS
 10
194.9803936213
 20
219.5422878671
  0
VERTEX
  8
0
 62
7
  6
CONTINUOUS
 10
195.0088296541
 20
219.4607014084
  0
VERTEX
  8
0
 62
7
  6
CONTINUOUS
 10
195.0251999368
 20
219.39804857
  0
SEQEND
  0
LINE
  8
0
 62
7
  6
CONTINUOUS
 10
174.7789473684
 20
215.7868960936
 11
174.7856186144
 21
215.7861849602
  0
LINE
  8
0
 62
7
  6
CONTINUOUS
 10
200.1789473684
 20
215.7868960936
 11
200.1856186144
 21
215.7861849602
  0
POLYLINE
  8
0
 62
7
  6
CONTINUOUS
 66
1
 70
0
  0
VERTEX
  8
0
 62
7
  6
CONTINUOUS
 10
171.6688502471
 20
215.8157011192
  0
VERTEX
  8
0
 62
7
  6
CONTINUOUS
 10
171.8571627219
 20
215.7882749065
  0
VERTEX
  8
0
 62
7
  6
CONTINUOUS
 10
171.9247641007
 20
215.786184261
  0
SEQEND
  0
POLYLINE
  8
0
 62
7
  6
CONTINUOUS
 66
1
 70
0
  0
VERTEX
  8
0
 62
7
  6
CONTINUOUS
 10
145.9876701827
 20
215.9134220612
  0
VERTEX
  8
0
 62
7
  6
CONTINUOUS
 10
146.0422956909
 20
215.8894838625
  0
VERTEX
  8
0
 62
7
  6
CONTINUOUS
 10
146.186523279
 20
215.8375115241
  0
VERTEX
  8
0
 62
7
  6
CONTINUOUS
 10
146.2688502472
 20
215.8157011192
  0
SEQEND
  0
LINE
  8
0
 62
7
  6
CONTINUOUS
 10
145.9876243304
 20
215.913443126
 11
145.9876702065
 21
215.913422113
  0
LINE
  8
0
 62
7
  6
CONTINUOUS
 10
116.6289473684
 20
240.7861842126
 11
117.6289473684
 21
239.7861842126
  0
LINE
  8
0
 62
7
  6
CONTINUOUS
 10
118.6289473684
 20
240.7861842126
 11
119.6289473684
 21
239.7861842126
  0
POLYLINE
  8
0
 62
7
  6
CONTINUOUS
 66
1
 70
0
  0
VERTEX
  8
0
 62
7
  6
CONTINUOUS
 10
135.4941832687
 20
220.1715263805
  0
VERTEX
  8
0
 62
7
  6
CONTINUOUS
 10
135.4957343271
 20
220.1670436685
  0
VERTEX
  8
0
 62
7
  6
CONTINUOUS
 10
135.510289703
 20
220.1181340353
  0
VERTEX
  8
0
 62
7
  6
CONTINUOUS
 10
135.5325995061
 20
220.0223355994
  0
VERTEX
  8
0
 62
7
  6
CONTINUOUS
 10
135.5582586411
 20
219.8812614054
  0
VERTEX
  8
0
 62
7
  6
CONTINUOUS
 10
135.5845906278
 20
219.6932111878
  0
VERTEX
  8
0
 62
7
  6
CONTINUOUS
 10
135.6091078664
 20
219.455868583
  0
VERTEX
  8
0
 62
7
  6
CONTINUOUS
 10
135.6284038082
 20
219.1760498534
  0
VERTEX
  8
0
 62
7
  6
CONTINUOUS
 10
135.6381299365
 20
218.9145471459
  0
SEQEND
  0
POLYLINE
  8
0
 62
7
  6
CONTINUOUS
 66
1
 70
0
  0
VERTEX
  8
0
 62
7
  6
CONTINUOUS
 10
135.6856209565
 20
216.764110783
  0
VERTEX
  8
0
 62
7
  6
CONTINUOUS
 10
135.7124644027
 20
216.5550365141
  0
VERTEX
  8
0
 62
7
  6
CONTINUOUS
 10
135.8002045535
 20
216.3209728896
  0
VERTEX
  8
0
 62
7
  6
CONTINUOUS
 10
135.9434166286
 20
216.1158087353
  0
VERTEX
  8
0
 62
7
  6
CONTINUOUS
 10
136.0331510942
 20
216.0282312719
  0
VERTEX
  8
0
 62
7
  6
CONTINUOUS
 10
136.241810757
 20
215.8900088753
  0
VERTEX
  8
0
 62
7
  6
CONTINUOUS
 10
136.4781456078
 20
215.8079328203
  0
VERTEX
  8
0
 62
7
  6
CONTINUOUS
 10
136.6856186144
 20
215.7861849602
  0
SEQEND
  0
LINE
  8
0
 62
7
  6
CONTINUOUS
 10
135.6856203178
 20
216.7641107689
 11
135.6381298577
 21
218.9145471435
  0
LINE
  8
0
 62
7
  6
CONTINUOUS
 10
137.3221847681
 20
216.7643693276
 11
136.8421430604
 21
238.7643693276
  0
LINE
  8
DEFAULT_1
 62
2
  6
CENTER
 10
136.6789473684
 20
213.785344663
 11
136.6789473684
 21
242.7968428025
  0
POLYLINE
  8
0
 62
7
  6
CONTINUOUS
 66
1
 70
0
  0
VERTEX
  8
0
 62
7
  6
CONTINUOUS
 10
114.6702634285
 20
215.9134399297
  0
VERTEX
  8
0
 62
7
  6
CONTINUOUS
 10
115.0527725056
 20
216.1625142939
  0
VERTEX
  8
0
 62
7
  6
CONTINUOUS
 10
115.3672869013
 20
216.5067523897
  0
VERTEX
  8
0
 62
7
  6
CONTINUOUS
 10
115.6294968973
 20
216.9282046767
  0
VERTEX
  8
0
 62
7
  6
CONTINUOUS
 10
115.7500363206
 20
217.1733947156
  0
VERTEX
  8
0
 62
7
  6
CONTINUOUS
 10
115.9802207664
 20
217.7488704953
  0
VERTEX
  8
0
 62
7
  6
CONTINUOUS
 10
116.2069811106
 20
218.477219386
  0
VERTEX
  8
0
 62
7
  6
CONTINUOUS
 10
116.432691638
 20
219.3980332242
  0
SEQEND
  0
LINE
  8
0
 62
7
  6
CONTINUOUS
 10
101.9702704065
 20
215.913443126
 11
101.9702245304
 21
215.913422113
  0
POLYLINE
  8
0
 62
7
  6
CONTINUOUS
 66
1
 70
0
  0
VERTEX
  8
0
 62
7
  6
CONTINUOUS
 10
63.3248009146
 20
215.7884920421
  0
VERTEX
  8
0
 62
7
  6
CONTINUOUS
 10
63.5136314885
 20
215.816646756
  0
VERTEX
  8
0
 62
7
  6
CONTINUOUS
 10
63.5959343638
 20
215.8387627678
  0
VERTEX
  8
0
 62
7
  6
CONTINUOUS
 10
63.7399269061
 20
215.8911735506
  0
VERTEX
  8
0
 62
7
  6
CONTINUOUS
 10
63.7935811133
 20
215.9148446561
  0
SEQEND
  0
LINE
  8
DEFAULT_1
 62
2
  6
CENTER
 10
42.7819758101
 20
228.9861842126
 11
223.0859577965
 21
228.9861842126
  0
POLYLINE
  8
0
 62
7
  6
CONTINUOUS
 66
1
 70
0
  0
VERTEX
  8
0
 62
7
  6
CONTINUOUS
 10
197.0688502471
 20
215.8157011192
  0
VERTEX
  8
0
 62
7
  6
CONTINUOUS
 10
197.2571627219
 20
215.7882749065
  0
VERTEX
  8
0
 62
7
  6
CONTINUOUS
 10
197.3247641007
 20
215.786184261
  0
SEQEND
  0
POLYLINE
  8
0
 62
7
  6
CONTINUOUS
 66
1
 70
0
  0
VERTEX
  8
0
 62
7
  6
CONTINUOUS
 10
158.6876669088
 20
215.9134235607
  0
VERTEX
  8
0
 62
7
  6
CONTINUOUS
 10
158.7411682143
 20
215.8899555853
  0
VERTEX
  8
0
 62
7
  6
CONTINUOUS
 10
158.8849327267
 20
215.8379905268
  0
VERTEX
  8
0
 62
7
  6
CONTINUOUS
 10
158.9669366384
 20
215.8161410681
  0
VERTEX
  8
0
 62
7
  6
CONTINUOUS
 10
159.154500012
 20
215.7884418931
  0
VERTEX
  8
0
 62
7
  6
CONTINUOUS
 10
159.2247724277
 20
215.7861842592
  0
SEQEND
  0
POLYLINE
  8
0
 62
7
  6
CONTINUOUS
 66
1
 70
0
  0
VERTEX
  8
0
 62
7
  6
CONTINUOUS
 10
141.8326947126
 20
219.3980482074
  0
VERTEX
  8
0
 62
7
  6
CONTINUOUS
 10
141.8493640782
 20
219.4616903854
  0
VERTEX
  8
0
 62
7
  6
CONTINUOUS
 10
141.8779183361
 20
219.5433477835
  0
VERTEX
  8
0
 62
7
  6
CONTINUOUS
 10
141.9155182074
 20
219.6292571446
  0
VERTEX
  8
0
 62
7
  6
CONTINUOUS
 10
141.9607475419
 20
219.7159757059
  0
VERTEX
  8
0
 62
7
  6
CONTINUOUS
 10
142.0119929983
 20
219.8008865251
  0
VERTEX
  8
0
 62
7
  6
CONTINUOUS
 10
142.0675942655
 20
219.8819976173
  0
VERTEX
  8
0
 62
7
  6
CONTINUOUS
 10
142.1262521471
 20
219.9582226726
  0
VERTEX
  8
0
 62
7
  6
CONTINUOUS
 10
142.1873444221
 20
220.0293983728
  0
VERTEX
  8
0
 62
7
  6
CONTINUOUS
 10
142.2504758138
 20
220.0954726969
  0
VERTEX
  8
0
 62
7
  6
CONTINUOUS
 10
142.3152645893
 20
220.156275128
  0
VERTEX
  8
0
 62
7
  6
CONTINUOUS
 10
142.3812819059
 20
220.2115156703
  0
VERTEX
  8
0
 62
7
  6
CONTINUOUS
 10
142.4483728832
 20
220.2610554867
  0
VERTEX
  8
0
 62
7
  6
CONTINUOUS
 10
142.5168028385
 20
220.3048696078
  0
VERTEX
  8
0
 62
7
  6
CONTINUOUS
 10
142.5865786405
 20
220.3424932758
  0
VERTEX
  8
0
 62
7
  6
CONTINUOUS
 10
142.6577041722
 20
220.3732020375
  0
VERTEX
  8
0
 62
7
  6
CONTINUOUS
 10
142.7298638174
 20
220.39586002
  0
VERTEX
  8
0
 62
7
  6
CONTINUOUS
 10
142.8020087838
 20
220.4090423834
  0
VERTEX
  8
0
 62
7
  6
CONTINUOUS
 10
142.8562254565
 20
220.4121090638
  0
SEQEND
  0
LINE
  8
0
 62
7
  6
CONTINUOUS
 10
153.7289473684
 20
239.7861842126
 11
154.7289473684
 21
240.7861842126
  0
LINE
  8
0
 62
7
  6
CONTINUOUS
 10
155.7289473684
 20
239.7861842126
 11
156.7289473684
 21
240.7861842126
  0
POLYLINE
  8
0
 62
7
  6
CONTINUOUS
 66
1
 70
0
  0
VERTEX
  8
0
 62
7
  6
CONTINUOUS
 10
127.3702704065
 20
215.913443126
  0
VERTEX
  8
0
 62
7
  6
CONTINUOUS
 10
127.7517420007
 20
216.1616205272
  0
VERTEX
  8
0
 62
7
  6
CONTINUOUS
 10
128.0665138719
 20
216.5057105033
  0
VERTEX
  8
0
 62
7
  6
CONTINUOUS
 10
128.3288645524
 20
216.9270106632
  0
VERTEX
  8
0
 62
7
  6
CONTINUOUS
 10
128.4494512367
 20
217.1721171827
  0
VERTEX
  8
0
 62
7
  6
CONTINUOUS
 10
128.6797123845
 20
217.7474290827
  0
VERTEX
  8
0
 62
7
  6
CONTINUOUS
 10
128.9065396465
 20
218.4756242603
  0
VERTEX
  8
0
 62
7
  6
CONTINUOUS
 10
129.1326915885
 20
219.3980329974
  0
SEQEND
  0
LINE
  8
0
 62
7
  6
CONTINUOUS
 10
127.3702704065
 20
215.913443126
 11
127.3702245304
 21
215.913422113
  0
POLYLINE
  8
0
 62
7
  6
CONTINUOUS
 66
1
 70
0
  0
VERTEX
  8
0
 62
7
  6
CONTINUOUS
 10
171.3876701827
 20
215.9134220612
  0
VERTEX
  8
0
 62
7
  6
CONTINUOUS
 10
171.4422956909
 20
215.8894838625
  0
VERTEX
  8
0
 62
7
  6
CONTINUOUS
 10
171.586523279
 20
215.8375115241
  0
VERTEX
  8
0
 62
7
  6
CONTINUOUS
 10
171.6688502471
 20
215.8157011192
  0
SEQEND
  0
LINE
  8
0
 62
7
  6
CONTINUOUS
 10
171.3876243304
 20
215.913443126
 11
171.3876702065
 21
215.913422113
  0
LINE
  8
0
 62
7
  6
CONTINUOUS
 10
129.3289473684
 20
240.7861842126
 11
130.3289473684
 21
239.7861842126
  0
LINE
  8
0
 62
7
  6
CONTINUOUS
 10
131.3289473684
 20
240.7861842126
 11
132.3289473684
 21
239.7861842126
  0
POLYLINE
  8
0
 62
7
  6
CONTINUOUS
 66
1
 70
0
  0
VERTEX
  8
0
 62
7
  6
CONTINUOUS
 10
144.2252031483
 20
219.3980329974
  0
VERTEX
  8
0
 62
7
  6
CONTINUOUS
 10
144.4513550904
 20
218.4756242603
  0
VERTEX
  8
0
 62
7
  6
CONTINUOUS
 10
144.6781823523
 20
217.7474290827
  0
VERTEX
  8
0
 62
7
  6
CONTINUOUS
 10
144.9084435001
 20
217.1721171827
  0
VERTEX
  8
0
 62
7
  6
CONTINUOUS
 10
145.0290301844
 20
216.9270106632
  0
VERTEX
  8
0
 62
7
  6
CONTINUOUS
 10
145.291380865
 20
216.5057105033
  0
VERTEX
  8
0
 62
7
  6
CONTINUOUS
 10
145.6061527361
 20
216.1616205272
  0
VERTEX
  8
0
 62
7
  6
CONTINUOUS
 10
145.9876243304
 20
215.913443126
  0
SEQEND
  0
LINE
  8
0
 62
7
  6
CONTINUOUS
 10
149.2157515872
 20
238.7643652396
 11
148.7357099687
 21
216.7643693276
  0
LINE
  8
0
 62
7
  6
CONTINUOUS
 10
150.4197648792
 20
218.9145471434
 11
150.372274419
 21
216.7641107692
  0
POLYLINE
  8
0
 62
7
  6
CONTINUOUS
 66
1
 70
0
  0
VERTEX
  8
0
 62
7
  6
CONTINUOUS
 10
150.4197648004
 20
218.9145471458
  0
VERTEX
  8
0
 62
7
  6
CONTINUOUS
 10
150.429668194
 20
219.1794292876
  0
VERTEX
  8
0
 62
7
  6
CONTINUOUS
 10
150.4490270324
 20
219.4586424744
  0
VERTEX
  8
0
 62
7
  6
CONTINUOUS
 10
150.4735666704
 20
219.6953637652
  0
VERTEX
  8
0
 62
7
  6
CONTINUOUS
 10
150.4998952455
 20
219.882870976
  0
VERTEX
  8
0
 62
7
  6
CONTINUOUS
 10
150.5255272694
 20
220.0234549769
  0
VERTEX
  8
0
 62
7
  6
CONTINUOUS
 10
150.5477808513
 20
220.1187938818
  0
VERTEX
  8
0
 62
7
  6
CONTINUOUS
 10
150.562233069
 20
220.1672528244
  0
VERTEX
  8
0
 62
7
  6
CONTINUOUS
 10
150.5637783514
 20
220.1715648458
  0
SEQEND
  0
LINE
  8
0
 62
7
  6
CONTINUOUS
 10
166.4289473684
 20
239.7861842126
 11
167.4289473684
 21
240.7861842126
  0
POLYLINE
  8
0
 62
7
  6
CONTINUOUS
 66
1
 70
0
  0
VERTEX
  8
0
 62
7
  6
CONTINUOUS
 10
140.0702634285
 20
215.9134399297
  0
VERTEX
  8
0
 62
7
  6
CONTINUOUS
 10
140.4527725056
 20
216.1625142939
  0
VERTEX
  8
0
 62
7
  6
CONTINUOUS
 10
140.7672869013
 20
216.5067523897
  0
VERTEX
  8
0
 62
7
  6
CONTINUOUS
 10
141.0294968973
 20
216.9282046767
  0
VERTEX
  8
0
 62
7
  6
CONTINUOUS
 10
141.1500363206
 20
217.1733947156
  0
VERTEX
  8
0
 62
7
  6
CONTINUOUS
 10
141.3802207665
 20
217.7488704953
  0
VERTEX
  8
0
 62
7
  6
CONTINUOUS
 10
141.6069811106
 20
218.477219386
  0
VERTEX
  8
0
 62
7
  6
CONTINUOUS
 10
141.832691638
 20
219.3980332242
  0
SEQEND
  0
LINE
  8
0
 62
7
  6
CONTINUOUS
 10
135.8168162775
 20
235.7861842126
 11
124.8410784594
 21
235.7861842126
  0
LINE
  8
SURF
 62
7
  6
CONTINUOUS
 10
110.4168162775
 20
235.7861842126
 11
99.4410784594
 21
235.7861842126
  0
LINE
  8
SURF
 62
7
  6
CONTINUOUS
 10
85.0168162775
 20
235.7861842126
 11
74.0410784594
 21
235.7861842126
  0
LINE
  8
0
 62
7
  6
CONTINUOUS
 10
150.2410784594
 20
235.7861842126
 11
161.2168162775
 21
235.7861842126
  0
LINE
  8
0
 62
7
  6
CONTINUOUS
 10
175.6410784594
 20
235.7861842126
 11
186.6168162775
 21
235.7861842126
  0
LINE
  8
0
 62
7
  6
CONTINUOUS
 10
201.0410784594
 20
235.7861842126
 11
211.6789473684
 21
235.7861842126
  0
POLYLINE
  8
0
 62
7
  6
CONTINUOUS
 66
1
 70
0
  0
VERTEX
  8
0
 62
7
  6
CONTINUOUS
 10
184.0876669088
 20
215.9134235607
  0
VERTEX
  8
0
 62
7
  6
CONTINUOUS
 10
184.1411682143
 20
215.8899555853
  0
VERTEX
  8
0
 62
7
  6
CONTINUOUS
 10
184.2849327267
 20
215.8379905268
  0
VERTEX
  8
0
 62
7
  6
CONTINUOUS
 10
184.3669366384
 20
215.8161410681
  0
VERTEX
  8
0
 62
7
  6
CONTINUOUS
 10
184.554500012
 20
215.7884418931
  0
VERTEX
  8
0
 62
7
  6
CONTINUOUS
 10
184.6247724277
 20
215.7861842592
  0
SEQEND
  0
LINE
  8
0
 62
7
  6
CONTINUOUS
 10
142.0289473684
 20
240.7861842126
 11
143.0289473684
 21
239.7861842126
  0
POLYLINE
  8
0
 62
7
  6
CONTINUOUS
 66
1
 70
0
  0
VERTEX
  8
0
 62
7
  6
CONTINUOUS
 10
156.7547748918
 20
219.7861842126
  0
VERTEX
  8
0
 62
7
  6
CONTINUOUS
 10
156.7971471949
 20
219.7159757059
  0
VERTEX
  8
0
 62
7
  6
CONTINUOUS
 10
156.8423765295
 20
219.6292571446
  0
VERTEX
  8
0
 62
7
  6
CONTINUOUS
 10
156.8799764007
 20
219.5433477835
  0
VERTEX
  8
0
 62
7
  6
CONTINUOUS
 10
156.9085306586
 20
219.4616903854
  0
VERTEX
  8
0
 62
7
  6
CONTINUOUS
 10
156.9252000242
 20
219.3980482074
  0
SEQEND
  0
LINE
  8
0
 62
7
  6
CONTINUOUS
 10
153.2516462041
 20
219.7861842126
 11
153.1857099687
 21
216.7643693276
  0
POLYLINE
  8
0
 62
7
  6
CONTINUOUS
 66
1
 70
0
  0
VERTEX
  8
0
 62
7
  6
CONTINUOUS
 10
154.5326948001
 20
219.39804857
  0
VERTEX
  8
0
 62
7
  6
CONTINUOUS
 10
154.5490650828
 20
219.4607014084
  0
VERTEX
  8
0
 62
7
  6
CONTINUOUS
 10
154.5775011155
 20
219.5422878671
  0
VERTEX
  8
0
 62
7
  6
CONTINUOUS
 10
154.6150023131
 20
219.6281813145
  0
VERTEX
  8
0
 62
7
  6
CONTINUOUS
 10
154.6601572115
 20
219.7149259378
  0
VERTEX
  8
0
 62
7
  6
CONTINUOUS
 10
154.7030929302
 20
219.7861842126
  0
SEQEND
  0
LINE
  8
0
 62
7
  6
CONTINUOUS
 10
168.4289473684
 20
239.7861842126
 11
169.4289473684
 21
240.7861842126
  0
LINE
  8
0
 62
7
  6
CONTINUOUS
 10
152.7702704065
 20
215.913443126
 11
152.7702245304
 21
215.913422113
  0
LINE
  8
0
 62
7
  6
CONTINUOUS
 10
61.6789473684
 20
239.7861842126
 11
211.6789473684
 21
239.7861842126
  0
POLYLINE
  8
0
 62
7
  6
CONTINUOUS
 66
1
 70
0
  0
VERTEX
  8
0
 62
7
  6
CONTINUOUS
 10
196.7876701827
 20
215.9134220612
  0
VERTEX
  8
0
 62
7
  6
CONTINUOUS
 10
196.8422956909
 20
215.8894838625
  0
VERTEX
  8
0
 62
7
  6
CONTINUOUS
 10
196.986523279
 20
215.8375115241
  0
VERTEX
  8
0
 62
7
  6
CONTINUOUS
 10
197.0688502471
 20
215.8157011192
  0
SEQEND
  0
LINE
  8
0
 62
7
  6
CONTINUOUS
 10
196.7876243304
 20
215.913443126
 11
196.7876702065
 21
215.913422113
  0
LINE
  8
0
 62
7
  6
CONTINUOUS
 10
144.0289473684
 20
240.7861842126
 11
145.0289473684
 21
239.7861842126
  0
POLYLINE
  8
0
 62
7
  6
CONTINUOUS
 66
1
 70
0
  0
VERTEX
  8
0
 62
7
  6
CONTINUOUS
 10
156.9252030988
 20
219.3980332242
  0
VERTEX
  8
0
 62
7
  6
CONTINUOUS
 10
157.1509136262
 20
218.477219386
  0
VERTEX
  8
0
 62
7
  6
CONTINUOUS
 10
157.3776739704
 20
217.7488704953
  0
VERTEX
  8
0
 62
7
  6
CONTINUOUS
 10
157.6078584162
 20
217.1733947156
  0
VERTEX
  8
0
 62
7
  6
CONTINUOUS
 10
157.7283978396
 20
216.9282046767
  0
VERTEX
  8
0
 62
7
  6
CONTINUOUS
 10
157.9906078356
 20
216.5067523897
  0
VERTEX
  8
0
 62
7
  6
CONTINUOUS
 10
158.3051222313
 20
216.1625142939
  0
VERTEX
  8
0
 62
7
  6
CONTINUOUS
 10
158.6876313083
 20
215.9134399297
  0
SEQEND
  0
LINE
  8
0
 62
7
  6
CONTINUOUS
 10
161.0856203178
 20
216.7641107689
 11
161.0381298577
 21
218.9145471435
  0
LINE
  8
0
 62
7
  6
CONTINUOUS
 10
158.2721847681
 20
216.7643693276
 11
158.2062485328
 21
219.7861842126
  0
LINE
  8
0
 62
7
  6
CONTINUOUS
 10
179.1289473684
 20
239.7861842126
 11
180.1289473684
 21
240.7861842126
  0
LINE
  8
0
 62
7
  6
CONTINUOUS
 10
181.1289473684
 20
239.7861842126
 11
182.1289473684
 21
240.7861842126
  0
POLYLINE
  8
0
 62
7
  6
CONTINUOUS
 66
1
 70
0
  0
VERTEX
  8
0
 62
7
  6
CONTINUOUS
 10
152.7702704065
 20
215.913443126
  0
VERTEX
  8
0
 62
7
  6
CONTINUOUS
 10
153.1517420007
 20
216.1616205272
  0
VERTEX
  8
0
 62
7
  6
CONTINUOUS
 10
153.4665138719
 20
216.5057105033
  0
VERTEX
  8
0
 62
7
  6
CONTINUOUS
 10
153.7288645524
 20
216.9270106632
  0
VERTEX
  8
0
 62
7
  6
CONTINUOUS
 10
153.8494512367
 20
217.1721171827
  0
VERTEX
  8
0
 62
7
  6
CONTINUOUS
 10
154.0797123845
 20
217.7474290827
  0
VERTEX
  8
0
 62
7
  6
CONTINUOUS
 10
154.3065396465
 20
218.4756242603
  0
VERTEX
  8
0
 62
7
  6
CONTINUOUS
 10
154.5326915885
 20
219.3980329974
  0
SEQEND
  0
POLYLINE
  8
0
 62
7
  6
CONTINUOUS
 66
1
 70
0
  0
VERTEX
  8
0
 62
7
  6
CONTINUOUS
 10
209.5643136236
 20
215.9148446561
  0
VERTEX
  8
0
 62
7
  6
CONTINUOUS
 10
209.6179678307
 20
215.8911735506
  0
VERTEX
  8
0
 62
7
  6
CONTINUOUS
 10
209.761960373
 20
215.8387627678
  0
VERTEX
  8
0
 62
7
  6
CONTINUOUS
 10
209.8442632484
 20
215.816646756
  0
VERTEX
  8
0
 62
7
  6
CONTINUOUS
 10
210.0330938223
 20
215.7884920421
  0
VERTEX
  8
0
 62
7
  6
CONTINUOUS
 10
210.1040964814
 20
215.786184261
  0
SEQEND
  0
LINE
  8
0
 62
7
  6
CONTINUOUS
 10
154.7289473684
 20
240.7861842126
 11
155.7289473684
 21
239.7861842126
  0
LINE
  8
0
 62
7
  6
CONTINUOUS
 10
156.7289473684
 20
240.7861842126
 11
157.7289473684
 21
239.7861842126
  0
POLYLINE
  8
0
 62
7
  6
CONTINUOUS
 66
1
 70
0
  0
VERTEX
  8
0
 62
7
  6
CONTINUOUS
 10
160.8941832687
 20
220.1715263805
  0
VERTEX
  8
0
 62
7
  6
CONTINUOUS
 10
160.8957343271
 20
220.1670436685
  0
VERTEX
  8
0
 62
7
  6
CONTINUOUS
 10
160.910289703
 20
220.1181340353
  0
VERTEX
  8
0
 62
7
  6
CONTINUOUS
 10
160.9325995061
 20
220.0223355994
  0
VERTEX
  8
0
 62
7
  6
CONTINUOUS
 10
160.9582586411
 20
219.8812614054
  0
VERTEX
  8
0
 62
7
  6
CONTINUOUS
 10
160.9845906278
 20
219.6932111878
  0
VERTEX
  8
0
 62
7
  6
CONTINUOUS
 10
161.0091078664
 20
219.455868583
  0
VERTEX
  8
0
 62
7
  6
CONTINUOUS
 10
161.0284038082
 20
219.1760498533
  0
VERTEX
  8
0
 62
7
  6
CONTINUOUS
 10
161.0381299365
 20
218.9145471459
  0
SEQEND
  0
POLYLINE
  8
0
 62
7
  6
CONTINUOUS
 66
1
 70
0
  0
VERTEX
  8
0
 62
7
  6
CONTINUOUS
 10
161.0856209565
 20
216.764110783
  0
VERTEX
  8
0
 62
7
  6
CONTINUOUS
 10
161.1124644027
 20
216.5550365141
  0
VERTEX
  8
0
 62
7
  6
CONTINUOUS
 10
161.2002045535
 20
216.3209728896
  0
VERTEX
  8
0
 62
7
  6
CONTINUOUS
 10
161.3434166286
 20
216.1158087353
  0
VERTEX
  8
0
 62
7
  6
CONTINUOUS
 10
161.4331510942
 20
216.0282312719
  0
VERTEX
  8
0
 62
7
  6
CONTINUOUS
 10
161.641810757
 20
215.8900088753
  0
VERTEX
  8
0
 62
7
  6
CONTINUOUS
 10
161.8781456078
 20
215.8079328203
  0
VERTEX
  8
0
 62
7
  6
CONTINUOUS
 10
162.0856186144
 20
215.7861849602
  0
SEQEND
  0
LINE
  8
0
 62
7
  6
CONTINUOUS
 10
162.7221847681
 20
216.7643693276
 11
162.2421430604
 21
238.7643693276
  0
POLYLINE
  8
0
 62
7
  6
CONTINUOUS
 66
1
 70
0
  0
VERTEX
  8
0
 62
7
  6
CONTINUOUS
 10
165.4702634285
 20
215.9134399297
  0
VERTEX
  8
0
 62
7
  6
CONTINUOUS
 10
165.8527725056
 20
216.1625142939
  0
VERTEX
  8
0
 62
7
  6
CONTINUOUS
 10
166.1672869013
 20
216.5067523897
  0
VERTEX
  8
0
 62
7
  6
CONTINUOUS
 10
166.4294968973
 20
216.9282046767
  0
VERTEX
  8
0
 62
7
  6
CONTINUOUS
 10
166.5500363206
 20
217.1733947156
  0
VERTEX
  8
0
 62
7
  6
CONTINUOUS
 10
166.7802207665
 20
217.7488704953
  0
VERTEX
  8
0
 62
7
  6
CONTINUOUS
 10
167.0069811106
 20
218.477219386
  0
VERTEX
  8
0
 62
7
  6
CONTINUOUS
 10
167.232691638
 20
219.3980332242
  0
SEQEND
  0
LINE
  8
0
 62
7
  6
CONTINUOUS
 10
178.1702704065
 20
215.913443126
 11
178.1702245304
 21
215.913422113
  0
POLYLINE
  8
0
 62
7
  6
CONTINUOUS
 66
1
 70
0
  0
VERTEX
  8
0
 62
7
  6
CONTINUOUS
 10
169.6252031483
 20
219.3980329974
  0
VERTEX
  8
0
 62
7
  6
CONTINUOUS
 10
169.8513550904
 20
218.4756242603
  0
VERTEX
  8
0
 62
7
  6
CONTINUOUS
 10
170.0781823523
 20
217.7474290827
  0
VERTEX
  8
0
 62
7
  6
CONTINUOUS
 10
170.3084435001
 20
217.1721171827
  0
VERTEX
  8
0
 62
7
  6
CONTINUOUS
 10
170.4290301844
 20
216.9270106632
  0
VERTEX
  8
0
 62
7
  6
CONTINUOUS
 10
170.691380865
 20
216.5057105033
  0
VERTEX
  8
0
 62
7
  6
CONTINUOUS
 10
171.0061527361
 20
216.1616205272
  0
VERTEX
  8
0
 62
7
  6
CONTINUOUS
 10
171.3876243304
 20
215.913443126
  0
SEQEND
  0
POLYLINE
  8
0
 62
7
  6
CONTINUOUS
 66
1
 70
0
  0
VERTEX
  8
0
 62
7
  6
CONTINUOUS
 10
167.2326947126
 20
219.3980482074
  0
VERTEX
  8
0
 62
7
  6
CONTINUOUS
 10
167.2493640782
 20
219.4616903854
  0
VERTEX
  8
0
 62
7
  6
CONTINUOUS
 10
167.2779183361
 20
219.5433477835
  0
VERTEX
  8
0
 62
7
  6
CONTINUOUS
 10
167.3155182074
 20
219.6292571446
  0
VERTEX
  8
0
 62
7
  6
CONTINUOUS
 10
167.3607475419
 20
219.7159757059
  0
VERTEX
  8
0
 62
7
  6
CONTINUOUS
 10
167.4119929983
 20
219.8008865251
  0
VERTEX
  8
0
 62
7
  6
CONTINUOUS
 10
167.4675942655
 20
219.8819976173
  0
VERTEX
  8
0
 62
7
  6
CONTINUOUS
 10
167.5262521471
 20
219.9582226726
  0
VERTEX
  8
0
 62
7
  6
CONTINUOUS
 10
167.5873444221
 20
220.0293983728
  0
VERTEX
  8
0
 62
7
  6
CONTINUOUS
 10
167.6504758138
 20
220.0954726969
  0
VERTEX
  8
0
 62
7
  6
CONTINUOUS
 10
167.7152645893
 20
220.156275128
  0
VERTEX
  8
0
 62
7
  6
CONTINUOUS
 10
167.7812819059
 20
220.2115156703
  0
VERTEX
  8
0
 62
7
  6
CONTINUOUS
 10
167.8483728832
 20
220.2610554867
  0
VERTEX
  8
0
 62
7
  6
CONTINUOUS
 10
167.9168028385
 20
220.3048696078
  0
VERTEX
  8
0
 62
7
  6
CONTINUOUS
 10
167.9865786405
 20
220.3424932758
  0
VERTEX
  8
0
 62
7
  6
CONTINUOUS
 10
168.0577041722
 20
220.3732020375
  0
VERTEX
  8
0
 62
7
  6
CONTINUOUS
 10
168.1298638174
 20
220.39586002
  0
VERTEX
  8
0
 62
7
  6
CONTINUOUS
 10
168.2020087838
 20
220.4090423834
  0
VERTEX
  8
0
 62
7
  6
CONTINUOUS
 10
168.2562254565
 20
220.4121090638
  0
SEQEND
  0
LINE
  8
0
 62
7
  6
CONTINUOUS
 10
191.8289473684
 20
239.7861842126
 11
192.8289473684
 21
240.7861842126
  0
LINE
  8
0
 62
7
  6
CONTINUOUS
 10
193.8289473684
 20
239.7861842126
 11
194.8289473684
 21
240.7861842126
  0
POLYLINE
  8
0
 62
7
  6
CONTINUOUS
 66
1
 70
0
  0
VERTEX
  8
0
 62
7
  6
CONTINUOUS
 10
178.1702704065
 20
215.913443126
  0
VERTEX
  8
0
 62
7
  6
CONTINUOUS
 10
178.5517420007
 20
216.1616205272
  0
VERTEX
  8
0
 62
7
  6
CONTINUOUS
 10
178.8665138719
 20
216.5057105033
  0
VERTEX
  8
0
 62
7
  6
CONTINUOUS
 10
179.1288645524
 20
216.9270106632
  0
VERTEX
  8
0
 62
7
  6
CONTINUOUS
 10
179.2494512367
 20
217.1721171827
  0
VERTEX
  8
0
 62
7
  6
CONTINUOUS
 10
179.4797123845
 20
217.7474290827
  0
VERTEX
  8
0
 62
7
  6
CONTINUOUS
 10
179.7065396465
 20
218.4756242603
  0
VERTEX
  8
0
 62
7
  6
CONTINUOUS
 10
179.9326915885
 20
219.3980329974
  0
SEQEND
  0
LINE
  8
0
 62
7
  6
CONTINUOUS
 10
167.4289473684
 20
240.7861842126
 11
168.4289473684
 21
239.7861842126
  0
LINE
  8
0
 62
7
  6
CONTINUOUS
 10
169.4289473684
 20
240.7861842126
 11
170.4289473684
 21
239.7861842126
  0
POLYLINE
  8
0
 62
7
  6
CONTINUOUS
 66
1
 70
0
  0
VERTEX
  8
0
 62
7
  6
CONTINUOUS
 10
182.1547748918
 20
219.7861842126
  0
VERTEX
  8
0
 62
7
  6
CONTINUOUS
 10
182.1971471949
 20
219.7159757059
  0
VERTEX
  8
0
 62
7
  6
CONTINUOUS
 10
182.2423765295
 20
219.6292571446
  0
VERTEX
  8
0
 62
7
  6
CONTINUOUS
 10
182.2799764007
 20
219.5433477835
  0
VERTEX
  8
0
 62
7
  6
CONTINUOUS
 10
182.3085306586
 20
219.4616903854
  0
VERTEX
  8
0
 62
7
  6
CONTINUOUS
 10
182.3252000242
 20
219.3980482074
  0
SEQEND
  0
LINE
  8
0
 62
7
  6
CONTINUOUS
 10
174.6157515872
 20
238.7643652397
 11
174.1357099687
 21
216.7643693276
  0
LINE
  8
0
 62
7
  6
CONTINUOUS
 10
175.8197648792
 20
218.9145471434
 11
175.772274419
 21
216.7641107692
  0
POLYLINE
  8
0
 62
7
  6
CONTINUOUS
 66
1
 70
0
  0
VERTEX
  8
0
 62
7
  6
CONTINUOUS
 10
175.8197648004
 20
218.9145471458
  0
VERTEX
  8
0
 62
7
  6
CONTINUOUS
 10
175.829668194
 20
219.1794292876
  0
VERTEX
  8
0
 62
7
  6
CONTINUOUS
 10
175.8490270324
 20
219.4586424744
  0
VERTEX
  8
0
 62
7
  6
CONTINUOUS
 10
175.8735666704
 20
219.6953637652
  0
VERTEX
  8
0
 62
7
  6
CONTINUOUS
 10
175.8998952455
 20
219.882870976
  0
VERTEX
  8
0
 62
7
  6
CONTINUOUS
 10
175.9255272694
 20
220.0234549769
  0
VERTEX
  8
0
 62
7
  6
CONTINUOUS
 10
175.9477808513
 20
220.1187938818
  0
VERTEX
  8
0
 62
7
  6
CONTINUOUS
 10
175.962233069
 20
220.1672528244
  0
VERTEX
  8
0
 62
7
  6
CONTINUOUS
 10
175.9637783514
 20
220.1715648458
  0
SEQEND
  0
LINE
  8
0
 62
7
  6
CONTINUOUS
 10
204.5289473684
 20
239.7861842126
 11
205.5289473684
 21
240.7861842126
  0
POLYLINE
  8
0
 62
7
  6
CONTINUOUS
 66
1
 70
0
  0
VERTEX
  8
0
 62
7
  6
CONTINUOUS
 10
190.8702634285
 20
215.9134399297
  0
VERTEX
  8
0
 62
7
  6
CONTINUOUS
 10
191.2527725056
 20
216.1625142939
  0
VERTEX
  8
0
 62
7
  6
CONTINUOUS
 10
191.5672869013
 20
216.5067523897
  0
VERTEX
  8
0
 62
7
  6
CONTINUOUS
 10
191.8294968973
 20
216.9282046767
  0
VERTEX
  8
0
 62
7
  6
CONTINUOUS
 10
191.9500363206
 20
217.1733947156
  0
VERTEX
  8
0
 62
7
  6
CONTINUOUS
 10
192.1802207665
 20
217.7488704953
  0
VERTEX
  8
0
 62
7
  6
CONTINUOUS
 10
192.4069811106
 20
218.477219386
  0
VERTEX
  8
0
 62
7
  6
CONTINUOUS
 10
192.632691638
 20
219.3980332242
  0
SEQEND
  0
LINE
  8
0
 62
7
  6
CONTINUOUS
 10
203.5702704065
 20
215.913443126
 11
203.5702245304
 21
215.913422113
  0
LINE
  8
0
 62
7
  6
CONTINUOUS
 10
180.1289473684
 20
240.7861842126
 11
181.1289473684
 21
239.7861842126
  0
LINE
  8
0
 62
7
  6
CONTINUOUS
 10
183.6721847681
 20
216.7643693276
 11
183.6062485328
 21
219.7861842126
  0
LINE
  8
0
 62
7
  6
CONTINUOUS
 10
178.6516462041
 20
219.7861842126
 11
178.5857099687
 21
216.7643693276
  0
POLYLINE
  8
0
 62
7
  6
CONTINUOUS
 66
1
 70
0
  0
VERTEX
  8
0
 62
7
  6
CONTINUOUS
 10
179.9326948001
 20
219.39804857
  0
VERTEX
  8
0
 62
7
  6
CONTINUOUS
 10
179.9490650828
 20
219.4607014084
  0
VERTEX
  8
0
 62
7
  6
CONTINUOUS
 10
179.9775011155
 20
219.5422878671
  0
VERTEX
  8
0
 62
7
  6
CONTINUOUS
 10
180.0150023131
 20
219.6281813145
  0
VERTEX
  8
0
 62
7
  6
CONTINUOUS
 10
180.0601572115
 20
219.7149259378
  0
VERTEX
  8
0
 62
7
  6
CONTINUOUS
 10
180.1030929302
 20
219.7861842126
  0
SEQEND
  0
LINE
  8
0
 62
7
  6
CONTINUOUS
 10
206.5289473684
 20
239.7861842126
 11
207.5289473684
 21
240.7861842126
  0
LINE
  8
0
 62
7
  6
CONTINUOUS
 10
182.1289473684
 20
240.7861842126
 11
183.1289473684
 21
239.7861842126
  0
POLYLINE
  8
0
 62
7
  6
CONTINUOUS
 66
1
 70
0
  0
VERTEX
  8
0
 62
7
  6
CONTINUOUS
 10
186.2941832687
 20
220.1715263805
  0
VERTEX
  8
0
 62
7
  6
CONTINUOUS
 10
186.2957343271
 20
220.1670436685
  0
VERTEX
  8
0
 62
7
  6
CONTINUOUS
 10
186.310289703
 20
220.1181340353
  0
VERTEX
  8
0
 62
7
  6
CONTINUOUS
 10
186.3325995061
 20
220.0223355994
  0
VERTEX
  8
0
 62
7
  6
CONTINUOUS
 10
186.3582586411
 20
219.8812614054
  0
VERTEX
  8
0
 62
7
  6
CONTINUOUS
 10
186.3845906278
 20
219.6932111878
  0
VERTEX
  8
0
 62
7
  6
CONTINUOUS
 10
186.4091078664
 20
219.455868583
  0
VERTEX
  8
0
 62
7
  6
CONTINUOUS
 10
186.4284038082
 20
219.1760498534
  0
VERTEX
  8
0
 62
7
  6
CONTINUOUS
 10
186.4381299365
 20
218.9145471459
  0
SEQEND
  0
POLYLINE
  8
0
 62
7
  6
CONTINUOUS
 66
1
 70
0
  0
VERTEX
  8
0
 62
7
  6
CONTINUOUS
 10
182.3252030988
 20
219.3980332242
  0
VERTEX
  8
0
 62
7
  6
CONTINUOUS
 10
182.5509136262
 20
218.477219386
  0
VERTEX
  8
0
 62
7
  6
CONTINUOUS
 10
182.7776739704
 20
217.7488704953
  0
VERTEX
  8
0
 62
7
  6
CONTINUOUS
 10
183.0078584162
 20
217.1733947156
  0
VERTEX
  8
0
 62
7
  6
CONTINUOUS
 10
183.1283978396
 20
216.9282046767
  0
VERTEX
  8
0
 62
7
  6
CONTINUOUS
 10
183.3906078356
 20
216.5067523897
  0
VERTEX
  8
0
 62
7
  6
CONTINUOUS
 10
183.7051222313
 20
216.1625142939
  0
VERTEX
  8
0
 62
7
  6
CONTINUOUS
 10
184.0876313083
 20
215.9134399297
  0
SEQEND
  0
LINE
  8
0
 62
7
  6
CONTINUOUS
 10
186.4856203178
 20
216.7641107689
 11
186.4381298577
 21
218.9145471435
  0
LINE
  8
0
 62
7
  6
CONTINUOUS
 10
188.1221847681
 20
216.7643693276
 11
187.6421430604
 21
238.7643693276
  0
POLYLINE
  8
0
 62
7
  6
CONTINUOUS
 66
1
 70
0
  0
VERTEX
  8
0
 62
7
  6
CONTINUOUS
 10
203.5702704065
 20
215.913443126
  0
VERTEX
  8
0
 62
7
  6
CONTINUOUS
 10
203.9517420007
 20
216.1616205272
  0
VERTEX
  8
0
 62
7
  6
CONTINUOUS
 10
204.2665138719
 20
216.5057105033
  0
VERTEX
  8
0
 62
7
  6
CONTINUOUS
 10
204.5288645524
 20
216.9270106632
  0
VERTEX
  8
0
 62
7
  6
CONTINUOUS
 10
204.6494512367
 20
217.1721171827
  0
VERTEX
  8
0
 62
7
  6
CONTINUOUS
 10
204.8797123845
 20
217.7474290827
  0
VERTEX
  8
0
 62
7
  6
CONTINUOUS
 10
205.1065396465
 20
218.4756242603
  0
VERTEX
  8
0
 62
7
  6
CONTINUOUS
 10
205.3326915885
 20
219.3980329974
  0
SEQEND
  0
LINE
  8
0
 62
7
  6
CONTINUOUS
 10
192.8289473684
 20
240.7861842126
 11
193.8289473684
 21
239.7861842126
  0
LINE
  8
0
 62
7
  6
CONTINUOUS
 10
194.8289473684
 20
240.7861842126
 11
195.8289473684
 21
239.7861842126
  0
POLYLINE
  8
0
 62
7
  6
CONTINUOUS
 66
1
 70
0
  0
VERTEX
  8
0
 62
7
  6
CONTINUOUS
 10
186.4856209565
 20
216.764110783
  0
VERTEX
  8
0
 62
7
  6
CONTINUOUS
 10
186.5124644027
 20
216.5550365141
  0
VERTEX
  8
0
 62
7
  6
CONTINUOUS
 10
186.6002045535
 20
216.3209728896
  0
VERTEX
  8
0
 62
7
  6
CONTINUOUS
 10
186.7434166286
 20
216.1158087353
  0
VERTEX
  8
0
 62
7
  6
CONTINUOUS
 10
186.8331510942
 20
216.0282312719
  0
VERTEX
  8
0
 62
7
  6
CONTINUOUS
 10
187.041810757
 20
215.8900088753
  0
VERTEX
  8
0
 62
7
  6
CONTINUOUS
 10
187.2781456078
 20
215.8079328203
  0
VERTEX
  8
0
 62
7
  6
CONTINUOUS
 10
187.4856186144
 20
215.7861849602
  0
SEQEND
  0
POLYLINE
  8
0
 62
7
  6
CONTINUOUS
 66
1
 70
0
  0
VERTEX
  8
0
 62
7
  6
CONTINUOUS
 10
192.6326947126
 20
219.3980482074
  0
VERTEX
  8
0
 62
7
  6
CONTINUOUS
 10
192.6493640782
 20
219.4616903854
  0
VERTEX
  8
0
 62
7
  6
CONTINUOUS
 10
192.6779183361
 20
219.5433477835
  0
VERTEX
  8
0
 62
7
  6
CONTINUOUS
 10
192.7155182074
 20
219.6292571446
  0
VERTEX
  8
0
 62
7
  6
CONTINUOUS
 10
192.7607475419
 20
219.7159757059
  0
VERTEX
  8
0
 62
7
  6
CONTINUOUS
 10
192.8119929983
 20
219.8008865251
  0
VERTEX
  8
0
 62
7
  6
CONTINUOUS
 10
192.8675942655
 20
219.8819976173
  0
VERTEX
  8
0
 62
7
  6
CONTINUOUS
 10
192.9262521471
 20
219.9582226726
  0
VERTEX
  8
0
 62
7
  6
CONTINUOUS
 10
192.9873444221
 20
220.0293983728
  0
VERTEX
  8
0
 62
7
  6
CONTINUOUS
 10
193.0504758138
 20
220.0954726969
  0
VERTEX
  8
0
 62
7
  6
CONTINUOUS
 10
193.1152645893
 20
220.156275128
  0
VERTEX
  8
0
 62
7
  6
CONTINUOUS
 10
193.1812819059
 20
220.2115156703
  0
VERTEX
  8
0
 62
7
  6
CONTINUOUS
 10
193.2483728832
 20
220.2610554867
  0
VERTEX
  8
0
 62
7
  6
CONTINUOUS
 10
193.3168028385
 20
220.3048696078
  0
VERTEX
  8
0
 62
7
  6
CONTINUOUS
 10
193.3865786405
 20
220.3424932758
  0
VERTEX
  8
0
 62
7
  6
CONTINUOUS
 10
193.4577041722
 20
220.3732020375
  0
VERTEX
  8
0
 62
7
  6
CONTINUOUS
 10
193.5298638174
 20
220.39586002
  0
VERTEX
  8
0
 62
7
  6
CONTINUOUS
 10
193.6020087838
 20
220.4090423834
  0
VERTEX
  8
0
 62
7
  6
CONTINUOUS
 10
193.6562254565
 20
220.4121090638
  0
SEQEND
  0
POLYLINE
  8
0
 62
7
  6
CONTINUOUS
 66
1
 70
0
  0
VERTEX
  8
0
 62
7
  6
CONTINUOUS
 10
207.619114526
 20
219.7861842126
  0
VERTEX
  8
0
 62
7
  6
CONTINUOUS
 10
207.6631577598
 20
219.7138199093
  0
VERTEX
  8
0
 62
7
  6
CONTINUOUS
 10
207.7090431071
 20
219.6266780439
  0
SEQEND
  0
POLYLINE
  8
0
 62
7
  6
CONTINUOUS
 66
1
 70
0
  0
VERTEX
  8
0
 62
7
  6
CONTINUOUS
 10
195.0252031483
 20
219.3980329974
  0
VERTEX
  8
0
 62
7
  6
CONTINUOUS
 10
195.2513550904
 20
218.4756242603
  0
VERTEX
  8
0
 62
7
  6
CONTINUOUS
 10
195.4781823523
 20
217.7474290827
  0
VERTEX
  8
0
 62
7
  6
CONTINUOUS
 10
195.7084435001
 20
217.1721171827
  0
VERTEX
  8
0
 62
7
  6
CONTINUOUS
 10
195.8290301844
 20
216.9270106632
  0
VERTEX
  8
0
 62
7
  6
CONTINUOUS
 10
196.091380865
 20
216.5057105033
  0
VERTEX
  8
0
 62
7
  6
CONTINUOUS
 10
196.4061527361
 20
216.1616205272
  0
VERTEX
  8
0
 62
7
  6
CONTINUOUS
 10
196.7876243304
 20
215.913443126
  0
SEQEND
  0
LINE
  8
0
 62
7
  6
CONTINUOUS
 10
205.5289473684
 20
240.7861842126
 11
206.5289473684
 21
239.7861842126
  0
LINE
  8
0
 62
7
  6
CONTINUOUS
 10
207.5289473684
 20
240.7861842126
 11
208.5289473684
 21
239.7861842126
  0
POLYLINE
  8
0
 62
7
  6
CONTINUOUS
 66
1
 70
0
  0
VERTEX
  8
0
 62
7
  6
CONTINUOUS
 10
207.7090431071
 20
219.6266780439
  0
VERTEX
  8
0
 62
7
  6
CONTINUOUS
 10
207.7472664447
 20
219.5403058471
  0
VERTEX
  8
0
 62
7
  6
CONTINUOUS
 10
207.7763776085
 20
219.4581675687
  0
VERTEX
  8
0
 62
7
  6
CONTINUOUS
 10
207.7934504922
 20
219.3940967075
  0
SEQEND
  0
LINE
  8
0
 62
7
  6
CONTINUOUS
 10
200.0157516764
 20
238.7643693276
 11
199.5357099687
 21
216.7643693276
  0
LINE
  8
0
 62
7
  6
CONTINUOUS
 10
204.0364583642
 20
219.0901353646
 11
203.9857099687
 21
216.7643693276
  0
LINE
  8
0
 62
7
  6
CONTINUOUS
 10
201.2197648792
 20
218.9145471434
 11
201.172274419
 21
216.7641107692
  0
POLYLINE
  8
0
 62
7
  6
CONTINUOUS
 66
1
 70
0
  0
VERTEX
  8
0
 62
7
  6
CONTINUOUS
 10
201.2197648004
 20
218.9145471458
  0
VERTEX
  8
0
 62
7
  6
CONTINUOUS
 10
201.229668194
 20
219.1794292876
  0
VERTEX
  8
0
 62
7
  6
CONTINUOUS
 10
201.2490270324
 20
219.4586424744
  0
VERTEX
  8
0
 62
7
  6
CONTINUOUS
 10
201.2735666704
 20
219.6953637652
  0
VERTEX
  8
0
 62
7
  6
CONTINUOUS
 10
201.2998952455
 20
219.882870976
  0
VERTEX
  8
0
 62
7
  6
CONTINUOUS
 10
201.3255272694
 20
220.0234549769
  0
VERTEX
  8
0
 62
7
  6
CONTINUOUS
 10
201.3477808513
 20
220.1187938818
  0
VERTEX
  8
0
 62
7
  6
CONTINUOUS
 10
201.362233069
 20
220.1672528244
  0
VERTEX
  8
0
 62
7
  6
CONTINUOUS
 10
201.3637783514
 20
220.1715648458
  0
SEQEND
  0
POLYLINE
  8
0
 62
7
  6
CONTINUOUS
 66
1
 70
0
  0
VERTEX
  8
0
 62
7
  6
CONTINUOUS
 10
207.7934537421
 20
219.3940813849
  0
VERTEX
  8
0
 62
7
  6
CONTINUOUS
 10
208.022839957
 20
218.4746936098
  0
VERTEX
  8
0
 62
7
  6
CONTINUOUS
 10
208.2523690419
 20
217.7473550456
  0
VERTEX
  8
0
 62
7
  6
CONTINUOUS
 10
208.4845547019
 20
217.1726138236
  0
VERTEX
  8
0
 62
7
  6
CONTINUOUS
 10
208.6058353994
 20
216.9277493492
  0
VERTEX
  8
0
 62
7
  6
CONTINUOUS
 10
208.8689041962
 20
216.5070244451
  0
VERTEX
  8
0
 62
7
  6
CONTINUOUS
 10
209.1831503104
 20
216.1636343586
  0
VERTEX
  8
0
 62
7
  6
CONTINUOUS
 10
209.5642837127
 20
215.9148584894
  0
SEQEND
  0
LINE
  8
0
 62
7
  6
CONTINUOUS
 10
209.1509794242
 20
216.7600072643
 11
209.0608589976
 21
220.2015675077
  0
LINE
  8
0
 62
7
  6
CONTINUOUS
 10
209.0176435855
 20
221.8518975129
 11
208.6782619009
 21
234.8123611609
  0
POLYLINE
  8
0
 62
7
  6
CONTINUOUS
 66
1
 70
0
  0
VERTEX
  8
0
 62
7
  6
CONTINUOUS
 10
205.3326948001
 20
219.39804857
  0
VERTEX
  8
0
 62
7
  6
CONTINUOUS
 10
205.3490650828
 20
219.4607014084
  0
VERTEX
  8
0
 62
7
  6
CONTINUOUS
 10
205.3775011155
 20
219.5422878671
  0
VERTEX
  8
0
 62
7
  6
CONTINUOUS
 10
205.4150023131
 20
219.6281813145
  0
VERTEX
  8
0
 62
7
  6
CONTINUOUS
 10
205.4601572115
 20
219.7149259378
  0
VERTEX
  8
0
 62
7
  6
CONTINUOUS
 10
205.5030929302
 20
219.7861842126
  0
SEQEND
  0
LINE
  8
0
 62
7
  6
CONTINUOUS
 10
212.6789473684
 20
238.7861842126
 11
212.6789473684
 21
216.7861842126
  0
LINE
  8
0
 62
2
  6
CONTINUOUS
 10
296.9223684211
 20
230.0361842126
 11
296.9223684211
 21
227.9361842126
  0
LINE
  8
DEFAULT_1
 62
2
  6
CENTER
 10
296.9223684211
 20
223.7361842126
 11
296.9223684211
 21
222.8111842126
  0
LINE
  8
DEFAULT_1
 62
2
  6
CENTER
 10
296.9223684211
 20
234.2361842126
 11
296.9223684211
 21
235.1611842126
  0
LINE
  8
0
 62
7
  6
CONTINUOUS
 10
297.3223684211
 20
239.7861842126
 11
298.3223684211
 21
240.7861842126
  0
LINE
  8
0
 62
7
  6
CONTINUOUS
 10
299.3223684211
 20
239.7861842126
 11
300.3223684211
 21
240.7861842126
  0
LINE
  8
0
 62
7
  6
CONTINUOUS
 10
301.3223684211
 20
239.7861842126
 11
302.3223684211
 21
240.7861842126
  0
LINE
  8
0
 62
7
  6
CONTINUOUS
 10
301.2223684211
 20
239.7861842126
 11
301.2223684211
 21
239.8861842126
  0
LINE
  8
0
 62
7
  6
CONTINUOUS
 10
305.3223684211
 20
239.7861842126
 11
306.3223684211
 21
240.7861842126
  0
LINE
  8
0
 62
7
  6
CONTINUOUS
 10
307.3223684211
 20
239.7861842126
 11
308.3223684211
 21
240.7861842126
  0
LINE
  8
0
 62
7
  6
CONTINUOUS
 10
309.3223684211
 20
239.7861842126
 11
310.3223684211
 21
240.7861842126
  0
LINE
  8
0
 62
7
  6
CONTINUOUS
 10
311.3223684211
 20
239.7861842126
 11
312.3223684211
 21
240.7861842126
  0
LINE
  8
0
 62
7
  6
CONTINUOUS
 10
309.2223684211
 20
239.7861842126
 11
309.2223684211
 21
239.8861842126
  0
LINE
  8
0
 62
7
  6
CONTINUOUS
 10
313.3223684211
 20
239.7861842126
 11
314.3223684211
 21
240.7861842126
  0
LINE
  8
0
 62
7
  6
CONTINUOUS
 10
315.4223684211
 20
239.8861842126
 11
316.3223684211
 21
240.7861842126
  0
LINE
  8
0
 62
7
  6
CONTINUOUS
 10
296.7473684211
 20
215.7861842126
 11
321.5215603325
 21
215.7861842126
  0
LINE
  8
0
 62
7
  6
CONTINUOUS
 10
323.1231765096
 20
215.7861842126
 11
347.8973684211
 21
215.7861842126
  0
LINE
  8
0
 62
7
  6
CONTINUOUS
 10
317.3223684211
 20
239.7861842126
 11
318.3223684211
 21
240.7861842126
  0
LINE
  8
0
 62
7
  6
CONTINUOUS
 10
319.3223684211
 20
239.7861842126
 11
320.3223684211
 21
240.7861842126
  0
LINE
  8
0
 62
7
  6
CONTINUOUS
 10
315.4223684211
 20
239.7861842126
 11
315.4223684211
 21
239.8861842126
  0
LINE
  8
0
 62
7
  6
CONTINUOUS
 10
321.3223684211
 20
239.7861842126
 11
322.3223684211
 21
240.7861842126
  0
LINE
  8
0
 62
7
  6
CONTINUOUS
 10
323.3223684211
 20
239.7861842126
 11
324.3223684211
 21
240.7861842126
  0
LINE
  8
0
 62
7
  6
CONTINUOUS
 10
325.3223684211
 20
239.7861842126
 11
326.3223684211
 21
240.7861842126
  0
LINE
  8
0
 62
7
  6
CONTINUOUS
 10
320.90195148
 20
219.7861842126
 11
320.1723684211
 21
219.7861842126
  0
LINE
  8
0
 62
7
  6
CONTINUOUS
 10
299.3223684211
 20
239.7861842126
 11
298.3223684211
 21
240.7861842126
  0
LINE
  8
0
 62
7
  6
CONTINUOUS
 10
301.3223684211
 20
239.7861842126
 11
300.3223684211
 21
240.7861842126
  0
LINE
  8
0
 62
7
  6
CONTINUOUS
 10
319.3223684211
 20
218.9361842126
 11
319.3223684211
 21
216.7661842126
  0
LINE
  8
0
 62
7
  6
CONTINUOUS
 10
327.3223684211
 20
239.7861842126
 11
328.3223684211
 21
240.7861842126
  0
LINE
  8
0
 62
7
  6
CONTINUOUS
 10
329.3223684211
 20
239.7861842126
 11
330.3223684211
 21
240.7861842126
  0
LINE
  8
0
 62
7
  6
CONTINUOUS
 10
303.3223684211
 20
239.7861842126
 11
302.3223684211
 21
240.7861842126
  0
LINE
  8
0
 62
7
  6
CONTINUOUS
 10
320.3526798934
 20
225.0121542722
 11
321.1341327189
 21
217.5771272861
  0
LINE
  8
PLANE
 62
2
  6
CENTER
 10
322.3223684211
 20
213.785344663
 11
322.3223684211
 21
242.7968428025
  0
LINE
  8
0
 62
7
  6
CONTINUOUS
 10
331.3223684211
 20
239.7861842126
 11
332.3223684211
 21
240.7861842126
  0
LINE
  8
0
 62
7
  6
CONTINUOUS
 10
333.3223684211
 20
239.7861842126
 11
334.3223684211
 21
240.7861842126
  0
LINE
  8
0
 62
7
  6
CONTINUOUS
 10
307.3223684211
 20
239.7861842126
 11
306.3223684211
 21
240.7861842126
  0
LINE
  8
0
 62
7
  6
CONTINUOUS
 10
309.2223684211
 20
239.8861842126
 11
308.3223684211
 21
240.7861842126
  0
LINE
  8
0
 62
7
  6
CONTINUOUS
 10
311.3223684211
 20
239.7861842126
 11
310.3223684211
 21
240.7861842126
  0
LINE
  8
0
 62
7
  6
CONTINUOUS
 10
335.4223684211
 20
239.8861842126
 11
336.3223684211
 21
240.7861842126
  0
LINE
  8
0
 62
7
  6
CONTINUOUS
 10
337.3223684211
 20
239.7861842126
 11
338.3223684211
 21
240.7861842126
  0
LINE
  8
0
 62
2
  6
CONTINUOUS
 10
348.7723684211
 20
228.9861842126
 11
346.6723684211
 21
228.9861842126
  0
LINE
  8
DEFAULT_1
 62
2
  6
CENTER
 10
342.4723684211
 20
228.9861842126
 11
341.5473684211
 21
228.9861842126
  0
LINE
  8
0
 62
2
  6
CONTINUOUS
 10
297.9723684211
 20
228.9861842126
 11
295.8723684211
 21
228.9861842126
  0
LINE
  8
DEFAULT_1
 62
2
  6
CENTER
 10
291.6723684211
 20
228.9861842126
 11
290.7473684211
 21
228.9861842126
  0
LINE
  8
DEFAULT_1
 62
2
  6
CENTER
 10
302.1723684211
 20
228.9861842126
 11
303.0973684211
 21
228.9861842126
  0
LINE
  8
DEFAULT_1
 62
2
  6
CENTER
 10
352.9723684211
 20
228.9861842126
 11
353.8973684211
 21
228.9861842126
  0
LINE
  8
DEFAULT_1
 62
2
  6
CENTER
 10
274.3309185273
 20
229.7861842126
 11
370.3138183148
 21
229.7861842126
  0
LINE
  8
0
 62
7
  6
CONTINUOUS
 10
313.3223684211
 20
239.7861842126
 11
312.3223684211
 21
240.7861842126
  0
LINE
  8
0
 62
7
  6
CONTINUOUS
 10
315.3223684211
 20
239.7861842126
 11
314.3223684211
 21
240.7861842126
  0
LINE
  8
0
 62
7
  6
CONTINUOUS
 10
341.3223684211
 20
239.7861842126
 11
342.3223684211
 21
240.7861842126
  0
LINE
  8
0
 62
7
  6
CONTINUOUS
 10
343.3223684211
 20
239.7861842126
 11
344.3223684211
 21
240.7861842126
  0
LINE
  8
0
 62
7
  6
CONTINUOUS
 10
317.3223684211
 20
239.7861842126
 11
316.3223684211
 21
240.7861842126
  0
LINE
  8
0
 62
7
  6
CONTINUOUS
 10
319.3223684211
 20
239.7861842126
 11
318.3223684211
 21
240.7861842126
  0
LINE
  8
0
 62
7
  6
CONTINUOUS
 10
329.2223684211
 20
239.7861842126
 11
329.2223684211
 21
239.8861842126
  0
LINE
  8
0
 62
7
  6
CONTINUOUS
 10
345.3223684211
 20
239.7861842126
 11
346.3223684211
 21
240.7861842126
  0
LINE
  8
SURF
 62
7
  6
CONTINUOUS
 10
308.386907363
 20
235.7861842126
 11
308.3676964518
 21
235.7862655818
  0
LINE
  8
0
 62
7
  6
CONTINUOUS
 10
321.3223684211
 20
239.7861842126
 11
320.3223684211
 21
240.7861842126
  0
LINE
  8
0
 62
7
  6
CONTINUOUS
 10
323.3223684211
 20
239.7861842126
 11
322.3223684211
 21
240.7861842126
  0
LINE
  8
0
 62
7
  6
CONTINUOUS
 10
335.4223684211
 20
239.7861842126
 11
335.4223684211
 21
239.8861842126
  0
LINE
  8
0
 62
7
  6
CONTINUOUS
 10
347.8973684211
 20
239.7861842126
 11
296.7473684211
 21
239.7861842126
  0
LINE
  8
0
 62
7
  6
CONTINUOUS
 10
325.3223684211
 20
239.7861842126
 11
324.3223684211
 21
240.7861842126
  0
LINE
  8
0
 62
7
  6
CONTINUOUS
 10
327.3223684211
 20
239.7861842126
 11
326.3223684211
 21
240.7861842126
  0
LINE
  8
0
 62
7
  6
CONTINUOUS
 10
329.2223684211
 20
239.8861842126
 11
328.3223684211
 21
240.7861842126
  0
LINE
  8
0
 62
7
  6
CONTINUOUS
 10
331.3223684211
 20
239.7861842126
 11
330.3223684211
 21
240.7861842126
  0
LINE
  8
0
 62
7
  6
CONTINUOUS
 10
333.3223684211
 20
239.7861842126
 11
332.3223684211
 21
240.7861842126
  0
LINE
  8
0
 62
7
  6
CONTINUOUS
 10
335.3223684211
 20
239.7861842126
 11
334.3223684211
 21
240.7861842126
  0
LINE
  8
0
 62
7
  6
CONTINUOUS
 10
337.3223684211
 20
239.7861842126
 11
336.3223684211
 21
240.7861842126
  0
LINE
  8
0
 62
7
  6
CONTINUOUS
 10
339.3223684211
 20
239.7861842126
 11
338.3223684211
 21
240.7861842126
  0
LINE
  8
0
 62
2
  6
CONTINUOUS
 10
347.7223684211
 20
230.0361842126
 11
347.7223684211
 21
227.9361842126
  0
LINE
  8
DEFAULT_1
 62
2
  6
CENTER
 10
347.7223684211
 20
223.7361842126
 11
347.7223684211
 21
222.8111842126
  0
LINE
  8
DEFAULT_1
 62
2
  6
CENTER
 10
347.7223684211
 20
234.2361842126
 11
347.7223684211
 21
235.1611842126
  0
LINE
  8
0
 62
7
  6
CONTINUOUS
 10
343.3223684211
 20
239.7861842126
 11
342.3223684211
 21
240.7861842126
  0
LINE
  8
0
 62
7
  6
CONTINUOUS
 10
345.3223684211
 20
239.7861842126
 11
344.3223684211
 21
240.7861842126
  0
LINE
  8
0
 62
7
  6
CONTINUOUS
 10
347.3223684211
 20
239.7861842126
 11
346.3223684211
 21
240.7861842126
  0
ARC
  8
0
 62
7
  6
CONTINUOUS
 10
61.6789473684
 20
97.6256578947
 40
1.0
 50
180.0
 51
270.0
  0
ARC
  8
0
 62
7
  6
CONTINUOUS
 10
68.0289473684
 20
126.4006578947
 40
0.9
 50
0.0
 51
90.0
  0
ARC
  8
0
 62
7
  6
CONTINUOUS
 10
68.0289473684
 20
122.0006578947
 40
0.9
 50
270.0
 51
360.0
  0
ARC
  8
0
 62
7
  6
CONTINUOUS
 10
65.6289473684
 20
122.0006578947
 40
0.9
 50
180.0
 51
270.0
  0
ARC
  8
0
 62
7
  6
CONTINUOUS
 10
65.6289473684
 20
126.4006578947
 40
0.9
 50
90.0
 51
180.0
  0
ARC
  8
0
 62
7
  6
CONTINUOUS
 10
93.4289473684
 20
126.4006578947
 40
0.9
 50
0.0
 51
90.0
  0
ARC
  8
0
 62
7
  6
CONTINUOUS
 10
93.4289473684
 20
114.0006578947
 40
0.9
 50
270.0
 51
360.0
  0
ARC
  8
0
 62
7
  6
CONTINUOUS
 10
91.0289473684
 20
114.0006578947
 40
0.9
 50
180.0
 51
270.0
  0
ARC
  8
0
 62
7
  6
CONTINUOUS
 10
91.0289473684
 20
126.4006578947
 40
0.9
 50
90.0
 51
180.0
  0
ARC
  8
0
 62
7
  6
CONTINUOUS
 10
118.8289473684
 20
126.4006578947
 40
0.9
 50
0.0
 51
90.0
  0
ARC
  8
0
 62
7
  6
CONTINUOUS
 10
118.8289473684
 20
114.0006578947
 40
0.9
 50
270.0
 51
360.0
  0
ARC
  8
0
 62
7
  6
CONTINUOUS
 10
116.4289473684
 20
114.0006578947
 40
0.9
 50
180.0
 51
270.0
  0
ARC
  8
0
 62
7
  6
CONTINUOUS
 10
116.4289473684
 20
126.4006578947
 40
0.9
 50
90.0
 51
180.0
  0
ARC
  8
0
 62
7
  6
CONTINUOUS
 10
129.1289473684
 20
142.0006578947
 40
0.9
 50
180.0
 51
270.0
  0
ARC
  8
0
 62
7
  6
CONTINUOUS
 10
129.1289473684
 20
154.4006578947
 40
0.9
 50
90.0
 51
180.0
  0
ARC
  8
0
 62
7
  6
CONTINUOUS
 10
131.5289473684
 20
154.4006578947
 40
0.9
 50
0.0
 51
90.0
  0
ARC
  8
0
 62
7
  6
CONTINUOUS
 10
131.5289473684
 20
142.0006578947
 40
0.9
 50
270.0
 51
360.0
  0
ARC
  8
0
 62
7
  6
CONTINUOUS
 10
103.7289473684
 20
142.0006578947
 40
0.9
 50
180.0
 51
270.0
  0
ARC
  8
0
 62
7
  6
CONTINUOUS
 10
103.7289473684
 20
154.4006578947
 40
0.9
 50
90.0
 51
180.0
  0
ARC
  8
0
 62
7
  6
CONTINUOUS
 10
106.1289473684
 20
154.4006578947
 40
0.9
 50
0.0
 51
90.0
  0
ARC
  8
0
 62
7
  6
CONTINUOUS
 10
106.1289473684
 20
142.0006578947
 40
0.9
 50
270.0
 51
360.0
  0
ARC
  8
0
 62
7
  6
CONTINUOUS
 10
78.3289473684
 20
142.0006578947
 40
0.9
 50
180.0
 51
270.0
  0
ARC
  8
0
 62
7
  6
CONTINUOUS
 10
78.3289473684
 20
154.4006578947
 40
0.9
 50
90.0
 51
180.0
  0
ARC
  8
0
 62
7
  6
CONTINUOUS
 10
80.7289473684
 20
154.4006578947
 40
0.9
 50
0.0
 51
90.0
  0
ARC
  8
0
 62
7
  6
CONTINUOUS
 10
80.7289473684
 20
142.0006578947
 40
0.9
 50
270.0
 51
360.0
  0
ARC
  8
0
 62
7
  6
CONTINUOUS
 10
144.2289473684
 20
126.4006578947
 40
0.9
 50
0.0
 51
90.0
  0
ARC
  8
0
 62
7
  6
CONTINUOUS
 10
144.2289473684
 20
114.0006578947
 40
0.9
 50
270.0
 51
360.0
  0
ARC
  8
0
 62
7
  6
CONTINUOUS
 10
141.8289473684
 20
114.0006578947
 40
0.9
 50
180.0
 51
270.0
  0
ARC
  8
0
 62
7
  6
CONTINUOUS
 10
141.8289473684
 20
126.4006578947
 40
0.9
 50
90.0
 51
180.0
  0
ARC
  8
0
 62
7
  6
CONTINUOUS
 10
169.6289473684
 20
126.4006578947
 40
0.9
 50
0.0
 51
90.0
  0
ARC
  8
0
 62
7
  6
CONTINUOUS
 10
169.6289473684
 20
114.0006578947
 40
0.9
 50
270.0
 51
360.0
  0
ARC
  8
0
 62
7
  6
CONTINUOUS
 10
167.2289473684
 20
114.0006578947
 40
0.9
 50
180.0
 51
270.0
  0
ARC
  8
0
 62
7
  6
CONTINUOUS
 10
167.2289473684
 20
126.4006578947
 40
0.9
 50
90.0
 51
180.0
  0
ARC
  8
0
 62
7
  6
CONTINUOUS
 10
195.0289473684
 20
126.4006578947
 40
0.9
 50
0.0
 51
90.0
  0
ARC
  8
0
 62
7
  6
CONTINUOUS
 10
195.0289473684
 20
114.0006578947
 40
0.9
 50
270.0
 51
360.0
  0
ARC
  8
0
 62
7
  6
CONTINUOUS
 10
192.6289473684
 20
114.0006578947
 40
0.9
 50
180.0
 51
270.0
  0
ARC
  8
0
 62
7
  6
CONTINUOUS
 10
192.6289473684
 20
126.4006578947
 40
0.9
 50
90.0
 51
180.0
  0
ARC
  8
0
 62
7
  6
CONTINUOUS
 10
211.6789473684
 20
170.7756578947
 40
1.0
 50
0.0
 51
90.0
  0
ARC
  8
0
 62
7
  6
CONTINUOUS
 10
205.3289473684
 20
142.0006578947
 40
0.9
 50
180.0
 51
270.0
  0
ARC
  8
0
 62
7
  6
CONTINUOUS
 10
205.3289473684
 20
146.4006578947
 40
0.9
 50
90.0
 51
180.0
  0
ARC
  8
0
 62
7
  6
CONTINUOUS
 10
207.7289473684
 20
146.4006578947
 40
0.9
 50
0.0
 51
90.0
  0
ARC
  8
0
 62
7
  6
CONTINUOUS
 10
207.7289473684
 20
142.0006578947
 40
0.9
 50
270.0
 51
360.0
  0
ARC
  8
0
 62
7
  6
CONTINUOUS
 10
179.9289473684
 20
142.0006578947
 40
0.9
 50
180.0
 51
270.0
  0
ARC
  8
0
 62
7
  6
CONTINUOUS
 10
179.9289473684
 20
154.4006578947
 40
0.9
 50
90.0
 51
180.0
  0
ARC
  8
0
 62
7
  6
CONTINUOUS
 10
182.3289473684
 20
154.4006578947
 40
0.9
 50
0.0
 51
90.0
  0
ARC
  8
0
 62
7
  6
CONTINUOUS
 10
182.3289473684
 20
142.0006578947
 40
0.9
 50
270.0
 51
360.0
  0
ARC
  8
0
 62
7
  6
CONTINUOUS
 10
154.5289473684
 20
142.0006578947
 40
0.9
 50
180.0
 51
270.0
  0
ARC
  8
0
 62
7
  6
CONTINUOUS
 10
154.5289473684
 20
154.4006578947
 40
0.9
 50
90.0
 51
180.0
  0
ARC
  8
0
 62
7
  6
CONTINUOUS
 10
156.9289473684
 20
154.4006578947
 40
0.9
 50
0.0
 51
90.0
  0
ARC
  8
0
 62
7
  6
CONTINUOUS
 10
156.9289473684
 20
142.0006578947
 40
0.9
 50
270.0
 51
360.0
  0
ARC
  8
0
 62
7
  6
CONTINUOUS
 10
61.6789473684
 20
216.7861842126
 40
1.0
 50
180.0
 51
270.0
  0
ARC
  8
0
 62
7
  6
CONTINUOUS
 10
63.207257994
 20
216.7861844541
 40
1.0
 50
306.2077738963
 51
314.2499921331
  0
ARC
  8
0
 62
7
  6
CONTINUOUS
 10
133.8719467952
 20
216.7861842126
 40
1.0
 50
181.25
 51
270.0
  0
ARC
  8
0
 62
7
  6
CONTINUOUS
 10
114.0859479146
 20
216.7861842126
 40
1.0
 50
306.8233354252
 51
314.375000951
  0
ARC
  8
0
 62
7
  6
CONTINUOUS
 10
112.9219467952
 20
216.7861842126
 40
1.0
 50
181.25
 51
270.0
  0
ARC
  8
0
 62
7
  6
CONTINUOUS
 10
108.4719467952
 20
216.7861842126
 40
1.0
 50
181.25
 51
270.0
  0
ARC
  8
0
 62
7
  6
CONTINUOUS
 10
88.6859479146
 20
216.7861842126
 40
1.0
 50
306.8235074902
 51
314.375000951
  0
ARC
  8
0
 62
7
  6
CONTINUOUS
 10
87.5219467952
 20
216.7861842126
 40
1.0
 50
181.25
 51
270.0
  0
ARC
  8
0
 62
7
  6
CONTINUOUS
 10
83.0719467952
 20
216.7861842126
 40
1.0
 50
181.25
 51
270.0
  0
ARC
  8
0
 62
7
  6
CONTINUOUS
 10
126.7859479509
 20
216.7861842126
 40
0.9999999992
 50
269.9999994718
 51
358.7499999885
  0
ARC
  8
0
 62
7
  6
CONTINUOUS
 10
101.3859479509
 20
216.7861842126
 40
0.9999999992
 50
269.9999994718
 51
358.7499999885
  0
ARC
  8
0
 62
7
  6
CONTINUOUS
 10
75.9859479509
 20
216.7861842126
 40
0.9999999992
 50
269.9999994718
 51
358.7499999885
  0
ARC
  8
0
 62
7
  6
CONTINUOUS
 10
122.3359479749
 20
216.7861842126
 40
0.999999997
 50
269.9999980931
 51
358.7499999584
  0
ARC
  8
0
 62
7
  6
CONTINUOUS
 10
96.9359479749
 20
216.7861842126
 40
0.999999997
 50
269.9999980931
 51
358.7499999584
  0
ARC
  8
0
 62
7
  6
CONTINUOUS
 10
71.5359479749
 20
216.7861842126
 40
0.999999997
 50
269.9999980931
 51
358.7499999584
  0
ARC
  8
0
 62
7
  6
CONTINUOUS
 10
61.6789473684
 20
238.7861842126
 40
1.0
 50
90.0
 51
180.0
  0
ARC
  8
0
 62
7
  6
CONTINUOUS
 10
122.8159896493
 20
238.7861842126
 40
1.0
 50
358.7497722452
 51
89.9999828967
  0
ARC
  8
0
 62
7
  6
CONTINUOUS
 10
112.4419050875
 20
238.7861842126
 40
1.0
 50
90.0
 51
181.25
  0
ARC
  8
0
 62
7
  6
CONTINUOUS
 10
97.4159896493
 20
238.7861842126
 40
1.0
 50
358.7497722498
 51
89.999982896
  0
ARC
  8
0
 62
7
  6
CONTINUOUS
 10
87.0419050875
 20
238.7861842126
 40
1.0
 50
90.0
 51
181.25
  0
ARC
  8
0
 62
7
  6
CONTINUOUS
 10
72.0159896493
 20
238.7861842126
 40
1.0
 50
358.7497722452
 51
89.9999828967
  0
ARC
  8
0
 62
7
  6
CONTINUOUS
 10
159.2719468223
 20
216.7861842126
 40
1.0
 50
181.2499999661
 51
269.9999984471
  0
ARC
  8
0
 62
7
  6
CONTINUOUS
 10
163.7219467935
 20
216.7861842899
 40
1.0
 50
181.2500044265
 51
270.0000000966
  0
ARC
  8
0
 62
7
  6
CONTINUOUS
 10
164.8859479146
 20
216.7861842126
 40
1.0
 50
306.8230351516
 51
314.375000951
  0
ARC
  8
0
 62
7
  6
CONTINUOUS
 10
139.4859479146
 20
216.7861842126
 40
1.0
 50
306.8235306355
 51
314.375000951
  0
ARC
  8
0
 62
7
  6
CONTINUOUS
 10
138.3219467952
 20
216.7861842126
 40
1.0
 50
181.25
 51
270.0
  0
ARC
  8
0
 62
7
  6
CONTINUOUS
 10
152.1859479509
 20
216.7861842126
 40
0.9999999992
 50
269.9999994718
 51
358.7499999885
  0
ARC
  8
0
 62
7
  6
CONTINUOUS
 10
173.1359479749
 20
216.7861842126
 40
0.999999997
 50
269.9999980931
 51
358.7499999584
  0
ARC
  8
0
 62
7
  6
CONTINUOUS
 10
147.7359479749
 20
216.7861842126
 40
0.999999997
 50
269.9999980931
 51
358.7499999584
  0
ARC
  8
0
 62
7
  6
CONTINUOUS
 10
211.6789473684
 20
216.7861842126
 40
1.0
 50
270.0
 51
360.0
  0
ARC
  8
0
 62
7
  6
CONTINUOUS
 10
210.1506367492
 20
216.7861842126
 40
1.0
 50
181.5
 51
270.0
  0
ARC
  8
0
 62
7
  6
CONTINUOUS
 10
184.6719468223
 20
216.7861842126
 40
1.0
 50
181.2499999661
 51
269.9999984471
  0
ARC
  8
0
 62
7
  6
CONTINUOUS
 10
189.1219467935
 20
216.7861842899
 40
1.0
 50
181.2500044265
 51
270.0000000966
  0
ARC
  8
0
 62
7
  6
CONTINUOUS
 10
190.2859479146
 20
216.7861842126
 40
1.0
 50
306.8231852884
 51
314.375000951
  0
ARC
  8
0
 62
7
  6
CONTINUOUS
 10
202.9859479509
 20
216.7861842126
 40
0.9999999992
 50
269.9999994718
 51
358.7499999885
  0
ARC
  8
0
 62
7
  6
CONTINUOUS
 10
177.5859479509
 20
216.7861842126
 40
0.9999999992
 50
269.9999994718
 51
358.7499999885
  0
ARC
  8
0
 62
7
  6
CONTINUOUS
 10
198.5359479749
 20
216.7861842126
 40
0.999999997
 50
269.9999980931
 51
358.7499999584
  0
ARC
  8
0
 62
7
  6
CONTINUOUS
 10
208.0975792973
 20
218.7861851201
 40
0.9999995463
 50
1.4999479897
 51
89.9999986385
  0
ARC
  8
0
 62
7
  6
CONTINUOUS
 10
205.0300641817
 20
218.7861853883
 40
0.9999994122
 50
90.0000014698
 51
178.75
  0
ARC
  8
0
 62
7
  6
CONTINUOUS
 10
208.2437028381
 20
218.9361847306
 40
0.849999712
 50
1.4999650736
 51
89.9999816758
  0
ARC
  8
0
 62
7
  6
CONTINUOUS
 10
173.6159896467
 20
238.7861840929
 40
1.0
 50
358.7500068623
 51
89.9999998503
  0
ARC
  8
0
 62
7
  6
CONTINUOUS
 10
148.2159896467
 20
238.7861840929
 40
1.0
 50
358.7500068623
 51
89.9999998503
  0
ARC
  8
0
 62
7
  6
CONTINUOUS
 10
163.2419032343
 20
238.7861842126
 40
1.0
 50
90.0
 51
181.2502300669
  0
ARC
  8
0
 62
7
  6
CONTINUOUS
 10
137.8419050875
 20
238.7861842126
 40
1.0
 50
90.0
 51
181.25
  0
ARC
  8
0
 62
7
  6
CONTINUOUS
 10
207.6786045759
 20
234.7861842126
 40
1.0
 50
1.5
 51
90.0
  0
ARC
  8
0
 62
7
  6
CONTINUOUS
 10
211.6789473684
 20
236.7861842126
 40
1.0
 50
270.0
 51
360.0
  0
ARC
  8
0
 62
7
  6
CONTINUOUS
 10
211.6789473684
 20
238.7861842126
 40
1.0
 50
0.0
 51
90.0
  0
ARC
  8
0
 62
7
  6
CONTINUOUS
 10
199.0159896493
 20
238.7861842126
 40
1.0
 50
358.7497657216
 51
89.9999998503
  0
ARC
  8
0
 62
7
  6
CONTINUOUS
 10
188.6419032344
 20
238.7861842126
 40
1.0
 50
90.0
 51
181.2502300714
  0
ARC
  8
0
 62
7
  6
CONTINUOUS
 10
308.3869074064
 20
223.7545009056
 40
12.031683307
 50
6.0
 51
90.0
  0
ARC
  8
0
 62
7
  6
CONTINUOUS
 10
318.3423684211
 20
216.7661842126
 40
0.98
 50
270.0
 51
360.0
  0
ARC
  8
0
 62
7
  6
CONTINUOUS
 10
321.5215603325
 20
217.7861842126
 40
2.0
 50
270.0
 51
293.6176251962
  0
ARC
  8
0
 62
7
  6
CONTINUOUS
 10
320.1723684211
 20
218.9361842126
 40
0.85
 50
90.0
 51
180.0
  0
ARC
  8
0
 62
7
  6
CONTINUOUS
 10
296.7473684211
 20
227.7861842126
 40
12.0
 50
90.0
 51
270.0
  0
CIRCLE
  8
0
 62
7
  6
CONTINUOUS
 10
296.9223684211
 20
228.9861842126
 40
4.175
  0
ARC
  8
0
 62
7
  6
CONTINUOUS
 10
298.7013511498
 20
228.9861842126
 40
11.0
 50
43.1134761482
 51
54.7524930079
  0
ARC
  8
0
 62
7
  6
CONTINUOUS
 10
308.3869074064
 20
238.0540413555
 40
2.2678571428
 50
223.1134761482
 51
270.0
  0
ARC
  8
SURF
 62
7
  6
CONTINUOUS
 10
308.3869074064
 20
238.0540413555
 40
2.2678571428
 50
223.113427584
 51
269.5146432447
  0
ARC
  8
0
 62
7
  6
CONTINUOUS
 10
305.6266654477
 20
238.7861842126
 40
0.9999995719
 50
90.0
 51
234.7525083505
  0
ARC
  8
0
 62
7
  6
CONTINUOUS
 10
323.1231765096
 20
217.7861842126
 40
2.0
 50
186.0
 51
270.0
  0
CIRCLE
  8
0
 62
7
  6
CONTINUOUS
 10
347.7223684211
 20
228.9861842126
 40
4.175
  0
ARC
  8
0
 62
7
  6
CONTINUOUS
 10
347.8973684211
 20
227.7861842126
 40
12.0
 50
270.0
 51
90.0
  0
ENDSEC
  0
EOF
