  0
SECTION
  2
HEADER
  9
$EXTMAX
 10
420.0
 20
297.0
 30
0.0
  9
$EXTMIN
 10
0.0
 20
0.0
 30
0.0
  9
$LIMMIN
 10
0.0
 20
0.0
  9
$LIMMAX
 10
420.0
 20
297.0
  9
$VIEWCTR
 10
210.0
 20
148.5
  9
$VIEWSIZE
 40
297.0
  9
$CLAYER
  8
0
  9
$LTSCALE
 40
23.1
  9
$CELTYPE
  6
BYLAYER
  9
$DIMSCALE
 40
1.0
  9
$DIMASZ
 40
3.5
  9
$DIMEXO
 40
1.0
  9
$DIMDLI
 40
15.96
  9
$DIMEXE
 40
2.0
  9
$DIMCEN
 40
3.78
  9
$DIMLFAC
 40
1.0
  9
$DIMBLK
  1
_FILLED
  9
$DIMTXT
 40
3.5
  9
$AUNITS
 70
0
  9
$PDMODE
 70
3
  9
$PDSIZE
 40
0.3125
  9
$TILEMODE
 70
1
  0
ENDSEC
  0
SECTION
  2
TABLES
  0
TABLE
  2
LTYPE
 70
6
  0
LTYPE
  2
BYBLOCK
 70
0
  3

 72
65
 73
0
 40
0.0
  0
LTYPE
  2
BYLAYER
 70
0
  3

 72
65
 73
0
 40
0.0
  0
LTYPE
  2
CONTINUOUS
 70
64
  3
Solid line
 72
65
 73
0
 40
0.0
  0
LTYPE
  2
CENTER
 70
64
  3
____ _ ____ _ ____ _ ____ _ ____ _ ____ _ ____
 72
65
 73
4
 40
0.6
 49
0.375
 49
-0.075
 49
0.075
 49
-0.075
  0
LTYPE
  2
HIDDEN
 70
64
  3
- - - - - - - - - - - - - - - - - - - -
 72
65
 73
2
 40
0.2
 49
0.1
 49
-0.1
  0
LTYPE
  2
PHANTOM
 70
64
  3
_____ _ _ _____ _ _ _____ _ _ _____
 72
65
 73
6
 40
0.8
 49
0.45
 49
-0.05
 49
0.1
 49
-0.05
 49
0.1
 49
-0.05
  0
LTYPE
  2
DOT
 70
64
  3
. . . . . . . . . . . . . . . . . . . .
 72
65
 73
2
 40
0.2
 49
0.1
 49
-0.1
  0
LTYPE
  2
DASHED
 70
64
  3
- - - - - - - - - - - - - - - - - - - -
 72
65
 73
2
 40
0.2
 49
0.1
 49
-0.1
  0
ENDTAB
  0
TABLE
  2
LAYER
 70
36
  0
LAYER
  2
0
 70
0
 62
7
  6
CONTINUOUS
  0
LAYER
  2
DEFAULT_1
 70
0
 62
7
  6
CENTER
  0
LAYER
  2
DEFAULT_2
 70
0
 62
8
  6
HIDDEN
  0
LAYER
  2
DEFAULT_3
 70
0
 62
7
  6
PHANTOM
  0
LAYER
  2
CURVE
 70
0
 62
7
  6
CONTINUOUS
  0
LAYER
  2
PLANE
 70
0
 62
7
  6
CONTINUOUS
  0
LAYER
  2
SURF
 70
0
 62
7
  6
CONTINUOUS
  0
LAYER
  2
SURFACE
 70
0
 62
7
  6
CONTINUOUS
  0
ENDTAB
  0
TABLE
  2
STYLE
 70
1
  0
STYLE
  2
STANDARD
 70
0
 40
0.0
 41
0.8
 50
0.0
 71
0
 42
0.2
  3
txt
  4

  0
STYLE
  2
TEXTSTYLE_1
 70
0
 40
0.0
 41
0.8
 50
0.0
 71
0
 42
0.2
  3
gdt
  4

  0
STYLE
  2
TEXTSTYLE_2
 70
0
 40
0.0
 41
0.6
 50
0.0
 71
0
 42
0.2
  3
txt
  4

  0
STYLE
  2
TEXTSTYLE_3
 70
0
 40
0.0
 41
1.0
 50
0.0
 71
0
 42
0.2
  3
ftb_____.ttf
  4

  0
STYLE
  2
TEXTSTYLE_4
 70
0
 40
0.0
 41
1.0
 50
0.0
 71
0
 42
0.2
  3
fti_____.ttf
  4

  0
STYLE
  2
TEXTSTYLE_5
 70
0
 40
0.0
 41
1.0
 50
0.0
 71
0
 42
0.2
  3
frutiger light.ttf
  4

  0
STYLE
  2
TEXTSTYLE_6
 70
0
 40
0.0
 41
0.7
 50
0.0
 71
0
 42
0.2
  3
txt
  4

  0
STYLE
  2
TEXTSTYLE_7
 70
0
 40
0.0
 41
0.8
 50
0.0
 71
0
 42
0.2
  3
txt
  4

  0
ENDTAB
  0
ENDSEC
  0
SECTION
  2
BLOCKS
  0
BLOCK
  8
0
 62
2
  6
CONTINUOUS
  2
UNI_LOGO2_BL1
 70
64
 10
382.7840918555
 20
35.5067593403
  0
TEXT
  8
0
 62
7
  6
CONTINUOUS
 10
373.842376864
 20
30.5995157174
  7
TEXTSTYLE_4
 40
1.0655737705
  1
The brand for plastic modular belts and chains
 41
1.0
 72
0
  0
LINE
  8
0
 62
7
  6
CONTINUOUS
 10
358.7621602445
 20
36.0805298321
 11
358.7621602445
 21
33.9493822911
  0
LINE
  8
0
 62
7
  6
CONTINUOUS
 10
359.0512227376
 20
30.9584509954
 11
359.0512227376
 21
31.0552420547
  0
LINE
  8
0
 62
7
  6
CONTINUOUS
 10
358.7621602445
 20
31.0229783683
 11
358.8199727462
 21
30.8293962497
  0
LINE
  8
0
 62
7
  6
CONTINUOUS
 10
360.1556028675
 20
33.867415078
 11
360.1556028675
 21
36.0805298321
  0
LINE
  8
0
 62
7
  6
CONTINUOUS
 10
361.0746601894
 20
32.0231527829
 11
361.0746601894
 21
30.5067593403
  0
LINE
  8
0
 62
7
  6
CONTINUOUS
 10
361.3637227445
 20
30.5067593403
 11
361.3637227445
 21
31.2488242184
  0
LINE
  8
0
 62
7
  6
CONTINUOUS
 10
361.3637227445
 20
31.3778789641
 11
361.3637227445
 21
32.0231527829
  0
LINE
  8
0
 62
7
  6
CONTINUOUS
 10
358.8199727462
 20
31.216560532
 11
358.7621602445
 21
31.0229783683
  0
LINE
  8
0
 62
7
  6
CONTINUOUS
 10
359.1668477307
 20
30.7971325633
 11
359.0512227376
 21
30.9584509954
  0
LINE
  8
0
 62
7
  6
CONTINUOUS
 10
360.2652852997
 20
31.3133515913
 11
360.3230977445
 21
31.216560532
  0
LINE
  8
0
 62
7
  6
CONTINUOUS
 10
360.6121602997
 20
31.216560532
 11
360.5543476894
 21
31.3456152777
  0
LINE
  8
0
 62
7
  6
CONTINUOUS
 10
362.0408487691
 20
36.0805298321
 11
362.0408487691
 21
34.2772511436
  0
LINE
  8
0
 62
7
  6
CONTINUOUS
 10
362.0408487691
 20
32.9657757338
 11
362.0408487691
 21
32.3100380288
  0
LINE
  8
0
 62
7
  6
CONTINUOUS
 10
362.4043477445
 20
31.1520331591
 11
362.4043477445
 21
30.5067593403
  0
LINE
  8
0
 62
7
  6
CONTINUOUS
 10
362.6934101343
 20
30.5067593403
 11
362.6934101343
 21
31.1520331591
  0
LINE
  8
0
 62
7
  6
CONTINUOUS
 10
359.0512227376
 20
31.0552420547
 11
359.1090352445
 21
31.1842968456
  0
LINE
  8
0
 62
7
  6
CONTINUOUS
 10
358.8199727462
 20
30.8293962497
 11
358.9355977445
 21
30.7003414814
  0
LINE
  8
0
 62
7
  6
CONTINUOUS
 10
362.3465351343
 20
31.2810879048
 11
362.4043477445
 21
31.1520331591
  0
LINE
  8
0
 62
7
  6
CONTINUOUS
 10
363.1559103548
 20
30.7971325633
 11
363.2137226343
 21
30.668077795
  0
LINE
  8
0
 62
7
  6
CONTINUOUS
 10
362.6934101343
 20
31.1520331591
 11
362.6355978548
 21
31.3133515913
  0
LINE
  8
0
 62
7
  6
CONTINUOUS
 10
363.1559103548
 20
31.3456152777
 11
363.1559103548
 21
31.2810879048
  0
LINE
  8
0
 62
7
  6
CONTINUOUS
 10
363.1559103548
 20
30.8939236226
 11
363.1559103548
 21
30.7971325633
  0
LINE
  8
0
 62
7
  6
CONTINUOUS
 10
363.4342913921
 20
32.3100380288
 11
363.4342913921
 21
36.0805298321
  0
LINE
  8
0
 62
7
  6
CONTINUOUS
 10
363.4449727445
 20
30.7648688543
 11
363.4449727445
 21
30.8293962497
  0
LINE
  8
0
 62
7
  6
CONTINUOUS
 10
363.7621602445
 20
36.0805298321
 11
363.7621602445
 21
32.3100380288
  0
LINE
  8
0
 62
7
  6
CONTINUOUS
 10
360.5543476894
 20
30.7003414814
 11
360.6121602997
 21
30.8293962497
  0
LINE
  8
0
 62
7
  6
CONTINUOUS
 10
364.9480979651
 20
30.6035504109
 11
364.890285024
 21
30.7648688543
  0
LINE
  8
0
 62
7
  6
CONTINUOUS
 10
364.6012229651
 20
31.2810879048
 11
364.6012229651
 21
31.1842968456
  0
LINE
  8
0
 62
7
  6
CONTINUOUS
 10
364.6012229651
 20
31.0552420547
 11
364.6012229651
 21
30.8616599362
  0
LINE
  8
0
 62
7
  6
CONTINUOUS
 10
364.890285024
 20
30.7648688543
 11
364.890285024
 21
31.2810879048
  0
LINE
  8
0
 62
7
  6
CONTINUOUS
 10
365.1556028675
 20
32.3100380288
 11
365.1556028675
 21
34.1133167174
  0
LINE
  8
0
 62
7
  6
CONTINUOUS
 10
365.1556028675
 20
35.4247921272
 11
365.1556028675
 21
36.0805298321
  0
LINE
  8
0
 62
7
  6
CONTINUOUS
 10
365.4684104651
 20
32.0231527829
 11
365.4684104651
 21
31.8618343508
  0
LINE
  8
0
 62
7
  6
CONTINUOUS
 10
365.4684104651
 20
31.5391973962
 11
365.4684104651
 21
30.5067593403
  0
LINE
  8
0
 62
7
  6
CONTINUOUS
 10
365.757472524
 20
30.5067593403
 11
365.757472524
 21
31.5391973962
  0
LINE
  8
0
 62
7
  6
CONTINUOUS
 10
365.757472524
 20
31.8618343508
 11
365.757472524
 21
32.0231527829
  0
LINE
  8
0
 62
7
  6
CONTINUOUS
 10
360.3230977445
 20
30.8293962497
 11
360.2652852997
 21
30.7326051679
  0
LINE
  8
0
 62
7
  6
CONTINUOUS
 10
362.6355978548
 20
31.3133515913
 11
362.5777852445
 21
31.3778789641
  0
LINE
  8
0
 62
7
  6
CONTINUOUS
 10
363.5027853548
 20
30.7003414814
 11
363.4449727445
 21
30.7648688543
  0
LINE
  8
0
 62
7
  6
CONTINUOUS
 10
364.6590352445
 20
30.5712867188
 11
364.716847524
 21
30.5067593403
  0
LINE
  8
0
 62
7
  6
CONTINUOUS
 10
364.6012229651
 20
30.668077795
 11
364.6590352445
 21
30.5712867188
  0
LINE
  8
0
 62
7
  6
CONTINUOUS
 10
365.0059102445
 20
30.5067593403
 11
364.9480979651
 21
30.6035504109
  0
LINE
  8
0
 62
7
  6
CONTINUOUS
 10
364.890285024
 20
31.2810879048
 11
364.8324727445
 21
31.3778789641
  0
LINE
  8
0
 62
7
  6
CONTINUOUS
 10
366.2199727445
 20
31.5391973962
 11
366.2199727445
 21
30.5067593403
  0
LINE
  8
0
 62
7
  6
CONTINUOUS
 10
366.5090354651
 20
30.5067593403
 11
366.5090354651
 21
31.2488242184
  0
LINE
  8
0
 62
7
  6
CONTINUOUS
 10
366.5090354651
 20
31.3778789641
 11
366.5090354651
 21
31.5391973962
  0
LINE
  8
0
 62
7
  6
CONTINUOUS
 10
367.0408487691
 20
34.5231527829
 11
367.0408487691
 21
32.3100380288
  0
LINE
  8
0
 62
7
  6
CONTINUOUS
 10
358.9355977445
 20
31.3456152777
 11
358.8199727462
 21
31.216560532
  0
LINE
  8
0
 62
7
  6
CONTINUOUS
 10
359.1090352445
 20
31.1842968456
 11
359.1668477307
 21
31.2488242184
  0
LINE
  8
0
 62
7
  6
CONTINUOUS
 10
358.9355977445
 20
30.7003414814
 11
359.0512227376
 21
30.6358140973
  0
LINE
  8
0
 62
7
  6
CONTINUOUS
 10
359.3402852307
 20
30.7003414814
 11
359.1668477307
 21
30.7971325633
  0
LINE
  8
0
 62
7
  6
CONTINUOUS
 10
364.543410024
 20
31.3456152777
 11
364.6012229651
 21
31.2810879048
  0
LINE
  8
0
 62
7
  6
CONTINUOUS
 10
367.491847524
 20
31.2810879048
 11
367.5496604651
 21
31.1197694727
  0
LINE
  8
0
 62
7
  6
CONTINUOUS
 10
367.838722524
 20
31.1197694727
 11
367.7809102445
 21
31.2810879048
  0
LINE
  8
0
 62
7
  6
CONTINUOUS
 10
367.5496604651
 20
31.1197694727
 11
367.5496604651
 21
30.5067593403
  0
LINE
  8
0
 62
7
  6
CONTINUOUS
 10
367.838722524
 20
30.5067593403
 11
367.838722524
 21
31.1197694727
  0
LINE
  8
0
 62
7
  6
CONTINUOUS
 10
368.3012227445
 20
31.3456152777
 11
368.3012227445
 21
31.2810879048
  0
LINE
  8
0
 62
7
  6
CONTINUOUS
 10
368.4342913921
 20
32.3100380288
 11
368.4342913921
 21
34.4411855698
  0
LINE
  8
0
 62
7
  6
CONTINUOUS
 10
368.7621602445
 20
36.0805298321
 11
368.7621602445
 21
32.3100380288
  0
LINE
  8
0
 62
7
  6
CONTINUOUS
 10
363.4449727445
 20
30.8293962497
 11
363.5027853548
 21
30.926187309
  0
LINE
  8
0
 62
7
  6
CONTINUOUS
 10
359.0512227376
 20
30.6358140973
 11
359.2246602583
 21
30.5712867188
  0
LINE
  8
0
 62
7
  6
CONTINUOUS
 10
360.5543476894
 20
31.3456152777
 11
360.3809101894
 21
31.4424063369
  0
LINE
  8
0
 62
7
  6
CONTINUOUS
 10
363.2137226343
 20
30.668077795
 11
363.3871601343
 21
30.5712867188
  0
LINE
  8
0
 62
7
  6
CONTINUOUS
 10
362.2309102445
 20
31.3456152777
 11
362.3465351343
 21
31.2810879048
  0
LINE
  8
0
 62
7
  6
CONTINUOUS
 10
362.5777852445
 20
31.3778789641
 11
362.4621603548
 21
31.4424063369
  0
LINE
  8
0
 62
7
  6
CONTINUOUS
 10
368.3012227445
 20
30.7648688543
 11
368.4168479651
 21
30.6358140973
  0
LINE
  8
0
 62
7
  6
CONTINUOUS
 10
368.6480977445
 20
30.7003414814
 11
368.5902854651
 21
30.7648688543
  0
LINE
  8
0
 62
7
  6
CONTINUOUS
 10
368.3012227445
 20
31.2810879048
 11
368.4168479651
 21
31.1520331591
  0
LINE
  8
0
 62
7
  6
CONTINUOUS
 10
367.7809102445
 20
31.2810879048
 11
367.7230979651
 21
31.3778789641
  0
LINE
  8
0
 62
7
  6
CONTINUOUS
 10
370.1512223035
 20
30.7003414814
 11
370.1512223035
 21
30.7648688543
  0
LINE
  8
0
 62
7
  6
CONTINUOUS
 10
370.1556028675
 20
32.3100380288
 11
370.1556028675
 21
36.0805298321
  0
LINE
  8
0
 62
7
  6
CONTINUOUS
 10
363.2137226343
 20
31.4101426505
 11
363.1559103548
 21
31.3456152777
  0
LINE
  8
0
 62
7
  6
CONTINUOUS
 10
360.091847717
 20
31.3778789641
 11
360.2652852997
 21
31.3133515913
  0
LINE
  8
0
 62
7
  6
CONTINUOUS
 10
364.8324727445
 20
31.3778789641
 11
364.716847524
 21
31.4424063369
  0
LINE
  8
0
 62
7
  6
CONTINUOUS
 10
368.6480977445
 20
31.216560532
 11
368.5902854651
 21
31.2810879048
  0
LINE
  8
0
 62
7
  6
CONTINUOUS
 10
369.8043479651
 20
30.8293962497
 11
369.8621602445
 21
30.7648688543
  0
LINE
  8
0
 62
7
  6
CONTINUOUS
 10
370.1512223035
 20
30.7648688543
 11
370.0355977445
 21
30.8939236226
  0
LINE
  8
0
 62
7
  6
CONTINUOUS
 10
369.8043479651
 20
31.3456152777
 11
369.8621602445
 21
31.2810879048
  0
LINE
  8
0
 62
7
  6
CONTINUOUS
 10
370.1512223035
 20
31.2810879048
 11
370.0355977445
 21
31.4101426505
  0
LINE
  8
0
 62
7
  6
CONTINUOUS
 10
363.4449727445
 20
31.2810879048
 11
363.5027853548
 21
31.3456152777
  0
LINE
  8
0
 62
7
  6
CONTINUOUS
 10
363.2715352445
 20
31.0229783683
 11
363.1559103548
 21
30.8939236226
  0
LINE
  8
0
 62
7
  6
CONTINUOUS
 10
364.6012229651
 20
30.8616599362
 11
364.543410024
 21
30.7971325633
  0
LINE
  8
0
 62
7
  6
CONTINUOUS
 10
364.543410024
 20
30.6035504109
 11
364.6012229651
 21
30.668077795
  0
LINE
  8
0
 62
7
  6
CONTINUOUS
 10
363.3871601343
 20
30.5712867188
 11
363.5027853548
 21
30.5390230296
  0
LINE
  8
0
 62
7
  6
CONTINUOUS
 10
360.3809101894
 20
31.4424063369
 11
360.1496602445
 21
31.5069337098
  0
LINE
  8
0
 62
7
  6
CONTINUOUS
 10
363.7340351343
 20
30.6358140973
 11
363.5027853548
 21
30.7003414814
  0
LINE
  8
0
 62
7
  6
CONTINUOUS
 10
362.4621603548
 20
31.4424063369
 11
362.2887228548
 21
31.5069337098
  0
LINE
  8
0
 62
7
  6
CONTINUOUS
 10
364.716847524
 20
31.4424063369
 11
364.543410024
 21
31.5069337098
  0
LINE
  8
0
 62
7
  6
CONTINUOUS
 10
367.3762229651
 20
31.3456152777
 11
367.491847524
 21
31.2810879048
  0
LINE
  8
0
 62
7
  6
CONTINUOUS
 10
367.7230979651
 20
31.3778789641
 11
367.6074727445
 21
31.4424063369
  0
LINE
  8
0
 62
7
  6
CONTINUOUS
 10
359.2246602583
 20
30.5712867188
 11
359.3980977583
 21
30.5390230296
  0
LINE
  8
0
 62
7
  6
CONTINUOUS
 10
359.6871602721
 20
30.6358140973
 11
359.3402852307
 21
30.7003414814
  0
LINE
  8
0
 62
7
  6
CONTINUOUS
 10
362.1152853548
 20
31.3778789641
 11
362.2309102445
 21
31.3456152777
  0
LINE
  8
0
 62
7
  6
CONTINUOUS
 10
364.4277854651
 20
31.3778789641
 11
364.543410024
 21
31.3456152777
  0
LINE
  8
0
 62
7
  6
CONTINUOUS
 10
368.7637229651
 20
30.668077795
 11
368.6480977445
 21
30.7003414814
  0
LINE
  8
0
 62
7
  6
CONTINUOUS
 10
367.2605977445
 20
31.3778789641
 11
367.3762229651
 21
31.3456152777
  0
LINE
  8
0
 62
7
  6
CONTINUOUS
 10
368.4168479651
 20
30.6358140973
 11
368.5902854651
 21
30.5712867188
  0
LINE
  8
0
 62
7
  6
CONTINUOUS
 10
367.6074727445
 20
31.4424063369
 11
367.4340352445
 21
31.5069337098
  0
LINE
  8
0
 62
7
  6
CONTINUOUS
 10
368.8215352445
 20
31.1520331591
 11
368.6480977445
 21
31.216560532
  0
LINE
  8
0
 62
7
  6
CONTINUOUS
 10
369.6309104651
 20
30.8939236226
 11
369.8043479651
 21
30.8293962497
  0
LINE
  8
0
 62
7
  6
CONTINUOUS
 10
370.0355977445
 20
31.4101426505
 11
369.8621602445
 21
31.4746700234
  0
LINE
  8
0
 62
7
  6
CONTINUOUS
 10
368.4168479651
 20
31.1520331591
 11
368.6480977445
 21
31.0552420547
  0
LINE
  8
0
 62
7
  6
CONTINUOUS
 10
370.0355977445
 20
30.8939236226
 11
369.8043479651
 21
30.9907146818
  0
LINE
  8
0
 62
7
  6
CONTINUOUS
 10
368.5902854651
 20
31.2810879048
 11
368.6480977445
 21
31.3456152777
  0
LINE
  8
0
 62
7
  6
CONTINUOUS
 10
359.0512227376
 20
31.4101426505
 11
358.9355977445
 21
31.3456152777
  0
LINE
  8
0
 62
7
  6
CONTINUOUS
 10
359.1668477307
 20
31.2488242184
 11
359.3402852307
 21
31.3456152777
  0
LINE
  8
0
 62
7
  6
CONTINUOUS
 10
361.4793477997
 20
31.4424063369
 11
361.3637227445
 21
31.3778789641
  0
LINE
  8
0
 62
7
  6
CONTINUOUS
 10
361.3637227445
 20
31.2488242184
 11
361.4793477997
 21
31.3133515913
  0
LINE
  8
0
 62
7
  6
CONTINUOUS
 10
360.3809101894
 20
30.6035504109
 11
360.5543476894
 21
30.7003414814
  0
LINE
  8
0
 62
7
  6
CONTINUOUS
 10
359.3980977583
 20
30.5390230296
 11
359.744972717
 21
30.5067593403
  0
LINE
  8
0
 62
7
  6
CONTINUOUS
 10
363.5027853548
 20
30.5390230296
 11
363.7340351343
 21
30.5067593403
  0
LINE
  8
0
 62
7
  6
CONTINUOUS
 10
361.8840352445
 20
31.4101426505
 11
362.1152853548
 21
31.3778789641
  0
LINE
  8
0
 62
7
  6
CONTINUOUS
 10
364.1965353548
 20
31.4101426505
 11
364.4277854651
 21
31.3778789641
  0
LINE
  8
0
 62
7
  6
CONTINUOUS
 10
368.6480977445
 20
31.0552420547
 11
369.6309104651
 21
30.8939236226
  0
LINE
  8
0
 62
7
  6
CONTINUOUS
 10
369.8043479651
 20
30.9907146818
 11
368.8215352445
 21
31.1520331591
  0
LINE
  8
0
 62
7
  6
CONTINUOUS
 10
362.2887228548
 20
31.5069337098
 11
362.1152853548
 21
31.5391973962
  0
LINE
  8
0
 62
7
  6
CONTINUOUS
 10
368.5902854651
 20
30.5712867188
 11
368.7637229651
 21
30.5390230296
  0
LINE
  8
0
 62
7
  6
CONTINUOUS
 10
367.4340352445
 20
31.5069337098
 11
367.2605977445
 21
31.5391973962
  0
LINE
  8
0
 62
7
  6
CONTINUOUS
 10
369.6887227445
 20
31.3778789641
 11
369.8043479651
 21
31.3456152777
  0
LINE
  8
0
 62
7
  6
CONTINUOUS
 10
369.8621602445
 20
30.7648688543
 11
369.8043479651
 21
30.7003414814
  0
LINE
  8
0
 62
7
  6
CONTINUOUS
 10
368.4168479651
 20
31.4424063369
 11
368.3012227445
 21
31.3456152777
  0
LINE
  8
0
 62
7
  6
CONTINUOUS
 10
363.3293478548
 20
31.4746700234
 11
363.2137226343
 21
31.4101426505
  0
LINE
  8
0
 62
7
  6
CONTINUOUS
 10
363.3871601343
 20
31.0875057863
 11
363.2715352445
 21
31.0229783683
  0
LINE
  8
0
 62
7
  6
CONTINUOUS
 10
363.5027853548
 20
30.926187309
 11
363.6184102445
 21
30.9907146818
  0
LINE
  8
0
 62
7
  6
CONTINUOUS
 10
361.0746601894
 20
30.5067593403
 11
361.3637227445
 21
30.5067593403
  0
LINE
  8
0
 62
7
  6
CONTINUOUS
 10
362.4043477445
 20
30.5067593403
 11
362.6934101343
 21
30.5067593403
  0
LINE
  8
0
 62
7
  6
CONTINUOUS
 10
363.7340351343
 20
30.5067593403
 11
364.0809101343
 21
30.5067593403
  0
LINE
  8
0
 62
7
  6
CONTINUOUS
 10
364.716847524
 20
30.5067593403
 11
365.0059102445
 21
30.5067593403
  0
LINE
  8
0
 62
7
  6
CONTINUOUS
 10
365.4684104651
 20
30.5067593403
 11
365.757472524
 21
30.5067593403
  0
LINE
  8
0
 62
7
  6
CONTINUOUS
 10
366.2199727445
 20
30.5067593403
 11
366.5090354651
 21
30.5067593403
  0
LINE
  8
0
 62
7
  6
CONTINUOUS
 10
367.5496604651
 20
30.5067593403
 11
367.838722524
 21
30.5067593403
  0
LINE
  8
0
 62
7
  6
CONTINUOUS
 10
369.1105979651
 20
30.5067593403
 11
369.4574729651
 21
30.5067593403
  0
LINE
  8
0
 62
7
  6
CONTINUOUS
 10
369.4574729651
 20
30.6358140973
 11
369.1105979651
 21
30.6358140973
  0
LINE
  8
0
 62
7
  6
CONTINUOUS
 10
364.0809101343
 20
30.6358140973
 11
363.7340351343
 21
30.6358140973
  0
LINE
  8
0
 62
7
  6
CONTINUOUS
 10
368.5902854651
 20
30.7648688543
 11
368.3012227445
 21
30.7648688543
  0
LINE
  8
0
 62
7
  6
CONTINUOUS
 10
360.6121602997
 20
30.8293962497
 11
360.3230977445
 21
30.8293962497
  0
LINE
  8
0
 62
7
  6
CONTINUOUS
 10
359.6871602721
 20
31.4101426505
 11
360.091847717
 21
31.3778789641
  0
LINE
  8
0
 62
7
  6
CONTINUOUS
 10
360.1496602445
 20
31.5069337098
 11
359.744972717
 21
31.5391973962
  0
LINE
  8
0
 62
7
  6
CONTINUOUS
 10
368.7637229651
 20
30.5390230296
 11
369.1105979651
 21
30.5067593403
  0
LINE
  8
0
 62
7
  6
CONTINUOUS
 10
369.1105979651
 20
30.6358140973
 11
368.7637229651
 21
30.668077795
  0
LINE
  8
0
 62
7
  6
CONTINUOUS
 10
364.543410024
 20
31.5069337098
 11
364.1965353548
 21
31.5391973962
  0
LINE
  8
0
 62
7
  6
CONTINUOUS
 10
369.3418477445
 20
31.4101426505
 11
369.6887227445
 21
31.3778789641
  0
LINE
  8
0
 62
7
  6
CONTINUOUS
 10
369.6887227445
 20
31.5069337098
 11
369.3418477445
 21
31.5391973962
  0
LINE
  8
0
 62
7
  6
CONTINUOUS
 10
367.0293479651
 20
31.4101426505
 11
367.2605977445
 21
31.3778789641
  0
LINE
  8
0
 62
7
  6
CONTINUOUS
 10
369.8621602445
 20
31.4746700234
 11
369.6887227445
 21
31.5069337098
  0
LINE
  8
0
 62
7
  6
CONTINUOUS
 10
370.0355977445
 20
30.6035504109
 11
370.1512223035
 21
30.7003414814
  0
LINE
  8
0
 62
7
  6
CONTINUOUS
 10
364.543410024
 20
30.7971325633
 11
364.369972524
 21
30.7003414814
  0
LINE
  8
0
 62
7
  6
CONTINUOUS
 10
366.624660024
 20
31.4424063369
 11
366.5090354651
 21
31.3778789641
  0
LINE
  8
0
 62
7
  6
CONTINUOUS
 10
366.5090354651
 20
31.2488242184
 11
366.624660024
 21
31.3133515913
  0
LINE
  8
0
 62
7
  6
CONTINUOUS
 10
359.2246602583
 20
31.4746700234
 11
359.0512227376
 21
31.4101426505
  0
LINE
  8
0
 62
7
  6
CONTINUOUS
 10
361.6527851343
 20
31.5069337098
 11
361.4793477997
 21
31.4424063369
  0
LINE
  8
0
 62
7
  6
CONTINUOUS
 10
361.4793477997
 20
31.3133515913
 11
361.6527851343
 21
31.3778789641
  0
LINE
  8
0
 62
7
  6
CONTINUOUS
 10
360.2652852997
 20
30.7326051679
 11
360.091847717
 21
30.668077795
  0
LINE
  8
0
 62
7
  6
CONTINUOUS
 10
369.6887227445
 20
30.668077795
 11
369.4574729651
 21
30.6358140973
  0
LINE
  8
0
 62
7
  6
CONTINUOUS
 10
364.0809101343
 20
30.5067593403
 11
364.369972524
 21
30.5390230296
  0
LINE
  8
0
 62
7
  6
CONTINUOUS
 10
369.4574729651
 20
30.5067593403
 11
369.8043479651
 21
30.5390230296
  0
LINE
  8
0
 62
7
  6
CONTINUOUS
 10
359.744972717
 20
30.5067593403
 11
360.1496602445
 21
30.5390230296
  0
LINE
  8
0
 62
7
  6
CONTINUOUS
 10
360.091847717
 20
30.668077795
 11
359.6871602721
 21
30.6358140973
  0
LINE
  8
0
 62
7
  6
CONTINUOUS
 10
363.9652852445
 20
31.0552420547
 11
364.6012229651
 21
31.0552420547
  0
LINE
  8
0
 62
7
  6
CONTINUOUS
 10
364.6012229651
 20
31.1842968456
 11
363.9652852445
 21
31.1842968456
  0
LINE
  8
0
 62
7
  6
CONTINUOUS
 10
360.3230977445
 20
31.216560532
 11
360.6121602997
 21
31.216560532
  0
LINE
  8
0
 62
7
  6
CONTINUOUS
 10
363.1559103548
 20
31.2810879048
 11
363.4449727445
 21
31.2810879048
  0
LINE
  8
0
 62
7
  6
CONTINUOUS
 10
369.8621602445
 20
31.2810879048
 11
370.1512223035
 21
31.2810879048
  0
LINE
  8
0
 62
7
  6
CONTINUOUS
 10
363.8496603548
 20
31.4101426505
 11
364.1965353548
 21
31.4101426505
  0
LINE
  8
0
 62
7
  6
CONTINUOUS
 10
368.9949727445
 20
31.4101426505
 11
369.3418477445
 21
31.4101426505
  0
LINE
  8
0
 62
7
  6
CONTINUOUS
 10
369.3418477445
 20
31.5391973962
 11
368.9949727445
 21
31.5391973962
  0
LINE
  8
0
 62
7
  6
CONTINUOUS
 10
367.2605977445
 20
31.5391973962
 11
367.0293479651
 21
31.5391973962
  0
LINE
  8
0
 62
7
  6
CONTINUOUS
 10
366.5090354651
 20
31.5391973962
 11
366.2199727445
 21
31.5391973962
  0
LINE
  8
0
 62
7
  6
CONTINUOUS
 10
365.757472524
 20
31.5391973962
 11
365.4684104651
 21
31.5391973962
  0
LINE
  8
0
 62
7
  6
CONTINUOUS
 10
364.1965353548
 20
31.5391973962
 11
363.8496603548
 21
31.5391973962
  0
LINE
  8
0
 62
7
  6
CONTINUOUS
 10
362.1152853548
 20
31.5391973962
 11
361.8840352445
 21
31.5391973962
  0
LINE
  8
0
 62
7
  6
CONTINUOUS
 10
365.4684104651
 20
31.8618343508
 11
365.757472524
 21
31.8618343508
  0
LINE
  8
0
 62
7
  6
CONTINUOUS
 10
365.757472524
 20
32.0231527829
 11
365.4684104651
 21
32.0231527829
  0
LINE
  8
0
 62
7
  6
CONTINUOUS
 10
361.3637227445
 20
32.0231527829
 11
361.0746601894
 21
32.0231527829
  0
LINE
  8
0
 62
7
  6
CONTINUOUS
 10
360.4015045068
 20
32.3100380288
 11
360.8140758554
 21
32.3100380288
  0
LINE
  8
0
 62
7
  6
CONTINUOUS
 10
362.0408487691
 20
32.3100380288
 11
363.4342913921
 21
32.3100380288
  0
LINE
  8
0
 62
7
  6
CONTINUOUS
 10
363.7621602445
 20
32.3100380288
 11
365.1556028675
 21
32.3100380288
  0
LINE
  8
0
 62
7
  6
CONTINUOUS
 10
367.0408487691
 20
32.3100380288
 11
368.4342913921
 21
32.3100380288
  0
LINE
  8
0
 62
7
  6
CONTINUOUS
 10
368.7621602445
 20
32.3100380288
 11
370.1556028675
 21
32.3100380288
  0
LINE
  8
0
 62
7
  6
CONTINUOUS
 10
366.798097524
 20
31.5069337098
 11
366.624660024
 21
31.4424063369
  0
LINE
  8
0
 62
7
  6
CONTINUOUS
 10
364.369972524
 20
30.5390230296
 11
364.543410024
 21
30.6035504109
  0
LINE
  8
0
 62
7
  6
CONTINUOUS
 10
369.8043479651
 20
30.5390230296
 11
370.0355977445
 21
30.6035504109
  0
LINE
  8
0
 62
7
  6
CONTINUOUS
 10
369.8043479651
 20
30.7003414814
 11
369.6887227445
 21
30.668077795
  0
LINE
  8
0
 62
7
  6
CONTINUOUS
 10
368.7637229651
 20
31.3778789641
 11
368.9949727445
 21
31.4101426505
  0
LINE
  8
0
 62
7
  6
CONTINUOUS
 10
366.798097524
 20
31.3778789641
 11
367.0293479651
 21
31.4101426505
  0
LINE
  8
0
 62
7
  6
CONTINUOUS
 10
363.7340351343
 20
31.0229783683
 11
363.9652852445
 21
31.0552420547
  0
LINE
  8
0
 62
7
  6
CONTINUOUS
 10
367.0293479651
 20
31.5391973962
 11
366.798097524
 21
31.5069337098
  0
LINE
  8
0
 62
7
  6
CONTINUOUS
 10
363.6184102445
 20
31.3778789641
 11
363.8496603548
 21
31.4101426505
  0
LINE
  8
0
 62
7
  6
CONTINUOUS
 10
368.9949727445
 20
31.5391973962
 11
368.6480977445
 21
31.5069337098
  0
LINE
  8
0
 62
7
  6
CONTINUOUS
 10
363.9652852445
 20
31.1842968456
 11
363.6184102445
 21
31.1520331591
  0
LINE
  8
0
 62
7
  6
CONTINUOUS
 10
359.744972717
 20
31.5391973962
 11
359.3980977583
 21
31.5069337098
  0
LINE
  8
0
 62
7
  6
CONTINUOUS
 10
363.8496603548
 20
31.5391973962
 11
363.4449727445
 21
31.5069337098
  0
LINE
  8
0
 62
7
  6
CONTINUOUS
 10
361.221176638
 20
33.4575790124
 11
360.565438933
 21
33.4575790124
  0
LINE
  8
0
 62
7
  6
CONTINUOUS
 10
366.624660024
 20
31.3133515913
 11
366.798097524
 21
31.3778789641
  0
LINE
  8
0
 62
7
  6
CONTINUOUS
 10
368.6480977445
 20
31.3456152777
 11
368.7637229651
 21
31.3778789641
  0
LINE
  8
0
 62
7
  6
CONTINUOUS
 10
368.6480977445
 20
31.5069337098
 11
368.4168479651
 21
31.4424063369
  0
LINE
  8
0
 62
7
  6
CONTINUOUS
 10
364.369972524
 20
30.7003414814
 11
364.0809101343
 21
30.6358140973
  0
LINE
  8
0
 62
7
  6
CONTINUOUS
 10
361.6527851343
 20
31.3778789641
 11
361.8840352445
 21
31.4101426505
  0
LINE
  8
0
 62
7
  6
CONTINUOUS
 10
361.8840352445
 20
31.5391973962
 11
361.6527851343
 21
31.5069337098
  0
LINE
  8
0
 62
7
  6
CONTINUOUS
 10
359.4559102445
 20
31.3778789641
 11
359.6871602721
 21
31.4101426505
  0
LINE
  8
0
 62
7
  6
CONTINUOUS
 10
365.9752749986
 20
34.9329888485
 11
366.6310127035
 21
34.9329888485
  0
LINE
  8
0
 62
7
  6
CONTINUOUS
 10
363.6184102445
 20
30.9907146818
 11
363.7340351343
 21
31.0229783683
  0
LINE
  8
0
 62
7
  6
CONTINUOUS
 10
363.6184102445
 20
31.1520331591
 11
363.3871601343
 21
31.0875057863
  0
LINE
  8
0
 62
7
  6
CONTINUOUS
 10
363.5027853548
 20
31.3456152777
 11
363.6184102445
 21
31.3778789641
  0
LINE
  8
0
 62
7
  6
CONTINUOUS
 10
360.1496602445
 20
30.5390230296
 11
360.3809101894
 21
30.6035504109
  0
LINE
  8
0
 62
7
  6
CONTINUOUS
 10
363.4449727445
 20
31.5069337098
 11
363.3293478548
 21
31.4746700234
  0
LINE
  8
0
 62
7
  6
CONTINUOUS
 10
359.3980977583
 20
31.5069337098
 11
359.2246602583
 21
31.4746700234
  0
LINE
  8
0
 62
7
  6
CONTINUOUS
 10
370.1556028675
 20
36.0805298321
 11
368.7621602445
 21
36.0805298321
  0
LINE
  8
0
 62
7
  6
CONTINUOUS
 10
366.7949471298
 20
36.0805298321
 11
366.3823757812
 21
36.0805298321
  0
LINE
  8
0
 62
7
  6
CONTINUOUS
 10
365.1556028675
 20
36.0805298321
 11
363.7621602445
 21
36.0805298321
  0
LINE
  8
0
 62
7
  6
CONTINUOUS
 10
363.4342913921
 20
36.0805298321
 11
362.0408487691
 21
36.0805298321
  0
LINE
  8
0
 62
7
  6
CONTINUOUS
 10
360.1556028675
 20
36.0805298321
 11
358.7621602445
 21
36.0805298321
  0
LINE
  8
0
 62
7
  6
CONTINUOUS
 10
359.3402852307
 20
31.3456152777
 11
359.4559102445
 21
31.3778789641
  0
CIRCLE
  8
0
 62
7
  6
CONTINUOUS
 10
369.458881556
 20
38.4165954059
 40
2.0901639344
  0
ARC
  8
0
 62
7
  6
CONTINUOUS
 10
360.4015045068
 20
33.9493822911
 40
1.6393442623
 50
180.0
 51
270.0
  0
ARC
  8
0
 62
7
  6
CONTINUOUS
 10
366.7949471298
 20
34.4411855698
 40
1.6393442623
 50
0.0
 51
90.0
  0
ARC
  8
0
 62
7
  6
CONTINUOUS
 10
360.8140758554
 20
33.7854478649
 40
1.4754098361
 50
270.0
 51
326.2510114041
  0
ARC
  8
0
 62
7
  6
CONTINUOUS
 10
366.3823757812
 20
34.6051199961
 40
1.4754098361
 50
90.0
 51
146.2510114041
  0
ARC
  8
0
 62
7
  6
CONTINUOUS
 10
361.221176638
 20
34.2772511436
 40
0.8196721311
 50
270.0
 51
360.0
  0
ARC
  8
0
 62
7
  6
CONTINUOUS
 10
365.9752749986
 20
34.1133167174
 40
0.8196721311
 50
90.0
 51
180.0
  0
ARC
  8
0
 62
7
  6
CONTINUOUS
 10
360.565438933
 20
33.867415078
 40
0.4098360656
 50
180.0
 51
270.0
  0
ARC
  8
0
 62
7
  6
CONTINUOUS
 10
366.6310127035
 20
34.5231527829
 40
0.4098360656
 50
0.0
 51
90.0
  0
SOLID
  8
0
 62
7
  6
CONTINUOUS
 10
365.4684104651
 20
31.8618347111
 11
365.4684104651
 21
32.0231531947
 12
365.757472524
 22
31.8618347111
 13
365.757472524
 23
32.0231531947
  0
SOLID
  8
0
 62
7
  6
CONTINUOUS
 10
359.744972717
 20
31.5391977439
 11
360.1496602445
 21
31.5069333244
 12
359.3980977583
 22
31.5069333244
 13
359.3980977583
 23
31.5069333244
  0
SOLID
  8
0
 62
7
  6
CONTINUOUS
 10
359.2246602583
 20
31.4746706537
 11
359.3980977583
 21
31.5069333244
 12
360.1496602445
 22
31.5069333244
 13
360.1496602445
 23
31.5069333244
  0
SOLID
  8
0
 62
7
  6
CONTINUOUS
 10
360.1496602445
 20
31.5069333244
 11
360.3809101894
 21
31.4424063504
 12
359.2246602583
 22
31.4746706537
 13
359.2246602583
 23
31.4746706537
  0
SOLID
  8
0
 62
7
  6
CONTINUOUS
 10
359.0512227376
 20
31.4101419116
 11
359.2246602583
 21
31.4746706537
 12
360.3809101894
 22
31.4424063504
 13
360.3809101894
 23
31.4424063504
  0
SOLID
  8
0
 62
7
  6
CONTINUOUS
 10
359.0512227376
 20
31.4101419116
 11
360.3809101894
 21
31.4424063504
 12
359.6871602721
 22
31.4101419116
 13
359.6871602721
 23
31.4101419116
  0
SOLID
  8
0
 62
7
  6
CONTINUOUS
 10
359.6871602721
 20
31.4101419116
 11
360.3809101894
 21
31.4424063504
 12
360.091847717
 22
31.3778792603
 13
360.091847717
 23
31.3778792603
  0
SOLID
  8
0
 62
7
  6
CONTINUOUS
 10
360.3809101894
 20
31.4424063504
 11
360.5543476894
 21
31.345614957
 12
360.091847717
 22
31.3778792603
 13
360.091847717
 23
31.3778792603
  0
SOLID
  8
0
 62
7
  6
CONTINUOUS
 10
360.2652852997
 20
31.3133521701
 11
360.091847717
 21
31.3778792603
 12
360.5543476894
 22
31.345614957
 13
360.5543476894
 23
31.345614957
  0
SOLID
  8
0
 62
7
  6
CONTINUOUS
 10
360.2652852997
 20
31.3133521701
 11
360.5543476894
 21
31.345614957
 12
360.3230977445
 22
31.2165606992
 13
360.3230977445
 23
31.2165606992
  0
SOLID
  8
0
 62
7
  6
CONTINUOUS
 10
360.5543476894
 20
31.345614957
 11
360.6121602997
 21
31.2165606992
 12
360.3230977445
 22
31.2165606992
 13
360.3230977445
 23
31.2165606992
  0
SOLID
  8
0
 62
7
  6
CONTINUOUS
 10
361.6527851343
 20
31.5069329918
 11
361.8840352445
 21
31.5391972951
 12
362.1152853548
 22
31.5391972951
 13
362.1152853548
 23
31.5391972951
  0
SOLID
  8
0
 62
7
  6
CONTINUOUS
 10
362.1152853548
 20
31.5391972951
 11
362.2887228548
 21
31.5069329918
 12
361.6527851343
 22
31.5069329918
 13
361.6527851343
 23
31.5069329918
  0
SOLID
  8
0
 62
7
  6
CONTINUOUS
 10
361.4793477997
 20
31.4424059016
 11
361.6527851343
 21
31.5069329918
 12
362.2887228548
 22
31.5069329918
 13
362.2887228548
 23
31.5069329918
  0
SOLID
  8
0
 62
7
  6
CONTINUOUS
 10
362.2887228548
 20
31.5069329918
 11
362.4621603548
 21
31.4424059016
 12
361.4793477997
 22
31.4424059016
 13
361.4793477997
 23
31.4424059016
  0
SOLID
  8
0
 62
7
  6
CONTINUOUS
 10
362.4621603548
 20
31.4424059016
 11
361.8840352445
 21
31.4101420472
 12
361.4793477997
 22
31.4424059016
 13
361.4793477997
 23
31.4424059016
  0
SOLID
  8
0
 62
7
  6
CONTINUOUS
 10
361.3637227445
 20
31.3778788115
 11
361.4793477997
 21
31.4424059016
 12
361.8840352445
 22
31.4101420472
 13
361.8840352445
 23
31.4101420472
  0
SOLID
  8
0
 62
7
  6
CONTINUOUS
 10
361.8840352445
 20
31.4101420472
 11
361.6527851343
 21
31.3778788115
 12
361.3637227445
 22
31.3778788115
 13
361.3637227445
 23
31.3778788115
  0
SOLID
  8
0
 62
7
  6
CONTINUOUS
 10
361.8840352445
 20
31.4101420472
 11
362.4621603548
 21
31.4424059016
 12
362.1152853548
 22
31.3778788115
 13
362.1152853548
 23
31.3778788115
  0
SOLID
  8
0
 62
7
  6
CONTINUOUS
 10
362.4621603548
 20
31.4424059016
 11
362.5777852445
 21
31.3778788115
 12
362.1152853548
 22
31.3778788115
 13
362.1152853548
 23
31.3778788115
  0
SOLID
  8
0
 62
7
  6
CONTINUOUS
 10
362.2309102445
 20
31.345614957
 11
362.1152853548
 21
31.3778788115
 12
362.5777852445
 22
31.3778788115
 13
362.5777852445
 23
31.3778788115
  0
SOLID
  8
0
 62
7
  6
CONTINUOUS
 10
362.5777852445
 20
31.3778788115
 11
362.6355978548
 21
31.3133517213
 12
362.2309102445
 22
31.345614957
 13
362.2309102445
 23
31.345614957
  0
SOLID
  8
0
 62
7
  6
CONTINUOUS
 10
362.3465351343
 20
31.2810878668
 11
362.2309102445
 21
31.345614957
 12
362.6355978548
 22
31.3133517213
 13
362.6355978548
 23
31.3133517213
  0
SOLID
  8
0
 62
7
  6
CONTINUOUS
 10
362.3465351343
 20
31.2810878668
 11
362.6355978548
 21
31.3133517213
 12
362.4043477445
 22
31.1520332377
 13
362.4043477445
 23
31.1520332377
  0
SOLID
  8
0
 62
7
  6
CONTINUOUS
 10
362.6355978548
 20
31.3133517213
 11
362.6934101343
 21
31.1520332377
 12
362.4043477445
 22
31.1520332377
 13
362.4043477445
 23
31.1520332377
  0
SOLID
  8
0
 62
7
  6
CONTINUOUS
 10
361.6527851343
 20
31.3778788115
 11
361.4793477997
 21
31.3133517213
 12
361.3637227445
 22
31.3778788115
 13
361.3637227445
 23
31.3778788115
  0
SOLID
  8
0
 62
7
  6
CONTINUOUS
 10
361.4793477997
 20
31.3133517213
 11
361.3637227445
 21
31.2488235635
 12
361.3637227445
 22
31.3778788115
 13
361.3637227445
 23
31.3778788115
  0
SOLID
  8
0
 62
7
  6
CONTINUOUS
 10
361.3637227445
 20
31.2488235635
 11
361.0746601894
 21
30.5067593033
 12
361.3637227445
 22
31.3778788115
 13
361.3637227445
 23
31.3778788115
  0
SOLID
  8
0
 62
7
  6
CONTINUOUS
 10
361.3637227445
 20
31.3778788115
 11
361.0746601894
 21
30.5067593033
 12
361.3637227445
 22
32.0231527459
 13
361.3637227445
 23
32.0231527459
  0
SOLID
  8
0
 62
7
  6
CONTINUOUS
 10
361.0746601894
 20
30.5067593033
 11
361.0746601894
 21
32.0231527459
 12
361.3637227445
 22
32.0231527459
 13
361.3637227445
 23
32.0231527459
  0
SOLID
  8
0
 62
7
  6
CONTINUOUS
 10
361.3637227445
 20
31.2488235635
 11
361.3637227445
 21
30.5067593033
 12
361.0746601894
 22
30.5067593033
 13
361.0746601894
 23
30.5067593033
  0
SOLID
  8
0
 62
7
  6
CONTINUOUS
 10
362.4043477445
 20
30.5067593033
 11
362.4043477445
 21
31.1520332377
 12
362.6934101343
 22
31.1520332377
 13
362.6934101343
 23
31.1520332377
  0
SOLID
  8
0
 62
7
  6
CONTINUOUS
 10
362.6934101343
 20
31.1520332377
 11
362.6934101343
 21
30.5067593033
 12
362.4043477445
 22
30.5067593033
 13
362.4043477445
 23
30.5067593033
  0
SOLID
  8
0
 62
7
  6
CONTINUOUS
 10
363.4449727445
 20
31.506933758
 11
363.8496603548
 21
31.5391977507
 12
364.1965353548
 22
31.5391977507
 13
364.1965353548
 23
31.5391977507
  0
SOLID
  8
0
 62
7
  6
CONTINUOUS
 10
364.1965353548
 20
31.5391977507
 11
364.543410024
 21
31.506933758
 12
363.4449727445
 22
31.506933758
 13
363.4449727445
 23
31.506933758
  0
SOLID
  8
0
 62
7
  6
CONTINUOUS
 10
363.3293478548
 20
31.4746706537
 11
363.4449727445
 21
31.506933758
 12
364.543410024
 22
31.506933758
 13
364.543410024
 23
31.506933758
  0
SOLID
  8
0
 62
7
  6
CONTINUOUS
 10
364.543410024
 20
31.506933758
 11
364.716847524
 21
31.4424063504
 12
363.3293478548
 22
31.4746706537
 13
363.3293478548
 23
31.4746706537
  0
SOLID
  8
0
 62
7
  6
CONTINUOUS
 10
363.2137226343
 20
31.4101417797
 11
363.3293478548
 21
31.4746706537
 12
364.716847524
 22
31.4424063504
 13
364.716847524
 23
31.4424063504
  0
SOLID
  8
0
 62
7
  6
CONTINUOUS
 10
363.2137226343
 20
31.4101417797
 11
364.716847524
 21
31.4424063504
 12
363.8496603548
 22
31.4101417797
 13
363.8496603548
 23
31.4101417797
  0
SOLID
  8
0
 62
7
  6
CONTINUOUS
 10
363.8496603548
 20
31.4101417797
 11
364.716847524
 21
31.4424063504
 12
364.1965353548
 22
31.4101417797
 13
364.1965353548
 23
31.4101417797
  0
SOLID
  8
0
 62
7
  6
CONTINUOUS
 10
364.1965353548
 20
31.4101417797
 11
364.716847524
 21
31.4424063504
 12
364.4277854651
 22
31.3778793357
 13
364.4277854651
 23
31.3778793357
  0
SOLID
  8
0
 62
7
  6
CONTINUOUS
 10
364.716847524
 20
31.4424063504
 11
364.8324727445
 21
31.3778793357
 12
364.4277854651
 22
31.3778793357
 13
364.4277854651
 23
31.3778793357
  0
SOLID
  8
0
 62
7
  6
CONTINUOUS
 10
363.1559103548
 20
31.3456153429
 11
363.2137226343
 21
31.4101417797
 12
363.8496603548
 22
31.4101417797
 13
363.8496603548
 23
31.4101417797
  0
SOLID
  8
0
 62
7
  6
CONTINUOUS
 10
364.543410024
 20
31.3456153429
 11
364.4277854651
 21
31.3778793357
 12
364.8324727445
 22
31.3778793357
 13
364.8324727445
 23
31.3778793357
  0
SOLID
  8
0
 62
7
  6
CONTINUOUS
 10
364.543410024
 20
31.3456153429
 11
364.8324727445
 21
31.3778793357
 12
364.6012229651
 22
31.2810881318
 13
364.6012229651
 23
31.2810881318
  0
SOLID
  8
0
 62
7
  6
CONTINUOUS
 10
364.8324727445
 20
31.3778793357
 11
364.890285024
 21
31.2810881318
 12
364.6012229651
 22
31.2810881318
 13
364.6012229651
 23
31.2810881318
  0
SOLID
  8
0
 62
7
  6
CONTINUOUS
 10
364.6012229651
 20
31.1842964734
 11
364.6012229651
 21
31.2810881318
 12
364.890285024
 22
31.2810881318
 13
364.890285024
 23
31.2810881318
  0
SOLID
  8
0
 62
7
  6
CONTINUOUS
 10
364.6012229651
 20
31.1842964734
 11
364.890285024
 21
31.2810881318
 12
364.6012229651
 22
31.0552422931
 13
364.6012229651
 23
31.0552422931
  0
SOLID
  8
0
 62
7
  6
CONTINUOUS
 10
364.6012229651
 20
31.0552422931
 11
364.890285024
 21
31.2810881318
 12
364.6012229651
 22
30.8616599362
 13
364.6012229651
 23
30.8616599362
  0
SOLID
  8
0
 62
7
  6
CONTINUOUS
 10
364.890285024
 20
31.2810881318
 11
364.890285024
 21
30.7648681127
 12
364.6012229651
 22
30.8616599362
 13
364.6012229651
 23
30.8616599362
  0
SOLID
  8
0
 62
7
  6
CONTINUOUS
 10
366.798097524
 20
31.5069339419
 11
367.0293479651
 21
31.5391976292
 12
367.2605977445
 22
31.5391976292
 13
367.2605977445
 23
31.5391976292
  0
SOLID
  8
0
 62
7
  6
CONTINUOUS
 10
367.2605977445
 20
31.5391976292
 11
367.4340352445
 21
31.5069339419
 12
366.798097524
 22
31.5069339419
 13
366.798097524
 23
31.5069339419
  0
SOLID
  8
0
 62
7
  6
CONTINUOUS
 10
366.624660024
 20
31.4424065674
 11
366.798097524
 21
31.5069339419
 12
367.4340352445
 22
31.5069339419
 13
367.4340352445
 23
31.5069339419
  0
SOLID
  8
0
 62
7
  6
CONTINUOUS
 10
367.4340352445
 20
31.5069339419
 11
367.6074727445
 21
31.4424065674
 12
366.624660024
 22
31.4424065674
 13
366.624660024
 23
31.4424065674
  0
SOLID
  8
0
 62
7
  6
CONTINUOUS
 10
367.6074727445
 20
31.4424065674
 11
367.0293479651
 21
31.4101420472
 12
366.624660024
 22
31.4424065674
 13
366.624660024
 23
31.4424065674
  0
SOLID
  8
0
 62
7
  6
CONTINUOUS
 10
366.5090354651
 20
31.377879193
 11
366.624660024
 21
31.4424065674
 12
367.0293479651
 22
31.4101420472
 13
367.0293479651
 23
31.4101420472
  0
SOLID
  8
0
 62
7
  6
CONTINUOUS
 10
367.0293479651
 20
31.4101420472
 11
366.798097524
 21
31.377879193
 12
366.5090354651
 22
31.377879193
 13
366.5090354651
 23
31.377879193
  0
SOLID
  8
0
 62
7
  6
CONTINUOUS
 10
367.0293479651
 20
31.4101420472
 11
367.6074727445
 21
31.4424065674
 12
367.2605977445
 22
31.377879193
 13
367.2605977445
 23
31.377879193
  0
SOLID
  8
0
 62
7
  6
CONTINUOUS
 10
367.6074727445
 20
31.4424065674
 11
367.7230979651
 21
31.377879193
 12
367.2605977445
 22
31.377879193
 13
367.2605977445
 23
31.377879193
  0
SOLID
  8
0
 62
7
  6
CONTINUOUS
 10
367.3762229651
 20
31.345614957
 11
367.2605977445
 21
31.377879193
 12
367.7230979651
 22
31.377879193
 13
367.7230979651
 23
31.377879193
  0
SOLID
  8
0
 62
7
  6
CONTINUOUS
 10
367.3762229651
 20
31.345614957
 11
367.7230979651
 21
31.377879193
 12
367.491847524
 22
31.2810881312
 13
367.491847524
 23
31.2810881312
  0
SOLID
  8
0
 62
7
  6
CONTINUOUS
 10
367.7230979651
 20
31.377879193
 11
367.7809102445
 21
31.2810881312
 12
367.491847524
 22
31.2810881312
 13
367.491847524
 23
31.2810881312
  0
SOLID
  8
0
 62
7
  6
CONTINUOUS
 10
367.5496604651
 20
31.119769695
 11
367.491847524
 21
31.2810881312
 12
367.7809102445
 22
31.2810881312
 13
367.7809102445
 23
31.2810881312
  0
SOLID
  8
0
 62
7
  6
CONTINUOUS
 10
367.7809102445
 20
31.2810881312
 11
367.838722524
 21
31.119769695
 12
367.5496604651
 22
31.119769695
 13
367.5496604651
 23
31.119769695
  0
SOLID
  8
0
 62
7
  6
CONTINUOUS
 10
366.798097524
 20
31.377879193
 11
366.624660024
 21
31.3133521701
 12
366.5090354651
 22
31.377879193
 13
366.5090354651
 23
31.377879193
  0
SOLID
  8
0
 62
7
  6
CONTINUOUS
 10
366.624660024
 20
31.3133521701
 11
366.5090354651
 21
31.2488235635
 12
366.5090354651
 22
31.377879193
 13
366.5090354651
 23
31.377879193
  0
SOLID
  8
0
 62
7
  6
CONTINUOUS
 10
366.5090354651
 20
31.2488235635
 11
366.2199727445
 21
30.5067596374
 12
366.5090354651
 22
31.377879193
 13
366.5090354651
 23
31.377879193
  0
SOLID
  8
0
 62
7
  6
CONTINUOUS
 10
366.5090354651
 20
31.377879193
 11
366.2199727445
 21
30.5067596374
 12
366.5090354651
 22
31.5391976292
 13
366.5090354651
 23
31.5391976292
  0
SOLID
  8
0
 62
7
  6
CONTINUOUS
 10
366.2199727445
 20
30.5067596374
 11
366.2199727445
 21
31.5391976292
 12
366.5090354651
 22
31.5391976292
 13
366.5090354651
 23
31.5391976292
  0
SOLID
  8
0
 62
7
  6
CONTINUOUS
 10
366.5090354651
 20
31.2488235635
 11
366.5090354651
 21
30.5067596374
 12
366.2199727445
 22
30.5067596374
 13
366.2199727445
 23
30.5067596374
  0
SOLID
  8
0
 62
7
  6
CONTINUOUS
 10
367.5496604651
 20
30.5067596374
 11
367.5496604651
 21
31.119769695
 12
367.838722524
 22
31.119769695
 13
367.838722524
 23
31.119769695
  0
SOLID
  8
0
 62
7
  6
CONTINUOUS
 10
367.838722524
 20
31.119769695
 11
367.838722524
 21
30.5067596374
 12
367.5496604651
 22
30.5067596374
 13
367.5496604651
 23
30.5067596374
  0
SOLID
  8
0
 62
7
  6
CONTINUOUS
 10
368.6480977445
 20
31.5069334157
 11
368.9949727445
 21
31.539197762
 12
369.3418477445
 22
31.539197762
 13
369.3418477445
 23
31.539197762
  0
SOLID
  8
0
 62
7
  6
CONTINUOUS
 10
369.3418477445
 20
31.539197762
 11
369.6887227445
 21
31.5069334157
 12
368.6480977445
 22
31.5069334157
 13
368.6480977445
 23
31.5069334157
  0
SOLID
  8
0
 62
7
  6
CONTINUOUS
 10
368.4168479651
 20
31.4424063504
 11
368.6480977445
 21
31.5069334157
 12
369.6887227445
 22
31.5069334157
 13
369.6887227445
 23
31.5069334157
  0
SOLID
  8
0
 62
7
  6
CONTINUOUS
 10
368.4168479651
 20
31.4424063504
 11
369.6887227445
 21
31.5069334406
 12
369.8621602445
 22
31.4746706537
 13
369.8621602445
 23
31.4746706537
  0
SOLID
  8
0
 62
7
  6
CONTINUOUS
 10
368.4168479651
 20
31.4424063504
 11
369.8621602445
 21
31.4746706537
 12
368.9949727445
 22
31.4101421267
 13
368.9949727445
 23
31.4101421267
  0
SOLID
  8
0
 62
7
  6
CONTINUOUS
 10
368.9949727445
 20
31.4101421267
 11
369.8621602445
 21
31.4746706537
 12
369.3418477445
 22
31.4101421267
 13
369.3418477445
 23
31.4101421267
  0
SOLID
  8
0
 62
7
  6
CONTINUOUS
 10
369.8621602445
 20
31.4746706537
 11
370.0355977445
 21
31.4101421267
 12
369.3418477445
 22
31.4101421267
 13
369.3418477445
 23
31.4101421267
  0
SOLID
  8
0
 62
7
  6
CONTINUOUS
 10
369.6887227445
 20
31.3778792603
 11
369.3418477445
 21
31.4101421267
 12
370.0355977445
 22
31.4101421267
 13
370.0355977445
 23
31.4101421267
  0
SOLID
  8
0
 62
7
  6
CONTINUOUS
 10
368.3012227445
 20
31.3456148845
 11
368.4168479651
 21
31.4424063504
 12
368.9949727445
 22
31.4101421267
 13
368.9949727445
 23
31.4101421267
  0
SOLID
  8
0
 62
7
  6
CONTINUOUS
 10
369.6887227445
 20
31.3778792603
 11
370.0355977445
 21
31.4101421267
 12
369.8043479651
 22
31.3456148845
 13
369.8043479651
 23
31.3456148845
  0
SOLID
  8
0
 62
7
  6
CONTINUOUS
 10
369.8043479651
 20
31.3456148845
 11
370.0355977445
 21
31.4101421267
 12
369.8621602445
 22
31.281087868
 13
369.8621602445
 23
31.281087868
  0
SOLID
  8
0
 62
7
  6
CONTINUOUS
 10
370.0355977445
 20
31.4101421267
 11
370.1512223035
 21
31.281087868
 12
369.8621602445
 22
31.281087868
 13
369.8621602445
 23
31.281087868
  0
SOLID
  8
0
 62
7
  6
CONTINUOUS
 10
359.4559102445
 20
31.3778792603
 11
358.9355977445
 21
31.3456148963
 12
359.6871602721
 22
31.4101421155
 13
359.6871602721
 23
31.4101421155
  0
SOLID
  8
0
 62
7
  6
CONTINUOUS
 10
358.9355977445
 20
31.3456148963
 11
359.0512227376
 21
31.4101421155
 12
359.6871602721
 22
31.4101421155
 13
359.6871602721
 23
31.4101421155
  0
SOLID
  8
0
 62
7
  6
CONTINUOUS
 10
359.4559102445
 20
31.3778792603
 11
359.3402852307
 21
31.3456148963
 12
358.9355977445
 22
31.3456148963
 13
358.9355977445
 23
31.3456148963
  0
SOLID
  8
0
 62
7
  6
CONTINUOUS
 10
358.8199727462
 20
31.2165607767
 11
358.9355977445
 21
31.3456148963
 12
359.3402852307
 22
31.3456148963
 13
359.3402852307
 23
31.3456148963
  0
SOLID
  8
0
 62
7
  6
CONTINUOUS
 10
363.1559103548
 20
31.3456149608
 11
363.8496603548
 21
31.4101420472
 12
363.6184102445
 22
31.3778792603
 13
363.6184102445
 23
31.3778792603
  0
SOLID
  8
0
 62
7
  6
CONTINUOUS
 10
363.6184102445
 20
31.3778792603
 11
363.5027853548
 21
31.3456149608
 12
363.1559103548
 22
31.3456149608
 13
363.1559103548
 23
31.3456149608
  0
SOLID
  8
0
 62
7
  6
CONTINUOUS
 10
363.1559103548
 20
31.2810878707
 11
363.1559103548
 21
31.3456149608
 12
363.5027853548
 22
31.3456149608
 13
363.5027853548
 23
31.3456149608
  0
SOLID
  8
0
 62
7
  6
CONTINUOUS
 10
363.5027853548
 20
31.3456149608
 11
363.4449727445
 21
31.2810878707
 12
363.1559103548
 22
31.2810878707
 13
363.1559103548
 23
31.2810878707
  0
SOLID
  8
0
 62
7
  6
CONTINUOUS
 10
368.3012227445
 20
31.3456149608
 11
368.9949727445
 21
31.4101420472
 12
368.7637229651
 22
31.3778792603
 13
368.7637229651
 23
31.3778792603
  0
SOLID
  8
0
 62
7
  6
CONTINUOUS
 10
368.7637229651
 20
31.3778792603
 11
368.6480977445
 21
31.3456149608
 12
368.3012227445
 22
31.3456149608
 13
368.3012227445
 23
31.3456149608
  0
SOLID
  8
0
 62
7
  6
CONTINUOUS
 10
368.3012227445
 20
31.2810878707
 11
368.3012227445
 21
31.3456149608
 12
368.6480977445
 22
31.3456149608
 13
368.6480977445
 23
31.3456149608
  0
SOLID
  8
0
 62
7
  6
CONTINUOUS
 10
368.6480977445
 20
31.3456149608
 11
368.5902854651
 21
31.2810878707
 12
368.3012227445
 22
31.2810878707
 13
368.3012227445
 23
31.2810878707
  0
SOLID
  8
0
 62
7
  6
CONTINUOUS
 10
368.4168479651
 20
31.1520336865
 11
368.3012227445
 21
31.2810878707
 12
368.5902854651
 22
31.2810878707
 13
368.5902854651
 23
31.2810878707
  0
SOLID
  8
0
 62
7
  6
CONTINUOUS
 10
358.8199727462
 20
31.2165607767
 11
359.3402852307
 21
31.345614957
 12
359.1668477307
 22
31.2488235635
 13
359.1668477307
 23
31.2488235635
  0
SOLID
  8
0
 62
7
  6
CONTINUOUS
 10
359.1668477307
 20
31.2488235635
 11
359.1090352445
 21
31.1842964734
 12
358.8199727462
 22
31.2165607767
 13
358.8199727462
 23
31.2165607767
  0
SOLID
  8
0
 62
7
  6
CONTINUOUS
 10
358.7621602445
 20
31.0229779898
 11
358.8199727462
 21
31.2165607767
 12
359.1090352445
 22
31.1842964734
 13
359.1090352445
 23
31.1842964734
  0
SOLID
  8
0
 62
7
  6
CONTINUOUS
 10
363.6184102445
 20
31.1520336865
 11
363.9652852445
 21
31.1842964611
 12
364.6012229651
 22
31.1842964611
 13
364.6012229651
 23
31.1842964611
  0
SOLID
  8
0
 62
7
  6
CONTINUOUS
 10
363.6184102445
 20
31.1520336865
 11
364.6012229651
 21
31.1842964611
 12
363.3871601343
 22
31.0875057863
 13
363.3871601343
 23
31.0875057863
  0
SOLID
  8
0
 62
7
  6
CONTINUOUS
 10
363.3871601343
 20
31.0875057863
 11
364.6012229651
 21
31.1842964611
 12
363.9652852445
 22
31.0552422808
 13
363.9652852445
 23
31.0552422808
  0
SOLID
  8
0
 62
7
  6
CONTINUOUS
 10
364.6012229651
 20
31.1842964611
 11
364.6012229651
 21
31.0552422808
 12
363.9652852445
 22
31.0552422808
 13
363.9652852445
 23
31.0552422808
  0
SOLID
  8
0
 62
7
  6
CONTINUOUS
 10
368.4168479651
 20
31.1520338754
 11
368.5902854651
 21
31.2810878668
 12
368.6480977445
 22
31.2165607767
 13
368.6480977445
 23
31.2165607767
  0
SOLID
  8
0
 62
7
  6
CONTINUOUS
 10
368.6480977445
 20
31.2165607767
 11
368.8215352445
 21
31.1520338754
 12
368.4168479651
 22
31.1520338754
 13
368.4168479651
 23
31.1520338754
  0
SOLID
  8
0
 62
7
  6
CONTINUOUS
 10
368.6480977445
 20
31.0552422931
 11
368.4168479651
 21
31.1520338754
 12
368.8215352445
 22
31.1520338754
 13
368.8215352445
 23
31.1520338754
  0
SOLID
  8
0
 62
7
  6
CONTINUOUS
 10
368.8215352445
 20
31.1520338754
 11
369.8043479651
 21
30.9907152029
 12
368.6480977445
 22
31.0552422931
 13
368.6480977445
 23
31.0552422931
  0
SOLID
  8
0
 62
7
  6
CONTINUOUS
 10
369.6309104651
 20
30.8939239876
 11
368.6480977445
 21
31.0552422931
 12
369.8043479651
 22
30.9907152029
 13
369.8043479651
 23
30.9907152029
  0
SOLID
  8
0
 62
7
  6
CONTINUOUS
 10
369.8043479651
 20
30.9907152029
 11
370.0355977445
 21
30.8939239876
 12
369.6309104651
 22
30.8939239876
 13
369.6309104651
 23
30.8939239876
  0
SOLID
  8
0
 62
7
  6
CONTINUOUS
 10
369.8043479651
 20
30.8293967193
 11
369.6309104651
 21
30.8939239876
 12
370.0355977445
 22
30.8939239876
 13
370.0355977445
 23
30.8939239876
  0
SOLID
  8
0
 62
7
  6
CONTINUOUS
 10
369.8043479651
 20
30.8293967193
 11
370.0355977445
 21
30.8939239876
 12
369.8621602445
 22
30.7648682694
 13
369.8621602445
 23
30.7648682694
  0
SOLID
  8
0
 62
7
  6
CONTINUOUS
 10
370.0355977445
 20
30.8939239876
 11
370.1512223035
 21
30.7648682694
 12
369.8621602445
 22
30.7648682694
 13
369.8621602445
 23
30.7648682694
  0
SOLID
  8
0
 62
7
  6
CONTINUOUS
 10
369.8043479651
 20
30.7003411846
 11
369.8621602445
 21
30.7648682694
 12
370.1512223035
 22
30.7648682694
 13
370.1512223035
 23
30.7648682694
  0
SOLID
  8
0
 62
7
  6
CONTINUOUS
 10
370.1512223035
 20
30.7648682694
 11
370.1512223035
 21
30.7003411846
 12
369.8043479651
 22
30.7003411846
 13
369.8043479651
 23
30.7003411846
  0
SOLID
  8
0
 62
7
  6
CONTINUOUS
 10
369.6887227445
 20
30.6680782357
 11
369.8043479651
 21
30.7003411846
 12
370.1512223035
 22
30.7003411846
 13
370.1512223035
 23
30.7003411846
  0
SOLID
  8
0
 62
7
  6
CONTINUOUS
 10
369.6887227445
 20
30.6680782357
 11
370.1512223035
 21
30.7003411846
 12
369.4574729651
 22
30.6358140998
 13
369.4574729651
 23
30.6358140998
  0
SOLID
  8
0
 62
7
  6
CONTINUOUS
 10
370.1512223035
 20
30.7003411846
 11
370.0355977445
 21
30.6035511455
 12
369.4574729651
 22
30.6358140998
 13
369.4574729651
 23
30.6358140998
  0
SOLID
  8
0
 62
7
  6
CONTINUOUS
 10
370.0355977445
 20
30.6035511455
 11
368.5902854651
 21
30.5712868422
 12
369.4574729651
 22
30.6358140998
 13
369.4574729651
 23
30.6358140998
  0
SOLID
  8
0
 62
7
  6
CONTINUOUS
 10
369.4574729651
 20
30.6358140998
 11
368.5902854651
 21
30.5712868422
 12
369.1105979651
 22
30.6358140998
 13
369.1105979651
 23
30.6358140998
  0
SOLID
  8
0
 62
7
  6
CONTINUOUS
 10
368.5902854651
 20
30.5712868422
 11
368.4168479651
 21
30.6358140998
 12
369.1105979651
 22
30.6358140998
 13
369.1105979651
 23
30.6358140998
  0
SOLID
  8
0
 62
7
  6
CONTINUOUS
 10
368.5902854651
 20
30.5712868422
 11
370.0355977445
 21
30.6035511455
 12
368.7637229651
 22
30.5390223111
 13
368.7637229651
 23
30.5390223111
  0
SOLID
  8
0
 62
7
  6
CONTINUOUS
 10
370.0355977445
 20
30.6035511455
 11
369.8043479651
 21
30.5390223111
 12
368.7637229651
 22
30.5390223111
 13
368.7637229651
 23
30.5390223111
  0
SOLID
  8
0
 62
7
  6
CONTINUOUS
 10
369.1105979651
 20
30.5067599302
 11
368.7637229651
 21
30.5390223111
 12
369.8043479651
 22
30.5390223111
 13
369.8043479651
 23
30.5390223111
  0
SOLID
  8
0
 62
7
  6
CONTINUOUS
 10
369.8043479651
 20
30.5390223111
 11
369.4574729651
 21
30.5067599302
 12
369.1105979651
 22
30.5067599302
 13
369.1105979651
 23
30.5067599302
  0
SOLID
  8
0
 62
7
  6
CONTINUOUS
 10
358.7621602445
 20
31.0229779898
 11
359.1090352445
 21
31.1842964734
 12
359.0512227376
 22
31.0552422931
 13
359.0512227376
 23
31.0552422931
  0
SOLID
  8
0
 62
7
  6
CONTINUOUS
 10
359.0512227376
 20
31.0552422931
 11
359.0512227376
 21
30.9584509954
 12
358.7621602445
 22
31.0229779898
 13
358.7621602445
 23
31.0229779898
  0
SOLID
  8
0
 62
7
  6
CONTINUOUS
 10
358.8199727462
 20
30.8293967193
 11
358.7621602445
 21
31.0229779898
 12
359.0512227376
 22
30.9584509954
 13
359.0512227376
 23
30.9584509954
  0
SOLID
  8
0
 62
7
  6
CONTINUOUS
 10
359.0512227376
 20
30.9584509954
 11
359.1668477307
 21
30.797132416
 12
358.8199727462
 22
30.8293967193
 13
358.8199727462
 23
30.8293967193
  0
SOLID
  8
0
 62
7
  6
CONTINUOUS
 10
358.9355977445
 20
30.7003413087
 11
358.8199727462
 21
30.8293967193
 12
359.1668477307
 22
30.797132416
 13
359.1668477307
 23
30.797132416
  0
SOLID
  8
0
 62
7
  6
CONTINUOUS
 10
359.1668477307
 20
30.797132416
 11
359.3402852307
 21
30.7003413087
 12
358.9355977445
 22
30.7003413087
 13
358.9355977445
 23
30.7003413087
  0
SOLID
  8
0
 62
7
  6
CONTINUOUS
 10
359.0512227376
 20
30.6358140759
 11
358.9355977445
 21
30.7003413087
 12
359.3402852307
 22
30.7003413087
 13
359.3402852307
 23
30.7003413087
  0
SOLID
  8
0
 62
7
  6
CONTINUOUS
 10
359.3402852307
 20
30.7003413087
 11
359.6871602721
 21
30.6358140759
 12
359.0512227376
 22
30.6358140759
 13
359.0512227376
 23
30.6358140759
  0
SOLID
  8
0
 62
7
  6
CONTINUOUS
 10
359.2246602583
 20
30.5712868422
 11
359.0512227376
 21
30.6358140759
 12
359.6871602721
 22
30.6358140759
 13
359.6871602721
 23
30.6358140759
  0
SOLID
  8
0
 62
7
  6
CONTINUOUS
 10
363.2715352445
 20
31.0229779808
 11
363.3871601343
 21
31.0875057863
 12
363.9652852445
 22
31.0552422931
 13
363.9652852445
 23
31.0552422931
  0
SOLID
  8
0
 62
7
  6
CONTINUOUS
 10
363.9652852445
 20
31.0552422931
 11
363.7340351343
 21
31.0229779808
 12
363.2715352445
 22
31.0229779808
 13
363.2715352445
 23
31.0229779808
  0
SOLID
  8
0
 62
7
  6
CONTINUOUS
 10
363.1559103548
 20
30.8939238094
 11
363.2715352445
 21
31.0229779808
 12
363.7340351343
 22
31.0229779808
 13
363.7340351343
 23
31.0229779808
  0
SOLID
  8
0
 62
7
  6
CONTINUOUS
 10
363.5027853548
 20
30.926187309
 11
363.1559103548
 21
30.8939238094
 12
363.6184102445
 22
30.9907152029
 13
363.6184102445
 23
30.9907152029
  0
SOLID
  8
0
 62
7
  6
CONTINUOUS
 10
363.1559103548
 20
30.8939238094
 11
363.7340351343
 21
31.0229779898
 12
363.6184102445
 22
30.9907152029
 13
363.6184102445
 23
30.9907152029
  0
SOLID
  8
0
 62
7
  6
CONTINUOUS
 10
363.5027853548
 20
30.926187309
 11
363.4449727445
 21
30.8293967193
 12
363.1559103548
 22
30.8939238094
 13
363.1559103548
 23
30.8939238094
  0
SOLID
  8
0
 62
7
  6
CONTINUOUS
 10
363.1559103548
 20
30.797132416
 11
363.1559103548
 21
30.8939238094
 12
363.4449727445
 22
30.8293967193
 13
363.4449727445
 23
30.8293967193
  0
SOLID
  8
0
 62
7
  6
CONTINUOUS
 10
363.4449727445
 20
30.8293967193
 11
363.4449727445
 21
30.7648681127
 12
363.1559103548
 22
30.797132416
 13
363.1559103548
 23
30.797132416
  0
SOLID
  8
0
 62
7
  6
CONTINUOUS
 10
363.2137226343
 20
30.6680782357
 11
363.1559103548
 21
30.797132416
 12
363.4449727445
 22
30.7648681127
 13
363.4449727445
 23
30.7648681127
  0
SOLID
  8
0
 62
7
  6
CONTINUOUS
 10
364.6012229651
 20
30.8616599362
 11
364.890285024
 21
30.7648681127
 12
364.543410024
 22
30.797132416
 13
364.543410024
 23
30.797132416
  0
SOLID
  8
0
 62
7
  6
CONTINUOUS
 10
364.369972524
 20
30.7003410226
 11
364.543410024
 21
30.797132416
 12
364.890285024
 22
30.7648681127
 13
364.890285024
 23
30.7648681127
  0
SOLID
  8
0
 62
7
  6
CONTINUOUS
 10
364.369972524
 20
30.7003410226
 11
364.890285024
 21
30.7648681127
 12
364.6012229651
 22
30.6680782357
 13
364.6012229651
 23
30.6680782357
  0
SOLID
  8
0
 62
7
  6
CONTINUOUS
 10
364.890285024
 20
30.7648681127
 11
364.9480979651
 21
30.6035511455
 12
364.6012229651
 22
30.6680782357
 13
364.6012229651
 23
30.6680782357
  0
SOLID
  8
0
 62
7
  6
CONTINUOUS
 10
364.6590352445
 20
30.5712868422
 11
364.6012229651
 21
30.6680782357
 12
364.9480979651
 22
30.6035511455
 13
364.9480979651
 23
30.6035511455
  0
SOLID
  8
0
 62
7
  6
CONTINUOUS
 10
364.6590352445
 20
30.5712868422
 11
364.9480979651
 21
30.6035511455
 12
364.716847524
 22
30.5067598731
 13
364.716847524
 23
30.5067598731
  0
SOLID
  8
0
 62
7
  6
CONTINUOUS
 10
364.9480979651
 20
30.6035511455
 11
365.0059102445
 21
30.5067598731
 12
364.716847524
 22
30.5067598731
 13
364.716847524
 23
30.5067598731
  0
SOLID
  8
0
 62
7
  6
CONTINUOUS
 10
360.2652852997
 20
30.7326051679
 11
360.3230977445
 21
30.8293966612
 12
360.6121602997
 22
30.8293966612
 13
360.6121602997
 23
30.8293966612
  0
SOLID
  8
0
 62
7
  6
CONTINUOUS
 10
360.6121602997
 20
30.8293966612
 11
360.5543476894
 21
30.7003410226
 12
360.2652852997
 22
30.7326051679
 13
360.2652852997
 23
30.7326051679
  0
SOLID
  8
0
 62
7
  6
CONTINUOUS
 10
360.091847717
 20
30.6680782357
 11
360.2652852997
 21
30.7326051679
 12
360.5543476894
 22
30.7003410226
 13
360.5543476894
 23
30.7003410226
  0
SOLID
  8
0
 62
7
  6
CONTINUOUS
 10
360.091847717
 20
30.6680782357
 11
360.5543476894
 21
30.7003410226
 12
359.6871602721
 22
30.6358139324
 13
359.6871602721
 23
30.6358139324
  0
SOLID
  8
0
 62
7
  6
CONTINUOUS
 10
360.5543476894
 20
30.7003410226
 11
360.3809101894
 21
30.6035511455
 12
359.6871602721
 22
30.6358139324
 13
359.6871602721
 23
30.6358139324
  0
SOLID
  8
0
 62
7
  6
CONTINUOUS
 10
359.2246602583
 20
30.5712868422
 11
359.6871602721
 21
30.6358139324
 12
360.3809101894
 22
30.6035511455
 13
360.3809101894
 23
30.6035511455
  0
SOLID
  8
0
 62
7
  6
CONTINUOUS
 10
359.2246602583
 20
30.5712868422
 11
360.3809101894
 21
30.6035511455
 12
359.3980977583
 22
30.5390224228
 13
359.3980977583
 23
30.5390224228
  0
SOLID
  8
0
 62
7
  6
CONTINUOUS
 10
360.3809101894
 20
30.6035511455
 11
360.1496602445
 21
30.5390224228
 12
359.3980977583
 22
30.5390224228
 13
359.3980977583
 23
30.5390224228
  0
SOLID
  8
0
 62
7
  6
CONTINUOUS
 10
359.744972717
 20
30.5067597521
 11
359.3980977583
 21
30.5390224228
 12
360.1496602445
 22
30.5390224228
 13
360.1496602445
 23
30.5390224228
  0
SOLID
  8
0
 62
7
  6
CONTINUOUS
 10
363.2137226343
 20
30.6680782357
 11
363.4449727445
 21
30.7648681127
 12
363.5027853548
 22
30.7003410226
 13
363.5027853548
 23
30.7003410226
  0
SOLID
  8
0
 62
7
  6
CONTINUOUS
 10
363.5027853548
 20
30.7003410226
 11
363.7340351343
 21
30.6358139324
 12
363.2137226343
 22
30.6680782357
 13
363.2137226343
 23
30.6680782357
  0
SOLID
  8
0
 62
7
  6
CONTINUOUS
 10
363.3871601343
 20
30.5712868422
 11
363.2137226343
 21
30.6680782357
 12
363.7340351343
 22
30.6358139324
 13
363.7340351343
 23
30.6358139324
  0
SOLID
  8
0
 62
7
  6
CONTINUOUS
 10
364.0809101343
 20
30.6358139363
 11
364.369972524
 21
30.7003410226
 12
364.6012229651
 22
30.6680782357
 13
364.6012229651
 23
30.6680782357
  0
SOLID
  8
0
 62
7
  6
CONTINUOUS
 10
364.6012229651
 20
30.6680782357
 11
364.543410024
 21
30.6035511455
 12
364.0809101343
 22
30.6358139363
 13
364.0809101343
 23
30.6358139363
  0
SOLID
  8
0
 62
7
  6
CONTINUOUS
 10
364.543410024
 20
30.6035511455
 11
363.3871601343
 21
30.5712868422
 12
364.0809101343
 22
30.6358139363
 13
364.0809101343
 23
30.6358139363
  0
SOLID
  8
0
 62
7
  6
CONTINUOUS
 10
363.3871601343
 20
30.5712868422
 11
363.7340351343
 21
30.6358139363
 12
364.0809101343
 22
30.6358139363
 13
364.0809101343
 23
30.6358139363
  0
SOLID
  8
0
 62
7
  6
CONTINUOUS
 10
363.3871601343
 20
30.5712868422
 11
364.543410024
 21
30.6035511455
 12
363.5027853548
 22
30.5390225267
 13
363.5027853548
 23
30.5390225267
  0
SOLID
  8
0
 62
7
  6
CONTINUOUS
 10
364.543410024
 20
30.6035511455
 11
364.369972524
 21
30.5390225267
 12
363.5027853548
 22
30.5390225267
 13
363.5027853548
 23
30.5390225267
  0
SOLID
  8
0
 62
7
  6
CONTINUOUS
 10
363.7340351343
 20
30.5067596914
 11
363.5027853548
 21
30.5390225267
 12
364.369972524
 22
30.5390225267
 13
364.369972524
 23
30.5390225267
  0
SOLID
  8
0
 62
7
  6
CONTINUOUS
 10
364.369972524
 20
30.5390225267
 11
364.0809101343
 21
30.5067596914
 12
363.7340351343
 22
30.5067596914
 13
363.7340351343
 23
30.5067596914
  0
SOLID
  8
0
 62
7
  6
CONTINUOUS
 10
368.7637229651
 20
30.6680782357
 11
368.4168479651
 21
30.6358138717
 12
368.6480977445
 22
30.7003410226
 13
368.6480977445
 23
30.7003410226
  0
SOLID
  8
0
 62
7
  6
CONTINUOUS
 10
368.6480977445
 20
30.7003410226
 11
368.4168479651
 21
30.6358138717
 12
368.5902854651
 22
30.7648680521
 13
368.5902854651
 23
30.7648680521
  0
SOLID
  8
0
 62
7
  6
CONTINUOUS
 10
368.4168479651
 20
30.6358138717
 11
368.3012227445
 21
30.7648680521
 12
368.5902854651
 22
30.7648680521
 13
368.5902854651
 23
30.7648680521
  0
SOLID
  8
0
 62
7
  6
CONTINUOUS
 10
368.7637229651
 20
30.6680782357
 11
369.1105979651
 21
30.6358138717
 12
368.4168479651
 22
30.6358138717
 13
368.4168479651
 23
30.6358138717
  0
SOLID
  8
0
 62
7
  6
CONTINUOUS
 10
365.4684104651
 20
30.5067597521
 11
365.4684104651
 21
31.5391977439
 12
365.757472524
 22
30.5067597521
 13
365.757472524
 23
31.5391977439
  0
ENDBLK
  8
0
  6
BYBLOCK
 62
0
  0
BLOCK
  8
0
 62
2
  6
CONTINUOUS
  2
AMMEAAL_LOGO_BL0
 70
64
 10
240.8592468615
 20
19.762288695
  0
TEXT
  8
0
 62
7
  6
CONTINUOUS
 10
227.1239507038
 20
19.1357028027
  7
TEXTSTYLE_3
 40
2.7338706658
  1
Ammeraal Beltech
 41
1.0
 51
15.0
 72
0
  0
TEXT
  8
0
 62
7
  6
CONTINUOUS
 10
237.9247515296
 20
16.8621661299
  7
TEXTSTYLE_4
 40
1.0935482663
  1
Innovation & Service in Belting
 41
1.0
 72
0
  0
LINE
  8
0
 62
7
  6
CONTINUOUS
 10
221.0994100525
 20
19.9022961113
 11
221.8775620458
 21
23.5632134089
  0
LINE
  8
0
 62
7
  6
CONTINUOUS
 10
231.9727303357
 20
27.2266073205
 11
222.3653797889
 21
24.1049898993
  0
LINE
  8
0
 62
7
  6
CONTINUOUS
 10
221.3246933848
 20
19.2089453082
 11
228.8317686459
 21
12.4495443822
  0
LINE
  8
0
 62
7
  6
CONTINUOUS
 10
221.5872277955
 20
20.4440726016
 11
232.3954971607
 21
23.9558922005
  0
LINE
  8
0
 62
7
  6
CONTINUOUS
 10
232.3912920235
 20
13.6061036368
 11
223.9458323548
 21
21.2104296785
  0
LINE
  8
0
 62
7
  6
CONTINUOUS
 10
232.9111147433
 20
26.3816822048
 11
231.9345552061
 21
21.7873308023
  0
LINE
  8
0
 62
7
  6
CONTINUOUS
 10
231.2347532584
 20
18.4950214885
 11
230.5483050469
 21
15.2655365641
  0
LINE
  8
0
 62
7
  6
CONTINUOUS
 10
233.5922108419
 20
13.9963058145
 11
234.5484423775
 21
18.4950214885
  0
LINE
  8
0
 62
7
  6
CONTINUOUS
 10
235.2482443252
 20
21.7873308023
 11
235.6924861276
 21
23.8773241617
  0
LINE
  8
0
 62
7
  6
CONTINUOUS
 10
229.5448697213
 20
12.2979700695
 11
233.1043930989
 21
13.4545293241
  0
LINE
  8
0
 62
7
  6
CONTINUOUS
 10
232.685831411
 20
27.0750330078
 11
235.4672027953
 21
24.5706749648
  0
ARC
  8
0
 62
7
  6
CONTINUOUS
 10
222.5906631212
 20
23.4116390962
 40
0.7290321776
 50
108.0
 51
168.0
  0
ARC
  8
0
 62
7
  6
CONTINUOUS
 10
232.198013668
 20
26.5332565175
 40
0.7290321776
 50
348.0
 51
108.0
  0
ARC
  8
0
 62
7
  6
CONTINUOUS
 10
234.9793850522
 20
24.0288984744
 40
0.7290321776
 50
348.0
 51
48.0
  0
ARC
  8
0
 62
7
  6
CONTINUOUS
 10
229.319586389
 20
12.9913208726
 40
0.7290321776
 50
228.0
 51
288.0
  0
ARC
  8
0
 62
7
  6
CONTINUOUS
 10
221.8125111278
 20
19.7507217986
 40
0.7290321776
 50
108.0
 51
228.0
  0
ARC
  8
0
 62
7
  6
CONTINUOUS
 10
232.8791097665
 20
14.1478801272
 40
0.7290321776
 50
228.0
 51
348.0
  0
ENDBLK
  8
0
  6
BYBLOCK
 62
0
  0
ENDSEC
  0
SECTION
  2
ENTITIES
  0
TEXT
  8
0
 62
5
  6
CONTINUOUS
 10
304.937007874
 20
25.636
  7
TEXTSTYLE_2
 40
2.8
  1
Scale :
 41
0.6
 51
0.000019
 72
0
  0
TEXT
  8
0
 62
5
  6
CONTINUOUS
 10
324.937007874
 20
25.636
  7
TEXTSTYLE_2
 40
2.8
  1
Belt type:
 41
0.6
 51
0.000019
 72
0
  0
INSERT
  8
0
 62
2
  6
CONTINUOUS
  2
AMMEAAL_LOGO_BL0
 10
240.8592468615
 20
19.762288695
  0
INSERT
  8
0
 62
2
  6
CONTINUOUS
  2
UNI_LOGO2_BL1
 10
382.7840918555
 20
35.5067593403
  0
LINE
  8
0
 62
2
  6
CONTINUOUS
 10
218.937007874
 20
30.0
 11
408.937007874
 21
30.0
  0
LINE
  8
0
 62
2
  6
CONTINUOUS
 10
218.937007874
 20
30.0
 11
218.937007874
 21
10.0
  0
LINE
  8
0
 62
2
  6
CONTINUOUS
 10
218.937007874
 20
10.0
 11
408.937007874
 21
10.0
  0
LINE
  8
0
 62
2
  6
CONTINUOUS
 10
303.937007874
 20
30.0
 11
303.937007874
 21
10.0
  0
LINE
  8
0
 62
2
  6
CONTINUOUS
 10
323.937007874
 20
30.0
 11
323.937007874
 21
10.0
  0
LINE
  8
0
 62
2
  6
CONTINUOUS
 10
408.937007874
 20
30.0
 11
408.937007874
 21
10.0
  0
TEXT
  8
0
 62
5
  6
CONTINUOUS
 10
221.937007874
 20
23.303
  7
TEXTSTYLE_5
 40
1.52
  1
                                                                     Ammeraal Beltech Modular A/S
 41
1.0
 72
0
  0
TEXT
  8
0
 62
5
  6
CONTINUOUS
 10
221.937007874
 20
20.595
  7
TEXTSTYLE_5
 40
1.5
  1
                                                                      Hjulmagervej 21, 7100 Vejle,  DK
 41
1.0
 72
0
  0
TEXT
  8
0
 62
5
  6
CONTINUOUS
 10
221.937007874
 20
17.881
  7
TEXTSTYLE_5
 40
1.495
  1
                                                                      tel: 
 41
1.0
 72
0
  0
TEXT
  8
0
 62
5
  6
CONTINUOUS
 10
266.9239544389
 20
17.881
  7
TEXTSTYLE_5
 40
1.51
  1
+45 75723100     fax: +45 75723348
 41
1.0
 72
0
  0
TEXT
  8
0
 62
5
  6
CONTINUOUS
 10
221.937007874
 20
15.177
  7
TEXTSTYLE_5
 40
1.5
  1
                                                                      admin@unichains.dk  www.unichains.com
 41
1.0
 72
0
  0
TEXT
  8
0
 62
5
  6
CONTINUOUS
 10
308.687007874
 20
13.75
  7
TEXTSTYLE_6
 40
5.0
  1
1:1
 41
0.7
 72
1
 11
313.937007874
 21
13.75
  0
TEXT
  8
0
 62
5
  6
CONTINUOUS
 10
326.937007874
 20
13.75
  7
TEXTSTYLE_7
 40
7.5
  1
uni CSB-00 K400
 41
0.6788888889
 72
0
  0
LINE
  8
0
 62
7
  6
CONTINUOUS
 10
0.0
 20
0.0
 11
0.0
 21
297.0
  0
LINE
  8
0
 62
7
  6
CONTINUOUS
 10
8.937007874
 20
10.0
 11
8.937007874
 21
287.0
  0
LINE
  8
0
 62
7
  6
CONTINUOUS
 10
0.0
 20
0.0
 11
420.0
 21
0.0
  0
LINE
  8
0
 62
7
  6
CONTINUOUS
 10
408.937007874
 20
10.0
 11
8.937007874
 21
10.0
  0
LINE
  8
0
 62
7
  6
CONTINUOUS
 10
218.937007874
 20
30.0
 11
408.937007874
 21
30.0
  0
LINE
  8
0
 62
7
  6
CONTINUOUS
 10
210.0
 20
297.0
 11
210.0
 21
292.0
  0
LINE
  8
0
 62
7
  6
CONTINUOUS
 10
210.0
 20
0.0
 11
210.0
 21
5.0
  0
LINE
  8
0
 62
7
  6
CONTINUOUS
 10
8.937007874
 20
287.0
 11
408.937007874
 21
287.0
  0
LINE
  8
0
 62
7
  6
CONTINUOUS
 10
0.0
 20
297.0
 11
420.0
 21
297.0
  0
LINE
  8
0
 62
7
  6
CONTINUOUS
 10
408.937007874
 20
287.0
 11
408.937007874
 21
10.0
  0
LINE
  8
0
 62
7
  6
CONTINUOUS
 10
420.0
 20
0.0
 11
420.0
 21
297.0
  0
LINE
  8
0
 62
7
  6
CONTINUOUS
 10
75.119140625
 20
152.53046875
 11
75.119140625
 21
205.801170144
  0
POLYLINE
  8
0
 62
7
  6
CONTINUOUS
 66
1
 70
0
  0
VERTEX
  8
0
 62
7
  6
CONTINUOUS
 10
87.7820966637
 20
207.8049468236
  0
VERTEX
  8
0
 62
7
  6
CONTINUOUS
 10
87.7762029497
 20
207.6964958469
  0
VERTEX
  8
0
 62
7
  6
CONTINUOUS
 10
87.7100801728
 20
207.4322091496
  0
VERTEX
  8
0
 62
7
  6
CONTINUOUS
 10
87.5746359044
 20
207.1949148668
  0
VERTEX
  8
0
 62
7
  6
CONTINUOUS
 10
87.4841679754
 20
207.0925728887
  0
VERTEX
  8
0
 62
7
  6
CONTINUOUS
 10
87.2665610013
 20
206.9297164418
  0
VERTEX
  8
0
 62
7
  6
CONTINUOUS
 10
86.945569396
 20
206.8173285601
  0
VERTEX
  8
0
 62
7
  6
CONTINUOUS
 10
86.8380798323
 20
206.8025647805
  0
SEQEND
  0
LINE
  8
0
 62
7
  6
CONTINUOUS
 10
87.4561829059
 20
170.405990547
 11
87.4561829059
 21
163.53046875
  0
LINE
  8
0
 62
7
  6
CONTINUOUS
 10
87.7820983441
 20
207.8049468236
 11
87.7820983441
 21
214.68046875
  0
POLYLINE
  8
0
 62
7
  6
CONTINUOUS
 66
1
 70
0
  0
VERTEX
  8
0
 62
7
  6
CONTINUOUS
 10
87.456184448
 20
170.405990547
  0
VERTEX
  8
0
 62
7
  6
CONTINUOUS
 10
87.4620769191
 20
170.5144301403
  0
VERTEX
  8
0
 62
7
  6
CONTINUOUS
 10
87.5281876992
 20
170.7786952348
  0
VERTEX
  8
0
 62
7
  6
CONTINUOUS
 10
87.6636093868
 20
171.0159759061
  0
VERTEX
  8
0
 62
7
  6
CONTINUOUS
 10
87.7540640165
 20
171.1183160143
  0
VERTEX
  8
0
 62
7
  6
CONTINUOUS
 10
87.971640515
 20
171.2811768623
  0
VERTEX
  8
0
 62
7
  6
CONTINUOUS
 10
88.2918266552
 20
171.393455964
  0
VERTEX
  8
0
 62
7
  6
CONTINUOUS
 10
88.4001811269
 20
171.4083695843
  0
SEQEND
  0
POLYLINE
  8
0
 62
7
  6
CONTINUOUS
 66
1
 70
0
  0
VERTEX
  8
0
 62
7
  6
CONTINUOUS
 10
162.4161601976
 20
151.530469647
  0
VERTEX
  8
0
 62
7
  6
CONTINUOUS
 10
162.6380581643
 20
151.5552644555
  0
VERTEX
  8
0
 62
7
  6
CONTINUOUS
 10
162.8972705704
 20
151.6530258527
  0
VERTEX
  8
0
 62
7
  6
CONTINUOUS
 10
163.1055421702
 20
151.8037300935
  0
VERTEX
  8
0
 62
7
  6
CONTINUOUS
 10
163.2462210551
 20
151.9671600392
  0
VERTEX
  8
0
 62
7
  6
CONTINUOUS
 10
163.3312439975
 20
152.1146672387
  0
VERTEX
  8
0
 62
7
  6
CONTINUOUS
 10
163.3806684789
 20
152.2381688805
  0
VERTEX
  8
0
 62
7
  6
CONTINUOUS
 10
163.4091620694
 20
152.3376484895
  0
VERTEX
  8
0
 62
7
  6
CONTINUOUS
 10
163.42705543
 20
152.4213948264
  0
VERTEX
  8
0
 62
7
  6
CONTINUOUS
 10
163.4401547014
 20
152.5000785161
  0
VERTEX
  8
0
 62
7
  6
CONTINUOUS
 10
163.4510948022
 20
152.5814768071
  0
VERTEX
  8
0
 62
7
  6
CONTINUOUS
 10
163.4610868069
 20
152.6711618041
  0
VERTEX
  8
0
 62
7
  6
CONTINUOUS
 10
163.4706869188
 20
152.7730818667
  0
VERTEX
  8
0
 62
7
  6
CONTINUOUS
 10
163.4801914633
 20
152.8906718579
  0
VERTEX
  8
0
 62
7
  6
CONTINUOUS
 10
163.4897759028
 20
153.0273164537
  0
VERTEX
  8
0
 62
7
  6
CONTINUOUS
 10
163.4995145224
 20
153.1859567601
  0
VERTEX
  8
0
 62
7
  6
CONTINUOUS
 10
163.5093801092
 20
153.368295076
  0
VERTEX
  8
0
 62
7
  6
CONTINUOUS
 10
163.519315492
 20
153.5753699608
  0
VERTEX
  8
0
 62
7
  6
CONTINUOUS
 10
163.5292513815
 20
153.8076502584
  0
VERTEX
  8
0
 62
7
  6
CONTINUOUS
 10
163.5391366011
 20
154.0657067884
  0
VERTEX
  8
0
 62
7
  6
CONTINUOUS
 10
163.5489595277
 20
154.3511085852
  0
VERTEX
  8
0
 62
7
  6
CONTINUOUS
 10
163.5587040618
 20
154.6655833537
  0
VERTEX
  8
0
 62
7
  6
CONTINUOUS
 10
163.5683451242
 20
155.0108972992
  0
VERTEX
  8
0
 62
7
  6
CONTINUOUS
 10
163.577848972
 20
155.3888346843
  0
VERTEX
  8
0
 62
7
  6
CONTINUOUS
 10
163.5871734815
 20
155.801188157
  0
VERTEX
  8
0
 62
7
  6
CONTINUOUS
 10
163.5962880372
 20
156.250794807
  0
VERTEX
  8
0
 62
7
  6
CONTINUOUS
 10
163.6051757521
 20
156.7423188717
  0
VERTEX
  8
0
 62
7
  6
CONTINUOUS
 10
163.6137954658
 20
157.280898706
  0
VERTEX
  8
0
 62
7
  6
CONTINUOUS
 10
163.6220553602
 20
157.8703806797
  0
VERTEX
  8
0
 62
7
  6
CONTINUOUS
 10
163.6298142935
 20
158.5123378955
  0
VERTEX
  8
0
 62
7
  6
CONTINUOUS
 10
163.6369150764
 20
159.207604415
  0
VERTEX
  8
0
 62
7
  6
CONTINUOUS
 10
163.6431965776
 20
159.9575294021
  0
VERTEX
  8
0
 62
7
  6
CONTINUOUS
 10
163.6484926872
 20
160.7655028802
  0
VERTEX
  8
0
 62
7
  6
CONTINUOUS
 10
163.6525979184
 20
161.6344848354
  0
VERTEX
  8
0
 62
7
  6
CONTINUOUS
 10
163.6552607553
 20
162.5661976158
  0
VERTEX
  8
0
 62
7
  6
CONTINUOUS
 10
163.6561829028
 20
163.53046875
  0
SEQEND
  0
POLYLINE
  8
0
 62
7
  6
CONTINUOUS
 66
1
 70
0
  0
VERTEX
  8
0
 62
7
  6
CONTINUOUS
 10
137.0161601976
 20
151.530469647
  0
VERTEX
  8
0
 62
7
  6
CONTINUOUS
 10
137.2380581643
 20
151.5552644555
  0
VERTEX
  8
0
 62
7
  6
CONTINUOUS
 10
137.4972705704
 20
151.6530258527
  0
VERTEX
  8
0
 62
7
  6
CONTINUOUS
 10
137.7055421702
 20
151.8037300935
  0
VERTEX
  8
0
 62
7
  6
CONTINUOUS
 10
137.8462210551
 20
151.9671600392
  0
VERTEX
  8
0
 62
7
  6
CONTINUOUS
 10
137.9312439975
 20
152.1146672387
  0
VERTEX
  8
0
 62
7
  6
CONTINUOUS
 10
137.9806684789
 20
152.2381688805
  0
VERTEX
  8
0
 62
7
  6
CONTINUOUS
 10
138.0091620694
 20
152.3376484895
  0
VERTEX
  8
0
 62
7
  6
CONTINUOUS
 10
138.02705543
 20
152.4213948264
  0
VERTEX
  8
0
 62
7
  6
CONTINUOUS
 10
138.0401547014
 20
152.5000785161
  0
VERTEX
  8
0
 62
7
  6
CONTINUOUS
 10
138.0510948022
 20
152.5814768071
  0
VERTEX
  8
0
 62
7
  6
CONTINUOUS
 10
138.0610868069
 20
152.6711618041
  0
VERTEX
  8
0
 62
7
  6
CONTINUOUS
 10
138.0706869188
 20
152.7730818667
  0
VERTEX
  8
0
 62
7
  6
CONTINUOUS
 10
138.0801914633
 20
152.8906718579
  0
VERTEX
  8
0
 62
7
  6
CONTINUOUS
 10
138.0897759028
 20
153.0273164537
  0
VERTEX
  8
0
 62
7
  6
CONTINUOUS
 10
138.0995145224
 20
153.1859567601
  0
VERTEX
  8
0
 62
7
  6
CONTINUOUS
 10
138.1093801092
 20
153.368295076
  0
VERTEX
  8
0
 62
7
  6
CONTINUOUS
 10
138.119315492
 20
153.5753699608
  0
VERTEX
  8
0
 62
7
  6
CONTINUOUS
 10
138.1292513815
 20
153.8076502584
  0
VERTEX
  8
0
 62
7
  6
CONTINUOUS
 10
138.1391366011
 20
154.0657067884
  0
VERTEX
  8
0
 62
7
  6
CONTINUOUS
 10
138.1489595277
 20
154.3511085852
  0
VERTEX
  8
0
 62
7
  6
CONTINUOUS
 10
138.1587040618
 20
154.6655833537
  0
VERTEX
  8
0
 62
7
  6
CONTINUOUS
 10
138.1683451242
 20
155.0108972992
  0
VERTEX
  8
0
 62
7
  6
CONTINUOUS
 10
138.177848972
 20
155.3888346843
  0
VERTEX
  8
0
 62
7
  6
CONTINUOUS
 10
138.1871734815
 20
155.801188157
  0
VERTEX
  8
0
 62
7
  6
CONTINUOUS
 10
138.1962880372
 20
156.250794807
  0
VERTEX
  8
0
 62
7
  6
CONTINUOUS
 10
138.2051757521
 20
156.7423188717
  0
VERTEX
  8
0
 62
7
  6
CONTINUOUS
 10
138.2137954658
 20
157.280898706
  0
VERTEX
  8
0
 62
7
  6
CONTINUOUS
 10
138.2220553602
 20
157.8703806797
  0
VERTEX
  8
0
 62
7
  6
CONTINUOUS
 10
138.2298142935
 20
158.5123378955
  0
VERTEX
  8
0
 62
7
  6
CONTINUOUS
 10
138.2369150764
 20
159.207604415
  0
VERTEX
  8
0
 62
7
  6
CONTINUOUS
 10
138.2431965776
 20
159.9575294021
  0
VERTEX
  8
0
 62
7
  6
CONTINUOUS
 10
138.2484926872
 20
160.7655028802
  0
VERTEX
  8
0
 62
7
  6
CONTINUOUS
 10
138.2525979184
 20
161.6344848354
  0
VERTEX
  8
0
 62
7
  6
CONTINUOUS
 10
138.2552607553
 20
162.5661976158
  0
VERTEX
  8
0
 62
7
  6
CONTINUOUS
 10
138.2561829028
 20
163.53046875
  0
SEQEND
  0
LINE
  8
SURF
 62
7
  6
CONTINUOUS
 10
162.4161620495
 20
151.53046875
 11
152.5221192005
 21
151.53046875
  0
LINE
  8
SURF
 62
7
  6
CONTINUOUS
 10
137.0161620495
 20
151.53046875
 11
127.1221192005
 21
151.53046875
  0
LINE
  8
SURF
 62
7
  6
CONTINUOUS
 10
111.6161620495
 20
151.53046875
 11
101.7221192005
 21
151.53046875
  0
LINE
  8
SURF
 62
7
  6
CONTINUOUS
 10
86.2161620495
 20
151.53046875
 11
76.119140625
 21
151.53046875
  0
POLYLINE
  8
0
 62
7
  6
CONTINUOUS
 66
1
 70
0
  0
VERTEX
  8
0
 62
7
  6
CONTINUOUS
 10
111.6161601976
 20
151.530469647
  0
VERTEX
  8
0
 62
7
  6
CONTINUOUS
 10
111.8380581643
 20
151.5552644555
  0
VERTEX
  8
0
 62
7
  6
CONTINUOUS
 10
112.0972705704
 20
151.6530258527
  0
VERTEX
  8
0
 62
7
  6
CONTINUOUS
 10
112.3055421702
 20
151.8037300935
  0
VERTEX
  8
0
 62
7
  6
CONTINUOUS
 10
112.4462210551
 20
151.9671600392
  0
VERTEX
  8
0
 62
7
  6
CONTINUOUS
 10
112.5312439975
 20
152.1146672387
  0
VERTEX
  8
0
 62
7
  6
CONTINUOUS
 10
112.5806684789
 20
152.2381688804
  0
VERTEX
  8
0
 62
7
  6
CONTINUOUS
 10
112.6091620694
 20
152.3376484895
  0
VERTEX
  8
0
 62
7
  6
CONTINUOUS
 10
112.62705543
 20
152.4213948264
  0
VERTEX
  8
0
 62
7
  6
CONTINUOUS
 10
112.6401547014
 20
152.5000785161
  0
VERTEX
  8
0
 62
7
  6
CONTINUOUS
 10
112.6510948022
 20
152.5814768071
  0
VERTEX
  8
0
 62
7
  6
CONTINUOUS
 10
112.6610868069
 20
152.6711618041
  0
VERTEX
  8
0
 62
7
  6
CONTINUOUS
 10
112.6706869188
 20
152.7730818667
  0
VERTEX
  8
0
 62
7
  6
CONTINUOUS
 10
112.6801914633
 20
152.8906718579
  0
VERTEX
  8
0
 62
7
  6
CONTINUOUS
 10
112.6897759028
 20
153.0273164537
  0
VERTEX
  8
0
 62
7
  6
CONTINUOUS
 10
112.6995145224
 20
153.1859567601
  0
VERTEX
  8
0
 62
7
  6
CONTINUOUS
 10
112.7093801092
 20
153.368295076
  0
VERTEX
  8
0
 62
7
  6
CONTINUOUS
 10
112.719315492
 20
153.5753699608
  0
VERTEX
  8
0
 62
7
  6
CONTINUOUS
 10
112.7292513815
 20
153.8076502584
  0
VERTEX
  8
0
 62
7
  6
CONTINUOUS
 10
112.7391366011
 20
154.0657067884
  0
VERTEX
  8
0
 62
7
  6
CONTINUOUS
 10
112.7489595277
 20
154.3511085852
  0
VERTEX
  8
0
 62
7
  6
CONTINUOUS
 10
112.7587040618
 20
154.6655833537
  0
VERTEX
  8
0
 62
7
  6
CONTINUOUS
 10
112.7683451242
 20
155.0108972992
  0
VERTEX
  8
0
 62
7
  6
CONTINUOUS
 10
112.777848972
 20
155.3888346843
  0
VERTEX
  8
0
 62
7
  6
CONTINUOUS
 10
112.7871734815
 20
155.801188157
  0
VERTEX
  8
0
 62
7
  6
CONTINUOUS
 10
112.7962880372
 20
156.250794807
  0
VERTEX
  8
0
 62
7
  6
CONTINUOUS
 10
112.8051757521
 20
156.7423188717
  0
VERTEX
  8
0
 62
7
  6
CONTINUOUS
 10
112.8137954658
 20
157.280898706
  0
VERTEX
  8
0
 62
7
  6
CONTINUOUS
 10
112.8220553602
 20
157.8703806797
  0
VERTEX
  8
0
 62
7
  6
CONTINUOUS
 10
112.8298142935
 20
158.5123378955
  0
VERTEX
  8
0
 62
7
  6
CONTINUOUS
 10
112.8369150764
 20
159.207604415
  0
VERTEX
  8
0
 62
7
  6
CONTINUOUS
 10
112.8431965776
 20
159.9575294021
  0
VERTEX
  8
0
 62
7
  6
CONTINUOUS
 10
112.8484926872
 20
160.7655028802
  0
VERTEX
  8
0
 62
7
  6
CONTINUOUS
 10
112.8525979184
 20
161.6344848354
  0
VERTEX
  8
0
 62
7
  6
CONTINUOUS
 10
112.8552607553
 20
162.5661976158
  0
VERTEX
  8
0
 62
7
  6
CONTINUOUS
 10
112.8561829028
 20
163.53046875
  0
SEQEND
  0
POLYLINE
  8
0
 62
7
  6
CONTINUOUS
 66
1
 70
0
  0
VERTEX
  8
0
 62
7
  6
CONTINUOUS
 10
86.2161601976
 20
151.530469647
  0
VERTEX
  8
0
 62
7
  6
CONTINUOUS
 10
86.4380581643
 20
151.5552644555
  0
VERTEX
  8
0
 62
7
  6
CONTINUOUS
 10
86.6972705704
 20
151.6530258527
  0
VERTEX
  8
0
 62
7
  6
CONTINUOUS
 10
86.9055421702
 20
151.8037300935
  0
VERTEX
  8
0
 62
7
  6
CONTINUOUS
 10
87.0462210551
 20
151.9671600392
  0
VERTEX
  8
0
 62
7
  6
CONTINUOUS
 10
87.1312439975
 20
152.1146672387
  0
VERTEX
  8
0
 62
7
  6
CONTINUOUS
 10
87.1806684789
 20
152.2381688804
  0
VERTEX
  8
0
 62
7
  6
CONTINUOUS
 10
87.2091620694
 20
152.3376484895
  0
VERTEX
  8
0
 62
7
  6
CONTINUOUS
 10
87.22705543
 20
152.4213948264
  0
VERTEX
  8
0
 62
7
  6
CONTINUOUS
 10
87.2401547014
 20
152.5000785161
  0
VERTEX
  8
0
 62
7
  6
CONTINUOUS
 10
87.2510948022
 20
152.5814768071
  0
VERTEX
  8
0
 62
7
  6
CONTINUOUS
 10
87.2610868069
 20
152.6711618041
  0
VERTEX
  8
0
 62
7
  6
CONTINUOUS
 10
87.2706869188
 20
152.7730818667
  0
VERTEX
  8
0
 62
7
  6
CONTINUOUS
 10
87.2801914633
 20
152.8906718579
  0
VERTEX
  8
0
 62
7
  6
CONTINUOUS
 10
87.2897759028
 20
153.0273164537
  0
VERTEX
  8
0
 62
7
  6
CONTINUOUS
 10
87.2995145224
 20
153.1859567601
  0
VERTEX
  8
0
 62
7
  6
CONTINUOUS
 10
87.3093801092
 20
153.368295076
  0
VERTEX
  8
0
 62
7
  6
CONTINUOUS
 10
87.319315492
 20
153.5753699608
  0
VERTEX
  8
0
 62
7
  6
CONTINUOUS
 10
87.3292513815
 20
153.8076502584
  0
VERTEX
  8
0
 62
7
  6
CONTINUOUS
 10
87.3391366011
 20
154.0657067884
  0
VERTEX
  8
0
 62
7
  6
CONTINUOUS
 10
87.3489595277
 20
154.3511085852
  0
VERTEX
  8
0
 62
7
  6
CONTINUOUS
 10
87.3587040618
 20
154.6655833537
  0
VERTEX
  8
0
 62
7
  6
CONTINUOUS
 10
87.3683451242
 20
155.0108972992
  0
VERTEX
  8
0
 62
7
  6
CONTINUOUS
 10
87.377848972
 20
155.3888346843
  0
VERTEX
  8
0
 62
7
  6
CONTINUOUS
 10
87.3871734815
 20
155.801188157
  0
VERTEX
  8
0
 62
7
  6
CONTINUOUS
 10
87.3962880372
 20
156.250794807
  0
VERTEX
  8
0
 62
7
  6
CONTINUOUS
 10
87.4051757521
 20
156.7423188717
  0
VERTEX
  8
0
 62
7
  6
CONTINUOUS
 10
87.4137954658
 20
157.280898706
  0
VERTEX
  8
0
 62
7
  6
CONTINUOUS
 10
87.4220553602
 20
157.8703806797
  0
VERTEX
  8
0
 62
7
  6
CONTINUOUS
 10
87.4298142935
 20
158.5123378955
  0
VERTEX
  8
0
 62
7
  6
CONTINUOUS
 10
87.4369150764
 20
159.207604415
  0
VERTEX
  8
0
 62
7
  6
CONTINUOUS
 10
87.4431965776
 20
159.9575294021
  0
VERTEX
  8
0
 62
7
  6
CONTINUOUS
 10
87.4484926872
 20
160.7655028802
  0
VERTEX
  8
0
 62
7
  6
CONTINUOUS
 10
87.4525979184
 20
161.6344848354
  0
VERTEX
  8
0
 62
7
  6
CONTINUOUS
 10
87.4552607553
 20
162.5661976158
  0
VERTEX
  8
0
 62
7
  6
CONTINUOUS
 10
87.4561829028
 20
163.53046875
  0
SEQEND
  0
POLYLINE
  8
0
 62
7
  6
CONTINUOUS
 66
1
 70
0
  0
VERTEX
  8
0
 62
7
  6
CONTINUOUS
 10
100.1561829028
 20
214.68046875
  0
VERTEX
  8
0
 62
7
  6
CONTINUOUS
 10
100.1550063731
 20
215.7693601252
  0
VERTEX
  8
0
 62
7
  6
CONTINUOUS
 10
100.1516643324
 20
216.8069812365
  0
VERTEX
  8
0
 62
7
  6
CONTINUOUS
 10
100.1465709819
 20
217.7653928248
  0
VERTEX
  8
0
 62
7
  6
CONTINUOUS
 10
100.1400712097
 20
218.646916688
  0
VERTEX
  8
0
 62
7
  6
CONTINUOUS
 10
100.1324424732
 20
219.4556651069
  0
VERTEX
  8
0
 62
7
  6
CONTINUOUS
 10
100.1239116467
 20
220.1958595675
  0
VERTEX
  8
0
 62
7
  6
CONTINUOUS
 10
100.1146732547
 20
220.871156522
  0
VERTEX
  8
0
 62
7
  6
CONTINUOUS
 10
100.1048852338
 20
221.4856304263
  0
VERTEX
  8
0
 62
7
  6
CONTINUOUS
 10
100.0946808341
 20
222.0431310271
  0
VERTEX
  8
0
 62
7
  6
CONTINUOUS
 10
100.0841739292
 20
222.5472755006
  0
VERTEX
  8
0
 62
7
  6
CONTINUOUS
 10
100.0734550901
 20
223.0017819261
  0
VERTEX
  8
0
 62
7
  6
CONTINUOUS
 10
100.0625937461
 20
223.4103496998
  0
VERTEX
  8
0
 62
7
  6
CONTINUOUS
 10
100.0516405267
 20
223.7765563556
  0
VERTEX
  8
0
 62
7
  6
CONTINUOUS
 10
100.0406279584
 20
224.1038234382
  0
VERTEX
  8
0
 62
7
  6
CONTINUOUS
 10
100.0295726655
 20
224.3953343518
  0
VERTEX
  8
0
 62
7
  6
CONTINUOUS
 10
100.0185105036
 20
224.6532589517
  0
VERTEX
  8
0
 62
7
  6
CONTINUOUS
 10
100.0074980245
 20
224.8791719333
  0
VERTEX
  8
0
 62
7
  6
CONTINUOUS
 10
99.9965753676
 20
225.0750346027
  0
VERTEX
  8
0
 62
7
  6
CONTINUOUS
 10
99.9857543975
 20
225.2432401742
  0
VERTEX
  8
0
 62
7
  6
CONTINUOUS
 10
99.975026845
 20
225.3863000595
  0
VERTEX
  8
0
 62
7
  6
CONTINUOUS
 10
99.964363508
 20
225.5068062437
  0
VERTEX
  8
0
 62
7
  6
CONTINUOUS
 10
99.9535524638
 20
225.6088516782
  0
VERTEX
  8
0
 62
7
  6
CONTINUOUS
 10
99.9420035774
 20
225.6982108068
  0
VERTEX
  8
0
 62
7
  6
CONTINUOUS
 10
99.9285400233
 20
225.7814898915
  0
VERTEX
  8
0
 62
7
  6
CONTINUOUS
 10
99.9107237007
 20
225.8668114879
  0
VERTEX
  8
0
 62
7
  6
CONTINUOUS
 10
99.882301612
 20
225.9678260245
  0
VERTEX
  8
0
 62
7
  6
CONTINUOUS
 10
99.8298645647
 20
226.0991760054
  0
VERTEX
  8
0
 62
7
  6
CONTINUOUS
 10
99.7403349661
 20
226.2521987986
  0
VERTEX
  8
0
 62
7
  6
CONTINUOUS
 10
99.6016756968
 20
226.4108184893
  0
VERTEX
  8
0
 62
7
  6
CONTINUOUS
 10
99.3952817183
 20
226.5589918305
  0
VERTEX
  8
0
 62
7
  6
CONTINUOUS
 10
99.1362522188
 20
226.6560799671
  0
VERTEX
  8
0
 62
7
  6
CONTINUOUS
 10
98.9161602212
 20
226.680467853
  0
SEQEND
  0
POLYLINE
  8
0
 62
7
  6
CONTINUOUS
 66
1
 70
0
  0
VERTEX
  8
0
 62
7
  6
CONTINUOUS
 10
100.4820983472
 20
163.53046875
  0
VERTEX
  8
0
 62
7
  6
CONTINUOUS
 10
100.4832748769
 20
162.4415773748
  0
VERTEX
  8
0
 62
7
  6
CONTINUOUS
 10
100.4866169176
 20
161.4039562635
  0
VERTEX
  8
0
 62
7
  6
CONTINUOUS
 10
100.4917102681
 20
160.4455446752
  0
VERTEX
  8
0
 62
7
  6
CONTINUOUS
 10
100.4982100403
 20
159.564020812
  0
VERTEX
  8
0
 62
7
  6
CONTINUOUS
 10
100.5058387768
 20
158.7552723931
  0
VERTEX
  8
0
 62
7
  6
CONTINUOUS
 10
100.5143696033
 20
158.0150779325
  0
VERTEX
  8
0
 62
7
  6
CONTINUOUS
 10
100.5236079953
 20
157.339780978
  0
VERTEX
  8
0
 62
7
  6
CONTINUOUS
 10
100.5333960162
 20
156.7253070737
  0
VERTEX
  8
0
 62
7
  6
CONTINUOUS
 10
100.5436004159
 20
156.1678064729
  0
VERTEX
  8
0
 62
7
  6
CONTINUOUS
 10
100.5541073208
 20
155.6636619994
  0
VERTEX
  8
0
 62
7
  6
CONTINUOUS
 10
100.5648261599
 20
155.2091555739
  0
VERTEX
  8
0
 62
7
  6
CONTINUOUS
 10
100.5756875039
 20
154.8005878002
  0
VERTEX
  8
0
 62
7
  6
CONTINUOUS
 10
100.5866407233
 20
154.4343811444
  0
VERTEX
  8
0
 62
7
  6
CONTINUOUS
 10
100.5976532916
 20
154.1071140618
  0
VERTEX
  8
0
 62
7
  6
CONTINUOUS
 10
100.6087085845
 20
153.8156031482
  0
VERTEX
  8
0
 62
7
  6
CONTINUOUS
 10
100.6197707464
 20
153.5576785483
  0
VERTEX
  8
0
 62
7
  6
CONTINUOUS
 10
100.6307832255
 20
153.3317655667
  0
VERTEX
  8
0
 62
7
  6
CONTINUOUS
 10
100.6417058824
 20
153.1359028973
  0
VERTEX
  8
0
 62
7
  6
CONTINUOUS
 10
100.6525268525
 20
152.9676973258
  0
VERTEX
  8
0
 62
7
  6
CONTINUOUS
 10
100.663254405
 20
152.8246374405
  0
VERTEX
  8
0
 62
7
  6
CONTINUOUS
 10
100.673917742
 20
152.7041312563
  0
VERTEX
  8
0
 62
7
  6
CONTINUOUS
 10
100.6847287862
 20
152.6020858218
  0
VERTEX
  8
0
 62
7
  6
CONTINUOUS
 10
100.6962776726
 20
152.5127266932
  0
VERTEX
  8
0
 62
7
  6
CONTINUOUS
 10
100.7097412267
 20
152.4294476085
  0
VERTEX
  8
0
 62
7
  6
CONTINUOUS
 10
100.7275575493
 20
152.3441260121
  0
VERTEX
  8
0
 62
7
  6
CONTINUOUS
 10
100.755979638
 20
152.2431114755
  0
VERTEX
  8
0
 62
7
  6
CONTINUOUS
 10
100.8084166853
 20
152.1117614946
  0
VERTEX
  8
0
 62
7
  6
CONTINUOUS
 10
100.8979462839
 20
151.9587387014
  0
VERTEX
  8
0
 62
7
  6
CONTINUOUS
 10
101.0366055532
 20
151.8001190107
  0
VERTEX
  8
0
 62
7
  6
CONTINUOUS
 10
101.2429995317
 20
151.6519456695
  0
VERTEX
  8
0
 62
7
  6
CONTINUOUS
 10
101.5020290312
 20
151.5548575329
  0
VERTEX
  8
0
 62
7
  6
CONTINUOUS
 10
101.7221210288
 20
151.530469647
  0
SEQEND
  0
LINE
  8
0
 62
7
  6
CONTINUOUS
 10
100.1561829059
 20
214.68046875
 11
100.1561829059
 21
207.8049468281
  0
LINE
  8
0
 62
7
  6
CONTINUOUS
 10
100.4820983441
 20
163.53046875
 11
100.4820983441
 21
170.4059905191
  0
POLYLINE
  8
0
 62
7
  6
CONTINUOUS
 66
1
 70
0
  0
VERTEX
  8
0
 62
7
  6
CONTINUOUS
 10
175.319140625
 20
171.409767356
  0
VERTEX
  8
0
 62
7
  6
CONTINUOUS
 10
175.5789099255
 20
171.444096651
  0
VERTEX
  8
0
 62
7
  6
CONTINUOUS
 10
175.8200183009
 20
171.544249272
  0
VERTEX
  8
0
 62
7
  6
CONTINUOUS
 10
176.0265236299
 20
171.7029369065
  0
VERTEX
  8
0
 62
7
  6
CONTINUOUS
 10
176.1848456383
 20
171.9092128336
  0
VERTEX
  8
0
 62
7
  6
CONTINUOUS
 10
176.2848539631
 20
172.1501565923
  0
VERTEX
  8
0
 62
7
  6
CONTINUOUS
 10
176.319140625
 20
172.409767356
  0
SEQEND
  0
LINE
  8
DEFAULT_1
 62
2
  6
CENTER
 10
73.119140625
 20
163.70546875
 11
165.5336829989
 21
163.70546875
  0
POLYLINE
  8
0
 62
7
  6
CONTINUOUS
 66
1
 70
0
  0
VERTEX
  8
0
 62
7
  6
CONTINUOUS
 10
164.6001745083
 20
171.4083675794
  0
VERTEX
  8
0
 62
7
  6
CONTINUOUS
 10
164.6120127792
 20
171.4095045251
  0
VERTEX
  8
0
 62
7
  6
CONTINUOUS
 10
164.6210198037
 20
171.4097677881
  0
SEQEND
  0
POLYLINE
  8
0
 62
7
  6
CONTINUOUS
 66
1
 70
0
  0
VERTEX
  8
0
 62
7
  6
CONTINUOUS
 10
139.2001745085
 20
171.4083675794
  0
VERTEX
  8
0
 62
7
  6
CONTINUOUS
 10
139.2120127841
 20
171.4095045254
  0
VERTEX
  8
0
 62
7
  6
CONTINUOUS
 10
139.2210198172
 20
171.4097677881
  0
SEQEND
  0
POLYLINE
  8
0
 62
7
  6
CONTINUOUS
 66
1
 70
0
  0
VERTEX
  8
0
 62
7
  6
CONTINUOUS
 10
99.5172617358
 20
171.409767784
  0
VERTEX
  8
0
 62
7
  6
CONTINUOUS
 10
99.5264575401
 20
171.4094935063
  0
VERTEX
  8
0
 62
7
  6
CONTINUOUS
 10
99.5379899574
 20
171.4083830658
  0
SEQEND
  0
POLYLINE
  8
0
 62
7
  6
CONTINUOUS
 66
1
 70
0
  0
VERTEX
  8
0
 62
7
  6
CONTINUOUS
 10
99.5379901053
 20
171.4083841889
  0
VERTEX
  8
0
 62
7
  6
CONTINUOUS
 10
99.6496433129
 20
171.3928995604
  0
VERTEX
  8
0
 62
7
  6
CONTINUOUS
 10
99.9683474447
 20
171.2802279342
  0
VERTEX
  8
0
 62
7
  6
CONTINUOUS
 10
100.1857385994
 20
171.1168117377
  0
VERTEX
  8
0
 62
7
  6
CONTINUOUS
 10
100.276016404
 20
171.0142234672
  0
VERTEX
  8
0
 62
7
  6
CONTINUOUS
 10
100.4109665827
 20
170.7765127349
  0
VERTEX
  8
0
 62
7
  6
CONTINUOUS
 10
100.4764711613
 20
170.5119546264
  0
VERTEX
  8
0
 62
7
  6
CONTINUOUS
 10
100.4820968103
 20
170.4059905906
  0
SEQEND
  0
LINE
  8
0
 62
7
  6
CONTINUOUS
 10
112.8561829059
 20
170.405990547
 11
112.8561829059
 21
163.53046875
  0
LINE
  8
0
 62
7
  6
CONTINUOUS
 10
113.1820983441
 20
207.8049468236
 11
113.1820983441
 21
214.68046875
  0
POLYLINE
  8
0
 62
7
  6
CONTINUOUS
 66
1
 70
0
  0
VERTEX
  8
0
 62
7
  6
CONTINUOUS
 10
113.1820966637
 20
207.8049468236
  0
VERTEX
  8
0
 62
7
  6
CONTINUOUS
 10
113.1762029496
 20
207.6964958462
  0
VERTEX
  8
0
 62
7
  6
CONTINUOUS
 10
113.1100801719
 20
207.4322091474
  0
VERTEX
  8
0
 62
7
  6
CONTINUOUS
 10
112.9746359023
 20
207.194914864
  0
VERTEX
  8
0
 62
7
  6
CONTINUOUS
 10
112.8841679728
 20
207.0925728862
  0
VERTEX
  8
0
 62
7
  6
CONTINUOUS
 10
112.6665609989
 20
206.9297164405
  0
VERTEX
  8
0
 62
7
  6
CONTINUOUS
 10
112.3455693917
 20
206.8173285594
  0
VERTEX
  8
0
 62
7
  6
CONTINUOUS
 10
112.2380798319
 20
206.8025647805
  0
SEQEND
  0
POLYLINE
  8
0
 62
7
  6
CONTINUOUS
 66
1
 70
0
  0
VERTEX
  8
0
 62
7
  6
CONTINUOUS
 10
112.8561844481
 20
170.405990547
  0
VERTEX
  8
0
 62
7
  6
CONTINUOUS
 10
112.8620769192
 20
170.514430141
  0
VERTEX
  8
0
 62
7
  6
CONTINUOUS
 10
112.9281877
 20
170.7786952369
  0
VERTEX
  8
0
 62
7
  6
CONTINUOUS
 10
113.0636093889
 20
171.0159759089
  0
VERTEX
  8
0
 62
7
  6
CONTINUOUS
 10
113.1540640191
 20
171.1183160169
  0
VERTEX
  8
0
 62
7
  6
CONTINUOUS
 10
113.3716405173
 20
171.2811768636
  0
VERTEX
  8
0
 62
7
  6
CONTINUOUS
 10
113.6918266604
 20
171.3934559649
  0
VERTEX
  8
0
 62
7
  6
CONTINUOUS
 10
113.800181127
 20
171.4083695843
  0
SEQEND
  0
POLYLINE
  8
0
 62
7
  6
CONTINUOUS
 66
1
 70
0
  0
VERTEX
  8
0
 62
7
  6
CONTINUOUS
 10
113.8001813095
 20
171.4083685039
  0
VERTEX
  8
0
 62
7
  6
CONTINUOUS
 10
113.8120023596
 20
171.4095039991
  0
VERTEX
  8
0
 62
7
  6
CONTINUOUS
 10
113.821019868
 20
171.4097678127
  0
SEQEND
  0
POLYLINE
  8
0
 62
7
  6
CONTINUOUS
 66
1
 70
0
  0
VERTEX
  8
0
 62
7
  6
CONTINUOUS
 10
88.4001813093
 20
171.4083685039
  0
VERTEX
  8
0
 62
7
  6
CONTINUOUS
 10
88.4120023595
 20
171.4095039991
  0
VERTEX
  8
0
 62
7
  6
CONTINUOUS
 10
88.421019868
 20
171.4097678127
  0
SEQEND
  0
LINE
  8
0
 62
7
  6
CONTINUOUS
 10
175.319140625
 20
171.409767356
 11
164.6210198037
 21
171.409767356
  0
LINE
  8
0
 62
7
  6
CONTINUOUS
 10
150.3172617359
 20
171.409767356
 11
139.2210198172
 21
171.409767356
  0
LINE
  8
0
 62
7
  6
CONTINUOUS
 10
124.9172617359
 20
171.409767356
 11
113.8210198681
 21
171.409767356
  0
LINE
  8
0
 62
7
  6
CONTINUOUS
 10
99.5172617359
 20
171.409767356
 11
88.4210198681
 21
171.409767356
  0
POLYLINE
  8
0
 62
7
  6
CONTINUOUS
 66
1
 70
0
  0
VERTEX
  8
0
 62
7
  6
CONTINUOUS
 10
124.9172617359
 20
171.4097678163
  0
VERTEX
  8
0
 62
7
  6
CONTINUOUS
 10
124.9264422232
 20
171.4094942988
  0
VERTEX
  8
0
 62
7
  6
CONTINUOUS
 10
124.9379911935
 20
171.4083829772
  0
SEQEND
  0
POLYLINE
  8
0
 62
7
  6
CONTINUOUS
 66
1
 70
0
  0
VERTEX
  8
0
 62
7
  6
CONTINUOUS
 10
150.3172617359
 20
171.4097678163
  0
VERTEX
  8
0
 62
7
  6
CONTINUOUS
 10
150.3264422231
 20
171.4094942988
  0
VERTEX
  8
0
 62
7
  6
CONTINUOUS
 10
150.3379911934
 20
171.4083829772
  0
SEQEND
  0
POLYLINE
  8
0
 62
7
  6
CONTINUOUS
 66
1
 70
0
  0
VERTEX
  8
0
 62
7
  6
CONTINUOUS
 10
124.9379913263
 20
171.4083839855
  0
VERTEX
  8
0
 62
7
  6
CONTINUOUS
 10
125.0495850209
 20
171.3929096571
  0
VERTEX
  8
0
 62
7
  6
CONTINUOUS
 10
125.3683249945
 20
171.2802404147
  0
VERTEX
  8
0
 62
7
  6
CONTINUOUS
 10
125.5857132717
 20
171.1168368216
  0
VERTEX
  8
0
 62
7
  6
CONTINUOUS
 10
125.6759962138
 20
171.0142498264
  0
VERTEX
  8
0
 62
7
  6
CONTINUOUS
 10
125.8109559774
 20
170.7765392498
  0
VERTEX
  8
0
 62
7
  6
CONTINUOUS
 10
125.8764692694
 20
170.5119717843
  0
VERTEX
  8
0
 62
7
  6
CONTINUOUS
 10
125.8820967367
 20
170.4059906393
  0
SEQEND
  0
POLYLINE
  8
0
 62
7
  6
CONTINUOUS
 66
1
 70
0
  0
VERTEX
  8
0
 62
7
  6
CONTINUOUS
 10
150.3379913262
 20
171.4083839855
  0
VERTEX
  8
0
 62
7
  6
CONTINUOUS
 10
150.4495850255
 20
171.3929096563
  0
VERTEX
  8
0
 62
7
  6
CONTINUOUS
 10
150.7683249963
 20
171.2802404137
  0
VERTEX
  8
0
 62
7
  6
CONTINUOUS
 10
150.9857132738
 20
171.1168368195
  0
VERTEX
  8
0
 62
7
  6
CONTINUOUS
 10
151.0759962155
 20
171.0142498241
  0
VERTEX
  8
0
 62
7
  6
CONTINUOUS
 10
151.2109559781
 20
170.7765392481
  0
VERTEX
  8
0
 62
7
  6
CONTINUOUS
 10
151.2764692694
 20
170.5119717838
  0
VERTEX
  8
0
 62
7
  6
CONTINUOUS
 10
151.2820967368
 20
170.4059906393
  0
SEQEND
  0
POLYLINE
  8
0
 62
7
  6
CONTINUOUS
 66
1
 70
0
  0
VERTEX
  8
0
 62
7
  6
CONTINUOUS
 10
125.5561829028
 20
214.68046875
  0
VERTEX
  8
0
 62
7
  6
CONTINUOUS
 10
125.5550063731
 20
215.7693601252
  0
VERTEX
  8
0
 62
7
  6
CONTINUOUS
 10
125.5516643324
 20
216.8069812365
  0
VERTEX
  8
0
 62
7
  6
CONTINUOUS
 10
125.5465709819
 20
217.7653928248
  0
VERTEX
  8
0
 62
7
  6
CONTINUOUS
 10
125.5400712097
 20
218.646916688
  0
VERTEX
  8
0
 62
7
  6
CONTINUOUS
 10
125.5324424732
 20
219.4556651069
  0
VERTEX
  8
0
 62
7
  6
CONTINUOUS
 10
125.5239116467
 20
220.1958595675
  0
VERTEX
  8
0
 62
7
  6
CONTINUOUS
 10
125.5146732547
 20
220.871156522
  0
VERTEX
  8
0
 62
7
  6
CONTINUOUS
 10
125.5048852338
 20
221.4856304263
  0
VERTEX
  8
0
 62
7
  6
CONTINUOUS
 10
125.4946808341
 20
222.0431310271
  0
VERTEX
  8
0
 62
7
  6
CONTINUOUS
 10
125.4841739292
 20
222.5472755006
  0
VERTEX
  8
0
 62
7
  6
CONTINUOUS
 10
125.4734550901
 20
223.0017819261
  0
VERTEX
  8
0
 62
7
  6
CONTINUOUS
 10
125.4625937461
 20
223.4103496998
  0
VERTEX
  8
0
 62
7
  6
CONTINUOUS
 10
125.4516405267
 20
223.7765563556
  0
VERTEX
  8
0
 62
7
  6
CONTINUOUS
 10
125.4406279584
 20
224.1038234382
  0
VERTEX
  8
0
 62
7
  6
CONTINUOUS
 10
125.4295726655
 20
224.3953343518
  0
VERTEX
  8
0
 62
7
  6
CONTINUOUS
 10
125.4185105036
 20
224.6532589517
  0
VERTEX
  8
0
 62
7
  6
CONTINUOUS
 10
125.4074980245
 20
224.8791719333
  0
VERTEX
  8
0
 62
7
  6
CONTINUOUS
 10
125.3965753676
 20
225.0750346027
  0
VERTEX
  8
0
 62
7
  6
CONTINUOUS
 10
125.3857543975
 20
225.2432401742
  0
VERTEX
  8
0
 62
7
  6
CONTINUOUS
 10
125.375026845
 20
225.3863000595
  0
VERTEX
  8
0
 62
7
  6
CONTINUOUS
 10
125.364363508
 20
225.5068062437
  0
VERTEX
  8
0
 62
7
  6
CONTINUOUS
 10
125.3535524638
 20
225.6088516782
  0
VERTEX
  8
0
 62
7
  6
CONTINUOUS
 10
125.3420035774
 20
225.6982108068
  0
VERTEX
  8
0
 62
7
  6
CONTINUOUS
 10
125.3285400233
 20
225.7814898915
  0
VERTEX
  8
0
 62
7
  6
CONTINUOUS
 10
125.3107237007
 20
225.8668114879
  0
VERTEX
  8
0
 62
7
  6
CONTINUOUS
 10
125.282301612
 20
225.9678260245
  0
VERTEX
  8
0
 62
7
  6
CONTINUOUS
 10
125.2298645647
 20
226.0991760054
  0
VERTEX
  8
0
 62
7
  6
CONTINUOUS
 10
125.1403349661
 20
226.2521987986
  0
VERTEX
  8
0
 62
7
  6
CONTINUOUS
 10
125.0016756968
 20
226.4108184893
  0
VERTEX
  8
0
 62
7
  6
CONTINUOUS
 10
124.7952817183
 20
226.5589918305
  0
VERTEX
  8
0
 62
7
  6
CONTINUOUS
 10
124.5362522188
 20
226.6560799671
  0
VERTEX
  8
0
 62
7
  6
CONTINUOUS
 10
124.3161602212
 20
226.680467853
  0
SEQEND
  0
POLYLINE
  8
0
 62
7
  6
CONTINUOUS
 66
1
 70
0
  0
VERTEX
  8
0
 62
7
  6
CONTINUOUS
 10
125.8820983472
 20
163.53046875
  0
VERTEX
  8
0
 62
7
  6
CONTINUOUS
 10
125.8832748769
 20
162.4415773748
  0
VERTEX
  8
0
 62
7
  6
CONTINUOUS
 10
125.8866169176
 20
161.4039562635
  0
VERTEX
  8
0
 62
7
  6
CONTINUOUS
 10
125.8917102681
 20
160.4455446752
  0
VERTEX
  8
0
 62
7
  6
CONTINUOUS
 10
125.8982100403
 20
159.564020812
  0
VERTEX
  8
0
 62
7
  6
CONTINUOUS
 10
125.9058387768
 20
158.7552723931
  0
VERTEX
  8
0
 62
7
  6
CONTINUOUS
 10
125.9143696033
 20
158.0150779324
  0
VERTEX
  8
0
 62
7
  6
CONTINUOUS
 10
125.9236079953
 20
157.339780978
  0
VERTEX
  8
0
 62
7
  6
CONTINUOUS
 10
125.9333960162
 20
156.7253070737
  0
VERTEX
  8
0
 62
7
  6
CONTINUOUS
 10
125.9436004159
 20
156.1678064729
  0
VERTEX
  8
0
 62
7
  6
CONTINUOUS
 10
125.9541073208
 20
155.6636619994
  0
VERTEX
  8
0
 62
7
  6
CONTINUOUS
 10
125.9648261599
 20
155.2091555739
  0
VERTEX
  8
0
 62
7
  6
CONTINUOUS
 10
125.9756875039
 20
154.8005878002
  0
VERTEX
  8
0
 62
7
  6
CONTINUOUS
 10
125.9866407233
 20
154.4343811444
  0
VERTEX
  8
0
 62
7
  6
CONTINUOUS
 10
125.9976532916
 20
154.1071140618
  0
VERTEX
  8
0
 62
7
  6
CONTINUOUS
 10
126.0087085845
 20
153.8156031482
  0
VERTEX
  8
0
 62
7
  6
CONTINUOUS
 10
126.0197707464
 20
153.5576785483
  0
VERTEX
  8
0
 62
7
  6
CONTINUOUS
 10
126.0307832255
 20
153.3317655667
  0
VERTEX
  8
0
 62
7
  6
CONTINUOUS
 10
126.0417058824
 20
153.1359028973
  0
VERTEX
  8
0
 62
7
  6
CONTINUOUS
 10
126.0525268525
 20
152.9676973258
  0
VERTEX
  8
0
 62
7
  6
CONTINUOUS
 10
126.063254405
 20
152.8246374405
  0
VERTEX
  8
0
 62
7
  6
CONTINUOUS
 10
126.073917742
 20
152.7041312563
  0
VERTEX
  8
0
 62
7
  6
CONTINUOUS
 10
126.0847287862
 20
152.6020858218
  0
VERTEX
  8
0
 62
7
  6
CONTINUOUS
 10
126.0962776726
 20
152.5127266932
  0
VERTEX
  8
0
 62
7
  6
CONTINUOUS
 10
126.1097412267
 20
152.4294476085
  0
VERTEX
  8
0
 62
7
  6
CONTINUOUS
 10
126.1275575493
 20
152.3441260121
  0
VERTEX
  8
0
 62
7
  6
CONTINUOUS
 10
126.155979638
 20
152.2431114755
  0
VERTEX
  8
0
 62
7
  6
CONTINUOUS
 10
126.2084166853
 20
152.1117614946
  0
VERTEX
  8
0
 62
7
  6
CONTINUOUS
 10
126.2979462839
 20
151.9587387014
  0
VERTEX
  8
0
 62
7
  6
CONTINUOUS
 10
126.4366055532
 20
151.8001190107
  0
VERTEX
  8
0
 62
7
  6
CONTINUOUS
 10
126.6429995317
 20
151.6519456695
  0
VERTEX
  8
0
 62
7
  6
CONTINUOUS
 10
126.9020290312
 20
151.5548575329
  0
VERTEX
  8
0
 62
7
  6
CONTINUOUS
 10
127.1221210288
 20
151.530469647
  0
SEQEND
  0
LINE
  8
0
 62
7
  6
CONTINUOUS
 10
125.5561829059
 20
214.68046875
 11
125.5561829059
 21
207.8049468028
  0
LINE
  8
DEFAULT_1
 62
2
  6
CENTER
 10
125.719140625
 20
194.35546875
 11
125.719140625
 21
191.10556875
  0
LINE
  8
0
 62
2
  6
CONTINUOUS
 10
125.719140625
 20
190.15546875
 11
125.719140625
 21
188.05546875
  0
LINE
  8
DEFAULT_1
 62
2
  6
CENTER
 10
125.719140625
 20
183.85546875
 11
125.719140625
 21
187.10536875
  0
LINE
  8
0
 62
7
  6
CONTINUOUS
 10
125.8820983441
 20
163.53046875
 11
125.8820983441
 21
170.4059905698
  0
LINE
  8
DEFAULT_1
 62
2
  6
CENTER
 10
130.969140625
 20
189.10546875
 11
127.719240625
 21
189.10546875
  0
LINE
  8
0
 62
2
  6
CONTINUOUS
 10
126.769140625
 20
189.10546875
 11
124.669140625
 21
189.10546875
  0
LINE
  8
DEFAULT_1
 62
2
  6
CENTER
 10
120.469140625
 20
189.10546875
 11
123.719040625
 21
189.10546875
  0
LINE
  8
0
 62
7
  6
CONTINUOUS
 10
138.2561829059
 20
170.4059904957
 11
138.2561829059
 21
163.53046875
  0
LINE
  8
0
 62
7
  6
CONTINUOUS
 10
138.5820983441
 20
207.8049468495
 11
138.5820983441
 21
214.68046875
  0
POLYLINE
  8
0
 62
7
  6
CONTINUOUS
 66
1
 70
0
  0
VERTEX
  8
0
 62
7
  6
CONTINUOUS
 10
138.5820966219
 20
207.8049468495
  0
VERTEX
  8
0
 62
7
  6
CONTINUOUS
 10
138.5762042083
 20
207.6965071126
  0
VERTEX
  8
0
 62
7
  6
CONTINUOUS
 10
138.510103687
 20
207.4322676792
  0
VERTEX
  8
0
 62
7
  6
CONTINUOUS
 10
138.3747026729
 20
207.1950016566
  0
VERTEX
  8
0
 62
7
  6
CONTINUOUS
 10
138.2842489131
 20
207.0926527044
  0
VERTEX
  8
0
 62
7
  6
CONTINUOUS
 10
138.066629941
 20
206.9297546273
  0
VERTEX
  8
0
 62
7
  6
CONTINUOUS
 10
137.7456695525
 20
206.8173455079
  0
VERTEX
  8
0
 62
7
  6
CONTINUOUS
 10
137.6380859567
 20
206.8025655576
  0
SEQEND
  0
POLYLINE
  8
0
 62
7
  6
CONTINUOUS
 66
1
 70
0
  0
VERTEX
  8
0
 62
7
  6
CONTINUOUS
 10
138.2561844639
 20
170.4059904957
  0
VERTEX
  8
0
 62
7
  6
CONTINUOUS
 10
138.2620756779
 20
170.5144192383
  0
VERTEX
  8
0
 62
7
  6
CONTINUOUS
 10
138.328164615
 20
170.7786378024
  0
VERTEX
  8
0
 62
7
  6
CONTINUOUS
 10
138.4635436682
 20
171.0158904726
  0
VERTEX
  8
0
 62
7
  6
CONTINUOUS
 10
138.553984331
 20
171.1182374227
  0
VERTEX
  8
0
 62
7
  6
CONTINUOUS
 10
138.7715727013
 20
171.2811393
  0
VERTEX
  8
0
 62
7
  6
CONTINUOUS
 10
139.0917400024
 20
171.3934413938
  0
VERTEX
  8
0
 62
7
  6
CONTINUOUS
 10
139.2001743157
 20
171.4083687164
  0
SEQEND
  0
POLYLINE
  8
0
 62
7
  6
CONTINUOUS
 66
1
 70
0
  0
VERTEX
  8
0
 62
7
  6
CONTINUOUS
 10
163.0380857096
 20
206.8025671821
  0
VERTEX
  8
0
 62
7
  6
CONTINUOUS
 10
163.0262596159
 20
206.8014325269
  0
VERTEX
  8
0
 62
7
  6
CONTINUOUS
 10
163.0172614211
 20
206.8011697797
  0
SEQEND
  0
POLYLINE
  8
0
 62
7
  6
CONTINUOUS
 66
1
 70
0
  0
VERTEX
  8
0
 62
7
  6
CONTINUOUS
 10
101.1002818425
 20
206.8025540932
  0
VERTEX
  8
0
 62
7
  6
CONTINUOUS
 10
100.9894561948
 20
206.817893996
  0
VERTEX
  8
0
 62
7
  6
CONTINUOUS
 10
100.6699922526
 20
206.9306770347
  0
VERTEX
  8
0
 62
7
  6
CONTINUOUS
 10
100.4525790469
 20
207.0940896999
  0
VERTEX
  8
0
 62
7
  6
CONTINUOUS
 10
100.3622916409
 20
207.1966790637
  0
VERTEX
  8
0
 62
7
  6
CONTINUOUS
 10
100.2273246785
 20
207.4343999009
  0
VERTEX
  8
0
 62
7
  6
CONTINUOUS
 10
100.161811143
 20
207.6989743693
  0
VERTEX
  8
0
 62
7
  6
CONTINUOUS
 10
100.1561846042
 20
207.8049467627
  0
SEQEND
  0
POLYLINE
  8
0
 62
7
  6
CONTINUOUS
 66
1
 70
0
  0
VERTEX
  8
0
 62
7
  6
CONTINUOUS
 10
137.6380857091
 20
206.802567182
  0
VERTEX
  8
0
 62
7
  6
CONTINUOUS
 10
137.6262596157
 20
206.8014325269
  0
VERTEX
  8
0
 62
7
  6
CONTINUOUS
 10
137.6172614211
 20
206.8011697797
  0
SEQEND
  0
POLYLINE
  8
0
 62
7
  6
CONTINUOUS
 66
1
 70
0
  0
VERTEX
  8
0
 62
7
  6
CONTINUOUS
 10
112.2380795942
 20
206.8025663493
  0
VERTEX
  8
0
 62
7
  6
CONTINUOUS
 10
112.2262703292
 20
206.8014330694
  0
VERTEX
  8
0
 62
7
  6
CONTINUOUS
 10
112.2172613702
 20
206.801169755
  0
SEQEND
  0
LINE
  8
0
 62
7
  6
CONTINUOUS
 10
76.119140625
 20
206.801170144
 11
86.8172613864
 21
206.801170144
  0
LINE
  8
0
 62
7
  6
CONTINUOUS
 10
101.1210195159
 20
206.801170144
 11
112.2172613702
 21
206.801170144
  0
LINE
  8
0
 62
7
  6
CONTINUOUS
 10
126.5210195159
 20
206.801170144
 11
137.617261421
 21
206.801170144
  0
LINE
  8
0
 62
7
  6
CONTINUOUS
 10
151.9210195159
 20
206.801170144
 11
163.017261421
 21
206.801170144
  0
POLYLINE
  8
0
 62
7
  6
CONTINUOUS
 66
1
 70
0
  0
VERTEX
  8
0
 62
7
  6
CONTINUOUS
 10
101.121019516
 20
206.8011697839
  0
VERTEX
  8
0
 62
7
  6
CONTINUOUS
 10
101.1118189854
 20
206.8014443414
  0
VERTEX
  8
0
 62
7
  6
CONTINUOUS
 10
101.1002820574
 20
206.8025557193
  0
SEQEND
  0
POLYLINE
  8
0
 62
7
  6
CONTINUOUS
 66
1
 70
0
  0
VERTEX
  8
0
 62
7
  6
CONTINUOUS
 10
126.521019516
 20
206.8011697514
  0
VERTEX
  8
0
 62
7
  6
CONTINUOUS
 10
126.5118345253
 20
206.8014435352
  0
VERTEX
  8
0
 62
7
  6
CONTINUOUS
 10
126.5002812561
 20
206.8025557504
  0
SEQEND
  0
POLYLINE
  8
0
 62
7
  6
CONTINUOUS
 66
1
 70
0
  0
VERTEX
  8
0
 62
7
  6
CONTINUOUS
 10
151.921019516
 20
206.8011697514
  0
VERTEX
  8
0
 62
7
  6
CONTINUOUS
 10
151.9118345254
 20
206.8014435352
  0
VERTEX
  8
0
 62
7
  6
CONTINUOUS
 10
151.9002812563
 20
206.8025557504
  0
SEQEND
  0
POLYLINE
  8
0
 62
7
  6
CONTINUOUS
 66
1
 70
0
  0
VERTEX
  8
0
 62
7
  6
CONTINUOUS
 10
126.5002810561
 20
206.8025542368
  0
VERTEX
  8
0
 62
7
  6
CONTINUOUS
 10
126.389509312
 20
206.8178848377
  0
VERTEX
  8
0
 62
7
  6
CONTINUOUS
 10
126.0700138725
 20
206.930665013
  0
VERTEX
  8
0
 62
7
  6
CONTINUOUS
 10
125.8526035383
 20
207.0940654476
  0
VERTEX
  8
0
 62
7
  6
CONTINUOUS
 10
125.762311116
 20
207.1966536398
  0
VERTEX
  8
0
 62
7
  6
CONTINUOUS
 10
125.627334998
 20
207.4343740731
  0
VERTEX
  8
0
 62
7
  6
CONTINUOUS
 10
125.5618129959
 20
207.6989573713
  0
VERTEX
  8
0
 62
7
  6
CONTINUOUS
 10
125.5561846515
 20
207.8049467395
  0
SEQEND
  0
POLYLINE
  8
0
 62
7
  6
CONTINUOUS
 66
1
 70
0
  0
VERTEX
  8
0
 62
7
  6
CONTINUOUS
 10
150.9561829028
 20
214.68046875
  0
VERTEX
  8
0
 62
7
  6
CONTINUOUS
 10
150.9550063731
 20
215.7693601252
  0
VERTEX
  8
0
 62
7
  6
CONTINUOUS
 10
150.9516643324
 20
216.8069812365
  0
VERTEX
  8
0
 62
7
  6
CONTINUOUS
 10
150.9465709819
 20
217.7653928248
  0
VERTEX
  8
0
 62
7
  6
CONTINUOUS
 10
150.9400712097
 20
218.646916688
  0
VERTEX
  8
0
 62
7
  6
CONTINUOUS
 10
150.9324424732
 20
219.4556651069
  0
VERTEX
  8
0
 62
7
  6
CONTINUOUS
 10
150.9239116467
 20
220.1958595676
  0
VERTEX
  8
0
 62
7
  6
CONTINUOUS
 10
150.9146732547
 20
220.871156522
  0
VERTEX
  8
0
 62
7
  6
CONTINUOUS
 10
150.9048852338
 20
221.4856304263
  0
VERTEX
  8
0
 62
7
  6
CONTINUOUS
 10
150.8946808341
 20
222.0431310271
  0
VERTEX
  8
0
 62
7
  6
CONTINUOUS
 10
150.8841739292
 20
222.5472755006
  0
VERTEX
  8
0
 62
7
  6
CONTINUOUS
 10
150.8734550901
 20
223.0017819261
  0
VERTEX
  8
0
 62
7
  6
CONTINUOUS
 10
150.8625937461
 20
223.4103496998
  0
VERTEX
  8
0
 62
7
  6
CONTINUOUS
 10
150.8516405267
 20
223.7765563556
  0
VERTEX
  8
0
 62
7
  6
CONTINUOUS
 10
150.8406279584
 20
224.1038234382
  0
VERTEX
  8
0
 62
7
  6
CONTINUOUS
 10
150.8295726655
 20
224.3953343518
  0
VERTEX
  8
0
 62
7
  6
CONTINUOUS
 10
150.8185105036
 20
224.6532589517
  0
VERTEX
  8
0
 62
7
  6
CONTINUOUS
 10
150.8074980245
 20
224.8791719333
  0
VERTEX
  8
0
 62
7
  6
CONTINUOUS
 10
150.7965753676
 20
225.0750346027
  0
VERTEX
  8
0
 62
7
  6
CONTINUOUS
 10
150.7857543975
 20
225.2432401742
  0
VERTEX
  8
0
 62
7
  6
CONTINUOUS
 10
150.775026845
 20
225.3863000595
  0
VERTEX
  8
0
 62
7
  6
CONTINUOUS
 10
150.764363508
 20
225.5068062437
  0
VERTEX
  8
0
 62
7
  6
CONTINUOUS
 10
150.7535524638
 20
225.6088516782
  0
VERTEX
  8
0
 62
7
  6
CONTINUOUS
 10
150.7420035774
 20
225.6982108068
  0
VERTEX
  8
0
 62
7
  6
CONTINUOUS
 10
150.7285400233
 20
225.7814898915
  0
VERTEX
  8
0
 62
7
  6
CONTINUOUS
 10
150.7107237007
 20
225.8668114879
  0
VERTEX
  8
0
 62
7
  6
CONTINUOUS
 10
150.682301612
 20
225.9678260245
  0
VERTEX
  8
0
 62
7
  6
CONTINUOUS
 10
150.6298645647
 20
226.0991760054
  0
VERTEX
  8
0
 62
7
  6
CONTINUOUS
 10
150.5403349661
 20
226.2521987986
  0
VERTEX
  8
0
 62
7
  6
CONTINUOUS
 10
150.4016756968
 20
226.4108184893
  0
VERTEX
  8
0
 62
7
  6
CONTINUOUS
 10
150.1952817183
 20
226.5589918305
  0
VERTEX
  8
0
 62
7
  6
CONTINUOUS
 10
149.9362522188
 20
226.6560799671
  0
VERTEX
  8
0
 62
7
  6
CONTINUOUS
 10
149.7161602212
 20
226.680467853
  0
SEQEND
  0
POLYLINE
  8
0
 62
7
  6
CONTINUOUS
 66
1
 70
0
  0
VERTEX
  8
0
 62
7
  6
CONTINUOUS
 10
151.2820983472
 20
163.53046875
  0
VERTEX
  8
0
 62
7
  6
CONTINUOUS
 10
151.2832748769
 20
162.4415773748
  0
VERTEX
  8
0
 62
7
  6
CONTINUOUS
 10
151.2866169176
 20
161.4039562635
  0
VERTEX
  8
0
 62
7
  6
CONTINUOUS
 10
151.2917102681
 20
160.4455446752
  0
VERTEX
  8
0
 62
7
  6
CONTINUOUS
 10
151.2982100403
 20
159.564020812
  0
VERTEX
  8
0
 62
7
  6
CONTINUOUS
 10
151.3058387768
 20
158.7552723931
  0
VERTEX
  8
0
 62
7
  6
CONTINUOUS
 10
151.3143696033
 20
158.0150779324
  0
VERTEX
  8
0
 62
7
  6
CONTINUOUS
 10
151.3236079953
 20
157.339780978
  0
VERTEX
  8
0
 62
7
  6
CONTINUOUS
 10
151.3333960162
 20
156.7253070737
  0
VERTEX
  8
0
 62
7
  6
CONTINUOUS
 10
151.3436004159
 20
156.1678064729
  0
VERTEX
  8
0
 62
7
  6
CONTINUOUS
 10
151.3541073208
 20
155.6636619994
  0
VERTEX
  8
0
 62
7
  6
CONTINUOUS
 10
151.3648261599
 20
155.2091555739
  0
VERTEX
  8
0
 62
7
  6
CONTINUOUS
 10
151.3756875039
 20
154.8005878002
  0
VERTEX
  8
0
 62
7
  6
CONTINUOUS
 10
151.3866407233
 20
154.4343811444
  0
VERTEX
  8
0
 62
7
  6
CONTINUOUS
 10
151.3976532916
 20
154.1071140618
  0
VERTEX
  8
0
 62
7
  6
CONTINUOUS
 10
151.4087085845
 20
153.8156031482
  0
VERTEX
  8
0
 62
7
  6
CONTINUOUS
 10
151.4197707464
 20
153.5576785483
  0
VERTEX
  8
0
 62
7
  6
CONTINUOUS
 10
151.4307832255
 20
153.3317655667
  0
VERTEX
  8
0
 62
7
  6
CONTINUOUS
 10
151.4417058824
 20
153.1359028973
  0
VERTEX
  8
0
 62
7
  6
CONTINUOUS
 10
151.4525268525
 20
152.9676973258
  0
VERTEX
  8
0
 62
7
  6
CONTINUOUS
 10
151.463254405
 20
152.8246374405
  0
VERTEX
  8
0
 62
7
  6
CONTINUOUS
 10
151.473917742
 20
152.7041312563
  0
VERTEX
  8
0
 62
7
  6
CONTINUOUS
 10
151.4847287862
 20
152.6020858218
  0
VERTEX
  8
0
 62
7
  6
CONTINUOUS
 10
151.4962776726
 20
152.5127266932
  0
VERTEX
  8
0
 62
7
  6
CONTINUOUS
 10
151.5097412267
 20
152.4294476085
  0
VERTEX
  8
0
 62
7
  6
CONTINUOUS
 10
151.5275575493
 20
152.3441260121
  0
VERTEX
  8
0
 62
7
  6
CONTINUOUS
 10
151.555979638
 20
152.2431114755
  0
VERTEX
  8
0
 62
7
  6
CONTINUOUS
 10
151.6084166853
 20
152.1117614946
  0
VERTEX
  8
0
 62
7
  6
CONTINUOUS
 10
151.6979462839
 20
151.9587387014
  0
VERTEX
  8
0
 62
7
  6
CONTINUOUS
 10
151.8366055532
 20
151.8001190107
  0
VERTEX
  8
0
 62
7
  6
CONTINUOUS
 10
152.0429995317
 20
151.6519456695
  0
VERTEX
  8
0
 62
7
  6
CONTINUOUS
 10
152.3020290312
 20
151.5548575329
  0
VERTEX
  8
0
 62
7
  6
CONTINUOUS
 10
152.5221210288
 20
151.530469647
  0
SEQEND
  0
LINE
  8
0
 62
7
  6
CONTINUOUS
 10
150.9561829059
 20
214.68046875
 11
150.9561829059
 21
207.8049468029
  0
LINE
  8
0
 62
7
  6
CONTINUOUS
 10
151.2820983441
 20
163.53046875
 11
151.2820983441
 21
170.4059905698
  0
POLYLINE
  8
0
 62
7
  6
CONTINUOUS
 66
1
 70
0
  0
VERTEX
  8
0
 62
7
  6
CONTINUOUS
 10
86.8380795946
 20
206.8025663493
  0
VERTEX
  8
0
 62
7
  6
CONTINUOUS
 10
86.8262703352
 20
206.8014330698
  0
VERTEX
  8
0
 62
7
  6
CONTINUOUS
 10
86.8172613864
 20
206.801169755
  0
SEQEND
  0
POLYLINE
  8
0
 62
7
  6
CONTINUOUS
 66
1
 70
0
  0
VERTEX
  8
0
 62
7
  6
CONTINUOUS
 10
151.9002810563
 20
206.8025542368
  0
VERTEX
  8
0
 62
7
  6
CONTINUOUS
 10
151.7895093087
 20
206.8178848383
  0
VERTEX
  8
0
 62
7
  6
CONTINUOUS
 10
151.4700138708
 20
206.930665014
  0
VERTEX
  8
0
 62
7
  6
CONTINUOUS
 10
151.2526035363
 20
207.0940654496
  0
VERTEX
  8
0
 62
7
  6
CONTINUOUS
 10
151.1623111144
 20
207.196653642
  0
VERTEX
  8
0
 62
7
  6
CONTINUOUS
 10
151.0273349973
 20
207.4343740748
  0
VERTEX
  8
0
 62
7
  6
CONTINUOUS
 10
150.9618129958
 20
207.6989573718
  0
VERTEX
  8
0
 62
7
  6
CONTINUOUS
 10
150.9561846514
 20
207.8049467395
  0
SEQEND
  0
POLYLINE
  8
0
 62
7
  6
CONTINUOUS
 66
1
 70
0
  0
VERTEX
  8
0
 62
7
  6
CONTINUOUS
 10
76.119140625
 20
206.801170144
  0
VERTEX
  8
0
 62
7
  6
CONTINUOUS
 10
75.8593713245
 20
206.766840849
  0
VERTEX
  8
0
 62
7
  6
CONTINUOUS
 10
75.6182629491
 20
206.666688228
  0
VERTEX
  8
0
 62
7
  6
CONTINUOUS
 10
75.4117576201
 20
206.5080005935
  0
VERTEX
  8
0
 62
7
  6
CONTINUOUS
 10
75.2534356117
 20
206.3017246664
  0
VERTEX
  8
0
 62
7
  6
CONTINUOUS
 10
75.1534272869
 20
206.0607809077
  0
VERTEX
  8
0
 62
7
  6
CONTINUOUS
 10
75.119140625
 20
205.801170144
  0
SEQEND
  0
LINE
  8
DEFAULT_1
 62
2
  6
CENTER
 10
85.9045982511
 20
214.50546875
 11
178.319140625
 21
214.50546875
  0
POLYLINE
  8
0
 62
7
  6
CONTINUOUS
 66
1
 70
0
  0
VERTEX
  8
0
 62
7
  6
CONTINUOUS
 10
165.2221210524
 20
226.680467853
  0
VERTEX
  8
0
 62
7
  6
CONTINUOUS
 10
165.0002230857
 20
226.6556730445
  0
VERTEX
  8
0
 62
7
  6
CONTINUOUS
 10
164.7410106796
 20
226.5579116473
  0
VERTEX
  8
0
 62
7
  6
CONTINUOUS
 10
164.5327390798
 20
226.4072074065
  0
VERTEX
  8
0
 62
7
  6
CONTINUOUS
 10
164.3920601949
 20
226.2437774608
  0
VERTEX
  8
0
 62
7
  6
CONTINUOUS
 10
164.3070372525
 20
226.0962702613
  0
VERTEX
  8
0
 62
7
  6
CONTINUOUS
 10
164.2576127711
 20
225.9727686195
  0
VERTEX
  8
0
 62
7
  6
CONTINUOUS
 10
164.2291191806
 20
225.8732890105
  0
VERTEX
  8
0
 62
7
  6
CONTINUOUS
 10
164.21122582
 20
225.7895426736
  0
VERTEX
  8
0
 62
7
  6
CONTINUOUS
 10
164.1981265486
 20
225.7108589839
  0
VERTEX
  8
0
 62
7
  6
CONTINUOUS
 10
164.1871864478
 20
225.6294606929
  0
VERTEX
  8
0
 62
7
  6
CONTINUOUS
 10
164.1771944431
 20
225.5397756959
  0
VERTEX
  8
0
 62
7
  6
CONTINUOUS
 10
164.1675943312
 20
225.4378556333
  0
VERTEX
  8
0
 62
7
  6
CONTINUOUS
 10
164.1580897867
 20
225.3202656421
  0
VERTEX
  8
0
 62
7
  6
CONTINUOUS
 10
164.1485053472
 20
225.1836210463
  0
VERTEX
  8
0
 62
7
  6
CONTINUOUS
 10
164.1387667276
 20
225.0249807398
  0
VERTEX
  8
0
 62
7
  6
CONTINUOUS
 10
164.1289011408
 20
224.842642424
  0
VERTEX
  8
0
 62
7
  6
CONTINUOUS
 10
164.118965758
 20
224.6355675392
  0
VERTEX
  8
0
 62
7
  6
CONTINUOUS
 10
164.1090298685
 20
224.4032872416
  0
VERTEX
  8
0
 62
7
  6
CONTINUOUS
 10
164.0991446489
 20
224.1452307116
  0
VERTEX
  8
0
 62
7
  6
CONTINUOUS
 10
164.0893217223
 20
223.8598289148
  0
VERTEX
  8
0
 62
7
  6
CONTINUOUS
 10
164.0795771882
 20
223.5453541463
  0
VERTEX
  8
0
 62
7
  6
CONTINUOUS
 10
164.0699361258
 20
223.2000402008
  0
VERTEX
  8
0
 62
7
  6
CONTINUOUS
 10
164.060432278
 20
222.8221028157
  0
VERTEX
  8
0
 62
7
  6
CONTINUOUS
 10
164.0511077685
 20
222.409749343
  0
VERTEX
  8
0
 62
7
  6
CONTINUOUS
 10
164.0419932128
 20
221.960142693
  0
VERTEX
  8
0
 62
7
  6
CONTINUOUS
 10
164.0331054979
 20
221.4686186283
  0
VERTEX
  8
0
 62
7
  6
CONTINUOUS
 10
164.0244857842
 20
220.930038794
  0
VERTEX
  8
0
 62
7
  6
CONTINUOUS
 10
164.0162258898
 20
220.3405568203
  0
VERTEX
  8
0
 62
7
  6
CONTINUOUS
 10
164.0084669565
 20
219.6985996045
  0
VERTEX
  8
0
 62
7
  6
CONTINUOUS
 10
164.0013661736
 20
219.003333085
  0
VERTEX
  8
0
 62
7
  6
CONTINUOUS
 10
163.9950846724
 20
218.2534080979
  0
VERTEX
  8
0
 62
7
  6
CONTINUOUS
 10
163.9897885628
 20
217.4454346198
  0
VERTEX
  8
0
 62
7
  6
CONTINUOUS
 10
163.9856833316
 20
216.5764526646
  0
VERTEX
  8
0
 62
7
  6
CONTINUOUS
 10
163.9830204947
 20
215.6447398842
  0
VERTEX
  8
0
 62
7
  6
CONTINUOUS
 10
163.9820983472
 20
214.68046875
  0
SEQEND
  0
LINE
  8
0
 62
7
  6
CONTINUOUS
 10
163.6561829059
 20
170.4059904957
 11
163.6561829059
 21
163.53046875
  0
LINE
  8
0
 62
7
  6
CONTINUOUS
 10
163.9820983441
 20
207.8049468495
 11
163.9820983441
 21
214.68046875
  0
POLYLINE
  8
0
 62
7
  6
CONTINUOUS
 66
1
 70
0
  0
VERTEX
  8
0
 62
7
  6
CONTINUOUS
 10
163.982096622
 20
207.8049468495
  0
VERTEX
  8
0
 62
7
  6
CONTINUOUS
 10
163.9762042084
 20
207.6965071129
  0
VERTEX
  8
0
 62
7
  6
CONTINUOUS
 10
163.9101036875
 20
207.4322676803
  0
VERTEX
  8
0
 62
7
  6
CONTINUOUS
 10
163.7747026739
 20
207.1950016579
  0
VERTEX
  8
0
 62
7
  6
CONTINUOUS
 10
163.6842489144
 20
207.0926527056
  0
VERTEX
  8
0
 62
7
  6
CONTINUOUS
 10
163.4666299424
 20
206.929754628
  0
VERTEX
  8
0
 62
7
  6
CONTINUOUS
 10
163.1456695563
 20
206.8173455085
  0
VERTEX
  8
0
 62
7
  6
CONTINUOUS
 10
163.0380859573
 20
206.8025655576
  0
SEQEND
  0
POLYLINE
  8
0
 62
7
  6
CONTINUOUS
 66
1
 70
0
  0
VERTEX
  8
0
 62
7
  6
CONTINUOUS
 10
163.6561844639
 20
170.4059904957
  0
VERTEX
  8
0
 62
7
  6
CONTINUOUS
 10
163.6620756778
 20
170.514419238
  0
VERTEX
  8
0
 62
7
  6
CONTINUOUS
 10
163.7281646146
 20
170.7786378016
  0
VERTEX
  8
0
 62
7
  6
CONTINUOUS
 10
163.8635436673
 20
171.0158904715
  0
VERTEX
  8
0
 62
7
  6
CONTINUOUS
 10
163.95398433
 20
171.1182374217
  0
VERTEX
  8
0
 62
7
  6
CONTINUOUS
 10
164.1715727001
 20
171.2811392994
  0
VERTEX
  8
0
 62
7
  6
CONTINUOUS
 10
164.4917399969
 20
171.3934413928
  0
VERTEX
  8
0
 62
7
  6
CONTINUOUS
 10
164.6001743155
 20
171.4083687164
  0
SEQEND
  0
POLYLINE
  8
0
 62
7
  6
CONTINUOUS
 66
1
 70
0
  0
VERTEX
  8
0
 62
7
  6
CONTINUOUS
 10
139.8221210524
 20
226.680467853
  0
VERTEX
  8
0
 62
7
  6
CONTINUOUS
 10
139.6002230857
 20
226.6556730445
  0
VERTEX
  8
0
 62
7
  6
CONTINUOUS
 10
139.3410106796
 20
226.5579116473
  0
VERTEX
  8
0
 62
7
  6
CONTINUOUS
 10
139.1327390798
 20
226.4072074065
  0
VERTEX
  8
0
 62
7
  6
CONTINUOUS
 10
138.9920601949
 20
226.2437774608
  0
VERTEX
  8
0
 62
7
  6
CONTINUOUS
 10
138.9070372525
 20
226.0962702613
  0
VERTEX
  8
0
 62
7
  6
CONTINUOUS
 10
138.8576127711
 20
225.9727686195
  0
VERTEX
  8
0
 62
7
  6
CONTINUOUS
 10
138.8291191806
 20
225.8732890105
  0
VERTEX
  8
0
 62
7
  6
CONTINUOUS
 10
138.81122582
 20
225.7895426736
  0
VERTEX
  8
0
 62
7
  6
CONTINUOUS
 10
138.7981265486
 20
225.7108589839
  0
VERTEX
  8
0
 62
7
  6
CONTINUOUS
 10
138.7871864478
 20
225.6294606929
  0
VERTEX
  8
0
 62
7
  6
CONTINUOUS
 10
138.7771944431
 20
225.5397756959
  0
VERTEX
  8
0
 62
7
  6
CONTINUOUS
 10
138.7675943312
 20
225.4378556333
  0
VERTEX
  8
0
 62
7
  6
CONTINUOUS
 10
138.7580897867
 20
225.3202656421
  0
VERTEX
  8
0
 62
7
  6
CONTINUOUS
 10
138.7485053472
 20
225.1836210463
  0
VERTEX
  8
0
 62
7
  6
CONTINUOUS
 10
138.7387667276
 20
225.0249807399
  0
VERTEX
  8
0
 62
7
  6
CONTINUOUS
 10
138.7289011408
 20
224.842642424
  0
VERTEX
  8
0
 62
7
  6
CONTINUOUS
 10
138.718965758
 20
224.6355675392
  0
VERTEX
  8
0
 62
7
  6
CONTINUOUS
 10
138.7090298685
 20
224.4032872416
  0
VERTEX
  8
0
 62
7
  6
CONTINUOUS
 10
138.6991446489
 20
224.1452307116
  0
VERTEX
  8
0
 62
7
  6
CONTINUOUS
 10
138.6893217223
 20
223.8598289148
  0
VERTEX
  8
0
 62
7
  6
CONTINUOUS
 10
138.6795771882
 20
223.5453541463
  0
VERTEX
  8
0
 62
7
  6
CONTINUOUS
 10
138.6699361258
 20
223.2000402008
  0
VERTEX
  8
0
 62
7
  6
CONTINUOUS
 10
138.660432278
 20
222.8221028157
  0
VERTEX
  8
0
 62
7
  6
CONTINUOUS
 10
138.6511077685
 20
222.409749343
  0
VERTEX
  8
0
 62
7
  6
CONTINUOUS
 10
138.6419932128
 20
221.960142693
  0
VERTEX
  8
0
 62
7
  6
CONTINUOUS
 10
138.6331054979
 20
221.4686186283
  0
VERTEX
  8
0
 62
7
  6
CONTINUOUS
 10
138.6244857842
 20
220.930038794
  0
VERTEX
  8
0
 62
7
  6
CONTINUOUS
 10
138.6162258898
 20
220.3405568203
  0
VERTEX
  8
0
 62
7
  6
CONTINUOUS
 10
138.6084669565
 20
219.6985996045
  0
VERTEX
  8
0
 62
7
  6
CONTINUOUS
 10
138.6013661736
 20
219.003333085
  0
VERTEX
  8
0
 62
7
  6
CONTINUOUS
 10
138.5950846724
 20
218.2534080979
  0
VERTEX
  8
0
 62
7
  6
CONTINUOUS
 10
138.5897885628
 20
217.4454346198
  0
VERTEX
  8
0
 62
7
  6
CONTINUOUS
 10
138.5856833316
 20
216.5764526646
  0
VERTEX
  8
0
 62
7
  6
CONTINUOUS
 10
138.5830204947
 20
215.6447398842
  0
VERTEX
  8
0
 62
7
  6
CONTINUOUS
 10
138.5820983472
 20
214.68046875
  0
SEQEND
  0
LINE
  8
SURF
 62
7
  6
CONTINUOUS
 10
89.0221192005
 20
226.68046875
 11
98.9161620495
 21
226.68046875
  0
LINE
  8
SURF
 62
7
  6
CONTINUOUS
 10
114.4221192005
 20
226.68046875
 11
124.3161620495
 21
226.68046875
  0
LINE
  8
SURF
 62
7
  6
CONTINUOUS
 10
139.8221192005
 20
226.68046875
 11
149.7161620495
 21
226.68046875
  0
LINE
  8
0
 62
7
  6
CONTINUOUS
 10
165.2221192005
 20
226.68046875
 11
175.319140625
 21
226.68046875
  0
POLYLINE
  8
0
 62
7
  6
CONTINUOUS
 66
1
 70
0
  0
VERTEX
  8
0
 62
7
  6
CONTINUOUS
 10
114.4221210524
 20
226.680467853
  0
VERTEX
  8
0
 62
7
  6
CONTINUOUS
 10
114.2002230857
 20
226.6556730445
  0
VERTEX
  8
0
 62
7
  6
CONTINUOUS
 10
113.9410106796
 20
226.5579116473
  0
VERTEX
  8
0
 62
7
  6
CONTINUOUS
 10
113.7327390798
 20
226.4072074065
  0
VERTEX
  8
0
 62
7
  6
CONTINUOUS
 10
113.5920601949
 20
226.2437774608
  0
VERTEX
  8
0
 62
7
  6
CONTINUOUS
 10
113.5070372525
 20
226.0962702613
  0
VERTEX
  8
0
 62
7
  6
CONTINUOUS
 10
113.4576127711
 20
225.9727686196
  0
VERTEX
  8
0
 62
7
  6
CONTINUOUS
 10
113.4291191806
 20
225.8732890105
  0
VERTEX
  8
0
 62
7
  6
CONTINUOUS
 10
113.41122582
 20
225.7895426736
  0
VERTEX
  8
0
 62
7
  6
CONTINUOUS
 10
113.3981265486
 20
225.7108589839
  0
VERTEX
  8
0
 62
7
  6
CONTINUOUS
 10
113.3871864478
 20
225.6294606929
  0
VERTEX
  8
0
 62
7
  6
CONTINUOUS
 10
113.3771944431
 20
225.5397756959
  0
VERTEX
  8
0
 62
7
  6
CONTINUOUS
 10
113.3675943312
 20
225.4378556333
  0
VERTEX
  8
0
 62
7
  6
CONTINUOUS
 10
113.3580897867
 20
225.3202656421
  0
VERTEX
  8
0
 62
7
  6
CONTINUOUS
 10
113.3485053472
 20
225.1836210463
  0
VERTEX
  8
0
 62
7
  6
CONTINUOUS
 10
113.3387667276
 20
225.0249807399
  0
VERTEX
  8
0
 62
7
  6
CONTINUOUS
 10
113.3289011408
 20
224.842642424
  0
VERTEX
  8
0
 62
7
  6
CONTINUOUS
 10
113.318965758
 20
224.6355675392
  0
VERTEX
  8
0
 62
7
  6
CONTINUOUS
 10
113.3090298685
 20
224.4032872416
  0
VERTEX
  8
0
 62
7
  6
CONTINUOUS
 10
113.2991446489
 20
224.1452307116
  0
VERTEX
  8
0
 62
7
  6
CONTINUOUS
 10
113.2893217223
 20
223.8598289148
  0
VERTEX
  8
0
 62
7
  6
CONTINUOUS
 10
113.2795771882
 20
223.5453541463
  0
VERTEX
  8
0
 62
7
  6
CONTINUOUS
 10
113.2699361258
 20
223.2000402008
  0
VERTEX
  8
0
 62
7
  6
CONTINUOUS
 10
113.260432278
 20
222.8221028157
  0
VERTEX
  8
0
 62
7
  6
CONTINUOUS
 10
113.2511077685
 20
222.409749343
  0
VERTEX
  8
0
 62
7
  6
CONTINUOUS
 10
113.2419932128
 20
221.960142693
  0
VERTEX
  8
0
 62
7
  6
CONTINUOUS
 10
113.2331054979
 20
221.4686186283
  0
VERTEX
  8
0
 62
7
  6
CONTINUOUS
 10
113.2244857842
 20
220.930038794
  0
VERTEX
  8
0
 62
7
  6
CONTINUOUS
 10
113.2162258898
 20
220.3405568203
  0
VERTEX
  8
0
 62
7
  6
CONTINUOUS
 10
113.2084669565
 20
219.6985996045
  0
VERTEX
  8
0
 62
7
  6
CONTINUOUS
 10
113.2013661736
 20
219.003333085
  0
VERTEX
  8
0
 62
7
  6
CONTINUOUS
 10
113.1950846724
 20
218.2534080979
  0
VERTEX
  8
0
 62
7
  6
CONTINUOUS
 10
113.1897885628
 20
217.4454346198
  0
VERTEX
  8
0
 62
7
  6
CONTINUOUS
 10
113.1856833316
 20
216.5764526646
  0
VERTEX
  8
0
 62
7
  6
CONTINUOUS
 10
113.1830204947
 20
215.6447398842
  0
VERTEX
  8
0
 62
7
  6
CONTINUOUS
 10
113.1820983472
 20
214.68046875
  0
SEQEND
  0
POLYLINE
  8
0
 62
7
  6
CONTINUOUS
 66
1
 70
0
  0
VERTEX
  8
0
 62
7
  6
CONTINUOUS
 10
89.0221210524
 20
226.680467853
  0
VERTEX
  8
0
 62
7
  6
CONTINUOUS
 10
88.8002230857
 20
226.6556730445
  0
VERTEX
  8
0
 62
7
  6
CONTINUOUS
 10
88.5410106796
 20
226.5579116473
  0
VERTEX
  8
0
 62
7
  6
CONTINUOUS
 10
88.3327390798
 20
226.4072074065
  0
VERTEX
  8
0
 62
7
  6
CONTINUOUS
 10
88.1920601949
 20
226.2437774608
  0
VERTEX
  8
0
 62
7
  6
CONTINUOUS
 10
88.1070372525
 20
226.0962702613
  0
VERTEX
  8
0
 62
7
  6
CONTINUOUS
 10
88.0576127711
 20
225.9727686195
  0
VERTEX
  8
0
 62
7
  6
CONTINUOUS
 10
88.0291191806
 20
225.8732890105
  0
VERTEX
  8
0
 62
7
  6
CONTINUOUS
 10
88.01122582
 20
225.7895426736
  0
VERTEX
  8
0
 62
7
  6
CONTINUOUS
 10
87.9981265486
 20
225.7108589839
  0
VERTEX
  8
0
 62
7
  6
CONTINUOUS
 10
87.9871864478
 20
225.6294606929
  0
VERTEX
  8
0
 62
7
  6
CONTINUOUS
 10
87.9771944431
 20
225.5397756959
  0
VERTEX
  8
0
 62
7
  6
CONTINUOUS
 10
87.9675943312
 20
225.4378556333
  0
VERTEX
  8
0
 62
7
  6
CONTINUOUS
 10
87.9580897867
 20
225.3202656421
  0
VERTEX
  8
0
 62
7
  6
CONTINUOUS
 10
87.9485053472
 20
225.1836210463
  0
VERTEX
  8
0
 62
7
  6
CONTINUOUS
 10
87.9387667276
 20
225.0249807399
  0
VERTEX
  8
0
 62
7
  6
CONTINUOUS
 10
87.9289011408
 20
224.842642424
  0
VERTEX
  8
0
 62
7
  6
CONTINUOUS
 10
87.918965758
 20
224.6355675392
  0
VERTEX
  8
0
 62
7
  6
CONTINUOUS
 10
87.9090298685
 20
224.4032872416
  0
VERTEX
  8
0
 62
7
  6
CONTINUOUS
 10
87.8991446489
 20
224.1452307116
  0
VERTEX
  8
0
 62
7
  6
CONTINUOUS
 10
87.8893217223
 20
223.8598289148
  0
VERTEX
  8
0
 62
7
  6
CONTINUOUS
 10
87.8795771882
 20
223.5453541463
  0
VERTEX
  8
0
 62
7
  6
CONTINUOUS
 10
87.8699361258
 20
223.2000402008
  0
VERTEX
  8
0
 62
7
  6
CONTINUOUS
 10
87.860432278
 20
222.8221028157
  0
VERTEX
  8
0
 62
7
  6
CONTINUOUS
 10
87.8511077685
 20
222.409749343
  0
VERTEX
  8
0
 62
7
  6
CONTINUOUS
 10
87.8419932128
 20
221.960142693
  0
VERTEX
  8
0
 62
7
  6
CONTINUOUS
 10
87.8331054979
 20
221.4686186283
  0
VERTEX
  8
0
 62
7
  6
CONTINUOUS
 10
87.8244857842
 20
220.930038794
  0
VERTEX
  8
0
 62
7
  6
CONTINUOUS
 10
87.8162258898
 20
220.3405568203
  0
VERTEX
  8
0
 62
7
  6
CONTINUOUS
 10
87.8084669565
 20
219.6985996045
  0
VERTEX
  8
0
 62
7
  6
CONTINUOUS
 10
87.8013661736
 20
219.003333085
  0
VERTEX
  8
0
 62
7
  6
CONTINUOUS
 10
87.7950846724
 20
218.2534080979
  0
VERTEX
  8
0
 62
7
  6
CONTINUOUS
 10
87.7897885628
 20
217.4454346198
  0
VERTEX
  8
0
 62
7
  6
CONTINUOUS
 10
87.7856833316
 20
216.5764526646
  0
VERTEX
  8
0
 62
7
  6
CONTINUOUS
 10
87.7830204947
 20
215.6447398842
  0
VERTEX
  8
0
 62
7
  6
CONTINUOUS
 10
87.7820983472
 20
214.68046875
  0
SEQEND
  0
LINE
  8
0
 62
7
  6
CONTINUOUS
 10
176.319140625
 20
225.68046875
 11
176.319140625
 21
172.409767356
  0
LINE
  8
0
 62
2
  6
CONTINUOUS
 10
266.5957031254
 20
163.70546875
 11
264.4957031254
 21
163.70546875
  0
LINE
  8
DEFAULT_1
 62
2
  6
CENTER
 10
260.2957031254
 20
163.70546875
 11
259.3707031254
 21
163.70546875
  0
LINE
  8
DEFAULT_1
 62
2
  6
CENTER
 10
270.7957031254
 20
163.70546875
 11
271.7207031254
 21
163.70546875
  0
LINE
  8
0
 62
7
  6
CONTINUOUS
 10
252.3457031254
 20
214.68046875
 11
252.3457031254
 21
189.9062768386
  0
LINE
  8
0
 62
7
  6
CONTINUOUS
 10
252.3457031254
 20
188.3046606614
 11
252.3457031254
 21
163.53046875
  0
LINE
  8
0
 62
7
  6
CONTINUOUS
 10
256.3457031254
 20
190.5258856911
 11
256.3457031254
 21
191.25546875
  0
LINE
  8
PLANE
 62
2
  6
CENTER
 10
250.3448635757
 20
189.10546875
 11
279.3563617152
 21
189.10546875
  0
LINE
  8
0
 62
2
  6
CONTINUOUS
 10
265.5457031254
 20
215.55546875
 11
265.5457031254
 21
213.45546875
  0
LINE
  8
DEFAULT_1
 62
2
  6
CENTER
 10
265.5457031254
 20
209.25546875
 11
265.5457031254
 21
208.33046875
  0
LINE
  8
0
 62
2
  6
CONTINUOUS
 10
265.5457031254
 20
164.75546875
 11
265.5457031254
 21
162.65546875
  0
LINE
  8
DEFAULT_1
 62
2
  6
CENTER
 10
265.5457031254
 20
158.45546875
 11
265.5457031254
 21
157.53046875
  0
LINE
  8
DEFAULT_1
 62
2
  6
CENTER
 10
265.5457031254
 20
168.95546875
 11
265.5457031254
 21
169.88046875
  0
LINE
  8
DEFAULT_1
 62
2
  6
CENTER
 10
265.5457031254
 20
219.75546875
 11
265.5457031254
 21
220.68046875
  0
LINE
  8
0
 62
7
  6
CONTINUOUS
 10
261.571673185
 20
191.0751572777
 11
254.1366461988
 21
190.2937044521
  0
LINE
  8
0
 62
7
  6
CONTINUOUS
 10
255.4957031254
 20
192.10546875
 11
253.3257031254
 21
192.10546875
  0
LINE
  8
0
 62
7
  6
CONTINUOUS
 10
276.3457031254
 20
163.53046875
 11
276.3457031254
 21
214.68046875
  0
LINE
  8
0
 62
2
  6
CONTINUOUS
 10
266.5957031254
 20
214.50546875
 11
264.4957031254
 21
214.50546875
  0
LINE
  8
DEFAULT_1
 62
2
  6
CENTER
 10
260.2957031254
 20
214.50546875
 11
259.3707031254
 21
214.50546875
  0
LINE
  8
DEFAULT_1
 62
2
  6
CENTER
 10
270.7957031254
 20
214.50546875
 11
271.7207031254
 21
214.50546875
  0
LINE
  8
0
 62
7
  6
CONTINUOUS
 10
75.119140625
 20
84.1796874996
 11
75.119140625
 21
106.1796874996
  0
LINE
  8
0
 62
7
  6
CONTINUOUS
 10
78.6471085692
 20
106.2058644479
 11
78.7372289948
 21
102.7643042442
  0
LINE
  8
0
 62
7
  6
CONTINUOUS
 10
78.7804444079
 20
101.1139741994
 11
79.1198260925
 21
88.1535105513
  0
LINE
  8
0
 62
7
  6
CONTINUOUS
 10
83.8123780247
 20
106.2015023847
 11
83.7616296292
 21
103.8757363476
  0
POLYLINE
  8
0
 62
7
  6
CONTINUOUS
 66
1
 70
0
  0
VERTEX
  8
0
 62
7
  6
CONTINUOUS
 10
82.46539385
 20
103.5678260396
  0
VERTEX
  8
0
 62
7
  6
CONTINUOUS
 10
82.4509426063
 20
103.5116168325
  0
VERTEX
  8
0
 62
7
  6
CONTINUOUS
 10
82.4258781433
 20
103.4372949328
  0
VERTEX
  8
0
 62
7
  6
CONTINUOUS
 10
82.3929236593
 20
103.3586754737
  0
VERTEX
  8
0
 62
7
  6
CONTINUOUS
 10
82.3531328624
 20
103.2786516071
  0
VERTEX
  8
0
 62
7
  6
CONTINUOUS
 10
82.307795547
 20
103.1995523492
  0
VERTEX
  8
0
 62
7
  6
CONTINUOUS
 10
82.2949156047
 20
103.1796874996
  0
SEQEND
  0
POLYLINE
  8
0
 62
7
  6
CONTINUOUS
 66
1
 70
0
  0
VERTEX
  8
0
 62
7
  6
CONTINUOUS
 10
80.0046347608
 20
103.571787932
  0
VERTEX
  8
0
 62
7
  6
CONTINUOUS
 10
79.7481219462
 20
104.5863849907
  0
VERTEX
  8
0
 62
7
  6
CONTINUOUS
 10
79.4887219714
 20
105.3734985988
  0
VERTEX
  8
0
 62
7
  6
CONTINUOUS
 10
79.2292622188
 20
105.9671028089
  0
VERTEX
  8
0
 62
7
  6
CONTINUOUS
 10
78.9554808322
 20
106.4228865978
  0
VERTEX
  8
0
 62
7
  6
CONTINUOUS
 10
78.6343879403
 20
106.7851094921
  0
VERTEX
  8
0
 62
7
  6
CONTINUOUS
 10
78.2337803274
 20
107.051024229
  0
SEQEND
  0
LINE
  8
SURF
 62
7
  6
CONTINUOUS
 10
87.8616278565
 20
87.8353821922
 11
87.8169576948
 21
85.7881776654
  0
LINE
  8
0
 62
7
  6
CONTINUOUS
 10
87.782336396
 20
84.2015060068
 11
88.2623780247
 21
106.2015023847
  0
LINE
  8
0
 62
7
  6
CONTINUOUS
 10
86.5783231138
 20
104.0513245467
 11
86.6258135744
 21
106.2017609429
  0
POLYLINE
  8
0
 62
7
  6
CONTINUOUS
 66
1
 70
0
  0
VERTEX
  8
0
 62
7
  6
CONTINUOUS
 10
86.5783231973
 20
104.0513245448
  0
VERTEX
  8
0
 62
7
  6
CONTINUOUS
 10
86.5673565185
 20
103.7666777452
  0
VERTEX
  8
0
 62
7
  6
CONTINUOUS
 10
86.5460730748
 20
103.4736580672
  0
VERTEX
  8
0
 62
7
  6
CONTINUOUS
 10
86.5194943143
 20
103.2305165232
  0
VERTEX
  8
0
 62
7
  6
CONTINUOUS
 10
86.4914940103
 20
103.042786425
  0
VERTEX
  8
0
 62
7
  6
CONTINUOUS
 10
86.464927834
 20
102.9070489571
  0
VERTEX
  8
0
 62
7
  6
CONTINUOUS
 10
86.4435361915
 20
102.8228687692
  0
VERTEX
  8
0
 62
7
  6
CONTINUOUS
 10
86.4346938891
 20
102.7953513828
  0
SEQEND
  0
POLYLINE
  8
0
 62
7
  6
CONTINUOUS
 66
1
 70
0
  0
VERTEX
  8
0
 62
7
  6
CONTINUOUS
 10
80.1790916722
 20
103.1796874996
  0
VERTEX
  8
0
 62
7
  6
CONTINUOUS
 10
80.16549384
 20
103.2004625274
  0
VERTEX
  8
0
 62
7
  6
CONTINUOUS
 10
80.1194935935
 20
103.279878806
  0
VERTEX
  8
0
 62
7
  6
CONTINUOUS
 10
80.0790289735
 20
103.3602896541
  0
VERTEX
  8
0
 62
7
  6
CONTINUOUS
 10
80.0454152085
 20
103.4393638545
  0
VERTEX
  8
0
 62
7
  6
CONTINUOUS
 10
80.0197382006
 20
103.5141993
  0
VERTEX
  8
0
 62
7
  6
CONTINUOUS
 10
80.0046368675
 20
103.5717777925
  0
SEQEND
  0
POLYLINE
  8
0
 62
7
  6
CONTINUOUS
 66
1
 70
0
  0
VERTEX
  8
0
 62
7
  6
CONTINUOUS
 10
95.165393898
 20
103.5678262677
  0
VERTEX
  8
0
 62
7
  6
CONTINUOUS
 10
95.1506530729
 20
103.5106334939
  0
VERTEX
  8
0
 62
7
  6
CONTINUOUS
 10
95.1254763839
 20
103.4362353551
  0
VERTEX
  8
0
 62
7
  6
CONTINUOUS
 10
95.0924237686
 20
103.3575866363
  0
VERTEX
  8
0
 62
7
  6
CONTINUOUS
 10
95.0525550342
 20
103.2775736457
  0
VERTEX
  8
0
 62
7
  6
CONTINUOUS
 10
95.0071607987
 20
103.1985143249
  0
VERTEX
  8
0
 62
7
  6
CONTINUOUS
 10
94.9576365516
 20
103.122249803
  0
VERTEX
  8
0
 62
7
  6
CONTINUOUS
 10
94.9052752675
 20
103.0500569591
  0
VERTEX
  8
0
 62
7
  6
CONTINUOUS
 10
94.8504624405
 20
102.9818711221
  0
VERTEX
  8
0
 62
7
  6
CONTINUOUS
 10
94.793055475
 20
102.9172408585
  0
VERTEX
  8
0
 62
7
  6
CONTINUOUS
 10
94.763362645
 20
102.8862276102
  0
VERTEX
  8
0
 62
7
  6
CONTINUOUS
 10
94.7020519529
 20
102.8269422379
  0
VERTEX
  8
0
 62
7
  6
CONTINUOUS
 10
94.6378432952
 20
102.7712485148
  0
VERTEX
  8
0
 62
7
  6
CONTINUOUS
 10
94.5707035314
 20
102.719615541
  0
VERTEX
  8
0
 62
7
  6
CONTINUOUS
 10
94.5006900884
 20
102.6727410506
  0
VERTEX
  8
0
 62
7
  6
CONTINUOUS
 10
94.4280976614
 20
102.6316665761
  0
VERTEX
  8
0
 62
7
  6
CONTINUOUS
 10
94.3531177937
 20
102.5975782904
  0
VERTEX
  8
0
 62
7
  6
CONTINUOUS
 10
94.2766050821
 20
102.5721769724
  0
VERTEX
  8
0
 62
7
  6
CONTINUOUS
 10
94.2002360927
 20
102.5573135053
  0
VERTEX
  8
0
 62
7
  6
CONTINUOUS
 10
94.1418625769
 20
102.5537614154
  0
SEQEND
  0
POLYLINE
  8
0
 62
7
  6
CONTINUOUS
 66
1
 70
0
  0
VERTEX
  8
0
 62
7
  6
CONTINUOUS
 10
84.2277124155
 20
107.0523803748
  0
VERTEX
  8
0
 62
7
  6
CONTINUOUS
 10
83.845313961
 20
106.8033560554
  0
VERTEX
  8
0
 62
7
  6
CONTINUOUS
 10
83.5165783197
 20
106.4397566937
  0
VERTEX
  8
0
 62
7
  6
CONTINUOUS
 10
83.2328821983
 20
105.9687154246
  0
VERTEX
  8
0
 62
7
  6
CONTINUOUS
 10
82.9632301448
 20
105.3424986235
  0
VERTEX
  8
0
 62
7
  6
CONTINUOUS
 10
82.7043583902
 20
104.5362125035
  0
VERTEX
  8
0
 62
7
  6
CONTINUOUS
 10
82.4653951389
 20
103.5678328036
  0
SEQEND
  0
POLYLINE
  8
0
 62
7
  6
CONTINUOUS
 66
1
 70
0
  0
VERTEX
  8
0
 62
7
  6
CONTINUOUS
 10
92.7728861111
 20
103.5678328036
  0
VERTEX
  8
0
 62
7
  6
CONTINUOUS
 10
92.5339228598
 20
104.5362125035
  0
VERTEX
  8
0
 62
7
  6
CONTINUOUS
 10
92.2750511052
 20
105.3424986235
  0
VERTEX
  8
0
 62
7
  6
CONTINUOUS
 10
92.0053990517
 20
105.9687154246
  0
VERTEX
  8
0
 62
7
  6
CONTINUOUS
 10
91.7217029303
 20
106.4397566937
  0
VERTEX
  8
0
 62
7
  6
CONTINUOUS
 10
91.392967289
 20
106.8033560554
  0
VERTEX
  8
0
 62
7
  6
CONTINUOUS
 10
91.0105688345
 20
107.0523803748
  0
SEQEND
  0
LINE
  8
0
 62
7
  6
CONTINUOUS
 10
99.6759032253
 20
106.2015023847
 11
100.155944933
 21
84.2015023847
  0
LINE
  8
SURF
 62
7
  6
CONTINUOUS
 10
100.1213235552
 20
85.7881776654
 11
100.0766533933
 21
87.8353822018
  0
LINE
  8
0
 62
7
  6
CONTINUOUS
 10
84.2277124155
 20
107.0523803748
 11
84.2278385311
 21
107.0524381519
  0
LINE
  8
0
 62
7
  6
CONTINUOUS
 10
101.3124676756
 20
106.2017609434
 11
101.3599581362
 21
104.0513245465
  0
POLYLINE
  8
0
 62
7
  6
CONTINUOUS
 66
1
 70
0
  0
VERTEX
  8
0
 62
7
  6
CONTINUOUS
 10
96.9277266998
 20
107.0523869199
  0
VERTEX
  8
0
 62
7
  6
CONTINUOUS
 10
96.5441804549
 20
106.8023713883
  0
VERTEX
  8
0
 62
7
  6
CONTINUOUS
 10
96.2157119129
 20
106.4385652651
  0
VERTEX
  8
0
 62
7
  6
CONTINUOUS
 10
95.9321645273
 20
105.9672986247
  0
VERTEX
  8
0
 62
7
  6
CONTINUOUS
 10
95.6626348974
 20
105.3408922071
  0
VERTEX
  8
0
 62
7
  6
CONTINUOUS
 10
95.4038774247
 20
104.5344978837
  0
VERTEX
  8
0
 62
7
  6
CONTINUOUS
 10
95.1653949776
 20
103.5678320638
  0
SEQEND
  0
POLYLINE
  8
0
 62
7
  6
CONTINUOUS
 66
1
 70
0
  0
VERTEX
  8
0
 62
7
  6
CONTINUOUS
 10
101.3124668978
 20
106.2017609262
  0
VERTEX
  8
0
 62
7
  6
CONTINUOUS
 10
101.2805592093
 20
106.4311944454
  0
VERTEX
  8
0
 62
7
  6
CONTINUOUS
 10
101.1776150691
 20
106.6815693852
  0
VERTEX
  8
0
 62
7
  6
CONTINUOUS
 10
101.0111587409
 20
106.8952780886
  0
VERTEX
  8
0
 62
7
  6
CONTINUOUS
 10
100.7934150714
 20
107.0565019186
  0
VERTEX
  8
0
 62
7
  6
CONTINUOUS
 10
100.5404429065
 20
107.1533677381
  0
VERTEX
  8
0
 62
7
  6
CONTINUOUS
 10
100.312469379
 20
107.1796865627
  0
SEQEND
  0
LINE
  8
0
 62
7
  6
CONTINUOUS
 10
104.1918394607
 20
103.1796874996
 11
104.1259032253
 21
106.2015023847
  0
POLYLINE
  8
0
 62
7
  6
CONTINUOUS
 66
1
 70
0
  0
VERTEX
  8
0
 62
7
  6
CONTINUOUS
 10
107.86539385
 20
103.5678260396
  0
VERTEX
  8
0
 62
7
  6
CONTINUOUS
 10
107.8509426063
 20
103.5116168325
  0
VERTEX
  8
0
 62
7
  6
CONTINUOUS
 10
107.8258781433
 20
103.4372949328
  0
VERTEX
  8
0
 62
7
  6
CONTINUOUS
 10
107.7929236593
 20
103.3586754737
  0
VERTEX
  8
0
 62
7
  6
CONTINUOUS
 10
107.7531328624
 20
103.2786516071
  0
VERTEX
  8
0
 62
7
  6
CONTINUOUS
 10
107.707795547
 20
103.1995523492
  0
VERTEX
  8
0
 62
7
  6
CONTINUOUS
 10
107.6949156047
 20
103.1796874996
  0
SEQEND
  0
LINE
  8
0
 62
7
  6
CONTINUOUS
 10
96.9277266654
 20
107.0523869948
 11
96.9278333958
 21
107.0524358903
  0
POLYLINE
  8
0
 62
7
  6
CONTINUOUS
 66
1
 70
0
  0
VERTEX
  8
0
 62
7
  6
CONTINUOUS
 10
101.5041420249
 20
102.7937850232
  0
VERTEX
  8
0
 62
7
  6
CONTINUOUS
 10
101.5044808414
 20
102.7929662911
  0
VERTEX
  8
0
 62
7
  6
CONTINUOUS
 10
101.4945917475
 20
102.8233899973
  0
VERTEX
  8
0
 62
7
  6
CONTINUOUS
 10
101.4731240681
 20
102.9080709083
  0
VERTEX
  8
0
 62
7
  6
CONTINUOUS
 10
101.4465234701
 20
103.0443205126
  0
VERTEX
  8
0
 62
7
  6
CONTINUOUS
 10
101.418515711
 20
103.2326169595
  0
VERTEX
  8
0
 62
7
  6
CONTINUOUS
 10
101.3919582907
 20
103.4764017649
  0
VERTEX
  8
0
 62
7
  6
CONTINUOUS
 10
101.37073989
 20
103.7700538512
  0
VERTEX
  8
0
 62
7
  6
CONTINUOUS
 10
101.3599580526
 20
104.0513245446
  0
SEQEND
  0
LINE
  8
0
 62
7
  6
CONTINUOUS
 10
109.2123780247
 20
106.2015023847
 11
109.1464417893
 21
103.1796874996
  0
POLYLINE
  8
0
 62
7
  6
CONTINUOUS
 66
1
 70
0
  0
VERTEX
  8
0
 62
7
  6
CONTINUOUS
 10
109.6277124155
 20
107.0523803748
  0
VERTEX
  8
0
 62
7
  6
CONTINUOUS
 10
109.245313961
 20
106.8033560554
  0
VERTEX
  8
0
 62
7
  6
CONTINUOUS
 10
108.9165783197
 20
106.4397566937
  0
VERTEX
  8
0
 62
7
  6
CONTINUOUS
 10
108.6328821983
 20
105.9687154246
  0
VERTEX
  8
0
 62
7
  6
CONTINUOUS
 10
108.3632301448
 20
105.3424986235
  0
VERTEX
  8
0
 62
7
  6
CONTINUOUS
 10
108.1043583902
 20
104.5362125035
  0
VERTEX
  8
0
 62
7
  6
CONTINUOUS
 10
107.8653951389
 20
103.5678328036
  0
SEQEND
  0
LINE
  8
0
 62
7
  6
CONTINUOUS
 10
109.6277124155
 20
107.0523803748
 11
109.6278385311
 21
107.0524381519
  0
POLYLINE
  8
0
 62
7
  6
CONTINUOUS
 66
1
 70
0
  0
VERTEX
  8
0
 62
7
  6
CONTINUOUS
 10
105.4728862724
 20
103.5678320638
  0
VERTEX
  8
0
 62
7
  6
CONTINUOUS
 10
105.2344038253
 20
104.5344978837
  0
VERTEX
  8
0
 62
7
  6
CONTINUOUS
 10
104.9756463526
 20
105.3408922071
  0
VERTEX
  8
0
 62
7
  6
CONTINUOUS
 10
104.7061167227
 20
105.9672986247
  0
VERTEX
  8
0
 62
7
  6
CONTINUOUS
 10
104.4225693371
 20
106.4385652651
  0
VERTEX
  8
0
 62
7
  6
CONTINUOUS
 10
104.0941007951
 20
106.8023713883
  0
VERTEX
  8
0
 62
7
  6
CONTINUOUS
 10
103.7105545502
 20
107.0523869199
  0
SEQEND
  0
LINE
  8
SURF
 62
7
  6
CONTINUOUS
 10
113.2616278565
 20
87.8353821922
 11
113.2169576948
 21
85.7881776654
  0
LINE
  8
0
 62
7
  6
CONTINUOUS
 10
113.182336396
 20
84.2015060065
 11
113.6623780247
 21
106.2015023847
  0
LINE
  8
0
 62
7
  6
CONTINUOUS
 10
111.9783231138
 20
104.0513245467
 11
112.0258135744
 21
106.2017609429
  0
POLYLINE
  8
0
 62
7
  6
CONTINUOUS
 66
1
 70
0
  0
VERTEX
  8
0
 62
7
  6
CONTINUOUS
 10
111.9783231973
 20
104.0513245448
  0
VERTEX
  8
0
 62
7
  6
CONTINUOUS
 10
111.9673565185
 20
103.7666777452
  0
VERTEX
  8
0
 62
7
  6
CONTINUOUS
 10
111.9460730748
 20
103.4736580672
  0
VERTEX
  8
0
 62
7
  6
CONTINUOUS
 10
111.9194943143
 20
103.2305165232
  0
VERTEX
  8
0
 62
7
  6
CONTINUOUS
 10
111.8914940103
 20
103.042786425
  0
VERTEX
  8
0
 62
7
  6
CONTINUOUS
 10
111.864927834
 20
102.9070489571
  0
VERTEX
  8
0
 62
7
  6
CONTINUOUS
 10
111.8435361915
 20
102.8228687692
  0
VERTEX
  8
0
 62
7
  6
CONTINUOUS
 10
111.8346938891
 20
102.7953513828
  0
SEQEND
  0
POLYLINE
  8
0
 62
7
  6
CONTINUOUS
 66
1
 70
0
  0
VERTEX
  8
0
 62
7
  6
CONTINUOUS
 10
105.6433461143
 20
103.1796874996
  0
VERTEX
  8
0
 62
7
  6
CONTINUOUS
 10
105.6311204513
 20
103.1985143249
  0
VERTEX
  8
0
 62
7
  6
CONTINUOUS
 10
105.5857262158
 20
103.2775736457
  0
VERTEX
  8
0
 62
7
  6
CONTINUOUS
 10
105.5458574814
 20
103.3575866363
  0
VERTEX
  8
0
 62
7
  6
CONTINUOUS
 10
105.5128048661
 20
103.4362353551
  0
VERTEX
  8
0
 62
7
  6
CONTINUOUS
 10
105.4876281771
 20
103.5106334939
  0
VERTEX
  8
0
 62
7
  6
CONTINUOUS
 10
105.472887352
 20
103.5678262677
  0
SEQEND
  0
POLYLINE
  8
0
 62
7
  6
CONTINUOUS
 66
1
 70
0
  0
VERTEX
  8
0
 62
7
  6
CONTINUOUS
 10
122.3277266998
 20
107.0523869199
  0
VERTEX
  8
0
 62
7
  6
CONTINUOUS
 10
121.9441804549
 20
106.8023713883
  0
VERTEX
  8
0
 62
7
  6
CONTINUOUS
 10
121.6157119129
 20
106.4385652651
  0
VERTEX
  8
0
 62
7
  6
CONTINUOUS
 10
121.3321645273
 20
105.9672986247
  0
VERTEX
  8
0
 62
7
  6
CONTINUOUS
 10
121.0626348974
 20
105.3408922071
  0
VERTEX
  8
0
 62
7
  6
CONTINUOUS
 10
120.8038774247
 20
104.5344978837
  0
VERTEX
  8
0
 62
7
  6
CONTINUOUS
 10
120.5653949776
 20
103.5678320638
  0
SEQEND
  0
LINE
  8
0
 62
7
  6
CONTINUOUS
 10
122.3277266654
 20
107.0523869948
 11
122.3278333958
 21
107.0524358903
  0
LINE
  8
0
 62
7
  6
CONTINUOUS
 10
76.119140625
 20
83.1796874996
 11
175.319140625
 21
83.1796874996
  0
POLYLINE
  8
0
 62
7
  6
CONTINUOUS
 66
1
 70
0
  0
VERTEX
  8
0
 62
7
  6
CONTINUOUS
 10
120.565393898
 20
103.5678262677
  0
VERTEX
  8
0
 62
7
  6
CONTINUOUS
 10
120.5506530729
 20
103.5106334939
  0
VERTEX
  8
0
 62
7
  6
CONTINUOUS
 10
120.5254763839
 20
103.4362353551
  0
VERTEX
  8
0
 62
7
  6
CONTINUOUS
 10
120.4924237686
 20
103.3575866363
  0
VERTEX
  8
0
 62
7
  6
CONTINUOUS
 10
120.4525550342
 20
103.2775736457
  0
VERTEX
  8
0
 62
7
  6
CONTINUOUS
 10
120.4071607987
 20
103.1985143249
  0
VERTEX
  8
0
 62
7
  6
CONTINUOUS
 10
120.3576365516
 20
103.122249803
  0
VERTEX
  8
0
 62
7
  6
CONTINUOUS
 10
120.3052752675
 20
103.0500569591
  0
VERTEX
  8
0
 62
7
  6
CONTINUOUS
 10
120.2504624405
 20
102.9818711221
  0
VERTEX
  8
0
 62
7
  6
CONTINUOUS
 10
120.193055475
 20
102.9172408585
  0
VERTEX
  8
0
 62
7
  6
CONTINUOUS
 10
120.163362645
 20
102.8862276102
  0
VERTEX
  8
0
 62
7
  6
CONTINUOUS
 10
120.1020519529
 20
102.8269422379
  0
VERTEX
  8
0
 62
7
  6
CONTINUOUS
 10
120.0378432952
 20
102.7712485148
  0
VERTEX
  8
0
 62
7
  6
CONTINUOUS
 10
119.9707035314
 20
102.719615541
  0
VERTEX
  8
0
 62
7
  6
CONTINUOUS
 10
119.9006900884
 20
102.6727410506
  0
VERTEX
  8
0
 62
7
  6
CONTINUOUS
 10
119.8280976614
 20
102.6316665761
  0
VERTEX
  8
0
 62
7
  6
CONTINUOUS
 10
119.7531177937
 20
102.5975782904
  0
VERTEX
  8
0
 62
7
  6
CONTINUOUS
 10
119.6766050821
 20
102.5721769724
  0
VERTEX
  8
0
 62
7
  6
CONTINUOUS
 10
119.6002360927
 20
102.5573135053
  0
VERTEX
  8
0
 62
7
  6
CONTINUOUS
 10
119.5418625769
 20
102.5537614154
  0
SEQEND
  0
LINE
  8
0
 62
7
  6
CONTINUOUS
 10
135.0277124155
 20
107.0523803748
 11
135.0278385311
 21
107.0524381519
  0
LINE
  8
SURF
 62
7
  6
CONTINUOUS
 10
112.1570095391
 20
87.1796874996
 11
101.1812717109
 21
87.1796874996
  0
LINE
  8
0
 62
7
  6
CONTINUOUS
 10
86.7570095391
 20
87.1796874996
 11
76.119140625
 21
87.1796874996
  0
LINE
  8
0
 62
7
  6
CONTINUOUS
 10
126.5812717109
 20
87.1796874996
 11
137.5570095391
 21
87.1796874996
  0
LINE
  8
0
 62
7
  6
CONTINUOUS
 10
151.9812717109
 20
87.1796874996
 11
162.9570095391
 21
87.1796874996
  0
POLYLINE
  8
0
 62
7
  6
CONTINUOUS
 66
1
 70
0
  0
VERTEX
  8
0
 62
7
  6
CONTINUOUS
 10
78.2338018844
 20
107.0510143845
  0
VERTEX
  8
0
 62
7
  6
CONTINUOUS
 10
78.0867366551
 20
107.1106250156
  0
VERTEX
  8
0
 62
7
  6
CONTINUOUS
 10
77.8943321196
 20
107.1615174461
  0
VERTEX
  8
0
 62
7
  6
CONTINUOUS
 10
77.6940685605
 20
107.1796874315
  0
SEQEND
  0
POLYLINE
  8
0
 62
7
  6
CONTINUOUS
 66
1
 70
0
  0
VERTEX
  8
0
 62
7
  6
CONTINUOUS
 10
118.1728861111
 20
103.5678328036
  0
VERTEX
  8
0
 62
7
  6
CONTINUOUS
 10
117.9339228598
 20
104.5362125035
  0
VERTEX
  8
0
 62
7
  6
CONTINUOUS
 10
117.6750511052
 20
105.3424986235
  0
VERTEX
  8
0
 62
7
  6
CONTINUOUS
 10
117.4053990517
 20
105.9687154246
  0
VERTEX
  8
0
 62
7
  6
CONTINUOUS
 10
117.1217029303
 20
106.4397566937
  0
VERTEX
  8
0
 62
7
  6
CONTINUOUS
 10
116.792967289
 20
106.8033560554
  0
VERTEX
  8
0
 62
7
  6
CONTINUOUS
 10
116.4105688345
 20
107.0523803748
  0
SEQEND
  0
LINE
  8
0
 62
7
  6
CONTINUOUS
 10
125.0759032253
 20
106.2015023847
 11
125.555944933
 21
84.2015023847
  0
LINE
  8
DEFAULT_1
 62
2
  6
CENTER
 10
125.719140625
 20
80.1690289098
 11
125.719140625
 21
109.1805270493
  0
POLYLINE
  8
0
 62
7
  6
CONTINUOUS
 66
1
 70
0
  0
VERTEX
  8
0
 62
7
  6
CONTINUOUS
 10
135.0277124155
 20
107.0523803748
  0
VERTEX
  8
0
 62
7
  6
CONTINUOUS
 10
134.645313961
 20
106.8033560554
  0
VERTEX
  8
0
 62
7
  6
CONTINUOUS
 10
134.3165783197
 20
106.4397566937
  0
VERTEX
  8
0
 62
7
  6
CONTINUOUS
 10
134.0328821983
 20
105.9687154246
  0
VERTEX
  8
0
 62
7
  6
CONTINUOUS
 10
133.7632301448
 20
105.3424986235
  0
VERTEX
  8
0
 62
7
  6
CONTINUOUS
 10
133.5043583902
 20
104.5362125035
  0
VERTEX
  8
0
 62
7
  6
CONTINUOUS
 10
133.2653951389
 20
103.5678328036
  0
SEQEND
  0
LINE
  8
0
 62
7
  6
CONTINUOUS
 10
91.0105688345
 20
107.0523803748
 11
91.0104427189
 21
107.0524381519
  0
LINE
  8
0
 62
7
  6
CONTINUOUS
 10
126.7124676756
 20
106.2017609434
 11
126.7599581362
 21
104.0513245465
  0
POLYLINE
  8
0
 62
7
  6
CONTINUOUS
 66
1
 70
0
  0
VERTEX
  8
0
 62
7
  6
CONTINUOUS
 10
147.7277266998
 20
107.0523869199
  0
VERTEX
  8
0
 62
7
  6
CONTINUOUS
 10
147.3441804549
 20
106.8023713883
  0
VERTEX
  8
0
 62
7
  6
CONTINUOUS
 10
147.0157119129
 20
106.4385652651
  0
VERTEX
  8
0
 62
7
  6
CONTINUOUS
 10
146.7321645273
 20
105.9672986247
  0
VERTEX
  8
0
 62
7
  6
CONTINUOUS
 10
146.4626348974
 20
105.3408922071
  0
VERTEX
  8
0
 62
7
  6
CONTINUOUS
 10
146.2038774247
 20
104.5344978837
  0
VERTEX
  8
0
 62
7
  6
CONTINUOUS
 10
145.9653949776
 20
103.5678320638
  0
SEQEND
  0
LINE
  8
0
 62
7
  6
CONTINUOUS
 10
147.7277266654
 20
107.0523869948
 11
147.7278333958
 21
107.0524358903
  0
LINE
  8
DEFAULT_1
 62
2
  6
CENTER
 10
87.9045982511
 20
93.9796874996
 11
71.646159375
 21
93.9796874996
  0
POLYLINE
  8
0
 62
7
  6
CONTINUOUS
 66
1
 70
0
  0
VERTEX
  8
0
 62
7
  6
CONTINUOUS
 10
91.0104427532
 20
107.0524382268
  0
VERTEX
  8
0
 62
7
  6
CONTINUOUS
 10
90.8622445656
 20
107.1120435928
  0
VERTEX
  8
0
 62
7
  6
CONTINUOUS
 10
90.6698220493
 20
107.1622263902
  0
SEQEND
  0
LINE
  8
0
 62
7
  6
CONTINUOUS
 10
103.7105545846
 20
107.0523869948
 11
103.7104478542
 21
107.0524358903
  0
POLYLINE
  8
0
 62
7
  6
CONTINUOUS
 66
1
 70
0
  0
VERTEX
  8
0
 62
7
  6
CONTINUOUS
 10
126.7124668978
 20
106.2017609262
  0
VERTEX
  8
0
 62
7
  6
CONTINUOUS
 10
126.6805592093
 20
106.4311944454
  0
VERTEX
  8
0
 62
7
  6
CONTINUOUS
 10
126.5776150691
 20
106.6815693852
  0
VERTEX
  8
0
 62
7
  6
CONTINUOUS
 10
126.4111587409
 20
106.8952780886
  0
VERTEX
  8
0
 62
7
  6
CONTINUOUS
 10
126.1934150714
 20
107.0565019186
  0
VERTEX
  8
0
 62
7
  6
CONTINUOUS
 10
125.9404429065
 20
107.1533677381
  0
VERTEX
  8
0
 62
7
  6
CONTINUOUS
 10
125.712469379
 20
107.1796865627
  0
SEQEND
  0
LINE
  8
0
 62
7
  6
CONTINUOUS
 10
129.5259032253
 20
106.2015023847
 11
129.5918394607
 21
103.1796874996
  0
POLYLINE
  8
0
 62
7
  6
CONTINUOUS
 66
1
 70
0
  0
VERTEX
  8
0
 62
7
  6
CONTINUOUS
 10
133.26539385
 20
103.5678260396
  0
VERTEX
  8
0
 62
7
  6
CONTINUOUS
 10
133.2509426063
 20
103.5116168325
  0
VERTEX
  8
0
 62
7
  6
CONTINUOUS
 10
133.2258781433
 20
103.4372949328
  0
VERTEX
  8
0
 62
7
  6
CONTINUOUS
 10
133.1929236593
 20
103.3586754737
  0
VERTEX
  8
0
 62
7
  6
CONTINUOUS
 10
133.1531328624
 20
103.2786516071
  0
VERTEX
  8
0
 62
7
  6
CONTINUOUS
 10
133.107795547
 20
103.1995523492
  0
VERTEX
  8
0
 62
7
  6
CONTINUOUS
 10
133.0949156047
 20
103.1796874996
  0
SEQEND
  0
LINE
  8
0
 62
7
  6
CONTINUOUS
 10
160.4277124155
 20
107.0523803748
 11
160.4278385311
 21
107.0524381519
  0
POLYLINE
  8
0
 62
7
  6
CONTINUOUS
 66
1
 70
0
  0
VERTEX
  8
0
 62
7
  6
CONTINUOUS
 10
103.7104478542
 20
107.0524358903
  0
VERTEX
  8
0
 62
7
  6
CONTINUOUS
 10
103.5636542819
 20
107.1115589052
  0
VERTEX
  8
0
 62
7
  6
CONTINUOUS
 10
103.3719776038
 20
107.1618435306
  0
VERTEX
  8
0
 62
7
  6
CONTINUOUS
 10
103.1733907825
 20
107.1796874343
  0
SEQEND
  0
POLYLINE
  8
0
 62
7
  6
CONTINUOUS
 66
1
 70
0
  0
VERTEX
  8
0
 62
7
  6
CONTINUOUS
 10
126.9041420249
 20
102.7937850232
  0
VERTEX
  8
0
 62
7
  6
CONTINUOUS
 10
126.9044808414
 20
102.7929662911
  0
VERTEX
  8
0
 62
7
  6
CONTINUOUS
 10
126.8945917475
 20
102.8233899973
  0
VERTEX
  8
0
 62
7
  6
CONTINUOUS
 10
126.8731240681
 20
102.9080709083
  0
VERTEX
  8
0
 62
7
  6
CONTINUOUS
 10
126.8465234701
 20
103.0443205126
  0
VERTEX
  8
0
 62
7
  6
CONTINUOUS
 10
126.818515711
 20
103.2326169595
  0
VERTEX
  8
0
 62
7
  6
CONTINUOUS
 10
126.7919582907
 20
103.4764017649
  0
VERTEX
  8
0
 62
7
  6
CONTINUOUS
 10
126.77073989
 20
103.7700538512
  0
VERTEX
  8
0
 62
7
  6
CONTINUOUS
 10
126.7599580526
 20
104.0513245446
  0
SEQEND
  0
POLYLINE
  8
0
 62
7
  6
CONTINUOUS
 66
1
 70
0
  0
VERTEX
  8
0
 62
7
  6
CONTINUOUS
 10
130.8728862724
 20
103.5678320638
  0
VERTEX
  8
0
 62
7
  6
CONTINUOUS
 10
130.6344038253
 20
104.5344978837
  0
VERTEX
  8
0
 62
7
  6
CONTINUOUS
 10
130.3756463526
 20
105.3408922071
  0
VERTEX
  8
0
 62
7
  6
CONTINUOUS
 10
130.1061167227
 20
105.9672986247
  0
VERTEX
  8
0
 62
7
  6
CONTINUOUS
 10
129.8225693371
 20
106.4385652651
  0
VERTEX
  8
0
 62
7
  6
CONTINUOUS
 10
129.4941007951
 20
106.8023713883
  0
VERTEX
  8
0
 62
7
  6
CONTINUOUS
 10
129.1105545502
 20
107.0523869199
  0
SEQEND
  0
LINE
  8
0
 62
7
  6
CONTINUOUS
 10
134.5464417893
 20
103.1796874996
 11
134.6123780247
 21
106.2015023847
  0
POLYLINE
  8
0
 62
7
  6
CONTINUOUS
 66
1
 70
0
  0
VERTEX
  8
0
 62
7
  6
CONTINUOUS
 10
160.4277124155
 20
107.0523803748
  0
VERTEX
  8
0
 62
7
  6
CONTINUOUS
 10
160.045313961
 20
106.8033560554
  0
VERTEX
  8
0
 62
7
  6
CONTINUOUS
 10
159.7165783197
 20
106.4397566937
  0
VERTEX
  8
0
 62
7
  6
CONTINUOUS
 10
159.4328821983
 20
105.9687154246
  0
VERTEX
  8
0
 62
7
  6
CONTINUOUS
 10
159.1632301448
 20
105.3424986235
  0
VERTEX
  8
0
 62
7
  6
CONTINUOUS
 10
158.9043583902
 20
104.5362125035
  0
VERTEX
  8
0
 62
7
  6
CONTINUOUS
 10
158.6653951389
 20
103.5678328036
  0
SEQEND
  0
LINE
  8
0
 62
7
  6
CONTINUOUS
 10
93.7964185446
 20
102.5537633877
 11
94.1418625769
 21
102.5537633877
  0
LINE
  8
0
 62
7
  6
CONTINUOUS
 10
119.1964185446
 20
102.5537633877
 11
119.5418625769
 21
102.5537633877
  0
LINE
  8
0
 62
7
  6
CONTINUOUS
 10
144.5964185446
 20
102.5537633877
 11
144.9418625769
 21
102.5537633877
  0
LINE
  8
0
 62
7
  6
CONTINUOUS
 10
169.9964185446
 20
102.5537633877
 11
170.4012781333
 21
102.5537633877
  0
POLYLINE
  8
0
 62
7
  6
CONTINUOUS
 66
1
 70
0
  0
VERTEX
  8
0
 62
7
  6
CONTINUOUS
 10
93.7964185446
 20
102.5537614203
  0
VERTEX
  8
0
 62
7
  6
CONTINUOUS
 10
93.736924997
 20
102.5574499653
  0
VERTEX
  8
0
 62
7
  6
CONTINUOUS
 10
93.6606368388
 20
102.5724542231
  0
VERTEX
  8
0
 62
7
  6
CONTINUOUS
 10
93.5841919028
 20
102.5979634767
  0
VERTEX
  8
0
 62
7
  6
CONTINUOUS
 10
93.5092605269
 20
102.6321397519
  0
VERTEX
  8
0
 62
7
  6
CONTINUOUS
 10
93.4367100706
 20
102.6732867487
  0
VERTEX
  8
0
 62
7
  6
CONTINUOUS
 10
93.3667375176
 20
102.7202211088
  0
VERTEX
  8
0
 62
7
  6
CONTINUOUS
 10
93.2996343244
 20
102.7719069493
  0
VERTEX
  8
0
 62
7
  6
CONTINUOUS
 10
93.2354538635
 20
102.8276537562
  0
VERTEX
  8
0
 62
7
  6
CONTINUOUS
 10
93.1741675632
 20
102.8869929488
  0
VERTEX
  8
0
 62
7
  6
CONTINUOUS
 10
93.1444865867
 20
102.9180330559
  0
VERTEX
  8
0
 62
7
  6
CONTINUOUS
 10
93.087102004
 20
102.9827198212
  0
VERTEX
  8
0
 62
7
  6
CONTINUOUS
 10
93.0323109936
 20
103.0509668641
  0
VERTEX
  8
0
 62
7
  6
CONTINUOUS
 10
92.9799735194
 20
103.1232268499
  0
VERTEX
  8
0
 62
7
  6
CONTINUOUS
 10
92.930485703
 20
103.1995523492
  0
VERTEX
  8
0
 62
7
  6
CONTINUOUS
 10
92.8851483876
 20
103.2786516071
  0
VERTEX
  8
0
 62
7
  6
CONTINUOUS
 10
92.8453575907
 20
103.3586754737
  0
VERTEX
  8
0
 62
7
  6
CONTINUOUS
 10
92.8124031067
 20
103.4372949328
  0
VERTEX
  8
0
 62
7
  6
CONTINUOUS
 10
92.7873386437
 20
103.5116168325
  0
VERTEX
  8
0
 62
7
  6
CONTINUOUS
 10
92.7728874
 20
103.5678260396
  0
SEQEND
  0
POLYLINE
  8
0
 62
7
  6
CONTINUOUS
 66
1
 70
0
  0
VERTEX
  8
0
 62
7
  6
CONTINUOUS
 10
119.1964185446
 20
102.5537614203
  0
VERTEX
  8
0
 62
7
  6
CONTINUOUS
 10
119.136924997
 20
102.5574499653
  0
VERTEX
  8
0
 62
7
  6
CONTINUOUS
 10
119.0606368388
 20
102.5724542231
  0
VERTEX
  8
0
 62
7
  6
CONTINUOUS
 10
118.9841919028
 20
102.5979634767
  0
VERTEX
  8
0
 62
7
  6
CONTINUOUS
 10
118.9092605269
 20
102.6321397519
  0
VERTEX
  8
0
 62
7
  6
CONTINUOUS
 10
118.8367100706
 20
102.6732867487
  0
VERTEX
  8
0
 62
7
  6
CONTINUOUS
 10
118.7667375176
 20
102.7202211088
  0
VERTEX
  8
0
 62
7
  6
CONTINUOUS
 10
118.6996343244
 20
102.7719069493
  0
VERTEX
  8
0
 62
7
  6
CONTINUOUS
 10
118.6354538635
 20
102.8276537562
  0
VERTEX
  8
0
 62
7
  6
CONTINUOUS
 10
118.5741675632
 20
102.8869929488
  0
VERTEX
  8
0
 62
7
  6
CONTINUOUS
 10
118.5444865867
 20
102.9180330559
  0
VERTEX
  8
0
 62
7
  6
CONTINUOUS
 10
118.487102004
 20
102.9827198212
  0
VERTEX
  8
0
 62
7
  6
CONTINUOUS
 10
118.4323109936
 20
103.0509668641
  0
VERTEX
  8
0
 62
7
  6
CONTINUOUS
 10
118.3799735194
 20
103.1232268499
  0
VERTEX
  8
0
 62
7
  6
CONTINUOUS
 10
118.330485703
 20
103.1995523492
  0
VERTEX
  8
0
 62
7
  6
CONTINUOUS
 10
118.2851483876
 20
103.2786516071
  0
VERTEX
  8
0
 62
7
  6
CONTINUOUS
 10
118.2453575907
 20
103.3586754737
  0
VERTEX
  8
0
 62
7
  6
CONTINUOUS
 10
118.2124031067
 20
103.4372949328
  0
VERTEX
  8
0
 62
7
  6
CONTINUOUS
 10
118.1873386437
 20
103.5116168325
  0
VERTEX
  8
0
 62
7
  6
CONTINUOUS
 10
118.1728874
 20
103.5678260396
  0
SEQEND
  0
LINE
  8
0
 62
7
  6
CONTINUOUS
 10
87.619140625
 20
107.1789046014
 11
87.612469379
 21
107.1796865627
  0
POLYLINE
  8
0
 62
7
  6
CONTINUOUS
 66
1
 70
0
  0
VERTEX
  8
0
 62
7
  6
CONTINUOUS
 10
116.4104427532
 20
107.0524382268
  0
VERTEX
  8
0
 62
7
  6
CONTINUOUS
 10
116.2622445656
 20
107.1120435928
  0
VERTEX
  8
0
 62
7
  6
CONTINUOUS
 10
116.0698220493
 20
107.1622263902
  0
SEQEND
  0
LINE
  8
0
 62
7
  6
CONTINUOUS
 10
116.4105688345
 20
107.0523803748
 11
116.4104427189
 21
107.0524381519
  0
POLYLINE
  8
0
 62
7
  6
CONTINUOUS
 66
1
 70
0
  0
VERTEX
  8
0
 62
7
  6
CONTINUOUS
 10
131.0433461143
 20
103.1796874996
  0
VERTEX
  8
0
 62
7
  6
CONTINUOUS
 10
131.0311204513
 20
103.1985143249
  0
VERTEX
  8
0
 62
7
  6
CONTINUOUS
 10
130.9857262158
 20
103.2775736457
  0
VERTEX
  8
0
 62
7
  6
CONTINUOUS
 10
130.9458574814
 20
103.3575866363
  0
VERTEX
  8
0
 62
7
  6
CONTINUOUS
 10
130.9128048661
 20
103.4362353551
  0
VERTEX
  8
0
 62
7
  6
CONTINUOUS
 10
130.8876281771
 20
103.5106334939
  0
VERTEX
  8
0
 62
7
  6
CONTINUOUS
 10
130.872887352
 20
103.5678262677
  0
SEQEND
  0
LINE
  8
0
 62
7
  6
CONTINUOUS
 10
138.5823363985
 20
84.2015061193
 11
139.0623780247
 21
106.2015023847
  0
LINE
  8
0
 62
7
  6
CONTINUOUS
 10
137.3783231138
 20
104.0513245467
 11
137.4258135744
 21
106.2017609429
  0
POLYLINE
  8
0
 62
7
  6
CONTINUOUS
 66
1
 70
0
  0
VERTEX
  8
0
 62
7
  6
CONTINUOUS
 10
137.3783231973
 20
104.0513245448
  0
VERTEX
  8
0
 62
7
  6
CONTINUOUS
 10
137.3673565185
 20
103.7666777452
  0
VERTEX
  8
0
 62
7
  6
CONTINUOUS
 10
137.3460730748
 20
103.4736580672
  0
VERTEX
  8
0
 62
7
  6
CONTINUOUS
 10
137.3194943143
 20
103.2305165232
  0
VERTEX
  8
0
 62
7
  6
CONTINUOUS
 10
137.2914940103
 20
103.042786425
  0
VERTEX
  8
0
 62
7
  6
CONTINUOUS
 10
137.264927834
 20
102.9070489571
  0
VERTEX
  8
0
 62
7
  6
CONTINUOUS
 10
137.2435361915
 20
102.8228687692
  0
VERTEX
  8
0
 62
7
  6
CONTINUOUS
 10
137.2346938891
 20
102.7953513828
  0
SEQEND
  0
POLYLINE
  8
0
 62
7
  6
CONTINUOUS
 66
1
 70
0
  0
VERTEX
  8
0
 62
7
  6
CONTINUOUS
 10
163.825811871
 20
107.1796865627
  0
VERTEX
  8
0
 62
7
  6
CONTINUOUS
 10
163.5944439838
 20
107.1525670794
  0
VERTEX
  8
0
 62
7
  6
CONTINUOUS
 10
163.3417882488
 20
107.0548073576
  0
VERTEX
  8
0
 62
7
  6
CONTINUOUS
 10
163.124593015
 20
106.8928006998
  0
VERTEX
  8
0
 62
7
  6
CONTINUOUS
 10
162.9588760898
 20
106.6784722504
  0
VERTEX
  8
0
 62
7
  6
CONTINUOUS
 10
162.8568260148
 20
106.4277215111
  0
VERTEX
  8
0
 62
7
  6
CONTINUOUS
 10
162.8258143522
 20
106.2017609258
  0
SEQEND
  0
POLYLINE
  8
0
 62
7
  6
CONTINUOUS
 66
1
 70
0
  0
VERTEX
  8
0
 62
7
  6
CONTINUOUS
 10
138.425811871
 20
107.1796865627
  0
VERTEX
  8
0
 62
7
  6
CONTINUOUS
 10
138.1944439838
 20
107.1525670794
  0
VERTEX
  8
0
 62
7
  6
CONTINUOUS
 10
137.9417882488
 20
107.0548073576
  0
VERTEX
  8
0
 62
7
  6
CONTINUOUS
 10
137.724593015
 20
106.8928006998
  0
VERTEX
  8
0
 62
7
  6
CONTINUOUS
 10
137.5588760898
 20
106.6784722504
  0
VERTEX
  8
0
 62
7
  6
CONTINUOUS
 10
137.4568260148
 20
106.4277215111
  0
VERTEX
  8
0
 62
7
  6
CONTINUOUS
 10
137.4258143522
 20
106.2017609258
  0
SEQEND
  0
LINE
  8
0
 62
7
  6
CONTINUOUS
 10
151.125811871
 20
107.1796865627
 11
151.119140625
 21
107.1789163884
  0
POLYLINE
  8
0
 62
7
  6
CONTINUOUS
 66
1
 70
0
  0
VERTEX
  8
0
 62
7
  6
CONTINUOUS
 10
173.7442126895
 20
107.1796874315
  0
VERTEX
  8
0
 62
7
  6
CONTINUOUS
 10
173.5439491304
 20
107.1615174461
  0
VERTEX
  8
0
 62
7
  6
CONTINUOUS
 10
173.351544595
 20
107.1106250156
  0
VERTEX
  8
0
 62
7
  6
CONTINUOUS
 10
173.2044793656
 20
107.0510143845
  0
SEQEND
  0
POLYLINE
  8
0
 62
7
  6
CONTINUOUS
 66
1
 70
0
  0
VERTEX
  8
0
 62
7
  6
CONTINUOUS
 10
148.2648904675
 20
107.1796874343
  0
VERTEX
  8
0
 62
7
  6
CONTINUOUS
 10
148.0663036462
 20
107.1618435306
  0
VERTEX
  8
0
 62
7
  6
CONTINUOUS
 10
147.8746269681
 20
107.1115589052
  0
VERTEX
  8
0
 62
7
  6
CONTINUOUS
 10
147.7278333958
 20
107.0524358903
  0
SEQEND
  0
POLYLINE
  8
0
 62
7
  6
CONTINUOUS
 66
1
 70
0
  0
VERTEX
  8
0
 62
7
  6
CONTINUOUS
 10
160.9648755621
 20
107.1796874299
  0
VERTEX
  8
0
 62
7
  6
CONTINUOUS
 10
160.7684592007
 20
107.1622263902
  0
VERTEX
  8
0
 62
7
  6
CONTINUOUS
 10
160.5760366844
 20
107.1120435928
  0
VERTEX
  8
0
 62
7
  6
CONTINUOUS
 10
160.4278384968
 20
107.0524382268
  0
SEQEND
  0
POLYLINE
  8
0
 62
7
  6
CONTINUOUS
 66
1
 70
0
  0
VERTEX
  8
0
 62
7
  6
CONTINUOUS
 10
135.5648755621
 20
107.1796874299
  0
VERTEX
  8
0
 62
7
  6
CONTINUOUS
 10
135.3684592007
 20
107.1622263902
  0
VERTEX
  8
0
 62
7
  6
CONTINUOUS
 10
135.1760366844
 20
107.1120435928
  0
VERTEX
  8
0
 62
7
  6
CONTINUOUS
 10
135.0278384968
 20
107.0524382268
  0
SEQEND
  0
LINE
  8
0
 62
7
  6
CONTINUOUS
 10
171.2591895778
 20
103.1796874996
 11
169.1433656453
 21
103.1796874996
  0
LINE
  8
0
 62
7
  6
CONTINUOUS
 10
162.711913068
 20
103.1796874996
 11
152.2263885922
 21
103.1796874996
  0
LINE
  8
0
 62
7
  6
CONTINUOUS
 10
145.7949351357
 20
103.1796874996
 11
143.7433656453
 21
103.1796874996
  0
LINE
  8
0
 62
7
  6
CONTINUOUS
 10
137.311913068
 20
103.1796874996
 11
126.8263885922
 21
103.1796874996
  0
LINE
  8
0
 62
7
  6
CONTINUOUS
 10
120.3949351357
 20
103.1796874996
 11
118.3433656453
 21
103.1796874996
  0
LINE
  8
0
 62
7
  6
CONTINUOUS
 10
111.911913068
 20
103.1796874996
 11
101.4263885922
 21
103.1796874996
  0
LINE
  8
0
 62
7
  6
CONTINUOUS
 10
94.9949351357
 20
103.1796874996
 11
92.9433656453
 21
103.1796874996
  0
LINE
  8
0
 62
7
  6
CONTINUOUS
 10
86.511913068
 20
103.1796874996
 11
79.5543848571
 21
103.1796874996
  0
POLYLINE
  8
0
 62
7
  6
CONTINUOUS
 66
1
 70
0
  0
VERTEX
  8
0
 62
7
  6
CONTINUOUS
 10
144.5964185446
 20
102.5537614203
  0
VERTEX
  8
0
 62
7
  6
CONTINUOUS
 10
144.536924997
 20
102.5574499653
  0
VERTEX
  8
0
 62
7
  6
CONTINUOUS
 10
144.4606368388
 20
102.5724542231
  0
VERTEX
  8
0
 62
7
  6
CONTINUOUS
 10
144.3841919028
 20
102.5979634767
  0
VERTEX
  8
0
 62
7
  6
CONTINUOUS
 10
144.3092605269
 20
102.6321397519
  0
VERTEX
  8
0
 62
7
  6
CONTINUOUS
 10
144.2367100706
 20
102.6732867487
  0
VERTEX
  8
0
 62
7
  6
CONTINUOUS
 10
144.1667375176
 20
102.7202211088
  0
VERTEX
  8
0
 62
7
  6
CONTINUOUS
 10
144.0996343244
 20
102.7719069493
  0
VERTEX
  8
0
 62
7
  6
CONTINUOUS
 10
144.0354538635
 20
102.8276537562
  0
VERTEX
  8
0
 62
7
  6
CONTINUOUS
 10
143.9741675632
 20
102.8869929488
  0
VERTEX
  8
0
 62
7
  6
CONTINUOUS
 10
143.9444865867
 20
102.9180330559
  0
VERTEX
  8
0
 62
7
  6
CONTINUOUS
 10
143.887102004
 20
102.9827198212
  0
VERTEX
  8
0
 62
7
  6
CONTINUOUS
 10
143.8323109936
 20
103.0509668641
  0
VERTEX
  8
0
 62
7
  6
CONTINUOUS
 10
143.7799735194
 20
103.1232268499
  0
VERTEX
  8
0
 62
7
  6
CONTINUOUS
 10
143.730485703
 20
103.1995523492
  0
VERTEX
  8
0
 62
7
  6
CONTINUOUS
 10
143.6851483876
 20
103.2786516071
  0
VERTEX
  8
0
 62
7
  6
CONTINUOUS
 10
143.6453575907
 20
103.3586754737
  0
VERTEX
  8
0
 62
7
  6
CONTINUOUS
 10
143.6124031067
 20
103.4372949328
  0
VERTEX
  8
0
 62
7
  6
CONTINUOUS
 10
143.5873386437
 20
103.5116168325
  0
VERTEX
  8
0
 62
7
  6
CONTINUOUS
 10
143.5728874
 20
103.5678260396
  0
SEQEND
  0
POLYLINE
  8
0
 62
7
  6
CONTINUOUS
 66
1
 70
0
  0
VERTEX
  8
0
 62
7
  6
CONTINUOUS
 10
169.9964185446
 20
102.5537614203
  0
VERTEX
  8
0
 62
7
  6
CONTINUOUS
 10
169.936924997
 20
102.5574499653
  0
VERTEX
  8
0
 62
7
  6
CONTINUOUS
 10
169.8606368388
 20
102.5724542231
  0
VERTEX
  8
0
 62
7
  6
CONTINUOUS
 10
169.7841919028
 20
102.5979634767
  0
VERTEX
  8
0
 62
7
  6
CONTINUOUS
 10
169.7092605269
 20
102.6321397519
  0
VERTEX
  8
0
 62
7
  6
CONTINUOUS
 10
169.6367100706
 20
102.6732867487
  0
VERTEX
  8
0
 62
7
  6
CONTINUOUS
 10
169.5667375176
 20
102.7202211088
  0
VERTEX
  8
0
 62
7
  6
CONTINUOUS
 10
169.4996343244
 20
102.7719069493
  0
VERTEX
  8
0
 62
7
  6
CONTINUOUS
 10
169.4354538635
 20
102.8276537562
  0
VERTEX
  8
0
 62
7
  6
CONTINUOUS
 10
169.3741675632
 20
102.8869929488
  0
VERTEX
  8
0
 62
7
  6
CONTINUOUS
 10
169.3444865867
 20
102.9180330559
  0
VERTEX
  8
0
 62
7
  6
CONTINUOUS
 10
169.287102004
 20
102.9827198212
  0
VERTEX
  8
0
 62
7
  6
CONTINUOUS
 10
169.2323109936
 20
103.0509668641
  0
VERTEX
  8
0
 62
7
  6
CONTINUOUS
 10
169.1799735194
 20
103.1232268499
  0
VERTEX
  8
0
 62
7
  6
CONTINUOUS
 10
169.130485703
 20
103.1995523492
  0
VERTEX
  8
0
 62
7
  6
CONTINUOUS
 10
169.0851483876
 20
103.2786516071
  0
VERTEX
  8
0
 62
7
  6
CONTINUOUS
 10
169.0453575907
 20
103.3586754737
  0
VERTEX
  8
0
 62
7
  6
CONTINUOUS
 10
169.0124031067
 20
103.4372949328
  0
VERTEX
  8
0
 62
7
  6
CONTINUOUS
 10
168.9873386437
 20
103.5116168325
  0
VERTEX
  8
0
 62
7
  6
CONTINUOUS
 10
168.9728874
 20
103.5678260396
  0
SEQEND
  0
LINE
  8
0
 62
7
  6
CONTINUOUS
 10
90.6698220493
 20
107.1622263902
 11
90.4734056879
 21
107.1796874299
  0
LINE
  8
0
 62
7
  6
CONTINUOUS
 10
116.0698220493
 20
107.1622263902
 11
115.8734056879
 21
107.1796874299
  0
LINE
  8
0
 62
7
  6
CONTINUOUS
 10
113.019140625
 20
107.1789046014
 11
113.012469379
 21
107.1796865627
  0
POLYLINE
  8
0
 62
7
  6
CONTINUOUS
 66
1
 70
0
  0
VERTEX
  8
0
 62
7
  6
CONTINUOUS
 10
129.1104478542
 20
107.0524358903
  0
VERTEX
  8
0
 62
7
  6
CONTINUOUS
 10
128.9636542819
 20
107.1115589052
  0
VERTEX
  8
0
 62
7
  6
CONTINUOUS
 10
128.7719776038
 20
107.1618435306
  0
VERTEX
  8
0
 62
7
  6
CONTINUOUS
 10
128.5733907825
 20
107.1796874343
  0
SEQEND
  0
LINE
  8
0
 62
7
  6
CONTINUOUS
 10
129.1105545846
 20
107.0523869948
 11
129.1104478542
 21
107.0524358903
  0
POLYLINE
  8
0
 62
7
  6
CONTINUOUS
 66
1
 70
0
  0
VERTEX
  8
0
 62
7
  6
CONTINUOUS
 10
145.965393898
 20
103.5678262677
  0
VERTEX
  8
0
 62
7
  6
CONTINUOUS
 10
145.9506530729
 20
103.5106334939
  0
VERTEX
  8
0
 62
7
  6
CONTINUOUS
 10
145.9254763839
 20
103.4362353551
  0
VERTEX
  8
0
 62
7
  6
CONTINUOUS
 10
145.8924237686
 20
103.3575866363
  0
VERTEX
  8
0
 62
7
  6
CONTINUOUS
 10
145.8525550342
 20
103.2775736457
  0
VERTEX
  8
0
 62
7
  6
CONTINUOUS
 10
145.8071607987
 20
103.1985143249
  0
VERTEX
  8
0
 62
7
  6
CONTINUOUS
 10
145.7576365516
 20
103.122249803
  0
VERTEX
  8
0
 62
7
  6
CONTINUOUS
 10
145.7052752675
 20
103.0500569591
  0
VERTEX
  8
0
 62
7
  6
CONTINUOUS
 10
145.6504624405
 20
102.9818711221
  0
VERTEX
  8
0
 62
7
  6
CONTINUOUS
 10
145.593055475
 20
102.9172408585
  0
VERTEX
  8
0
 62
7
  6
CONTINUOUS
 10
145.563362645
 20
102.8862276102
  0
VERTEX
  8
0
 62
7
  6
CONTINUOUS
 10
145.5020519529
 20
102.8269422379
  0
VERTEX
  8
0
 62
7
  6
CONTINUOUS
 10
145.4378432952
 20
102.7712485148
  0
VERTEX
  8
0
 62
7
  6
CONTINUOUS
 10
145.3707035314
 20
102.719615541
  0
VERTEX
  8
0
 62
7
  6
CONTINUOUS
 10
145.3006900884
 20
102.6727410506
  0
VERTEX
  8
0
 62
7
  6
CONTINUOUS
 10
145.2280976614
 20
102.6316665761
  0
VERTEX
  8
0
 62
7
  6
CONTINUOUS
 10
145.1531177937
 20
102.5975782904
  0
VERTEX
  8
0
 62
7
  6
CONTINUOUS
 10
145.0766050821
 20
102.5721769724
  0
VERTEX
  8
0
 62
7
  6
CONTINUOUS
 10
145.0002360927
 20
102.5573135053
  0
VERTEX
  8
0
 62
7
  6
CONTINUOUS
 10
144.9418625769
 20
102.5537614154
  0
SEQEND
  0
POLYLINE
  8
0
 62
7
  6
CONTINUOUS
 66
1
 70
0
  0
VERTEX
  8
0
 62
7
  6
CONTINUOUS
 10
173.2045009226
 20
107.051024229
  0
VERTEX
  8
0
 62
7
  6
CONTINUOUS
 10
172.8038933097
 20
106.7851094921
  0
VERTEX
  8
0
 62
7
  6
CONTINUOUS
 10
172.4828004178
 20
106.4228865978
  0
VERTEX
  8
0
 62
7
  6
CONTINUOUS
 10
172.2090190312
 20
105.9671028089
  0
VERTEX
  8
0
 62
7
  6
CONTINUOUS
 10
171.9495592786
 20
105.3734985988
  0
VERTEX
  8
0
 62
7
  6
CONTINUOUS
 10
171.6901593038
 20
104.5863849907
  0
VERTEX
  8
0
 62
7
  6
CONTINUOUS
 10
171.4336464892
 20
103.571787932
  0
SEQEND
  0
POLYLINE
  8
0
 62
7
  6
CONTINUOUS
 66
1
 70
0
  0
VERTEX
  8
0
 62
7
  6
CONTINUOUS
 10
113.025811871
 20
107.1796865627
  0
VERTEX
  8
0
 62
7
  6
CONTINUOUS
 10
112.7944439838
 20
107.1525670794
  0
VERTEX
  8
0
 62
7
  6
CONTINUOUS
 10
112.5417882488
 20
107.0548073576
  0
VERTEX
  8
0
 62
7
  6
CONTINUOUS
 10
112.324593015
 20
106.8928006998
  0
VERTEX
  8
0
 62
7
  6
CONTINUOUS
 10
112.1588760898
 20
106.6784722504
  0
VERTEX
  8
0
 62
7
  6
CONTINUOUS
 10
112.0568260148
 20
106.4277215111
  0
VERTEX
  8
0
 62
7
  6
CONTINUOUS
 10
112.0258143522
 20
106.2017609258
  0
SEQEND
  0
LINE
  8
0
 62
7
  6
CONTINUOUS
 10
125.725811871
 20
107.1796865627
 11
125.719140625
 21
107.1789163884
  0
LINE
  8
0
 62
7
  6
CONTINUOUS
 10
100.325811871
 20
107.1796865627
 11
100.319140625
 21
107.1789163884
  0
POLYLINE
  8
0
 62
7
  6
CONTINUOUS
 66
1
 70
0
  0
VERTEX
  8
0
 62
7
  6
CONTINUOUS
 10
122.8648904675
 20
107.1796874343
  0
VERTEX
  8
0
 62
7
  6
CONTINUOUS
 10
122.6663036462
 20
107.1618435306
  0
VERTEX
  8
0
 62
7
  6
CONTINUOUS
 10
122.4746269681
 20
107.1115589052
  0
VERTEX
  8
0
 62
7
  6
CONTINUOUS
 10
122.3278333958
 20
107.0524358903
  0
SEQEND
  0
POLYLINE
  8
0
 62
7
  6
CONTINUOUS
 66
1
 70
0
  0
VERTEX
  8
0
 62
7
  6
CONTINUOUS
 10
97.4648904675
 20
107.1796874343
  0
VERTEX
  8
0
 62
7
  6
CONTINUOUS
 10
97.2663036462
 20
107.1618435306
  0
VERTEX
  8
0
 62
7
  6
CONTINUOUS
 10
97.0746269681
 20
107.1115589052
  0
VERTEX
  8
0
 62
7
  6
CONTINUOUS
 10
96.9278333958
 20
107.0524358903
  0
SEQEND
  0
POLYLINE
  8
0
 62
7
  6
CONTINUOUS
 66
1
 70
0
  0
VERTEX
  8
0
 62
7
  6
CONTINUOUS
 10
110.1648755621
 20
107.1796874299
  0
VERTEX
  8
0
 62
7
  6
CONTINUOUS
 10
109.9684592007
 20
107.1622263902
  0
VERTEX
  8
0
 62
7
  6
CONTINUOUS
 10
109.7760366844
 20
107.1120435928
  0
VERTEX
  8
0
 62
7
  6
CONTINUOUS
 10
109.6278384968
 20
107.0524382268
  0
SEQEND
  0
LINE
  8
0
 62
7
  6
CONTINUOUS
 10
175.319140625
 20
107.1796874996
 11
173.7445053932
 21
107.1796874996
  0
LINE
  8
0
 62
7
  6
CONTINUOUS
 10
163.8124693791
 20
107.1796874996
 11
160.9651749004
 21
107.1796874996
  0
LINE
  8
0
 62
7
  6
CONTINUOUS
 10
153.9731063496
 20
107.1796874996
 11
151.1258118709
 21
107.1796874996
  0
LINE
  8
0
 62
7
  6
CONTINUOUS
 10
138.4124693791
 20
107.1796874996
 11
135.5651749004
 21
107.1796874996
  0
LINE
  8
0
 62
7
  6
CONTINUOUS
 10
128.5731063496
 20
107.1796874996
 11
125.7258118709
 21
107.1796874996
  0
LINE
  8
0
 62
7
  6
CONTINUOUS
 10
115.8731063496
 20
107.1796874996
 11
113.0258118709
 21
107.1796874996
  0
LINE
  8
0
 62
7
  6
CONTINUOUS
 10
113.0124693791
 20
107.1796874996
 11
110.1651749004
 21
107.1796874996
  0
LINE
  8
0
 62
7
  6
CONTINUOUS
 10
103.1731063496
 20
107.1796874996
 11
100.3258118709
 21
107.1796874996
  0
LINE
  8
0
 62
7
  6
CONTINUOUS
 10
100.3124693791
 20
107.1796874996
 11
97.4651749004
 21
107.1796874996
  0
LINE
  8
0
 62
7
  6
CONTINUOUS
 10
90.4731063496
 20
107.1796874996
 11
87.6258118709
 21
107.1796874996
  0
LINE
  8
0
 62
7
  6
CONTINUOUS
 10
87.6124693791
 20
107.1796874996
 11
84.7651749004
 21
107.1796874996
  0
LINE
  8
0
 62
7
  6
CONTINUOUS
 10
76.119140625
 20
107.1796874996
 11
77.6937758568
 21
107.1796874996
  0
LINE
  8
0
 62
7
  6
CONTINUOUS
 10
122.8648904675
 20
107.1796874566
 11
125.7124693791
 21
107.1796874996
  0
LINE
  8
0
 62
7
  6
CONTINUOUS
 10
138.4258118709
 20
107.1796874996
 11
141.2731063496
 21
107.1796874996
  0
LINE
  8
0
 62
7
  6
CONTINUOUS
 10
148.2648904675
 20
107.1796874566
 11
151.1124693791
 21
107.1796874996
  0
LINE
  8
0
 62
7
  6
CONTINUOUS
 10
163.8258118709
 20
107.1796874996
 11
166.6731063496
 21
107.1796874996
  0
LINE
  8
0
 62
7
  6
CONTINUOUS
 10
141.4698220493
 20
107.1622263902
 11
141.2734056879
 21
107.1796874299
  0
LINE
  8
0
 62
7
  6
CONTINUOUS
 10
138.419140625
 20
107.1789046014
 11
138.412469379
 21
107.1796865627
  0
POLYLINE
  8
0
 62
7
  6
CONTINUOUS
 66
1
 70
0
  0
VERTEX
  8
0
 62
7
  6
CONTINUOUS
 10
87.625811871
 20
107.1796865627
  0
VERTEX
  8
0
 62
7
  6
CONTINUOUS
 10
87.3944439838
 20
107.1525670794
  0
VERTEX
  8
0
 62
7
  6
CONTINUOUS
 10
87.1417882488
 20
107.0548073576
  0
VERTEX
  8
0
 62
7
  6
CONTINUOUS
 10
86.924593015
 20
106.8928006998
  0
VERTEX
  8
0
 62
7
  6
CONTINUOUS
 10
86.7588760898
 20
106.6784722504
  0
VERTEX
  8
0
 62
7
  6
CONTINUOUS
 10
86.6568260148
 20
106.4277215111
  0
VERTEX
  8
0
 62
7
  6
CONTINUOUS
 10
86.6258143522
 20
106.2017609258
  0
SEQEND
  0
POLYLINE
  8
0
 62
7
  6
CONTINUOUS
 66
1
 70
0
  0
VERTEX
  8
0
 62
7
  6
CONTINUOUS
 10
84.7648755621
 20
107.1796874299
  0
VERTEX
  8
0
 62
7
  6
CONTINUOUS
 10
84.5684592007
 20
107.1622263902
  0
VERTEX
  8
0
 62
7
  6
CONTINUOUS
 10
84.3760366844
 20
107.1120435928
  0
VERTEX
  8
0
 62
7
  6
CONTINUOUS
 10
84.2278384968
 20
107.0524382268
  0
SEQEND
  0
LINE
  8
0
 62
7
  6
CONTINUOUS
 10
166.8698220493
 20
107.1622263902
 11
166.6734056879
 21
107.1796874299
  0
LINE
  8
0
 62
7
  6
CONTINUOUS
 10
163.819140625
 20
107.1789046014
 11
163.812469379
 21
107.1796865627
  0
POLYLINE
  8
0
 62
7
  6
CONTINUOUS
 66
1
 70
0
  0
VERTEX
  8
0
 62
7
  6
CONTINUOUS
 10
141.8104427532
 20
107.0524382268
  0
VERTEX
  8
0
 62
7
  6
CONTINUOUS
 10
141.6622445656
 20
107.1120435928
  0
VERTEX
  8
0
 62
7
  6
CONTINUOUS
 10
141.4698220493
 20
107.1622263902
  0
SEQEND
  0
LINE
  8
0
 62
7
  6
CONTINUOUS
 10
141.8105688345
 20
107.0523803748
 11
141.8104427189
 21
107.0524381519
  0
POLYLINE
  8
0
 62
7
  6
CONTINUOUS
 66
1
 70
0
  0
VERTEX
  8
0
 62
7
  6
CONTINUOUS
 10
143.5728861111
 20
103.5678328036
  0
VERTEX
  8
0
 62
7
  6
CONTINUOUS
 10
143.3339228598
 20
104.5362125035
  0
VERTEX
  8
0
 62
7
  6
CONTINUOUS
 10
143.0750511052
 20
105.3424986235
  0
VERTEX
  8
0
 62
7
  6
CONTINUOUS
 10
142.8053990517
 20
105.9687154246
  0
VERTEX
  8
0
 62
7
  6
CONTINUOUS
 10
142.5217029303
 20
106.4397566937
  0
VERTEX
  8
0
 62
7
  6
CONTINUOUS
 10
142.192967289
 20
106.8033560554
  0
VERTEX
  8
0
 62
7
  6
CONTINUOUS
 10
141.8105688345
 20
107.0523803748
  0
SEQEND
  0
LINE
  8
0
 62
7
  6
CONTINUOUS
 10
150.4759032253
 20
106.2015023847
 11
150.955944933
 21
84.2015023847
  0
POLYLINE
  8
0
 62
7
  6
CONTINUOUS
 66
1
 70
0
  0
VERTEX
  8
0
 62
7
  6
CONTINUOUS
 10
154.5104478542
 20
107.0524358903
  0
VERTEX
  8
0
 62
7
  6
CONTINUOUS
 10
154.3636542819
 20
107.1115589052
  0
VERTEX
  8
0
 62
7
  6
CONTINUOUS
 10
154.1719776038
 20
107.1618435306
  0
VERTEX
  8
0
 62
7
  6
CONTINUOUS
 10
153.9733907825
 20
107.1796874343
  0
SEQEND
  0
LINE
  8
0
 62
7
  6
CONTINUOUS
 10
154.5105545846
 20
107.0523869948
 11
154.5104478542
 21
107.0524358903
  0
LINE
  8
0
 62
7
  6
CONTINUOUS
 10
152.1124676756
 20
106.2017609434
 11
152.1599581362
 21
104.0513245465
  0
LINE
  8
0
 62
7
  6
CONTINUOUS
 10
154.9259032253
 20
106.2015023847
 11
154.9918394607
 21
103.1796874996
  0
POLYLINE
  8
0
 62
7
  6
CONTINUOUS
 66
1
 70
0
  0
VERTEX
  8
0
 62
7
  6
CONTINUOUS
 10
167.2104427532
 20
107.0524382268
  0
VERTEX
  8
0
 62
7
  6
CONTINUOUS
 10
167.0622445656
 20
107.1120435928
  0
VERTEX
  8
0
 62
7
  6
CONTINUOUS
 10
166.8698220493
 20
107.1622263902
  0
SEQEND
  0
POLYLINE
  8
0
 62
7
  6
CONTINUOUS
 66
1
 70
0
  0
VERTEX
  8
0
 62
7
  6
CONTINUOUS
 10
152.3041420249
 20
102.7937850232
  0
VERTEX
  8
0
 62
7
  6
CONTINUOUS
 10
152.3044808414
 20
102.7929662911
  0
VERTEX
  8
0
 62
7
  6
CONTINUOUS
 10
152.2945917475
 20
102.8233899973
  0
VERTEX
  8
0
 62
7
  6
CONTINUOUS
 10
152.2731240681
 20
102.9080709083
  0
VERTEX
  8
0
 62
7
  6
CONTINUOUS
 10
152.2465234701
 20
103.0443205126
  0
VERTEX
  8
0
 62
7
  6
CONTINUOUS
 10
152.218515711
 20
103.2326169595
  0
VERTEX
  8
0
 62
7
  6
CONTINUOUS
 10
152.1919582907
 20
103.4764017649
  0
VERTEX
  8
0
 62
7
  6
CONTINUOUS
 10
152.17073989
 20
103.7700538512
  0
VERTEX
  8
0
 62
7
  6
CONTINUOUS
 10
152.1599580526
 20
104.0513245446
  0
SEQEND
  0
POLYLINE
  8
0
 62
7
  6
CONTINUOUS
 66
1
 70
0
  0
VERTEX
  8
0
 62
7
  6
CONTINUOUS
 10
152.1124668978
 20
106.2017609262
  0
VERTEX
  8
0
 62
7
  6
CONTINUOUS
 10
152.0805592093
 20
106.4311944454
  0
VERTEX
  8
0
 62
7
  6
CONTINUOUS
 10
151.9776150691
 20
106.6815693852
  0
VERTEX
  8
0
 62
7
  6
CONTINUOUS
 10
151.8111587409
 20
106.8952780886
  0
VERTEX
  8
0
 62
7
  6
CONTINUOUS
 10
151.5934150714
 20
107.0565019186
  0
VERTEX
  8
0
 62
7
  6
CONTINUOUS
 10
151.3404429065
 20
107.1533677381
  0
VERTEX
  8
0
 62
7
  6
CONTINUOUS
 10
151.112469379
 20
107.1796865627
  0
SEQEND
  0
POLYLINE
  8
0
 62
7
  6
CONTINUOUS
 66
1
 70
0
  0
VERTEX
  8
0
 62
7
  6
CONTINUOUS
 10
158.66539385
 20
103.5678260396
  0
VERTEX
  8
0
 62
7
  6
CONTINUOUS
 10
158.6509426063
 20
103.5116168325
  0
VERTEX
  8
0
 62
7
  6
CONTINUOUS
 10
158.6258781433
 20
103.4372949328
  0
VERTEX
  8
0
 62
7
  6
CONTINUOUS
 10
158.5929236593
 20
103.3586754737
  0
VERTEX
  8
0
 62
7
  6
CONTINUOUS
 10
158.5531328624
 20
103.2786516071
  0
VERTEX
  8
0
 62
7
  6
CONTINUOUS
 10
158.507795547
 20
103.1995523492
  0
VERTEX
  8
0
 62
7
  6
CONTINUOUS
 10
158.4949156047
 20
103.1796874996
  0
SEQEND
  0
LINE
  8
0
 62
7
  6
CONTINUOUS
 10
167.2105688345
 20
107.0523803748
 11
167.2104427189
 21
107.0524381519
  0
POLYLINE
  8
0
 62
7
  6
CONTINUOUS
 66
1
 70
0
  0
VERTEX
  8
0
 62
7
  6
CONTINUOUS
 10
156.4433461143
 20
103.1796874996
  0
VERTEX
  8
0
 62
7
  6
CONTINUOUS
 10
156.4311204513
 20
103.1985143249
  0
VERTEX
  8
0
 62
7
  6
CONTINUOUS
 10
156.3857262158
 20
103.2775736457
  0
VERTEX
  8
0
 62
7
  6
CONTINUOUS
 10
156.3458574814
 20
103.3575866363
  0
VERTEX
  8
0
 62
7
  6
CONTINUOUS
 10
156.3128048661
 20
103.4362353551
  0
VERTEX
  8
0
 62
7
  6
CONTINUOUS
 10
156.2876281771
 20
103.5106334939
  0
VERTEX
  8
0
 62
7
  6
CONTINUOUS
 10
156.272887352
 20
103.5678262677
  0
SEQEND
  0
POLYLINE
  8
0
 62
7
  6
CONTINUOUS
 66
1
 70
0
  0
VERTEX
  8
0
 62
7
  6
CONTINUOUS
 10
156.2728862724
 20
103.5678320638
  0
VERTEX
  8
0
 62
7
  6
CONTINUOUS
 10
156.0344038253
 20
104.5344978837
  0
VERTEX
  8
0
 62
7
  6
CONTINUOUS
 10
155.7756463526
 20
105.3408922071
  0
VERTEX
  8
0
 62
7
  6
CONTINUOUS
 10
155.5061167227
 20
105.9672986247
  0
VERTEX
  8
0
 62
7
  6
CONTINUOUS
 10
155.2225693371
 20
106.4385652651
  0
VERTEX
  8
0
 62
7
  6
CONTINUOUS
 10
154.8941007951
 20
106.8023713883
  0
VERTEX
  8
0
 62
7
  6
CONTINUOUS
 10
154.5105545502
 20
107.0523869199
  0
SEQEND
  0
LINE
  8
0
 62
7
  6
CONTINUOUS
 10
159.9464417893
 20
103.1796874996
 11
160.0123780247
 21
106.2015023847
  0
LINE
  8
0
 62
7
  6
CONTINUOUS
 10
162.7783231138
 20
104.0513245467
 11
162.8258135744
 21
106.2017609429
  0
POLYLINE
  8
0
 62
7
  6
CONTINUOUS
 66
1
 70
0
  0
VERTEX
  8
0
 62
7
  6
CONTINUOUS
 10
162.7783231973
 20
104.0513245448
  0
VERTEX
  8
0
 62
7
  6
CONTINUOUS
 10
162.7673565185
 20
103.7666777452
  0
VERTEX
  8
0
 62
7
  6
CONTINUOUS
 10
162.7460730748
 20
103.4736580672
  0
VERTEX
  8
0
 62
7
  6
CONTINUOUS
 10
162.7194943143
 20
103.2305165232
  0
VERTEX
  8
0
 62
7
  6
CONTINUOUS
 10
162.6914940103
 20
103.042786425
  0
VERTEX
  8
0
 62
7
  6
CONTINUOUS
 10
162.664927834
 20
102.9070489571
  0
VERTEX
  8
0
 62
7
  6
CONTINUOUS
 10
162.6435361915
 20
102.8228687692
  0
VERTEX
  8
0
 62
7
  6
CONTINUOUS
 10
162.6346938891
 20
102.7953513828
  0
SEQEND
  0
LINE
  8
0
 62
7
  6
CONTINUOUS
 10
163.9823363985
 20
84.2015061196
 11
164.4623780247
 21
106.2015023847
  0
POLYLINE
  8
0
 62
7
  6
CONTINUOUS
 66
1
 70
0
  0
VERTEX
  8
0
 62
7
  6
CONTINUOUS
 10
171.4336443825
 20
103.5717777925
  0
VERTEX
  8
0
 62
7
  6
CONTINUOUS
 10
171.4185430494
 20
103.5141993
  0
VERTEX
  8
0
 62
7
  6
CONTINUOUS
 10
171.3928660415
 20
103.4393638545
  0
VERTEX
  8
0
 62
7
  6
CONTINUOUS
 10
171.3592522765
 20
103.3602896541
  0
VERTEX
  8
0
 62
7
  6
CONTINUOUS
 10
171.3187876565
 20
103.279878806
  0
VERTEX
  8
0
 62
7
  6
CONTINUOUS
 10
171.27278741
 20
103.2004625274
  0
VERTEX
  8
0
 62
7
  6
CONTINUOUS
 10
171.2226648706
 20
103.123884354
  0
VERTEX
  8
0
 62
7
  6
CONTINUOUS
 10
171.1697266263
 20
103.0514216199
  0
VERTEX
  8
0
 62
7
  6
CONTINUOUS
 10
171.1143578131
 20
102.9830020511
  0
VERTEX
  8
0
 62
7
  6
CONTINUOUS
 10
171.056411991
 20
102.9181672985
  0
VERTEX
  8
0
 62
7
  6
CONTINUOUS
 10
171.0264553315
 20
102.8870615471
  0
VERTEX
  8
0
 62
7
  6
CONTINUOUS
 10
170.9646262739
 20
102.8276057547
  0
VERTEX
  8
0
 62
7
  6
CONTINUOUS
 10
170.8999121444
 20
102.7717635088
  0
VERTEX
  8
0
 62
7
  6
CONTINUOUS
 10
170.8322865131
 20
102.7200049519
  0
VERTEX
  8
0
 62
7
  6
CONTINUOUS
 10
170.7618009427
 20
102.6730202165
  0
VERTEX
  8
0
 62
7
  6
CONTINUOUS
 10
170.6887561932
 20
102.6318519121
  0
VERTEX
  8
0
 62
7
  6
CONTINUOUS
 10
170.6133587669
 20
102.5976887896
  0
VERTEX
  8
0
 62
7
  6
CONTINUOUS
 10
170.5364910522
 20
102.5722327515
  0
VERTEX
  8
0
 62
7
  6
CONTINUOUS
 10
170.4598669711
 20
102.557332042
  0
VERTEX
  8
0
 62
7
  6
CONTINUOUS
 10
170.4012781334
 20
102.5537614465
  0
SEQEND
  0
POLYLINE
  8
0
 62
7
  6
CONTINUOUS
 66
1
 70
0
  0
VERTEX
  8
0
 62
7
  6
CONTINUOUS
 10
168.9728861111
 20
103.5678328036
  0
VERTEX
  8
0
 62
7
  6
CONTINUOUS
 10
168.7339228598
 20
104.5362125035
  0
VERTEX
  8
0
 62
7
  6
CONTINUOUS
 10
168.4750511052
 20
105.3424986235
  0
VERTEX
  8
0
 62
7
  6
CONTINUOUS
 10
168.2053990517
 20
105.9687154246
  0
VERTEX
  8
0
 62
7
  6
CONTINUOUS
 10
167.9217029303
 20
106.4397566937
  0
VERTEX
  8
0
 62
7
  6
CONTINUOUS
 10
167.592967289
 20
106.8033560554
  0
VERTEX
  8
0
 62
7
  6
CONTINUOUS
 10
167.2105688345
 20
107.0523803748
  0
SEQEND
  0
LINE
  8
0
 62
7
  6
CONTINUOUS
 10
176.319140625
 20
106.1796874996
 11
176.319140625
 21
84.1796874996
  0
ARC
  8
0
 62
7
  6
CONTINUOUS
 10
175.319140625
 20
225.68046875
 40
1.0
 50
0.0
 51
90.0
  0
ARC
  8
0
 62
7
  6
CONTINUOUS
 10
76.119140625
 20
152.53046875
 40
1.0
 50
180.0
 51
270.0
  0
ARC
  8
0
 62
7
  6
CONTINUOUS
 10
254.3457031254
 20
188.3046606614
 40
2.0
 50
96.0
 51
180.0
  0
ARC
  8
0
 62
7
  6
CONTINUOUS
 10
254.3457031254
 20
189.9062768386
 40
2.0
 50
180.0
 51
203.6177611344
  0
ARC
  8
0
 62
7
  6
CONTINUOUS
 10
253.3257031254
 20
193.08546875
 40
0.98
 50
180.0
 51
270.0
  0
ARC
  8
0
 62
7
  6
CONTINUOUS
 10
255.4957031254
 20
191.25546875
 40
0.85
 50
0.0
 51
90.0
  0
ARC
  8
0
 62
7
  6
CONTINUOUS
 10
260.3140198184
 20
203.0409297647
 40
12.031683307
 50
276.0
 51
360.0
  0
ARC
  8
0
 62
7
  6
CONTINUOUS
 10
264.3457031254
 20
163.53046875
 40
12.0
 50
180.0
 51
360.0
  0
CIRCLE
  8
0
 62
7
  6
CONTINUOUS
 10
265.5457031254
 20
163.70546875
 40
4.175
  0
ARC
  8
0
 62
7
  6
CONTINUOUS
 10
264.3457031254
 20
214.68046875
 40
12.0
 50
0.0
 51
180.0
  0
ARC
  8
0
 62
7
  6
CONTINUOUS
 10
265.5457031254
 20
212.7264860213
 40
11.0
 50
313.1134761482
 51
324.7524930079
  0
CIRCLE
  8
0
 62
7
  6
CONTINUOUS
 10
265.5457031254
 20
214.50546875
 40
4.175
  0
ARC
  8
0
 62
7
  6
CONTINUOUS
 10
274.6135602682
 20
203.0409297647
 40
2.2678571428
 50
133.1134761482
 51
180.0
  0
ARC
  8
SURF
 62
7
  6
CONTINUOUS
 10
274.6135602682
 20
203.0409297647
 40
2.2678571428
 50
169.7046086631
 51
179.5146432447
  0
ARC
  8
SURF
 62
7
  6
CONTINUOUS
 10
274.6135602682
 20
203.0409297647
 40
2.2678571428
 50
158.5425347154
 51
168.3944563247
  0
ARC
  8
SURF
 62
7
  6
CONTINUOUS
 10
274.6135602682
 20
203.0409297647
 40
2.2678571428
 50
143.6418670858
 51
154.333444804
  0
ARC
  8
0
 62
7
  6
CONTINUOUS
 10
275.3457031254
 20
205.8011717234
 40
0.9999995719
 50
0.0
 51
144.7525083505
  0
ARC
  8
0
 62
7
  6
CONTINUOUS
 10
76.119140625
 20
84.1796874996
 40
1.0
 50
180.0
 51
270.0
  0
ARC
  8
0
 62
7
  6
CONTINUOUS
 10
99.1561829059
 20
84.1796874996
 40
1.0
 50
270.0
 51
1.25
  0
ARC
  8
0
 62
7
  6
CONTINUOUS
 10
88.7820983472
 20
84.1796876436
 40
1.0
 50
178.7500082508
 51
269.99999982
  0
ARC
  8
0
 62
7
  6
CONTINUOUS
 10
76.119140625
 20
86.1796874996
 40
1.0
 50
90.0
 51
180.0
  0
ARC
  8
0
 62
7
  6
CONTINUOUS
 10
80.1194834175
 20
88.1796874996
 40
1.0
 50
181.5
 51
270.0
  0
ARC
  8
0
 62
7
  6
CONTINUOUS
 10
124.5561829059
 20
84.1796874996
 40
1.0
 50
270.0
 51
1.25
  0
ARC
  8
0
 62
7
  6
CONTINUOUS
 10
114.1820983441
 20
84.1796874996
 40
1.0
 50
178.7497924361
 51
269.9999789665
  0
ARC
  8
0
 62
7
  6
CONTINUOUS
 10
79.7005087008
 20
104.1796864126
 40
0.9999994565
 50
181.4999376942
 51
269.999998369
  0
ARC
  8
0
 62
7
  6
CONTINUOUS
 10
82.7680238057
 20
104.1796860494
 40
0.9999992749
 50
270.0000018131
 51
358.75
  0
ARC
  8
0
 62
7
  6
CONTINUOUS
 10
79.5543851598
 20
104.0296868118
 40
0.8499997123
 50
181.4999536183
 51
269.9999796011
  0
ARC
  8
0
 62
7
  6
CONTINUOUS
 10
76.119140625
 20
106.1796874996
 40
1.0
 50
90.0
 51
180.0
  0
ARC
  8
0
 62
7
  6
CONTINUOUS
 10
77.6474512506
 20
106.1796872582
 40
1.0
 50
1.5000138404
 51
90.0000003623
  0
ARC
  8
0
 62
7
  6
CONTINUOUS
 10
98.6761411982
 20
106.1796874996
 40
1.0
 50
1.25
 51
90.0
  0
ARC
  8
0
 62
7
  6
CONTINUOUS
 10
84.8121400429
 20
106.1796874996
 40
0.9999999992
 50
89.999999494
 51
178.749999989
  0
ARC
  8
0
 62
7
  6
CONTINUOUS
 10
89.2621400185
 20
106.1796874996
 40
0.999999997
 50
89.9999980931
 51
178.7499999584
  0
ARC
  8
0
 62
7
  6
CONTINUOUS
 10
124.0761412003
 20
106.1796874065
 40
1.0
 50
1.2500053387
 51
90.0000001165
  0
ARC
  8
0
 62
7
  6
CONTINUOUS
 10
103.1261411982
 20
106.1796874996
 40
1.0
 50
1.25
 51
90.0
  0
ARC
  8
0
 62
7
  6
CONTINUOUS
 10
110.2121400429
 20
106.1796874996
 40
0.9999999992
 50
89.999999494
 51
178.749999989
  0
ARC
  8
0
 62
7
  6
CONTINUOUS
 10
114.6621400185
 20
106.1796874996
 40
0.999999997
 50
89.9999980931
 51
178.7499999584
  0
ARC
  8
0
 62
7
  6
CONTINUOUS
 10
175.319140625
 20
84.1796874996
 40
1.0
 50
270.0
 51
360.0
  0
ARC
  8
0
 62
7
  6
CONTINUOUS
 10
164.9820983472
 20
84.1796876436
 40
1.0
 50
178.7500082508
 51
269.99999982
  0
ARC
  8
0
 62
7
  6
CONTINUOUS
 10
149.9561829059
 20
84.1796874996
 40
1.0
 50
270.0
 51
1.25
  0
ARC
  8
0
 62
7
  6
CONTINUOUS
 10
139.5820983472
 20
84.1796876436
 40
1.0
 50
178.7500082508
 51
269.99999982
  0
ARC
  8
0
 62
7
  6
CONTINUOUS
 10
175.319140625
 20
106.1796874996
 40
1.0
 50
0.0
 51
90.0
  0
ARC
  8
0
 62
7
  6
CONTINUOUS
 10
153.9261411711
 20
106.1796874996
 40
1.0
 50
1.2499999661
 51
89.9999984471
  0
ARC
  8
0
 62
7
  6
CONTINUOUS
 10
149.4761412003
 20
106.1796874065
 40
1.0
 50
1.2500053387
 51
90.0000001165
  0
ARC
  8
0
 62
7
  6
CONTINUOUS
 10
128.5261411711
 20
106.1796874996
 40
1.0
 50
1.2499999661
 51
89.9999984471
  0
ARC
  8
0
 62
7
  6
CONTINUOUS
 10
161.0121400429
 20
106.1796874996
 40
0.9999999992
 50
89.999999494
 51
178.749999989
  0
ARC
  8
0
 62
7
  6
CONTINUOUS
 10
135.6121400429
 20
106.1796874996
 40
0.9999999992
 50
89.999999494
 51
178.749999989
  0
ARC
  8
0
 62
7
  6
CONTINUOUS
 10
165.4621400185
 20
106.1796874996
 40
0.999999997
 50
89.9999980931
 51
178.7499999584
  0
ARC
  8
0
 62
7
  6
CONTINUOUS
 10
140.0621400185
 20
106.1796874996
 40
0.999999997
 50
89.9999980931
 51
178.7499999584
  0
ENDSEC
  0
EOF
