  0
SECTION
  2
HEADER
  9
$EXTMAX
 10
420.0
 20
297.0
 30
0.0
  9
$EXTMIN
 10
0.0
 20
0.0
 30
0.0
  9
$LIMMIN
 10
0.0
 20
0.0
  9
$LIMMAX
 10
420.0
 20
297.0
  9
$VIEWCTR
 10
210.0
 20
148.5
  9
$VIEWSIZE
 40
297.0
  9
$CLAYER
  8
0
  9
$LTSCALE
 40
23.1
  9
$CELTYPE
  6
BYLAYER
  9
$DIMSCALE
 40
1.0
  9
$DIMASZ
 40
3.5
  9
$DIMEXO
 40
1.0
  9
$DIMDLI
 40
15.96
  9
$DIMEXE
 40
2.0
  9
$DIMCEN
 40
3.78
  9
$DIMLFAC
 40
1.0
  9
$DIMBLK
  1
_FILLED
  9
$DIMTXT
 40
3.5
  9
$PDMODE
 70
3
  9
$PDSIZE
 40
0.3125
  9
$TILEMODE
 70
1
  0
ENDSEC
  0
SECTION
  2
TABLES
  0
TABLE
  2
LTYPE
 70
6
  0
LTYPE
  2
BYBLOCK
 70
0
  3

 72
65
 73
0
 40
0.0
  0
LTYPE
  2
BYLAYER
 70
0
  3

 72
65
 73
0
 40
0.0
  0
LTYPE
  2
CONTINUOUS
 70
64
  3
Solid line
 72
65
 73
0
 40
0.0
  0
LTYPE
  2
CENTER
 70
64
  3
____ _ ____ _ ____ _ ____ _ ____ _ ____ _ ____
 72
65
 73
4
 40
0.6
 49
0.375
 49
-0.075
 49
0.075
 49
-0.075
  0
LTYPE
  2
HIDDEN
 70
64
  3
- - - - - - - - - - - - - - - - - - - -
 72
65
 73
2
 40
0.2
 49
0.1
 49
-0.1
  0
LTYPE
  2
PHANTOM
 70
64
  3
_____ _ _ _____ _ _ _____ _ _ _____
 72
65
 73
6
 40
0.8
 49
0.45
 49
-0.05
 49
0.1
 49
-0.05
 49
0.1
 49
-0.05
  0
LTYPE
  2
DOT
 70
64
  3
. . . . . . . . . . . . . . . . . . . .
 72
65
 73
2
 40
0.2
 49
0.1
 49
-0.1
  0
LTYPE
  2
DASHED
 70
64
  3
- - - - - - - - - - - - - - - - - - - -
 72
65
 73
2
 40
0.2
 49
0.1
 49
-0.1
  0
ENDTAB
  0
TABLE
  2
LAYER
 70
36
  0
LAYER
  2
0
 70
0
 62
7
  6
CONTINUOUS
  0
LAYER
  2
DEFAULT_1
 70
0
 62
7
  6
CENTER
  0
LAYER
  2
DEFAULT_2
 70
0
 62
8
  6
HIDDEN
  0
LAYER
  2
DEFAULT_3
 70
0
 62
7
  6
PHANTOM
  0
LAYER
  2
CURVE
 70
0
 62
7
  6
CONTINUOUS
  0
LAYER
  2
PLANE
 70
0
 62
7
  6
CONTINUOUS
  0
LAYER
  2
SURF
 70
0
 62
7
  6
CONTINUOUS
  0
LAYER
  2
SURFACE
 70
0
 62
7
  6
CONTINUOUS
  0
ENDTAB
  0
TABLE
  2
STYLE
 70
1
  0
STYLE
  2
STANDARD
 70
0
 40
0.0
 41
0.8
 50
0.0
 71
0
 42
0.2
  3
txt
  4

  0
STYLE
  2
TEXTSTYLE_1
 70
0
 40
0.0
 41
0.8
 50
0.0
 71
0
 42
0.2
  3
gdt
  4

  0
STYLE
  2
TEXTSTYLE_2
 70
0
 40
0.0
 41
0.6
 50
0.0
 71
0
 42
0.2
  3
txt
  4

  0
STYLE
  2
TEXTSTYLE_3
 70
0
 40
0.0
 41
1.0
 50
0.0
 71
0
 42
0.2
  3
ftb_____.ttf
  4

  0
STYLE
  2
TEXTSTYLE_4
 70
0
 40
0.0
 41
1.0
 50
0.0
 71
0
 42
0.2
  3
fti_____.ttf
  4

  0
STYLE
  2
TEXTSTYLE_5
 70
0
 40
0.0
 41
1.0
 50
0.0
 71
0
 42
0.2
  3
frutiger light.ttf
  4

  0
STYLE
  2
TEXTSTYLE_6
 70
0
 40
0.0
 41
0.7
 50
0.0
 71
0
 42
0.2
  3
txt
  4

  0
STYLE
  2
TEXTSTYLE_7
 70
0
 40
0.0
 41
0.45
 50
0.0
 71
0
 42
0.2
  3
txt
  4

  0
ENDTAB
  0
ENDSEC
  0
SECTION
  2
BLOCKS
  0
BLOCK
  8
0
 62
2
  6
CONTINUOUS
  2
SYMBOL_5_BL1
 70
64
 10
382.7840918555
 20
35.5067593403
  0
TEXT
  8
0
 62
7
  6
CONTINUOUS
 10
373.842376864
 20
30.5995157174
  7
TEXTSTYLE_4
 40
1.0655737705
  1
The brand for plastic modular belts and chains
 41
1.0
 72
0
  0
LINE
  8
0
 62
7
  6
CONTINUOUS
 10
358.7621602445
 20
36.0805298321
 11
358.7621602445
 21
33.9493822911
  0
LINE
  8
0
 62
7
  6
CONTINUOUS
 10
359.0512227376
 20
30.9584509954
 11
359.0512227376
 21
31.0552420547
  0
LINE
  8
0
 62
7
  6
CONTINUOUS
 10
358.7621602445
 20
31.0229783683
 11
358.8199727462
 21
30.8293962497
  0
LINE
  8
0
 62
7
  6
CONTINUOUS
 10
360.1556028675
 20
33.867415078
 11
360.1556028675
 21
36.0805298321
  0
LINE
  8
0
 62
7
  6
CONTINUOUS
 10
361.0746601894
 20
32.0231527829
 11
361.0746601894
 21
30.5067593403
  0
LINE
  8
0
 62
7
  6
CONTINUOUS
 10
361.3637227445
 20
30.5067593403
 11
361.3637227445
 21
31.2488242184
  0
LINE
  8
0
 62
7
  6
CONTINUOUS
 10
361.3637227445
 20
31.3778789641
 11
361.3637227445
 21
32.0231527829
  0
LINE
  8
0
 62
7
  6
CONTINUOUS
 10
358.8199727462
 20
31.216560532
 11
358.7621602445
 21
31.0229783683
  0
LINE
  8
0
 62
7
  6
CONTINUOUS
 10
359.1668477307
 20
30.7971325633
 11
359.0512227376
 21
30.9584509954
  0
LINE
  8
0
 62
7
  6
CONTINUOUS
 10
360.2652852997
 20
31.3133515913
 11
360.3230977445
 21
31.216560532
  0
LINE
  8
0
 62
7
  6
CONTINUOUS
 10
360.6121602997
 20
31.216560532
 11
360.5543476894
 21
31.3456152777
  0
LINE
  8
0
 62
7
  6
CONTINUOUS
 10
362.0408487691
 20
36.0805298321
 11
362.0408487691
 21
34.2772511436
  0
LINE
  8
0
 62
7
  6
CONTINUOUS
 10
362.0408487691
 20
32.9657757338
 11
362.0408487691
 21
32.3100380288
  0
LINE
  8
0
 62
7
  6
CONTINUOUS
 10
362.4043477445
 20
31.1520331591
 11
362.4043477445
 21
30.5067593403
  0
LINE
  8
0
 62
7
  6
CONTINUOUS
 10
362.6934101343
 20
30.5067593403
 11
362.6934101343
 21
31.1520331591
  0
LINE
  8
0
 62
7
  6
CONTINUOUS
 10
359.0512227376
 20
31.0552420547
 11
359.1090352445
 21
31.1842968456
  0
LINE
  8
0
 62
7
  6
CONTINUOUS
 10
358.8199727462
 20
30.8293962497
 11
358.9355977445
 21
30.7003414814
  0
LINE
  8
0
 62
7
  6
CONTINUOUS
 10
362.3465351343
 20
31.2810879048
 11
362.4043477445
 21
31.1520331591
  0
LINE
  8
0
 62
7
  6
CONTINUOUS
 10
363.1559103548
 20
30.7971325633
 11
363.2137226343
 21
30.668077795
  0
LINE
  8
0
 62
7
  6
CONTINUOUS
 10
362.6934101343
 20
31.1520331591
 11
362.6355978548
 21
31.3133515913
  0
LINE
  8
0
 62
7
  6
CONTINUOUS
 10
363.1559103548
 20
31.3456152777
 11
363.1559103548
 21
31.2810879048
  0
LINE
  8
0
 62
7
  6
CONTINUOUS
 10
363.1559103548
 20
30.8939236226
 11
363.1559103548
 21
30.7971325633
  0
LINE
  8
0
 62
7
  6
CONTINUOUS
 10
363.4342913921
 20
32.3100380288
 11
363.4342913921
 21
36.0805298321
  0
LINE
  8
0
 62
7
  6
CONTINUOUS
 10
363.4449727445
 20
30.7648688543
 11
363.4449727445
 21
30.8293962497
  0
LINE
  8
0
 62
7
  6
CONTINUOUS
 10
363.7621602445
 20
36.0805298321
 11
363.7621602445
 21
32.3100380288
  0
LINE
  8
0
 62
7
  6
CONTINUOUS
 10
360.5543476894
 20
30.7003414814
 11
360.6121602997
 21
30.8293962497
  0
LINE
  8
0
 62
7
  6
CONTINUOUS
 10
364.9480979651
 20
30.6035504109
 11
364.890285024
 21
30.7648688543
  0
LINE
  8
0
 62
7
  6
CONTINUOUS
 10
364.6012229651
 20
31.2810879048
 11
364.6012229651
 21
31.1842968456
  0
LINE
  8
0
 62
7
  6
CONTINUOUS
 10
364.6012229651
 20
31.0552420547
 11
364.6012229651
 21
30.8616599362
  0
LINE
  8
0
 62
7
  6
CONTINUOUS
 10
364.890285024
 20
30.7648688543
 11
364.890285024
 21
31.2810879048
  0
LINE
  8
0
 62
7
  6
CONTINUOUS
 10
365.1556028675
 20
32.3100380288
 11
365.1556028675
 21
34.1133167174
  0
LINE
  8
0
 62
7
  6
CONTINUOUS
 10
365.1556028675
 20
35.4247921272
 11
365.1556028675
 21
36.0805298321
  0
LINE
  8
0
 62
7
  6
CONTINUOUS
 10
365.4684104651
 20
32.0231527829
 11
365.4684104651
 21
31.8618343508
  0
LINE
  8
0
 62
7
  6
CONTINUOUS
 10
365.4684104651
 20
31.5391973962
 11
365.4684104651
 21
30.5067593403
  0
LINE
  8
0
 62
7
  6
CONTINUOUS
 10
365.757472524
 20
30.5067593403
 11
365.757472524
 21
31.5391973962
  0
LINE
  8
0
 62
7
  6
CONTINUOUS
 10
365.757472524
 20
31.8618343508
 11
365.757472524
 21
32.0231527829
  0
LINE
  8
0
 62
7
  6
CONTINUOUS
 10
360.3230977445
 20
30.8293962497
 11
360.2652852997
 21
30.7326051679
  0
LINE
  8
0
 62
7
  6
CONTINUOUS
 10
362.6355978548
 20
31.3133515913
 11
362.5777852445
 21
31.3778789641
  0
LINE
  8
0
 62
7
  6
CONTINUOUS
 10
363.5027853548
 20
30.7003414814
 11
363.4449727445
 21
30.7648688543
  0
LINE
  8
0
 62
7
  6
CONTINUOUS
 10
364.6590352445
 20
30.5712867188
 11
364.716847524
 21
30.5067593403
  0
LINE
  8
0
 62
7
  6
CONTINUOUS
 10
364.6012229651
 20
30.668077795
 11
364.6590352445
 21
30.5712867188
  0
LINE
  8
0
 62
7
  6
CONTINUOUS
 10
365.0059102445
 20
30.5067593403
 11
364.9480979651
 21
30.6035504109
  0
LINE
  8
0
 62
7
  6
CONTINUOUS
 10
364.890285024
 20
31.2810879048
 11
364.8324727445
 21
31.3778789641
  0
LINE
  8
0
 62
7
  6
CONTINUOUS
 10
366.2199727445
 20
31.5391973962
 11
366.2199727445
 21
30.5067593403
  0
LINE
  8
0
 62
7
  6
CONTINUOUS
 10
366.5090354651
 20
30.5067593403
 11
366.5090354651
 21
31.2488242184
  0
LINE
  8
0
 62
7
  6
CONTINUOUS
 10
366.5090354651
 20
31.3778789641
 11
366.5090354651
 21
31.5391973962
  0
LINE
  8
0
 62
7
  6
CONTINUOUS
 10
367.0408487691
 20
34.5231527829
 11
367.0408487691
 21
32.3100380288
  0
LINE
  8
0
 62
7
  6
CONTINUOUS
 10
358.9355977445
 20
31.3456152777
 11
358.8199727462
 21
31.216560532
  0
LINE
  8
0
 62
7
  6
CONTINUOUS
 10
359.1090352445
 20
31.1842968456
 11
359.1668477307
 21
31.2488242184
  0
LINE
  8
0
 62
7
  6
CONTINUOUS
 10
358.9355977445
 20
30.7003414814
 11
359.0512227376
 21
30.6358140973
  0
LINE
  8
0
 62
7
  6
CONTINUOUS
 10
359.3402852307
 20
30.7003414814
 11
359.1668477307
 21
30.7971325633
  0
LINE
  8
0
 62
7
  6
CONTINUOUS
 10
364.543410024
 20
31.3456152777
 11
364.6012229651
 21
31.2810879048
  0
LINE
  8
0
 62
7
  6
CONTINUOUS
 10
367.491847524
 20
31.2810879048
 11
367.5496604651
 21
31.1197694727
  0
LINE
  8
0
 62
7
  6
CONTINUOUS
 10
367.838722524
 20
31.1197694727
 11
367.7809102445
 21
31.2810879048
  0
LINE
  8
0
 62
7
  6
CONTINUOUS
 10
367.5496604651
 20
31.1197694727
 11
367.5496604651
 21
30.5067593403
  0
LINE
  8
0
 62
7
  6
CONTINUOUS
 10
367.838722524
 20
30.5067593403
 11
367.838722524
 21
31.1197694727
  0
LINE
  8
0
 62
7
  6
CONTINUOUS
 10
368.3012227445
 20
31.3456152777
 11
368.3012227445
 21
31.2810879048
  0
LINE
  8
0
 62
7
  6
CONTINUOUS
 10
368.4342913921
 20
32.3100380288
 11
368.4342913921
 21
34.4411855698
  0
LINE
  8
0
 62
7
  6
CONTINUOUS
 10
368.7621602445
 20
36.0805298321
 11
368.7621602445
 21
32.3100380288
  0
LINE
  8
0
 62
7
  6
CONTINUOUS
 10
363.4449727445
 20
30.8293962497
 11
363.5027853548
 21
30.926187309
  0
LINE
  8
0
 62
7
  6
CONTINUOUS
 10
359.0512227376
 20
30.6358140973
 11
359.2246602583
 21
30.5712867188
  0
LINE
  8
0
 62
7
  6
CONTINUOUS
 10
360.5543476894
 20
31.3456152777
 11
360.3809101894
 21
31.4424063369
  0
LINE
  8
0
 62
7
  6
CONTINUOUS
 10
363.2137226343
 20
30.668077795
 11
363.3871601343
 21
30.5712867188
  0
LINE
  8
0
 62
7
  6
CONTINUOUS
 10
362.2309102445
 20
31.3456152777
 11
362.3465351343
 21
31.2810879048
  0
LINE
  8
0
 62
7
  6
CONTINUOUS
 10
362.5777852445
 20
31.3778789641
 11
362.4621603548
 21
31.4424063369
  0
LINE
  8
0
 62
7
  6
CONTINUOUS
 10
368.3012227445
 20
30.7648688543
 11
368.4168479651
 21
30.6358140973
  0
LINE
  8
0
 62
7
  6
CONTINUOUS
 10
368.6480977445
 20
30.7003414814
 11
368.5902854651
 21
30.7648688543
  0
LINE
  8
0
 62
7
  6
CONTINUOUS
 10
368.3012227445
 20
31.2810879048
 11
368.4168479651
 21
31.1520331591
  0
LINE
  8
0
 62
7
  6
CONTINUOUS
 10
367.7809102445
 20
31.2810879048
 11
367.7230979651
 21
31.3778789641
  0
LINE
  8
0
 62
7
  6
CONTINUOUS
 10
370.1512223035
 20
30.7003414814
 11
370.1512223035
 21
30.7648688543
  0
LINE
  8
0
 62
7
  6
CONTINUOUS
 10
370.1556028675
 20
32.3100380288
 11
370.1556028675
 21
36.0805298321
  0
LINE
  8
0
 62
7
  6
CONTINUOUS
 10
363.2137226343
 20
31.4101426505
 11
363.1559103548
 21
31.3456152777
  0
LINE
  8
0
 62
7
  6
CONTINUOUS
 10
360.091847717
 20
31.3778789641
 11
360.2652852997
 21
31.3133515913
  0
LINE
  8
0
 62
7
  6
CONTINUOUS
 10
364.8324727445
 20
31.3778789641
 11
364.716847524
 21
31.4424063369
  0
LINE
  8
0
 62
7
  6
CONTINUOUS
 10
368.6480977445
 20
31.216560532
 11
368.5902854651
 21
31.2810879048
  0
LINE
  8
0
 62
7
  6
CONTINUOUS
 10
369.8043479651
 20
30.8293962497
 11
369.8621602445
 21
30.7648688543
  0
LINE
  8
0
 62
7
  6
CONTINUOUS
 10
370.1512223035
 20
30.7648688543
 11
370.0355977445
 21
30.8939236226
  0
LINE
  8
0
 62
7
  6
CONTINUOUS
 10
369.8043479651
 20
31.3456152777
 11
369.8621602445
 21
31.2810879048
  0
LINE
  8
0
 62
7
  6
CONTINUOUS
 10
370.1512223035
 20
31.2810879048
 11
370.0355977445
 21
31.4101426505
  0
LINE
  8
0
 62
7
  6
CONTINUOUS
 10
363.4449727445
 20
31.2810879048
 11
363.5027853548
 21
31.3456152777
  0
LINE
  8
0
 62
7
  6
CONTINUOUS
 10
363.2715352445
 20
31.0229783683
 11
363.1559103548
 21
30.8939236226
  0
LINE
  8
0
 62
7
  6
CONTINUOUS
 10
364.6012229651
 20
30.8616599362
 11
364.543410024
 21
30.7971325633
  0
LINE
  8
0
 62
7
  6
CONTINUOUS
 10
364.543410024
 20
30.6035504109
 11
364.6012229651
 21
30.668077795
  0
LINE
  8
0
 62
7
  6
CONTINUOUS
 10
363.3871601343
 20
30.5712867188
 11
363.5027853548
 21
30.5390230296
  0
LINE
  8
0
 62
7
  6
CONTINUOUS
 10
360.3809101894
 20
31.4424063369
 11
360.1496602445
 21
31.5069337098
  0
LINE
  8
0
 62
7
  6
CONTINUOUS
 10
363.7340351343
 20
30.6358140973
 11
363.5027853548
 21
30.7003414814
  0
LINE
  8
0
 62
7
  6
CONTINUOUS
 10
362.4621603548
 20
31.4424063369
 11
362.2887228548
 21
31.5069337098
  0
LINE
  8
0
 62
7
  6
CONTINUOUS
 10
364.716847524
 20
31.4424063369
 11
364.543410024
 21
31.5069337098
  0
LINE
  8
0
 62
7
  6
CONTINUOUS
 10
367.3762229651
 20
31.3456152777
 11
367.491847524
 21
31.2810879048
  0
LINE
  8
0
 62
7
  6
CONTINUOUS
 10
367.7230979651
 20
31.3778789641
 11
367.6074727445
 21
31.4424063369
  0
LINE
  8
0
 62
7
  6
CONTINUOUS
 10
359.2246602583
 20
30.5712867188
 11
359.3980977583
 21
30.5390230296
  0
LINE
  8
0
 62
7
  6
CONTINUOUS
 10
359.6871602721
 20
30.6358140973
 11
359.3402852307
 21
30.7003414814
  0
LINE
  8
0
 62
7
  6
CONTINUOUS
 10
362.1152853548
 20
31.3778789641
 11
362.2309102445
 21
31.3456152777
  0
LINE
  8
0
 62
7
  6
CONTINUOUS
 10
364.4277854651
 20
31.3778789641
 11
364.543410024
 21
31.3456152777
  0
LINE
  8
0
 62
7
  6
CONTINUOUS
 10
368.7637229651
 20
30.668077795
 11
368.6480977445
 21
30.7003414814
  0
LINE
  8
0
 62
7
  6
CONTINUOUS
 10
367.2605977445
 20
31.3778789641
 11
367.3762229651
 21
31.3456152777
  0
LINE
  8
0
 62
7
  6
CONTINUOUS
 10
368.4168479651
 20
30.6358140973
 11
368.5902854651
 21
30.5712867188
  0
LINE
  8
0
 62
7
  6
CONTINUOUS
 10
367.6074727445
 20
31.4424063369
 11
367.4340352445
 21
31.5069337098
  0
LINE
  8
0
 62
7
  6
CONTINUOUS
 10
368.8215352445
 20
31.1520331591
 11
368.6480977445
 21
31.216560532
  0
LINE
  8
0
 62
7
  6
CONTINUOUS
 10
369.6309104651
 20
30.8939236226
 11
369.8043479651
 21
30.8293962497
  0
LINE
  8
0
 62
7
  6
CONTINUOUS
 10
370.0355977445
 20
31.4101426505
 11
369.8621602445
 21
31.4746700234
  0
LINE
  8
0
 62
7
  6
CONTINUOUS
 10
368.4168479651
 20
31.1520331591
 11
368.6480977445
 21
31.0552420547
  0
LINE
  8
0
 62
7
  6
CONTINUOUS
 10
370.0355977445
 20
30.8939236226
 11
369.8043479651
 21
30.9907146818
  0
LINE
  8
0
 62
7
  6
CONTINUOUS
 10
368.5902854651
 20
31.2810879048
 11
368.6480977445
 21
31.3456152777
  0
LINE
  8
0
 62
7
  6
CONTINUOUS
 10
359.0512227376
 20
31.4101426505
 11
358.9355977445
 21
31.3456152777
  0
LINE
  8
0
 62
7
  6
CONTINUOUS
 10
359.1668477307
 20
31.2488242184
 11
359.3402852307
 21
31.3456152777
  0
LINE
  8
0
 62
7
  6
CONTINUOUS
 10
361.4793477997
 20
31.4424063369
 11
361.3637227445
 21
31.3778789641
  0
LINE
  8
0
 62
7
  6
CONTINUOUS
 10
361.3637227445
 20
31.2488242184
 11
361.4793477997
 21
31.3133515913
  0
LINE
  8
0
 62
7
  6
CONTINUOUS
 10
360.3809101894
 20
30.6035504109
 11
360.5543476894
 21
30.7003414814
  0
LINE
  8
0
 62
7
  6
CONTINUOUS
 10
359.3980977583
 20
30.5390230296
 11
359.744972717
 21
30.5067593403
  0
LINE
  8
0
 62
7
  6
CONTINUOUS
 10
363.5027853548
 20
30.5390230296
 11
363.7340351343
 21
30.5067593403
  0
LINE
  8
0
 62
7
  6
CONTINUOUS
 10
361.8840352445
 20
31.4101426505
 11
362.1152853548
 21
31.3778789641
  0
LINE
  8
0
 62
7
  6
CONTINUOUS
 10
364.1965353548
 20
31.4101426505
 11
364.4277854651
 21
31.3778789641
  0
LINE
  8
0
 62
7
  6
CONTINUOUS
 10
368.6480977445
 20
31.0552420547
 11
369.6309104651
 21
30.8939236226
  0
LINE
  8
0
 62
7
  6
CONTINUOUS
 10
369.8043479651
 20
30.9907146818
 11
368.8215352445
 21
31.1520331591
  0
LINE
  8
0
 62
7
  6
CONTINUOUS
 10
362.2887228548
 20
31.5069337098
 11
362.1152853548
 21
31.5391973962
  0
LINE
  8
0
 62
7
  6
CONTINUOUS
 10
368.5902854651
 20
30.5712867188
 11
368.7637229651
 21
30.5390230296
  0
LINE
  8
0
 62
7
  6
CONTINUOUS
 10
367.4340352445
 20
31.5069337098
 11
367.2605977445
 21
31.5391973962
  0
LINE
  8
0
 62
7
  6
CONTINUOUS
 10
369.6887227445
 20
31.3778789641
 11
369.8043479651
 21
31.3456152777
  0
LINE
  8
0
 62
7
  6
CONTINUOUS
 10
369.8621602445
 20
30.7648688543
 11
369.8043479651
 21
30.7003414814
  0
LINE
  8
0
 62
7
  6
CONTINUOUS
 10
368.4168479651
 20
31.4424063369
 11
368.3012227445
 21
31.3456152777
  0
LINE
  8
0
 62
7
  6
CONTINUOUS
 10
363.3293478548
 20
31.4746700234
 11
363.2137226343
 21
31.4101426505
  0
LINE
  8
0
 62
7
  6
CONTINUOUS
 10
363.3871601343
 20
31.0875057863
 11
363.2715352445
 21
31.0229783683
  0
LINE
  8
0
 62
7
  6
CONTINUOUS
 10
363.5027853548
 20
30.926187309
 11
363.6184102445
 21
30.9907146818
  0
LINE
  8
0
 62
7
  6
CONTINUOUS
 10
361.0746601894
 20
30.5067593403
 11
361.3637227445
 21
30.5067593403
  0
LINE
  8
0
 62
7
  6
CONTINUOUS
 10
362.4043477445
 20
30.5067593403
 11
362.6934101343
 21
30.5067593403
  0
LINE
  8
0
 62
7
  6
CONTINUOUS
 10
363.7340351343
 20
30.5067593403
 11
364.0809101343
 21
30.5067593403
  0
LINE
  8
0
 62
7
  6
CONTINUOUS
 10
364.716847524
 20
30.5067593403
 11
365.0059102445
 21
30.5067593403
  0
LINE
  8
0
 62
7
  6
CONTINUOUS
 10
365.4684104651
 20
30.5067593403
 11
365.757472524
 21
30.5067593403
  0
LINE
  8
0
 62
7
  6
CONTINUOUS
 10
366.2199727445
 20
30.5067593403
 11
366.5090354651
 21
30.5067593403
  0
LINE
  8
0
 62
7
  6
CONTINUOUS
 10
367.5496604651
 20
30.5067593403
 11
367.838722524
 21
30.5067593403
  0
LINE
  8
0
 62
7
  6
CONTINUOUS
 10
369.1105979651
 20
30.5067593403
 11
369.4574729651
 21
30.5067593403
  0
LINE
  8
0
 62
7
  6
CONTINUOUS
 10
369.4574729651
 20
30.6358140973
 11
369.1105979651
 21
30.6358140973
  0
LINE
  8
0
 62
7
  6
CONTINUOUS
 10
364.0809101343
 20
30.6358140973
 11
363.7340351343
 21
30.6358140973
  0
LINE
  8
0
 62
7
  6
CONTINUOUS
 10
368.5902854651
 20
30.7648688543
 11
368.3012227445
 21
30.7648688543
  0
LINE
  8
0
 62
7
  6
CONTINUOUS
 10
360.6121602997
 20
30.8293962497
 11
360.3230977445
 21
30.8293962497
  0
LINE
  8
0
 62
7
  6
CONTINUOUS
 10
359.6871602721
 20
31.4101426505
 11
360.091847717
 21
31.3778789641
  0
LINE
  8
0
 62
7
  6
CONTINUOUS
 10
360.1496602445
 20
31.5069337098
 11
359.744972717
 21
31.5391973962
  0
LINE
  8
0
 62
7
  6
CONTINUOUS
 10
368.7637229651
 20
30.5390230296
 11
369.1105979651
 21
30.5067593403
  0
LINE
  8
0
 62
7
  6
CONTINUOUS
 10
369.1105979651
 20
30.6358140973
 11
368.7637229651
 21
30.668077795
  0
LINE
  8
0
 62
7
  6
CONTINUOUS
 10
364.543410024
 20
31.5069337098
 11
364.1965353548
 21
31.5391973962
  0
LINE
  8
0
 62
7
  6
CONTINUOUS
 10
369.3418477445
 20
31.4101426505
 11
369.6887227445
 21
31.3778789641
  0
LINE
  8
0
 62
7
  6
CONTINUOUS
 10
369.6887227445
 20
31.5069337098
 11
369.3418477445
 21
31.5391973962
  0
LINE
  8
0
 62
7
  6
CONTINUOUS
 10
367.0293479651
 20
31.4101426505
 11
367.2605977445
 21
31.3778789641
  0
LINE
  8
0
 62
7
  6
CONTINUOUS
 10
369.8621602445
 20
31.4746700234
 11
369.6887227445
 21
31.5069337098
  0
LINE
  8
0
 62
7
  6
CONTINUOUS
 10
370.0355977445
 20
30.6035504109
 11
370.1512223035
 21
30.7003414814
  0
LINE
  8
0
 62
7
  6
CONTINUOUS
 10
364.543410024
 20
30.7971325633
 11
364.369972524
 21
30.7003414814
  0
LINE
  8
0
 62
7
  6
CONTINUOUS
 10
366.624660024
 20
31.4424063369
 11
366.5090354651
 21
31.3778789641
  0
LINE
  8
0
 62
7
  6
CONTINUOUS
 10
366.5090354651
 20
31.2488242184
 11
366.624660024
 21
31.3133515913
  0
LINE
  8
0
 62
7
  6
CONTINUOUS
 10
359.2246602583
 20
31.4746700234
 11
359.0512227376
 21
31.4101426505
  0
LINE
  8
0
 62
7
  6
CONTINUOUS
 10
361.6527851343
 20
31.5069337098
 11
361.4793477997
 21
31.4424063369
  0
LINE
  8
0
 62
7
  6
CONTINUOUS
 10
361.4793477997
 20
31.3133515913
 11
361.6527851343
 21
31.3778789641
  0
LINE
  8
0
 62
7
  6
CONTINUOUS
 10
360.2652852997
 20
30.7326051679
 11
360.091847717
 21
30.668077795
  0
LINE
  8
0
 62
7
  6
CONTINUOUS
 10
369.6887227445
 20
30.668077795
 11
369.4574729651
 21
30.6358140973
  0
LINE
  8
0
 62
7
  6
CONTINUOUS
 10
364.0809101343
 20
30.5067593403
 11
364.369972524
 21
30.5390230296
  0
LINE
  8
0
 62
7
  6
CONTINUOUS
 10
369.4574729651
 20
30.5067593403
 11
369.8043479651
 21
30.5390230296
  0
LINE
  8
0
 62
7
  6
CONTINUOUS
 10
359.744972717
 20
30.5067593403
 11
360.1496602445
 21
30.5390230296
  0
LINE
  8
0
 62
7
  6
CONTINUOUS
 10
360.091847717
 20
30.668077795
 11
359.6871602721
 21
30.6358140973
  0
LINE
  8
0
 62
7
  6
CONTINUOUS
 10
363.9652852445
 20
31.0552420547
 11
364.6012229651
 21
31.0552420547
  0
LINE
  8
0
 62
7
  6
CONTINUOUS
 10
364.6012229651
 20
31.1842968456
 11
363.9652852445
 21
31.1842968456
  0
LINE
  8
0
 62
7
  6
CONTINUOUS
 10
360.3230977445
 20
31.216560532
 11
360.6121602997
 21
31.216560532
  0
LINE
  8
0
 62
7
  6
CONTINUOUS
 10
363.1559103548
 20
31.2810879048
 11
363.4449727445
 21
31.2810879048
  0
LINE
  8
0
 62
7
  6
CONTINUOUS
 10
369.8621602445
 20
31.2810879048
 11
370.1512223035
 21
31.2810879048
  0
LINE
  8
0
 62
7
  6
CONTINUOUS
 10
363.8496603548
 20
31.4101426505
 11
364.1965353548
 21
31.4101426505
  0
LINE
  8
0
 62
7
  6
CONTINUOUS
 10
368.9949727445
 20
31.4101426505
 11
369.3418477445
 21
31.4101426505
  0
LINE
  8
0
 62
7
  6
CONTINUOUS
 10
369.3418477445
 20
31.5391973962
 11
368.9949727445
 21
31.5391973962
  0
LINE
  8
0
 62
7
  6
CONTINUOUS
 10
367.2605977445
 20
31.5391973962
 11
367.0293479651
 21
31.5391973962
  0
LINE
  8
0
 62
7
  6
CONTINUOUS
 10
366.5090354651
 20
31.5391973962
 11
366.2199727445
 21
31.5391973962
  0
LINE
  8
0
 62
7
  6
CONTINUOUS
 10
365.757472524
 20
31.5391973962
 11
365.4684104651
 21
31.5391973962
  0
LINE
  8
0
 62
7
  6
CONTINUOUS
 10
364.1965353548
 20
31.5391973962
 11
363.8496603548
 21
31.5391973962
  0
LINE
  8
0
 62
7
  6
CONTINUOUS
 10
362.1152853548
 20
31.5391973962
 11
361.8840352445
 21
31.5391973962
  0
LINE
  8
0
 62
7
  6
CONTINUOUS
 10
365.4684104651
 20
31.8618343508
 11
365.757472524
 21
31.8618343508
  0
LINE
  8
0
 62
7
  6
CONTINUOUS
 10
365.757472524
 20
32.0231527829
 11
365.4684104651
 21
32.0231527829
  0
LINE
  8
0
 62
7
  6
CONTINUOUS
 10
361.3637227445
 20
32.0231527829
 11
361.0746601894
 21
32.0231527829
  0
LINE
  8
0
 62
7
  6
CONTINUOUS
 10
360.4015045068
 20
32.3100380288
 11
360.8140758554
 21
32.3100380288
  0
LINE
  8
0
 62
7
  6
CONTINUOUS
 10
362.0408487691
 20
32.3100380288
 11
363.4342913921
 21
32.3100380288
  0
LINE
  8
0
 62
7
  6
CONTINUOUS
 10
363.7621602445
 20
32.3100380288
 11
365.1556028675
 21
32.3100380288
  0
LINE
  8
0
 62
7
  6
CONTINUOUS
 10
367.0408487691
 20
32.3100380288
 11
368.4342913921
 21
32.3100380288
  0
LINE
  8
0
 62
7
  6
CONTINUOUS
 10
368.7621602445
 20
32.3100380288
 11
370.1556028675
 21
32.3100380288
  0
LINE
  8
0
 62
7
  6
CONTINUOUS
 10
366.798097524
 20
31.5069337098
 11
366.624660024
 21
31.4424063369
  0
LINE
  8
0
 62
7
  6
CONTINUOUS
 10
364.369972524
 20
30.5390230296
 11
364.543410024
 21
30.6035504109
  0
LINE
  8
0
 62
7
  6
CONTINUOUS
 10
369.8043479651
 20
30.5390230296
 11
370.0355977445
 21
30.6035504109
  0
LINE
  8
0
 62
7
  6
CONTINUOUS
 10
369.8043479651
 20
30.7003414814
 11
369.6887227445
 21
30.668077795
  0
LINE
  8
0
 62
7
  6
CONTINUOUS
 10
368.7637229651
 20
31.3778789641
 11
368.9949727445
 21
31.4101426505
  0
LINE
  8
0
 62
7
  6
CONTINUOUS
 10
366.798097524
 20
31.3778789641
 11
367.0293479651
 21
31.4101426505
  0
LINE
  8
0
 62
7
  6
CONTINUOUS
 10
363.7340351343
 20
31.0229783683
 11
363.9652852445
 21
31.0552420547
  0
LINE
  8
0
 62
7
  6
CONTINUOUS
 10
367.0293479651
 20
31.5391973962
 11
366.798097524
 21
31.5069337098
  0
LINE
  8
0
 62
7
  6
CONTINUOUS
 10
363.6184102445
 20
31.3778789641
 11
363.8496603548
 21
31.4101426505
  0
LINE
  8
0
 62
7
  6
CONTINUOUS
 10
368.9949727445
 20
31.5391973962
 11
368.6480977445
 21
31.5069337098
  0
LINE
  8
0
 62
7
  6
CONTINUOUS
 10
363.9652852445
 20
31.1842968456
 11
363.6184102445
 21
31.1520331591
  0
LINE
  8
0
 62
7
  6
CONTINUOUS
 10
359.744972717
 20
31.5391973962
 11
359.3980977583
 21
31.5069337098
  0
LINE
  8
0
 62
7
  6
CONTINUOUS
 10
363.8496603548
 20
31.5391973962
 11
363.4449727445
 21
31.5069337098
  0
LINE
  8
0
 62
7
  6
CONTINUOUS
 10
361.221176638
 20
33.4575790124
 11
360.565438933
 21
33.4575790124
  0
LINE
  8
0
 62
7
  6
CONTINUOUS
 10
366.624660024
 20
31.3133515913
 11
366.798097524
 21
31.3778789641
  0
LINE
  8
0
 62
7
  6
CONTINUOUS
 10
368.6480977445
 20
31.3456152777
 11
368.7637229651
 21
31.3778789641
  0
LINE
  8
0
 62
7
  6
CONTINUOUS
 10
368.6480977445
 20
31.5069337098
 11
368.4168479651
 21
31.4424063369
  0
LINE
  8
0
 62
7
  6
CONTINUOUS
 10
364.369972524
 20
30.7003414814
 11
364.0809101343
 21
30.6358140973
  0
LINE
  8
0
 62
7
  6
CONTINUOUS
 10
361.6527851343
 20
31.3778789641
 11
361.8840352445
 21
31.4101426505
  0
LINE
  8
0
 62
7
  6
CONTINUOUS
 10
361.8840352445
 20
31.5391973962
 11
361.6527851343
 21
31.5069337098
  0
LINE
  8
0
 62
7
  6
CONTINUOUS
 10
359.4559102445
 20
31.3778789641
 11
359.6871602721
 21
31.4101426505
  0
LINE
  8
0
 62
7
  6
CONTINUOUS
 10
365.9752749986
 20
34.9329888485
 11
366.6310127035
 21
34.9329888485
  0
LINE
  8
0
 62
7
  6
CONTINUOUS
 10
363.6184102445
 20
30.9907146818
 11
363.7340351343
 21
31.0229783683
  0
LINE
  8
0
 62
7
  6
CONTINUOUS
 10
363.6184102445
 20
31.1520331591
 11
363.3871601343
 21
31.0875057863
  0
LINE
  8
0
 62
7
  6
CONTINUOUS
 10
363.5027853548
 20
31.3456152777
 11
363.6184102445
 21
31.3778789641
  0
LINE
  8
0
 62
7
  6
CONTINUOUS
 10
360.1496602445
 20
30.5390230296
 11
360.3809101894
 21
30.6035504109
  0
LINE
  8
0
 62
7
  6
CONTINUOUS
 10
363.4449727445
 20
31.5069337098
 11
363.3293478548
 21
31.4746700234
  0
LINE
  8
0
 62
7
  6
CONTINUOUS
 10
359.3980977583
 20
31.5069337098
 11
359.2246602583
 21
31.4746700234
  0
LINE
  8
0
 62
7
  6
CONTINUOUS
 10
370.1556028675
 20
36.0805298321
 11
368.7621602445
 21
36.0805298321
  0
LINE
  8
0
 62
7
  6
CONTINUOUS
 10
366.7949471298
 20
36.0805298321
 11
366.3823757812
 21
36.0805298321
  0
LINE
  8
0
 62
7
  6
CONTINUOUS
 10
365.1556028675
 20
36.0805298321
 11
363.7621602445
 21
36.0805298321
  0
LINE
  8
0
 62
7
  6
CONTINUOUS
 10
363.4342913921
 20
36.0805298321
 11
362.0408487691
 21
36.0805298321
  0
LINE
  8
0
 62
7
  6
CONTINUOUS
 10
360.1556028675
 20
36.0805298321
 11
358.7621602445
 21
36.0805298321
  0
LINE
  8
0
 62
7
  6
CONTINUOUS
 10
359.3402852307
 20
31.3456152777
 11
359.4559102445
 21
31.3778789641
  0
CIRCLE
  8
0
 62
7
  6
CONTINUOUS
 10
369.458881556
 20
38.4165954059
 40
2.0901639344
  0
ARC
  8
0
 62
7
  6
CONTINUOUS
 10
360.4015045068
 20
33.9493822911
 40
1.6393442623
 50
180.0
 51
270.0
  0
ARC
  8
0
 62
7
  6
CONTINUOUS
 10
366.7949471298
 20
34.4411855698
 40
1.6393442623
 50
0.0
 51
90.0
  0
ARC
  8
0
 62
7
  6
CONTINUOUS
 10
360.8140758554
 20
33.7854478649
 40
1.4754098361
 50
270.0
 51
326.2510114041
  0
ARC
  8
0
 62
7
  6
CONTINUOUS
 10
366.3823757812
 20
34.6051199961
 40
1.4754098361
 50
90.0
 51
146.2510114041
  0
ARC
  8
0
 62
7
  6
CONTINUOUS
 10
361.221176638
 20
34.2772511436
 40
0.8196721311
 50
270.0
 51
360.0
  0
ARC
  8
0
 62
7
  6
CONTINUOUS
 10
365.9752749986
 20
34.1133167174
 40
0.8196721311
 50
90.0
 51
180.0
  0
ARC
  8
0
 62
7
  6
CONTINUOUS
 10
360.565438933
 20
33.867415078
 40
0.4098360656
 50
180.0
 51
270.0
  0
ARC
  8
0
 62
7
  6
CONTINUOUS
 10
366.6310127035
 20
34.5231527829
 40
0.4098360656
 50
0.0
 51
90.0
  0
SOLID
  8
0
 62
7
  6
CONTINUOUS
 10
365.4684104651
 20
31.8618347111
 11
365.4684104651
 21
32.0231531947
 12
365.757472524
 22
31.8618347111
 13
365.757472524
 23
32.0231531947
  0
SOLID
  8
0
 62
7
  6
CONTINUOUS
 10
359.744972717
 20
31.5391977439
 11
360.1496602445
 21
31.5069333244
 12
359.3980977583
 22
31.5069333244
 13
359.3980977583
 23
31.5069333244
  0
SOLID
  8
0
 62
7
  6
CONTINUOUS
 10
359.2246602583
 20
31.4746706537
 11
359.3980977583
 21
31.5069333244
 12
360.1496602445
 22
31.5069333244
 13
360.1496602445
 23
31.5069333244
  0
SOLID
  8
0
 62
7
  6
CONTINUOUS
 10
360.1496602445
 20
31.5069333244
 11
360.3809101894
 21
31.4424063504
 12
359.2246602583
 22
31.4746706537
 13
359.2246602583
 23
31.4746706537
  0
SOLID
  8
0
 62
7
  6
CONTINUOUS
 10
359.0512227376
 20
31.4101419116
 11
359.2246602583
 21
31.4746706537
 12
360.3809101894
 22
31.4424063504
 13
360.3809101894
 23
31.4424063504
  0
SOLID
  8
0
 62
7
  6
CONTINUOUS
 10
359.0512227376
 20
31.4101419116
 11
360.3809101894
 21
31.4424063504
 12
359.6871602721
 22
31.4101419116
 13
359.6871602721
 23
31.4101419116
  0
SOLID
  8
0
 62
7
  6
CONTINUOUS
 10
359.6871602721
 20
31.4101419116
 11
360.3809101894
 21
31.4424063504
 12
360.091847717
 22
31.3778792603
 13
360.091847717
 23
31.3778792603
  0
SOLID
  8
0
 62
7
  6
CONTINUOUS
 10
360.3809101894
 20
31.4424063504
 11
360.5543476894
 21
31.345614957
 12
360.091847717
 22
31.3778792603
 13
360.091847717
 23
31.3778792603
  0
SOLID
  8
0
 62
7
  6
CONTINUOUS
 10
360.2652852997
 20
31.3133521701
 11
360.091847717
 21
31.3778792603
 12
360.5543476894
 22
31.345614957
 13
360.5543476894
 23
31.345614957
  0
SOLID
  8
0
 62
7
  6
CONTINUOUS
 10
360.2652852997
 20
31.3133521701
 11
360.5543476894
 21
31.345614957
 12
360.3230977445
 22
31.2165606992
 13
360.3230977445
 23
31.2165606992
  0
SOLID
  8
0
 62
7
  6
CONTINUOUS
 10
360.5543476894
 20
31.345614957
 11
360.6121602997
 21
31.2165606992
 12
360.3230977445
 22
31.2165606992
 13
360.3230977445
 23
31.2165606992
  0
SOLID
  8
0
 62
7
  6
CONTINUOUS
 10
361.6527851343
 20
31.5069329918
 11
361.8840352445
 21
31.5391972951
 12
362.1152853548
 22
31.5391972951
 13
362.1152853548
 23
31.5391972951
  0
SOLID
  8
0
 62
7
  6
CONTINUOUS
 10
362.1152853548
 20
31.5391972951
 11
362.2887228548
 21
31.5069329918
 12
361.6527851343
 22
31.5069329918
 13
361.6527851343
 23
31.5069329918
  0
SOLID
  8
0
 62
7
  6
CONTINUOUS
 10
361.4793477997
 20
31.4424059016
 11
361.6527851343
 21
31.5069329918
 12
362.2887228548
 22
31.5069329918
 13
362.2887228548
 23
31.5069329918
  0
SOLID
  8
0
 62
7
  6
CONTINUOUS
 10
362.2887228548
 20
31.5069329918
 11
362.4621603548
 21
31.4424059016
 12
361.4793477997
 22
31.4424059016
 13
361.4793477997
 23
31.4424059016
  0
SOLID
  8
0
 62
7
  6
CONTINUOUS
 10
362.4621603548
 20
31.4424059016
 11
361.8840352445
 21
31.4101420472
 12
361.4793477997
 22
31.4424059016
 13
361.4793477997
 23
31.4424059016
  0
SOLID
  8
0
 62
7
  6
CONTINUOUS
 10
361.3637227445
 20
31.3778788115
 11
361.4793477997
 21
31.4424059016
 12
361.8840352445
 22
31.4101420472
 13
361.8840352445
 23
31.4101420472
  0
SOLID
  8
0
 62
7
  6
CONTINUOUS
 10
361.8840352445
 20
31.4101420472
 11
361.6527851343
 21
31.3778788115
 12
361.3637227445
 22
31.3778788115
 13
361.3637227445
 23
31.3778788115
  0
SOLID
  8
0
 62
7
  6
CONTINUOUS
 10
361.8840352445
 20
31.4101420472
 11
362.4621603548
 21
31.4424059016
 12
362.1152853548
 22
31.3778788115
 13
362.1152853548
 23
31.3778788115
  0
SOLID
  8
0
 62
7
  6
CONTINUOUS
 10
362.4621603548
 20
31.4424059016
 11
362.5777852445
 21
31.3778788115
 12
362.1152853548
 22
31.3778788115
 13
362.1152853548
 23
31.3778788115
  0
SOLID
  8
0
 62
7
  6
CONTINUOUS
 10
362.2309102445
 20
31.345614957
 11
362.1152853548
 21
31.3778788115
 12
362.5777852445
 22
31.3778788115
 13
362.5777852445
 23
31.3778788115
  0
SOLID
  8
0
 62
7
  6
CONTINUOUS
 10
362.5777852445
 20
31.3778788115
 11
362.6355978548
 21
31.3133517213
 12
362.2309102445
 22
31.345614957
 13
362.2309102445
 23
31.345614957
  0
SOLID
  8
0
 62
7
  6
CONTINUOUS
 10
362.3465351343
 20
31.2810878668
 11
362.2309102445
 21
31.345614957
 12
362.6355978548
 22
31.3133517213
 13
362.6355978548
 23
31.3133517213
  0
SOLID
  8
0
 62
7
  6
CONTINUOUS
 10
362.3465351343
 20
31.2810878668
 11
362.6355978548
 21
31.3133517213
 12
362.4043477445
 22
31.1520332377
 13
362.4043477445
 23
31.1520332377
  0
SOLID
  8
0
 62
7
  6
CONTINUOUS
 10
362.6355978548
 20
31.3133517213
 11
362.6934101343
 21
31.1520332377
 12
362.4043477445
 22
31.1520332377
 13
362.4043477445
 23
31.1520332377
  0
SOLID
  8
0
 62
7
  6
CONTINUOUS
 10
361.6527851343
 20
31.3778788115
 11
361.4793477997
 21
31.3133517213
 12
361.3637227445
 22
31.3778788115
 13
361.3637227445
 23
31.3778788115
  0
SOLID
  8
0
 62
7
  6
CONTINUOUS
 10
361.4793477997
 20
31.3133517213
 11
361.3637227445
 21
31.2488235635
 12
361.3637227445
 22
31.3778788115
 13
361.3637227445
 23
31.3778788115
  0
SOLID
  8
0
 62
7
  6
CONTINUOUS
 10
361.3637227445
 20
31.2488235635
 11
361.0746601894
 21
30.5067593033
 12
361.3637227445
 22
31.3778788115
 13
361.3637227445
 23
31.3778788115
  0
SOLID
  8
0
 62
7
  6
CONTINUOUS
 10
361.3637227445
 20
31.3778788115
 11
361.0746601894
 21
30.5067593033
 12
361.3637227445
 22
32.0231527459
 13
361.3637227445
 23
32.0231527459
  0
SOLID
  8
0
 62
7
  6
CONTINUOUS
 10
361.0746601894
 20
30.5067593033
 11
361.0746601894
 21
32.0231527459
 12
361.3637227445
 22
32.0231527459
 13
361.3637227445
 23
32.0231527459
  0
SOLID
  8
0
 62
7
  6
CONTINUOUS
 10
361.3637227445
 20
31.2488235635
 11
361.3637227445
 21
30.5067593033
 12
361.0746601894
 22
30.5067593033
 13
361.0746601894
 23
30.5067593033
  0
SOLID
  8
0
 62
7
  6
CONTINUOUS
 10
362.4043477445
 20
30.5067593033
 11
362.4043477445
 21
31.1520332377
 12
362.6934101343
 22
31.1520332377
 13
362.6934101343
 23
31.1520332377
  0
SOLID
  8
0
 62
7
  6
CONTINUOUS
 10
362.6934101343
 20
31.1520332377
 11
362.6934101343
 21
30.5067593033
 12
362.4043477445
 22
30.5067593033
 13
362.4043477445
 23
30.5067593033
  0
SOLID
  8
0
 62
7
  6
CONTINUOUS
 10
363.4449727445
 20
31.506933758
 11
363.8496603548
 21
31.5391977507
 12
364.1965353548
 22
31.5391977507
 13
364.1965353548
 23
31.5391977507
  0
SOLID
  8
0
 62
7
  6
CONTINUOUS
 10
364.1965353548
 20
31.5391977507
 11
364.543410024
 21
31.506933758
 12
363.4449727445
 22
31.506933758
 13
363.4449727445
 23
31.506933758
  0
SOLID
  8
0
 62
7
  6
CONTINUOUS
 10
363.3293478548
 20
31.4746706537
 11
363.4449727445
 21
31.506933758
 12
364.543410024
 22
31.506933758
 13
364.543410024
 23
31.506933758
  0
SOLID
  8
0
 62
7
  6
CONTINUOUS
 10
364.543410024
 20
31.506933758
 11
364.716847524
 21
31.4424063504
 12
363.3293478548
 22
31.4746706537
 13
363.3293478548
 23
31.4746706537
  0
SOLID
  8
0
 62
7
  6
CONTINUOUS
 10
363.2137226343
 20
31.4101417797
 11
363.3293478548
 21
31.4746706537
 12
364.716847524
 22
31.4424063504
 13
364.716847524
 23
31.4424063504
  0
SOLID
  8
0
 62
7
  6
CONTINUOUS
 10
363.2137226343
 20
31.4101417797
 11
364.716847524
 21
31.4424063504
 12
363.8496603548
 22
31.4101417797
 13
363.8496603548
 23
31.4101417797
  0
SOLID
  8
0
 62
7
  6
CONTINUOUS
 10
363.8496603548
 20
31.4101417797
 11
364.716847524
 21
31.4424063504
 12
364.1965353548
 22
31.4101417797
 13
364.1965353548
 23
31.4101417797
  0
SOLID
  8
0
 62
7
  6
CONTINUOUS
 10
364.1965353548
 20
31.4101417797
 11
364.716847524
 21
31.4424063504
 12
364.4277854651
 22
31.3778793357
 13
364.4277854651
 23
31.3778793357
  0
SOLID
  8
0
 62
7
  6
CONTINUOUS
 10
364.716847524
 20
31.4424063504
 11
364.8324727445
 21
31.3778793357
 12
364.4277854651
 22
31.3778793357
 13
364.4277854651
 23
31.3778793357
  0
SOLID
  8
0
 62
7
  6
CONTINUOUS
 10
363.1559103548
 20
31.3456153429
 11
363.2137226343
 21
31.4101417797
 12
363.8496603548
 22
31.4101417797
 13
363.8496603548
 23
31.4101417797
  0
SOLID
  8
0
 62
7
  6
CONTINUOUS
 10
364.543410024
 20
31.3456153429
 11
364.4277854651
 21
31.3778793357
 12
364.8324727445
 22
31.3778793357
 13
364.8324727445
 23
31.3778793357
  0
SOLID
  8
0
 62
7
  6
CONTINUOUS
 10
364.543410024
 20
31.3456153429
 11
364.8324727445
 21
31.3778793357
 12
364.6012229651
 22
31.2810881318
 13
364.6012229651
 23
31.2810881318
  0
SOLID
  8
0
 62
7
  6
CONTINUOUS
 10
364.8324727445
 20
31.3778793357
 11
364.890285024
 21
31.2810881318
 12
364.6012229651
 22
31.2810881318
 13
364.6012229651
 23
31.2810881318
  0
SOLID
  8
0
 62
7
  6
CONTINUOUS
 10
364.6012229651
 20
31.1842964734
 11
364.6012229651
 21
31.2810881318
 12
364.890285024
 22
31.2810881318
 13
364.890285024
 23
31.2810881318
  0
SOLID
  8
0
 62
7
  6
CONTINUOUS
 10
364.6012229651
 20
31.1842964734
 11
364.890285024
 21
31.2810881318
 12
364.6012229651
 22
31.0552422931
 13
364.6012229651
 23
31.0552422931
  0
SOLID
  8
0
 62
7
  6
CONTINUOUS
 10
364.6012229651
 20
31.0552422931
 11
364.890285024
 21
31.2810881318
 12
364.6012229651
 22
30.8616599362
 13
364.6012229651
 23
30.8616599362
  0
SOLID
  8
0
 62
7
  6
CONTINUOUS
 10
364.890285024
 20
31.2810881318
 11
364.890285024
 21
30.7648681127
 12
364.6012229651
 22
30.8616599362
 13
364.6012229651
 23
30.8616599362
  0
SOLID
  8
0
 62
7
  6
CONTINUOUS
 10
366.798097524
 20
31.5069339419
 11
367.0293479651
 21
31.5391976292
 12
367.2605977445
 22
31.5391976292
 13
367.2605977445
 23
31.5391976292
  0
SOLID
  8
0
 62
7
  6
CONTINUOUS
 10
367.2605977445
 20
31.5391976292
 11
367.4340352445
 21
31.5069339419
 12
366.798097524
 22
31.5069339419
 13
366.798097524
 23
31.5069339419
  0
SOLID
  8
0
 62
7
  6
CONTINUOUS
 10
366.624660024
 20
31.4424065674
 11
366.798097524
 21
31.5069339419
 12
367.4340352445
 22
31.5069339419
 13
367.4340352445
 23
31.5069339419
  0
SOLID
  8
0
 62
7
  6
CONTINUOUS
 10
367.4340352445
 20
31.5069339419
 11
367.6074727445
 21
31.4424065674
 12
366.624660024
 22
31.4424065674
 13
366.624660024
 23
31.4424065674
  0
SOLID
  8
0
 62
7
  6
CONTINUOUS
 10
367.6074727445
 20
31.4424065674
 11
367.0293479651
 21
31.4101420472
 12
366.624660024
 22
31.4424065674
 13
366.624660024
 23
31.4424065674
  0
SOLID
  8
0
 62
7
  6
CONTINUOUS
 10
366.5090354651
 20
31.377879193
 11
366.624660024
 21
31.4424065674
 12
367.0293479651
 22
31.4101420472
 13
367.0293479651
 23
31.4101420472
  0
SOLID
  8
0
 62
7
  6
CONTINUOUS
 10
367.0293479651
 20
31.4101420472
 11
366.798097524
 21
31.377879193
 12
366.5090354651
 22
31.377879193
 13
366.5090354651
 23
31.377879193
  0
SOLID
  8
0
 62
7
  6
CONTINUOUS
 10
367.0293479651
 20
31.4101420472
 11
367.6074727445
 21
31.4424065674
 12
367.2605977445
 22
31.377879193
 13
367.2605977445
 23
31.377879193
  0
SOLID
  8
0
 62
7
  6
CONTINUOUS
 10
367.6074727445
 20
31.4424065674
 11
367.7230979651
 21
31.377879193
 12
367.2605977445
 22
31.377879193
 13
367.2605977445
 23
31.377879193
  0
SOLID
  8
0
 62
7
  6
CONTINUOUS
 10
367.3762229651
 20
31.345614957
 11
367.2605977445
 21
31.377879193
 12
367.7230979651
 22
31.377879193
 13
367.7230979651
 23
31.377879193
  0
SOLID
  8
0
 62
7
  6
CONTINUOUS
 10
367.3762229651
 20
31.345614957
 11
367.7230979651
 21
31.377879193
 12
367.491847524
 22
31.2810881312
 13
367.491847524
 23
31.2810881312
  0
SOLID
  8
0
 62
7
  6
CONTINUOUS
 10
367.7230979651
 20
31.377879193
 11
367.7809102445
 21
31.2810881312
 12
367.491847524
 22
31.2810881312
 13
367.491847524
 23
31.2810881312
  0
SOLID
  8
0
 62
7
  6
CONTINUOUS
 10
367.5496604651
 20
31.119769695
 11
367.491847524
 21
31.2810881312
 12
367.7809102445
 22
31.2810881312
 13
367.7809102445
 23
31.2810881312
  0
SOLID
  8
0
 62
7
  6
CONTINUOUS
 10
367.7809102445
 20
31.2810881312
 11
367.838722524
 21
31.119769695
 12
367.5496604651
 22
31.119769695
 13
367.5496604651
 23
31.119769695
  0
SOLID
  8
0
 62
7
  6
CONTINUOUS
 10
366.798097524
 20
31.377879193
 11
366.624660024
 21
31.3133521701
 12
366.5090354651
 22
31.377879193
 13
366.5090354651
 23
31.377879193
  0
SOLID
  8
0
 62
7
  6
CONTINUOUS
 10
366.624660024
 20
31.3133521701
 11
366.5090354651
 21
31.2488235635
 12
366.5090354651
 22
31.377879193
 13
366.5090354651
 23
31.377879193
  0
SOLID
  8
0
 62
7
  6
CONTINUOUS
 10
366.5090354651
 20
31.2488235635
 11
366.2199727445
 21
30.5067596374
 12
366.5090354651
 22
31.377879193
 13
366.5090354651
 23
31.377879193
  0
SOLID
  8
0
 62
7
  6
CONTINUOUS
 10
366.5090354651
 20
31.377879193
 11
366.2199727445
 21
30.5067596374
 12
366.5090354651
 22
31.5391976292
 13
366.5090354651
 23
31.5391976292
  0
SOLID
  8
0
 62
7
  6
CONTINUOUS
 10
366.2199727445
 20
30.5067596374
 11
366.2199727445
 21
31.5391976292
 12
366.5090354651
 22
31.5391976292
 13
366.5090354651
 23
31.5391976292
  0
SOLID
  8
0
 62
7
  6
CONTINUOUS
 10
366.5090354651
 20
31.2488235635
 11
366.5090354651
 21
30.5067596374
 12
366.2199727445
 22
30.5067596374
 13
366.2199727445
 23
30.5067596374
  0
SOLID
  8
0
 62
7
  6
CONTINUOUS
 10
367.5496604651
 20
30.5067596374
 11
367.5496604651
 21
31.119769695
 12
367.838722524
 22
31.119769695
 13
367.838722524
 23
31.119769695
  0
SOLID
  8
0
 62
7
  6
CONTINUOUS
 10
367.838722524
 20
31.119769695
 11
367.838722524
 21
30.5067596374
 12
367.5496604651
 22
30.5067596374
 13
367.5496604651
 23
30.5067596374
  0
SOLID
  8
0
 62
7
  6
CONTINUOUS
 10
368.6480977445
 20
31.5069334157
 11
368.9949727445
 21
31.539197762
 12
369.3418477445
 22
31.539197762
 13
369.3418477445
 23
31.539197762
  0
SOLID
  8
0
 62
7
  6
CONTINUOUS
 10
369.3418477445
 20
31.539197762
 11
369.6887227445
 21
31.5069334157
 12
368.6480977445
 22
31.5069334157
 13
368.6480977445
 23
31.5069334157
  0
SOLID
  8
0
 62
7
  6
CONTINUOUS
 10
368.4168479651
 20
31.4424063504
 11
368.6480977445
 21
31.5069334157
 12
369.6887227445
 22
31.5069334157
 13
369.6887227445
 23
31.5069334157
  0
SOLID
  8
0
 62
7
  6
CONTINUOUS
 10
368.4168479651
 20
31.4424063504
 11
369.6887227445
 21
31.5069334406
 12
369.8621602445
 22
31.4746706537
 13
369.8621602445
 23
31.4746706537
  0
SOLID
  8
0
 62
7
  6
CONTINUOUS
 10
368.4168479651
 20
31.4424063504
 11
369.8621602445
 21
31.4746706537
 12
368.9949727445
 22
31.4101421267
 13
368.9949727445
 23
31.4101421267
  0
SOLID
  8
0
 62
7
  6
CONTINUOUS
 10
368.9949727445
 20
31.4101421267
 11
369.8621602445
 21
31.4746706537
 12
369.3418477445
 22
31.4101421267
 13
369.3418477445
 23
31.4101421267
  0
SOLID
  8
0
 62
7
  6
CONTINUOUS
 10
369.8621602445
 20
31.4746706537
 11
370.0355977445
 21
31.4101421267
 12
369.3418477445
 22
31.4101421267
 13
369.3418477445
 23
31.4101421267
  0
SOLID
  8
0
 62
7
  6
CONTINUOUS
 10
369.6887227445
 20
31.3778792603
 11
369.3418477445
 21
31.4101421267
 12
370.0355977445
 22
31.4101421267
 13
370.0355977445
 23
31.4101421267
  0
SOLID
  8
0
 62
7
  6
CONTINUOUS
 10
368.3012227445
 20
31.3456148845
 11
368.4168479651
 21
31.4424063504
 12
368.9949727445
 22
31.4101421267
 13
368.9949727445
 23
31.4101421267
  0
SOLID
  8
0
 62
7
  6
CONTINUOUS
 10
369.6887227445
 20
31.3778792603
 11
370.0355977445
 21
31.4101421267
 12
369.8043479651
 22
31.3456148845
 13
369.8043479651
 23
31.3456148845
  0
SOLID
  8
0
 62
7
  6
CONTINUOUS
 10
369.8043479651
 20
31.3456148845
 11
370.0355977445
 21
31.4101421267
 12
369.8621602445
 22
31.281087868
 13
369.8621602445
 23
31.281087868
  0
SOLID
  8
0
 62
7
  6
CONTINUOUS
 10
370.0355977445
 20
31.4101421267
 11
370.1512223035
 21
31.281087868
 12
369.8621602445
 22
31.281087868
 13
369.8621602445
 23
31.281087868
  0
SOLID
  8
0
 62
7
  6
CONTINUOUS
 10
359.4559102445
 20
31.3778792603
 11
358.9355977445
 21
31.3456148963
 12
359.6871602721
 22
31.4101421155
 13
359.6871602721
 23
31.4101421155
  0
SOLID
  8
0
 62
7
  6
CONTINUOUS
 10
358.9355977445
 20
31.3456148963
 11
359.0512227376
 21
31.4101421155
 12
359.6871602721
 22
31.4101421155
 13
359.6871602721
 23
31.4101421155
  0
SOLID
  8
0
 62
7
  6
CONTINUOUS
 10
359.4559102445
 20
31.3778792603
 11
359.3402852307
 21
31.3456148963
 12
358.9355977445
 22
31.3456148963
 13
358.9355977445
 23
31.3456148963
  0
SOLID
  8
0
 62
7
  6
CONTINUOUS
 10
358.8199727462
 20
31.2165607767
 11
358.9355977445
 21
31.3456148963
 12
359.3402852307
 22
31.3456148963
 13
359.3402852307
 23
31.3456148963
  0
SOLID
  8
0
 62
7
  6
CONTINUOUS
 10
363.1559103548
 20
31.3456149608
 11
363.8496603548
 21
31.4101420472
 12
363.6184102445
 22
31.3778792603
 13
363.6184102445
 23
31.3778792603
  0
SOLID
  8
0
 62
7
  6
CONTINUOUS
 10
363.6184102445
 20
31.3778792603
 11
363.5027853548
 21
31.3456149608
 12
363.1559103548
 22
31.3456149608
 13
363.1559103548
 23
31.3456149608
  0
SOLID
  8
0
 62
7
  6
CONTINUOUS
 10
363.1559103548
 20
31.2810878707
 11
363.1559103548
 21
31.3456149608
 12
363.5027853548
 22
31.3456149608
 13
363.5027853548
 23
31.3456149608
  0
SOLID
  8
0
 62
7
  6
CONTINUOUS
 10
363.5027853548
 20
31.3456149608
 11
363.4449727445
 21
31.2810878707
 12
363.1559103548
 22
31.2810878707
 13
363.1559103548
 23
31.2810878707
  0
SOLID
  8
0
 62
7
  6
CONTINUOUS
 10
368.3012227445
 20
31.3456149608
 11
368.9949727445
 21
31.4101420472
 12
368.7637229651
 22
31.3778792603
 13
368.7637229651
 23
31.3778792603
  0
SOLID
  8
0
 62
7
  6
CONTINUOUS
 10
368.7637229651
 20
31.3778792603
 11
368.6480977445
 21
31.3456149608
 12
368.3012227445
 22
31.3456149608
 13
368.3012227445
 23
31.3456149608
  0
SOLID
  8
0
 62
7
  6
CONTINUOUS
 10
368.3012227445
 20
31.2810878707
 11
368.3012227445
 21
31.3456149608
 12
368.6480977445
 22
31.3456149608
 13
368.6480977445
 23
31.3456149608
  0
SOLID
  8
0
 62
7
  6
CONTINUOUS
 10
368.6480977445
 20
31.3456149608
 11
368.5902854651
 21
31.2810878707
 12
368.3012227445
 22
31.2810878707
 13
368.3012227445
 23
31.2810878707
  0
SOLID
  8
0
 62
7
  6
CONTINUOUS
 10
368.4168479651
 20
31.1520336865
 11
368.3012227445
 21
31.2810878707
 12
368.5902854651
 22
31.2810878707
 13
368.5902854651
 23
31.2810878707
  0
SOLID
  8
0
 62
7
  6
CONTINUOUS
 10
358.8199727462
 20
31.2165607767
 11
359.3402852307
 21
31.345614957
 12
359.1668477307
 22
31.2488235635
 13
359.1668477307
 23
31.2488235635
  0
SOLID
  8
0
 62
7
  6
CONTINUOUS
 10
359.1668477307
 20
31.2488235635
 11
359.1090352445
 21
31.1842964734
 12
358.8199727462
 22
31.2165607767
 13
358.8199727462
 23
31.2165607767
  0
SOLID
  8
0
 62
7
  6
CONTINUOUS
 10
358.7621602445
 20
31.0229779898
 11
358.8199727462
 21
31.2165607767
 12
359.1090352445
 22
31.1842964734
 13
359.1090352445
 23
31.1842964734
  0
SOLID
  8
0
 62
7
  6
CONTINUOUS
 10
363.6184102445
 20
31.1520336865
 11
363.9652852445
 21
31.1842964611
 12
364.6012229651
 22
31.1842964611
 13
364.6012229651
 23
31.1842964611
  0
SOLID
  8
0
 62
7
  6
CONTINUOUS
 10
363.6184102445
 20
31.1520336865
 11
364.6012229651
 21
31.1842964611
 12
363.3871601343
 22
31.0875057863
 13
363.3871601343
 23
31.0875057863
  0
SOLID
  8
0
 62
7
  6
CONTINUOUS
 10
363.3871601343
 20
31.0875057863
 11
364.6012229651
 21
31.1842964611
 12
363.9652852445
 22
31.0552422808
 13
363.9652852445
 23
31.0552422808
  0
SOLID
  8
0
 62
7
  6
CONTINUOUS
 10
364.6012229651
 20
31.1842964611
 11
364.6012229651
 21
31.0552422808
 12
363.9652852445
 22
31.0552422808
 13
363.9652852445
 23
31.0552422808
  0
SOLID
  8
0
 62
7
  6
CONTINUOUS
 10
368.4168479651
 20
31.1520338754
 11
368.5902854651
 21
31.2810878668
 12
368.6480977445
 22
31.2165607767
 13
368.6480977445
 23
31.2165607767
  0
SOLID
  8
0
 62
7
  6
CONTINUOUS
 10
368.6480977445
 20
31.2165607767
 11
368.8215352445
 21
31.1520338754
 12
368.4168479651
 22
31.1520338754
 13
368.4168479651
 23
31.1520338754
  0
SOLID
  8
0
 62
7
  6
CONTINUOUS
 10
368.6480977445
 20
31.0552422931
 11
368.4168479651
 21
31.1520338754
 12
368.8215352445
 22
31.1520338754
 13
368.8215352445
 23
31.1520338754
  0
SOLID
  8
0
 62
7
  6
CONTINUOUS
 10
368.8215352445
 20
31.1520338754
 11
369.8043479651
 21
30.9907152029
 12
368.6480977445
 22
31.0552422931
 13
368.6480977445
 23
31.0552422931
  0
SOLID
  8
0
 62
7
  6
CONTINUOUS
 10
369.6309104651
 20
30.8939239876
 11
368.6480977445
 21
31.0552422931
 12
369.8043479651
 22
30.9907152029
 13
369.8043479651
 23
30.9907152029
  0
SOLID
  8
0
 62
7
  6
CONTINUOUS
 10
369.8043479651
 20
30.9907152029
 11
370.0355977445
 21
30.8939239876
 12
369.6309104651
 22
30.8939239876
 13
369.6309104651
 23
30.8939239876
  0
SOLID
  8
0
 62
7
  6
CONTINUOUS
 10
369.8043479651
 20
30.8293967193
 11
369.6309104651
 21
30.8939239876
 12
370.0355977445
 22
30.8939239876
 13
370.0355977445
 23
30.8939239876
  0
SOLID
  8
0
 62
7
  6
CONTINUOUS
 10
369.8043479651
 20
30.8293967193
 11
370.0355977445
 21
30.8939239876
 12
369.8621602445
 22
30.7648682694
 13
369.8621602445
 23
30.7648682694
  0
SOLID
  8
0
 62
7
  6
CONTINUOUS
 10
370.0355977445
 20
30.8939239876
 11
370.1512223035
 21
30.7648682694
 12
369.8621602445
 22
30.7648682694
 13
369.8621602445
 23
30.7648682694
  0
SOLID
  8
0
 62
7
  6
CONTINUOUS
 10
369.8043479651
 20
30.7003411846
 11
369.8621602445
 21
30.7648682694
 12
370.1512223035
 22
30.7648682694
 13
370.1512223035
 23
30.7648682694
  0
SOLID
  8
0
 62
7
  6
CONTINUOUS
 10
370.1512223035
 20
30.7648682694
 11
370.1512223035
 21
30.7003411846
 12
369.8043479651
 22
30.7003411846
 13
369.8043479651
 23
30.7003411846
  0
SOLID
  8
0
 62
7
  6
CONTINUOUS
 10
369.6887227445
 20
30.6680782357
 11
369.8043479651
 21
30.7003411846
 12
370.1512223035
 22
30.7003411846
 13
370.1512223035
 23
30.7003411846
  0
SOLID
  8
0
 62
7
  6
CONTINUOUS
 10
369.6887227445
 20
30.6680782357
 11
370.1512223035
 21
30.7003411846
 12
369.4574729651
 22
30.6358140998
 13
369.4574729651
 23
30.6358140998
  0
SOLID
  8
0
 62
7
  6
CONTINUOUS
 10
370.1512223035
 20
30.7003411846
 11
370.0355977445
 21
30.6035511455
 12
369.4574729651
 22
30.6358140998
 13
369.4574729651
 23
30.6358140998
  0
SOLID
  8
0
 62
7
  6
CONTINUOUS
 10
370.0355977445
 20
30.6035511455
 11
368.5902854651
 21
30.5712868422
 12
369.4574729651
 22
30.6358140998
 13
369.4574729651
 23
30.6358140998
  0
SOLID
  8
0
 62
7
  6
CONTINUOUS
 10
369.4574729651
 20
30.6358140998
 11
368.5902854651
 21
30.5712868422
 12
369.1105979651
 22
30.6358140998
 13
369.1105979651
 23
30.6358140998
  0
SOLID
  8
0
 62
7
  6
CONTINUOUS
 10
368.5902854651
 20
30.5712868422
 11
368.4168479651
 21
30.6358140998
 12
369.1105979651
 22
30.6358140998
 13
369.1105979651
 23
30.6358140998
  0
SOLID
  8
0
 62
7
  6
CONTINUOUS
 10
368.5902854651
 20
30.5712868422
 11
370.0355977445
 21
30.6035511455
 12
368.7637229651
 22
30.5390223111
 13
368.7637229651
 23
30.5390223111
  0
SOLID
  8
0
 62
7
  6
CONTINUOUS
 10
370.0355977445
 20
30.6035511455
 11
369.8043479651
 21
30.5390223111
 12
368.7637229651
 22
30.5390223111
 13
368.7637229651
 23
30.5390223111
  0
SOLID
  8
0
 62
7
  6
CONTINUOUS
 10
369.1105979651
 20
30.5067599302
 11
368.7637229651
 21
30.5390223111
 12
369.8043479651
 22
30.5390223111
 13
369.8043479651
 23
30.5390223111
  0
SOLID
  8
0
 62
7
  6
CONTINUOUS
 10
369.8043479651
 20
30.5390223111
 11
369.4574729651
 21
30.5067599302
 12
369.1105979651
 22
30.5067599302
 13
369.1105979651
 23
30.5067599302
  0
SOLID
  8
0
 62
7
  6
CONTINUOUS
 10
358.7621602445
 20
31.0229779898
 11
359.1090352445
 21
31.1842964734
 12
359.0512227376
 22
31.0552422931
 13
359.0512227376
 23
31.0552422931
  0
SOLID
  8
0
 62
7
  6
CONTINUOUS
 10
359.0512227376
 20
31.0552422931
 11
359.0512227376
 21
30.9584509954
 12
358.7621602445
 22
31.0229779898
 13
358.7621602445
 23
31.0229779898
  0
SOLID
  8
0
 62
7
  6
CONTINUOUS
 10
358.8199727462
 20
30.8293967193
 11
358.7621602445
 21
31.0229779898
 12
359.0512227376
 22
30.9584509954
 13
359.0512227376
 23
30.9584509954
  0
SOLID
  8
0
 62
7
  6
CONTINUOUS
 10
359.0512227376
 20
30.9584509954
 11
359.1668477307
 21
30.797132416
 12
358.8199727462
 22
30.8293967193
 13
358.8199727462
 23
30.8293967193
  0
SOLID
  8
0
 62
7
  6
CONTINUOUS
 10
358.9355977445
 20
30.7003413087
 11
358.8199727462
 21
30.8293967193
 12
359.1668477307
 22
30.797132416
 13
359.1668477307
 23
30.797132416
  0
SOLID
  8
0
 62
7
  6
CONTINUOUS
 10
359.1668477307
 20
30.797132416
 11
359.3402852307
 21
30.7003413087
 12
358.9355977445
 22
30.7003413087
 13
358.9355977445
 23
30.7003413087
  0
SOLID
  8
0
 62
7
  6
CONTINUOUS
 10
359.0512227376
 20
30.6358140759
 11
358.9355977445
 21
30.7003413087
 12
359.3402852307
 22
30.7003413087
 13
359.3402852307
 23
30.7003413087
  0
SOLID
  8
0
 62
7
  6
CONTINUOUS
 10
359.3402852307
 20
30.7003413087
 11
359.6871602721
 21
30.6358140759
 12
359.0512227376
 22
30.6358140759
 13
359.0512227376
 23
30.6358140759
  0
SOLID
  8
0
 62
7
  6
CONTINUOUS
 10
359.2246602583
 20
30.5712868422
 11
359.0512227376
 21
30.6358140759
 12
359.6871602721
 22
30.6358140759
 13
359.6871602721
 23
30.6358140759
  0
SOLID
  8
0
 62
7
  6
CONTINUOUS
 10
363.2715352445
 20
31.0229779808
 11
363.3871601343
 21
31.0875057863
 12
363.9652852445
 22
31.0552422931
 13
363.9652852445
 23
31.0552422931
  0
SOLID
  8
0
 62
7
  6
CONTINUOUS
 10
363.9652852445
 20
31.0552422931
 11
363.7340351343
 21
31.0229779808
 12
363.2715352445
 22
31.0229779808
 13
363.2715352445
 23
31.0229779808
  0
SOLID
  8
0
 62
7
  6
CONTINUOUS
 10
363.1559103548
 20
30.8939238094
 11
363.2715352445
 21
31.0229779808
 12
363.7340351343
 22
31.0229779808
 13
363.7340351343
 23
31.0229779808
  0
SOLID
  8
0
 62
7
  6
CONTINUOUS
 10
363.5027853548
 20
30.926187309
 11
363.1559103548
 21
30.8939238094
 12
363.6184102445
 22
30.9907152029
 13
363.6184102445
 23
30.9907152029
  0
SOLID
  8
0
 62
7
  6
CONTINUOUS
 10
363.1559103548
 20
30.8939238094
 11
363.7340351343
 21
31.0229779898
 12
363.6184102445
 22
30.9907152029
 13
363.6184102445
 23
30.9907152029
  0
SOLID
  8
0
 62
7
  6
CONTINUOUS
 10
363.5027853548
 20
30.926187309
 11
363.4449727445
 21
30.8293967193
 12
363.1559103548
 22
30.8939238094
 13
363.1559103548
 23
30.8939238094
  0
SOLID
  8
0
 62
7
  6
CONTINUOUS
 10
363.1559103548
 20
30.797132416
 11
363.1559103548
 21
30.8939238094
 12
363.4449727445
 22
30.8293967193
 13
363.4449727445
 23
30.8293967193
  0
SOLID
  8
0
 62
7
  6
CONTINUOUS
 10
363.4449727445
 20
30.8293967193
 11
363.4449727445
 21
30.7648681127
 12
363.1559103548
 22
30.797132416
 13
363.1559103548
 23
30.797132416
  0
SOLID
  8
0
 62
7
  6
CONTINUOUS
 10
363.2137226343
 20
30.6680782357
 11
363.1559103548
 21
30.797132416
 12
363.4449727445
 22
30.7648681127
 13
363.4449727445
 23
30.7648681127
  0
SOLID
  8
0
 62
7
  6
CONTINUOUS
 10
364.6012229651
 20
30.8616599362
 11
364.890285024
 21
30.7648681127
 12
364.543410024
 22
30.797132416
 13
364.543410024
 23
30.797132416
  0
SOLID
  8
0
 62
7
  6
CONTINUOUS
 10
364.369972524
 20
30.7003410226
 11
364.543410024
 21
30.797132416
 12
364.890285024
 22
30.7648681127
 13
364.890285024
 23
30.7648681127
  0
SOLID
  8
0
 62
7
  6
CONTINUOUS
 10
364.369972524
 20
30.7003410226
 11
364.890285024
 21
30.7648681127
 12
364.6012229651
 22
30.6680782357
 13
364.6012229651
 23
30.6680782357
  0
SOLID
  8
0
 62
7
  6
CONTINUOUS
 10
364.890285024
 20
30.7648681127
 11
364.9480979651
 21
30.6035511455
 12
364.6012229651
 22
30.6680782357
 13
364.6012229651
 23
30.6680782357
  0
SOLID
  8
0
 62
7
  6
CONTINUOUS
 10
364.6590352445
 20
30.5712868422
 11
364.6012229651
 21
30.6680782357
 12
364.9480979651
 22
30.6035511455
 13
364.9480979651
 23
30.6035511455
  0
SOLID
  8
0
 62
7
  6
CONTINUOUS
 10
364.6590352445
 20
30.5712868422
 11
364.9480979651
 21
30.6035511455
 12
364.716847524
 22
30.5067598731
 13
364.716847524
 23
30.5067598731
  0
SOLID
  8
0
 62
7
  6
CONTINUOUS
 10
364.9480979651
 20
30.6035511455
 11
365.0059102445
 21
30.5067598731
 12
364.716847524
 22
30.5067598731
 13
364.716847524
 23
30.5067598731
  0
SOLID
  8
0
 62
7
  6
CONTINUOUS
 10
360.2652852997
 20
30.7326051679
 11
360.3230977445
 21
30.8293966612
 12
360.6121602997
 22
30.8293966612
 13
360.6121602997
 23
30.8293966612
  0
SOLID
  8
0
 62
7
  6
CONTINUOUS
 10
360.6121602997
 20
30.8293966612
 11
360.5543476894
 21
30.7003410226
 12
360.2652852997
 22
30.7326051679
 13
360.2652852997
 23
30.7326051679
  0
SOLID
  8
0
 62
7
  6
CONTINUOUS
 10
360.091847717
 20
30.6680782357
 11
360.2652852997
 21
30.7326051679
 12
360.5543476894
 22
30.7003410226
 13
360.5543476894
 23
30.7003410226
  0
SOLID
  8
0
 62
7
  6
CONTINUOUS
 10
360.091847717
 20
30.6680782357
 11
360.5543476894
 21
30.7003410226
 12
359.6871602721
 22
30.6358139324
 13
359.6871602721
 23
30.6358139324
  0
SOLID
  8
0
 62
7
  6
CONTINUOUS
 10
360.5543476894
 20
30.7003410226
 11
360.3809101894
 21
30.6035511455
 12
359.6871602721
 22
30.6358139324
 13
359.6871602721
 23
30.6358139324
  0
SOLID
  8
0
 62
7
  6
CONTINUOUS
 10
359.2246602583
 20
30.5712868422
 11
359.6871602721
 21
30.6358139324
 12
360.3809101894
 22
30.6035511455
 13
360.3809101894
 23
30.6035511455
  0
SOLID
  8
0
 62
7
  6
CONTINUOUS
 10
359.2246602583
 20
30.5712868422
 11
360.3809101894
 21
30.6035511455
 12
359.3980977583
 22
30.5390224228
 13
359.3980977583
 23
30.5390224228
  0
SOLID
  8
0
 62
7
  6
CONTINUOUS
 10
360.3809101894
 20
30.6035511455
 11
360.1496602445
 21
30.5390224228
 12
359.3980977583
 22
30.5390224228
 13
359.3980977583
 23
30.5390224228
  0
SOLID
  8
0
 62
7
  6
CONTINUOUS
 10
359.744972717
 20
30.5067597521
 11
359.3980977583
 21
30.5390224228
 12
360.1496602445
 22
30.5390224228
 13
360.1496602445
 23
30.5390224228
  0
SOLID
  8
0
 62
7
  6
CONTINUOUS
 10
363.2137226343
 20
30.6680782357
 11
363.4449727445
 21
30.7648681127
 12
363.5027853548
 22
30.7003410226
 13
363.5027853548
 23
30.7003410226
  0
SOLID
  8
0
 62
7
  6
CONTINUOUS
 10
363.5027853548
 20
30.7003410226
 11
363.7340351343
 21
30.6358139324
 12
363.2137226343
 22
30.6680782357
 13
363.2137226343
 23
30.6680782357
  0
SOLID
  8
0
 62
7
  6
CONTINUOUS
 10
363.3871601343
 20
30.5712868422
 11
363.2137226343
 21
30.6680782357
 12
363.7340351343
 22
30.6358139324
 13
363.7340351343
 23
30.6358139324
  0
SOLID
  8
0
 62
7
  6
CONTINUOUS
 10
364.0809101343
 20
30.6358139363
 11
364.369972524
 21
30.7003410226
 12
364.6012229651
 22
30.6680782357
 13
364.6012229651
 23
30.6680782357
  0
SOLID
  8
0
 62
7
  6
CONTINUOUS
 10
364.6012229651
 20
30.6680782357
 11
364.543410024
 21
30.6035511455
 12
364.0809101343
 22
30.6358139363
 13
364.0809101343
 23
30.6358139363
  0
SOLID
  8
0
 62
7
  6
CONTINUOUS
 10
364.543410024
 20
30.6035511455
 11
363.3871601343
 21
30.5712868422
 12
364.0809101343
 22
30.6358139363
 13
364.0809101343
 23
30.6358139363
  0
SOLID
  8
0
 62
7
  6
CONTINUOUS
 10
363.3871601343
 20
30.5712868422
 11
363.7340351343
 21
30.6358139363
 12
364.0809101343
 22
30.6358139363
 13
364.0809101343
 23
30.6358139363
  0
SOLID
  8
0
 62
7
  6
CONTINUOUS
 10
363.3871601343
 20
30.5712868422
 11
364.543410024
 21
30.6035511455
 12
363.5027853548
 22
30.5390225267
 13
363.5027853548
 23
30.5390225267
  0
SOLID
  8
0
 62
7
  6
CONTINUOUS
 10
364.543410024
 20
30.6035511455
 11
364.369972524
 21
30.5390225267
 12
363.5027853548
 22
30.5390225267
 13
363.5027853548
 23
30.5390225267
  0
SOLID
  8
0
 62
7
  6
CONTINUOUS
 10
363.7340351343
 20
30.5067596914
 11
363.5027853548
 21
30.5390225267
 12
364.369972524
 22
30.5390225267
 13
364.369972524
 23
30.5390225267
  0
SOLID
  8
0
 62
7
  6
CONTINUOUS
 10
364.369972524
 20
30.5390225267
 11
364.0809101343
 21
30.5067596914
 12
363.7340351343
 22
30.5067596914
 13
363.7340351343
 23
30.5067596914
  0
SOLID
  8
0
 62
7
  6
CONTINUOUS
 10
368.7637229651
 20
30.6680782357
 11
368.4168479651
 21
30.6358138717
 12
368.6480977445
 22
30.7003410226
 13
368.6480977445
 23
30.7003410226
  0
SOLID
  8
0
 62
7
  6
CONTINUOUS
 10
368.6480977445
 20
30.7003410226
 11
368.4168479651
 21
30.6358138717
 12
368.5902854651
 22
30.7648680521
 13
368.5902854651
 23
30.7648680521
  0
SOLID
  8
0
 62
7
  6
CONTINUOUS
 10
368.4168479651
 20
30.6358138717
 11
368.3012227445
 21
30.7648680521
 12
368.5902854651
 22
30.7648680521
 13
368.5902854651
 23
30.7648680521
  0
SOLID
  8
0
 62
7
  6
CONTINUOUS
 10
368.7637229651
 20
30.6680782357
 11
369.1105979651
 21
30.6358138717
 12
368.4168479651
 22
30.6358138717
 13
368.4168479651
 23
30.6358138717
  0
SOLID
  8
0
 62
7
  6
CONTINUOUS
 10
365.4684104651
 20
30.5067597521
 11
365.4684104651
 21
31.5391977439
 12
365.757472524
 22
30.5067597521
 13
365.757472524
 23
31.5391977439
  0
ENDBLK
  8
0
  6
BYBLOCK
 62
0
  0
BLOCK
  8
0
 62
2
  6
CONTINUOUS
  2
SYMBOL_0_BL0
 70
64
 10
240.8592468615
 20
19.762288695
  0
TEXT
  8
0
 62
7
  6
CONTINUOUS
 10
227.1239507038
 20
19.1357028027
  7
TEXTSTYLE_3
 40
2.7338706658
  1
Ammeraal Beltech
 41
1.0
 51
15.0
 72
0
  0
TEXT
  8
0
 62
7
  6
CONTINUOUS
 10
237.9247515296
 20
16.8621661299
  7
TEXTSTYLE_4
 40
1.0935482663
  1
Innovation & Service in Belting
 41
1.0
 72
0
  0
LINE
  8
0
 62
7
  6
CONTINUOUS
 10
221.0994100525
 20
19.9022961113
 11
221.8775620458
 21
23.5632134089
  0
LINE
  8
0
 62
7
  6
CONTINUOUS
 10
231.9727303357
 20
27.2266073205
 11
222.3653797889
 21
24.1049898993
  0
LINE
  8
0
 62
7
  6
CONTINUOUS
 10
221.3246933848
 20
19.2089453082
 11
228.8317686459
 21
12.4495443822
  0
LINE
  8
0
 62
7
  6
CONTINUOUS
 10
221.5872277955
 20
20.4440726016
 11
232.3954971607
 21
23.9558922005
  0
LINE
  8
0
 62
7
  6
CONTINUOUS
 10
232.3912920235
 20
13.6061036368
 11
223.9458323548
 21
21.2104296785
  0
LINE
  8
0
 62
7
  6
CONTINUOUS
 10
232.9111147433
 20
26.3816822048
 11
231.9345552061
 21
21.7873308023
  0
LINE
  8
0
 62
7
  6
CONTINUOUS
 10
231.2347532584
 20
18.4950214885
 11
230.5483050469
 21
15.2655365641
  0
LINE
  8
0
 62
7
  6
CONTINUOUS
 10
233.5922108419
 20
13.9963058145
 11
234.5484423775
 21
18.4950214885
  0
LINE
  8
0
 62
7
  6
CONTINUOUS
 10
235.2482443252
 20
21.7873308023
 11
235.6924861276
 21
23.8773241617
  0
LINE
  8
0
 62
7
  6
CONTINUOUS
 10
229.5448697213
 20
12.2979700695
 11
233.1043930989
 21
13.4545293241
  0
LINE
  8
0
 62
7
  6
CONTINUOUS
 10
232.685831411
 20
27.0750330078
 11
235.4672027953
 21
24.5706749648
  0
ARC
  8
0
 62
7
  6
CONTINUOUS
 10
222.5906631212
 20
23.4116390962
 40
0.7290321776
 50
108.0
 51
168.0
  0
ARC
  8
0
 62
7
  6
CONTINUOUS
 10
232.198013668
 20
26.5332565175
 40
0.7290321776
 50
348.0
 51
108.0
  0
ARC
  8
0
 62
7
  6
CONTINUOUS
 10
234.9793850522
 20
24.0288984744
 40
0.7290321776
 50
348.0
 51
48.0
  0
ARC
  8
0
 62
7
  6
CONTINUOUS
 10
229.319586389
 20
12.9913208726
 40
0.7290321776
 50
228.0
 51
288.0
  0
ARC
  8
0
 62
7
  6
CONTINUOUS
 10
221.8125111278
 20
19.7507217986
 40
0.7290321776
 50
108.0
 51
228.0
  0
ARC
  8
0
 62
7
  6
CONTINUOUS
 10
232.8791097665
 20
14.1478801272
 40
0.7290321776
 50
228.0
 51
348.0
  0
ENDBLK
  8
0
  6
BYBLOCK
 62
0
  0
ENDSEC
  0
SECTION
  2
ENTITIES
  0
TEXT
  8
0
 62
5
  6
CONTINUOUS
 10
304.937007874
 20
25.636
  7
TEXTSTYLE_2
 40
2.8
  1
Scale :
 41
0.6
 51
0.000019
 72
0
  0
TEXT
  8
0
 62
5
  6
CONTINUOUS
 10
324.937007874
 20
25.636
  7
TEXTSTYLE_2
 40
2.8
  1
Belt type:
 41
0.6
 51
0.000019
 72
0
  0
INSERT
  8
0
 62
2
  6
CONTINUOUS
  2
SYMBOL_0_BL0
 10
240.8592468615
 20
19.762288695
  0
INSERT
  8
0
 62
2
  6
CONTINUOUS
  2
SYMBOL_5_BL1
 10
382.7840918555
 20
35.5067593403
  0
LINE
  8
0
 62
2
  6
CONTINUOUS
 10
218.937007874
 20
30.0
 11
408.937007874
 21
30.0
  0
LINE
  8
0
 62
2
  6
CONTINUOUS
 10
218.937007874
 20
30.0
 11
218.937007874
 21
10.0
  0
LINE
  8
0
 62
2
  6
CONTINUOUS
 10
218.937007874
 20
10.0
 11
408.937007874
 21
10.0
  0
LINE
  8
0
 62
2
  6
CONTINUOUS
 10
303.937007874
 20
30.0
 11
303.937007874
 21
10.0
  0
LINE
  8
0
 62
2
  6
CONTINUOUS
 10
323.937007874
 20
30.0
 11
323.937007874
 21
10.0
  0
LINE
  8
0
 62
2
  6
CONTINUOUS
 10
408.937007874
 20
30.0
 11
408.937007874
 21
10.0
  0
TEXT
  8
0
 62
5
  6
CONTINUOUS
 10
221.937007874
 20
23.303
  7
TEXTSTYLE_5
 40
1.52
  1
                                                                     Ammeraal Beltech Modular A/S
 41
1.0
 72
0
  0
TEXT
  8
0
 62
5
  6
CONTINUOUS
 10
221.937007874
 20
20.595
  7
TEXTSTYLE_5
 40
1.5
  1
                                                                      Hjulmagervej 21, 7100 Vejle,  DK
 41
1.0
 72
0
  0
TEXT
  8
0
 62
5
  6
CONTINUOUS
 10
221.937007874
 20
17.881
  7
TEXTSTYLE_5
 40
1.495
  1
                                                                      tel: 
 41
1.0
 72
0
  0
TEXT
  8
0
 62
5
  6
CONTINUOUS
 10
266.9239544389
 20
17.881
  7
TEXTSTYLE_5
 40
1.51
  1
+45 75723100     fax: +45 75723348
 41
1.0
 72
0
  0
TEXT
  8
0
 62
5
  6
CONTINUOUS
 10
221.937007874
 20
15.177
  7
TEXTSTYLE_5
 40
1.5
  1
                                                                      admin@unichains.dk  www.unichains.com
 41
1.0
 72
0
  0
TEXT
  8
0
 62
5
  6
CONTINUOUS
 10
308.687007874
 20
13.75
  7
TEXTSTYLE_6
 40
5.0
  1
1:1
 41
0.7
 72
1
 11
313.937007874
 21
13.75
  0
TEXT
  8
0
 62
5
  6
CONTINUOUS
 10
326.937007874
 20
13.75
  7
TEXTSTYLE_7
 40
7.5
  1
uni CSB Car Pusher 35mm K600
 41
0.3880580357
 72
0
  0
LINE
  8
0
 62
7
  6
CONTINUOUS
 10
0.0
 20
0.0
 11
0.0
 21
297.0
  0
LINE
  8
0
 62
7
  6
CONTINUOUS
 10
8.937007874
 20
10.0
 11
8.937007874
 21
287.0
  0
LINE
  8
0
 62
7
  6
CONTINUOUS
 10
0.0
 20
0.0
 11
420.0
 21
0.0
  0
LINE
  8
0
 62
7
  6
CONTINUOUS
 10
408.937007874
 20
10.0
 11
8.937007874
 21
10.0
  0
LINE
  8
0
 62
7
  6
CONTINUOUS
 10
218.937007874
 20
30.0
 11
408.937007874
 21
30.0
  0
LINE
  8
0
 62
7
  6
CONTINUOUS
 10
210.0
 20
297.0
 11
210.0
 21
292.0
  0
LINE
  8
0
 62
7
  6
CONTINUOUS
 10
210.0
 20
0.0
 11
210.0
 21
5.0
  0
LINE
  8
0
 62
7
  6
CONTINUOUS
 10
8.937007874
 20
287.0
 11
408.937007874
 21
287.0
  0
LINE
  8
0
 62
7
  6
CONTINUOUS
 10
0.0
 20
297.0
 11
420.0
 21
297.0
  0
LINE
  8
0
 62
7
  6
CONTINUOUS
 10
408.937007874
 20
287.0
 11
408.937007874
 21
10.0
  0
LINE
  8
0
 62
7
  6
CONTINUOUS
 10
420.0
 20
0.0
 11
420.0
 21
297.0
  0
LINE
  8
0
 62
7
  6
CONTINUOUS
 10
60.6789473684
 20
97.6256640175
 11
60.6789473684
 21
150.8963592887
  0
POLYLINE
  8
0
 62
7
  6
CONTINUOUS
 66
1
 70
0
  0
VERTEX
  8
0
 62
7
  6
CONTINUOUS
 10
73.4712496393
 20
169.5573053588
  0
VERTEX
  8
0
 62
7
  6
CONTINUOUS
 10
73.4617394592
 20
169.3160537131
  0
VERTEX
  8
0
 62
7
  6
CONTINUOUS
 10
73.4521479954
 20
169.0459833326
  0
VERTEX
  8
0
 62
7
  6
CONTINUOUS
 10
73.4424802968
 20
168.7440513875
  0
VERTEX
  8
0
 62
7
  6
CONTINUOUS
 10
73.4327529929
 20
168.406935398
  0
VERTEX
  8
0
 62
7
  6
CONTINUOUS
 10
73.4229877151
 20
168.0307239006
  0
VERTEX
  8
0
 62
7
  6
CONTINUOUS
 10
73.4132205541
 20
167.6110951798
  0
VERTEX
  8
0
 62
7
  6
CONTINUOUS
 10
73.4035108303
 20
167.1436154664
  0
VERTEX
  8
0
 62
7
  6
CONTINUOUS
 10
73.3939538962
 20
166.6244885743
  0
VERTEX
  8
0
 62
7
  6
CONTINUOUS
 10
73.3846707178
 20
166.0503484576
  0
VERTEX
  8
0
 62
7
  6
CONTINUOUS
 10
73.3758055431
 20
165.4183134514
  0
VERTEX
  8
0
 62
7
  6
CONTINUOUS
 10
73.3675269424
 20
164.7262735851
  0
VERTEX
  8
0
 62
7
  6
CONTINUOUS
 10
73.360023933
 20
163.9728512107
  0
VERTEX
  8
0
 62
7
  6
CONTINUOUS
 10
73.3534926755
 20
163.1557271964
  0
VERTEX
  8
0
 62
7
  6
CONTINUOUS
 10
73.3481483652
 20
162.270759583
  0
VERTEX
  8
0
 62
7
  6
CONTINUOUS
 10
73.3442615035
 20
161.3147861821
  0
VERTEX
  8
0
 62
7
  6
CONTINUOUS
 10
73.3421634833
 20
160.2864226977
  0
VERTEX
  8
0
 62
7
  6
CONTINUOUS
 10
73.3419050875
 20
152.9001359683
  0
SEQEND
  0
POLYLINE
  8
0
 62
7
  6
CONTINUOUS
 66
1
 70
0
  0
VERTEX
  8
0
 62
7
  6
CONTINUOUS
 10
73.3419035795
 20
152.9001359684
  0
VERTEX
  8
0
 62
7
  6
CONTINUOUS
 10
73.317257752
 20
152.6794246119
  0
VERTEX
  8
0
 62
7
  6
CONTINUOUS
 10
73.2320833776
 20
152.4443809437
  0
VERTEX
  8
0
 62
7
  6
CONTINUOUS
 10
73.0908323087
 20
152.2372473939
  0
VERTEX
  8
0
 62
7
  6
CONTINUOUS
 10
72.9045208107
 20
152.0730593507
  0
VERTEX
  8
0
 62
7
  6
CONTINUOUS
 10
72.6586719584
 20
151.9510284721
  0
VERTEX
  8
0
 62
7
  6
CONTINUOUS
 10
72.3978836158
 20
151.8977535096
  0
SEQEND
  0
POLYLINE
  8
0
 62
7
  6
CONTINUOUS
 66
1
 70
0
  0
VERTEX
  8
0
 62
7
  6
CONTINUOUS
 10
72.8866707931
 20
98.8446285522
  0
VERTEX
  8
0
 62
7
  6
CONTINUOUS
 10
72.8961798007
 20
99.0859173659
  0
VERTEX
  8
0
 62
7
  6
CONTINUOUS
 10
72.9057700392
 20
99.3560230872
  0
VERTEX
  8
0
 62
7
  6
CONTINUOUS
 10
72.9154363853
 20
99.6579859797
  0
VERTEX
  8
0
 62
7
  6
CONTINUOUS
 10
72.9251621688
 20
99.9951261147
  0
VERTEX
  8
0
 62
7
  6
CONTINUOUS
 10
72.9349257808
 20
100.3713542701
  0
VERTEX
  8
0
 62
7
  6
CONTINUOUS
 10
72.944691153
 20
100.7909913906
  0
VERTEX
  8
0
 62
7
  6
CONTINUOUS
 10
72.9543989821
 20
101.2584700047
  0
VERTEX
  8
0
 62
7
  6
CONTINUOUS
 10
72.96395394
 20
101.7775849184
  0
VERTEX
  8
0
 62
7
  6
CONTINUOUS
 10
72.9732351081
 20
102.3517017634
  0
VERTEX
  8
0
 62
7
  6
CONTINUOUS
 10
72.9820982696
 20
102.9837006182
  0
VERTEX
  8
0
 62
7
  6
CONTINUOUS
 10
72.9903748806
 20
103.6756884277
  0
VERTEX
  8
0
 62
7
  6
CONTINUOUS
 10
72.9978759734
 20
104.4290400034
  0
VERTEX
  8
0
 62
7
  6
CONTINUOUS
 10
73.0044054762
 20
105.2460744166
  0
VERTEX
  8
0
 62
7
  6
CONTINUOUS
 10
73.0097482777
 20
106.1309320961
  0
VERTEX
  8
0
 62
7
  6
CONTINUOUS
 10
73.0136339836
 20
107.0867734314
  0
VERTEX
  8
0
 62
7
  6
CONTINUOUS
 10
73.0157313434
 20
108.1149819104
  0
VERTEX
  8
0
 62
7
  6
CONTINUOUS
 10
73.0159896493
 20
115.5011796918
  0
SEQEND
  0
POLYLINE
  8
0
 62
7
  6
CONTINUOUS
 66
1
 70
0
  0
VERTEX
  8
0
 62
7
  6
CONTINUOUS
 10
73.0159910446
 20
115.5011796917
  0
VERTEX
  8
0
 62
7
  6
CONTINUOUS
 10
73.0406224753
 20
115.7218277826
  0
VERTEX
  8
0
 62
7
  6
CONTINUOUS
 10
73.1257514805
 20
115.9568180039
  0
VERTEX
  8
0
 62
7
  6
CONTINUOUS
 10
73.2669666991
 20
116.1639599125
  0
VERTEX
  8
0
 62
7
  6
CONTINUOUS
 10
73.4532623707
 20
116.3281804313
  0
VERTEX
  8
0
 62
7
  6
CONTINUOUS
 10
73.6985434229
 20
116.4500592635
  0
VERTEX
  8
0
 62
7
  6
CONTINUOUS
 10
73.9599953028
 20
116.5035597526
  0
SEQEND
  0
POLYLINE
  8
0
 62
7
  6
CONTINUOUS
 66
1
 70
0
  0
VERTEX
  8
0
 62
7
  6
CONTINUOUS
 10
85.7159896467
 20
159.7756578947
  0
VERTEX
  8
0
 62
7
  6
CONTINUOUS
 10
85.7149462664
 20
160.8012260133
  0
VERTEX
  8
0
 62
7
  6
CONTINUOUS
 10
85.7119612655
 20
161.7845457839
  0
VERTEX
  8
0
 62
7
  6
CONTINUOUS
 10
85.7073853208
 20
162.6975251743
  0
VERTEX
  8
0
 62
7
  6
CONTINUOUS
 10
85.7015143215
 20
163.5418852296
  0
VERTEX
  8
0
 62
7
  6
CONTINUOUS
 10
85.6945901963
 20
164.3208716835
  0
VERTEX
  8
0
 62
7
  6
CONTINUOUS
 10
85.6868099989
 20
165.0381955419
  0
VERTEX
  8
0
 62
7
  6
CONTINUOUS
 10
85.6783468277
 20
165.6967504941
  0
VERTEX
  8
0
 62
7
  6
CONTINUOUS
 10
85.6693463941
 20
166.2996816376
  0
VERTEX
  8
0
 62
7
  6
CONTINUOUS
 10
85.6599289096
 20
166.8503452782
  0
VERTEX
  8
0
 62
7
  6
CONTINUOUS
 10
85.6501966539
 20
167.3519425237
  0
VERTEX
  8
0
 62
7
  6
CONTINUOUS
 10
85.6402324988
 20
167.8077187543
  0
VERTEX
  8
0
 62
7
  6
CONTINUOUS
 10
85.6301009657
 20
168.2209171937
  0
VERTEX
  8
0
 62
7
  6
CONTINUOUS
 10
85.6198533121
 20
168.5945841658
  0
VERTEX
  8
0
 62
7
  6
CONTINUOUS
 10
85.6095282423
 20
168.9315941811
  0
VERTEX
  8
0
 62
7
  6
CONTINUOUS
 10
85.5991506964
 20
169.2347028266
  0
VERTEX
  8
0
 62
7
  6
CONTINUOUS
 10
85.5887338153
 20
169.5064755739
  0
VERTEX
  8
0
 62
7
  6
CONTINUOUS
 10
85.5783097625
 20
169.7486119881
  0
VERTEX
  8
0
 62
7
  6
CONTINUOUS
 10
85.5679282474
 20
169.9623525549
  0
VERTEX
  8
0
 62
7
  6
CONTINUOUS
 10
85.5576263199
 20
170.1492687174
  0
VERTEX
  8
0
 62
7
  6
CONTINUOUS
 10
85.5474196417
 20
170.3112939312
  0
VERTEX
  8
0
 62
7
  6
CONTINUOUS
 10
85.537302627
 20
170.450565995
  0
VERTEX
  8
0
 62
7
  6
CONTINUOUS
 10
85.5272593265
 20
170.5692062173
  0
VERTEX
  8
0
 62
7
  6
CONTINUOUS
 10
85.5171704734
 20
170.6702402336
  0
VERTEX
  8
0
 62
7
  6
CONTINUOUS
 10
85.5066600124
 20
170.7581378002
  0
VERTEX
  8
0
 62
7
  6
CONTINUOUS
 10
85.4949629072
 20
170.8382159029
  0
VERTEX
  8
0
 62
7
  6
CONTINUOUS
 10
85.4806645562
 20
170.9163279363
  0
VERTEX
  8
0
 62
7
  6
CONTINUOUS
 10
85.4605780778
 20
171.0011477347
  0
VERTEX
  8
0
 62
7
  6
CONTINUOUS
 10
85.4269163796
 20
171.1063996954
  0
VERTEX
  8
0
 62
7
  6
CONTINUOUS
 10
85.3670392767
 20
171.2390969734
  0
VERTEX
  8
0
 62
7
  6
CONTINUOUS
 10
85.2721765909
 20
171.3851114631
  0
VERTEX
  8
0
 62
7
  6
CONTINUOUS
 10
85.1295227384
 20
171.5344665474
  0
VERTEX
  8
0
 62
7
  6
CONTINUOUS
 10
84.9262011592
 20
171.6692300503
  0
VERTEX
  8
0
 62
7
  6
CONTINUOUS
 10
84.6797120696
 20
171.7547949932
  0
VERTEX
  8
0
 62
7
  6
CONTINUOUS
 10
84.4759674267
 20
171.7756578938
  0
SEQEND
  0
LINE
  8
0
 62
7
  6
CONTINUOUS
 10
85.7159896493
 20
159.7756578947
 11
85.7159896493
 21
152.9001359789
  0
POLYLINE
  8
0
 62
7
  6
CONTINUOUS
 66
1
 70
0
  0
VERTEX
  8
0
 62
7
  6
CONTINUOUS
 10
86.0419050901
 20
108.6256578947
  0
VERTEX
  8
0
 62
7
  6
CONTINUOUS
 10
86.0429477209
 20
107.6004573765
  0
VERTEX
  8
0
 62
7
  6
CONTINUOUS
 10
86.0459307134
 20
106.6174520125
  0
VERTEX
  8
0
 62
7
  6
CONTINUOUS
 10
86.0505037383
 20
105.7047372893
  0
VERTEX
  8
0
 62
7
  6
CONTINUOUS
 10
86.0563711754
 20
104.8605955796
  0
VERTEX
  8
0
 62
7
  6
CONTINUOUS
 10
86.0632912908
 20
104.0817860948
  0
VERTEX
  8
0
 62
7
  6
CONTINUOUS
 10
86.0710671934
 20
103.3646006888
  0
VERTEX
  8
0
 62
7
  6
CONTINUOUS
 10
86.0795259233
 20
102.7061483597
  0
VERTEX
  8
0
 62
7
  6
CONTINUOUS
 10
86.0885218592
 20
102.1032883631
  0
VERTEX
  8
0
 62
7
  6
CONTINUOUS
 10
86.0979348643
 20
101.5526677622
  0
VERTEX
  8
0
 62
7
  6
CONTINUOUS
 10
86.1076627133
 20
101.0510887403
  0
VERTEX
  8
0
 62
7
  6
CONTINUOUS
 10
86.1176225572
 20
100.5953095961
  0
VERTEX
  8
0
 62
7
  6
CONTINUOUS
 10
86.1277498828
 20
100.1820902316
  0
VERTEX
  8
0
 62
7
  6
CONTINUOUS
 10
86.137993441
 20
99.8083865891
  0
VERTEX
  8
0
 62
7
  6
CONTINUOUS
 10
86.1483145072
 20
99.4713267627
  0
VERTEX
  8
0
 62
7
  6
CONTINUOUS
 10
86.1586881022
 20
99.1681574942
  0
VERTEX
  8
0
 62
7
  6
CONTINUOUS
 10
86.1691010809
 20
98.8963139962
  0
VERTEX
  8
0
 62
7
  6
CONTINUOUS
 10
86.1795215103
 20
98.654092472
  0
VERTEX
  8
0
 62
7
  6
CONTINUOUS
 10
86.1898997045
 20
98.4402549604
  0
VERTEX
  8
0
 62
7
  6
CONTINUOUS
 10
86.2001985493
 20
98.2532339413
  0
VERTEX
  8
0
 62
7
  6
CONTINUOUS
 10
86.2104022243
 20
98.0911003642
  0
VERTEX
  8
0
 62
7
  6
CONTINUOUS
 10
86.2205162581
 20
97.9517183919
  0
VERTEX
  8
0
 62
7
  6
CONTINUOUS
 10
86.2305563109
 20
97.8329714064
  0
VERTEX
  8
0
 62
7
  6
CONTINUOUS
 10
86.2406400527
 20
97.7318483716
  0
VERTEX
  8
0
 62
7
  6
CONTINUOUS
 10
86.2511406854
 20
97.6438929104
  0
VERTEX
  8
0
 62
7
  6
CONTINUOUS
 10
86.2628183116
 20
97.5637991378
  0
VERTEX
  8
0
 62
7
  6
CONTINUOUS
 10
86.2770774257
 20
97.4857300176
  0
VERTEX
  8
0
 62
7
  6
CONTINUOUS
 10
86.2970750349
 20
97.4010626154
  0
VERTEX
  8
0
 62
7
  6
CONTINUOUS
 10
86.3305341294
 20
97.2961089908
  0
VERTEX
  8
0
 62
7
  6
CONTINUOUS
 10
86.3900627807
 20
97.1637000546
  0
VERTEX
  8
0
 62
7
  6
CONTINUOUS
 10
86.4844497468
 20
97.0178392055
  0
VERTEX
  8
0
 62
7
  6
CONTINUOUS
 10
86.6264461737
 20
96.8684966414
  0
VERTEX
  8
0
 62
7
  6
CONTINUOUS
 10
86.8291305553
 20
96.7333732427
  0
VERTEX
  8
0
 62
7
  6
CONTINUOUS
 10
87.0751971104
 20
96.6471433926
  0
VERTEX
  8
0
 62
7
  6
CONTINUOUS
 10
87.2819273039
 20
96.6256578956
  0
SEQEND
  0
LINE
  8
0
 62
7
  6
CONTINUOUS
 10
86.0419050875
 20
108.6256578947
 11
86.0419050875
 21
115.5011796573
  0
POLYLINE
  8
0
 62
7
  6
CONTINUOUS
 66
1
 70
0
  0
VERTEX
  8
0
 62
7
  6
CONTINUOUS
 10
98.8712496393
 20
169.5573053588
  0
VERTEX
  8
0
 62
7
  6
CONTINUOUS
 10
98.8617394592
 20
169.3160537131
  0
VERTEX
  8
0
 62
7
  6
CONTINUOUS
 10
98.8521479954
 20
169.0459833326
  0
VERTEX
  8
0
 62
7
  6
CONTINUOUS
 10
98.8424802968
 20
168.7440513875
  0
VERTEX
  8
0
 62
7
  6
CONTINUOUS
 10
98.8327529929
 20
168.406935398
  0
VERTEX
  8
0
 62
7
  6
CONTINUOUS
 10
98.8229877151
 20
168.0307239006
  0
VERTEX
  8
0
 62
7
  6
CONTINUOUS
 10
98.8132205541
 20
167.6110951798
  0
VERTEX
  8
0
 62
7
  6
CONTINUOUS
 10
98.8035108303
 20
167.1436154664
  0
VERTEX
  8
0
 62
7
  6
CONTINUOUS
 10
98.7939538962
 20
166.6244885743
  0
VERTEX
  8
0
 62
7
  6
CONTINUOUS
 10
98.7846707178
 20
166.0503484576
  0
VERTEX
  8
0
 62
7
  6
CONTINUOUS
 10
98.7758055431
 20
165.4183134514
  0
VERTEX
  8
0
 62
7
  6
CONTINUOUS
 10
98.7675269424
 20
164.7262735851
  0
VERTEX
  8
0
 62
7
  6
CONTINUOUS
 10
98.760023933
 20
163.9728512107
  0
VERTEX
  8
0
 62
7
  6
CONTINUOUS
 10
98.7534926755
 20
163.1557271964
  0
VERTEX
  8
0
 62
7
  6
CONTINUOUS
 10
98.7481483652
 20
162.270759583
  0
VERTEX
  8
0
 62
7
  6
CONTINUOUS
 10
98.7442615035
 20
161.3147861821
  0
VERTEX
  8
0
 62
7
  6
CONTINUOUS
 10
98.7421634833
 20
160.2864226977
  0
VERTEX
  8
0
 62
7
  6
CONTINUOUS
 10
98.7419050875
 20
152.9001359683
  0
SEQEND
  0
POLYLINE
  8
0
 62
7
  6
CONTINUOUS
 66
1
 70
0
  0
VERTEX
  8
0
 62
7
  6
CONTINUOUS
 10
98.7419035795
 20
152.9001359683
  0
VERTEX
  8
0
 62
7
  6
CONTINUOUS
 10
98.7172577519
 20
152.6794246117
  0
VERTEX
  8
0
 62
7
  6
CONTINUOUS
 10
98.6320833774
 20
152.4443809434
  0
VERTEX
  8
0
 62
7
  6
CONTINUOUS
 10
98.4908323083
 20
152.2372473934
  0
VERTEX
  8
0
 62
7
  6
CONTINUOUS
 10
98.3045208101
 20
152.0730593502
  0
VERTEX
  8
0
 62
7
  6
CONTINUOUS
 10
98.0586719519
 20
151.9510284699
  0
VERTEX
  8
0
 62
7
  6
CONTINUOUS
 10
97.7978836158
 20
151.8977535096
  0
SEQEND
  0
POLYLINE
  8
0
 62
7
  6
CONTINUOUS
 66
1
 70
0
  0
VERTEX
  8
0
 62
7
  6
CONTINUOUS
 10
98.2866450976
 20
98.8440104307
  0
VERTEX
  8
0
 62
7
  6
CONTINUOUS
 10
98.2961552776
 20
99.0852620764
  0
VERTEX
  8
0
 62
7
  6
CONTINUOUS
 10
98.3057467414
 20
99.3553324569
  0
VERTEX
  8
0
 62
7
  6
CONTINUOUS
 10
98.31541444
 20
99.6572644019
  0
VERTEX
  8
0
 62
7
  6
CONTINUOUS
 10
98.325141744
 20
99.9943803915
  0
VERTEX
  8
0
 62
7
  6
CONTINUOUS
 10
98.3349070218
 20
100.3705918888
  0
VERTEX
  8
0
 62
7
  6
CONTINUOUS
 10
98.3446741827
 20
100.7902206097
  0
VERTEX
  8
0
 62
7
  6
CONTINUOUS
 10
98.3543839065
 20
101.2577003231
  0
VERTEX
  8
0
 62
7
  6
CONTINUOUS
 10
98.3639408406
 20
101.7768272152
  0
VERTEX
  8
0
 62
7
  6
CONTINUOUS
 10
98.3732240191
 20
102.3509673318
  0
VERTEX
  8
0
 62
7
  6
CONTINUOUS
 10
98.3820891937
 20
102.983002338
  0
VERTEX
  8
0
 62
7
  6
CONTINUOUS
 10
98.3903677945
 20
103.6750422044
  0
VERTEX
  8
0
 62
7
  6
CONTINUOUS
 10
98.3978708038
 20
104.4284645788
  0
VERTEX
  8
0
 62
7
  6
CONTINUOUS
 10
98.4044020613
 20
105.245588593
  0
VERTEX
  8
0
 62
7
  6
CONTINUOUS
 10
98.4097463717
 20
106.1305562065
  0
VERTEX
  8
0
 62
7
  6
CONTINUOUS
 10
98.4136332334
 20
107.0865296074
  0
VERTEX
  8
0
 62
7
  6
CONTINUOUS
 10
98.4157312536
 20
108.1148930918
  0
VERTEX
  8
0
 62
7
  6
CONTINUOUS
 10
98.4159896493
 20
115.5011796918
  0
SEQEND
  0
POLYLINE
  8
0
 62
7
  6
CONTINUOUS
 66
1
 70
0
  0
VERTEX
  8
0
 62
7
  6
CONTINUOUS
 10
98.4159910447
 20
115.5011796918
  0
VERTEX
  8
0
 62
7
  6
CONTINUOUS
 10
98.4406224763
 20
115.7218277871
  0
VERTEX
  8
0
 62
7
  6
CONTINUOUS
 10
98.525751482
 20
115.9568180066
  0
VERTEX
  8
0
 62
7
  6
CONTINUOUS
 10
98.6669667001
 20
116.1639599136
  0
VERTEX
  8
0
 62
7
  6
CONTINUOUS
 10
98.8532623707
 20
116.3281804312
  0
VERTEX
  8
0
 62
7
  6
CONTINUOUS
 10
99.0985434238
 20
116.4500592638
  0
VERTEX
  8
0
 62
7
  6
CONTINUOUS
 10
99.3599953029
 20
116.5035597526
  0
SEQEND
  0
POLYLINE
  8
0
 62
7
  6
CONTINUOUS
 66
1
 70
0
  0
VERTEX
  8
0
 62
7
  6
CONTINUOUS
 10
173.3759674528
 20
96.6256578956
  0
VERTEX
  8
0
 62
7
  6
CONTINUOUS
 10
173.4539393935
 20
96.6286863059
  0
VERTEX
  8
0
 62
7
  6
CONTINUOUS
 10
173.7075898631
 20
96.6819237657
  0
VERTEX
  8
0
 62
7
  6
CONTINUOUS
 10
173.9348584267
 20
96.7952374867
  0
VERTEX
  8
0
 62
7
  6
CONTINUOUS
 10
174.1098869083
 20
96.9434134601
  0
VERTEX
  8
0
 62
7
  6
CONTINUOUS
 10
174.2269004865
 20
97.093745979
  0
VERTEX
  8
0
 62
7
  6
CONTINUOUS
 10
174.2992527878
 20
97.2276201652
  0
VERTEX
  8
0
 62
7
  6
CONTINUOUS
 10
174.3429165898
 20
97.3407735779
  0
VERTEX
  8
0
 62
7
  6
CONTINUOUS
 10
174.3691194336
 20
97.4334564374
  0
VERTEX
  8
0
 62
7
  6
CONTINUOUS
 10
174.3861121493
 20
97.5125907156
  0
VERTEX
  8
0
 62
7
  6
CONTINUOUS
 10
174.3986455936
 20
97.5865184046
  0
VERTEX
  8
0
 62
7
  6
CONTINUOUS
 10
174.4090609459
 20
97.6618180948
  0
VERTEX
  8
0
 62
7
  6
CONTINUOUS
 10
174.4184965234
 20
97.7433782679
  0
VERTEX
  8
0
 62
7
  6
CONTINUOUS
 10
174.4274922414
 20
97.8346505228
  0
VERTEX
  8
0
 62
7
  6
CONTINUOUS
 10
174.4363272185
 20
97.9383934063
  0
VERTEX
  8
0
 62
7
  6
CONTINUOUS
 10
174.4451800462
 20
98.0574098844
  0
VERTEX
  8
0
 62
7
  6
CONTINUOUS
 10
174.4541554779
 20
98.1944361621
  0
VERTEX
  8
0
 62
7
  6
CONTINUOUS
 10
174.463285071
 20
98.3517137785
  0
VERTEX
  8
0
 62
7
  6
CONTINUOUS
 10
174.4725572521
 20
98.5310156964
  0
VERTEX
  8
0
 62
7
  6
CONTINUOUS
 10
174.4866707931
 20
98.8446285522
  0
SEQEND
  0
POLYLINE
  8
0
 62
7
  6
CONTINUOUS
 66
1
 70
0
  0
VERTEX
  8
0
 62
7
  6
CONTINUOUS
 10
122.5759674528
 20
96.6256578956
  0
VERTEX
  8
0
 62
7
  6
CONTINUOUS
 10
122.6539393935
 20
96.6286863059
  0
VERTEX
  8
0
 62
7
  6
CONTINUOUS
 10
122.9075898631
 20
96.6819237657
  0
VERTEX
  8
0
 62
7
  6
CONTINUOUS
 10
123.1348584267
 20
96.7952374867
  0
VERTEX
  8
0
 62
7
  6
CONTINUOUS
 10
123.3098869083
 20
96.9434134601
  0
VERTEX
  8
0
 62
7
  6
CONTINUOUS
 10
123.4269004865
 20
97.093745979
  0
VERTEX
  8
0
 62
7
  6
CONTINUOUS
 10
123.4992527878
 20
97.2276201652
  0
VERTEX
  8
0
 62
7
  6
CONTINUOUS
 10
123.5429165898
 20
97.3407735779
  0
VERTEX
  8
0
 62
7
  6
CONTINUOUS
 10
123.5691194336
 20
97.4334564374
  0
VERTEX
  8
0
 62
7
  6
CONTINUOUS
 10
123.5861121493
 20
97.5125907156
  0
VERTEX
  8
0
 62
7
  6
CONTINUOUS
 10
123.5986455936
 20
97.5865184046
  0
VERTEX
  8
0
 62
7
  6
CONTINUOUS
 10
123.6090609459
 20
97.6618180948
  0
VERTEX
  8
0
 62
7
  6
CONTINUOUS
 10
123.6184965234
 20
97.7433782679
  0
VERTEX
  8
0
 62
7
  6
CONTINUOUS
 10
123.6274922414
 20
97.8346505228
  0
VERTEX
  8
0
 62
7
  6
CONTINUOUS
 10
123.6363272184
 20
97.9383934063
  0
VERTEX
  8
0
 62
7
  6
CONTINUOUS
 10
123.6451800462
 20
98.0574098844
  0
VERTEX
  8
0
 62
7
  6
CONTINUOUS
 10
123.6541554779
 20
98.1944361621
  0
VERTEX
  8
0
 62
7
  6
CONTINUOUS
 10
123.663285071
 20
98.3517137785
  0
VERTEX
  8
0
 62
7
  6
CONTINUOUS
 10
123.6725572521
 20
98.5310156964
  0
VERTEX
  8
0
 62
7
  6
CONTINUOUS
 10
123.6866707931
 20
98.8446285522
  0
SEQEND
  0
POLYLINE
  8
0
 62
7
  6
CONTINUOUS
 66
1
 70
0
  0
VERTEX
  8
0
 62
7
  6
CONTINUOUS
 10
198.7759674432
 20
96.6256578956
  0
VERTEX
  8
0
 62
7
  6
CONTINUOUS
 10
198.8509482196
 20
96.6284580892
  0
VERTEX
  8
0
 62
7
  6
CONTINUOUS
 10
199.1050064085
 20
96.6810252096
  0
VERTEX
  8
0
 62
7
  6
CONTINUOUS
 10
199.3328770336
 20
96.7939175508
  0
VERTEX
  8
0
 62
7
  6
CONTINUOUS
 10
199.5086147281
 20
96.9420636342
  0
VERTEX
  8
0
 62
7
  6
CONTINUOUS
 10
199.6262025144
 20
97.0926548239
  0
VERTEX
  8
0
 62
7
  6
CONTINUOUS
 10
199.6988531127
 20
97.2267344774
  0
VERTEX
  8
0
 62
7
  6
CONTINUOUS
 10
199.7427032582
 20
97.3401188363
  0
VERTEX
  8
0
 62
7
  6
CONTINUOUS
 10
199.7690051272
 20
97.4329866259
  0
VERTEX
  8
0
 62
7
  6
CONTINUOUS
 10
199.7860408956
 20
97.512213863
  0
VERTEX
  8
0
 62
7
  6
CONTINUOUS
 10
199.7985938055
 20
97.5861782996
  0
VERTEX
  8
0
 62
7
  6
CONTINUOUS
 10
199.8090189261
 20
97.6614848469
  0
VERTEX
  8
0
 62
7
  6
CONTINUOUS
 10
199.8184599277
 20
97.7430349046
  0
VERTEX
  8
0
 62
7
  6
CONTINUOUS
 10
199.8274589002
 20
97.8342861967
  0
VERTEX
  8
0
 62
7
  6
CONTINUOUS
 10
199.8362958318
 20
97.937998852
  0
VERTEX
  8
0
 62
7
  6
CONTINUOUS
 10
199.8451498843
 20
98.0569777126
  0
VERTEX
  8
0
 62
7
  6
CONTINUOUS
 10
199.854126225
 20
98.1939617687
  0
VERTEX
  8
0
 62
7
  6
CONTINUOUS
 10
199.8632567197
 20
98.3511963591
  0
VERTEX
  8
0
 62
7
  6
CONTINUOUS
 10
199.8725298752
 20
98.5304560932
  0
VERTEX
  8
0
 62
7
  6
CONTINUOUS
 10
199.8866450976
 20
98.8440104307
  0
SEQEND
  0
POLYLINE
  8
0
 62
7
  6
CONTINUOUS
 66
1
 70
0
  0
VERTEX
  8
0
 62
7
  6
CONTINUOUS
 10
147.9759674432
 20
96.6256578956
  0
VERTEX
  8
0
 62
7
  6
CONTINUOUS
 10
148.0509482196
 20
96.6284580892
  0
VERTEX
  8
0
 62
7
  6
CONTINUOUS
 10
148.3050064085
 20
96.6810252096
  0
VERTEX
  8
0
 62
7
  6
CONTINUOUS
 10
148.5328770336
 20
96.7939175508
  0
VERTEX
  8
0
 62
7
  6
CONTINUOUS
 10
148.7086147281
 20
96.9420636342
  0
VERTEX
  8
0
 62
7
  6
CONTINUOUS
 10
148.8262025144
 20
97.0926548239
  0
VERTEX
  8
0
 62
7
  6
CONTINUOUS
 10
148.8988531127
 20
97.2267344774
  0
VERTEX
  8
0
 62
7
  6
CONTINUOUS
 10
148.9427032582
 20
97.3401188363
  0
VERTEX
  8
0
 62
7
  6
CONTINUOUS
 10
148.9690051272
 20
97.4329866259
  0
VERTEX
  8
0
 62
7
  6
CONTINUOUS
 10
148.9860408956
 20
97.512213863
  0
VERTEX
  8
0
 62
7
  6
CONTINUOUS
 10
148.9985938055
 20
97.5861782996
  0
VERTEX
  8
0
 62
7
  6
CONTINUOUS
 10
149.0090189261
 20
97.6614848469
  0
VERTEX
  8
0
 62
7
  6
CONTINUOUS
 10
149.0184599277
 20
97.7430349046
  0
VERTEX
  8
0
 62
7
  6
CONTINUOUS
 10
149.0274589002
 20
97.8342861967
  0
VERTEX
  8
0
 62
7
  6
CONTINUOUS
 10
149.0362958318
 20
97.937998852
  0
VERTEX
  8
0
 62
7
  6
CONTINUOUS
 10
149.0451498843
 20
98.0569777126
  0
VERTEX
  8
0
 62
7
  6
CONTINUOUS
 10
149.054126225
 20
98.1939617687
  0
VERTEX
  8
0
 62
7
  6
CONTINUOUS
 10
149.0632567197
 20
98.3511963591
  0
VERTEX
  8
0
 62
7
  6
CONTINUOUS
 10
149.0725298752
 20
98.5304560932
  0
VERTEX
  8
0
 62
7
  6
CONTINUOUS
 10
149.0866450976
 20
98.8440104307
  0
SEQEND
  0
POLYLINE
  8
0
 62
7
  6
CONTINUOUS
 66
1
 70
0
  0
VERTEX
  8
0
 62
7
  6
CONTINUOUS
 10
97.1759674432
 20
96.6256578956
  0
VERTEX
  8
0
 62
7
  6
CONTINUOUS
 10
97.2509482196
 20
96.6284580892
  0
VERTEX
  8
0
 62
7
  6
CONTINUOUS
 10
97.5050064085
 20
96.6810252096
  0
VERTEX
  8
0
 62
7
  6
CONTINUOUS
 10
97.7328770336
 20
96.7939175508
  0
VERTEX
  8
0
 62
7
  6
CONTINUOUS
 10
97.9086147281
 20
96.9420636342
  0
VERTEX
  8
0
 62
7
  6
CONTINUOUS
 10
98.0262025144
 20
97.0926548239
  0
VERTEX
  8
0
 62
7
  6
CONTINUOUS
 10
98.0988531127
 20
97.2267344774
  0
VERTEX
  8
0
 62
7
  6
CONTINUOUS
 10
98.1427032582
 20
97.3401188363
  0
VERTEX
  8
0
 62
7
  6
CONTINUOUS
 10
98.1690051272
 20
97.4329866259
  0
VERTEX
  8
0
 62
7
  6
CONTINUOUS
 10
98.1860408956
 20
97.512213863
  0
VERTEX
  8
0
 62
7
  6
CONTINUOUS
 10
98.1985938055
 20
97.5861782996
  0
VERTEX
  8
0
 62
7
  6
CONTINUOUS
 10
98.2090189261
 20
97.6614848469
  0
VERTEX
  8
0
 62
7
  6
CONTINUOUS
 10
98.2184599277
 20
97.7430349046
  0
VERTEX
  8
0
 62
7
  6
CONTINUOUS
 10
98.2274589002
 20
97.8342861967
  0
VERTEX
  8
0
 62
7
  6
CONTINUOUS
 10
98.2362958318
 20
97.937998852
  0
VERTEX
  8
0
 62
7
  6
CONTINUOUS
 10
98.2451498843
 20
98.0569777126
  0
VERTEX
  8
0
 62
7
  6
CONTINUOUS
 10
98.254126225
 20
98.1939617687
  0
VERTEX
  8
0
 62
7
  6
CONTINUOUS
 10
98.2632567197
 20
98.3511963591
  0
VERTEX
  8
0
 62
7
  6
CONTINUOUS
 10
98.2725298752
 20
98.5304560932
  0
VERTEX
  8
0
 62
7
  6
CONTINUOUS
 10
98.2866450976
 20
98.8440104307
  0
SEQEND
  0
LINE
  8
SURF
 62
7
  6
CONTINUOUS
 10
198.7759687959
 20
96.6256578947
 11
188.8819256569
 21
96.6256578947
  0
LINE
  8
SURF
 62
7
  6
CONTINUOUS
 10
173.3759690799
 20
96.6256578947
 11
163.481925941
 21
96.6256578947
  0
LINE
  8
SURF
 62
7
  6
CONTINUOUS
 10
147.9759687959
 20
96.6256578947
 11
138.0819256569
 21
96.6256578947
  0
LINE
  8
SURF
 62
7
  6
CONTINUOUS
 10
122.5759690799
 20
96.6256578947
 11
112.681925941
 21
96.6256578947
  0
LINE
  8
SURF
 62
7
  6
CONTINUOUS
 10
97.1759687959
 20
96.6256578947
 11
87.2819256569
 21
96.6256578947
  0
LINE
  8
SURF
 62
7
  6
CONTINUOUS
 10
71.7759690799
 20
96.6256578947
 11
61.6789473684
 21
96.6256578947
  0
POLYLINE
  8
0
 62
7
  6
CONTINUOUS
 66
1
 70
0
  0
VERTEX
  8
0
 62
7
  6
CONTINUOUS
 10
71.7759674528
 20
96.6256578956
  0
VERTEX
  8
0
 62
7
  6
CONTINUOUS
 10
71.8539393935
 20
96.6286863059
  0
VERTEX
  8
0
 62
7
  6
CONTINUOUS
 10
72.1075898631
 20
96.6819237657
  0
VERTEX
  8
0
 62
7
  6
CONTINUOUS
 10
72.3348584267
 20
96.7952374867
  0
VERTEX
  8
0
 62
7
  6
CONTINUOUS
 10
72.5098869083
 20
96.9434134601
  0
VERTEX
  8
0
 62
7
  6
CONTINUOUS
 10
72.6269004865
 20
97.093745979
  0
VERTEX
  8
0
 62
7
  6
CONTINUOUS
 10
72.6992527878
 20
97.2276201652
  0
VERTEX
  8
0
 62
7
  6
CONTINUOUS
 10
72.7429165898
 20
97.3407735779
  0
VERTEX
  8
0
 62
7
  6
CONTINUOUS
 10
72.7691194336
 20
97.4334564374
  0
VERTEX
  8
0
 62
7
  6
CONTINUOUS
 10
72.7861121493
 20
97.5125907156
  0
VERTEX
  8
0
 62
7
  6
CONTINUOUS
 10
72.7986455936
 20
97.5865184046
  0
VERTEX
  8
0
 62
7
  6
CONTINUOUS
 10
72.8090609459
 20
97.6618180948
  0
VERTEX
  8
0
 62
7
  6
CONTINUOUS
 10
72.8184965234
 20
97.7433782679
  0
VERTEX
  8
0
 62
7
  6
CONTINUOUS
 10
72.8274922414
 20
97.8346505228
  0
VERTEX
  8
0
 62
7
  6
CONTINUOUS
 10
72.8363272184
 20
97.9383934063
  0
VERTEX
  8
0
 62
7
  6
CONTINUOUS
 10
72.8451800462
 20
98.0574098844
  0
VERTEX
  8
0
 62
7
  6
CONTINUOUS
 10
72.8541554779
 20
98.1944361621
  0
VERTEX
  8
0
 62
7
  6
CONTINUOUS
 10
72.863285071
 20
98.3517137785
  0
VERTEX
  8
0
 62
7
  6
CONTINUOUS
 10
72.8725572521
 20
98.5310156964
  0
VERTEX
  8
0
 62
7
  6
CONTINUOUS
 10
72.8866707931
 20
98.8446285522
  0
SEQEND
  0
POLYLINE
  8
0
 62
7
  6
CONTINUOUS
 66
1
 70
0
  0
VERTEX
  8
0
 62
7
  6
CONTINUOUS
 10
111.1159896467
 20
159.7756578947
  0
VERTEX
  8
0
 62
7
  6
CONTINUOUS
 10
111.1149462664
 20
160.8012260133
  0
VERTEX
  8
0
 62
7
  6
CONTINUOUS
 10
111.1119612655
 20
161.7845457839
  0
VERTEX
  8
0
 62
7
  6
CONTINUOUS
 10
111.1073853208
 20
162.6975251743
  0
VERTEX
  8
0
 62
7
  6
CONTINUOUS
 10
111.1015143215
 20
163.5418852295
  0
VERTEX
  8
0
 62
7
  6
CONTINUOUS
 10
111.0945901963
 20
164.3208716835
  0
VERTEX
  8
0
 62
7
  6
CONTINUOUS
 10
111.0868099989
 20
165.0381955419
  0
VERTEX
  8
0
 62
7
  6
CONTINUOUS
 10
111.0783468277
 20
165.6967504941
  0
VERTEX
  8
0
 62
7
  6
CONTINUOUS
 10
111.0693463941
 20
166.2996816376
  0
VERTEX
  8
0
 62
7
  6
CONTINUOUS
 10
111.0599289096
 20
166.8503452782
  0
VERTEX
  8
0
 62
7
  6
CONTINUOUS
 10
111.0501966539
 20
167.3519425237
  0
VERTEX
  8
0
 62
7
  6
CONTINUOUS
 10
111.0402324988
 20
167.8077187543
  0
VERTEX
  8
0
 62
7
  6
CONTINUOUS
 10
111.0301009657
 20
168.2209171937
  0
VERTEX
  8
0
 62
7
  6
CONTINUOUS
 10
111.0198533121
 20
168.5945841658
  0
VERTEX
  8
0
 62
7
  6
CONTINUOUS
 10
111.0095282423
 20
168.9315941811
  0
VERTEX
  8
0
 62
7
  6
CONTINUOUS
 10
110.9991506964
 20
169.2347028266
  0
VERTEX
  8
0
 62
7
  6
CONTINUOUS
 10
110.9887338153
 20
169.5064755739
  0
VERTEX
  8
0
 62
7
  6
CONTINUOUS
 10
110.9783097625
 20
169.7486119881
  0
VERTEX
  8
0
 62
7
  6
CONTINUOUS
 10
110.9679282474
 20
169.9623525548
  0
VERTEX
  8
0
 62
7
  6
CONTINUOUS
 10
110.9576263199
 20
170.1492687174
  0
VERTEX
  8
0
 62
7
  6
CONTINUOUS
 10
110.9474196417
 20
170.3112939312
  0
VERTEX
  8
0
 62
7
  6
CONTINUOUS
 10
110.937302627
 20
170.450565995
  0
VERTEX
  8
0
 62
7
  6
CONTINUOUS
 10
110.9272593265
 20
170.5692062173
  0
VERTEX
  8
0
 62
7
  6
CONTINUOUS
 10
110.9171704734
 20
170.6702402336
  0
VERTEX
  8
0
 62
7
  6
CONTINUOUS
 10
110.9066600124
 20
170.7581378002
  0
VERTEX
  8
0
 62
7
  6
CONTINUOUS
 10
110.8949629072
 20
170.8382159029
  0
VERTEX
  8
0
 62
7
  6
CONTINUOUS
 10
110.8806645562
 20
170.9163279363
  0
VERTEX
  8
0
 62
7
  6
CONTINUOUS
 10
110.8605780778
 20
171.0011477347
  0
VERTEX
  8
0
 62
7
  6
CONTINUOUS
 10
110.8269163796
 20
171.1063996953
  0
VERTEX
  8
0
 62
7
  6
CONTINUOUS
 10
110.7670392767
 20
171.2390969734
  0
VERTEX
  8
0
 62
7
  6
CONTINUOUS
 10
110.6721765909
 20
171.3851114631
  0
VERTEX
  8
0
 62
7
  6
CONTINUOUS
 10
110.5295227384
 20
171.5344665474
  0
VERTEX
  8
0
 62
7
  6
CONTINUOUS
 10
110.3262011592
 20
171.6692300503
  0
VERTEX
  8
0
 62
7
  6
CONTINUOUS
 10
110.0797120696
 20
171.7547949932
  0
VERTEX
  8
0
 62
7
  6
CONTINUOUS
 10
109.8759674267
 20
171.7756578938
  0
SEQEND
  0
POLYLINE
  8
0
 62
7
  6
CONTINUOUS
 66
1
 70
0
  0
VERTEX
  8
0
 62
7
  6
CONTINUOUS
 10
111.4419050901
 20
108.6256578947
  0
VERTEX
  8
0
 62
7
  6
CONTINUOUS
 10
111.4429484704
 20
107.6000897762
  0
VERTEX
  8
0
 62
7
  6
CONTINUOUS
 10
111.4459334713
 20
106.6167700056
  0
VERTEX
  8
0
 62
7
  6
CONTINUOUS
 10
111.450509416
 20
105.7037906152
  0
VERTEX
  8
0
 62
7
  6
CONTINUOUS
 10
111.4563804154
 20
104.8594305599
  0
VERTEX
  8
0
 62
7
  6
CONTINUOUS
 10
111.4633045406
 20
104.080444106
  0
VERTEX
  8
0
 62
7
  6
CONTINUOUS
 10
111.4710847379
 20
103.3631202476
  0
VERTEX
  8
0
 62
7
  6
CONTINUOUS
 10
111.4795479092
 20
102.7045652954
  0
VERTEX
  8
0
 62
7
  6
CONTINUOUS
 10
111.4885483427
 20
102.1016341519
  0
VERTEX
  8
0
 62
7
  6
CONTINUOUS
 10
111.4979658272
 20
101.5509705113
  0
VERTEX
  8
0
 62
7
  6
CONTINUOUS
 10
111.507698083
 20
101.0493732658
  0
VERTEX
  8
0
 62
7
  6
CONTINUOUS
 10
111.5176622381
 20
100.5935970352
  0
VERTEX
  8
0
 62
7
  6
CONTINUOUS
 10
111.5277937711
 20
100.1803985958
  0
VERTEX
  8
0
 62
7
  6
CONTINUOUS
 10
111.5380414247
 20
99.8067316237
  0
VERTEX
  8
0
 62
7
  6
CONTINUOUS
 10
111.5483664945
 20
99.4697216084
  0
VERTEX
  8
0
 62
7
  6
CONTINUOUS
 10
111.5587440405
 20
99.1666129629
  0
VERTEX
  8
0
 62
7
  6
CONTINUOUS
 10
111.5691609215
 20
98.8948402155
  0
VERTEX
  8
0
 62
7
  6
CONTINUOUS
 10
111.5795849743
 20
98.6527038014
  0
VERTEX
  8
0
 62
7
  6
CONTINUOUS
 10
111.5899664894
 20
98.4389632346
  0
VERTEX
  8
0
 62
7
  6
CONTINUOUS
 10
111.6002684169
 20
98.252047072
  0
VERTEX
  8
0
 62
7
  6
CONTINUOUS
 10
111.6104750951
 20
98.0900218583
  0
VERTEX
  8
0
 62
7
  6
CONTINUOUS
 10
111.6205921099
 20
97.9507497945
  0
VERTEX
  8
0
 62
7
  6
CONTINUOUS
 10
111.6306354104
 20
97.8321095721
  0
VERTEX
  8
0
 62
7
  6
CONTINUOUS
 10
111.6407242634
 20
97.7310755559
  0
VERTEX
  8
0
 62
7
  6
CONTINUOUS
 10
111.6512347245
 20
97.6431779893
  0
VERTEX
  8
0
 62
7
  6
CONTINUOUS
 10
111.6629318296
 20
97.5630998866
  0
VERTEX
  8
0
 62
7
  6
CONTINUOUS
 10
111.6772301807
 20
97.4849878532
  0
VERTEX
  8
0
 62
7
  6
CONTINUOUS
 10
111.6973166591
 20
97.4001680547
  0
VERTEX
  8
0
 62
7
  6
CONTINUOUS
 10
111.7309783572
 20
97.2949160941
  0
VERTEX
  8
0
 62
7
  6
CONTINUOUS
 10
111.7908554601
 20
97.162218816
  0
VERTEX
  8
0
 62
7
  6
CONTINUOUS
 10
111.8857181459
 20
97.0162043264
  0
VERTEX
  8
0
 62
7
  6
CONTINUOUS
 10
112.0283719985
 20
96.8668492421
  0
VERTEX
  8
0
 62
7
  6
CONTINUOUS
 10
112.2316935776
 20
96.7320857391
  0
VERTEX
  8
0
 62
7
  6
CONTINUOUS
 10
112.4781826673
 20
96.6465207963
  0
VERTEX
  8
0
 62
7
  6
CONTINUOUS
 10
112.6819273101
 20
96.6256578956
  0
SEQEND
  0
LINE
  8
0
 62
7
  6
CONTINUOUS
 10
111.1159896493
 20
159.7756578947
 11
111.1159896493
 21
152.9001359789
  0
LINE
  8
0
 62
7
  6
CONTINUOUS
 10
111.4419050875
 20
108.6256578947
 11
111.4419050875
 21
115.5011796572
  0
POLYLINE
  8
0
 62
7
  6
CONTINUOUS
 66
1
 70
0
  0
VERTEX
  8
0
 62
7
  6
CONTINUOUS
 10
211.6789473684
 20
116.5049565007
  0
VERTEX
  8
0
 62
7
  6
CONTINUOUS
 10
211.9192044319
 20
116.5342472016
  0
VERTEX
  8
0
 62
7
  6
CONTINUOUS
 10
212.1445232186
 20
116.619948519
  0
VERTEX
  8
0
 62
7
  6
CONTINUOUS
 10
212.3424568326
 20
116.7567886112
  0
VERTEX
  8
0
 62
7
  6
CONTINUOUS
 10
212.4274179516
 20
116.8417885084
  0
VERTEX
  8
0
 62
7
  6
CONTINUOUS
 10
212.5640714315
 20
117.0396013751
  0
VERTEX
  8
0
 62
7
  6
CONTINUOUS
 10
212.6497087294
 20
117.26490988
  0
VERTEX
  8
0
 62
7
  6
CONTINUOUS
 10
212.6789473684
 20
117.5049565007
  0
SEQEND
  0
LINE
  8
DEFAULT_1
 62
2
  6
CENTER
 10
47.8060452596
 20
108.8006578947
 11
221.570557598
 21
108.8006578947
  0
POLYLINE
  8
0
 62
7
  6
CONTINUOUS
 66
1
 70
0
  0
VERTEX
  8
0
 62
7
  6
CONTINUOUS
 10
85.0977968543
 20
116.503573379
  0
VERTEX
  8
0
 62
7
  6
CONTINUOUS
 10
85.36188778
 20
116.4492023624
  0
VERTEX
  8
0
 62
7
  6
CONTINUOUS
 10
85.6062287739
 20
116.3270903191
  0
VERTEX
  8
0
 62
7
  6
CONTINUOUS
 10
85.7922806777
 20
116.1624269393
  0
VERTEX
  8
0
 62
7
  6
CONTINUOUS
 10
85.9331318998
 20
115.9548797566
  0
VERTEX
  8
0
 62
7
  6
CONTINUOUS
 10
86.0177925574
 20
115.7195136111
  0
VERTEX
  8
0
 62
7
  6
CONTINUOUS
 10
86.0419037798
 20
115.5011797352
  0
SEQEND
  0
POLYLINE
  8
0
 62
7
  6
CONTINUOUS
 66
1
 70
0
  0
VERTEX
  8
0
 62
7
  6
CONTINUOUS
 10
124.1419035795
 20
152.9001359684
  0
VERTEX
  8
0
 62
7
  6
CONTINUOUS
 10
124.117257752
 20
152.6794246119
  0
VERTEX
  8
0
 62
7
  6
CONTINUOUS
 10
124.0320833776
 20
152.4443809437
  0
VERTEX
  8
0
 62
7
  6
CONTINUOUS
 10
123.8908323087
 20
152.2372473939
  0
VERTEX
  8
0
 62
7
  6
CONTINUOUS
 10
123.7045208107
 20
152.0730593507
  0
VERTEX
  8
0
 62
7
  6
CONTINUOUS
 10
123.4586719584
 20
151.9510284721
  0
VERTEX
  8
0
 62
7
  6
CONTINUOUS
 10
123.1978836158
 20
151.8977535096
  0
SEQEND
  0
POLYLINE
  8
0
 62
7
  6
CONTINUOUS
 66
1
 70
0
  0
VERTEX
  8
0
 62
7
  6
CONTINUOUS
 10
200.9599895815
 20
116.5035578333
  0
VERTEX
  8
0
 62
7
  6
CONTINUOUS
 10
200.9718229765
 20
116.5046938708
  0
VERTEX
  8
0
 62
7
  6
CONTINUOUS
 10
200.9808265471
 20
116.5049569329
  0
SEQEND
  0
POLYLINE
  8
0
 62
7
  6
CONTINUOUS
 66
1
 70
0
  0
VERTEX
  8
0
 62
7
  6
CONTINUOUS
 10
175.5599895817
 20
116.5035578333
  0
VERTEX
  8
0
 62
7
  6
CONTINUOUS
 10
175.5718229814
 20
116.5046938711
  0
VERTEX
  8
0
 62
7
  6
CONTINUOUS
 10
175.5808265606
 20
116.5049569329
  0
SEQEND
  0
POLYLINE
  8
0
 62
7
  6
CONTINUOUS
 66
1
 70
0
  0
VERTEX
  8
0
 62
7
  6
CONTINUOUS
 10
150.1599895815
 20
116.5035578333
  0
VERTEX
  8
0
 62
7
  6
CONTINUOUS
 10
150.1718229813
 20
116.5046938711
  0
VERTEX
  8
0
 62
7
  6
CONTINUOUS
 10
150.1808265606
 20
116.5049569329
  0
SEQEND
  0
LINE
  8
0
 62
7
  6
CONTINUOUS
 10
211.6789473684
 20
116.5049565007
 11
200.9808265464
 21
116.5049565007
  0
LINE
  8
0
 62
7
  6
CONTINUOUS
 10
186.6770684794
 20
116.5049565007
 11
175.5808265598
 21
116.5049565007
  0
LINE
  8
0
 62
7
  6
CONTINUOUS
 10
161.2770684794
 20
116.5049565007
 11
150.1808265598
 21
116.5049565007
  0
LINE
  8
0
 62
7
  6
CONTINUOUS
 10
135.8770684794
 20
116.5049565007
 11
124.7808266105
 21
116.5049565007
  0
LINE
  8
0
 62
7
  6
CONTINUOUS
 10
110.4770684794
 20
116.5049565007
 11
99.3808266105
 21
116.5049565007
  0
LINE
  8
0
 62
7
  6
CONTINUOUS
 10
85.0770684794
 20
116.5049565007
 11
73.9808266105
 21
116.5049565007
  0
POLYLINE
  8
0
 62
7
  6
CONTINUOUS
 66
1
 70
0
  0
VERTEX
  8
0
 62
7
  6
CONTINUOUS
 10
85.0770684789
 20
116.5049569287
  0
VERTEX
  8
0
 62
7
  6
CONTINUOUS
 10
85.0862642835
 20
116.504682651
  0
VERTEX
  8
0
 62
7
  6
CONTINUOUS
 10
85.0977967008
 20
116.5035722105
  0
SEQEND
  0
POLYLINE
  8
0
 62
7
  6
CONTINUOUS
 66
1
 70
0
  0
VERTEX
  8
0
 62
7
  6
CONTINUOUS
 10
110.4770684789
 20
116.5049569287
  0
VERTEX
  8
0
 62
7
  6
CONTINUOUS
 10
110.4862642834
 20
116.504682651
  0
VERTEX
  8
0
 62
7
  6
CONTINUOUS
 10
110.4977967007
 20
116.5035722105
  0
SEQEND
  0
POLYLINE
  8
0
 62
7
  6
CONTINUOUS
 66
1
 70
0
  0
VERTEX
  8
0
 62
7
  6
CONTINUOUS
 10
135.877068479
 20
116.5049569611
  0
VERTEX
  8
0
 62
7
  6
CONTINUOUS
 10
135.8862489666
 20
116.5046834435
  0
VERTEX
  8
0
 62
7
  6
CONTINUOUS
 10
135.8977979368
 20
116.5035721219
  0
SEQEND
  0
POLYLINE
  8
0
 62
7
  6
CONTINUOUS
 66
1
 70
0
  0
VERTEX
  8
0
 62
7
  6
CONTINUOUS
 10
135.8977980735
 20
116.5035731627
  0
VERTEX
  8
0
 62
7
  6
CONTINUOUS
 10
136.1618516339
 20
116.4492146217
  0
VERTEX
  8
0
 62
7
  6
CONTINUOUS
 10
136.4062253923
 20
116.3270926223
  0
VERTEX
  8
0
 62
7
  6
CONTINUOUS
 10
136.5922790153
 20
116.16242883
  0
VERTEX
  8
0
 62
7
  6
CONTINUOUS
 10
136.7331303737
 20
115.9548827274
  0
VERTEX
  8
0
 62
7
  6
CONTINUOUS
 10
136.8177905093
 20
115.7195225508
  0
VERTEX
  8
0
 62
7
  6
CONTINUOUS
 10
136.8419036966
 20
115.5011797839
  0
SEQEND
  0
POLYLINE
  8
0
 62
7
  6
CONTINUOUS
 66
1
 70
0
  0
VERTEX
  8
0
 62
7
  6
CONTINUOUS
 10
110.4977968542
 20
116.503573379
  0
VERTEX
  8
0
 62
7
  6
CONTINUOUS
 10
110.7618877895
 20
116.4492023592
  0
VERTEX
  8
0
 62
7
  6
CONTINUOUS
 10
111.0062287746
 20
116.3270903186
  0
VERTEX
  8
0
 62
7
  6
CONTINUOUS
 10
111.1922806771
 20
116.16242694
  0
VERTEX
  8
0
 62
7
  6
CONTINUOUS
 10
111.3331318986
 20
115.954879759
  0
VERTEX
  8
0
 62
7
  6
CONTINUOUS
 10
111.4177925565
 20
115.7195136154
  0
VERTEX
  8
0
 62
7
  6
CONTINUOUS
 10
111.4419037798
 20
115.5011797353
  0
SEQEND
  0
POLYLINE
  8
0
 62
7
  6
CONTINUOUS
 66
1
 70
0
  0
VERTEX
  8
0
 62
7
  6
CONTINUOUS
 10
124.2712496393
 20
169.5573053588
  0
VERTEX
  8
0
 62
7
  6
CONTINUOUS
 10
124.2617394592
 20
169.3160537131
  0
VERTEX
  8
0
 62
7
  6
CONTINUOUS
 10
124.2521479954
 20
169.0459833326
  0
VERTEX
  8
0
 62
7
  6
CONTINUOUS
 10
124.2424802968
 20
168.7440513875
  0
VERTEX
  8
0
 62
7
  6
CONTINUOUS
 10
124.2327529929
 20
168.406935398
  0
VERTEX
  8
0
 62
7
  6
CONTINUOUS
 10
124.2229877151
 20
168.0307239006
  0
VERTEX
  8
0
 62
7
  6
CONTINUOUS
 10
124.2132205541
 20
167.6110951798
  0
VERTEX
  8
0
 62
7
  6
CONTINUOUS
 10
124.2035108303
 20
167.1436154664
  0
VERTEX
  8
0
 62
7
  6
CONTINUOUS
 10
124.1939538962
 20
166.6244885743
  0
VERTEX
  8
0
 62
7
  6
CONTINUOUS
 10
124.1846707178
 20
166.0503484576
  0
VERTEX
  8
0
 62
7
  6
CONTINUOUS
 10
124.1758055431
 20
165.4183134514
  0
VERTEX
  8
0
 62
7
  6
CONTINUOUS
 10
124.1675269424
 20
164.7262735851
  0
VERTEX
  8
0
 62
7
  6
CONTINUOUS
 10
124.160023933
 20
163.9728512107
  0
VERTEX
  8
0
 62
7
  6
CONTINUOUS
 10
124.1534926755
 20
163.1557271964
  0
VERTEX
  8
0
 62
7
  6
CONTINUOUS
 10
124.1481483652
 20
162.270759583
  0
VERTEX
  8
0
 62
7
  6
CONTINUOUS
 10
124.1442615035
 20
161.3147861821
  0
VERTEX
  8
0
 62
7
  6
CONTINUOUS
 10
124.1421634833
 20
160.2864226977
  0
VERTEX
  8
0
 62
7
  6
CONTINUOUS
 10
124.1419050875
 20
152.9001359683
  0
SEQEND
  0
POLYLINE
  8
0
 62
7
  6
CONTINUOUS
 66
1
 70
0
  0
VERTEX
  8
0
 62
7
  6
CONTINUOUS
 10
123.6866707931
 20
98.8446285522
  0
VERTEX
  8
0
 62
7
  6
CONTINUOUS
 10
123.6961798007
 20
99.0859173659
  0
VERTEX
  8
0
 62
7
  6
CONTINUOUS
 10
123.7057700392
 20
99.3560230872
  0
VERTEX
  8
0
 62
7
  6
CONTINUOUS
 10
123.7154363853
 20
99.6579859797
  0
VERTEX
  8
0
 62
7
  6
CONTINUOUS
 10
123.7251621688
 20
99.9951261147
  0
VERTEX
  8
0
 62
7
  6
CONTINUOUS
 10
123.7349257808
 20
100.3713542701
  0
VERTEX
  8
0
 62
7
  6
CONTINUOUS
 10
123.744691153
 20
100.7909913906
  0
VERTEX
  8
0
 62
7
  6
CONTINUOUS
 10
123.7543989821
 20
101.2584700047
  0
VERTEX
  8
0
 62
7
  6
CONTINUOUS
 10
123.76395394
 20
101.7775849184
  0
VERTEX
  8
0
 62
7
  6
CONTINUOUS
 10
123.7732351081
 20
102.3517017634
  0
VERTEX
  8
0
 62
7
  6
CONTINUOUS
 10
123.7820982696
 20
102.9837006182
  0
VERTEX
  8
0
 62
7
  6
CONTINUOUS
 10
123.7903748806
 20
103.6756884277
  0
VERTEX
  8
0
 62
7
  6
CONTINUOUS
 10
123.7978759734
 20
104.4290400034
  0
VERTEX
  8
0
 62
7
  6
CONTINUOUS
 10
123.8044054762
 20
105.2460744166
  0
VERTEX
  8
0
 62
7
  6
CONTINUOUS
 10
123.8097482777
 20
106.1309320961
  0
VERTEX
  8
0
 62
7
  6
CONTINUOUS
 10
123.8136339836
 20
107.0867734314
  0
VERTEX
  8
0
 62
7
  6
CONTINUOUS
 10
123.8157313434
 20
108.1149819104
  0
VERTEX
  8
0
 62
7
  6
CONTINUOUS
 10
123.8159896493
 20
115.5011796918
  0
SEQEND
  0
POLYLINE
  8
0
 62
7
  6
CONTINUOUS
 66
1
 70
0
  0
VERTEX
  8
0
 62
7
  6
CONTINUOUS
 10
123.8159910446
 20
115.5011796917
  0
VERTEX
  8
0
 62
7
  6
CONTINUOUS
 10
123.8406224753
 20
115.7218277826
  0
VERTEX
  8
0
 62
7
  6
CONTINUOUS
 10
123.9257514805
 20
115.9568180039
  0
VERTEX
  8
0
 62
7
  6
CONTINUOUS
 10
124.0669666991
 20
116.1639599125
  0
VERTEX
  8
0
 62
7
  6
CONTINUOUS
 10
124.2532623707
 20
116.3281804313
  0
VERTEX
  8
0
 62
7
  6
CONTINUOUS
 10
124.4985434229
 20
116.4500592635
  0
VERTEX
  8
0
 62
7
  6
CONTINUOUS
 10
124.7599953028
 20
116.5035597526
  0
SEQEND
  0
POLYLINE
  8
0
 62
7
  6
CONTINUOUS
 66
1
 70
0
  0
VERTEX
  8
0
 62
7
  6
CONTINUOUS
 10
124.7599955824
 20
116.5035586511
  0
VERTEX
  8
0
 62
7
  6
CONTINUOUS
 10
124.7718122257
 20
116.5046933257
  0
VERTEX
  8
0
 62
7
  6
CONTINUOUS
 10
124.7808266114
 20
116.5049569574
  0
SEQEND
  0
POLYLINE
  8
0
 62
7
  6
CONTINUOUS
 66
1
 70
0
  0
VERTEX
  8
0
 62
7
  6
CONTINUOUS
 10
99.3599955826
 20
116.5035586511
  0
VERTEX
  8
0
 62
7
  6
CONTINUOUS
 10
99.3718122258
 20
116.5046933257
  0
VERTEX
  8
0
 62
7
  6
CONTINUOUS
 10
99.3808266114
 20
116.5049569574
  0
SEQEND
  0
POLYLINE
  8
0
 62
7
  6
CONTINUOUS
 66
1
 70
0
  0
VERTEX
  8
0
 62
7
  6
CONTINUOUS
 10
161.277068479
 20
116.5049569611
  0
VERTEX
  8
0
 62
7
  6
CONTINUOUS
 10
161.2862489666
 20
116.5046834435
  0
VERTEX
  8
0
 62
7
  6
CONTINUOUS
 10
161.2977979369
 20
116.5035721219
  0
SEQEND
  0
POLYLINE
  8
0
 62
7
  6
CONTINUOUS
 66
1
 70
0
  0
VERTEX
  8
0
 62
7
  6
CONTINUOUS
 10
186.677068479
 20
116.5049569611
  0
VERTEX
  8
0
 62
7
  6
CONTINUOUS
 10
186.6862489666
 20
116.5046834435
  0
VERTEX
  8
0
 62
7
  6
CONTINUOUS
 10
186.6977979368
 20
116.5035721219
  0
SEQEND
  0
POLYLINE
  8
0
 62
7
  6
CONTINUOUS
 66
1
 70
0
  0
VERTEX
  8
0
 62
7
  6
CONTINUOUS
 10
161.2977980736
 20
116.5035731627
  0
VERTEX
  8
0
 62
7
  6
CONTINUOUS
 10
161.5618516334
 20
116.4492146218
  0
VERTEX
  8
0
 62
7
  6
CONTINUOUS
 10
161.806225392
 20
116.3270926224
  0
VERTEX
  8
0
 62
7
  6
CONTINUOUS
 10
161.992279014
 20
116.1624288315
  0
VERTEX
  8
0
 62
7
  6
CONTINUOUS
 10
162.1331303721
 20
115.9548827306
  0
VERTEX
  8
0
 62
7
  6
CONTINUOUS
 10
162.2177905082
 20
115.7195225558
  0
VERTEX
  8
0
 62
7
  6
CONTINUOUS
 10
162.2419036966
 20
115.501179784
  0
SEQEND
  0
POLYLINE
  8
0
 62
7
  6
CONTINUOUS
 66
1
 70
0
  0
VERTEX
  8
0
 62
7
  6
CONTINUOUS
 10
73.9599955825
 20
116.5035586511
  0
VERTEX
  8
0
 62
7
  6
CONTINUOUS
 10
73.9718122258
 20
116.5046933257
  0
VERTEX
  8
0
 62
7
  6
CONTINUOUS
 10
73.9808266114
 20
116.5049569574
  0
SEQEND
  0
POLYLINE
  8
0
 62
7
  6
CONTINUOUS
 66
1
 70
0
  0
VERTEX
  8
0
 62
7
  6
CONTINUOUS
 10
186.6977980735
 20
116.5035731627
  0
VERTEX
  8
0
 62
7
  6
CONTINUOUS
 10
186.9618516339
 20
116.4492146217
  0
VERTEX
  8
0
 62
7
  6
CONTINUOUS
 10
187.2062253923
 20
116.3270926223
  0
VERTEX
  8
0
 62
7
  6
CONTINUOUS
 10
187.3922790153
 20
116.16242883
  0
VERTEX
  8
0
 62
7
  6
CONTINUOUS
 10
187.5331303737
 20
115.9548827274
  0
VERTEX
  8
0
 62
7
  6
CONTINUOUS
 10
187.6177905093
 20
115.7195225508
  0
VERTEX
  8
0
 62
7
  6
CONTINUOUS
 10
187.6419036966
 20
115.5011797839
  0
SEQEND
  0
POLYLINE
  8
0
 62
7
  6
CONTINUOUS
 66
1
 70
0
  0
VERTEX
  8
0
 62
7
  6
CONTINUOUS
 10
136.5159896467
 20
159.7756578947
  0
VERTEX
  8
0
 62
7
  6
CONTINUOUS
 10
136.5149462664
 20
160.8012260133
  0
VERTEX
  8
0
 62
7
  6
CONTINUOUS
 10
136.5119612655
 20
161.7845457839
  0
VERTEX
  8
0
 62
7
  6
CONTINUOUS
 10
136.5073853208
 20
162.6975251743
  0
VERTEX
  8
0
 62
7
  6
CONTINUOUS
 10
136.5015143215
 20
163.5418852295
  0
VERTEX
  8
0
 62
7
  6
CONTINUOUS
 10
136.4945901963
 20
164.3208716835
  0
VERTEX
  8
0
 62
7
  6
CONTINUOUS
 10
136.4868099989
 20
165.0381955419
  0
VERTEX
  8
0
 62
7
  6
CONTINUOUS
 10
136.4783468277
 20
165.6967504941
  0
VERTEX
  8
0
 62
7
  6
CONTINUOUS
 10
136.4693463941
 20
166.2996816376
  0
VERTEX
  8
0
 62
7
  6
CONTINUOUS
 10
136.4599289096
 20
166.8503452782
  0
VERTEX
  8
0
 62
7
  6
CONTINUOUS
 10
136.4501966539
 20
167.3519425237
  0
VERTEX
  8
0
 62
7
  6
CONTINUOUS
 10
136.4402324988
 20
167.8077187543
  0
VERTEX
  8
0
 62
7
  6
CONTINUOUS
 10
136.4301009657
 20
168.2209171937
  0
VERTEX
  8
0
 62
7
  6
CONTINUOUS
 10
136.4198533121
 20
168.5945841658
  0
VERTEX
  8
0
 62
7
  6
CONTINUOUS
 10
136.4095282423
 20
168.9315941811
  0
VERTEX
  8
0
 62
7
  6
CONTINUOUS
 10
136.3991506964
 20
169.2347028266
  0
VERTEX
  8
0
 62
7
  6
CONTINUOUS
 10
136.3887338153
 20
169.5064755739
  0
VERTEX
  8
0
 62
7
  6
CONTINUOUS
 10
136.3783097625
 20
169.7486119881
  0
VERTEX
  8
0
 62
7
  6
CONTINUOUS
 10
136.3679282474
 20
169.9623525548
  0
VERTEX
  8
0
 62
7
  6
CONTINUOUS
 10
136.3576263199
 20
170.1492687174
  0
VERTEX
  8
0
 62
7
  6
CONTINUOUS
 10
136.3474196417
 20
170.3112939312
  0
VERTEX
  8
0
 62
7
  6
CONTINUOUS
 10
136.337302627
 20
170.450565995
  0
VERTEX
  8
0
 62
7
  6
CONTINUOUS
 10
136.3272593265
 20
170.5692062173
  0
VERTEX
  8
0
 62
7
  6
CONTINUOUS
 10
136.3171704734
 20
170.6702402336
  0
VERTEX
  8
0
 62
7
  6
CONTINUOUS
 10
136.3066600124
 20
170.7581378002
  0
VERTEX
  8
0
 62
7
  6
CONTINUOUS
 10
136.2949629072
 20
170.8382159029
  0
VERTEX
  8
0
 62
7
  6
CONTINUOUS
 10
136.2806645562
 20
170.9163279363
  0
VERTEX
  8
0
 62
7
  6
CONTINUOUS
 10
136.2605780778
 20
171.0011477347
  0
VERTEX
  8
0
 62
7
  6
CONTINUOUS
 10
136.2269163796
 20
171.1063996953
  0
VERTEX
  8
0
 62
7
  6
CONTINUOUS
 10
136.1670392767
 20
171.2390969734
  0
VERTEX
  8
0
 62
7
  6
CONTINUOUS
 10
136.0721765909
 20
171.3851114631
  0
VERTEX
  8
0
 62
7
  6
CONTINUOUS
 10
135.9295227384
 20
171.5344665474
  0
VERTEX
  8
0
 62
7
  6
CONTINUOUS
 10
135.7262011592
 20
171.6692300503
  0
VERTEX
  8
0
 62
7
  6
CONTINUOUS
 10
135.4797120696
 20
171.7547949932
  0
VERTEX
  8
0
 62
7
  6
CONTINUOUS
 10
135.2759674267
 20
171.7756578938
  0
SEQEND
  0
POLYLINE
  8
0
 62
7
  6
CONTINUOUS
 66
1
 70
0
  0
VERTEX
  8
0
 62
7
  6
CONTINUOUS
 10
136.8419050901
 20
108.6256578947
  0
VERTEX
  8
0
 62
7
  6
CONTINUOUS
 10
136.8429477209
 20
107.6004573765
  0
VERTEX
  8
0
 62
7
  6
CONTINUOUS
 10
136.8459307134
 20
106.6174520125
  0
VERTEX
  8
0
 62
7
  6
CONTINUOUS
 10
136.8505037383
 20
105.7047372892
  0
VERTEX
  8
0
 62
7
  6
CONTINUOUS
 10
136.8563711754
 20
104.8605955795
  0
VERTEX
  8
0
 62
7
  6
CONTINUOUS
 10
136.8632912908
 20
104.0817860947
  0
VERTEX
  8
0
 62
7
  6
CONTINUOUS
 10
136.8710671934
 20
103.3646006887
  0
VERTEX
  8
0
 62
7
  6
CONTINUOUS
 10
136.8795259233
 20
102.7061483596
  0
VERTEX
  8
0
 62
7
  6
CONTINUOUS
 10
136.8885218592
 20
102.103288363
  0
VERTEX
  8
0
 62
7
  6
CONTINUOUS
 10
136.8979348643
 20
101.5526677621
  0
VERTEX
  8
0
 62
7
  6
CONTINUOUS
 10
136.9076627133
 20
101.0510887402
  0
VERTEX
  8
0
 62
7
  6
CONTINUOUS
 10
136.9176225572
 20
100.595309596
  0
VERTEX
  8
0
 62
7
  6
CONTINUOUS
 10
136.9277498828
 20
100.1820902315
  0
VERTEX
  8
0
 62
7
  6
CONTINUOUS
 10
136.937993441
 20
99.808386589
  0
VERTEX
  8
0
 62
7
  6
CONTINUOUS
 10
136.9483145072
 20
99.4713267626
  0
VERTEX
  8
0
 62
7
  6
CONTINUOUS
 10
136.9586881022
 20
99.1681574941
  0
VERTEX
  8
0
 62
7
  6
CONTINUOUS
 10
136.9691010809
 20
98.8963139961
  0
VERTEX
  8
0
 62
7
  6
CONTINUOUS
 10
136.9795215103
 20
98.6540924719
  0
VERTEX
  8
0
 62
7
  6
CONTINUOUS
 10
136.9898997045
 20
98.4402549603
  0
VERTEX
  8
0
 62
7
  6
CONTINUOUS
 10
137.0001985493
 20
98.2532339412
  0
VERTEX
  8
0
 62
7
  6
CONTINUOUS
 10
137.0104022243
 20
98.0911003641
  0
VERTEX
  8
0
 62
7
  6
CONTINUOUS
 10
137.0205162581
 20
97.9517183918
  0
VERTEX
  8
0
 62
7
  6
CONTINUOUS
 10
137.0305563109
 20
97.8329714064
  0
VERTEX
  8
0
 62
7
  6
CONTINUOUS
 10
137.0406400527
 20
97.7318483715
  0
VERTEX
  8
0
 62
7
  6
CONTINUOUS
 10
137.0511406854
 20
97.6438929104
  0
VERTEX
  8
0
 62
7
  6
CONTINUOUS
 10
137.0628183116
 20
97.5637991377
  0
VERTEX
  8
0
 62
7
  6
CONTINUOUS
 10
137.0770774257
 20
97.4857300176
  0
VERTEX
  8
0
 62
7
  6
CONTINUOUS
 10
137.0970750349
 20
97.4010626153
  0
VERTEX
  8
0
 62
7
  6
CONTINUOUS
 10
137.1305341294
 20
97.2961089907
  0
VERTEX
  8
0
 62
7
  6
CONTINUOUS
 10
137.1900627807
 20
97.1637000545
  0
VERTEX
  8
0
 62
7
  6
CONTINUOUS
 10
137.2844497469
 20
97.0178392054
  0
VERTEX
  8
0
 62
7
  6
CONTINUOUS
 10
137.4264461738
 20
96.8684966412
  0
VERTEX
  8
0
 62
7
  6
CONTINUOUS
 10
137.6291305555
 20
96.7333732427
  0
VERTEX
  8
0
 62
7
  6
CONTINUOUS
 10
137.8751971106
 20
96.6471433925
  0
VERTEX
  8
0
 62
7
  6
CONTINUOUS
 10
138.0819273039
 20
96.6256578956
  0
SEQEND
  0
LINE
  8
0
 62
7
  6
CONTINUOUS
 10
136.5159896493
 20
159.7756578947
 11
136.5159896493
 21
152.9001359535
  0
LINE
  8
DEFAULT_1
 62
2
  6
CENTER
 10
136.6789473684
 20
179.9556146806
 11
136.6789473684
 21
136.2007578947
  0
LINE
  8
0
 62
2
  6
CONTINUOUS
 10
136.6789473684
 20
135.2506578947
 11
136.6789473684
 21
133.1506578947
  0
LINE
  8
DEFAULT_1
 62
2
  6
CENTER
 10
136.6789473684
 20
90.5788250213
 11
136.6789473684
 21
132.2005578947
  0
LINE
  8
0
 62
7
  6
CONTINUOUS
 10
136.8419050875
 20
108.6256578947
 11
136.8419050875
 21
115.5011797081
  0
LINE
  8
DEFAULT_1
 62
2
  6
CENTER
 10
227.2901222302
 20
134.2006578947
 11
138.6790473684
 21
134.2006578947
  0
LINE
  8
0
 62
2
  6
CONTINUOUS
 10
137.7289473684
 20
134.2006578947
 11
135.6289473684
 21
134.2006578947
  0
LINE
  8
DEFAULT_1
 62
2
  6
CENTER
 10
42.968368916
 20
134.2006578947
 11
134.6788473684
 21
134.2006578947
  0
POLYLINE
  8
0
 62
7
  6
CONTINUOUS
 66
1
 70
0
  0
VERTEX
  8
0
 62
7
  6
CONTINUOUS
 10
86.6600885817
 20
151.8977432027
  0
VERTEX
  8
0
 62
7
  6
CONTINUOUS
 10
86.3965783969
 20
151.9519197285
  0
VERTEX
  8
0
 62
7
  6
CONTINUOUS
 10
86.1517185412
 20
152.0741895233
  0
VERTEX
  8
0
 62
7
  6
CONTINUOUS
 10
85.9656458547
 20
152.2388527467
  0
VERTEX
  8
0
 62
7
  6
CONTINUOUS
 10
85.8247775778
 20
152.4464072072
  0
VERTEX
  8
0
 62
7
  6
CONTINUOUS
 10
85.7401058384
 20
152.6817864016
  0
VERTEX
  8
0
 62
7
  6
CONTINUOUS
 10
85.7159911196
 20
152.9001359074
  0
SEQEND
  0
POLYLINE
  8
0
 62
7
  6
CONTINUOUS
 66
1
 70
0
  0
VERTEX
  8
0
 62
7
  6
CONTINUOUS
 10
149.6712496393
 20
169.5573053588
  0
VERTEX
  8
0
 62
7
  6
CONTINUOUS
 10
149.6617394592
 20
169.3160537131
  0
VERTEX
  8
0
 62
7
  6
CONTINUOUS
 10
149.6521479954
 20
169.0459833326
  0
VERTEX
  8
0
 62
7
  6
CONTINUOUS
 10
149.6424802968
 20
168.7440513875
  0
VERTEX
  8
0
 62
7
  6
CONTINUOUS
 10
149.6327529929
 20
168.406935398
  0
VERTEX
  8
0
 62
7
  6
CONTINUOUS
 10
149.6229877151
 20
168.0307239006
  0
VERTEX
  8
0
 62
7
  6
CONTINUOUS
 10
149.6132205541
 20
167.6110951798
  0
VERTEX
  8
0
 62
7
  6
CONTINUOUS
 10
149.6035108303
 20
167.1436154664
  0
VERTEX
  8
0
 62
7
  6
CONTINUOUS
 10
149.5939538962
 20
166.6244885743
  0
VERTEX
  8
0
 62
7
  6
CONTINUOUS
 10
149.5846707178
 20
166.0503484576
  0
VERTEX
  8
0
 62
7
  6
CONTINUOUS
 10
149.5758055431
 20
165.4183134514
  0
VERTEX
  8
0
 62
7
  6
CONTINUOUS
 10
149.5675269424
 20
164.7262735851
  0
VERTEX
  8
0
 62
7
  6
CONTINUOUS
 10
149.560023933
 20
163.9728512107
  0
VERTEX
  8
0
 62
7
  6
CONTINUOUS
 10
149.5534926755
 20
163.1557271965
  0
VERTEX
  8
0
 62
7
  6
CONTINUOUS
 10
149.5481483652
 20
162.270759583
  0
VERTEX
  8
0
 62
7
  6
CONTINUOUS
 10
149.5442615035
 20
161.3147861821
  0
VERTEX
  8
0
 62
7
  6
CONTINUOUS
 10
149.5421634833
 20
160.2864226977
  0
VERTEX
  8
0
 62
7
  6
CONTINUOUS
 10
149.5419050875
 20
152.9001359943
  0
SEQEND
  0
POLYLINE
  8
0
 62
7
  6
CONTINUOUS
 66
1
 70
0
  0
VERTEX
  8
0
 62
7
  6
CONTINUOUS
 10
149.0866450976
 20
98.8440104307
  0
VERTEX
  8
0
 62
7
  6
CONTINUOUS
 10
149.0961552776
 20
99.0852620764
  0
VERTEX
  8
0
 62
7
  6
CONTINUOUS
 10
149.1057467414
 20
99.3553324569
  0
VERTEX
  8
0
 62
7
  6
CONTINUOUS
 10
149.11541444
 20
99.6572644019
  0
VERTEX
  8
0
 62
7
  6
CONTINUOUS
 10
149.125141744
 20
99.9943803915
  0
VERTEX
  8
0
 62
7
  6
CONTINUOUS
 10
149.1349070218
 20
100.3705918888
  0
VERTEX
  8
0
 62
7
  6
CONTINUOUS
 10
149.1446741827
 20
100.7902206097
  0
VERTEX
  8
0
 62
7
  6
CONTINUOUS
 10
149.1543839065
 20
101.2577003231
  0
VERTEX
  8
0
 62
7
  6
CONTINUOUS
 10
149.1639408406
 20
101.7768272152
  0
VERTEX
  8
0
 62
7
  6
CONTINUOUS
 10
149.1732240191
 20
102.3509673318
  0
VERTEX
  8
0
 62
7
  6
CONTINUOUS
 10
149.1820891937
 20
102.983002338
  0
VERTEX
  8
0
 62
7
  6
CONTINUOUS
 10
149.1903677945
 20
103.6750422044
  0
VERTEX
  8
0
 62
7
  6
CONTINUOUS
 10
149.1978708038
 20
104.4284645788
  0
VERTEX
  8
0
 62
7
  6
CONTINUOUS
 10
149.2044020613
 20
105.245588593
  0
VERTEX
  8
0
 62
7
  6
CONTINUOUS
 10
149.2097463717
 20
106.1305562065
  0
VERTEX
  8
0
 62
7
  6
CONTINUOUS
 10
149.2136332334
 20
107.0865296074
  0
VERTEX
  8
0
 62
7
  6
CONTINUOUS
 10
149.2157312536
 20
108.1148930918
  0
VERTEX
  8
0
 62
7
  6
CONTINUOUS
 10
149.2159896493
 20
115.5011796404
  0
SEQEND
  0
POLYLINE
  8
0
 62
7
  6
CONTINUOUS
 66
1
 70
0
  0
VERTEX
  8
0
 62
7
  6
CONTINUOUS
 10
149.5419035732
 20
152.9001359943
  0
VERTEX
  8
0
 62
7
  6
CONTINUOUS
 10
149.517256059
 20
152.6794170543
  0
VERTEX
  8
0
 62
7
  6
CONTINUOUS
 10
149.4320822482
 20
152.4443787033
  0
VERTEX
  8
0
 62
7
  6
CONTINUOUS
 10
149.2908328982
 20
152.237248058
  0
VERTEX
  8
0
 62
7
  6
CONTINUOUS
 10
149.1045228324
 20
152.0730607237
  0
VERTEX
  8
0
 62
7
  6
CONTINUOUS
 10
148.85869543
 20
151.9510363539
  0
VERTEX
  8
0
 62
7
  6
CONTINUOUS
 10
148.5978882756
 20
151.8977540816
  0
SEQEND
  0
POLYLINE
  8
0
 62
7
  6
CONTINUOUS
 66
1
 70
0
  0
VERTEX
  8
0
 62
7
  6
CONTINUOUS
 10
149.2159910014
 20
115.5011796404
  0
VERTEX
  8
0
 62
7
  6
CONTINUOUS
 10
149.2406337997
 20
115.7218777415
  0
VERTEX
  8
0
 62
7
  6
CONTINUOUS
 10
149.3257928333
 20
115.9568988132
  0
VERTEX
  8
0
 62
7
  6
CONTINUOUS
 10
149.4670192484
 20
116.1640195741
  0
VERTEX
  8
0
 62
7
  6
CONTINUOUS
 10
149.6533012391
 20
116.328206949
  0
VERTEX
  8
0
 62
7
  6
CONTINUOUS
 10
149.8985706663
 20
116.4500682395
  0
VERTEX
  8
0
 62
7
  6
CONTINUOUS
 10
150.1599892843
 20
116.5035589963
  0
SEQEND
  0
POLYLINE
  8
0
 62
7
  6
CONTINUOUS
 66
1
 70
0
  0
VERTEX
  8
0
 62
7
  6
CONTINUOUS
 10
199.3978879487
 20
151.8977557276
  0
VERTEX
  8
0
 62
7
  6
CONTINUOUS
 10
199.3860644987
 20
151.8966215634
  0
VERTEX
  8
0
 62
7
  6
CONTINUOUS
 10
199.3770681645
 20
151.8963589245
  0
SEQEND
  0
POLYLINE
  8
0
 62
7
  6
CONTINUOUS
 66
1
 70
0
  0
VERTEX
  8
0
 62
7
  6
CONTINUOUS
 10
112.0600885819
 20
151.8977432027
  0
VERTEX
  8
0
 62
7
  6
CONTINUOUS
 10
111.7965783906
 20
151.9519197306
  0
VERTEX
  8
0
 62
7
  6
CONTINUOUS
 10
111.5517185407
 20
152.0741895236
  0
VERTEX
  8
0
 62
7
  6
CONTINUOUS
 10
111.3656458543
 20
152.2388527471
  0
VERTEX
  8
0
 62
7
  6
CONTINUOUS
 10
111.2247775776
 20
152.4464072075
  0
VERTEX
  8
0
 62
7
  6
CONTINUOUS
 10
111.1401058383
 20
152.6817864018
  0
VERTEX
  8
0
 62
7
  6
CONTINUOUS
 10
111.1159911195
 20
152.9001359075
  0
SEQEND
  0
POLYLINE
  8
0
 62
7
  6
CONTINUOUS
 66
1
 70
0
  0
VERTEX
  8
0
 62
7
  6
CONTINUOUS
 10
173.9978879478
 20
151.8977557274
  0
VERTEX
  8
0
 62
7
  6
CONTINUOUS
 10
173.9860647222
 20
151.8966215764
  0
VERTEX
  8
0
 62
7
  6
CONTINUOUS
 10
173.9770681645
 20
151.8963589245
  0
SEQEND
  0
POLYLINE
  8
0
 62
7
  6
CONTINUOUS
 66
1
 70
0
  0
VERTEX
  8
0
 62
7
  6
CONTINUOUS
 10
148.5978879487
 20
151.8977557276
  0
VERTEX
  8
0
 62
7
  6
CONTINUOUS
 10
148.5860644987
 20
151.8966215634
  0
VERTEX
  8
0
 62
7
  6
CONTINUOUS
 10
148.5770681645
 20
151.8963589245
  0
SEQEND
  0
LINE
  8
0
 62
7
  6
CONTINUOUS
 10
61.6789473684
 20
151.8963592887
 11
72.3770681307
 21
151.8963592887
  0
LINE
  8
0
 62
7
  6
CONTINUOUS
 10
86.6808262593
 20
151.8963592887
 11
97.7770681146
 21
151.8963592887
  0
LINE
  8
0
 62
7
  6
CONTINUOUS
 10
112.0808262593
 20
151.8963592887
 11
123.1770681146
 21
151.8963592887
  0
LINE
  8
0
 62
7
  6
CONTINUOUS
 10
137.4808262593
 20
151.8963592887
 11
148.5770681653
 21
151.8963592887
  0
LINE
  8
0
 62
7
  6
CONTINUOUS
 10
162.8808262593
 20
151.8963592887
 11
173.9770681653
 21
151.8963592887
  0
LINE
  8
0
 62
7
  6
CONTINUOUS
 10
188.2808262593
 20
151.8963592887
 11
199.3770681653
 21
151.8963592887
  0
POLYLINE
  8
0
 62
7
  6
CONTINUOUS
 66
1
 70
0
  0
VERTEX
  8
0
 62
7
  6
CONTINUOUS
 10
112.0808262598
 20
151.8963589286
  0
VERTEX
  8
0
 62
7
  6
CONTINUOUS
 10
112.0716257289
 20
151.8966334862
  0
VERTEX
  8
0
 62
7
  6
CONTINUOUS
 10
112.060088801
 20
151.897744864
  0
SEQEND
  0
POLYLINE
  8
0
 62
7
  6
CONTINUOUS
 66
1
 70
0
  0
VERTEX
  8
0
 62
7
  6
CONTINUOUS
 10
162.8808262598
 20
151.8963588962
  0
VERTEX
  8
0
 62
7
  6
CONTINUOUS
 10
162.8716412687
 20
151.8966326799
  0
VERTEX
  8
0
 62
7
  6
CONTINUOUS
 10
162.8600879996
 20
151.8977448951
  0
SEQEND
  0
POLYLINE
  8
0
 62
7
  6
CONTINUOUS
 66
1
 70
0
  0
VERTEX
  8
0
 62
7
  6
CONTINUOUS
 10
86.6808262597
 20
151.8963589286
  0
VERTEX
  8
0
 62
7
  6
CONTINUOUS
 10
86.6715750613
 20
151.8966365058
  0
VERTEX
  8
0
 62
7
  6
CONTINUOUS
 10
86.6600888008
 20
151.897744864
  0
SEQEND
  0
POLYLINE
  8
0
 62
7
  6
CONTINUOUS
 66
1
 70
0
  0
VERTEX
  8
0
 62
7
  6
CONTINUOUS
 10
137.4808262597
 20
151.8963588962
  0
VERTEX
  8
0
 62
7
  6
CONTINUOUS
 10
137.4715907025
 20
151.8966356888
  0
VERTEX
  8
0
 62
7
  6
CONTINUOUS
 10
137.4600879998
 20
151.8977448951
  0
SEQEND
  0
POLYLINE
  8
0
 62
7
  6
CONTINUOUS
 66
1
 70
0
  0
VERTEX
  8
0
 62
7
  6
CONTINUOUS
 10
188.2808262597
 20
151.8963588962
  0
VERTEX
  8
0
 62
7
  6
CONTINUOUS
 10
188.2715907025
 20
151.8966356888
  0
VERTEX
  8
0
 62
7
  6
CONTINUOUS
 10
188.2600879998
 20
151.8977448951
  0
SEQEND
  0
POLYLINE
  8
0
 62
7
  6
CONTINUOUS
 66
1
 70
0
  0
VERTEX
  8
0
 62
7
  6
CONTINUOUS
 10
137.4600877966
 20
151.8977433547
  0
VERTEX
  8
0
 62
7
  6
CONTINUOUS
 10
137.1965976391
 20
151.951913205
  0
VERTEX
  8
0
 62
7
  6
CONTINUOUS
 10
136.9517206732
 20
152.0741880703
  0
VERTEX
  8
0
 62
7
  6
CONTINUOUS
 10
136.7656465863
 20
152.2388519145
  0
VERTEX
  8
0
 62
7
  6
CONTINUOUS
 10
136.6247786045
 20
152.4464051999
  0
VERTEX
  8
0
 62
7
  6
CONTINUOUS
 10
136.5401077549
 20
152.6817779651
  0
VERTEX
  8
0
 62
7
  6
CONTINUOUS
 10
136.515991177
 20
152.9001358842
  0
SEQEND
  0
POLYLINE
  8
0
 62
7
  6
CONTINUOUS
 66
1
 70
0
  0
VERTEX
  8
0
 62
7
  6
CONTINUOUS
 10
161.9159896467
 20
159.7756578947
  0
VERTEX
  8
0
 62
7
  6
CONTINUOUS
 10
161.9149462664
 20
160.8012260133
  0
VERTEX
  8
0
 62
7
  6
CONTINUOUS
 10
161.9119612655
 20
161.7845457839
  0
VERTEX
  8
0
 62
7
  6
CONTINUOUS
 10
161.9073853208
 20
162.6975251743
  0
VERTEX
  8
0
 62
7
  6
CONTINUOUS
 10
161.9015143215
 20
163.5418852295
  0
VERTEX
  8
0
 62
7
  6
CONTINUOUS
 10
161.8945901963
 20
164.3208716835
  0
VERTEX
  8
0
 62
7
  6
CONTINUOUS
 10
161.8868099989
 20
165.0381955419
  0
VERTEX
  8
0
 62
7
  6
CONTINUOUS
 10
161.8783468277
 20
165.6967504941
  0
VERTEX
  8
0
 62
7
  6
CONTINUOUS
 10
161.8693463941
 20
166.2996816376
  0
VERTEX
  8
0
 62
7
  6
CONTINUOUS
 10
161.8599289096
 20
166.8503452782
  0
VERTEX
  8
0
 62
7
  6
CONTINUOUS
 10
161.8501966539
 20
167.3519425237
  0
VERTEX
  8
0
 62
7
  6
CONTINUOUS
 10
161.8402324988
 20
167.8077187543
  0
VERTEX
  8
0
 62
7
  6
CONTINUOUS
 10
161.8301009657
 20
168.2209171937
  0
VERTEX
  8
0
 62
7
  6
CONTINUOUS
 10
161.8198533121
 20
168.5945841658
  0
VERTEX
  8
0
 62
7
  6
CONTINUOUS
 10
161.8095282423
 20
168.9315941811
  0
VERTEX
  8
0
 62
7
  6
CONTINUOUS
 10
161.7991506964
 20
169.2347028266
  0
VERTEX
  8
0
 62
7
  6
CONTINUOUS
 10
161.7887338153
 20
169.5064755739
  0
VERTEX
  8
0
 62
7
  6
CONTINUOUS
 10
161.7783097625
 20
169.7486119881
  0
VERTEX
  8
0
 62
7
  6
CONTINUOUS
 10
161.7679282474
 20
169.9623525549
  0
VERTEX
  8
0
 62
7
  6
CONTINUOUS
 10
161.7576263199
 20
170.1492687174
  0
VERTEX
  8
0
 62
7
  6
CONTINUOUS
 10
161.7474196417
 20
170.3112939312
  0
VERTEX
  8
0
 62
7
  6
CONTINUOUS
 10
161.737302627
 20
170.450565995
  0
VERTEX
  8
0
 62
7
  6
CONTINUOUS
 10
161.7272593265
 20
170.5692062173
  0
VERTEX
  8
0
 62
7
  6
CONTINUOUS
 10
161.7171704734
 20
170.6702402336
  0
VERTEX
  8
0
 62
7
  6
CONTINUOUS
 10
161.7066600124
 20
170.7581378002
  0
VERTEX
  8
0
 62
7
  6
CONTINUOUS
 10
161.6949629072
 20
170.8382159029
  0
VERTEX
  8
0
 62
7
  6
CONTINUOUS
 10
161.6806645562
 20
170.9163279363
  0
VERTEX
  8
0
 62
7
  6
CONTINUOUS
 10
161.6605780778
 20
171.0011477347
  0
VERTEX
  8
0
 62
7
  6
CONTINUOUS
 10
161.6269163796
 20
171.1063996954
  0
VERTEX
  8
0
 62
7
  6
CONTINUOUS
 10
161.5670392767
 20
171.2390969734
  0
VERTEX
  8
0
 62
7
  6
CONTINUOUS
 10
161.4721765909
 20
171.3851114631
  0
VERTEX
  8
0
 62
7
  6
CONTINUOUS
 10
161.3295227384
 20
171.5344665474
  0
VERTEX
  8
0
 62
7
  6
CONTINUOUS
 10
161.1262011592
 20
171.6692300503
  0
VERTEX
  8
0
 62
7
  6
CONTINUOUS
 10
160.8797120696
 20
171.7547949932
  0
VERTEX
  8
0
 62
7
  6
CONTINUOUS
 10
160.6759674267
 20
171.7756578938
  0
SEQEND
  0
POLYLINE
  8
0
 62
7
  6
CONTINUOUS
 66
1
 70
0
  0
VERTEX
  8
0
 62
7
  6
CONTINUOUS
 10
162.2419050901
 20
108.6256578947
  0
VERTEX
  8
0
 62
7
  6
CONTINUOUS
 10
162.2429484704
 20
107.6000897762
  0
VERTEX
  8
0
 62
7
  6
CONTINUOUS
 10
162.2459334713
 20
106.6167700056
  0
VERTEX
  8
0
 62
7
  6
CONTINUOUS
 10
162.250509416
 20
105.7037906152
  0
VERTEX
  8
0
 62
7
  6
CONTINUOUS
 10
162.2563804154
 20
104.8594305599
  0
VERTEX
  8
0
 62
7
  6
CONTINUOUS
 10
162.2633045406
 20
104.080444106
  0
VERTEX
  8
0
 62
7
  6
CONTINUOUS
 10
162.2710847379
 20
103.3631202476
  0
VERTEX
  8
0
 62
7
  6
CONTINUOUS
 10
162.2795479092
 20
102.7045652954
  0
VERTEX
  8
0
 62
7
  6
CONTINUOUS
 10
162.2885483427
 20
102.1016341519
  0
VERTEX
  8
0
 62
7
  6
CONTINUOUS
 10
162.2979658272
 20
101.5509705113
  0
VERTEX
  8
0
 62
7
  6
CONTINUOUS
 10
162.307698083
 20
101.0493732658
  0
VERTEX
  8
0
 62
7
  6
CONTINUOUS
 10
162.3176622381
 20
100.5935970352
  0
VERTEX
  8
0
 62
7
  6
CONTINUOUS
 10
162.3277937711
 20
100.1803985958
  0
VERTEX
  8
0
 62
7
  6
CONTINUOUS
 10
162.3380414247
 20
99.8067316237
  0
VERTEX
  8
0
 62
7
  6
CONTINUOUS
 10
162.3483664945
 20
99.4697216084
  0
VERTEX
  8
0
 62
7
  6
CONTINUOUS
 10
162.3587440405
 20
99.1666129629
  0
VERTEX
  8
0
 62
7
  6
CONTINUOUS
 10
162.3691609215
 20
98.8948402155
  0
VERTEX
  8
0
 62
7
  6
CONTINUOUS
 10
162.3795849743
 20
98.6527038014
  0
VERTEX
  8
0
 62
7
  6
CONTINUOUS
 10
162.3899664894
 20
98.4389632346
  0
VERTEX
  8
0
 62
7
  6
CONTINUOUS
 10
162.4002684169
 20
98.252047072
  0
VERTEX
  8
0
 62
7
  6
CONTINUOUS
 10
162.4104750951
 20
98.0900218583
  0
VERTEX
  8
0
 62
7
  6
CONTINUOUS
 10
162.4205921099
 20
97.9507497945
  0
VERTEX
  8
0
 62
7
  6
CONTINUOUS
 10
162.4306354104
 20
97.8321095721
  0
VERTEX
  8
0
 62
7
  6
CONTINUOUS
 10
162.4407242634
 20
97.7310755559
  0
VERTEX
  8
0
 62
7
  6
CONTINUOUS
 10
162.4512347245
 20
97.6431779893
  0
VERTEX
  8
0
 62
7
  6
CONTINUOUS
 10
162.4629318296
 20
97.5630998866
  0
VERTEX
  8
0
 62
7
  6
CONTINUOUS
 10
162.4772301807
 20
97.4849878532
  0
VERTEX
  8
0
 62
7
  6
CONTINUOUS
 10
162.4973166591
 20
97.4001680547
  0
VERTEX
  8
0
 62
7
  6
CONTINUOUS
 10
162.5309783572
 20
97.2949160941
  0
VERTEX
  8
0
 62
7
  6
CONTINUOUS
 10
162.5908554601
 20
97.162218816
  0
VERTEX
  8
0
 62
7
  6
CONTINUOUS
 10
162.6857181459
 20
97.0162043264
  0
VERTEX
  8
0
 62
7
  6
CONTINUOUS
 10
162.8283719985
 20
96.8668492421
  0
VERTEX
  8
0
 62
7
  6
CONTINUOUS
 10
163.0316935776
 20
96.7320857391
  0
VERTEX
  8
0
 62
7
  6
CONTINUOUS
 10
163.2781826673
 20
96.6465207963
  0
VERTEX
  8
0
 62
7
  6
CONTINUOUS
 10
163.4819273101
 20
96.6256578956
  0
SEQEND
  0
LINE
  8
0
 62
7
  6
CONTINUOUS
 10
161.9159896493
 20
159.7756578947
 11
161.9159896493
 21
152.9001359535
  0
LINE
  8
0
 62
7
  6
CONTINUOUS
 10
162.2419050875
 20
108.6256578947
 11
162.2419050875
 21
115.5011797081
  0
POLYLINE
  8
0
 62
7
  6
CONTINUOUS
 66
1
 70
0
  0
VERTEX
  8
0
 62
7
  6
CONTINUOUS
 10
123.1978833047
 20
151.8977550905
  0
VERTEX
  8
0
 62
7
  6
CONTINUOUS
 10
123.1860782811
 20
151.8966222845
  0
VERTEX
  8
0
 62
7
  6
CONTINUOUS
 10
123.1770681136
 20
151.8963588998
  0
SEQEND
  0
POLYLINE
  8
0
 62
7
  6
CONTINUOUS
 66
1
 70
0
  0
VERTEX
  8
0
 62
7
  6
CONTINUOUS
 10
97.7978833048
 20
151.8977550906
  0
VERTEX
  8
0
 62
7
  6
CONTINUOUS
 10
97.7860758225
 20
151.8966221414
  0
VERTEX
  8
0
 62
7
  6
CONTINUOUS
 10
97.7770681136
 20
151.8963588998
  0
SEQEND
  0
POLYLINE
  8
0
 62
7
  6
CONTINUOUS
 66
1
 70
0
  0
VERTEX
  8
0
 62
7
  6
CONTINUOUS
 10
72.3978833047
 20
151.8977550905
  0
VERTEX
  8
0
 62
7
  6
CONTINUOUS
 10
72.3860782869
 20
151.8966222848
  0
VERTEX
  8
0
 62
7
  6
CONTINUOUS
 10
72.3770681299
 20
151.8963588998
  0
SEQEND
  0
POLYLINE
  8
0
 62
7
  6
CONTINUOUS
 66
1
 70
0
  0
VERTEX
  8
0
 62
7
  6
CONTINUOUS
 10
162.8600877963
 20
151.8977433548
  0
VERTEX
  8
0
 62
7
  6
CONTINUOUS
 10
162.5965976443
 20
151.9519132032
  0
VERTEX
  8
0
 62
7
  6
CONTINUOUS
 10
162.3517206735
 20
152.0741880701
  0
VERTEX
  8
0
 62
7
  6
CONTINUOUS
 10
162.1656465864
 20
152.2388519144
  0
VERTEX
  8
0
 62
7
  6
CONTINUOUS
 10
162.0247786046
 20
152.4464051998
  0
VERTEX
  8
0
 62
7
  6
CONTINUOUS
 10
161.940107755
 20
152.681777965
  0
VERTEX
  8
0
 62
7
  6
CONTINUOUS
 10
161.915991177
 20
152.9001358842
  0
SEQEND
  0
POLYLINE
  8
0
 62
7
  6
CONTINUOUS
 66
1
 70
0
  0
VERTEX
  8
0
 62
7
  6
CONTINUOUS
 10
61.6789473684
 20
151.8963592887
  0
VERTEX
  8
0
 62
7
  6
CONTINUOUS
 10
61.438690305
 20
151.8670685879
  0
VERTEX
  8
0
 62
7
  6
CONTINUOUS
 10
61.2133715182
 20
151.7813672704
  0
VERTEX
  8
0
 62
7
  6
CONTINUOUS
 10
61.0154379043
 20
151.6445271783
  0
VERTEX
  8
0
 62
7
  6
CONTINUOUS
 10
60.9304767853
 20
151.5595272811
  0
VERTEX
  8
0
 62
7
  6
CONTINUOUS
 10
60.7938233054
 20
151.3617144144
  0
VERTEX
  8
0
 62
7
  6
CONTINUOUS
 10
60.7081860075
 20
151.1364059094
  0
VERTEX
  8
0
 62
7
  6
CONTINUOUS
 10
60.6789473684
 20
150.8963592887
  0
SEQEND
  0
LINE
  8
DEFAULT_1
 62
2
  6
CENTER
 10
51.2244662548
 20
159.6006578947
 11
221.3644427531
 21
159.6006578947
  0
POLYLINE
  8
0
 62
7
  6
CONTINUOUS
 66
1
 70
0
  0
VERTEX
  8
0
 62
7
  6
CONTINUOUS
 10
188.2600877966
 20
151.8977433547
  0
VERTEX
  8
0
 62
7
  6
CONTINUOUS
 10
187.9965976391
 20
151.951913205
  0
VERTEX
  8
0
 62
7
  6
CONTINUOUS
 10
187.7517206732
 20
152.0741880703
  0
VERTEX
  8
0
 62
7
  6
CONTINUOUS
 10
187.5656465863
 20
152.2388519145
  0
VERTEX
  8
0
 62
7
  6
CONTINUOUS
 10
187.4247786045
 20
152.4464051999
  0
VERTEX
  8
0
 62
7
  6
CONTINUOUS
 10
187.3401077549
 20
152.6817779651
  0
VERTEX
  8
0
 62
7
  6
CONTINUOUS
 10
187.315991177
 20
152.9001358842
  0
SEQEND
  0
POLYLINE
  8
0
 62
7
  6
CONTINUOUS
 66
1
 70
0
  0
VERTEX
  8
0
 62
7
  6
CONTINUOUS
 10
175.0712496393
 20
169.5573053588
  0
VERTEX
  8
0
 62
7
  6
CONTINUOUS
 10
175.0617394592
 20
169.3160537131
  0
VERTEX
  8
0
 62
7
  6
CONTINUOUS
 10
175.0521479954
 20
169.0459833326
  0
VERTEX
  8
0
 62
7
  6
CONTINUOUS
 10
175.0424802968
 20
168.7440513875
  0
VERTEX
  8
0
 62
7
  6
CONTINUOUS
 10
175.0327529929
 20
168.406935398
  0
VERTEX
  8
0
 62
7
  6
CONTINUOUS
 10
175.0229877151
 20
168.0307239006
  0
VERTEX
  8
0
 62
7
  6
CONTINUOUS
 10
175.0132205541
 20
167.6110951798
  0
VERTEX
  8
0
 62
7
  6
CONTINUOUS
 10
175.0035108303
 20
167.1436154664
  0
VERTEX
  8
0
 62
7
  6
CONTINUOUS
 10
174.9939538962
 20
166.6244885743
  0
VERTEX
  8
0
 62
7
  6
CONTINUOUS
 10
174.9846707178
 20
166.0503484576
  0
VERTEX
  8
0
 62
7
  6
CONTINUOUS
 10
174.9758055431
 20
165.4183134514
  0
VERTEX
  8
0
 62
7
  6
CONTINUOUS
 10
174.9675269424
 20
164.7262735851
  0
VERTEX
  8
0
 62
7
  6
CONTINUOUS
 10
174.960023933
 20
163.9728512107
  0
VERTEX
  8
0
 62
7
  6
CONTINUOUS
 10
174.9534926755
 20
163.1557271965
  0
VERTEX
  8
0
 62
7
  6
CONTINUOUS
 10
174.9481483652
 20
162.270759583
  0
VERTEX
  8
0
 62
7
  6
CONTINUOUS
 10
174.9442615035
 20
161.3147861821
  0
VERTEX
  8
0
 62
7
  6
CONTINUOUS
 10
174.9421634833
 20
160.2864226977
  0
VERTEX
  8
0
 62
7
  6
CONTINUOUS
 10
174.9419050875
 20
152.9001359942
  0
SEQEND
  0
POLYLINE
  8
0
 62
7
  6
CONTINUOUS
 66
1
 70
0
  0
VERTEX
  8
0
 62
7
  6
CONTINUOUS
 10
174.4866707931
 20
98.8446285522
  0
VERTEX
  8
0
 62
7
  6
CONTINUOUS
 10
174.4961798007
 20
99.0859173659
  0
VERTEX
  8
0
 62
7
  6
CONTINUOUS
 10
174.5057700392
 20
99.3560230872
  0
VERTEX
  8
0
 62
7
  6
CONTINUOUS
 10
174.5154363853
 20
99.6579859797
  0
VERTEX
  8
0
 62
7
  6
CONTINUOUS
 10
174.5251621688
 20
99.9951261147
  0
VERTEX
  8
0
 62
7
  6
CONTINUOUS
 10
174.5349257808
 20
100.3713542701
  0
VERTEX
  8
0
 62
7
  6
CONTINUOUS
 10
174.544691153
 20
100.7909913906
  0
VERTEX
  8
0
 62
7
  6
CONTINUOUS
 10
174.5543989821
 20
101.2584700047
  0
VERTEX
  8
0
 62
7
  6
CONTINUOUS
 10
174.56395394
 20
101.7775849184
  0
VERTEX
  8
0
 62
7
  6
CONTINUOUS
 10
174.5732351081
 20
102.3517017634
  0
VERTEX
  8
0
 62
7
  6
CONTINUOUS
 10
174.5820982696
 20
102.9837006182
  0
VERTEX
  8
0
 62
7
  6
CONTINUOUS
 10
174.5903748806
 20
103.6756884277
  0
VERTEX
  8
0
 62
7
  6
CONTINUOUS
 10
174.5978759734
 20
104.4290400034
  0
VERTEX
  8
0
 62
7
  6
CONTINUOUS
 10
174.6044054762
 20
105.2460744166
  0
VERTEX
  8
0
 62
7
  6
CONTINUOUS
 10
174.6097482777
 20
106.1309320961
  0
VERTEX
  8
0
 62
7
  6
CONTINUOUS
 10
174.6136339836
 20
107.0867734314
  0
VERTEX
  8
0
 62
7
  6
CONTINUOUS
 10
174.6157313434
 20
108.1149819104
  0
VERTEX
  8
0
 62
7
  6
CONTINUOUS
 10
174.6159896493
 20
115.5011796404
  0
SEQEND
  0
POLYLINE
  8
0
 62
7
  6
CONTINUOUS
 66
1
 70
0
  0
VERTEX
  8
0
 62
7
  6
CONTINUOUS
 10
174.9419035732
 20
152.9001359942
  0
VERTEX
  8
0
 62
7
  6
CONTINUOUS
 10
174.9172560589
 20
152.6794170541
  0
VERTEX
  8
0
 62
7
  6
CONTINUOUS
 10
174.832082248
 20
152.4443787029
  0
VERTEX
  8
0
 62
7
  6
CONTINUOUS
 10
174.6908328977
 20
152.2372480575
  0
VERTEX
  8
0
 62
7
  6
CONTINUOUS
 10
174.5045228316
 20
152.0730607232
  0
VERTEX
  8
0
 62
7
  6
CONTINUOUS
 10
174.2586954227
 20
151.9510363515
  0
VERTEX
  8
0
 62
7
  6
CONTINUOUS
 10
173.9978882747
 20
151.8977540814
  0
SEQEND
  0
POLYLINE
  8
0
 62
7
  6
CONTINUOUS
 66
1
 70
0
  0
VERTEX
  8
0
 62
7
  6
CONTINUOUS
 10
174.6159910015
 20
115.5011796404
  0
VERTEX
  8
0
 62
7
  6
CONTINUOUS
 10
174.6406337988
 20
115.7218777375
  0
VERTEX
  8
0
 62
7
  6
CONTINUOUS
 10
174.7257928323
 20
115.9568988112
  0
VERTEX
  8
0
 62
7
  6
CONTINUOUS
 10
174.8670192482
 20
116.1640195739
  0
VERTEX
  8
0
 62
7
  6
CONTINUOUS
 10
175.0533012404
 20
116.3282069498
  0
VERTEX
  8
0
 62
7
  6
CONTINUOUS
 10
175.2985706773
 20
116.4500682432
  0
VERTEX
  8
0
 62
7
  6
CONTINUOUS
 10
175.5599892844
 20
116.5035589963
  0
SEQEND
  0
POLYLINE
  8
0
 62
7
  6
CONTINUOUS
 66
1
 70
0
  0
VERTEX
  8
0
 62
7
  6
CONTINUOUS
 10
201.5819272937
 20
171.7756578938
  0
VERTEX
  8
0
 62
7
  6
CONTINUOUS
 10
201.5069465172
 20
171.7728577003
  0
VERTEX
  8
0
 62
7
  6
CONTINUOUS
 10
201.2528883284
 20
171.7202905798
  0
VERTEX
  8
0
 62
7
  6
CONTINUOUS
 10
201.0250177033
 20
171.6073982386
  0
VERTEX
  8
0
 62
7
  6
CONTINUOUS
 10
200.8492800087
 20
171.4592521553
  0
VERTEX
  8
0
 62
7
  6
CONTINUOUS
 10
200.7316922224
 20
171.3086609656
  0
VERTEX
  8
0
 62
7
  6
CONTINUOUS
 10
200.6590416242
 20
171.1745813121
  0
VERTEX
  8
0
 62
7
  6
CONTINUOUS
 10
200.6151914787
 20
171.0611969532
  0
VERTEX
  8
0
 62
7
  6
CONTINUOUS
 10
200.5888896096
 20
170.9683291636
  0
VERTEX
  8
0
 62
7
  6
CONTINUOUS
 10
200.5718538413
 20
170.8891019265
  0
VERTEX
  8
0
 62
7
  6
CONTINUOUS
 10
200.5593009313
 20
170.8151374899
  0
VERTEX
  8
0
 62
7
  6
CONTINUOUS
 10
200.5488758107
 20
170.7398309426
  0
VERTEX
  8
0
 62
7
  6
CONTINUOUS
 10
200.5394348091
 20
170.6582808849
  0
VERTEX
  8
0
 62
7
  6
CONTINUOUS
 10
200.5304358366
 20
170.5670295928
  0
VERTEX
  8
0
 62
7
  6
CONTINUOUS
 10
200.521598905
 20
170.4633169375
  0
VERTEX
  8
0
 62
7
  6
CONTINUOUS
 10
200.5127448525
 20
170.3443380768
  0
VERTEX
  8
0
 62
7
  6
CONTINUOUS
 10
200.5037685118
 20
170.2073540208
  0
VERTEX
  8
0
 62
7
  6
CONTINUOUS
 10
200.4946380171
 20
170.0501194303
  0
VERTEX
  8
0
 62
7
  6
CONTINUOUS
 10
200.4853648616
 20
169.8708596962
  0
VERTEX
  8
0
 62
7
  6
CONTINUOUS
 10
200.4712496393
 20
169.5573053588
  0
SEQEND
  0
POLYLINE
  8
0
 62
7
  6
CONTINUOUS
 66
1
 70
0
  0
VERTEX
  8
0
 62
7
  6
CONTINUOUS
 10
176.1819272937
 20
171.7756578938
  0
VERTEX
  8
0
 62
7
  6
CONTINUOUS
 10
176.1069465172
 20
171.7728577003
  0
VERTEX
  8
0
 62
7
  6
CONTINUOUS
 10
175.8528883284
 20
171.7202905798
  0
VERTEX
  8
0
 62
7
  6
CONTINUOUS
 10
175.6250177033
 20
171.6073982386
  0
VERTEX
  8
0
 62
7
  6
CONTINUOUS
 10
175.4492800087
 20
171.4592521553
  0
VERTEX
  8
0
 62
7
  6
CONTINUOUS
 10
175.3316922224
 20
171.3086609656
  0
VERTEX
  8
0
 62
7
  6
CONTINUOUS
 10
175.2590416242
 20
171.1745813121
  0
VERTEX
  8
0
 62
7
  6
CONTINUOUS
 10
175.2151914787
 20
171.0611969532
  0
VERTEX
  8
0
 62
7
  6
CONTINUOUS
 10
175.1888896096
 20
170.9683291636
  0
VERTEX
  8
0
 62
7
  6
CONTINUOUS
 10
175.1718538413
 20
170.8891019265
  0
VERTEX
  8
0
 62
7
  6
CONTINUOUS
 10
175.1593009313
 20
170.8151374899
  0
VERTEX
  8
0
 62
7
  6
CONTINUOUS
 10
175.1488758107
 20
170.7398309426
  0
VERTEX
  8
0
 62
7
  6
CONTINUOUS
 10
175.1394348091
 20
170.6582808849
  0
VERTEX
  8
0
 62
7
  6
CONTINUOUS
 10
175.1304358366
 20
170.5670295928
  0
VERTEX
  8
0
 62
7
  6
CONTINUOUS
 10
175.121598905
 20
170.4633169375
  0
VERTEX
  8
0
 62
7
  6
CONTINUOUS
 10
175.1127448525
 20
170.3443380768
  0
VERTEX
  8
0
 62
7
  6
CONTINUOUS
 10
175.1037685118
 20
170.2073540208
  0
VERTEX
  8
0
 62
7
  6
CONTINUOUS
 10
175.0946380171
 20
170.0501194303
  0
VERTEX
  8
0
 62
7
  6
CONTINUOUS
 10
175.0853648616
 20
169.8708596962
  0
VERTEX
  8
0
 62
7
  6
CONTINUOUS
 10
175.0712496393
 20
169.5573053588
  0
SEQEND
  0
POLYLINE
  8
0
 62
7
  6
CONTINUOUS
 66
1
 70
0
  0
VERTEX
  8
0
 62
7
  6
CONTINUOUS
 10
150.7819272937
 20
171.7756578938
  0
VERTEX
  8
0
 62
7
  6
CONTINUOUS
 10
150.7069465172
 20
171.7728577003
  0
VERTEX
  8
0
 62
7
  6
CONTINUOUS
 10
150.4528883284
 20
171.7202905798
  0
VERTEX
  8
0
 62
7
  6
CONTINUOUS
 10
150.2250177033
 20
171.6073982386
  0
VERTEX
  8
0
 62
7
  6
CONTINUOUS
 10
150.0492800087
 20
171.4592521553
  0
VERTEX
  8
0
 62
7
  6
CONTINUOUS
 10
149.9316922224
 20
171.3086609656
  0
VERTEX
  8
0
 62
7
  6
CONTINUOUS
 10
149.8590416242
 20
171.1745813121
  0
VERTEX
  8
0
 62
7
  6
CONTINUOUS
 10
149.8151914787
 20
171.0611969532
  0
VERTEX
  8
0
 62
7
  6
CONTINUOUS
 10
149.7888896096
 20
170.9683291636
  0
VERTEX
  8
0
 62
7
  6
CONTINUOUS
 10
149.7718538413
 20
170.8891019265
  0
VERTEX
  8
0
 62
7
  6
CONTINUOUS
 10
149.7593009313
 20
170.8151374899
  0
VERTEX
  8
0
 62
7
  6
CONTINUOUS
 10
149.7488758107
 20
170.7398309426
  0
VERTEX
  8
0
 62
7
  6
CONTINUOUS
 10
149.7394348091
 20
170.6582808849
  0
VERTEX
  8
0
 62
7
  6
CONTINUOUS
 10
149.7304358366
 20
170.5670295928
  0
VERTEX
  8
0
 62
7
  6
CONTINUOUS
 10
149.721598905
 20
170.4633169375
  0
VERTEX
  8
0
 62
7
  6
CONTINUOUS
 10
149.7127448525
 20
170.3443380768
  0
VERTEX
  8
0
 62
7
  6
CONTINUOUS
 10
149.7037685118
 20
170.2073540208
  0
VERTEX
  8
0
 62
7
  6
CONTINUOUS
 10
149.6946380171
 20
170.0501194303
  0
VERTEX
  8
0
 62
7
  6
CONTINUOUS
 10
149.6853648616
 20
169.8708596962
  0
VERTEX
  8
0
 62
7
  6
CONTINUOUS
 10
149.6712496393
 20
169.5573053588
  0
SEQEND
  0
POLYLINE
  8
0
 62
7
  6
CONTINUOUS
 66
1
 70
0
  0
VERTEX
  8
0
 62
7
  6
CONTINUOUS
 10
125.3819272937
 20
171.7756578938
  0
VERTEX
  8
0
 62
7
  6
CONTINUOUS
 10
125.3069465172
 20
171.7728577003
  0
VERTEX
  8
0
 62
7
  6
CONTINUOUS
 10
125.0528883284
 20
171.7202905798
  0
VERTEX
  8
0
 62
7
  6
CONTINUOUS
 10
124.8250177033
 20
171.6073982386
  0
VERTEX
  8
0
 62
7
  6
CONTINUOUS
 10
124.6492800087
 20
171.4592521553
  0
VERTEX
  8
0
 62
7
  6
CONTINUOUS
 10
124.5316922224
 20
171.3086609656
  0
VERTEX
  8
0
 62
7
  6
CONTINUOUS
 10
124.4590416242
 20
171.1745813121
  0
VERTEX
  8
0
 62
7
  6
CONTINUOUS
 10
124.4151914787
 20
171.0611969532
  0
VERTEX
  8
0
 62
7
  6
CONTINUOUS
 10
124.3888896096
 20
170.9683291636
  0
VERTEX
  8
0
 62
7
  6
CONTINUOUS
 10
124.3718538413
 20
170.8891019265
  0
VERTEX
  8
0
 62
7
  6
CONTINUOUS
 10
124.3593009313
 20
170.8151374899
  0
VERTEX
  8
0
 62
7
  6
CONTINUOUS
 10
124.3488758107
 20
170.7398309426
  0
VERTEX
  8
0
 62
7
  6
CONTINUOUS
 10
124.3394348091
 20
170.6582808849
  0
VERTEX
  8
0
 62
7
  6
CONTINUOUS
 10
124.3304358366
 20
170.5670295928
  0
VERTEX
  8
0
 62
7
  6
CONTINUOUS
 10
124.321598905
 20
170.4633169375
  0
VERTEX
  8
0
 62
7
  6
CONTINUOUS
 10
124.3127448525
 20
170.3443380768
  0
VERTEX
  8
0
 62
7
  6
CONTINUOUS
 10
124.3037685118
 20
170.2073540208
  0
VERTEX
  8
0
 62
7
  6
CONTINUOUS
 10
124.2946380171
 20
170.0501194303
  0
VERTEX
  8
0
 62
7
  6
CONTINUOUS
 10
124.2853648616
 20
169.8708596962
  0
VERTEX
  8
0
 62
7
  6
CONTINUOUS
 10
124.2712496393
 20
169.5573053588
  0
SEQEND
  0
POLYLINE
  8
0
 62
7
  6
CONTINUOUS
 66
1
 70
0
  0
VERTEX
  8
0
 62
7
  6
CONTINUOUS
 10
99.9819272937
 20
171.7756578938
  0
VERTEX
  8
0
 62
7
  6
CONTINUOUS
 10
99.9069465172
 20
171.7728577003
  0
VERTEX
  8
0
 62
7
  6
CONTINUOUS
 10
99.6528883284
 20
171.7202905798
  0
VERTEX
  8
0
 62
7
  6
CONTINUOUS
 10
99.4250177033
 20
171.6073982386
  0
VERTEX
  8
0
 62
7
  6
CONTINUOUS
 10
99.2492800087
 20
171.4592521553
  0
VERTEX
  8
0
 62
7
  6
CONTINUOUS
 10
99.1316922224
 20
171.3086609656
  0
VERTEX
  8
0
 62
7
  6
CONTINUOUS
 10
99.0590416242
 20
171.1745813121
  0
VERTEX
  8
0
 62
7
  6
CONTINUOUS
 10
99.0151914787
 20
171.0611969532
  0
VERTEX
  8
0
 62
7
  6
CONTINUOUS
 10
98.9888896096
 20
170.9683291636
  0
VERTEX
  8
0
 62
7
  6
CONTINUOUS
 10
98.9718538413
 20
170.8891019265
  0
VERTEX
  8
0
 62
7
  6
CONTINUOUS
 10
98.9593009313
 20
170.8151374899
  0
VERTEX
  8
0
 62
7
  6
CONTINUOUS
 10
98.9488758107
 20
170.7398309426
  0
VERTEX
  8
0
 62
7
  6
CONTINUOUS
 10
98.9394348091
 20
170.6582808849
  0
VERTEX
  8
0
 62
7
  6
CONTINUOUS
 10
98.9304358366
 20
170.5670295928
  0
VERTEX
  8
0
 62
7
  6
CONTINUOUS
 10
98.921598905
 20
170.4633169375
  0
VERTEX
  8
0
 62
7
  6
CONTINUOUS
 10
98.9127448525
 20
170.3443380768
  0
VERTEX
  8
0
 62
7
  6
CONTINUOUS
 10
98.9037685118
 20
170.2073540208
  0
VERTEX
  8
0
 62
7
  6
CONTINUOUS
 10
98.8946380171
 20
170.0501194303
  0
VERTEX
  8
0
 62
7
  6
CONTINUOUS
 10
98.8853648616
 20
169.8708596962
  0
VERTEX
  8
0
 62
7
  6
CONTINUOUS
 10
98.8712496393
 20
169.5573053588
  0
SEQEND
  0
POLYLINE
  8
0
 62
7
  6
CONTINUOUS
 66
1
 70
0
  0
VERTEX
  8
0
 62
7
  6
CONTINUOUS
 10
74.5819272937
 20
171.7756578938
  0
VERTEX
  8
0
 62
7
  6
CONTINUOUS
 10
74.5069465172
 20
171.7728577003
  0
VERTEX
  8
0
 62
7
  6
CONTINUOUS
 10
74.2528883284
 20
171.7202905798
  0
VERTEX
  8
0
 62
7
  6
CONTINUOUS
 10
74.0250177033
 20
171.6073982386
  0
VERTEX
  8
0
 62
7
  6
CONTINUOUS
 10
73.8492800087
 20
171.4592521553
  0
VERTEX
  8
0
 62
7
  6
CONTINUOUS
 10
73.7316922224
 20
171.3086609656
  0
VERTEX
  8
0
 62
7
  6
CONTINUOUS
 10
73.6590416242
 20
171.1745813121
  0
VERTEX
  8
0
 62
7
  6
CONTINUOUS
 10
73.6151914787
 20
171.0611969532
  0
VERTEX
  8
0
 62
7
  6
CONTINUOUS
 10
73.5888896096
 20
170.9683291636
  0
VERTEX
  8
0
 62
7
  6
CONTINUOUS
 10
73.5718538413
 20
170.8891019265
  0
VERTEX
  8
0
 62
7
  6
CONTINUOUS
 10
73.5593009313
 20
170.8151374899
  0
VERTEX
  8
0
 62
7
  6
CONTINUOUS
 10
73.5488758107
 20
170.7398309426
  0
VERTEX
  8
0
 62
7
  6
CONTINUOUS
 10
73.5394348091
 20
170.6582808849
  0
VERTEX
  8
0
 62
7
  6
CONTINUOUS
 10
73.5304358366
 20
170.5670295928
  0
VERTEX
  8
0
 62
7
  6
CONTINUOUS
 10
73.521598905
 20
170.4633169375
  0
VERTEX
  8
0
 62
7
  6
CONTINUOUS
 10
73.5127448525
 20
170.3443380768
  0
VERTEX
  8
0
 62
7
  6
CONTINUOUS
 10
73.5037685118
 20
170.2073540208
  0
VERTEX
  8
0
 62
7
  6
CONTINUOUS
 10
73.4946380171
 20
170.0501194303
  0
VERTEX
  8
0
 62
7
  6
CONTINUOUS
 10
73.4853648616
 20
169.8708596962
  0
VERTEX
  8
0
 62
7
  6
CONTINUOUS
 10
73.4712496393
 20
169.5573053588
  0
SEQEND
  0
LINE
  8
SURF
 62
7
  6
CONTINUOUS
 10
74.581925941
 20
171.7756578947
 11
84.4759687959
 21
171.7756578947
  0
LINE
  8
SURF
 62
7
  6
CONTINUOUS
 10
99.981925941
 20
171.7756578947
 11
109.8759687959
 21
171.7756578947
  0
LINE
  8
SURF
 62
7
  6
CONTINUOUS
 10
125.381925941
 20
171.7756578947
 11
135.2759687959
 21
171.7756578947
  0
LINE
  8
SURF
 62
7
  6
CONTINUOUS
 10
150.781925941
 20
171.7756578947
 11
160.6759687959
 21
171.7756578947
  0
LINE
  8
SURF
 62
7
  6
CONTINUOUS
 10
176.181925941
 20
171.7756578947
 11
186.0759687959
 21
171.7756578947
  0
LINE
  8
0
 62
7
  6
CONTINUOUS
 10
201.581925941
 20
171.7756578947
 11
211.6789473684
 21
171.7756578947
  0
POLYLINE
  8
0
 62
7
  6
CONTINUOUS
 66
1
 70
0
  0
VERTEX
  8
0
 62
7
  6
CONTINUOUS
 10
187.3159896467
 20
159.7756578947
  0
VERTEX
  8
0
 62
7
  6
CONTINUOUS
 10
187.3149462664
 20
160.8012260133
  0
VERTEX
  8
0
 62
7
  6
CONTINUOUS
 10
187.3119612655
 20
161.7845457839
  0
VERTEX
  8
0
 62
7
  6
CONTINUOUS
 10
187.3073853208
 20
162.6975251743
  0
VERTEX
  8
0
 62
7
  6
CONTINUOUS
 10
187.3015143215
 20
163.5418852295
  0
VERTEX
  8
0
 62
7
  6
CONTINUOUS
 10
187.2945901963
 20
164.3208716835
  0
VERTEX
  8
0
 62
7
  6
CONTINUOUS
 10
187.2868099989
 20
165.0381955419
  0
VERTEX
  8
0
 62
7
  6
CONTINUOUS
 10
187.2783468277
 20
165.6967504941
  0
VERTEX
  8
0
 62
7
  6
CONTINUOUS
 10
187.2693463941
 20
166.2996816376
  0
VERTEX
  8
0
 62
7
  6
CONTINUOUS
 10
187.2599289096
 20
166.8503452782
  0
VERTEX
  8
0
 62
7
  6
CONTINUOUS
 10
187.2501966539
 20
167.3519425237
  0
VERTEX
  8
0
 62
7
  6
CONTINUOUS
 10
187.2402324988
 20
167.8077187543
  0
VERTEX
  8
0
 62
7
  6
CONTINUOUS
 10
187.2301009657
 20
168.2209171937
  0
VERTEX
  8
0
 62
7
  6
CONTINUOUS
 10
187.2198533121
 20
168.5945841658
  0
VERTEX
  8
0
 62
7
  6
CONTINUOUS
 10
187.2095282423
 20
168.9315941811
  0
VERTEX
  8
0
 62
7
  6
CONTINUOUS
 10
187.1991506964
 20
169.2347028266
  0
VERTEX
  8
0
 62
7
  6
CONTINUOUS
 10
187.1887338153
 20
169.5064755739
  0
VERTEX
  8
0
 62
7
  6
CONTINUOUS
 10
187.1783097625
 20
169.7486119881
  0
VERTEX
  8
0
 62
7
  6
CONTINUOUS
 10
187.1679282474
 20
169.9623525549
  0
VERTEX
  8
0
 62
7
  6
CONTINUOUS
 10
187.1576263199
 20
170.1492687174
  0
VERTEX
  8
0
 62
7
  6
CONTINUOUS
 10
187.1474196417
 20
170.3112939312
  0
VERTEX
  8
0
 62
7
  6
CONTINUOUS
 10
187.137302627
 20
170.450565995
  0
VERTEX
  8
0
 62
7
  6
CONTINUOUS
 10
187.1272593265
 20
170.5692062173
  0
VERTEX
  8
0
 62
7
  6
CONTINUOUS
 10
187.1171704734
 20
170.6702402336
  0
VERTEX
  8
0
 62
7
  6
CONTINUOUS
 10
187.1066600124
 20
170.7581378002
  0
VERTEX
  8
0
 62
7
  6
CONTINUOUS
 10
187.0949629072
 20
170.8382159029
  0
VERTEX
  8
0
 62
7
  6
CONTINUOUS
 10
187.0806645562
 20
170.9163279363
  0
VERTEX
  8
0
 62
7
  6
CONTINUOUS
 10
187.0605780778
 20
171.0011477347
  0
VERTEX
  8
0
 62
7
  6
CONTINUOUS
 10
187.0269163796
 20
171.1063996954
  0
VERTEX
  8
0
 62
7
  6
CONTINUOUS
 10
186.9670392767
 20
171.2390969734
  0
VERTEX
  8
0
 62
7
  6
CONTINUOUS
 10
186.8721765909
 20
171.3851114631
  0
VERTEX
  8
0
 62
7
  6
CONTINUOUS
 10
186.7295227384
 20
171.5344665474
  0
VERTEX
  8
0
 62
7
  6
CONTINUOUS
 10
186.5262011592
 20
171.6692300503
  0
VERTEX
  8
0
 62
7
  6
CONTINUOUS
 10
186.2797120696
 20
171.7547949932
  0
VERTEX
  8
0
 62
7
  6
CONTINUOUS
 10
186.0759674267
 20
171.7756578938
  0
SEQEND
  0
POLYLINE
  8
0
 62
7
  6
CONTINUOUS
 66
1
 70
0
  0
VERTEX
  8
0
 62
7
  6
CONTINUOUS
 10
187.6419050901
 20
108.6256578947
  0
VERTEX
  8
0
 62
7
  6
CONTINUOUS
 10
187.6429477209
 20
107.6004573765
  0
VERTEX
  8
0
 62
7
  6
CONTINUOUS
 10
187.6459307134
 20
106.6174520125
  0
VERTEX
  8
0
 62
7
  6
CONTINUOUS
 10
187.6505037383
 20
105.7047372892
  0
VERTEX
  8
0
 62
7
  6
CONTINUOUS
 10
187.6563711754
 20
104.8605955795
  0
VERTEX
  8
0
 62
7
  6
CONTINUOUS
 10
187.6632912908
 20
104.0817860947
  0
VERTEX
  8
0
 62
7
  6
CONTINUOUS
 10
187.6710671934
 20
103.3646006887
  0
VERTEX
  8
0
 62
7
  6
CONTINUOUS
 10
187.6795259233
 20
102.7061483596
  0
VERTEX
  8
0
 62
7
  6
CONTINUOUS
 10
187.6885218592
 20
102.103288363
  0
VERTEX
  8
0
 62
7
  6
CONTINUOUS
 10
187.6979348643
 20
101.5526677621
  0
VERTEX
  8
0
 62
7
  6
CONTINUOUS
 10
187.7076627133
 20
101.0510887402
  0
VERTEX
  8
0
 62
7
  6
CONTINUOUS
 10
187.7176225572
 20
100.595309596
  0
VERTEX
  8
0
 62
7
  6
CONTINUOUS
 10
187.7277498828
 20
100.1820902315
  0
VERTEX
  8
0
 62
7
  6
CONTINUOUS
 10
187.737993441
 20
99.808386589
  0
VERTEX
  8
0
 62
7
  6
CONTINUOUS
 10
187.7483145072
 20
99.4713267626
  0
VERTEX
  8
0
 62
7
  6
CONTINUOUS
 10
187.7586881022
 20
99.168157494
  0
VERTEX
  8
0
 62
7
  6
CONTINUOUS
 10
187.7691010809
 20
98.8963139961
  0
VERTEX
  8
0
 62
7
  6
CONTINUOUS
 10
187.7795215103
 20
98.6540924719
  0
VERTEX
  8
0
 62
7
  6
CONTINUOUS
 10
187.7898997045
 20
98.4402549603
  0
VERTEX
  8
0
 62
7
  6
CONTINUOUS
 10
187.8001985493
 20
98.2532339412
  0
VERTEX
  8
0
 62
7
  6
CONTINUOUS
 10
187.8104022243
 20
98.0911003641
  0
VERTEX
  8
0
 62
7
  6
CONTINUOUS
 10
187.8205162581
 20
97.9517183918
  0
VERTEX
  8
0
 62
7
  6
CONTINUOUS
 10
187.8305563109
 20
97.8329714064
  0
VERTEX
  8
0
 62
7
  6
CONTINUOUS
 10
187.8406400527
 20
97.7318483715
  0
VERTEX
  8
0
 62
7
  6
CONTINUOUS
 10
187.8511406854
 20
97.6438929104
  0
VERTEX
  8
0
 62
7
  6
CONTINUOUS
 10
187.8628183116
 20
97.5637991377
  0
VERTEX
  8
0
 62
7
  6
CONTINUOUS
 10
187.8770774257
 20
97.4857300176
  0
VERTEX
  8
0
 62
7
  6
CONTINUOUS
 10
187.8970750349
 20
97.4010626153
  0
VERTEX
  8
0
 62
7
  6
CONTINUOUS
 10
187.9305341294
 20
97.2961089907
  0
VERTEX
  8
0
 62
7
  6
CONTINUOUS
 10
187.9900627807
 20
97.1637000545
  0
VERTEX
  8
0
 62
7
  6
CONTINUOUS
 10
188.0844497469
 20
97.0178392054
  0
VERTEX
  8
0
 62
7
  6
CONTINUOUS
 10
188.2264461738
 20
96.8684966412
  0
VERTEX
  8
0
 62
7
  6
CONTINUOUS
 10
188.4291305555
 20
96.7333732427
  0
VERTEX
  8
0
 62
7
  6
CONTINUOUS
 10
188.6751971107
 20
96.6471433925
  0
VERTEX
  8
0
 62
7
  6
CONTINUOUS
 10
188.8819273039
 20
96.6256578956
  0
SEQEND
  0
LINE
  8
0
 62
7
  6
CONTINUOUS
 10
187.3159896493
 20
159.7756578947
 11
187.3159896493
 21
152.9001359535
  0
LINE
  8
0
 62
7
  6
CONTINUOUS
 10
187.6419050875
 20
108.6256578947
 11
187.6419050875
 21
115.5011797081
  0
POLYLINE
  8
0
 62
7
  6
CONTINUOUS
 66
1
 70
0
  0
VERTEX
  8
0
 62
7
  6
CONTINUOUS
 10
200.4712496393
 20
169.5573053588
  0
VERTEX
  8
0
 62
7
  6
CONTINUOUS
 10
200.4617394592
 20
169.3160537131
  0
VERTEX
  8
0
 62
7
  6
CONTINUOUS
 10
200.4521479954
 20
169.0459833326
  0
VERTEX
  8
0
 62
7
  6
CONTINUOUS
 10
200.4424802968
 20
168.7440513875
  0
VERTEX
  8
0
 62
7
  6
CONTINUOUS
 10
200.4327529929
 20
168.406935398
  0
VERTEX
  8
0
 62
7
  6
CONTINUOUS
 10
200.4229877151
 20
168.0307239006
  0
VERTEX
  8
0
 62
7
  6
CONTINUOUS
 10
200.4132205541
 20
167.6110951798
  0
VERTEX
  8
0
 62
7
  6
CONTINUOUS
 10
200.4035108303
 20
167.1436154664
  0
VERTEX
  8
0
 62
7
  6
CONTINUOUS
 10
200.3939538962
 20
166.6244885743
  0
VERTEX
  8
0
 62
7
  6
CONTINUOUS
 10
200.3846707178
 20
166.0503484576
  0
VERTEX
  8
0
 62
7
  6
CONTINUOUS
 10
200.3758055431
 20
165.4183134514
  0
VERTEX
  8
0
 62
7
  6
CONTINUOUS
 10
200.3675269424
 20
164.7262735851
  0
VERTEX
  8
0
 62
7
  6
CONTINUOUS
 10
200.360023933
 20
163.9728512107
  0
VERTEX
  8
0
 62
7
  6
CONTINUOUS
 10
200.3534926755
 20
163.1557271964
  0
VERTEX
  8
0
 62
7
  6
CONTINUOUS
 10
200.3481483652
 20
162.270759583
  0
VERTEX
  8
0
 62
7
  6
CONTINUOUS
 10
200.3442615035
 20
161.3147861821
  0
VERTEX
  8
0
 62
7
  6
CONTINUOUS
 10
200.3421634833
 20
160.2864226977
  0
VERTEX
  8
0
 62
7
  6
CONTINUOUS
 10
200.3419050875
 20
152.9001359943
  0
SEQEND
  0
POLYLINE
  8
0
 62
7
  6
CONTINUOUS
 66
1
 70
0
  0
VERTEX
  8
0
 62
7
  6
CONTINUOUS
 10
199.8866450976
 20
98.8440104307
  0
VERTEX
  8
0
 62
7
  6
CONTINUOUS
 10
199.8961552776
 20
99.0852620764
  0
VERTEX
  8
0
 62
7
  6
CONTINUOUS
 10
199.9057467414
 20
99.3553324569
  0
VERTEX
  8
0
 62
7
  6
CONTINUOUS
 10
199.91541444
 20
99.6572644019
  0
VERTEX
  8
0
 62
7
  6
CONTINUOUS
 10
199.925141744
 20
99.9943803915
  0
VERTEX
  8
0
 62
7
  6
CONTINUOUS
 10
199.9349070218
 20
100.3705918888
  0
VERTEX
  8
0
 62
7
  6
CONTINUOUS
 10
199.9446741827
 20
100.7902206097
  0
VERTEX
  8
0
 62
7
  6
CONTINUOUS
 10
199.9543839065
 20
101.2577003231
  0
VERTEX
  8
0
 62
7
  6
CONTINUOUS
 10
199.9639408406
 20
101.7768272152
  0
VERTEX
  8
0
 62
7
  6
CONTINUOUS
 10
199.9732240191
 20
102.3509673318
  0
VERTEX
  8
0
 62
7
  6
CONTINUOUS
 10
199.9820891937
 20
102.983002338
  0
VERTEX
  8
0
 62
7
  6
CONTINUOUS
 10
199.9903677945
 20
103.6750422044
  0
VERTEX
  8
0
 62
7
  6
CONTINUOUS
 10
199.9978708038
 20
104.4284645788
  0
VERTEX
  8
0
 62
7
  6
CONTINUOUS
 10
200.0044020613
 20
105.245588593
  0
VERTEX
  8
0
 62
7
  6
CONTINUOUS
 10
200.0097463717
 20
106.1305562065
  0
VERTEX
  8
0
 62
7
  6
CONTINUOUS
 10
200.0136332334
 20
107.0865296074
  0
VERTEX
  8
0
 62
7
  6
CONTINUOUS
 10
200.0157312536
 20
108.1148930918
  0
VERTEX
  8
0
 62
7
  6
CONTINUOUS
 10
200.0159896493
 20
115.5011796404
  0
SEQEND
  0
POLYLINE
  8
0
 62
7
  6
CONTINUOUS
 66
1
 70
0
  0
VERTEX
  8
0
 62
7
  6
CONTINUOUS
 10
200.3419035732
 20
152.9001359943
  0
VERTEX
  8
0
 62
7
  6
CONTINUOUS
 10
200.317256059
 20
152.6794170543
  0
VERTEX
  8
0
 62
7
  6
CONTINUOUS
 10
200.2320822482
 20
152.4443787033
  0
VERTEX
  8
0
 62
7
  6
CONTINUOUS
 10
200.0908328982
 20
152.237248058
  0
VERTEX
  8
0
 62
7
  6
CONTINUOUS
 10
199.9045228324
 20
152.0730607237
  0
VERTEX
  8
0
 62
7
  6
CONTINUOUS
 10
199.65869543
 20
151.9510363539
  0
VERTEX
  8
0
 62
7
  6
CONTINUOUS
 10
199.3978882756
 20
151.8977540816
  0
SEQEND
  0
POLYLINE
  8
0
 62
7
  6
CONTINUOUS
 66
1
 70
0
  0
VERTEX
  8
0
 62
7
  6
CONTINUOUS
 10
200.0159910014
 20
115.5011796404
  0
VERTEX
  8
0
 62
7
  6
CONTINUOUS
 10
200.0406337997
 20
115.7218777415
  0
VERTEX
  8
0
 62
7
  6
CONTINUOUS
 10
200.1257928333
 20
115.9568988132
  0
VERTEX
  8
0
 62
7
  6
CONTINUOUS
 10
200.2670192484
 20
116.1640195741
  0
VERTEX
  8
0
 62
7
  6
CONTINUOUS
 10
200.4533012391
 20
116.328206949
  0
VERTEX
  8
0
 62
7
  6
CONTINUOUS
 10
200.6985706663
 20
116.4500682395
  0
VERTEX
  8
0
 62
7
  6
CONTINUOUS
 10
200.9599892843
 20
116.5035589963
  0
SEQEND
  0
LINE
  8
0
 62
7
  6
CONTINUOUS
 10
212.6789473684
 20
170.775651772
 11
212.6789473684
 21
117.5049565007
  0
LINE
  8
0
 62
7
  6
CONTINUOUS
 10
60.6789473684
 20
199.7861842126
 11
60.6789473684
 21
221.7861842126
  0
LINE
  8
0
 62
7
  6
CONTINUOUS
 10
64.1175358405
 20
224.9969162981
 11
64.6041224647
 21
252.8734453295
  0
POLYLINE
  8
0
 62
7
  6
CONTINUOUS
 66
1
 70
0
  0
VERTEX
  8
0
 62
7
  6
CONTINUOUS
 10
68.0252026889
 20
202.3980351048
  0
VERTEX
  8
0
 62
7
  6
CONTINUOUS
 10
68.283644354
 20
201.3609425126
  0
VERTEX
  8
0
 62
7
  6
CONTINUOUS
 10
68.5442767124
 20
200.5667422794
  0
VERTEX
  8
0
 62
7
  6
CONTINUOUS
 10
68.8063647596
 20
199.9703925392
  0
VERTEX
  8
0
 62
7
  6
CONTINUOUS
 10
69.0849869715
 20
199.5143606265
  0
VERTEX
  8
0
 62
7
  6
CONTINUOUS
 10
69.4087274095
 20
199.1593934261
  0
VERTEX
  8
0
 62
7
  6
CONTINUOUS
 10
69.7875941022
 20
198.9134569732
  0
SEQEND
  0
LINE
  8
0
 62
7
  6
CONTINUOUS
 10
70.9851705297
 20
256.8036365204
 11
71.5721182856
 21
223.1774221061
  0
LINE
  8
0
 62
7
  6
CONTINUOUS
 10
76.9210978005
 20
223.7687318062
 11
77.497723597
 21
256.8036015661
  0
LINE
  8
0
 62
7
  6
CONTINUOUS
 10
73.0157516764
 20
221.7643693276
 11
72.5357099687
 21
199.7643693276
  0
LINE
  8
SURF
 62
7
  6
CONTINUOUS
 10
72.9364601377
 20
218.1304895539
 11
72.9811302986
 21
220.1776940468
  0
LINE
  8
0
 62
7
  6
CONTINUOUS
 10
76.9857099687
 20
199.7643693276
 11
77.0516462041
 21
202.7861842126
  0
LINE
  8
0
 62
7
  6
CONTINUOUS
 10
74.2197648792
 20
201.9145471434
 11
74.172274419
 21
199.7641107692
  0
POLYLINE
  8
0
 62
7
  6
CONTINUOUS
 66
1
 70
0
  0
VERTEX
  8
0
 62
7
  6
CONTINUOUS
 10
74.2197648004
 20
201.9145471458
  0
VERTEX
  8
0
 62
7
  6
CONTINUOUS
 10
74.2291357428
 20
202.1692011136
  0
VERTEX
  8
0
 62
7
  6
CONTINUOUS
 10
74.2474848545
 20
202.440621375
  0
VERTEX
  8
0
 62
7
  6
CONTINUOUS
 10
74.2708929783
 20
202.6731306775
  0
VERTEX
  8
0
 62
7
  6
CONTINUOUS
 10
74.2962550892
 20
202.8598790569
  0
VERTEX
  8
0
 62
7
  6
CONTINUOUS
 10
74.3212582985
 20
203.0024358606
  0
VERTEX
  8
0
 62
7
  6
CONTINUOUS
 10
74.3436348737
 20
203.1028299673
  0
VERTEX
  8
0
 62
7
  6
CONTINUOUS
 10
74.3598001224
 20
203.1600072158
  0
VERTEX
  8
0
 62
7
  6
CONTINUOUS
 10
74.362232836
 20
203.1672521547
  0
SEQEND
  0
POLYLINE
  8
0
 62
7
  6
CONTINUOUS
 66
1
 70
0
  0
VERTEX
  8
0
 62
7
  6
CONTINUOUS
 10
65.564442878
 20
202.3940905632
  0
VERTEX
  8
0
 62
7
  6
CONTINUOUS
 10
65.5822151032
 20
202.4604267802
  0
VERTEX
  8
0
 62
7
  6
CONTINUOUS
 10
65.6140105842
 20
202.5486912229
  0
VERTEX
  8
0
 62
7
  6
CONTINUOUS
 10
65.6573057722
 20
202.6438184539
  0
VERTEX
  8
0
 62
7
  6
CONTINUOUS
 10
65.7100649058
 20
202.7402275879
  0
VERTEX
  8
0
 62
7
  6
CONTINUOUS
 10
65.7690712299
 20
202.8327543163
  0
VERTEX
  8
0
 62
7
  6
CONTINUOUS
 10
65.8307860042
 20
202.91759415
  0
VERTEX
  8
0
 62
7
  6
CONTINUOUS
 10
65.8941995243
 20
202.9950664276
  0
VERTEX
  8
0
 62
7
  6
CONTINUOUS
 10
65.9602887765
 20
203.0672173113
  0
VERTEX
  8
0
 62
7
  6
CONTINUOUS
 10
66.0298441122
 20
203.1349579054
  0
VERTEX
  8
0
 62
7
  6
CONTINUOUS
 10
66.1020833174
 20
203.1972808627
  0
VERTEX
  8
0
 62
7
  6
CONTINUOUS
 10
66.1756670565
 20
203.2528735962
  0
VERTEX
  8
0
 62
7
  6
CONTINUOUS
 10
66.2494178723
 20
203.3008230951
  0
VERTEX
  8
0
 62
7
  6
CONTINUOUS
 10
66.3226459126
 20
203.3406810407
  0
VERTEX
  8
0
 62
7
  6
CONTINUOUS
 10
66.3953054014
 20
203.372266632
  0
VERTEX
  8
0
 62
7
  6
CONTINUOUS
 10
66.4677338915
 20
203.3952342458
  0
VERTEX
  8
0
 62
7
  6
CONTINUOUS
 10
66.5403472066
 20
203.4087924305
  0
VERTEX
  8
0
 62
7
  6
CONTINUOUS
 10
66.5968098788
 20
203.4121089459
  0
SEQEND
  0
POLYLINE
  8
0
 62
7
  6
CONTINUOUS
 66
1
 70
0
  0
VERTEX
  8
0
 62
7
  6
CONTINUOUS
 10
80.5549604315
 20
202.7861842126
  0
VERTEX
  8
0
 62
7
  6
CONTINUOUS
 10
80.5602628238
 20
202.7782194126
  0
VERTEX
  8
0
 62
7
  6
CONTINUOUS
 10
80.6137793352
 20
202.6856487804
  0
VERTEX
  8
0
 62
7
  6
CONTINUOUS
 10
80.6594622069
 20
202.5922778564
  0
VERTEX
  8
0
 62
7
  6
CONTINUOUS
 10
80.6949657873
 20
202.5031389166
  0
VERTEX
  8
0
 62
7
  6
CONTINUOUS
 10
80.7192264857
 20
202.4233350033
  0
VERTEX
  8
0
 62
7
  6
CONTINUOUS
 10
80.7252014717
 20
202.3980415675
  0
SEQEND
  0
POLYLINE
  8
0
 62
7
  6
CONTINUOUS
 66
1
 70
0
  0
VERTEX
  8
0
 62
7
  6
CONTINUOUS
 10
80.7252026005
 20
202.39803551
  0
VERTEX
  8
0
 62
7
  6
CONTINUOUS
 10
80.98318411
 20
201.3625498968
  0
VERTEX
  8
0
 62
7
  6
CONTINUOUS
 10
81.2437305699
 20
200.5681817125
  0
VERTEX
  8
0
 62
7
  6
CONTINUOUS
 10
81.5057138006
 20
199.97165636
  0
VERTEX
  8
0
 62
7
  6
CONTINUOUS
 10
81.7841875741
 20
199.5154473139
  0
VERTEX
  8
0
 62
7
  6
CONTINUOUS
 10
82.1076904049
 20
199.1602894194
  0
VERTEX
  8
0
 62
7
  6
CONTINUOUS
 10
82.4876030958
 20
198.9134528532
  0
SEQEND
  0
LINE
  8
0
 62
7
  6
CONTINUOUS
 10
84.8856203178
 20
199.7641107689
 11
84.8381298577
 21
201.9145471435
  0
LINE
  8
0
 62
7
  6
CONTINUOUS
 10
82.0062485328
 20
202.7861842126
 11
82.0721847681
 21
199.7643693276
  0
LINE
  8
SURF
 62
7
  6
CONTINUOUS
 10
82.0721847681
 20
199.7643693276
 11
82.0062485328
 21
202.7861842126
  0
LINE
  8
0
 62
7
  6
CONTINUOUS
 10
81.5601705365
 20
256.8036361315
 11
82.1367969364
 21
223.7687318062
  0
POLYLINE
  8
0
 62
7
  6
CONTINUOUS
 66
1
 70
0
  0
VERTEX
  8
0
 62
7
  6
CONTINUOUS
 10
77.7399934017
 20
257.4317901117
  0
VERTEX
  8
0
 62
7
  6
CONTINUOUS
 10
77.7336273248
 20
257.4275343825
  0
VERTEX
  8
0
 62
7
  6
CONTINUOUS
 10
77.6654241618
 20
257.3848032616
  0
VERTEX
  8
0
 62
7
  6
CONTINUOUS
 10
77.5745150698
 20
257.3311440365
  0
VERTEX
  8
0
 62
7
  6
CONTINUOUS
 10
77.4599758521
 20
257.2673980376
  0
VERTEX
  8
0
 62
7
  6
CONTINUOUS
 10
77.3209628456
 20
257.1946639698
  0
VERTEX
  8
0
 62
7
  6
CONTINUOUS
 10
77.1568833227
 20
257.114484413
  0
VERTEX
  8
0
 62
7
  6
CONTINUOUS
 10
76.9670073285
 20
257.0287517852
  0
VERTEX
  8
0
 62
7
  6
CONTINUOUS
 10
76.7478625972
 20
256.9388495942
  0
VERTEX
  8
0
 62
7
  6
CONTINUOUS
 10
76.492763717
 20
256.8463259364
  0
VERTEX
  8
0
 62
7
  6
CONTINUOUS
 10
76.1908114535
 20
256.7539753544
  0
VERTEX
  8
0
 62
7
  6
CONTINUOUS
 10
75.8212361578
 20
256.6672102111
  0
VERTEX
  8
0
 62
7
  6
CONTINUOUS
 10
75.3952731149
 20
256.6047703415
  0
VERTEX
  8
0
 62
7
  6
CONTINUOUS
 10
74.9771246582
 20
256.5842228992
  0
SEQEND
  0
LINE
  8
0
 62
7
  6
CONTINUOUS
 10
69.7875941022
 20
198.9134569732
 11
69.7876702065
 21
198.913422113
  0
POLYLINE
  8
0
 62
7
  6
CONTINUOUS
 66
1
 70
0
  0
VERTEX
  8
0
 62
7
  6
CONTINUOUS
 10
84.6957214324
 20
203.168040523
  0
VERTEX
  8
0
 62
7
  6
CONTINUOUS
 10
84.6941496666
 20
203.1714752837
  0
VERTEX
  8
0
 62
7
  6
CONTINUOUS
 10
84.6981977878
 20
203.1596899349
  0
VERTEX
  8
0
 62
7
  6
CONTINUOUS
 10
84.7144504285
 20
203.1020761224
  0
VERTEX
  8
0
 62
7
  6
CONTINUOUS
 10
84.7368749701
 20
203.0012346623
  0
VERTEX
  8
0
 62
7
  6
CONTINUOUS
 10
84.7619006383
 20
202.8581984025
  0
VERTEX
  8
0
 62
7
  6
CONTINUOUS
 10
84.7872633188
 20
202.6709176034
  0
VERTEX
  8
0
 62
7
  6
CONTINUOUS
 10
84.8106472041
 20
202.437803224
  0
VERTEX
  8
0
 62
7
  6
CONTINUOUS
 10
84.8289331915
 20
202.165803345
  0
VERTEX
  8
0
 62
7
  6
CONTINUOUS
 10
84.8381299365
 20
201.9145471459
  0
SEQEND
  0
POLYLINE
  8
0
 62
7
  6
CONTINUOUS
 66
1
 70
0
  0
VERTEX
  8
0
 62
7
  6
CONTINUOUS
 10
84.8856209565
 20
199.764110783
  0
VERTEX
  8
0
 62
7
  6
CONTINUOUS
 10
84.9124644027
 20
199.5550365141
  0
VERTEX
  8
0
 62
7
  6
CONTINUOUS
 10
85.0002045535
 20
199.3209728896
  0
VERTEX
  8
0
 62
7
  6
CONTINUOUS
 10
85.1434166286
 20
199.1158087353
  0
VERTEX
  8
0
 62
7
  6
CONTINUOUS
 10
85.2331510942
 20
199.0282312719
  0
VERTEX
  8
0
 62
7
  6
CONTINUOUS
 10
85.441810757
 20
198.8900088753
  0
VERTEX
  8
0
 62
7
  6
CONTINUOUS
 10
85.6781456078
 20
198.8079328203
  0
VERTEX
  8
0
 62
7
  6
CONTINUOUS
 10
85.8856186144
 20
198.7861849602
  0
SEQEND
  0
LINE
  8
SURF
 62
7
  6
CONTINUOUS
 10
86.0767644382
 20
220.1776940468
 11
86.1214345993
 21
218.1304895475
  0
LINE
  8
0
 62
7
  6
CONTINUOUS
 10
86.5221847681
 20
199.7643693276
 11
86.0421430604
 21
221.7643693276
  0
LINE
  8
0
 62
7
  6
CONTINUOUS
 10
87.4857764513
 20
223.1774221061
 11
88.0727239158
 21
256.803619832
  0
POLYLINE
  8
0
 62
7
  6
CONTINUOUS
 66
1
 70
0
  0
VERTEX
  8
0
 62
7
  6
CONTINUOUS
 10
78.3326934259
 20
202.3980422661
  0
VERTEX
  8
0
 62
7
  6
CONTINUOUS
 10
78.3497480683
 20
202.4629547746
  0
VERTEX
  8
0
 62
7
  6
CONTINUOUS
 10
78.3808142458
 20
202.5506241131
  0
VERTEX
  8
0
 62
7
  6
CONTINUOUS
 10
78.4233031787
 20
202.6452180205
  0
VERTEX
  8
0
 62
7
  6
CONTINUOUS
 10
78.4752429865
 20
202.7411917554
  0
VERTEX
  8
0
 62
7
  6
CONTINUOUS
 10
78.5036582453
 20
202.7861842126
  0
SEQEND
  0
POLYLINE
  8
0
 62
7
  6
CONTINUOUS
 66
1
 70
0
  0
VERTEX
  8
0
 62
7
  6
CONTINUOUS
 10
88.3146059668
 20
257.431531111
  0
VERTEX
  8
0
 62
7
  6
CONTINUOUS
 10
88.3086273248
 20
257.4275343825
  0
VERTEX
  8
0
 62
7
  6
CONTINUOUS
 10
88.2404241618
 20
257.3848032616
  0
VERTEX
  8
0
 62
7
  6
CONTINUOUS
 10
88.1495150698
 20
257.3311440365
  0
VERTEX
  8
0
 62
7
  6
CONTINUOUS
 10
88.0349758521
 20
257.2673980376
  0
VERTEX
  8
0
 62
7
  6
CONTINUOUS
 10
87.8959628456
 20
257.1946639698
  0
VERTEX
  8
0
 62
7
  6
CONTINUOUS
 10
87.7318833227
 20
257.114484413
  0
VERTEX
  8
0
 62
7
  6
CONTINUOUS
 10
87.5420073285
 20
257.0287517852
  0
VERTEX
  8
0
 62
7
  6
CONTINUOUS
 10
87.3228625972
 20
256.9388495942
  0
VERTEX
  8
0
 62
7
  6
CONTINUOUS
 10
87.067763717
 20
256.8463259364
  0
VERTEX
  8
0
 62
7
  6
CONTINUOUS
 10
86.7658114535
 20
256.7539753544
  0
VERTEX
  8
0
 62
7
  6
CONTINUOUS
 10
86.3962361578
 20
256.6672102111
  0
VERTEX
  8
0
 62
7
  6
CONTINUOUS
 10
85.9702731149
 20
256.6047703415
  0
VERTEX
  8
0
 62
7
  6
CONTINUOUS
 10
85.5521246582
 20
256.5842228992
  0
SEQEND
  0
POLYLINE
  8
0
 62
7
  6
CONTINUOUS
 66
1
 70
0
  0
VERTEX
  8
0
 62
7
  6
CONTINUOUS
 10
69.7876701827
 20
198.9134220612
  0
VERTEX
  8
0
 62
7
  6
CONTINUOUS
 10
69.8422956909
 20
198.8894838625
  0
VERTEX
  8
0
 62
7
  6
CONTINUOUS
 10
69.986523279
 20
198.8375115241
  0
VERTEX
  8
0
 62
7
  6
CONTINUOUS
 10
70.0688502471
 20
198.8157011192
  0
SEQEND
  0
LINE
  8
0
 62
7
  6
CONTINUOUS
 10
82.4876030721
 20
198.9134528014
 11
82.4876669088
 21
198.9134235607
  0
POLYLINE
  8
0
 62
7
  6
CONTINUOUS
 66
1
 70
0
  0
VERTEX
  8
0
 62
7
  6
CONTINUOUS
 10
93.4252026889
 20
202.3980351048
  0
VERTEX
  8
0
 62
7
  6
CONTINUOUS
 10
93.683644354
 20
201.3609425126
  0
VERTEX
  8
0
 62
7
  6
CONTINUOUS
 10
93.9442767124
 20
200.5667422794
  0
VERTEX
  8
0
 62
7
  6
CONTINUOUS
 10
94.2063647596
 20
199.9703925392
  0
VERTEX
  8
0
 62
7
  6
CONTINUOUS
 10
94.4849869715
 20
199.5143606265
  0
VERTEX
  8
0
 62
7
  6
CONTINUOUS
 10
94.8087274095
 20
199.1593934261
  0
VERTEX
  8
0
 62
7
  6
CONTINUOUS
 10
95.1875941022
 20
198.9134569732
  0
SEQEND
  0
LINE
  8
0
 62
7
  6
CONTINUOUS
 10
94.4537722679
 20
252.8734455686
 11
94.9403588963
 21
224.9969162981
  0
POLYLINE
  8
0
 62
7
  6
CONTINUOUS
 66
1
 70
0
  0
VERTEX
  8
0
 62
7
  6
CONTINUOUS
 10
95.1876701827
 20
198.9134220612
  0
VERTEX
  8
0
 62
7
  6
CONTINUOUS
 10
95.2422956909
 20
198.8894838625
  0
VERTEX
  8
0
 62
7
  6
CONTINUOUS
 10
95.386523279
 20
198.8375115241
  0
VERTEX
  8
0
 62
7
  6
CONTINUOUS
 10
95.4688502471
 20
198.8157011192
  0
SEQEND
  0
POLYLINE
  8
0
 62
7
  6
CONTINUOUS
 66
1
 70
0
  0
VERTEX
  8
0
 62
7
  6
CONTINUOUS
 10
82.4876669088
 20
198.9134235607
  0
VERTEX
  8
0
 62
7
  6
CONTINUOUS
 10
82.5411682143
 20
198.8899555853
  0
VERTEX
  8
0
 62
7
  6
CONTINUOUS
 10
82.6849327267
 20
198.8379905268
  0
VERTEX
  8
0
 62
7
  6
CONTINUOUS
 10
82.7669366384
 20
198.8161410681
  0
VERTEX
  8
0
 62
7
  6
CONTINUOUS
 10
82.954500012
 20
198.7884418931
  0
VERTEX
  8
0
 62
7
  6
CONTINUOUS
 10
83.0247724277
 20
198.7861842592
  0
SEQEND
  0
LINE
  8
0
 62
7
  6
CONTINUOUS
 10
95.1875941022
 20
198.9134569732
 11
95.1876702065
 21
198.913422113
  0
LINE
  8
0
 62
7
  6
CONTINUOUS
 10
98.4157516764
 20
221.7643693276
 11
97.9357099687
 21
199.7643693276
  0
LINE
  8
SURF
 62
7
  6
CONTINUOUS
 10
98.3364601377
 20
218.1304895539
 11
98.3811302986
 21
220.1776940468
  0
LINE
  8
0
 62
7
  6
CONTINUOUS
 10
99.6197648792
 20
201.9145471434
 11
99.572274419
 21
199.7641107692
  0
POLYLINE
  8
0
 62
7
  6
CONTINUOUS
 66
1
 70
0
  0
VERTEX
  8
0
 62
7
  6
CONTINUOUS
 10
99.6197648004
 20
201.9145471458
  0
VERTEX
  8
0
 62
7
  6
CONTINUOUS
 10
99.6291357428
 20
202.1692011136
  0
VERTEX
  8
0
 62
7
  6
CONTINUOUS
 10
99.6474848545
 20
202.440621375
  0
VERTEX
  8
0
 62
7
  6
CONTINUOUS
 10
99.6708929783
 20
202.6731306775
  0
VERTEX
  8
0
 62
7
  6
CONTINUOUS
 10
99.6962550892
 20
202.8598790569
  0
VERTEX
  8
0
 62
7
  6
CONTINUOUS
 10
99.7212582985
 20
203.0024358606
  0
VERTEX
  8
0
 62
7
  6
CONTINUOUS
 10
99.7436348737
 20
203.1028299673
  0
VERTEX
  8
0
 62
7
  6
CONTINUOUS
 10
99.7598001224
 20
203.1600072158
  0
VERTEX
  8
0
 62
7
  6
CONTINUOUS
 10
99.762232836
 20
203.1672521547
  0
SEQEND
  0
POLYLINE
  8
0
 62
7
  6
CONTINUOUS
 66
1
 70
0
  0
VERTEX
  8
0
 62
7
  6
CONTINUOUS
 10
91.0326933662
 20
202.398042031
  0
VERTEX
  8
0
 62
7
  6
CONTINUOUS
 10
91.0500432998
 20
202.4639226123
  0
VERTEX
  8
0
 62
7
  6
CONTINUOUS
 10
91.0812397994
 20
202.5516819138
  0
VERTEX
  8
0
 62
7
  6
CONTINUOUS
 10
91.1238567211
 20
202.6463341068
  0
VERTEX
  8
0
 62
7
  6
CONTINUOUS
 10
91.1759063934
 20
202.7423211171
  0
VERTEX
  8
0
 62
7
  6
CONTINUOUS
 10
91.2342090814
 20
202.834479303
  0
VERTEX
  8
0
 62
7
  6
CONTINUOUS
 10
91.2952518794
 20
202.9189995352
  0
VERTEX
  8
0
 62
7
  6
CONTINUOUS
 10
91.3580301255
 20
202.9961990026
  0
VERTEX
  8
0
 62
7
  6
CONTINUOUS
 10
91.4235106881
 20
203.0681168985
  0
VERTEX
  8
0
 62
7
  6
CONTINUOUS
 10
91.492482824
 20
203.1356631804
  0
VERTEX
  8
0
 62
7
  6
CONTINUOUS
 10
91.5641740103
 20
203.1978290372
  0
VERTEX
  8
0
 62
7
  6
CONTINUOUS
 10
91.6372525195
 20
203.253296138
  0
VERTEX
  8
0
 62
7
  6
CONTINUOUS
 10
91.7105311396
 20
203.3011362407
  0
VERTEX
  8
0
 62
7
  6
CONTINUOUS
 10
91.78331102
 20
203.3408934897
  0
VERTEX
  8
0
 62
7
  6
CONTINUOUS
 10
91.8555522949
 20
203.3723911294
  0
VERTEX
  8
0
 62
7
  6
CONTINUOUS
 10
91.9276287978
 20
203.3952950844
  0
VERTEX
  8
0
 62
7
  6
CONTINUOUS
 10
91.9999768759
 20
203.4088102922
  0
VERTEX
  8
0
 62
7
  6
CONTINUOUS
 10
92.0562254565
 20
203.4121090627
  0
SEQEND
  0
POLYLINE
  8
0
 62
7
  6
CONTINUOUS
 66
1
 70
0
  0
VERTEX
  8
0
 62
7
  6
CONTINUOUS
 10
70.0688502471
 20
198.8157011192
  0
VERTEX
  8
0
 62
7
  6
CONTINUOUS
 10
70.2571627219
 20
198.7882749065
  0
VERTEX
  8
0
 62
7
  6
CONTINUOUS
 10
70.3247641007
 20
198.786184261
  0
SEQEND
  0
POLYLINE
  8
0
 62
7
  6
CONTINUOUS
 66
1
 70
0
  0
VERTEX
  8
0
 62
7
  6
CONTINUOUS
 10
107.8876669088
 20
198.9134235607
  0
VERTEX
  8
0
 62
7
  6
CONTINUOUS
 10
107.9411682143
 20
198.8899555853
  0
VERTEX
  8
0
 62
7
  6
CONTINUOUS
 10
108.0849327267
 20
198.8379905268
  0
VERTEX
  8
0
 62
7
  6
CONTINUOUS
 10
108.1669366384
 20
198.8161410681
  0
VERTEX
  8
0
 62
7
  6
CONTINUOUS
 10
108.354500012
 20
198.7884418931
  0
VERTEX
  8
0
 62
7
  6
CONTINUOUS
 10
108.4247724277
 20
198.7861842592
  0
SEQEND
  0
LINE
  8
0
 62
7
  6
CONTINUOUS
 10
107.8876030721
 20
198.9134528014
 11
107.8876669088
 21
198.9134235607
  0
POLYLINE
  8
0
 62
7
  6
CONTINUOUS
 66
1
 70
0
  0
VERTEX
  8
0
 62
7
  6
CONTINUOUS
 10
105.9549604315
 20
202.7861842126
  0
VERTEX
  8
0
 62
7
  6
CONTINUOUS
 10
105.9602628238
 20
202.7782194126
  0
VERTEX
  8
0
 62
7
  6
CONTINUOUS
 10
106.0137793352
 20
202.6856487804
  0
VERTEX
  8
0
 62
7
  6
CONTINUOUS
 10
106.0594622069
 20
202.5922778564
  0
VERTEX
  8
0
 62
7
  6
CONTINUOUS
 10
106.0949657873
 20
202.5031389166
  0
VERTEX
  8
0
 62
7
  6
CONTINUOUS
 10
106.1192264857
 20
202.4233350033
  0
VERTEX
  8
0
 62
7
  6
CONTINUOUS
 10
106.1252014717
 20
202.3980415675
  0
SEQEND
  0
POLYLINE
  8
0
 62
7
  6
CONTINUOUS
 66
1
 70
0
  0
VERTEX
  8
0
 62
7
  6
CONTINUOUS
 10
106.1252026005
 20
202.39803551
  0
VERTEX
  8
0
 62
7
  6
CONTINUOUS
 10
106.38318411
 20
201.3625498968
  0
VERTEX
  8
0
 62
7
  6
CONTINUOUS
 10
106.6437305699
 20
200.5681817125
  0
VERTEX
  8
0
 62
7
  6
CONTINUOUS
 10
106.9057138006
 20
199.97165636
  0
VERTEX
  8
0
 62
7
  6
CONTINUOUS
 10
107.1841875741
 20
199.5154473139
  0
VERTEX
  8
0
 62
7
  6
CONTINUOUS
 10
107.5076904049
 20
199.1602894194
  0
VERTEX
  8
0
 62
7
  6
CONTINUOUS
 10
107.8876030958
 20
198.9134528532
  0
SEQEND
  0
LINE
  8
0
 62
7
  6
CONTINUOUS
 10
107.4062485328
 20
202.7861842126
 11
107.4721847681
 21
199.7643693276
  0
LINE
  8
SURF
 62
7
  6
CONTINUOUS
 10
107.4721847681
 20
199.7643693276
 11
107.4062485328
 21
202.7861842126
  0
LINE
  8
SURF
 62
7
  6
CONTINUOUS
 10
102.4516462041
 20
202.7861842126
 11
102.3857099687
 21
199.7643693276
  0
LINE
  8
0
 62
7
  6
CONTINUOUS
 10
102.3857099687
 20
199.7643693276
 11
102.4516462041
 21
202.7861842126
  0
POLYLINE
  8
0
 62
7
  6
CONTINUOUS
 66
1
 70
0
  0
VERTEX
  8
0
 62
7
  6
CONTINUOUS
 10
190.4033947249
 20
198.7884418931
  0
VERTEX
  8
0
 62
7
  6
CONTINUOUS
 10
190.5909580984
 20
198.8161410681
  0
VERTEX
  8
0
 62
7
  6
CONTINUOUS
 10
190.6729620101
 20
198.8379905268
  0
VERTEX
  8
0
 62
7
  6
CONTINUOUS
 10
190.8167265225
 20
198.8899555853
  0
VERTEX
  8
0
 62
7
  6
CONTINUOUS
 10
190.8702278281
 20
198.9134235607
  0
SEQEND
  0
POLYLINE
  8
0
 62
7
  6
CONTINUOUS
 66
1
 70
0
  0
VERTEX
  8
0
 62
7
  6
CONTINUOUS
 10
200.1722761225
 20
198.7861849602
  0
VERTEX
  8
0
 62
7
  6
CONTINUOUS
 10
200.3831817888
 20
198.8086668267
  0
VERTEX
  8
0
 62
7
  6
CONTINUOUS
 10
200.6192657323
 20
198.8915908745
  0
VERTEX
  8
0
 62
7
  6
CONTINUOUS
 10
200.8274518693
 20
199.0305699636
  0
VERTEX
  8
0
 62
7
  6
CONTINUOUS
 10
200.916877727
 20
199.1184738331
  0
VERTEX
  8
0
 62
7
  6
CONTINUOUS
 10
201.0593555533
 20
199.3241549412
  0
VERTEX
  8
0
 62
7
  6
CONTINUOUS
 10
201.1462503551
 20
199.55851492
  0
VERTEX
  8
0
 62
7
  6
CONTINUOUS
 10
201.1722737804
 20
199.7641107833
  0
SEQEND
  0
LINE
  8
0
 62
7
  6
CONTINUOUS
 10
187.4722761225
 20
198.7861849602
 11
187.4789473684
 21
198.7868842576
  0
LINE
  8
0
 62
7
  6
CONTINUOUS
 10
73.1789473684
 20
198.7868960936
 11
73.1856186144
 21
198.7861849602
  0
LINE
  8
0
 62
7
  6
CONTINUOUS
 10
98.5789473684
 20
198.7868960936
 11
98.5856186144
 21
198.7861849602
  0
POLYLINE
  8
0
 62
7
  6
CONTINUOUS
 66
1
 70
0
  0
VERTEX
  8
0
 62
7
  6
CONTINUOUS
 10
95.4688502471
 20
198.8157011192
  0
VERTEX
  8
0
 62
7
  6
CONTINUOUS
 10
95.6571627219
 20
198.7882749065
  0
VERTEX
  8
0
 62
7
  6
CONTINUOUS
 10
95.7247641007
 20
198.786184261
  0
SEQEND
  0
POLYLINE
  8
0
 62
7
  6
CONTINUOUS
 66
1
 70
0
  0
VERTEX
  8
0
 62
7
  6
CONTINUOUS
 10
120.5876701827
 20
198.9134220612
  0
VERTEX
  8
0
 62
7
  6
CONTINUOUS
 10
120.6422956909
 20
198.8894838625
  0
VERTEX
  8
0
 62
7
  6
CONTINUOUS
 10
120.786523279
 20
198.8375115241
  0
VERTEX
  8
0
 62
7
  6
CONTINUOUS
 10
120.8688502471
 20
198.8157011192
  0
SEQEND
  0
LINE
  8
0
 62
7
  6
CONTINUOUS
 10
120.5875941022
 20
198.9134569732
 11
120.5876702065
 21
198.913422113
  0
POLYLINE
  8
0
 62
7
  6
CONTINUOUS
 66
1
 70
0
  0
VERTEX
  8
0
 62
7
  6
CONTINUOUS
 10
110.0957214324
 20
203.1680405231
  0
VERTEX
  8
0
 62
7
  6
CONTINUOUS
 10
110.0941496666
 20
203.1714752837
  0
VERTEX
  8
0
 62
7
  6
CONTINUOUS
 10
110.0981977878
 20
203.1596899349
  0
VERTEX
  8
0
 62
7
  6
CONTINUOUS
 10
110.1144504285
 20
203.1020761224
  0
VERTEX
  8
0
 62
7
  6
CONTINUOUS
 10
110.1368749701
 20
203.0012346623
  0
VERTEX
  8
0
 62
7
  6
CONTINUOUS
 10
110.1619006383
 20
202.8581984025
  0
VERTEX
  8
0
 62
7
  6
CONTINUOUS
 10
110.1872633188
 20
202.6709176033
  0
VERTEX
  8
0
 62
7
  6
CONTINUOUS
 10
110.2106472042
 20
202.437803224
  0
VERTEX
  8
0
 62
7
  6
CONTINUOUS
 10
110.2289331915
 20
202.1658033449
  0
VERTEX
  8
0
 62
7
  6
CONTINUOUS
 10
110.2381299365
 20
201.9145471459
  0
SEQEND
  0
LINE
  8
0
 62
7
  6
CONTINUOUS
 10
110.2856203178
 20
199.7641107689
 11
110.2381298577
 21
201.9145471435
  0
LINE
  8
SURF
 62
7
  6
CONTINUOUS
 10
111.4767644382
 20
220.1776940468
 11
111.5214345993
 21
218.1304895475
  0
LINE
  8
0
 62
7
  6
CONTINUOUS
 10
111.9221847681
 20
199.7643693276
 11
111.4421430604
 21
221.7643693276
  0
POLYLINE
  8
0
 62
7
  6
CONTINUOUS
 66
1
 70
0
  0
VERTEX
  8
0
 62
7
  6
CONTINUOUS
 10
103.7326934259
 20
202.3980422661
  0
VERTEX
  8
0
 62
7
  6
CONTINUOUS
 10
103.7497480683
 20
202.4629547746
  0
VERTEX
  8
0
 62
7
  6
CONTINUOUS
 10
103.7808142458
 20
202.5506241131
  0
VERTEX
  8
0
 62
7
  6
CONTINUOUS
 10
103.8233031787
 20
202.6452180205
  0
VERTEX
  8
0
 62
7
  6
CONTINUOUS
 10
103.8752429865
 20
202.7411917554
  0
VERTEX
  8
0
 62
7
  6
CONTINUOUS
 10
103.9036582453
 20
202.7861842126
  0
SEQEND
  0
POLYLINE
  8
0
 62
7
  6
CONTINUOUS
 66
1
 70
0
  0
VERTEX
  8
0
 62
7
  6
CONTINUOUS
 10
128.5399934017
 20
257.4317901117
  0
VERTEX
  8
0
 62
7
  6
CONTINUOUS
 10
128.5336273248
 20
257.4275343825
  0
VERTEX
  8
0
 62
7
  6
CONTINUOUS
 10
128.4654241618
 20
257.3848032616
  0
VERTEX
  8
0
 62
7
  6
CONTINUOUS
 10
128.3745150698
 20
257.3311440365
  0
VERTEX
  8
0
 62
7
  6
CONTINUOUS
 10
128.2599758521
 20
257.2673980376
  0
VERTEX
  8
0
 62
7
  6
CONTINUOUS
 10
128.1209628456
 20
257.1946639698
  0
VERTEX
  8
0
 62
7
  6
CONTINUOUS
 10
127.9568833227
 20
257.114484413
  0
VERTEX
  8
0
 62
7
  6
CONTINUOUS
 10
127.7670073285
 20
257.0287517852
  0
VERTEX
  8
0
 62
7
  6
CONTINUOUS
 10
127.5478625972
 20
256.9388495942
  0
VERTEX
  8
0
 62
7
  6
CONTINUOUS
 10
127.292763717
 20
256.8463259364
  0
VERTEX
  8
0
 62
7
  6
CONTINUOUS
 10
126.9908114535
 20
256.7539753544
  0
VERTEX
  8
0
 62
7
  6
CONTINUOUS
 10
126.6212361578
 20
256.6672102111
  0
VERTEX
  8
0
 62
7
  6
CONTINUOUS
 10
126.1952731149
 20
256.6047703415
  0
VERTEX
  8
0
 62
7
  6
CONTINUOUS
 10
125.7771246582
 20
256.5842228992
  0
SEQEND
  0
POLYLINE
  8
0
 62
7
  6
CONTINUOUS
 66
1
 70
0
  0
VERTEX
  8
0
 62
7
  6
CONTINUOUS
 10
165.0033947249
 20
198.7884418931
  0
VERTEX
  8
0
 62
7
  6
CONTINUOUS
 10
165.1909580984
 20
198.8161410681
  0
VERTEX
  8
0
 62
7
  6
CONTINUOUS
 10
165.2729620101
 20
198.8379905268
  0
VERTEX
  8
0
 62
7
  6
CONTINUOUS
 10
165.4167265225
 20
198.8899555853
  0
VERTEX
  8
0
 62
7
  6
CONTINUOUS
 10
165.4702278281
 20
198.9134235607
  0
SEQEND
  0
POLYLINE
  8
0
 62
7
  6
CONTINUOUS
 66
1
 70
0
  0
VERTEX
  8
0
 62
7
  6
CONTINUOUS
 10
139.6033947249
 20
198.7884418931
  0
VERTEX
  8
0
 62
7
  6
CONTINUOUS
 10
139.7909580984
 20
198.8161410681
  0
VERTEX
  8
0
 62
7
  6
CONTINUOUS
 10
139.8729620101
 20
198.8379905268
  0
VERTEX
  8
0
 62
7
  6
CONTINUOUS
 10
140.0167265225
 20
198.8899555853
  0
VERTEX
  8
0
 62
7
  6
CONTINUOUS
 10
140.0702278281
 20
198.9134235607
  0
SEQEND
  0
POLYLINE
  8
0
 62
7
  6
CONTINUOUS
 66
1
 70
0
  0
VERTEX
  8
0
 62
7
  6
CONTINUOUS
 10
174.7722761225
 20
198.7861849602
  0
VERTEX
  8
0
 62
7
  6
CONTINUOUS
 10
174.9831817888
 20
198.8086668267
  0
VERTEX
  8
0
 62
7
  6
CONTINUOUS
 10
175.2192657323
 20
198.8915908745
  0
VERTEX
  8
0
 62
7
  6
CONTINUOUS
 10
175.4274518693
 20
199.0305699636
  0
VERTEX
  8
0
 62
7
  6
CONTINUOUS
 10
175.516877727
 20
199.1184738331
  0
VERTEX
  8
0
 62
7
  6
CONTINUOUS
 10
175.6593555533
 20
199.3241549412
  0
VERTEX
  8
0
 62
7
  6
CONTINUOUS
 10
175.7462503551
 20
199.55851492
  0
VERTEX
  8
0
 62
7
  6
CONTINUOUS
 10
175.7722737804
 20
199.7641107833
  0
SEQEND
  0
POLYLINE
  8
0
 62
7
  6
CONTINUOUS
 66
1
 70
0
  0
VERTEX
  8
0
 62
7
  6
CONTINUOUS
 10
149.3722761225
 20
198.7861849602
  0
VERTEX
  8
0
 62
7
  6
CONTINUOUS
 10
149.5831817888
 20
198.8086668267
  0
VERTEX
  8
0
 62
7
  6
CONTINUOUS
 10
149.8192657323
 20
198.8915908745
  0
VERTEX
  8
0
 62
7
  6
CONTINUOUS
 10
150.0274518693
 20
199.0305699636
  0
VERTEX
  8
0
 62
7
  6
CONTINUOUS
 10
150.116877727
 20
199.1184738331
  0
VERTEX
  8
0
 62
7
  6
CONTINUOUS
 10
150.2593555533
 20
199.3241549412
  0
VERTEX
  8
0
 62
7
  6
CONTINUOUS
 10
150.3462503551
 20
199.55851492
  0
VERTEX
  8
0
 62
7
  6
CONTINUOUS
 10
150.3722737804
 20
199.7641107833
  0
SEQEND
  0
POLYLINE
  8
0
 62
7
  6
CONTINUOUS
 66
1
 70
0
  0
VERTEX
  8
0
 62
7
  6
CONTINUOUS
 10
123.9722761225
 20
198.7861849602
  0
VERTEX
  8
0
 62
7
  6
CONTINUOUS
 10
124.1831817888
 20
198.8086668267
  0
VERTEX
  8
0
 62
7
  6
CONTINUOUS
 10
124.4192657323
 20
198.8915908745
  0
VERTEX
  8
0
 62
7
  6
CONTINUOUS
 10
124.6274518693
 20
199.0305699636
  0
VERTEX
  8
0
 62
7
  6
CONTINUOUS
 10
124.716877727
 20
199.1184738331
  0
VERTEX
  8
0
 62
7
  6
CONTINUOUS
 10
124.8593555533
 20
199.3241549412
  0
VERTEX
  8
0
 62
7
  6
CONTINUOUS
 10
124.9462503551
 20
199.55851492
  0
VERTEX
  8
0
 62
7
  6
CONTINUOUS
 10
124.9722737804
 20
199.7641107833
  0
SEQEND
  0
LINE
  8
0
 62
7
  6
CONTINUOUS
 10
162.0722761225
 20
198.7861849602
 11
162.0789473684
 21
198.7868842576
  0
LINE
  8
0
 62
7
  6
CONTINUOUS
 10
136.6722761225
 20
198.7861849602
 11
136.6789473684
 21
198.7868842576
  0
LINE
  8
0
 62
7
  6
CONTINUOUS
 10
190.3331223092
 20
198.7861842592
 11
190.4033947249
 21
198.7884418931
  0
LINE
  8
0
 62
7
  6
CONTINUOUS
 10
164.9331223092
 20
198.7861842592
 11
165.0033947249
 21
198.7884418931
  0
LINE
  8
0
 62
7
  6
CONTINUOUS
 10
139.5331223092
 20
198.7861842592
 11
139.6033947249
 21
198.7884418931
  0
LINE
  8
0
 62
7
  6
CONTINUOUS
 10
114.1331223092
 20
198.7861842592
 11
114.2033947249
 21
198.7884418931
  0
LINE
  8
0
 62
7
  6
CONTINUOUS
 10
88.7331223092
 20
198.7861842592
 11
88.8033947249
 21
198.7884418931
  0
POLYLINE
  8
0
 62
7
  6
CONTINUOUS
 66
1
 70
0
  0
VERTEX
  8
0
 62
7
  6
CONTINUOUS
 10
203.0331306362
 20
198.786184261
  0
VERTEX
  8
0
 62
7
  6
CONTINUOUS
 10
203.1007320149
 20
198.7882749065
  0
VERTEX
  8
0
 62
7
  6
CONTINUOUS
 10
203.2890444897
 20
198.8157011192
  0
VERTEX
  8
0
 62
7
  6
CONTINUOUS
 10
203.3713714578
 20
198.8375115241
  0
VERTEX
  8
0
 62
7
  6
CONTINUOUS
 10
203.5155990459
 20
198.8894838625
  0
VERTEX
  8
0
 62
7
  6
CONTINUOUS
 10
203.5702245541
 20
198.9134220612
  0
SEQEND
  0
POLYLINE
  8
0
 62
7
  6
CONTINUOUS
 66
1
 70
0
  0
VERTEX
  8
0
 62
7
  6
CONTINUOUS
 10
177.6331306362
 20
198.786184261
  0
VERTEX
  8
0
 62
7
  6
CONTINUOUS
 10
177.7007320149
 20
198.7882749065
  0
VERTEX
  8
0
 62
7
  6
CONTINUOUS
 10
177.8890444897
 20
198.8157011192
  0
VERTEX
  8
0
 62
7
  6
CONTINUOUS
 10
177.9713714578
 20
198.8375115241
  0
VERTEX
  8
0
 62
7
  6
CONTINUOUS
 10
178.1155990459
 20
198.8894838625
  0
VERTEX
  8
0
 62
7
  6
CONTINUOUS
 10
178.1702245541
 20
198.9134220612
  0
SEQEND
  0
POLYLINE
  8
0
 62
7
  6
CONTINUOUS
 66
1
 70
0
  0
VERTEX
  8
0
 62
7
  6
CONTINUOUS
 10
152.2331306362
 20
198.786184261
  0
VERTEX
  8
0
 62
7
  6
CONTINUOUS
 10
152.3007320149
 20
198.7882749065
  0
VERTEX
  8
0
 62
7
  6
CONTINUOUS
 10
152.4890444897
 20
198.8157011192
  0
VERTEX
  8
0
 62
7
  6
CONTINUOUS
 10
152.5713714578
 20
198.8375115241
  0
VERTEX
  8
0
 62
7
  6
CONTINUOUS
 10
152.7155990459
 20
198.8894838625
  0
VERTEX
  8
0
 62
7
  6
CONTINUOUS
 10
152.7702245541
 20
198.9134220612
  0
SEQEND
  0
POLYLINE
  8
0
 62
7
  6
CONTINUOUS
 66
1
 70
0
  0
VERTEX
  8
0
 62
7
  6
CONTINUOUS
 10
126.8331306362
 20
198.786184261
  0
VERTEX
  8
0
 62
7
  6
CONTINUOUS
 10
126.9007320149
 20
198.7882749065
  0
VERTEX
  8
0
 62
7
  6
CONTINUOUS
 10
127.0890444897
 20
198.8157011192
  0
VERTEX
  8
0
 62
7
  6
CONTINUOUS
 10
127.1713714578
 20
198.8375115241
  0
VERTEX
  8
0
 62
7
  6
CONTINUOUS
 10
127.3155990459
 20
198.8894838625
  0
VERTEX
  8
0
 62
7
  6
CONTINUOUS
 10
127.3702245541
 20
198.9134220612
  0
SEQEND
  0
POLYLINE
  8
0
 62
7
  6
CONTINUOUS
 66
1
 70
0
  0
VERTEX
  8
0
 62
7
  6
CONTINUOUS
 10
101.4331306362
 20
198.786184261
  0
VERTEX
  8
0
 62
7
  6
CONTINUOUS
 10
101.5007320149
 20
198.7882749065
  0
VERTEX
  8
0
 62
7
  6
CONTINUOUS
 10
101.6890444897
 20
198.8157011192
  0
VERTEX
  8
0
 62
7
  6
CONTINUOUS
 10
101.7713714578
 20
198.8375115241
  0
VERTEX
  8
0
 62
7
  6
CONTINUOUS
 10
101.9155990459
 20
198.8894838625
  0
VERTEX
  8
0
 62
7
  6
CONTINUOUS
 10
101.9702245541
 20
198.9134220612
  0
SEQEND
  0
POLYLINE
  8
0
 62
7
  6
CONTINUOUS
 66
1
 70
0
  0
VERTEX
  8
0
 62
7
  6
CONTINUOUS
 10
76.0331306362
 20
198.786184261
  0
VERTEX
  8
0
 62
7
  6
CONTINUOUS
 10
76.1007320149
 20
198.7882749065
  0
VERTEX
  8
0
 62
7
  6
CONTINUOUS
 10
76.2890444897
 20
198.8157011192
  0
VERTEX
  8
0
 62
7
  6
CONTINUOUS
 10
76.3713714578
 20
198.8375115241
  0
VERTEX
  8
0
 62
7
  6
CONTINUOUS
 10
76.5155990459
 20
198.8894838625
  0
VERTEX
  8
0
 62
7
  6
CONTINUOUS
 10
76.5702245541
 20
198.9134220612
  0
SEQEND
  0
LINE
  8
0
 62
7
  6
CONTINUOUS
 10
203.0331306362
 20
198.786184261
 11
203.032913093
 21
198.7861842371
  0
LINE
  8
0
 62
7
  6
CONTINUOUS
 10
190.3331223092
 20
198.7861842354
 11
190.332913093
 21
198.7861842134
  0
LINE
  8
0
 62
7
  6
CONTINUOUS
 10
177.6331306362
 20
198.786184261
 11
177.632913093
 21
198.7861842371
  0
LINE
  8
0
 62
7
  6
CONTINUOUS
 10
164.9331223092
 20
198.7861842354
 11
164.932913093
 21
198.7861842134
  0
LINE
  8
SURF
 62
7
  6
CONTINUOUS
 10
198.5359479417
 20
198.7861842126
 11
197.3249816438
 21
198.7861842126
  0
LINE
  8
SURF
 62
7
  6
CONTINUOUS
 10
190.332913093
 20
198.7861842126
 11
189.1219467952
 21
198.7861842126
  0
LINE
  8
SURF
 62
7
  6
CONTINUOUS
 10
173.1359479417
 20
198.7861842126
 11
171.9249816438
 21
198.7861842126
  0
LINE
  8
SURF
 62
7
  6
CONTINUOUS
 10
164.932913093
 20
198.7861842126
 11
163.7219467952
 21
198.7861842126
  0
LINE
  8
SURF
 62
7
  6
CONTINUOUS
 10
139.532913093
 20
198.7861842126
 11
138.3219467952
 21
198.7861842126
  0
LINE
  8
SURF
 62
7
  6
CONTINUOUS
 10
122.3359479417
 20
198.7861842126
 11
121.1249816438
 21
198.7861842126
  0
LINE
  8
SURF
 62
7
  6
CONTINUOUS
 10
71.5359479417
 20
198.7861842126
 11
70.3249816438
 21
198.7861842126
  0
LINE
  8
SURF
 62
7
  6
CONTINUOUS
 10
63.2535826002
 20
198.7861842126
 11
61.6789473684
 21
198.7861842126
  0
LINE
  8
0
 62
7
  6
CONTINUOUS
 10
61.6789473684
 20
198.7861842126
 11
63.2535826002
 21
198.7861842126
  0
LINE
  8
0
 62
7
  6
CONTINUOUS
 10
70.3249816438
 20
198.7861842126
 11
73.1722761225
 21
198.7861842126
  0
LINE
  8
0
 62
7
  6
CONTINUOUS
 10
73.1856186144
 20
198.7861842126
 11
76.032913093
 21
198.7861842126
  0
LINE
  8
SURF
 62
7
  6
CONTINUOUS
 10
75.8783741783
 20
198.7861842126
 11
75.9859479417
 21
198.7861842126
  0
LINE
  8
SURF
 62
7
  6
CONTINUOUS
 10
83.0719467952
 20
198.7861842126
 11
83.1795205585
 21
198.7861842126
  0
LINE
  8
0
 62
7
  6
CONTINUOUS
 10
83.0249816438
 20
198.7861842126
 11
85.8722761225
 21
198.7861842126
  0
LINE
  8
0
 62
7
  6
CONTINUOUS
 10
85.8856186144
 20
198.7861842126
 11
88.732913093
 21
198.7861842126
  0
LINE
  8
0
 62
7
  6
CONTINUOUS
 10
95.7249816438
 20
198.7861842126
 11
98.5722761225
 21
198.7861842126
  0
LINE
  8
0
 62
7
  6
CONTINUOUS
 10
98.5856186144
 20
198.7861842126
 11
101.432913093
 21
198.7861842126
  0
LINE
  8
SURF
 62
7
  6
CONTINUOUS
 10
101.2783741783
 20
198.7861842126
 11
101.3859479417
 21
198.7861842126
  0
LINE
  8
SURF
 62
7
  6
CONTINUOUS
 10
108.4719467952
 20
198.7861842126
 11
108.5795205585
 21
198.7861842126
  0
LINE
  8
0
 62
7
  6
CONTINUOUS
 10
108.4249816438
 20
198.7861842126
 11
111.2722761225
 21
198.7861842126
  0
LINE
  8
0
 62
7
  6
CONTINUOUS
 10
111.2856186144
 20
198.7861842126
 11
114.132913093
 21
198.7861842126
  0
LINE
  8
0
 62
7
  6
CONTINUOUS
 10
121.1249816438
 20
198.7861842126
 11
123.9722761225
 21
198.7861842126
  0
LINE
  8
0
 62
7
  6
CONTINUOUS
 10
123.9856186144
 20
198.7861842126
 11
126.832913093
 21
198.7861842126
  0
LINE
  8
SURF
 62
7
  6
CONTINUOUS
 10
126.6783741783
 20
198.7861842126
 11
126.7859479417
 21
198.7861842126
  0
LINE
  8
SURF
 62
7
  6
CONTINUOUS
 10
133.8719467952
 20
198.7861842126
 11
133.9795205585
 21
198.7861842126
  0
LINE
  8
0
 62
7
  6
CONTINUOUS
 10
133.8249816438
 20
198.7861842126
 11
136.6722761225
 21
198.7861842126
  0
LINE
  8
0
 62
7
  6
CONTINUOUS
 10
136.6856186144
 20
198.7861842126
 11
139.532913093
 21
198.7861842126
  0
LINE
  8
0
 62
7
  6
CONTINUOUS
 10
146.5249816438
 20
198.7861842126
 11
149.3722761225
 21
198.7861842126
  0
LINE
  8
0
 62
7
  6
CONTINUOUS
 10
149.3856186144
 20
198.7861842126
 11
152.232913093
 21
198.7861842126
  0
LINE
  8
SURF
 62
7
  6
CONTINUOUS
 10
152.0783741783
 20
198.7861842126
 11
152.1859479417
 21
198.7861842126
  0
LINE
  8
0
 62
7
  6
CONTINUOUS
 10
159.2249816438
 20
198.7861842126
 11
162.0722761225
 21
198.7861842126
  0
LINE
  8
0
 62
7
  6
CONTINUOUS
 10
162.0856186144
 20
198.7861842126
 11
164.932913093
 21
198.7861842126
  0
LINE
  8
0
 62
7
  6
CONTINUOUS
 10
171.9249816438
 20
198.7861842126
 11
174.7722761225
 21
198.7861842126
  0
LINE
  8
0
 62
7
  6
CONTINUOUS
 10
174.7856186144
 20
198.7861842126
 11
177.632913093
 21
198.7861842126
  0
LINE
  8
SURF
 62
7
  6
CONTINUOUS
 10
177.4783741783
 20
198.7861842126
 11
177.5859479417
 21
198.7861842126
  0
LINE
  8
0
 62
7
  6
CONTINUOUS
 10
184.6249816438
 20
198.7861842126
 11
187.4722761225
 21
198.7861842126
  0
LINE
  8
0
 62
7
  6
CONTINUOUS
 10
187.4856186144
 20
198.7861842126
 11
190.332913093
 21
198.7861842126
  0
LINE
  8
0
 62
7
  6
CONTINUOUS
 10
197.3249816438
 20
198.7861842126
 11
200.1722761225
 21
198.7861842126
  0
LINE
  8
0
 62
7
  6
CONTINUOUS
 10
200.1856186144
 20
198.7861842126
 11
203.032913093
 21
198.7861842126
  0
LINE
  8
0
 62
7
  6
CONTINUOUS
 10
210.1043121367
 20
198.7861842126
 11
211.6789473684
 21
198.7861842126
  0
LINE
  8
0
 62
7
  6
CONTINUOUS
 10
114.1331223092
 20
198.7861842354
 11
114.132913093
 21
198.7861842134
  0
LINE
  8
0
 62
7
  6
CONTINUOUS
 10
101.4331306362
 20
198.786184261
 11
101.432913093
 21
198.7861842371
  0
LINE
  8
0
 62
7
  6
CONTINUOUS
 10
88.7331223092
 20
198.7861842354
 11
88.732913093
 21
198.7861842134
  0
LINE
  8
0
 62
7
  6
CONTINUOUS
 10
76.0331306362
 20
198.786184261
 11
76.032913093
 21
198.7861842371
  0
LINE
  8
0
 62
7
  6
CONTINUOUS
 10
63.2537982554
 20
198.786184238
 11
63.2535826002
 21
198.7861842146
  0
POLYLINE
  8
0
 62
7
  6
CONTINUOUS
 66
1
 70
0
  0
VERTEX
  8
0
 62
7
  6
CONTINUOUS
 10
67.0016694488
 20
203.4121090281
  0
VERTEX
  8
0
 62
7
  6
CONTINUOUS
 10
67.0590053966
 20
203.4086827354
  0
VERTEX
  8
0
 62
7
  6
CONTINUOUS
 10
67.1308873653
 20
203.395136405
  0
VERTEX
  8
0
 62
7
  6
CONTINUOUS
 10
67.2022854245
 20
203.3724127007
  0
VERTEX
  8
0
 62
7
  6
CONTINUOUS
 10
67.2739170675
 20
203.3412211274
  0
VERTEX
  8
0
 62
7
  6
CONTINUOUS
 10
67.3463181625
 20
203.3017624778
  0
VERTEX
  8
0
 62
7
  6
CONTINUOUS
 10
67.4195423013
 20
203.2540715465
  0
VERTEX
  8
0
 62
7
  6
CONTINUOUS
 10
67.4927247625
 20
203.1986377084
  0
VERTEX
  8
0
 62
7
  6
CONTINUOUS
 10
67.5646044054
 20
203.1364077839
  0
VERTEX
  8
0
 62
7
  6
CONTINUOUS
 10
67.6338035641
 20
203.0687191172
  0
VERTEX
  8
0
 62
7
  6
CONTINUOUS
 10
67.6995070091
 20
202.9966143105
  0
VERTEX
  8
0
 62
7
  6
CONTINUOUS
 10
67.7624707593
 20
202.9192236317
  0
VERTEX
  8
0
 62
7
  6
CONTINUOUS
 10
67.8236684415
 20
202.8345046883
  0
VERTEX
  8
0
 62
7
  6
CONTINUOUS
 10
67.8820970749
 20
202.7421361555
  0
VERTEX
  8
0
 62
7
  6
CONTINUOUS
 10
67.9342373264
 20
202.6459325166
  0
VERTEX
  8
0
 62
7
  6
CONTINUOUS
 10
67.9768987244
 20
202.5510762704
  0
VERTEX
  8
0
 62
7
  6
CONTINUOUS
 10
68.0080857675
 20
202.4631547255
  0
VERTEX
  8
0
 62
7
  6
CONTINUOUS
 10
68.0252013035
 20
202.3980423001
  0
SEQEND
  0
POLYLINE
  8
0
 62
7
  6
CONTINUOUS
 66
1
 70
0
  0
VERTEX
  8
0
 62
7
  6
CONTINUOUS
 10
92.4016694488
 20
203.4121090281
  0
VERTEX
  8
0
 62
7
  6
CONTINUOUS
 10
92.4590053966
 20
203.4086827354
  0
VERTEX
  8
0
 62
7
  6
CONTINUOUS
 10
92.5308873653
 20
203.395136405
  0
VERTEX
  8
0
 62
7
  6
CONTINUOUS
 10
92.6022854245
 20
203.3724127007
  0
VERTEX
  8
0
 62
7
  6
CONTINUOUS
 10
92.6739170675
 20
203.3412211274
  0
VERTEX
  8
0
 62
7
  6
CONTINUOUS
 10
92.7463181625
 20
203.3017624778
  0
VERTEX
  8
0
 62
7
  6
CONTINUOUS
 10
92.8195423013
 20
203.2540715465
  0
VERTEX
  8
0
 62
7
  6
CONTINUOUS
 10
92.8927247625
 20
203.1986377084
  0
VERTEX
  8
0
 62
7
  6
CONTINUOUS
 10
92.9646044054
 20
203.1364077839
  0
VERTEX
  8
0
 62
7
  6
CONTINUOUS
 10
93.0338035641
 20
203.0687191172
  0
VERTEX
  8
0
 62
7
  6
CONTINUOUS
 10
93.0995070091
 20
202.9966143105
  0
VERTEX
  8
0
 62
7
  6
CONTINUOUS
 10
93.1624707593
 20
202.9192236317
  0
VERTEX
  8
0
 62
7
  6
CONTINUOUS
 10
93.2236684415
 20
202.8345046883
  0
VERTEX
  8
0
 62
7
  6
CONTINUOUS
 10
93.2820970749
 20
202.7421361555
  0
VERTEX
  8
0
 62
7
  6
CONTINUOUS
 10
93.3342373264
 20
202.6459325166
  0
VERTEX
  8
0
 62
7
  6
CONTINUOUS
 10
93.3768987244
 20
202.5510762704
  0
VERTEX
  8
0
 62
7
  6
CONTINUOUS
 10
93.4080857675
 20
202.4631547255
  0
VERTEX
  8
0
 62
7
  6
CONTINUOUS
 10
93.4252013035
 20
202.3980423001
  0
SEQEND
  0
LINE
  8
0
 62
7
  6
CONTINUOUS
 10
123.9789473684
 20
198.7868960936
 11
123.9856186144
 21
198.7861849602
  0
LINE
  8
0
 62
7
  6
CONTINUOUS
 10
149.3789473684
 20
198.7868960936
 11
149.3856186144
 21
198.7861849602
  0
POLYLINE
  8
0
 62
7
  6
CONTINUOUS
 66
1
 70
0
  0
VERTEX
  8
0
 62
7
  6
CONTINUOUS
 10
120.8688502471
 20
198.8157011192
  0
VERTEX
  8
0
 62
7
  6
CONTINUOUS
 10
121.0571627219
 20
198.7882749065
  0
VERTEX
  8
0
 62
7
  6
CONTINUOUS
 10
121.1247641007
 20
198.786184261
  0
SEQEND
  0
POLYLINE
  8
0
 62
7
  6
CONTINUOUS
 66
1
 70
0
  0
VERTEX
  8
0
 62
7
  6
CONTINUOUS
 10
146.2688502472
 20
198.8157011192
  0
VERTEX
  8
0
 62
7
  6
CONTINUOUS
 10
146.4571627219
 20
198.7882749065
  0
VERTEX
  8
0
 62
7
  6
CONTINUOUS
 10
146.5247641007
 20
198.786184261
  0
SEQEND
  0
POLYLINE
  8
0
 62
7
  6
CONTINUOUS
 66
1
 70
0
  0
VERTEX
  8
0
 62
7
  6
CONTINUOUS
 10
133.2876669088
 20
198.9134235607
  0
VERTEX
  8
0
 62
7
  6
CONTINUOUS
 10
133.3411682143
 20
198.8899555853
  0
VERTEX
  8
0
 62
7
  6
CONTINUOUS
 10
133.4849327267
 20
198.8379905268
  0
VERTEX
  8
0
 62
7
  6
CONTINUOUS
 10
133.5669366384
 20
198.8161410681
  0
VERTEX
  8
0
 62
7
  6
CONTINUOUS
 10
133.754500012
 20
198.7884418931
  0
VERTEX
  8
0
 62
7
  6
CONTINUOUS
 10
133.8247724277
 20
198.7861842592
  0
SEQEND
  0
LINE
  8
0
 62
7
  6
CONTINUOUS
 10
133.2876030721
 20
198.9134528014
 11
133.2876669088
 21
198.9134235607
  0
POLYLINE
  8
0
 62
7
  6
CONTINUOUS
 66
1
 70
0
  0
VERTEX
  8
0
 62
7
  6
CONTINUOUS
 10
110.2856209565
 20
199.764110783
  0
VERTEX
  8
0
 62
7
  6
CONTINUOUS
 10
110.3124644027
 20
199.5550365141
  0
VERTEX
  8
0
 62
7
  6
CONTINUOUS
 10
110.4002045535
 20
199.3209728896
  0
VERTEX
  8
0
 62
7
  6
CONTINUOUS
 10
110.5434166286
 20
199.1158087353
  0
VERTEX
  8
0
 62
7
  6
CONTINUOUS
 10
110.6331510942
 20
199.0282312719
  0
VERTEX
  8
0
 62
7
  6
CONTINUOUS
 10
110.841810757
 20
198.8900088753
  0
VERTEX
  8
0
 62
7
  6
CONTINUOUS
 10
111.0781456078
 20
198.8079328203
  0
VERTEX
  8
0
 62
7
  6
CONTINUOUS
 10
111.2856186144
 20
198.7861849602
  0
SEQEND
  0
LINE
  8
0
 62
7
  6
CONTINUOUS
 10
114.9175358405
 20
224.9969162981
 11
115.4041224647
 21
252.8734453295
  0
POLYLINE
  8
0
 62
7
  6
CONTINUOUS
 66
1
 70
0
  0
VERTEX
  8
0
 62
7
  6
CONTINUOUS
 10
139.1146059668
 20
257.431531111
  0
VERTEX
  8
0
 62
7
  6
CONTINUOUS
 10
139.1086273248
 20
257.4275343825
  0
VERTEX
  8
0
 62
7
  6
CONTINUOUS
 10
139.0404241618
 20
257.3848032616
  0
VERTEX
  8
0
 62
7
  6
CONTINUOUS
 10
138.9495150698
 20
257.3311440365
  0
VERTEX
  8
0
 62
7
  6
CONTINUOUS
 10
138.8349758521
 20
257.2673980376
  0
VERTEX
  8
0
 62
7
  6
CONTINUOUS
 10
138.6959628456
 20
257.1946639698
  0
VERTEX
  8
0
 62
7
  6
CONTINUOUS
 10
138.5318833227
 20
257.114484413
  0
VERTEX
  8
0
 62
7
  6
CONTINUOUS
 10
138.3420073285
 20
257.0287517852
  0
VERTEX
  8
0
 62
7
  6
CONTINUOUS
 10
138.1228625972
 20
256.9388495942
  0
VERTEX
  8
0
 62
7
  6
CONTINUOUS
 10
137.867763717
 20
256.8463259364
  0
VERTEX
  8
0
 62
7
  6
CONTINUOUS
 10
137.5658114535
 20
256.7539753544
  0
VERTEX
  8
0
 62
7
  6
CONTINUOUS
 10
137.1962361578
 20
256.6672102111
  0
VERTEX
  8
0
 62
7
  6
CONTINUOUS
 10
136.7702731149
 20
256.6047703415
  0
VERTEX
  8
0
 62
7
  6
CONTINUOUS
 10
136.3521246582
 20
256.5842228992
  0
SEQEND
  0
POLYLINE
  8
0
 62
7
  6
CONTINUOUS
 66
1
 70
0
  0
VERTEX
  8
0
 62
7
  6
CONTINUOUS
 10
114.2033947249
 20
198.7884418931
  0
VERTEX
  8
0
 62
7
  6
CONTINUOUS
 10
114.3909580984
 20
198.8161410681
  0
VERTEX
  8
0
 62
7
  6
CONTINUOUS
 10
114.4729620101
 20
198.8379905268
  0
VERTEX
  8
0
 62
7
  6
CONTINUOUS
 10
114.6167265225
 20
198.8899555853
  0
VERTEX
  8
0
 62
7
  6
CONTINUOUS
 10
114.6702278281
 20
198.9134235607
  0
SEQEND
  0
POLYLINE
  8
0
 62
7
  6
CONTINUOUS
 66
1
 70
0
  0
VERTEX
  8
0
 62
7
  6
CONTINUOUS
 10
98.5722761225
 20
198.7861849602
  0
VERTEX
  8
0
 62
7
  6
CONTINUOUS
 10
98.7831817888
 20
198.8086668267
  0
VERTEX
  8
0
 62
7
  6
CONTINUOUS
 10
99.0192657323
 20
198.8915908745
  0
VERTEX
  8
0
 62
7
  6
CONTINUOUS
 10
99.2274518693
 20
199.0305699636
  0
VERTEX
  8
0
 62
7
  6
CONTINUOUS
 10
99.316877727
 20
199.1184738331
  0
VERTEX
  8
0
 62
7
  6
CONTINUOUS
 10
99.4593555533
 20
199.3241549412
  0
VERTEX
  8
0
 62
7
  6
CONTINUOUS
 10
99.5462503551
 20
199.55851492
  0
VERTEX
  8
0
 62
7
  6
CONTINUOUS
 10
99.5722737804
 20
199.7641107833
  0
SEQEND
  0
POLYLINE
  8
0
 62
7
  6
CONTINUOUS
 66
1
 70
0
  0
VERTEX
  8
0
 62
7
  6
CONTINUOUS
 10
73.1722761225
 20
198.7861849602
  0
VERTEX
  8
0
 62
7
  6
CONTINUOUS
 10
73.3831817888
 20
198.8086668267
  0
VERTEX
  8
0
 62
7
  6
CONTINUOUS
 10
73.6192657323
 20
198.8915908745
  0
VERTEX
  8
0
 62
7
  6
CONTINUOUS
 10
73.8274518693
 20
199.0305699636
  0
VERTEX
  8
0
 62
7
  6
CONTINUOUS
 10
73.916877727
 20
199.1184738331
  0
VERTEX
  8
0
 62
7
  6
CONTINUOUS
 10
74.0593555533
 20
199.3241549412
  0
VERTEX
  8
0
 62
7
  6
CONTINUOUS
 10
74.1462503551
 20
199.55851492
  0
VERTEX
  8
0
 62
7
  6
CONTINUOUS
 10
74.1722737804
 20
199.7641107833
  0
SEQEND
  0
LINE
  8
0
 62
7
  6
CONTINUOUS
 10
111.2722761225
 20
198.7861849602
 11
111.2789473684
 21
198.7868842576
  0
LINE
  8
0
 62
7
  6
CONTINUOUS
 10
85.8722761225
 20
198.7861849602
 11
85.8789473684
 21
198.7868842576
  0
LINE
  8
0
 62
7
  6
CONTINUOUS
 10
63.2537982554
 20
198.786184261
 11
63.3248009146
 21
198.7884920421
  0
LINE
  8
0
 62
7
  6
CONTINUOUS
 10
65.7393724534
 20
202.7861842126
 11
67.8542340386
 21
202.7861842126
  0
LINE
  8
0
 62
7
  6
CONTINUOUS
 10
74.286246666
 20
202.7861842126
 11
84.7716532285
 21
202.7861842126
  0
LINE
  8
0
 62
7
  6
CONTINUOUS
 10
91.2036558152
 20
202.7861842126
 11
93.2542340386
 21
202.7861842126
  0
LINE
  8
0
 62
7
  6
CONTINUOUS
 10
99.686246666
 20
202.7861842126
 11
110.1716532285
 21
202.7861842126
  0
LINE
  8
0
 62
7
  6
CONTINUOUS
 10
116.6036558152
 20
202.7861842126
 11
118.6542340386
 21
202.7861842126
  0
LINE
  8
0
 62
7
  6
CONTINUOUS
 10
125.086246666
 20
202.7861842126
 11
135.5716532285
 21
202.7861842126
  0
LINE
  8
0
 62
7
  6
CONTINUOUS
 10
142.0036558152
 20
202.7861842126
 11
144.0542340386
 21
202.7861842126
  0
LINE
  8
0
 62
7
  6
CONTINUOUS
 10
150.486246666
 20
202.7861842126
 11
160.9716532285
 21
202.7861842126
  0
LINE
  8
0
 62
7
  6
CONTINUOUS
 10
167.4036558152
 20
202.7861842126
 11
169.4542340386
 21
202.7861842126
  0
LINE
  8
0
 62
7
  6
CONTINUOUS
 10
175.886246666
 20
202.7861842126
 11
186.3716532285
 21
202.7861842126
  0
LINE
  8
0
 62
7
  6
CONTINUOUS
 10
192.8036558152
 20
202.7861842126
 11
194.8542340386
 21
202.7861842126
  0
LINE
  8
0
 62
7
  6
CONTINUOUS
 10
201.286246666
 20
202.7861842126
 11
208.24370311
 21
202.7861842126
  0
LINE
  8
0
 62
7
  6
CONTINUOUS
 10
194.0016694488
 20
203.4121083246
 11
193.6562254561
 21
203.4121083246
  0
LINE
  8
0
 62
7
  6
CONTINUOUS
 10
168.6016694488
 20
203.4121083246
 11
168.2562254561
 21
203.4121083246
  0
LINE
  8
0
 62
7
  6
CONTINUOUS
 10
143.2016694488
 20
203.4121083246
 11
142.8562254561
 21
203.4121083246
  0
LINE
  8
0
 62
7
  6
CONTINUOUS
 10
117.8016694488
 20
203.4121083246
 11
117.4562254561
 21
203.4121083246
  0
LINE
  8
0
 62
7
  6
CONTINUOUS
 10
92.4016694488
 20
203.4121083246
 11
92.0562254561
 21
203.4121083246
  0
LINE
  8
0
 62
7
  6
CONTINUOUS
 10
67.0016694488
 20
203.4121083246
 11
66.5968098784
 21
203.4121083246
  0
POLYLINE
  8
0
 62
7
  6
CONTINUOUS
 66
1
 70
0
  0
VERTEX
  8
0
 62
7
  6
CONTINUOUS
 10
117.8016694488
 20
203.4121090281
  0
VERTEX
  8
0
 62
7
  6
CONTINUOUS
 10
117.8590053966
 20
203.4086827354
  0
VERTEX
  8
0
 62
7
  6
CONTINUOUS
 10
117.9308873653
 20
203.395136405
  0
VERTEX
  8
0
 62
7
  6
CONTINUOUS
 10
118.0022854245
 20
203.3724127007
  0
VERTEX
  8
0
 62
7
  6
CONTINUOUS
 10
118.0739170675
 20
203.3412211274
  0
VERTEX
  8
0
 62
7
  6
CONTINUOUS
 10
118.1463181625
 20
203.3017624778
  0
VERTEX
  8
0
 62
7
  6
CONTINUOUS
 10
118.2195423013
 20
203.2540715465
  0
VERTEX
  8
0
 62
7
  6
CONTINUOUS
 10
118.2927247625
 20
203.1986377084
  0
VERTEX
  8
0
 62
7
  6
CONTINUOUS
 10
118.3646044054
 20
203.1364077839
  0
VERTEX
  8
0
 62
7
  6
CONTINUOUS
 10
118.4338035641
 20
203.0687191172
  0
VERTEX
  8
0
 62
7
  6
CONTINUOUS
 10
118.4995070091
 20
202.9966143105
  0
VERTEX
  8
0
 62
7
  6
CONTINUOUS
 10
118.5624707593
 20
202.9192236317
  0
VERTEX
  8
0
 62
7
  6
CONTINUOUS
 10
118.6236684415
 20
202.8345046883
  0
VERTEX
  8
0
 62
7
  6
CONTINUOUS
 10
118.6820970749
 20
202.7421361555
  0
VERTEX
  8
0
 62
7
  6
CONTINUOUS
 10
118.7342373264
 20
202.6459325166
  0
VERTEX
  8
0
 62
7
  6
CONTINUOUS
 10
118.7768987244
 20
202.5510762704
  0
VERTEX
  8
0
 62
7
  6
CONTINUOUS
 10
118.8080857675
 20
202.4631547255
  0
VERTEX
  8
0
 62
7
  6
CONTINUOUS
 10
118.8252013035
 20
202.3980423001
  0
SEQEND
  0
POLYLINE
  8
0
 62
7
  6
CONTINUOUS
 66
1
 70
0
  0
VERTEX
  8
0
 62
7
  6
CONTINUOUS
 10
143.2016694488
 20
203.4121090281
  0
VERTEX
  8
0
 62
7
  6
CONTINUOUS
 10
143.2590053966
 20
203.4086827354
  0
VERTEX
  8
0
 62
7
  6
CONTINUOUS
 10
143.3308873653
 20
203.395136405
  0
VERTEX
  8
0
 62
7
  6
CONTINUOUS
 10
143.4022854245
 20
203.3724127007
  0
VERTEX
  8
0
 62
7
  6
CONTINUOUS
 10
143.4739170675
 20
203.3412211274
  0
VERTEX
  8
0
 62
7
  6
CONTINUOUS
 10
143.5463181625
 20
203.3017624778
  0
VERTEX
  8
0
 62
7
  6
CONTINUOUS
 10
143.6195423013
 20
203.2540715465
  0
VERTEX
  8
0
 62
7
  6
CONTINUOUS
 10
143.6927247625
 20
203.1986377084
  0
VERTEX
  8
0
 62
7
  6
CONTINUOUS
 10
143.7646044054
 20
203.1364077839
  0
VERTEX
  8
0
 62
7
  6
CONTINUOUS
 10
143.8338035641
 20
203.0687191172
  0
VERTEX
  8
0
 62
7
  6
CONTINUOUS
 10
143.8995070091
 20
202.9966143105
  0
VERTEX
  8
0
 62
7
  6
CONTINUOUS
 10
143.9624707593
 20
202.9192236317
  0
VERTEX
  8
0
 62
7
  6
CONTINUOUS
 10
144.0236684415
 20
202.8345046883
  0
VERTEX
  8
0
 62
7
  6
CONTINUOUS
 10
144.0820970749
 20
202.7421361555
  0
VERTEX
  8
0
 62
7
  6
CONTINUOUS
 10
144.1342373264
 20
202.6459325166
  0
VERTEX
  8
0
 62
7
  6
CONTINUOUS
 10
144.1768987244
 20
202.5510762704
  0
VERTEX
  8
0
 62
7
  6
CONTINUOUS
 10
144.2080857675
 20
202.4631547255
  0
VERTEX
  8
0
 62
7
  6
CONTINUOUS
 10
144.2252013035
 20
202.3980423001
  0
SEQEND
  0
POLYLINE
  8
0
 62
7
  6
CONTINUOUS
 66
1
 70
0
  0
VERTEX
  8
0
 62
7
  6
CONTINUOUS
 10
168.6016694488
 20
203.4121090281
  0
VERTEX
  8
0
 62
7
  6
CONTINUOUS
 10
168.6590053966
 20
203.4086827354
  0
VERTEX
  8
0
 62
7
  6
CONTINUOUS
 10
168.7308873653
 20
203.395136405
  0
VERTEX
  8
0
 62
7
  6
CONTINUOUS
 10
168.8022854245
 20
203.3724127007
  0
VERTEX
  8
0
 62
7
  6
CONTINUOUS
 10
168.8739170675
 20
203.3412211274
  0
VERTEX
  8
0
 62
7
  6
CONTINUOUS
 10
168.9463181625
 20
203.3017624778
  0
VERTEX
  8
0
 62
7
  6
CONTINUOUS
 10
169.0195423013
 20
203.2540715465
  0
VERTEX
  8
0
 62
7
  6
CONTINUOUS
 10
169.0927247625
 20
203.1986377084
  0
VERTEX
  8
0
 62
7
  6
CONTINUOUS
 10
169.1646044054
 20
203.1364077839
  0
VERTEX
  8
0
 62
7
  6
CONTINUOUS
 10
169.2338035641
 20
203.0687191172
  0
VERTEX
  8
0
 62
7
  6
CONTINUOUS
 10
169.2995070091
 20
202.9966143105
  0
VERTEX
  8
0
 62
7
  6
CONTINUOUS
 10
169.3624707593
 20
202.9192236317
  0
VERTEX
  8
0
 62
7
  6
CONTINUOUS
 10
169.4236684415
 20
202.8345046883
  0
VERTEX
  8
0
 62
7
  6
CONTINUOUS
 10
169.4820970749
 20
202.7421361555
  0
VERTEX
  8
0
 62
7
  6
CONTINUOUS
 10
169.5342373264
 20
202.6459325166
  0
VERTEX
  8
0
 62
7
  6
CONTINUOUS
 10
169.5768987244
 20
202.5510762704
  0
VERTEX
  8
0
 62
7
  6
CONTINUOUS
 10
169.6080857675
 20
202.4631547255
  0
VERTEX
  8
0
 62
7
  6
CONTINUOUS
 10
169.6252013035
 20
202.3980423001
  0
SEQEND
  0
LINE
  8
0
 62
7
  6
CONTINUOUS
 10
174.7789473684
 20
198.7868960936
 11
174.7856186144
 21
198.7861849602
  0
LINE
  8
0
 62
7
  6
CONTINUOUS
 10
200.1789473684
 20
198.7868960936
 11
200.1856186144
 21
198.7861849602
  0
POLYLINE
  8
0
 62
7
  6
CONTINUOUS
 66
1
 70
0
  0
VERTEX
  8
0
 62
7
  6
CONTINUOUS
 10
171.6688502471
 20
198.8157011192
  0
VERTEX
  8
0
 62
7
  6
CONTINUOUS
 10
171.8571627219
 20
198.7882749065
  0
VERTEX
  8
0
 62
7
  6
CONTINUOUS
 10
171.9247641007
 20
198.786184261
  0
SEQEND
  0
POLYLINE
  8
0
 62
7
  6
CONTINUOUS
 66
1
 70
0
  0
VERTEX
  8
0
 62
7
  6
CONTINUOUS
 10
145.9876701827
 20
198.9134220612
  0
VERTEX
  8
0
 62
7
  6
CONTINUOUS
 10
146.0422956909
 20
198.8894838625
  0
VERTEX
  8
0
 62
7
  6
CONTINUOUS
 10
146.186523279
 20
198.8375115241
  0
VERTEX
  8
0
 62
7
  6
CONTINUOUS
 10
146.2688502472
 20
198.8157011192
  0
SEQEND
  0
LINE
  8
0
 62
7
  6
CONTINUOUS
 10
145.9875941022
 20
198.9134569732
 11
145.9876702065
 21
198.913422113
  0
POLYLINE
  8
0
 62
7
  6
CONTINUOUS
 66
1
 70
0
  0
VERTEX
  8
0
 62
7
  6
CONTINUOUS
 10
118.8252026889
 20
202.3980351048
  0
VERTEX
  8
0
 62
7
  6
CONTINUOUS
 10
119.083644354
 20
201.3609425126
  0
VERTEX
  8
0
 62
7
  6
CONTINUOUS
 10
119.3442767124
 20
200.5667422794
  0
VERTEX
  8
0
 62
7
  6
CONTINUOUS
 10
119.6063647596
 20
199.9703925392
  0
VERTEX
  8
0
 62
7
  6
CONTINUOUS
 10
119.8849869715
 20
199.5143606265
  0
VERTEX
  8
0
 62
7
  6
CONTINUOUS
 10
120.2087274095
 20
199.1593934261
  0
VERTEX
  8
0
 62
7
  6
CONTINUOUS
 10
120.5875941022
 20
198.9134569732
  0
SEQEND
  0
LINE
  8
0
 62
7
  6
CONTINUOUS
 10
121.7851705297
 20
256.8036365204
 11
122.3721182856
 21
223.1774221061
  0
POLYLINE
  8
0
 62
7
  6
CONTINUOUS
 66
1
 70
0
  0
VERTEX
  8
0
 62
7
  6
CONTINUOUS
 10
63.7936398266
 20
198.9148717555
  0
VERTEX
  8
0
 62
7
  6
CONTINUOUS
 10
64.1721989446
 20
199.161428709
  0
VERTEX
  8
0
 62
7
  6
CONTINUOUS
 10
64.4955317249
 20
199.5158531056
  0
VERTEX
  8
0
 62
7
  6
CONTINUOUS
 10
64.7749701743
 20
199.9713403928
  0
VERTEX
  8
0
 62
7
  6
CONTINUOUS
 10
65.0388796319
 20
200.5670686073
  0
VERTEX
  8
0
 62
7
  6
CONTINUOUS
 10
65.3023747248
 20
201.360317289
  0
VERTEX
  8
0
 62
7
  6
CONTINUOUS
 10
65.5644414984
 20
202.3940836492
  0
SEQEND
  0
POLYLINE
  8
0
 62
7
  6
CONTINUOUS
 66
1
 70
0
  0
VERTEX
  8
0
 62
7
  6
CONTINUOUS
 10
63.3248009146
 20
198.7884920421
  0
VERTEX
  8
0
 62
7
  6
CONTINUOUS
 10
63.5136314885
 20
198.816646756
  0
VERTEX
  8
0
 62
7
  6
CONTINUOUS
 10
63.5959343638
 20
198.8387627678
  0
VERTEX
  8
0
 62
7
  6
CONTINUOUS
 10
63.7399269061
 20
198.8911735506
  0
VERTEX
  8
0
 62
7
  6
CONTINUOUS
 10
63.7935811133
 20
198.9148446561
  0
SEQEND
  0
POLYLINE
  8
0
 62
7
  6
CONTINUOUS
 66
1
 70
0
  0
VERTEX
  8
0
 62
7
  6
CONTINUOUS
 10
88.8033947249
 20
198.7884418931
  0
VERTEX
  8
0
 62
7
  6
CONTINUOUS
 10
88.9909580984
 20
198.8161410681
  0
VERTEX
  8
0
 62
7
  6
CONTINUOUS
 10
89.0729620101
 20
198.8379905268
  0
VERTEX
  8
0
 62
7
  6
CONTINUOUS
 10
89.2167265225
 20
198.8899555853
  0
VERTEX
  8
0
 62
7
  6
CONTINUOUS
 10
89.2702278281
 20
198.9134235607
  0
SEQEND
  0
LINE
  8
DEFAULT_1
 62
2
  6
CENTER
 10
42.7819758101
 20
211.9861842126
 11
223.0859577965
 21
211.9861842126
  0
POLYLINE
  8
0
 62
7
  6
CONTINUOUS
 66
1
 70
0
  0
VERTEX
  8
0
 62
7
  6
CONTINUOUS
 10
194.0016694488
 20
203.4121090281
  0
VERTEX
  8
0
 62
7
  6
CONTINUOUS
 10
194.0590053966
 20
203.4086827354
  0
VERTEX
  8
0
 62
7
  6
CONTINUOUS
 10
194.1308873653
 20
203.395136405
  0
VERTEX
  8
0
 62
7
  6
CONTINUOUS
 10
194.2022854245
 20
203.3724127007
  0
VERTEX
  8
0
 62
7
  6
CONTINUOUS
 10
194.2739170675
 20
203.3412211274
  0
VERTEX
  8
0
 62
7
  6
CONTINUOUS
 10
194.3463181625
 20
203.3017624778
  0
VERTEX
  8
0
 62
7
  6
CONTINUOUS
 10
194.4195423013
 20
203.2540715465
  0
VERTEX
  8
0
 62
7
  6
CONTINUOUS
 10
194.4927247625
 20
203.1986377084
  0
VERTEX
  8
0
 62
7
  6
CONTINUOUS
 10
194.5646044054
 20
203.1364077839
  0
VERTEX
  8
0
 62
7
  6
CONTINUOUS
 10
194.6338035641
 20
203.0687191172
  0
VERTEX
  8
0
 62
7
  6
CONTINUOUS
 10
194.6995070091
 20
202.9966143105
  0
VERTEX
  8
0
 62
7
  6
CONTINUOUS
 10
194.7624707593
 20
202.9192236317
  0
VERTEX
  8
0
 62
7
  6
CONTINUOUS
 10
194.8236684415
 20
202.8345046883
  0
VERTEX
  8
0
 62
7
  6
CONTINUOUS
 10
194.8820970749
 20
202.7421361555
  0
VERTEX
  8
0
 62
7
  6
CONTINUOUS
 10
194.9342373264
 20
202.6459325166
  0
VERTEX
  8
0
 62
7
  6
CONTINUOUS
 10
194.9768987244
 20
202.5510762704
  0
VERTEX
  8
0
 62
7
  6
CONTINUOUS
 10
195.0080857675
 20
202.4631547255
  0
VERTEX
  8
0
 62
7
  6
CONTINUOUS
 10
195.0252013035
 20
202.3980423001
  0
SEQEND
  0
POLYLINE
  8
0
 62
7
  6
CONTINUOUS
 66
1
 70
0
  0
VERTEX
  8
0
 62
7
  6
CONTINUOUS
 10
197.0688502471
 20
198.8157011192
  0
VERTEX
  8
0
 62
7
  6
CONTINUOUS
 10
197.2571627219
 20
198.7882749065
  0
VERTEX
  8
0
 62
7
  6
CONTINUOUS
 10
197.3247641007
 20
198.786184261
  0
SEQEND
  0
POLYLINE
  8
0
 62
7
  6
CONTINUOUS
 66
1
 70
0
  0
VERTEX
  8
0
 62
7
  6
CONTINUOUS
 10
158.6876669088
 20
198.9134235607
  0
VERTEX
  8
0
 62
7
  6
CONTINUOUS
 10
158.7411682143
 20
198.8899555853
  0
VERTEX
  8
0
 62
7
  6
CONTINUOUS
 10
158.8849327267
 20
198.8379905268
  0
VERTEX
  8
0
 62
7
  6
CONTINUOUS
 10
158.9669366384
 20
198.8161410681
  0
VERTEX
  8
0
 62
7
  6
CONTINUOUS
 10
159.154500012
 20
198.7884418931
  0
VERTEX
  8
0
 62
7
  6
CONTINUOUS
 10
159.2247724277
 20
198.7861842592
  0
SEQEND
  0
LINE
  8
0
 62
7
  6
CONTINUOUS
 10
158.6876030721
 20
198.9134528014
 11
158.6876669088
 21
198.9134235607
  0
POLYLINE
  8
0
 62
7
  6
CONTINUOUS
 66
1
 70
0
  0
VERTEX
  8
0
 62
7
  6
CONTINUOUS
 10
131.3549604315
 20
202.7861842126
  0
VERTEX
  8
0
 62
7
  6
CONTINUOUS
 10
131.3602628238
 20
202.7782194126
  0
VERTEX
  8
0
 62
7
  6
CONTINUOUS
 10
131.4137793352
 20
202.6856487804
  0
VERTEX
  8
0
 62
7
  6
CONTINUOUS
 10
131.4594622069
 20
202.5922778564
  0
VERTEX
  8
0
 62
7
  6
CONTINUOUS
 10
131.4949657873
 20
202.5031389166
  0
VERTEX
  8
0
 62
7
  6
CONTINUOUS
 10
131.5192264857
 20
202.4233350033
  0
VERTEX
  8
0
 62
7
  6
CONTINUOUS
 10
131.5252014717
 20
202.3980415675
  0
SEQEND
  0
LINE
  8
0
 62
7
  6
CONTINUOUS
 10
127.7210978005
 20
223.7687318062
 11
128.297723597
 21
256.8036015661
  0
LINE
  8
0
 62
7
  6
CONTINUOUS
 10
123.8157516764
 20
221.7643693276
 11
123.3357099687
 21
199.7643693276
  0
LINE
  8
SURF
 62
7
  6
CONTINUOUS
 10
123.7364601377
 20
218.1304895539
 11
123.7811302986
 21
220.1776940468
  0
LINE
  8
SURF
 62
7
  6
CONTINUOUS
 10
127.8516462041
 20
202.7861842126
 11
127.7857099687
 21
199.7643693276
  0
LINE
  8
0
 62
7
  6
CONTINUOUS
 10
127.7857099687
 20
199.7643693276
 11
127.8516462041
 21
202.7861842126
  0
LINE
  8
0
 62
7
  6
CONTINUOUS
 10
125.0197648792
 20
201.9145471434
 11
124.972274419
 21
199.7641107692
  0
POLYLINE
  8
0
 62
7
  6
CONTINUOUS
 66
1
 70
0
  0
VERTEX
  8
0
 62
7
  6
CONTINUOUS
 10
125.0197648004
 20
201.9145471458
  0
VERTEX
  8
0
 62
7
  6
CONTINUOUS
 10
125.0291357428
 20
202.1692011137
  0
VERTEX
  8
0
 62
7
  6
CONTINUOUS
 10
125.0474848546
 20
202.440621375
  0
VERTEX
  8
0
 62
7
  6
CONTINUOUS
 10
125.0708929783
 20
202.6731306775
  0
VERTEX
  8
0
 62
7
  6
CONTINUOUS
 10
125.0962550892
 20
202.8598790569
  0
VERTEX
  8
0
 62
7
  6
CONTINUOUS
 10
125.1212582985
 20
203.0024358606
  0
VERTEX
  8
0
 62
7
  6
CONTINUOUS
 10
125.1436348737
 20
203.1028299673
  0
VERTEX
  8
0
 62
7
  6
CONTINUOUS
 10
125.1598001224
 20
203.1600072158
  0
VERTEX
  8
0
 62
7
  6
CONTINUOUS
 10
125.162232836
 20
203.1672521547
  0
SEQEND
  0
POLYLINE
  8
0
 62
7
  6
CONTINUOUS
 66
1
 70
0
  0
VERTEX
  8
0
 62
7
  6
CONTINUOUS
 10
116.4326933662
 20
202.398042031
  0
VERTEX
  8
0
 62
7
  6
CONTINUOUS
 10
116.4500432998
 20
202.4639226123
  0
VERTEX
  8
0
 62
7
  6
CONTINUOUS
 10
116.4812397994
 20
202.5516819138
  0
VERTEX
  8
0
 62
7
  6
CONTINUOUS
 10
116.5238567211
 20
202.6463341068
  0
VERTEX
  8
0
 62
7
  6
CONTINUOUS
 10
116.5759063934
 20
202.7423211171
  0
VERTEX
  8
0
 62
7
  6
CONTINUOUS
 10
116.6342090814
 20
202.834479303
  0
VERTEX
  8
0
 62
7
  6
CONTINUOUS
 10
116.6952518794
 20
202.9189995352
  0
VERTEX
  8
0
 62
7
  6
CONTINUOUS
 10
116.7580301255
 20
202.9961990026
  0
VERTEX
  8
0
 62
7
  6
CONTINUOUS
 10
116.8235106881
 20
203.0681168985
  0
VERTEX
  8
0
 62
7
  6
CONTINUOUS
 10
116.892482824
 20
203.1356631804
  0
VERTEX
  8
0
 62
7
  6
CONTINUOUS
 10
116.9641740103
 20
203.1978290372
  0
VERTEX
  8
0
 62
7
  6
CONTINUOUS
 10
117.0372525195
 20
203.253296138
  0
VERTEX
  8
0
 62
7
  6
CONTINUOUS
 10
117.1105311396
 20
203.3011362407
  0
VERTEX
  8
0
 62
7
  6
CONTINUOUS
 10
117.18331102
 20
203.3408934897
  0
VERTEX
  8
0
 62
7
  6
CONTINUOUS
 10
117.2555522949
 20
203.3723911294
  0
VERTEX
  8
0
 62
7
  6
CONTINUOUS
 10
117.3276287978
 20
203.3952950844
  0
VERTEX
  8
0
 62
7
  6
CONTINUOUS
 10
117.3999768759
 20
203.4088102922
  0
VERTEX
  8
0
 62
7
  6
CONTINUOUS
 10
117.4562254565
 20
203.4121090627
  0
SEQEND
  0
POLYLINE
  8
0
 62
7
  6
CONTINUOUS
 66
1
 70
0
  0
VERTEX
  8
0
 62
7
  6
CONTINUOUS
 10
171.3876701827
 20
198.9134220612
  0
VERTEX
  8
0
 62
7
  6
CONTINUOUS
 10
171.4422956909
 20
198.8894838625
  0
VERTEX
  8
0
 62
7
  6
CONTINUOUS
 10
171.586523279
 20
198.8375115241
  0
VERTEX
  8
0
 62
7
  6
CONTINUOUS
 10
171.6688502471
 20
198.8157011192
  0
SEQEND
  0
LINE
  8
0
 62
7
  6
CONTINUOUS
 10
171.3875941022
 20
198.9134569732
 11
171.3876702065
 21
198.913422113
  0
POLYLINE
  8
0
 62
7
  6
CONTINUOUS
 66
1
 70
0
  0
VERTEX
  8
0
 62
7
  6
CONTINUOUS
 10
135.4957214324
 20
203.1680405231
  0
VERTEX
  8
0
 62
7
  6
CONTINUOUS
 10
135.4941496666
 20
203.1714752837
  0
VERTEX
  8
0
 62
7
  6
CONTINUOUS
 10
135.4981977878
 20
203.1596899349
  0
VERTEX
  8
0
 62
7
  6
CONTINUOUS
 10
135.5144504285
 20
203.1020761224
  0
VERTEX
  8
0
 62
7
  6
CONTINUOUS
 10
135.5368749701
 20
203.0012346623
  0
VERTEX
  8
0
 62
7
  6
CONTINUOUS
 10
135.5619006383
 20
202.8581984025
  0
VERTEX
  8
0
 62
7
  6
CONTINUOUS
 10
135.5872633188
 20
202.6709176034
  0
VERTEX
  8
0
 62
7
  6
CONTINUOUS
 10
135.6106472042
 20
202.437803224
  0
VERTEX
  8
0
 62
7
  6
CONTINUOUS
 10
135.6289331915
 20
202.1658033449
  0
VERTEX
  8
0
 62
7
  6
CONTINUOUS
 10
135.6381299365
 20
201.9145471459
  0
SEQEND
  0
POLYLINE
  8
0
 62
7
  6
CONTINUOUS
 66
1
 70
0
  0
VERTEX
  8
0
 62
7
  6
CONTINUOUS
 10
131.5252026005
 20
202.39803551
  0
VERTEX
  8
0
 62
7
  6
CONTINUOUS
 10
131.78318411
 20
201.3625498968
  0
VERTEX
  8
0
 62
7
  6
CONTINUOUS
 10
132.0437305699
 20
200.5681817125
  0
VERTEX
  8
0
 62
7
  6
CONTINUOUS
 10
132.3057138006
 20
199.97165636
  0
VERTEX
  8
0
 62
7
  6
CONTINUOUS
 10
132.5841875741
 20
199.5154473139
  0
VERTEX
  8
0
 62
7
  6
CONTINUOUS
 10
132.9076904049
 20
199.1602894194
  0
VERTEX
  8
0
 62
7
  6
CONTINUOUS
 10
133.2876030958
 20
198.9134528532
  0
SEQEND
  0
LINE
  8
0
 62
7
  6
CONTINUOUS
 10
135.6856203178
 20
199.7641107689
 11
135.6381298577
 21
201.9145471435
  0
LINE
  8
0
 62
7
  6
CONTINUOUS
 10
132.8721847681
 20
199.7643693276
 11
132.8062485328
 21
202.7861842126
  0
LINE
  8
0
 62
7
  6
CONTINUOUS
 10
132.3601705365
 20
256.8036361315
 11
132.9367969364
 21
223.7687318062
  0
POLYLINE
  8
0
 62
7
  6
CONTINUOUS
 66
1
 70
0
  0
VERTEX
  8
0
 62
7
  6
CONTINUOUS
 10
76.5703006346
 20
198.9134569732
  0
VERTEX
  8
0
 62
7
  6
CONTINUOUS
 10
76.9491673273
 20
199.1593934261
  0
VERTEX
  8
0
 62
7
  6
CONTINUOUS
 10
77.2729077654
 20
199.5143606265
  0
VERTEX
  8
0
 62
7
  6
CONTINUOUS
 10
77.5515299772
 20
199.9703925392
  0
VERTEX
  8
0
 62
7
  6
CONTINUOUS
 10
77.8136180245
 20
200.5667422794
  0
VERTEX
  8
0
 62
7
  6
CONTINUOUS
 10
78.0742503829
 20
201.3609425126
  0
VERTEX
  8
0
 62
7
  6
CONTINUOUS
 10
78.332692048
 20
202.3980351048
  0
SEQEND
  0
LINE
  8
0
 62
7
  6
CONTINUOUS
 10
63.7936398487
 20
198.9148717076
 11
63.7935811133
 21
198.9148446561
  0
LINE
  8
0
 62
7
  6
CONTINUOUS
 10
135.8168162775
 20
218.7861842126
 11
124.8410784594
 21
218.7861842126
  0
LINE
  8
SURF
 62
7
  6
CONTINUOUS
 10
110.4168162775
 20
218.7861842126
 11
99.4410784594
 21
218.7861842126
  0
LINE
  8
SURF
 62
7
  6
CONTINUOUS
 10
85.0168162775
 20
218.7861842126
 11
74.0410784594
 21
218.7861842126
  0
LINE
  8
0
 62
7
  6
CONTINUOUS
 10
150.2410784594
 20
218.7861842126
 11
161.2168162775
 21
218.7861842126
  0
LINE
  8
0
 62
7
  6
CONTINUOUS
 10
175.6410784594
 20
218.7861842126
 11
186.6168162775
 21
218.7861842126
  0
LINE
  8
0
 62
7
  6
CONTINUOUS
 10
201.0410784594
 20
218.7861842126
 11
211.6789473684
 21
218.7861842126
  0
LINE
  8
0
 62
7
  6
CONTINUOUS
 10
62.3251332176
 20
222.7861842126
 11
61.6789473684
 21
222.7861842126
  0
LINE
  8
0
 62
7
  6
CONTINUOUS
 10
72.5616446315
 20
222.7861842126
 11
76.114864231
 21
222.7861842126
  0
LINE
  8
0
 62
7
  6
CONTINUOUS
 10
82.9430305059
 20
222.7861842126
 11
86.4962501053
 21
222.7861842126
  0
LINE
  8
0
 62
7
  6
CONTINUOUS
 10
96.7327615193
 20
222.7861842126
 11
113.1251332176
 21
222.7861842126
  0
LINE
  8
0
 62
7
  6
CONTINUOUS
 10
123.3616446315
 20
222.7861842126
 11
126.914864231
 21
222.7861842126
  0
LINE
  8
0
 62
7
  6
CONTINUOUS
 10
133.7430305059
 20
222.7861842126
 11
137.2962501053
 21
222.7861842126
  0
LINE
  8
0
 62
7
  6
CONTINUOUS
 10
147.5327615193
 20
222.7861842126
 11
163.9251332176
 21
222.7861842126
  0
LINE
  8
0
 62
7
  6
CONTINUOUS
 10
174.1616446315
 20
222.7861842126
 11
177.714864231
 21
222.7861842126
  0
LINE
  8
0
 62
7
  6
CONTINUOUS
 10
184.5430305059
 20
222.7861842126
 11
188.0962501053
 21
222.7861842126
  0
LINE
  8
0
 62
7
  6
CONTINUOUS
 10
198.3327615193
 20
222.7861842126
 11
211.6789473684
 21
222.7861842126
  0
POLYLINE
  8
0
 62
7
  6
CONTINUOUS
 66
1
 70
0
  0
VERTEX
  8
0
 62
7
  6
CONTINUOUS
 10
184.0876669088
 20
198.9134235607
  0
VERTEX
  8
0
 62
7
  6
CONTINUOUS
 10
184.1411682143
 20
198.8899555853
  0
VERTEX
  8
0
 62
7
  6
CONTINUOUS
 10
184.2849327267
 20
198.8379905268
  0
VERTEX
  8
0
 62
7
  6
CONTINUOUS
 10
184.3669366384
 20
198.8161410681
  0
VERTEX
  8
0
 62
7
  6
CONTINUOUS
 10
184.554500012
 20
198.7884418931
  0
VERTEX
  8
0
 62
7
  6
CONTINUOUS
 10
184.6247724277
 20
198.7861842592
  0
SEQEND
  0
LINE
  8
0
 62
7
  6
CONTINUOUS
 10
184.0876030721
 20
198.9134528014
 11
184.0876669088
 21
198.9134235607
  0
POLYLINE
  8
0
 62
7
  6
CONTINUOUS
 66
1
 70
0
  0
VERTEX
  8
0
 62
7
  6
CONTINUOUS
 10
135.6856209565
 20
199.764110783
  0
VERTEX
  8
0
 62
7
  6
CONTINUOUS
 10
135.7124644027
 20
199.5550365141
  0
VERTEX
  8
0
 62
7
  6
CONTINUOUS
 10
135.8002045535
 20
199.3209728896
  0
VERTEX
  8
0
 62
7
  6
CONTINUOUS
 10
135.9434166286
 20
199.1158087353
  0
VERTEX
  8
0
 62
7
  6
CONTINUOUS
 10
136.0331510942
 20
199.0282312719
  0
VERTEX
  8
0
 62
7
  6
CONTINUOUS
 10
136.241810757
 20
198.8900088753
  0
VERTEX
  8
0
 62
7
  6
CONTINUOUS
 10
136.4781456078
 20
198.8079328203
  0
VERTEX
  8
0
 62
7
  6
CONTINUOUS
 10
136.6856186144
 20
198.7861849602
  0
SEQEND
  0
LINE
  8
0
 62
7
  6
CONTINUOUS
 10
137.3221847681
 20
199.7643693276
 11
136.8421430604
 21
221.7643693276
  0
LINE
  8
DEFAULT_1
 62
2
  6
CENTER
 10
136.6789473684
 20
196.785344663
 11
136.6789473684
 21
259.7861842126
  0
LINE
  8
0
 62
7
  6
CONTINUOUS
 10
138.2857764513
 20
223.1774221061
 11
138.8727239158
 21
256.803619832
  0
POLYLINE
  8
0
 62
7
  6
CONTINUOUS
 66
1
 70
0
  0
VERTEX
  8
0
 62
7
  6
CONTINUOUS
 10
129.1326934259
 20
202.3980422661
  0
VERTEX
  8
0
 62
7
  6
CONTINUOUS
 10
129.1497480683
 20
202.4629547746
  0
VERTEX
  8
0
 62
7
  6
CONTINUOUS
 10
129.1808142458
 20
202.5506241131
  0
VERTEX
  8
0
 62
7
  6
CONTINUOUS
 10
129.2233031787
 20
202.6452180205
  0
VERTEX
  8
0
 62
7
  6
CONTINUOUS
 10
129.2752429865
 20
202.7411917554
  0
VERTEX
  8
0
 62
7
  6
CONTINUOUS
 10
129.3036582453
 20
202.7861842126
  0
SEQEND
  0
POLYLINE
  8
0
 62
7
  6
CONTINUOUS
 66
1
 70
0
  0
VERTEX
  8
0
 62
7
  6
CONTINUOUS
 10
179.3399934017
 20
257.4317901117
  0
VERTEX
  8
0
 62
7
  6
CONTINUOUS
 10
179.3336273248
 20
257.4275343825
  0
VERTEX
  8
0
 62
7
  6
CONTINUOUS
 10
179.2654241618
 20
257.3848032616
  0
VERTEX
  8
0
 62
7
  6
CONTINUOUS
 10
179.1745150698
 20
257.3311440365
  0
VERTEX
  8
0
 62
7
  6
CONTINUOUS
 10
179.0599758521
 20
257.2673980376
  0
VERTEX
  8
0
 62
7
  6
CONTINUOUS
 10
178.9209628456
 20
257.1946639698
  0
VERTEX
  8
0
 62
7
  6
CONTINUOUS
 10
178.7568833227
 20
257.114484413
  0
VERTEX
  8
0
 62
7
  6
CONTINUOUS
 10
178.5670073285
 20
257.0287517852
  0
VERTEX
  8
0
 62
7
  6
CONTINUOUS
 10
178.3478625972
 20
256.9388495942
  0
VERTEX
  8
0
 62
7
  6
CONTINUOUS
 10
178.092763717
 20
256.8463259364
  0
VERTEX
  8
0
 62
7
  6
CONTINUOUS
 10
177.7908114535
 20
256.7539753544
  0
VERTEX
  8
0
 62
7
  6
CONTINUOUS
 10
177.4212361577
 20
256.6672102111
  0
VERTEX
  8
0
 62
7
  6
CONTINUOUS
 10
176.9952731149
 20
256.6047703415
  0
VERTEX
  8
0
 62
7
  6
CONTINUOUS
 10
176.5771246582
 20
256.5842228992
  0
SEQEND
  0
POLYLINE
  8
0
 62
7
  6
CONTINUOUS
 66
1
 70
0
  0
VERTEX
  8
0
 62
7
  6
CONTINUOUS
 10
89.270291641
 20
198.9134528532
  0
VERTEX
  8
0
 62
7
  6
CONTINUOUS
 10
89.6502043319
 20
199.1602894194
  0
VERTEX
  8
0
 62
7
  6
CONTINUOUS
 10
89.9737071627
 20
199.5154473139
  0
VERTEX
  8
0
 62
7
  6
CONTINUOUS
 10
90.2521809363
 20
199.97165636
  0
VERTEX
  8
0
 62
7
  6
CONTINUOUS
 10
90.5141641669
 20
200.5681817125
  0
VERTEX
  8
0
 62
7
  6
CONTINUOUS
 10
90.7747106269
 20
201.3625498968
  0
VERTEX
  8
0
 62
7
  6
CONTINUOUS
 10
91.0326921363
 20
202.39803551
  0
SEQEND
  0
LINE
  8
0
 62
7
  6
CONTINUOUS
 10
76.5703006346
 20
198.9134569732
 11
76.5702245304
 21
198.913422113
  0
POLYLINE
  8
0
 62
7
  6
CONTINUOUS
 66
1
 70
0
  0
VERTEX
  8
0
 62
7
  6
CONTINUOUS
 10
196.7876701827
 20
198.9134220612
  0
VERTEX
  8
0
 62
7
  6
CONTINUOUS
 10
196.8422956909
 20
198.8894838625
  0
VERTEX
  8
0
 62
7
  6
CONTINUOUS
 10
196.986523279
 20
198.8375115241
  0
VERTEX
  8
0
 62
7
  6
CONTINUOUS
 10
197.0688502471
 20
198.8157011192
  0
SEQEND
  0
LINE
  8
0
 62
7
  6
CONTINUOUS
 10
196.7875941022
 20
198.9134569732
 11
196.7876702065
 21
198.913422113
  0
POLYLINE
  8
0
 62
7
  6
CONTINUOUS
 66
1
 70
0
  0
VERTEX
  8
0
 62
7
  6
CONTINUOUS
 10
156.7549604315
 20
202.7861842126
  0
VERTEX
  8
0
 62
7
  6
CONTINUOUS
 10
156.7602628238
 20
202.7782194126
  0
VERTEX
  8
0
 62
7
  6
CONTINUOUS
 10
156.8137793352
 20
202.6856487804
  0
VERTEX
  8
0
 62
7
  6
CONTINUOUS
 10
156.8594622069
 20
202.5922778564
  0
VERTEX
  8
0
 62
7
  6
CONTINUOUS
 10
156.8949657873
 20
202.5031389166
  0
VERTEX
  8
0
 62
7
  6
CONTINUOUS
 10
156.9192264857
 20
202.4233350033
  0
VERTEX
  8
0
 62
7
  6
CONTINUOUS
 10
156.9252014717
 20
202.3980415675
  0
SEQEND
  0
POLYLINE
  8
0
 62
7
  6
CONTINUOUS
 66
1
 70
0
  0
VERTEX
  8
0
 62
7
  6
CONTINUOUS
 10
144.2252026889
 20
202.3980351048
  0
VERTEX
  8
0
 62
7
  6
CONTINUOUS
 10
144.483644354
 20
201.3609425126
  0
VERTEX
  8
0
 62
7
  6
CONTINUOUS
 10
144.7442767124
 20
200.5667422794
  0
VERTEX
  8
0
 62
7
  6
CONTINUOUS
 10
145.0063647596
 20
199.9703925392
  0
VERTEX
  8
0
 62
7
  6
CONTINUOUS
 10
145.2849869715
 20
199.5143606265
  0
VERTEX
  8
0
 62
7
  6
CONTINUOUS
 10
145.6087274096
 20
199.1593934261
  0
VERTEX
  8
0
 62
7
  6
CONTINUOUS
 10
145.9875941022
 20
198.9134569732
  0
SEQEND
  0
LINE
  8
0
 62
7
  6
CONTINUOUS
 10
145.2537722679
 20
252.8734455686
 11
145.7403588963
 21
224.9969162981
  0
POLYLINE
  8
0
 62
7
  6
CONTINUOUS
 66
1
 70
0
  0
VERTEX
  8
0
 62
7
  6
CONTINUOUS
 10
189.9146059668
 20
257.431531111
  0
VERTEX
  8
0
 62
7
  6
CONTINUOUS
 10
189.9086273248
 20
257.4275343825
  0
VERTEX
  8
0
 62
7
  6
CONTINUOUS
 10
189.8404241618
 20
257.3848032616
  0
VERTEX
  8
0
 62
7
  6
CONTINUOUS
 10
189.7495150698
 20
257.3311440365
  0
VERTEX
  8
0
 62
7
  6
CONTINUOUS
 10
189.6349758521
 20
257.2673980376
  0
VERTEX
  8
0
 62
7
  6
CONTINUOUS
 10
189.4959628456
 20
257.1946639698
  0
VERTEX
  8
0
 62
7
  6
CONTINUOUS
 10
189.3318833227
 20
257.114484413
  0
VERTEX
  8
0
 62
7
  6
CONTINUOUS
 10
189.1420073285
 20
257.0287517852
  0
VERTEX
  8
0
 62
7
  6
CONTINUOUS
 10
188.9228625972
 20
256.9388495942
  0
VERTEX
  8
0
 62
7
  6
CONTINUOUS
 10
188.667763717
 20
256.8463259364
  0
VERTEX
  8
0
 62
7
  6
CONTINUOUS
 10
188.3658114535
 20
256.7539753544
  0
VERTEX
  8
0
 62
7
  6
CONTINUOUS
 10
187.9962361578
 20
256.6672102111
  0
VERTEX
  8
0
 62
7
  6
CONTINUOUS
 10
187.5702731149
 20
256.6047703415
  0
VERTEX
  8
0
 62
7
  6
CONTINUOUS
 10
187.1521246582
 20
256.5842228992
  0
SEQEND
  0
POLYLINE
  8
0
 62
7
  6
CONTINUOUS
 66
1
 70
0
  0
VERTEX
  8
0
 62
7
  6
CONTINUOUS
 10
101.9703006346
 20
198.9134569732
  0
VERTEX
  8
0
 62
7
  6
CONTINUOUS
 10
102.3491673273
 20
199.1593934261
  0
VERTEX
  8
0
 62
7
  6
CONTINUOUS
 10
102.6729077654
 20
199.5143606265
  0
VERTEX
  8
0
 62
7
  6
CONTINUOUS
 10
102.9515299772
 20
199.9703925392
  0
VERTEX
  8
0
 62
7
  6
CONTINUOUS
 10
103.2136180245
 20
200.5667422794
  0
VERTEX
  8
0
 62
7
  6
CONTINUOUS
 10
103.4742503829
 20
201.3609425126
  0
VERTEX
  8
0
 62
7
  6
CONTINUOUS
 10
103.732692048
 20
202.3980351048
  0
SEQEND
  0
LINE
  8
0
 62
7
  6
CONTINUOUS
 10
89.2702916647
 20
198.9134528014
 11
89.2702278281
 21
198.9134235607
  0
POLYLINE
  8
0
 62
7
  6
CONTINUOUS
 66
1
 70
0
  0
VERTEX
  8
0
 62
7
  6
CONTINUOUS
 10
209.5643136236
 20
198.9148446561
  0
VERTEX
  8
0
 62
7
  6
CONTINUOUS
 10
209.6179678307
 20
198.8911735506
  0
VERTEX
  8
0
 62
7
  6
CONTINUOUS
 10
209.761960373
 20
198.8387627678
  0
VERTEX
  8
0
 62
7
  6
CONTINUOUS
 10
209.8442632484
 20
198.816646756
  0
VERTEX
  8
0
 62
7
  6
CONTINUOUS
 10
210.0330938223
 20
198.7884920421
  0
VERTEX
  8
0
 62
7
  6
CONTINUOUS
 10
210.1040964814
 20
198.786184261
  0
SEQEND
  0
LINE
  8
0
 62
7
  6
CONTINUOUS
 10
209.5642548882
 20
198.9148717076
 11
209.5643136236
 21
198.9148446561
  0
LINE
  8
0
 62
7
  6
CONTINUOUS
 10
149.2157515872
 20
221.7643652396
 11
148.7357099687
 21
199.7643693276
  0
LINE
  8
0
 62
7
  6
CONTINUOUS
 10
150.4197648792
 20
201.9145471434
 11
150.372274419
 21
199.7641107692
  0
POLYLINE
  8
0
 62
7
  6
CONTINUOUS
 66
1
 70
0
  0
VERTEX
  8
0
 62
7
  6
CONTINUOUS
 10
150.4197648004
 20
201.9145471458
  0
VERTEX
  8
0
 62
7
  6
CONTINUOUS
 10
150.4291357428
 20
202.1692011137
  0
VERTEX
  8
0
 62
7
  6
CONTINUOUS
 10
150.4474848546
 20
202.440621375
  0
VERTEX
  8
0
 62
7
  6
CONTINUOUS
 10
150.4708929783
 20
202.6731306775
  0
VERTEX
  8
0
 62
7
  6
CONTINUOUS
 10
150.4962550892
 20
202.8598790569
  0
VERTEX
  8
0
 62
7
  6
CONTINUOUS
 10
150.5212582985
 20
203.0024358606
  0
VERTEX
  8
0
 62
7
  6
CONTINUOUS
 10
150.5436348737
 20
203.1028299673
  0
VERTEX
  8
0
 62
7
  6
CONTINUOUS
 10
150.5598001224
 20
203.1600072158
  0
VERTEX
  8
0
 62
7
  6
CONTINUOUS
 10
150.562232836
 20
203.1672521547
  0
SEQEND
  0
POLYLINE
  8
0
 62
7
  6
CONTINUOUS
 66
1
 70
0
  0
VERTEX
  8
0
 62
7
  6
CONTINUOUS
 10
141.8326933662
 20
202.398042031
  0
VERTEX
  8
0
 62
7
  6
CONTINUOUS
 10
141.8500432998
 20
202.4639226123
  0
VERTEX
  8
0
 62
7
  6
CONTINUOUS
 10
141.8812397994
 20
202.5516819138
  0
VERTEX
  8
0
 62
7
  6
CONTINUOUS
 10
141.9238567211
 20
202.6463341068
  0
VERTEX
  8
0
 62
7
  6
CONTINUOUS
 10
141.9759063934
 20
202.7423211171
  0
VERTEX
  8
0
 62
7
  6
CONTINUOUS
 10
142.0342090814
 20
202.834479303
  0
VERTEX
  8
0
 62
7
  6
CONTINUOUS
 10
142.0952518794
 20
202.9189995352
  0
VERTEX
  8
0
 62
7
  6
CONTINUOUS
 10
142.1580301255
 20
202.9961990026
  0
VERTEX
  8
0
 62
7
  6
CONTINUOUS
 10
142.2235106881
 20
203.0681168985
  0
VERTEX
  8
0
 62
7
  6
CONTINUOUS
 10
142.292482824
 20
203.1356631804
  0
VERTEX
  8
0
 62
7
  6
CONTINUOUS
 10
142.3641740103
 20
203.1978290372
  0
VERTEX
  8
0
 62
7
  6
CONTINUOUS
 10
142.4372525195
 20
203.253296138
  0
VERTEX
  8
0
 62
7
  6
CONTINUOUS
 10
142.5105311396
 20
203.3011362407
  0
VERTEX
  8
0
 62
7
  6
CONTINUOUS
 10
142.58331102
 20
203.3408934897
  0
VERTEX
  8
0
 62
7
  6
CONTINUOUS
 10
142.6555522949
 20
203.3723911294
  0
VERTEX
  8
0
 62
7
  6
CONTINUOUS
 10
142.7276287978
 20
203.3952950844
  0
VERTEX
  8
0
 62
7
  6
CONTINUOUS
 10
142.7999768759
 20
203.4088102922
  0
VERTEX
  8
0
 62
7
  6
CONTINUOUS
 10
142.8562254565
 20
203.4121090627
  0
SEQEND
  0
POLYLINE
  8
0
 62
7
  6
CONTINUOUS
 66
1
 70
0
  0
VERTEX
  8
0
 62
7
  6
CONTINUOUS
 10
114.670291641
 20
198.9134528532
  0
VERTEX
  8
0
 62
7
  6
CONTINUOUS
 10
115.0502043319
 20
199.1602894194
  0
VERTEX
  8
0
 62
7
  6
CONTINUOUS
 10
115.3737071627
 20
199.5154473139
  0
VERTEX
  8
0
 62
7
  6
CONTINUOUS
 10
115.6521809363
 20
199.97165636
  0
VERTEX
  8
0
 62
7
  6
CONTINUOUS
 10
115.9141641669
 20
200.5681817125
  0
VERTEX
  8
0
 62
7
  6
CONTINUOUS
 10
116.1747106269
 20
201.3625498968
  0
VERTEX
  8
0
 62
7
  6
CONTINUOUS
 10
116.4326921363
 20
202.39803551
  0
SEQEND
  0
LINE
  8
0
 62
7
  6
CONTINUOUS
 10
101.9703006346
 20
198.9134569732
 11
101.9702245304
 21
198.913422113
  0
POLYLINE
  8
0
 62
7
  6
CONTINUOUS
 66
1
 70
0
  0
VERTEX
  8
0
 62
7
  6
CONTINUOUS
 10
160.8957214324
 20
203.1680405231
  0
VERTEX
  8
0
 62
7
  6
CONTINUOUS
 10
160.8941496666
 20
203.1714752837
  0
VERTEX
  8
0
 62
7
  6
CONTINUOUS
 10
160.8981977878
 20
203.1596899349
  0
VERTEX
  8
0
 62
7
  6
CONTINUOUS
 10
160.9144504285
 20
203.1020761224
  0
VERTEX
  8
0
 62
7
  6
CONTINUOUS
 10
160.9368749701
 20
203.0012346623
  0
VERTEX
  8
0
 62
7
  6
CONTINUOUS
 10
160.9619006383
 20
202.8581984025
  0
VERTEX
  8
0
 62
7
  6
CONTINUOUS
 10
160.9872633188
 20
202.6709176033
  0
VERTEX
  8
0
 62
7
  6
CONTINUOUS
 10
161.0106472042
 20
202.437803224
  0
VERTEX
  8
0
 62
7
  6
CONTINUOUS
 10
161.0289331915
 20
202.1658033449
  0
VERTEX
  8
0
 62
7
  6
CONTINUOUS
 10
161.0381299365
 20
201.9145471459
  0
SEQEND
  0
POLYLINE
  8
0
 62
7
  6
CONTINUOUS
 66
1
 70
0
  0
VERTEX
  8
0
 62
7
  6
CONTINUOUS
 10
156.9252026005
 20
202.39803551
  0
VERTEX
  8
0
 62
7
  6
CONTINUOUS
 10
157.18318411
 20
201.3625498968
  0
VERTEX
  8
0
 62
7
  6
CONTINUOUS
 10
157.4437305699
 20
200.5681817125
  0
VERTEX
  8
0
 62
7
  6
CONTINUOUS
 10
157.7057138006
 20
199.97165636
  0
VERTEX
  8
0
 62
7
  6
CONTINUOUS
 10
157.9841875741
 20
199.5154473139
  0
VERTEX
  8
0
 62
7
  6
CONTINUOUS
 10
158.3076904049
 20
199.1602894194
  0
VERTEX
  8
0
 62
7
  6
CONTINUOUS
 10
158.6876030958
 20
198.9134528532
  0
SEQEND
  0
LINE
  8
0
 62
7
  6
CONTINUOUS
 10
153.2516462041
 20
202.7861842126
 11
153.1857099687
 21
199.7643693276
  0
LINE
  8
0
 62
7
  6
CONTINUOUS
 10
114.6702916647
 20
198.9134528014
 11
114.6702278281
 21
198.9134235607
  0
POLYLINE
  8
0
 62
7
  6
CONTINUOUS
 66
1
 70
0
  0
VERTEX
  8
0
 62
7
  6
CONTINUOUS
 10
161.0856209565
 20
199.764110783
  0
VERTEX
  8
0
 62
7
  6
CONTINUOUS
 10
161.1124644027
 20
199.5550365141
  0
VERTEX
  8
0
 62
7
  6
CONTINUOUS
 10
161.2002045535
 20
199.3209728896
  0
VERTEX
  8
0
 62
7
  6
CONTINUOUS
 10
161.3434166286
 20
199.1158087353
  0
VERTEX
  8
0
 62
7
  6
CONTINUOUS
 10
161.4331510942
 20
199.0282312719
  0
VERTEX
  8
0
 62
7
  6
CONTINUOUS
 10
161.641810757
 20
198.8900088753
  0
VERTEX
  8
0
 62
7
  6
CONTINUOUS
 10
161.8781456078
 20
198.8079328203
  0
VERTEX
  8
0
 62
7
  6
CONTINUOUS
 10
162.0856186144
 20
198.7861849602
  0
SEQEND
  0
LINE
  8
0
 62
7
  6
CONTINUOUS
 10
161.0856203178
 20
199.7641107689
 11
161.0381298577
 21
201.9145471435
  0
LINE
  8
0
 62
7
  6
CONTINUOUS
 10
158.2721847681
 20
199.7643693276
 11
158.2062485328
 21
202.7861842126
  0
LINE
  8
0
 62
7
  6
CONTINUOUS
 10
162.7221847681
 20
199.7643693276
 11
162.2421430604
 21
221.7643693276
  0
POLYLINE
  8
0
 62
7
  6
CONTINUOUS
 66
1
 70
0
  0
VERTEX
  8
0
 62
7
  6
CONTINUOUS
 10
154.5326934259
 20
202.3980422661
  0
VERTEX
  8
0
 62
7
  6
CONTINUOUS
 10
154.5497480683
 20
202.4629547746
  0
VERTEX
  8
0
 62
7
  6
CONTINUOUS
 10
154.5808142458
 20
202.5506241131
  0
VERTEX
  8
0
 62
7
  6
CONTINUOUS
 10
154.6233031787
 20
202.6452180205
  0
VERTEX
  8
0
 62
7
  6
CONTINUOUS
 10
154.6752429865
 20
202.7411917554
  0
VERTEX
  8
0
 62
7
  6
CONTINUOUS
 10
154.7036582453
 20
202.7861842126
  0
SEQEND
  0
POLYLINE
  8
0
 62
7
  6
CONTINUOUS
 66
1
 70
0
  0
VERTEX
  8
0
 62
7
  6
CONTINUOUS
 10
127.3703006346
 20
198.9134569732
  0
VERTEX
  8
0
 62
7
  6
CONTINUOUS
 10
127.7491673273
 20
199.1593934261
  0
VERTEX
  8
0
 62
7
  6
CONTINUOUS
 10
128.0729077654
 20
199.5143606265
  0
VERTEX
  8
0
 62
7
  6
CONTINUOUS
 10
128.3515299772
 20
199.9703925392
  0
VERTEX
  8
0
 62
7
  6
CONTINUOUS
 10
128.6136180245
 20
200.5667422794
  0
VERTEX
  8
0
 62
7
  6
CONTINUOUS
 10
128.8742503829
 20
201.3609425126
  0
VERTEX
  8
0
 62
7
  6
CONTINUOUS
 10
129.132692048
 20
202.3980351048
  0
SEQEND
  0
LINE
  8
0
 62
7
  6
CONTINUOUS
 10
127.3703006346
 20
198.9134569732
 11
127.3702245304
 21
198.913422113
  0
POLYLINE
  8
0
 62
7
  6
CONTINUOUS
 66
1
 70
0
  0
VERTEX
  8
0
 62
7
  6
CONTINUOUS
 10
182.1549604315
 20
202.7861842126
  0
VERTEX
  8
0
 62
7
  6
CONTINUOUS
 10
182.1602628238
 20
202.7782194126
  0
VERTEX
  8
0
 62
7
  6
CONTINUOUS
 10
182.2137793352
 20
202.6856487804
  0
VERTEX
  8
0
 62
7
  6
CONTINUOUS
 10
182.2594622069
 20
202.5922778564
  0
VERTEX
  8
0
 62
7
  6
CONTINUOUS
 10
182.2949657873
 20
202.5031389166
  0
VERTEX
  8
0
 62
7
  6
CONTINUOUS
 10
182.3192264857
 20
202.4233350033
  0
VERTEX
  8
0
 62
7
  6
CONTINUOUS
 10
182.3252014717
 20
202.3980415675
  0
SEQEND
  0
POLYLINE
  8
0
 62
7
  6
CONTINUOUS
 66
1
 70
0
  0
VERTEX
  8
0
 62
7
  6
CONTINUOUS
 10
169.6252026889
 20
202.3980351048
  0
VERTEX
  8
0
 62
7
  6
CONTINUOUS
 10
169.883644354
 20
201.3609425126
  0
VERTEX
  8
0
 62
7
  6
CONTINUOUS
 10
170.1442767124
 20
200.5667422794
  0
VERTEX
  8
0
 62
7
  6
CONTINUOUS
 10
170.4063647596
 20
199.9703925392
  0
VERTEX
  8
0
 62
7
  6
CONTINUOUS
 10
170.6849869715
 20
199.5143606265
  0
VERTEX
  8
0
 62
7
  6
CONTINUOUS
 10
171.0087274095
 20
199.1593934261
  0
VERTEX
  8
0
 62
7
  6
CONTINUOUS
 10
171.3875941022
 20
198.9134569732
  0
SEQEND
  0
LINE
  8
0
 62
7
  6
CONTINUOUS
 10
165.7175358405
 20
224.9969162981
 11
166.2041224647
 21
252.8734453295
  0
POLYLINE
  8
0
 62
7
  6
CONTINUOUS
 66
1
 70
0
  0
VERTEX
  8
0
 62
7
  6
CONTINUOUS
 10
140.070291641
 20
198.9134528532
  0
VERTEX
  8
0
 62
7
  6
CONTINUOUS
 10
140.4502043319
 20
199.1602894194
  0
VERTEX
  8
0
 62
7
  6
CONTINUOUS
 10
140.7737071627
 20
199.5154473139
  0
VERTEX
  8
0
 62
7
  6
CONTINUOUS
 10
141.0521809363
 20
199.97165636
  0
VERTEX
  8
0
 62
7
  6
CONTINUOUS
 10
141.3141641669
 20
200.5681817125
  0
VERTEX
  8
0
 62
7
  6
CONTINUOUS
 10
141.5747106269
 20
201.3625498968
  0
VERTEX
  8
0
 62
7
  6
CONTINUOUS
 10
141.8326921363
 20
202.39803551
  0
SEQEND
  0
LINE
  8
0
 62
7
  6
CONTINUOUS
 10
140.0702916647
 20
198.9134528014
 11
140.0702278281
 21
198.9134235607
  0
LINE
  8
0
 62
7
  6
CONTINUOUS
 10
187.1521246582
 20
256.5842228992
 11
185.6807700542
 21
256.5842228992
  0
LINE
  8
0
 62
7
  6
CONTINUOUS
 10
176.5771246582
 20
256.5842228992
 11
175.1057700542
 21
256.5842228992
  0
LINE
  8
0
 62
7
  6
CONTINUOUS
 10
136.3521246582
 20
256.5842228992
 11
134.8807700542
 21
256.5842228992
  0
LINE
  8
0
 62
7
  6
CONTINUOUS
 10
125.7771246582
 20
256.5842228992
 11
124.3057700542
 21
256.5842228992
  0
LINE
  8
0
 62
7
  6
CONTINUOUS
 10
85.5521246582
 20
256.5842228992
 11
84.0807700542
 21
256.5842228992
  0
LINE
  8
0
 62
7
  6
CONTINUOUS
 10
74.9771246582
 20
256.5842228992
 11
73.5057700542
 21
256.5842228992
  0
POLYLINE
  8
0
 62
7
  6
CONTINUOUS
 66
1
 70
0
  0
VERTEX
  8
0
 62
7
  6
CONTINUOUS
 10
73.5057700541
 20
256.5842228984
  0
VERTEX
  8
0
 62
7
  6
CONTINUOUS
 10
73.1041177167
 20
256.6031860544
  0
VERTEX
  8
0
 62
7
  6
CONTINUOUS
 10
72.660942036
 20
256.6673496827
  0
VERTEX
  8
0
 62
7
  6
CONTINUOUS
 10
72.2707987465
 20
256.7598633515
  0
VERTEX
  8
0
 62
7
  6
CONTINUOUS
 10
71.9572428695
 20
256.8575167632
  0
VERTEX
  8
0
 62
7
  6
CONTINUOUS
 10
71.6939254065
 20
256.9549812078
  0
VERTEX
  8
0
 62
7
  6
CONTINUOUS
 10
71.4689831621
 20
257.0492461652
  0
VERTEX
  8
0
 62
7
  6
CONTINUOUS
 10
71.2753418497
 20
257.138624331
  0
VERTEX
  8
0
 62
7
  6
CONTINUOUS
 10
71.1103382026
 20
257.2211155804
  0
VERTEX
  8
0
 62
7
  6
CONTINUOUS
 10
70.9734080121
 20
257.2944889331
  0
VERTEX
  8
0
 62
7
  6
CONTINUOUS
 10
70.8638455863
 20
257.3570383791
  0
VERTEX
  8
0
 62
7
  6
CONTINUOUS
 10
70.8190019042
 20
257.3838719698
  0
VERTEX
  8
0
 62
7
  6
CONTINUOUS
 10
70.7485525854
 20
257.4279974511
  0
VERTEX
  8
0
 62
7
  6
CONTINUOUS
 10
70.7433037936
 20
257.4315105147
  0
SEQEND
  0
POLYLINE
  8
0
 62
7
  6
CONTINUOUS
 66
1
 70
0
  0
VERTEX
  8
0
 62
7
  6
CONTINUOUS
 10
84.0807700541
 20
256.5842228984
  0
VERTEX
  8
0
 62
7
  6
CONTINUOUS
 10
83.6791177167
 20
256.6031860544
  0
VERTEX
  8
0
 62
7
  6
CONTINUOUS
 10
83.2359420361
 20
256.6673496827
  0
VERTEX
  8
0
 62
7
  6
CONTINUOUS
 10
82.8457987465
 20
256.7598633515
  0
VERTEX
  8
0
 62
7
  6
CONTINUOUS
 10
82.5322428695
 20
256.8575167632
  0
VERTEX
  8
0
 62
7
  6
CONTINUOUS
 10
82.2689254065
 20
256.9549812078
  0
VERTEX
  8
0
 62
7
  6
CONTINUOUS
 10
82.0439831621
 20
257.0492461652
  0
VERTEX
  8
0
 62
7
  6
CONTINUOUS
 10
81.8503418497
 20
257.138624331
  0
VERTEX
  8
0
 62
7
  6
CONTINUOUS
 10
81.6853382026
 20
257.2211155804
  0
VERTEX
  8
0
 62
7
  6
CONTINUOUS
 10
81.5484080121
 20
257.2944889331
  0
VERTEX
  8
0
 62
7
  6
CONTINUOUS
 10
81.4388455862
 20
257.3570383791
  0
VERTEX
  8
0
 62
7
  6
CONTINUOUS
 10
81.3940019042
 20
257.3838719698
  0
VERTEX
  8
0
 62
7
  6
CONTINUOUS
 10
81.3235525854
 20
257.4279974511
  0
VERTEX
  8
0
 62
7
  6
CONTINUOUS
 10
81.3179160886
 20
257.4317700091
  0
SEQEND
  0
POLYLINE
  8
0
 62
7
  6
CONTINUOUS
 66
1
 70
0
  0
VERTEX
  8
0
 62
7
  6
CONTINUOUS
 10
124.3057700541
 20
256.5842228984
  0
VERTEX
  8
0
 62
7
  6
CONTINUOUS
 10
123.9041177167
 20
256.6031860544
  0
VERTEX
  8
0
 62
7
  6
CONTINUOUS
 10
123.460942036
 20
256.6673496827
  0
VERTEX
  8
0
 62
7
  6
CONTINUOUS
 10
123.0707987465
 20
256.7598633515
  0
VERTEX
  8
0
 62
7
  6
CONTINUOUS
 10
122.7572428695
 20
256.8575167632
  0
VERTEX
  8
0
 62
7
  6
CONTINUOUS
 10
122.4939254065
 20
256.9549812078
  0
VERTEX
  8
0
 62
7
  6
CONTINUOUS
 10
122.2689831621
 20
257.0492461652
  0
VERTEX
  8
0
 62
7
  6
CONTINUOUS
 10
122.0753418497
 20
257.138624331
  0
VERTEX
  8
0
 62
7
  6
CONTINUOUS
 10
121.9103382026
 20
257.2211155804
  0
VERTEX
  8
0
 62
7
  6
CONTINUOUS
 10
121.7734080121
 20
257.2944889331
  0
VERTEX
  8
0
 62
7
  6
CONTINUOUS
 10
121.6638455862
 20
257.3570383791
  0
VERTEX
  8
0
 62
7
  6
CONTINUOUS
 10
121.6190019042
 20
257.3838719698
  0
VERTEX
  8
0
 62
7
  6
CONTINUOUS
 10
121.5485525854
 20
257.4279974511
  0
VERTEX
  8
0
 62
7
  6
CONTINUOUS
 10
121.5433037936
 20
257.4315105147
  0
SEQEND
  0
POLYLINE
  8
0
 62
7
  6
CONTINUOUS
 66
1
 70
0
  0
VERTEX
  8
0
 62
7
  6
CONTINUOUS
 10
134.8807700541
 20
256.5842228984
  0
VERTEX
  8
0
 62
7
  6
CONTINUOUS
 10
134.4791177167
 20
256.6031860544
  0
VERTEX
  8
0
 62
7
  6
CONTINUOUS
 10
134.035942036
 20
256.6673496827
  0
VERTEX
  8
0
 62
7
  6
CONTINUOUS
 10
133.6457987465
 20
256.7598633515
  0
VERTEX
  8
0
 62
7
  6
CONTINUOUS
 10
133.3322428695
 20
256.8575167632
  0
VERTEX
  8
0
 62
7
  6
CONTINUOUS
 10
133.0689254065
 20
256.9549812078
  0
VERTEX
  8
0
 62
7
  6
CONTINUOUS
 10
132.8439831621
 20
257.0492461652
  0
VERTEX
  8
0
 62
7
  6
CONTINUOUS
 10
132.6503418497
 20
257.138624331
  0
VERTEX
  8
0
 62
7
  6
CONTINUOUS
 10
132.4853382026
 20
257.2211155804
  0
VERTEX
  8
0
 62
7
  6
CONTINUOUS
 10
132.3484080121
 20
257.2944889331
  0
VERTEX
  8
0
 62
7
  6
CONTINUOUS
 10
132.2388455862
 20
257.3570383791
  0
VERTEX
  8
0
 62
7
  6
CONTINUOUS
 10
132.1940019042
 20
257.3838719698
  0
VERTEX
  8
0
 62
7
  6
CONTINUOUS
 10
132.1235525854
 20
257.4279974511
  0
VERTEX
  8
0
 62
7
  6
CONTINUOUS
 10
132.1179160886
 20
257.4317700091
  0
SEQEND
  0
LINE
  8
0
 62
7
  6
CONTINUOUS
 10
172.5851705297
 20
256.8036365204
 11
173.1721182856
 21
223.1774221061
  0
POLYLINE
  8
0
 62
7
  6
CONTINUOUS
 66
1
 70
0
  0
VERTEX
  8
0
 62
7
  6
CONTINUOUS
 10
167.2326933662
 20
202.398042031
  0
VERTEX
  8
0
 62
7
  6
CONTINUOUS
 10
167.2500432998
 20
202.4639226123
  0
VERTEX
  8
0
 62
7
  6
CONTINUOUS
 10
167.2812397994
 20
202.5516819138
  0
VERTEX
  8
0
 62
7
  6
CONTINUOUS
 10
167.3238567211
 20
202.6463341068
  0
VERTEX
  8
0
 62
7
  6
CONTINUOUS
 10
167.3759063934
 20
202.7423211171
  0
VERTEX
  8
0
 62
7
  6
CONTINUOUS
 10
167.4342090814
 20
202.834479303
  0
VERTEX
  8
0
 62
7
  6
CONTINUOUS
 10
167.4952518794
 20
202.9189995352
  0
VERTEX
  8
0
 62
7
  6
CONTINUOUS
 10
167.5580301255
 20
202.9961990026
  0
VERTEX
  8
0
 62
7
  6
CONTINUOUS
 10
167.6235106881
 20
203.0681168985
  0
VERTEX
  8
0
 62
7
  6
CONTINUOUS
 10
167.692482824
 20
203.1356631804
  0
VERTEX
  8
0
 62
7
  6
CONTINUOUS
 10
167.7641740103
 20
203.1978290372
  0
VERTEX
  8
0
 62
7
  6
CONTINUOUS
 10
167.8372525195
 20
203.253296138
  0
VERTEX
  8
0
 62
7
  6
CONTINUOUS
 10
167.9105311396
 20
203.3011362407
  0
VERTEX
  8
0
 62
7
  6
CONTINUOUS
 10
167.98331102
 20
203.3408934897
  0
VERTEX
  8
0
 62
7
  6
CONTINUOUS
 10
168.0555522949
 20
203.3723911294
  0
VERTEX
  8
0
 62
7
  6
CONTINUOUS
 10
168.1276287978
 20
203.3952950844
  0
VERTEX
  8
0
 62
7
  6
CONTINUOUS
 10
168.1999768759
 20
203.4088102922
  0
VERTEX
  8
0
 62
7
  6
CONTINUOUS
 10
168.2562254565
 20
203.4121090627
  0
SEQEND
  0
POLYLINE
  8
0
 62
7
  6
CONTINUOUS
 66
1
 70
0
  0
VERTEX
  8
0
 62
7
  6
CONTINUOUS
 10
152.7703006346
 20
198.9134569732
  0
VERTEX
  8
0
 62
7
  6
CONTINUOUS
 10
153.1491673273
 20
199.1593934261
  0
VERTEX
  8
0
 62
7
  6
CONTINUOUS
 10
153.4729077654
 20
199.5143606265
  0
VERTEX
  8
0
 62
7
  6
CONTINUOUS
 10
153.7515299772
 20
199.9703925392
  0
VERTEX
  8
0
 62
7
  6
CONTINUOUS
 10
154.0136180245
 20
200.5667422794
  0
VERTEX
  8
0
 62
7
  6
CONTINUOUS
 10
154.2742503829
 20
201.3609425126
  0
VERTEX
  8
0
 62
7
  6
CONTINUOUS
 10
154.532692048
 20
202.3980351048
  0
SEQEND
  0
LINE
  8
0
 62
7
  6
CONTINUOUS
 10
152.7703006346
 20
198.9134569732
 11
152.7702245304
 21
198.913422113
  0
LINE
  8
0
 62
7
  6
CONTINUOUS
 10
69.6033373467
 20
257.7861842126
 11
69.985342861
 21
257.7861842126
  0
LINE
  8
0
 62
7
  6
CONTINUOUS
 10
78.497525476
 20
257.7861842126
 11
80.5603627329
 21
257.7861842126
  0
LINE
  8
0
 62
7
  6
CONTINUOUS
 10
89.0725458617
 20
257.7861842126
 11
89.4545540866
 21
257.7861842126
  0
LINE
  8
0
 62
7
  6
CONTINUOUS
 10
120.4033373467
 20
257.7861842126
 11
120.785342861
 21
257.7861842126
  0
LINE
  8
0
 62
7
  6
CONTINUOUS
 10
129.297525476
 20
257.7861842126
 11
131.3603627329
 21
257.7861842126
  0
LINE
  8
0
 62
7
  6
CONTINUOUS
 10
139.8725458617
 20
257.7861842126
 11
140.2545540866
 21
257.7861842126
  0
LINE
  8
0
 62
7
  6
CONTINUOUS
 10
171.2033373467
 20
257.7861842126
 11
171.585342861
 21
257.7861842126
  0
LINE
  8
0
 62
7
  6
CONTINUOUS
 10
180.097525476
 20
257.7861842126
 11
182.1603627329
 21
257.7861842126
  0
LINE
  8
0
 62
7
  6
CONTINUOUS
 10
190.6725458617
 20
257.7861842126
 11
191.0545540866
 21
257.7861842126
  0
POLYLINE
  8
0
 62
7
  6
CONTINUOUS
 66
1
 70
0
  0
VERTEX
  8
0
 62
7
  6
CONTINUOUS
 10
175.1057700541
 20
256.5842228984
  0
VERTEX
  8
0
 62
7
  6
CONTINUOUS
 10
174.7041177167
 20
256.6031860544
  0
VERTEX
  8
0
 62
7
  6
CONTINUOUS
 10
174.260942036
 20
256.6673496827
  0
VERTEX
  8
0
 62
7
  6
CONTINUOUS
 10
173.8707987465
 20
256.7598633515
  0
VERTEX
  8
0
 62
7
  6
CONTINUOUS
 10
173.5572428695
 20
256.8575167632
  0
VERTEX
  8
0
 62
7
  6
CONTINUOUS
 10
173.2939254065
 20
256.9549812078
  0
VERTEX
  8
0
 62
7
  6
CONTINUOUS
 10
173.0689831621
 20
257.0492461652
  0
VERTEX
  8
0
 62
7
  6
CONTINUOUS
 10
172.8753418497
 20
257.138624331
  0
VERTEX
  8
0
 62
7
  6
CONTINUOUS
 10
172.7103382026
 20
257.2211155804
  0
VERTEX
  8
0
 62
7
  6
CONTINUOUS
 10
172.5734080121
 20
257.2944889331
  0
VERTEX
  8
0
 62
7
  6
CONTINUOUS
 10
172.4638455862
 20
257.3570383791
  0
VERTEX
  8
0
 62
7
  6
CONTINUOUS
 10
172.4190019042
 20
257.3838719698
  0
VERTEX
  8
0
 62
7
  6
CONTINUOUS
 10
172.3485525854
 20
257.4279974511
  0
VERTEX
  8
0
 62
7
  6
CONTINUOUS
 10
172.3433037936
 20
257.4315105147
  0
SEQEND
  0
POLYLINE
  8
0
 62
7
  6
CONTINUOUS
 66
1
 70
0
  0
VERTEX
  8
0
 62
7
  6
CONTINUOUS
 10
185.6807700541
 20
256.5842228984
  0
VERTEX
  8
0
 62
7
  6
CONTINUOUS
 10
185.2791177167
 20
256.6031860544
  0
VERTEX
  8
0
 62
7
  6
CONTINUOUS
 10
184.8359420361
 20
256.6673496827
  0
VERTEX
  8
0
 62
7
  6
CONTINUOUS
 10
184.4457987465
 20
256.7598633515
  0
VERTEX
  8
0
 62
7
  6
CONTINUOUS
 10
184.1322428695
 20
256.8575167632
  0
VERTEX
  8
0
 62
7
  6
CONTINUOUS
 10
183.8689254065
 20
256.9549812078
  0
VERTEX
  8
0
 62
7
  6
CONTINUOUS
 10
183.6439831621
 20
257.0492461652
  0
VERTEX
  8
0
 62
7
  6
CONTINUOUS
 10
183.4503418497
 20
257.138624331
  0
VERTEX
  8
0
 62
7
  6
CONTINUOUS
 10
183.2853382026
 20
257.2211155804
  0
VERTEX
  8
0
 62
7
  6
CONTINUOUS
 10
183.1484080121
 20
257.2944889331
  0
VERTEX
  8
0
 62
7
  6
CONTINUOUS
 10
183.0388455862
 20
257.3570383791
  0
VERTEX
  8
0
 62
7
  6
CONTINUOUS
 10
182.9940019042
 20
257.3838719698
  0
VERTEX
  8
0
 62
7
  6
CONTINUOUS
 10
182.9235525854
 20
257.4279974511
  0
VERTEX
  8
0
 62
7
  6
CONTINUOUS
 10
182.9179160886
 20
257.4317700091
  0
SEQEND
  0
POLYLINE
  8
0
 62
7
  6
CONTINUOUS
 66
1
 70
0
  0
VERTEX
  8
0
 62
7
  6
CONTINUOUS
 10
186.2957214324
 20
203.1680405231
  0
VERTEX
  8
0
 62
7
  6
CONTINUOUS
 10
186.2941496666
 20
203.1714752837
  0
VERTEX
  8
0
 62
7
  6
CONTINUOUS
 10
186.2981977878
 20
203.1596899349
  0
VERTEX
  8
0
 62
7
  6
CONTINUOUS
 10
186.3144504285
 20
203.1020761224
  0
VERTEX
  8
0
 62
7
  6
CONTINUOUS
 10
186.3368749701
 20
203.0012346623
  0
VERTEX
  8
0
 62
7
  6
CONTINUOUS
 10
186.3619006383
 20
202.8581984025
  0
VERTEX
  8
0
 62
7
  6
CONTINUOUS
 10
186.3872633188
 20
202.6709176034
  0
VERTEX
  8
0
 62
7
  6
CONTINUOUS
 10
186.4106472041
 20
202.437803224
  0
VERTEX
  8
0
 62
7
  6
CONTINUOUS
 10
186.4289331915
 20
202.1658033449
  0
VERTEX
  8
0
 62
7
  6
CONTINUOUS
 10
186.4381299365
 20
201.9145471459
  0
SEQEND
  0
LINE
  8
0
 62
7
  6
CONTINUOUS
 10
178.5210978005
 20
223.7687318062
 11
179.097723597
 21
256.8036015661
  0
LINE
  8
0
 62
7
  6
CONTINUOUS
 10
174.6157515872
 20
221.7643652397
 11
174.1357099687
 21
199.7643693276
  0
LINE
  8
0
 62
7
  6
CONTINUOUS
 10
178.6516462041
 20
202.7861842126
 11
178.5857099687
 21
199.7643693276
  0
LINE
  8
0
 62
7
  6
CONTINUOUS
 10
175.8197648792
 20
201.9145471434
 11
175.772274419
 21
199.7641107692
  0
POLYLINE
  8
0
 62
7
  6
CONTINUOUS
 66
1
 70
0
  0
VERTEX
  8
0
 62
7
  6
CONTINUOUS
 10
175.8197648004
 20
201.9145471458
  0
VERTEX
  8
0
 62
7
  6
CONTINUOUS
 10
175.8291357428
 20
202.1692011137
  0
VERTEX
  8
0
 62
7
  6
CONTINUOUS
 10
175.8474848546
 20
202.440621375
  0
VERTEX
  8
0
 62
7
  6
CONTINUOUS
 10
175.8708929783
 20
202.6731306775
  0
VERTEX
  8
0
 62
7
  6
CONTINUOUS
 10
175.8962550892
 20
202.8598790569
  0
VERTEX
  8
0
 62
7
  6
CONTINUOUS
 10
175.9212582985
 20
203.0024358606
  0
VERTEX
  8
0
 62
7
  6
CONTINUOUS
 10
175.9436348737
 20
203.1028299673
  0
VERTEX
  8
0
 62
7
  6
CONTINUOUS
 10
175.9598001224
 20
203.1600072158
  0
VERTEX
  8
0
 62
7
  6
CONTINUOUS
 10
175.962232836
 20
203.1672521547
  0
SEQEND
  0
POLYLINE
  8
0
 62
7
  6
CONTINUOUS
 66
1
 70
0
  0
VERTEX
  8
0
 62
7
  6
CONTINUOUS
 10
165.470291641
 20
198.9134528532
  0
VERTEX
  8
0
 62
7
  6
CONTINUOUS
 10
165.8502043319
 20
199.1602894194
  0
VERTEX
  8
0
 62
7
  6
CONTINUOUS
 10
166.1737071627
 20
199.5154473139
  0
VERTEX
  8
0
 62
7
  6
CONTINUOUS
 10
166.4521809363
 20
199.97165636
  0
VERTEX
  8
0
 62
7
  6
CONTINUOUS
 10
166.7141641669
 20
200.5681817125
  0
VERTEX
  8
0
 62
7
  6
CONTINUOUS
 10
166.9747106269
 20
201.3625498968
  0
VERTEX
  8
0
 62
7
  6
CONTINUOUS
 10
167.2326921363
 20
202.39803551
  0
SEQEND
  0
LINE
  8
0
 62
7
  6
CONTINUOUS
 10
165.4702916647
 20
198.9134528014
 11
165.4702278281
 21
198.9134235607
  0
POLYLINE
  8
0
 62
7
  6
CONTINUOUS
 66
1
 70
0
  0
VERTEX
  8
0
 62
7
  6
CONTINUOUS
 10
182.3252026005
 20
202.39803551
  0
VERTEX
  8
0
 62
7
  6
CONTINUOUS
 10
182.58318411
 20
201.3625498968
  0
VERTEX
  8
0
 62
7
  6
CONTINUOUS
 10
182.8437305699
 20
200.5681817125
  0
VERTEX
  8
0
 62
7
  6
CONTINUOUS
 10
183.1057138006
 20
199.97165636
  0
VERTEX
  8
0
 62
7
  6
CONTINUOUS
 10
183.3841875741
 20
199.5154473139
  0
VERTEX
  8
0
 62
7
  6
CONTINUOUS
 10
183.7076904049
 20
199.1602894194
  0
VERTEX
  8
0
 62
7
  6
CONTINUOUS
 10
184.0876030958
 20
198.9134528532
  0
SEQEND
  0
LINE
  8
0
 62
7
  6
CONTINUOUS
 10
183.6721847681
 20
199.7643693276
 11
183.6062485328
 21
202.7861842126
  0
LINE
  8
0
 62
7
  6
CONTINUOUS
 10
183.1601705365
 20
256.8036361315
 11
183.7367969364
 21
223.7687318062
  0
POLYLINE
  8
0
 62
7
  6
CONTINUOUS
 66
1
 70
0
  0
VERTEX
  8
0
 62
7
  6
CONTINUOUS
 10
179.9326934259
 20
202.3980422661
  0
VERTEX
  8
0
 62
7
  6
CONTINUOUS
 10
179.9497480683
 20
202.4629547746
  0
VERTEX
  8
0
 62
7
  6
CONTINUOUS
 10
179.9808142458
 20
202.5506241131
  0
VERTEX
  8
0
 62
7
  6
CONTINUOUS
 10
180.0233031787
 20
202.6452180205
  0
VERTEX
  8
0
 62
7
  6
CONTINUOUS
 10
180.0752429865
 20
202.7411917554
  0
VERTEX
  8
0
 62
7
  6
CONTINUOUS
 10
180.1036582453
 20
202.7861842126
  0
SEQEND
  0
POLYLINE
  8
0
 62
7
  6
CONTINUOUS
 66
1
 70
0
  0
VERTEX
  8
0
 62
7
  6
CONTINUOUS
 10
178.1703006346
 20
198.9134569732
  0
VERTEX
  8
0
 62
7
  6
CONTINUOUS
 10
178.5491673273
 20
199.1593934261
  0
VERTEX
  8
0
 62
7
  6
CONTINUOUS
 10
178.8729077654
 20
199.5143606265
  0
VERTEX
  8
0
 62
7
  6
CONTINUOUS
 10
179.1515299772
 20
199.9703925392
  0
VERTEX
  8
0
 62
7
  6
CONTINUOUS
 10
179.4136180245
 20
200.5667422794
  0
VERTEX
  8
0
 62
7
  6
CONTINUOUS
 10
179.6742503829
 20
201.3609425126
  0
VERTEX
  8
0
 62
7
  6
CONTINUOUS
 10
179.932692048
 20
202.3980351048
  0
SEQEND
  0
LINE
  8
0
 62
7
  6
CONTINUOUS
 10
178.1703006346
 20
198.9134569732
 11
178.1702245304
 21
198.913422113
  0
POLYLINE
  8
0
 62
7
  6
CONTINUOUS
 66
1
 70
0
  0
VERTEX
  8
0
 62
7
  6
CONTINUOUS
 10
207.6191859299
 20
202.7861842126
  0
VERTEX
  8
0
 62
7
  6
CONTINUOUS
 10
207.6257976978
 20
202.7763293456
  0
VERTEX
  8
0
 62
7
  6
CONTINUOUS
 10
207.6800177363
 20
202.6833574671
  0
VERTEX
  8
0
 62
7
  6
CONTINUOUS
 10
207.726389435
 20
202.5895305301
  0
VERTEX
  8
0
 62
7
  6
CONTINUOUS
 10
207.762524712
 20
202.4998949138
  0
VERTEX
  8
0
 62
7
  6
CONTINUOUS
 10
207.7873125719
 20
202.4195933398
  0
VERTEX
  8
0
 62
7
  6
CONTINUOUS
 10
207.7934519642
 20
202.3940900892
  0
SEQEND
  0
POLYLINE
  8
0
 62
7
  6
CONTINUOUS
 66
1
 70
0
  0
VERTEX
  8
0
 62
7
  6
CONTINUOUS
 10
186.4856209565
 20
199.764110783
  0
VERTEX
  8
0
 62
7
  6
CONTINUOUS
 10
186.5124644027
 20
199.5550365141
  0
VERTEX
  8
0
 62
7
  6
CONTINUOUS
 10
186.6002045535
 20
199.3209728896
  0
VERTEX
  8
0
 62
7
  6
CONTINUOUS
 10
186.7434166286
 20
199.1158087353
  0
VERTEX
  8
0
 62
7
  6
CONTINUOUS
 10
186.8331510942
 20
199.0282312719
  0
VERTEX
  8
0
 62
7
  6
CONTINUOUS
 10
187.041810757
 20
198.8900088753
  0
VERTEX
  8
0
 62
7
  6
CONTINUOUS
 10
187.2781456078
 20
198.8079328203
  0
VERTEX
  8
0
 62
7
  6
CONTINUOUS
 10
187.4856186144
 20
198.7861849602
  0
SEQEND
  0
LINE
  8
0
 62
7
  6
CONTINUOUS
 10
186.4856203178
 20
199.7641107689
 11
186.4381298577
 21
201.9145471435
  0
LINE
  8
0
 62
7
  6
CONTINUOUS
 10
188.1221847681
 20
199.7643693276
 11
187.6421430604
 21
221.7643693276
  0
LINE
  8
0
 62
7
  6
CONTINUOUS
 10
189.0857764513
 20
223.1774221061
 11
189.6727239158
 21
256.803619832
  0
LINE
  8
0
 62
7
  6
CONTINUOUS
 10
190.8702916647
 20
198.9134528014
 11
190.8702278281
 21
198.9134235607
  0
POLYLINE
  8
0
 62
7
  6
CONTINUOUS
 66
1
 70
0
  0
VERTEX
  8
0
 62
7
  6
CONTINUOUS
 10
195.0252026889
 20
202.3980351048
  0
VERTEX
  8
0
 62
7
  6
CONTINUOUS
 10
195.283644354
 20
201.3609425126
  0
VERTEX
  8
0
 62
7
  6
CONTINUOUS
 10
195.5442767124
 20
200.5667422794
  0
VERTEX
  8
0
 62
7
  6
CONTINUOUS
 10
195.8063647596
 20
199.9703925392
  0
VERTEX
  8
0
 62
7
  6
CONTINUOUS
 10
196.0849869715
 20
199.5143606265
  0
VERTEX
  8
0
 62
7
  6
CONTINUOUS
 10
196.4087274095
 20
199.1593934261
  0
VERTEX
  8
0
 62
7
  6
CONTINUOUS
 10
196.7875941022
 20
198.9134569732
  0
SEQEND
  0
LINE
  8
0
 62
7
  6
CONTINUOUS
 10
196.0537722679
 20
252.8734455686
 11
196.5403588963
 21
224.9969162981
  0
POLYLINE
  8
0
 62
7
  6
CONTINUOUS
 66
1
 70
0
  0
VERTEX
  8
0
 62
7
  6
CONTINUOUS
 10
190.870291641
 20
198.9134528532
  0
VERTEX
  8
0
 62
7
  6
CONTINUOUS
 10
191.2502043319
 20
199.1602894194
  0
VERTEX
  8
0
 62
7
  6
CONTINUOUS
 10
191.5737071627
 20
199.5154473139
  0
VERTEX
  8
0
 62
7
  6
CONTINUOUS
 10
191.8521809363
 20
199.97165636
  0
VERTEX
  8
0
 62
7
  6
CONTINUOUS
 10
192.1141641669
 20
200.5681817125
  0
VERTEX
  8
0
 62
7
  6
CONTINUOUS
 10
192.3747106269
 20
201.3625498968
  0
VERTEX
  8
0
 62
7
  6
CONTINUOUS
 10
192.6326921363
 20
202.39803551
  0
SEQEND
  0
LINE
  8
0
 62
7
  6
CONTINUOUS
 10
203.5703006346
 20
198.9134569732
 11
203.5702245304
 21
198.913422113
  0
LINE
  8
0
 62
7
  6
CONTINUOUS
 10
200.0157516764
 20
221.7643693276
 11
199.5357099687
 21
199.7643693276
  0
LINE
  8
0
 62
7
  6
CONTINUOUS
 10
201.2197648792
 20
201.9145471434
 11
201.172274419
 21
199.7641107692
  0
POLYLINE
  8
0
 62
7
  6
CONTINUOUS
 66
1
 70
0
  0
VERTEX
  8
0
 62
7
  6
CONTINUOUS
 10
201.2197648004
 20
201.9145471458
  0
VERTEX
  8
0
 62
7
  6
CONTINUOUS
 10
201.2291357428
 20
202.1692011137
  0
VERTEX
  8
0
 62
7
  6
CONTINUOUS
 10
201.2474848546
 20
202.440621375
  0
VERTEX
  8
0
 62
7
  6
CONTINUOUS
 10
201.2708929783
 20
202.6731306775
  0
VERTEX
  8
0
 62
7
  6
CONTINUOUS
 10
201.2962550892
 20
202.8598790569
  0
VERTEX
  8
0
 62
7
  6
CONTINUOUS
 10
201.3212582985
 20
203.0024358606
  0
VERTEX
  8
0
 62
7
  6
CONTINUOUS
 10
201.3436348737
 20
203.1028299673
  0
VERTEX
  8
0
 62
7
  6
CONTINUOUS
 10
201.3598001224
 20
203.1600072158
  0
VERTEX
  8
0
 62
7
  6
CONTINUOUS
 10
201.362232836
 20
203.1672521547
  0
SEQEND
  0
POLYLINE
  8
0
 62
7
  6
CONTINUOUS
 66
1
 70
0
  0
VERTEX
  8
0
 62
7
  6
CONTINUOUS
 10
192.6326933662
 20
202.398042031
  0
VERTEX
  8
0
 62
7
  6
CONTINUOUS
 10
192.6500432998
 20
202.4639226123
  0
VERTEX
  8
0
 62
7
  6
CONTINUOUS
 10
192.6812397994
 20
202.5516819138
  0
VERTEX
  8
0
 62
7
  6
CONTINUOUS
 10
192.7238567211
 20
202.6463341068
  0
VERTEX
  8
0
 62
7
  6
CONTINUOUS
 10
192.7759063934
 20
202.7423211171
  0
VERTEX
  8
0
 62
7
  6
CONTINUOUS
 10
192.8342090814
 20
202.834479303
  0
VERTEX
  8
0
 62
7
  6
CONTINUOUS
 10
192.8952518794
 20
202.9189995352
  0
VERTEX
  8
0
 62
7
  6
CONTINUOUS
 10
192.9580301255
 20
202.9961990026
  0
VERTEX
  8
0
 62
7
  6
CONTINUOUS
 10
193.0235106881
 20
203.0681168985
  0
VERTEX
  8
0
 62
7
  6
CONTINUOUS
 10
193.092482824
 20
203.1356631804
  0
VERTEX
  8
0
 62
7
  6
CONTINUOUS
 10
193.1641740103
 20
203.1978290372
  0
VERTEX
  8
0
 62
7
  6
CONTINUOUS
 10
193.2372525195
 20
203.253296138
  0
VERTEX
  8
0
 62
7
  6
CONTINUOUS
 10
193.3105311396
 20
203.3011362407
  0
VERTEX
  8
0
 62
7
  6
CONTINUOUS
 10
193.38331102
 20
203.3408934897
  0
VERTEX
  8
0
 62
7
  6
CONTINUOUS
 10
193.4555522949
 20
203.3723911294
  0
VERTEX
  8
0
 62
7
  6
CONTINUOUS
 10
193.5276287978
 20
203.3952950844
  0
VERTEX
  8
0
 62
7
  6
CONTINUOUS
 10
193.5999768759
 20
203.4088102922
  0
VERTEX
  8
0
 62
7
  6
CONTINUOUS
 10
193.6562254565
 20
203.4121090627
  0
SEQEND
  0
POLYLINE
  8
0
 62
7
  6
CONTINUOUS
 66
1
 70
0
  0
VERTEX
  8
0
 62
7
  6
CONTINUOUS
 10
203.5703006346
 20
198.9134569732
  0
VERTEX
  8
0
 62
7
  6
CONTINUOUS
 10
203.9491673273
 20
199.1593934261
  0
VERTEX
  8
0
 62
7
  6
CONTINUOUS
 10
204.2729077654
 20
199.5143606265
  0
VERTEX
  8
0
 62
7
  6
CONTINUOUS
 10
204.5515299772
 20
199.9703925392
  0
VERTEX
  8
0
 62
7
  6
CONTINUOUS
 10
204.8136180245
 20
200.5667422794
  0
VERTEX
  8
0
 62
7
  6
CONTINUOUS
 10
205.0742503829
 20
201.3609425126
  0
VERTEX
  8
0
 62
7
  6
CONTINUOUS
 10
205.332692048
 20
202.3980351048
  0
SEQEND
  0
POLYLINE
  8
0
 62
7
  6
CONTINUOUS
 66
1
 70
0
  0
VERTEX
  8
0
 62
7
  6
CONTINUOUS
 10
207.7934532385
 20
202.3940836492
  0
VERTEX
  8
0
 62
7
  6
CONTINUOUS
 10
208.055520012
 20
201.360317289
  0
VERTEX
  8
0
 62
7
  6
CONTINUOUS
 10
208.3190151049
 20
200.5670686073
  0
VERTEX
  8
0
 62
7
  6
CONTINUOUS
 10
208.5829245626
 20
199.9713403928
  0
VERTEX
  8
0
 62
7
  6
CONTINUOUS
 10
208.8623630119
 20
199.5158531056
  0
VERTEX
  8
0
 62
7
  6
CONTINUOUS
 10
209.1856957922
 20
199.161428709
  0
VERTEX
  8
0
 62
7
  6
CONTINUOUS
 10
209.5642549102
 20
198.9148717555
  0
SEQEND
  0
LINE
  8
0
 62
7
  6
CONTINUOUS
 10
204.0364583642
 20
202.0901353646
 11
203.9857099687
 21
199.7643693276
  0
LINE
  8
0
 62
7
  6
CONTINUOUS
 10
209.1509794242
 20
199.7600072643
 11
209.0608589976
 21
203.2015675077
  0
LINE
  8
0
 62
7
  6
CONTINUOUS
 10
209.0176435855
 20
204.8518975129
 11
208.6782619009
 21
217.8123611609
  0
LINE
  8
0
 62
7
  6
CONTINUOUS
 10
212.6789473684
 20
221.7861842126
 11
212.6789473684
 21
199.7861842126
  0
POLYLINE
  8
0
 62
7
  6
CONTINUOUS
 66
1
 70
0
  0
VERTEX
  8
0
 62
7
  6
CONTINUOUS
 10
205.3326934259
 20
202.3980422661
  0
VERTEX
  8
0
 62
7
  6
CONTINUOUS
 10
205.3497480683
 20
202.4629547746
  0
VERTEX
  8
0
 62
7
  6
CONTINUOUS
 10
205.3808142458
 20
202.5506241131
  0
VERTEX
  8
0
 62
7
  6
CONTINUOUS
 10
205.4233031787
 20
202.6452180205
  0
VERTEX
  8
0
 62
7
  6
CONTINUOUS
 10
205.4752429865
 20
202.7411917554
  0
VERTEX
  8
0
 62
7
  6
CONTINUOUS
 10
205.5036582453
 20
202.7861842126
  0
SEQEND
  0
LINE
  8
0
 62
7
  6
CONTINUOUS
 10
296.7473684211
 20
198.7861842126
 11
321.5215603325
 21
198.7861842126
  0
LINE
  8
0
 62
7
  6
CONTINUOUS
 10
323.1231765096
 20
198.7861842126
 11
347.8973684211
 21
198.7861842126
  0
LINE
  8
0
 62
2
  6
CONTINUOUS
 10
296.9223684211
 20
213.0361842126
 11
296.9223684211
 21
210.9361842126
  0
LINE
  8
DEFAULT_1
 62
2
  6
CENTER
 10
296.9223684211
 20
206.7361842126
 11
296.9223684211
 21
205.8111842126
  0
LINE
  8
DEFAULT_1
 62
2
  6
CENTER
 10
296.9223684211
 20
217.2361842126
 11
296.9223684211
 21
218.1611842126
  0
LINE
  8
0
 62
7
  6
CONTINUOUS
 10
320.90195148
 20
202.7861842126
 11
320.1723684211
 21
202.7861842126
  0
LINE
  8
0
 62
7
  6
CONTINUOUS
 10
309.793346746
 20
251.175369634
 11
304.6418592741
 21
221.9598323903
  0
LINE
  8
0
 62
2
  6
CONTINUOUS
 10
348.7723684211
 20
211.9861842126
 11
346.6723684211
 21
211.9861842126
  0
LINE
  8
DEFAULT_1
 62
2
  6
CENTER
 10
342.4723684211
 20
211.9861842126
 11
341.5473684211
 21
211.9861842126
  0
LINE
  8
0
 62
2
  6
CONTINUOUS
 10
297.9723684211
 20
211.9861842126
 11
295.8723684211
 21
211.9861842126
  0
LINE
  8
DEFAULT_1
 62
2
  6
CENTER
 10
291.6723684211
 20
211.9861842126
 11
290.7473684211
 21
211.9861842126
  0
LINE
  8
DEFAULT_1
 62
2
  6
CENTER
 10
302.1723684211
 20
211.9861842126
 11
303.0973684211
 21
211.9861842126
  0
LINE
  8
DEFAULT_1
 62
2
  6
CENTER
 10
352.9723684211
 20
211.9861842126
 11
353.8973684211
 21
211.9861842126
  0
LINE
  8
DEFAULT_1
 62
2
  6
CENTER
 10
274.3309185273
 20
212.7861842126
 11
370.3138183148
 21
212.7861842126
  0
LINE
  8
0
 62
7
  6
CONTINUOUS
 10
320.3526798934
 20
208.0121542722
 11
321.1341327189
 21
200.5771272861
  0
LINE
  8
0
 62
7
  6
CONTINUOUS
 10
347.8973684211
 20
222.7861842126
 11
305.6266670271
 21
222.7861842126
  0
LINE
  8
0
 62
7
  6
CONTINUOUS
 10
304.7875673959
 20
222.7861842126
 11
296.7473684211
 21
222.7861842126
  0
LINE
  8
0
 62
7
  6
CONTINUOUS
 10
319.3223684211
 20
201.9361842126
 11
319.3223684211
 21
199.7661842126
  0
LINE
  8
PLANE
 62
2
  6
CENTER
 10
322.3223684211
 20
196.785344663
 11
322.3223684211
 21
259.7861842126
  0
LINE
  8
0
 62
7
  6
CONTINUOUS
 10
356.7551406945
 20
218.8818540646
 11
323.5769902857
 21
255.1832974473
  0
LINE
  8
0
 62
2
  6
CONTINUOUS
 10
347.7223684211
 20
213.0361842126
 11
347.7223684211
 21
210.9361842126
  0
LINE
  8
DEFAULT_1
 62
2
  6
CENTER
 10
347.7223684211
 20
206.7361842126
 11
347.7223684211
 21
205.8111842126
  0
LINE
  8
DEFAULT_1
 62
2
  6
CENTER
 10
347.7223684211
 20
217.2361842126
 11
347.7223684211
 21
218.1611842126
  0
ARC
  8
0
 62
7
  6
CONTINUOUS
 10
211.6789473684
 20
170.7756578947
 40
1.0
 50
0.0
 51
90.0
  0
ARC
  8
0
 62
7
  6
CONTINUOUS
 10
61.6789473684
 20
97.6256578947
 40
1.0
 50
180.0
 51
270.0
  0
ARC
  8
0
 62
7
  6
CONTINUOUS
 10
61.6789473684
 20
199.7861842126
 40
1.0
 50
180.0
 51
270.0
  0
ARC
  8
0
 62
7
  6
CONTINUOUS
 10
63.207257994
 20
199.7861844541
 40
1.0
 50
306.2077738963
 51
314.2499921331
  0
ARC
  8
0
 62
7
  6
CONTINUOUS
 10
83.0719468223
 20
199.7861842126
 40
1.0
 50
181.2499999661
 51
269.9999984471
  0
ARC
  8
0
 62
7
  6
CONTINUOUS
 10
87.5219467935
 20
199.7861842899
 40
1.0
 50
181.2500044265
 51
270.0000000966
  0
ARC
  8
0
 62
7
  6
CONTINUOUS
 10
88.6859479146
 20
199.7861842126
 40
1.0
 50
306.8235074902
 51
314.375000951
  0
ARC
  8
0
 62
7
  6
CONTINUOUS
 10
75.9859479509
 20
199.7861842126
 40
0.9999999992
 50
269.9999994718
 51
358.7499999885
  0
ARC
  8
0
 62
7
  6
CONTINUOUS
 10
71.5359479749
 20
199.7861842126
 40
0.999999997
 50
269.9999980931
 51
358.7499999584
  0
ARC
  8
0
 62
7
  6
CONTINUOUS
 10
96.9359479749
 20
199.7861842126
 40
0.999999997
 50
269.9999980931
 51
358.7499999584
  0
ARC
  8
0
 62
7
  6
CONTINUOUS
 10
61.6789473684
 20
221.7861842126
 40
1.0
 50
90.0
 51
180.0
  0
ARC
  8
0
 62
7
  6
CONTINUOUS
 10
72.0159896467
 20
221.7861840929
 40
1.0
 50
358.7500068623
 51
74.1277752324
  0
ARC
  8
0
 62
7
  6
CONTINUOUS
 10
61.8678785264
 20
225.0361842126
 40
2.25
 50
270.0
 51
359.0
  0
ARC
  8
0
 62
7
  6
CONTINUOUS
 10
72.5629756109
 20
223.7099324559
 40
1.0
 50
181.0
 51
254.1277746974
  0
ARC
  8
0
 62
7
  6
CONTINUOUS
 10
72.5616446315
 20
223.7861842126
 40
1.0
 50
181.0
 51
270.0
  0
ARC
  8
0
 62
7
  6
CONTINUOUS
 10
75.9212501053
 20
223.7861842126
 40
1.0
 50
270.0
 51
359.0
  0
ARC
  8
0
 62
7
  6
CONTINUOUS
 10
87.0419050875
 20
221.7861842126
 40
1.0
 50
105.8722265
 51
181.25
  0
ARC
  8
0
 62
7
  6
CONTINUOUS
 10
97.4159896467
 20
221.7861840929
 40
1.0
 50
358.7500068623
 51
89.9999998503
  0
ARC
  8
0
 62
7
  6
CONTINUOUS
 10
86.4949191257
 20
223.7099324409
 40
1.0
 50
285.8722253026
 51
359.0
  0
ARC
  8
0
 62
7
  6
CONTINUOUS
 10
83.1366446315
 20
223.7861842126
 40
1.0
 50
181.0
 51
270.0
  0
ARC
  8
0
 62
7
  6
CONTINUOUS
 10
86.4962501053
 20
223.7861842126
 40
1.0
 50
270.0
 51
359.0
  0
ARC
  8
0
 62
7
  6
CONTINUOUS
 10
97.1900162104
 20
225.0361842126
 40
2.25
 50
181.0
 51
270.0
  0
ARC
  8
0
 62
7
  6
CONTINUOUS
 10
133.8719467952
 20
199.7861842126
 40
1.0
 50
181.25
 51
270.0
  0
ARC
  8
0
 62
7
  6
CONTINUOUS
 10
114.0859479146
 20
199.7861842126
 40
1.0
 50
306.8233354252
 51
314.375000951
  0
ARC
  8
0
 62
7
  6
CONTINUOUS
 10
112.9219467952
 20
199.7861842126
 40
1.0
 50
181.25
 51
270.0
  0
ARC
  8
0
 62
7
  6
CONTINUOUS
 10
108.4719467952
 20
199.7861842126
 40
1.0
 50
181.25
 51
270.0
  0
ARC
  8
0
 62
7
  6
CONTINUOUS
 10
126.7859479509
 20
199.7861842126
 40
0.9999999992
 50
269.9999994718
 51
358.7499999885
  0
ARC
  8
0
 62
7
  6
CONTINUOUS
 10
101.3859479509
 20
199.7861842126
 40
0.9999999992
 50
269.9999994718
 51
358.7499999885
  0
ARC
  8
0
 62
7
  6
CONTINUOUS
 10
122.3359479749
 20
199.7861842126
 40
0.999999997
 50
269.9999980931
 51
358.7499999584
  0
ARC
  8
0
 62
7
  6
CONTINUOUS
 10
122.8159896493
 20
221.7861842126
 40
1.0
 50
358.7497722452
 51
74.1277717351
  0
ARC
  8
0
 62
7
  6
CONTINUOUS
 10
112.4419050875
 20
221.7861842126
 40
1.0
 50
90.0
 51
181.25
  0
ARC
  8
0
 62
7
  6
CONTINUOUS
 10
112.6678785264
 20
225.0361842126
 40
2.25
 50
270.0
 51
359.0
  0
ARC
  8
0
 62
7
  6
CONTINUOUS
 10
133.9366446315
 20
223.7861842126
 40
1.0
 50
181.0
 51
270.0
  0
ARC
  8
0
 62
7
  6
CONTINUOUS
 10
123.3629756109
 20
223.7099324559
 40
1.0
 50
181.0
 51
254.1277746974
  0
ARC
  8
0
 62
7
  6
CONTINUOUS
 10
123.3616446315
 20
223.7861842126
 40
1.0
 50
181.0
 51
270.0
  0
ARC
  8
0
 62
7
  6
CONTINUOUS
 10
126.7212501053
 20
223.7861842126
 40
1.0
 50
270.0
 51
359.0
  0
ARC
  8
0
 62
7
  6
CONTINUOUS
 10
120.4033609547
 20
252.7861841108
 40
5.0
 50
90.0000000681
 51
179.0
  0
ARC
  8
0
 62
7
  6
CONTINUOUS
 10
89.4545337817
 20
252.7861841373
 40
5.0
 50
1.0
 51
89.9999999497
  0
ARC
  8
0
 62
7
  6
CONTINUOUS
 10
69.6033609547
 20
252.7861841108
 40
5.0
 50
90.0000000681
 51
179.0
  0
ARC
  8
0
 62
7
  6
CONTINUOUS
 10
131.3603228402
 20
256.7861837879
 40
1.0
 50
1.0000000003
 51
89.9999999017
  0
ARC
  8
0
 62
7
  6
CONTINUOUS
 10
129.2975718944
 20
256.7861836634
 40
1.0
 50
90.0000001281
 51
178.9999999997
  0
ARC
  8
0
 62
7
  6
CONTINUOUS
 10
120.7853228355
 20
256.7861840606
 40
1.0
 50
1.0000000002
 51
89.9999999653
  0
ARC
  8
0
 62
7
  6
CONTINUOUS
 10
80.5603228402
 20
256.7861837879
 40
1.0
 50
1.0000000003
 51
89.9999999017
  0
ARC
  8
0
 62
7
  6
CONTINUOUS
 10
89.0725719001
 20
256.7861839877
 40
1.0
 50
90.0000000519
 51
178.9999999998
  0
ARC
  8
0
 62
7
  6
CONTINUOUS
 10
69.9853228355
 20
256.7861840606
 40
1.0
 50
1.0000000002
 51
89.9999999653
  0
ARC
  8
0
 62
7
  6
CONTINUOUS
 10
78.4975718944
 20
256.7861836634
 40
1.0
 50
90.0000001281
 51
178.9999999997
  0
ARC
  8
0
 62
7
  6
CONTINUOUS
 10
159.2719468223
 20
199.7861842126
 40
1.0
 50
181.2499999661
 51
269.9999984471
  0
ARC
  8
0
 62
7
  6
CONTINUOUS
 10
163.7219467935
 20
199.7861842899
 40
1.0
 50
181.2500044265
 51
270.0000000966
  0
ARC
  8
0
 62
7
  6
CONTINUOUS
 10
164.8859479146
 20
199.7861842126
 40
1.0
 50
306.8230351516
 51
314.375000951
  0
ARC
  8
0
 62
7
  6
CONTINUOUS
 10
139.4859479146
 20
199.7861842126
 40
1.0
 50
306.8235306355
 51
314.375000951
  0
ARC
  8
0
 62
7
  6
CONTINUOUS
 10
138.3219467952
 20
199.7861842126
 40
1.0
 50
181.25
 51
270.0
  0
ARC
  8
0
 62
7
  6
CONTINUOUS
 10
152.1859479509
 20
199.7861842126
 40
0.9999999992
 50
269.9999994718
 51
358.7499999885
  0
ARC
  8
0
 62
7
  6
CONTINUOUS
 10
173.1359479749
 20
199.7861842126
 40
0.999999997
 50
269.9999980931
 51
358.7499999584
  0
ARC
  8
0
 62
7
  6
CONTINUOUS
 10
147.7359479749
 20
199.7861842126
 40
0.999999997
 50
269.9999980931
 51
358.7499999584
  0
ARC
  8
0
 62
7
  6
CONTINUOUS
 10
148.2159896467
 20
221.7861840929
 40
1.0
 50
358.7500068623
 51
89.9999998503
  0
ARC
  8
0
 62
7
  6
CONTINUOUS
 10
137.8419050875
 20
221.7861842126
 40
1.0
 50
105.8722265
 51
181.25
  0
ARC
  8
0
 62
7
  6
CONTINUOUS
 10
147.9900162104
 20
225.0361842126
 40
2.25
 50
181.0
 51
270.0
  0
ARC
  8
0
 62
7
  6
CONTINUOUS
 10
137.2962501053
 20
223.7861842126
 40
1.0
 50
270.0
 51
354.6756845154
  0
ARC
  8
0
 62
7
  6
CONTINUOUS
 10
137.2949191216
 20
223.7099322089
 40
1.0
 50
285.8722263225
 51
359.0000141373
  0
ARC
  8
0
 62
7
  6
CONTINUOUS
 10
173.6159896467
 20
221.7861840929
 40
1.0
 50
358.7500068623
 51
74.1277752324
  0
ARC
  8
0
 62
7
  6
CONTINUOUS
 10
163.2419032343
 20
221.7861842126
 40
1.0
 50
90.0
 51
181.2502300669
  0
ARC
  8
0
 62
7
  6
CONTINUOUS
 10
163.4678785264
 20
225.0361842126
 40
2.25
 50
270.0
 51
359.0
  0
ARC
  8
0
 62
7
  6
CONTINUOUS
 10
174.162975611
 20
223.70993245
 40
1.0
 50
181.0
 51
254.1277746974
  0
ARC
  8
0
 62
7
  6
CONTINUOUS
 10
174.1616446315
 20
223.7861842126
 40
1.0
 50
181.0
 51
270.0
  0
ARC
  8
0
 62
7
  6
CONTINUOUS
 10
184.6719468223
 20
199.7861842126
 40
1.0
 50
181.2499999661
 51
269.9999984471
  0
ARC
  8
0
 62
7
  6
CONTINUOUS
 10
189.1219467935
 20
199.7861842899
 40
1.0
 50
181.2500044265
 51
270.0000000966
  0
ARC
  8
0
 62
7
  6
CONTINUOUS
 10
190.2859479146
 20
199.7861842126
 40
1.0
 50
306.8231852884
 51
314.375000951
  0
ARC
  8
0
 62
7
  6
CONTINUOUS
 10
177.5859479509
 20
199.7861842126
 40
0.9999999992
 50
269.9999994718
 51
358.7499999885
  0
ARC
  8
0
 62
7
  6
CONTINUOUS
 10
211.6789473684
 20
199.7861842126
 40
1.0
 50
270.0
 51
360.0
  0
ARC
  8
0
 62
7
  6
CONTINUOUS
 10
210.1506367492
 20
199.7861842126
 40
1.0
 50
181.5
 51
270.0
  0
ARC
  8
0
 62
7
  6
CONTINUOUS
 10
202.9859479509
 20
199.7861842126
 40
0.9999999992
 50
269.9999994718
 51
358.7499999885
  0
ARC
  8
0
 62
7
  6
CONTINUOUS
 10
198.5359479749
 20
199.7861842126
 40
0.999999997
 50
269.9999980931
 51
358.7499999584
  0
ARC
  8
0
 62
7
  6
CONTINUOUS
 10
208.0975792973
 20
201.7861851201
 40
0.9999995463
 50
1.4999479897
 51
89.9999986385
  0
ARC
  8
0
 62
7
  6
CONTINUOUS
 10
205.0300641817
 20
201.7861853883
 40
0.9999994122
 50
90.0000014698
 51
178.75
  0
ARC
  8
0
 62
7
  6
CONTINUOUS
 10
208.2437028381
 20
201.9361847306
 40
0.849999712
 50
1.4999650736
 51
89.9999816758
  0
ARC
  8
0
 62
7
  6
CONTINUOUS
 10
177.5212501053
 20
223.7861842126
 40
1.0
 50
270.0
 51
359.0
  0
ARC
  8
0
 62
7
  6
CONTINUOUS
 10
188.6419032344
 20
221.7861842126
 40
1.0
 50
105.8721261307
 51
181.2502300714
  0
ARC
  8
0
 62
7
  6
CONTINUOUS
 10
184.7366446315
 20
223.7861842126
 40
1.0
 50
181.0
 51
270.0
  0
ARC
  8
0
 62
7
  6
CONTINUOUS
 10
188.0962501053
 20
223.7861842126
 40
1.0
 50
270.0
 51
354.675648014
  0
ARC
  8
0
 62
7
  6
CONTINUOUS
 10
188.0949191216
 20
223.7099322089
 40
1.0
 50
285.8722263224
 51
359.0000141373
  0
ARC
  8
0
 62
7
  6
CONTINUOUS
 10
211.6789473684
 20
219.7861842126
 40
1.0
 50
270.0
 51
360.0
  0
ARC
  8
0
 62
7
  6
CONTINUOUS
 10
207.6786045677
 20
217.7861842126
 40
1.0
 50
1.5
 51
89.9999995309
  0
ARC
  8
0
 62
7
  6
CONTINUOUS
 10
198.7900162104
 20
225.0361842126
 40
2.25
 50
181.0
 51
270.0
  0
ARC
  8
0
 62
7
  6
CONTINUOUS
 10
211.6789473684
 20
221.7861842126
 40
1.0
 50
0.0
 51
90.0
  0
ARC
  8
0
 62
7
  6
CONTINUOUS
 10
199.0159896493
 20
221.7861842126
 40
1.0
 50
358.7497657216
 51
89.9999998503
  0
ARC
  8
0
 62
7
  6
CONTINUOUS
 10
191.0545337817
 20
252.7861841373
 40
5.0
 50
1.0
 51
89.9999999497
  0
ARC
  8
0
 62
7
  6
CONTINUOUS
 10
171.2033609547
 20
252.7861841108
 40
5.0
 50
90.0000000681
 51
179.0
  0
ARC
  8
0
 62
7
  6
CONTINUOUS
 10
140.2545337817
 20
252.7861841373
 40
5.0
 50
1.0
 51
89.9999999497
  0
ARC
  8
0
 62
7
  6
CONTINUOUS
 10
190.6725719001
 20
256.7861839877
 40
1.0
 50
90.0000000519
 51
178.9999999998
  0
ARC
  8
0
 62
7
  6
CONTINUOUS
 10
182.1603228402
 20
256.7861837879
 40
1.0
 50
1.0000000003
 51
89.9999999017
  0
ARC
  8
0
 62
7
  6
CONTINUOUS
 10
180.0975718944
 20
256.7861836634
 40
1.0
 50
90.0000001281
 51
178.9999999997
  0
ARC
  8
0
 62
7
  6
CONTINUOUS
 10
171.5853228355
 20
256.7861840606
 40
1.0
 50
1.0000000002
 51
89.9999999653
  0
ARC
  8
0
 62
7
  6
CONTINUOUS
 10
139.8725719001
 20
256.7861839877
 40
1.0
 50
90.0000000519
 51
178.9999999998
  0
ARC
  8
0
 62
7
  6
CONTINUOUS
 10
287.7823725809
 20
204.4121077835
 40
0.9999998212
 50
228.4205768153
 51
231.1319148594
  0
ARC
  8
0
 62
7
  6
CONTINUOUS
 10
296.7473684211
 20
210.7861842126
 40
12.0
 50
90.0
 51
270.0
  0
CIRCLE
  8
0
 62
7
  6
CONTINUOUS
 10
296.9223684211
 20
211.9861842126
 40
4.175
  0
ARC
  8
0
 62
7
  6
CONTINUOUS
 10
308.3869074064
 20
206.7545009056
 40
12.031683307
 50
6.0
 51
90.0
  0
ARC
  8
0
 62
7
  6
CONTINUOUS
 10
298.7013511498
 20
211.9861842126
 40
11.0
 50
43.1134761482
 51
54.7524930079
  0
ARC
  8
0
 62
7
  6
CONTINUOUS
 10
305.6266654477
 20
221.7861842126
 40
0.9999995719
 50
90.0
 51
234.7525083505
  0
ARC
  8
0
 62
7
  6
CONTINUOUS
 10
303.9484677647
 20
223.7861842126
 40
1.0
 50
270.0
 51
350.0
  0
ARC
  8
0
 62
7
  6
CONTINUOUS
 10
308.3869074064
 20
221.0540413555
 40
2.2678571428
 50
223.1134761482
 51
270.0
  0
ARC
  8
SURF
 62
7
  6
CONTINUOUS
 10
308.3869074064
 20
221.0540413555
 40
2.2678571428
 50
258.3944562544
 51
259.704608619
  0
ARC
  8
SURF
 62
7
  6
CONTINUOUS
 10
308.3869074064
 20
221.0540413555
 40
2.2678571428
 50
245.3507560824
 51
248.5425347279
  0
ARC
  8
SURF
 62
7
  6
CONTINUOUS
 10
308.3869074064
 20
221.0540413555
 40
2.2678571428
 50
233.6418671217
 51
244.333444804
  0
ARC
  8
0
 62
7
  6
CONTINUOUS
 10
308.3396711579
 20
223.7861842126
 40
1.0
 50
270.0
 51
284.8333323785
  0
ARC
  8
0
 62
7
  6
CONTINUOUS
 10
317.6718087701
 20
249.7861842126
 40
8.0
 50
42.4261347328
 51
170.0
  0
ARC
  8
0
 62
7
  6
CONTINUOUS
 10
318.3423684211
 20
199.7661842126
 40
0.98
 50
270.0
 51
360.0
  0
ARC
  8
0
 62
7
  6
CONTINUOUS
 10
320.1723684211
 20
201.9361842126
 40
0.85
 50
90.0
 51
180.0
  0
ARC
  8
0
 62
7
  6
CONTINUOUS
 10
321.5215603325
 20
200.7861842126
 40
2.0
 50
270.0
 51
293.6176251962
  0
ARC
  8
0
 62
7
  6
CONTINUOUS
 10
323.1231765096
 20
200.7861842126
 40
2.0
 50
186.0
 51
270.0
  0
CIRCLE
  8
0
 62
7
  6
CONTINUOUS
 10
347.7223684211
 20
211.9861842126
 40
4.175
  0
ARC
  8
0
 62
7
  6
CONTINUOUS
 10
347.8973684211
 20
210.7861842126
 40
12.0
 50
270.0
 51
90.0
  0
ENDSEC
  0
EOF
