  0
SECTION
  2
HEADER
  9
$EXTMAX
 10
594.0
 20
420.0
 30
0.0
  9
$EXTMIN
 10
0.0
 20
0.0
 30
0.0
  9
$LIMMIN
 10
0.0
 20
0.0
  9
$LIMMAX
 10
594.0
 20
420.0
  9
$VIEWCTR
 10
297.0
 20
210.0
  9
$VIEWSIZE
 40
420.0
  9
$CLAYER
  8
0
  9
$LTSCALE
 40
32.67
  9
$CELTYPE
  6
BYLAYER
  9
$DIMSCALE
 40
1.0
  9
$DIMASZ
 40
3.5
  9
$DIMEXO
 40
3.7125
  9
$DIMDLI
 40
22.572
  9
$DIMEXE
 40
10.692
  9
$DIMCEN
 40
5.346
  9
$DIMLFAC
 40
1.0
  9
$DIMBLK
  1
_FILLED
  9
$DIMTXT
 40
3.5
  9
$PDMODE
 70
3
  9
$PDSIZE
 40
0.3125
  9
$TILEMODE
 70
1
  0
ENDSEC
  0
SECTION
  2
TABLES
  0
TABLE
  2
LTYPE
 70
6
  0
LTYPE
  2
BYBLOCK
 70
0
  3

 72
65
 73
0
 40
0.0
  0
LTYPE
  2
BYLAYER
 70
0
  3

 72
65
 73
0
 40
0.0
  0
LTYPE
  2
CONTINUOUS
 70
64
  3
Solid line
 72
65
 73
0
 40
0.0
  0
LTYPE
  2
CENTER
 70
64
  3
____ _ ____ _ ____ _ ____ _ ____ _ ____ _ ____
 72
65
 73
4
 40
0.6
 49
0.375
 49
-0.075
 49
0.075
 49
-0.075
  0
LTYPE
  2
HIDDEN
 70
64
  3
- - - - - - - - - - - - - - - - - - - -
 72
65
 73
2
 40
0.2
 49
0.1
 49
-0.1
  0
LTYPE
  2
PHANTOM
 70
64
  3
_____ _ _ _____ _ _ _____ _ _ _____
 72
65
 73
6
 40
0.8
 49
0.45
 49
-0.05
 49
0.1
 49
-0.05
 49
0.1
 49
-0.05
  0
LTYPE
  2
DOT
 70
64
  3
. . . . . . . . . . . . . . . . . . . .
 72
65
 73
2
 40
0.2
 49
0.1
 49
-0.1
  0
LTYPE
  2
DASHED
 70
64
  3
- - - - - - - - - - - - - - - - - - - -
 72
65
 73
2
 40
0.2
 49
0.1
 49
-0.1
  0
ENDTAB
  0
TABLE
  2
LAYER
 70
36
  0
LAYER
  2
0
 70
0
 62
7
  6
CONTINUOUS
  0
LAYER
  2
DEFAULT_1
 70
0
 62
7
  6
CENTER
  0
LAYER
  2
DEFAULT_2
 70
0
 62
8
  6
HIDDEN
  0
LAYER
  2
DEFAULT_3
 70
0
 62
7
  6
PHANTOM
  0
LAYER
  2
1_DATUMPLANE
 70
0
 62
7
  6
CONTINUOUS
  0
LAYER
  2
2PART
 70
0
 62
7
  6
CONTINUOUS
  0
LAYER
  2
2_FEATURE
 70
0
 62
7
  6
CONTINUOUS
  0
LAYER
  2
4_QUILT
 70
0
 62
7
  6
CONTINUOUS
  0
LAYER
  2
6_DIM
 70
0
 62
7
  6
CONTINUOUS
  0
LAYER
  2
AXES
 70
0
 62
7
  6
CONTINUOUS
  0
LAYER
  2
CSYS
 70
0
 62
7
  6
CONTINUOUS
  0
LAYER
  2
NOTES
 70
0
 62
7
  6
CONTINUOUS
  0
LAYER
  2
PLANES
 70
0
 62
7
  6
CONTINUOUS
  0
LAYER
  2
QUILTS
 70
0
 62
7
  6
CONTINUOUS
  0
ENDTAB
  0
TABLE
  2
STYLE
 70
1
  0
STYLE
  2
STANDARD
 70
0
 40
0.0
 41
0.8
 50
0.0
 71
0
 42
0.2
  3
txt
  4

  0
STYLE
  2
TEXTSTYLE_1
 70
0
 40
0.0
 41
0.8
 50
0.0
 71
0
 42
0.2
  3
gdt
  4

  0
STYLE
  2
TEXTSTYLE_2
 70
0
 40
0.0
 41
0.6
 50
0.0
 71
0
 42
0.2
  3
txt
  4

  0
STYLE
  2
TEXTSTYLE_3
 70
0
 40
0.0
 41
1.0
 50
0.0
 71
0
 42
0.2
  3
ftb_____.ttf
  4

  0
STYLE
  2
TEXTSTYLE_4
 70
0
 40
0.0
 41
1.0
 50
0.0
 71
0
 42
0.2
  3
fti_____.ttf
  4

  0
STYLE
  2
TEXTSTYLE_5
 70
0
 40
0.0
 41
1.0
 50
0.0
 71
0
 42
0.2
  3
frutiger light.ttf
  4

  0
STYLE
  2
TEXTSTYLE_6
 70
0
 40
0.0
 41
0.7
 50
0.0
 71
0
 42
0.2
  3
txt
  4

  0
STYLE
  2
TEXTSTYLE_7
 70
0
 40
0.0
 41
0.6
 50
0.0
 71
0
 42
0.2
  3
txt
  4

  0
ENDTAB
  0
ENDSEC
  0
SECTION
  2
BLOCKS
  0
BLOCK
  8
0
 62
2
  6
CONTINUOUS
  2
SYMBOL_3_BL1
 70
64
 10
557.4079930916
 20
35.8092573885
  0
TEXT
  8
0
 62
7
  6
CONTINUOUS
 10
548.4662781001
 20
30.9020137655
  7
TEXTSTYLE_4
 40
1.0655737705
  1
The brand for plastic modular belts and chains
 41
1.0
 72
0
  0
LINE
  8
0
 62
7
  6
CONTINUOUS
 10
533.3860614807
 20
36.3830278803
 11
533.3860614807
 21
34.2518803393
  0
LINE
  8
0
 62
7
  6
CONTINUOUS
 10
533.6751239738
 20
31.2609490436
 11
533.6751239738
 21
31.3577401029
  0
LINE
  8
0
 62
7
  6
CONTINUOUS
 10
533.3860614807
 20
31.3254764164
 11
533.4438739824
 21
31.1318942979
  0
LINE
  8
0
 62
7
  6
CONTINUOUS
 10
534.7795041036
 20
34.1699131262
 11
534.7795041036
 21
36.3830278803
  0
LINE
  8
0
 62
7
  6
CONTINUOUS
 10
535.6985614255
 20
32.3256508311
 11
535.6985614255
 21
30.8092573885
  0
LINE
  8
0
 62
7
  6
CONTINUOUS
 10
535.9876239807
 20
30.8092573885
 11
535.9876239807
 21
31.5513222666
  0
LINE
  8
0
 62
7
  6
CONTINUOUS
 10
535.9876239807
 20
31.6803770123
 11
535.9876239807
 21
32.3256508311
  0
LINE
  8
0
 62
7
  6
CONTINUOUS
 10
533.4438739824
 20
31.5190585802
 11
533.3860614807
 21
31.3254764164
  0
LINE
  8
0
 62
7
  6
CONTINUOUS
 10
533.7907489669
 20
31.0996306115
 11
533.6751239738
 21
31.2609490436
  0
LINE
  8
0
 62
7
  6
CONTINUOUS
 10
534.8891865358
 20
31.6158496394
 11
534.9469989807
 21
31.5190585802
  0
LINE
  8
0
 62
7
  6
CONTINUOUS
 10
535.2360615358
 20
31.5190585802
 11
535.1782489255
 21
31.6481133259
  0
LINE
  8
0
 62
7
  6
CONTINUOUS
 10
536.6647500053
 20
36.3830278803
 11
536.6647500053
 21
34.5797491918
  0
LINE
  8
0
 62
7
  6
CONTINUOUS
 10
536.6647500053
 20
33.2682737819
 11
536.6647500053
 21
32.612536077
  0
LINE
  8
0
 62
7
  6
CONTINUOUS
 10
537.0282489807
 20
31.4545312073
 11
537.0282489807
 21
30.8092573885
  0
LINE
  8
0
 62
7
  6
CONTINUOUS
 10
537.3173113704
 20
30.8092573885
 11
537.3173113704
 21
31.4545312073
  0
LINE
  8
0
 62
7
  6
CONTINUOUS
 10
533.6751239738
 20
31.3577401029
 11
533.7329364807
 21
31.4867948937
  0
LINE
  8
0
 62
7
  6
CONTINUOUS
 10
533.4438739824
 20
31.1318942979
 11
533.5594989807
 21
31.0028395296
  0
LINE
  8
0
 62
7
  6
CONTINUOUS
 10
536.9704363704
 20
31.583585953
 11
537.0282489807
 21
31.4545312073
  0
LINE
  8
0
 62
7
  6
CONTINUOUS
 10
537.7798115909
 20
31.0996306115
 11
537.8376238704
 21
30.9705758432
  0
LINE
  8
0
 62
7
  6
CONTINUOUS
 10
537.3173113704
 20
31.4545312073
 11
537.2594990909
 21
31.6158496394
  0
LINE
  8
0
 62
7
  6
CONTINUOUS
 10
537.7798115909
 20
31.6481133259
 11
537.7798115909
 21
31.583585953
  0
LINE
  8
0
 62
7
  6
CONTINUOUS
 10
537.7798115909
 20
31.1964216708
 11
537.7798115909
 21
31.0996306115
  0
LINE
  8
0
 62
7
  6
CONTINUOUS
 10
538.0581926282
 20
32.612536077
 11
538.0581926282
 21
36.3830278803
  0
LINE
  8
0
 62
7
  6
CONTINUOUS
 10
538.0688739807
 20
31.0673669025
 11
538.0688739807
 21
31.1318942979
  0
LINE
  8
0
 62
7
  6
CONTINUOUS
 10
538.3860614807
 20
36.3830278803
 11
538.3860614807
 21
32.612536077
  0
LINE
  8
0
 62
7
  6
CONTINUOUS
 10
535.1782489255
 20
31.0028395296
 11
535.2360615358
 21
31.1318942979
  0
LINE
  8
0
 62
7
  6
CONTINUOUS
 10
539.5719992012
 20
30.9060484591
 11
539.5141862601
 21
31.0673669025
  0
LINE
  8
0
 62
7
  6
CONTINUOUS
 10
539.2251242012
 20
31.583585953
 11
539.2251242012
 21
31.4867948937
  0
LINE
  8
0
 62
7
  6
CONTINUOUS
 10
539.2251242012
 20
31.3577401029
 11
539.2251242012
 21
31.1641579843
  0
LINE
  8
0
 62
7
  6
CONTINUOUS
 10
539.5141862601
 20
31.0673669025
 11
539.5141862601
 21
31.583585953
  0
LINE
  8
0
 62
7
  6
CONTINUOUS
 10
539.7795041036
 20
32.612536077
 11
539.7795041036
 21
34.4158147655
  0
LINE
  8
0
 62
7
  6
CONTINUOUS
 10
539.7795041036
 20
35.7272901754
 11
539.7795041036
 21
36.3830278803
  0
LINE
  8
0
 62
7
  6
CONTINUOUS
 10
540.0923117012
 20
32.3256508311
 11
540.0923117012
 21
32.164332399
  0
LINE
  8
0
 62
7
  6
CONTINUOUS
 10
540.0923117012
 20
31.8416954444
 11
540.0923117012
 21
30.8092573885
  0
LINE
  8
0
 62
7
  6
CONTINUOUS
 10
540.3813737601
 20
30.8092573885
 11
540.3813737601
 21
31.8416954444
  0
LINE
  8
0
 62
7
  6
CONTINUOUS
 10
540.3813737601
 20
32.164332399
 11
540.3813737601
 21
32.3256508311
  0
LINE
  8
0
 62
7
  6
CONTINUOUS
 10
534.9469989807
 20
31.1318942979
 11
534.8891865358
 21
31.035103216
  0
LINE
  8
0
 62
7
  6
CONTINUOUS
 10
537.2594990909
 20
31.6158496394
 11
537.2016864807
 21
31.6803770123
  0
LINE
  8
0
 62
7
  6
CONTINUOUS
 10
538.1266865909
 20
31.0028395296
 11
538.0688739807
 21
31.0673669025
  0
LINE
  8
0
 62
7
  6
CONTINUOUS
 10
539.2829364807
 20
30.873784767
 11
539.3407487601
 21
30.8092573885
  0
LINE
  8
0
 62
7
  6
CONTINUOUS
 10
539.2251242012
 20
30.9705758432
 11
539.2829364807
 21
30.873784767
  0
LINE
  8
0
 62
7
  6
CONTINUOUS
 10
539.6298114807
 20
30.8092573885
 11
539.5719992012
 21
30.9060484591
  0
LINE
  8
0
 62
7
  6
CONTINUOUS
 10
539.5141862601
 20
31.583585953
 11
539.4563739807
 21
31.6803770123
  0
LINE
  8
0
 62
7
  6
CONTINUOUS
 10
540.8438739807
 20
31.8416954444
 11
540.8438739807
 21
30.8092573885
  0
LINE
  8
0
 62
7
  6
CONTINUOUS
 10
541.1329367012
 20
30.8092573885
 11
541.1329367012
 21
31.5513222666
  0
LINE
  8
0
 62
7
  6
CONTINUOUS
 10
541.1329367012
 20
31.6803770123
 11
541.1329367012
 21
31.8416954444
  0
LINE
  8
0
 62
7
  6
CONTINUOUS
 10
541.6647500053
 20
34.8256508311
 11
541.6647500053
 21
32.612536077
  0
LINE
  8
0
 62
7
  6
CONTINUOUS
 10
533.5594989807
 20
31.6481133259
 11
533.4438739824
 21
31.5190585802
  0
LINE
  8
0
 62
7
  6
CONTINUOUS
 10
533.7329364807
 20
31.4867948937
 11
533.7907489669
 21
31.5513222666
  0
LINE
  8
0
 62
7
  6
CONTINUOUS
 10
533.5594989807
 20
31.0028395296
 11
533.6751239738
 21
30.9383121455
  0
LINE
  8
0
 62
7
  6
CONTINUOUS
 10
533.9641864669
 20
31.0028395296
 11
533.7907489669
 21
31.0996306115
  0
LINE
  8
0
 62
7
  6
CONTINUOUS
 10
539.1673112601
 20
31.6481133259
 11
539.2251242012
 21
31.583585953
  0
LINE
  8
0
 62
7
  6
CONTINUOUS
 10
542.1157487601
 20
31.583585953
 11
542.1735617012
 21
31.4222675209
  0
LINE
  8
0
 62
7
  6
CONTINUOUS
 10
542.4626237601
 20
31.4222675209
 11
542.4048114807
 21
31.583585953
  0
LINE
  8
0
 62
7
  6
CONTINUOUS
 10
542.1735617012
 20
31.4222675209
 11
542.1735617012
 21
30.8092573885
  0
LINE
  8
0
 62
7
  6
CONTINUOUS
 10
542.4626237601
 20
30.8092573885
 11
542.4626237601
 21
31.4222675209
  0
LINE
  8
0
 62
7
  6
CONTINUOUS
 10
542.9251239807
 20
31.6481133259
 11
542.9251239807
 21
31.583585953
  0
LINE
  8
0
 62
7
  6
CONTINUOUS
 10
543.0581926282
 20
32.612536077
 11
543.0581926282
 21
34.743683618
  0
LINE
  8
0
 62
7
  6
CONTINUOUS
 10
543.3860614807
 20
36.3830278803
 11
543.3860614807
 21
32.612536077
  0
LINE
  8
0
 62
7
  6
CONTINUOUS
 10
538.0688739807
 20
31.1318942979
 11
538.1266865909
 21
31.2286853572
  0
LINE
  8
0
 62
7
  6
CONTINUOUS
 10
533.6751239738
 20
30.9383121455
 11
533.8485614944
 21
30.873784767
  0
LINE
  8
0
 62
7
  6
CONTINUOUS
 10
535.1782489255
 20
31.6481133259
 11
535.0048114255
 21
31.7449043851
  0
LINE
  8
0
 62
7
  6
CONTINUOUS
 10
537.8376238704
 20
30.9705758432
 11
538.0110613704
 21
30.873784767
  0
LINE
  8
0
 62
7
  6
CONTINUOUS
 10
536.8548114807
 20
31.6481133259
 11
536.9704363704
 21
31.583585953
  0
LINE
  8
0
 62
7
  6
CONTINUOUS
 10
537.2016864807
 20
31.6803770123
 11
537.0860615909
 21
31.7449043851
  0
LINE
  8
0
 62
7
  6
CONTINUOUS
 10
542.9251239807
 20
31.0673669025
 11
543.0407492012
 21
30.9383121455
  0
LINE
  8
0
 62
7
  6
CONTINUOUS
 10
543.2719989807
 20
31.0028395296
 11
543.2141867012
 21
31.0673669025
  0
LINE
  8
0
 62
7
  6
CONTINUOUS
 10
542.9251239807
 20
31.583585953
 11
543.0407492012
 21
31.4545312073
  0
LINE
  8
0
 62
7
  6
CONTINUOUS
 10
542.4048114807
 20
31.583585953
 11
542.3469992012
 21
31.6803770123
  0
LINE
  8
0
 62
7
  6
CONTINUOUS
 10
544.7751235396
 20
31.0028395296
 11
544.7751235396
 21
31.0673669025
  0
LINE
  8
0
 62
7
  6
CONTINUOUS
 10
544.7795041036
 20
32.612536077
 11
544.7795041036
 21
36.3830278803
  0
LINE
  8
0
 62
7
  6
CONTINUOUS
 10
537.8376238704
 20
31.7126406987
 11
537.7798115909
 21
31.6481133259
  0
LINE
  8
0
 62
7
  6
CONTINUOUS
 10
534.7157489531
 20
31.6803770123
 11
534.8891865358
 21
31.6158496394
  0
LINE
  8
0
 62
7
  6
CONTINUOUS
 10
539.4563739807
 20
31.6803770123
 11
539.3407487601
 21
31.7449043851
  0
LINE
  8
0
 62
7
  6
CONTINUOUS
 10
543.2719989807
 20
31.5190585802
 11
543.2141867012
 21
31.583585953
  0
LINE
  8
0
 62
7
  6
CONTINUOUS
 10
544.4282492012
 20
31.1318942979
 11
544.4860614807
 21
31.0673669025
  0
LINE
  8
0
 62
7
  6
CONTINUOUS
 10
544.7751235396
 20
31.0673669025
 11
544.6594989807
 21
31.1964216708
  0
LINE
  8
0
 62
7
  6
CONTINUOUS
 10
544.4282492012
 20
31.6481133259
 11
544.4860614807
 21
31.583585953
  0
LINE
  8
0
 62
7
  6
CONTINUOUS
 10
544.7751235396
 20
31.583585953
 11
544.6594989807
 21
31.7126406987
  0
LINE
  8
0
 62
7
  6
CONTINUOUS
 10
538.0688739807
 20
31.583585953
 11
538.1266865909
 21
31.6481133259
  0
LINE
  8
0
 62
7
  6
CONTINUOUS
 10
537.8954364807
 20
31.3254764164
 11
537.7798115909
 21
31.1964216708
  0
LINE
  8
0
 62
7
  6
CONTINUOUS
 10
539.2251242012
 20
31.1641579843
 11
539.1673112601
 21
31.0996306115
  0
LINE
  8
0
 62
7
  6
CONTINUOUS
 10
539.1673112601
 20
30.9060484591
 11
539.2251242012
 21
30.9705758432
  0
LINE
  8
0
 62
7
  6
CONTINUOUS
 10
538.0110613704
 20
30.873784767
 11
538.1266865909
 21
30.8415210777
  0
LINE
  8
0
 62
7
  6
CONTINUOUS
 10
535.0048114255
 20
31.7449043851
 11
534.7735614807
 21
31.809431758
  0
LINE
  8
0
 62
7
  6
CONTINUOUS
 10
538.3579363704
 20
30.9383121455
 11
538.1266865909
 21
31.0028395296
  0
LINE
  8
0
 62
7
  6
CONTINUOUS
 10
537.0860615909
 20
31.7449043851
 11
536.9126240909
 21
31.809431758
  0
LINE
  8
0
 62
7
  6
CONTINUOUS
 10
539.3407487601
 20
31.7449043851
 11
539.1673112601
 21
31.809431758
  0
LINE
  8
0
 62
7
  6
CONTINUOUS
 10
542.0001242012
 20
31.6481133259
 11
542.1157487601
 21
31.583585953
  0
LINE
  8
0
 62
7
  6
CONTINUOUS
 10
542.3469992012
 20
31.6803770123
 11
542.2313739807
 21
31.7449043851
  0
LINE
  8
0
 62
7
  6
CONTINUOUS
 10
533.8485614944
 20
30.873784767
 11
534.0219989944
 21
30.8415210777
  0
LINE
  8
0
 62
7
  6
CONTINUOUS
 10
534.3110615082
 20
30.9383121455
 11
533.9641864669
 21
31.0028395296
  0
LINE
  8
0
 62
7
  6
CONTINUOUS
 10
536.7391865909
 20
31.6803770123
 11
536.8548114807
 21
31.6481133259
  0
LINE
  8
0
 62
7
  6
CONTINUOUS
 10
539.0516867012
 20
31.6803770123
 11
539.1673112601
 21
31.6481133259
  0
LINE
  8
0
 62
7
  6
CONTINUOUS
 10
543.3876242012
 20
30.9705758432
 11
543.2719989807
 21
31.0028395296
  0
LINE
  8
0
 62
7
  6
CONTINUOUS
 10
541.8844989807
 20
31.6803770123
 11
542.0001242012
 21
31.6481133259
  0
LINE
  8
0
 62
7
  6
CONTINUOUS
 10
543.0407492012
 20
30.9383121455
 11
543.2141867012
 21
30.873784767
  0
LINE
  8
0
 62
7
  6
CONTINUOUS
 10
542.2313739807
 20
31.7449043851
 11
542.0579364807
 21
31.809431758
  0
LINE
  8
0
 62
7
  6
CONTINUOUS
 10
543.4454364807
 20
31.4545312073
 11
543.2719989807
 21
31.5190585802
  0
LINE
  8
0
 62
7
  6
CONTINUOUS
 10
544.2548117012
 20
31.1964216708
 11
544.4282492012
 21
31.1318942979
  0
LINE
  8
0
 62
7
  6
CONTINUOUS
 10
544.6594989807
 20
31.7126406987
 11
544.4860614807
 21
31.7771680715
  0
LINE
  8
0
 62
7
  6
CONTINUOUS
 10
543.0407492012
 20
31.4545312073
 11
543.2719989807
 21
31.3577401029
  0
LINE
  8
0
 62
7
  6
CONTINUOUS
 10
544.6594989807
 20
31.1964216708
 11
544.4282492012
 21
31.29321273
  0
LINE
  8
0
 62
7
  6
CONTINUOUS
 10
543.2141867012
 20
31.583585953
 11
543.2719989807
 21
31.6481133259
  0
LINE
  8
0
 62
7
  6
CONTINUOUS
 10
533.6751239738
 20
31.7126406987
 11
533.5594989807
 21
31.6481133259
  0
LINE
  8
0
 62
7
  6
CONTINUOUS
 10
533.7907489669
 20
31.5513222666
 11
533.9641864669
 21
31.6481133259
  0
LINE
  8
0
 62
7
  6
CONTINUOUS
 10
536.1032490358
 20
31.7449043851
 11
535.9876239807
 21
31.6803770123
  0
LINE
  8
0
 62
7
  6
CONTINUOUS
 10
535.9876239807
 20
31.5513222666
 11
536.1032490358
 21
31.6158496394
  0
LINE
  8
0
 62
7
  6
CONTINUOUS
 10
535.0048114255
 20
30.9060484591
 11
535.1782489255
 21
31.0028395296
  0
LINE
  8
0
 62
7
  6
CONTINUOUS
 10
534.0219989944
 20
30.8415210777
 11
534.3688739531
 21
30.8092573885
  0
LINE
  8
0
 62
7
  6
CONTINUOUS
 10
538.1266865909
 20
30.8415210777
 11
538.3579363704
 21
30.8092573885
  0
LINE
  8
0
 62
7
  6
CONTINUOUS
 10
536.5079364807
 20
31.7126406987
 11
536.7391865909
 21
31.6803770123
  0
LINE
  8
0
 62
7
  6
CONTINUOUS
 10
538.8204365909
 20
31.7126406987
 11
539.0516867012
 21
31.6803770123
  0
LINE
  8
0
 62
7
  6
CONTINUOUS
 10
543.2719989807
 20
31.3577401029
 11
544.2548117012
 21
31.1964216708
  0
LINE
  8
0
 62
7
  6
CONTINUOUS
 10
544.4282492012
 20
31.29321273
 11
543.4454364807
 21
31.4545312073
  0
LINE
  8
0
 62
7
  6
CONTINUOUS
 10
536.9126240909
 20
31.809431758
 11
536.7391865909
 21
31.8416954444
  0
LINE
  8
0
 62
7
  6
CONTINUOUS
 10
543.2141867012
 20
30.873784767
 11
543.3876242012
 21
30.8415210777
  0
LINE
  8
0
 62
7
  6
CONTINUOUS
 10
542.0579364807
 20
31.809431758
 11
541.8844989807
 21
31.8416954444
  0
LINE
  8
0
 62
7
  6
CONTINUOUS
 10
544.3126239807
 20
31.6803770123
 11
544.4282492012
 21
31.6481133259
  0
LINE
  8
0
 62
7
  6
CONTINUOUS
 10
544.4860614807
 20
31.0673669025
 11
544.4282492012
 21
31.0028395296
  0
LINE
  8
0
 62
7
  6
CONTINUOUS
 10
543.0407492012
 20
31.7449043851
 11
542.9251239807
 21
31.6481133259
  0
LINE
  8
0
 62
7
  6
CONTINUOUS
 10
537.9532490909
 20
31.7771680715
 11
537.8376238704
 21
31.7126406987
  0
LINE
  8
0
 62
7
  6
CONTINUOUS
 10
538.0110613704
 20
31.3900038345
 11
537.8954364807
 21
31.3254764164
  0
LINE
  8
0
 62
7
  6
CONTINUOUS
 10
538.1266865909
 20
31.2286853572
 11
538.2423114807
 21
31.29321273
  0
LINE
  8
0
 62
7
  6
CONTINUOUS
 10
535.6985614255
 20
30.8092573885
 11
535.9876239807
 21
30.8092573885
  0
LINE
  8
0
 62
7
  6
CONTINUOUS
 10
537.0282489807
 20
30.8092573885
 11
537.3173113704
 21
30.8092573885
  0
LINE
  8
0
 62
7
  6
CONTINUOUS
 10
538.3579363704
 20
30.8092573885
 11
538.7048113704
 21
30.8092573885
  0
LINE
  8
0
 62
7
  6
CONTINUOUS
 10
539.3407487601
 20
30.8092573885
 11
539.6298114807
 21
30.8092573885
  0
LINE
  8
0
 62
7
  6
CONTINUOUS
 10
540.0923117012
 20
30.8092573885
 11
540.3813737601
 21
30.8092573885
  0
LINE
  8
0
 62
7
  6
CONTINUOUS
 10
540.8438739807
 20
30.8092573885
 11
541.1329367012
 21
30.8092573885
  0
LINE
  8
0
 62
7
  6
CONTINUOUS
 10
542.1735617012
 20
30.8092573885
 11
542.4626237601
 21
30.8092573885
  0
LINE
  8
0
 62
7
  6
CONTINUOUS
 10
543.7344992012
 20
30.8092573885
 11
544.0813742012
 21
30.8092573885
  0
LINE
  8
0
 62
7
  6
CONTINUOUS
 10
544.0813742012
 20
30.9383121455
 11
543.7344992012
 21
30.9383121455
  0
LINE
  8
0
 62
7
  6
CONTINUOUS
 10
538.7048113704
 20
30.9383121455
 11
538.3579363704
 21
30.9383121455
  0
LINE
  8
0
 62
7
  6
CONTINUOUS
 10
543.2141867012
 20
31.0673669025
 11
542.9251239807
 21
31.0673669025
  0
LINE
  8
0
 62
7
  6
CONTINUOUS
 10
535.2360615358
 20
31.1318942979
 11
534.9469989807
 21
31.1318942979
  0
LINE
  8
0
 62
7
  6
CONTINUOUS
 10
534.3110615082
 20
31.7126406987
 11
534.7157489531
 21
31.6803770123
  0
LINE
  8
0
 62
7
  6
CONTINUOUS
 10
534.7735614807
 20
31.809431758
 11
534.3688739531
 21
31.8416954444
  0
LINE
  8
0
 62
7
  6
CONTINUOUS
 10
543.3876242012
 20
30.8415210777
 11
543.7344992012
 21
30.8092573885
  0
LINE
  8
0
 62
7
  6
CONTINUOUS
 10
543.7344992012
 20
30.9383121455
 11
543.3876242012
 21
30.9705758432
  0
LINE
  8
0
 62
7
  6
CONTINUOUS
 10
539.1673112601
 20
31.809431758
 11
538.8204365909
 21
31.8416954444
  0
LINE
  8
0
 62
7
  6
CONTINUOUS
 10
543.9657489807
 20
31.7126406987
 11
544.3126239807
 21
31.6803770123
  0
LINE
  8
0
 62
7
  6
CONTINUOUS
 10
544.3126239807
 20
31.809431758
 11
543.9657489807
 21
31.8416954444
  0
LINE
  8
0
 62
7
  6
CONTINUOUS
 10
541.6532492012
 20
31.7126406987
 11
541.8844989807
 21
31.6803770123
  0
LINE
  8
0
 62
7
  6
CONTINUOUS
 10
544.4860614807
 20
31.7771680715
 11
544.3126239807
 21
31.809431758
  0
LINE
  8
0
 62
7
  6
CONTINUOUS
 10
544.6594989807
 20
30.9060484591
 11
544.7751235396
 21
31.0028395296
  0
LINE
  8
0
 62
7
  6
CONTINUOUS
 10
539.1673112601
 20
31.0996306115
 11
538.9938737601
 21
31.0028395296
  0
LINE
  8
0
 62
7
  6
CONTINUOUS
 10
541.2485612601
 20
31.7449043851
 11
541.1329367012
 21
31.6803770123
  0
LINE
  8
0
 62
7
  6
CONTINUOUS
 10
541.1329367012
 20
31.5513222666
 11
541.2485612601
 21
31.6158496394
  0
LINE
  8
0
 62
7
  6
CONTINUOUS
 10
533.8485614944
 20
31.7771680715
 11
533.6751239738
 21
31.7126406987
  0
LINE
  8
0
 62
7
  6
CONTINUOUS
 10
536.2766863704
 20
31.809431758
 11
536.1032490358
 21
31.7449043851
  0
LINE
  8
0
 62
7
  6
CONTINUOUS
 10
536.1032490358
 20
31.6158496394
 11
536.2766863704
 21
31.6803770123
  0
LINE
  8
0
 62
7
  6
CONTINUOUS
 10
534.8891865358
 20
31.035103216
 11
534.7157489531
 21
30.9705758432
  0
LINE
  8
0
 62
7
  6
CONTINUOUS
 10
544.3126239807
 20
30.9705758432
 11
544.0813742012
 21
30.9383121455
  0
LINE
  8
0
 62
7
  6
CONTINUOUS
 10
538.7048113704
 20
30.8092573885
 11
538.9938737601
 21
30.8415210777
  0
LINE
  8
0
 62
7
  6
CONTINUOUS
 10
544.0813742012
 20
30.8092573885
 11
544.4282492012
 21
30.8415210777
  0
LINE
  8
0
 62
7
  6
CONTINUOUS
 10
534.3688739531
 20
30.8092573885
 11
534.7735614807
 21
30.8415210777
  0
LINE
  8
0
 62
7
  6
CONTINUOUS
 10
534.7157489531
 20
30.9705758432
 11
534.3110615082
 21
30.9383121455
  0
LINE
  8
0
 62
7
  6
CONTINUOUS
 10
538.5891864807
 20
31.3577401029
 11
539.2251242012
 21
31.3577401029
  0
LINE
  8
0
 62
7
  6
CONTINUOUS
 10
539.2251242012
 20
31.4867948937
 11
538.5891864807
 21
31.4867948937
  0
LINE
  8
0
 62
7
  6
CONTINUOUS
 10
534.9469989807
 20
31.5190585802
 11
535.2360615358
 21
31.5190585802
  0
LINE
  8
0
 62
7
  6
CONTINUOUS
 10
537.7798115909
 20
31.583585953
 11
538.0688739807
 21
31.583585953
  0
LINE
  8
0
 62
7
  6
CONTINUOUS
 10
544.4860614807
 20
31.583585953
 11
544.7751235396
 21
31.583585953
  0
LINE
  8
0
 62
7
  6
CONTINUOUS
 10
538.4735615909
 20
31.7126406987
 11
538.8204365909
 21
31.7126406987
  0
LINE
  8
0
 62
7
  6
CONTINUOUS
 10
543.6188739807
 20
31.7126406987
 11
543.9657489807
 21
31.7126406987
  0
LINE
  8
0
 62
7
  6
CONTINUOUS
 10
543.9657489807
 20
31.8416954444
 11
543.6188739807
 21
31.8416954444
  0
LINE
  8
0
 62
7
  6
CONTINUOUS
 10
541.8844989807
 20
31.8416954444
 11
541.6532492012
 21
31.8416954444
  0
LINE
  8
0
 62
7
  6
CONTINUOUS
 10
541.1329367012
 20
31.8416954444
 11
540.8438739807
 21
31.8416954444
  0
LINE
  8
0
 62
7
  6
CONTINUOUS
 10
540.3813737601
 20
31.8416954444
 11
540.0923117012
 21
31.8416954444
  0
LINE
  8
0
 62
7
  6
CONTINUOUS
 10
538.8204365909
 20
31.8416954444
 11
538.4735615909
 21
31.8416954444
  0
LINE
  8
0
 62
7
  6
CONTINUOUS
 10
536.7391865909
 20
31.8416954444
 11
536.5079364807
 21
31.8416954444
  0
LINE
  8
0
 62
7
  6
CONTINUOUS
 10
540.0923117012
 20
32.164332399
 11
540.3813737601
 21
32.164332399
  0
LINE
  8
0
 62
7
  6
CONTINUOUS
 10
540.3813737601
 20
32.3256508311
 11
540.0923117012
 21
32.3256508311
  0
LINE
  8
0
 62
7
  6
CONTINUOUS
 10
535.9876239807
 20
32.3256508311
 11
535.6985614255
 21
32.3256508311
  0
LINE
  8
0
 62
7
  6
CONTINUOUS
 10
535.025405743
 20
32.612536077
 11
535.4379770916
 21
32.612536077
  0
LINE
  8
0
 62
7
  6
CONTINUOUS
 10
536.6647500053
 20
32.612536077
 11
538.0581926282
 21
32.612536077
  0
LINE
  8
0
 62
7
  6
CONTINUOUS
 10
538.3860614807
 20
32.612536077
 11
539.7795041036
 21
32.612536077
  0
LINE
  8
0
 62
7
  6
CONTINUOUS
 10
541.6647500053
 20
32.612536077
 11
543.0581926282
 21
32.612536077
  0
LINE
  8
0
 62
7
  6
CONTINUOUS
 10
543.3860614807
 20
32.612536077
 11
544.7795041036
 21
32.612536077
  0
LINE
  8
0
 62
7
  6
CONTINUOUS
 10
541.4219987601
 20
31.809431758
 11
541.2485612601
 21
31.7449043851
  0
LINE
  8
0
 62
7
  6
CONTINUOUS
 10
538.9938737601
 20
30.8415210777
 11
539.1673112601
 21
30.9060484591
  0
LINE
  8
0
 62
7
  6
CONTINUOUS
 10
544.4282492012
 20
30.8415210777
 11
544.6594989807
 21
30.9060484591
  0
LINE
  8
0
 62
7
  6
CONTINUOUS
 10
544.4282492012
 20
31.0028395296
 11
544.3126239807
 21
30.9705758432
  0
LINE
  8
0
 62
7
  6
CONTINUOUS
 10
543.3876242012
 20
31.6803770123
 11
543.6188739807
 21
31.7126406987
  0
LINE
  8
0
 62
7
  6
CONTINUOUS
 10
541.4219987601
 20
31.6803770123
 11
541.6532492012
 21
31.7126406987
  0
LINE
  8
0
 62
7
  6
CONTINUOUS
 10
538.3579363704
 20
31.3254764164
 11
538.5891864807
 21
31.3577401029
  0
LINE
  8
0
 62
7
  6
CONTINUOUS
 10
541.6532492012
 20
31.8416954444
 11
541.4219987601
 21
31.809431758
  0
LINE
  8
0
 62
7
  6
CONTINUOUS
 10
538.2423114807
 20
31.6803770123
 11
538.4735615909
 21
31.7126406987
  0
LINE
  8
0
 62
7
  6
CONTINUOUS
 10
543.6188739807
 20
31.8416954444
 11
543.2719989807
 21
31.809431758
  0
LINE
  8
0
 62
7
  6
CONTINUOUS
 10
538.5891864807
 20
31.4867948937
 11
538.2423114807
 21
31.4545312073
  0
LINE
  8
0
 62
7
  6
CONTINUOUS
 10
534.3688739531
 20
31.8416954444
 11
534.0219989944
 21
31.809431758
  0
LINE
  8
0
 62
7
  6
CONTINUOUS
 10
538.4735615909
 20
31.8416954444
 11
538.0688739807
 21
31.809431758
  0
LINE
  8
0
 62
7
  6
CONTINUOUS
 10
535.8450778741
 20
33.7600770606
 11
535.1893401692
 21
33.7600770606
  0
LINE
  8
0
 62
7
  6
CONTINUOUS
 10
541.2485612601
 20
31.6158496394
 11
541.4219987601
 21
31.6803770123
  0
LINE
  8
0
 62
7
  6
CONTINUOUS
 10
543.2719989807
 20
31.6481133259
 11
543.3876242012
 21
31.6803770123
  0
LINE
  8
0
 62
7
  6
CONTINUOUS
 10
543.2719989807
 20
31.809431758
 11
543.0407492012
 21
31.7449043851
  0
LINE
  8
0
 62
7
  6
CONTINUOUS
 10
538.9938737601
 20
31.0028395296
 11
538.7048113704
 21
30.9383121455
  0
LINE
  8
0
 62
7
  6
CONTINUOUS
 10
536.2766863704
 20
31.6803770123
 11
536.5079364807
 21
31.7126406987
  0
LINE
  8
0
 62
7
  6
CONTINUOUS
 10
536.5079364807
 20
31.8416954444
 11
536.2766863704
 21
31.809431758
  0
LINE
  8
0
 62
7
  6
CONTINUOUS
 10
534.0798114807
 20
31.6803770123
 11
534.3110615082
 21
31.7126406987
  0
LINE
  8
0
 62
7
  6
CONTINUOUS
 10
540.5991762348
 20
35.2354868967
 11
541.2549139397
 21
35.2354868967
  0
LINE
  8
0
 62
7
  6
CONTINUOUS
 10
538.2423114807
 20
31.29321273
 11
538.3579363704
 21
31.3254764164
  0
LINE
  8
0
 62
7
  6
CONTINUOUS
 10
538.2423114807
 20
31.4545312073
 11
538.0110613704
 21
31.3900038345
  0
LINE
  8
0
 62
7
  6
CONTINUOUS
 10
538.1266865909
 20
31.6481133259
 11
538.2423114807
 21
31.6803770123
  0
LINE
  8
0
 62
7
  6
CONTINUOUS
 10
534.7735614807
 20
30.8415210777
 11
535.0048114255
 21
30.9060484591
  0
LINE
  8
0
 62
7
  6
CONTINUOUS
 10
538.0688739807
 20
31.809431758
 11
537.9532490909
 21
31.7771680715
  0
LINE
  8
0
 62
7
  6
CONTINUOUS
 10
534.0219989944
 20
31.809431758
 11
533.8485614944
 21
31.7771680715
  0
LINE
  8
0
 62
7
  6
CONTINUOUS
 10
544.7795041036
 20
36.3830278803
 11
543.3860614807
 21
36.3830278803
  0
LINE
  8
0
 62
7
  6
CONTINUOUS
 10
541.4188483659
 20
36.3830278803
 11
541.0062770173
 21
36.3830278803
  0
LINE
  8
0
 62
7
  6
CONTINUOUS
 10
539.7795041036
 20
36.3830278803
 11
538.3860614807
 21
36.3830278803
  0
LINE
  8
0
 62
7
  6
CONTINUOUS
 10
538.0581926282
 20
36.3830278803
 11
536.6647500053
 21
36.3830278803
  0
LINE
  8
0
 62
7
  6
CONTINUOUS
 10
534.7795041036
 20
36.3830278803
 11
533.3860614807
 21
36.3830278803
  0
LINE
  8
0
 62
7
  6
CONTINUOUS
 10
533.9641864669
 20
31.6481133259
 11
534.0798114807
 21
31.6803770123
  0
CIRCLE
  8
0
 62
7
  6
CONTINUOUS
 10
544.0827827921
 20
38.7190934541
 40
2.0901639344
  0
ARC
  8
0
 62
7
  6
CONTINUOUS
 10
535.025405743
 20
34.2518803393
 40
1.6393442623
 50
180.0
 51
270.0
  0
ARC
  8
0
 62
7
  6
CONTINUOUS
 10
541.4188483659
 20
34.743683618
 40
1.6393442623
 50
0.0
 51
90.0
  0
ARC
  8
0
 62
7
  6
CONTINUOUS
 10
535.4379770916
 20
34.0879459131
 40
1.4754098361
 50
270.0
 51
326.2510114041
  0
ARC
  8
0
 62
7
  6
CONTINUOUS
 10
541.0062770173
 20
34.9076180442
 40
1.4754098361
 50
90.0
 51
146.2510114041
  0
ARC
  8
0
 62
7
  6
CONTINUOUS
 10
535.8450778741
 20
34.5797491918
 40
0.8196721311
 50
270.0
 51
360.0
  0
ARC
  8
0
 62
7
  6
CONTINUOUS
 10
540.5991762348
 20
34.4158147655
 40
0.8196721311
 50
90.0
 51
180.0
  0
ARC
  8
0
 62
7
  6
CONTINUOUS
 10
535.1893401692
 20
34.1699131262
 40
0.4098360656
 50
180.0
 51
270.0
  0
ARC
  8
0
 62
7
  6
CONTINUOUS
 10
541.2549139397
 20
34.8256508311
 40
0.4098360656
 50
0.0
 51
90.0
  0
SOLID
  8
0
 62
7
  6
CONTINUOUS
 10
540.0923117012
 20
32.1643327593
 11
540.0923117012
 21
32.3256512429
 12
540.3813737601
 22
32.1643327593
 13
540.3813737601
 23
32.3256512429
  0
SOLID
  8
0
 62
7
  6
CONTINUOUS
 10
534.3688739531
 20
31.841695792
 11
534.7735614807
 21
31.8094316148
 12
534.0219989944
 22
31.8094316148
 13
534.0219989944
 23
31.8094316148
  0
SOLID
  8
0
 62
7
  6
CONTINUOUS
 10
533.8485614944
 20
31.7771687019
 11
534.0219989944
 21
31.8094316148
 12
534.7735614807
 22
31.8094316148
 13
534.7735614807
 23
31.8094316148
  0
SOLID
  8
0
 62
7
  6
CONTINUOUS
 10
534.7735614807
 20
31.8094316148
 11
535.0048114255
 21
31.7449043986
 12
533.8485614944
 22
31.7771687019
 13
533.8485614944
 23
31.7771687019
  0
SOLID
  8
0
 62
7
  6
CONTINUOUS
 10
533.6751239738
 20
31.712640202
 11
533.8485614944
 21
31.7771687019
 12
535.0048114255
 22
31.7449043986
 13
535.0048114255
 23
31.7449043986
  0
SOLID
  8
0
 62
7
  6
CONTINUOUS
 10
533.6751239738
 20
31.712640202
 11
535.0048114255
 21
31.7449043986
 12
534.3110615082
 22
31.712640202
 13
534.3110615082
 23
31.712640202
  0
SOLID
  8
0
 62
7
  6
CONTINUOUS
 10
534.3110615082
 20
31.712640202
 11
535.0048114255
 21
31.7449043986
 12
534.7157489531
 22
31.6803773084
 13
534.7157489531
 23
31.6803773084
  0
SOLID
  8
0
 62
7
  6
CONTINUOUS
 10
535.0048114255
 20
31.7449043986
 11
535.1782489255
 21
31.6481130052
 12
534.7157489531
 22
31.6803773084
 13
534.7157489531
 23
31.6803773084
  0
SOLID
  8
0
 62
7
  6
CONTINUOUS
 10
534.8891865358
 20
31.6158502183
 11
534.7157489531
 21
31.6803773084
 12
535.1782489255
 22
31.6481130052
 13
535.1782489255
 23
31.6481130052
  0
SOLID
  8
0
 62
7
  6
CONTINUOUS
 10
534.8891865358
 20
31.6158502183
 11
535.1782489255
 21
31.6481130052
 12
534.9469989807
 22
31.5190586669
 13
534.9469989807
 23
31.5190586669
  0
SOLID
  8
0
 62
7
  6
CONTINUOUS
 10
535.1782489255
 20
31.6481130052
 11
535.2360615358
 21
31.5190586669
 12
534.9469989807
 22
31.5190586669
 13
534.9469989807
 23
31.5190586669
  0
SOLID
  8
0
 62
7
  6
CONTINUOUS
 10
536.2766863704
 20
31.8094307377
 11
536.5079364807
 21
31.841695041
 12
536.7391865909
 22
31.841695041
 13
536.7391865909
 23
31.841695041
  0
SOLID
  8
0
 62
7
  6
CONTINUOUS
 10
536.7391865909
 20
31.841695041
 11
536.9126240909
 21
31.8094307377
 12
536.2766863704
 22
31.8094307377
 13
536.2766863704
 23
31.8094307377
  0
SOLID
  8
0
 62
7
  6
CONTINUOUS
 10
536.1032490358
 20
31.7449036475
 11
536.2766863704
 21
31.8094307377
 12
536.9126240909
 22
31.8094307377
 13
536.9126240909
 23
31.8094307377
  0
SOLID
  8
0
 62
7
  6
CONTINUOUS
 10
536.9126240909
 20
31.8094307377
 11
537.0860615909
 21
31.7449036475
 12
536.1032490358
 22
31.7449036475
 13
536.1032490358
 23
31.7449036475
  0
SOLID
  8
0
 62
7
  6
CONTINUOUS
 10
537.0860615909
 20
31.7449036475
 11
536.5079364807
 21
31.7126400953
 12
536.1032490358
 22
31.7449036475
 13
536.1032490358
 23
31.7449036475
  0
SOLID
  8
0
 62
7
  6
CONTINUOUS
 10
535.9876239807
 20
31.6803765574
 11
536.1032490358
 21
31.7449036475
 12
536.5079364807
 22
31.7126400953
 13
536.5079364807
 23
31.7126400953
  0
SOLID
  8
0
 62
7
  6
CONTINUOUS
 10
536.5079364807
 20
31.7126400953
 11
536.2766863704
 21
31.6803765574
 12
535.9876239807
 22
31.6803765574
 13
535.9876239807
 23
31.6803765574
  0
SOLID
  8
0
 62
7
  6
CONTINUOUS
 10
536.5079364807
 20
31.7126400953
 11
537.0860615909
 21
31.7449036475
 12
536.7391865909
 22
31.6803765574
 13
536.7391865909
 23
31.6803765574
  0
SOLID
  8
0
 62
7
  6
CONTINUOUS
 10
537.0860615909
 20
31.7449036475
 11
537.2016864807
 21
31.6803765574
 12
536.7391865909
 22
31.6803765574
 13
536.7391865909
 23
31.6803765574
  0
SOLID
  8
0
 62
7
  6
CONTINUOUS
 10
536.8548114807
 20
31.6481130052
 11
536.7391865909
 21
31.6803765574
 12
537.2016864807
 22
31.6803765574
 13
537.2016864807
 23
31.6803765574
  0
SOLID
  8
0
 62
7
  6
CONTINUOUS
 10
537.2016864807
 20
31.6803765574
 11
537.2594990909
 21
31.6158494672
 12
536.8548114807
 22
31.6481130052
 13
536.8548114807
 23
31.6481130052
  0
SOLID
  8
0
 62
7
  6
CONTINUOUS
 10
536.9704363704
 20
31.583585915
 11
536.8548114807
 21
31.6481130052
 12
537.2594990909
 22
31.6158494672
 13
537.2594990909
 23
31.6158494672
  0
SOLID
  8
0
 62
7
  6
CONTINUOUS
 10
536.9704363704
 20
31.583585915
 11
537.2594990909
 21
31.6158494672
 12
537.0282489807
 22
31.4545309836
 13
537.0282489807
 23
31.4545309836
  0
SOLID
  8
0
 62
7
  6
CONTINUOUS
 10
537.2594990909
 20
31.6158494672
 11
537.3173113704
 21
31.4545309836
 12
537.0282489807
 22
31.4545309836
 13
537.0282489807
 23
31.4545309836
  0
SOLID
  8
0
 62
7
  6
CONTINUOUS
 10
536.2766863704
 20
31.6803765574
 11
536.1032490358
 21
31.6158494672
 12
535.9876239807
 22
31.6803765574
 13
535.9876239807
 23
31.6803765574
  0
SOLID
  8
0
 62
7
  6
CONTINUOUS
 10
536.1032490358
 20
31.6158494672
 11
535.9876239807
 21
31.5513216117
 12
535.9876239807
 22
31.6803765574
 13
535.9876239807
 23
31.6803765574
  0
SOLID
  8
0
 62
7
  6
CONTINUOUS
 10
535.9876239807
 20
31.5513216117
 11
535.6985614255
 21
30.8092570492
 12
535.9876239807
 22
31.6803765574
 13
535.9876239807
 23
31.6803765574
  0
SOLID
  8
0
 62
7
  6
CONTINUOUS
 10
535.9876239807
 20
31.6803765574
 11
535.6985614255
 21
30.8092570492
 12
535.9876239807
 22
32.3256504918
 13
535.9876239807
 23
32.3256504918
  0
SOLID
  8
0
 62
7
  6
CONTINUOUS
 10
535.6985614255
 20
30.8092570492
 11
535.6985614255
 21
32.3256504918
 12
535.9876239807
 22
32.3256504918
 13
535.9876239807
 23
32.3256504918
  0
SOLID
  8
0
 62
7
  6
CONTINUOUS
 10
535.9876239807
 20
31.5513216117
 11
535.9876239807
 21
30.8092570492
 12
535.6985614255
 22
30.8092570492
 13
535.6985614255
 23
30.8092570492
  0
SOLID
  8
0
 62
7
  6
CONTINUOUS
 10
537.0282489807
 20
30.8092570492
 11
537.0282489807
 21
31.4545309836
 12
537.3173113704
 22
31.4545309836
 13
537.3173113704
 23
31.4545309836
  0
SOLID
  8
0
 62
7
  6
CONTINUOUS
 10
537.3173113704
 20
31.4545309836
 11
537.3173113704
 21
30.8092570492
 12
537.0282489807
 22
30.8092570492
 13
537.0282489807
 23
30.8092570492
  0
SOLID
  8
0
 62
7
  6
CONTINUOUS
 10
538.0688739807
 20
31.809431823
 11
538.4735615909
 21
31.8416958158
 12
538.8204365909
 22
31.8416958158
 13
538.8204365909
 23
31.8416958158
  0
SOLID
  8
0
 62
7
  6
CONTINUOUS
 10
538.8204365909
 20
31.8416958158
 11
539.1673112601
 21
31.809431823
 12
538.0688739807
 22
31.809431823
 13
538.0688739807
 23
31.809431823
  0
SOLID
  8
0
 62
7
  6
CONTINUOUS
 10
537.9532490909
 20
31.7771687019
 11
538.0688739807
 21
31.809431823
 12
539.1673112601
 22
31.809431823
 13
539.1673112601
 23
31.809431823
  0
SOLID
  8
0
 62
7
  6
CONTINUOUS
 10
539.1673112601
 20
31.809431823
 11
539.3407487601
 21
31.7449043986
 12
537.9532490909
 22
31.7771687019
 13
537.9532490909
 23
31.7771687019
  0
SOLID
  8
0
 62
7
  6
CONTINUOUS
 10
537.8376238704
 20
31.7126398448
 11
537.9532490909
 21
31.7771687019
 12
539.3407487601
 22
31.7449043986
 13
539.3407487601
 23
31.7449043986
  0
SOLID
  8
0
 62
7
  6
CONTINUOUS
 10
537.8376238704
 20
31.7126398448
 11
539.3407487601
 21
31.7449043986
 12
538.4735615909
 22
31.7126398448
 13
538.4735615909
 23
31.7126398448
  0
SOLID
  8
0
 62
7
  6
CONTINUOUS
 10
538.4735615909
 20
31.7126398448
 11
539.3407487601
 21
31.7449043986
 12
538.8204365909
 22
31.7126398448
 13
538.8204365909
 23
31.7126398448
  0
SOLID
  8
0
 62
7
  6
CONTINUOUS
 10
538.8204365909
 20
31.7126398448
 11
539.3407487601
 21
31.7449043986
 12
539.0516867012
 22
31.6803774007
 13
539.0516867012
 23
31.6803774007
  0
SOLID
  8
0
 62
7
  6
CONTINUOUS
 10
539.3407487601
 20
31.7449043986
 11
539.4563739807
 21
31.6803774007
 12
539.0516867012
 22
31.6803774007
 13
539.0516867012
 23
31.6803774007
  0
SOLID
  8
0
 62
7
  6
CONTINUOUS
 10
537.7798115909
 20
31.6481126336
 11
537.8376238704
 21
31.7126398448
 12
538.4735615909
 22
31.7126398448
 13
538.4735615909
 23
31.7126398448
  0
SOLID
  8
0
 62
7
  6
CONTINUOUS
 10
539.1673112601
 20
31.6481126336
 11
539.0516867012
 21
31.6803774007
 12
539.4563739807
 22
31.6803774007
 13
539.4563739807
 23
31.6803774007
  0
SOLID
  8
0
 62
7
  6
CONTINUOUS
 10
539.1673112601
 20
31.6481126336
 11
539.4563739807
 21
31.6803774007
 12
539.2251242012
 22
31.5835861968
 13
539.2251242012
 23
31.5835861968
  0
SOLID
  8
0
 62
7
  6
CONTINUOUS
 10
539.4563739807
 20
31.6803774007
 11
539.5141862601
 21
31.5835861968
 12
539.2251242012
 22
31.5835861968
 13
539.2251242012
 23
31.5835861968
  0
SOLID
  8
0
 62
7
  6
CONTINUOUS
 10
539.2251242012
 20
31.4867945216
 11
539.2251242012
 21
31.5835861968
 12
539.5141862601
 22
31.5835861968
 13
539.5141862601
 23
31.5835861968
  0
SOLID
  8
0
 62
7
  6
CONTINUOUS
 10
539.2251242012
 20
31.4867945216
 11
539.5141862601
 21
31.5835861968
 12
539.2251242012
 22
31.3577403412
 13
539.2251242012
 23
31.3577403412
  0
SOLID
  8
0
 62
7
  6
CONTINUOUS
 10
539.2251242012
 20
31.3577403412
 11
539.5141862601
 21
31.5835861968
 12
539.2251242012
 22
31.1641579843
 13
539.2251242012
 23
31.1641579843
  0
SOLID
  8
0
 62
7
  6
CONTINUOUS
 10
539.5141862601
 20
31.5835861968
 11
539.5141862601
 21
31.0673661609
 12
539.2251242012
 22
31.1641579843
 13
539.2251242012
 23
31.1641579843
  0
SOLID
  8
0
 62
7
  6
CONTINUOUS
 10
541.4219987601
 20
31.8094310465
 11
541.6532492012
 21
31.8416957661
 12
541.8844989807
 22
31.8416957661
 13
541.8844989807
 23
31.8416957661
  0
SOLID
  8
0
 62
7
  6
CONTINUOUS
 10
541.8844989807
 20
31.8416957661
 11
542.0579364807
 21
31.8094310465
 12
541.4219987601
 22
31.8094310465
 13
541.4219987601
 23
31.8094310465
  0
SOLID
  8
0
 62
7
  6
CONTINUOUS
 10
541.2485612601
 20
31.7449047044
 11
541.4219987601
 21
31.8094310465
 12
542.0579364807
 22
31.8094310465
 13
542.0579364807
 23
31.8094310465
  0
SOLID
  8
0
 62
7
  6
CONTINUOUS
 10
542.0579364807
 20
31.8094310465
 11
542.2313739807
 21
31.7449047044
 12
541.2485612601
 22
31.7449047044
 13
541.2485612601
 23
31.7449047044
  0
SOLID
  8
0
 62
7
  6
CONTINUOUS
 10
542.2313739807
 20
31.7449047044
 11
541.6532492012
 21
31.7126400953
 12
541.2485612601
 22
31.7449047044
 13
541.2485612601
 23
31.7449047044
  0
SOLID
  8
0
 62
7
  6
CONTINUOUS
 10
541.1329367012
 20
31.6803773299
 11
541.2485612601
 21
31.7449047044
 12
541.6532492012
 22
31.7126400953
 13
541.6532492012
 23
31.7126400953
  0
SOLID
  8
0
 62
7
  6
CONTINUOUS
 10
541.6532492012
 20
31.7126400953
 11
541.4219987601
 21
31.6803773299
 12
541.1329367012
 22
31.6803773299
 13
541.1329367012
 23
31.6803773299
  0
SOLID
  8
0
 62
7
  6
CONTINUOUS
 10
541.6532492012
 20
31.7126400953
 11
542.2313739807
 21
31.7449047044
 12
541.8844989807
 22
31.6803773299
 13
541.8844989807
 23
31.6803773299
  0
SOLID
  8
0
 62
7
  6
CONTINUOUS
 10
542.2313739807
 20
31.7449047044
 11
542.3469992012
 21
31.6803773299
 12
541.8844989807
 22
31.6803773299
 13
541.8844989807
 23
31.6803773299
  0
SOLID
  8
0
 62
7
  6
CONTINUOUS
 10
542.0001242012
 20
31.6481130052
 11
541.8844989807
 21
31.6803773299
 12
542.3469992012
 22
31.6803773299
 13
542.3469992012
 23
31.6803773299
  0
SOLID
  8
0
 62
7
  6
CONTINUOUS
 10
542.0001242012
 20
31.6481130052
 11
542.3469992012
 21
31.6803773299
 12
542.1157487601
 22
31.5835862682
 13
542.1157487601
 23
31.5835862682
  0
SOLID
  8
0
 62
7
  6
CONTINUOUS
 10
542.3469992012
 20
31.6803773299
 11
542.4048114807
 21
31.5835862682
 12
542.1157487601
 22
31.5835862682
 13
542.1157487601
 23
31.5835862682
  0
SOLID
  8
0
 62
7
  6
CONTINUOUS
 10
542.1735617012
 20
31.422267832
 11
542.1157487601
 21
31.5835862682
 12
542.4048114807
 22
31.5835862682
 13
542.4048114807
 23
31.5835862682
  0
SOLID
  8
0
 62
7
  6
CONTINUOUS
 10
542.4048114807
 20
31.5835862682
 11
542.4626237601
 21
31.422267832
 12
542.1735617012
 22
31.422267832
 13
542.1735617012
 23
31.422267832
  0
SOLID
  8
0
 62
7
  6
CONTINUOUS
 10
541.4219987601
 20
31.6803773299
 11
541.2485612601
 21
31.6158502183
 12
541.1329367012
 22
31.6803773299
 13
541.1329367012
 23
31.6803773299
  0
SOLID
  8
0
 62
7
  6
CONTINUOUS
 10
541.2485612601
 20
31.6158502183
 11
541.1329367012
 21
31.5513216117
 12
541.1329367012
 22
31.6803773299
 13
541.1329367012
 23
31.6803773299
  0
SOLID
  8
0
 62
7
  6
CONTINUOUS
 10
541.1329367012
 20
31.5513216117
 11
540.8438739807
 21
30.8092577743
 12
541.1329367012
 22
31.6803773299
 13
541.1329367012
 23
31.6803773299
  0
SOLID
  8
0
 62
7
  6
CONTINUOUS
 10
541.1329367012
 20
31.6803773299
 11
540.8438739807
 21
30.8092577743
 12
541.1329367012
 22
31.8416957661
 13
541.1329367012
 23
31.8416957661
  0
SOLID
  8
0
 62
7
  6
CONTINUOUS
 10
540.8438739807
 20
30.8092577743
 11
540.8438739807
 21
31.8416957661
 12
541.1329367012
 22
31.8416957661
 13
541.1329367012
 23
31.8416957661
  0
SOLID
  8
0
 62
7
  6
CONTINUOUS
 10
541.1329367012
 20
31.5513216117
 11
541.1329367012
 21
30.8092577743
 12
540.8438739807
 22
30.8092577743
 13
540.8438739807
 23
30.8092577743
  0
SOLID
  8
0
 62
7
  6
CONTINUOUS
 10
542.1735617012
 20
30.8092577743
 11
542.1735617012
 21
31.422267832
 12
542.4626237601
 22
31.422267832
 13
542.4626237601
 23
31.422267832
  0
SOLID
  8
0
 62
7
  6
CONTINUOUS
 10
542.4626237601
 20
31.422267832
 11
542.4626237601
 21
30.8092577743
 12
542.1735617012
 22
30.8092577743
 13
542.1735617012
 23
30.8092577743
  0
SOLID
  8
0
 62
7
  6
CONTINUOUS
 10
543.2719989807
 20
31.8094314924
 11
543.6188739807
 21
31.8416958387
 12
543.9657489807
 22
31.8416958387
 13
543.9657489807
 23
31.8416958387
  0
SOLID
  8
0
 62
7
  6
CONTINUOUS
 10
543.9657489807
 20
31.8416958387
 11
544.3126239807
 21
31.8094314924
 12
543.2719989807
 22
31.8094314924
 13
543.2719989807
 23
31.8094314924
  0
SOLID
  8
0
 62
7
  6
CONTINUOUS
 10
543.0407492012
 20
31.7449043986
 11
543.2719989807
 21
31.8094314924
 12
544.3126239807
 22
31.8094314924
 13
544.3126239807
 23
31.8094314924
  0
SOLID
  8
0
 62
7
  6
CONTINUOUS
 10
543.0407492012
 20
31.7449043986
 11
544.3126239807
 21
31.8094314888
 12
544.4860614807
 22
31.7771687019
 13
544.4860614807
 23
31.7771687019
  0
SOLID
  8
0
 62
7
  6
CONTINUOUS
 10
543.0407492012
 20
31.7449043986
 11
544.4860614807
 21
31.7771687019
 12
543.6188739807
 22
31.7126401399
 13
543.6188739807
 23
31.7126401399
  0
SOLID
  8
0
 62
7
  6
CONTINUOUS
 10
543.6188739807
 20
31.7126401399
 11
544.4860614807
 21
31.7771687019
 12
543.9657489807
 22
31.7126401399
 13
543.9657489807
 23
31.7126401399
  0
SOLID
  8
0
 62
7
  6
CONTINUOUS
 10
544.4860614807
 20
31.7771687019
 11
544.6594989807
 21
31.7126401399
 12
543.9657489807
 22
31.7126401399
 13
543.9657489807
 23
31.7126401399
  0
SOLID
  8
0
 62
7
  6
CONTINUOUS
 10
544.3126239807
 20
31.6803773084
 11
543.9657489807
 21
31.7126401399
 12
544.6594989807
 22
31.7126401399
 13
544.6594989807
 23
31.7126401399
  0
SOLID
  8
0
 62
7
  6
CONTINUOUS
 10
542.9251239807
 20
31.6481128977
 11
543.0407492012
 21
31.7449043986
 12
543.6188739807
 22
31.7126401399
 13
543.6188739807
 23
31.7126401399
  0
SOLID
  8
0
 62
7
  6
CONTINUOUS
 10
544.3126239807
 20
31.6803773084
 11
544.6594989807
 21
31.7126401399
 12
544.4282492012
 22
31.6481128977
 13
544.4282492012
 23
31.6481128977
  0
SOLID
  8
0
 62
7
  6
CONTINUOUS
 10
544.4282492012
 20
31.6481128977
 11
544.6594989807
 21
31.7126401399
 12
544.4860614807
 22
31.5835858812
 13
544.4860614807
 23
31.5835858812
  0
SOLID
  8
0
 62
7
  6
CONTINUOUS
 10
544.6594989807
 20
31.7126401399
 11
544.7751235396
 21
31.5835858812
 12
544.4860614807
 22
31.5835858812
 13
544.4860614807
 23
31.5835858812
  0
SOLID
  8
0
 62
7
  6
CONTINUOUS
 10
534.0798114807
 20
31.6803773084
 11
533.5594989807
 21
31.6481129264
 12
534.3110615082
 22
31.7126401456
 13
534.3110615082
 23
31.7126401456
  0
SOLID
  8
0
 62
7
  6
CONTINUOUS
 10
533.5594989807
 20
31.6481129264
 11
533.6751239738
 21
31.7126401456
 12
534.3110615082
 22
31.7126401456
 13
534.3110615082
 23
31.7126401456
  0
SOLID
  8
0
 62
7
  6
CONTINUOUS
 10
534.0798114807
 20
31.6803773084
 11
533.9641864669
 21
31.6481129264
 12
533.5594989807
 22
31.6481129264
 13
533.5594989807
 23
31.6481129264
  0
SOLID
  8
0
 62
7
  6
CONTINUOUS
 10
533.4438739824
 20
31.5190588248
 11
533.5594989807
 21
31.6481129264
 12
533.9641864669
 22
31.6481129264
 13
533.9641864669
 23
31.6481129264
  0
SOLID
  8
0
 62
7
  6
CONTINUOUS
 10
537.7798115909
 20
31.6481130555
 11
538.4735615909
 21
31.7126400953
 12
538.2423114807
 22
31.6803773084
 13
538.2423114807
 23
31.6803773084
  0
SOLID
  8
0
 62
7
  6
CONTINUOUS
 10
538.2423114807
 20
31.6803773084
 11
538.1266865909
 21
31.6481130555
 12
537.7798115909
 22
31.6481130555
 13
537.7798115909
 23
31.6481130555
  0
SOLID
  8
0
 62
7
  6
CONTINUOUS
 10
537.7798115909
 20
31.5835859653
 11
537.7798115909
 21
31.6481130555
 12
538.1266865909
 22
31.6481130555
 13
538.1266865909
 23
31.6481130555
  0
SOLID
  8
0
 62
7
  6
CONTINUOUS
 10
538.1266865909
 20
31.6481130555
 11
538.0688739807
 21
31.5835859653
 12
537.7798115909
 22
31.5835859653
 13
537.7798115909
 23
31.5835859653
  0
SOLID
  8
0
 62
7
  6
CONTINUOUS
 10
542.9251239807
 20
31.6481130555
 11
543.6188739807
 21
31.7126400953
 12
543.3876242012
 22
31.6803773084
 13
543.3876242012
 23
31.6803773084
  0
SOLID
  8
0
 62
7
  6
CONTINUOUS
 10
543.3876242012
 20
31.6803773084
 11
543.2719989807
 21
31.6481130555
 12
542.9251239807
 22
31.6481130555
 13
542.9251239807
 23
31.6481130555
  0
SOLID
  8
0
 62
7
  6
CONTINUOUS
 10
542.9251239807
 20
31.5835859653
 11
542.9251239807
 21
31.6481130555
 12
543.2719989807
 22
31.6481130555
 13
543.2719989807
 23
31.6481130555
  0
SOLID
  8
0
 62
7
  6
CONTINUOUS
 10
543.2719989807
 20
31.6481130555
 11
543.2141867012
 21
31.5835859653
 12
542.9251239807
 22
31.5835859653
 13
542.9251239807
 23
31.5835859653
  0
SOLID
  8
0
 62
7
  6
CONTINUOUS
 10
543.0407492012
 20
31.4545317347
 11
542.9251239807
 21
31.5835859653
 12
543.2141867012
 22
31.5835859653
 13
543.2141867012
 23
31.5835859653
  0
SOLID
  8
0
 62
7
  6
CONTINUOUS
 10
533.4438739824
 20
31.5190588248
 11
533.9641864669
 21
31.6481130052
 12
533.7907489669
 22
31.5513216117
 13
533.7907489669
 23
31.5513216117
  0
SOLID
  8
0
 62
7
  6
CONTINUOUS
 10
533.7907489669
 20
31.5513216117
 11
533.7329364807
 21
31.4867945216
 12
533.4438739824
 22
31.5190588248
 13
533.4438739824
 23
31.5190588248
  0
SOLID
  8
0
 62
7
  6
CONTINUOUS
 10
533.3860614807
 20
31.325476038
 11
533.4438739824
 21
31.5190588248
 12
533.7329364807
 22
31.4867945216
 13
533.7329364807
 23
31.4867945216
  0
SOLID
  8
0
 62
7
  6
CONTINUOUS
 10
538.2423114807
 20
31.4545317347
 11
538.5891864807
 21
31.4867945557
 12
539.2251242012
 22
31.4867945557
 13
539.2251242012
 23
31.4867945557
  0
SOLID
  8
0
 62
7
  6
CONTINUOUS
 10
538.2423114807
 20
31.4545317347
 11
539.2251242012
 21
31.4867945557
 12
538.0110613704
 22
31.3900038345
 13
538.0110613704
 23
31.3900038345
  0
SOLID
  8
0
 62
7
  6
CONTINUOUS
 10
538.0110613704
 20
31.3900038345
 11
539.2251242012
 21
31.4867945557
 12
538.5891864807
 22
31.3577403754
 13
538.5891864807
 23
31.3577403754
  0
SOLID
  8
0
 62
7
  6
CONTINUOUS
 10
539.2251242012
 20
31.4867945557
 11
539.2251242012
 21
31.3577403754
 12
538.5891864807
 22
31.3577403754
 13
538.5891864807
 23
31.3577403754
  0
SOLID
  8
0
 62
7
  6
CONTINUOUS
 10
543.0407492012
 20
31.4545313481
 11
543.2141867012
 21
31.583585915
 12
543.2719989807
 22
31.5190588248
 13
543.2719989807
 23
31.5190588248
  0
SOLID
  8
0
 62
7
  6
CONTINUOUS
 10
543.2719989807
 20
31.5190588248
 11
543.4454364807
 21
31.4545313481
 12
543.0407492012
 22
31.4545313481
 13
543.0407492012
 23
31.4545313481
  0
SOLID
  8
0
 62
7
  6
CONTINUOUS
 10
543.2719989807
 20
31.3577403412
 11
543.0407492012
 21
31.4545313481
 12
543.4454364807
 22
31.4545313481
 13
543.4454364807
 23
31.4545313481
  0
SOLID
  8
0
 62
7
  6
CONTINUOUS
 10
543.4454364807
 20
31.4545313481
 11
544.4282492012
 21
31.2932132511
 12
543.2719989807
 22
31.3577403412
 13
543.2719989807
 23
31.3577403412
  0
SOLID
  8
0
 62
7
  6
CONTINUOUS
 10
544.2548117012
 20
31.1964222346
 11
543.2719989807
 21
31.3577403412
 12
544.4282492012
 22
31.2932132511
 13
544.4282492012
 23
31.2932132511
  0
SOLID
  8
0
 62
7
  6
CONTINUOUS
 10
544.4282492012
 20
31.2932132511
 11
544.6594989807
 21
31.1964222346
 12
544.2548117012
 22
31.1964222346
 13
544.2548117012
 23
31.1964222346
  0
SOLID
  8
0
 62
7
  6
CONTINUOUS
 10
544.4282492012
 20
31.1318947675
 11
544.2548117012
 21
31.1964222346
 12
544.6594989807
 22
31.1964222346
 13
544.6594989807
 23
31.1964222346
  0
SOLID
  8
0
 62
7
  6
CONTINUOUS
 10
544.4282492012
 20
31.1318947675
 11
544.6594989807
 21
31.1964222346
 12
544.4860614807
 22
31.0673665164
 13
544.4860614807
 23
31.0673665164
  0
SOLID
  8
0
 62
7
  6
CONTINUOUS
 10
544.6594989807
 20
31.1964222346
 11
544.7751235396
 21
31.0673665164
 12
544.4860614807
 22
31.0673665164
 13
544.4860614807
 23
31.0673665164
  0
SOLID
  8
0
 62
7
  6
CONTINUOUS
 10
544.4282492012
 20
31.0028394316
 11
544.4860614807
 21
31.0673665164
 12
544.7751235396
 22
31.0673665164
 13
544.7751235396
 23
31.0673665164
  0
SOLID
  8
0
 62
7
  6
CONTINUOUS
 10
544.7751235396
 20
31.0673665164
 11
544.7751235396
 21
31.0028394316
 12
544.4282492012
 22
31.0028394316
 13
544.4282492012
 23
31.0028394316
  0
SOLID
  8
0
 62
7
  6
CONTINUOUS
 10
544.3126239807
 20
30.9705762839
 11
544.4282492012
 21
31.0028394316
 12
544.7751235396
 22
31.0028394316
 13
544.7751235396
 23
31.0028394316
  0
SOLID
  8
0
 62
7
  6
CONTINUOUS
 10
544.3126239807
 20
30.9705762839
 11
544.7751235396
 21
31.0028394316
 12
544.0813742012
 22
30.9383123468
 13
544.0813742012
 23
30.9383123468
  0
SOLID
  8
0
 62
7
  6
CONTINUOUS
 10
544.7751235396
 20
31.0028394316
 11
544.6594989807
 21
30.9060491937
 12
544.0813742012
 22
30.9383123468
 13
544.0813742012
 23
30.9383123468
  0
SOLID
  8
0
 62
7
  6
CONTINUOUS
 10
544.6594989807
 20
30.9060491937
 11
543.2141867012
 21
30.8737848904
 12
544.0813742012
 22
30.9383123468
 13
544.0813742012
 23
30.9383123468
  0
SOLID
  8
0
 62
7
  6
CONTINUOUS
 10
544.0813742012
 20
30.9383123468
 11
543.2141867012
 21
30.8737848904
 12
543.7344992012
 22
30.9383123468
 13
543.7344992012
 23
30.9383123468
  0
SOLID
  8
0
 62
7
  6
CONTINUOUS
 10
543.2141867012
 20
30.8737848904
 11
543.0407492012
 21
30.9383123468
 12
543.7344992012
 22
30.9383123468
 13
543.7344992012
 23
30.9383123468
  0
SOLID
  8
0
 62
7
  6
CONTINUOUS
 10
543.2141867012
 20
30.8737848904
 11
544.6594989807
 21
30.9060491937
 12
543.3876242012
 22
30.8415205581
 13
543.3876242012
 23
30.8415205581
  0
SOLID
  8
0
 62
7
  6
CONTINUOUS
 10
544.6594989807
 20
30.9060491937
 11
544.4282492012
 21
30.8415205581
 12
543.3876242012
 22
30.8415205581
 13
543.3876242012
 23
30.8415205581
  0
SOLID
  8
0
 62
7
  6
CONTINUOUS
 10
543.7344992012
 20
30.8092581772
 11
543.3876242012
 21
30.8415205581
 12
544.4282492012
 22
30.8415205581
 13
544.4282492012
 23
30.8415205581
  0
SOLID
  8
0
 62
7
  6
CONTINUOUS
 10
544.4282492012
 20
30.8415205581
 11
544.0813742012
 21
30.8092581772
 12
543.7344992012
 22
30.8092581772
 13
543.7344992012
 23
30.8092581772
  0
SOLID
  8
0
 62
7
  6
CONTINUOUS
 10
533.3860614807
 20
31.325476038
 11
533.7329364807
 21
31.4867945216
 12
533.6751239738
 22
31.3577403412
 13
533.6751239738
 23
31.3577403412
  0
SOLID
  8
0
 62
7
  6
CONTINUOUS
 10
533.6751239738
 20
31.3577403412
 11
533.6751239738
 21
31.2609490436
 12
533.3860614807
 22
31.325476038
 13
533.3860614807
 23
31.325476038
  0
SOLID
  8
0
 62
7
  6
CONTINUOUS
 10
533.4438739824
 20
31.1318947675
 11
533.3860614807
 21
31.325476038
 12
533.6751239738
 22
31.2609490436
 13
533.6751239738
 23
31.2609490436
  0
SOLID
  8
0
 62
7
  6
CONTINUOUS
 10
533.6751239738
 20
31.2609490436
 11
533.7907489669
 21
31.0996304642
 12
533.4438739824
 22
31.1318947675
 13
533.4438739824
 23
31.1318947675
  0
SOLID
  8
0
 62
7
  6
CONTINUOUS
 10
533.5594989807
 20
31.0028388804
 11
533.4438739824
 21
31.1318947675
 12
533.7907489669
 22
31.0996304642
 13
533.7907489669
 23
31.0996304642
  0
SOLID
  8
0
 62
7
  6
CONTINUOUS
 10
533.7907489669
 20
31.0996304642
 11
533.9641864669
 21
31.0028388804
 12
533.5594989807
 22
31.0028388804
 13
533.5594989807
 23
31.0028388804
  0
SOLID
  8
0
 62
7
  6
CONTINUOUS
 10
533.6751239738
 20
30.9383122606
 11
533.5594989807
 21
31.0028388804
 12
533.9641864669
 22
31.0028388804
 13
533.9641864669
 23
31.0028388804
  0
SOLID
  8
0
 62
7
  6
CONTINUOUS
 10
533.9641864669
 20
31.0028388804
 11
534.3110615082
 21
30.9383122606
 12
533.6751239738
 22
30.9383122606
 13
533.6751239738
 23
30.9383122606
  0
SOLID
  8
0
 62
7
  6
CONTINUOUS
 10
533.8485614944
 20
30.8737848904
 11
533.6751239738
 21
30.9383122606
 12
534.3110615082
 22
30.9383122606
 13
534.3110615082
 23
30.9383122606
  0
SOLID
  8
0
 62
7
  6
CONTINUOUS
 10
537.8954364807
 20
31.3254759532
 11
538.0110613704
 21
31.3900038345
 12
538.5891864807
 22
31.3577403412
 13
538.5891864807
 23
31.3577403412
  0
SOLID
  8
0
 62
7
  6
CONTINUOUS
 10
538.5891864807
 20
31.3577403412
 11
538.3579363704
 21
31.3254759532
 12
537.8954364807
 22
31.3254759532
 13
537.8954364807
 23
31.3254759532
  0
SOLID
  8
0
 62
7
  6
CONTINUOUS
 10
537.7798115909
 20
31.1964218576
 11
537.8954364807
 21
31.3254759532
 12
538.3579363704
 22
31.3254759532
 13
538.3579363704
 23
31.3254759532
  0
SOLID
  8
0
 62
7
  6
CONTINUOUS
 10
538.1266865909
 20
31.2286853572
 11
537.7798115909
 21
31.1964218576
 12
538.2423114807
 22
31.2932132511
 13
538.2423114807
 23
31.2932132511
  0
SOLID
  8
0
 62
7
  6
CONTINUOUS
 10
537.7798115909
 20
31.1964218576
 11
538.3579363704
 21
31.325476038
 12
538.2423114807
 22
31.2932132511
 13
538.2423114807
 23
31.2932132511
  0
SOLID
  8
0
 62
7
  6
CONTINUOUS
 10
538.1266865909
 20
31.2286853572
 11
538.0688739807
 21
31.1318947675
 12
537.7798115909
 22
31.1964218576
 13
537.7798115909
 23
31.1964218576
  0
SOLID
  8
0
 62
7
  6
CONTINUOUS
 10
537.7798115909
 20
31.0996304642
 11
537.7798115909
 21
31.1964218576
 12
538.0688739807
 22
31.1318947675
 13
538.0688739807
 23
31.1318947675
  0
SOLID
  8
0
 62
7
  6
CONTINUOUS
 10
538.0688739807
 20
31.1318947675
 11
538.0688739807
 21
31.0673661609
 12
537.7798115909
 22
31.0996304642
 13
537.7798115909
 23
31.0996304642
  0
SOLID
  8
0
 62
7
  6
CONTINUOUS
 10
537.8376238704
 20
30.9705762839
 11
537.7798115909
 21
31.0996304642
 12
538.0688739807
 22
31.0673661609
 13
538.0688739807
 23
31.0673661609
  0
SOLID
  8
0
 62
7
  6
CONTINUOUS
 10
539.2251242012
 20
31.1641579843
 11
539.5141862601
 21
31.0673661609
 12
539.1673112601
 22
31.0996304642
 13
539.1673112601
 23
31.0996304642
  0
SOLID
  8
0
 62
7
  6
CONTINUOUS
 10
538.9938737601
 20
31.0028390707
 11
539.1673112601
 21
31.0996304642
 12
539.5141862601
 22
31.0673661609
 13
539.5141862601
 23
31.0673661609
  0
SOLID
  8
0
 62
7
  6
CONTINUOUS
 10
538.9938737601
 20
31.0028390707
 11
539.5141862601
 21
31.0673661609
 12
539.2251242012
 22
30.9705762839
 13
539.2251242012
 23
30.9705762839
  0
SOLID
  8
0
 62
7
  6
CONTINUOUS
 10
539.5141862601
 20
31.0673661609
 11
539.5719992012
 21
30.9060491937
 12
539.2251242012
 22
30.9705762839
 13
539.2251242012
 23
30.9705762839
  0
SOLID
  8
0
 62
7
  6
CONTINUOUS
 10
539.2829364807
 20
30.8737848904
 11
539.2251242012
 21
30.9705762839
 12
539.5719992012
 22
30.9060491937
 13
539.5719992012
 23
30.9060491937
  0
SOLID
  8
0
 62
7
  6
CONTINUOUS
 10
539.2829364807
 20
30.8737848904
 11
539.5719992012
 21
30.9060491937
 12
539.3407487601
 22
30.8092576254
 13
539.3407487601
 23
30.8092576254
  0
SOLID
  8
0
 62
7
  6
CONTINUOUS
 10
539.5719992012
 20
30.9060491937
 11
539.6298114807
 21
30.8092576254
 12
539.3407487601
 22
30.8092576254
 13
539.3407487601
 23
30.8092576254
  0
SOLID
  8
0
 62
7
  6
CONTINUOUS
 10
534.8891865358
 20
31.035103216
 11
534.9469989807
 21
31.1318946289
 12
535.2360615358
 22
31.1318946289
 13
535.2360615358
 23
31.1318946289
  0
SOLID
  8
0
 62
7
  6
CONTINUOUS
 10
535.2360615358
 20
31.1318946289
 11
535.1782489255
 21
31.0028390707
 12
534.8891865358
 22
31.035103216
 13
534.8891865358
 23
31.035103216
  0
SOLID
  8
0
 62
7
  6
CONTINUOUS
 10
534.7157489531
 20
30.9705762839
 11
534.8891865358
 21
31.035103216
 12
535.1782489255
 22
31.0028390707
 13
535.1782489255
 23
31.0028390707
  0
SOLID
  8
0
 62
7
  6
CONTINUOUS
 10
534.7157489531
 20
30.9705762839
 11
535.1782489255
 21
31.0028390707
 12
534.3110615082
 22
30.9383119806
 13
534.3110615082
 23
30.9383119806
  0
SOLID
  8
0
 62
7
  6
CONTINUOUS
 10
535.1782489255
 20
31.0028390707
 11
535.0048114255
 21
30.9060491937
 12
534.3110615082
 22
30.9383119806
 13
534.3110615082
 23
30.9383119806
  0
SOLID
  8
0
 62
7
  6
CONTINUOUS
 10
533.8485614944
 20
30.8737848904
 11
534.3110615082
 21
30.9383119806
 12
535.0048114255
 22
30.9060491937
 13
535.0048114255
 23
30.9060491937
  0
SOLID
  8
0
 62
7
  6
CONTINUOUS
 10
533.8485614944
 20
30.8737848904
 11
535.0048114255
 21
30.9060491937
 12
534.0219989944
 22
30.8415207131
 13
534.0219989944
 23
30.8415207131
  0
SOLID
  8
0
 62
7
  6
CONTINUOUS
 10
535.0048114255
 20
30.9060491937
 11
534.7735614807
 21
30.8415207131
 12
534.0219989944
 22
30.8415207131
 13
534.0219989944
 23
30.8415207131
  0
SOLID
  8
0
 62
7
  6
CONTINUOUS
 10
534.3688739531
 20
30.8092578002
 11
534.0219989944
 21
30.8415207131
 12
534.7735614807
 22
30.8415207131
 13
534.7735614807
 23
30.8415207131
  0
SOLID
  8
0
 62
7
  6
CONTINUOUS
 10
537.8376238704
 20
30.9705762839
 11
538.0688739807
 21
31.0673661609
 12
538.1266865909
 22
31.0028390707
 13
538.1266865909
 23
31.0028390707
  0
SOLID
  8
0
 62
7
  6
CONTINUOUS
 10
538.1266865909
 20
31.0028390707
 11
538.3579363704
 21
30.9383119806
 12
537.8376238704
 22
30.9705762839
 13
537.8376238704
 23
30.9705762839
  0
SOLID
  8
0
 62
7
  6
CONTINUOUS
 10
538.0110613704
 20
30.8737848904
 11
537.8376238704
 21
30.9705762839
 12
538.3579363704
 22
30.9383119806
 13
538.3579363704
 23
30.9383119806
  0
SOLID
  8
0
 62
7
  6
CONTINUOUS
 10
538.7048113704
 20
30.9383119664
 11
538.9938737601
 21
31.0028390707
 12
539.2251242012
 22
30.9705762839
 13
539.2251242012
 23
30.9705762839
  0
SOLID
  8
0
 62
7
  6
CONTINUOUS
 10
539.2251242012
 20
30.9705762839
 11
539.1673112601
 21
30.9060491937
 12
538.7048113704
 22
30.9383119664
 13
538.7048113704
 23
30.9383119664
  0
SOLID
  8
0
 62
7
  6
CONTINUOUS
 10
539.1673112601
 20
30.9060491937
 11
538.0110613704
 21
30.8737848904
 12
538.7048113704
 22
30.9383119664
 13
538.7048113704
 23
30.9383119664
  0
SOLID
  8
0
 62
7
  6
CONTINUOUS
 10
538.0110613704
 20
30.8737848904
 11
538.3579363704
 21
30.9383119664
 12
538.7048113704
 22
30.9383119664
 13
538.7048113704
 23
30.9383119664
  0
SOLID
  8
0
 62
7
  6
CONTINUOUS
 10
538.0110613704
 20
30.8737848904
 11
539.1673112601
 21
30.9060491937
 12
538.1266865909
 22
30.8415205568
 13
538.1266865909
 23
30.8415205568
  0
SOLID
  8
0
 62
7
  6
CONTINUOUS
 10
539.1673112601
 20
30.9060491937
 11
538.9938737601
 21
30.8415205568
 12
538.1266865909
 22
30.8415205568
 13
538.1266865909
 23
30.8415205568
  0
SOLID
  8
0
 62
7
  6
CONTINUOUS
 10
538.3579363704
 20
30.8092577215
 11
538.1266865909
 21
30.8415205568
 12
538.9938737601
 22
30.8415205568
 13
538.9938737601
 23
30.8415205568
  0
SOLID
  8
0
 62
7
  6
CONTINUOUS
 10
538.9938737601
 20
30.8415205568
 11
538.7048113704
 21
30.8092577215
 12
538.3579363704
 22
30.8092577215
 13
538.3579363704
 23
30.8092577215
  0
SOLID
  8
0
 62
7
  6
CONTINUOUS
 10
543.3876242012
 20
30.9705762839
 11
543.0407492012
 21
30.9383119664
 12
543.2719989807
 22
31.0028390707
 13
543.2719989807
 23
31.0028390707
  0
SOLID
  8
0
 62
7
  6
CONTINUOUS
 10
543.2719989807
 20
31.0028390707
 11
543.0407492012
 21
30.9383119664
 12
543.2141867012
 22
31.0673661467
 13
543.2141867012
 23
31.0673661467
  0
SOLID
  8
0
 62
7
  6
CONTINUOUS
 10
543.0407492012
 20
30.9383119664
 11
542.9251239807
 21
31.0673661467
 12
543.2141867012
 22
31.0673661467
 13
543.2141867012
 23
31.0673661467
  0
SOLID
  8
0
 62
7
  6
CONTINUOUS
 10
543.3876242012
 20
30.9705762839
 11
543.7344992012
 21
30.9383119664
 12
543.0407492012
 22
30.9383119664
 13
543.0407492012
 23
30.9383119664
  0
SOLID
  8
0
 62
7
  6
CONTINUOUS
 10
540.0923117012
 20
30.8092578002
 11
540.0923117012
 21
31.841695792
 12
540.3813737601
 22
30.8092578002
 13
540.3813737601
 23
31.841695792
  0
ENDBLK
  8
0
  6
BYBLOCK
 62
0
  0
BLOCK
  8
0
 62
2
  6
CONTINUOUS
  2
SYMBOL_2_BL0
 70
64
 10
416.1419631151
 20
19.7009994242
  0
TEXT
  8
0
 62
7
  6
CONTINUOUS
 10
402.4066669574
 20
19.0744135318
  7
TEXTSTYLE_3
 40
2.7338706658
  1
Ammeraal Beltech
 41
1.0
 51
15.0
 72
0
  0
TEXT
  8
0
 62
7
  6
CONTINUOUS
 10
413.2074677831
 20
16.800876859
  7
TEXTSTYLE_4
 40
1.0935482663
  1
Innovation & Service in Belting
 41
1.0
 72
0
  0
LINE
  8
0
 62
7
  6
CONTINUOUS
 10
396.382126306
 20
19.8410068404
 11
397.1602782994
 21
23.5019241381
  0
LINE
  8
0
 62
7
  6
CONTINUOUS
 10
407.2554465892
 20
27.1653180497
 11
397.6480960424
 21
24.0437006284
  0
LINE
  8
0
 62
7
  6
CONTINUOUS
 10
396.6074096383
 20
19.1476560374
 11
404.1144848995
 21
12.3882551114
  0
LINE
  8
0
 62
7
  6
CONTINUOUS
 10
396.869944049
 20
20.3827833308
 11
407.6782134142
 21
23.8946029297
  0
LINE
  8
0
 62
7
  6
CONTINUOUS
 10
407.674008277
 20
13.544814366
 11
399.2285486083
 21
21.1491404077
  0
LINE
  8
0
 62
7
  6
CONTINUOUS
 10
408.1938309968
 20
26.320392934
 11
407.2172714596
 21
21.7260415315
  0
LINE
  8
0
 62
7
  6
CONTINUOUS
 10
406.5174695119
 20
18.4337322177
 11
405.8310213004
 21
15.2042472933
  0
LINE
  8
0
 62
7
  6
CONTINUOUS
 10
408.8749270954
 20
13.9350165436
 11
409.831158631
 21
18.4337322177
  0
LINE
  8
0
 62
7
  6
CONTINUOUS
 10
410.5309605787
 20
21.7260415315
 11
410.9752023811
 21
23.8160348909
  0
LINE
  8
0
 62
7
  6
CONTINUOUS
 10
404.8275859748
 20
12.2366807987
 11
408.3871093524
 21
13.3932400533
  0
LINE
  8
0
 62
7
  6
CONTINUOUS
 10
407.9685476645
 20
27.013743737
 11
410.7499190488
 21
24.5093856939
  0
ARC
  8
0
 62
7
  6
CONTINUOUS
 10
397.8733793747
 20
23.3503498254
 40
0.7290321776
 50
108.0
 51
168.0
  0
ARC
  8
0
 62
7
  6
CONTINUOUS
 10
407.4807299215
 20
26.4719672466
 40
0.7290321776
 50
348.0
 51
108.0
  0
ARC
  8
0
 62
7
  6
CONTINUOUS
 10
410.2621013058
 20
23.9676092036
 40
0.7290321776
 50
348.0
 51
48.0
  0
ARC
  8
0
 62
7
  6
CONTINUOUS
 10
404.6023026425
 20
12.9300316018
 40
0.7290321776
 50
228.0
 51
288.0
  0
ARC
  8
0
 62
7
  6
CONTINUOUS
 10
397.0952273813
 20
19.6894325277
 40
0.7290321776
 50
108.0
 51
228.0
  0
ARC
  8
0
 62
7
  6
CONTINUOUS
 10
408.1618260201
 20
14.0865908563
 40
0.7290321776
 50
228.0
 51
348.0
  0
ENDBLK
  8
0
  6
BYBLOCK
 62
0
  0
ENDSEC
  0
SECTION
  2
ENTITIES
  0
TEXT
  8
0
 62
5
  6
CONTINUOUS
 10
480.0
 20
25.636
  7
TEXTSTYLE_2
 40
2.8
  1
Scale :
 41
0.6
 51
0.000019
 72
0
  0
TEXT
  8
0
 62
5
  6
CONTINUOUS
 10
500.0
 20
25.636
  7
TEXTSTYLE_2
 40
2.8
  1
Belt type:
 41
0.6
 51
0.000019
 72
0
  0
INSERT
  8
0
 62
2
  6
CONTINUOUS
  2
SYMBOL_2_BL0
 10
416.1419631151
 20
19.7009994242
  0
INSERT
  8
0
 62
2
  6
CONTINUOUS
  2
SYMBOL_3_BL1
 10
557.4079930916
 20
35.8092573885
  0
LINE
  8
0
 62
2
  6
CONTINUOUS
 10
394.0
 20
30.0
 11
584.0
 21
30.0
  0
LINE
  8
0
 62
2
  6
CONTINUOUS
 10
394.0
 20
30.0
 11
394.0
 21
10.0
  0
LINE
  8
0
 62
2
  6
CONTINUOUS
 10
394.0
 20
10.0
 11
584.0
 21
10.0
  0
LINE
  8
0
 62
2
  6
CONTINUOUS
 10
479.0
 20
30.0
 11
479.0
 21
10.0
  0
LINE
  8
0
 62
2
  6
CONTINUOUS
 10
499.0
 20
30.0
 11
499.0
 21
10.0
  0
LINE
  8
0
 62
2
  6
CONTINUOUS
 10
584.0
 20
30.0
 11
584.0
 21
10.0
  0
TEXT
  8
0
 62
5
  6
CONTINUOUS
 10
397.0
 20
23.303
  7
TEXTSTYLE_5
 40
1.52
  1
                                                                     Ammeraal Beltech Modular A/S
 41
1.0
 72
0
  0
TEXT
  8
0
 62
5
  6
CONTINUOUS
 10
397.0
 20
20.595
  7
TEXTSTYLE_5
 40
1.5
  1
                                                                      Hjulmagervej 21, 7100 Vejle,  DK
 41
1.0
 72
0
  0
TEXT
  8
0
 62
5
  6
CONTINUOUS
 10
397.0
 20
17.881
  7
TEXTSTYLE_5
 40
1.495
  1
                                                                      tel: 
 41
1.0
 72
0
  0
TEXT
  8
0
 62
5
  6
CONTINUOUS
 10
441.9869465649
 20
17.881
  7
TEXTSTYLE_5
 40
1.51
  1
+45 75723100     fax: +45 75723348
 41
1.0
 72
0
  0
TEXT
  8
0
 62
5
  6
CONTINUOUS
 10
397.0
 20
15.177
  7
TEXTSTYLE_5
 40
1.5
  1
                                                                      admin@unichains.dk  www.unichains.com
 41
1.0
 72
0
  0
TEXT
  8
0
 62
5
  6
CONTINUOUS
 10
483.75
 20
13.75
  7
TEXTSTYLE_6
 40
5.0
  1
1:1
 41
0.7
 72
1
 11
489.0
 21
13.75
  0
TEXT
  8
0
 62
5
  6
CONTINUOUS
 10
502.0
 20
13.75
  7
TEXTSTYLE_7
 40
7.5
  1
Sprocket Z16 60X60SQ
 41
0.51375
 72
0
  0
LINE
  8
0
 62
7
  6
CONTINUOUS
 10
0.0
 20
0.0
 11
0.0
 21
420.0
  0
LINE
  8
0
 62
7
  6
CONTINUOUS
 10
10.0
 20
10.0
 11
10.0
 21
410.0
  0
LINE
  8
0
 62
7
  6
CONTINUOUS
 10
0.0
 20
0.0
 11
594.0
 21
0.0
  0
LINE
  8
0
 62
7
  6
CONTINUOUS
 10
10.0
 20
10.0
 11
584.0
 21
10.0
  0
LINE
  8
0
 62
7
  6
CONTINUOUS
 10
394.0
 20
30.0
 11
584.0
 21
30.0
  0
LINE
  8
0
 62
7
  6
CONTINUOUS
 10
179.0
 20
5.0
 11
179.0
 21
10.0
  0
LINE
  8
0
 62
7
  6
CONTINUOUS
 10
179.0
 20
410.0
 11
179.0
 21
415.0
  0
LINE
  8
0
 62
7
  6
CONTINUOUS
 10
594.0
 20
420.0
 11
584.0
 21
410.0
  0
LINE
  8
0
 62
7
  6
CONTINUOUS
 10
384.0
 20
410.0
 11
384.0
 21
415.0
  0
LINE
  8
0
 62
7
  6
CONTINUOUS
 10
584.0
 20
297.0
 11
589.0
 21
297.0
  0
LINE
  8
0
 62
7
  6
CONTINUOUS
 10
10.0
 20
410.0
 11
584.0
 21
410.0
  0
LINE
  8
0
 62
7
  6
CONTINUOUS
 10
0.0
 20
420.0
 11
594.0
 21
420.0
  0
LINE
  8
0
 62
7
  6
CONTINUOUS
 10
584.0
 20
10.0
 11
584.0
 21
410.0
  0
LINE
  8
0
 62
7
  6
CONTINUOUS
 10
594.0
 20
0.0
 11
594.0
 21
420.0
  0
LINE
  8
0
 62
7
  6
CONTINUOUS
 10
75.17155871
 20
178.6280529648
 11
75.1806023652
 21
178.5440128573
  0
POLYLINE
  8
0
 62
7
  6
CONTINUOUS
 66
1
 70
0
  0
VERTEX
  8
0
 62
7
  6
CONTINUOUS
 10
68.1534005319
 20
227.2874505187
  0
VERTEX
  8
0
 62
7
  6
CONTINUOUS
 10
68.1536632657
 20
227.2884881794
  0
VERTEX
  8
0
 62
7
  6
CONTINUOUS
 10
68.153846333
 20
227.2895579333
  0
VERTEX
  8
0
 62
7
  6
CONTINUOUS
 10
68.1539483328
 20
227.2906688616
  0
SEQEND
  0
POLYLINE
  8
0
 62
7
  6
CONTINUOUS
 66
1
 70
0
  0
VERTEX
  8
0
 62
7
  6
CONTINUOUS
 10
68.058050649
 20
226.9524064087
  0
VERTEX
  8
0
 62
7
  6
CONTINUOUS
 10
68.0548774054
 20
226.9401501064
  0
VERTEX
  8
0
 62
7
  6
CONTINUOUS
 10
68.052238504
 20
226.9296512671
  0
VERTEX
  8
0
 62
7
  6
CONTINUOUS
 10
68.0501472368
 20
226.9209627828
  0
VERTEX
  8
0
 62
7
  6
CONTINUOUS
 10
68.0486141341
 20
226.9141284155
  0
VERTEX
  8
0
 62
7
  6
CONTINUOUS
 10
68.0476469121
 20
226.9091825788
  0
VERTEX
  8
0
 62
7
  6
CONTINUOUS
 10
68.0472504343
 20
226.9061501652
  0
VERTEX
  8
0
 62
7
  6
CONTINUOUS
 10
68.0474266874
 20
226.9050464225
  0
SEQEND
  0
LINE
  8
0
 62
7
  6
CONTINUOUS
 10
68.0659336005
 20
226.9819358233
 11
68.058050649
 21
226.9524064087
  0
LINE
  8
0
 62
7
  6
CONTINUOUS
 10
68.0757286592
 20
227.0176449699
 11
68.0659336005
 21
226.9819358233
  0
LINE
  8
0
 62
7
  6
CONTINUOUS
 10
68.0935653981
 20
227.0811920487
 11
68.0757286592
 21
227.0176449699
  0
LINE
  8
0
 62
7
  6
CONTINUOUS
 10
68.114445812
 20
227.1541256671
 11
68.0935653981
 21
227.0811920487
  0
POLYLINE
  8
0
 62
7
  6
CONTINUOUS
 66
1
 70
0
  0
VERTEX
  8
0
 62
7
  6
CONTINUOUS
 10
68.1534005319
 20
227.2874505187
  0
VERTEX
  8
0
 62
7
  6
CONTINUOUS
 10
68.1453739522
 20
227.2602268541
  0
VERTEX
  8
0
 62
7
  6
CONTINUOUS
 10
68.114445812
 20
227.1541256671
  0
SEQEND
  0
POLYLINE
  8
0
 62
7
  6
CONTINUOUS
 66
1
 70
0
  0
VERTEX
  8
0
 62
7
  6
CONTINUOUS
 10
80.2906130813
 20
274.9286048515
  0
VERTEX
  8
0
 62
7
  6
CONTINUOUS
 10
80.2912529113
 20
274.9294629811
  0
VERTEX
  8
0
 62
7
  6
CONTINUOUS
 10
80.2918314205
 20
274.9303812479
  0
VERTEX
  8
0
 62
7
  6
CONTINUOUS
 10
80.2923507899
 20
274.9313685783
  0
SEQEND
  0
POLYLINE
  8
0
 62
7
  6
CONTINUOUS
 66
1
 70
0
  0
VERTEX
  8
0
 62
7
  6
CONTINUOUS
 10
80.0743054461
 20
274.6555532762
  0
VERTEX
  8
0
 62
7
  6
CONTINUOUS
 10
80.0666834674
 20
274.6454442771
  0
VERTEX
  8
0
 62
7
  6
CONTINUOUS
 10
80.0602277086
 20
274.6367544782
  0
VERTEX
  8
0
 62
7
  6
CONTINUOUS
 10
80.0549706906
 20
274.6295276587
  0
VERTEX
  8
0
 62
7
  6
CONTINUOUS
 10
80.0509388893
 20
274.6238002196
  0
VERTEX
  8
0
 62
7
  6
CONTINUOUS
 10
80.0481526029
 20
274.6196010021
  0
VERTEX
  8
0
 62
7
  6
CONTINUOUS
 10
80.0466258508
 20
274.6169511428
  0
VERTEX
  8
0
 62
7
  6
CONTINUOUS
 10
80.0463663033
 20
274.6158639684
  0
SEQEND
  0
LINE
  8
0
 62
7
  6
CONTINUOUS
 10
80.0928887614
 20
274.679818223
 11
80.0743054461
 21
274.6555532762
  0
LINE
  8
0
 62
7
  6
CONTINUOUS
 10
80.1156035144
 20
274.709060766
 11
80.0928887614
 21
274.679818223
  0
LINE
  8
0
 62
7
  6
CONTINUOUS
 10
80.1564009267
 20
274.760944787
 11
80.1156035144
 21
274.709060766
  0
LINE
  8
0
 62
7
  6
CONTINUOUS
 10
80.2036024011
 20
274.8203360758
 11
80.1564009267
 21
274.760944787
  0
POLYLINE
  8
0
 62
7
  6
CONTINUOUS
 66
1
 70
0
  0
VERTEX
  8
0
 62
7
  6
CONTINUOUS
 10
80.2906130813
 20
274.9286048515
  0
VERTEX
  8
0
 62
7
  6
CONTINUOUS
 10
80.2727794432
 20
274.906525104
  0
VERTEX
  8
0
 62
7
  6
CONTINUOUS
 10
80.2036024011
 20
274.8203360758
  0
SEQEND
  0
POLYLINE
  8
0
 62
7
  6
CONTINUOUS
 66
1
 70
0
  0
VERTEX
  8
0
 62
7
  6
CONTINUOUS
 10
109.7354157863
 20
314.298582111
  0
VERTEX
  8
0
 62
7
  6
CONTINUOUS
 10
109.7363353178
 20
314.2991300434
  0
VERTEX
  8
0
 62
7
  6
CONTINUOUS
 10
109.7372211958
 20
314.2997570253
  0
VERTEX
  8
0
 62
7
  6
CONTINUOUS
 10
109.7380788652
 20
314.3004704453
  0
SEQEND
  0
POLYLINE
  8
0
 62
7
  6
CONTINUOUS
 66
1
 70
0
  0
VERTEX
  8
0
 62
7
  6
CONTINUOUS
 10
109.4310812753
 20
314.1290926975
  0
VERTEX
  8
0
 62
7
  6
CONTINUOUS
 10
109.4201709388
 20
314.1226700051
  0
VERTEX
  8
0
 62
7
  6
CONTINUOUS
 10
109.4108811533
 20
314.1171121897
  0
VERTEX
  8
0
 62
7
  6
CONTINUOUS
 10
109.4032587179
 20
314.1124472528
  0
VERTEX
  8
0
 62
7
  6
CONTINUOUS
 10
109.3973420231
 20
314.1086986926
  0
VERTEX
  8
0
 62
7
  6
CONTINUOUS
 10
109.3931608592
 20
314.1058853872
  0
VERTEX
  8
0
 62
7
  6
CONTINUOUS
 10
109.3907362669
 20
314.1040214991
  0
VERTEX
  8
0
 62
7
  6
CONTINUOUS
 10
109.3900804327
 20
314.1031164054
  0
SEQEND
  0
LINE
  8
0
 62
7
  6
CONTINUOUS
 10
109.4575358131
 20
314.1443990584
 11
109.4310812753
 21
314.1290926975
  0
LINE
  8
0
 62
7
  6
CONTINUOUS
 10
109.4897121453
 20
314.1627230857
 11
109.4575358131
 21
314.1443990584
  0
LINE
  8
0
 62
7
  6
CONTINUOUS
 10
109.5472591946
 20
314.195045177
 11
109.4897121453
 21
314.1627230857
  0
LINE
  8
0
 62
7
  6
CONTINUOUS
 10
109.6135957331
 20
314.2318523509
 11
109.5472591946
 21
314.195045177
  0
POLYLINE
  8
0
 62
7
  6
CONTINUOUS
 66
1
 70
0
  0
VERTEX
  8
0
 62
7
  6
CONTINUOUS
 10
109.7354157863
 20
314.298582111
  0
VERTEX
  8
0
 62
7
  6
CONTINUOUS
 10
109.7104900995
 20
314.2850077221
  0
VERTEX
  8
0
 62
7
  6
CONTINUOUS
 10
109.6135957331
 20
314.2318523509
  0
SEQEND
  0
POLYLINE
  8
0
 62
7
  6
CONTINUOUS
 66
1
 70
0
  0
VERTEX
  8
0
 62
7
  6
CONTINUOUS
 10
235.9471658536
 20
101.7945072878
  0
VERTEX
  8
0
 62
7
  6
CONTINUOUS
 10
235.9461066325
 20
101.794352954
  0
VERTEX
  8
0
 62
7
  6
CONTINUOUS
 10
235.9450482524
 20
101.7941127091
  0
VERTEX
  8
0
 62
7
  6
CONTINUOUS
 10
235.9439828552
 20
101.7937818108
  0
SEQEND
  0
POLYLINE
  8
0
 62
7
  6
CONTINUOUS
 66
1
 70
0
  0
VERTEX
  8
0
 62
7
  6
CONTINUOUS
 10
236.2931950698
 20
101.8346313126
  0
VERTEX
  8
0
 62
7
  6
CONTINUOUS
 10
236.3057327644
 20
101.8363899017
  0
VERTEX
  8
0
 62
7
  6
CONTINUOUS
 10
236.3164422909
 20
101.8379696065
  0
VERTEX
  8
0
 62
7
  6
CONTINUOUS
 10
236.3252696971
 20
101.8393624666
  0
VERTEX
  8
0
 62
7
  6
CONTINUOUS
 10
236.3321705221
 20
101.8405614635
  0
VERTEX
  8
0
 62
7
  6
CONTINUOUS
 10
236.3371100193
 20
101.8415605567
  0
VERTEX
  8
0
 62
7
  6
CONTINUOUS
 10
236.3400633296
 20
101.8423547134
  0
VERTEX
  8
0
 62
7
  6
CONTINUOUS
 10
236.3410156057
 20
101.8429399341
  0
SEQEND
  0
LINE
  8
0
 62
7
  6
CONTINUOUS
 10
236.2628967731
 20
101.8306137924
 11
236.2931950698
 21
101.8346313126
  0
LINE
  8
0
 62
7
  6
CONTINUOUS
 10
236.2261574167
 20
101.8259979479
 11
236.2628967731
 21
101.8306137924
  0
LINE
  8
0
 62
7
  6
CONTINUOUS
 10
236.1606217468
 20
101.8181585316
 11
236.2261574167
 21
101.8259979479
  0
LINE
  8
0
 62
7
  6
CONTINUOUS
 10
236.085249281
 20
101.8095390312
 11
236.1606217468
 21
101.8181585316
  0
POLYLINE
  8
0
 62
7
  6
CONTINUOUS
 66
1
 70
0
  0
VERTEX
  8
0
 62
7
  6
CONTINUOUS
 10
235.9471658536
 20
101.7945072878
  0
VERTEX
  8
0
 62
7
  6
CONTINUOUS
 10
235.9753888792
 20
101.7975097404
  0
VERTEX
  8
0
 62
7
  6
CONTINUOUS
 10
236.085249281
 20
101.8095390312
  0
SEQEND
  0
POLYLINE
  8
0
 62
7
  6
CONTINUOUS
 66
1
 70
0
  0
VERTEX
  8
0
 62
7
  6
CONTINUOUS
 10
187.2877682918
 20
94.776349083
  0
VERTEX
  8
0
 62
7
  6
CONTINUOUS
 10
187.2867306382
 20
94.7766118436
  0
VERTEX
  8
0
 62
7
  6
CONTINUOUS
 10
187.2856608847
 20
94.7767949107
  0
VERTEX
  8
0
 62
7
  6
CONTINUOUS
 10
187.2845499568
 20
94.7768969105
  0
SEQEND
  0
POLYLINE
  8
0
 62
7
  6
CONTINUOUS
 66
1
 70
0
  0
VERTEX
  8
0
 62
7
  6
CONTINUOUS
 10
187.6228124019
 20
94.6809992002
  0
VERTEX
  8
0
 62
7
  6
CONTINUOUS
 10
187.6350687042
 20
94.6778259566
  0
VERTEX
  8
0
 62
7
  6
CONTINUOUS
 10
187.6455675434
 20
94.6751870552
  0
VERTEX
  8
0
 62
7
  6
CONTINUOUS
 10
187.6542560278
 20
94.673095788
  0
VERTEX
  8
0
 62
7
  6
CONTINUOUS
 10
187.6610903951
 20
94.6715626853
  0
VERTEX
  8
0
 62
7
  6
CONTINUOUS
 10
187.6660362318
 20
94.6705954633
  0
VERTEX
  8
0
 62
7
  6
CONTINUOUS
 10
187.6690686453
 20
94.6701989855
  0
VERTEX
  8
0
 62
7
  6
CONTINUOUS
 10
187.6701723881
 20
94.6703752386
  0
SEQEND
  0
LINE
  8
0
 62
7
  6
CONTINUOUS
 10
187.5932829873
 20
94.6888821517
 11
187.6228124019
 21
94.6809992002
  0
LINE
  8
0
 62
7
  6
CONTINUOUS
 10
187.5575738406
 20
94.6986772104
 11
187.5932829873
 21
94.6888821517
  0
LINE
  8
0
 62
7
  6
CONTINUOUS
 10
187.4940267618
 20
94.7165139492
 11
187.5575738406
 21
94.6986772104
  0
LINE
  8
0
 62
7
  6
CONTINUOUS
 10
187.4210931434
 20
94.7373943632
 11
187.4940267618
 21
94.7165139492
  0
POLYLINE
  8
0
 62
7
  6
CONTINUOUS
 66
1
 70
0
  0
VERTEX
  8
0
 62
7
  6
CONTINUOUS
 10
187.2877682918
 20
94.776349083
  0
VERTEX
  8
0
 62
7
  6
CONTINUOUS
 10
187.3149919564
 20
94.7683225033
  0
VERTEX
  8
0
 62
7
  6
CONTINUOUS
 10
187.4210931434
 20
94.7373943632
  0
SEQEND
  0
POLYLINE
  8
0
 62
7
  6
CONTINUOUS
 66
1
 70
0
  0
VERTEX
  8
0
 62
7
  6
CONTINUOUS
 10
139.6466139495
 20
106.9135616375
  0
VERTEX
  8
0
 62
7
  6
CONTINUOUS
 10
139.6457558367
 20
106.9142014894
  0
VERTEX
  8
0
 62
7
  6
CONTINUOUS
 10
139.6448375701
 20
106.9147799983
  0
VERTEX
  8
0
 62
7
  6
CONTINUOUS
 10
139.6438502401
 20
106.9152993676
  0
SEQEND
  0
POLYLINE
  8
0
 62
7
  6
CONTINUOUS
 66
1
 70
0
  0
VERTEX
  8
0
 62
7
  6
CONTINUOUS
 10
139.9196655248
 20
106.6972540023
  0
VERTEX
  8
0
 62
7
  6
CONTINUOUS
 10
139.9297745239
 20
106.6896320236
  0
VERTEX
  8
0
 62
7
  6
CONTINUOUS
 10
139.9384643228
 20
106.6831762648
  0
VERTEX
  8
0
 62
7
  6
CONTINUOUS
 10
139.9456911423
 20
106.6779192468
  0
VERTEX
  8
0
 62
7
  6
CONTINUOUS
 10
139.9514185814
 20
106.6738874455
  0
VERTEX
  8
0
 62
7
  6
CONTINUOUS
 10
139.9556177989
 20
106.6711011591
  0
VERTEX
  8
0
 62
7
  6
CONTINUOUS
 10
139.9582676582
 20
106.669574407
  0
VERTEX
  8
0
 62
7
  6
CONTINUOUS
 10
139.9593548326
 20
106.6693148596
  0
SEQEND
  0
LINE
  8
0
 62
7
  6
CONTINUOUS
 10
139.895400578
 20
106.7158373175
 11
139.9196655248
 21
106.6972540023
  0
LINE
  8
0
 62
7
  6
CONTINUOUS
 10
139.866158035
 20
106.7385520706
 11
139.895400578
 21
106.7158373175
  0
LINE
  8
0
 62
7
  6
CONTINUOUS
 10
139.814274014
 20
106.7793494828
 11
139.866158035
 21
106.7385520706
  0
LINE
  8
0
 62
7
  6
CONTINUOUS
 10
139.7548827252
 20
106.8265509573
 11
139.814274014
 21
106.7793494828
  0
POLYLINE
  8
0
 62
7
  6
CONTINUOUS
 66
1
 70
0
  0
VERTEX
  8
0
 62
7
  6
CONTINUOUS
 10
139.6466139495
 20
106.9135616375
  0
VERTEX
  8
0
 62
7
  6
CONTINUOUS
 10
139.6686936969
 20
106.8957279993
  0
VERTEX
  8
0
 62
7
  6
CONTINUOUS
 10
139.7548827252
 20
106.8265509573
  0
SEQEND
  0
POLYLINE
  8
0
 62
7
  6
CONTINUOUS
 66
1
 70
0
  0
VERTEX
  8
0
 62
7
  6
CONTINUOUS
 10
100.2766367071
 20
136.3583643638
  0
VERTEX
  8
0
 62
7
  6
CONTINUOUS
 10
100.276088775
 20
136.3592838955
  0
VERTEX
  8
0
 62
7
  6
CONTINUOUS
 10
100.2754617931
 20
136.3601697735
  0
VERTEX
  8
0
 62
7
  6
CONTINUOUS
 10
100.2747483731
 20
136.3610274429
  0
SEQEND
  0
POLYLINE
  8
0
 62
7
  6
CONTINUOUS
 66
1
 70
0
  0
VERTEX
  8
0
 62
7
  6
CONTINUOUS
 10
100.4461261206
 20
136.0540298529
  0
VERTEX
  8
0
 62
7
  6
CONTINUOUS
 10
100.452548813
 20
136.0431195163
  0
VERTEX
  8
0
 62
7
  6
CONTINUOUS
 10
100.4581066284
 20
136.0338297308
  0
VERTEX
  8
0
 62
7
  6
CONTINUOUS
 10
100.4627715653
 20
136.0262072954
  0
VERTEX
  8
0
 62
7
  6
CONTINUOUS
 10
100.4665201255
 20
136.0202906006
  0
VERTEX
  8
0
 62
7
  6
CONTINUOUS
 10
100.4693334309
 20
136.0161094367
  0
VERTEX
  8
0
 62
7
  6
CONTINUOUS
 10
100.471197319
 20
136.0136848445
  0
VERTEX
  8
0
 62
7
  6
CONTINUOUS
 10
100.4721024127
 20
136.0130290102
  0
SEQEND
  0
LINE
  8
0
 62
7
  6
CONTINUOUS
 10
100.4308197597
 20
136.0804843906
 11
100.4461261206
 21
136.0540298529
  0
LINE
  8
0
 62
7
  6
CONTINUOUS
 10
100.4124957324
 20
136.1126607228
 11
100.4308197597
 21
136.0804843906
  0
LINE
  8
0
 62
7
  6
CONTINUOUS
 10
100.3801736411
 20
136.1702077722
 11
100.4124957324
 21
136.1126607228
  0
LINE
  8
0
 62
7
  6
CONTINUOUS
 10
100.3433664672
 20
136.2365443106
 11
100.3801736411
 21
136.1702077722
  0
POLYLINE
  8
0
 62
7
  6
CONTINUOUS
 66
1
 70
0
  0
VERTEX
  8
0
 62
7
  6
CONTINUOUS
 10
100.2766367071
 20
136.3583643638
  0
VERTEX
  8
0
 62
7
  6
CONTINUOUS
 10
100.290211096
 20
136.333438677
  0
VERTEX
  8
0
 62
7
  6
CONTINUOUS
 10
100.3433664672
 20
136.2365443106
  0
SEQEND
  0
POLYLINE
  8
0
 62
7
  6
CONTINUOUS
 66
1
 70
0
  0
VERTEX
  8
0
 62
7
  6
CONTINUOUS
 10
75.17155871
 20
178.6280529648
  0
VERTEX
  8
0
 62
7
  6
CONTINUOUS
 10
75.1714043763
 20
178.6291121858
  0
VERTEX
  8
0
 62
7
  6
CONTINUOUS
 10
75.1711641314
 20
178.6301705659
  0
VERTEX
  8
0
 62
7
  6
CONTINUOUS
 10
75.1708332332
 20
178.6312359632
  0
SEQEND
  0
POLYLINE
  8
0
 62
7
  6
CONTINUOUS
 66
1
 70
0
  0
VERTEX
  8
0
 62
7
  6
CONTINUOUS
 10
75.2116827349
 20
178.2820237486
  0
VERTEX
  8
0
 62
7
  6
CONTINUOUS
 10
75.2134413239
 20
178.269486054
  0
VERTEX
  8
0
 62
7
  6
CONTINUOUS
 10
75.2150210288
 20
178.2587765275
  0
VERTEX
  8
0
 62
7
  6
CONTINUOUS
 10
75.2164138888
 20
178.2499491213
  0
VERTEX
  8
0
 62
7
  6
CONTINUOUS
 10
75.2176128858
 20
178.2430482962
  0
VERTEX
  8
0
 62
7
  6
CONTINUOUS
 10
75.2186119789
 20
178.2381087991
  0
VERTEX
  8
0
 62
7
  6
CONTINUOUS
 10
75.2194061357
 20
178.2351554888
  0
VERTEX
  8
0
 62
7
  6
CONTINUOUS
 10
75.2199913563
 20
178.2342032126
  0
SEQEND
  0
LINE
  8
0
 62
7
  6
CONTINUOUS
 10
75.2076652147
 20
178.3123220453
 11
75.2116827349
 21
178.2820237486
  0
LINE
  8
0
 62
7
  6
CONTINUOUS
 10
75.2030493702
 20
178.3490614017
 11
75.2076652147
 21
178.3123220453
  0
LINE
  8
0
 62
7
  6
CONTINUOUS
 10
75.1952099539
 20
178.4145970716
 11
75.2030493702
 21
178.3490614017
  0
LINE
  8
0
 62
7
  6
CONTINUOUS
 10
75.1865904535
 20
178.4899695373
 11
75.1952099539
 21
178.4145970716
  0
LINE
  8
0
 62
7
  6
CONTINUOUS
 10
75.1806023652
 20
178.5440128573
 11
75.1865904535
 21
178.4899695373
  0
LINE
  8
0
 62
7
  6
CONTINUOUS
 10
74.5836351204
 20
247.841792698
 11
74.5836351204
 21
244.3477285204
  0
LINE
  8
0
 62
7
  6
CONTINUOUS
 10
74.5836351204
 20
224.599083698
 11
74.5836351204
 21
193.356374698
  0
LINE
  8
0
 62
7
  6
CONTINUOUS
 10
85.1211612564
 20
284.0572724792
 11
85.1289321821
 21
284.1683594204
  0
LINE
  8
0
 62
7
  6
CONTINUOUS
 10
85.1289321821
 20
284.1683594204
 11
85.1365478668
 21
284.2700930936
  0
LINE
  8
0
 62
7
  6
CONTINUOUS
 10
85.1365478668
 20
284.2700930936
 11
85.1417919297
 21
284.3353476177
  0
LINE
  8
0
 62
7
  6
CONTINUOUS
 10
85.1417919297
 20
284.3353476177
 11
85.144932478
 21
284.3719206205
  0
POLYLINE
  8
0
 62
7
  6
CONTINUOUS
 66
1
 70
0
  0
VERTEX
  8
0
 62
7
  6
CONTINUOUS
 10
85.144932478
 20
284.3719206205
  0
VERTEX
  8
0
 62
7
  6
CONTINUOUS
 10
85.1477145533
 20
284.4020816364
  0
VERTEX
  8
0
 62
7
  6
CONTINUOUS
 10
85.1489534496
 20
284.4145643243
  0
VERTEX
  8
0
 62
7
  6
CONTINUOUS
 10
85.1500824279
 20
284.4252291412
  0
VERTEX
  8
0
 62
7
  6
CONTINUOUS
 10
85.1510957338
 20
284.4340228738
  0
VERTEX
  8
0
 62
7
  6
CONTINUOUS
 10
85.1519880342
 20
284.4409016656
  0
VERTEX
  8
0
 62
7
  6
CONTINUOUS
 10
85.1527540544
 20
284.4458312607
  0
VERTEX
  8
0
 62
7
  6
CONTINUOUS
 10
85.1533858849
 20
284.4487873562
  0
VERTEX
  8
0
 62
7
  6
CONTINUOUS
 10
85.1539101431
 20
284.4497531993
  0
SEQEND
  0
POLYLINE
  8
0
 62
7
  6
CONTINUOUS
 66
1
 70
0
  0
VERTEX
  8
0
 62
7
  6
CONTINUOUS
 10
85.1211613215
 20
284.0572729191
  0
VERTEX
  8
0
 62
7
  6
CONTINUOUS
 10
85.1208677795
 20
284.0552930162
  0
VERTEX
  8
0
 62
7
  6
CONTINUOUS
 10
85.120233853
 20
284.0532763612
  0
VERTEX
  8
0
 62
7
  6
CONTINUOUS
 10
85.1192088645
 20
284.0511885183
  0
SEQEND
  0
LINE
  8
0
 62
7
  6
CONTINUOUS
 10
94.097181422
 20
291.4575966519
 11
92.7600609496
 21
288.229502273
  0
LINE
  8
0
 62
7
  6
CONTINUOUS
 10
85.2025817645
 20
269.9841335267
 11
73.246514648
 21
241.1196341414
  0
LINE
  8
0
 62
7
  6
CONTINUOUS
 10
117.6916502499
 20
320.8838005114
 11
117.7413407808
 21
320.9834576584
  0
LINE
  8
0
 62
7
  6
CONTINUOUS
 10
117.7413407808
 20
320.9834576584
 11
117.787308547
 21
321.0745329206
  0
LINE
  8
0
 62
7
  6
CONTINUOUS
 10
117.787308547
 20
321.0745329206
 11
117.8171252542
 21
321.132813424
  0
LINE
  8
0
 62
7
  6
CONTINUOUS
 10
117.8171252542
 20
321.132813424
 11
117.8340226246
 21
321.165400637
  0
POLYLINE
  8
0
 62
7
  6
CONTINUOUS
 66
1
 70
0
  0
VERTEX
  8
0
 62
7
  6
CONTINUOUS
 10
117.8340226246
 20
321.165400637
  0
VERTEX
  8
0
 62
7
  6
CONTINUOUS
 10
117.8481350477
 20
321.1922011283
  0
VERTEX
  8
0
 62
7
  6
CONTINUOUS
 10
117.8540565561
 20
321.2032595233
  0
VERTEX
  8
0
 62
7
  6
CONTINUOUS
 10
117.8591808444
 20
321.2126804883
  0
VERTEX
  8
0
 62
7
  6
CONTINUOUS
 10
117.8634822322
 20
321.2204170627
  0
VERTEX
  8
0
 62
7
  6
CONTINUOUS
 10
117.866939009
 20
321.2264307696
  0
VERTEX
  8
0
 62
7
  6
CONTINUOUS
 10
117.8695331918
 20
321.2306919793
  0
VERTEX
  8
0
 62
7
  6
CONTINUOUS
 10
117.8712481703
 20
321.2331812672
  0
VERTEX
  8
0
 62
7
  6
CONTINUOUS
 10
117.8721021451
 20
321.2338729593
  0
SEQEND
  0
POLYLINE
  8
0
 62
7
  6
CONTINUOUS
 66
1
 70
0
  0
VERTEX
  8
0
 62
7
  6
CONTINUOUS
 10
117.6916504624
 20
320.8838008662
  0
VERTEX
  8
0
 62
7
  6
CONTINUOUS
 10
117.6906216049
 20
320.8820840349
  0
VERTEX
  8
0
 62
7
  6
CONTINUOUS
 10
117.6892641927
 20
320.8804634818
  0
VERTEX
  8
0
 62
7
  6
CONTINUOUS
 10
117.6875182438
 20
320.8789268125
  0
SEQEND
  0
LINE
  8
0
 62
7
  6
CONTINUOUS
 10
128.8163930193
 20
324.2858343426
 11
126.3457165454
 21
321.8151578687
  0
LINE
  8
0
 62
7
  6
CONTINUOUS
 10
112.3813158723
 20
307.8507571956
 11
90.2893844757
 21
285.7588257991
  0
LINE
  8
0
 62
7
  6
CONTINUOUS
 10
161.8757605442
 20
342.4428894921
 11
161.959805748
 21
342.5159449471
  0
LINE
  8
0
 62
7
  6
CONTINUOUS
 10
161.959805748
 20
342.5159449471
 11
162.0371274207
 21
342.5824964148
  0
LINE
  8
0
 62
7
  6
CONTINUOUS
 10
162.0371274207
 20
342.5824964148
 11
162.0869774498
 21
342.6249302187
  0
LINE
  8
0
 62
7
  6
CONTINUOUS
 10
162.0869774498
 20
342.6249302187
 11
162.1150591714
 21
342.6485705336
  0
POLYLINE
  8
0
 62
7
  6
CONTINUOUS
 66
1
 70
0
  0
VERTEX
  8
0
 62
7
  6
CONTINUOUS
 10
162.1150591714
 20
342.6485705336
  0
VERTEX
  8
0
 62
7
  6
CONTINUOUS
 10
162.1383534548
 20
342.6679303679
  0
VERTEX
  8
0
 62
7
  6
CONTINUOUS
 10
162.1480560802
 20
342.6758809291
  0
VERTEX
  8
0
 62
7
  6
CONTINUOUS
 10
162.156395553
 20
342.6826237849
  0
VERTEX
  8
0
 62
7
  6
CONTINUOUS
 10
162.1633301768
 20
342.6881253769
  0
VERTEX
  8
0
 62
7
  6
CONTINUOUS
 10
162.1688251695
 20
342.6923584649
  0
VERTEX
  8
0
 62
7
  6
CONTINUOUS
 10
162.1728525789
 20
342.6953025554
  0
VERTEX
  8
0
 62
7
  6
CONTINUOUS
 10
162.1753896295
 20
342.6969460548
  0
VERTEX
  8
0
 62
7
  6
CONTINUOUS
 10
162.1764432827
 20
342.6972583109
  0
SEQEND
  0
POLYLINE
  8
0
 62
7
  6
CONTINUOUS
 66
1
 70
0
  0
VERTEX
  8
0
 62
7
  6
CONTINUOUS
 10
161.8757608948
 20
342.4428897524
  0
VERTEX
  8
0
 62
7
  6
CONTINUOUS
 10
161.874153333
 20
342.4416973199
  0
VERTEX
  8
0
 62
7
  6
CONTINUOUS
 10
161.8722790888
 20
342.4407195832
  0
VERTEX
  8
0
 62
7
  6
CONTINUOUS
 10
161.8700779846
 20
342.4399680316
  0
SEQEND
  0
LINE
  8
0
 62
7
  6
CONTINUOUS
 10
173.455584677
 20
341.3287041704
 11
170.227490298
 21
339.991583698
  0
LINE
  8
0
 62
7
  6
CONTINUOUS
 10
151.9821215517
 20
332.4341045128
 11
123.1176221664
 21
320.4780373963
  0
LINE
  8
0
 62
7
  6
CONTINUOUS
 10
210.9468618771
 20
345.4523635576
 11
211.0524666331
 21
345.4876952898
  0
LINE
  8
0
 62
7
  6
CONTINUOUS
 10
211.0524666331
 20
345.4876952898
 11
211.1493706881
 21
345.5195911052
  0
LINE
  8
0
 62
7
  6
CONTINUOUS
 10
211.1493706881
 20
345.5195911052
 11
211.2116648236
 21
345.5397180475
  0
LINE
  8
0
 62
7
  6
CONTINUOUS
 10
211.2116648236
 20
345.5397180475
 11
211.2466557083
 21
345.5508124407
  0
POLYLINE
  8
0
 62
7
  6
CONTINUOUS
 66
1
 70
0
  0
VERTEX
  8
0
 62
7
  6
CONTINUOUS
 10
211.2466557083
 20
345.5508124407
  0
VERTEX
  8
0
 62
7
  6
CONTINUOUS
 10
211.275585508
 20
345.5597842586
  0
VERTEX
  8
0
 62
7
  6
CONTINUOUS
 10
211.2875921131
 20
345.563416585
  0
VERTEX
  8
0
 62
7
  6
CONTINUOUS
 10
211.2978771608
 20
345.566454793
  0
VERTEX
  8
0
 62
7
  6
CONTINUOUS
 10
211.3063892861
 20
345.5688838349
  0
VERTEX
  8
0
 62
7
  6
CONTINUOUS
 10
211.3130859303
 20
345.5706918546
  0
VERTEX
  8
0
 62
7
  6
CONTINUOUS
 10
211.3179334268
 20
345.5718706147
  0
VERTEX
  8
0
 62
7
  6
CONTINUOUS
 10
211.320906298
 20
345.5724181168
  0
VERTEX
  8
0
 62
7
  6
CONTINUOUS
 10
211.3219992378
 20
345.5723034005
  0
SEQEND
  0
POLYLINE
  8
0
 62
7
  6
CONTINUOUS
 66
1
 70
0
  0
VERTEX
  8
0
 62
7
  6
CONTINUOUS
 10
177.0054080304
 20
95.7458037551
  0
VERTEX
  8
0
 62
7
  6
CONTINUOUS
 10
177.0073494576
 20
95.746290209
  0
VERTEX
  8
0
 62
7
  6
CONTINUOUS
 10
177.009455197
 20
95.7464762777
  0
VERTEX
  8
0
 62
7
  6
CONTINUOUS
 10
177.0117763585
 20
95.7463282947
  0
SEQEND
  0
LINE
  8
0
 62
7
  6
CONTINUOUS
 10
166.7334261204
 20
101.206583698
 11
170.227490298
 21
101.206583698
  0
LINE
  8
0
 62
7
  6
CONTINUOUS
 10
189.9761351204
 20
101.206583698
 11
221.2188441204
 21
101.206583698
  0
LINE
  8
0
 62
7
  6
CONTINUOUS
 10
130.5179463391
 20
111.7441098345
 11
130.4068593978
 21
111.7518807588
  0
LINE
  8
0
 62
7
  6
CONTINUOUS
 10
130.4068593978
 20
111.7518807588
 11
130.3051257245
 21
111.759496442
  0
LINE
  8
0
 62
7
  6
CONTINUOUS
 10
130.3051257245
 20
111.759496442
 11
130.2398712003
 21
111.7647405033
  0
LINE
  8
0
 62
7
  6
CONTINUOUS
 10
130.2398712003
 20
111.7647405033
 11
130.2032981974
 21
111.7678810502
  0
POLYLINE
  8
0
 62
7
  6
CONTINUOUS
 66
1
 70
0
  0
VERTEX
  8
0
 62
7
  6
CONTINUOUS
 10
130.2032981974
 20
111.7678810502
  0
VERTEX
  8
0
 62
7
  6
CONTINUOUS
 10
130.1731371814
 20
111.7706631235
  0
VERTEX
  8
0
 62
7
  6
CONTINUOUS
 10
130.1606544934
 20
111.7719020182
  0
VERTEX
  8
0
 62
7
  6
CONTINUOUS
 10
130.1499896763
 20
111.7730309945
  0
VERTEX
  8
0
 62
7
  6
CONTINUOUS
 10
130.1411959436
 20
111.7740442975
  0
VERTEX
  8
0
 62
7
  6
CONTINUOUS
 10
130.1343171514
 20
111.774936593
  0
VERTEX
  8
0
 62
7
  6
CONTINUOUS
 10
130.1293875557
 20
111.7757026036
  0
VERTEX
  8
0
 62
7
  6
CONTINUOUS
 10
130.1264314582
 20
111.7763344057
  0
VERTEX
  8
0
 62
7
  6
CONTINUOUS
 10
130.1254656191
 20
111.7768587208
  0
SEQEND
  0
POLYLINE
  8
0
 62
7
  6
CONTINUOUS
 66
1
 70
0
  0
VERTEX
  8
0
 62
7
  6
CONTINUOUS
 10
130.5179456839
 20
111.7441099315
  0
VERTEX
  8
0
 62
7
  6
CONTINUOUS
 10
130.5199258021
 20
111.7438163572
  0
VERTEX
  8
0
 62
7
  6
CONTINUOUS
 10
130.5219424571
 20
111.7431824307
  0
VERTEX
  8
0
 62
7
  6
CONTINUOUS
 10
130.5240303001
 20
111.7421574421
  0
SEQEND
  0
LINE
  8
0
 62
7
  6
CONTINUOUS
 10
123.1176221664
 20
120.7201299997
 11
126.3457165454
 21
119.3830095273
  0
LINE
  8
0
 62
7
  6
CONTINUOUS
 10
144.5910852917
 20
111.8255303421
 11
173.455584677
 21
99.8694632256
  0
LINE
  8
0
 62
7
  6
CONTINUOUS
 10
93.6914183069
 20
144.3145988277
 11
93.5917611599
 21
144.3642893583
  0
LINE
  8
0
 62
7
  6
CONTINUOUS
 10
93.5917611599
 20
144.3642893583
 11
93.5006858976
 21
144.4102571242
  0
LINE
  8
0
 62
7
  6
CONTINUOUS
 10
93.5006858976
 20
144.4102571242
 11
93.442405394
 21
144.4400738312
  0
LINE
  8
0
 62
7
  6
CONTINUOUS
 10
93.442405394
 20
144.4400738312
 11
93.4098181809
 21
144.4569712013
  0
POLYLINE
  8
0
 62
7
  6
CONTINUOUS
 66
1
 70
0
  0
VERTEX
  8
0
 62
7
  6
CONTINUOUS
 10
93.4098181809
 20
144.4569712013
  0
VERTEX
  8
0
 62
7
  6
CONTINUOUS
 10
93.3830176894
 20
144.471083624
  0
VERTEX
  8
0
 62
7
  6
CONTINUOUS
 10
93.3719592942
 20
144.4770051322
  0
VERTEX
  8
0
 62
7
  6
CONTINUOUS
 10
93.3625383291
 20
144.4821294201
  0
VERTEX
  8
0
 62
7
  6
CONTINUOUS
 10
93.3548017544
 20
144.4864308074
  0
VERTEX
  8
0
 62
7
  6
CONTINUOUS
 10
93.3487880471
 20
144.4898875833
  0
VERTEX
  8
0
 62
7
  6
CONTINUOUS
 10
93.3445268366
 20
144.4924817644
  0
VERTEX
  8
0
 62
7
  6
CONTINUOUS
 10
93.3420375462
 20
144.4941967379
  0
VERTEX
  8
0
 62
7
  6
CONTINUOUS
 10
93.3413458591
 20
144.4950507228
  0
SEQEND
  0
POLYLINE
  8
0
 62
7
  6
CONTINUOUS
 66
1
 70
0
  0
VERTEX
  8
0
 62
7
  6
CONTINUOUS
 10
93.6914179319
 20
144.3145990524
  0
VERTEX
  8
0
 62
7
  6
CONTINUOUS
 10
93.6931347835
 20
144.3135701826
  0
VERTEX
  8
0
 62
7
  6
CONTINUOUS
 10
93.6947553366
 20
144.3122127703
  0
VERTEX
  8
0
 62
7
  6
CONTINUOUS
 10
93.6962920058
 20
144.3104668215
  0
SEQEND
  0
LINE
  8
0
 62
7
  6
CONTINUOUS
 10
90.2893844757
 20
155.439341597
 11
92.7600609496
 21
152.9686651231
  0
LINE
  8
0
 62
7
  6
CONTINUOUS
 10
106.7244616228
 20
139.00426445
 11
128.8163930193
 21
116.9123330534
  0
LINE
  8
0
 62
7
  6
CONTINUOUS
 10
72.1323293264
 20
188.4987091221
 11
72.0592738707
 21
188.5827543253
  0
LINE
  8
0
 62
7
  6
CONTINUOUS
 10
72.0592738707
 20
188.5827543253
 11
71.9927224021
 21
188.6600759972
  0
LINE
  8
0
 62
7
  6
CONTINUOUS
 10
71.9927224021
 20
188.6600759972
 11
71.9502885974
 21
188.7099260256
  0
LINE
  8
0
 62
7
  6
CONTINUOUS
 10
71.9502885974
 20
188.7099260256
 11
71.9266482816
 21
188.7380077464
  0
POLYLINE
  8
0
 62
7
  6
CONTINUOUS
 66
1
 70
0
  0
VERTEX
  8
0
 62
7
  6
CONTINUOUS
 10
71.9266482816
 20
188.7380077464
  0
VERTEX
  8
0
 62
7
  6
CONTINUOUS
 10
71.9072884462
 20
188.7613020288
  0
VERTEX
  8
0
 62
7
  6
CONTINUOUS
 10
71.8993378842
 20
188.7710046535
  0
VERTEX
  8
0
 62
7
  6
CONTINUOUS
 10
71.8925950273
 20
188.7793441253
  0
VERTEX
  8
0
 62
7
  6
CONTINUOUS
 10
71.8870934336
 20
188.7862787477
  0
VERTEX
  8
0
 62
7
  6
CONTINUOUS
 10
71.8828603429
 20
188.791773738
  0
VERTEX
  8
0
 62
7
  6
CONTINUOUS
 10
71.879916247
 20
188.7958011427
  0
VERTEX
  8
0
 62
7
  6
CONTINUOUS
 10
71.8782727318
 20
188.7983381795
  0
VERTEX
  8
0
 62
7
  6
CONTINUOUS
 10
71.8779605075
 20
188.7993918605
  0
SEQEND
  0
POLYLINE
  8
0
 62
7
  6
CONTINUOUS
 66
1
 70
0
  0
VERTEX
  8
0
 62
7
  6
CONTINUOUS
 10
72.1323290665
 20
188.4987094724
  0
VERTEX
  8
0
 62
7
  6
CONTINUOUS
 10
72.1335214985
 20
188.4971019108
  0
VERTEX
  8
0
 62
7
  6
CONTINUOUS
 10
72.1344992352
 20
188.4952276666
  0
VERTEX
  8
0
 62
7
  6
CONTINUOUS
 10
72.1352507867
 20
188.4930265623
  0
SEQEND
  0
LINE
  8
0
 62
7
  6
CONTINUOUS
 10
73.246514648
 20
200.0785332546
 11
74.5836351204
 21
196.8504388757
  0
LINE
  8
0
 62
7
  6
CONTINUOUS
 10
82.1411143055
 20
178.6050701294
 11
94.097181422
 21
149.7405707441
  0
LINE
  8
0
 62
7
  6
CONTINUOUS
 10
69.122855261
 20
237.569810455
 11
69.0875235281
 21
237.6754152107
  0
LINE
  8
0
 62
7
  6
CONTINUOUS
 10
69.0875235281
 20
237.6754152107
 11
69.0556277118
 21
237.7723192654
  0
LINE
  8
0
 62
7
  6
CONTINUOUS
 10
69.0556277118
 20
237.7723192654
 11
69.0355007686
 21
237.8346134006
  0
LINE
  8
0
 62
7
  6
CONTINUOUS
 10
69.0355007686
 20
237.8346134006
 11
69.0244063746
 21
237.869604285
  0
POLYLINE
  8
0
 62
7
  6
CONTINUOUS
 66
1
 70
0
  0
VERTEX
  8
0
 62
7
  6
CONTINUOUS
 10
69.0244063746
 20
237.869604285
  0
VERTEX
  8
0
 62
7
  6
CONTINUOUS
 10
69.0154345557
 20
237.8985340843
  0
VERTEX
  8
0
 62
7
  6
CONTINUOUS
 10
69.0118022285
 20
237.9105406892
  0
VERTEX
  8
0
 62
7
  6
CONTINUOUS
 10
69.0087640194
 20
237.9208257365
  0
VERTEX
  8
0
 62
7
  6
CONTINUOUS
 10
69.0063349759
 20
237.9293378613
  0
VERTEX
  8
0
 62
7
  6
CONTINUOUS
 10
69.0045269536
 20
237.9360345046
  0
VERTEX
  8
0
 62
7
  6
CONTINUOUS
 10
69.0033481884
 20
237.9408819994
  0
VERTEX
  8
0
 62
7
  6
CONTINUOUS
 10
69.0028006712
 20
237.9438548654
  0
VERTEX
  8
0
 62
7
  6
CONTINUOUS
 10
69.002915418
 20
237.9449478155
  0
SEQEND
  0
POLYLINE
  8
0
 62
7
  6
CONTINUOUS
 66
1
 70
0
  0
VERTEX
  8
0
 62
7
  6
CONTINUOUS
 10
69.1228551521
 20
237.5698108889
  0
VERTEX
  8
0
 62
7
  6
CONTINUOUS
 10
69.1233416313
 20
237.5678693608
  0
VERTEX
  8
0
 62
7
  6
CONTINUOUS
 10
69.1235277001
 20
237.5657636214
  0
VERTEX
  8
0
 62
7
  6
CONTINUOUS
 10
69.123379717
 20
237.5634424599
  0
SEQEND
  0
LINE
  8
0
 62
7
  6
CONTINUOUS
 10
134.7140125765
 20
153.6625050016
 11
134.8680319887
 21
153.5920144486
  0
LINE
  8
0
 62
7
  6
CONTINUOUS
 10
134.7227048073
 20
153.8208704891
 11
134.6269859374
 21
153.8748249295
  0
LINE
  8
0
 62
7
  6
CONTINUOUS
 10
131.9615927848
 20
156.3731603637
 11
132.0573115744
 21
156.3192060037
  0
LINE
  8
0
 62
7
  6
CONTINUOUS
 10
134.7209037016
 20
154.8667824479
 11
134.5294660098
 21
154.9746912695
  0
LINE
  8
0
 62
7
  6
CONTINUOUS
 10
132.0285854643
 20
156.5149898322
 11
131.9328666747
 21
156.5689441922
  0
LINE
  8
0
 62
7
  6
CONTINUOUS
 10
132.0790421782
 20
156.7151196957
 11
132.2704799716
 21
156.6072107616
  0
LINE
  8
0
 62
7
  6
CONTINUOUS
 10
132.1834532815
 20
156.819530799
 11
132.0877344919
 21
156.873485159
  0
LINE
  8
0
 62
7
  6
CONTINUOUS
 10
128.5939437064
 20
159.7408094421
 11
128.7853812856
 21
159.6329007221
  0
LINE
  8
0
 62
7
  6
CONTINUOUS
 10
128.6983547804
 20
159.8452205161
 11
128.6026357766
 21
159.8991750902
  0
LINE
  8
0
 62
7
  6
CONTINUOUS
 10
131.8849551718
 20
157.4939088042
 11
132.1138111527
 21
157.348581697
  0
LINE
  8
0
 62
7
  6
CONTINUOUS
 10
134.5808753924
 20
153.7538777561
 11
134.7140125765
 21
153.6625050016
  0
LINE
  8
0
 62
7
  6
CONTINUOUS
 10
134.6269859374
 20
153.8748249295
 11
134.4564304124
 21
154.0036160249
  0
LINE
  8
0
 62
7
  6
CONTINUOUS
 10
132.9510052935
 20
155.3419834254
 11
133.1215608721
 21
155.2131922765
  0
LINE
  8
0
 62
7
  6
CONTINUOUS
 10
133.2050897312
 20
155.2967211356
 11
133.0345341527
 21
155.4255122846
  0
LINE
  8
0
 62
7
  6
CONTINUOUS
 10
131.9328666747
 20
156.5689441922
 11
131.7623110962
 21
156.6977353411
  0
LINE
  8
0
 62
7
  6
CONTINUOUS
 10
129.6207743955
 20
158.6722143235
 11
129.7913301881
 21
158.5434229604
  0
LINE
  8
0
 62
7
  6
CONTINUOUS
 10
132.0877344919
 20
156.873485159
 11
131.9171789133
 21
157.0022763079
  0
LINE
  8
0
 62
7
  6
CONTINUOUS
 10
129.8748590473
 20
158.6269518196
 11
129.7043032546
 21
158.7557431826
  0
LINE
  8
0
 62
7
  6
CONTINUOUS
 10
128.6026357766
 20
159.8991750902
 11
128.4320804122
 21
160.0279660251
  0
LINE
  8
0
 62
7
  6
CONTINUOUS
 10
128.4633515192
 20
160.9572768863
 11
128.6339068909
 21
160.8284859588
  0
LINE
  8
0
 62
7
  6
CONTINUOUS
 10
132.1973400192
 20
157.4321105635
 11
131.9893662585
 21
157.598319891
  0
LINE
  8
0
 62
7
  6
CONTINUOUS
 10
134.3354832658
 20
153.9575054531
 11
134.5808753924
 21
153.7538777561
  0
LINE
  8
0
 62
7
  6
CONTINUOUS
 10
131.8336500249
 20
156.9187474195
 11
132.0790421782
 21
156.7151196957
  0
LINE
  8
0
 62
7
  6
CONTINUOUS
 10
128.348551553
 20
159.9444371659
 11
128.5939437064
 21
159.7408094421
  0
LINE
  8
0
 62
7
  6
CONTINUOUS
 10
128.7174357574
 20
160.9120148253
 11
128.4720436023
 21
161.1156425472
  0
LINE
  8
0
 62
7
  6
CONTINUOUS
 10
131.678782237
 20
156.614206482
 11
131.9615927848
 21
156.3731603637
  0
LINE
  8
0
 62
7
  6
CONTINUOUS
 10
134.6747931706
 20
154.745835235
 11
134.9576036186
 21
154.5047892311
  0
LINE
  8
0
 62
7
  6
CONTINUOUS
 10
135.0037141977
 20
154.625736385
 11
134.7209037016
 21
154.8667824479
  0
LINE
  8
0
 62
7
  6
CONTINUOUS
 10
124.6619928945
 20
157.7549685201
 11
125.5635540406
 21
156.8534073741
  0
LINE
  8
0
 62
7
  6
CONTINUOUS
 10
126.8363462467
 20
155.5806151679
 11
127.1032810251
 21
155.3136803895
  0
LINE
  8
0
 62
7
  6
CONTINUOUS
 10
127.8970064185
 20
154.5199549961
 11
128.7985675645
 21
153.6183938501
  0
LINE
  8
0
 62
7
  6
CONTINUOUS
 10
129.0106995988
 20
153.4062618158
 11
129.9122607448
 21
152.5047006698
  0
LINE
  8
0
 62
7
  6
CONTINUOUS
 10
131.1320199424
 20
151.2849414722
 11
132.0335810884
 21
150.3833803262
  0
LINE
  8
0
 62
7
  6
CONTINUOUS
 10
128.1091384528
 20
155.7927472023
 11
127.6848743841
 21
156.217011271
  0
LINE
  8
0
 62
7
  6
CONTINUOUS
 10
132.1396471056
 20
153.6714268587
 11
132.5639111743
 21
153.24716279
  0
LINE
  8
0
 62
7
  6
CONTINUOUS
 10
133.4124393117
 20
153.8835588931
 11
133.1455045333
 21
154.1504936715
  0
LINE
  8
0
 62
7
  6
CONTINUOUS
 10
132.3517791399
 20
154.9442190649
 11
131.4502179939
 21
155.8457802109
  0
LINE
  8
0
 62
7
  6
CONTINUOUS
 10
131.2380859596
 20
156.0579122452
 11
130.3365248136
 21
156.9594733912
  0
LINE
  8
0
 62
7
  6
CONTINUOUS
 10
129.116765616
 20
158.1792325888
 11
128.21520447
 21
159.0807937348
  0
LINE
  8
0
 62
7
  6
CONTINUOUS
 10
128.0030724356
 20
159.2929257692
 11
127.1015112896
 21
160.1944869152
  0
LINE
  8
0
 62
7
  6
CONTINUOUS
 10
130.1307445086
 20
157.5357776495
 11
130.3178358386
 21
157.3486863195
  0
LINE
  8
0
 62
7
  6
CONTINUOUS
 10
132.974536921
 20
154.6919852372
 11
133.1616285721
 21
154.504893586
  0
LINE
  8
0
 62
7
  6
CONTINUOUS
 10
130.4222469126
 20
157.4530973935
 11
130.2351555826
 21
157.6401887235
  0
LINE
  8
0
 62
7
  6
CONTINUOUS
 10
128.1240416145
 20
160.1689471045
 11
128.348551553
 21
159.9444371659
  0
LINE
  8
0
 62
7
  6
CONTINUOUS
 10
129.4711012458
 20
158.8218874731
 11
129.6207743955
 21
158.6722143235
  0
LINE
  8
0
 62
7
  6
CONTINUOUS
 10
129.9575393033
 20
158.3354494156
 11
130.1446310615
 21
158.1483576574
  0
LINE
  8
0
 62
7
  6
CONTINUOUS
 10
130.443977789
 20
157.8490109299
 11
130.631069119
 21
157.6619195999
  0
LINE
  8
0
 62
7
  6
CONTINUOUS
 10
131.4542722984
 20
156.8387164205
 11
131.678782237
 21
156.614206482
  0
LINE
  8
0
 62
7
  6
CONTINUOUS
 10
132.8013319298
 20
155.4916567892
 11
132.9510052935
 21
155.3419834254
  0
LINE
  8
0
 62
7
  6
CONTINUOUS
 10
131.7623110962
 20
156.6977353411
 11
131.5378011576
 21
156.9222452797
  0
LINE
  8
0
 62
7
  6
CONTINUOUS
 10
128.4320804122
 20
160.0279660251
 11
128.2075704736
 21
160.2524759636
  0
LINE
  8
0
 62
7
  6
CONTINUOUS
 10
132.2948598324
 20
156.3322443232
 11
132.1077682884
 21
156.5193358673
  0
LINE
  8
0
 62
7
  6
CONTINUOUS
 10
127.954334425
 20
160.6727697307
 11
127.767243095
 21
160.8598610606
  0
LINE
  8
0
 62
7
  6
CONTINUOUS
 10
134.170122165
 20
154.5405108498
 11
133.9830305138
 21
154.727602501
  0
LINE
  8
0
 62
7
  6
CONTINUOUS
 10
131.4220483281
 20
157.3303491163
 11
131.8336500249
 21
156.9187474195
  0
LINE
  8
0
 62
7
  6
CONTINUOUS
 10
131.9171789133
 20
157.0022763079
 11
131.5055772165
 21
157.4138780047
  0
LINE
  8
0
 62
7
  6
CONTINUOUS
 10
134.2336171206
 20
154.9781891077
 11
134.4207087718
 21
154.7910974566
  0
LINE
  8
0
 62
7
  6
CONTINUOUS
 10
129.1116528709
 20
160.1836822459
 11
129.2987446291
 21
159.9965904877
  0
LINE
  8
0
 62
7
  6
CONTINUOUS
 10
128.6339068909
 20
160.8284859588
 11
128.8584168295
 21
160.6039760202
  0
LINE
  8
0
 62
7
  6
CONTINUOUS
 10
132.1138111527
 20
157.348581697
 11
132.3383210913
 21
157.1240717584
  0
LINE
  8
0
 62
7
  6
CONTINUOUS
 10
134.1430927844
 20
155.4863577983
 11
133.9560011333
 21
155.6734494495
  0
LINE
  8
0
 62
7
  6
CONTINUOUS
 10
133.2824713176
 20
156.3469792651
 11
133.0953797735
 21
156.5340708092
  0
LINE
  8
0
 62
7
  6
CONTINUOUS
 10
132.4218499578
 20
157.2076006249
 11
132.1973400192
 21
157.4321105635
  0
LINE
  8
0
 62
7
  6
CONTINUOUS
 10
131.7857385366
 20
157.8437120461
 11
131.5986467784
 21
158.0308038043
  0
LINE
  8
0
 62
7
  6
CONTINUOUS
 10
131.2993000509
 20
158.3301505318
 11
131.1122087209
 21
158.5172418618
  0
LINE
  8
0
 62
7
  6
CONTINUOUS
 10
130.8128619934
 20
158.8165885893
 11
130.6257702352
 21
159.0036803475
  0
LINE
  8
0
 62
7
  6
CONTINUOUS
 10
129.9522404195
 20
159.6772101632
 11
129.7651490895
 21
159.8643014932
  0
LINE
  8
0
 62
7
  6
CONTINUOUS
 10
128.941945696
 20
160.6875048867
 11
128.7174357574
 21
160.9120148253
  0
LINE
  8
0
 62
7
  6
CONTINUOUS
 10
134.0944372011
 20
154.2403159474
 11
134.3354832658
 21
153.9575054531
  0
LINE
  8
0
 62
7
  6
CONTINUOUS
 10
134.4564304124
 20
154.0036160249
 11
134.2153844012
 21
154.2864264656
  0
LINE
  8
0
 62
7
  6
CONTINUOUS
 10
127.9204138907
 20
160.4143392578
 11
128.1240416145
 21
160.1689471045
  0
LINE
  8
0
 62
7
  6
CONTINUOUS
 10
128.2075704736
 20
160.2524759636
 11
128.0039427499
 21
160.497868117
  0
LINE
  8
0
 62
7
  6
CONTINUOUS
 10
131.2506447888
 20
157.0841083598
 11
131.4542722984
 21
156.8387164205
  0
LINE
  8
0
 62
7
  6
CONTINUOUS
 10
128.8584168295
 20
160.6039760202
 11
129.062044546
 21
160.3585838596
  0
LINE
  8
0
 62
7
  6
CONTINUOUS
 10
129.1455734179
 20
160.4421127315
 11
128.941945696
 21
160.6875048867
  0
LINE
  8
0
 62
7
  6
CONTINUOUS
 10
135.2073418929
 20
154.3803442566
 11
135.0037141977
 21
154.625736385
  0
LINE
  8
0
 62
7
  6
CONTINUOUS
 10
129.7043032546
 20
158.7557431826
 11
129.5755123198
 21
158.9262985471
  0
LINE
  8
0
 62
7
  6
CONTINUOUS
 10
131.5378011576
 20
156.9222452797
 11
131.4090100086
 21
157.0928008582
  0
LINE
  8
0
 62
7
  6
CONTINUOUS
 10
133.0345341527
 20
155.4255122846
 11
132.9057430038
 21
155.5960678631
  0
LINE
  8
0
 62
7
  6
CONTINUOUS
 10
132.5506408908
 20
157.0370452587
 11
132.4218499578
 21
157.2076006249
  0
LINE
  8
0
 62
7
  6
CONTINUOUS
 10
128.1796925677
 20
160.8232915127
 11
128.7113930998
 21
160.0827687741
  0
LINE
  8
0
 62
7
  6
CONTINUOUS
 10
128.8862947427
 20
160.0331604785
 11
128.3545941814
 21
160.7736831878
  0
LINE
  8
0
 62
7
  6
CONTINUOUS
 10
127.8290411362
 20
160.5474764419
 11
127.9204138907
 21
160.4143392578
  0
LINE
  8
0
 62
7
  6
CONTINUOUS
 10
129.3797284914
 20
158.9550246572
 11
129.4711012458
 21
158.8218874731
  0
LINE
  8
0
 62
7
  6
CONTINUOUS
 10
129.2369461706
 20
160.3089755456
 11
129.1455734179
 21
160.4421127315
  0
LINE
  8
0
 62
7
  6
CONTINUOUS
 10
132.7099591753
 20
155.6247939732
 11
132.8013319298
 21
155.4916567892
  0
LINE
  8
0
 62
7
  6
CONTINUOUS
 10
134.9576036186
 20
154.5047892311
 11
135.1403491471
 21
154.2385148289
  0
LINE
  8
0
 62
7
  6
CONTINUOUS
 10
135.2987146455
 20
154.2472070707
 11
135.2073418929
 21
154.3803442566
  0
LINE
  8
0
 62
7
  6
CONTINUOUS
 10
128.0039427499
 20
160.497868117
 11
127.9499881757
 21
160.5935871207
  0
LINE
  8
0
 62
7
  6
CONTINUOUS
 10
129.5755123198
 20
158.9262985471
 11
129.5215577457
 21
159.0220175508
  0
LINE
  8
0
 62
7
  6
CONTINUOUS
 10
129.062044546
 20
160.3585838596
 11
129.1159991201
 21
160.2628648559
  0
LINE
  8
0
 62
7
  6
CONTINUOUS
 10
131.4090100086
 20
157.0928008582
 11
131.3550558627
 21
157.1885194337
  0
LINE
  8
0
 62
7
  6
CONTINUOUS
 10
132.9057430038
 20
155.5960678631
 11
132.8517886437
 21
155.6917866527
  0
LINE
  8
0
 62
7
  6
CONTINUOUS
 10
132.3383210913
 20
157.1240717584
 11
132.446229804
 21
156.9326341719
  0
LINE
  8
0
 62
7
  6
CONTINUOUS
 10
127.7585505965
 20
160.7014958408
 11
127.8290411362
 21
160.5474764419
  0
LINE
  8
0
 62
7
  6
CONTINUOUS
 10
134.8680319887
 20
153.5920144486
 11
134.9846330601
 21
153.5589422364
  0
LINE
  8
0
 62
7
  6
CONTINUOUS
 10
134.897606421
 20
153.7712621642
 11
134.7227048073
 21
153.8208704891
  0
LINE
  8
0
 62
7
  6
CONTINUOUS
 10
133.2755801639
 20
155.1427018438
 11
133.3921812753
 21
155.1096295915
  0
LINE
  8
0
 62
7
  6
CONTINUOUS
 10
133.4757101345
 20
155.1931584507
 11
133.359109023
 21
155.226230703
  0
LINE
  8
0
 62
7
  6
CONTINUOUS
 10
134.5294660098
 20
154.9746912695
 11
134.3545643889
 21
155.0242995871
  0
LINE
  8
0
 62
7
  6
CONTINUOUS
 10
132.0573115744
 20
156.3192060037
 11
132.1739127929
 21
156.2861336444
  0
LINE
  8
0
 62
7
  6
CONTINUOUS
 10
132.2704799716
 20
156.6072107616
 11
132.3870810052
 21
156.5741386456
  0
LINE
  8
0
 62
7
  6
CONTINUOUS
 10
132.3000542859
 20
156.7864586537
 11
132.1834532815
 21
156.819530799
  0
LINE
  8
0
 62
7
  6
CONTINUOUS
 10
131.7100535435
 20
157.5435171145
 11
131.8849551718
 21
157.4939088042
  0
LINE
  8
0
 62
7
  6
CONTINUOUS
 10
129.945349587
 20
158.4729324207
 11
130.0619503773
 21
158.4398604896
  0
LINE
  8
0
 62
7
  6
CONTINUOUS
 10
130.1454792365
 20
158.5233893488
 11
130.0288784462
 21
158.5564612799
  0
LINE
  8
0
 62
7
  6
CONTINUOUS
 10
133.1215608721
 20
155.2131922765
 11
133.2755801639
 21
155.1427018438
  0
LINE
  8
0
 62
7
  6
CONTINUOUS
 10
133.359109023
 20
155.226230703
 11
133.2050897312
 21
155.2967211356
  0
LINE
  8
0
 62
7
  6
CONTINUOUS
 10
134.5207737182
 20
154.8163258282
 11
134.6747931706
 21
154.745835235
  0
LINE
  8
0
 62
7
  6
CONTINUOUS
 10
129.7913301881
 20
158.5434229604
 11
129.945349587
 21
158.4729324207
  0
LINE
  8
0
 62
7
  6
CONTINUOUS
 10
131.9893662585
 20
157.598319891
 11
131.8353468542
 21
157.6688104252
  0
LINE
  8
0
 62
7
  6
CONTINUOUS
 10
130.0288784462
 20
158.5564612799
 11
129.8748590473
 21
158.6269518196
  0
LINE
  8
0
 62
7
  6
CONTINUOUS
 10
128.3676325155
 20
161.0112314605
 11
128.4633515192
 21
160.9572768863
  0
LINE
  8
0
 62
7
  6
CONTINUOUS
 10
128.4720436023
 20
161.1156425472
 11
128.2806060175
 21
161.2235512618
  0
LINE
  8
0
 62
7
  6
CONTINUOUS
 10
133.986528374
 20
154.4317536337
 11
134.0944372011
 21
154.2403159474
  0
LINE
  8
0
 62
7
  6
CONTINUOUS
 10
132.6045954631
 20
156.9413262531
 11
132.5506408908
 21
157.0370452587
  0
LINE
  8
0
 62
7
  6
CONTINUOUS
 10
128.3545941814
 20
160.7736831878
 11
128.2841036417
 21
160.9277025867
  0
LINE
  8
0
 62
7
  6
CONTINUOUS
 10
128.7113930998
 20
160.0827687741
 11
128.7818836395
 21
159.9287493753
  0
LINE
  8
0
 62
7
  6
CONTINUOUS
 10
129.3092379517
 20
159.109044056
 11
129.3797284914
 21
158.9550246572
  0
LINE
  8
0
 62
7
  6
CONTINUOUS
 10
129.3074367066
 20
160.1549561431
 11
129.2369461706
 21
160.3089755456
  0
LINE
  8
0
 62
7
  6
CONTINUOUS
 10
131.1801542491
 20
157.2381277586
 11
131.2506447888
 21
157.0841083598
  0
LINE
  8
0
 62
7
  6
CONTINUOUS
 10
132.6394686356
 20
155.7788133721
 11
132.7099591753
 21
155.6247939732
  0
LINE
  8
0
 62
7
  6
CONTINUOUS
 10
134.2153844012
 20
154.2864264656
 11
134.144893808
 21
154.440445918
  0
LINE
  8
0
 62
7
  6
CONTINUOUS
 10
135.369205195
 20
154.0931876548
 11
135.2987146455
 21
154.2472070707
  0
LINE
  8
0
 62
7
  6
CONTINUOUS
 10
128.0926660625
 20
161.0356113067
 11
128.1796925677
 21
160.8232915127
  0
LINE
  8
0
 62
7
  6
CONTINUOUS
 10
128.9733212187
 20
159.8208406552
 11
128.8862947427
 21
160.0331604785
  0
LINE
  8
0
 62
7
  6
CONTINUOUS
 10
129.2761655923
 20
159.2256452746
 11
129.3092379517
 21
159.109044056
  0
LINE
  8
0
 62
7
  6
CONTINUOUS
 10
129.5215577457
 20
159.0220175508
 11
129.4884858146
 21
159.1386183411
  0
LINE
  8
0
 62
7
  6
CONTINUOUS
 10
131.1470818897
 20
157.3547289771
 11
131.1801542491
 21
157.2381277586
  0
LINE
  8
0
 62
7
  6
CONTINUOUS
 10
132.6063964904
 20
155.8954143765
 11
132.6394686356
 21
155.7788133721
  0
LINE
  8
0
 62
7
  6
CONTINUOUS
 10
132.8517886437
 20
155.6917866527
 11
132.8187164985
 21
155.8083876571
  0
LINE
  8
0
 62
7
  6
CONTINUOUS
 10
132.654203777
 20
156.7664246285
 11
132.6045954631
 21
156.9413262531
  0
LINE
  8
0
 62
7
  6
CONTINUOUS
 10
133.9369200491
 20
154.6066552473
 11
133.986528374
 21
154.4317536337
  0
LINE
  8
0
 62
7
  6
CONTINUOUS
 10
135.1403491471
 20
154.2385148289
 11
135.1899574573
 21
154.0636132006
  0
LINE
  8
0
 62
7
  6
CONTINUOUS
 10
135.4022773998
 20
153.9765865762
 11
135.369205195
 21
154.0931876548
  0
LINE
  8
0
 62
7
  6
CONTINUOUS
 10
127.767243095
 20
160.8598610606
 11
127.7585505965
 21
160.7014958408
  0
LINE
  8
0
 62
7
  6
CONTINUOUS
 10
127.9499881757
 20
160.5935871207
 11
127.954334425
 21
160.6727697307
  0
LINE
  8
0
 62
7
  6
CONTINUOUS
 10
128.1013585756
 20
161.1939765412
 11
128.0926660625
 21
161.0356113067
  0
LINE
  8
0
 62
7
  6
CONTINUOUS
 10
128.2841036417
 20
160.9277025867
 11
128.2884499055
 21
161.0068852112
  0
LINE
  8
0
 62
7
  6
CONTINUOUS
 10
128.7818836395
 20
159.9287493753
 11
128.7775373903
 21
159.8495667653
  0
LINE
  8
0
 62
7
  6
CONTINUOUS
 10
128.9646291485
 20
159.6624750071
 11
128.9733212187
 21
159.8208406552
  0
LINE
  8
0
 62
7
  6
CONTINUOUS
 10
129.1159991201
 20
160.2628648559
 11
129.1116528709
 21
160.1836822459
  0
LINE
  8
0
 62
7
  6
CONTINUOUS
 10
129.2987446291
 20
159.9965904877
 11
129.3074367066
 21
160.1549561431
  0
LINE
  8
0
 62
7
  6
CONTINUOUS
 10
134.9846330601
 20
153.5589422364
 11
135.1429985643
 21
153.5676344505
  0
LINE
  8
0
 62
7
  6
CONTINUOUS
 10
134.9767891647
 20
153.7756082797
 11
134.897606421
 21
153.7712621642
  0
LINE
  8
0
 62
7
  6
CONTINUOUS
 10
132.1739127929
 20
156.2861336444
 11
132.2530954029
 21
156.2904798936
  0
LINE
  8
0
 62
7
  6
CONTINUOUS
 10
132.1077682884
 20
156.5193358673
 11
132.0285854643
 21
156.5149898322
  0
LINE
  8
0
 62
7
  6
CONTINUOUS
 10
132.3870810052
 20
156.5741386456
 11
132.5454464392
 21
156.58283093
  0
LINE
  8
0
 62
7
  6
CONTINUOUS
 10
128.7853812856
 20
159.6329007221
 11
128.9228647189
 21
159.6207105775
  0
LINE
  8
0
 62
7
  6
CONTINUOUS
 10
128.2806060175
 20
161.2235512618
 11
128.1431230051
 21
161.2357409708
  0
LINE
  8
0
 62
7
  6
CONTINUOUS
 10
131.3550558627
 20
157.1885194337
 11
131.3594016837
 21
157.2677024719
  0
LINE
  8
0
 62
7
  6
CONTINUOUS
 10
131.7813922837
 20
157.7645294325
 11
131.7857385366
 21
157.8437120461
  0
LINE
  8
0
 62
7
  6
CONTINUOUS
 10
132.446229804
 20
156.9326341719
 11
132.4418837689
 21
156.8534513479
  0
LINE
  8
0
 62
7
  6
CONTINUOUS
 10
132.6107425255
 20
155.9745972006
 11
132.6063964904
 21
155.8954143765
  0
LINE
  8
0
 62
7
  6
CONTINUOUS
 10
135.3935851711
 20
153.8182210573
 11
135.4022773998
 21
153.9765865762
  0
LINE
  8
0
 62
7
  6
CONTINUOUS
 10
134.4207087718
 20
154.7910974566
 11
134.5207737182
 21
154.8163258282
  0
LINE
  8
0
 62
7
  6
CONTINUOUS
 10
131.6308705053
 20
157.5391712935
 11
131.7100535435
 21
157.5435171145
  0
LINE
  8
0
 62
7
  6
CONTINUOUS
 10
131.8353468542
 20
157.6688104252
 11
131.7561638087
 21
157.6644645968
  0
LINE
  8
0
 62
7
  6
CONTINUOUS
 10
128.7775373903
 20
159.8495667653
 11
128.6983547804
 21
159.8452205161
  0
LINE
  8
0
 62
7
  6
CONTINUOUS
 10
128.2884499055
 20
161.0068852112
 11
128.3676325155
 21
161.0112314605
  0
LINE
  8
0
 62
7
  6
CONTINUOUS
 10
135.1899574573
 20
154.0636132006
 11
135.1603830251
 21
153.8843654849
  0
LINE
  8
0
 62
7
  6
CONTINUOUS
 10
129.3013940563
 20
159.3257100993
 11
129.2761655923
 21
159.2256452746
  0
LINE
  8
0
 62
7
  6
CONTINUOUS
 10
131.1723103538
 20
157.4547938019
 11
131.1470818897
 21
157.3547289771
  0
LINE
  8
0
 62
7
  6
CONTINUOUS
 10
131.5986467784
 20
158.0308038043
 11
131.573418307
 21
157.9307389723
  0
LINE
  8
0
 62
7
  6
CONTINUOUS
 10
131.7561638087
 20
157.6644645968
 11
131.7813922837
 21
157.7645294325
  0
LINE
  8
0
 62
7
  6
CONTINUOUS
 10
134.144893808
 20
154.440445918
 11
134.170122165
 21
154.5405108498
  0
LINE
  8
0
 62
7
  6
CONTINUOUS
 10
187.7334944332
 20
274.4605194118
 11
139.528912969
 21
226.2559379475
  0
LINE
  8
0
 62
7
  6
CONTINUOUS
 10
192.561921558
 20
276.6585093105
 11
191.5355045345
 21
275.632092287
  0
LINE
  8
0
 62
7
  6
CONTINUOUS
 10
132.4001193247
 20
156.8116869036
 11
132.3000542859
 21
156.7864586537
  0
LINE
  8
0
 62
7
  6
CONTINUOUS
 10
139.528912969
 20
214.9422294485
 11
188.3192808709
 21
166.1518615467
  0
LINE
  8
0
 62
7
  6
CONTINUOUS
 10
151.4875181796
 20
340.526600963
 11
152.2880133496
 21
332.9485688688
  0
LINE
  8
0
 62
7
  6
CONTINUOUS
 10
152.2880133496
 20
108.2495985273
 11
151.4875181796
 21
100.671566433
  0
LINE
  8
0
 62
7
  6
CONTINUOUS
 10
200.6160455061
 20
347.6573520514
 11
198.4556192771
 21
340.3498270636
  0
LINE
  8
0
 62
7
  6
CONTINUOUS
 10
132.6080930836
 20
156.6454775743
 11
132.654203777
 21
156.7664246285
  0
LINE
  8
0
 62
7
  6
CONTINUOUS
 10
132.8187164985
 20
155.8083876571
 11
132.8648269632
 21
155.9293349108
  0
LINE
  8
0
 62
7
  6
CONTINUOUS
 10
133.9830305138
 20
154.727602501
 11
133.9369200491
 21
154.6066552473
  0
LINE
  8
0
 62
7
  6
CONTINUOUS
 10
129.36838695
 20
159.4675393536
 11
129.3013940563
 21
159.3257100993
  0
LINE
  8
0
 62
7
  6
CONTINUOUS
 10
129.4884858146
 20
159.1386183411
 11
129.5554782799
 21
159.2804480236
  0
LINE
  8
0
 62
7
  6
CONTINUOUS
 10
131.573418307
 20
157.9307389723
 11
131.5064258343
 21
157.7889092825
  0
LINE
  8
0
 62
7
  6
CONTINUOUS
 10
132.6777354191
 20
156.1164264549
 11
132.6107425255
 21
155.9745972006
  0
LINE
  8
0
 62
7
  6
CONTINUOUS
 10
112.4670460579
 20
132.7550473887
 11
108.8274976221
 21
126.0601948793
  0
LINE
  8
0
 62
7
  6
CONTINUOUS
 10
248.7337066673
 20
335.444633569
 11
243.9412643484
 21
329.5201201241
  0
LINE
  8
0
 62
7
  6
CONTINUOUS
 10
181.8507793511
 20
253.1628764998
 11
161.4123423186
 21
232.7244394673
  0
LINE
  8
0
 62
7
  6
CONTINUOUS
 10
190.1092319085
 20
259.1585873574
 11
185.8665912214
 21
254.9159466702
  0
LINE
  8
0
 62
7
  6
CONTINUOUS
 10
159.6592721481
 20
228.708627597
 11
155.416631461
 21
224.4659869099
  0
LINE
  8
0
 62
7
  6
CONTINUOUS
 10
85.0550986943
 20
170.63395447
 11
79.1305852494
 21
165.8415121511
  0
LINE
  8
0
 62
7
  6
CONTINUOUS
 10
288.5150239391
 20
305.7477211963
 11
281.8201714297
 21
302.1081727605
  0
LINE
  8
0
 62
7
  6
CONTINUOUS
 10
74.2253917548
 20
216.1195995413
 11
66.917866767
 21
213.9591733123
  0
LINE
  8
0
 62
7
  6
CONTINUOUS
 10
74.0486178553
 20
178.1104667573
 11
81.6266499496
 21
178.9109619273
  0
LINE
  8
0
 62
7
  6
CONTINUOUS
 10
306.3256202911
 20
178.9109619273
 11
313.9036523854
 21
178.1104667573
  0
LINE
  8
0
 62
7
  6
CONTINUOUS
 10
66.917866767
 20
227.2389940838
 11
74.2253917548
 21
225.0785678548
  0
LINE
  8
0
 62
7
  6
CONTINUOUS
 10
281.8201714297
 20
139.0899946356
 11
288.5150239391
 21
135.4504461998
  0
LINE
  8
0
 62
7
  6
CONTINUOUS
 10
79.1305852494
 20
275.356655245
 11
85.0550986943
 21
270.5642129261
  0
LINE
  8
0
 62
7
  6
CONTINUOUS
 10
161.4123423186
 20
208.4737279288
 11
181.8507793511
 21
188.0352908963
  0
LINE
  8
0
 62
7
  6
CONTINUOUS
 10
155.416631461
 20
216.7321804862
 11
159.6592721481
 21
212.4895397991
  0
LINE
  8
0
 62
7
  6
CONTINUOUS
 10
185.8665912214
 20
186.2822207258
 11
190.1092319085
 21
182.0395800387
  0
LINE
  8
0
 62
7
  6
CONTINUOUS
 10
243.9412643484
 20
111.6780472719
 11
248.7337066673
 21
105.753533827
  0
LINE
  8
0
 62
7
  6
CONTINUOUS
 10
108.8274976221
 20
315.1379725167
 11
112.4670460579
 21
308.4431200074
  0
LINE
  8
0
 62
7
  6
CONTINUOUS
 10
198.4556192771
 20
100.8483403325
 11
200.6160455061
 21
93.5408153447
  0
LINE
  8
0
 62
7
  6
CONTINUOUS
 10
177.0761351204
 20
351.1152098436
 11
177.0761351204
 21
348.289083698
  0
LINE
  8
0
 62
7
  6
CONTINUOUS
 10
177.0761351204
 20
92.909083698
 11
177.0761351204
 21
90.0829575525
  0
LINE
  8
0
 62
7
  6
CONTINUOUS
 10
228.3089301533
 20
347.6476113135
 11
227.2274184996
 21
345.0366112114
  0
LINE
  8
0
 62
7
  6
CONTINUOUS
 10
129.4977235422
 20
109.0962561986
 11
128.4162118885
 21
106.4852560965
  0
LINE
  8
0
 62
7
  6
CONTINUOUS
 10
135.3057102065
 20
153.6555094443
 11
135.3935851711
 21
153.8182210573
  0
LINE
  8
0
 62
7
  6
CONTINUOUS
 10
274.31486837
 20
324.8380261518
 11
272.316495408
 21
322.8396531898
  0
LINE
  8
0
 62
7
  6
CONTINUOUS
 10
91.7355656286
 20
142.2587234104
 11
89.7371926666
 21
140.2603504484
  0
LINE
  8
0
 62
7
  6
CONTINUOUS
 10
308.0899627219
 20
286.1590069298
 11
305.4789626197
 21
285.0774952762
  0
LINE
  8
0
 62
7
  6
CONTINUOUS
 10
69.538607607
 20
187.3478003188
 11
66.9276075048
 21
186.2662886651
  0
LINE
  8
0
 62
7
  6
CONTINUOUS
 10
63.4600089748
 20
203.699083698
 11
66.2861351204
 21
203.699083698
  0
LINE
  8
0
 62
7
  6
CONTINUOUS
 10
321.6661351204
 20
203.699083698
 11
324.4922612659
 21
203.699083698
  0
LINE
  8
0
 62
7
  6
CONTINUOUS
 10
66.9276075048
 20
254.931878731
 11
69.538607607
 21
253.8503670773
  0
LINE
  8
0
 62
7
  6
CONTINUOUS
 10
305.4789626197
 20
156.1206721199
 11
308.0899627219
 21
155.0391604662
  0
LINE
  8
0
 62
7
  6
CONTINUOUS
 10
89.7371926666
 20
300.9378169477
 11
91.7355656286
 21
298.9394439857
  0
LINE
  8
0
 62
7
  6
CONTINUOUS
 10
272.316495408
 20
118.3585142063
 11
274.31486837
 21
116.3601412443
  0
LINE
  8
0
 62
7
  6
CONTINUOUS
 10
128.4162118885
 20
334.7129112996
 11
129.4977235422
 21
332.1019111974
  0
LINE
  8
0
 62
7
  6
CONTINUOUS
 10
227.2274184996
 20
96.1615561847
 11
228.3089301533
 21
93.5505560825
  0
LINE
  8
AXES
 62
2
  6
CONTINUOUS
 10
193.9761351204
 20
222.084083698
 11
193.9761351204
 21
219.114083698
  0
LINE
  8
AXES
 62
2
  6
CENTER
 10
193.9761351204
 20
213.174083698
 11
193.9761351204
 21
85.599083698
  0
LINE
  8
AXES
 62
2
  6
CENTER
 10
193.9761351204
 20
228.024083698
 11
193.9761351204
 21
355.599083698
  0
LINE
  8
0
 62
7
  6
CONTINUOUS
 10
214.4279356816
 20
340.9242244239
 11
214.4991525859
 21
341.3432185301
  0
LINE
  8
0
 62
7
  6
CONTINUOUS
 10
173.5243345591
 20
100.2739429721
 11
173.4531176548
 21
99.854948866
  0
LINE
  8
0
 62
7
  6
CONTINUOUS
 10
166.7301509467
 20
101.1922300897
 11
166.7334261204
 21
101.206583698
  0
LINE
  8
0
 62
7
  6
CONTINUOUS
 10
221.222119294
 20
340.0059373063
 11
221.2188441204
 21
339.991583698
  0
LINE
  8
0
 62
7
  6
CONTINUOUS
 10
258.9175729146
 20
323.9384532244
 11
259.1437108577
 21
324.2982997739
  0
LINE
  8
0
 62
7
  6
CONTINUOUS
 10
129.0346973261
 20
117.2597141716
 11
128.808559383
 21
116.8998676222
  0
LINE
  8
0
 62
7
  6
CONTINUOUS
 10
123.1091034124
 20
120.7081223495
 11
123.1176221664
 21
120.7201299997
  0
LINE
  8
0
 62
7
  6
CONTINUOUS
 10
264.8431668283
 20
320.4900450466
 11
264.8346480743
 21
320.4780373963
  0
LINE
  8
0
 62
7
  6
CONTINUOUS
 10
127.1015112896
 20
160.1944869152
 11
124.6619928945
 21
157.7549685201
  0
LINE
  8
0
 62
7
  6
CONTINUOUS
 10
128.1431230051
 20
161.2357409708
 11
128.1013585756
 21
161.1939765412
  0
LINE
  8
0
 62
7
  6
CONTINUOUS
 10
125.5635540406
 20
156.8534073741
 11
128.0030724356
 21
159.2929257692
  0
LINE
  8
0
 62
7
  6
CONTINUOUS
 10
128.21520447
 20
159.0807937348
 11
126.8363462467
 21
157.7019355115
  0
LINE
  8
0
 62
7
  6
CONTINUOUS
 10
128.9228647189
 20
159.6207105775
 11
128.9646291485
 21
159.6624750071
  0
LINE
  8
0
 62
7
  6
CONTINUOUS
 10
129.7651490895
 20
159.8643014932
 11
129.36838695
 21
159.4675393536
  0
LINE
  8
0
 62
7
  6
CONTINUOUS
 10
129.5554782799
 20
159.2804480236
 11
129.9522404195
 21
159.6772101632
  0
LINE
  8
0
 62
7
  6
CONTINUOUS
 10
127.6848743841
 20
156.7473413569
 11
129.116765616
 21
158.1792325888
  0
LINE
  8
0
 62
7
  6
CONTINUOUS
 10
130.6257702352
 20
159.0036803475
 11
130.1454792365
 21
158.5233893488
  0
LINE
  8
0
 62
7
  6
CONTINUOUS
 10
130.0619503773
 20
158.4398604896
 11
129.9575393033
 21
158.3354494156
  0
LINE
  8
0
 62
7
  6
CONTINUOUS
 10
130.1446310615
 20
158.1483576574
 11
130.8128619934
 21
158.8165885893
  0
LINE
  8
0
 62
7
  6
CONTINUOUS
 10
131.1122087209
 20
158.5172418618
 11
130.443977789
 21
157.8490109299
  0
LINE
  8
0
 62
7
  6
CONTINUOUS
 10
130.2351555826
 20
157.6401887235
 11
130.1307445086
 21
157.5357776495
  0
LINE
  8
0
 62
7
  6
CONTINUOUS
 10
130.3178358386
 20
157.3486863195
 11
130.4222469126
 21
157.4530973935
  0
LINE
  8
0
 62
7
  6
CONTINUOUS
 10
130.631069119
 20
157.6619195999
 11
131.2993000509
 21
158.3301505318
  0
LINE
  8
0
 62
7
  6
CONTINUOUS
 10
130.3365248136
 20
156.9594733912
 11
129.1697986246
 21
155.7927472023
  0
LINE
  8
0
 62
7
  6
CONTINUOUS
 10
128.3212704872
 20
154.9442190649
 11
127.8970064185
 21
154.5199549961
  0
LINE
  8
0
 62
7
  6
CONTINUOUS
 10
131.5064258343
 20
157.7889092825
 11
131.1723103538
 21
157.4547938019
  0
LINE
  8
0
 62
7
  6
CONTINUOUS
 10
131.5055772165
 20
157.4138780047
 11
131.6308705053
 21
157.5391712935
  0
LINE
  8
0
 62
7
  6
CONTINUOUS
 10
131.3594016837
 20
157.2677024719
 11
131.4220483281
 21
157.3303491163
  0
LINE
  8
0
 62
7
  6
CONTINUOUS
 10
128.7985675645
 20
153.6183938501
 11
131.2380859596
 21
156.0579122452
  0
LINE
  8
0
 62
7
  6
CONTINUOUS
 10
132.4418837689
 20
156.8534513479
 11
132.4001193247
 21
156.8116869036
  0
LINE
  8
0
 62
7
  6
CONTINUOUS
 10
131.4502179939
 20
155.8457802109
 11
129.0106995988
 21
153.4062618158
  0
LINE
  8
0
 62
7
  6
CONTINUOUS
 10
293.5204649392
 20
291.2201997882
 11
293.8670964689
 21
291.4661154059
  0
LINE
  8
0
 62
7
  6
CONTINUOUS
 10
94.4318053015
 20
149.9779676078
 11
94.0851737718
 21
149.7320519901
  0
LINE
  8
0
 62
7
  6
CONTINUOUS
 10
90.2769190445
 20
155.4315079607
 11
90.2893844757
 21
155.439341597
  0
LINE
  8
0
 62
7
  6
CONTINUOUS
 10
297.6753511962
 20
285.7666594353
 11
297.662885765
 21
285.7588257991
  0
LINE
  8
0
 62
7
  6
CONTINUOUS
 10
74.9836351204
 20
193.4476457867
 11
74.569281512
 21
193.3530995244
  0
LINE
  8
0
 62
7
  6
CONTINUOUS
 10
312.9686351204
 20
247.7505216093
 11
313.3829887287
 21
247.8450678717
  0
LINE
  8
0
 62
7
  6
CONTINUOUS
 10
314.7202699524
 20
241.1221011636
 11
314.7057555927
 21
241.1196341414
  0
LINE
  8
0
 62
7
  6
CONTINUOUS
 10
73.2320002883
 20
200.0760662324
 11
73.246514648
 21
200.0785332546
  0
LINE
  8
AXES
 62
2
  6
CONTINUOUS
 10
195.4611351204
 20
220.599083698
 11
192.4911351204
 21
220.599083698
  0
LINE
  8
AXES
 62
2
  6
CENTER
 10
186.5511351204
 20
220.599083698
 11
58.9761351204
 21
220.599083698
  0
LINE
  8
AXES
 62
2
  6
CENTER
 10
201.4011351204
 20
220.599083698
 11
328.9761351204
 21
220.599083698
  0
LINE
  8
0
 62
7
  6
CONTINUOUS
 10
73.6509943945
 20
241.0508842592
 11
73.2320002883
 21
241.1221011636
  0
LINE
  8
0
 62
7
  6
CONTINUOUS
 10
314.3012758462
 20
200.1472831368
 11
314.7202699524
 21
200.0760662324
  0
LINE
  8
0
 62
7
  6
CONTINUOUS
 10
313.3829887287
 20
193.3530995244
 11
313.3686351204
 21
193.356374698
  0
LINE
  8
0
 62
7
  6
CONTINUOUS
 10
74.569281512
 20
247.8450678717
 11
74.5836351204
 21
247.841792698
  0
LINE
  8
0
 62
7
  6
CONTINUOUS
 10
90.636765594
 20
285.5405214923
 11
90.2769190445
 21
285.7666594353
  0
LINE
  8
0
 62
7
  6
CONTINUOUS
 10
297.3155046467
 20
155.6576459037
 11
297.6753511962
 21
155.4315079607
  0
LINE
  8
0
 62
7
  6
CONTINUOUS
 10
293.8670964689
 20
149.7320519901
 11
293.8550888187
 21
149.7405707441
  0
LINE
  8
0
 62
7
  6
CONTINUOUS
 10
94.0851737718
 20
291.4661154059
 11
94.097181422
 21
291.4575966519
  0
LINE
  8
0
 62
7
  6
CONTINUOUS
 10
123.3550190301
 20
320.1434135168
 11
123.1091034124
 21
320.4900450466
  0
LINE
  8
0
 62
7
  6
CONTINUOUS
 10
264.5972512106
 20
121.0547538792
 11
264.8431668283
 21
120.7081223495
  0
LINE
  8
0
 62
7
  6
CONTINUOUS
 10
259.1437108577
 20
116.8998676222
 11
259.1358772214
 21
116.9123330534
  0
LINE
  8
0
 62
7
  6
CONTINUOUS
 10
128.808559383
 20
324.2982997739
 11
128.8163930193
 21
324.2858343426
  0
LINE
  8
0
 62
7
  6
CONTINUOUS
 10
166.8246972091
 20
339.591583698
 11
166.7301509467
 21
340.0059373063
  0
LINE
  8
0
 62
7
  6
CONTINUOUS
 10
221.1275730316
 20
101.606583698
 11
221.222119294
 21
101.1922300897
  0
LINE
  8
0
 62
7
  6
CONTINUOUS
 10
214.4991525859
 20
99.854948866
 11
214.4966855637
 21
99.8694632256
  0
LINE
  8
0
 62
7
  6
CONTINUOUS
 10
173.4531176548
 20
341.3432185301
 11
173.455584677
 21
341.3287041704
  0
LINE
  8
0
 62
7
  6
CONTINUOUS
 10
132.2530954029
 20
156.2904798936
 11
132.2948598324
 21
156.3322443232
  0
LINE
  8
0
 62
7
  6
CONTINUOUS
 10
132.5454464392
 20
156.58283093
 11
132.6080930836
 21
156.6454775743
  0
LINE
  8
0
 62
7
  6
CONTINUOUS
 10
133.0953797735
 20
156.5340708092
 11
132.6777354191
 21
156.1164264549
  0
LINE
  8
0
 62
7
  6
CONTINUOUS
 10
132.8648269632
 20
155.9293349108
 11
133.2824713176
 21
156.3469792651
  0
LINE
  8
0
 62
7
  6
CONTINUOUS
 10
129.9122607448
 20
152.5047006698
 11
131.0789869338
 21
153.6714268587
  0
LINE
  8
0
 62
7
  6
CONTINUOUS
 10
131.9275150712
 20
154.5199549961
 11
132.3517791399
 21
154.9442190649
  0
LINE
  8
0
 62
7
  6
CONTINUOUS
 10
133.9560011333
 20
155.6734494495
 11
133.4757101345
 21
155.1931584507
  0
LINE
  8
0
 62
7
  6
CONTINUOUS
 10
133.3921812753
 20
155.1096295915
 11
132.974536921
 21
154.6919852372
  0
LINE
  8
0
 62
7
  6
CONTINUOUS
 10
133.1616285721
 20
154.504893586
 11
134.1430927844
 21
155.4863577983
  0
LINE
  8
0
 62
7
  6
CONTINUOUS
 10
132.5639111743
 20
152.7168327041
 11
131.1320199424
 21
151.2849414722
  0
LINE
  8
0
 62
7
  6
CONTINUOUS
 10
135.1603830251
 20
153.8843654849
 11
135.0977363807
 21
153.8217188405
  0
LINE
  8
0
 62
7
  6
CONTINUOUS
 10
132.0335810884
 20
150.3833803262
 11
133.4124393117
 21
151.7622385495
  0
LINE
  8
0
 62
7
  6
CONTINUOUS
 10
210.8761351204
 20
90.0829575525
 11
210.8761351204
 21
92.909083698
  0
LINE
  8
0
 62
7
  6
CONTINUOUS
 10
210.8761351204
 20
348.289083698
 11
210.8761351204
 21
351.1152098436
  0
LINE
  8
0
 62
7
  6
CONTINUOUS
 10
159.6433400874
 20
93.5505560825
 11
160.7248517411
 21
96.1615561847
  0
LINE
  8
0
 62
7
  6
CONTINUOUS
 10
258.4545466985
 20
332.1019111974
 11
259.5360583522
 21
334.7129112996
  0
LINE
  8
0
 62
7
  6
CONTINUOUS
 10
113.6374018707
 20
116.3601412443
 11
115.6357748327
 21
118.3585142063
  0
LINE
  8
0
 62
7
  6
CONTINUOUS
 10
296.2167046121
 20
298.9394439857
 11
298.2150775741
 21
300.9378169477
  0
LINE
  8
0
 62
7
  6
CONTINUOUS
 10
79.8623075188
 20
155.0391604662
 11
82.473307621
 21
156.1206721199
  0
LINE
  8
0
 62
7
  6
CONTINUOUS
 10
318.4136626337
 20
253.8503670773
 11
321.0246627359
 21
254.931878731
  0
LINE
  8
0
 62
7
  6
CONTINUOUS
 10
324.4922612659
 20
237.499083698
 11
321.6661351204
 21
237.499083698
  0
LINE
  8
0
 62
7
  6
CONTINUOUS
 10
66.2861351204
 20
237.499083698
 11
63.4600089748
 21
237.499083698
  0
LINE
  8
0
 62
7
  6
CONTINUOUS
 10
321.0246627359
 20
186.2662886651
 11
318.4136626337
 21
187.3478003188
  0
LINE
  8
0
 62
7
  6
CONTINUOUS
 10
82.473307621
 20
285.0774952762
 11
79.8623075188
 21
286.1590069298
  0
LINE
  8
0
 62
7
  6
CONTINUOUS
 10
298.2150775741
 20
140.2603504484
 11
296.2167046121
 21
142.2587234104
  0
LINE
  8
0
 62
7
  6
CONTINUOUS
 10
115.6357748327
 20
322.8396531898
 11
113.6374018707
 21
324.8380261518
  0
LINE
  8
0
 62
7
  6
CONTINUOUS
 10
259.5360583522
 20
106.4852560965
 11
258.4545466985
 21
109.0962561986
  0
LINE
  8
0
 62
7
  6
CONTINUOUS
 10
160.7248517411
 20
345.0366112114
 11
159.6433400874
 21
347.6476113135
  0
LINE
  8
0
 62
7
  6
CONTINUOUS
 10
236.4647520611
 20
100.671566433
 11
235.6642568911
 21
108.2495985273
  0
LINE
  8
0
 62
7
  6
CONTINUOUS
 10
235.6642568911
 20
332.9485688688
 11
236.4647520611
 21
340.526600963
  0
LINE
  8
0
 62
7
  6
CONTINUOUS
 10
187.3362247346
 20
93.5408153447
 11
189.4966509636
 21
100.8483403325
  0
LINE
  8
0
 62
7
  6
CONTINUOUS
 10
275.4852241828
 20
308.4431200074
 11
279.1247726186
 21
315.1379725167
  0
LINE
  8
0
 62
7
  6
CONTINUOUS
 10
139.2185635734
 20
105.753533827
 11
144.0110058923
 21
111.6780472719
  0
LINE
  8
0
 62
7
  6
CONTINUOUS
 10
197.8430383322
 20
182.0395800387
 11
202.0856790193
 21
186.2822207258
  0
LINE
  8
0
 62
7
  6
CONTINUOUS
 10
228.2929980926
 20
212.4895397991
 11
232.5356387797
 21
216.7321804862
  0
LINE
  8
0
 62
7
  6
CONTINUOUS
 10
206.1014908896
 20
188.0352908963
 11
226.5399279221
 21
208.4737279288
  0
LINE
  8
0
 62
7
  6
CONTINUOUS
 10
302.8971715464
 20
270.5642129261
 11
308.8216849913
 21
275.356655245
  0
LINE
  8
0
 62
7
  6
CONTINUOUS
 10
99.4372463016
 20
135.4504461998
 11
106.132098811
 21
139.0899946356
  0
LINE
  8
0
 62
7
  6
CONTINUOUS
 10
135.1429985643
 20
153.5676344505
 11
135.3057102065
 21
153.6555094443
  0
LINE
  8
0
 62
7
  6
CONTINUOUS
 10
313.7268784859
 20
225.0785678548
 11
321.0344034737
 21
227.2389940838
  0
LINE
  8
0
 62
7
  6
CONTINUOUS
 10
313.9036523854
 20
263.0877006388
 11
306.3256202911
 21
262.2872054688
  0
LINE
  8
0
 62
7
  6
CONTINUOUS
 10
81.6266499496
 20
262.2872054688
 11
74.0486178553
 21
263.0877006388
  0
LINE
  8
0
 62
7
  6
CONTINUOUS
 10
321.0344034737
 20
213.9591733123
 11
313.7268784859
 21
216.1195995413
  0
LINE
  8
0
 62
7
  6
CONTINUOUS
 10
106.132098811
 20
302.1081727605
 11
99.4372463016
 21
305.7477211963
  0
LINE
  8
0
 62
7
  6
CONTINUOUS
 10
308.8216849913
 20
165.8415121511
 11
302.8971715464
 21
170.63395447
  0
LINE
  8
0
 62
7
  6
CONTINUOUS
 10
232.5356387797
 20
224.4659869099
 11
228.2929980926
 21
228.708627597
  0
LINE
  8
0
 62
7
  6
CONTINUOUS
 10
202.0856790193
 20
254.9159466702
 11
197.8430383322
 21
259.1585873574
  0
LINE
  8
0
 62
7
  6
CONTINUOUS
 10
226.5399279221
 20
232.7244394673
 11
206.1014908896
 21
253.1628764998
  0
LINE
  8
0
 62
7
  6
CONTINUOUS
 10
144.0110058923
 20
329.5201201241
 11
139.2185635734
 21
335.444633569
  0
LINE
  8
0
 62
7
  6
CONTINUOUS
 10
279.1247726186
 20
126.0601948793
 11
275.4852241828
 21
132.7550473887
  0
LINE
  8
0
 62
7
  6
CONTINUOUS
 10
189.4966509636
 20
340.3498270636
 11
187.3362247346
 21
347.6573520514
  0
LINE
  8
0
 62
7
  6
CONTINUOUS
 10
199.6329893698
 20
166.1518615467
 11
248.4233572717
 21
214.9422294485
  0
LINE
  8
0
 62
7
  6
CONTINUOUS
 10
134.3545643889
 20
155.0242995871
 11
134.2336171206
 21
154.9781891077
  0
LINE
  8
0
 62
7
  6
CONTINUOUS
 10
135.0977363807
 20
153.8217188405
 11
134.9767891647
 21
153.7756082797
  0
LINE
  8
0
 62
7
  6
CONTINUOUS
 10
196.4167657062
 20
275.632092287
 11
195.3903486827
 21
276.6585093105
  0
LINE
  8
0
 62
7
  6
CONTINUOUS
 10
248.4233572717
 20
226.2559379475
 11
200.2187758075
 21
274.4605194118
  0
LINE
  8
0
 62
7
  6
CONTINUOUS
 10
198.8045622451
 20
275.0463058494
 11
197.8309792686
 21
275.0463058494
  0
LINE
  8
0
 62
7
  6
CONTINUOUS
 10
190.1212909721
 20
275.0463058494
 11
189.1477079956
 21
275.0463058494
  0
LINE
  8
0
 62
7
  6
CONTINUOUS
 10
312.7807115306
 20
262.5701144313
 11
312.7716678754
 21
262.6541545388
  0
LINE
  8
0
 62
7
  6
CONTINUOUS
 10
313.3686351204
 20
193.356374698
 11
313.3686351204
 21
196.8504388757
  0
LINE
  8
0
 62
7
  6
CONTINUOUS
 10
313.3686351204
 20
216.599083698
 11
313.3686351204
 21
247.841792698
  0
LINE
  8
0
 62
7
  6
CONTINUOUS
 10
302.8311089845
 20
157.1408949169
 11
302.8233380582
 21
157.0298079758
  0
LINE
  8
0
 62
7
  6
CONTINUOUS
 10
302.8233380582
 20
157.0298079758
 11
302.8157223727
 21
156.9280743026
  0
LINE
  8
0
 62
7
  6
CONTINUOUS
 10
302.8157223727
 20
156.9280743026
 11
302.8104783092
 21
156.8628197785
  0
LINE
  8
0
 62
7
  6
CONTINUOUS
 10
302.8104783092
 20
156.8628197785
 11
302.8073377601
 21
156.8262467758
  0
POLYLINE
  8
0
 62
7
  6
CONTINUOUS
 66
1
 70
0
  0
VERTEX
  8
0
 62
7
  6
CONTINUOUS
 10
302.8073377601
 20
156.8262467758
  0
VERTEX
  8
0
 62
7
  6
CONTINUOUS
 10
302.8045556839
 20
156.79608576
  0
VERTEX
  8
0
 62
7
  6
CONTINUOUS
 10
302.803316787
 20
156.7836030721
  0
VERTEX
  8
0
 62
7
  6
CONTINUOUS
 10
302.8021878078
 20
156.7729382552
  0
VERTEX
  8
0
 62
7
  6
CONTINUOUS
 10
302.8011745005
 20
156.7641445227
  0
VERTEX
  8
0
 62
7
  6
CONTINUOUS
 10
302.800282198
 20
156.7572657311
  0
VERTEX
  8
0
 62
7
  6
CONTINUOUS
 10
302.7995161734
 20
156.7523361363
  0
VERTEX
  8
0
 62
7
  6
CONTINUOUS
 10
302.79888433
 20
156.7493800416
  0
VERTEX
  8
0
 62
7
  6
CONTINUOUS
 10
302.7983600977
 20
156.7484141968
  0
SEQEND
  0
POLYLINE
  8
0
 62
7
  6
CONTINUOUS
 66
1
 70
0
  0
VERTEX
  8
0
 62
7
  6
CONTINUOUS
 10
302.8311089158
 20
157.1408944528
  0
VERTEX
  8
0
 62
7
  6
CONTINUOUS
 10
302.8314024612
 20
157.1428743799
  0
VERTEX
  8
0
 62
7
  6
CONTINUOUS
 10
302.8320363877
 20
157.1448910349
  0
VERTEX
  8
0
 62
7
  6
CONTINUOUS
 10
302.8330613762
 20
157.1469788778
  0
SEQEND
  0
POLYLINE
  8
0
 62
7
  6
CONTINUOUS
 66
1
 70
0
  0
VERTEX
  8
0
 62
7
  6
CONTINUOUS
 10
319.7988697354
 20
213.9107168695
  0
VERTEX
  8
0
 62
7
  6
CONTINUOUS
 10
319.7986069748
 20
213.9096792159
  0
VERTEX
  8
0
 62
7
  6
CONTINUOUS
 10
319.7984239077
 20
213.9086094624
  0
VERTEX
  8
0
 62
7
  6
CONTINUOUS
 10
319.7983219079
 20
213.9074985344
  0
SEQEND
  0
POLYLINE
  8
0
 62
7
  6
CONTINUOUS
 66
1
 70
0
  0
VERTEX
  8
0
 62
7
  6
CONTINUOUS
 10
319.8942196182
 20
214.2457609796
  0
VERTEX
  8
0
 62
7
  6
CONTINUOUS
 10
319.8973928618
 20
214.2580172819
  0
VERTEX
  8
0
 62
7
  6
CONTINUOUS
 10
319.9000317632
 20
214.2685161211
  0
VERTEX
  8
0
 62
7
  6
CONTINUOUS
 10
319.9021230304
 20
214.2772046055
  0
VERTEX
  8
0
 62
7
  6
CONTINUOUS
 10
319.9036561331
 20
214.2840389728
  0
VERTEX
  8
0
 62
7
  6
CONTINUOUS
 10
319.9046233551
 20
214.2889848095
  0
VERTEX
  8
0
 62
7
  6
CONTINUOUS
 10
319.9050198328
 20
214.292017223
  0
VERTEX
  8
0
 62
7
  6
CONTINUOUS
 10
319.9048435797
 20
214.2931209657
  0
SEQEND
  0
LINE
  8
0
 62
7
  6
CONTINUOUS
 10
319.8863366667
 20
214.216231565
 11
319.8942196182
 21
214.2457609796
  0
LINE
  8
0
 62
7
  6
CONTINUOUS
 10
319.876541608
 20
214.1805224183
 11
319.8863366667
 21
214.216231565
  0
LINE
  8
0
 62
7
  6
CONTINUOUS
 10
319.8587048691
 20
214.1169753395
 11
319.876541608
 21
214.1805224183
  0
LINE
  8
0
 62
7
  6
CONTINUOUS
 10
319.8378244552
 20
214.0440417211
 11
319.8587048691
 21
214.1169753395
  0
POLYLINE
  8
0
 62
7
  6
CONTINUOUS
 66
1
 70
0
  0
VERTEX
  8
0
 62
7
  6
CONTINUOUS
 10
319.7988697354
 20
213.9107168695
  0
VERTEX
  8
0
 62
7
  6
CONTINUOUS
 10
319.8068963151
 20
213.9379405341
  0
VERTEX
  8
0
 62
7
  6
CONTINUOUS
 10
319.8378244552
 20
214.0440417211
  0
SEQEND
  0
LINE
  8
0
 62
7
  6
CONTINUOUS
 10
293.8550888187
 20
149.7405707441
 11
295.1922092911
 21
152.9686651231
  0
LINE
  8
0
 62
7
  6
CONTINUOUS
 10
302.7496884762
 20
171.2140338693
 11
314.7057555927
 21
200.0785332546
  0
LINE
  8
0
 62
7
  6
CONTINUOUS
 10
270.2606199912
 20
120.3143668846
 11
270.210929459
 21
120.2147097383
  0
LINE
  8
0
 62
7
  6
CONTINUOUS
 10
270.210929459
 20
120.2147097383
 11
270.1649616912
 21
120.1236344769
  0
LINE
  8
0
 62
7
  6
CONTINUOUS
 10
270.1649616912
 20
120.1236344769
 11
270.1351449823
 21
120.0653539742
  0
LINE
  8
0
 62
7
  6
CONTINUOUS
 10
270.1351449823
 20
120.0653539742
 11
270.1182476106
 21
120.0327667619
  0
POLYLINE
  8
0
 62
7
  6
CONTINUOUS
 66
1
 70
0
  0
VERTEX
  8
0
 62
7
  6
CONTINUOUS
 10
270.1182476106
 20
120.0327667619
  0
VERTEX
  8
0
 62
7
  6
CONTINUOUS
 10
270.1041351854
 20
120.0059662716
  0
VERTEX
  8
0
 62
7
  6
CONTINUOUS
 10
270.0982136754
 20
119.9949078773
  0
VERTEX
  8
0
 62
7
  6
CONTINUOUS
 10
270.0930893851
 20
119.9854869134
  0
VERTEX
  8
0
 62
7
  6
CONTINUOUS
 10
270.0887879943
 20
119.9777503404
  0
VERTEX
  8
0
 62
7
  6
CONTINUOUS
 10
270.0853312127
 20
119.971736636
  0
VERTEX
  8
0
 62
7
  6
CONTINUOUS
 10
270.0827370202
 20
119.9674754311
  0
VERTEX
  8
0
 62
7
  6
CONTINUOUS
 10
270.0810220129
 20
119.9649861575
  0
VERTEX
  8
0
 62
7
  6
CONTINUOUS
 10
270.0801680957
 20
119.9642944367
  0
SEQEND
  0
POLYLINE
  8
0
 62
7
  6
CONTINUOUS
 66
1
 70
0
  0
VERTEX
  8
0
 62
7
  6
CONTINUOUS
 10
270.260619759
 20
120.3143664968
  0
VERTEX
  8
0
 62
7
  6
CONTINUOUS
 10
270.2616486359
 20
120.3160833613
  0
VERTEX
  8
0
 62
7
  6
CONTINUOUS
 10
270.2630060481
 20
120.3177039144
  0
VERTEX
  8
0
 62
7
  6
CONTINUOUS
 10
270.2647519969
 20
120.3192405835
  0
SEQEND
  0
POLYLINE
  8
0
 62
7
  6
CONTINUOUS
 66
1
 70
0
  0
VERTEX
  8
0
 62
7
  6
CONTINUOUS
 10
307.6616571808
 20
166.2695625273
  0
VERTEX
  8
0
 62
7
  6
CONTINUOUS
 10
307.661017329
 20
166.2687044144
  0
VERTEX
  8
0
 62
7
  6
CONTINUOUS
 10
307.6604388201
 20
166.2677861478
  0
VERTEX
  8
0
 62
7
  6
CONTINUOUS
 10
307.6599194508
 20
166.2667988178
  0
SEQEND
  0
POLYLINE
  8
0
 62
7
  6
CONTINUOUS
 66
1
 70
0
  0
VERTEX
  8
0
 62
7
  6
CONTINUOUS
 10
307.877964816
 20
166.5426141026
  0
VERTEX
  8
0
 62
7
  6
CONTINUOUS
 10
307.8855867947
 20
166.5527231017
  0
VERTEX
  8
0
 62
7
  6
CONTINUOUS
 10
307.8920425535
 20
166.5614129005
  0
VERTEX
  8
0
 62
7
  6
CONTINUOUS
 10
307.8972995715
 20
166.5686397201
  0
VERTEX
  8
0
 62
7
  6
CONTINUOUS
 10
307.9013313728
 20
166.5743671591
  0
VERTEX
  8
0
 62
7
  6
CONTINUOUS
 10
307.9041176592
 20
166.5785663766
  0
VERTEX
  8
0
 62
7
  6
CONTINUOUS
 10
307.9056444113
 20
166.5812162359
  0
VERTEX
  8
0
 62
7
  6
CONTINUOUS
 10
307.9059039587
 20
166.5823034104
  0
SEQEND
  0
LINE
  8
0
 62
7
  6
CONTINUOUS
 10
307.8593815008
 20
166.5183491558
 11
307.877964816
 21
166.5426141026
  0
LINE
  8
0
 62
7
  6
CONTINUOUS
 10
307.8366667477
 20
166.4891066127
 11
307.8593815008
 21
166.5183491558
  0
LINE
  8
0
 62
7
  6
CONTINUOUS
 10
307.7958693355
 20
166.4372225917
 11
307.8366667477
 21
166.4891066127
  0
LINE
  8
0
 62
7
  6
CONTINUOUS
 10
307.748667861
 20
166.3778313029
 11
307.7958693355
 21
166.4372225917
  0
POLYLINE
  8
0
 62
7
  6
CONTINUOUS
 66
1
 70
0
  0
VERTEX
  8
0
 62
7
  6
CONTINUOUS
 10
307.6616571808
 20
166.2695625273
  0
VERTEX
  8
0
 62
7
  6
CONTINUOUS
 10
307.679490819
 20
166.2916422747
  0
VERTEX
  8
0
 62
7
  6
CONTINUOUS
 10
307.748667861
 20
166.3778313029
  0
SEQEND
  0
LINE
  8
0
 62
7
  6
CONTINUOUS
 10
259.1358772214
 20
116.9123330534
 11
261.6065536953
 21
119.3830095273
  0
LINE
  8
0
 62
7
  6
CONTINUOUS
 10
275.5709543684
 20
133.3474102005
 11
297.662885765
 21
155.439341597
  0
LINE
  8
0
 62
7
  6
CONTINUOUS
 10
226.0765096966
 20
98.7552779039
 11
225.9924644926
 21
98.682222449
  0
LINE
  8
0
 62
7
  6
CONTINUOUS
 10
225.9924644926
 20
98.682222449
 11
225.9151428199
 21
98.6156709814
  0
LINE
  8
0
 62
7
  6
CONTINUOUS
 10
225.9151428199
 20
98.6156709814
 11
225.8652927907
 21
98.5732371776
  0
LINE
  8
0
 62
7
  6
CONTINUOUS
 10
225.8652927907
 20
98.5732371776
 11
225.8372110691
 21
98.5495968627
  0
POLYLINE
  8
0
 62
7
  6
CONTINUOUS
 66
1
 70
0
  0
VERTEX
  8
0
 62
7
  6
CONTINUOUS
 10
225.8372110691
 20
98.5495968627
  0
VERTEX
  8
0
 62
7
  6
CONTINUOUS
 10
225.8139167856
 20
98.5302370286
  0
VERTEX
  8
0
 62
7
  6
CONTINUOUS
 10
225.8042141601
 20
98.5222864675
  0
VERTEX
  8
0
 62
7
  6
CONTINUOUS
 10
225.7958746872
 20
98.5155436117
  0
VERTEX
  8
0
 62
7
  6
CONTINUOUS
 10
225.7889400632
 20
98.5100420199
  0
VERTEX
  8
0
 62
7
  6
CONTINUOUS
 10
225.7834450704
 20
98.5058089322
  0
VERTEX
  8
0
 62
7
  6
CONTINUOUS
 10
225.7794176605
 20
98.5028648421
  0
VERTEX
  8
0
 62
7
  6
CONTINUOUS
 10
225.7768806086
 20
98.5012213443
  0
VERTEX
  8
0
 62
7
  6
CONTINUOUS
 10
225.775826958
 20
98.5009090851
  0
SEQEND
  0
POLYLINE
  8
0
 62
7
  6
CONTINUOUS
 66
1
 70
0
  0
VERTEX
  8
0
 62
7
  6
CONTINUOUS
 10
226.0765093874
 20
98.7552776745
  0
VERTEX
  8
0
 62
7
  6
CONTINUOUS
 10
226.0781169077
 20
98.7564700762
  0
VERTEX
  8
0
 62
7
  6
CONTINUOUS
 10
226.0799911519
 20
98.7574478129
  0
VERTEX
  8
0
 62
7
  6
CONTINUOUS
 10
226.0821922561
 20
98.7581993644
  0
SEQEND
  0
POLYLINE
  8
0
 62
7
  6
CONTINUOUS
 66
1
 70
0
  0
VERTEX
  8
0
 62
7
  6
CONTINUOUS
 10
278.2168544545
 20
126.8995852848
  0
VERTEX
  8
0
 62
7
  6
CONTINUOUS
 10
278.2159349229
 20
126.8990373527
  0
VERTEX
  8
0
 62
7
  6
CONTINUOUS
 10
278.2150490449
 20
126.8984103708
  0
VERTEX
  8
0
 62
7
  6
CONTINUOUS
 10
278.2141913755
 20
126.8976969508
  0
SEQEND
  0
POLYLINE
  8
0
 62
7
  6
CONTINUOUS
 66
1
 70
0
  0
VERTEX
  8
0
 62
7
  6
CONTINUOUS
 10
278.5211889655
 20
127.0690746983
  0
VERTEX
  8
0
 62
7
  6
CONTINUOUS
 10
278.532099302
 20
127.0754973908
  0
VERTEX
  8
0
 62
7
  6
CONTINUOUS
 10
278.5413890875
 20
127.0810552061
  0
VERTEX
  8
0
 62
7
  6
CONTINUOUS
 10
278.5490115229
 20
127.0857201431
  0
VERTEX
  8
0
 62
7
  6
CONTINUOUS
 10
278.5549282177
 20
127.0894687032
  0
VERTEX
  8
0
 62
7
  6
CONTINUOUS
 10
278.5591093816
 20
127.0922820087
  0
VERTEX
  8
0
 62
7
  6
CONTINUOUS
 10
278.5615339739
 20
127.0941458967
  0
VERTEX
  8
0
 62
7
  6
CONTINUOUS
 10
278.5621898081
 20
127.0950509905
  0
SEQEND
  0
LINE
  8
0
 62
7
  6
CONTINUOUS
 10
278.4947344277
 20
127.0537683375
 11
278.5211889655
 21
127.0690746983
  0
LINE
  8
0
 62
7
  6
CONTINUOUS
 10
278.4625580955
 20
127.0354443102
 11
278.4947344277
 21
127.0537683375
  0
LINE
  8
0
 62
7
  6
CONTINUOUS
 10
278.4050110462
 20
127.0031222188
 11
278.4625580955
 21
127.0354443102
  0
LINE
  8
0
 62
7
  6
CONTINUOUS
 10
278.3386745078
 20
126.9663150449
 11
278.4050110462
 21
127.0031222188
  0
POLYLINE
  8
0
 62
7
  6
CONTINUOUS
 66
1
 70
0
  0
VERTEX
  8
0
 62
7
  6
CONTINUOUS
 10
278.2168544545
 20
126.8995852848
  0
VERTEX
  8
0
 62
7
  6
CONTINUOUS
 10
278.2417801413
 20
126.9131596737
  0
VERTEX
  8
0
 62
7
  6
CONTINUOUS
 10
278.3386745078
 20
126.9663150449
  0
SEQEND
  0
LINE
  8
0
 62
7
  6
CONTINUOUS
 10
214.4966855637
 20
99.8694632256
 11
217.7247799427
 21
101.206583698
  0
LINE
  8
0
 62
7
  6
CONTINUOUS
 10
235.970148689
 20
108.7640628832
 11
264.8346480743
 21
120.7201299997
  0
LINE
  8
0
 62
7
  6
CONTINUOUS
 10
177.0054083635
 20
95.7458038386
 11
176.8998036076
 21
95.7104721059
  0
LINE
  8
0
 62
7
  6
CONTINUOUS
 10
176.8998036076
 20
95.7104721059
 11
176.8028995528
 21
95.67857629
  0
LINE
  8
0
 62
7
  6
CONTINUOUS
 10
176.8028995528
 20
95.67857629
 11
176.7406054175
 21
95.6584493472
  0
LINE
  8
0
 62
7
  6
CONTINUOUS
 10
176.7406054175
 20
95.6584493472
 11
176.705614533
 21
95.6473549534
  0
POLYLINE
  8
0
 62
7
  6
CONTINUOUS
 66
1
 70
0
  0
VERTEX
  8
0
 62
7
  6
CONTINUOUS
 10
176.705614533
 20
95.6473549534
  0
VERTEX
  8
0
 62
7
  6
CONTINUOUS
 10
176.6766847336
 20
95.6383831349
  0
VERTEX
  8
0
 62
7
  6
CONTINUOUS
 10
176.6646781286
 20
95.634750808
  0
VERTEX
  8
0
 62
7
  6
CONTINUOUS
 10
176.6543930811
 20
95.6317125994
  0
VERTEX
  8
0
 62
7
  6
CONTINUOUS
 10
176.6458809561
 20
95.6292835564
  0
VERTEX
  8
0
 62
7
  6
CONTINUOUS
 10
176.6391843125
 20
95.6274755352
  0
VERTEX
  8
0
 62
7
  6
CONTINUOUS
 10
176.634336817
 20
95.6262967719
  0
VERTEX
  8
0
 62
7
  6
CONTINUOUS
 10
176.631363949
 20
95.6257492605
  0
VERTEX
  8
0
 62
7
  6
CONTINUOUS
 10
176.6302710029
 20
95.6258639956
  0
SEQEND
  0
POLYLINE
  8
0
 62
7
  6
CONTINUOUS
 66
1
 70
0
  0
VERTEX
  8
0
 62
7
  6
CONTINUOUS
 10
210.9468623272
 20
345.4523636705
  0
VERTEX
  8
0
 62
7
  6
CONTINUOUS
 10
210.9449207831
 20
345.451877187
  0
VERTEX
  8
0
 62
7
  6
CONTINUOUS
 10
210.9428150437
 20
345.4516911183
  0
VERTEX
  8
0
 62
7
  6
CONTINUOUS
 10
210.9404938822
 20
345.4518391013
  0
SEQEND
  0
POLYLINE
  8
0
 62
7
  6
CONTINUOUS
 66
1
 70
0
  0
VERTEX
  8
0
 62
7
  6
CONTINUOUS
 10
152.0051043871
 20
339.4036601081
  0
VERTEX
  8
0
 62
7
  6
CONTINUOUS
 10
152.0061636082
 20
339.4038144421
  0
VERTEX
  8
0
 62
7
  6
CONTINUOUS
 10
152.0072219882
 20
339.404054687
  0
VERTEX
  8
0
 62
7
  6
CONTINUOUS
 10
152.0082873855
 20
339.4043855852
  0
SEQEND
  0
POLYLINE
  8
0
 62
7
  6
CONTINUOUS
 66
1
 70
0
  0
VERTEX
  8
0
 62
7
  6
CONTINUOUS
 10
151.6590751709
 20
339.3635360832
  0
VERTEX
  8
0
 62
7
  6
CONTINUOUS
 10
151.6465374763
 20
339.3617774942
  0
VERTEX
  8
0
 62
7
  6
CONTINUOUS
 10
151.6358279498
 20
339.3601977893
  0
VERTEX
  8
0
 62
7
  6
CONTINUOUS
 10
151.6270005436
 20
339.3588049293
  0
VERTEX
  8
0
 62
7
  6
CONTINUOUS
 10
151.6200997186
 20
339.3576059324
  0
VERTEX
  8
0
 62
7
  6
CONTINUOUS
 10
151.6151602214
 20
339.3566068392
  0
VERTEX
  8
0
 62
7
  6
CONTINUOUS
 10
151.6122069112
 20
339.3558126825
  0
VERTEX
  8
0
 62
7
  6
CONTINUOUS
 10
151.611254635
 20
339.3552274618
  0
SEQEND
  0
LINE
  8
0
 62
7
  6
CONTINUOUS
 10
151.6893734676
 20
339.3675536034
 11
151.6590751709
 21
339.3635360832
  0
LINE
  8
0
 62
7
  6
CONTINUOUS
 10
151.726112824
 20
339.372169448
 11
151.6893734676
 21
339.3675536034
  0
LINE
  8
0
 62
7
  6
CONTINUOUS
 10
151.7916484939
 20
339.3800088642
 11
151.726112824
 21
339.372169448
  0
LINE
  8
0
 62
7
  6
CONTINUOUS
 10
151.8670209597
 20
339.3886283646
 11
151.7916484939
 21
339.3800088642
  0
POLYLINE
  8
0
 62
7
  6
CONTINUOUS
 66
1
 70
0
  0
VERTEX
  8
0
 62
7
  6
CONTINUOUS
 10
152.0051043871
 20
339.4036601081
  0
VERTEX
  8
0
 62
7
  6
CONTINUOUS
 10
151.9768813616
 20
339.4006576554
  0
VERTEX
  8
0
 62
7
  6
CONTINUOUS
 10
151.8670209597
 20
339.3886283646
  0
SEQEND
  0
LINE
  8
0
 62
7
  6
CONTINUOUS
 10
221.2188441204
 20
339.991583698
 11
217.7247799427
 21
339.991583698
  0
LINE
  8
0
 62
7
  6
CONTINUOUS
 10
197.9761351204
 20
339.991583698
 11
166.7334261204
 21
339.991583698
  0
LINE
  8
0
 62
7
  6
CONTINUOUS
 10
257.4343239015
 20
329.4540575621
 11
257.5454108426
 21
329.446286636
  0
LINE
  8
0
 62
7
  6
CONTINUOUS
 10
257.5454108426
 20
329.446286636
 11
257.6471445158
 21
329.4386709509
  0
LINE
  8
0
 62
7
  6
CONTINUOUS
 10
257.6471445158
 20
329.4386709509
 11
257.7123990399
 21
329.4334268876
  0
LINE
  8
0
 62
7
  6
CONTINUOUS
 10
257.7123990399
 20
329.4334268876
 11
257.7489720427
 21
329.4302863388
  0
POLYLINE
  8
0
 62
7
  6
CONTINUOUS
 66
1
 70
0
  0
VERTEX
  8
0
 62
7
  6
CONTINUOUS
 10
257.7489720427
 20
329.4302863388
  0
VERTEX
  8
0
 62
7
  6
CONTINUOUS
 10
257.7791330585
 20
329.427504263
  0
VERTEX
  8
0
 62
7
  6
CONTINUOUS
 10
257.7916157464
 20
329.4262653663
  0
VERTEX
  8
0
 62
7
  6
CONTINUOUS
 10
257.8022805633
 20
329.4251363875
  0
VERTEX
  8
0
 62
7
  6
CONTINUOUS
 10
257.8110742958
 20
329.4241230807
  0
VERTEX
  8
0
 62
7
  6
CONTINUOUS
 10
257.8179530876
 20
329.423230779
  0
VERTEX
  8
0
 62
7
  6
CONTINUOUS
 10
257.8228826824
 20
329.4224647562
  0
VERTEX
  8
0
 62
7
  6
CONTINUOUS
 10
257.8258387775
 20
329.4218329179
  0
VERTEX
  8
0
 62
7
  6
CONTINUOUS
 10
257.8268046216
 20
329.4213086753
  0
SEQEND
  0
POLYLINE
  8
0
 62
7
  6
CONTINUOUS
 66
1
 70
0
  0
VERTEX
  8
0
 62
7
  6
CONTINUOUS
 10
257.4343243681
 20
329.454057493
  0
VERTEX
  8
0
 62
7
  6
CONTINUOUS
 10
257.4323444385
 20
329.4543510389
  0
VERTEX
  8
0
 62
7
  6
CONTINUOUS
 10
257.4303277835
 20
329.4549849654
  0
VERTEX
  8
0
 62
7
  6
CONTINUOUS
 10
257.4282399406
 20
329.4560099539
  0
SEQEND
  0
POLYLINE
  8
0
 62
7
  6
CONTINUOUS
 66
1
 70
0
  0
VERTEX
  8
0
 62
7
  6
CONTINUOUS
 10
200.6645019488
 20
346.4218183129
  0
VERTEX
  8
0
 62
7
  6
CONTINUOUS
 10
200.6655396025
 20
346.4215555525
  0
VERTEX
  8
0
 62
7
  6
CONTINUOUS
 10
200.6666093559
 20
346.4213724854
  0
VERTEX
  8
0
 62
7
  6
CONTINUOUS
 10
200.6677202839
 20
346.4212704856
  0
SEQEND
  0
POLYLINE
  8
0
 62
7
  6
CONTINUOUS
 66
1
 70
0
  0
VERTEX
  8
0
 62
7
  6
CONTINUOUS
 10
200.3294578388
 20
346.5171681957
  0
VERTEX
  8
0
 62
7
  6
CONTINUOUS
 10
200.3172015365
 20
346.5203414393
  0
VERTEX
  8
0
 62
7
  6
CONTINUOUS
 10
200.3067026972
 20
346.5229803407
  0
VERTEX
  8
0
 62
7
  6
CONTINUOUS
 10
200.2980142129
 20
346.5250716079
  0
VERTEX
  8
0
 62
7
  6
CONTINUOUS
 10
200.2911798456
 20
346.5266047106
  0
VERTEX
  8
0
 62
7
  6
CONTINUOUS
 10
200.2862340089
 20
346.5275719326
  0
VERTEX
  8
0
 62
7
  6
CONTINUOUS
 10
200.2832015953
 20
346.5279684104
  0
VERTEX
  8
0
 62
7
  6
CONTINUOUS
 10
200.2820978526
 20
346.5277921573
  0
SEQEND
  0
LINE
  8
0
 62
7
  6
CONTINUOUS
 10
200.3589872534
 20
346.5092852442
 11
200.3294578388
 21
346.5171681957
  0
LINE
  8
0
 62
7
  6
CONTINUOUS
 10
200.3946964
 20
346.4994901855
 11
200.3589872534
 21
346.5092852442
  0
LINE
  8
0
 62
7
  6
CONTINUOUS
 10
200.4582434788
 20
346.4816534467
 11
200.3946964
 21
346.4994901855
  0
LINE
  8
0
 62
7
  6
CONTINUOUS
 10
200.5311770972
 20
346.4607730327
 11
200.4582434788
 21
346.4816534467
  0
POLYLINE
  8
0
 62
7
  6
CONTINUOUS
 66
1
 70
0
  0
VERTEX
  8
0
 62
7
  6
CONTINUOUS
 10
200.6645019488
 20
346.4218183129
  0
VERTEX
  8
0
 62
7
  6
CONTINUOUS
 10
200.6372782843
 20
346.4298448926
  0
VERTEX
  8
0
 62
7
  6
CONTINUOUS
 10
200.5311770972
 20
346.4607730327
  0
SEQEND
  0
LINE
  8
0
 62
7
  6
CONTINUOUS
 10
264.8346480743
 20
320.4780373963
 11
261.6065536953
 21
321.8151578687
  0
LINE
  8
0
 62
7
  6
CONTINUOUS
 10
243.361184949
 20
329.3726370539
 11
214.4966855637
 21
341.3287041704
  0
LINE
  8
0
 62
7
  6
CONTINUOUS
 10
294.2608519338
 20
296.8835685689
 11
294.36050908
 21
296.8338780367
  0
LINE
  8
0
 62
7
  6
CONTINUOUS
 10
294.36050908
 20
296.8338780367
 11
294.4515843415
 21
296.7879102689
  0
LINE
  8
0
 62
7
  6
CONTINUOUS
 10
294.4515843415
 20
296.7879102689
 11
294.5098648442
 21
296.75809356
  0
LINE
  8
0
 62
7
  6
CONTINUOUS
 10
294.5098648442
 20
296.75809356
 11
294.5424520565
 21
296.7411961883
  0
POLYLINE
  8
0
 62
7
  6
CONTINUOUS
 66
1
 70
0
  0
VERTEX
  8
0
 62
7
  6
CONTINUOUS
 10
294.5424520565
 20
296.7411961883
  0
VERTEX
  8
0
 62
7
  6
CONTINUOUS
 10
294.5692525468
 20
296.7270837631
  0
VERTEX
  8
0
 62
7
  6
CONTINUOUS
 10
294.580310941
 20
296.7211622532
  0
VERTEX
  8
0
 62
7
  6
CONTINUOUS
 10
294.589731905
 20
296.7160379628
  0
VERTEX
  8
0
 62
7
  6
CONTINUOUS
 10
294.597468478
 20
296.7117365721
  0
VERTEX
  8
0
 62
7
  6
CONTINUOUS
 10
294.6034821824
 20
296.7082797904
  0
VERTEX
  8
0
 62
7
  6
CONTINUOUS
 10
294.6077433873
 20
296.7056855979
  0
VERTEX
  8
0
 62
7
  6
CONTINUOUS
 10
294.610232661
 20
296.7039705908
  0
VERTEX
  8
0
 62
7
  6
CONTINUOUS
 10
294.6109243817
 20
296.7031166734
  0
SEQEND
  0
POLYLINE
  8
0
 62
7
  6
CONTINUOUS
 66
1
 70
0
  0
VERTEX
  8
0
 62
7
  6
CONTINUOUS
 10
294.260852327
 20
296.8835683334
  0
VERTEX
  8
0
 62
7
  6
CONTINUOUS
 10
294.2591354571
 20
296.8845972136
  0
VERTEX
  8
0
 62
7
  6
CONTINUOUS
 10
294.257514904
 20
296.8859546258
  0
VERTEX
  8
0
 62
7
  6
CONTINUOUS
 10
294.2559782349
 20
296.8877005745
  0
SEQEND
  0
POLYLINE
  8
0
 62
7
  6
CONTINUOUS
 66
1
 70
0
  0
VERTEX
  8
0
 62
7
  6
CONTINUOUS
 10
248.3056562911
 20
334.2846057585
  0
VERTEX
  8
0
 62
7
  6
CONTINUOUS
 10
248.306514404
 20
334.2839659067
  0
VERTEX
  8
0
 62
7
  6
CONTINUOUS
 10
248.3074326706
 20
334.2833873977
  0
VERTEX
  8
0
 62
7
  6
CONTINUOUS
 10
248.3084200006
 20
334.2828680285
  0
SEQEND
  0
POLYLINE
  8
0
 62
7
  6
CONTINUOUS
 66
1
 70
0
  0
VERTEX
  8
0
 62
7
  6
CONTINUOUS
 10
248.0326047158
 20
334.5009133937
  0
VERTEX
  8
0
 62
7
  6
CONTINUOUS
 10
248.0224957167
 20
334.5085353723
  0
VERTEX
  8
0
 62
7
  6
CONTINUOUS
 10
248.0138059178
 20
334.5149911312
  0
VERTEX
  8
0
 62
7
  6
CONTINUOUS
 10
248.0065790983
 20
334.5202481492
  0
VERTEX
  8
0
 62
7
  6
CONTINUOUS
 10
248.0008516592
 20
334.5242799505
  0
VERTEX
  8
0
 62
7
  6
CONTINUOUS
 10
247.9966524417
 20
334.5270662368
  0
VERTEX
  8
0
 62
7
  6
CONTINUOUS
 10
247.9940025824
 20
334.528592989
  0
VERTEX
  8
0
 62
7
  6
CONTINUOUS
 10
247.992915408
 20
334.5288525364
  0
SEQEND
  0
LINE
  8
0
 62
7
  6
CONTINUOUS
 10
248.0568696626
 20
334.4823300784
 11
248.0326047158
 21
334.5009133937
  0
LINE
  8
0
 62
7
  6
CONTINUOUS
 10
248.0861122056
 20
334.4596153254
 11
248.0568696626
 21
334.4823300784
  0
LINE
  8
0
 62
7
  6
CONTINUOUS
 10
248.1379962267
 20
334.4188179132
 11
248.0861122056
 21
334.4596153254
  0
LINE
  8
0
 62
7
  6
CONTINUOUS
 10
248.1973875155
 20
334.3716164387
 11
248.1379962267
 21
334.4188179132
  0
POLYLINE
  8
0
 62
7
  6
CONTINUOUS
 66
1
 70
0
  0
VERTEX
  8
0
 62
7
  6
CONTINUOUS
 10
248.3056562911
 20
334.2846057585
  0
VERTEX
  8
0
 62
7
  6
CONTINUOUS
 10
248.2835765437
 20
334.3024393966
  0
VERTEX
  8
0
 62
7
  6
CONTINUOUS
 10
248.1973875155
 20
334.3716164387
  0
SEQEND
  0
LINE
  8
0
 62
7
  6
CONTINUOUS
 10
297.662885765
 20
285.7588257991
 11
295.1922092911
 21
288.229502273
  0
LINE
  8
0
 62
7
  6
CONTINUOUS
 10
281.2278086179
 20
302.1939029461
 11
259.1358772214
 21
324.2858343426
  0
LINE
  8
0
 62
7
  6
CONTINUOUS
 10
315.8199409145
 20
252.6994582743
 11
315.8929963693
 21
252.6154130703
  0
LINE
  8
0
 62
7
  6
CONTINUOUS
 10
315.8929963693
 20
252.6154130703
 11
315.9595478368
 21
252.5380913974
  0
LINE
  8
0
 62
7
  6
CONTINUOUS
 10
315.9595478368
 20
252.5380913974
 11
316.0019816405
 21
252.4882413681
  0
LINE
  8
0
 62
7
  6
CONTINUOUS
 10
316.0019816405
 20
252.4882413681
 11
316.0256219553
 21
252.4601596465
  0
POLYLINE
  8
0
 62
7
  6
CONTINUOUS
 66
1
 70
0
  0
VERTEX
  8
0
 62
7
  6
CONTINUOUS
 10
316.0256219553
 20
252.4601596465
  0
VERTEX
  8
0
 62
7
  6
CONTINUOUS
 10
316.0449817893
 20
252.4368653628
  0
VERTEX
  8
0
 62
7
  6
CONTINUOUS
 10
316.0529323503
 20
252.4271627373
  0
VERTEX
  8
0
 62
7
  6
CONTINUOUS
 10
316.0596752059
 20
252.4188232642
  0
VERTEX
  8
0
 62
7
  6
CONTINUOUS
 10
316.0651767976
 20
252.4118886401
  0
VERTEX
  8
0
 62
7
  6
CONTINUOUS
 10
316.069409885
 20
252.406393647
  0
VERTEX
  8
0
 62
7
  6
CONTINUOUS
 10
316.0723539744
 20
252.4023662366
  0
VERTEX
  8
0
 62
7
  6
CONTINUOUS
 10
316.0739974704
 20
252.3998291831
  0
VERTEX
  8
0
 62
7
  6
CONTINUOUS
 10
316.0743097333
 20
252.3987755356
  0
SEQEND
  0
POLYLINE
  8
0
 62
7
  6
CONTINUOUS
 66
1
 70
0
  0
VERTEX
  8
0
 62
7
  6
CONTINUOUS
 10
315.8199411681
 20
252.6994579326
  0
VERTEX
  8
0
 62
7
  6
CONTINUOUS
 10
315.8187487422
 20
252.7010654854
  0
VERTEX
  8
0
 62
7
  6
CONTINUOUS
 10
315.8177710055
 20
252.7029397295
  0
VERTEX
  8
0
 62
7
  6
CONTINUOUS
 10
315.817019454
 20
252.7051408337
  0
SEQEND
  0
POLYLINE
  8
0
 62
7
  6
CONTINUOUS
 66
1
 70
0
  0
VERTEX
  8
0
 62
7
  6
CONTINUOUS
 10
287.6756335335
 20
304.8398030322
  0
VERTEX
  8
0
 62
7
  6
CONTINUOUS
 10
287.6761814657
 20
304.8388835006
  0
VERTEX
  8
0
 62
7
  6
CONTINUOUS
 10
287.6768084476
 20
304.8379976226
  0
VERTEX
  8
0
 62
7
  6
CONTINUOUS
 10
287.6775218676
 20
304.8371399532
  0
SEQEND
  0
POLYLINE
  8
0
 62
7
  6
CONTINUOUS
 66
1
 70
0
  0
VERTEX
  8
0
 62
7
  6
CONTINUOUS
 10
287.50614412
 20
305.1441375431
  0
VERTEX
  8
0
 62
7
  6
CONTINUOUS
 10
287.4997214276
 20
305.1550478797
  0
VERTEX
  8
0
 62
7
  6
CONTINUOUS
 10
287.4941636123
 20
305.1643376652
  0
VERTEX
  8
0
 62
7
  6
CONTINUOUS
 10
287.4894986753
 20
305.1719601006
  0
VERTEX
  8
0
 62
7
  6
CONTINUOUS
 10
287.4857501151
 20
305.1778767954
  0
VERTEX
  8
0
 62
7
  6
CONTINUOUS
 10
287.4829368097
 20
305.1820579593
  0
VERTEX
  8
0
 62
7
  6
CONTINUOUS
 10
287.4810729216
 20
305.1844825516
  0
VERTEX
  8
0
 62
7
  6
CONTINUOUS
 10
287.4801678279
 20
305.1851383858
  0
SEQEND
  0
LINE
  8
0
 62
7
  6
CONTINUOUS
 10
287.5214504809
 20
305.1176830054
 11
287.50614412
 21
305.1441375431
  0
LINE
  8
0
 62
7
  6
CONTINUOUS
 10
287.5397745082
 20
305.0855066732
 11
287.5214504809
 21
305.1176830054
  0
LINE
  8
0
 62
7
  6
CONTINUOUS
 10
287.5720965996
 20
305.0279596238
 11
287.5397745082
 21
305.0855066732
  0
LINE
  8
0
 62
7
  6
CONTINUOUS
 10
287.6089037734
 20
304.9616230854
 11
287.5720965996
 21
305.0279596238
  0
POLYLINE
  8
0
 62
7
  6
CONTINUOUS
 66
1
 70
0
  0
VERTEX
  8
0
 62
7
  6
CONTINUOUS
 10
287.6756335335
 20
304.8398030322
  0
VERTEX
  8
0
 62
7
  6
CONTINUOUS
 10
287.6620591447
 20
304.864728719
  0
VERTEX
  8
0
 62
7
  6
CONTINUOUS
 10
287.6089037734
 20
304.9616230854
  0
SEQEND
  0
LINE
  8
0
 62
7
  6
CONTINUOUS
 10
314.7057555927
 20
241.1196341414
 11
313.3686351204
 21
244.3477285204
  0
LINE
  8
0
 62
7
  6
CONTINUOUS
 10
305.8111559352
 20
262.5930972666
 11
293.8550888187
 21
291.4575966519
  0
LINE
  8
0
 62
7
  6
CONTINUOUS
 10
318.8294149798
 20
203.6283569412
 11
318.8647467123
 21
203.5227521853
  0
LINE
  8
0
 62
7
  6
CONTINUOUS
 10
318.8647467123
 20
203.5227521853
 11
318.896642528
 21
203.4258481304
  0
LINE
  8
0
 62
7
  6
CONTINUOUS
 10
318.896642528
 20
203.4258481304
 11
318.9167694706
 21
203.363553995
  0
LINE
  8
0
 62
7
  6
CONTINUOUS
 10
318.9167694706
 20
203.363553995
 11
318.9278638642
 21
203.3285631104
  0
POLYLINE
  8
0
 62
7
  6
CONTINUOUS
 66
1
 70
0
  0
VERTEX
  8
0
 62
7
  6
CONTINUOUS
 10
318.9278638642
 20
203.3285631104
  0
VERTEX
  8
0
 62
7
  6
CONTINUOUS
 10
318.9368356824
 20
203.2996333109
  0
VERTEX
  8
0
 62
7
  6
CONTINUOUS
 10
318.9404680091
 20
203.2876267058
  0
VERTEX
  8
0
 62
7
  6
CONTINUOUS
 10
318.9435062175
 20
203.2773416583
  0
VERTEX
  8
0
 62
7
  6
CONTINUOUS
 10
318.94593526
 20
203.2688295332
  0
VERTEX
  8
0
 62
7
  6
CONTINUOUS
 10
318.9477432806
 20
203.2621328893
  0
VERTEX
  8
0
 62
7
  6
CONTINUOUS
 10
318.9489220426
 20
203.2572853934
  0
VERTEX
  8
0
 62
7
  6
CONTINUOUS
 10
318.9494695502
 20
203.2543125241
  0
VERTEX
  8
0
 62
7
  6
CONTINUOUS
 10
318.9493548228
 20
203.2532195806
  0
SEQEND
  0
POLYLINE
  8
0
 62
7
  6
CONTINUOUS
 66
1
 70
0
  0
VERTEX
  8
0
 62
7
  6
CONTINUOUS
 10
318.8294150591
 20
203.6283566251
  0
VERTEX
  8
0
 62
7
  6
CONTINUOUS
 10
318.8289286094
 20
203.6302980353
  0
VERTEX
  8
0
 62
7
  6
CONTINUOUS
 10
318.8287425406
 20
203.6324037747
  0
VERTEX
  8
0
 62
7
  6
CONTINUOUS
 10
318.8288905237
 20
203.6347249362
  0
SEQEND
  0
POLYLINE
  8
0
 62
7
  6
CONTINUOUS
 66
1
 70
0
  0
VERTEX
  8
0
 62
7
  6
CONTINUOUS
 10
312.7807115306
 20
262.5701144313
  0
VERTEX
  8
0
 62
7
  6
CONTINUOUS
 10
312.7808658644
 20
262.5690552102
  0
VERTEX
  8
0
 62
7
  6
CONTINUOUS
 10
312.7811061093
 20
262.5679968301
  0
VERTEX
  8
0
 62
7
  6
CONTINUOUS
 10
312.7814370075
 20
262.5669314329
  0
SEQEND
  0
POLYLINE
  8
0
 62
7
  6
CONTINUOUS
 66
1
 70
0
  0
VERTEX
  8
0
 62
7
  6
CONTINUOUS
 10
312.7405875057
 20
262.9161436475
  0
VERTEX
  8
0
 62
7
  6
CONTINUOUS
 10
312.7388289167
 20
262.9286813421
  0
VERTEX
  8
0
 62
7
  6
CONTINUOUS
 10
312.7372492118
 20
262.9393908686
  0
VERTEX
  8
0
 62
7
  6
CONTINUOUS
 10
312.7358563518
 20
262.9482182748
  0
VERTEX
  8
0
 62
7
  6
CONTINUOUS
 10
312.7346573549
 20
262.9551190998
  0
VERTEX
  8
0
 62
7
  6
CONTINUOUS
 10
312.7336582617
 20
262.960058597
  0
VERTEX
  8
0
 62
7
  6
CONTINUOUS
 10
312.732864105
 20
262.9630119072
  0
VERTEX
  8
0
 62
7
  6
CONTINUOUS
 10
312.7322788843
 20
262.9639641834
  0
SEQEND
  0
LINE
  8
0
 62
7
  6
CONTINUOUS
 10
312.7446050259
 20
262.8858453508
 11
312.7405875057
 21
262.9161436475
  0
LINE
  8
0
 62
7
  6
CONTINUOUS
 10
312.7492208705
 20
262.8491059944
 11
312.7446050259
 21
262.8858453508
  0
LINE
  8
0
 62
7
  6
CONTINUOUS
 10
312.7570602868
 20
262.7835703245
 11
312.7492208705
 21
262.8491059944
  0
LINE
  8
0
 62
7
  6
CONTINUOUS
 10
312.7656797871
 20
262.7081978587
 11
312.7570602868
 21
262.7835703245
  0
LINE
  8
0
 62
7
  6
CONTINUOUS
 10
312.7716678754
 20
262.6541545388
 11
312.7656797871
 21
262.7081978587
  0
POLYLINE
  8
0
 62
7
  6
CONTINUOUS
 66
1
 70
0
  0
VERTEX
  8
0
 62
7
  6
CONTINUOUS
 10
402.8402853367
 20
89.5829576008
  0
VERTEX
  8
0
 62
7
  6
CONTINUOUS
 10
402.852286153
 20
89.5831376649
  0
VERTEX
  8
0
 62
7
  6
CONTINUOUS
 10
402.8638953785
 20
89.5836549979
  0
VERTEX
  8
0
 62
7
  6
CONTINUOUS
 10
402.8753135899
 20
89.5844942681
  0
VERTEX
  8
0
 62
7
  6
CONTINUOUS
 10
402.886536492
 20
89.5856405471
  0
VERTEX
  8
0
 62
7
  6
CONTINUOUS
 10
402.8975605637
 20
89.5870793814
  0
VERTEX
  8
0
 62
7
  6
CONTINUOUS
 10
402.9083830022
 20
89.5887968075
  0
VERTEX
  8
0
 62
7
  6
CONTINUOUS
 10
402.91900167
 20
89.5907793636
  0
VERTEX
  8
0
 62
7
  6
CONTINUOUS
 10
402.9294150428
 20
89.5930140981
  0
VERTEX
  8
0
 62
7
  6
CONTINUOUS
 10
402.9396221608
 20
89.595488576
  0
VERTEX
  8
0
 62
7
  6
CONTINUOUS
 10
402.949622581
 20
89.5981908821
  0
VERTEX
  8
0
 62
7
  6
CONTINUOUS
 10
402.9594163321
 20
89.6011096223
  0
VERTEX
  8
0
 62
7
  6
CONTINUOUS
 10
402.969003872
 20
89.6042339227
  0
VERTEX
  8
0
 62
7
  6
CONTINUOUS
 10
402.9783860464
 20
89.6075534272
  0
VERTEX
  8
0
 62
7
  6
CONTINUOUS
 10
402.9875640499
 20
89.6110582932
  0
VERTEX
  8
0
 62
7
  6
CONTINUOUS
 10
402.9965393896
 20
89.614739186
  0
VERTEX
  8
0
 62
7
  6
CONTINUOUS
 10
403.0053138493
 20
89.6185872717
  0
VERTEX
  8
0
 62
7
  6
CONTINUOUS
 10
403.013889457
 20
89.6225942097
  0
VERTEX
  8
0
 62
7
  6
CONTINUOUS
 10
403.0222684534
 20
89.6267521434
  0
VERTEX
  8
0
 62
7
  6
CONTINUOUS
 10
403.0304528995
 20
89.6310534944
  0
VERTEX
  8
0
 62
7
  6
CONTINUOUS
 10
403.0384431507
 20
89.635490044
  0
VERTEX
  8
0
 62
7
  6
CONTINUOUS
 10
403.0462392044
 20
89.6400534628
  0
VERTEX
  8
0
 62
7
  6
CONTINUOUS
 10
403.0538413207
 20
89.6447356215
  0
VERTEX
  8
0
 62
7
  6
CONTINUOUS
 10
403.0612500085
 20
89.6495285942
  0
VERTEX
  8
0
 62
7
  6
CONTINUOUS
 10
403.0684660113
 20
89.6544246613
  0
VERTEX
  8
0
 62
7
  6
CONTINUOUS
 10
403.0754902934
 20
89.6594163116
  0
VERTEX
  8
0
 62
7
  6
CONTINUOUS
 10
403.0823240268
 20
89.6644962438
  0
VERTEX
  8
0
 62
7
  6
CONTINUOUS
 10
403.0889685776
 20
89.6696573679
  0
VERTEX
  8
0
 62
7
  6
CONTINUOUS
 10
403.0954254937
 20
89.6748928051
  0
VERTEX
  8
0
 62
7
  6
CONTINUOUS
 10
403.1016964927
 20
89.6801958885
  0
VERTEX
  8
0
 62
7
  6
CONTINUOUS
 10
403.1077834496
 20
89.6855601622
  0
VERTEX
  8
0
 62
7
  6
CONTINUOUS
 10
403.1136883864
 20
89.690979382
  0
VERTEX
  8
0
 62
7
  6
CONTINUOUS
 10
403.1194134708
 20
89.696447523
  0
VERTEX
  8
0
 62
7
  6
CONTINUOUS
 10
403.1249610004
 20
89.7019587757
  0
VERTEX
  8
0
 62
7
  6
CONTINUOUS
 10
403.1303333858
 20
89.7075075385
  0
VERTEX
  8
0
 62
7
  6
CONTINUOUS
 10
403.1355331406
 20
89.7130884146
  0
VERTEX
  8
0
 62
7
  6
CONTINUOUS
 10
403.1405628714
 20
89.7186962104
  0
VERTEX
  8
0
 62
7
  6
CONTINUOUS
 10
403.1454252692
 20
89.7243259318
  0
VERTEX
  8
0
 62
7
  6
CONTINUOUS
 10
403.1501231005
 20
89.729972782
  0
VERTEX
  8
0
 62
7
  6
CONTINUOUS
 10
403.1546591985
 20
89.735632158
  0
VERTEX
  8
0
 62
7
  6
CONTINUOUS
 10
403.1590364557
 20
89.741299647
  0
VERTEX
  8
0
 62
7
  6
CONTINUOUS
 10
403.1632578156
 20
89.7469710231
  0
VERTEX
  8
0
 62
7
  6
CONTINUOUS
 10
403.1673264701
 20
89.7526425333
  0
VERTEX
  8
0
 62
7
  6
CONTINUOUS
 10
403.1712463209
 20
89.7583116385
  0
VERTEX
  8
0
 62
7
  6
CONTINUOUS
 10
403.1750213578
 20
89.7639762596
  0
VERTEX
  8
0
 62
7
  6
CONTINUOUS
 10
403.1786554912
 20
89.7696345534
  0
VERTEX
  8
0
 62
7
  6
CONTINUOUS
 10
403.1821525462
 20
89.7752849021
  0
VERTEX
  8
0
 62
7
  6
CONTINUOUS
 10
403.185516258
 20
89.7809259029
  0
VERTEX
  8
0
 62
7
  6
CONTINUOUS
 10
403.1887502675
 20
89.7865563585
  0
VERTEX
  8
0
 62
7
  6
CONTINUOUS
 10
403.1918581174
 20
89.7921752669
  0
VERTEX
  8
0
 62
7
  6
CONTINUOUS
 10
403.1948432481
 20
89.7977818118
  0
VERTEX
  8
0
 62
7
  6
CONTINUOUS
 10
403.1977089949
 20
89.8033753526
  0
VERTEX
  8
0
 62
7
  6
CONTINUOUS
 10
403.2004585846
 20
89.8089554149
  0
VERTEX
  8
0
 62
7
  6
CONTINUOUS
 10
403.2030951327
 20
89.81452168
  0
VERTEX
  8
0
 62
7
  6
CONTINUOUS
 10
403.2056215053
 20
89.8200736712
  0
VERTEX
  8
0
 62
7
  6
CONTINUOUS
 10
403.2080396546
 20
89.8256091318
  0
VERTEX
  8
0
 62
7
  6
CONTINUOUS
 10
403.2103512539
 20
89.831125159
  0
VERTEX
  8
0
 62
7
  6
CONTINUOUS
 10
403.2125580419
 20
89.8366189271
  0
VERTEX
  8
0
 62
7
  6
CONTINUOUS
 10
403.2146618192
 20
89.8420876889
  0
VERTEX
  8
0
 62
7
  6
CONTINUOUS
 10
403.216664445
 20
89.8475287781
  0
VERTEX
  8
0
 62
7
  6
CONTINUOUS
 10
403.2185678329
 20
89.8529396097
  0
VERTEX
  8
0
 62
7
  6
CONTINUOUS
 10
403.2203739463
 20
89.8583176797
  0
VERTEX
  8
0
 62
7
  6
CONTINUOUS
 10
403.2220847934
 20
89.8636605601
  0
VERTEX
  8
0
 62
7
  6
CONTINUOUS
 10
403.2237024195
 20
89.8689658852
  0
VERTEX
  8
0
 62
7
  6
CONTINUOUS
 10
403.2252288971
 20
89.8742313254
  0
VERTEX
  8
0
 62
7
  6
CONTINUOUS
 10
403.2266663122
 20
89.8794545359
  0
VERTEX
  8
0
 62
7
  6
CONTINUOUS
 10
403.2280167452
 20
89.8846330692
  0
VERTEX
  8
0
 62
7
  6
CONTINUOUS
 10
403.229282244
 20
89.8897642253
  0
VERTEX
  8
0
 62
7
  6
CONTINUOUS
 10
403.2304646435
 20
89.894844167
  0
VERTEX
  8
0
 62
7
  6
CONTINUOUS
 10
403.2315656725
 20
89.8998680618
  0
VERTEX
  8
0
 62
7
  6
CONTINUOUS
 10
403.2325876593
 20
89.9048333026
  0
VERTEX
  8
0
 62
7
  6
CONTINUOUS
 10
403.2335331747
 20
89.90973839
  0
VERTEX
  8
0
 62
7
  6
CONTINUOUS
 10
403.2344049429
 20
89.9145828192
  0
VERTEX
  8
0
 62
7
  6
CONTINUOUS
 10
403.2352056807
 20
89.9193664336
  0
VERTEX
  8
0
 62
7
  6
CONTINUOUS
 10
403.2359377228
 20
89.9240870069
  0
VERTEX
  8
0
 62
7
  6
CONTINUOUS
 10
403.2366022922
 20
89.9287339448
  0
VERTEX
  8
0
 62
7
  6
CONTINUOUS
 10
403.2371983464
 20
89.9332751463
  0
VERTEX
  8
0
 62
7
  6
CONTINUOUS
 10
403.2377256453
 20
89.937673389
  0
VERTEX
  8
0
 62
7
  6
CONTINUOUS
 10
403.2381885223
 20
89.9419210297
  0
VERTEX
  8
0
 62
7
  6
CONTINUOUS
 10
403.2385891917
 20
89.9459859801
  0
VERTEX
  8
0
 62
7
  6
CONTINUOUS
 10
403.2389243691
 20
89.9497575174
  0
VERTEX
  8
0
 62
7
  6
CONTINUOUS
 10
403.2391955122
 20
89.9531395678
  0
VERTEX
  8
0
 62
7
  6
CONTINUOUS
 10
403.2394150214
 20
89.9561633263
  0
VERTEX
  8
0
 62
7
  6
CONTINUOUS
 10
403.2395951927
 20
89.9588891687
  0
VERTEX
  8
0
 62
7
  6
CONTINUOUS
 10
403.2397481108
 20
89.96141282
  0
VERTEX
  8
0
 62
7
  6
CONTINUOUS
 10
403.2399981276
 20
89.9660189265
  0
SEQEND
  0
LINE
  8
0
 62
7
  6
CONTINUOUS
 10
386.2347947782
 20
89.5829575525
 11
402.8402872787
 21
89.5829575525
  0
LINE
  8
0
 62
7
  6
CONTINUOUS
 10
395.1375410284
 20
93.2418977987
 11
386.2346972802
 21
93.2418977987
  0
POLYLINE
  8
0
 62
7
  6
CONTINUOUS
 66
1
 70
0
  0
VERTEX
  8
0
 62
7
  6
CONTINUOUS
 10
402.9834439003
 20
105.3824473234
  0
VERTEX
  8
0
 62
7
  6
CONTINUOUS
 10
402.9942274127
 20
105.3825926538
  0
VERTEX
  8
0
 62
7
  6
CONTINUOUS
 10
403.0248966094
 20
105.384600272
  0
VERTEX
  8
0
 62
7
  6
CONTINUOUS
 10
403.0541764438
 20
105.3887486005
  0
VERTEX
  8
0
 62
7
  6
CONTINUOUS
 10
403.0820142042
 20
105.3947781265
  0
VERTEX
  8
0
 62
7
  6
CONTINUOUS
 10
403.1083877599
 20
105.4024541673
  0
VERTEX
  8
0
 62
7
  6
CONTINUOUS
 10
403.133299264
 20
105.4115674403
  0
VERTEX
  8
0
 62
7
  6
CONTINUOUS
 10
403.156769757
 20
105.4219339444
  0
VERTEX
  8
0
 62
7
  6
CONTINUOUS
 10
403.1788340367
 20
105.433394101
  0
VERTEX
  8
0
 62
7
  6
CONTINUOUS
 10
403.1995172907
 20
105.4457992304
  0
VERTEX
  8
0
 62
7
  6
CONTINUOUS
 10
403.2188236923
 20
105.4589961134
  0
VERTEX
  8
0
 62
7
  6
CONTINUOUS
 10
403.2367668272
 20
105.4728394753
  0
VERTEX
  8
0
 62
7
  6
CONTINUOUS
 10
403.2533709975
 20
105.4871938418
  0
VERTEX
  8
0
 62
7
  6
CONTINUOUS
 10
403.268670246
 20
105.5019344035
  0
VERTEX
  8
0
 62
7
  6
CONTINUOUS
 10
403.2827138839
 20
105.5169553416
  0
VERTEX
  8
0
 62
7
  6
CONTINUOUS
 10
403.2955602839
 20
105.5321683796
  0
VERTEX
  8
0
 62
7
  6
CONTINUOUS
 10
403.3072697989
 20
105.547497374
  0
VERTEX
  8
0
 62
7
  6
CONTINUOUS
 10
403.3179029301
 20
105.5628765268
  0
VERTEX
  8
0
 62
7
  6
CONTINUOUS
 10
403.3275077604
 20
105.5782295804
  0
VERTEX
  8
0
 62
7
  6
CONTINUOUS
 10
403.336122231
 20
105.5934635886
  0
VERTEX
  8
0
 62
7
  6
CONTINUOUS
 10
403.3437910752
 20
105.6084919662
  0
VERTEX
  8
0
 62
7
  6
CONTINUOUS
 10
403.3505635078
 20
105.6232321381
  0
VERTEX
  8
0
 62
7
  6
CONTINUOUS
 10
403.3564914101
 20
105.6376023218
  0
VERTEX
  8
0
 62
7
  6
CONTINUOUS
 10
403.3616290989
 20
105.6515204747
  0
VERTEX
  8
0
 62
7
  6
CONTINUOUS
 10
403.3660337062
 20
105.6649048984
  0
VERTEX
  8
0
 62
7
  6
CONTINUOUS
 10
403.369759891
 20
105.6776553504
  0
VERTEX
  8
0
 62
7
  6
CONTINUOUS
 10
403.3728253235
 20
105.6894995653
  0
VERTEX
  8
0
 62
7
  6
CONTINUOUS
 10
403.3752655632
 20
105.700141137
  0
VERTEX
  8
0
 62
7
  6
CONTINUOUS
 10
403.3771603033
 20
105.7094247209
  0
VERTEX
  8
0
 62
7
  6
CONTINUOUS
 10
403.3786516669
 20
105.7175797664
  0
VERTEX
  8
0
 62
7
  6
CONTINUOUS
 10
403.3798918645
 20
105.7251123552
  0
VERTEX
  8
0
 62
7
  6
CONTINUOUS
 10
403.3809702885
 20
105.7323789681
  0
VERTEX
  8
0
 62
7
  6
CONTINUOUS
 10
403.3819030065
 20
105.7393434118
  0
VERTEX
  8
0
 62
7
  6
CONTINUOUS
 10
403.3827045501
 20
105.7459459499
  0
VERTEX
  8
0
 62
7
  6
CONTINUOUS
 10
403.3834064517
 20
105.7522799617
  0
VERTEX
  8
0
 62
7
  6
CONTINUOUS
 10
403.3840429119
 20
105.7585262453
  0
SEQEND
  0
LINE
  8
0
 62
7
  6
CONTINUOUS
 10
395.1375410284
 20
99.854948866
 11
403.0375410284
 21
99.854948866
  0
LINE
  8
0
 62
7
  6
CONTINUOUS
 10
403.0375410284
 20
99.8694632256
 11
395.1375410284
 21
99.8694632256
  0
LINE
  8
0
 62
7
  6
CONTINUOUS
 10
393.9375410284
 20
105.3824472192
 11
402.9834513596
 21
105.3824472192
  0
LINE
  8
0
 62
7
  6
CONTINUOUS
 10
395.1375410284
 20
116.2136946348
 11
386.2340883786
 21
116.2136946348
  0
LINE
  8
0
 62
7
  6
CONTINUOUS
 10
395.1375410284
 20
116.8998676222
 11
403.0375410284
 21
116.8998676222
  0
LINE
  8
0
 62
7
  6
CONTINUOUS
 10
403.0375410284
 20
116.9123330534
 11
395.1375410284
 21
116.9123330534
  0
POLYLINE
  8
0
 62
7
  6
CONTINUOUS
 66
1
 70
0
  0
VERTEX
  8
0
 62
7
  6
CONTINUOUS
 10
403.4326270711
 20
111.7479758238
  0
VERTEX
  8
0
 62
7
  6
CONTINUOUS
 10
403.4272245945
 20
111.7499282951
  0
VERTEX
  8
0
 62
7
  6
CONTINUOUS
 10
403.4198751781
 20
111.7518807588
  0
VERTEX
  8
0
 62
7
  6
CONTINUOUS
 10
403.4106155816
 20
111.753823459
  0
VERTEX
  8
0
 62
7
  6
CONTINUOUS
 10
403.3994921082
 20
111.7557466886
  0
VERTEX
  8
0
 62
7
  6
CONTINUOUS
 10
403.3865603737
 20
111.7576408377
  0
VERTEX
  8
0
 62
7
  6
CONTINUOUS
 10
403.3718850284
 20
111.759496442
  0
VERTEX
  8
0
 62
7
  6
CONTINUOUS
 10
403.3555394336
 20
111.7613042293
  0
VERTEX
  8
0
 62
7
  6
CONTINUOUS
 10
403.3376052945
 20
111.7630551664
  0
VERTEX
  8
0
 62
7
  6
CONTINUOUS
 10
403.3181722502
 20
111.7647405033
  0
VERTEX
  8
0
 62
7
  6
CONTINUOUS
 10
403.2973374252
 20
111.7663518164
  0
VERTEX
  8
0
 62
7
  6
CONTINUOUS
 10
403.2752049424
 20
111.7678810502
  0
VERTEX
  8
0
 62
7
  6
CONTINUOUS
 10
403.2518854017
 20
111.7693205552
  0
VERTEX
  8
0
 62
7
  6
CONTINUOUS
 10
403.2274953254
 20
111.7706631235
  0
VERTEX
  8
0
 62
7
  6
CONTINUOUS
 10
403.2021565758
 20
111.7719020182
  0
VERTEX
  8
0
 62
7
  6
CONTINUOUS
 10
403.1759957445
 20
111.7730309945
  0
VERTEX
  8
0
 62
7
  6
CONTINUOUS
 10
403.1491435195
 20
111.7740442975
  0
VERTEX
  8
0
 62
7
  6
CONTINUOUS
 10
403.1217340306
 20
111.774936593
  0
VERTEX
  8
0
 62
7
  6
CONTINUOUS
 10
403.0939041735
 20
111.7757026036
  0
VERTEX
  8
0
 62
7
  6
CONTINUOUS
 10
403.0375410284
 20
111.7768587208
  0
SEQEND
  0
POLYLINE
  8
0
 62
7
  6
CONTINUOUS
 66
1
 70
0
  0
VERTEX
  8
0
 62
7
  6
CONTINUOUS
 10
402.98836614
 20
135.3290133889
  0
VERTEX
  8
0
 62
7
  6
CONTINUOUS
 10
403.0046609061
 20
135.3293450852
  0
VERTEX
  8
0
 62
7
  6
CONTINUOUS
 10
403.0373918208
 20
135.3320260369
  0
VERTEX
  8
0
 62
7
  6
CONTINUOUS
 10
403.0685096913
 20
135.3371158036
  0
VERTEX
  8
0
 62
7
  6
CONTINUOUS
 10
403.0979478275
 20
135.3442996723
  0
VERTEX
  8
0
 62
7
  6
CONTINUOUS
 10
403.1256783519
 20
135.3532928112
  0
VERTEX
  8
0
 62
7
  6
CONTINUOUS
 10
403.1517041089
 20
135.3638411771
  0
VERTEX
  8
0
 62
7
  6
CONTINUOUS
 10
403.1760518694
 20
135.3757215374
  0
VERTEX
  8
0
 62
7
  6
CONTINUOUS
 10
403.1987640171
 20
135.3887393621
  0
VERTEX
  8
0
 62
7
  6
CONTINUOUS
 10
403.2198809602
 20
135.4027178147
  0
VERTEX
  8
0
 62
7
  6
CONTINUOUS
 10
403.2394479799
 20
135.4174981371
  0
VERTEX
  8
0
 62
7
  6
CONTINUOUS
 10
403.2575191374
 20
135.4329420136
  0
VERTEX
  8
0
 62
7
  6
CONTINUOUS
 10
403.2741534999
 20
135.4489295601
  0
VERTEX
  8
0
 62
7
  6
CONTINUOUS
 10
403.2893911828
 20
135.4653330521
  0
VERTEX
  8
0
 62
7
  6
CONTINUOUS
 10
403.3032526615
 20
135.4820023786
  0
VERTEX
  8
0
 62
7
  6
CONTINUOUS
 10
403.3157711632
 20
135.4987931361
  0
VERTEX
  8
0
 62
7
  6
CONTINUOUS
 10
403.3269916195
 20
135.5155678536
  0
VERTEX
  8
0
 62
7
  6
CONTINUOUS
 10
403.3369697909
 20
135.532197655
  0
VERTEX
  8
0
 62
7
  6
CONTINUOUS
 10
403.3457803473
 20
135.5485820262
  0
VERTEX
  8
0
 62
7
  6
CONTINUOUS
 10
403.3535055611
 20
135.5646392743
  0
VERTEX
  8
0
 62
7
  6
CONTINUOUS
 10
403.3602274115
 20
135.5802944946
  0
VERTEX
  8
0
 62
7
  6
CONTINUOUS
 10
403.3659870488
 20
135.5953660404
  0
VERTEX
  8
0
 62
7
  6
CONTINUOUS
 10
403.370796508
 20
135.6095291261
  0
VERTEX
  8
0
 62
7
  6
CONTINUOUS
 10
403.3747152587
 20
135.6225074778
  0
VERTEX
  8
0
 62
7
  6
CONTINUOUS
 10
403.3778541609
 20
135.6341610979
  0
VERTEX
  8
0
 62
7
  6
CONTINUOUS
 10
403.380438886
 20
135.6448814944
  0
VERTEX
  8
0
 62
7
  6
CONTINUOUS
 10
403.3826769066
 20
135.6552514901
  0
VERTEX
  8
0
 62
7
  6
CONTINUOUS
 10
403.3846430931
 20
135.6654589686
  0
VERTEX
  8
0
 62
7
  6
CONTINUOUS
 10
403.3863304248
 20
135.6752846001
  0
VERTEX
  8
0
 62
7
  6
CONTINUOUS
 10
403.3877688711
 20
135.6846508818
  0
VERTEX
  8
0
 62
7
  6
CONTINUOUS
 10
403.389021123
 20
135.6937175697
  0
VERTEX
  8
0
 62
7
  6
CONTINUOUS
 10
403.390141412
 20
135.7026810052
  0
VERTEX
  8
0
 62
7
  6
CONTINUOUS
 10
403.3911689166
 20
135.7117081998
  0
VERTEX
  8
0
 62
7
  6
CONTINUOUS
 10
403.392137327
 20
135.7209938245
  0
VERTEX
  8
0
 62
7
  6
CONTINUOUS
 10
403.3930738291
 20
135.7307419577
  0
VERTEX
  8
0
 62
7
  6
CONTINUOUS
 10
403.393998011
 20
135.7411374196
  0
VERTEX
  8
0
 62
7
  6
CONTINUOUS
 10
403.3949244199
 20
135.7523540337
  0
VERTEX
  8
0
 62
7
  6
CONTINUOUS
 10
403.3958650462
 20
135.7645720266
  0
SEQEND
  0
LINE
  8
0
 62
7
  6
CONTINUOUS
 10
393.9375410284
 20
135.3290133522
 11
402.9883724968
 21
135.3290133522
  0
LINE
  8
0
 62
7
  6
CONTINUOUS
 10
393.9375410284
 20
149.7320519901
 11
403.0375410284
 21
149.7320519901
  0
LINE
  8
0
 62
7
  6
CONTINUOUS
 10
403.0375410284
 20
149.7405707441
 11
393.9375410284
 21
149.7405707441
  0
LINE
  8
0
 62
7
  6
CONTINUOUS
 10
393.9375410284
 20
152.9686651231
 11
395.1375410284
 21
152.9686651231
  0
LINE
  8
0
 62
7
  6
CONTINUOUS
 10
395.1375410284
 20
155.0011002325
 11
386.2330602349
 21
155.0011002325
  0
LINE
  8
0
 62
7
  6
CONTINUOUS
 10
385.6375410284
 20
163.8087157962
 11
371.5375410284
 21
163.8087157962
  0
LINE
  8
0
 62
7
  6
CONTINUOUS
 10
403.4375410284
 20
163.8087157962
 11
417.5375410284
 21
163.8087157962
  0
POLYLINE
  8
0
 62
7
  6
CONTINUOUS
 66
1
 70
0
  0
VERTEX
  8
0
 62
7
  6
CONTINUOUS
 10
403.4374929321
 20
111.7441098345
  0
VERTEX
  8
0
 62
7
  6
CONTINUOUS
 10
403.4360555745
 20
111.7460331011
  0
VERTEX
  8
0
 62
7
  6
CONTINUOUS
 10
403.4326270711
 20
111.7479758238
  0
SEQEND
  0
POLYLINE
  8
0
 62
7
  6
CONTINUOUS
 66
1
 70
0
  0
VERTEX
  8
0
 62
7
  6
CONTINUOUS
 10
403.4375278933
 20
339.4036601081
  0
VERTEX
  8
0
 62
7
  6
CONTINUOUS
 10
403.4362889824
 20
339.4006576554
  0
VERTEX
  8
0
 62
7
  6
CONTINUOUS
 10
403.4330387051
 20
339.3976380267
  0
VERTEX
  8
0
 62
7
  6
CONTINUOUS
 10
403.4277935095
 20
339.3946164529
  0
VERTEX
  8
0
 62
7
  6
CONTINUOUS
 10
403.4205799037
 20
339.3916081745
  0
VERTEX
  8
0
 62
7
  6
CONTINUOUS
 10
403.4114343234
 20
339.3886283646
  0
VERTEX
  8
0
 62
7
  6
CONTINUOUS
 10
403.400402948
 20
339.3856920525
  0
VERTEX
  8
0
 62
7
  6
CONTINUOUS
 10
403.3875414679
 20
339.3828140475
  0
VERTEX
  8
0
 62
7
  6
CONTINUOUS
 10
403.3729148031
 20
339.3800088642
  0
VERTEX
  8
0
 62
7
  6
CONTINUOUS
 10
403.3565967752
 20
339.3772906497
  0
VERTEX
  8
0
 62
7
  6
CONTINUOUS
 10
403.3386697343
 20
339.3746731113
  0
VERTEX
  8
0
 62
7
  6
CONTINUOUS
 10
403.3192241423
 20
339.372169448
  0
VERTEX
  8
0
 62
7
  6
CONTINUOUS
 10
403.2983581158
 20
339.3697922836
  0
VERTEX
  8
0
 62
7
  6
CONTINUOUS
 10
403.2761769297
 20
339.3675536034
  0
VERTEX
  8
0
 62
7
  6
CONTINUOUS
 10
403.2527924854
 20
339.3654646933
  0
VERTEX
  8
0
 62
7
  6
CONTINUOUS
 10
403.2283227448
 20
339.3635360832
  0
VERTEX
  8
0
 62
7
  6
CONTINUOUS
 10
403.2028911351
 20
339.3617774942
  0
VERTEX
  8
0
 62
7
  6
CONTINUOUS
 10
403.1766259252
 20
339.3601977893
  0
VERTEX
  8
0
 62
7
  6
CONTINUOUS
 10
403.1496595786
 20
339.3588049293
  0
VERTEX
  8
0
 62
7
  6
CONTINUOUS
 10
403.1221280853
 20
339.3576059324
  0
VERTEX
  8
0
 62
7
  6
CONTINUOUS
 10
403.0941702759
 20
339.3566068392
  0
VERTEX
  8
0
 62
7
  6
CONTINUOUS
 10
403.0659271225
 20
339.3558126825
  0
VERTEX
  8
0
 62
7
  6
CONTINUOUS
 10
403.0375410284
 20
339.3552274618
  0
SEQEND
  0
POLYLINE
  8
0
 62
7
  6
CONTINUOUS
 66
1
 70
0
  0
VERTEX
  8
0
 62
7
  6
CONTINUOUS
 10
402.9954066855
 20
178.1049337843
  0
VERTEX
  8
0
 62
7
  6
CONTINUOUS
 10
403.0147902983
 20
178.1054029469
  0
VERTEX
  8
0
 62
7
  6
CONTINUOUS
 10
403.0484057156
 20
178.1084546238
  0
VERTEX
  8
0
 62
7
  6
CONTINUOUS
 10
403.0822398564
 20
178.1144563805
  0
VERTEX
  8
0
 62
7
  6
CONTINUOUS
 10
403.115540682
 20
178.1233678961
  0
VERTEX
  8
0
 62
7
  6
CONTINUOUS
 10
403.1475926137
 20
178.134960317
  0
VERTEX
  8
0
 62
7
  6
CONTINUOUS
 10
403.1777528167
 20
178.1488284835
  0
VERTEX
  8
0
 62
7
  6
CONTINUOUS
 10
403.2054947508
 20
178.1644225451
  0
VERTEX
  8
0
 62
7
  6
CONTINUOUS
 10
403.2306706211
 20
178.1812626559
  0
VERTEX
  8
0
 62
7
  6
CONTINUOUS
 10
403.2534359004
 20
178.1990518082
  0
VERTEX
  8
0
 62
7
  6
CONTINUOUS
 10
403.2739672125
 20
178.2175639052
  0
VERTEX
  8
0
 62
7
  6
CONTINUOUS
 10
403.2924283896
 20
178.2366160979
  0
VERTEX
  8
0
 62
7
  6
CONTINUOUS
 10
403.3088977917
 20
178.255969377
  0
VERTEX
  8
0
 62
7
  6
CONTINUOUS
 10
403.3234404081
 20
178.2753626426
  0
VERTEX
  8
0
 62
7
  6
CONTINUOUS
 10
403.3361567859
 20
178.2945681734
  0
VERTEX
  8
0
 62
7
  6
CONTINUOUS
 10
403.3471930705
 20
178.313430893
  0
VERTEX
  8
0
 62
7
  6
CONTINUOUS
 10
403.3567044381
 20
178.3318363407
  0
VERTEX
  8
0
 62
7
  6
CONTINUOUS
 10
403.3648429409
 20
178.3496960505
  0
VERTEX
  8
0
 62
7
  6
CONTINUOUS
 10
403.3717291922
 20
178.3668745415
  0
VERTEX
  8
0
 62
7
  6
CONTINUOUS
 10
403.3774641417
 20
178.3831764495
  0
VERTEX
  8
0
 62
7
  6
CONTINUOUS
 10
403.4146148876
 20
178.4980260332
  0
SEQEND
  0
LINE
  8
0
 62
7
  6
CONTINUOUS
 10
393.9375410284
 20
178.1049337854
 11
402.9954101424
 21
178.1049337854
  0
POLYLINE
  8
0
 62
7
  6
CONTINUOUS
 66
1
 70
0
  0
VERTEX
  8
0
 62
7
  6
CONTINUOUS
 10
385.6375891248
 20
345.4523635575
  0
VERTEX
  8
0
 62
7
  6
CONTINUOUS
 10
385.6390264824
 20
345.4613677428
  0
VERTEX
  8
0
 62
7
  6
CONTINUOUS
 10
385.6424549858
 20
345.4702873587
  0
VERTEX
  8
0
 62
7
  6
CONTINUOUS
 10
385.6478574623
 20
345.4790778458
  0
VERTEX
  8
0
 62
7
  6
CONTINUOUS
 10
385.6552068787
 20
345.48769529
  0
VERTEX
  8
0
 62
7
  6
CONTINUOUS
 10
385.6644664753
 20
345.4960966417
  0
VERTEX
  8
0
 62
7
  6
CONTINUOUS
 10
385.6755899487
 20
345.5042399319
  0
VERTEX
  8
0
 62
7
  6
CONTINUOUS
 10
385.6885216831
 20
345.5120844815
  0
VERTEX
  8
0
 62
7
  6
CONTINUOUS
 10
385.7031970284
 20
345.5195911057
  0
VERTEX
  8
0
 62
7
  6
CONTINUOUS
 10
385.7195426232
 20
345.5267223098
  0
VERTEX
  8
0
 62
7
  6
CONTINUOUS
 10
385.7374767623
 20
345.5334424774
  0
VERTEX
  8
0
 62
7
  6
CONTINUOUS
 10
385.7569098066
 20
345.5397180483
  0
VERTEX
  8
0
 62
7
  6
CONTINUOUS
 10
385.7777446316
 20
345.5455176875
  0
VERTEX
  8
0
 62
7
  6
CONTINUOUS
 10
385.7998771143
 20
345.5508124419
  0
VERTEX
  8
0
 62
7
  6
CONTINUOUS
 10
385.8231966551
 20
345.5555758867
  0
VERTEX
  8
0
 62
7
  6
CONTINUOUS
 10
385.8475867313
 20
345.5597842601
  0
VERTEX
  8
0
 62
7
  6
CONTINUOUS
 10
385.8729254809
 20
345.5634165868
  0
VERTEX
  8
0
 62
7
  6
CONTINUOUS
 10
385.8990863122
 20
345.5664547952
  0
VERTEX
  8
0
 62
7
  6
CONTINUOUS
 10
385.9259385371
 20
345.5688838377
  0
VERTEX
  8
0
 62
7
  6
CONTINUOUS
 10
385.9533480259
 20
345.5706918583
  0
VERTEX
  8
0
 62
7
  6
CONTINUOUS
 10
385.9811778829
 20
345.5718706203
  0
VERTEX
  8
0
 62
7
  6
CONTINUOUS
 10
386.0092891716
 20
345.5724181278
  0
VERTEX
  8
0
 62
7
  6
CONTINUOUS
 10
386.0375410284
 20
345.5723034004
  0
SEQEND
  0
LINE
  8
0
 62
7
  6
CONTINUOUS
 10
393.9375410284
 20
193.3530995244
 11
403.0375410284
 21
193.3530995244
  0
LINE
  8
0
 62
7
  6
CONTINUOUS
 10
403.0375410284
 20
193.356374698
 11
393.9375410284
 21
193.356374698
  0
LINE
  8
0
 62
7
  6
CONTINUOUS
 10
385.6644664753
 20
157.0031640911
 11
385.666412414
 21
156.9986159713
  0
POLYLINE
  8
0
 62
7
  6
CONTINUOUS
 66
1
 70
0
  0
VERTEX
  8
0
 62
7
  6
CONTINUOUS
 10
385.6656802301
 20
157.0014845234
  0
VERTEX
  8
0
 62
7
  6
CONTINUOUS
 10
385.6655623269
 20
157.0018507542
  0
VERTEX
  8
0
 62
7
  6
CONTINUOUS
 10
385.6655683228
 20
157.0017893118
  0
VERTEX
  8
0
 62
7
  6
CONTINUOUS
 10
385.6666959801
 20
156.9975499111
  0
VERTEX
  8
0
 62
7
  6
CONTINUOUS
 10
385.668698533
 20
156.9892226538
  0
VERTEX
  8
0
 62
7
  6
CONTINUOUS
 10
385.6714018765
 20
156.976834944
  0
VERTEX
  8
0
 62
7
  6
CONTINUOUS
 10
385.6746819877
 20
156.960359652
  0
VERTEX
  8
0
 62
7
  6
CONTINUOUS
 10
385.6784504884
 20
156.9397185402
  0
VERTEX
  8
0
 62
7
  6
CONTINUOUS
 10
385.6826480459
 20
156.9147639758
  0
VERTEX
  8
0
 62
7
  6
CONTINUOUS
 10
385.6872349599
 20
156.885288554
  0
VERTEX
  8
0
 62
7
  6
CONTINUOUS
 10
385.6921838403
 20
156.8510407778
  0
VERTEX
  8
0
 62
7
  6
CONTINUOUS
 10
385.6974755674
 20
156.8117323809
  0
VERTEX
  8
0
 62
7
  6
CONTINUOUS
 10
385.7030967672
 20
156.7670430728
  0
VERTEX
  8
0
 62
7
  6
CONTINUOUS
 10
385.7090384036
 20
156.7166208825
  0
VERTEX
  8
0
 62
7
  6
CONTINUOUS
 10
385.7152943779
 20
156.6600857405
  0
VERTEX
  8
0
 62
7
  6
CONTINUOUS
 10
385.7218606616
 20
156.5970308971
  0
VERTEX
  8
0
 62
7
  6
CONTINUOUS
 10
385.7287348432
 20
156.5270222318
  0
SEQEND
  0
POLYLINE
  8
0
 62
7
  6
CONTINUOUS
 66
1
 70
0
  0
VERTEX
  8
0
 62
7
  6
CONTINUOUS
 10
385.6375611717
 20
94.776130168
  0
VERTEX
  8
0
 62
7
  6
CONTINUOUS
 10
385.6387930745
 20
94.7683225298
  0
VERTEX
  8
0
 62
7
  6
CONTINUOUS
 10
385.6420433518
 20
94.7603739973
  0
VERTEX
  8
0
 62
7
  6
CONTINUOUS
 10
385.6472885474
 20
94.7525436007
  0
VERTEX
  8
0
 62
7
  6
CONTINUOUS
 10
385.6545021532
 20
94.7448708326
  0
VERTEX
  8
0
 62
7
  6
CONTINUOUS
 10
385.6636477335
 20
94.7373943897
  0
VERTEX
  8
0
 62
7
  6
CONTINUOUS
 10
385.6746791089
 20
94.7301519776
  0
VERTEX
  8
0
 62
7
  6
CONTINUOUS
 10
385.687540589
 20
94.7231801203
  0
VERTEX
  8
0
 62
7
  6
CONTINUOUS
 10
385.7021672538
 20
94.7165139758
  0
VERTEX
  8
0
 62
7
  6
CONTINUOUS
 10
385.7184852817
 20
94.7101871585
  0
VERTEX
  8
0
 62
7
  6
CONTINUOUS
 10
385.7364123226
 20
94.7042315698
  0
VERTEX
  8
0
 62
7
  6
CONTINUOUS
 10
385.7558579146
 20
94.6986772369
  0
VERTEX
  8
0
 62
7
  6
CONTINUOUS
 10
385.7767239411
 20
94.6935521614
  0
VERTEX
  8
0
 62
7
  6
CONTINUOUS
 10
385.7945089272
 20
94.6898077455
  0
SEQEND
  0
POLYLINE
  8
0
 62
7
  6
CONTINUOUS
 66
1
 70
0
  0
VERTEX
  8
0
 62
7
  6
CONTINUOUS
 10
385.835107649
 20
93.6205910444
  0
VERTEX
  8
0
 62
7
  6
CONTINUOUS
 10
385.8353401651
 20
93.6171165881
  0
VERTEX
  8
0
 62
7
  6
CONTINUOUS
 10
385.8355976991
 20
93.6135960619
  0
VERTEX
  8
0
 62
7
  6
CONTINUOUS
 10
385.8358981188
 20
93.6098614205
  0
VERTEX
  8
0
 62
7
  6
CONTINUOUS
 10
385.8362814744
 20
93.6055646926
  0
VERTEX
  8
0
 62
7
  6
CONTINUOUS
 10
385.8367862342
 20
93.6005190755
  0
VERTEX
  8
0
 62
7
  6
CONTINUOUS
 10
385.8374202502
 20
93.5949021027
  0
VERTEX
  8
0
 62
7
  6
CONTINUOUS
 10
385.838185383
 20
93.5888888855
  0
VERTEX
  8
0
 62
7
  6
CONTINUOUS
 10
385.8390761407
 20
93.5826448644
  0
VERTEX
  8
0
 62
7
  6
CONTINUOUS
 10
385.8400872684
 20
93.5762752828
  0
VERTEX
  8
0
 62
7
  6
CONTINUOUS
 10
385.8412249611
 20
93.569786719
  0
VERTEX
  8
0
 62
7
  6
CONTINUOUS
 10
385.8425002837
 20
93.5631602279
  0
VERTEX
  8
0
 62
7
  6
CONTINUOUS
 10
385.8439230354
 20
93.5563900053
  0
VERTEX
  8
0
 62
7
  6
CONTINUOUS
 10
385.8454968865
 20
93.5494994422
  0
VERTEX
  8
0
 62
7
  6
CONTINUOUS
 10
385.8472227541
 20
93.5425174731
  0
VERTEX
  8
0
 62
7
  6
CONTINUOUS
 10
385.8491055212
 20
93.535452022
  0
VERTEX
  8
0
 62
7
  6
CONTINUOUS
 10
385.8511512511
 20
93.528306162
  0
VERTEX
  8
0
 62
7
  6
CONTINUOUS
 10
385.8533666539
 20
93.521081379
  0
VERTEX
  8
0
 62
7
  6
CONTINUOUS
 10
385.8557587767
 20
93.5137790696
  0
VERTEX
  8
0
 62
7
  6
CONTINUOUS
 10
385.8583348297
 20
93.5064011647
  0
VERTEX
  8
0
 62
7
  6
CONTINUOUS
 10
385.8611020972
 20
93.4989503227
  0
VERTEX
  8
0
 62
7
  6
CONTINUOUS
 10
385.8640678774
 20
93.4914299881
  0
VERTEX
  8
0
 62
7
  6
CONTINUOUS
 10
385.8672392712
 20
93.4838447746
  0
VERTEX
  8
0
 62
7
  6
CONTINUOUS
 10
385.8706236264
 20
93.4761992749
  0
VERTEX
  8
0
 62
7
  6
CONTINUOUS
 10
385.8742287021
 20
93.4684978206
  0
VERTEX
  8
0
 62
7
  6
CONTINUOUS
 10
385.8780624326
 20
93.4607451191
  0
VERTEX
  8
0
 62
7
  6
CONTINUOUS
 10
385.8821328967
 20
93.452946333
  0
VERTEX
  8
0
 62
7
  6
CONTINUOUS
 10
385.8864482893
 20
93.4451071382
  0
VERTEX
  8
0
 62
7
  6
CONTINUOUS
 10
385.891016894
 20
93.4372337678
  0
VERTEX
  8
0
 62
7
  6
CONTINUOUS
 10
385.8958470841
 20
93.4293330041
  0
VERTEX
  8
0
 62
7
  6
CONTINUOUS
 10
385.9009508532
 20
93.4214068343
  0
VERTEX
  8
0
 62
7
  6
CONTINUOUS
 10
385.9063480242
 20
93.4134477514
  0
VERTEX
  8
0
 62
7
  6
CONTINUOUS
 10
385.9120608398
 20
93.4054488234
  0
VERTEX
  8
0
 62
7
  6
CONTINUOUS
 10
385.9181131795
 20
93.3974051687
  0
VERTEX
  8
0
 62
7
  6
CONTINUOUS
 10
385.9245305295
 20
93.3893141718
  0
VERTEX
  8
0
 62
7
  6
CONTINUOUS
 10
385.931339944
 20
93.3811757155
  0
VERTEX
  8
0
 62
7
  6
CONTINUOUS
 10
385.938569804
 20
93.372992639
  0
VERTEX
  8
0
 62
7
  6
CONTINUOUS
 10
385.9462458616
 20
93.3647749971
  0
VERTEX
  8
0
 62
7
  6
CONTINUOUS
 10
385.9543907742
 20
93.3565395263
  0
VERTEX
  8
0
 62
7
  6
CONTINUOUS
 10
385.9630273199
 20
93.3483056699
  0
VERTEX
  8
0
 62
7
  6
CONTINUOUS
 10
385.9721766505
 20
93.3400971024
  0
VERTEX
  8
0
 62
7
  6
CONTINUOUS
 10
385.9818496062
 20
93.3319483793
  0
VERTEX
  8
0
 62
7
  6
CONTINUOUS
 10
385.9920519507
 20
93.3238982826
  0
VERTEX
  8
0
 62
7
  6
CONTINUOUS
 10
386.0027874475
 20
93.3159865396
  0
VERTEX
  8
0
 62
7
  6
CONTINUOUS
 10
386.0140577111
 20
93.3082537021
  0
VERTEX
  8
0
 62
7
  6
CONTINUOUS
 10
386.0258620646
 20
93.3007410155
  0
VERTEX
  8
0
 62
7
  6
CONTINUOUS
 10
386.0381985961
 20
93.2934896
  0
VERTEX
  8
0
 62
7
  6
CONTINUOUS
 10
386.0510838569
 20
93.2865303317
  0
VERTEX
  8
0
 62
7
  6
CONTINUOUS
 10
386.0645513448
 20
93.2798892092
  0
VERTEX
  8
0
 62
7
  6
CONTINUOUS
 10
386.0786350317
 20
93.2735984941
  0
VERTEX
  8
0
 62
7
  6
CONTINUOUS
 10
386.0933682626
 20
93.2676974917
  0
VERTEX
  8
0
 62
7
  6
CONTINUOUS
 10
386.1087828388
 20
93.2622330971
  0
VERTEX
  8
0
 62
7
  6
CONTINUOUS
 10
386.124903322
 20
93.2572616016
  0
VERTEX
  8
0
 62
7
  6
CONTINUOUS
 10
386.1417462995
 20
93.2528478885
  0
VERTEX
  8
0
 62
7
  6
CONTINUOUS
 10
386.1593239178
 20
93.2490637505
  0
VERTEX
  8
0
 62
7
  6
CONTINUOUS
 10
386.1776431153
 20
93.2459879757
  0
VERTEX
  8
0
 62
7
  6
CONTINUOUS
 10
386.1967045791
 20
93.2437064243
  0
VERTEX
  8
0
 62
7
  6
CONTINUOUS
 10
386.2165015926
 20
93.2423120102
  0
VERTEX
  8
0
 62
7
  6
CONTINUOUS
 10
386.2346996424
 20
93.2418978433
  0
SEQEND
  0
POLYLINE
  8
0
 62
7
  6
CONTINUOUS
 66
1
 70
0
  0
VERTEX
  8
0
 62
7
  6
CONTINUOUS
 10
385.8354523472
 20
89.95944075
  0
VERTEX
  8
0
 62
7
  6
CONTINUOUS
 10
385.835636807
 20
89.9566038564
  0
VERTEX
  8
0
 62
7
  6
CONTINUOUS
 10
385.8358801984
 20
89.9532230402
  0
VERTEX
  8
0
 62
7
  6
CONTINUOUS
 10
385.8361956958
 20
89.9493093012
  0
VERTEX
  8
0
 62
7
  6
CONTINUOUS
 10
385.8365921494
 20
89.944938811
  0
VERTEX
  8
0
 62
7
  6
CONTINUOUS
 10
385.8370739137
 20
89.9402157419
  0
VERTEX
  8
0
 62
7
  6
CONTINUOUS
 10
385.8376475796
 20
89.9351944371
  0
VERTEX
  8
0
 62
7
  6
CONTINUOUS
 10
385.8383180463
 20
89.9299271965
  0
VERTEX
  8
0
 62
7
  6
CONTINUOUS
 10
385.8390941845
 20
89.9244246034
  0
VERTEX
  8
0
 62
7
  6
CONTINUOUS
 10
385.8399841855
 20
89.9187011145
  0
VERTEX
  8
0
 62
7
  6
CONTINUOUS
 10
385.8409954255
 20
89.9127740252
  0
VERTEX
  8
0
 62
7
  6
CONTINUOUS
 10
385.8421374795
 20
89.9066465364
  0
VERTEX
  8
0
 62
7
  6
CONTINUOUS
 10
385.8434209128
 20
89.9003187512
  0
VERTEX
  8
0
 62
7
  6
CONTINUOUS
 10
385.84485557
 20
89.8937964567
  0
VERTEX
  8
0
 62
7
  6
CONTINUOUS
 10
385.8464494835
 20
89.8870936651
  0
VERTEX
  8
0
 62
7
  6
CONTINUOUS
 10
385.8482106105
 20
89.8802232201
  0
VERTEX
  8
0
 62
7
  6
CONTINUOUS
 10
385.8501466755
 20
89.8731976148
  0
VERTEX
  8
0
 62
7
  6
CONTINUOUS
 10
385.8522649096
 20
89.8660298744
  0
VERTEX
  8
0
 62
7
  6
CONTINUOUS
 10
385.8545715957
 20
89.8587347089
  0
VERTEX
  8
0
 62
7
  6
CONTINUOUS
 10
385.8570723426
 20
89.8513271295
  0
VERTEX
  8
0
 62
7
  6
CONTINUOUS
 10
385.8597721424
 20
89.8438221095
  0
VERTEX
  8
0
 62
7
  6
CONTINUOUS
 10
385.8626753016
 20
89.8362346749
  0
VERTEX
  8
0
 62
7
  6
CONTINUOUS
 10
385.8657853861
 20
89.8285799327
  0
VERTEX
  8
0
 62
7
  6
CONTINUOUS
 10
385.869105176
 20
89.8208730626
  0
VERTEX
  8
0
 62
7
  6
CONTINUOUS
 10
385.8726366288
 20
89.8131292886
  0
VERTEX
  8
0
 62
7
  6
CONTINUOUS
 10
385.8763817418
 20
89.8053620367
  0
VERTEX
  8
0
 62
7
  6
CONTINUOUS
 10
385.8803469783
 20
89.7975748527
  0
VERTEX
  8
0
 62
7
  6
CONTINUOUS
 10
385.8845408199
 20
89.789768326
  0
VERTEX
  8
0
 62
7
  6
CONTINUOUS
 10
385.8889721937
 20
89.7819436623
  0
VERTEX
  8
0
 62
7
  6
CONTINUOUS
 10
385.8936504547
 20
89.7741027407
  0
VERTEX
  8
0
 62
7
  6
CONTINUOUS
 10
385.8985853677
 20
89.7662481667
  0
VERTEX
  8
0
 62
7
  6
CONTINUOUS
 10
385.9037870871
 20
89.7583833262
  0
VERTEX
  8
0
 62
7
  6
CONTINUOUS
 10
385.9092661334
 20
89.7505124401
  0
VERTEX
  8
0
 62
7
  6
CONTINUOUS
 10
385.9150333671
 20
89.7426406208
  0
VERTEX
  8
0
 62
7
  6
CONTINUOUS
 10
385.9210999574
 20
89.7347739303
  0
VERTEX
  8
0
 62
7
  6
CONTINUOUS
 10
385.9274772664
 20
89.7269195371
  0
VERTEX
  8
0
 62
7
  6
CONTINUOUS
 10
385.9341765662
 20
89.7190860299
  0
VERTEX
  8
0
 62
7
  6
CONTINUOUS
 10
385.9412091962
 20
89.711283168
  0
VERTEX
  8
0
 62
7
  6
CONTINUOUS
 10
385.9485865812
 20
89.7035218494
  0
VERTEX
  8
0
 62
7
  6
CONTINUOUS
 10
385.9563201745
 20
89.6958141703
  0
VERTEX
  8
0
 62
7
  6
CONTINUOUS
 10
385.9644213951
 20
89.6881734844
  0
VERTEX
  8
0
 62
7
  6
CONTINUOUS
 10
385.9729007576
 20
89.6806151559
  0
VERTEX
  8
0
 62
7
  6
CONTINUOUS
 10
385.9817639678
 20
89.6731595456
  0
VERTEX
  8
0
 62
7
  6
CONTINUOUS
 10
385.9910143526
 20
89.6658290346
  0
VERTEX
  8
0
 62
7
  6
CONTINUOUS
 10
386.000654248
 20
89.6586465829
  0
VERTEX
  8
0
 62
7
  6
CONTINUOUS
 10
386.0106849386
 20
89.6516356905
  0
VERTEX
  8
0
 62
7
  6
CONTINUOUS
 10
386.0211065956
 20
89.6448203555
  0
VERTEX
  8
0
 62
7
  6
CONTINUOUS
 10
386.0319182164
 20
89.6382250267
  0
VERTEX
  8
0
 62
7
  6
CONTINUOUS
 10
386.0431175661
 20
89.6318745513
  0
VERTEX
  8
0
 62
7
  6
CONTINUOUS
 10
386.0547011451
 20
89.6257941057
  0
VERTEX
  8
0
 62
7
  6
CONTINUOUS
 10
386.0666680358
 20
89.620007331
  0
VERTEX
  8
0
 62
7
  6
CONTINUOUS
 10
386.079024469
 20
89.6145351056
  0
VERTEX
  8
0
 62
7
  6
CONTINUOUS
 10
386.0917769488
 20
89.6093997709
  0
VERTEX
  8
0
 62
7
  6
CONTINUOUS
 10
386.1049310817
 20
89.6046257316
  0
VERTEX
  8
0
 62
7
  6
CONTINUOUS
 10
386.1184913821
 20
89.6002395094
  0
VERTEX
  8
0
 62
7
  6
CONTINUOUS
 10
386.1324610608
 20
89.5962697864
  0
VERTEX
  8
0
 62
7
  6
CONTINUOUS
 10
386.1468417965
 20
89.5927474393
  0
VERTEX
  8
0
 62
7
  6
CONTINUOUS
 10
386.1616334907
 20
89.5897055589
  0
VERTEX
  8
0
 62
7
  6
CONTINUOUS
 10
386.1768340034
 20
89.5871794558
  0
VERTEX
  8
0
 62
7
  6
CONTINUOUS
 10
386.1924388708
 20
89.5852066468
  0
VERTEX
  8
0
 62
7
  6
CONTINUOUS
 10
386.2084410038
 20
89.5838268207
  0
VERTEX
  8
0
 62
7
  6
CONTINUOUS
 10
386.224830368
 20
89.5830817796
  0
VERTEX
  8
0
 62
7
  6
CONTINUOUS
 10
386.2347967201
 20
89.5829576008
  0
SEQEND
  0
LINE
  8
0
 62
7
  6
CONTINUOUS
 10
369.5375410284
 20
165.8087161665
 11
369.5375410284
 21
275.2442957481
  0
LINE
  8
0
 62
7
  6
CONTINUOUS
 10
385.6375891258
 20
345.4523636368
 11
385.6375468219
 21
345.4516911183
  0
LINE
  8
0
 62
7
  6
CONTINUOUS
 10
385.6887356553
 20
335.4125698951
 11
385.6875534216
 21
335.3959467345
  0
POLYLINE
  8
0
 62
7
  6
CONTINUOUS
 66
1
 70
0
  0
VERTEX
  8
0
 62
7
  6
CONTINUOUS
 10
385.691039145
 20
335.4396411508
  0
VERTEX
  8
0
 62
7
  6
CONTINUOUS
 10
385.6904436312
 20
335.4333275093
  0
VERTEX
  8
0
 62
7
  6
CONTINUOUS
 10
385.6898707407
 20
335.4268059118
  0
VERTEX
  8
0
 62
7
  6
CONTINUOUS
 10
385.6893052158
 20
335.4199305841
  0
VERTEX
  8
0
 62
7
  6
CONTINUOUS
 10
385.6887356553
 20
335.4125698951
  0
SEQEND
  0
POLYLINE
  8
0
 62
7
  6
CONTINUOUS
 66
1
 70
0
  0
VERTEX
  8
0
 62
7
  6
CONTINUOUS
 10
385.6389832206
 20
247.7594027259
  0
VERTEX
  8
0
 62
7
  6
CONTINUOUS
 10
385.6433042809
 20
247.7672342743
  0
VERTEX
  8
0
 62
7
  6
CONTINUOUS
 10
385.6504738704
 20
247.7749632309
  0
VERTEX
  8
0
 62
7
  6
CONTINUOUS
 10
385.6604316431
 20
247.7825274349
  0
VERTEX
  8
0
 62
7
  6
CONTINUOUS
 10
385.6730873185
 20
247.7898659888
  0
VERTEX
  8
0
 62
7
  6
CONTINUOUS
 10
385.6883217528
 20
247.7969203527
  0
VERTEX
  8
0
 62
7
  6
CONTINUOUS
 10
385.705989225
 20
247.8036354778
  0
VERTEX
  8
0
 62
7
  6
CONTINUOUS
 10
385.7259209275
 20
247.809960856
  0
VERTEX
  8
0
 62
7
  6
CONTINUOUS
 10
385.7479294722
 20
247.81585138
  0
VERTEX
  8
0
 62
7
  6
CONTINUOUS
 10
385.7718139858
 20
247.8212679165
  0
VERTEX
  8
0
 62
7
  6
CONTINUOUS
 10
385.7973655963
 20
247.8261776019
  0
VERTEX
  8
0
 62
7
  6
CONTINUOUS
 10
385.8243728322
 20
247.830553815
  0
VERTEX
  8
0
 62
7
  6
CONTINUOUS
 10
385.8526264533
 20
247.8343758288
  0
VERTEX
  8
0
 62
7
  6
CONTINUOUS
 10
385.88192301
 20
247.8376281636
  0
VERTEX
  8
0
 62
7
  6
CONTINUOUS
 10
385.9120675935
 20
247.8402998222
  0
VERTEX
  8
0
 62
7
  6
CONTINUOUS
 10
385.9428739257
 20
247.8423833369
  0
VERTEX
  8
0
 62
7
  6
CONTINUOUS
 10
385.9741644624
 20
247.8438740103
  0
VERTEX
  8
0
 62
7
  6
CONTINUOUS
 10
386.0057741799
 20
247.8447693113
  0
VERTEX
  8
0
 62
7
  6
CONTINUOUS
 10
386.0375410284
 20
247.8450678717
  0
SEQEND
  0
LINE
  8
0
 62
7
  6
CONTINUOUS
 10
393.9375410284
 20
196.8504388757
 11
395.1375410284
 21
196.8504388757
  0
LINE
  8
0
 62
7
  6
CONTINUOUS
 10
395.1375410284
 20
200.0760662324
 11
386.0375410284
 21
200.0760662324
  0
LINE
  8
0
 62
7
  6
CONTINUOUS
 10
386.1338744083
 20
203.699083698
 11
395.1375410284
 21
203.699083698
  0
POLYLINE
  8
0
 62
7
  6
CONTINUOUS
 66
1
 70
0
  0
VERTEX
  8
0
 62
7
  6
CONTINUOUS
 10
385.8336203901
 20
155.370243597
  0
VERTEX
  8
0
 62
7
  6
CONTINUOUS
 10
385.8343119239
 20
155.3634086071
  0
VERTEX
  8
0
 62
7
  6
CONTINUOUS
 10
385.83517491
 20
155.3559384628
  0
VERTEX
  8
0
 62
7
  6
CONTINUOUS
 10
385.8362480502
 20
155.3478376585
  0
VERTEX
  8
0
 62
7
  6
CONTINUOUS
 10
385.8375757487
 20
155.3391002255
  0
VERTEX
  8
0
 62
7
  6
CONTINUOUS
 10
385.8391968985
 20
155.3297739292
  0
VERTEX
  8
0
 62
7
  6
CONTINUOUS
 10
385.8411496139
 20
155.3199066756
  0
VERTEX
  8
0
 62
7
  6
CONTINUOUS
 10
385.8434754215
 20
155.3095262656
  0
VERTEX
  8
0
 62
7
  6
CONTINUOUS
 10
385.8462258878
 20
155.2986253878
  0
VERTEX
  8
0
 62
7
  6
CONTINUOUS
 10
385.8494585059
 20
155.2871945704
  0
VERTEX
  8
0
 62
7
  6
CONTINUOUS
 10
385.8531951612
 20
155.2753514377
  0
VERTEX
  8
0
 62
7
  6
CONTINUOUS
 10
385.8574424924
 20
155.2632266506
  0
VERTEX
  8
0
 62
7
  6
CONTINUOUS
 10
385.8622066797
 20
155.2509177539
  0
VERTEX
  8
0
 62
7
  6
CONTINUOUS
 10
385.8675057479
 20
155.2384725026
  0
VERTEX
  8
0
 62
7
  6
CONTINUOUS
 10
385.8733620177
 20
155.2259234291
  0
VERTEX
  8
0
 62
7
  6
CONTINUOUS
 10
385.8797996121
 20
155.2132986437
  0
VERTEX
  8
0
 62
7
  6
CONTINUOUS
 10
385.8868429219
 20
155.2006267236
  0
VERTEX
  8
0
 62
7
  6
CONTINUOUS
 10
385.8945155708
 20
155.1879388836
  0
VERTEX
  8
0
 62
7
  6
CONTINUOUS
 10
385.9028397196
 20
155.1752697575
  0
VERTEX
  8
0
 62
7
  6
CONTINUOUS
 10
385.9118355522
 20
155.1626575585
  0
VERTEX
  8
0
 62
7
  6
CONTINUOUS
 10
385.9215287154
 20
155.1501342203
  0
VERTEX
  8
0
 62
7
  6
CONTINUOUS
 10
385.9319652018
 20
155.1377115849
  0
VERTEX
  8
0
 62
7
  6
CONTINUOUS
 10
385.9431977546
 20
155.1254050793
  0
VERTEX
  8
0
 62
7
  6
CONTINUOUS
 10
385.9552824945
 20
155.1132388975
  0
VERTEX
  8
0
 62
7
  6
CONTINUOUS
 10
385.9682725676
 20
155.1012520982
  0
VERTEX
  8
0
 62
7
  6
CONTINUOUS
 10
385.9821924314
 20
155.0895175287
  0
VERTEX
  8
0
 62
7
  6
CONTINUOUS
 10
385.9970527767
 20
155.0781201021
  0
VERTEX
  8
0
 62
7
  6
CONTINUOUS
 10
386.0128582398
 20
155.0671477883
  0
VERTEX
  8
0
 62
7
  6
CONTINUOUS
 10
386.0296068377
 20
155.0566912403
  0
VERTEX
  8
0
 62
7
  6
CONTINUOUS
 10
386.047289595
 20
155.0468432523
  0
VERTEX
  8
0
 62
7
  6
CONTINUOUS
 10
386.0659061832
 20
155.0376908556
  0
VERTEX
  8
0
 62
7
  6
CONTINUOUS
 10
386.0854799637
 20
155.029313679
  0
VERTEX
  8
0
 62
7
  6
CONTINUOUS
 10
386.106032646
 20
155.0218012613
  0
VERTEX
  8
0
 62
7
  6
CONTINUOUS
 10
386.1275796135
 20
155.0152552937
  0
VERTEX
  8
0
 62
7
  6
CONTINUOUS
 10
386.1501279941
 20
155.0097899818
  0
VERTEX
  8
0
 62
7
  6
CONTINUOUS
 10
386.1736745139
 20
155.0055322369
  0
VERTEX
  8
0
 62
7
  6
CONTINUOUS
 10
386.1982030864
 20
155.0026216545
  0
VERTEX
  8
0
 62
7
  6
CONTINUOUS
 10
386.2236821359
 20
155.0012102143
  0
VERTEX
  8
0
 62
7
  6
CONTINUOUS
 10
386.233060985
 20
155.0011002708
  0
SEQEND
  0
LINE
  8
0
 62
7
  6
CONTINUOUS
 10
385.7287348432
 20
156.5270222318
 11
385.8336203901
 21
155.370243597
  0
POLYLINE
  8
0
 62
7
  6
CONTINUOUS
 66
1
 70
0
  0
VERTEX
  8
0
 62
7
  6
CONTINUOUS
 10
385.6375532564
 20
155.65523186
  0
VERTEX
  8
0
 62
7
  6
CONTINUOUS
 10
385.6389832206
 20
155.6364038433
  0
VERTEX
  8
0
 62
7
  6
CONTINUOUS
 10
385.6433042809
 20
155.6176721641
  0
VERTEX
  8
0
 62
7
  6
CONTINUOUS
 10
385.6504738704
 20
155.5991858663
  0
VERTEX
  8
0
 62
7
  6
CONTINUOUS
 10
385.6604316431
 20
155.5810936277
  0
VERTEX
  8
0
 62
7
  6
CONTINUOUS
 10
385.6730873185
 20
155.5635411044
  0
VERTEX
  8
0
 62
7
  6
CONTINUOUS
 10
385.6883217528
 20
155.5466683133
  0
VERTEX
  8
0
 62
7
  6
CONTINUOUS
 10
385.705989225
 20
155.5306069213
  0
VERTEX
  8
0
 62
7
  6
CONTINUOUS
 10
385.7259209275
 20
155.5154777351
  0
VERTEX
  8
0
 62
7
  6
CONTINUOUS
 10
385.7479294722
 20
155.5013886431
  0
VERTEX
  8
0
 62
7
  6
CONTINUOUS
 10
385.7718139858
 20
155.4884332455
  0
VERTEX
  8
0
 62
7
  6
CONTINUOUS
 10
385.7973655963
 20
155.476690146
  0
VERTEX
  8
0
 62
7
  6
CONTINUOUS
 10
385.8243728322
 20
155.4662230181
  0
VERTEX
  8
0
 62
7
  6
CONTINUOUS
 10
385.8249433401
 20
155.4660384278
  0
SEQEND
  0
POLYLINE
  8
0
 62
7
  6
CONTINUOUS
 66
1
 70
0
  0
VERTEX
  8
0
 62
7
  6
CONTINUOUS
 10
385.6383367481
 20
120.297334107
  0
VERTEX
  8
0
 62
7
  6
CONTINUOUS
 10
385.6480214978
 20
120.1564466031
  0
VERTEX
  8
0
 62
7
  6
CONTINUOUS
 10
385.6583323748
 20
119.9988396215
  0
VERTEX
  8
0
 62
7
  6
CONTINUOUS
 10
385.6688361488
 20
119.8305825729
  0
VERTEX
  8
0
 62
7
  6
CONTINUOUS
 10
385.6795116362
 20
119.6519403087
  0
VERTEX
  8
0
 62
7
  6
CONTINUOUS
 10
385.6903379165
 20
119.4632024517
  0
VERTEX
  8
0
 62
7
  6
CONTINUOUS
 10
385.7012954436
 20
119.2646609783
  0
VERTEX
  8
0
 62
7
  6
CONTINUOUS
 10
385.7123660802
 20
119.0566041023
  0
VERTEX
  8
0
 62
7
  6
CONTINUOUS
 10
385.7235317382
 20
118.8393381641
  0
SEQEND
  0
POLYLINE
  8
0
 62
7
  6
CONTINUOUS
 66
1
 70
0
  0
VERTEX
  8
0
 62
7
  6
CONTINUOUS
 10
385.832847564
 20
116.6119069429
  0
VERTEX
  8
0
 62
7
  6
CONTINUOUS
 10
385.8332243304
 20
116.6054244725
  0
VERTEX
  8
0
 62
7
  6
CONTINUOUS
 10
385.8336132006
 20
116.5993132991
  0
VERTEX
  8
0
 62
7
  6
CONTINUOUS
 10
385.8340236269
 20
116.5934652966
  0
VERTEX
  8
0
 62
7
  6
CONTINUOUS
 10
385.8344672464
 20
116.5877741106
  0
VERTEX
  8
0
 62
7
  6
CONTINUOUS
 10
385.8349584401
 20
116.5821310786
  0
VERTEX
  8
0
 62
7
  6
CONTINUOUS
 10
385.8355096239
 20
116.5764757373
  0
VERTEX
  8
0
 62
7
  6
CONTINUOUS
 10
385.8361511822
 20
116.570603309
  0
VERTEX
  8
0
 62
7
  6
CONTINUOUS
 10
385.8369217472
 20
116.5643200333
  0
VERTEX
  8
0
 62
7
  6
CONTINUOUS
 10
385.8378583561
 20
116.5575247552
  0
VERTEX
  8
0
 62
7
  6
CONTINUOUS
 10
385.839000894
 20
116.5501511642
  0
VERTEX
  8
0
 62
7
  6
CONTINUOUS
 10
385.840371619
 20
116.5422704655
  0
VERTEX
  8
0
 62
7
  6
CONTINUOUS
 10
385.8419896074
 20
116.5339553462
  0
VERTEX
  8
0
 62
7
  6
CONTINUOUS
 10
385.8438754571
 20
116.5252546392
  0
VERTEX
  8
0
 62
7
  6
CONTINUOUS
 10
385.8460447819
 20
116.5162275185
  0
VERTEX
  8
0
 62
7
  6
CONTINUOUS
 10
385.84851684
 20
116.5069064233
  0
VERTEX
  8
0
 62
7
  6
CONTINUOUS
 10
385.8513134682
 20
116.4973108295
  0
VERTEX
  8
0
 62
7
  6
CONTINUOUS
 10
385.8544485974
 20
116.4874839127
  0
VERTEX
  8
0
 62
7
  6
CONTINUOUS
 10
385.8579339343
 20
116.4774674298
  0
VERTEX
  8
0
 62
7
  6
CONTINUOUS
 10
385.8617816739
 20
116.4672947806
  0
VERTEX
  8
0
 62
7
  6
CONTINUOUS
 10
385.8660029178
 20
116.4569973604
  0
VERTEX
  8
0
 62
7
  6
CONTINUOUS
 10
385.8706065906
 20
116.4466073988
  0
VERTEX
  8
0
 62
7
  6
CONTINUOUS
 10
385.8755994958
 20
116.4361573554
  0
VERTEX
  8
0
 62
7
  6
CONTINUOUS
 10
385.8809961779
 20
116.425661109
  0
VERTEX
  8
0
 62
7
  6
CONTINUOUS
 10
385.8868191386
 20
116.415119689
  0
VERTEX
  8
0
 62
7
  6
CONTINUOUS
 10
385.893092987
 20
116.4045355079
  0
VERTEX
  8
0
 62
7
  6
CONTINUOUS
 10
385.8998441032
 20
116.3939133125
  0
VERTEX
  8
0
 62
7
  6
CONTINUOUS
 10
385.9071004534
 20
116.3832606804
  0
VERTEX
  8
0
 62
7
  6
CONTINUOUS
 10
385.9148914114
 20
116.3725884182
  0
VERTEX
  8
0
 62
7
  6
CONTINUOUS
 10
385.9232465449
 20
116.3619121785
  0
VERTEX
  8
0
 62
7
  6
CONTINUOUS
 10
385.9321913447
 20
116.35125703
  0
VERTEX
  8
0
 62
7
  6
CONTINUOUS
 10
385.9417497822
 20
116.3406528068
  0
VERTEX
  8
0
 62
7
  6
CONTINUOUS
 10
385.9519453552
 20
116.3301324819
  0
VERTEX
  8
0
 62
7
  6
CONTINUOUS
 10
385.9628008044
 20
116.3197323637
  0
VERTEX
  8
0
 62
7
  6
CONTINUOUS
 10
385.9743350372
 20
116.3094946268
  0
VERTEX
  8
0
 62
7
  6
CONTINUOUS
 10
385.9865591255
 20
116.2994694277
  0
VERTEX
  8
0
 62
7
  6
CONTINUOUS
 10
385.9994805717
 20
116.2897096891
  0
VERTEX
  8
0
 62
7
  6
CONTINUOUS
 10
386.0131037373
 20
116.2802702836
  0
VERTEX
  8
0
 62
7
  6
CONTINUOUS
 10
386.0274295636
 20
116.2712078913
  0
VERTEX
  8
0
 62
7
  6
CONTINUOUS
 10
386.0424552958
 20
116.2625808278
  0
VERTEX
  8
0
 62
7
  6
CONTINUOUS
 10
386.0581758507
 20
116.2544480374
  0
VERTEX
  8
0
 62
7
  6
CONTINUOUS
 10
386.0745992924
 20
116.2468624662
  0
VERTEX
  8
0
 62
7
  6
CONTINUOUS
 10
386.0917409873
 20
116.2398775885
  0
VERTEX
  8
0
 62
7
  6
CONTINUOUS
 10
386.1096135084
 20
116.2335533335
  0
VERTEX
  8
0
 62
7
  6
CONTINUOUS
 10
386.1282256682
 20
116.2279563658
  0
VERTEX
  8
0
 62
7
  6
CONTINUOUS
 10
386.147581585
 20
116.2231602423
  0
VERTEX
  8
0
 62
7
  6
CONTINUOUS
 10
386.1676796563
 20
116.2192454971
  0
VERTEX
  8
0
 62
7
  6
CONTINUOUS
 10
386.1885114323
 20
116.2162996382
  0
VERTEX
  8
0
 62
7
  6
CONTINUOUS
 10
386.2100603748
 20
116.2144170366
  0
VERTEX
  8
0
 62
7
  6
CONTINUOUS
 10
386.2340901936
 20
116.2136946769
  0
SEQEND
  0
LINE
  8
0
 62
7
  6
CONTINUOUS
 10
385.8346905299
 20
93.6276010277
 11
385.835107649
 21
93.6205910444
  0
LINE
  8
0
 62
7
  6
CONTINUOUS
 10
385.835187508
 20
89.964035954
 11
385.8354523472
 21
89.95944075
  0
POLYLINE
  8
0
 62
7
  6
CONTINUOUS
 66
1
 70
0
  0
VERTEX
  8
0
 62
7
  6
CONTINUOUS
 10
385.6375891248
 20
203.6283569412
  0
VERTEX
  8
0
 62
7
  6
CONTINUOUS
 10
385.6390264824
 20
203.6015931759
  0
VERTEX
  8
0
 62
7
  6
CONTINUOUS
 10
385.6424549858
 20
203.5749827381
  0
VERTEX
  8
0
 62
7
  6
CONTINUOUS
 10
385.6478574623
 20
203.5486585705
  0
VERTEX
  8
0
 62
7
  6
CONTINUOUS
 10
385.6552068787
 20
203.5227521853
  0
VERTEX
  8
0
 62
7
  6
CONTINUOUS
 10
385.6644664753
 20
203.4973930066
  0
VERTEX
  8
0
 62
7
  6
CONTINUOUS
 10
385.6755899487
 20
203.4727077229
  0
VERTEX
  8
0
 62
7
  6
CONTINUOUS
 10
385.6885216831
 20
203.4488196534
  0
VERTEX
  8
0
 62
7
  6
CONTINUOUS
 10
385.7031970284
 20
203.4258481305
  0
VERTEX
  8
0
 62
7
  6
CONTINUOUS
 10
385.7195426232
 20
203.4039079032
  0
VERTEX
  8
0
 62
7
  6
CONTINUOUS
 10
385.7374767623
 20
203.3831085629
  0
VERTEX
  8
0
 62
7
  6
CONTINUOUS
 10
385.7569098066
 20
203.3635539952
  0
VERTEX
  8
0
 62
7
  6
CONTINUOUS
 10
385.7777446316
 20
203.3453418614
  0
VERTEX
  8
0
 62
7
  6
CONTINUOUS
 10
385.7998771143
 20
203.3285631107
  0
VERTEX
  8
0
 62
7
  6
CONTINUOUS
 10
385.8231966551
 20
203.3133015267
  0
VERTEX
  8
0
 62
7
  6
CONTINUOUS
 10
385.8475867313
 20
203.2996333112
  0
VERTEX
  8
0
 62
7
  6
CONTINUOUS
 10
385.872925481
 20
203.2876267062
  0
VERTEX
  8
0
 62
7
  6
CONTINUOUS
 10
385.8990863122
 20
203.2773416588
  0
VERTEX
  8
0
 62
7
  6
CONTINUOUS
 10
385.9259385371
 20
203.2688295338
  0
VERTEX
  8
0
 62
7
  6
CONTINUOUS
 10
385.9533480259
 20
203.2621328902
  0
VERTEX
  8
0
 62
7
  6
CONTINUOUS
 10
385.9811778829
 20
203.2572853947
  0
VERTEX
  8
0
 62
7
  6
CONTINUOUS
 10
386.0092891717
 20
203.2543125267
  0
VERTEX
  8
0
 62
7
  6
CONTINUOUS
 10
386.0375410284
 20
203.2532195806
  0
SEQEND
  0
POLYLINE
  8
0
 62
7
  6
CONTINUOUS
 66
1
 70
0
  0
VERTEX
  8
0
 62
7
  6
CONTINUOUS
 10
385.6375891248
 20
157.1408949167
  0
VERTEX
  8
0
 62
7
  6
CONTINUOUS
 10
385.6390264824
 20
157.1127226692
  0
VERTEX
  8
0
 62
7
  6
CONTINUOUS
 10
385.6424549858
 20
157.0847244412
  0
VERTEX
  8
0
 62
7
  6
CONTINUOUS
 10
385.6478574624
 20
157.0570401077
  0
VERTEX
  8
0
 62
7
  6
CONTINUOUS
 10
385.6552068788
 20
157.0298079755
  0
VERTEX
  8
0
 62
7
  6
CONTINUOUS
 10
385.6644664753
 20
157.0031640911
  0
SEQEND
  0
LINE
  8
0
 62
7
  6
CONTINUOUS
 10
385.8322476634
 20
116.623411964
 11
385.832847564
 21
116.6119069429
  0
LINE
  8
0
 62
7
  6
CONTINUOUS
 10
385.7235317382
 20
118.8393381641
 11
385.8322477954
 21
116.6234092587
  0
POLYLINE
  8
0
 62
7
  6
CONTINUOUS
 66
1
 70
0
  0
VERTEX
  8
0
 62
7
  6
CONTINUOUS
 10
385.8340794883
 20
93.6395740481
  0
VERTEX
  8
0
 62
7
  6
CONTINUOUS
 10
385.8342891138
 20
93.6352625294
  0
VERTEX
  8
0
 62
7
  6
CONTINUOUS
 10
385.8346905299
 20
93.6276010277
  0
SEQEND
  0
LINE
  8
0
 62
7
  6
CONTINUOUS
 10
385.834932267
 20
89.9691039452
 11
385.835187508
 21
89.964035954
  0
LINE
  8
0
 62
7
  6
CONTINUOUS
 10
385.6375891248
 20
120.3143668846
 11
385.6383367481
 21
120.2973341023
  0
POLYLINE
  8
0
 62
7
  6
CONTINUOUS
 66
1
 70
0
  0
VERTEX
  8
0
 62
7
  6
CONTINUOUS
 10
385.7391864327
 20
92.1049897949
  0
VERTEX
  8
0
 62
7
  6
CONTINUOUS
 10
385.786927799
 20
91.0083147205
  0
VERTEX
  8
0
 62
7
  6
CONTINUOUS
 10
385.8349323334
 20
89.9691025445
  0
SEQEND
  0
LINE
  8
0
 62
7
  6
CONTINUOUS
 10
385.6376902594
 20
98.7521721376
 11
385.657942421
 21
98.2585232664
  0
LINE
  8
0
 62
7
  6
CONTINUOUS
 10
385.657942421
 20
98.2585232664
 11
385.6792595467
 21
97.7260998192
  0
LINE
  8
0
 62
7
  6
CONTINUOUS
 10
385.8325483613
 20
93.6756054554
 11
385.8340794883
 21
93.6395740481
  0
LINE
  8
0
 62
7
  6
CONTINUOUS
 10
385.6792595467
 20
97.7260998192
 11
385.7011022006
 21
97.1677763255
  0
LINE
  8
0
 62
7
  6
CONTINUOUS
 10
385.7011022006
 20
97.1677763255
 11
385.7233451209
 21
96.5865770839
  0
LINE
  8
0
 62
7
  6
CONTINUOUS
 10
385.8319923791
 20
93.6901633515
 11
385.8325483613
 21
93.6756054554
  0
LINE
  8
0
 62
7
  6
CONTINUOUS
 10
385.7233451209
 20
96.5865770839
 11
385.8319923791
 21
93.6901633515
  0
LINE
  8
0
 62
7
  6
CONTINUOUS
 10
385.6920287563
 20
93.2523762537
 11
385.6921042992
 21
93.2503355769
  0
LINE
  8
0
 62
7
  6
CONTINUOUS
 10
385.6778108696
 20
93.6400544572
 11
385.7391864327
 21
92.1049897949
  0
LINE
  8
0
 62
7
  6
CONTINUOUS
 10
385.6375611717
 20
94.7761301668
 11
385.6778108703
 21
93.6400544344
  0
LINE
  8
0
 62
7
  6
CONTINUOUS
 10
385.6375891248
 20
98.7552779041
 11
385.6376902594
 21
98.75217213
  0
LINE
  8
0
 62
7
  6
CONTINUOUS
 10
385.6375541636
 20
94.7763491096
 11
385.6375410284
 21
94.7768969105
  0
LINE
  8
0
 62
7
  6
CONTINUOUS
 10
385.6375891273
 20
98.7552776441
 11
385.6375468219
 21
98.7574478128
  0
LINE
  8
0
 62
7
  6
CONTINUOUS
 10
385.6375891275
 20
296.8835683367
 11
385.6375410284
 21
296.8877005745
  0
LINE
  8
0
 62
7
  6
CONTINUOUS
 10
385.6375891273
 20
120.3143665095
 11
385.6375410284
 21
120.3192405835
  0
LINE
  8
0
 62
7
  6
CONTINUOUS
 10
385.6375891266
 20
252.6994579651
 11
385.6375410284
 21
252.7051408337
  0
LINE
  8
0
 62
7
  6
CONTINUOUS
 10
385.6375891302
 20
157.1408942616
 11
385.6375410284
 21
157.1469788778
  0
LINE
  8
0
 62
7
  6
CONTINUOUS
 10
385.6375468219
 20
98.7574478128
 11
385.6375410284
 21
98.7581993644
  0
LINE
  8
0
 62
7
  6
CONTINUOUS
 10
385.6375891261
 20
203.6283566081
 11
385.6375410284
 21
203.6347249362
  0
LINE
  8
0
 62
7
  6
CONTINUOUS
 10
385.6375410284
 20
252.6994579651
 11
385.6375410284
 21
247.7515309287
  0
LINE
  8
0
 62
7
  6
CONTINUOUS
 10
385.6375410284
 20
94.7768969105
 11
385.6375410284
 21
98.7552776441
  0
LINE
  8
0
 62
7
  6
CONTINUOUS
 10
385.6375410284
 20
98.7581992426
 11
385.6375410284
 21
120.3143665095
  0
LINE
  8
0
 62
7
  6
CONTINUOUS
 10
385.6375410284
 20
120.3192402918
 11
385.6375410284
 21
157.1408942616
  0
LINE
  8
0
 62
7
  6
CONTINUOUS
 10
385.6375410284
 20
157.1469784754
 11
385.6375410284
 21
166.2667988178
  0
LINE
  8
0
 62
7
  6
CONTINUOUS
 10
385.6375410284
 20
166.269563357
 11
385.6375410284
 21
203.6283566081
  0
LINE
  8
0
 62
7
  6
CONTINUOUS
 10
385.6375410284
 20
334.2846057585
 11
385.6375410284
 21
346.4212704856
  0
LINE
  8
0
 62
7
  6
CONTINUOUS
 10
385.6375425252
 20
334.2833873977
 11
385.6375410284
 21
304.8398030322
  0
LINE
  8
0
 62
7
  6
CONTINUOUS
 10
385.6375410284
 20
304.8371399532
 11
385.6375410284
 21
252.7051403865
  0
LINE
  8
0
 62
7
  6
CONTINUOUS
 10
385.6375410284
 20
247.7505216093
 11
385.6375410284
 21
203.6347244764
  0
LINE
  8
0
 62
7
  6
CONTINUOUS
 10
385.6375541636
 20
166.2695625272
 11
385.6375410284
 21
166.2667988178
  0
LINE
  8
0
 62
7
  6
CONTINUOUS
 10
385.6375541636
 20
304.8398030322
 11
385.6375410284
 21
304.8371399532
  0
LINE
  8
0
 62
7
  6
CONTINUOUS
 10
385.6375541636
 20
126.8995852848
 11
385.6375410284
 21
126.8976969508
  0
LINE
  8
0
 62
7
  6
CONTINUOUS
 10
385.6375541636
 20
334.2846057585
 11
385.6375425252
 21
334.2833873977
  0
LINE
  8
0
 62
7
  6
CONTINUOUS
 10
385.6375541636
 20
346.421818313
 11
385.6375410284
 21
346.4212704856
  0
LINE
  8
0
 62
7
  6
CONTINUOUS
 10
385.6375541636
 20
334.2846057585
 11
385.637691754
 21
334.2894706444
  0
LINE
  8
0
 62
7
  6
CONTINUOUS
 10
385.6375541636
 20
346.421818313
 11
385.6375611717
 21
346.4220372546
  0
LINE
  8
0
 62
7
  6
CONTINUOUS
 10
385.683567343
 20
347.7190468279
 11
385.6375611717
 21
346.4220372559
  0
LINE
  8
0
 62
7
  6
CONTINUOUS
 10
385.6921042992
 20
347.9478318191
 11
385.683567343
 21
347.7190468279
  0
LINE
  8
0
 62
7
  6
CONTINUOUS
 10
385.6375541636
 20
304.8398030322
 11
385.6383186054
 21
304.8588507023
  0
POLYLINE
  8
0
 62
7
  6
CONTINUOUS
 66
1
 70
0
  0
VERTEX
  8
0
 62
7
  6
CONTINUOUS
 10
385.6375532564
 20
340.9286972253
  0
VERTEX
  8
0
 62
7
  6
CONTINUOUS
 10
385.6389832206
 20
340.9635822514
  0
VERTEX
  8
0
 62
7
  6
CONTINUOUS
 10
385.6433042809
 20
340.9982887807
  0
VERTEX
  8
0
 62
7
  6
CONTINUOUS
 10
385.6504738704
 20
341.0325406613
  0
VERTEX
  8
0
 62
7
  6
CONTINUOUS
 10
385.6604316431
 20
341.066062419
  0
VERTEX
  8
0
 62
7
  6
CONTINUOUS
 10
385.6730873185
 20
341.0985841786
  0
VERTEX
  8
0
 62
7
  6
CONTINUOUS
 10
385.6883217528
 20
341.1298465132
  0
VERTEX
  8
0
 62
7
  6
CONTINUOUS
 10
385.705989225
 20
341.159605467
  0
VERTEX
  8
0
 62
7
  6
CONTINUOUS
 10
385.7259209275
 20
341.1876372061
  0
VERTEX
  8
0
 62
7
  6
CONTINUOUS
 10
385.7479294722
 20
341.2137418325
  0
VERTEX
  8
0
 62
7
  6
CONTINUOUS
 10
385.7718139858
 20
341.2377459212
  0
VERTEX
  8
0
 62
7
  6
CONTINUOUS
 10
385.7973655963
 20
341.2595038333
  0
VERTEX
  8
0
 62
7
  6
CONTINUOUS
 10
385.8243728322
 20
341.2788975928
  0
VERTEX
  8
0
 62
7
  6
CONTINUOUS
 10
385.8526264533
 20
341.2958353462
  0
VERTEX
  8
0
 62
7
  6
CONTINUOUS
 10
385.88192301
 20
341.3102484923
  0
VERTEX
  8
0
 62
7
  6
CONTINUOUS
 10
385.9120675935
 20
341.3220882961
  0
VERTEX
  8
0
 62
7
  6
CONTINUOUS
 10
385.9428739257
 20
341.3313216639
  0
VERTEX
  8
0
 62
7
  6
CONTINUOUS
 10
385.9741644624
 20
341.3379277774
  0
VERTEX
  8
0
 62
7
  6
CONTINUOUS
 10
386.0057741799
 20
341.3418954206
  0
VERTEX
  8
0
 62
7
  6
CONTINUOUS
 10
386.0375410284
 20
341.3432185301
  0
SEQEND
  0
POLYLINE
  8
0
 62
7
  6
CONTINUOUS
 66
1
 70
0
  0
VERTEX
  8
0
 62
7
  6
CONTINUOUS
 10
385.786927799
 20
350.1898526758
  0
VERTEX
  8
0
 62
7
  6
CONTINUOUS
 10
385.7391864327
 20
349.0931776012
  0
VERTEX
  8
0
 62
7
  6
CONTINUOUS
 10
385.6921042991
 20
347.9478318191
  0
SEQEND
  0
POLYLINE
  8
0
 62
7
  6
CONTINUOUS
 66
1
 70
0
  0
VERTEX
  8
0
 62
7
  6
CONTINUOUS
 10
385.6375541636
 20
262.5701144313
  0
VERTEX
  8
0
 62
7
  6
CONTINUOUS
 10
385.6387930745
 20
262.5983374568
  0
VERTEX
  8
0
 62
7
  6
CONTINUOUS
 10
385.6420433518
 20
262.626398002
  0
VERTEX
  8
0
 62
7
  6
CONTINUOUS
 10
385.6472885474
 20
262.6541545388
  0
VERTEX
  8
0
 62
7
  6
CONTINUOUS
 10
385.6545021532
 20
262.6814670746
  0
VERTEX
  8
0
 62
7
  6
CONTINUOUS
 10
385.6567222467
 20
262.6885602343
  0
SEQEND
  0
POLYLINE
  8
0
 62
7
  6
CONTINUOUS
 66
1
 70
0
  0
VERTEX
  8
0
 62
7
  6
CONTINUOUS
 10
385.6375541636
 20
213.9107168695
  0
VERTEX
  8
0
 62
7
  6
CONTINUOUS
 10
385.6387930745
 20
213.9379405341
  0
VERTEX
  8
0
 62
7
  6
CONTINUOUS
 10
385.6420433518
 20
213.9650206593
  0
VERTEX
  8
0
 62
7
  6
CONTINUOUS
 10
385.6472885474
 20
213.9918206617
  0
VERTEX
  8
0
 62
7
  6
CONTINUOUS
 10
385.6545021532
 20
214.0182053729
  0
VERTEX
  8
0
 62
7
  6
CONTINUOUS
 10
385.6636477335
 20
214.0440417211
  0
VERTEX
  8
0
 62
7
  6
CONTINUOUS
 10
385.6746791089
 20
214.069199404
  0
VERTEX
  8
0
 62
7
  6
CONTINUOUS
 10
385.687540589
 20
214.093551546
  0
VERTEX
  8
0
 62
7
  6
CONTINUOUS
 10
385.7021672538
 20
214.1169753395
  0
VERTEX
  8
0
 62
7
  6
CONTINUOUS
 10
385.7184852817
 20
214.1393526645
  0
VERTEX
  8
0
 62
7
  6
CONTINUOUS
 10
385.7364123226
 20
214.1605706849
  0
VERTEX
  8
0
 62
7
  6
CONTINUOUS
 10
385.7558579146
 20
214.1805224183
  0
VERTEX
  8
0
 62
7
  6
CONTINUOUS
 10
385.7767239411
 20
214.1991072749
  0
VERTEX
  8
0
 62
7
  6
CONTINUOUS
 10
385.7989051272
 20
214.216231565
  0
VERTEX
  8
0
 62
7
  6
CONTINUOUS
 10
385.8222895715
 20
214.2318089704
  0
VERTEX
  8
0
 62
7
  6
CONTINUOUS
 10
385.8467593121
 20
214.2457609796
  0
VERTEX
  8
0
 62
7
  6
CONTINUOUS
 10
385.8721909218
 20
214.2580172819
  0
VERTEX
  8
0
 62
7
  6
CONTINUOUS
 10
385.8984561317
 20
214.2685161211
  0
VERTEX
  8
0
 62
7
  6
CONTINUOUS
 10
385.9254224783
 20
214.2772046055
  0
VERTEX
  8
0
 62
7
  6
CONTINUOUS
 10
385.9529539716
 20
214.2840389728
  0
VERTEX
  8
0
 62
7
  6
CONTINUOUS
 10
385.980911781
 20
214.2889848095
  0
VERTEX
  8
0
 62
7
  6
CONTINUOUS
 10
386.0091549343
 20
214.292017223
  0
VERTEX
  8
0
 62
7
  6
CONTINUOUS
 10
386.0375410284
 20
214.2931209657
  0
SEQEND
  0
LINE
  8
0
 62
7
  6
CONTINUOUS
 10
385.6807548863
 20
335.2723211985
 11
385.637691754
 21
334.2894706516
  0
POLYLINE
  8
0
 62
7
  6
CONTINUOUS
 66
1
 70
0
  0
VERTEX
  8
0
 62
7
  6
CONTINUOUS
 10
385.6375532564
 20
323.9422946201
  0
VERTEX
  8
0
 62
7
  6
CONTINUOUS
 10
385.6389832206
 20
323.9722550803
  0
VERTEX
  8
0
 62
7
  6
CONTINUOUS
 10
385.6433042809
 20
324.0020622415
  0
VERTEX
  8
0
 62
7
  6
CONTINUOUS
 10
385.6504738704
 20
324.0314789345
  0
VERTEX
  8
0
 62
7
  6
CONTINUOUS
 10
385.6604316431
 20
324.0602685731
  0
VERTEX
  8
0
 62
7
  6
CONTINUOUS
 10
385.6730873185
 20
324.0881993788
  0
VERTEX
  8
0
 62
7
  6
CONTINUOUS
 10
385.6883217528
 20
324.1150485469
  0
VERTEX
  8
0
 62
7
  6
CONTINUOUS
 10
385.705989225
 20
324.14060656
  0
VERTEX
  8
0
 62
7
  6
CONTINUOUS
 10
385.7259209275
 20
324.1646811817
  0
VERTEX
  8
0
 62
7
  6
CONTINUOUS
 10
385.7479294722
 20
324.1871007328
  0
VERTEX
  8
0
 62
7
  6
CONTINUOUS
 10
385.7718139858
 20
324.2077162697
  0
VERTEX
  8
0
 62
7
  6
CONTINUOUS
 10
385.7973655963
 20
324.226402713
  0
VERTEX
  8
0
 62
7
  6
CONTINUOUS
 10
385.8243728322
 20
324.2430587407
  0
VERTEX
  8
0
 62
7
  6
CONTINUOUS
 10
385.8526264533
 20
324.2576054659
  0
VERTEX
  8
0
 62
7
  6
CONTINUOUS
 10
385.88192301
 20
324.2699839715
  0
VERTEX
  8
0
 62
7
  6
CONTINUOUS
 10
385.9120675935
 20
324.2801524022
  0
VERTEX
  8
0
 62
7
  6
CONTINUOUS
 10
385.9428739257
 20
324.2880823361
  0
VERTEX
  8
0
 62
7
  6
CONTINUOUS
 10
385.9741644624
 20
324.2937558936
  0
VERTEX
  8
0
 62
7
  6
CONTINUOUS
 10
386.0057741799
 20
324.297163442
  0
VERTEX
  8
0
 62
7
  6
CONTINUOUS
 10
386.0375410284
 20
324.2982997739
  0
SEQEND
  0
LINE
  8
0
 62
7
  6
CONTINUOUS
 10
385.8350839293
 20
351.2321484695
 11
385.786927799
 21
350.1898526758
  0
LINE
  8
0
 62
7
  6
CONTINUOUS
 10
385.683368572
 20
335.3246809695
 11
385.6807548863
 21
335.2723211985
  0
POLYLINE
  8
0
 62
7
  6
CONTINUOUS
 66
1
 70
0
  0
VERTEX
  8
0
 62
7
  6
CONTINUOUS
 10
385.6375532564
 20
340.9286972253
  0
VERTEX
  8
0
 62
7
  6
CONTINUOUS
 10
385.6393156228
 20
340.9622827002
  0
VERTEX
  8
0
 62
7
  6
CONTINUOUS
 10
385.6438323195
 20
340.995680185
  0
VERTEX
  8
0
 62
7
  6
CONTINUOUS
 10
385.6510639864
 20
341.0285079393
  0
VERTEX
  8
0
 62
7
  6
CONTINUOUS
 10
385.6609331703
 20
341.0605171486
  0
VERTEX
  8
0
 62
7
  6
CONTINUOUS
 10
385.6734089252
 20
341.0916315601
  0
VERTEX
  8
0
 62
7
  6
CONTINUOUS
 10
385.688390921
 20
341.1215876483
  0
VERTEX
  8
0
 62
7
  6
CONTINUOUS
 10
385.7057039408
 20
341.1500733684
  0
VERTEX
  8
0
 62
7
  6
CONTINUOUS
 10
385.7251813387
 20
341.1768855398
  0
VERTEX
  8
0
 62
7
  6
CONTINUOUS
 10
385.7468006178
 20
341.2020191542
  0
VERTEX
  8
0
 62
7
  6
CONTINUOUS
 10
385.7703623937
 20
341.2252419789
  0
VERTEX
  8
0
 62
7
  6
CONTINUOUS
 10
385.7956086431
 20
341.2463334403
  0
VERTEX
  8
0
 62
7
  6
CONTINUOUS
 10
385.822343218
 20
341.2651799514
  0
VERTEX
  8
0
 62
7
  6
CONTINUOUS
 10
385.850551529
 20
341.2817873325
  0
VERTEX
  8
0
 62
7
  6
CONTINUOUS
 10
385.8799790308
 20
341.2960024523
  0
VERTEX
  8
0
 62
7
  6
CONTINUOUS
 10
385.9103209966
 20
341.3077011204
  0
VERTEX
  8
0
 62
7
  6
CONTINUOUS
 10
385.9413947509
 20
341.3168457974
  0
VERTEX
  8
0
 62
7
  6
CONTINUOUS
 10
385.9731438931
 20
341.3234279645
  0
VERTEX
  8
0
 62
7
  6
CONTINUOUS
 10
386.0053049795
 20
341.3273885297
  0
VERTEX
  8
0
 62
7
  6
CONTINUOUS
 10
386.0375410284
 20
341.3287041704
  0
SEQEND
  0
LINE
  8
0
 62
7
  6
CONTINUOUS
 10
385.6856058286
 20
335.3649692842
 11
385.683368572
 21
335.3246809695
  0
POLYLINE
  8
0
 62
7
  6
CONTINUOUS
 66
1
 70
0
  0
VERTEX
  8
0
 62
7
  6
CONTINUOUS
 10
385.6375532564
 20
323.9422946201
  0
VERTEX
  8
0
 62
7
  6
CONTINUOUS
 10
385.6393156228
 20
323.9711389811
  0
VERTEX
  8
0
 62
7
  6
CONTINUOUS
 10
385.6438323195
 20
323.9998218898
  0
VERTEX
  8
0
 62
7
  6
CONTINUOUS
 10
385.6510639864
 20
324.0280154942
  0
VERTEX
  8
0
 62
7
  6
CONTINUOUS
 10
385.6609331703
 20
324.0555061041
  0
VERTEX
  8
0
 62
7
  6
CONTINUOUS
 10
385.6734089252
 20
324.0822282308
  0
VERTEX
  8
0
 62
7
  6
CONTINUOUS
 10
385.688390921
 20
324.1079555497
  0
VERTEX
  8
0
 62
7
  6
CONTINUOUS
 10
385.7057039408
 20
324.1324200659
  0
VERTEX
  8
0
 62
7
  6
CONTINUOUS
 10
385.7251813387
 20
324.1554472809
  0
VERTEX
  8
0
 62
7
  6
CONTINUOUS
 10
385.7468006178
 20
324.1770328934
  0
VERTEX
  8
0
 62
7
  6
CONTINUOUS
 10
385.7703623937
 20
324.196977454
  0
VERTEX
  8
0
 62
7
  6
CONTINUOUS
 10
385.7956086431
 20
324.2150915265
  0
VERTEX
  8
0
 62
7
  6
CONTINUOUS
 10
385.822343218
 20
324.2312775585
  0
VERTEX
  8
0
 62
7
  6
CONTINUOUS
 10
385.850551529
 20
324.2455405485
  0
VERTEX
  8
0
 62
7
  6
CONTINUOUS
 10
385.8799790308
 20
324.2577489823
  0
VERTEX
  8
0
 62
7
  6
CONTINUOUS
 10
385.9103209966
 20
324.2677962009
  0
VERTEX
  8
0
 62
7
  6
CONTINUOUS
 10
385.9413947509
 20
324.275649964
  0
VERTEX
  8
0
 62
7
  6
CONTINUOUS
 10
385.9731438931
 20
324.2813029555
  0
VERTEX
  8
0
 62
7
  6
CONTINUOUS
 10
386.0053049795
 20
324.2847044252
  0
VERTEX
  8
0
 62
7
  6
CONTINUOUS
 10
386.0375410284
 20
324.2858343426
  0
SEQEND
  0
POLYLINE
  8
0
 62
7
  6
CONTINUOUS
 66
1
 70
0
  0
VERTEX
  8
0
 62
7
  6
CONTINUOUS
 10
385.6875534216
 20
335.3959467345
  0
VERTEX
  8
0
 62
7
  6
CONTINUOUS
 10
385.6869309939
 20
335.386507201
  0
VERTEX
  8
0
 62
7
  6
CONTINUOUS
 10
385.6856058286
 20
335.3649692842
  0
SEQEND
  0
POLYLINE
  8
0
 62
7
  6
CONTINUOUS
 66
1
 70
0
  0
VERTEX
  8
0
 62
7
  6
CONTINUOUS
 10
385.6375532564
 20
291.2228249605
  0
VERTEX
  8
0
 62
7
  6
CONTINUOUS
 10
385.6389832206
 20
291.2432996465
  0
VERTEX
  8
0
 62
7
  6
CONTINUOUS
 10
385.6433042809
 20
291.2636695693
  0
VERTEX
  8
0
 62
7
  6
CONTINUOUS
 10
385.6504738704
 20
291.2837726501
  0
VERTEX
  8
0
 62
7
  6
CONTINUOUS
 10
385.6604316431
 20
291.3034472079
  0
VERTEX
  8
0
 62
7
  6
CONTINUOUS
 10
385.6730873185
 20
291.3225348477
  0
VERTEX
  8
0
 62
7
  6
CONTINUOUS
 10
385.6883217528
 20
291.340883307
  0
VERTEX
  8
0
 62
7
  6
CONTINUOUS
 10
385.705989225
 20
291.3583494036
  0
VERTEX
  8
0
 62
7
  6
CONTINUOUS
 10
385.7259209275
 20
291.3748017649
  0
VERTEX
  8
0
 62
7
  6
CONTINUOUS
 10
385.7479294722
 20
291.3901230672
  0
VERTEX
  8
0
 62
7
  6
CONTINUOUS
 10
385.7718139858
 20
291.4042115238
  0
VERTEX
  8
0
 62
7
  6
CONTINUOUS
 10
385.7973655963
 20
291.4169816567
  0
VERTEX
  8
0
 62
7
  6
CONTINUOUS
 10
385.8243728322
 20
291.4283642233
  0
VERTEX
  8
0
 62
7
  6
CONTINUOUS
 10
385.8526264533
 20
291.4383053132
  0
VERTEX
  8
0
 62
7
  6
CONTINUOUS
 10
385.88192301
 20
291.4467646631
  0
VERTEX
  8
0
 62
7
  6
CONTINUOUS
 10
385.9120675935
 20
291.4537136693
  0
VERTEX
  8
0
 62
7
  6
CONTINUOUS
 10
385.9428739257
 20
291.4591329087
  0
VERTEX
  8
0
 62
7
  6
CONTINUOUS
 10
385.9741644624
 20
291.4630101625
  0
VERTEX
  8
0
 62
7
  6
CONTINUOUS
 10
386.0057741799
 20
291.4653388478
  0
VERTEX
  8
0
 62
7
  6
CONTINUOUS
 10
386.0375410284
 20
291.4661154059
  0
SEQEND
  0
LINE
  8
0
 62
7
  6
CONTINUOUS
 10
385.6792170107
 20
305.4335953695
 11
385.6383186054
 21
304.8588507056
  0
POLYLINE
  8
0
 62
7
  6
CONTINUOUS
 66
1
 70
0
  0
VERTEX
  8
0
 62
7
  6
CONTINUOUS
 10
385.6375532564
 20
291.2228249605
  0
VERTEX
  8
0
 62
7
  6
CONTINUOUS
 10
385.6393156228
 20
291.2425369151
  0
VERTEX
  8
0
 62
7
  6
CONTINUOUS
 10
385.6438323195
 20
291.2621385348
  0
VERTEX
  8
0
 62
7
  6
CONTINUOUS
 10
385.6510639864
 20
291.2814057688
  0
VERTEX
  8
0
 62
7
  6
CONTINUOUS
 10
385.6609331703
 20
291.3001925831
  0
VERTEX
  8
0
 62
7
  6
CONTINUOUS
 10
385.6734089252
 20
291.3184542235
  0
VERTEX
  8
0
 62
7
  6
CONTINUOUS
 10
385.688390921
 20
291.336036022
  0
VERTEX
  8
0
 62
7
  6
CONTINUOUS
 10
385.7057039408
 20
291.3527548335
  0
VERTEX
  8
0
 62
7
  6
CONTINUOUS
 10
385.7251813387
 20
291.3684914073
  0
VERTEX
  8
0
 62
7
  6
CONTINUOUS
 10
385.7468006178
 20
291.3832428041
  0
VERTEX
  8
0
 62
7
  6
CONTINUOUS
 10
385.7703623937
 20
291.396872722
  0
VERTEX
  8
0
 62
7
  6
CONTINUOUS
 10
385.7956086431
 20
291.4092517023
  0
VERTEX
  8
0
 62
7
  6
CONTINUOUS
 10
385.822343218
 20
291.4203130784
  0
VERTEX
  8
0
 62
7
  6
CONTINUOUS
 10
385.850551529
 20
291.4300602666
  0
VERTEX
  8
0
 62
7
  6
CONTINUOUS
 10
385.8799790308
 20
291.438403391
  0
VERTEX
  8
0
 62
7
  6
CONTINUOUS
 10
385.9103209966
 20
291.445269562
  0
VERTEX
  8
0
 62
7
  6
CONTINUOUS
 10
385.9413947509
 20
291.4506367471
  0
VERTEX
  8
0
 62
7
  6
CONTINUOUS
 10
385.9731438931
 20
291.4544999462
  0
VERTEX
  8
0
 62
7
  6
CONTINUOUS
 10
386.0053049795
 20
291.4568244774
  0
VERTEX
  8
0
 62
7
  6
CONTINUOUS
 10
386.0375410284
 20
291.4575966519
  0
SEQEND
  0
LINE
  8
0
 62
7
  6
CONTINUOUS
 10
385.6375532564
 20
247.7515308995
 11
385.6389832206
 21
247.7594027259
  0
POLYLINE
  8
0
 62
7
  6
CONTINUOUS
 66
1
 70
0
  0
VERTEX
  8
0
 62
7
  6
CONTINUOUS
 10
385.6375532564
 20
247.7515308995
  0
VERTEX
  8
0
 62
7
  6
CONTINUOUS
 10
385.6393156228
 20
247.7591094814
  0
VERTEX
  8
0
 62
7
  6
CONTINUOUS
 10
385.6438323195
 20
247.7666456431
  0
VERTEX
  8
0
 62
7
  6
CONTINUOUS
 10
385.6510639864
 20
247.7740532449
  0
VERTEX
  8
0
 62
7
  6
CONTINUOUS
 10
385.6609331703
 20
247.7812761415
  0
VERTEX
  8
0
 62
7
  6
CONTINUOUS
 10
385.6734089252
 20
247.7882971264
  0
VERTEX
  8
0
 62
7
  6
CONTINUOUS
 10
385.688390921
 20
247.795056735
  0
VERTEX
  8
0
 62
7
  6
CONTINUOUS
 10
385.7057039408
 20
247.8014845543
  0
VERTEX
  8
0
 62
7
  6
CONTINUOUS
 10
385.7251813387
 20
247.8075347362
  0
VERTEX
  8
0
 62
7
  6
CONTINUOUS
 10
385.7468006178
 20
247.8132061509
  0
VERTEX
  8
0
 62
7
  6
CONTINUOUS
 10
385.7703623937
 20
247.8184463947
  0
VERTEX
  8
0
 62
7
  6
CONTINUOUS
 10
385.7956086431
 20
247.8232056951
  0
VERTEX
  8
0
 62
7
  6
CONTINUOUS
 10
385.822343218
 20
247.8274584213
  0
VERTEX
  8
0
 62
7
  6
CONTINUOUS
 10
385.850551529
 20
247.8312058864
  0
VERTEX
  8
0
 62
7
  6
CONTINUOUS
 10
385.8799790308
 20
247.8344135364
  0
VERTEX
  8
0
 62
7
  6
CONTINUOUS
 10
385.9103209966
 20
247.8370533477
  0
VERTEX
  8
0
 62
7
  6
CONTINUOUS
 10
385.9413947509
 20
247.8391168493
  0
VERTEX
  8
0
 62
7
  6
CONTINUOUS
 10
385.9731438931
 20
247.8406021191
  0
VERTEX
  8
0
 62
7
  6
CONTINUOUS
 10
386.0053049795
 20
247.8414958229
  0
VERTEX
  8
0
 62
7
  6
CONTINUOUS
 10
386.0375410284
 20
247.841792698
  0
SEQEND
  0
POLYLINE
  8
0
 62
7
  6
CONTINUOUS
 66
1
 70
0
  0
VERTEX
  8
0
 62
7
  6
CONTINUOUS
 10
403.4362889824
 20
314.2850077221
  0
VERTEX
  8
0
 62
7
  6
CONTINUOUS
 10
403.4330387051
 20
314.2714796433
  0
VERTEX
  8
0
 62
7
  6
CONTINUOUS
 10
403.4277935095
 20
314.2580661063
  0
VERTEX
  8
0
 62
7
  6
CONTINUOUS
 10
403.4205799037
 20
314.2448347645
  0
VERTEX
  8
0
 62
7
  6
CONTINUOUS
 10
403.4114343234
 20
314.2318523509
  0
VERTEX
  8
0
 62
7
  6
CONTINUOUS
 10
403.400402948
 20
314.2191843415
  0
VERTEX
  8
0
 62
7
  6
CONTINUOUS
 10
403.3875414679
 20
314.2068946243
  0
VERTEX
  8
0
 62
7
  6
CONTINUOUS
 10
403.3729148031
 20
314.195045177
  0
VERTEX
  8
0
 62
7
  6
CONTINUOUS
 10
403.3565967752
 20
314.1836957542
  0
VERTEX
  8
0
 62
7
  6
CONTINUOUS
 10
403.3386697343
 20
314.1729035852
  0
VERTEX
  8
0
 62
7
  6
CONTINUOUS
 10
403.3192241423
 20
314.1627230857
  0
VERTEX
  8
0
 62
7
  6
CONTINUOUS
 10
403.2983581158
 20
314.1532055832
  0
VERTEX
  8
0
 62
7
  6
CONTINUOUS
 10
403.2761769297
 20
314.1443990584
  0
VERTEX
  8
0
 62
7
  6
CONTINUOUS
 10
403.2527924854
 20
314.1363479032
  0
VERTEX
  8
0
 62
7
  6
CONTINUOUS
 10
403.2283227448
 20
314.1290926975
  0
VERTEX
  8
0
 62
7
  6
CONTINUOUS
 10
403.2028911351
 20
314.1226700051
  0
VERTEX
  8
0
 62
7
  6
CONTINUOUS
 10
403.1766259252
 20
314.1171121897
  0
VERTEX
  8
0
 62
7
  6
CONTINUOUS
 10
403.1496595786
 20
314.1124472528
  0
VERTEX
  8
0
 62
7
  6
CONTINUOUS
 10
403.1221280853
 20
314.1086986926
  0
VERTEX
  8
0
 62
7
  6
CONTINUOUS
 10
403.0941702759
 20
314.1058853872
  0
VERTEX
  8
0
 62
7
  6
CONTINUOUS
 10
403.0659271225
 20
314.1040214991
  0
VERTEX
  8
0
 62
7
  6
CONTINUOUS
 10
403.0375410284
 20
314.1031164054
  0
SEQEND
  0
POLYLINE
  8
0
 62
7
  6
CONTINUOUS
 66
1
 70
0
  0
VERTEX
  8
0
 62
7
  6
CONTINUOUS
 10
385.6375532564
 20
200.1465228897
  0
VERTEX
  8
0
 62
7
  6
CONTINUOUS
 10
385.6389832206
 20
200.1405934422
  0
VERTEX
  8
0
 62
7
  6
CONTINUOUS
 10
385.6433042809
 20
200.1346943339
  0
VERTEX
  8
0
 62
7
  6
CONTINUOUS
 10
385.6504738704
 20
200.1288725029
  0
VERTEX
  8
0
 62
7
  6
CONTINUOUS
 10
385.6604316431
 20
200.1231747716
  0
VERTEX
  8
0
 62
7
  6
CONTINUOUS
 10
385.6730873185
 20
200.1176470112
  0
VERTEX
  8
0
 62
7
  6
CONTINUOUS
 10
385.6883217528
 20
200.1123333166
  0
VERTEX
  8
0
 62
7
  6
CONTINUOUS
 10
385.705989225
 20
200.1072751534
  0
VERTEX
  8
0
 62
7
  6
CONTINUOUS
 10
385.7259209275
 20
200.1025105669
  0
VERTEX
  8
0
 62
7
  6
CONTINUOUS
 10
385.7479294722
 20
200.0980735339
  0
VERTEX
  8
0
 62
7
  6
CONTINUOUS
 10
385.7718139858
 20
200.0939935316
  0
VERTEX
  8
0
 62
7
  6
CONTINUOUS
 10
385.7973655963
 20
200.0902953146
  0
VERTEX
  8
0
 62
7
  6
CONTINUOUS
 10
385.8243728322
 20
200.0869989352
  0
VERTEX
  8
0
 62
7
  6
CONTINUOUS
 10
385.8526264533
 20
200.0841200061
  0
VERTEX
  8
0
 62
7
  6
CONTINUOUS
 10
385.88192301
 20
200.0816701872
  0
VERTEX
  8
0
 62
7
  6
CONTINUOUS
 10
385.9120675935
 20
200.0796577623
  0
VERTEX
  8
0
 62
7
  6
CONTINUOUS
 10
385.9428739257
 20
200.0780883563
  0
VERTEX
  8
0
 62
7
  6
CONTINUOUS
 10
385.9741644624
 20
200.0769655077
  0
VERTEX
  8
0
 62
7
  6
CONTINUOUS
 10
386.0057741799
 20
200.0762911229
  0
VERTEX
  8
0
 62
7
  6
CONTINUOUS
 10
386.0375410284
 20
200.0760662324
  0
SEQEND
  0
POLYLINE
  8
0
 62
7
  6
CONTINUOUS
 66
1
 70
0
  0
VERTEX
  8
0
 62
7
  6
CONTINUOUS
 10
385.6375891248
 20
252.6994582742
  0
VERTEX
  8
0
 62
7
  6
CONTINUOUS
 10
385.6390264824
 20
252.6781775318
  0
VERTEX
  8
0
 62
7
  6
CONTINUOUS
 10
385.6424549858
 20
252.6570060822
  0
VERTEX
  8
0
 62
7
  6
CONTINUOUS
 10
385.6478574623
 20
252.6360496963
  0
VERTEX
  8
0
 62
7
  6
CONTINUOUS
 10
385.6552068787
 20
252.6154130703
  0
VERTEX
  8
0
 62
7
  6
CONTINUOUS
 10
385.6644664753
 20
252.5951993023
  0
VERTEX
  8
0
 62
7
  6
CONTINUOUS
 10
385.6755899487
 20
252.5755093761
  0
VERTEX
  8
0
 62
7
  6
CONTINUOUS
 10
385.6885216831
 20
252.5564416567
  0
VERTEX
  8
0
 62
7
  6
CONTINUOUS
 10
385.7031970284
 20
252.5380913976
  0
VERTEX
  8
0
 62
7
  6
CONTINUOUS
 10
385.7195426231
 20
252.5205502643
  0
VERTEX
  8
0
 62
7
  6
CONTINUOUS
 10
385.7374767623
 20
252.5039058762
  0
VERTEX
  8
0
 62
7
  6
CONTINUOUS
 10
385.7569098066
 20
252.4882413684
  0
VERTEX
  8
0
 62
7
  6
CONTINUOUS
 10
385.7777446316
 20
252.4736349765
  0
VERTEX
  8
0
 62
7
  6
CONTINUOUS
 10
385.7998771143
 20
252.4601596468
  0
VERTEX
  8
0
 62
7
  6
CONTINUOUS
 10
385.8231966551
 20
252.4478826731
  0
VERTEX
  8
0
 62
7
  6
CONTINUOUS
 10
385.8475867313
 20
252.4368653633
  0
VERTEX
  8
0
 62
7
  6
CONTINUOUS
 10
385.8729254809
 20
252.4271627378
  0
VERTEX
  8
0
 62
7
  6
CONTINUOUS
 10
385.8990863122
 20
252.4188232649
  0
VERTEX
  8
0
 62
7
  6
CONTINUOUS
 10
385.9259385371
 20
252.4118886409
  0
VERTEX
  8
0
 62
7
  6
CONTINUOUS
 10
385.9533480259
 20
252.4063936481
  0
VERTEX
  8
0
 62
7
  6
CONTINUOUS
 10
385.9811778828
 20
252.4023662382
  0
VERTEX
  8
0
 62
7
  6
CONTINUOUS
 10
386.0092891716
 20
252.3998291863
  0
VERTEX
  8
0
 62
7
  6
CONTINUOUS
 10
386.0375410284
 20
252.3987755356
  0
SEQEND
  0
LINE
  8
0
 62
7
  6
CONTINUOUS
 10
385.6375891277
 20
329.4540574935
 11
385.6375410284
 21
329.4560099539
  0
LINE
  8
0
 62
7
  6
CONTINUOUS
 10
393.9375410284
 20
89.5829576048
 11
393.9375410284
 21
93.2418977987
  0
LINE
  8
0
 62
7
  6
CONTINUOUS
 10
393.9375410284
 20
105.3825814975
 11
393.9375410284
 21
116.2136946348
  0
LINE
  8
0
 62
7
  6
CONTINUOUS
 10
393.9375410284
 20
135.3290136589
 11
393.9375410284
 21
152.9686651231
  0
LINE
  8
0
 62
7
  6
CONTINUOUS
 10
393.9375410284
 20
178.1049341486
 11
393.9375410284
 21
196.8504388757
  0
LINE
  8
0
 62
7
  6
CONTINUOUS
 10
393.9375410284
 20
224.599083698
 11
393.9375410284
 21
244.3477285204
  0
LINE
  8
0
 62
7
  6
CONTINUOUS
 10
393.9375410284
 20
269.9841335267
 11
393.9375410284
 21
288.229502273
  0
LINE
  8
0
 62
7
  6
CONTINUOUS
 10
393.9375410284
 20
307.8507571956
 11
393.9375410284
 21
324.9844727467
  0
LINE
  8
0
 62
7
  6
CONTINUOUS
 10
393.9375410284
 20
335.8157201769
 11
393.9375410284
 21
347.9562695664
  0
LINE
  8
0
 62
7
  6
CONTINUOUS
 10
395.1375410284
 20
93.2418978297
 11
395.1375410284
 21
105.3824472192
  0
LINE
  8
0
 62
7
  6
CONTINUOUS
 10
395.1375410284
 20
116.2136946493
 11
395.1375410284
 21
133.3474102005
  0
LINE
  8
0
 62
7
  6
CONTINUOUS
 10
395.1375410284
 20
152.9686651231
 11
395.1375410284
 21
171.2140338693
  0
LINE
  8
0
 62
7
  6
CONTINUOUS
 10
395.1375410284
 20
196.8504388757
 11
395.1375410284
 21
216.599083698
  0
LINE
  8
0
 62
7
  6
CONTINUOUS
 10
395.1375410284
 20
244.3477285204
 11
395.1375410284
 21
263.0932332475
  0
LINE
  8
0
 62
7
  6
CONTINUOUS
 10
395.1375410284
 20
288.229502273
 11
395.1375410284
 21
305.8691537371
  0
LINE
  8
0
 62
7
  6
CONTINUOUS
 10
395.1375410284
 20
324.9844727612
 11
395.1375410284
 21
335.8155858986
  0
LINE
  8
0
 62
7
  6
CONTINUOUS
 10
395.1375410284
 20
347.9562695974
 11
395.1375410284
 21
351.6152097913
  0
LINE
  8
0
 62
7
  6
CONTINUOUS
 10
385.6375541636
 20
101.7945072877
 11
385.6375410284
 21
101.7937818108
  0
POLYLINE
  8
0
 62
7
  6
CONTINUOUS
 66
1
 70
0
  0
VERTEX
  8
0
 62
7
  6
CONTINUOUS
 10
385.6375541636
 20
166.2695625272
  0
VERTEX
  8
0
 62
7
  6
CONTINUOUS
 10
385.6387930745
 20
166.2916422746
  0
VERTEX
  8
0
 62
7
  6
CONTINUOUS
 10
385.6420433518
 20
166.3136192763
  0
VERTEX
  8
0
 62
7
  6
CONTINUOUS
 10
385.6472885474
 20
166.335382687
  0
VERTEX
  8
0
 62
7
  6
CONTINUOUS
 10
385.6545021532
 20
166.3568227403
  0
VERTEX
  8
0
 62
7
  6
CONTINUOUS
 10
385.6636477335
 20
166.3778313028
  0
VERTEX
  8
0
 62
7
  6
CONTINUOUS
 10
385.6746791089
 20
166.39830242
  0
VERTEX
  8
0
 62
7
  6
CONTINUOUS
 10
385.687540589
 20
166.4181328513
  0
VERTEX
  8
0
 62
7
  6
CONTINUOUS
 10
385.7021672538
 20
166.4372225916
  0
VERTEX
  8
0
 62
7
  6
CONTINUOUS
 10
385.7184852817
 20
166.455475376
  0
VERTEX
  8
0
 62
7
  6
CONTINUOUS
 10
385.7364123226
 20
166.4727991657
  0
VERTEX
  8
0
 62
7
  6
CONTINUOUS
 10
385.7558579146
 20
166.4891066127
  0
VERTEX
  8
0
 62
7
  6
CONTINUOUS
 10
385.7767239411
 20
166.5043154998
  0
VERTEX
  8
0
 62
7
  6
CONTINUOUS
 10
385.7989051272
 20
166.5183491557
  0
VERTEX
  8
0
 62
7
  6
CONTINUOUS
 10
385.8222895715
 20
166.5311368406
  0
VERTEX
  8
0
 62
7
  6
CONTINUOUS
 10
385.8467593121
 20
166.5426141025
  0
VERTEX
  8
0
 62
7
  6
CONTINUOUS
 10
385.8721909218
 20
166.5527231016
  0
VERTEX
  8
0
 62
7
  6
CONTINUOUS
 10
385.8984561317
 20
166.5614129005
  0
VERTEX
  8
0
 62
7
  6
CONTINUOUS
 10
385.9254224783
 20
166.56863972
  0
VERTEX
  8
0
 62
7
  6
CONTINUOUS
 10
385.9529539716
 20
166.5743671591
  0
VERTEX
  8
0
 62
7
  6
CONTINUOUS
 10
385.980911781
 20
166.5785663765
  0
VERTEX
  8
0
 62
7
  6
CONTINUOUS
 10
386.0091549343
 20
166.5812162359
  0
VERTEX
  8
0
 62
7
  6
CONTINUOUS
 10
386.0375410284
 20
166.5823034103
  0
SEQEND
  0
LINE
  8
0
 62
7
  6
CONTINUOUS
 10
385.6375541636
 20
126.8995852848
 11
385.6387930745
 21
126.9131596736
  0
LINE
  8
0
 62
7
  6
CONTINUOUS
 10
403.4375278933
 20
314.298582111
 11
403.4362889824
 21
314.2850077221
  0
LINE
  8
DEFAULT_1
 62
2
  6
CENTER
 10
367.5375410284
 20
220.599083698
 11
421.5375410284
 21
220.599083698
  0
POLYLINE
  8
0
 62
7
  6
CONTINUOUS
 66
1
 70
0
  0
VERTEX
  8
0
 62
7
  6
CONTINUOUS
 10
385.6375891248
 20
296.8835685689
  0
VERTEX
  8
0
 62
7
  6
CONTINUOUS
 10
385.6390264824
 20
296.8710106493
  0
VERTEX
  8
0
 62
7
  6
CONTINUOUS
 10
385.6424549858
 20
296.8585013489
  0
VERTEX
  8
0
 62
7
  6
CONTINUOUS
 10
385.6478574623
 20
296.8461031643
  0
VERTEX
  8
0
 62
7
  6
CONTINUOUS
 10
385.6552068787
 20
296.8338780367
  0
VERTEX
  8
0
 62
7
  6
CONTINUOUS
 10
385.6644664752
 20
296.821887042
  0
VERTEX
  8
0
 62
7
  6
CONTINUOUS
 10
385.6755899486
 20
296.8101900859
  0
VERTEX
  8
0
 62
7
  6
CONTINUOUS
 10
385.6885216831
 20
296.7988456039
  0
VERTEX
  8
0
 62
7
  6
CONTINUOUS
 10
385.7031970284
 20
296.7879102689
  0
VERTEX
  8
0
 62
7
  6
CONTINUOUS
 10
385.7195426231
 20
296.7774387079
  0
VERTEX
  8
0
 62
7
  6
CONTINUOUS
 10
385.7374767623
 20
296.767483229
  0
VERTEX
  8
0
 62
7
  6
CONTINUOUS
 10
385.7569098065
 20
296.75809356
  0
VERTEX
  8
0
 62
7
  6
CONTINUOUS
 10
385.7777446315
 20
296.7493166005
  0
VERTEX
  8
0
 62
7
  6
CONTINUOUS
 10
385.7998771143
 20
296.7411961882
  0
VERTEX
  8
0
 62
7
  6
CONTINUOUS
 10
385.823196655
 20
296.7337728823
  0
VERTEX
  8
0
 62
7
  6
CONTINUOUS
 10
385.8475867312
 20
296.7270837631
  0
VERTEX
  8
0
 62
7
  6
CONTINUOUS
 10
385.8729254808
 20
296.7211622531
  0
VERTEX
  8
0
 62
7
  6
CONTINUOUS
 10
385.8990863121
 20
296.7160379628
  0
VERTEX
  8
0
 62
7
  6
CONTINUOUS
 10
385.9259385369
 20
296.711736572
  0
VERTEX
  8
0
 62
7
  6
CONTINUOUS
 10
385.9533480257
 20
296.7082797904
  0
VERTEX
  8
0
 62
7
  6
CONTINUOUS
 10
385.9811778826
 20
296.7056855978
  0
VERTEX
  8
0
 62
7
  6
CONTINUOUS
 10
386.009289171
 20
296.7039705906
  0
VERTEX
  8
0
 62
7
  6
CONTINUOUS
 10
386.0375410284
 20
296.7031166734
  0
SEQEND
  0
POLYLINE
  8
0
 62
7
  6
CONTINUOUS
 66
1
 70
0
  0
VERTEX
  8
0
 62
7
  6
CONTINUOUS
 10
403.4374929321
 20
144.3145988277
  0
VERTEX
  8
0
 62
7
  6
CONTINUOUS
 10
403.4360555745
 20
144.3271567469
  0
VERTEX
  8
0
 62
7
  6
CONTINUOUS
 10
403.4326270711
 20
144.3396660469
  0
VERTEX
  8
0
 62
7
  6
CONTINUOUS
 10
403.4272245946
 20
144.3520642311
  0
VERTEX
  8
0
 62
7
  6
CONTINUOUS
 10
403.4198751781
 20
144.3642893583
  0
VERTEX
  8
0
 62
7
  6
CONTINUOUS
 10
403.4106155816
 20
144.3762803526
  0
VERTEX
  8
0
 62
7
  6
CONTINUOUS
 10
403.3994921082
 20
144.3879773082
  0
VERTEX
  8
0
 62
7
  6
CONTINUOUS
 10
403.3865603737
 20
144.3993217897
  0
VERTEX
  8
0
 62
7
  6
CONTINUOUS
 10
403.3718850284
 20
144.4102571242
  0
VERTEX
  8
0
 62
7
  6
CONTINUOUS
 10
403.3555394337
 20
144.4207286846
  0
VERTEX
  8
0
 62
7
  6
CONTINUOUS
 10
403.3376052945
 20
144.4306841629
  0
VERTEX
  8
0
 62
7
  6
CONTINUOUS
 10
403.3181722502
 20
144.4400738312
  0
VERTEX
  8
0
 62
7
  6
CONTINUOUS
 10
403.2973374252
 20
144.44885079
  0
VERTEX
  8
0
 62
7
  6
CONTINUOUS
 10
403.2752049425
 20
144.4569712013
  0
VERTEX
  8
0
 62
7
  6
CONTINUOUS
 10
403.2518854017
 20
144.4643945061
  0
VERTEX
  8
0
 62
7
  6
CONTINUOUS
 10
403.2274953255
 20
144.471083624
  0
VERTEX
  8
0
 62
7
  6
CONTINUOUS
 10
403.2021565759
 20
144.4770051322
  0
VERTEX
  8
0
 62
7
  6
CONTINUOUS
 10
403.1759957446
 20
144.4821294201
  0
VERTEX
  8
0
 62
7
  6
CONTINUOUS
 10
403.1491435197
 20
144.4864308074
  0
VERTEX
  8
0
 62
7
  6
CONTINUOUS
 10
403.1217340308
 20
144.4898875833
  0
VERTEX
  8
0
 62
7
  6
CONTINUOUS
 10
403.0939041737
 20
144.4924817644
  0
VERTEX
  8
0
 62
7
  6
CONTINUOUS
 10
403.0657928847
 20
144.4941967379
  0
VERTEX
  8
0
 62
7
  6
CONTINUOUS
 10
403.0375410284
 20
144.4950507228
  0
SEQEND
  0
POLYLINE
  8
0
 62
7
  6
CONTINUOUS
 66
1
 70
0
  0
VERTEX
  8
0
 62
7
  6
CONTINUOUS
 10
403.4374929321
 20
188.4987091221
  0
VERTEX
  8
0
 62
7
  6
CONTINUOUS
 10
403.4360555745
 20
188.5199898644
  0
VERTEX
  8
0
 62
7
  6
CONTINUOUS
 10
403.4326270711
 20
188.5411613138
  0
VERTEX
  8
0
 62
7
  6
CONTINUOUS
 10
403.4272245945
 20
188.5621176995
  0
VERTEX
  8
0
 62
7
  6
CONTINUOUS
 10
403.4198751781
 20
188.5827543253
  0
VERTEX
  8
0
 62
7
  6
CONTINUOUS
 10
403.4106155816
 20
188.6029680932
  0
VERTEX
  8
0
 62
7
  6
CONTINUOUS
 10
403.3994921082
 20
188.6226580191
  0
VERTEX
  8
0
 62
7
  6
CONTINUOUS
 10
403.3865603737
 20
188.6417257383
  0
VERTEX
  8
0
 62
7
  6
CONTINUOUS
 10
403.3718850284
 20
188.6600759972
  0
VERTEX
  8
0
 62
7
  6
CONTINUOUS
 10
403.3555394337
 20
188.6776171302
  0
VERTEX
  8
0
 62
7
  6
CONTINUOUS
 10
403.3376052945
 20
188.694261518
  0
VERTEX
  8
0
 62
7
  6
CONTINUOUS
 10
403.3181722502
 20
188.7099260256
  0
VERTEX
  8
0
 62
7
  6
CONTINUOUS
 10
403.2973374252
 20
188.7245324171
  0
VERTEX
  8
0
 62
7
  6
CONTINUOUS
 10
403.2752049425
 20
188.7380077464
  0
VERTEX
  8
0
 62
7
  6
CONTINUOUS
 10
403.2518854017
 20
188.7502847196
  0
VERTEX
  8
0
 62
7
  6
CONTINUOUS
 10
403.2274953255
 20
188.7613020288
  0
VERTEX
  8
0
 62
7
  6
CONTINUOUS
 10
403.2021565758
 20
188.7710046535
  0
VERTEX
  8
0
 62
7
  6
CONTINUOUS
 10
403.1759957446
 20
188.7793441253
  0
VERTEX
  8
0
 62
7
  6
CONTINUOUS
 10
403.1491435196
 20
188.7862787477
  0
VERTEX
  8
0
 62
7
  6
CONTINUOUS
 10
403.1217340308
 20
188.791773738
  0
VERTEX
  8
0
 62
7
  6
CONTINUOUS
 10
403.0939041737
 20
188.7958011427
  0
VERTEX
  8
0
 62
7
  6
CONTINUOUS
 10
403.0657928846
 20
188.7983381795
  0
VERTEX
  8
0
 62
7
  6
CONTINUOUS
 10
403.0375410284
 20
188.7993918605
  0
SEQEND
  0
POLYLINE
  8
0
 62
7
  6
CONTINUOUS
 66
1
 70
0
  0
VERTEX
  8
0
 62
7
  6
CONTINUOUS
 10
403.4374929321
 20
237.569810455
  0
VERTEX
  8
0
 62
7
  6
CONTINUOUS
 10
403.4360555745
 20
237.5965742202
  0
VERTEX
  8
0
 62
7
  6
CONTINUOUS
 10
403.4326270711
 20
237.6231846579
  0
VERTEX
  8
0
 62
7
  6
CONTINUOUS
 10
403.4272245946
 20
237.6495088255
  0
VERTEX
  8
0
 62
7
  6
CONTINUOUS
 10
403.4198751782
 20
237.6754152107
  0
VERTEX
  8
0
 62
7
  6
CONTINUOUS
 10
403.4106155816
 20
237.7007743894
  0
VERTEX
  8
0
 62
7
  6
CONTINUOUS
 10
403.3994921082
 20
237.725459673
  0
VERTEX
  8
0
 62
7
  6
CONTINUOUS
 10
403.3865603737
 20
237.7493477426
  0
VERTEX
  8
0
 62
7
  6
CONTINUOUS
 10
403.3718850284
 20
237.7723192654
  0
VERTEX
  8
0
 62
7
  6
CONTINUOUS
 10
403.3555394337
 20
237.7942594927
  0
VERTEX
  8
0
 62
7
  6
CONTINUOUS
 10
403.3376052945
 20
237.815058833
  0
VERTEX
  8
0
 62
7
  6
CONTINUOUS
 10
403.3181722502
 20
237.8346134006
  0
VERTEX
  8
0
 62
7
  6
CONTINUOUS
 10
403.2973374253
 20
237.8528255343
  0
VERTEX
  8
0
 62
7
  6
CONTINUOUS
 10
403.2752049425
 20
237.869604285
  0
VERTEX
  8
0
 62
7
  6
CONTINUOUS
 10
403.2518854018
 20
237.8848658689
  0
VERTEX
  8
0
 62
7
  6
CONTINUOUS
 10
403.2274953256
 20
237.8985340843
  0
VERTEX
  8
0
 62
7
  6
CONTINUOUS
 10
403.2021565759
 20
237.9105406892
  0
VERTEX
  8
0
 62
7
  6
CONTINUOUS
 10
403.1759957446
 20
237.9208257365
  0
VERTEX
  8
0
 62
7
  6
CONTINUOUS
 10
403.1491435197
 20
237.9293378613
  0
VERTEX
  8
0
 62
7
  6
CONTINUOUS
 10
403.1217340309
 20
237.9360345046
  0
VERTEX
  8
0
 62
7
  6
CONTINUOUS
 10
403.0939041739
 20
237.9408819994
  0
VERTEX
  8
0
 62
7
  6
CONTINUOUS
 10
403.065792885
 20
237.9438548654
  0
VERTEX
  8
0
 62
7
  6
CONTINUOUS
 10
403.0375410284
 20
237.9449478155
  0
SEQEND
  0
LINE
  8
0
 62
7
  6
CONTINUOUS
 10
403.4374929267
 20
111.7441099315
 11
403.4375410284
 21
111.7421574421
  0
LINE
  8
0
 62
7
  6
CONTINUOUS
 10
403.4374929296
 20
144.3145990524
 11
403.4375410284
 21
144.3104668215
  0
LINE
  8
0
 62
7
  6
CONTINUOUS
 10
403.4374929299
 20
320.8838008662
 11
403.4375410284
 21
320.8789268125
  0
LINE
  8
0
 62
7
  6
CONTINUOUS
 10
403.4374929296
 20
188.4987094724
 11
403.4375410284
 21
188.4930265623
  0
LINE
  8
0
 62
7
  6
CONTINUOUS
 10
403.4374929295
 20
284.0572729191
 11
403.4375410284
 21
284.0511885183
  0
LINE
  8
0
 62
7
  6
CONTINUOUS
 10
403.437535235
 20
342.4407195832
 11
403.4375410284
 21
342.4399680316
  0
LINE
  8
0
 62
7
  6
CONTINUOUS
 10
403.4374929295
 20
237.5698108889
 11
403.4375410284
 21
237.5634424599
  0
LINE
  8
0
 62
7
  6
CONTINUOUS
 10
403.4375410284
 20
346.4212704856
 11
403.4375410284
 21
342.4428897524
  0
LINE
  8
0
 62
7
  6
CONTINUOUS
 10
403.4375410284
 20
342.4399681534
 11
403.4375410284
 21
320.8838008662
  0
LINE
  8
0
 62
7
  6
CONTINUOUS
 10
403.4375410284
 20
320.8789271042
 11
403.4375410284
 21
284.0572729191
  0
LINE
  8
0
 62
7
  6
CONTINUOUS
 10
403.4375410284
 20
284.0511889206
 11
403.4375410284
 21
274.9313685783
  0
LINE
  8
0
 62
7
  6
CONTINUOUS
 10
403.4375410284
 20
274.928480336
 11
403.4375410284
 21
237.5698108889
  0
LINE
  8
0
 62
7
  6
CONTINUOUS
 10
403.4375410284
 20
193.4466363627
 11
403.4375410284
 21
188.4987094724
  0
LINE
  8
0
 62
7
  6
CONTINUOUS
 10
403.4375410284
 20
106.9135616375
 11
403.4375410284
 21
94.7768969105
  0
LINE
  8
0
 62
7
  6
CONTINUOUS
 10
403.4375395317
 20
106.9147799983
 11
403.4375410284
 21
136.3583643638
  0
LINE
  8
0
 62
7
  6
CONTINUOUS
 10
403.4375410284
 20
193.4476457867
 11
403.4375410284
 21
237.5634429197
  0
LINE
  8
0
 62
7
  6
CONTINUOUS
 10
403.4375410284
 20
136.3610274429
 11
403.4375410284
 21
188.4930270096
  0
LINE
  8
0
 62
7
  6
CONTINUOUS
 10
403.4375278933
 20
274.9286048515
 11
403.4375410284
 21
274.9313685783
  0
LINE
  8
0
 62
7
  6
CONTINUOUS
 10
403.4375278933
 20
136.3583643638
 11
403.4375410284
 21
136.3610274429
  0
LINE
  8
0
 62
7
  6
CONTINUOUS
 10
403.4375278933
 20
314.298582111
 11
403.4375410284
 21
314.3004704453
  0
LINE
  8
0
 62
7
  6
CONTINUOUS
 10
403.4375278933
 20
106.9135616375
 11
403.4375395317
 21
106.9147799983
  0
LINE
  8
0
 62
7
  6
CONTINUOUS
 10
403.4375278933
 20
339.4036601081
 11
403.4375410284
 21
339.4043855852
  0
POLYLINE
  8
0
 62
7
  6
CONTINUOUS
 66
1
 70
0
  0
VERTEX
  8
0
 62
7
  6
CONTINUOUS
 10
403.4375278933
 20
227.2874505187
  0
VERTEX
  8
0
 62
7
  6
CONTINUOUS
 10
403.4362889824
 20
227.2602268541
  0
VERTEX
  8
0
 62
7
  6
CONTINUOUS
 10
403.4330387051
 20
227.2331467289
  0
VERTEX
  8
0
 62
7
  6
CONTINUOUS
 10
403.4277935095
 20
227.2063467265
  0
VERTEX
  8
0
 62
7
  6
CONTINUOUS
 10
403.4205799037
 20
227.1799620153
  0
VERTEX
  8
0
 62
7
  6
CONTINUOUS
 10
403.4114343234
 20
227.1541256671
  0
VERTEX
  8
0
 62
7
  6
CONTINUOUS
 10
403.400402948
 20
227.1289679842
  0
VERTEX
  8
0
 62
7
  6
CONTINUOUS
 10
403.3875414679
 20
227.1046158422
  0
VERTEX
  8
0
 62
7
  6
CONTINUOUS
 10
403.3729148031
 20
227.0811920487
  0
VERTEX
  8
0
 62
7
  6
CONTINUOUS
 10
403.3565967752
 20
227.0588147238
  0
VERTEX
  8
0
 62
7
  6
CONTINUOUS
 10
403.3386697343
 20
227.0375967033
  0
VERTEX
  8
0
 62
7
  6
CONTINUOUS
 10
403.3192241423
 20
227.0176449699
  0
VERTEX
  8
0
 62
7
  6
CONTINUOUS
 10
403.2983581158
 20
226.9990601133
  0
VERTEX
  8
0
 62
7
  6
CONTINUOUS
 10
403.2761769297
 20
226.9819358233
  0
VERTEX
  8
0
 62
7
  6
CONTINUOUS
 10
403.2527924854
 20
226.9663584178
  0
VERTEX
  8
0
 62
7
  6
CONTINUOUS
 10
403.2283227448
 20
226.9524064087
  0
VERTEX
  8
0
 62
7
  6
CONTINUOUS
 10
403.2028911351
 20
226.9401501064
  0
VERTEX
  8
0
 62
7
  6
CONTINUOUS
 10
403.1766259252
 20
226.9296512671
  0
VERTEX
  8
0
 62
7
  6
CONTINUOUS
 10
403.1496595786
 20
226.9209627828
  0
VERTEX
  8
0
 62
7
  6
CONTINUOUS
 10
403.1221280853
 20
226.9141284155
  0
VERTEX
  8
0
 62
7
  6
CONTINUOUS
 10
403.0941702759
 20
226.9091825788
  0
VERTEX
  8
0
 62
7
  6
CONTINUOUS
 10
403.0659271225
 20
226.9061501652
  0
VERTEX
  8
0
 62
7
  6
CONTINUOUS
 10
403.0375410284
 20
226.9050464225
  0
SEQEND
  0
POLYLINE
  8
0
 62
7
  6
CONTINUOUS
 66
1
 70
0
  0
VERTEX
  8
0
 62
7
  6
CONTINUOUS
 10
403.4375278933
 20
274.9286048515
  0
VERTEX
  8
0
 62
7
  6
CONTINUOUS
 10
403.4362889824
 20
274.906525104
  0
VERTEX
  8
0
 62
7
  6
CONTINUOUS
 10
403.4330387051
 20
274.8845481024
  0
VERTEX
  8
0
 62
7
  6
CONTINUOUS
 10
403.4277935095
 20
274.8627846916
  0
VERTEX
  8
0
 62
7
  6
CONTINUOUS
 10
403.4205799037
 20
274.8413446383
  0
VERTEX
  8
0
 62
7
  6
CONTINUOUS
 10
403.4114343234
 20
274.8203360758
  0
VERTEX
  8
0
 62
7
  6
CONTINUOUS
 10
403.400402948
 20
274.7998649586
  0
VERTEX
  8
0
 62
7
  6
CONTINUOUS
 10
403.3875414679
 20
274.7800345273
  0
VERTEX
  8
0
 62
7
  6
CONTINUOUS
 10
403.3729148031
 20
274.760944787
  0
VERTEX
  8
0
 62
7
  6
CONTINUOUS
 10
403.3565967752
 20
274.7426920026
  0
VERTEX
  8
0
 62
7
  6
CONTINUOUS
 10
403.3386697343
 20
274.7253682129
  0
VERTEX
  8
0
 62
7
  6
CONTINUOUS
 10
403.3192241423
 20
274.709060766
  0
VERTEX
  8
0
 62
7
  6
CONTINUOUS
 10
403.2983581158
 20
274.6938518788
  0
VERTEX
  8
0
 62
7
  6
CONTINUOUS
 10
403.2761769297
 20
274.679818223
  0
VERTEX
  8
0
 62
7
  6
CONTINUOUS
 10
403.2527924854
 20
274.6670305381
  0
VERTEX
  8
0
 62
7
  6
CONTINUOUS
 10
403.2283227448
 20
274.6555532762
  0
VERTEX
  8
0
 62
7
  6
CONTINUOUS
 10
403.2028911351
 20
274.6454442771
  0
VERTEX
  8
0
 62
7
  6
CONTINUOUS
 10
403.1766259252
 20
274.6367544782
  0
VERTEX
  8
0
 62
7
  6
CONTINUOUS
 10
403.1496595786
 20
274.6295276587
  0
VERTEX
  8
0
 62
7
  6
CONTINUOUS
 10
403.1221280853
 20
274.6238002196
  0
VERTEX
  8
0
 62
7
  6
CONTINUOUS
 10
403.0941702759
 20
274.6196010021
  0
VERTEX
  8
0
 62
7
  6
CONTINUOUS
 10
403.0659271225
 20
274.6169511428
  0
VERTEX
  8
0
 62
7
  6
CONTINUOUS
 10
403.0375410284
 20
274.6158639684
  0
SEQEND
  0
POLYLINE
  8
0
 62
7
  6
CONTINUOUS
 66
1
 70
0
  0
VERTEX
  8
0
 62
7
  6
CONTINUOUS
 10
403.2414616668
 20
285.827923799
  0
VERTEX
  8
0
 62
7
  6
CONTINUOUS
 10
403.240770133
 20
285.8347587889
  0
VERTEX
  8
0
 62
7
  6
CONTINUOUS
 10
403.2399071469
 20
285.8422289332
  0
VERTEX
  8
0
 62
7
  6
CONTINUOUS
 10
403.2388340067
 20
285.8503297376
  0
VERTEX
  8
0
 62
7
  6
CONTINUOUS
 10
403.2375063082
 20
285.8590671706
  0
VERTEX
  8
0
 62
7
  6
CONTINUOUS
 10
403.2358851584
 20
285.8683934669
  0
VERTEX
  8
0
 62
7
  6
CONTINUOUS
 10
403.233932443
 20
285.8782607205
  0
VERTEX
  8
0
 62
7
  6
CONTINUOUS
 10
403.2316066354
 20
285.8886411305
  0
VERTEX
  8
0
 62
7
  6
CONTINUOUS
 10
403.2288561691
 20
285.8995420083
  0
VERTEX
  8
0
 62
7
  6
CONTINUOUS
 10
403.225623551
 20
285.9109728257
  0
VERTEX
  8
0
 62
7
  6
CONTINUOUS
 10
403.2218868957
 20
285.9228159583
  0
VERTEX
  8
0
 62
7
  6
CONTINUOUS
 10
403.2176395645
 20
285.9349407455
  0
VERTEX
  8
0
 62
7
  6
CONTINUOUS
 10
403.2128753772
 20
285.9472496421
  0
VERTEX
  8
0
 62
7
  6
CONTINUOUS
 10
403.207576309
 20
285.9596948934
  0
VERTEX
  8
0
 62
7
  6
CONTINUOUS
 10
403.2017200392
 20
285.9722439669
  0
VERTEX
  8
0
 62
7
  6
CONTINUOUS
 10
403.1952824448
 20
285.9848687524
  0
VERTEX
  8
0
 62
7
  6
CONTINUOUS
 10
403.188239135
 20
285.9975406725
  0
VERTEX
  8
0
 62
7
  6
CONTINUOUS
 10
403.1805664861
 20
286.0102285125
  0
VERTEX
  8
0
 62
7
  6
CONTINUOUS
 10
403.1722423373
 20
286.0228976386
  0
VERTEX
  8
0
 62
7
  6
CONTINUOUS
 10
403.1632465047
 20
286.0355098375
  0
VERTEX
  8
0
 62
7
  6
CONTINUOUS
 10
403.1535533414
 20
286.0480331758
  0
VERTEX
  8
0
 62
7
  6
CONTINUOUS
 10
403.143116855
 20
286.0604558111
  0
VERTEX
  8
0
 62
7
  6
CONTINUOUS
 10
403.1318843023
 20
286.0727623168
  0
VERTEX
  8
0
 62
7
  6
CONTINUOUS
 10
403.1197995624
 20
286.0849284986
  0
VERTEX
  8
0
 62
7
  6
CONTINUOUS
 10
403.1068094893
 20
286.0969152979
  0
VERTEX
  8
0
 62
7
  6
CONTINUOUS
 10
403.0928896255
 20
286.1086498674
  0
VERTEX
  8
0
 62
7
  6
CONTINUOUS
 10
403.0780292802
 20
286.120047294
  0
VERTEX
  8
0
 62
7
  6
CONTINUOUS
 10
403.0622238171
 20
286.1310196077
  0
VERTEX
  8
0
 62
7
  6
CONTINUOUS
 10
403.0454752192
 20
286.1414761557
  0
VERTEX
  8
0
 62
7
  6
CONTINUOUS
 10
403.0277924619
 20
286.1513241438
  0
VERTEX
  8
0
 62
7
  6
CONTINUOUS
 10
403.0091758737
 20
286.1604765404
  0
VERTEX
  8
0
 62
7
  6
CONTINUOUS
 10
402.9896020932
 20
286.1688537171
  0
VERTEX
  8
0
 62
7
  6
CONTINUOUS
 10
402.9690494109
 20
286.1763661347
  0
VERTEX
  8
0
 62
7
  6
CONTINUOUS
 10
402.9475024434
 20
286.1829121024
  0
VERTEX
  8
0
 62
7
  6
CONTINUOUS
 10
402.9249540628
 20
286.1883774143
  0
VERTEX
  8
0
 62
7
  6
CONTINUOUS
 10
402.901407543
 20
286.1926351591
  0
VERTEX
  8
0
 62
7
  6
CONTINUOUS
 10
402.8768789705
 20
286.1955457416
  0
VERTEX
  8
0
 62
7
  6
CONTINUOUS
 10
402.851399921
 20
286.1969571818
  0
VERTEX
  8
0
 62
7
  6
CONTINUOUS
 10
402.8420210719
 20
286.1970671252
  0
SEQEND
  0
LINE
  8
0
 62
7
  6
CONTINUOUS
 10
403.3463472137
 20
284.671145164
 11
403.244312765
 21
285.7964852332
  0
LINE
  8
0
 62
7
  6
CONTINUOUS
 10
403.244312765
 20
285.7964852332
 11
403.2414616668
 21
285.827923799
  0
POLYLINE
  8
0
 62
7
  6
CONTINUOUS
 66
1
 70
0
  0
VERTEX
  8
0
 62
7
  6
CONTINUOUS
 10
403.4375288005
 20
285.5429355361
  0
VERTEX
  8
0
 62
7
  6
CONTINUOUS
 10
403.4360988362
 20
285.5617635528
  0
VERTEX
  8
0
 62
7
  6
CONTINUOUS
 10
403.4317777759
 20
285.5804952319
  0
VERTEX
  8
0
 62
7
  6
CONTINUOUS
 10
403.4246081865
 20
285.5989815297
  0
VERTEX
  8
0
 62
7
  6
CONTINUOUS
 10
403.4146504138
 20
285.6170737683
  0
VERTEX
  8
0
 62
7
  6
CONTINUOUS
 10
403.4019947384
 20
285.6346262916
  0
VERTEX
  8
0
 62
7
  6
CONTINUOUS
 10
403.386760304
 20
285.6514990827
  0
VERTEX
  8
0
 62
7
  6
CONTINUOUS
 10
403.3690928319
 20
285.6675604748
  0
VERTEX
  8
0
 62
7
  6
CONTINUOUS
 10
403.3491611294
 20
285.6826896609
  0
VERTEX
  8
0
 62
7
  6
CONTINUOUS
 10
403.3271525847
 20
285.696778753
  0
VERTEX
  8
0
 62
7
  6
CONTINUOUS
 10
403.3032680711
 20
285.7097341505
  0
VERTEX
  8
0
 62
7
  6
CONTINUOUS
 10
403.2777164606
 20
285.7214772501
  0
VERTEX
  8
0
 62
7
  6
CONTINUOUS
 10
403.2507092247
 20
285.731944378
  0
VERTEX
  8
0
 62
7
  6
CONTINUOUS
 10
403.2501387168
 20
285.7321289683
  0
SEQEND
  0
POLYLINE
  8
0
 62
7
  6
CONTINUOUS
 66
1
 70
0
  0
VERTEX
  8
0
 62
7
  6
CONTINUOUS
 10
403.4367453088
 20
320.900833289
  0
VERTEX
  8
0
 62
7
  6
CONTINUOUS
 10
403.4270605594
 20
321.041720788
  0
VERTEX
  8
0
 62
7
  6
CONTINUOUS
 10
403.4167496825
 20
321.1993277667
  0
VERTEX
  8
0
 62
7
  6
CONTINUOUS
 10
403.4062459086
 20
321.3675848144
  0
VERTEX
  8
0
 62
7
  6
CONTINUOUS
 10
403.3955704212
 20
321.5462270794
  0
VERTEX
  8
0
 62
7
  6
CONTINUOUS
 10
403.3847441407
 20
321.7349649392
  0
VERTEX
  8
0
 62
7
  6
CONTINUOUS
 10
403.3737866134
 20
321.9335064165
  0
VERTEX
  8
0
 62
7
  6
CONTINUOUS
 10
403.3627159766
 20
322.1415632952
  0
VERTEX
  8
0
 62
7
  6
CONTINUOUS
 10
403.3515503186
 20
322.3588292342
  0
SEQEND
  0
POLYLINE
  8
0
 62
7
  6
CONTINUOUS
 66
1
 70
0
  0
VERTEX
  8
0
 62
7
  6
CONTINUOUS
 10
403.2399744079
 20
347.5775763517
  0
VERTEX
  8
0
 62
7
  6
CONTINUOUS
 10
403.2397418918
 20
347.581050808
  0
VERTEX
  8
0
 62
7
  6
CONTINUOUS
 10
403.2394843578
 20
347.5845713341
  0
VERTEX
  8
0
 62
7
  6
CONTINUOUS
 10
403.239183938
 20
347.5883059756
  0
VERTEX
  8
0
 62
7
  6
CONTINUOUS
 10
403.2388005825
 20
347.5926027035
  0
VERTEX
  8
0
 62
7
  6
CONTINUOUS
 10
403.2382958227
 20
347.5976483206
  0
VERTEX
  8
0
 62
7
  6
CONTINUOUS
 10
403.2376618067
 20
347.6032652934
  0
VERTEX
  8
0
 62
7
  6
CONTINUOUS
 10
403.2368966739
 20
347.6092785105
  0
VERTEX
  8
0
 62
7
  6
CONTINUOUS
 10
403.2360059162
 20
347.6155225316
  0
VERTEX
  8
0
 62
7
  6
CONTINUOUS
 10
403.2349947885
 20
347.6218921132
  0
VERTEX
  8
0
 62
7
  6
CONTINUOUS
 10
403.2338570958
 20
347.6283806771
  0
VERTEX
  8
0
 62
7
  6
CONTINUOUS
 10
403.2325817732
 20
347.6350071682
  0
VERTEX
  8
0
 62
7
  6
CONTINUOUS
 10
403.2311590215
 20
347.6417773907
  0
VERTEX
  8
0
 62
7
  6
CONTINUOUS
 10
403.2295851704
 20
347.6486679539
  0
VERTEX
  8
0
 62
7
  6
CONTINUOUS
 10
403.2278593028
 20
347.6556499229
  0
VERTEX
  8
0
 62
7
  6
CONTINUOUS
 10
403.2259765356
 20
347.6627153741
  0
VERTEX
  8
0
 62
7
  6
CONTINUOUS
 10
403.2239308058
 20
347.669861234
  0
VERTEX
  8
0
 62
7
  6
CONTINUOUS
 10
403.221715403
 20
347.6770860171
  0
VERTEX
  8
0
 62
7
  6
CONTINUOUS
 10
403.2193232802
 20
347.6843883264
  0
VERTEX
  8
0
 62
7
  6
CONTINUOUS
 10
403.2167472272
 20
347.6917662314
  0
VERTEX
  8
0
 62
7
  6
CONTINUOUS
 10
403.2139799597
 20
347.6992170734
  0
VERTEX
  8
0
 62
7
  6
CONTINUOUS
 10
403.2110141795
 20
347.706737408
  0
VERTEX
  8
0
 62
7
  6
CONTINUOUS
 10
403.2078427857
 20
347.7143226214
  0
VERTEX
  8
0
 62
7
  6
CONTINUOUS
 10
403.2044584305
 20
347.7219681212
  0
VERTEX
  8
0
 62
7
  6
CONTINUOUS
 10
403.2008533548
 20
347.7296695754
  0
VERTEX
  8
0
 62
7
  6
CONTINUOUS
 10
403.1970196243
 20
347.737422277
  0
VERTEX
  8
0
 62
7
  6
CONTINUOUS
 10
403.1929491602
 20
347.7452210631
  0
VERTEX
  8
0
 62
7
  6
CONTINUOUS
 10
403.1886337676
 20
347.7530602578
  0
VERTEX
  8
0
 62
7
  6
CONTINUOUS
 10
403.1840651629
 20
347.7609336283
  0
VERTEX
  8
0
 62
7
  6
CONTINUOUS
 10
403.1792349728
 20
347.7688343919
  0
VERTEX
  8
0
 62
7
  6
CONTINUOUS
 10
403.1741312037
 20
347.7767605618
  0
VERTEX
  8
0
 62
7
  6
CONTINUOUS
 10
403.1687340327
 20
347.7847196446
  0
VERTEX
  8
0
 62
7
  6
CONTINUOUS
 10
403.163021217
 20
347.7927185727
  0
VERTEX
  8
0
 62
7
  6
CONTINUOUS
 10
403.1569688774
 20
347.8007622274
  0
VERTEX
  8
0
 62
7
  6
CONTINUOUS
 10
403.1505515274
 20
347.8088532242
  0
VERTEX
  8
0
 62
7
  6
CONTINUOUS
 10
403.1437421129
 20
347.8169916806
  0
VERTEX
  8
0
 62
7
  6
CONTINUOUS
 10
403.1365122529
 20
347.825174757
  0
VERTEX
  8
0
 62
7
  6
CONTINUOUS
 10
403.1288361953
 20
347.833392399
  0
VERTEX
  8
0
 62
7
  6
CONTINUOUS
 10
403.1206912827
 20
347.8416278698
  0
VERTEX
  8
0
 62
7
  6
CONTINUOUS
 10
403.112054737
 20
347.8498617262
  0
VERTEX
  8
0
 62
7
  6
CONTINUOUS
 10
403.1029054064
 20
347.8580702937
  0
VERTEX
  8
0
 62
7
  6
CONTINUOUS
 10
403.0932324507
 20
347.8662190168
  0
VERTEX
  8
0
 62
7
  6
CONTINUOUS
 10
403.0830301062
 20
347.8742691134
  0
VERTEX
  8
0
 62
7
  6
CONTINUOUS
 10
403.0722946094
 20
347.8821808565
  0
VERTEX
  8
0
 62
7
  6
CONTINUOUS
 10
403.0610243458
 20
347.8899136939
  0
VERTEX
  8
0
 62
7
  6
CONTINUOUS
 10
403.0492199923
 20
347.8974263806
  0
VERTEX
  8
0
 62
7
  6
CONTINUOUS
 10
403.0368834608
 20
347.9046777961
  0
VERTEX
  8
0
 62
7
  6
CONTINUOUS
 10
403.0239982
 20
347.9116370644
  0
VERTEX
  8
0
 62
7
  6
CONTINUOUS
 10
403.0105307121
 20
347.9182781869
  0
VERTEX
  8
0
 62
7
  6
CONTINUOUS
 10
402.9964470252
 20
347.9245689019
  0
VERTEX
  8
0
 62
7
  6
CONTINUOUS
 10
402.9817137943
 20
347.9304699044
  0
VERTEX
  8
0
 62
7
  6
CONTINUOUS
 10
402.966299218
 20
347.9359342989
  0
VERTEX
  8
0
 62
7
  6
CONTINUOUS
 10
402.9501787349
 20
347.9409057945
  0
VERTEX
  8
0
 62
7
  6
CONTINUOUS
 10
402.9333357574
 20
347.9453195076
  0
VERTEX
  8
0
 62
7
  6
CONTINUOUS
 10
402.9157581391
 20
347.9491036456
  0
VERTEX
  8
0
 62
7
  6
CONTINUOUS
 10
402.8974389416
 20
347.9521794204
  0
VERTEX
  8
0
 62
7
  6
CONTINUOUS
 10
402.8783774778
 20
347.9544609718
  0
VERTEX
  8
0
 62
7
  6
CONTINUOUS
 10
402.8585804643
 20
347.9558553859
  0
VERTEX
  8
0
 62
7
  6
CONTINUOUS
 10
402.8403824145
 20
347.9562695528
  0
SEQEND
  0
POLYLINE
  8
0
 62
7
  6
CONTINUOUS
 66
1
 70
0
  0
VERTEX
  8
0
 62
7
  6
CONTINUOUS
 10
403.2396297097
 20
351.2387266461
  0
VERTEX
  8
0
 62
7
  6
CONTINUOUS
 10
403.2394452499
 20
351.2415635396
  0
VERTEX
  8
0
 62
7
  6
CONTINUOUS
 10
403.2392018585
 20
351.2449443558
  0
VERTEX
  8
0
 62
7
  6
CONTINUOUS
 10
403.2388863611
 20
351.2488580949
  0
VERTEX
  8
0
 62
7
  6
CONTINUOUS
 10
403.2384899075
 20
351.2532285851
  0
VERTEX
  8
0
 62
7
  6
CONTINUOUS
 10
403.2380081432
 20
351.2579516542
  0
VERTEX
  8
0
 62
7
  6
CONTINUOUS
 10
403.2374344773
 20
351.2629729589
  0
VERTEX
  8
0
 62
7
  6
CONTINUOUS
 10
403.2367640106
 20
351.2682401996
  0
VERTEX
  8
0
 62
7
  6
CONTINUOUS
 10
403.2359878724
 20
351.2737427926
  0
VERTEX
  8
0
 62
7
  6
CONTINUOUS
 10
403.2350978714
 20
351.2794662816
  0
VERTEX
  8
0
 62
7
  6
CONTINUOUS
 10
403.2340866314
 20
351.2853933709
  0
VERTEX
  8
0
 62
7
  6
CONTINUOUS
 10
403.2329445774
 20
351.2915208597
  0
VERTEX
  8
0
 62
7
  6
CONTINUOUS
 10
403.2316611441
 20
351.2978486448
  0
VERTEX
  8
0
 62
7
  6
CONTINUOUS
 10
403.2302264869
 20
351.3043709394
  0
VERTEX
  8
0
 62
7
  6
CONTINUOUS
 10
403.2286325733
 20
351.311073731
  0
VERTEX
  8
0
 62
7
  6
CONTINUOUS
 10
403.2268714464
 20
351.317944176
  0
VERTEX
  8
0
 62
7
  6
CONTINUOUS
 10
403.2249353814
 20
351.3249697813
  0
VERTEX
  8
0
 62
7
  6
CONTINUOUS
 10
403.2228171473
 20
351.3321375217
  0
VERTEX
  8
0
 62
7
  6
CONTINUOUS
 10
403.2205104612
 20
351.3394326871
  0
VERTEX
  8
0
 62
7
  6
CONTINUOUS
 10
403.2180097143
 20
351.3468402666
  0
VERTEX
  8
0
 62
7
  6
CONTINUOUS
 10
403.2153099145
 20
351.3543452865
  0
VERTEX
  8
0
 62
7
  6
CONTINUOUS
 10
403.2124067553
 20
351.3619327211
  0
VERTEX
  8
0
 62
7
  6
CONTINUOUS
 10
403.2092966708
 20
351.3695874634
  0
VERTEX
  8
0
 62
7
  6
CONTINUOUS
 10
403.2059768809
 20
351.3772943334
  0
VERTEX
  8
0
 62
7
  6
CONTINUOUS
 10
403.2024454281
 20
351.3850381075
  0
VERTEX
  8
0
 62
7
  6
CONTINUOUS
 10
403.1987003151
 20
351.3928053594
  0
VERTEX
  8
0
 62
7
  6
CONTINUOUS
 10
403.1947350786
 20
351.4005925434
  0
VERTEX
  8
0
 62
7
  6
CONTINUOUS
 10
403.190541237
 20
351.4083990701
  0
VERTEX
  8
0
 62
7
  6
CONTINUOUS
 10
403.1861098632
 20
351.4162237338
  0
VERTEX
  8
0
 62
7
  6
CONTINUOUS
 10
403.1814316022
 20
351.4240646554
  0
VERTEX
  8
0
 62
7
  6
CONTINUOUS
 10
403.1764966892
 20
351.4319192294
  0
VERTEX
  8
0
 62
7
  6
CONTINUOUS
 10
403.1712949698
 20
351.4397840699
  0
VERTEX
  8
0
 62
7
  6
CONTINUOUS
 10
403.1658159235
 20
351.447654956
  0
VERTEX
  8
0
 62
7
  6
CONTINUOUS
 10
403.1600486898
 20
351.4555267753
  0
VERTEX
  8
0
 62
7
  6
CONTINUOUS
 10
403.1539820995
 20
351.4633934657
  0
VERTEX
  8
0
 62
7
  6
CONTINUOUS
 10
403.1476047905
 20
351.471247859
  0
VERTEX
  8
0
 62
7
  6
CONTINUOUS
 10
403.1409054907
 20
351.4790813661
  0
VERTEX
  8
0
 62
7
  6
CONTINUOUS
 10
403.1338728607
 20
351.4868842281
  0
VERTEX
  8
0
 62
7
  6
CONTINUOUS
 10
403.1264954757
 20
351.4946455466
  0
VERTEX
  8
0
 62
7
  6
CONTINUOUS
 10
403.1187618824
 20
351.5023532258
  0
VERTEX
  8
0
 62
7
  6
CONTINUOUS
 10
403.1106606618
 20
351.5099939116
  0
VERTEX
  8
0
 62
7
  6
CONTINUOUS
 10
403.1021812993
 20
351.5175522402
  0
VERTEX
  8
0
 62
7
  6
CONTINUOUS
 10
403.0933180891
 20
351.5250078505
  0
VERTEX
  8
0
 62
7
  6
CONTINUOUS
 10
403.0840677043
 20
351.5323383615
  0
VERTEX
  8
0
 62
7
  6
CONTINUOUS
 10
403.0744278089
 20
351.5395208132
  0
VERTEX
  8
0
 62
7
  6
CONTINUOUS
 10
403.0643971183
 20
351.5465317056
  0
VERTEX
  8
0
 62
7
  6
CONTINUOUS
 10
403.0539754613
 20
351.5533470406
  0
VERTEX
  8
0
 62
7
  6
CONTINUOUS
 10
403.0431638405
 20
351.5599423694
  0
VERTEX
  8
0
 62
7
  6
CONTINUOUS
 10
403.0319644908
 20
351.5662928448
  0
VERTEX
  8
0
 62
7
  6
CONTINUOUS
 10
403.0203809118
 20
351.5723732904
  0
VERTEX
  8
0
 62
7
  6
CONTINUOUS
 10
403.0084140211
 20
351.5781600651
  0
VERTEX
  8
0
 62
7
  6
CONTINUOUS
 10
402.9960575878
 20
351.5836322904
  0
VERTEX
  8
0
 62
7
  6
CONTINUOUS
 10
402.9833051081
 20
351.5887676252
  0
VERTEX
  8
0
 62
7
  6
CONTINUOUS
 10
402.9701509752
 20
351.5935416644
  0
VERTEX
  8
0
 62
7
  6
CONTINUOUS
 10
402.9565906748
 20
351.5979278867
  0
VERTEX
  8
0
 62
7
  6
CONTINUOUS
 10
402.9426209961
 20
351.6018976096
  0
VERTEX
  8
0
 62
7
  6
CONTINUOUS
 10
402.9282402604
 20
351.6054199568
  0
VERTEX
  8
0
 62
7
  6
CONTINUOUS
 10
402.9134485662
 20
351.6084618372
  0
VERTEX
  8
0
 62
7
  6
CONTINUOUS
 10
402.8982480535
 20
351.6109879403
  0
VERTEX
  8
0
 62
7
  6
CONTINUOUS
 10
402.8826431861
 20
351.6129607493
  0
VERTEX
  8
0
 62
7
  6
CONTINUOUS
 10
402.8666410531
 20
351.6143405754
  0
VERTEX
  8
0
 62
7
  6
CONTINUOUS
 10
402.8502516889
 20
351.6150856164
  0
VERTEX
  8
0
 62
7
  6
CONTINUOUS
 10
402.8402853367
 20
351.6152097953
  0
SEQEND
  0
POLYLINE
  8
0
 62
7
  6
CONTINUOUS
 66
1
 70
0
  0
VERTEX
  8
0
 62
7
  6
CONTINUOUS
 10
403.2422344929
 20
324.5862604532
  0
VERTEX
  8
0
 62
7
  6
CONTINUOUS
 10
403.2418577265
 20
324.5927429235
  0
VERTEX
  8
0
 62
7
  6
CONTINUOUS
 10
403.2414688563
 20
324.5988540969
  0
VERTEX
  8
0
 62
7
  6
CONTINUOUS
 10
403.24105843
 20
324.6047020995
  0
VERTEX
  8
0
 62
7
  6
CONTINUOUS
 10
403.2406148105
 20
324.6103932854
  0
VERTEX
  8
0
 62
7
  6
CONTINUOUS
 10
403.2401236168
 20
324.6160363175
  0
VERTEX
  8
0
 62
7
  6
CONTINUOUS
 10
403.239572433
 20
324.6216916587
  0
VERTEX
  8
0
 62
7
  6
CONTINUOUS
 10
403.2389308747
 20
324.6275640871
  0
VERTEX
  8
0
 62
7
  6
CONTINUOUS
 10
403.2381603097
 20
324.6338473628
  0
VERTEX
  8
0
 62
7
  6
CONTINUOUS
 10
403.2372237008
 20
324.6406426408
  0
VERTEX
  8
0
 62
7
  6
CONTINUOUS
 10
403.2360811629
 20
324.6480162319
  0
VERTEX
  8
0
 62
7
  6
CONTINUOUS
 10
403.2347104379
 20
324.6558969306
  0
VERTEX
  8
0
 62
7
  6
CONTINUOUS
 10
403.2330924495
 20
324.6642120499
  0
VERTEX
  8
0
 62
7
  6
CONTINUOUS
 10
403.2312065998
 20
324.6729127568
  0
VERTEX
  8
0
 62
7
  6
CONTINUOUS
 10
403.229037275
 20
324.6819398776
  0
VERTEX
  8
0
 62
7
  6
CONTINUOUS
 10
403.2265652169
 20
324.6912609728
  0
VERTEX
  8
0
 62
7
  6
CONTINUOUS
 10
403.2237685887
 20
324.7008565665
  0
VERTEX
  8
0
 62
7
  6
CONTINUOUS
 10
403.2206334595
 20
324.7106834834
  0
VERTEX
  8
0
 62
7
  6
CONTINUOUS
 10
403.2171481226
 20
324.7206999662
  0
VERTEX
  8
0
 62
7
  6
CONTINUOUS
 10
403.213300383
 20
324.7308726155
  0
VERTEX
  8
0
 62
7
  6
CONTINUOUS
 10
403.2090791391
 20
324.7411700357
  0
VERTEX
  8
0
 62
7
  6
CONTINUOUS
 10
403.2044754663
 20
324.7515599973
  0
VERTEX
  8
0
 62
7
  6
CONTINUOUS
 10
403.1994825611
 20
324.7620100407
  0
VERTEX
  8
0
 62
7
  6
CONTINUOUS
 10
403.194085879
 20
324.772506287
  0
VERTEX
  8
0
 62
7
  6
CONTINUOUS
 10
403.1882629182
 20
324.783047707
  0
VERTEX
  8
0
 62
7
  6
CONTINUOUS
 10
403.1819890699
 20
324.7936318882
  0
VERTEX
  8
0
 62
7
  6
CONTINUOUS
 10
403.1752379537
 20
324.8042540836
  0
VERTEX
  8
0
 62
7
  6
CONTINUOUS
 10
403.1679816035
 20
324.8149067157
  0
VERTEX
  8
0
 62
7
  6
CONTINUOUS
 10
403.1601906455
 20
324.8255789778
  0
VERTEX
  8
0
 62
7
  6
CONTINUOUS
 10
403.151835512
 20
324.8362552176
  0
VERTEX
  8
0
 62
7
  6
CONTINUOUS
 10
403.1428907122
 20
324.8469103661
  0
VERTEX
  8
0
 62
7
  6
CONTINUOUS
 10
403.1333322747
 20
324.8575145893
  0
VERTEX
  8
0
 62
7
  6
CONTINUOUS
 10
403.1231367017
 20
324.8680349141
  0
VERTEX
  8
0
 62
7
  6
CONTINUOUS
 10
403.1122812525
 20
324.8784350324
  0
VERTEX
  8
0
 62
7
  6
CONTINUOUS
 10
403.1007470197
 20
324.8886727693
  0
VERTEX
  8
0
 62
7
  6
CONTINUOUS
 10
403.0885229314
 20
324.8986979684
  0
VERTEX
  8
0
 62
7
  6
CONTINUOUS
 10
403.0756014852
 20
324.9084577069
  0
VERTEX
  8
0
 62
7
  6
CONTINUOUS
 10
403.0619783196
 20
324.9178971125
  0
VERTEX
  8
0
 62
7
  6
CONTINUOUS
 10
403.0476524933
 20
324.9269595047
  0
VERTEX
  8
0
 62
7
  6
CONTINUOUS
 10
403.032626761
 20
324.9355865683
  0
VERTEX
  8
0
 62
7
  6
CONTINUOUS
 10
403.0169062062
 20
324.9437193586
  0
VERTEX
  8
0
 62
7
  6
CONTINUOUS
 10
403.0004827645
 20
324.9513049299
  0
VERTEX
  8
0
 62
7
  6
CONTINUOUS
 10
402.9833410696
 20
324.9582898075
  0
VERTEX
  8
0
 62
7
  6
CONTINUOUS
 10
402.9654685485
 20
324.9646140626
  0
VERTEX
  8
0
 62
7
  6
CONTINUOUS
 10
402.9468563887
 20
324.9702110303
  0
VERTEX
  8
0
 62
7
  6
CONTINUOUS
 10
402.9275004719
 20
324.9750071538
  0
VERTEX
  8
0
 62
7
  6
CONTINUOUS
 10
402.9074024006
 20
324.978921899
  0
VERTEX
  8
0
 62
7
  6
CONTINUOUS
 10
402.8865706246
 20
324.9818677578
  0
VERTEX
  8
0
 62
7
  6
CONTINUOUS
 10
402.8650216821
 20
324.9837503595
  0
VERTEX
  8
0
 62
7
  6
CONTINUOUS
 10
402.8409918633
 20
324.9844727192
  0
SEQEND
  0
LINE
  8
0
 62
7
  6
CONTINUOUS
 10
403.240391527
 20
347.5705663684
 11
403.2399744079
 21
347.5775763517
  0
LINE
  8
0
 62
7
  6
CONTINUOUS
 10
403.2398945489
 20
351.234131442
 11
403.2396297097
 21
351.2387266461
  0
POLYLINE
  8
0
 62
7
  6
CONTINUOUS
 66
1
 70
0
  0
VERTEX
  8
0
 62
7
  6
CONTINUOUS
 10
403.4374929321
 20
284.0572724792
  0
VERTEX
  8
0
 62
7
  6
CONTINUOUS
 10
403.4360555745
 20
284.0854447267
  0
VERTEX
  8
0
 62
7
  6
CONTINUOUS
 10
403.4326270711
 20
284.1134429547
  0
VERTEX
  8
0
 62
7
  6
CONTINUOUS
 10
403.4272245946
 20
284.1411272882
  0
VERTEX
  8
0
 62
7
  6
CONTINUOUS
 10
403.4198751782
 20
284.1683594204
  0
VERTEX
  8
0
 62
7
  6
CONTINUOUS
 10
403.4106155816
 20
284.1950033047
  0
SEQEND
  0
LINE
  8
0
 62
7
  6
CONTINUOUS
 10
403.2428343935
 20
324.574755432
 11
403.2422344929
 21
324.5862604532
  0
LINE
  8
0
 62
7
  6
CONTINUOUS
 10
403.3515503186
 20
322.3588292342
 11
403.2428342615
 21
324.5747581374
  0
POLYLINE
  8
0
 62
7
  6
CONTINUOUS
 66
1
 70
0
  0
VERTEX
  8
0
 62
7
  6
CONTINUOUS
 10
403.2410025686
 20
347.558593348
  0
VERTEX
  8
0
 62
7
  6
CONTINUOUS
 10
403.2407929431
 20
347.5629048667
  0
VERTEX
  8
0
 62
7
  6
CONTINUOUS
 10
403.240391527
 20
347.5705663684
  0
SEQEND
  0
LINE
  8
0
 62
7
  6
CONTINUOUS
 10
403.2401497899
 20
351.2290634509
 11
403.2398945489
 21
351.234131442
  0
LINE
  8
0
 62
7
  6
CONTINUOUS
 10
403.4374929321
 20
320.8838005114
 11
403.4367453088
 21
320.9008332937
  0
POLYLINE
  8
0
 62
7
  6
CONTINUOUS
 66
1
 70
0
  0
VERTEX
  8
0
 62
7
  6
CONTINUOUS
 10
403.3358956242
 20
349.093177601
  0
VERTEX
  8
0
 62
7
  6
CONTINUOUS
 10
403.2881542579
 20
350.1898526755
  0
VERTEX
  8
0
 62
7
  6
CONTINUOUS
 10
403.2401497235
 20
351.2290648515
  0
SEQEND
  0
LINE
  8
0
 62
7
  6
CONTINUOUS
 10
403.4373917974
 20
342.4459952586
 11
403.4171396383
 21
342.9396440701
  0
LINE
  8
0
 62
7
  6
CONTINUOUS
 10
403.4171396383
 20
342.9396440701
 11
403.3958225126
 21
343.4720675143
  0
LINE
  8
0
 62
7
  6
CONTINUOUS
 10
403.2425336956
 20
347.5225619407
 11
403.2410025686
 21
347.558593348
  0
LINE
  8
0
 62
7
  6
CONTINUOUS
 10
403.3958225126
 20
343.4720675143
 11
403.3739798576
 21
344.030391035
  0
LINE
  8
0
 62
7
  6
CONTINUOUS
 10
403.3739798576
 20
344.030391035
 11
403.3517369363
 21
344.6115903055
  0
LINE
  8
0
 62
7
  6
CONTINUOUS
 10
403.2430896778
 20
347.5080040445
 11
403.2425336956
 21
347.5225619407
  0
LINE
  8
0
 62
7
  6
CONTINUOUS
 10
403.3517369363
 20
344.6115903055
 11
403.2430896778
 21
347.5080040445
  0
LINE
  8
0
 62
7
  6
CONTINUOUS
 10
403.4375208852
 20
346.4220372557
 11
403.3972711866
 21
347.5581129617
  0
LINE
  8
0
 62
7
  6
CONTINUOUS
 10
403.3972711873
 20
347.5581129388
 11
403.3358956242
 21
349.093177601
  0
LINE
  8
0
 62
7
  6
CONTINUOUS
 10
403.4374929321
 20
342.4428894921
 11
403.4373917974
 21
342.4459952662
  0
LINE
  8
0
 62
7
  6
CONTINUOUS
 10
403.4375278933
 20
346.4218183129
 11
403.4375410284
 21
346.4212704856
  0
LINE
  8
0
 62
7
  6
CONTINUOUS
 10
403.4374929296
 20
342.4428897524
 11
403.437535235
 21
342.4407195832
  0
LINE
  8
0
 62
7
  6
CONTINUOUS
 10
403.4375278933
 20
94.776349083
 11
403.4375410284
 21
94.7768969105
  0
LINE
  8
0
 62
7
  6
CONTINUOUS
 10
403.4375278933
 20
106.9135616375
 11
403.4373903028
 21
106.9086967515
  0
LINE
  8
0
 62
7
  6
CONTINUOUS
 10
403.4375278933
 20
94.776349083
 11
403.4375208852
 21
94.7761301414
  0
LINE
  8
0
 62
7
  6
CONTINUOUS
 10
403.3959748479
 20
93.6035439782
 11
403.4375208852
 21
94.7761301402
  0
LINE
  8
0
 62
7
  6
CONTINUOUS
 10
403.3829777577
 20
93.2503355769
 11
403.3959748479
 21
93.6035439782
  0
LINE
  8
0
 62
7
  6
CONTINUOUS
 10
403.4375278933
 20
136.3583643638
 11
403.4367634515
 21
136.3393166937
  0
POLYLINE
  8
0
 62
7
  6
CONTINUOUS
 66
1
 70
0
  0
VERTEX
  8
0
 62
7
  6
CONTINUOUS
 10
403.4375288005
 20
100.2694701708
  0
VERTEX
  8
0
 62
7
  6
CONTINUOUS
 10
403.4360988362
 20
100.2345851447
  0
VERTEX
  8
0
 62
7
  6
CONTINUOUS
 10
403.4317777759
 20
100.1998786153
  0
VERTEX
  8
0
 62
7
  6
CONTINUOUS
 10
403.4246081865
 20
100.1656267348
  0
VERTEX
  8
0
 62
7
  6
CONTINUOUS
 10
403.4146504138
 20
100.132104977
  0
VERTEX
  8
0
 62
7
  6
CONTINUOUS
 10
403.4019947384
 20
100.0995832175
  0
VERTEX
  8
0
 62
7
  6
CONTINUOUS
 10
403.386760304
 20
100.0683208829
  0
VERTEX
  8
0
 62
7
  6
CONTINUOUS
 10
403.3690928319
 20
100.0385619291
  0
VERTEX
  8
0
 62
7
  6
CONTINUOUS
 10
403.3491611294
 20
100.01053019
  0
VERTEX
  8
0
 62
7
  6
CONTINUOUS
 10
403.3271525847
 20
99.9844255635
  0
VERTEX
  8
0
 62
7
  6
CONTINUOUS
 10
403.3032680711
 20
99.9604214749
  0
VERTEX
  8
0
 62
7
  6
CONTINUOUS
 10
403.2777164606
 20
99.9386635627
  0
VERTEX
  8
0
 62
7
  6
CONTINUOUS
 10
403.2507092247
 20
99.9192698032
  0
VERTEX
  8
0
 62
7
  6
CONTINUOUS
 10
403.2224556036
 20
99.9023320499
  0
VERTEX
  8
0
 62
7
  6
CONTINUOUS
 10
403.1931590469
 20
99.8879189038
  0
VERTEX
  8
0
 62
7
  6
CONTINUOUS
 10
403.1630144634
 20
99.8760791
  0
VERTEX
  8
0
 62
7
  6
CONTINUOUS
 10
403.1322081312
 20
99.8668457322
  0
VERTEX
  8
0
 62
7
  6
CONTINUOUS
 10
403.1009175944
 20
99.8602396186
  0
VERTEX
  8
0
 62
7
  6
CONTINUOUS
 10
403.069307877
 20
99.8562719755
  0
VERTEX
  8
0
 62
7
  6
CONTINUOUS
 10
403.0375410284
 20
99.854948866
  0
SEQEND
  0
POLYLINE
  8
0
 62
7
  6
CONTINUOUS
 66
1
 70
0
  0
VERTEX
  8
0
 62
7
  6
CONTINUOUS
 10
403.2881542579
 20
91.0083147211
  0
VERTEX
  8
0
 62
7
  6
CONTINUOUS
 10
403.3358956242
 20
92.1049897956
  0
VERTEX
  8
0
 62
7
  6
CONTINUOUS
 10
403.3829777578
 20
93.2503355769
  0
SEQEND
  0
LINE
  8
0
 62
7
  6
CONTINUOUS
 10
403.3973539124
 20
105.9925135243
 11
403.4373903028
 21
106.9086967443
  0
POLYLINE
  8
0
 62
7
  6
CONTINUOUS
 66
1
 70
0
  0
VERTEX
  8
0
 62
7
  6
CONTINUOUS
 10
403.4375278933
 20
178.6280529648
  0
VERTEX
  8
0
 62
7
  6
CONTINUOUS
 10
403.4362889824
 20
178.5998299392
  0
VERTEX
  8
0
 62
7
  6
CONTINUOUS
 10
403.4330387051
 20
178.5717693941
  0
VERTEX
  8
0
 62
7
  6
CONTINUOUS
 10
403.4277935095
 20
178.5440128573
  0
VERTEX
  8
0
 62
7
  6
CONTINUOUS
 10
403.4205799037
 20
178.5167003215
  0
VERTEX
  8
0
 62
7
  6
CONTINUOUS
 10
403.4183598101
 20
178.5096071617
  0
SEQEND
  0
LINE
  8
0
 62
7
  6
CONTINUOUS
 10
403.3943271706
 20
105.9258461975
 11
403.3973539124
 21
105.9925135243
  0
POLYLINE
  8
0
 62
7
  6
CONTINUOUS
 66
1
 70
0
  0
VERTEX
  8
0
 62
7
  6
CONTINUOUS
 10
403.4375288005
 20
117.255872776
  0
VERTEX
  8
0
 62
7
  6
CONTINUOUS
 10
403.4360988362
 20
117.2259123157
  0
VERTEX
  8
0
 62
7
  6
CONTINUOUS
 10
403.4317777759
 20
117.1961051546
  0
VERTEX
  8
0
 62
7
  6
CONTINUOUS
 10
403.4246081865
 20
117.1666884615
  0
VERTEX
  8
0
 62
7
  6
CONTINUOUS
 10
403.4146504138
 20
117.137898823
  0
VERTEX
  8
0
 62
7
  6
CONTINUOUS
 10
403.4019947384
 20
117.1099680173
  0
VERTEX
  8
0
 62
7
  6
CONTINUOUS
 10
403.386760304
 20
117.0831188491
  0
VERTEX
  8
0
 62
7
  6
CONTINUOUS
 10
403.3690928319
 20
117.057560836
  0
VERTEX
  8
0
 62
7
  6
CONTINUOUS
 10
403.3491611294
 20
117.0334862143
  0
VERTEX
  8
0
 62
7
  6
CONTINUOUS
 10
403.3271525847
 20
117.0110666633
  0
VERTEX
  8
0
 62
7
  6
CONTINUOUS
 10
403.3032680711
 20
116.9904511264
  0
VERTEX
  8
0
 62
7
  6
CONTINUOUS
 10
403.2777164606
 20
116.971764683
  0
VERTEX
  8
0
 62
7
  6
CONTINUOUS
 10
403.2507092247
 20
116.9551086553
  0
VERTEX
  8
0
 62
7
  6
CONTINUOUS
 10
403.2224556036
 20
116.9405619302
  0
VERTEX
  8
0
 62
7
  6
CONTINUOUS
 10
403.1931590469
 20
116.9281834246
  0
VERTEX
  8
0
 62
7
  6
CONTINUOUS
 10
403.1630144634
 20
116.9180149939
  0
VERTEX
  8
0
 62
7
  6
CONTINUOUS
 10
403.1322081312
 20
116.91008506
  0
VERTEX
  8
0
 62
7
  6
CONTINUOUS
 10
403.1009175944
 20
116.9044115025
  0
VERTEX
  8
0
 62
7
  6
CONTINUOUS
 10
403.069307877
 20
116.9010039541
  0
VERTEX
  8
0
 62
7
  6
CONTINUOUS
 10
403.0375410284
 20
116.8998676222
  0
SEQEND
  0
LINE
  8
0
 62
7
  6
CONTINUOUS
 10
403.2399981276
 20
89.9660189265
 11
403.2881542579
 21
91.0083147211
  0
LINE
  8
0
 62
7
  6
CONTINUOUS
 10
403.3917134849
 20
105.8734864266
 11
403.3943271706
 21
105.9258461975
  0
POLYLINE
  8
0
 62
7
  6
CONTINUOUS
 66
1
 70
0
  0
VERTEX
  8
0
 62
7
  6
CONTINUOUS
 10
403.4375288005
 20
100.2694701708
  0
VERTEX
  8
0
 62
7
  6
CONTINUOUS
 10
403.4357664341
 20
100.2358846959
  0
VERTEX
  8
0
 62
7
  6
CONTINUOUS
 10
403.4312497374
 20
100.202487211
  0
VERTEX
  8
0
 62
7
  6
CONTINUOUS
 10
403.4240180705
 20
100.1696594567
  0
VERTEX
  8
0
 62
7
  6
CONTINUOUS
 10
403.4141488866
 20
100.1376502475
  0
VERTEX
  8
0
 62
7
  6
CONTINUOUS
 10
403.4016731317
 20
100.106535836
  0
VERTEX
  8
0
 62
7
  6
CONTINUOUS
 10
403.3866911359
 20
100.0765797478
  0
VERTEX
  8
0
 62
7
  6
CONTINUOUS
 10
403.369378116
 20
100.0480940276
  0
VERTEX
  8
0
 62
7
  6
CONTINUOUS
 10
403.3499007182
 20
100.0212818562
  0
VERTEX
  8
0
 62
7
  6
CONTINUOUS
 10
403.3282814391
 20
99.9961482419
  0
VERTEX
  8
0
 62
7
  6
CONTINUOUS
 10
403.3047196632
 20
99.9729254172
  0
VERTEX
  8
0
 62
7
  6
CONTINUOUS
 10
403.2794734138
 20
99.9518339558
  0
VERTEX
  8
0
 62
7
  6
CONTINUOUS
 10
403.2527388389
 20
99.9329874446
  0
VERTEX
  8
0
 62
7
  6
CONTINUOUS
 10
403.2245305279
 20
99.9163800636
  0
VERTEX
  8
0
 62
7
  6
CONTINUOUS
 10
403.1951030261
 20
99.9021649438
  0
VERTEX
  8
0
 62
7
  6
CONTINUOUS
 10
403.1647610602
 20
99.8904662756
  0
VERTEX
  8
0
 62
7
  6
CONTINUOUS
 10
403.133687306
 20
99.8813215986
  0
VERTEX
  8
0
 62
7
  6
CONTINUOUS
 10
403.1019381638
 20
99.8747394316
  0
VERTEX
  8
0
 62
7
  6
CONTINUOUS
 10
403.0697770774
 20
99.8707788663
  0
VERTEX
  8
0
 62
7
  6
CONTINUOUS
 10
403.0375410284
 20
99.8694632256
  0
SEQEND
  0
LINE
  8
0
 62
7
  6
CONTINUOUS
 10
403.3894762283
 20
105.8331981119
 11
403.3917134849
 21
105.8734864266
  0
POLYLINE
  8
0
 62
7
  6
CONTINUOUS
 66
1
 70
0
  0
VERTEX
  8
0
 62
7
  6
CONTINUOUS
 10
403.4375288005
 20
117.255872776
  0
VERTEX
  8
0
 62
7
  6
CONTINUOUS
 10
403.4357664341
 20
117.227028415
  0
VERTEX
  8
0
 62
7
  6
CONTINUOUS
 10
403.4312497374
 20
117.1983455063
  0
VERTEX
  8
0
 62
7
  6
CONTINUOUS
 10
403.4240180705
 20
117.1701519018
  0
VERTEX
  8
0
 62
7
  6
CONTINUOUS
 10
403.4141488866
 20
117.142661292
  0
VERTEX
  8
0
 62
7
  6
CONTINUOUS
 10
403.4016731317
 20
117.1159391652
  0
VERTEX
  8
0
 62
7
  6
CONTINUOUS
 10
403.3866911359
 20
117.0902118463
  0
VERTEX
  8
0
 62
7
  6
CONTINUOUS
 10
403.369378116
 20
117.0657473301
  0
VERTEX
  8
0
 62
7
  6
CONTINUOUS
 10
403.3499007182
 20
117.0427201151
  0
VERTEX
  8
0
 62
7
  6
CONTINUOUS
 10
403.3282814391
 20
117.0211345027
  0
VERTEX
  8
0
 62
7
  6
CONTINUOUS
 10
403.3047196632
 20
117.0011899421
  0
VERTEX
  8
0
 62
7
  6
CONTINUOUS
 10
403.2794734138
 20
116.9830758696
  0
VERTEX
  8
0
 62
7
  6
CONTINUOUS
 10
403.2527388389
 20
116.9668898376
  0
VERTEX
  8
0
 62
7
  6
CONTINUOUS
 10
403.2245305279
 20
116.9526268475
  0
VERTEX
  8
0
 62
7
  6
CONTINUOUS
 10
403.1951030261
 20
116.9404184137
  0
VERTEX
  8
0
 62
7
  6
CONTINUOUS
 10
403.1647610602
 20
116.9303711951
  0
VERTEX
  8
0
 62
7
  6
CONTINUOUS
 10
403.133687306
 20
116.922517432
  0
VERTEX
  8
0
 62
7
  6
CONTINUOUS
 10
403.1019381638
 20
116.9168644406
  0
VERTEX
  8
0
 62
7
  6
CONTINUOUS
 10
403.0697770774
 20
116.9134629709
  0
VERTEX
  8
0
 62
7
  6
CONTINUOUS
 10
403.0375410284
 20
116.9123330534
  0
SEQEND
  0
LINE
  8
0
 62
7
  6
CONTINUOUS
 10
403.388151063
 20
105.8116601951
 11
403.3894762283
 21
105.8331981119
  0
LINE
  8
0
 62
7
  6
CONTINUOUS
 10
403.4374929308
 20
95.7458037551
 11
403.437535235
 21
95.7464762777
  0
LINE
  8
0
 62
7
  6
CONTINUOUS
 10
403.3869284531
 20
105.7935605705
 11
403.388151063
 21
105.8116601951
  0
POLYLINE
  8
0
 62
7
  6
CONTINUOUS
 66
1
 70
0
  0
VERTEX
  8
0
 62
7
  6
CONTINUOUS
 10
403.4375288005
 20
149.9753424356
  0
VERTEX
  8
0
 62
7
  6
CONTINUOUS
 10
403.4360988362
 20
149.9548677496
  0
VERTEX
  8
0
 62
7
  6
CONTINUOUS
 10
403.4317777759
 20
149.9344978268
  0
VERTEX
  8
0
 62
7
  6
CONTINUOUS
 10
403.4246081865
 20
149.914394746
  0
VERTEX
  8
0
 62
7
  6
CONTINUOUS
 10
403.4146504138
 20
149.8947201882
  0
VERTEX
  8
0
 62
7
  6
CONTINUOUS
 10
403.4019947384
 20
149.8756325483
  0
VERTEX
  8
0
 62
7
  6
CONTINUOUS
 10
403.386760304
 20
149.857284089
  0
VERTEX
  8
0
 62
7
  6
CONTINUOUS
 10
403.3690928319
 20
149.8398179925
  0
VERTEX
  8
0
 62
7
  6
CONTINUOUS
 10
403.3491611294
 20
149.8233656311
  0
VERTEX
  8
0
 62
7
  6
CONTINUOUS
 10
403.3271525847
 20
149.8080443289
  0
VERTEX
  8
0
 62
7
  6
CONTINUOUS
 10
403.3032680711
 20
149.7939558723
  0
VERTEX
  8
0
 62
7
  6
CONTINUOUS
 10
403.2777164606
 20
149.7811857394
  0
VERTEX
  8
0
 62
7
  6
CONTINUOUS
 10
403.2507092247
 20
149.7698031727
  0
VERTEX
  8
0
 62
7
  6
CONTINUOUS
 10
403.2224556036
 20
149.7598620828
  0
VERTEX
  8
0
 62
7
  6
CONTINUOUS
 10
403.1931590469
 20
149.751402733
  0
VERTEX
  8
0
 62
7
  6
CONTINUOUS
 10
403.1630144634
 20
149.7444537267
  0
VERTEX
  8
0
 62
7
  6
CONTINUOUS
 10
403.1322081312
 20
149.7390344874
  0
VERTEX
  8
0
 62
7
  6
CONTINUOUS
 10
403.1009175944
 20
149.7351572336
  0
VERTEX
  8
0
 62
7
  6
CONTINUOUS
 10
403.069307877
 20
149.7328285483
  0
VERTEX
  8
0
 62
7
  6
CONTINUOUS
 10
403.0375410284
 20
149.7320519901
  0
SEQEND
  0
LINE
  8
0
 62
7
  6
CONTINUOUS
 10
403.3978677957
 20
135.7925204402
 11
403.4367634515
 21
136.3393166905
  0
LINE
  8
0
 62
7
  6
CONTINUOUS
 10
403.3958650462
 20
135.7645720266
 11
403.3978677957
 21
135.7925204402
  0
POLYLINE
  8
0
 62
7
  6
CONTINUOUS
 66
1
 70
0
  0
VERTEX
  8
0
 62
7
  6
CONTINUOUS
 10
403.4375288005
 20
149.9753424356
  0
VERTEX
  8
0
 62
7
  6
CONTINUOUS
 10
403.4357664341
 20
149.9556304809
  0
VERTEX
  8
0
 62
7
  6
CONTINUOUS
 10
403.4312497374
 20
149.9360288613
  0
VERTEX
  8
0
 62
7
  6
CONTINUOUS
 10
403.4240180705
 20
149.9167616273
  0
VERTEX
  8
0
 62
7
  6
CONTINUOUS
 10
403.4141488866
 20
149.897974813
  0
VERTEX
  8
0
 62
7
  6
CONTINUOUS
 10
403.4016731317
 20
149.8797131725
  0
VERTEX
  8
0
 62
7
  6
CONTINUOUS
 10
403.3866911359
 20
149.8621313741
  0
VERTEX
  8
0
 62
7
  6
CONTINUOUS
 10
403.369378116
 20
149.8454125626
  0
VERTEX
  8
0
 62
7
  6
CONTINUOUS
 10
403.3499007182
 20
149.8296759887
  0
VERTEX
  8
0
 62
7
  6
CONTINUOUS
 10
403.3282814391
 20
149.814924592
  0
VERTEX
  8
0
 62
7
  6
CONTINUOUS
 10
403.3047196632
 20
149.801294674
  0
VERTEX
  8
0
 62
7
  6
CONTINUOUS
 10
403.2794734138
 20
149.7889156938
  0
VERTEX
  8
0
 62
7
  6
CONTINUOUS
 10
403.2527388389
 20
149.7778543176
  0
VERTEX
  8
0
 62
7
  6
CONTINUOUS
 10
403.2245305279
 20
149.7681071295
  0
VERTEX
  8
0
 62
7
  6
CONTINUOUS
 10
403.1951030261
 20
149.7597640051
  0
VERTEX
  8
0
 62
7
  6
CONTINUOUS
 10
403.1647610602
 20
149.752897834
  0
VERTEX
  8
0
 62
7
  6
CONTINUOUS
 10
403.133687306
 20
149.747530649
  0
VERTEX
  8
0
 62
7
  6
CONTINUOUS
 10
403.1019381638
 20
149.7436674498
  0
VERTEX
  8
0
 62
7
  6
CONTINUOUS
 10
403.0697770774
 20
149.7413429187
  0
VERTEX
  8
0
 62
7
  6
CONTINUOUS
 10
403.0375410284
 20
149.7405707441
  0
SEQEND
  0
LINE
  8
0
 62
7
  6
CONTINUOUS
 10
403.4375288005
 20
193.4466364965
 11
403.4360988362
 21
193.4387646702
  0
POLYLINE
  8
0
 62
7
  6
CONTINUOUS
 66
1
 70
0
  0
VERTEX
  8
0
 62
7
  6
CONTINUOUS
 10
403.4375288005
 20
193.4466364965
  0
VERTEX
  8
0
 62
7
  6
CONTINUOUS
 10
403.4357664341
 20
193.4390579147
  0
VERTEX
  8
0
 62
7
  6
CONTINUOUS
 10
403.4312497374
 20
193.4315217529
  0
VERTEX
  8
0
 62
7
  6
CONTINUOUS
 10
403.4240180705
 20
193.4241141512
  0
VERTEX
  8
0
 62
7
  6
CONTINUOUS
 10
403.4141488866
 20
193.4168912546
  0
VERTEX
  8
0
 62
7
  6
CONTINUOUS
 10
403.4016731317
 20
193.4098702697
  0
VERTEX
  8
0
 62
7
  6
CONTINUOUS
 10
403.3866911359
 20
193.403110661
  0
VERTEX
  8
0
 62
7
  6
CONTINUOUS
 10
403.369378116
 20
193.3966828418
  0
VERTEX
  8
0
 62
7
  6
CONTINUOUS
 10
403.3499007182
 20
193.3906326598
  0
VERTEX
  8
0
 62
7
  6
CONTINUOUS
 10
403.3282814391
 20
193.3849612452
  0
VERTEX
  8
0
 62
7
  6
CONTINUOUS
 10
403.3047196632
 20
193.3797210014
  0
VERTEX
  8
0
 62
7
  6
CONTINUOUS
 10
403.2794734138
 20
193.3749617009
  0
VERTEX
  8
0
 62
7
  6
CONTINUOUS
 10
403.2527388389
 20
193.3707089748
  0
VERTEX
  8
0
 62
7
  6
CONTINUOUS
 10
403.2245305279
 20
193.3669615096
  0
VERTEX
  8
0
 62
7
  6
CONTINUOUS
 10
403.1951030261
 20
193.3637538596
  0
VERTEX
  8
0
 62
7
  6
CONTINUOUS
 10
403.1647610602
 20
193.3611140484
  0
VERTEX
  8
0
 62
7
  6
CONTINUOUS
 10
403.133687306
 20
193.3590505468
  0
VERTEX
  8
0
 62
7
  6
CONTINUOUS
 10
403.1019381638
 20
193.357565277
  0
VERTEX
  8
0
 62
7
  6
CONTINUOUS
 10
403.0697770774
 20
193.3566715731
  0
VERTEX
  8
0
 62
7
  6
CONTINUOUS
 10
403.0375410284
 20
193.356374698
  0
SEQEND
  0
POLYLINE
  8
0
 62
7
  6
CONTINUOUS
 66
1
 70
0
  0
VERTEX
  8
0
 62
7
  6
CONTINUOUS
 10
385.6387930745
 20
126.9131596736
  0
VERTEX
  8
0
 62
7
  6
CONTINUOUS
 10
385.6420433518
 20
126.9266877525
  0
VERTEX
  8
0
 62
7
  6
CONTINUOUS
 10
385.6472885474
 20
126.9401012895
  0
VERTEX
  8
0
 62
7
  6
CONTINUOUS
 10
385.6545021532
 20
126.9533326313
  0
VERTEX
  8
0
 62
7
  6
CONTINUOUS
 10
385.6636477335
 20
126.9663150449
  0
VERTEX
  8
0
 62
7
  6
CONTINUOUS
 10
385.6746791089
 20
126.9789830543
  0
VERTEX
  8
0
 62
7
  6
CONTINUOUS
 10
385.687540589
 20
126.9912727715
  0
VERTEX
  8
0
 62
7
  6
CONTINUOUS
 10
385.7021672538
 20
127.0031222187
  0
VERTEX
  8
0
 62
7
  6
CONTINUOUS
 10
385.7184852817
 20
127.0144716416
  0
VERTEX
  8
0
 62
7
  6
CONTINUOUS
 10
385.7364123226
 20
127.0252638106
  0
VERTEX
  8
0
 62
7
  6
CONTINUOUS
 10
385.7558579146
 20
127.0354443101
  0
VERTEX
  8
0
 62
7
  6
CONTINUOUS
 10
385.7767239411
 20
127.0449618126
  0
VERTEX
  8
0
 62
7
  6
CONTINUOUS
 10
385.7989051272
 20
127.0537683374
  0
VERTEX
  8
0
 62
7
  6
CONTINUOUS
 10
385.8222895715
 20
127.0618194926
  0
VERTEX
  8
0
 62
7
  6
CONTINUOUS
 10
385.8467593121
 20
127.0690746983
  0
VERTEX
  8
0
 62
7
  6
CONTINUOUS
 10
385.8721909218
 20
127.0754973907
  0
VERTEX
  8
0
 62
7
  6
CONTINUOUS
 10
385.8984561317
 20
127.081055206
  0
VERTEX
  8
0
 62
7
  6
CONTINUOUS
 10
385.9254224783
 20
127.085720143
  0
VERTEX
  8
0
 62
7
  6
CONTINUOUS
 10
385.9529539716
 20
127.0894687031
  0
VERTEX
  8
0
 62
7
  6
CONTINUOUS
 10
385.980911781
 20
127.0922820086
  0
VERTEX
  8
0
 62
7
  6
CONTINUOUS
 10
386.0091549343
 20
127.0941458967
  0
VERTEX
  8
0
 62
7
  6
CONTINUOUS
 10
386.0375410284
 20
127.0950509904
  0
SEQEND
  0
LINE
  8
0
 62
7
  6
CONTINUOUS
 10
402.9412076486
 20
237.499083698
 11
393.9375410284
 21
237.499083698
  0
POLYLINE
  8
0
 62
7
  6
CONTINUOUS
 66
1
 70
0
  0
VERTEX
  8
0
 62
7
  6
CONTINUOUS
 10
403.4375288005
 20
241.0516445064
  0
VERTEX
  8
0
 62
7
  6
CONTINUOUS
 10
403.4360988362
 20
241.0575739539
  0
VERTEX
  8
0
 62
7
  6
CONTINUOUS
 10
403.4317777759
 20
241.0634730621
  0
VERTEX
  8
0
 62
7
  6
CONTINUOUS
 10
403.4246081865
 20
241.0692948932
  0
VERTEX
  8
0
 62
7
  6
CONTINUOUS
 10
403.4146504138
 20
241.0749926245
  0
VERTEX
  8
0
 62
7
  6
CONTINUOUS
 10
403.4019947384
 20
241.0805203849
  0
VERTEX
  8
0
 62
7
  6
CONTINUOUS
 10
403.386760304
 20
241.0858340794
  0
VERTEX
  8
0
 62
7
  6
CONTINUOUS
 10
403.3690928319
 20
241.0908922426
  0
VERTEX
  8
0
 62
7
  6
CONTINUOUS
 10
403.3491611294
 20
241.0956568292
  0
VERTEX
  8
0
 62
7
  6
CONTINUOUS
 10
403.3271525847
 20
241.1000938622
  0
VERTEX
  8
0
 62
7
  6
CONTINUOUS
 10
403.3032680711
 20
241.1041738644
  0
VERTEX
  8
0
 62
7
  6
CONTINUOUS
 10
403.2777164606
 20
241.1078720815
  0
VERTEX
  8
0
 62
7
  6
CONTINUOUS
 10
403.2507092247
 20
241.1111684608
  0
VERTEX
  8
0
 62
7
  6
CONTINUOUS
 10
403.2224556036
 20
241.11404739
  0
VERTEX
  8
0
 62
7
  6
CONTINUOUS
 10
403.1931590469
 20
241.1164972088
  0
VERTEX
  8
0
 62
7
  6
CONTINUOUS
 10
403.1630144634
 20
241.1185096337
  0
VERTEX
  8
0
 62
7
  6
CONTINUOUS
 10
403.1322081312
 20
241.1200790398
  0
VERTEX
  8
0
 62
7
  6
CONTINUOUS
 10
403.1009175944
 20
241.1212018884
  0
VERTEX
  8
0
 62
7
  6
CONTINUOUS
 10
403.069307877
 20
241.1218762732
  0
VERTEX
  8
0
 62
7
  6
CONTINUOUS
 10
403.0375410284
 20
241.1221011636
  0
SEQEND
  0
LINE
  8
0
 62
7
  6
CONTINUOUS
 10
419.5375410284
 20
275.2442957481
 11
419.5375410284
 21
165.8087157962
  0
POLYLINE
  8
0
 62
7
  6
CONTINUOUS
 66
1
 70
0
  0
VERTEX
  8
0
 62
7
  6
CONTINUOUS
 10
403.3840429119
 20
105.7585262453
  0
VERTEX
  8
0
 62
7
  6
CONTINUOUS
 10
403.3846384257
 20
105.7648398868
  0
VERTEX
  8
0
 62
7
  6
CONTINUOUS
 10
403.3852113162
 20
105.7713614843
  0
VERTEX
  8
0
 62
7
  6
CONTINUOUS
 10
403.3857768411
 20
105.778236812
  0
VERTEX
  8
0
 62
7
  6
CONTINUOUS
 10
403.3869284531
 20
105.7935605705
  0
SEQEND
  0
LINE
  8
0
 62
7
  6
CONTINUOUS
 10
403.4146148876
 20
178.4980260332
 11
403.4183598102
 21
178.5096071627
  0
POLYLINE
  8
0
 62
7
  6
CONTINUOUS
 66
1
 70
0
  0
VERTEX
  8
0
 62
7
  6
CONTINUOUS
 10
403.4360988362
 20
193.4387646702
  0
VERTEX
  8
0
 62
7
  6
CONTINUOUS
 10
403.4317777759
 20
193.4309331218
  0
VERTEX
  8
0
 62
7
  6
CONTINUOUS
 10
403.4246081865
 20
193.4232041651
  0
VERTEX
  8
0
 62
7
  6
CONTINUOUS
 10
403.4146504138
 20
193.4156399611
  0
VERTEX
  8
0
 62
7
  6
CONTINUOUS
 10
403.4019947384
 20
193.4083014073
  0
VERTEX
  8
0
 62
7
  6
CONTINUOUS
 10
403.386760304
 20
193.4012470434
  0
VERTEX
  8
0
 62
7
  6
CONTINUOUS
 10
403.3690928319
 20
193.3945319183
  0
VERTEX
  8
0
 62
7
  6
CONTINUOUS
 10
403.3491611294
 20
193.3882065401
  0
VERTEX
  8
0
 62
7
  6
CONTINUOUS
 10
403.3271525847
 20
193.3823160161
  0
VERTEX
  8
0
 62
7
  6
CONTINUOUS
 10
403.3032680711
 20
193.3768994796
  0
VERTEX
  8
0
 62
7
  6
CONTINUOUS
 10
403.2777164606
 20
193.3719897941
  0
VERTEX
  8
0
 62
7
  6
CONTINUOUS
 10
403.2507092247
 20
193.3676135811
  0
VERTEX
  8
0
 62
7
  6
CONTINUOUS
 10
403.2224556036
 20
193.3637915672
  0
VERTEX
  8
0
 62
7
  6
CONTINUOUS
 10
403.1931590469
 20
193.3605392325
  0
VERTEX
  8
0
 62
7
  6
CONTINUOUS
 10
403.1630144634
 20
193.3578675739
  0
VERTEX
  8
0
 62
7
  6
CONTINUOUS
 10
403.1322081312
 20
193.3557840591
  0
VERTEX
  8
0
 62
7
  6
CONTINUOUS
 10
403.1009175944
 20
193.3542933858
  0
VERTEX
  8
0
 62
7
  6
CONTINUOUS
 10
403.069307877
 20
193.3533980848
  0
VERTEX
  8
0
 62
7
  6
CONTINUOUS
 10
403.0375410284
 20
193.3530995244
  0
SEQEND
  0
LINE
  8
0
 62
7
  6
CONTINUOUS
 10
393.9375410284
 20
241.1221011636
 11
403.0375410284
 21
241.1221011636
  0
LINE
  8
0
 62
7
  6
CONTINUOUS
 10
393.9375410284
 20
244.3477285204
 11
395.1375410284
 21
244.3477285204
  0
LINE
  8
0
 62
7
  6
CONTINUOUS
 10
386.0375410284
 20
247.841792698
 11
395.1375410284
 21
247.841792698
  0
LINE
  8
0
 62
7
  6
CONTINUOUS
 10
395.1375410284
 20
247.8450678717
 11
386.0375410284
 21
247.8450678717
  0
POLYLINE
  8
0
 62
7
  6
CONTINUOUS
 66
1
 70
0
  0
VERTEX
  8
0
 62
7
  6
CONTINUOUS
 10
403.4374929321
 20
95.7458038386
  0
VERTEX
  8
0
 62
7
  6
CONTINUOUS
 10
403.4360555745
 20
95.7367996532
  0
VERTEX
  8
0
 62
7
  6
CONTINUOUS
 10
403.4326270711
 20
95.7278800373
  0
VERTEX
  8
0
 62
7
  6
CONTINUOUS
 10
403.4272245946
 20
95.7190895502
  0
VERTEX
  8
0
 62
7
  6
CONTINUOUS
 10
403.4198751782
 20
95.7104721059
  0
VERTEX
  8
0
 62
7
  6
CONTINUOUS
 10
403.4106155816
 20
95.7020707541
  0
VERTEX
  8
0
 62
7
  6
CONTINUOUS
 10
403.3994921082
 20
95.6939274639
  0
VERTEX
  8
0
 62
7
  6
CONTINUOUS
 10
403.3865603737
 20
95.6860829143
  0
VERTEX
  8
0
 62
7
  6
CONTINUOUS
 10
403.3718850285
 20
95.67857629
  0
VERTEX
  8
0
 62
7
  6
CONTINUOUS
 10
403.3555394337
 20
95.6714450858
  0
VERTEX
  8
0
 62
7
  6
CONTINUOUS
 10
403.3376052946
 20
95.6647249182
  0
VERTEX
  8
0
 62
7
  6
CONTINUOUS
 10
403.3181722503
 20
95.6584493472
  0
VERTEX
  8
0
 62
7
  6
CONTINUOUS
 10
403.2973374253
 20
95.6526497079
  0
VERTEX
  8
0
 62
7
  6
CONTINUOUS
 10
403.2752049425
 20
95.6473549534
  0
VERTEX
  8
0
 62
7
  6
CONTINUOUS
 10
403.2518854018
 20
95.6425915085
  0
VERTEX
  8
0
 62
7
  6
CONTINUOUS
 10
403.2274953256
 20
95.6383831349
  0
VERTEX
  8
0
 62
7
  6
CONTINUOUS
 10
403.2021565759
 20
95.634750808
  0
VERTEX
  8
0
 62
7
  6
CONTINUOUS
 10
403.1759957447
 20
95.6317125994
  0
VERTEX
  8
0
 62
7
  6
CONTINUOUS
 10
403.1491435198
 20
95.6292835564
  0
VERTEX
  8
0
 62
7
  6
CONTINUOUS
 10
403.121734031
 20
95.6274755352
  0
VERTEX
  8
0
 62
7
  6
CONTINUOUS
 10
403.093904174
 20
95.6262967719
  0
VERTEX
  8
0
 62
7
  6
CONTINUOUS
 10
403.0657928852
 20
95.6257492605
  0
VERTEX
  8
0
 62
7
  6
CONTINUOUS
 10
403.0375410284
 20
95.6258639956
  0
SEQEND
  0
LINE
  8
0
 62
7
  6
CONTINUOUS
 10
403.4106155816
 20
284.1950033047
 11
403.408669643
 21
284.1995514244
  0
POLYLINE
  8
0
 62
7
  6
CONTINUOUS
 66
1
 70
0
  0
VERTEX
  8
0
 62
7
  6
CONTINUOUS
 10
403.4094018268
 20
284.1966828726
  0
VERTEX
  8
0
 62
7
  6
CONTINUOUS
 10
403.4095197301
 20
284.1963166415
  0
VERTEX
  8
0
 62
7
  6
CONTINUOUS
 10
403.4095137344
 20
284.1963780833
  0
VERTEX
  8
0
 62
7
  6
CONTINUOUS
 10
403.4083860764
 20
284.2006174864
  0
VERTEX
  8
0
 62
7
  6
CONTINUOUS
 10
403.406383524
 20
284.2089447418
  0
VERTEX
  8
0
 62
7
  6
CONTINUOUS
 10
403.4036801804
 20
284.2213324522
  0
VERTEX
  8
0
 62
7
  6
CONTINUOUS
 10
403.4004000692
 20
284.2378077442
  0
VERTEX
  8
0
 62
7
  6
CONTINUOUS
 10
403.3966315684
 20
284.2584488559
  0
VERTEX
  8
0
 62
7
  6
CONTINUOUS
 10
403.3924340109
 20
284.2834034207
  0
VERTEX
  8
0
 62
7
  6
CONTINUOUS
 10
403.387847097
 20
284.3128788421
  0
VERTEX
  8
0
 62
7
  6
CONTINUOUS
 10
403.3828982165
 20
284.3471266186
  0
VERTEX
  8
0
 62
7
  6
CONTINUOUS
 10
403.3776064895
 20
284.3864350151
  0
VERTEX
  8
0
 62
7
  6
CONTINUOUS
 10
403.3719852897
 20
284.4311243233
  0
VERTEX
  8
0
 62
7
  6
CONTINUOUS
 10
403.3660436533
 20
284.4815465138
  0
VERTEX
  8
0
 62
7
  6
CONTINUOUS
 10
403.359787679
 20
284.5380816557
  0
VERTEX
  8
0
 62
7
  6
CONTINUOUS
 10
403.3532213954
 20
284.6011364985
  0
VERTEX
  8
0
 62
7
  6
CONTINUOUS
 10
403.3463472137
 20
284.671145164
  0
SEQEND
  0
POLYLINE
  8
0
 62
7
  6
CONTINUOUS
 66
1
 70
0
  0
VERTEX
  8
0
 62
7
  6
CONTINUOUS
 10
403.4375208852
 20
346.4220372545
  0
VERTEX
  8
0
 62
7
  6
CONTINUOUS
 10
403.4362889824
 20
346.4298448926
  0
VERTEX
  8
0
 62
7
  6
CONTINUOUS
 10
403.4330387051
 20
346.4377934252
  0
VERTEX
  8
0
 62
7
  6
CONTINUOUS
 10
403.4277935095
 20
346.4456238218
  0
VERTEX
  8
0
 62
7
  6
CONTINUOUS
 10
403.4205799037
 20
346.4532965899
  0
VERTEX
  8
0
 62
7
  6
CONTINUOUS
 10
403.4114343234
 20
346.4607730327
  0
VERTEX
  8
0
 62
7
  6
CONTINUOUS
 10
403.400402948
 20
346.4680154448
  0
VERTEX
  8
0
 62
7
  6
CONTINUOUS
 10
403.3875414679
 20
346.4749873021
  0
VERTEX
  8
0
 62
7
  6
CONTINUOUS
 10
403.3729148031
 20
346.4816534467
  0
VERTEX
  8
0
 62
7
  6
CONTINUOUS
 10
403.3565967752
 20
346.4879802639
  0
VERTEX
  8
0
 62
7
  6
CONTINUOUS
 10
403.3386697343
 20
346.4939358526
  0
VERTEX
  8
0
 62
7
  6
CONTINUOUS
 10
403.3192241423
 20
346.4994901855
  0
VERTEX
  8
0
 62
7
  6
CONTINUOUS
 10
403.2983581158
 20
346.5046152611
  0
VERTEX
  8
0
 62
7
  6
CONTINUOUS
 10
403.2805731287
 20
346.5083596772
  0
SEQEND
  0
POLYLINE
  8
0
 62
7
  6
CONTINUOUS
 66
1
 70
0
  0
VERTEX
  8
0
 62
7
  6
CONTINUOUS
 10
385.6375541636
 20
101.7945072877
  0
VERTEX
  8
0
 62
7
  6
CONTINUOUS
 10
385.6387930745
 20
101.7975097404
  0
VERTEX
  8
0
 62
7
  6
CONTINUOUS
 10
385.6420433518
 20
101.8005293691
  0
VERTEX
  8
0
 62
7
  6
CONTINUOUS
 10
385.6472885474
 20
101.8035509429
  0
VERTEX
  8
0
 62
7
  6
CONTINUOUS
 10
385.6545021532
 20
101.8065592213
  0
VERTEX
  8
0
 62
7
  6
CONTINUOUS
 10
385.6636477335
 20
101.8095390312
  0
VERTEX
  8
0
 62
7
  6
CONTINUOUS
 10
385.6746791089
 20
101.8124753433
  0
VERTEX
  8
0
 62
7
  6
CONTINUOUS
 10
385.687540589
 20
101.8153533483
  0
VERTEX
  8
0
 62
7
  6
CONTINUOUS
 10
385.7021672538
 20
101.8181585316
  0
VERTEX
  8
0
 62
7
  6
CONTINUOUS
 10
385.7184852817
 20
101.8208767461
  0
VERTEX
  8
0
 62
7
  6
CONTINUOUS
 10
385.7364123226
 20
101.8234942845
  0
VERTEX
  8
0
 62
7
  6
CONTINUOUS
 10
385.7558579146
 20
101.8259979478
  0
VERTEX
  8
0
 62
7
  6
CONTINUOUS
 10
385.7767239411
 20
101.8283751122
  0
VERTEX
  8
0
 62
7
  6
CONTINUOUS
 10
385.7989051272
 20
101.8306137924
  0
VERTEX
  8
0
 62
7
  6
CONTINUOUS
 10
385.8222895715
 20
101.8327027025
  0
VERTEX
  8
0
 62
7
  6
CONTINUOUS
 10
385.8467593121
 20
101.8346313126
  0
VERTEX
  8
0
 62
7
  6
CONTINUOUS
 10
385.8721909218
 20
101.8363899016
  0
VERTEX
  8
0
 62
7
  6
CONTINUOUS
 10
385.8984561317
 20
101.8379696065
  0
VERTEX
  8
0
 62
7
  6
CONTINUOUS
 10
385.9254224783
 20
101.8393624665
  0
VERTEX
  8
0
 62
7
  6
CONTINUOUS
 10
385.9529539716
 20
101.8405614634
  0
VERTEX
  8
0
 62
7
  6
CONTINUOUS
 10
385.980911781
 20
101.8415605566
  0
VERTEX
  8
0
 62
7
  6
CONTINUOUS
 10
386.0091549343
 20
101.8423547133
  0
VERTEX
  8
0
 62
7
  6
CONTINUOUS
 10
386.0375410284
 20
101.842939934
  0
SEQEND
  0
POLYLINE
  8
0
 62
7
  6
CONTINUOUS
 66
1
 70
0
  0
VERTEX
  8
0
 62
7
  6
CONTINUOUS
 10
386.0796753716
 20
263.0932336117
  0
VERTEX
  8
0
 62
7
  6
CONTINUOUS
 10
386.0602917501
 20
263.0927644487
  0
VERTEX
  8
0
 62
7
  6
CONTINUOUS
 10
386.0266763279
 20
263.0897127704
  0
VERTEX
  8
0
 62
7
  6
CONTINUOUS
 10
385.992842185
 20
263.0837110121
  0
VERTEX
  8
0
 62
7
  6
CONTINUOUS
 10
385.9595413597
 20
263.0747994952
  0
VERTEX
  8
0
 62
7
  6
CONTINUOUS
 10
385.9274894296
 20
263.0632070735
  0
VERTEX
  8
0
 62
7
  6
CONTINUOUS
 10
385.8973292288
 20
263.0493389068
  0
VERTEX
  8
0
 62
7
  6
CONTINUOUS
 10
385.869587297
 20
263.0337448453
  0
VERTEX
  8
0
 62
7
  6
CONTINUOUS
 10
385.8444114283
 20
263.0169047347
  0
VERTEX
  8
0
 62
7
  6
CONTINUOUS
 10
385.8216461503
 20
262.9991155826
  0
VERTEX
  8
0
 62
7
  6
CONTINUOUS
 10
385.8011148392
 20
262.9806034859
  0
VERTEX
  8
0
 62
7
  6
CONTINUOUS
 10
385.7826536631
 20
262.9615512936
  0
VERTEX
  8
0
 62
7
  6
CONTINUOUS
 10
385.766184262
 20
262.9421980149
  0
VERTEX
  8
0
 62
7
  6
CONTINUOUS
 10
385.7516416463
 20
262.9228047499
  0
VERTEX
  8
0
 62
7
  6
CONTINUOUS
 10
385.7389252691
 20
262.9035992197
  0
VERTEX
  8
0
 62
7
  6
CONTINUOUS
 10
385.727888985
 20
262.8847365007
  0
VERTEX
  8
0
 62
7
  6
CONTINUOUS
 10
385.7183776179
 20
262.8663310536
  0
VERTEX
  8
0
 62
7
  6
CONTINUOUS
 10
385.7102391155
 20
262.8484713442
  0
VERTEX
  8
0
 62
7
  6
CONTINUOUS
 10
385.7033528644
 20
262.8312928536
  0
VERTEX
  8
0
 62
7
  6
CONTINUOUS
 10
385.6976179151
 20
262.8149909462
  0
VERTEX
  8
0
 62
7
  6
CONTINUOUS
 10
385.6567222467
 20
262.6885602333
  0
SEQEND
  0
LINE
  8
0
 62
7
  6
CONTINUOUS
 10
395.1375410284
 20
263.0932336107
 11
386.0796719127
 21
263.0932336107
  0
LINE
  8
0
 62
7
  6
CONTINUOUS
 10
417.5375410284
 20
275.0463058494
 11
403.4375410284
 21
275.0463058494
  0
LINE
  8
0
 62
7
  6
CONTINUOUS
 10
385.6375410284
 20
275.0463058494
 11
371.5375410284
 21
275.0463058494
  0
LINE
  8
0
 62
7
  6
CONTINUOUS
 10
385.6375410284
 20
277.2442957481
 11
371.5375410284
 21
277.2442957481
  0
LINE
  8
0
 62
7
  6
CONTINUOUS
 10
403.4375410284
 20
277.2442957481
 11
417.5375410284
 21
277.2442957481
  0
POLYLINE
  8
0
 62
7
  6
CONTINUOUS
 66
1
 70
0
  0
VERTEX
  8
0
 62
7
  6
CONTINUOUS
 10
385.6375891248
 20
329.4540575622
  0
VERTEX
  8
0
 62
7
  6
CONTINUOUS
 10
385.6390264824
 20
329.452134295
  0
VERTEX
  8
0
 62
7
  6
CONTINUOUS
 10
385.6424549858
 20
329.4501915718
  0
SEQEND
  0
LINE
  8
0
 62
7
  6
CONTINUOUS
 10
393.9375410284
 20
286.1970671636
 11
402.842021822
 21
286.1970671636
  0
LINE
  8
0
 62
7
  6
CONTINUOUS
 10
393.9375410284
 20
288.229502273
 11
395.1375410284
 21
288.229502273
  0
LINE
  8
0
 62
7
  6
CONTINUOUS
 10
386.0375410284
 20
291.4575966519
 11
395.1375410284
 21
291.4575966519
  0
LINE
  8
0
 62
7
  6
CONTINUOUS
 10
395.1375410284
 20
291.4661154059
 11
386.0375410284
 21
291.4661154059
  0
POLYLINE
  8
0
 62
7
  6
CONTINUOUS
 66
1
 70
0
  0
VERTEX
  8
0
 62
7
  6
CONTINUOUS
 10
386.0867159169
 20
305.8691540071
  0
VERTEX
  8
0
 62
7
  6
CONTINUOUS
 10
386.0704211508
 20
305.8688223109
  0
VERTEX
  8
0
 62
7
  6
CONTINUOUS
 10
386.037690236
 20
305.8661413592
  0
VERTEX
  8
0
 62
7
  6
CONTINUOUS
 10
386.0065723656
 20
305.8610515924
  0
VERTEX
  8
0
 62
7
  6
CONTINUOUS
 10
385.9771342294
 20
305.8538677238
  0
VERTEX
  8
0
 62
7
  6
CONTINUOUS
 10
385.949403705
 20
305.8448745848
  0
VERTEX
  8
0
 62
7
  6
CONTINUOUS
 10
385.9233779479
 20
305.834326219
  0
VERTEX
  8
0
 62
7
  6
CONTINUOUS
 10
385.8990301875
 20
305.8224458587
  0
VERTEX
  8
0
 62
7
  6
CONTINUOUS
 10
385.8763180398
 20
305.809428034
  0
VERTEX
  8
0
 62
7
  6
CONTINUOUS
 10
385.8552010967
 20
305.7954495814
  0
VERTEX
  8
0
 62
7
  6
CONTINUOUS
 10
385.835634077
 20
305.7806692589
  0
VERTEX
  8
0
 62
7
  6
CONTINUOUS
 10
385.8175629195
 20
305.7652253824
  0
VERTEX
  8
0
 62
7
  6
CONTINUOUS
 10
385.800928557
 20
305.749237836
  0
VERTEX
  8
0
 62
7
  6
CONTINUOUS
 10
385.7856908741
 20
305.7328343439
  0
VERTEX
  8
0
 62
7
  6
CONTINUOUS
 10
385.7718293953
 20
305.7161650175
  0
VERTEX
  8
0
 62
7
  6
CONTINUOUS
 10
385.7593108937
 20
305.69937426
  0
VERTEX
  8
0
 62
7
  6
CONTINUOUS
 10
385.7480904374
 20
305.6825995424
  0
VERTEX
  8
0
 62
7
  6
CONTINUOUS
 10
385.738112266
 20
305.665969741
  0
VERTEX
  8
0
 62
7
  6
CONTINUOUS
 10
385.7293017096
 20
305.6495853699
  0
VERTEX
  8
0
 62
7
  6
CONTINUOUS
 10
385.7215764958
 20
305.6335281218
  0
VERTEX
  8
0
 62
7
  6
CONTINUOUS
 10
385.7148546454
 20
305.6178729014
  0
VERTEX
  8
0
 62
7
  6
CONTINUOUS
 10
385.7090950081
 20
305.6028013557
  0
VERTEX
  8
0
 62
7
  6
CONTINUOUS
 10
385.7042855488
 20
305.58863827
  0
VERTEX
  8
0
 62
7
  6
CONTINUOUS
 10
385.7003667981
 20
305.5756599183
  0
VERTEX
  8
0
 62
7
  6
CONTINUOUS
 10
385.697227896
 20
305.5640062982
  0
VERTEX
  8
0
 62
7
  6
CONTINUOUS
 10
385.6946431709
 20
305.5532859016
  0
VERTEX
  8
0
 62
7
  6
CONTINUOUS
 10
385.6924051503
 20
305.542915906
  0
VERTEX
  8
0
 62
7
  6
CONTINUOUS
 10
385.6904389638
 20
305.5327084274
  0
VERTEX
  8
0
 62
7
  6
CONTINUOUS
 10
385.6887516321
 20
305.5228827959
  0
VERTEX
  8
0
 62
7
  6
CONTINUOUS
 10
385.6873131858
 20
305.5135165143
  0
VERTEX
  8
0
 62
7
  6
CONTINUOUS
 10
385.6860609339
 20
305.5044498263
  0
VERTEX
  8
0
 62
7
  6
CONTINUOUS
 10
385.6849406448
 20
305.4954863909
  0
VERTEX
  8
0
 62
7
  6
CONTINUOUS
 10
385.6839131402
 20
305.4864591962
  0
VERTEX
  8
0
 62
7
  6
CONTINUOUS
 10
385.6829447299
 20
305.4771735715
  0
VERTEX
  8
0
 62
7
  6
CONTINUOUS
 10
385.6820082278
 20
305.4674254384
  0
VERTEX
  8
0
 62
7
  6
CONTINUOUS
 10
385.6810840459
 20
305.4570299765
  0
VERTEX
  8
0
 62
7
  6
CONTINUOUS
 10
385.680157637
 20
305.4458133623
  0
VERTEX
  8
0
 62
7
  6
CONTINUOUS
 10
385.6792170107
 20
305.4335953695
  0
SEQEND
  0
LINE
  8
0
 62
7
  6
CONTINUOUS
 10
395.1375410284
 20
305.8691540438
 11
386.0867095601
 21
305.8691540438
  0
LINE
  8
0
 62
7
  6
CONTINUOUS
 10
386.0375410284
 20
324.2858343426
 11
393.9375410284
 21
324.2858343426
  0
LINE
  8
0
 62
7
  6
CONTINUOUS
 10
393.9375410284
 20
324.2982997739
 11
386.0375410284
 21
324.2982997739
  0
LINE
  8
0
 62
7
  6
CONTINUOUS
 10
393.9375410284
 20
324.9844727612
 11
402.8409936783
 21
324.9844727612
  0
POLYLINE
  8
0
 62
7
  6
CONTINUOUS
 66
1
 70
0
  0
VERTEX
  8
0
 62
7
  6
CONTINUOUS
 10
385.6424549858
 20
329.4501915718
  0
VERTEX
  8
0
 62
7
  6
CONTINUOUS
 10
385.6478574623
 20
329.4482391001
  0
VERTEX
  8
0
 62
7
  6
CONTINUOUS
 10
385.6552068787
 20
329.4462866359
  0
VERTEX
  8
0
 62
7
  6
CONTINUOUS
 10
385.6644664753
 20
329.4443439351
  0
VERTEX
  8
0
 62
7
  6
CONTINUOUS
 10
385.6755899487
 20
329.442420705
  0
VERTEX
  8
0
 62
7
  6
CONTINUOUS
 10
385.6885216831
 20
329.4405265553
  0
VERTEX
  8
0
 62
7
  6
CONTINUOUS
 10
385.7031970284
 20
329.4386709504
  0
VERTEX
  8
0
 62
7
  6
CONTINUOUS
 10
385.7195426231
 20
329.4368631624
  0
VERTEX
  8
0
 62
7
  6
CONTINUOUS
 10
385.7374767623
 20
329.4351122245
  0
VERTEX
  8
0
 62
7
  6
CONTINUOUS
 10
385.7569098066
 20
329.4334268869
  0
VERTEX
  8
0
 62
7
  6
CONTINUOUS
 10
385.7777446316
 20
329.4318155727
  0
VERTEX
  8
0
 62
7
  6
CONTINUOUS
 10
385.7998771143
 20
329.4302863378
  0
VERTEX
  8
0
 62
7
  6
CONTINUOUS
 10
385.8231966551
 20
329.4288468315
  0
VERTEX
  8
0
 62
7
  6
CONTINUOUS
 10
385.8475867313
 20
329.4275042616
  0
VERTEX
  8
0
 62
7
  6
CONTINUOUS
 10
385.8729254809
 20
329.4262653647
  0
VERTEX
  8
0
 62
7
  6
CONTINUOUS
 10
385.8990863121
 20
329.4251363855
  0
VERTEX
  8
0
 62
7
  6
CONTINUOUS
 10
385.925938537
 20
329.4241230782
  0
VERTEX
  8
0
 62
7
  6
CONTINUOUS
 10
385.9533480258
 20
329.4232307756
  0
VERTEX
  8
0
 62
7
  6
CONTINUOUS
 10
385.9811778828
 20
329.4224647511
  0
VERTEX
  8
0
 62
7
  6
CONTINUOUS
 10
386.0375410284
 20
329.4213086753
  0
SEQEND
  0
POLYLINE
  8
0
 62
7
  6
CONTINUOUS
 66
1
 70
0
  0
VERTEX
  8
0
 62
7
  6
CONTINUOUS
 10
386.0916381566
 20
335.8157200726
  0
VERTEX
  8
0
 62
7
  6
CONTINUOUS
 10
386.0808546442
 20
335.8155747422
  0
VERTEX
  8
0
 62
7
  6
CONTINUOUS
 10
386.0501854475
 20
335.8135671241
  0
VERTEX
  8
0
 62
7
  6
CONTINUOUS
 10
386.0209056131
 20
335.8094187955
  0
VERTEX
  8
0
 62
7
  6
CONTINUOUS
 10
385.9930678527
 20
335.8033892695
  0
VERTEX
  8
0
 62
7
  6
CONTINUOUS
 10
385.966694297
 20
335.7957132288
  0
VERTEX
  8
0
 62
7
  6
CONTINUOUS
 10
385.9417827928
 20
335.7865999558
  0
VERTEX
  8
0
 62
7
  6
CONTINUOUS
 10
385.9183122999
 20
335.7762334516
  0
VERTEX
  8
0
 62
7
  6
CONTINUOUS
 10
385.8962480202
 20
335.764773295
  0
VERTEX
  8
0
 62
7
  6
CONTINUOUS
 10
385.8755647662
 20
335.7523681657
  0
VERTEX
  8
0
 62
7
  6
CONTINUOUS
 10
385.8562583646
 20
335.7391712827
  0
VERTEX
  8
0
 62
7
  6
CONTINUOUS
 10
385.8383152297
 20
335.7253279208
  0
VERTEX
  8
0
 62
7
  6
CONTINUOUS
 10
385.8217110594
 20
335.7109735543
  0
VERTEX
  8
0
 62
7
  6
CONTINUOUS
 10
385.8064118109
 20
335.6962329925
  0
VERTEX
  8
0
 62
7
  6
CONTINUOUS
 10
385.792368173
 20
335.6812120544
  0
VERTEX
  8
0
 62
7
  6
CONTINUOUS
 10
385.779521773
 20
335.6659990164
  0
VERTEX
  8
0
 62
7
  6
CONTINUOUS
 10
385.767812258
 20
335.6506700221
  0
VERTEX
  8
0
 62
7
  6
CONTINUOUS
 10
385.7571791268
 20
335.6352908693
  0
VERTEX
  8
0
 62
7
  6
CONTINUOUS
 10
385.7475742965
 20
335.6199378157
  0
VERTEX
  8
0
 62
7
  6
CONTINUOUS
 10
385.7389598259
 20
335.6047038075
  0
VERTEX
  8
0
 62
7
  6
CONTINUOUS
 10
385.7312909817
 20
335.5896754298
  0
VERTEX
  8
0
 62
7
  6
CONTINUOUS
 10
385.7245185491
 20
335.574935258
  0
VERTEX
  8
0
 62
7
  6
CONTINUOUS
 10
385.7185906468
 20
335.5605650743
  0
VERTEX
  8
0
 62
7
  6
CONTINUOUS
 10
385.713452958
 20
335.5466469214
  0
VERTEX
  8
0
 62
7
  6
CONTINUOUS
 10
385.7090483507
 20
335.5332624977
  0
VERTEX
  8
0
 62
7
  6
CONTINUOUS
 10
385.7053221659
 20
335.5205120456
  0
VERTEX
  8
0
 62
7
  6
CONTINUOUS
 10
385.7022567334
 20
335.5086678308
  0
VERTEX
  8
0
 62
7
  6
CONTINUOUS
 10
385.6998164937
 20
335.4980262591
  0
VERTEX
  8
0
 62
7
  6
CONTINUOUS
 10
385.6979217536
 20
335.4887426751
  0
VERTEX
  8
0
 62
7
  6
CONTINUOUS
 10
385.69643039
 20
335.4805876296
  0
VERTEX
  8
0
 62
7
  6
CONTINUOUS
 10
385.6951901924
 20
335.4730550409
  0
VERTEX
  8
0
 62
7
  6
CONTINUOUS
 10
385.6941117684
 20
335.465788428
  0
VERTEX
  8
0
 62
7
  6
CONTINUOUS
 10
385.6931790504
 20
335.4588239843
  0
VERTEX
  8
0
 62
7
  6
CONTINUOUS
 10
385.6923775068
 20
335.4522214461
  0
VERTEX
  8
0
 62
7
  6
CONTINUOUS
 10
385.6916756052
 20
335.4458874343
  0
VERTEX
  8
0
 62
7
  6
CONTINUOUS
 10
385.691039145
 20
335.4396411508
  0
SEQEND
  0
LINE
  8
0
 62
7
  6
CONTINUOUS
 10
395.1375410284
 20
335.8157201769
 11
386.0916306973
 21
335.8157201769
  0
POLYLINE
  8
0
 62
7
  6
CONTINUOUS
 66
1
 70
0
  0
VERTEX
  8
0
 62
7
  6
CONTINUOUS
 10
386.2347967202
 20
351.6152097953
  0
VERTEX
  8
0
 62
7
  6
CONTINUOUS
 10
386.2227959039
 20
351.6150297312
  0
VERTEX
  8
0
 62
7
  6
CONTINUOUS
 10
386.2111866784
 20
351.6145123982
  0
VERTEX
  8
0
 62
7
  6
CONTINUOUS
 10
386.199768467
 20
351.613673128
  0
VERTEX
  8
0
 62
7
  6
CONTINUOUS
 10
386.1885455649
 20
351.612526849
  0
VERTEX
  8
0
 62
7
  6
CONTINUOUS
 10
386.1775214932
 20
351.6110880147
  0
VERTEX
  8
0
 62
7
  6
CONTINUOUS
 10
386.1666990547
 20
351.6093705885
  0
VERTEX
  8
0
 62
7
  6
CONTINUOUS
 10
386.1560803869
 20
351.6073880325
  0
VERTEX
  8
0
 62
7
  6
CONTINUOUS
 10
386.1456670141
 20
351.605153298
  0
VERTEX
  8
0
 62
7
  6
CONTINUOUS
 10
386.1354598961
 20
351.6026788201
  0
VERTEX
  8
0
 62
7
  6
CONTINUOUS
 10
386.1254594759
 20
351.5999765139
  0
VERTEX
  8
0
 62
7
  6
CONTINUOUS
 10
386.1156657248
 20
351.5970577738
  0
VERTEX
  8
0
 62
7
  6
CONTINUOUS
 10
386.1060781849
 20
351.5939334733
  0
VERTEX
  8
0
 62
7
  6
CONTINUOUS
 10
386.0966960105
 20
351.5906139688
  0
VERTEX
  8
0
 62
7
  6
CONTINUOUS
 10
386.087518007
 20
351.5871091028
  0
VERTEX
  8
0
 62
7
  6
CONTINUOUS
 10
386.0785426673
 20
351.5834282101
  0
VERTEX
  8
0
 62
7
  6
CONTINUOUS
 10
386.0697682076
 20
351.5795801244
  0
VERTEX
  8
0
 62
7
  6
CONTINUOUS
 10
386.0611925999
 20
351.5755731864
  0
VERTEX
  8
0
 62
7
  6
CONTINUOUS
 10
386.0528136035
 20
351.5714152527
  0
VERTEX
  8
0
 62
7
  6
CONTINUOUS
 10
386.0446291574
 20
351.5671139017
  0
VERTEX
  8
0
 62
7
  6
CONTINUOUS
 10
386.0366389062
 20
351.5626773521
  0
VERTEX
  8
0
 62
7
  6
CONTINUOUS
 10
386.0288428525
 20
351.5581139333
  0
VERTEX
  8
0
 62
7
  6
CONTINUOUS
 10
386.0212407361
 20
351.5534317746
  0
VERTEX
  8
0
 62
7
  6
CONTINUOUS
 10
386.0138320484
 20
351.5486388019
  0
VERTEX
  8
0
 62
7
  6
CONTINUOUS
 10
386.0066160456
 20
351.5437427348
  0
VERTEX
  8
0
 62
7
  6
CONTINUOUS
 10
385.9995917635
 20
351.5387510845
  0
VERTEX
  8
0
 62
7
  6
CONTINUOUS
 10
385.9927580301
 20
351.5336711522
  0
VERTEX
  8
0
 62
7
  6
CONTINUOUS
 10
385.9861134793
 20
351.5285100282
  0
VERTEX
  8
0
 62
7
  6
CONTINUOUS
 10
385.9796565632
 20
351.523274591
  0
VERTEX
  8
0
 62
7
  6
CONTINUOUS
 10
385.9733855642
 20
351.5179715076
  0
VERTEX
  8
0
 62
7
  6
CONTINUOUS
 10
385.9672986073
 20
351.5126072338
  0
VERTEX
  8
0
 62
7
  6
CONTINUOUS
 10
385.9613936705
 20
351.5071880141
  0
VERTEX
  8
0
 62
7
  6
CONTINUOUS
 10
385.9556685861
 20
351.5017198731
  0
VERTEX
  8
0
 62
7
  6
CONTINUOUS
 10
385.9501210565
 20
351.4962086203
  0
VERTEX
  8
0
 62
7
  6
CONTINUOUS
 10
385.9447486711
 20
351.4906598576
  0
VERTEX
  8
0
 62
7
  6
CONTINUOUS
 10
385.9395489163
 20
351.4850789814
  0
VERTEX
  8
0
 62
7
  6
CONTINUOUS
 10
385.9345191855
 20
351.4794711857
  0
VERTEX
  8
0
 62
7
  6
CONTINUOUS
 10
385.9296567877
 20
351.4738414643
  0
VERTEX
  8
0
 62
7
  6
CONTINUOUS
 10
385.9249589564
 20
351.468194614
  0
VERTEX
  8
0
 62
7
  6
CONTINUOUS
 10
385.9204228584
 20
351.4625352381
  0
VERTEX
  8
0
 62
7
  6
CONTINUOUS
 10
385.9160456012
 20
351.4568677491
  0
VERTEX
  8
0
 62
7
  6
CONTINUOUS
 10
385.9118242412
 20
351.4511963729
  0
VERTEX
  8
0
 62
7
  6
CONTINUOUS
 10
385.9077555868
 20
351.4455248628
  0
VERTEX
  8
0
 62
7
  6
CONTINUOUS
 10
385.903835736
 20
351.4398557576
  0
VERTEX
  8
0
 62
7
  6
CONTINUOUS
 10
385.9000606991
 20
351.4341911364
  0
VERTEX
  8
0
 62
7
  6
CONTINUOUS
 10
385.8964265657
 20
351.4285328426
  0
VERTEX
  8
0
 62
7
  6
CONTINUOUS
 10
385.8929295107
 20
351.422882494
  0
VERTEX
  8
0
 62
7
  6
CONTINUOUS
 10
385.8895657989
 20
351.4172414932
  0
VERTEX
  8
0
 62
7
  6
CONTINUOUS
 10
385.8863317894
 20
351.4116110376
  0
VERTEX
  8
0
 62
7
  6
CONTINUOUS
 10
385.8832239395
 20
351.4059921291
  0
VERTEX
  8
0
 62
7
  6
CONTINUOUS
 10
385.8802388088
 20
351.4003855842
  0
VERTEX
  8
0
 62
7
  6
CONTINUOUS
 10
385.877373062
 20
351.3947920434
  0
VERTEX
  8
0
 62
7
  6
CONTINUOUS
 10
385.8746234723
 20
351.3892119812
  0
VERTEX
  8
0
 62
7
  6
CONTINUOUS
 10
385.8719869242
 20
351.383645716
  0
VERTEX
  8
0
 62
7
  6
CONTINUOUS
 10
385.8694605516
 20
351.3780937249
  0
VERTEX
  8
0
 62
7
  6
CONTINUOUS
 10
385.8670424023
 20
351.3725582643
  0
VERTEX
  8
0
 62
7
  6
CONTINUOUS
 10
385.864730803
 20
351.367042237
  0
VERTEX
  8
0
 62
7
  6
CONTINUOUS
 10
385.862524015
 20
351.361548469
  0
VERTEX
  8
0
 62
7
  6
CONTINUOUS
 10
385.8604202377
 20
351.3560797071
  0
VERTEX
  8
0
 62
7
  6
CONTINUOUS
 10
385.8584176118
 20
351.350638618
  0
VERTEX
  8
0
 62
7
  6
CONTINUOUS
 10
385.856514224
 20
351.3452277864
  0
VERTEX
  8
0
 62
7
  6
CONTINUOUS
 10
385.8547081106
 20
351.3398497164
  0
VERTEX
  8
0
 62
7
  6
CONTINUOUS
 10
385.8529972635
 20
351.334506836
  0
VERTEX
  8
0
 62
7
  6
CONTINUOUS
 10
385.8513796374
 20
351.3292015108
  0
VERTEX
  8
0
 62
7
  6
CONTINUOUS
 10
385.8498531598
 20
351.3239360707
  0
VERTEX
  8
0
 62
7
  6
CONTINUOUS
 10
385.8484157447
 20
351.3187128602
  0
VERTEX
  8
0
 62
7
  6
CONTINUOUS
 10
385.8470653117
 20
351.3135343269
  0
VERTEX
  8
0
 62
7
  6
CONTINUOUS
 10
385.8457998128
 20
351.3084031707
  0
VERTEX
  8
0
 62
7
  6
CONTINUOUS
 10
385.8446174134
 20
351.3033232291
  0
VERTEX
  8
0
 62
7
  6
CONTINUOUS
 10
385.8435163844
 20
351.2982993342
  0
VERTEX
  8
0
 62
7
  6
CONTINUOUS
 10
385.8424943975
 20
351.2933340935
  0
VERTEX
  8
0
 62
7
  6
CONTINUOUS
 10
385.8415488822
 20
351.288429006
  0
VERTEX
  8
0
 62
7
  6
CONTINUOUS
 10
385.840677114
 20
351.2835845768
  0
VERTEX
  8
0
 62
7
  6
CONTINUOUS
 10
385.8398763762
 20
351.2788009624
  0
VERTEX
  8
0
 62
7
  6
CONTINUOUS
 10
385.8391443341
 20
351.2740803892
  0
VERTEX
  8
0
 62
7
  6
CONTINUOUS
 10
385.8384797647
 20
351.2694334512
  0
VERTEX
  8
0
 62
7
  6
CONTINUOUS
 10
385.8378837105
 20
351.2648922498
  0
VERTEX
  8
0
 62
7
  6
CONTINUOUS
 10
385.8373564116
 20
351.260494007
  0
VERTEX
  8
0
 62
7
  6
CONTINUOUS
 10
385.8368935346
 20
351.2562463664
  0
VERTEX
  8
0
 62
7
  6
CONTINUOUS
 10
385.8364928652
 20
351.2521814159
  0
VERTEX
  8
0
 62
7
  6
CONTINUOUS
 10
385.8361576878
 20
351.2484098787
  0
VERTEX
  8
0
 62
7
  6
CONTINUOUS
 10
385.8358865447
 20
351.2450278283
  0
VERTEX
  8
0
 62
7
  6
CONTINUOUS
 10
385.8356670355
 20
351.2420040697
  0
VERTEX
  8
0
 62
7
  6
CONTINUOUS
 10
385.8354868642
 20
351.2392782273
  0
VERTEX
  8
0
 62
7
  6
CONTINUOUS
 10
385.8353339461
 20
351.236754576
  0
VERTEX
  8
0
 62
7
  6
CONTINUOUS
 10
385.8350839293
 20
351.2321484695
  0
SEQEND
  0
LINE
  8
0
 62
7
  6
CONTINUOUS
 10
386.0375410284
 20
341.3287041704
 11
393.9375410284
 21
341.3287041704
  0
LINE
  8
0
 62
7
  6
CONTINUOUS
 10
393.9375410284
 20
341.3432185301
 11
386.0375410284
 21
341.3432185301
  0
LINE
  8
0
 62
7
  6
CONTINUOUS
 10
393.9375410284
 20
347.9562695974
 11
402.8403847766
 21
347.9562695974
  0
LINE
  8
0
 62
7
  6
CONTINUOUS
 10
386.2347947782
 20
351.6152098436
 11
402.8402872787
 21
351.6152098436
  0
ARC
  8
0
 62
7
  6
CONTINUOUS
 10
85.7251579885
 20
148.2691310505
 40
8.5
 50
315.0
 51
8.1727045102
  0
ARC
  8
0
 62
7
  6
CONTINUOUS
 10
121.6447475159
 20
112.3490653737
 40
8.5
 50
337.5
 51
30.6727045102
  0
ARC
  8
0
 62
7
  6
CONTINUOUS
 10
121.6461824728
 20
112.3481065662
 40
8.5
 50
81.8272954898
 51
135.0
  0
ARC
  8
0
 62
7
  6
CONTINUOUS
 10
85.7261167961
 20
148.2676960935
 40
8.5
 50
59.3272954898
 51
112.5
  0
ARC
  8
0
 62
7
  6
CONTINUOUS
 10
92.1591444205
 20
149.193154098
 40
2.0
 50
8.1727045102
 51
15.6314785706
  0
ARC
  8
0
 62
7
  6
CONTINUOUS
 10
122.5702055204
 20
118.7820929982
 40
2.0
 50
74.3685214294
 51
81.8272954898
  0
ARC
  8
0
 62
7
  6
CONTINUOUS
 10
98.9596274592
 20
136.3290133522
 40
1.0
 50
246.5610436849
 51
298.53
  0
ARC
  8
0
 62
7
  6
CONTINUOUS
 10
109.7060647746
 20
125.5825760369
 40
1.0
 50
151.47
 51
203.4389563151
  0
ARC
  8
0
 62
7
  6
CONTINUOUS
 10
106.3709082322
 20
138.6507110594
 40
0.5
 50
45.0
 51
118.53
  0
ARC
  8
0
 62
7
  6
CONTINUOUS
 10
90.0907460572
 20
139.9067970578
 40
0.5
 50
135.0
 51
243.508015808
  0
ARC
  8
0
 62
7
  6
CONTINUOUS
 10
112.0277624817
 20
132.9938568099
 40
0.5
 50
331.47
 51
45.0
  0
ARC
  8
0
 62
7
  6
CONTINUOUS
 10
113.2838484801
 20
116.7136946348
 40
0.5
 50
206.491984192
 51
315.0
  0
ARC
  8
0
 62
7
  6
CONTINUOUS
 10
114.0165003038
 20
196.7837273077
 40
180.0
 50
333.508015808
 51
336.5610436849
  0
ARC
  8
0
 62
7
  6
CONTINUOUS
 10
120.5961351204
 20
180.899083698
 40
180.0
 50
68.4389563151
 51
71.491984192
  0
ARC
  8
0
 62
7
  6
CONTINUOUS
 10
110.9893227598
 20
212.0023765243
 40
180.0
 50
45.9389563151
 51
48.991984192
  0
ARC
  8
0
 62
7
  6
CONTINUOUS
 10
66.2857984319
 20
195.2007763451
 40
8.5
 50
292.5
 51
345.6727045102
  0
ARC
  8
0
 62
7
  6
CONTINUOUS
 10
66.2861351204
 20
195.199083698
 40
8.5
 50
36.8272954898
 51
90.0
  0
ARC
  8
0
 62
7
  6
CONTINUOUS
 10
72.5836351204
 20
193.5922823147
 40
2.0
 50
345.6727045102
 51
353.1314785706
  0
ARC
  8
0
 62
7
  6
CONTINUOUS
 10
89.0419827889
 20
153.8583161591
 40
2.0
 50
51.8685214294
 51
59.3272954898
  0
ARC
  8
0
 62
7
  6
CONTINUOUS
 10
71.4890335194
 20
199.0952161713
 40
2.0
 50
29.3685214294
 51
36.8272954898
  0
CIRCLE
  8
0
 62
7
  6
CONTINUOUS
 10
123.6009791694
 20
155.7931007557
 40
1.9125
  0
ARC
  8
0
 62
7
  6
CONTINUOUS
 10
73.943568676
 20
179.1049337854
 40
1.0
 50
224.0610436849
 51
276.03
  0
ARC
  8
0
 62
7
  6
CONTINUOUS
 10
79.7594986415
 20
165.0640367848
 40
1.0
 50
128.97
 51
180.9389563151
  0
ARC
  8
0
 62
7
  6
CONTINUOUS
 10
67.2013800359
 20
213.0002049988
 40
1.0
 50
106.47
 51
158.4389563151
  0
ARC
  8
0
 62
7
  6
CONTINUOUS
 10
81.6791745393
 20
178.4137284132
 40
0.5
 50
22.5
 51
96.03
  0
ARC
  8
0
 62
7
  6
CONTINUOUS
 10
67.118949221
 20
185.8043488988
 40
0.5
 50
112.5
 51
221.008015808
  0
ARC
  8
0
 62
7
  6
CONTINUOUS
 10
84.7406419982
 20
171.0226921532
 40
0.5
 50
308.97
 51
22.5
  0
ARC
  8
0
 62
7
  6
CONTINUOUS
 10
79.6709658026
 20
155.5011002325
 40
0.5
 50
183.991984192
 51
292.5
  0
ARC
  8
0
 62
7
  6
CONTINUOUS
 10
74.0836351204
 20
216.599083698
 40
0.5
 50
286.47
 51
360.0
  0
ARC
  8
0
 62
7
  6
CONTINUOUS
 10
63.4600089748
 20
204.199083698
 40
0.5
 50
161.491984192
 51
270.0
  0
ARC
  8
0
 62
7
  6
CONTINUOUS
 10
154.2761351204
 20
147.219083698
 40
180.0
 50
18.508015808
 51
21.5610436849
  0
ARC
  8
0
 62
7
  6
CONTINUOUS
 10
185.3794279466
 20
137.6122713375
 40
180.0
 50
41.008015808
 51
44.0610436849
  0
ARC
  8
0
 62
7
  6
CONTINUOUS
 10
170.16077873
 20
140.6394488815
 40
180.0
 50
113.4389563151
 51
116.491984192
  0
ARC
  8
0
 62
7
  6
CONTINUOUS
 10
168.5761351204
 20
92.909083698
 40
8.5
 50
0.0
 51
53.1727045102
  0
ARC
  8
0
 62
7
  6
CONTINUOUS
 10
168.5778277674
 20
92.9087470096
 40
8.5
 50
104.3272954898
 51
157.5
  0
ARC
  8
0
 62
7
  6
CONTINUOUS
 10
127.2353675814
 20
115.6649313666
 40
2.0
 50
30.6727045102
 51
38.1314785706
  0
ARC
  8
0
 62
7
  6
CONTINUOUS
 10
172.4722675936
 20
98.1119820971
 40
2.0
 50
53.1727045102
 51
60.6314785706
  0
ARC
  8
0
 62
7
  6
CONTINUOUS
 10
166.9693337371
 20
99.206583698
 40
2.0
 50
96.8685214294
 51
104.3272954898
  0
ARC
  8
0
 62
7
  6
CONTINUOUS
 10
132.3517791399
 20
152.8228987213
 40
1.5
 50
315.0
 51
45.0
  0
ARC
  8
0
 62
7
  6
CONTINUOUS
 10
132.1909103787
 20
153.1958995169
 40
1.35
 50
45.0
 51
101.2510114041
  0
ARC
  8
0
 62
7
  6
CONTINUOUS
 10
138.4410882071
 20
106.3824472192
 40
1.0
 50
269.0610436849
 51
321.03
  0
ARC
  8
0
 62
7
  6
CONTINUOUS
 10
186.3772564211
 20
93.8243286136
 40
1.0
 50
291.5610436849
 51
343.53
  0
ARC
  8
0
 62
7
  6
CONTINUOUS
 10
152.4819852077
 20
100.5665172537
 40
1.0
 50
173.97
 51
225.9389563151
  0
ARC
  8
0
 62
7
  6
CONTINUOUS
 10
131.6093170197
 20
153.1410967728
 40
0.75
 50
45.0
 51
135.0
  0
ARC
  8
0
 62
7
  6
CONTINUOUS
 10
144.3997435755
 20
111.3635905759
 40
0.5
 50
67.5
 51
141.03
  0
ARC
  8
0
 62
7
  6
CONTINUOUS
 10
128.8781516548
 20
106.2939143803
 40
0.5
 50
157.5
 51
266.008015808
  0
ARC
  8
0
 62
7
  6
CONTINUOUS
 10
189.9761351204
 20
100.706583698
 40
0.5
 50
90.0
 51
163.53
  0
ARC
  8
0
 62
7
  6
CONTINUOUS
 10
177.5761351204
 20
90.0829575525
 40
0.5
 50
180.0
 51
288.508015808
  0
ARC
  8
0
 62
7
  6
CONTINUOUS
 10
151.7907798356
 20
108.302123117
 40
0.5
 50
353.97
 51
67.5
  0
ARC
  8
0
 62
7
  6
CONTINUOUS
 10
159.1814003212
 20
93.7418977987
 40
0.5
 50
228.991984192
 51
337.5
  0
ARC
  8
0
 62
7
  6
CONTINUOUS
 10
132.2987461314
 20
152.9819977471
 40
0.375
 50
315.0
 51
45.0
  0
ARC
  8
0
 62
7
  6
CONTINUOUS
 10
129.2168074127
 20
167.9973358672
 40
180.0
 50
356.008015808
 51
359.0610436849
  0
ARC
  8
0
 62
7
  6
CONTINUOUS
 10
141.3743872896
 20
155.8397559904
 40
180.0
 50
90.9389563151
 51
93.991984192
  0
ARC
  8
0
 62
7
  6
CONTINUOUS
 10
183.9720996947
 20
190.1566112398
 40
3.0
 50
225.0
 51
267.8334280661
  0
ARC
  8
0
 62
7
  6
CONTINUOUS
 10
183.7452708778
 20
184.1609003823
 40
3.0
 50
45.0
 51
87.8334280661
  0
ARC
  8
0
 62
7
  6
CONTINUOUS
 10
187.9879115649
 20
179.9182596951
 40
3.0
 50
3.5903778905
 51
45.0
  0
ARC
  8
0
 62
7
  6
CONTINUOUS
 10
153.2953111175
 20
214.6108601426
 40
3.0
 50
45.0
 51
86.4096221093
  0
ARC
  8
0
 62
7
  6
CONTINUOUS
 10
157.5379518046
 20
210.3682194555
 40
3.0
 50
2.1665719339
 51
45.0
  0
ARC
  8
0
 62
7
  6
CONTINUOUS
 10
163.5336626622
 20
210.5950482723
 40
3.0
 50
182.1665719339
 51
225.0
  0
ARC
  8
0
 62
7
  6
CONTINUOUS
 10
127.8970064185
 20
156.6412753397
 40
1.5
 50
135.0
 51
225.0
  0
ARC
  8
0
 62
7
  6
CONTINUOUS
 10
128.0578751797
 20
156.2682745441
 40
1.35
 50
225.0
 51
281.2510114041
  0
ARC
  8
0
 62
7
  6
CONTINUOUS
 10
128.6394685387
 20
156.3230772882
 40
0.75
 50
225.0
 51
315.0
  0
ARC
  8
0
 62
7
  6
CONTINUOUS
 10
127.9500394271
 20
156.4821763139
 40
0.375
 50
135.0
 51
225.0
  0
ARC
  8
0
 62
7
  6
CONTINUOUS
 10
120.5961351204
 20
260.299083698
 40
180.0
 50
288.508015808
 51
291.5610436849
  0
ARC
  8
0
 62
7
  6
CONTINUOUS
 10
110.9893227598
 20
229.1957908718
 40
180.0
 50
311.008015808
 51
314.0610436849
  0
ARC
  8
0
 62
7
  6
CONTINUOUS
 10
114.0165003038
 20
244.4144400884
 40
180.0
 50
23.4389563151
 51
26.491984192
  0
ARC
  8
0
 62
7
  6
CONTINUOUS
 10
66.2861351204
 20
245.999083698
 40
8.5
 50
270.0
 51
323.1727045102
  0
ARC
  8
0
 62
7
  6
CONTINUOUS
 10
66.2857984319
 20
245.9973910509
 40
8.5
 50
14.3272954898
 51
67.5
  0
ARC
  8
0
 62
7
  6
CONTINUOUS
 10
71.4890335194
 20
242.1029512248
 40
2.0
 50
323.1727045102
 51
330.6314785706
  0
ARC
  8
0
 62
7
  6
CONTINUOUS
 10
72.5836351204
 20
247.6058850813
 40
2.0
 50
6.8685214294
 51
14.3272954898
  0
ARC
  8
0
 62
7
  6
CONTINUOUS
 10
79.7594986415
 20
276.1341306113
 40
1.0
 50
179.0610436849
 51
231.03
  0
ARC
  8
0
 62
7
  6
CONTINUOUS
 10
67.2013800359
 20
228.1979623973
 40
1.0
 50
201.5610436849
 51
253.53
  0
ARC
  8
0
 62
7
  6
CONTINUOUS
 10
73.943568676
 20
262.0932336107
 40
1.0
 50
83.97
 51
135.9389563151
  0
ARC
  8
0
 62
7
  6
CONTINUOUS
 10
84.7406419982
 20
270.1754752429
 40
0.5
 50
337.5
 51
51.03
  0
ARC
  8
0
 62
7
  6
CONTINUOUS
 10
79.6709658026
 20
285.6970671636
 40
0.5
 50
67.5
 51
176.008015808
  0
ARC
  8
0
 62
7
  6
CONTINUOUS
 10
74.0836351204
 20
224.599083698
 40
0.5
 50
0.0
 51
73.53
  0
ARC
  8
0
 62
7
  6
CONTINUOUS
 10
63.4600089748
 20
236.999083698
 40
0.5
 50
90.0
 51
198.508015808
  0
ARC
  8
0
 62
7
  6
CONTINUOUS
 10
81.6791745393
 20
262.7844389828
 40
0.5
 50
263.97
 51
337.5
  0
ARC
  8
0
 62
7
  6
CONTINUOUS
 10
67.118949221
 20
255.3938184972
 40
0.5
 50
138.991984192
 51
247.5
  0
ARC
  8
0
 62
7
  6
CONTINUOUS
 10
121.6461824728
 20
328.8500608299
 40
8.5
 50
225.0
 51
278.1727045102
  0
ARC
  8
0
 62
7
  6
CONTINUOUS
 10
85.7261167961
 20
292.9304713025
 40
8.5
 50
247.5
 51
300.6727045102
  0
ARC
  8
0
 62
7
  6
CONTINUOUS
 10
85.7251579885
 20
292.9290363456
 40
8.5
 50
351.8272954898
 51
45.0
  0
ARC
  8
0
 62
7
  6
CONTINUOUS
 10
121.6447475159
 20
328.8491020223
 40
8.5
 50
329.3272954898
 51
22.5
  0
ARC
  8
0
 62
7
  6
CONTINUOUS
 10
122.5702055204
 20
322.4160743978
 40
2.0
 50
278.1727045102
 51
285.6314785706
  0
ARC
  8
0
 62
7
  6
CONTINUOUS
 10
89.0419827889
 20
287.3398512369
 40
2.0
 50
300.6727045102
 51
308.1314785706
  0
ARC
  8
0
 62
7
  6
CONTINUOUS
 10
92.1591444205
 20
292.005013298
 40
2.0
 50
344.3685214294
 51
351.8272954898
  0
ARC
  8
0
 62
7
  6
CONTINUOUS
 10
109.7060647746
 20
315.6155913591
 40
1.0
 50
156.5610436849
 51
208.53
  0
ARC
  8
0
 62
7
  6
CONTINUOUS
 10
98.9596274592
 20
304.8691540438
 40
1.0
 50
61.47
 51
113.4389563151
  0
ARC
  8
0
 62
7
  6
CONTINUOUS
 10
112.0277624817
 20
308.2043105862
 40
0.5
 50
315.0
 51
28.53
  0
ARC
  8
0
 62
7
  6
CONTINUOUS
 10
113.2838484801
 20
324.4844727612
 40
0.5
 50
45.0
 51
153.508015808
  0
ARC
  8
0
 62
7
  6
CONTINUOUS
 10
106.3709082322
 20
302.5474563367
 40
0.5
 50
241.47
 51
315.0
  0
ARC
  8
0
 62
7
  6
CONTINUOUS
 10
90.0907460572
 20
301.2913703383
 40
0.5
 50
116.4919841921
 51
225.0
  0
ARC
  8
0
 62
7
  6
CONTINUOUS
 10
141.3743872896
 20
285.3584114057
 40
180.0
 50
266.008015808
 51
269.0610436849
  0
ARC
  8
0
 62
7
  6
CONTINUOUS
 10
129.2168074127
 20
273.2008315288
 40
180.0
 50
0.9389563151
 51
3.991984192
  0
ARC
  8
0
 62
7
  6
CONTINUOUS
 10
145.1857672185
 20
220.599083698
 40
8.0
 50
135.0
 51
225.0
  0
ARC
  8
0
 62
7
  6
CONTINUOUS
 10
187.9879115649
 20
261.2799077009
 40
3.0
 50
315.0
 51
356.4096221085
  0
ARC
  8
0
 62
7
  6
CONTINUOUS
 10
183.7452708778
 20
257.0372670138
 40
3.0
 50
272.1665719339
 51
315.0
  0
ARC
  8
0
 62
7
  6
CONTINUOUS
 10
183.9720996947
 20
251.0415561562
 40
3.0
 50
92.1665719339
 51
135.0
  0
ARC
  8
0
 62
7
  6
CONTINUOUS
 10
163.5336626622
 20
230.6031191237
 40
3.0
 50
135.0
 51
177.8334280661
  0
ARC
  8
0
 62
7
  6
CONTINUOUS
 10
157.5379518046
 20
230.8299479406
 40
3.0
 50
315.0
 51
357.8334280661
  0
ARC
  8
0
 62
7
  6
CONTINUOUS
 10
153.2953111175
 20
226.5873072535
 40
3.0
 50
273.5903778913
 51
315.0
  0
ARC
  8
0
 62
7
  6
CONTINUOUS
 10
153.6710485927
 20
220.599083698
 40
3.0
 50
93.5903778902
 51
266.4096221093
  0
ARC
  8
0
 62
7
  6
CONTINUOUS
 10
189.1477079956
 20
273.0463058494
 40
2.0
 50
90.0
 51
135.0
  0
ARC
  8
0
 62
7
  6
CONTINUOUS
 10
190.1212909721
 20
277.0463058494
 40
2.0
 50
270.0
 51
315.0
  0
ARC
  8
0
 62
7
  6
CONTINUOUS
 10
170.16077873
 20
300.5587185146
 40
180.0
 50
243.508015808
 51
246.5610436849
  0
ARC
  8
0
 62
7
  6
CONTINUOUS
 10
185.3794279466
 20
303.5858960586
 40
180.0
 50
315.9389563151
 51
318.991984192
  0
ARC
  8
0
 62
7
  6
CONTINUOUS
 10
154.2761351204
 20
293.979083698
 40
180.0
 50
338.4389563151
 51
341.491984192
  0
ARC
  8
0
 62
7
  6
CONTINUOUS
 10
168.5778277674
 20
348.2894203865
 40
8.5
 50
202.5
 51
255.6727045102
  0
ARC
  8
0
 62
7
  6
CONTINUOUS
 10
168.5761351204
 20
348.289083698
 40
8.5
 50
306.8272954898
 51
360.0
  0
ARC
  8
0
 62
7
  6
CONTINUOUS
 10
166.9693337371
 20
341.991583698
 40
2.0
 50
255.6727045102
 51
263.1314785706
  0
ARC
  8
0
 62
7
  6
CONTINUOUS
 10
127.2353675814
 20
325.5332360295
 40
2.0
 50
321.8685214294
 51
329.3272954898
  0
ARC
  8
0
 62
7
  6
CONTINUOUS
 10
172.4722675936
 20
343.086185299
 40
2.0
 50
299.3685214294
 51
306.8272954898
  0
ARC
  8
0
 62
7
  6
CONTINUOUS
 10
152.4819852077
 20
340.6316501424
 40
1.0
 50
134.0610436849
 51
186.03
  0
ARC
  8
0
 62
7
  6
CONTINUOUS
 10
138.4410882071
 20
334.8157201769
 40
1.0
 50
38.97
 51
90.9389563151
  0
ARC
  8
0
 62
7
  6
CONTINUOUS
 10
186.3772564211
 20
347.3738387824
 40
1.0
 50
16.47
 51
68.4389563151
  0
ARC
  8
0
 62
7
  6
CONTINUOUS
 10
151.7907798356
 20
332.8960442791
 40
0.5
 50
292.5
 51
6.03
  0
ARC
  8
0
 62
7
  6
CONTINUOUS
 10
159.1814003212
 20
347.4562695974
 40
0.5
 50
22.5
 51
131.008015808
  0
ARC
  8
0
 62
7
  6
CONTINUOUS
 10
144.3997435755
 20
329.8345768202
 40
0.5
 50
218.97
 51
292.5
  0
ARC
  8
0
 62
7
  6
CONTINUOUS
 10
128.8781516548
 20
334.9042530158
 40
0.5
 50
93.991984192
 51
202.5
  0
ARC
  8
0
 62
7
  6
CONTINUOUS
 10
189.9761351204
 20
340.491583698
 40
0.5
 50
196.4699999999
 51
270.0
  0
ARC
  8
0
 62
7
  6
CONTINUOUS
 10
177.5761351204
 20
351.1152098436
 40
0.5
 50
71.4919841919
 51
180.0
  0
ARC
  8
0
 62
7
  6
CONTINUOUS
 10
217.7914915107
 20
140.6394488815
 40
180.0
 50
63.508015808
 51
66.5610436849
  0
ARC
  8
0
 62
7
  6
CONTINUOUS
 10
233.6761351204
 20
147.219083698
 40
180.0
 50
158.4389563151
 51
161.491984192
  0
ARC
  8
0
 62
7
  6
CONTINUOUS
 10
202.5728422941
 20
137.6122713375
 40
180.0
 50
135.9389563151
 51
138.991984192
  0
ARC
  8
0
 62
7
  6
CONTINUOUS
 10
219.3744424733
 20
92.9087470096
 40
8.5
 50
22.5
 51
75.6727045102
  0
ARC
  8
0
 62
7
  6
CONTINUOUS
 10
219.3761351204
 20
92.909083698
 40
8.5
 50
126.8272954898
 51
180.0
  0
ARC
  8
0
 62
7
  6
CONTINUOUS
 10
220.9829365036
 20
99.206583698
 40
2.0
 50
75.6727045102
 51
83.1314785706
  0
ARC
  8
0
 62
7
  6
CONTINUOUS
 10
215.4800026471
 20
98.1119820971
 40
2.0
 50
119.3685214294
 51
126.8272954898
  0
ARC
  8
0
 62
7
  6
CONTINUOUS
 10
235.470285033
 20
100.5665172537
 40
1.0
 50
314.0610436849
 51
6.03
  0
ARC
  8
0
 62
7
  6
CONTINUOUS
 10
249.5111820336
 20
106.3824472192
 40
1.0
 50
218.97
 51
270.9389563151
  0
ARC
  8
0
 62
7
  6
CONTINUOUS
 10
201.5750138196
 20
93.8243286136
 40
1.0
 50
196.47
 51
248.4389563151
  0
ARC
  8
0
 62
7
  6
CONTINUOUS
 10
236.1614904051
 20
108.302123117
 40
0.5
 50
112.5
 51
186.03
  0
ARC
  8
0
 62
7
  6
CONTINUOUS
 10
228.7708699195
 20
93.7418977987
 40
0.5
 50
202.5
 51
311.008015808
  0
ARC
  8
0
 62
7
  6
CONTINUOUS
 10
243.5525266652
 20
111.3635905759
 40
0.5
 50
38.97
 51
112.5
  0
ARC
  8
0
 62
7
  6
CONTINUOUS
 10
259.0741185859
 20
106.2939143803
 40
0.5
 50
273.991984192
 51
22.5
  0
ARC
  8
0
 62
7
  6
CONTINUOUS
 10
197.9761351204
 20
100.706583698
 40
0.5
 50
16.47
 51
90.0
  0
ARC
  8
0
 62
7
  6
CONTINUOUS
 10
210.3761351204
 20
90.0829575525
 40
0.5
 50
251.491984192
 51
360.0
  0
ARC
  8
0
 62
7
  6
CONTINUOUS
 10
246.5778829511
 20
155.8397559904
 40
180.0
 50
86.008015808
 51
89.0610436849
  0
ARC
  8
0
 62
7
  6
CONTINUOUS
 10
258.735462828
 20
167.9973358672
 40
180.0
 50
180.9389563151
 51
183.991984192
  0
ARC
  8
0
 62
7
  6
CONTINUOUS
 10
193.9761351204
 20
171.8087157962
 40
8.0
 50
225.0
 51
315.0
  0
ARC
  8
0
 62
7
  6
CONTINUOUS
 10
193.9761351204
 20
180.2939971704
 40
3.0
 50
183.5903778909
 51
356.4096221097
  0
ARC
  8
0
 62
7
  6
CONTINUOUS
 10
199.9643586758
 20
179.9182596951
 40
3.0
 50
135.0
 51
176.4096221088
  0
ARC
  8
0
 62
7
  6
CONTINUOUS
 10
204.2069993629
 20
184.1609003823
 40
3.0
 50
92.1665719339
 51
135.0
  0
ARC
  8
0
 62
7
  6
CONTINUOUS
 10
203.980170546
 20
190.1566112398
 40
3.0
 50
272.1665719339
 51
315.0
  0
ARC
  8
0
 62
7
  6
CONTINUOUS
 10
224.4186075785
 20
210.5950482723
 40
3.0
 50
315.0
 51
357.8334280661
  0
ARC
  8
0
 62
7
  6
CONTINUOUS
 10
230.4143184361
 20
210.3682194555
 40
3.0
 50
135.0
 51
177.8334280661
  0
ARC
  8
0
 62
7
  6
CONTINUOUS
 10
234.6569591232
 20
214.6108601426
 40
3.0
 50
93.5903778909
 51
135.0
  0
ARC
  8
0
 62
7
  6
CONTINUOUS
 10
266.3060877679
 20
112.3481065662
 40
8.5
 50
45.0
 51
98.1727045102
  0
ARC
  8
0
 62
7
  6
CONTINUOUS
 10
302.2261534446
 20
148.2676960935
 40
8.5
 50
67.5
 51
120.6727045102
  0
ARC
  8
0
 62
7
  6
CONTINUOUS
 10
302.2271122522
 20
148.2691310505
 40
8.5
 50
171.8272954898
 51
225.0
  0
ARC
  8
0
 62
7
  6
CONTINUOUS
 10
266.3075227248
 20
112.3490653737
 40
8.5
 50
149.3272954898
 51
202.5
  0
ARC
  8
0
 62
7
  6
CONTINUOUS
 10
265.3820647203
 20
118.7820929982
 40
2.0
 50
98.1727045102
 51
105.6314785706
  0
ARC
  8
0
 62
7
  6
CONTINUOUS
 10
295.7931258202
 20
149.193154098
 40
2.0
 50
164.3685214294
 51
171.8272954898
  0
ARC
  8
0
 62
7
  6
CONTINUOUS
 10
260.7169026593
 20
115.6649313666
 40
2.0
 50
141.8685214294
 51
149.3272954898
  0
ARC
  8
0
 62
7
  6
CONTINUOUS
 10
278.2462054661
 20
125.5825760369
 40
1.0
 50
336.5610436849
 51
28.53
  0
ARC
  8
0
 62
7
  6
CONTINUOUS
 10
288.9926427815
 20
136.3290133522
 40
1.0
 50
241.47
 51
293.4389563151
  0
ARC
  8
0
 62
7
  6
CONTINUOUS
 10
275.924507759
 20
132.9938568099
 40
0.5
 50
135.0
 51
208.53
  0
ARC
  8
0
 62
7
  6
CONTINUOUS
 10
274.6684217606
 20
116.7136946348
 40
0.5
 50
225.0
 51
333.508015808
  0
ARC
  8
0
 62
7
  6
CONTINUOUS
 10
281.5813620085
 20
138.6507110594
 40
0.5
 50
61.47
 51
135.0
  0
ARC
  8
0
 62
7
  6
CONTINUOUS
 10
297.8615241835
 20
139.9067970578
 40
0.5
 50
296.491984192
 51
45.0
  0
ARC
  8
0
 62
7
  6
CONTINUOUS
 10
267.3561351204
 20
180.899083698
 40
180.0
 50
108.508015808
 51
111.5610436849
  0
ARC
  8
0
 62
7
  6
CONTINUOUS
 10
276.9629474809
 20
212.0023765243
 40
180.0
 50
131.008015808
 51
134.0610436849
  0
ARC
  8
0
 62
7
  6
CONTINUOUS
 10
273.9357699369
 20
196.7837273077
 40
180.0
 50
203.4389563151
 51
206.491984192
  0
ARC
  8
0
 62
7
  6
CONTINUOUS
 10
321.6661351203
 20
195.199083698
 40
8.5
 50
90.0
 51
143.1727045102
  0
ARC
  8
0
 62
7
  6
CONTINUOUS
 10
321.6664718088
 20
195.2007763451
 40
8.5
 50
194.3272954898
 51
247.5
  0
ARC
  8
0
 62
7
  6
CONTINUOUS
 10
316.4632367213
 20
199.0952161713
 40
2.0
 50
143.1727045102
 51
150.6314785706
  0
ARC
  8
0
 62
7
  6
CONTINUOUS
 10
298.9102874518
 20
153.8583161591
 40
2.0
 50
120.6727045102
 51
128.1314785706
  0
ARC
  8
0
 62
7
  6
CONTINUOUS
 10
315.3686351204
 20
193.5922823147
 40
2.0
 50
186.8685214294
 51
194.3272954898
  0
ARC
  8
0
 62
7
  6
CONTINUOUS
 10
320.7508902048
 20
213.0002049988
 40
1.0
 50
21.5610436849
 51
73.53
  0
ARC
  8
0
 62
7
  6
CONTINUOUS
 10
308.1927715992
 20
165.0640367848
 40
1.0
 50
359.0610436849
 51
51.03
  0
ARC
  8
0
 62
7
  6
CONTINUOUS
 10
314.0087015647
 20
179.1049337854
 40
1.0
 50
263.97
 51
315.9389563151
  0
ARC
  8
0
 62
7
  6
CONTINUOUS
 10
313.8686351204
 20
216.599083698
 40
0.5
 50
180.0
 51
253.53
  0
ARC
  8
0
 62
7
  6
CONTINUOUS
 10
324.4922612659
 20
204.199083698
 40
0.5
 50
270.0
 51
18.508015808
  0
ARC
  8
0
 62
7
  6
CONTINUOUS
 10
303.2116282425
 20
171.0226921532
 40
0.5
 50
157.5
 51
231.03
  0
ARC
  8
0
 62
7
  6
CONTINUOUS
 10
308.2813044381
 20
155.5011002325
 40
0.5
 50
247.5
 51
356.008015808
  0
ARC
  8
0
 62
7
  6
CONTINUOUS
 10
320.8333210197
 20
185.8043488988
 40
0.5
 50
318.991984192
 51
67.5
  0
ARC
  8
0
 62
7
  6
CONTINUOUS
 10
306.2730957014
 20
178.4137284132
 40
0.5
 50
83.97
 51
157.5
  0
ARC
  8
0
 62
7
  6
CONTINUOUS
 10
193.9761351204
 20
220.599083698
 40
126.0
 50
149.7623254962
 51
154.4557139428
  0
ARC
  8
0
 62
7
  6
CONTINUOUS
 10
193.9761351204
 20
220.599083698
 40
126.0
 50
172.2623254962
 51
176.9557139428
  0
ARC
  8
0
 62
7
  6
CONTINUOUS
 10
193.9761351204
 20
220.599083698
 40
126.0
 50
194.7623254962
 51
199.4557139428
  0
ARC
  8
0
 62
7
  6
CONTINUOUS
 10
193.9761351204
 20
220.599083698
 40
126.0
 50
217.2623254903
 51
221.9557139428
  0
ARC
  8
0
 62
7
  6
CONTINUOUS
 10
193.9761351204
 20
220.599083698
 40
126.0
 50
239.7623254962
 51
244.4557139428
  0
ARC
  8
0
 62
7
  6
CONTINUOUS
 10
193.9761351204
 20
220.599083698
 40
126.0
 50
262.2623254962
 51
266.9557139428
  0
ARC
  8
0
 62
7
  6
CONTINUOUS
 10
193.9761351204
 20
220.599083698
 40
126.0
 50
284.7623254962
 51
289.4557139428
  0
ARC
  8
0
 62
7
  6
CONTINUOUS
 10
193.9761351204
 20
220.599083698
 40
126.0
 50
307.2623254903
 51
311.9557139428
  0
ARC
  8
0
 62
7
  6
CONTINUOUS
 10
193.9761351204
 20
220.599083698
 40
126.0
 50
329.7623254962
 51
334.4557139428
  0
ARC
  8
0
 62
7
  6
CONTINUOUS
 10
193.9761351204
 20
220.599083698
 40
126.0
 50
352.2623254965
 51
356.9557139428
  0
ARC
  8
0
 62
7
  6
CONTINUOUS
 10
193.9761351204
 20
220.599083698
 40
126.0
 50
14.7623254962
 51
19.4557139428
  0
ARC
  8
0
 62
7
  6
CONTINUOUS
 10
193.9761351204
 20
220.599083698
 40
126.0
 50
37.2623254903
 51
41.9557139428
  0
ARC
  8
0
 62
7
  6
CONTINUOUS
 10
193.9761351204
 20
220.599083698
 40
126.0
 50
59.7623254962
 51
64.4557139428
  0
ARC
  8
0
 62
7
  6
CONTINUOUS
 10
193.9761351204
 20
220.599083698
 40
126.0
 50
82.2623254962
 51
86.9557139428
  0
ARC
  8
0
 62
7
  6
CONTINUOUS
 10
193.9761351204
 20
220.599083698
 40
126.0
 50
104.7623254962
 51
109.4557139428
  0
ARC
  8
0
 62
7
  6
CONTINUOUS
 10
193.9761351204
 20
220.599083698
 40
126.0
 50
127.2623254903
 51
131.9557139428
  0
ARC
  8
0
 62
7
  6
CONTINUOUS
 10
224.4186075785
 20
230.6031191237
 40
3.0
 50
2.1665719339
 51
45.0
  0
ARC
  8
0
 62
7
  6
CONTINUOUS
 10
203.980170546
 20
251.0415561562
 40
3.0
 50
45.0
 51
87.8334280661
  0
ARC
  8
0
 62
7
  6
CONTINUOUS
 10
204.2069993629
 20
257.0372670138
 40
3.0
 50
225.0
 51
267.8334280661
  0
ARC
  8
0
 62
7
  6
CONTINUOUS
 10
199.9643586758
 20
261.2799077009
 40
3.0
 50
183.5903778903
 51
225.0
  0
ARC
  8
0
 62
7
  6
CONTINUOUS
 10
193.9761351204
 20
260.9041702257
 40
3.0
 50
3.5903778911
 51
176.4096221101
  0
ARC
  8
0
 62
7
  6
CONTINUOUS
 10
193.9761351204
 20
275.2442957481
 40
2.0
 50
45.0
 51
135.0
  0
ARC
  8
0
 62
7
  6
CONTINUOUS
 10
198.8045622451
 20
273.0463058494
 40
2.0
 50
45.0
 51
90.0
  0
ARC
  8
0
 62
7
  6
CONTINUOUS
 10
197.8309792686
 20
277.0463058494
 40
2.0
 50
225.0
 51
270.0
  0
ARC
  8
0
 62
7
  6
CONTINUOUS
 10
242.7665030222
 20
220.599083698
 40
8.0
 50
315.0
 51
45.0
  0
ARC
  8
0
 62
7
  6
CONTINUOUS
 10
234.281221648
 20
220.599083698
 40
3.0
 50
273.5903778906
 51
86.4096221095
  0
ARC
  8
0
 62
7
  6
CONTINUOUS
 10
234.6569591232
 20
226.5873072535
 40
3.0
 50
225.0
 51
266.4096221091
  0
ARC
  8
0
 62
7
  6
CONTINUOUS
 10
230.4143184361
 20
230.8299479406
 40
3.0
 50
182.1665719339
 51
225.0
  0
ARC
  8
0
 62
7
  6
CONTINUOUS
 10
258.735462828
 20
273.2008315288
 40
180.0
 50
176.008015808
 51
179.0610436849
  0
ARC
  8
0
 62
7
  6
CONTINUOUS
 10
246.5778829511
 20
285.3584114057
 40
180.0
 50
270.9389563151
 51
273.991984192
  0
ARC
  8
0
 62
7
  6
CONTINUOUS
 10
233.6761351203
 20
293.979083698
 40
180.0
 50
198.508015808
 51
201.5610436849
  0
ARC
  8
0
 62
7
  6
CONTINUOUS
 10
202.5728422941
 20
303.5858960586
 40
180.0
 50
221.008015808
 51
224.0610436849
  0
ARC
  8
0
 62
7
  6
CONTINUOUS
 10
217.7914915107
 20
300.5587185146
 40
180.0
 50
293.4389563151
 51
296.491984192
  0
ARC
  8
0
 62
7
  6
CONTINUOUS
 10
219.3761351204
 20
348.289083698
 40
8.5
 50
180.0
 51
233.1727045102
  0
ARC
  8
0
 62
7
  6
CONTINUOUS
 10
219.3744424733
 20
348.2894203865
 40
8.5
 50
284.3272954898
 51
337.5
  0
ARC
  8
0
 62
7
  6
CONTINUOUS
 10
215.4800026471
 20
343.086185299
 40
2.0
 50
233.1727045102
 51
240.6314785706
  0
ARC
  8
0
 62
7
  6
CONTINUOUS
 10
220.9829365036
 20
341.991583698
 40
2.0
 50
276.8685214294
 51
284.3272954898
  0
ARC
  8
0
 62
7
  6
CONTINUOUS
 10
249.5111820336
 20
334.8157201769
 40
1.0
 50
89.0610436849
 51
141.03
  0
ARC
  8
0
 62
7
  6
CONTINUOUS
 10
201.5750138196
 20
347.3738387824
 40
1.0
 50
111.5610436849
 51
163.53
  0
ARC
  8
0
 62
7
  6
CONTINUOUS
 10
235.470285033
 20
340.6316501424
 40
1.0
 50
353.97
 51
45.9389563151
  0
ARC
  8
0
 62
7
  6
CONTINUOUS
 10
243.5525266652
 20
329.8345768202
 40
0.5
 50
247.5
 51
321.03
  0
ARC
  8
0
 62
7
  6
CONTINUOUS
 10
259.0741185859
 20
334.9042530158
 40
0.5
 50
337.5
 51
86.008015808
  0
ARC
  8
0
 62
7
  6
CONTINUOUS
 10
197.9761351204
 20
340.491583698
 40
0.5
 50
270.0
 51
343.53
  0
ARC
  8
0
 62
7
  6
CONTINUOUS
 10
210.3761351203
 20
351.1152098436
 40
0.5
 50
0.0
 51
108.508015808
  0
ARC
  8
0
 62
7
  6
CONTINUOUS
 10
236.1614904051
 20
332.8960442791
 40
0.5
 50
173.97
 51
247.5
  0
ARC
  8
0
 62
7
  6
CONTINUOUS
 10
228.7708699195
 20
347.4562695974
 40
0.5
 50
48.991984192
 51
157.5
  0
ARC
  8
0
 62
7
  6
CONTINUOUS
 10
273.9357699369
 20
244.4144400884
 40
180.0
 50
153.508015808
 51
156.5610436849
  0
ARC
  8
0
 62
7
  6
CONTINUOUS
 10
267.3561351204
 20
260.299083698
 40
180.0
 50
248.4389563151
 51
251.491984192
  0
ARC
  8
0
 62
7
  6
CONTINUOUS
 10
276.9629474809
 20
229.1957908718
 40
180.0
 50
225.9389563151
 51
228.991984192
  0
ARC
  8
0
 62
7
  6
CONTINUOUS
 10
321.6664718088
 20
245.9973910509
 40
8.5
 50
112.5
 51
165.6727045102
  0
ARC
  8
0
 62
7
  6
CONTINUOUS
 10
321.6661351204
 20
245.999083698
 40
8.5
 50
216.8272954898
 51
270.0
  0
ARC
  8
0
 62
7
  6
CONTINUOUS
 10
315.3686351204
 20
247.6058850813
 40
2.0
 50
165.6727045102
 51
173.1314785706
  0
ARC
  8
0
 62
7
  6
CONTINUOUS
 10
316.4632367213
 20
242.1029512248
 40
2.0
 50
209.3685214294
 51
216.8272954898
  0
ARC
  8
0
 62
7
  6
CONTINUOUS
 10
314.0087015647
 20
262.0932336107
 40
1.0
 50
44.0610436849
 51
96.03
  0
ARC
  8
0
 62
7
  6
CONTINUOUS
 10
308.1927715992
 20
276.1341306113
 40
1.0
 50
308.97
 51
0.9389563151
  0
ARC
  8
0
 62
7
  6
CONTINUOUS
 10
320.7508902048
 20
228.1979623973
 40
1.0
 50
286.47
 51
338.4389563151
  0
ARC
  8
0
 62
7
  6
CONTINUOUS
 10
306.2730957014
 20
262.7844389828
 40
0.5
 50
202.5
 51
276.03
  0
ARC
  8
0
 62
7
  6
CONTINUOUS
 10
320.8333210197
 20
255.3938184972
 40
0.5
 50
292.5
 51
41.008015808
  0
ARC
  8
0
 62
7
  6
CONTINUOUS
 10
303.2116282425
 20
270.1754752429
 40
0.5
 50
128.97
 51
202.5
  0
ARC
  8
0
 62
7
  6
CONTINUOUS
 10
308.2813044381
 20
285.6970671636
 40
0.5
 50
3.991984192
 51
112.5
  0
ARC
  8
0
 62
7
  6
CONTINUOUS
 10
313.8686351204
 20
224.599083698
 40
0.5
 50
106.4699999999
 51
180.0
  0
ARC
  8
0
 62
7
  6
CONTINUOUS
 10
324.4922612659
 20
236.999083698
 40
0.5
 50
341.4919841919
 51
90.0
  0
ARC
  8
0
 62
7
  6
CONTINUOUS
 10
302.2271122522
 20
292.9290363456
 40
8.5
 50
135.0
 51
188.1727045102
  0
ARC
  8
0
 62
7
  6
CONTINUOUS
 10
266.3075227248
 20
328.8491020223
 40
8.5
 50
157.5
 51
210.6727045102
  0
ARC
  8
0
 62
7
  6
CONTINUOUS
 10
266.3060877679
 20
328.8500608299
 40
8.5
 50
261.8272954898
 51
315.0
  0
ARC
  8
0
 62
7
  6
CONTINUOUS
 10
302.2261534446
 20
292.9304713025
 40
8.5
 50
239.3272954898
 51
292.5
  0
ARC
  8
0
 62
7
  6
CONTINUOUS
 10
295.7931258202
 20
292.005013298
 40
2.0
 50
188.1727045102
 51
195.6314785706
  0
ARC
  8
0
 62
7
  6
CONTINUOUS
 10
260.7169026593
 20
325.5332360295
 40
2.0
 50
210.6727045102
 51
218.1314785706
  0
ARC
  8
0
 62
7
  6
CONTINUOUS
 10
265.3820647203
 20
322.4160743978
 40
2.0
 50
254.3685214294
 51
261.8272954898
  0
ARC
  8
0
 62
7
  6
CONTINUOUS
 10
298.9102874518
 20
287.3398512369
 40
2.0
 50
231.8685214294
 51
239.3272954898
  0
ARC
  8
0
 62
7
  6
CONTINUOUS
 10
288.9926427815
 20
304.8691540438
 40
1.0
 50
66.5610436849
 51
118.53
  0
ARC
  8
0
 62
7
  6
CONTINUOUS
 10
278.2462054661
 20
315.6155913591
 40
1.0
 50
331.47
 51
23.4389563151
  0
ARC
  8
0
 62
7
  6
CONTINUOUS
 10
281.5813620085
 20
302.5474563367
 40
0.5
 50
225.0
 51
298.53
  0
ARC
  8
0
 62
7
  6
CONTINUOUS
 10
297.8615241835
 20
301.2913703383
 40
0.5
 50
315.0
 51
63.508015808
  0
ARC
  8
0
 62
7
  6
CONTINUOUS
 10
275.924507759
 20
308.2043105862
 40
0.5
 50
151.47
 51
225.0
  0
ARC
  8
0
 62
7
  6
CONTINUOUS
 10
274.6684217606
 20
324.4844727612
 40
0.5
 50
26.491984192
 51
135.0
  0
ARC
  8
0
 62
7
  6
CONTINUOUS
 10
417.5375410284
 20
275.2442957481
 40
2.0
 50
0.0
 51
90.0
  0
ARC
  8
0
 62
7
  6
CONTINUOUS
 10
417.5375410284
 20
165.8087157962
 40
2.0
 50
270.0
 51
360.0
  0
ARC
  8
0
 62
7
  6
CONTINUOUS
 10
371.5375410284
 20
165.8087157962
 40
2.0
 50
179.9999999988
 51
270.0
  0
ARC
  8
0
 62
7
  6
CONTINUOUS
 10
371.5375410284
 20
275.2442957481
 40
2.0
 50
90.0
 51
180.0
  0
ARC
  8
0
 62
7
  6
CONTINUOUS
 10
417.5375410284
 20
273.0463058494
 40
2.0
 50
0.0
 51
90.0
  0
ARC
  8
0
 62
7
  6
CONTINUOUS
 10
371.5375410284
 20
273.0463058494
 40
2.0
 50
90.0
 51
180.0
  0
ENDSEC
  0
EOF
