  0
SECTION
  2
HEADER
  9
$EXTMAX
 10
420.0
 20
297.0
 30
0.0
  9
$EXTMIN
 10
0.0
 20
0.0
 30
0.0
  9
$LIMMIN
 10
0.0
 20
0.0
  9
$LIMMAX
 10
420.0
 20
297.0
  9
$VIEWCTR
 10
210.0
 20
148.5
  9
$VIEWSIZE
 40
297.0
  9
$CLAYER
  8
0
  9
$LTSCALE
 40
23.1
  9
$CELTYPE
  6
BYLAYER
  9
$DIMSCALE
 40
1.0
  9
$DIMASZ
 40
3.5
  9
$DIMEXO
 40
2.625
  9
$DIMDLI
 40
15.96
  9
$DIMEXE
 40
7.56
  9
$DIMCEN
 40
3.78
  9
$DIMLFAC
 40
1.0
  9
$DIMBLK
  1
_FILLED
  9
$DIMTXT
 40
3.5
  9
$PDMODE
 70
3
  9
$PDSIZE
 40
0.3125
  9
$TILEMODE
 70
1
  0
ENDSEC
  0
SECTION
  2
TABLES
  0
TABLE
  2
LTYPE
 70
6
  0
LTYPE
  2
BYBLOCK
 70
0
  3

 72
65
 73
0
 40
0.0
  0
LTYPE
  2
BYLAYER
 70
0
  3

 72
65
 73
0
 40
0.0
  0
LTYPE
  2
CONTINUOUS
 70
64
  3
Solid line
 72
65
 73
0
 40
0.0
  0
LTYPE
  2
CENTER
 70
64
  3
____ _ ____ _ ____ _ ____ _ ____ _ ____ _ ____
 72
65
 73
4
 40
0.6
 49
0.375
 49
-0.075
 49
0.075
 49
-0.075
  0
LTYPE
  2
HIDDEN
 70
64
  3
- - - - - - - - - - - - - - - - - - - -
 72
65
 73
2
 40
0.2
 49
0.1
 49
-0.1
  0
LTYPE
  2
PHANTOM
 70
64
  3
_____ _ _ _____ _ _ _____ _ _ _____
 72
65
 73
6
 40
0.8
 49
0.45
 49
-0.05
 49
0.1
 49
-0.05
 49
0.1
 49
-0.05
  0
LTYPE
  2
DOT
 70
64
  3
. . . . . . . . . . . . . . . . . . . .
 72
65
 73
2
 40
0.2
 49
0.1
 49
-0.1
  0
LTYPE
  2
DASHED
 70
64
  3
- - - - - - - - - - - - - - - - - - - -
 72
65
 73
2
 40
0.2
 49
0.1
 49
-0.1
  0
ENDTAB
  0
TABLE
  2
LAYER
 70
36
  0
LAYER
  2
0
 70
0
 62
7
  6
CONTINUOUS
  0
LAYER
  2
DEFAULT_1
 70
0
 62
7
  6
CENTER
  0
LAYER
  2
DEFAULT_2
 70
0
 62
8
  6
HIDDEN
  0
LAYER
  2
DEFAULT_3
 70
0
 62
7
  6
PHANTOM
  0
LAYER
  2
CURVE
 70
0
 62
7
  6
CONTINUOUS
  0
LAYER
  2
SURFACE
 70
0
 62
7
  6
CONTINUOUS
  0
ENDTAB
  0
TABLE
  2
STYLE
 70
1
  0
STYLE
  2
STANDARD
 70
0
 40
0.0
 41
0.8
 50
0.0
 71
0
 42
0.2
  3
txt
  4

  0
STYLE
  2
TEXTSTYLE_1
 70
0
 40
0.0
 41
0.8
 50
0.0
 71
0
 42
0.2
  3
gdt
  4

  0
STYLE
  2
TEXTSTYLE_2
 70
0
 40
0.0
 41
0.6
 50
0.0
 71
0
 42
0.2
  3
txt
  4

  0
STYLE
  2
TEXTSTYLE_3
 70
0
 40
0.0
 41
1.0
 50
0.0
 71
0
 42
0.2
  3
ftb_____.ttf
  4

  0
STYLE
  2
TEXTSTYLE_4
 70
0
 40
0.0
 41
1.0
 50
0.0
 71
0
 42
0.2
  3
fti_____.ttf
  4

  0
STYLE
  2
TEXTSTYLE_5
 70
0
 40
0.0
 41
1.0
 50
0.0
 71
0
 42
0.2
  3
frutiger light.ttf
  4

  0
STYLE
  2
TEXTSTYLE_6
 70
0
 40
0.0
 41
0.7
 50
0.0
 71
0
 42
0.2
  3
txt
  4

  0
STYLE
  2
TEXTSTYLE_7
 70
0
 40
0.0
 41
0.8
 50
0.0
 71
0
 42
0.2
  3
txt
  4

  0
ENDTAB
  0
ENDSEC
  0
SECTION
  2
BLOCKS
  0
BLOCK
  8
0
 62
2
  6
CONTINUOUS
  2
SYMBOL_5_BL1
 70
64
 10
382.7840918555
 20
35.5067593403
  0
TEXT
  8
0
 62
7
  6
CONTINUOUS
 10
373.842376864
 20
30.5995157174
  7
TEXTSTYLE_4
 40
1.0655737705
  1
The brand for plastic modular belts and chains
 41
1.0
 72
0
  0
LINE
  8
0
 62
7
  6
CONTINUOUS
 10
358.7621602445
 20
36.0805298321
 11
358.7621602445
 21
33.9493822911
  0
LINE
  8
0
 62
7
  6
CONTINUOUS
 10
359.0512227376
 20
30.9584509954
 11
359.0512227376
 21
31.0552420547
  0
LINE
  8
0
 62
7
  6
CONTINUOUS
 10
358.7621602445
 20
31.0229783683
 11
358.8199727462
 21
30.8293962497
  0
LINE
  8
0
 62
7
  6
CONTINUOUS
 10
360.1556028675
 20
33.867415078
 11
360.1556028675
 21
36.0805298321
  0
LINE
  8
0
 62
7
  6
CONTINUOUS
 10
361.0746601894
 20
32.0231527829
 11
361.0746601894
 21
30.5067593403
  0
LINE
  8
0
 62
7
  6
CONTINUOUS
 10
361.3637227445
 20
30.5067593403
 11
361.3637227445
 21
31.2488242184
  0
LINE
  8
0
 62
7
  6
CONTINUOUS
 10
361.3637227445
 20
31.3778789641
 11
361.3637227445
 21
32.0231527829
  0
LINE
  8
0
 62
7
  6
CONTINUOUS
 10
358.8199727462
 20
31.216560532
 11
358.7621602445
 21
31.0229783683
  0
LINE
  8
0
 62
7
  6
CONTINUOUS
 10
359.1668477307
 20
30.7971325633
 11
359.0512227376
 21
30.9584509954
  0
LINE
  8
0
 62
7
  6
CONTINUOUS
 10
360.2652852997
 20
31.3133515913
 11
360.3230977445
 21
31.216560532
  0
LINE
  8
0
 62
7
  6
CONTINUOUS
 10
360.6121602997
 20
31.216560532
 11
360.5543476894
 21
31.3456152777
  0
LINE
  8
0
 62
7
  6
CONTINUOUS
 10
362.0408487691
 20
36.0805298321
 11
362.0408487691
 21
34.2772511436
  0
LINE
  8
0
 62
7
  6
CONTINUOUS
 10
362.0408487691
 20
32.9657757338
 11
362.0408487691
 21
32.3100380288
  0
LINE
  8
0
 62
7
  6
CONTINUOUS
 10
362.4043477445
 20
31.1520331591
 11
362.4043477445
 21
30.5067593403
  0
LINE
  8
0
 62
7
  6
CONTINUOUS
 10
362.6934101343
 20
30.5067593403
 11
362.6934101343
 21
31.1520331591
  0
LINE
  8
0
 62
7
  6
CONTINUOUS
 10
359.0512227376
 20
31.0552420547
 11
359.1090352445
 21
31.1842968456
  0
LINE
  8
0
 62
7
  6
CONTINUOUS
 10
358.8199727462
 20
30.8293962497
 11
358.9355977445
 21
30.7003414814
  0
LINE
  8
0
 62
7
  6
CONTINUOUS
 10
362.3465351343
 20
31.2810879048
 11
362.4043477445
 21
31.1520331591
  0
LINE
  8
0
 62
7
  6
CONTINUOUS
 10
363.1559103548
 20
30.7971325633
 11
363.2137226343
 21
30.668077795
  0
LINE
  8
0
 62
7
  6
CONTINUOUS
 10
362.6934101343
 20
31.1520331591
 11
362.6355978548
 21
31.3133515913
  0
LINE
  8
0
 62
7
  6
CONTINUOUS
 10
363.1559103548
 20
31.3456152777
 11
363.1559103548
 21
31.2810879048
  0
LINE
  8
0
 62
7
  6
CONTINUOUS
 10
363.1559103548
 20
30.8939236226
 11
363.1559103548
 21
30.7971325633
  0
LINE
  8
0
 62
7
  6
CONTINUOUS
 10
363.4342913921
 20
32.3100380288
 11
363.4342913921
 21
36.0805298321
  0
LINE
  8
0
 62
7
  6
CONTINUOUS
 10
363.4449727445
 20
30.7648688543
 11
363.4449727445
 21
30.8293962497
  0
LINE
  8
0
 62
7
  6
CONTINUOUS
 10
363.7621602445
 20
36.0805298321
 11
363.7621602445
 21
32.3100380288
  0
LINE
  8
0
 62
7
  6
CONTINUOUS
 10
360.5543476894
 20
30.7003414814
 11
360.6121602997
 21
30.8293962497
  0
LINE
  8
0
 62
7
  6
CONTINUOUS
 10
364.9480979651
 20
30.6035504109
 11
364.890285024
 21
30.7648688543
  0
LINE
  8
0
 62
7
  6
CONTINUOUS
 10
364.6012229651
 20
31.2810879048
 11
364.6012229651
 21
31.1842968456
  0
LINE
  8
0
 62
7
  6
CONTINUOUS
 10
364.6012229651
 20
31.0552420547
 11
364.6012229651
 21
30.8616599362
  0
LINE
  8
0
 62
7
  6
CONTINUOUS
 10
364.890285024
 20
30.7648688543
 11
364.890285024
 21
31.2810879048
  0
LINE
  8
0
 62
7
  6
CONTINUOUS
 10
365.1556028675
 20
32.3100380288
 11
365.1556028675
 21
34.1133167174
  0
LINE
  8
0
 62
7
  6
CONTINUOUS
 10
365.1556028675
 20
35.4247921272
 11
365.1556028675
 21
36.0805298321
  0
LINE
  8
0
 62
7
  6
CONTINUOUS
 10
365.4684104651
 20
32.0231527829
 11
365.4684104651
 21
31.8618343508
  0
LINE
  8
0
 62
7
  6
CONTINUOUS
 10
365.4684104651
 20
31.5391973962
 11
365.4684104651
 21
30.5067593403
  0
LINE
  8
0
 62
7
  6
CONTINUOUS
 10
365.757472524
 20
30.5067593403
 11
365.757472524
 21
31.5391973962
  0
LINE
  8
0
 62
7
  6
CONTINUOUS
 10
365.757472524
 20
31.8618343508
 11
365.757472524
 21
32.0231527829
  0
LINE
  8
0
 62
7
  6
CONTINUOUS
 10
360.3230977445
 20
30.8293962497
 11
360.2652852997
 21
30.7326051679
  0
LINE
  8
0
 62
7
  6
CONTINUOUS
 10
362.6355978548
 20
31.3133515913
 11
362.5777852445
 21
31.3778789641
  0
LINE
  8
0
 62
7
  6
CONTINUOUS
 10
363.5027853548
 20
30.7003414814
 11
363.4449727445
 21
30.7648688543
  0
LINE
  8
0
 62
7
  6
CONTINUOUS
 10
364.6590352445
 20
30.5712867188
 11
364.716847524
 21
30.5067593403
  0
LINE
  8
0
 62
7
  6
CONTINUOUS
 10
364.6012229651
 20
30.668077795
 11
364.6590352445
 21
30.5712867188
  0
LINE
  8
0
 62
7
  6
CONTINUOUS
 10
365.0059102445
 20
30.5067593403
 11
364.9480979651
 21
30.6035504109
  0
LINE
  8
0
 62
7
  6
CONTINUOUS
 10
364.890285024
 20
31.2810879048
 11
364.8324727445
 21
31.3778789641
  0
LINE
  8
0
 62
7
  6
CONTINUOUS
 10
366.2199727445
 20
31.5391973962
 11
366.2199727445
 21
30.5067593403
  0
LINE
  8
0
 62
7
  6
CONTINUOUS
 10
366.5090354651
 20
30.5067593403
 11
366.5090354651
 21
31.2488242184
  0
LINE
  8
0
 62
7
  6
CONTINUOUS
 10
366.5090354651
 20
31.3778789641
 11
366.5090354651
 21
31.5391973962
  0
LINE
  8
0
 62
7
  6
CONTINUOUS
 10
367.0408487691
 20
34.5231527829
 11
367.0408487691
 21
32.3100380288
  0
LINE
  8
0
 62
7
  6
CONTINUOUS
 10
358.9355977445
 20
31.3456152777
 11
358.8199727462
 21
31.216560532
  0
LINE
  8
0
 62
7
  6
CONTINUOUS
 10
359.1090352445
 20
31.1842968456
 11
359.1668477307
 21
31.2488242184
  0
LINE
  8
0
 62
7
  6
CONTINUOUS
 10
358.9355977445
 20
30.7003414814
 11
359.0512227376
 21
30.6358140973
  0
LINE
  8
0
 62
7
  6
CONTINUOUS
 10
359.3402852307
 20
30.7003414814
 11
359.1668477307
 21
30.7971325633
  0
LINE
  8
0
 62
7
  6
CONTINUOUS
 10
364.543410024
 20
31.3456152777
 11
364.6012229651
 21
31.2810879048
  0
LINE
  8
0
 62
7
  6
CONTINUOUS
 10
367.491847524
 20
31.2810879048
 11
367.5496604651
 21
31.1197694727
  0
LINE
  8
0
 62
7
  6
CONTINUOUS
 10
367.838722524
 20
31.1197694727
 11
367.7809102445
 21
31.2810879048
  0
LINE
  8
0
 62
7
  6
CONTINUOUS
 10
367.5496604651
 20
31.1197694727
 11
367.5496604651
 21
30.5067593403
  0
LINE
  8
0
 62
7
  6
CONTINUOUS
 10
367.838722524
 20
30.5067593403
 11
367.838722524
 21
31.1197694727
  0
LINE
  8
0
 62
7
  6
CONTINUOUS
 10
368.3012227445
 20
31.3456152777
 11
368.3012227445
 21
31.2810879048
  0
LINE
  8
0
 62
7
  6
CONTINUOUS
 10
368.4342913921
 20
32.3100380288
 11
368.4342913921
 21
34.4411855698
  0
LINE
  8
0
 62
7
  6
CONTINUOUS
 10
368.7621602445
 20
36.0805298321
 11
368.7621602445
 21
32.3100380288
  0
LINE
  8
0
 62
7
  6
CONTINUOUS
 10
363.4449727445
 20
30.8293962497
 11
363.5027853548
 21
30.926187309
  0
LINE
  8
0
 62
7
  6
CONTINUOUS
 10
359.0512227376
 20
30.6358140973
 11
359.2246602583
 21
30.5712867188
  0
LINE
  8
0
 62
7
  6
CONTINUOUS
 10
360.5543476894
 20
31.3456152777
 11
360.3809101894
 21
31.4424063369
  0
LINE
  8
0
 62
7
  6
CONTINUOUS
 10
363.2137226343
 20
30.668077795
 11
363.3871601343
 21
30.5712867188
  0
LINE
  8
0
 62
7
  6
CONTINUOUS
 10
362.2309102445
 20
31.3456152777
 11
362.3465351343
 21
31.2810879048
  0
LINE
  8
0
 62
7
  6
CONTINUOUS
 10
362.5777852445
 20
31.3778789641
 11
362.4621603548
 21
31.4424063369
  0
LINE
  8
0
 62
7
  6
CONTINUOUS
 10
368.3012227445
 20
30.7648688543
 11
368.4168479651
 21
30.6358140973
  0
LINE
  8
0
 62
7
  6
CONTINUOUS
 10
368.6480977445
 20
30.7003414814
 11
368.5902854651
 21
30.7648688543
  0
LINE
  8
0
 62
7
  6
CONTINUOUS
 10
368.3012227445
 20
31.2810879048
 11
368.4168479651
 21
31.1520331591
  0
LINE
  8
0
 62
7
  6
CONTINUOUS
 10
367.7809102445
 20
31.2810879048
 11
367.7230979651
 21
31.3778789641
  0
LINE
  8
0
 62
7
  6
CONTINUOUS
 10
370.1512223035
 20
30.7003414814
 11
370.1512223035
 21
30.7648688543
  0
LINE
  8
0
 62
7
  6
CONTINUOUS
 10
370.1556028675
 20
32.3100380288
 11
370.1556028675
 21
36.0805298321
  0
LINE
  8
0
 62
7
  6
CONTINUOUS
 10
363.2137226343
 20
31.4101426505
 11
363.1559103548
 21
31.3456152777
  0
LINE
  8
0
 62
7
  6
CONTINUOUS
 10
360.091847717
 20
31.3778789641
 11
360.2652852997
 21
31.3133515913
  0
LINE
  8
0
 62
7
  6
CONTINUOUS
 10
364.8324727445
 20
31.3778789641
 11
364.716847524
 21
31.4424063369
  0
LINE
  8
0
 62
7
  6
CONTINUOUS
 10
368.6480977445
 20
31.216560532
 11
368.5902854651
 21
31.2810879048
  0
LINE
  8
0
 62
7
  6
CONTINUOUS
 10
369.8043479651
 20
30.8293962497
 11
369.8621602445
 21
30.7648688543
  0
LINE
  8
0
 62
7
  6
CONTINUOUS
 10
370.1512223035
 20
30.7648688543
 11
370.0355977445
 21
30.8939236226
  0
LINE
  8
0
 62
7
  6
CONTINUOUS
 10
369.8043479651
 20
31.3456152777
 11
369.8621602445
 21
31.2810879048
  0
LINE
  8
0
 62
7
  6
CONTINUOUS
 10
370.1512223035
 20
31.2810879048
 11
370.0355977445
 21
31.4101426505
  0
LINE
  8
0
 62
7
  6
CONTINUOUS
 10
363.4449727445
 20
31.2810879048
 11
363.5027853548
 21
31.3456152777
  0
LINE
  8
0
 62
7
  6
CONTINUOUS
 10
363.2715352445
 20
31.0229783683
 11
363.1559103548
 21
30.8939236226
  0
LINE
  8
0
 62
7
  6
CONTINUOUS
 10
364.6012229651
 20
30.8616599362
 11
364.543410024
 21
30.7971325633
  0
LINE
  8
0
 62
7
  6
CONTINUOUS
 10
364.543410024
 20
30.6035504109
 11
364.6012229651
 21
30.668077795
  0
LINE
  8
0
 62
7
  6
CONTINUOUS
 10
363.3871601343
 20
30.5712867188
 11
363.5027853548
 21
30.5390230296
  0
LINE
  8
0
 62
7
  6
CONTINUOUS
 10
360.3809101894
 20
31.4424063369
 11
360.1496602445
 21
31.5069337098
  0
LINE
  8
0
 62
7
  6
CONTINUOUS
 10
363.7340351343
 20
30.6358140973
 11
363.5027853548
 21
30.7003414814
  0
LINE
  8
0
 62
7
  6
CONTINUOUS
 10
362.4621603548
 20
31.4424063369
 11
362.2887228548
 21
31.5069337098
  0
LINE
  8
0
 62
7
  6
CONTINUOUS
 10
364.716847524
 20
31.4424063369
 11
364.543410024
 21
31.5069337098
  0
LINE
  8
0
 62
7
  6
CONTINUOUS
 10
367.3762229651
 20
31.3456152777
 11
367.491847524
 21
31.2810879048
  0
LINE
  8
0
 62
7
  6
CONTINUOUS
 10
367.7230979651
 20
31.3778789641
 11
367.6074727445
 21
31.4424063369
  0
LINE
  8
0
 62
7
  6
CONTINUOUS
 10
359.2246602583
 20
30.5712867188
 11
359.3980977583
 21
30.5390230296
  0
LINE
  8
0
 62
7
  6
CONTINUOUS
 10
359.6871602721
 20
30.6358140973
 11
359.3402852307
 21
30.7003414814
  0
LINE
  8
0
 62
7
  6
CONTINUOUS
 10
362.1152853548
 20
31.3778789641
 11
362.2309102445
 21
31.3456152777
  0
LINE
  8
0
 62
7
  6
CONTINUOUS
 10
364.4277854651
 20
31.3778789641
 11
364.543410024
 21
31.3456152777
  0
LINE
  8
0
 62
7
  6
CONTINUOUS
 10
368.7637229651
 20
30.668077795
 11
368.6480977445
 21
30.7003414814
  0
LINE
  8
0
 62
7
  6
CONTINUOUS
 10
367.2605977445
 20
31.3778789641
 11
367.3762229651
 21
31.3456152777
  0
LINE
  8
0
 62
7
  6
CONTINUOUS
 10
368.4168479651
 20
30.6358140973
 11
368.5902854651
 21
30.5712867188
  0
LINE
  8
0
 62
7
  6
CONTINUOUS
 10
367.6074727445
 20
31.4424063369
 11
367.4340352445
 21
31.5069337098
  0
LINE
  8
0
 62
7
  6
CONTINUOUS
 10
368.8215352445
 20
31.1520331591
 11
368.6480977445
 21
31.216560532
  0
LINE
  8
0
 62
7
  6
CONTINUOUS
 10
369.6309104651
 20
30.8939236226
 11
369.8043479651
 21
30.8293962497
  0
LINE
  8
0
 62
7
  6
CONTINUOUS
 10
370.0355977445
 20
31.4101426505
 11
369.8621602445
 21
31.4746700234
  0
LINE
  8
0
 62
7
  6
CONTINUOUS
 10
368.4168479651
 20
31.1520331591
 11
368.6480977445
 21
31.0552420547
  0
LINE
  8
0
 62
7
  6
CONTINUOUS
 10
370.0355977445
 20
30.8939236226
 11
369.8043479651
 21
30.9907146818
  0
LINE
  8
0
 62
7
  6
CONTINUOUS
 10
368.5902854651
 20
31.2810879048
 11
368.6480977445
 21
31.3456152777
  0
LINE
  8
0
 62
7
  6
CONTINUOUS
 10
359.0512227376
 20
31.4101426505
 11
358.9355977445
 21
31.3456152777
  0
LINE
  8
0
 62
7
  6
CONTINUOUS
 10
359.1668477307
 20
31.2488242184
 11
359.3402852307
 21
31.3456152777
  0
LINE
  8
0
 62
7
  6
CONTINUOUS
 10
361.4793477997
 20
31.4424063369
 11
361.3637227445
 21
31.3778789641
  0
LINE
  8
0
 62
7
  6
CONTINUOUS
 10
361.3637227445
 20
31.2488242184
 11
361.4793477997
 21
31.3133515913
  0
LINE
  8
0
 62
7
  6
CONTINUOUS
 10
360.3809101894
 20
30.6035504109
 11
360.5543476894
 21
30.7003414814
  0
LINE
  8
0
 62
7
  6
CONTINUOUS
 10
359.3980977583
 20
30.5390230296
 11
359.744972717
 21
30.5067593403
  0
LINE
  8
0
 62
7
  6
CONTINUOUS
 10
363.5027853548
 20
30.5390230296
 11
363.7340351343
 21
30.5067593403
  0
LINE
  8
0
 62
7
  6
CONTINUOUS
 10
361.8840352445
 20
31.4101426505
 11
362.1152853548
 21
31.3778789641
  0
LINE
  8
0
 62
7
  6
CONTINUOUS
 10
364.1965353548
 20
31.4101426505
 11
364.4277854651
 21
31.3778789641
  0
LINE
  8
0
 62
7
  6
CONTINUOUS
 10
368.6480977445
 20
31.0552420547
 11
369.6309104651
 21
30.8939236226
  0
LINE
  8
0
 62
7
  6
CONTINUOUS
 10
369.8043479651
 20
30.9907146818
 11
368.8215352445
 21
31.1520331591
  0
LINE
  8
0
 62
7
  6
CONTINUOUS
 10
362.2887228548
 20
31.5069337098
 11
362.1152853548
 21
31.5391973962
  0
LINE
  8
0
 62
7
  6
CONTINUOUS
 10
368.5902854651
 20
30.5712867188
 11
368.7637229651
 21
30.5390230296
  0
LINE
  8
0
 62
7
  6
CONTINUOUS
 10
367.4340352445
 20
31.5069337098
 11
367.2605977445
 21
31.5391973962
  0
LINE
  8
0
 62
7
  6
CONTINUOUS
 10
369.6887227445
 20
31.3778789641
 11
369.8043479651
 21
31.3456152777
  0
LINE
  8
0
 62
7
  6
CONTINUOUS
 10
369.8621602445
 20
30.7648688543
 11
369.8043479651
 21
30.7003414814
  0
LINE
  8
0
 62
7
  6
CONTINUOUS
 10
368.4168479651
 20
31.4424063369
 11
368.3012227445
 21
31.3456152777
  0
LINE
  8
0
 62
7
  6
CONTINUOUS
 10
363.3293478548
 20
31.4746700234
 11
363.2137226343
 21
31.4101426505
  0
LINE
  8
0
 62
7
  6
CONTINUOUS
 10
363.3871601343
 20
31.0875057863
 11
363.2715352445
 21
31.0229783683
  0
LINE
  8
0
 62
7
  6
CONTINUOUS
 10
363.5027853548
 20
30.926187309
 11
363.6184102445
 21
30.9907146818
  0
LINE
  8
0
 62
7
  6
CONTINUOUS
 10
361.0746601894
 20
30.5067593403
 11
361.3637227445
 21
30.5067593403
  0
LINE
  8
0
 62
7
  6
CONTINUOUS
 10
362.4043477445
 20
30.5067593403
 11
362.6934101343
 21
30.5067593403
  0
LINE
  8
0
 62
7
  6
CONTINUOUS
 10
363.7340351343
 20
30.5067593403
 11
364.0809101343
 21
30.5067593403
  0
LINE
  8
0
 62
7
  6
CONTINUOUS
 10
364.716847524
 20
30.5067593403
 11
365.0059102445
 21
30.5067593403
  0
LINE
  8
0
 62
7
  6
CONTINUOUS
 10
365.4684104651
 20
30.5067593403
 11
365.757472524
 21
30.5067593403
  0
LINE
  8
0
 62
7
  6
CONTINUOUS
 10
366.2199727445
 20
30.5067593403
 11
366.5090354651
 21
30.5067593403
  0
LINE
  8
0
 62
7
  6
CONTINUOUS
 10
367.5496604651
 20
30.5067593403
 11
367.838722524
 21
30.5067593403
  0
LINE
  8
0
 62
7
  6
CONTINUOUS
 10
369.1105979651
 20
30.5067593403
 11
369.4574729651
 21
30.5067593403
  0
LINE
  8
0
 62
7
  6
CONTINUOUS
 10
369.4574729651
 20
30.6358140973
 11
369.1105979651
 21
30.6358140973
  0
LINE
  8
0
 62
7
  6
CONTINUOUS
 10
364.0809101343
 20
30.6358140973
 11
363.7340351343
 21
30.6358140973
  0
LINE
  8
0
 62
7
  6
CONTINUOUS
 10
368.5902854651
 20
30.7648688543
 11
368.3012227445
 21
30.7648688543
  0
LINE
  8
0
 62
7
  6
CONTINUOUS
 10
360.6121602997
 20
30.8293962497
 11
360.3230977445
 21
30.8293962497
  0
LINE
  8
0
 62
7
  6
CONTINUOUS
 10
359.6871602721
 20
31.4101426505
 11
360.091847717
 21
31.3778789641
  0
LINE
  8
0
 62
7
  6
CONTINUOUS
 10
360.1496602445
 20
31.5069337098
 11
359.744972717
 21
31.5391973962
  0
LINE
  8
0
 62
7
  6
CONTINUOUS
 10
368.7637229651
 20
30.5390230296
 11
369.1105979651
 21
30.5067593403
  0
LINE
  8
0
 62
7
  6
CONTINUOUS
 10
369.1105979651
 20
30.6358140973
 11
368.7637229651
 21
30.668077795
  0
LINE
  8
0
 62
7
  6
CONTINUOUS
 10
364.543410024
 20
31.5069337098
 11
364.1965353548
 21
31.5391973962
  0
LINE
  8
0
 62
7
  6
CONTINUOUS
 10
369.3418477445
 20
31.4101426505
 11
369.6887227445
 21
31.3778789641
  0
LINE
  8
0
 62
7
  6
CONTINUOUS
 10
369.6887227445
 20
31.5069337098
 11
369.3418477445
 21
31.5391973962
  0
LINE
  8
0
 62
7
  6
CONTINUOUS
 10
367.0293479651
 20
31.4101426505
 11
367.2605977445
 21
31.3778789641
  0
LINE
  8
0
 62
7
  6
CONTINUOUS
 10
369.8621602445
 20
31.4746700234
 11
369.6887227445
 21
31.5069337098
  0
LINE
  8
0
 62
7
  6
CONTINUOUS
 10
370.0355977445
 20
30.6035504109
 11
370.1512223035
 21
30.7003414814
  0
LINE
  8
0
 62
7
  6
CONTINUOUS
 10
364.543410024
 20
30.7971325633
 11
364.369972524
 21
30.7003414814
  0
LINE
  8
0
 62
7
  6
CONTINUOUS
 10
366.624660024
 20
31.4424063369
 11
366.5090354651
 21
31.3778789641
  0
LINE
  8
0
 62
7
  6
CONTINUOUS
 10
366.5090354651
 20
31.2488242184
 11
366.624660024
 21
31.3133515913
  0
LINE
  8
0
 62
7
  6
CONTINUOUS
 10
359.2246602583
 20
31.4746700234
 11
359.0512227376
 21
31.4101426505
  0
LINE
  8
0
 62
7
  6
CONTINUOUS
 10
361.6527851343
 20
31.5069337098
 11
361.4793477997
 21
31.4424063369
  0
LINE
  8
0
 62
7
  6
CONTINUOUS
 10
361.4793477997
 20
31.3133515913
 11
361.6527851343
 21
31.3778789641
  0
LINE
  8
0
 62
7
  6
CONTINUOUS
 10
360.2652852997
 20
30.7326051679
 11
360.091847717
 21
30.668077795
  0
LINE
  8
0
 62
7
  6
CONTINUOUS
 10
369.6887227445
 20
30.668077795
 11
369.4574729651
 21
30.6358140973
  0
LINE
  8
0
 62
7
  6
CONTINUOUS
 10
364.0809101343
 20
30.5067593403
 11
364.369972524
 21
30.5390230296
  0
LINE
  8
0
 62
7
  6
CONTINUOUS
 10
369.4574729651
 20
30.5067593403
 11
369.8043479651
 21
30.5390230296
  0
LINE
  8
0
 62
7
  6
CONTINUOUS
 10
359.744972717
 20
30.5067593403
 11
360.1496602445
 21
30.5390230296
  0
LINE
  8
0
 62
7
  6
CONTINUOUS
 10
360.091847717
 20
30.668077795
 11
359.6871602721
 21
30.6358140973
  0
LINE
  8
0
 62
7
  6
CONTINUOUS
 10
363.9652852445
 20
31.0552420547
 11
364.6012229651
 21
31.0552420547
  0
LINE
  8
0
 62
7
  6
CONTINUOUS
 10
364.6012229651
 20
31.1842968456
 11
363.9652852445
 21
31.1842968456
  0
LINE
  8
0
 62
7
  6
CONTINUOUS
 10
360.3230977445
 20
31.216560532
 11
360.6121602997
 21
31.216560532
  0
LINE
  8
0
 62
7
  6
CONTINUOUS
 10
363.1559103548
 20
31.2810879048
 11
363.4449727445
 21
31.2810879048
  0
LINE
  8
0
 62
7
  6
CONTINUOUS
 10
369.8621602445
 20
31.2810879048
 11
370.1512223035
 21
31.2810879048
  0
LINE
  8
0
 62
7
  6
CONTINUOUS
 10
363.8496603548
 20
31.4101426505
 11
364.1965353548
 21
31.4101426505
  0
LINE
  8
0
 62
7
  6
CONTINUOUS
 10
368.9949727445
 20
31.4101426505
 11
369.3418477445
 21
31.4101426505
  0
LINE
  8
0
 62
7
  6
CONTINUOUS
 10
369.3418477445
 20
31.5391973962
 11
368.9949727445
 21
31.5391973962
  0
LINE
  8
0
 62
7
  6
CONTINUOUS
 10
367.2605977445
 20
31.5391973962
 11
367.0293479651
 21
31.5391973962
  0
LINE
  8
0
 62
7
  6
CONTINUOUS
 10
366.5090354651
 20
31.5391973962
 11
366.2199727445
 21
31.5391973962
  0
LINE
  8
0
 62
7
  6
CONTINUOUS
 10
365.757472524
 20
31.5391973962
 11
365.4684104651
 21
31.5391973962
  0
LINE
  8
0
 62
7
  6
CONTINUOUS
 10
364.1965353548
 20
31.5391973962
 11
363.8496603548
 21
31.5391973962
  0
LINE
  8
0
 62
7
  6
CONTINUOUS
 10
362.1152853548
 20
31.5391973962
 11
361.8840352445
 21
31.5391973962
  0
LINE
  8
0
 62
7
  6
CONTINUOUS
 10
365.4684104651
 20
31.8618343508
 11
365.757472524
 21
31.8618343508
  0
LINE
  8
0
 62
7
  6
CONTINUOUS
 10
365.757472524
 20
32.0231527829
 11
365.4684104651
 21
32.0231527829
  0
LINE
  8
0
 62
7
  6
CONTINUOUS
 10
361.3637227445
 20
32.0231527829
 11
361.0746601894
 21
32.0231527829
  0
LINE
  8
0
 62
7
  6
CONTINUOUS
 10
360.4015045068
 20
32.3100380288
 11
360.8140758554
 21
32.3100380288
  0
LINE
  8
0
 62
7
  6
CONTINUOUS
 10
362.0408487691
 20
32.3100380288
 11
363.4342913921
 21
32.3100380288
  0
LINE
  8
0
 62
7
  6
CONTINUOUS
 10
363.7621602445
 20
32.3100380288
 11
365.1556028675
 21
32.3100380288
  0
LINE
  8
0
 62
7
  6
CONTINUOUS
 10
367.0408487691
 20
32.3100380288
 11
368.4342913921
 21
32.3100380288
  0
LINE
  8
0
 62
7
  6
CONTINUOUS
 10
368.7621602445
 20
32.3100380288
 11
370.1556028675
 21
32.3100380288
  0
LINE
  8
0
 62
7
  6
CONTINUOUS
 10
366.798097524
 20
31.5069337098
 11
366.624660024
 21
31.4424063369
  0
LINE
  8
0
 62
7
  6
CONTINUOUS
 10
364.369972524
 20
30.5390230296
 11
364.543410024
 21
30.6035504109
  0
LINE
  8
0
 62
7
  6
CONTINUOUS
 10
369.8043479651
 20
30.5390230296
 11
370.0355977445
 21
30.6035504109
  0
LINE
  8
0
 62
7
  6
CONTINUOUS
 10
369.8043479651
 20
30.7003414814
 11
369.6887227445
 21
30.668077795
  0
LINE
  8
0
 62
7
  6
CONTINUOUS
 10
368.7637229651
 20
31.3778789641
 11
368.9949727445
 21
31.4101426505
  0
LINE
  8
0
 62
7
  6
CONTINUOUS
 10
366.798097524
 20
31.3778789641
 11
367.0293479651
 21
31.4101426505
  0
LINE
  8
0
 62
7
  6
CONTINUOUS
 10
363.7340351343
 20
31.0229783683
 11
363.9652852445
 21
31.0552420547
  0
LINE
  8
0
 62
7
  6
CONTINUOUS
 10
367.0293479651
 20
31.5391973962
 11
366.798097524
 21
31.5069337098
  0
LINE
  8
0
 62
7
  6
CONTINUOUS
 10
363.6184102445
 20
31.3778789641
 11
363.8496603548
 21
31.4101426505
  0
LINE
  8
0
 62
7
  6
CONTINUOUS
 10
368.9949727445
 20
31.5391973962
 11
368.6480977445
 21
31.5069337098
  0
LINE
  8
0
 62
7
  6
CONTINUOUS
 10
363.9652852445
 20
31.1842968456
 11
363.6184102445
 21
31.1520331591
  0
LINE
  8
0
 62
7
  6
CONTINUOUS
 10
359.744972717
 20
31.5391973962
 11
359.3980977583
 21
31.5069337098
  0
LINE
  8
0
 62
7
  6
CONTINUOUS
 10
363.8496603548
 20
31.5391973962
 11
363.4449727445
 21
31.5069337098
  0
LINE
  8
0
 62
7
  6
CONTINUOUS
 10
361.221176638
 20
33.4575790124
 11
360.565438933
 21
33.4575790124
  0
LINE
  8
0
 62
7
  6
CONTINUOUS
 10
366.624660024
 20
31.3133515913
 11
366.798097524
 21
31.3778789641
  0
LINE
  8
0
 62
7
  6
CONTINUOUS
 10
368.6480977445
 20
31.3456152777
 11
368.7637229651
 21
31.3778789641
  0
LINE
  8
0
 62
7
  6
CONTINUOUS
 10
368.6480977445
 20
31.5069337098
 11
368.4168479651
 21
31.4424063369
  0
LINE
  8
0
 62
7
  6
CONTINUOUS
 10
364.369972524
 20
30.7003414814
 11
364.0809101343
 21
30.6358140973
  0
LINE
  8
0
 62
7
  6
CONTINUOUS
 10
361.6527851343
 20
31.3778789641
 11
361.8840352445
 21
31.4101426505
  0
LINE
  8
0
 62
7
  6
CONTINUOUS
 10
361.8840352445
 20
31.5391973962
 11
361.6527851343
 21
31.5069337098
  0
LINE
  8
0
 62
7
  6
CONTINUOUS
 10
359.4559102445
 20
31.3778789641
 11
359.6871602721
 21
31.4101426505
  0
LINE
  8
0
 62
7
  6
CONTINUOUS
 10
365.9752749986
 20
34.9329888485
 11
366.6310127035
 21
34.9329888485
  0
LINE
  8
0
 62
7
  6
CONTINUOUS
 10
363.6184102445
 20
30.9907146818
 11
363.7340351343
 21
31.0229783683
  0
LINE
  8
0
 62
7
  6
CONTINUOUS
 10
363.6184102445
 20
31.1520331591
 11
363.3871601343
 21
31.0875057863
  0
LINE
  8
0
 62
7
  6
CONTINUOUS
 10
363.5027853548
 20
31.3456152777
 11
363.6184102445
 21
31.3778789641
  0
LINE
  8
0
 62
7
  6
CONTINUOUS
 10
360.1496602445
 20
30.5390230296
 11
360.3809101894
 21
30.6035504109
  0
LINE
  8
0
 62
7
  6
CONTINUOUS
 10
363.4449727445
 20
31.5069337098
 11
363.3293478548
 21
31.4746700234
  0
LINE
  8
0
 62
7
  6
CONTINUOUS
 10
359.3980977583
 20
31.5069337098
 11
359.2246602583
 21
31.4746700234
  0
LINE
  8
0
 62
7
  6
CONTINUOUS
 10
370.1556028675
 20
36.0805298321
 11
368.7621602445
 21
36.0805298321
  0
LINE
  8
0
 62
7
  6
CONTINUOUS
 10
366.7949471298
 20
36.0805298321
 11
366.3823757812
 21
36.0805298321
  0
LINE
  8
0
 62
7
  6
CONTINUOUS
 10
365.1556028675
 20
36.0805298321
 11
363.7621602445
 21
36.0805298321
  0
LINE
  8
0
 62
7
  6
CONTINUOUS
 10
363.4342913921
 20
36.0805298321
 11
362.0408487691
 21
36.0805298321
  0
LINE
  8
0
 62
7
  6
CONTINUOUS
 10
360.1556028675
 20
36.0805298321
 11
358.7621602445
 21
36.0805298321
  0
LINE
  8
0
 62
7
  6
CONTINUOUS
 10
359.3402852307
 20
31.3456152777
 11
359.4559102445
 21
31.3778789641
  0
CIRCLE
  8
0
 62
7
  6
CONTINUOUS
 10
369.458881556
 20
38.4165954059
 40
2.0901639344
  0
ARC
  8
0
 62
7
  6
CONTINUOUS
 10
360.4015045068
 20
33.9493822911
 40
1.6393442623
 50
180.0
 51
270.0
  0
ARC
  8
0
 62
7
  6
CONTINUOUS
 10
366.7949471298
 20
34.4411855698
 40
1.6393442623
 50
0.0
 51
90.0
  0
ARC
  8
0
 62
7
  6
CONTINUOUS
 10
360.8140758554
 20
33.7854478649
 40
1.4754098361
 50
270.0
 51
326.2510114041
  0
ARC
  8
0
 62
7
  6
CONTINUOUS
 10
366.3823757812
 20
34.6051199961
 40
1.4754098361
 50
90.0
 51
146.2510114041
  0
ARC
  8
0
 62
7
  6
CONTINUOUS
 10
361.221176638
 20
34.2772511436
 40
0.8196721311
 50
270.0
 51
360.0
  0
ARC
  8
0
 62
7
  6
CONTINUOUS
 10
365.9752749986
 20
34.1133167174
 40
0.8196721311
 50
90.0
 51
180.0
  0
ARC
  8
0
 62
7
  6
CONTINUOUS
 10
360.565438933
 20
33.867415078
 40
0.4098360656
 50
180.0
 51
270.0
  0
ARC
  8
0
 62
7
  6
CONTINUOUS
 10
366.6310127035
 20
34.5231527829
 40
0.4098360656
 50
0.0
 51
90.0
  0
SOLID
  8
0
 62
7
  6
CONTINUOUS
 10
365.4684104651
 20
31.8618347111
 11
365.4684104651
 21
32.0231531947
 12
365.757472524
 22
31.8618347111
 13
365.757472524
 23
32.0231531947
  0
SOLID
  8
0
 62
7
  6
CONTINUOUS
 10
359.744972717
 20
31.5391977439
 11
360.1496602445
 21
31.5069333244
 12
359.3980977583
 22
31.5069333244
 13
359.3980977583
 23
31.5069333244
  0
SOLID
  8
0
 62
7
  6
CONTINUOUS
 10
359.2246602583
 20
31.4746706537
 11
359.3980977583
 21
31.5069333244
 12
360.1496602445
 22
31.5069333244
 13
360.1496602445
 23
31.5069333244
  0
SOLID
  8
0
 62
7
  6
CONTINUOUS
 10
360.1496602445
 20
31.5069333244
 11
360.3809101894
 21
31.4424063504
 12
359.2246602583
 22
31.4746706537
 13
359.2246602583
 23
31.4746706537
  0
SOLID
  8
0
 62
7
  6
CONTINUOUS
 10
359.0512227376
 20
31.4101419116
 11
359.2246602583
 21
31.4746706537
 12
360.3809101894
 22
31.4424063504
 13
360.3809101894
 23
31.4424063504
  0
SOLID
  8
0
 62
7
  6
CONTINUOUS
 10
359.0512227376
 20
31.4101419116
 11
360.3809101894
 21
31.4424063504
 12
359.6871602721
 22
31.4101419116
 13
359.6871602721
 23
31.4101419116
  0
SOLID
  8
0
 62
7
  6
CONTINUOUS
 10
359.6871602721
 20
31.4101419116
 11
360.3809101894
 21
31.4424063504
 12
360.091847717
 22
31.3778792603
 13
360.091847717
 23
31.3778792603
  0
SOLID
  8
0
 62
7
  6
CONTINUOUS
 10
360.3809101894
 20
31.4424063504
 11
360.5543476894
 21
31.345614957
 12
360.091847717
 22
31.3778792603
 13
360.091847717
 23
31.3778792603
  0
SOLID
  8
0
 62
7
  6
CONTINUOUS
 10
360.2652852997
 20
31.3133521701
 11
360.091847717
 21
31.3778792603
 12
360.5543476894
 22
31.345614957
 13
360.5543476894
 23
31.345614957
  0
SOLID
  8
0
 62
7
  6
CONTINUOUS
 10
360.2652852997
 20
31.3133521701
 11
360.5543476894
 21
31.345614957
 12
360.3230977445
 22
31.2165606992
 13
360.3230977445
 23
31.2165606992
  0
SOLID
  8
0
 62
7
  6
CONTINUOUS
 10
360.5543476894
 20
31.345614957
 11
360.6121602997
 21
31.2165606992
 12
360.3230977445
 22
31.2165606992
 13
360.3230977445
 23
31.2165606992
  0
SOLID
  8
0
 62
7
  6
CONTINUOUS
 10
361.6527851343
 20
31.5069329918
 11
361.8840352445
 21
31.5391972951
 12
362.1152853548
 22
31.5391972951
 13
362.1152853548
 23
31.5391972951
  0
SOLID
  8
0
 62
7
  6
CONTINUOUS
 10
362.1152853548
 20
31.5391972951
 11
362.2887228548
 21
31.5069329918
 12
361.6527851343
 22
31.5069329918
 13
361.6527851343
 23
31.5069329918
  0
SOLID
  8
0
 62
7
  6
CONTINUOUS
 10
361.4793477997
 20
31.4424059016
 11
361.6527851343
 21
31.5069329918
 12
362.2887228548
 22
31.5069329918
 13
362.2887228548
 23
31.5069329918
  0
SOLID
  8
0
 62
7
  6
CONTINUOUS
 10
362.2887228548
 20
31.5069329918
 11
362.4621603548
 21
31.4424059016
 12
361.4793477997
 22
31.4424059016
 13
361.4793477997
 23
31.4424059016
  0
SOLID
  8
0
 62
7
  6
CONTINUOUS
 10
362.4621603548
 20
31.4424059016
 11
361.8840352445
 21
31.4101420472
 12
361.4793477997
 22
31.4424059016
 13
361.4793477997
 23
31.4424059016
  0
SOLID
  8
0
 62
7
  6
CONTINUOUS
 10
361.3637227445
 20
31.3778788115
 11
361.4793477997
 21
31.4424059016
 12
361.8840352445
 22
31.4101420472
 13
361.8840352445
 23
31.4101420472
  0
SOLID
  8
0
 62
7
  6
CONTINUOUS
 10
361.8840352445
 20
31.4101420472
 11
361.6527851343
 21
31.3778788115
 12
361.3637227445
 22
31.3778788115
 13
361.3637227445
 23
31.3778788115
  0
SOLID
  8
0
 62
7
  6
CONTINUOUS
 10
361.8840352445
 20
31.4101420472
 11
362.4621603548
 21
31.4424059016
 12
362.1152853548
 22
31.3778788115
 13
362.1152853548
 23
31.3778788115
  0
SOLID
  8
0
 62
7
  6
CONTINUOUS
 10
362.4621603548
 20
31.4424059016
 11
362.5777852445
 21
31.3778788115
 12
362.1152853548
 22
31.3778788115
 13
362.1152853548
 23
31.3778788115
  0
SOLID
  8
0
 62
7
  6
CONTINUOUS
 10
362.2309102445
 20
31.345614957
 11
362.1152853548
 21
31.3778788115
 12
362.5777852445
 22
31.3778788115
 13
362.5777852445
 23
31.3778788115
  0
SOLID
  8
0
 62
7
  6
CONTINUOUS
 10
362.5777852445
 20
31.3778788115
 11
362.6355978548
 21
31.3133517213
 12
362.2309102445
 22
31.345614957
 13
362.2309102445
 23
31.345614957
  0
SOLID
  8
0
 62
7
  6
CONTINUOUS
 10
362.3465351343
 20
31.2810878668
 11
362.2309102445
 21
31.345614957
 12
362.6355978548
 22
31.3133517213
 13
362.6355978548
 23
31.3133517213
  0
SOLID
  8
0
 62
7
  6
CONTINUOUS
 10
362.3465351343
 20
31.2810878668
 11
362.6355978548
 21
31.3133517213
 12
362.4043477445
 22
31.1520332377
 13
362.4043477445
 23
31.1520332377
  0
SOLID
  8
0
 62
7
  6
CONTINUOUS
 10
362.6355978548
 20
31.3133517213
 11
362.6934101343
 21
31.1520332377
 12
362.4043477445
 22
31.1520332377
 13
362.4043477445
 23
31.1520332377
  0
SOLID
  8
0
 62
7
  6
CONTINUOUS
 10
361.6527851343
 20
31.3778788115
 11
361.4793477997
 21
31.3133517213
 12
361.3637227445
 22
31.3778788115
 13
361.3637227445
 23
31.3778788115
  0
SOLID
  8
0
 62
7
  6
CONTINUOUS
 10
361.4793477997
 20
31.3133517213
 11
361.3637227445
 21
31.2488235635
 12
361.3637227445
 22
31.3778788115
 13
361.3637227445
 23
31.3778788115
  0
SOLID
  8
0
 62
7
  6
CONTINUOUS
 10
361.3637227445
 20
31.2488235635
 11
361.0746601894
 21
30.5067593033
 12
361.3637227445
 22
31.3778788115
 13
361.3637227445
 23
31.3778788115
  0
SOLID
  8
0
 62
7
  6
CONTINUOUS
 10
361.3637227445
 20
31.3778788115
 11
361.0746601894
 21
30.5067593033
 12
361.3637227445
 22
32.0231527459
 13
361.3637227445
 23
32.0231527459
  0
SOLID
  8
0
 62
7
  6
CONTINUOUS
 10
361.0746601894
 20
30.5067593033
 11
361.0746601894
 21
32.0231527459
 12
361.3637227445
 22
32.0231527459
 13
361.3637227445
 23
32.0231527459
  0
SOLID
  8
0
 62
7
  6
CONTINUOUS
 10
361.3637227445
 20
31.2488235635
 11
361.3637227445
 21
30.5067593033
 12
361.0746601894
 22
30.5067593033
 13
361.0746601894
 23
30.5067593033
  0
SOLID
  8
0
 62
7
  6
CONTINUOUS
 10
362.4043477445
 20
30.5067593033
 11
362.4043477445
 21
31.1520332377
 12
362.6934101343
 22
31.1520332377
 13
362.6934101343
 23
31.1520332377
  0
SOLID
  8
0
 62
7
  6
CONTINUOUS
 10
362.6934101343
 20
31.1520332377
 11
362.6934101343
 21
30.5067593033
 12
362.4043477445
 22
30.5067593033
 13
362.4043477445
 23
30.5067593033
  0
SOLID
  8
0
 62
7
  6
CONTINUOUS
 10
363.4449727445
 20
31.506933758
 11
363.8496603548
 21
31.5391977507
 12
364.1965353548
 22
31.5391977507
 13
364.1965353548
 23
31.5391977507
  0
SOLID
  8
0
 62
7
  6
CONTINUOUS
 10
364.1965353548
 20
31.5391977507
 11
364.543410024
 21
31.506933758
 12
363.4449727445
 22
31.506933758
 13
363.4449727445
 23
31.506933758
  0
SOLID
  8
0
 62
7
  6
CONTINUOUS
 10
363.3293478548
 20
31.4746706537
 11
363.4449727445
 21
31.506933758
 12
364.543410024
 22
31.506933758
 13
364.543410024
 23
31.506933758
  0
SOLID
  8
0
 62
7
  6
CONTINUOUS
 10
364.543410024
 20
31.506933758
 11
364.716847524
 21
31.4424063504
 12
363.3293478548
 22
31.4746706537
 13
363.3293478548
 23
31.4746706537
  0
SOLID
  8
0
 62
7
  6
CONTINUOUS
 10
363.2137226343
 20
31.4101417797
 11
363.3293478548
 21
31.4746706537
 12
364.716847524
 22
31.4424063504
 13
364.716847524
 23
31.4424063504
  0
SOLID
  8
0
 62
7
  6
CONTINUOUS
 10
363.2137226343
 20
31.4101417797
 11
364.716847524
 21
31.4424063504
 12
363.8496603548
 22
31.4101417797
 13
363.8496603548
 23
31.4101417797
  0
SOLID
  8
0
 62
7
  6
CONTINUOUS
 10
363.8496603548
 20
31.4101417797
 11
364.716847524
 21
31.4424063504
 12
364.1965353548
 22
31.4101417797
 13
364.1965353548
 23
31.4101417797
  0
SOLID
  8
0
 62
7
  6
CONTINUOUS
 10
364.1965353548
 20
31.4101417797
 11
364.716847524
 21
31.4424063504
 12
364.4277854651
 22
31.3778793357
 13
364.4277854651
 23
31.3778793357
  0
SOLID
  8
0
 62
7
  6
CONTINUOUS
 10
364.716847524
 20
31.4424063504
 11
364.8324727445
 21
31.3778793357
 12
364.4277854651
 22
31.3778793357
 13
364.4277854651
 23
31.3778793357
  0
SOLID
  8
0
 62
7
  6
CONTINUOUS
 10
363.1559103548
 20
31.3456153429
 11
363.2137226343
 21
31.4101417797
 12
363.8496603548
 22
31.4101417797
 13
363.8496603548
 23
31.4101417797
  0
SOLID
  8
0
 62
7
  6
CONTINUOUS
 10
364.543410024
 20
31.3456153429
 11
364.4277854651
 21
31.3778793357
 12
364.8324727445
 22
31.3778793357
 13
364.8324727445
 23
31.3778793357
  0
SOLID
  8
0
 62
7
  6
CONTINUOUS
 10
364.543410024
 20
31.3456153429
 11
364.8324727445
 21
31.3778793357
 12
364.6012229651
 22
31.2810881318
 13
364.6012229651
 23
31.2810881318
  0
SOLID
  8
0
 62
7
  6
CONTINUOUS
 10
364.8324727445
 20
31.3778793357
 11
364.890285024
 21
31.2810881318
 12
364.6012229651
 22
31.2810881318
 13
364.6012229651
 23
31.2810881318
  0
SOLID
  8
0
 62
7
  6
CONTINUOUS
 10
364.6012229651
 20
31.1842964734
 11
364.6012229651
 21
31.2810881318
 12
364.890285024
 22
31.2810881318
 13
364.890285024
 23
31.2810881318
  0
SOLID
  8
0
 62
7
  6
CONTINUOUS
 10
364.6012229651
 20
31.1842964734
 11
364.890285024
 21
31.2810881318
 12
364.6012229651
 22
31.0552422931
 13
364.6012229651
 23
31.0552422931
  0
SOLID
  8
0
 62
7
  6
CONTINUOUS
 10
364.6012229651
 20
31.0552422931
 11
364.890285024
 21
31.2810881318
 12
364.6012229651
 22
30.8616599362
 13
364.6012229651
 23
30.8616599362
  0
SOLID
  8
0
 62
7
  6
CONTINUOUS
 10
364.890285024
 20
31.2810881318
 11
364.890285024
 21
30.7648681127
 12
364.6012229651
 22
30.8616599362
 13
364.6012229651
 23
30.8616599362
  0
SOLID
  8
0
 62
7
  6
CONTINUOUS
 10
366.798097524
 20
31.5069339419
 11
367.0293479651
 21
31.5391976292
 12
367.2605977445
 22
31.5391976292
 13
367.2605977445
 23
31.5391976292
  0
SOLID
  8
0
 62
7
  6
CONTINUOUS
 10
367.2605977445
 20
31.5391976292
 11
367.4340352445
 21
31.5069339419
 12
366.798097524
 22
31.5069339419
 13
366.798097524
 23
31.5069339419
  0
SOLID
  8
0
 62
7
  6
CONTINUOUS
 10
366.624660024
 20
31.4424065674
 11
366.798097524
 21
31.5069339419
 12
367.4340352445
 22
31.5069339419
 13
367.4340352445
 23
31.5069339419
  0
SOLID
  8
0
 62
7
  6
CONTINUOUS
 10
367.4340352445
 20
31.5069339419
 11
367.6074727445
 21
31.4424065674
 12
366.624660024
 22
31.4424065674
 13
366.624660024
 23
31.4424065674
  0
SOLID
  8
0
 62
7
  6
CONTINUOUS
 10
367.6074727445
 20
31.4424065674
 11
367.0293479651
 21
31.4101420472
 12
366.624660024
 22
31.4424065674
 13
366.624660024
 23
31.4424065674
  0
SOLID
  8
0
 62
7
  6
CONTINUOUS
 10
366.5090354651
 20
31.377879193
 11
366.624660024
 21
31.4424065674
 12
367.0293479651
 22
31.4101420472
 13
367.0293479651
 23
31.4101420472
  0
SOLID
  8
0
 62
7
  6
CONTINUOUS
 10
367.0293479651
 20
31.4101420472
 11
366.798097524
 21
31.377879193
 12
366.5090354651
 22
31.377879193
 13
366.5090354651
 23
31.377879193
  0
SOLID
  8
0
 62
7
  6
CONTINUOUS
 10
367.0293479651
 20
31.4101420472
 11
367.6074727445
 21
31.4424065674
 12
367.2605977445
 22
31.377879193
 13
367.2605977445
 23
31.377879193
  0
SOLID
  8
0
 62
7
  6
CONTINUOUS
 10
367.6074727445
 20
31.4424065674
 11
367.7230979651
 21
31.377879193
 12
367.2605977445
 22
31.377879193
 13
367.2605977445
 23
31.377879193
  0
SOLID
  8
0
 62
7
  6
CONTINUOUS
 10
367.3762229651
 20
31.345614957
 11
367.2605977445
 21
31.377879193
 12
367.7230979651
 22
31.377879193
 13
367.7230979651
 23
31.377879193
  0
SOLID
  8
0
 62
7
  6
CONTINUOUS
 10
367.3762229651
 20
31.345614957
 11
367.7230979651
 21
31.377879193
 12
367.491847524
 22
31.2810881312
 13
367.491847524
 23
31.2810881312
  0
SOLID
  8
0
 62
7
  6
CONTINUOUS
 10
367.7230979651
 20
31.377879193
 11
367.7809102445
 21
31.2810881312
 12
367.491847524
 22
31.2810881312
 13
367.491847524
 23
31.2810881312
  0
SOLID
  8
0
 62
7
  6
CONTINUOUS
 10
367.5496604651
 20
31.119769695
 11
367.491847524
 21
31.2810881312
 12
367.7809102445
 22
31.2810881312
 13
367.7809102445
 23
31.2810881312
  0
SOLID
  8
0
 62
7
  6
CONTINUOUS
 10
367.7809102445
 20
31.2810881312
 11
367.838722524
 21
31.119769695
 12
367.5496604651
 22
31.119769695
 13
367.5496604651
 23
31.119769695
  0
SOLID
  8
0
 62
7
  6
CONTINUOUS
 10
366.798097524
 20
31.377879193
 11
366.624660024
 21
31.3133521701
 12
366.5090354651
 22
31.377879193
 13
366.5090354651
 23
31.377879193
  0
SOLID
  8
0
 62
7
  6
CONTINUOUS
 10
366.624660024
 20
31.3133521701
 11
366.5090354651
 21
31.2488235635
 12
366.5090354651
 22
31.377879193
 13
366.5090354651
 23
31.377879193
  0
SOLID
  8
0
 62
7
  6
CONTINUOUS
 10
366.5090354651
 20
31.2488235635
 11
366.2199727445
 21
30.5067596374
 12
366.5090354651
 22
31.377879193
 13
366.5090354651
 23
31.377879193
  0
SOLID
  8
0
 62
7
  6
CONTINUOUS
 10
366.5090354651
 20
31.377879193
 11
366.2199727445
 21
30.5067596374
 12
366.5090354651
 22
31.5391976292
 13
366.5090354651
 23
31.5391976292
  0
SOLID
  8
0
 62
7
  6
CONTINUOUS
 10
366.2199727445
 20
30.5067596374
 11
366.2199727445
 21
31.5391976292
 12
366.5090354651
 22
31.5391976292
 13
366.5090354651
 23
31.5391976292
  0
SOLID
  8
0
 62
7
  6
CONTINUOUS
 10
366.5090354651
 20
31.2488235635
 11
366.5090354651
 21
30.5067596374
 12
366.2199727445
 22
30.5067596374
 13
366.2199727445
 23
30.5067596374
  0
SOLID
  8
0
 62
7
  6
CONTINUOUS
 10
367.5496604651
 20
30.5067596374
 11
367.5496604651
 21
31.119769695
 12
367.838722524
 22
31.119769695
 13
367.838722524
 23
31.119769695
  0
SOLID
  8
0
 62
7
  6
CONTINUOUS
 10
367.838722524
 20
31.119769695
 11
367.838722524
 21
30.5067596374
 12
367.5496604651
 22
30.5067596374
 13
367.5496604651
 23
30.5067596374
  0
SOLID
  8
0
 62
7
  6
CONTINUOUS
 10
368.6480977445
 20
31.5069334157
 11
368.9949727445
 21
31.539197762
 12
369.3418477445
 22
31.539197762
 13
369.3418477445
 23
31.539197762
  0
SOLID
  8
0
 62
7
  6
CONTINUOUS
 10
369.3418477445
 20
31.539197762
 11
369.6887227445
 21
31.5069334157
 12
368.6480977445
 22
31.5069334157
 13
368.6480977445
 23
31.5069334157
  0
SOLID
  8
0
 62
7
  6
CONTINUOUS
 10
368.4168479651
 20
31.4424063504
 11
368.6480977445
 21
31.5069334157
 12
369.6887227445
 22
31.5069334157
 13
369.6887227445
 23
31.5069334157
  0
SOLID
  8
0
 62
7
  6
CONTINUOUS
 10
368.4168479651
 20
31.4424063504
 11
369.6887227445
 21
31.5069334406
 12
369.8621602445
 22
31.4746706537
 13
369.8621602445
 23
31.4746706537
  0
SOLID
  8
0
 62
7
  6
CONTINUOUS
 10
368.4168479651
 20
31.4424063504
 11
369.8621602445
 21
31.4746706537
 12
368.9949727445
 22
31.4101421267
 13
368.9949727445
 23
31.4101421267
  0
SOLID
  8
0
 62
7
  6
CONTINUOUS
 10
368.9949727445
 20
31.4101421267
 11
369.8621602445
 21
31.4746706537
 12
369.3418477445
 22
31.4101421267
 13
369.3418477445
 23
31.4101421267
  0
SOLID
  8
0
 62
7
  6
CONTINUOUS
 10
369.8621602445
 20
31.4746706537
 11
370.0355977445
 21
31.4101421267
 12
369.3418477445
 22
31.4101421267
 13
369.3418477445
 23
31.4101421267
  0
SOLID
  8
0
 62
7
  6
CONTINUOUS
 10
369.6887227445
 20
31.3778792603
 11
369.3418477445
 21
31.4101421267
 12
370.0355977445
 22
31.4101421267
 13
370.0355977445
 23
31.4101421267
  0
SOLID
  8
0
 62
7
  6
CONTINUOUS
 10
368.3012227445
 20
31.3456148845
 11
368.4168479651
 21
31.4424063504
 12
368.9949727445
 22
31.4101421267
 13
368.9949727445
 23
31.4101421267
  0
SOLID
  8
0
 62
7
  6
CONTINUOUS
 10
369.6887227445
 20
31.3778792603
 11
370.0355977445
 21
31.4101421267
 12
369.8043479651
 22
31.3456148845
 13
369.8043479651
 23
31.3456148845
  0
SOLID
  8
0
 62
7
  6
CONTINUOUS
 10
369.8043479651
 20
31.3456148845
 11
370.0355977445
 21
31.4101421267
 12
369.8621602445
 22
31.281087868
 13
369.8621602445
 23
31.281087868
  0
SOLID
  8
0
 62
7
  6
CONTINUOUS
 10
370.0355977445
 20
31.4101421267
 11
370.1512223035
 21
31.281087868
 12
369.8621602445
 22
31.281087868
 13
369.8621602445
 23
31.281087868
  0
SOLID
  8
0
 62
7
  6
CONTINUOUS
 10
359.4559102445
 20
31.3778792603
 11
358.9355977445
 21
31.3456148963
 12
359.6871602721
 22
31.4101421155
 13
359.6871602721
 23
31.4101421155
  0
SOLID
  8
0
 62
7
  6
CONTINUOUS
 10
358.9355977445
 20
31.3456148963
 11
359.0512227376
 21
31.4101421155
 12
359.6871602721
 22
31.4101421155
 13
359.6871602721
 23
31.4101421155
  0
SOLID
  8
0
 62
7
  6
CONTINUOUS
 10
359.4559102445
 20
31.3778792603
 11
359.3402852307
 21
31.3456148963
 12
358.9355977445
 22
31.3456148963
 13
358.9355977445
 23
31.3456148963
  0
SOLID
  8
0
 62
7
  6
CONTINUOUS
 10
358.8199727462
 20
31.2165607767
 11
358.9355977445
 21
31.3456148963
 12
359.3402852307
 22
31.3456148963
 13
359.3402852307
 23
31.3456148963
  0
SOLID
  8
0
 62
7
  6
CONTINUOUS
 10
363.1559103548
 20
31.3456149608
 11
363.8496603548
 21
31.4101420472
 12
363.6184102445
 22
31.3778792603
 13
363.6184102445
 23
31.3778792603
  0
SOLID
  8
0
 62
7
  6
CONTINUOUS
 10
363.6184102445
 20
31.3778792603
 11
363.5027853548
 21
31.3456149608
 12
363.1559103548
 22
31.3456149608
 13
363.1559103548
 23
31.3456149608
  0
SOLID
  8
0
 62
7
  6
CONTINUOUS
 10
363.1559103548
 20
31.2810878707
 11
363.1559103548
 21
31.3456149608
 12
363.5027853548
 22
31.3456149608
 13
363.5027853548
 23
31.3456149608
  0
SOLID
  8
0
 62
7
  6
CONTINUOUS
 10
363.5027853548
 20
31.3456149608
 11
363.4449727445
 21
31.2810878707
 12
363.1559103548
 22
31.2810878707
 13
363.1559103548
 23
31.2810878707
  0
SOLID
  8
0
 62
7
  6
CONTINUOUS
 10
368.3012227445
 20
31.3456149608
 11
368.9949727445
 21
31.4101420472
 12
368.7637229651
 22
31.3778792603
 13
368.7637229651
 23
31.3778792603
  0
SOLID
  8
0
 62
7
  6
CONTINUOUS
 10
368.7637229651
 20
31.3778792603
 11
368.6480977445
 21
31.3456149608
 12
368.3012227445
 22
31.3456149608
 13
368.3012227445
 23
31.3456149608
  0
SOLID
  8
0
 62
7
  6
CONTINUOUS
 10
368.3012227445
 20
31.2810878707
 11
368.3012227445
 21
31.3456149608
 12
368.6480977445
 22
31.3456149608
 13
368.6480977445
 23
31.3456149608
  0
SOLID
  8
0
 62
7
  6
CONTINUOUS
 10
368.6480977445
 20
31.3456149608
 11
368.5902854651
 21
31.2810878707
 12
368.3012227445
 22
31.2810878707
 13
368.3012227445
 23
31.2810878707
  0
SOLID
  8
0
 62
7
  6
CONTINUOUS
 10
368.4168479651
 20
31.1520336865
 11
368.3012227445
 21
31.2810878707
 12
368.5902854651
 22
31.2810878707
 13
368.5902854651
 23
31.2810878707
  0
SOLID
  8
0
 62
7
  6
CONTINUOUS
 10
358.8199727462
 20
31.2165607767
 11
359.3402852307
 21
31.345614957
 12
359.1668477307
 22
31.2488235635
 13
359.1668477307
 23
31.2488235635
  0
SOLID
  8
0
 62
7
  6
CONTINUOUS
 10
359.1668477307
 20
31.2488235635
 11
359.1090352445
 21
31.1842964734
 12
358.8199727462
 22
31.2165607767
 13
358.8199727462
 23
31.2165607767
  0
SOLID
  8
0
 62
7
  6
CONTINUOUS
 10
358.7621602445
 20
31.0229779898
 11
358.8199727462
 21
31.2165607767
 12
359.1090352445
 22
31.1842964734
 13
359.1090352445
 23
31.1842964734
  0
SOLID
  8
0
 62
7
  6
CONTINUOUS
 10
363.6184102445
 20
31.1520336865
 11
363.9652852445
 21
31.1842964611
 12
364.6012229651
 22
31.1842964611
 13
364.6012229651
 23
31.1842964611
  0
SOLID
  8
0
 62
7
  6
CONTINUOUS
 10
363.6184102445
 20
31.1520336865
 11
364.6012229651
 21
31.1842964611
 12
363.3871601343
 22
31.0875057863
 13
363.3871601343
 23
31.0875057863
  0
SOLID
  8
0
 62
7
  6
CONTINUOUS
 10
363.3871601343
 20
31.0875057863
 11
364.6012229651
 21
31.1842964611
 12
363.9652852445
 22
31.0552422808
 13
363.9652852445
 23
31.0552422808
  0
SOLID
  8
0
 62
7
  6
CONTINUOUS
 10
364.6012229651
 20
31.1842964611
 11
364.6012229651
 21
31.0552422808
 12
363.9652852445
 22
31.0552422808
 13
363.9652852445
 23
31.0552422808
  0
SOLID
  8
0
 62
7
  6
CONTINUOUS
 10
368.4168479651
 20
31.1520338754
 11
368.5902854651
 21
31.2810878668
 12
368.6480977445
 22
31.2165607767
 13
368.6480977445
 23
31.2165607767
  0
SOLID
  8
0
 62
7
  6
CONTINUOUS
 10
368.6480977445
 20
31.2165607767
 11
368.8215352445
 21
31.1520338754
 12
368.4168479651
 22
31.1520338754
 13
368.4168479651
 23
31.1520338754
  0
SOLID
  8
0
 62
7
  6
CONTINUOUS
 10
368.6480977445
 20
31.0552422931
 11
368.4168479651
 21
31.1520338754
 12
368.8215352445
 22
31.1520338754
 13
368.8215352445
 23
31.1520338754
  0
SOLID
  8
0
 62
7
  6
CONTINUOUS
 10
368.8215352445
 20
31.1520338754
 11
369.8043479651
 21
30.9907152029
 12
368.6480977445
 22
31.0552422931
 13
368.6480977445
 23
31.0552422931
  0
SOLID
  8
0
 62
7
  6
CONTINUOUS
 10
369.6309104651
 20
30.8939239876
 11
368.6480977445
 21
31.0552422931
 12
369.8043479651
 22
30.9907152029
 13
369.8043479651
 23
30.9907152029
  0
SOLID
  8
0
 62
7
  6
CONTINUOUS
 10
369.8043479651
 20
30.9907152029
 11
370.0355977445
 21
30.8939239876
 12
369.6309104651
 22
30.8939239876
 13
369.6309104651
 23
30.8939239876
  0
SOLID
  8
0
 62
7
  6
CONTINUOUS
 10
369.8043479651
 20
30.8293967193
 11
369.6309104651
 21
30.8939239876
 12
370.0355977445
 22
30.8939239876
 13
370.0355977445
 23
30.8939239876
  0
SOLID
  8
0
 62
7
  6
CONTINUOUS
 10
369.8043479651
 20
30.8293967193
 11
370.0355977445
 21
30.8939239876
 12
369.8621602445
 22
30.7648682694
 13
369.8621602445
 23
30.7648682694
  0
SOLID
  8
0
 62
7
  6
CONTINUOUS
 10
370.0355977445
 20
30.8939239876
 11
370.1512223035
 21
30.7648682694
 12
369.8621602445
 22
30.7648682694
 13
369.8621602445
 23
30.7648682694
  0
SOLID
  8
0
 62
7
  6
CONTINUOUS
 10
369.8043479651
 20
30.7003411846
 11
369.8621602445
 21
30.7648682694
 12
370.1512223035
 22
30.7648682694
 13
370.1512223035
 23
30.7648682694
  0
SOLID
  8
0
 62
7
  6
CONTINUOUS
 10
370.1512223035
 20
30.7648682694
 11
370.1512223035
 21
30.7003411846
 12
369.8043479651
 22
30.7003411846
 13
369.8043479651
 23
30.7003411846
  0
SOLID
  8
0
 62
7
  6
CONTINUOUS
 10
369.6887227445
 20
30.6680782357
 11
369.8043479651
 21
30.7003411846
 12
370.1512223035
 22
30.7003411846
 13
370.1512223035
 23
30.7003411846
  0
SOLID
  8
0
 62
7
  6
CONTINUOUS
 10
369.6887227445
 20
30.6680782357
 11
370.1512223035
 21
30.7003411846
 12
369.4574729651
 22
30.6358140998
 13
369.4574729651
 23
30.6358140998
  0
SOLID
  8
0
 62
7
  6
CONTINUOUS
 10
370.1512223035
 20
30.7003411846
 11
370.0355977445
 21
30.6035511455
 12
369.4574729651
 22
30.6358140998
 13
369.4574729651
 23
30.6358140998
  0
SOLID
  8
0
 62
7
  6
CONTINUOUS
 10
370.0355977445
 20
30.6035511455
 11
368.5902854651
 21
30.5712868422
 12
369.4574729651
 22
30.6358140998
 13
369.4574729651
 23
30.6358140998
  0
SOLID
  8
0
 62
7
  6
CONTINUOUS
 10
369.4574729651
 20
30.6358140998
 11
368.5902854651
 21
30.5712868422
 12
369.1105979651
 22
30.6358140998
 13
369.1105979651
 23
30.6358140998
  0
SOLID
  8
0
 62
7
  6
CONTINUOUS
 10
368.5902854651
 20
30.5712868422
 11
368.4168479651
 21
30.6358140998
 12
369.1105979651
 22
30.6358140998
 13
369.1105979651
 23
30.6358140998
  0
SOLID
  8
0
 62
7
  6
CONTINUOUS
 10
368.5902854651
 20
30.5712868422
 11
370.0355977445
 21
30.6035511455
 12
368.7637229651
 22
30.5390223111
 13
368.7637229651
 23
30.5390223111
  0
SOLID
  8
0
 62
7
  6
CONTINUOUS
 10
370.0355977445
 20
30.6035511455
 11
369.8043479651
 21
30.5390223111
 12
368.7637229651
 22
30.5390223111
 13
368.7637229651
 23
30.5390223111
  0
SOLID
  8
0
 62
7
  6
CONTINUOUS
 10
369.1105979651
 20
30.5067599302
 11
368.7637229651
 21
30.5390223111
 12
369.8043479651
 22
30.5390223111
 13
369.8043479651
 23
30.5390223111
  0
SOLID
  8
0
 62
7
  6
CONTINUOUS
 10
369.8043479651
 20
30.5390223111
 11
369.4574729651
 21
30.5067599302
 12
369.1105979651
 22
30.5067599302
 13
369.1105979651
 23
30.5067599302
  0
SOLID
  8
0
 62
7
  6
CONTINUOUS
 10
358.7621602445
 20
31.0229779898
 11
359.1090352445
 21
31.1842964734
 12
359.0512227376
 22
31.0552422931
 13
359.0512227376
 23
31.0552422931
  0
SOLID
  8
0
 62
7
  6
CONTINUOUS
 10
359.0512227376
 20
31.0552422931
 11
359.0512227376
 21
30.9584509954
 12
358.7621602445
 22
31.0229779898
 13
358.7621602445
 23
31.0229779898
  0
SOLID
  8
0
 62
7
  6
CONTINUOUS
 10
358.8199727462
 20
30.8293967193
 11
358.7621602445
 21
31.0229779898
 12
359.0512227376
 22
30.9584509954
 13
359.0512227376
 23
30.9584509954
  0
SOLID
  8
0
 62
7
  6
CONTINUOUS
 10
359.0512227376
 20
30.9584509954
 11
359.1668477307
 21
30.797132416
 12
358.8199727462
 22
30.8293967193
 13
358.8199727462
 23
30.8293967193
  0
SOLID
  8
0
 62
7
  6
CONTINUOUS
 10
358.9355977445
 20
30.7003413087
 11
358.8199727462
 21
30.8293967193
 12
359.1668477307
 22
30.797132416
 13
359.1668477307
 23
30.797132416
  0
SOLID
  8
0
 62
7
  6
CONTINUOUS
 10
359.1668477307
 20
30.797132416
 11
359.3402852307
 21
30.7003413087
 12
358.9355977445
 22
30.7003413087
 13
358.9355977445
 23
30.7003413087
  0
SOLID
  8
0
 62
7
  6
CONTINUOUS
 10
359.0512227376
 20
30.6358140759
 11
358.9355977445
 21
30.7003413087
 12
359.3402852307
 22
30.7003413087
 13
359.3402852307
 23
30.7003413087
  0
SOLID
  8
0
 62
7
  6
CONTINUOUS
 10
359.3402852307
 20
30.7003413087
 11
359.6871602721
 21
30.6358140759
 12
359.0512227376
 22
30.6358140759
 13
359.0512227376
 23
30.6358140759
  0
SOLID
  8
0
 62
7
  6
CONTINUOUS
 10
359.2246602583
 20
30.5712868422
 11
359.0512227376
 21
30.6358140759
 12
359.6871602721
 22
30.6358140759
 13
359.6871602721
 23
30.6358140759
  0
SOLID
  8
0
 62
7
  6
CONTINUOUS
 10
363.2715352445
 20
31.0229779808
 11
363.3871601343
 21
31.0875057863
 12
363.9652852445
 22
31.0552422931
 13
363.9652852445
 23
31.0552422931
  0
SOLID
  8
0
 62
7
  6
CONTINUOUS
 10
363.9652852445
 20
31.0552422931
 11
363.7340351343
 21
31.0229779808
 12
363.2715352445
 22
31.0229779808
 13
363.2715352445
 23
31.0229779808
  0
SOLID
  8
0
 62
7
  6
CONTINUOUS
 10
363.1559103548
 20
30.8939238094
 11
363.2715352445
 21
31.0229779808
 12
363.7340351343
 22
31.0229779808
 13
363.7340351343
 23
31.0229779808
  0
SOLID
  8
0
 62
7
  6
CONTINUOUS
 10
363.5027853548
 20
30.926187309
 11
363.1559103548
 21
30.8939238094
 12
363.6184102445
 22
30.9907152029
 13
363.6184102445
 23
30.9907152029
  0
SOLID
  8
0
 62
7
  6
CONTINUOUS
 10
363.1559103548
 20
30.8939238094
 11
363.7340351343
 21
31.0229779898
 12
363.6184102445
 22
30.9907152029
 13
363.6184102445
 23
30.9907152029
  0
SOLID
  8
0
 62
7
  6
CONTINUOUS
 10
363.5027853548
 20
30.926187309
 11
363.4449727445
 21
30.8293967193
 12
363.1559103548
 22
30.8939238094
 13
363.1559103548
 23
30.8939238094
  0
SOLID
  8
0
 62
7
  6
CONTINUOUS
 10
363.1559103548
 20
30.797132416
 11
363.1559103548
 21
30.8939238094
 12
363.4449727445
 22
30.8293967193
 13
363.4449727445
 23
30.8293967193
  0
SOLID
  8
0
 62
7
  6
CONTINUOUS
 10
363.4449727445
 20
30.8293967193
 11
363.4449727445
 21
30.7648681127
 12
363.1559103548
 22
30.797132416
 13
363.1559103548
 23
30.797132416
  0
SOLID
  8
0
 62
7
  6
CONTINUOUS
 10
363.2137226343
 20
30.6680782357
 11
363.1559103548
 21
30.797132416
 12
363.4449727445
 22
30.7648681127
 13
363.4449727445
 23
30.7648681127
  0
SOLID
  8
0
 62
7
  6
CONTINUOUS
 10
364.6012229651
 20
30.8616599362
 11
364.890285024
 21
30.7648681127
 12
364.543410024
 22
30.797132416
 13
364.543410024
 23
30.797132416
  0
SOLID
  8
0
 62
7
  6
CONTINUOUS
 10
364.369972524
 20
30.7003410226
 11
364.543410024
 21
30.797132416
 12
364.890285024
 22
30.7648681127
 13
364.890285024
 23
30.7648681127
  0
SOLID
  8
0
 62
7
  6
CONTINUOUS
 10
364.369972524
 20
30.7003410226
 11
364.890285024
 21
30.7648681127
 12
364.6012229651
 22
30.6680782357
 13
364.6012229651
 23
30.6680782357
  0
SOLID
  8
0
 62
7
  6
CONTINUOUS
 10
364.890285024
 20
30.7648681127
 11
364.9480979651
 21
30.6035511455
 12
364.6012229651
 22
30.6680782357
 13
364.6012229651
 23
30.6680782357
  0
SOLID
  8
0
 62
7
  6
CONTINUOUS
 10
364.6590352445
 20
30.5712868422
 11
364.6012229651
 21
30.6680782357
 12
364.9480979651
 22
30.6035511455
 13
364.9480979651
 23
30.6035511455
  0
SOLID
  8
0
 62
7
  6
CONTINUOUS
 10
364.6590352445
 20
30.5712868422
 11
364.9480979651
 21
30.6035511455
 12
364.716847524
 22
30.5067598731
 13
364.716847524
 23
30.5067598731
  0
SOLID
  8
0
 62
7
  6
CONTINUOUS
 10
364.9480979651
 20
30.6035511455
 11
365.0059102445
 21
30.5067598731
 12
364.716847524
 22
30.5067598731
 13
364.716847524
 23
30.5067598731
  0
SOLID
  8
0
 62
7
  6
CONTINUOUS
 10
360.2652852997
 20
30.7326051679
 11
360.3230977445
 21
30.8293966612
 12
360.6121602997
 22
30.8293966612
 13
360.6121602997
 23
30.8293966612
  0
SOLID
  8
0
 62
7
  6
CONTINUOUS
 10
360.6121602997
 20
30.8293966612
 11
360.5543476894
 21
30.7003410226
 12
360.2652852997
 22
30.7326051679
 13
360.2652852997
 23
30.7326051679
  0
SOLID
  8
0
 62
7
  6
CONTINUOUS
 10
360.091847717
 20
30.6680782357
 11
360.2652852997
 21
30.7326051679
 12
360.5543476894
 22
30.7003410226
 13
360.5543476894
 23
30.7003410226
  0
SOLID
  8
0
 62
7
  6
CONTINUOUS
 10
360.091847717
 20
30.6680782357
 11
360.5543476894
 21
30.7003410226
 12
359.6871602721
 22
30.6358139324
 13
359.6871602721
 23
30.6358139324
  0
SOLID
  8
0
 62
7
  6
CONTINUOUS
 10
360.5543476894
 20
30.7003410226
 11
360.3809101894
 21
30.6035511455
 12
359.6871602721
 22
30.6358139324
 13
359.6871602721
 23
30.6358139324
  0
SOLID
  8
0
 62
7
  6
CONTINUOUS
 10
359.2246602583
 20
30.5712868422
 11
359.6871602721
 21
30.6358139324
 12
360.3809101894
 22
30.6035511455
 13
360.3809101894
 23
30.6035511455
  0
SOLID
  8
0
 62
7
  6
CONTINUOUS
 10
359.2246602583
 20
30.5712868422
 11
360.3809101894
 21
30.6035511455
 12
359.3980977583
 22
30.5390224228
 13
359.3980977583
 23
30.5390224228
  0
SOLID
  8
0
 62
7
  6
CONTINUOUS
 10
360.3809101894
 20
30.6035511455
 11
360.1496602445
 21
30.5390224228
 12
359.3980977583
 22
30.5390224228
 13
359.3980977583
 23
30.5390224228
  0
SOLID
  8
0
 62
7
  6
CONTINUOUS
 10
359.744972717
 20
30.5067597521
 11
359.3980977583
 21
30.5390224228
 12
360.1496602445
 22
30.5390224228
 13
360.1496602445
 23
30.5390224228
  0
SOLID
  8
0
 62
7
  6
CONTINUOUS
 10
363.2137226343
 20
30.6680782357
 11
363.4449727445
 21
30.7648681127
 12
363.5027853548
 22
30.7003410226
 13
363.5027853548
 23
30.7003410226
  0
SOLID
  8
0
 62
7
  6
CONTINUOUS
 10
363.5027853548
 20
30.7003410226
 11
363.7340351343
 21
30.6358139324
 12
363.2137226343
 22
30.6680782357
 13
363.2137226343
 23
30.6680782357
  0
SOLID
  8
0
 62
7
  6
CONTINUOUS
 10
363.3871601343
 20
30.5712868422
 11
363.2137226343
 21
30.6680782357
 12
363.7340351343
 22
30.6358139324
 13
363.7340351343
 23
30.6358139324
  0
SOLID
  8
0
 62
7
  6
CONTINUOUS
 10
364.0809101343
 20
30.6358139363
 11
364.369972524
 21
30.7003410226
 12
364.6012229651
 22
30.6680782357
 13
364.6012229651
 23
30.6680782357
  0
SOLID
  8
0
 62
7
  6
CONTINUOUS
 10
364.6012229651
 20
30.6680782357
 11
364.543410024
 21
30.6035511455
 12
364.0809101343
 22
30.6358139363
 13
364.0809101343
 23
30.6358139363
  0
SOLID
  8
0
 62
7
  6
CONTINUOUS
 10
364.543410024
 20
30.6035511455
 11
363.3871601343
 21
30.5712868422
 12
364.0809101343
 22
30.6358139363
 13
364.0809101343
 23
30.6358139363
  0
SOLID
  8
0
 62
7
  6
CONTINUOUS
 10
363.3871601343
 20
30.5712868422
 11
363.7340351343
 21
30.6358139363
 12
364.0809101343
 22
30.6358139363
 13
364.0809101343
 23
30.6358139363
  0
SOLID
  8
0
 62
7
  6
CONTINUOUS
 10
363.3871601343
 20
30.5712868422
 11
364.543410024
 21
30.6035511455
 12
363.5027853548
 22
30.5390225267
 13
363.5027853548
 23
30.5390225267
  0
SOLID
  8
0
 62
7
  6
CONTINUOUS
 10
364.543410024
 20
30.6035511455
 11
364.369972524
 21
30.5390225267
 12
363.5027853548
 22
30.5390225267
 13
363.5027853548
 23
30.5390225267
  0
SOLID
  8
0
 62
7
  6
CONTINUOUS
 10
363.7340351343
 20
30.5067596914
 11
363.5027853548
 21
30.5390225267
 12
364.369972524
 22
30.5390225267
 13
364.369972524
 23
30.5390225267
  0
SOLID
  8
0
 62
7
  6
CONTINUOUS
 10
364.369972524
 20
30.5390225267
 11
364.0809101343
 21
30.5067596914
 12
363.7340351343
 22
30.5067596914
 13
363.7340351343
 23
30.5067596914
  0
SOLID
  8
0
 62
7
  6
CONTINUOUS
 10
368.7637229651
 20
30.6680782357
 11
368.4168479651
 21
30.6358138717
 12
368.6480977445
 22
30.7003410226
 13
368.6480977445
 23
30.7003410226
  0
SOLID
  8
0
 62
7
  6
CONTINUOUS
 10
368.6480977445
 20
30.7003410226
 11
368.4168479651
 21
30.6358138717
 12
368.5902854651
 22
30.7648680521
 13
368.5902854651
 23
30.7648680521
  0
SOLID
  8
0
 62
7
  6
CONTINUOUS
 10
368.4168479651
 20
30.6358138717
 11
368.3012227445
 21
30.7648680521
 12
368.5902854651
 22
30.7648680521
 13
368.5902854651
 23
30.7648680521
  0
SOLID
  8
0
 62
7
  6
CONTINUOUS
 10
368.7637229651
 20
30.6680782357
 11
369.1105979651
 21
30.6358138717
 12
368.4168479651
 22
30.6358138717
 13
368.4168479651
 23
30.6358138717
  0
SOLID
  8
0
 62
7
  6
CONTINUOUS
 10
365.4684104651
 20
30.5067597521
 11
365.4684104651
 21
31.5391977439
 12
365.757472524
 22
30.5067597521
 13
365.757472524
 23
31.5391977439
  0
ENDBLK
  8
0
  6
BYBLOCK
 62
0
  0
BLOCK
  8
0
 62
2
  6
CONTINUOUS
  2
SYMBOL_0_BL0
 70
64
 10
240.8592468615
 20
19.762288695
  0
TEXT
  8
0
 62
7
  6
CONTINUOUS
 10
227.1239507038
 20
19.1357028027
  7
TEXTSTYLE_3
 40
2.7338706658
  1
Ammeraal Beltech
 41
1.0
 51
15.0
 72
0
  0
TEXT
  8
0
 62
7
  6
CONTINUOUS
 10
237.9247515296
 20
16.8621661299
  7
TEXTSTYLE_4
 40
1.0935482663
  1
Innovation & Service in Belting
 41
1.0
 72
0
  0
LINE
  8
0
 62
7
  6
CONTINUOUS
 10
221.0994100525
 20
19.9022961113
 11
221.8775620458
 21
23.5632134089
  0
LINE
  8
0
 62
7
  6
CONTINUOUS
 10
231.9727303357
 20
27.2266073205
 11
222.3653797889
 21
24.1049898993
  0
LINE
  8
0
 62
7
  6
CONTINUOUS
 10
221.3246933848
 20
19.2089453082
 11
228.8317686459
 21
12.4495443822
  0
LINE
  8
0
 62
7
  6
CONTINUOUS
 10
221.5872277955
 20
20.4440726016
 11
232.3954971607
 21
23.9558922005
  0
LINE
  8
0
 62
7
  6
CONTINUOUS
 10
232.3912920235
 20
13.6061036368
 11
223.9458323548
 21
21.2104296785
  0
LINE
  8
0
 62
7
  6
CONTINUOUS
 10
232.9111147433
 20
26.3816822048
 11
231.9345552061
 21
21.7873308023
  0
LINE
  8
0
 62
7
  6
CONTINUOUS
 10
231.2347532584
 20
18.4950214885
 11
230.5483050469
 21
15.2655365641
  0
LINE
  8
0
 62
7
  6
CONTINUOUS
 10
233.5922108419
 20
13.9963058145
 11
234.5484423775
 21
18.4950214885
  0
LINE
  8
0
 62
7
  6
CONTINUOUS
 10
235.2482443252
 20
21.7873308023
 11
235.6924861276
 21
23.8773241617
  0
LINE
  8
0
 62
7
  6
CONTINUOUS
 10
229.5448697213
 20
12.2979700695
 11
233.1043930989
 21
13.4545293241
  0
LINE
  8
0
 62
7
  6
CONTINUOUS
 10
232.685831411
 20
27.0750330078
 11
235.4672027953
 21
24.5706749648
  0
ARC
  8
0
 62
7
  6
CONTINUOUS
 10
222.5906631212
 20
23.4116390962
 40
0.7290321776
 50
108.0
 51
168.0
  0
ARC
  8
0
 62
7
  6
CONTINUOUS
 10
232.198013668
 20
26.5332565175
 40
0.7290321776
 50
348.0
 51
108.0
  0
ARC
  8
0
 62
7
  6
CONTINUOUS
 10
234.9793850522
 20
24.0288984744
 40
0.7290321776
 50
348.0
 51
48.0
  0
ARC
  8
0
 62
7
  6
CONTINUOUS
 10
229.319586389
 20
12.9913208726
 40
0.7290321776
 50
228.0
 51
288.0
  0
ARC
  8
0
 62
7
  6
CONTINUOUS
 10
221.8125111278
 20
19.7507217986
 40
0.7290321776
 50
108.0
 51
228.0
  0
ARC
  8
0
 62
7
  6
CONTINUOUS
 10
232.8791097665
 20
14.1478801272
 40
0.7290321776
 50
228.0
 51
348.0
  0
ENDBLK
  8
0
  6
BYBLOCK
 62
0
  0
ENDSEC
  0
SECTION
  2
ENTITIES
  0
TEXT
  8
0
 62
5
  6
CONTINUOUS
 10
304.937007874
 20
25.636
  7
TEXTSTYLE_2
 40
2.8
  1
Scale :
 41
0.6
 51
0.000019
 72
0
  0
TEXT
  8
0
 62
5
  6
CONTINUOUS
 10
324.937007874
 20
25.636
  7
TEXTSTYLE_2
 40
2.8
  1
Belt type:
 41
0.6
 51
0.000019
 72
0
  0
INSERT
  8
0
 62
2
  6
CONTINUOUS
  2
SYMBOL_0_BL0
 10
240.8592468615
 20
19.762288695
  0
INSERT
  8
0
 62
2
  6
CONTINUOUS
  2
SYMBOL_5_BL1
 10
382.7840918555
 20
35.5067593403
  0
LINE
  8
0
 62
2
  6
CONTINUOUS
 10
218.937007874
 20
30.0
 11
408.937007874
 21
30.0
  0
LINE
  8
0
 62
2
  6
CONTINUOUS
 10
218.937007874
 20
30.0
 11
218.937007874
 21
10.0
  0
LINE
  8
0
 62
2
  6
CONTINUOUS
 10
218.937007874
 20
10.0
 11
408.937007874
 21
10.0
  0
LINE
  8
0
 62
2
  6
CONTINUOUS
 10
303.937007874
 20
30.0
 11
303.937007874
 21
10.0
  0
LINE
  8
0
 62
2
  6
CONTINUOUS
 10
323.937007874
 20
30.0
 11
323.937007874
 21
10.0
  0
LINE
  8
0
 62
2
  6
CONTINUOUS
 10
408.937007874
 20
30.0
 11
408.937007874
 21
10.0
  0
TEXT
  8
0
 62
5
  6
CONTINUOUS
 10
221.937007874
 20
23.303
  7
TEXTSTYLE_5
 40
1.52
  1
                                                                     Ammeraal Beltech Modular A/S
 41
1.0
 72
0
  0
TEXT
  8
0
 62
5
  6
CONTINUOUS
 10
221.937007874
 20
20.595
  7
TEXTSTYLE_5
 40
1.5
  1
                                                                      Hjulmagervej 21, 7100 Vejle,  DK
 41
1.0
 72
0
  0
TEXT
  8
0
 62
5
  6
CONTINUOUS
 10
221.937007874
 20
17.881
  7
TEXTSTYLE_5
 40
1.495
  1
                                                                      tel: 
 41
1.0
 72
0
  0
TEXT
  8
0
 62
5
  6
CONTINUOUS
 10
266.9239544389
 20
17.881
  7
TEXTSTYLE_5
 40
1.51
  1
+45 75723100     fax: +45 75723348
 41
1.0
 72
0
  0
TEXT
  8
0
 62
5
  6
CONTINUOUS
 10
221.937007874
 20
15.177
  7
TEXTSTYLE_5
 40
1.5
  1
                                                                      admin@unichains.dk  www.unichains.com
 41
1.0
 72
0
  0
TEXT
  8
0
 62
5
  6
CONTINUOUS
 10
308.687007874
 20
13.75
  7
TEXTSTYLE_6
 40
5.0
  1
1:1
 41
0.7
 72
1
 11
313.937007874
 21
13.75
  0
TEXT
  8
0
 62
5
  6
CONTINUOUS
 10
326.937007874
 20
13.75
  7
TEXTSTYLE_7
 40
7.5
  1
Sprocket Z12 
 41
0.6487179487
 72
0
  0
LINE
  8
0
 62
7
  6
CONTINUOUS
 10
0.0
 20
0.0
 11
0.0
 21
297.0
  0
LINE
  8
0
 62
7
  6
CONTINUOUS
 10
8.937007874
 20
10.0
 11
8.937007874
 21
287.0
  0
LINE
  8
0
 62
7
  6
CONTINUOUS
 10
0.0
 20
0.0
 11
420.0
 21
0.0
  0
LINE
  8
0
 62
7
  6
CONTINUOUS
 10
408.937007874
 20
10.0
 11
8.937007874
 21
10.0
  0
LINE
  8
0
 62
7
  6
CONTINUOUS
 10
218.937007874
 20
30.0
 11
408.937007874
 21
30.0
  0
LINE
  8
0
 62
7
  6
CONTINUOUS
 10
210.0
 20
297.0
 11
210.0
 21
292.0
  0
LINE
  8
0
 62
7
  6
CONTINUOUS
 10
210.0
 20
0.0
 11
210.0
 21
5.0
  0
LINE
  8
0
 62
7
  6
CONTINUOUS
 10
8.937007874
 20
287.0
 11
408.937007874
 21
287.0
  0
LINE
  8
0
 62
7
  6
CONTINUOUS
 10
0.0
 20
297.0
 11
420.0
 21
297.0
  0
LINE
  8
0
 62
7
  6
CONTINUOUS
 10
408.937007874
 20
287.0
 11
408.937007874
 21
10.0
  0
LINE
  8
0
 62
7
  6
CONTINUOUS
 10
420.0
 20
0.0
 11
420.0
 21
297.0
  0
LINE
  8
0
 62
7
  6
CONTINUOUS
 10
45.1313659606
 20
179.5478368775
 11
45.1313659606
 21
148.2092336962
  0
LINE
  8
0
 62
7
  6
CONTINUOUS
 10
45.1313659606
 20
200.5170598003
 11
45.1313659606
 21
205.3977137874
  0
LINE
  8
0
 62
7
  6
CONTINUOUS
 10
58.3067507192
 20
223.2303159345
 11
42.6374491286
 21
196.0902894604
  0
LINE
  8
0
 62
7
  6
CONTINUOUS
 10
68.7913621806
 20
241.3901956833
 11
71.2316891742
 21
245.6169660232
  0
LINE
  8
0
 62
7
  6
CONTINUOUS
 10
91.5582081533
 20
254.4727601189
 11
64.4181816792
 21
238.8034585282
  0
LINE
  8
0
 62
7
  6
CONTINUOUS
 10
109.7180879021
 20
264.9573715803
 11
113.944858242
 21
267.3976985738
  0
LINE
  8
0
 62
7
  6
CONTINUOUS
 10
109.5180879021
 20
88.7031657418
 11
104.637433915
 21
88.7031657418
  0
LINE
  8
0
 62
7
  6
CONTINUOUS
 10
130.4873108249
 20
88.7031657418
 11
161.8259140062
 21
88.7031657418
  0
LINE
  8
0
 62
7
  6
CONTINUOUS
 10
86.8048317679
 20
101.8785505004
 11
113.944858242
 21
86.2092489098
  0
LINE
  8
0
 62
7
  6
CONTINUOUS
 10
68.6449520191
 20
112.3631619618
 11
64.4181816792
 21
114.8034889554
  0
LINE
  8
0
 62
7
  6
CONTINUOUS
 10
55.5623875835
 20
135.1300079345
 11
71.2316891742
 21
107.9899814604
  0
LINE
  8
0
 62
7
  6
CONTINUOUS
 10
45.0777761221
 20
153.2898876833
 11
42.6374491286
 21
157.5166580232
  0
LINE
  8
0
 62
7
  6
CONTINUOUS
 10
69.3550300952
 20
171.6145227452
 11
69.3994006348
 21
171.1164951419
  0
LINE
  8
0
 62
7
  6
CONTINUOUS
 10
69.4992343013
 20
169.9959335689
 11
69.5546974599
 21
169.3733992429
  0
LINE
  8
0
 62
7
  6
CONTINUOUS
 10
67.2670458536
 20
174.6204723958
 11
67.2906753692
 21
173.9959194773
  0
LINE
  8
0
 62
7
  6
CONTINUOUS
 10
67.928516815
 20
174.020051755
 11
67.9048872993
 21
174.6446046734
  0
LINE
  8
0
 62
7
  6
CONTINUOUS
 10
69.1805705481
 20
174.6928692422
 11
69.2042000638
 21
174.0683163237
  0
LINE
  8
0
 62
7
  6
CONTINUOUS
 10
68.2248267282
 20
188.5979560492
 11
68.0744619626
 21
187.4830500274
  0
LINE
  8
0
 62
7
  6
CONTINUOUS
 10
67.5732460772
 20
183.7666966217
 11
67.4228813116
 21
182.6517906
  0
LINE
  8
0
 62
7
  6
CONTINUOUS
 10
69.2748178021
 20
193.1127719451
 11
68.5638458556
 21
190.1982361517
  0
LINE
  8
0
 62
7
  6
CONTINUOUS
 10
69.3617027669
 20
190.7755994912
 11
69.9245551059
 21
193.0829384746
  0
LINE
  8
0
 62
7
  6
CONTINUOUS
 10
71.08243036
 20
199.0283286893
 11
70.1017428583
 21
196.1931475621
  0
LINE
  8
0
 62
7
  6
CONTINUOUS
 10
71.0707906799
 20
196.6515545754
 11
71.847167662
 21
198.8960711652
  0
LINE
  8
0
 62
7
  6
CONTINUOUS
 10
69.5469595166
 20
193.6897118538
 11
69.2748178021
 21
193.1127719451
  0
LINE
  8
0
 62
7
  6
CONTINUOUS
 10
75.7052244092
 20
209.2527819685
 11
75.3617368413
 21
208.5860614193
  0
LINE
  8
0
 62
7
  6
CONTINUOUS
 10
73.7587944212
 20
205.4746980086
 11
73.4153068533
 21
204.8079774594
  0
LINE
  8
0
 62
7
  6
CONTINUOUS
 10
71.4073859355
 20
199.5772591448
 11
71.08243036
 21
199.0283286893
  0
LINE
  8
0
 62
7
  6
CONTINUOUS
 10
88.1103137987
 20
224.9724914301
 11
87.7380080981
 21
224.454502229
  0
LINE
  8
0
 62
7
  6
CONTINUOUS
 10
88.9364386157
 20
225.7361292937
 11
88.1103137987
 21
224.9724914301
  0
LINE
  8
0
 62
7
  6
CONTINUOUS
 10
88.6302373886
 20
224.4100235367
 11
89.4563622055
 21
225.1736614003
  0
LINE
  8
0
 62
7
  6
CONTINUOUS
 10
90.7106206094
 20
225.289983751
 11
91.2613704874
 21
225.7990756601
  0
LINE
  8
0
 62
7
  6
CONTINUOUS
 10
93.8218905307
 20
229.7500659233
 11
91.4341462187
 21
227.9338398635
  0
LINE
  8
0
 62
7
  6
CONTINUOUS
 10
92.4175133272
 20
227.8798657343
 11
94.3078139437
 21
229.3177136745
  0
LINE
  8
0
 62
7
  6
CONTINUOUS
 10
98.9514263501
 20
233.2068183003
 11
96.40414549
 21
231.6220911251
  0
LINE
  8
0
 62
7
  6
CONTINUOUS
 10
97.4455768505
 20
231.3679034152
 11
99.4621774371
 21
232.6224811106
  0
LINE
  8
0
 62
7
  6
CONTINUOUS
 10
89.4820521796
 20
226.0666291971
 11
88.9364386157
 21
225.7361292937
  0
LINE
  8
0
 62
7
  6
CONTINUOUS
 10
94.3966249866
 20
230.0268413784
 11
93.8218905307
 21
229.7500659233
  0
LINE
  8
0
 62
7
  6
CONTINUOUS
 10
99.5495466731
 20
233.4285758854
 11
98.9514263501
 21
233.2068183003
  0
LINE
  8
0
 62
7
  6
CONTINUOUS
 10
124.4143776058
 20
241.4448013613
 11
125.0191725505
 21
241.6476672648
  0
LINE
  8
0
 62
7
  6
CONTINUOUS
 10
69.7564137467
 20
167.8115504712
 11
69.8609356933
 21
167.1953521982
  0
LINE
  8
0
 62
7
  6
CONTINUOUS
 10
70.2790233828
 20
164.7305596791
 11
70.383545307
 21
164.1143615383
  0
LINE
  8
0
 62
7
  6
CONTINUOUS
 10
73.623686873
 20
169.7359158076
 11
73.5682237144
 21
170.3584501336
  0
LINE
  8
0
 62
7
  6
CONTINUOUS
 10
73.3685563814
 20
172.5995732797
 11
73.3130932545
 21
173.2221072495
  0
LINE
  8
0
 62
7
  6
CONTINUOUS
 10
71.7497459358
 20
193.0236976591
 11
71.7848972274
 21
192.6291265632
  0
LINE
  8
0
 62
7
  6
CONTINUOUS
 10
73.2863856737
 20
174.2227629142
 11
73.2627561581
 21
174.8473158326
  0
LINE
  8
0
 62
7
  6
CONTINUOUS
 10
73.538151821
 20
198.7079607742
 11
73.5362118744
 21
198.3118317553
  0
LINE
  8
0
 62
7
  6
CONTINUOUS
 10
76.0717178862
 20
197.8316017469
 11
76.0697779395
 21
197.4354727279
  0
LINE
  8
0
 62
7
  6
CONTINUOUS
 10
72.4994105579
 20
192.3261646941
 11
72.5235067025
 21
192.9636128464
  0
LINE
  8
0
 62
7
  6
CONTINUOUS
 10
74.1180243739
 20
165.76210254
 11
74.1602685844
 21
166.2764101938
  0
LINE
  8
0
 62
7
  6
CONTINUOUS
 10
76.7527926144
 20
197.0669536859
 11
76.8364561973
 21
197.6993469011
  0
LINE
  8
0
 62
7
  6
CONTINUOUS
 10
73.3690467607
 20
181.8498451834
 11
73.4692899378
 21
182.5931158645
  0
LINE
  8
0
 62
7
  6
CONTINUOUS
 10
73.7031905568
 20
184.3274131754
 11
73.83684819
 21
185.3184412228
  0
LINE
  8
0
 62
7
  6
CONTINUOUS
 10
74.0707490003
 20
187.0527399514
 11
74.1709921773
 21
187.7960106325
  0
LINE
  8
0
 62
7
  6
CONTINUOUS
 10
69.9080242669
 20
171.1618097086
 11
69.9908096353
 21
171.6711659535
  0
LINE
  8
0
 62
7
  6
CONTINUOUS
 10
71.7848972274
 20
192.6291265632
 11
71.2220448884
 21
190.3217875797
  0
LINE
  8
0
 62
7
  6
CONTINUOUS
 10
71.966181598
 20
190.1402628491
 11
72.4994105579
 21
192.3261646941
  0
LINE
  8
0
 62
7
  6
CONTINUOUS
 10
69.4489081144
 20
171.9993719112
 11
69.3550300952
 21
171.6145227452
  0
LINE
  8
0
 62
7
  6
CONTINUOUS
 10
74.3929174425
 20
188.7762922586
 11
74.5706604291
 21
189.5049262069
  0
LINE
  8
0
 62
7
  6
CONTINUOUS
 10
73.5362118744
 20
198.3118317553
 11
72.7598348923
 21
196.0673151655
  0
LINE
  8
0
 62
7
  6
CONTINUOUS
 10
73.4837108385
 20
195.816926897
 11
74.2600878205
 21
198.0614434868
  0
LINE
  8
0
 62
7
  6
CONTINUOUS
 10
76.0697779395
 20
197.4354727279
 11
75.2934009574
 21
195.1909561382
  0
LINE
  8
0
 62
7
  6
CONTINUOUS
 10
75.7721051127
 20
194.2317725587
 11
76.7527926144
 21
197.0669536859
  0
LINE
  8
0
 62
7
  6
CONTINUOUS
 10
87.7380080981
 20
224.454502229
 11
87.5441507766
 21
223.9276196198
  0
LINE
  8
0
 62
7
  6
CONTINUOUS
 10
69.9908096353
 20
171.6711659535
 11
70.0957803053
 21
171.9315080406
  0
LINE
  8
0
 62
7
  6
CONTINUOUS
 10
75.7951654288
 20
202.2320551478
 11
75.1074179438
 21
200.6228627855
  0
LINE
  8
0
 62
7
  6
CONTINUOUS
 10
75.6943578216
 20
200.3720124619
 11
76.3821053065
 21
201.9812048243
  0
LINE
  8
0
 62
7
  6
CONTINUOUS
 10
77.5179395294
 20
207.475207977
 11
75.9149971093
 21
204.3638445663
  0
LINE
  8
0
 62
7
  6
CONTINUOUS
 10
76.5959031209
 20
204.0130487941
 11
78.198845541
 21
207.1244122048
  0
LINE
  8
0
 62
7
  6
CONTINUOUS
 10
78.7490712469
 20
202.0600769165
 11
79.0925588148
 21
202.7267974657
  0
LINE
  8
0
 62
7
  6
CONTINUOUS
 10
80.6955012349
 20
205.8381608764
 11
81.0389888028
 21
206.5048814256
  0
LINE
  8
0
 62
7
  6
CONTINUOUS
 10
101.2453960864
 20
231.1759490068
 11
101.3902310615
 21
231.4164025069
  0
LINE
  8
0
 62
7
  6
CONTINUOUS
 10
69.9245551059
 20
193.0829384746
 11
70.1374493842
 21
193.417001327
  0
LINE
  8
0
 62
7
  6
CONTINUOUS
 10
88.3497261355
 20
223.9768855764
 11
88.6302373886
 21
224.4100235367
  0
LINE
  8
0
 62
7
  6
CONTINUOUS
 10
92.7697614909
 20
222.3257361892
 11
92.4892502378
 21
221.8925982289
  0
LINE
  8
0
 62
7
  6
CONTINUOUS
 10
95.6882890846
 20
228.1222558438
 11
95.4671072517
 21
227.7936214575
  0
LINE
  8
0
 62
7
  6
CONTINUOUS
 10
93.0091738883
 20
221.3301302698
 11
93.3814795814
 21
221.8481194792
  0
LINE
  8
0
 62
7
  6
CONTINUOUS
 10
71.847167662
 20
198.8960711652
 11
72.0903995907
 21
199.2087374281
  0
LINE
  8
0
 62
7
  6
CONTINUOUS
 10
74.2600878205
 20
198.0614434868
 11
74.5033197493
 21
198.3741097496
  0
LINE
  8
0
 62
7
  6
CONTINUOUS
 10
100.6572452153
 20
231.411437779
 11
100.4062702987
 21
231.1049519649
  0
LINE
  8
0
 62
7
  6
CONTINUOUS
 10
102.073384366
 20
229.1351442881
 11
101.8224094494
 21
228.8286584739
  0
LINE
  8
0
 62
7
  6
CONTINUOUS
 10
95.8313321058
 20
227.1083062893
 11
96.2514941495
 21
227.5882940019
  0
LINE
  8
0
 62
7
  6
CONTINUOUS
 10
74.3456922959
 20
199.0899684212
 11
74.1433217229
 21
198.8954329028
  0
LINE
  8
0
 62
7
  6
CONTINUOUS
 10
102.1208807006
 20
228.1122565802
 11
102.5841306358
 21
228.5508040093
  0
LINE
  8
0
 62
7
  6
CONTINUOUS
 10
93.2544110365
 20
223.6429486039
 11
92.7036611586
 21
223.1338566948
  0
LINE
  8
0
 62
7
  6
CONTINUOUS
 10
92.4892502378
 20
221.8925982289
 11
91.6631254208
 21
221.1289603653
  0
LINE
  8
0
 62
7
  6
CONTINUOUS
 10
92.1830490714
 20
220.5664924062
 11
93.0091738883
 21
221.3301302698
  0
LINE
  8
0
 62
7
  6
CONTINUOUS
 10
95.4671072517
 20
227.7936214575
 11
93.5768066352
 21
226.3557735173
  0
LINE
  8
0
 62
7
  6
CONTINUOUS
 10
94.0405238718
 20
225.7461367444
 11
95.8313321058
 21
227.1083062893
  0
LINE
  8
0
 62
7
  6
CONTINUOUS
 10
95.0665983384
 20
223.1583512395
 11
95.6635344164
 21
223.6124077544
  0
LINE
  8
0
 62
7
  6
CONTINUOUS
 10
124.2125396003
 20
242.0631124391
 11
123.7473724018
 21
241.7487700391
  0
LINE
  8
0
 62
7
  6
CONTINUOUS
 10
100.4062702987
 20
231.1049519649
 11
98.3896697121
 21
229.8503742694
  0
LINE
  8
0
 62
7
  6
CONTINUOUS
 10
98.7942808575
 20
229.2000047656
 11
100.8108814441
 21
230.4545824611
  0
LINE
  8
0
 62
7
  6
CONTINUOUS
 10
101.8224094494
 20
228.8286584739
 11
99.8058088628
 21
227.5740807785
  0
LINE
  8
0
 62
7
  6
CONTINUOUS
 10
99.5735998405
 20
226.527529405
 11
102.1208807006
 21
228.1122565802
  0
LINE
  8
0
 62
7
  6
CONTINUOUS
 10
91.6374354998
 20
220.235992511
 11
92.1830490714
 21
220.5664924062
  0
LINE
  8
0
 62
7
  6
CONTINUOUS
 10
89.4563622055
 20
225.1736614003
 11
89.9101813219
 21
225.4193100627
  0
LINE
  8
0
 62
7
  6
CONTINUOUS
 10
91.6631254208
 20
221.1289603653
 11
91.2093063045
 21
220.8833117028
  0
LINE
  8
0
 62
7
  6
CONTINUOUS
 10
94.3078139437
 20
229.3177136745
 11
94.6835681888
 21
229.4431358031
  0
LINE
  8
0
 62
7
  6
CONTINUOUS
 10
98.0281994866
 20
134.3941637271
 11
98.1612887106
 21
134.3028238879
  0
LINE
  8
0
 62
7
  6
CONTINUOUS
 10
98.0742934212
 20
134.5150673316
 11
97.9037993355
 21
134.6438120326
  0
LINE
  8
0
 62
7
  6
CONTINUOUS
 10
96.3989165167
 20
135.9816973123
 11
96.5694106559
 21
135.8529525578
  0
LINE
  8
0
 62
7
  6
CONTINUOUS
 10
96.6529094254
 20
135.9364513273
 11
96.4824152862
 21
136.0651960818
  0
LINE
  8
0
 62
7
  6
CONTINUOUS
 10
97.7828957577
 20
134.5977180712
 11
98.0281994866
 21
134.3941637271
  0
LINE
  8
0
 62
7
  6
CONTINUOUS
 10
95.1271517537
 20
137.2534620752
 11
95.4098604246
 21
137.0125027891
  0
LINE
  8
0
 62
7
  6
CONTINUOUS
 10
88.1047633638
 20
138.3909974091
 11
89.0063245098
 21
137.4894362631
  0
LINE
  8
0
 62
7
  6
CONTINUOUS
 10
90.2791167159
 20
136.2166440569
 11
90.6682551025
 21
135.8275056703
  0
LINE
  8
0
 62
7
  6
CONTINUOUS
 10
91.4619804958
 20
135.033780277
 11
92.2413380337
 21
134.2544227391
  0
LINE
  8
0
 62
7
  6
CONTINUOUS
 10
92.4534700681
 20
134.0422907048
 11
93.3550312141
 21
133.1407295588
  0
LINE
  8
0
 62
7
  6
CONTINUOUS
 10
94.5747904116
 20
131.9209703612
 11
95.4763515576
 21
131.0194092152
  0
LINE
  8
0
 62
7
  6
CONTINUOUS
 10
91.6741125302
 20
136.3065724831
 11
91.1276448533
 21
136.85304016
  0
LINE
  8
0
 62
7
  6
CONTINUOUS
 10
95.5824175748
 20
134.3074557477
 11
96.0066816435
 21
133.883191679
  0
LINE
  8
0
 62
7
  6
CONTINUOUS
 10
96.8552097809
 20
134.5195877821
 11
96.4660713943
 21
134.9087261687
  0
LINE
  8
0
 62
7
  6
CONTINUOUS
 10
95.7945496092
 20
135.5802479539
 11
94.8929884631
 21
136.4818090999
  0
LINE
  8
0
 62
7
  6
CONTINUOUS
 10
94.6808564288
 20
136.6939411342
 11
93.9014988909
 21
137.4732986721
  0
LINE
  8
0
 62
7
  6
CONTINUOUS
 10
92.5595360852
 20
138.8152614778
 11
91.6579749392
 21
139.7168226238
  0
LINE
  8
0
 62
7
  6
CONTINUOUS
 10
91.4458429049
 20
139.9289546582
 11
90.5442817589
 21
140.8305158042
  0
LINE
  8
0
 62
7
  6
CONTINUOUS
 10
93.5796716759
 20
138.1747012647
 11
93.7666956098
 21
137.9876773307
  0
LINE
  8
0
 62
7
  6
CONTINUOUS
 10
96.4224396673
 20
135.3319332732
 11
96.6094639223
 21
135.1449090182
  0
LINE
  8
0
 62
7
  6
CONTINUOUS
 10
93.8710690717
 20
138.0920507926
 11
93.6840451378
 21
138.2790747266
  0
LINE
  8
0
 62
7
  6
CONTINUOUS
 10
91.5736916574
 20
140.8069221716
 11
91.7981207206
 21
140.5824931083
  0
LINE
  8
0
 62
7
  6
CONTINUOUS
 10
92.9202660367
 20
139.4603477922
 11
93.0698852695
 21
139.3107285594
  0
LINE
  8
0
 62
7
  6
CONTINUOUS
 10
93.4065288644
 20
138.9740849646
 11
93.5935532264
 21
138.7870606025
  0
LINE
  8
0
 62
7
  6
CONTINUOUS
 10
93.8927921201
 20
138.4878217089
 11
94.079816054
 21
138.3007977749
  0
LINE
  8
0
 62
7
  6
CONTINUOUS
 10
94.9027226905
 20
137.4778911384
 11
95.1271517537
 21
137.2534620752
  0
LINE
  8
0
 62
7
  6
CONTINUOUS
 10
96.2492970699
 20
136.1313167591
 11
96.3989165167
 21
135.9816973123
  0
LINE
  8
0
 62
7
  6
CONTINUOUS
 10
95.2106505233
 20
137.3369608447
 11
94.9862214601
 21
137.561389908
  0
LINE
  8
0
 62
7
  6
CONTINUOUS
 10
91.8816194901
 20
140.6659918779
 11
91.6571904269
 21
140.8904209411
  0
LINE
  8
0
 62
7
  6
CONTINUOUS
 10
95.7430074192
 20
136.9716014878
 11
95.5559832712
 21
137.1586256358
  0
LINE
  8
0
 62
7
  6
CONTINUOUS
 10
91.4040456016
 20
141.3105633054
 11
91.2170216676
 21
141.4975872394
  0
LINE
  8
0
 62
7
  6
CONTINUOUS
 10
97.617594225
 20
135.1805134516
 11
97.43056997
 21
135.3675377066
  0
LINE
  8
0
 62
7
  6
CONTINUOUS
 10
94.8705103283
 20
137.9693467331
 11
95.2819637535
 21
137.5578933078
  0
LINE
  8
0
 62
7
  6
CONTINUOUS
 10
91.3701372866
 20
141.0522259272
 11
91.5736916574
 21
140.8069221716
  0
LINE
  8
0
 62
7
  6
CONTINUOUS
 10
91.6571904269
 20
140.8904209411
 11
91.4536360561
 21
141.1357246967
  0
LINE
  8
0
 62
7
  6
CONTINUOUS
 10
94.6991685337
 20
137.72319468
 11
94.9027226905
 21
137.4778911384
  0
LINE
  8
0
 62
7
  6
CONTINUOUS
 10
91.2787974473
 20
141.1853151511
 11
91.3701372866
 21
141.0522259272
  0
LINE
  8
0
 62
7
  6
CONTINUOUS
 10
73.363724744
 20
167.1555813841
 11
73.5732040454
 21
166.6839721417
  0
LINE
  8
0
 62
7
  6
CONTINUOUS
 10
74.0766510331
 20
166.769368777
 11
73.8671717647
 21
167.240978025
  0
LINE
  8
0
 62
7
  6
CONTINUOUS
 10
69.3994006348
 20
171.1164951419
 11
69.5709270824
 21
170.6297961803
  0
LINE
  8
0
 62
7
  6
CONTINUOUS
 10
70.0795507145
 20
170.6751107469
 11
69.9080242669
 21
171.1618097086
  0
LINE
  8
0
 62
7
  6
CONTINUOUS
 10
73.5732040454
 20
166.6839721417
 11
73.6568215967
 21
166.1910135585
  0
LINE
  8
0
 62
7
  6
CONTINUOUS
 10
74.1602685844
 20
166.2764101938
 11
74.0766510331
 21
166.769368777
  0
LINE
  8
0
 62
7
  6
CONTINUOUS
 10
73.8467028043
 20
168.1250046603
 11
73.7421808576
 21
168.7412029333
  0
LINE
  8
0
 62
7
  6
CONTINUOUS
 10
74.1433217229
 20
198.8954329028
 11
74.1044003138
 21
199.1734311774
  0
LINE
  8
0
 62
7
  6
CONTINUOUS
 10
87.5441507766
 20
223.9276196198
 11
87.5236013185
 21
223.2132477128
  0
LINE
  8
0
 62
7
  6
CONTINUOUS
 10
88.2476590598
 20
223.534850324
 11
88.3497261355
 21
223.9768855764
  0
LINE
  8
0
 62
7
  6
CONTINUOUS
 10
92.8718285059
 20
222.7677715072
 11
92.7697614909
 21
222.3257361892
  0
LINE
  8
0
 62
7
  6
CONTINUOUS
 10
96.2514941495
 20
227.5882940019
 11
96.4175913984
 21
228.195815577
  0
LINE
  8
0
 62
7
  6
CONTINUOUS
 10
73.6568215967
 20
166.1910135585
 11
73.4887156172
 21
165.6553567421
  0
LINE
  8
0
 62
7
  6
CONTINUOUS
 10
93.3814795814
 20
221.8481194792
 11
93.5753368801
 21
222.375002113
  0
LINE
  8
0
 62
7
  6
CONTINUOUS
 10
102.5841306358
 20
228.5508040093
 11
102.8063702358
 21
229.140108978
  0
LINE
  8
0
 62
7
  6
CONTINUOUS
 10
73.9290140325
 20
165.3496852831
 11
74.1180243739
 21
165.76210254
  0
LINE
  8
0
 62
7
  6
CONTINUOUS
 10
69.6699420416
 20
172.3955497189
 11
69.4489081144
 21
171.9993719112
  0
LINE
  8
0
 62
7
  6
CONTINUOUS
 10
123.7473724018
 20
241.7487700391
 11
123.3133160124
 21
241.1810110457
  0
LINE
  8
0
 62
7
  6
CONTINUOUS
 10
69.9020686196
 20
172.6672204476
 11
69.6699420416
 21
172.3955497189
  0
LINE
  8
0
 62
7
  6
CONTINUOUS
 10
126.6946601125
 20
240.3099433744
 11
123.6096219234
 21
236.7157578333
  0
LINE
  8
0
 62
7
  6
CONTINUOUS
 10
124.6021665797
 20
236.8376080519
 11
127.3616653165
 21
240.0059746966
  0
LINE
  8
0
 62
7
  6
CONTINUOUS
 10
124.0732827489
 20
241.1456907616
 11
124.4143776058
 21
241.4448013613
  0
LINE
  8
0
 62
7
  6
CONTINUOUS
 10
70.0375234218
 20
194.0847063805
 11
69.5469595166
 21
193.6897118538
  0
LINE
  8
0
 62
7
  6
CONTINUOUS
 10
71.9327721373
 20
199.9245960997
 11
71.4073859355
 21
199.5772591448
  0
LINE
  8
0
 62
7
  6
CONTINUOUS
 10
70.1374493842
 20
193.417001327
 11
70.4447430683
 21
193.5993729193
  0
LINE
  8
0
 62
7
  6
CONTINUOUS
 10
145.1855237852
 20
238.4779186693
 11
145.7432640607
 21
238.770477763
  0
LINE
  8
0
 62
7
  6
CONTINUOUS
 10
72.0903995907
 20
199.2087374281
 11
72.4134161547
 21
199.3615415684
  0
LINE
  8
0
 62
7
  6
CONTINUOUS
 10
82.5446840471
 20
216.6523307964
 11
82.1143409346
 21
216.5087416587
  0
LINE
  8
0
 62
7
  6
CONTINUOUS
 10
83.6684103739
 20
213.2821192265
 11
84.0987532019
 21
213.4257085808
  0
LINE
  8
0
 62
7
  6
CONTINUOUS
 10
98.3152526403
 20
134.2323587277
 11
98.4318117084
 21
134.1992984292
  0
LINE
  8
0
 62
7
  6
CONTINUOUS
 10
98.3448164189
 20
134.4115418729
 11
98.1699778102
 21
134.4611323273
  0
LINE
  8
0
 62
7
  6
CONTINUOUS
 10
96.7233744653
 20
135.782487518
 11
96.8399335734
 21
135.7494271793
  0
LINE
  8
0
 62
7
  6
CONTINUOUS
 10
96.923432343
 20
135.8329259489
 11
96.8068732348
 21
135.8659862875
  0
LINE
  8
0
 62
7
  6
CONTINUOUS
 10
97.9768086232
 20
135.6145374662
 11
97.8019700072
 21
135.6641279134
  0
LINE
  8
0
 62
7
  6
CONTINUOUS
 10
95.5055447333
 20
136.9585678651
 11
95.6221039485
 21
136.9255074195
  0
LINE
  8
0
 62
7
  6
CONTINUOUS
 10
95.7186363407
 20
137.2464688749
 11
95.8351953711
 21
137.2134086725
  0
LINE
  8
0
 62
7
  6
CONTINUOUS
 10
95.7482000015
 20
137.4256521965
 11
95.6316410003
 21
137.4587124281
  0
LINE
  8
0
 62
7
  6
CONTINUOUS
 10
95.1584117954
 20
138.1824379416
 11
95.3332504187
 21
138.1328475018
  0
LINE
  8
0
 62
7
  6
CONTINUOUS
 10
93.3943435391
 20
139.1115184441
 11
93.5109023263
 21
139.0784584265
  0
LINE
  8
0
 62
7
  6
CONTINUOUS
 10
93.5944010958
 20
139.161957196
 11
93.4778423087
 21
139.1950172136
  0
LINE
  8
0
 62
7
  6
CONTINUOUS
 10
98.1612887106
 20
134.3028238879
 11
98.3152526403
 21
134.2323587277
  0
LINE
  8
0
 62
7
  6
CONTINUOUS
 10
96.5694106559
 20
135.8529525578
 11
96.7233744653
 21
135.782487518
  0
LINE
  8
0
 62
7
  6
CONTINUOUS
 10
96.8068732348
 20
135.8659862875
 11
96.6529094254
 21
135.9364513273
  0
LINE
  8
0
 62
7
  6
CONTINUOUS
 10
97.9681194628
 20
135.456229073
 11
98.1220834327
 21
135.3857638726
  0
LINE
  8
0
 62
7
  6
CONTINUOUS
 10
93.2403796228
 20
139.1819835909
 11
93.3943435391
 21
139.1115184441
  0
LINE
  8
0
 62
7
  6
CONTINUOUS
 10
95.4376238934
 20
138.2372209765
 11
95.2836599716
 21
138.3076861179
  0
LINE
  8
0
 62
7
  6
CONTINUOUS
 10
93.4778423087
 20
139.1950172136
 11
93.3238783923
 21
139.2654823605
  0
LINE
  8
0
 62
7
  6
CONTINUOUS
 10
98.1699778102
 20
134.4611323273
 11
98.0742934212
 21
134.5150673316
  0
LINE
  8
0
 62
7
  6
CONTINUOUS
 10
95.4098604246
 20
137.0125027891
 11
95.5055447333
 21
136.9585678651
  0
LINE
  8
0
 62
7
  6
CONTINUOUS
 10
98.1681773533
 20
135.5066675166
 11
97.9768086232
 21
135.6145374662
  0
LINE
  8
0
 62
7
  6
CONTINUOUS
 10
95.4768289713
 20
137.1542811663
 11
95.3811446625
 21
137.2082160903
  0
LINE
  8
0
 62
7
  6
CONTINUOUS
 10
95.5272675092
 20
137.354338937
 11
95.7186363407
 21
137.2464688749
  0
LINE
  8
0
 62
7
  6
CONTINUOUS
 10
95.6316410003
 20
137.4587124281
 11
95.5359566915
 21
137.5126473521
  0
LINE
  8
0
 62
7
  6
CONTINUOUS
 10
92.0434244762
 20
140.3789387375
 11
92.2347930938
 21
140.2710688895
  0
LINE
  8
0
 62
7
  6
CONTINUOUS
 10
92.1477979381
 20
140.4833121994
 11
92.0521134153
 21
140.5372473374
  0
LINE
  8
0
 62
7
  6
CONTINUOUS
 10
91.8171948095
 20
141.648903111
 11
91.9128793323
 21
141.5949679729
  0
LINE
  8
0
 62
7
  6
CONTINUOUS
 10
91.9215682842
 20
141.7532765857
 11
91.7301996612
 21
141.8611464282
  0
LINE
  8
0
 62
7
  6
CONTINUOUS
 10
95.3332504187
 20
138.1328475018
 11
95.5620239588
 21
137.9875727459
  0
LINE
  8
0
 62
7
  6
CONTINUOUS
 10
95.3811446625
 20
137.2082160903
 11
95.2106505233
 21
137.3369608447
  0
LINE
  8
0
 62
7
  6
CONTINUOUS
 10
93.0698852695
 20
139.3107285594
 11
93.2403796228
 21
139.1819835909
  0
LINE
  8
0
 62
7
  6
CONTINUOUS
 10
95.5359566915
 20
137.5126473521
 11
95.3654625523
 21
137.6413921066
  0
LINE
  8
0
 62
7
  6
CONTINUOUS
 10
93.3238783923
 20
139.2654823605
 11
93.1533840391
 21
139.3942273289
  0
LINE
  8
0
 62
7
  6
CONTINUOUS
 10
92.0521134153
 20
140.5372473374
 11
91.8816194901
 21
140.6659918779
  0
LINE
  8
0
 62
7
  6
CONTINUOUS
 10
91.9128793323
 20
141.5949679729
 11
92.0833732648
 21
141.4662234398
  0
LINE
  8
0
 62
7
  6
CONTINUOUS
 10
95.6455227356
 20
138.0710715227
 11
95.4376238934
 21
138.2372209765
  0
LINE
  8
0
 62
7
  6
CONTINUOUS
 10
95.2819637535
 20
137.5578933078
 11
95.5272675092
 21
137.354338937
  0
LINE
  8
0
 62
7
  6
CONTINUOUS
 10
91.7981207206
 20
140.5824931083
 11
92.0434244762
 21
140.3789387375
  0
LINE
  8
0
 62
7
  6
CONTINUOUS
 10
92.1668720417
 20
141.5497222167
 11
91.9215682842
 21
141.7532765857
  0
LINE
  8
0
 62
7
  6
CONTINUOUS
 10
98.1220834327
 20
135.3857638726
 11
98.4047920038
 21
135.1448047009
  0
LINE
  8
0
 62
7
  6
CONTINUOUS
 10
98.4508859724
 20
135.2657082859
 11
98.1681773533
 21
135.5066675166
  0
LINE
  8
0
 62
7
  6
CONTINUOUS
 10
95.3654625523
 20
137.6413921066
 11
94.9540091271
 21
138.0528455318
  0
LINE
  8
0
 62
7
  6
CONTINUOUS
 10
97.6810663078
 20
135.6180340444
 11
97.8680905628
 21
135.4310097894
  0
LINE
  8
0
 62
7
  6
CONTINUOUS
 10
92.560947146
 20
140.8216520049
 11
92.7479715081
 21
140.6346276429
  0
LINE
  8
0
 62
7
  6
CONTINUOUS
 10
92.0833732648
 20
141.4662234398
 11
92.307802328
 21
141.2417943766
  0
LINE
  8
0
 62
7
  6
CONTINUOUS
 10
95.5620239588
 20
137.9875727459
 11
95.786453022
 21
137.7631436826
  0
LINE
  8
0
 62
7
  6
CONTINUOUS
 10
97.5905745812
 20
136.1260196771
 11
97.4035503262
 21
136.3130439321
  0
LINE
  8
0
 62
7
  6
CONTINUOUS
 10
96.7302631365
 20
136.9863311218
 11
96.5432389885
 21
137.1733552698
  0
LINE
  8
0
 62
7
  6
CONTINUOUS
 10
95.8699517989
 20
137.8466424595
 11
95.6455227356
 21
138.0710715227
  0
LINE
  8
0
 62
7
  6
CONTINUOUS
 10
95.2340695244
 20
138.4825247339
 11
95.0470451624
 21
138.669549096
  0
LINE
  8
0
 62
7
  6
CONTINUOUS
 10
94.7478062687
 20
138.9687879896
 11
94.5607823347
 21
139.1558119236
  0
LINE
  8
0
 62
7
  6
CONTINUOUS
 10
94.2615434411
 20
139.4550508172
 11
94.0745190791
 21
139.6420751793
  0
LINE
  8
0
 62
7
  6
CONTINUOUS
 10
93.4012318894
 20
140.3153623689
 11
93.2142079554
 21
140.5023863029
  0
LINE
  8
0
 62
7
  6
CONTINUOUS
 10
92.3913011049
 20
141.3252931534
 11
92.1668720417
 21
141.5497222167
  0
LINE
  8
0
 62
7
  6
CONTINUOUS
 10
73.0492881161
 20
167.4826019635
 11
73.363724744
 21
167.1555813841
  0
LINE
  8
0
 62
7
  6
CONTINUOUS
 10
97.5419365252
 20
134.8804266885
 11
97.7828957577
 21
134.5977180712
  0
LINE
  8
0
 62
7
  6
CONTINUOUS
 10
97.9037993355
 20
134.6438120326
 11
97.6628401564
 21
134.9265205964
  0
LINE
  8
0
 62
7
  6
CONTINUOUS
 10
92.307802328
 20
141.2417943766
 11
92.5113566916
 21
140.9964906137
  0
LINE
  8
0
 62
7
  6
CONTINUOUS
 10
92.5948554739
 20
141.079989396
 11
92.3913011049
 21
141.3252931534
  0
LINE
  8
0
 62
7
  6
CONTINUOUS
 10
98.6544403147
 20
135.0204045552
 11
98.4508859724
 21
135.2657082859
  0
LINE
  8
0
 62
7
  6
CONTINUOUS
 10
69.5709270824
 20
170.6297961803
 11
69.8585167556
 21
170.2789332955
  0
LINE
  8
0
 62
7
  6
CONTINUOUS
 10
70.3671403877
 20
170.3242478621
 11
70.0795507145
 21
170.6751107469
  0
LINE
  8
0
 62
7
  6
CONTINUOUS
 10
93.1533840391
 20
139.3942273289
 11
93.0246394986
 21
139.5647212541
  0
LINE
  8
0
 62
7
  6
CONTINUOUS
 10
94.9862214601
 20
137.561389908
 11
94.8574767056
 21
137.7318840472
  0
LINE
  8
0
 62
7
  6
CONTINUOUS
 10
96.4824152862
 20
136.0651960818
 11
96.3536705318
 21
136.235690221
  0
LINE
  8
0
 62
7
  6
CONTINUOUS
 10
95.9986963375
 20
137.6761485325
 11
95.8699517989
 21
137.8466424595
  0
LINE
  8
0
 62
7
  6
CONTINUOUS
 10
73.8671717647
 20
167.240978025
 11
73.6995012272
 21
167.4661082459
  0
LINE
  8
0
 62
7
  6
CONTINUOUS
 10
91.6293225635
 20
141.4610308649
 11
92.1608315608
 21
140.7207748853
  0
LINE
  8
0
 62
7
  6
CONTINUOUS
 10
92.3356701988
 20
140.6711844601
 11
91.8041611722
 21
141.4114404105
  0
LINE
  8
0
 62
7
  6
CONTINUOUS
 10
92.8289261975
 20
139.5934370162
 11
92.9202660367
 21
139.4603477922
  0
LINE
  8
0
 62
7
  6
CONTINUOUS
 10
92.6861953113
 20
140.9469001702
 11
92.5948554739
 21
141.079989396
  0
LINE
  8
0
 62
7
  6
CONTINUOUS
 10
96.1579572306
 20
136.2644059831
 11
96.2492970699
 21
136.1313167591
  0
LINE
  8
0
 62
7
  6
CONTINUOUS
 10
98.4047920038
 20
135.1448047009
 11
98.5874717017
 21
134.8786262188
  0
LINE
  8
0
 62
7
  6
CONTINUOUS
 10
98.7457801521
 20
134.8873153294
 11
98.6544403147
 21
135.0204045552
  0
LINE
  8
0
 62
7
  6
CONTINUOUS
 10
91.4536360561
 20
141.1357246967
 11
91.399700918
 21
141.2314092195
  0
LINE
  8
0
 62
7
  6
CONTINUOUS
 10
93.0246394986
 20
139.5647212541
 11
92.9707043606
 21
139.6604057769
  0
LINE
  8
0
 62
7
  6
CONTINUOUS
 10
92.5113566916
 20
140.9964906137
 11
92.5652918296
 21
140.9008060909
  0
LINE
  8
0
 62
7
  6
CONTINUOUS
 10
94.8574767056
 20
137.7318840472
 11
94.8035419956
 21
137.8275681419
  0
LINE
  8
0
 62
7
  6
CONTINUOUS
 10
96.3536705318
 20
136.235690221
 11
96.2997356078
 21
136.3313745298
  0
LINE
  8
0
 62
7
  6
CONTINUOUS
 10
95.786453022
 20
137.7631436826
 11
95.8943228628
 21
137.5717750578
  0
LINE
  8
0
 62
7
  6
CONTINUOUS
 10
97.4340665701
 20
135.0717954131
 11
97.5419365252
 21
134.8804266885
  0
LINE
  8
0
 62
7
  6
CONTINUOUS
 10
96.0526314737
 20
137.5804640078
 11
95.9986963375
 21
137.6761485325
  0
LINE
  8
0
 62
7
  6
CONTINUOUS
 10
91.2083323005
 20
141.3392790675
 11
91.2787974473
 21
141.1853151511
  0
LINE
  8
0
 62
7
  6
CONTINUOUS
 10
91.8041611722
 20
141.4114404105
 11
91.7336960254
 21
141.5654043268
  0
LINE
  8
0
 62
7
  6
CONTINUOUS
 10
92.1608315608
 20
140.7207748853
 11
92.2312967077
 21
140.5668109689
  0
LINE
  8
0
 62
7
  6
CONTINUOUS
 10
92.7584610507
 20
139.7474009326
 11
92.8289261975
 21
139.5934370162
  0
LINE
  8
0
 62
7
  6
CONTINUOUS
 10
92.7566604545
 20
140.7929362502
 11
92.6861953113
 21
140.9469001702
  0
LINE
  8
0
 62
7
  6
CONTINUOUS
 10
94.6287033869
 20
137.8771585964
 11
94.6991685337
 21
137.72319468
  0
LINE
  8
0
 62
7
  6
CONTINUOUS
 10
96.0874920838
 20
136.4183698995
 11
96.1579572306
 21
136.2644059831
  0
LINE
  8
0
 62
7
  6
CONTINUOUS
 10
97.6628401564
 20
134.9265205964
 11
97.5923749561
 21
135.0804845662
  0
LINE
  8
0
 62
7
  6
CONTINUOUS
 10
98.8162453087
 20
134.733351396
 11
98.7457801521
 21
134.8873153294
  0
LINE
  8
0
 62
7
  6
CONTINUOUS
 10
72.5235067025
 20
192.9636128464
 11
72.2699338981
 21
193.5401321038
  0
LINE
  8
0
 62
7
  6
CONTINUOUS
 10
91.5423274078
 20
141.6732741749
 11
91.6293225635
 21
141.4610308649
  0
LINE
  8
0
 62
7
  6
CONTINUOUS
 10
92.4226653252
 20
140.4589411209
 11
92.3356701988
 21
140.6711844601
  0
LINE
  8
0
 62
7
  6
CONTINUOUS
 10
76.8364561973
 20
197.6993469011
 11
76.6379664212
 21
198.2970721355
  0
LINE
  8
0
 62
7
  6
CONTINUOUS
 10
92.725400605
 20
139.8639601478
 11
92.7584610507
 21
139.7474009326
  0
LINE
  8
0
 62
7
  6
CONTINUOUS
 10
92.9707043606
 20
139.6604057769
 11
92.937644343
 21
139.7769645641
  0
LINE
  8
0
 62
7
  6
CONTINUOUS
 10
94.5956429412
 20
137.9937178116
 11
94.6287033869
 21
137.8771585964
  0
LINE
  8
0
 62
7
  6
CONTINUOUS
 10
96.0544318521
 20
136.5349289006
 11
96.0874920838
 21
136.4183698995
  0
LINE
  8
0
 62
7
  6
CONTINUOUS
 10
96.2997356078
 20
136.3313745298
 11
96.2666753761
 21
136.4479335309
  0
LINE
  8
0
 62
7
  6
CONTINUOUS
 10
96.1022219172
 20
137.4056253881
 11
96.0526314737
 21
137.5804640078
  0
LINE
  8
0
 62
7
  6
CONTINUOUS
 10
97.3844761157
 20
135.2466340219
 11
97.4340665701
 21
135.0717954131
  0
LINE
  8
0
 62
7
  6
CONTINUOUS
 10
96.4175913984
 20
228.195815577
 11
96.406914613
 21
228.8292683498
  0
LINE
  8
0
 62
7
  6
CONTINUOUS
 10
93.5753368801
 20
222.375002113
 11
93.5958863079
 21
223.0893740528
  0
LINE
  8
0
 62
7
  6
CONTINUOUS
 10
91.2170216676
 20
141.4975872394
 11
91.2083323005
 21
141.3392790675
  0
LINE
  8
0
 62
7
  6
CONTINUOUS
 10
91.399700918
 20
141.2314092195
 11
91.4040456016
 21
141.3105633054
  0
LINE
  8
0
 62
7
  6
CONTINUOUS
 10
91.5510167896
 20
141.8315823614
 11
91.5423274078
 21
141.6732741749
  0
LINE
  8
0
 62
7
  6
CONTINUOUS
 10
91.7336960254
 20
141.5654043268
 11
91.7380407236
 21
141.6445584274
  0
LINE
  8
0
 62
7
  6
CONTINUOUS
 10
92.2312967077
 20
140.5668109689
 11
92.2269520241
 21
140.487656883
  0
LINE
  8
0
 62
7
  6
CONTINUOUS
 10
92.4139763861
 20
140.3006325209
 11
92.4226653252
 21
140.4589411209
  0
LINE
  8
0
 62
7
  6
CONTINUOUS
 10
92.5652918296
 20
140.9008060909
 11
92.560947146
 21
140.8216520049
  0
LINE
  8
0
 62
7
  6
CONTINUOUS
 10
92.7479715081
 20
140.6346276429
 11
92.7566604545
 21
140.7929362502
  0
LINE
  8
0
 62
7
  6
CONTINUOUS
 10
94.8035419956
 20
137.8275681419
 11
94.8078862511
 21
137.9067226559
  0
LINE
  8
0
 62
7
  6
CONTINUOUS
 10
101.3902310615
 20
231.4164025069
 11
101.4389004054
 21
232.048073073
  0
POLYLINE
  8
0
 62
7
  6
CONTINUOUS
 66
1
 70
0
  0
VERTEX
  8
0
 62
7
  6
CONTINUOUS
 10
104.637433915
 20
264.9037817418
  0
VERTEX
  8
0
 62
7
  6
CONTINUOUS
 10
104.6370074206
 20
264.9003279338
  0
VERTEX
  8
0
 62
7
  6
CONTINUOUS
 10
104.5886110649
 20
264.5037817418
  0
SEQEND
  0
LINE
  8
0
 62
7
  6
CONTINUOUS
 10
95.7326923289
 20
228.4768179636
 11
95.6882890846
 21
228.1222558438
  0
LINE
  8
0
 62
7
  6
CONTINUOUS
 10
100.7346449995
 20
231.7602861965
 11
100.6572452153
 21
231.411437779
  0
LINE
  8
0
 62
7
  6
CONTINUOUS
 10
102.150784103
 20
229.4839927815
 11
102.073384366
 21
229.1351442881
  0
LINE
  8
SURFACE
 62
7
  6
CONTINUOUS
 10
64.4181816792
 20
114.8034889554
 11
64.4235842779
 21
114.8162398197
  0
LINE
  8
SURFACE
 62
7
  6
CONTINUOUS
 10
64.4235842779
 20
114.8162398197
 11
64.5758998507
 21
115.1743105419
  0
LINE
  8
0
 62
7
  6
CONTINUOUS
 10
123.8718156382
 20
240.7351036654
 11
124.0732827489
 21
241.1456907616
  0
LINE
  8
0
 62
7
  6
CONTINUOUS
 10
120.8434127132
 20
241.6304047448
 11
120.2744757669
 21
240.6118950779
  0
LINE
  8
0
 62
7
  6
CONTINUOUS
 10
120.4661703759
 20
239.6087701886
 11
121.0351072551
 21
240.6272802067
  0
LINE
  8
0
 62
7
  6
CONTINUOUS
 10
115.9388930936
 20
235.0831770763
 11
118.9320430297
 21
240.3692796693
  0
LINE
  8
0
 62
7
  6
CONTINUOUS
 10
118.2624396664
 20
240.4555731935
 11
115.1484817229
 21
235.1373777896
  0
LINE
  8
0
 62
7
  6
CONTINUOUS
 10
73.614141933
 20
164.9159189335
 11
73.9290140325
 21
165.3496852831
  0
POLYLINE
  8
0
 62
7
  6
CONTINUOUS
 66
1
 70
0
  0
VERTEX
  8
0
 62
7
  6
CONTINUOUS
 10
152.5184896792
 20
267.3976985738
  0
VERTEX
  8
0
 62
7
  6
CONTINUOUS
 10
152.5163934202
 20
267.3949207355
  0
VERTEX
  8
0
 62
7
  6
CONTINUOUS
 10
152.2762078507
 20
267.0756998374
  0
SEQEND
  0
LINE
  8
0
 62
7
  6
CONTINUOUS
 10
70.0957803053
 20
171.9315080406
 11
70.3279068833
 21
172.2031787693
  0
LINE
  8
0
 62
7
  6
CONTINUOUS
 10
145.7432640607
 20
238.770477763
 11
146.1994929465
 21
239.210058942
  0
LINE
  8
SURFACE
 62
7
  6
CONTINUOUS
 10
42.6374491286
 20
157.5166580232
 11
42.6485033485
 21
157.5249992963
  0
LINE
  8
SURFACE
 62
7
  6
CONTINUOUS
 10
42.6485033485
 20
157.5249992963
 11
42.959447865
 21
157.7589398517
  0
LINE
  8
0
 62
7
  6
CONTINUOUS
 10
154.8989270429
 20
237.6724396512
 11
155.2686912489
 21
237.9415960969
  0
LINE
  8
0
 62
7
  6
CONTINUOUS
 10
145.4820422383
 20
239.463162566
 11
145.1923383748
 21
239.2539793534
  0
LINE
  8
0
 62
7
  6
CONTINUOUS
 10
155.0996056017
 20
238.552158504
 11
154.5676342977
 21
238.2080902829
  0
LINE
  8
0
 62
7
  6
CONTINUOUS
 10
74.5033197493
 20
198.3741097496
 11
74.8263363133
 21
198.5269138899
  0
LINE
  8
0
 62
7
  6
CONTINUOUS
 10
154.1731556021
 20
235.7631780604
 11
154.4975591009
 21
235.9130056776
  0
POLYLINE
  8
0
 62
7
  6
CONTINUOUS
 66
1
 70
0
  0
VERTEX
  8
0
 62
7
  6
CONTINUOUS
 10
195.231658747
 20
245.6169660232
  0
VERTEX
  8
0
 62
7
  6
CONTINUOUS
 10
195.2284544144
 20
245.6156084741
  0
VERTEX
  8
0
 62
7
  6
CONTINUOUS
 10
194.8608371605
 20
245.4592478517
  0
SEQEND
  0
LINE
  8
0
 62
7
  6
CONTINUOUS
 10
70.6224860549
 20
194.3280068676
 11
70.0375234218
 21
194.0847063805
  0
LINE
  8
0
 62
7
  6
CONTINUOUS
 10
72.5379420391
 20
200.1120682283
 11
71.9327721373
 21
199.9245960997
  0
LINE
  8
0
 62
7
  6
CONTINUOUS
 10
74.9508621977
 20
199.2774405498
 11
74.3456922959
 21
199.0899684212
  0
LINE
  8
SURFACE
 62
7
  6
CONTINUOUS
 10
221.3319819606
 20
148.2092336962
 11
221.3182380888
 21
148.2075370517
  0
LINE
  8
SURFACE
 62
7
  6
CONTINUOUS
 10
221.3182380888
 20
148.2075370517
 11
220.9319819606
 21
148.1604108461
  0
LINE
  8
0
 62
7
  6
CONTINUOUS
 10
98.4318117084
 20
134.1992984292
 11
98.5901201645
 21
134.2079875121
  0
LINE
  8
0
 62
7
  6
CONTINUOUS
 10
98.4239706387
 20
134.4158864227
 11
98.3448164189
 21
134.4115418729
  0
LINE
  8
0
 62
7
  6
CONTINUOUS
 10
95.6221039485
 20
136.9255074195
 11
95.7012580345
 21
136.929852103
  0
LINE
  8
0
 62
7
  6
CONTINUOUS
 10
95.5559832712
 20
137.1586256358
 11
95.4768289713
 21
137.1542811663
  0
LINE
  8
0
 62
7
  6
CONTINUOUS
 10
95.8351953711
 20
137.2134086725
 11
95.9935037571
 21
137.2220978256
  0
LINE
  8
0
 62
7
  6
CONTINUOUS
 10
95.0792572813
 20
138.1780936861
 11
95.1584117954
 21
138.1824379416
  0
LINE
  8
0
 62
7
  6
CONTINUOUS
 10
95.2836599716
 20
138.3076861179
 11
95.2045054503
 21
138.303341855
  0
LINE
  8
0
 62
7
  6
CONTINUOUS
 10
92.2347930938
 20
140.2710688895
 11
92.3722270014
 21
140.2588831362
  0
LINE
  8
0
 62
7
  6
CONTINUOUS
 10
91.7301996612
 20
141.8611464282
 11
91.5927661744
 21
141.8733317461
  0
POLYLINE
  8
0
 62
7
  6
CONTINUOUS
 66
1
 70
0
  0
VERTEX
  8
0
 62
7
  6
CONTINUOUS
 10
45.1313659606
 20
148.2092336962
  0
VERTEX
  8
0
 62
7
  6
CONTINUOUS
 10
45.1348197686
 20
148.2088072018
  0
VERTEX
  8
0
 62
7
  6
CONTINUOUS
 10
45.5313659606
 20
148.1604108461
  0
SEQEND
  0
LINE
  8
SURFACE
 62
7
  6
CONTINUOUS
 10
195.231658747
 20
107.9899814604
 11
195.2189078827
 21
107.9953840591
  0
LINE
  8
SURFACE
 62
7
  6
CONTINUOUS
 10
195.2189078827
 20
107.9953840591
 11
194.8608371605
 21
108.1476996319
  0
LINE
  8
0
 62
7
  6
CONTINUOUS
 10
73.6995012272
 20
167.4661082459
 11
73.2592028272
 21
167.7717794809
  0
POLYLINE
  8
0
 62
7
  6
CONTINUOUS
 66
1
 70
0
  0
VERTEX
  8
0
 62
7
  6
CONTINUOUS
 10
42.6374491286
 20
196.0902894604
  0
VERTEX
  8
0
 62
7
  6
CONTINUOUS
 10
42.6402269669
 20
196.0881932014
  0
VERTEX
  8
0
 62
7
  6
CONTINUOUS
 10
42.959447865
 20
195.8480076319
  0
SEQEND
  0
LINE
  8
0
 62
7
  6
CONTINUOUS
 10
69.8585167556
 20
170.2789332955
 11
70.1350138414
 21
170.0525767771
  0
LINE
  8
0
 62
7
  6
CONTINUOUS
 10
70.6436374735
 20
170.0978913438
 11
70.3671403877
 21
170.3242478621
  0
LINE
  8
0
 62
7
  6
CONTINUOUS
 10
72.2699338981
 20
193.5401321038
 11
71.8627142517
 21
194.0254655651
  0
LINE
  8
SURFACE
 62
7
  6
CONTINUOUS
 10
152.5184896792
 20
86.2092489098
 11
152.5101484061
 21
86.2203031297
  0
LINE
  8
SURFACE
 62
7
  6
CONTINUOUS
 10
152.5101484061
 20
86.2203031297
 11
152.2762078507
 21
86.5312476462
  0
LINE
  8
0
 62
7
  6
CONTINUOUS
 10
74.1044003138
 20
199.1734311774
 11
73.7444022874
 21
199.6947543306
  0
LINE
  8
0
 62
7
  6
CONTINUOUS
 10
71.5609484801
 20
193.3270857385
 11
71.7497459358
 21
193.0236976591
  0
LINE
  8
0
 62
7
  6
CONTINUOUS
 10
73.378584421
 20
199.0276904269
 11
73.538151821
 21
198.7079607742
  0
LINE
  8
0
 62
7
  6
CONTINUOUS
 10
75.9121504016
 20
198.1513314288
 11
76.0717178862
 21
197.8316017469
  0
POLYLINE
  8
0
 62
7
  6
CONTINUOUS
 66
1
 70
0
  0
VERTEX
  8
0
 62
7
  6
CONTINUOUS
 10
64.4181816792
 20
238.8034585282
  0
VERTEX
  8
0
 62
7
  6
CONTINUOUS
 10
64.4195392283
 20
238.8002541956
  0
VERTEX
  8
0
 62
7
  6
CONTINUOUS
 10
64.5758998507
 20
238.4326369416
  0
SEQEND
  0
LINE
  8
0
 62
7
  6
CONTINUOUS
 10
98.5874717017
 20
134.8786262188
 11
98.6370621415
 21
134.7037875955
  0
LINE
  8
0
 62
7
  6
CONTINUOUS
 10
98.8493055999
 20
134.6167923207
 11
98.8162453087
 21
134.733351396
  0
LINE
  8
0
 62
7
  6
CONTINUOUS
 10
88.3240364042
 20
223.083917517
 11
88.2476590598
 21
223.534850324
  0
LINE
  8
SURFACE
 62
7
  6
CONTINUOUS
 10
104.637433915
 20
88.7031657418
 11
104.6357372706
 21
88.7169096136
  0
LINE
  8
SURFACE
 62
7
  6
CONTINUOUS
 10
104.6357372706
 20
88.7169096136
 11
104.5886110649
 21
89.1031657418
  0
LINE
  8
0
 62
7
  6
CONTINUOUS
 10
95.2297248372
 20
138.4033706443
 11
95.2340695244
 21
138.4825247339
  0
LINE
  8
0
 62
7
  6
CONTINUOUS
 10
95.8943228628
 20
137.5717750578
 11
95.8899783932
 21
137.4926207578
  0
LINE
  8
0
 62
7
  6
CONTINUOUS
 10
96.0587763217
 20
136.6140832006
 11
96.0544318521
 21
136.5349289006
  0
LINE
  8
0
 62
7
  6
CONTINUOUS
 10
98.8406165023
 20
134.4584838499
 11
98.8493055999
 21
134.6167923207
  0
LINE
  8
0
 62
7
  6
CONTINUOUS
 10
102.8063702358
 20
229.140108978
 11
102.8550395561
 21
229.7717795821
  0
LINE
  8
0
 62
7
  6
CONTINUOUS
 10
98.6370621415
 20
134.7037875955
 11
98.6074983629
 21
134.5246044503
  0
LINE
  8
0
 62
7
  6
CONTINUOUS
 10
92.750619981
 20
139.9639889261
 11
92.725400605
 21
139.8639601478
  0
LINE
  8
0
 62
7
  6
CONTINUOUS
 10
94.6208623172
 20
138.0937465899
 11
94.5956429412
 21
137.9937178116
  0
LINE
  8
0
 62
7
  6
CONTINUOUS
 10
95.0470451624
 20
138.669549096
 11
95.0218257791
 21
138.5695203103
  0
LINE
  8
0
 62
7
  6
CONTINUOUS
 10
95.2045054503
 20
138.303341855
 11
95.2297248372
 21
138.4033706443
  0
LINE
  8
0
 62
7
  6
CONTINUOUS
 10
126.8805718187
 20
240.8472387674
 11
126.6946601125
 21
240.3099433744
  0
LINE
  8
0
 62
7
  6
CONTINUOUS
 10
127.3616653165
 20
240.0059746966
 11
127.5631324273
 21
240.4165617928
  0
LINE
  8
0
 62
7
  6
CONTINUOUS
 10
73.4887156172
 20
165.6553567421
 11
73.152939097
 21
165.3448299647
  0
LINE
  8
0
 62
7
  6
CONTINUOUS
 10
156.4522905883
 20
233.6676587454
 11
156.0825263506
 21
233.3985022162
  0
LINE
  8
0
 62
7
  6
CONTINUOUS
 10
73.7421808576
 20
168.7412029333
 11
73.511361789
 21
168.5752647495
  0
LINE
  8
0
 62
7
  6
CONTINUOUS
 10
156.2516119819
 20
232.7879397672
 11
156.7835833018
 21
233.1320080301
  0
LINE
  8
0
 62
7
  6
CONTINUOUS
 10
97.8680905628
 20
135.4310097894
 11
97.9681194628
 21
135.456229073
  0
LINE
  8
0
 62
7
  6
CONTINUOUS
 10
95.8482289938
 20
137.4508713584
 11
95.7482000015
 21
137.4256521965
  0
LINE
  8
0
 62
7
  6
CONTINUOUS
 10
92.2269520241
 20
140.487656883
 11
92.1477979381
 21
140.4833121994
  0
LINE
  8
0
 62
7
  6
CONTINUOUS
 10
91.7380407236
 20
141.6445584274
 11
91.8171948095
 21
141.648903111
  0
LINE
  8
0
 62
7
  6
CONTINUOUS
 10
72.6298940596
 20
167.6650336811
 11
73.0492881161
 21
167.4826019635
  0
LINE
  8
0
 62
7
  6
CONTINUOUS
 10
76.6379664212
 20
198.2970721355
 11
76.2779683525
 21
198.8183953033
  0
LINE
  8
0
 62
7
  6
CONTINUOUS
 10
82.1143409346
 20
216.5087416587
 11
83.6684103739
 21
213.2821192265
  0
LINE
  8
0
 62
7
  6
CONTINUOUS
 10
84.0987532019
 20
213.4257085808
 11
82.5446840471
 21
216.6523307964
  0
LINE
  8
0
 62
7
  6
CONTINUOUS
 10
87.5236013185
 20
223.2132477128
 11
87.6866323518
 21
222.6685705194
  0
LINE
  8
0
 62
7
  6
CONTINUOUS
 10
123.3133160124
 20
241.1810110457
 11
123.2514766478
 21
240.658947453
  0
LINE
  8
0
 62
7
  6
CONTINUOUS
 10
97.5923749561
 20
135.0804845662
 11
97.617594225
 21
135.1805134516
  0
LINE
  8
0
 62
7
  6
CONTINUOUS
 10
96.0561278342
 20
137.2847219028
 11
96.1022219172
 21
137.4056253881
  0
LINE
  8
0
 62
7
  6
CONTINUOUS
 10
96.2666753761
 20
136.4479335309
 11
96.3127692304
 21
136.5688372157
  0
LINE
  8
0
 62
7
  6
CONTINUOUS
 10
97.43056997
 20
135.3675377066
 11
97.3844761157
 21
135.2466340219
  0
LINE
  8
0
 62
7
  6
CONTINUOUS
 10
92.8175887417
 20
140.1057670892
 11
92.750619981
 21
139.9639889261
  0
LINE
  8
0
 62
7
  6
CONTINUOUS
 10
92.937644343
 20
139.7769645641
 11
93.0046126757
 21
139.9187431552
  0
LINE
  8
0
 62
7
  6
CONTINUOUS
 10
95.0218257791
 20
138.5695203103
 11
94.9548574391
 21
138.4277417119
  0
LINE
  8
0
 62
7
  6
CONTINUOUS
 10
145.6702347121
 20
239.8193678637
 11
145.4820422383
 21
239.463162566
  0
LINE
  8
0
 62
7
  6
CONTINUOUS
 10
146.1994929465
 20
239.210058942
 11
146.3876854202
 21
239.5662642397
  0
LINE
  8
0
 62
7
  6
CONTINUOUS
 10
148.5415849207
 20
236.9379117704
 11
150.5374237439
 21
239.9649139452
  0
LINE
  8
0
 62
7
  6
CONTINUOUS
 10
147.3990438575
 20
235.1331243226
 11
148.2860869978
 21
236.478457557
  0
LINE
  8
0
 62
7
  6
CONTINUOUS
 10
150.1901308944
 20
240.5895281465
 11
146.6757037605
 21
235.3313138888
  0
LINE
  8
0
 62
7
  6
CONTINUOUS
 10
154.6459984036
 20
237.3588698844
 11
154.8989270429
 21
237.6724396512
  0
LINE
  8
0
 62
7
  6
CONTINUOUS
 10
153.9202270262
 20
235.4496084608
 11
154.1731556021
 21
235.7631780604
  0
LINE
  8
0
 62
7
  6
CONTINUOUS
 10
156.7052191006
 20
233.9812281779
 11
156.4522905883
 21
233.6676587454
  0
LINE
  8
0
 62
7
  6
CONTINUOUS
 10
154.5676342977
 20
238.2080902829
 11
154.1071485504
 21
237.7002758459
  0
LINE
  8
0
 62
7
  6
CONTINUOUS
 10
156.7835833018
 20
233.1320080301
 11
157.2440689537
 21
233.6398222165
  0
LINE
  8
CURVE
 62
40
  6
CONTINUOUS
 10
115.1843031423
 20
189.3031158707
 11
120.7320318317
 21
194.8508445602
  0
LINE
  8
CURVE
 62
40
  6
CONTINUOUS
 10
129.0993692782
 20
200.9554403068
 11
124.856728591
 21
196.7127996197
  0
LINE
  8
CURVE
 62
40
  6
CONTINUOUS
 10
109.0797073956
 20
180.9357784243
 11
113.3223480827
 21
185.1784191114
  0
LINE
  8
0
 62
7
  6
CONTINUOUS
 10
73.3833228472
 20
164.7499809848
 11
73.614141933
 21
164.9159189335
  0
LINE
  8
0
 62
7
  6
CONTINUOUS
 10
73.2592028272
 20
167.7717794809
 11
73.8467028043
 21
168.1250046603
  0
LINE
  8
0
 62
7
  6
CONTINUOUS
 10
73.152939097
 20
165.3448299647
 11
72.7962582772
 21
165.1575428481
  0
LINE
  8
0
 62
7
  6
CONTINUOUS
 10
70.2724436929
 20
172.8257134515
 11
69.9020686196
 21
172.6672204476
  0
LINE
  8
0
 62
7
  6
CONTINUOUS
 10
68.0744619626
 20
187.4830500274
 11
73.1374486634
 21
184.9082412519
  0
LINE
  8
0
 62
7
  6
CONTINUOUS
 10
73.83684819
 20
185.3184412228
 11
69.3897249852
 21
187.684058704
  0
LINE
  8
0
 62
7
  6
CONTINUOUS
 10
71.2185035044
 20
193.5392852422
 11
71.5609484801
 21
193.3270857385
  0
LINE
  8
0
 62
7
  6
CONTINUOUS
 10
71.8627142517
 20
194.0254655651
 11
71.520269276
 21
194.2376650688
  0
LINE
  8
0
 62
7
  6
CONTINUOUS
 10
73.0575078036
 20
199.2710153055
 11
73.378584421
 21
199.0276904269
  0
LINE
  8
0
 62
7
  6
CONTINUOUS
 10
73.7444022874
 20
199.6947543306
 11
73.4233256701
 21
199.9380792092
  0
LINE
  8
0
 62
7
  6
CONTINUOUS
 10
75.5910737842
 20
198.3946563074
 11
75.9121504016
 21
198.1513314288
  0
LINE
  8
CURVE
 62
40
  6
CONTINUOUS
 10
115.1843031423
 20
164.3038316129
 11
120.7320318317
 21
158.7561029234
  0
LINE
  8
CURVE
 62
40
  6
CONTINUOUS
 10
124.856728591
 20
156.8941478639
 11
129.0993692782
 21
152.6515071768
  0
LINE
  8
CURVE
 62
40
  6
CONTINUOUS
 10
113.3223480827
 20
168.4285283722
 11
109.0797073956
 21
172.6711690593
  0
LINE
  8
0
 62
7
  6
CONTINUOUS
 10
92.7036611586
 20
223.1338566948
 11
92.8718285059
 21
222.7677715072
  0
LINE
  8
0
 62
7
  6
CONTINUOUS
 10
95.6003260931
 20
228.8573147454
 11
95.7326923289
 21
228.4768179636
  0
LINE
  8
0
 62
7
  6
CONTINUOUS
 10
96.406914613
 20
228.8292683498
 11
96.2745483772
 21
229.2097651315
  0
LINE
  8
0
 62
7
  6
CONTINUOUS
 10
100.6384793683
 20
232.1515032624
 11
100.7346449995
 21
231.7602861965
  0
LINE
  8
0
 62
7
  6
CONTINUOUS
 10
101.4389004054
 20
232.048073073
 11
101.3427347742
 21
232.4392901389
  0
LINE
  8
0
 62
7
  6
CONTINUOUS
 10
102.0546184718
 20
229.8752098474
 11
102.150784103
 21
229.4839927815
  0
LINE
  8
0
 62
7
  6
CONTINUOUS
 10
116.5316739606
 20
80.1031550407
 11
116.5316739606
 21
79.2935882389
  0
LINE
  8
SURFACE
 62
7
  6
CONTINUOUS
 10
116.5316739606
 20
273.5037924429
 11
116.5316739606
 21
274.3133592447
  0
LINE
  8
0
 62
7
  6
CONTINUOUS
 10
127.5631324273
 20
240.4165617928
 11
127.6249831507
 21
240.9386267799
  0
LINE
  8
0
 62
7
  6
CONTINUOUS
 10
96.1257450824
 20
136.7558613637
 11
96.0587763217
 21
136.6140832006
  0
LINE
  8
0
 62
7
  6
CONTINUOUS
 10
98.752773193
 20
134.2958308506
 11
98.8406165023
 21
134.4584838499
  0
LINE
  8
0
 62
7
  6
CONTINUOUS
 10
154.1071485504
 20
237.7002758459
 11
153.6727772097
 21
236.9093910993
  0
LINE
  8
0
 62
7
  6
CONTINUOUS
 10
70.4188903755
 20
101.4085412076
 11
70.014106966
 21
100.7074357762
  0
LINE
  8
SURFACE
 62
7
  6
CONTINUOUS
 10
167.1192091598
 20
268.89840645
 11
167.5239924688
 21
269.5995117074
  0
LINE
  8
0
 62
7
  6
CONTINUOUS
 10
154.2569984672
 20
236.6873099
 11
154.6459984036
 21
237.3588698844
  0
LINE
  8
SURFACE
 62
7
  6
CONTINUOUS
 10
209.3277119262
 20
240.0210407364
 11
208.6266064952
 21
239.6162573271
  0
LINE
  8
0
 62
7
  6
CONTINUOUS
 10
41.1367413964
 20
142.9159386258
 11
40.435635995
 21
142.5111552336
  0
LINE
  8
0
 62
7
  6
CONTINUOUS
 10
73.511361789
 20
168.5752647495
 11
73.0288191447
 21
168.3666285969
  0
LINE
  8
0
 62
7
  6
CONTINUOUS
 10
72.9007802014
 20
164.5413447073
 11
73.3833228472
 21
164.7499809848
  0
LINE
  8
0
 62
7
  6
CONTINUOUS
 10
70.8971306457
 20
173.0068630263
 11
70.2724436929
 21
172.8257134515
  0
LINE
  8
0
 62
7
  6
CONTINUOUS
 10
70.3279068833
 20
172.2031787693
 11
70.9525937726
 21
172.3843290565
  0
LINE
  8
SURFACE
 62
7
  6
CONTINUOUS
 10
36.5313550942
 20
160.1034737418
 11
35.7217884577
 21
160.1034737418
  0
LINE
  8
0
 62
7
  6
CONTINUOUS
 10
229.931992827
 20
160.1034737418
 11
230.7415594635
 21
160.1034737418
  0
LINE
  8
SURFACE
 62
7
  6
CONTINUOUS
 10
41.1367412524
 20
210.691008941
 11
40.435635995
 21
211.09579225
  0
LINE
  8
0
 62
7
  6
CONTINUOUS
 10
208.6266066371
 20
113.9906900746
 11
209.3277119262
 21
113.5859067472
  0
LINE
  8
0
 62
7
  6
CONTINUOUS
 10
76.2779683525
 20
198.8183953033
 11
75.9568916507
 21
199.0617202112
  0
LINE
  8
0
 62
7
  6
CONTINUOUS
 10
87.6866323518
 20
222.6685705194
 11
88.028112007
 21
222.1149996554
  0
LINE
  8
0
 62
7
  6
CONTINUOUS
 10
93.5958863079
 20
223.0893740528
 11
93.2544110365
 21
223.6429486039
  0
LINE
  8
0
 62
7
  6
CONTINUOUS
 10
167.1192091598
 20
84.7085410336
 11
167.5239924688
 21
84.0074357762
  0
LINE
  8
SURFACE
 62
7
  6
CONTINUOUS
 10
70.4188902934
 20
252.1984064182
 11
70.014106966
 21
252.8995117074
  0
LINE
  8
0
 62
7
  6
CONTINUOUS
 10
88.578861885
 20
222.6240915645
 11
88.3240364042
 21
223.083917517
  0
LINE
  8
0
 62
7
  6
CONTINUOUS
 10
102.8550395561
 20
229.7717795821
 11
102.7588738777
 21
230.1629967239
  0
LINE
  8
DEFAULT_1
 62
2
  6
CENTER
 10
133.2316739606
 20
274.8963347921
 11
133.2316739606
 21
178.8035737418
  0
LINE
  8
0
 62
2
  6
CONTINUOUS
 10
133.2316739606
 20
177.8534737418
 11
133.2316739606
 21
175.7534737418
  0
LINE
  8
DEFAULT_1
 62
2
  6
CENTER
 10
133.2316739606
 20
75.221143326
 11
133.2316739606
 21
174.8033737418
  0
LINE
  8
0
 62
7
  6
CONTINUOUS
 10
142.1547981762
 20
242.2383690142
 11
141.1364278349
 21
236.3254237372
  0
LINE
  8
0
 62
7
  6
CONTINUOUS
 10
141.8755459946
 20
236.1981274446
 11
142.3305625365
 21
238.8400817547
  0
LINE
  8
0
 62
7
  6
CONTINUOUS
 10
142.4605672454
 20
239.5949257426
 11
142.7855790784
 21
241.4820360649
  0
LINE
  8
0
 62
7
  6
CONTINUOUS
 10
153.6727772097
 20
236.9093910993
 11
153.3552522599
 21
236.0740892996
  0
LINE
  8
0
 62
7
  6
CONTINUOUS
 10
154.166277053
 20
236.4486522429
 11
154.2569984672
 21
236.6873099
  0
LINE
  8
0
 62
7
  6
CONTINUOUS
 10
153.7841449049
 20
235.0916219752
 11
153.9202270262
 21
235.4496084608
  0
LINE
  8
0
 62
7
  6
CONTINUOUS
 10
90.5442817589
 20
140.8305158042
 11
88.1047633638
 21
138.3909974091
  0
LINE
  8
0
 62
7
  6
CONTINUOUS
 10
91.5927661744
 20
141.8733317461
 11
91.5510167896
 21
141.8315823614
  0
LINE
  8
0
 62
7
  6
CONTINUOUS
 10
89.0063245098
 20
137.4894362631
 11
91.4458429049
 21
139.9289546582
  0
LINE
  8
0
 62
7
  6
CONTINUOUS
 10
91.6579749392
 20
139.7168226238
 11
90.2791167159
 21
138.3379644005
  0
LINE
  8
0
 62
7
  6
CONTINUOUS
 10
92.3722270014
 20
140.2588831362
 11
92.4139763861
 21
140.3006325209
  0
LINE
  8
0
 62
7
  6
CONTINUOUS
 10
93.2142079554
 20
140.5023863029
 11
92.8175887417
 21
140.1057670892
  0
LINE
  8
0
 62
7
  6
CONTINUOUS
 10
93.0046126757
 20
139.9187431552
 11
93.4012318894
 21
140.3153623689
  0
LINE
  8
0
 62
7
  6
CONTINUOUS
 10
91.1276448533
 20
137.3833702459
 11
92.5595360852
 21
138.8152614778
  0
LINE
  8
0
 62
7
  6
CONTINUOUS
 10
94.0745190791
 20
139.6420751793
 11
93.5944010958
 21
139.161957196
  0
LINE
  8
0
 62
7
  6
CONTINUOUS
 10
93.5109023263
 20
139.0784584265
 11
93.4065288644
 21
138.9740849646
  0
LINE
  8
0
 62
7
  6
CONTINUOUS
 10
93.5935532264
 20
138.7870606025
 11
94.2615434411
 21
139.4550508172
  0
LINE
  8
0
 62
7
  6
CONTINUOUS
 10
94.5607823347
 20
139.1558119236
 11
93.8927921201
 21
138.4878217089
  0
LINE
  8
0
 62
7
  6
CONTINUOUS
 10
93.6840451378
 20
138.2790747266
 11
93.5796716759
 21
138.1747012647
  0
LINE
  8
0
 62
7
  6
CONTINUOUS
 10
93.7666956098
 20
137.9876773307
 11
93.8710690717
 21
138.0920507926
  0
LINE
  8
0
 62
7
  6
CONTINUOUS
 10
94.079816054
 20
138.3007977749
 11
94.7478062687
 21
138.9687879896
  0
LINE
  8
0
 62
7
  6
CONTINUOUS
 10
93.9014988909
 20
137.4732986721
 11
92.734772702
 21
136.3065724831
  0
LINE
  8
0
 62
7
  6
CONTINUOUS
 10
91.8862445645
 20
135.4580443457
 11
91.4619804958
 21
135.033780277
  0
LINE
  8
0
 62
7
  6
CONTINUOUS
 10
94.9548574391
 20
138.4277417119
 11
94.6208623172
 21
138.0937465899
  0
LINE
  8
0
 62
7
  6
CONTINUOUS
 10
94.8078862511
 20
137.9067226559
 11
94.8705103283
 21
137.9693467331
  0
LINE
  8
0
 62
7
  6
CONTINUOUS
 10
94.9540091271
 20
138.0528455318
 11
95.0792572813
 21
138.1780936861
  0
LINE
  8
0
 62
7
  6
CONTINUOUS
 10
92.2413380337
 20
134.2544227391
 11
94.6808564288
 21
136.6939411342
  0
LINE
  8
0
 62
7
  6
CONTINUOUS
 10
70.383545307
 20
164.1143615383
 11
72.9007802014
 21
164.5413447073
  0
LINE
  8
0
 62
7
  6
CONTINUOUS
 10
72.7962582772
 20
165.1575428481
 11
70.2790233828
 21
164.7305596791
  0
LINE
  8
0
 62
7
  6
CONTINUOUS
 10
69.8609356933
 20
167.1953521982
 11
72.6298940596
 21
167.6650336811
  0
LINE
  8
0
 62
7
  6
CONTINUOUS
 10
69.5546974599
 20
169.3733992429
 11
73.623686873
 21
169.7359158076
  0
LINE
  8
0
 62
7
  6
CONTINUOUS
 10
73.5682237144
 20
170.3584501336
 11
70.6436374735
 21
170.0978913438
  0
LINE
  8
0
 62
7
  6
CONTINUOUS
 10
70.1350138414
 20
170.0525767771
 11
69.4992343013
 21
169.9959335689
  0
LINE
  8
0
 62
7
  6
CONTINUOUS
 10
70.9525937726
 20
172.3843290565
 11
73.3685563814
 21
172.5995732797
  0
LINE
  8
0
 62
7
  6
CONTINUOUS
 10
67.2906753692
 20
173.9959194773
 11
67.928516815
 21
174.020051755
  0
LINE
  8
0
 62
7
  6
CONTINUOUS
 10
69.2042000638
 20
174.0683163237
 11
73.2863856737
 21
174.2227629142
  0
LINE
  8
0
 62
7
  6
CONTINUOUS
 10
73.2627561581
 20
174.8473158326
 11
69.1805705481
 21
174.6928692422
  0
LINE
  8
0
 62
7
  6
CONTINUOUS
 10
67.9048872993
 20
174.6446046734
 11
67.2670458536
 21
174.6204723958
  0
LINE
  8
DEFAULT_1
 62
2
  6
CENTER
 10
231.3245350109
 20
176.8034737418
 11
135.2317739606
 21
176.8034737418
  0
LINE
  8
0
 62
2
  6
CONTINUOUS
 10
134.2816739606
 20
176.8034737418
 11
132.1816739606
 21
176.8034737418
  0
LINE
  8
DEFAULT_1
 62
2
  6
CENTER
 10
31.6493435449
 20
176.8034737418
 11
131.2315739606
 21
176.8034737418
  0
LINE
  8
0
 62
7
  6
CONTINUOUS
 10
67.4228813116
 20
182.6517906
 11
73.3690467607
 21
181.8498451834
  0
LINE
  8
0
 62
7
  6
CONTINUOUS
 10
73.4692899378
 20
182.5931158645
 11
68.7882659227
 21
183.2244346171
  0
LINE
  8
0
 62
7
  6
CONTINUOUS
 10
68.5638458556
 20
190.1982361517
 11
74.3929174425
 21
188.7762922586
  0
LINE
  8
0
 62
7
  6
CONTINUOUS
 10
74.5706604291
 20
189.5049262069
 11
71.966181598
 21
190.1402628491
  0
LINE
  8
0
 62
7
  6
CONTINUOUS
 10
71.2220448884
 20
190.3217875797
 11
69.3617027669
 21
190.7755994912
  0
LINE
  8
0
 62
7
  6
CONTINUOUS
 10
70.1017428583
 20
196.1931475621
 11
75.7721051127
 21
194.2317725587
  0
LINE
  8
0
 62
7
  6
CONTINUOUS
 10
75.2934009574
 20
195.1909561382
 11
73.4837108385
 21
195.816926897
  0
LINE
  8
0
 62
7
  6
CONTINUOUS
 10
72.7598348923
 20
196.0673151655
 11
71.0707906799
 21
196.6515545754
  0
LINE
  8
0
 62
7
  6
CONTINUOUS
 10
75.1074179438
 20
200.6228627855
 11
75.6943578216
 21
200.3720124619
  0
LINE
  8
0
 62
7
  6
CONTINUOUS
 10
76.3821053065
 20
201.9812048243
 11
75.7951654288
 21
202.2320551478
  0
LINE
  8
0
 62
7
  6
CONTINUOUS
 10
73.4153068533
 20
204.8079774594
 11
78.7490712469
 21
202.0600769165
  0
LINE
  8
0
 62
7
  6
CONTINUOUS
 10
79.0925588148
 20
202.7267974657
 11
76.5959031209
 21
204.0130487941
  0
LINE
  8
0
 62
7
  6
CONTINUOUS
 10
75.9149971093
 20
204.3638445663
 11
73.7587944212
 21
205.4746980086
  0
LINE
  8
0
 62
7
  6
CONTINUOUS
 10
88.028112007
 20
222.1149996554
 11
89.327921103
 21
220.7088297905
  0
LINE
  8
0
 62
7
  6
CONTINUOUS
 10
89.878670981
 20
221.2179216996
 11
88.578861885
 21
222.6240915645
  0
LINE
  8
0
 62
7
  6
CONTINUOUS
 10
91.4341462187
 20
227.9338398635
 11
95.0665983384
 21
223.1583512395
  0
LINE
  8
0
 62
7
  6
CONTINUOUS
 10
95.6635344164
 20
223.6124077544
 11
94.0405238718
 21
225.7461367444
  0
LINE
  8
0
 62
7
  6
CONTINUOUS
 10
93.5768066352
 20
226.3557735173
 11
92.4175133272
 21
227.8798657343
  0
LINE
  8
0
 62
7
  6
CONTINUOUS
 10
96.40414549
 20
231.6220911251
 11
99.5735998405
 21
226.527529405
  0
LINE
  8
0
 62
7
  6
CONTINUOUS
 10
99.8058088628
 20
227.5740807785
 11
98.7942808575
 21
229.2000047656
  0
LINE
  8
0
 62
7
  6
CONTINUOUS
 10
98.3896697121
 20
229.8503742694
 11
97.4455768505
 21
231.3679034152
  0
LINE
  8
0
 62
7
  6
CONTINUOUS
 10
113.8702123797
 20
239.9492084749
 11
114.0340930441
 21
239.3323071826
  0
LINE
  8
0
 62
7
  6
CONTINUOUS
 10
115.1484817229
 20
235.1373777896
 11
115.4106908089
 21
234.1503356354
  0
LINE
  8
0
 62
7
  6
CONTINUOUS
 10
120.2744757669
 20
240.6118950779
 11
120.4661703759
 21
239.6087701886
  0
LINE
  8
0
 62
7
  6
CONTINUOUS
 10
121.0351072551
 20
240.6272802067
 11
121.9696182812
 21
235.7370473809
  0
LINE
  8
0
 62
7
  6
CONTINUOUS
 10
122.7062879517
 20
235.8778230769
 11
121.5800823837
 21
241.7711804408
  0
LINE
  8
0
 62
7
  6
CONTINUOUS
 10
123.6096219234
 20
236.7157578333
 11
123.687398957
 21
236.082216261
  0
LINE
  8
0
 62
7
  6
CONTINUOUS
 10
145.7352371272
 20
240.1967902101
 11
145.6702347121
 21
239.8193678637
  0
LINE
  8
0
 62
7
  6
CONTINUOUS
 10
146.3876854202
 20
239.5662642397
 11
146.4743552868
 21
240.0694939174
  0
LINE
  8
0
 62
7
  6
CONTINUOUS
 10
153.3552522599
 20
236.0740892996
 11
153.1545736376
 21
235.1943702796
  0
LINE
  8
0
 62
7
  6
CONTINUOUS
 10
156.8413012219
 20
234.3392146635
 11
156.7052191006
 21
233.9812281779
  0
LINE
  8
0
 62
7
  6
CONTINUOUS
 10
157.2440689537
 20
233.6398222165
 11
157.4708725528
 21
234.2364665263
  0
LINE
  8
0
 62
7
  6
CONTINUOUS
 10
95.8899783932
 20
137.4926207578
 11
95.8482289938
 21
137.4508713584
  0
LINE
  8
0
 62
7
  6
CONTINUOUS
 10
94.8929884631
 20
136.4818090999
 11
92.4534700681
 21
134.0422907048
  0
LINE
  8
0
 62
7
  6
CONTINUOUS
 10
95.7012580345
 20
136.929852103
 11
95.7430074192
 21
136.9716014878
  0
LINE
  8
0
 62
7
  6
CONTINUOUS
 10
95.9935037571
 20
137.2220978256
 11
96.0561278342
 21
137.2847219028
  0
LINE
  8
0
 62
7
  6
CONTINUOUS
 10
96.5432389885
 20
137.1733552698
 11
96.1257450824
 21
136.7558613637
  0
LINE
  8
0
 62
7
  6
CONTINUOUS
 10
96.3127692304
 20
136.5688372157
 11
96.7302631365
 21
136.9863311218
  0
LINE
  8
0
 62
7
  6
CONTINUOUS
 10
93.3550312141
 20
133.1407295588
 11
94.521757403
 21
134.3074557477
  0
LINE
  8
0
 62
7
  6
CONTINUOUS
 10
95.5184158381
 20
135.3041141828
 11
95.7945496092
 21
135.5802479539
  0
LINE
  8
0
 62
7
  6
CONTINUOUS
 10
97.4035503262
 20
136.3130439321
 11
96.923432343
 21
135.8329259489
  0
LINE
  8
0
 62
7
  6
CONTINUOUS
 10
96.8399335734
 20
135.7494271793
 11
96.4224396673
 21
135.3319332732
  0
LINE
  8
0
 62
7
  6
CONTINUOUS
 10
96.6094639223
 20
135.1449090182
 11
97.5905745812
 21
136.1260196771
  0
LINE
  8
0
 62
7
  6
CONTINUOUS
 10
96.0066816435
 20
133.3528615931
 11
94.5747904116
 21
131.9209703612
  0
LINE
  8
0
 62
7
  6
CONTINUOUS
 10
98.6074983629
 20
134.5246044503
 11
98.5448742858
 21
134.4619803731
  0
LINE
  8
0
 62
7
  6
CONTINUOUS
 10
95.4763515576
 20
131.0194092152
 11
96.8552097809
 21
132.3982674385
  0
LINE
  8
0
 62
7
  6
CONTINUOUS
 10
73.0288191447
 20
168.3666285969
 11
69.7564137467
 21
167.8115504712
  0
LINE
  8
0
 62
7
  6
CONTINUOUS
 10
73.3130932545
 20
173.2221072495
 11
70.8971306457
 21
173.0068630263
  0
LINE
  8
0
 62
7
  6
CONTINUOUS
 10
69.3897249852
 20
187.684058704
 11
74.0707490003
 21
187.0527399514
  0
LINE
  8
0
 62
7
  6
CONTINUOUS
 10
74.1709921773
 20
187.7960106325
 11
68.2248267282
 21
188.5979560492
  0
LINE
  8
0
 62
7
  6
CONTINUOUS
 10
70.8464348022
 20
193.6300476923
 11
71.2185035044
 21
193.5392852422
  0
LINE
  8
0
 62
7
  6
CONTINUOUS
 10
71.520269276
 20
194.2376650688
 11
71.0241777888
 21
194.3586816407
  0
LINE
  8
0
 62
7
  6
CONTINUOUS
 10
72.8162158215
 20
199.3544780617
 11
73.0575078036
 21
199.2710153055
  0
LINE
  8
0
 62
7
  6
CONTINUOUS
 10
75.2291358111
 20
198.5198504417
 11
75.5910737842
 21
198.3946563074
  0
LINE
  8
0
 62
7
  6
CONTINUOUS
 10
75.9568916507
 20
199.0617202112
 11
75.3536616955
 21
199.2703771015
  0
LINE
  8
0
 62
7
  6
CONTINUOUS
 10
73.4233256701
 20
199.9380792092
 11
72.940741368
 21
200.1050048384
  0
LINE
  8
0
 62
7
  6
CONTINUOUS
 10
75.3617368413
 20
208.5860614193
 11
77.5179395294
 21
207.475207977
  0
LINE
  8
0
 62
7
  6
CONTINUOUS
 10
78.198845541
 20
207.1244122048
 11
80.6955012349
 21
205.8381608764
  0
LINE
  8
0
 62
7
  6
CONTINUOUS
 10
81.0389888028
 20
206.5048814256
 11
75.7052244092
 21
209.2527819685
  0
LINE
  8
0
 62
7
  6
CONTINUOUS
 10
89.327921103
 20
220.7088297905
 11
89.8529810069
 21
220.3249539028
  0
LINE
  8
0
 62
7
  6
CONTINUOUS
 10
95.3684672583
 20
229.1621334165
 11
95.6003260931
 21
228.8573147454
  0
LINE
  8
0
 62
7
  6
CONTINUOUS
 10
96.2745483772
 20
229.2097651315
 11
95.9654033363
 21
229.6161899315
  0
LINE
  8
0
 62
7
  6
CONTINUOUS
 10
100.5036089865
 20
232.368293097
 11
100.6384793683
 21
232.1515032624
  0
LINE
  8
0
 62
7
  6
CONTINUOUS
 10
101.8523128991
 20
230.2003945993
 11
102.0546184718
 21
229.8752098474
  0
LINE
  8
0
 62
7
  6
CONTINUOUS
 10
102.7588738777
 20
230.1629967239
 11
102.4216979232
 21
230.7049713104
  0
LINE
  8
0
 62
7
  6
CONTINUOUS
 10
101.3427347742
 20
232.4392901389
 11
101.0729938217
 21
232.8728701118
  0
LINE
  8
0
 62
7
  6
CONTINUOUS
 10
120.2430885287
 20
235.4340686391
 11
120.0464317084
 21
236.1743502764
  0
LINE
  8
0
 62
7
  6
CONTINUOUS
 10
118.9320430297
 20
240.3692796693
 11
118.7026100995
 21
241.2329414787
  0
LINE
  8
0
 62
7
  6
CONTINUOUS
 10
126.849460966
 20
241.1006557158
 11
126.8805718187
 21
240.8472387674
  0
LINE
  8
0
 62
7
  6
CONTINUOUS
 10
128.1538669488
 20
236.6305443366
 11
128.0760899152
 21
237.2640859089
  0
LINE
  8
0
 62
7
  6
CONTINUOUS
 10
127.6249831507
 20
240.9386267799
 11
127.593872298
 21
241.1920437283
  0
LINE
  8
SURFACE
 62
7
  6
CONTINUOUS
 10
149.9316739606
 20
80.1031550407
 11
149.9316739606
 21
79.2935882389
  0
LINE
  8
0
 62
7
  6
CONTINUOUS
 10
149.9316739606
 20
273.5037926082
 11
149.9316739606
 21
274.3133592447
  0
LINE
  8
0
 62
7
  6
CONTINUOUS
 10
153.7649091745
 20
234.6892184365
 11
153.7841449049
 21
235.0916219752
  0
LINE
  8
SURFACE
 62
7
  6
CONTINUOUS
 10
99.3441387615
 20
84.7085410336
 11
98.9393554524
 21
84.0074357762
  0
LINE
  8
0
 62
7
  6
CONTINUOUS
 10
196.0444576278
 20
252.1984064182
 11
196.4492409552
 21
252.8995117074
  0
LINE
  8
SURFACE
 62
7
  6
CONTINUOUS
 10
57.8367412842
 20
113.9906900746
 11
57.135635995
 21
113.5859067472
  0
LINE
  8
0
 62
7
  6
CONTINUOUS
 10
225.3266066688
 20
210.691008941
 11
226.0277119262
 21
211.09579225
  0
LINE
  8
0
 62
7
  6
CONTINUOUS
 10
36.5313552595
 20
193.5034737418
 11
35.7217884577
 21
193.5034737418
  0
LINE
  8
SURFACE
 62
7
  6
CONTINUOUS
 10
229.931992827
 20
193.5034737418
 11
230.7415594635
 21
193.5034737418
  0
LINE
  8
0
 62
7
  6
CONTINUOUS
 10
57.135635995
 20
240.0210407364
 11
57.836741426
 21
239.6162573271
  0
LINE
  8
SURFACE
 62
7
  6
CONTINUOUS
 10
225.3266066688
 20
142.9159385426
 11
226.0277119262
 21
142.5111552336
  0
LINE
  8
0
 62
7
  6
CONTINUOUS
 10
90.3170769533
 20
220.9277904608
 11
89.878670981
 21
221.2179216996
  0
LINE
  8
0
 62
7
  6
CONTINUOUS
 10
91.2613704874
 20
225.7990756601
 11
90.7363061389
 21
226.1829479264
  0
LINE
  8
SURFACE
 62
7
  6
CONTINUOUS
 10
196.0444575457
 20
101.4085412076
 11
196.4492409552
 21
100.7074357762
  0
LINE
  8
0
 62
7
  6
CONTINUOUS
 10
99.3441388446
 20
268.898406306
 11
98.9393554524
 21
269.5995117074
  0
LINE
  8
0
 62
7
  6
CONTINUOUS
 10
127.593872298
 20
241.1920437283
 11
127.4075783382
 21
241.683645115
  0
LINE
  8
0
 62
7
  6
CONTINUOUS
 10
151.4979747526
 20
234.0100491061
 11
151.1545806779
 21
240.3252763996
  0
LINE
  8
0
 62
7
  6
CONTINUOUS
 10
150.6972169752
 20
235.8178266777
 11
150.7746346557
 21
234.2082386723
  0
LINE
  8
0
 62
7
  6
CONTINUOUS
 10
150.5374237439
 20
239.9649139452
 11
150.7116052115
 21
236.3433430718
  0
LINE
  8
0
 62
7
  6
CONTINUOUS
 10
153.1545736376
 20
235.1943702796
 11
153.1614521549
 21
234.5088960135
  0
LINE
  8
0
 62
7
  6
CONTINUOUS
 10
157.4708725528
 20
234.2364665263
 11
157.4639940037
 21
234.9219407088
  0
LINE
  8
0
 62
7
  6
CONTINUOUS
 10
156.8605370159
 20
234.7416183694
 11
156.8413012219
 21
234.3392146635
  0
LINE
  8
0
 62
7
  6
CONTINUOUS
 10
158.0536833233
 20
236.473215814
 11
158.0729190536
 21
236.8756193527
  0
LINE
  8
CURVE
 62
40
  6
CONTINUOUS
 10
157.3836405256
 20
172.6711690593
 11
153.1409998385
 21
168.4285283722
  0
LINE
  8
CURVE
 62
40
  6
CONTINUOUS
 10
137.3639786431
 20
152.6515071768
 11
141.6066193302
 21
156.8941478639
  0
LINE
  8
CURVE
 62
40
  6
CONTINUOUS
 10
145.7313160895
 20
158.7561029234
 11
151.279044779
 21
164.3038316129
  0
LINE
  8
0
 62
7
  6
CONTINUOUS
 10
98.5901201645
 20
134.2079875121
 11
98.752773193
 21
134.2958308506
  0
LINE
  8
0
 62
7
  6
CONTINUOUS
 10
97.8019700072
 20
135.6641279134
 11
97.6810663078
 21
135.6180340444
  0
LINE
  8
0
 62
7
  6
CONTINUOUS
 10
98.5448742858
 20
134.4619803731
 11
98.4239706387
 21
134.4158864227
  0
LINE
  8
0
 62
7
  6
CONTINUOUS
 10
68.7882659227
 20
183.2244346171
 11
73.7031905568
 21
184.3274131754
  0
LINE
  8
0
 62
7
  6
CONTINUOUS
 10
73.1374486634
 20
184.9082412519
 11
67.5732460772
 21
183.7666966217
  0
LINE
  8
0
 62
7
  6
CONTINUOUS
 10
70.4447430683
 20
193.5993729193
 11
70.8464348022
 21
193.6300476923
  0
LINE
  8
0
 62
7
  6
CONTINUOUS
 10
71.0241777888
 20
194.3586816407
 11
70.6224860549
 21
194.3280068676
  0
LINE
  8
0
 62
7
  6
CONTINUOUS
 10
74.8263363133
 20
198.5269138899
 11
75.2291358111
 21
198.5198504417
  0
LINE
  8
0
 62
7
  6
CONTINUOUS
 10
75.3536616955
 20
199.2703771015
 11
74.9508621977
 21
199.2774405498
  0
LINE
  8
0
 62
7
  6
CONTINUOUS
 10
72.4134161547
 20
199.3615415684
 11
72.8162158215
 21
199.3544780617
  0
LINE
  8
0
 62
7
  6
CONTINUOUS
 10
72.940741368
 20
200.1050048384
 11
72.5379420391
 21
200.1120682283
  0
LINE
  8
0
 62
7
  6
CONTINUOUS
 10
89.8529810069
 20
220.3249539028
 11
90.3831814875
 21
220.1196738392
  0
LINE
  8
0
 62
7
  6
CONTINUOUS
 10
90.3588641242
 20
225.4863667195
 11
90.7106206094
 21
225.289983751
  0
LINE
  8
0
 62
7
  6
CONTINUOUS
 10
95.0371162575
 20
229.3912734077
 11
95.3684672583
 21
229.1621334165
  0
LINE
  8
0
 62
7
  6
CONTINUOUS
 10
95.9654033363
 20
229.6161899315
 11
95.6340523355
 21
229.8453299227
  0
LINE
  8
0
 62
7
  6
CONTINUOUS
 10
101.5438672903
 20
230.459547189
 11
101.8523128991
 21
230.2003945993
  0
LINE
  8
0
 62
7
  6
CONTINUOUS
 10
102.4216979232
 20
230.7049713104
 11
102.1132523145
 21
230.9641239001
  0
LINE
  8
0
 62
7
  6
CONTINUOUS
 10
100.1951632833
 20
232.6274458385
 11
100.5036089865
 21
232.368293097
  0
LINE
  8
0
 62
7
  6
CONTINUOUS
 10
101.0729938217
 20
232.8728701118
 11
100.7645483074
 21
233.1320225496
  0
LINE
  8
CURVE
 62
40
  6
CONTINUOUS
 10
153.1409998385
 20
185.1784191114
 11
157.3836405256
 21
180.9357784243
  0
LINE
  8
CURVE
 62
40
  6
CONTINUOUS
 10
141.6066193302
 20
196.7127996197
 11
137.3639786431
 21
200.9554403068
  0
LINE
  8
CURVE
 62
40
  6
CONTINUOUS
 10
145.7313160895
 20
194.8508445602
 11
151.279044779
 21
189.3031158707
  0
LINE
  8
0
 62
7
  6
CONTINUOUS
 10
145.6770493624
 20
240.5954289003
 11
145.7352371272
 21
240.1967902101
  0
LINE
  8
0
 62
7
  6
CONTINUOUS
 10
146.4743552868
 20
240.0694939174
 11
146.416167522
 21
240.4681326076
  0
LINE
  8
0
 62
7
  6
CONTINUOUS
 10
90.7606234415
 20
220.8162551118
 11
90.3170769533
 21
220.9277904608
  0
LINE
  8
0
 62
7
  6
CONTINUOUS
 10
126.554661428
 20
241.4503183999
 11
126.849460966
 21
241.1006557158
  0
LINE
  8
0
 62
7
  6
CONTINUOUS
 10
153.1614521549
 20
234.5088960135
 11
153.3305377862
 21
233.8983335646
  0
LINE
  8
0
 62
7
  6
CONTINUOUS
 10
153.8625091061
 20
234.2424018274
 11
153.7649091745
 21
234.6892184365
  0
LINE
  8
0
 62
7
  6
CONTINUOUS
 10
157.3718621024
 20
237.1421135387
 11
157.469472763
 21
236.6952929469
  0
LINE
  8
0
 62
7
  6
CONTINUOUS
 10
161.8296989823
 20
88.7338418695
 11
161.8747368563
 21
89.1031657418
  0
POLYLINE
  8
0
 62
7
  6
CONTINUOUS
 66
1
 70
0
  0
VERTEX
  8
0
 62
7
  6
CONTINUOUS
 10
161.8259140062
 20
88.7031657418
  0
VERTEX
  8
0
 62
7
  6
CONTINUOUS
 10
161.8263405006
 20
88.7066195498
  0
VERTEX
  8
0
 62
7
  6
CONTINUOUS
 10
161.8296989823
 20
88.7338418695
  0
SEQEND
  0
LINE
  8
SURFACE
 62
7
  6
CONTINUOUS
 10
202.045166242
 20
238.8034585282
 11
201.8874480705
 21
238.4326369416
  0
LINE
  8
0
 62
7
  6
CONTINUOUS
 10
113.9634741913
 20
86.2339227276
 11
114.1871400705
 21
86.5312476462
  0
POLYLINE
  8
0
 62
7
  6
CONTINUOUS
 66
1
 70
0
  0
VERTEX
  8
0
 62
7
  6
CONTINUOUS
 10
113.944858242
 20
86.2092489098
  0
VERTEX
  8
0
 62
7
  6
CONTINUOUS
 10
113.946954501
 20
86.2120267481
  0
VERTEX
  8
0
 62
7
  6
CONTINUOUS
 10
113.9634741913
 20
86.2339227276
  0
SEQEND
  0
LINE
  8
SURFACE
 62
7
  6
CONTINUOUS
 10
223.8258987927
 20
196.0902894604
 11
223.5039000562
 21
195.8480076319
  0
LINE
  8
0
 62
7
  6
CONTINUOUS
 10
71.2601479681
 20
108.0020416388
 11
71.6025107608
 21
108.1476996319
  0
POLYLINE
  8
0
 62
7
  6
CONTINUOUS
 66
1
 70
0
  0
VERTEX
  8
0
 62
7
  6
CONTINUOUS
 10
71.2316891742
 20
107.9899814604
  0
VERTEX
  8
0
 62
7
  6
CONTINUOUS
 10
71.2348935068
 20
107.9913390094
  0
VERTEX
  8
0
 62
7
  6
CONTINUOUS
 10
71.2601479681
 20
108.0020416388
  0
SEQEND
  0
LINE
  8
SURFACE
 62
7
  6
CONTINUOUS
 10
45.1313659606
 20
205.3977137874
 11
45.5313659606
 21
205.4465366375
  0
LINE
  8
0
 62
7
  6
CONTINUOUS
 10
90.3831814875
 20
220.1196738392
 11
91.0969624291
 21
220.0840885221
  0
LINE
  8
0
 62
7
  6
CONTINUOUS
 10
90.7363061389
 20
226.1829479264
 11
90.0225252276
 21
226.2185332106
  0
LINE
  8
0
 62
7
  6
CONTINUOUS
 10
221.3013058329
 20
205.4014987635
 11
220.9319819606
 21
205.4465366375
  0
POLYLINE
  8
0
 62
7
  6
CONTINUOUS
 66
1
 70
0
  0
VERTEX
  8
0
 62
7
  6
CONTINUOUS
 10
221.3319819606
 20
205.3977137874
  0
VERTEX
  8
0
 62
7
  6
CONTINUOUS
 10
221.3285281526
 20
205.3981402818
  0
VERTEX
  8
0
 62
7
  6
CONTINUOUS
 10
221.3013058329
 20
205.4014987635
  0
SEQEND
  0
LINE
  8
0
 62
7
  6
CONTINUOUS
 10
94.6835681888
 20
229.4431358031
 11
95.0371162575
 21
229.3912734077
  0
LINE
  8
0
 62
7
  6
CONTINUOUS
 10
101.1967267426
 20
230.5442784407
 11
101.5438672903
 21
230.459547189
  0
LINE
  8
0
 62
7
  6
CONTINUOUS
 10
99.8480227355
 20
232.7121770902
 11
100.1951632833
 21
232.6274458385
  0
LINE
  8
0
 62
7
  6
CONTINUOUS
 10
95.6340523355
 20
229.8453299227
 11
95.0264394721
 21
230.0247261805
  0
LINE
  8
0
 62
7
  6
CONTINUOUS
 10
102.1132523145
 20
230.9641239001
 11
101.5251014433
 21
231.1996126723
  0
LINE
  8
0
 62
7
  6
CONTINUOUS
 10
100.7645483074
 20
233.1320225496
 11
100.1763974363
 21
233.3675113219
  0
LINE
  8
SURFACE
 62
7
  6
CONTINUOUS
 10
71.2316891742
 20
245.6169660232
 11
71.6025107608
 21
245.4592478517
  0
LINE
  8
0
 62
7
  6
CONTINUOUS
 10
223.8012249748
 20
157.5352739725
 11
223.5039000562
 21
157.7589398517
  0
POLYLINE
  8
0
 62
7
  6
CONTINUOUS
 66
1
 70
0
  0
VERTEX
  8
0
 62
7
  6
CONTINUOUS
 10
223.8258987927
 20
157.5166580232
  0
VERTEX
  8
0
 62
7
  6
CONTINUOUS
 10
223.8231209543
 20
157.5187542822
  0
VERTEX
  8
0
 62
7
  6
CONTINUOUS
 10
223.8012249748
 20
157.5352739725
  0
SEQEND
  0
LINE
  8
0
 62
7
  6
CONTINUOUS
 10
127.4075783382
 20
241.683645115
 11
126.8490900713
 21
242.1295538898
  0
LINE
  8
SURFACE
 62
7
  6
CONTINUOUS
 10
113.944858242
 20
267.3976985738
 11
114.1871400705
 21
267.0756998374
  0
LINE
  8
0
 62
7
  6
CONTINUOUS
 10
145.4740153049
 20
240.889475013
 11
145.6770493624
 21
240.5954289003
  0
LINE
  8
0
 62
7
  6
CONTINUOUS
 10
146.416167522
 20
240.4681326076
 11
146.1332782482
 21
241.0350100792
  0
LINE
  8
0
 62
7
  6
CONTINUOUS
 10
156.7175763454
 20
235.0691060663
 11
156.8605370159
 21
234.7416183694
  0
LINE
  8
0
 62
7
  6
CONTINUOUS
 10
157.4639940037
 20
234.9219407088
 11
157.2495476495
 21
235.4131742874
  0
LINE
  8
0
 62
7
  6
CONTINUOUS
 10
202.0331060636
 20
114.8319477493
 11
201.8874480705
 21
115.1743105419
  0
POLYLINE
  8
0
 62
7
  6
CONTINUOUS
 66
1
 70
0
  0
VERTEX
  8
0
 62
7
  6
CONTINUOUS
 10
202.045166242
 20
114.8034889554
  0
VERTEX
  8
0
 62
7
  6
CONTINUOUS
 10
202.043808693
 20
114.806693288
  0
VERTEX
  8
0
 62
7
  6
CONTINUOUS
 10
202.0331060636
 20
114.8319477493
  0
SEQEND
  0
LINE
  8
0
 62
7
  6
CONTINUOUS
 10
158.0729190536
 20
236.8756193527
 11
157.9038334065
 21
237.4861817598
  0
LINE
  8
SURFACE
 62
7
  6
CONTINUOUS
 10
161.8259140062
 20
264.9037817418
 11
161.8747368563
 21
264.5037817418
  0
LINE
  8
0
 62
7
  6
CONTINUOUS
 10
91.0969624291
 20
220.0840885221
 11
91.6374354998
 21
220.235992511
  0
LINE
  8
0
 62
7
  6
CONTINUOUS
 10
156.0825263506
 20
233.3985022162
 11
155.6412764608
 21
233.2930916521
  0
LINE
  8
0
 62
7
  6
CONTINUOUS
 10
154.4975591009
 20
235.9130056776
 11
154.9388089907
 21
236.0184162416
  0
LINE
  8
0
 62
7
  6
CONTINUOUS
 10
155.0487768326
 20
236.659473371
 11
154.166277053
 21
236.4486522429
  0
LINE
  8
0
 62
7
  6
CONTINUOUS
 10
155.2686912489
 20
237.9415960969
 11
155.7099411387
 21
238.0470066609
  0
LINE
  8
0
 62
7
  6
CONTINUOUS
 10
155.5313192884
 20
232.6520303832
 11
156.2516119819
 21
232.7879397672
  0
LINE
  8
0
 62
7
  6
CONTINUOUS
 10
155.8199089806
 20
238.6880637903
 11
155.0996056017
 21
238.552158504
  0
LINE
  8
0
 62
7
  6
CONTINUOUS
 10
91.2093063045
 20
220.8833117028
 11
90.7606234415
 21
220.8162551118
  0
LINE
  8
0
 62
7
  6
CONTINUOUS
 10
89.9101813219
 20
225.4193100627
 11
90.3588641242
 21
225.4863667195
  0
LINE
  8
0
 62
7
  6
CONTINUOUS
 10
101.5251014433
 20
231.1996126723
 11
101.2453960864
 21
231.1759490068
  0
LINE
  8
0
 62
7
  6
CONTINUOUS
 10
95.0264394721
 20
230.0247261805
 11
94.3966249866
 21
230.0268413784
  0
LINE
  8
0
 62
7
  6
CONTINUOUS
 10
100.1763974363
 20
233.3675113219
 11
99.5495466731
 21
233.4285758854
  0
LINE
  8
0
 62
7
  6
CONTINUOUS
 10
126.151344953
 20
241.658040987
 11
126.554661428
 21
241.4503183999
  0
LINE
  8
0
 62
7
  6
CONTINUOUS
 10
146.1332782482
 20
241.0350100792
 11
145.7055426816
 21
241.4972949734
  0
LINE
  8
0
 62
7
  6
CONTINUOUS
 10
153.3305377862
 20
233.8983335646
 11
153.7786769104
 21
233.3182658483
  0
LINE
  8
0
 62
7
  6
CONTINUOUS
 10
157.2495476495
 20
235.4131742874
 11
156.8014192106
 21
235.9932379059
  0
LINE
  8
0
 62
7
  6
CONTINUOUS
 10
157.9038334065
 20
237.4861817598
 11
157.4557049676
 21
238.0662453783
  0
LINE
  8
0
 62
7
  6
CONTINUOUS
 10
154.1223161674
 20
233.8704970774
 11
153.8625091061
 21
234.2424018274
  0
LINE
  8
0
 62
7
  6
CONTINUOUS
 10
156.4577692841
 20
235.4410108164
 11
156.7175763454
 21
235.0691060663
  0
LINE
  8
0
 62
7
  6
CONTINUOUS
 10
157.1120550411
 20
237.5140182888
 11
157.3718621024
 21
237.1421135387
  0
LINE
  8
0
 62
7
  6
CONTINUOUS
 10
90.0225252276
 20
226.2185332106
 11
89.4820521796
 21
226.0666291971
  0
LINE
  8
0
 62
7
  6
CONTINUOUS
 10
125.0654565105
 20
242.2964391542
 11
124.2125396003
 21
242.0631124391
  0
LINE
  8
0
 62
7
  6
CONTINUOUS
 10
115.4106908089
 20
234.1503356354
 11
120.2430885287
 21
235.4340686391
  0
LINE
  8
0
 62
7
  6
CONTINUOUS
 10
120.0464317084
 20
236.1743502764
 11
115.9388930936
 21
235.0831770763
  0
LINE
  8
0
 62
7
  6
CONTINUOUS
 10
114.0340930441
 20
239.3323071826
 11
118.2624396664
 21
240.4555731935
  0
LINE
  8
0
 62
7
  6
CONTINUOUS
 10
118.7026100995
 20
241.2329414787
 11
113.8702123797
 21
239.9492084749
  0
LINE
  8
0
 62
7
  6
CONTINUOUS
 10
100.8108814441
 20
230.4545824611
 11
101.1967267426
 21
230.5442784407
  0
LINE
  8
0
 62
7
  6
CONTINUOUS
 10
99.4621774371
 20
232.6224811106
 11
99.8480227355
 21
232.7121770902
  0
LINE
  8
0
 62
7
  6
CONTINUOUS
 10
121.9696182812
 20
235.7370473809
 11
122.7062879517
 21
235.8778230769
  0
LINE
  8
0
 62
7
  6
CONTINUOUS
 10
121.5800823837
 20
241.7711804408
 11
120.8434127132
 21
241.6304047448
  0
LINE
  8
0
 62
7
  6
CONTINUOUS
 10
145.1923383748
 20
239.2539793534
 11
144.8011118435
 21
239.1918201684
  0
LINE
  8
0
 62
7
  6
CONTINUOUS
 10
123.687398957
 20
236.082216261
 11
128.1538669488
 21
236.6305443366
  0
LINE
  8
0
 62
7
  6
CONTINUOUS
 10
128.0760899152
 20
237.2640859089
 11
124.6021665797
 21
236.8376080519
  0
LINE
  8
0
 62
7
  6
CONTINUOUS
 10
123.2514766478
 20
240.658947453
 11
123.8718156382
 21
240.7351036654
  0
LINE
  8
0
 62
7
  6
CONTINUOUS
 10
125.0191725505
 20
241.6476672648
 11
125.5154391992
 21
241.7085916769
  0
LINE
  8
0
 62
7
  6
CONTINUOUS
 10
125.5617345181
 20
242.3573649608
 11
125.0654565105
 21
242.2964391542
  0
LINE
  8
0
 62
7
  6
CONTINUOUS
 10
144.5479170153
 20
238.4581928767
 11
145.1855237852
 21
238.4779186693
  0
LINE
  8
0
 62
7
  6
CONTINUOUS
 10
155.6412764608
 20
233.2930916521
 11
155.2453872781
 21
233.3070099166
  0
LINE
  8
0
 62
7
  6
CONTINUOUS
 10
154.9388089907
 20
236.0184162416
 11
155.3346981735
 21
236.0044979771
  0
LINE
  8
0
 62
7
  6
CONTINUOUS
 10
155.7099411387
 20
238.0470066609
 11
156.1058303214
 21
238.0330883964
  0
LINE
  8
0
 62
7
  6
CONTINUOUS
 10
126.3217012546
 20
242.3220446766
 11
125.5617345181
 21
242.3573649608
  0
LINE
  8
0
 62
7
  6
CONTINUOUS
 10
125.5154391992
 20
241.7085916769
 11
126.151344953
 21
241.658040987
  0
LINE
  8
0
 62
7
  6
CONTINUOUS
 10
154.9017373198
 20
232.7547827435
 11
155.5313192884
 21
232.6520303832
  0
LINE
  8
0
 62
7
  6
CONTINUOUS
 10
155.6783481
 20
236.5567250666
 11
155.0487768326
 21
236.659473371
  0
LINE
  8
0
 62
7
  6
CONTINUOUS
 10
156.4494802479
 20
238.5853154859
 11
155.8199089806
 21
238.6880637903
  0
LINE
  8
0
 62
7
  6
CONTINUOUS
 10
141.1364278349
 20
236.3254237372
 11
141.8755459946
 21
236.1981274446
  0
LINE
  8
0
 62
7
  6
CONTINUOUS
 10
142.3305625365
 20
238.8400817547
 11
144.5479170153
 21
238.4581928767
  0
LINE
  8
0
 62
7
  6
CONTINUOUS
 10
144.8011118435
 20
239.1918201684
 11
142.4605672454
 21
239.5949257426
  0
LINE
  8
0
 62
7
  6
CONTINUOUS
 10
142.7855790784
 20
241.4820360649
 11
145.1261236765
 21
241.0789304907
  0
LINE
  8
0
 62
7
  6
CONTINUOUS
 10
145.1112708147
 20
241.7291838435
 11
142.1547981762
 21
242.2383690142
  0
LINE
  8
0
 62
7
  6
CONTINUOUS
 10
146.6757037605
 20
235.3313138888
 11
147.3990438575
 21
235.1331243226
  0
LINE
  8
0
 62
7
  6
CONTINUOUS
 10
150.7746346557
 20
234.2082386723
 11
151.4979747526
 21
234.0100491061
  0
LINE
  8
0
 62
7
  6
CONTINUOUS
 10
148.2860869978
 20
236.478457557
 11
150.6972169752
 21
235.8178266777
  0
LINE
  8
0
 62
7
  6
CONTINUOUS
 10
150.7116052115
 20
236.3433430718
 11
148.5415849207
 21
236.9379117704
  0
LINE
  8
0
 62
7
  6
CONTINUOUS
 10
151.1545806779
 20
240.3252763996
 11
150.1901308944
 21
240.5895281465
  0
LINE
  8
0
 62
7
  6
CONTINUOUS
 10
126.8490900713
 20
242.1295538898
 11
126.3217012546
 21
242.3220446766
  0
LINE
  8
0
 62
7
  6
CONTINUOUS
 10
154.3175267596
 20
232.9768598765
 11
154.9017373198
 21
232.7547827435
  0
LINE
  8
0
 62
7
  6
CONTINUOUS
 10
155.2453872781
 20
233.3070099166
 11
154.4274839359
 21
233.6179211558
  0
LINE
  8
0
 62
7
  6
CONTINUOUS
 10
155.3346981735
 20
236.0044979771
 11
156.1526015156
 21
235.6935867379
  0
LINE
  8
0
 62
7
  6
CONTINUOUS
 10
156.2625586602
 20
236.3346479337
 11
155.6783481
 21
236.5567250666
  0
LINE
  8
0
 62
7
  6
CONTINUOUS
 10
157.469472763
 20
236.6952929469
 11
158.0536833233
 21
236.473215814
  0
LINE
  8
0
 62
7
  6
CONTINUOUS
 10
156.1058303214
 20
238.0330883964
 11
156.8068872726
 21
237.7665942104
  0
LINE
  8
0
 62
7
  6
CONTINUOUS
 10
156.9168551145
 20
238.4076513398
 11
156.4494802479
 21
238.5853154859
  0
LINE
  8
0
 62
7
  6
CONTINUOUS
 10
145.7055426816
 20
241.4972949734
 11
145.1112708147
 21
241.7291838435
  0
LINE
  8
0
 62
7
  6
CONTINUOUS
 10
145.1261236765
 20
241.0789304907
 11
145.4740153049
 21
240.889475013
  0
LINE
  8
0
 62
7
  6
CONTINUOUS
 10
153.7786769104
 20
233.3182658483
 11
154.3175267596
 21
232.9768598765
  0
LINE
  8
0
 62
7
  6
CONTINUOUS
 10
156.8014192106
 20
235.9932379059
 11
156.2625586602
 21
236.3346479337
  0
LINE
  8
0
 62
7
  6
CONTINUOUS
 10
157.4557049676
 20
238.0662453783
 11
156.9168551145
 21
238.4076513398
  0
LINE
  8
0
 62
7
  6
CONTINUOUS
 10
154.4274839359
 20
233.6179211558
 11
154.1223161674
 21
233.8704970774
  0
LINE
  8
0
 62
7
  6
CONTINUOUS
 10
156.1526015156
 20
235.6935867379
 11
156.4577692841
 21
235.4410108164
  0
LINE
  8
0
 62
7
  6
CONTINUOUS
 10
156.8068872726
 20
237.7665942104
 11
157.1120550411
 21
237.5140182888
  0
LINE
  8
SURFACE
 62
7
  6
CONTINUOUS
 10
221.3319819606
 20
153.0898876833
 11
221.3319819606
 21
148.2092336962
  0
LINE
  8
0
 62
7
  6
CONTINUOUS
 10
221.3319819606
 20
153.0898876833
 11
221.3319819606
 21
148.2092336962
  0
LINE
  8
0
 62
7
  6
CONTINUOUS
 10
221.3319819606
 20
174.0591106061
 11
221.3319819606
 21
205.3977137874
  0
LINE
  8
SURFACE
 62
7
  6
CONTINUOUS
 10
197.6719857406
 20
112.2167518003
 11
195.231658747
 21
107.9899814604
  0
LINE
  8
0
 62
7
  6
CONTINUOUS
 10
197.6719857406
 20
112.2167518003
 11
195.231658747
 21
107.9899814604
  0
LINE
  8
0
 62
7
  6
CONTINUOUS
 10
208.156597202
 20
130.3766315491
 11
223.8258987927
 21
157.5166580232
  0
LINE
  8
SURFACE
 62
7
  6
CONTINUOUS
 10
156.7452600191
 20
88.6495759033
 11
152.5184896792
 21
86.2092489098
  0
LINE
  8
0
 62
7
  6
CONTINUOUS
 10
156.7452600191
 20
88.6495759033
 11
152.5184896792
 21
86.2092489098
  0
LINE
  8
0
 62
7
  6
CONTINUOUS
 10
174.9051397679
 20
99.1341873647
 11
202.045166242
 21
114.8034889554
  0
LINE
  8
0
 62
7
  6
CONTINUOUS
 10
135.9760370963
 20
264.9037817418
 11
104.637433915
 21
264.9037817418
  0
LINE
  8
SURFACE
 62
7
  6
CONTINUOUS
 10
156.9452600191
 20
264.9037817418
 11
161.8259140062
 21
264.9037817418
  0
LINE
  8
0
 62
7
  6
CONTINUOUS
 10
156.9452600191
 20
264.9037817418
 11
161.8259140062
 21
264.9037817418
  0
LINE
  8
0
 62
7
  6
CONTINUOUS
 10
179.6585161533
 20
251.7283969832
 11
152.5184896792
 21
267.3976985738
  0
LINE
  8
SURFACE
 62
7
  6
CONTINUOUS
 10
197.8183959021
 20
241.2437855218
 11
202.045166242
 21
238.8034585282
  0
LINE
  8
0
 62
7
  6
CONTINUOUS
 10
197.8183959021
 20
241.2437855218
 11
202.045166242
 21
238.8034585282
  0
LINE
  8
0
 62
7
  6
CONTINUOUS
 10
223.8258987927
 20
196.0902894604
 11
221.3855717991
 21
200.3170598003
  0
LINE
  8
0
 62
7
  6
CONTINUOUS
 10
210.9009603377
 20
218.4769395491
 11
195.231658747
 21
245.6169660232
  0
POLYLINE
  8
SURFACE
 62
7
  6
CONTINUOUS
 66
1
 70
0
  0
VERTEX
  8
SURFACE
 62
7
  6
CONTINUOUS
 10
306.1653082784
 20
83.4574360819
  0
VERTEX
  8
SURFACE
 62
7
  6
CONTINUOUS
 10
306.1873864742
 20
83.4580456896
  0
VERTEX
  8
SURFACE
 62
7
  6
CONTINUOUS
 10
306.2185326398
 20
83.4609919615
  0
VERTEX
  8
SURFACE
 62
7
  6
CONTINUOUS
 10
306.2485764193
 20
83.4661965932
  0
VERTEX
  8
SURFACE
 62
7
  6
CONTINUOUS
 10
306.2774040319
 20
83.4734593947
  0
VERTEX
  8
SURFACE
 62
7
  6
CONTINUOUS
 10
306.3049269875
 20
83.4825864089
  0
VERTEX
  8
SURFACE
 62
7
  6
CONTINUOUS
 10
306.3310790047
 20
83.4933917103
  0
VERTEX
  8
SURFACE
 62
7
  6
CONTINUOUS
 10
306.3558129054
 20
83.5056985696
  0
VERTEX
  8
SURFACE
 62
7
  6
CONTINUOUS
 10
306.3790985075
 20
83.5193405736
  0
VERTEX
  8
SURFACE
 62
7
  6
CONTINUOUS
 10
306.4009201117
 20
83.5341622584
  0
VERTEX
  8
SURFACE
 62
7
  6
CONTINUOUS
 10
306.4212741043
 20
83.5500193754
  0
VERTEX
  8
SURFACE
 62
7
  6
CONTINUOUS
 10
306.4401680955
 20
83.566780121
  0
VERTEX
  8
SURFACE
 62
7
  6
CONTINUOUS
 10
306.4576135107
 20
83.5843198767
  0
VERTEX
  8
SURFACE
 62
7
  6
CONTINUOUS
 10
306.4736156924
 20
83.6025082219
  0
VERTEX
  8
SURFACE
 62
7
  6
CONTINUOUS
 10
306.4881904462
 20
83.6212228563
  0
VERTEX
  8
SURFACE
 62
7
  6
CONTINUOUS
 10
306.501363438
 20
83.6403514947
  0
VERTEX
  8
SURFACE
 62
7
  6
CONTINUOUS
 10
306.5131677492
 20
83.659791312
  0
VERTEX
  8
SURFACE
 62
7
  6
CONTINUOUS
 10
306.5236400121
 20
83.679444123
  0
VERTEX
  8
SURFACE
 62
7
  6
CONTINUOUS
 10
306.5328215607
 20
83.6992180972
  0
VERTEX
  8
SURFACE
 62
7
  6
CONTINUOUS
 10
306.5407039346
 20
83.7188811084
  0
VERTEX
  8
SURFACE
 62
7
  6
CONTINUOUS
 10
306.5472179019
 20
83.7378931457
  0
VERTEX
  8
SURFACE
 62
7
  6
CONTINUOUS
 10
306.5524009924
 20
83.7557582592
  0
VERTEX
  8
SURFACE
 62
7
  6
CONTINUOUS
 10
306.5563511197
 20
83.7719488241
  0
VERTEX
  8
SURFACE
 62
7
  6
CONTINUOUS
 10
306.5592409228
 20
83.7860578128
  0
VERTEX
  8
SURFACE
 62
7
  6
CONTINUOUS
 10
306.5613362165
 20
83.7981929108
  0
VERTEX
  8
SURFACE
 62
7
  6
CONTINUOUS
 10
306.5628874209
 20
83.8087640074
  0
VERTEX
  8
SURFACE
 62
7
  6
CONTINUOUS
 10
306.5640668989
 20
83.8181101233
  0
VERTEX
  8
SURFACE
 62
7
  6
CONTINUOUS
 10
306.5650085468
 20
83.8266524471
  0
VERTEX
  8
SURFACE
 62
7
  6
CONTINUOUS
 10
306.5658046264
 20
83.8347811665
  0
VERTEX
  8
SURFACE
 62
7
  6
CONTINUOUS
 10
306.5665198796
 20
83.8428704719
  0
VERTEX
  8
SURFACE
 62
7
  6
CONTINUOUS
 10
306.5671974197
 20
83.8512427467
  0
VERTEX
  8
SURFACE
 62
7
  6
CONTINUOUS
 10
306.5678617456
 20
83.8601110581
  0
VERTEX
  8
SURFACE
 62
7
  6
CONTINUOUS
 10
306.5685287967
 20
83.8696403507
  0
VERTEX
  8
SURFACE
 62
7
  6
CONTINUOUS
 10
306.5699125364
 20
83.8912178898
  0
SEQEND
  0
POLYLINE
  8
0
 62
7
  6
CONTINUOUS
 66
1
 70
0
  0
VERTEX
  8
0
 62
7
  6
CONTINUOUS
 10
314.464014167
 20
78.1935885014
  0
VERTEX
  8
0
 62
7
  6
CONTINUOUS
 10
314.4776580578
 20
78.1938212519
  0
VERTEX
  8
0
 62
7
  6
CONTINUOUS
 10
314.5040380576
 20
78.1955958226
  0
VERTEX
  8
0
 62
7
  6
CONTINUOUS
 10
314.52967253
 20
78.1990137816
  0
VERTEX
  8
0
 62
7
  6
CONTINUOUS
 10
314.5544893098
 20
78.2039544512
  0
VERTEX
  8
0
 62
7
  6
CONTINUOUS
 10
314.578429584
 20
78.2103003103
  0
VERTEX
  8
0
 62
7
  6
CONTINUOUS
 10
314.6014465765
 20
78.2179378613
  0
VERTEX
  8
0
 62
7
  6
CONTINUOUS
 10
314.6235042382
 20
78.2267582985
  0
VERTEX
  8
0
 62
7
  6
CONTINUOUS
 10
314.6445759633
 20
78.2366579855
  0
VERTEX
  8
0
 62
7
  6
CONTINUOUS
 10
314.6646434835
 20
78.2475388311
  0
VERTEX
  8
0
 62
7
  6
CONTINUOUS
 10
314.683695761
 20
78.2593085217
  0
VERTEX
  8
0
 62
7
  6
CONTINUOUS
 10
314.7017279477
 20
78.2718806369
  0
VERTEX
  8
0
 62
7
  6
CONTINUOUS
 10
314.7187404165
 20
78.2851746675
  0
VERTEX
  8
0
 62
7
  6
CONTINUOUS
 10
314.7347377726
 20
78.2991158618
  0
VERTEX
  8
0
 62
7
  6
CONTINUOUS
 10
314.7497223587
 20
78.3136292462
  0
VERTEX
  8
0
 62
7
  6
CONTINUOUS
 10
314.7636929568
 20
78.3286356015
  0
VERTEX
  8
0
 62
7
  6
CONTINUOUS
 10
314.7766533157
 20
78.344058204
  0
VERTEX
  8
0
 62
7
  6
CONTINUOUS
 10
314.7886122905
 20
78.3598236444
  0
VERTEX
  8
0
 62
7
  6
CONTINUOUS
 10
314.799583342
 20
78.3758620503
  0
VERTEX
  8
0
 62
7
  6
CONTINUOUS
 10
314.8095839829
 20
78.3921071427
  0
VERTEX
  8
0
 62
7
  6
CONTINUOUS
 10
314.8186351134
 20
78.4084959152
  0
VERTEX
  8
0
 62
7
  6
CONTINUOUS
 10
314.8267603112
 20
78.4249678163
  0
VERTEX
  8
0
 62
7
  6
CONTINUOUS
 10
314.83398266
 20
78.4414572038
  0
VERTEX
  8
0
 62
7
  6
CONTINUOUS
 10
314.8403003713
 20
78.4578207173
  0
VERTEX
  8
0
 62
7
  6
CONTINUOUS
 10
314.8457263152
 20
78.4739033866
  0
VERTEX
  8
0
 62
7
  6
CONTINUOUS
 10
314.8502947279
 20
78.4895605848
  0
VERTEX
  8
0
 62
7
  6
CONTINUOUS
 10
314.8540499907
 20
78.504626531
  0
VERTEX
  8
0
 62
7
  6
CONTINUOUS
 10
314.8570488223
 20
78.5189121917
  0
VERTEX
  8
0
 62
7
  6
CONTINUOUS
 10
314.8593107129
 20
78.5318776888
  0
VERTEX
  8
0
 62
7
  6
CONTINUOUS
 10
314.8609125048
 20
78.5429957372
  0
VERTEX
  8
0
 62
7
  6
CONTINUOUS
 10
314.8619855469
 20
78.5519547759
  0
VERTEX
  8
0
 62
7
  6
CONTINUOUS
 10
314.8627160749
 20
78.5591544879
  0
VERTEX
  8
0
 62
7
  6
CONTINUOUS
 10
314.8632506665
 20
78.5652319073
  0
VERTEX
  8
0
 62
7
  6
CONTINUOUS
 10
314.8636742439
 20
78.5706609886
  0
VERTEX
  8
0
 62
7
  6
CONTINUOUS
 10
314.8640372722
 20
78.5757971582
  0
SEQEND
  0
LINE
  8
SURFACE
 62
7
  6
CONTINUOUS
 10
306.1445197215
 20
78.1935882389
 11
297.8445054505
 21
78.1935882389
  0
LINE
  8
0
 62
7
  6
CONTINUOUS
 10
306.1445054554
 20
78.1935882389
 11
314.4640284664
 21
78.1935882389
  0
LINE
  8
SURFACE
 62
7
  6
CONTINUOUS
 10
306.1653355269
 20
83.4574357762
 11
297.8431983967
 21
83.4574357762
  0
POLYLINE
  8
0
 62
7
  6
CONTINUOUS
 66
1
 70
0
  0
VERTEX
  8
0
 62
7
  6
CONTINUOUS
 10
314.6542669584
 20
86.2092489098
  0
VERTEX
  8
0
 62
7
  6
CONTINUOUS
 10
314.7067180559
 20
86.2120267481
  0
VERTEX
  8
0
 62
7
  6
CONTINUOUS
 10
314.7582198489
 20
86.2203031297
  0
VERTEX
  8
0
 62
7
  6
CONTINUOUS
 10
314.8078894742
 20
86.2339227276
  0
VERTEX
  8
0
 62
7
  6
CONTINUOUS
 10
314.854877659
 20
86.2526394571
  0
VERTEX
  8
0
 62
7
  6
CONTINUOUS
 10
314.8983836888
 20
86.2761205474
  0
VERTEX
  8
0
 62
7
  6
CONTINUOUS
 10
314.9376701619
 20
86.3039528108
  0
VERTEX
  8
0
 62
7
  6
CONTINUOUS
 10
314.9720756562
 20
86.3356504221
  0
VERTEX
  8
0
 62
7
  6
CONTINUOUS
 10
315.0010256373
 20
86.3706639981
  0
VERTEX
  8
0
 62
7
  6
CONTINUOUS
 10
315.0240414505
 20
86.4083907157
  0
VERTEX
  8
0
 62
7
  6
CONTINUOUS
 10
315.0407472576
 20
86.4481851367
  0
VERTEX
  8
0
 62
7
  6
CONTINUOUS
 10
315.0508748494
 20
86.4893699677
  0
VERTEX
  8
0
 62
7
  6
CONTINUOUS
 10
315.0542669584
 20
86.5312476462
  0
SEQEND
  0
LINE
  8
0
 62
7
  6
CONTINUOUS
 10
306.6661871776
 20
86.2092489098
 11
314.6542669584
 21
86.2092489098
  0
POLYLINE
  8
0
 62
7
  6
CONTINUOUS
 66
1
 70
0
  0
VERTEX
  8
0
 62
7
  6
CONTINUOUS
 10
314.6000893895
 20
97.4413169643
  0
VERTEX
  8
0
 62
7
  6
CONTINUOUS
 10
314.6380252271
 20
97.4431188811
  0
VERTEX
  8
0
 62
7
  6
CONTINUOUS
 10
314.6734004299
 20
97.4480884339
  0
VERTEX
  8
0
 62
7
  6
CONTINUOUS
 10
314.7072086537
 20
97.4559179266
  0
VERTEX
  8
0
 62
7
  6
CONTINUOUS
 10
314.7393050745
 20
97.4663088367
  0
VERTEX
  8
0
 62
7
  6
CONTINUOUS
 10
314.7695852777
 20
97.4789776748
  0
VERTEX
  8
0
 62
7
  6
CONTINUOUS
 10
314.7979771481
 20
97.4936577085
  0
VERTEX
  8
0
 62
7
  6
CONTINUOUS
 10
314.8244370255
 20
97.510100976
  0
VERTEX
  8
0
 62
7
  6
CONTINUOUS
 10
314.8489451177
 20
97.5280795454
  0
VERTEX
  8
0
 62
7
  6
CONTINUOUS
 10
314.8715004074
 20
97.5473855582
  0
VERTEX
  8
0
 62
7
  6
CONTINUOUS
 10
314.8921242903
 20
97.5678391753
  0
VERTEX
  8
0
 62
7
  6
CONTINUOUS
 10
314.9108179609
 20
97.5892461965
  0
VERTEX
  8
0
 62
7
  6
CONTINUOUS
 10
314.9275485093
 20
97.6113538626
  0
VERTEX
  8
0
 62
7
  6
CONTINUOUS
 10
314.9423248014
 20
97.6339234978
  0
VERTEX
  8
0
 62
7
  6
CONTINUOUS
 10
314.9551932182
 20
97.6567406455
  0
VERTEX
  8
0
 62
7
  6
CONTINUOUS
 10
314.966222583
 20
97.6796037042
  0
VERTEX
  8
0
 62
7
  6
CONTINUOUS
 10
314.9754738377
 20
97.7022500952
  0
VERTEX
  8
0
 62
7
  6
CONTINUOUS
 10
314.9829182837
 20
97.7240204173
  0
VERTEX
  8
0
 62
7
  6
CONTINUOUS
 10
314.9885078719
 20
97.7437016718
  0
VERTEX
  8
0
 62
7
  6
CONTINUOUS
 10
314.9924754613
 20
97.7605012718
  0
VERTEX
  8
0
 62
7
  6
CONTINUOUS
 10
314.9953253216
 20
97.7748975598
  0
VERTEX
  8
0
 62
7
  6
CONTINUOUS
 10
314.9974841177
 20
97.7878053262
  0
VERTEX
  8
0
 62
7
  6
CONTINUOUS
 10
314.9991858604
 20
97.799754349
  0
VERTEX
  8
0
 62
7
  6
CONTINUOUS
 10
315.0005664364
 20
97.8109995525
  0
VERTEX
  8
0
 62
7
  6
CONTINUOUS
 10
315.0017352315
 20
97.8218580126
  0
VERTEX
  8
0
 62
7
  6
CONTINUOUS
 10
315.0027825326
 20
97.8327659533
  0
VERTEX
  8
0
 62
7
  6
CONTINUOUS
 10
315.003772229
 20
97.8441570953
  0
VERTEX
  8
0
 62
7
  6
CONTINUOUS
 10
315.0047417213
 20
97.8563478851
  0
VERTEX
  8
0
 62
7
  6
CONTINUOUS
 10
315.0057133773
 20
97.8695743576
  0
SEQEND
  0
LINE
  8
0
 62
7
  6
CONTINUOUS
 10
306.0084330265
 20
97.4413169765
 11
314.6001008884
 21
97.4413169765
  0
POLYLINE
  8
0
 62
7
  6
CONTINUOUS
 66
1
 70
0
  0
VERTEX
  8
0
 62
7
  6
CONTINUOUS
 10
314.6542669584
 20
107.9899814604
  0
VERTEX
  8
0
 62
7
  6
CONTINUOUS
 10
314.7067180559
 20
107.9913390094
  0
VERTEX
  8
0
 62
7
  6
CONTINUOUS
 10
314.7582198489
 20
107.9953840591
  0
VERTEX
  8
0
 62
7
  6
CONTINUOUS
 10
314.8078894742
 20
108.0020416388
  0
VERTEX
  8
0
 62
7
  6
CONTINUOUS
 10
314.854877659
 20
108.0111929478
  0
VERTEX
  8
0
 62
7
  6
CONTINUOUS
 10
314.8983836888
 20
108.0226772052
  0
VERTEX
  8
0
 62
7
  6
CONTINUOUS
 10
314.9376701619
 20
108.0362945373
  0
VERTEX
  8
0
 62
7
  6
CONTINUOUS
 10
314.9720756562
 20
108.0518095826
  0
VERTEX
  8
0
 62
7
  6
CONTINUOUS
 10
315.0010256373
 20
108.0689557264
  0
VERTEX
  8
0
 62
7
  6
CONTINUOUS
 10
315.0240414505
 20
108.0874398546
  0
VERTEX
  8
0
 62
7
  6
CONTINUOUS
 10
315.0407472576
 20
108.1069474793
  0
VERTEX
  8
0
 62
7
  6
CONTINUOUS
 10
315.0508748494
 20
108.1271478695
  0
VERTEX
  8
0
 62
7
  6
CONTINUOUS
 10
315.0542669584
 20
108.1476996319
  0
SEQEND
  0
LINE
  8
0
 62
7
  6
CONTINUOUS
 10
305.9542669584
 20
107.9899814604
 11
314.6542669584
 21
107.9899814604
  0
POLYLINE
  8
0
 62
7
  6
CONTINUOUS
 66
1
 70
0
  0
VERTEX
  8
0
 62
7
  6
CONTINUOUS
 10
305.9542669584
 20
107.9899814604
  0
VERTEX
  8
0
 62
7
  6
CONTINUOUS
 10
305.901815861
 20
107.9913390094
  0
VERTEX
  8
0
 62
7
  6
CONTINUOUS
 10
305.8503140679
 20
107.9953840591
  0
VERTEX
  8
0
 62
7
  6
CONTINUOUS
 10
305.8006444427
 20
108.0020416388
  0
VERTEX
  8
0
 62
7
  6
CONTINUOUS
 10
305.7536562579
 20
108.0111929478
  0
VERTEX
  8
0
 62
7
  6
CONTINUOUS
 10
305.7101502281
 20
108.0226772052
  0
VERTEX
  8
0
 62
7
  6
CONTINUOUS
 10
305.670863755
 20
108.0362945373
  0
VERTEX
  8
0
 62
7
  6
CONTINUOUS
 10
305.6364582607
 20
108.0518095826
  0
VERTEX
  8
0
 62
7
  6
CONTINUOUS
 10
305.6075082795
 20
108.0689557264
  0
VERTEX
  8
0
 62
7
  6
CONTINUOUS
 10
305.5844924664
 20
108.0874398546
  0
VERTEX
  8
0
 62
7
  6
CONTINUOUS
 10
305.5677866592
 20
108.1069474793
  0
VERTEX
  8
0
 62
7
  6
CONTINUOUS
 10
305.5576590674
 20
108.1271478695
  0
VERTEX
  8
0
 62
7
  6
CONTINUOUS
 10
305.5542669584
 20
108.1476996319
  0
SEQEND
  0
POLYLINE
  8
SURFACE
 62
7
  6
CONTINUOUS
 66
1
 70
0
  0
VERTEX
  8
SURFACE
 62
7
  6
CONTINUOUS
 10
306.1726889971
 20
113.4385349817
  0
VERTEX
  8
SURFACE
 62
7
  6
CONTINUOUS
 10
306.2179007616
 20
113.4410950257
  0
VERTEX
  8
SURFACE
 62
7
  6
CONTINUOUS
 10
306.257180212
 20
113.4475483177
  0
VERTEX
  8
SURFACE
 62
7
  6
CONTINUOUS
 10
306.2943355983
 20
113.4574549236
  0
VERTEX
  8
SURFACE
 62
7
  6
CONTINUOUS
 10
306.329231395
 20
113.4703927783
  0
VERTEX
  8
SURFACE
 62
7
  6
CONTINUOUS
 10
306.3617860042
 20
113.485980641
  0
VERTEX
  8
SURFACE
 62
7
  6
CONTINUOUS
 10
306.3919591151
 20
113.5038787406
  0
VERTEX
  8
SURFACE
 62
7
  6
CONTINUOUS
 10
306.4197433511
 20
113.523789773
  0
VERTEX
  8
SURFACE
 62
7
  6
CONTINUOUS
 10
306.4451534344
 20
113.5454570815
  0
VERTEX
  8
SURFACE
 62
7
  6
CONTINUOUS
 10
306.4681992014
 20
113.5686419068
  0
VERTEX
  8
SURFACE
 62
7
  6
CONTINUOUS
 10
306.4887320733
 20
113.5929145575
  0
VERTEX
  8
SURFACE
 62
7
  6
CONTINUOUS
 10
306.506655434
 20
113.6177824399
  0
VERTEX
  8
SURFACE
 62
7
  6
CONTINUOUS
 10
306.521981357
 20
113.6427708048
  0
VERTEX
  8
SURFACE
 62
7
  6
CONTINUOUS
 10
306.5347985644
 20
113.6674120295
  0
VERTEX
  8
SURFACE
 62
7
  6
CONTINUOUS
 10
306.5452534735
 20
113.6912309186
  0
VERTEX
  8
SURFACE
 62
7
  6
CONTINUOUS
 10
306.5536476082
 20
113.7140501327
  0
VERTEX
  8
SURFACE
 62
7
  6
CONTINUOUS
 10
306.560221977
 20
113.7355531728
  0
VERTEX
  8
SURFACE
 62
7
  6
CONTINUOUS
 10
306.5652326068
 20
113.7554050359
  0
VERTEX
  8
SURFACE
 62
7
  6
CONTINUOUS
 10
306.5690232978
 20
113.7736471357
  0
VERTEX
  8
SURFACE
 62
7
  6
CONTINUOUS
 10
306.5718828602
 20
113.7902792267
  0
VERTEX
  8
SURFACE
 62
7
  6
CONTINUOUS
 10
306.5741368101
 20
113.8059106286
  0
VERTEX
  8
SURFACE
 62
7
  6
CONTINUOUS
 10
306.5760349565
 20
113.8213393819
  0
VERTEX
  8
SURFACE
 62
7
  6
CONTINUOUS
 10
306.5777461559
 20
113.837369184
  0
VERTEX
  8
SURFACE
 62
7
  6
CONTINUOUS
 10
306.5793663025
 20
113.8546052313
  0
VERTEX
  8
SURFACE
 62
7
  6
CONTINUOUS
 10
306.580953311
 20
113.8735427038
  0
VERTEX
  8
SURFACE
 62
7
  6
CONTINUOUS
 10
306.5825405845
 20
113.8945714856
  0
SEQEND
  0
LINE
  8
SURFACE
 62
7
  6
CONTINUOUS
 10
306.1727045877
 20
113.4385346913
 11
297.8358293362
 21
113.4385346913
  0
POLYLINE
  8
SURFACE
 62
7
  6
CONTINUOUS
 66
1
 70
0
  0
VERTEX
  8
SURFACE
 62
7
  6
CONTINUOUS
 10
297.3474696336
 20
114.9375136566
  0
VERTEX
  8
SURFACE
 62
7
  6
CONTINUOUS
 10
297.3364582607
 20
114.9492025309
  0
VERTEX
  8
SURFACE
 62
7
  6
CONTINUOUS
 10
297.3075082795
 20
114.9895316909
  0
VERTEX
  8
SURFACE
 62
7
  6
CONTINUOUS
 10
297.2844924664
 20
115.0329696769
  0
VERTEX
  8
SURFACE
 62
7
  6
CONTINUOUS
 10
297.2677866592
 20
115.0787703218
  0
VERTEX
  8
SURFACE
 62
7
  6
CONTINUOUS
 10
297.2576590674
 20
115.1261518815
  0
VERTEX
  8
SURFACE
 62
7
  6
CONTINUOUS
 10
297.2542669584
 20
115.1743105419
  0
SEQEND
  0
POLYLINE
  8
0
 62
7
  6
CONTINUOUS
 66
1
 70
0
  0
VERTEX
  8
0
 62
7
  6
CONTINUOUS
 10
305.6474631042
 20
238.6694268959
  0
VERTEX
  8
0
 62
7
  6
CONTINUOUS
 10
305.6364582607
 20
238.6577449527
  0
VERTEX
  8
0
 62
7
  6
CONTINUOUS
 10
305.6075082795
 20
238.6174157927
  0
VERTEX
  8
0
 62
7
  6
CONTINUOUS
 10
305.5844924664
 20
238.5739778066
  0
VERTEX
  8
0
 62
7
  6
CONTINUOUS
 10
305.5677866592
 20
238.5281771618
  0
VERTEX
  8
0
 62
7
  6
CONTINUOUS
 10
305.5576590674
 20
238.4807956021
  0
VERTEX
  8
0
 62
7
  6
CONTINUOUS
 10
305.5542669584
 20
238.4326369416
  0
SEQEND
  0
POLYLINE
  8
0
 62
7
  6
CONTINUOUS
 66
1
 70
0
  0
VERTEX
  8
0
 62
7
  6
CONTINUOUS
 10
314.6082999609
 20
134.8365157519
  0
VERTEX
  8
0
 62
7
  6
CONTINUOUS
 10
314.6180152063
 20
134.8366335747
  0
VERTEX
  8
0
 62
7
  6
CONTINUOUS
 10
314.6575939129
 20
134.8395601565
  0
VERTEX
  8
0
 62
7
  6
CONTINUOUS
 10
314.6954428362
 20
134.8461086772
  0
VERTEX
  8
0
 62
7
  6
CONTINUOUS
 10
314.7313423848
 20
134.855879136
  0
VERTEX
  8
0
 62
7
  6
CONTINUOUS
 10
314.7651356826
 20
134.8684907757
  0
VERTEX
  8
0
 62
7
  6
CONTINUOUS
 10
314.7967169222
 20
134.8835864812
  0
VERTEX
  8
0
 62
7
  6
CONTINUOUS
 10
314.8260203727
 20
134.9008340468
  0
VERTEX
  8
0
 62
7
  6
CONTINUOUS
 10
314.8530171428
 20
134.9199297127
  0
VERTEX
  8
0
 62
7
  6
CONTINUOUS
 10
314.8777068015
 20
134.9405985192
  0
VERTEX
  8
0
 62
7
  6
CONTINUOUS
 10
314.9001241139
 20
134.962608057
  0
VERTEX
  8
0
 62
7
  6
CONTINUOUS
 10
314.920271186
 20
134.985702014
  0
VERTEX
  8
0
 62
7
  6
CONTINUOUS
 10
314.9380954873
 20
135.00952677
  0
VERTEX
  8
0
 62
7
  6
CONTINUOUS
 10
314.9536171203
 20
135.0337554082
  0
VERTEX
  8
0
 62
7
  6
CONTINUOUS
 10
314.966913033
 20
135.0580955456
  0
VERTEX
  8
0
 62
7
  6
CONTINUOUS
 10
314.9780791924
 20
135.0822361759
  0
VERTEX
  8
0
 62
7
  6
CONTINUOUS
 10
314.9872115557
 20
135.1057680388
  0
VERTEX
  8
0
 62
7
  6
CONTINUOUS
 10
314.9943659192
 20
135.1279373619
  0
VERTEX
  8
0
 62
7
  6
CONTINUOUS
 10
314.9987242969
 20
135.1439495083
  0
SEQEND
  0
LINE
  8
0
 62
7
  6
CONTINUOUS
 10
306.0002243233
 20
134.8365157385
 11
314.6083095943
 21
134.8365157385
  0
LINE
  8
SURFACE
 62
7
  6
CONTINUOUS
 10
297.1542669584
 20
141.8034737418
 11
288.0042669584
 21
141.8034737418
  0
LINE
  8
0
 62
7
  6
CONTINUOUS
 10
315.1542669584
 20
141.8034737418
 11
324.3042669584
 21
141.8034737418
  0
LINE
  8
SURFACE
 62
7
  6
CONTINUOUS
 10
297.2892896337
 20
115.3648784113
 11
297.2959219232
 21
115.3522716388
  0
LINE
  8
0
 62
7
  6
CONTINUOUS
 10
305.5959006085
 20
238.2546345711
 11
305.589297131
 21
238.2420857859
  0
POLYLINE
  8
0
 62
7
  6
CONTINUOUS
 66
1
 70
0
  0
VERTEX
  8
0
 62
7
  6
CONTINUOUS
 10
305.9542669584
 20
148.2092336962
  0
VERTEX
  8
0
 62
7
  6
CONTINUOUS
 10
305.901815861
 20
148.2088072018
  0
VERTEX
  8
0
 62
7
  6
CONTINUOUS
 10
305.8503140679
 20
148.2075370517
  0
VERTEX
  8
0
 62
7
  6
CONTINUOUS
 10
305.8006444427
 20
148.2054487201
  0
VERTEX
  8
0
 62
7
  6
CONTINUOUS
 10
305.7536562579
 20
148.2025825228
  0
VERTEX
  8
0
 62
7
  6
CONTINUOUS
 10
305.7101502281
 20
148.1989927497
  0
VERTEX
  8
0
 62
7
  6
CONTINUOUS
 10
305.670863755
 20
148.1947463974
  0
VERTEX
  8
0
 62
7
  6
CONTINUOUS
 10
305.6364582607
 20
148.1899216329
  0
VERTEX
  8
0
 62
7
  6
CONTINUOUS
 10
305.6075082795
 20
148.1846060491
  0
VERTEX
  8
0
 62
7
  6
CONTINUOUS
 10
305.5844924664
 20
148.1788947806
  0
VERTEX
  8
0
 62
7
  6
CONTINUOUS
 10
305.5677866592
 20
148.1728885568
  0
VERTEX
  8
0
 62
7
  6
CONTINUOUS
 10
305.5576590674
 20
148.166691828
  0
VERTEX
  8
0
 62
7
  6
CONTINUOUS
 10
305.5542669584
 20
148.1604108461
  0
SEQEND
  0
LINE
  8
0
 62
7
  6
CONTINUOUS
 10
305.9542669584
 20
148.2092336962
 11
314.6542669584
 21
148.2092336962
  0
POLYLINE
  8
0
 62
7
  6
CONTINUOUS
 66
1
 70
0
  0
VERTEX
  8
0
 62
7
  6
CONTINUOUS
 10
314.6542669584
 20
148.2092336962
  0
VERTEX
  8
0
 62
7
  6
CONTINUOUS
 10
314.7067180559
 20
148.2088072018
  0
VERTEX
  8
0
 62
7
  6
CONTINUOUS
 10
314.7582198489
 20
148.2075370517
  0
VERTEX
  8
0
 62
7
  6
CONTINUOUS
 10
314.8078894742
 20
148.2054487201
  0
VERTEX
  8
0
 62
7
  6
CONTINUOUS
 10
314.854877659
 20
148.2025825228
  0
VERTEX
  8
0
 62
7
  6
CONTINUOUS
 10
314.8983836888
 20
148.1989927497
  0
VERTEX
  8
0
 62
7
  6
CONTINUOUS
 10
314.9376701619
 20
148.1947463974
  0
VERTEX
  8
0
 62
7
  6
CONTINUOUS
 10
314.9720756562
 20
148.1899216329
  0
VERTEX
  8
0
 62
7
  6
CONTINUOUS
 10
315.0010256373
 20
148.1846060491
  0
VERTEX
  8
0
 62
7
  6
CONTINUOUS
 10
315.0240414505
 20
148.1788947806
  0
VERTEX
  8
0
 62
7
  6
CONTINUOUS
 10
315.0407472576
 20
148.1728885568
  0
VERTEX
  8
0
 62
7
  6
CONTINUOUS
 10
315.0508748494
 20
148.166691828
  0
VERTEX
  8
0
 62
7
  6
CONTINUOUS
 10
315.0542669584
 20
148.1604108461
  0
SEQEND
  0
LINE
  8
SURFACE
 62
7
  6
CONTINUOUS
 10
285.0042669584
 20
144.8034766205
 11
285.0042669584
 21
208.8034708631
  0
POLYLINE
  8
0
 62
7
  6
CONTINUOUS
 66
1
 70
0
  0
VERTEX
  8
0
 62
7
  6
CONTINUOUS
 10
305.589297131
 20
238.2420857859
  0
VERTEX
  8
0
 62
7
  6
CONTINUOUS
 10
305.5716611571
 20
238.1950592014
  0
VERTEX
  8
0
 62
7
  6
CONTINUOUS
 10
305.5600582072
 20
238.1462023029
  0
VERTEX
  8
0
 62
7
  6
CONTINUOUS
 10
305.5546687398
 20
238.0963047085
  0
SEQEND
  0
POLYLINE
  8
SURFACE
 62
7
  6
CONTINUOUS
 66
1
 70
0
  0
VERTEX
  8
SURFACE
 62
7
  6
CONTINUOUS
 10
306.3542669584
 20
157.5166580232
  0
VERTEX
  8
SURFACE
 62
7
  6
CONTINUOUS
 10
306.4067180559
 20
157.5187542822
  0
VERTEX
  8
SURFACE
 62
7
  6
CONTINUOUS
 10
306.4582198489
 20
157.5249992963
  0
VERTEX
  8
SURFACE
 62
7
  6
CONTINUOUS
 10
306.5078894742
 20
157.5352739725
  0
VERTEX
  8
SURFACE
 62
7
  6
CONTINUOUS
 10
306.554877659
 20
157.5493896809
  0
VERTEX
  8
SURFACE
 62
7
  6
CONTINUOUS
 10
306.5983836888
 20
157.5670916077
  0
VERTEX
  8
SURFACE
 62
7
  6
CONTINUOUS
 10
306.6376701619
 20
157.5880638377
  0
VERTEX
  8
SURFACE
 62
7
  6
CONTINUOUS
 10
306.6720756562
 20
157.6119356202
  0
VERTEX
  8
SURFACE
 62
7
  6
CONTINUOUS
 10
306.7010256373
 20
157.6382886253
  0
VERTEX
  8
SURFACE
 62
7
  6
CONTINUOUS
 10
306.7240414505
 20
157.6666649607
  0
VERTEX
  8
SURFACE
 62
7
  6
CONTINUOUS
 10
306.7407472576
 20
157.6965756702
  0
VERTEX
  8
SURFACE
 62
7
  6
CONTINUOUS
 10
306.7508748494
 20
157.7275091095
  0
VERTEX
  8
SURFACE
 62
7
  6
CONTINUOUS
 10
306.7542669584
 20
157.7589398517
  0
SEQEND
  0
LINE
  8
SURFACE
 62
7
  6
CONTINUOUS
 10
306.3542669584
 20
157.5166580232
 11
297.6542669584
 21
157.5166580232
  0
POLYLINE
  8
SURFACE
 62
7
  6
CONTINUOUS
 66
1
 70
0
  0
VERTEX
  8
SURFACE
 62
7
  6
CONTINUOUS
 10
297.6542669584
 20
157.5166580232
  0
VERTEX
  8
SURFACE
 62
7
  6
CONTINUOUS
 10
297.601815861
 20
157.5187542822
  0
VERTEX
  8
SURFACE
 62
7
  6
CONTINUOUS
 10
297.5503140679
 20
157.5249992963
  0
VERTEX
  8
SURFACE
 62
7
  6
CONTINUOUS
 10
297.5006444427
 20
157.5352739725
  0
VERTEX
  8
SURFACE
 62
7
  6
CONTINUOUS
 10
297.4536562579
 20
157.5493896809
  0
VERTEX
  8
SURFACE
 62
7
  6
CONTINUOUS
 10
297.4101502281
 20
157.5670916077
  0
VERTEX
  8
SURFACE
 62
7
  6
CONTINUOUS
 10
297.370863755
 20
157.5880638377
  0
VERTEX
  8
SURFACE
 62
7
  6
CONTINUOUS
 10
297.3364582607
 20
157.6119356202
  0
VERTEX
  8
SURFACE
 62
7
  6
CONTINUOUS
 10
297.3075082795
 20
157.6382886253
  0
VERTEX
  8
SURFACE
 62
7
  6
CONTINUOUS
 10
297.2844924664
 20
157.6666649607
  0
VERTEX
  8
SURFACE
 62
7
  6
CONTINUOUS
 10
297.2677866592
 20
157.6965756702
  0
VERTEX
  8
SURFACE
 62
7
  6
CONTINUOUS
 10
297.2576590674
 20
157.7275091095
  0
VERTEX
  8
SURFACE
 62
7
  6
CONTINUOUS
 10
297.2542669584
 20
157.7589398517
  0
SEQEND
  0
POLYLINE
  8
SURFACE
 62
7
  6
CONTINUOUS
 66
1
 70
0
  0
VERTEX
  8
SURFACE
 62
7
  6
CONTINUOUS
 10
297.2909863188
 20
115.374414301
  0
VERTEX
  8
SURFACE
 62
7
  6
CONTINUOUS
 10
297.2909640749
 20
115.3744918794
  0
VERTEX
  8
SURFACE
 62
7
  6
CONTINUOUS
 10
297.291361219
 20
115.3729889206
  0
VERTEX
  8
SURFACE
 62
7
  6
CONTINUOUS
 10
297.2923542786
 20
115.3689223946
  0
VERTEX
  8
SURFACE
 62
7
  6
CONTINUOUS
 10
297.2938138959
 20
115.3624487598
  0
VERTEX
  8
SURFACE
 62
7
  6
CONTINUOUS
 10
297.2956463845
 20
115.3536858704
  0
VERTEX
  8
SURFACE
 62
7
  6
CONTINUOUS
 10
297.2977891182
 20
115.3426880619
  0
VERTEX
  8
SURFACE
 62
7
  6
CONTINUOUS
 10
297.300202251
 20
115.3294471832
  0
VERTEX
  8
SURFACE
 62
7
  6
CONTINUOUS
 10
297.3028600533
 20
115.313910344
  0
VERTEX
  8
SURFACE
 62
7
  6
CONTINUOUS
 10
297.305746597
 20
115.295986413
  0
VERTEX
  8
SURFACE
 62
7
  6
CONTINUOUS
 10
297.3088524907
 20
115.2755531666
  0
VERTEX
  8
SURFACE
 62
7
  6
CONTINUOUS
 10
297.3121677041
 20
115.2524982062
  0
VERTEX
  8
SURFACE
 62
7
  6
CONTINUOUS
 10
297.3156777176
 20
115.2267507039
  0
VERTEX
  8
SURFACE
 62
7
  6
CONTINUOUS
 10
297.3193691912
 20
115.1982467116
  0
VERTEX
  8
SURFACE
 62
7
  6
CONTINUOUS
 10
297.3232299779
 20
115.1669282045
  0
VERTEX
  8
SURFACE
 62
7
  6
CONTINUOUS
 10
297.3272495039
 20
115.1327382826
  0
VERTEX
  8
SURFACE
 62
7
  6
CONTINUOUS
 10
297.3314217551
 20
115.0955916872
  0
VERTEX
  8
SURFACE
 62
7
  6
CONTINUOUS
 10
297.335743026
 20
115.0553877751
  0
SEQEND
  0
POLYLINE
  8
SURFACE
 62
7
  6
CONTINUOUS
 66
1
 70
0
  0
VERTEX
  8
SURFACE
 62
7
  6
CONTINUOUS
 10
297.2546674694
 20
115.5106710609
  0
VERTEX
  8
SURFACE
 62
7
  6
CONTINUOUS
 10
297.2600540977
 20
115.4607690587
  0
VERTEX
  8
SURFACE
 62
7
  6
CONTINUOUS
 10
297.271657481
 20
115.4119003309
  0
VERTEX
  8
SURFACE
 62
7
  6
CONTINUOUS
 10
297.2892896337
 20
115.3648784113
  0
SEQEND
  0
LINE
  8
SURFACE
 62
7
  6
CONTINUOUS
 10
297.335743026
 20
115.0553877751
 11
297.3448208609
 21
114.9653900939
  0
LINE
  8
SURFACE
 62
7
  6
CONTINUOUS
 10
297.3448208609
 20
114.9653900939
 11
297.3544643039
 21
114.8618778228
  0
LINE
  8
SURFACE
 62
7
  6
CONTINUOUS
 10
297.3544643039
 20
114.8618778228
 11
297.3646590777
 21
114.7439521599
  0
LINE
  8
SURFACE
 62
7
  6
CONTINUOUS
 10
297.3646590777
 20
114.7439521599
 11
297.3753928438
 21
114.6106967538
  0
POLYLINE
  8
SURFACE
 62
7
  6
CONTINUOUS
 66
1
 70
0
  0
VERTEX
  8
SURFACE
 62
7
  6
CONTINUOUS
 10
297.4408194164
 20
83.8580905568
  0
VERTEX
  8
SURFACE
 62
7
  6
CONTINUOUS
 10
297.4414825927
 20
83.8493792378
  0
VERTEX
  8
SURFACE
 62
7
  6
CONTINUOUS
 10
297.4421630798
 20
83.8411215586
  0
VERTEX
  8
SURFACE
 62
7
  6
CONTINUOUS
 10
297.4428909704
 20
83.8330576185
  0
VERTEX
  8
SURFACE
 62
7
  6
CONTINUOUS
 10
297.4437165675
 20
83.8248290998
  0
VERTEX
  8
SURFACE
 62
7
  6
CONTINUOUS
 10
297.4447058067
 20
83.8161071376
  0
VERTEX
  8
SURFACE
 62
7
  6
CONTINUOUS
 10
297.4459591252
 20
83.8064949513
  0
VERTEX
  8
SURFACE
 62
7
  6
CONTINUOUS
 10
297.4476126892
 20
83.7956217413
  0
VERTEX
  8
SURFACE
 62
7
  6
CONTINUOUS
 10
297.4498854368
 20
83.7829565084
  0
VERTEX
  8
SURFACE
 62
7
  6
CONTINUOUS
 10
297.4531472678
 20
83.7677227089
  0
VERTEX
  8
SURFACE
 62
7
  6
CONTINUOUS
 10
297.4577746719
 20
83.749760178
  0
VERTEX
  8
SURFACE
 62
7
  6
CONTINUOUS
 10
297.4638997621
 20
83.7299780695
  0
VERTEX
  8
SURFACE
 62
7
  6
CONTINUOUS
 10
297.4714989302
 20
83.7093547297
  0
VERTEX
  8
SURFACE
 62
7
  6
CONTINUOUS
 10
297.4806457269
 20
83.6882457891
  0
VERTEX
  8
SURFACE
 62
7
  6
CONTINUOUS
 10
297.4914513081
 20
83.66683461
  0
VERTEX
  8
SURFACE
 62
7
  6
CONTINUOUS
 10
297.5040132517
 20
83.6453125899
  0
VERTEX
  8
SURFACE
 62
7
  6
CONTINUOUS
 10
297.5184028476
 20
83.6238960074
  0
VERTEX
  8
SURFACE
 62
7
  6
CONTINUOUS
 10
297.5347097993
 20
83.6027602682
  0
VERTEX
  8
SURFACE
 62
7
  6
CONTINUOUS
 10
297.5530051403
 20
83.5821070045
  0
VERTEX
  8
SURFACE
 62
7
  6
CONTINUOUS
 10
297.5733408242
 20
83.5621573783
  0
VERTEX
  8
SURFACE
 62
7
  6
CONTINUOUS
 10
297.5957484873
 20
83.5431486955
  0
VERTEX
  8
SURFACE
 62
7
  6
CONTINUOUS
 10
297.6202441949
 20
83.525328064
  0
VERTEX
  8
SURFACE
 62
7
  6
CONTINUOUS
 10
297.6468212766
 20
83.5089573075
  0
VERTEX
  8
SURFACE
 62
7
  6
CONTINUOUS
 10
297.6754442103
 20
83.4943137051
  0
VERTEX
  8
SURFACE
 62
7
  6
CONTINUOUS
 10
297.7060443659
 20
83.4816878253
  0
VERTEX
  8
SURFACE
 62
7
  6
CONTINUOUS
 10
297.7385159087
 20
83.4713804448
  0
VERTEX
  8
SURFACE
 62
7
  6
CONTINUOUS
 10
297.7727126145
 20
83.4636985078
  0
VERTEX
  8
SURFACE
 62
7
  6
CONTINUOUS
 10
297.808443252
 20
83.4589508163
  0
VERTEX
  8
SURFACE
 62
7
  6
CONTINUOUS
 10
297.8432255635
 20
83.457436095
  0
SEQEND
  0
POLYLINE
  8
SURFACE
 62
7
  6
CONTINUOUS
 66
1
 70
0
  0
VERTEX
  8
SURFACE
 62
7
  6
CONTINUOUS
 10
297.4259335834
 20
113.8954041914
  0
VERTEX
  8
SURFACE
 62
7
  6
CONTINUOUS
 10
297.4274679332
 20
113.8749661807
  0
VERTEX
  8
SURFACE
 62
7
  6
CONTINUOUS
 10
297.429006124
 20
113.8564380956
  0
VERTEX
  8
SURFACE
 62
7
  6
CONTINUOUS
 10
297.4305768004
 20
113.8394967809
  0
VERTEX
  8
SURFACE
 62
7
  6
CONTINUOUS
 10
297.4322321284
 20
113.8236995529
  0
VERTEX
  8
SURFACE
 62
7
  6
CONTINUOUS
 10
297.4340585637
 20
113.8084967736
  0
VERTEX
  8
SURFACE
 62
7
  6
CONTINUOUS
 10
297.4362023954
 20
113.79318855
  0
VERTEX
  8
SURFACE
 62
7
  6
CONTINUOUS
 10
297.4388934959
 20
113.7769878995
  0
VERTEX
  8
SURFACE
 62
7
  6
CONTINUOUS
 10
297.4423923923
 20
113.7594695153
  0
VERTEX
  8
SURFACE
 62
7
  6
CONTINUOUS
 10
297.4469069205
 20
113.740745452
  0
VERTEX
  8
SURFACE
 62
7
  6
CONTINUOUS
 10
297.4527477925
 20
113.7206113951
  0
VERTEX
  8
SURFACE
 62
7
  6
CONTINUOUS
 10
297.4604661764
 20
113.6984333248
  0
VERTEX
  8
SURFACE
 62
7
  6
CONTINUOUS
 10
297.4707196465
 20
113.6738728925
  0
VERTEX
  8
SURFACE
 62
7
  6
CONTINUOUS
 10
297.4838194952
 20
113.6476921653
  0
VERTEX
  8
SURFACE
 62
7
  6
CONTINUOUS
 10
297.4997906719
 20
113.6209569373
  0
VERTEX
  8
SURFACE
 62
7
  6
CONTINUOUS
 10
297.5186827712
 20
113.5943555025
  0
VERTEX
  8
SURFACE
 62
7
  6
CONTINUOUS
 10
297.5406134439
 20
113.568337965
  0
VERTEX
  8
SURFACE
 62
7
  6
CONTINUOUS
 10
297.5656457883
 20
113.5433725759
  0
VERTEX
  8
SURFACE
 62
7
  6
CONTINUOUS
 10
297.5937929202
 20
113.5199348992
  0
VERTEX
  8
SURFACE
 62
7
  6
CONTINUOUS
 10
297.625077071
 20
113.4984697806
  0
VERTEX
  8
SURFACE
 62
7
  6
CONTINUOUS
 10
297.6594735121
 20
113.479455981
  0
VERTEX
  8
SURFACE
 62
7
  6
CONTINUOUS
 10
297.6968913917
 20
113.4634105267
  0
VERTEX
  8
SURFACE
 62
7
  6
CONTINUOUS
 10
297.7371609113
 20
113.4508826291
  0
VERTEX
  8
SURFACE
 62
7
  6
CONTINUOUS
 10
297.7800266251
 20
113.4424436412
  0
VERTEX
  8
SURFACE
 62
7
  6
CONTINUOUS
 10
297.8251278536
 20
113.4386783781
  0
VERTEX
  8
SURFACE
 62
7
  6
CONTINUOUS
 10
297.8358448692
 20
113.4385349661
  0
SEQEND
  0
LINE
  8
SURFACE
 62
7
  6
CONTINUOUS
 10
297.3753928438
 20
114.6106967538
 11
297.3866545401
 21
114.4611756298
  0
POLYLINE
  8
SURFACE
 62
7
  6
CONTINUOUS
 66
1
 70
0
  0
VERTEX
  8
SURFACE
 62
7
  6
CONTINUOUS
 10
297.444558922
 20
78.5748836668
  0
VERTEX
  8
SURFACE
 62
7
  6
CONTINUOUS
 10
297.4448935734
 20
78.5702045481
  0
VERTEX
  8
SURFACE
 62
7
  6
CONTINUOUS
 10
297.4452817577
 20
78.5652500273
  0
VERTEX
  8
SURFACE
 62
7
  6
CONTINUOUS
 10
297.4457740719
 20
78.5596232682
  0
VERTEX
  8
SURFACE
 62
7
  6
CONTINUOUS
 10
297.4464608902
 20
78.5527613571
  0
VERTEX
  8
SURFACE
 62
7
  6
CONTINUOUS
 10
297.4474857399
 20
78.5440463146
  0
VERTEX
  8
SURFACE
 62
7
  6
CONTINUOUS
 10
297.4490306983
 20
78.5331087534
  0
VERTEX
  8
SURFACE
 62
7
  6
CONTINUOUS
 10
297.4512427213
 20
78.5201912487
  0
VERTEX
  8
SURFACE
 62
7
  6
CONTINUOUS
 10
297.4542547865
 20
78.5056336578
  0
VERTEX
  8
SURFACE
 62
7
  6
CONTINUOUS
 10
297.4581777739
 20
78.4897884296
  0
VERTEX
  8
SURFACE
 62
7
  6
CONTINUOUS
 10
297.4630868671
 20
78.4730174978
  0
VERTEX
  8
SURFACE
 62
7
  6
CONTINUOUS
 10
297.4689980394
 20
78.4557221284
  0
VERTEX
  8
SURFACE
 62
7
  6
CONTINUOUS
 10
297.4759516743
 20
78.4380971886
  0
VERTEX
  8
SURFACE
 62
7
  6
CONTINUOUS
 10
297.4840089332
 20
78.4202422765
  0
VERTEX
  8
SURFACE
 62
7
  6
CONTINUOUS
 10
297.4932278613
 20
78.4022550907
  0
VERTEX
  8
SURFACE
 62
7
  6
CONTINUOUS
 10
297.5036585522
 20
78.3842419002
  0
VERTEX
  8
SURFACE
 62
7
  6
CONTINUOUS
 10
297.515341029
 20
78.3663179201
  0
VERTEX
  8
SURFACE
 62
7
  6
CONTINUOUS
 10
297.5283179342
 20
78.3485877051
  0
VERTEX
  8
SURFACE
 62
7
  6
CONTINUOUS
 10
297.5426342443
 20
78.3311523289
  0
VERTEX
  8
SURFACE
 62
7
  6
CONTINUOUS
 10
297.5583288791
 20
78.314122628
  0
VERTEX
  8
SURFACE
 62
7
  6
CONTINUOUS
 10
297.5754337158
 20
78.2976188773
  0
VERTEX
  8
SURFACE
 62
7
  6
CONTINUOUS
 10
297.5939721086
 20
78.2817708706
  0
VERTEX
  8
SURFACE
 62
7
  6
CONTINUOUS
 10
297.6139566208
 20
78.2667182671
  0
VERTEX
  8
SURFACE
 62
7
  6
CONTINUOUS
 10
297.6353873962
 20
78.2526098872
  0
VERTEX
  8
SURFACE
 62
7
  6
CONTINUOUS
 10
297.6582512956
 20
78.2396023959
  0
VERTEX
  8
SURFACE
 62
7
  6
CONTINUOUS
 10
297.6825202821
 20
78.2278594965
  0
VERTEX
  8
SURFACE
 62
7
  6
CONTINUOUS
 10
297.7081497585
 20
78.2175508991
  0
VERTEX
  8
SURFACE
 62
7
  6
CONTINUOUS
 10
297.735076913
 20
78.2088510247
  0
VERTEX
  8
SURFACE
 62
7
  6
CONTINUOUS
 10
297.7632191908
 20
78.2019374122
  0
VERTEX
  8
SURFACE
 62
7
  6
CONTINUOUS
 10
297.7924726304
 20
78.1969889038
  0
VERTEX
  8
SURFACE
 62
7
  6
CONTINUOUS
 10
297.822710366
 20
78.1941834746
  0
VERTEX
  8
SURFACE
 62
7
  6
CONTINUOUS
 10
297.8445197496
 20
78.1935885014
  0
SEQEND
  0
LINE
  8
SURFACE
 62
7
  6
CONTINUOUS
 10
297.3866545401
 20
114.4611756298
 11
297.4259335834
 21
113.8954041914
  0
LINE
  8
SURFACE
 62
7
  6
CONTINUOUS
 10
297.4394776266
 20
83.8775914719
 11
297.4408194164
 21
83.8580905568
  0
LINE
  8
SURFACE
 62
7
  6
CONTINUOUS
 10
297.4439509246
 20
78.5843565659
 11
297.444558922
 21
78.5748836668
  0
LINE
  8
SURFACE
 62
7
  6
CONTINUOUS
 10
297.4380525276
 20
83.9007241854
 11
297.4394776266
 21
83.8775914719
  0
LINE
  8
SURFACE
 62
7
  6
CONTINUOUS
 10
297.4433461806
 20
78.5948811015
 11
297.4439509246
 21
78.5843565659
  0
LINE
  8
SURFACE
 62
7
  6
CONTINUOUS
 10
297.4356819485
 20
83.9436844559
 11
297.4380525276
 21
83.9007241854
  0
LINE
  8
SURFACE
 62
7
  6
CONTINUOUS
 10
297.254873716
 20
88.0784632662
 11
297.2824462992
 21
87.5290014425
  0
LINE
  8
SURFACE
 62
7
  6
CONTINUOUS
 10
297.4329923916
 20
83.9977668829
 11
297.4356819485
 21
83.9436844559
  0
POLYLINE
  8
SURFACE
 62
7
  6
CONTINUOUS
 66
1
 70
0
  0
VERTEX
  8
SURFACE
 62
7
  6
CONTINUOUS
 10
297.3534397699
 20
80.4715673374
  0
VERTEX
  8
SURFACE
 62
7
  6
CONTINUOUS
 10
297.3978457085
 20
79.5120151044
  0
VERTEX
  8
SURFACE
 62
7
  6
CONTINUOUS
 10
297.4433461806
 20
78.5948811015
  0
SEQEND
  0
LINE
  8
SURFACE
 62
7
  6
CONTINUOUS
 10
297.2824462992
 20
87.5290014425
 11
297.3133182029
 21
86.8683298414
  0
LINE
  8
SURFACE
 62
7
  6
CONTINUOUS
 10
297.4288107863
 20
84.0905367017
 11
297.4329923916
 21
83.9977668829
  0
POLYLINE
  8
SURFACE
 62
7
  6
CONTINUOUS
 66
1
 70
0
  0
VERTEX
  8
SURFACE
 62
7
  6
CONTINUOUS
 10
297.3133182029
 20
86.8683298414
  0
VERTEX
  8
SURFACE
 62
7
  6
CONTINUOUS
 10
297.3461105751
 20
86.1224383319
  0
VERTEX
  8
SURFACE
 62
7
  6
CONTINUOUS
 10
297.3630713791
 20
85.7206640777
  0
SEQEND
  0
LINE
  8
SURFACE
 62
7
  6
CONTINUOUS
 10
297.4251610543
 20
84.1785472084
 11
297.4288107863
 21
84.0905367017
  0
LINE
  8
SURFACE
 62
7
  6
CONTINUOUS
 10
297.3084481636
 20
81.5156499902
 11
297.3534397699
 21
80.4715673374
  0
POLYLINE
  8
SURFACE
 62
7
  6
CONTINUOUS
 66
1
 70
0
  0
VERTEX
  8
SURFACE
 62
7
  6
CONTINUOUS
 10
297.3978457085
 20
274.0949323792
  0
VERTEX
  8
SURFACE
 62
7
  6
CONTINUOUS
 10
297.3534397699
 20
273.1353801462
  0
VERTEX
  8
SURFACE
 62
7
  6
CONTINUOUS
 10
297.3084481636
 20
272.0912974933
  0
SEQEND
  0
LINE
  8
SURFACE
 62
7
  6
CONTINUOUS
 10
297.443132407
 20
275.0081262239
 11
297.3978457085
 21
274.0949323792
  0
LINE
  8
SURFACE
 62
7
  6
CONTINUOUS
 10
297.2997721523
 20
255.6897278203
 11
297.2548791432
 21
254.8512650142
  0
LINE
  8
SURFACE
 62
7
  6
CONTINUOUS
 10
297.443827805
 20
275.0205300696
 11
297.443132407
 21
275.0081262239
  0
LINE
  8
SURFACE
 62
7
  6
CONTINUOUS
 10
297.4444966447
 20
275.0311503254
 11
297.443827805
 21
275.0205300696
  0
POLYLINE
  8
SURFACE
 62
7
  6
CONTINUOUS
 66
1
 70
0
  0
VERTEX
  8
SURFACE
 62
7
  6
CONTINUOUS
 10
297.3028205395
 20
255.7373731259
  0
VERTEX
  8
SURFACE
 62
7
  6
CONTINUOUS
 10
297.3018332855
 20
255.7229347601
  0
VERTEX
  8
SURFACE
 62
7
  6
CONTINUOUS
 10
297.2997721523
 20
255.6897278203
  0
SEQEND
  0
POLYLINE
  8
SURFACE
 62
7
  6
CONTINUOUS
 66
1
 70
0
  0
VERTEX
  8
SURFACE
 62
7
  6
CONTINUOUS
 10
297.2622065139
 20
218.2505379789
  0
VERTEX
  8
SURFACE
 62
7
  6
CONTINUOUS
 10
297.2588380256
 20
218.2314616105
  0
VERTEX
  8
SURFACE
 62
7
  6
CONTINUOUS
 10
297.2545069294
 20
218.1848396467
  0
SEQEND
  0
POLYLINE
  8
SURFACE
 62
7
  6
CONTINUOUS
 66
1
 70
0
  0
VERTEX
  8
SURFACE
 62
7
  6
CONTINUOUS
 10
297.2934944911
 20
218.3955179041
  0
VERTEX
  8
SURFACE
 62
7
  6
CONTINUOUS
 10
297.2769205967
 20
218.3212849805
  0
VERTEX
  8
SURFACE
 62
7
  6
CONTINUOUS
 10
297.2622057265
 20
218.2505340448
  0
SEQEND
  0
LINE
  8
SURFACE
 62
7
  6
CONTINUOUS
 10
297.3098062733
 20
218.4629850596
 11
297.2934944911
 21
218.3955179041
  0
LINE
  8
SURFACE
 62
7
  6
CONTINUOUS
 10
297.7964454384
 20
160.1034737418
 11
306.2120884728
 21
160.1034737418
  0
POLYLINE
  8
0
 62
7
  6
CONTINUOUS
 66
1
 70
0
  0
VERTEX
  8
0
 62
7
  6
CONTINUOUS
 10
305.5546600735
 20
102.4272573937
  0
VERTEX
  8
0
 62
7
  6
CONTINUOUS
 10
305.5541098418
 20
102.4297245214
  0
VERTEX
  8
0
 62
7
  6
CONTINUOUS
 10
305.5542670635
 20
102.4267191523
  0
SEQEND
  0
POLYLINE
  8
0
 62
7
  6
CONTINUOUS
 66
1
 70
0
  0
VERTEX
  8
0
 62
7
  6
CONTINUOUS
 10
305.602842775
 20
97.869260634
  0
VERTEX
  8
0
 62
7
  6
CONTINUOUS
 10
305.6038174208
 20
97.8560178341
  0
VERTEX
  8
0
 62
7
  6
CONTINUOUS
 10
305.6047908809
 20
97.843805822
  0
VERTEX
  8
0
 62
7
  6
CONTINUOUS
 10
305.6057864718
 20
97.8323816285
  0
VERTEX
  8
0
 62
7
  6
CONTINUOUS
 10
305.6068436539
 20
97.8214152729
  0
VERTEX
  8
0
 62
7
  6
CONTINUOUS
 10
305.6080305214
 20
97.8104507224
  0
VERTEX
  8
0
 62
7
  6
CONTINUOUS
 10
305.609447241
 20
97.7990046827
  0
VERTEX
  8
0
 62
7
  6
CONTINUOUS
 10
305.6112207593
 20
97.7867014903
  0
VERTEX
  8
0
 62
7
  6
CONTINUOUS
 10
305.613515857
 20
97.7732199726
  0
VERTEX
  8
0
 62
7
  6
CONTINUOUS
 10
305.6165126895
 20
97.7584146198
  0
VERTEX
  8
0
 62
7
  6
CONTINUOUS
 10
305.620562715
 20
97.741640639
  0
VERTEX
  8
0
 62
7
  6
CONTINUOUS
 10
305.6261326261
 20
97.7223696615
  0
VERTEX
  8
0
 62
7
  6
CONTINUOUS
 10
305.6335469816
 20
97.700954056
  0
VERTEX
  8
0
 62
7
  6
CONTINUOUS
 10
305.6428245241
 20
97.6784532461
  0
VERTEX
  8
0
 62
7
  6
CONTINUOUS
 10
305.6539001132
 20
97.6556725338
  0
VERTEX
  8
0
 62
7
  6
CONTINUOUS
 10
305.6668231782
 20
97.6329164321
  0
VERTEX
  8
0
 62
7
  6
CONTINUOUS
 10
305.6816600106
 20
97.6103983233
  0
VERTEX
  8
0
 62
7
  6
CONTINUOUS
 10
305.6984598428
 20
97.5883335451
  0
VERTEX
  8
0
 62
7
  6
CONTINUOUS
 10
305.7172393404
 20
97.5669571046
  0
VERTEX
  8
0
 62
7
  6
CONTINUOUS
 10
305.7379763106
 20
97.5465188312
  0
VERTEX
  8
0
 62
7
  6
CONTINUOUS
 10
305.7606659217
 20
97.5272277135
  0
VERTEX
  8
0
 62
7
  6
CONTINUOUS
 10
305.7853258112
 20
97.5092726561
  0
VERTEX
  8
0
 62
7
  6
CONTINUOUS
 10
305.8119532771
 20
97.4928671799
  0
VERTEX
  8
0
 62
7
  6
CONTINUOUS
 10
305.8405258271
 20
97.4782446308
  0
VERTEX
  8
0
 62
7
  6
CONTINUOUS
 10
305.8709960773
 20
97.4656579748
  0
VERTEX
  8
0
 62
7
  6
CONTINUOUS
 10
305.903287106
 20
97.4553783834
  0
VERTEX
  8
0
 62
7
  6
CONTINUOUS
 10
305.93728866
 20
97.4476930042
  0
VERTEX
  8
0
 62
7
  6
CONTINUOUS
 10
305.9728491941
 20
97.442902987
  0
VERTEX
  8
0
 62
7
  6
CONTINUOUS
 10
306.0084446039
 20
97.4413169788
  0
SEQEND
  0
POLYLINE
  8
0
 62
7
  6
CONTINUOUS
 66
1
 70
0
  0
VERTEX
  8
0
 62
7
  6
CONTINUOUS
 10
305.7445664794
 20
78.5747737348
  0
VERTEX
  8
0
 62
7
  6
CONTINUOUS
 10
305.7449031874
 20
78.5700757782
  0
VERTEX
  8
0
 62
7
  6
CONTINUOUS
 10
305.7452949585
 20
78.5650899689
  0
VERTEX
  8
0
 62
7
  6
CONTINUOUS
 10
305.7457937396
 20
78.5594120276
  0
VERTEX
  8
0
 62
7
  6
CONTINUOUS
 10
305.7464923348
 20
78.5524699137
  0
VERTEX
  8
0
 62
7
  6
CONTINUOUS
 10
305.7475375696
 20
78.5436425974
  0
VERTEX
  8
0
 62
7
  6
CONTINUOUS
 10
305.7491123116
 20
78.5325839028
  0
VERTEX
  8
0
 62
7
  6
CONTINUOUS
 10
305.7513632169
 20
78.5195525649
  0
VERTEX
  8
0
 62
7
  6
CONTINUOUS
 10
305.7544225088
 20
78.5048952768
  0
VERTEX
  8
0
 62
7
  6
CONTINUOUS
 10
305.7584010971
 20
78.488962405
  0
VERTEX
  8
0
 62
7
  6
CONTINUOUS
 10
305.763371723
 20
78.4721211062
  0
VERTEX
  8
0
 62
7
  6
CONTINUOUS
 10
305.7693496844
 20
78.454768811
  0
VERTEX
  8
0
 62
7
  6
CONTINUOUS
 10
305.7763769802
 20
78.4370934214
  0
VERTEX
  8
0
 62
7
  6
CONTINUOUS
 10
305.7845148597
 20
78.4191943867
  0
VERTEX
  8
0
 62
7
  6
CONTINUOUS
 10
305.7938211921
 20
78.4011700077
  0
VERTEX
  8
0
 62
7
  6
CONTINUOUS
 10
305.8043457555
 20
78.383127296
  0
VERTEX
  8
0
 62
7
  6
CONTINUOUS
 10
305.8161282726
 20
78.3651820403
  0
VERTEX
  8
0
 62
7
  6
CONTINUOUS
 10
305.8292114051
 20
78.3474390214
  0
VERTEX
  8
0
 62
7
  6
CONTINUOUS
 10
305.8436397575
 20
78.3300002129
  0
VERTEX
  8
0
 62
7
  6
CONTINUOUS
 10
305.859451776
 20
78.3129773781
  0
VERTEX
  8
0
 62
7
  6
CONTINUOUS
 10
305.8766787454
 20
78.2964917469
  0
VERTEX
  8
0
 62
7
  6
CONTINUOUS
 10
305.8953432953
 20
78.2806740847
  0
VERTEX
  8
0
 62
7
  6
CONTINUOUS
 10
305.9154570951
 20
78.2656650385
  0
VERTEX
  8
0
 62
7
  6
CONTINUOUS
 10
305.9370192481
 20
78.2516143835
  0
VERTEX
  8
0
 62
7
  6
CONTINUOUS
 10
305.9600154137
 20
78.2386797011
  0
VERTEX
  8
0
 62
7
  6
CONTINUOUS
 10
305.9844161824
 20
78.227025554
  0
VERTEX
  8
0
 62
7
  6
CONTINUOUS
 10
306.0101754063
 20
78.2168224311
  0
VERTEX
  8
0
 62
7
  6
CONTINUOUS
 10
306.0372285414
 20
78.2082454259
  0
VERTEX
  8
0
 62
7
  6
CONTINUOUS
 10
306.0654911151
 20
78.2014726163
  0
VERTEX
  8
0
 62
7
  6
CONTINUOUS
 10
306.0948570633
 20
78.1966832179
  0
VERTEX
  8
0
 62
7
  6
CONTINUOUS
 10
306.1251972396
 20
78.1940553794
  0
VERTEX
  8
0
 62
7
  6
CONTINUOUS
 10
306.1445197215
 20
78.1935884324
  0
SEQEND
  0
LINE
  8
0
 62
7
  6
CONTINUOUS
 10
305.6018527115
 20
97.8837191252
 11
305.602842775
 21
97.869260634
  0
LINE
  8
0
 62
7
  6
CONTINUOUS
 10
305.743656209
 20
78.5893623314
 11
305.7445664794
 21
78.5747737348
  0
LINE
  8
0
 62
7
  6
CONTINUOUS
 10
305.7433493875
 20
78.5948228556
 11
305.743656209
 21
78.5893623314
  0
LINE
  8
SURFACE
 62
7
  6
CONTINUOUS
 10
297.3630713791
 20
85.7206640777
 11
297.3967609036
 21
84.8926581553
  0
LINE
  8
SURFACE
 62
7
  6
CONTINUOUS
 10
297.3967609004
 20
84.8926581768
 11
297.4251610543
 21
84.1785472084
  0
LINE
  8
SURFACE
 62
7
  6
CONTINUOUS
 10
297.3103844319
 20
81.4676200618
 11
297.3104900139
 21
81.4648286776
  0
LINE
  8
SURFACE
 62
7
  6
CONTINUOUS
 10
297.3084481636
 20
81.5156499902
 11
297.2545715449
 21
83.0112325364
  0
LINE
  8
SURFACE
 62
7
  6
CONTINUOUS
 10
297.2979181414
 20
81.8002250329
 11
297.2979315154
 21
81.7998110082
  0
POLYLINE
  8
SURFACE
 62
7
  6
CONTINUOUS
 66
1
 70
0
  0
VERTEX
  8
SURFACE
 62
7
  6
CONTINUOUS
 10
297.2545715449
 20
83.0112325364
  0
VERTEX
  8
SURFACE
 62
7
  6
CONTINUOUS
 10
297.2543431105
 20
83.0199008564
  0
VERTEX
  8
SURFACE
 62
7
  6
CONTINUOUS
 10
297.2542669584
 20
83.0285717944
  0
SEQEND
  0
LINE
  8
SURFACE
 62
7
  6
CONTINUOUS
 10
297.2542669486
 20
115.528567639
 11
297.2546674694
 21
115.5106710609
  0
LINE
  8
SURFACE
 62
7
  6
CONTINUOUS
 10
297.2542669584
 20
83.0285717944
 11
297.2542669584
 21
270.5783756892
  0
LINE
  8
SURFACE
 62
7
  6
CONTINUOUS
 10
297.2545069294
 20
218.1848396467
 11
297.2542669523
 21
218.1709292413
  0
POLYLINE
  8
SURFACE
 62
7
  6
CONTINUOUS
 66
1
 70
0
  0
VERTEX
  8
SURFACE
 62
7
  6
CONTINUOUS
 10
297.2545715449
 20
270.5957149472
  0
VERTEX
  8
SURFACE
 62
7
  6
CONTINUOUS
 10
297.2543431105
 20
270.5870466272
  0
VERTEX
  8
SURFACE
 62
7
  6
CONTINUOUS
 10
297.2542669584
 20
270.5783756892
  0
SEQEND
  0
LINE
  8
SURFACE
 62
7
  6
CONTINUOUS
 10
297.3014952912
 20
271.9057033758
 11
297.2545715449
 21
270.5957149472
  0
LINE
  8
SURFACE
 62
7
  6
CONTINUOUS
 10
297.3103844319
 20
272.1393274218
 11
297.3104900139
 21
272.142118806
  0
LINE
  8
SURFACE
 62
7
  6
CONTINUOUS
 10
297.3084481636
 20
272.0912974933
 11
297.3014952912
 21
271.9057033758
  0
LINE
  8
SURFACE
 62
7
  6
CONTINUOUS
 10
297.2548791672
 20
254.8512655688
 11
297.2544885962
 21
254.841983056
  0
LINE
  8
0
 62
7
  6
CONTINUOUS
 10
305.7393239611
 20
269.7269742908
 11
305.737892486
 21
269.703487753
  0
LINE
  8
0
 62
7
  6
CONTINUOUS
 10
305.6612555121
 20
238.822674736
 11
305.6501499775
 21
238.6977751828
  0
POLYLINE
  8
0
 62
7
  6
CONTINUOUS
 66
1
 70
0
  0
VERTEX
  8
0
 62
7
  6
CONTINUOUS
 10
305.6501499775
 20
238.6977751828
  0
VERTEX
  8
0
 62
7
  6
CONTINUOUS
 10
305.6397355476
 20
238.5902308923
  0
VERTEX
  8
0
 62
7
  6
CONTINUOUS
 10
305.6347947156
 20
238.5425884414
  0
VERTEX
  8
0
 62
7
  6
CONTINUOUS
 10
305.6300363161
 20
238.4988365976
  0
VERTEX
  8
0
 62
7
  6
CONTINUOUS
 10
305.6254649933
 20
238.4588340075
  0
VERTEX
  8
0
 62
7
  6
CONTINUOUS
 10
305.6210866449
 20
238.4224455007
  0
VERTEX
  8
0
 62
7
  6
CONTINUOUS
 10
305.6169112384
 20
238.3895616439
  0
VERTEX
  8
0
 62
7
  6
CONTINUOUS
 10
305.6129521926
 20
238.360086479
  0
VERTEX
  8
0
 62
7
  6
CONTINUOUS
 10
305.6092249774
 20
238.3339217378
  0
VERTEX
  8
0
 62
7
  6
CONTINUOUS
 10
305.6057477182
 20
238.3109682358
  0
VERTEX
  8
0
 62
7
  6
CONTINUOUS
 10
305.6025390109
 20
238.2911098828
  0
VERTEX
  8
0
 62
7
  6
CONTINUOUS
 10
305.599620557
 20
238.2742304159
  0
VERTEX
  8
0
 62
7
  6
CONTINUOUS
 10
305.5970225785
 20
238.2602386948
  0
VERTEX
  8
0
 62
7
  6
CONTINUOUS
 10
305.5947878961
 20
238.2490766881
  0
VERTEX
  8
0
 62
7
  6
CONTINUOUS
 10
305.5929774123
 20
238.2407265183
  0
VERTEX
  8
0
 62
7
  6
CONTINUOUS
 10
305.5916786464
 20
238.235220636
  0
VERTEX
  8
0
 62
7
  6
CONTINUOUS
 10
305.5913730361
 20
238.2340047688
  0
SEQEND
  0
POLYLINE
  8
0
 62
7
  6
CONTINUOUS
 66
1
 70
0
  0
VERTEX
  8
0
 62
7
  6
CONTINUOUS
 10
305.6098122215
 20
135.1439390834
  0
VERTEX
  8
0
 62
7
  6
CONTINUOUS
 10
305.6137355194
 20
135.1294245061
  0
VERTEX
  8
0
 62
7
  6
CONTINUOUS
 10
305.6205989081
 20
135.1078317961
  0
VERTEX
  8
0
 62
7
  6
CONTINUOUS
 10
305.6294967476
 20
135.0845164171
  0
VERTEX
  8
0
 62
7
  6
CONTINUOUS
 10
305.6406738719
 20
135.059991652
  0
VERTEX
  8
0
 62
7
  6
CONTINUOUS
 10
305.6543533121
 20
135.0347109746
  0
VERTEX
  8
0
 62
7
  6
CONTINUOUS
 10
305.6706991939
 20
135.0091504167
  0
VERTEX
  8
0
 62
7
  6
CONTINUOUS
 10
305.6898538372
 20
134.9837439821
  0
VERTEX
  8
0
 62
7
  6
CONTINUOUS
 10
305.7118977141
 20
134.9589511736
  0
VERTEX
  8
0
 62
7
  6
CONTINUOUS
 10
305.7368422852
 20
134.9352470233
  0
VERTEX
  8
0
 62
7
  6
CONTINUOUS
 10
305.7646887016
 20
134.9130639744
  0
VERTEX
  8
0
 62
7
  6
CONTINUOUS
 10
305.7954453503
 20
134.8928087551
  0
VERTEX
  8
0
 62
7
  6
CONTINUOUS
 10
305.8290731052
 20
134.8749189182
  0
VERTEX
  8
0
 62
7
  6
CONTINUOUS
 10
305.8654720542
 20
134.8598621561
  0
VERTEX
  8
0
 62
7
  6
CONTINUOUS
 10
305.9044735115
 20
134.8481293907
  0
VERTEX
  8
0
 62
7
  6
CONTINUOUS
 10
305.9458343423
 20
134.8402265867
  0
VERTEX
  8
0
 62
7
  6
CONTINUOUS
 10
305.9892204897
 20
134.8366672018
  0
VERTEX
  8
0
 62
7
  6
CONTINUOUS
 10
306.0002339173
 20
134.8365157808
  0
SEQEND
  0
LINE
  8
0
 62
7
  6
CONTINUOUS
 10
305.5934944804
 20
135.2114296257
 11
305.6098062732
 21
135.1439624245
  0
LINE
  8
0
 62
7
  6
CONTINUOUS
 10
305.5769205861
 20
135.2856625524
 11
305.5934944804
 21
135.2114296257
  0
LINE
  8
0
 62
7
  6
CONTINUOUS
 10
305.5622057263
 20
135.3564134398
 11
305.5769205861
 21
135.2856625524
  0
POLYLINE
  8
0
 62
7
  6
CONTINUOUS
 66
1
 70
0
  0
VERTEX
  8
0
 62
7
  6
CONTINUOUS
 10
305.5545826699
 20
135.4200646268
  0
VERTEX
  8
0
 62
7
  6
CONTINUOUS
 10
305.5590452431
 20
135.3741370485
  0
VERTEX
  8
0
 62
7
  6
CONTINUOUS
 10
305.562205422
 20
135.3564148672
  0
SEQEND
  0
LINE
  8
0
 62
7
  6
CONTINUOUS
 10
305.5997845467
 20
97.9170081702
 11
305.6018527115
 21
97.8837191252
  0
LINE
  8
0
 62
7
  6
CONTINUOUS
 10
305.5548791432
 20
98.7556824693
 11
305.5997845467
 21
97.9170081702
  0
LINE
  8
0
 62
7
  6
CONTINUOUS
 10
305.6978456946
 20
79.5120153929
 11
305.7433493875
 21
78.5948228556
  0
LINE
  8
0
 62
7
  6
CONTINUOUS
 10
305.6534397563
 20
80.4715676415
 11
305.6978456946
 21
79.5120153929
  0
LINE
  8
0
 62
7
  6
CONTINUOUS
 10
305.6084472911
 20
81.5156723274
 11
305.6534397563
 21
80.4715676415
  0
LINE
  8
0
 62
7
  6
CONTINUOUS
 10
305.6084472911
 20
81.5156723274
 11
305.5545715449
 21
83.0112325364
  0
LINE
  8
0
 62
7
  6
CONTINUOUS
 10
305.5979315167
 20
81.7998109724
 11
305.5979181414
 21
81.8002250329
  0
POLYLINE
  8
0
 62
7
  6
CONTINUOUS
 66
1
 70
0
  0
VERTEX
  8
0
 62
7
  6
CONTINUOUS
 10
305.5545715449
 20
83.0112325364
  0
VERTEX
  8
0
 62
7
  6
CONTINUOUS
 10
305.5543431166
 20
83.019900522
  0
VERTEX
  8
0
 62
7
  6
CONTINUOUS
 10
305.5542669584
 20
83.0285717944
  0
SEQEND
  0
LINE
  8
0
 62
7
  6
CONTINUOUS
 10
305.5542669674
 20
135.4360181442
 11
305.5545826699
 21
135.4200646268
  0
LINE
  8
0
 62
7
  6
CONTINUOUS
 10
305.5542669584
 20
151.7042470372
 11
305.5542669584
 21
135.4360135847
  0
LINE
  8
0
 62
7
  6
CONTINUOUS
 10
305.5542669584
 20
83.0285717944
 11
305.5542669584
 21
83.4574357762
  0
LINE
  8
0
 62
7
  6
CONTINUOUS
 10
305.5542669584
 20
98.7789946018
 11
305.5542669584
 21
111.2167518003
  0
LINE
  8
0
 62
7
  6
CONTINUOUS
 10
305.5542669584
 20
181.3366912592
 11
305.5542669584
 21
198.9170598003
  0
LINE
  8
0
 62
7
  6
CONTINUOUS
 10
305.5542669584
 20
224.9795092727
 11
305.5542669584
 21
240.2045550372
  0
LINE
  8
0
 62
7
  6
CONTINUOUS
 10
305.5542669584
 20
256.1656305071
 11
305.5542669584
 21
265.5052646284
  0
LINE
  8
SURFACE
 62
7
  6
CONTINUOUS
 10
306.7542669584
 20
270.5783756892
 11
306.7542669584
 21
270.1495117074
  0
LINE
  8
SURFACE
 62
7
  6
CONTINUOUS
 10
306.7542669584
 20
88.1016828552
 11
306.7542669584
 21
96.7242117642
  0
LINE
  8
0
 62
7
  6
CONTINUOUS
 10
306.7542669584
 20
96.7242117642
 11
306.7542669584
 21
97.4413169765
  0
LINE
  8
0
 62
7
  6
CONTINUOUS
 10
306.7542669584
 20
113.4023924464
 11
306.7542669584
 21
115.1743105419
  0
LINE
  8
SURFACE
 62
7
  6
CONTINUOUS
 10
306.7542669584
 20
115.1743105419
 11
306.7542669584
 21
127.6383996249
  0
LINE
  8
0
 62
7
  6
CONTINUOUS
 10
306.7542669584
 20
127.6383996249
 11
306.7542669584
 21
128.6274382377
  0
LINE
  8
0
 62
7
  6
CONTINUOUS
 10
306.7542669584
 20
154.6898876833
 11
306.7542669584
 21
157.7589398517
  0
LINE
  8
SURFACE
 62
7
  6
CONTINUOUS
 10
306.7542669584
 20
157.7589398517
 11
306.7542669584
 21
171.7263293911
  0
LINE
  8
0
 62
7
  6
CONTINUOUS
 10
306.7542669584
 20
171.7263293911
 11
306.7542669584
 21
172.2702562554
  0
LINE
  8
0
 62
7
  6
CONTINUOUS
 10
306.7542669584
 20
201.9027004464
 11
306.7542669584
 21
205.4465366375
  0
LINE
  8
SURFACE
 62
7
  6
CONTINUOUS
 10
306.7542669584
 20
205.4465366375
 11
306.7542669584
 21
218.1709338989
  0
LINE
  8
0
 62
7
  6
CONTINUOUS
 10
306.7542669584
 20
242.3901956833
 11
306.7542669584
 21
245.4592478517
  0
LINE
  8
SURFACE
 62
7
  6
CONTINUOUS
 10
306.7542669584
 20
245.4592478517
 11
306.7542669584
 21
254.8279528818
  0
LINE
  8
0
 62
7
  6
CONTINUOUS
 10
305.5546687398
 20
238.0963047085
 11
305.5542669512
 21
238.0783798315
  0
LINE
  8
0
 62
7
  6
CONTINUOUS
 10
305.6803250016
 20
268.3054755708
 11
305.6461102601
 21
267.4845017927
  0
LINE
  8
0
 62
7
  6
CONTINUOUS
 10
305.7308818685
 20
269.5635379881
 11
305.6803250016
 21
268.3054755708
  0
LINE
  8
0
 62
7
  6
CONTINUOUS
 10
305.6461102601
 20
267.4845017927
 11
305.6133178044
 21
266.7386088467
  0
LINE
  8
0
 62
7
  6
CONTINUOUS
 10
305.6133178044
 20
266.7386088467
 11
305.5824459664
 21
266.0779391693
  0
LINE
  8
0
 62
7
  6
CONTINUOUS
 10
305.7346692716
 20
269.6434935323
 11
305.7308818685
 21
269.5635379881
  0
LINE
  8
0
 62
7
  6
CONTINUOUS
 10
305.5824459664
 20
266.0779391693
 11
305.5548737141
 21
265.5284841944
  0
POLYLINE
  8
0
 62
7
  6
CONTINUOUS
 66
1
 70
0
  0
VERTEX
  8
0
 62
7
  6
CONTINUOUS
 10
305.737892486
 20
269.703487753
  0
VERTEX
  8
0
 62
7
  6
CONTINUOUS
 10
305.7371341476
 20
269.6901828845
  0
VERTEX
  8
0
 62
7
  6
CONTINUOUS
 10
305.7346692716
 20
269.6434935323
  0
SEQEND
  0
LINE
  8
0
 62
7
  6
CONTINUOUS
 10
305.7260596338
 20
239.7132965006
 11
305.6854618185
 21
239.1294737059
  0
LINE
  8
0
 62
7
  6
CONTINUOUS
 10
305.6854618185
 20
239.1294737059
 11
305.6730321025
 21
238.9661583973
  0
LINE
  8
0
 62
7
  6
CONTINUOUS
 10
305.6730321025
 20
238.9661583973
 11
305.6612555121
 21
238.822674736
  0
LINE
  8
DEFAULT_1
 62
2
  6
CENTER
 10
283.0042669584
 20
176.8034737418
 11
329.3042669584
 21
176.8034737418
  0
POLYLINE
  8
SURFACE
 62
7
  6
CONTINUOUS
 66
1
 70
0
  0
VERTEX
  8
SURFACE
 62
7
  6
CONTINUOUS
 10
306.7539512469
 20
218.1868828568
  0
VERTEX
  8
SURFACE
 62
7
  6
CONTINUOUS
 10
306.7494886738
 20
218.2328104351
  0
VERTEX
  8
SURFACE
 62
7
  6
CONTINUOUS
 10
306.7463284949
 20
218.2505326164
  0
SEQEND
  0
POLYLINE
  8
SURFACE
 62
7
  6
CONTINUOUS
 66
1
 70
0
  0
VERTEX
  8
SURFACE
 62
7
  6
CONTINUOUS
 10
306.7056911418
 20
255.7376868496
  0
VERTEX
  8
SURFACE
 62
7
  6
CONTINUOUS
 10
306.7047164961
 20
255.7509296495
  0
VERTEX
  8
SURFACE
 62
7
  6
CONTINUOUS
 10
306.703743036
 20
255.7631416616
  0
VERTEX
  8
SURFACE
 62
7
  6
CONTINUOUS
 10
306.7027474451
 20
255.7745658551
  0
VERTEX
  8
SURFACE
 62
7
  6
CONTINUOUS
 10
306.701690263
 20
255.7855322107
  0
VERTEX
  8
SURFACE
 62
7
  6
CONTINUOUS
 10
306.7005033955
 20
255.7964967612
  0
VERTEX
  8
SURFACE
 62
7
  6
CONTINUOUS
 10
306.6990866759
 20
255.8079428009
  0
VERTEX
  8
SURFACE
 62
7
  6
CONTINUOUS
 10
306.6973131576
 20
255.8202459933
  0
VERTEX
  8
SURFACE
 62
7
  6
CONTINUOUS
 10
306.6950180599
 20
255.8337275109
  0
VERTEX
  8
SURFACE
 62
7
  6
CONTINUOUS
 10
306.6920212273
 20
255.8485328638
  0
VERTEX
  8
SURFACE
 62
7
  6
CONTINUOUS
 10
306.6879712018
 20
255.8653068446
  0
VERTEX
  8
SURFACE
 62
7
  6
CONTINUOUS
 10
306.6824012908
 20
255.8845778221
  0
VERTEX
  8
SURFACE
 62
7
  6
CONTINUOUS
 10
306.6749869352
 20
255.9059934276
  0
VERTEX
  8
SURFACE
 62
7
  6
CONTINUOUS
 10
306.6657093928
 20
255.9284942374
  0
VERTEX
  8
SURFACE
 62
7
  6
CONTINUOUS
 10
306.6546338037
 20
255.9512749497
  0
VERTEX
  8
SURFACE
 62
7
  6
CONTINUOUS
 10
306.6417107387
 20
255.9740310514
  0
VERTEX
  8
SURFACE
 62
7
  6
CONTINUOUS
 10
306.6268739063
 20
255.9965491603
  0
VERTEX
  8
SURFACE
 62
7
  6
CONTINUOUS
 10
306.6100740741
 20
256.0186139385
  0
VERTEX
  8
SURFACE
 62
7
  6
CONTINUOUS
 10
306.5912945765
 20
256.039990379
  0
VERTEX
  8
SURFACE
 62
7
  6
CONTINUOUS
 10
306.5705576063
 20
256.0604286524
  0
VERTEX
  8
SURFACE
 62
7
  6
CONTINUOUS
 10
306.5478679952
 20
256.07971977
  0
VERTEX
  8
SURFACE
 62
7
  6
CONTINUOUS
 10
306.5232081056
 20
256.0976748275
  0
VERTEX
  8
SURFACE
 62
7
  6
CONTINUOUS
 10
306.4965806398
 20
256.1140803037
  0
VERTEX
  8
SURFACE
 62
7
  6
CONTINUOUS
 10
306.4680080897
 20
256.1287028528
  0
VERTEX
  8
SURFACE
 62
7
  6
CONTINUOUS
 10
306.4375378396
 20
256.1412895088
  0
VERTEX
  8
SURFACE
 62
7
  6
CONTINUOUS
 10
306.4052468108
 20
256.1515691002
  0
VERTEX
  8
SURFACE
 62
7
  6
CONTINUOUS
 10
306.3712452569
 20
256.1592544794
  0
VERTEX
  8
SURFACE
 62
7
  6
CONTINUOUS
 10
306.3356847228
 20
256.1640444966
  0
VERTEX
  8
SURFACE
 62
7
  6
CONTINUOUS
 10
306.300089313
 20
256.1656305048
  0
SEQEND
  0
POLYLINE
  8
SURFACE
 62
7
  6
CONTINUOUS
 66
1
 70
0
  0
VERTEX
  8
SURFACE
 62
7
  6
CONTINUOUS
 10
306.5639674374
 20
275.0321737487
  0
VERTEX
  8
SURFACE
 62
7
  6
CONTINUOUS
 10
306.5636307295
 20
275.0368717053
  0
VERTEX
  8
SURFACE
 62
7
  6
CONTINUOUS
 10
306.5632389583
 20
275.0418575147
  0
VERTEX
  8
SURFACE
 62
7
  6
CONTINUOUS
 10
306.5627401773
 20
275.0475354559
  0
VERTEX
  8
SURFACE
 62
7
  6
CONTINUOUS
 10
306.5620415821
 20
275.0544775699
  0
VERTEX
  8
SURFACE
 62
7
  6
CONTINUOUS
 10
306.5609963473
 20
275.0633048862
  0
VERTEX
  8
SURFACE
 62
7
  6
CONTINUOUS
 10
306.5594216052
 20
275.0743635808
  0
VERTEX
  8
SURFACE
 62
7
  6
CONTINUOUS
 10
306.5571707
 20
275.0873949187
  0
VERTEX
  8
SURFACE
 62
7
  6
CONTINUOUS
 10
306.5541114081
 20
275.1020522068
  0
VERTEX
  8
SURFACE
 62
7
  6
CONTINUOUS
 10
306.5501328197
 20
275.1179850785
  0
VERTEX
  8
SURFACE
 62
7
  6
CONTINUOUS
 10
306.5451621938
 20
275.1348263774
  0
VERTEX
  8
SURFACE
 62
7
  6
CONTINUOUS
 10
306.5391842325
 20
275.1521786726
  0
VERTEX
  8
SURFACE
 62
7
  6
CONTINUOUS
 10
306.5321569366
 20
275.1698540621
  0
VERTEX
  8
SURFACE
 62
7
  6
CONTINUOUS
 10
306.5240190572
 20
275.1877530969
  0
VERTEX
  8
SURFACE
 62
7
  6
CONTINUOUS
 10
306.5147127248
 20
275.2057774759
  0
VERTEX
  8
SURFACE
 62
7
  6
CONTINUOUS
 10
306.5041881614
 20
275.2238201876
  0
VERTEX
  8
SURFACE
 62
7
  6
CONTINUOUS
 10
306.4924056443
 20
275.2417654432
  0
VERTEX
  8
SURFACE
 62
7
  6
CONTINUOUS
 10
306.4793225117
 20
275.2595084621
  0
VERTEX
  8
SURFACE
 62
7
  6
CONTINUOUS
 10
306.4648941593
 20
275.2769472706
  0
VERTEX
  8
SURFACE
 62
7
  6
CONTINUOUS
 10
306.4490821408
 20
275.2939701055
  0
VERTEX
  8
SURFACE
 62
7
  6
CONTINUOUS
 10
306.4318551715
 20
275.3104557367
  0
VERTEX
  8
SURFACE
 62
7
  6
CONTINUOUS
 10
306.4131906216
 20
275.3262733989
  0
VERTEX
  8
SURFACE
 62
7
  6
CONTINUOUS
 10
306.3930768218
 20
275.3412824451
  0
VERTEX
  8
SURFACE
 62
7
  6
CONTINUOUS
 10
306.3715146687
 20
275.3553331001
  0
VERTEX
  8
SURFACE
 62
7
  6
CONTINUOUS
 10
306.3485185031
 20
275.3682677825
  0
VERTEX
  8
SURFACE
 62
7
  6
CONTINUOUS
 10
306.3241177345
 20
275.3799219296
  0
VERTEX
  8
SURFACE
 62
7
  6
CONTINUOUS
 10
306.2983585105
 20
275.3901250525
  0
VERTEX
  8
SURFACE
 62
7
  6
CONTINUOUS
 10
306.2713053754
 20
275.3987020577
  0
VERTEX
  8
SURFACE
 62
7
  6
CONTINUOUS
 10
306.2430428017
 20
275.4054748673
  0
VERTEX
  8
SURFACE
 62
7
  6
CONTINUOUS
 10
306.2136768535
 20
275.4102642657
  0
VERTEX
  8
SURFACE
 62
7
  6
CONTINUOUS
 10
306.1833366773
 20
275.4128921041
  0
VERTEX
  8
SURFACE
 62
7
  6
CONTINUOUS
 10
306.1640141953
 20
275.4133590512
  0
SEQEND
  0
LINE
  8
SURFACE
 62
7
  6
CONTINUOUS
 10
306.7076979383
 20
255.7073687624
 11
306.7056911418
 21
255.7376868496
  0
LINE
  8
SURFACE
 62
7
  6
CONTINUOUS
 10
306.5648777079
 20
275.0175851522
 11
306.5639674374
 21
275.0321737487
  0
LINE
  8
SURFACE
 62
7
  6
CONTINUOUS
 10
306.7098409371
 20
255.6707890583
 11
306.7076979383
 21
255.7073687624
  0
LINE
  8
SURFACE
 62
7
  6
CONTINUOUS
 10
306.5658142889
 20
275.0002458763
 11
306.5648777079
 21
275.0175851522
  0
LINE
  8
SURFACE
 62
7
  6
CONTINUOUS
 10
306.7536547736
 20
254.8512650143
 11
306.7098409371
 21
255.6707890583
  0
LINE
  8
SURFACE
 62
7
  6
CONTINUOUS
 10
306.6106882222
 20
274.0949320907
 11
306.5658143051
 21
275.0002456648
  0
LINE
  8
SURFACE
 62
7
  6
CONTINUOUS
 10
306.6550941605
 20
273.1353798421
 11
306.6106882222
 21
274.0949320907
  0
LINE
  8
SURFACE
 62
7
  6
CONTINUOUS
 10
306.7000866257
 20
272.0912751561
 11
306.6550941605
 21
273.1353798421
  0
LINE
  8
SURFACE
 62
7
  6
CONTINUOUS
 10
306.7000866257
 20
272.0912751561
 11
306.7539623719
 21
270.5957149472
  0
LINE
  8
SURFACE
 62
7
  6
CONTINUOUS
 10
306.7106024002
 20
271.8071365112
 11
306.7106157754
 21
271.8067224507
  0
POLYLINE
  8
SURFACE
 62
7
  6
CONTINUOUS
 66
1
 70
0
  0
VERTEX
  8
SURFACE
 62
7
  6
CONTINUOUS
 10
306.7539623719
 20
270.5957149472
  0
VERTEX
  8
SURFACE
 62
7
  6
CONTINUOUS
 10
306.7541908003
 20
270.5870469616
  0
VERTEX
  8
SURFACE
 62
7
  6
CONTINUOUS
 10
306.7542669584
 20
270.5783756892
  0
SEQEND
  0
LINE
  8
SURFACE
 62
7
  6
CONTINUOUS
 10
306.7542669494
 20
218.1709293394
 11
306.7539512469
 21
218.1868828568
  0
LINE
  8
SURFACE
 62
7
  6
CONTINUOUS
 10
306.7537510388
 20
115.5082573771
 11
306.7542669565
 21
115.5285688104
  0
LINE
  8
SURFACE
 62
7
  6
CONTINUOUS
 10
306.6282089152
 20
85.3014719128
 11
306.6624236568
 21
86.1224456909
  0
LINE
  8
SURFACE
 62
7
  6
CONTINUOUS
 10
306.5776520484
 20
84.0434094955
 11
306.6282089152
 21
85.3014719128
  0
LINE
  8
SURFACE
 62
7
  6
CONTINUOUS
 10
306.6624236568
 20
86.1224456909
 11
306.6952161124
 21
86.8683386368
  0
LINE
  8
SURFACE
 62
7
  6
CONTINUOUS
 10
306.6952161124
 20
86.8683386368
 11
306.7260879504
 21
87.5290083143
  0
LINE
  8
SURFACE
 62
7
  6
CONTINUOUS
 10
306.5738646452
 20
83.9634539512
 11
306.5776520484
 21
84.0434094955
  0
LINE
  8
SURFACE
 62
7
  6
CONTINUOUS
 10
306.7260879504
 20
87.5290083143
 11
306.7536602027
 21
88.0784632892
  0
LINE
  8
SURFACE
 62
7
  6
CONTINUOUS
 10
306.5713997693
 20
83.9167645991
 11
306.5738646452
 21
83.9634539512
  0
LINE
  8
SURFACE
 62
7
  6
CONTINUOUS
 10
306.5699125364
 20
83.8912178898
 11
306.5713997693
 21
83.9167645991
  0
LINE
  8
SURFACE
 62
7
  6
CONTINUOUS
 10
306.5825405845
 20
113.8945714856
 11
306.6204138302
 21
114.4410008643
  0
LINE
  8
SURFACE
 62
7
  6
CONTINUOUS
 10
306.6204138302
 20
114.4410008643
 11
306.6350449024
 21
114.6349990736
  0
LINE
  8
SURFACE
 62
7
  6
CONTINUOUS
 10
306.6350449024
 20
114.6349990736
 11
306.6442594441
 21
114.7485556163
  0
LINE
  8
SURFACE
 62
7
  6
CONTINUOUS
 10
306.6442594441
 20
114.7485556163
 11
306.6530571213
 21
114.8505511295
  0
LINE
  8
SURFACE
 62
7
  6
CONTINUOUS
 10
306.6530571213
 20
114.8505511295
 11
306.6614489267
 21
114.9418058121
  0
LINE
  8
SURFACE
 62
7
  6
CONTINUOUS
 10
306.6614489267
 20
114.9418058121
 11
306.6694437633
 21
115.0230656883
  0
POLYLINE
  8
SURFACE
 62
7
  6
CONTINUOUS
 66
1
 70
0
  0
VERTEX
  8
SURFACE
 62
7
  6
CONTINUOUS
 10
306.6694437633
 20
115.0230656883
  0
VERTEX
  8
SURFACE
 62
7
  6
CONTINUOUS
 10
306.6770470817
 20
115.0949991422
  0
VERTEX
  8
SURFACE
 62
7
  6
CONTINUOUS
 10
306.6807019599
 20
115.1276528564
  0
VERTEX
  8
SURFACE
 62
7
  6
CONTINUOUS
 10
306.6842579761
 20
115.1581847665
  0
VERTEX
  8
SURFACE
 62
7
  6
CONTINUOUS
 10
306.6877132189
 20
115.1866501129
  0
VERTEX
  8
SURFACE
 62
7
  6
CONTINUOUS
 10
306.6910634997
 20
115.213087379
  0
VERTEX
  8
SURFACE
 62
7
  6
CONTINUOUS
 10
306.6943030226
 20
115.2375268403
  0
VERTEX
  8
SURFACE
 62
7
  6
CONTINUOUS
 10
306.6974245839
 20
115.2599944249
  0
VERTEX
  8
SURFACE
 62
7
  6
CONTINUOUS
 10
306.7004190447
 20
115.2805101365
  0
VERTEX
  8
SURFACE
 62
7
  6
CONTINUOUS
 10
306.7032746364
 20
115.2990861327
  0
VERTEX
  8
SURFACE
 62
7
  6
CONTINUOUS
 10
306.7059760561
 20
115.3157248185
  0
VERTEX
  8
SURFACE
 62
7
  6
CONTINUOUS
 10
306.7085032623
 20
115.3304167972
  0
VERTEX
  8
SURFACE
 62
7
  6
CONTINUOUS
 10
306.710829751
 20
115.3431382263
  0
VERTEX
  8
SURFACE
 62
7
  6
CONTINUOUS
 10
306.7129196043
 20
115.3538446074
  0
VERTEX
  8
SURFACE
 62
7
  6
CONTINUOUS
 10
306.7147235204
 20
115.3624648658
  0
VERTEX
  8
SURFACE
 62
7
  6
CONTINUOUS
 10
306.7161715877
 20
115.3688881508
  0
VERTEX
  8
SURFACE
 62
7
  6
CONTINUOUS
 10
306.7171649344
 20
115.3729585713
  0
VERTEX
  8
SURFACE
 62
7
  6
CONTINUOUS
 10
306.7173520447
 20
115.3736813637
  0
SEQEND
  0
LINE
  8
0
 62
7
  6
CONTINUOUS
 10
314.954069613
 20
238.7450696608
 11
314.9438748391
 21
238.8629953237
  0
LINE
  8
0
 62
7
  6
CONTINUOUS
 10
314.9438748391
 20
238.8629953237
 11
314.933141073
 21
238.9962507298
  0
POLYLINE
  8
0
 62
7
  6
CONTINUOUS
 66
1
 70
0
  0
VERTEX
  8
0
 62
7
  6
CONTINUOUS
 10
314.8826003335
 20
239.7115432922
  0
VERTEX
  8
0
 62
7
  6
CONTINUOUS
 10
314.8810659837
 20
239.7319813029
  0
VERTEX
  8
0
 62
7
  6
CONTINUOUS
 10
314.8795277928
 20
239.750509388
  0
VERTEX
  8
0
 62
7
  6
CONTINUOUS
 10
314.8779571164
 20
239.7674507027
  0
VERTEX
  8
0
 62
7
  6
CONTINUOUS
 10
314.8763017884
 20
239.7832479307
  0
VERTEX
  8
0
 62
7
  6
CONTINUOUS
 10
314.8744753532
 20
239.79845071
  0
VERTEX
  8
0
 62
7
  6
CONTINUOUS
 10
314.8723315215
 20
239.8137589335
  0
VERTEX
  8
0
 62
7
  6
CONTINUOUS
 10
314.8696404209
 20
239.8299595841
  0
VERTEX
  8
0
 62
7
  6
CONTINUOUS
 10
314.8661415245
 20
239.8474779682
  0
VERTEX
  8
0
 62
7
  6
CONTINUOUS
 10
314.8616269964
 20
239.8662020316
  0
VERTEX
  8
0
 62
7
  6
CONTINUOUS
 10
314.8557861244
 20
239.8863360885
  0
VERTEX
  8
0
 62
7
  6
CONTINUOUS
 10
314.8480677404
 20
239.9085141588
  0
VERTEX
  8
0
 62
7
  6
CONTINUOUS
 10
314.8378142703
 20
239.9330745911
  0
VERTEX
  8
0
 62
7
  6
CONTINUOUS
 10
314.8247144216
 20
239.9592553183
  0
VERTEX
  8
0
 62
7
  6
CONTINUOUS
 10
314.808743245
 20
239.9859905463
  0
VERTEX
  8
0
 62
7
  6
CONTINUOUS
 10
314.7898511456
 20
240.0125919811
  0
VERTEX
  8
0
 62
7
  6
CONTINUOUS
 10
314.7679204729
 20
240.0386095186
  0
VERTEX
  8
0
 62
7
  6
CONTINUOUS
 10
314.7428881285
 20
240.0635749077
  0
VERTEX
  8
0
 62
7
  6
CONTINUOUS
 10
314.7147409967
 20
240.0870125843
  0
VERTEX
  8
0
 62
7
  6
CONTINUOUS
 10
314.6834568459
 20
240.108477703
  0
VERTEX
  8
0
 62
7
  6
CONTINUOUS
 10
314.6490604048
 20
240.1274915026
  0
VERTEX
  8
0
 62
7
  6
CONTINUOUS
 10
314.6116425251
 20
240.1435369569
  0
VERTEX
  8
0
 62
7
  6
CONTINUOUS
 10
314.5713730056
 20
240.1560648545
  0
VERTEX
  8
0
 62
7
  6
CONTINUOUS
 10
314.5285072918
 20
240.1645038424
  0
VERTEX
  8
0
 62
7
  6
CONTINUOUS
 10
314.4834060632
 20
240.1682691055
  0
VERTEX
  8
0
 62
7
  6
CONTINUOUS
 10
314.4726890476
 20
240.1684125175
  0
SEQEND
  0
LINE
  8
0
 62
7
  6
CONTINUOUS
 10
314.933141073
 20
238.9962507298
 11
314.9218793768
 21
239.1457718538
  0
LINE
  8
0
 62
7
  6
CONTINUOUS
 10
314.9218793768
 20
239.1457718538
 11
314.8826003335
 21
239.7115432922
  0
LINE
  8
0
 62
7
  6
CONTINUOUS
 10
314.8712381807
 20
269.6930639453
 11
314.8697553302
 21
269.7182947596
  0
LINE
  8
0
 62
7
  6
CONTINUOUS
 10
314.8658143
 20
275.0002456129
 11
314.8648818172
 21
275.0175136375
  0
LINE
  8
0
 62
7
  6
CONTINUOUS
 10
314.8737108508
 20
269.6465446585
 11
314.8712381807
 21
269.6930639453
  0
LINE
  8
0
 62
7
  6
CONTINUOUS
 10
315.0536602009
 20
265.5284842174
 11
315.0260876176
 21
266.0779460411
  0
POLYLINE
  8
0
 62
7
  6
CONTINUOUS
 66
1
 70
0
  0
VERTEX
  8
0
 62
7
  6
CONTINUOUS
 10
314.955094147
 20
273.1353801462
  0
VERTEX
  8
0
 62
7
  6
CONTINUOUS
 10
314.9106882084
 20
274.0949323792
  0
VERTEX
  8
0
 62
7
  6
CONTINUOUS
 10
314.8658143051
 20
275.0002456648
  0
SEQEND
  0
LINE
  8
0
 62
7
  6
CONTINUOUS
 10
315.0260876176
 20
266.0779460411
 11
314.995215714
 21
266.7386176422
  0
LINE
  8
0
 62
7
  6
CONTINUOUS
 10
314.8775398319
 20
269.5660279366
 11
314.8737108508
 21
269.6465446585
  0
LINE
  8
0
 62
7
  6
CONTINUOUS
 10
314.995215714
 20
266.7386176422
 11
314.9624233418
 21
267.4845091516
  0
LINE
  8
0
 62
7
  6
CONTINUOUS
 10
314.9624233418
 20
267.4845091516
 11
314.9282087856
 21
268.3054787515
  0
LINE
  8
0
 62
7
  6
CONTINUOUS
 10
314.9282087856
 20
268.3054787515
 11
314.8775398319
 21
269.5660279366
  0
LINE
  8
0
 62
7
  6
CONTINUOUS
 10
315.0000857532
 20
272.0912974933
 11
314.955094147
 21
273.1353801462
  0
LINE
  8
0
 62
7
  6
CONTINUOUS
 10
314.9981494849
 20
272.1393274218
 11
314.998043903
 21
272.142118806
  0
LINE
  8
0
 62
7
  6
CONTINUOUS
 10
315.0000857532
 20
272.0912974933
 11
315.0539623719
 21
270.5957149472
  0
LINE
  8
0
 62
7
  6
CONTINUOUS
 10
315.0106157754
 20
271.8067224507
 11
315.0106024014
 21
271.8071364754
  0
POLYLINE
  8
0
 62
7
  6
CONTINUOUS
 66
1
 70
0
  0
VERTEX
  8
0
 62
7
  6
CONTINUOUS
 10
315.0539623719
 20
270.5957149472
  0
VERTEX
  8
0
 62
7
  6
CONTINUOUS
 10
315.0541908063
 20
270.5870466272
  0
VERTEX
  8
0
 62
7
  6
CONTINUOUS
 10
315.0542669584
 20
270.5783756892
  0
SEQEND
  0
LINE
  8
0
 62
7
  6
CONTINUOUS
 10
315.0542669683
 20
238.0783798446
 11
315.0538664474
 21
238.0962764227
  0
LINE
  8
0
 62
7
  6
CONTINUOUS
 10
315.0542669682
 20
265.5052760365
 11
315.0541751719
 21
265.5142990616
  0
LINE
  8
0
 62
7
  6
CONTINUOUS
 10
315.0542669584
 20
270.5783756892
 11
315.0542669584
 21
83.0285717944
  0
LINE
  8
0
 62
7
  6
CONTINUOUS
 10
315.0540269874
 20
135.4221078369
 11
315.0542669645
 21
135.4360182423
  0
POLYLINE
  8
0
 62
7
  6
CONTINUOUS
 66
1
 70
0
  0
VERTEX
  8
0
 62
7
  6
CONTINUOUS
 10
315.0539623719
 20
83.0112325364
  0
VERTEX
  8
0
 62
7
  6
CONTINUOUS
 10
315.0541908063
 20
83.0199008564
  0
VERTEX
  8
0
 62
7
  6
CONTINUOUS
 10
315.0542669584
 20
83.0285717944
  0
SEQEND
  0
LINE
  8
0
 62
7
  6
CONTINUOUS
 10
315.0070386257
 20
81.7012441077
 11
315.0539623719
 21
83.0112325364
  0
LINE
  8
0
 62
7
  6
CONTINUOUS
 10
314.998043903
 20
81.4648286776
 11
315.0070386257
 21
81.7012441077
  0
LINE
  8
0
 62
7
  6
CONTINUOUS
 10
315.0536547496
 20
98.7556819148
 11
315.0540453206
 21
98.7649644276
  0
POLYLINE
  8
0
 62
7
  6
CONTINUOUS
 66
1
 70
0
  0
VERTEX
  8
0
 62
7
  6
CONTINUOUS
 10
314.9106882084
 20
79.5120151044
  0
VERTEX
  8
0
 62
7
  6
CONTINUOUS
 10
314.955094147
 20
80.4715673374
  0
VERTEX
  8
0
 62
7
  6
CONTINUOUS
 10
314.998043905
 20
81.4648286775
  0
SEQEND
  0
LINE
  8
0
 62
7
  6
CONTINUOUS
 10
314.8654015098
 20
78.5988212597
 11
314.9106882084
 21
79.5120151044
  0
LINE
  8
0
 62
7
  6
CONTINUOUS
 10
315.0087617646
 20
97.9172196632
 11
315.0536547736
 21
98.7556824694
  0
LINE
  8
0
 62
7
  6
CONTINUOUS
 10
314.8647061118
 20
78.586417414
 11
314.8654015098
 21
78.5988212597
  0
POLYLINE
  8
0
 62
7
  6
CONTINUOUS
 66
1
 70
0
  0
VERTEX
  8
0
 62
7
  6
CONTINUOUS
 10
315.0057133773
 20
97.8695743576
  0
VERTEX
  8
0
 62
7
  6
CONTINUOUS
 10
315.0067006313
 20
97.8840127235
  0
VERTEX
  8
0
 62
7
  6
CONTINUOUS
 10
315.0087617646
 20
97.9172196632
  0
SEQEND
  0
POLYLINE
  8
SURFACE
 62
7
  6
CONTINUOUS
 66
1
 70
0
  0
VERTEX
  8
SURFACE
 62
7
  6
CONTINUOUS
 10
306.6987216953
 20
218.4630084002
  0
VERTEX
  8
SURFACE
 62
7
  6
CONTINUOUS
 10
306.6947983975
 20
218.4775229775
  0
VERTEX
  8
SURFACE
 62
7
  6
CONTINUOUS
 10
306.6879350087
 20
218.4991156875
  0
VERTEX
  8
SURFACE
 62
7
  6
CONTINUOUS
 10
306.6790371692
 20
218.5224310665
  0
VERTEX
  8
SURFACE
 62
7
  6
CONTINUOUS
 10
306.667860045
 20
218.5469558316
  0
VERTEX
  8
SURFACE
 62
7
  6
CONTINUOUS
 10
306.6541806048
 20
218.572236509
  0
VERTEX
  8
SURFACE
 62
7
  6
CONTINUOUS
 10
306.6378347229
 20
218.5977970669
  0
VERTEX
  8
SURFACE
 62
7
  6
CONTINUOUS
 10
306.6186800797
 20
218.6232035015
  0
VERTEX
  8
SURFACE
 62
7
  6
CONTINUOUS
 10
306.5966362028
 20
218.64799631
  0
VERTEX
  8
SURFACE
 62
7
  6
CONTINUOUS
 10
306.5716916317
 20
218.6717004603
  0
VERTEX
  8
SURFACE
 62
7
  6
CONTINUOUS
 10
306.5438452152
 20
218.6938835092
  0
VERTEX
  8
SURFACE
 62
7
  6
CONTINUOUS
 10
306.5130885666
 20
218.7141387285
  0
VERTEX
  8
SURFACE
 62
7
  6
CONTINUOUS
 10
306.4794608117
 20
218.7320285654
  0
VERTEX
  8
SURFACE
 62
7
  6
CONTINUOUS
 10
306.4430618626
 20
218.7470853275
  0
VERTEX
  8
SURFACE
 62
7
  6
CONTINUOUS
 10
306.4040604053
 20
218.7588180929
  0
VERTEX
  8
SURFACE
 62
7
  6
CONTINUOUS
 10
306.3626995745
 20
218.7667208969
  0
VERTEX
  8
SURFACE
 62
7
  6
CONTINUOUS
 10
306.3193134271
 20
218.7702802818
  0
VERTEX
  8
SURFACE
 62
7
  6
CONTINUOUS
 10
306.3082999995
 20
218.7704317028
  0
SEQEND
  0
LINE
  8
SURFACE
 62
7
  6
CONTINUOUS
 10
306.7150394365
 20
218.3955178579
 11
306.6987276436
 21
218.4629850591
  0
LINE
  8
SURFACE
 62
7
  6
CONTINUOUS
 10
306.7316133307
 20
218.3212849312
 11
306.7150394365
 21
218.3955178579
  0
LINE
  8
SURFACE
 62
7
  6
CONTINUOUS
 10
306.7463281906
 20
218.2505340438
 11
306.7316133307
 21
218.3212849312
  0
POLYLINE
  8
0
 62
7
  6
CONTINUOUS
 66
1
 70
0
  0
VERTEX
  8
0
 62
7
  6
CONTINUOUS
 10
315.0538664474
 20
238.0962764227
  0
VERTEX
  8
0
 62
7
  6
CONTINUOUS
 10
315.0484798192
 20
238.1461784249
  0
VERTEX
  8
0
 62
7
  6
CONTINUOUS
 10
315.0368764358
 20
238.1950471527
  0
VERTEX
  8
0
 62
7
  6
CONTINUOUS
 10
315.0192442832
 20
238.2420690723
  0
SEQEND
  0
LINE
  8
0
 62
7
  6
CONTINUOUS
 10
314.9727908908
 20
238.5515597085
 11
314.9637130559
 21
238.6415573897
  0
LINE
  8
0
 62
7
  6
CONTINUOUS
 10
314.9637130559
 20
238.6415573897
 11
314.954069613
 21
238.7450696608
  0
POLYLINE
  8
0
 62
7
  6
CONTINUOUS
 66
1
 70
0
  0
VERTEX
  8
0
 62
7
  6
CONTINUOUS
 10
314.8677145005
 20
269.7488569268
  0
VERTEX
  8
0
 62
7
  6
CONTINUOUS
 10
314.8670513242
 20
269.7575682458
  0
VERTEX
  8
0
 62
7
  6
CONTINUOUS
 10
314.8663708371
 20
269.765825925
  0
VERTEX
  8
0
 62
7
  6
CONTINUOUS
 10
314.8656429464
 20
269.7738898651
  0
VERTEX
  8
0
 62
7
  6
CONTINUOUS
 10
314.8648173493
 20
269.7821183838
  0
VERTEX
  8
0
 62
7
  6
CONTINUOUS
 10
314.8638281102
 20
269.790840346
  0
VERTEX
  8
0
 62
7
  6
CONTINUOUS
 10
314.8625747916
 20
269.8004525323
  0
VERTEX
  8
0
 62
7
  6
CONTINUOUS
 10
314.8609212277
 20
269.8113257423
  0
VERTEX
  8
0
 62
7
  6
CONTINUOUS
 10
314.85864848
 20
269.8239909751
  0
VERTEX
  8
0
 62
7
  6
CONTINUOUS
 10
314.8553866491
 20
269.8392247747
  0
VERTEX
  8
0
 62
7
  6
CONTINUOUS
 10
314.850759245
 20
269.8571873056
  0
VERTEX
  8
0
 62
7
  6
CONTINUOUS
 10
314.8446341548
 20
269.8769694141
  0
VERTEX
  8
0
 62
7
  6
CONTINUOUS
 10
314.8370349867
 20
269.8975927539
  0
VERTEX
  8
0
 62
7
  6
CONTINUOUS
 10
314.82788819
 20
269.9187016945
  0
VERTEX
  8
0
 62
7
  6
CONTINUOUS
 10
314.8170826087
 20
269.9401128736
  0
VERTEX
  8
0
 62
7
  6
CONTINUOUS
 10
314.8045206652
 20
269.9616348937
  0
VERTEX
  8
0
 62
7
  6
CONTINUOUS
 10
314.7901310692
 20
269.9830514762
  0
VERTEX
  8
0
 62
7
  6
CONTINUOUS
 10
314.7738241175
 20
270.0041872154
  0
VERTEX
  8
0
 62
7
  6
CONTINUOUS
 10
314.7555287766
 20
270.0248404791
  0
VERTEX
  8
0
 62
7
  6
CONTINUOUS
 10
314.7351930926
 20
270.0447901053
  0
VERTEX
  8
0
 62
7
  6
CONTINUOUS
 10
314.7127854296
 20
270.0637987881
  0
VERTEX
  8
0
 62
7
  6
CONTINUOUS
 10
314.688289722
 20
270.0816194196
  0
VERTEX
  8
0
 62
7
  6
CONTINUOUS
 10
314.6617126403
 20
270.097990176
  0
VERTEX
  8
0
 62
7
  6
CONTINUOUS
 10
314.6330897065
 20
270.1126337785
  0
VERTEX
  8
0
 62
7
  6
CONTINUOUS
 10
314.602489551
 20
270.1252596583
  0
VERTEX
  8
0
 62
7
  6
CONTINUOUS
 10
314.5700180081
 20
270.1355670388
  0
VERTEX
  8
0
 62
7
  6
CONTINUOUS
 10
314.5358213023
 20
270.1432489758
  0
VERTEX
  8
0
 62
7
  6
CONTINUOUS
 10
314.5000906649
 20
270.1479966673
  0
VERTEX
  8
0
 62
7
  6
CONTINUOUS
 10
314.4653083534
 20
270.1495113886
  0
SEQEND
  0
POLYLINE
  8
0
 62
7
  6
CONTINUOUS
 66
1
 70
0
  0
VERTEX
  8
0
 62
7
  6
CONTINUOUS
 10
314.8639749948
 20
275.0320638168
  0
VERTEX
  8
0
 62
7
  6
CONTINUOUS
 10
314.8636403435
 20
275.0367429355
  0
VERTEX
  8
0
 62
7
  6
CONTINUOUS
 10
314.8632521592
 20
275.0416974563
  0
VERTEX
  8
0
 62
7
  6
CONTINUOUS
 10
314.8627598449
 20
275.0473242154
  0
VERTEX
  8
0
 62
7
  6
CONTINUOUS
 10
314.8620730266
 20
275.0541861265
  0
VERTEX
  8
0
 62
7
  6
CONTINUOUS
 10
314.8610481769
 20
275.062901169
  0
VERTEX
  8
0
 62
7
  6
CONTINUOUS
 10
314.8595032186
 20
275.0738387302
  0
VERTEX
  8
0
 62
7
  6
CONTINUOUS
 10
314.8572911955
 20
275.0867562349
  0
VERTEX
  8
0
 62
7
  6
CONTINUOUS
 10
314.8542791303
 20
275.1013138258
  0
VERTEX
  8
0
 62
7
  6
CONTINUOUS
 10
314.850356143
 20
275.117159054
  0
VERTEX
  8
0
 62
7
  6
CONTINUOUS
 10
314.8454470497
 20
275.1339299858
  0
VERTEX
  8
0
 62
7
  6
CONTINUOUS
 10
314.8395358775
 20
275.1512253552
  0
VERTEX
  8
0
 62
7
  6
CONTINUOUS
 10
314.8325822425
 20
275.168850295
  0
VERTEX
  8
0
 62
7
  6
CONTINUOUS
 10
314.8245249837
 20
275.1867052071
  0
VERTEX
  8
0
 62
7
  6
CONTINUOUS
 10
314.8153060556
 20
275.2046923929
  0
VERTEX
  8
0
 62
7
  6
CONTINUOUS
 10
314.8048753646
 20
275.2227055834
  0
VERTEX
  8
0
 62
7
  6
CONTINUOUS
 10
314.7931928879
 20
275.2406295635
  0
VERTEX
  8
0
 62
7
  6
CONTINUOUS
 10
314.7802159826
 20
275.2583597785
  0
VERTEX
  8
0
 62
7
  6
CONTINUOUS
 10
314.7658996725
 20
275.2757951547
  0
VERTEX
  8
0
 62
7
  6
CONTINUOUS
 10
314.7502050377
 20
275.2928248556
  0
VERTEX
  8
0
 62
7
  6
CONTINUOUS
 10
314.733100201
 20
275.3093286063
  0
VERTEX
  8
0
 62
7
  6
CONTINUOUS
 10
314.7145618082
 20
275.325176613
  0
VERTEX
  8
0
 62
7
  6
CONTINUOUS
 10
314.6945772961
 20
275.3402292165
  0
VERTEX
  8
0
 62
7
  6
CONTINUOUS
 10
314.6731465206
 20
275.3543375964
  0
VERTEX
  8
0
 62
7
  6
CONTINUOUS
 10
314.6502826213
 20
275.3673450877
  0
VERTEX
  8
0
 62
7
  6
CONTINUOUS
 10
314.6260136347
 20
275.3790879871
  0
VERTEX
  8
0
 62
7
  6
CONTINUOUS
 10
314.6003841584
 20
275.3893965845
  0
VERTEX
  8
0
 62
7
  6
CONTINUOUS
 10
314.5734570038
 20
275.3980964589
  0
VERTEX
  8
0
 62
7
  6
CONTINUOUS
 10
314.545314726
 20
275.4050100714
  0
VERTEX
  8
0
 62
7
  6
CONTINUOUS
 10
314.5160612864
 20
275.4099585798
  0
VERTEX
  8
0
 62
7
  6
CONTINUOUS
 10
314.4858235508
 20
275.4127640089
  0
VERTEX
  8
0
 62
7
  6
CONTINUOUS
 10
314.4640141673
 20
275.4133589822
  0
SEQEND
  0
POLYLINE
  8
0
 62
7
  6
CONTINUOUS
 66
1
 70
0
  0
VERTEX
  8
0
 62
7
  6
CONTINUOUS
 10
314.8697553302
 20
269.7182947596
  0
VERTEX
  8
0
 62
7
  6
CONTINUOUS
 10
314.8690562903
 20
269.7293560117
  0
VERTEX
  8
0
 62
7
  6
CONTINUOUS
 10
314.8677145005
 20
269.7488569268
  0
SEQEND
  0
POLYLINE
  8
0
 62
7
  6
CONTINUOUS
 66
1
 70
0
  0
VERTEX
  8
0
 62
7
  6
CONTINUOUS
 10
314.8648818172
 20
275.0175136375
  0
VERTEX
  8
0
 62
7
  6
CONTINUOUS
 10
314.8645829923
 20
275.0225909177
  0
VERTEX
  8
0
 62
7
  6
CONTINUOUS
 10
314.8639749948
 20
275.0320638168
  0
SEQEND
  0
LINE
  8
0
 62
7
  6
CONTINUOUS
 10
314.8640372722
 20
78.5757971582
 11
314.8647061118
 21
78.586417414
  0
POLYLINE
  8
0
 62
7
  6
CONTINUOUS
 66
1
 70
0
  0
VERTEX
  8
0
 62
7
  6
CONTINUOUS
 10
315.0463274029
 20
135.3564095047
  0
VERTEX
  8
0
 62
7
  6
CONTINUOUS
 10
315.0496958912
 20
135.3754858731
  0
VERTEX
  8
0
 62
7
  6
CONTINUOUS
 10
315.0540269874
 20
135.4221078369
  0
SEQEND
  0
POLYLINE
  8
0
 62
7
  6
CONTINUOUS
 66
1
 70
0
  0
VERTEX
  8
0
 62
7
  6
CONTINUOUS
 10
315.0150394257
 20
135.2114295794
  0
VERTEX
  8
0
 62
7
  6
CONTINUOUS
 10
315.0316133202
 20
135.2856625031
  0
VERTEX
  8
0
 62
7
  6
CONTINUOUS
 10
315.0463281904
 20
135.3564134388
  0
SEQEND
  0
LINE
  8
0
 62
7
  6
CONTINUOUS
 10
314.9987276435
 20
135.143962424
 11
315.0150394257
 21
135.2114295794
  0
POLYLINE
  8
0
 62
7
  6
CONTINUOUS
 66
1
 70
0
  0
VERTEX
  8
0
 62
7
  6
CONTINUOUS
 10
305.9542669584
 20
196.0902894604
  0
VERTEX
  8
0
 62
7
  6
CONTINUOUS
 10
305.901815861
 20
196.0881932014
  0
VERTEX
  8
0
 62
7
  6
CONTINUOUS
 10
305.8503140679
 20
196.0819481873
  0
VERTEX
  8
0
 62
7
  6
CONTINUOUS
 10
305.8006444427
 20
196.0716735111
  0
VERTEX
  8
0
 62
7
  6
CONTINUOUS
 10
305.7536562579
 20
196.0575578027
  0
VERTEX
  8
0
 62
7
  6
CONTINUOUS
 10
305.7101502281
 20
196.0398558759
  0
VERTEX
  8
0
 62
7
  6
CONTINUOUS
 10
305.670863755
 20
196.0188836459
  0
VERTEX
  8
0
 62
7
  6
CONTINUOUS
 10
305.6364582607
 20
195.9950118634
  0
VERTEX
  8
0
 62
7
  6
CONTINUOUS
 10
305.6075082795
 20
195.9686588583
  0
VERTEX
  8
0
 62
7
  6
CONTINUOUS
 10
305.5844924664
 20
195.9402825229
  0
VERTEX
  8
0
 62
7
  6
CONTINUOUS
 10
305.5677866592
 20
195.9103718134
  0
VERTEX
  8
0
 62
7
  6
CONTINUOUS
 10
305.5576590674
 20
195.8794383741
  0
VERTEX
  8
0
 62
7
  6
CONTINUOUS
 10
305.5542669584
 20
195.8480076319
  0
SEQEND
  0
LINE
  8
0
 62
7
  6
CONTINUOUS
 10
306.0964454441
 20
193.5034737418
 11
314.5120884785
 21
193.5034737418
  0
LINE
  8
0
 62
7
  6
CONTINUOUS
 10
305.9542669584
 20
196.0902894604
 11
314.6542669584
 21
196.0902894604
  0
POLYLINE
  8
0
 62
7
  6
CONTINUOUS
 66
1
 70
0
  0
VERTEX
  8
0
 62
7
  6
CONTINUOUS
 10
314.6542669584
 20
196.0902894604
  0
VERTEX
  8
0
 62
7
  6
CONTINUOUS
 10
314.7067180559
 20
196.0881932014
  0
VERTEX
  8
0
 62
7
  6
CONTINUOUS
 10
314.7582198489
 20
196.0819481873
  0
VERTEX
  8
0
 62
7
  6
CONTINUOUS
 10
314.8078894742
 20
196.0716735111
  0
VERTEX
  8
0
 62
7
  6
CONTINUOUS
 10
314.854877659
 20
196.0575578027
  0
VERTEX
  8
0
 62
7
  6
CONTINUOUS
 10
314.8983836888
 20
196.0398558759
  0
VERTEX
  8
0
 62
7
  6
CONTINUOUS
 10
314.9376701619
 20
196.0188836459
  0
VERTEX
  8
0
 62
7
  6
CONTINUOUS
 10
314.9720756562
 20
195.9950118634
  0
VERTEX
  8
0
 62
7
  6
CONTINUOUS
 10
315.0010256373
 20
195.9686588583
  0
VERTEX
  8
0
 62
7
  6
CONTINUOUS
 10
315.0240414505
 20
195.9402825229
  0
VERTEX
  8
0
 62
7
  6
CONTINUOUS
 10
315.0407472576
 20
195.9103718134
  0
VERTEX
  8
0
 62
7
  6
CONTINUOUS
 10
315.0508748494
 20
195.8794383741
  0
VERTEX
  8
0
 62
7
  6
CONTINUOUS
 10
315.0542669584
 20
195.8480076319
  0
SEQEND
  0
POLYLINE
  8
0
 62
7
  6
CONTINUOUS
 66
1
 70
0
  0
VERTEX
  8
0
 62
7
  6
CONTINUOUS
 10
306.7539093523
 20
251.1795524522
  0
VERTEX
  8
0
 62
7
  6
CONTINUOUS
 10
306.7544225709
 20
251.1772345032
  0
VERTEX
  8
0
 62
7
  6
CONTINUOUS
 10
306.7542669467
 20
251.1802165281
  0
SEQEND
  0
LINE
  8
0
 62
7
  6
CONTINUOUS
 10
327.3042669584
 20
208.8034708631
 11
327.3042669584
 21
144.8034766205
  0
POLYLINE
  8
SURFACE
 62
7
  6
CONTINUOUS
 66
1
 70
0
  0
VERTEX
  8
SURFACE
 62
7
  6
CONTINUOUS
 10
306.7185978636
 20
115.3634445288
  0
VERTEX
  8
SURFACE
 62
7
  6
CONTINUOUS
 10
306.7363309572
 20
115.4101260848
  0
VERTEX
  8
SURFACE
 62
7
  6
CONTINUOUS
 10
306.7481111586
 20
115.4586592164
  0
VERTEX
  8
SURFACE
 62
7
  6
CONTINUOUS
 10
306.7537510388
 20
115.5082573771
  0
SEQEND
  0
POLYLINE
  8
0
 62
7
  6
CONTINUOUS
 66
1
 70
0
  0
VERTEX
  8
0
 62
7
  6
CONTINUOUS
 10
315.0175475981
 20
238.2325331826
  0
VERTEX
  8
0
 62
7
  6
CONTINUOUS
 10
315.0175698419
 20
238.2324556042
  0
VERTEX
  8
0
 62
7
  6
CONTINUOUS
 10
315.0171726979
 20
238.233958563
  0
VERTEX
  8
0
 62
7
  6
CONTINUOUS
 10
315.0161796383
 20
238.238025089
  0
VERTEX
  8
0
 62
7
  6
CONTINUOUS
 10
315.014720021
 20
238.2444987238
  0
VERTEX
  8
0
 62
7
  6
CONTINUOUS
 10
315.0128875324
 20
238.2532616132
  0
VERTEX
  8
0
 62
7
  6
CONTINUOUS
 10
315.0107447986
 20
238.2642594217
  0
VERTEX
  8
0
 62
7
  6
CONTINUOUS
 10
315.0083316659
 20
238.2775003004
  0
VERTEX
  8
0
 62
7
  6
CONTINUOUS
 10
315.0056738635
 20
238.2930371396
  0
VERTEX
  8
0
 62
7
  6
CONTINUOUS
 10
315.0027873199
 20
238.3109610706
  0
VERTEX
  8
0
 62
7
  6
CONTINUOUS
 10
314.9996814261
 20
238.331394317
  0
VERTEX
  8
0
 62
7
  6
CONTINUOUS
 10
314.9963662127
 20
238.3544492774
  0
VERTEX
  8
0
 62
7
  6
CONTINUOUS
 10
314.9928561992
 20
238.3801967797
  0
VERTEX
  8
0
 62
7
  6
CONTINUOUS
 10
314.9891647256
 20
238.408700772
  0
VERTEX
  8
0
 62
7
  6
CONTINUOUS
 10
314.9853039389
 20
238.4400192791
  0
VERTEX
  8
0
 62
7
  6
CONTINUOUS
 10
314.981284413
 20
238.474209201
  0
VERTEX
  8
0
 62
7
  6
CONTINUOUS
 10
314.9771121618
 20
238.5113557964
  0
VERTEX
  8
0
 62
7
  6
CONTINUOUS
 10
314.9727908908
 20
238.5515597085
  0
SEQEND
  0
LINE
  8
SURFACE
 62
7
  6
CONTINUOUS
 10
306.7125800112
 20
115.3521048618
 11
306.7185978636
 21
115.3634445288
  0
POLYLINE
  8
SURFACE
 62
7
  6
CONTINUOUS
 66
1
 70
0
  0
VERTEX
  8
SURFACE
 62
7
  6
CONTINUOUS
 10
306.3542669584
 20
205.3977137874
  0
VERTEX
  8
SURFACE
 62
7
  6
CONTINUOUS
 10
306.4067180559
 20
205.3981402818
  0
VERTEX
  8
SURFACE
 62
7
  6
CONTINUOUS
 10
306.4582198489
 20
205.3994104319
  0
VERTEX
  8
SURFACE
 62
7
  6
CONTINUOUS
 10
306.5078894742
 20
205.4014987635
  0
VERTEX
  8
SURFACE
 62
7
  6
CONTINUOUS
 10
306.554877659
 20
205.4043649608
  0
VERTEX
  8
SURFACE
 62
7
  6
CONTINUOUS
 10
306.5983836888
 20
205.4079547339
  0
VERTEX
  8
SURFACE
 62
7
  6
CONTINUOUS
 10
306.6376701619
 20
205.4122010862
  0
VERTEX
  8
SURFACE
 62
7
  6
CONTINUOUS
 10
306.6720756562
 20
205.4170258506
  0
VERTEX
  8
SURFACE
 62
7
  6
CONTINUOUS
 10
306.7010256373
 20
205.4223414345
  0
VERTEX
  8
SURFACE
 62
7
  6
CONTINUOUS
 10
306.7240414505
 20
205.428052703
  0
VERTEX
  8
SURFACE
 62
7
  6
CONTINUOUS
 10
306.7407472576
 20
205.4340589268
  0
VERTEX
  8
SURFACE
 62
7
  6
CONTINUOUS
 10
306.7508748494
 20
205.4402556556
  0
VERTEX
  8
SURFACE
 62
7
  6
CONTINUOUS
 10
306.7542669584
 20
205.4465366375
  0
SEQEND
  0
LINE
  8
SURFACE
 62
7
  6
CONTINUOUS
 10
306.3542669584
 20
205.3977137874
 11
297.6542669584
 21
205.3977137874
  0
POLYLINE
  8
SURFACE
 62
7
  6
CONTINUOUS
 66
1
 70
0
  0
VERTEX
  8
SURFACE
 62
7
  6
CONTINUOUS
 10
297.6542669584
 20
205.3977137874
  0
VERTEX
  8
SURFACE
 62
7
  6
CONTINUOUS
 10
297.601815861
 20
205.3981402818
  0
VERTEX
  8
SURFACE
 62
7
  6
CONTINUOUS
 10
297.5503140679
 20
205.3994104319
  0
VERTEX
  8
SURFACE
 62
7
  6
CONTINUOUS
 10
297.5006444427
 20
205.4014987635
  0
VERTEX
  8
SURFACE
 62
7
  6
CONTINUOUS
 10
297.4536562579
 20
205.4043649608
  0
VERTEX
  8
SURFACE
 62
7
  6
CONTINUOUS
 10
297.4101502281
 20
205.4079547339
  0
VERTEX
  8
SURFACE
 62
7
  6
CONTINUOUS
 10
297.370863755
 20
205.4122010862
  0
VERTEX
  8
SURFACE
 62
7
  6
CONTINUOUS
 10
297.3364582607
 20
205.4170258506
  0
VERTEX
  8
SURFACE
 62
7
  6
CONTINUOUS
 10
297.3075082795
 20
205.4223414345
  0
VERTEX
  8
SURFACE
 62
7
  6
CONTINUOUS
 10
297.2844924664
 20
205.428052703
  0
VERTEX
  8
SURFACE
 62
7
  6
CONTINUOUS
 10
297.2677866592
 20
205.4340589268
  0
VERTEX
  8
SURFACE
 62
7
  6
CONTINUOUS
 10
297.2576590674
 20
205.4402556556
  0
VERTEX
  8
SURFACE
 62
7
  6
CONTINUOUS
 10
297.2542669584
 20
205.4465366375
  0
SEQEND
  0
LINE
  8
SURFACE
 62
7
  6
CONTINUOUS
 10
297.1542669584
 20
211.8034737418
 11
288.0042669584
 21
211.8034737418
  0
LINE
  8
0
 62
7
  6
CONTINUOUS
 10
315.1542669584
 20
211.8034737418
 11
324.3042669584
 21
211.8034737418
  0
LINE
  8
0
 62
7
  6
CONTINUOUS
 10
315.0192442832
 20
238.2420690723
 11
315.0126119937
 21
238.2546758448
  0
POLYLINE
  8
SURFACE
 62
7
  6
CONTINUOUS
 66
1
 70
0
  0
VERTEX
  8
SURFACE
 62
7
  6
CONTINUOUS
 10
306.661045704
 20
114.9374939342
  0
VERTEX
  8
SURFACE
 62
7
  6
CONTINUOUS
 10
306.6720756562
 20
114.9492025309
  0
VERTEX
  8
SURFACE
 62
7
  6
CONTINUOUS
 10
306.7010256373
 20
114.9895316909
  0
VERTEX
  8
SURFACE
 62
7
  6
CONTINUOUS
 10
306.7240414505
 20
115.0329696769
  0
VERTEX
  8
SURFACE
 62
7
  6
CONTINUOUS
 10
306.7407472576
 20
115.0787703218
  0
VERTEX
  8
SURFACE
 62
7
  6
CONTINUOUS
 10
306.7508748494
 20
115.1261518815
  0
VERTEX
  8
SURFACE
 62
7
  6
CONTINUOUS
 10
306.7542669584
 20
115.1743105419
  0
SEQEND
  0
POLYLINE
  8
SURFACE
 62
7
  6
CONTINUOUS
 66
1
 70
0
  0
VERTEX
  8
SURFACE
 62
7
  6
CONTINUOUS
 10
297.700233956
 20
218.7704317317
  0
VERTEX
  8
SURFACE
 62
7
  6
CONTINUOUS
 10
297.6905187106
 20
218.7703139089
  0
VERTEX
  8
SURFACE
 62
7
  6
CONTINUOUS
 10
297.650940004
 20
218.7673873271
  0
VERTEX
  8
SURFACE
 62
7
  6
CONTINUOUS
 10
297.6130910806
 20
218.7608388064
  0
VERTEX
  8
SURFACE
 62
7
  6
CONTINUOUS
 10
297.5771915321
 20
218.7510683476
  0
VERTEX
  8
SURFACE
 62
7
  6
CONTINUOUS
 10
297.5433982343
 20
218.7384567079
  0
VERTEX
  8
SURFACE
 62
7
  6
CONTINUOUS
 10
297.5118169946
 20
218.7233610024
  0
VERTEX
  8
SURFACE
 62
7
  6
CONTINUOUS
 10
297.4825135441
 20
218.7061134368
  0
VERTEX
  8
SURFACE
 62
7
  6
CONTINUOUS
 10
297.4555167741
 20
218.6870177709
  0
VERTEX
  8
SURFACE
 62
7
  6
CONTINUOUS
 10
297.4308271153
 20
218.6663489644
  0
VERTEX
  8
SURFACE
 62
7
  6
CONTINUOUS
 10
297.4084098029
 20
218.6443394266
  0
VERTEX
  8
SURFACE
 62
7
  6
CONTINUOUS
 10
297.3882627308
 20
218.6212454695
  0
VERTEX
  8
SURFACE
 62
7
  6
CONTINUOUS
 10
297.3704384295
 20
218.5974207136
  0
VERTEX
  8
SURFACE
 62
7
  6
CONTINUOUS
 10
297.3549167966
 20
218.5731920754
  0
VERTEX
  8
SURFACE
 62
7
  6
CONTINUOUS
 10
297.3416208839
 20
218.548851938
  0
VERTEX
  8
SURFACE
 62
7
  6
CONTINUOUS
 10
297.3304547245
 20
218.5247113077
  0
VERTEX
  8
SURFACE
 62
7
  6
CONTINUOUS
 10
297.3213223612
 20
218.5011794448
  0
VERTEX
  8
SURFACE
 62
7
  6
CONTINUOUS
 10
297.3141679976
 20
218.4790101217
  0
VERTEX
  8
SURFACE
 62
7
  6
CONTINUOUS
 10
297.3098096199
 20
218.4629979753
  0
SEQEND
  0
LINE
  8
SURFACE
 62
7
  6
CONTINUOUS
 10
306.3083095936
 20
218.7704317451
 11
297.7002243225
 21
218.7704317451
  0
POLYLINE
  8
0
 62
7
  6
CONTINUOUS
 66
1
 70
0
  0
VERTEX
  8
0
 62
7
  6
CONTINUOUS
 10
314.9610642832
 20
238.669433827
  0
VERTEX
  8
0
 62
7
  6
CONTINUOUS
 10
314.9720756562
 20
238.6577449527
  0
VERTEX
  8
0
 62
7
  6
CONTINUOUS
 10
315.0010256373
 20
238.6174157927
  0
VERTEX
  8
0
 62
7
  6
CONTINUOUS
 10
315.0240414505
 20
238.5739778066
  0
VERTEX
  8
0
 62
7
  6
CONTINUOUS
 10
315.0407472576
 20
238.5281771618
  0
VERTEX
  8
0
 62
7
  6
CONTINUOUS
 10
315.0508748494
 20
238.4807956021
  0
VERTEX
  8
0
 62
7
  6
CONTINUOUS
 10
315.0542669584
 20
238.4326369416
  0
SEQEND
  0
POLYLINE
  8
0
 62
7
  6
CONTINUOUS
 66
1
 70
0
  0
VERTEX
  8
0
 62
7
  6
CONTINUOUS
 10
306.1358448423
 20
240.1684125175
  0
VERTEX
  8
0
 62
7
  6
CONTINUOUS
 10
306.1293538064
 20
240.168359913
  0
VERTEX
  8
0
 62
7
  6
CONTINUOUS
 10
306.0883592767
 20
240.1655875591
  0
VERTEX
  8
0
 62
7
  6
CONTINUOUS
 10
306.0492903635
 20
240.1589482112
  0
VERTEX
  8
0
 62
7
  6
CONTINUOUS
 10
306.0123488792
 20
240.1488981145
  0
VERTEX
  8
0
 62
7
  6
CONTINUOUS
 10
305.9776655829
 20
240.1358554435
  0
VERTEX
  8
0
 62
7
  6
CONTINUOUS
 10
305.94531837
 20
240.1201976839
  0
VERTEX
  8
0
 62
7
  6
CONTINUOUS
 10
305.9153447736
 20
240.1022611472
  0
VERTEX
  8
0
 62
7
  6
CONTINUOUS
 10
305.8877500304
 20
240.0823399939
  0
VERTEX
  8
0
 62
7
  6
CONTINUOUS
 10
305.862517879
 20
240.0606882014
  0
VERTEX
  8
0
 62
7
  6
CONTINUOUS
 10
305.8396344572
 20
240.0375392918
  0
VERTEX
  8
0
 62
7
  6
CONTINUOUS
 10
305.8192447711
 20
240.0133173188
  0
VERTEX
  8
0
 62
7
  6
CONTINUOUS
 10
305.8014456208
 20
239.9885122064
  0
VERTEX
  8
0
 62
7
  6
CONTINUOUS
 10
305.7862252094
 20
239.9635956226
  0
VERTEX
  8
0
 62
7
  6
CONTINUOUS
 10
305.7734946642
 20
239.9390304323
  0
VERTEX
  8
0
 62
7
  6
CONTINUOUS
 10
305.7631110597
 20
239.9152940812
  0
VERTEX
  8
0
 62
7
  6
CONTINUOUS
 10
305.7547781883
 20
239.8925741889
  0
VERTEX
  8
0
 62
7
  6
CONTINUOUS
 10
305.7482552754
 20
239.8711897384
  0
VERTEX
  8
0
 62
7
  6
CONTINUOUS
 10
305.743287803
 20
239.8514832973
  0
VERTEX
  8
0
 62
7
  6
CONTINUOUS
 10
305.7395273816
 20
239.8333893888
  0
VERTEX
  8
0
 62
7
  6
CONTINUOUS
 10
305.7366830035
 20
239.8168719302
  0
VERTEX
  8
0
 62
7
  6
CONTINUOUS
 10
305.7344364925
 20
239.8013333483
  0
VERTEX
  8
0
 62
7
  6
CONTINUOUS
 10
305.7325435373
 20
239.7859975424
  0
VERTEX
  8
0
 62
7
  6
CONTINUOUS
 10
305.7308371966
 20
239.7700719455
  0
VERTEX
  8
0
 62
7
  6
CONTINUOUS
 10
305.7292221958
 20
239.7529569572
  0
VERTEX
  8
0
 62
7
  6
CONTINUOUS
 10
305.7276408485
 20
239.7341615419
  0
VERTEX
  8
0
 62
7
  6
CONTINUOUS
 10
305.7260596338
 20
239.7132965006
  0
SEQEND
  0
LINE
  8
0
 62
7
  6
CONTINUOUS
 10
306.1358293362
 20
240.1684127923
 11
314.4727045807
 21
240.1684127923
  0
POLYLINE
  8
SURFACE
 62
7
  6
CONTINUOUS
 66
1
 70
0
  0
VERTEX
  8
SURFACE
 62
7
  6
CONTINUOUS
 10
297.6542669584
 20
245.6169660232
  0
VERTEX
  8
SURFACE
 62
7
  6
CONTINUOUS
 10
297.601815861
 20
245.6156084741
  0
VERTEX
  8
SURFACE
 62
7
  6
CONTINUOUS
 10
297.5503140679
 20
245.6115634245
  0
VERTEX
  8
SURFACE
 62
7
  6
CONTINUOUS
 10
297.5006444427
 20
245.6049058448
  0
VERTEX
  8
SURFACE
 62
7
  6
CONTINUOUS
 10
297.4536562579
 20
245.5957545358
  0
VERTEX
  8
SURFACE
 62
7
  6
CONTINUOUS
 10
297.4101502281
 20
245.5842702784
  0
VERTEX
  8
SURFACE
 62
7
  6
CONTINUOUS
 10
297.370863755
 20
245.5706529463
  0
VERTEX
  8
SURFACE
 62
7
  6
CONTINUOUS
 10
297.3364582607
 20
245.555137901
  0
VERTEX
  8
SURFACE
 62
7
  6
CONTINUOUS
 10
297.3075082795
 20
245.5379917572
  0
VERTEX
  8
SURFACE
 62
7
  6
CONTINUOUS
 10
297.2844924664
 20
245.519507629
  0
VERTEX
  8
SURFACE
 62
7
  6
CONTINUOUS
 10
297.2677866592
 20
245.5000000043
  0
VERTEX
  8
SURFACE
 62
7
  6
CONTINUOUS
 10
297.2576590674
 20
245.4797996141
  0
VERTEX
  8
SURFACE
 62
7
  6
CONTINUOUS
 10
297.2542669584
 20
245.4592478517
  0
SEQEND
  0
LINE
  8
SURFACE
 62
7
  6
CONTINUOUS
 10
306.3542669584
 20
245.6169660232
 11
297.6542669584
 21
245.6169660232
  0
POLYLINE
  8
SURFACE
 62
7
  6
CONTINUOUS
 66
1
 70
0
  0
VERTEX
  8
SURFACE
 62
7
  6
CONTINUOUS
 10
306.3542669584
 20
245.6169660232
  0
VERTEX
  8
SURFACE
 62
7
  6
CONTINUOUS
 10
306.4067180559
 20
245.6156084741
  0
VERTEX
  8
SURFACE
 62
7
  6
CONTINUOUS
 10
306.4582198489
 20
245.6115634245
  0
VERTEX
  8
SURFACE
 62
7
  6
CONTINUOUS
 10
306.5078894742
 20
245.6049058448
  0
VERTEX
  8
SURFACE
 62
7
  6
CONTINUOUS
 10
306.554877659
 20
245.5957545358
  0
VERTEX
  8
SURFACE
 62
7
  6
CONTINUOUS
 10
306.5983836888
 20
245.5842702784
  0
VERTEX
  8
SURFACE
 62
7
  6
CONTINUOUS
 10
306.6376701619
 20
245.5706529463
  0
VERTEX
  8
SURFACE
 62
7
  6
CONTINUOUS
 10
306.6720756562
 20
245.555137901
  0
VERTEX
  8
SURFACE
 62
7
  6
CONTINUOUS
 10
306.7010256373
 20
245.5379917572
  0
VERTEX
  8
SURFACE
 62
7
  6
CONTINUOUS
 10
306.7240414505
 20
245.519507629
  0
VERTEX
  8
SURFACE
 62
7
  6
CONTINUOUS
 10
306.7407472576
 20
245.5000000043
  0
VERTEX
  8
SURFACE
 62
7
  6
CONTINUOUS
 10
306.7508748494
 20
245.4797996141
  0
VERTEX
  8
SURFACE
 62
7
  6
CONTINUOUS
 10
306.7542669584
 20
245.4592478517
  0
SEQEND
  0
POLYLINE
  8
SURFACE
 62
7
  6
CONTINUOUS
 66
1
 70
0
  0
VERTEX
  8
SURFACE
 62
7
  6
CONTINUOUS
 10
297.7084445273
 20
256.1656305193
  0
VERTEX
  8
SURFACE
 62
7
  6
CONTINUOUS
 10
297.6705086897
 20
256.1638286024
  0
VERTEX
  8
SURFACE
 62
7
  6
CONTINUOUS
 10
297.6351334869
 20
256.1588590497
  0
VERTEX
  8
SURFACE
 62
7
  6
CONTINUOUS
 10
297.6013252632
 20
256.151029557
  0
VERTEX
  8
SURFACE
 62
7
  6
CONTINUOUS
 10
297.5692288423
 20
256.1406386469
  0
VERTEX
  8
SURFACE
 62
7
  6
CONTINUOUS
 10
297.5389486391
 20
256.1279698088
  0
VERTEX
  8
SURFACE
 62
7
  6
CONTINUOUS
 10
297.5105567687
 20
256.1132897751
  0
VERTEX
  8
SURFACE
 62
7
  6
CONTINUOUS
 10
297.4840968914
 20
256.0968465076
  0
VERTEX
  8
SURFACE
 62
7
  6
CONTINUOUS
 10
297.4595887992
 20
256.0788679382
  0
VERTEX
  8
SURFACE
 62
7
  6
CONTINUOUS
 10
297.4370335094
 20
256.0595619253
  0
VERTEX
  8
SURFACE
 62
7
  6
CONTINUOUS
 10
297.4164096266
 20
256.0391083083
  0
VERTEX
  8
SURFACE
 62
7
  6
CONTINUOUS
 10
297.3977159559
 20
256.0177012871
  0
VERTEX
  8
SURFACE
 62
7
  6
CONTINUOUS
 10
297.3809854075
 20
255.995593621
  0
VERTEX
  8
SURFACE
 62
7
  6
CONTINUOUS
 10
297.3662091155
 20
255.9730239858
  0
VERTEX
  8
SURFACE
 62
7
  6
CONTINUOUS
 10
297.3533406987
 20
255.950206838
  0
VERTEX
  8
SURFACE
 62
7
  6
CONTINUOUS
 10
297.3423113339
 20
255.9273437794
  0
VERTEX
  8
SURFACE
 62
7
  6
CONTINUOUS
 10
297.3330600792
 20
255.9046973884
  0
VERTEX
  8
SURFACE
 62
7
  6
CONTINUOUS
 10
297.3256156332
 20
255.8829270663
  0
VERTEX
  8
SURFACE
 62
7
  6
CONTINUOUS
 10
297.320026045
 20
255.8632458118
  0
VERTEX
  8
SURFACE
 62
7
  6
CONTINUOUS
 10
297.3160584555
 20
255.8464462118
  0
VERTEX
  8
SURFACE
 62
7
  6
CONTINUOUS
 10
297.3132085953
 20
255.8320499238
  0
VERTEX
  8
SURFACE
 62
7
  6
CONTINUOUS
 10
297.3110497991
 20
255.8191421574
  0
VERTEX
  8
SURFACE
 62
7
  6
CONTINUOUS
 10
297.3093480564
 20
255.8071931346
  0
VERTEX
  8
SURFACE
 62
7
  6
CONTINUOUS
 10
297.3079674804
 20
255.7959479311
  0
VERTEX
  8
SURFACE
 62
7
  6
CONTINUOUS
 10
297.3067986854
 20
255.785089471
  0
VERTEX
  8
SURFACE
 62
7
  6
CONTINUOUS
 10
297.3057513842
 20
255.7741815303
  0
VERTEX
  8
SURFACE
 62
7
  6
CONTINUOUS
 10
297.3047616879
 20
255.7627903883
  0
VERTEX
  8
SURFACE
 62
7
  6
CONTINUOUS
 10
297.3037921955
 20
255.7505995985
  0
VERTEX
  8
SURFACE
 62
7
  6
CONTINUOUS
 10
297.3028205395
 20
255.7373731259
  0
SEQEND
  0
LINE
  8
SURFACE
 62
7
  6
CONTINUOUS
 10
306.3001008903
 20
256.1656305071
 11
297.7084330284
 21
256.1656305071
  0
POLYLINE
  8
SURFACE
 62
7
  6
CONTINUOUS
 66
1
 70
0
  0
VERTEX
  8
SURFACE
 62
7
  6
CONTINUOUS
 10
297.6542669584
 20
267.3976985738
  0
VERTEX
  8
SURFACE
 62
7
  6
CONTINUOUS
 10
297.601815861
 20
267.3949207355
  0
VERTEX
  8
SURFACE
 62
7
  6
CONTINUOUS
 10
297.5503140679
 20
267.3866443539
  0
VERTEX
  8
SURFACE
 62
7
  6
CONTINUOUS
 10
297.5006444427
 20
267.373024756
  0
VERTEX
  8
SURFACE
 62
7
  6
CONTINUOUS
 10
297.4536562579
 20
267.3543080265
  0
VERTEX
  8
SURFACE
 62
7
  6
CONTINUOUS
 10
297.4101502281
 20
267.3308269361
  0
VERTEX
  8
SURFACE
 62
7
  6
CONTINUOUS
 10
297.370863755
 20
267.3029946728
  0
VERTEX
  8
SURFACE
 62
7
  6
CONTINUOUS
 10
297.3364582607
 20
267.2712970615
  0
VERTEX
  8
SURFACE
 62
7
  6
CONTINUOUS
 10
297.3075082795
 20
267.2362834854
  0
VERTEX
  8
SURFACE
 62
7
  6
CONTINUOUS
 10
297.2844924664
 20
267.1985567679
  0
VERTEX
  8
SURFACE
 62
7
  6
CONTINUOUS
 10
297.2677866592
 20
267.1587623468
  0
VERTEX
  8
SURFACE
 62
7
  6
CONTINUOUS
 10
297.2576590674
 20
267.1175775159
  0
VERTEX
  8
SURFACE
 62
7
  6
CONTINUOUS
 10
297.2542669584
 20
267.0756998374
  0
SEQEND
  0
POLYLINE
  8
0
 62
7
  6
CONTINUOUS
 66
1
 70
0
  0
VERTEX
  8
0
 62
7
  6
CONTINUOUS
 10
306.1432256384
 20
270.1495114017
  0
VERTEX
  8
0
 62
7
  6
CONTINUOUS
 10
306.1211474426
 20
270.148901794
  0
VERTEX
  8
0
 62
7
  6
CONTINUOUS
 10
306.0900012771
 20
270.1459555221
  0
VERTEX
  8
0
 62
7
  6
CONTINUOUS
 10
306.0599574976
 20
270.1407508903
  0
VERTEX
  8
0
 62
7
  6
CONTINUOUS
 10
306.031129885
 20
270.1334880889
  0
VERTEX
  8
0
 62
7
  6
CONTINUOUS
 10
306.0036069293
 20
270.1243610747
  0
VERTEX
  8
0
 62
7
  6
CONTINUOUS
 10
305.9774549122
 20
270.1135557733
  0
VERTEX
  8
0
 62
7
  6
CONTINUOUS
 10
305.9527210114
 20
270.101248914
  0
VERTEX
  8
0
 62
7
  6
CONTINUOUS
 10
305.9294354094
 20
270.08760691
  0
VERTEX
  8
0
 62
7
  6
CONTINUOUS
 10
305.9076138051
 20
270.0727852252
  0
VERTEX
  8
0
 62
7
  6
CONTINUOUS
 10
305.8872598125
 20
270.0569281082
  0
VERTEX
  8
0
 62
7
  6
CONTINUOUS
 10
305.8683658213
 20
270.0401673626
  0
VERTEX
  8
0
 62
7
  6
CONTINUOUS
 10
305.8509204062
 20
270.0226276069
  0
VERTEX
  8
0
 62
7
  6
CONTINUOUS
 10
305.8349182244
 20
270.0044392617
  0
VERTEX
  8
0
 62
7
  6
CONTINUOUS
 10
305.8203434707
 20
269.9857246273
  0
VERTEX
  8
0
 62
7
  6
CONTINUOUS
 10
305.8071704789
 20
269.9665959889
  0
VERTEX
  8
0
 62
7
  6
CONTINUOUS
 10
305.7953661677
 20
269.9471561716
  0
VERTEX
  8
0
 62
7
  6
CONTINUOUS
 10
305.7848939047
 20
269.9275033606
  0
VERTEX
  8
0
 62
7
  6
CONTINUOUS
 10
305.7757123561
 20
269.9077293864
  0
VERTEX
  8
0
 62
7
  6
CONTINUOUS
 10
305.7678299822
 20
269.8880663752
  0
VERTEX
  8
0
 62
7
  6
CONTINUOUS
 10
305.761316015
 20
269.8690543379
  0
VERTEX
  8
0
 62
7
  6
CONTINUOUS
 10
305.7561329244
 20
269.8511892243
  0
VERTEX
  8
0
 62
7
  6
CONTINUOUS
 10
305.7521827972
 20
269.8349986595
  0
VERTEX
  8
0
 62
7
  6
CONTINUOUS
 10
305.7492929941
 20
269.8208896708
  0
VERTEX
  8
0
 62
7
  6
CONTINUOUS
 10
305.7471977003
 20
269.8087545728
  0
VERTEX
  8
0
 62
7
  6
CONTINUOUS
 10
305.745646496
 20
269.7981834762
  0
VERTEX
  8
0
 62
7
  6
CONTINUOUS
 10
305.744467018
 20
269.7888373603
  0
VERTEX
  8
0
 62
7
  6
CONTINUOUS
 10
305.74352537
 20
269.7802950364
  0
VERTEX
  8
0
 62
7
  6
CONTINUOUS
 10
305.7427292905
 20
269.7721663171
  0
VERTEX
  8
0
 62
7
  6
CONTINUOUS
 10
305.7420140372
 20
269.7640770117
  0
VERTEX
  8
0
 62
7
  6
CONTINUOUS
 10
305.7413364971
 20
269.7557047369
  0
VERTEX
  8
0
 62
7
  6
CONTINUOUS
 10
305.7406721713
 20
269.7468364255
  0
VERTEX
  8
0
 62
7
  6
CONTINUOUS
 10
305.7393239611
 20
269.7269742908
  0
SEQEND
  0
POLYLINE
  8
SURFACE
 62
7
  6
CONTINUOUS
 66
1
 70
0
  0
VERTEX
  8
SURFACE
 62
7
  6
CONTINUOUS
 10
297.8445197498
 20
275.4133589822
  0
VERTEX
  8
SURFACE
 62
7
  6
CONTINUOUS
 10
297.8308758591
 20
275.4131262316
  0
VERTEX
  8
SURFACE
 62
7
  6
CONTINUOUS
 10
297.8044958593
 20
275.411351661
  0
VERTEX
  8
SURFACE
 62
7
  6
CONTINUOUS
 10
297.7788613868
 20
275.407933702
  0
VERTEX
  8
SURFACE
 62
7
  6
CONTINUOUS
 10
297.7540446071
 20
275.4029930324
  0
VERTEX
  8
SURFACE
 62
7
  6
CONTINUOUS
 10
297.7301043329
 20
275.3966471733
  0
VERTEX
  8
SURFACE
 62
7
  6
CONTINUOUS
 10
297.7070873404
 20
275.3890096223
  0
VERTEX
  8
SURFACE
 62
7
  6
CONTINUOUS
 10
297.6850296786
 20
275.3801891851
  0
VERTEX
  8
SURFACE
 62
7
  6
CONTINUOUS
 10
297.6639579535
 20
275.3702894981
  0
VERTEX
  8
SURFACE
 62
7
  6
CONTINUOUS
 10
297.6438904333
 20
275.3594086524
  0
VERTEX
  8
SURFACE
 62
7
  6
CONTINUOUS
 10
297.6248381559
 20
275.3476389619
  0
VERTEX
  8
SURFACE
 62
7
  6
CONTINUOUS
 10
297.6068059691
 20
275.3350668467
  0
VERTEX
  8
SURFACE
 62
7
  6
CONTINUOUS
 10
297.5897935003
 20
275.3217728161
  0
VERTEX
  8
SURFACE
 62
7
  6
CONTINUOUS
 10
297.5737961442
 20
275.3078316218
  0
VERTEX
  8
SURFACE
 62
7
  6
CONTINUOUS
 10
297.5588115582
 20
275.2933182374
  0
VERTEX
  8
SURFACE
 62
7
  6
CONTINUOUS
 10
297.54484096
 20
275.2783118821
  0
VERTEX
  8
SURFACE
 62
7
  6
CONTINUOUS
 10
297.5318806012
 20
275.2628892796
  0
VERTEX
  8
SURFACE
 62
7
  6
CONTINUOUS
 10
297.5199216263
 20
275.2471238392
  0
VERTEX
  8
SURFACE
 62
7
  6
CONTINUOUS
 10
297.5089505749
 20
275.2310854333
  0
VERTEX
  8
SURFACE
 62
7
  6
CONTINUOUS
 10
297.4989499339
 20
275.2148403409
  0
VERTEX
  8
SURFACE
 62
7
  6
CONTINUOUS
 10
297.4898988035
 20
275.1984515684
  0
VERTEX
  8
SURFACE
 62
7
  6
CONTINUOUS
 10
297.4817736056
 20
275.1819796673
  0
VERTEX
  8
SURFACE
 62
7
  6
CONTINUOUS
 10
297.4745512568
 20
275.1654902798
  0
VERTEX
  8
SURFACE
 62
7
  6
CONTINUOUS
 10
297.4682335455
 20
275.1491267663
  0
VERTEX
  8
SURFACE
 62
7
  6
CONTINUOUS
 10
297.4628076016
 20
275.133044097
  0
VERTEX
  8
SURFACE
 62
7
  6
CONTINUOUS
 10
297.458239189
 20
275.1173868988
  0
VERTEX
  8
SURFACE
 62
7
  6
CONTINUOUS
 10
297.4544839262
 20
275.1023209526
  0
VERTEX
  8
SURFACE
 62
7
  6
CONTINUOUS
 10
297.4514850946
 20
275.0880352919
  0
VERTEX
  8
SURFACE
 62
7
  6
CONTINUOUS
 10
297.449223204
 20
275.0750697948
  0
VERTEX
  8
SURFACE
 62
7
  6
CONTINUOUS
 10
297.4476214121
 20
275.0639517464
  0
VERTEX
  8
SURFACE
 62
7
  6
CONTINUOUS
 10
297.44654837
 20
275.0549927077
  0
VERTEX
  8
SURFACE
 62
7
  6
CONTINUOUS
 10
297.445817842
 20
275.0477929957
  0
VERTEX
  8
SURFACE
 62
7
  6
CONTINUOUS
 10
297.4452832504
 20
275.0417155762
  0
VERTEX
  8
SURFACE
 62
7
  6
CONTINUOUS
 10
297.444859673
 20
275.036286495
  0
VERTEX
  8
SURFACE
 62
7
  6
CONTINUOUS
 10
297.4444966447
 20
275.0311503254
  0
SEQEND
  0
LINE
  8
SURFACE
 62
7
  6
CONTINUOUS
 10
305.6423467393
 20
267.3976985738
 11
297.6542669584
 21
267.3976985738
  0
LINE
  8
0
 62
7
  6
CONTINUOUS
 10
306.1431983899
 20
270.1495117074
 11
314.4653355201
 21
270.1495117074
  0
LINE
  8
SURFACE
 62
7
  6
CONTINUOUS
 10
306.1640284614
 20
275.4133592447
 11
297.8445054505
 21
275.4133592447
  0
LINE
  8
0
 62
7
  6
CONTINUOUS
 10
306.1640141953
 20
275.4133592447
 11
314.4640284664
 21
275.4133592447
  0
ARC
  8
0
 62
7
  6
CONTINUOUS
 10
60.4316739606
 20
106.4334737418
 40
180.0
 50
17.827284982
 51
20.5948847648
  0
ARC
  8
SURFACE
 62
7
  6
CONTINUOUS
 10
62.8616739606
 20
104.0034737418
 40
180.0
 50
69.4051152347
 51
72.1727150179
  0
ARC
  8
0
 62
7
  6
CONTINUOUS
 10
63.0576797852
 20
105.65855046
 40
8.5
 50
329.999927984
 51
15.9194689555
  0
ARC
  8
SURFACE
 62
7
  6
CONTINUOUS
 10
62.0867506788
 20
106.6294795664
 40
8.5
 50
74.0805310445
 51
120.000073123
  0
ARC
  8
0
 62
7
  6
CONTINUOUS
 10
70.9667349101
 20
100.1574357762
 40
1.1
 50
150.0
 51
257.8272854187
  0
ARC
  8
SURFACE
 62
7
  6
CONTINUOUS
 10
56.585635995
 20
114.5385346913
 40
1.1
 50
192.1727145737
 51
300.0
  0
ARC
  8
0
 62
7
  6
CONTINUOUS
 10
79.4383530589
 20
98.4413169765
 40
1.0
 50
260.5948842642
 51
307.5582723772
  0
ARC
  8
SURFACE
 62
7
  6
CONTINUOUS
 10
54.8695171953
 20
123.0101528401
 40
1.0
 50
142.441727609
 51
189.4051156507
  0
ARC
  8
0
 62
7
  6
CONTINUOUS
 10
68.4449518003
 20
112.0167521793
 40
0.3999998906
 50
29.9999373158
 51
59.9999457138
  0
ARC
  8
SURFACE
 62
7
  6
CONTINUOUS
 10
35.8894662963
 20
148.9418243463
 40
180.0
 50
39.4051152347
 51
42.1727150179
  0
ARC
  8
0
 62
7
  6
CONTINUOUS
 10
36.8867506788
 20
150.2771599172
 40
8.5
 50
299.9999277506
 51
345.9194689555
  0
ARC
  8
0
 62
7
  6
CONTINUOUS
 10
40.985635995
 20
141.5585272894
 40
1.1
 50
120.0
 51
227.8272854188
  0
ARC
  8
0
 62
7
  6
CONTINUOUS
 10
35.0000245651
 20
152.2612660775
 40
180.0
 50
347.827284982
 51
350.5948847648
  0
ARC
  8
SURFACE
 62
7
  6
CONTINUOUS
 10
36.5313659606
 20
151.6034737418
 40
8.5
 50
44.0805310445
 51
90.0000732467
  0
ARC
  8
SURFACE
 62
7
  6
CONTINUOUS
 10
35.7217884577
 20
161.2034737418
 40
1.1
 50
162.1727145738
 51
270.0
  0
ARC
  8
SURFACE
 62
7
  6
CONTINUOUS
 10
38.4713950556
 20
169.3981696697
 40
1.0
 50
112.4417276094
 51
159.4051156503
  0
ARC
  8
0
 62
7
  6
CONTINUOUS
 10
44.7313659606
 20
153.0898881209
 40
0.3999998906
 50
359.9999373158
 51
29.9999457138
  0
ARC
  8
0
 62
7
  6
CONTINUOUS
 10
42.6548225482
 20
172.0825663777
 40
37.563731
 50
277.5582718452
 51
286.4075976794
  0
ARC
  8
SURFACE
 62
7
  6
CONTINUOUS
 10
43.1313659606
 20
174.0591106061
 40
2.0
 50
283.5924023205
 51
359.99999758
  0
ARC
  8
0
 62
7
  6
CONTINUOUS
 10
43.1313659606
 20
174.0591106061
 40
2.0
 50
283.5924023206
 51
0.0001213205
  0
ARC
  8
0
 62
7
  6
CONTINUOUS
 10
57.1502733247
 20
127.4266223294
 40
37.563731
 50
307.5582718452
 51
316.4075976794
  0
ARC
  8
SURFACE
 62
7
  6
CONTINUOUS
 10
52.4293659606
 20
135.6034737418
 40
37.563731
 50
103.5924023206
 51
112.4417281545
  0
ARC
  8
SURFACE
 62
7
  6
CONTINUOUS
 10
56.5746999117
 20
129.3766315491
 40
2.0
 50
313.5924023205
 51
29.99999758
  0
ARC
  8
0
 62
7
  6
CONTINUOUS
 10
53.830336776
 20
134.1300079345
 40
2.0
 50
30.0
 51
106.4075976794
  0
ARC
  8
0
 62
7
  6
CONTINUOUS
 10
56.5746999117
 20
129.3766315491
 40
2.0
 50
313.5924023206
 51
30.0001213205
  0
ARC
  8
0
 62
7
  6
CONTINUOUS
 10
47.4642131231
 20
135.8365157385
 40
1.0
 50
230.5948842639
 51
277.5582723771
  0
ARC
  8
0
 62
7
  6
CONTINUOUS
 10
105.3700245651
 20
79.4612660775
 40
180.0
 50
47.827284982
 51
50.5948847648
  0
ARC
  8
SURFACE
 62
7
  6
CONTINUOUS
 10
106.705360136
 20
80.45855046
 40
8.5
 50
104.0805310445
 51
150.0000733704
  0
ARC
  8
SURFACE
 62
7
  6
CONTINUOUS
 10
97.9867275082
 20
84.5574357762
 40
1.1
 50
222.1727145736
 51
330.0
  0
ARC
  8
0
 62
7
  6
CONTINUOUS
 10
92.0316739606
 20
96.0011657418
 40
37.563731
 50
337.5582718452
 51
346.4075976794
  0
ARC
  8
SURFACE
 62
7
  6
CONTINUOUS
 10
83.8548225482
 20
100.7220731059
 40
37.563731
 50
133.5924023206
 51
142.4417281545
  0
ARC
  8
SURFACE
 62
7
  6
CONTINUOUS
 10
90.5582081533
 20
97.4021365572
 40
2.0
 50
343.5924023205
 51
59.99999758
  0
ARC
  8
0
 62
7
  6
CONTINUOUS
 10
85.8048317679
 20
100.1464996928
 40
2.0
 50
60.0
 51
136.4075976794
  0
ARC
  8
0
 62
7
  6
CONTINUOUS
 10
90.5582081533
 20
97.4021365572
 40
2.0
 50
343.5924023206
 51
60.0001213205
  0
ARC
  8
SURFACE
 62
7
  6
CONTINUOUS
 10
92.2647159574
 20
91.0360129043
 40
1.0
 50
172.4417276092
 51
219.4051156511
  0
ARC
  8
SURFACE
 62
7
  6
CONTINUOUS
 10
108.6894662963
 20
78.5718243463
 40
180.0
 50
99.4051152347
 51
102.1727150179
  0
ARC
  8
SURFACE
 62
7
  6
CONTINUOUS
 10
128.5107665965
 20
86.2266223294
 40
37.563731
 50
163.5924023206
 51
172.4417281545
  0
ARC
  8
0
 62
7
  6
CONTINUOUS
 10
108.0316739606
 20
80.1031657418
 40
8.5
 50
359.9999278673
 51
45.9194689555
  0
ARC
  8
0
 62
7
  6
CONTINUOUS
 10
130.4873108249
 20
86.7031657418
 40
2.0
 50
90.0
 51
166.4075976794
  0
ARC
  8
0
 62
7
  6
CONTINUOUS
 10
117.6316739606
 20
79.2935882389
 40
1.1
 50
180.0
 51
287.8272854187
  0
ARC
  8
0
 62
7
  6
CONTINUOUS
 10
125.8263698885
 20
82.0431948368
 40
1.0
 50
290.5948842645
 51
337.5582723769
  0
ARC
  8
0
 62
7
  6
CONTINUOUS
 10
109.5180875231
 20
88.3031659606
 40
0.3999998906
 50
59.9999373158
 51
89.9999457138
  0
ARC
  8
CURVE
 62
40
  6
CONTINUOUS
 10
126.8366275784
 20
150.388765477
 40
3.2
 50
2.2544307753
 51
45.0
  0
ARC
  8
CURVE
 62
40
  6
CONTINUOUS
 10
122.5939868912
 20
154.6314061641
 40
3.2
 50
45.0
 51
86.4096221093
  0
ARC
  8
CURVE
 62
40
  6
CONTINUOUS
 10
122.9947735315
 20
161.0188446232
 40
3.2
 50
225.0
 51
266.4096221093
  0
ARC
  8
CURVE
 62
40
  6
CONTINUOUS
 10
117.447044842
 20
166.5665733127
 40
3.2
 50
183.5903778907
 51
225.0
  0
ARC
  8
CURVE
 62
40
  6
CONTINUOUS
 10
111.0596063829
 20
166.1657866724
 40
3.2
 50
3.5903778907
 51
45.0
  0
ARC
  8
CURVE
 62
40
  6
CONTINUOUS
 10
106.8169656958
 20
170.4084273595
 40
3.2
 50
45.0
 51
87.7455692247
  0
CIRCLE
  8
0
 62
7
  6
CONTINUOUS
 10
87.044103192
 20
136.4287760913
 40
1.9125
  0
ARC
  8
0
 62
7
  6
CONTINUOUS
 10
91.3397768877
 20
137.2773042287
 40
1.5
 50
135.0
 51
225.0
  0
ARC
  8
0
 62
7
  6
CONTINUOUS
 10
95.7945496092
 20
133.4589276103
 40
1.5
 50
315.0
 51
45.0
  0
ARC
  8
0
 62
7
  6
CONTINUOUS
 10
91.6228492571
 20
136.7820998249
 40
1.35
 50
225.0
 51
281.2510114041
  0
ARC
  8
0
 62
7
  6
CONTINUOUS
 10
95.5114772397
 20
133.9541320141
 40
1.35
 50
45.0
 51
89.7055154431
  0
ARC
  8
0
 62
7
  6
CONTINUOUS
 10
92.2044426161
 20
136.836902569
 40
0.75
 50
225.0
 51
315.0
  0
ARC
  8
0
 62
7
  6
CONTINUOUS
 10
95.0520874889
 20
133.7771256618
 40
0.75
 50
45.0
 51
135.0
  0
ARC
  8
0
 62
7
  6
CONTINUOUS
 10
91.3928098963
 20
137.1182052029
 40
0.375
 50
135.0
 51
225.0
  0
ARC
  8
0
 62
7
  6
CONTINUOUS
 10
95.7415166006
 20
133.6180266361
 40
0.375
 50
315.0
 51
45.0
  0
ARC
  8
SURFACE
 62
7
  6
CONTINUOUS
 10
35.0000245651
 20
201.3456814061
 40
180.0
 50
9.4051152352
 51
12.172715018
  0
ARC
  8
SURFACE
 62
7
  6
CONTINUOUS
 10
42.6548225482
 20
181.5243811059
 40
37.563731
 50
73.5924023206
 51
82.4417281545
  0
ARC
  8
0
 62
7
  6
CONTINUOUS
 10
43.1313659606
 20
179.5478368775
 40
2.0
 50
0.0
 51
76.4075976794
  0
ARC
  8
0
 62
7
  6
CONTINUOUS
 10
35.7217884577
 20
192.4034737418
 40
1.1
 50
90.0
 51
197.827285419
  0
ARC
  8
0
 62
7
  6
CONTINUOUS
 10
38.4713950556
 20
184.2087778139
 40
1.0
 50
200.5948842637
 51
247.5582723769
  0
ARC
  8
0
 62
7
  6
CONTINUOUS
 10
44.7313661794
 20
200.5170601793
 40
0.3999998906
 50
329.9999373157
 51
359.9999457138
  0
ARC
  8
0
 62
7
  6
CONTINUOUS
 10
35.8894662963
 20
204.6651231373
 40
180.0
 50
317.827284982
 51
320.5948847648
  0
ARC
  8
0
 62
7
  6
CONTINUOUS
 10
36.5313659606
 20
202.0034737418
 40
8.5
 50
269.9999278673
 51
315.9194689555
  0
ARC
  8
SURFACE
 62
7
  6
CONTINUOUS
 10
36.8867506788
 20
203.3297875664
 40
8.5
 50
14.0805310445
 51
60.0000733704
  0
ARC
  8
SURFACE
 62
7
  6
CONTINUOUS
 10
40.985635995
 20
212.0484201942
 40
1.1
 50
132.172714574
 51
240.0
  0
ARC
  8
0
 62
7
  6
CONTINUOUS
 10
52.4293659606
 20
218.0034737418
 40
37.563731
 50
247.5582718452
 51
256.4075976794
  0
ARC
  8
SURFACE
 62
7
  6
CONTINUOUS
 10
53.830336776
 20
219.4769395491
 40
2.0
 50
253.5924023205
 51
329.99999758
  0
ARC
  8
0
 62
7
  6
CONTINUOUS
 10
56.5746999117
 20
224.2303159345
 40
2.0
 50
330.0
 51
46.4075976794
  0
ARC
  8
0
 62
7
  6
CONTINUOUS
 10
53.830336776
 20
219.4769395491
 40
2.0
 50
253.5924023206
 51
330.0001213205
  0
ARC
  8
SURFACE
 62
7
  6
CONTINUOUS
 10
47.4642131231
 20
217.7704317451
 40
1.0
 50
82.4417276092
 51
129.40511565
  0
ARC
  8
0
 62
7
  6
CONTINUOUS
 10
62.8616739606
 20
249.6034737418
 40
180.0
 50
287.827284982
 51
290.5948847648
  0
ARC
  8
SURFACE
 62
7
  6
CONTINUOUS
 10
60.4316739606
 20
247.1734737418
 40
180.0
 50
339.4051152347
 51
342.1727150179
  0
ARC
  8
SURFACE
 62
7
  6
CONTINUOUS
 10
57.1502733247
 20
226.1803251542
 40
37.563731
 50
43.5924023206
 51
52.4417281545
  0
ARC
  8
0
 62
7
  6
CONTINUOUS
 10
62.0867506788
 20
246.9774679172
 40
8.5
 50
239.999927984
 51
285.9194689555
  0
ARC
  8
SURFACE
 62
7
  6
CONTINUOUS
 10
63.0576797852
 20
247.9483970236
 40
8.5
 50
344.0805310445
 51
30.000073123
  0
ARC
  8
0
 62
7
  6
CONTINUOUS
 10
56.585635995
 20
239.0684127923
 40
1.1
 50
60.0
 51
167.8272854191
  0
ARC
  8
SURFACE
 62
7
  6
CONTINUOUS
 10
70.9667349101
 20
253.4495117074
 40
1.1
 50
102.1727145741
 51
210.0
  0
ARC
  8
0
 62
7
  6
CONTINUOUS
 10
54.8695171953
 20
230.5967946435
 40
1.0
 50
170.5948842658
 51
217.5582723772
  0
ARC
  8
SURFACE
 62
7
  6
CONTINUOUS
 10
79.4383530589
 20
255.1656305071
 40
1.0
 50
52.441727609
 51
99.4051156497
  0
ARC
  8
0
 62
7
  6
CONTINUOUS
 10
68.4449523981
 20
241.5901959021
 40
0.3999998906
 50
299.9999373158
 51
329.9999457138
  0
ARC
  8
CURVE
 62
40
  6
CONTINUOUS
 10
107.0687230567
 20
176.8034737418
 40
3.2
 50
92.2544307753
 51
267.7455692247
  0
ARC
  8
CURVE
 62
40
  6
CONTINUOUS
 10
106.8169656958
 20
183.1985201241
 40
3.2
 50
272.2544307753
 51
315.0
  0
ARC
  8
CURVE
 62
40
  6
CONTINUOUS
 10
111.0596063829
 20
187.4411608112
 40
3.2
 50
315.0
 51
356.4096221093
  0
ARC
  8
CURVE
 62
40
  6
CONTINUOUS
 10
117.447044842
 20
187.0403741709
 40
3.2
 50
135.0
 51
176.4096221093
  0
ARC
  8
CURVE
 62
40
  6
CONTINUOUS
 10
122.9947735315
 20
192.5881028604
 40
3.2
 50
93.5903778907
 51
135.0
  0
ARC
  8
CURVE
 62
40
  6
CONTINUOUS
 10
122.5939868912
 20
198.9755413195
 40
3.2
 50
273.5903778907
 51
315.0
  0
ARC
  8
CURVE
 62
40
  6
CONTINUOUS
 10
126.8366275784
 20
203.2181820066
 40
3.2
 50
315.0
 51
357.7455692247
  0
ARC
  8
0
 62
7
  6
CONTINUOUS
 10
83.8548225482
 20
252.8848743777
 40
37.563731
 50
217.5582718452
 51
226.4075976794
  0
ARC
  8
SURFACE
 62
7
  6
CONTINUOUS
 10
92.0316739606
 20
257.6057817418
 40
37.563731
 50
13.5924023206
 51
22.4417281545
  0
ARC
  8
SURFACE
 62
7
  6
CONTINUOUS
 10
85.8048317679
 20
253.4604477908
 40
2.0
 50
223.5924023205
 51
299.99999758
  0
ARC
  8
0
 62
7
  6
CONTINUOUS
 10
90.5582081533
 20
256.2048109264
 40
2.0
 50
300.0
 51
16.4075976794
  0
ARC
  8
0
 62
7
  6
CONTINUOUS
 10
85.8048317679
 20
253.4604477908
 40
2.0
 50
223.5924023206
 51
300.0001213205
  0
ARC
  8
0
 62
7
  6
CONTINUOUS
 10
92.2647159574
 20
262.5709345793
 40
1.0
 50
140.5948842628
 51
187.5582723771
  0
ARC
  8
SURFACE
 62
7
  6
CONTINUOUS
 10
105.3700245651
 20
274.1456814061
 40
180.0
 50
309.4051152347
 51
312.1727150179
  0
ARC
  8
0
 62
7
  6
CONTINUOUS
 10
106.705360136
 20
273.1483970236
 40
8.5
 50
209.9999277506
 51
255.9194689555
  0
ARC
  8
0
 62
7
  6
CONTINUOUS
 10
97.9867275082
 20
269.0495117074
 40
1.1
 50
30.0
 51
137.8272854192
  0
ARC
  8
0
 62
7
  6
CONTINUOUS
 10
109.5180883397
 20
265.3037817418
 40
0.3999998906
 50
269.9999373158
 51
299.9999457138
  0
ARC
  8
0
 62
7
  6
CONTINUOUS
 10
108.6894662963
 20
275.0351231373
 40
180.0
 50
257.827284982
 51
260.5948847648
  0
ARC
  8
SURFACE
 62
7
  6
CONTINUOUS
 10
108.0316739606
 20
273.5037817418
 40
8.5
 50
314.0805310445
 51
0.0000732467
  0
ARC
  8
SURFACE
 62
7
  6
CONTINUOUS
 10
117.6316739606
 20
274.3133592447
 40
1.1
 50
72.1727145741
 51
180.0
  0
ARC
  8
0
 62
7
  6
CONTINUOUS
 10
128.5107665965
 20
267.3803251542
 40
37.563731
 50
187.5582718452
 51
196.4075976794
  0
ARC
  8
SURFACE
 62
7
  6
CONTINUOUS
 10
130.4873108249
 20
266.9037817418
 40
2.0
 50
193.5924023205
 51
269.99999758
  0
ARC
  8
0
 62
7
  6
CONTINUOUS
 10
130.4873108249
 20
266.9037817418
 40
2.0
 50
193.5924023206
 51
270.0001213205
  0
ARC
  8
SURFACE
 62
7
  6
CONTINUOUS
 10
125.8263698885
 20
271.5637526468
 40
1.0
 50
22.4417276094
 51
69.4051156494
  0
ARC
  8
0
 62
7
  6
CONTINUOUS
 10
157.7738816249
 20
78.5718243463
 40
180.0
 50
77.827284982
 51
80.5948847648
  0
ARC
  8
0
 62
7
  6
CONTINUOUS
 10
137.9525813247
 20
86.2266223294
 40
37.563731
 50
7.5582718452
 51
16.4075976794
  0
ARC
  8
SURFACE
 62
7
  6
CONTINUOUS
 10
135.9760370963
 20
86.7031657418
 40
2.0
 50
13.5924023205
 51
89.99999758
  0
ARC
  8
0
 62
7
  6
CONTINUOUS
 10
135.9760370963
 20
86.7031657418
 40
2.0
 50
13.5924023206
 51
90.0001213205
  0
ARC
  8
SURFACE
 62
7
  6
CONTINUOUS
 10
148.8316739606
 20
79.2935882389
 40
1.1
 50
252.1727145741
 51
360.0
  0
ARC
  8
SURFACE
 62
7
  6
CONTINUOUS
 10
140.6369780328
 20
82.0431948368
 40
1.0
 50
202.4417276094
 51
249.4051156494
  0
ARC
  8
0
 62
7
  6
CONTINUOUS
 10
156.9452595815
 20
88.3031657418
 40
0.3999998906
 50
89.9999373157
 51
119.9999457138
  0
ARC
  8
SURFACE
 62
7
  6
CONTINUOUS
 10
161.0933233561
 20
79.4612660775
 40
180.0
 50
129.4051152347
 51
132.1727150179
  0
ARC
  8
0
 62
7
  6
CONTINUOUS
 10
159.7579877852
 20
80.45855046
 40
8.5
 50
29.9999277506
 51
75.9194689555
  0
ARC
  8
SURFACE
 62
7
  6
CONTINUOUS
 10
158.4316739606
 20
80.1031657418
 40
8.5
 50
134.0805310445
 51
180.0000732467
  0
ARC
  8
0
 62
7
  6
CONTINUOUS
 10
168.476620413
 20
84.5574357762
 40
1.1
 50
210.0
 51
317.8272854192
  0
ARC
  8
SURFACE
 62
7
  6
CONTINUOUS
 10
174.4316739606
 20
96.0011657418
 40
37.563731
 50
193.5924023206
 51
202.4417281545
  0
ARC
  8
SURFACE
 62
7
  6
CONTINUOUS
 10
180.6585161533
 20
100.1464996928
 40
2.0
 50
43.5924023205
 51
119.99999758
  0
ARC
  8
0
 62
7
  6
CONTINUOUS
 10
175.9051397679
 20
97.4021365572
 40
2.0
 50
120.0
 51
196.4075976794
  0
ARC
  8
0
 62
7
  6
CONTINUOUS
 10
180.6585161533
 20
100.1464996928
 40
2.0
 50
43.5924023206
 51
120.0001213205
  0
ARC
  8
0
 62
7
  6
CONTINUOUS
 10
174.1986319639
 20
91.0360129043
 40
1.0
 50
320.5948842628
 51
7.5582723771
  0
ARC
  8
CURVE
 62
40
  6
CONTINUOUS
 10
159.6463822254
 20
170.4084273595
 40
3.2
 50
92.2544307753
 51
135.0
  0
ARC
  8
CURVE
 62
40
  6
CONTINUOUS
 10
155.4037415383
 20
166.1657866724
 40
3.2
 50
135.0
 51
176.4096221093
  0
ARC
  8
CURVE
 62
40
  6
CONTINUOUS
 10
149.0163030792
 20
166.5665733127
 40
3.2
 50
315.0
 51
356.4096221093
  0
ARC
  8
CURVE
 62
40
  6
CONTINUOUS
 10
143.4685743897
 20
161.0188446232
 40
3.2
 50
273.5903778907
 51
315.0
  0
ARC
  8
CURVE
 62
40
  6
CONTINUOUS
 10
143.86936103
 20
154.6314061641
 40
3.2
 50
93.5903778907
 51
135.0
  0
ARC
  8
CURVE
 62
40
  6
CONTINUOUS
 10
139.6267203429
 20
150.388765477
 40
3.2
 50
135.0
 51
177.7455692247
  0
ARC
  8
CURVE
 62
40
  6
CONTINUOUS
 10
133.2316739606
 20
150.6405228379
 40
3.2
 50
182.2544307753
 51
357.7455692247
  0
ARC
  8
0
 62
7
  6
CONTINUOUS
 10
182.608525373
 20
100.7220731059
 40
37.563731
 50
37.5582718452
 51
46.4075976794
  0
ARC
  8
SURFACE
 62
7
  6
CONTINUOUS
 10
195.4966130111
 20
100.1574357762
 40
1.1
 50
282.1727145741
 51
30.0
  0
ARC
  8
SURFACE
 62
7
  6
CONTINUOUS
 10
187.0249948623
 20
98.4413169765
 40
1.0
 50
232.441727609
 51
279.4051156497
  0
ARC
  8
0
 62
7
  6
CONTINUOUS
 10
203.6016739606
 20
104.0034737418
 40
180.0
 50
107.827284982
 51
110.5948847648
  0
ARC
  8
SURFACE
 62
7
  6
CONTINUOUS
 10
206.0316739606
 20
106.4334737418
 40
180.0
 50
159.4051152347
 51
162.1727150179
  0
ARC
  8
0
 62
7
  6
CONTINUOUS
 10
204.3765972424
 20
106.6294795664
 40
8.5
 50
59.999927984
 51
105.9194689555
  0
ARC
  8
SURFACE
 62
7
  6
CONTINUOUS
 10
203.405668136
 20
105.65855046
 40
8.5
 50
164.0805310445
 51
210.000073123
  0
ARC
  8
0
 62
7
  6
CONTINUOUS
 10
209.8777119262
 20
114.5385346913
 40
1.1
 50
240.0
 51
347.8272854191
  0
ARC
  8
0
 62
7
  6
CONTINUOUS
 10
211.5938307259
 20
123.0101528401
 40
1.0
 50
350.5948842633
 51
37.5582723772
  0
ARC
  8
0
 62
7
  6
CONTINUOUS
 10
198.0183955231
 20
112.0167515815
 40
0.3999998906
 50
119.9999373158
 51
149.9999457138
  0
ARC
  8
0
 62
7
  6
CONTINUOUS
 10
214.0339819606
 20
135.6034737418
 40
37.563731
 50
67.5582718452
 51
76.4075976794
  0
ARC
  8
SURFACE
 62
7
  6
CONTINUOUS
 10
209.3130745965
 20
127.4266223294
 40
37.563731
 50
223.5924023206
 51
232.4417281545
  0
ARC
  8
SURFACE
 62
7
  6
CONTINUOUS
 10
212.6330111453
 20
134.1300079345
 40
2.0
 50
73.5924023205
 51
149.99999758
  0
ARC
  8
0
 62
7
  6
CONTINUOUS
 10
209.8886480096
 20
129.3766315491
 40
2.0
 50
150.0
 51
226.4075976794
  0
ARC
  8
0
 62
7
  6
CONTINUOUS
 10
212.6330111453
 20
134.1300079345
 40
2.0
 50
73.5924023206
 51
150.0001213205
  0
ARC
  8
SURFACE
 62
7
  6
CONTINUOUS
 10
218.9991347981
 20
135.8365157385
 40
1.0
 50
262.4417276092
 51
309.40511565
  0
ARC
  8
0
 62
7
  6
CONTINUOUS
 10
230.5738816249
 20
148.9418243463
 40
180.0
 50
137.827284982
 51
140.5948847648
  0
ARC
  8
SURFACE
 62
7
  6
CONTINUOUS
 10
229.5765972424
 20
150.2771599172
 40
8.5
 50
194.0805310445
 51
240.0000733704
  0
ARC
  8
SURFACE
 62
7
  6
CONTINUOUS
 10
225.4777119262
 20
141.5585272894
 40
1.1
 50
312.172714574
 51
60.0
  0
ARC
  8
SURFACE
 62
7
  6
CONTINUOUS
 10
231.4633233561
 20
152.2612660775
 40
180.0
 50
189.4051152347
 51
192.1727150179
  0
ARC
  8
SURFACE
 62
7
  6
CONTINUOUS
 10
223.808525373
 20
172.0825663777
 40
37.563731
 50
253.5924023206
 51
262.4417281545
  0
ARC
  8
0
 62
7
  6
CONTINUOUS
 10
229.9319819606
 20
151.6034737418
 40
8.5
 50
89.9999278673
 51
135.9194689555
  0
ARC
  8
0
 62
7
  6
CONTINUOUS
 10
223.3319819606
 20
174.0591106061
 40
2.0
 50
180.0
 51
256.4075976794
  0
ARC
  8
0
 62
7
  6
CONTINUOUS
 10
230.7415594635
 20
161.2034737418
 40
1.1
 50
270.0
 51
17.8272854189
  0
ARC
  8
0
 62
7
  6
CONTINUOUS
 10
227.9919528656
 20
169.3981696697
 40
1.0
 50
20.5948842637
 51
67.5582723769
  0
ARC
  8
0
 62
7
  6
CONTINUOUS
 10
221.7319817418
 20
153.0898873043
 40
0.3999998906
 50
149.9999373158
 51
179.9999457138
  0
CIRCLE
  8
0
 62
7
  6
CONTINUOUS
 10
133.2316739606
 20
176.8034737418
 40
35.0
  0
CIRCLE
  8
0
 62
40
  6
CONTINUOUS
 10
133.2316739606
 20
176.8034737418
 40
9.525
  0
ARC
  8
CURVE
 62
40
  6
CONTINUOUS
 10
143.86936103
 20
198.9755413195
 40
3.2
 50
225.0
 51
266.4096221093
  0
ARC
  8
CURVE
 62
40
  6
CONTINUOUS
 10
143.4685743897
 20
192.5881028604
 40
3.2
 50
45.0
 51
86.4096221093
  0
ARC
  8
CURVE
 62
40
  6
CONTINUOUS
 10
149.0163030792
 20
187.0403741709
 40
3.2
 50
3.5903778907
 51
45.0
  0
ARC
  8
CURVE
 62
40
  6
CONTINUOUS
 10
155.4037415383
 20
187.4411608112
 40
3.2
 50
183.5903778907
 51
225.0
  0
ARC
  8
CURVE
 62
40
  6
CONTINUOUS
 10
159.6463822254
 20
183.1985201241
 40
3.2
 50
225.0
 51
267.7455692247
  0
ARC
  8
CURVE
 62
40
  6
CONTINUOUS
 10
159.3946248645
 20
176.8034737418
 40
3.2
 50
272.2544307753
 51
87.7455692247
  0
ARC
  8
CURVE
 62
40
  6
CONTINUOUS
 10
133.2316739606
 20
202.9664246457
 40
3.2
 50
2.2544307753
 51
177.7455692247
  0
ARC
  8
CURVE
 62
40
  6
CONTINUOUS
 10
139.6267203429
 20
203.2181820066
 40
3.2
 50
182.2544307753
 51
225.0
  0
CIRCLE
  8
0
 62
7
  6
CONTINUOUS
 10
133.2316739606
 20
236.8034737418
 40
1.7320508076
  0
ARC
  8
SURFACE
 62
7
  6
CONTINUOUS
 10
137.9525813247
 20
267.3803251542
 40
37.563731
 50
343.5924023206
 51
352.4417281545
  0
ARC
  8
0
 62
7
  6
CONTINUOUS
 10
135.9760370963
 20
266.9037817418
 40
2.0
 50
270.0
 51
346.4075976794
  0
ARC
  8
0
 62
7
  6
CONTINUOUS
 10
148.8316739606
 20
274.3133592447
 40
1.1
 50
0.0
 51
107.8272854187
  0
ARC
  8
0
 62
7
  6
CONTINUOUS
 10
140.6369780328
 20
271.5637526468
 40
1.0
 50
110.5948842645
 51
157.5582723769
  0
ARC
  8
0
 62
7
  6
CONTINUOUS
 10
180.6585161533
 20
253.4604477908
 40
2.0
 50
240.0
 51
316.4075976794
  0
ARC
  8
0
 62
7
  6
CONTINUOUS
 10
156.9452603981
 20
265.303781523
 40
0.3999998906
 50
239.9999373157
 51
269.9999457138
  0
ARC
  8
0
 62
7
  6
CONTINUOUS
 10
161.0933233561
 20
274.1456814061
 40
180.0
 50
227.827284982
 51
230.5948847648
  0
ARC
  8
SURFACE
 62
7
  6
CONTINUOUS
 10
157.7738816249
 20
275.0351231373
 40
180.0
 50
279.4051152347
 51
282.1727150179
  0
ARC
  8
0
 62
7
  6
CONTINUOUS
 10
158.4316739606
 20
273.5037817418
 40
8.5
 50
179.9999278673
 51
225.9194689555
  0
ARC
  8
SURFACE
 62
7
  6
CONTINUOUS
 10
159.7579877852
 20
273.1483970236
 40
8.5
 50
284.0805310445
 51
330.0000733704
  0
ARC
  8
0
 62
7
  6
CONTINUOUS
 10
174.4316739606
 20
257.6057817418
 40
37.563731
 50
157.5582718452
 51
166.4075976794
  0
ARC
  8
SURFACE
 62
7
  6
CONTINUOUS
 10
175.9051397679
 20
256.2048109264
 40
2.0
 50
163.5924023205
 51
239.99999758
  0
ARC
  8
0
 62
7
  6
CONTINUOUS
 10
175.9051397679
 20
256.2048109264
 40
2.0
 50
163.5924023206
 51
240.0001213205
  0
ARC
  8
SURFACE
 62
7
  6
CONTINUOUS
 10
174.1986319639
 20
262.5709345793
 40
1.0
 50
352.4417276092
 51
39.4051156511
  0
ARC
  8
SURFACE
 62
7
  6
CONTINUOUS
 10
168.476620413
 20
269.0495117074
 40
1.1
 50
42.1727145736
 51
150.0
  0
ARC
  8
SURFACE
 62
7
  6
CONTINUOUS
 10
214.0339819606
 20
218.0034737418
 40
37.563731
 50
283.5924023206
 51
292.4417281545
  0
ARC
  8
SURFACE
 62
7
  6
CONTINUOUS
 10
209.8886480096
 20
224.2303159345
 40
2.0
 50
133.5924023205
 51
209.99999758
  0
ARC
  8
0
 62
7
  6
CONTINUOUS
 10
212.6330111453
 20
219.4769395491
 40
2.0
 50
210.0
 51
286.4075976794
  0
ARC
  8
0
 62
7
  6
CONTINUOUS
 10
209.8886480096
 20
224.2303159345
 40
2.0
 50
133.5924023206
 51
210.0001213205
  0
ARC
  8
0
 62
7
  6
CONTINUOUS
 10
218.9991347981
 20
217.7704317451
 40
1.0
 50
50.5948842639
 51
97.5582723771
  0
ARC
  8
0
 62
7
  6
CONTINUOUS
 10
231.4633233561
 20
201.3456814061
 40
180.0
 50
167.827284982
 51
170.5948847648
  0
ARC
  8
0
 62
7
  6
CONTINUOUS
 10
223.808525373
 20
181.5243811059
 40
37.563731
 50
97.5582718452
 51
106.4075976794
  0
ARC
  8
SURFACE
 62
7
  6
CONTINUOUS
 10
223.3319819606
 20
179.5478368775
 40
2.0
 50
103.5924023205
 51
179.99999758
  0
ARC
  8
0
 62
7
  6
CONTINUOUS
 10
223.3319819606
 20
179.5478368775
 40
2.0
 50
103.5924023206
 51
180.0001213205
  0
ARC
  8
SURFACE
 62
7
  6
CONTINUOUS
 10
230.7415594635
 20
192.4034737418
 40
1.1
 50
342.1727145738
 51
90.0
  0
ARC
  8
SURFACE
 62
7
  6
CONTINUOUS
 10
227.9919528656
 20
184.2087778139
 40
1.0
 50
292.4417276094
 51
339.4051156503
  0
ARC
  8
0
 62
7
  6
CONTINUOUS
 10
221.7319819606
 20
200.5170596103
 40
0.3999999525
 50
179.9999727831
 51
209.9999764294
  0
ARC
  8
SURFACE
 62
7
  6
CONTINUOUS
 10
230.5738816249
 20
204.6651231373
 40
180.0
 50
219.4051152347
 51
222.1727150179
  0
ARC
  8
0
 62
7
  6
CONTINUOUS
 10
229.5765972424
 20
203.3297875664
 40
8.5
 50
119.9999277506
 51
165.9194689555
  0
ARC
  8
SURFACE
 62
7
  6
CONTINUOUS
 10
229.9319819606
 20
202.0034737418
 40
8.5
 50
224.0805310445
 51
270.0000732467
  0
ARC
  8
0
 62
7
  6
CONTINUOUS
 10
225.4777119262
 20
212.0484201942
 40
1.1
 50
300.0
 51
47.8272854188
  0
ARC
  8
SURFACE
 62
7
  6
CONTINUOUS
 10
182.608525373
 20
252.8848743777
 40
37.563731
 50
313.5924023206
 51
322.4417281549
  0
ARC
  8
0
 62
7
  6
CONTINUOUS
 10
195.4966130111
 20
253.4495117074
 40
1.1
 50
330.0
 51
77.8272854187
  0
ARC
  8
0
 62
7
  6
CONTINUOUS
 10
187.0249948623
 20
255.1656305071
 40
1.0
 50
80.5948842642
 51
127.5582723772
  0
ARC
  8
0
 62
7
  6
CONTINUOUS
 10
209.3130745965
 20
226.1803251542
 40
37.563731
 50
127.5582718452
 51
136.4075976794
  0
ARC
  8
SURFACE
 62
7
  6
CONTINUOUS
 10
209.8777119262
 20
239.0684127923
 40
1.1
 50
12.1727145809
 51
120.0
  0
ARC
  8
SURFACE
 62
7
  6
CONTINUOUS
 10
211.5938307259
 20
230.5967946435
 40
1.0
 50
322.4417276238
 51
9.4051157342
  0
ARC
  8
0
 62
7
  6
CONTINUOUS
 10
206.0316739606
 20
247.1734737418
 40
180.0
 50
197.827284982
 51
200.5948847648
  0
ARC
  8
SURFACE
 62
7
  6
CONTINUOUS
 10
203.6016739606
 20
249.6034737418
 40
180.0
 50
249.4051152347
 51
252.1727150179
  0
ARC
  8
0
 62
7
  6
CONTINUOUS
 10
203.405668136
 20
247.9483970236
 40
8.5
 50
149.999927984
 51
195.9194689555
  0
ARC
  8
SURFACE
 62
7
  6
CONTINUOUS
 10
204.3765972424
 20
246.9774679172
 40
8.5
 50
254.0805310445
 51
300.0000720191
  0
ARC
  8
0
 62
7
  6
CONTINUOUS
 10
198.0183961209
 20
241.5901953043
 40
0.3999998906
 50
209.9999373158
 51
239.9999457138
  0
ARC
  8
SURFACE
 62
7
  6
CONTINUOUS
 10
297.1542669584
 20
217.8034737418
 40
6.0
 50
270.0
 51
270.955672405
  0
ARC
  8
SURFACE
 62
7
  6
CONTINUOUS
 10
297.1542669584
 20
135.8034737418
 40
6.0
 50
89.044327595
 51
90.0
  0
ARC
  8
0
 62
7
  6
CONTINUOUS
 10
315.1542669584
 20
135.8034737418
 40
6.0
 50
90.0
 51
90.955672405
  0
ARC
  8
0
 62
7
  6
CONTINUOUS
 10
315.1542669584
 20
217.8034737418
 40
6.0
 50
269.044327595
 51
270.0
  0
ARC
  8
SURFACE
 62
7
  6
CONTINUOUS
 10
288.0042669584
 20
208.8034737418
 40
3.0
 50
90.0
 51
180.0000000017
  0
ARC
  8
SURFACE
 62
7
  6
CONTINUOUS
 10
288.0042669584
 20
144.8034737418
 40
3.0
 50
179.9999999983
 51
270.0
  0
ARC
  8
0
 62
7
  6
CONTINUOUS
 10
324.3042669584
 20
144.8034737418
 40
3.0
 50
270.0
 51
360.0
  0
ARC
  8
0
 62
7
  6
CONTINUOUS
 10
324.3042669584
 20
208.8034737418
 40
3.0
 50
0.0
 51
90.0
  0
ENDSEC
  0
EOF
