  0
SECTION
  2
HEADER
  9
$EXTMAX
 10
420.0
 20
297.0
 30
0.0
  9
$EXTMIN
 10
0.0
 20
0.0
 30
0.0
  9
$LIMMIN
 10
0.0
 20
0.0
  9
$LIMMAX
 10
420.0
 20
297.0
  9
$VIEWCTR
 10
210.0
 20
148.5
  9
$VIEWSIZE
 40
297.0
  9
$CLAYER
  8
0
  9
$LTSCALE
 40
23.1
  9
$CELTYPE
  6
BYLAYER
  9
$DIMSCALE
 40
1.0
  9
$DIMASZ
 40
3.5
  9
$DIMEXO
 40
2.625
  9
$DIMDLI
 40
15.96
  9
$DIMEXE
 40
7.56
  9
$DIMCEN
 40
3.78
  9
$DIMLFAC
 40
1.0
  9
$DIMBLK
  1
_FILLED
  9
$DIMTXT
 40
3.5
  9
$PDMODE
 70
3
  9
$PDSIZE
 40
0.3125
  9
$TILEMODE
 70
1
  0
ENDSEC
  0
SECTION
  2
TABLES
  0
TABLE
  2
LTYPE
 70
6
  0
LTYPE
  2
BYBLOCK
 70
0
  3

 72
65
 73
0
 40
0.0
  0
LTYPE
  2
BYLAYER
 70
0
  3

 72
65
 73
0
 40
0.0
  0
LTYPE
  2
CONTINUOUS
 70
64
  3
Solid line
 72
65
 73
0
 40
0.0
  0
LTYPE
  2
CENTER
 70
64
  3
____ _ ____ _ ____ _ ____ _ ____ _ ____ _ ____
 72
65
 73
4
 40
0.6
 49
0.375
 49
-0.075
 49
0.075
 49
-0.075
  0
LTYPE
  2
HIDDEN
 70
64
  3
- - - - - - - - - - - - - - - - - - - -
 72
65
 73
2
 40
0.2
 49
0.1
 49
-0.1
  0
LTYPE
  2
PHANTOM
 70
64
  3
_____ _ _ _____ _ _ _____ _ _ _____
 72
65
 73
6
 40
0.8
 49
0.45
 49
-0.05
 49
0.1
 49
-0.05
 49
0.1
 49
-0.05
  0
LTYPE
  2
DOT
 70
64
  3
. . . . . . . . . . . . . . . . . . . .
 72
65
 73
2
 40
0.2
 49
0.1
 49
-0.1
  0
LTYPE
  2
DASHED
 70
64
  3
- - - - - - - - - - - - - - - - - - - -
 72
65
 73
2
 40
0.2
 49
0.1
 49
-0.1
  0
ENDTAB
  0
TABLE
  2
LAYER
 70
36
  0
LAYER
  2
0
 70
0
 62
7
  6
CONTINUOUS
  0
LAYER
  2
DEFAULT_1
 70
0
 62
7
  6
CENTER
  0
LAYER
  2
DEFAULT_2
 70
0
 62
8
  6
HIDDEN
  0
LAYER
  2
DEFAULT_3
 70
0
 62
7
  6
PHANTOM
  0
LAYER
  2
CURVE
 70
0
 62
7
  6
CONTINUOUS
  0
LAYER
  2
SURFACE
 70
0
 62
7
  6
CONTINUOUS
  0
ENDTAB
  0
TABLE
  2
STYLE
 70
1
  0
STYLE
  2
STANDARD
 70
0
 40
0.0
 41
0.8
 50
0.0
 71
0
 42
0.2
  3
txt
  4

  0
STYLE
  2
TEXTSTYLE_1
 70
0
 40
0.0
 41
0.8
 50
0.0
 71
0
 42
0.2
  3
gdt
  4

  0
STYLE
  2
TEXTSTYLE_2
 70
0
 40
0.0
 41
0.6
 50
0.0
 71
0
 42
0.2
  3
txt
  4

  0
STYLE
  2
TEXTSTYLE_3
 70
0
 40
0.0
 41
1.0
 50
0.0
 71
0
 42
0.2
  3
ftb_____.ttf
  4

  0
STYLE
  2
TEXTSTYLE_4
 70
0
 40
0.0
 41
1.0
 50
0.0
 71
0
 42
0.2
  3
fti_____.ttf
  4

  0
STYLE
  2
TEXTSTYLE_5
 70
0
 40
0.0
 41
1.0
 50
0.0
 71
0
 42
0.2
  3
frutiger light.ttf
  4

  0
STYLE
  2
TEXTSTYLE_6
 70
0
 40
0.0
 41
0.7
 50
0.0
 71
0
 42
0.2
  3
txt
  4

  0
STYLE
  2
TEXTSTYLE_7
 70
0
 40
0.0
 41
0.8
 50
0.0
 71
0
 42
0.2
  3
txt
  4

  0
ENDTAB
  0
ENDSEC
  0
SECTION
  2
BLOCKS
  0
BLOCK
  8
0
 62
2
  6
CONTINUOUS
  2
SYMBOL_5_BL1
 70
64
 10
382.7840918555
 20
35.5067593403
  0
TEXT
  8
0
 62
7
  6
CONTINUOUS
 10
373.842376864
 20
30.5995157174
  7
TEXTSTYLE_4
 40
1.0655737705
  1
The brand for plastic modular belts and chains
 41
1.0
 72
0
  0
LINE
  8
0
 62
7
  6
CONTINUOUS
 10
358.7621602445
 20
36.0805298321
 11
358.7621602445
 21
33.9493822911
  0
LINE
  8
0
 62
7
  6
CONTINUOUS
 10
359.0512227376
 20
30.9584509954
 11
359.0512227376
 21
31.0552420547
  0
LINE
  8
0
 62
7
  6
CONTINUOUS
 10
358.7621602445
 20
31.0229783683
 11
358.8199727462
 21
30.8293962497
  0
LINE
  8
0
 62
7
  6
CONTINUOUS
 10
360.1556028675
 20
33.867415078
 11
360.1556028675
 21
36.0805298321
  0
LINE
  8
0
 62
7
  6
CONTINUOUS
 10
361.0746601894
 20
32.0231527829
 11
361.0746601894
 21
30.5067593403
  0
LINE
  8
0
 62
7
  6
CONTINUOUS
 10
361.3637227445
 20
30.5067593403
 11
361.3637227445
 21
31.2488242184
  0
LINE
  8
0
 62
7
  6
CONTINUOUS
 10
361.3637227445
 20
31.3778789641
 11
361.3637227445
 21
32.0231527829
  0
LINE
  8
0
 62
7
  6
CONTINUOUS
 10
358.8199727462
 20
31.216560532
 11
358.7621602445
 21
31.0229783683
  0
LINE
  8
0
 62
7
  6
CONTINUOUS
 10
359.1668477307
 20
30.7971325633
 11
359.0512227376
 21
30.9584509954
  0
LINE
  8
0
 62
7
  6
CONTINUOUS
 10
360.2652852997
 20
31.3133515913
 11
360.3230977445
 21
31.216560532
  0
LINE
  8
0
 62
7
  6
CONTINUOUS
 10
360.6121602997
 20
31.216560532
 11
360.5543476894
 21
31.3456152777
  0
LINE
  8
0
 62
7
  6
CONTINUOUS
 10
362.0408487691
 20
36.0805298321
 11
362.0408487691
 21
34.2772511436
  0
LINE
  8
0
 62
7
  6
CONTINUOUS
 10
362.0408487691
 20
32.9657757338
 11
362.0408487691
 21
32.3100380288
  0
LINE
  8
0
 62
7
  6
CONTINUOUS
 10
362.4043477445
 20
31.1520331591
 11
362.4043477445
 21
30.5067593403
  0
LINE
  8
0
 62
7
  6
CONTINUOUS
 10
362.6934101343
 20
30.5067593403
 11
362.6934101343
 21
31.1520331591
  0
LINE
  8
0
 62
7
  6
CONTINUOUS
 10
359.0512227376
 20
31.0552420547
 11
359.1090352445
 21
31.1842968456
  0
LINE
  8
0
 62
7
  6
CONTINUOUS
 10
358.8199727462
 20
30.8293962497
 11
358.9355977445
 21
30.7003414814
  0
LINE
  8
0
 62
7
  6
CONTINUOUS
 10
362.3465351343
 20
31.2810879048
 11
362.4043477445
 21
31.1520331591
  0
LINE
  8
0
 62
7
  6
CONTINUOUS
 10
363.1559103548
 20
30.7971325633
 11
363.2137226343
 21
30.668077795
  0
LINE
  8
0
 62
7
  6
CONTINUOUS
 10
362.6934101343
 20
31.1520331591
 11
362.6355978548
 21
31.3133515913
  0
LINE
  8
0
 62
7
  6
CONTINUOUS
 10
363.1559103548
 20
31.3456152777
 11
363.1559103548
 21
31.2810879048
  0
LINE
  8
0
 62
7
  6
CONTINUOUS
 10
363.1559103548
 20
30.8939236226
 11
363.1559103548
 21
30.7971325633
  0
LINE
  8
0
 62
7
  6
CONTINUOUS
 10
363.4342913921
 20
32.3100380288
 11
363.4342913921
 21
36.0805298321
  0
LINE
  8
0
 62
7
  6
CONTINUOUS
 10
363.4449727445
 20
30.7648688543
 11
363.4449727445
 21
30.8293962497
  0
LINE
  8
0
 62
7
  6
CONTINUOUS
 10
363.7621602445
 20
36.0805298321
 11
363.7621602445
 21
32.3100380288
  0
LINE
  8
0
 62
7
  6
CONTINUOUS
 10
360.5543476894
 20
30.7003414814
 11
360.6121602997
 21
30.8293962497
  0
LINE
  8
0
 62
7
  6
CONTINUOUS
 10
364.9480979651
 20
30.6035504109
 11
364.890285024
 21
30.7648688543
  0
LINE
  8
0
 62
7
  6
CONTINUOUS
 10
364.6012229651
 20
31.2810879048
 11
364.6012229651
 21
31.1842968456
  0
LINE
  8
0
 62
7
  6
CONTINUOUS
 10
364.6012229651
 20
31.0552420547
 11
364.6012229651
 21
30.8616599362
  0
LINE
  8
0
 62
7
  6
CONTINUOUS
 10
364.890285024
 20
30.7648688543
 11
364.890285024
 21
31.2810879048
  0
LINE
  8
0
 62
7
  6
CONTINUOUS
 10
365.1556028675
 20
32.3100380288
 11
365.1556028675
 21
34.1133167174
  0
LINE
  8
0
 62
7
  6
CONTINUOUS
 10
365.1556028675
 20
35.4247921272
 11
365.1556028675
 21
36.0805298321
  0
LINE
  8
0
 62
7
  6
CONTINUOUS
 10
365.4684104651
 20
32.0231527829
 11
365.4684104651
 21
31.8618343508
  0
LINE
  8
0
 62
7
  6
CONTINUOUS
 10
365.4684104651
 20
31.5391973962
 11
365.4684104651
 21
30.5067593403
  0
LINE
  8
0
 62
7
  6
CONTINUOUS
 10
365.757472524
 20
30.5067593403
 11
365.757472524
 21
31.5391973962
  0
LINE
  8
0
 62
7
  6
CONTINUOUS
 10
365.757472524
 20
31.8618343508
 11
365.757472524
 21
32.0231527829
  0
LINE
  8
0
 62
7
  6
CONTINUOUS
 10
360.3230977445
 20
30.8293962497
 11
360.2652852997
 21
30.7326051679
  0
LINE
  8
0
 62
7
  6
CONTINUOUS
 10
362.6355978548
 20
31.3133515913
 11
362.5777852445
 21
31.3778789641
  0
LINE
  8
0
 62
7
  6
CONTINUOUS
 10
363.5027853548
 20
30.7003414814
 11
363.4449727445
 21
30.7648688543
  0
LINE
  8
0
 62
7
  6
CONTINUOUS
 10
364.6590352445
 20
30.5712867188
 11
364.716847524
 21
30.5067593403
  0
LINE
  8
0
 62
7
  6
CONTINUOUS
 10
364.6012229651
 20
30.668077795
 11
364.6590352445
 21
30.5712867188
  0
LINE
  8
0
 62
7
  6
CONTINUOUS
 10
365.0059102445
 20
30.5067593403
 11
364.9480979651
 21
30.6035504109
  0
LINE
  8
0
 62
7
  6
CONTINUOUS
 10
364.890285024
 20
31.2810879048
 11
364.8324727445
 21
31.3778789641
  0
LINE
  8
0
 62
7
  6
CONTINUOUS
 10
366.2199727445
 20
31.5391973962
 11
366.2199727445
 21
30.5067593403
  0
LINE
  8
0
 62
7
  6
CONTINUOUS
 10
366.5090354651
 20
30.5067593403
 11
366.5090354651
 21
31.2488242184
  0
LINE
  8
0
 62
7
  6
CONTINUOUS
 10
366.5090354651
 20
31.3778789641
 11
366.5090354651
 21
31.5391973962
  0
LINE
  8
0
 62
7
  6
CONTINUOUS
 10
367.0408487691
 20
34.5231527829
 11
367.0408487691
 21
32.3100380288
  0
LINE
  8
0
 62
7
  6
CONTINUOUS
 10
358.9355977445
 20
31.3456152777
 11
358.8199727462
 21
31.216560532
  0
LINE
  8
0
 62
7
  6
CONTINUOUS
 10
359.1090352445
 20
31.1842968456
 11
359.1668477307
 21
31.2488242184
  0
LINE
  8
0
 62
7
  6
CONTINUOUS
 10
358.9355977445
 20
30.7003414814
 11
359.0512227376
 21
30.6358140973
  0
LINE
  8
0
 62
7
  6
CONTINUOUS
 10
359.3402852307
 20
30.7003414814
 11
359.1668477307
 21
30.7971325633
  0
LINE
  8
0
 62
7
  6
CONTINUOUS
 10
364.543410024
 20
31.3456152777
 11
364.6012229651
 21
31.2810879048
  0
LINE
  8
0
 62
7
  6
CONTINUOUS
 10
367.491847524
 20
31.2810879048
 11
367.5496604651
 21
31.1197694727
  0
LINE
  8
0
 62
7
  6
CONTINUOUS
 10
367.838722524
 20
31.1197694727
 11
367.7809102445
 21
31.2810879048
  0
LINE
  8
0
 62
7
  6
CONTINUOUS
 10
367.5496604651
 20
31.1197694727
 11
367.5496604651
 21
30.5067593403
  0
LINE
  8
0
 62
7
  6
CONTINUOUS
 10
367.838722524
 20
30.5067593403
 11
367.838722524
 21
31.1197694727
  0
LINE
  8
0
 62
7
  6
CONTINUOUS
 10
368.3012227445
 20
31.3456152777
 11
368.3012227445
 21
31.2810879048
  0
LINE
  8
0
 62
7
  6
CONTINUOUS
 10
368.4342913921
 20
32.3100380288
 11
368.4342913921
 21
34.4411855698
  0
LINE
  8
0
 62
7
  6
CONTINUOUS
 10
368.7621602445
 20
36.0805298321
 11
368.7621602445
 21
32.3100380288
  0
LINE
  8
0
 62
7
  6
CONTINUOUS
 10
363.4449727445
 20
30.8293962497
 11
363.5027853548
 21
30.926187309
  0
LINE
  8
0
 62
7
  6
CONTINUOUS
 10
359.0512227376
 20
30.6358140973
 11
359.2246602583
 21
30.5712867188
  0
LINE
  8
0
 62
7
  6
CONTINUOUS
 10
360.5543476894
 20
31.3456152777
 11
360.3809101894
 21
31.4424063369
  0
LINE
  8
0
 62
7
  6
CONTINUOUS
 10
363.2137226343
 20
30.668077795
 11
363.3871601343
 21
30.5712867188
  0
LINE
  8
0
 62
7
  6
CONTINUOUS
 10
362.2309102445
 20
31.3456152777
 11
362.3465351343
 21
31.2810879048
  0
LINE
  8
0
 62
7
  6
CONTINUOUS
 10
362.5777852445
 20
31.3778789641
 11
362.4621603548
 21
31.4424063369
  0
LINE
  8
0
 62
7
  6
CONTINUOUS
 10
368.3012227445
 20
30.7648688543
 11
368.4168479651
 21
30.6358140973
  0
LINE
  8
0
 62
7
  6
CONTINUOUS
 10
368.6480977445
 20
30.7003414814
 11
368.5902854651
 21
30.7648688543
  0
LINE
  8
0
 62
7
  6
CONTINUOUS
 10
368.3012227445
 20
31.2810879048
 11
368.4168479651
 21
31.1520331591
  0
LINE
  8
0
 62
7
  6
CONTINUOUS
 10
367.7809102445
 20
31.2810879048
 11
367.7230979651
 21
31.3778789641
  0
LINE
  8
0
 62
7
  6
CONTINUOUS
 10
370.1512223035
 20
30.7003414814
 11
370.1512223035
 21
30.7648688543
  0
LINE
  8
0
 62
7
  6
CONTINUOUS
 10
370.1556028675
 20
32.3100380288
 11
370.1556028675
 21
36.0805298321
  0
LINE
  8
0
 62
7
  6
CONTINUOUS
 10
363.2137226343
 20
31.4101426505
 11
363.1559103548
 21
31.3456152777
  0
LINE
  8
0
 62
7
  6
CONTINUOUS
 10
360.091847717
 20
31.3778789641
 11
360.2652852997
 21
31.3133515913
  0
LINE
  8
0
 62
7
  6
CONTINUOUS
 10
364.8324727445
 20
31.3778789641
 11
364.716847524
 21
31.4424063369
  0
LINE
  8
0
 62
7
  6
CONTINUOUS
 10
368.6480977445
 20
31.216560532
 11
368.5902854651
 21
31.2810879048
  0
LINE
  8
0
 62
7
  6
CONTINUOUS
 10
369.8043479651
 20
30.8293962497
 11
369.8621602445
 21
30.7648688543
  0
LINE
  8
0
 62
7
  6
CONTINUOUS
 10
370.1512223035
 20
30.7648688543
 11
370.0355977445
 21
30.8939236226
  0
LINE
  8
0
 62
7
  6
CONTINUOUS
 10
369.8043479651
 20
31.3456152777
 11
369.8621602445
 21
31.2810879048
  0
LINE
  8
0
 62
7
  6
CONTINUOUS
 10
370.1512223035
 20
31.2810879048
 11
370.0355977445
 21
31.4101426505
  0
LINE
  8
0
 62
7
  6
CONTINUOUS
 10
363.4449727445
 20
31.2810879048
 11
363.5027853548
 21
31.3456152777
  0
LINE
  8
0
 62
7
  6
CONTINUOUS
 10
363.2715352445
 20
31.0229783683
 11
363.1559103548
 21
30.8939236226
  0
LINE
  8
0
 62
7
  6
CONTINUOUS
 10
364.6012229651
 20
30.8616599362
 11
364.543410024
 21
30.7971325633
  0
LINE
  8
0
 62
7
  6
CONTINUOUS
 10
364.543410024
 20
30.6035504109
 11
364.6012229651
 21
30.668077795
  0
LINE
  8
0
 62
7
  6
CONTINUOUS
 10
363.3871601343
 20
30.5712867188
 11
363.5027853548
 21
30.5390230296
  0
LINE
  8
0
 62
7
  6
CONTINUOUS
 10
360.3809101894
 20
31.4424063369
 11
360.1496602445
 21
31.5069337098
  0
LINE
  8
0
 62
7
  6
CONTINUOUS
 10
363.7340351343
 20
30.6358140973
 11
363.5027853548
 21
30.7003414814
  0
LINE
  8
0
 62
7
  6
CONTINUOUS
 10
362.4621603548
 20
31.4424063369
 11
362.2887228548
 21
31.5069337098
  0
LINE
  8
0
 62
7
  6
CONTINUOUS
 10
364.716847524
 20
31.4424063369
 11
364.543410024
 21
31.5069337098
  0
LINE
  8
0
 62
7
  6
CONTINUOUS
 10
367.3762229651
 20
31.3456152777
 11
367.491847524
 21
31.2810879048
  0
LINE
  8
0
 62
7
  6
CONTINUOUS
 10
367.7230979651
 20
31.3778789641
 11
367.6074727445
 21
31.4424063369
  0
LINE
  8
0
 62
7
  6
CONTINUOUS
 10
359.2246602583
 20
30.5712867188
 11
359.3980977583
 21
30.5390230296
  0
LINE
  8
0
 62
7
  6
CONTINUOUS
 10
359.6871602721
 20
30.6358140973
 11
359.3402852307
 21
30.7003414814
  0
LINE
  8
0
 62
7
  6
CONTINUOUS
 10
362.1152853548
 20
31.3778789641
 11
362.2309102445
 21
31.3456152777
  0
LINE
  8
0
 62
7
  6
CONTINUOUS
 10
364.4277854651
 20
31.3778789641
 11
364.543410024
 21
31.3456152777
  0
LINE
  8
0
 62
7
  6
CONTINUOUS
 10
368.7637229651
 20
30.668077795
 11
368.6480977445
 21
30.7003414814
  0
LINE
  8
0
 62
7
  6
CONTINUOUS
 10
367.2605977445
 20
31.3778789641
 11
367.3762229651
 21
31.3456152777
  0
LINE
  8
0
 62
7
  6
CONTINUOUS
 10
368.4168479651
 20
30.6358140973
 11
368.5902854651
 21
30.5712867188
  0
LINE
  8
0
 62
7
  6
CONTINUOUS
 10
367.6074727445
 20
31.4424063369
 11
367.4340352445
 21
31.5069337098
  0
LINE
  8
0
 62
7
  6
CONTINUOUS
 10
368.8215352445
 20
31.1520331591
 11
368.6480977445
 21
31.216560532
  0
LINE
  8
0
 62
7
  6
CONTINUOUS
 10
369.6309104651
 20
30.8939236226
 11
369.8043479651
 21
30.8293962497
  0
LINE
  8
0
 62
7
  6
CONTINUOUS
 10
370.0355977445
 20
31.4101426505
 11
369.8621602445
 21
31.4746700234
  0
LINE
  8
0
 62
7
  6
CONTINUOUS
 10
368.4168479651
 20
31.1520331591
 11
368.6480977445
 21
31.0552420547
  0
LINE
  8
0
 62
7
  6
CONTINUOUS
 10
370.0355977445
 20
30.8939236226
 11
369.8043479651
 21
30.9907146818
  0
LINE
  8
0
 62
7
  6
CONTINUOUS
 10
368.5902854651
 20
31.2810879048
 11
368.6480977445
 21
31.3456152777
  0
LINE
  8
0
 62
7
  6
CONTINUOUS
 10
359.0512227376
 20
31.4101426505
 11
358.9355977445
 21
31.3456152777
  0
LINE
  8
0
 62
7
  6
CONTINUOUS
 10
359.1668477307
 20
31.2488242184
 11
359.3402852307
 21
31.3456152777
  0
LINE
  8
0
 62
7
  6
CONTINUOUS
 10
361.4793477997
 20
31.4424063369
 11
361.3637227445
 21
31.3778789641
  0
LINE
  8
0
 62
7
  6
CONTINUOUS
 10
361.3637227445
 20
31.2488242184
 11
361.4793477997
 21
31.3133515913
  0
LINE
  8
0
 62
7
  6
CONTINUOUS
 10
360.3809101894
 20
30.6035504109
 11
360.5543476894
 21
30.7003414814
  0
LINE
  8
0
 62
7
  6
CONTINUOUS
 10
359.3980977583
 20
30.5390230296
 11
359.744972717
 21
30.5067593403
  0
LINE
  8
0
 62
7
  6
CONTINUOUS
 10
363.5027853548
 20
30.5390230296
 11
363.7340351343
 21
30.5067593403
  0
LINE
  8
0
 62
7
  6
CONTINUOUS
 10
361.8840352445
 20
31.4101426505
 11
362.1152853548
 21
31.3778789641
  0
LINE
  8
0
 62
7
  6
CONTINUOUS
 10
364.1965353548
 20
31.4101426505
 11
364.4277854651
 21
31.3778789641
  0
LINE
  8
0
 62
7
  6
CONTINUOUS
 10
368.6480977445
 20
31.0552420547
 11
369.6309104651
 21
30.8939236226
  0
LINE
  8
0
 62
7
  6
CONTINUOUS
 10
369.8043479651
 20
30.9907146818
 11
368.8215352445
 21
31.1520331591
  0
LINE
  8
0
 62
7
  6
CONTINUOUS
 10
362.2887228548
 20
31.5069337098
 11
362.1152853548
 21
31.5391973962
  0
LINE
  8
0
 62
7
  6
CONTINUOUS
 10
368.5902854651
 20
30.5712867188
 11
368.7637229651
 21
30.5390230296
  0
LINE
  8
0
 62
7
  6
CONTINUOUS
 10
367.4340352445
 20
31.5069337098
 11
367.2605977445
 21
31.5391973962
  0
LINE
  8
0
 62
7
  6
CONTINUOUS
 10
369.6887227445
 20
31.3778789641
 11
369.8043479651
 21
31.3456152777
  0
LINE
  8
0
 62
7
  6
CONTINUOUS
 10
369.8621602445
 20
30.7648688543
 11
369.8043479651
 21
30.7003414814
  0
LINE
  8
0
 62
7
  6
CONTINUOUS
 10
368.4168479651
 20
31.4424063369
 11
368.3012227445
 21
31.3456152777
  0
LINE
  8
0
 62
7
  6
CONTINUOUS
 10
363.3293478548
 20
31.4746700234
 11
363.2137226343
 21
31.4101426505
  0
LINE
  8
0
 62
7
  6
CONTINUOUS
 10
363.3871601343
 20
31.0875057863
 11
363.2715352445
 21
31.0229783683
  0
LINE
  8
0
 62
7
  6
CONTINUOUS
 10
363.5027853548
 20
30.926187309
 11
363.6184102445
 21
30.9907146818
  0
LINE
  8
0
 62
7
  6
CONTINUOUS
 10
361.0746601894
 20
30.5067593403
 11
361.3637227445
 21
30.5067593403
  0
LINE
  8
0
 62
7
  6
CONTINUOUS
 10
362.4043477445
 20
30.5067593403
 11
362.6934101343
 21
30.5067593403
  0
LINE
  8
0
 62
7
  6
CONTINUOUS
 10
363.7340351343
 20
30.5067593403
 11
364.0809101343
 21
30.5067593403
  0
LINE
  8
0
 62
7
  6
CONTINUOUS
 10
364.716847524
 20
30.5067593403
 11
365.0059102445
 21
30.5067593403
  0
LINE
  8
0
 62
7
  6
CONTINUOUS
 10
365.4684104651
 20
30.5067593403
 11
365.757472524
 21
30.5067593403
  0
LINE
  8
0
 62
7
  6
CONTINUOUS
 10
366.2199727445
 20
30.5067593403
 11
366.5090354651
 21
30.5067593403
  0
LINE
  8
0
 62
7
  6
CONTINUOUS
 10
367.5496604651
 20
30.5067593403
 11
367.838722524
 21
30.5067593403
  0
LINE
  8
0
 62
7
  6
CONTINUOUS
 10
369.1105979651
 20
30.5067593403
 11
369.4574729651
 21
30.5067593403
  0
LINE
  8
0
 62
7
  6
CONTINUOUS
 10
369.4574729651
 20
30.6358140973
 11
369.1105979651
 21
30.6358140973
  0
LINE
  8
0
 62
7
  6
CONTINUOUS
 10
364.0809101343
 20
30.6358140973
 11
363.7340351343
 21
30.6358140973
  0
LINE
  8
0
 62
7
  6
CONTINUOUS
 10
368.5902854651
 20
30.7648688543
 11
368.3012227445
 21
30.7648688543
  0
LINE
  8
0
 62
7
  6
CONTINUOUS
 10
360.6121602997
 20
30.8293962497
 11
360.3230977445
 21
30.8293962497
  0
LINE
  8
0
 62
7
  6
CONTINUOUS
 10
359.6871602721
 20
31.4101426505
 11
360.091847717
 21
31.3778789641
  0
LINE
  8
0
 62
7
  6
CONTINUOUS
 10
360.1496602445
 20
31.5069337098
 11
359.744972717
 21
31.5391973962
  0
LINE
  8
0
 62
7
  6
CONTINUOUS
 10
368.7637229651
 20
30.5390230296
 11
369.1105979651
 21
30.5067593403
  0
LINE
  8
0
 62
7
  6
CONTINUOUS
 10
369.1105979651
 20
30.6358140973
 11
368.7637229651
 21
30.668077795
  0
LINE
  8
0
 62
7
  6
CONTINUOUS
 10
364.543410024
 20
31.5069337098
 11
364.1965353548
 21
31.5391973962
  0
LINE
  8
0
 62
7
  6
CONTINUOUS
 10
369.3418477445
 20
31.4101426505
 11
369.6887227445
 21
31.3778789641
  0
LINE
  8
0
 62
7
  6
CONTINUOUS
 10
369.6887227445
 20
31.5069337098
 11
369.3418477445
 21
31.5391973962
  0
LINE
  8
0
 62
7
  6
CONTINUOUS
 10
367.0293479651
 20
31.4101426505
 11
367.2605977445
 21
31.3778789641
  0
LINE
  8
0
 62
7
  6
CONTINUOUS
 10
369.8621602445
 20
31.4746700234
 11
369.6887227445
 21
31.5069337098
  0
LINE
  8
0
 62
7
  6
CONTINUOUS
 10
370.0355977445
 20
30.6035504109
 11
370.1512223035
 21
30.7003414814
  0
LINE
  8
0
 62
7
  6
CONTINUOUS
 10
364.543410024
 20
30.7971325633
 11
364.369972524
 21
30.7003414814
  0
LINE
  8
0
 62
7
  6
CONTINUOUS
 10
366.624660024
 20
31.4424063369
 11
366.5090354651
 21
31.3778789641
  0
LINE
  8
0
 62
7
  6
CONTINUOUS
 10
366.5090354651
 20
31.2488242184
 11
366.624660024
 21
31.3133515913
  0
LINE
  8
0
 62
7
  6
CONTINUOUS
 10
359.2246602583
 20
31.4746700234
 11
359.0512227376
 21
31.4101426505
  0
LINE
  8
0
 62
7
  6
CONTINUOUS
 10
361.6527851343
 20
31.5069337098
 11
361.4793477997
 21
31.4424063369
  0
LINE
  8
0
 62
7
  6
CONTINUOUS
 10
361.4793477997
 20
31.3133515913
 11
361.6527851343
 21
31.3778789641
  0
LINE
  8
0
 62
7
  6
CONTINUOUS
 10
360.2652852997
 20
30.7326051679
 11
360.091847717
 21
30.668077795
  0
LINE
  8
0
 62
7
  6
CONTINUOUS
 10
369.6887227445
 20
30.668077795
 11
369.4574729651
 21
30.6358140973
  0
LINE
  8
0
 62
7
  6
CONTINUOUS
 10
364.0809101343
 20
30.5067593403
 11
364.369972524
 21
30.5390230296
  0
LINE
  8
0
 62
7
  6
CONTINUOUS
 10
369.4574729651
 20
30.5067593403
 11
369.8043479651
 21
30.5390230296
  0
LINE
  8
0
 62
7
  6
CONTINUOUS
 10
359.744972717
 20
30.5067593403
 11
360.1496602445
 21
30.5390230296
  0
LINE
  8
0
 62
7
  6
CONTINUOUS
 10
360.091847717
 20
30.668077795
 11
359.6871602721
 21
30.6358140973
  0
LINE
  8
0
 62
7
  6
CONTINUOUS
 10
363.9652852445
 20
31.0552420547
 11
364.6012229651
 21
31.0552420547
  0
LINE
  8
0
 62
7
  6
CONTINUOUS
 10
364.6012229651
 20
31.1842968456
 11
363.9652852445
 21
31.1842968456
  0
LINE
  8
0
 62
7
  6
CONTINUOUS
 10
360.3230977445
 20
31.216560532
 11
360.6121602997
 21
31.216560532
  0
LINE
  8
0
 62
7
  6
CONTINUOUS
 10
363.1559103548
 20
31.2810879048
 11
363.4449727445
 21
31.2810879048
  0
LINE
  8
0
 62
7
  6
CONTINUOUS
 10
369.8621602445
 20
31.2810879048
 11
370.1512223035
 21
31.2810879048
  0
LINE
  8
0
 62
7
  6
CONTINUOUS
 10
363.8496603548
 20
31.4101426505
 11
364.1965353548
 21
31.4101426505
  0
LINE
  8
0
 62
7
  6
CONTINUOUS
 10
368.9949727445
 20
31.4101426505
 11
369.3418477445
 21
31.4101426505
  0
LINE
  8
0
 62
7
  6
CONTINUOUS
 10
369.3418477445
 20
31.5391973962
 11
368.9949727445
 21
31.5391973962
  0
LINE
  8
0
 62
7
  6
CONTINUOUS
 10
367.2605977445
 20
31.5391973962
 11
367.0293479651
 21
31.5391973962
  0
LINE
  8
0
 62
7
  6
CONTINUOUS
 10
366.5090354651
 20
31.5391973962
 11
366.2199727445
 21
31.5391973962
  0
LINE
  8
0
 62
7
  6
CONTINUOUS
 10
365.757472524
 20
31.5391973962
 11
365.4684104651
 21
31.5391973962
  0
LINE
  8
0
 62
7
  6
CONTINUOUS
 10
364.1965353548
 20
31.5391973962
 11
363.8496603548
 21
31.5391973962
  0
LINE
  8
0
 62
7
  6
CONTINUOUS
 10
362.1152853548
 20
31.5391973962
 11
361.8840352445
 21
31.5391973962
  0
LINE
  8
0
 62
7
  6
CONTINUOUS
 10
365.4684104651
 20
31.8618343508
 11
365.757472524
 21
31.8618343508
  0
LINE
  8
0
 62
7
  6
CONTINUOUS
 10
365.757472524
 20
32.0231527829
 11
365.4684104651
 21
32.0231527829
  0
LINE
  8
0
 62
7
  6
CONTINUOUS
 10
361.3637227445
 20
32.0231527829
 11
361.0746601894
 21
32.0231527829
  0
LINE
  8
0
 62
7
  6
CONTINUOUS
 10
360.4015045068
 20
32.3100380288
 11
360.8140758554
 21
32.3100380288
  0
LINE
  8
0
 62
7
  6
CONTINUOUS
 10
362.0408487691
 20
32.3100380288
 11
363.4342913921
 21
32.3100380288
  0
LINE
  8
0
 62
7
  6
CONTINUOUS
 10
363.7621602445
 20
32.3100380288
 11
365.1556028675
 21
32.3100380288
  0
LINE
  8
0
 62
7
  6
CONTINUOUS
 10
367.0408487691
 20
32.3100380288
 11
368.4342913921
 21
32.3100380288
  0
LINE
  8
0
 62
7
  6
CONTINUOUS
 10
368.7621602445
 20
32.3100380288
 11
370.1556028675
 21
32.3100380288
  0
LINE
  8
0
 62
7
  6
CONTINUOUS
 10
366.798097524
 20
31.5069337098
 11
366.624660024
 21
31.4424063369
  0
LINE
  8
0
 62
7
  6
CONTINUOUS
 10
364.369972524
 20
30.5390230296
 11
364.543410024
 21
30.6035504109
  0
LINE
  8
0
 62
7
  6
CONTINUOUS
 10
369.8043479651
 20
30.5390230296
 11
370.0355977445
 21
30.6035504109
  0
LINE
  8
0
 62
7
  6
CONTINUOUS
 10
369.8043479651
 20
30.7003414814
 11
369.6887227445
 21
30.668077795
  0
LINE
  8
0
 62
7
  6
CONTINUOUS
 10
368.7637229651
 20
31.3778789641
 11
368.9949727445
 21
31.4101426505
  0
LINE
  8
0
 62
7
  6
CONTINUOUS
 10
366.798097524
 20
31.3778789641
 11
367.0293479651
 21
31.4101426505
  0
LINE
  8
0
 62
7
  6
CONTINUOUS
 10
363.7340351343
 20
31.0229783683
 11
363.9652852445
 21
31.0552420547
  0
LINE
  8
0
 62
7
  6
CONTINUOUS
 10
367.0293479651
 20
31.5391973962
 11
366.798097524
 21
31.5069337098
  0
LINE
  8
0
 62
7
  6
CONTINUOUS
 10
363.6184102445
 20
31.3778789641
 11
363.8496603548
 21
31.4101426505
  0
LINE
  8
0
 62
7
  6
CONTINUOUS
 10
368.9949727445
 20
31.5391973962
 11
368.6480977445
 21
31.5069337098
  0
LINE
  8
0
 62
7
  6
CONTINUOUS
 10
363.9652852445
 20
31.1842968456
 11
363.6184102445
 21
31.1520331591
  0
LINE
  8
0
 62
7
  6
CONTINUOUS
 10
359.744972717
 20
31.5391973962
 11
359.3980977583
 21
31.5069337098
  0
LINE
  8
0
 62
7
  6
CONTINUOUS
 10
363.8496603548
 20
31.5391973962
 11
363.4449727445
 21
31.5069337098
  0
LINE
  8
0
 62
7
  6
CONTINUOUS
 10
361.221176638
 20
33.4575790124
 11
360.565438933
 21
33.4575790124
  0
LINE
  8
0
 62
7
  6
CONTINUOUS
 10
366.624660024
 20
31.3133515913
 11
366.798097524
 21
31.3778789641
  0
LINE
  8
0
 62
7
  6
CONTINUOUS
 10
368.6480977445
 20
31.3456152777
 11
368.7637229651
 21
31.3778789641
  0
LINE
  8
0
 62
7
  6
CONTINUOUS
 10
368.6480977445
 20
31.5069337098
 11
368.4168479651
 21
31.4424063369
  0
LINE
  8
0
 62
7
  6
CONTINUOUS
 10
364.369972524
 20
30.7003414814
 11
364.0809101343
 21
30.6358140973
  0
LINE
  8
0
 62
7
  6
CONTINUOUS
 10
361.6527851343
 20
31.3778789641
 11
361.8840352445
 21
31.4101426505
  0
LINE
  8
0
 62
7
  6
CONTINUOUS
 10
361.8840352445
 20
31.5391973962
 11
361.6527851343
 21
31.5069337098
  0
LINE
  8
0
 62
7
  6
CONTINUOUS
 10
359.4559102445
 20
31.3778789641
 11
359.6871602721
 21
31.4101426505
  0
LINE
  8
0
 62
7
  6
CONTINUOUS
 10
365.9752749986
 20
34.9329888485
 11
366.6310127035
 21
34.9329888485
  0
LINE
  8
0
 62
7
  6
CONTINUOUS
 10
363.6184102445
 20
30.9907146818
 11
363.7340351343
 21
31.0229783683
  0
LINE
  8
0
 62
7
  6
CONTINUOUS
 10
363.6184102445
 20
31.1520331591
 11
363.3871601343
 21
31.0875057863
  0
LINE
  8
0
 62
7
  6
CONTINUOUS
 10
363.5027853548
 20
31.3456152777
 11
363.6184102445
 21
31.3778789641
  0
LINE
  8
0
 62
7
  6
CONTINUOUS
 10
360.1496602445
 20
30.5390230296
 11
360.3809101894
 21
30.6035504109
  0
LINE
  8
0
 62
7
  6
CONTINUOUS
 10
363.4449727445
 20
31.5069337098
 11
363.3293478548
 21
31.4746700234
  0
LINE
  8
0
 62
7
  6
CONTINUOUS
 10
359.3980977583
 20
31.5069337098
 11
359.2246602583
 21
31.4746700234
  0
LINE
  8
0
 62
7
  6
CONTINUOUS
 10
370.1556028675
 20
36.0805298321
 11
368.7621602445
 21
36.0805298321
  0
LINE
  8
0
 62
7
  6
CONTINUOUS
 10
366.7949471298
 20
36.0805298321
 11
366.3823757812
 21
36.0805298321
  0
LINE
  8
0
 62
7
  6
CONTINUOUS
 10
365.1556028675
 20
36.0805298321
 11
363.7621602445
 21
36.0805298321
  0
LINE
  8
0
 62
7
  6
CONTINUOUS
 10
363.4342913921
 20
36.0805298321
 11
362.0408487691
 21
36.0805298321
  0
LINE
  8
0
 62
7
  6
CONTINUOUS
 10
360.1556028675
 20
36.0805298321
 11
358.7621602445
 21
36.0805298321
  0
LINE
  8
0
 62
7
  6
CONTINUOUS
 10
359.3402852307
 20
31.3456152777
 11
359.4559102445
 21
31.3778789641
  0
CIRCLE
  8
0
 62
7
  6
CONTINUOUS
 10
369.458881556
 20
38.4165954059
 40
2.0901639344
  0
ARC
  8
0
 62
7
  6
CONTINUOUS
 10
360.4015045068
 20
33.9493822911
 40
1.6393442623
 50
180.0
 51
270.0
  0
ARC
  8
0
 62
7
  6
CONTINUOUS
 10
366.7949471298
 20
34.4411855698
 40
1.6393442623
 50
0.0
 51
90.0
  0
ARC
  8
0
 62
7
  6
CONTINUOUS
 10
360.8140758554
 20
33.7854478649
 40
1.4754098361
 50
270.0
 51
326.2510114041
  0
ARC
  8
0
 62
7
  6
CONTINUOUS
 10
366.3823757812
 20
34.6051199961
 40
1.4754098361
 50
90.0
 51
146.2510114041
  0
ARC
  8
0
 62
7
  6
CONTINUOUS
 10
361.221176638
 20
34.2772511436
 40
0.8196721311
 50
270.0
 51
360.0
  0
ARC
  8
0
 62
7
  6
CONTINUOUS
 10
365.9752749986
 20
34.1133167174
 40
0.8196721311
 50
90.0
 51
180.0
  0
ARC
  8
0
 62
7
  6
CONTINUOUS
 10
360.565438933
 20
33.867415078
 40
0.4098360656
 50
180.0
 51
270.0
  0
ARC
  8
0
 62
7
  6
CONTINUOUS
 10
366.6310127035
 20
34.5231527829
 40
0.4098360656
 50
0.0
 51
90.0
  0
SOLID
  8
0
 62
7
  6
CONTINUOUS
 10
365.4684104651
 20
31.8618347111
 11
365.4684104651
 21
32.0231531947
 12
365.757472524
 22
31.8618347111
 13
365.757472524
 23
32.0231531947
  0
SOLID
  8
0
 62
7
  6
CONTINUOUS
 10
359.744972717
 20
31.5391977439
 11
360.1496602445
 21
31.5069333244
 12
359.3980977583
 22
31.5069333244
 13
359.3980977583
 23
31.5069333244
  0
SOLID
  8
0
 62
7
  6
CONTINUOUS
 10
359.2246602583
 20
31.4746706537
 11
359.3980977583
 21
31.5069333244
 12
360.1496602445
 22
31.5069333244
 13
360.1496602445
 23
31.5069333244
  0
SOLID
  8
0
 62
7
  6
CONTINUOUS
 10
360.1496602445
 20
31.5069333244
 11
360.3809101894
 21
31.4424063504
 12
359.2246602583
 22
31.4746706537
 13
359.2246602583
 23
31.4746706537
  0
SOLID
  8
0
 62
7
  6
CONTINUOUS
 10
359.0512227376
 20
31.4101419116
 11
359.2246602583
 21
31.4746706537
 12
360.3809101894
 22
31.4424063504
 13
360.3809101894
 23
31.4424063504
  0
SOLID
  8
0
 62
7
  6
CONTINUOUS
 10
359.0512227376
 20
31.4101419116
 11
360.3809101894
 21
31.4424063504
 12
359.6871602721
 22
31.4101419116
 13
359.6871602721
 23
31.4101419116
  0
SOLID
  8
0
 62
7
  6
CONTINUOUS
 10
359.6871602721
 20
31.4101419116
 11
360.3809101894
 21
31.4424063504
 12
360.091847717
 22
31.3778792603
 13
360.091847717
 23
31.3778792603
  0
SOLID
  8
0
 62
7
  6
CONTINUOUS
 10
360.3809101894
 20
31.4424063504
 11
360.5543476894
 21
31.345614957
 12
360.091847717
 22
31.3778792603
 13
360.091847717
 23
31.3778792603
  0
SOLID
  8
0
 62
7
  6
CONTINUOUS
 10
360.2652852997
 20
31.3133521701
 11
360.091847717
 21
31.3778792603
 12
360.5543476894
 22
31.345614957
 13
360.5543476894
 23
31.345614957
  0
SOLID
  8
0
 62
7
  6
CONTINUOUS
 10
360.2652852997
 20
31.3133521701
 11
360.5543476894
 21
31.345614957
 12
360.3230977445
 22
31.2165606992
 13
360.3230977445
 23
31.2165606992
  0
SOLID
  8
0
 62
7
  6
CONTINUOUS
 10
360.5543476894
 20
31.345614957
 11
360.6121602997
 21
31.2165606992
 12
360.3230977445
 22
31.2165606992
 13
360.3230977445
 23
31.2165606992
  0
SOLID
  8
0
 62
7
  6
CONTINUOUS
 10
361.6527851343
 20
31.5069329918
 11
361.8840352445
 21
31.5391972951
 12
362.1152853548
 22
31.5391972951
 13
362.1152853548
 23
31.5391972951
  0
SOLID
  8
0
 62
7
  6
CONTINUOUS
 10
362.1152853548
 20
31.5391972951
 11
362.2887228548
 21
31.5069329918
 12
361.6527851343
 22
31.5069329918
 13
361.6527851343
 23
31.5069329918
  0
SOLID
  8
0
 62
7
  6
CONTINUOUS
 10
361.4793477997
 20
31.4424059016
 11
361.6527851343
 21
31.5069329918
 12
362.2887228548
 22
31.5069329918
 13
362.2887228548
 23
31.5069329918
  0
SOLID
  8
0
 62
7
  6
CONTINUOUS
 10
362.2887228548
 20
31.5069329918
 11
362.4621603548
 21
31.4424059016
 12
361.4793477997
 22
31.4424059016
 13
361.4793477997
 23
31.4424059016
  0
SOLID
  8
0
 62
7
  6
CONTINUOUS
 10
362.4621603548
 20
31.4424059016
 11
361.8840352445
 21
31.4101420472
 12
361.4793477997
 22
31.4424059016
 13
361.4793477997
 23
31.4424059016
  0
SOLID
  8
0
 62
7
  6
CONTINUOUS
 10
361.3637227445
 20
31.3778788115
 11
361.4793477997
 21
31.4424059016
 12
361.8840352445
 22
31.4101420472
 13
361.8840352445
 23
31.4101420472
  0
SOLID
  8
0
 62
7
  6
CONTINUOUS
 10
361.8840352445
 20
31.4101420472
 11
361.6527851343
 21
31.3778788115
 12
361.3637227445
 22
31.3778788115
 13
361.3637227445
 23
31.3778788115
  0
SOLID
  8
0
 62
7
  6
CONTINUOUS
 10
361.8840352445
 20
31.4101420472
 11
362.4621603548
 21
31.4424059016
 12
362.1152853548
 22
31.3778788115
 13
362.1152853548
 23
31.3778788115
  0
SOLID
  8
0
 62
7
  6
CONTINUOUS
 10
362.4621603548
 20
31.4424059016
 11
362.5777852445
 21
31.3778788115
 12
362.1152853548
 22
31.3778788115
 13
362.1152853548
 23
31.3778788115
  0
SOLID
  8
0
 62
7
  6
CONTINUOUS
 10
362.2309102445
 20
31.345614957
 11
362.1152853548
 21
31.3778788115
 12
362.5777852445
 22
31.3778788115
 13
362.5777852445
 23
31.3778788115
  0
SOLID
  8
0
 62
7
  6
CONTINUOUS
 10
362.5777852445
 20
31.3778788115
 11
362.6355978548
 21
31.3133517213
 12
362.2309102445
 22
31.345614957
 13
362.2309102445
 23
31.345614957
  0
SOLID
  8
0
 62
7
  6
CONTINUOUS
 10
362.3465351343
 20
31.2810878668
 11
362.2309102445
 21
31.345614957
 12
362.6355978548
 22
31.3133517213
 13
362.6355978548
 23
31.3133517213
  0
SOLID
  8
0
 62
7
  6
CONTINUOUS
 10
362.3465351343
 20
31.2810878668
 11
362.6355978548
 21
31.3133517213
 12
362.4043477445
 22
31.1520332377
 13
362.4043477445
 23
31.1520332377
  0
SOLID
  8
0
 62
7
  6
CONTINUOUS
 10
362.6355978548
 20
31.3133517213
 11
362.6934101343
 21
31.1520332377
 12
362.4043477445
 22
31.1520332377
 13
362.4043477445
 23
31.1520332377
  0
SOLID
  8
0
 62
7
  6
CONTINUOUS
 10
361.6527851343
 20
31.3778788115
 11
361.4793477997
 21
31.3133517213
 12
361.3637227445
 22
31.3778788115
 13
361.3637227445
 23
31.3778788115
  0
SOLID
  8
0
 62
7
  6
CONTINUOUS
 10
361.4793477997
 20
31.3133517213
 11
361.3637227445
 21
31.2488235635
 12
361.3637227445
 22
31.3778788115
 13
361.3637227445
 23
31.3778788115
  0
SOLID
  8
0
 62
7
  6
CONTINUOUS
 10
361.3637227445
 20
31.2488235635
 11
361.0746601894
 21
30.5067593033
 12
361.3637227445
 22
31.3778788115
 13
361.3637227445
 23
31.3778788115
  0
SOLID
  8
0
 62
7
  6
CONTINUOUS
 10
361.3637227445
 20
31.3778788115
 11
361.0746601894
 21
30.5067593033
 12
361.3637227445
 22
32.0231527459
 13
361.3637227445
 23
32.0231527459
  0
SOLID
  8
0
 62
7
  6
CONTINUOUS
 10
361.0746601894
 20
30.5067593033
 11
361.0746601894
 21
32.0231527459
 12
361.3637227445
 22
32.0231527459
 13
361.3637227445
 23
32.0231527459
  0
SOLID
  8
0
 62
7
  6
CONTINUOUS
 10
361.3637227445
 20
31.2488235635
 11
361.3637227445
 21
30.5067593033
 12
361.0746601894
 22
30.5067593033
 13
361.0746601894
 23
30.5067593033
  0
SOLID
  8
0
 62
7
  6
CONTINUOUS
 10
362.4043477445
 20
30.5067593033
 11
362.4043477445
 21
31.1520332377
 12
362.6934101343
 22
31.1520332377
 13
362.6934101343
 23
31.1520332377
  0
SOLID
  8
0
 62
7
  6
CONTINUOUS
 10
362.6934101343
 20
31.1520332377
 11
362.6934101343
 21
30.5067593033
 12
362.4043477445
 22
30.5067593033
 13
362.4043477445
 23
30.5067593033
  0
SOLID
  8
0
 62
7
  6
CONTINUOUS
 10
363.4449727445
 20
31.506933758
 11
363.8496603548
 21
31.5391977507
 12
364.1965353548
 22
31.5391977507
 13
364.1965353548
 23
31.5391977507
  0
SOLID
  8
0
 62
7
  6
CONTINUOUS
 10
364.1965353548
 20
31.5391977507
 11
364.543410024
 21
31.506933758
 12
363.4449727445
 22
31.506933758
 13
363.4449727445
 23
31.506933758
  0
SOLID
  8
0
 62
7
  6
CONTINUOUS
 10
363.3293478548
 20
31.4746706537
 11
363.4449727445
 21
31.506933758
 12
364.543410024
 22
31.506933758
 13
364.543410024
 23
31.506933758
  0
SOLID
  8
0
 62
7
  6
CONTINUOUS
 10
364.543410024
 20
31.506933758
 11
364.716847524
 21
31.4424063504
 12
363.3293478548
 22
31.4746706537
 13
363.3293478548
 23
31.4746706537
  0
SOLID
  8
0
 62
7
  6
CONTINUOUS
 10
363.2137226343
 20
31.4101417797
 11
363.3293478548
 21
31.4746706537
 12
364.716847524
 22
31.4424063504
 13
364.716847524
 23
31.4424063504
  0
SOLID
  8
0
 62
7
  6
CONTINUOUS
 10
363.2137226343
 20
31.4101417797
 11
364.716847524
 21
31.4424063504
 12
363.8496603548
 22
31.4101417797
 13
363.8496603548
 23
31.4101417797
  0
SOLID
  8
0
 62
7
  6
CONTINUOUS
 10
363.8496603548
 20
31.4101417797
 11
364.716847524
 21
31.4424063504
 12
364.1965353548
 22
31.4101417797
 13
364.1965353548
 23
31.4101417797
  0
SOLID
  8
0
 62
7
  6
CONTINUOUS
 10
364.1965353548
 20
31.4101417797
 11
364.716847524
 21
31.4424063504
 12
364.4277854651
 22
31.3778793357
 13
364.4277854651
 23
31.3778793357
  0
SOLID
  8
0
 62
7
  6
CONTINUOUS
 10
364.716847524
 20
31.4424063504
 11
364.8324727445
 21
31.3778793357
 12
364.4277854651
 22
31.3778793357
 13
364.4277854651
 23
31.3778793357
  0
SOLID
  8
0
 62
7
  6
CONTINUOUS
 10
363.1559103548
 20
31.3456153429
 11
363.2137226343
 21
31.4101417797
 12
363.8496603548
 22
31.4101417797
 13
363.8496603548
 23
31.4101417797
  0
SOLID
  8
0
 62
7
  6
CONTINUOUS
 10
364.543410024
 20
31.3456153429
 11
364.4277854651
 21
31.3778793357
 12
364.8324727445
 22
31.3778793357
 13
364.8324727445
 23
31.3778793357
  0
SOLID
  8
0
 62
7
  6
CONTINUOUS
 10
364.543410024
 20
31.3456153429
 11
364.8324727445
 21
31.3778793357
 12
364.6012229651
 22
31.2810881318
 13
364.6012229651
 23
31.2810881318
  0
SOLID
  8
0
 62
7
  6
CONTINUOUS
 10
364.8324727445
 20
31.3778793357
 11
364.890285024
 21
31.2810881318
 12
364.6012229651
 22
31.2810881318
 13
364.6012229651
 23
31.2810881318
  0
SOLID
  8
0
 62
7
  6
CONTINUOUS
 10
364.6012229651
 20
31.1842964734
 11
364.6012229651
 21
31.2810881318
 12
364.890285024
 22
31.2810881318
 13
364.890285024
 23
31.2810881318
  0
SOLID
  8
0
 62
7
  6
CONTINUOUS
 10
364.6012229651
 20
31.1842964734
 11
364.890285024
 21
31.2810881318
 12
364.6012229651
 22
31.0552422931
 13
364.6012229651
 23
31.0552422931
  0
SOLID
  8
0
 62
7
  6
CONTINUOUS
 10
364.6012229651
 20
31.0552422931
 11
364.890285024
 21
31.2810881318
 12
364.6012229651
 22
30.8616599362
 13
364.6012229651
 23
30.8616599362
  0
SOLID
  8
0
 62
7
  6
CONTINUOUS
 10
364.890285024
 20
31.2810881318
 11
364.890285024
 21
30.7648681127
 12
364.6012229651
 22
30.8616599362
 13
364.6012229651
 23
30.8616599362
  0
SOLID
  8
0
 62
7
  6
CONTINUOUS
 10
366.798097524
 20
31.5069339419
 11
367.0293479651
 21
31.5391976292
 12
367.2605977445
 22
31.5391976292
 13
367.2605977445
 23
31.5391976292
  0
SOLID
  8
0
 62
7
  6
CONTINUOUS
 10
367.2605977445
 20
31.5391976292
 11
367.4340352445
 21
31.5069339419
 12
366.798097524
 22
31.5069339419
 13
366.798097524
 23
31.5069339419
  0
SOLID
  8
0
 62
7
  6
CONTINUOUS
 10
366.624660024
 20
31.4424065674
 11
366.798097524
 21
31.5069339419
 12
367.4340352445
 22
31.5069339419
 13
367.4340352445
 23
31.5069339419
  0
SOLID
  8
0
 62
7
  6
CONTINUOUS
 10
367.4340352445
 20
31.5069339419
 11
367.6074727445
 21
31.4424065674
 12
366.624660024
 22
31.4424065674
 13
366.624660024
 23
31.4424065674
  0
SOLID
  8
0
 62
7
  6
CONTINUOUS
 10
367.6074727445
 20
31.4424065674
 11
367.0293479651
 21
31.4101420472
 12
366.624660024
 22
31.4424065674
 13
366.624660024
 23
31.4424065674
  0
SOLID
  8
0
 62
7
  6
CONTINUOUS
 10
366.5090354651
 20
31.377879193
 11
366.624660024
 21
31.4424065674
 12
367.0293479651
 22
31.4101420472
 13
367.0293479651
 23
31.4101420472
  0
SOLID
  8
0
 62
7
  6
CONTINUOUS
 10
367.0293479651
 20
31.4101420472
 11
366.798097524
 21
31.377879193
 12
366.5090354651
 22
31.377879193
 13
366.5090354651
 23
31.377879193
  0
SOLID
  8
0
 62
7
  6
CONTINUOUS
 10
367.0293479651
 20
31.4101420472
 11
367.6074727445
 21
31.4424065674
 12
367.2605977445
 22
31.377879193
 13
367.2605977445
 23
31.377879193
  0
SOLID
  8
0
 62
7
  6
CONTINUOUS
 10
367.6074727445
 20
31.4424065674
 11
367.7230979651
 21
31.377879193
 12
367.2605977445
 22
31.377879193
 13
367.2605977445
 23
31.377879193
  0
SOLID
  8
0
 62
7
  6
CONTINUOUS
 10
367.3762229651
 20
31.345614957
 11
367.2605977445
 21
31.377879193
 12
367.7230979651
 22
31.377879193
 13
367.7230979651
 23
31.377879193
  0
SOLID
  8
0
 62
7
  6
CONTINUOUS
 10
367.3762229651
 20
31.345614957
 11
367.7230979651
 21
31.377879193
 12
367.491847524
 22
31.2810881312
 13
367.491847524
 23
31.2810881312
  0
SOLID
  8
0
 62
7
  6
CONTINUOUS
 10
367.7230979651
 20
31.377879193
 11
367.7809102445
 21
31.2810881312
 12
367.491847524
 22
31.2810881312
 13
367.491847524
 23
31.2810881312
  0
SOLID
  8
0
 62
7
  6
CONTINUOUS
 10
367.5496604651
 20
31.119769695
 11
367.491847524
 21
31.2810881312
 12
367.7809102445
 22
31.2810881312
 13
367.7809102445
 23
31.2810881312
  0
SOLID
  8
0
 62
7
  6
CONTINUOUS
 10
367.7809102445
 20
31.2810881312
 11
367.838722524
 21
31.119769695
 12
367.5496604651
 22
31.119769695
 13
367.5496604651
 23
31.119769695
  0
SOLID
  8
0
 62
7
  6
CONTINUOUS
 10
366.798097524
 20
31.377879193
 11
366.624660024
 21
31.3133521701
 12
366.5090354651
 22
31.377879193
 13
366.5090354651
 23
31.377879193
  0
SOLID
  8
0
 62
7
  6
CONTINUOUS
 10
366.624660024
 20
31.3133521701
 11
366.5090354651
 21
31.2488235635
 12
366.5090354651
 22
31.377879193
 13
366.5090354651
 23
31.377879193
  0
SOLID
  8
0
 62
7
  6
CONTINUOUS
 10
366.5090354651
 20
31.2488235635
 11
366.2199727445
 21
30.5067596374
 12
366.5090354651
 22
31.377879193
 13
366.5090354651
 23
31.377879193
  0
SOLID
  8
0
 62
7
  6
CONTINUOUS
 10
366.5090354651
 20
31.377879193
 11
366.2199727445
 21
30.5067596374
 12
366.5090354651
 22
31.5391976292
 13
366.5090354651
 23
31.5391976292
  0
SOLID
  8
0
 62
7
  6
CONTINUOUS
 10
366.2199727445
 20
30.5067596374
 11
366.2199727445
 21
31.5391976292
 12
366.5090354651
 22
31.5391976292
 13
366.5090354651
 23
31.5391976292
  0
SOLID
  8
0
 62
7
  6
CONTINUOUS
 10
366.5090354651
 20
31.2488235635
 11
366.5090354651
 21
30.5067596374
 12
366.2199727445
 22
30.5067596374
 13
366.2199727445
 23
30.5067596374
  0
SOLID
  8
0
 62
7
  6
CONTINUOUS
 10
367.5496604651
 20
30.5067596374
 11
367.5496604651
 21
31.119769695
 12
367.838722524
 22
31.119769695
 13
367.838722524
 23
31.119769695
  0
SOLID
  8
0
 62
7
  6
CONTINUOUS
 10
367.838722524
 20
31.119769695
 11
367.838722524
 21
30.5067596374
 12
367.5496604651
 22
30.5067596374
 13
367.5496604651
 23
30.5067596374
  0
SOLID
  8
0
 62
7
  6
CONTINUOUS
 10
368.6480977445
 20
31.5069334157
 11
368.9949727445
 21
31.539197762
 12
369.3418477445
 22
31.539197762
 13
369.3418477445
 23
31.539197762
  0
SOLID
  8
0
 62
7
  6
CONTINUOUS
 10
369.3418477445
 20
31.539197762
 11
369.6887227445
 21
31.5069334157
 12
368.6480977445
 22
31.5069334157
 13
368.6480977445
 23
31.5069334157
  0
SOLID
  8
0
 62
7
  6
CONTINUOUS
 10
368.4168479651
 20
31.4424063504
 11
368.6480977445
 21
31.5069334157
 12
369.6887227445
 22
31.5069334157
 13
369.6887227445
 23
31.5069334157
  0
SOLID
  8
0
 62
7
  6
CONTINUOUS
 10
368.4168479651
 20
31.4424063504
 11
369.6887227445
 21
31.5069334406
 12
369.8621602445
 22
31.4746706537
 13
369.8621602445
 23
31.4746706537
  0
SOLID
  8
0
 62
7
  6
CONTINUOUS
 10
368.4168479651
 20
31.4424063504
 11
369.8621602445
 21
31.4746706537
 12
368.9949727445
 22
31.4101421267
 13
368.9949727445
 23
31.4101421267
  0
SOLID
  8
0
 62
7
  6
CONTINUOUS
 10
368.9949727445
 20
31.4101421267
 11
369.8621602445
 21
31.4746706537
 12
369.3418477445
 22
31.4101421267
 13
369.3418477445
 23
31.4101421267
  0
SOLID
  8
0
 62
7
  6
CONTINUOUS
 10
369.8621602445
 20
31.4746706537
 11
370.0355977445
 21
31.4101421267
 12
369.3418477445
 22
31.4101421267
 13
369.3418477445
 23
31.4101421267
  0
SOLID
  8
0
 62
7
  6
CONTINUOUS
 10
369.6887227445
 20
31.3778792603
 11
369.3418477445
 21
31.4101421267
 12
370.0355977445
 22
31.4101421267
 13
370.0355977445
 23
31.4101421267
  0
SOLID
  8
0
 62
7
  6
CONTINUOUS
 10
368.3012227445
 20
31.3456148845
 11
368.4168479651
 21
31.4424063504
 12
368.9949727445
 22
31.4101421267
 13
368.9949727445
 23
31.4101421267
  0
SOLID
  8
0
 62
7
  6
CONTINUOUS
 10
369.6887227445
 20
31.3778792603
 11
370.0355977445
 21
31.4101421267
 12
369.8043479651
 22
31.3456148845
 13
369.8043479651
 23
31.3456148845
  0
SOLID
  8
0
 62
7
  6
CONTINUOUS
 10
369.8043479651
 20
31.3456148845
 11
370.0355977445
 21
31.4101421267
 12
369.8621602445
 22
31.281087868
 13
369.8621602445
 23
31.281087868
  0
SOLID
  8
0
 62
7
  6
CONTINUOUS
 10
370.0355977445
 20
31.4101421267
 11
370.1512223035
 21
31.281087868
 12
369.8621602445
 22
31.281087868
 13
369.8621602445
 23
31.281087868
  0
SOLID
  8
0
 62
7
  6
CONTINUOUS
 10
359.4559102445
 20
31.3778792603
 11
358.9355977445
 21
31.3456148963
 12
359.6871602721
 22
31.4101421155
 13
359.6871602721
 23
31.4101421155
  0
SOLID
  8
0
 62
7
  6
CONTINUOUS
 10
358.9355977445
 20
31.3456148963
 11
359.0512227376
 21
31.4101421155
 12
359.6871602721
 22
31.4101421155
 13
359.6871602721
 23
31.4101421155
  0
SOLID
  8
0
 62
7
  6
CONTINUOUS
 10
359.4559102445
 20
31.3778792603
 11
359.3402852307
 21
31.3456148963
 12
358.9355977445
 22
31.3456148963
 13
358.9355977445
 23
31.3456148963
  0
SOLID
  8
0
 62
7
  6
CONTINUOUS
 10
358.8199727462
 20
31.2165607767
 11
358.9355977445
 21
31.3456148963
 12
359.3402852307
 22
31.3456148963
 13
359.3402852307
 23
31.3456148963
  0
SOLID
  8
0
 62
7
  6
CONTINUOUS
 10
363.1559103548
 20
31.3456149608
 11
363.8496603548
 21
31.4101420472
 12
363.6184102445
 22
31.3778792603
 13
363.6184102445
 23
31.3778792603
  0
SOLID
  8
0
 62
7
  6
CONTINUOUS
 10
363.6184102445
 20
31.3778792603
 11
363.5027853548
 21
31.3456149608
 12
363.1559103548
 22
31.3456149608
 13
363.1559103548
 23
31.3456149608
  0
SOLID
  8
0
 62
7
  6
CONTINUOUS
 10
363.1559103548
 20
31.2810878707
 11
363.1559103548
 21
31.3456149608
 12
363.5027853548
 22
31.3456149608
 13
363.5027853548
 23
31.3456149608
  0
SOLID
  8
0
 62
7
  6
CONTINUOUS
 10
363.5027853548
 20
31.3456149608
 11
363.4449727445
 21
31.2810878707
 12
363.1559103548
 22
31.2810878707
 13
363.1559103548
 23
31.2810878707
  0
SOLID
  8
0
 62
7
  6
CONTINUOUS
 10
368.3012227445
 20
31.3456149608
 11
368.9949727445
 21
31.4101420472
 12
368.7637229651
 22
31.3778792603
 13
368.7637229651
 23
31.3778792603
  0
SOLID
  8
0
 62
7
  6
CONTINUOUS
 10
368.7637229651
 20
31.3778792603
 11
368.6480977445
 21
31.3456149608
 12
368.3012227445
 22
31.3456149608
 13
368.3012227445
 23
31.3456149608
  0
SOLID
  8
0
 62
7
  6
CONTINUOUS
 10
368.3012227445
 20
31.2810878707
 11
368.3012227445
 21
31.3456149608
 12
368.6480977445
 22
31.3456149608
 13
368.6480977445
 23
31.3456149608
  0
SOLID
  8
0
 62
7
  6
CONTINUOUS
 10
368.6480977445
 20
31.3456149608
 11
368.5902854651
 21
31.2810878707
 12
368.3012227445
 22
31.2810878707
 13
368.3012227445
 23
31.2810878707
  0
SOLID
  8
0
 62
7
  6
CONTINUOUS
 10
368.4168479651
 20
31.1520336865
 11
368.3012227445
 21
31.2810878707
 12
368.5902854651
 22
31.2810878707
 13
368.5902854651
 23
31.2810878707
  0
SOLID
  8
0
 62
7
  6
CONTINUOUS
 10
358.8199727462
 20
31.2165607767
 11
359.3402852307
 21
31.345614957
 12
359.1668477307
 22
31.2488235635
 13
359.1668477307
 23
31.2488235635
  0
SOLID
  8
0
 62
7
  6
CONTINUOUS
 10
359.1668477307
 20
31.2488235635
 11
359.1090352445
 21
31.1842964734
 12
358.8199727462
 22
31.2165607767
 13
358.8199727462
 23
31.2165607767
  0
SOLID
  8
0
 62
7
  6
CONTINUOUS
 10
358.7621602445
 20
31.0229779898
 11
358.8199727462
 21
31.2165607767
 12
359.1090352445
 22
31.1842964734
 13
359.1090352445
 23
31.1842964734
  0
SOLID
  8
0
 62
7
  6
CONTINUOUS
 10
363.6184102445
 20
31.1520336865
 11
363.9652852445
 21
31.1842964611
 12
364.6012229651
 22
31.1842964611
 13
364.6012229651
 23
31.1842964611
  0
SOLID
  8
0
 62
7
  6
CONTINUOUS
 10
363.6184102445
 20
31.1520336865
 11
364.6012229651
 21
31.1842964611
 12
363.3871601343
 22
31.0875057863
 13
363.3871601343
 23
31.0875057863
  0
SOLID
  8
0
 62
7
  6
CONTINUOUS
 10
363.3871601343
 20
31.0875057863
 11
364.6012229651
 21
31.1842964611
 12
363.9652852445
 22
31.0552422808
 13
363.9652852445
 23
31.0552422808
  0
SOLID
  8
0
 62
7
  6
CONTINUOUS
 10
364.6012229651
 20
31.1842964611
 11
364.6012229651
 21
31.0552422808
 12
363.9652852445
 22
31.0552422808
 13
363.9652852445
 23
31.0552422808
  0
SOLID
  8
0
 62
7
  6
CONTINUOUS
 10
368.4168479651
 20
31.1520338754
 11
368.5902854651
 21
31.2810878668
 12
368.6480977445
 22
31.2165607767
 13
368.6480977445
 23
31.2165607767
  0
SOLID
  8
0
 62
7
  6
CONTINUOUS
 10
368.6480977445
 20
31.2165607767
 11
368.8215352445
 21
31.1520338754
 12
368.4168479651
 22
31.1520338754
 13
368.4168479651
 23
31.1520338754
  0
SOLID
  8
0
 62
7
  6
CONTINUOUS
 10
368.6480977445
 20
31.0552422931
 11
368.4168479651
 21
31.1520338754
 12
368.8215352445
 22
31.1520338754
 13
368.8215352445
 23
31.1520338754
  0
SOLID
  8
0
 62
7
  6
CONTINUOUS
 10
368.8215352445
 20
31.1520338754
 11
369.8043479651
 21
30.9907152029
 12
368.6480977445
 22
31.0552422931
 13
368.6480977445
 23
31.0552422931
  0
SOLID
  8
0
 62
7
  6
CONTINUOUS
 10
369.6309104651
 20
30.8939239876
 11
368.6480977445
 21
31.0552422931
 12
369.8043479651
 22
30.9907152029
 13
369.8043479651
 23
30.9907152029
  0
SOLID
  8
0
 62
7
  6
CONTINUOUS
 10
369.8043479651
 20
30.9907152029
 11
370.0355977445
 21
30.8939239876
 12
369.6309104651
 22
30.8939239876
 13
369.6309104651
 23
30.8939239876
  0
SOLID
  8
0
 62
7
  6
CONTINUOUS
 10
369.8043479651
 20
30.8293967193
 11
369.6309104651
 21
30.8939239876
 12
370.0355977445
 22
30.8939239876
 13
370.0355977445
 23
30.8939239876
  0
SOLID
  8
0
 62
7
  6
CONTINUOUS
 10
369.8043479651
 20
30.8293967193
 11
370.0355977445
 21
30.8939239876
 12
369.8621602445
 22
30.7648682694
 13
369.8621602445
 23
30.7648682694
  0
SOLID
  8
0
 62
7
  6
CONTINUOUS
 10
370.0355977445
 20
30.8939239876
 11
370.1512223035
 21
30.7648682694
 12
369.8621602445
 22
30.7648682694
 13
369.8621602445
 23
30.7648682694
  0
SOLID
  8
0
 62
7
  6
CONTINUOUS
 10
369.8043479651
 20
30.7003411846
 11
369.8621602445
 21
30.7648682694
 12
370.1512223035
 22
30.7648682694
 13
370.1512223035
 23
30.7648682694
  0
SOLID
  8
0
 62
7
  6
CONTINUOUS
 10
370.1512223035
 20
30.7648682694
 11
370.1512223035
 21
30.7003411846
 12
369.8043479651
 22
30.7003411846
 13
369.8043479651
 23
30.7003411846
  0
SOLID
  8
0
 62
7
  6
CONTINUOUS
 10
369.6887227445
 20
30.6680782357
 11
369.8043479651
 21
30.7003411846
 12
370.1512223035
 22
30.7003411846
 13
370.1512223035
 23
30.7003411846
  0
SOLID
  8
0
 62
7
  6
CONTINUOUS
 10
369.6887227445
 20
30.6680782357
 11
370.1512223035
 21
30.7003411846
 12
369.4574729651
 22
30.6358140998
 13
369.4574729651
 23
30.6358140998
  0
SOLID
  8
0
 62
7
  6
CONTINUOUS
 10
370.1512223035
 20
30.7003411846
 11
370.0355977445
 21
30.6035511455
 12
369.4574729651
 22
30.6358140998
 13
369.4574729651
 23
30.6358140998
  0
SOLID
  8
0
 62
7
  6
CONTINUOUS
 10
370.0355977445
 20
30.6035511455
 11
368.5902854651
 21
30.5712868422
 12
369.4574729651
 22
30.6358140998
 13
369.4574729651
 23
30.6358140998
  0
SOLID
  8
0
 62
7
  6
CONTINUOUS
 10
369.4574729651
 20
30.6358140998
 11
368.5902854651
 21
30.5712868422
 12
369.1105979651
 22
30.6358140998
 13
369.1105979651
 23
30.6358140998
  0
SOLID
  8
0
 62
7
  6
CONTINUOUS
 10
368.5902854651
 20
30.5712868422
 11
368.4168479651
 21
30.6358140998
 12
369.1105979651
 22
30.6358140998
 13
369.1105979651
 23
30.6358140998
  0
SOLID
  8
0
 62
7
  6
CONTINUOUS
 10
368.5902854651
 20
30.5712868422
 11
370.0355977445
 21
30.6035511455
 12
368.7637229651
 22
30.5390223111
 13
368.7637229651
 23
30.5390223111
  0
SOLID
  8
0
 62
7
  6
CONTINUOUS
 10
370.0355977445
 20
30.6035511455
 11
369.8043479651
 21
30.5390223111
 12
368.7637229651
 22
30.5390223111
 13
368.7637229651
 23
30.5390223111
  0
SOLID
  8
0
 62
7
  6
CONTINUOUS
 10
369.1105979651
 20
30.5067599302
 11
368.7637229651
 21
30.5390223111
 12
369.8043479651
 22
30.5390223111
 13
369.8043479651
 23
30.5390223111
  0
SOLID
  8
0
 62
7
  6
CONTINUOUS
 10
369.8043479651
 20
30.5390223111
 11
369.4574729651
 21
30.5067599302
 12
369.1105979651
 22
30.5067599302
 13
369.1105979651
 23
30.5067599302
  0
SOLID
  8
0
 62
7
  6
CONTINUOUS
 10
358.7621602445
 20
31.0229779898
 11
359.1090352445
 21
31.1842964734
 12
359.0512227376
 22
31.0552422931
 13
359.0512227376
 23
31.0552422931
  0
SOLID
  8
0
 62
7
  6
CONTINUOUS
 10
359.0512227376
 20
31.0552422931
 11
359.0512227376
 21
30.9584509954
 12
358.7621602445
 22
31.0229779898
 13
358.7621602445
 23
31.0229779898
  0
SOLID
  8
0
 62
7
  6
CONTINUOUS
 10
358.8199727462
 20
30.8293967193
 11
358.7621602445
 21
31.0229779898
 12
359.0512227376
 22
30.9584509954
 13
359.0512227376
 23
30.9584509954
  0
SOLID
  8
0
 62
7
  6
CONTINUOUS
 10
359.0512227376
 20
30.9584509954
 11
359.1668477307
 21
30.797132416
 12
358.8199727462
 22
30.8293967193
 13
358.8199727462
 23
30.8293967193
  0
SOLID
  8
0
 62
7
  6
CONTINUOUS
 10
358.9355977445
 20
30.7003413087
 11
358.8199727462
 21
30.8293967193
 12
359.1668477307
 22
30.797132416
 13
359.1668477307
 23
30.797132416
  0
SOLID
  8
0
 62
7
  6
CONTINUOUS
 10
359.1668477307
 20
30.797132416
 11
359.3402852307
 21
30.7003413087
 12
358.9355977445
 22
30.7003413087
 13
358.9355977445
 23
30.7003413087
  0
SOLID
  8
0
 62
7
  6
CONTINUOUS
 10
359.0512227376
 20
30.6358140759
 11
358.9355977445
 21
30.7003413087
 12
359.3402852307
 22
30.7003413087
 13
359.3402852307
 23
30.7003413087
  0
SOLID
  8
0
 62
7
  6
CONTINUOUS
 10
359.3402852307
 20
30.7003413087
 11
359.6871602721
 21
30.6358140759
 12
359.0512227376
 22
30.6358140759
 13
359.0512227376
 23
30.6358140759
  0
SOLID
  8
0
 62
7
  6
CONTINUOUS
 10
359.2246602583
 20
30.5712868422
 11
359.0512227376
 21
30.6358140759
 12
359.6871602721
 22
30.6358140759
 13
359.6871602721
 23
30.6358140759
  0
SOLID
  8
0
 62
7
  6
CONTINUOUS
 10
363.2715352445
 20
31.0229779808
 11
363.3871601343
 21
31.0875057863
 12
363.9652852445
 22
31.0552422931
 13
363.9652852445
 23
31.0552422931
  0
SOLID
  8
0
 62
7
  6
CONTINUOUS
 10
363.9652852445
 20
31.0552422931
 11
363.7340351343
 21
31.0229779808
 12
363.2715352445
 22
31.0229779808
 13
363.2715352445
 23
31.0229779808
  0
SOLID
  8
0
 62
7
  6
CONTINUOUS
 10
363.1559103548
 20
30.8939238094
 11
363.2715352445
 21
31.0229779808
 12
363.7340351343
 22
31.0229779808
 13
363.7340351343
 23
31.0229779808
  0
SOLID
  8
0
 62
7
  6
CONTINUOUS
 10
363.5027853548
 20
30.926187309
 11
363.1559103548
 21
30.8939238094
 12
363.6184102445
 22
30.9907152029
 13
363.6184102445
 23
30.9907152029
  0
SOLID
  8
0
 62
7
  6
CONTINUOUS
 10
363.1559103548
 20
30.8939238094
 11
363.7340351343
 21
31.0229779898
 12
363.6184102445
 22
30.9907152029
 13
363.6184102445
 23
30.9907152029
  0
SOLID
  8
0
 62
7
  6
CONTINUOUS
 10
363.5027853548
 20
30.926187309
 11
363.4449727445
 21
30.8293967193
 12
363.1559103548
 22
30.8939238094
 13
363.1559103548
 23
30.8939238094
  0
SOLID
  8
0
 62
7
  6
CONTINUOUS
 10
363.1559103548
 20
30.797132416
 11
363.1559103548
 21
30.8939238094
 12
363.4449727445
 22
30.8293967193
 13
363.4449727445
 23
30.8293967193
  0
SOLID
  8
0
 62
7
  6
CONTINUOUS
 10
363.4449727445
 20
30.8293967193
 11
363.4449727445
 21
30.7648681127
 12
363.1559103548
 22
30.797132416
 13
363.1559103548
 23
30.797132416
  0
SOLID
  8
0
 62
7
  6
CONTINUOUS
 10
363.2137226343
 20
30.6680782357
 11
363.1559103548
 21
30.797132416
 12
363.4449727445
 22
30.7648681127
 13
363.4449727445
 23
30.7648681127
  0
SOLID
  8
0
 62
7
  6
CONTINUOUS
 10
364.6012229651
 20
30.8616599362
 11
364.890285024
 21
30.7648681127
 12
364.543410024
 22
30.797132416
 13
364.543410024
 23
30.797132416
  0
SOLID
  8
0
 62
7
  6
CONTINUOUS
 10
364.369972524
 20
30.7003410226
 11
364.543410024
 21
30.797132416
 12
364.890285024
 22
30.7648681127
 13
364.890285024
 23
30.7648681127
  0
SOLID
  8
0
 62
7
  6
CONTINUOUS
 10
364.369972524
 20
30.7003410226
 11
364.890285024
 21
30.7648681127
 12
364.6012229651
 22
30.6680782357
 13
364.6012229651
 23
30.6680782357
  0
SOLID
  8
0
 62
7
  6
CONTINUOUS
 10
364.890285024
 20
30.7648681127
 11
364.9480979651
 21
30.6035511455
 12
364.6012229651
 22
30.6680782357
 13
364.6012229651
 23
30.6680782357
  0
SOLID
  8
0
 62
7
  6
CONTINUOUS
 10
364.6590352445
 20
30.5712868422
 11
364.6012229651
 21
30.6680782357
 12
364.9480979651
 22
30.6035511455
 13
364.9480979651
 23
30.6035511455
  0
SOLID
  8
0
 62
7
  6
CONTINUOUS
 10
364.6590352445
 20
30.5712868422
 11
364.9480979651
 21
30.6035511455
 12
364.716847524
 22
30.5067598731
 13
364.716847524
 23
30.5067598731
  0
SOLID
  8
0
 62
7
  6
CONTINUOUS
 10
364.9480979651
 20
30.6035511455
 11
365.0059102445
 21
30.5067598731
 12
364.716847524
 22
30.5067598731
 13
364.716847524
 23
30.5067598731
  0
SOLID
  8
0
 62
7
  6
CONTINUOUS
 10
360.2652852997
 20
30.7326051679
 11
360.3230977445
 21
30.8293966612
 12
360.6121602997
 22
30.8293966612
 13
360.6121602997
 23
30.8293966612
  0
SOLID
  8
0
 62
7
  6
CONTINUOUS
 10
360.6121602997
 20
30.8293966612
 11
360.5543476894
 21
30.7003410226
 12
360.2652852997
 22
30.7326051679
 13
360.2652852997
 23
30.7326051679
  0
SOLID
  8
0
 62
7
  6
CONTINUOUS
 10
360.091847717
 20
30.6680782357
 11
360.2652852997
 21
30.7326051679
 12
360.5543476894
 22
30.7003410226
 13
360.5543476894
 23
30.7003410226
  0
SOLID
  8
0
 62
7
  6
CONTINUOUS
 10
360.091847717
 20
30.6680782357
 11
360.5543476894
 21
30.7003410226
 12
359.6871602721
 22
30.6358139324
 13
359.6871602721
 23
30.6358139324
  0
SOLID
  8
0
 62
7
  6
CONTINUOUS
 10
360.5543476894
 20
30.7003410226
 11
360.3809101894
 21
30.6035511455
 12
359.6871602721
 22
30.6358139324
 13
359.6871602721
 23
30.6358139324
  0
SOLID
  8
0
 62
7
  6
CONTINUOUS
 10
359.2246602583
 20
30.5712868422
 11
359.6871602721
 21
30.6358139324
 12
360.3809101894
 22
30.6035511455
 13
360.3809101894
 23
30.6035511455
  0
SOLID
  8
0
 62
7
  6
CONTINUOUS
 10
359.2246602583
 20
30.5712868422
 11
360.3809101894
 21
30.6035511455
 12
359.3980977583
 22
30.5390224228
 13
359.3980977583
 23
30.5390224228
  0
SOLID
  8
0
 62
7
  6
CONTINUOUS
 10
360.3809101894
 20
30.6035511455
 11
360.1496602445
 21
30.5390224228
 12
359.3980977583
 22
30.5390224228
 13
359.3980977583
 23
30.5390224228
  0
SOLID
  8
0
 62
7
  6
CONTINUOUS
 10
359.744972717
 20
30.5067597521
 11
359.3980977583
 21
30.5390224228
 12
360.1496602445
 22
30.5390224228
 13
360.1496602445
 23
30.5390224228
  0
SOLID
  8
0
 62
7
  6
CONTINUOUS
 10
363.2137226343
 20
30.6680782357
 11
363.4449727445
 21
30.7648681127
 12
363.5027853548
 22
30.7003410226
 13
363.5027853548
 23
30.7003410226
  0
SOLID
  8
0
 62
7
  6
CONTINUOUS
 10
363.5027853548
 20
30.7003410226
 11
363.7340351343
 21
30.6358139324
 12
363.2137226343
 22
30.6680782357
 13
363.2137226343
 23
30.6680782357
  0
SOLID
  8
0
 62
7
  6
CONTINUOUS
 10
363.3871601343
 20
30.5712868422
 11
363.2137226343
 21
30.6680782357
 12
363.7340351343
 22
30.6358139324
 13
363.7340351343
 23
30.6358139324
  0
SOLID
  8
0
 62
7
  6
CONTINUOUS
 10
364.0809101343
 20
30.6358139363
 11
364.369972524
 21
30.7003410226
 12
364.6012229651
 22
30.6680782357
 13
364.6012229651
 23
30.6680782357
  0
SOLID
  8
0
 62
7
  6
CONTINUOUS
 10
364.6012229651
 20
30.6680782357
 11
364.543410024
 21
30.6035511455
 12
364.0809101343
 22
30.6358139363
 13
364.0809101343
 23
30.6358139363
  0
SOLID
  8
0
 62
7
  6
CONTINUOUS
 10
364.543410024
 20
30.6035511455
 11
363.3871601343
 21
30.5712868422
 12
364.0809101343
 22
30.6358139363
 13
364.0809101343
 23
30.6358139363
  0
SOLID
  8
0
 62
7
  6
CONTINUOUS
 10
363.3871601343
 20
30.5712868422
 11
363.7340351343
 21
30.6358139363
 12
364.0809101343
 22
30.6358139363
 13
364.0809101343
 23
30.6358139363
  0
SOLID
  8
0
 62
7
  6
CONTINUOUS
 10
363.3871601343
 20
30.5712868422
 11
364.543410024
 21
30.6035511455
 12
363.5027853548
 22
30.5390225267
 13
363.5027853548
 23
30.5390225267
  0
SOLID
  8
0
 62
7
  6
CONTINUOUS
 10
364.543410024
 20
30.6035511455
 11
364.369972524
 21
30.5390225267
 12
363.5027853548
 22
30.5390225267
 13
363.5027853548
 23
30.5390225267
  0
SOLID
  8
0
 62
7
  6
CONTINUOUS
 10
363.7340351343
 20
30.5067596914
 11
363.5027853548
 21
30.5390225267
 12
364.369972524
 22
30.5390225267
 13
364.369972524
 23
30.5390225267
  0
SOLID
  8
0
 62
7
  6
CONTINUOUS
 10
364.369972524
 20
30.5390225267
 11
364.0809101343
 21
30.5067596914
 12
363.7340351343
 22
30.5067596914
 13
363.7340351343
 23
30.5067596914
  0
SOLID
  8
0
 62
7
  6
CONTINUOUS
 10
368.7637229651
 20
30.6680782357
 11
368.4168479651
 21
30.6358138717
 12
368.6480977445
 22
30.7003410226
 13
368.6480977445
 23
30.7003410226
  0
SOLID
  8
0
 62
7
  6
CONTINUOUS
 10
368.6480977445
 20
30.7003410226
 11
368.4168479651
 21
30.6358138717
 12
368.5902854651
 22
30.7648680521
 13
368.5902854651
 23
30.7648680521
  0
SOLID
  8
0
 62
7
  6
CONTINUOUS
 10
368.4168479651
 20
30.6358138717
 11
368.3012227445
 21
30.7648680521
 12
368.5902854651
 22
30.7648680521
 13
368.5902854651
 23
30.7648680521
  0
SOLID
  8
0
 62
7
  6
CONTINUOUS
 10
368.7637229651
 20
30.6680782357
 11
369.1105979651
 21
30.6358138717
 12
368.4168479651
 22
30.6358138717
 13
368.4168479651
 23
30.6358138717
  0
SOLID
  8
0
 62
7
  6
CONTINUOUS
 10
365.4684104651
 20
30.5067597521
 11
365.4684104651
 21
31.5391977439
 12
365.757472524
 22
30.5067597521
 13
365.757472524
 23
31.5391977439
  0
ENDBLK
  8
0
  6
BYBLOCK
 62
0
  0
BLOCK
  8
0
 62
2
  6
CONTINUOUS
  2
SYMBOL_0_BL0
 70
64
 10
240.8592468615
 20
19.762288695
  0
TEXT
  8
0
 62
7
  6
CONTINUOUS
 10
227.1239507038
 20
19.1357028027
  7
TEXTSTYLE_3
 40
2.7338706658
  1
Ammeraal Beltech
 41
1.0
 51
15.0
 72
0
  0
TEXT
  8
0
 62
7
  6
CONTINUOUS
 10
237.9247515296
 20
16.8621661299
  7
TEXTSTYLE_4
 40
1.0935482663
  1
Innovation & Service in Belting
 41
1.0
 72
0
  0
LINE
  8
0
 62
7
  6
CONTINUOUS
 10
221.0994100525
 20
19.9022961113
 11
221.8775620458
 21
23.5632134089
  0
LINE
  8
0
 62
7
  6
CONTINUOUS
 10
231.9727303357
 20
27.2266073205
 11
222.3653797889
 21
24.1049898993
  0
LINE
  8
0
 62
7
  6
CONTINUOUS
 10
221.3246933848
 20
19.2089453082
 11
228.8317686459
 21
12.4495443822
  0
LINE
  8
0
 62
7
  6
CONTINUOUS
 10
221.5872277955
 20
20.4440726016
 11
232.3954971607
 21
23.9558922005
  0
LINE
  8
0
 62
7
  6
CONTINUOUS
 10
232.3912920235
 20
13.6061036368
 11
223.9458323548
 21
21.2104296785
  0
LINE
  8
0
 62
7
  6
CONTINUOUS
 10
232.9111147433
 20
26.3816822048
 11
231.9345552061
 21
21.7873308023
  0
LINE
  8
0
 62
7
  6
CONTINUOUS
 10
231.2347532584
 20
18.4950214885
 11
230.5483050469
 21
15.2655365641
  0
LINE
  8
0
 62
7
  6
CONTINUOUS
 10
233.5922108419
 20
13.9963058145
 11
234.5484423775
 21
18.4950214885
  0
LINE
  8
0
 62
7
  6
CONTINUOUS
 10
235.2482443252
 20
21.7873308023
 11
235.6924861276
 21
23.8773241617
  0
LINE
  8
0
 62
7
  6
CONTINUOUS
 10
229.5448697213
 20
12.2979700695
 11
233.1043930989
 21
13.4545293241
  0
LINE
  8
0
 62
7
  6
CONTINUOUS
 10
232.685831411
 20
27.0750330078
 11
235.4672027953
 21
24.5706749648
  0
ARC
  8
0
 62
7
  6
CONTINUOUS
 10
222.5906631212
 20
23.4116390962
 40
0.7290321776
 50
108.0
 51
168.0
  0
ARC
  8
0
 62
7
  6
CONTINUOUS
 10
232.198013668
 20
26.5332565175
 40
0.7290321776
 50
348.0
 51
108.0
  0
ARC
  8
0
 62
7
  6
CONTINUOUS
 10
234.9793850522
 20
24.0288984744
 40
0.7290321776
 50
348.0
 51
48.0
  0
ARC
  8
0
 62
7
  6
CONTINUOUS
 10
229.319586389
 20
12.9913208726
 40
0.7290321776
 50
228.0
 51
288.0
  0
ARC
  8
0
 62
7
  6
CONTINUOUS
 10
221.8125111278
 20
19.7507217986
 40
0.7290321776
 50
108.0
 51
228.0
  0
ARC
  8
0
 62
7
  6
CONTINUOUS
 10
232.8791097665
 20
14.1478801272
 40
0.7290321776
 50
228.0
 51
348.0
  0
ENDBLK
  8
0
  6
BYBLOCK
 62
0
  0
ENDSEC
  0
SECTION
  2
ENTITIES
  0
TEXT
  8
0
 62
5
  6
CONTINUOUS
 10
304.937007874
 20
25.636
  7
TEXTSTYLE_2
 40
2.8
  1
Scale :
 41
0.6
 51
0.000019
 72
0
  0
TEXT
  8
0
 62
5
  6
CONTINUOUS
 10
324.937007874
 20
25.636
  7
TEXTSTYLE_2
 40
2.8
  1
Belt type:
 41
0.6
 51
0.000019
 72
0
  0
INSERT
  8
0
 62
2
  6
CONTINUOUS
  2
SYMBOL_0_BL0
 10
240.8592468615
 20
19.762288695
  0
INSERT
  8
0
 62
2
  6
CONTINUOUS
  2
SYMBOL_5_BL1
 10
382.7840918555
 20
35.5067593403
  0
LINE
  8
0
 62
2
  6
CONTINUOUS
 10
218.937007874
 20
30.0
 11
408.937007874
 21
30.0
  0
LINE
  8
0
 62
2
  6
CONTINUOUS
 10
218.937007874
 20
30.0
 11
218.937007874
 21
10.0
  0
LINE
  8
0
 62
2
  6
CONTINUOUS
 10
218.937007874
 20
10.0
 11
408.937007874
 21
10.0
  0
LINE
  8
0
 62
2
  6
CONTINUOUS
 10
303.937007874
 20
30.0
 11
303.937007874
 21
10.0
  0
LINE
  8
0
 62
2
  6
CONTINUOUS
 10
323.937007874
 20
30.0
 11
323.937007874
 21
10.0
  0
LINE
  8
0
 62
2
  6
CONTINUOUS
 10
408.937007874
 20
30.0
 11
408.937007874
 21
10.0
  0
TEXT
  8
0
 62
5
  6
CONTINUOUS
 10
221.937007874
 20
23.303
  7
TEXTSTYLE_5
 40
1.52
  1
                                                                     Ammeraal Beltech Modular A/S
 41
1.0
 72
0
  0
TEXT
  8
0
 62
5
  6
CONTINUOUS
 10
221.937007874
 20
20.595
  7
TEXTSTYLE_5
 40
1.5
  1
                                                                      Hjulmagervej 21, 7100 Vejle,  DK
 41
1.0
 72
0
  0
TEXT
  8
0
 62
5
  6
CONTINUOUS
 10
221.937007874
 20
17.881
  7
TEXTSTYLE_5
 40
1.495
  1
                                                                      tel: 
 41
1.0
 72
0
  0
TEXT
  8
0
 62
5
  6
CONTINUOUS
 10
266.9239544389
 20
17.881
  7
TEXTSTYLE_5
 40
1.51
  1
+45 75723100     fax: +45 75723348
 41
1.0
 72
0
  0
TEXT
  8
0
 62
5
  6
CONTINUOUS
 10
221.937007874
 20
15.177
  7
TEXTSTYLE_5
 40
1.5
  1
                                                                      admin@unichains.dk  www.unichains.com
 41
1.0
 72
0
  0
TEXT
  8
0
 62
5
  6
CONTINUOUS
 10
308.687007874
 20
13.75
  7
TEXTSTYLE_6
 40
5.0
  1
1:1
 41
0.7
 72
1
 11
313.937007874
 21
13.75
  0
TEXT
  8
0
 62
5
  6
CONTINUOUS
 10
326.937007874
 20
13.75
  7
TEXTSTYLE_7
 40
7.5
  1
Sprocket Z12 
 41
0.6487179487
 72
0
  0
LINE
  8
0
 62
7
  6
CONTINUOUS
 10
0.0
 20
0.0
 11
0.0
 21
297.0
  0
LINE
  8
0
 62
7
  6
CONTINUOUS
 10
8.937007874
 20
10.0
 11
8.937007874
 21
287.0
  0
LINE
  8
0
 62
7
  6
CONTINUOUS
 10
0.0
 20
0.0
 11
420.0
 21
0.0
  0
LINE
  8
0
 62
7
  6
CONTINUOUS
 10
408.937007874
 20
10.0
 11
8.937007874
 21
10.0
  0
LINE
  8
0
 62
7
  6
CONTINUOUS
 10
218.937007874
 20
30.0
 11
408.937007874
 21
30.0
  0
LINE
  8
0
 62
7
  6
CONTINUOUS
 10
210.0
 20
297.0
 11
210.0
 21
292.0
  0
LINE
  8
0
 62
7
  6
CONTINUOUS
 10
210.0
 20
0.0
 11
210.0
 21
5.0
  0
LINE
  8
0
 62
7
  6
CONTINUOUS
 10
8.937007874
 20
287.0
 11
408.937007874
 21
287.0
  0
LINE
  8
0
 62
7
  6
CONTINUOUS
 10
0.0
 20
297.0
 11
420.0
 21
297.0
  0
LINE
  8
0
 62
7
  6
CONTINUOUS
 10
408.937007874
 20
287.0
 11
408.937007874
 21
10.0
  0
LINE
  8
0
 62
7
  6
CONTINUOUS
 10
420.0
 20
0.0
 11
420.0
 21
297.0
  0
LINE
  8
0
 62
7
  6
CONTINUOUS
 10
37.8902554573
 20
170.8777055864
 11
37.8902554573
 21
139.5391024051
  0
LINE
  8
0
 62
7
  6
CONTINUOUS
 10
37.8902554573
 20
191.8469285093
 11
37.8902554573
 21
196.7275824964
  0
LINE
  8
0
 62
7
  6
CONTINUOUS
 10
51.0656402159
 20
214.5601846435
 11
35.3963386253
 21
187.4201581693
  0
LINE
  8
0
 62
7
  6
CONTINUOUS
 10
61.5502516773
 20
232.7200643923
 11
63.9905786709
 21
236.9468347322
  0
LINE
  8
0
 62
7
  6
CONTINUOUS
 10
84.31709765
 20
245.8026288278
 11
57.1770711759
 21
230.1333272372
  0
LINE
  8
0
 62
7
  6
CONTINUOUS
 10
102.4769773988
 20
256.2872402893
 11
106.7037477387
 21
258.7275672828
  0
LINE
  8
SURFACE
 62
7
  6
CONTINUOUS
 10
102.2769773988
 20
80.0330344508
 11
97.3963234117
 21
80.0330344508
  0
LINE
  8
0
 62
7
  6
CONTINUOUS
 10
102.2769773988
 20
80.0330344508
 11
97.3963234117
 21
80.0330344508
  0
LINE
  8
0
 62
7
  6
CONTINUOUS
 10
123.2462003216
 20
80.0330344508
 11
154.5848035029
 21
80.0330344508
  0
LINE
  8
0
 62
7
  6
CONTINUOUS
 10
79.5637212646
 20
93.2084192094
 11
106.7037477387
 21
77.5391176187
  0
LINE
  8
0
 62
7
  6
CONTINUOUS
 10
61.4038415158
 20
103.6930306708
 11
57.1770711759
 21
106.1333576643
  0
LINE
  8
0
 62
7
  6
CONTINUOUS
 10
48.3212770803
 20
126.4598766435
 11
63.9905786709
 21
99.3198501693
  0
LINE
  8
0
 62
7
  6
CONTINUOUS
 10
37.8366656188
 20
144.6197563923
 11
35.3963386253
 21
148.8465267322
  0
LINE
  8
0
 62
7
  6
CONTINUOUS
 10
75.4888060387
 20
178.6497907498
 11
75.5118515574
 21
178.1342656723
  0
LINE
  8
0
 62
7
  6
CONTINUOUS
 10
76.0117657819
 20
178.0301639088
 11
75.9887202633
 21
178.5456889864
  0
LINE
  8
0
 62
7
  6
CONTINUOUS
 10
74.8751552454
 20
175.2957952648
 11
74.8094610414
 21
174.674257317
  0
LINE
  8
0
 62
7
  6
CONTINUOUS
 10
74.5466842867
 20
172.1881061037
 11
74.4809900969
 21
171.5665682892
  0
LINE
  8
0
 62
7
  6
CONTINUOUS
 10
78.2458788182
 20
173.1797745491
 11
78.1933234588
 21
172.6825442264
  0
LINE
  8
0
 62
7
  6
CONTINUOUS
 10
78.7011330734
 20
172.628870676
 11
78.7536884328
 21
173.1261009986
  0
LINE
  8
0
 62
7
  6
CONTINUOUS
 10
78.8982156477
 20
174.4934841638
 11
78.9639098516
 21
175.1150221116
  0
LINE
  8
0
 62
7
  6
CONTINUOUS
 10
75.5907390762
 20
179.1392903865
 11
75.4888060387
 21
178.6497907498
  0
LINE
  8
0
 62
7
  6
CONTINUOUS
 10
75.2594568137
 20
177.5484170925
 11
75.1320405533
 21
176.9365427218
  0
LINE
  8
0
 62
7
  6
CONTINUOUS
 10
79.1313547
 20
176.1037285411
 11
79.2587709604
 21
176.7156029119
  0
LINE
  8
0
 62
7
  6
CONTINUOUS
 10
79.7174694104
 20
178.9183502265
 11
79.8448855979
 21
179.5302242471
  0
LINE
  8
0
 62
7
  6
CONTINUOUS
 10
74.5089537136
 20
182.6932708285
 11
74.342379809
 21
182.0908774053
  0
LINE
  8
0
 62
7
  6
CONTINUOUS
 10
74.9575902749
 20
181.9207593306
 11
75.1241641794
 21
182.5231527538
  0
LINE
  8
0
 62
7
  6
CONTINUOUS
 10
76.3545854559
 20
182.1829165089
 11
76.1880115514
 21
181.5805230857
  0
LINE
  8
0
 62
7
  6
CONTINUOUS
 10
80.1253588778
 20
180.4917673119
 11
80.2919327823
 21
181.0941607351
  0
LINE
  8
0
 62
7
  6
CONTINUOUS
 10
85.1053590779
 20
198.7668453523
 11
84.9914541389
 21
198.3874410456
  0
LINE
  8
0
 62
7
  6
CONTINUOUS
 10
78.5216253197
 20
172.1450588298
 11
78.7011330734
 21
172.628870676
  0
LINE
  8
0
 62
7
  6
CONTINUOUS
 10
89.0108808267
 20
203.3826617308
 11
88.8529491111
 21
203.0193718517
  0
LINE
  8
0
 62
7
  6
CONTINUOUS
 10
90.9938556731
 20
201.5785628117
 11
90.8359239574
 21
201.2152729326
  0
LINE
  8
0
 62
7
  6
CONTINUOUS
 10
85.5423429189
 20
197.8407814205
 11
85.8014611047
 21
198.4236866759
  0
LINE
  8
0
 62
7
  6
CONTINUOUS
 10
75.9887202633
 20
178.5456889864
 11
76.2156318569
 21
179.0091631822
  0
LINE
  8
0
 62
7
  6
CONTINUOUS
 10
80.1111564001
 20
195.8160086533
 11
79.5847976807
 21
194.8217393244
  0
LINE
  8
0
 62
7
  6
CONTINUOUS
 10
77.8302686158
 20
191.5075082279
 11
77.3039098964
 21
190.513238899
  0
LINE
  8
0
 62
7
  6
CONTINUOUS
 10
82.6066796507
 20
187.7059923952
 11
82.9575854636
 21
188.3688386145
  0
LINE
  8
0
 62
7
  6
CONTINUOUS
 10
83.7763652477
 20
189.91547895
 11
84.2442398881
 21
190.7992743305
  0
LINE
  8
0
 62
7
  6
CONTINUOUS
 10
85.0630203415
 20
192.3459159302
 11
85.4139261544
 21
193.0087621495
  0
LINE
  8
0
 62
7
  6
CONTINUOUS
 10
75.792167374
 20
179.4803894981
 11
75.5907390762
 21
179.1392903865
  0
LINE
  8
0
 62
7
  6
CONTINUOUS
 10
91.318369799
 20
200.6073573624
 11
91.6445402511
 21
201.1555668205
  0
LINE
  8
0
 62
7
  6
CONTINUOUS
 10
82.8405328137
 20
199.7687263273
 11
81.0979672049
 21
197.3267056273
  0
LINE
  8
0
 62
7
  6
CONTINUOUS
 10
82.0531874175
 20
197.5664522063
 11
83.4327174165
 21
199.4997170412
  0
LINE
  8
0
 62
7
  6
CONTINUOUS
 10
84.9914541389
 20
198.3874410456
 11
83.6119241398
 21
196.4541762107
  0
LINE
  8
0
 62
7
  6
CONTINUOUS
 10
84.2354187123
 20
196.0092658955
 11
85.5423429189
 21
197.8407814205
  0
LINE
  8
0
 62
7
  6
CONTINUOUS
 10
85.9820086049
 20
193.8415744097
 11
86.4176500071
 21
194.4520795847
  0
LINE
  8
0
 62
7
  6
CONTINUOUS
 10
101.1464593766
 20
215.3827459165
 11
100.8136682175
 21
214.9305999342
  0
LINE
  8
0
 62
7
  6
CONTINUOUS
 10
76.2156318569
 20
179.0091631822
 11
76.3915768589
 21
179.2278872095
  0
LINE
  8
0
 62
7
  6
CONTINUOUS
 10
86.8802831531
 20
204.6451026396
 11
84.8614105145
 21
202.4260593167
  0
LINE
  8
0
 62
7
  6
CONTINUOUS
 10
85.9326928593
 20
202.4653633649
 11
87.5309657479
 21
204.2221045848
  0
LINE
  8
0
 62
7
  6
CONTINUOUS
 10
88.8529491111
 20
203.0193718517
 11
87.2546762224
 21
201.2626306319
  0
LINE
  8
0
 62
7
  6
CONTINUOUS
 10
87.8212404076
 20
200.7471738494
 11
89.4195132962
 21
202.5039150693
  0
LINE
  8
0
 62
7
  6
CONTINUOUS
 10
90.8359239574
 20
201.2152729326
 11
89.2376510688
 21
199.4585317128
  0
LINE
  8
0
 62
7
  6
CONTINUOUS
 10
89.2994971604
 20
198.3883140394
 11
91.318369799
 21
200.6073573624
  0
LINE
  8
0
 62
7
  6
CONTINUOUS
 10
83.3074825236
 20
200.2033281443
 11
82.8405328137
 21
199.7687263273
  0
LINE
  8
0
 62
7
  6
CONTINUOUS
 10
92.550721354
 20
205.7282817143
 11
91.262033193
 21
204.5443140264
  0
LINE
  8
0
 62
7
  6
CONTINUOUS
 10
91.6938758157
 20
204.0742754596
 11
92.9825639766
 21
205.2582431475
  0
LINE
  8
0
 62
7
  6
CONTINUOUS
 10
101.6011446882
 20
214.7537960841
 11
101.9910871834
 21
215.0917900281
  0
LINE
  8
0
 62
7
  6
CONTINUOUS
 10
105.3872916781
 20
211.9381082796
 11
104.9973491829
 21
211.6001143357
  0
LINE
  8
0
 62
7
  6
CONTINUOUS
 10
109.9258924142
 20
216.630123666
 11
109.6157000803
 21
216.3837445292
  0
LINE
  8
0
 62
7
  6
CONTINUOUS
 10
101.6481791671
 20
215.7767022581
 11
101.1464593766
 21
215.3827459165
  0
LINE
  8
0
 62
7
  6
CONTINUOUS
 10
105.3402572391
 20
210.9152020257
 11
105.8419770246
 21
211.3091583773
  0
LINE
  8
0
 62
7
  6
CONTINUOUS
 10
95.500480381
 20
212.1657718226
 11
94.9044781811
 21
211.710490176
  0
LINE
  8
0
 62
7
  6
CONTINUOUS
 10
92.1231338237
 20
209.5858419131
 11
91.5271316238
 21
209.1305602666
  0
LINE
  8
0
 62
7
  6
CONTINUOUS
 10
96.3768784414
 20
209.7829936453
 11
93.5955340839
 21
207.6583453824
  0
LINE
  8
0
 62
7
  6
CONTINUOUS
 10
94.0605025186
 20
207.0496623572
 11
96.841846876
 21
209.1743106201
  0
LINE
  8
0
 62
7
  6
CONTINUOUS
 10
95.1693847963
 20
204.3625426673
 11
95.7653869962
 21
204.8178243138
  0
LINE
  8
0
 62
7
  6
CONTINUOUS
 10
98.5467313536
 20
206.9424725767
 11
99.1427335535
 21
207.3977542233
  0
LINE
  8
0
 62
7
  6
CONTINUOUS
 10
87.3953083419
 20
205.0214931627
 11
86.8802831531
 21
204.6451026396
  0
LINE
  8
0
 62
7
  6
CONTINUOUS
 10
83.4327174165
 20
199.4997170412
 11
83.7544538797
 21
199.7308179095
  0
LINE
  8
0
 62
7
  6
CONTINUOUS
 10
115.7680289893
 20
218.1884244406
 11
115.4309007815
 21
217.9804183481
  0
LINE
  8
0
 62
7
  6
CONTINUOUS
 10
116.3653641586
 20
215.5749683291
 11
116.0282359507
 21
215.3669622366
  0
LINE
  8
0
 62
7
  6
CONTINUOUS
 10
109.7556734638
 20
215.62038087
 11
110.3012947679
 21
215.9508679951
  0
LINE
  8
0
 62
7
  6
CONTINUOUS
 10
87.5309657479
 20
204.2221045848
 11
87.877752192
 21
204.4135755364
  0
LINE
  8
0
 62
7
  6
CONTINUOUS
 10
89.4195132962
 20
202.5039150693
 11
89.7662997402
 21
202.6953860209
  0
LINE
  8
0
 62
7
  6
CONTINUOUS
 10
102.6541441248
 20
216.2803484671
 11
101.6481791671
 21
215.7767022581
  0
LINE
  8
0
 62
7
  6
CONTINUOUS
 10
101.9910871834
 20
215.0917900281
 11
102.9970521411
 21
215.595436237
  0
LINE
  8
0
 62
7
  6
CONTINUOUS
 10
104.2341530966
 20
215.3582100602
 11
104.9047964017
 21
215.6939741995
  0
LINE
  8
0
 62
7
  6
CONTINUOUS
 10
106.2192772108
 20
213.0684771579
 11
105.5486339057
 21
212.7327130186
  0
LINE
  8
0
 62
7
  6
CONTINUOUS
 10
104.9973491829
 20
211.6001143357
 11
103.9913842251
 21
211.0964681267
  0
LINE
  8
0
 62
7
  6
CONTINUOUS
 10
104.3342922814
 20
210.4115558168
 11
105.3402572391
 21
210.9152020257
  0
LINE
  8
0
 62
7
  6
CONTINUOUS
 10
116.077041847
 20
214.5924076901
 11
116.6578870697
 21
214.8561180944
  0
LINE
  8
0
 62
7
  6
CONTINUOUS
 10
89.9036173976
 20
203.4154165152
 11
89.6409493633
 21
203.3164042912
  0
LINE
  8
0
 62
7
  6
CONTINUOUS
 10
108.6390142379
 20
218.7460522509
 11
105.8138881498
 21
217.7367640929
  0
LINE
  8
0
 62
7
  6
CONTINUOUS
 10
106.7349118075
 20
217.387995547
 11
108.971473553
 21
218.1870166221
  0
LINE
  8
0
 62
7
  6
CONTINUOUS
 10
109.6157000803
 20
216.3837445292
 11
107.3791383349
 21
215.584723454
  0
LINE
  8
0
 62
7
  6
CONTINUOUS
 10
107.6368288977
 20
214.8634147515
 11
109.7556734638
 21
215.62038087
  0
LINE
  8
0
 62
7
  6
CONTINUOUS
 10
107.8324644658
 20
212.0865119165
 11
108.5387459879
 21
212.338833956
  0
LINE
  8
0
 62
7
  6
CONTINUOUS
 10
78.1714817218
 20
173.6904230851
 11
78.2458788182
 21
173.1797745491
  0
LINE
  8
0
 62
7
  6
CONTINUOUS
 10
78.7536884328
 20
173.1261009986
 11
78.6792913698
 21
173.6367495311
  0
LINE
  8
0
 62
7
  6
CONTINUOUS
 10
85.8014611047
 20
198.4236866759
 11
85.7801419738
 21
199.0531460598
  0
LINE
  8
0
 62
7
  6
CONTINUOUS
 10
91.6445402511
 20
201.1555668205
 11
91.6977375486
 21
201.7831364935
  0
POLYLINE
  8
0
 62
7
  6
CONTINUOUS
 66
1
 70
0
  0
VERTEX
  8
0
 62
7
  6
CONTINUOUS
 10
97.3963234117
 20
256.2336504508
  0
VERTEX
  8
0
 62
7
  6
CONTINUOUS
 10
97.3958969174
 20
256.2301966427
  0
VERTEX
  8
0
 62
7
  6
CONTINUOUS
 10
97.3475005616
 20
255.8336504508
  0
SEQEND
  0
LINE
  8
0
 62
7
  6
CONTINUOUS
 10
89.6409493633
 20
203.3164042912
 11
89.7147626692
 21
203.5872354427
  0
LINE
  8
0
 62
7
  6
CONTINUOUS
 10
100.8136682175
 20
214.9305999342
 11
100.5951771721
 21
214.2501485944
  0
LINE
  8
SURFACE
 62
7
  6
CONTINUOUS
 10
57.1770711759
 20
106.1333576643
 11
57.1824737746
 21
106.1461085287
  0
LINE
  8
SURFACE
 62
7
  6
CONTINUOUS
 10
57.1824737746
 20
106.1461085287
 11
57.3347893474
 21
106.5041792509
  0
LINE
  8
0
 62
7
  6
CONTINUOUS
 10
101.3801257077
 20
214.3576099378
 11
101.6011446882
 21
214.7537960841
  0
LINE
  8
0
 62
7
  6
CONTINUOUS
 10
105.6083106185
 20
212.3342945059
 11
105.3872916781
 21
211.9381082796
  0
LINE
  8
0
 62
7
  6
CONTINUOUS
 10
110.3012947679
 20
215.9508679951
 11
110.6433020383
 21
216.4797363976
  0
LINE
  8
0
 62
7
  6
CONTINUOUS
 10
78.1933234588
 20
172.6825442264
 11
77.8868632792
 21
172.2121507702
  0
LINE
  8
0
 62
7
  6
CONTINUOUS
 10
105.8419770246
 20
211.3091583773
 11
106.1747681688
 21
211.7613043896
  0
POLYLINE
  8
0
 62
7
  6
CONTINUOUS
 66
1
 70
0
  0
VERTEX
  8
0
 62
7
  6
CONTINUOUS
 10
145.2773791759
 20
258.7275672828
  0
VERTEX
  8
0
 62
7
  6
CONTINUOUS
 10
145.275282917
 20
258.7247894445
  0
VERTEX
  8
0
 62
7
  6
CONTINUOUS
 10
145.0350973474
 20
258.4055685464
  0
SEQEND
  0
LINE
  8
0
 62
7
  6
CONTINUOUS
 10
116.6578870697
 20
214.8561180944
 11
117.0599819316
 21
215.3408762898
  0
LINE
  8
0
 62
7
  6
CONTINUOUS
 10
78.2283039818
 20
171.7989728642
 11
78.5216253197
 21
172.1450588298
  0
LINE
  8
0
 62
7
  6
CONTINUOUS
 10
76.1185742279
 20
179.7954631688
 11
75.792167374
 21
179.4803894981
  0
LINE
  8
0
 62
7
  6
CONTINUOUS
 10
116.2473798423
 20
217.7741791403
 11
116.4626467524
 21
217.9543324449
  0
LINE
  8
SURFACE
 62
7
  6
CONTINUOUS
 10
35.3963386253
 20
148.8465267322
 11
35.4073928452
 21
148.8548680053
  0
LINE
  8
SURFACE
 62
7
  6
CONTINUOUS
 10
35.4073928452
 20
148.8548680053
 11
35.7183373617
 21
149.0888085607
  0
LINE
  8
0
 62
7
  6
CONTINUOUS
 10
76.419497786
 20
179.9881617552
 11
76.1185742279
 21
179.7954631688
  0
LINE
  8
0
 62
7
  6
CONTINUOUS
 10
76.3915768589
 20
179.2278872095
 11
76.692500417
 21
179.420585796
  0
POLYLINE
  8
0
 62
7
  6
CONTINUOUS
 66
1
 70
0
  0
VERTEX
  8
0
 62
7
  6
CONTINUOUS
 10
187.9905482438
 20
236.9468347322
  0
VERTEX
  8
0
 62
7
  6
CONTINUOUS
 10
187.9873439111
 20
236.9454771831
  0
VERTEX
  8
0
 62
7
  6
CONTINUOUS
 10
187.6197266572
 20
236.7891165607
  0
SEQEND
  0
LINE
  8
0
 62
7
  6
CONTINUOUS
 10
148.4432897639
 20
216.0264553824
 11
142.7167077952
 21
213.749133406
  0
LINE
  8
0
 62
7
  6
CONTINUOUS
 10
83.9096579653
 20
200.387877213
 11
83.3074825236
 21
200.2033281443
  0
LINE
  8
SURFACE
 62
7
  6
CONTINUOUS
 10
214.0908714573
 20
139.5391024051
 11
214.0771275855
 21
139.5374057607
  0
LINE
  8
SURFACE
 62
7
  6
CONTINUOUS
 10
214.0771275855
 20
139.5374057607
 11
213.6908714573
 21
139.490279555
  0
POLYLINE
  8
0
 62
7
  6
CONTINUOUS
 66
1
 70
0
  0
VERTEX
  8
0
 62
7
  6
CONTINUOUS
 10
37.8902554573
 20
139.5391024051
  0
VERTEX
  8
0
 62
7
  6
CONTINUOUS
 10
37.8937092653
 20
139.5386759108
  0
VERTEX
  8
0
 62
7
  6
CONTINUOUS
 10
38.2902554573
 20
139.490279555
  0
SEQEND
  0
LINE
  8
0
 62
7
  6
CONTINUOUS
 10
101.6807438562
 20
136.1688291559
 11
101.7973029243
 21
136.1357688573
  0
LINE
  8
0
 62
7
  6
CONTINUOUS
 10
101.7103076349
 20
136.348012301
 11
101.5354690261
 21
136.3976027555
  0
LINE
  8
0
 62
7
  6
CONTINUOUS
 10
100.0888656812
 20
137.7189579462
 11
100.2054247893
 21
137.6858976075
  0
LINE
  8
0
 62
7
  6
CONTINUOUS
 10
100.2889235589
 20
137.769396377
 11
100.1723644507
 21
137.8024567157
  0
LINE
  8
0
 62
7
  6
CONTINUOUS
 10
101.3422998391
 20
137.5510078944
 11
101.1674612231
 21
137.6005983415
  0
LINE
  8
SURFACE
 62
7
  6
CONTINUOUS
 10
187.9905482438
 20
99.3198501693
 11
187.9777973794
 21
99.3252527681
  0
LINE
  8
SURFACE
 62
7
  6
CONTINUOUS
 10
187.9777973794
 20
99.3252527681
 11
187.6197266572
 21
99.4775683409
  0
LINE
  8
0
 62
7
  6
CONTINUOUS
 10
101.5267799265
 20
136.2392943161
 11
101.6807438562
 21
136.1688291559
  0
LINE
  8
0
 62
7
  6
CONTINUOUS
 10
99.9349018718
 20
137.789422986
 11
100.0888656812
 21
137.7189579462
  0
LINE
  8
0
 62
7
  6
CONTINUOUS
 10
100.1723644507
 20
137.8024567157
 11
100.0184006413
 21
137.8729217555
  0
LINE
  8
0
 62
7
  6
CONTINUOUS
 10
101.3336106787
 20
137.3926995011
 11
101.4875746486
 21
137.3222343008
  0
LINE
  8
0
 62
7
  6
CONTINUOUS
 10
96.6058708387
 20
141.1184540191
 11
96.7598347551
 21
141.0479888723
  0
LINE
  8
0
 62
7
  6
CONTINUOUS
 10
98.8031151093
 20
140.1736914047
 11
98.6491511875
 21
140.244156546
  0
LINE
  8
0
 62
7
  6
CONTINUOUS
 10
96.8433335246
 20
141.1314876418
 11
96.6893696082
 21
141.2019527886
  0
LINE
  8
0
 62
7
  6
CONTINUOUS
 10
101.5354690261
 20
136.3976027555
 11
101.4397846371
 21
136.4515377598
  0
LINE
  8
0
 62
7
  6
CONTINUOUS
 10
98.7753516405
 20
138.9489732173
 11
98.8710359493
 21
138.8950382933
  0
LINE
  8
0
 62
7
  6
CONTINUOUS
 10
101.5336685692
 20
137.4431379448
 11
101.3422998391
 21
137.5510078944
  0
LINE
  8
0
 62
7
  6
CONTINUOUS
 10
98.8423201872
 20
139.0907515944
 11
98.7466358784
 21
139.1446865185
  0
LINE
  8
0
 62
7
  6
CONTINUOUS
 10
98.8927587251
 20
139.2908093651
 11
99.0841275567
 21
139.1829393031
  0
LINE
  8
0
 62
7
  6
CONTINUOUS
 10
98.9971322162
 20
139.3951828563
 11
98.9014479074
 21
139.4491177803
  0
LINE
  8
0
 62
7
  6
CONTINUOUS
 10
95.4089156921
 20
142.3154091657
 11
95.6002843097
 21
142.2075393176
  0
LINE
  8
0
 62
7
  6
CONTINUOUS
 10
95.5132891541
 20
142.4197826276
 11
95.4176046312
 21
142.4737177656
  0
LINE
  8
0
 62
7
  6
CONTINUOUS
 10
95.1826860255
 20
143.5853735392
 11
95.2783705483
 21
143.5314384011
  0
LINE
  8
0
 62
7
  6
CONTINUOUS
 10
95.2870595002
 20
143.6897470139
 11
95.0956908771
 21
143.7976168564
  0
LINE
  8
0
 62
7
  6
CONTINUOUS
 10
98.6987416346
 20
140.06931793
 11
98.9275151747
 21
139.924043174
  0
LINE
  8
0
 62
7
  6
CONTINUOUS
 10
101.3936907025
 20
136.3306341553
 11
101.5267799265
 21
136.2392943161
  0
POLYLINE
  8
0
 62
7
  6
CONTINUOUS
 66
1
 70
0
  0
VERTEX
  8
0
 62
7
  6
CONTINUOUS
 10
35.3963386253
 20
187.4201581693
  0
VERTEX
  8
0
 62
7
  6
CONTINUOUS
 10
35.3991164636
 20
187.4180619104
  0
VERTEX
  8
0
 62
7
  6
CONTINUOUS
 10
35.7183373617
 20
187.1778763409
  0
SEQEND
  0
LINE
  8
0
 62
7
  6
CONTINUOUS
 10
101.4397846371
 20
136.4515377598
 11
101.2692905514
 21
136.5802824607
  0
LINE
  8
0
 62
7
  6
CONTINUOUS
 10
99.7644077326
 20
137.9181677404
 11
99.9349018718
 21
137.789422986
  0
LINE
  8
0
 62
7
  6
CONTINUOUS
 10
100.0184006413
 20
137.8729217555
 11
99.8479065021
 21
138.00166651
  0
LINE
  8
0
 62
7
  6
CONTINUOUS
 10
98.7466358784
 20
139.1446865185
 11
98.5761417392
 21
139.2734312729
  0
LINE
  8
0
 62
7
  6
CONTINUOUS
 10
96.4353764854
 20
141.2471989876
 11
96.6058708387
 21
141.1184540191
  0
LINE
  8
0
 62
7
  6
CONTINUOUS
 10
98.9014479074
 20
139.4491177803
 11
98.7309537682
 21
139.5778625347
  0
LINE
  8
0
 62
7
  6
CONTINUOUS
 10
96.6893696082
 20
141.2019527886
 11
96.518875255
 21
141.3306977571
  0
LINE
  8
0
 62
7
  6
CONTINUOUS
 10
95.4176046312
 20
142.4737177656
 11
95.2471107061
 21
142.602462306
  0
LINE
  8
0
 62
7
  6
CONTINUOUS
 10
95.2783705483
 20
143.5314384011
 11
95.4488644807
 21
143.402693868
  0
LINE
  8
0
 62
7
  6
CONTINUOUS
 10
99.0110139516
 20
140.0075419509
 11
98.8031151093
 21
140.1736914047
  0
LINE
  8
0
 62
7
  6
CONTINUOUS
 10
101.1483869736
 20
136.5341884994
 11
101.3936907025
 21
136.3306341553
  0
LINE
  8
0
 62
7
  6
CONTINUOUS
 10
98.6474549695
 20
139.494363736
 11
98.8927587251
 21
139.2908093651
  0
LINE
  8
0
 62
7
  6
CONTINUOUS
 10
95.1636119365
 20
142.5189635365
 11
95.4089156921
 21
142.3154091657
  0
LINE
  8
0
 62
7
  6
CONTINUOUS
 10
95.5323632576
 20
143.4861926448
 11
95.2870595002
 21
143.6897470139
  0
LINE
  8
0
 62
7
  6
CONTINUOUS
 10
98.4926429697
 20
139.1899325034
 11
98.7753516405
 21
138.9489732173
  0
LINE
  8
0
 62
7
  6
CONTINUOUS
 10
101.4875746486
 20
137.3222343008
 11
101.7702832197
 21
137.0812751291
  0
LINE
  8
0
 62
7
  6
CONTINUOUS
 10
101.8163771883
 20
137.2021787141
 11
101.5336685692
 21
137.4431379448
  0
LINE
  8
0
 62
7
  6
CONTINUOUS
 10
91.4702545797
 20
140.3274678372
 11
92.3718157257
 21
139.4259066912
  0
LINE
  8
0
 62
7
  6
CONTINUOUS
 10
93.6446079318
 20
138.1531144851
 11
94.0337463184
 21
137.7639760985
  0
LINE
  8
0
 62
7
  6
CONTINUOUS
 10
94.8274717117
 20
136.9702507052
 11
95.6068292496
 21
136.1908931673
  0
LINE
  8
0
 62
7
  6
CONTINUOUS
 10
95.818961284
 20
135.9787611329
 11
96.72052243
 21
135.0771999869
  0
LINE
  8
0
 62
7
  6
CONTINUOUS
 10
97.9402816275
 20
133.8574407894
 11
98.8418427735
 21
132.9558796434
  0
LINE
  8
0
 62
7
  6
CONTINUOUS
 10
95.0396037461
 20
138.2430429113
 11
94.4931360692
 21
138.7895105882
  0
LINE
  8
0
 62
7
  6
CONTINUOUS
 10
98.9479087907
 20
136.2439261759
 11
99.3721728594
 21
135.8196621072
  0
LINE
  8
0
 62
7
  6
CONTINUOUS
 10
100.2207009969
 20
136.4560582102
 11
99.8315626103
 21
136.8451965968
  0
LINE
  8
0
 62
7
  6
CONTINUOUS
 10
99.1600408251
 20
137.516718382
 11
98.2584796791
 21
138.418279528
  0
LINE
  8
0
 62
7
  6
CONTINUOUS
 10
98.0463476447
 20
138.6304115624
 11
97.2669901068
 21
139.4097691003
  0
LINE
  8
0
 62
7
  6
CONTINUOUS
 10
95.9250273012
 20
140.751731906
 11
95.0234661551
 21
141.653293052
  0
LINE
  8
0
 62
7
  6
CONTINUOUS
 10
94.8113341208
 20
141.8654250863
 11
93.9097729748
 21
142.7669862323
  0
LINE
  8
0
 62
7
  6
CONTINUOUS
 10
96.9451628918
 20
140.1111716929
 11
97.1321868257
 21
139.9241477589
  0
LINE
  8
0
 62
7
  6
CONTINUOUS
 10
99.7879308832
 20
137.2684037014
 11
99.9749551383
 21
137.0813794464
  0
LINE
  8
0
 62
7
  6
CONTINUOUS
 10
97.2365602877
 20
140.0285212208
 11
97.0495363537
 21
140.2155451548
  0
LINE
  8
0
 62
7
  6
CONTINUOUS
 10
94.9391828733
 20
142.7433925997
 11
95.1636119365
 21
142.5189635365
  0
LINE
  8
0
 62
7
  6
CONTINUOUS
 10
96.2857572527
 20
141.3968182204
 11
96.4353764854
 21
141.2471989876
  0
LINE
  8
0
 62
7
  6
CONTINUOUS
 10
96.7720200803
 20
140.9105553928
 11
96.9590444423
 21
140.7235310307
  0
LINE
  8
0
 62
7
  6
CONTINUOUS
 10
97.258283336
 20
140.4242921371
 11
97.4453072699
 21
140.2372682031
  0
LINE
  8
0
 62
7
  6
CONTINUOUS
 10
98.2682139064
 20
139.4143615666
 11
98.4926429697
 21
139.1899325034
  0
LINE
  8
0
 62
7
  6
CONTINUOUS
 10
99.6147882858
 20
138.0677871873
 11
99.7644077326
 21
137.9181677404
  0
LINE
  8
0
 62
7
  6
CONTINUOUS
 10
98.5761417392
 20
139.2734312729
 11
98.351712676
 21
139.4978603361
  0
LINE
  8
0
 62
7
  6
CONTINUOUS
 10
95.2471107061
 20
142.602462306
 11
95.0226816428
 21
142.8268913692
  0
LINE
  8
0
 62
7
  6
CONTINUOUS
 10
99.1084986352
 20
138.908071916
 11
98.9214744872
 21
139.095096064
  0
LINE
  8
0
 62
7
  6
CONTINUOUS
 10
94.7695368175
 20
143.2470337336
 11
94.5825128836
 21
143.4340576676
  0
LINE
  8
0
 62
7
  6
CONTINUOUS
 10
100.9830854409
 20
137.1169838798
 11
100.7960611859
 21
137.3040081348
  0
LINE
  8
0
 62
7
  6
CONTINUOUS
 10
98.2360015442
 20
139.9058171612
 11
98.6474549695
 21
139.494363736
  0
LINE
  8
0
 62
7
  6
CONTINUOUS
 10
98.7309537682
 20
139.5778625347
 11
98.319500343
 21
139.98931596
  0
LINE
  8
0
 62
7
  6
CONTINUOUS
 10
101.0465575237
 20
137.5545044726
 11
101.2335817787
 21
137.3674802176
  0
LINE
  8
0
 62
7
  6
CONTINUOUS
 10
95.926438362
 20
142.7581224331
 11
96.113462724
 21
142.5710980711
  0
LINE
  8
0
 62
7
  6
CONTINUOUS
 10
95.4488644807
 20
143.402693868
 11
95.673293544
 21
143.1782648048
  0
LINE
  8
0
 62
7
  6
CONTINUOUS
 10
98.9275151747
 20
139.924043174
 11
99.151944238
 21
139.6996141108
  0
LINE
  8
0
 62
7
  6
CONTINUOUS
 10
100.9560657972
 20
138.0624901053
 11
100.7690415421
 21
138.2495143603
  0
LINE
  8
0
 62
7
  6
CONTINUOUS
 10
100.0957543525
 20
138.92280155
 11
99.9087302045
 21
139.109825698
  0
LINE
  8
0
 62
7
  6
CONTINUOUS
 10
99.2354430148
 20
139.7831128876
 11
99.0110139516
 21
140.0075419509
  0
LINE
  8
0
 62
7
  6
CONTINUOUS
 10
98.5995607403
 20
140.4189951621
 11
98.4125363783
 21
140.6060195241
  0
LINE
  8
0
 62
7
  6
CONTINUOUS
 10
98.1132974846
 20
140.9052584178
 11
97.9262735507
 21
141.0922823518
  0
LINE
  8
0
 62
7
  6
CONTINUOUS
 10
97.627034657
 20
141.3915212454
 11
97.440010295
 21
141.5785456075
  0
LINE
  8
0
 62
7
  6
CONTINUOUS
 10
96.7667231053
 20
142.2518327971
 11
96.5796991713
 21
142.4388567311
  0
LINE
  8
0
 62
7
  6
CONTINUOUS
 10
95.7567923208
 20
143.2617635816
 11
95.5323632576
 21
143.4861926448
  0
LINE
  8
0
 62
7
  6
CONTINUOUS
 10
100.9074277411
 20
136.8168971167
 11
101.1483869736
 21
136.5341884994
  0
LINE
  8
0
 62
7
  6
CONTINUOUS
 10
101.2692905514
 20
136.5802824607
 11
101.0283313723
 21
136.8629910245
  0
LINE
  8
0
 62
7
  6
CONTINUOUS
 10
94.7356285025
 20
142.9886963553
 11
94.9391828733
 21
142.7433925997
  0
LINE
  8
0
 62
7
  6
CONTINUOUS
 10
95.0226816428
 20
142.8268913692
 11
94.819127272
 21
143.0721951249
  0
LINE
  8
0
 62
7
  6
CONTINUOUS
 10
98.0646597496
 20
139.6596651082
 11
98.2682139064
 21
139.4143615666
  0
LINE
  8
0
 62
7
  6
CONTINUOUS
 10
95.673293544
 20
143.1782648048
 11
95.8768479075
 21
142.9329610419
  0
LINE
  8
0
 62
7
  6
CONTINUOUS
 10
95.9603466898
 20
143.0164598242
 11
95.7567923208
 21
143.2617635816
  0
LINE
  8
0
 62
7
  6
CONTINUOUS
 10
102.0199315306
 20
136.9568749834
 11
101.8163771883
 21
137.2021787141
  0
LINE
  8
0
 62
7
  6
CONTINUOUS
 10
96.518875255
 20
141.3306977571
 11
96.3901307146
 21
141.5011916823
  0
LINE
  8
0
 62
7
  6
CONTINUOUS
 10
98.351712676
 20
139.4978603361
 11
98.2229679215
 21
139.6683544753
  0
LINE
  8
0
 62
7
  6
CONTINUOUS
 10
99.8479065021
 20
138.00166651
 11
99.7191617477
 21
138.1721606492
  0
LINE
  8
0
 62
7
  6
CONTINUOUS
 10
99.3641875534
 20
139.6126189606
 11
99.2354430148
 21
139.7831128876
  0
LINE
  8
SURFACE
 62
7
  6
CONTINUOUS
 10
145.2773791759
 20
77.5391176187
 11
145.2690379028
 21
77.5501718386
  0
LINE
  8
SURFACE
 62
7
  6
CONTINUOUS
 10
145.2690379028
 20
77.5501718386
 11
145.0350973474
 21
77.8611163552
  0
LINE
  8
0
 62
7
  6
CONTINUOUS
 10
94.9948137794
 20
143.3975012931
 11
95.5263227767
 21
142.6572453135
  0
LINE
  8
0
 62
7
  6
CONTINUOUS
 10
95.7011614147
 20
142.6076548882
 11
95.1696523882
 21
143.3479108386
  0
LINE
  8
0
 62
7
  6
CONTINUOUS
 10
94.6442886632
 20
143.1217855793
 11
94.7356285025
 21
142.9886963553
  0
LINE
  8
0
 62
7
  6
CONTINUOUS
 10
96.1944174134
 20
141.5299074444
 11
96.2857572527
 21
141.3968182204
  0
LINE
  8
0
 62
7
  6
CONTINUOUS
 10
96.0516865272
 20
142.8833705984
 11
95.9603466898
 21
143.0164598242
  0
LINE
  8
0
 62
7
  6
CONTINUOUS
 10
99.5234484465
 20
138.2008764113
 11
99.6147882858
 21
138.0677871873
  0
LINE
  8
0
 62
7
  6
CONTINUOUS
 10
101.7702832197
 20
137.0812751291
 11
101.9529629176
 21
136.815096647
  0
LINE
  8
0
 62
7
  6
CONTINUOUS
 10
102.111271368
 20
136.8237857576
 11
102.0199315306
 21
136.9568749834
  0
LINE
  8
0
 62
7
  6
CONTINUOUS
 10
75.6853590009
 20
177.7150905883
 11
75.8843495944
 21
177.4182898882
  0
LINE
  8
0
 62
7
  6
CONTINUOUS
 10
76.384263819
 20
177.3141881247
 11
76.1852732255
 21
177.6109888248
  0
LINE
  8
0
 62
7
  6
CONTINUOUS
 10
94.819127272
 20
143.0721951249
 11
94.765192134
 21
143.1678796477
  0
LINE
  8
0
 62
7
  6
CONTINUOUS
 10
96.3901307146
 20
141.5011916823
 11
96.3361955765
 21
141.5968762051
  0
LINE
  8
0
 62
7
  6
CONTINUOUS
 10
95.8768479075
 20
142.9329610419
 11
95.9307830455
 21
142.8372765191
  0
LINE
  8
0
 62
7
  6
CONTINUOUS
 10
98.2229679215
 20
139.6683544753
 11
98.1690332115
 21
139.7640385701
  0
LINE
  8
0
 62
7
  6
CONTINUOUS
 10
99.7191617477
 20
138.1721606492
 11
99.6652268237
 21
138.267844958
  0
LINE
  8
0
 62
7
  6
CONTINUOUS
 10
99.151944238
 20
139.6996141108
 11
99.2598140787
 21
139.5082454859
  0
LINE
  8
0
 62
7
  6
CONTINUOUS
 10
100.7995577861
 20
137.0082658413
 11
100.9074277411
 21
136.8168971167
  0
LINE
  8
0
 62
7
  6
CONTINUOUS
 10
99.4181226896
 20
139.516934436
 11
99.3641875534
 21
139.6126189606
  0
LINE
  8
0
 62
7
  6
CONTINUOUS
 10
77.9569934515
 20
174.0901825555
 11
78.1714817218
 21
173.6904230851
  0
LINE
  8
0
 62
7
  6
CONTINUOUS
 10
94.5738235164
 20
143.2757494957
 11
94.6442886632
 21
143.1217855793
  0
LINE
  8
0
 62
7
  6
CONTINUOUS
 10
95.1696523882
 20
143.3479108386
 11
95.0991872413
 21
143.501874755
  0
LINE
  8
0
 62
7
  6
CONTINUOUS
 10
95.5263227767
 20
142.6572453135
 11
95.5967879236
 21
142.5032813971
  0
LINE
  8
0
 62
7
  6
CONTINUOUS
 10
96.1239522666
 20
141.6838713608
 11
96.1944174134
 21
141.5299074444
  0
LINE
  8
0
 62
7
  6
CONTINUOUS
 10
96.1221516704
 20
142.7294066783
 11
96.0516865272
 21
142.8833705984
  0
LINE
  8
0
 62
7
  6
CONTINUOUS
 10
97.9941946028
 20
139.8136290245
 11
98.0646597496
 21
139.6596651082
  0
LINE
  8
0
 62
7
  6
CONTINUOUS
 10
99.4529832997
 20
138.3548403276
 11
99.5234484465
 21
138.2008764113
  0
POLYLINE
  8
0
 62
7
  6
CONTINUOUS
 66
1
 70
0
  0
VERTEX
  8
0
 62
7
  6
CONTINUOUS
 10
57.1770711759
 20
230.1333272372
  0
VERTEX
  8
0
 62
7
  6
CONTINUOUS
 10
57.178428725
 20
230.1301229045
  0
VERTEX
  8
0
 62
7
  6
CONTINUOUS
 10
57.3347893474
 20
229.7625056506
  0
SEQEND
  0
LINE
  8
0
 62
7
  6
CONTINUOUS
 10
75.5118515574
 20
178.1342656723
 11
75.6853590009
 21
177.7150905883
  0
LINE
  8
0
 62
7
  6
CONTINUOUS
 10
76.1852732255
 20
177.6109888248
 11
76.0117657819
 21
178.0301639088
  0
LINE
  8
0
 62
7
  6
CONTINUOUS
 10
94.9078186237
 20
143.609744603
 11
94.9948137794
 21
143.3975012931
  0
LINE
  8
0
 62
7
  6
CONTINUOUS
 10
95.7881565411
 20
142.3954115491
 11
95.7011614147
 21
142.6076548882
  0
LINE
  8
0
 62
7
  6
CONTINUOUS
 10
78.6792913698
 20
173.6367495311
 11
78.5786166552
 21
173.898783169
  0
LINE
  8
0
 62
7
  6
CONTINUOUS
 10
96.0908918209
 20
141.8004305759
 11
96.1239522666
 21
141.6838713608
  0
LINE
  8
SURFACE
 62
7
  6
CONTINUOUS
 10
97.3963234117
 20
80.0330344508
 11
97.3946267673
 21
80.0467783226
  0
LINE
  8
SURFACE
 62
7
  6
CONTINUOUS
 10
97.3946267673
 20
80.0467783226
 11
97.3475005616
 21
80.4330344508
  0
LINE
  8
0
 62
7
  6
CONTINUOUS
 10
88.9902667685
 20
203.739402346
 11
89.0108808267
 21
203.3826617308
  0
LINE
  8
0
 62
7
  6
CONTINUOUS
 10
90.9732415487
 20
201.9353034871
 11
90.9938556731
 21
201.5785628117
  0
LINE
  8
0
 62
7
  6
CONTINUOUS
 10
94.5825128836
 20
143.4340576676
 11
94.5738235164
 21
143.2757494957
  0
LINE
  8
0
 62
7
  6
CONTINUOUS
 10
94.765192134
 20
143.1678796477
 11
94.7695368175
 21
143.2470337336
  0
LINE
  8
0
 62
7
  6
CONTINUOUS
 10
94.9165080055
 20
143.7680527896
 11
94.9078186237
 21
143.609744603
  0
LINE
  8
0
 62
7
  6
CONTINUOUS
 10
95.0991872413
 20
143.501874755
 11
95.1035319395
 21
143.5810288556
  0
LINE
  8
0
 62
7
  6
CONTINUOUS
 10
95.5967879236
 20
142.5032813971
 11
95.59244324
 21
142.4241273111
  0
LINE
  8
0
 62
7
  6
CONTINUOUS
 10
95.779467602
 20
142.2371029491
 11
95.7881565411
 21
142.3954115491
  0
LINE
  8
0
 62
7
  6
CONTINUOUS
 10
95.9307830455
 20
142.8372765191
 11
95.926438362
 21
142.7581224331
  0
LINE
  8
0
 62
7
  6
CONTINUOUS
 10
96.113462724
 20
142.5710980711
 11
96.1221516704
 21
142.7294066783
  0
LINE
  8
0
 62
7
  6
CONTINUOUS
 10
101.328030402
 20
213.9032312694
 11
101.3801257077
 21
214.3576099378
  0
LINE
  8
0
 62
7
  6
CONTINUOUS
 10
110.6433020383
 20
216.4797363976
 11
110.8246490908
 21
217.0867698857
  0
LINE
  8
0
 62
7
  6
CONTINUOUS
 10
106.1747681688
 20
211.7613043896
 11
106.3932566358
 21
212.4417544886
  0
LINE
  8
0
 62
7
  6
CONTINUOUS
 10
116.4626467524
 20
217.9543324449
 11
116.7144413732
 21
218.5356893731
  0
LINE
  8
0
 62
7
  6
CONTINUOUS
 10
117.0599819316
 20
215.3408762898
 11
117.3117765424
 21
215.9222332616
  0
LINE
  8
0
 62
7
  6
CONTINUOUS
 10
110.0754191416
 20
216.9546659633
 11
109.9258924142
 21
216.630123666
  0
LINE
  8
0
 62
7
  6
CONTINUOUS
 10
115.9548513704
 20
218.4930280238
 11
115.7680289893
 21
218.1884244406
  0
LINE
  8
0
 62
7
  6
CONTINUOUS
 10
116.5521865197
 20
215.8795719994
 11
116.3653641586
 21
215.5749683291
  0
LINE
  8
CURVE
 62
40
  6
CONTINUOUS
 10
93.8010570152
 20
180.6329845797
 11
113.4909213284
 21
200.3228488929
  0
LINE
  8
CURVE
 62
40
  6
CONTINUOUS
 10
121.8582587749
 20
206.4274446395
 11
117.6156180877
 21
202.1848039524
  0
LINE
  8
CURVE
 62
40
  6
CONTINUOUS
 10
87.6964612686
 20
172.2656471332
 11
91.9391019557
 21
176.5082878203
  0
LINE
  8
0
 62
7
  6
CONTINUOUS
 10
77.8080302472
 20
171.4663053528
 11
78.2283039818
 21
171.7989728642
  0
LINE
  8
0
 62
7
  6
CONTINUOUS
 10
153.1351032921
 20
212.6236850933
 11
153.553474074
 21
212.8084461529
  0
LINE
  8
0
 62
7
  6
CONTINUOUS
 10
143.3065303054
 20
213.220174751
 11
148.9181245204
 21
215.5465103954
  0
LINE
  8
0
 62
7
  6
CONTINUOUS
 10
151.2824367311
 20
215.2774952834
 11
150.1990842005
 21
214.8445998171
  0
LINE
  8
0
 62
7
  6
CONTINUOUS
 10
149.7162803836
 20
213.9446515734
 11
150.7996330833
 21
214.3775473549
  0
LINE
  8
0
 62
7
  6
CONTINUOUS
 10
101.7973029243
 20
136.1357688573
 11
101.9556113804
 21
136.1444579402
  0
LINE
  8
0
 62
7
  6
CONTINUOUS
 10
101.7894618546
 20
136.3523568509
 11
101.7103076349
 21
136.348012301
  0
LINE
  8
0
 62
7
  6
CONTINUOUS
 10
98.9875951645
 20
138.8619778476
 11
99.0667492504
 21
138.8663225312
  0
LINE
  8
0
 62
7
  6
CONTINUOUS
 10
98.9214744872
 20
139.095096064
 11
98.8423201872
 21
139.0907515944
  0
LINE
  8
0
 62
7
  6
CONTINUOUS
 10
99.2006865871
 20
139.1498791007
 11
99.358994973
 21
139.1585682538
  0
LINE
  8
0
 62
7
  6
CONTINUOUS
 10
95.6002843097
 20
142.2075393176
 11
95.7377182173
 21
142.1953535643
  0
LINE
  8
0
 62
7
  6
CONTINUOUS
 10
95.0956908771
 20
143.7976168564
 11
94.9582573903
 21
143.8098021743
  0
LINE
  8
0
 62
7
  6
CONTINUOUS
 10
98.8710359493
 20
138.8950382933
 11
98.9875951645
 21
138.8619778476
  0
LINE
  8
0
 62
7
  6
CONTINUOUS
 10
99.0841275567
 20
139.1829393031
 11
99.2006865871
 21
139.1498791007
  0
LINE
  8
0
 62
7
  6
CONTINUOUS
 10
99.1136912174
 20
139.3621226246
 11
98.9971322162
 21
139.3951828563
  0
LINE
  8
0
 62
7
  6
CONTINUOUS
 10
98.5239030113
 20
140.1189083698
 11
98.6987416346
 21
140.06931793
  0
LINE
  8
0
 62
7
  6
CONTINUOUS
 10
96.7598347551
 20
141.0479888723
 11
96.8763935422
 21
141.0149288547
  0
LINE
  8
0
 62
7
  6
CONTINUOUS
 10
96.9598923117
 20
141.0984276242
 11
96.8433335246
 21
141.1314876418
  0
LINE
  8
CURVE
 62
40
  6
CONTINUOUS
 10
93.8010570152
 20
155.6337003219
 11
113.4909213284
 21
135.9438360087
  0
LINE
  8
CURVE
 62
40
  6
CONTINUOUS
 10
117.6156180877
 20
134.0818809492
 11
121.8582587749
 21
129.839240262
  0
LINE
  8
CURVE
 62
40
  6
CONTINUOUS
 10
91.9391019557
 20
159.7583970812
 11
87.6964612686
 21
164.0010377683
  0
LINE
  8
0
 62
7
  6
CONTINUOUS
 10
78.5786166552
 20
173.898783169
 11
78.2371759069
 21
174.3119608551
  0
LINE
  8
0
 62
7
  6
CONTINUOUS
 10
101.0283313723
 20
136.8629910245
 11
100.957866172
 21
137.0169549944
  0
LINE
  8
0
 62
7
  6
CONTINUOUS
 10
102.1817365246
 20
136.6698218242
 11
102.111271368
 21
136.8237857576
  0
LINE
  8
0
 62
7
  6
CONTINUOUS
 10
85.7801419738
 20
199.0531460598
 11
85.5822996266
 21
199.655005524
  0
LINE
  8
0
 62
7
  6
CONTINUOUS
 10
96.3361955765
 20
141.5968762051
 11
96.3031355589
 21
141.7134349922
  0
LINE
  8
0
 62
7
  6
CONTINUOUS
 10
97.9611341571
 20
139.9301882397
 11
97.9941946028
 21
139.8136290245
  0
LINE
  8
0
 62
7
  6
CONTINUOUS
 10
99.4199230681
 20
138.4713993288
 11
99.4529832997
 21
138.3548403276
  0
LINE
  8
0
 62
7
  6
CONTINUOUS
 10
99.6652268237
 20
138.267844958
 11
99.632166592
 21
138.3844039591
  0
LINE
  8
0
 62
7
  6
CONTINUOUS
 10
99.4677131331
 20
139.3420958163
 11
99.4181226896
 21
139.516934436
  0
LINE
  8
0
 62
7
  6
CONTINUOUS
 10
100.7499673316
 20
137.18310445
 11
100.7995577861
 21
137.0082658413
  0
LINE
  8
0
 62
7
  6
CONTINUOUS
 10
101.9529629176
 20
136.815096647
 11
102.0025533574
 21
136.6402580236
  0
LINE
  8
0
 62
7
  6
CONTINUOUS
 10
102.2147968158
 20
136.5532627488
 11
102.1817365246
 21
136.6698218242
  0
LINE
  8
0
 62
7
  6
CONTINUOUS
 10
89.7147626692
 20
203.5872354427
 11
89.5894122923
 21
204.208253713
  0
LINE
  8
0
 62
7
  6
CONTINUOUS
 10
91.6977375486
 20
201.7831364935
 11
91.5723871387
 21
202.4041547939
  0
LINE
  8
0
 62
7
  6
CONTINUOUS
 10
85.0427424623
 20
199.1186520682
 11
85.1053590779
 21
198.7668453523
  0
LINE
  8
0
 62
7
  6
CONTINUOUS
 10
98.8886225177
 20
212.7779070615
 11
99.1971761258
 21
209.2098504319
  0
LINE
  8
0
 62
7
  6
CONTINUOUS
 10
99.6504693552
 20
209.1914629235
 11
99.3419159363
 21
212.7595192495
  0
LINE
  8
0
 62
7
  6
CONTINUOUS
 10
100.5951771721
 20
214.2501485944
 11
100.6002356007
 21
213.6816194882
  0
LINE
  8
0
 62
7
  6
CONTINUOUS
 10
98.1690332115
 20
139.7640385701
 11
98.1733774671
 21
139.8431930841
  0
LINE
  8
0
 62
7
  6
CONTINUOUS
 10
98.5952160531
 20
140.3398410725
 11
98.5995607403
 21
140.4189951621
  0
LINE
  8
0
 62
7
  6
CONTINUOUS
 10
99.2598140787
 20
139.5082454859
 11
99.2554696091
 21
139.429091186
  0
LINE
  8
0
 62
7
  6
CONTINUOUS
 10
99.4242675376
 20
138.5505536288
 11
99.4199230681
 21
138.4713993288
  0
LINE
  8
0
 62
7
  6
CONTINUOUS
 10
102.2061077183
 20
136.3949542781
 11
102.2147968158
 21
136.5532627488
  0
LINE
  8
0
 62
7
  6
CONTINUOUS
 10
102.0025533574
 20
136.6402580236
 11
101.9729895788
 21
136.4610748784
  0
LINE
  8
0
 62
7
  6
CONTINUOUS
 10
96.1161111969
 20
141.9004593543
 11
96.0908918209
 21
141.8004305759
  0
LINE
  8
0
 62
7
  6
CONTINUOUS
 10
97.9863535331
 20
140.0302170181
 11
97.9611341571
 21
139.9301882397
  0
LINE
  8
0
 62
7
  6
CONTINUOUS
 10
98.4125363783
 20
140.6060195241
 11
98.387316995
 21
140.5059907385
  0
LINE
  8
0
 62
7
  6
CONTINUOUS
 10
98.5699966662
 20
140.2398122832
 11
98.5952160531
 21
140.3398410725
  0
LINE
  8
0
 62
7
  6
CONTINUOUS
 10
155.5108461283
 20
210.774081349
 11
155.0228768009
 21
210.4823015737
  0
LINE
  8
0
 62
7
  6
CONTINUOUS
 10
77.8868632792
 20
172.2121507702
 11
77.479728333
 21
172.0037907775
  0
LINE
  8
0
 62
7
  6
CONTINUOUS
 10
155.3380238255
 20
209.8205045865
 11
155.7563946074
 21
210.005265646
  0
LINE
  8
0
 62
7
  6
CONTINUOUS
 10
78.9639098516
 20
175.1150221116
 11
78.6968661809
 21
175.0175510839
  0
LINE
  8
0
 62
7
  6
CONTINUOUS
 10
77.5409866234
 20
171.3688345561
 11
77.8080302472
 21
171.4663053528
  0
LINE
  8
0
 62
7
  6
CONTINUOUS
 10
101.2335817787
 20
137.3674802176
 11
101.3336106787
 21
137.3926995011
  0
LINE
  8
0
 62
7
  6
CONTINUOUS
 10
99.2137202097
 20
139.3873417866
 11
99.1136912174
 21
139.3621226246
  0
LINE
  8
0
 62
7
  6
CONTINUOUS
 10
98.4447484973
 20
140.1145641143
 11
98.5239030113
 21
140.1189083698
  0
LINE
  8
0
 62
7
  6
CONTINUOUS
 10
98.6491511875
 20
140.244156546
 11
98.5699966662
 21
140.2398122832
  0
LINE
  8
0
 62
7
  6
CONTINUOUS
 10
95.59244324
 20
142.4241273111
 11
95.5132891541
 21
142.4197826276
  0
LINE
  8
0
 62
7
  6
CONTINUOUS
 10
95.1035319395
 20
143.5810288556
 11
95.1826860255
 21
143.5853735392
  0
LINE
  8
0
 62
7
  6
CONTINUOUS
 10
77.6024138553
 20
174.3790527967
 11
77.9569934515
 21
174.0901825555
  0
LINE
  8
0
 62
7
  6
CONTINUOUS
 10
110.0642910395
 20
217.3573752711
 11
110.0754191416
 21
216.9546659633
  0
LINE
  8
0
 62
7
  6
CONTINUOUS
 10
110.8246490908
 20
217.0867698857
 11
110.8135209887
 21
217.4894791936
  0
LINE
  8
0
 62
7
  6
CONTINUOUS
 10
109.2905634573
 20
71.4330237497
 11
109.2905634573
 21
70.6234569479
  0
LINE
  8
SURFACE
 62
7
  6
CONTINUOUS
 10
109.2905634573
 20
264.8336611519
 11
109.2905634573
 21
265.6432279536
  0
LINE
  8
0
 62
7
  6
CONTINUOUS
 10
115.9913790811
 20
218.8942316474
 11
115.9548513704
 21
218.4930280238
  0
LINE
  8
0
 62
7
  6
CONTINUOUS
 10
116.7144413732
 20
218.5356893731
 11
116.7509690839
 21
218.9368929968
  0
LINE
  8
0
 62
7
  6
CONTINUOUS
 10
116.5887142304
 20
216.2807756231
 11
116.5521865197
 21
215.8795719994
  0
LINE
  8
0
 62
7
  6
CONTINUOUS
 10
117.3117765424
 20
215.9222332616
 11
117.3483042332
 21
216.3234369725
  0
LINE
  8
0
 62
7
  6
CONTINUOUS
 10
100.957866172
 20
137.0169549944
 11
100.9830854409
 21
137.1169838798
  0
LINE
  8
0
 62
7
  6
CONTINUOUS
 10
99.4216190501
 20
139.221192331
 11
99.4677131331
 21
139.3420958163
  0
LINE
  8
0
 62
7
  6
CONTINUOUS
 10
99.632166592
 20
138.3844039591
 11
99.6782604464
 21
138.5053076439
  0
LINE
  8
0
 62
7
  6
CONTINUOUS
 10
100.7960611859
 20
137.3040081348
 11
100.7499673316
 21
137.18310445
  0
LINE
  8
0
 62
7
  6
CONTINUOUS
 10
96.1830799576
 20
142.0422375174
 11
96.1161111969
 21
141.9004593543
  0
LINE
  8
0
 62
7
  6
CONTINUOUS
 10
96.3031355589
 20
141.7134349922
 11
96.3701038916
 21
141.8552135834
  0
LINE
  8
0
 62
7
  6
CONTINUOUS
 10
98.387316995
 20
140.5059907385
 11
98.320348655
 21
140.36421214
  0
LINE
  8
0
 62
7
  6
CONTINUOUS
 10
99.4912362983
 20
138.6923317919
 11
99.4242675376
 21
138.5505536288
  0
LINE
  8
0
 62
7
  6
CONTINUOUS
 10
63.1777798722
 20
92.7384099165
 11
62.7729964627
 21
92.0373044852
  0
LINE
  8
SURFACE
 62
7
  6
CONTINUOUS
 10
159.8780986565
 20
260.228275159
 11
160.2828819656
 21
260.9293804164
  0
LINE
  8
0
 62
7
  6
CONTINUOUS
 10
152.9943375889
 20
213.3243563719
 11
152.6111606312
 21
212.964425933
  0
LINE
  8
0
 62
7
  6
CONTINUOUS
 10
155.7563946074
 20
210.005265646
 11
156.1395811588
 21
210.3651898458
  0
LINE
  8
0
 62
7
  6
CONTINUOUS
 10
160.2571405216
 20
206.8948343793
 11
159.9161513672
 21
206.6802999581
  0
LINE
  8
0
 62
7
  6
CONTINUOUS
 10
160.4111805461
 20
206.1025949511
 11
160.7521697005
 21
206.3171293722
  0
LINE
  8
0
 62
7
  6
CONTINUOUS
 10
158.5430008736
 20
204.8336000552
 11
158.2020117192
 21
204.6190656341
  0
LINE
  8
0
 62
7
  6
CONTINUOUS
 10
158.6970408408
 20
204.0413605583
 11
159.0380300524
 21
204.2558950482
  0
LINE
  8
SURFACE
 62
7
  6
CONTINUOUS
 10
202.0866014229
 20
231.3509094454
 11
201.3854959919
 21
230.9461260361
  0
LINE
  8
0
 62
7
  6
CONTINUOUS
 10
33.8956308931
 20
134.2458073348
 11
33.1945254917
 21
133.8410239425
  0
LINE
  8
0
 62
7
  6
CONTINUOUS
 10
164.5966074917
 20
202.5749586184
 11
164.2326604283
 21
202.4022126884
  0
LINE
  8
0
 62
7
  6
CONTINUOUS
 10
164.6559699799
 20
201.770068728
 11
165.0199170433
 21
201.942814658
  0
LINE
  8
0
 62
7
  6
CONTINUOUS
 10
162.6509495334
 20
200.7306764327
 11
162.28700247
 21
200.5579305026
  0
LINE
  8
0
 62
7
  6
CONTINUOUS
 10
162.7103119566
 20
199.9257864807
 11
163.0742590849
 21
200.0985324723
  0
LINE
  8
SURFACE
 62
7
  6
CONTINUOUS
 10
29.290244591
 20
151.4333424508
 11
28.4806779545
 21
151.4333424508
  0
LINE
  8
0
 62
7
  6
CONTINUOUS
 10
222.6908823237
 20
151.4333424508
 11
223.5004489602
 21
151.4333424508
  0
LINE
  8
SURFACE
 62
7
  6
CONTINUOUS
 10
33.8956307491
 20
202.0208776499
 11
33.1945254917
 21
202.425660959
  0
LINE
  8
0
 62
7
  6
CONTINUOUS
 10
201.3854961338
 20
105.3205587836
 11
202.0866014229
 21
104.9157754561
  0
LINE
  8
0
 62
7
  6
CONTINUOUS
 10
79.5847976807
 20
194.8217393244
 11
83.4461784488
 21
190.6560205237
  0
LINE
  8
0
 62
7
  6
CONTINUOUS
 10
84.2442398881
 20
190.7992743305
 11
80.8884993366
 21
194.5558760151
  0
LINE
  8
0
 62
7
  6
CONTINUOUS
 10
84.8036009686
 20
199.4428565357
 11
85.0427424623
 21
199.1186520682
  0
LINE
  8
0
 62
7
  6
CONTINUOUS
 10
85.5822996266
 20
199.655005524
 11
85.3431581328
 21
199.9792099915
  0
LINE
  8
0
 62
7
  6
CONTINUOUS
 10
159.8780986565
 20
76.0384097425
 11
160.2828819656
 21
75.3373044852
  0
LINE
  8
SURFACE
 62
7
  6
CONTINUOUS
 10
63.1777797901
 20
243.5282751272
 11
62.7729964627
 21
244.2293804164
  0
LINE
  8
0
 62
7
  6
CONTINUOUS
 10
88.7911030856
 20
204.0895894649
 11
88.9902667685
 21
203.739402346
  0
LINE
  8
0
 62
7
  6
CONTINUOUS
 10
89.5894122923
 20
204.208253713
 11
89.3902486095
 21
204.5584408319
  0
LINE
  8
0
 62
7
  6
CONTINUOUS
 10
90.7740778658
 20
202.285490606
 11
90.9732415487
 21
201.9353034871
  0
LINE
  8
0
 62
7
  6
CONTINUOUS
 10
91.5723871387
 20
202.4041547939
 11
91.3732233897
 21
202.754341973
  0
LINE
  8
0
 62
7
  6
CONTINUOUS
 10
100.6002356007
 20
213.6816194882
 11
100.774217704
 21
213.0548978599
  0
LINE
  8
0
 62
7
  6
CONTINUOUS
 10
101.4448610092
 20
213.3906619992
 11
101.328030402
 21
213.9032312694
  0
LINE
  8
0
 62
7
  6
CONTINUOUS
 10
105.5486339057
 20
212.7327130186
 11
105.6083106185
 21
212.3342945059
  0
LINE
  8
DEFAULT_1
 62
2
  6
CENTER
 10
125.9905634573
 20
269.0805525164
 11
125.9905634573
 21
170.1334424508
  0
LINE
  8
0
 62
2
  6
CONTINUOUS
 10
125.9905634573
 20
169.1833424508
 11
125.9905634573
 21
167.0833424508
  0
LINE
  8
DEFAULT_1
 62
2
  6
CENTER
 10
125.9905634573
 20
63.5895787746
 11
125.9905634573
 21
166.1332424508
  0
LINE
  8
0
 62
7
  6
CONTINUOUS
 10
144.668941567
 20
218.329141087
 11
144.4186552174
 21
217.7419606889
  0
LINE
  8
0
 62
7
  6
CONTINUOUS
 10
142.7167077952
 20
213.749133406
 11
142.3162496009
 21
212.8096446867
  0
LINE
  8
0
 62
7
  6
CONTINUOUS
 10
150.1990842005
 20
214.8445998171
 11
149.7162803836
 21
213.9446515734
  0
LINE
  8
0
 62
7
  6
CONTINUOUS
 10
150.7996330833
 20
214.3775473549
 11
148.4459649621
 21
209.9903005732
  0
LINE
  8
0
 62
7
  6
CONTINUOUS
 10
149.1068643008
 20
209.6357416021
 11
151.9433360699
 21
214.9229363123
  0
LINE
  8
0
 62
7
  6
CONTINUOUS
 10
102.118264409
 20
136.2323012788
 11
102.2061077183
 21
136.3949542781
  0
LINE
  8
0
 62
7
  6
CONTINUOUS
 10
150.3488130117
 20
209.7149958808
 11
150.0008202357
 21
209.1799022266
  0
LINE
  8
0
 62
7
  6
CONTINUOUS
 10
158.4205140066
 20
210.7466733748
 11
154.5841060214
 21
206.1334344073
  0
LINE
  8
0
 62
7
  6
CONTINUOUS
 10
155.650515102
 20
206.2428075312
 11
156.8749006547
 21
207.7151178707
  0
LINE
  8
0
 62
7
  6
CONTINUOUS
 10
157.3646548072
 20
208.304041924
 11
158.507414725
 21
209.6781983234
  0
LINE
  8
0
 62
7
  6
CONTINUOUS
 10
93.9097729748
 20
142.7669862323
 11
91.4702545797
 21
140.3274678372
  0
LINE
  8
0
 62
7
  6
CONTINUOUS
 10
94.9582573903
 20
143.8098021743
 11
94.9165080055
 21
143.7680527896
  0
LINE
  8
0
 62
7
  6
CONTINUOUS
 10
92.3718157257
 20
139.4259066912
 11
94.8113341208
 21
141.8654250863
  0
LINE
  8
0
 62
7
  6
CONTINUOUS
 10
95.0234661551
 20
141.653293052
 11
93.6446079318
 21
140.2744348287
  0
LINE
  8
0
 62
7
  6
CONTINUOUS
 10
95.7377182173
 20
142.1953535643
 11
95.779467602
 21
142.2371029491
  0
LINE
  8
0
 62
7
  6
CONTINUOUS
 10
96.5796991713
 20
142.4388567311
 11
96.1830799576
 21
142.0422375174
  0
LINE
  8
0
 62
7
  6
CONTINUOUS
 10
96.3701038916
 20
141.8552135834
 11
96.7667231053
 21
142.2518327971
  0
LINE
  8
0
 62
7
  6
CONTINUOUS
 10
94.4931360692
 20
139.3198406741
 11
95.9250273012
 21
140.751731906
  0
LINE
  8
0
 62
7
  6
CONTINUOUS
 10
97.440010295
 20
141.5785456075
 11
96.9598923117
 21
141.0984276242
  0
LINE
  8
0
 62
7
  6
CONTINUOUS
 10
96.8763935422
 20
141.0149288547
 11
96.7720200803
 21
140.9105553928
  0
LINE
  8
0
 62
7
  6
CONTINUOUS
 10
96.9590444423
 20
140.7235310307
 11
97.627034657
 21
141.3915212454
  0
LINE
  8
0
 62
7
  6
CONTINUOUS
 10
97.9262735507
 20
141.0922823518
 11
97.258283336
 21
140.4242921371
  0
LINE
  8
0
 62
7
  6
CONTINUOUS
 10
97.0495363537
 20
140.2155451548
 11
96.9451628918
 21
140.1111716929
  0
LINE
  8
0
 62
7
  6
CONTINUOUS
 10
97.1321868257
 20
139.9241477589
 11
97.2365602877
 21
140.0285212208
  0
LINE
  8
0
 62
7
  6
CONTINUOUS
 10
97.4453072699
 20
140.2372682031
 11
98.1132974846
 21
140.9052584178
  0
LINE
  8
0
 62
7
  6
CONTINUOUS
 10
97.2669901068
 20
139.4097691003
 11
96.1002639179
 21
138.2430429113
  0
LINE
  8
0
 62
7
  6
CONTINUOUS
 10
95.2517357805
 20
137.3945147739
 11
94.8274717117
 21
136.9702507052
  0
LINE
  8
0
 62
7
  6
CONTINUOUS
 10
98.320348655
 20
140.36421214
 11
97.9863535331
 21
140.0302170181
  0
LINE
  8
0
 62
7
  6
CONTINUOUS
 10
98.319500343
 20
139.98931596
 11
98.4447484973
 21
140.1145641143
  0
LINE
  8
0
 62
7
  6
CONTINUOUS
 10
98.1733774671
 20
139.8431930841
 11
98.2360015442
 21
139.9058171612
  0
LINE
  8
0
 62
7
  6
CONTINUOUS
 10
95.6068292496
 20
136.1908931673
 11
98.0463476447
 21
138.6304115624
  0
LINE
  8
0
 62
7
  6
CONTINUOUS
 10
163.2279174038
 20
206.6168082008
 11
158.8733493636
 21
202.4891288064
  0
LINE
  8
0
 62
7
  6
CONTINUOUS
 10
159.9452115895
 20
202.4717455951
 11
161.334967376
 21
203.7890901102
  0
LINE
  8
0
 62
7
  6
CONTINUOUS
 10
161.8908696128
 20
204.3160278424
 11
163.1879750914
 21
205.5455494636
  0
LINE
  8
0
 62
7
  6
CONTINUOUS
 10
174.6477482102
 20
190.4957224
 11
169.0928425212
 21
188.2278990413
  0
LINE
  8
0
 62
7
  6
CONTINUOUS
 10
169.3763204411
 20
187.5335358301
 11
171.8582996139
 21
188.5468186218
  0
LINE
  8
0
 62
7
  6
CONTINUOUS
 10
172.5674364259
 20
188.8363279523
 11
174.3402787868
 21
189.5601014135
  0
LINE
  8
0
 62
7
  6
CONTINUOUS
 10
174.9633323062
 20
172.970094593
 11
175.5950071316
 21
173.0618072961
  0
LINE
  8
0
 62
7
  6
CONTINUOUS
 10
175.3788705658
 20
173.6619757935
 11
174.9998657767
 21
173.606948187
  0
LINE
  8
DEFAULT_1
 62
2
  6
CENTER
 10
225.5087527352
 20
168.1333424508
 11
127.9906634573
 21
168.1333424508
  0
LINE
  8
0
 62
2
  6
CONTINUOUS
 10
127.0405634573
 20
168.1333424508
 11
124.9405634573
 21
168.1333424508
  0
LINE
  8
DEFAULT_1
 62
2
  6
CENTER
 10
28.1598741794
 20
168.1333424508
 11
123.9904634573
 21
168.1333424508
  0
LINE
  8
0
 62
7
  6
CONTINUOUS
 10
74.4809900969
 20
171.5665682892
 11
77.0200381256
 21
171.2982005417
  0
LINE
  8
0
 62
7
  6
CONTINUOUS
 10
77.0857323155
 20
171.9197383562
 11
74.5466842867
 21
172.1881061037
  0
LINE
  8
0
 62
7
  6
CONTINUOUS
 10
74.8094610414
 20
174.674257317
 11
77.6024138553
 21
174.3790527967
  0
LINE
  8
0
 62
7
  6
CONTINUOUS
 10
75.1320405533
 20
176.9365427218
 11
79.1313547
 21
176.1037285411
  0
LINE
  8
0
 62
7
  6
CONTINUOUS
 10
79.2587709604
 20
176.7156029119
 11
76.384263819
 21
177.3141881247
  0
LINE
  8
0
 62
7
  6
CONTINUOUS
 10
75.8843495944
 20
177.4182898882
 11
75.2594568137
 21
177.5484170925
  0
LINE
  8
0
 62
7
  6
CONTINUOUS
 10
77.3428764935
 20
179.4128336759
 11
79.7174694104
 21
178.9183502265
  0
LINE
  8
0
 62
7
  6
CONTINUOUS
 10
74.342379809
 20
182.0908774053
 11
74.9575902749
 21
181.9207593306
  0
LINE
  8
0
 62
7
  6
CONTINUOUS
 10
76.1880115514
 20
181.5805230857
 11
80.1253588778
 21
180.4917673119
  0
LINE
  8
0
 62
7
  6
CONTINUOUS
 10
80.2919327823
 20
181.0941607351
 11
76.3545854559
 21
182.1829165089
  0
LINE
  8
0
 62
7
  6
CONTINUOUS
 10
75.1241641794
 20
182.5231527538
 11
74.5089537136
 21
182.6932708285
  0
LINE
  8
0
 62
7
  6
CONTINUOUS
 10
77.3039098964
 20
190.513238899
 11
82.6066796507
 21
187.7059923952
  0
LINE
  8
0
 62
7
  6
CONTINUOUS
 10
82.9575854636
 20
188.3688386145
 11
78.7830644587
 21
190.5787986993
  0
LINE
  8
0
 62
7
  6
CONTINUOUS
 10
81.0979672049
 20
197.3267056273
 11
85.9820086049
 21
193.8415744097
  0
LINE
  8
0
 62
7
  6
CONTINUOUS
 10
86.4176500071
 20
194.4520795847
 11
84.2354187123
 21
196.0092658955
  0
LINE
  8
0
 62
7
  6
CONTINUOUS
 10
83.6119241398
 20
196.4541762107
 11
82.0531874175
 21
197.5664522063
  0
LINE
  8
0
 62
7
  6
CONTINUOUS
 10
84.8614105145
 20
202.4260593167
 11
89.2994971604
 21
198.3883140394
  0
LINE
  8
0
 62
7
  6
CONTINUOUS
 10
89.2376510688
 20
199.4585317128
 11
87.8212404076
 21
200.7471738494
  0
LINE
  8
0
 62
7
  6
CONTINUOUS
 10
87.2546762224
 20
201.2626306319
 11
85.9326928593
 21
202.4653633649
  0
LINE
  8
0
 62
7
  6
CONTINUOUS
 10
91.262033193
 20
204.5443140264
 11
91.6938758157
 21
204.0742754596
  0
LINE
  8
0
 62
7
  6
CONTINUOUS
 10
92.9825639766
 20
205.2582431475
 11
92.550721354
 21
205.7282817143
  0
LINE
  8
0
 62
7
  6
CONTINUOUS
 10
91.5271316238
 20
209.1305602666
 11
95.1693847963
 21
204.3625426673
  0
LINE
  8
0
 62
7
  6
CONTINUOUS
 10
95.7653869962
 20
204.8178243138
 11
94.0605025186
 21
207.0496623572
  0
LINE
  8
0
 62
7
  6
CONTINUOUS
 10
93.5955340839
 20
207.6583453824
 11
92.1231338237
 21
209.5858419131
  0
LINE
  8
0
 62
7
  6
CONTINUOUS
 10
100.774217704
 20
213.0548978599
 11
101.6314878247
 21
211.342617125
  0
LINE
  8
0
 62
7
  6
CONTINUOUS
 10
102.3021311299
 20
211.6783812643
 11
101.4448610092
 21
213.3906619992
  0
LINE
  8
0
 62
7
  6
CONTINUOUS
 10
105.8138881498
 20
217.7367640929
 11
107.8324644658
 21
212.0865119165
  0
LINE
  8
0
 62
7
  6
CONTINUOUS
 10
108.5387459879
 20
212.338833956
 11
107.6368288977
 21
214.8634147515
  0
LINE
  8
0
 62
7
  6
CONTINUOUS
 10
107.3791383349
 20
215.584723454
 11
106.7349118075
 21
217.387995547
  0
LINE
  8
0
 62
7
  6
CONTINUOUS
 10
106.3932566358
 20
212.4417544886
 11
106.2192772108
 21
213.0684771579
  0
LINE
  8
0
 62
7
  6
CONTINUOUS
 10
111.8155669285
 20
219.7731249685
 11
113.1524599519
 21
213.9239611784
  0
LINE
  8
0
 62
7
  6
CONTINUOUS
 10
113.7129382316
 20
214.8377745649
 11
113.2862702365
 21
216.7045290049
  0
LINE
  8
0
 62
7
  6
CONTINUOUS
 10
113.1156030624
 20
217.4512306764
 11
112.7173795764
 21
219.193534925
  0
LINE
  8
0
 62
7
  6
CONTINUOUS
 10
146.9158334437
 20
210.8490665525
 11
147.2161770982
 21
211.5536831125
  0
LINE
  8
0
 62
7
  6
CONTINUOUS
 10
148.9181245204
 20
215.5465103954
 11
149.2685254097
 21
216.3685629528
  0
LINE
  8
0
 62
7
  6
CONTINUOUS
 10
155.6500434142
 20
210.9881190805
 11
155.5108461283
 21
210.774081349
  0
LINE
  8
0
 62
7
  6
CONTINUOUS
 10
153.7732304189
 20
206.7265532074
 11
154.1212231948
 21
207.2616468615
  0
LINE
  8
0
 62
7
  6
CONTINUOUS
 10
156.1395811588
 20
210.3651898458
 11
156.2787784447
 21
210.5792275773
  0
LINE
  8
0
 62
7
  6
CONTINUOUS
 10
160.4203919058
 20
207.091142397
 11
160.2571405216
 21
206.8948343793
  0
LINE
  8
0
 62
7
  6
CONTINUOUS
 10
158.7878779498
 20
205.1280620819
 11
158.5430008736
 21
204.8336000552
  0
LINE
  8
0
 62
7
  6
CONTINUOUS
 10
159.0380300524
 20
204.2558950482
 11
159.4461585128
 21
204.7466650926
  0
LINE
  8
0
 62
7
  6
CONTINUOUS
 10
160.7521697005
 20
206.3171293722
 11
161.0786726975
 21
206.7097456828
  0
LINE
  8
0
 62
7
  6
CONTINUOUS
 10
99.2554696091
 20
139.429091186
 11
99.2137202097
 21
139.3873417866
  0
LINE
  8
0
 62
7
  6
CONTINUOUS
 10
98.2584796791
 20
138.418279528
 11
95.818961284
 21
135.9787611329
  0
LINE
  8
0
 62
7
  6
CONTINUOUS
 10
99.0667492504
 20
138.8663225312
 11
99.1084986352
 21
138.908071916
  0
LINE
  8
0
 62
7
  6
CONTINUOUS
 10
99.358994973
 20
139.1585682538
 11
99.4216190501
 21
139.221192331
  0
LINE
  8
0
 62
7
  6
CONTINUOUS
 10
99.9087302045
 20
139.109825698
 11
99.4912362983
 21
138.6923317919
  0
LINE
  8
0
 62
7
  6
CONTINUOUS
 10
99.6782604464
 20
138.5053076439
 11
100.0957543525
 21
138.92280155
  0
LINE
  8
0
 62
7
  6
CONTINUOUS
 10
96.72052243
 20
135.0771999869
 11
97.8872486189
 21
136.2439261759
  0
LINE
  8
0
 62
7
  6
CONTINUOUS
 10
98.883907054
 20
137.240584611
 11
99.1600408251
 21
137.516718382
  0
LINE
  8
0
 62
7
  6
CONTINUOUS
 10
100.7690415421
 20
138.2495143603
 11
100.2889235589
 21
137.769396377
  0
LINE
  8
0
 62
7
  6
CONTINUOUS
 10
100.2054247893
 20
137.6858976075
 11
99.7879308832
 21
137.2684037014
  0
LINE
  8
0
 62
7
  6
CONTINUOUS
 10
99.9749551383
 20
137.0813794464
 11
100.9560657972
 21
138.0624901053
  0
LINE
  8
0
 62
7
  6
CONTINUOUS
 10
99.3721728594
 20
135.2893320213
 11
97.9402816275
 21
133.8574407894
  0
LINE
  8
0
 62
7
  6
CONTINUOUS
 10
101.9729895788
 20
136.4610748784
 11
101.9103655017
 21
136.3984508013
  0
LINE
  8
0
 62
7
  6
CONTINUOUS
 10
98.8418427735
 20
132.9558796434
 11
100.2207009969
 21
134.3347378667
  0
LINE
  8
0
 62
7
  6
CONTINUOUS
 10
164.7819082373
 20
202.7506045292
 11
164.5966074917
 21
202.5749586184
  0
LINE
  8
0
 62
7
  6
CONTINUOUS
 10
162.9289006518
 20
200.9941452988
 11
162.6509495334
 21
200.7306764327
  0
LINE
  8
0
 62
7
  6
CONTINUOUS
 10
163.0742590849
 20
200.0985324723
 11
163.5375109488
 21
200.5376472491
  0
LINE
  8
0
 62
7
  6
CONTINUOUS
 10
165.0199170433
 20
201.942814658
 11
165.390518794
 21
202.2941067255
  0
LINE
  8
0
 62
7
  6
CONTINUOUS
 10
174.8123014161
 20
186.3774085051
 11
174.457732679
 21
186.2326537047
  0
LINE
  8
0
 62
7
  6
CONTINUOUS
 10
174.6230211302
 20
185.4900389385
 11
175.0957793359
 21
185.6830452939
  0
LINE
  8
0
 62
7
  6
CONTINUOUS
 10
175.2011025383
 20
177.5517991695
 11
174.3347188031
 21
177.2996946536
  0
LINE
  8
0
 62
7
  6
CONTINUOUS
 10
174.550855192
 20
176.6995261305
 11
174.9298599811
 21
176.754553737
  0
LINE
  8
0
 62
7
  6
CONTINUOUS
 10
175.9225802903
 20
177.024989463
 11
176.1752501497
 21
177.061674534
  0
LINE
  8
0
 62
7
  6
CONTINUOUS
 10
176.0854470461
 20
177.6801969179
 11
175.2011025383
 21
177.5517991695
  0
LINE
  8
0
 62
7
  6
CONTINUOUS
 10
77.0200381256
 20
171.2982005417
 11
77.5409866234
 21
171.3688345561
  0
LINE
  8
0
 62
7
  6
CONTINUOUS
 10
176.9877525035
 20
177.6848879244
 11
176.0854470461
 21
177.6801969179
  0
LINE
  8
0
 62
7
  6
CONTINUOUS
 10
176.1752501497
 20
177.061674534
 11
176.9512190331
 21
177.0480343303
  0
LINE
  8
0
 62
7
  6
CONTINUOUS
 10
78.1759177183
 20
174.9469171893
 11
74.8751552454
 21
175.2957952648
  0
LINE
  8
0
 62
7
  6
CONTINUOUS
 10
79.8448855979
 20
179.5302242471
 11
77.470292681
 21
180.0247076965
  0
LINE
  8
0
 62
7
  6
CONTINUOUS
 10
80.8884993366
 20
194.5558760151
 11
85.0630203415
 21
192.3459159302
  0
LINE
  8
0
 62
7
  6
CONTINUOUS
 10
85.4139261544
 20
193.0087621495
 11
80.1111564001
 21
195.8160086533
  0
LINE
  8
0
 62
7
  6
CONTINUOUS
 10
84.4918533912
 20
199.665311901
 11
84.8036009686
 21
199.4428565357
  0
LINE
  8
0
 62
7
  6
CONTINUOUS
 10
85.3431581328
 20
199.9792099915
 11
84.9274947934
 21
200.275817076
  0
LINE
  8
0
 62
7
  6
CONTINUOUS
 10
88.6022483573
 20
204.2614083924
 11
88.7911030856
 21
204.0895894649
  0
LINE
  8
0
 62
7
  6
CONTINUOUS
 10
90.4907957733
 20
202.5432189972
 11
90.7740778658
 21
202.285490606
  0
LINE
  8
0
 62
7
  6
CONTINUOUS
 10
91.3732233897
 20
202.754341973
 11
90.9010865687
 21
203.1838892917
  0
LINE
  8
0
 62
7
  6
CONTINUOUS
 10
89.3902486095
 20
204.5584408319
 11
89.0125388882
 21
204.9020789275
  0
LINE
  8
0
 62
7
  6
CONTINUOUS
 10
102.6425112111
 20
211.2777342278
 11
102.3021311299
 21
211.6783812643
  0
LINE
  8
0
 62
7
  6
CONTINUOUS
 10
101.6314878247
 20
211.342617125
 11
102.0290192419
 21
210.8278180501
  0
LINE
  8
0
 62
7
  6
CONTINUOUS
 10
94.9044781811
 20
211.710490176
 11
96.3768784414
 21
209.7829936453
  0
LINE
  8
0
 62
7
  6
CONTINUOUS
 10
96.841846876
 20
209.1743106201
 11
98.5467313536
 21
206.9424725767
  0
LINE
  8
0
 62
7
  6
CONTINUOUS
 10
99.1427335535
 20
207.3977542233
 11
95.500480381
 21
212.1657718226
  0
LINE
  8
0
 62
7
  6
CONTINUOUS
 10
109.9354456378
 20
217.7180299592
 11
110.0642910395
 21
217.3573752711
  0
LINE
  8
0
 62
7
  6
CONTINUOUS
 10
110.8135209887
 20
217.4894791936
 11
110.6417271599
 21
217.9703519987
  0
LINE
  8
0
 62
7
  6
CONTINUOUS
 10
115.9344900231
 20
219.1431322046
 11
115.9913790811
 21
218.8942316474
  0
LINE
  8
0
 62
7
  6
CONTINUOUS
 10
116.5033806434
 20
216.6541264588
 11
116.5887142304
 21
216.2807756231
  0
LINE
  8
0
 62
7
  6
CONTINUOUS
 10
117.3483042332
 20
216.3234369725
 11
117.2060815881
 21
216.9456883653
  0
LINE
  8
0
 62
7
  6
CONTINUOUS
 10
116.7509690839
 20
218.9368929968
 11
116.6371908881
 21
219.4346944597
  0
LINE
  8
SURFACE
 62
7
  6
CONTINUOUS
 10
142.6905634573
 20
71.4330237497
 11
142.6905634573
 21
70.6234569479
  0
LINE
  8
0
 62
7
  6
CONTINUOUS
 10
142.6905634573
 20
264.8336613171
 11
142.6905634573
 21
265.6432279536
  0
LINE
  8
0
 62
7
  6
CONTINUOUS
 10
156.2787784447
 20
210.5792275773
 11
156.4523802568
 21
211.0754531043
  0
LINE
  8
0
 62
7
  6
CONTINUOUS
 10
158.9366430622
 20
205.5024518515
 11
158.7878779498
 21
205.1280620819
  0
LINE
  8
0
 62
7
  6
CONTINUOUS
 10
159.4461585128
 20
204.7466650926
 11
159.5949236252
 21
205.1210548622
  0
LINE
  8
0
 62
7
  6
CONTINUOUS
 10
160.5691571325
 20
207.4655323042
 11
160.4203919058
 21
207.091142397
  0
LINE
  8
0
 62
7
  6
CONTINUOUS
 10
161.0786726975
 20
206.7097456828
 11
161.2274376955
 21
207.0841353149
  0
LINE
  8
0
 62
7
  6
CONTINUOUS
 10
163.1208559549
 20
201.348337224
 11
162.9289006518
 21
200.9941452988
  0
LINE
  8
0
 62
7
  6
CONTINUOUS
 10
163.5375109488
 20
200.5376472491
 11
163.729466252
 21
200.8918391743
  0
LINE
  8
0
 62
7
  6
CONTINUOUS
 10
164.9738636702
 20
203.1047965774
 11
164.7819082373
 21
202.7506045292
  0
LINE
  8
0
 62
7
  6
CONTINUOUS
 10
165.390518794
 20
202.2941067255
 11
165.5824739673
 21
202.6482985277
  0
LINE
  8
SURFACE
 62
7
  6
CONTINUOUS
 10
92.1030282582
 20
76.0384097425
 11
91.6982449491
 21
75.3373044852
  0
LINE
  8
0
 62
7
  6
CONTINUOUS
 10
188.8033471245
 20
243.5282751272
 11
189.208130452
 21
244.2293804164
  0
LINE
  8
0
 62
7
  6
CONTINUOUS
 10
175.1196220602
 20
186.6378939038
 11
174.8123014161
 21
186.3774085051
  0
LINE
  8
0
 62
7
  6
CONTINUOUS
 10
175.0957793359
 20
185.6830452939
 11
175.4030999801
 21
185.9435306927
  0
LINE
  8
0
 62
7
  6
CONTINUOUS
 10
172.4848746706
 20
178.1722186
 11
177.7507876688
 21
181.6750996363
  0
LINE
  8
0
 62
7
  6
CONTINUOUS
 10
173.6355490997
 20
179.7800808841
 11
172.2882727431
 21
178.8959918256
  0
LINE
  8
0
 62
7
  6
CONTINUOUS
 10
177.1269400052
 20
182.0237511419
 11
174.0955658236
 21
180.034559008
  0
LINE
  8
SURFACE
 62
7
  6
CONTINUOUS
 10
50.5956307809
 20
105.3205587836
 11
49.8945254917
 21
104.9157754561
  0
LINE
  8
0
 62
7
  6
CONTINUOUS
 10
218.0854961655
 20
202.0208776499
 11
218.7866014229
 21
202.425660959
  0
LINE
  8
0
 62
7
  6
CONTINUOUS
 10
174.3347188031
 20
177.2996946536
 11
173.738964321
 21
176.960579805
  0
LINE
  8
0
 62
7
  6
CONTINUOUS
 10
101.9556113804
 20
136.1444579402
 11
102.118264409
 21
136.2323012788
  0
LINE
  8
0
 62
7
  6
CONTINUOUS
 10
174.1898113525
 20
176.5207917823
 11
174.550855192
 21
176.6995261305
  0
LINE
  8
0
 62
7
  6
CONTINUOUS
 10
175.7399145822
 20
173.8407101675
 11
175.3788705658
 21
173.6619757935
  0
LINE
  8
0
 62
7
  6
CONTINUOUS
 10
177.8331159652
 20
173.6393751445
 11
178.1941598047
 21
173.8181094927
  0
LINE
  8
0
 62
7
  6
CONTINUOUS
 10
101.1674612231
 20
137.6005983415
 11
101.0465575237
 21
137.5545044726
  0
LINE
  8
0
 62
7
  6
CONTINUOUS
 10
78.2371759069
 20
174.3119608551
 11
78.8982156477
 21
174.4934841638
  0
LINE
  8
0
 62
7
  6
CONTINUOUS
 10
77.479728333
 20
172.0037907775
 11
77.0857323155
 21
171.9197383562
  0
LINE
  8
0
 62
7
  6
CONTINUOUS
 10
78.6968661809
 20
175.0175510839
 11
78.1759177183
 21
174.9469171893
  0
LINE
  8
0
 62
7
  6
CONTINUOUS
 10
76.8199167503
 20
180.0324605169
 11
76.419497786
 21
179.9881617552
  0
LINE
  8
0
 62
7
  6
CONTINUOUS
 10
174.2212049624
 20
185.4610150068
 11
174.6230211302
 21
185.4900389385
  0
LINE
  8
0
 62
7
  6
CONTINUOUS
 10
174.457732679
 20
186.2326537047
 11
174.0559165112
 21
186.203629773
  0
LINE
  8
0
 62
7
  6
CONTINUOUS
 10
29.2902447562
 20
184.8333424508
 11
28.4806779545
 21
184.8333424508
  0
LINE
  8
SURFACE
 62
7
  6
CONTINUOUS
 10
222.6908823237
 20
184.8333424508
 11
223.5004489602
 21
184.8333424508
  0
LINE
  8
0
 62
7
  6
CONTINUOUS
 10
76.692500417
 20
179.420585796
 11
77.3428764935
 21
179.4128336759
  0
LINE
  8
0
 62
7
  6
CONTINUOUS
 10
77.470292681
 20
180.0247076965
 11
76.8199167503
 21
180.0324605169
  0
LINE
  8
0
 62
7
  6
CONTINUOUS
 10
171.3707960815
 20
182.2736038931
 11
172.9802103413
 21
182.1926546215
  0
LINE
  8
0
 62
7
  6
CONTINUOUS
 10
173.5057600411
 20
182.2058786848
 11
177.1269400052
 21
182.0237511419
  0
LINE
  8
0
 62
7
  6
CONTINUOUS
 10
177.4886527654
 20
182.6401269224
 11
171.1741941539
 21
182.9973771187
  0
LINE
  8
0
 62
7
  6
CONTINUOUS
 10
78.7830644587
 20
190.5787986993
 11
83.7763652477
 21
189.91547895
  0
LINE
  8
0
 62
7
  6
CONTINUOUS
 10
83.4461784488
 20
190.6560205237
 11
77.8302686158
 21
191.5075082279
  0
LINE
  8
0
 62
7
  6
CONTINUOUS
 10
174.9998657767
 20
173.606948187
 11
174.6029000381
 21
173.6756273224
  0
LINE
  8
0
 62
7
  6
CONTINUOUS
 10
174.9298599811
 20
176.754553737
 11
175.3268258967
 21
176.6858746273
  0
LINE
  8
0
 62
7
  6
CONTINUOUS
 10
176.9512190331
 20
177.0480343303
 11
177.3481851256
 21
176.9793552463
  0
LINE
  8
0
 62
7
  6
CONTINUOUS
 10
174.2957373145
 20
173.1257840611
 11
174.9633323062
 21
172.970094593
  0
LINE
  8
0
 62
7
  6
CONTINUOUS
 10
84.1075003125
 20
199.7860177487
 11
84.4918533912
 21
199.665311901
  0
LINE
  8
0
 62
7
  6
CONTINUOUS
 10
84.9274947934
 20
200.275817076
 11
84.5431417147
 21
200.3965229237
  0
LINE
  8
0
 62
7
  6
CONTINUOUS
 10
90.1233951387
 20
202.7084887811
 11
90.4907957733
 21
202.5432189972
  0
LINE
  8
0
 62
7
  6
CONTINUOUS
 10
90.9010865687
 20
203.1838892917
 11
90.5336859342
 21
203.3491590756
  0
LINE
  8
0
 62
7
  6
CONTINUOUS
 10
88.2348475905
 20
204.4266782967
 11
88.6022483573
 21
204.2614083924
  0
LINE
  8
0
 62
7
  6
CONTINUOUS
 10
89.0125388882
 20
204.9020789275
 11
88.6451383859
 21
205.0673485911
  0
LINE
  8
0
 62
7
  6
CONTINUOUS
 10
49.8945254917
 20
231.3509094454
 11
50.5956309227
 21
230.9461260361
  0
LINE
  8
SURFACE
 62
7
  6
CONTINUOUS
 10
218.0854961655
 20
134.2458072516
 11
218.7866014229
 21
133.8410239425
  0
LINE
  8
0
 62
7
  6
CONTINUOUS
 10
102.0290192419
 20
210.8278180501
 11
102.4811715418
 21
210.4831307697
  0
LINE
  8
0
 62
7
  6
CONTINUOUS
 10
103.9509216331
 20
215.6447040973
 11
104.2341530966
 21
215.3582100602
  0
LINE
  8
0
 62
7
  6
CONTINUOUS
 10
109.6888831771
 20
218.0366293538
 11
109.9354456378
 21
217.7180299592
  0
LINE
  8
0
 62
7
  6
CONTINUOUS
 10
110.6417271599
 20
217.9703519987
 11
110.3951646991
 21
218.2889513933
  0
LINE
  8
0
 62
7
  6
CONTINUOUS
 10
104.9047964017
 20
215.6939741995
 11
104.5072622662
 21
216.2087723133
  0
LINE
  8
0
 62
7
  6
CONTINUOUS
 10
116.2961857187
 20
216.9996246809
 11
116.5033806434
 21
216.6541264588
  0
LINE
  8
0
 62
7
  6
CONTINUOUS
 10
117.2060815881
 20
216.9456883653
 11
116.9988866634
 21
217.2911865874
  0
LINE
  8
0
 62
7
  6
CONTINUOUS
 10
115.7272950586
 20
219.488630601
 11
115.9344900231
 21
219.1431322046
  0
LINE
  8
0
 62
7
  6
CONTINUOUS
 10
116.6371908881
 20
219.4346944597
 11
116.4299960033
 21
219.7801925075
  0
LINE
  8
SURFACE
 62
7
  6
CONTINUOUS
 10
188.8033470424
 20
92.7384099165
 11
189.208130452
 21
92.0373044852
  0
LINE
  8
0
 62
7
  6
CONTINUOUS
 10
92.1030283413
 20
260.228275015
 11
91.6982449491
 21
260.9293804164
  0
LINE
  8
0
 62
7
  6
CONTINUOUS
 10
173.738964321
 20
176.960579805
 11
173.2875057624
 21
176.5161007565
  0
LINE
  8
0
 62
7
  6
CONTINUOUS
 10
173.8467267297
 20
176.2183620046
 11
174.1898113525
 21
176.5207917823
  0
LINE
  8
0
 62
7
  6
CONTINUOUS
 10
175.5950071316
 20
173.0618072961
 11
176.1907615253
 21
173.4009221318
  0
LINE
  8
0
 62
7
  6
CONTINUOUS
 10
101.9103655017
 20
136.3984508013
 11
101.7894618546
 21
136.3523568509
  0
LINE
  8
0
 62
7
  6
CONTINUOUS
 10
158.0822106085
 20
203.8885199874
 11
158.6970408408
 21
204.0413605583
  0
LINE
  8
0
 62
7
  6
CONTINUOUS
 10
159.7963503423
 20
205.9497544146
 11
160.4111805461
 21
206.1025949511
  0
LINE
  8
0
 62
7
  6
CONTINUOUS
 10
162.0817304709
 20
199.846655131
 11
162.7103119566
 21
199.9257864807
  0
LINE
  8
0
 62
7
  6
CONTINUOUS
 10
164.0273885266
 20
201.690937409
 11
164.6559699799
 21
201.770068728
  0
LINE
  8
0
 62
7
  6
CONTINUOUS
 10
177.6553477607
 20
177.5291984948
 11
176.9877525035
 21
177.6848879244
  0
LINE
  8
0
 62
7
  6
CONTINUOUS
 10
173.6067081279
 20
185.6151903921
 11
174.2212049624
 21
185.4610150068
  0
LINE
  8
0
 62
7
  6
CONTINUOUS
 10
174.6029000381
 20
173.6756273224
 11
174.1879749057
 21
173.8680018615
  0
LINE
  8
0
 62
7
  6
CONTINUOUS
 10
173.7365163471
 20
173.423522813
 11
174.2957373145
 21
173.1257840611
  0
LINE
  8
0
 62
7
  6
CONTINUOUS
 10
103.0375146931
 20
211.0472003464
 11
102.6425112111
 21
211.2777342278
  0
LINE
  8
0
 62
7
  6
CONTINUOUS
 10
158.9076790891
 20
205.8586077629
 11
158.9366430622
 21
205.5024518515
  0
LINE
  8
0
 62
7
  6
CONTINUOUS
 10
160.5401931594
 20
207.8216882155
 11
160.5691571325
 21
207.4655323042
  0
LINE
  8
0
 62
7
  6
CONTINUOUS
 10
155.6492639049
 20
211.445470316
 11
155.6500434142
 21
210.9881190805
  0
LINE
  8
0
 62
7
  6
CONTINUOUS
 10
163.1341726833
 20
201.7054207011
 11
163.1208559549
 21
201.348337224
  0
LINE
  8
0
 62
7
  6
CONTINUOUS
 10
164.9871803987
 20
203.4618800546
 11
164.9738636702
 21
203.1047965774
  0
LINE
  8
0
 62
7
  6
CONTINUOUS
 10
159.5949236252
 20
205.1210548622
 11
159.6330989581
 21
205.7534463968
  0
LINE
  8
0
 62
7
  6
CONTINUOUS
 10
161.2274376955
 20
207.0841353149
 11
161.2656130284
 21
207.7165268495
  0
LINE
  8
0
 62
7
  6
CONTINUOUS
 10
163.729466252
 20
200.8918391743
 11
163.842087781
 21
201.5152914983
  0
LINE
  8
0
 62
7
  6
CONTINUOUS
 10
165.5824739673
 20
202.6482985277
 11
165.6950954963
 21
203.2717508517
  0
LINE
  8
0
 62
7
  6
CONTINUOUS
 10
175.2615097994
 20
186.965847886
 11
175.1196220602
 21
186.6378939038
  0
LINE
  8
0
 62
7
  6
CONTINUOUS
 10
175.4030999801
 20
185.9435306927
 11
175.7341188948
 21
186.4837185186
  0
LINE
  8
0
 62
7
  6
CONTINUOUS
 10
175.9566641868
 20
174.1247973968
 11
175.7399145822
 21
173.8407101675
  0
LINE
  8
0
 62
7
  6
CONTINUOUS
 10
176.1907615253
 20
173.4009221318
 11
176.51588511
 21
173.8270586385
  0
LINE
  8
CURVE
 62
40
  6
CONTINUOUS
 10
164.2846656461
 20
164.0010377683
 11
160.0420249589
 21
159.7583970812
  0
LINE
  8
CURVE
 62
40
  6
CONTINUOUS
 10
130.1228681398
 20
129.839240262
 11
134.3655088269
 21
134.0818809492
  0
LINE
  8
CURVE
 62
40
  6
CONTINUOUS
 10
138.4902055862
 20
135.9438360087
 11
158.1800698994
 21
155.6337003219
  0
LINE
  8
0
 62
7
  6
CONTINUOUS
 10
178.1941598047
 20
173.8181094927
 11
178.645618319
 21
174.2625885349
  0
LINE
  8
0
 62
7
  6
CONTINUOUS
 10
178.0863973959
 20
174.5603272932
 11
177.743314506
 21
174.257886203
  0
LINE
  8
0
 62
7
  6
CONTINUOUS
 10
153.6918916556
 20
213.4798348201
 11
152.9943375889
 21
213.3243563719
  0
LINE
  8
0
 62
7
  6
CONTINUOUS
 10
155.0228768009
 20
210.4823015737
 11
150.3488130117
 21
209.7149958808
  0
LINE
  8
0
 62
7
  6
CONTINUOUS
 10
151.1871231878
 20
209.1698092896
 11
155.3380238255
 21
209.8205045865
  0
LINE
  8
0
 62
7
  6
CONTINUOUS
 10
83.7544538797
 20
199.7308179095
 11
84.1075003125
 21
199.7860177487
  0
LINE
  8
0
 62
7
  6
CONTINUOUS
 10
158.2020117192
 20
204.6190656341
 11
157.8465449205
 21
204.5826054411
  0
LINE
  8
0
 62
7
  6
CONTINUOUS
 10
159.9161513672
 20
206.6802999581
 11
159.5606846257
 21
206.6438398339
  0
LINE
  8
0
 62
7
  6
CONTINUOUS
 10
89.7662997402
 20
202.6953860209
 11
90.1233951387
 21
202.7084887811
  0
LINE
  8
0
 62
7
  6
CONTINUOUS
 10
87.877752192
 20
204.4135755364
 11
88.2348475905
 21
204.4266782967
  0
LINE
  8
0
 62
7
  6
CONTINUOUS
 10
84.5431417147
 20
200.3965229237
 11
83.9096579653
 21
200.387877213
  0
LINE
  8
0
 62
7
  6
CONTINUOUS
 10
162.28700247
 20
200.5579305026
 11
161.9297176424
 21
200.5637220968
  0
LINE
  8
0
 62
7
  6
CONTINUOUS
 10
164.2326604283
 20
202.4022126884
 11
163.8753756656
 21
202.4080043441
  0
LINE
  8
0
 62
7
  6
CONTINUOUS
 10
157.4529027962
 20
203.9137537222
 11
158.0822106085
 21
203.8885199874
  0
LINE
  8
0
 62
7
  6
CONTINUOUS
 10
90.5336859342
 20
203.3491590756
 11
89.9036173976
 21
203.4154165152
  0
LINE
  8
0
 62
7
  6
CONTINUOUS
 10
88.6451383859
 20
205.0673485911
 11
88.0150698493
 21
205.1336060307
  0
LINE
  8
0
 62
7
  6
CONTINUOUS
 10
161.4598112939
 20
199.9460613747
 11
162.0817304709
 21
199.846655131
  0
LINE
  8
0
 62
7
  6
CONTINUOUS
 10
102.4811715418
 20
210.4831307697
 11
103.1568732955
 21
210.2503657628
  0
LINE
  8
0
 62
7
  6
CONTINUOUS
 10
174.0559165112
 20
186.203629773
 11
173.7250463758
 21
186.3385775349
  0
LINE
  8
0
 62
7
  6
CONTINUOUS
 10
177.3481851256
 20
176.9793552463
 11
177.7631101695
 21
176.7869806944
  0
LINE
  8
0
 62
7
  6
CONTINUOUS
 10
109.3675627411
 20
218.1929595248
 11
109.6888831771
 21
218.0366293538
  0
LINE
  8
0
 62
7
  6
CONTINUOUS
 10
178.2145686839
 20
177.2314597365
 11
177.6553477607
 21
177.5291984948
  0
LINE
  8
0
 62
7
  6
CONTINUOUS
 10
115.9955852215
 20
217.1928222121
 11
116.2961857187
 21
216.9996246809
  0
LINE
  8
0
 62
7
  6
CONTINUOUS
 10
115.4266945614
 20
219.6818281321
 11
115.7272950586
 21
219.488630601
  0
LINE
  8
0
 62
7
  6
CONTINUOUS
 10
110.3951646991
 20
218.2889513933
 11
109.8702302295
 21
218.6436628419
  0
LINE
  8
0
 62
7
  6
CONTINUOUS
 10
175.3268258967
 20
176.6858746273
 11
175.6154160109
 21
176.4751575399
  0
LINE
  8
0
 62
7
  6
CONTINUOUS
 10
116.9988866634
 20
217.2911865874
 11
116.5195358105
 21
217.7054318877
  0
LINE
  8
0
 62
7
  6
CONTINUOUS
 10
116.4299960033
 20
219.7801925075
 11
115.9506451503
 21
220.1944378078
  0
LINE
  8
CURVE
 62
40
  6
CONTINUOUS
 10
160.0420249589
 20
176.5082878203
 11
164.2846656461
 21
172.2656471332
  0
LINE
  8
CURVE
 62
40
  6
CONTINUOUS
 10
134.3655088269
 20
202.1848039524
 11
130.1228681398
 21
206.4274446395
  0
LINE
  8
CURVE
 62
40
  6
CONTINUOUS
 10
138.4902055862
 20
200.3228488929
 11
158.1800698994
 21
180.6329845797
  0
LINE
  8
0
 62
7
  6
CONTINUOUS
 10
156.4523802568
 20
211.0754531043
 11
156.3116241474
 21
211.7761181436
  0
LINE
  8
0
 62
7
  6
CONTINUOUS
 10
165.6950954963
 20
203.2717508517
 11
165.6290785804
 21
203.8980948507
  0
LINE
  8
0
 62
7
  6
CONTINUOUS
 10
172.9983040436
 20
175.8425507613
 11
172.9617705621
 21
175.2056971657
  0
LINE
  8
0
 62
7
  6
CONTINUOUS
 10
154.588588479
 20
80.0637105785
 11
154.6336263531
 21
80.4330344508
  0
POLYLINE
  8
0
 62
7
  6
CONTINUOUS
 66
1
 70
0
  0
VERTEX
  8
0
 62
7
  6
CONTINUOUS
 10
154.5848035029
 20
80.0330344508
  0
VERTEX
  8
0
 62
7
  6
CONTINUOUS
 10
154.5852299973
 20
80.0364882588
  0
VERTEX
  8
0
 62
7
  6
CONTINUOUS
 10
154.588588479
 20
80.0637105785
  0
SEQEND
  0
LINE
  8
0
 62
7
  6
CONTINUOUS
 10
173.5754843495
 20
175.4211165978
 11
173.6479380748
 21
175.8105680334
  0
LINE
  8
0
 62
7
  6
CONTINUOUS
 10
175.7341188948
 20
186.4837185186
 11
175.8997049045
 21
187.0913749278
  0
LINE
  8
SURFACE
 62
7
  6
CONTINUOUS
 10
194.8040557387
 20
230.1333272372
 11
194.6463375672
 21
229.7625056506
  0
LINE
  8
0
 62
7
  6
CONTINUOUS
 10
173.2875057624
 20
176.5161007565
 11
172.9983040436
 21
175.8425507613
  0
LINE
  8
0
 62
7
  6
CONTINUOUS
 10
176.51588511
 20
173.8270586385
 11
176.8050884398
 21
174.5005973035
  0
LINE
  8
0
 62
7
  6
CONTINUOUS
 10
178.645618319
 20
174.2625885349
 11
178.9348216489
 21
174.9361271999
  0
LINE
  8
0
 62
7
  6
CONTINUOUS
 10
173.6479380748
 20
175.8105680334
 11
173.8467267297
 21
176.2183620046
  0
LINE
  8
0
 62
7
  6
CONTINUOUS
 10
176.1554528418
 20
174.5325913679
 11
175.9566641868
 21
174.1247973968
  0
LINE
  8
0
 62
7
  6
CONTINUOUS
 10
178.2851860509
 20
174.9681212643
 11
178.0863973959
 21
174.5603272932
  0
LINE
  8
0
 62
7
  6
CONTINUOUS
 10
106.722363688
 20
77.5637914366
 11
106.9460295672
 21
77.8611163552
  0
POLYLINE
  8
0
 62
7
  6
CONTINUOUS
 66
1
 70
0
  0
VERTEX
  8
0
 62
7
  6
CONTINUOUS
 10
106.7037477387
 20
77.5391176187
  0
VERTEX
  8
0
 62
7
  6
CONTINUOUS
 10
106.7058439977
 20
77.541895457
  0
VERTEX
  8
0
 62
7
  6
CONTINUOUS
 10
106.722363688
 20
77.5637914366
  0
SEQEND
  0
LINE
  8
SURFACE
 62
7
  6
CONTINUOUS
 10
216.5847882894
 20
187.4201581693
 11
216.2627895529
 21
187.1778763409
  0
LINE
  8
0
 62
7
  6
CONTINUOUS
 10
64.0190374648
 20
99.3319103478
 11
64.3614002575
 21
99.4775683409
  0
POLYLINE
  8
0
 62
7
  6
CONTINUOUS
 66
1
 70
0
  0
VERTEX
  8
0
 62
7
  6
CONTINUOUS
 10
63.9905786709
 20
99.3198501693
  0
VERTEX
  8
0
 62
7
  6
CONTINUOUS
 10
63.9937830036
 20
99.3212077184
  0
VERTEX
  8
0
 62
7
  6
CONTINUOUS
 10
64.0190374648
 20
99.3319103478
  0
SEQEND
  0
LINE
  8
0
 62
7
  6
CONTINUOUS
 10
103.7182698138
 20
210.2459035618
 11
104.3342922814
 21
210.4115558168
  0
LINE
  8
0
 62
7
  6
CONTINUOUS
 10
113.1524599519
 20
213.9239611784
 11
116.077041847
 21
214.5924076901
  0
LINE
  8
0
 62
7
  6
CONTINUOUS
 10
103.9913842251
 20
211.0964681267
 11
103.4871390578
 21
210.9867782594
  0
LINE
  8
0
 62
7
  6
CONTINUOUS
 10
88.0150698493
 20
205.1336060307
 11
87.3953083419
 21
205.0214931627
  0
LINE
  8
SURFACE
 62
7
  6
CONTINUOUS
 10
37.8902554573
 20
196.7275824964
 11
38.2902554573
 21
196.7764053465
  0
LINE
  8
0
 62
7
  6
CONTINUOUS
 10
153.553474074
 20
212.8084461529
 11
154.0070386801
 21
212.8180378329
  0
LINE
  8
0
 62
7
  6
CONTINUOUS
 10
103.1568732955
 20
210.2503657628
 11
103.7182698138
 21
210.2459035618
  0
LINE
  8
0
 62
7
  6
CONTINUOUS
 10
99.1971761258
 20
209.2098504319
 11
99.6504693552
 21
209.1914629235
  0
LINE
  8
0
 62
7
  6
CONTINUOUS
 10
99.3419159363
 20
212.7595192495
 11
98.8886225177
 21
212.7779070615
  0
LINE
  8
0
 62
7
  6
CONTINUOUS
 10
214.0601953296
 20
196.7313674724
 11
213.6908714573
 21
196.7764053465
  0
POLYLINE
  8
0
 62
7
  6
CONTINUOUS
 66
1
 70
0
  0
VERTEX
  8
0
 62
7
  6
CONTINUOUS
 10
214.0908714573
 20
196.7275824964
  0
VERTEX
  8
0
 62
7
  6
CONTINUOUS
 10
214.0874176493
 20
196.7280089907
  0
VERTEX
  8
0
 62
7
  6
CONTINUOUS
 10
214.0601953296
 20
196.7313674724
  0
SEQEND
  0
LINE
  8
0
 62
7
  6
CONTINUOUS
 10
103.4871390578
 20
210.9867782594
 11
103.0375146931
 21
211.0472003464
  0
LINE
  8
0
 62
7
  6
CONTINUOUS
 10
103.5012973084
 20
215.7051261043
 11
103.9509216331
 21
215.6447040973
  0
LINE
  8
0
 62
7
  6
CONTINUOUS
 10
159.5225092929
 20
206.0114482993
 11
159.7963503423
 21
205.9497544146
  0
LINE
  8
0
 62
7
  6
CONTINUOUS
 10
116.5195358105
 20
217.7054318877
 11
116.2473798423
 21
217.7741791403
  0
LINE
  8
0
 62
7
  6
CONTINUOUS
 10
109.8702302295
 20
218.6436628419
 11
109.2705323963
 21
218.8361031418
  0
LINE
  8
0
 62
7
  6
CONTINUOUS
 10
104.5072622662
 20
216.2087723133
 11
103.8315630907
 21
216.441538561
  0
LINE
  8
0
 62
7
  6
CONTINUOUS
 10
163.7627541366
 20
201.7845520201
 11
164.0273885266
 21
201.690937409
  0
LINE
  8
0
 62
7
  6
CONTINUOUS
 10
157.8465449205
 20
204.5826054411
 11
157.476591793
 21
204.7242269313
  0
LINE
  8
0
 62
7
  6
CONTINUOUS
 10
142.3162496009
 20
212.8096446867
 11
146.9158334437
 21
210.8490665525
  0
LINE
  8
SURFACE
 62
7
  6
CONTINUOUS
 10
63.9905786709
 20
236.9468347322
 11
64.3614002575
 21
236.7891165607
  0
LINE
  8
0
 62
7
  6
CONTINUOUS
 10
115.9506451503
 20
220.1944378078
 11
115.3778831068
 21
220.4563813166
  0
LINE
  8
0
 62
7
  6
CONTINUOUS
 10
161.9297176424
 20
200.5637220968
 11
161.5790873075
 21
200.748059644
  0
LINE
  8
0
 62
7
  6
CONTINUOUS
 10
156.8907255051
 20
204.2152304148
 11
157.4529027962
 21
203.9137537222
  0
LINE
  8
0
 62
7
  6
CONTINUOUS
 10
148.4459649621
 20
209.9903005732
 11
149.1068643008
 21
209.6357416021
  0
LINE
  8
0
 62
7
  6
CONTINUOUS
 10
173.0631573257
 20
185.9333374709
 11
173.6067081279
 21
185.6151903921
  0
LINE
  8
0
 62
7
  6
CONTINUOUS
 10
150.0008202357
 20
209.1799022266
 11
153.7732304189
 21
206.7265532074
  0
LINE
  8
0
 62
7
  6
CONTINUOUS
 10
160.9371890608
 20
200.3118447863
 11
161.4598112939
 21
199.9460613747
  0
LINE
  8
0
 62
7
  6
CONTINUOUS
 10
216.5601144715
 20
148.8651426814
 11
216.2627895529
 21
149.0888085607
  0
POLYLINE
  8
0
 62
7
  6
CONTINUOUS
 66
1
 70
0
  0
VERTEX
  8
0
 62
7
  6
CONTINUOUS
 10
216.5847882894
 20
148.8465267322
  0
VERTEX
  8
0
 62
7
  6
CONTINUOUS
 10
216.5820104511
 20
148.8486229911
  0
VERTEX
  8
0
 62
7
  6
CONTINUOUS
 10
216.5601144715
 20
148.8651426814
  0
SEQEND
  0
LINE
  8
0
 62
7
  6
CONTINUOUS
 10
154.5841060214
 20
206.1334344073
 11
156.8907255051
 21
204.2152304148
  0
LINE
  8
0
 62
7
  6
CONTINUOUS
 10
158.8733493636
 20
202.4891288064
 11
160.9371890608
 21
200.3118447863
  0
LINE
  8
0
 62
7
  6
CONTINUOUS
 10
174.1879749057
 20
173.8680018615
 11
173.8814238419
 21
174.2024256908
  0
LINE
  8
0
 62
7
  6
CONTINUOUS
 10
175.6154160109
 20
176.4751575399
 11
175.9219670746
 21
176.1407337106
  0
LINE
  8
0
 62
7
  6
CONTINUOUS
 10
176.5356824178
 20
176.3561418045
 11
175.9225802903
 21
177.024989463
  0
LINE
  8
0
 62
7
  6
CONTINUOUS
 10
177.7631101695
 20
176.7869806944
 11
178.0696612333
 21
176.4525568652
  0
LINE
  8
0
 62
7
  6
CONTINUOUS
 10
173.2677100656
 20
173.9870062603
 11
173.7365163471
 21
173.423522813
  0
LINE
  8
0
 62
7
  6
CONTINUOUS
 10
178.6833765765
 20
176.6679649591
 11
178.2145686839
 21
177.2314597365
  0
LINE
  8
SURFACE
 62
7
  6
CONTINUOUS
 10
106.7037477387
 20
258.7275672828
 11
106.9460295672
 21
258.4055685464
  0
LINE
  8
0
 62
7
  6
CONTINUOUS
 10
173.8814238419
 20
174.2024256908
 11
173.7012077078
 21
174.5551920555
  0
LINE
  8
0
 62
7
  6
CONTINUOUS
 10
159.6330989581
 20
205.7534463968
 11
159.5225092929
 21
206.0114482993
  0
LINE
  8
0
 62
7
  6
CONTINUOUS
 10
194.7919955603
 20
106.1618164582
 11
194.6463375672
 21
106.5041792509
  0
POLYLINE
  8
0
 62
7
  6
CONTINUOUS
 66
1
 70
0
  0
VERTEX
  8
0
 62
7
  6
CONTINUOUS
 10
194.8040557387
 20
106.1333576643
  0
VERTEX
  8
0
 62
7
  6
CONTINUOUS
 10
194.8026981897
 20
106.136561997
  0
VERTEX
  8
0
 62
7
  6
CONTINUOUS
 10
194.7919955603
 20
106.1618164582
  0
SEQEND
  0
LINE
  8
0
 62
7
  6
CONTINUOUS
 10
155.4740934805
 20
211.8639534993
 11
155.6492639049
 21
211.445470316
  0
LINE
  8
0
 62
7
  6
CONTINUOUS
 10
169.0928425212
 20
188.2278990413
 11
169.3763204411
 21
187.5335358301
  0
LINE
  8
0
 62
7
  6
CONTINUOUS
 10
173.0515720213
 20
174.5871861071
 11
173.2677100656
 21
173.9870062603
  0
LINE
  8
0
 62
7
  6
CONTINUOUS
 10
163.842087781
 20
201.5152914983
 11
163.7627541366
 21
201.7845520201
  0
LINE
  8
0
 62
7
  6
CONTINUOUS
 10
171.1741941539
 20
182.9973771187
 11
171.3707960815
 21
182.2736038931
  0
LINE
  8
0
 62
7
  6
CONTINUOUS
 10
172.2882727431
 20
178.8959918256
 11
172.4848746706
 21
178.1722186
  0
LINE
  8
0
 62
7
  6
CONTINUOUS
 10
161.2656130284
 20
207.7165268495
 11
161.1260593901
 21
208.3306846633
  0
LINE
  8
0
 62
7
  6
CONTINUOUS
 10
172.9617705621
 20
175.2056971657
 11
173.0515720213
 21
174.5871861071
  0
LINE
  8
SURFACE
 62
7
  6
CONTINUOUS
 10
154.5848035029
 20
256.2336504508
 11
154.6336263531
 21
255.8336504508
  0
LINE
  8
0
 62
7
  6
CONTINUOUS
 10
175.2379603081
 20
187.3612810466
 11
175.2615097994
 21
186.965847886
  0
LINE
  8
0
 62
7
  6
CONTINUOUS
 10
176.8050884398
 20
174.5005973035
 11
176.841620266
 21
175.1374622229
  0
LINE
  8
0
 62
7
  6
CONTINUOUS
 10
178.9348216489
 20
174.9361271999
 11
178.9713551194
 21
175.5729807939
  0
LINE
  8
0
 62
7
  6
CONTINUOUS
 10
176.2279065671
 20
174.9220428036
 11
176.1554528418
 21
174.5325913679
  0
LINE
  8
0
 62
7
  6
CONTINUOUS
 10
178.3576397762
 20
175.3575727
 11
178.2851860509
 21
174.9681212643
  0
LINE
  8
0
 62
7
  6
CONTINUOUS
 10
103.2701665874
 20
216.446000732
 11
102.6541441248
 21
216.2803484671
  0
LINE
  8
0
 62
7
  6
CONTINUOUS
 10
116.0282359507
 20
215.3669622366
 11
113.7129382316
 21
214.8377745649
  0
LINE
  8
0
 62
7
  6
CONTINUOUS
 10
113.2862702365
 20
216.7045290049
 11
115.6015679556
 21
217.2337166767
  0
LINE
  8
0
 62
7
  6
CONTINUOUS
 10
115.4309007815
 20
217.9804183481
 11
113.1156030624
 21
217.4512306764
  0
LINE
  8
0
 62
7
  6
CONTINUOUS
 10
112.7173795764
 20
219.193534925
 11
115.0326772955
 21
219.7227225967
  0
LINE
  8
0
 62
7
  6
CONTINUOUS
 10
114.7401488236
 20
220.4415714802
 11
111.8155669285
 21
219.7731249685
  0
LINE
  8
0
 62
7
  6
CONTINUOUS
 10
102.9970521411
 20
215.595436237
 11
103.5012973084
 21
215.7051261043
  0
LINE
  8
0
 62
7
  6
CONTINUOUS
 10
109.2705323963
 20
218.8361031418
 11
108.6390142379
 21
218.7460522509
  0
LINE
  8
0
 62
7
  6
CONTINUOUS
 10
115.3778831068
 20
220.4563813166
 11
114.7401488236
 21
220.4415714802
  0
LINE
  8
0
 62
7
  6
CONTINUOUS
 10
108.971473553
 20
218.1870166221
 11
109.3675627411
 21
218.1929595248
  0
LINE
  8
0
 62
7
  6
CONTINUOUS
 10
103.8315630907
 20
216.441538561
 11
103.2701665874
 21
216.446000732
  0
LINE
  8
0
 62
7
  6
CONTINUOUS
 10
115.6015679556
 20
217.2337166767
 11
115.9955852215
 21
217.1928222121
  0
LINE
  8
0
 62
7
  6
CONTINUOUS
 10
115.0326772955
 20
219.7227225967
 11
115.4266945614
 21
219.6818281321
  0
LINE
  8
0
 62
7
  6
CONTINUOUS
 10
154.2502486314
 20
213.4212758366
 11
153.6918916556
 21
213.4798348201
  0
LINE
  8
0
 62
7
  6
CONTINUOUS
 10
159.5606846257
 20
206.6438398339
 11
159.1907314982
 21
206.7854613241
  0
LINE
  8
0
 62
7
  6
CONTINUOUS
 10
154.0070386801
 20
212.8180378329
 11
154.6005894802
 21
212.58430947
  0
LINE
  8
0
 62
7
  6
CONTINUOUS
 10
147.2161770982
 20
211.5536831125
 11
143.3065303054
 21
213.220174751
  0
LINE
  8
0
 62
7
  6
CONTINUOUS
 10
144.4186552174
 20
217.7419606889
 11
148.4432897639
 21
216.0264553824
  0
LINE
  8
0
 62
7
  6
CONTINUOUS
 10
149.2685254097
 20
216.3685629528
 11
144.668941567
 21
218.329141087
  0
LINE
  8
0
 62
7
  6
CONTINUOUS
 10
155.0533649833
 20
213.0512586248
 11
154.2502486314
 21
213.4212758366
  0
LINE
  8
0
 62
7
  6
CONTINUOUS
 10
163.8753756656
 20
202.4080043441
 11
163.5247453307
 21
202.5923418912
  0
LINE
  8
0
 62
7
  6
CONTINUOUS
 10
151.9433360699
 20
214.9229363123
 11
151.2824367311
 21
215.2774952834
  0
LINE
  8
0
 62
7
  6
CONTINUOUS
 10
154.1212231948
 20
207.2616468615
 11
151.1871231878
 21
209.1698092896
  0
LINE
  8
0
 62
7
  6
CONTINUOUS
 10
152.6111606312
 20
212.964425933
 11
153.1351032921
 21
212.6236850933
  0
LINE
  8
0
 62
7
  6
CONTINUOUS
 10
154.6005894802
 20
212.58430947
 11
155.0197397714
 21
212.311719294
  0
LINE
  8
0
 62
7
  6
CONTINUOUS
 10
155.4725248682
 20
212.7786622096
 11
155.0533649833
 21
213.0512586248
  0
LINE
  8
0
 62
7
  6
CONTINUOUS
 10
157.476591793
 20
204.7242269313
 11
155.650515102
 21
206.2428075312
  0
LINE
  8
0
 62
7
  6
CONTINUOUS
 10
156.8749006547
 20
207.7151178707
 11
158.7009773457
 21
206.1965372708
  0
LINE
  8
0
 62
7
  6
CONTINUOUS
 10
159.1907314982
 20
206.7854613241
 11
157.3646548072
 21
208.304041924
  0
LINE
  8
0
 62
7
  6
CONTINUOUS
 10
158.507414725
 20
209.6781983234
 11
160.333491416
 21
208.1596177235
  0
LINE
  8
0
 62
7
  6
CONTINUOUS
 10
160.7271334903
 20
208.8284693823
 11
158.4205140066
 21
210.7466733748
  0
LINE
  8
0
 62
7
  6
CONTINUOUS
 10
156.0316613533
 20
212.2627519905
 11
155.4725248682
 21
212.7786622096
  0
LINE
  8
0
 62
7
  6
CONTINUOUS
 10
155.0197397714
 20
212.311719294
 11
155.4740934805
 21
211.8639534993
  0
LINE
  8
0
 62
7
  6
CONTINUOUS
 10
161.5790873075
 20
200.748059644
 11
159.9452115895
 21
202.4717455951
  0
LINE
  8
0
 62
7
  6
CONTINUOUS
 10
161.334967376
 20
203.7890901102
 11
162.968843094
 21
202.065404159
  0
LINE
  8
0
 62
7
  6
CONTINUOUS
 10
163.5247453307
 20
202.5923418912
 11
161.8908696128
 21
204.3160278424
  0
LINE
  8
0
 62
7
  6
CONTINUOUS
 10
163.1879750914
 20
205.5455494636
 11
164.8218508093
 21
203.8218635124
  0
LINE
  8
0
 62
7
  6
CONTINUOUS
 10
165.291757101
 20
204.4395241807
 11
163.2279174038
 21
206.6168082008
  0
LINE
  8
0
 62
7
  6
CONTINUOUS
 10
173.7250463758
 20
186.3385775349
 11
173.4651179472
 21
186.6375075853
  0
LINE
  8
0
 62
7
  6
CONTINUOUS
 10
161.1260593901
 20
208.3306846633
 11
160.7271334903
 21
208.8284693823
  0
LINE
  8
0
 62
7
  6
CONTINUOUS
 10
172.7087333735
 20
186.4637289885
 11
173.0631573257
 21
185.9333374709
  0
LINE
  8
0
 62
7
  6
CONTINUOUS
 10
165.6290785804
 20
203.8980948507
 11
165.291757101
 21
204.4395241807
  0
LINE
  8
0
 62
7
  6
CONTINUOUS
 10
158.7009773457
 20
206.1965372708
 11
158.9076790891
 21
205.8586077629
  0
LINE
  8
0
 62
7
  6
CONTINUOUS
 10
160.333491416
 20
208.1596177235
 11
160.5401931594
 21
207.8216882155
  0
LINE
  8
0
 62
7
  6
CONTINUOUS
 10
156.3116241474
 20
211.7761181436
 11
156.0316613533
 21
212.2627519905
  0
LINE
  8
0
 62
7
  6
CONTINUOUS
 10
175.9219670746
 20
176.1407337106
 11
176.1021832087
 21
175.7879673459
  0
LINE
  8
0
 62
7
  6
CONTINUOUS
 10
178.0696612333
 20
176.4525568652
 11
178.2498773674
 21
176.0997905004
  0
LINE
  8
0
 62
7
  6
CONTINUOUS
 10
162.968843094
 20
202.065404159
 11
163.1341726833
 21
201.7054207011
  0
LINE
  8
0
 62
7
  6
CONTINUOUS
 10
164.8218508093
 20
203.8218635124
 11
164.9871803987
 21
203.4618800546
  0
LINE
  8
0
 62
7
  6
CONTINUOUS
 10
171.8582996139
 20
188.5468186218
 11
172.7087333735
 21
186.4637289885
  0
LINE
  8
0
 62
7
  6
CONTINUOUS
 10
173.4651179472
 20
186.6375075853
 11
172.5674364259
 21
188.8363279523
  0
LINE
  8
0
 62
7
  6
CONTINUOUS
 10
174.3402787868
 20
189.5601014135
 11
175.2379603081
 21
187.3612810466
  0
LINE
  8
0
 62
7
  6
CONTINUOUS
 10
175.7816598896
 20
187.7182695555
 11
174.6477482102
 21
190.4957224
  0
LINE
  8
0
 62
7
  6
CONTINUOUS
 10
176.7518188068
 20
175.7559732814
 11
176.5356824178
 21
176.3561418045
  0
LINE
  8
0
 62
7
  6
CONTINUOUS
 10
178.8995129654
 20
176.067796436
 11
178.6833765765
 21
176.6679649591
  0
LINE
  8
0
 62
7
  6
CONTINUOUS
 10
172.9802103413
 20
182.1926546215
 11
173.6355490997
 21
179.7800808841
  0
LINE
  8
0
 62
7
  6
CONTINUOUS
 10
174.0955658236
 20
180.034559008
 11
173.5057600411
 21
182.2058786848
  0
LINE
  8
0
 62
7
  6
CONTINUOUS
 10
177.7507876688
 20
181.6750996363
 11
177.4886527654
 21
182.6401269224
  0
LINE
  8
0
 62
7
  6
CONTINUOUS
 10
175.8997049045
 20
187.0913749278
 11
175.7816598896
 21
187.7182695555
  0
LINE
  8
0
 62
7
  6
CONTINUOUS
 10
173.7012077078
 20
174.5551920555
 11
173.5754843495
 21
175.4211165978
  0
LINE
  8
0
 62
7
  6
CONTINUOUS
 10
176.1021832087
 20
175.7879673459
 11
176.2279065671
 21
174.9220428036
  0
LINE
  8
0
 62
7
  6
CONTINUOUS
 10
176.841620266
 20
175.1374622229
 11
176.7518188068
 21
175.7559732814
  0
LINE
  8
0
 62
7
  6
CONTINUOUS
 10
177.743314506
 20
174.257886203
 11
177.8331159652
 21
173.6393751445
  0
LINE
  8
0
 62
7
  6
CONTINUOUS
 10
178.2498773674
 20
176.0997905004
 11
178.3576397762
 21
175.3575727
  0
LINE
  8
0
 62
7
  6
CONTINUOUS
 10
178.9713551194
 20
175.5729807939
 11
178.8995129654
 21
176.067796436
  0
LINE
  8
SURFACE
 62
7
  6
CONTINUOUS
 10
214.0908714573
 20
144.4197563923
 11
214.0908714573
 21
139.5391024051
  0
LINE
  8
0
 62
7
  6
CONTINUOUS
 10
214.0908714573
 20
144.4197563923
 11
214.0908714573
 21
139.5391024051
  0
LINE
  8
0
 62
7
  6
CONTINUOUS
 10
214.0908714573
 20
165.3889793151
 11
214.0908714573
 21
196.7275824964
  0
LINE
  8
SURFACE
 62
7
  6
CONTINUOUS
 10
190.4308752373
 20
103.5466205093
 11
187.9905482438
 21
99.3198501693
  0
LINE
  8
0
 62
7
  6
CONTINUOUS
 10
190.4308752373
 20
103.5466205093
 11
187.9905482438
 21
99.3198501693
  0
LINE
  8
0
 62
7
  6
CONTINUOUS
 10
200.9154866987
 20
121.7065002581
 11
216.5847882894
 21
148.8465267322
  0
LINE
  8
SURFACE
 62
7
  6
CONTINUOUS
 10
149.5041495158
 20
79.9794446123
 11
145.2773791759
 21
77.5391176187
  0
LINE
  8
0
 62
7
  6
CONTINUOUS
 10
149.5041495158
 20
79.9794446123
 11
145.2773791759
 21
77.5391176187
  0
LINE
  8
0
 62
7
  6
CONTINUOUS
 10
167.6640292646
 20
90.4640560737
 11
194.8040557387
 21
106.1333576643
  0
LINE
  8
0
 62
7
  6
CONTINUOUS
 10
128.734926593
 20
256.2336504508
 11
97.3963234117
 21
256.2336504508
  0
LINE
  8
SURFACE
 62
7
  6
CONTINUOUS
 10
149.7041495158
 20
256.2336504508
 11
154.5848035029
 21
256.2336504508
  0
LINE
  8
0
 62
7
  6
CONTINUOUS
 10
149.7041495158
 20
256.2336504508
 11
154.5848035029
 21
256.2336504508
  0
LINE
  8
0
 62
7
  6
CONTINUOUS
 10
172.41740565
 20
243.0582656922
 11
145.2773791759
 21
258.7275672828
  0
LINE
  8
SURFACE
 62
7
  6
CONTINUOUS
 10
190.5772853988
 20
232.5736542307
 11
194.8040557387
 21
230.1333272372
  0
LINE
  8
0
 62
7
  6
CONTINUOUS
 10
190.5772853988
 20
232.5736542307
 11
194.8040557387
 21
230.1333272372
  0
LINE
  8
0
 62
7
  6
CONTINUOUS
 10
216.5847882894
 20
187.4201581693
 11
214.1444612958
 21
191.6469285093
  0
LINE
  8
0
 62
7
  6
CONTINUOUS
 10
203.6598498344
 20
209.8068082581
 11
187.9905482438
 21
236.9468347322
  0
POLYLINE
  8
0
 62
7
  6
CONTINUOUS
 66
1
 70
0
  0
VERTEX
  8
0
 62
7
  6
CONTINUOUS
 10
330.6609233574
 20
69.5234572103
  0
VERTEX
  8
0
 62
7
  6
CONTINUOUS
 10
330.6745672482
 20
69.5236899609
  0
VERTEX
  8
0
 62
7
  6
CONTINUOUS
 10
330.700947248
 20
69.5254645316
  0
VERTEX
  8
0
 62
7
  6
CONTINUOUS
 10
330.7265817204
 20
69.5288824905
  0
VERTEX
  8
0
 62
7
  6
CONTINUOUS
 10
330.7513985002
 20
69.5338231602
  0
VERTEX
  8
0
 62
7
  6
CONTINUOUS
 10
330.7753387743
 20
69.5401690193
  0
VERTEX
  8
0
 62
7
  6
CONTINUOUS
 10
330.7983557669
 20
69.5478065703
  0
VERTEX
  8
0
 62
7
  6
CONTINUOUS
 10
330.8204134286
 20
69.5566270075
  0
VERTEX
  8
0
 62
7
  6
CONTINUOUS
 10
330.8414851537
 20
69.5665266944
  0
VERTEX
  8
0
 62
7
  6
CONTINUOUS
 10
330.8615526739
 20
69.5774075401
  0
VERTEX
  8
0
 62
7
  6
CONTINUOUS
 10
330.8806049513
 20
69.5891772306
  0
VERTEX
  8
0
 62
7
  6
CONTINUOUS
 10
330.8986371381
 20
69.6017493458
  0
VERTEX
  8
0
 62
7
  6
CONTINUOUS
 10
330.9156496069
 20
69.6150433765
  0
VERTEX
  8
0
 62
7
  6
CONTINUOUS
 10
330.931646963
 20
69.6289845707
  0
VERTEX
  8
0
 62
7
  6
CONTINUOUS
 10
330.9466315491
 20
69.6434979552
  0
VERTEX
  8
0
 62
7
  6
CONTINUOUS
 10
330.9606021472
 20
69.6585043104
  0
VERTEX
  8
0
 62
7
  6
CONTINUOUS
 10
330.9735625061
 20
69.6739269129
  0
VERTEX
  8
0
 62
7
  6
CONTINUOUS
 10
330.9855214809
 20
69.6896923534
  0
VERTEX
  8
0
 62
7
  6
CONTINUOUS
 10
330.9964925324
 20
69.7057307593
  0
VERTEX
  8
0
 62
7
  6
CONTINUOUS
 10
331.0064931733
 20
69.7219758516
  0
VERTEX
  8
0
 62
7
  6
CONTINUOUS
 10
331.0155443038
 20
69.7383646242
  0
VERTEX
  8
0
 62
7
  6
CONTINUOUS
 10
331.0236695016
 20
69.7548365253
  0
VERTEX
  8
0
 62
7
  6
CONTINUOUS
 10
331.0308918504
 20
69.7713259127
  0
VERTEX
  8
0
 62
7
  6
CONTINUOUS
 10
331.0372095617
 20
69.7876894263
  0
VERTEX
  8
0
 62
7
  6
CONTINUOUS
 10
331.0426355056
 20
69.8037720956
  0
VERTEX
  8
0
 62
7
  6
CONTINUOUS
 10
331.0472039182
 20
69.8194292938
  0
VERTEX
  8
0
 62
7
  6
CONTINUOUS
 10
331.0509591811
 20
69.83449524
  0
VERTEX
  8
0
 62
7
  6
CONTINUOUS
 10
331.0539580127
 20
69.8487809007
  0
VERTEX
  8
0
 62
7
  6
CONTINUOUS
 10
331.0562199032
 20
69.8617463978
  0
VERTEX
  8
0
 62
7
  6
CONTINUOUS
 10
331.0578216951
 20
69.8728644462
  0
VERTEX
  8
0
 62
7
  6
CONTINUOUS
 10
331.0588947373
 20
69.8818234849
  0
VERTEX
  8
0
 62
7
  6
CONTINUOUS
 10
331.0596252653
 20
69.8890231968
  0
VERTEX
  8
0
 62
7
  6
CONTINUOUS
 10
331.0601598569
 20
69.8951006163
  0
VERTEX
  8
0
 62
7
  6
CONTINUOUS
 10
331.0605834342
 20
69.9005296976
  0
VERTEX
  8
0
 62
7
  6
CONTINUOUS
 10
331.0609464626
 20
69.9056658672
  0
SEQEND
  0
LINE
  8
SURFACE
 62
7
  6
CONTINUOUS
 10
322.3414289119
 20
69.5234569479
 11
314.0414146409
 21
69.5234569479
  0
LINE
  8
0
 62
7
  6
CONTINUOUS
 10
322.3414146458
 20
69.5234569479
 11
330.6609376567
 21
69.5234569479
  0
LINE
  8
SURFACE
 62
7
  6
CONTINUOUS
 10
322.3622447173
 20
74.7873044852
 11
314.0401075871
 21
74.7873044852
  0
POLYLINE
  8
0
 62
7
  6
CONTINUOUS
 66
1
 70
0
  0
VERTEX
  8
0
 62
7
  6
CONTINUOUS
 10
330.8511761488
 20
77.5391176187
  0
VERTEX
  8
0
 62
7
  6
CONTINUOUS
 10
330.9036272463
 20
77.541895457
  0
VERTEX
  8
0
 62
7
  6
CONTINUOUS
 10
330.9551290393
 20
77.5501718386
  0
VERTEX
  8
0
 62
7
  6
CONTINUOUS
 10
331.0047986646
 20
77.5637914366
  0
VERTEX
  8
0
 62
7
  6
CONTINUOUS
 10
331.0517868493
 20
77.582508166
  0
VERTEX
  8
0
 62
7
  6
CONTINUOUS
 10
331.0952928791
 20
77.6059892564
  0
VERTEX
  8
0
 62
7
  6
CONTINUOUS
 10
331.1345793523
 20
77.6338215198
  0
VERTEX
  8
0
 62
7
  6
CONTINUOUS
 10
331.1689848465
 20
77.665519131
  0
VERTEX
  8
0
 62
7
  6
CONTINUOUS
 10
331.1979348277
 20
77.7005327071
  0
VERTEX
  8
0
 62
7
  6
CONTINUOUS
 10
331.2209506408
 20
77.7382594247
  0
VERTEX
  8
0
 62
7
  6
CONTINUOUS
 10
331.237656448
 20
77.7780538457
  0
VERTEX
  8
0
 62
7
  6
CONTINUOUS
 10
331.2477840398
 20
77.8192386766
  0
VERTEX
  8
0
 62
7
  6
CONTINUOUS
 10
331.2511761488
 20
77.8611163552
  0
SEQEND
  0
POLYLINE
  8
SURFACE
 62
7
  6
CONTINUOUS
 66
1
 70
0
  0
VERTEX
  8
SURFACE
 62
7
  6
CONTINUOUS
 10
322.3622174688
 20
74.7873047909
  0
VERTEX
  8
SURFACE
 62
7
  6
CONTINUOUS
 10
322.3842956116
 20
74.7879143956
  0
VERTEX
  8
SURFACE
 62
7
  6
CONTINUOUS
 10
322.4154417538
 20
74.7908606602
  0
VERTEX
  8
SURFACE
 62
7
  6
CONTINUOUS
 10
322.4454855124
 20
74.7960652815
  0
VERTEX
  8
SURFACE
 62
7
  6
CONTINUOUS
 10
322.4743131065
 20
74.8033280699
  0
VERTEX
  8
SURFACE
 62
7
  6
CONTINUOUS
 10
322.5018360461
 20
74.8124550688
  0
VERTEX
  8
SURFACE
 62
7
  6
CONTINUOUS
 10
322.5279880497
 20
74.8232603531
  0
VERTEX
  8
SURFACE
 62
7
  6
CONTINUOUS
 10
322.5527219393
 20
74.8355671939
  0
VERTEX
  8
SURFACE
 62
7
  6
CONTINUOUS
 10
322.5760075325
 20
74.849209178
  0
VERTEX
  8
SURFACE
 62
7
  6
CONTINUOUS
 10
322.59782913
 20
74.864030842
  0
VERTEX
  8
SURFACE
 62
7
  6
CONTINUOUS
 10
322.618183118
 20
74.8798879373
  0
VERTEX
  8
SURFACE
 62
7
  6
CONTINUOUS
 10
322.6370771065
 20
74.8966486604
  0
VERTEX
  8
SURFACE
 62
7
  6
CONTINUOUS
 10
322.6545225211
 20
74.9141883932
  0
VERTEX
  8
SURFACE
 62
7
  6
CONTINUOUS
 10
322.6705247048
 20
74.9323767157
  0
VERTEX
  8
SURFACE
 62
7
  6
CONTINUOUS
 10
322.6850994629
 20
74.9510913281
  0
VERTEX
  8
SURFACE
 62
7
  6
CONTINUOUS
 10
322.6982724617
 20
74.9702199459
  0
VERTEX
  8
SURFACE
 62
7
  6
CONTINUOUS
 10
322.7100767822
 20
74.9896597444
  0
VERTEX
  8
SURFACE
 62
7
  6
CONTINUOUS
 10
322.7205490568
 20
75.0093125391
  0
VERTEX
  8
SURFACE
 62
7
  6
CONTINUOUS
 10
322.7297306189
 20
75.0290865
  0
VERTEX
  8
SURFACE
 62
7
  6
CONTINUOUS
 10
322.7376130095
 20
75.0487495058
  0
VERTEX
  8
SURFACE
 62
7
  6
CONTINUOUS
 10
322.7441269947
 20
75.0677615451
  0
VERTEX
  8
SURFACE
 62
7
  6
CONTINUOUS
 10
322.7493101024
 20
75.0856266656
  0
VERTEX
  8
SURFACE
 62
7
  6
CONTINUOUS
 10
322.7532602455
 20
75.1018172436
  0
VERTEX
  8
SURFACE
 62
7
  6
CONTINUOUS
 10
322.7561500624
 20
75.1159262506
  0
VERTEX
  8
SURFACE
 62
7
  6
CONTINUOUS
 10
322.7582453688
 20
75.1280613796
  0
VERTEX
  8
SURFACE
 62
7
  6
CONTINUOUS
 10
322.759796585
 20
75.1386325223
  0
VERTEX
  8
SURFACE
 62
7
  6
CONTINUOUS
 10
322.7609760738
 20
75.1479787005
  0
VERTEX
  8
SURFACE
 62
7
  6
CONTINUOUS
 10
322.7619177302
 20
75.1565210881
  0
VERTEX
  8
SURFACE
 62
7
  6
CONTINUOUS
 10
322.7627138164
 20
75.1646498712
  0
VERTEX
  8
SURFACE
 62
7
  6
CONTINUOUS
 10
322.7634290772
 20
75.1727392657
  0
VERTEX
  8
SURFACE
 62
7
  6
CONTINUOUS
 10
322.7641066245
 20
75.1811116415
  0
VERTEX
  8
SURFACE
 62
7
  6
CONTINUOUS
 10
322.7647709566
 20
75.1899800526
  0
VERTEX
  8
SURFACE
 62
7
  6
CONTINUOUS
 10
322.7654380134
 20
75.1995094472
  0
VERTEX
  8
SURFACE
 62
7
  6
CONTINUOUS
 10
322.7668217633
 20
75.2210871984
  0
SEQEND
  0
LINE
  8
0
 62
7
  6
CONTINUOUS
 10
322.8630963679
 20
77.5391176187
 11
330.8511761488
 21
77.5391176187
  0
POLYLINE
  8
0
 62
7
  6
CONTINUOUS
 66
1
 70
0
  0
VERTEX
  8
0
 62
7
  6
CONTINUOUS
 10
330.7969985799
 20
88.7711856733
  0
VERTEX
  8
0
 62
7
  6
CONTINUOUS
 10
330.8349344175
 20
88.7729875901
  0
VERTEX
  8
0
 62
7
  6
CONTINUOUS
 10
330.8703096203
 20
88.7779571429
  0
VERTEX
  8
0
 62
7
  6
CONTINUOUS
 10
330.9041178441
 20
88.7857866356
  0
VERTEX
  8
0
 62
7
  6
CONTINUOUS
 10
330.9362142649
 20
88.7961775457
  0
VERTEX
  8
0
 62
7
  6
CONTINUOUS
 10
330.9664944681
 20
88.8088463837
  0
VERTEX
  8
0
 62
7
  6
CONTINUOUS
 10
330.9948863385
 20
88.8235264175
  0
VERTEX
  8
0
 62
7
  6
CONTINUOUS
 10
331.0213462159
 20
88.8399696849
  0
VERTEX
  8
0
 62
7
  6
CONTINUOUS
 10
331.045854308
 20
88.8579482544
  0
VERTEX
  8
0
 62
7
  6
CONTINUOUS
 10
331.0684095978
 20
88.8772542672
  0
VERTEX
  8
0
 62
7
  6
CONTINUOUS
 10
331.0890334807
 20
88.8977078843
  0
VERTEX
  8
0
 62
7
  6
CONTINUOUS
 10
331.1077271513
 20
88.9191149054
  0
VERTEX
  8
0
 62
7
  6
CONTINUOUS
 10
331.1244576997
 20
88.9412225715
  0
VERTEX
  8
0
 62
7
  6
CONTINUOUS
 10
331.1392339917
 20
88.9637922068
  0
VERTEX
  8
0
 62
7
  6
CONTINUOUS
 10
331.1521024086
 20
88.9866093545
  0
VERTEX
  8
0
 62
7
  6
CONTINUOUS
 10
331.1631317733
 20
89.0094724132
  0
VERTEX
  8
0
 62
7
  6
CONTINUOUS
 10
331.1723830281
 20
89.0321188042
  0
VERTEX
  8
0
 62
7
  6
CONTINUOUS
 10
331.1798274741
 20
89.0538891263
  0
VERTEX
  8
0
 62
7
  6
CONTINUOUS
 10
331.1854170622
 20
89.0735703807
  0
VERTEX
  8
0
 62
7
  6
CONTINUOUS
 10
331.1893846517
 20
89.0903699808
  0
VERTEX
  8
0
 62
7
  6
CONTINUOUS
 10
331.1922345119
 20
89.1047662687
  0
VERTEX
  8
0
 62
7
  6
CONTINUOUS
 10
331.1943933081
 20
89.1176740351
  0
VERTEX
  8
0
 62
7
  6
CONTINUOUS
 10
331.1960950508
 20
89.129623058
  0
VERTEX
  8
0
 62
7
  6
CONTINUOUS
 10
331.1974756268
 20
89.1408682614
  0
VERTEX
  8
0
 62
7
  6
CONTINUOUS
 10
331.1986444219
 20
89.1517267215
  0
VERTEX
  8
0
 62
7
  6
CONTINUOUS
 10
331.199691723
 20
89.1626346622
  0
VERTEX
  8
0
 62
7
  6
CONTINUOUS
 10
331.2006814193
 20
89.1740258043
  0
VERTEX
  8
0
 62
7
  6
CONTINUOUS
 10
331.2016509117
 20
89.1862165941
  0
VERTEX
  8
0
 62
7
  6
CONTINUOUS
 10
331.2026225677
 20
89.1994430666
  0
SEQEND
  0
LINE
  8
0
 62
7
  6
CONTINUOUS
 10
322.2053422169
 20
88.7711856854
 11
330.7970100788
 21
88.7711856854
  0
POLYLINE
  8
0
 62
7
  6
CONTINUOUS
 66
1
 70
0
  0
VERTEX
  8
0
 62
7
  6
CONTINUOUS
 10
330.8511761488
 20
99.3198501693
  0
VERTEX
  8
0
 62
7
  6
CONTINUOUS
 10
330.9036272463
 20
99.3212077184
  0
VERTEX
  8
0
 62
7
  6
CONTINUOUS
 10
330.9551290393
 20
99.3252527681
  0
VERTEX
  8
0
 62
7
  6
CONTINUOUS
 10
331.0047986646
 20
99.3319103478
  0
VERTEX
  8
0
 62
7
  6
CONTINUOUS
 10
331.0517868493
 20
99.3410616568
  0
VERTEX
  8
0
 62
7
  6
CONTINUOUS
 10
331.0952928791
 20
99.3525459141
  0
VERTEX
  8
0
 62
7
  6
CONTINUOUS
 10
331.1345793523
 20
99.3661632463
  0
VERTEX
  8
0
 62
7
  6
CONTINUOUS
 10
331.1689848465
 20
99.3816782916
  0
VERTEX
  8
0
 62
7
  6
CONTINUOUS
 10
331.1979348277
 20
99.3988244354
  0
VERTEX
  8
0
 62
7
  6
CONTINUOUS
 10
331.2209506408
 20
99.4173085635
  0
VERTEX
  8
0
 62
7
  6
CONTINUOUS
 10
331.237656448
 20
99.4368161883
  0
VERTEX
  8
0
 62
7
  6
CONTINUOUS
 10
331.2477840398
 20
99.4570165785
  0
VERTEX
  8
0
 62
7
  6
CONTINUOUS
 10
331.2511761488
 20
99.4775683409
  0
SEQEND
  0
LINE
  8
0
 62
7
  6
CONTINUOUS
 10
322.1511761488
 20
99.3198501693
 11
330.8511761488
 21
99.3198501693
  0
POLYLINE
  8
0
 62
7
  6
CONTINUOUS
 66
1
 70
0
  0
VERTEX
  8
0
 62
7
  6
CONTINUOUS
 10
322.1511761488
 20
99.3198501693
  0
VERTEX
  8
0
 62
7
  6
CONTINUOUS
 10
322.0987250513
 20
99.3212077184
  0
VERTEX
  8
0
 62
7
  6
CONTINUOUS
 10
322.0472232583
 20
99.3252527681
  0
VERTEX
  8
0
 62
7
  6
CONTINUOUS
 10
321.997553633
 20
99.3319103478
  0
VERTEX
  8
0
 62
7
  6
CONTINUOUS
 10
321.9505654482
 20
99.3410616568
  0
VERTEX
  8
0
 62
7
  6
CONTINUOUS
 10
321.9070594184
 20
99.3525459141
  0
VERTEX
  8
0
 62
7
  6
CONTINUOUS
 10
321.8677729453
 20
99.3661632463
  0
VERTEX
  8
0
 62
7
  6
CONTINUOUS
 10
321.8333674511
 20
99.3816782916
  0
VERTEX
  8
0
 62
7
  6
CONTINUOUS
 10
321.8044174699
 20
99.3988244354
  0
VERTEX
  8
0
 62
7
  6
CONTINUOUS
 10
321.7814016568
 20
99.4173085635
  0
VERTEX
  8
0
 62
7
  6
CONTINUOUS
 10
321.7646958496
 20
99.4368161883
  0
VERTEX
  8
0
 62
7
  6
CONTINUOUS
 10
321.7545682578
 20
99.4570165785
  0
VERTEX
  8
0
 62
7
  6
CONTINUOUS
 10
321.7511761488
 20
99.4775683409
  0
SEQEND
  0
POLYLINE
  8
SURFACE
 62
7
  6
CONTINUOUS
 66
1
 70
0
  0
VERTEX
  8
SURFACE
 62
7
  6
CONTINUOUS
 10
322.3695981874
 20
104.7684036907
  0
VERTEX
  8
SURFACE
 62
7
  6
CONTINUOUS
 10
322.414809952
 20
104.7709637347
  0
VERTEX
  8
SURFACE
 62
7
  6
CONTINUOUS
 10
322.4540894024
 20
104.7774170267
  0
VERTEX
  8
SURFACE
 62
7
  6
CONTINUOUS
 10
322.4912447886
 20
104.7873236326
  0
VERTEX
  8
SURFACE
 62
7
  6
CONTINUOUS
 10
322.5261405854
 20
104.8002614872
  0
VERTEX
  8
SURFACE
 62
7
  6
CONTINUOUS
 10
322.5586951946
 20
104.81584935
  0
VERTEX
  8
SURFACE
 62
7
  6
CONTINUOUS
 10
322.5888683054
 20
104.8337474496
  0
VERTEX
  8
SURFACE
 62
7
  6
CONTINUOUS
 10
322.6166525414
 20
104.853658482
  0
VERTEX
  8
SURFACE
 62
7
  6
CONTINUOUS
 10
322.6420626248
 20
104.8753257904
  0
VERTEX
  8
SURFACE
 62
7
  6
CONTINUOUS
 10
322.6651083917
 20
104.8985106158
  0
VERTEX
  8
SURFACE
 62
7
  6
CONTINUOUS
 10
322.6856412637
 20
104.9227832664
  0
VERTEX
  8
SURFACE
 62
7
  6
CONTINUOUS
 10
322.7035646244
 20
104.9476511489
  0
VERTEX
  8
SURFACE
 62
7
  6
CONTINUOUS
 10
322.7188905474
 20
104.9726395138
  0
VERTEX
  8
SURFACE
 62
7
  6
CONTINUOUS
 10
322.7317077548
 20
104.9972807384
  0
VERTEX
  8
SURFACE
 62
7
  6
CONTINUOUS
 10
322.7421626639
 20
105.0210996276
  0
VERTEX
  8
SURFACE
 62
7
  6
CONTINUOUS
 10
322.7505567986
 20
105.0439188417
  0
VERTEX
  8
SURFACE
 62
7
  6
CONTINUOUS
 10
322.7571311674
 20
105.0654218818
  0
VERTEX
  8
SURFACE
 62
7
  6
CONTINUOUS
 10
322.7621417971
 20
105.0852737449
  0
VERTEX
  8
SURFACE
 62
7
  6
CONTINUOUS
 10
322.7659324882
 20
105.1035158447
  0
VERTEX
  8
SURFACE
 62
7
  6
CONTINUOUS
 10
322.7687920506
 20
105.1201479357
  0
VERTEX
  8
SURFACE
 62
7
  6
CONTINUOUS
 10
322.7710460005
 20
105.1357793376
  0
VERTEX
  8
SURFACE
 62
7
  6
CONTINUOUS
 10
322.7729441469
 20
105.1512080908
  0
VERTEX
  8
SURFACE
 62
7
  6
CONTINUOUS
 10
322.7746553463
 20
105.1672378929
  0
VERTEX
  8
SURFACE
 62
7
  6
CONTINUOUS
 10
322.7762754929
 20
105.1844739403
  0
VERTEX
  8
SURFACE
 62
7
  6
CONTINUOUS
 10
322.7778625014
 20
105.2034114128
  0
VERTEX
  8
SURFACE
 62
7
  6
CONTINUOUS
 10
322.7794497748
 20
105.2244401945
  0
SEQEND
  0
LINE
  8
SURFACE
 62
7
  6
CONTINUOUS
 10
322.3696137781
 20
104.7684034003
 11
314.0327385265
 21
104.7684034003
  0
LINE
  8
SURFACE
 62
7
  6
CONTINUOUS
 10
313.3511761488
 20
108.1333424508
 11
304.2011761488
 21
108.1333424508
  0
LINE
  8
0
 62
7
  6
CONTINUOUS
 10
331.3511761488
 20
108.1333424508
 11
340.5011761488
 21
108.1333424508
  0
POLYLINE
  8
SURFACE
 62
7
  6
CONTINUOUS
 66
1
 70
0
  0
VERTEX
  8
SURFACE
 62
7
  6
CONTINUOUS
 10
313.544378824
 20
106.2673823655
  0
VERTEX
  8
SURFACE
 62
7
  6
CONTINUOUS
 10
313.5333674511
 20
106.2790712399
  0
VERTEX
  8
SURFACE
 62
7
  6
CONTINUOUS
 10
313.5044174699
 20
106.3194003999
  0
VERTEX
  8
SURFACE
 62
7
  6
CONTINUOUS
 10
313.4814016568
 20
106.3628383859
  0
VERTEX
  8
SURFACE
 62
7
  6
CONTINUOUS
 10
313.4646958496
 20
106.4086390308
  0
VERTEX
  8
SURFACE
 62
7
  6
CONTINUOUS
 10
313.4545682578
 20
106.4560205905
  0
VERTEX
  8
SURFACE
 62
7
  6
CONTINUOUS
 10
313.4511761488
 20
106.5041792509
  0
SEQEND
  0
POLYLINE
  8
0
 62
7
  6
CONTINUOUS
 66
1
 70
0
  0
VERTEX
  8
0
 62
7
  6
CONTINUOUS
 10
321.8443722946
 20
229.9992956049
  0
VERTEX
  8
0
 62
7
  6
CONTINUOUS
 10
321.8333674511
 20
229.9876136617
  0
VERTEX
  8
0
 62
7
  6
CONTINUOUS
 10
321.8044174699
 20
229.9472845017
  0
VERTEX
  8
0
 62
7
  6
CONTINUOUS
 10
321.7814016568
 20
229.9038465156
  0
VERTEX
  8
0
 62
7
  6
CONTINUOUS
 10
321.7646958496
 20
229.8580458708
  0
VERTEX
  8
0
 62
7
  6
CONTINUOUS
 10
321.7545682578
 20
229.8106643111
  0
VERTEX
  8
0
 62
7
  6
CONTINUOUS
 10
321.7511761488
 20
229.7625056506
  0
SEQEND
  0
POLYLINE
  8
0
 62
7
  6
CONTINUOUS
 66
1
 70
0
  0
VERTEX
  8
0
 62
7
  6
CONTINUOUS
 10
330.8052091512
 20
126.1663844609
  0
VERTEX
  8
0
 62
7
  6
CONTINUOUS
 10
330.8149243967
 20
126.1665022836
  0
VERTEX
  8
0
 62
7
  6
CONTINUOUS
 10
330.8545031032
 20
126.1694288655
  0
VERTEX
  8
0
 62
7
  6
CONTINUOUS
 10
330.8923520266
 20
126.1759773862
  0
VERTEX
  8
0
 62
7
  6
CONTINUOUS
 10
330.9282515752
 20
126.185747845
  0
VERTEX
  8
0
 62
7
  6
CONTINUOUS
 10
330.962044873
 20
126.1983594847
  0
VERTEX
  8
0
 62
7
  6
CONTINUOUS
 10
330.9936261126
 20
126.2134551901
  0
VERTEX
  8
0
 62
7
  6
CONTINUOUS
 10
331.0229295631
 20
126.2307027558
  0
VERTEX
  8
0
 62
7
  6
CONTINUOUS
 10
331.0499263332
 20
126.2497984217
  0
VERTEX
  8
0
 62
7
  6
CONTINUOUS
 10
331.0746159919
 20
126.2704672281
  0
VERTEX
  8
0
 62
7
  6
CONTINUOUS
 10
331.0970333043
 20
126.292476766
  0
VERTEX
  8
0
 62
7
  6
CONTINUOUS
 10
331.1171803764
 20
126.315570723
  0
VERTEX
  8
0
 62
7
  6
CONTINUOUS
 10
331.1350046777
 20
126.339395479
  0
VERTEX
  8
0
 62
7
  6
CONTINUOUS
 10
331.1505263106
 20
126.3636241171
  0
VERTEX
  8
0
 62
7
  6
CONTINUOUS
 10
331.1638222233
 20
126.3879642546
  0
VERTEX
  8
0
 62
7
  6
CONTINUOUS
 10
331.1749883828
 20
126.4121048849
  0
VERTEX
  8
0
 62
7
  6
CONTINUOUS
 10
331.1841207461
 20
126.4356367478
  0
VERTEX
  8
0
 62
7
  6
CONTINUOUS
 10
331.1912751096
 20
126.4578060708
  0
VERTEX
  8
0
 62
7
  6
CONTINUOUS
 10
331.1956334873
 20
126.4738182172
  0
SEQEND
  0
LINE
  8
0
 62
7
  6
CONTINUOUS
 10
322.1971335136
 20
126.1663844475
 11
330.8052187847
 21
126.1663844475
  0
LINE
  8
0
 62
7
  6
CONTINUOUS
 10
343.5011761488
 20
132.9558796434
 11
343.7511761488
 21
132.9558796434
  0
LINE
  8
0
 62
7
  6
CONTINUOUS
 10
343.5011761488
 20
133.8574407894
 11
343.7511761488
 21
133.8574407894
  0
LINE
  8
0
 62
7
  6
CONTINUOUS
 10
343.5011761488
 20
135.0771999869
 11
343.7511761488
 21
135.0771999869
  0
LINE
  8
SURFACE
 62
7
  6
CONTINUOUS
 10
313.486198824
 20
106.6947471202
 11
313.4928311135
 21
106.6821403478
  0
LINE
  8
0
 62
7
  6
CONTINUOUS
 10
321.7928097988
 20
229.58450328
 11
321.7862063214
 21
229.5719544949
  0
POLYLINE
  8
0
 62
7
  6
CONTINUOUS
 66
1
 70
0
  0
VERTEX
  8
0
 62
7
  6
CONTINUOUS
 10
322.1511761488
 20
139.5391024051
  0
VERTEX
  8
0
 62
7
  6
CONTINUOUS
 10
322.0987250513
 20
139.5386759108
  0
VERTEX
  8
0
 62
7
  6
CONTINUOUS
 10
322.0472232583
 20
139.5374057607
  0
VERTEX
  8
0
 62
7
  6
CONTINUOUS
 10
321.997553633
 20
139.5353174291
  0
VERTEX
  8
0
 62
7
  6
CONTINUOUS
 10
321.9505654482
 20
139.5324512318
  0
VERTEX
  8
0
 62
7
  6
CONTINUOUS
 10
321.9070594184
 20
139.5288614586
  0
VERTEX
  8
0
 62
7
  6
CONTINUOUS
 10
321.8677729453
 20
139.5246151064
  0
VERTEX
  8
0
 62
7
  6
CONTINUOUS
 10
321.8333674511
 20
139.5197903419
  0
VERTEX
  8
0
 62
7
  6
CONTINUOUS
 10
321.8044174699
 20
139.514474758
  0
VERTEX
  8
0
 62
7
  6
CONTINUOUS
 10
321.7814016568
 20
139.5087634895
  0
VERTEX
  8
0
 62
7
  6
CONTINUOUS
 10
321.7646958496
 20
139.5027572657
  0
VERTEX
  8
0
 62
7
  6
CONTINUOUS
 10
321.7545682578
 20
139.4965605369
  0
VERTEX
  8
0
 62
7
  6
CONTINUOUS
 10
321.7511761488
 20
139.490279555
  0
SEQEND
  0
LINE
  8
0
 62
7
  6
CONTINUOUS
 10
343.5011761488
 20
135.9787611329
 11
343.7511761488
 21
135.9787611329
  0
LINE
  8
0
 62
7
  6
CONTINUOUS
 10
343.5011761488
 20
136.1908931673
 11
343.7511761488
 21
136.1908931673
  0
LINE
  8
0
 62
7
  6
CONTINUOUS
 10
343.5011761488
 20
136.4527465195
 11
343.7511761488
 21
136.4527465195
  0
LINE
  8
0
 62
7
  6
CONTINUOUS
 10
322.1511761488
 20
139.5391024051
 11
330.8511761488
 21
139.5391024051
  0
LINE
  8
0
 62
7
  6
CONTINUOUS
 10
343.5011761488
 20
140.2777465195
 11
343.7511761488
 21
140.2777465195
  0
LINE
  8
0
 62
7
  6
CONTINUOUS
 10
343.5011761488
 20
140.3274678372
 11
343.7511761488
 21
140.3274678372
  0
POLYLINE
  8
0
 62
7
  6
CONTINUOUS
 66
1
 70
0
  0
VERTEX
  8
0
 62
7
  6
CONTINUOUS
 10
330.8511761488
 20
139.5391024051
  0
VERTEX
  8
0
 62
7
  6
CONTINUOUS
 10
330.9036272463
 20
139.5386759108
  0
VERTEX
  8
0
 62
7
  6
CONTINUOUS
 10
330.9551290393
 20
139.5374057607
  0
VERTEX
  8
0
 62
7
  6
CONTINUOUS
 10
331.0047986646
 20
139.5353174291
  0
VERTEX
  8
0
 62
7
  6
CONTINUOUS
 10
331.0517868493
 20
139.5324512318
  0
VERTEX
  8
0
 62
7
  6
CONTINUOUS
 10
331.0952928791
 20
139.5288614586
  0
VERTEX
  8
0
 62
7
  6
CONTINUOUS
 10
331.1345793523
 20
139.5246151064
  0
VERTEX
  8
0
 62
7
  6
CONTINUOUS
 10
331.1689848465
 20
139.5197903419
  0
VERTEX
  8
0
 62
7
  6
CONTINUOUS
 10
331.1979348277
 20
139.514474758
  0
VERTEX
  8
0
 62
7
  6
CONTINUOUS
 10
331.2209506408
 20
139.5087634895
  0
VERTEX
  8
0
 62
7
  6
CONTINUOUS
 10
331.237656448
 20
139.5027572657
  0
VERTEX
  8
0
 62
7
  6
CONTINUOUS
 10
331.2477840398
 20
139.4965605369
  0
VERTEX
  8
0
 62
7
  6
CONTINUOUS
 10
331.2511761488
 20
139.490279555
  0
SEQEND
  0
LINE
  8
SURFACE
 62
7
  6
CONTINUOUS
 10
301.2011761488
 20
111.1333454702
 11
301.2011761488
 21
225.1333424508
  0
POLYLINE
  8
0
 62
7
  6
CONTINUOUS
 66
1
 70
0
  0
VERTEX
  8
0
 62
7
  6
CONTINUOUS
 10
321.7862063214
 20
229.5719544949
  0
VERTEX
  8
0
 62
7
  6
CONTINUOUS
 10
321.7685703475
 20
229.5249279104
  0
VERTEX
  8
0
 62
7
  6
CONTINUOUS
 10
321.7569673976
 20
229.4760710118
  0
VERTEX
  8
0
 62
7
  6
CONTINUOUS
 10
321.7515779302
 20
229.4261734174
  0
SEQEND
  0
LINE
  8
0
 62
7
  6
CONTINUOUS
 10
343.5011761488
 20
142.7669862323
 11
343.7511761488
 21
142.7669862323
  0
LINE
  8
0
 62
7
  6
CONTINUOUS
 10
343.5011761488
 20
142.9886963553
 11
343.7511761488
 21
142.9886963553
  0
LINE
  8
0
 62
7
  6
CONTINUOUS
 10
343.5011761488
 20
143.1217855793
 11
343.7511761488
 21
143.1217855793
  0
LINE
  8
0
 62
7
  6
CONTINUOUS
 10
343.5011761488
 20
143.2757494957
 11
343.7511761488
 21
143.2757494957
  0
LINE
  8
0
 62
7
  6
CONTINUOUS
 10
343.5011761488
 20
143.4340576676
 11
343.7511761488
 21
143.4340576676
  0
LINE
  8
0
 62
7
  6
CONTINUOUS
 10
343.5011761488
 20
143.609744603
 11
343.7511761488
 21
143.609744603
  0
LINE
  8
0
 62
7
  6
CONTINUOUS
 10
343.5011761488
 20
143.7680527896
 11
343.7511761488
 21
143.7680527896
  0
LINE
  8
0
 62
7
  6
CONTINUOUS
 10
343.5011761488
 20
143.8098021743
 11
343.7511761488
 21
143.8098021743
  0
POLYLINE
  8
SURFACE
 62
7
  6
CONTINUOUS
 66
1
 70
0
  0
VERTEX
  8
SURFACE
 62
7
  6
CONTINUOUS
 10
313.8511761488
 20
148.8465267322
  0
VERTEX
  8
SURFACE
 62
7
  6
CONTINUOUS
 10
313.7987250513
 20
148.8486229911
  0
VERTEX
  8
SURFACE
 62
7
  6
CONTINUOUS
 10
313.7472232583
 20
148.8548680053
  0
VERTEX
  8
SURFACE
 62
7
  6
CONTINUOUS
 10
313.697553633
 20
148.8651426814
  0
VERTEX
  8
SURFACE
 62
7
  6
CONTINUOUS
 10
313.6505654482
 20
148.8792583899
  0
VERTEX
  8
SURFACE
 62
7
  6
CONTINUOUS
 10
313.6070594184
 20
148.8969603167
  0
VERTEX
  8
SURFACE
 62
7
  6
CONTINUOUS
 10
313.5677729453
 20
148.9179325467
  0
VERTEX
  8
SURFACE
 62
7
  6
CONTINUOUS
 10
313.5333674511
 20
148.9418043291
  0
VERTEX
  8
SURFACE
 62
7
  6
CONTINUOUS
 10
313.5044174699
 20
148.9681573343
  0
VERTEX
  8
SURFACE
 62
7
  6
CONTINUOUS
 10
313.4814016568
 20
148.9965336696
  0
VERTEX
  8
SURFACE
 62
7
  6
CONTINUOUS
 10
313.4646958496
 20
149.0264443792
  0
VERTEX
  8
SURFACE
 62
7
  6
CONTINUOUS
 10
313.4545682578
 20
149.0573778185
  0
VERTEX
  8
SURFACE
 62
7
  6
CONTINUOUS
 10
313.4511761488
 20
149.0888085607
  0
SEQEND
  0
POLYLINE
  8
SURFACE
 62
7
  6
CONTINUOUS
 66
1
 70
0
  0
VERTEX
  8
SURFACE
 62
7
  6
CONTINUOUS
 10
313.4878955091
 20
106.70428301
  0
VERTEX
  8
SURFACE
 62
7
  6
CONTINUOUS
 10
313.4878732653
 20
106.7043605884
  0
VERTEX
  8
SURFACE
 62
7
  6
CONTINUOUS
 10
313.4882704094
 20
106.7028576296
  0
VERTEX
  8
SURFACE
 62
7
  6
CONTINUOUS
 10
313.4892634689
 20
106.6987911036
  0
VERTEX
  8
SURFACE
 62
7
  6
CONTINUOUS
 10
313.4907230863
 20
106.6923174688
  0
VERTEX
  8
SURFACE
 62
7
  6
CONTINUOUS
 10
313.4925555749
 20
106.6835545794
  0
VERTEX
  8
SURFACE
 62
7
  6
CONTINUOUS
 10
313.4946983086
 20
106.6725567709
  0
VERTEX
  8
SURFACE
 62
7
  6
CONTINUOUS
 10
313.4971114414
 20
106.6593158922
  0
VERTEX
  8
SURFACE
 62
7
  6
CONTINUOUS
 10
313.4997692437
 20
106.643779053
  0
VERTEX
  8
SURFACE
 62
7
  6
CONTINUOUS
 10
313.5026557873
 20
106.625855122
  0
VERTEX
  8
SURFACE
 62
7
  6
CONTINUOUS
 10
313.5057616811
 20
106.6054218756
  0
VERTEX
  8
SURFACE
 62
7
  6
CONTINUOUS
 10
313.5090768945
 20
106.5823669151
  0
VERTEX
  8
SURFACE
 62
7
  6
CONTINUOUS
 10
313.512586908
 20
106.5566194129
  0
VERTEX
  8
SURFACE
 62
7
  6
CONTINUOUS
 10
313.5162783816
 20
106.5281154206
  0
VERTEX
  8
SURFACE
 62
7
  6
CONTINUOUS
 10
313.5201391683
 20
106.4967969135
  0
VERTEX
  8
SURFACE
 62
7
  6
CONTINUOUS
 10
313.5241586942
 20
106.4626069916
  0
VERTEX
  8
SURFACE
 62
7
  6
CONTINUOUS
 10
313.5283309454
 20
106.4254603962
  0
VERTEX
  8
SURFACE
 62
7
  6
CONTINUOUS
 10
313.5326522164
 20
106.3852564841
  0
SEQEND
  0
POLYLINE
  8
SURFACE
 62
7
  6
CONTINUOUS
 66
1
 70
0
  0
VERTEX
  8
SURFACE
 62
7
  6
CONTINUOUS
 10
313.4515766598
 20
106.8405397699
  0
VERTEX
  8
SURFACE
 62
7
  6
CONTINUOUS
 10
313.4569632881
 20
106.7906377677
  0
VERTEX
  8
SURFACE
 62
7
  6
CONTINUOUS
 10
313.4685666714
 20
106.7417690399
  0
VERTEX
  8
SURFACE
 62
7
  6
CONTINUOUS
 10
313.486198824
 20
106.6947471202
  0
SEQEND
  0
LINE
  8
SURFACE
 62
7
  6
CONTINUOUS
 10
313.5326522164
 20
106.3852564841
 11
313.5417300513
 21
106.2952588029
  0
LINE
  8
SURFACE
 62
7
  6
CONTINUOUS
 10
313.5417300513
 20
106.2952588029
 11
313.5513734942
 21
106.1917465318
  0
LINE
  8
SURFACE
 62
7
  6
CONTINUOUS
 10
313.5513734942
 20
106.1917465318
 11
313.5615682681
 21
106.0738208689
  0
LINE
  8
SURFACE
 62
7
  6
CONTINUOUS
 10
313.5615682681
 20
106.0738208689
 11
313.5723020342
 21
105.9405654628
  0
POLYLINE
  8
SURFACE
 62
7
  6
CONTINUOUS
 66
1
 70
0
  0
VERTEX
  8
SURFACE
 62
7
  6
CONTINUOUS
 10
313.6377285887
 20
75.1879595117
  0
VERTEX
  8
SURFACE
 62
7
  6
CONTINUOUS
 10
313.6383917725
 20
75.179248081
  0
VERTEX
  8
SURFACE
 62
7
  6
CONTINUOUS
 10
313.6390722668
 20
75.1709903059
  0
VERTEX
  8
SURFACE
 62
7
  6
CONTINUOUS
 10
313.6398001636
 20
75.1629262977
  0
VERTEX
  8
SURFACE
 62
7
  6
CONTINUOUS
 10
313.6406257671
 20
75.1546977226
  0
VERTEX
  8
SURFACE
 62
7
  6
CONTINUOUS
 10
313.6416150155
 20
75.145975694
  0
VERTEX
  8
SURFACE
 62
7
  6
CONTINUOUS
 10
313.6428683459
 20
75.1363634439
  0
VERTEX
  8
SURFACE
 62
7
  6
CONTINUOUS
 10
313.6445219219
 20
75.1254901923
  0
VERTEX
  8
SURFACE
 62
7
  6
CONTINUOUS
 10
313.6467946834
 20
75.1128249288
  0
VERTEX
  8
SURFACE
 62
7
  6
CONTINUOUS
 10
313.6500565329
 20
75.0975910983
  0
VERTEX
  8
SURFACE
 62
7
  6
CONTINUOUS
 10
313.6546839596
 20
75.0796285415
  0
VERTEX
  8
SURFACE
 62
7
  6
CONTINUOUS
 10
313.6608090715
 20
75.0598464261
  0
VERTEX
  8
SURFACE
 62
7
  6
CONTINUOUS
 10
313.6684082584
 20
75.0392230938
  0
VERTEX
  8
SURFACE
 62
7
  6
CONTINUOUS
 10
313.677555072
 20
75.0181141673
  0
VERTEX
  8
SURFACE
 62
7
  6
CONTINUOUS
 10
313.688360668
 20
74.9967030066
  0
VERTEX
  8
SURFACE
 62
7
  6
CONTINUOUS
 10
313.7009226239
 20
74.9751810085
  0
VERTEX
  8
SURFACE
 62
7
  6
CONTINUOUS
 10
313.7153122297
 20
74.9537644499
  0
VERTEX
  8
SURFACE
 62
7
  6
CONTINUOUS
 10
313.7316191891
 20
74.9326287357
  0
VERTEX
  8
SURFACE
 62
7
  6
CONTINUOUS
 10
313.749914535
 20
74.9119754982
  0
VERTEX
  8
SURFACE
 62
7
  6
CONTINUOUS
 10
313.7702502204
 20
74.8920258993
  0
VERTEX
  8
SURFACE
 62
7
  6
CONTINUOUS
 10
313.7926578811
 20
74.8730172443
  0
VERTEX
  8
SURFACE
 62
7
  6
CONTINUOUS
 10
313.8171535824
 20
74.8551966407
  0
VERTEX
  8
SURFACE
 62
7
  6
CONTINUOUS
 10
313.8437306534
 20
74.8388259115
  0
VERTEX
  8
SURFACE
 62
7
  6
CONTINUOUS
 10
313.8723535722
 20
74.8241823349
  0
VERTEX
  8
SURFACE
 62
7
  6
CONTINUOUS
 10
313.9029537083
 20
74.8115564788
  0
VERTEX
  8
SURFACE
 62
7
  6
CONTINUOUS
 10
313.9354252276
 20
74.801249119
  0
VERTEX
  8
SURFACE
 62
7
  6
CONTINUOUS
 10
313.9696219059
 20
74.7935671987
  0
VERTEX
  8
SURFACE
 62
7
  6
CONTINUOUS
 10
314.0053525123
 20
74.7888195192
  0
VERTEX
  8
SURFACE
 62
7
  6
CONTINUOUS
 10
314.0401347538
 20
74.7873048039
  0
SEQEND
  0
POLYLINE
  8
SURFACE
 62
7
  6
CONTINUOUS
 66
1
 70
0
  0
VERTEX
  8
SURFACE
 62
7
  6
CONTINUOUS
 10
313.6228427737
 20
105.2252729003
  0
VERTEX
  8
SURFACE
 62
7
  6
CONTINUOUS
 10
313.6243771235
 20
105.2048348896
  0
VERTEX
  8
SURFACE
 62
7
  6
CONTINUOUS
 10
313.6259153144
 20
105.1863068046
  0
VERTEX
  8
SURFACE
 62
7
  6
CONTINUOUS
 10
313.6274859908
 20
105.1693654899
  0
VERTEX
  8
SURFACE
 62
7
  6
CONTINUOUS
 10
313.6291413188
 20
105.1535682619
  0
VERTEX
  8
SURFACE
 62
7
  6
CONTINUOUS
 10
313.6309677541
 20
105.1383654826
  0
VERTEX
  8
SURFACE
 62
7
  6
CONTINUOUS
 10
313.6331115857
 20
105.123057259
  0
VERTEX
  8
SURFACE
 62
7
  6
CONTINUOUS
 10
313.6358026863
 20
105.1068566085
  0
VERTEX
  8
SURFACE
 62
7
  6
CONTINUOUS
 10
313.6393015827
 20
105.0893382243
  0
VERTEX
  8
SURFACE
 62
7
  6
CONTINUOUS
 10
313.6438161108
 20
105.0706141609
  0
VERTEX
  8
SURFACE
 62
7
  6
CONTINUOUS
 10
313.6496569829
 20
105.050480104
  0
VERTEX
  8
SURFACE
 62
7
  6
CONTINUOUS
 10
313.6573753668
 20
105.0283020337
  0
VERTEX
  8
SURFACE
 62
7
  6
CONTINUOUS
 10
313.6676288369
 20
105.0037416015
  0
VERTEX
  8
SURFACE
 62
7
  6
CONTINUOUS
 10
313.6807286856
 20
104.9775608743
  0
VERTEX
  8
SURFACE
 62
7
  6
CONTINUOUS
 10
313.6966998623
 20
104.9508256463
  0
VERTEX
  8
SURFACE
 62
7
  6
CONTINUOUS
 10
313.7155919616
 20
104.9242242115
  0
VERTEX
  8
SURFACE
 62
7
  6
CONTINUOUS
 10
313.7375226343
 20
104.898206674
  0
VERTEX
  8
SURFACE
 62
7
  6
CONTINUOUS
 10
313.7625549787
 20
104.8732412848
  0
VERTEX
  8
SURFACE
 62
7
  6
CONTINUOUS
 10
313.7907021105
 20
104.8498036082
  0
VERTEX
  8
SURFACE
 62
7
  6
CONTINUOUS
 10
313.8219862613
 20
104.8283384896
  0
VERTEX
  8
SURFACE
 62
7
  6
CONTINUOUS
 10
313.8563827025
 20
104.80932469
  0
VERTEX
  8
SURFACE
 62
7
  6
CONTINUOUS
 10
313.8938005821
 20
104.7932792357
  0
VERTEX
  8
SURFACE
 62
7
  6
CONTINUOUS
 10
313.9340701017
 20
104.7807513381
  0
VERTEX
  8
SURFACE
 62
7
  6
CONTINUOUS
 10
313.9769358154
 20
104.7723123501
  0
VERTEX
  8
SURFACE
 62
7
  6
CONTINUOUS
 10
314.022037044
 20
104.768547087
  0
VERTEX
  8
SURFACE
 62
7
  6
CONTINUOUS
 10
314.0327540596
 20
104.7684036751
  0
SEQEND
  0
LINE
  8
SURFACE
 62
7
  6
CONTINUOUS
 10
313.5723020342
 20
105.9405654628
 11
313.5835637305
 21
105.7910443387
  0
POLYLINE
  8
SURFACE
 62
7
  6
CONTINUOUS
 66
1
 70
0
  0
VERTEX
  8
SURFACE
 62
7
  6
CONTINUOUS
 10
313.6414681124
 20
69.9047523757
  0
VERTEX
  8
SURFACE
 62
7
  6
CONTINUOUS
 10
313.6418027637
 20
69.9000732571
  0
VERTEX
  8
SURFACE
 62
7
  6
CONTINUOUS
 10
313.642190948
 20
69.8951187362
  0
VERTEX
  8
SURFACE
 62
7
  6
CONTINUOUS
 10
313.6426832623
 20
69.8894919772
  0
VERTEX
  8
SURFACE
 62
7
  6
CONTINUOUS
 10
313.6433700806
 20
69.8826300661
  0
VERTEX
  8
SURFACE
 62
7
  6
CONTINUOUS
 10
313.6443949303
 20
69.8739150235
  0
VERTEX
  8
SURFACE
 62
7
  6
CONTINUOUS
 10
313.6459398886
 20
69.8629774624
  0
VERTEX
  8
SURFACE
 62
7
  6
CONTINUOUS
 10
313.6481519117
 20
69.8500599577
  0
VERTEX
  8
SURFACE
 62
7
  6
CONTINUOUS
 10
313.6511639769
 20
69.8355023668
  0
VERTEX
  8
SURFACE
 62
7
  6
CONTINUOUS
 10
313.6550869643
 20
69.8196571386
  0
VERTEX
  8
SURFACE
 62
7
  6
CONTINUOUS
 10
313.6599960575
 20
69.8028862068
  0
VERTEX
  8
SURFACE
 62
7
  6
CONTINUOUS
 10
313.6659072298
 20
69.7855908374
  0
VERTEX
  8
SURFACE
 62
7
  6
CONTINUOUS
 10
313.6728608647
 20
69.7679658976
  0
VERTEX
  8
SURFACE
 62
7
  6
CONTINUOUS
 10
313.6809181236
 20
69.7501109854
  0
VERTEX
  8
SURFACE
 62
7
  6
CONTINUOUS
 10
313.6901370516
 20
69.7321237996
  0
VERTEX
  8
SURFACE
 62
7
  6
CONTINUOUS
 10
313.7005677426
 20
69.7141106092
  0
VERTEX
  8
SURFACE
 62
7
  6
CONTINUOUS
 10
313.7122502194
 20
69.696186629
  0
VERTEX
  8
SURFACE
 62
7
  6
CONTINUOUS
 10
313.7252271246
 20
69.6784564141
  0
VERTEX
  8
SURFACE
 62
7
  6
CONTINUOUS
 10
313.7395434347
 20
69.6610210379
  0
VERTEX
  8
SURFACE
 62
7
  6
CONTINUOUS
 10
313.7552380695
 20
69.643991337
  0
VERTEX
  8
SURFACE
 62
7
  6
CONTINUOUS
 10
313.7723429062
 20
69.6274875863
  0
VERTEX
  8
SURFACE
 62
7
  6
CONTINUOUS
 10
313.790881299
 20
69.6116395795
  0
VERTEX
  8
SURFACE
 62
7
  6
CONTINUOUS
 10
313.8108658112
 20
69.5965869761
  0
VERTEX
  8
SURFACE
 62
7
  6
CONTINUOUS
 10
313.8322965866
 20
69.5824785961
  0
VERTEX
  8
SURFACE
 62
7
  6
CONTINUOUS
 10
313.8551604859
 20
69.5694711049
  0
VERTEX
  8
SURFACE
 62
7
  6
CONTINUOUS
 10
313.8794294725
 20
69.5577282054
  0
VERTEX
  8
SURFACE
 62
7
  6
CONTINUOUS
 10
313.9050589488
 20
69.5474196081
  0
VERTEX
  8
SURFACE
 62
7
  6
CONTINUOUS
 10
313.9319861034
 20
69.5387197337
  0
VERTEX
  8
SURFACE
 62
7
  6
CONTINUOUS
 10
313.9601283812
 20
69.5318061212
  0
VERTEX
  8
SURFACE
 62
7
  6
CONTINUOUS
 10
313.9893818208
 20
69.5268576128
  0
VERTEX
  8
SURFACE
 62
7
  6
CONTINUOUS
 10
314.0196195564
 20
69.5240521836
  0
VERTEX
  8
SURFACE
 62
7
  6
CONTINUOUS
 10
314.0414289399
 20
69.5234572103
  0
SEQEND
  0
LINE
  8
SURFACE
 62
7
  6
CONTINUOUS
 10
313.5835637305
 20
105.7910443387
 11
313.6228427737
 21
105.2252729003
  0
LINE
  8
SURFACE
 62
7
  6
CONTINUOUS
 10
313.6363867852
 20
75.2074606689
 11
313.6377285887
 21
75.1879595117
  0
LINE
  8
SURFACE
 62
7
  6
CONTINUOUS
 10
313.6408601149
 20
69.9142252749
 11
313.6414681124
 21
69.9047523757
  0
LINE
  8
SURFACE
 62
7
  6
CONTINUOUS
 10
313.6349616746
 20
75.2305936328
 11
313.6363867852
 21
75.2074606689
  0
LINE
  8
SURFACE
 62
7
  6
CONTINUOUS
 10
313.6402553709
 20
69.9247498105
 11
313.6408601149
 21
69.9142252749
  0
LINE
  8
SURFACE
 62
7
  6
CONTINUOUS
 10
313.632591085
 20
75.2735541965
 11
313.6349616746
 21
75.2305936328
  0
LINE
  8
SURFACE
 62
7
  6
CONTINUOUS
 10
313.4517829064
 20
79.4083319751
 11
313.4793554896
 21
78.8588701514
  0
LINE
  8
SURFACE
 62
7
  6
CONTINUOUS
 10
313.6299015316
 20
75.3276366492
 11
313.632591085
 21
75.2735541965
  0
POLYLINE
  8
SURFACE
 62
7
  6
CONTINUOUS
 66
1
 70
0
  0
VERTEX
  8
SURFACE
 62
7
  6
CONTINUOUS
 10
313.5503489603
 20
71.8014360464
  0
VERTEX
  8
SURFACE
 62
7
  6
CONTINUOUS
 10
313.5947548988
 20
70.8418838134
  0
VERTEX
  8
SURFACE
 62
7
  6
CONTINUOUS
 10
313.6402553709
 20
69.9247498105
  0
SEQEND
  0
LINE
  8
SURFACE
 62
7
  6
CONTINUOUS
 10
313.4793554896
 20
78.8588701514
 11
313.5102273932
 21
78.1981985504
  0
LINE
  8
SURFACE
 62
7
  6
CONTINUOUS
 10
313.6257199487
 20
75.4204060621
 11
313.6299015316
 21
75.3276366492
  0
LINE
  8
SURFACE
 62
7
  6
CONTINUOUS
 10
313.5102273932
 20
78.1981985504
 11
313.5430197654
 21
77.4523070409
  0
LINE
  8
SURFACE
 62
7
  6
CONTINUOUS
 10
313.5430197654
 20
77.4523070409
 11
313.5772343216
 21
76.631337441
  0
LINE
  8
SURFACE
 62
7
  6
CONTINUOUS
 10
313.505357354
 20
72.8455186992
 11
313.5503489603
 21
71.8014360464
  0
LINE
  8
SURFACE
 62
7
  6
CONTINUOUS
 10
313.5772343216
 20
76.631337441
 11
313.6257199487
 21
75.4204060621
  0
LINE
  8
SURFACE
 62
7
  6
CONTINUOUS
 10
313.5072936223
 20
72.7974887708
 11
313.5073992042
 21
72.7946973866
  0
LINE
  8
SURFACE
 62
7
  6
CONTINUOUS
 10
313.505357354
 20
72.8455186992
 11
313.4514807353
 21
74.3411012453
  0
LINE
  8
SURFACE
 62
7
  6
CONTINUOUS
 10
313.5073992042
 20
263.471987515
 11
313.4514807353
 21
261.9255836562
  0
POLYLINE
  8
SURFACE
 62
7
  6
CONTINUOUS
 66
1
 70
0
  0
VERTEX
  8
SURFACE
 62
7
  6
CONTINUOUS
 10
313.4516712064
 20
246.1787867822
  0
VERTEX
  8
SURFACE
 62
7
  6
CONTINUOUS
 10
313.4514461602
 20
246.1733068665
  0
VERTEX
  8
SURFACE
 62
7
  6
CONTINUOUS
 10
313.4512943496
 20
246.1680682979
  0
VERTEX
  8
SURFACE
 62
7
  6
CONTINUOUS
 10
313.451206972
 20
246.1630549275
  0
SEQEND
  0
POLYLINE
  8
SURFACE
 62
7
  6
CONTINUOUS
 66
1
 70
0
  0
VERTEX
  8
SURFACE
 62
7
  6
CONTINUOUS
 10
313.5947548988
 20
265.4248010882
  0
VERTEX
  8
SURFACE
 62
7
  6
CONTINUOUS
 10
313.5503489603
 20
264.4652488552
  0
VERTEX
  8
SURFACE
 62
7
  6
CONTINUOUS
 10
313.5073992022
 20
263.471987515
  0
SEQEND
  0
LINE
  8
SURFACE
 62
7
  6
CONTINUOUS
 10
313.6400415974
 20
266.3379949329
 11
313.5947548988
 21
265.4248010882
  0
LINE
  8
SURFACE
 62
7
  6
CONTINUOUS
 10
313.4966813426
 20
247.0195965293
 11
313.4516712064
 21
246.1787867822
  0
LINE
  8
SURFACE
 62
7
  6
CONTINUOUS
 10
313.6407369954
 20
266.3503987786
 11
313.6400415974
 21
266.3379949329
  0
LINE
  8
SURFACE
 62
7
  6
CONTINUOUS
 10
313.641405835
 20
266.3610190344
 11
313.6407369954
 21
266.3503987786
  0
POLYLINE
  8
SURFACE
 62
7
  6
CONTINUOUS
 66
1
 70
0
  0
VERTEX
  8
SURFACE
 62
7
  6
CONTINUOUS
 10
313.4997297299
 20
247.0672418349
  0
VERTEX
  8
SURFACE
 62
7
  6
CONTINUOUS
 10
313.4987424759
 20
247.0528034691
  0
VERTEX
  8
SURFACE
 62
7
  6
CONTINUOUS
 10
313.4966813426
 20
247.0195965293
  0
SEQEND
  0
POLYLINE
  8
SURFACE
 62
7
  6
CONTINUOUS
 66
1
 70
0
  0
VERTEX
  8
SURFACE
 62
7
  6
CONTINUOUS
 10
313.4591157043
 20
209.5804066878
  0
VERTEX
  8
SURFACE
 62
7
  6
CONTINUOUS
 10
313.455747216
 20
209.5613303195
  0
VERTEX
  8
SURFACE
 62
7
  6
CONTINUOUS
 10
313.4514161198
 20
209.5147083556
  0
SEQEND
  0
POLYLINE
  8
SURFACE
 62
7
  6
CONTINUOUS
 66
1
 70
0
  0
VERTEX
  8
SURFACE
 62
7
  6
CONTINUOUS
 10
313.4904036815
 20
209.7253866131
  0
VERTEX
  8
SURFACE
 62
7
  6
CONTINUOUS
 10
313.4738297871
 20
209.6511536894
  0
VERTEX
  8
SURFACE
 62
7
  6
CONTINUOUS
 10
313.4591149168
 20
209.5804027537
  0
SEQEND
  0
LINE
  8
SURFACE
 62
7
  6
CONTINUOUS
 10
313.5067154637
 20
209.7928537686
 11
313.4904036815
 21
209.7253866131
  0
POLYLINE
  8
SURFACE
 62
7
  6
CONTINUOUS
 66
1
 70
0
  0
VERTEX
  8
SURFACE
 62
7
  6
CONTINUOUS
 10
322.5511761488
 20
148.8465267322
  0
VERTEX
  8
SURFACE
 62
7
  6
CONTINUOUS
 10
322.6036272463
 20
148.8486229911
  0
VERTEX
  8
SURFACE
 62
7
  6
CONTINUOUS
 10
322.6551290393
 20
148.8548680053
  0
VERTEX
  8
SURFACE
 62
7
  6
CONTINUOUS
 10
322.7047986646
 20
148.8651426814
  0
VERTEX
  8
SURFACE
 62
7
  6
CONTINUOUS
 10
322.7517868493
 20
148.8792583899
  0
VERTEX
  8
SURFACE
 62
7
  6
CONTINUOUS
 10
322.7952928791
 20
148.8969603167
  0
VERTEX
  8
SURFACE
 62
7
  6
CONTINUOUS
 10
322.8345793523
 20
148.9179325467
  0
VERTEX
  8
SURFACE
 62
7
  6
CONTINUOUS
 10
322.8689848465
 20
148.9418043291
  0
VERTEX
  8
SURFACE
 62
7
  6
CONTINUOUS
 10
322.8979348277
 20
148.9681573343
  0
VERTEX
  8
SURFACE
 62
7
  6
CONTINUOUS
 10
322.9209506408
 20
148.9965336696
  0
VERTEX
  8
SURFACE
 62
7
  6
CONTINUOUS
 10
322.937656448
 20
149.0264443792
  0
VERTEX
  8
SURFACE
 62
7
  6
CONTINUOUS
 10
322.9477840398
 20
149.0573778185
  0
VERTEX
  8
SURFACE
 62
7
  6
CONTINUOUS
 10
322.9511761488
 20
149.0888085607
  0
SEQEND
  0
LINE
  8
SURFACE
 62
7
  6
CONTINUOUS
 10
322.5511761488
 20
148.8465267322
 11
313.8511761488
 21
148.8465267322
  0
LINE
  8
SURFACE
 62
7
  6
CONTINUOUS
 10
313.9933546287
 20
151.4333424508
 11
322.4089976632
 21
151.4333424508
  0
POLYLINE
  8
0
 62
7
  6
CONTINUOUS
 66
1
 70
0
  0
VERTEX
  8
0
 62
7
  6
CONTINUOUS
 10
321.7515692637
 20
93.7571261032
  0
VERTEX
  8
0
 62
7
  6
CONTINUOUS
 10
321.7510190322
 20
93.7595932303
  0
VERTEX
  8
0
 62
7
  6
CONTINUOUS
 10
321.7511762539
 20
93.7565878613
  0
SEQEND
  0
POLYLINE
  8
0
 62
7
  6
CONTINUOUS
 66
1
 70
0
  0
VERTEX
  8
0
 62
7
  6
CONTINUOUS
 10
321.7997519654
 20
89.1991293429
  0
VERTEX
  8
0
 62
7
  6
CONTINUOUS
 10
321.8007266112
 20
89.185886543
  0
VERTEX
  8
0
 62
7
  6
CONTINUOUS
 10
321.8017000713
 20
89.173674531
  0
VERTEX
  8
0
 62
7
  6
CONTINUOUS
 10
321.8026956621
 20
89.1622503375
  0
VERTEX
  8
0
 62
7
  6
CONTINUOUS
 10
321.8037528442
 20
89.1512839818
  0
VERTEX
  8
0
 62
7
  6
CONTINUOUS
 10
321.8049397118
 20
89.1403194314
  0
VERTEX
  8
0
 62
7
  6
CONTINUOUS
 10
321.8063564314
 20
89.1288733916
  0
VERTEX
  8
0
 62
7
  6
CONTINUOUS
 10
321.8081299496
 20
89.1165701992
  0
VERTEX
  8
0
 62
7
  6
CONTINUOUS
 10
321.8104250473
 20
89.1030886816
  0
VERTEX
  8
0
 62
7
  6
CONTINUOUS
 10
321.8134218799
 20
89.0882833288
  0
VERTEX
  8
0
 62
7
  6
CONTINUOUS
 10
321.8174719054
 20
89.071509348
  0
VERTEX
  8
0
 62
7
  6
CONTINUOUS
 10
321.8230418165
 20
89.0522383704
  0
VERTEX
  8
0
 62
7
  6
CONTINUOUS
 10
321.830456172
 20
89.030822765
  0
VERTEX
  8
0
 62
7
  6
CONTINUOUS
 10
321.8397337144
 20
89.0083219551
  0
VERTEX
  8
0
 62
7
  6
CONTINUOUS
 10
321.8508093035
 20
88.9855412428
  0
VERTEX
  8
0
 62
7
  6
CONTINUOUS
 10
321.8637323686
 20
88.9627851411
  0
VERTEX
  8
0
 62
7
  6
CONTINUOUS
 10
321.8785692009
 20
88.9402670323
  0
VERTEX
  8
0
 62
7
  6
CONTINUOUS
 10
321.8953690332
 20
88.918202254
  0
VERTEX
  8
0
 62
7
  6
CONTINUOUS
 10
321.9141485307
 20
88.8968258136
  0
VERTEX
  8
0
 62
7
  6
CONTINUOUS
 10
321.9348855009
 20
88.8763875401
  0
VERTEX
  8
0
 62
7
  6
CONTINUOUS
 10
321.957575112
 20
88.8570964225
  0
VERTEX
  8
0
 62
7
  6
CONTINUOUS
 10
321.9822350016
 20
88.8391413651
  0
VERTEX
  8
0
 62
7
  6
CONTINUOUS
 10
322.0088624675
 20
88.8227358888
  0
VERTEX
  8
0
 62
7
  6
CONTINUOUS
 10
322.0374350175
 20
88.8081133398
  0
VERTEX
  8
0
 62
7
  6
CONTINUOUS
 10
322.0679052676
 20
88.7955266837
  0
VERTEX
  8
0
 62
7
  6
CONTINUOUS
 10
322.1001962964
 20
88.7852470924
  0
VERTEX
  8
0
 62
7
  6
CONTINUOUS
 10
322.1341978503
 20
88.7775617132
  0
VERTEX
  8
0
 62
7
  6
CONTINUOUS
 10
322.1697583844
 20
88.772771696
  0
VERTEX
  8
0
 62
7
  6
CONTINUOUS
 10
322.2053537943
 20
88.7711856877
  0
SEQEND
  0
POLYLINE
  8
0
 62
7
  6
CONTINUOUS
 66
1
 70
0
  0
VERTEX
  8
0
 62
7
  6
CONTINUOUS
 10
321.9414756698
 20
69.9046424438
  0
VERTEX
  8
0
 62
7
  6
CONTINUOUS
 10
321.9418123777
 20
69.8999444872
  0
VERTEX
  8
0
 62
7
  6
CONTINUOUS
 10
321.9422041489
 20
69.8949586778
  0
VERTEX
  8
0
 62
7
  6
CONTINUOUS
 10
321.94270293
 20
69.8892807366
  0
VERTEX
  8
0
 62
7
  6
CONTINUOUS
 10
321.9434015251
 20
69.8823386227
  0
VERTEX
  8
0
 62
7
  6
CONTINUOUS
 10
321.9444467599
 20
69.8735113064
  0
VERTEX
  8
0
 62
7
  6
CONTINUOUS
 10
321.946021502
 20
69.8624526118
  0
VERTEX
  8
0
 62
7
  6
CONTINUOUS
 10
321.9482724073
 20
69.8494212739
  0
VERTEX
  8
0
 62
7
  6
CONTINUOUS
 10
321.9513316991
 20
69.8347639857
  0
VERTEX
  8
0
 62
7
  6
CONTINUOUS
 10
321.9553102875
 20
69.818831114
  0
VERTEX
  8
0
 62
7
  6
CONTINUOUS
 10
321.9602809134
 20
69.8019898152
  0
VERTEX
  8
0
 62
7
  6
CONTINUOUS
 10
321.9662588747
 20
69.78463752
  0
VERTEX
  8
0
 62
7
  6
CONTINUOUS
 10
321.9732861706
 20
69.7669621304
  0
VERTEX
  8
0
 62
7
  6
CONTINUOUS
 10
321.98142405
 20
69.7490630957
  0
VERTEX
  8
0
 62
7
  6
CONTINUOUS
 10
321.9907303824
 20
69.7310387167
  0
VERTEX
  8
0
 62
7
  6
CONTINUOUS
 10
322.0012549458
 20
69.712996005
  0
VERTEX
  8
0
 62
7
  6
CONTINUOUS
 10
322.013037463
 20
69.6950507493
  0
VERTEX
  8
0
 62
7
  6
CONTINUOUS
 10
322.0261205955
 20
69.6773077304
  0
VERTEX
  8
0
 62
7
  6
CONTINUOUS
 10
322.0405489479
 20
69.6598689219
  0
VERTEX
  8
0
 62
7
  6
CONTINUOUS
 10
322.0563609664
 20
69.6428460871
  0
VERTEX
  8
0
 62
7
  6
CONTINUOUS
 10
322.0735879357
 20
69.6263604558
  0
VERTEX
  8
0
 62
7
  6
CONTINUOUS
 10
322.0922524856
 20
69.6105427937
  0
VERTEX
  8
0
 62
7
  6
CONTINUOUS
 10
322.1123662854
 20
69.5955337475
  0
VERTEX
  8
0
 62
7
  6
CONTINUOUS
 10
322.1339284385
 20
69.5814830924
  0
VERTEX
  8
0
 62
7
  6
CONTINUOUS
 10
322.1569246041
 20
69.5685484101
  0
VERTEX
  8
0
 62
7
  6
CONTINUOUS
 10
322.1813253728
 20
69.5568942629
  0
VERTEX
  8
0
 62
7
  6
CONTINUOUS
 10
322.2070845967
 20
69.5466911401
  0
VERTEX
  8
0
 62
7
  6
CONTINUOUS
 10
322.2341377318
 20
69.5381141349
  0
VERTEX
  8
0
 62
7
  6
CONTINUOUS
 10
322.2624003055
 20
69.5313413252
  0
VERTEX
  8
0
 62
7
  6
CONTINUOUS
 10
322.2917662537
 20
69.5265519268
  0
VERTEX
  8
0
 62
7
  6
CONTINUOUS
 10
322.3221064299
 20
69.5239240884
  0
VERTEX
  8
0
 62
7
  6
CONTINUOUS
 10
322.3414289119
 20
69.5234571414
  0
SEQEND
  0
LINE
  8
0
 62
7
  6
CONTINUOUS
 10
321.7977451689
 20
89.2294474301
 11
321.7997519654
 21
89.1991293429
  0
LINE
  8
0
 62
7
  6
CONTINUOUS
 10
321.9405653994
 20
69.9192310403
 11
321.9414756698
 21
69.9046424438
  0
LINE
  8
0
 62
7
  6
CONTINUOUS
 10
321.9396288183
 20
69.9365703163
 11
321.9405653994
 21
69.9192310403
  0
LINE
  8
SURFACE
 62
7
  6
CONTINUOUS
 10
313.4948273318
 20
73.1300937419
 11
313.4948407058
 21
73.1296797172
  0
POLYLINE
  8
SURFACE
 62
7
  6
CONTINUOUS
 66
1
 70
0
  0
VERTEX
  8
SURFACE
 62
7
  6
CONTINUOUS
 10
313.4514807353
 20
74.3411012453
  0
VERTEX
  8
SURFACE
 62
7
  6
CONTINUOUS
 10
313.4512523009
 20
74.3497695654
  0
VERTEX
  8
SURFACE
 62
7
  6
CONTINUOUS
 10
313.4511761488
 20
74.3584405034
  0
SEQEND
  0
LINE
  8
SURFACE
 62
7
  6
CONTINUOUS
 10
313.4511761389
 20
106.858436348
 11
313.4515766598
 21
106.8405397699
  0
LINE
  8
SURFACE
 62
7
  6
CONTINUOUS
 10
313.4511761488
 20
74.3584405034
 11
313.4511761488
 21
261.9082443982
  0
LINE
  8
SURFACE
 62
7
  6
CONTINUOUS
 10
313.451206972
 20
246.1630549275
 11
313.4511761425
 21
246.1578231715
  0
LINE
  8
SURFACE
 62
7
  6
CONTINUOUS
 10
313.4514161198
 20
209.5147083556
 11
313.4511761427
 21
209.5007979503
  0
POLYLINE
  8
SURFACE
 62
7
  6
CONTINUOUS
 66
1
 70
0
  0
VERTEX
  8
SURFACE
 62
7
  6
CONTINUOUS
 10
313.4514807353
 20
261.9255836562
  0
VERTEX
  8
SURFACE
 62
7
  6
CONTINUOUS
 10
313.4512523009
 20
261.9169153362
  0
VERTEX
  8
SURFACE
 62
7
  6
CONTINUOUS
 10
313.4511761488
 20
261.9082443982
  0
SEQEND
  0
LINE
  8
SURFACE
 62
7
  6
CONTINUOUS
 10
313.4948273318
 20
263.1365911596
 11
313.4948407058
 21
263.1370051844
  0
LINE
  8
0
 62
7
  6
CONTINUOUS
 10
321.9348016354
 20
261.0333557588
 11
321.9332537817
 21
261.0056367037
  0
LINE
  8
0
 62
7
  6
CONTINUOUS
 10
321.9362331198
 20
261.0568425066
 11
321.9348016354
 21
261.0333557588
  0
LINE
  8
0
 62
7
  6
CONTINUOUS
 10
321.8699412929
 20
230.2960271063
 11
321.8581647024
 21
230.1525434449
  0
LINE
  8
0
 62
7
  6
CONTINUOUS
 10
321.8581647024
 20
230.1525434449
 11
321.8470591679
 21
230.0276438918
  0
POLYLINE
  8
0
 62
7
  6
CONTINUOUS
 66
1
 70
0
  0
VERTEX
  8
0
 62
7
  6
CONTINUOUS
 10
321.8470591679
 20
230.0276438918
  0
VERTEX
  8
0
 62
7
  6
CONTINUOUS
 10
321.836644738
 20
229.9200996013
  0
VERTEX
  8
0
 62
7
  6
CONTINUOUS
 10
321.831703906
 20
229.8724571504
  0
VERTEX
  8
0
 62
7
  6
CONTINUOUS
 10
321.8269455064
 20
229.8287053066
  0
VERTEX
  8
0
 62
7
  6
CONTINUOUS
 10
321.8223741837
 20
229.7887027165
  0
VERTEX
  8
0
 62
7
  6
CONTINUOUS
 10
321.8179958353
 20
229.7523142097
  0
VERTEX
  8
0
 62
7
  6
CONTINUOUS
 10
321.8138204288
 20
229.7194303528
  0
VERTEX
  8
0
 62
7
  6
CONTINUOUS
 10
321.809861383
 20
229.689955188
  0
VERTEX
  8
0
 62
7
  6
CONTINUOUS
 10
321.8061341678
 20
229.6637904468
  0
VERTEX
  8
0
 62
7
  6
CONTINUOUS
 10
321.8026569085
 20
229.6408369448
  0
VERTEX
  8
0
 62
7
  6
CONTINUOUS
 10
321.7994482013
 20
229.6209785917
  0
VERTEX
  8
0
 62
7
  6
CONTINUOUS
 10
321.7965297474
 20
229.6040991248
  0
VERTEX
  8
0
 62
7
  6
CONTINUOUS
 10
321.7939317689
 20
229.5901074038
  0
VERTEX
  8
0
 62
7
  6
CONTINUOUS
 10
321.7916970864
 20
229.5789453971
  0
VERTEX
  8
0
 62
7
  6
CONTINUOUS
 10
321.7898866027
 20
229.5705952272
  0
VERTEX
  8
0
 62
7
  6
CONTINUOUS
 10
321.7885878367
 20
229.565089345
  0
VERTEX
  8
0
 62
7
  6
CONTINUOUS
 10
321.7882822265
 20
229.5638734778
  0
SEQEND
  0
LINE
  8
0
 62
7
  6
CONTINUOUS
 10
344.4511761488
 20
220.1333424508
 11
343.7511761488
 21
218.9209068855
  0
POLYLINE
  8
0
 62
7
  6
CONTINUOUS
 66
1
 70
0
  0
VERTEX
  8
0
 62
7
  6
CONTINUOUS
 10
321.8067214119
 20
126.4738077923
  0
VERTEX
  8
0
 62
7
  6
CONTINUOUS
 10
321.8106447098
 20
126.4592932151
  0
VERTEX
  8
0
 62
7
  6
CONTINUOUS
 10
321.8175080985
 20
126.437700505
  0
VERTEX
  8
0
 62
7
  6
CONTINUOUS
 10
321.826405938
 20
126.414385126
  0
VERTEX
  8
0
 62
7
  6
CONTINUOUS
 10
321.8375830622
 20
126.3898603609
  0
VERTEX
  8
0
 62
7
  6
CONTINUOUS
 10
321.8512625025
 20
126.3645796836
  0
VERTEX
  8
0
 62
7
  6
CONTINUOUS
 10
321.8676083843
 20
126.3390191257
  0
VERTEX
  8
0
 62
7
  6
CONTINUOUS
 10
321.8867630275
 20
126.313612691
  0
VERTEX
  8
0
 62
7
  6
CONTINUOUS
 10
321.9088069045
 20
126.2888198826
  0
VERTEX
  8
0
 62
7
  6
CONTINUOUS
 10
321.9337514755
 20
126.2651157323
  0
VERTEX
  8
0
 62
7
  6
CONTINUOUS
 10
321.961597892
 20
126.2429326833
  0
VERTEX
  8
0
 62
7
  6
CONTINUOUS
 10
321.9923545407
 20
126.222677464
  0
VERTEX
  8
0
 62
7
  6
CONTINUOUS
 10
322.0259822955
 20
126.2047876271
  0
VERTEX
  8
0
 62
7
  6
CONTINUOUS
 10
322.0623812446
 20
126.1897308651
  0
VERTEX
  8
0
 62
7
  6
CONTINUOUS
 10
322.1013827019
 20
126.1779980996
  0
VERTEX
  8
0
 62
7
  6
CONTINUOUS
 10
322.1427435327
 20
126.1700952956
  0
VERTEX
  8
0
 62
7
  6
CONTINUOUS
 10
322.1861296801
 20
126.1665359107
  0
VERTEX
  8
0
 62
7
  6
CONTINUOUS
 10
322.1971431077
 20
126.1663844898
  0
SEQEND
  0
LINE
  8
0
 62
7
  6
CONTINUOUS
 10
321.7904036707
 20
126.5412983347
 11
321.8067154636
 21
126.4738311335
  0
LINE
  8
0
 62
7
  6
CONTINUOUS
 10
321.7738297765
 20
126.6155312613
 11
321.7904036707
 21
126.5412983347
  0
LINE
  8
0
 62
7
  6
CONTINUOUS
 10
321.7591149166
 20
126.6862821488
 11
321.7738297765
 21
126.6155312613
  0
POLYLINE
  8
0
 62
7
  6
CONTINUOUS
 66
1
 70
0
  0
VERTEX
  8
0
 62
7
  6
CONTINUOUS
 10
321.7514918603
 20
126.7499333358
  0
VERTEX
  8
0
 62
7
  6
CONTINUOUS
 10
321.7559544335
 20
126.7040057575
  0
VERTEX
  8
0
 62
7
  6
CONTINUOUS
 10
321.7591146123
 20
126.6862835761
  0
SEQEND
  0
LINE
  8
0
 62
7
  6
CONTINUOUS
 10
321.7956021701
 20
89.2660271342
 11
321.7977451689
 21
89.2294474301
  0
LINE
  8
0
 62
7
  6
CONTINUOUS
 10
321.7517883336
 20
90.0855511783
 11
321.7956021701
 21
89.2660271342
  0
LINE
  8
0
 62
7
  6
CONTINUOUS
 10
321.894754885
 20
70.8418841019
 11
321.9396288022
 21
69.9365705278
  0
LINE
  8
0
 62
7
  6
CONTINUOUS
 10
321.8503489467
 20
71.8014363504
 11
321.894754885
 21
70.8418841019
  0
LINE
  8
0
 62
7
  6
CONTINUOUS
 10
321.8053564815
 20
72.8455410364
 11
321.8503489467
 21
71.8014363504
  0
LINE
  8
0
 62
7
  6
CONTINUOUS
 10
321.8053564815
 20
72.8455410364
 11
321.7514807353
 21
74.3411012453
  0
LINE
  8
0
 62
7
  6
CONTINUOUS
 10
321.7948407071
 20
73.1296796813
 11
321.7948273318
 21
73.1300937419
  0
POLYLINE
  8
0
 62
7
  6
CONTINUOUS
 66
1
 70
0
  0
VERTEX
  8
0
 62
7
  6
CONTINUOUS
 10
321.7514807353
 20
74.3411012453
  0
VERTEX
  8
0
 62
7
  6
CONTINUOUS
 10
321.7512523069
 20
74.349769231
  0
VERTEX
  8
0
 62
7
  6
CONTINUOUS
 10
321.7511761488
 20
74.3584405034
  0
SEQEND
  0
LINE
  8
0
 62
7
  6
CONTINUOUS
 10
321.7511761578
 20
126.7658868531
 11
321.7514918603
 21
126.7499333358
  0
LINE
  8
0
 62
7
  6
CONTINUOUS
 10
321.7511761488
 20
74.3584405034
 11
321.7511761488
 21
74.7873044852
  0
LINE
  8
0
 62
7
  6
CONTINUOUS
 10
321.7511761488
 20
90.1088633108
 11
321.7511761488
 21
102.5466205093
  0
LINE
  8
0
 62
7
  6
CONTINUOUS
 10
321.7511761488
 20
126.7658822937
 11
321.7511761488
 21
143.0341157462
  0
LINE
  8
0
 62
7
  6
CONTINUOUS
 10
321.7511761488
 20
172.6665599682
 11
321.7511761488
 21
190.2469285093
  0
LINE
  8
0
 62
7
  6
CONTINUOUS
 10
321.7511761488
 20
216.3093779817
 11
321.7511761488
 21
231.5344237462
  0
LINE
  8
0
 62
7
  6
CONTINUOUS
 10
321.7511761488
 20
247.4954992161
 11
321.7511761488
 21
256.8351333373
  0
LINE
  8
SURFACE
 62
7
  6
CONTINUOUS
 10
322.9511761488
 20
261.9082443982
 11
322.9511761488
 21
261.4793804164
  0
LINE
  8
SURFACE
 62
7
  6
CONTINUOUS
 10
322.9511761488
 20
79.4315515642
 11
322.9511761488
 21
88.0540804732
  0
LINE
  8
0
 62
7
  6
CONTINUOUS
 10
322.9511761488
 20
88.0540804732
 11
322.9511761488
 21
88.7711856854
  0
LINE
  8
0
 62
7
  6
CONTINUOUS
 10
322.9511761488
 20
104.7322611553
 11
322.9511761488
 21
106.5041792509
  0
LINE
  8
SURFACE
 62
7
  6
CONTINUOUS
 10
322.9511761488
 20
106.5041792509
 11
322.9511761488
 21
118.9682683339
  0
LINE
  8
0
 62
7
  6
CONTINUOUS
 10
322.9511761488
 20
118.9682683339
 11
322.9511761488
 21
119.9573069467
  0
LINE
  8
0
 62
7
  6
CONTINUOUS
 10
322.9511761488
 20
146.0197563923
 11
322.9511761488
 21
149.0888085607
  0
LINE
  8
SURFACE
 62
7
  6
CONTINUOUS
 10
322.9511761488
 20
149.0888085607
 11
322.9511761488
 21
163.0561981
  0
LINE
  8
0
 62
7
  6
CONTINUOUS
 10
322.9511761488
 20
163.0561981
 11
322.9511761488
 21
163.6001249644
  0
LINE
  8
0
 62
7
  6
CONTINUOUS
 10
322.9511761488
 20
193.2325691553
 11
322.9511761488
 21
196.7764053465
  0
LINE
  8
SURFACE
 62
7
  6
CONTINUOUS
 10
322.9511761488
 20
196.7764053465
 11
322.9511761488
 21
209.5008026079
  0
LINE
  8
0
 62
7
  6
CONTINUOUS
 10
322.9511761488
 20
233.7200643923
 11
322.9511761488
 21
236.7891165607
  0
LINE
  8
SURFACE
 62
7
  6
CONTINUOUS
 10
322.9511761488
 20
236.7891165607
 11
322.9511761488
 21
246.1578215907
  0
LINE
  8
0
 62
7
  6
CONTINUOUS
 10
321.7515779302
 20
229.4261734174
 11
321.7511761416
 21
229.4082485405
  0
LINE
  8
0
 62
7
  6
CONTINUOUS
 10
321.877234192
 20
259.6353442797
 11
321.8430194504
 21
258.8143705017
  0
LINE
  8
0
 62
7
  6
CONTINUOUS
 10
321.9277910221
 20
260.8934058793
 11
321.877234192
 21
259.6353442797
  0
LINE
  8
0
 62
7
  6
CONTINUOUS
 10
321.8430194504
 20
258.8143705017
 11
321.8102269948
 21
258.0684775557
  0
LINE
  8
0
 62
7
  6
CONTINUOUS
 10
321.8102269948
 20
258.0684775557
 11
321.7793551568
 21
257.4078078782
  0
LINE
  8
0
 62
7
  6
CONTINUOUS
 10
321.9315784133
 20
260.9733612731
 11
321.9277910221
 21
260.8934058793
  0
LINE
  8
0
 62
7
  6
CONTINUOUS
 10
321.7793551568
 20
257.4078078782
 11
321.7517829045
 21
256.8583529033
  0
LINE
  8
0
 62
7
  6
CONTINUOUS
 10
321.9332537817
 20
261.0056367037
 11
321.9315784133
 21
260.9733612731
  0
LINE
  8
0
 62
7
  6
CONTINUOUS
 10
321.9229688241
 20
231.0431652096
 11
321.8823710088
 21
230.4593424149
  0
LINE
  8
0
 62
7
  6
CONTINUOUS
 10
321.8823710088
 20
230.4593424149
 11
321.8699412929
 21
230.2960271063
  0
LINE
  8
DEFAULT_1
 62
2
  6
CENTER
 10
299.2011761488
 20
168.1333424508
 11
346.4511761488
 21
168.1333424508
  0
POLYLINE
  8
SURFACE
 62
7
  6
CONTINUOUS
 66
1
 70
0
  0
VERTEX
  8
SURFACE
 62
7
  6
CONTINUOUS
 10
322.9508604373
 20
209.5167515657
  0
VERTEX
  8
SURFACE
 62
7
  6
CONTINUOUS
 10
322.9463978641
 20
209.5626791441
  0
VERTEX
  8
SURFACE
 62
7
  6
CONTINUOUS
 10
322.9432376852
 20
209.5804013254
  0
SEQEND
  0
POLYLINE
  8
SURFACE
 62
7
  6
CONTINUOUS
 66
1
 70
0
  0
VERTEX
  8
SURFACE
 62
7
  6
CONTINUOUS
 10
322.9026003322
 20
247.0675555586
  0
VERTEX
  8
SURFACE
 62
7
  6
CONTINUOUS
 10
322.9016256864
 20
247.0807983585
  0
VERTEX
  8
SURFACE
 62
7
  6
CONTINUOUS
 10
322.9006522263
 20
247.0930103706
  0
VERTEX
  8
SURFACE
 62
7
  6
CONTINUOUS
 10
322.8996566355
 20
247.104434564
  0
VERTEX
  8
SURFACE
 62
7
  6
CONTINUOUS
 10
322.8985994534
 20
247.1154009197
  0
VERTEX
  8
SURFACE
 62
7
  6
CONTINUOUS
 10
322.8974125858
 20
247.1263654701
  0
VERTEX
  8
SURFACE
 62
7
  6
CONTINUOUS
 10
322.8959958662
 20
247.1378115099
  0
VERTEX
  8
SURFACE
 62
7
  6
CONTINUOUS
 10
322.8942223479
 20
247.1501147023
  0
VERTEX
  8
SURFACE
 62
7
  6
CONTINUOUS
 10
322.8919272503
 20
247.1635962199
  0
VERTEX
  8
SURFACE
 62
7
  6
CONTINUOUS
 10
322.8889304177
 20
247.1784015728
  0
VERTEX
  8
SURFACE
 62
7
  6
CONTINUOUS
 10
322.8848803922
 20
247.1951755536
  0
VERTEX
  8
SURFACE
 62
7
  6
CONTINUOUS
 10
322.8793104811
 20
247.2144465311
  0
VERTEX
  8
SURFACE
 62
7
  6
CONTINUOUS
 10
322.8718961256
 20
247.2358621365
  0
VERTEX
  8
SURFACE
 62
7
  6
CONTINUOUS
 10
322.8626185832
 20
247.2583629464
  0
VERTEX
  8
SURFACE
 62
7
  6
CONTINUOUS
 10
322.8515429941
 20
247.2811436587
  0
VERTEX
  8
SURFACE
 62
7
  6
CONTINUOUS
 10
322.838619929
 20
247.3038997604
  0
VERTEX
  8
SURFACE
 62
7
  6
CONTINUOUS
 10
322.8237830967
 20
247.3264178693
  0
VERTEX
  8
SURFACE
 62
7
  6
CONTINUOUS
 10
322.8069832644
 20
247.3484826475
  0
VERTEX
  8
SURFACE
 62
7
  6
CONTINUOUS
 10
322.7882037669
 20
247.369859088
  0
VERTEX
  8
SURFACE
 62
7
  6
CONTINUOUS
 10
322.7674667967
 20
247.3902973614
  0
VERTEX
  8
SURFACE
 62
7
  6
CONTINUOUS
 10
322.7447771856
 20
247.409588479
  0
VERTEX
  8
SURFACE
 62
7
  6
CONTINUOUS
 10
322.720117296
 20
247.4275435364
  0
VERTEX
  8
SURFACE
 62
7
  6
CONTINUOUS
 10
322.6934898301
 20
247.4439490127
  0
VERTEX
  8
SURFACE
 62
7
  6
CONTINUOUS
 10
322.6649172801
 20
247.4585715617
  0
VERTEX
  8
SURFACE
 62
7
  6
CONTINUOUS
 10
322.63444703
 20
247.4711582178
  0
VERTEX
  8
SURFACE
 62
7
  6
CONTINUOUS
 10
322.6021560012
 20
247.4814378091
  0
VERTEX
  8
SURFACE
 62
7
  6
CONTINUOUS
 10
322.5681544473
 20
247.4891231884
  0
VERTEX
  8
SURFACE
 62
7
  6
CONTINUOUS
 10
322.5325939132
 20
247.4939132056
  0
VERTEX
  8
SURFACE
 62
7
  6
CONTINUOUS
 10
322.4969985033
 20
247.4954992138
  0
SEQEND
  0
POLYLINE
  8
SURFACE
 62
7
  6
CONTINUOUS
 66
1
 70
0
  0
VERTEX
  8
SURFACE
 62
7
  6
CONTINUOUS
 10
322.7608766278
 20
266.3620424577
  0
VERTEX
  8
SURFACE
 62
7
  6
CONTINUOUS
 10
322.7605399198
 20
266.3667404143
  0
VERTEX
  8
SURFACE
 62
7
  6
CONTINUOUS
 10
322.7601481487
 20
266.3717262237
  0
VERTEX
  8
SURFACE
 62
7
  6
CONTINUOUS
 10
322.7596493676
 20
266.3774041649
  0
VERTEX
  8
SURFACE
 62
7
  6
CONTINUOUS
 10
322.7589507725
 20
266.3843462789
  0
VERTEX
  8
SURFACE
 62
7
  6
CONTINUOUS
 10
322.7579055377
 20
266.3931735951
  0
VERTEX
  8
SURFACE
 62
7
  6
CONTINUOUS
 10
322.7563307956
 20
266.4042322898
  0
VERTEX
  8
SURFACE
 62
7
  6
CONTINUOUS
 10
322.7540798903
 20
266.4172636276
  0
VERTEX
  8
SURFACE
 62
7
  6
CONTINUOUS
 10
322.7510205985
 20
266.4319209158
  0
VERTEX
  8
SURFACE
 62
7
  6
CONTINUOUS
 10
322.7470420101
 20
266.4478537875
  0
VERTEX
  8
SURFACE
 62
7
  6
CONTINUOUS
 10
322.7420713842
 20
266.4646950863
  0
VERTEX
  8
SURFACE
 62
7
  6
CONTINUOUS
 10
322.7360934229
 20
266.4820473816
  0
VERTEX
  8
SURFACE
 62
7
  6
CONTINUOUS
 10
322.729066127
 20
266.4997227711
  0
VERTEX
  8
SURFACE
 62
7
  6
CONTINUOUS
 10
322.7209282476
 20
266.5176218058
  0
VERTEX
  8
SURFACE
 62
7
  6
CONTINUOUS
 10
322.7116219152
 20
266.5356461849
  0
VERTEX
  8
SURFACE
 62
7
  6
CONTINUOUS
 10
322.7010973517
 20
266.5536888965
  0
VERTEX
  8
SURFACE
 62
7
  6
CONTINUOUS
 10
322.6893148346
 20
266.5716341522
  0
VERTEX
  8
SURFACE
 62
7
  6
CONTINUOUS
 10
322.6762317021
 20
266.5893771711
  0
VERTEX
  8
SURFACE
 62
7
  6
CONTINUOUS
 10
322.6618033497
 20
266.6068159796
  0
VERTEX
  8
SURFACE
 62
7
  6
CONTINUOUS
 10
322.6459913312
 20
266.6238388145
  0
VERTEX
  8
SURFACE
 62
7
  6
CONTINUOUS
 10
322.6287643619
 20
266.6403244457
  0
VERTEX
  8
SURFACE
 62
7
  6
CONTINUOUS
 10
322.610099812
 20
266.6561421078
  0
VERTEX
  8
SURFACE
 62
7
  6
CONTINUOUS
 10
322.5899860122
 20
266.671151154
  0
VERTEX
  8
SURFACE
 62
7
  6
CONTINUOUS
 10
322.5684238591
 20
266.6852018091
  0
VERTEX
  8
SURFACE
 62
7
  6
CONTINUOUS
 10
322.5454276935
 20
266.6981364914
  0
VERTEX
  8
SURFACE
 62
7
  6
CONTINUOUS
 10
322.5210269248
 20
266.7097906386
  0
VERTEX
  8
SURFACE
 62
7
  6
CONTINUOUS
 10
322.4952677009
 20
266.7199937615
  0
VERTEX
  8
SURFACE
 62
7
  6
CONTINUOUS
 10
322.4682145658
 20
266.7285707666
  0
VERTEX
  8
SURFACE
 62
7
  6
CONTINUOUS
 10
322.4399519921
 20
266.7353435763
  0
VERTEX
  8
SURFACE
 62
7
  6
CONTINUOUS
 10
322.4105860439
 20
266.7401329747
  0
VERTEX
  8
SURFACE
 62
7
  6
CONTINUOUS
 10
322.3802458677
 20
266.7427608131
  0
VERTEX
  8
SURFACE
 62
7
  6
CONTINUOUS
 10
322.3609233857
 20
266.7432277601
  0
SEQEND
  0
LINE
  8
SURFACE
 62
7
  6
CONTINUOUS
 10
322.9046071287
 20
247.0372374714
 11
322.9026003322
 21
247.0675555586
  0
LINE
  8
SURFACE
 62
7
  6
CONTINUOUS
 10
322.7617868982
 20
266.3474538612
 11
322.7608766278
 21
266.3620424577
  0
LINE
  8
SURFACE
 62
7
  6
CONTINUOUS
 10
322.9067501275
 20
247.0006577673
 11
322.9046071287
 21
247.0372374714
  0
LINE
  8
SURFACE
 62
7
  6
CONTINUOUS
 10
322.7627234793
 20
266.3301145852
 11
322.7617868982
 21
266.3474538612
  0
LINE
  8
SURFACE
 62
7
  6
CONTINUOUS
 10
322.950563964
 20
246.1811337232
 11
322.9067501275
 21
247.0006577673
  0
LINE
  8
SURFACE
 62
7
  6
CONTINUOUS
 10
322.8075974126
 20
265.4248007997
 11
322.7627234954
 21
266.3301143738
  0
LINE
  8
SURFACE
 62
7
  6
CONTINUOUS
 10
322.8520033509
 20
264.4652485511
 11
322.8075974126
 21
265.4248007997
  0
LINE
  8
SURFACE
 62
7
  6
CONTINUOUS
 10
322.8969958161
 20
263.4211438651
 11
322.8520033509
 21
264.4652485511
  0
LINE
  8
SURFACE
 62
7
  6
CONTINUOUS
 10
322.8969958161
 20
263.4211438651
 11
322.9508715623
 21
261.9255836562
  0
LINE
  8
SURFACE
 62
7
  6
CONTINUOUS
 10
322.9075115905
 20
263.1370052202
 11
322.9075249658
 21
263.1365911596
  0
POLYLINE
  8
SURFACE
 62
7
  6
CONTINUOUS
 66
1
 70
0
  0
VERTEX
  8
SURFACE
 62
7
  6
CONTINUOUS
 10
322.9508715623
 20
261.9255836562
  0
VERTEX
  8
SURFACE
 62
7
  6
CONTINUOUS
 10
322.9510999907
 20
261.9169156705
  0
VERTEX
  8
SURFACE
 62
7
  6
CONTINUOUS
 10
322.9511761488
 20
261.9082443982
  0
SEQEND
  0
LINE
  8
SURFACE
 62
7
  6
CONTINUOUS
 10
322.9511761398
 20
209.5007980484
 11
322.9508604373
 21
209.5167515657
  0
LINE
  8
SURFACE
 62
7
  6
CONTINUOUS
 10
322.9506602292
 20
106.8381260861
 11
322.9511761469
 21
106.8584375193
  0
LINE
  8
SURFACE
 62
7
  6
CONTINUOUS
 10
322.8251181056
 20
76.6313406218
 11
322.8593328472
 21
77.4523143998
  0
LINE
  8
SURFACE
 62
7
  6
CONTINUOUS
 10
322.7745612755
 20
75.3732790223
 11
322.8251181056
 21
76.6313406218
  0
LINE
  8
SURFACE
 62
7
  6
CONTINUOUS
 10
322.8593328472
 20
77.4523143998
 11
322.8921253028
 21
78.1982073458
  0
LINE
  8
SURFACE
 62
7
  6
CONTINUOUS
 10
322.8921253028
 20
78.1982073458
 11
322.9229971408
 21
78.8588770233
  0
LINE
  8
SURFACE
 62
7
  6
CONTINUOUS
 10
322.7707738843
 20
75.2933236285
 11
322.7745612755
 21
75.3732790223
  0
LINE
  8
SURFACE
 62
7
  6
CONTINUOUS
 10
322.9229971408
 20
78.8588770233
 11
322.9505693931
 21
79.4083319982
  0
LINE
  8
SURFACE
 62
7
  6
CONTINUOUS
 10
322.7683090043
 20
75.2466341065
 11
322.7707738843
 21
75.2933236285
  0
LINE
  8
SURFACE
 62
7
  6
CONTINUOUS
 10
322.7668217633
 20
75.2210871984
 11
322.7683090043
 21
75.2466341065
  0
LINE
  8
SURFACE
 62
7
  6
CONTINUOUS
 10
322.7794497748
 20
105.2244401945
 11
322.8173230205
 21
105.7708695733
  0
LINE
  8
SURFACE
 62
7
  6
CONTINUOUS
 10
322.8173230205
 20
105.7708695733
 11
322.8319540928
 21
105.9648677825
  0
LINE
  8
SURFACE
 62
7
  6
CONTINUOUS
 10
322.8319540928
 20
105.9648677825
 11
322.8411686344
 21
106.0784243252
  0
LINE
  8
SURFACE
 62
7
  6
CONTINUOUS
 10
322.8411686344
 20
106.0784243252
 11
322.8499663117
 21
106.1804198384
  0
LINE
  8
SURFACE
 62
7
  6
CONTINUOUS
 10
322.8499663117
 20
106.1804198384
 11
322.8583581171
 21
106.2716745211
  0
LINE
  8
SURFACE
 62
7
  6
CONTINUOUS
 10
322.8583581171
 20
106.2716745211
 11
322.8663529537
 21
106.3529343972
  0
POLYLINE
  8
SURFACE
 62
7
  6
CONTINUOUS
 66
1
 70
0
  0
VERTEX
  8
SURFACE
 62
7
  6
CONTINUOUS
 10
322.8663529537
 20
106.3529343972
  0
VERTEX
  8
SURFACE
 62
7
  6
CONTINUOUS
 10
322.873956272
 20
106.4248678512
  0
VERTEX
  8
SURFACE
 62
7
  6
CONTINUOUS
 10
322.8776111502
 20
106.4575215654
  0
VERTEX
  8
SURFACE
 62
7
  6
CONTINUOUS
 10
322.8811671664
 20
106.4880534755
  0
VERTEX
  8
SURFACE
 62
7
  6
CONTINUOUS
 10
322.8846224092
 20
106.5165188219
  0
VERTEX
  8
SURFACE
 62
7
  6
CONTINUOUS
 10
322.88797269
 20
106.542956088
  0
VERTEX
  8
SURFACE
 62
7
  6
CONTINUOUS
 10
322.891212213
 20
106.5673955493
  0
VERTEX
  8
SURFACE
 62
7
  6
CONTINUOUS
 10
322.8943337743
 20
106.5898631339
  0
VERTEX
  8
SURFACE
 62
7
  6
CONTINUOUS
 10
322.8973282351
 20
106.6103788454
  0
VERTEX
  8
SURFACE
 62
7
  6
CONTINUOUS
 10
322.9001838268
 20
106.6289548417
  0
VERTEX
  8
SURFACE
 62
7
  6
CONTINUOUS
 10
322.9028852464
 20
106.6455935275
  0
VERTEX
  8
SURFACE
 62
7
  6
CONTINUOUS
 10
322.9054124526
 20
106.6602855062
  0
VERTEX
  8
SURFACE
 62
7
  6
CONTINUOUS
 10
322.9077389414
 20
106.6730069353
  0
VERTEX
  8
SURFACE
 62
7
  6
CONTINUOUS
 10
322.9098287946
 20
106.6837133164
  0
VERTEX
  8
SURFACE
 62
7
  6
CONTINUOUS
 10
322.9116327108
 20
106.6923335748
  0
VERTEX
  8
SURFACE
 62
7
  6
CONTINUOUS
 10
322.9130807781
 20
106.6987568598
  0
VERTEX
  8
SURFACE
 62
7
  6
CONTINUOUS
 10
322.9140741248
 20
106.7028272803
  0
VERTEX
  8
SURFACE
 62
7
  6
CONTINUOUS
 10
322.9142612351
 20
106.7035500727
  0
SEQEND
  0
LINE
  8
0
 62
7
  6
CONTINUOUS
 10
343.5011761488
 20
171.2982005417
 11
343.7511761488
 21
171.2982005417
  0
LINE
  8
0
 62
7
  6
CONTINUOUS
 10
343.5011761488
 20
171.5665682892
 11
343.7511761488
 21
171.5665682892
  0
LINE
  8
0
 62
7
  6
CONTINUOUS
 10
343.5011761488
 20
172.1881061037
 11
343.7511761488
 21
172.1881061037
  0
LINE
  8
0
 62
7
  6
CONTINUOUS
 10
343.5011761488
 20
172.2121507702
 11
343.7511761488
 21
172.2121507702
  0
LINE
  8
0
 62
7
  6
CONTINUOUS
 10
343.5011761488
 20
172.6825442264
 11
343.7511761488
 21
172.6825442264
  0
LINE
  8
0
 62
7
  6
CONTINUOUS
 10
343.5011761488
 20
173.1797745491
 11
343.7511761488
 21
173.1797745491
  0
LINE
  8
0
 62
7
  6
CONTINUOUS
 10
343.5011761488
 20
173.6904230851
 11
343.7511761488
 21
173.6904230851
  0
LINE
  8
0
 62
7
  6
CONTINUOUS
 10
343.5011761488
 20
174.0901825555
 11
343.7511761488
 21
174.0901825555
  0
LINE
  8
0
 62
7
  6
CONTINUOUS
 10
343.5011761488
 20
174.3790527967
 11
343.7511761488
 21
174.3790527967
  0
LINE
  8
0
 62
7
  6
CONTINUOUS
 10
343.5011761488
 20
174.674257317
 11
343.7511761488
 21
174.674257317
  0
LINE
  8
0
 62
7
  6
CONTINUOUS
 10
343.5011761488
 20
175.2957952648
 11
343.7511761488
 21
175.2957952648
  0
LINE
  8
0
 62
7
  6
CONTINUOUS
 10
331.1606222463
 20
229.9714260986
 11
331.1509788033
 21
230.0749383697
  0
LINE
  8
0
 62
7
  6
CONTINUOUS
 10
331.1509788033
 20
230.0749383697
 11
331.1407840295
 21
230.1928640326
  0
LINE
  8
0
 62
7
  6
CONTINUOUS
 10
331.1407840295
 20
230.1928640326
 11
331.1300502634
 21
230.3261194388
  0
POLYLINE
  8
0
 62
7
  6
CONTINUOUS
 66
1
 70
0
  0
VERTEX
  8
0
 62
7
  6
CONTINUOUS
 10
331.0795095238
 20
231.0414120012
  0
VERTEX
  8
0
 62
7
  6
CONTINUOUS
 10
331.0779751741
 20
231.0618500119
  0
VERTEX
  8
0
 62
7
  6
CONTINUOUS
 10
331.0764369832
 20
231.080378097
  0
VERTEX
  8
0
 62
7
  6
CONTINUOUS
 10
331.0748663068
 20
231.0973194117
  0
VERTEX
  8
0
 62
7
  6
CONTINUOUS
 10
331.0732109788
 20
231.1131166396
  0
VERTEX
  8
0
 62
7
  6
CONTINUOUS
 10
331.0713845435
 20
231.128319419
  0
VERTEX
  8
0
 62
7
  6
CONTINUOUS
 10
331.0692407119
 20
231.1436276425
  0
VERTEX
  8
0
 62
7
  6
CONTINUOUS
 10
331.0665496113
 20
231.1598282931
  0
VERTEX
  8
0
 62
7
  6
CONTINUOUS
 10
331.0630507149
 20
231.1773466772
  0
VERTEX
  8
0
 62
7
  6
CONTINUOUS
 10
331.0585361868
 20
231.1960707406
  0
VERTEX
  8
0
 62
7
  6
CONTINUOUS
 10
331.0526953147
 20
231.2162047975
  0
VERTEX
  8
0
 62
7
  6
CONTINUOUS
 10
331.0449769308
 20
231.2383828678
  0
VERTEX
  8
0
 62
7
  6
CONTINUOUS
 10
331.0347234607
 20
231.2629433
  0
VERTEX
  8
0
 62
7
  6
CONTINUOUS
 10
331.021623612
 20
231.2891240272
  0
VERTEX
  8
0
 62
7
  6
CONTINUOUS
 10
331.0056524353
 20
231.3158592552
  0
VERTEX
  8
0
 62
7
  6
CONTINUOUS
 10
330.986760336
 20
231.34246069
  0
VERTEX
  8
0
 62
7
  6
CONTINUOUS
 10
330.9648296633
 20
231.3684782276
  0
VERTEX
  8
0
 62
7
  6
CONTINUOUS
 10
330.9397973189
 20
231.3934436167
  0
VERTEX
  8
0
 62
7
  6
CONTINUOUS
 10
330.9116501871
 20
231.4168812933
  0
VERTEX
  8
0
 62
7
  6
CONTINUOUS
 10
330.8803660363
 20
231.4383464119
  0
VERTEX
  8
0
 62
7
  6
CONTINUOUS
 10
330.8459695951
 20
231.4573602115
  0
VERTEX
  8
0
 62
7
  6
CONTINUOUS
 10
330.8085517155
 20
231.4734056658
  0
VERTEX
  8
0
 62
7
  6
CONTINUOUS
 10
330.7682821959
 20
231.4859335634
  0
VERTEX
  8
0
 62
7
  6
CONTINUOUS
 10
330.7254164822
 20
231.4943725514
  0
VERTEX
  8
0
 62
7
  6
CONTINUOUS
 10
330.6803152536
 20
231.4981378145
  0
VERTEX
  8
0
 62
7
  6
CONTINUOUS
 10
330.669598238
 20
231.4982812264
  0
SEQEND
  0
LINE
  8
0
 62
7
  6
CONTINUOUS
 10
331.1300502634
 20
230.3261194388
 11
331.1187885671
 21
230.4756405628
  0
LINE
  8
0
 62
7
  6
CONTINUOUS
 10
331.1187885671
 20
230.4756405628
 11
331.0795095238
 21
231.0414120012
  0
LINE
  8
0
 62
7
  6
CONTINUOUS
 10
331.067390623
 20
261.0360912687
 11
331.0659655123
 21
261.0592242326
  0
LINE
  8
0
 62
7
  6
CONTINUOUS
 10
331.0617910076
 20
266.3473823465
 11
331.0611930715
 21
266.3572719079
  0
LINE
  8
0
 62
7
  6
CONTINUOUS
 10
331.0697612126
 20
260.993130705
 11
331.067390623
 21
261.0360912687
  0
LINE
  8
0
 62
7
  6
CONTINUOUS
 10
331.0627234904
 20
266.3301143219
 11
331.0617910076
 21
266.3473823465
  0
LINE
  8
0
 62
7
  6
CONTINUOUS
 10
331.2505693912
 20
256.8583529264
 11
331.222996808
 21
257.4078147501
  0
LINE
  8
0
 62
7
  6
CONTINUOUS
 10
331.072450766
 20
260.9390482523
 11
331.0697612126
 21
260.993130705
  0
POLYLINE
  8
0
 62
7
  6
CONTINUOUS
 66
1
 70
0
  0
VERTEX
  8
0
 62
7
  6
CONTINUOUS
 10
331.1520033373
 20
264.4652488552
  0
VERTEX
  8
0
 62
7
  6
CONTINUOUS
 10
331.1075973988
 20
265.4248010882
  0
VERTEX
  8
0
 62
7
  6
CONTINUOUS
 10
331.0627234954
 20
266.3301143738
  0
SEQEND
  0
LINE
  8
0
 62
7
  6
CONTINUOUS
 10
331.222996808
 20
257.4078147501
 11
331.1921249044
 21
258.0684863512
  0
LINE
  8
0
 62
7
  6
CONTINUOUS
 10
331.0766323489
 20
260.8462788394
 11
331.072450766
 21
260.9390482523
  0
LINE
  8
0
 62
7
  6
CONTINUOUS
 10
331.1921249044
 20
258.0684863512
 11
331.1593325322
 21
258.8143778606
  0
LINE
  8
0
 62
7
  6
CONTINUOUS
 10
331.1593325322
 20
258.8143778606
 11
331.125117976
 21
259.6353474605
  0
LINE
  8
0
 62
7
  6
CONTINUOUS
 10
331.125117976
 20
259.6353474605
 11
331.0766323489
 21
260.8462788394
  0
LINE
  8
0
 62
7
  6
CONTINUOUS
 10
331.1969949436
 20
263.4211662023
 11
331.1520033373
 21
264.4652488552
  0
LINE
  8
0
 62
7
  6
CONTINUOUS
 10
331.1950586753
 20
263.4691961307
 11
331.1949530934
 21
263.471987515
  0
LINE
  8
0
 62
7
  6
CONTINUOUS
 10
331.1969949436
 20
263.4211662023
 11
331.2508715623
 21
261.9255836562
  0
LINE
  8
0
 62
7
  6
CONTINUOUS
 10
331.2075249658
 20
263.1365911596
 11
331.2075115918
 21
263.1370051844
  0
POLYLINE
  8
0
 62
7
  6
CONTINUOUS
 66
1
 70
0
  0
VERTEX
  8
0
 62
7
  6
CONTINUOUS
 10
331.2508715623
 20
261.9255836562
  0
VERTEX
  8
0
 62
7
  6
CONTINUOUS
 10
331.2510999967
 20
261.9169153362
  0
VERTEX
  8
0
 62
7
  6
CONTINUOUS
 10
331.2511761488
 20
261.9082443982
  0
SEQEND
  0
LINE
  8
0
 62
7
  6
CONTINUOUS
 10
331.2511761587
 20
229.4082485535
 11
331.2507756378
 21
229.4261451316
  0
LINE
  8
0
 62
7
  6
CONTINUOUS
 10
331.2511761488
 20
261.9082443982
 11
331.2511761488
 21
74.3584405034
  0
LINE
  8
0
 62
7
  6
CONTINUOUS
 10
331.2509361778
 20
126.7519765459
 11
331.2511761549
 21
126.7658869513
  0
POLYLINE
  8
0
 62
7
  6
CONTINUOUS
 66
1
 70
0
  0
VERTEX
  8
0
 62
7
  6
CONTINUOUS
 10
331.2508715623
 20
74.3411012453
  0
VERTEX
  8
0
 62
7
  6
CONTINUOUS
 10
331.2510999967
 20
74.3497695654
  0
VERTEX
  8
0
 62
7
  6
CONTINUOUS
 10
331.2511761488
 20
74.3584405034
  0
SEQEND
  0
LINE
  8
0
 62
7
  6
CONTINUOUS
 10
331.203947816
 20
73.0311128167
 11
331.2508715623
 21
74.3411012453
  0
LINE
  8
0
 62
7
  6
CONTINUOUS
 10
331.1949530934
 20
72.7946973866
 11
331.203947816
 21
73.0311128167
  0
LINE
  8
0
 62
7
  6
CONTINUOUS
 10
331.25056394
 20
90.0855506238
 11
331.250954511
 21
90.0948331366
  0
POLYLINE
  8
0
 62
7
  6
CONTINUOUS
 66
1
 70
0
  0
VERTEX
  8
0
 62
7
  6
CONTINUOUS
 10
331.1075973988
 20
70.8418838134
  0
VERTEX
  8
0
 62
7
  6
CONTINUOUS
 10
331.1520033373
 20
71.8014360464
  0
VERTEX
  8
0
 62
7
  6
CONTINUOUS
 10
331.1949530954
 20
72.7946973865
  0
SEQEND
  0
LINE
  8
0
 62
7
  6
CONTINUOUS
 10
331.0623107002
 20
69.9286899686
 11
331.1075973988
 21
70.8418838134
  0
LINE
  8
0
 62
7
  6
CONTINUOUS
 10
331.205670955
 20
89.2470883722
 11
331.250563964
 21
90.0855511783
  0
POLYLINE
  8
0
 62
7
  6
CONTINUOUS
 66
1
 70
0
  0
VERTEX
  8
0
 62
7
  6
CONTINUOUS
 10
331.2026225677
 20
89.1994430666
  0
VERTEX
  8
0
 62
7
  6
CONTINUOUS
 10
331.2036098217
 20
89.2138814324
  0
VERTEX
  8
0
 62
7
  6
CONTINUOUS
 10
331.205670955
 20
89.2470883722
  0
SEQEND
  0
LINE
  8
0
 62
7
  6
CONTINUOUS
 10
343.5011761488
 20
175.8425507613
 11
343.7511761488
 21
175.8425507613
  0
LINE
  8
0
 62
7
  6
CONTINUOUS
 10
343.5011761488
 20
176.1037285411
 11
343.7511761488
 21
176.1037285411
  0
LINE
  8
0
 62
7
  6
CONTINUOUS
 10
343.5011761488
 20
176.9365427218
 11
343.7511761488
 21
176.9365427218
  0
LINE
  8
0
 62
7
  6
CONTINUOUS
 10
343.5011761488
 20
177.5484170925
 11
343.7511761488
 21
177.5484170925
  0
LINE
  8
0
 62
7
  6
CONTINUOUS
 10
343.5011761488
 20
177.7150905883
 11
343.7511761488
 21
177.7150905883
  0
LINE
  8
0
 62
7
  6
CONTINUOUS
 10
343.5011761488
 20
178.1342656723
 11
343.7511761488
 21
178.1342656723
  0
LINE
  8
0
 62
7
  6
CONTINUOUS
 10
343.5011761488
 20
178.6497907498
 11
343.7511761488
 21
178.6497907498
  0
LINE
  8
0
 62
7
  6
CONTINUOUS
 10
343.5011761488
 20
179.1392903865
 11
343.7511761488
 21
179.1392903865
  0
LINE
  8
0
 62
7
  6
CONTINUOUS
 10
343.5011761488
 20
179.4803894981
 11
343.7511761488
 21
179.4803894981
  0
LINE
  8
0
 62
7
  6
CONTINUOUS
 10
343.5011761488
 20
179.7954631688
 11
343.7511761488
 21
179.7954631688
  0
LINE
  8
0
 62
7
  6
CONTINUOUS
 10
343.5011761488
 20
179.9881617552
 11
343.7511761488
 21
179.9881617552
  0
LINE
  8
0
 62
7
  6
CONTINUOUS
 10
343.5011761488
 20
180.0324605169
 11
343.7511761488
 21
180.0324605169
  0
LINE
  8
0
 62
7
  6
CONTINUOUS
 10
343.5011761488
 20
180.4917673119
 11
343.7511761488
 21
180.4917673119
  0
LINE
  8
0
 62
7
  6
CONTINUOUS
 10
343.5011761488
 20
181.5805230857
 11
343.7511761488
 21
181.5805230857
  0
LINE
  8
0
 62
7
  6
CONTINUOUS
 10
343.5011761488
 20
181.9207593306
 11
343.7511761488
 21
181.9207593306
  0
LINE
  8
0
 62
7
  6
CONTINUOUS
 10
343.5011761488
 20
182.0908774053
 11
343.7511761488
 21
182.0908774053
  0
POLYLINE
  8
SURFACE
 62
7
  6
CONTINUOUS
 66
1
 70
0
  0
VERTEX
  8
SURFACE
 62
7
  6
CONTINUOUS
 10
322.8956308857
 20
209.7928771092
  0
VERTEX
  8
SURFACE
 62
7
  6
CONTINUOUS
 10
322.8917075878
 20
209.8073916865
  0
VERTEX
  8
SURFACE
 62
7
  6
CONTINUOUS
 10
322.8848441991
 20
209.8289843965
  0
VERTEX
  8
SURFACE
 62
7
  6
CONTINUOUS
 10
322.8759463596
 20
209.8522997755
  0
VERTEX
  8
SURFACE
 62
7
  6
CONTINUOUS
 10
322.8647692354
 20
209.8768245406
  0
VERTEX
  8
SURFACE
 62
7
  6
CONTINUOUS
 10
322.8510897951
 20
209.902105218
  0
VERTEX
  8
SURFACE
 62
7
  6
CONTINUOUS
 10
322.8347439133
 20
209.9276657759
  0
VERTEX
  8
SURFACE
 62
7
  6
CONTINUOUS
 10
322.8155892701
 20
209.9530722105
  0
VERTEX
  8
SURFACE
 62
7
  6
CONTINUOUS
 10
322.7935453931
 20
209.977865019
  0
VERTEX
  8
SURFACE
 62
7
  6
CONTINUOUS
 10
322.768600822
 20
210.0015691692
  0
VERTEX
  8
SURFACE
 62
7
  6
CONTINUOUS
 10
322.7407544056
 20
210.0237522182
  0
VERTEX
  8
SURFACE
 62
7
  6
CONTINUOUS
 10
322.7099977569
 20
210.0440074375
  0
VERTEX
  8
SURFACE
 62
7
  6
CONTINUOUS
 10
322.6763700021
 20
210.0618972744
  0
VERTEX
  8
SURFACE
 62
7
  6
CONTINUOUS
 10
322.639971053
 20
210.0769540365
  0
VERTEX
  8
SURFACE
 62
7
  6
CONTINUOUS
 10
322.6009695957
 20
210.0886868019
  0
VERTEX
  8
SURFACE
 62
7
  6
CONTINUOUS
 10
322.5596087649
 20
210.0965896059
  0
VERTEX
  8
SURFACE
 62
7
  6
CONTINUOUS
 10
322.5162226175
 20
210.1001489908
  0
VERTEX
  8
SURFACE
 62
7
  6
CONTINUOUS
 10
322.5052091899
 20
210.1003004118
  0
SEQEND
  0
LINE
  8
SURFACE
 62
7
  6
CONTINUOUS
 10
322.9119486269
 20
209.7253865668
 11
322.895636834
 21
209.7928537681
  0
LINE
  8
SURFACE
 62
7
  6
CONTINUOUS
 10
322.9285225211
 20
209.6511536402
 11
322.9119486269
 21
209.7253865668
  0
LINE
  8
SURFACE
 62
7
  6
CONTINUOUS
 10
322.943237381
 20
209.5804027528
 11
322.9285225211
 21
209.6511536402
  0
POLYLINE
  8
0
 62
7
  6
CONTINUOUS
 66
1
 70
0
  0
VERTEX
  8
0
 62
7
  6
CONTINUOUS
 10
331.2507756378
 20
229.4261451316
  0
VERTEX
  8
0
 62
7
  6
CONTINUOUS
 10
331.2453890095
 20
229.4760471339
  0
VERTEX
  8
0
 62
7
  6
CONTINUOUS
 10
331.2337856262
 20
229.5249158616
  0
VERTEX
  8
0
 62
7
  6
CONTINUOUS
 10
331.2161534736
 20
229.5719377813
  0
SEQEND
  0
LINE
  8
0
 62
7
  6
CONTINUOUS
 10
331.1697000812
 20
229.8814284175
 11
331.1606222463
 21
229.9714260986
  0
POLYLINE
  8
0
 62
7
  6
CONTINUOUS
 66
1
 70
0
  0
VERTEX
  8
0
 62
7
  6
CONTINUOUS
 10
331.0646237089
 20
261.0787253898
  0
VERTEX
  8
0
 62
7
  6
CONTINUOUS
 10
331.0639605251
 20
261.0874368206
  0
VERTEX
  8
0
 62
7
  6
CONTINUOUS
 10
331.0632800307
 20
261.0956945956
  0
VERTEX
  8
0
 62
7
  6
CONTINUOUS
 10
331.062552134
 20
261.1037586038
  0
VERTEX
  8
0
 62
7
  6
CONTINUOUS
 10
331.0617265305
 20
261.111987179
  0
VERTEX
  8
0
 62
7
  6
CONTINUOUS
 10
331.0607372821
 20
261.1207092076
  0
VERTEX
  8
0
 62
7
  6
CONTINUOUS
 10
331.0594839517
 20
261.1303214576
  0
VERTEX
  8
0
 62
7
  6
CONTINUOUS
 10
331.0578303757
 20
261.1411947093
  0
VERTEX
  8
0
 62
7
  6
CONTINUOUS
 10
331.0555576142
 20
261.1538599727
  0
VERTEX
  8
0
 62
7
  6
CONTINUOUS
 10
331.0522957647
 20
261.1690938033
  0
VERTEX
  8
0
 62
7
  6
CONTINUOUS
 10
331.0476683379
 20
261.1870563601
  0
VERTEX
  8
0
 62
7
  6
CONTINUOUS
 10
331.0415432261
 20
261.2068384754
  0
VERTEX
  8
0
 62
7
  6
CONTINUOUS
 10
331.0339440392
 20
261.2274618077
  0
VERTEX
  8
0
 62
7
  6
CONTINUOUS
 10
331.0247972256
 20
261.2485707343
  0
VERTEX
  8
0
 62
7
  6
CONTINUOUS
 10
331.0139916295
 20
261.2699818949
  0
VERTEX
  8
0
 62
7
  6
CONTINUOUS
 10
331.0014296737
 20
261.291503893
  0
VERTEX
  8
0
 62
7
  6
CONTINUOUS
 10
330.9870400678
 20
261.3129204516
  0
VERTEX
  8
0
 62
7
  6
CONTINUOUS
 10
330.9707331084
 20
261.3340561658
  0
VERTEX
  8
0
 62
7
  6
CONTINUOUS
 10
330.9524377626
 20
261.3547094033
  0
VERTEX
  8
0
 62
7
  6
CONTINUOUS
 10
330.9321020772
 20
261.3746590023
  0
VERTEX
  8
0
 62
7
  6
CONTINUOUS
 10
330.9096944165
 20
261.3936676573
  0
VERTEX
  8
0
 62
7
  6
CONTINUOUS
 10
330.8851987152
 20
261.4114882608
  0
VERTEX
  8
0
 62
7
  6
CONTINUOUS
 10
330.8586216442
 20
261.4278589901
  0
VERTEX
  8
0
 62
7
  6
CONTINUOUS
 10
330.8299987254
 20
261.4425025666
  0
VERTEX
  8
0
 62
7
  6
CONTINUOUS
 10
330.7993985893
 20
261.4551284228
  0
VERTEX
  8
0
 62
7
  6
CONTINUOUS
 10
330.76692707
 20
261.4654357826
  0
VERTEX
  8
0
 62
7
  6
CONTINUOUS
 10
330.7327303917
 20
261.4731177029
  0
VERTEX
  8
0
 62
7
  6
CONTINUOUS
 10
330.6969997853
 20
261.4778653823
  0
VERTEX
  8
0
 62
7
  6
CONTINUOUS
 10
330.6622175438
 20
261.4793800976
  0
SEQEND
  0
LINE
  8
0
 62
7
  6
CONTINUOUS
 10
331.0659655123
 20
261.0592242326
 11
331.0646237089
 21
261.0787253898
  0
POLYLINE
  8
0
 62
7
  6
CONTINUOUS
 66
1
 70
0
  0
VERTEX
  8
0
 62
7
  6
CONTINUOUS
 10
331.0611930715
 20
266.3572719079
  0
VERTEX
  8
0
 62
7
  6
CONTINUOUS
 10
331.0608841852
 20
266.3619325258
  0
VERTEX
  8
0
 62
7
  6
CONTINUOUS
 10
331.0605495338
 20
266.3666116444
  0
VERTEX
  8
0
 62
7
  6
CONTINUOUS
 10
331.0601613496
 20
266.3715661653
  0
VERTEX
  8
0
 62
7
  6
CONTINUOUS
 10
331.0596690353
 20
266.3771929243
  0
VERTEX
  8
0
 62
7
  6
CONTINUOUS
 10
331.058982217
 20
266.3840548354
  0
VERTEX
  8
0
 62
7
  6
CONTINUOUS
 10
331.0579573673
 20
266.392769878
  0
VERTEX
  8
0
 62
7
  6
CONTINUOUS
 10
331.0564124089
 20
266.4037074391
  0
VERTEX
  8
0
 62
7
  6
CONTINUOUS
 10
331.0542003859
 20
266.4166249439
  0
VERTEX
  8
0
 62
7
  6
CONTINUOUS
 10
331.0511883207
 20
266.4311825347
  0
VERTEX
  8
0
 62
7
  6
CONTINUOUS
 10
331.0472653333
 20
266.4470277629
  0
VERTEX
  8
0
 62
7
  6
CONTINUOUS
 10
331.0423562401
 20
266.4637986948
  0
VERTEX
  8
0
 62
7
  6
CONTINUOUS
 10
331.0364450678
 20
266.4810940641
  0
VERTEX
  8
0
 62
7
  6
CONTINUOUS
 10
331.0294914329
 20
266.498719004
  0
VERTEX
  8
0
 62
7
  6
CONTINUOUS
 10
331.021434174
 20
266.5165739161
  0
VERTEX
  8
0
 62
7
  6
CONTINUOUS
 10
331.012215246
 20
266.5345611019
  0
VERTEX
  8
0
 62
7
  6
CONTINUOUS
 10
331.001784555
 20
266.5525742923
  0
VERTEX
  8
0
 62
7
  6
CONTINUOUS
 10
330.9901020782
 20
266.5704982725
  0
VERTEX
  8
0
 62
7
  6
CONTINUOUS
 10
330.977125173
 20
266.5882284874
  0
VERTEX
  8
0
 62
7
  6
CONTINUOUS
 10
330.9628088629
 20
266.6056638637
  0
VERTEX
  8
0
 62
7
  6
CONTINUOUS
 10
330.9471142281
 20
266.6226935645
  0
VERTEX
  8
0
 62
7
  6
CONTINUOUS
 10
330.9300093914
 20
266.6391973152
  0
VERTEX
  8
0
 62
7
  6
CONTINUOUS
 10
330.9114709986
 20
266.655045322
  0
VERTEX
  8
0
 62
7
  6
CONTINUOUS
 10
330.8914864864
 20
266.6700979255
  0
VERTEX
  8
0
 62
7
  6
CONTINUOUS
 10
330.870055711
 20
266.6842063054
  0
VERTEX
  8
0
 62
7
  6
CONTINUOUS
 10
330.8471918117
 20
266.6972137967
  0
VERTEX
  8
0
 62
7
  6
CONTINUOUS
 10
330.8229228251
 20
266.7089566961
  0
VERTEX
  8
0
 62
7
  6
CONTINUOUS
 10
330.7972933487
 20
266.7192652934
  0
VERTEX
  8
0
 62
7
  6
CONTINUOUS
 10
330.7703661942
 20
266.7279651678
  0
VERTEX
  8
0
 62
7
  6
CONTINUOUS
 10
330.7422239164
 20
266.7348787804
  0
VERTEX
  8
0
 62
7
  6
CONTINUOUS
 10
330.7129704768
 20
266.7398272887
  0
VERTEX
  8
0
 62
7
  6
CONTINUOUS
 10
330.6827327412
 20
266.7426327179
  0
VERTEX
  8
0
 62
7
  6
CONTINUOUS
 10
330.6609233577
 20
266.7432276912
  0
SEQEND
  0
LINE
  8
0
 62
7
  6
CONTINUOUS
 10
343.5011761488
 20
225.1333394314
 11
343.5011761488
 21
111.1333424508
  0
LINE
  8
0
 62
7
  6
CONTINUOUS
 10
343.7511761488
 20
220.4563813166
 11
343.7511761488
 21
185.4610150068
  0
LINE
  8
0
 62
7
  6
CONTINUOUS
 10
343.7511761488
 20
182.9973771187
 11
343.7511761488
 21
171.2982005417
  0
LINE
  8
0
 62
7
  6
CONTINUOUS
 10
343.7511761488
 20
143.8098021743
 11
343.7511761488
 21
132.9558796434
  0
POLYLINE
  8
0
 62
7
  6
CONTINUOUS
 66
1
 70
0
  0
VERTEX
  8
0
 62
7
  6
CONTINUOUS
 10
331.0609464626
 20
69.9056658672
  0
VERTEX
  8
0
 62
7
  6
CONTINUOUS
 10
331.0612834361
 20
69.9108367793
  0
VERTEX
  8
0
 62
7
  6
CONTINUOUS
 10
331.0616153022
 20
69.9162861229
  0
VERTEX
  8
0
 62
7
  6
CONTINUOUS
 10
331.0623107002
 20
69.9286899686
  0
SEQEND
  0
POLYLINE
  8
0
 62
7
  6
CONTINUOUS
 66
1
 70
0
  0
VERTEX
  8
0
 62
7
  6
CONTINUOUS
 10
331.2432365933
 20
126.6862782137
  0
VERTEX
  8
0
 62
7
  6
CONTINUOUS
 10
331.2466050816
 20
126.7053545821
  0
VERTEX
  8
0
 62
7
  6
CONTINUOUS
 10
331.2509361778
 20
126.7519765459
  0
SEQEND
  0
POLYLINE
  8
0
 62
7
  6
CONTINUOUS
 66
1
 70
0
  0
VERTEX
  8
0
 62
7
  6
CONTINUOUS
 10
331.2119486161
 20
126.5412982884
  0
VERTEX
  8
0
 62
7
  6
CONTINUOUS
 10
331.2285225105
 20
126.6155312121
  0
VERTEX
  8
0
 62
7
  6
CONTINUOUS
 10
331.2432373807
 20
126.6862821478
  0
SEQEND
  0
LINE
  8
0
 62
7
  6
CONTINUOUS
 10
331.1956368339
 20
126.4738311329
 11
331.2119486161
 21
126.5412982884
  0
POLYLINE
  8
0
 62
7
  6
CONTINUOUS
 66
1
 70
0
  0
VERTEX
  8
0
 62
7
  6
CONTINUOUS
 10
322.1511761488
 20
187.4201581693
  0
VERTEX
  8
0
 62
7
  6
CONTINUOUS
 10
322.0987250513
 20
187.4180619104
  0
VERTEX
  8
0
 62
7
  6
CONTINUOUS
 10
322.0472232583
 20
187.4118168962
  0
VERTEX
  8
0
 62
7
  6
CONTINUOUS
 10
321.997553633
 20
187.4015422201
  0
VERTEX
  8
0
 62
7
  6
CONTINUOUS
 10
321.9505654482
 20
187.3874265117
  0
VERTEX
  8
0
 62
7
  6
CONTINUOUS
 10
321.9070594184
 20
187.3697245849
  0
VERTEX
  8
0
 62
7
  6
CONTINUOUS
 10
321.8677729453
 20
187.3487523549
  0
VERTEX
  8
0
 62
7
  6
CONTINUOUS
 10
321.8333674511
 20
187.3248805724
  0
VERTEX
  8
0
 62
7
  6
CONTINUOUS
 10
321.8044174699
 20
187.2985275672
  0
VERTEX
  8
0
 62
7
  6
CONTINUOUS
 10
321.7814016568
 20
187.2701512319
  0
VERTEX
  8
0
 62
7
  6
CONTINUOUS
 10
321.7646958496
 20
187.2402405223
  0
VERTEX
  8
0
 62
7
  6
CONTINUOUS
 10
321.7545682578
 20
187.209307083
  0
VERTEX
  8
0
 62
7
  6
CONTINUOUS
 10
321.7511761488
 20
187.1778763409
  0
SEQEND
  0
LINE
  8
0
 62
7
  6
CONTINUOUS
 10
343.5011761488
 20
182.6932708285
 11
343.7511761488
 21
182.6932708285
  0
LINE
  8
0
 62
7
  6
CONTINUOUS
 10
343.5011761488
 20
182.9973771187
 11
343.7511761488
 21
182.9973771187
  0
LINE
  8
0
 62
7
  6
CONTINUOUS
 10
322.2933546344
 20
184.8333424508
 11
330.7089976688
 21
184.8333424508
  0
LINE
  8
0
 62
7
  6
CONTINUOUS
 10
343.5011761488
 20
185.4610150068
 11
343.7511761488
 21
185.4610150068
  0
LINE
  8
0
 62
7
  6
CONTINUOUS
 10
343.5011761488
 20
185.6151903921
 11
343.7511761488
 21
185.6151903921
  0
LINE
  8
0
 62
7
  6
CONTINUOUS
 10
343.5011761488
 20
185.9333374709
 11
343.7511761488
 21
185.9333374709
  0
LINE
  8
0
 62
7
  6
CONTINUOUS
 10
343.5011761488
 20
186.4637289885
 11
343.7511761488
 21
186.4637289885
  0
LINE
  8
0
 62
7
  6
CONTINUOUS
 10
322.1511761488
 20
187.4201581693
 11
330.8511761488
 21
187.4201581693
  0
LINE
  8
0
 62
7
  6
CONTINUOUS
 10
343.5011761488
 20
187.5335358301
 11
343.7511761488
 21
187.5335358301
  0
LINE
  8
0
 62
7
  6
CONTINUOUS
 10
343.5011761488
 20
187.7059923952
 11
343.7511761488
 21
187.7059923952
  0
POLYLINE
  8
0
 62
7
  6
CONTINUOUS
 66
1
 70
0
  0
VERTEX
  8
0
 62
7
  6
CONTINUOUS
 10
330.8511761488
 20
187.4201581693
  0
VERTEX
  8
0
 62
7
  6
CONTINUOUS
 10
330.9036272463
 20
187.4180619104
  0
VERTEX
  8
0
 62
7
  6
CONTINUOUS
 10
330.9551290393
 20
187.4118168962
  0
VERTEX
  8
0
 62
7
  6
CONTINUOUS
 10
331.0047986646
 20
187.4015422201
  0
VERTEX
  8
0
 62
7
  6
CONTINUOUS
 10
331.0517868493
 20
187.3874265117
  0
VERTEX
  8
0
 62
7
  6
CONTINUOUS
 10
331.0952928791
 20
187.3697245849
  0
VERTEX
  8
0
 62
7
  6
CONTINUOUS
 10
331.1345793523
 20
187.3487523549
  0
VERTEX
  8
0
 62
7
  6
CONTINUOUS
 10
331.1689848465
 20
187.3248805724
  0
VERTEX
  8
0
 62
7
  6
CONTINUOUS
 10
331.1979348277
 20
187.2985275672
  0
VERTEX
  8
0
 62
7
  6
CONTINUOUS
 10
331.2209506408
 20
187.2701512319
  0
VERTEX
  8
0
 62
7
  6
CONTINUOUS
 10
331.237656448
 20
187.2402405223
  0
VERTEX
  8
0
 62
7
  6
CONTINUOUS
 10
331.2477840398
 20
187.209307083
  0
VERTEX
  8
0
 62
7
  6
CONTINUOUS
 10
331.2511761488
 20
187.1778763409
  0
SEQEND
  0
POLYLINE
  8
0
 62
7
  6
CONTINUOUS
 66
1
 70
0
  0
VERTEX
  8
0
 62
7
  6
CONTINUOUS
 10
322.9508185429
 20
242.5094211604
  0
VERTEX
  8
0
 62
7
  6
CONTINUOUS
 10
322.9513317613
 20
242.5071032122
  0
VERTEX
  8
0
 62
7
  6
CONTINUOUS
 10
322.9511761371
 20
242.5100852377
  0
SEQEND
  0
POLYLINE
  8
SURFACE
 62
7
  6
CONTINUOUS
 66
1
 70
0
  0
VERTEX
  8
SURFACE
 62
7
  6
CONTINUOUS
 10
322.915507054
 20
106.6933132378
  0
VERTEX
  8
SURFACE
 62
7
  6
CONTINUOUS
 10
322.9332401476
 20
106.7399947938
  0
VERTEX
  8
SURFACE
 62
7
  6
CONTINUOUS
 10
322.945020349
 20
106.7885279254
  0
VERTEX
  8
SURFACE
 62
7
  6
CONTINUOUS
 10
322.9506602292
 20
106.8381260861
  0
SEQEND
  0
LINE
  8
0
 62
7
  6
CONTINUOUS
 10
343.5011761488
 20
190.513238899
 11
343.7511761488
 21
190.513238899
  0
LINE
  8
0
 62
7
  6
CONTINUOUS
 10
343.5011761488
 20
191.5075082279
 11
343.7511761488
 21
191.5075082279
  0
LINE
  8
0
 62
7
  6
CONTINUOUS
 10
343.5011761488
 20
194.8217393244
 11
343.7511761488
 21
194.8217393244
  0
LINE
  8
0
 62
7
  6
CONTINUOUS
 10
343.5011761488
 20
195.8160086533
 11
343.7511761488
 21
195.8160086533
  0
POLYLINE
  8
0
 62
7
  6
CONTINUOUS
 66
1
 70
0
  0
VERTEX
  8
0
 62
7
  6
CONTINUOUS
 10
331.2144567885
 20
229.5624018915
  0
VERTEX
  8
0
 62
7
  6
CONTINUOUS
 10
331.2144790323
 20
229.5623243132
  0
VERTEX
  8
0
 62
7
  6
CONTINUOUS
 10
331.2140818882
 20
229.5638272719
  0
VERTEX
  8
0
 62
7
  6
CONTINUOUS
 10
331.2130888287
 20
229.5678937979
  0
VERTEX
  8
0
 62
7
  6
CONTINUOUS
 10
331.2116292113
 20
229.5743674328
  0
VERTEX
  8
0
 62
7
  6
CONTINUOUS
 10
331.2097967227
 20
229.5831303222
  0
VERTEX
  8
0
 62
7
  6
CONTINUOUS
 10
331.207653989
 20
229.5941281307
  0
VERTEX
  8
0
 62
7
  6
CONTINUOUS
 10
331.2052408562
 20
229.6073690093
  0
VERTEX
  8
0
 62
7
  6
CONTINUOUS
 10
331.2025830539
 20
229.6229058486
  0
VERTEX
  8
0
 62
7
  6
CONTINUOUS
 10
331.1996965103
 20
229.6408297796
  0
VERTEX
  8
0
 62
7
  6
CONTINUOUS
 10
331.1965906165
 20
229.6612630259
  0
VERTEX
  8
0
 62
7
  6
CONTINUOUS
 10
331.1932754031
 20
229.6843179864
  0
VERTEX
  8
0
 62
7
  6
CONTINUOUS
 10
331.1897653896
 20
229.7100654886
  0
VERTEX
  8
0
 62
7
  6
CONTINUOUS
 10
331.186073916
 20
229.7385694809
  0
VERTEX
  8
0
 62
7
  6
CONTINUOUS
 10
331.1822131293
 20
229.769887988
  0
VERTEX
  8
0
 62
7
  6
CONTINUOUS
 10
331.1781936034
 20
229.8040779099
  0
VERTEX
  8
0
 62
7
  6
CONTINUOUS
 10
331.1740213522
 20
229.8412245053
  0
VERTEX
  8
0
 62
7
  6
CONTINUOUS
 10
331.1697000812
 20
229.8814284175
  0
SEQEND
  0
LINE
  8
SURFACE
 62
7
  6
CONTINUOUS
 10
322.9094892016
 20
106.6819735708
 11
322.915507054
 21
106.6933132378
  0
POLYLINE
  8
SURFACE
 62
7
  6
CONTINUOUS
 66
1
 70
0
  0
VERTEX
  8
SURFACE
 62
7
  6
CONTINUOUS
 10
322.5511761488
 20
196.7275824964
  0
VERTEX
  8
SURFACE
 62
7
  6
CONTINUOUS
 10
322.6036272463
 20
196.7280089907
  0
VERTEX
  8
SURFACE
 62
7
  6
CONTINUOUS
 10
322.6551290393
 20
196.7292791408
  0
VERTEX
  8
SURFACE
 62
7
  6
CONTINUOUS
 10
322.7047986646
 20
196.7313674724
  0
VERTEX
  8
SURFACE
 62
7
  6
CONTINUOUS
 10
322.7517868493
 20
196.7342336698
  0
VERTEX
  8
SURFACE
 62
7
  6
CONTINUOUS
 10
322.7952928791
 20
196.7378234429
  0
VERTEX
  8
SURFACE
 62
7
  6
CONTINUOUS
 10
322.8345793523
 20
196.7420697952
  0
VERTEX
  8
SURFACE
 62
7
  6
CONTINUOUS
 10
322.8689848465
 20
196.7468945596
  0
VERTEX
  8
SURFACE
 62
7
  6
CONTINUOUS
 10
322.8979348277
 20
196.7522101435
  0
VERTEX
  8
SURFACE
 62
7
  6
CONTINUOUS
 10
322.9209506408
 20
196.757921412
  0
VERTEX
  8
SURFACE
 62
7
  6
CONTINUOUS
 10
322.937656448
 20
196.7639276358
  0
VERTEX
  8
SURFACE
 62
7
  6
CONTINUOUS
 10
322.9477840398
 20
196.7701243646
  0
VERTEX
  8
SURFACE
 62
7
  6
CONTINUOUS
 10
322.9511761488
 20
196.7764053465
  0
SEQEND
  0
LINE
  8
SURFACE
 62
7
  6
CONTINUOUS
 10
322.5511761488
 20
196.7275824964
 11
313.8511761488
 21
196.7275824964
  0
LINE
  8
0
 62
7
  6
CONTINUOUS
 10
343.5011761488
 20
197.3267056273
 11
343.7511761488
 21
197.3267056273
  0
LINE
  8
0
 62
7
  6
CONTINUOUS
 10
343.5011761488
 20
199.7687263273
 11
343.7511761488
 21
199.7687263273
  0
LINE
  8
0
 62
7
  6
CONTINUOUS
 10
343.5011761488
 20
200.2033281443
 11
343.7511761488
 21
200.2033281443
  0
LINE
  8
0
 62
7
  6
CONTINUOUS
 10
343.5011761488
 20
200.387877213
 11
343.7511761488
 21
200.387877213
  0
LINE
  8
0
 62
7
  6
CONTINUOUS
 10
343.5011761488
 20
200.3965229237
 11
343.7511761488
 21
200.3965229237
  0
LINE
  8
0
 62
7
  6
CONTINUOUS
 10
343.5011761488
 20
202.4260593167
 11
343.7511761488
 21
202.4260593167
  0
POLYLINE
  8
SURFACE
 62
7
  6
CONTINUOUS
 66
1
 70
0
  0
VERTEX
  8
SURFACE
 62
7
  6
CONTINUOUS
 10
313.8511761488
 20
196.7275824964
  0
VERTEX
  8
SURFACE
 62
7
  6
CONTINUOUS
 10
313.7987250513
 20
196.7280089907
  0
VERTEX
  8
SURFACE
 62
7
  6
CONTINUOUS
 10
313.7472232583
 20
196.7292791408
  0
VERTEX
  8
SURFACE
 62
7
  6
CONTINUOUS
 10
313.697553633
 20
196.7313674724
  0
VERTEX
  8
SURFACE
 62
7
  6
CONTINUOUS
 10
313.6505654482
 20
196.7342336698
  0
VERTEX
  8
SURFACE
 62
7
  6
CONTINUOUS
 10
313.6070594184
 20
196.7378234429
  0
VERTEX
  8
SURFACE
 62
7
  6
CONTINUOUS
 10
313.5677729453
 20
196.7420697952
  0
VERTEX
  8
SURFACE
 62
7
  6
CONTINUOUS
 10
313.5333674511
 20
196.7468945596
  0
VERTEX
  8
SURFACE
 62
7
  6
CONTINUOUS
 10
313.5044174699
 20
196.7522101435
  0
VERTEX
  8
SURFACE
 62
7
  6
CONTINUOUS
 10
313.4814016568
 20
196.757921412
  0
VERTEX
  8
SURFACE
 62
7
  6
CONTINUOUS
 10
313.4646958496
 20
196.7639276358
  0
VERTEX
  8
SURFACE
 62
7
  6
CONTINUOUS
 10
313.4545682578
 20
196.7701243646
  0
VERTEX
  8
SURFACE
 62
7
  6
CONTINUOUS
 10
313.4511761488
 20
196.7764053465
  0
SEQEND
  0
LINE
  8
0
 62
7
  6
CONTINUOUS
 10
343.5011761488
 20
204.6451026396
 11
343.7511761488
 21
204.6451026396
  0
LINE
  8
0
 62
7
  6
CONTINUOUS
 10
343.5011761488
 20
205.0214931627
 11
343.7511761488
 21
205.0214931627
  0
LINE
  8
0
 62
7
  6
CONTINUOUS
 10
343.5011761488
 20
205.1336060307
 11
343.7511761488
 21
205.1336060307
  0
LINE
  8
0
 62
7
  6
CONTINUOUS
 10
343.5011761488
 20
205.7282817143
 11
343.7511761488
 21
205.7282817143
  0
LINE
  8
0
 62
7
  6
CONTINUOUS
 10
343.5011761488
 20
209.1305602666
 11
343.7511761488
 21
209.1305602666
  0
LINE
  8
0
 62
7
  6
CONTINUOUS
 10
331.2161534736
 20
229.5719377813
 11
331.209521184
 21
229.5845445538
  0
POLYLINE
  8
SURFACE
 62
7
  6
CONTINUOUS
 66
1
 70
0
  0
VERTEX
  8
SURFACE
 62
7
  6
CONTINUOUS
 10
322.8579548944
 20
106.2673626432
  0
VERTEX
  8
SURFACE
 62
7
  6
CONTINUOUS
 10
322.8689848465
 20
106.2790712399
  0
VERTEX
  8
SURFACE
 62
7
  6
CONTINUOUS
 10
322.8979348277
 20
106.3194003999
  0
VERTEX
  8
SURFACE
 62
7
  6
CONTINUOUS
 10
322.9209506408
 20
106.3628383859
  0
VERTEX
  8
SURFACE
 62
7
  6
CONTINUOUS
 10
322.937656448
 20
106.4086390308
  0
VERTEX
  8
SURFACE
 62
7
  6
CONTINUOUS
 10
322.9477840398
 20
106.4560205905
  0
VERTEX
  8
SURFACE
 62
7
  6
CONTINUOUS
 10
322.9511761488
 20
106.5041792509
  0
SEQEND
  0
POLYLINE
  8
SURFACE
 62
7
  6
CONTINUOUS
 66
1
 70
0
  0
VERTEX
  8
SURFACE
 62
7
  6
CONTINUOUS
 10
313.8971431464
 20
210.1003004407
  0
VERTEX
  8
SURFACE
 62
7
  6
CONTINUOUS
 10
313.8874279009
 20
210.1001826179
  0
VERTEX
  8
SURFACE
 62
7
  6
CONTINUOUS
 10
313.8478491944
 20
210.0972560361
  0
VERTEX
  8
SURFACE
 62
7
  6
CONTINUOUS
 10
313.810000271
 20
210.0907075153
  0
VERTEX
  8
SURFACE
 62
7
  6
CONTINUOUS
 10
313.7741007224
 20
210.0809370565
  0
VERTEX
  8
SURFACE
 62
7
  6
CONTINUOUS
 10
313.7403074246
 20
210.0683254169
  0
VERTEX
  8
SURFACE
 62
7
  6
CONTINUOUS
 10
313.708726185
 20
210.0532297114
  0
VERTEX
  8
SURFACE
 62
7
  6
CONTINUOUS
 10
313.6794227345
 20
210.0359821457
  0
VERTEX
  8
SURFACE
 62
7
  6
CONTINUOUS
 10
313.6524259644
 20
210.0168864798
  0
VERTEX
  8
SURFACE
 62
7
  6
CONTINUOUS
 10
313.6277363057
 20
209.9962176734
  0
VERTEX
  8
SURFACE
 62
7
  6
CONTINUOUS
 10
313.6053189933
 20
209.9742081356
  0
VERTEX
  8
SURFACE
 62
7
  6
CONTINUOUS
 10
313.5851719212
 20
209.9511141785
  0
VERTEX
  8
SURFACE
 62
7
  6
CONTINUOUS
 10
313.5673476199
 20
209.9272894226
  0
VERTEX
  8
SURFACE
 62
7
  6
CONTINUOUS
 10
313.551825987
 20
209.9030607844
  0
VERTEX
  8
SURFACE
 62
7
  6
CONTINUOUS
 10
313.5385300743
 20
209.878720647
  0
VERTEX
  8
SURFACE
 62
7
  6
CONTINUOUS
 10
313.5273639148
 20
209.8545800167
  0
VERTEX
  8
SURFACE
 62
7
  6
CONTINUOUS
 10
313.5182315515
 20
209.8310481537
  0
VERTEX
  8
SURFACE
 62
7
  6
CONTINUOUS
 10
313.511077188
 20
209.8088788307
  0
VERTEX
  8
SURFACE
 62
7
  6
CONTINUOUS
 10
313.5067188103
 20
209.7928666843
  0
SEQEND
  0
LINE
  8
0
 62
7
  6
CONTINUOUS
 10
343.5011761488
 20
209.5858419131
 11
343.7511761488
 21
209.5858419131
  0
LINE
  8
0
 62
7
  6
CONTINUOUS
 10
343.5011761488
 20
209.7829936453
 11
343.7511761488
 21
209.7829936453
  0
LINE
  8
SURFACE
 62
7
  6
CONTINUOUS
 10
322.505218784
 20
210.100300454
 11
313.8971335129
 21
210.100300454
  0
LINE
  8
0
 62
7
  6
CONTINUOUS
 10
343.5011761488
 20
211.710490176
 11
343.7511761488
 21
211.710490176
  0
LINE
  8
0
 62
7
  6
CONTINUOUS
 10
343.5011761488
 20
212.1657718226
 11
343.7511761488
 21
212.1657718226
  0
LINE
  8
0
 62
7
  6
CONTINUOUS
 10
343.5011761488
 20
212.7779070615
 11
343.7511761488
 21
212.7779070615
  0
LINE
  8
0
 62
7
  6
CONTINUOUS
 10
343.5011761488
 20
213.0548978599
 11
343.7511761488
 21
213.0548978599
  0
LINE
  8
0
 62
7
  6
CONTINUOUS
 10
343.5011761488
 20
213.6816194882
 11
343.7511761488
 21
213.6816194882
  0
LINE
  8
0
 62
7
  6
CONTINUOUS
 10
343.5011761488
 20
214.2501485944
 11
343.7511761488
 21
214.2501485944
  0
LINE
  8
0
 62
7
  6
CONTINUOUS
 10
343.5011761488
 20
214.9305999342
 11
343.7511761488
 21
214.9305999342
  0
LINE
  8
0
 62
7
  6
CONTINUOUS
 10
343.5011761488
 20
215.3827459165
 11
343.7511761488
 21
215.3827459165
  0
LINE
  8
0
 62
7
  6
CONTINUOUS
 10
343.5011761488
 20
215.7767022581
 11
343.7511761488
 21
215.7767022581
  0
LINE
  8
0
 62
7
  6
CONTINUOUS
 10
344.4511761488
 20
220.1333424508
 11
343.5011761488
 21
221.778790718
  0
LINE
  8
0
 62
7
  6
CONTINUOUS
 10
343.5011761488
 20
216.2803484671
 11
343.7511761488
 21
216.2803484671
  0
LINE
  8
0
 62
7
  6
CONTINUOUS
 10
343.5011761488
 20
216.446000732
 11
343.7511761488
 21
216.446000732
  0
LINE
  8
0
 62
7
  6
CONTINUOUS
 10
343.5011761488
 20
217.7367640929
 11
343.7511761488
 21
217.7367640929
  0
LINE
  8
0
 62
7
  6
CONTINUOUS
 10
343.5011761488
 20
218.7460522509
 11
343.7511761488
 21
218.7460522509
  0
LINE
  8
0
 62
7
  6
CONTINUOUS
 10
343.5011761488
 20
218.8361031418
 11
343.7511761488
 21
218.8361031418
  0
LINE
  8
0
 62
7
  6
CONTINUOUS
 10
343.5011761488
 20
219.7731249685
 11
343.7511761488
 21
219.7731249685
  0
LINE
  8
0
 62
7
  6
CONTINUOUS
 10
343.5011761488
 20
220.4415714802
 11
343.7511761488
 21
220.4415714802
  0
LINE
  8
0
 62
7
  6
CONTINUOUS
 10
343.5011761488
 20
220.4563813166
 11
343.7511761488
 21
220.4563813166
  0
POLYLINE
  8
0
 62
7
  6
CONTINUOUS
 66
1
 70
0
  0
VERTEX
  8
0
 62
7
  6
CONTINUOUS
 10
331.1579734736
 20
229.999302536
  0
VERTEX
  8
0
 62
7
  6
CONTINUOUS
 10
331.1689848465
 20
229.9876136617
  0
VERTEX
  8
0
 62
7
  6
CONTINUOUS
 10
331.1979348277
 20
229.9472845017
  0
VERTEX
  8
0
 62
7
  6
CONTINUOUS
 10
331.2209506408
 20
229.9038465156
  0
VERTEX
  8
0
 62
7
  6
CONTINUOUS
 10
331.237656448
 20
229.8580458708
  0
VERTEX
  8
0
 62
7
  6
CONTINUOUS
 10
331.2477840398
 20
229.8106643111
  0
VERTEX
  8
0
 62
7
  6
CONTINUOUS
 10
331.2511761488
 20
229.7625056506
  0
SEQEND
  0
LINE
  8
SURFACE
 62
7
  6
CONTINUOUS
 10
313.3511761488
 20
228.1333424508
 11
304.2011761488
 21
228.1333424508
  0
LINE
  8
0
 62
7
  6
CONTINUOUS
 10
331.3511761488
 20
228.1333424508
 11
340.5011761488
 21
228.1333424508
  0
POLYLINE
  8
0
 62
7
  6
CONTINUOUS
 66
1
 70
0
  0
VERTEX
  8
0
 62
7
  6
CONTINUOUS
 10
322.3327540327
 20
231.4982812264
  0
VERTEX
  8
0
 62
7
  6
CONTINUOUS
 10
322.3262629968
 20
231.498228622
  0
VERTEX
  8
0
 62
7
  6
CONTINUOUS
 10
322.2852684671
 20
231.4954562681
  0
VERTEX
  8
0
 62
7
  6
CONTINUOUS
 10
322.2461995539
 20
231.4888169202
  0
VERTEX
  8
0
 62
7
  6
CONTINUOUS
 10
322.2092580696
 20
231.4787668234
  0
VERTEX
  8
0
 62
7
  6
CONTINUOUS
 10
322.1745747733
 20
231.4657241525
  0
VERTEX
  8
0
 62
7
  6
CONTINUOUS
 10
322.1422275604
 20
231.4500663928
  0
VERTEX
  8
0
 62
7
  6
CONTINUOUS
 10
322.112253964
 20
231.4321298562
  0
VERTEX
  8
0
 62
7
  6
CONTINUOUS
 10
322.0846592208
 20
231.4122087029
  0
VERTEX
  8
0
 62
7
  6
CONTINUOUS
 10
322.0594270694
 20
231.3905569104
  0
VERTEX
  8
0
 62
7
  6
CONTINUOUS
 10
322.0365436476
 20
231.3674080008
  0
VERTEX
  8
0
 62
7
  6
CONTINUOUS
 10
322.0161539615
 20
231.3431860278
  0
VERTEX
  8
0
 62
7
  6
CONTINUOUS
 10
321.9983548112
 20
231.3183809154
  0
VERTEX
  8
0
 62
7
  6
CONTINUOUS
 10
321.9831343997
 20
231.2934643316
  0
VERTEX
  8
0
 62
7
  6
CONTINUOUS
 10
321.9704038546
 20
231.2688991412
  0
VERTEX
  8
0
 62
7
  6
CONTINUOUS
 10
321.9600202501
 20
231.2451627902
  0
VERTEX
  8
0
 62
7
  6
CONTINUOUS
 10
321.9516873787
 20
231.2224428979
  0
VERTEX
  8
0
 62
7
  6
CONTINUOUS
 10
321.9451644658
 20
231.2010584474
  0
VERTEX
  8
0
 62
7
  6
CONTINUOUS
 10
321.9401969934
 20
231.1813520063
  0
VERTEX
  8
0
 62
7
  6
CONTINUOUS
 10
321.936436572
 20
231.1632580978
  0
VERTEX
  8
0
 62
7
  6
CONTINUOUS
 10
321.9335921938
 20
231.1467406391
  0
VERTEX
  8
0
 62
7
  6
CONTINUOUS
 10
321.9313456828
 20
231.1312020572
  0
VERTEX
  8
0
 62
7
  6
CONTINUOUS
 10
321.9294527277
 20
231.1158662514
  0
VERTEX
  8
0
 62
7
  6
CONTINUOUS
 10
321.927746387
 20
231.0999406545
  0
VERTEX
  8
0
 62
7
  6
CONTINUOUS
 10
321.9261313862
 20
231.0828256662
  0
VERTEX
  8
0
 62
7
  6
CONTINUOUS
 10
321.9245500389
 20
231.0640302509
  0
VERTEX
  8
0
 62
7
  6
CONTINUOUS
 10
321.9229688241
 20
231.0431652096
  0
SEQEND
  0
LINE
  8
0
 62
7
  6
CONTINUOUS
 10
322.3327385265
 20
231.4982815012
 11
330.6696137711
 21
231.4982815012
  0
POLYLINE
  8
SURFACE
 62
7
  6
CONTINUOUS
 66
1
 70
0
  0
VERTEX
  8
SURFACE
 62
7
  6
CONTINUOUS
 10
313.8511761488
 20
236.9468347322
  0
VERTEX
  8
SURFACE
 62
7
  6
CONTINUOUS
 10
313.7987250513
 20
236.9454771831
  0
VERTEX
  8
SURFACE
 62
7
  6
CONTINUOUS
 10
313.7472232583
 20
236.9414321335
  0
VERTEX
  8
SURFACE
 62
7
  6
CONTINUOUS
 10
313.697553633
 20
236.9347745537
  0
VERTEX
  8
SURFACE
 62
7
  6
CONTINUOUS
 10
313.6505654482
 20
236.9256232448
  0
VERTEX
  8
SURFACE
 62
7
  6
CONTINUOUS
 10
313.6070594184
 20
236.9141389874
  0
VERTEX
  8
SURFACE
 62
7
  6
CONTINUOUS
 10
313.5677729453
 20
236.9005216552
  0
VERTEX
  8
SURFACE
 62
7
  6
CONTINUOUS
 10
313.5333674511
 20
236.8850066099
  0
VERTEX
  8
SURFACE
 62
7
  6
CONTINUOUS
 10
313.5044174699
 20
236.8678604661
  0
VERTEX
  8
SURFACE
 62
7
  6
CONTINUOUS
 10
313.4814016568
 20
236.849376338
  0
VERTEX
  8
SURFACE
 62
7
  6
CONTINUOUS
 10
313.4646958496
 20
236.8298687132
  0
VERTEX
  8
SURFACE
 62
7
  6
CONTINUOUS
 10
313.4545682578
 20
236.809668323
  0
VERTEX
  8
SURFACE
 62
7
  6
CONTINUOUS
 10
313.4511761488
 20
236.7891165607
  0
SEQEND
  0
LINE
  8
SURFACE
 62
7
  6
CONTINUOUS
 10
322.5511761488
 20
236.9468347322
 11
313.8511761488
 21
236.9468347322
  0
POLYLINE
  8
SURFACE
 62
7
  6
CONTINUOUS
 66
1
 70
0
  0
VERTEX
  8
SURFACE
 62
7
  6
CONTINUOUS
 10
322.5511761488
 20
236.9468347322
  0
VERTEX
  8
SURFACE
 62
7
  6
CONTINUOUS
 10
322.6036272463
 20
236.9454771831
  0
VERTEX
  8
SURFACE
 62
7
  6
CONTINUOUS
 10
322.6551290393
 20
236.9414321335
  0
VERTEX
  8
SURFACE
 62
7
  6
CONTINUOUS
 10
322.7047986646
 20
236.9347745537
  0
VERTEX
  8
SURFACE
 62
7
  6
CONTINUOUS
 10
322.7517868493
 20
236.9256232448
  0
VERTEX
  8
SURFACE
 62
7
  6
CONTINUOUS
 10
322.7952928791
 20
236.9141389874
  0
VERTEX
  8
SURFACE
 62
7
  6
CONTINUOUS
 10
322.8345793523
 20
236.9005216552
  0
VERTEX
  8
SURFACE
 62
7
  6
CONTINUOUS
 10
322.8689848465
 20
236.8850066099
  0
VERTEX
  8
SURFACE
 62
7
  6
CONTINUOUS
 10
322.8979348277
 20
236.8678604661
  0
VERTEX
  8
SURFACE
 62
7
  6
CONTINUOUS
 10
322.9209506408
 20
236.849376338
  0
VERTEX
  8
SURFACE
 62
7
  6
CONTINUOUS
 10
322.937656448
 20
236.8298687132
  0
VERTEX
  8
SURFACE
 62
7
  6
CONTINUOUS
 10
322.9477840398
 20
236.809668323
  0
VERTEX
  8
SURFACE
 62
7
  6
CONTINUOUS
 10
322.9511761488
 20
236.7891165607
  0
SEQEND
  0
POLYLINE
  8
SURFACE
 62
7
  6
CONTINUOUS
 66
1
 70
0
  0
VERTEX
  8
SURFACE
 62
7
  6
CONTINUOUS
 10
313.9053537177
 20
247.4954992282
  0
VERTEX
  8
SURFACE
 62
7
  6
CONTINUOUS
 10
313.8674178801
 20
247.4936973114
  0
VERTEX
  8
SURFACE
 62
7
  6
CONTINUOUS
 10
313.8320426773
 20
247.4887277586
  0
VERTEX
  8
SURFACE
 62
7
  6
CONTINUOUS
 10
313.7982344535
 20
247.480898266
  0
VERTEX
  8
SURFACE
 62
7
  6
CONTINUOUS
 10
313.7661380327
 20
247.4705073559
  0
VERTEX
  8
SURFACE
 62
7
  6
CONTINUOUS
 10
313.7358578295
 20
247.4578385178
  0
VERTEX
  8
SURFACE
 62
7
  6
CONTINUOUS
 10
313.7074659591
 20
247.4431584841
  0
VERTEX
  8
SURFACE
 62
7
  6
CONTINUOUS
 10
313.6810060817
 20
247.4267152166
  0
VERTEX
  8
SURFACE
 62
7
  6
CONTINUOUS
 10
313.6564979896
 20
247.4087366472
  0
VERTEX
  8
SURFACE
 62
7
  6
CONTINUOUS
 10
313.6339426998
 20
247.3894306343
  0
VERTEX
  8
SURFACE
 62
7
  6
CONTINUOUS
 10
313.6133188169
 20
247.3689770172
  0
VERTEX
  8
SURFACE
 62
7
  6
CONTINUOUS
 10
313.5946251463
 20
247.3475699961
  0
VERTEX
  8
SURFACE
 62
7
  6
CONTINUOUS
 10
313.5778945979
 20
247.32546233
  0
VERTEX
  8
SURFACE
 62
7
  6
CONTINUOUS
 10
313.5631183059
 20
247.3028926947
  0
VERTEX
  8
SURFACE
 62
7
  6
CONTINUOUS
 10
313.550249889
 20
247.280075547
  0
VERTEX
  8
SURFACE
 62
7
  6
CONTINUOUS
 10
313.5392205242
 20
247.2572124883
  0
VERTEX
  8
SURFACE
 62
7
  6
CONTINUOUS
 10
313.5299692695
 20
247.2345660974
  0
VERTEX
  8
SURFACE
 62
7
  6
CONTINUOUS
 10
313.5225248235
 20
247.2127957752
  0
VERTEX
  8
SURFACE
 62
7
  6
CONTINUOUS
 10
313.5169352354
 20
247.1931145208
  0
VERTEX
  8
SURFACE
 62
7
  6
CONTINUOUS
 10
313.5129676459
 20
247.1763149208
  0
VERTEX
  8
SURFACE
 62
7
  6
CONTINUOUS
 10
313.5101177857
 20
247.1619186328
  0
VERTEX
  8
SURFACE
 62
7
  6
CONTINUOUS
 10
313.5079589895
 20
247.1490108664
  0
VERTEX
  8
SURFACE
 62
7
  6
CONTINUOUS
 10
313.5062572468
 20
247.1370618435
  0
VERTEX
  8
SURFACE
 62
7
  6
CONTINUOUS
 10
313.5048766708
 20
247.1258166401
  0
VERTEX
  8
SURFACE
 62
7
  6
CONTINUOUS
 10
313.5037078757
 20
247.11495818
  0
VERTEX
  8
SURFACE
 62
7
  6
CONTINUOUS
 10
313.5026605746
 20
247.1040502393
  0
VERTEX
  8
SURFACE
 62
7
  6
CONTINUOUS
 10
313.5016708783
 20
247.0926590972
  0
VERTEX
  8
SURFACE
 62
7
  6
CONTINUOUS
 10
313.5007013859
 20
247.0804683075
  0
VERTEX
  8
SURFACE
 62
7
  6
CONTINUOUS
 10
313.4997297299
 20
247.0672418349
  0
SEQEND
  0
LINE
  8
SURFACE
 62
7
  6
CONTINUOUS
 10
322.4970100807
 20
247.4954992161
 11
313.9053422188
 21
247.4954992161
  0
POLYLINE
  8
SURFACE
 62
7
  6
CONTINUOUS
 66
1
 70
0
  0
VERTEX
  8
SURFACE
 62
7
  6
CONTINUOUS
 10
313.8511761488
 20
258.7275672828
  0
VERTEX
  8
SURFACE
 62
7
  6
CONTINUOUS
 10
313.7987250513
 20
258.7247894445
  0
VERTEX
  8
SURFACE
 62
7
  6
CONTINUOUS
 10
313.7472232583
 20
258.7165130629
  0
VERTEX
  8
SURFACE
 62
7
  6
CONTINUOUS
 10
313.697553633
 20
258.702893465
  0
VERTEX
  8
SURFACE
 62
7
  6
CONTINUOUS
 10
313.6505654482
 20
258.6841767355
  0
VERTEX
  8
SURFACE
 62
7
  6
CONTINUOUS
 10
313.6070594184
 20
258.6606956451
  0
VERTEX
  8
SURFACE
 62
7
  6
CONTINUOUS
 10
313.5677729453
 20
258.6328633817
  0
VERTEX
  8
SURFACE
 62
7
  6
CONTINUOUS
 10
313.5333674511
 20
258.6011657705
  0
VERTEX
  8
SURFACE
 62
7
  6
CONTINUOUS
 10
313.5044174699
 20
258.5661521944
  0
VERTEX
  8
SURFACE
 62
7
  6
CONTINUOUS
 10
313.4814016568
 20
258.5284254768
  0
VERTEX
  8
SURFACE
 62
7
  6
CONTINUOUS
 10
313.4646958496
 20
258.4886310558
  0
VERTEX
  8
SURFACE
 62
7
  6
CONTINUOUS
 10
313.4545682578
 20
258.4474462249
  0
VERTEX
  8
SURFACE
 62
7
  6
CONTINUOUS
 10
313.4511761488
 20
258.4055685464
  0
SEQEND
  0
POLYLINE
  8
0
 62
7
  6
CONTINUOUS
 66
1
 70
0
  0
VERTEX
  8
0
 62
7
  6
CONTINUOUS
 10
322.3401348288
 20
261.4793801107
  0
VERTEX
  8
0
 62
7
  6
CONTINUOUS
 10
322.318056686
 20
261.4787705059
  0
VERTEX
  8
0
 62
7
  6
CONTINUOUS
 10
322.2869105437
 20
261.4758242413
  0
VERTEX
  8
0
 62
7
  6
CONTINUOUS
 10
322.2568667852
 20
261.47061962
  0
VERTEX
  8
0
 62
7
  6
CONTINUOUS
 10
322.2280391911
 20
261.4633568316
  0
VERTEX
  8
0
 62
7
  6
CONTINUOUS
 10
322.2005162515
 20
261.4542298328
  0
VERTEX
  8
0
 62
7
  6
CONTINUOUS
 10
322.1743642479
 20
261.4434245484
  0
VERTEX
  8
0
 62
7
  6
CONTINUOUS
 10
322.1496303583
 20
261.4311177077
  0
VERTEX
  8
0
 62
7
  6
CONTINUOUS
 10
322.1263447651
 20
261.4174757235
  0
VERTEX
  8
0
 62
7
  6
CONTINUOUS
 10
322.1045231675
 20
261.4026540595
  0
VERTEX
  8
0
 62
7
  6
CONTINUOUS
 10
322.0841691796
 20
261.3867969642
  0
VERTEX
  8
0
 62
7
  6
CONTINUOUS
 10
322.0652751911
 20
261.3700362411
  0
VERTEX
  8
0
 62
7
  6
CONTINUOUS
 10
322.0478297765
 20
261.3524965083
  0
VERTEX
  8
0
 62
7
  6
CONTINUOUS
 10
322.0318275928
 20
261.3343081858
  0
VERTEX
  8
0
 62
7
  6
CONTINUOUS
 10
322.0172528347
 20
261.3155935734
  0
VERTEX
  8
0
 62
7
  6
CONTINUOUS
 10
322.0040798359
 20
261.2964649556
  0
VERTEX
  8
0
 62
7
  6
CONTINUOUS
 10
321.9922755154
 20
261.2770251571
  0
VERTEX
  8
0
 62
7
  6
CONTINUOUS
 10
321.9818032408
 20
261.2573723624
  0
VERTEX
  8
0
 62
7
  6
CONTINUOUS
 10
321.9726216787
 20
261.2375984015
  0
VERTEX
  8
0
 62
7
  6
CONTINUOUS
 10
321.9647392881
 20
261.2179353957
  0
VERTEX
  8
0
 62
7
  6
CONTINUOUS
 10
321.9582253029
 20
261.1989233564
  0
VERTEX
  8
0
 62
7
  6
CONTINUOUS
 10
321.9530421952
 20
261.1810582359
  0
VERTEX
  8
0
 62
7
  6
CONTINUOUS
 10
321.949092052
 20
261.164867658
  0
VERTEX
  8
0
 62
7
  6
CONTINUOUS
 10
321.9462022352
 20
261.1507586509
  0
VERTEX
  8
0
 62
7
  6
CONTINUOUS
 10
321.9441069287
 20
261.1386235219
  0
VERTEX
  8
0
 62
7
  6
CONTINUOUS
 10
321.9425557126
 20
261.1280523793
  0
VERTEX
  8
0
 62
7
  6
CONTINUOUS
 10
321.9413762238
 20
261.118706201
  0
VERTEX
  8
0
 62
7
  6
CONTINUOUS
 10
321.9404345674
 20
261.1101638134
  0
VERTEX
  8
0
 62
7
  6
CONTINUOUS
 10
321.9396384812
 20
261.1020350304
  0
VERTEX
  8
0
 62
7
  6
CONTINUOUS
 10
321.9389232204
 20
261.0939456359
  0
VERTEX
  8
0
 62
7
  6
CONTINUOUS
 10
321.938245673
 20
261.08557326
  0
VERTEX
  8
0
 62
7
  6
CONTINUOUS
 10
321.937581341
 20
261.076704849
  0
VERTEX
  8
0
 62
7
  6
CONTINUOUS
 10
321.9362331198
 20
261.0568425066
  0
SEQEND
  0
POLYLINE
  8
SURFACE
 62
7
  6
CONTINUOUS
 66
1
 70
0
  0
VERTEX
  8
SURFACE
 62
7
  6
CONTINUOUS
 10
314.0414289402
 20
266.7432276912
  0
VERTEX
  8
SURFACE
 62
7
  6
CONTINUOUS
 10
314.0277850494
 20
266.7429949406
  0
VERTEX
  8
SURFACE
 62
7
  6
CONTINUOUS
 10
314.0014050496
 20
266.74122037
  0
VERTEX
  8
SURFACE
 62
7
  6
CONTINUOUS
 10
313.9757705772
 20
266.737802411
  0
VERTEX
  8
SURFACE
 62
7
  6
CONTINUOUS
 10
313.9509537974
 20
266.7328617413
  0
VERTEX
  8
SURFACE
 62
7
  6
CONTINUOUS
 10
313.9270135233
 20
266.7265158823
  0
VERTEX
  8
SURFACE
 62
7
  6
CONTINUOUS
 10
313.9039965307
 20
266.7188783313
  0
VERTEX
  8
SURFACE
 62
7
  6
CONTINUOUS
 10
313.881938869
 20
266.710057894
  0
VERTEX
  8
SURFACE
 62
7
  6
CONTINUOUS
 10
313.8608671439
 20
266.7001582071
  0
VERTEX
  8
SURFACE
 62
7
  6
CONTINUOUS
 10
313.8407996237
 20
266.6892773614
  0
VERTEX
  8
SURFACE
 62
7
  6
CONTINUOUS
 10
313.8217473463
 20
266.6775076709
  0
VERTEX
  8
SURFACE
 62
7
  6
CONTINUOUS
 10
313.8037151595
 20
266.6649355557
  0
VERTEX
  8
SURFACE
 62
7
  6
CONTINUOUS
 10
313.7867026907
 20
266.6516415251
  0
VERTEX
  8
SURFACE
 62
7
  6
CONTINUOUS
 10
313.7707053346
 20
266.6377003308
  0
VERTEX
  8
SURFACE
 62
7
  6
CONTINUOUS
 10
313.7557207485
 20
266.6231869463
  0
VERTEX
  8
SURFACE
 62
7
  6
CONTINUOUS
 10
313.7417501504
 20
266.6081805911
  0
VERTEX
  8
SURFACE
 62
7
  6
CONTINUOUS
 10
313.7287897915
 20
266.5927579886
  0
VERTEX
  8
SURFACE
 62
7
  6
CONTINUOUS
 10
313.7168308167
 20
266.5769925482
  0
VERTEX
  8
SURFACE
 62
7
  6
CONTINUOUS
 10
313.7058597652
 20
266.5609541422
  0
VERTEX
  8
SURFACE
 62
7
  6
CONTINUOUS
 10
313.6958591243
 20
266.5447090499
  0
VERTEX
  8
SURFACE
 62
7
  6
CONTINUOUS
 10
313.6868079938
 20
266.5283202774
  0
VERTEX
  8
SURFACE
 62
7
  6
CONTINUOUS
 10
313.678682796
 20
266.5118483762
  0
VERTEX
  8
SURFACE
 62
7
  6
CONTINUOUS
 10
313.6714604472
 20
266.4953589888
  0
VERTEX
  8
SURFACE
 62
7
  6
CONTINUOUS
 10
313.6651427359
 20
266.4789954753
  0
VERTEX
  8
SURFACE
 62
7
  6
CONTINUOUS
 10
313.659716792
 20
266.462912806
  0
VERTEX
  8
SURFACE
 62
7
  6
CONTINUOUS
 10
313.6551483794
 20
266.4472556078
  0
VERTEX
  8
SURFACE
 62
7
  6
CONTINUOUS
 10
313.6513931165
 20
266.4321896615
  0
VERTEX
  8
SURFACE
 62
7
  6
CONTINUOUS
 10
313.6483942849
 20
266.4179040009
  0
VERTEX
  8
SURFACE
 62
7
  6
CONTINUOUS
 10
313.6461323943
 20
266.4049385038
  0
VERTEX
  8
SURFACE
 62
7
  6
CONTINUOUS
 10
313.6445306025
 20
266.3938204553
  0
VERTEX
  8
SURFACE
 62
7
  6
CONTINUOUS
 10
313.6434575603
 20
266.3848614166
  0
VERTEX
  8
SURFACE
 62
7
  6
CONTINUOUS
 10
313.6427270323
 20
266.3776617047
  0
VERTEX
  8
SURFACE
 62
7
  6
CONTINUOUS
 10
313.6421924407
 20
266.3715842852
  0
VERTEX
  8
SURFACE
 62
7
  6
CONTINUOUS
 10
313.6417688634
 20
266.3661552039
  0
VERTEX
  8
SURFACE
 62
7
  6
CONTINUOUS
 10
313.641405835
 20
266.3610190344
  0
SEQEND
  0
LINE
  8
SURFACE
 62
7
  6
CONTINUOUS
 10
321.8392559296
 20
258.7275672828
 11
313.8511761488
 21
258.7275672828
  0
LINE
  8
0
 62
7
  6
CONTINUOUS
 10
322.3401075803
 20
261.4793804164
 11
330.6622447105
 21
261.4793804164
  0
LINE
  8
SURFACE
 62
7
  6
CONTINUOUS
 10
322.3609376518
 20
266.7432279536
 11
314.0414146409
 21
266.7432279536
  0
LINE
  8
0
 62
7
  6
CONTINUOUS
 10
322.3609233857
 20
266.7432279536
 11
330.6609376567
 21
266.7432279536
  0
ARC
  8
0
 62
7
  6
CONTINUOUS
 10
53.1905634573
 20
97.7633424508
 40
180.0
 50
17.827284982
 51
20.5948847648
  0
ARC
  8
SURFACE
 62
7
  6
CONTINUOUS
 10
55.6205634573
 20
95.3333424508
 40
180.0
 50
69.4051152347
 51
72.1727150179
  0
ARC
  8
0
 62
7
  6
CONTINUOUS
 10
55.816569282
 20
96.988419169
 40
8.5
 50
329.999927984
 51
15.9194689555
  0
ARC
  8
SURFACE
 62
7
  6
CONTINUOUS
 10
54.8456401756
 20
97.9593482754
 40
8.5
 50
74.0805310445
 51
120.000073123
  0
ARC
  8
0
 62
7
  6
CONTINUOUS
 10
63.7256244069
 20
91.4873044852
 40
1.1
 50
150.0
 51
257.8272854187
  0
ARC
  8
SURFACE
 62
7
  6
CONTINUOUS
 10
49.3445254917
 20
105.8684034003
 40
1.1
 50
192.1727145737
 51
300.0
  0
ARC
  8
0
 62
7
  6
CONTINUOUS
 10
72.1972425556
 20
89.7711856854
 40
1.0
 50
260.5948842642
 51
307.5582723772
  0
ARC
  8
SURFACE
 62
7
  6
CONTINUOUS
 10
47.628406692
 20
114.3400215491
 40
1.0
 50
142.441727609
 51
189.4051156507
  0
ARC
  8
0
 62
7
  6
CONTINUOUS
 10
61.203841297
 20
103.3466208882
 40
0.3999998906
 50
29.9999373185
 51
59.9999457162
  0
ARC
  8
SURFACE
 62
7
  6
CONTINUOUS
 10
28.648355793
 20
140.2716930553
 40
180.0
 50
39.4051152347
 51
42.1727150179
  0
ARC
  8
0
 62
7
  6
CONTINUOUS
 10
29.6456401756
 20
141.6070286261
 40
8.5
 50
299.9999277506
 51
345.9194689555
  0
ARC
  8
0
 62
7
  6
CONTINUOUS
 10
33.7445254917
 20
132.8883959984
 40
1.1
 50
120.0
 51
227.8272854188
  0
ARC
  8
0
 62
7
  6
CONTINUOUS
 10
27.7589140618
 20
143.5911347865
 40
180.0
 50
347.827284982
 51
350.5948847648
  0
ARC
  8
SURFACE
 62
7
  6
CONTINUOUS
 10
29.2902554573
 20
142.9333424508
 40
8.5
 50
44.0805310445
 51
90.0000732467
  0
ARC
  8
SURFACE
 62
7
  6
CONTINUOUS
 10
28.4806779545
 20
152.5333424508
 40
1.1
 50
162.1727145738
 51
270.0
  0
ARC
  8
SURFACE
 62
7
  6
CONTINUOUS
 10
31.2302845524
 20
160.7280383786
 40
1.0
 50
112.4417276094
 51
159.4051156503
  0
ARC
  8
0
 62
7
  6
CONTINUOUS
 10
37.4902554573
 20
144.4197568299
 40
0.3999998906
 50
359.9999373185
 51
29.9999457162
  0
ARC
  8
0
 62
7
  6
CONTINUOUS
 10
35.4137120449
 20
163.4124350867
 40
37.563731
 50
277.5582718452
 51
286.4075976794
  0
ARC
  8
SURFACE
 62
7
  6
CONTINUOUS
 10
35.8902554573
 20
165.3889793151
 40
2.0
 50
283.5924023205
 51
359.9999975799
  0
ARC
  8
0
 62
7
  6
CONTINUOUS
 10
35.8902554573
 20
165.3889793151
 40
2.0
 50
283.5924023206
 51
0.0001213221
  0
ARC
  8
0
 62
7
  6
CONTINUOUS
 10
49.9091628214
 20
118.7564910384
 40
37.563731
 50
307.5582718452
 51
316.4075976794
  0
ARC
  8
SURFACE
 62
7
  6
CONTINUOUS
 10
45.1882554573
 20
126.9333424508
 40
37.563731
 50
103.5924023206
 51
112.4417281545
  0
ARC
  8
SURFACE
 62
7
  6
CONTINUOUS
 10
49.3335894084
 20
120.7065002581
 40
2.0
 50
313.5924023205
 51
29.9999975799
  0
ARC
  8
0
 62
7
  6
CONTINUOUS
 10
46.5892262727
 20
125.4598766435
 40
2.0
 50
30.0
 51
106.4075976794
  0
ARC
  8
0
 62
7
  6
CONTINUOUS
 10
49.3335894084
 20
120.7065002581
 40
2.0
 50
313.5924023206
 51
30.0001213221
  0
ARC
  8
0
 62
7
  6
CONTINUOUS
 10
40.2231026199
 20
127.1663844475
 40
1.0
 50
230.5948842639
 51
277.5582723771
  0
ARC
  8
0
 62
7
  6
CONTINUOUS
 10
98.1289140618
 20
70.7911347865
 40
180.0
 50
47.827284982
 51
50.5948847648
  0
ARC
  8
SURFACE
 62
7
  6
CONTINUOUS
 10
99.4642496327
 20
71.788419169
 40
8.5
 50
104.0805310445
 51
150.0000733704
  0
ARC
  8
SURFACE
 62
7
  6
CONTINUOUS
 10
90.7456170049
 20
75.8873044852
 40
1.1
 50
222.1727145736
 51
330.0
  0
ARC
  8
0
 62
7
  6
CONTINUOUS
 10
84.7905634573
 20
87.3310344508
 40
37.563731
 50
337.5582718452
 51
346.4075976794
  0
ARC
  8
SURFACE
 62
7
  6
CONTINUOUS
 10
76.6137120449
 20
92.0519418148
 40
37.563731
 50
133.5924023206
 51
142.4417281545
  0
ARC
  8
SURFACE
 62
7
  6
CONTINUOUS
 10
83.31709765
 20
88.7320052661
 40
2.0
 50
343.5924023205
 51
59.9999975799
  0
ARC
  8
0
 62
7
  6
CONTINUOUS
 10
78.5637212646
 20
91.4763684018
 40
2.0
 50
60.0
 51
136.4075976794
  0
ARC
  8
0
 62
7
  6
CONTINUOUS
 10
83.31709765
 20
88.7320052661
 40
2.0
 50
343.5924023206
 51
60.0001213221
  0
ARC
  8
SURFACE
 62
7
  6
CONTINUOUS
 10
85.0236054541
 20
82.3658816133
 40
1.0
 50
172.4417276092
 51
219.4051156511
  0
ARC
  8
SURFACE
 62
7
  6
CONTINUOUS
 10
101.448355793
 20
69.9016930553
 40
180.0
 50
99.4051152347
 51
102.1727150179
  0
ARC
  8
SURFACE
 62
7
  6
CONTINUOUS
 10
121.2696560932
 20
77.5564910384
 40
37.563731
 50
163.5924023206
 51
172.4417281545
  0
ARC
  8
0
 62
7
  6
CONTINUOUS
 10
100.7905634573
 20
71.4330344508
 40
8.5
 50
359.9999278673
 51
45.9194689555
  0
ARC
  8
0
 62
7
  6
CONTINUOUS
 10
123.2462003216
 20
78.0330344508
 40
2.0
 50
90.0
 51
166.4075976794
  0
ARC
  8
0
 62
7
  6
CONTINUOUS
 10
110.3905634573
 20
70.6234569479
 40
1.1
 50
180.0
 51
287.8272854187
  0
ARC
  8
0
 62
7
  6
CONTINUOUS
 10
118.5852593852
 20
73.3730635458
 40
1.0
 50
290.5948842645
 51
337.5582723769
  0
ARC
  8
0
 62
7
  6
CONTINUOUS
 10
102.2769770199
 20
79.6330346696
 40
0.3999998906
 50
59.9999373185
 51
89.9999457162
  0
ARC
  8
CURVE
 62
40
  6
CONTINUOUS
 10
119.5955170751
 20
127.5764985622
 40
3.2
 50
2.2544307753
 51
45.0
  0
ARC
  8
CURVE
 62
40
  6
CONTINUOUS
 10
115.352876388
 20
131.8191392494
 40
3.2
 50
45.0
 51
86.4096221093
  0
ARC
  8
CURVE
 62
40
  6
CONTINUOUS
 10
115.7536630282
 20
138.2065777085
 40
3.2
 50
225.0
 51
266.4096221093
  0
ARC
  8
CURVE
 62
40
  6
CONTINUOUS
 10
96.063798715
 20
157.8964420217
 40
3.2
 50
183.5903778907
 51
225.0
  0
ARC
  8
CURVE
 62
40
  6
CONTINUOUS
 10
89.6763602559
 20
157.4956553814
 40
3.2
 50
3.5903778907
 51
45.0
  0
ARC
  8
CURVE
 62
40
  6
CONTINUOUS
 10
85.4337195688
 20
161.7382960685
 40
3.2
 50
45.0
 51
87.7455692247
  0
CIRCLE
  8
0
 62
7
  6
CONTINUOUS
 10
90.4095944079
 20
138.3652465195
 40
1.9125
  0
ARC
  8
0
 62
7
  6
CONTINUOUS
 10
94.7052681036
 20
139.2137746569
 40
1.5
 50
135.0
 51
225.0
  0
ARC
  8
0
 62
7
  6
CONTINUOUS
 10
99.1600408251
 20
135.3953980385
 40
1.5
 50
315.0
 51
45.0
  0
ARC
  8
0
 62
7
  6
CONTINUOUS
 10
94.988340473
 20
138.7185702531
 40
1.35
 50
225.0
 51
281.2510114041
  0
ARC
  8
0
 62
7
  6
CONTINUOUS
 10
98.8769684557
 20
135.8906024422
 40
1.35
 50
45.0
 51
89.7055154431
  0
ARC
  8
0
 62
7
  6
CONTINUOUS
 10
95.569933832
 20
138.7733729972
 40
0.75
 50
225.0
 51
315.0
  0
ARC
  8
0
 62
7
  6
CONTINUOUS
 10
98.4175787048
 20
135.71359609
 40
0.75
 50
45.0
 51
135.0
  0
ARC
  8
0
 62
7
  6
CONTINUOUS
 10
94.7583011122
 20
139.0546756311
 40
0.375
 50
135.0
 51
225.0
  0
ARC
  8
0
 62
7
  6
CONTINUOUS
 10
99.1070078165
 20
135.5544970642
 40
0.375
 50
315.0
 51
45.0
  0
ARC
  8
SURFACE
 62
7
  6
CONTINUOUS
 10
27.7589140618
 20
192.6755501151
 40
180.0
 50
9.4051152352
 51
12.172715018
  0
ARC
  8
SURFACE
 62
7
  6
CONTINUOUS
 10
35.4137120449
 20
172.8542498148
 40
37.563731
 50
73.5924023206
 51
82.4417281545
  0
ARC
  8
0
 62
7
  6
CONTINUOUS
 10
35.8902554573
 20
170.8777055864
 40
2.0
 50
0.0
 51
76.4075976794
  0
ARC
  8
0
 62
7
  6
CONTINUOUS
 10
28.4806779545
 20
183.7333424508
 40
1.1
 50
90.0
 51
197.827285419
  0
ARC
  8
0
 62
7
  6
CONTINUOUS
 10
31.2302845524
 20
175.5386465229
 40
1.0
 50
200.5948842637
 51
247.5582723769
  0
ARC
  8
0
 62
7
  6
CONTINUOUS
 10
37.4902556761
 20
191.8469288882
 40
0.3999998906
 50
329.9999373185
 51
359.9999457162
  0
ARC
  8
0
 62
7
  6
CONTINUOUS
 10
28.648355793
 20
195.9949918463
 40
180.0
 50
317.827284982
 51
320.5948847648
  0
ARC
  8
0
 62
7
  6
CONTINUOUS
 10
29.2902554573
 20
193.3333424508
 40
8.5
 50
269.9999278673
 51
315.9194689555
  0
ARC
  8
SURFACE
 62
7
  6
CONTINUOUS
 10
29.6456401756
 20
194.6596562754
 40
8.5
 50
14.0805310445
 51
60.0000733704
  0
ARC
  8
SURFACE
 62
7
  6
CONTINUOUS
 10
33.7445254917
 20
203.3782889032
 40
1.1
 50
132.172714574
 51
240.0
  0
ARC
  8
0
 62
7
  6
CONTINUOUS
 10
45.1882554573
 20
209.3333424508
 40
37.563731
 50
247.5582718452
 51
256.4075976794
  0
ARC
  8
SURFACE
 62
7
  6
CONTINUOUS
 10
46.5892262727
 20
210.8068082581
 40
2.0
 50
253.5924023205
 51
329.9999975799
  0
ARC
  8
0
 62
7
  6
CONTINUOUS
 10
49.3335894084
 20
215.5601846435
 40
2.0
 50
330.0
 51
46.4075976794
  0
ARC
  8
0
 62
7
  6
CONTINUOUS
 10
46.5892262727
 20
210.8068082581
 40
2.0
 50
253.5924023206
 51
330.0001213221
  0
ARC
  8
SURFACE
 62
7
  6
CONTINUOUS
 10
40.2231026199
 20
209.100300454
 40
1.0
 50
82.4417276092
 51
129.40511565
  0
ARC
  8
0
 62
7
  6
CONTINUOUS
 10
55.6205634573
 20
240.9333424508
 40
180.0
 50
287.827284982
 51
290.5948847648
  0
ARC
  8
SURFACE
 62
7
  6
CONTINUOUS
 10
53.1905634573
 20
238.5033424508
 40
180.0
 50
339.4051152347
 51
342.1727150179
  0
ARC
  8
SURFACE
 62
7
  6
CONTINUOUS
 10
49.9091628214
 20
217.5101938632
 40
37.563731
 50
43.5924023206
 51
52.4417281545
  0
ARC
  8
0
 62
7
  6
CONTINUOUS
 10
54.8456401756
 20
238.3073366261
 40
8.5
 50
239.999927984
 51
285.9194689555
  0
ARC
  8
SURFACE
 62
7
  6
CONTINUOUS
 10
55.816569282
 20
239.2782657325
 40
8.5
 50
344.0805310445
 51
30.000073123
  0
ARC
  8
0
 62
7
  6
CONTINUOUS
 10
49.3445254917
 20
230.3982815012
 40
1.1
 50
60.0
 51
167.8272854191
  0
ARC
  8
SURFACE
 62
7
  6
CONTINUOUS
 10
63.7256244069
 20
244.7793804164
 40
1.1
 50
102.1727145741
 51
210.0
  0
ARC
  8
0
 62
7
  6
CONTINUOUS
 10
47.628406692
 20
221.9266633525
 40
1.0
 50
170.5948842658
 51
217.5582723772
  0
ARC
  8
SURFACE
 62
7
  6
CONTINUOUS
 10
72.1972425556
 20
246.4954992161
 40
1.0
 50
52.441727609
 51
99.4051156497
  0
ARC
  8
0
 62
7
  6
CONTINUOUS
 10
61.2038418948
 20
232.9200646111
 40
0.3999998906
 50
299.9999373185
 51
329.9999457162
  0
ARC
  8
CURVE
 62
40
  6
CONTINUOUS
 10
85.6854769297
 20
168.1333424508
 40
3.2
 50
92.2544307753
 51
267.7455692247
  0
ARC
  8
CURVE
 62
40
  6
CONTINUOUS
 10
85.4337195688
 20
174.528388833
 40
3.2
 50
272.2544307753
 51
315.0
  0
ARC
  8
CURVE
 62
40
  6
CONTINUOUS
 10
89.6763602559
 20
178.7710295201
 40
3.2
 50
315.0
 51
356.4096221093
  0
ARC
  8
CURVE
 62
40
  6
CONTINUOUS
 10
96.063798715
 20
178.3702428799
 40
3.2
 50
135.0
 51
176.4096221093
  0
ARC
  8
CURVE
 62
40
  6
CONTINUOUS
 10
115.7536630282
 20
198.0601071931
 40
3.2
 50
93.5903778907
 51
135.0
  0
ARC
  8
CURVE
 62
40
  6
CONTINUOUS
 10
115.352876388
 20
204.4475456522
 40
3.2
 50
273.5903778907
 51
315.0
  0
ARC
  8
CURVE
 62
40
  6
CONTINUOUS
 10
119.5955170751
 20
208.6901863393
 40
3.2
 50
315.0
 51
357.7455692247
  0
ARC
  8
0
 62
7
  6
CONTINUOUS
 10
76.6137120449
 20
244.2147430867
 40
37.563731
 50
217.5582718452
 51
226.4075976794
  0
ARC
  8
SURFACE
 62
7
  6
CONTINUOUS
 10
84.7905634573
 20
248.9356504508
 40
37.563731
 50
13.5924023206
 51
22.4417281545
  0
ARC
  8
SURFACE
 62
7
  6
CONTINUOUS
 10
78.5637212646
 20
244.7903164997
 40
2.0
 50
223.5924023205
 51
299.9999975799
  0
ARC
  8
0
 62
7
  6
CONTINUOUS
 10
83.31709765
 20
247.5346796354
 40
2.0
 50
300.0
 51
16.4075976794
  0
ARC
  8
0
 62
7
  6
CONTINUOUS
 10
78.5637212646
 20
244.7903164997
 40
2.0
 50
223.5924023206
 51
300.0001213221
  0
ARC
  8
0
 62
7
  6
CONTINUOUS
 10
85.0236054541
 20
253.9008032882
 40
1.0
 50
140.5948842628
 51
187.5582723771
  0
ARC
  8
SURFACE
 62
7
  6
CONTINUOUS
 10
98.1289140618
 20
265.4755501151
 40
180.0
 50
309.4051152347
 51
312.1727150179
  0
ARC
  8
0
 62
7
  6
CONTINUOUS
 10
99.4642496327
 20
264.4782657325
 40
8.5
 50
209.9999277506
 51
255.9194689555
  0
ARC
  8
0
 62
7
  6
CONTINUOUS
 10
90.7456170049
 20
260.3793804164
 40
1.1
 50
30.0
 51
137.8272854192
  0
ARC
  8
0
 62
7
  6
CONTINUOUS
 10
102.2769778364
 20
256.6336504508
 40
0.3999998906
 50
269.9999373185
 51
299.9999457162
  0
ARC
  8
0
 62
7
  6
CONTINUOUS
 10
101.448355793
 20
266.3649918463
 40
180.0
 50
257.827284982
 51
260.5948847648
  0
ARC
  8
SURFACE
 62
7
  6
CONTINUOUS
 10
100.7905634573
 20
264.8336504508
 40
8.5
 50
314.0805310445
 51
0.0000732467
  0
ARC
  8
SURFACE
 62
7
  6
CONTINUOUS
 10
110.3905634573
 20
265.6432279536
 40
1.1
 50
72.1727145741
 51
180.0
  0
ARC
  8
0
 62
7
  6
CONTINUOUS
 10
121.2696560932
 20
258.7101938632
 40
37.563731
 50
187.5582718452
 51
196.4075976794
  0
ARC
  8
SURFACE
 62
7
  6
CONTINUOUS
 10
123.2462003216
 20
258.2336504508
 40
2.0
 50
193.5924023205
 51
269.9999975799
  0
ARC
  8
0
 62
7
  6
CONTINUOUS
 10
123.2462003216
 20
258.2336504508
 40
2.0
 50
193.5924023206
 51
270.0001213221
  0
ARC
  8
SURFACE
 62
7
  6
CONTINUOUS
 10
118.5852593852
 20
262.8936213557
 40
1.0
 50
22.4417276094
 51
69.4051156494
  0
ARC
  8
0
 62
7
  6
CONTINUOUS
 10
150.5327711216
 20
69.9016930553
 40
180.0
 50
77.827284982
 51
80.5948847648
  0
ARC
  8
0
 62
7
  6
CONTINUOUS
 10
130.7114708214
 20
77.5564910384
 40
37.563731
 50
7.5582718452
 51
16.4075976794
  0
ARC
  8
SURFACE
 62
7
  6
CONTINUOUS
 10
128.734926593
 20
78.0330344508
 40
2.0
 50
13.5924023205
 51
89.9999975799
  0
ARC
  8
0
 62
7
  6
CONTINUOUS
 10
128.734926593
 20
78.0330344508
 40
2.0
 50
13.5924023206
 51
90.0001213221
  0
ARC
  8
SURFACE
 62
7
  6
CONTINUOUS
 10
141.5905634573
 20
70.6234569479
 40
1.1
 50
252.1727145741
 51
360.0
  0
ARC
  8
SURFACE
 62
7
  6
CONTINUOUS
 10
133.3958675295
 20
73.3730635458
 40
1.0
 50
202.4417276094
 51
249.4051156494
  0
ARC
  8
0
 62
7
  6
CONTINUOUS
 10
149.7041490782
 20
79.6330344508
 40
0.3999998906
 50
89.9999373185
 51
119.9999457162
  0
ARC
  8
SURFACE
 62
7
  6
CONTINUOUS
 10
153.8522128528
 20
70.7911347865
 40
180.0
 50
129.4051152347
 51
132.1727150179
  0
ARC
  8
0
 62
7
  6
CONTINUOUS
 10
152.516877282
 20
71.788419169
 40
8.5
 50
29.9999277506
 51
75.9194689555
  0
ARC
  8
SURFACE
 62
7
  6
CONTINUOUS
 10
151.1905634573
 20
71.4330344508
 40
8.5
 50
134.0805310445
 51
180.0000732467
  0
ARC
  8
0
 62
7
  6
CONTINUOUS
 10
161.2355099097
 20
75.8873044852
 40
1.1
 50
210.0
 51
317.8272854192
  0
ARC
  8
SURFACE
 62
7
  6
CONTINUOUS
 10
167.1905634573
 20
87.3310344508
 40
37.563731
 50
193.5924023206
 51
202.4417281545
  0
ARC
  8
SURFACE
 62
7
  6
CONTINUOUS
 10
173.41740565
 20
91.4763684018
 40
2.0
 50
43.5924023205
 51
119.9999975799
  0
ARC
  8
0
 62
7
  6
CONTINUOUS
 10
168.6640292646
 20
88.7320052661
 40
2.0
 50
120.0
 51
196.4075976794
  0
ARC
  8
0
 62
7
  6
CONTINUOUS
 10
173.41740565
 20
91.4763684018
 40
2.0
 50
43.5924023206
 51
120.0001213221
  0
ARC
  8
0
 62
7
  6
CONTINUOUS
 10
166.9575214606
 20
82.3658816133
 40
1.0
 50
320.5948842628
 51
7.5582723771
  0
ARC
  8
CURVE
 62
40
  6
CONTINUOUS
 10
136.6282505267
 20
131.8191392494
 40
3.2
 50
93.5903778907
 51
135.0
  0
ARC
  8
CURVE
 62
40
  6
CONTINUOUS
 10
132.3856098396
 20
127.5764985622
 40
3.2
 50
135.0
 51
177.7455692247
  0
ARC
  8
CURVE
 62
40
  6
CONTINUOUS
 10
125.9905634573
 20
127.8282559231
 40
3.2
 50
182.2544307753
 51
357.7455692247
  0
ARC
  8
CURVE
 62
40
  6
CONTINUOUS
 10
166.5474073459
 20
161.7382960685
 40
3.2
 50
92.2544307753
 51
135.0
  0
ARC
  8
CURVE
 62
40
  6
CONTINUOUS
 10
162.3047666587
 20
157.4956553814
 40
3.2
 50
135.0
 51
176.4096221093
  0
ARC
  8
CURVE
 62
40
  6
CONTINUOUS
 10
155.9173281996
 20
157.8964420217
 40
3.2
 50
315.0
 51
356.4096221093
  0
ARC
  8
CURVE
 62
40
  6
CONTINUOUS
 10
136.2274638864
 20
138.2065777085
 40
3.2
 50
273.5903778907
 51
315.0
  0
ARC
  8
0
 62
7
  6
CONTINUOUS
 10
175.3674148697
 20
92.0519418148
 40
37.563731
 50
37.5582718452
 51
46.4075976794
  0
ARC
  8
SURFACE
 62
7
  6
CONTINUOUS
 10
188.2555025078
 20
91.4873044852
 40
1.1
 50
282.1727145741
 51
30.0
  0
ARC
  8
SURFACE
 62
7
  6
CONTINUOUS
 10
179.783884359
 20
89.7711856854
 40
1.0
 50
232.441727609
 51
279.4051156497
  0
ARC
  8
0
 62
7
  6
CONTINUOUS
 10
196.3605634573
 20
95.3333424508
 40
180.0
 50
107.827284982
 51
110.5948847648
  0
ARC
  8
SURFACE
 62
7
  6
CONTINUOUS
 10
198.7905634573
 20
97.7633424508
 40
180.0
 50
159.4051152347
 51
162.1727150179
  0
ARC
  8
0
 62
7
  6
CONTINUOUS
 10
197.1354867391
 20
97.9593482754
 40
8.5
 50
59.999927984
 51
105.9194689555
  0
ARC
  8
SURFACE
 62
7
  6
CONTINUOUS
 10
196.1645576327
 20
96.988419169
 40
8.5
 50
164.0805310445
 51
210.000073123
  0
ARC
  8
0
 62
7
  6
CONTINUOUS
 10
202.6366014229
 20
105.8684034003
 40
1.1
 50
240.0
 51
347.8272854191
  0
ARC
  8
0
 62
7
  6
CONTINUOUS
 10
204.3527202227
 20
114.3400215491
 40
1.0
 50
350.5948842633
 51
37.5582723772
  0
ARC
  8
0
 62
7
  6
CONTINUOUS
 10
190.7772850199
 20
103.3466202905
 40
0.3999998906
 50
119.9999373185
 51
149.9999457162
  0
ARC
  8
0
 62
7
  6
CONTINUOUS
 10
206.7928714573
 20
126.9333424508
 40
37.563731
 50
67.5582718452
 51
76.4075976794
  0
ARC
  8
SURFACE
 62
7
  6
CONTINUOUS
 10
202.0719640932
 20
118.7564910384
 40
37.563731
 50
223.5924023206
 51
232.4417281545
  0
ARC
  8
SURFACE
 62
7
  6
CONTINUOUS
 10
205.391900642
 20
125.4598766435
 40
2.0
 50
73.5924023205
 51
149.9999975799
  0
ARC
  8
0
 62
7
  6
CONTINUOUS
 10
202.6475375063
 20
120.7065002581
 40
2.0
 50
150.0
 51
226.4075976794
  0
ARC
  8
0
 62
7
  6
CONTINUOUS
 10
205.391900642
 20
125.4598766435
 40
2.0
 50
73.5924023206
 51
150.0001213221
  0
ARC
  8
SURFACE
 62
7
  6
CONTINUOUS
 10
211.7580242948
 20
127.1663844475
 40
1.0
 50
262.4417276092
 51
309.40511565
  0
ARC
  8
0
 62
7
  6
CONTINUOUS
 10
223.3327711216
 20
140.2716930553
 40
180.0
 50
137.827284982
 51
140.5948847648
  0
ARC
  8
SURFACE
 62
7
  6
CONTINUOUS
 10
222.3354867391
 20
141.6070286261
 40
8.5
 50
194.0805310445
 51
240.0000733704
  0
ARC
  8
SURFACE
 62
7
  6
CONTINUOUS
 10
218.2366014229
 20
132.8883959984
 40
1.1
 50
312.172714574
 51
60.0
  0
ARC
  8
SURFACE
 62
7
  6
CONTINUOUS
 10
224.2222128528
 20
143.5911347865
 40
180.0
 50
189.4051152347
 51
192.1727150179
  0
ARC
  8
SURFACE
 62
7
  6
CONTINUOUS
 10
216.5674148697
 20
163.4124350867
 40
37.563731
 50
253.5924023206
 51
262.4417281545
  0
ARC
  8
0
 62
7
  6
CONTINUOUS
 10
222.6908714573
 20
142.9333424508
 40
8.5
 50
89.9999278673
 51
135.9194689555
  0
ARC
  8
0
 62
7
  6
CONTINUOUS
 10
216.0908714573
 20
165.3889793151
 40
2.0
 50
180.0
 51
256.4075976794
  0
ARC
  8
0
 62
7
  6
CONTINUOUS
 10
223.5004489602
 20
152.5333424508
 40
1.1
 50
270.0
 51
17.8272854189
  0
ARC
  8
0
 62
7
  6
CONTINUOUS
 10
220.7508423623
 20
160.7280383786
 40
1.0
 50
20.5948842637
 51
67.5582723769
  0
ARC
  8
0
 62
7
  6
CONTINUOUS
 10
214.4908712385
 20
144.4197560133
 40
0.3999998906
 50
149.9999373185
 51
179.9999457162
  0
CIRCLE
  8
0
 62
7
  6
CONTINUOUS
 10
125.9905634573
 20
168.1333424508
 40
60.0
  0
CIRCLE
  8
0
 62
40
  6
CONTINUOUS
 10
125.9905634573
 20
168.1333424508
 40
9.525
  0
ARC
  8
CURVE
 62
40
  6
CONTINUOUS
 10
125.9905634573
 20
208.4384289784
 40
3.2
 50
2.2544307753
 51
177.7455692247
  0
ARC
  8
CURVE
 62
40
  6
CONTINUOUS
 10
132.3856098396
 20
208.6901863393
 40
3.2
 50
182.2544307753
 51
225.0
  0
ARC
  8
CURVE
 62
40
  6
CONTINUOUS
 10
136.6282505267
 20
204.4475456522
 40
3.2
 50
225.0
 51
266.4096221093
  0
ARC
  8
CURVE
 62
40
  6
CONTINUOUS
 10
136.2274638864
 20
198.0601071931
 40
3.2
 50
45.0
 51
86.4096221093
  0
ARC
  8
CURVE
 62
40
  6
CONTINUOUS
 10
155.9173281996
 20
178.3702428799
 40
3.2
 50
3.5903778907
 51
45.0
  0
ARC
  8
CURVE
 62
40
  6
CONTINUOUS
 10
162.3047666587
 20
178.7710295201
 40
3.2
 50
183.5903778907
 51
225.0
  0
ARC
  8
CURVE
 62
40
  6
CONTINUOUS
 10
166.5474073459
 20
174.528388833
 40
3.2
 50
225.0
 51
267.7455692247
  0
ARC
  8
CURVE
 62
40
  6
CONTINUOUS
 10
166.295649985
 20
168.1333424508
 40
3.2
 50
272.2544307753
 51
87.7455692247
  0
CIRCLE
  8
0
 62
7
  6
CONTINUOUS
 10
125.9905634573
 20
220.1333424508
 40
1.6454482672
  0
ARC
  8
SURFACE
 62
7
  6
CONTINUOUS
 10
130.7114708214
 20
258.7101938632
 40
37.563731
 50
343.5924023206
 51
352.4417281545
  0
ARC
  8
0
 62
7
  6
CONTINUOUS
 10
128.734926593
 20
258.2336504508
 40
2.0
 50
270.0
 51
346.4075976794
  0
ARC
  8
0
 62
7
  6
CONTINUOUS
 10
141.5905634573
 20
265.6432279536
 40
1.1
 50
0.0
 51
107.8272854187
  0
ARC
  8
0
 62
7
  6
CONTINUOUS
 10
133.3958675295
 20
262.8936213557
 40
1.0
 50
110.5948842645
 51
157.5582723769
  0
ARC
  8
0
 62
7
  6
CONTINUOUS
 10
153.8522128528
 20
265.4755501151
 40
180.0
 50
227.827284982
 51
230.5948847648
  0
ARC
  8
SURFACE
 62
7
  6
CONTINUOUS
 10
150.5327711216
 20
266.3649918463
 40
180.0
 50
279.4051152347
 51
282.1727150179
  0
ARC
  8
0
 62
7
  6
CONTINUOUS
 10
151.1905634573
 20
264.8336504508
 40
8.5
 50
179.9999278673
 51
225.9194689555
  0
ARC
  8
SURFACE
 62
7
  6
CONTINUOUS
 10
152.516877282
 20
264.4782657325
 40
8.5
 50
284.0805310445
 51
330.0000733704
  0
ARC
  8
SURFACE
 62
7
  6
CONTINUOUS
 10
161.2355099097
 20
260.3793804164
 40
1.1
 50
42.1727145736
 51
150.0
  0
ARC
  8
0
 62
7
  6
CONTINUOUS
 10
149.7041498948
 20
256.633650232
 40
0.3999998906
 50
239.9999373185
 51
269.9999457162
  0
ARC
  8
0
 62
7
  6
CONTINUOUS
 10
167.1905634573
 20
248.9356504508
 40
37.563731
 50
157.5582718452
 51
166.4075976794
  0
ARC
  8
SURFACE
 62
7
  6
CONTINUOUS
 10
168.6640292646
 20
247.5346796354
 40
2.0
 50
163.5924023205
 51
239.9999975799
  0
ARC
  8
0
 62
7
  6
CONTINUOUS
 10
173.41740565
 20
244.7903164997
 40
2.0
 50
240.0
 51
316.4075976794
  0
ARC
  8
0
 62
7
  6
CONTINUOUS
 10
168.6640292646
 20
247.5346796354
 40
2.0
 50
163.5924023206
 51
240.0001213221
  0
ARC
  8
SURFACE
 62
7
  6
CONTINUOUS
 10
166.9575214606
 20
253.9008032882
 40
1.0
 50
352.4417276092
 51
39.4051156511
  0
ARC
  8
SURFACE
 62
7
  6
CONTINUOUS
 10
206.7928714573
 20
209.3333424508
 40
37.563731
 50
283.5924023206
 51
292.4417281545
  0
ARC
  8
SURFACE
 62
7
  6
CONTINUOUS
 10
202.6475375063
 20
215.5601846435
 40
2.0
 50
133.5924023205
 51
209.9999975799
  0
ARC
  8
0
 62
7
  6
CONTINUOUS
 10
205.391900642
 20
210.8068082581
 40
2.0
 50
210.0
 51
286.4075976794
  0
ARC
  8
0
 62
7
  6
CONTINUOUS
 10
202.6475375063
 20
215.5601846435
 40
2.0
 50
133.5924023206
 51
210.0001213221
  0
ARC
  8
0
 62
7
  6
CONTINUOUS
 10
211.7580242948
 20
209.100300454
 40
1.0
 50
50.5948842639
 51
97.5582723771
  0
ARC
  8
0
 62
7
  6
CONTINUOUS
 10
224.2222128528
 20
192.6755501151
 40
180.0
 50
167.827284982
 51
170.5948847648
  0
ARC
  8
0
 62
7
  6
CONTINUOUS
 10
216.5674148697
 20
172.8542498148
 40
37.563731
 50
97.5582718452
 51
106.4075976794
  0
ARC
  8
SURFACE
 62
7
  6
CONTINUOUS
 10
216.0908714573
 20
170.8777055864
 40
2.0
 50
103.5924023205
 51
179.9999975799
  0
ARC
  8
0
 62
7
  6
CONTINUOUS
 10
216.0908714573
 20
170.8777055864
 40
2.0
 50
103.5924023206
 51
180.0001213221
  0
ARC
  8
SURFACE
 62
7
  6
CONTINUOUS
 10
223.5004489602
 20
183.7333424508
 40
1.1
 50
342.1727145738
 51
90.0
  0
ARC
  8
SURFACE
 62
7
  6
CONTINUOUS
 10
220.7508423623
 20
175.5386465229
 40
1.0
 50
292.4417276094
 51
339.4051156503
  0
ARC
  8
0
 62
7
  6
CONTINUOUS
 10
214.4908714573
 20
191.8469283192
 40
0.3999999525
 50
179.9999727792
 51
209.9999764261
  0
ARC
  8
SURFACE
 62
7
  6
CONTINUOUS
 10
223.3327711216
 20
195.9949918463
 40
180.0
 50
219.4051152347
 51
222.1727150179
  0
ARC
  8
0
 62
7
  6
CONTINUOUS
 10
222.3354867391
 20
194.6596562754
 40
8.5
 50
119.9999277506
 51
165.9194689555
  0
ARC
  8
SURFACE
 62
7
  6
CONTINUOUS
 10
222.6908714573
 20
193.3333424508
 40
8.5
 50
224.0805310445
 51
270.0000732467
  0
ARC
  8
0
 62
7
  6
CONTINUOUS
 10
218.2366014229
 20
203.3782889032
 40
1.1
 50
300.0
 51
47.8272854188
  0
ARC
  8
SURFACE
 62
7
  6
CONTINUOUS
 10
175.3674148697
 20
244.2147430867
 40
37.563731
 50
313.5924023206
 51
322.4417281549
  0
ARC
  8
0
 62
7
  6
CONTINUOUS
 10
188.2555025078
 20
244.7793804164
 40
1.1
 50
330.0
 51
77.8272854187
  0
ARC
  8
0
 62
7
  6
CONTINUOUS
 10
179.783884359
 20
246.4954992161
 40
1.0
 50
80.5948842642
 51
127.5582723772
  0
ARC
  8
0
 62
7
  6
CONTINUOUS
 10
202.0719640932
 20
217.5101938632
 40
37.563731
 50
127.5582718452
 51
136.4075976794
  0
ARC
  8
SURFACE
 62
7
  6
CONTINUOUS
 10
202.6366014229
 20
230.3982815012
 40
1.1
 50
12.1727145809
 51
120.0
  0
ARC
  8
SURFACE
 62
7
  6
CONTINUOUS
 10
204.3527202227
 20
221.9266633525
 40
1.0
 50
322.4417276238
 51
9.4051157342
  0
ARC
  8
0
 62
7
  6
CONTINUOUS
 10
198.7905634573
 20
238.5033424508
 40
180.0
 50
197.827284982
 51
200.5948847648
  0
ARC
  8
SURFACE
 62
7
  6
CONTINUOUS
 10
196.3605634573
 20
240.9333424508
 40
180.0
 50
249.4051152347
 51
252.1727150179
  0
ARC
  8
0
 62
7
  6
CONTINUOUS
 10
196.1645576327
 20
239.2782657325
 40
8.5
 50
149.999927984
 51
195.9194689555
  0
ARC
  8
SURFACE
 62
7
  6
CONTINUOUS
 10
197.1354867391
 20
238.3073366261
 40
8.5
 50
254.0805310445
 51
300.0000720191
  0
ARC
  8
0
 62
7
  6
CONTINUOUS
 10
190.7772856176
 20
232.9200640133
 40
0.3999998906
 50
209.9999373185
 51
239.9999457162
  0
ARC
  8
SURFACE
 62
7
  6
CONTINUOUS
 10
313.3511761488
 20
234.1333424508
 40
6.0
 50
270.0
 51
270.955672405
  0
ARC
  8
SURFACE
 62
7
  6
CONTINUOUS
 10
313.3511761488
 20
102.1333424508
 40
6.0
 50
89.044327595
 51
90.0
  0
ARC
  8
0
 62
7
  6
CONTINUOUS
 10
331.3511761488
 20
102.1333424508
 40
6.0
 50
90.0
 51
90.955672405
  0
ARC
  8
0
 62
7
  6
CONTINUOUS
 10
331.3511761488
 20
234.1333424508
 40
6.0
 50
269.044327595
 51
270.0
  0
ARC
  8
SURFACE
 62
7
  6
CONTINUOUS
 10
304.2011761488
 20
225.1333424508
 40
3.0
 50
90.0
 51
180.0000000008
  0
ARC
  8
SURFACE
 62
7
  6
CONTINUOUS
 10
304.2011761488
 20
111.1333424508
 40
3.0
 50
179.9999999992
 51
270.0
  0
ARC
  8
0
 62
7
  6
CONTINUOUS
 10
340.5011761488
 20
111.1333424508
 40
3.0
 50
270.0
 51
360.0
  0
ARC
  8
0
 62
7
  6
CONTINUOUS
 10
340.5011761488
 20
225.1333424508
 40
3.0
 50
0.0
 51
90.0
  0
ENDSEC
  0
EOF
