  0
SECTION
  2
HEADER
  9
$EXTMAX
 10
210.0
 20
297.0
 30
0.0
  9
$EXTMIN
 10
0.0
 20
0.0
 30
0.0
  9
$LIMMIN
 10
0.0
 20
0.0
  9
$LIMMAX
 10
210.0
 20
297.0
  9
$VIEWCTR
 10
105.0
 20
148.5
  9
$VIEWSIZE
 40
297.0
  9
$CLAYER
  8
0
  9
$LTSCALE
 40
19.36
  9
$CELTYPE
  6
BYLAYER
  9
$DIMSCALE
 40
1.0
  9
$DIMASZ
 40
3.5
  9
$DIMEXO
 40
2.2
  9
$DIMDLI
 40
13.376
  9
$DIMEXE
 40
6.336
  9
$DIMCEN
 40
3.168
  9
$DIMLFAC
 40
1.0
  9
$DIMBLK
  1
_FILLED
  9
$DIMTXT
 40
3.5
  9
$PDMODE
 70
3
  9
$PDSIZE
 40
0.3125
  9
$TILEMODE
 70
1
  0
ENDSEC
  0
SECTION
  2
TABLES
  0
TABLE
  2
LTYPE
 70
6
  0
LTYPE
  2
BYBLOCK
 70
0
  3

 72
65
 73
0
 40
0.0
  0
LTYPE
  2
BYLAYER
 70
0
  3

 72
65
 73
0
 40
0.0
  0
LTYPE
  2
CONTINUOUS
 70
64
  3
Solid line
 72
65
 73
0
 40
0.0
  0
LTYPE
  2
CENTER
 70
64
  3
____ _ ____ _ ____ _ ____ _ ____ _ ____ _ ____
 72
65
 73
4
 40
0.6
 49
0.375
 49
-0.075
 49
0.075
 49
-0.075
  0
LTYPE
  2
HIDDEN
 70
64
  3
- - - - - - - - - - - - - - - - - - - -
 72
65
 73
2
 40
0.2
 49
0.1
 49
-0.1
  0
LTYPE
  2
PHANTOM
 70
64
  3
_____ _ _ _____ _ _ _____ _ _ _____
 72
65
 73
6
 40
0.8
 49
0.45
 49
-0.05
 49
0.1
 49
-0.05
 49
0.1
 49
-0.05
  0
LTYPE
  2
DOT
 70
64
  3
. . . . . . . . . . . . . . . . . . . .
 72
65
 73
2
 40
0.2
 49
0.1
 49
-0.1
  0
LTYPE
  2
DASHED
 70
64
  3
- - - - - - - - - - - - - - - - - - - -
 72
65
 73
2
 40
0.2
 49
0.1
 49
-0.1
  0
ENDTAB
  0
TABLE
  2
LAYER
 70
36
  0
LAYER
  2
0
 70
0
 62
7
  6
CONTINUOUS
  0
LAYER
  2
DEFAULT_1
 70
0
 62
7
  6
CENTER
  0
LAYER
  2
DEFAULT_2
 70
0
 62
8
  6
HIDDEN
  0
LAYER
  2
DEFAULT_3
 70
0
 62
7
  6
PHANTOM
  0
LAYER
  2
CURVE
 70
0
 62
7
  6
CONTINUOUS
  0
LAYER
  2
SURFACE
 70
0
 62
7
  6
CONTINUOUS
  0
ENDTAB
  0
TABLE
  2
STYLE
 70
1
  0
STYLE
  2
STANDARD
 70
0
 40
0.0
 41
0.8
 50
0.0
 71
0
 42
0.2
  3
txt
  4

  0
STYLE
  2
TEXTSTYLE_1
 70
0
 40
0.0
 41
0.8
 50
0.0
 71
0
 42
0.2
  3
gdt
  4

  0
STYLE
  2
TEXTSTYLE_2
 70
0
 40
0.0
 41
0.6
 50
0.0
 71
0
 42
0.2
  3
txt
  4

  0
STYLE
  2
TEXTSTYLE_3
 70
0
 40
0.0
 41
1.0
 50
0.0
 71
0
 42
0.2
  3
ftb_____.ttf
  4

  0
STYLE
  2
TEXTSTYLE_4
 70
0
 40
0.0
 41
1.0
 50
0.0
 71
0
 42
0.2
  3
fti_____.ttf
  4

  0
STYLE
  2
TEXTSTYLE_5
 70
0
 40
0.0
 41
1.0
 50
0.0
 71
0
 42
0.2
  3
frutiger light.ttf
  4

  0
STYLE
  2
TEXTSTYLE_6
 70
0
 40
0.0
 41
0.7
 50
0.0
 71
0
 42
0.2
  3
txt
  4

  0
STYLE
  2
TEXTSTYLE_7
 70
0
 40
0.0
 41
0.8
 50
0.0
 71
0
 42
0.2
  3
txt
  4

  0
ENDTAB
  0
ENDSEC
  0
SECTION
  2
BLOCKS
  0
BLOCK
  8
0
 62
2
  6
CONTINUOUS
  2
SYMBOL_8_BL1
 70
64
 10
173.5956734183
 20
35.5937998301
  0
TEXT
  8
0
 62
7
  6
CONTINUOUS
 10
164.6539584268
 20
30.6865562072
  7
TEXTSTYLE_4
 40
1.0655737705
  1
The brand for plastic modular belts and chains
 41
1.0
 72
0
  0
LINE
  8
0
 62
7
  6
CONTINUOUS
 10
149.5737418074
 20
36.1675703219
 11
149.5737418074
 21
34.0364227809
  0
LINE
  8
0
 62
7
  6
CONTINUOUS
 10
149.8628043005
 20
31.0454914852
 11
149.8628043005
 21
31.1422825445
  0
LINE
  8
0
 62
7
  6
CONTINUOUS
 10
149.5737418074
 20
31.1100188581
 11
149.6315543091
 21
30.9164367395
  0
LINE
  8
0
 62
7
  6
CONTINUOUS
 10
150.9671844304
 20
33.9544555678
 11
150.9671844304
 21
36.1675703219
  0
LINE
  8
0
 62
7
  6
CONTINUOUS
 10
151.8862417523
 20
32.1101932727
 11
151.8862417523
 21
30.5937998301
  0
LINE
  8
0
 62
7
  6
CONTINUOUS
 10
152.1753043074
 20
30.5937998301
 11
152.1753043074
 21
31.3358647082
  0
LINE
  8
0
 62
7
  6
CONTINUOUS
 10
152.1753043074
 20
31.4649194539
 11
152.1753043074
 21
32.1101932727
  0
LINE
  8
0
 62
7
  6
CONTINUOUS
 10
149.6315543091
 20
31.3036010218
 11
149.5737418074
 21
31.1100188581
  0
LINE
  8
0
 62
7
  6
CONTINUOUS
 10
149.9784292936
 20
30.8841730531
 11
149.8628043005
 21
31.0454914852
  0
LINE
  8
0
 62
7
  6
CONTINUOUS
 10
151.0768668626
 20
31.400392081
 11
151.1346793074
 21
31.3036010218
  0
LINE
  8
0
 62
7
  6
CONTINUOUS
 10
151.4237418626
 20
31.3036010218
 11
151.3659292523
 21
31.4326557675
  0
LINE
  8
0
 62
7
  6
CONTINUOUS
 10
152.852430332
 20
36.1675703219
 11
152.852430332
 21
34.3642916334
  0
LINE
  8
0
 62
7
  6
CONTINUOUS
 10
152.852430332
 20
33.0528162235
 11
152.852430332
 21
32.3970785186
  0
LINE
  8
0
 62
7
  6
CONTINUOUS
 10
153.2159293074
 20
31.2390736489
 11
153.2159293074
 21
30.5937998301
  0
LINE
  8
0
 62
7
  6
CONTINUOUS
 10
153.5049916972
 20
30.5937998301
 11
153.5049916972
 21
31.2390736489
  0
LINE
  8
0
 62
7
  6
CONTINUOUS
 10
149.8628043005
 20
31.1422825445
 11
149.9206168074
 21
31.2713373354
  0
LINE
  8
0
 62
7
  6
CONTINUOUS
 10
149.6315543091
 20
30.9164367395
 11
149.7471793074
 21
30.7873819712
  0
LINE
  8
0
 62
7
  6
CONTINUOUS
 10
153.1581166972
 20
31.3681283946
 11
153.2159293074
 21
31.2390736489
  0
LINE
  8
0
 62
7
  6
CONTINUOUS
 10
153.9674919177
 20
30.8841730531
 11
154.0253041972
 21
30.7551182848
  0
LINE
  8
0
 62
7
  6
CONTINUOUS
 10
153.5049916972
 20
31.2390736489
 11
153.4471794177
 21
31.400392081
  0
LINE
  8
0
 62
7
  6
CONTINUOUS
 10
153.9674919177
 20
31.4326557675
 11
153.9674919177
 21
31.3681283946
  0
LINE
  8
0
 62
7
  6
CONTINUOUS
 10
153.9674919177
 20
30.9809641124
 11
153.9674919177
 21
30.8841730531
  0
LINE
  8
0
 62
7
  6
CONTINUOUS
 10
154.245872955
 20
32.3970785186
 11
154.245872955
 21
36.1675703219
  0
LINE
  8
0
 62
7
  6
CONTINUOUS
 10
154.2565543074
 20
30.8519093441
 11
154.2565543074
 21
30.9164367395
  0
LINE
  8
0
 62
7
  6
CONTINUOUS
 10
154.5737418074
 20
36.1675703219
 11
154.5737418074
 21
32.3970785186
  0
LINE
  8
0
 62
7
  6
CONTINUOUS
 10
151.3659292523
 20
30.7873819712
 11
151.4237418626
 21
30.9164367395
  0
LINE
  8
0
 62
7
  6
CONTINUOUS
 10
155.759679528
 20
30.6905909007
 11
155.7018665869
 21
30.8519093441
  0
LINE
  8
0
 62
7
  6
CONTINUOUS
 10
155.412804528
 20
31.3681283946
 11
155.412804528
 21
31.2713373354
  0
LINE
  8
0
 62
7
  6
CONTINUOUS
 10
155.412804528
 20
31.1422825445
 11
155.412804528
 21
30.9487004259
  0
LINE
  8
0
 62
7
  6
CONTINUOUS
 10
155.7018665869
 20
30.8519093441
 11
155.7018665869
 21
31.3681283946
  0
LINE
  8
0
 62
7
  6
CONTINUOUS
 10
155.9671844304
 20
32.3970785186
 11
155.9671844304
 21
34.2003572071
  0
LINE
  8
0
 62
7
  6
CONTINUOUS
 10
155.9671844304
 20
35.511832617
 11
155.9671844304
 21
36.1675703219
  0
LINE
  8
0
 62
7
  6
CONTINUOUS
 10
156.279992028
 20
32.1101932727
 11
156.279992028
 21
31.9488748406
  0
LINE
  8
0
 62
7
  6
CONTINUOUS
 10
156.279992028
 20
31.626237886
 11
156.279992028
 21
30.5937998301
  0
LINE
  8
0
 62
7
  6
CONTINUOUS
 10
156.5690540869
 20
30.5937998301
 11
156.5690540869
 21
31.626237886
  0
LINE
  8
0
 62
7
  6
CONTINUOUS
 10
156.5690540869
 20
31.9488748406
 11
156.5690540869
 21
32.1101932727
  0
LINE
  8
0
 62
7
  6
CONTINUOUS
 10
151.1346793074
 20
30.9164367395
 11
151.0768668626
 21
30.8196456577
  0
LINE
  8
0
 62
7
  6
CONTINUOUS
 10
153.4471794177
 20
31.400392081
 11
153.3893668074
 21
31.4649194539
  0
LINE
  8
0
 62
7
  6
CONTINUOUS
 10
154.3143669177
 20
30.7873819712
 11
154.2565543074
 21
30.8519093441
  0
LINE
  8
0
 62
7
  6
CONTINUOUS
 10
155.4706168074
 20
30.6583272086
 11
155.5284290869
 21
30.5937998301
  0
LINE
  8
0
 62
7
  6
CONTINUOUS
 10
155.412804528
 20
30.7551182848
 11
155.4706168074
 21
30.6583272086
  0
LINE
  8
0
 62
7
  6
CONTINUOUS
 10
155.8174918074
 20
30.5937998301
 11
155.759679528
 21
30.6905909007
  0
LINE
  8
0
 62
7
  6
CONTINUOUS
 10
155.7018665869
 20
31.3681283946
 11
155.6440543074
 21
31.4649194539
  0
LINE
  8
0
 62
7
  6
CONTINUOUS
 10
157.0315543074
 20
31.626237886
 11
157.0315543074
 21
30.5937998301
  0
LINE
  8
0
 62
7
  6
CONTINUOUS
 10
157.320617028
 20
30.5937998301
 11
157.320617028
 21
31.3358647082
  0
LINE
  8
0
 62
7
  6
CONTINUOUS
 10
157.320617028
 20
31.4649194539
 11
157.320617028
 21
31.626237886
  0
LINE
  8
0
 62
7
  6
CONTINUOUS
 10
157.852430332
 20
34.6101932727
 11
157.852430332
 21
32.3970785186
  0
LINE
  8
0
 62
7
  6
CONTINUOUS
 10
149.7471793074
 20
31.4326557675
 11
149.6315543091
 21
31.3036010218
  0
LINE
  8
0
 62
7
  6
CONTINUOUS
 10
149.9206168074
 20
31.2713373354
 11
149.9784292936
 21
31.3358647082
  0
LINE
  8
0
 62
7
  6
CONTINUOUS
 10
149.7471793074
 20
30.7873819712
 11
149.8628043005
 21
30.7228545871
  0
LINE
  8
0
 62
7
  6
CONTINUOUS
 10
150.1518667936
 20
30.7873819712
 11
149.9784292936
 21
30.8841730531
  0
LINE
  8
0
 62
7
  6
CONTINUOUS
 10
155.3549915869
 20
31.4326557675
 11
155.412804528
 21
31.3681283946
  0
LINE
  8
0
 62
7
  6
CONTINUOUS
 10
158.3034290869
 20
31.3681283946
 11
158.361242028
 21
31.2068099625
  0
LINE
  8
0
 62
7
  6
CONTINUOUS
 10
158.6503040869
 20
31.2068099625
 11
158.5924918074
 21
31.3681283946
  0
LINE
  8
0
 62
7
  6
CONTINUOUS
 10
158.361242028
 20
31.2068099625
 11
158.361242028
 21
30.5937998301
  0
LINE
  8
0
 62
7
  6
CONTINUOUS
 10
158.6503040869
 20
30.5937998301
 11
158.6503040869
 21
31.2068099625
  0
LINE
  8
0
 62
7
  6
CONTINUOUS
 10
159.1128043074
 20
31.4326557675
 11
159.1128043074
 21
31.3681283946
  0
LINE
  8
0
 62
7
  6
CONTINUOUS
 10
159.245872955
 20
32.3970785186
 11
159.245872955
 21
34.5282260596
  0
LINE
  8
0
 62
7
  6
CONTINUOUS
 10
159.5737418074
 20
36.1675703219
 11
159.5737418074
 21
32.3970785186
  0
LINE
  8
0
 62
7
  6
CONTINUOUS
 10
154.2565543074
 20
30.9164367395
 11
154.3143669177
 21
31.0132277988
  0
LINE
  8
0
 62
7
  6
CONTINUOUS
 10
149.8628043005
 20
30.7228545871
 11
150.0362418212
 21
30.6583272086
  0
LINE
  8
0
 62
7
  6
CONTINUOUS
 10
151.3659292523
 20
31.4326557675
 11
151.1924917523
 21
31.5294468267
  0
LINE
  8
0
 62
7
  6
CONTINUOUS
 10
154.0253041972
 20
30.7551182848
 11
154.1987416972
 21
30.6583272086
  0
LINE
  8
0
 62
7
  6
CONTINUOUS
 10
153.0424918074
 20
31.4326557675
 11
153.1581166972
 21
31.3681283946
  0
LINE
  8
0
 62
7
  6
CONTINUOUS
 10
153.3893668074
 20
31.4649194539
 11
153.2737419177
 21
31.5294468267
  0
LINE
  8
0
 62
7
  6
CONTINUOUS
 10
159.1128043074
 20
30.8519093441
 11
159.228429528
 21
30.7228545871
  0
LINE
  8
0
 62
7
  6
CONTINUOUS
 10
159.4596793074
 20
30.7873819712
 11
159.401867028
 21
30.8519093441
  0
LINE
  8
0
 62
7
  6
CONTINUOUS
 10
159.1128043074
 20
31.3681283946
 11
159.228429528
 21
31.2390736489
  0
LINE
  8
0
 62
7
  6
CONTINUOUS
 10
158.5924918074
 20
31.3681283946
 11
158.534679528
 21
31.4649194539
  0
LINE
  8
0
 62
7
  6
CONTINUOUS
 10
160.9628038663
 20
30.7873819712
 11
160.9628038663
 21
30.8519093441
  0
LINE
  8
0
 62
7
  6
CONTINUOUS
 10
160.9671844304
 20
32.3970785186
 11
160.9671844304
 21
36.1675703219
  0
LINE
  8
0
 62
7
  6
CONTINUOUS
 10
154.0253041972
 20
31.4971831403
 11
153.9674919177
 21
31.4326557675
  0
LINE
  8
0
 62
7
  6
CONTINUOUS
 10
150.9034292799
 20
31.4649194539
 11
151.0768668626
 21
31.400392081
  0
LINE
  8
0
 62
7
  6
CONTINUOUS
 10
155.6440543074
 20
31.4649194539
 11
155.5284290869
 21
31.5294468267
  0
LINE
  8
0
 62
7
  6
CONTINUOUS
 10
159.4596793074
 20
31.3036010218
 11
159.401867028
 21
31.3681283946
  0
LINE
  8
0
 62
7
  6
CONTINUOUS
 10
160.615929528
 20
30.9164367395
 11
160.6737418074
 21
30.8519093441
  0
LINE
  8
0
 62
7
  6
CONTINUOUS
 10
160.9628038663
 20
30.8519093441
 11
160.8471793074
 21
30.9809641124
  0
LINE
  8
0
 62
7
  6
CONTINUOUS
 10
160.615929528
 20
31.4326557675
 11
160.6737418074
 21
31.3681283946
  0
LINE
  8
0
 62
7
  6
CONTINUOUS
 10
160.9628038663
 20
31.3681283946
 11
160.8471793074
 21
31.4971831403
  0
LINE
  8
0
 62
7
  6
CONTINUOUS
 10
154.2565543074
 20
31.3681283946
 11
154.3143669177
 21
31.4326557675
  0
LINE
  8
0
 62
7
  6
CONTINUOUS
 10
154.0831168074
 20
31.1100188581
 11
153.9674919177
 21
30.9809641124
  0
LINE
  8
0
 62
7
  6
CONTINUOUS
 10
155.412804528
 20
30.9487004259
 11
155.3549915869
 21
30.8841730531
  0
LINE
  8
0
 62
7
  6
CONTINUOUS
 10
155.3549915869
 20
30.6905909007
 11
155.412804528
 21
30.7551182848
  0
LINE
  8
0
 62
7
  6
CONTINUOUS
 10
154.1987416972
 20
30.6583272086
 11
154.3143669177
 21
30.6260635193
  0
LINE
  8
0
 62
7
  6
CONTINUOUS
 10
151.1924917523
 20
31.5294468267
 11
150.9612418074
 21
31.5939741996
  0
LINE
  8
0
 62
7
  6
CONTINUOUS
 10
154.5456166972
 20
30.7228545871
 11
154.3143669177
 21
30.7873819712
  0
LINE
  8
0
 62
7
  6
CONTINUOUS
 10
153.2737419177
 20
31.5294468267
 11
153.1003044177
 21
31.5939741996
  0
LINE
  8
0
 62
7
  6
CONTINUOUS
 10
155.5284290869
 20
31.5294468267
 11
155.3549915869
 21
31.5939741996
  0
LINE
  8
0
 62
7
  6
CONTINUOUS
 10
158.187804528
 20
31.4326557675
 11
158.3034290869
 21
31.3681283946
  0
LINE
  8
0
 62
7
  6
CONTINUOUS
 10
158.534679528
 20
31.4649194539
 11
158.4190543074
 21
31.5294468267
  0
LINE
  8
0
 62
7
  6
CONTINUOUS
 10
150.0362418212
 20
30.6583272086
 11
150.2096793212
 21
30.6260635193
  0
LINE
  8
0
 62
7
  6
CONTINUOUS
 10
150.498741835
 20
30.7228545871
 11
150.1518667936
 21
30.7873819712
  0
LINE
  8
0
 62
7
  6
CONTINUOUS
 10
152.9268669177
 20
31.4649194539
 11
153.0424918074
 21
31.4326557675
  0
LINE
  8
0
 62
7
  6
CONTINUOUS
 10
155.239367028
 20
31.4649194539
 11
155.3549915869
 21
31.4326557675
  0
LINE
  8
0
 62
7
  6
CONTINUOUS
 10
159.575304528
 20
30.7551182848
 11
159.4596793074
 21
30.7873819712
  0
LINE
  8
0
 62
7
  6
CONTINUOUS
 10
158.0721793074
 20
31.4649194539
 11
158.187804528
 21
31.4326557675
  0
LINE
  8
0
 62
7
  6
CONTINUOUS
 10
159.228429528
 20
30.7228545871
 11
159.401867028
 21
30.6583272086
  0
LINE
  8
0
 62
7
  6
CONTINUOUS
 10
158.4190543074
 20
31.5294468267
 11
158.2456168074
 21
31.5939741996
  0
LINE
  8
0
 62
7
  6
CONTINUOUS
 10
159.6331168074
 20
31.2390736489
 11
159.4596793074
 21
31.3036010218
  0
LINE
  8
0
 62
7
  6
CONTINUOUS
 10
160.442492028
 20
30.9809641124
 11
160.615929528
 21
30.9164367395
  0
LINE
  8
0
 62
7
  6
CONTINUOUS
 10
160.8471793074
 20
31.4971831403
 11
160.6737418074
 21
31.5617105132
  0
LINE
  8
0
 62
7
  6
CONTINUOUS
 10
159.228429528
 20
31.2390736489
 11
159.4596793074
 21
31.1422825445
  0
LINE
  8
0
 62
7
  6
CONTINUOUS
 10
160.8471793074
 20
30.9809641124
 11
160.615929528
 21
31.0777551716
  0
LINE
  8
0
 62
7
  6
CONTINUOUS
 10
159.401867028
 20
31.3681283946
 11
159.4596793074
 21
31.4326557675
  0
LINE
  8
0
 62
7
  6
CONTINUOUS
 10
149.8628043005
 20
31.4971831403
 11
149.7471793074
 21
31.4326557675
  0
LINE
  8
0
 62
7
  6
CONTINUOUS
 10
149.9784292936
 20
31.3358647082
 11
150.1518667936
 21
31.4326557675
  0
LINE
  8
0
 62
7
  6
CONTINUOUS
 10
152.2909293626
 20
31.5294468267
 11
152.1753043074
 21
31.4649194539
  0
LINE
  8
0
 62
7
  6
CONTINUOUS
 10
152.1753043074
 20
31.3358647082
 11
152.2909293626
 21
31.400392081
  0
LINE
  8
0
 62
7
  6
CONTINUOUS
 10
151.1924917523
 20
30.6905909007
 11
151.3659292523
 21
30.7873819712
  0
LINE
  8
0
 62
7
  6
CONTINUOUS
 10
150.2096793212
 20
30.6260635193
 11
150.5565542799
 21
30.5937998301
  0
LINE
  8
0
 62
7
  6
CONTINUOUS
 10
154.3143669177
 20
30.6260635193
 11
154.5456166972
 21
30.5937998301
  0
LINE
  8
0
 62
7
  6
CONTINUOUS
 10
152.6956168074
 20
31.4971831403
 11
152.9268669177
 21
31.4649194539
  0
LINE
  8
0
 62
7
  6
CONTINUOUS
 10
155.0081169177
 20
31.4971831403
 11
155.239367028
 21
31.4649194539
  0
LINE
  8
0
 62
7
  6
CONTINUOUS
 10
159.4596793074
 20
31.1422825445
 11
160.442492028
 21
30.9809641124
  0
LINE
  8
0
 62
7
  6
CONTINUOUS
 10
160.615929528
 20
31.0777551716
 11
159.6331168074
 21
31.2390736489
  0
LINE
  8
0
 62
7
  6
CONTINUOUS
 10
153.1003044177
 20
31.5939741996
 11
152.9268669177
 21
31.626237886
  0
LINE
  8
0
 62
7
  6
CONTINUOUS
 10
159.401867028
 20
30.6583272086
 11
159.575304528
 21
30.6260635193
  0
LINE
  8
0
 62
7
  6
CONTINUOUS
 10
158.2456168074
 20
31.5939741996
 11
158.0721793074
 21
31.626237886
  0
LINE
  8
0
 62
7
  6
CONTINUOUS
 10
160.5003043074
 20
31.4649194539
 11
160.615929528
 21
31.4326557675
  0
LINE
  8
0
 62
7
  6
CONTINUOUS
 10
160.6737418074
 20
30.8519093441
 11
160.615929528
 21
30.7873819712
  0
LINE
  8
0
 62
7
  6
CONTINUOUS
 10
159.228429528
 20
31.5294468267
 11
159.1128043074
 21
31.4326557675
  0
LINE
  8
0
 62
7
  6
CONTINUOUS
 10
154.1409294177
 20
31.5617105132
 11
154.0253041972
 21
31.4971831403
  0
LINE
  8
0
 62
7
  6
CONTINUOUS
 10
154.1987416972
 20
31.1745462761
 11
154.0831168074
 21
31.1100188581
  0
LINE
  8
0
 62
7
  6
CONTINUOUS
 10
154.3143669177
 20
31.0132277988
 11
154.4299918074
 21
31.0777551716
  0
LINE
  8
0
 62
7
  6
CONTINUOUS
 10
151.8862417523
 20
30.5937998301
 11
152.1753043074
 21
30.5937998301
  0
LINE
  8
0
 62
7
  6
CONTINUOUS
 10
153.2159293074
 20
30.5937998301
 11
153.5049916972
 21
30.5937998301
  0
LINE
  8
0
 62
7
  6
CONTINUOUS
 10
154.5456166972
 20
30.5937998301
 11
154.8924916972
 21
30.5937998301
  0
LINE
  8
0
 62
7
  6
CONTINUOUS
 10
155.5284290869
 20
30.5937998301
 11
155.8174918074
 21
30.5937998301
  0
LINE
  8
0
 62
7
  6
CONTINUOUS
 10
156.279992028
 20
30.5937998301
 11
156.5690540869
 21
30.5937998301
  0
LINE
  8
0
 62
7
  6
CONTINUOUS
 10
157.0315543074
 20
30.5937998301
 11
157.320617028
 21
30.5937998301
  0
LINE
  8
0
 62
7
  6
CONTINUOUS
 10
158.361242028
 20
30.5937998301
 11
158.6503040869
 21
30.5937998301
  0
LINE
  8
0
 62
7
  6
CONTINUOUS
 10
159.922179528
 20
30.5937998301
 11
160.269054528
 21
30.5937998301
  0
LINE
  8
0
 62
7
  6
CONTINUOUS
 10
160.269054528
 20
30.7228545871
 11
159.922179528
 21
30.7228545871
  0
LINE
  8
0
 62
7
  6
CONTINUOUS
 10
154.8924916972
 20
30.7228545871
 11
154.5456166972
 21
30.7228545871
  0
LINE
  8
0
 62
7
  6
CONTINUOUS
 10
159.401867028
 20
30.8519093441
 11
159.1128043074
 21
30.8519093441
  0
LINE
  8
0
 62
7
  6
CONTINUOUS
 10
151.4237418626
 20
30.9164367395
 11
151.1346793074
 21
30.9164367395
  0
LINE
  8
0
 62
7
  6
CONTINUOUS
 10
150.498741835
 20
31.4971831403
 11
150.9034292799
 21
31.4649194539
  0
LINE
  8
0
 62
7
  6
CONTINUOUS
 10
150.9612418074
 20
31.5939741996
 11
150.5565542799
 21
31.626237886
  0
LINE
  8
0
 62
7
  6
CONTINUOUS
 10
159.575304528
 20
30.6260635193
 11
159.922179528
 21
30.5937998301
  0
LINE
  8
0
 62
7
  6
CONTINUOUS
 10
159.922179528
 20
30.7228545871
 11
159.575304528
 21
30.7551182848
  0
LINE
  8
0
 62
7
  6
CONTINUOUS
 10
155.3549915869
 20
31.5939741996
 11
155.0081169177
 21
31.626237886
  0
LINE
  8
0
 62
7
  6
CONTINUOUS
 10
160.1534293074
 20
31.4971831403
 11
160.5003043074
 21
31.4649194539
  0
LINE
  8
0
 62
7
  6
CONTINUOUS
 10
160.5003043074
 20
31.5939741996
 11
160.1534293074
 21
31.626237886
  0
LINE
  8
0
 62
7
  6
CONTINUOUS
 10
157.840929528
 20
31.4971831403
 11
158.0721793074
 21
31.4649194539
  0
LINE
  8
0
 62
7
  6
CONTINUOUS
 10
160.6737418074
 20
31.5617105132
 11
160.5003043074
 21
31.5939741996
  0
LINE
  8
0
 62
7
  6
CONTINUOUS
 10
160.8471793074
 20
30.6905909007
 11
160.9628038663
 21
30.7873819712
  0
LINE
  8
0
 62
7
  6
CONTINUOUS
 10
155.3549915869
 20
30.8841730531
 11
155.1815540869
 21
30.7873819712
  0
LINE
  8
0
 62
7
  6
CONTINUOUS
 10
157.4362415869
 20
31.5294468267
 11
157.320617028
 21
31.4649194539
  0
LINE
  8
0
 62
7
  6
CONTINUOUS
 10
157.320617028
 20
31.3358647082
 11
157.4362415869
 21
31.400392081
  0
LINE
  8
0
 62
7
  6
CONTINUOUS
 10
150.0362418212
 20
31.5617105132
 11
149.8628043005
 21
31.4971831403
  0
LINE
  8
0
 62
7
  6
CONTINUOUS
 10
152.4643666972
 20
31.5939741996
 11
152.2909293626
 21
31.5294468267
  0
LINE
  8
0
 62
7
  6
CONTINUOUS
 10
152.2909293626
 20
31.400392081
 11
152.4643666972
 21
31.4649194539
  0
LINE
  8
0
 62
7
  6
CONTINUOUS
 10
151.0768668626
 20
30.8196456577
 11
150.9034292799
 21
30.7551182848
  0
LINE
  8
0
 62
7
  6
CONTINUOUS
 10
160.5003043074
 20
30.7551182848
 11
160.269054528
 21
30.7228545871
  0
LINE
  8
0
 62
7
  6
CONTINUOUS
 10
154.8924916972
 20
30.5937998301
 11
155.1815540869
 21
30.6260635193
  0
LINE
  8
0
 62
7
  6
CONTINUOUS
 10
160.269054528
 20
30.5937998301
 11
160.615929528
 21
30.6260635193
  0
LINE
  8
0
 62
7
  6
CONTINUOUS
 10
150.5565542799
 20
30.5937998301
 11
150.9612418074
 21
30.6260635193
  0
LINE
  8
0
 62
7
  6
CONTINUOUS
 10
150.9034292799
 20
30.7551182848
 11
150.498741835
 21
30.7228545871
  0
LINE
  8
0
 62
7
  6
CONTINUOUS
 10
154.7768668074
 20
31.1422825445
 11
155.412804528
 21
31.1422825445
  0
LINE
  8
0
 62
7
  6
CONTINUOUS
 10
155.412804528
 20
31.2713373354
 11
154.7768668074
 21
31.2713373354
  0
LINE
  8
0
 62
7
  6
CONTINUOUS
 10
151.1346793074
 20
31.3036010218
 11
151.4237418626
 21
31.3036010218
  0
LINE
  8
0
 62
7
  6
CONTINUOUS
 10
153.9674919177
 20
31.3681283946
 11
154.2565543074
 21
31.3681283946
  0
LINE
  8
0
 62
7
  6
CONTINUOUS
 10
160.6737418074
 20
31.3681283946
 11
160.9628038663
 21
31.3681283946
  0
LINE
  8
0
 62
7
  6
CONTINUOUS
 10
154.6612419177
 20
31.4971831403
 11
155.0081169177
 21
31.4971831403
  0
LINE
  8
0
 62
7
  6
CONTINUOUS
 10
159.8065543074
 20
31.4971831403
 11
160.1534293074
 21
31.4971831403
  0
LINE
  8
0
 62
7
  6
CONTINUOUS
 10
160.1534293074
 20
31.626237886
 11
159.8065543074
 21
31.626237886
  0
LINE
  8
0
 62
7
  6
CONTINUOUS
 10
158.0721793074
 20
31.626237886
 11
157.840929528
 21
31.626237886
  0
LINE
  8
0
 62
7
  6
CONTINUOUS
 10
157.320617028
 20
31.626237886
 11
157.0315543074
 21
31.626237886
  0
LINE
  8
0
 62
7
  6
CONTINUOUS
 10
156.5690540869
 20
31.626237886
 11
156.279992028
 21
31.626237886
  0
LINE
  8
0
 62
7
  6
CONTINUOUS
 10
155.0081169177
 20
31.626237886
 11
154.6612419177
 21
31.626237886
  0
LINE
  8
0
 62
7
  6
CONTINUOUS
 10
152.9268669177
 20
31.626237886
 11
152.6956168074
 21
31.626237886
  0
LINE
  8
0
 62
7
  6
CONTINUOUS
 10
156.279992028
 20
31.9488748406
 11
156.5690540869
 21
31.9488748406
  0
LINE
  8
0
 62
7
  6
CONTINUOUS
 10
156.5690540869
 20
32.1101932727
 11
156.279992028
 21
32.1101932727
  0
LINE
  8
0
 62
7
  6
CONTINUOUS
 10
152.1753043074
 20
32.1101932727
 11
151.8862417523
 21
32.1101932727
  0
LINE
  8
0
 62
7
  6
CONTINUOUS
 10
151.2130860697
 20
32.3970785186
 11
151.6256574183
 21
32.3970785186
  0
LINE
  8
0
 62
7
  6
CONTINUOUS
 10
152.852430332
 20
32.3970785186
 11
154.245872955
 21
32.3970785186
  0
LINE
  8
0
 62
7
  6
CONTINUOUS
 10
154.5737418074
 20
32.3970785186
 11
155.9671844304
 21
32.3970785186
  0
LINE
  8
0
 62
7
  6
CONTINUOUS
 10
157.852430332
 20
32.3970785186
 11
159.245872955
 21
32.3970785186
  0
LINE
  8
0
 62
7
  6
CONTINUOUS
 10
159.5737418074
 20
32.3970785186
 11
160.9671844304
 21
32.3970785186
  0
LINE
  8
0
 62
7
  6
CONTINUOUS
 10
157.6096790869
 20
31.5939741996
 11
157.4362415869
 21
31.5294468267
  0
LINE
  8
0
 62
7
  6
CONTINUOUS
 10
155.1815540869
 20
30.6260635193
 11
155.3549915869
 21
30.6905909007
  0
LINE
  8
0
 62
7
  6
CONTINUOUS
 10
160.615929528
 20
30.6260635193
 11
160.8471793074
 21
30.6905909007
  0
LINE
  8
0
 62
7
  6
CONTINUOUS
 10
160.615929528
 20
30.7873819712
 11
160.5003043074
 21
30.7551182848
  0
LINE
  8
0
 62
7
  6
CONTINUOUS
 10
159.575304528
 20
31.4649194539
 11
159.8065543074
 21
31.4971831403
  0
LINE
  8
0
 62
7
  6
CONTINUOUS
 10
157.6096790869
 20
31.4649194539
 11
157.840929528
 21
31.4971831403
  0
LINE
  8
0
 62
7
  6
CONTINUOUS
 10
154.5456166972
 20
31.1100188581
 11
154.7768668074
 21
31.1422825445
  0
LINE
  8
0
 62
7
  6
CONTINUOUS
 10
157.840929528
 20
31.626237886
 11
157.6096790869
 21
31.5939741996
  0
LINE
  8
0
 62
7
  6
CONTINUOUS
 10
154.4299918074
 20
31.4649194539
 11
154.6612419177
 21
31.4971831403
  0
LINE
  8
0
 62
7
  6
CONTINUOUS
 10
159.8065543074
 20
31.626237886
 11
159.4596793074
 21
31.5939741996
  0
LINE
  8
0
 62
7
  6
CONTINUOUS
 10
154.7768668074
 20
31.2713373354
 11
154.4299918074
 21
31.2390736489
  0
LINE
  8
0
 62
7
  6
CONTINUOUS
 10
150.5565542799
 20
31.626237886
 11
150.2096793212
 21
31.5939741996
  0
LINE
  8
0
 62
7
  6
CONTINUOUS
 10
154.6612419177
 20
31.626237886
 11
154.2565543074
 21
31.5939741996
  0
LINE
  8
0
 62
7
  6
CONTINUOUS
 10
152.0327582009
 20
33.5446195022
 11
151.3770204959
 21
33.5446195022
  0
LINE
  8
0
 62
7
  6
CONTINUOUS
 10
157.4362415869
 20
31.400392081
 11
157.6096790869
 21
31.4649194539
  0
LINE
  8
0
 62
7
  6
CONTINUOUS
 10
159.4596793074
 20
31.4326557675
 11
159.575304528
 21
31.4649194539
  0
LINE
  8
0
 62
7
  6
CONTINUOUS
 10
159.4596793074
 20
31.5939741996
 11
159.228429528
 21
31.5294468267
  0
LINE
  8
0
 62
7
  6
CONTINUOUS
 10
155.1815540869
 20
30.7873819712
 11
154.8924916972
 21
30.7228545871
  0
LINE
  8
0
 62
7
  6
CONTINUOUS
 10
152.4643666972
 20
31.4649194539
 11
152.6956168074
 21
31.4971831403
  0
LINE
  8
0
 62
7
  6
CONTINUOUS
 10
152.6956168074
 20
31.626237886
 11
152.4643666972
 21
31.5939741996
  0
LINE
  8
0
 62
7
  6
CONTINUOUS
 10
150.2674918074
 20
31.4649194539
 11
150.498741835
 21
31.4971831403
  0
LINE
  8
0
 62
7
  6
CONTINUOUS
 10
156.7868565615
 20
35.0200293383
 11
157.4425942664
 21
35.0200293383
  0
LINE
  8
0
 62
7
  6
CONTINUOUS
 10
154.4299918074
 20
31.0777551716
 11
154.5456166972
 21
31.1100188581
  0
LINE
  8
0
 62
7
  6
CONTINUOUS
 10
154.4299918074
 20
31.2390736489
 11
154.1987416972
 21
31.1745462761
  0
LINE
  8
0
 62
7
  6
CONTINUOUS
 10
154.3143669177
 20
31.4326557675
 11
154.4299918074
 21
31.4649194539
  0
LINE
  8
0
 62
7
  6
CONTINUOUS
 10
150.9612418074
 20
30.6260635193
 11
151.1924917523
 21
30.6905909007
  0
LINE
  8
0
 62
7
  6
CONTINUOUS
 10
154.2565543074
 20
31.5939741996
 11
154.1409294177
 21
31.5617105132
  0
LINE
  8
0
 62
7
  6
CONTINUOUS
 10
150.2096793212
 20
31.5939741996
 11
150.0362418212
 21
31.5617105132
  0
LINE
  8
0
 62
7
  6
CONTINUOUS
 10
160.9671844304
 20
36.1675703219
 11
159.5737418074
 21
36.1675703219
  0
LINE
  8
0
 62
7
  6
CONTINUOUS
 10
157.6065286927
 20
36.1675703219
 11
157.1939573441
 21
36.1675703219
  0
LINE
  8
0
 62
7
  6
CONTINUOUS
 10
155.9671844304
 20
36.1675703219
 11
154.5737418074
 21
36.1675703219
  0
LINE
  8
0
 62
7
  6
CONTINUOUS
 10
154.245872955
 20
36.1675703219
 11
152.852430332
 21
36.1675703219
  0
LINE
  8
0
 62
7
  6
CONTINUOUS
 10
150.9671844304
 20
36.1675703219
 11
149.5737418074
 21
36.1675703219
  0
LINE
  8
0
 62
7
  6
CONTINUOUS
 10
150.1518667936
 20
31.4326557675
 11
150.2674918074
 21
31.4649194539
  0
CIRCLE
  8
0
 62
7
  6
CONTINUOUS
 10
160.2704631189
 20
38.5036358957
 40
2.0901639344
  0
ARC
  8
0
 62
7
  6
CONTINUOUS
 10
151.2130860697
 20
34.0364227809
 40
1.6393442623
 50
180.0
 51
270.0
  0
ARC
  8
0
 62
7
  6
CONTINUOUS
 10
157.6065286927
 20
34.5282260596
 40
1.6393442623
 50
0.0
 51
90.0
  0
ARC
  8
0
 62
7
  6
CONTINUOUS
 10
151.6256574183
 20
33.8724883547
 40
1.4754098361
 50
270.0
 51
326.2510114041
  0
ARC
  8
0
 62
7
  6
CONTINUOUS
 10
157.1939573441
 20
34.6921604858
 40
1.4754098361
 50
90.0
 51
146.2510114041
  0
ARC
  8
0
 62
7
  6
CONTINUOUS
 10
152.0327582009
 20
34.3642916334
 40
0.8196721311
 50
270.0
 51
360.0
  0
ARC
  8
0
 62
7
  6
CONTINUOUS
 10
156.7868565615
 20
34.2003572071
 40
0.8196721311
 50
90.0
 51
180.0
  0
ARC
  8
0
 62
7
  6
CONTINUOUS
 10
151.3770204959
 20
33.9544555678
 40
0.4098360656
 50
180.0
 51
270.0
  0
ARC
  8
0
 62
7
  6
CONTINUOUS
 10
157.4425942664
 20
34.6101932727
 40
0.4098360656
 50
0.0
 51
90.0
  0
SOLID
  8
0
 62
7
  6
CONTINUOUS
 10
156.279992028
 20
31.9488752009
 11
156.279992028
 21
32.1101936845
 12
156.5690540869
 22
31.9488752009
 13
156.5690540869
 23
32.1101936845
  0
SOLID
  8
0
 62
7
  6
CONTINUOUS
 10
150.5565542799
 20
31.6262382337
 11
150.9612418074
 21
31.5939740028
 12
150.2096793212
 22
31.5939740028
 13
150.2096793212
 23
31.5939740028
  0
SOLID
  8
0
 62
7
  6
CONTINUOUS
 10
150.0362418212
 20
31.5617111435
 11
150.2096793212
 21
31.5939740028
 12
150.9612418074
 22
31.5939740028
 13
150.9612418074
 23
31.5939740028
  0
SOLID
  8
0
 62
7
  6
CONTINUOUS
 10
150.9612418074
 20
31.5939740028
 11
151.1924917523
 21
31.5294468402
 12
150.0362418212
 22
31.5617111435
 13
150.0362418212
 23
31.5617111435
  0
SOLID
  8
0
 62
7
  6
CONTINUOUS
 10
149.8628043005
 20
31.49718259
 11
150.0362418212
 21
31.5617111435
 12
151.1924917523
 22
31.5294468402
 13
151.1924917523
 23
31.5294468402
  0
SOLID
  8
0
 62
7
  6
CONTINUOUS
 10
149.8628043005
 20
31.49718259
 11
151.1924917523
 21
31.5294468402
 12
150.498741835
 22
31.49718259
 13
150.498741835
 23
31.49718259
  0
SOLID
  8
0
 62
7
  6
CONTINUOUS
 10
150.498741835
 20
31.49718259
 11
151.1924917523
 21
31.5294468402
 12
150.9034292799
 22
31.4649197501
 13
150.9034292799
 23
31.4649197501
  0
SOLID
  8
0
 62
7
  6
CONTINUOUS
 10
151.1924917523
 20
31.5294468402
 11
151.3659292523
 21
31.4326554468
 12
150.9034292799
 22
31.4649197501
 13
150.9034292799
 23
31.4649197501
  0
SOLID
  8
0
 62
7
  6
CONTINUOUS
 10
151.0768668626
 20
31.4003926599
 11
150.9034292799
 21
31.4649197501
 12
151.3659292523
 22
31.4326554468
 13
151.3659292523
 23
31.4326554468
  0
SOLID
  8
0
 62
7
  6
CONTINUOUS
 10
151.0768668626
 20
31.4003926599
 11
151.3659292523
 21
31.4326554468
 12
151.1346793074
 22
31.3036013776
 13
151.1346793074
 23
31.3036013776
  0
SOLID
  8
0
 62
7
  6
CONTINUOUS
 10
151.3659292523
 20
31.4326554468
 11
151.4237418626
 21
31.3036013776
 12
151.1346793074
 22
31.3036013776
 13
151.1346793074
 23
31.3036013776
  0
SOLID
  8
0
 62
7
  6
CONTINUOUS
 10
152.4643666972
 20
31.5939739754
 11
152.6956168074
 21
31.6262382787
 12
152.9268669177
 22
31.6262382787
 13
152.9268669177
 23
31.6262382787
  0
SOLID
  8
0
 62
7
  6
CONTINUOUS
 10
152.9268669177
 20
31.6262382787
 11
153.1003044177
 21
31.5939739754
 12
152.4643666972
 22
31.5939739754
 13
152.4643666972
 23
31.5939739754
  0
SOLID
  8
0
 62
7
  6
CONTINUOUS
 10
152.2909293626
 20
31.5294468852
 11
152.4643666972
 21
31.5939739754
 12
153.1003044177
 22
31.5939739754
 13
153.1003044177
 23
31.5939739754
  0
SOLID
  8
0
 62
7
  6
CONTINUOUS
 10
153.1003044177
 20
31.5939739754
 11
153.2737419177
 21
31.5294468852
 12
152.2909293626
 22
31.5294468852
 13
152.2909293626
 23
31.5294468852
  0
SOLID
  8
0
 62
7
  6
CONTINUOUS
 10
153.2737419177
 20
31.5294468852
 11
152.6956168074
 21
31.4971825369
 12
152.2909293626
 22
31.5294468852
 13
152.2909293626
 23
31.5294468852
  0
SOLID
  8
0
 62
7
  6
CONTINUOUS
 10
152.1753043074
 20
31.4649197951
 11
152.2909293626
 21
31.5294468852
 12
152.6956168074
 22
31.4971825369
 13
152.6956168074
 23
31.4971825369
  0
SOLID
  8
0
 62
7
  6
CONTINUOUS
 10
152.6956168074
 20
31.4971825369
 11
152.4643666972
 21
31.4649197951
 12
152.1753043074
 22
31.4649197951
 13
152.1753043074
 23
31.4649197951
  0
SOLID
  8
0
 62
7
  6
CONTINUOUS
 10
152.6956168074
 20
31.4971825369
 11
153.2737419177
 21
31.5294468852
 12
152.9268669177
 22
31.4649197951
 13
152.9268669177
 23
31.4649197951
  0
SOLID
  8
0
 62
7
  6
CONTINUOUS
 10
153.2737419177
 20
31.5294468852
 11
153.3893668074
 21
31.4649197951
 12
152.9268669177
 22
31.4649197951
 13
152.9268669177
 23
31.4649197951
  0
SOLID
  8
0
 62
7
  6
CONTINUOUS
 10
153.0424918074
 20
31.4326554468
 11
152.9268669177
 21
31.4649197951
 12
153.3893668074
 22
31.4649197951
 13
153.3893668074
 23
31.4649197951
  0
SOLID
  8
0
 62
7
  6
CONTINUOUS
 10
153.3893668074
 20
31.4649197951
 11
153.4471794177
 21
31.4003927049
 12
153.0424918074
 22
31.4326554468
 13
153.0424918074
 23
31.4326554468
  0
SOLID
  8
0
 62
7
  6
CONTINUOUS
 10
153.1581166972
 20
31.3681283566
 11
153.0424918074
 21
31.4326554468
 12
153.4471794177
 22
31.4003927049
 13
153.4471794177
 23
31.4003927049
  0
SOLID
  8
0
 62
7
  6
CONTINUOUS
 10
153.1581166972
 20
31.3681283566
 11
153.4471794177
 21
31.4003927049
 12
153.2159293074
 22
31.2390742213
 13
153.2159293074
 23
31.2390742213
  0
SOLID
  8
0
 62
7
  6
CONTINUOUS
 10
153.4471794177
 20
31.4003927049
 11
153.5049916972
 21
31.2390742213
 12
153.2159293074
 22
31.2390742213
 13
153.2159293074
 23
31.2390742213
  0
SOLID
  8
0
 62
7
  6
CONTINUOUS
 10
152.4643666972
 20
31.4649197951
 11
152.2909293626
 21
31.4003927049
 12
152.1753043074
 22
31.4649197951
 13
152.1753043074
 23
31.4649197951
  0
SOLID
  8
0
 62
7
  6
CONTINUOUS
 10
152.2909293626
 20
31.4003927049
 11
152.1753043074
 21
31.3358640533
 12
152.1753043074
 22
31.4649197951
 13
152.1753043074
 23
31.4649197951
  0
SOLID
  8
0
 62
7
  6
CONTINUOUS
 10
152.1753043074
 20
31.3358640533
 11
151.8862417523
 21
30.5938002869
 12
152.1753043074
 22
31.4649197951
 13
152.1753043074
 23
31.4649197951
  0
SOLID
  8
0
 62
7
  6
CONTINUOUS
 10
152.1753043074
 20
31.4649197951
 11
151.8862417523
 21
30.5938002869
 12
152.1753043074
 22
32.1101937295
 13
152.1753043074
 23
32.1101937295
  0
SOLID
  8
0
 62
7
  6
CONTINUOUS
 10
151.8862417523
 20
30.5938002869
 11
151.8862417523
 21
32.1101937295
 12
152.1753043074
 22
32.1101937295
 13
152.1753043074
 23
32.1101937295
  0
SOLID
  8
0
 62
7
  6
CONTINUOUS
 10
152.1753043074
 20
31.3358640533
 11
152.1753043074
 21
30.5938002869
 12
151.8862417523
 22
30.5938002869
 13
151.8862417523
 23
30.5938002869
  0
SOLID
  8
0
 62
7
  6
CONTINUOUS
 10
153.2159293074
 20
30.5938002869
 11
153.2159293074
 21
31.2390742213
 12
153.5049916972
 22
31.2390742213
 13
153.5049916972
 23
31.2390742213
  0
SOLID
  8
0
 62
7
  6
CONTINUOUS
 10
153.5049916972
 20
31.2390742213
 11
153.5049916972
 21
30.5938002869
 12
153.2159293074
 22
30.5938002869
 13
153.2159293074
 23
30.5938002869
  0
SOLID
  8
0
 62
7
  6
CONTINUOUS
 10
154.2565543074
 20
31.5939738288
 11
154.6612419177
 21
31.6262385959
 12
155.0081169177
 22
31.6262385959
 13
155.0081169177
 23
31.6262385959
  0
SOLID
  8
0
 62
7
  6
CONTINUOUS
 10
155.0081169177
 20
31.6262385959
 11
155.3549915869
 21
31.5939738288
 12
154.2565543074
 22
31.5939738288
 13
154.2565543074
 23
31.5939738288
  0
SOLID
  8
0
 62
7
  6
CONTINUOUS
 10
154.1409294177
 20
31.5617111435
 11
154.2565543074
 21
31.5939738288
 12
155.3549915869
 22
31.5939738288
 13
155.3549915869
 23
31.5939738288
  0
SOLID
  8
0
 62
7
  6
CONTINUOUS
 10
155.3549915869
 20
31.5939738288
 11
155.5284290869
 21
31.5294468402
 12
154.1409294177
 22
31.5617111435
 13
154.1409294177
 23
31.5617111435
  0
SOLID
  8
0
 62
7
  6
CONTINUOUS
 10
154.0253041972
 20
31.4971826249
 11
154.1409294177
 21
31.5617111435
 12
155.5284290869
 22
31.5294468402
 13
155.5284290869
 23
31.5294468402
  0
SOLID
  8
0
 62
7
  6
CONTINUOUS
 10
154.0253041972
 20
31.4971826249
 11
155.5284290869
 21
31.5294468402
 12
154.6612419177
 22
31.4971826249
 13
154.6612419177
 23
31.4971826249
  0
SOLID
  8
0
 62
7
  6
CONTINUOUS
 10
154.6612419177
 20
31.4971826249
 11
155.5284290869
 21
31.5294468402
 12
155.0081169177
 22
31.4971826249
 13
155.0081169177
 23
31.4971826249
  0
SOLID
  8
0
 62
7
  6
CONTINUOUS
 10
155.0081169177
 20
31.4971826249
 11
155.5284290869
 21
31.5294468402
 12
155.239367028
 22
31.4649194065
 13
155.239367028
 23
31.4649194065
  0
SOLID
  8
0
 62
7
  6
CONTINUOUS
 10
155.5284290869
 20
31.5294468402
 11
155.6440543074
 21
31.4649194065
 12
155.239367028
 22
31.4649194065
 13
155.239367028
 23
31.4649194065
  0
SOLID
  8
0
 62
7
  6
CONTINUOUS
 10
153.9674919177
 20
31.4326554138
 11
154.0253041972
 21
31.4971826249
 12
154.6612419177
 22
31.4971826249
 13
154.6612419177
 23
31.4971826249
  0
SOLID
  8
0
 62
7
  6
CONTINUOUS
 10
155.3549915869
 20
31.4326554138
 11
155.239367028
 21
31.4649194065
 12
155.6440543074
 22
31.4649194065
 13
155.6440543074
 23
31.4649194065
  0
SOLID
  8
0
 62
7
  6
CONTINUOUS
 10
155.3549915869
 20
31.4326554138
 11
155.6440543074
 21
31.4649194065
 12
155.412804528
 22
31.3681282026
 13
155.412804528
 23
31.3681282026
  0
SOLID
  8
0
 62
7
  6
CONTINUOUS
 10
155.6440543074
 20
31.4649194065
 11
155.7018665869
 21
31.3681282026
 12
155.412804528
 22
31.3681282026
 13
155.412804528
 23
31.3681282026
  0
SOLID
  8
0
 62
7
  6
CONTINUOUS
 10
155.412804528
 20
31.2713369632
 11
155.412804528
 21
31.3681282026
 12
155.7018665869
 22
31.3681282026
 13
155.7018665869
 23
31.3681282026
  0
SOLID
  8
0
 62
7
  6
CONTINUOUS
 10
155.412804528
 20
31.2713369632
 11
155.7018665869
 21
31.3681282026
 12
155.412804528
 22
31.1422827828
 13
155.412804528
 23
31.1422827828
  0
SOLID
  8
0
 62
7
  6
CONTINUOUS
 10
155.412804528
 20
31.1422827828
 11
155.7018665869
 21
31.3681282026
 12
155.412804528
 22
30.9487004259
 13
155.412804528
 23
30.9487004259
  0
SOLID
  8
0
 62
7
  6
CONTINUOUS
 10
155.7018665869
 20
31.3681282026
 11
155.7018665869
 21
30.8519086025
 12
155.412804528
 22
30.9487004259
 13
155.412804528
 23
30.9487004259
  0
SOLID
  8
0
 62
7
  6
CONTINUOUS
 10
157.6096790869
 20
31.5939736268
 11
157.840929528
 21
31.6262383465
 12
158.0721793074
 22
31.6262383465
 13
158.0721793074
 23
31.6262383465
  0
SOLID
  8
0
 62
7
  6
CONTINUOUS
 10
158.0721793074
 20
31.6262383465
 11
158.2456168074
 21
31.5939736268
 12
157.6096790869
 22
31.5939736268
 13
157.6096790869
 23
31.5939736268
  0
SOLID
  8
0
 62
7
  6
CONTINUOUS
 10
157.4362415869
 20
31.5294472848
 11
157.6096790869
 21
31.5939736268
 12
158.2456168074
 22
31.5939736268
 13
158.2456168074
 23
31.5939736268
  0
SOLID
  8
0
 62
7
  6
CONTINUOUS
 10
158.2456168074
 20
31.5939736268
 11
158.4190543074
 21
31.5294472848
 12
157.4362415869
 22
31.5294472848
 13
157.4362415869
 23
31.5294472848
  0
SOLID
  8
0
 62
7
  6
CONTINUOUS
 10
158.4190543074
 20
31.5294472848
 11
157.840929528
 21
31.4971825369
 12
157.4362415869
 22
31.5294472848
 13
157.4362415869
 23
31.5294472848
  0
SOLID
  8
0
 62
7
  6
CONTINUOUS
 10
157.320617028
 20
31.4649199103
 11
157.4362415869
 21
31.5294472848
 12
157.840929528
 22
31.4971825369
 13
157.840929528
 23
31.4971825369
  0
SOLID
  8
0
 62
7
  6
CONTINUOUS
 10
157.840929528
 20
31.4971825369
 11
157.6096790869
 21
31.4649199103
 12
157.320617028
 22
31.4649199103
 13
157.320617028
 23
31.4649199103
  0
SOLID
  8
0
 62
7
  6
CONTINUOUS
 10
157.840929528
 20
31.4971825369
 11
158.4190543074
 21
31.5294472848
 12
158.0721793074
 22
31.4649199103
 13
158.0721793074
 23
31.4649199103
  0
SOLID
  8
0
 62
7
  6
CONTINUOUS
 10
158.4190543074
 20
31.5294472848
 11
158.534679528
 21
31.4649199103
 12
158.0721793074
 22
31.4649199103
 13
158.0721793074
 23
31.4649199103
  0
SOLID
  8
0
 62
7
  6
CONTINUOUS
 10
158.187804528
 20
31.4326554468
 11
158.0721793074
 21
31.4649199103
 12
158.534679528
 22
31.4649199103
 13
158.534679528
 23
31.4649199103
  0
SOLID
  8
0
 62
7
  6
CONTINUOUS
 10
158.187804528
 20
31.4326554468
 11
158.534679528
 21
31.4649199103
 12
158.3034290869
 22
31.3681288486
 13
158.3034290869
 23
31.3681288486
  0
SOLID
  8
0
 62
7
  6
CONTINUOUS
 10
158.534679528
 20
31.4649199103
 11
158.5924918074
 21
31.3681288486
 12
158.3034290869
 22
31.3681288486
 13
158.3034290869
 23
31.3681288486
  0
SOLID
  8
0
 62
7
  6
CONTINUOUS
 10
158.361242028
 20
31.2068093799
 11
158.3034290869
 21
31.3681288486
 12
158.5924918074
 22
31.3681288486
 13
158.5924918074
 23
31.3681288486
  0
SOLID
  8
0
 62
7
  6
CONTINUOUS
 10
158.5924918074
 20
31.3681288486
 11
158.6503040869
 21
31.2068093799
 12
158.361242028
 22
31.2068093799
 13
158.361242028
 23
31.2068093799
  0
SOLID
  8
0
 62
7
  6
CONTINUOUS
 10
157.6096790869
 20
31.4649199103
 11
157.4362415869
 21
31.4003926599
 12
157.320617028
 22
31.4649199103
 13
157.320617028
 23
31.4649199103
  0
SOLID
  8
0
 62
7
  6
CONTINUOUS
 10
157.4362415869
 20
31.4003926599
 11
157.320617028
 21
31.3358640533
 12
157.320617028
 22
31.4649199103
 13
157.320617028
 23
31.4649199103
  0
SOLID
  8
0
 62
7
  6
CONTINUOUS
 10
157.320617028
 20
31.3358640533
 11
157.0315543074
 21
30.5938003547
 12
157.320617028
 22
31.4649199103
 13
157.320617028
 23
31.4649199103
  0
SOLID
  8
0
 62
7
  6
CONTINUOUS
 10
157.320617028
 20
31.4649199103
 11
157.0315543074
 21
30.5938003547
 12
157.320617028
 22
31.6262383465
 13
157.320617028
 23
31.6262383465
  0
SOLID
  8
0
 62
7
  6
CONTINUOUS
 10
157.0315543074
 20
30.5938003547
 11
157.0315543074
 21
31.6262383465
 12
157.320617028
 22
31.6262383465
 13
157.320617028
 23
31.6262383465
  0
SOLID
  8
0
 62
7
  6
CONTINUOUS
 10
157.320617028
 20
31.3358640533
 11
157.320617028
 21
30.5938003547
 12
157.0315543074
 22
30.5938003547
 13
157.0315543074
 23
30.5938003547
  0
SOLID
  8
0
 62
7
  6
CONTINUOUS
 10
158.361242028
 20
30.5938003547
 11
158.361242028
 21
31.2068093799
 12
158.6503040869
 22
31.2068093799
 13
158.6503040869
 23
31.2068093799
  0
SOLID
  8
0
 62
7
  6
CONTINUOUS
 10
158.6503040869
 20
31.2068093799
 11
158.6503040869
 21
30.5938003547
 12
158.361242028
 22
30.5938003547
 13
158.361242028
 23
30.5938003547
  0
SOLID
  8
0
 62
7
  6
CONTINUOUS
 10
159.4596793074
 20
31.5939739474
 11
159.8065543074
 21
31.6262381969
 12
160.1534293074
 22
31.6262381969
 13
160.1534293074
 23
31.6262381969
  0
SOLID
  8
0
 62
7
  6
CONTINUOUS
 10
160.1534293074
 20
31.6262381969
 11
160.5003043074
 21
31.5939739474
 12
159.4596793074
 22
31.5939739474
 13
159.4596793074
 23
31.5939739474
  0
SOLID
  8
0
 62
7
  6
CONTINUOUS
 10
159.228429528
 20
31.5294468402
 11
159.4596793074
 21
31.5939739474
 12
160.5003043074
 22
31.5939739474
 13
160.5003043074
 23
31.5939739474
  0
SOLID
  8
0
 62
7
  6
CONTINUOUS
 10
159.228429528
 20
31.5294468402
 11
160.5003043074
 21
31.5939739304
 12
160.6737418074
 22
31.5617111435
 13
160.6737418074
 23
31.5617111435
  0
SOLID
  8
0
 62
7
  6
CONTINUOUS
 10
159.228429528
 20
31.5294468402
 11
160.6737418074
 21
31.5617111435
 12
159.8065543074
 22
31.4971825592
 13
159.8065543074
 23
31.4971825592
  0
SOLID
  8
0
 62
7
  6
CONTINUOUS
 10
159.8065543074
 20
31.4971825592
 11
160.6737418074
 21
31.5617111435
 12
160.1534293074
 22
31.4971825592
 13
160.1534293074
 23
31.4971825592
  0
SOLID
  8
0
 62
7
  6
CONTINUOUS
 10
160.6737418074
 20
31.5617111435
 11
160.8471793074
 21
31.4971825592
 12
160.1534293074
 22
31.4971825592
 13
160.1534293074
 23
31.4971825592
  0
SOLID
  8
0
 62
7
  6
CONTINUOUS
 10
160.5003043074
 20
31.4649197501
 11
160.1534293074
 21
31.4971825592
 12
160.8471793074
 22
31.4971825592
 13
160.8471793074
 23
31.4971825592
  0
SOLID
  8
0
 62
7
  6
CONTINUOUS
 10
159.1128043074
 20
31.4326555427
 11
159.228429528
 21
31.5294468402
 12
159.8065543074
 22
31.4971825592
 13
159.8065543074
 23
31.4971825592
  0
SOLID
  8
0
 62
7
  6
CONTINUOUS
 10
160.5003043074
 20
31.4649197501
 11
160.8471793074
 21
31.4971825592
 12
160.615929528
 22
31.4326555427
 13
160.615929528
 23
31.4326555427
  0
SOLID
  8
0
 62
7
  6
CONTINUOUS
 10
160.615929528
 20
31.4326555427
 11
160.8471793074
 21
31.4971825592
 12
160.6737418074
 22
31.3681283005
 13
160.6737418074
 23
31.3681283005
  0
SOLID
  8
0
 62
7
  6
CONTINUOUS
 10
160.8471793074
 20
31.4971825592
 11
160.9628038663
 21
31.3681283005
 12
160.6737418074
 22
31.3681283005
 13
160.6737418074
 23
31.3681283005
  0
SOLID
  8
0
 62
7
  6
CONTINUOUS
 10
150.2674918074
 20
31.4649197501
 11
149.7471793074
 21
31.4326554237
 12
150.498741835
 22
31.4971824493
 13
150.498741835
 23
31.4971824493
  0
SOLID
  8
0
 62
7
  6
CONTINUOUS
 10
149.7471793074
 20
31.4326554237
 11
149.8628043005
 21
31.4971824493
 12
150.498741835
 22
31.4971824493
 13
150.498741835
 23
31.4971824493
  0
SOLID
  8
0
 62
7
  6
CONTINUOUS
 10
150.2674918074
 20
31.4649197501
 11
150.1518667936
 21
31.4326554237
 12
149.7471793074
 22
31.4326554237
 13
149.7471793074
 23
31.4326554237
  0
SOLID
  8
0
 62
7
  6
CONTINUOUS
 10
149.6315543091
 20
31.3036012664
 11
149.7471793074
 21
31.4326554237
 12
150.1518667936
 22
31.4326554237
 13
150.1518667936
 23
31.4326554237
  0
SOLID
  8
0
 62
7
  6
CONTINUOUS
 10
153.9674919177
 20
31.4326554237
 11
154.6612419177
 21
31.4971825369
 12
154.4299918074
 22
31.4649197501
 13
154.4299918074
 23
31.4649197501
  0
SOLID
  8
0
 62
7
  6
CONTINUOUS
 10
154.4299918074
 20
31.4649197501
 11
154.3143669177
 21
31.4326554237
 12
153.9674919177
 22
31.4326554237
 13
153.9674919177
 23
31.4326554237
  0
SOLID
  8
0
 62
7
  6
CONTINUOUS
 10
153.9674919177
 20
31.3681283335
 11
153.9674919177
 21
31.4326554237
 12
154.3143669177
 22
31.4326554237
 13
154.3143669177
 23
31.4326554237
  0
SOLID
  8
0
 62
7
  6
CONTINUOUS
 10
154.3143669177
 20
31.4326554237
 11
154.2565543074
 21
31.3681283335
 12
153.9674919177
 22
31.3681283335
 13
153.9674919177
 23
31.3681283335
  0
SOLID
  8
0
 62
7
  6
CONTINUOUS
 10
159.1128043074
 20
31.4326555528
 11
159.8065543074
 21
31.4971825369
 12
159.575304528
 22
31.4649197501
 13
159.575304528
 23
31.4649197501
  0
SOLID
  8
0
 62
7
  6
CONTINUOUS
 10
159.575304528
 20
31.4649197501
 11
159.4596793074
 21
31.4326555528
 12
159.1128043074
 22
31.4326555528
 13
159.1128043074
 23
31.4326555528
  0
SOLID
  8
0
 62
7
  6
CONTINUOUS
 10
159.1128043074
 20
31.3681284626
 11
159.1128043074
 21
31.4326555528
 12
159.4596793074
 22
31.4326555528
 13
159.4596793074
 23
31.4326555528
  0
SOLID
  8
0
 62
7
  6
CONTINUOUS
 10
159.4596793074
 20
31.4326555528
 11
159.401867028
 21
31.3681284626
 12
159.1128043074
 22
31.3681284626
 13
159.1128043074
 23
31.3681284626
  0
SOLID
  8
0
 62
7
  6
CONTINUOUS
 10
159.228429528
 20
31.2390741763
 11
159.1128043074
 21
31.3681284626
 12
159.401867028
 22
31.3681284626
 13
159.401867028
 23
31.3681284626
  0
SOLID
  8
0
 62
7
  6
CONTINUOUS
 10
149.6315543091
 20
31.3036012664
 11
150.1518667936
 21
31.4326554468
 12
149.9784292936
 22
31.3358640533
 13
149.9784292936
 23
31.3358640533
  0
SOLID
  8
0
 62
7
  6
CONTINUOUS
 10
149.9784292936
 20
31.3358640533
 11
149.9206168074
 21
31.2713369632
 12
149.6315543091
 22
31.3036012664
 13
149.6315543091
 23
31.3036012664
  0
SOLID
  8
0
 62
7
  6
CONTINUOUS
 10
149.5737418074
 20
31.1100184796
 11
149.6315543091
 21
31.3036012664
 12
149.9206168074
 22
31.2713369632
 13
149.9206168074
 23
31.2713369632
  0
SOLID
  8
0
 62
7
  6
CONTINUOUS
 10
154.4299918074
 20
31.2390741763
 11
154.7768668074
 21
31.271336924
 12
155.412804528
 22
31.271336924
 13
155.412804528
 23
31.271336924
  0
SOLID
  8
0
 62
7
  6
CONTINUOUS
 10
154.4299918074
 20
31.2390741763
 11
155.412804528
 21
31.271336924
 12
154.1987416972
 22
31.1745462761
 13
154.1987416972
 23
31.1745462761
  0
SOLID
  8
0
 62
7
  6
CONTINUOUS
 10
154.1987416972
 20
31.1745462761
 11
155.412804528
 21
31.271336924
 12
154.7768668074
 22
31.1422827436
 13
154.7768668074
 23
31.1422827436
  0
SOLID
  8
0
 62
7
  6
CONTINUOUS
 10
155.412804528
 20
31.271336924
 11
155.412804528
 21
31.1422827436
 12
154.7768668074
 22
31.1422827436
 13
154.7768668074
 23
31.1422827436
  0
SOLID
  8
0
 62
7
  6
CONTINUOUS
 10
159.228429528
 20
31.2390745501
 11
159.401867028
 21
31.3681283566
 12
159.4596793074
 22
31.3036012664
 13
159.4596793074
 23
31.3036012664
  0
SOLID
  8
0
 62
7
  6
CONTINUOUS
 10
159.4596793074
 20
31.3036012664
 11
159.6331168074
 21
31.2390745501
 12
159.228429528
 22
31.2390745501
 13
159.228429528
 23
31.2390745501
  0
SOLID
  8
0
 62
7
  6
CONTINUOUS
 10
159.4596793074
 20
31.1422827828
 11
159.228429528
 21
31.2390745501
 12
159.6331168074
 22
31.2390745501
 13
159.6331168074
 23
31.2390745501
  0
SOLID
  8
0
 62
7
  6
CONTINUOUS
 10
159.6331168074
 20
31.2390745501
 11
160.615929528
 21
31.0777556927
 12
159.4596793074
 22
31.1422827828
 13
159.4596793074
 23
31.1422827828
  0
SOLID
  8
0
 62
7
  6
CONTINUOUS
 10
160.442492028
 20
30.9809646623
 11
159.4596793074
 21
31.1422827828
 12
160.615929528
 22
31.0777556927
 13
160.615929528
 23
31.0777556927
  0
SOLID
  8
0
 62
7
  6
CONTINUOUS
 10
160.615929528
 20
31.0777556927
 11
160.8471793074
 21
30.9809646623
 12
160.442492028
 22
30.9809646623
 13
160.442492028
 23
30.9809646623
  0
SOLID
  8
0
 62
7
  6
CONTINUOUS
 10
160.615929528
 20
30.9164372091
 11
160.442492028
 21
30.9809646623
 12
160.8471793074
 22
30.9809646623
 13
160.8471793074
 23
30.9809646623
  0
SOLID
  8
0
 62
7
  6
CONTINUOUS
 10
160.615929528
 20
30.9164372091
 11
160.8471793074
 21
30.9809646623
 12
160.6737418074
 22
30.8519089441
 13
160.6737418074
 23
30.8519089441
  0
SOLID
  8
0
 62
7
  6
CONTINUOUS
 10
160.8471793074
 20
30.9809646623
 11
160.9628038663
 21
30.8519089441
 12
160.6737418074
 22
30.8519089441
 13
160.6737418074
 23
30.8519089441
  0
SOLID
  8
0
 62
7
  6
CONTINUOUS
 10
160.615929528
 20
30.7873818593
 11
160.6737418074
 21
30.8519089441
 12
160.9628038663
 22
30.8519089441
 13
160.9628038663
 23
30.8519089441
  0
SOLID
  8
0
 62
7
  6
CONTINUOUS
 10
160.9628038663
 20
30.8519089441
 11
160.9628038663
 21
30.7873818593
 12
160.615929528
 22
30.7873818593
 13
160.615929528
 23
30.7873818593
  0
SOLID
  8
0
 62
7
  6
CONTINUOUS
 10
160.5003043074
 20
30.7551187255
 11
160.615929528
 21
30.7873818593
 12
160.9628038663
 22
30.7873818593
 13
160.9628038663
 23
30.7873818593
  0
SOLID
  8
0
 62
7
  6
CONTINUOUS
 10
160.5003043074
 20
30.7551187255
 11
160.9628038663
 21
30.7873818593
 12
160.269054528
 22
30.7228547745
 13
160.269054528
 23
30.7228547745
  0
SOLID
  8
0
 62
7
  6
CONTINUOUS
 10
160.9628038663
 20
30.7873818593
 11
160.8471793074
 21
30.6905916353
 12
160.269054528
 22
30.7228547745
 13
160.269054528
 23
30.7228547745
  0
SOLID
  8
0
 62
7
  6
CONTINUOUS
 10
160.8471793074
 20
30.6905916353
 11
159.401867028
 21
30.658327332
 12
160.269054528
 22
30.7228547745
 13
160.269054528
 23
30.7228547745
  0
SOLID
  8
0
 62
7
  6
CONTINUOUS
 10
160.269054528
 20
30.7228547745
 11
159.401867028
 21
30.658327332
 12
159.922179528
 22
30.7228547745
 13
159.922179528
 23
30.7228547745
  0
SOLID
  8
0
 62
7
  6
CONTINUOUS
 10
159.401867028
 20
30.658327332
 11
159.228429528
 21
30.7228547745
 12
159.922179528
 22
30.7228547745
 13
159.922179528
 23
30.7228547745
  0
SOLID
  8
0
 62
7
  6
CONTINUOUS
 10
159.401867028
 20
30.658327332
 11
160.8471793074
 21
30.6905916353
 12
159.575304528
 22
30.6260629858
 13
159.575304528
 23
30.6260629858
  0
SOLID
  8
0
 62
7
  6
CONTINUOUS
 10
160.8471793074
 20
30.6905916353
 11
160.615929528
 21
30.6260629858
 12
159.575304528
 22
30.6260629858
 13
159.575304528
 23
30.6260629858
  0
SOLID
  8
0
 62
7
  6
CONTINUOUS
 10
159.922179528
 20
30.5938006049
 11
159.575304528
 21
30.6260629858
 12
160.615929528
 22
30.6260629858
 13
160.615929528
 23
30.6260629858
  0
SOLID
  8
0
 62
7
  6
CONTINUOUS
 10
160.615929528
 20
30.6260629858
 11
160.269054528
 21
30.5938006049
 12
159.922179528
 22
30.5938006049
 13
159.922179528
 23
30.5938006049
  0
SOLID
  8
0
 62
7
  6
CONTINUOUS
 10
149.5737418074
 20
31.1100184796
 11
149.9206168074
 21
31.2713369632
 12
149.8628043005
 22
31.1422827828
 13
149.8628043005
 23
31.1422827828
  0
SOLID
  8
0
 62
7
  6
CONTINUOUS
 10
149.8628043005
 20
31.1422827828
 11
149.8628043005
 21
31.0454914852
 12
149.5737418074
 22
31.1100184796
 13
149.5737418074
 23
31.1100184796
  0
SOLID
  8
0
 62
7
  6
CONTINUOUS
 10
149.6315543091
 20
30.9164372091
 11
149.5737418074
 21
31.1100184796
 12
149.8628043005
 22
31.0454914852
 13
149.8628043005
 23
31.0454914852
  0
SOLID
  8
0
 62
7
  6
CONTINUOUS
 10
149.8628043005
 20
31.0454914852
 11
149.9784292936
 21
30.8841729058
 12
149.6315543091
 22
30.9164372091
 13
149.6315543091
 23
30.9164372091
  0
SOLID
  8
0
 62
7
  6
CONTINUOUS
 10
149.7471793074
 20
30.7873813202
 11
149.6315543091
 21
30.9164372091
 12
149.9784292936
 22
30.8841729058
 13
149.9784292936
 23
30.8841729058
  0
SOLID
  8
0
 62
7
  6
CONTINUOUS
 10
149.9784292936
 20
30.8841729058
 11
150.1518667936
 21
30.7873813202
 12
149.7471793074
 22
30.7873813202
 13
149.7471793074
 23
30.7873813202
  0
SOLID
  8
0
 62
7
  6
CONTINUOUS
 10
149.8628043005
 20
30.7228547004
 11
149.7471793074
 21
30.7873813202
 12
150.1518667936
 22
30.7873813202
 13
150.1518667936
 23
30.7873813202
  0
SOLID
  8
0
 62
7
  6
CONTINUOUS
 10
150.1518667936
 20
30.7873813202
 11
150.498741835
 21
30.7228547004
 12
149.8628043005
 22
30.7228547004
 13
149.8628043005
 23
30.7228547004
  0
SOLID
  8
0
 62
7
  6
CONTINUOUS
 10
150.0362418212
 20
30.658327332
 11
149.8628043005
 21
30.7228547004
 12
150.498741835
 22
30.7228547004
 13
150.498741835
 23
30.7228547004
  0
SOLID
  8
0
 62
7
  6
CONTINUOUS
 10
154.0831168074
 20
31.1100184386
 11
154.1987416972
 21
31.1745462761
 12
154.7768668074
 22
31.1422827828
 13
154.7768668074
 23
31.1422827828
  0
SOLID
  8
0
 62
7
  6
CONTINUOUS
 10
154.7768668074
 20
31.1422827828
 11
154.5456166972
 21
31.1100184386
 12
154.0831168074
 22
31.1100184386
 13
154.0831168074
 23
31.1100184386
  0
SOLID
  8
0
 62
7
  6
CONTINUOUS
 10
153.9674919177
 20
30.9809642992
 11
154.0831168074
 21
31.1100184386
 12
154.5456166972
 22
31.1100184386
 13
154.5456166972
 23
31.1100184386
  0
SOLID
  8
0
 62
7
  6
CONTINUOUS
 10
154.3143669177
 20
31.0132277988
 11
153.9674919177
 21
30.9809642992
 12
154.4299918074
 22
31.0777556927
 13
154.4299918074
 23
31.0777556927
  0
SOLID
  8
0
 62
7
  6
CONTINUOUS
 10
153.9674919177
 20
30.9809642992
 11
154.5456166972
 21
31.1100184796
 12
154.4299918074
 22
31.0777556927
 13
154.4299918074
 23
31.0777556927
  0
SOLID
  8
0
 62
7
  6
CONTINUOUS
 10
154.3143669177
 20
31.0132277988
 11
154.2565543074
 21
30.9164372091
 12
153.9674919177
 22
30.9809642992
 13
153.9674919177
 23
30.9809642992
  0
SOLID
  8
0
 62
7
  6
CONTINUOUS
 10
153.9674919177
 20
30.8841729058
 11
153.9674919177
 21
30.9809642992
 12
154.2565543074
 22
30.9164372091
 13
154.2565543074
 23
30.9164372091
  0
SOLID
  8
0
 62
7
  6
CONTINUOUS
 10
154.2565543074
 20
30.9164372091
 11
154.2565543074
 21
30.8519086025
 12
153.9674919177
 22
30.8841729058
 13
153.9674919177
 23
30.8841729058
  0
SOLID
  8
0
 62
7
  6
CONTINUOUS
 10
154.0253041972
 20
30.7551187255
 11
153.9674919177
 21
30.8841729058
 12
154.2565543074
 22
30.8519086025
 13
154.2565543074
 23
30.8519086025
  0
SOLID
  8
0
 62
7
  6
CONTINUOUS
 10
155.412804528
 20
30.9487004259
 11
155.7018665869
 21
30.8519086025
 12
155.3549915869
 22
30.8841729058
 13
155.3549915869
 23
30.8841729058
  0
SOLID
  8
0
 62
7
  6
CONTINUOUS
 10
155.1815540869
 20
30.7873815123
 11
155.3549915869
 21
30.8841729058
 12
155.7018665869
 22
30.8519086025
 13
155.7018665869
 23
30.8519086025
  0
SOLID
  8
0
 62
7
  6
CONTINUOUS
 10
155.1815540869
 20
30.7873815123
 11
155.7018665869
 21
30.8519086025
 12
155.412804528
 22
30.7551187255
 13
155.412804528
 23
30.7551187255
  0
SOLID
  8
0
 62
7
  6
CONTINUOUS
 10
155.7018665869
 20
30.8519086025
 11
155.759679528
 21
30.6905916353
 12
155.412804528
 22
30.7551187255
 13
155.412804528
 23
30.7551187255
  0
SOLID
  8
0
 62
7
  6
CONTINUOUS
 10
155.4706168074
 20
30.658327332
 11
155.412804528
 21
30.7551187255
 12
155.759679528
 22
30.6905916353
 13
155.759679528
 23
30.6905916353
  0
SOLID
  8
0
 62
7
  6
CONTINUOUS
 10
155.4706168074
 20
30.658327332
 11
155.759679528
 21
30.6905916353
 12
155.5284290869
 22
30.5938002079
 13
155.5284290869
 23
30.5938002079
  0
SOLID
  8
0
 62
7
  6
CONTINUOUS
 10
155.759679528
 20
30.6905916353
 11
155.8174918074
 21
30.5938002079
 12
155.5284290869
 22
30.5938002079
 13
155.5284290869
 23
30.5938002079
  0
SOLID
  8
0
 62
7
  6
CONTINUOUS
 10
151.0768668626
 20
30.8196456577
 11
151.1346793074
 21
30.9164373395
 12
151.4237418626
 22
30.9164373395
 13
151.4237418626
 23
30.9164373395
  0
SOLID
  8
0
 62
7
  6
CONTINUOUS
 10
151.4237418626
 20
30.9164373395
 11
151.3659292523
 21
30.7873815123
 12
151.0768668626
 22
30.8196456577
 13
151.0768668626
 23
30.8196456577
  0
SOLID
  8
0
 62
7
  6
CONTINUOUS
 10
150.9034292799
 20
30.7551187255
 11
151.0768668626
 21
30.8196456577
 12
151.3659292523
 22
30.7873815123
 13
151.3659292523
 23
30.7873815123
  0
SOLID
  8
0
 62
7
  6
CONTINUOUS
 10
150.9034292799
 20
30.7551187255
 11
151.3659292523
 21
30.7873815123
 12
150.498741835
 22
30.7228544222
 13
150.498741835
 23
30.7228544222
  0
SOLID
  8
0
 62
7
  6
CONTINUOUS
 10
151.3659292523
 20
30.7873815123
 11
151.1924917523
 21
30.6905916353
 12
150.498741835
 22
30.7228544222
 13
150.498741835
 23
30.7228544222
  0
SOLID
  8
0
 62
7
  6
CONTINUOUS
 10
150.0362418212
 20
30.658327332
 11
150.498741835
 21
30.7228544222
 12
151.1924917523
 22
30.6905916353
 13
151.1924917523
 23
30.6905916353
  0
SOLID
  8
0
 62
7
  6
CONTINUOUS
 10
150.0362418212
 20
30.658327332
 11
151.1924917523
 21
30.6905916353
 12
150.2096793212
 22
30.6260631011
 13
150.2096793212
 23
30.6260631011
  0
SOLID
  8
0
 62
7
  6
CONTINUOUS
 10
151.1924917523
 20
30.6905916353
 11
150.9612418074
 21
30.6260631011
 12
150.2096793212
 22
30.6260631011
 13
150.2096793212
 23
30.6260631011
  0
SOLID
  8
0
 62
7
  6
CONTINUOUS
 10
150.5565542799
 20
30.5938002419
 11
150.2096793212
 21
30.6260631011
 12
150.9612418074
 22
30.6260631011
 13
150.9612418074
 23
30.6260631011
  0
SOLID
  8
0
 62
7
  6
CONTINUOUS
 10
154.0253041972
 20
30.7551187255
 11
154.2565543074
 21
30.8519086025
 12
154.3143669177
 22
30.7873815123
 13
154.3143669177
 23
30.7873815123
  0
SOLID
  8
0
 62
7
  6
CONTINUOUS
 10
154.3143669177
 20
30.7873815123
 11
154.5456166972
 21
30.7228544222
 12
154.0253041972
 22
30.7551187255
 13
154.0253041972
 23
30.7551187255
  0
SOLID
  8
0
 62
7
  6
CONTINUOUS
 10
154.1987416972
 20
30.658327332
 11
154.0253041972
 21
30.7551187255
 12
154.5456166972
 22
30.7228544222
 13
154.5456166972
 23
30.7228544222
  0
SOLID
  8
0
 62
7
  6
CONTINUOUS
 10
154.8924916972
 20
30.7228544637
 11
155.1815540869
 21
30.7873815123
 12
155.412804528
 22
30.7551187255
 13
155.412804528
 23
30.7551187255
  0
SOLID
  8
0
 62
7
  6
CONTINUOUS
 10
155.412804528
 20
30.7551187255
 11
155.3549915869
 21
30.6905916353
 12
154.8924916972
 22
30.7228544637
 13
154.8924916972
 23
30.7228544637
  0
SOLID
  8
0
 62
7
  6
CONTINUOUS
 10
155.3549915869
 20
30.6905916353
 11
154.1987416972
 21
30.658327332
 12
154.8924916972
 22
30.7228544637
 13
154.8924916972
 23
30.7228544637
  0
SOLID
  8
0
 62
7
  6
CONTINUOUS
 10
154.1987416972
 20
30.658327332
 11
154.5456166972
 21
30.7228544637
 12
154.8924916972
 22
30.7228544637
 13
154.8924916972
 23
30.7228544637
  0
SOLID
  8
0
 62
7
  6
CONTINUOUS
 10
154.1987416972
 20
30.658327332
 11
155.3549915869
 21
30.6905916353
 12
154.3143669177
 22
30.6260630541
 13
154.3143669177
 23
30.6260630541
  0
SOLID
  8
0
 62
7
  6
CONTINUOUS
 10
155.3549915869
 20
30.6905916353
 11
155.1815540869
 21
30.6260630541
 12
154.3143669177
 22
30.6260630541
 13
154.3143669177
 23
30.6260630541
  0
SOLID
  8
0
 62
7
  6
CONTINUOUS
 10
154.5456166972
 20
30.5938002188
 11
154.3143669177
 21
30.6260630541
 12
155.1815540869
 22
30.6260630541
 13
155.1815540869
 23
30.6260630541
  0
SOLID
  8
0
 62
7
  6
CONTINUOUS
 10
155.1815540869
 20
30.6260630541
 11
154.8924916972
 21
30.5938002188
 12
154.5456166972
 22
30.5938002188
 13
154.5456166972
 23
30.5938002188
  0
SOLID
  8
0
 62
7
  6
CONTINUOUS
 10
159.575304528
 20
30.7551187255
 11
159.228429528
 21
30.7228544637
 12
159.4596793074
 22
30.7873815123
 13
159.4596793074
 23
30.7873815123
  0
SOLID
  8
0
 62
7
  6
CONTINUOUS
 10
159.4596793074
 20
30.7873815123
 11
159.228429528
 21
30.7228544637
 12
159.401867028
 22
30.851908644
 13
159.401867028
 23
30.851908644
  0
SOLID
  8
0
 62
7
  6
CONTINUOUS
 10
159.228429528
 20
30.7228544637
 11
159.1128043074
 21
30.851908644
 12
159.401867028
 22
30.851908644
 13
159.401867028
 23
30.851908644
  0
SOLID
  8
0
 62
7
  6
CONTINUOUS
 10
159.575304528
 20
30.7551187255
 11
159.922179528
 21
30.7228544637
 12
159.228429528
 22
30.7228544637
 13
159.228429528
 23
30.7228544637
  0
SOLID
  8
0
 62
7
  6
CONTINUOUS
 10
156.279992028
 20
30.5938002419
 11
156.279992028
 21
31.6262382337
 12
156.5690540869
 22
30.5938002419
 13
156.5690540869
 23
31.6262382337
  0
ENDBLK
  8
0
  6
BYBLOCK
 62
0
  0
BLOCK
  8
0
 62
2
  6
CONTINUOUS
  2
SYMBOL_3_BL0
 70
64
 10
32.1213064866
 20
19.8534310916
  0
TEXT
  8
0
 62
7
  6
CONTINUOUS
 10
18.3860103289
 20
19.2268451992
  7
TEXTSTYLE_3
 40
2.7338706658
  1
Ammeraal Beltech
 41
1.0
 51
15.0
 72
0
  0
TEXT
  8
0
 62
7
  6
CONTINUOUS
 10
29.1868111546
 20
16.9533085264
  7
TEXTSTYLE_4
 40
1.0935482663
  1
Innovation & Service in Belting
 41
1.0
 72
0
  0
LINE
  8
0
 62
7
  6
CONTINUOUS
 10
12.3614696776
 20
19.9934385078
 11
13.1396216709
 21
23.6543558055
  0
LINE
  8
0
 62
7
  6
CONTINUOUS
 10
23.2347899607
 20
27.3177497171
 11
13.6274394139
 21
24.1961322958
  0
LINE
  8
0
 62
7
  6
CONTINUOUS
 10
12.5867530099
 20
19.3000877048
 11
20.093828271
 21
12.5406867788
  0
LINE
  8
0
 62
7
  6
CONTINUOUS
 10
12.8492874206
 20
20.5352149982
 11
23.6575567857
 21
24.0470345971
  0
LINE
  8
0
 62
7
  6
CONTINUOUS
 10
23.6533516486
 20
13.6972460334
 11
15.2078919798
 21
21.3015720751
  0
LINE
  8
0
 62
7
  6
CONTINUOUS
 10
24.1731743684
 20
26.4728246013
 11
23.1966148312
 21
21.8784731989
  0
LINE
  8
0
 62
7
  6
CONTINUOUS
 10
22.4968128835
 20
18.5861638851
 11
21.810364672
 21
15.3566789607
  0
LINE
  8
0
 62
7
  6
CONTINUOUS
 10
24.8542704669
 20
14.087448211
 11
25.8105020025
 21
18.5861638851
  0
LINE
  8
0
 62
7
  6
CONTINUOUS
 10
26.5103039502
 20
21.8784731989
 11
26.9545457526
 21
23.9684665583
  0
LINE
  8
0
 62
7
  6
CONTINUOUS
 10
20.8069293463
 20
12.3891124661
 11
24.3664527239
 21
13.5456717207
  0
LINE
  8
0
 62
7
  6
CONTINUOUS
 10
23.9478910361
 20
27.1661754044
 11
26.7292624203
 21
24.6618173613
  0
ARC
  8
0
 62
7
  6
CONTINUOUS
 10
13.8527227462
 20
23.5027814928
 40
0.7290321776
 50
108.0
 51
168.0
  0
ARC
  8
0
 62
7
  6
CONTINUOUS
 10
23.4600732931
 20
26.624398914
 40
0.7290321776
 50
348.0
 51
108.0
  0
ARC
  8
0
 62
7
  6
CONTINUOUS
 10
26.2414446773
 20
24.120040871
 40
0.7290321776
 50
348.0
 51
48.0
  0
ARC
  8
0
 62
7
  6
CONTINUOUS
 10
20.581646014
 20
13.0824632691
 40
0.7290321776
 50
228.0
 51
288.0
  0
ARC
  8
0
 62
7
  6
CONTINUOUS
 10
13.0745707529
 20
19.8418641951
 40
0.7290321776
 50
108.0
 51
228.0
  0
ARC
  8
0
 62
7
  6
CONTINUOUS
 10
24.1411693916
 20
14.2390225237
 40
0.7290321776
 50
228.0
 51
348.0
  0
ENDBLK
  8
0
  6
BYBLOCK
 62
0
  0
ENDSEC
  0
SECTION
  2
ENTITIES
  0
TEXT
  8
0
 62
5
  6
CONTINUOUS
 10
96.0
 20
25.636
  7
TEXTSTYLE_2
 40
2.8
  1
Scale :
 41
0.6
 51
0.000019
 72
0
  0
TEXT
  8
0
 62
5
  6
CONTINUOUS
 10
116.0
 20
25.636
  7
TEXTSTYLE_2
 40
2.8
  1
Belt type:
 41
0.6
 51
0.000019
 72
0
  0
INSERT
  8
0
 62
2
  6
CONTINUOUS
  2
SYMBOL_3_BL0
 10
32.1213064866
 20
19.8534310916
  0
INSERT
  8
0
 62
2
  6
CONTINUOUS
  2
SYMBOL_8_BL1
 10
173.5956734183
 20
35.5937998301
  0
LINE
  8
0
 62
2
  6
CONTINUOUS
 10
10.0
 20
30.0
 11
200.0
 21
30.0
  0
LINE
  8
0
 62
2
  6
CONTINUOUS
 10
10.0
 20
30.0
 11
10.0
 21
10.0
  0
LINE
  8
0
 62
2
  6
CONTINUOUS
 10
10.0
 20
10.0
 11
200.0
 21
10.0
  0
LINE
  8
0
 62
2
  6
CONTINUOUS
 10
95.0
 20
30.0
 11
95.0
 21
10.0
  0
LINE
  8
0
 62
2
  6
CONTINUOUS
 10
115.0
 20
30.0
 11
115.0
 21
10.0
  0
LINE
  8
0
 62
2
  6
CONTINUOUS
 10
200.0
 20
30.0
 11
200.0
 21
10.0
  0
TEXT
  8
0
 62
5
  6
CONTINUOUS
 10
13.0
 20
23.303
  7
TEXTSTYLE_5
 40
1.52
  1
                                                                     Ammeraal Beltech Modular A/S
 41
1.0
 72
0
  0
TEXT
  8
0
 62
5
  6
CONTINUOUS
 10
13.0
 20
20.595
  7
TEXTSTYLE_5
 40
1.5
  1
                                                                      Hjulmagervej 21,  7100 Vejle,  DK
 41
1.0
 72
0
  0
TEXT
  8
0
 62
5
  6
CONTINUOUS
 10
13.0
 20
17.881
  7
TEXTSTYLE_5
 40
1.495
  1
                                                                      tel: 
 41
1.0
 72
0
  0
TEXT
  8
0
 62
5
  6
CONTINUOUS
 10
57.9869465649
 20
17.881
  7
TEXTSTYLE_5
 40
1.51
  1
+45 75723100     fax: +45 75723348
 41
1.0
 72
0
  0
TEXT
  8
0
 62
5
  6
CONTINUOUS
 10
13.0
 20
15.177
  7
TEXTSTYLE_5
 40
1.5
  1
                                                                      admin@unichains.dk  www.unichains.com
 41
1.0
 72
0
  0
TEXT
  8
0
 62
5
  6
CONTINUOUS
 10
99.75
 20
13.75
  7
TEXTSTYLE_6
 40
5.0
  1
1:1
 41
0.7
 72
1
 11
105.0
 21
13.75
  0
TEXT
  8
0
 62
5
  6
CONTINUOUS
 10
118.0
 20
13.75
  7
TEXTSTYLE_7
 40
7.5
  1
Sprocket Z10 2row
 41
0.6480392157
 72
0
  0
LINE
  8
0
 62
7
  6
CONTINUOUS
 10
210.0
 20
0.0
 11
0.0
 21
0.0
  0
LINE
  8
0
 62
7
  6
CONTINUOUS
 10
10.0
 20
10.0
 11
200.0
 21
10.0
  0
LINE
  8
0
 62
7
  6
CONTINUOUS
 10
10.0
 20
30.0
 11
200.0
 21
30.0
  0
LINE
  8
0
 62
7
  6
CONTINUOUS
 10
0.0
 20
0.0
 11
0.0
 21
297.0
  0
LINE
  8
0
 62
7
  6
CONTINUOUS
 10
10.0
 20
10.0
 11
10.0
 21
287.0
  0
LINE
  8
0
 62
7
  6
CONTINUOUS
 10
200.0
 20
287.0
 11
200.0
 21
10.0
  0
LINE
  8
0
 62
7
  6
CONTINUOUS
 10
210.0
 20
0.0
 11
210.0
 21
297.0
  0
LINE
  8
0
 62
7
  6
CONTINUOUS
 10
10.0
 20
287.0
 11
200.0
 21
287.0
  0
LINE
  8
0
 62
7
  6
CONTINUOUS
 10
0.0
 20
297.0
 11
210.0
 21
297.0
  0
LINE
  8
SURFACE
 62
7
  6
CONTINUOUS
 10
29.2035277535
 20
216.1795527209
 11
29.2066020213
 21
216.1087770684
  0
POLYLINE
  8
0
 62
7
  6
CONTINUOUS
 66
1
 70
0
  0
VERTEX
  8
0
 62
7
  6
CONTINUOUS
 10
29.195135573
 20
181.1368627235
  0
VERTEX
  8
0
 62
7
  6
CONTINUOUS
 10
29.1933801687
 20
181.0876921413
  0
VERTEX
  8
0
 62
7
  6
CONTINUOUS
 10
29.1922620695
 20
181.0478537423
  0
VERTEX
  8
0
 62
7
  6
CONTINUOUS
 10
29.1918337314
 20
181.0185647948
  0
VERTEX
  8
0
 62
7
  6
CONTINUOUS
 10
29.1921977851
 20
181.0006693264
  0
VERTEX
  8
0
 62
7
  6
CONTINUOUS
 10
29.1926747024
 20
180.9946524861
  0
SEQEND
  0
POLYLINE
  8
0
 62
7
  6
CONTINUOUS
 66
1
 70
0
  0
VERTEX
  8
0
 62
7
  6
CONTINUOUS
 10
29.2066020213
 20
181.3944767277
  0
VERTEX
  8
0
 62
7
  6
CONTINUOUS
 10
29.2035277535
 20
181.3237010752
  0
VERTEX
  8
0
 62
7
  6
CONTINUOUS
 10
29.2002947719
 20
181.2567690648
  0
VERTEX
  8
0
 62
7
  6
CONTINUOUS
 10
29.195135573
 20
181.1368627235
  0
SEQEND
  0
POLYLINE
  8
SURFACE
 62
7
  6
CONTINUOUS
 66
1
 70
0
  0
VERTEX
  8
SURFACE
 62
7
  6
CONTINUOUS
 10
29.1926747024
 20
216.50860131
  0
VERTEX
  8
SURFACE
 62
7
  6
CONTINUOUS
 10
29.1921977859
 20
216.5025844697
  0
VERTEX
  8
SURFACE
 62
7
  6
CONTINUOUS
 10
29.1918337318
 20
216.4846890013
  0
VERTEX
  8
SURFACE
 62
7
  6
CONTINUOUS
 10
29.1922620698
 20
216.4554000538
  0
VERTEX
  8
SURFACE
 62
7
  6
CONTINUOUS
 10
29.1933801689
 20
216.4155616548
  0
VERTEX
  8
SURFACE
 62
7
  6
CONTINUOUS
 10
29.1951355731
 20
216.3663910726
  0
VERTEX
  8
SURFACE
 62
7
  6
CONTINUOUS
 10
29.1974663913
 20
216.3094301556
  0
VERTEX
  8
SURFACE
 62
7
  6
CONTINUOUS
 10
29.2035277535
 20
216.1795527209
  0
SEQEND
  0
LINE
  8
0
 62
7
  6
CONTINUOUS
 10
37.8209086047
 20
223.0463709483
 11
28.2362383045
 21
193.5477889562
  0
LINE
  8
SURFACE
 62
7
  6
CONTINUOUS
 10
44.0186397663
 20
242.1210261121
 11
45.7094692096
 21
247.324864054
  0
LINE
  8
0
 62
7
  6
CONTINUOUS
 10
44.0186397663
 20
242.1210261121
 11
45.7094692096
 21
247.324864054
  0
LINE
  8
SURFACE
 62
7
  6
CONTINUOUS
 10
53.6771613925
 20
256.645800417
 11
53.6380476416
 21
256.5867347027
  0
POLYLINE
  8
0
 62
7
  6
CONTINUOUS
 66
1
 70
0
  0
VERTEX
  8
0
 62
7
  6
CONTINUOUS
 10
33.0727955985
 20
228.3006014773
  0
VERTEX
  8
0
 62
7
  6
CONTINUOUS
 10
33.0424737055
 20
228.2618534397
  0
VERTEX
  8
0
 62
7
  6
CONTINUOUS
 10
33.0181527241
 20
228.2302806976
  0
VERTEX
  8
0
 62
7
  6
CONTINUOUS
 10
33.0005905858
 20
228.2068372074
  0
VERTEX
  8
0
 62
7
  6
CONTINUOUS
 10
32.990366436
 20
228.1921454701
  0
VERTEX
  8
0
 62
7
  6
CONTINUOUS
 10
32.9872156272
 20
228.1869974457
  0
SEQEND
  0
POLYLINE
  8
0
 62
7
  6
CONTINUOUS
 66
1
 70
0
  0
VERTEX
  8
0
 62
7
  6
CONTINUOUS
 10
33.2334938577
 20
228.5022757792
  0
VERTEX
  8
0
 62
7
  6
CONTINUOUS
 10
33.189405839
 20
228.4468240821
  0
VERTEX
  8
0
 62
7
  6
CONTINUOUS
 10
33.1474486544
 20
228.3945752463
  0
VERTEX
  8
0
 62
7
  6
CONTINUOUS
 10
33.0727955985
 20
228.3006014773
  0
SEQEND
  0
POLYLINE
  8
SURFACE
 62
7
  6
CONTINUOUS
 66
1
 70
0
  0
VERTEX
  8
SURFACE
 62
7
  6
CONTINUOUS
 10
53.8617909965
 20
256.9183855816
  0
VERTEX
  8
SURFACE
 62
7
  6
CONTINUOUS
 10
53.8578685887
 20
256.9137981568
  0
VERTEX
  8
SURFACE
 62
7
  6
CONTINUOUS
 10
53.8470553518
 20
256.8995344163
  0
VERTEX
  8
SURFACE
 62
7
  6
CONTINUOUS
 10
53.8301862667
 20
256.8755873935
  0
VERTEX
  8
SURFACE
 62
7
  6
CONTINUOUS
 10
53.8076744011
 20
256.8427002517
  0
VERTEX
  8
SURFACE
 62
7
  6
CONTINUOUS
 10
53.7801928077
 20
256.8018886158
  0
VERTEX
  8
SURFACE
 62
7
  6
CONTINUOUS
 10
53.7485976906
 20
256.7544362464
  0
VERTEX
  8
SURFACE
 62
7
  6
CONTINUOUS
 10
53.6771613925
 20
256.645800417
  0
SEQEND
  0
LINE
  8
0
 62
7
  6
CONTINUOUS
 10
64.6849834314
 20
257.1360036832
 11
39.5919908145
 21
238.9048773921
  0
LINE
  8
SURFACE
 62
7
  6
CONTINUOUS
 10
80.9108542655
 20
268.924788898
 11
85.3375032172
 21
272.1409376181
  0
LINE
  8
0
 62
7
  6
CONTINUOUS
 10
80.9108542655
 20
268.924788898
 11
85.3375032172
 21
272.1409376181
  0
LINE
  8
SURFACE
 62
7
  6
CONTINUOUS
 10
97.2622105309
 20
274.9984415793
 11
97.195848886
 21
274.9736468986
  0
POLYLINE
  8
0
 62
7
  6
CONTINUOUS
 66
1
 70
0
  0
VERTEX
  8
0
 62
7
  6
CONTINUOUS
 10
63.9320385352
 20
264.1776362747
  0
VERTEX
  8
0
 62
7
  6
CONTINUOUS
 10
63.8847320835
 20
264.1641112153
  0
VERTEX
  8
0
 62
7
  6
CONTINUOUS
 10
63.8464980039
 20
264.1528638446
  0
VERTEX
  8
0
 62
7
  6
CONTINUOUS
 10
63.8185101978
 20
264.1442204285
  0
VERTEX
  8
0
 62
7
  6
CONTINUOUS
 10
63.8016031003
 20
264.1383441678
  0
VERTEX
  8
0
 62
7
  6
CONTINUOUS
 10
63.7960281097
 20
264.1360313276
  0
SEQEND
  0
POLYLINE
  8
0
 62
7
  6
CONTINUOUS
 66
1
 70
0
  0
VERTEX
  8
0
 62
7
  6
CONTINUOUS
 10
143.2424061542
 20
133.2569156506
  0
VERTEX
  8
0
 62
7
  6
CONTINUOUS
 10
143.3106678003
 20
133.2758627287
  0
VERTEX
  8
0
 62
7
  6
CONTINUOUS
 10
143.3753229708
 20
133.2934711105
  0
VERTEX
  8
0
 62
7
  6
CONTINUOUS
 10
143.4909549572
 20
133.3256175214
  0
SEQEND
  0
POLYLINE
  8
SURFACE
 62
7
  6
CONTINUOUS
 66
1
 70
0
  0
VERTEX
  8
SURFACE
 62
7
  6
CONTINUOUS
 10
109.8511929344
 20
122.3928087446
  0
VERTEX
  8
SURFACE
 62
7
  6
CONTINUOUS
 10
109.8570626497
 20
122.3942145157
  0
VERTEX
  8
SURFACE
 62
7
  6
CONTINUOUS
 10
109.8741947583
 20
122.399398263
  0
VERTEX
  8
SURFACE
 62
7
  6
CONTINUOUS
 10
109.9019178417
 20
122.408856412
  0
VERTEX
  8
SURFACE
 62
7
  6
CONTINUOUS
 10
109.9394609005
 20
122.422230526
  0
VERTEX
  8
SURFACE
 62
7
  6
CONTINUOUS
 10
109.9856824544
 20
122.4390945577
  0
VERTEX
  8
SURFACE
 62
7
  6
CONTINUOUS
 10
110.0391352439
 20
122.4589131871
  0
VERTEX
  8
SURFACE
 62
7
  6
CONTINUOUS
 10
110.1607829615
 20
122.5048122168
  0
SEQEND
  0
LINE
  8
SURFACE
 62
7
  6
CONTINUOUS
 10
80.9108542655
 20
128.578464898
 11
75.4392152485
 21
128.578464898
  0
LINE
  8
0
 62
7
  6
CONTINUOUS
 10
80.9108542655
 20
128.578464898
 11
75.4392152485
 21
128.578464898
  0
LINE
  8
0
 62
7
  6
CONTINUOUS
 10
100.9671336105
 20
128.578464898
 11
131.9837782439
 21
128.578464898
  0
LINE
  8
SURFACE
 62
7
  6
CONTINUOUS
 10
64.1123256921
 20
133.2758627288
 11
64.1805873383
 21
133.2569156506
  0
POLYLINE
  8
0
 62
7
  6
CONTINUOUS
 66
1
 70
0
  0
VERTEX
  8
0
 62
7
  6
CONTINUOUS
 10
97.437311038
 20
122.4390945576
  0
VERTEX
  8
0
 62
7
  6
CONTINUOUS
 10
97.4835325918
 20
122.4222305258
  0
VERTEX
  8
0
 62
7
  6
CONTINUOUS
 10
97.5210756506
 20
122.4088564117
  0
VERTEX
  8
0
 62
7
  6
CONTINUOUS
 10
97.5487987339
 20
122.3993982626
  0
VERTEX
  8
0
 62
7
  6
CONTINUOUS
 10
97.5659308424
 20
122.3942145148
  0
VERTEX
  8
0
 62
7
  6
CONTINUOUS
 10
97.571800558
 20
122.3928087446
  0
SEQEND
  0
POLYLINE
  8
0
 62
7
  6
CONTINUOUS
 66
1
 70
0
  0
VERTEX
  8
0
 62
7
  6
CONTINUOUS
 10
97.195848886
 20
122.5296068975
  0
VERTEX
  8
0
 62
7
  6
CONTINUOUS
 10
97.2622105309
 20
122.5048122168
  0
VERTEX
  8
0
 62
7
  6
CONTINUOUS
 10
97.3248676097
 20
122.4810543412
  0
VERTEX
  8
0
 62
7
  6
CONTINUOUS
 10
97.437311038
 20
122.4390945576
  0
SEQEND
  0
POLYLINE
  8
SURFACE
 62
7
  6
CONTINUOUS
 66
1
 70
0
  0
VERTEX
  8
SURFACE
 62
7
  6
CONTINUOUS
 10
63.7960281097
 20
133.3672224685
  0
VERTEX
  8
SURFACE
 62
7
  6
CONTINUOUS
 10
63.8016031006
 20
133.3649096292
  0
VERTEX
  8
SURFACE
 62
7
  6
CONTINUOUS
 10
63.8185101979
 20
133.359033368
  0
VERTEX
  8
SURFACE
 62
7
  6
CONTINUOUS
 10
63.846498004
 20
133.3503899517
  0
VERTEX
  8
SURFACE
 62
7
  6
CONTINUOUS
 10
63.8847320835
 20
133.3391425809
  0
VERTEX
  8
SURFACE
 62
7
  6
CONTINUOUS
 10
63.9320385352
 20
133.3256175215
  0
VERTEX
  8
SURFACE
 62
7
  6
CONTINUOUS
 10
63.9869318484
 20
133.3102323681
  0
VERTEX
  8
SURFACE
 62
7
  6
CONTINUOUS
 10
64.1123256921
 20
133.2758627288
  0
SEQEND
  0
LINE
  8
SURFACE
 62
7
  6
CONTINUOUS
 10
44.0186397663
 20
155.382227684
 11
39.5919908145
 21
158.598376404
  0
LINE
  8
0
 62
7
  6
CONTINUOUS
 10
44.0186397663
 20
155.382227684
 11
39.5919908145
 21
158.598376404
  0
LINE
  8
0
 62
7
  6
CONTINUOUS
 10
60.2445106004
 20
143.5934424691
 11
85.3375032172
 21
125.362316178
  0
LINE
  8
SURFACE
 62
7
  6
CONTINUOUS
 10
33.189405839
 20
169.056429714
 11
33.2334938577
 21
169.0009780169
  0
POLYLINE
  8
0
 62
7
  6
CONTINUOUS
 66
1
 70
0
  0
VERTEX
  8
0
 62
7
  6
CONTINUOUS
 10
53.7801928076
 20
140.7013651803
  0
VERTEX
  8
0
 62
7
  6
CONTINUOUS
 10
53.8076744009
 20
140.6605535443
  0
VERTEX
  8
0
 62
7
  6
CONTINUOUS
 10
53.8301862665
 20
140.6276664025
  0
VERTEX
  8
0
 62
7
  6
CONTINUOUS
 10
53.8470553515
 20
140.6037193795
  0
VERTEX
  8
0
 62
7
  6
CONTINUOUS
 10
53.8578685879
 20
140.5894556388
  0
VERTEX
  8
0
 62
7
  6
CONTINUOUS
 10
53.8617909965
 20
140.5848682145
  0
SEQEND
  0
POLYLINE
  8
0
 62
7
  6
CONTINUOUS
 66
1
 70
0
  0
VERTEX
  8
0
 62
7
  6
CONTINUOUS
 10
53.6380476416
 20
140.9165190934
  0
VERTEX
  8
0
 62
7
  6
CONTINUOUS
 10
53.6771613925
 20
140.8574533791
  0
VERTEX
  8
0
 62
7
  6
CONTINUOUS
 10
53.7138875052
 20
140.8014039471
  0
VERTEX
  8
0
 62
7
  6
CONTINUOUS
 10
53.7801928076
 20
140.7013651803
  0
SEQEND
  0
POLYLINE
  8
SURFACE
 62
7
  6
CONTINUOUS
 66
1
 70
0
  0
VERTEX
  8
SURFACE
 62
7
  6
CONTINUOUS
 10
32.9872156272
 20
169.3162563504
  0
VERTEX
  8
SURFACE
 62
7
  6
CONTINUOUS
 10
32.9903664367
 20
169.3111083266
  0
VERTEX
  8
SURFACE
 62
7
  6
CONTINUOUS
 10
33.0005905861
 20
169.296416589
  0
VERTEX
  8
SURFACE
 62
7
  6
CONTINUOUS
 10
33.0181527243
 20
169.2729730987
  0
VERTEX
  8
SURFACE
 62
7
  6
CONTINUOUS
 10
33.0424737057
 20
169.2414003565
  0
VERTEX
  8
SURFACE
 62
7
  6
CONTINUOUS
 10
33.0727955986
 20
169.2026523189
  0
VERTEX
  8
SURFACE
 62
7
  6
CONTINUOUS
 10
33.1081620556
 20
169.1579399884
  0
VERTEX
  8
SURFACE
 62
7
  6
CONTINUOUS
 10
33.189405839
 20
169.056429714
  0
SEQEND
  0
LINE
  8
0
 62
7
  6
CONTINUOUS
 10
36.1247989094
 20
179.6769717343
 11
45.7094692096
 21
150.1783897421
  0
LINE
  8
0
 62
7
  6
CONTINUOUS
 10
29.9270677479
 20
198.751626898
 11
28.2362383045
 21
203.9554648399
  0
POLYLINE
  8
0
 62
7
  6
CONTINUOUS
 66
1
 70
0
  0
VERTEX
  8
0
 62
7
  6
CONTINUOUS
 10
38.1705526386
 20
238.3135541925
  0
VERTEX
  8
0
 62
7
  6
CONTINUOUS
 10
38.1544533272
 20
238.4698245239
  0
VERTEX
  8
0
 62
7
  6
CONTINUOUS
 10
38.1485583659
 20
238.531368618
  0
VERTEX
  8
0
 62
7
  6
CONTINUOUS
 10
38.1445041233
 20
238.5776479068
  0
VERTEX
  8
0
 62
7
  6
CONTINUOUS
 10
38.1424692069
 20
238.6064027475
  0
VERTEX
  8
0
 62
7
  6
CONTINUOUS
 10
38.1426848141
 20
238.6162452701
  0
SEQEND
  0
POLYLINE
  8
SURFACE
 62
7
  6
CONTINUOUS
 66
1
 70
0
  0
VERTEX
  8
SURFACE
 62
7
  6
CONTINUOUS
 10
38.1799738133
 20
159.2767897798
  0
VERTEX
  8
SURFACE
 62
7
  6
CONTINUOUS
 10
38.1799184665
 20
159.279679663
  0
VERTEX
  8
SURFACE
 62
7
  6
CONTINUOUS
 10
38.1791315854
 20
159.2826464122
  0
VERTEX
  8
SURFACE
 62
7
  6
CONTINUOUS
 10
38.1776881669
 20
159.2855663764
  0
SEQEND
  0
POLYLINE
  8
0
 62
7
  6
CONTINUOUS
 66
1
 70
0
  0
VERTEX
  8
0
 62
7
  6
CONTINUOUS
 10
38.1799738105
 20
238.2264640164
  0
VERTEX
  8
0
 62
7
  6
CONTINUOUS
 10
38.1799184664
 20
238.2235741323
  0
VERTEX
  8
0
 62
7
  6
CONTINUOUS
 10
38.1791315852
 20
238.2206073835
  0
VERTEX
  8
0
 62
7
  6
CONTINUOUS
 10
38.1776881669
 20
238.2176874197
  0
SEQEND
  0
POLYLINE
  8
SURFACE
 62
7
  6
CONTINUOUS
 66
1
 70
0
  0
VERTEX
  8
SURFACE
 62
7
  6
CONTINUOUS
 10
38.1544533104
 20
159.0334292735
  0
VERTEX
  8
SURFACE
 62
7
  6
CONTINUOUS
 10
38.1485583378
 20
158.9718851807
  0
VERTEX
  8
SURFACE
 62
7
  6
CONTINUOUS
 10
38.1445040751
 20
158.9256058942
  0
VERTEX
  8
SURFACE
 62
7
  6
CONTINUOUS
 10
38.1424691022
 20
158.8968510597
  0
VERTEX
  8
SURFACE
 62
7
  6
CONTINUOUS
 10
38.1426848146
 20
158.887008526
  0
SEQEND
  0
POLYLINE
  8
0
 62
7
  6
CONTINUOUS
 66
1
 70
0
  0
VERTEX
  8
0
 62
7
  6
CONTINUOUS
 10
73.9416764764
 20
269.2818988415
  0
VERTEX
  8
0
 62
7
  6
CONTINUOUS
 10
74.020504915
 20
269.4177873228
  0
VERTEX
  8
0
 62
7
  6
CONTINUOUS
 10
74.0519102328
 20
269.4710426635
  0
VERTEX
  8
0
 62
7
  6
CONTINUOUS
 10
74.0758320846
 20
269.5108666913
  0
VERTEX
  8
0
 62
7
  6
CONTINUOUS
 10
74.0910861357
 20
269.5353267033
  0
VERTEX
  8
0
 62
7
  6
CONTINUOUS
 10
74.0970483708
 20
269.5431612929
  0
SEQEND
  0
POLYLINE
  8
SURFACE
 62
7
  6
CONTINUOUS
 66
1
 70
0
  0
VERTEX
  8
SURFACE
 62
7
  6
CONTINUOUS
 10
27.492661014
 20
205.3342858184
  0
VERTEX
  8
SURFACE
 62
7
  6
CONTINUOUS
 10
27.4943077958
 20
205.3366460752
  0
VERTEX
  8
SURFACE
 62
7
  6
CONTINUOUS
 10
27.4954149998
 20
205.3395087347
  0
VERTEX
  8
SURFACE
 62
7
  6
CONTINUOUS
 10
27.4959635588
 20
205.3427194445
  0
SEQEND
  0
POLYLINE
  8
0
 62
7
  6
CONTINUOUS
 66
1
 70
0
  0
VERTEX
  8
0
 62
7
  6
CONTINUOUS
 10
73.8981121332
 20
269.2059089291
  0
VERTEX
  8
0
 62
7
  6
CONTINUOUS
 10
73.8963647272
 20
269.2035982983
  0
VERTEX
  8
0
 62
7
  6
CONTINUOUS
 10
73.8939843106
 20
269.2016606567
  0
VERTEX
  8
0
 62
7
  6
CONTINUOUS
 10
73.8911002402
 20
269.2001467705
  0
SEQEND
  0
POLYLINE
  8
SURFACE
 62
7
  6
CONTINUOUS
 66
1
 70
0
  0
VERTEX
  8
SURFACE
 62
7
  6
CONTINUOUS
 10
27.3289641009
 20
205.1523930004
  0
VERTEX
  8
SURFACE
 62
7
  6
CONTINUOUS
 10
27.2880205069
 20
205.1060675319
  0
VERTEX
  8
SURFACE
 62
7
  6
CONTINUOUS
 10
27.2575387056
 20
205.0710094289
  0
VERTEX
  8
SURFACE
 62
7
  6
CONTINUOUS
 10
27.2389919645
 20
205.0489412648
  0
VERTEX
  8
SURFACE
 62
7
  6
CONTINUOUS
 10
27.2333788174
 20
205.0408538316
  0
SEQEND
  0
POLYLINE
  8
0
 62
7
  6
CONTINUOUS
 66
1
 70
0
  0
VERTEX
  8
0
 62
7
  6
CONTINUOUS
 10
121.0838599063
 20
273.3100768792
  0
VERTEX
  8
0
 62
7
  6
CONTINUOUS
 10
121.2275066266
 20
273.3736789302
  0
VERTEX
  8
0
 62
7
  6
CONTINUOUS
 10
121.2842167097
 20
273.3983039463
  0
VERTEX
  8
0
 62
7
  6
CONTINUOUS
 10
121.3269777698
 20
273.4164615719
  0
VERTEX
  8
0
 62
7
  6
CONTINUOUS
 10
121.3536955098
 20
273.4272846531
  0
VERTEX
  8
0
 62
7
  6
CONTINUOUS
 10
121.3631246372
 20
273.4301172883
  0
SEQEND
  0
POLYLINE
  8
SURFACE
 62
7
  6
CONTINUOUS
 66
1
 70
0
  0
VERTEX
  8
SURFACE
 62
7
  6
CONTINUOUS
 10
45.9183352255
 20
248.8774110792
  0
VERTEX
  8
SURFACE
 62
7
  6
CONTINUOUS
 10
45.921072743
 20
248.8783589386
  0
VERTEX
  8
SURFACE
 62
7
  6
CONTINUOUS
 10
45.9236511392
 20
248.8800240852
  0
VERTEX
  8
SURFACE
 62
7
  6
CONTINUOUS
 10
45.9259821575
 20
248.8822991828
  0
SEQEND
  0
POLYLINE
  8
0
 62
7
  6
CONTINUOUS
 66
1
 70
0
  0
VERTEX
  8
0
 62
7
  6
CONTINUOUS
 10
121.0039556627
 20
273.2742079181
  0
VERTEX
  8
0
 62
7
  6
CONTINUOUS
 10
121.0011780457
 20
273.2733639455
  0
VERTEX
  8
0
 62
7
  6
CONTINUOUS
 10
120.9981133271
 20
273.2731955325
  0
VERTEX
  8
0
 62
7
  6
CONTINUOUS
 10
120.9948902207
 20
273.2736659872
  0
SEQEND
  0
POLYLINE
  8
SURFACE
 62
7
  6
CONTINUOUS
 66
1
 70
0
  0
VERTEX
  8
SURFACE
 62
7
  6
CONTINUOUS
 10
161.743988047
 20
148.6767711311
  0
VERTEX
  8
SURFACE
 62
7
  6
CONTINUOUS
 10
161.8043416642
 20
148.6901825498
  0
VERTEX
  8
SURFACE
 62
7
  6
CONTINUOUS
 10
161.8496088271
 20
148.7006272669
  0
VERTEX
  8
SURFACE
 62
7
  6
CONTINUOUS
 10
161.8775854504
 20
148.7075761312
  0
VERTEX
  8
SURFACE
 62
7
  6
CONTINUOUS
 10
161.8868790038
 20
148.7108256086
  0
SEQEND
  0
POLYLINE
  8
0
 62
7
  6
CONTINUOUS
 66
1
 70
0
  0
VERTEX
  8
0
 62
7
  6
CONTINUOUS
 10
45.8326024012
 20
148.6437926931
  0
VERTEX
  8
0
 62
7
  6
CONTINUOUS
 10
45.6790054483
 20
148.6767711432
  0
VERTEX
  8
0
 62
7
  6
CONTINUOUS
 10
45.6186518327
 20
148.6901825701
  0
VERTEX
  8
0
 62
7
  6
CONTINUOUS
 10
45.5733846728
 20
148.7006273018
  0
VERTEX
  8
0
 62
7
  6
CONTINUOUS
 10
45.545408058
 20
148.707576207
  0
VERTEX
  8
0
 62
7
  6
CONTINUOUS
 10
45.5361144885
 20
148.7108256083
  0
SEQEND
  0
POLYLINE
  8
SURFACE
 62
7
  6
CONTINUOUS
 66
1
 70
0
  0
VERTEX
  8
SURFACE
 62
7
  6
CONTINUOUS
 10
121.0039556638
 20
124.229045881
  0
VERTEX
  8
SURFACE
 62
7
  6
CONTINUOUS
 10
121.0011780466
 20
124.2298898505
  0
VERTEX
  8
SURFACE
 62
7
  6
CONTINUOUS
 10
120.9981133276
 20
124.2300582636
  0
VERTEX
  8
SURFACE
 62
7
  6
CONTINUOUS
 10
120.9948902207
 20
124.2295878089
  0
SEQEND
  0
POLYLINE
  8
0
 62
7
  6
CONTINUOUS
 66
1
 70
0
  0
VERTEX
  8
0
 62
7
  6
CONTINUOUS
 10
45.918335225
 20
148.625842715
  0
VERTEX
  8
0
 62
7
  6
CONTINUOUS
 10
45.9210727435
 20
148.6248948572
  0
VERTEX
  8
0
 62
7
  6
CONTINUOUS
 10
45.9236511395
 20
148.6232297108
  0
VERTEX
  8
0
 62
7
  6
CONTINUOUS
 10
45.9259821575
 20
148.6209546133
  0
SEQEND
  0
POLYLINE
  8
SURFACE
 62
7
  6
CONTINUOUS
 66
1
 70
0
  0
VERTEX
  8
SURFACE
 62
7
  6
CONTINUOUS
 10
121.227506619
 20
124.1295748477
  0
VERTEX
  8
SURFACE
 62
7
  6
CONTINUOUS
 10
121.2842166967
 20
124.1049498196
  0
VERTEX
  8
SURFACE
 62
7
  6
CONTINUOUS
 10
121.326977747
 20
124.0867921725
  0
VERTEX
  8
SURFACE
 62
7
  6
CONTINUOUS
 10
121.3536954598
 20
124.075969031
  0
VERTEX
  8
SURFACE
 62
7
  6
CONTINUOUS
 10
121.3631246374
 20
124.0731365083
  0
SEQEND
  0
POLYLINE
  8
0
 62
7
  6
CONTINUOUS
 66
1
 70
0
  0
VERTEX
  8
0
 62
7
  6
CONTINUOUS
 10
27.4338418124
 20
192.2338980992
  0
VERTEX
  8
0
 62
7
  6
CONTINUOUS
 10
27.3289641054
 20
192.3508607995
  0
VERTEX
  8
0
 62
7
  6
CONTINUOUS
 10
27.2880205143
 20
192.3971862707
  0
VERTEX
  8
0
 62
7
  6
CONTINUOUS
 10
27.2575387183
 20
192.4322443786
  0
VERTEX
  8
0
 62
7
  6
CONTINUOUS
 10
27.238991992
 20
192.4543125561
  0
VERTEX
  8
0
 62
7
  6
CONTINUOUS
 10
27.2333788173
 20
192.4623999644
  0
SEQEND
  0
POLYLINE
  8
SURFACE
 62
7
  6
CONTINUOUS
 66
1
 70
0
  0
VERTEX
  8
SURFACE
 62
7
  6
CONTINUOUS
 10
73.8981121349
 20
128.2973448681
  0
VERTEX
  8
SURFACE
 62
7
  6
CONTINUOUS
 10
73.8963647276
 20
128.2996554974
  0
VERTEX
  8
SURFACE
 62
7
  6
CONTINUOUS
 10
73.8939843109
 20
128.3015931393
  0
VERTEX
  8
SURFACE
 62
7
  6
CONTINUOUS
 10
73.8911002402
 20
128.3031070256
  0
SEQEND
  0
POLYLINE
  8
0
 62
7
  6
CONTINUOUS
 66
1
 70
0
  0
VERTEX
  8
0
 62
7
  6
CONTINUOUS
 10
27.4926610132
 20
192.168967977
  0
VERTEX
  8
0
 62
7
  6
CONTINUOUS
 10
27.4943077959
 20
192.1666077207
  0
VERTEX
  8
0
 62
7
  6
CONTINUOUS
 10
27.4954149999
 20
192.1637450612
  0
VERTEX
  8
0
 62
7
  6
CONTINUOUS
 10
27.4959635588
 20
192.1605343516
  0
SEQEND
  0
POLYLINE
  8
SURFACE
 62
7
  6
CONTINUOUS
 66
1
 70
0
  0
VERTEX
  8
SURFACE
 62
7
  6
CONTINUOUS
 10
74.0205049044
 20
128.0854664668
  0
VERTEX
  8
SURFACE
 62
7
  6
CONTINUOUS
 10
74.0519102149
 20
128.0322111221
  0
VERTEX
  8
SURFACE
 62
7
  6
CONTINUOUS
 10
74.0758320538
 20
127.9923870869
  0
VERTEX
  8
SURFACE
 62
7
  6
CONTINUOUS
 10
74.0910860685
 20
127.9679270542
  0
VERTEX
  8
SURFACE
 62
7
  6
CONTINUOUS
 10
74.0970483711
 20
127.9600925034
  0
SEQEND
  0
LINE
  8
0
 62
7
  6
CONTINUOUS
 10
38.179973638
 20
238.2264549594
 11
38.1705526386
 21
238.3135541925
  0
LINE
  8
0
 62
7
  6
CONTINUOUS
 10
49.7105957151
 20
198.7701742525
 11
49.7139978885
 21
198.1451837508
  0
LINE
  8
0
 62
7
  6
CONTINUOUS
 10
50.3522862279
 20
198.1486583118
 11
50.3488840544
 21
198.7736488135
  0
POLYLINE
  8
SURFACE
 62
7
  6
CONTINUOUS
 66
1
 70
0
  0
VERTEX
  8
SURFACE
 62
7
  6
CONTINUOUS
 10
38.1799736408
 20
159.2767988357
  0
VERTEX
  8
SURFACE
 62
7
  6
CONTINUOUS
 10
38.1705526357
 20
159.1896996033
  0
VERTEX
  8
SURFACE
 62
7
  6
CONTINUOUS
 10
38.1544533104
 20
159.0334292735
  0
SEQEND
  0
LINE
  8
0
 62
7
  6
CONTINUOUS
 10
51.5147054428
 20
212.9112518092
 11
51.2808479923
 21
211.8108265765
  0
LINE
  8
0
 62
7
  6
CONTINUOUS
 10
50.5013231573
 20
208.1427424674
 11
50.2674657068
 21
207.0423172346
  0
LINE
  8
0
 62
7
  6
CONTINUOUS
 10
53.0490281518
 20
217.4542185229
 11
52.0459917101
 21
214.6268667768
  0
LINE
  8
0
 62
7
  6
CONTINUOUS
 10
52.8983149502
 20
215.1202927299
 11
53.6923848288
 21
217.3586110647
  0
LINE
  8
0
 62
7
  6
CONTINUOUS
 10
55.5831987648
 20
223.249373549
 11
54.256469301
 21
220.5586879617
  0
LINE
  8
0
 62
7
  6
CONTINUOUS
 10
73.8981027193
 20
269.2058964793
 11
73.9416764764
 21
269.2818988415
  0
LINE
  8
0
 62
7
  6
CONTINUOUS
 10
61.7711222596
 20
232.8581510585
 11
61.325343832
 21
232.2550079632
  0
LINE
  8
0
 62
7
  6
CONTINUOUS
 10
59.245043936
 20
229.4403394182
 11
58.7992655083
 21
228.8371963229
  0
POLYLINE
  8
SURFACE
 62
7
  6
CONTINUOUS
 66
1
 70
0
  0
VERTEX
  8
SURFACE
 62
7
  6
CONTINUOUS
 10
27.4926590815
 20
205.3342830466
  0
VERTEX
  8
SURFACE
 62
7
  6
CONTINUOUS
 10
27.4338418115
 20
205.2693556974
  0
VERTEX
  8
SURFACE
 62
7
  6
CONTINUOUS
 10
27.3289641009
 20
205.1523930004
  0
SEQEND
  0
LINE
  8
0
 62
7
  6
CONTINUOUS
 10
78.5158590463
 20
246.5182731538
 11
77.5275636273
 21
245.9807816051
  0
LINE
  8
0
 62
7
  6
CONTINUOUS
 10
121.0039349574
 20
273.274201626
 11
121.0838599063
 21
273.3100768792
  0
LINE
  8
0
 62
7
  6
CONTINUOUS
 10
84.4047909238
 20
249.186969307
 11
81.6169350219
 21
248.0788811018
  0
LINE
  8
0
 62
7
  6
CONTINUOUS
 10
82.5496624172
 20
247.7627423937
 11
84.7567185511
 21
248.6399802985
  0
LINE
  8
0
 62
7
  6
CONTINUOUS
 10
107.9687394481
 20
142.681158812
 11
108.1804092462
 21
142.7402226425
  0
LINE
  8
0
 62
7
  6
CONTINUOUS
 10
107.9687394481
 20
142.828818387
 11
107.8629042462
 21
142.7992864756
  0
LINE
  8
0
 62
7
  6
CONTINUOUS
 10
106.9103892462
 20
143.4194566765
 11
107.0162244481
 21
143.4489885879
  0
LINE
  8
0
 62
7
  6
CONTINUOUS
 10
106.9103892462
 20
143.5671162333
 11
106.6987194481
 21
143.5080524106
  0
LINE
  8
0
 62
7
  6
CONTINUOUS
 10
102.9944940443
 20
142.828818387
 11
102.7299066453
 21
142.7697545539
  0
POLYLINE
  8
SURFACE
 62
7
  6
CONTINUOUS
 66
1
 70
0
  0
VERTEX
  8
SURFACE
 62
7
  6
CONTINUOUS
 10
161.504643518
 20
148.6258376111
  0
VERTEX
  8
SURFACE
 62
7
  6
CONTINUOUS
 10
161.5903910921
 20
148.6437926911
  0
VERTEX
  8
SURFACE
 62
7
  6
CONTINUOUS
 10
161.743988047
 20
148.6767711311
  0
SEQEND
  0
LINE
  8
0
 62
7
  6
CONTINUOUS
 10
98.4435892588
 20
143.5671162333
 11
98.2848367588
 21
143.537584322
  0
LINE
  8
0
 62
7
  6
CONTINUOUS
 10
107.8629042462
 20
142.7992864756
 11
107.6512344481
 21
142.7697545539
  0
LINE
  8
0
 62
7
  6
CONTINUOUS
 10
107.0162244481
 20
143.4489885879
 11
107.2278942462
 21
143.4785204992
  0
LINE
  8
0
 62
7
  6
CONTINUOUS
 10
105.2170290443
 20
143.4489885879
 11
105.4286994481
 21
143.4785204992
  0
LINE
  8
0
 62
7
  6
CONTINUOUS
 10
102.4124016453
 20
143.1241375214
 11
102.6240717462
 21
143.1536694328
  0
LINE
  8
0
 62
7
  6
CONTINUOUS
 10
105.4286994481
 20
143.5966481447
 11
105.2170290443
 21
143.5671162333
  0
LINE
  8
0
 62
7
  6
CONTINUOUS
 10
102.3065667462
 20
143.4489885879
 11
102.5182368471
 21
143.4785204992
  0
LINE
  8
0
 62
7
  6
CONTINUOUS
 10
100.5073716453
 20
143.4489885879
 11
100.7190417462
 21
143.4785204992
  0
LINE
  8
0
 62
7
  6
CONTINUOUS
 10
100.7190417462
 20
143.5966481447
 11
100.5073716453
 21
143.5671162333
  0
LINE
  8
0
 62
7
  6
CONTINUOUS
 10
98.4965067462
 20
143.4489885879
 11
98.7081767714
 21
143.4785204992
  0
LINE
  8
0
 62
7
  6
CONTINUOUS
 10
102.7299066453
 20
142.651626898
 11
102.9944940443
 21
142.681158812
  0
LINE
  8
0
 62
7
  6
CONTINUOUS
 10
107.6512344481
 20
142.651626898
 11
107.9687394481
 21
142.681158812
  0
LINE
  8
0
 62
7
  6
CONTINUOUS
 10
107.2278942462
 20
143.5966481447
 11
106.9103892462
 21
143.5671162333
  0
LINE
  8
0
 62
7
  6
CONTINUOUS
 10
102.6240717462
 20
143.2717971196
 11
102.3065667462
 21
143.2422652082
  0
LINE
  8
0
 62
7
  6
CONTINUOUS
 10
98.761094221
 20
143.5966481447
 11
98.4435892588
 21
143.5671162333
  0
LINE
  8
0
 62
7
  6
CONTINUOUS
 10
98.761094221
 20
142.651626898
 11
99.1315167462
 21
142.681158812
  0
LINE
  8
0
 62
7
  6
CONTINUOUS
 10
99.078599221
 20
142.7992864756
 11
98.7081767714
 21
142.7697545539
  0
LINE
  8
0
 62
7
  6
CONTINUOUS
 10
102.5182368471
 20
143.5966481447
 11
102.1478142462
 21
143.5671162333
  0
LINE
  8
0
 62
7
  6
CONTINUOUS
 10
99.9781966957
 20
142.651626898
 11
100.2427842462
 21
142.651626898
  0
LINE
  8
0
 62
7
  6
CONTINUOUS
 10
101.1952992462
 20
142.651626898
 11
101.4598866453
 21
142.651626898
  0
LINE
  8
0
 62
7
  6
CONTINUOUS
 10
102.4124016453
 20
142.651626898
 11
102.7299066453
 21
142.651626898
  0
LINE
  8
0
 62
7
  6
CONTINUOUS
 10
103.3119990443
 20
142.651626898
 11
103.5765867462
 21
142.651626898
  0
LINE
  8
0
 62
7
  6
CONTINUOUS
 10
103.9999269481
 20
142.651626898
 11
104.2645140443
 21
142.651626898
  0
LINE
  8
0
 62
7
  6
CONTINUOUS
 10
104.6878542462
 20
142.651626898
 11
104.9524419481
 21
142.651626898
  0
LINE
  8
0
 62
7
  6
CONTINUOUS
 10
105.9049569481
 20
142.651626898
 11
106.1695440443
 21
142.651626898
  0
LINE
  8
0
 62
7
  6
CONTINUOUS
 10
107.3337294481
 20
142.651626898
 11
107.6512344481
 21
142.651626898
  0
LINE
  8
0
 62
7
  6
CONTINUOUS
 10
107.6512344481
 20
142.7697545539
 11
107.3337294481
 21
142.7697545539
  0
LINE
  8
0
 62
7
  6
CONTINUOUS
 10
102.7299066453
 20
142.7697545539
 11
102.4124016453
 21
142.7697545539
  0
LINE
  8
0
 62
7
  6
CONTINUOUS
 10
106.8574719481
 20
142.8878822097
 11
106.5928842462
 21
142.8878822097
  0
LINE
  8
0
 62
7
  6
CONTINUOUS
 10
99.5548567967
 20
142.9469460531
 11
99.2902692462
 21
142.9469460531
  0
LINE
  8
0
 62
7
  6
CONTINUOUS
 10
102.6240717462
 20
143.1536694328
 11
103.2061644481
 21
143.1536694328
  0
LINE
  8
0
 62
7
  6
CONTINUOUS
 10
103.2061644481
 20
143.2717971196
 11
102.6240717462
 21
143.2717971196
  0
LINE
  8
0
 62
7
  6
CONTINUOUS
 10
99.2902692462
 20
143.301329031
 11
99.5548567967
 21
143.301329031
  0
LINE
  8
0
 62
7
  6
CONTINUOUS
 10
101.8832268471
 20
143.3603928537
 11
102.1478142462
 21
143.3603928537
  0
LINE
  8
0
 62
7
  6
CONTINUOUS
 10
108.0216567462
 20
143.3603928537
 11
108.2862438425
 21
143.3603928537
  0
LINE
  8
0
 62
7
  6
CONTINUOUS
 10
102.5182368471
 20
143.4785204992
 11
102.8357418471
 21
143.4785204992
  0
LINE
  8
0
 62
7
  6
CONTINUOUS
 10
107.2278942462
 20
143.4785204992
 11
107.5453992462
 21
143.4785204992
  0
LINE
  8
0
 62
7
  6
CONTINUOUS
 10
107.5453992462
 20
143.5966481447
 11
107.2278942462
 21
143.5966481447
  0
LINE
  8
0
 62
7
  6
CONTINUOUS
 10
105.6403692462
 20
143.5966481447
 11
105.4286994481
 21
143.5966481447
  0
LINE
  8
0
 62
7
  6
CONTINUOUS
 10
104.9524419481
 20
143.5966481447
 11
104.6878542462
 21
143.5966481447
  0
LINE
  8
0
 62
7
  6
CONTINUOUS
 10
104.2645140443
 20
143.5966481447
 11
103.9999269481
 21
143.5966481447
  0
LINE
  8
0
 62
7
  6
CONTINUOUS
 10
102.8357418471
 20
143.5966481447
 11
102.5182368471
 21
143.5966481447
  0
LINE
  8
0
 62
7
  6
CONTINUOUS
 10
100.9307118471
 20
143.5966481447
 11
100.7190417462
 21
143.5966481447
  0
LINE
  8
0
 62
7
  6
CONTINUOUS
 10
103.9999269481
 20
143.8919673412
 11
104.2645140443
 21
143.8919673412
  0
LINE
  8
0
 62
7
  6
CONTINUOUS
 10
104.2645140443
 20
144.039626898
 11
103.9999269481
 21
144.039626898
  0
LINE
  8
0
 62
7
  6
CONTINUOUS
 10
100.2427842462
 20
144.039626898
 11
99.9781966957
 21
144.039626898
  0
LINE
  8
0
 62
7
  6
CONTINUOUS
 10
99.3614967462
 20
144.301626898
 11
99.7389995302
 21
144.301626898
  0
LINE
  8
0
 62
7
  6
CONTINUOUS
 10
100.8614967462
 20
144.301626898
 11
102.1364967462
 21
144.301626898
  0
LINE
  8
0
 62
7
  6
CONTINUOUS
 10
102.4364967462
 20
144.301626898
 11
103.7114967462
 21
144.301626898
  0
LINE
  8
0
 62
7
  6
CONTINUOUS
 10
105.4364967462
 20
144.301626898
 11
106.7114967462
 21
144.301626898
  0
LINE
  8
0
 62
7
  6
CONTINUOUS
 10
107.0114967462
 20
144.301626898
 11
108.2864967462
 21
144.301626898
  0
LINE
  8
0
 62
7
  6
CONTINUOUS
 10
100.1114967462
 20
145.351626898
 11
99.5114967462
 21
145.351626898
  0
LINE
  8
0
 62
7
  6
CONTINUOUS
 10
98.7081767714
 20
143.4785204992
 11
99.078599221
 21
143.4489885879
  0
LINE
  8
0
 62
7
  6
CONTINUOUS
 10
99.1315167462
 20
143.5671162333
 11
98.761094221
 21
143.5966481447
  0
LINE
  8
0
 62
7
  6
CONTINUOUS
 10
98.4435892588
 20
142.681158812
 11
98.761094221
 21
142.651626898
  0
LINE
  8
0
 62
7
  6
CONTINUOUS
 10
107.0162244481
 20
142.681158812
 11
107.3337294481
 21
142.651626898
  0
LINE
  8
0
 62
7
  6
CONTINUOUS
 10
107.3337294481
 20
142.7697545539
 11
107.0162244481
 21
142.7992864756
  0
LINE
  8
0
 62
7
  6
CONTINUOUS
 10
103.1532465443
 20
143.5671162333
 11
102.8357418471
 21
143.5966481447
  0
LINE
  8
0
 62
7
  6
CONTINUOUS
 10
107.5453992462
 20
143.4785204992
 11
107.8629042462
 21
143.4489885879
  0
LINE
  8
0
 62
7
  6
CONTINUOUS
 10
107.8629042462
 20
143.5671162333
 11
107.5453992462
 21
143.5966481447
  0
LINE
  8
0
 62
7
  6
CONTINUOUS
 10
102.2007318471
 20
142.681158812
 11
102.4124016453
 21
142.651626898
  0
LINE
  8
0
 62
7
  6
CONTINUOUS
 10
100.7190417462
 20
143.4785204992
 11
100.9307118471
 21
143.4489885879
  0
LINE
  8
0
 62
7
  6
CONTINUOUS
 10
102.8357418471
 20
143.4785204992
 11
103.0474119481
 21
143.4489885879
  0
LINE
  8
0
 62
7
  6
CONTINUOUS
 10
105.4286994481
 20
143.4785204992
 11
105.6403692462
 21
143.4489885879
  0
LINE
  8
0
 62
7
  6
CONTINUOUS
 10
106.9103892462
 20
143.1536694328
 11
107.8099869481
 21
143.0060098759
  0
LINE
  8
0
 62
7
  6
CONTINUOUS
 10
107.9687394481
 20
143.09460561
 11
107.0691417462
 21
143.2422652082
  0
LINE
  8
0
 62
7
  6
CONTINUOUS
 10
98.2848367588
 20
142.710690726
 11
98.4435892588
 21
142.681158812
  0
LINE
  8
0
 62
7
  6
CONTINUOUS
 10
98.7081767714
 20
142.7697545539
 11
98.3906717336
 21
142.828818387
  0
LINE
  8
0
 62
7
  6
CONTINUOUS
 10
101.0894643471
 20
143.5671162333
 11
100.9307118471
 21
143.5966481447
  0
LINE
  8
0
 62
7
  6
CONTINUOUS
 10
106.8574719481
 20
142.710690726
 11
107.0162244481
 21
142.681158812
  0
LINE
  8
0
 62
7
  6
CONTINUOUS
 10
105.7991217462
 20
143.5671162333
 11
105.6403692462
 21
143.5966481447
  0
LINE
  8
0
 62
7
  6
CONTINUOUS
 10
108.0216567462
 20
143.537584322
 11
107.8629042462
 21
143.5671162333
  0
LINE
  8
0
 62
7
  6
CONTINUOUS
 10
45.9183499745
 20
148.625837609
 11
45.8326024012
 21
148.6437926931
  0
LINE
  8
0
 62
7
  6
CONTINUOUS
 10
102.0948966453
 20
142.710690726
 11
102.2007318471
 21
142.681158812
  0
LINE
  8
0
 62
7
  6
CONTINUOUS
 10
99.3431866957
 20
143.5080524106
 11
99.1315167462
 21
143.5671162333
  0
LINE
  8
0
 62
7
  6
CONTINUOUS
 10
102.4124016453
 20
142.7697545539
 11
102.2007318471
 21
142.828818387
  0
LINE
  8
0
 62
7
  6
CONTINUOUS
 10
100.9307118471
 20
143.4489885879
 11
101.0365467462
 21
143.4194566765
  0
LINE
  8
0
 62
7
  6
CONTINUOUS
 10
103.0474119481
 20
143.4489885879
 11
103.1532465443
 21
143.4194566765
  0
LINE
  8
0
 62
7
  6
CONTINUOUS
 10
98.1260842399
 20
142.7697545539
 11
98.2848367588
 21
142.710690726
  0
LINE
  8
0
 62
7
  6
CONTINUOUS
 10
99.078599221
 20
143.4489885879
 11
99.2373517967
 21
143.3899247651
  0
POLYLINE
  8
SURFACE
 62
7
  6
CONTINUOUS
 66
1
 70
0
  0
VERTEX
  8
SURFACE
 62
7
  6
CONTINUOUS
 10
121.0039349595
 20
124.2290521728
  0
VERTEX
  8
SURFACE
 62
7
  6
CONTINUOUS
 10
121.0838599056
 20
124.1931769135
  0
VERTEX
  8
SURFACE
 62
7
  6
CONTINUOUS
 10
121.227506619
 20
124.1295748477
  0
SEQEND
  0
LINE
  8
0
 62
7
  6
CONTINUOUS
 10
27.4926590809
 20
192.1689707486
 11
27.4338418124
 21
192.2338980992
  0
POLYLINE
  8
SURFACE
 62
7
  6
CONTINUOUS
 66
1
 70
0
  0
VERTEX
  8
SURFACE
 62
7
  6
CONTINUOUS
 10
73.8981027213
 20
128.2973573174
  0
VERTEX
  8
SURFACE
 62
7
  6
CONTINUOUS
 10
73.9416764748
 20
128.2213549532
  0
VERTEX
  8
SURFACE
 62
7
  6
CONTINUOUS
 10
74.0205049044
 20
128.0854664668
  0
SEQEND
  0
LINE
  8
0
 62
7
  6
CONTINUOUS
 10
51.7166182465
 20
195.6466464368
 11
51.7512133985
 21
195.1478444582
  0
LINE
  8
0
 62
7
  6
CONTINUOUS
 10
51.8290524534
 20
194.0255405414
 11
51.872296381
 21
193.4020382465
  0
LINE
  8
0
 62
7
  6
CONTINUOUS
 10
55.9476126021
 20
193.6846878554
 11
55.9043686745
 21
194.3081901503
  0
LINE
  8
0
 62
7
  6
CONTINUOUS
 10
55.7486905647
 20
196.5527979838
 11
55.7054466618
 21
197.1762999219
  0
LINE
  8
0
 62
7
  6
CONTINUOUS
 10
51.6254610907
 20
198.7805979375
 11
51.6288632641
 21
198.1556074358
  0
LINE
  8
0
 62
7
  6
CONTINUOUS
 10
55.7139089935
 20
198.1778446282
 11
55.71050682
 21
198.8028351299
  0
LINE
  8
0
 62
7
  6
CONTINUOUS
 10
55.502144284
 20
217.1144763597
 11
55.4970775547
 21
216.7183749948
  0
LINE
  8
0
 62
7
  6
CONTINUOUS
 10
56.4304727425
 20
189.7085972647
 11
56.4726247175
 21
190.2229124863
  0
LINE
  8
0
 62
7
  6
CONTINUOUS
 10
57.9797674817
 20
222.6251445203
 11
57.9284235441
 21
222.2323522557
  0
LINE
  8
0
 62
7
  6
CONTINUOUS
 10
60.3842098754
 20
221.4395565115
 11
60.3328659378
 21
221.0467642469
  0
LINE
  8
0
 62
7
  6
CONTINUOUS
 10
56.1771619628
 20
216.3444760895
 11
56.2658147434
 21
216.9761892012
  0
LINE
  8
0
 62
7
  6
CONTINUOUS
 10
52.2606278815
 20
195.1831756562
 11
52.3533863503
 21
195.6908104343
  0
LINE
  8
0
 62
7
  6
CONTINUOUS
 10
56.1364002814
 20
205.7950774987
 11
56.2923052484
 21
206.5286943205
  0
LINE
  8
0
 62
7
  6
CONTINUOUS
 10
56.6560833065
 20
208.2404659719
 11
56.8639566949
 21
209.2186222008
  0
LINE
  8
0
 62
7
  6
CONTINUOUS
 10
57.2277350504
 20
210.9303952514
 11
57.3836400174
 21
211.6640120733
  0
LINE
  8
0
 62
7
  6
CONTINUOUS
 10
60.9645699395
 20
220.5959146214
 11
61.1264742339
 21
221.2129298346
  0
LINE
  8
0
 62
7
  6
CONTINUOUS
 10
51.8180255156
 20
196.0295805419
 11
51.7166182465
 21
195.6466464368
  0
LINE
  8
0
 62
7
  6
CONTINUOUS
 10
55.4970775547
 20
216.7183749948
 11
54.703007676
 21
214.48005666
  0
LINE
  8
0
 62
7
  6
CONTINUOUS
 10
55.4248846315
 20
214.2239622799
 11
56.1771619628
 21
216.3444760895
  0
LINE
  8
0
 62
7
  6
CONTINUOUS
 10
57.7006952025
 20
212.6207938933
 11
57.9514543129
 21
213.3276318299
  0
LINE
  8
0
 62
7
  6
CONTINUOUS
 10
52.3533863503
 20
195.6908104343
 11
52.4634424198
 21
195.9490438664
  0
LINE
  8
0
 62
7
  6
CONTINUOUS
 10
55.2751351393
 20
220.8926199613
 11
56.3254617879
 21
223.0227443406
  0
LINE
  8
0
 62
7
  6
CONTINUOUS
 10
57.9284235441
 20
222.2323522557
 11
56.8780968954
 21
220.1022278764
  0
LINE
  8
0
 62
7
  6
CONTINUOUS
 10
57.5650803678
 20
219.7634884792
 11
58.6154070164
 21
221.8936128585
  0
LINE
  8
0
 62
7
  6
CONTINUOUS
 10
60.3328659378
 20
221.0467642469
 11
59.2825392891
 21
218.9166398676
  0
LINE
  8
0
 62
7
  6
CONTINUOUS
 10
59.6378404757
 20
217.9052290341
 11
60.9645699395
 21
220.5959146214
  0
LINE
  8
0
 62
7
  6
CONTINUOUS
 10
53.3783065843
 20
218.0005668412
 11
53.0490281518
 21
217.4542185229
  0
LINE
  8
0
 62
7
  6
CONTINUOUS
 10
60.7294654943
 20
225.8570875702
 11
59.8197066824
 21
224.3621509273
  0
LINE
  8
0
 62
7
  6
CONTINUOUS
 10
60.3649727121
 20
224.0303237708
 11
61.2747315241
 21
225.5252604137
  0
LINE
  8
0
 62
7
  6
CONTINUOUS
 10
77.0395008827
 20
245.5700272934
 11
76.7222440329
 21
245.1068491029
  0
LINE
  8
0
 62
7
  6
CONTINUOUS
 10
63.2759343229
 20
230.8133415181
 11
61.1956344269
 21
227.9986729731
  0
LINE
  8
0
 62
7
  6
CONTINUOUS
 10
61.8116102806
 20
227.5434099523
 11
63.8919101766
 21
230.3580784973
  0
LINE
  8
0
 62
7
  6
CONTINUOUS
 10
63.6244102708
 20
225.2709689015
 11
64.0701886984
 21
225.8741119968
  0
LINE
  8
0
 62
7
  6
CONTINUOUS
 10
66.1504885944
 20
228.6887805418
 11
66.5962670221
 21
229.2919236371
  0
LINE
  8
0
 62
7
  6
CONTINUOUS
 10
55.9740975601
 20
223.7534756248
 11
55.5831987648
 21
223.249373549
  0
LINE
  8
0
 62
7
  6
CONTINUOUS
 10
53.6923848288
 20
217.3586110647
 11
53.9380772099
 21
217.6693476363
  0
LINE
  8
0
 62
7
  6
CONTINUOUS
 10
56.3254617879
 20
223.0227443406
 11
56.6058002163
 21
223.3026234728
  0
LINE
  8
0
 62
7
  6
CONTINUOUS
 10
58.6154070164
 20
221.8936128585
 11
58.8957454448
 21
222.1734919907
  0
LINE
  8
0
 62
7
  6
CONTINUOUS
 10
77.5152664851
 20
244.956868492
 11
77.8935152764
 21
245.307899698
  0
LINE
  8
0
 62
7
  6
CONTINUOUS
 10
81.3947777387
 20
242.2712774444
 11
81.0165289474
 21
241.9202462384
  0
LINE
  8
0
 62
7
  6
CONTINUOUS
 10
85.7653382464
 20
247.1176408653
 11
85.4640089426
 21
246.8604976877
  0
LINE
  8
0
 62
7
  6
CONTINUOUS
 10
77.5275636273
 20
245.9807816051
 11
77.0395008827
 21
245.5700272934
  0
LINE
  8
0
 62
7
  6
CONTINUOUS
 10
81.3824806392
 20
241.2473642527
 11
81.8705433784
 21
241.6581185743
  0
LINE
  8
0
 62
7
  6
CONTINUOUS
 10
58.8286565238
 20
222.9034228974
 11
58.6035976462
 21
222.7356539539
  0
LINE
  8
0
 62
7
  6
CONTINUOUS
 10
91.5433521713
 20
248.8841729094
 11
91.2140245226
 21
248.6640246347
  0
LINE
  8
0
 62
7
  6
CONTINUOUS
 10
92.2354886159
 20
246.2942097257
 11
91.9061609672
 21
246.0740614509
  0
LINE
  8
0
 62
7
  6
CONTINUOUS
 10
85.6307608389
 20
246.1025330255
 11
86.1644132403
 21
246.4520175913
  0
LINE
  8
0
 62
7
  6
CONTINUOUS
 10
77.8935152764
 20
245.307899698
 11
78.8818106954
 21
245.8453912466
  0
LINE
  8
0
 62
7
  6
CONTINUOUS
 10
80.1262490077
 20
245.6502802021
 11
80.7851126204
 21
246.0086079012
  0
LINE
  8
0
 62
7
  6
CONTINUOUS
 10
82.1879273606
 20
243.4292271
 11
81.529063748
 21
243.0708994009
  0
LINE
  8
0
 62
7
  6
CONTINUOUS
 10
81.0165289474
 20
241.9202462384
 11
80.0282335284
 21
241.3827546898
  0
LINE
  8
0
 62
7
  6
CONTINUOUS
 10
80.3941852202
 20
240.7098727041
 11
81.3824806392
 21
241.2473642527
  0
LINE
  8
0
 62
7
  6
CONTINUOUS
 10
91.9831483804
 20
245.301798737
 11
92.554002218
 21
245.5864919863
  0
LINE
  8
0
 62
7
  6
CONTINUOUS
 10
85.4640089426
 20
246.8604976877
 11
83.2569528087
 21
245.9832597829
  0
LINE
  8
0
 62
7
  6
CONTINUOUS
 10
83.5398689125
 20
245.2714668715
 11
85.6307608389
 21
246.1025330255
  0
LINE
  8
0
 62
7
  6
CONTINUOUS
 10
83.8331114324
 20
242.5031692981
 11
84.5300754078
 21
242.7801913494
  0
LINE
  8
0
 62
7
  6
CONTINUOUS
 10
79.1259056739
 20
246.7047334965
 11
78.5158590463
 21
246.5182731538
  0
LINE
  8
0
 62
7
  6
CONTINUOUS
 10
79.7841385873
 20
240.5234123712
 11
80.3941852202
 21
240.7098727041
  0
LINE
  8
0
 62
7
  6
CONTINUOUS
 10
102.3065667462
 20
143.09460561
 11
102.4124016453
 21
143.1241375214
  0
LINE
  8
0
 62
7
  6
CONTINUOUS
 10
102.3065667462
 20
143.2422652082
 11
102.0948966453
 21
143.1832013855
  0
LINE
  8
0
 62
7
  6
CONTINUOUS
 10
102.2007318471
 20
143.4194566765
 11
102.3065667462
 21
143.4489885879
  0
LINE
  8
0
 62
7
  6
CONTINUOUS
 10
99.1315167462
 20
142.681158812
 11
99.3431866957
 21
142.7402226425
  0
LINE
  8
0
 62
7
  6
CONTINUOUS
 10
102.1478142462
 20
143.5671162333
 11
102.0419793471
 21
143.537584322
  0
LINE
  8
0
 62
7
  6
CONTINUOUS
 10
98.3906717336
 20
143.4194566765
 11
98.4965067462
 21
143.4489885879
  0
LINE
  8
0
 62
7
  6
CONTINUOUS
 10
104.4614967462
 20
146.701626898
 11
105.0614967462
 21
146.701626898
  0
LINE
  8
0
 62
7
  6
CONTINUOUS
 10
108.2864967462
 20
147.751626898
 11
107.0114967462
 21
147.751626898
  0
LINE
  8
0
 62
7
  6
CONTINUOUS
 10
105.2114967462
 20
147.751626898
 11
104.8339939622
 21
147.751626898
  0
LINE
  8
0
 62
7
  6
CONTINUOUS
 10
103.7114967462
 20
147.751626898
 11
102.4364967462
 21
147.751626898
  0
LINE
  8
0
 62
7
  6
CONTINUOUS
 10
102.1364967462
 20
147.751626898
 11
100.8614967462
 21
147.751626898
  0
LINE
  8
0
 62
7
  6
CONTINUOUS
 10
99.1364967462
 20
147.751626898
 11
97.8614967462
 21
147.751626898
  0
LINE
  8
0
 62
7
  6
CONTINUOUS
 10
107.0162244481
 20
142.7992864756
 11
106.9103892462
 21
142.828818387
  0
LINE
  8
0
 62
7
  6
CONTINUOUS
 10
105.6403692462
 20
143.4489885879
 11
105.7462044481
 21
143.4194566765
  0
LINE
  8
0
 62
7
  6
CONTINUOUS
 10
107.8629042462
 20
143.4489885879
 11
107.9687394481
 21
143.4194566765
  0
LINE
  8
0
 62
7
  6
CONTINUOUS
 10
101.2482168471
 20
143.5080524106
 11
101.0894643471
 21
143.5671162333
  0
LINE
  8
0
 62
7
  6
CONTINUOUS
 10
103.3119990443
 20
143.5080524106
 11
103.1532465443
 21
143.5671162333
  0
LINE
  8
0
 62
7
  6
CONTINUOUS
 10
106.6987194481
 20
142.7697545539
 11
106.8574719481
 21
142.710690726
  0
LINE
  8
0
 62
7
  6
CONTINUOUS
 10
105.9578742462
 20
143.5080524106
 11
105.7991217462
 21
143.5671162333
  0
LINE
  8
0
 62
7
  6
CONTINUOUS
 10
107.0691417462
 20
143.2422652082
 11
106.9103892462
 21
143.301329031
  0
LINE
  8
0
 62
7
  6
CONTINUOUS
 10
107.8099869481
 20
143.0060098759
 11
107.9687394481
 21
142.9469460531
  0
LINE
  8
0
 62
7
  6
CONTINUOUS
 10
108.1804092462
 20
143.4785204992
 11
108.0216567462
 21
143.537584322
  0
LINE
  8
0
 62
7
  6
CONTINUOUS
 10
106.6987194481
 20
143.2422652082
 11
106.9103892462
 21
143.1536694328
  0
LINE
  8
0
 62
7
  6
CONTINUOUS
 10
108.1804092462
 20
143.0060098759
 11
107.9687394481
 21
143.09460561
  0
LINE
  8
0
 62
7
  6
CONTINUOUS
 10
98.0202492462
 20
142.828818387
 11
98.1260842399
 21
142.7697545539
  0
LINE
  8
0
 62
7
  6
CONTINUOUS
 10
98.3906717336
 20
142.828818387
 11
98.2319192336
 21
142.9174141418
  0
LINE
  8
0
 62
7
  6
CONTINUOUS
 10
99.5019391957
 20
143.4194566765
 11
99.3431866957
 21
143.5080524106
  0
LINE
  8
0
 62
7
  6
CONTINUOUS
 10
101.9361441453
 20
142.7992864756
 11
102.0948966453
 21
142.710690726
  0
LINE
  8
0
 62
7
  6
CONTINUOUS
 10
101.0365467462
 20
143.4194566765
 11
101.1423816453
 21
143.3603928537
  0
LINE
  8
0
 62
7
  6
CONTINUOUS
 10
101.3540517462
 20
143.4489885879
 11
101.2482168471
 21
143.5080524106
  0
LINE
  8
0
 62
7
  6
CONTINUOUS
 10
103.4178342462
 20
143.4489885879
 11
103.3119990443
 21
143.5080524106
  0
LINE
  8
0
 62
7
  6
CONTINUOUS
 10
105.7462044481
 20
143.4194566765
 11
105.8520390443
 21
143.3603928537
  0
LINE
  8
0
 62
7
  6
CONTINUOUS
 10
106.0637094481
 20
143.4489885879
 11
105.9578742462
 21
143.5080524106
  0
LINE
  8
0
 62
7
  6
CONTINUOUS
 10
55.6759232212
 20
191.1019408119
 11
55.8854870966
 21
190.6303691447
  0
LINE
  8
0
 62
7
  6
CONTINUOUS
 10
56.3889187614
 20
190.7158560657
 11
56.179354919
 21
191.1874277386
  0
LINE
  8
0
 62
7
  6
CONTINUOUS
 10
51.7512133985
 20
195.1478444582
 11
51.9131621712
 21
194.6578752791
  0
LINE
  8
0
 62
7
  6
CONTINUOUS
 10
52.4225766543
 20
194.6932064771
 11
52.2606278815
 21
195.1831756562
  0
LINE
  8
0
 62
7
  6
CONTINUOUS
 10
52.0684946418
 20
191.757262961
 11
52.1731270944
 21
191.1410834426
  0
LINE
  8
0
 62
7
  6
CONTINUOUS
 10
52.5916568078
 20
188.6763659421
 11
52.696289238
 21
188.0601865559
  0
LINE
  8
0
 62
7
  6
CONTINUOUS
 10
55.8854870966
 20
190.6303691447
 11
55.9691930528
 21
190.1374255652
  0
LINE
  8
0
 62
7
  6
CONTINUOUS
 10
56.4726247175
 20
190.2229124863
 11
56.3889187614
 21
190.7158560657
  0
LINE
  8
0
 62
7
  6
CONTINUOUS
 10
56.1587274194
 20
192.0714506888
 11
56.0540949667
 21
192.6876302072
  0
LINE
  8
0
 62
7
  6
CONTINUOUS
 10
58.6035976462
 20
222.7356539539
 11
58.599662033
 21
223.0163360298
  0
POLYLINE
  8
0
 62
7
  6
CONTINUOUS
 66
1
 70
0
  0
VERTEX
  8
0
 62
7
  6
CONTINUOUS
 10
75.3704083357
 20
268.524788898
  0
VERTEX
  8
0
 62
7
  6
CONTINUOUS
 10
75.4378541629
 20
268.9169682038
  0
VERTEX
  8
0
 62
7
  6
CONTINUOUS
 10
75.4392152485
 20
268.924788898
  0
SEQEND
  0
LINE
  8
0
 62
7
  6
CONTINUOUS
 10
76.7222440329
 20
245.1068491029
 11
76.5269710661
 21
244.4193769433
  0
LINE
  8
0
 62
7
  6
CONTINUOUS
 10
55.9691930528
 20
190.1374255652
 11
55.8011831395
 21
189.6017386097
  0
LINE
  8
0
 62
7
  6
CONTINUOUS
 10
56.2415363662
 20
189.2961461177
 11
56.4304727425
 21
189.7085972647
  0
LINE
  8
SURFACE
 62
7
  6
CONTINUOUS
 10
39.5919908145
 20
158.598376404
 11
39.7714389536
 21
158.9624268904
  0
LINE
  8
0
 62
7
  6
CONTINUOUS
 10
77.3078185618
 20
244.5534106734
 11
77.5152664851
 21
244.956868492
  0
LINE
  8
0
 62
7
  6
CONTINUOUS
 10
81.6022256193
 20
242.6747353416
 11
81.3947777387
 21
242.2712774444
  0
LINE
  8
0
 62
7
  6
CONTINUOUS
 10
52.0467864055
 20
196.4213474465
 11
51.8180255156
 21
196.0295805419
  0
LINE
  8
0
 62
7
  6
CONTINUOUS
 10
86.1644132403
 20
246.4520175913
 11
86.4875960662
 21
246.99259471
  0
LINE
  8
0
 62
7
  6
CONTINUOUS
 10
81.8705433784
 20
241.6581185743
 11
82.1878002122
 21
242.1212967943
  0
POLYLINE
  8
0
 62
7
  6
CONTINUOUS
 66
1
 70
0
  0
VERTEX
  8
0
 62
7
  6
CONTINUOUS
 10
121.7947102125
 20
271.8577745089
  0
VERTEX
  8
0
 62
7
  6
CONTINUOUS
 10
122.079792245
 20
272.1354105696
  0
VERTEX
  8
0
 62
7
  6
CONTINUOUS
 10
122.0854902752
 20
272.1409376181
  0
SEQEND
  0
LINE
  8
0
 62
7
  6
CONTINUOUS
 10
92.0374741951
 20
248.487663345
 11
92.2460359838
 21
248.6755383992
  0
LINE
  8
0
 62
7
  6
CONTINUOUS
 10
53.9064181212
 20
218.343745841
 11
53.3783065843
 21
218.0005668412
  0
LINE
  8
SURFACE
 62
7
  6
CONTINUOUS
 10
28.2362383045
 20
203.9554648399
 11
28.5953984057
 21
204.1445109004
  0
LINE
  8
0
 62
7
  6
CONTINUOUS
 10
56.5387112953
 20
224.0325543795
 11
55.9740975601
 21
223.7534756248
  0
LINE
  8
0
 62
7
  6
CONTINUOUS
 10
53.9380772099
 20
217.6693476363
 11
54.2622898696
 21
217.819597286
  0
LINE
  8
0
 62
7
  6
CONTINUOUS
 10
123.6146245432
 20
248.419201232
 11
123.1186868055
 21
248.2158703983
  0
LINE
  8
0
 62
7
  6
CONTINUOUS
 10
56.6058002163
 20
223.3026234728
 11
56.9453563392
 21
223.4139358501
  0
POLYLINE
  8
0
 62
7
  6
CONTINUOUS
 66
1
 70
0
  0
VERTEX
  8
0
 62
7
  6
CONTINUOUS
 10
46.1111543215
 20
150.2365572771
  0
VERTEX
  8
0
 62
7
  6
CONTINUOUS
 10
45.7173277304
 20
150.1795120002
  0
VERTEX
  8
0
 62
7
  6
CONTINUOUS
 10
45.7094692096
 20
150.1783897421
  0
SEQEND
  0
LINE
  8
SURFACE
 62
7
  6
CONTINUOUS
 10
161.7135242828
 20
150.1783897421
 11
161.3118391709
 21
150.2365572771
  0
POLYLINE
  8
0
 62
7
  6
CONTINUOUS
 66
1
 70
0
  0
VERTEX
  8
0
 62
7
  6
CONTINUOUS
 10
28.5953984057
 20
193.3587428956
  0
VERTEX
  8
0
 62
7
  6
CONTINUOUS
 10
28.2432556282
 20
193.5440777594
  0
VERTEX
  8
0
 62
7
  6
CONTINUOUS
 10
28.2362383045
 20
193.5477889562
  0
SEQEND
  0
LINE
  8
SURFACE
 62
7
  6
CONTINUOUS
 10
122.0854902752
 20
125.362316178
 11
121.7947102125
 21
125.6454792872
  0
LINE
  8
0
 62
7
  6
CONTINUOUS
 10
55.3614279512
 20
191.4289049957
 11
55.6759232212
 21
191.1019408119
  0
LINE
  8
0
 62
7
  6
CONTINUOUS
 10
97.9144142478
 20
142.9469460531
 11
98.0202492462
 21
142.828818387
  0
LINE
  8
0
 62
7
  6
CONTINUOUS
 10
101.4069693471
 20
143.3899247651
 11
101.3540517462
 21
143.4489885879
  0
LINE
  8
0
 62
7
  6
CONTINUOUS
 10
102.2007318471
 20
142.828818387
 11
102.1478142462
 21
142.8878822097
  0
LINE
  8
0
 62
7
  6
CONTINUOUS
 10
103.2590817462
 20
142.710690726
 11
103.3119990443
 21
142.651626898
  0
LINE
  8
0
 62
7
  6
CONTINUOUS
 10
51.9131621712
 20
194.6578752791
 11
52.1938157396
 21
194.3014399292
  0
LINE
  8
0
 62
7
  6
CONTINUOUS
 10
52.7032302227
 20
194.3367711273
 11
52.4225766543
 21
194.6932064771
  0
LINE
  8
0
 62
7
  6
CONTINUOUS
 10
56.179354919
 20
191.1874277386
 11
56.0116440097
 21
191.4125278862
  0
POLYLINE
  8
0
 62
7
  6
CONTINUOUS
 66
1
 70
0
  0
VERTEX
  8
0
 62
7
  6
CONTINUOUS
 10
39.7714389536
 20
238.5408269057
  0
VERTEX
  8
0
 62
7
  6
CONTINUOUS
 10
39.5954865618
 20
238.8977502914
  0
VERTEX
  8
0
 62
7
  6
CONTINUOUS
 10
39.5919908145
 20
238.9048773921
  0
SEQEND
  0
LINE
  8
0
 62
7
  6
CONTINUOUS
 10
56.2658147434
 20
216.9761892012
 11
56.0720493248
 21
217.5754625811
  0
LINE
  8
SURFACE
 62
7
  6
CONTINUOUS
 10
75.4392152485
 20
128.578464898
 11
75.3704083357
 21
128.978464898
  0
LINE
  8
0
 62
7
  6
CONTINUOUS
 10
77.2711716774
 20
244.097525928
 11
77.3078185618
 21
244.5534106734
  0
LINE
  8
0
 62
7
  6
CONTINUOUS
 10
82.1878002122
 20
242.1212967943
 11
82.3830731576
 21
242.8087689931
  0
LINE
  8
0
 62
7
  6
CONTINUOUS
 10
85.9033506587
 20
247.4472444438
 11
85.7653382464
 21
247.1176408653
  0
LINE
  8
0
 62
7
  6
CONTINUOUS
 10
91.718955085
 20
249.1953795315
 11
91.5433521713
 21
248.8841729094
  0
LINE
  8
0
 62
7
  6
CONTINUOUS
 10
92.4110915065
 20
246.6054164341
 11
92.2354886159
 21
246.2942097257
  0
LINE
  8
0
 62
7
  6
CONTINUOUS
 10
55.9267420625
 20
188.8623233066
 11
56.2415363662
 21
189.2961461177
  0
LINE
  8
0
 62
7
  6
CONTINUOUS
 10
92.554002218
 20
245.5864919863
 11
92.9381724399
 21
246.0855751723
  0
LINE
  8
0
 62
7
  6
CONTINUOUS
 10
52.2841960957
 20
196.688413678
 11
52.0467864055
 21
196.4213474465
  0
LINE
  8
0
 62
7
  6
CONTINUOUS
 10
52.4634424198
 20
195.9490438664
 11
52.70085211
 21
196.2161100979
  0
LINE
  8
CURVE
 62
40
  6
CONTINUOUS
 10
69.04711657
 20
211.2512690269
 11
91.2118546173
 21
233.4160070743
  0
LINE
  8
CURVE
 62
40
  6
CONTINUOUS
 10
99.5791920637
 20
239.5206028209
 11
95.3365513766
 21
235.2779621338
  0
LINE
  8
CURVE
 62
40
  6
CONTINUOUS
 10
62.9425208233
 20
202.8839315805
 11
67.1851615104
 21
207.1265722676
  0
LINE
  8
0
 62
7
  6
CONTINUOUS
 10
113.3624007225
 20
246.5851000588
 11
118.5060868223
 21
249.8168599251
  0
LINE
  8
0
 62
7
  6
CONTINUOUS
 10
120.8773832512
 20
249.9505755249
 11
119.8822177325
 21
249.341726791
  0
LINE
  8
0
 62
7
  6
CONTINUOUS
 10
119.5575673218
 20
248.3734249385
 11
120.5527329541
 21
248.9822740115
  0
LINE
  8
0
 62
7
  6
CONTINUOUS
 10
117.9577018027
 20
250.2106643871
 11
112.6924464787
 21
247.0080056789
  0
LINE
  8
0
 62
7
  6
CONTINUOUS
 10
124.1700633928
 20
242.7586682866
 11
124.6660011481
 21
242.9619991614
  0
LINE
  8
0
 62
7
  6
CONTINUOUS
 10
58.8957454448
 20
222.1734919907
 11
59.2353015677
 21
222.284804368
  0
LINE
  8
0
 62
7
  6
CONTINUOUS
 10
54.5130489801
 20
218.5264352225
 11
53.9064181212
 21
218.343745841
  0
LINE
  8
0
 62
7
  6
CONTINUOUS
 10
56.0116440097
 20
191.4125278862
 11
55.5712907984
 21
191.718120154
  0
LINE
  8
0
 62
7
  6
CONTINUOUS
 10
52.1938157396
 20
194.3014399292
 11
52.4658205572
 21
194.0697045389
  0
LINE
  8
0
 62
7
  6
CONTINUOUS
 10
52.9752350402
 20
194.105035737
 11
52.7032302227
 21
194.3367711273
  0
LINE
  8
CURVE
 62
40
  6
CONTINUOUS
 10
69.04711657
 20
186.2519847691
 11
91.2118546173
 21
164.0872467218
  0
LINE
  8
CURVE
 62
40
  6
CONTINUOUS
 10
95.3365513766
 20
162.2252916623
 11
99.5791920637
 21
157.9826509752
  0
LINE
  8
CURVE
 62
40
  6
CONTINUOUS
 10
67.1851615104
 20
190.3766815285
 11
62.9425208233
 21
194.6193222156
  0
LINE
  8
0
 62
7
  6
CONTINUOUS
 10
103.1532465443
 20
143.4194566765
 11
103.2061644481
 21
143.3603928537
  0
LINE
  8
0
 62
7
  6
CONTINUOUS
 10
106.5928842462
 20
142.8878822097
 11
106.6987194481
 21
142.7697545539
  0
LINE
  8
0
 62
7
  6
CONTINUOUS
 10
106.9103892462
 20
142.828818387
 11
106.8574719481
 21
142.8878822097
  0
LINE
  8
0
 62
7
  6
CONTINUOUS
 10
106.5928842462
 20
143.3603928537
 11
106.6987194481
 21
143.2422652082
  0
LINE
  8
0
 62
7
  6
CONTINUOUS
 10
106.9103892462
 20
143.301329031
 11
106.8574719481
 21
143.3603928537
  0
LINE
  8
0
 62
7
  6
CONTINUOUS
 10
107.9687394481
 20
142.9469460531
 11
108.0216567462
 21
142.8878822097
  0
LINE
  8
0
 62
7
  6
CONTINUOUS
 10
108.2862438425
 20
142.8878822097
 11
108.1804092462
 21
143.0060098759
  0
LINE
  8
0
 62
7
  6
CONTINUOUS
 10
107.9687394481
 20
143.4194566765
 11
108.0216567462
 21
143.3603928537
  0
LINE
  8
0
 62
7
  6
CONTINUOUS
 10
108.2862438425
 20
143.3603928537
 11
108.1804092462
 21
143.4785204992
  0
LINE
  8
0
 62
7
  6
CONTINUOUS
 10
98.2319192336
 20
142.9174141418
 11
98.1260842399
 21
143.0650736986
  0
LINE
  8
0
 62
7
  6
CONTINUOUS
 10
99.2373517967
 20
143.3899247651
 11
99.2902692462
 21
143.301329031
  0
LINE
  8
0
 62
7
  6
CONTINUOUS
 10
55.34510564
 20
217.4354555962
 11
55.502144284
 21
217.1144763597
  0
LINE
  8
0
 62
7
  6
CONTINUOUS
 10
57.8613346231
 20
222.9622831623
 11
57.9797674817
 21
222.6251445203
  0
LINE
  8
0
 62
7
  6
CONTINUOUS
 10
60.2657769366
 20
221.7766951931
 11
60.3842098754
 21
221.4395565115
  0
LINE
  8
0
 62
7
  6
CONTINUOUS
 10
61.1264742339
 20
221.2129298346
 11
61.0041044668
 21
221.8307480012
  0
LINE
  8
0
 62
7
  6
CONTINUOUS
 10
76.5269710661
 20
244.4193769433
 11
76.5513159524
 21
243.8513455276
  0
LINE
  8
0
 62
7
  6
CONTINUOUS
 10
86.4875960662
 20
246.99259471
 11
86.6474673181
 21
247.6056343432
  0
LINE
  8
0
 62
7
  6
CONTINUOUS
 10
92.2460359838
 20
248.6755383992
 11
92.4764870075
 21
249.2656813774
  0
LINE
  8
0
 62
7
  6
CONTINUOUS
 10
92.9381724399
 20
246.0855751723
 11
93.168623452
 21
246.6757181937
  0
LINE
  8
0
 62
7
  6
CONTINUOUS
 10
55.8011831395
 20
189.6017386097
 11
55.465462314
 21
189.2911516198
  0
LINE
  8
0
 62
7
  6
CONTINUOUS
 10
123.1186868055
 20
248.2158703983
 11
122.6870241282
 21
247.8458399173
  0
LINE
  8
0
 62
7
  6
CONTINUOUS
 10
56.0540949667
 20
192.6876302072
 11
55.8233056608
 21
192.5216506314
  0
LINE
  8
0
 62
7
  6
CONTINUOUS
 10
122.9946710143
 20
247.2962672199
 11
123.7569554882
 21
247.801853428
  0
LINE
  8
0
 62
7
  6
CONTINUOUS
 10
124.7900168332
 20
243.8816020935
 11
124.0277324654
 21
243.3760161317
  0
LINE
  8
0
 62
7
  6
CONTINUOUS
 10
130.8386708338
 20
242.2024054422
 11
131.4185250145
 21
242.4576416823
  0
LINE
  8
0
 62
7
  6
CONTINUOUS
 10
129.5002896449
 20
239.8795412223
 11
130.0801438479
 21
240.1347775011
  0
LINE
  8
0
 62
7
  6
CONTINUOUS
 10
135.7328580837
 20
238.7326992719
 11
136.3385773603
 21
238.918388709
  0
LINE
  8
0
 62
7
  6
CONTINUOUS
 10
134.1320682792
 20
236.5822494602
 11
134.7377875825
 21
236.7679389332
  0
LINE
  8
0
 62
7
  6
CONTINUOUS
 10
54.9420011844
 20
191.6112614971
 11
55.3614279512
 21
191.4289049957
  0
LINE
  8
0
 62
7
  6
CONTINUOUS
 10
56.0720493248
 20
217.5754625811
 11
55.7161775763
 21
218.0996111361
  0
LINE
  8
0
 62
7
  6
CONTINUOUS
 10
103.2061644481
 20
142.7992864756
 11
103.2590817462
 21
142.710690726
  0
LINE
  8
0
 62
7
  6
CONTINUOUS
 10
103.5765867462
 20
142.651626898
 11
103.5236694481
 21
142.7402226425
  0
LINE
  8
0
 62
7
  6
CONTINUOUS
 10
103.4707515443
 20
143.3603928537
 11
103.4178342462
 21
143.4489885879
  0
LINE
  8
0
 62
7
  6
CONTINUOUS
 10
106.1166267462
 20
143.3603928537
 11
106.0637094481
 21
143.4489885879
  0
LINE
  8
0
 62
7
  6
CONTINUOUS
 10
58.599662033
 20
223.0163360298
 11
58.3075142344
 21
223.578497993
  0
LINE
  8
0
 62
7
  6
CONTINUOUS
 10
61.0041044668
 20
221.8307480012
 11
60.7119566281
 21
222.3929099842
  0
LINE
  8
0
 62
7
  6
CONTINUOUS
 10
99.5548567967
 20
143.301329031
 11
99.5019391957
 21
143.4194566765
  0
LINE
  8
0
 62
7
  6
CONTINUOUS
 10
101.1423816453
 20
143.3603928537
 11
101.1952992462
 21
143.2422652082
  0
LINE
  8
0
 62
7
  6
CONTINUOUS
 10
101.8832268471
 20
142.9174141418
 11
101.9361441453
 21
142.7992864756
  0
LINE
  8
0
 62
7
  6
CONTINUOUS
 10
69.5957369894
 20
238.9541550086
 11
70.461909865
 21
235.4791055569
  0
LINE
  8
0
 62
7
  6
CONTINUOUS
 10
70.912449235
 20
235.5322763041
 11
70.0462765939
 21
239.0073254859
  0
LINE
  8
0
 62
7
  6
CONTINUOUS
 10
85.8780568143
 20
247.8493126504
 11
85.9033506587
 21
247.4472444438
  0
LINE
  8
SURFACE
 62
7
  6
CONTINUOUS
 10
86.8114967462
 20
279.424788898
 11
86.8114967462
 21
276.924788898
  0
LINE
  8
0
 62
7
  6
CONTINUOUS
 10
86.8114967462
 20
120.578464898
 11
86.8114967462
 21
118.078464898
  0
LINE
  8
0
 62
7
  6
CONTINUOUS
 10
91.7408443199
 20
249.5976474555
 11
91.718955085
 21
249.1953795315
  0
LINE
  8
SURFACE
 62
7
  6
CONTINUOUS
 10
137.4576044207
 20
273.9511567098
 11
135.9881412899
 21
271.9286142238
  0
LINE
  8
0
 62
7
  6
CONTINUOUS
 10
44.0900777926
 20
145.4417810998
 11
42.6206146619
 21
143.4192386138
  0
LINE
  8
0
 62
7
  6
CONTINUOUS
 10
122.6870241282
 20
247.8458399173
 11
122.4206879019
 21
247.5435800145
  0
LINE
  8
0
 62
7
  6
CONTINUOUS
 10
131.1319172734
 20
243.2121134468
 11
130.8324085243
 21
242.9426823229
  0
LINE
  8
0
 62
7
  6
CONTINUOUS
 10
124.6660011481
 20
242.9619991614
 11
125.0976638608
 21
243.3320297245
  0
LINE
  8
0
 62
7
  6
CONTINUOUS
 10
55.6959527394
 20
188.696343966
 11
55.9267420625
 21
188.8623233066
  0
LINE
  8
0
 62
7
  6
CONTINUOUS
 10
136.142147781
 20
239.7011958763
 11
135.8131915004
 21
239.468631075
  0
LINE
  8
0
 62
7
  6
CONTINUOUS
 10
55.5712907984
 20
191.718120154
 11
56.1587274194
 21
192.0714506888
  0
LINE
  8
0
 62
7
  6
CONTINUOUS
 10
52.6576081576
 20
196.8396127496
 11
52.2841960957
 21
196.688413678
  0
LINE
  8
SURFACE
 62
7
  6
CONTINUOUS
 10
175.2138459515
 20
239.7538600714
 11
172.8362046608
 21
238.9813175855
  0
LINE
  8
0
 62
7
  6
CONTINUOUS
 10
24.1420144218
 20
190.6676464614
 11
21.764373131
 21
189.8951039755
  0
LINE
  8
0
 62
7
  6
CONTINUOUS
 10
175.2138459515
 20
157.7493937247
 11
172.8362046608
 21
158.5219362106
  0
LINE
  8
SURFACE
 62
7
  6
CONTINUOUS
 10
24.1420144218
 20
206.8356073347
 11
21.764373131
 21
207.6081498206
  0
LINE
  8
0
 62
7
  6
CONTINUOUS
 10
51.2808479923
 20
211.8108265765
 11
56.1356653944
 21
208.862229867
  0
LINE
  8
0
 62
7
  6
CONTINUOUS
 10
56.8639566949
 20
209.2186222008
 11
52.6075098109
 21
211.9122648625
  0
LINE
  8
0
 62
7
  6
CONTINUOUS
 10
55.0259597096
 20
217.6813073115
 11
55.34510564
 21
217.4354555962
  0
LINE
  8
0
 62
7
  6
CONTINUOUS
 10
57.5731224377
 20
223.2437630497
 11
57.8613346231
 21
222.9622831623
  0
LINE
  8
SURFACE
 62
7
  6
CONTINUOUS
 10
42.6206146619
 20
254.0840151823
 11
44.0900777926
 21
252.0614726963
  0
LINE
  8
0
 62
7
  6
CONTINUOUS
 10
137.4576044207
 20
123.5520970863
 11
135.9881412899
 21
125.5746395723
  0
LINE
  8
0
 62
7
  6
CONTINUOUS
 10
101.4598866453
 20
143.2422652082
 11
101.4069693471
 21
143.3899247651
  0
LINE
  8
0
 62
7
  6
CONTINUOUS
 10
103.5236694481
 20
142.7402226425
 11
103.4707515443
 21
142.8878822097
  0
LINE
  8
0
 62
7
  6
CONTINUOUS
 10
105.8520390443
 20
143.3603928537
 11
105.9049569481
 21
143.2127332969
  0
LINE
  8
0
 62
7
  6
CONTINUOUS
 10
106.1695440443
 20
143.2127332969
 11
106.1166267462
 21
143.3603928537
  0
LINE
  8
0
 62
7
  6
CONTINUOUS
 10
97.8614967462
 20
143.1241375214
 11
97.9144142478
 21
142.9469460531
  0
LINE
  8
0
 62
7
  6
CONTINUOUS
 10
86.6474673181
 20
247.6056343432
 11
86.6221734737
 21
248.0077025498
  0
LINE
  8
0
 62
7
  6
CONTINUOUS
 10
92.4764870075
 20
249.2656813774
 11
92.4983762424
 21
249.6679493015
  0
LINE
  8
0
 62
7
  6
CONTINUOUS
 10
92.4329807414
 20
247.0076843581
 11
92.4110915065
 21
246.6054164341
  0
LINE
  8
0
 62
7
  6
CONTINUOUS
 10
93.168623452
 20
246.6757181937
 11
93.1905126639
 21
247.0779862041
  0
LINE
  8
0
 62
7
  6
CONTINUOUS
 10
122.5767786513
 20
246.6422927578
 11
122.9946710143
 21
247.2962672199
  0
LINE
  8
0
 62
7
  6
CONTINUOUS
 10
122.4206879019
 20
247.5435800145
 11
122.053310795
 21
247.0068453578
  0
LINE
  8
0
 62
7
  6
CONTINUOUS
 10
125.3639999455
 20
243.6342892989
 11
125.7313771232
 21
244.1710241198
  0
LINE
  8
0
 62
7
  6
CONTINUOUS
 10
125.0976638608
 20
243.3320297245
 11
125.3639999455
 21
243.6342892989
  0
LINE
  8
0
 62
7
  6
CONTINUOUS
 10
131.4185250145
 20
242.4576416823
 11
131.7180337635
 21
242.7270728062
  0
LINE
  8
0
 62
7
  6
CONTINUOUS
 10
129.7935361514
 20
240.8892493432
 11
129.4940274024
 21
240.6198182192
  0
LINE
  8
0
 62
7
  6
CONTINUOUS
 10
130.0801438479
 20
240.1347775011
 11
130.3796526416
 21
240.4042087025
  0
LINE
  8
0
 62
7
  6
CONTINUOUS
 10
136.3385773603
 20
238.918388709
 11
136.6675336408
 21
239.1509535103
  0
LINE
  8
0
 62
7
  6
CONTINUOUS
 10
134.5413580565
 20
237.5507461722
 11
134.212401776
 21
237.3181813709
  0
LINE
  8
0
 62
7
  6
CONTINUOUS
 10
134.7377875825
 20
236.7679389332
 11
135.0667439164
 21
237.0005038062
  0
LINE
  8
0
 62
7
  6
CONTINUOUS
 10
55.465462314
 20
189.2911516198
 11
55.1088150875
 21
189.1038005398
  0
LINE
  8
0
 62
7
  6
CONTINUOUS
 10
55.8233056608
 20
192.5216506314
 11
55.3408004406
 21
192.312927944
  0
LINE
  8
0
 62
7
  6
CONTINUOUS
 10
55.2134475177
 20
188.4876211536
 11
55.6959527394
 21
188.696343966
  0
LINE
  8
0
 62
7
  6
CONTINUOUS
 10
55.7161775763
 20
218.0996111361
 11
55.3970316459
 21
218.3454628513
  0
LINE
  8
0
 62
7
  6
CONTINUOUS
 10
58.3075142344
 20
223.578497993
 11
58.0193020491
 21
223.8599778804
  0
LINE
  8
0
 62
7
  6
CONTINUOUS
 10
59.9775647512
 20
222.0581750805
 11
60.2657769366
 21
221.7766951931
  0
LINE
  8
0
 62
7
  6
CONTINUOUS
 10
60.7119566281
 20
222.3929099842
 11
60.4237443626
 21
222.6743899111
  0
LINE
  8
0
 62
7
  6
CONTINUOUS
 10
76.5513159524
 20
243.8513455276
 11
76.7464669043
 21
243.2308899189
  0
LINE
  8
0
 62
7
  6
CONTINUOUS
 10
82.3830731576
 20
242.8087689931
 11
82.1879273606
 21
243.4292271
  0
LINE
  8
0
 62
7
  6
CONTINUOUS
 10
77.4053305169
 20
243.589217618
 11
77.2711716774
 21
244.097525928
  0
LINE
  8
0
 62
7
  6
CONTINUOUS
 10
81.529063748
 20
243.0708994009
 11
81.6022256193
 21
242.6747353416
  0
LINE
  8
0
 62
7
  6
CONTINUOUS
 10
97.8614967462
 20
147.751626898
 11
97.8614967462
 21
145.801626898
  0
LINE
  8
0
 62
7
  6
CONTINUOUS
 10
98.1260842399
 20
143.0650736986
 11
98.1260842399
 21
143.1536694328
  0
LINE
  8
0
 62
7
  6
CONTINUOUS
 10
99.1364967462
 20
145.726626898
 11
99.1364967462
 21
147.751626898
  0
LINE
  8
0
 62
7
  6
CONTINUOUS
 10
99.9781966957
 20
144.039626898
 11
99.9781966957
 21
142.651626898
  0
LINE
  8
0
 62
7
  6
CONTINUOUS
 10
100.2427842462
 20
142.651626898
 11
100.2427842462
 21
143.3308609424
  0
LINE
  8
0
 62
7
  6
CONTINUOUS
 10
100.2427842462
 20
143.4489885879
 11
100.2427842462
 21
144.039626898
  0
LINE
  8
0
 62
7
  6
CONTINUOUS
 10
100.8614967462
 20
147.751626898
 11
100.8614967462
 21
146.101626898
  0
LINE
  8
0
 62
7
  6
CONTINUOUS
 10
100.8614967462
 20
144.901626898
 11
100.8614967462
 21
144.301626898
  0
LINE
  8
0
 62
7
  6
CONTINUOUS
 10
101.1952992462
 20
143.2422652082
 11
101.1952992462
 21
142.651626898
  0
LINE
  8
0
 62
7
  6
CONTINUOUS
 10
101.4598866453
 20
142.651626898
 11
101.4598866453
 21
143.2422652082
  0
LINE
  8
0
 62
7
  6
CONTINUOUS
 10
101.8832268471
 20
143.4194566765
 11
101.8832268471
 21
143.3603928537
  0
LINE
  8
0
 62
7
  6
CONTINUOUS
 10
101.8832268471
 20
143.0060098759
 11
101.8832268471
 21
142.9174141418
  0
LINE
  8
0
 62
7
  6
CONTINUOUS
 10
102.1364967462
 20
144.301626898
 11
102.1364967462
 21
147.751626898
  0
LINE
  8
0
 62
7
  6
CONTINUOUS
 10
102.1478142462
 20
142.8878822097
 11
102.1478142462
 21
142.9469460531
  0
LINE
  8
0
 62
7
  6
CONTINUOUS
 10
102.4364967462
 20
147.751626898
 11
102.4364967462
 21
144.301626898
  0
LINE
  8
0
 62
7
  6
CONTINUOUS
 10
103.2061644481
 20
143.3603928537
 11
103.2061644481
 21
143.2717971196
  0
LINE
  8
0
 62
7
  6
CONTINUOUS
 10
103.2061644481
 20
143.1536694328
 11
103.2061644481
 21
142.9764779645
  0
LINE
  8
0
 62
7
  6
CONTINUOUS
 10
103.4707515443
 20
142.8878822097
 11
103.4707515443
 21
143.3603928537
  0
LINE
  8
DEFAULT_1
 62
2
  6
CENTER
 10
103.7114967462
 20
280.8937093275
 11
103.7114967462
 21
200.751726898
  0
LINE
  8
0
 62
2
  6
CONTINUOUS
 10
103.7114967462
 20
199.631626898
 11
103.7114967462
 21
197.871626898
  0
LINE
  8
0
 62
7
  6
CONTINUOUS
 10
103.7114967462
 20
144.301626898
 11
103.7114967462
 21
145.951626898
  0
LINE
  8
0
 62
7
  6
CONTINUOUS
 10
103.7114967462
 20
147.151626898
 11
103.7114967462
 21
147.751626898
  0
LINE
  8
DEFAULT_1
 62
2
  6
CENTER
 10
103.7114967462
 20
114.6767895879
 11
103.7114967462
 21
144.301626898
  0
LINE
  8
DEFAULT_1
 62
2
  6
CENTER
 10
103.7114967462
 20
145.951626898
 11
103.7114967462
 21
147.151626898
  0
LINE
  8
DEFAULT_1
 62
2
  6
CENTER
 10
103.7114967462
 20
147.751626898
 11
103.7114967462
 21
196.751526898
  0
LINE
  8
0
 62
7
  6
CONTINUOUS
 10
103.9999269481
 20
144.039626898
 11
103.9999269481
 21
143.8919673412
  0
LINE
  8
0
 62
7
  6
CONTINUOUS
 10
103.9999269481
 20
143.5966481447
 11
103.9999269481
 21
142.651626898
  0
LINE
  8
0
 62
7
  6
CONTINUOUS
 10
104.2645140443
 20
142.651626898
 11
104.2645140443
 21
143.5966481447
  0
LINE
  8
0
 62
7
  6
CONTINUOUS
 10
104.2645140443
 20
143.8919673412
 11
104.2645140443
 21
144.039626898
  0
LINE
  8
0
 62
7
  6
CONTINUOUS
 10
104.6878542462
 20
143.5966481447
 11
104.6878542462
 21
142.651626898
  0
LINE
  8
0
 62
7
  6
CONTINUOUS
 10
113.851504051
 20
251.8499342825
 11
113.702906945
 21
251.2291742831
  0
LINE
  8
0
 62
7
  6
CONTINUOUS
 10
112.6924464787
 20
247.0080056789
 11
112.4546910883
 21
246.014789593
  0
LINE
  8
0
 62
7
  6
CONTINUOUS
 10
119.8822177325
 20
249.341726791
 11
119.5575673218
 21
248.3734249385
  0
LINE
  8
0
 62
7
  6
CONTINUOUS
 10
120.5527329541
 20
248.9822740115
 11
118.9700625284
 21
244.2618034553
  0
LINE
  8
0
 62
7
  6
CONTINUOUS
 10
119.6811590371
 20
244.0233883649
 11
121.5884797599
 21
249.7121604346
  0
LINE
  8
0
 62
7
  6
CONTINUOUS
 10
122.053310795
 20
247.0068453578
 11
121.5986734902
 21
245.9516871092
  0
LINE
  8
0
 62
7
  6
CONTINUOUS
 10
122.2231718587
 20
245.82161412
 11
122.5767786513
 21
246.6422927578
  0
LINE
  8
0
 62
7
  6
CONTINUOUS
 10
128.6666154137
 20
246.6952366637
 11
125.6711908406
 21
241.4964453016
  0
LINE
  8
0
 62
7
  6
CONTINUOUS
 10
126.7034343863
 20
241.7856927213
 11
127.6594209721
 21
243.4448814886
  0
LINE
  8
0
 62
7
  6
CONTINUOUS
 10
128.0418155529
 20
244.1085569025
 11
128.9340697532
 21
245.6571331782
  0
LINE
  8
0
 62
7
  6
CONTINUOUS
 10
125.207909267
 20
244.5355767198
 11
124.7900168332
 21
243.8816020935
  0
LINE
  8
0
 62
7
  6
CONTINUOUS
 10
134.100999339
 20
243.4486715121
 11
130.5182792914
 21
238.6357600169
  0
LINE
  8
0
 62
7
  6
CONTINUOUS
 10
131.5772617439
 20
238.8023342429
 11
132.7206830595
 21
240.3383698585
  0
LINE
  8
0
 62
7
  6
CONTINUOUS
 10
133.1780515217
 20
240.9527840187
 11
134.2452448137
 21
242.386417346
  0
LINE
  8
0
 62
7
  6
CONTINUOUS
 10
148.121130421
 20
229.5596145302
 11
143.0494360558
 21
226.3536955876
  0
LINE
  8
0
 62
7
  6
CONTINUOUS
 10
143.4501759237
 20
225.719733792
 11
145.7162521615
 21
227.1521656803
  0
LINE
  8
0
 62
7
  6
CONTINUOUS
 10
146.3637024288
 20
227.5614318795
 11
147.9823283994
 21
228.5845975685
  0
LINE
  8
0
 62
7
  6
CONTINUOUS
 10
151.787049494
 20
217.2063777348
 11
150.9395920367
 21
216.9228869088
  0
LINE
  8
0
 62
7
  6
CONTINUOUS
 10
151.7431960696
 20
216.5326572688
 11
151.9853267716
 21
216.6136546477
  0
LINE
  8
0
 62
7
  6
CONTINUOUS
 10
150.4511295897
 20
215.9686356933
 11
150.8143256428
 21
216.0901317616
  0
LINE
  8
0
 62
7
  6
CONTINUOUS
 10
52.696289238
 20
188.0601865559
 11
55.2134475177
 21
188.4876211536
  0
LINE
  8
0
 62
7
  6
CONTINUOUS
 10
55.1088150875
 20
189.1038005398
 11
52.5916568078
 21
188.6763659421
  0
LINE
  8
0
 62
7
  6
CONTINUOUS
 10
51.872296381
 20
193.4020382465
 11
55.9476126021
 21
193.6846878554
  0
LINE
  8
0
 62
7
  6
CONTINUOUS
 10
55.9043686745
 20
194.3081901503
 11
52.9752350402
 21
194.105035737
  0
LINE
  8
0
 62
7
  6
CONTINUOUS
 10
52.4658205572
 20
194.0697045389
 11
51.8290524534
 21
194.0255405414
  0
LINE
  8
0
 62
7
  6
CONTINUOUS
 10
49.7139978885
 20
198.1451837508
 11
50.3522862279
 21
198.1486583118
  0
LINE
  8
0
 62
7
  6
CONTINUOUS
 10
51.6288632641
 20
198.1556074358
 11
55.7139089935
 21
198.1778446282
  0
LINE
  8
0
 62
7
  6
CONTINUOUS
 10
55.71050682
 20
198.8028351299
 11
51.6254610907
 21
198.7805979375
  0
LINE
  8
0
 62
7
  6
CONTINUOUS
 10
50.3488840544
 20
198.7736488135
 11
49.7105957151
 21
198.7701742525
  0
LINE
  8
DEFAULT_1
 62
2
  6
CENTER
 10
184.2429501085
 20
198.751626898
 11
105.7115967462
 21
198.751626898
  0
LINE
  8
0
 62
2
  6
CONTINUOUS
 10
104.5914967462
 20
198.751626898
 11
102.8314967462
 21
198.751626898
  0
LINE
  8
DEFAULT_1
 62
2
  6
CENTER
 10
24.1464208243
 20
198.751626898
 11
101.7113967462
 21
198.751626898
  0
LINE
  8
0
 62
7
  6
CONTINUOUS
 10
50.2674657068
 20
207.0423172346
 11
56.1364002814
 21
205.7950774987
  0
LINE
  8
0
 62
7
  6
CONTINUOUS
 10
56.2923052484
 20
206.5286943205
 11
51.6720800089
 21
207.5105639315
  0
LINE
  8
0
 62
7
  6
CONTINUOUS
 10
52.0459917101
 20
214.6268667768
 11
57.7006952025
 21
212.6207938933
  0
LINE
  8
0
 62
7
  6
CONTINUOUS
 10
57.9514543129
 20
213.3276318299
 11
55.4248846315
 21
214.2239622799
  0
LINE
  8
0
 62
7
  6
CONTINUOUS
 10
54.703007676
 20
214.48005666
 11
52.8983149502
 21
215.1202927299
  0
LINE
  8
0
 62
7
  6
CONTINUOUS
 10
54.256469301
 20
220.5586879617
 11
59.6378404757
 21
217.9052290341
  0
LINE
  8
0
 62
7
  6
CONTINUOUS
 10
59.2825392891
 20
218.9166398676
 11
57.5650803678
 21
219.7634884792
  0
LINE
  8
0
 62
7
  6
CONTINUOUS
 10
56.8780968954
 20
220.1022278764
 11
55.2751351393
 21
220.8926199613
  0
LINE
  8
0
 62
7
  6
CONTINUOUS
 10
59.8197066824
 20
224.3621509273
 11
60.3649727121
 21
224.0303237708
  0
LINE
  8
0
 62
7
  6
CONTINUOUS
 10
61.2747315241
 20
225.5252604137
 11
60.7294654943
 21
225.8570875702
  0
LINE
  8
0
 62
7
  6
CONTINUOUS
 10
58.7992655083
 20
228.8371963229
 11
63.6244102708
 21
225.2709689015
  0
LINE
  8
0
 62
7
  6
CONTINUOUS
 10
64.0701886984
 20
225.8741119968
 11
61.8116102806
 21
227.5434099523
  0
LINE
  8
0
 62
7
  6
CONTINUOUS
 10
61.1956344269
 20
227.9986729731
 11
59.245043936
 21
229.4403394182
  0
LINE
  8
0
 62
7
  6
CONTINUOUS
 10
76.7464669043
 20
243.2308899189
 11
77.6613461125
 21
241.5486849939
  0
LINE
  8
0
 62
7
  6
CONTINUOUS
 10
78.3202097251
 20
241.907012693
 11
77.4053305169
 21
243.589217618
  0
LINE
  8
0
 62
7
  6
CONTINUOUS
 10
81.6169350219
 20
248.0788811018
 11
83.8331114324
 21
242.5031692981
  0
LINE
  8
0
 62
7
  6
CONTINUOUS
 10
84.5300754078
 20
242.7801913494
 11
83.5398689125
 21
245.2714668715
  0
LINE
  8
0
 62
7
  6
CONTINUOUS
 10
83.2569528087
 20
245.9832597829
 11
82.5496624172
 21
247.7627423937
  0
LINE
  8
0
 62
7
  6
CONTINUOUS
 10
87.5357888803
 20
250.3238494612
 11
89.0848561907
 21
244.5272650818
  0
LINE
  8
0
 62
7
  6
CONTINUOUS
 10
89.6116759649
 20
245.460887989
 11
89.1172927705
 21
247.3108617657
  0
LINE
  8
0
 62
7
  6
CONTINUOUS
 10
88.9195395204
 20
248.0508511728
 11
88.4581151778
 21
249.777493468
  0
LINE
  8
0
 62
7
  6
CONTINUOUS
 10
104.9524419481
 20
143.4489885879
 11
104.9524419481
 21
143.5966481447
  0
LINE
  8
0
 62
7
  6
CONTINUOUS
 10
104.9524419481
 20
142.651626898
 11
104.9524419481
 21
143.3308609424
  0
LINE
  8
0
 62
7
  6
CONTINUOUS
 10
105.4364967462
 20
146.326626898
 11
105.4364967462
 21
144.301626898
  0
LINE
  8
0
 62
7
  6
CONTINUOUS
 10
105.9049569481
 20
143.2127332969
 11
105.9049569481
 21
142.651626898
  0
LINE
  8
0
 62
7
  6
CONTINUOUS
 10
106.1695440443
 20
142.651626898
 11
106.1695440443
 21
143.2127332969
  0
LINE
  8
0
 62
7
  6
CONTINUOUS
 10
106.5928842462
 20
143.4194566765
 11
106.5928842462
 21
143.3603928537
  0
LINE
  8
0
 62
7
  6
CONTINUOUS
 10
106.7114967462
 20
144.301626898
 11
106.7114967462
 21
146.251626898
  0
LINE
  8
0
 62
7
  6
CONTINUOUS
 10
107.0114967462
 20
147.751626898
 11
107.0114967462
 21
144.301626898
  0
LINE
  8
0
 62
7
  6
CONTINUOUS
 10
108.2862438425
 20
142.828818387
 11
108.2862438425
 21
142.8878822097
  0
LINE
  8
0
 62
7
  6
CONTINUOUS
 10
108.2864967462
 20
144.301626898
 11
108.2864967462
 21
147.751626898
  0
LINE
  8
0
 62
7
  6
CONTINUOUS
 10
121.5986734902
 20
245.9516871092
 11
121.4608979655
 21
245.3160235477
  0
LINE
  8
0
 62
7
  6
CONTINUOUS
 10
117.3173098079
 20
244.8507792347
 11
117.4956263559
 21
245.5956913209
  0
LINE
  8
0
 62
7
  6
CONTINUOUS
 10
118.5060868223
 20
249.8168599251
 11
118.7141227706
 21
250.6859239242
  0
LINE
  8
0
 62
7
  6
CONTINUOUS
 10
122.0348810779
 20
245.0687107531
 11
122.2231718587
 21
245.82161412
  0
LINE
  8
0
 62
7
  6
CONTINUOUS
 10
125.5615160596
 20
245.3562553576
 11
125.207909267
 21
244.5355767198
  0
LINE
  8
0
 62
7
  6
CONTINUOUS
 10
125.7313771232
 20
244.1710241198
 11
126.186014428
 21
245.2261823684
  0
LINE
  8
0
 62
7
  6
CONTINUOUS
 10
131.2593821336
 20
243.4333385848
 11
131.1319172734
 21
243.2121134468
  0
LINE
  8
0
 62
7
  6
CONTINUOUS
 10
129.9847334418
 20
241.2210870501
 11
129.7935361514
 21
240.8892493432
  0
LINE
  8
0
 62
7
  6
CONTINUOUS
 10
130.3796526416
 20
240.4042087025
 11
130.6983147922
 21
240.9572715475
  0
LINE
  8
0
 62
7
  6
CONTINUOUS
 10
131.7180337635
 20
242.7270728062
 11
131.9729636626
 21
243.169523392
  0
LINE
  8
0
 62
7
  6
CONTINUOUS
 10
136.294603935
 20
239.9060005963
 11
136.142147781
 21
239.7011958763
  0
LINE
  8
0
 62
7
  6
CONTINUOUS
 10
134.7700422876
 20
237.8579532523
 11
134.5413580565
 21
237.5507461722
  0
LINE
  8
0
 62
7
  6
CONTINUOUS
 10
135.0667439164
 20
237.0005038062
 11
135.4478843016
 21
237.5125156063
  0
LINE
  8
0
 62
7
  6
CONTINUOUS
 10
136.6675336408
 20
239.1509535103
 11
136.9724461625
 21
239.5605632373
  0
LINE
  8
0
 62
7
  6
CONTINUOUS
 10
149.0046296196
 20
225.533820663
 11
148.6809041837
 21
225.3291873723
  0
LINE
  8
0
 62
7
  6
CONTINUOUS
 10
148.9737356736
 20
224.6270145435
 11
149.4053694875
 21
224.8998588674
  0
LINE
  8
0
 62
7
  6
CONTINUOUS
 10
150.9395920367
 20
216.9228869088
 11
150.1317905915
 21
216.520849238
  0
LINE
  8
0
 62
7
  6
CONTINUOUS
 10
151.8057011396
 20
213.126548885
 11
151.4425050865
 21
213.0050528167
  0
LINE
  8
0
 62
7
  6
CONTINUOUS
 10
151.5197133826
 20
212.3718418932
 11
152.1250403073
 21
212.574335397
  0
LINE
  8
0
 62
7
  6
CONTINUOUS
 10
52.1731270944
 20
191.1410834426
 11
54.9420011844
 21
191.6112614971
  0
LINE
  8
0
 62
7
  6
CONTINUOUS
 10
55.3408004406
 20
192.312927944
 11
52.0684946418
 21
191.757262961
  0
LINE
  8
0
 62
7
  6
CONTINUOUS
 10
53.3289714134
 20
196.3849747685
 11
55.7486905647
 21
196.5527979838
  0
LINE
  8
0
 62
7
  6
CONTINUOUS
 10
55.7054466618
 20
197.1762999219
 11
53.2857275105
 21
197.0084767066
  0
LINE
  8
0
 62
7
  6
CONTINUOUS
 10
52.6075098109
 20
211.9122648625
 11
57.2277350504
 21
210.9303952514
  0
LINE
  8
0
 62
7
  6
CONTINUOUS
 10
57.3836400174
 20
211.6640120733
 11
51.5147054428
 21
212.9112518092
  0
LINE
  8
0
 62
7
  6
CONTINUOUS
 10
54.6650208948
 20
217.8093546211
 11
55.0259597096
 21
217.6813073115
  0
LINE
  8
0
 62
7
  6
CONTINUOUS
 10
55.3970316459
 20
218.3454628513
 11
54.9157800052
 21
218.5161925576
  0
LINE
  8
0
 62
7
  6
CONTINUOUS
 10
57.344127947
 20
223.3566761821
 11
57.5731224377
 21
223.2437630497
  0
LINE
  8
0
 62
7
  6
CONTINUOUS
 10
59.6340730151
 20
222.2275447791
 11
59.9775647512
 21
222.0581750805
  0
LINE
  8
0
 62
7
  6
CONTINUOUS
 10
60.4237443626
 20
222.6743899111
 11
59.8512581356
 21
222.9566727421
  0
LINE
  8
0
 62
7
  6
CONTINUOUS
 10
58.0193020491
 20
223.8599778804
 11
57.5613127468
 21
224.0858043033
  0
LINE
  8
0
 62
7
  6
CONTINUOUS
 10
61.325343832
 20
232.2550079632
 11
63.2759343229
 21
230.8133415181
  0
LINE
  8
0
 62
7
  6
CONTINUOUS
 10
63.8919101766
 20
230.3580784973
 11
66.1504885944
 21
228.6887805418
  0
LINE
  8
0
 62
7
  6
CONTINUOUS
 10
66.5962670221
 20
229.2919236371
 11
61.7711222596
 21
232.8581510585
  0
LINE
  8
0
 62
7
  6
CONTINUOUS
 10
77.6613461125
 20
241.5486849939
 11
78.0761147466
 21
241.0476704432
  0
LINE
  8
0
 62
7
  6
CONTINUOUS
 10
85.7365986303
 20
248.2052094384
 11
85.8780568143
 21
247.8493126504
  0
LINE
  8
0
 62
7
  6
CONTINUOUS
 10
86.6221734737
 20
248.0077025498
 11
86.4335626058
 21
248.4822314897
  0
LINE
  8
0
 62
7
  6
CONTINUOUS
 10
91.6749265699
 20
249.8443105912
 11
91.7408443199
 21
249.5976474555
  0
LINE
  8
0
 62
7
  6
CONTINUOUS
 10
92.3341041164
 20
247.3776790617
 11
92.4329807414
 21
247.0076843581
  0
LINE
  8
0
 62
7
  6
CONTINUOUS
 10
93.1905126639
 20
247.0779862041
 11
93.0257182888
 21
247.6946440433
  0
LINE
  8
0
 62
7
  6
CONTINUOUS
 10
92.4983762424
 20
249.6679493015
 11
92.36654065
 21
250.1612759183
  0
LINE
  8
0
 62
7
  6
CONTINUOUS
 10
121.4608979655
 20
245.3160235477
 11
121.4241425137
 21
244.9148442896
  0
LINE
  8
0
 62
7
  6
CONTINUOUS
 10
126.186014428
 20
245.2261823684
 11
126.323789882
 21
245.8618457657
  0
LINE
  8
0
 62
7
  6
CONTINUOUS
 10
125.7498067696
 20
246.1091585603
 11
125.5615160596
 21
245.3562553576
  0
LINE
  8
0
 62
7
  6
CONTINUOUS
 10
97.9144142478
 20
143.301329031
 11
97.8614967462
 21
143.1241375214
  0
LINE
  8
0
 62
7
  6
CONTINUOUS
 10
150.1317905915
 20
216.520849238
 11
149.6057724843
 21
216.0812730394
  0
LINE
  8
0
 62
7
  6
CONTINUOUS
 10
150.1275897182
 20
215.728592837
 11
150.4511295897
 21
215.9686356933
  0
LINE
  8
0
 62
7
  6
CONTINUOUS
 10
52.70085211
 20
196.2161100979
 11
53.3289714134
 21
196.3849747685
  0
LINE
  8
0
 62
7
  6
CONTINUOUS
 10
53.2857275105
 20
197.0084767066
 11
52.6576081576
 21
196.8396127496
  0
LINE
  8
0
 62
7
  6
CONTINUOUS
 10
148.5832185237
 20
224.5280449676
 11
148.9737356736
 21
224.6270145435
  0
LINE
  8
0
 62
7
  6
CONTINUOUS
 10
148.6809041837
 20
225.3291873723
 11
148.2903870338
 21
225.2302177965
  0
LINE
  8
0
 62
7
  6
CONTINUOUS
 10
152.6741631329
 20
217.3713217728
 11
151.787049494
 21
217.2063777348
  0
LINE
  8
0
 62
7
  6
CONTINUOUS
 10
151.9853267716
 20
216.6136546477
 11
152.751371429
 21
216.7381108492
  0
LINE
  8
0
 62
7
  6
CONTINUOUS
 10
51.6720800089
 20
207.5105639315
 11
56.6560833065
 21
208.2404659719
  0
LINE
  8
0
 62
7
  6
CONTINUOUS
 10
56.1356653944
 20
208.862229867
 11
50.5013231573
 21
208.1427424674
  0
LINE
  8
0
 62
7
  6
CONTINUOUS
 10
151.4425050865
 20
213.0050528167
 11
151.0396528517
 21
213.0021035364
  0
LINE
  8
0
 62
7
  6
CONTINUOUS
 10
150.8350778098
 20
212.4064311407
 11
151.5197133826
 21
212.3718418932
  0
LINE
  8
0
 62
7
  6
CONTINUOUS
 10
78.6739864177
 20
241.5181451268
 11
78.3202097251
 21
241.907012693
  0
LINE
  8
0
 62
7
  6
CONTINUOUS
 10
80.7851126204
 20
246.0086079012
 11
80.3703387887
 21
246.5096200322
  0
LINE
  8
0
 62
7
  6
CONTINUOUS
 10
121.4241425137
 20
244.9148442896
 11
121.4516831069
 21
244.3469562453
  0
LINE
  8
0
 62
7
  6
CONTINUOUS
 10
120.6114967462
 20
279.424788898
 11
120.6114967462
 21
276.924788898
  0
LINE
  8
SURFACE
 62
7
  6
CONTINUOUS
 10
120.6114967462
 20
120.578464898
 11
120.6114967462
 21
118.078464898
  0
LINE
  8
0
 62
7
  6
CONTINUOUS
 10
126.323789882
 20
245.8618457657
 11
126.3605454753
 21
246.2630253522
  0
LINE
  8
0
 62
7
  6
CONTINUOUS
 10
130.0676193628
 20
241.6153314951
 11
129.9847334418
 21
241.2210870501
  0
LINE
  8
0
 62
7
  6
CONTINUOUS
 10
130.6983147922
 20
240.9572715475
 11
130.7812007132
 21
241.3515159924
  0
LINE
  8
0
 62
7
  6
CONTINUOUS
 10
131.3422681439
 20
243.8275831847
 11
131.2593821336
 21
243.4333385848
  0
LINE
  8
0
 62
7
  6
CONTINUOUS
 10
131.9729636626
 20
243.169523392
 11
132.0558494943
 21
243.563767682
  0
LINE
  8
0
 62
7
  6
CONTINUOUS
 10
134.8984545761
 20
238.2398027546
 11
134.7700422876
 21
237.8579532523
  0
LINE
  8
0
 62
7
  6
CONTINUOUS
 10
135.4478843016
 20
237.5125156063
 11
135.57629659
 21
237.8943651087
  0
LINE
  8
0
 62
7
  6
CONTINUOUS
 10
136.4230163302
 20
240.2878502421
 11
136.294603935
 21
239.9060005963
  0
LINE
  8
0
 62
7
  6
CONTINUOUS
 10
136.9724461625
 20
239.5605632373
 11
137.1008583442
 21
239.9424125962
  0
LINE
  8
0
 62
7
  6
CONTINUOUS
 10
98.1260842399
 20
143.1536694328
 11
98.1790017462
 21
143.2717971196
  0
LINE
  8
0
 62
7
  6
CONTINUOUS
 10
99.5019391957
 20
142.828818387
 11
99.5548567967
 21
142.9469460531
  0
LINE
  8
0
 62
7
  6
CONTINUOUS
 10
164.8023788305
 20
254.0840151823
 11
163.3329156998
 21
252.0614726963
  0
LINE
  8
SURFACE
 62
7
  6
CONTINUOUS
 10
71.4348522025
 20
125.5746395723
 11
69.9653890717
 21
123.5520970863
  0
LINE
  8
0
 62
7
  6
CONTINUOUS
 10
149.261562737
 20
225.8441172864
 11
149.0046296196
 21
225.533820663
  0
LINE
  8
0
 62
7
  6
CONTINUOUS
 10
149.4053694875
 20
224.8998588674
 11
149.6623026049
 21
225.2101554907
  0
LINE
  8
0
 62
7
  6
CONTINUOUS
 10
148.1568325007
 20
217.0508656585
 11
152.7220571816
 21
221.4279353257
  0
LINE
  8
0
 62
7
  6
CONTINUOUS
 10
149.0057529661
 20
218.8365327074
 11
147.8356085377
 21
217.7285936021
  0
LINE
  8
0
 62
7
  6
CONTINUOUS
 10
152.0464794042
 20
221.6610414097
 11
149.413650643
 21
219.1681861213
  0
LINE
  8
0
 62
7
  6
CONTINUOUS
 10
152.1250403073
 20
212.574335397
 11
152.6510583298
 21
213.0139115673
  0
LINE
  8
0
 62
7
  6
CONTINUOUS
 10
152.1292411806
 20
213.3665917981
 11
151.8057011396
 21
213.126548885
  0
LINE
  8
0
 62
7
  6
CONTINUOUS
 10
154.2249082324
 20
213.5403946434
 11
154.5484481039
 21
213.7804374997
  0
LINE
  8
0
 62
7
  6
CONTINUOUS
 10
185.6586203614
 20
207.6081498206
 11
183.2809790706
 21
206.8356073347
  0
LINE
  8
SURFACE
 62
7
  6
CONTINUOUS
 10
34.5867888316
 20
158.5219362106
 11
32.2091475409
 21
157.7493937247
  0
LINE
  8
0
 62
7
  6
CONTINUOUS
 10
146.3365617434
 20
220.891327453
 11
147.9350080567
 21
221.0956224059
  0
LINE
  8
0
 62
7
  6
CONTINUOUS
 10
148.4499787541
 20
221.2013699523
 11
152.0464794042
 21
221.6610414097
  0
LINE
  8
0
 62
7
  6
CONTINUOUS
 10
152.2937601981
 20
222.3315691368
 11
146.0153377804
 21
221.5690553966
  0
LINE
  8
0
 62
7
  6
CONTINUOUS
 10
150.8143256428
 20
216.0901317616
 11
151.2171780471
 21
216.0930810986
  0
LINE
  8
0
 62
7
  6
CONTINUOUS
 10
152.751371429
 20
216.7381108492
 11
153.1542240029
 21
216.741060243
  0
LINE
  8
0
 62
7
  6
CONTINUOUS
 10
54.2622898696
 20
217.819597286
 11
54.6650208948
 21
217.8093546211
  0
LINE
  8
0
 62
7
  6
CONTINUOUS
 10
54.9157800052
 20
218.5161925576
 11
54.5130489801
 21
218.5264352225
  0
LINE
  8
0
 62
7
  6
CONTINUOUS
 10
153.35879896
 20
217.3367326104
 11
152.6741631329
 21
217.3713217728
  0
LINE
  8
0
 62
7
  6
CONTINUOUS
 10
59.2353015677
 20
222.284804368
 11
59.6340730151
 21
222.2275447791
  0
LINE
  8
0
 62
7
  6
CONTINUOUS
 10
59.8512581356
 20
222.9566727421
 11
59.4524866883
 21
223.013932331
  0
LINE
  8
0
 62
7
  6
CONTINUOUS
 10
56.9453563392
 20
223.4139358501
 11
57.344127947
 21
223.3566761821
  0
LINE
  8
0
 62
7
  6
CONTINUOUS
 10
57.5613127468
 20
224.0858043033
 11
57.1625414598
 21
224.1430638131
  0
LINE
  8
SURFACE
 62
7
  6
CONTINUOUS
 10
185.6586203614
 20
189.8951039755
 11
183.2809790706
 21
190.6676464614
  0
LINE
  8
0
 62
7
  6
CONTINUOUS
 10
34.5867888316
 20
238.9813175855
 11
32.2091475409
 21
239.7538600714
  0
LINE
  8
0
 62
7
  6
CONTINUOUS
 10
78.0761147466
 20
241.0476704432
 11
78.5397054351
 21
240.7185259042
  0
LINE
  8
0
 62
7
  6
CONTINUOUS
 10
79.8334590591
 20
245.9269983641
 11
80.1262490077
 21
245.6502802021
  0
LINE
  8
0
 62
7
  6
CONTINUOUS
 10
85.4789763709
 20
248.5149341432
 11
85.7365986303
 21
248.2052094384
  0
LINE
  8
0
 62
7
  6
CONTINUOUS
 10
86.4335626058
 20
248.4822314897
 11
86.1759403464
 21
248.7919561945
  0
LINE
  8
0
 62
7
  6
CONTINUOUS
 10
69.9653890717
 20
273.9511567098
 11
71.4348522025
 21
271.9286142238
  0
LINE
  8
SURFACE
 62
7
  6
CONTINUOUS
 10
164.8023788305
 20
143.4192386138
 11
163.3329156998
 21
145.4417810998
  0
LINE
  8
0
 62
7
  6
CONTINUOUS
 10
92.1144615852
 20
247.7154007174
 11
92.3341041164
 21
247.3776790617
  0
LINE
  8
0
 62
7
  6
CONTINUOUS
 10
93.0257182888
 20
247.6946440433
 11
92.8060757576
 21
248.0323656991
  0
LINE
  8
0
 62
7
  6
CONTINUOUS
 10
91.4552839926
 20
250.1820324197
 11
91.6749265699
 21
249.8443105912
  0
LINE
  8
0
 62
7
  6
CONTINUOUS
 10
92.36654065
 20
250.1612759183
 11
92.146898165
 21
250.4989974013
  0
LINE
  8
0
 62
7
  6
CONTINUOUS
 10
126.3605454753
 20
246.2630253522
 11
126.3330048467
 21
246.8309133144
  0
LINE
  8
0
 62
7
  6
CONTINUOUS
 10
135.57629659
 20
237.8943651087
 11
135.5804019297
 21
238.5278945518
  0
LINE
  8
0
 62
7
  6
CONTINUOUS
 10
99.2902692462
 20
142.9469460531
 11
99.2373517967
 21
142.8583502983
  0
LINE
  8
0
 62
7
  6
CONTINUOUS
 10
102.1478142462
 20
142.9469460531
 11
102.2007318471
 21
143.0355417873
  0
LINE
  8
0
 62
7
  6
CONTINUOUS
 10
149.6057724843
 20
216.0812730394
 11
149.2404759521
 21
215.5636487564
  0
LINE
  8
0
 62
7
  6
CONTINUOUS
 10
149.8437023131
 20
215.3700140173
 11
150.1275897182
 21
215.728592837
  0
LINE
  8
0
 62
7
  6
CONTINUOUS
 10
154.3105182751
 20
214.4916965218
 11
154.0266345853
 21
214.1331068775
  0
LINE
  8
CURVE
 62
40
  6
CONTINUOUS
 10
144.4804726691
 20
194.6193222156
 11
140.237831982
 21
190.3766815285
  0
LINE
  8
CURVE
 62
40
  6
CONTINUOUS
 10
107.8438014287
 20
157.9826509752
 11
112.0864421158
 21
162.2252916623
  0
LINE
  8
0
 62
7
  6
CONTINUOUS
 10
59.4524866883
 20
223.013932331
 11
58.8286565238
 21
222.9034228974
  0
LINE
  8
0
 62
7
  6
CONTINUOUS
 10
147.9512150783
 20
224.5721817327
 11
148.5832185237
 21
224.5280449676
  0
LINE
  8
0
 62
7
  6
CONTINUOUS
 10
151.0396528517
 20
213.0021035364
 11
150.597147981
 21
213.1176901628
  0
LINE
  8
0
 62
7
  6
CONTINUOUS
 10
153.1542240029
 20
216.741060243
 11
153.5967287888
 21
216.6254735882
  0
LINE
  8
0
 62
7
  6
CONTINUOUS
 10
150.2318514489
 20
212.6000658798
 11
150.8350778098
 21
212.4064311407
  0
LINE
  8
0
 62
7
  6
CONTINUOUS
 10
79.076585122
 20
241.3011476509
 11
78.6739864177
 21
241.5181451268
  0
LINE
  8
0
 62
7
  6
CONTINUOUS
 10
92.8060757576
 20
248.0323656991
 11
92.3119537338
 21
248.4288752635
  0
LINE
  8
CURVE
 62
40
  6
CONTINUOUS
 10
140.237831982
 20
207.1265722676
 11
144.4804726691
 21
202.8839315805
  0
LINE
  8
CURVE
 62
40
  6
CONTINUOUS
 10
112.0864421158
 20
235.2779621338
 11
107.8438014287
 21
239.5206028209
  0
LINE
  8
0
 62
7
  6
CONTINUOUS
 10
122.1909823018
 20
244.1674188858
 11
122.0348810779
 21
245.0687107531
  0
LINE
  8
0
 62
7
  6
CONTINUOUS
 10
125.5937056518
 20
247.0104506739
 11
125.7498067696
 21
246.1091585603
  0
LINE
  8
0
 62
7
  6
CONTINUOUS
 10
130.7812007132
 20
241.3515159924
 11
130.7112059736
 21
241.9811803042
  0
LINE
  8
0
 62
7
  6
CONTINUOUS
 10
137.1008583442
 20
239.9424125962
 11
137.1049636838
 21
240.5759420393
  0
LINE
  8
0
 62
7
  6
CONTINUOUS
 10
132.0525851567
 20
128.978464898
 11
132.0042924673
 21
128.6967309693
  0
LINE
  8
0
 62
7
  6
CONTINUOUS
 10
149.3438015751
 20
226.1918567268
 11
149.261562737
 21
225.8441172864
  0
LINE
  8
0
 62
7
  6
CONTINUOUS
 10
149.6623026049
 20
225.2101554907
 11
149.8935661825
 21
225.7999805213
  0
LINE
  8
SURFACE
 62
7
  6
CONTINUOUS
 10
167.7780839807
 20
238.7971401726
 11
167.6515545388
 21
238.5408269057
  0
LINE
  8
0
 62
7
  6
CONTINUOUS
 10
152.2920631499
 20
213.6846719
 11
152.1292411806
 21
213.3665917981
  0
LINE
  8
0
 62
7
  6
CONTINUOUS
 10
152.6510583298
 20
213.0139115673
 11
152.8952894685
 21
213.4910371466
  0
LINE
  8
0
 62
7
  6
CONTINUOUS
 10
154.5484481039
 20
213.7804374997
 11
154.9137445937
 21
214.2980617685
  0
LINE
  8
0
 62
7
  6
CONTINUOUS
 10
98.0202492462
 20
143.4194566765
 11
97.9144142478
 21
143.301329031
  0
LINE
  8
0
 62
7
  6
CONTINUOUS
 10
98.1790017462
 20
143.2717971196
 11
98.2319192336
 21
143.3308609424
  0
LINE
  8
0
 62
7
  6
CONTINUOUS
 10
101.9361441453
 20
143.4785204992
 11
101.8832268471
 21
143.4194566765
  0
LINE
  8
0
 62
7
  6
CONTINUOUS
 10
102.1478142462
 20
143.3603928537
 11
102.2007318471
 21
143.4194566765
  0
LINE
  8
0
 62
7
  6
CONTINUOUS
 10
101.9890617462
 20
143.1241375214
 11
101.8832268471
 21
143.0060098759
  0
LINE
  8
0
 62
7
  6
CONTINUOUS
 10
103.2061644481
 20
142.9764779645
 11
103.1532465443
 21
142.9174141418
  0
LINE
  8
0
 62
7
  6
CONTINUOUS
 10
103.1532465443
 20
142.7402226425
 11
103.2061644481
 21
142.7992864756
  0
LINE
  8
0
 62
7
  6
CONTINUOUS
 10
106.8574719481
 20
143.3603928537
 11
106.9103892462
 21
143.4194566765
  0
LINE
  8
CURVE
 62
40
  6
CONTINUOUS
 10
116.2111388751
 20
164.0872467218
 11
138.3758769224
 21
186.2519847691
  0
LINE
  8
0
 62
7
  6
CONTINUOUS
 10
85.6282832799
 20
125.6454792872
 11
85.4236146252
 21
125.4459374816
  0
LINE
  8
SURFACE
 62
7
  6
CONTINUOUS
 10
179.0806167138
 20
193.4917325444
 11
178.8275950867
 21
193.3587428956
  0
LINE
  8
0
 62
7
  6
CONTINUOUS
 10
129.4940274024
 20
240.6198182192
 11
129.149949496
 21
240.5234004566
  0
LINE
  8
0
 62
7
  6
CONTINUOUS
 10
130.8324085243
 20
242.9426823229
 11
130.4883306626
 21
242.8462646377
  0
LINE
  8
0
 62
7
  6
CONTINUOUS
 10
57.1625414598
 20
224.1430638131
 11
56.5387112953
 21
224.0325543795
  0
LINE
  8
0
 62
7
  6
CONTINUOUS
 10
134.212401776
 20
237.3181813709
 11
133.8594106495
 21
237.2626543033
  0
LINE
  8
0
 62
7
  6
CONTINUOUS
 10
135.8131915004
 20
239.468631075
 11
135.4602004274
 21
239.4131040791
  0
LINE
  8
0
 62
7
  6
CONTINUOUS
 10
161.3118391709
 20
247.266696519
 11
161.5947073214
 21
247.3078280139
  0
LINE
  8
0
 62
7
  6
CONTINUOUS
 10
128.8758663349
 20
239.7973183918
 11
129.5002896449
 21
239.8795412223
  0
LINE
  8
0
 62
7
  6
CONTINUOUS
 10
133.5023141901
 20
236.5735978015
 11
134.1320682792
 21
236.5822494602
  0
LINE
  8
SURFACE
 62
7
  6
CONTINUOUS
 10
45.828286171
 20
247.3078280139
 11
46.1111543215
 21
247.266696519
  0
LINE
  8
0
 62
7
  6
CONTINUOUS
 10
148.2903870338
 20
225.2302177965
 11
147.9409923603
 21
225.3051131041
  0
LINE
  8
0
 62
7
  6
CONTINUOUS
 10
78.5397054351
 20
240.7185259042
 11
79.2229139554
 21
240.5088221483
  0
LINE
  8
0
 62
7
  6
CONTINUOUS
 10
80.3703387887
 20
246.5096200322
 11
79.6871302898
 21
246.7193237489
  0
LINE
  8
0
 62
7
  6
CONTINUOUS
 10
153.9620252785
 20
217.143097857
 11
153.35879896
 21
217.3367326104
  0
LINE
  8
0
 62
7
  6
CONTINUOUS
 10
147.3603341093
 20
224.7901833812
 11
147.9512150783
 21
224.5721817327
  0
LINE
  8
0
 62
7
  6
CONTINUOUS
 10
85.1523532228
 20
248.6598591722
 11
85.4789763709
 21
248.5149341432
  0
LINE
  8
0
 62
7
  6
CONTINUOUS
 10
151.2171780471
 20
216.0930810986
 11
151.538617482
 21
215.9369957544
  0
LINE
  8
0
 62
7
  6
CONTINUOUS
 10
178.8275950867
 20
204.1445109004
 11
179.0806167138
 21
204.0115212516
  0
LINE
  8
0
 62
7
  6
CONTINUOUS
 10
91.8070231714
 20
247.8975203667
 11
92.1144615852
 21
247.7154007174
  0
LINE
  8
0
 62
7
  6
CONTINUOUS
 10
91.1478455788
 20
250.364152069
 11
91.4552839926
 21
250.1820324197
  0
LINE
  8
0
 62
7
  6
CONTINUOUS
 10
86.1759403464
 20
248.7919561945
 11
85.6388476228
 21
249.1279737764
  0
LINE
  8
0
 62
7
  6
CONTINUOUS
 10
92.146898165
 20
250.4989974013
 11
91.6527761412
 21
250.8955069658
  0
LINE
  8
SURFACE
 62
7
  6
CONTINUOUS
 10
85.4236146252
 20
272.0573163145
 11
85.6282832799
 21
271.8577745089
  0
LINE
  8
CURVE
 62
40
  6
CONTINUOUS
 10
116.2111388751
 20
233.4160070743
 11
138.3758769224
 21
211.2512690269
  0
LINE
  8
0
 62
7
  6
CONTINUOUS
 10
167.6515545388
 20
158.9624268904
 11
167.7780839807
 21
158.7061136235
  0
LINE
  8
0
 62
7
  6
CONTINUOUS
 10
121.4516831069
 20
244.3469562453
 11
121.6445292904
 21
243.8468482056
  0
LINE
  8
0
 62
7
  6
CONTINUOUS
 10
126.3330048467
 20
246.8309133144
 11
126.1401586455
 21
247.331021313
  0
LINE
  8
0
 62
7
  6
CONTINUOUS
 10
129.9784712216
 20
241.9613640858
 11
130.0676193628
 21
241.6153314951
  0
LINE
  8
0
 62
7
  6
CONTINUOUS
 10
131.2531200027
 20
244.1736157754
 11
131.3422681439
 21
243.8275831847
  0
LINE
  8
SURFACE
 62
7
  6
CONTINUOUS
 10
132.0042924673
 20
268.8065228268
 11
132.0525851567
 21
268.524788898
  0
LINE
  8
0
 62
7
  6
CONTINUOUS
 10
134.8503758111
 20
238.5938851988
 11
134.8984545761
 21
238.2398027546
  0
LINE
  8
0
 62
7
  6
CONTINUOUS
 10
136.3749375653
 20
240.6419326863
 11
136.4230163302
 21
240.2878502421
  0
LINE
  8
0
 62
7
  6
CONTINUOUS
 10
132.0558494943
 20
243.563767682
 11
131.9858547546
 21
244.1934319938
  0
LINE
  8
0
 62
7
  6
CONTINUOUS
 10
149.7184360887
 20
214.5372589268
 11
149.7205365254
 21
214.9333871273
  0
LINE
  8
0
 62
7
  6
CONTINUOUS
 10
149.8935661825
 20
225.7999805213
 11
149.9501354808
 21
226.4272483691
  0
POLYLINE
  8
0
 62
7
  6
CONTINUOUS
 66
1
 70
0
  0
VERTEX
  8
0
 62
7
  6
CONTINUOUS
 10
132.0042924673
 20
128.6967309693
  0
VERTEX
  8
0
 62
7
  6
CONTINUOUS
 10
131.9851393295
 20
128.5862855923
  0
VERTEX
  8
0
 62
7
  6
CONTINUOUS
 10
131.9837782439
 20
128.578464898
  0
SEQEND
  0
LINE
  8
0
 62
7
  6
CONTINUOUS
 10
149.2404759521
 20
215.5636487564
 11
149.0755571449
 21
214.8494295904
  0
LINE
  8
0
 62
7
  6
CONTINUOUS
 10
152.8952894685
 20
213.4910371466
 11
153.0602118745
 21
214.2052454491
  0
LINE
  8
0
 62
7
  6
CONTINUOUS
 10
154.9137445937
 20
214.2980617685
 11
155.0786669996
 21
215.0122700709
  0
LINE
  8
0
 62
7
  6
CONTINUOUS
 10
149.7205365254
 20
214.9333871273
 11
149.8437023131
 21
215.3700140173
  0
LINE
  8
0
 62
7
  6
CONTINUOUS
 10
152.4152289376
 20
214.1212987899
 11
152.2920631499
 21
213.6846719
  0
LINE
  8
0
 62
7
  6
CONTINUOUS
 10
154.4336840628
 20
214.9283234117
 11
154.3105182751
 21
214.4916965218
  0
LINE
  8
SURFACE
 62
7
  6
CONTINUOUS
 10
167.8310026779
 20
238.9048773921
 11
167.7780839807
 21
238.7971401726
  0
LINE
  8
0
 62
7
  6
CONTINUOUS
 10
108.0216567462
 20
142.8878822097
 11
107.9687394481
 21
142.828818387
  0
POLYLINE
  8
0
 62
7
  6
CONTINUOUS
 66
1
 70
0
  0
VERTEX
  8
0
 62
7
  6
CONTINUOUS
 10
85.4236146252
 20
125.4459374816
  0
VERTEX
  8
0
 62
7
  6
CONTINUOUS
 10
85.3432012474
 20
125.3678432265
  0
VERTEX
  8
0
 62
7
  6
CONTINUOUS
 10
85.3375032172
 20
125.362316178
  0
SEQEND
  0
LINE
  8
0
 62
7
  6
CONTINUOUS
 10
106.6987194481
 20
143.5080524106
 11
106.5928842462
 21
143.4194566765
  0
LINE
  8
0
 62
7
  6
CONTINUOUS
 10
108.1804092462
 20
142.7402226425
 11
108.2862438425
 21
142.828818387
  0
LINE
  8
0
 62
7
  6
CONTINUOUS
 10
98.1260842399
 20
143.4785204992
 11
98.0202492462
 21
143.4194566765
  0
LINE
  8
0
 62
7
  6
CONTINUOUS
 10
98.2319192336
 20
143.3308609424
 11
98.3906717336
 21
143.4194566765
  0
LINE
  8
0
 62
7
  6
CONTINUOUS
 10
100.3486192967
 20
143.5080524106
 11
100.2427842462
 21
143.4489885879
  0
LINE
  8
0
 62
7
  6
CONTINUOUS
 10
100.2427842462
 20
143.3308609424
 11
100.3486192967
 21
143.3899247651
  0
LINE
  8
0
 62
7
  6
CONTINUOUS
 10
99.3431866957
 20
142.7402226425
 11
99.5019391957
 21
142.828818387
  0
LINE
  8
0
 62
7
  6
CONTINUOUS
 10
102.0419793471
 20
143.537584322
 11
101.9361441453
 21
143.4785204992
  0
LINE
  8
SURFACE
 62
7
  6
CONTINUOUS
 10
179.1867551879
 20
193.5477889562
 11
179.0806167138
 21
193.4917325444
  0
LINE
  8
0
 62
7
  6
CONTINUOUS
 10
80.0282335284
 20
241.3827546898
 11
79.5280008541
 21
241.2560174528
  0
LINE
  8
0
 62
7
  6
CONTINUOUS
 10
124.0277324654
 20
243.3760161317
 11
123.5823099838
 21
243.2899251034
  0
LINE
  8
0
 62
7
  6
CONTINUOUS
 10
123.7569554882
 20
247.801853428
 11
124.2023779698
 21
247.8879444563
  0
LINE
  8
0
 62
7
  6
CONTINUOUS
 10
123.4445344989
 20
242.6542616342
 11
124.1700633928
 21
242.7586682866
  0
LINE
  8
0
 62
7
  6
CONTINUOUS
 10
124.3401534238
 20
248.5236078536
 11
123.6146245432
 21
248.419201232
  0
POLYLINE
  8
0
 62
7
  6
CONTINUOUS
 66
1
 70
0
  0
VERTEX
  8
0
 62
7
  6
CONTINUOUS
 10
161.5947073214
 20
247.3078280139
  0
VERTEX
  8
0
 62
7
  6
CONTINUOUS
 10
161.705665762
 20
247.3237417959
  0
VERTEX
  8
0
 62
7
  6
CONTINUOUS
 10
161.7135242828
 20
247.324864054
  0
SEQEND
  0
LINE
  8
0
 62
7
  6
CONTINUOUS
 10
70.461909865
 20
235.4791055569
 11
70.912449235
 21
235.5322763041
  0
LINE
  8
0
 62
7
  6
CONTINUOUS
 10
70.0462765939
 20
239.0073254859
 11
69.5957369894
 21
238.9541550086
  0
LINE
  8
0
 62
7
  6
CONTINUOUS
 10
79.2229139554
 20
240.5088221483
 11
79.7841385873
 21
240.5234123712
  0
LINE
  8
0
 62
7
  6
CONTINUOUS
 10
130.5583254022
 20
242.2166003259
 11
130.8386708338
 21
242.2024054422
  0
LINE
  8
0
 62
7
  6
CONTINUOUS
 10
79.5280008541
 20
241.2560174528
 11
79.076585122
 21
241.3011476509
  0
LINE
  8
0
 62
7
  6
CONTINUOUS
 10
79.3820433697
 20
245.9721284836
 11
79.8334590591
 21
245.9269983641
  0
LINE
  8
SURFACE
 62
7
  6
CONTINUOUS
 10
45.7094692096
 20
247.324864054
 11
45.828286171
 21
247.3078280139
  0
LINE
  8
0
 62
7
  6
CONTINUOUS
 10
135.4560950877
 20
238.779574636
 11
135.7328580837
 21
238.7326992719
  0
LINE
  8
0
 62
7
  6
CONTINUOUS
 10
129.149949496
 20
240.5234004566
 11
128.7612926058
 21
240.6000019234
  0
LINE
  8
0
 62
7
  6
CONTINUOUS
 10
92.3119537338
 20
248.4288752635
 11
92.0374741951
 21
248.487663345
  0
LINE
  8
0
 62
7
  6
CONTINUOUS
 10
122.7052352995
 20
242.8337989835
 11
123.4445344989
 21
242.6542616342
  0
LINE
  8
0
 62
7
  6
CONTINUOUS
 10
85.6388476228
 20
249.1279737764
 11
85.0327486931
 21
249.2991895691
  0
LINE
  8
0
 62
7
  6
CONTINUOUS
 10
133.8594106495
 20
237.2626543033
 11
133.4823756041
 21
237.3841719462
  0
LINE
  8
0
 62
7
  6
CONTINUOUS
 10
128.2705865217
 20
239.9987330151
 11
128.8758663349
 21
239.7973183918
  0
LINE
  8
0
 62
7
  6
CONTINUOUS
 10
91.6527761412
 20
250.8955069658
 11
91.0708526606
 21
251.1364132192
  0
LINE
  8
0
 62
7
  6
CONTINUOUS
 10
132.924735039
 20
236.8443999931
 11
133.5023141901
 21
236.5735978015
  0
POLYLINE
  8
0
 62
7
  6
CONTINUOUS
 66
1
 70
0
  0
VERTEX
  8
0
 62
7
  6
CONTINUOUS
 10
179.0806167138
 20
204.0115212516
  0
VERTEX
  8
0
 62
7
  6
CONTINUOUS
 10
179.1797378643
 20
203.9591760367
  0
VERTEX
  8
0
 62
7
  6
CONTINUOUS
 10
179.1867551879
 20
203.9554648399
  0
SEQEND
  0
LINE
  8
0
 62
7
  6
CONTINUOUS
 10
122.0669666212
 20
243.247815964
 11
122.7052352995
 21
242.8337989835
  0
LINE
  8
0
 62
7
  6
CONTINUOUS
 10
150.597147981
 20
213.1176901628
 11
150.2360523646
 21
213.392322295
  0
LINE
  8
0
 62
7
  6
CONTINUOUS
 10
151.538617482
 20
215.9369957544
 11
151.8997130984
 21
215.6623636222
  0
LINE
  8
0
 62
7
  6
CONTINUOUS
 10
152.4653873025
 20
215.9833930044
 11
151.7431960696
 21
216.5326572688
  0
LINE
  8
0
 62
7
  6
CONTINUOUS
 10
153.5967287888
 20
216.6254735882
 11
153.9578244052
 21
216.350841456
  0
LINE
  8
0
 62
7
  6
CONTINUOUS
 10
149.6703817168
 20
213.071282035
 11
150.2318514489
 21
212.6000658798
  0
LINE
  8
0
 62
7
  6
CONTINUOUS
 10
154.5234986093
 20
216.6718708382
 11
153.9620252785
 21
217.143097857
  0
LINE
  8
SURFACE
 62
7
  6
CONTINUOUS
 10
85.3375032172
 20
272.1409376181
 11
85.4236146252
 21
272.0573163145
  0
LINE
  8
0
 62
7
  6
CONTINUOUS
 10
150.2360523646
 20
213.392322295
 11
149.9960220991
 21
213.7074531167
  0
LINE
  8
0
 62
7
  6
CONTINUOUS
 10
121.6445292904
 20
243.8468482056
 11
122.0669666212
 21
243.247815964
  0
LINE
  8
0
 62
7
  6
CONTINUOUS
 10
126.1401586455
 20
247.331021313
 11
125.7177213014
 21
247.9300535238
  0
LINE
  8
0
 62
7
  6
CONTINUOUS
 10
130.7112059736
 20
241.9811803042
 11
130.5583254022
 21
242.2166003259
  0
LINE
  8
0
 62
7
  6
CONTINUOUS
 10
122.4343437591
 20
243.7845506926
 11
122.1909823018
 21
244.1674188858
  0
LINE
  8
0
 62
7
  6
CONTINUOUS
 10
125.3503441945
 20
247.3933188671
 11
125.5937056518
 21
247.0104506739
  0
LINE
  8
0
 62
7
  6
CONTINUOUS
 10
149.3510390775
 20
213.6235064291
 11
149.6703817168
 21
213.071282035
  0
LINE
  8
0
 62
7
  6
CONTINUOUS
 10
135.5804019297
 20
238.5278945518
 11
135.4560950877
 21
238.779574636
  0
POLYLINE
  8
0
 62
7
  6
CONTINUOUS
 66
1
 70
0
  0
VERTEX
  8
0
 62
7
  6
CONTINUOUS
 10
167.7780839807
 20
158.7061136235
  0
VERTEX
  8
0
 62
7
  6
CONTINUOUS
 10
167.8275069306
 20
158.6055035046
  0
VERTEX
  8
0
 62
7
  6
CONTINUOUS
 10
167.8310026779
 20
158.598376404
  0
SEQEND
  0
LINE
  8
0
 62
7
  6
CONTINUOUS
 10
131.9858547546
 20
244.1934319938
 11
131.7438260421
 21
244.7748846063
  0
LINE
  8
0
 62
7
  6
CONTINUOUS
 10
137.1049636838
 20
240.5759420393
 11
136.9325780769
 21
241.1817045677
  0
LINE
  8
SURFACE
 62
7
  6
CONTINUOUS
 10
131.9837782439
 20
268.924788898
 11
132.0042924673
 21
268.8065228268
  0
LINE
  8
0
 62
7
  6
CONTINUOUS
 10
149.0755571449
 20
214.8494295904
 11
149.1527654304
 21
214.2162186633
  0
LINE
  8
0
 62
7
  6
CONTINUOUS
 10
152.4173293743
 20
214.5174269904
 11
152.4152289376
 21
214.1212987899
  0
LINE
  8
0
 62
7
  6
CONTINUOUS
 10
154.4357844995
 20
215.3244516122
 11
154.4336840628
 21
214.9283234117
  0
LINE
  8
0
 62
7
  6
CONTINUOUS
 10
102.0948966453
 20
143.1832013855
 11
101.9890617462
 21
143.1241375214
  0
LINE
  8
0
 62
7
  6
CONTINUOUS
 10
102.2007318471
 20
143.0355417873
 11
102.3065667462
 21
143.09460561
  0
LINE
  8
0
 62
7
  6
CONTINUOUS
 10
103.1532465443
 20
142.9174141418
 11
102.9944940443
 21
142.828818387
  0
LINE
  8
0
 62
7
  6
CONTINUOUS
 10
105.0582765443
 20
143.5080524106
 11
104.9524419481
 21
143.4489885879
  0
LINE
  8
0
 62
7
  6
CONTINUOUS
 10
104.9524419481
 20
143.3308609424
 11
105.0582765443
 21
143.3899247651
  0
LINE
  8
0
 62
7
  6
CONTINUOUS
 10
98.2848367588
 20
143.537584322
 11
98.1260842399
 21
143.4785204992
  0
LINE
  8
0
 62
7
  6
CONTINUOUS
 10
100.5073716453
 20
143.5671162333
 11
100.3486192967
 21
143.5080524106
  0
LINE
  8
0
 62
7
  6
CONTINUOUS
 10
100.3486192967
 20
143.3899247651
 11
100.5073716453
 21
143.4489885879
  0
LINE
  8
0
 62
7
  6
CONTINUOUS
 10
99.2373517967
 20
142.8583502983
 11
99.078599221
 21
142.7992864756
  0
LINE
  8
0
 62
7
  6
CONTINUOUS
 10
105.2170290443
 20
143.5671162333
 11
105.0582765443
 21
143.5080524106
  0
LINE
  8
0
 62
7
  6
CONTINUOUS
 10
102.9944940443
 20
142.681158812
 11
103.1532465443
 21
142.7402226425
  0
LINE
  8
0
 62
7
  6
CONTINUOUS
 10
105.0582765443
 20
143.3899247651
 11
105.2170290443
 21
143.4489885879
  0
LINE
  8
0
 62
7
  6
CONTINUOUS
 10
89.0848561907
 20
244.5272650818
 11
91.9831483804
 21
245.301798737
  0
LINE
  8
0
 62
7
  6
CONTINUOUS
 10
91.9061609672
 20
246.0740614509
 11
89.6116759649
 21
245.460887989
  0
LINE
  8
0
 62
7
  6
CONTINUOUS
 10
89.1172927705
 20
247.3108617657
 11
91.4117777727
 21
247.9240352276
  0
LINE
  8
0
 62
7
  6
CONTINUOUS
 10
91.2140245226
 20
248.6640246347
 11
88.9195395204
 21
248.0508511728
  0
LINE
  8
0
 62
7
  6
CONTINUOUS
 10
88.4581151778
 20
249.777493468
 11
90.75260018
 21
250.3906669299
  0
LINE
  8
0
 62
7
  6
CONTINUOUS
 10
90.43408107
 20
251.0983831164
 11
87.5357888803
 21
250.3238494612
  0
LINE
  8
0
 62
7
  6
CONTINUOUS
 10
78.8818106954
 20
245.8453912466
 11
79.3820433697
 21
245.9721284836
  0
LINE
  8
0
 62
7
  6
CONTINUOUS
 10
85.0327486931
 20
249.2991895691
 11
84.4047909238
 21
249.186969307
  0
LINE
  8
0
 62
7
  6
CONTINUOUS
 10
91.0708526606
 20
251.1364132192
 11
90.43408107
 21
251.0983831164
  0
LINE
  8
0
 62
7
  6
CONTINUOUS
 10
84.7567185511
 20
248.6399802985
 11
85.1523532228
 21
248.6598591722
  0
LINE
  8
0
 62
7
  6
CONTINUOUS
 10
79.6871302898
 20
246.7193237489
 11
79.1259056739
 21
246.7047334965
  0
LINE
  8
0
 62
7
  6
CONTINUOUS
 10
91.4117777727
 20
247.9240352276
 11
91.8070231714
 21
247.8975203667
  0
LINE
  8
0
 62
7
  6
CONTINUOUS
 10
90.75260018
 20
250.3906669299
 11
91.1478455788
 21
250.364152069
  0
LINE
  8
0
 62
7
  6
CONTINUOUS
 10
130.4883306626
 20
242.8462646377
 11
130.0996737723
 21
242.9228661045
  0
LINE
  8
0
 62
7
  6
CONTINUOUS
 10
123.5823099838
 20
243.2899251034
 11
122.9578116154
 21
243.4199980926
  0
LINE
  8
0
 62
7
  6
CONTINUOUS
 10
124.2023779698
 20
247.8879444563
 11
124.8268763383
 21
247.7578714671
  0
LINE
  8
0
 62
7
  6
CONTINUOUS
 10
112.4546910883
 20
246.014789593
 11
117.3173098079
 21
244.8507792347
  0
LINE
  8
0
 62
7
  6
CONTINUOUS
 10
117.4956263559
 20
245.5956913209
 11
113.3624007225
 21
246.5851000588
  0
LINE
  8
0
 62
7
  6
CONTINUOUS
 10
113.702906945
 20
251.2291742831
 11
117.9577018027
 21
250.2106643871
  0
LINE
  8
0
 62
7
  6
CONTINUOUS
 10
118.7141227706
 20
250.6859239242
 11
113.851504051
 21
251.8499342825
  0
LINE
  8
0
 62
7
  6
CONTINUOUS
 10
125.0794526187
 20
248.3440704941
 11
124.3401534238
 21
248.5236078536
  0
LINE
  8
0
 62
7
  6
CONTINUOUS
 10
135.4602004274
 20
239.4131040791
 11
135.0831653819
 21
239.534621722
  0
LINE
  8
0
 62
7
  6
CONTINUOUS
 10
118.9700625284
 20
244.2618034553
 11
119.6811590371
 21
244.0233883649
  0
LINE
  8
0
 62
7
  6
CONTINUOUS
 10
121.5884797599
 20
249.7121604346
 11
120.8773832512
 21
249.9505755249
  0
LINE
  8
0
 62
7
  6
CONTINUOUS
 10
125.6711908406
 20
241.4964453016
 11
128.2705865217
 21
239.9987330151
  0
LINE
  8
0
 62
7
  6
CONTINUOUS
 10
128.7612926058
 20
240.6000019234
 11
126.7034343863
 21
241.7856927213
  0
LINE
  8
0
 62
7
  6
CONTINUOUS
 10
127.6594209721
 20
243.4448814886
 11
129.7172791916
 21
242.2591906906
  0
LINE
  8
0
 62
7
  6
CONTINUOUS
 10
130.0996737723
 20
242.9228661045
 11
128.0418155529
 21
244.1085569025
  0
LINE
  8
0
 62
7
  6
CONTINUOUS
 10
128.9340697532
 20
245.6571331782
 11
130.9919279727
 21
244.4714423802
  0
LINE
  8
0
 62
7
  6
CONTINUOUS
 10
131.2660110948
 20
245.1975243772
 11
128.6666154137
 21
246.6952366637
  0
LINE
  8
0
 62
7
  6
CONTINUOUS
 10
125.7177213014
 20
247.9300535238
 11
125.0794526187
 21
248.3440704941
  0
LINE
  8
0
 62
7
  6
CONTINUOUS
 10
122.9578116154
 20
243.4199980926
 11
122.4343437591
 21
243.7845506926
  0
LINE
  8
0
 62
7
  6
CONTINUOUS
 10
124.8268763383
 20
247.7578714671
 11
125.3503441945
 21
247.3933188671
  0
LINE
  8
0
 62
7
  6
CONTINUOUS
 10
130.5182792914
 20
238.6357600169
 11
132.924735039
 21
236.8443999931
  0
LINE
  8
0
 62
7
  6
CONTINUOUS
 10
133.4823756041
 20
237.3841719462
 11
131.5772617439
 21
238.8023342429
  0
LINE
  8
0
 62
7
  6
CONTINUOUS
 10
132.7206830595
 20
240.3383698585
 11
134.6257969197
 21
238.9202075618
  0
LINE
  8
0
 62
7
  6
CONTINUOUS
 10
135.0831653819
 20
239.534621722
 11
133.1780515217
 21
240.9527840187
  0
LINE
  8
0
 62
7
  6
CONTINUOUS
 10
134.2452448137
 20
242.386417346
 11
136.1503586739
 21
240.9682550493
  0
LINE
  8
0
 62
7
  6
CONTINUOUS
 10
136.5074550866
 20
241.6573114883
 11
134.100999339
 21
243.4486715121
  0
LINE
  8
0
 62
7
  6
CONTINUOUS
 10
147.9409923603
 20
225.3051131041
 11
147.6327140485
 21
225.5538829687
  0
LINE
  8
0
 62
7
  6
CONTINUOUS
 10
131.7438260421
 20
244.7748846063
 11
131.2660110948
 21
245.1975243772
  0
LINE
  8
0
 62
7
  6
CONTINUOUS
 10
146.918471765
 20
225.2502802933
 11
147.3603341093
 21
224.7901833812
  0
LINE
  8
0
 62
7
  6
CONTINUOUS
 10
136.9325780769
 20
241.1817045677
 11
136.5074550866
 21
241.6573114883
  0
LINE
  8
0
 62
7
  6
CONTINUOUS
 10
129.7172791916
 20
242.2591906906
 11
129.9784712216
 21
241.9613640858
  0
LINE
  8
0
 62
7
  6
CONTINUOUS
 10
130.9919279727
 20
244.4714423802
 11
131.2531200027
 21
244.1736157754
  0
LINE
  8
0
 62
7
  6
CONTINUOUS
 10
151.8997130984
 20
215.6623636222
 11
152.1397433639
 21
215.3472328006
  0
LINE
  8
0
 62
7
  6
CONTINUOUS
 10
153.9578244052
 20
216.350841456
 11
154.1978546707
 21
216.0357106344
  0
LINE
  8
0
 62
7
  6
CONTINUOUS
 10
134.6257969197
 20
238.9202075618
 11
134.8503758111
 21
238.5938851988
  0
LINE
  8
0
 62
7
  6
CONTINUOUS
 10
136.1503586739
 20
240.9682550493
 11
136.3749375653
 21
240.6419326863
  0
LINE
  8
0
 62
7
  6
CONTINUOUS
 10
143.0494360558
 20
226.3536955876
 11
143.4501759237
 21
225.719733792
  0
LINE
  8
0
 62
7
  6
CONTINUOUS
 10
145.7162521615
 20
227.1521656803
 11
146.918471765
 21
225.2502802933
  0
LINE
  8
0
 62
7
  6
CONTINUOUS
 10
147.6327140485
 20
225.5538829687
 11
146.3637024288
 21
227.5614318795
  0
LINE
  8
0
 62
7
  6
CONTINUOUS
 10
147.9823283994
 20
228.5845975685
 11
149.2513400191
 21
226.5770486578
  0
LINE
  8
0
 62
7
  6
CONTINUOUS
 10
149.7240898923
 20
227.0237673476
 11
148.121130421
 21
229.5596145302
  0
LINE
  8
0
 62
7
  6
CONTINUOUS
 10
152.7847263007
 20
215.4311794597
 11
152.4653873025
 21
215.9833930044
  0
LINE
  8
0
 62
7
  6
CONTINUOUS
 10
154.8428376075
 20
216.1196572935
 11
154.5234986093
 21
216.6718708382
  0
LINE
  8
0
 62
7
  6
CONTINUOUS
 10
146.0153377804
 20
221.5690553966
 11
146.3365617434
 21
220.891327453
  0
LINE
  8
0
 62
7
  6
CONTINUOUS
 10
147.8356085377
 20
217.7285936021
 11
148.1568325007
 21
217.0508656585
  0
LINE
  8
0
 62
7
  6
CONTINUOUS
 10
147.9350080567
 20
221.0956224059
 11
149.0057529661
 21
218.8365327074
  0
LINE
  8
0
 62
7
  6
CONTINUOUS
 10
149.413650643
 20
219.1681861213
 11
148.4499787541
 21
221.2013699523
  0
LINE
  8
0
 62
7
  6
CONTINUOUS
 10
152.7220571816
 20
221.4279353257
 11
152.2937601981
 21
222.3315691368
  0
LINE
  8
0
 62
7
  6
CONTINUOUS
 10
149.9501354808
 20
226.4272483691
 11
149.7240898923
 21
227.0237673476
  0
LINE
  8
0
 62
7
  6
CONTINUOUS
 10
149.1527654304
 20
214.2162186633
 11
149.3510390775
 21
213.6235064291
  0
LINE
  8
0
 62
7
  6
CONTINUOUS
 10
149.9960220991
 20
213.7074531167
 11
149.7184360887
 21
214.5372589268
  0
LINE
  8
0
 62
7
  6
CONTINUOUS
 10
152.1397433639
 20
215.3472328006
 11
152.4173293743
 21
214.5174269904
  0
LINE
  8
0
 62
7
  6
CONTINUOUS
 10
152.9829999478
 20
214.8384672256
 11
152.7847263007
 21
215.4311794597
  0
LINE
  8
0
 62
7
  6
CONTINUOUS
 10
154.0266345853
 20
214.1331068775
 11
154.2249082324
 21
213.5403946434
  0
LINE
  8
0
 62
7
  6
CONTINUOUS
 10
154.1978546707
 20
216.0357106344
 11
154.4357844995
 21
215.3244516122
  0
LINE
  8
0
 62
7
  6
CONTINUOUS
 10
155.0014587035
 20
215.6454809945
 11
154.8428376075
 21
216.1196572935
  0
LINE
  8
0
 62
7
  6
CONTINUOUS
 10
149.2513400191
 20
226.5770486578
 11
149.3438015751
 21
226.1918567268
  0
LINE
  8
0
 62
7
  6
CONTINUOUS
 10
153.0602118745
 20
214.2052454491
 11
152.9829999478
 21
214.8384672256
  0
LINE
  8
0
 62
7
  6
CONTINUOUS
 10
155.0786669996
 20
215.0122700709
 11
155.0014587035
 21
215.6454809945
  0
POLYLINE
  8
0
 62
7
  6
CONTINUOUS
 66
1
 70
0
  0
VERTEX
  8
0
 62
7
  6
CONTINUOUS
 10
169.2430198544
 20
159.2767988367
  0
VERTEX
  8
0
 62
7
  6
CONTINUOUS
 10
169.2610880273
 20
159.1072347644
  0
VERTEX
  8
0
 62
7
  6
CONTINUOUS
 10
169.2685401652
 20
159.0334292722
  0
VERTEX
  8
0
 62
7
  6
CONTINUOUS
 10
169.2744351265
 20
158.9718851781
  0
VERTEX
  8
0
 62
7
  6
CONTINUOUS
 10
169.2784893691
 20
158.9256058893
  0
VERTEX
  8
0
 62
7
  6
CONTINUOUS
 10
169.2805242855
 20
158.8968510485
  0
VERTEX
  8
0
 62
7
  6
CONTINUOUS
 10
169.2803086783
 20
158.887008526
  0
SEQEND
  0
POLYLINE
  8
SURFACE
 62
7
  6
CONTINUOUS
 66
1
 70
0
  0
VERTEX
  8
SURFACE
 62
7
  6
CONTINUOUS
 10
169.268540182
 20
238.4698245226
  0
VERTEX
  8
SURFACE
 62
7
  6
CONTINUOUS
 10
169.2744351546
 20
238.5313686154
  0
VERTEX
  8
SURFACE
 62
7
  6
CONTINUOUS
 10
169.2784894173
 20
238.5776479018
  0
VERTEX
  8
SURFACE
 62
7
  6
CONTINUOUS
 10
169.2805243903
 20
238.6064027364
  0
VERTEX
  8
SURFACE
 62
7
  6
CONTINUOUS
 10
169.2803086778
 20
238.6162452701
  0
SEQEND
  0
POLYLINE
  8
SURFACE
 62
7
  6
CONTINUOUS
 66
1
 70
0
  0
VERTEX
  8
SURFACE
 62
7
  6
CONTINUOUS
 10
169.2430198516
 20
238.2264549604
  0
VERTEX
  8
SURFACE
 62
7
  6
CONTINUOUS
 10
169.2524408567
 20
238.3135541928
  0
VERTEX
  8
SURFACE
 62
7
  6
CONTINUOUS
 10
169.268540182
 20
238.4698245226
  0
SEQEND
  0
POLYLINE
  8
0
 62
7
  6
CONTINUOUS
 66
1
 70
0
  0
VERTEX
  8
0
 62
7
  6
CONTINUOUS
 10
133.5248907731
 20
128.2973573168
  0
VERTEX
  8
0
 62
7
  6
CONTINUOUS
 10
133.4398412627
 20
128.1495567323
  0
VERTEX
  8
0
 62
7
  6
CONTINUOUS
 10
133.4024885774
 20
128.0854664733
  0
VERTEX
  8
0
 62
7
  6
CONTINUOUS
 10
133.3710832596
 20
128.0322111326
  0
VERTEX
  8
0
 62
7
  6
CONTINUOUS
 10
133.3471614078
 20
127.9923871048
  0
VERTEX
  8
0
 62
7
  6
CONTINUOUS
 10
133.3319073567
 20
127.9679270928
  0
VERTEX
  8
0
 62
7
  6
CONTINUOUS
 10
133.3259451216
 20
127.9600925032
  0
SEQEND
  0
POLYLINE
  8
SURFACE
 62
7
  6
CONTINUOUS
 66
1
 70
0
  0
VERTEX
  8
SURFACE
 62
7
  6
CONTINUOUS
 10
180.0940293915
 20
192.3508607957
  0
VERTEX
  8
SURFACE
 62
7
  6
CONTINUOUS
 10
180.1349729855
 20
192.3971862642
  0
VERTEX
  8
SURFACE
 62
7
  6
CONTINUOUS
 10
180.1654547868
 20
192.4322443672
  0
VERTEX
  8
SURFACE
 62
7
  6
CONTINUOUS
 10
180.1840015278
 20
192.4543125313
  0
VERTEX
  8
SURFACE
 62
7
  6
CONTINUOUS
 10
180.189614675
 20
192.4623999645
  0
SEQEND
  0
POLYLINE
  8
SURFACE
 62
7
  6
CONTINUOUS
 66
1
 70
0
  0
VERTEX
  8
SURFACE
 62
7
  6
CONTINUOUS
 10
179.9303344109
 20
192.1689707495
  0
VERTEX
  8
SURFACE
 62
7
  6
CONTINUOUS
 10
179.9891516809
 20
192.2338980987
  0
VERTEX
  8
SURFACE
 62
7
  6
CONTINUOUS
 10
180.0940293915
 20
192.3508607957
  0
SEQEND
  0
POLYLINE
  8
0
 62
7
  6
CONTINUOUS
 66
1
 70
0
  0
VERTEX
  8
0
 62
7
  6
CONTINUOUS
 10
86.419058535
 20
124.2290521701
  0
VERTEX
  8
0
 62
7
  6
CONTINUOUS
 10
86.2633770925
 20
124.1594697023
  0
VERTEX
  8
0
 62
7
  6
CONTINUOUS
 10
86.1954868658
 20
124.1295748659
  0
VERTEX
  8
0
 62
7
  6
CONTINUOUS
 10
86.1387767827
 20
124.1049498498
  0
VERTEX
  8
0
 62
7
  6
CONTINUOUS
 10
86.0960157226
 20
124.0867922242
  0
VERTEX
  8
0
 62
7
  6
CONTINUOUS
 10
86.0692979826
 20
124.075969143
  0
VERTEX
  8
0
 62
7
  6
CONTINUOUS
 10
86.0598688552
 20
124.0731365078
  0
SEQEND
  0
POLYLINE
  8
SURFACE
 62
7
  6
CONTINUOUS
 66
1
 70
0
  0
VERTEX
  8
SURFACE
 62
7
  6
CONTINUOUS
 10
45.6790054454
 20
248.826482665
  0
VERTEX
  8
SURFACE
 62
7
  6
CONTINUOUS
 10
45.6186518282
 20
248.8130712463
  0
VERTEX
  8
SURFACE
 62
7
  6
CONTINUOUS
 10
45.5733846653
 20
248.8026265292
  0
VERTEX
  8
SURFACE
 62
7
  6
CONTINUOUS
 10
45.545408042
 20
248.7956776649
  0
VERTEX
  8
SURFACE
 62
7
  6
CONTINUOUS
 10
45.5361144886
 20
248.7924281875
  0
SEQEND
  0
POLYLINE
  8
SURFACE
 62
7
  6
CONTINUOUS
 66
1
 70
0
  0
VERTEX
  8
SURFACE
 62
7
  6
CONTINUOUS
 10
45.9183499744
 20
248.877416185
  0
VERTEX
  8
SURFACE
 62
7
  6
CONTINUOUS
 10
45.8326024003
 20
248.859461105
  0
VERTEX
  8
SURFACE
 62
7
  6
CONTINUOUS
 10
45.6790054454
 20
248.826482665
  0
SEQEND
  0
POLYLINE
  8
0
 62
7
  6
CONTINUOUS
 66
1
 70
0
  0
VERTEX
  8
0
 62
7
  6
CONTINUOUS
 10
161.5046435179
 20
248.8774161871
  0
VERTEX
  8
0
 62
7
  6
CONTINUOUS
 10
161.671491971
 20
248.8422021884
  0
VERTEX
  8
0
 62
7
  6
CONTINUOUS
 10
161.7439880441
 20
248.8264826528
  0
VERTEX
  8
0
 62
7
  6
CONTINUOUS
 10
161.8043416597
 20
248.813071226
  0
VERTEX
  8
0
 62
7
  6
CONTINUOUS
 10
161.8496088196
 20
248.8026264943
  0
VERTEX
  8
0
 62
7
  6
CONTINUOUS
 10
161.8775854344
 20
248.7956775891
  0
VERTEX
  8
0
 62
7
  6
CONTINUOUS
 10
161.8868790039
 20
248.7924281878
  0
SEQEND
  0
POLYLINE
  8
SURFACE
 62
7
  6
CONTINUOUS
 66
1
 70
0
  0
VERTEX
  8
SURFACE
 62
7
  6
CONTINUOUS
 10
86.1954868734
 20
273.3736789484
  0
VERTEX
  8
SURFACE
 62
7
  6
CONTINUOUS
 10
86.1387767957
 20
273.3983039765
  0
VERTEX
  8
SURFACE
 62
7
  6
CONTINUOUS
 10
86.0960157454
 20
273.4164616236
  0
VERTEX
  8
SURFACE
 62
7
  6
CONTINUOUS
 10
86.0692980326
 20
273.427284765
  0
VERTEX
  8
SURFACE
 62
7
  6
CONTINUOUS
 10
86.059868855
 20
273.4301172878
  0
SEQEND
  0
POLYLINE
  8
SURFACE
 62
7
  6
CONTINUOUS
 66
1
 70
0
  0
VERTEX
  8
SURFACE
 62
7
  6
CONTINUOUS
 10
86.4190585329
 20
273.2742016233
  0
VERTEX
  8
SURFACE
 62
7
  6
CONTINUOUS
 10
86.3391335868
 20
273.3100768826
  0
VERTEX
  8
SURFACE
 62
7
  6
CONTINUOUS
 10
86.1954868734
 20
273.3736789484
  0
SEQEND
  0
POLYLINE
  8
0
 62
7
  6
CONTINUOUS
 66
1
 70
0
  0
VERTEX
  8
0
 62
7
  6
CONTINUOUS
 10
179.9303344115
 20
205.3342830475
  0
VERTEX
  8
0
 62
7
  6
CONTINUOUS
 10
180.04461887
 20
205.2077227944
  0
VERTEX
  8
0
 62
7
  6
CONTINUOUS
 10
180.094029387
 20
205.1523929966
  0
VERTEX
  8
0
 62
7
  6
CONTINUOUS
 10
180.1349729781
 20
205.1060675254
  0
VERTEX
  8
0
 62
7
  6
CONTINUOUS
 10
180.1654547741
 20
205.0710094175
  0
VERTEX
  8
0
 62
7
  6
CONTINUOUS
 10
180.1840015004
 20
205.04894124
  0
VERTEX
  8
0
 62
7
  6
CONTINUOUS
 10
180.1896146751
 20
205.0408538317
  0
SEQEND
  0
POLYLINE
  8
SURFACE
 62
7
  6
CONTINUOUS
 66
1
 70
0
  0
VERTEX
  8
SURFACE
 62
7
  6
CONTINUOUS
 10
133.402488588
 20
269.4177873293
  0
VERTEX
  8
SURFACE
 62
7
  6
CONTINUOUS
 10
133.3710832775
 20
269.471042674
  0
VERTEX
  8
SURFACE
 62
7
  6
CONTINUOUS
 10
133.3471614386
 20
269.5108667092
  0
VERTEX
  8
SURFACE
 62
7
  6
CONTINUOUS
 10
133.3319074239
 20
269.5353267419
  0
VERTEX
  8
SURFACE
 62
7
  6
CONTINUOUS
 10
133.3259451213
 20
269.5431612927
  0
SEQEND
  0
POLYLINE
  8
SURFACE
 62
7
  6
CONTINUOUS
 66
1
 70
0
  0
VERTEX
  8
SURFACE
 62
7
  6
CONTINUOUS
 10
133.5248907711
 20
269.2058964787
  0
VERTEX
  8
SURFACE
 62
7
  6
CONTINUOUS
 10
133.4813170176
 20
269.2818988429
  0
VERTEX
  8
SURFACE
 62
7
  6
CONTINUOUS
 10
133.402488588
 20
269.4177873293
  0
SEQEND
  0
POLYLINE
  8
SURFACE
 62
7
  6
CONTINUOUS
 66
1
 70
0
  0
VERTEX
  8
SURFACE
 62
7
  6
CONTINUOUS
 10
169.2430196791
 20
238.2264640165
  0
VERTEX
  8
SURFACE
 62
7
  6
CONTINUOUS
 10
169.2430750259
 20
238.2235741331
  0
VERTEX
  8
SURFACE
 62
7
  6
CONTINUOUS
 10
169.243861907
 20
238.2206073839
  0
VERTEX
  8
SURFACE
 62
7
  6
CONTINUOUS
 10
169.2453053255
 20
238.2176874197
  0
SEQEND
  0
POLYLINE
  8
0
 62
7
  6
CONTINUOUS
 66
1
 70
0
  0
VERTEX
  8
0
 62
7
  6
CONTINUOUS
 10
169.2430196819
 20
159.2767897798
  0
VERTEX
  8
0
 62
7
  6
CONTINUOUS
 10
169.243075026
 20
159.2796796638
  0
VERTEX
  8
0
 62
7
  6
CONTINUOUS
 10
169.2438619072
 20
159.2826464126
  0
VERTEX
  8
0
 62
7
  6
CONTINUOUS
 10
169.2453053255
 20
159.2855663764
  0
SEQEND
  0
LINE
  8
0
 62
7
  6
CONTINUOUS
 10
163.4043537261
 20
155.382227684
 11
161.7135242828
 21
150.1783897421
  0
LINE
  8
0
 62
7
  6
CONTINUOUS
 10
169.6020848877
 20
174.4568828478
 11
179.1867551879
 21
203.9554648399
  0
POLYLINE
  8
SURFACE
 62
7
  6
CONTINUOUS
 66
1
 70
0
  0
VERTEX
  8
SURFACE
 62
7
  6
CONTINUOUS
 10
179.9303324784
 20
192.1689679776
  0
VERTEX
  8
SURFACE
 62
7
  6
CONTINUOUS
 10
179.9286856966
 20
192.1666077209
  0
VERTEX
  8
SURFACE
 62
7
  6
CONTINUOUS
 10
179.9275784926
 20
192.1637450614
  0
VERTEX
  8
SURFACE
 62
7
  6
CONTINUOUS
 10
179.9270299336
 20
192.1605343516
  0
SEQEND
  0
POLYLINE
  8
0
 62
7
  6
CONTINUOUS
 66
1
 70
0
  0
VERTEX
  8
0
 62
7
  6
CONTINUOUS
 10
133.5248813592
 20
128.297344867
  0
VERTEX
  8
0
 62
7
  6
CONTINUOUS
 10
133.5266287652
 20
128.2996554978
  0
VERTEX
  8
0
 62
7
  6
CONTINUOUS
 10
133.5290091818
 20
128.3015931394
  0
VERTEX
  8
0
 62
7
  6
CONTINUOUS
 10
133.5318932522
 20
128.3031070256
  0
SEQEND
  0
LINE
  8
SURFACE
 62
7
  6
CONTINUOUS
 10
126.5121392269
 20
128.578464898
 11
122.0854902752
 21
125.362316178
  0
LINE
  8
0
 62
7
  6
CONTINUOUS
 10
126.5121392269
 20
128.578464898
 11
122.0854902752
 21
125.362316178
  0
LINE
  8
0
 62
7
  6
CONTINUOUS
 10
142.738010061
 20
140.3672501129
 11
167.8310026779
 21
158.598376404
  0
POLYLINE
  8
SURFACE
 62
7
  6
CONTINUOUS
 66
1
 70
0
  0
VERTEX
  8
SURFACE
 62
7
  6
CONTINUOUS
 10
161.5046582669
 20
148.6258427169
  0
VERTEX
  8
SURFACE
 62
7
  6
CONTINUOUS
 10
161.5019207494
 20
148.6248948575
  0
VERTEX
  8
SURFACE
 62
7
  6
CONTINUOUS
 10
161.4993423532
 20
148.6232297109
  0
VERTEX
  8
SURFACE
 62
7
  6
CONTINUOUS
 10
161.4970113349
 20
148.6209546133
  0
SEQEND
  0
POLYLINE
  8
0
 62
7
  6
CONTINUOUS
 66
1
 70
0
  0
VERTEX
  8
0
 62
7
  6
CONTINUOUS
 10
86.4190378297
 20
124.229045878
  0
VERTEX
  8
0
 62
7
  6
CONTINUOUS
 10
86.4218154467
 20
124.2298898506
  0
VERTEX
  8
0
 62
7
  6
CONTINUOUS
 10
86.4248801653
 20
124.2300582636
  0
VERTEX
  8
0
 62
7
  6
CONTINUOUS
 10
86.4281032717
 20
124.2295878089
  0
SEQEND
  0
LINE
  8
0
 62
7
  6
CONTINUOUS
 10
106.4558598819
 20
268.924788898
 11
75.4392152485
 21
268.924788898
  0
LINE
  8
0
 62
7
  6
CONTINUOUS
 10
126.5121392269
 20
268.924788898
 11
131.9837782439
 21
268.924788898
  0
POLYLINE
  8
SURFACE
 62
7
  6
CONTINUOUS
 66
1
 70
0
  0
VERTEX
  8
SURFACE
 62
7
  6
CONTINUOUS
 10
86.4190378288
 20
273.274207915
  0
VERTEX
  8
SURFACE
 62
7
  6
CONTINUOUS
 10
86.4218154459
 20
273.2733639456
  0
VERTEX
  8
SURFACE
 62
7
  6
CONTINUOUS
 10
86.4248801648
 20
273.2731955325
  0
VERTEX
  8
SURFACE
 62
7
  6
CONTINUOUS
 10
86.4281032717
 20
273.2736659872
  0
SEQEND
  0
POLYLINE
  8
0
 62
7
  6
CONTINUOUS
 66
1
 70
0
  0
VERTEX
  8
0
 62
7
  6
CONTINUOUS
 10
161.5046582674
 20
248.8774110811
  0
VERTEX
  8
0
 62
7
  6
CONTINUOUS
 10
161.5019207489
 20
248.8783589388
  0
VERTEX
  8
0
 62
7
  6
CONTINUOUS
 10
161.499342353
 20
248.8800240853
  0
VERTEX
  8
0
 62
7
  6
CONTINUOUS
 10
161.4970113349
 20
248.8822991828
  0
SEQEND
  0
LINE
  8
0
 62
7
  6
CONTINUOUS
 10
147.178482892
 20
253.909811327
 11
122.0854902752
 21
272.1409376181
  0
LINE
  8
0
 62
7
  6
CONTINUOUS
 10
163.4043537261
 20
242.1210261121
 11
167.8310026779
 21
238.9048773921
  0
POLYLINE
  8
SURFACE
 62
7
  6
CONTINUOUS
 66
1
 70
0
  0
VERTEX
  8
SURFACE
 62
7
  6
CONTINUOUS
 10
133.5248813575
 20
269.205908928
  0
VERTEX
  8
SURFACE
 62
7
  6
CONTINUOUS
 10
133.5266287648
 20
269.2035982987
  0
VERTEX
  8
SURFACE
 62
7
  6
CONTINUOUS
 10
133.5290091816
 20
269.2016606568
  0
VERTEX
  8
SURFACE
 62
7
  6
CONTINUOUS
 10
133.5318932522
 20
269.2001467705
  0
SEQEND
  0
POLYLINE
  8
0
 62
7
  6
CONTINUOUS
 66
1
 70
0
  0
VERTEX
  8
0
 62
7
  6
CONTINUOUS
 10
179.9303324792
 20
205.3342858191
  0
VERTEX
  8
0
 62
7
  6
CONTINUOUS
 10
179.9286856965
 20
205.3366460754
  0
VERTEX
  8
0
 62
7
  6
CONTINUOUS
 10
179.9275784925
 20
205.3395087349
  0
VERTEX
  8
0
 62
7
  6
CONTINUOUS
 10
179.9270299336
 20
205.3427194445
  0
SEQEND
  0
LINE
  8
0
 62
7
  6
CONTINUOUS
 10
177.4959257446
 20
198.751626898
 11
179.1867551879
 21
193.5477889562
  0
LINE
  8
0
 62
7
  6
CONTINUOUS
 10
171.298194583
 20
217.8262820618
 11
161.7135242828
 21
247.324864054
  0
POLYLINE
  8
0
 62
7
  6
CONTINUOUS
 66
1
 70
0
  0
VERTEX
  8
0
 62
7
  6
CONTINUOUS
 10
178.23031879
 20
216.50860131
  0
VERTEX
  8
0
 62
7
  6
CONTINUOUS
 10
178.2308039622
 20
216.5024703185
  0
VERTEX
  8
0
 62
7
  6
CONTINUOUS
 10
178.2311589716
 20
216.484409045
  0
VERTEX
  8
0
 62
7
  6
CONTINUOUS
 10
178.2307243022
 20
216.4550846173
  0
VERTEX
  8
0
 62
7
  6
CONTINUOUS
 10
178.2296084697
 20
216.4154115226
  0
VERTEX
  8
0
 62
7
  6
CONTINUOUS
 10
178.2278648119
 20
216.3665700625
  0
SEQEND
  0
LINE
  8
SURFACE
 62
7
  6
CONTINUOUS
 10
178.2194657389
 20
181.3237010752
 11
178.2163914711
 21
181.3944767277
  0
POLYLINE
  8
0
 62
7
  6
CONTINUOUS
 66
1
 70
0
  0
VERTEX
  8
0
 62
7
  6
CONTINUOUS
 10
178.2278648119
 20
216.3665700625
  0
VERTEX
  8
0
 62
7
  6
CONTINUOUS
 10
178.2227345868
 20
216.2472534387
  0
VERTEX
  8
0
 62
7
  6
CONTINUOUS
 10
178.2194978713
 20
216.1801974948
  0
VERTEX
  8
0
 62
7
  6
CONTINUOUS
 10
178.2163914711
 20
216.1087770684
  0
SEQEND
  0
POLYLINE
  8
SURFACE
 62
7
  6
CONTINUOUS
 66
1
 70
0
  0
VERTEX
  8
SURFACE
 62
7
  6
CONTINUOUS
 10
178.23031879
 20
180.9946524861
  0
VERTEX
  8
SURFACE
 62
7
  6
CONTINUOUS
 10
178.2307957065
 20
181.0006693264
  0
VERTEX
  8
SURFACE
 62
7
  6
CONTINUOUS
 10
178.2311597606
 20
181.0185647948
  0
VERTEX
  8
SURFACE
 62
7
  6
CONTINUOUS
 10
178.2307314226
 20
181.0478537423
  0
VERTEX
  8
SURFACE
 62
7
  6
CONTINUOUS
 10
178.2296133236
 20
181.0876921413
  0
VERTEX
  8
SURFACE
 62
7
  6
CONTINUOUS
 10
178.2278579193
 20
181.1368627235
  0
VERTEX
  8
SURFACE
 62
7
  6
CONTINUOUS
 10
178.2255271011
 20
181.1938236405
  0
VERTEX
  8
SURFACE
 62
7
  6
CONTINUOUS
 10
178.2194657389
 20
181.3237010752
  0
SEQEND
  0
LINE
  8
SURFACE
 62
7
  6
CONTINUOUS
 10
153.7458320999
 20
140.8574533791
 11
153.7849458508
 21
140.9165190934
  0
POLYLINE
  8
0
 62
7
  6
CONTINUOUS
 66
1
 70
0
  0
VERTEX
  8
0
 62
7
  6
CONTINUOUS
 10
174.3501978939
 20
169.2026523188
  0
VERTEX
  8
0
 62
7
  6
CONTINUOUS
 10
174.3805197869
 20
169.2414003564
  0
VERTEX
  8
0
 62
7
  6
CONTINUOUS
 10
174.4048407683
 20
169.2729730985
  0
VERTEX
  8
0
 62
7
  6
CONTINUOUS
 10
174.4224029066
 20
169.2964165887
  0
VERTEX
  8
0
 62
7
  6
CONTINUOUS
 10
174.4326270564
 20
169.311108326
  0
VERTEX
  8
0
 62
7
  6
CONTINUOUS
 10
174.4357778652
 20
169.3162563504
  0
SEQEND
  0
POLYLINE
  8
0
 62
7
  6
CONTINUOUS
 66
1
 70
0
  0
VERTEX
  8
0
 62
7
  6
CONTINUOUS
 10
174.1894996347
 20
169.0009780169
  0
VERTEX
  8
0
 62
7
  6
CONTINUOUS
 10
174.2335876535
 20
169.056429714
  0
VERTEX
  8
0
 62
7
  6
CONTINUOUS
 10
174.275544838
 20
169.1086785498
  0
VERTEX
  8
0
 62
7
  6
CONTINUOUS
 10
174.3501978939
 20
169.2026523188
  0
SEQEND
  0
POLYLINE
  8
SURFACE
 62
7
  6
CONTINUOUS
 66
1
 70
0
  0
VERTEX
  8
SURFACE
 62
7
  6
CONTINUOUS
 10
153.5612024959
 20
140.5848682145
  0
VERTEX
  8
SURFACE
 62
7
  6
CONTINUOUS
 10
153.5651249037
 20
140.5894556393
  0
VERTEX
  8
SURFACE
 62
7
  6
CONTINUOUS
 10
153.5759381406
 20
140.6037193798
  0
VERTEX
  8
SURFACE
 62
7
  6
CONTINUOUS
 10
153.5928072257
 20
140.6276664026
  0
VERTEX
  8
SURFACE
 62
7
  6
CONTINUOUS
 10
153.6153190913
 20
140.6605535444
  0
VERTEX
  8
SURFACE
 62
7
  6
CONTINUOUS
 10
153.6428006847
 20
140.7013651803
  0
VERTEX
  8
SURFACE
 62
7
  6
CONTINUOUS
 10
153.6743958018
 20
140.7488175497
  0
VERTEX
  8
SURFACE
 62
7
  6
CONTINUOUS
 10
153.7458320999
 20
140.8574533791
  0
SEQEND
  0
LINE
  8
SURFACE
 62
7
  6
CONTINUOUS
 10
110.1607829615
 20
122.5048122168
 11
110.2271446065
 21
122.5296068975
  0
POLYLINE
  8
0
 62
7
  6
CONTINUOUS
 66
1
 70
0
  0
VERTEX
  8
0
 62
7
  6
CONTINUOUS
 10
143.4909549572
 20
133.3256175214
  0
VERTEX
  8
0
 62
7
  6
CONTINUOUS
 10
143.538261409
 20
133.3391425807
  0
VERTEX
  8
0
 62
7
  6
CONTINUOUS
 10
143.5764954885
 20
133.3503899515
  0
VERTEX
  8
0
 62
7
  6
CONTINUOUS
 10
143.6044832946
 20
133.3590333676
  0
VERTEX
  8
0
 62
7
  6
CONTINUOUS
 10
143.6213903921
 20
133.3649096283
  0
VERTEX
  8
0
 62
7
  6
CONTINUOUS
 10
143.6269653827
 20
133.3672224685
  0
SEQEND
  0
POLYLINE
  8
0
 62
7
  6
CONTINUOUS
 66
1
 70
0
  0
VERTEX
  8
0
 62
7
  6
CONTINUOUS
 10
64.1805873383
 20
264.2463381455
  0
VERTEX
  8
0
 62
7
  6
CONTINUOUS
 10
64.1123256921
 20
264.2273910673
  0
VERTEX
  8
0
 62
7
  6
CONTINUOUS
 10
64.0476705216
 20
264.2097826856
  0
VERTEX
  8
0
 62
7
  6
CONTINUOUS
 10
63.9320385352
 20
264.1776362747
  0
SEQEND
  0
POLYLINE
  8
SURFACE
 62
7
  6
CONTINUOUS
 66
1
 70
0
  0
VERTEX
  8
SURFACE
 62
7
  6
CONTINUOUS
 10
97.571800558
 20
275.1104450515
  0
VERTEX
  8
SURFACE
 62
7
  6
CONTINUOUS
 10
97.5659308427
 20
275.1090392804
  0
VERTEX
  8
SURFACE
 62
7
  6
CONTINUOUS
 10
97.5487987341
 20
275.1038555331
  0
VERTEX
  8
SURFACE
 62
7
  6
CONTINUOUS
 10
97.5210756507
 20
275.0943973841
  0
VERTEX
  8
SURFACE
 62
7
  6
CONTINUOUS
 10
97.4835325919
 20
275.0810232701
  0
VERTEX
  8
SURFACE
 62
7
  6
CONTINUOUS
 10
97.437311038
 20
275.0641592384
  0
VERTEX
  8
SURFACE
 62
7
  6
CONTINUOUS
 10
97.3838582485
 20
275.044340609
  0
VERTEX
  8
SURFACE
 62
7
  6
CONTINUOUS
 10
97.2622105309
 20
274.9984415793
  0
SEQEND
  0
LINE
  8
SURFACE
 62
7
  6
CONTINUOUS
 10
143.3106678003
 20
264.2273910673
 11
143.2424061542
 21
264.2463381455
  0
POLYLINE
  8
0
 62
7
  6
CONTINUOUS
 66
1
 70
0
  0
VERTEX
  8
0
 62
7
  6
CONTINUOUS
 10
109.9856824544
 20
275.0641592385
  0
VERTEX
  8
0
 62
7
  6
CONTINUOUS
 10
109.9394609006
 20
275.0810232703
  0
VERTEX
  8
0
 62
7
  6
CONTINUOUS
 10
109.9019178418
 20
275.0943973843
  0
VERTEX
  8
0
 62
7
  6
CONTINUOUS
 10
109.8741947585
 20
275.1038555335
  0
VERTEX
  8
0
 62
7
  6
CONTINUOUS
 10
109.85706265
 20
275.1090392813
  0
VERTEX
  8
0
 62
7
  6
CONTINUOUS
 10
109.8511929344
 20
275.1104450515
  0
SEQEND
  0
POLYLINE
  8
0
 62
7
  6
CONTINUOUS
 66
1
 70
0
  0
VERTEX
  8
0
 62
7
  6
CONTINUOUS
 10
110.2271446065
 20
274.9736468986
  0
VERTEX
  8
0
 62
7
  6
CONTINUOUS
 10
110.1607829615
 20
274.9984415793
  0
VERTEX
  8
0
 62
7
  6
CONTINUOUS
 10
110.0981258827
 20
275.0221994549
  0
VERTEX
  8
0
 62
7
  6
CONTINUOUS
 10
109.9856824544
 20
275.0641592385
  0
SEQEND
  0
POLYLINE
  8
SURFACE
 62
7
  6
CONTINUOUS
 66
1
 70
0
  0
VERTEX
  8
SURFACE
 62
7
  6
CONTINUOUS
 10
143.6269653827
 20
264.1360313276
  0
VERTEX
  8
SURFACE
 62
7
  6
CONTINUOUS
 10
143.6213903918
 20
264.1383441669
  0
VERTEX
  8
SURFACE
 62
7
  6
CONTINUOUS
 10
143.6044832945
 20
264.1442204281
  0
VERTEX
  8
SURFACE
 62
7
  6
CONTINUOUS
 10
143.5764954884
 20
264.1528638444
  0
VERTEX
  8
SURFACE
 62
7
  6
CONTINUOUS
 10
143.5382614089
 20
264.1641112152
  0
VERTEX
  8
SURFACE
 62
7
  6
CONTINUOUS
 10
143.4909549572
 20
264.1776362746
  0
VERTEX
  8
SURFACE
 62
7
  6
CONTINUOUS
 10
143.436061644
 20
264.193021428
  0
VERTEX
  8
SURFACE
 62
7
  6
CONTINUOUS
 10
143.3106678003
 20
264.2273910673
  0
SEQEND
  0
POLYLINE
  8
0
 62
7
  6
CONTINUOUS
 66
1
 70
0
  0
VERTEX
  8
0
 62
7
  6
CONTINUOUS
 10
153.5612024959
 20
256.9183855816
  0
VERTEX
  8
0
 62
7
  6
CONTINUOUS
 10
153.5651986796
 20
256.9137106594
  0
VERTEX
  8
0
 62
7
  6
CONTINUOUS
 10
153.5761020566
 20
256.8993074633
  0
VERTEX
  8
0
 62
7
  6
CONTINUOUS
 10
153.5929868741
 20
256.8753280148
  0
VERTEX
  8
0
 62
7
  6
CONTINUOUS
 10
153.61540341
 20
256.8425759393
  0
VERTEX
  8
0
 62
7
  6
CONTINUOUS
 10
153.6427010533
 20
256.802037473
  0
SEQEND
  0
LINE
  8
SURFACE
 62
7
  6
CONTINUOUS
 10
174.2335876534
 20
228.4468240821
 11
174.1894996347
 21
228.5022757792
  0
POLYLINE
  8
0
 62
7
  6
CONTINUOUS
 66
1
 70
0
  0
VERTEX
  8
0
 62
7
  6
CONTINUOUS
 10
153.6427010533
 20
256.802037473
  0
VERTEX
  8
0
 62
7
  6
CONTINUOUS
 10
153.7086831688
 20
256.702492828
  0
VERTEX
  8
0
 62
7
  6
CONTINUOUS
 10
153.745479107
 20
256.6463409369
  0
VERTEX
  8
0
 62
7
  6
CONTINUOUS
 10
153.7849458508
 20
256.5867347027
  0
SEQEND
  0
POLYLINE
  8
SURFACE
 62
7
  6
CONTINUOUS
 66
1
 70
0
  0
VERTEX
  8
SURFACE
 62
7
  6
CONTINUOUS
 10
174.4357778652
 20
228.1869974457
  0
VERTEX
  8
SURFACE
 62
7
  6
CONTINUOUS
 10
174.4326270557
 20
228.1921454695
  0
VERTEX
  8
SURFACE
 62
7
  6
CONTINUOUS
 10
174.4224029063
 20
228.2068372071
  0
VERTEX
  8
SURFACE
 62
7
  6
CONTINUOUS
 10
174.4048407681
 20
228.2302806974
  0
VERTEX
  8
SURFACE
 62
7
  6
CONTINUOUS
 10
174.3805197867
 20
228.2618534396
  0
VERTEX
  8
SURFACE
 62
7
  6
CONTINUOUS
 10
174.3501978938
 20
228.3006014772
  0
VERTEX
  8
SURFACE
 62
7
  6
CONTINUOUS
 10
174.3148314368
 20
228.3453138077
  0
VERTEX
  8
SURFACE
 62
7
  6
CONTINUOUS
 10
174.2335876534
 20
228.4468240821
  0
SEQEND
  0
POLYLINE
  8
SURFACE
 62
7
  6
CONTINUOUS
 66
1
 70
0
  0
VERTEX
  8
SURFACE
 62
7
  6
CONTINUOUS
 10
21.0042943715
 20
74.9098269136
  0
VERTEX
  8
SURFACE
 62
7
  6
CONTINUOUS
 10
21.0049391049
 20
74.8871246842
  0
VERTEX
  8
SURFACE
 62
7
  6
CONTINUOUS
 10
21.008808515
 20
74.8499014152
  0
VERTEX
  8
SURFACE
 62
7
  6
CONTINUOUS
 10
21.0160373966
 20
74.8136143913
  0
VERTEX
  8
SURFACE
 62
7
  6
CONTINUOUS
 10
21.0264329296
 20
74.7785967701
  0
VERTEX
  8
SURFACE
 62
7
  6
CONTINUOUS
 10
21.0397647992
 20
74.7451478453
  0
VERTEX
  8
SURFACE
 62
7
  6
CONTINUOUS
 10
21.0557709918
 20
74.7135288259
  0
VERTEX
  8
SURFACE
 62
7
  6
CONTINUOUS
 10
21.0741640069
 20
74.6839596732
  0
VERTEX
  8
SURFACE
 62
7
  6
CONTINUOUS
 10
21.0946373585
 20
74.6566169289
  0
VERTEX
  8
SURFACE
 62
7
  6
CONTINUOUS
 10
21.1168724011
 20
74.6316323868
  0
VERTEX
  8
SURFACE
 62
7
  6
CONTINUOUS
 10
21.1405426691
 20
74.6090951434
  0
VERTEX
  8
SURFACE
 62
7
  6
CONTINUOUS
 10
21.1653212909
 20
74.5890503698
  0
VERTEX
  8
SURFACE
 62
7
  6
CONTINUOUS
 10
21.1908871858
 20
74.5715008613
  0
VERTEX
  8
SURFACE
 62
7
  6
CONTINUOUS
 10
21.216929392
 20
74.5564103256
  0
VERTEX
  8
SURFACE
 62
7
  6
CONTINUOUS
 10
21.2431492856
 20
74.5437074184
  0
VERTEX
  8
SURFACE
 62
7
  6
CONTINUOUS
 10
21.2691944536
 20
74.5333134751
  0
VERTEX
  8
SURFACE
 62
7
  6
CONTINUOUS
 10
21.2946907645
 20
74.5251114919
  0
VERTEX
  8
SURFACE
 62
7
  6
CONTINUOUS
 10
21.3192438509
 20
74.5189400299
  0
VERTEX
  8
SURFACE
 62
7
  6
CONTINUOUS
 10
21.3415011866
 20
74.5147374709
  0
VERTEX
  8
SURFACE
 62
7
  6
CONTINUOUS
 10
21.3590173021
 20
74.5123220484
  0
VERTEX
  8
SURFACE
 62
7
  6
CONTINUOUS
 10
21.3705719735
 20
74.5111356272
  0
VERTEX
  8
SURFACE
 62
7
  6
CONTINUOUS
 10
21.378417462
 20
74.510494579
  0
VERTEX
  8
SURFACE
 62
7
  6
CONTINUOUS
 10
21.3847420503
 20
74.5100554761
  0
VERTEX
  8
SURFACE
 62
7
  6
CONTINUOUS
 10
21.3907569956
 20
74.5096841703
  0
VERTEX
  8
SURFACE
 62
7
  6
CONTINUOUS
 10
21.4039614121
 20
74.5089629555
  0
SEQEND
  0
POLYLINE
  8
0
 62
7
  6
CONTINUOUS
 66
1
 70
0
  0
VERTEX
  8
0
 62
7
  6
CONTINUOUS
 10
21.0042943715
 20
66.6098269137
  0
VERTEX
  8
0
 62
7
  6
CONTINUOUS
 10
21.0049167099
 20
66.5875221398
  0
VERTEX
  8
0
 62
7
  6
CONTINUOUS
 10
21.0087302118
 20
66.5504205044
  0
VERTEX
  8
0
 62
7
  6
CONTINUOUS
 10
21.015882021
 20
66.5142436008
  0
VERTEX
  8
0
 62
7
  6
CONTINUOUS
 10
21.0261819867
 20
66.4793215988
  0
VERTEX
  8
0
 62
7
  6
CONTINUOUS
 10
21.0394028849
 20
66.4459513601
  0
VERTEX
  8
0
 62
7
  6
CONTINUOUS
 10
21.0552861038
 20
66.4143922709
  0
VERTEX
  8
0
 62
7
  6
CONTINUOUS
 10
21.0735477402
 20
66.3848631083
  0
VERTEX
  8
0
 62
7
  6
CONTINUOUS
 10
21.0938849734
 20
66.3575398922
  0
VERTEX
  8
0
 62
7
  6
CONTINUOUS
 10
21.1159828246
 20
66.3325544821
  0
VERTEX
  8
0
 62
7
  6
CONTINUOUS
 10
21.1395184013
 20
66.3099966299
  0
VERTEX
  8
0
 62
7
  6
CONTINUOUS
 10
21.1641681276
 20
66.2899127798
  0
VERTEX
  8
0
 62
7
  6
CONTINUOUS
 10
21.1896139144
 20
66.2723074791
  0
VERTEX
  8
0
 62
7
  6
CONTINUOUS
 10
21.2155475195
 20
66.2571465468
  0
VERTEX
  8
0
 62
7
  6
CONTINUOUS
 10
21.241673452
 20
66.2443607566
  0
VERTEX
  8
0
 62
7
  6
CONTINUOUS
 10
21.2676475909
 20
66.2338724016
  0
VERTEX
  8
0
 62
7
  6
CONTINUOUS
 10
21.293098442
 20
66.2255691581
  0
VERTEX
  8
0
 62
7
  6
CONTINUOUS
 10
21.3176483158
 20
66.2192913891
  0
VERTEX
  8
0
 62
7
  6
CONTINUOUS
 10
21.3400578733
 20
66.214971001
  0
VERTEX
  8
0
 62
7
  6
CONTINUOUS
 10
21.3579367291
 20
66.2124490651
  0
VERTEX
  8
0
 62
7
  6
CONTINUOUS
 10
21.3698446121
 20
66.2112013912
  0
VERTEX
  8
0
 62
7
  6
CONTINUOUS
 10
21.3778647236
 20
66.210535938
  0
VERTEX
  8
0
 62
7
  6
CONTINUOUS
 10
21.3842409908
 20
66.2100882087
  0
VERTEX
  8
0
 62
7
  6
CONTINUOUS
 10
21.3902395865
 20
66.209714732
  0
VERTEX
  8
0
 62
7
  6
CONTINUOUS
 10
21.3964942221
 20
66.2093587079
  0
VERTEX
  8
0
 62
7
  6
CONTINUOUS
 10
21.4108256724
 20
66.2086180591
  0
SEQEND
  0
LINE
  8
0
 62
7
  6
CONTINUOUS
 10
21.0042918248
 20
74.8623645917
 11
21.0042918248
 21
66.6097612217
  0
LINE
  8
SURFACE
 62
7
  6
CONTINUOUS
 10
21.0042918248
 20
74.9097612217
 11
21.0042918248
 21
83.1623645917
  0
LINE
  8
0
 62
7
  6
CONTINUOUS
 10
21.0047390628
 20
74.8811554548
 11
21.0042943715
 21
74.8622988997
  0
POLYLINE
  8
SURFACE
 62
7
  6
CONTINUOUS
 66
1
 70
0
  0
VERTEX
  8
SURFACE
 62
7
  6
CONTINUOUS
 10
29.1918337318
 20
74.550050953
  0
VERTEX
  8
SURFACE
 62
7
  6
CONTINUOUS
 10
29.1922620698
 20
74.4869057403
  0
VERTEX
  8
SURFACE
 62
7
  6
CONTINUOUS
 10
29.1933801689
 20
74.4297077582
  0
VERTEX
  8
SURFACE
 62
7
  6
CONTINUOUS
 10
29.1951355731
 20
74.3802712347
  0
VERTEX
  8
SURFACE
 62
7
  6
CONTINUOUS
 10
29.1974663913
 20
74.3401478175
  0
VERTEX
  8
SURFACE
 62
7
  6
CONTINUOUS
 10
29.200294772
 20
74.3105660908
  0
VERTEX
  8
SURFACE
 62
7
  6
CONTINUOUS
 10
29.2035277535
 20
74.2923855841
  0
VERTEX
  8
SURFACE
 62
7
  6
CONTINUOUS
 10
29.2066020213
 20
74.2860629067
  0
SEQEND
  0
POLYLINE
  8
SURFACE
 62
7
  6
CONTINUOUS
 66
1
 70
0
  0
VERTEX
  8
SURFACE
 62
7
  6
CONTINUOUS
 10
29.1926747024
 20
83.3860629067
  0
VERTEX
  8
SURFACE
 62
7
  6
CONTINUOUS
 10
29.1918345208
 20
83.5228456855
  0
VERTEX
  8
SURFACE
 62
7
  6
CONTINUOUS
 10
29.1922691902
 20
83.5857683856
  0
VERTEX
  8
SURFACE
 62
7
  6
CONTINUOUS
 10
29.1933850227
 20
83.6425978268
  0
VERTEX
  8
SURFACE
 62
7
  6
CONTINUOUS
 10
29.1951286805
 20
83.6917034598
  0
VERTEX
  8
SURFACE
 62
7
  6
CONTINUOUS
 10
29.1974428875
 20
83.7316598929
  0
VERTEX
  8
SURFACE
 62
7
  6
CONTINUOUS
 10
29.2002589056
 20
83.7612763268
  0
VERTEX
  8
SURFACE
 62
7
  6
CONTINUOUS
 10
29.2034956211
 20
83.7796235177
  0
VERTEX
  8
SURFACE
 62
7
  6
CONTINUOUS
 10
29.2066020213
 20
83.7860629067
  0
SEQEND
  0
LINE
  8
0
 62
7
  6
CONTINUOUS
 10
28.2362383045
 20
74.2860629067
 11
28.2362383045
 21
66.3860629067
  0
LINE
  8
SURFACE
 62
7
  6
CONTINUOUS
 10
29.1926747024
 20
74.6860629067
 11
29.1918337318
 21
74.550050953
  0
POLYLINE
  8
0
 62
7
  6
CONTINUOUS
 66
1
 70
0
  0
VERTEX
  8
0
 62
7
  6
CONTINUOUS
 10
30.7692319984
 20
66.6069485504
  0
VERTEX
  8
0
 62
7
  6
CONTINUOUS
 10
30.7697480789
 20
66.5866299343
  0
VERTEX
  8
0
 62
7
  6
CONTINUOUS
 10
30.7761314932
 20
66.5329556942
  0
VERTEX
  8
0
 62
7
  6
CONTINUOUS
 10
30.7893967521
 20
66.4815140895
  0
VERTEX
  8
0
 62
7
  6
CONTINUOUS
 10
30.8088916486
 20
66.4332471739
  0
VERTEX
  8
0
 62
7
  6
CONTINUOUS
 10
30.8338232667
 20
66.3889340824
  0
VERTEX
  8
0
 62
7
  6
CONTINUOUS
 10
30.8632974638
 20
66.3491713257
  0
VERTEX
  8
0
 62
7
  6
CONTINUOUS
 10
30.896364174
 20
66.3143593112
  0
VERTEX
  8
0
 62
7
  6
CONTINUOUS
 10
30.9319820765
 20
66.2847620825
  0
VERTEX
  8
0
 62
7
  6
CONTINUOUS
 10
30.9691193932
 20
66.260420368
  0
VERTEX
  8
0
 62
7
  6
CONTINUOUS
 10
31.0067866702
 20
66.2411781942
  0
VERTEX
  8
0
 62
7
  6
CONTINUOUS
 10
31.0435456929
 20
66.2268772386
  0
VERTEX
  8
0
 62
7
  6
CONTINUOUS
 10
31.0675112386
 20
66.2196740583
  0
SEQEND
  0
LINE
  8
0
 62
7
  6
CONTINUOUS
 10
30.7692288471
 20
74.8652493894
 11
30.7692288471
 21
66.6068764241
  0
LINE
  8
0
 62
7
  6
CONTINUOUS
 10
39.5919908145
 20
75.0860629067
 11
39.5919908145
 21
66.3860629067
  0
POLYLINE
  8
0
 62
7
  6
CONTINUOUS
 66
1
 70
0
  0
VERTEX
  8
0
 62
7
  6
CONTINUOUS
 10
39.5919908145
 20
75.0860629067
  0
VERTEX
  8
0
 62
7
  6
CONTINUOUS
 10
39.5954865618
 20
75.1647737201
  0
VERTEX
  8
0
 62
7
  6
CONTINUOUS
 10
39.6058058694
 20
75.2402232042
  0
VERTEX
  8
0
 62
7
  6
CONTINUOUS
 10
39.6225070804
 20
75.3095129472
  0
VERTEX
  8
0
 62
7
  6
CONTINUOUS
 10
39.6449095117
 20
75.3700100733
  0
VERTEX
  8
0
 62
7
  6
CONTINUOUS
 10
39.6721231394
 20
75.4194568005
  0
VERTEX
  8
0
 62
7
  6
CONTINUOUS
 10
39.703087312
 20
75.4560514937
  0
VERTEX
  8
0
 62
7
  6
CONTINUOUS
 10
39.7366153221
 20
75.4785037453
  0
VERTEX
  8
0
 62
7
  6
CONTINUOUS
 10
39.7714389536
 20
75.4860629067
  0
SEQEND
  0
POLYLINE
  8
SURFACE
 62
7
  6
CONTINUOUS
 66
1
 70
0
  0
VERTEX
  8
SURFACE
 62
7
  6
CONTINUOUS
 10
42.4105333752
 20
74.9035075929
  0
VERTEX
  8
SURFACE
 62
7
  6
CONTINUOUS
 10
42.4115602483
 20
74.8748503536
  0
VERTEX
  8
SURFACE
 62
7
  6
CONTINUOUS
 10
42.4198579805
 20
74.8176000837
  0
VERTEX
  8
SURFACE
 62
7
  6
CONTINUOUS
 10
42.4360462494
 20
74.7628658593
  0
VERTEX
  8
SURFACE
 62
7
  6
CONTINUOUS
 10
42.4593318501
 20
74.7119386537
  0
VERTEX
  8
SURFACE
 62
7
  6
CONTINUOUS
 10
42.4886632689
 20
74.6658752515
  0
VERTEX
  8
SURFACE
 62
7
  6
CONTINUOUS
 10
42.5228145808
 20
74.6254338526
  0
VERTEX
  8
SURFACE
 62
7
  6
CONTINUOUS
 10
42.560383548
 20
74.5911269439
  0
VERTEX
  8
SURFACE
 62
7
  6
CONTINUOUS
 10
42.5998009001
 20
74.5631923553
  0
VERTEX
  8
SURFACE
 62
7
  6
CONTINUOUS
 10
42.639540758
 20
74.5414638324
  0
VERTEX
  8
SURFACE
 62
7
  6
CONTINUOUS
 10
42.6785364913
 20
74.5253175685
  0
VERTEX
  8
SURFACE
 62
7
  6
CONTINUOUS
 10
42.7147929616
 20
74.5142727355
  0
VERTEX
  8
SURFACE
 62
7
  6
CONTINUOUS
 10
42.7440415181
 20
74.5078040735
  0
VERTEX
  8
SURFACE
 62
7
  6
CONTINUOUS
 10
42.7674253331
 20
74.5039553428
  0
VERTEX
  8
SURFACE
 62
7
  6
CONTINUOUS
 10
42.7882050626
 20
74.5012904858
  0
VERTEX
  8
SURFACE
 62
7
  6
CONTINUOUS
 10
42.8091304167
 20
74.4991015783
  0
VERTEX
  8
SURFACE
 62
7
  6
CONTINUOUS
 10
42.8320467872
 20
74.4970753822
  0
VERTEX
  8
SURFACE
 62
7
  6
CONTINUOUS
 10
42.8578568564
 20
74.4950939728
  0
SEQEND
  0
LINE
  8
SURFACE
 62
7
  6
CONTINUOUS
 10
42.4105333557
 20
74.9034793835
 11
42.4105333557
 21
83.1686464299
  0
LINE
  8
0
 62
7
  6
CONTINUOUS
 10
43.7114967462
 20
59.9860629067
 11
43.7114967462
 21
56.7360629067
  0
LINE
  8
SURFACE
 62
7
  6
CONTINUOUS
 10
43.7114967462
 20
89.7860629067
 11
43.7114967462
 21
93.0360629067
  0
LINE
  8
0
 62
7
  6
CONTINUOUS
 10
49.7105957151
 20
53.7360629067
 11
49.7105957151
 21
53.4860629067
  0
LINE
  8
0
 62
7
  6
CONTINUOUS
 10
50.2674657068
 20
53.7360629067
 11
50.2674657068
 21
53.4860629067
  0
LINE
  8
0
 62
7
  6
CONTINUOUS
 10
50.5013231573
 20
53.7360629067
 11
50.5013231573
 21
53.4860629067
  0
LINE
  8
0
 62
7
  6
CONTINUOUS
 10
51.2808479923
 20
53.7360629067
 11
51.2808479923
 21
53.4860629067
  0
LINE
  8
0
 62
7
  6
CONTINUOUS
 10
51.5147054428
 20
53.7360629067
 11
51.5147054428
 21
53.4860629067
  0
LINE
  8
0
 62
7
  6
CONTINUOUS
 10
52.0459917101
 20
53.7360629067
 11
52.0459917101
 21
53.4860629067
  0
LINE
  8
0
 62
7
  6
CONTINUOUS
 10
53.0490281518
 20
53.7360629067
 11
53.0490281518
 21
53.4860629067
  0
POLYLINE
  8
0
 62
7
  6
CONTINUOUS
 66
1
 70
0
  0
VERTEX
  8
0
 62
7
  6
CONTINUOUS
 10
38.1799736408
 20
75.4859732686
  0
VERTEX
  8
0
 62
7
  6
CONTINUOUS
 10
38.1705526357
 20
75.47435353
  0
VERTEX
  8
0
 62
7
  6
CONTINUOUS
 10
38.161905456
 20
75.4437809503
  0
VERTEX
  8
0
 62
7
  6
CONTINUOUS
 10
38.1544533104
 20
75.3957487899
  0
VERTEX
  8
0
 62
7
  6
CONTINUOUS
 10
38.1485583378
 20
75.332602472
  0
VERTEX
  8
0
 62
7
  6
CONTINUOUS
 10
38.1445040751
 20
75.2574248717
  0
VERTEX
  8
0
 62
7
  6
CONTINUOUS
 10
38.1424691021
 20
75.1738853711
  0
VERTEX
  8
0
 62
7
  6
CONTINUOUS
 10
38.1426848146
 20
75.0860629067
  0
SEQEND
  0
POLYLINE
  8
0
 62
7
  6
CONTINUOUS
 66
1
 70
0
  0
VERTEX
  8
0
 62
7
  6
CONTINUOUS
 10
38.179973638
 20
65.9861525449
  0
VERTEX
  8
0
 62
7
  6
CONTINUOUS
 10
38.1705526386
 20
65.9977722833
  0
VERTEX
  8
0
 62
7
  6
CONTINUOUS
 10
38.1619054651
 20
66.0283448629
  0
VERTEX
  8
0
 62
7
  6
CONTINUOUS
 10
38.1544533272
 20
66.0763770232
  0
VERTEX
  8
0
 62
7
  6
CONTINUOUS
 10
38.1485583659
 20
66.139523341
  0
VERTEX
  8
0
 62
7
  6
CONTINUOUS
 10
38.1445041233
 20
66.214700941
  0
VERTEX
  8
0
 62
7
  6
CONTINUOUS
 10
38.1424692069
 20
66.2982404408
  0
VERTEX
  8
0
 62
7
  6
CONTINUOUS
 10
38.1426848141
 20
66.3860629067
  0
SEQEND
  0
POLYLINE
  8
SURFACE
 62
7
  6
CONTINUOUS
 66
1
 70
0
  0
VERTEX
  8
SURFACE
 62
7
  6
CONTINUOUS
 10
53.8617909965
 20
83.3860629067
  0
VERTEX
  8
SURFACE
 62
7
  6
CONTINUOUS
 10
53.8577948128
 20
83.4556342789
  0
VERTEX
  8
SURFACE
 62
7
  6
CONTINUOUS
 10
53.8468914359
 20
83.5228456858
  0
VERTEX
  8
SURFACE
 62
7
  6
CONTINUOUS
 10
53.8300066183
 20
83.5857683858
  0
VERTEX
  8
SURFACE
 62
7
  6
CONTINUOUS
 10
53.8075900824
 20
83.6425978269
  0
VERTEX
  8
SURFACE
 62
7
  6
CONTINUOUS
 10
53.7802924391
 20
83.6917034598
  0
VERTEX
  8
SURFACE
 62
7
  6
CONTINUOUS
 10
53.7488998225
 20
83.731659893
  0
VERTEX
  8
SURFACE
 62
7
  6
CONTINUOUS
 10
53.7143103236
 20
83.7612763268
  0
VERTEX
  8
SURFACE
 62
7
  6
CONTINUOUS
 10
53.6775143854
 20
83.7796235177
  0
VERTEX
  8
SURFACE
 62
7
  6
CONTINUOUS
 10
53.6380476416
 20
83.7860629067
  0
SEQEND
  0
LINE
  8
0
 62
7
  6
CONTINUOUS
 10
53.3783065843
 20
53.7360629067
 11
53.3783065843
 21
53.4860629067
  0
LINE
  8
0
 62
7
  6
CONTINUOUS
 10
53.9064181212
 20
53.7360629067
 11
53.9064181212
 21
53.4860629067
  0
LINE
  8
0
 62
7
  6
CONTINUOUS
 10
54.256469301
 20
53.7360629067
 11
54.256469301
 21
53.4860629067
  0
LINE
  8
0
 62
7
  6
CONTINUOUS
 10
55.5831987648
 20
53.7360629067
 11
55.5831987648
 21
53.4860629067
  0
LINE
  8
0
 62
7
  6
CONTINUOUS
 10
55.9740975601
 20
53.7360629067
 11
55.9740975601
 21
53.4860629067
  0
LINE
  8
0
 62
7
  6
CONTINUOUS
 10
56.5387112953
 20
53.7360629067
 11
56.5387112953
 21
53.4860629067
  0
LINE
  8
0
 62
7
  6
CONTINUOUS
 10
57.1625414598
 20
53.7360629067
 11
57.1625414598
 21
53.4860629067
  0
LINE
  8
0
 62
7
  6
CONTINUOUS
 10
57.5613127468
 20
53.7360629067
 11
57.5613127468
 21
53.4860629067
  0
LINE
  8
0
 62
7
  6
CONTINUOUS
 10
58.0193020491
 20
53.7360629067
 11
58.0193020491
 21
53.4860629067
  0
LINE
  8
0
 62
7
  6
CONTINUOUS
 10
58.3075142344
 20
53.7360629067
 11
58.3075142344
 21
53.4860629067
  0
LINE
  8
0
 62
7
  6
CONTINUOUS
 10
58.599662033
 20
53.7360629067
 11
58.599662033
 21
53.4860629067
  0
LINE
  8
0
 62
7
  6
CONTINUOUS
 10
58.6035976462
 20
53.7360629067
 11
58.6035976462
 21
53.4860629067
  0
LINE
  8
0
 62
7
  6
CONTINUOUS
 10
58.7992655083
 20
53.7360629067
 11
58.7992655083
 21
53.4860629067
  0
POLYLINE
  8
SURFACE
 62
7
  6
CONTINUOUS
 66
1
 70
0
  0
VERTEX
  8
SURFACE
 62
7
  6
CONTINUOUS
 10
53.8617909965
 20
74.6860629067
  0
VERTEX
  8
SURFACE
 62
7
  6
CONTINUOUS
 10
53.8578685887
 20
74.6171375504
  0
VERTEX
  8
SURFACE
 62
7
  6
CONTINUOUS
 10
53.8470553518
 20
74.5500509527
  0
VERTEX
  8
SURFACE
 62
7
  6
CONTINUOUS
 10
53.8301862667
 20
74.4869057401
  0
VERTEX
  8
SURFACE
 62
7
  6
CONTINUOUS
 10
53.8076744011
 20
74.4297077581
  0
VERTEX
  8
SURFACE
 62
7
  6
CONTINUOUS
 10
53.7801928077
 20
74.3802712346
  0
VERTEX
  8
SURFACE
 62
7
  6
CONTINUOUS
 10
53.7485976906
 20
74.3401478174
  0
VERTEX
  8
SURFACE
 62
7
  6
CONTINUOUS
 10
53.7138875052
 20
74.3105660908
  0
VERTEX
  8
SURFACE
 62
7
  6
CONTINUOUS
 10
53.6771613925
 20
74.292385584
  0
VERTEX
  8
SURFACE
 62
7
  6
CONTINUOUS
 10
53.6380476416
 20
74.2860629067
  0
SEQEND
  0
POLYLINE
  8
0
 62
7
  6
CONTINUOUS
 66
1
 70
0
  0
VERTEX
  8
0
 62
7
  6
CONTINUOUS
 10
63.4500254754
 20
66.4343019064
  0
VERTEX
  8
0
 62
7
  6
CONTINUOUS
 10
63.4512631508
 20
66.4028382059
  0
VERTEX
  8
0
 62
7
  6
CONTINUOUS
 10
63.4598598084
 20
66.3460885362
  0
VERTEX
  8
0
 62
7
  6
CONTINUOUS
 10
63.476278854
 20
66.291672668
  0
VERTEX
  8
0
 62
7
  6
CONTINUOUS
 10
63.4997848521
 20
66.2409375822
  0
VERTEX
  8
0
 62
7
  6
CONTINUOUS
 10
63.5293500214
 20
66.195000892
  0
VERTEX
  8
0
 62
7
  6
CONTINUOUS
 10
63.5637411911
 20
66.1546748765
  0
VERTEX
  8
0
 62
7
  6
CONTINUOUS
 10
63.6015370145
 20
66.1204994753
  0
VERTEX
  8
0
 62
7
  6
CONTINUOUS
 10
63.6410523765
 20
66.0927766583
  0
VERTEX
  8
0
 62
7
  6
CONTINUOUS
 10
63.6806770079
 20
66.0713216063
  0
VERTEX
  8
0
 62
7
  6
CONTINUOUS
 10
63.7189236788
 20
66.0555860003
  0
VERTEX
  8
0
 62
7
  6
CONTINUOUS
 10
63.7541959757
 20
66.0448075482
  0
VERTEX
  8
0
 62
7
  6
CONTINUOUS
 10
63.7845860837
 20
66.0380230241
  0
VERTEX
  8
0
 62
7
  6
CONTINUOUS
 10
63.8064664779
 20
66.0343442426
  0
SEQEND
  0
LINE
  8
0
 62
7
  6
CONTINUOUS
 10
59.245043936
 20
53.7360629067
 11
59.245043936
 21
53.4860629067
  0
LINE
  8
0
 62
7
  6
CONTINUOUS
 10
61.1956344269
 20
53.7360629067
 11
61.1956344269
 21
53.4860629067
  0
LINE
  8
0
 62
7
  6
CONTINUOUS
 10
61.325343832
 20
53.7360629067
 11
61.325343832
 21
53.4860629067
  0
LINE
  8
0
 62
7
  6
CONTINUOUS
 10
61.7711222596
 20
53.7360629067
 11
61.7711222596
 21
53.4860629067
  0
LINE
  8
0
 62
7
  6
CONTINUOUS
 10
63.4500253729
 20
75.0378530507
 11
63.4500253729
 21
66.4342727627
  0
POLYLINE
  8
0
 62
7
  6
CONTINUOUS
 66
1
 70
0
  0
VERTEX
  8
0
 62
7
  6
CONTINUOUS
 10
38.1799738133
 20
75.4859731497
  0
VERTEX
  8
0
 62
7
  6
CONTINUOUS
 10
38.1799184665
 20
75.4860235651
  0
VERTEX
  8
0
 62
7
  6
CONTINUOUS
 10
38.1791315854
 20
75.4860534795
  0
VERTEX
  8
0
 62
7
  6
CONTINUOUS
 10
38.1776881669
 20
75.4860629067
  0
SEQEND
  0
LINE
  8
0
 62
7
  6
CONTINUOUS
 10
66.5962670221
 20
53.7360629067
 11
66.5962670221
 21
53.4860629067
  0
LINE
  8
0
 62
7
  6
CONTINUOUS
 10
69.5957369894
 20
53.7360629067
 11
69.5957369894
 21
53.4860629067
  0
LINE
  8
0
 62
7
  6
CONTINUOUS
 10
70.0462765939
 20
53.7360629067
 11
70.0462765939
 21
53.4860629067
  0
POLYLINE
  8
0
 62
7
  6
CONTINUOUS
 66
1
 70
0
  0
VERTEX
  8
0
 62
7
  6
CONTINUOUS
 10
38.1799738105
 20
65.9861526639
  0
VERTEX
  8
0
 62
7
  6
CONTINUOUS
 10
38.1799184664
 20
65.9861022483
  0
VERTEX
  8
0
 62
7
  6
CONTINUOUS
 10
38.1791315852
 20
65.986072334
  0
VERTEX
  8
0
 62
7
  6
CONTINUOUS
 10
38.1784919434
 20
65.9860650595
  0
SEQEND
  0
POLYLINE
  8
0
 62
7
  6
CONTINUOUS
 66
1
 70
0
  0
VERTEX
  8
0
 62
7
  6
CONTINUOUS
 10
44.1619450798
 20
74.4188419144
  0
VERTEX
  8
0
 62
7
  6
CONTINUOUS
 10
44.1826025104
 20
74.4012651826
  0
VERTEX
  8
0
 62
7
  6
CONTINUOUS
 10
44.2577699055
 20
74.3562059604
  0
VERTEX
  8
0
 62
7
  6
CONTINUOUS
 10
44.3469895497
 20
74.3200886552
  0
SEQEND
  0
POLYLINE
  8
0
 62
7
  6
CONTINUOUS
 66
1
 70
0
  0
VERTEX
  8
0
 62
7
  6
CONTINUOUS
 10
75.4392152485
 20
75.0860629067
  0
VERTEX
  8
0
 62
7
  6
CONTINUOUS
 10
75.4378541629
 20
75.1647737201
  0
VERTEX
  8
0
 62
7
  6
CONTINUOUS
 10
75.4338412273
 20
75.2402232042
  0
VERTEX
  8
0
 62
7
  6
CONTINUOUS
 10
75.4273620584
 20
75.3095129472
  0
VERTEX
  8
0
 62
7
  6
CONTINUOUS
 10
75.4187010251
 20
75.3700100733
  0
VERTEX
  8
0
 62
7
  6
CONTINUOUS
 10
75.4082254836
 20
75.4194568005
  0
VERTEX
  8
0
 62
7
  6
CONTINUOUS
 10
75.3963661485
 20
75.4560514937
  0
VERTEX
  8
0
 62
7
  6
CONTINUOUS
 10
75.3835956677
 20
75.4785037453
  0
VERTEX
  8
0
 62
7
  6
CONTINUOUS
 10
75.3704083357
 20
75.4860629067
  0
SEQEND
  0
LINE
  8
0
 62
7
  6
CONTINUOUS
 10
70.912449235
 20
53.7360629067
 11
70.912449235
 21
53.4860629067
  0
LINE
  8
0
 62
7
  6
CONTINUOUS
 10
75.4392152485
 20
75.0860629067
 11
75.4392152485
 21
66.3860629067
  0
POLYLINE
  8
0
 62
7
  6
CONTINUOUS
 66
1
 70
0
  0
VERTEX
  8
0
 62
7
  6
CONTINUOUS
 10
80.9108542655
 20
75.0860629067
  0
VERTEX
  8
0
 62
7
  6
CONTINUOUS
 10
80.9051286402
 20
75.1436009233
  0
VERTEX
  8
0
 62
7
  6
CONTINUOUS
 10
80.8870335331
 20
75.2024497427
  0
VERTEX
  8
0
 62
7
  6
CONTINUOUS
 10
80.8548155624
 20
75.2618864836
  0
VERTEX
  8
0
 62
7
  6
CONTINUOUS
 10
80.8080145338
 20
75.3188530596
  0
VERTEX
  8
0
 62
7
  6
CONTINUOUS
 10
80.7468915213
 20
75.3708606309
  0
VERTEX
  8
0
 62
7
  6
CONTINUOUS
 10
80.6717241263
 20
75.415919853
  0
VERTEX
  8
0
 62
7
  6
CONTINUOUS
 10
80.5825044821
 20
75.4520371582
  0
VERTEX
  8
0
 62
7
  6
CONTINUOUS
 10
80.4789058461
 20
75.4766708188
  0
VERTEX
  8
0
 62
7
  6
CONTINUOUS
 10
80.3603014973
 20
75.4860629067
  0
SEQEND
  0
LINE
  8
0
 62
7
  6
CONTINUOUS
 10
76.5269710661
 20
53.7360629067
 11
76.5269710661
 21
53.4860629067
  0
LINE
  8
0
 62
7
  6
CONTINUOUS
 10
76.7222440329
 20
53.7360629067
 11
76.7222440329
 21
53.4860629067
  0
LINE
  8
0
 62
7
  6
CONTINUOUS
 10
77.0395008827
 20
53.7360629067
 11
77.0395008827
 21
53.4860629067
  0
LINE
  8
0
 62
7
  6
CONTINUOUS
 10
77.5275636273
 20
53.7360629067
 11
77.5275636273
 21
53.4860629067
  0
LINE
  8
0
 62
7
  6
CONTINUOUS
 10
78.5158590463
 20
53.7360629067
 11
78.5158590463
 21
53.4860629067
  0
LINE
  8
0
 62
7
  6
CONTINUOUS
 10
79.1259056739
 20
53.7360629067
 11
79.1259056739
 21
53.4860629067
  0
LINE
  8
0
 62
7
  6
CONTINUOUS
 10
79.6871302898
 20
53.7360629067
 11
79.6871302898
 21
53.4860629067
  0
LINE
  8
0
 62
7
  6
CONTINUOUS
 10
80.3703387887
 20
53.7360629067
 11
80.3703387887
 21
53.4860629067
  0
LINE
  8
0
 62
7
  6
CONTINUOUS
 10
80.7851126204
 20
53.7360629067
 11
80.7851126204
 21
53.4860629067
  0
LINE
  8
0
 62
7
  6
CONTINUOUS
 10
80.9108542655
 20
75.0860629067
 11
80.9108542655
 21
74.6860629067
  0
LINE
  8
0
 62
7
  6
CONTINUOUS
 10
81.0165289474
 20
53.7360629067
 11
81.0165289474
 21
53.4860629067
  0
LINE
  8
0
 62
7
  6
CONTINUOUS
 10
81.3947777387
 20
53.7360629067
 11
81.3947777387
 21
53.4860629067
  0
LINE
  8
0
 62
7
  6
CONTINUOUS
 10
81.529063748
 20
53.7360629067
 11
81.529063748
 21
53.4860629067
  0
LINE
  8
0
 62
7
  6
CONTINUOUS
 10
81.6169350219
 20
53.7360629067
 11
81.6169350219
 21
53.4860629067
  0
POLYLINE
  8
0
 62
7
  6
CONTINUOUS
 66
1
 70
0
  0
VERTEX
  8
0
 62
7
  6
CONTINUOUS
 10
27.4926590809
 20
65.9861525444
  0
VERTEX
  8
0
 62
7
  6
CONTINUOUS
 10
27.4338418124
 20
65.9977722784
  0
VERTEX
  8
0
 62
7
  6
CONTINUOUS
 10
27.3783746224
 20
66.0283448541
  0
VERTEX
  8
0
 62
7
  6
CONTINUOUS
 10
27.3289641054
 20
66.0763770111
  0
VERTEX
  8
0
 62
7
  6
CONTINUOUS
 10
27.2880205143
 20
66.139523325
  0
VERTEX
  8
0
 62
7
  6
CONTINUOUS
 10
27.2575387183
 20
66.2147009179
  0
VERTEX
  8
0
 62
7
  6
CONTINUOUS
 10
27.238991992
 20
66.2982403957
  0
VERTEX
  8
0
 62
7
  6
CONTINUOUS
 10
27.2333788173
 20
66.3860629067
  0
SEQEND
  0
POLYLINE
  8
0
 62
7
  6
CONTINUOUS
 66
1
 70
0
  0
VERTEX
  8
0
 62
7
  6
CONTINUOUS
 10
31.0675677753
 20
66.2196579932
  0
VERTEX
  8
0
 62
7
  6
CONTINUOUS
 10
31.3300775706
 20
66.1575489831
  0
VERTEX
  8
0
 62
7
  6
CONTINUOUS
 10
31.6374171496
 20
66.0990385964
  0
VERTEX
  8
0
 62
7
  6
CONTINUOUS
 10
31.9726036304
 20
66.0459047445
  0
SEQEND
  0
LINE
  8
0
 62
7
  6
CONTINUOUS
 10
31.0675112386
 20
66.2196740583
 11
31.0675680074
 21
66.2196588588
  0
POLYLINE
  8
0
 62
7
  6
CONTINUOUS
 66
1
 70
0
  0
VERTEX
  8
0
 62
7
  6
CONTINUOUS
 10
73.9831522241
 20
75.4437809422
  0
VERTEX
  8
0
 62
7
  6
CONTINUOUS
 10
74.0205049044
 20
75.3957487787
  0
VERTEX
  8
0
 62
7
  6
CONTINUOUS
 10
74.0519102149
 20
75.3326024572
  0
VERTEX
  8
0
 62
7
  6
CONTINUOUS
 10
74.0758320538
 20
75.2574248504
  0
VERTEX
  8
0
 62
7
  6
CONTINUOUS
 10
74.0910860685
 20
75.1738853295
  0
VERTEX
  8
0
 62
7
  6
CONTINUOUS
 10
74.0970483711
 20
75.0860629067
  0
SEQEND
  0
POLYLINE
  8
0
 62
7
  6
CONTINUOUS
 66
1
 70
0
  0
VERTEX
  8
0
 62
7
  6
CONTINUOUS
 10
80.9108542655
 20
74.6860629067
  0
VERTEX
  8
0
 62
7
  6
CONTINUOUS
 10
80.9179315275
 20
74.6285248902
  0
VERTEX
  8
0
 62
7
  6
CONTINUOUS
 10
80.9402983099
 20
74.5696760707
  0
VERTEX
  8
0
 62
7
  6
CONTINUOUS
 10
80.9801219118
 20
74.5102393298
  0
VERTEX
  8
0
 62
7
  6
CONTINUOUS
 10
81.0379711646
 20
74.4532727539
  0
VERTEX
  8
0
 62
7
  6
CONTINUOUS
 10
81.113523363
 20
74.4012651826
  0
VERTEX
  8
0
 62
7
  6
CONTINUOUS
 10
81.2064353729
 20
74.3562059604
  0
VERTEX
  8
0
 62
7
  6
CONTINUOUS
 10
81.3167169181
 20
74.3200886552
  0
VERTEX
  8
0
 62
7
  6
CONTINUOUS
 10
81.4447718746
 20
74.2954549947
  0
VERTEX
  8
0
 62
7
  6
CONTINUOUS
 10
81.5913749121
 20
74.2860629067
  0
SEQEND
  0
POLYLINE
  8
SURFACE
 62
7
  6
CONTINUOUS
 66
1
 70
0
  0
VERTEX
  8
SURFACE
 62
7
  6
CONTINUOUS
 10
85.3375032172
 20
74.6860629067
  0
VERTEX
  8
SURFACE
 62
7
  6
CONTINUOUS
 10
85.3432012474
 20
74.6073520934
  0
VERTEX
  8
SURFACE
 62
7
  6
CONTINUOUS
 10
85.3600136211
 20
74.5319026092
  0
VERTEX
  8
SURFACE
 62
7
  6
CONTINUOUS
 10
85.3871983476
 20
74.4626128662
  0
VERTEX
  8
SURFACE
 62
7
  6
CONTINUOUS
 10
85.4236146252
 20
74.4021157401
  0
VERTEX
  8
SURFACE
 62
7
  6
CONTINUOUS
 10
85.4677780351
 20
74.3526690129
  0
VERTEX
  8
SURFACE
 62
7
  6
CONTINUOUS
 10
85.517931015
 20
74.3160743197
  0
VERTEX
  8
SURFACE
 62
7
  6
CONTINUOUS
 10
85.572122097
 20
74.2936220681
  0
VERTEX
  8
SURFACE
 62
7
  6
CONTINUOUS
 10
85.6282832799
 20
74.2860629067
  0
SEQEND
  0
LINE
  8
0
 62
7
  6
CONTINUOUS
 10
84.4047909238
 20
53.7360629067
 11
84.4047909238
 21
53.4860629067
  0
LINE
  8
0
 62
7
  6
CONTINUOUS
 10
85.0327486931
 20
53.7360629067
 11
85.0327486931
 21
53.4860629067
  0
LINE
  8
SURFACE
 62
7
  6
CONTINUOUS
 10
85.3375032172
 20
74.6860629067
 11
85.3375032172
 21
83.3860629067
  0
LINE
  8
0
 62
7
  6
CONTINUOUS
 10
85.6388476228
 20
53.7360629067
 11
85.6388476228
 21
53.4860629067
  0
LINE
  8
0
 62
7
  6
CONTINUOUS
 10
86.1759403464
 20
53.7360629067
 11
86.1759403464
 21
53.4860629067
  0
LINE
  8
0
 62
7
  6
CONTINUOUS
 10
86.4335626058
 20
53.7360629067
 11
86.4335626058
 21
53.4860629067
  0
LINE
  8
0
 62
7
  6
CONTINUOUS
 10
86.6221734737
 20
53.7360629067
 11
86.6221734737
 21
53.4860629067
  0
LINE
  8
0
 62
7
  6
CONTINUOUS
 10
86.6474673181
 20
53.7360629067
 11
86.6474673181
 21
53.4860629067
  0
LINE
  8
SURFACE
 62
7
  6
CONTINUOUS
 10
86.8114967462
 20
74.8048807079
 11
86.8114967462
 21
83.2672451055
  0
POLYLINE
  8
0
 62
7
  6
CONTINUOUS
 66
1
 70
0
  0
VERTEX
  8
0
 62
7
  6
CONTINUOUS
 10
73.9831522297
 20
66.028344871
  0
VERTEX
  8
0
 62
7
  6
CONTINUOUS
 10
74.020504915
 20
66.0763770345
  0
VERTEX
  8
0
 62
7
  6
CONTINUOUS
 10
74.0519102328
 20
66.1395233558
  0
VERTEX
  8
0
 62
7
  6
CONTINUOUS
 10
74.0758320846
 20
66.2147009625
  0
VERTEX
  8
0
 62
7
  6
CONTINUOUS
 10
74.0910861357
 20
66.2982404828
  0
VERTEX
  8
0
 62
7
  6
CONTINUOUS
 10
74.0970483708
 20
66.3860629067
  0
SEQEND
  0
POLYLINE
  8
0
 62
7
  6
CONTINUOUS
 66
1
 70
0
  0
VERTEX
  8
0
 62
7
  6
CONTINUOUS
 10
31.067571785
 20
75.2524679661
  0
VERTEX
  8
0
 62
7
  6
CONTINUOUS
 10
31.0437558337
 20
75.2453187261
  0
VERTEX
  8
0
 62
7
  6
CONTINUOUS
 10
31.011077901
 20
75.2328329881
  0
VERTEX
  8
0
 62
7
  6
CONTINUOUS
 10
30.9781603081
 20
75.2167860625
  0
VERTEX
  8
0
 62
7
  6
CONTINUOUS
 10
30.9455754209
 20
75.1969620339
  0
VERTEX
  8
0
 62
7
  6
CONTINUOUS
 10
30.9139055756
 20
75.173212969
  0
VERTEX
  8
0
 62
7
  6
CONTINUOUS
 10
30.8838837955
 20
75.1455942273
  0
VERTEX
  8
0
 62
7
  6
CONTINUOUS
 10
30.8562802627
 20
75.1143806589
  0
VERTEX
  8
0
 62
7
  6
CONTINUOUS
 10
30.8316898234
 20
75.0798713185
  0
VERTEX
  8
0
 62
7
  6
CONTINUOUS
 10
30.8105217062
 20
75.0422224976
  0
VERTEX
  8
0
 62
7
  6
CONTINUOUS
 10
30.7932712441
 20
75.0017928619
  0
VERTEX
  8
0
 62
7
  6
CONTINUOUS
 10
30.7803905424
 20
74.95902327
  0
VERTEX
  8
0
 62
7
  6
CONTINUOUS
 10
30.7722743312
 20
74.9144310558
  0
VERTEX
  8
0
 62
7
  6
CONTINUOUS
 10
30.7692319988
 20
74.8651772579
  0
SEQEND
  0
LINE
  8
SURFACE
 62
7
  6
CONTINUOUS
 10
176.0935267805
 20
74.4576779982
 11
176.3554289881
 21
74.5196588687
  0
LINE
  8
0
 62
7
  6
CONTINUOUS
 10
155.0786669996
 20
53.4860629067
 11
143.0494360558
 21
53.4860629067
  0
LINE
  8
0
 62
7
  6
CONTINUOUS
 10
137.1049636838
 20
53.4860629067
 11
121.5986734902
 21
53.4860629067
  0
LINE
  8
0
 62
7
  6
CONTINUOUS
 10
121.5884797599
 20
53.4860629067
 11
118.9700625284
 21
53.4860629067
  0
LINE
  8
0
 62
7
  6
CONTINUOUS
 10
118.7141227706
 20
53.4860629067
 11
112.4546910883
 21
53.4860629067
  0
LINE
  8
0
 62
7
  6
CONTINUOUS
 10
109.5619967462
 20
53.4860629067
 11
104.9239323115
 21
53.4860629067
  0
LINE
  8
0
 62
7
  6
CONTINUOUS
 10
102.4990611809
 20
53.4860629067
 11
102.1478142462
 21
53.4860629067
  0
LINE
  8
0
 62
7
  6
CONTINUOUS
 10
102.1364967462
 20
53.4860629067
 11
97.8614967462
 21
53.4860629067
  0
LINE
  8
0
 62
7
  6
CONTINUOUS
 10
93.1905126639
 20
53.4860629067
 11
87.5357888803
 21
53.4860629067
  0
LINE
  8
0
 62
7
  6
CONTINUOUS
 10
86.6474673181
 20
53.4860629067
 11
76.5269710661
 21
53.4860629067
  0
LINE
  8
0
 62
7
  6
CONTINUOUS
 10
70.912449235
 20
53.4860629067
 11
69.5957369894
 21
53.4860629067
  0
LINE
  8
0
 62
7
  6
CONTINUOUS
 10
66.5962670221
 20
53.4860629067
 11
58.6035976462
 21
53.4860629067
  0
LINE
  8
0
 62
7
  6
CONTINUOUS
 10
58.599662033
 20
53.4860629067
 11
49.7105957151
 21
53.4860629067
  0
LINE
  8
0
 62
7
  6
CONTINUOUS
 10
160.7114967462
 20
53.7360629067
 11
46.7114967462
 21
53.7360629067
  0
POLYLINE
  8
0
 62
7
  6
CONTINUOUS
 66
1
 70
0
  0
VERTEX
  8
0
 62
7
  6
CONTINUOUS
 10
28.5953984057
 20
65.9860629067
  0
VERTEX
  8
0
 62
7
  6
CONTINUOUS
 10
28.5258652542
 20
65.9936220681
  0
VERTEX
  8
0
 62
7
  6
CONTINUOUS
 10
28.4588453136
 20
66.0160743197
  0
VERTEX
  8
0
 62
7
  6
CONTINUOUS
 10
28.3968848948
 20
66.0526690129
  0
VERTEX
  8
0
 62
7
  6
CONTINUOUS
 10
28.3423767786
 20
66.1021157401
  0
VERTEX
  8
0
 62
7
  6
CONTINUOUS
 10
28.2974678501
 20
66.1626128662
  0
VERTEX
  8
0
 62
7
  6
CONTINUOUS
 10
28.2639655541
 20
66.2319026092
  0
VERTEX
  8
0
 62
7
  6
CONTINUOUS
 10
28.2432556282
 20
66.3073520934
  0
VERTEX
  8
0
 62
7
  6
CONTINUOUS
 10
28.2362383045
 20
66.3860629067
  0
SEQEND
  0
POLYLINE
  8
0
 62
7
  6
CONTINUOUS
 66
1
 70
0
  0
VERTEX
  8
0
 62
7
  6
CONTINUOUS
 10
31.9725941676
 20
66.0459065534
  0
VERTEX
  8
0
 62
7
  6
CONTINUOUS
 10
31.9820170846
 20
66.0446227085
  0
VERTEX
  8
0
 62
7
  6
CONTINUOUS
 10
31.9960473593
 20
66.0430174263
  0
VERTEX
  8
0
 62
7
  6
CONTINUOUS
 10
32.008800168
 20
66.0418065404
  0
VERTEX
  8
0
 62
7
  6
CONTINUOUS
 10
32.0218466993
 20
66.0407370344
  0
VERTEX
  8
0
 62
7
  6
CONTINUOUS
 10
32.0361199703
 20
66.0396977911
  0
VERTEX
  8
0
 62
7
  6
CONTINUOUS
 10
32.0521493804
 20
66.0386396959
  0
SEQEND
  0
POLYLINE
  8
0
 62
7
  6
CONTINUOUS
 66
1
 70
0
  0
VERTEX
  8
0
 62
7
  6
CONTINUOUS
 10
39.7714389536
 20
65.9860629067
  0
VERTEX
  8
0
 62
7
  6
CONTINUOUS
 10
39.7366153221
 20
65.9936220681
  0
VERTEX
  8
0
 62
7
  6
CONTINUOUS
 10
39.703087312
 20
66.0160743197
  0
VERTEX
  8
0
 62
7
  6
CONTINUOUS
 10
39.6721231394
 20
66.0526690129
  0
VERTEX
  8
0
 62
7
  6
CONTINUOUS
 10
39.6449095117
 20
66.1021157401
  0
VERTEX
  8
0
 62
7
  6
CONTINUOUS
 10
39.6225070804
 20
66.1626128662
  0
VERTEX
  8
0
 62
7
  6
CONTINUOUS
 10
39.6058058694
 20
66.2319026092
  0
VERTEX
  8
0
 62
7
  6
CONTINUOUS
 10
39.5954865618
 20
66.3073520934
  0
VERTEX
  8
0
 62
7
  6
CONTINUOUS
 10
39.5919908145
 20
66.3860629067
  0
SEQEND
  0
LINE
  8
0
 62
7
  6
CONTINUOUS
 10
102.066048479
 20
53.7360629067
 11
103.7114967462
 21
52.7860629067
  0
LINE
  8
0
 62
7
  6
CONTINUOUS
 10
87.5357888803
 20
53.7360629067
 11
87.5357888803
 21
53.4860629067
  0
LINE
  8
0
 62
7
  6
CONTINUOUS
 10
90.43408107
 20
53.7360629067
 11
90.43408107
 21
53.4860629067
  0
LINE
  8
0
 62
7
  6
CONTINUOUS
 10
91.0708526606
 20
53.7360629067
 11
91.0708526606
 21
53.4860629067
  0
LINE
  8
0
 62
7
  6
CONTINUOUS
 10
91.6527761412
 20
53.7360629067
 11
91.6527761412
 21
53.4860629067
  0
LINE
  8
0
 62
7
  6
CONTINUOUS
 10
92.146898165
 20
53.7360629067
 11
92.146898165
 21
53.4860629067
  0
LINE
  8
0
 62
7
  6
CONTINUOUS
 10
92.36654065
 20
53.7360629067
 11
92.36654065
 21
53.4860629067
  0
LINE
  8
0
 62
7
  6
CONTINUOUS
 10
92.4983762424
 20
53.7360629067
 11
92.4983762424
 21
53.4860629067
  0
LINE
  8
0
 62
7
  6
CONTINUOUS
 10
92.8060757576
 20
53.7360629067
 11
92.8060757576
 21
53.4860629067
  0
LINE
  8
0
 62
7
  6
CONTINUOUS
 10
93.0257182888
 20
53.7360629067
 11
93.0257182888
 21
53.4860629067
  0
POLYLINE
  8
SURFACE
 62
7
  6
CONTINUOUS
 66
1
 70
0
  0
VERTEX
  8
SURFACE
 62
7
  6
CONTINUOUS
 10
86.3391335861
 20
83.7743535236
  0
VERTEX
  8
SURFACE
 62
7
  6
CONTINUOUS
 10
86.2633770925
 20
83.7437809389
  0
VERTEX
  8
SURFACE
 62
7
  6
CONTINUOUS
 10
86.1954868658
 20
83.6957487741
  0
VERTEX
  8
SURFACE
 62
7
  6
CONTINUOUS
 10
86.1387767827
 20
83.6326024511
  0
VERTEX
  8
SURFACE
 62
7
  6
CONTINUOUS
 10
86.0960157226
 20
83.5574248415
  0
VERTEX
  8
SURFACE
 62
7
  6
CONTINUOUS
 10
86.0692979826
 20
83.4738853122
  0
VERTEX
  8
SURFACE
 62
7
  6
CONTINUOUS
 10
86.0598688552
 20
83.3860629067
  0
SEQEND
  0
POLYLINE
  8
SURFACE
 62
7
  6
CONTINUOUS
 66
1
 70
0
  0
VERTEX
  8
SURFACE
 62
7
  6
CONTINUOUS
 10
175.4503910554
 20
74.3459049188
  0
VERTEX
  8
SURFACE
 62
7
  6
CONTINUOUS
 10
175.7862874021
 20
74.3991614691
  0
VERTEX
  8
SURFACE
 62
7
  6
CONTINUOUS
 10
176.0935267805
 20
74.4576779982
  0
SEQEND
  0
LINE
  8
0
 62
7
  6
CONTINUOUS
 10
121.0039349574
 20
65.9861525454
 11
121.0838599063
 21
65.9977722898
  0
POLYLINE
  8
0
 62
7
  6
CONTINUOUS
 66
1
 70
0
  0
VERTEX
  8
0
 62
7
  6
CONTINUOUS
 10
121.7947102125
 20
65.9860629067
  0
VERTEX
  8
0
 62
7
  6
CONTINUOUS
 10
121.8508713954
 20
65.9936220681
  0
VERTEX
  8
0
 62
7
  6
CONTINUOUS
 10
121.9050624774
 20
66.0160743197
  0
VERTEX
  8
0
 62
7
  6
CONTINUOUS
 10
121.9552154573
 20
66.0526690129
  0
VERTEX
  8
0
 62
7
  6
CONTINUOUS
 10
121.9993788673
 20
66.1021157401
  0
VERTEX
  8
0
 62
7
  6
CONTINUOUS
 10
122.0357951448
 20
66.1626128662
  0
VERTEX
  8
0
 62
7
  6
CONTINUOUS
 10
122.0629798713
 20
66.2319026092
  0
VERTEX
  8
0
 62
7
  6
CONTINUOUS
 10
122.079792245
 20
66.3073520934
  0
VERTEX
  8
0
 62
7
  6
CONTINUOUS
 10
122.0854902752
 20
66.3860629067
  0
SEQEND
  0
POLYLINE
  8
0
 62
7
  6
CONTINUOUS
 66
1
 70
0
  0
VERTEX
  8
0
 62
7
  6
CONTINUOUS
 10
161.548593865
 20
65.9896385516
  0
VERTEX
  8
0
 62
7
  6
CONTINUOUS
 10
161.6988465697
 20
66.0075253303
  0
VERTEX
  8
0
 62
7
  6
CONTINUOUS
 10
161.9358261309
 20
66.030041478
  0
VERTEX
  8
0
 62
7
  6
CONTINUOUS
 10
162.2450318063
 20
66.0545707883
  0
VERTEX
  8
0
 62
7
  6
CONTINUOUS
 10
162.6267911514
 20
66.0807692687
  0
SEQEND
  0
POLYLINE
  8
0
 62
7
  6
CONTINUOUS
 66
1
 70
0
  0
VERTEX
  8
0
 62
7
  6
CONTINUOUS
 10
164.5861579887
 20
66.1966874761
  0
VERTEX
  8
0
 62
7
  6
CONTINUOUS
 10
164.6082469334
 20
66.1985752407
  0
VERTEX
  8
0
 62
7
  6
CONTINUOUS
 10
164.6282682286
 20
66.2005644372
  0
VERTEX
  8
0
 62
7
  6
CONTINUOUS
 10
164.647371215
 20
66.2028324593
  0
VERTEX
  8
0
 62
7
  6
CONTINUOUS
 10
164.6675820975
 20
66.2058027231
  0
VERTEX
  8
0
 62
7
  6
CONTINUOUS
 10
164.6915681431
 20
66.2103482267
  0
VERTEX
  8
0
 62
7
  6
CONTINUOUS
 10
164.7222331775
 20
66.2181261986
  0
VERTEX
  8
0
 62
7
  6
CONTINUOUS
 10
164.7597130597
 20
66.2310750607
  0
VERTEX
  8
0
 62
7
  6
CONTINUOUS
 10
164.8011076266
 20
66.2504049366
  0
VERTEX
  8
0
 62
7
  6
CONTINUOUS
 10
164.843089782
 20
66.2764036343
  0
VERTEX
  8
0
 62
7
  6
CONTINUOUS
 10
164.8836548606
 20
66.3092610234
  0
VERTEX
  8
0
 62
7
  6
CONTINUOUS
 10
164.9211802972
 20
66.3489979523
  0
VERTEX
  8
0
 62
7
  6
CONTINUOUS
 10
164.9540491021
 20
66.3952599607
  0
VERTEX
  8
0
 62
7
  6
CONTINUOUS
 10
164.9807812027
 20
66.4474129159
  0
VERTEX
  8
0
 62
7
  6
CONTINUOUS
 10
165.000021523
 20
66.5044821712
  0
VERTEX
  8
0
 62
7
  6
CONTINUOUS
 10
165.0106210597
 20
66.5651762584
  0
VERTEX
  8
0
 62
7
  6
CONTINUOUS
 10
165.0124601172
 20
66.603507561
  0
SEQEND
  0
LINE
  8
0
 62
7
  6
CONTINUOUS
 10
161.5046435179
 20
65.9861525453
 11
161.5485938252
 21
65.9896385515
  0
POLYLINE
  8
0
 62
7
  6
CONTINUOUS
 66
1
 70
0
  0
VERTEX
  8
0
 62
7
  6
CONTINUOUS
 10
164.5335596485
 20
66.1929547663
  0
VERTEX
  8
0
 62
7
  6
CONTINUOUS
 10
164.5614424188
 20
66.1948297165
  0
VERTEX
  8
0
 62
7
  6
CONTINUOUS
 10
164.5861579887
 20
66.1966874761
  0
SEQEND
  0
POLYLINE
  8
0
 62
7
  6
CONTINUOUS
 66
1
 70
0
  0
VERTEX
  8
0
 62
7
  6
CONTINUOUS
 10
186.027862705
 20
66.2094340515
  0
VERTEX
  8
0
 62
7
  6
CONTINUOUS
 10
186.0348102023
 20
66.2098385605
  0
VERTEX
  8
0
 62
7
  6
CONTINUOUS
 10
186.0417640454
 20
66.2102920124
  0
VERTEX
  8
0
 62
7
  6
CONTINUOUS
 10
186.0501479136
 20
66.210937295
  0
VERTEX
  8
0
 62
7
  6
CONTINUOUS
 10
186.0623748655
 20
66.2121389987
  0
VERTEX
  8
0
 62
7
  6
CONTINUOUS
 10
186.0792476242
 20
66.2143848509
  0
VERTEX
  8
0
 62
7
  6
CONTINUOUS
 10
186.09892709
 20
66.2179192187
  0
VERTEX
  8
0
 62
7
  6
CONTINUOUS
 10
186.119867768
 20
66.2228051311
  0
VERTEX
  8
0
 62
7
  6
CONTINUOUS
 10
186.141882701
 20
66.2292457223
  0
VERTEX
  8
0
 62
7
  6
CONTINUOUS
 10
186.164630822
 20
66.2373797927
  0
VERTEX
  8
0
 62
7
  6
CONTINUOUS
 10
186.1878092224
 20
66.2473186697
  0
VERTEX
  8
0
 62
7
  6
CONTINUOUS
 10
186.2110702131
 20
66.2591106334
  0
VERTEX
  8
0
 62
7
  6
CONTINUOUS
 10
186.2340413849
 20
66.2727293953
  0
VERTEX
  8
0
 62
7
  6
CONTINUOUS
 10
186.2564458915
 20
66.2881403272
  0
VERTEX
  8
0
 62
7
  6
CONTINUOUS
 10
186.2781784068
 20
66.3054008184
  0
VERTEX
  8
0
 62
7
  6
CONTINUOUS
 10
186.2991183347
 20
66.3245745259
  0
VERTEX
  8
0
 62
7
  6
CONTINUOUS
 10
186.3191207207
 20
66.3457247435
  0
VERTEX
  8
0
 62
7
  6
CONTINUOUS
 10
186.3380134271
 20
66.3689103266
  0
VERTEX
  8
0
 62
7
  6
CONTINUOUS
 10
186.3555876299
 20
66.3941698193
  0
VERTEX
  8
0
 62
7
  6
CONTINUOUS
 10
186.3715883693
 20
66.4214906972
  0
VERTEX
  8
0
 62
7
  6
CONTINUOUS
 10
186.3857409186
 20
66.4508261278
  0
VERTEX
  8
0
 62
7
  6
CONTINUOUS
 10
186.3977577731
 20
66.4820962435
  0
VERTEX
  8
0
 62
7
  6
CONTINUOUS
 10
186.4073416723
 20
66.5151839818
  0
VERTEX
  8
0
 62
7
  6
CONTINUOUS
 10
186.4141894563
 20
66.5499309826
  0
VERTEX
  8
0
 62
7
  6
CONTINUOUS
 10
186.4179968205
 20
66.5861336881
  0
VERTEX
  8
0
 62
7
  6
CONTINUOUS
 10
186.4186991209
 20
66.6098269136
  0
SEQEND
  0
LINE
  8
0
 62
7
  6
CONTINUOUS
 10
162.6267911514
 20
66.0807692687
 11
164.5335596485
 21
66.1929547663
  0
LINE
  8
0
 62
7
  6
CONTINUOUS
 10
186.0117435049
 20
66.2085971978
 11
186.027862705
 21
66.2094340515
  0
LINE
  8
0
 62
7
  6
CONTINUOUS
 10
185.9788573028
 20
66.2070794283
 11
186.0117435049
 21
66.2085971978
  0
LINE
  8
0
 62
7
  6
CONTINUOUS
 10
185.8495464395
 20
66.2017914878
 11
185.9788573028
 21
66.2070794283
  0
LINE
  8
0
 62
7
  6
CONTINUOUS
 10
183.1712535081
 20
66.1051243771
 11
179.9303324792
 21
65.9861524482
  0
LINE
  8
0
 62
7
  6
CONTINUOUS
 10
185.5493923778
 20
66.1906156744
 11
185.8495464395
 21
66.2017914878
  0
LINE
  8
0
 62
7
  6
CONTINUOUS
 10
185.5488852528
 20
66.1906008082
 11
183.1712535081
 21
66.1051243771
  0
LINE
  8
0
 62
7
  6
CONTINUOUS
 10
26.3114694992
 20
66.0301171252
 11
27.4926610132
 21
65.9861524482
  0
LINE
  8
0
 62
7
  6
CONTINUOUS
 10
21.5147179384
 20
66.2041208529
 11
26.3114694992
 21
66.0301171252
  0
LINE
  8
0
 62
7
  6
CONTINUOUS
 10
21.4392051467
 20
66.20729792
 11
21.5147179384
 21
66.2041208529
  0
LINE
  8
0
 62
7
  6
CONTINUOUS
 10
32.1645528018
 20
66.0326513826
 11
33.2270899034
 21
65.9862105081
  0
LINE
  8
0
 62
7
  6
CONTINUOUS
 10
21.4108256724
 20
66.2086180591
 11
21.4392051467
 21
66.20729792
  0
LINE
  8
0
 62
7
  6
CONTINUOUS
 10
32.1127589018
 20
66.0352054266
 11
32.1645528018
 21
66.0326513826
  0
POLYLINE
  8
0
 62
7
  6
CONTINUOUS
 66
1
 70
0
  0
VERTEX
  8
0
 62
7
  6
CONTINUOUS
 10
32.0521493804
 20
66.0386396959
  0
VERTEX
  8
0
 62
7
  6
CONTINUOUS
 10
32.0701778453
 20
66.0375437429
  0
VERTEX
  8
0
 62
7
  6
CONTINUOUS
 10
32.1127589018
 20
66.0352054266
  0
SEQEND
  0
LINE
  8
0
 62
7
  6
CONTINUOUS
 10
64.1805873383
 20
65.9860629067
 11
64.132658973
 21
65.9891684674
  0
POLYLINE
  8
0
 62
7
  6
CONTINUOUS
 66
1
 70
0
  0
VERTEX
  8
0
 62
7
  6
CONTINUOUS
 10
63.9057148796
 20
66.0199420739
  0
VERTEX
  8
0
 62
7
  6
CONTINUOUS
 10
64.0271600639
 20
66.0031368687
  0
VERTEX
  8
0
 62
7
  6
CONTINUOUS
 10
64.1326881735
 20
65.9891683482
  0
SEQEND
  0
LINE
  8
0
 62
7
  6
CONTINUOUS
 10
63.8065111551
 20
66.0343371379
 11
63.9057148796
 21
66.0199420739
  0
POLYLINE
  8
0
 62
7
  6
CONTINUOUS
 66
1
 70
0
  0
VERTEX
  8
0
 62
7
  6
CONTINUOUS
 10
44.3469895497
 20
74.3200886552
  0
VERTEX
  8
0
 62
7
  6
CONTINUOUS
 10
44.4505881857
 20
74.2954549947
  0
VERTEX
  8
0
 62
7
  6
CONTINUOUS
 10
44.5691925345
 20
74.2860629067
  0
SEQEND
  0
LINE
  8
0
 62
7
  6
CONTINUOUS
 10
93.1905126639
 20
53.7360629067
 11
93.1905126639
 21
53.4860629067
  0
LINE
  8
0
 62
7
  6
CONTINUOUS
 10
97.8614967462
 20
53.7360629067
 11
97.8614967462
 21
53.4860629067
  0
POLYLINE
  8
SURFACE
 62
7
  6
CONTINUOUS
 66
1
 70
0
  0
VERTEX
  8
SURFACE
 62
7
  6
CONTINUOUS
 10
97.571800558
 20
74.6860629067
  0
VERTEX
  8
SURFACE
 62
7
  6
CONTINUOUS
 10
97.5659308427
 20
74.6171375504
  0
VERTEX
  8
SURFACE
 62
7
  6
CONTINUOUS
 10
97.5487987341
 20
74.5500509527
  0
VERTEX
  8
SURFACE
 62
7
  6
CONTINUOUS
 10
97.5210756507
 20
74.4869057401
  0
VERTEX
  8
SURFACE
 62
7
  6
CONTINUOUS
 10
97.4835325919
 20
74.4297077581
  0
VERTEX
  8
SURFACE
 62
7
  6
CONTINUOUS
 10
97.437311038
 20
74.3802712346
  0
VERTEX
  8
SURFACE
 62
7
  6
CONTINUOUS
 10
97.3838582485
 20
74.3401478174
  0
VERTEX
  8
SURFACE
 62
7
  6
CONTINUOUS
 10
97.3248676097
 20
74.3105660908
  0
VERTEX
  8
SURFACE
 62
7
  6
CONTINUOUS
 10
97.2622105309
 20
74.292385584
  0
VERTEX
  8
SURFACE
 62
7
  6
CONTINUOUS
 10
97.195848886
 20
74.2860629067
  0
SEQEND
  0
POLYLINE
  8
0
 62
7
  6
CONTINUOUS
 66
1
 70
0
  0
VERTEX
  8
0
 62
7
  6
CONTINUOUS
 10
75.3704083357
 20
65.9860629067
  0
VERTEX
  8
0
 62
7
  6
CONTINUOUS
 10
75.3835956677
 20
65.9936220681
  0
VERTEX
  8
0
 62
7
  6
CONTINUOUS
 10
75.3963661485
 20
66.0160743197
  0
VERTEX
  8
0
 62
7
  6
CONTINUOUS
 10
75.4082254836
 20
66.0526690129
  0
VERTEX
  8
0
 62
7
  6
CONTINUOUS
 10
75.4187010251
 20
66.1021157401
  0
VERTEX
  8
0
 62
7
  6
CONTINUOUS
 10
75.4273620584
 20
66.1626128662
  0
VERTEX
  8
0
 62
7
  6
CONTINUOUS
 10
75.4338412273
 20
66.2319026092
  0
VERTEX
  8
0
 62
7
  6
CONTINUOUS
 10
75.4378541629
 20
66.3073520934
  0
VERTEX
  8
0
 62
7
  6
CONTINUOUS
 10
75.4392152485
 20
66.3860629067
  0
SEQEND
  0
POLYLINE
  8
SURFACE
 62
7
  6
CONTINUOUS
 66
1
 70
0
  0
VERTEX
  8
SURFACE
 62
7
  6
CONTINUOUS
 10
143.6165130792
 20
74.3343421722
  0
VERTEX
  8
SURFACE
 62
7
  6
CONTINUOUS
 10
143.636824093
 20
74.3377258517
  0
VERTEX
  8
SURFACE
 62
7
  6
CONTINUOUS
 10
143.6644582437
 20
74.343705725
  0
VERTEX
  8
SURFACE
 62
7
  6
CONTINUOUS
 10
143.6967091069
 20
74.3530573598
  0
VERTEX
  8
SURFACE
 62
7
  6
CONTINUOUS
 10
143.7322724669
 20
74.3667485306
  0
VERTEX
  8
SURFACE
 62
7
  6
CONTINUOUS
 10
143.7695069337
 20
74.3854234461
  0
VERTEX
  8
SURFACE
 62
7
  6
CONTINUOUS
 10
143.8069434142
 20
74.409487273
  0
VERTEX
  8
SURFACE
 62
7
  6
CONTINUOUS
 10
143.8433162498
 20
74.4391934427
  0
VERTEX
  8
SURFACE
 62
7
  6
CONTINUOUS
 10
143.8771811871
 20
74.4743478741
  0
VERTEX
  8
SURFACE
 62
7
  6
CONTINUOUS
 10
143.9072474453
 20
74.5144467482
  0
VERTEX
  8
SURFACE
 62
7
  6
CONTINUOUS
 10
143.932594
 20
74.5590428995
  0
VERTEX
  8
SURFACE
 62
7
  6
CONTINUOUS
 10
143.9523265675
 20
74.6073759381
  0
VERTEX
  8
SURFACE
 62
7
  6
CONTINUOUS
 10
143.9657298338
 20
74.6584987924
  0
VERTEX
  8
SURFACE
 62
7
  6
CONTINUOUS
 10
143.9723081335
 20
74.7113193809
  0
VERTEX
  8
SURFACE
 62
7
  6
CONTINUOUS
 10
143.9729680172
 20
74.7343019327
  0
SEQEND
  0
LINE
  8
SURFACE
 62
7
  6
CONTINUOUS
 10
143.518867502
 20
74.3201676358
 11
143.6164824907
 21
74.3343371607
  0
LINE
  8
SURFACE
 62
7
  6
CONTINUOUS
 10
143.3975034743
 20
74.3033624344
 11
143.518867502
 21
74.3201676358
  0
LINE
  8
SURFACE
 62
7
  6
CONTINUOUS
 10
175.4375132215
 20
74.3441948375
 11
175.450380548
 21
74.3459038113
  0
LINE
  8
SURFACE
 62
7
  6
CONTINUOUS
 10
143.2903054217
 20
74.2891683615
 11
143.3975034743
 21
74.3033624344
  0
LINE
  8
0
 62
7
  6
CONTINUOUS
 10
179.9303324792
 20
65.9861524482
 11
179.9272343851
 21
65.9860650595
  0
LINE
  8
0
 62
7
  6
CONTINUOUS
 10
73.8981121332
 20
65.9861527768
 11
73.892605235
 21
65.9860650595
  0
LINE
  8
0
 62
7
  6
CONTINUOUS
 10
161.5046582674
 20
65.9861527768
 11
161.4981459262
 21
65.9860650595
  0
LINE
  8
0
 62
7
  6
CONTINUOUS
 10
121.0039556627
 20
65.9861528815
 11
120.9965215769
 21
65.9860650595
  0
LINE
  8
0
 62
7
  6
CONTINUOUS
 10
179.9272343851
 20
65.9860650595
 11
179.9270299336
 21
65.9860629067
  0
LINE
  8
0
 62
7
  6
CONTINUOUS
 10
179.9270311055
 20
65.9860629067
 11
161.5046582674
 21
65.9860629067
  0
LINE
  8
0
 62
7
  6
CONTINUOUS
 10
161.4981459262
 20
65.9860650595
 11
27.4959623869
 21
65.9860629067
  0
LINE
  8
0
 62
7
  6
CONTINUOUS
 10
27.4957591073
 20
65.9860650595
 11
27.4959635588
 21
65.9860629067
  0
LINE
  8
0
 62
7
  6
CONTINUOUS
 10
33.2334938577
 20
65.9860629067
 11
33.2267451414
 21
65.9862106442
  0
LINE
  8
0
 62
7
  6
CONTINUOUS
 10
27.4926610132
 20
65.9861524482
 11
27.4957591073
 21
65.9860650595
  0
POLYLINE
  8
0
 62
7
  6
CONTINUOUS
 66
1
 70
0
  0
VERTEX
  8
0
 62
7
  6
CONTINUOUS
 10
110.2271446065
 20
65.9860629067
  0
VERTEX
  8
0
 62
7
  6
CONTINUOUS
 10
110.1607829615
 20
65.992385584
  0
VERTEX
  8
0
 62
7
  6
CONTINUOUS
 10
110.0981258827
 20
66.0105660908
  0
VERTEX
  8
0
 62
7
  6
CONTINUOUS
 10
110.0391352439
 20
66.0401478174
  0
VERTEX
  8
0
 62
7
  6
CONTINUOUS
 10
109.9856824544
 20
66.0802712346
  0
VERTEX
  8
0
 62
7
  6
CONTINUOUS
 10
109.9394609006
 20
66.1297077581
  0
VERTEX
  8
0
 62
7
  6
CONTINUOUS
 10
109.9019178418
 20
66.1869057401
  0
VERTEX
  8
0
 62
7
  6
CONTINUOUS
 10
109.8741947585
 20
66.2500509527
  0
VERTEX
  8
0
 62
7
  6
CONTINUOUS
 10
109.85706265
 20
66.3171375504
  0
VERTEX
  8
0
 62
7
  6
CONTINUOUS
 10
109.8511929344
 20
66.3860629067
  0
SEQEND
  0
POLYLINE
  8
0
 62
7
  6
CONTINUOUS
 66
1
 70
0
  0
VERTEX
  8
0
 62
7
  6
CONTINUOUS
 10
73.8981027213
 20
75.4859732682
  0
VERTEX
  8
0
 62
7
  6
CONTINUOUS
 10
73.9416764748
 20
75.4743535255
  0
VERTEX
  8
0
 62
7
  6
CONTINUOUS
 10
73.9831522241
 20
75.4437809422
  0
SEQEND
  0
POLYLINE
  8
SURFACE
 62
7
  6
CONTINUOUS
 66
1
 70
0
  0
VERTEX
  8
SURFACE
 62
7
  6
CONTINUOUS
 10
86.3391335868
 20
74.29777229
  0
VERTEX
  8
SURFACE
 62
7
  6
CONTINUOUS
 10
86.2633770962
 20
74.3283448749
  0
VERTEX
  8
SURFACE
 62
7
  6
CONTINUOUS
 10
86.1954868734
 20
74.3763770399
  0
VERTEX
  8
SURFACE
 62
7
  6
CONTINUOUS
 10
86.1387767957
 20
74.439523363
  0
VERTEX
  8
SURFACE
 62
7
  6
CONTINUOUS
 10
86.0960157454
 20
74.5147009728
  0
VERTEX
  8
SURFACE
 62
7
  6
CONTINUOUS
 10
86.0692980326
 20
74.598240503
  0
VERTEX
  8
SURFACE
 62
7
  6
CONTINUOUS
 10
86.059868855
 20
74.6860629067
  0
SEQEND
  0
LINE
  8
0
 62
7
  6
CONTINUOUS
 10
99.1364967462
 20
53.7360629067
 11
99.1364967462
 21
53.4860629067
  0
LINE
  8
0
 62
7
  6
CONTINUOUS
 10
100.8614967462
 20
53.7360629067
 11
100.8614967462
 21
53.4860629067
  0
LINE
  8
0
 62
7
  6
CONTINUOUS
 10
102.1364967462
 20
53.6953895807
 11
102.1364967462
 21
53.4860629067
  0
LINE
  8
0
 62
7
  6
CONTINUOUS
 10
102.1478142462
 20
53.688855419
 11
102.1478142462
 21
53.4860629067
  0
LINE
  8
0
 62
7
  6
CONTINUOUS
 10
102.4364967462
 20
53.5221844999
 11
102.4364967462
 21
53.4860629067
  0
LINE
  8
DEFAULT_1
 62
2
  6
CENTER
 10
103.7114967462
 20
50.7860629067
 11
103.7114967462
 21
98.0360629067
  0
POLYLINE
  8
0
 62
7
  6
CONTINUOUS
 66
1
 70
0
  0
VERTEX
  8
0
 62
7
  6
CONTINUOUS
 10
106.4558598819
 20
75.0860629068
  0
VERTEX
  8
0
 62
7
  6
CONTINUOUS
 10
106.7161178349
 20
75.2009786548
  0
VERTEX
  8
0
 62
7
  6
CONTINUOUS
 10
106.9588269868
 20
75.300402481
  0
VERTEX
  8
0
 62
7
  6
CONTINUOUS
 10
107.1865761734
 20
75.3805540701
  0
VERTEX
  8
0
 62
7
  6
CONTINUOUS
 10
107.4007502509
 20
75.4391142827
  0
VERTEX
  8
0
 62
7
  6
CONTINUOUS
 10
107.6006409428
 20
75.4744848448
  0
VERTEX
  8
0
 62
7
  6
CONTINUOUS
 10
107.782509798
 20
75.4860629067
  0
SEQEND
  0
POLYLINE
  8
0
 62
7
  6
CONTINUOUS
 66
1
 70
0
  0
VERTEX
  8
0
 62
7
  6
CONTINUOUS
 10
73.8981027193
 20
65.9861525453
  0
VERTEX
  8
0
 62
7
  6
CONTINUOUS
 10
73.9416764764
 20
65.9977722878
  0
VERTEX
  8
0
 62
7
  6
CONTINUOUS
 10
73.9831522297
 20
66.028344871
  0
SEQEND
  0
LINE
  8
SURFACE
 62
7
  6
CONTINUOUS
 10
143.290334622
 20
74.2891684807
 11
143.2424061542
 21
74.2860629067
  0
POLYLINE
  8
0
 62
7
  6
CONTINUOUS
 66
1
 70
0
  0
VERTEX
  8
0
 62
7
  6
CONTINUOUS
 10
99.6404836944
 20
74.2860629067
  0
VERTEX
  8
0
 62
7
  6
CONTINUOUS
 10
99.8228409211
 20
74.2977007151
  0
VERTEX
  8
0
 62
7
  6
CONTINUOUS
 10
100.0212526773
 20
74.3327864031
  0
VERTEX
  8
0
 62
7
  6
CONTINUOUS
 10
100.2346409802
 20
74.3910119795
  0
VERTEX
  8
0
 62
7
  6
CONTINUOUS
 10
100.4626154586
 20
74.4711275851
  0
VERTEX
  8
0
 62
7
  6
CONTINUOUS
 10
100.7060238247
 20
74.57078072
  0
VERTEX
  8
0
 62
7
  6
CONTINUOUS
 10
100.9671336105
 20
74.6860629067
  0
SEQEND
  0
POLYLINE
  8
SURFACE
 62
7
  6
CONTINUOUS
 66
1
 70
0
  0
VERTEX
  8
SURFACE
 62
7
  6
CONTINUOUS
 10
175.3553542319
 20
74.3376932549
  0
VERTEX
  8
SURFACE
 62
7
  6
CONTINUOUS
 10
175.3752809389
 20
74.3389233539
  0
VERTEX
  8
SURFACE
 62
7
  6
CONTINUOUS
 10
175.3926298555
 20
74.3401037204
  0
VERTEX
  8
SURFACE
 62
7
  6
CONTINUOUS
 10
175.4080193143
 20
74.3412830001
  0
VERTEX
  8
SURFACE
 62
7
  6
CONTINUOUS
 10
175.4225084133
 20
74.3425733062
  0
VERTEX
  8
SURFACE
 62
7
  6
CONTINUOUS
 10
175.4375132215
 20
74.3441948375
  0
SEQEND
  0
LINE
  8
SURFACE
 62
7
  6
CONTINUOUS
 10
175.306419139
 20
74.3350083232
 11
175.3553542319
 21
74.3376932549
  0
LINE
  8
SURFACE
 62
7
  6
CONTINUOUS
 10
175.2442029599
 20
74.331987537
 11
175.306419139
 21
74.3350083232
  0
LINE
  8
SURFACE
 62
7
  6
CONTINUOUS
 10
174.1959035892
 20
74.2862105081
 11
175.2442029599
 21
74.331987537
  0
LINE
  8
SURFACE
 62
7
  6
CONTINUOUS
 10
174.1962483512
 20
74.2862106442
 11
174.1894996347
 21
74.2860629067
  0
LINE
  8
SURFACE
 62
7
  6
CONTINUOUS
 10
27.4959611542
 20
74.2860629067
 11
30.7692288471
 21
74.2860629067
  0
LINE
  8
0
 62
7
  6
CONTINUOUS
 10
44.5691925345
 20
74.2860629067
 11
45.9183499744
 21
74.2860629067
  0
LINE
  8
SURFACE
 62
7
  6
CONTINUOUS
 10
45.9259752561
 20
74.2860629067
 11
57.5132099867
 21
74.2860629067
  0
LINE
  8
0
 62
7
  6
CONTINUOUS
 10
57.5132099867
 20
74.2860629067
 11
59.1712282726
 21
74.2860629067
  0
LINE
  8
0
 62
7
  6
CONTINUOUS
 10
81.5913749121
 20
74.2860629067
 11
85.6282687845
 21
74.2860629067
  0
LINE
  8
SURFACE
 62
7
  6
CONTINUOUS
 10
81.5913749121
 20
74.2860629067
 11
98.6343523955
 21
74.2860629067
  0
LINE
  8
0
 62
7
  6
CONTINUOUS
 10
98.6343523955
 20
74.2860629067
 11
99.6404836944
 21
74.2860629067
  0
LINE
  8
0
 62
7
  6
CONTINUOUS
 10
127.0626919951
 20
74.2860629067
 11
132.05256551
 21
74.2860629067
  0
LINE
  8
SURFACE
 62
7
  6
CONTINUOUS
 10
132.05256551
 20
74.2860629067
 11
143.2423887806
 21
74.2860629067
  0
LINE
  8
0
 62
7
  6
CONTINUOUS
 10
165.0124601367
 20
74.2860629067
 11
167.6515406997
 21
74.2860629067
  0
LINE
  8
SURFACE
 62
7
  6
CONTINUOUS
 10
167.6515406997
 20
74.2860629067
 11
174.1894597149
 21
74.2860629067
  0
LINE
  8
SURFACE
 62
7
  6
CONTINUOUS
 10
86.4190378288
 20
74.2861528814
 11
86.4281032717
 21
74.2860629067
  0
LINE
  8
SURFACE
 62
7
  6
CONTINUOUS
 10
45.9183352255
 20
74.2861527767
 11
45.9259821575
 21
74.2860629067
  0
LINE
  8
SURFACE
 62
7
  6
CONTINUOUS
 10
133.5248813575
 20
74.2861527767
 11
133.5318932522
 21
74.2860629067
  0
LINE
  8
0
 62
7
  6
CONTINUOUS
 10
73.8981121349
 20
75.4859730367
 11
73.8911002402
 21
75.4860629067
  0
LINE
  8
SURFACE
 62
7
  6
CONTINUOUS
 10
27.492661014
 20
74.2861524482
 11
27.4959635588
 21
74.2860629067
  0
LINE
  8
SURFACE
 62
7
  6
CONTINUOUS
 10
27.492661014
 20
74.2861524482
 11
26.3114694971
 21
74.3301171253
  0
LINE
  8
SURFACE
 62
7
  6
CONTINUOUS
 10
21.4979915706
 20
74.5048014761
 11
26.3114694971
 21
74.3301171253
  0
LINE
  8
SURFACE
 62
7
  6
CONTINUOUS
 10
21.4295839997
 20
74.5077317641
 11
21.4979915706
 21
74.5048014761
  0
LINE
  8
SURFACE
 62
7
  6
CONTINUOUS
 10
21.4039614121
 20
74.5089629555
 11
21.4295839997
 21
74.5077317641
  0
POLYLINE
  8
SURFACE
 62
7
  6
CONTINUOUS
 66
1
 70
0
  0
VERTEX
  8
SURFACE
 62
7
  6
CONTINUOUS
 10
44.3904785746
 20
74.4055544392
  0
VERTEX
  8
SURFACE
 62
7
  6
CONTINUOUS
 10
44.7999094588
 20
74.3805302632
  0
VERTEX
  8
SURFACE
 62
7
  6
CONTINUOUS
 10
45.1811585096
 20
74.3543354578
  0
VERTEX
  8
SURFACE
 62
7
  6
CONTINUOUS
 10
45.4897480001
 20
74.3298183098
  0
VERTEX
  8
SURFACE
 62
7
  6
CONTINUOUS
 10
45.7260413958
 20
74.3073238205
  0
VERTEX
  8
SURFACE
 62
7
  6
CONTINUOUS
 10
45.8743827266
 20
74.2896408764
  0
SEQEND
  0
POLYLINE
  8
SURFACE
 62
7
  6
CONTINUOUS
 66
1
 70
0
  0
VERTEX
  8
SURFACE
 62
7
  6
CONTINUOUS
 10
42.8578568564
 20
74.4950939728
  0
VERTEX
  8
SURFACE
 62
7
  6
CONTINUOUS
 10
42.8872826431
 20
74.4930927769
  0
VERTEX
  8
SURFACE
 62
7
  6
CONTINUOUS
 10
44.3904717723
 20
74.4055548196
  0
SEQEND
  0
LINE
  8
SURFACE
 62
7
  6
CONTINUOUS
 10
45.9183499744
 20
74.2861525453
 11
45.8743827664
 21
74.2896408764
  0
LINE
  8
SURFACE
 62
7
  6
CONTINUOUS
 10
86.4190585329
 20
74.2861525455
 11
86.3391335868
 21
74.29777229
  0
LINE
  8
0
 62
7
  6
CONTINUOUS
 10
105.7369967462
 20
53.7360629067
 11
105.7369967462
 21
53.4860629067
  0
LINE
  8
0
 62
7
  6
CONTINUOUS
 10
109.5619967462
 20
53.7360629067
 11
109.5619967462
 21
53.4860629067
  0
POLYLINE
  8
0
 62
7
  6
CONTINUOUS
 66
1
 70
0
  0
VERTEX
  8
0
 62
7
  6
CONTINUOUS
 10
109.8511929344
 20
75.0860629067
  0
VERTEX
  8
0
 62
7
  6
CONTINUOUS
 10
109.8570626497
 20
75.1549882631
  0
VERTEX
  8
0
 62
7
  6
CONTINUOUS
 10
109.8741947583
 20
75.2220748608
  0
VERTEX
  8
0
 62
7
  6
CONTINUOUS
 10
109.9019178417
 20
75.2852200733
  0
VERTEX
  8
0
 62
7
  6
CONTINUOUS
 10
109.9394609005
 20
75.3424180554
  0
VERTEX
  8
0
 62
7
  6
CONTINUOUS
 10
109.9856824544
 20
75.3918545789
  0
VERTEX
  8
0
 62
7
  6
CONTINUOUS
 10
110.0391352439
 20
75.431977996
  0
VERTEX
  8
0
 62
7
  6
CONTINUOUS
 10
110.0981258827
 20
75.4615597227
  0
VERTEX
  8
0
 62
7
  6
CONTINUOUS
 10
110.1607829615
 20
75.4797402294
  0
VERTEX
  8
0
 62
7
  6
CONTINUOUS
 10
110.2271446065
 20
75.4860629067
  0
SEQEND
  0
POLYLINE
  8
SURFACE
 62
7
  6
CONTINUOUS
 66
1
 70
0
  0
VERTEX
  8
SURFACE
 62
7
  6
CONTINUOUS
 10
132.0525851567
 20
83.7860629067
  0
VERTEX
  8
SURFACE
 62
7
  6
CONTINUOUS
 10
132.0393978247
 20
83.7785037453
  0
VERTEX
  8
SURFACE
 62
7
  6
CONTINUOUS
 10
132.0266273439
 20
83.7560514937
  0
VERTEX
  8
SURFACE
 62
7
  6
CONTINUOUS
 10
132.0147680088
 20
83.7194568005
  0
VERTEX
  8
SURFACE
 62
7
  6
CONTINUOUS
 10
132.0042924673
 20
83.6700100733
  0
VERTEX
  8
SURFACE
 62
7
  6
CONTINUOUS
 10
131.995631434
 20
83.6095129472
  0
VERTEX
  8
SURFACE
 62
7
  6
CONTINUOUS
 10
131.9891522651
 20
83.5402232042
  0
VERTEX
  8
SURFACE
 62
7
  6
CONTINUOUS
 10
131.9851393295
 20
83.4647737201
  0
VERTEX
  8
SURFACE
 62
7
  6
CONTINUOUS
 10
131.9837782439
 20
83.3860629067
  0
SEQEND
  0
POLYLINE
  8
SURFACE
 62
7
  6
CONTINUOUS
 66
1
 70
0
  0
VERTEX
  8
SURFACE
 62
7
  6
CONTINUOUS
 10
133.5248907731
 20
83.7859732682
  0
VERTEX
  8
SURFACE
 62
7
  6
CONTINUOUS
 10
133.481317016
 20
83.7743535256
  0
VERTEX
  8
SURFACE
 62
7
  6
CONTINUOUS
 10
133.4398412627
 20
83.7437809424
  0
SEQEND
  0
LINE
  8
0
 62
7
  6
CONTINUOUS
 10
64.1326880707
 20
75.4829574519
 11
64.0254900181
 21
75.4687633791
  0
POLYLINE
  8
0
 62
7
  6
CONTINUOUS
 66
1
 70
0
  0
VERTEX
  8
0
 62
7
  6
CONTINUOUS
 10
59.1712282726
 20
74.2860629067
  0
VERTEX
  8
0
 62
7
  6
CONTINUOUS
 10
59.3187583681
 20
74.2977007151
  0
VERTEX
  8
0
 62
7
  6
CONTINUOUS
 10
59.4792768507
 20
74.3327864031
  0
VERTEX
  8
0
 62
7
  6
CONTINUOUS
 10
59.6519116142
 20
74.3910119795
  0
VERTEX
  8
0
 62
7
  6
CONTINUOUS
 10
59.8363468415
 20
74.4711275851
  0
VERTEX
  8
0
 62
7
  6
CONTINUOUS
 10
60.0332683462
 20
74.57078072
  0
VERTEX
  8
0
 62
7
  6
CONTINUOUS
 10
60.2445106004
 20
74.6860629067
  0
SEQEND
  0
LINE
  8
0
 62
7
  6
CONTINUOUS
 10
64.1326588704
 20
75.4829573327
 11
64.1805873383
 21
75.4860629067
  0
POLYLINE
  8
0
 62
7
  6
CONTINUOUS
 66
1
 70
0
  0
VERTEX
  8
0
 62
7
  6
CONTINUOUS
 10
32.0676392605
 20
75.4344325585
  0
VERTEX
  8
0
 62
7
  6
CONTINUOUS
 10
32.0477125535
 20
75.4332024595
  0
VERTEX
  8
0
 62
7
  6
CONTINUOUS
 10
32.0303636369
 20
75.432022093
  0
VERTEX
  8
0
 62
7
  6
CONTINUOUS
 10
32.0149741781
 20
75.4308428134
  0
VERTEX
  8
0
 62
7
  6
CONTINUOUS
 10
32.0004850791
 20
75.4295525073
  0
VERTEX
  8
0
 62
7
  6
CONTINUOUS
 10
31.9854802709
 20
75.427930976
  0
SEQEND
  0
LINE
  8
0
 62
7
  6
CONTINUOUS
 10
32.1165743534
 20
75.4371174903
 11
32.0676392605
 21
75.4344325585
  0
LINE
  8
0
 62
7
  6
CONTINUOUS
 10
32.1787905325
 20
75.4401382765
 11
32.1165743534
 21
75.4371174903
  0
LINE
  8
0
 62
7
  6
CONTINUOUS
 10
33.2270899032
 20
75.4859153054
 11
32.1787905325
 21
75.4401382765
  0
LINE
  8
0
 62
7
  6
CONTINUOUS
 10
33.2267451412
 20
75.4859151692
 11
33.2334938577
 21
75.4860629067
  0
LINE
  8
0
 62
7
  6
CONTINUOUS
 10
179.9270323382
 20
75.4860629067
 11
176.6537646453
 21
75.4860629067
  0
LINE
  8
0
 62
7
  6
CONTINUOUS
 10
162.8538009579
 20
75.4860629067
 11
161.5046582669
 21
75.4860629067
  0
LINE
  8
0
 62
7
  6
CONTINUOUS
 10
161.4970182363
 20
75.4860629067
 11
148.2517652198
 21
75.4860629067
  0
LINE
  8
0
 62
7
  6
CONTINUOUS
 10
33.2335337775
 20
75.4860629067
 11
42.4105333557
 21
75.4860629067
  0
LINE
  8
0
 62
7
  6
CONTINUOUS
 10
64.1806047118
 20
75.4860629067
 11
80.3603014973
 21
75.4860629067
  0
LINE
  8
0
 62
7
  6
CONTINUOUS
 10
107.782509798
 20
75.4860629067
 11
125.8316185803
 21
75.4860629067
  0
LINE
  8
0
 62
7
  6
CONTINUOUS
 10
121.0039556636
 20
75.4859729321
 11
120.9948902207
 21
75.4860629067
  0
LINE
  8
0
 62
7
  6
CONTINUOUS
 10
161.5046582669
 20
75.4859730367
 11
161.4970113349
 21
75.4860629067
  0
LINE
  8
0
 62
7
  6
CONTINUOUS
 10
179.9303324784
 20
75.4859733652
 11
179.9270299336
 21
75.4860629067
  0
LINE
  8
0
 62
7
  6
CONTINUOUS
 10
179.9303324784
 20
75.4859733652
 11
185.6549212277
 21
75.2776753576
  0
LINE
  8
0
 62
7
  6
CONTINUOUS
 10
185.9250019218
 20
75.2673243374
 11
185.6549212277
 21
75.2776753576
  0
LINE
  8
0
 62
7
  6
CONTINUOUS
 10
185.9934094927
 20
75.2643940494
 11
185.9250019218
 21
75.2673243374
  0
LINE
  8
0
 62
7
  6
CONTINUOUS
 10
186.0190320803
 20
75.263162858
 11
185.9934094927
 21
75.2643940494
  0
POLYLINE
  8
0
 62
7
  6
CONTINUOUS
 66
1
 70
0
  0
VERTEX
  8
0
 62
7
  6
CONTINUOUS
 10
164.5020150128
 20
75.2810928083
  0
VERTEX
  8
0
 62
7
  6
CONTINUOUS
 10
162.6230840336
 20
75.3915955502
  0
VERTEX
  8
0
 62
7
  6
CONTINUOUS
 10
162.2418349828
 20
75.4177903556
  0
VERTEX
  8
0
 62
7
  6
CONTINUOUS
 10
161.9332454923
 20
75.4423075036
  0
VERTEX
  8
0
 62
7
  6
CONTINUOUS
 10
161.6969520966
 20
75.4648019929
  0
VERTEX
  8
0
 62
7
  6
CONTINUOUS
 10
161.5486107659
 20
75.4824849371
  0
SEQEND
  0
POLYLINE
  8
0
 62
7
  6
CONTINUOUS
 66
1
 70
0
  0
VERTEX
  8
0
 62
7
  6
CONTINUOUS
 10
164.565136636
 20
75.2770318407
  0
VERTEX
  8
0
 62
7
  6
CONTINUOUS
 10
164.5357108493
 20
75.2790330365
  0
VERTEX
  8
0
 62
7
  6
CONTINUOUS
 10
164.5022024162
 20
75.2810817463
  0
SEQEND
  0
LINE
  8
0
 62
7
  6
CONTINUOUS
 10
161.504643518
 20
75.4859732682
 11
161.548610726
 21
75.4824849371
  0
LINE
  8
0
 62
7
  6
CONTINUOUS
 10
121.0039349595
 20
75.485973268
 11
121.0838599056
 21
75.4743535235
  0
LINE
  8
0
 62
7
  6
CONTINUOUS
 10
112.4546910883
 20
53.7360629067
 11
112.4546910883
 21
53.4860629067
  0
LINE
  8
0
 62
7
  6
CONTINUOUS
 10
112.6924464787
 20
53.7360629067
 11
112.6924464787
 21
53.4860629067
  0
LINE
  8
0
 62
7
  6
CONTINUOUS
 10
113.702906945
 20
53.7360629067
 11
113.702906945
 21
53.4860629067
  0
LINE
  8
0
 62
7
  6
CONTINUOUS
 10
113.851504051
 20
53.7360629067
 11
113.851504051
 21
53.4860629067
  0
POLYLINE
  8
0
 62
7
  6
CONTINUOUS
 66
1
 70
0
  0
VERTEX
  8
0
 62
7
  6
CONTINUOUS
 10
63.8064804132
 20
75.4377836413
  0
VERTEX
  8
0
 62
7
  6
CONTINUOUS
 10
63.7861693994
 20
75.4343999617
  0
VERTEX
  8
0
 62
7
  6
CONTINUOUS
 10
63.7585352487
 20
75.4284200885
  0
VERTEX
  8
0
 62
7
  6
CONTINUOUS
 10
63.7262843855
 20
75.4190684537
  0
VERTEX
  8
0
 62
7
  6
CONTINUOUS
 10
63.6907210255
 20
75.4053772828
  0
VERTEX
  8
0
 62
7
  6
CONTINUOUS
 10
63.6534865588
 20
75.3867023673
  0
VERTEX
  8
0
 62
7
  6
CONTINUOUS
 10
63.6160500782
 20
75.3626385405
  0
VERTEX
  8
0
 62
7
  6
CONTINUOUS
 10
63.5796772426
 20
75.3329323708
  0
VERTEX
  8
0
 62
7
  6
CONTINUOUS
 10
63.5458123053
 20
75.2977779394
  0
VERTEX
  8
0
 62
7
  6
CONTINUOUS
 10
63.5157460471
 20
75.2576790652
  0
VERTEX
  8
0
 62
7
  6
CONTINUOUS
 10
63.4903994924
 20
75.2130829139
  0
VERTEX
  8
0
 62
7
  6
CONTINUOUS
 10
63.4706669249
 20
75.1647498754
  0
VERTEX
  8
0
 62
7
  6
CONTINUOUS
 10
63.4572636587
 20
75.1136270211
  0
VERTEX
  8
0
 62
7
  6
CONTINUOUS
 10
63.4506853589
 20
75.0608064326
  0
VERTEX
  8
0
 62
7
  6
CONTINUOUS
 10
63.4500254752
 20
75.0378238807
  0
SEQEND
  0
LINE
  8
SURFACE
 62
7
  6
CONTINUOUS
 10
86.419058535
 20
83.785973268
 11
86.3391335861
 21
83.7743535236
  0
LINE
  8
0
 62
7
  6
CONTINUOUS
 10
63.9041259904
 20
75.4519581776
 11
63.8065110017
 21
75.4377886527
  0
LINE
  8
0
 62
7
  6
CONTINUOUS
 10
64.0254900181
 20
75.4687633791
 11
63.9041259904
 21
75.4519581776
  0
POLYLINE
  8
SURFACE
 62
7
  6
CONTINUOUS
 66
1
 70
0
  0
VERTEX
  8
SURFACE
 62
7
  6
CONTINUOUS
 10
85.6282832799
 20
83.7860629067
  0
VERTEX
  8
SURFACE
 62
7
  6
CONTINUOUS
 10
85.572122097
 20
83.7785037453
  0
VERTEX
  8
SURFACE
 62
7
  6
CONTINUOUS
 10
85.517931015
 20
83.7560514937
  0
VERTEX
  8
SURFACE
 62
7
  6
CONTINUOUS
 10
85.4677780351
 20
83.7194568005
  0
VERTEX
  8
SURFACE
 62
7
  6
CONTINUOUS
 10
85.4236146252
 20
83.6700100733
  0
VERTEX
  8
SURFACE
 62
7
  6
CONTINUOUS
 10
85.3871983476
 20
83.6095129472
  0
VERTEX
  8
SURFACE
 62
7
  6
CONTINUOUS
 10
85.3600136211
 20
83.5402232042
  0
VERTEX
  8
SURFACE
 62
7
  6
CONTINUOUS
 10
85.3432012474
 20
83.4647737201
  0
VERTEX
  8
SURFACE
 62
7
  6
CONTINUOUS
 10
85.3375032172
 20
83.3860629067
  0
SEQEND
  0
LINE
  8
0
 62
7
  6
CONTINUOUS
 10
31.9854802709
 20
75.427930976
 11
31.9726129444
 21
75.4262220022
  0
LINE
  8
SURFACE
 62
7
  6
CONTINUOUS
 10
21.8741082396
 20
83.5815250053
 11
24.2517399843
 21
83.6670014363
  0
LINE
  8
SURFACE
 62
7
  6
CONTINUOUS
 10
21.8736011146
 20
83.581510139
 11
21.778999892
 21
83.5780762699
  0
LINE
  8
SURFACE
 62
7
  6
CONTINUOUS
 10
24.2517399843
 20
83.6670014363
 11
25.6585324401
 21
83.7180088702
  0
LINE
  8
SURFACE
 62
7
  6
CONTINUOUS
 10
27.4926610132
 20
83.7859733652
 11
27.4957591073
 21
83.786060754
  0
LINE
  8
SURFACE
 62
7
  6
CONTINUOUS
 10
133.5248813592
 20
83.7859730366
 11
133.5303882574
 21
83.786060754
  0
LINE
  8
SURFACE
 62
7
  6
CONTINUOUS
 10
45.918335225
 20
83.7859730366
 11
45.9248475663
 21
83.786060754
  0
LINE
  8
SURFACE
 62
7
  6
CONTINUOUS
 10
86.4190378298
 20
83.785972932
 11
86.4264719155
 21
83.786060754
  0
LINE
  8
SURFACE
 62
7
  6
CONTINUOUS
 10
27.4957591073
 20
83.786060754
 11
27.4959635588
 21
83.7860629067
  0
LINE
  8
SURFACE
 62
7
  6
CONTINUOUS
 10
27.4959623869
 20
83.7860629067
 11
45.9183499745
 21
83.7860629067
  0
LINE
  8
SURFACE
 62
7
  6
CONTINUOUS
 10
45.9248475663
 20
83.786060754
 11
85.6282560924
 21
83.7860629067
  0
LINE
  8
SURFACE
 62
7
  6
CONTINUOUS
 10
60.4796247013
 20
83.7860629067
 11
100.9671336105
 21
83.7860629067
  0
LINE
  8
SURFACE
 62
7
  6
CONTINUOUS
 10
100.9671336105
 20
83.7860629067
 11
143.6165270145
 21
83.7860629067
  0
LINE
  8
SURFACE
 62
7
  6
CONTINUOUS
 10
143.6165270145
 20
83.7860629067
 11
179.9263812897
 21
83.7860629067
  0
LINE
  8
SURFACE
 62
7
  6
CONTINUOUS
 10
179.9272343851
 20
83.786060754
 11
179.9270299336
 21
83.7860629067
  0
LINE
  8
SURFACE
 62
7
  6
CONTINUOUS
 10
174.1894996347
 20
83.7860629067
 11
174.196248351
 21
83.7859151692
  0
LINE
  8
SURFACE
 62
7
  6
CONTINUOUS
 10
179.9303324792
 20
83.7859733652
 11
179.9272343851
 21
83.786060754
  0
LINE
  8
SURFACE
 62
7
  6
CONTINUOUS
 10
185.6586216772
 20
83.577539379
 11
181.7644610511
 21
83.7180088702
  0
LINE
  8
SURFACE
 62
7
  6
CONTINUOUS
 10
143.2424061542
 20
83.7860629067
 11
143.2903345194
 21
83.7829573461
  0
POLYLINE
  8
SURFACE
 62
7
  6
CONTINUOUS
 66
1
 70
0
  0
VERTEX
  8
SURFACE
 62
7
  6
CONTINUOUS
 10
97.195848886
 20
83.7860629067
  0
VERTEX
  8
SURFACE
 62
7
  6
CONTINUOUS
 10
97.2622105309
 20
83.7797402294
  0
VERTEX
  8
SURFACE
 62
7
  6
CONTINUOUS
 10
97.3248676097
 20
83.7615597227
  0
VERTEX
  8
SURFACE
 62
7
  6
CONTINUOUS
 10
97.3838582485
 20
83.731977996
  0
VERTEX
  8
SURFACE
 62
7
  6
CONTINUOUS
 10
97.437311038
 20
83.6918545789
  0
VERTEX
  8
SURFACE
 62
7
  6
CONTINUOUS
 10
97.4835325918
 20
83.6424180554
  0
VERTEX
  8
SURFACE
 62
7
  6
CONTINUOUS
 10
97.5210756506
 20
83.5852200733
  0
VERTEX
  8
SURFACE
 62
7
  6
CONTINUOUS
 10
97.5487987339
 20
83.5220748607
  0
VERTEX
  8
SURFACE
 62
7
  6
CONTINUOUS
 10
97.5659308424
 20
83.4549882631
  0
VERTEX
  8
SURFACE
 62
7
  6
CONTINUOUS
 10
97.571800558
 20
83.3860629067
  0
SEQEND
  0
POLYLINE
  8
SURFACE
 62
7
  6
CONTINUOUS
 66
1
 70
0
  0
VERTEX
  8
SURFACE
 62
7
  6
CONTINUOUS
 10
133.5248907711
 20
74.2861525453
  0
VERTEX
  8
SURFACE
 62
7
  6
CONTINUOUS
 10
133.4813170176
 20
74.297772288
  0
VERTEX
  8
SURFACE
 62
7
  6
CONTINUOUS
 10
133.4398412683
 20
74.3283448712
  0
SEQEND
  0
POLYLINE
  8
0
 62
7
  6
CONTINUOUS
 66
1
 70
0
  0
VERTEX
  8
0
 62
7
  6
CONTINUOUS
 10
121.0838599056
 20
75.4743535235
  0
VERTEX
  8
0
 62
7
  6
CONTINUOUS
 10
121.1596163962
 20
75.4437809386
  0
VERTEX
  8
0
 62
7
  6
CONTINUOUS
 10
121.227506619
 20
75.3957487736
  0
VERTEX
  8
0
 62
7
  6
CONTINUOUS
 10
121.2842166967
 20
75.3326024505
  0
VERTEX
  8
0
 62
7
  6
CONTINUOUS
 10
121.326977747
 20
75.2574248406
  0
VERTEX
  8
0
 62
7
  6
CONTINUOUS
 10
121.3536954598
 20
75.1738853104
  0
VERTEX
  8
0
 62
7
  6
CONTINUOUS
 10
121.3631246374
 20
75.0860629067
  0
SEQEND
  0
LINE
  8
0
 62
7
  6
CONTINUOUS
 10
118.7141227706
 20
53.7360629067
 11
118.7141227706
 21
53.4860629067
  0
LINE
  8
0
 62
7
  6
CONTINUOUS
 10
118.9700625284
 20
53.7360629067
 11
118.9700625284
 21
53.4860629067
  0
LINE
  8
0
 62
7
  6
CONTINUOUS
 10
119.5575673218
 20
53.7360629067
 11
119.5575673218
 21
53.4860629067
  0
LINE
  8
0
 62
7
  6
CONTINUOUS
 10
119.8822177325
 20
53.7360629067
 11
119.8822177325
 21
53.4860629067
  0
LINE
  8
0
 62
7
  6
CONTINUOUS
 10
120.6114967462
 20
74.9672451055
 11
120.6114967462
 21
66.5048807079
  0
LINE
  8
0
 62
7
  6
CONTINUOUS
 10
120.8773832512
 20
53.7360629067
 11
120.8773832512
 21
53.4860629067
  0
POLYLINE
  8
SURFACE
 62
7
  6
CONTINUOUS
 66
1
 70
0
  0
VERTEX
  8
SURFACE
 62
7
  6
CONTINUOUS
 10
133.4398412627
 20
83.7437809424
  0
VERTEX
  8
SURFACE
 62
7
  6
CONTINUOUS
 10
133.4024885774
 20
83.695748779
  0
VERTEX
  8
SURFACE
 62
7
  6
CONTINUOUS
 10
133.3710832596
 20
83.6326024576
  0
VERTEX
  8
SURFACE
 62
7
  6
CONTINUOUS
 10
133.3471614078
 20
83.557424851
  0
VERTEX
  8
SURFACE
 62
7
  6
CONTINUOUS
 10
133.3319073567
 20
83.4738853307
  0
VERTEX
  8
SURFACE
 62
7
  6
CONTINUOUS
 10
133.3259451216
 20
83.3860629067
  0
SEQEND
  0
POLYLINE
  8
0
 62
7
  6
CONTINUOUS
 66
1
 70
0
  0
VERTEX
  8
0
 62
7
  6
CONTINUOUS
 10
121.0838599063
 20
65.9977722898
  0
VERTEX
  8
0
 62
7
  6
CONTINUOUS
 10
121.1596163999
 20
66.0283448745
  0
VERTEX
  8
0
 62
7
  6
CONTINUOUS
 10
121.2275066266
 20
66.0763770394
  0
VERTEX
  8
0
 62
7
  6
CONTINUOUS
 10
121.2842167097
 20
66.1395233623
  0
VERTEX
  8
0
 62
7
  6
CONTINUOUS
 10
121.3269777698
 20
66.2147009719
  0
VERTEX
  8
0
 62
7
  6
CONTINUOUS
 10
121.3536955098
 20
66.2982405013
  0
VERTEX
  8
0
 62
7
  6
CONTINUOUS
 10
121.3631246372
 20
66.3860629067
  0
SEQEND
  0
LINE
  8
0
 62
7
  6
CONTINUOUS
 10
31.3294667119
 20
75.3144478153
 11
31.0675645043
 21
75.2524669447
  0
POLYLINE
  8
0
 62
7
  6
CONTINUOUS
 66
1
 70
0
  0
VERTEX
  8
0
 62
7
  6
CONTINUOUS
 10
31.972602437
 20
75.4262208946
  0
VERTEX
  8
0
 62
7
  6
CONTINUOUS
 10
31.6367060903
 20
75.3729643443
  0
VERTEX
  8
0
 62
7
  6
CONTINUOUS
 10
31.3294667119
 20
75.3144478153
  0
SEQEND
  0
POLYLINE
  8
SURFACE
 62
7
  6
CONTINUOUS
 66
1
 70
0
  0
VERTEX
  8
SURFACE
 62
7
  6
CONTINUOUS
 10
45.8743996274
 20
83.7824872619
  0
VERTEX
  8
SURFACE
 62
7
  6
CONTINUOUS
 10
45.7241469227
 20
83.7646004831
  0
VERTEX
  8
SURFACE
 62
7
  6
CONTINUOUS
 10
45.4871673615
 20
83.7420843354
  0
VERTEX
  8
SURFACE
 62
7
  6
CONTINUOUS
 10
45.1779616861
 20
83.7175550251
  0
VERTEX
  8
SURFACE
 62
7
  6
CONTINUOUS
 10
44.796202341
 20
83.6913565447
  0
SEQEND
  0
POLYLINE
  8
SURFACE
 62
7
  6
CONTINUOUS
 66
1
 70
0
  0
VERTEX
  8
SURFACE
 62
7
  6
CONTINUOUS
 10
42.8368355037
 20
83.5754383373
  0
VERTEX
  8
SURFACE
 62
7
  6
CONTINUOUS
 10
42.814746559
 20
83.5735505728
  0
VERTEX
  8
SURFACE
 62
7
  6
CONTINUOUS
 10
42.7947252638
 20
83.5715613762
  0
VERTEX
  8
SURFACE
 62
7
  6
CONTINUOUS
 10
42.7756222774
 20
83.5692933541
  0
VERTEX
  8
SURFACE
 62
7
  6
CONTINUOUS
 10
42.7554113949
 20
83.5663230903
  0
VERTEX
  8
SURFACE
 62
7
  6
CONTINUOUS
 10
42.7314253493
 20
83.5617775867
  0
VERTEX
  8
SURFACE
 62
7
  6
CONTINUOUS
 10
42.7007603149
 20
83.5539996149
  0
VERTEX
  8
SURFACE
 62
7
  6
CONTINUOUS
 10
42.6632804327
 20
83.5410507528
  0
VERTEX
  8
SURFACE
 62
7
  6
CONTINUOUS
 10
42.6218858658
 20
83.5217208768
  0
VERTEX
  8
SURFACE
 62
7
  6
CONTINUOUS
 10
42.5799037104
 20
83.4957221791
  0
VERTEX
  8
SURFACE
 62
7
  6
CONTINUOUS
 10
42.5393386318
 20
83.4628647901
  0
VERTEX
  8
SURFACE
 62
7
  6
CONTINUOUS
 10
42.5018131952
 20
83.4231278611
  0
VERTEX
  8
SURFACE
 62
7
  6
CONTINUOUS
 10
42.4689443903
 20
83.3768658528
  0
VERTEX
  8
SURFACE
 62
7
  6
CONTINUOUS
 10
42.4422122897
 20
83.3247128976
  0
VERTEX
  8
SURFACE
 62
7
  6
CONTINUOUS
 10
42.4229719694
 20
83.2676436423
  0
VERTEX
  8
SURFACE
 62
7
  6
CONTINUOUS
 10
42.4123724327
 20
83.206949555
  0
VERTEX
  8
SURFACE
 62
7
  6
CONTINUOUS
 10
42.4105333752
 20
83.1686182524
  0
SEQEND
  0
LINE
  8
SURFACE
 62
7
  6
CONTINUOUS
 10
45.9183499745
 20
83.7859732682
 11
45.8743996672
 21
83.7824872619
  0
POLYLINE
  8
SURFACE
 62
7
  6
CONTINUOUS
 66
1
 70
0
  0
VERTEX
  8
SURFACE
 62
7
  6
CONTINUOUS
 10
42.8894338439
 20
83.5791710471
  0
VERTEX
  8
SURFACE
 62
7
  6
CONTINUOUS
 10
42.8615510736
 20
83.5772960969
  0
VERTEX
  8
SURFACE
 62
7
  6
CONTINUOUS
 10
42.8368355037
 20
83.5754383373
  0
SEQEND
  0
LINE
  8
SURFACE
 62
7
  6
CONTINUOUS
 10
44.796202341
 20
83.6913565447
 11
42.9339008625
 21
83.5818448113
  0
LINE
  8
SURFACE
 62
7
  6
CONTINUOUS
 10
42.9339008625
 20
83.5818448113
 11
42.8894338439
 21
83.5791710471
  0
POLYLINE
  8
SURFACE
 62
7
  6
CONTINUOUS
 66
1
 70
0
  0
VERTEX
  8
SURFACE
 62
7
  6
CONTINUOUS
 10
21.3951307874
 20
83.562691762
  0
VERTEX
  8
SURFACE
 62
7
  6
CONTINUOUS
 10
21.3881832901
 20
83.5622872529
  0
VERTEX
  8
SURFACE
 62
7
  6
CONTINUOUS
 10
21.381229447
 20
83.561833801
  0
VERTEX
  8
SURFACE
 62
7
  6
CONTINUOUS
 10
21.3728455788
 20
83.5611885184
  0
VERTEX
  8
SURFACE
 62
7
  6
CONTINUOUS
 10
21.3606186269
 20
83.5599868147
  0
VERTEX
  8
SURFACE
 62
7
  6
CONTINUOUS
 10
21.3437458683
 20
83.5577409625
  0
VERTEX
  8
SURFACE
 62
7
  6
CONTINUOUS
 10
21.3240664025
 20
83.5542065948
  0
VERTEX
  8
SURFACE
 62
7
  6
CONTINUOUS
 10
21.3031257245
 20
83.5493206823
  0
VERTEX
  8
SURFACE
 62
7
  6
CONTINUOUS
 10
21.2811107914
 20
83.5428800912
  0
VERTEX
  8
SURFACE
 62
7
  6
CONTINUOUS
 10
21.2583626704
 20
83.5347460208
  0
VERTEX
  8
SURFACE
 62
7
  6
CONTINUOUS
 10
21.23518427
 20
83.5248071438
  0
VERTEX
  8
SURFACE
 62
7
  6
CONTINUOUS
 10
21.2119232793
 20
83.51301518
  0
VERTEX
  8
SURFACE
 62
7
  6
CONTINUOUS
 10
21.1889521076
 20
83.4993964181
  0
VERTEX
  8
SURFACE
 62
7
  6
CONTINUOUS
 10
21.1665476009
 20
83.4839854863
  0
VERTEX
  8
SURFACE
 62
7
  6
CONTINUOUS
 10
21.1448150856
 20
83.4667249951
  0
VERTEX
  8
SURFACE
 62
7
  6
CONTINUOUS
 10
21.1238751577
 20
83.4475512875
  0
VERTEX
  8
SURFACE
 62
7
  6
CONTINUOUS
 10
21.1038727718
 20
83.42640107
  0
VERTEX
  8
SURFACE
 62
7
  6
CONTINUOUS
 10
21.0849800653
 20
83.4032154868
  0
VERTEX
  8
SURFACE
 62
7
  6
CONTINUOUS
 10
21.0674058625
 20
83.3779559941
  0
VERTEX
  8
SURFACE
 62
7
  6
CONTINUOUS
 10
21.0514051231
 20
83.3506351162
  0
VERTEX
  8
SURFACE
 62
7
  6
CONTINUOUS
 10
21.0372525739
 20
83.3212996857
  0
VERTEX
  8
SURFACE
 62
7
  6
CONTINUOUS
 10
21.0252357193
 20
83.2900295699
  0
VERTEX
  8
SURFACE
 62
7
  6
CONTINUOUS
 10
21.0156518201
 20
83.2569418317
  0
VERTEX
  8
SURFACE
 62
7
  6
CONTINUOUS
 10
21.0088040361
 20
83.2221948308
  0
VERTEX
  8
SURFACE
 62
7
  6
CONTINUOUS
 10
21.0049966719
 20
83.1859921254
  0
VERTEX
  8
SURFACE
 62
7
  6
CONTINUOUS
 10
21.0042943715
 20
83.1622988999
  0
SEQEND
  0
LINE
  8
SURFACE
 62
7
  6
CONTINUOUS
 10
21.4112499876
 20
83.5635286157
 11
21.3951307874
 21
83.562691762
  0
LINE
  8
SURFACE
 62
7
  6
CONTINUOUS
 10
21.4441361896
 20
83.5650463851
 11
21.4112499876
 21
83.5635286157
  0
LINE
  8
SURFACE
 62
7
  6
CONTINUOUS
 10
21.5734470529
 20
83.5703343256
 11
21.4441361896
 21
83.5650463851
  0
LINE
  8
SURFACE
 62
7
  6
CONTINUOUS
 10
25.6585324401
 20
83.7180088702
 11
27.4926610132
 21
83.7859733652
  0
LINE
  8
SURFACE
 62
7
  6
CONTINUOUS
 10
21.778999892
 20
83.5780762699
 11
21.5734470529
 21
83.5703343256
  0
LINE
  8
SURFACE
 62
7
  6
CONTINUOUS
 10
181.7644610511
 20
83.7180088702
 11
179.9303324792
 21
83.7859733652
  0
LINE
  8
SURFACE
 62
7
  6
CONTINUOUS
 10
185.9267027116
 20
83.5672545806
 11
185.6586216772
 21
83.577539379
  0
LINE
  8
SURFACE
 62
7
  6
CONTINUOUS
 10
185.9943788231
 20
83.5643497048
 11
185.9267027116
 21
83.5672545806
  0
LINE
  8
SURFACE
 62
7
  6
CONTINUOUS
 10
175.2584406906
 20
83.7394744309
 11
174.195903589
 21
83.7859153054
  0
LINE
  8
SURFACE
 62
7
  6
CONTINUOUS
 10
186.0196809744
 20
83.5631294316
 11
185.9943788231
 21
83.5643497048
  0
LINE
  8
SURFACE
 62
7
  6
CONTINUOUS
 10
175.3102345906
 20
83.7369203869
 11
175.2584406906
 21
83.7394744309
  0
POLYLINE
  8
SURFACE
 62
7
  6
CONTINUOUS
 66
1
 70
0
  0
VERTEX
  8
SURFACE
 62
7
  6
CONTINUOUS
 10
175.370844112
 20
83.7334861176
  0
VERTEX
  8
SURFACE
 62
7
  6
CONTINUOUS
 10
175.3528156471
 20
83.7345820706
  0
VERTEX
  8
SURFACE
 62
7
  6
CONTINUOUS
 10
175.3102345906
 20
83.7369203869
  0
SEQEND
  0
POLYLINE
  8
SURFACE
 62
7
  6
CONTINUOUS
 66
1
 70
0
  0
VERTEX
  8
SURFACE
 62
7
  6
CONTINUOUS
 10
178.8275950867
 20
83.7860629067
  0
VERTEX
  8
SURFACE
 62
7
  6
CONTINUOUS
 10
178.8971282382
 20
83.7785037453
  0
VERTEX
  8
SURFACE
 62
7
  6
CONTINUOUS
 10
178.9641481788
 20
83.7560514937
  0
VERTEX
  8
SURFACE
 62
7
  6
CONTINUOUS
 10
179.0261085976
 20
83.7194568005
  0
VERTEX
  8
SURFACE
 62
7
  6
CONTINUOUS
 10
179.0806167138
 20
83.6700100733
  0
VERTEX
  8
SURFACE
 62
7
  6
CONTINUOUS
 10
179.1255256423
 20
83.6095129472
  0
VERTEX
  8
SURFACE
 62
7
  6
CONTINUOUS
 10
179.1590279383
 20
83.5402232042
  0
VERTEX
  8
SURFACE
 62
7
  6
CONTINUOUS
 10
179.1797378643
 20
83.4647737201
  0
VERTEX
  8
SURFACE
 62
7
  6
CONTINUOUS
 10
179.1867551879
 20
83.3860629067
  0
SEQEND
  0
POLYLINE
  8
SURFACE
 62
7
  6
CONTINUOUS
 66
1
 70
0
  0
VERTEX
  8
SURFACE
 62
7
  6
CONTINUOUS
 10
143.5172786128
 20
83.7521837396
  0
VERTEX
  8
SURFACE
 62
7
  6
CONTINUOUS
 10
143.3958334285
 20
83.7689889447
  0
VERTEX
  8
SURFACE
 62
7
  6
CONTINUOUS
 10
143.2903053189
 20
83.7829574653
  0
SEQEND
  0
LINE
  8
SURFACE
 62
7
  6
CONTINUOUS
 10
143.6164823373
 20
83.7377886755
 11
143.5172786128
 21
83.7521837396
  0
POLYLINE
  8
0
 62
7
  6
CONTINUOUS
 66
1
 70
0
  0
VERTEX
  8
0
 62
7
  6
CONTINUOUS
 10
163.0760039427
 20
75.4520371582
  0
VERTEX
  8
0
 62
7
  6
CONTINUOUS
 10
162.9724053067
 20
75.4766708188
  0
VERTEX
  8
0
 62
7
  6
CONTINUOUS
 10
162.8538009579
 20
75.4860629067
  0
SEQEND
  0
POLYLINE
  8
0
 62
7
  6
CONTINUOUS
 66
1
 70
0
  0
VERTEX
  8
0
 62
7
  6
CONTINUOUS
 10
126.5121392269
 20
74.6860629067
  0
VERTEX
  8
0
 62
7
  6
CONTINUOUS
 10
126.5178648522
 20
74.6285248902
  0
VERTEX
  8
0
 62
7
  6
CONTINUOUS
 10
126.5359599593
 20
74.5696760707
  0
VERTEX
  8
0
 62
7
  6
CONTINUOUS
 10
126.56817793
 20
74.5102393298
  0
VERTEX
  8
0
 62
7
  6
CONTINUOUS
 10
126.6149789586
 20
74.4532727539
  0
VERTEX
  8
0
 62
7
  6
CONTINUOUS
 10
126.6761019711
 20
74.4012651826
  0
VERTEX
  8
0
 62
7
  6
CONTINUOUS
 10
126.7512693661
 20
74.3562059604
  0
VERTEX
  8
0
 62
7
  6
CONTINUOUS
 10
126.8404890103
 20
74.3200886552
  0
VERTEX
  8
0
 62
7
  6
CONTINUOUS
 10
126.9440876464
 20
74.2954549947
  0
VERTEX
  8
0
 62
7
  6
CONTINUOUS
 10
127.0626919951
 20
74.2860629067
  0
SEQEND
  0
POLYLINE
  8
0
 62
7
  6
CONTINUOUS
 66
1
 70
0
  0
VERTEX
  8
0
 62
7
  6
CONTINUOUS
 10
122.0854902752
 20
75.0860629067
  0
VERTEX
  8
0
 62
7
  6
CONTINUOUS
 10
122.079792245
 20
75.1647737201
  0
VERTEX
  8
0
 62
7
  6
CONTINUOUS
 10
122.0629798713
 20
75.2402232042
  0
VERTEX
  8
0
 62
7
  6
CONTINUOUS
 10
122.0357951448
 20
75.3095129472
  0
VERTEX
  8
0
 62
7
  6
CONTINUOUS
 10
121.9993788673
 20
75.3700100733
  0
VERTEX
  8
0
 62
7
  6
CONTINUOUS
 10
121.9552154573
 20
75.4194568005
  0
VERTEX
  8
0
 62
7
  6
CONTINUOUS
 10
121.9050624774
 20
75.4560514937
  0
VERTEX
  8
0
 62
7
  6
CONTINUOUS
 10
121.8508713954
 20
75.4785037453
  0
VERTEX
  8
0
 62
7
  6
CONTINUOUS
 10
121.7947102125
 20
75.4860629067
  0
SEQEND
  0
LINE
  8
0
 62
7
  6
CONTINUOUS
 10
121.5884797599
 20
53.7360629067
 11
121.5884797599
 21
53.4860629067
  0
LINE
  8
0
 62
7
  6
CONTINUOUS
 10
121.5986734902
 20
53.7360629067
 11
121.5986734902
 21
53.4860629067
  0
LINE
  8
0
 62
7
  6
CONTINUOUS
 10
122.053310795
 20
53.7360629067
 11
122.053310795
 21
53.4860629067
  0
LINE
  8
0
 62
7
  6
CONTINUOUS
 10
122.0854902752
 20
75.0860629067
 11
122.0854902752
 21
66.3860629067
  0
LINE
  8
0
 62
7
  6
CONTINUOUS
 10
122.4206879019
 20
53.7360629067
 11
122.4206879019
 21
53.4860629067
  0
LINE
  8
0
 62
7
  6
CONTINUOUS
 10
122.6870241282
 20
53.7360629067
 11
122.6870241282
 21
53.4860629067
  0
LINE
  8
0
 62
7
  6
CONTINUOUS
 10
123.1186868055
 20
53.7360629067
 11
123.1186868055
 21
53.4860629067
  0
LINE
  8
0
 62
7
  6
CONTINUOUS
 10
123.6146245432
 20
53.7360629067
 11
123.6146245432
 21
53.4860629067
  0
LINE
  8
0
 62
7
  6
CONTINUOUS
 10
124.3401534238
 20
53.7360629067
 11
124.3401534238
 21
53.4860629067
  0
LINE
  8
0
 62
7
  6
CONTINUOUS
 10
125.0794526187
 20
53.7360629067
 11
125.0794526187
 21
53.4860629067
  0
LINE
  8
0
 62
7
  6
CONTINUOUS
 10
125.7177213014
 20
53.7360629067
 11
125.7177213014
 21
53.4860629067
  0
LINE
  8
0
 62
7
  6
CONTINUOUS
 10
126.1401586455
 20
53.7360629067
 11
126.1401586455
 21
53.4860629067
  0
LINE
  8
0
 62
7
  6
CONTINUOUS
 10
126.3330048467
 20
53.7360629067
 11
126.3330048467
 21
53.4860629067
  0
LINE
  8
0
 62
7
  6
CONTINUOUS
 10
126.3605454753
 20
53.7360629067
 11
126.3605454753
 21
53.4860629067
  0
LINE
  8
0
 62
7
  6
CONTINUOUS
 10
126.5121392269
 20
75.0860629067
 11
126.5121392269
 21
74.6860629067
  0
LINE
  8
0
 62
7
  6
CONTINUOUS
 10
105.3569450134
 20
53.7360629067
 11
103.7114967462
 21
52.7860629067
  0
POLYLINE
  8
0
 62
7
  6
CONTINUOUS
 66
1
 70
0
  0
VERTEX
  8
0
 62
7
  6
CONTINUOUS
 10
147.178482892
 20
75.0860629068
  0
VERTEX
  8
0
 62
7
  6
CONTINUOUS
 10
147.3890359989
 20
75.2009786548
  0
VERTEX
  8
0
 62
7
  6
CONTINUOUS
 10
147.5853918275
 20
75.300402481
  0
VERTEX
  8
0
 62
7
  6
CONTINUOUS
 10
147.76964479
 20
75.3805540701
  0
VERTEX
  8
0
 62
7
  6
CONTINUOUS
 10
147.9429152584
 20
75.4391142827
  0
VERTEX
  8
0
 62
7
  6
CONTINUOUS
 10
148.1046302251
 20
75.4744848448
  0
VERTEX
  8
0
 62
7
  6
CONTINUOUS
 10
148.2517652198
 20
75.4860629067
  0
SEQEND
  0
POLYLINE
  8
SURFACE
 62
7
  6
CONTINUOUS
 66
1
 70
0
  0
VERTEX
  8
SURFACE
 62
7
  6
CONTINUOUS
 10
176.3554217074
 20
74.5196578474
  0
VERTEX
  8
SURFACE
 62
7
  6
CONTINUOUS
 10
176.3792376587
 20
74.5268070874
  0
VERTEX
  8
SURFACE
 62
7
  6
CONTINUOUS
 10
176.4119155914
 20
74.5392928253
  0
VERTEX
  8
SURFACE
 62
7
  6
CONTINUOUS
 10
176.4448331843
 20
74.5553397509
  0
VERTEX
  8
SURFACE
 62
7
  6
CONTINUOUS
 10
176.4774180715
 20
74.5751637796
  0
VERTEX
  8
SURFACE
 62
7
  6
CONTINUOUS
 10
176.5090879168
 20
74.5989128444
  0
VERTEX
  8
SURFACE
 62
7
  6
CONTINUOUS
 10
176.5391096969
 20
74.6265315862
  0
VERTEX
  8
SURFACE
 62
7
  6
CONTINUOUS
 10
176.5667132297
 20
74.6577451546
  0
VERTEX
  8
SURFACE
 62
7
  6
CONTINUOUS
 10
176.591303669
 20
74.6922544949
  0
VERTEX
  8
SURFACE
 62
7
  6
CONTINUOUS
 10
176.6124717862
 20
74.7299033158
  0
VERTEX
  8
SURFACE
 62
7
  6
CONTINUOUS
 10
176.6297222483
 20
74.7703329516
  0
VERTEX
  8
SURFACE
 62
7
  6
CONTINUOUS
 10
176.64260295
 20
74.8131025435
  0
VERTEX
  8
SURFACE
 62
7
  6
CONTINUOUS
 10
176.6507191612
 20
74.8576947577
  0
VERTEX
  8
SURFACE
 62
7
  6
CONTINUOUS
 10
176.6537614937
 20
74.9069485556
  0
SEQEND
  0
LINE
  8
SURFACE
 62
7
  6
CONTINUOUS
 10
46.7114967462
 20
96.0360629067
 11
160.7114967462
 21
96.0360629067
  0
POLYLINE
  8
SURFACE
 62
7
  6
CONTINUOUS
 66
1
 70
0
  0
VERTEX
  8
SURFACE
 62
7
  6
CONTINUOUS
 10
175.4503993248
 20
83.72621926
  0
VERTEX
  8
SURFACE
 62
7
  6
CONTINUOUS
 10
175.4409764078
 20
83.7275031049
  0
VERTEX
  8
SURFACE
 62
7
  6
CONTINUOUS
 10
175.4269461331
 20
83.7291083872
  0
VERTEX
  8
SURFACE
 62
7
  6
CONTINUOUS
 10
175.4141933244
 20
83.7303192731
  0
VERTEX
  8
SURFACE
 62
7
  6
CONTINUOUS
 10
175.4011467931
 20
83.731388779
  0
VERTEX
  8
SURFACE
 62
7
  6
CONTINUOUS
 10
175.3868735221
 20
83.7324280224
  0
VERTEX
  8
SURFACE
 62
7
  6
CONTINUOUS
 10
175.370844112
 20
83.7334861176
  0
SEQEND
  0
POLYLINE
  8
SURFACE
 62
7
  6
CONTINUOUS
 66
1
 70
0
  0
VERTEX
  8
SURFACE
 62
7
  6
CONTINUOUS
 10
167.6515545388
 20
83.7860629067
  0
VERTEX
  8
SURFACE
 62
7
  6
CONTINUOUS
 10
167.6863781703
 20
83.7785037453
  0
VERTEX
  8
SURFACE
 62
7
  6
CONTINUOUS
 10
167.7199061804
 20
83.7560514937
  0
VERTEX
  8
SURFACE
 62
7
  6
CONTINUOUS
 10
167.750870353
 20
83.7194568005
  0
VERTEX
  8
SURFACE
 62
7
  6
CONTINUOUS
 10
167.7780839807
 20
83.6700100733
  0
VERTEX
  8
SURFACE
 62
7
  6
CONTINUOUS
 10
167.800486412
 20
83.6095129472
  0
VERTEX
  8
SURFACE
 62
7
  6
CONTINUOUS
 10
167.817187623
 20
83.5402232042
  0
VERTEX
  8
SURFACE
 62
7
  6
CONTINUOUS
 10
167.8275069306
 20
83.4647737201
  0
VERTEX
  8
SURFACE
 62
7
  6
CONTINUOUS
 10
167.8310026779
 20
83.3860629067
  0
SEQEND
  0
POLYLINE
  8
SURFACE
 62
7
  6
CONTINUOUS
 66
1
 70
0
  0
VERTEX
  8
SURFACE
 62
7
  6
CONTINUOUS
 10
133.4398412683
 20
74.3283448712
  0
VERTEX
  8
SURFACE
 62
7
  6
CONTINUOUS
 10
133.402488588
 20
74.3763770348
  0
VERTEX
  8
SURFACE
 62
7
  6
CONTINUOUS
 10
133.3710832775
 20
74.4395233562
  0
VERTEX
  8
SURFACE
 62
7
  6
CONTINUOUS
 10
133.3471614386
 20
74.5147009631
  0
VERTEX
  8
SURFACE
 62
7
  6
CONTINUOUS
 10
133.3319074239
 20
74.5982404839
  0
VERTEX
  8
SURFACE
 62
7
  6
CONTINUOUS
 10
133.3259451213
 20
74.6860629067
  0
SEQEND
  0
POLYLINE
  8
0
 62
7
  6
CONTINUOUS
 66
1
 70
0
  0
VERTEX
  8
0
 62
7
  6
CONTINUOUS
 10
126.5121392269
 20
75.0860629067
  0
VERTEX
  8
0
 62
7
  6
CONTINUOUS
 10
126.5050619649
 20
75.1436009233
  0
VERTEX
  8
0
 62
7
  6
CONTINUOUS
 10
126.4826951825
 20
75.2024497427
  0
VERTEX
  8
0
 62
7
  6
CONTINUOUS
 10
126.4428715806
 20
75.2618864836
  0
VERTEX
  8
0
 62
7
  6
CONTINUOUS
 10
126.3850223278
 20
75.3188530596
  0
VERTEX
  8
0
 62
7
  6
CONTINUOUS
 10
126.3094701294
 20
75.3708606309
  0
VERTEX
  8
0
 62
7
  6
CONTINUOUS
 10
126.2165581195
 20
75.415919853
  0
VERTEX
  8
0
 62
7
  6
CONTINUOUS
 10
126.1062765743
 20
75.4520371582
  0
VERTEX
  8
0
 62
7
  6
CONTINUOUS
 10
125.9782216178
 20
75.4766708188
  0
VERTEX
  8
0
 62
7
  6
CONTINUOUS
 10
125.8316185803
 20
75.4860629067
  0
SEQEND
  0
POLYLINE
  8
SURFACE
 62
7
  6
CONTINUOUS
 66
1
 70
0
  0
VERTEX
  8
SURFACE
 62
7
  6
CONTINUOUS
 10
131.9837782439
 20
74.6860629067
  0
VERTEX
  8
SURFACE
 62
7
  6
CONTINUOUS
 10
131.9851393295
 20
74.6073520934
  0
VERTEX
  8
SURFACE
 62
7
  6
CONTINUOUS
 10
131.9891522651
 20
74.5319026092
  0
VERTEX
  8
SURFACE
 62
7
  6
CONTINUOUS
 10
131.995631434
 20
74.4626128662
  0
VERTEX
  8
SURFACE
 62
7
  6
CONTINUOUS
 10
132.0042924673
 20
74.4021157401
  0
VERTEX
  8
SURFACE
 62
7
  6
CONTINUOUS
 10
132.0147680088
 20
74.3526690129
  0
VERTEX
  8
SURFACE
 62
7
  6
CONTINUOUS
 10
132.0266273439
 20
74.3160743197
  0
VERTEX
  8
SURFACE
 62
7
  6
CONTINUOUS
 10
132.0393978247
 20
74.2936220681
  0
VERTEX
  8
SURFACE
 62
7
  6
CONTINUOUS
 10
132.0525851567
 20
74.2860629067
  0
SEQEND
  0
LINE
  8
0
 62
7
  6
CONTINUOUS
 10
128.6666154137
 20
53.7360629067
 11
128.6666154137
 21
53.4860629067
  0
LINE
  8
0
 62
7
  6
CONTINUOUS
 10
131.2660110948
 20
53.7360629067
 11
131.2660110948
 21
53.4860629067
  0
LINE
  8
0
 62
7
  6
CONTINUOUS
 10
131.7438260421
 20
53.7360629067
 11
131.7438260421
 21
53.4860629067
  0
LINE
  8
SURFACE
 62
7
  6
CONTINUOUS
 10
131.9837782439
 20
74.6860629067
 11
131.9837782439
 21
83.3860629067
  0
LINE
  8
0
 62
7
  6
CONTINUOUS
 10
131.9858547546
 20
53.7360629067
 11
131.9858547546
 21
53.4860629067
  0
LINE
  8
0
 62
7
  6
CONTINUOUS
 10
132.0558494943
 20
53.7360629067
 11
132.0558494943
 21
53.4860629067
  0
POLYLINE
  8
SURFACE
 62
7
  6
CONTINUOUS
 66
1
 70
0
  0
VERTEX
  8
SURFACE
 62
7
  6
CONTINUOUS
 10
179.9303344115
 20
83.785973269
  0
VERTEX
  8
SURFACE
 62
7
  6
CONTINUOUS
 10
179.9891516801
 20
83.774353535
  0
VERTEX
  8
SURFACE
 62
7
  6
CONTINUOUS
 10
180.04461887
 20
83.7437809593
  0
VERTEX
  8
SURFACE
 62
7
  6
CONTINUOUS
 10
180.094029387
 20
83.6957488024
  0
VERTEX
  8
SURFACE
 62
7
  6
CONTINUOUS
 10
180.1349729781
 20
83.6326024884
  0
VERTEX
  8
SURFACE
 62
7
  6
CONTINUOUS
 10
180.1654547741
 20
83.5574248956
  0
VERTEX
  8
SURFACE
 62
7
  6
CONTINUOUS
 10
180.1840015004
 20
83.4738854177
  0
VERTEX
  8
SURFACE
 62
7
  6
CONTINUOUS
 10
180.1896146751
 20
83.3860629067
  0
SEQEND
  0
POLYLINE
  8
SURFACE
 62
7
  6
CONTINUOUS
 66
1
 70
0
  0
VERTEX
  8
SURFACE
 62
7
  6
CONTINUOUS
 10
176.3554257171
 20
83.5524678202
  0
VERTEX
  8
SURFACE
 62
7
  6
CONTINUOUS
 10
176.0929159218
 20
83.6145768304
  0
VERTEX
  8
SURFACE
 62
7
  6
CONTINUOUS
 10
175.7855763428
 20
83.6730872171
  0
VERTEX
  8
SURFACE
 62
7
  6
CONTINUOUS
 10
175.450389862
 20
83.7262210689
  0
SEQEND
  0
LINE
  8
SURFACE
 62
7
  6
CONTINUOUS
 10
176.3554822538
 20
83.5524517552
 11
176.355425485
 21
83.5524669546
  0
LINE
  8
0
 62
7
  6
CONTINUOUS
 10
134.100999339
 20
53.7360629067
 11
134.100999339
 21
53.4860629067
  0
LINE
  8
0
 62
7
  6
CONTINUOUS
 10
136.5074550866
 20
53.7360629067
 11
136.5074550866
 21
53.4860629067
  0
LINE
  8
0
 62
7
  6
CONTINUOUS
 10
136.9325780769
 20
53.7360629067
 11
136.9325780769
 21
53.4860629067
  0
LINE
  8
0
 62
7
  6
CONTINUOUS
 10
137.1049636838
 20
53.7360629067
 11
137.1049636838
 21
53.4860629067
  0
POLYLINE
  8
SURFACE
 62
7
  6
CONTINUOUS
 66
1
 70
0
  0
VERTEX
  8
SURFACE
 62
7
  6
CONTINUOUS
 10
143.9729680171
 20
83.337823907
  0
VERTEX
  8
SURFACE
 62
7
  6
CONTINUOUS
 10
143.9717303416
 20
83.3692876075
  0
VERTEX
  8
SURFACE
 62
7
  6
CONTINUOUS
 10
143.963133684
 20
83.4260372773
  0
VERTEX
  8
SURFACE
 62
7
  6
CONTINUOUS
 10
143.9467146385
 20
83.4804531455
  0
VERTEX
  8
SURFACE
 62
7
  6
CONTINUOUS
 10
143.9232086403
 20
83.5311882313
  0
VERTEX
  8
SURFACE
 62
7
  6
CONTINUOUS
 10
143.893643471
 20
83.5771249215
  0
VERTEX
  8
SURFACE
 62
7
  6
CONTINUOUS
 10
143.8592523013
 20
83.6174509369
  0
VERTEX
  8
SURFACE
 62
7
  6
CONTINUOUS
 10
143.8214564779
 20
83.6516263382
  0
VERTEX
  8
SURFACE
 62
7
  6
CONTINUOUS
 10
143.7819411159
 20
83.6793491551
  0
VERTEX
  8
SURFACE
 62
7
  6
CONTINUOUS
 10
143.7423164845
 20
83.7008042071
  0
VERTEX
  8
SURFACE
 62
7
  6
CONTINUOUS
 10
143.7040698136
 20
83.7165398131
  0
VERTEX
  8
SURFACE
 62
7
  6
CONTINUOUS
 10
143.6687975167
 20
83.7273182653
  0
VERTEX
  8
SURFACE
 62
7
  6
CONTINUOUS
 10
143.6384074087
 20
83.7341027893
  0
VERTEX
  8
SURFACE
 62
7
  6
CONTINUOUS
 10
143.6165270145
 20
83.7377815708
  0
SEQEND
  0
LINE
  8
0
 62
7
  6
CONTINUOUS
 10
143.0494360558
 20
53.7360629067
 11
143.0494360558
 21
53.4860629067
  0
LINE
  8
SURFACE
 62
7
  6
CONTINUOUS
 10
143.9729681195
 20
74.7342727627
 11
143.9729681195
 21
83.3378530507
  0
POLYLINE
  8
SURFACE
 62
7
  6
CONTINUOUS
 66
1
 70
0
  0
VERTEX
  8
SURFACE
 62
7
  6
CONTINUOUS
 10
169.2430196819
 20
83.7859731496
  0
VERTEX
  8
SURFACE
 62
7
  6
CONTINUOUS
 10
169.243075026
 20
83.7860235652
  0
VERTEX
  8
SURFACE
 62
7
  6
CONTINUOUS
 10
169.2438619072
 20
83.7860534795
  0
VERTEX
  8
SURFACE
 62
7
  6
CONTINUOUS
 10
169.244501549
 20
83.786060754
  0
SEQEND
  0
POLYLINE
  8
0
 62
7
  6
CONTINUOUS
 66
1
 70
0
  0
VERTEX
  8
0
 62
7
  6
CONTINUOUS
 10
163.2610484126
 20
75.3532838991
  0
VERTEX
  8
0
 62
7
  6
CONTINUOUS
 10
163.240390982
 20
75.3708606309
  0
VERTEX
  8
0
 62
7
  6
CONTINUOUS
 10
163.165223587
 20
75.415919853
  0
VERTEX
  8
0
 62
7
  6
CONTINUOUS
 10
163.0760039427
 20
75.4520371582
  0
SEQEND
  0
LINE
  8
0
 62
7
  6
CONTINUOUS
 10
148.121130421
 20
53.7360629067
 11
148.121130421
 21
53.4860629067
  0
LINE
  8
0
 62
7
  6
CONTINUOUS
 10
149.7240898923
 20
53.7360629067
 11
149.7240898923
 21
53.4860629067
  0
LINE
  8
0
 62
7
  6
CONTINUOUS
 10
149.9501354808
 20
53.7360629067
 11
149.9501354808
 21
53.4860629067
  0
POLYLINE
  8
SURFACE
 62
7
  6
CONTINUOUS
 66
1
 70
0
  0
VERTEX
  8
SURFACE
 62
7
  6
CONTINUOUS
 10
169.2430196791
 20
74.2861526638
  0
VERTEX
  8
SURFACE
 62
7
  6
CONTINUOUS
 10
169.2430750259
 20
74.2861022483
  0
VERTEX
  8
SURFACE
 62
7
  6
CONTINUOUS
 10
169.243861907
 20
74.286072334
  0
VERTEX
  8
SURFACE
 62
7
  6
CONTINUOUS
 10
169.2453053255
 20
74.2860629067
  0
SEQEND
  0
POLYLINE
  8
0
 62
7
  6
CONTINUOUS
 66
1
 70
0
  0
VERTEX
  8
0
 62
7
  6
CONTINUOUS
 10
153.5612024959
 20
66.3860629067
  0
VERTEX
  8
0
 62
7
  6
CONTINUOUS
 10
153.5651986796
 20
66.3164915345
  0
VERTEX
  8
0
 62
7
  6
CONTINUOUS
 10
153.5761020566
 20
66.2492801276
  0
VERTEX
  8
0
 62
7
  6
CONTINUOUS
 10
153.5929868741
 20
66.1863574276
  0
VERTEX
  8
0
 62
7
  6
CONTINUOUS
 10
153.61540341
 20
66.1295279866
  0
VERTEX
  8
0
 62
7
  6
CONTINUOUS
 10
153.6427010533
 20
66.0804223536
  0
VERTEX
  8
0
 62
7
  6
CONTINUOUS
 10
153.6740936699
 20
66.0404659205
  0
VERTEX
  8
0
 62
7
  6
CONTINUOUS
 10
153.7086831688
 20
66.0108494866
  0
VERTEX
  8
0
 62
7
  6
CONTINUOUS
 10
153.745479107
 20
65.9925022958
  0
VERTEX
  8
0
 62
7
  6
CONTINUOUS
 10
153.7849458508
 20
65.9860629067
  0
SEQEND
  0
LINE
  8
0
 62
7
  6
CONTINUOUS
 10
152.2937601981
 20
53.7360629067
 11
152.2937601981
 21
53.4860629067
  0
LINE
  8
0
 62
7
  6
CONTINUOUS
 10
152.7220571816
 20
53.7360629067
 11
152.7220571816
 21
53.4860629067
  0
LINE
  8
0
 62
7
  6
CONTINUOUS
 10
153.35879896
 20
53.7360629067
 11
153.35879896
 21
53.4860629067
  0
LINE
  8
0
 62
7
  6
CONTINUOUS
 10
153.9620252785
 20
53.7360629067
 11
153.9620252785
 21
53.4860629067
  0
LINE
  8
0
 62
7
  6
CONTINUOUS
 10
154.5234986093
 20
53.7360629067
 11
154.5234986093
 21
53.4860629067
  0
LINE
  8
0
 62
7
  6
CONTINUOUS
 10
154.8428376075
 20
53.7360629067
 11
154.8428376075
 21
53.4860629067
  0
LINE
  8
0
 62
7
  6
CONTINUOUS
 10
155.0014587035
 20
53.7360629067
 11
155.0014587035
 21
53.4860629067
  0
LINE
  8
0
 62
7
  6
CONTINUOUS
 10
155.0786669996
 20
53.7360629067
 11
155.0786669996
 21
53.4860629067
  0
POLYLINE
  8
0
 62
7
  6
CONTINUOUS
 66
1
 70
0
  0
VERTEX
  8
0
 62
7
  6
CONTINUOUS
 10
153.5612024959
 20
75.0860629067
  0
VERTEX
  8
0
 62
7
  6
CONTINUOUS
 10
153.5651249037
 20
75.1549882631
  0
VERTEX
  8
0
 62
7
  6
CONTINUOUS
 10
153.5759381406
 20
75.2220748608
  0
VERTEX
  8
0
 62
7
  6
CONTINUOUS
 10
153.5928072257
 20
75.2852200733
  0
VERTEX
  8
0
 62
7
  6
CONTINUOUS
 10
153.6153190913
 20
75.3424180554
  0
VERTEX
  8
0
 62
7
  6
CONTINUOUS
 10
153.6428006847
 20
75.3918545789
  0
VERTEX
  8
0
 62
7
  6
CONTINUOUS
 10
153.6743958018
 20
75.431977996
  0
VERTEX
  8
0
 62
7
  6
CONTINUOUS
 10
153.7091059872
 20
75.4615597227
  0
VERTEX
  8
0
 62
7
  6
CONTINUOUS
 10
153.7458320999
 20
75.4797402294
  0
VERTEX
  8
0
 62
7
  6
CONTINUOUS
 10
153.7849458508
 20
75.4860629067
  0
SEQEND
  0
POLYLINE
  8
SURFACE
 62
7
  6
CONTINUOUS
 66
1
 70
0
  0
VERTEX
  8
SURFACE
 62
7
  6
CONTINUOUS
 10
169.2430198516
 20
74.2861525449
  0
VERTEX
  8
SURFACE
 62
7
  6
CONTINUOUS
 10
169.2524408567
 20
74.2977722835
  0
VERTEX
  8
SURFACE
 62
7
  6
CONTINUOUS
 10
169.2610880364
 20
74.3283448631
  0
VERTEX
  8
SURFACE
 62
7
  6
CONTINUOUS
 10
169.268540182
 20
74.3763770236
  0
VERTEX
  8
SURFACE
 62
7
  6
CONTINUOUS
 10
169.2744351546
 20
74.4395233415
  0
VERTEX
  8
SURFACE
 62
7
  6
CONTINUOUS
 10
169.2784894173
 20
74.5147009417
  0
VERTEX
  8
SURFACE
 62
7
  6
CONTINUOUS
 10
169.2805243903
 20
74.5982404423
  0
VERTEX
  8
SURFACE
 62
7
  6
CONTINUOUS
 10
169.2803086778
 20
74.6860629067
  0
SEQEND
  0
POLYLINE
  8
SURFACE
 62
7
  6
CONTINUOUS
 66
1
 70
0
  0
VERTEX
  8
SURFACE
 62
7
  6
CONTINUOUS
 10
169.2430198544
 20
83.7859732686
  0
VERTEX
  8
SURFACE
 62
7
  6
CONTINUOUS
 10
169.2524408538
 20
83.7743535302
  0
VERTEX
  8
SURFACE
 62
7
  6
CONTINUOUS
 10
169.2610880273
 20
83.7437809506
  0
VERTEX
  8
SURFACE
 62
7
  6
CONTINUOUS
 10
169.2685401652
 20
83.6957487903
  0
VERTEX
  8
SURFACE
 62
7
  6
CONTINUOUS
 10
169.2744351265
 20
83.6326024725
  0
VERTEX
  8
SURFACE
 62
7
  6
CONTINUOUS
 10
169.2784893691
 20
83.5574248725
  0
VERTEX
  8
SURFACE
 62
7
  6
CONTINUOUS
 10
169.2805242855
 20
83.4738853727
  0
VERTEX
  8
SURFACE
 62
7
  6
CONTINUOUS
 10
169.2803086783
 20
83.3860629067
  0
SEQEND
  0
POLYLINE
  8
0
 62
7
  6
CONTINUOUS
 66
1
 70
0
  0
VERTEX
  8
0
 62
7
  6
CONTINUOUS
 10
165.0124601172
 20
74.8686182205
  0
VERTEX
  8
0
 62
7
  6
CONTINUOUS
 10
165.0114332441
 20
74.8972754599
  0
VERTEX
  8
0
 62
7
  6
CONTINUOUS
 10
165.0031355119
 20
74.9545257297
  0
VERTEX
  8
0
 62
7
  6
CONTINUOUS
 10
164.986947243
 20
75.0092599541
  0
VERTEX
  8
0
 62
7
  6
CONTINUOUS
 10
164.9636616423
 20
75.0601871597
  0
VERTEX
  8
0
 62
7
  6
CONTINUOUS
 10
164.9343302235
 20
75.1062505619
  0
VERTEX
  8
0
 62
7
  6
CONTINUOUS
 10
164.9001789116
 20
75.1466919608
  0
VERTEX
  8
0
 62
7
  6
CONTINUOUS
 10
164.8626099444
 20
75.1809988695
  0
VERTEX
  8
0
 62
7
  6
CONTINUOUS
 10
164.8231925923
 20
75.2089334582
  0
VERTEX
  8
0
 62
7
  6
CONTINUOUS
 10
164.7834527344
 20
75.230661981
  0
VERTEX
  8
0
 62
7
  6
CONTINUOUS
 10
164.7444570011
 20
75.246808245
  0
VERTEX
  8
0
 62
7
  6
CONTINUOUS
 10
164.7082005308
 20
75.257853078
  0
VERTEX
  8
0
 62
7
  6
CONTINUOUS
 10
164.6789519743
 20
75.26432174
  0
VERTEX
  8
0
 62
7
  6
CONTINUOUS
 10
164.6555681593
 20
75.2681704706
  0
VERTEX
  8
0
 62
7
  6
CONTINUOUS
 10
164.6347884299
 20
75.2708353276
  0
VERTEX
  8
0
 62
7
  6
CONTINUOUS
 10
164.6138630757
 20
75.2730242351
  0
VERTEX
  8
0
 62
7
  6
CONTINUOUS
 10
164.5909467052
 20
75.2750504312
  0
VERTEX
  8
0
 62
7
  6
CONTINUOUS
 10
164.565136636
 20
75.2770318407
  0
SEQEND
  0
LINE
  8
0
 62
7
  6
CONTINUOUS
 10
163.7114967462
 20
59.9860629067
 11
163.7114967462
 21
56.7360629067
  0
LINE
  8
SURFACE
 62
7
  6
CONTINUOUS
 10
163.7114967462
 20
89.7860629067
 11
163.7114967462
 21
93.0360629067
  0
LINE
  8
0
 62
7
  6
CONTINUOUS
 10
165.0124601367
 20
74.8686464299
 11
165.0124601367
 21
66.6034793835
  0
LINE
  8
SURFACE
 62
7
  6
CONTINUOUS
 10
167.8310026779
 20
74.6860629067
 11
167.8310026779
 21
83.3860629067
  0
POLYLINE
  8
SURFACE
 62
7
  6
CONTINUOUS
 66
1
 70
0
  0
VERTEX
  8
SURFACE
 62
7
  6
CONTINUOUS
 10
167.8310026779
 20
74.6860629067
  0
VERTEX
  8
SURFACE
 62
7
  6
CONTINUOUS
 10
167.8275069306
 20
74.6073520934
  0
VERTEX
  8
SURFACE
 62
7
  6
CONTINUOUS
 10
167.817187623
 20
74.5319026092
  0
VERTEX
  8
SURFACE
 62
7
  6
CONTINUOUS
 10
167.800486412
 20
74.4626128662
  0
VERTEX
  8
SURFACE
 62
7
  6
CONTINUOUS
 10
167.7780839807
 20
74.4021157401
  0
VERTEX
  8
SURFACE
 62
7
  6
CONTINUOUS
 10
167.750870353
 20
74.3526690129
  0
VERTEX
  8
SURFACE
 62
7
  6
CONTINUOUS
 10
167.7199061804
 20
74.3160743197
  0
VERTEX
  8
SURFACE
 62
7
  6
CONTINUOUS
 10
167.6863781703
 20
74.2936220681
  0
VERTEX
  8
SURFACE
 62
7
  6
CONTINUOUS
 10
167.6515545388
 20
74.2860629067
  0
SEQEND
  0
POLYLINE
  8
SURFACE
 62
7
  6
CONTINUOUS
 66
1
 70
0
  0
VERTEX
  8
SURFACE
 62
7
  6
CONTINUOUS
 10
176.6537614941
 20
83.165177263
  0
VERTEX
  8
SURFACE
 62
7
  6
CONTINUOUS
 10
176.6532454135
 20
83.1854958792
  0
VERTEX
  8
SURFACE
 62
7
  6
CONTINUOUS
 10
176.6468619992
 20
83.2391701192
  0
VERTEX
  8
SURFACE
 62
7
  6
CONTINUOUS
 10
176.6335967403
 20
83.290611724
  0
VERTEX
  8
SURFACE
 62
7
  6
CONTINUOUS
 10
176.6141018438
 20
83.3388786395
  0
VERTEX
  8
SURFACE
 62
7
  6
CONTINUOUS
 10
176.5891702257
 20
83.3831917311
  0
VERTEX
  8
SURFACE
 62
7
  6
CONTINUOUS
 10
176.5596960286
 20
83.4229544878
  0
VERTEX
  8
SURFACE
 62
7
  6
CONTINUOUS
 10
176.5266293185
 20
83.4577665023
  0
VERTEX
  8
SURFACE
 62
7
  6
CONTINUOUS
 10
176.4910114159
 20
83.487363731
  0
VERTEX
  8
SURFACE
 62
7
  6
CONTINUOUS
 10
176.4538740992
 20
83.5117054454
  0
VERTEX
  8
SURFACE
 62
7
  6
CONTINUOUS
 10
176.4162068222
 20
83.5309476193
  0
VERTEX
  8
SURFACE
 62
7
  6
CONTINUOUS
 10
176.3794477995
 20
83.5452485748
  0
VERTEX
  8
SURFACE
 62
7
  6
CONTINUOUS
 10
176.3554822538
 20
83.5524517552
  0
SEQEND
  0
POLYLINE
  8
0
 62
7
  6
CONTINUOUS
 66
1
 70
0
  0
VERTEX
  8
0
 62
7
  6
CONTINUOUS
 10
178.2311597606
 20
75.2220748605
  0
VERTEX
  8
0
 62
7
  6
CONTINUOUS
 10
178.2307314226
 20
75.2852200732
  0
VERTEX
  8
0
 62
7
  6
CONTINUOUS
 10
178.2296133236
 20
75.3424180553
  0
VERTEX
  8
0
 62
7
  6
CONTINUOUS
 10
178.2278579193
 20
75.3918545788
  0
VERTEX
  8
0
 62
7
  6
CONTINUOUS
 10
178.2255271011
 20
75.431977996
  0
VERTEX
  8
0
 62
7
  6
CONTINUOUS
 10
178.2226987204
 20
75.4615597227
  0
VERTEX
  8
0
 62
7
  6
CONTINUOUS
 10
178.2194657389
 20
75.4797402294
  0
VERTEX
  8
0
 62
7
  6
CONTINUOUS
 10
178.2163914711
 20
75.4860629067
  0
SEQEND
  0
POLYLINE
  8
0
 62
7
  6
CONTINUOUS
 66
1
 70
0
  0
VERTEX
  8
0
 62
7
  6
CONTINUOUS
 10
178.23031879
 20
66.3860629067
  0
VERTEX
  8
0
 62
7
  6
CONTINUOUS
 10
178.2311589716
 20
66.2492801279
  0
VERTEX
  8
0
 62
7
  6
CONTINUOUS
 10
178.2307243022
 20
66.1863574278
  0
VERTEX
  8
0
 62
7
  6
CONTINUOUS
 10
178.2296084697
 20
66.1295279867
  0
VERTEX
  8
0
 62
7
  6
CONTINUOUS
 10
178.2278648119
 20
66.0804223537
  0
VERTEX
  8
0
 62
7
  6
CONTINUOUS
 10
178.2255506049
 20
66.0404659205
  0
VERTEX
  8
0
 62
7
  6
CONTINUOUS
 10
178.2227345868
 20
66.0108494866
  0
VERTEX
  8
0
 62
7
  6
CONTINUOUS
 10
178.2194978713
 20
65.9925022958
  0
VERTEX
  8
0
 62
7
  6
CONTINUOUS
 10
178.2163914711
 20
65.9860629067
  0
SEQEND
  0
LINE
  8
SURFACE
 62
7
  6
CONTINUOUS
 10
176.6537646453
 20
74.9068764241
 11
176.6537646453
 21
83.1652493894
  0
LINE
  8
0
 62
7
  6
CONTINUOUS
 10
178.23031879
 20
75.0860629067
 11
178.2311597606
 21
75.2220748605
  0
POLYLINE
  8
0
 62
7
  6
CONTINUOUS
 66
1
 70
0
  0
VERTEX
  8
0
 62
7
  6
CONTINUOUS
 10
186.4186991209
 20
74.8622988998
  0
VERTEX
  8
0
 62
7
  6
CONTINUOUS
 10
186.4180543875
 20
74.8850011293
  0
VERTEX
  8
0
 62
7
  6
CONTINUOUS
 10
186.4141849774
 20
74.9222243983
  0
VERTEX
  8
0
 62
7
  6
CONTINUOUS
 10
186.4069560958
 20
74.9585114222
  0
VERTEX
  8
0
 62
7
  6
CONTINUOUS
 10
186.3965605628
 20
74.9935290434
  0
VERTEX
  8
0
 62
7
  6
CONTINUOUS
 10
186.3832286932
 20
75.0269779681
  0
VERTEX
  8
0
 62
7
  6
CONTINUOUS
 10
186.3672225006
 20
75.0585969875
  0
VERTEX
  8
0
 62
7
  6
CONTINUOUS
 10
186.3488294855
 20
75.0881661402
  0
VERTEX
  8
0
 62
7
  6
CONTINUOUS
 10
186.3283561339
 20
75.1155088846
  0
VERTEX
  8
0
 62
7
  6
CONTINUOUS
 10
186.3061210913
 20
75.1404934266
  0
VERTEX
  8
0
 62
7
  6
CONTINUOUS
 10
186.2824508233
 20
75.16303067
  0
VERTEX
  8
0
 62
7
  6
CONTINUOUS
 10
186.2576722015
 20
75.1830754437
  0
VERTEX
  8
0
 62
7
  6
CONTINUOUS
 10
186.2321063066
 20
75.2006249521
  0
VERTEX
  8
0
 62
7
  6
CONTINUOUS
 10
186.2060641004
 20
75.2157154879
  0
VERTEX
  8
0
 62
7
  6
CONTINUOUS
 10
186.1798442068
 20
75.228418395
  0
VERTEX
  8
0
 62
7
  6
CONTINUOUS
 10
186.1537990388
 20
75.2388123383
  0
VERTEX
  8
0
 62
7
  6
CONTINUOUS
 10
186.1283027279
 20
75.2470143216
  0
VERTEX
  8
0
 62
7
  6
CONTINUOUS
 10
186.1037496415
 20
75.2531857835
  0
VERTEX
  8
0
 62
7
  6
CONTINUOUS
 10
186.0814923058
 20
75.2573883425
  0
VERTEX
  8
0
 62
7
  6
CONTINUOUS
 10
186.0639761903
 20
75.2598037651
  0
VERTEX
  8
0
 62
7
  6
CONTINUOUS
 10
186.0524215189
 20
75.2609901863
  0
VERTEX
  8
0
 62
7
  6
CONTINUOUS
 10
186.0445760304
 20
75.2616312344
  0
VERTEX
  8
0
 62
7
  6
CONTINUOUS
 10
186.0382514421
 20
75.2620703373
  0
VERTEX
  8
0
 62
7
  6
CONTINUOUS
 10
186.0322364968
 20
75.2624416432
  0
VERTEX
  8
0
 62
7
  6
CONTINUOUS
 10
186.0190320803
 20
75.263162858
  0
SEQEND
  0
POLYLINE
  8
SURFACE
 62
7
  6
CONTINUOUS
 66
1
 70
0
  0
VERTEX
  8
SURFACE
 62
7
  6
CONTINUOUS
 10
186.4186991209
 20
83.1622988998
  0
VERTEX
  8
SURFACE
 62
7
  6
CONTINUOUS
 10
186.4180767825
 20
83.1846036736
  0
VERTEX
  8
SURFACE
 62
7
  6
CONTINUOUS
 10
186.4142632806
 20
83.2217053091
  0
VERTEX
  8
SURFACE
 62
7
  6
CONTINUOUS
 10
186.4071114714
 20
83.2578822126
  0
VERTEX
  8
SURFACE
 62
7
  6
CONTINUOUS
 10
186.3968115057
 20
83.2928042147
  0
VERTEX
  8
SURFACE
 62
7
  6
CONTINUOUS
 10
186.3835906075
 20
83.3261744534
  0
VERTEX
  8
SURFACE
 62
7
  6
CONTINUOUS
 10
186.3677073887
 20
83.3577335425
  0
VERTEX
  8
SURFACE
 62
7
  6
CONTINUOUS
 10
186.3494457522
 20
83.3872627052
  0
VERTEX
  8
SURFACE
 62
7
  6
CONTINUOUS
 10
186.329108519
 20
83.4145859212
  0
VERTEX
  8
SURFACE
 62
7
  6
CONTINUOUS
 10
186.3070106678
 20
83.4395713314
  0
VERTEX
  8
SURFACE
 62
7
  6
CONTINUOUS
 10
186.2834750912
 20
83.4621291835
  0
VERTEX
  8
SURFACE
 62
7
  6
CONTINUOUS
 10
186.2588253648
 20
83.4822130336
  0
VERTEX
  8
SURFACE
 62
7
  6
CONTINUOUS
 10
186.233379578
 20
83.4998183344
  0
VERTEX
  8
SURFACE
 62
7
  6
CONTINUOUS
 10
186.2074459729
 20
83.5149792666
  0
VERTEX
  8
SURFACE
 62
7
  6
CONTINUOUS
 10
186.1813200404
 20
83.5277650568
  0
VERTEX
  8
SURFACE
 62
7
  6
CONTINUOUS
 10
186.1553459015
 20
83.5382534119
  0
VERTEX
  8
SURFACE
 62
7
  6
CONTINUOUS
 10
186.1298950504
 20
83.5465566553
  0
VERTEX
  8
SURFACE
 62
7
  6
CONTINUOUS
 10
186.1053451766
 20
83.5528344244
  0
VERTEX
  8
SURFACE
 62
7
  6
CONTINUOUS
 10
186.0829356191
 20
83.5571548124
  0
VERTEX
  8
SURFACE
 62
7
  6
CONTINUOUS
 10
186.0650567633
 20
83.5596767483
  0
VERTEX
  8
SURFACE
 62
7
  6
CONTINUOUS
 10
186.0531488803
 20
83.5609244222
  0
VERTEX
  8
SURFACE
 62
7
  6
CONTINUOUS
 10
186.0451287688
 20
83.5615898754
  0
VERTEX
  8
SURFACE
 62
7
  6
CONTINUOUS
 10
186.0387525016
 20
83.5620376048
  0
VERTEX
  8
SURFACE
 62
7
  6
CONTINUOUS
 10
186.0327539059
 20
83.5624110814
  0
VERTEX
  8
SURFACE
 62
7
  6
CONTINUOUS
 10
186.0196809744
 20
83.5631294316
  0
SEQEND
  0
LINE
  8
SURFACE
 62
7
  6
CONTINUOUS
 10
179.1867551879
 20
75.4860629067
 11
179.1867551879
 21
83.3860629067
  0
LINE
  8
0
 62
7
  6
CONTINUOUS
 10
186.4187016676
 20
74.8623645917
 11
186.4187016676
 21
66.6097612217
  0
LINE
  8
SURFACE
 62
7
  6
CONTINUOUS
 10
186.4187016676
 20
74.9097612217
 11
186.4187016676
 21
83.1623645917
  0
LINE
  8
SURFACE
 62
7
  6
CONTINUOUS
 10
186.4182544296
 20
74.8909703587
 11
186.4186991209
 21
74.9098269137
  0
ARC
  8
SURFACE
 62
7
  6
CONTINUOUS
 10
20.7114967462
 20
113.6256031341
 40
180.0
 50
65.0733494768
 51
67.9368155029
  0
ARC
  8
0
 62
7
  6
CONTINUOUS
 10
-2.8965733939
 20
146.1193240522
 40
180.0
 50
4.0631844971
 51
6.9266505232
  0
ARC
  8
SURFACE
 62
7
  6
CONTINUOUS
 10
-13.4727351417
 20
178.6694029497
 40
180.0
 50
29.0733494768
 51
31.9368155029
  0
ARC
  8
0
 62
7
  6
CONTINUOUS
 10
33.4229036189
 20
172.1013047104
 40
37.563731
 50
300.9352412043
 51
310.4075976794
  0
ARC
  8
SURFACE
 62
7
  6
CONTINUOUS
 10
31.1821640447
 20
178.9975920088
 40
37.563731
 50
85.5924023206
 51
95.0647587957
  0
ARC
  8
0
 62
7
  6
CONTINUOUS
 10
37.2134333404
 20
150.4379557443
 40
8.5
 50
324.0
 51
358.250076611
  0
ARC
  8
SURFACE
 62
7
  6
CONTINUOUS
 10
37.2134332838
 20
150.4379558221
 40
8.5
 50
73.749923389
 51
108.0
  0
ARC
  8
SURFACE
 62
7
  6
CONTINUOUS
 10
35.9187955721
 20
173.838848859
 40
2.0
 50
301.5924023172
 51
18.0000000035
  0
ARC
  8
0
 62
7
  6
CONTINUOUS
 10
34.2226858768
 20
179.0589377455
 40
2.0
 50
18.0
 51
94.4075976794
  0
ARC
  8
0
 62
7
  6
CONTINUOUS
 10
35.9187955721
 20
173.838848859
 40
2.0
 50
301.5924023206
 51
9.9606126877
  0
ARC
  8
0
 62
7
  6
CONTINUOUS
 10
43.5105333557
 20
142.7726748363
 40
1.1
 50
144.0
 51
256.0631844971
  0
ARC
  8
0
 62
7
  6
CONTINUOUS
 10
22.1042918248
 20
188.8489418075
 40
1.1
 50
108.0
 51
220.0631844971
  0
ARC
  8
SURFACE
 62
7
  6
CONTINUOUS
 10
31.8692288471
 20
158.7955558926
 40
1.1
 50
175.9368155029
 51
288.0
  0
ARC
  8
0
 62
7
  6
CONTINUOUS
 10
27.9542579044
 20
182.084691913
 40
1.0
 50
222.9266505232
 51
264.9352412043
  0
ARC
  8
SURFACE
 62
7
  6
CONTINUOUS
 10
32.6260244911
 20
167.7064727995
 40
1.0
 50
131.0647587957
 51
173.0733494768
  0
ARC
  8
0
 62
7
  6
CONTINUOUS
 10
48.4002476723
 20
93.5085480389
 40
180.0
 50
40.0631844971
 51
42.9266505232
  0
ARC
  8
SURFACE
 62
7
  6
CONTINUOUS
 10
86.5989075679
 20
81.0970510691
 40
180.0
 50
101.0733494768
 51
103.9368155029
  0
ARC
  8
0
 62
7
  6
CONTINUOUS
 10
62.5114967462
 20
135.876464898
 40
37.563731
 50
336.9352412043
 51
346.4075976793
  0
ARC
  8
SURFACE
 62
7
  6
CONTINUOUS
 10
100.0859039554
 20
123.6677999215
 40
37.563731
 50
157.5924023206
 51
167.0647587957
  0
ARC
  8
0
 62
7
  6
CONTINUOUS
 10
78.3114967462
 20
120.578464898
 40
8.5
 50
0.0
 51
34.250076611
  0
ARC
  8
SURFACE
 62
7
  6
CONTINUOUS
 10
78.3114966547
 20
120.5784649278
 40
8.5
 50
109.749923389
 51
144.0
  0
ARC
  8
0
 62
7
  6
CONTINUOUS
 10
100.9671336105
 20
126.578464898
 40
2.0
 50
90.0
 51
166.4075976794
  0
ARC
  8
0
 62
7
  6
CONTINUOUS
 10
87.9114967462
 20
118.078464898
 40
1.1
 50
180.0
 51
292.0631844971
  0
ARC
  8
SURFACE
 62
7
  6
CONTINUOUS
 10
69.0754703779
 20
124.1986608639
 40
1.1
 50
211.9368155029
 51
324.0
  0
ARC
  8
0
 62
7
  6
CONTINUOUS
 10
96.1524196214
 20
121.5518450865
 40
1.0
 50
294.9266505232
 51
336.9352412043
  0
ARC
  8
SURFACE
 62
7
  6
CONTINUOUS
 10
64.4500253729
 20
131.8525773956
 40
1.0
 50
167.0647587957
 51
209.0733494768
  0
ARC
  8
SURFACE
 62
7
  6
CONTINUOUS
 10
56.6451643812
 20
140.1386048446
 40
37.563731
 50
121.5924023206
 51
131.0647587957
  0
ARC
  8
CURVE
 62
40
  6
CONTINUOUS
 10
97.3164503639
 20
155.7199092754
 40
3.2
 50
2.2544307753
 51
45.0
  0
ARC
  8
CURVE
 62
40
  6
CONTINUOUS
 10
93.0738096768
 20
159.9625499625
 40
3.2
 50
45.0
 51
86.4096221093
  0
ARC
  8
CURVE
 62
40
  6
CONTINUOUS
 10
93.4745963171
 20
166.3499884216
 40
3.2
 50
225.0
 51
266.4096221093
  0
ARC
  8
CURVE
 62
40
  6
CONTINUOUS
 10
71.3098582698
 20
188.5147264689
 40
3.2
 50
183.5903778907
 51
225.0
  0
ARC
  8
CURVE
 62
40
  6
CONTINUOUS
 10
64.9224198106
 20
188.1139398287
 40
3.2
 50
3.5903778907
 51
45.0
  0
ARC
  8
CURVE
 62
40
  6
CONTINUOUS
 10
60.6797791235
 20
192.3565805158
 40
3.2
 50
45.0
 51
87.7455692247
  0
ARC
  8
SURFACE
 62
7
  6
CONTINUOUS
 10
63.5094129268
 20
138.7492161242
 40
2.0
 50
337.5924023172
 51
54.0000000035
  0
ARC
  8
0
 62
7
  6
CONTINUOUS
 10
59.0689400958
 20
141.9754084804
 40
2.0
 50
54.0
 51
130.4075976794
  0
ARC
  8
0
 62
7
  6
CONTINUOUS
 10
63.5094129268
 20
138.7492161242
 40
2.0
 50
337.5924023206
 51
45.9607214229
  0
ARC
  8
0
 62
7
  6
CONTINUOUS
 10
99.3614967462
 20
145.801626898
 40
1.5
 50
180.0
 51
270.0
  0
ARC
  8
0
 62
7
  6
CONTINUOUS
 10
99.7389995302
 20
145.651626898
 40
1.35
 50
270.0
 51
326.2510114041
  0
ARC
  8
0
 62
7
  6
CONTINUOUS
 10
52.2191816614
 20
140.7388055054
 40
1.0
 50
258.9266505232
 51
300.9352412043
  0
ARC
  8
0
 62
7
  6
CONTINUOUS
 10
100.1114967462
 20
146.101626898
 40
0.75
 50
270.0
 51
360.0
  0
ARC
  8
0
 62
7
  6
CONTINUOUS
 10
99.5114967462
 20
145.726626898
 40
0.375
 50
180.0
 51
270.0
  0
ARC
  8
0
 62
7
  6
CONTINUOUS
 10
-13.4727351417
 20
218.8338508464
 40
180.0
 50
328.0631844971
 51
330.9266505232
  0
ARC
  8
SURFACE
 62
7
  6
CONTINUOUS
 10
-2.8965733939
 20
251.3839297439
 40
180.0
 50
353.0733494768
 51
355.9368155029
  0
ARC
  8
0
 62
7
  6
CONTINUOUS
 10
31.1821640447
 20
218.5056617873
 40
37.563731
 50
264.9352412043
 51
274.4075976794
  0
ARC
  8
SURFACE
 62
7
  6
CONTINUOUS
 10
33.4229036189
 20
225.4019490857
 40
37.563731
 50
49.5924023206
 51
59.0647587957
  0
ARC
  8
0
 62
7
  6
CONTINUOUS
 10
21.5153699696
 20
198.7516268499
 40
8.5
 50
288.0
 51
322.250076611
  0
ARC
  8
SURFACE
 62
7
  6
CONTINUOUS
 10
21.5153699696
 20
198.7516269462
 40
8.5
 50
37.749923389
 51
72.0
  0
ARC
  8
SURFACE
 62
7
  6
CONTINUOUS
 10
34.2226858768
 20
218.4443160506
 40
2.0
 50
265.5924023172
 51
342.0000000035
  0
ARC
  8
0
 62
7
  6
CONTINUOUS
 10
35.9187955721
 20
223.6644049371
 40
2.0
 50
342.0
 51
58.4075976794
  0
ARC
  8
0
 62
7
  6
CONTINUOUS
 10
34.2226858768
 20
218.4443160506
 40
2.0
 50
265.5924023206
 51
333.9606126877
  0
ARC
  8
SURFACE
 62
7
  6
CONTINUOUS
 10
22.1042918248
 20
208.6543119885
 40
1.1
 50
139.9368155029
 51
252.0
  0
ARC
  8
SURFACE
 62
7
  6
CONTINUOUS
 10
27.9542579044
 20
215.4185618831
 40
1.0
 50
95.0647587957
 51
137.0733494768
  0
ARC
  8
0
 62
7
  6
CONTINUOUS
 10
37.2134332838
 20
247.065297974
 40
8.5
 50
252.0
 51
286.250076611
  0
ARC
  8
SURFACE
 62
7
  6
CONTINUOUS
 10
37.2134333404
 20
247.0652980518
 40
8.5
 50
1.749923389
 51
36.0
  0
ARC
  8
0
 62
7
  6
CONTINUOUS
 10
31.8692288471
 20
238.7076979035
 40
1.1
 50
72.0
 51
184.0631844971
  0
ARC
  8
SURFACE
 62
7
  6
CONTINUOUS
 10
43.5105333557
 20
254.7305789598
 40
1.1
 50
103.9368155029
 51
216.0
  0
ARC
  8
0
 62
7
  6
CONTINUOUS
 10
32.6260244911
 20
229.7967809966
 40
1.0
 50
186.9266505232
 51
228.9352412043
  0
ARC
  8
0
 62
7
  6
CONTINUOUS
 10
20.7114967462
 20
283.877650662
 40
180.0
 50
292.0631844971
 51
294.9266505232
  0
ARC
  8
0
 62
7
  6
CONTINUOUS
 10
56.6451643812
 20
257.3646489515
 40
37.563731
 50
228.9352412043
 51
238.4075976794
  0
ARC
  8
CURVE
 62
40
  6
CONTINUOUS
 10
60.9315364844
 20
198.751626898
 40
3.2
 50
92.2544307753
 51
267.7455692247
  0
ARC
  8
CURVE
 62
40
  6
CONTINUOUS
 10
60.6797791235
 20
205.1466732803
 40
3.2
 50
272.2544307753
 51
315.0
  0
ARC
  8
CURVE
 62
40
  6
CONTINUOUS
 10
64.9224198106
 20
209.3893139674
 40
3.2
 50
315.0
 51
356.4096221093
  0
ARC
  8
CURVE
 62
40
  6
CONTINUOUS
 10
71.3098582698
 20
208.9885273271
 40
3.2
 50
135.0
 51
176.4096221093
  0
ARC
  8
CURVE
 62
40
  6
CONTINUOUS
 10
93.4745963171
 20
231.1532653745
 40
3.2
 50
93.5903778907
 51
135.0
  0
ARC
  8
CURVE
 62
40
  6
CONTINUOUS
 10
93.0738096768
 20
237.5407038336
 40
3.2
 50
273.5903778907
 51
315.0
  0
ARC
  8
CURVE
 62
40
  6
CONTINUOUS
 10
97.3164503639
 20
241.7833445207
 40
3.2
 50
315.0
 51
357.7455692247
  0
ARC
  8
SURFACE
 62
7
  6
CONTINUOUS
 10
59.0689400958
 20
255.5278453157
 40
2.0
 50
229.5924023172
 51
306.0000000035
  0
ARC
  8
0
 62
7
  6
CONTINUOUS
 10
59.0689400958
 20
255.5278453157
 40
2.0
 50
229.5924023206
 51
297.9607214229
  0
ARC
  8
SURFACE
 62
7
  6
CONTINUOUS
 10
52.2191816614
 20
256.7644482907
 40
1.0
 50
59.0647587957
 51
101.0733494768
  0
ARC
  8
0
 62
7
  6
CONTINUOUS
 10
86.5989075679
 20
316.406202727
 40
180.0
 50
256.0631844971
 51
258.9266505232
  0
ARC
  8
SURFACE
 62
7
  6
CONTINUOUS
 10
48.4002476723
 20
303.9947057572
 40
180.0
 50
317.0733494768
 51
319.9368155029
  0
ARC
  8
0
 62
7
  6
CONTINUOUS
 10
100.0859039554
 20
273.8354538746
 40
37.563731
 50
192.9352412043
 51
202.4075976794
  0
ARC
  8
SURFACE
 62
7
  6
CONTINUOUS
 10
62.5114967462
 20
261.626788898
 40
37.563731
 50
13.5924023206
 51
23.0647587957
  0
ARC
  8
0
 62
7
  6
CONTINUOUS
 10
78.3114966547
 20
276.9247888683
 40
8.5
 50
216.0
 51
250.250076611
  0
ARC
  8
SURFACE
 62
7
  6
CONTINUOUS
 10
78.3114967462
 20
276.924788898
 40
8.5
 50
325.749923389
 51
360.0
  0
ARC
  8
SURFACE
 62
7
  6
CONTINUOUS
 10
100.9671336105
 20
270.924788898
 40
2.0
 50
193.5924023172
 51
270.0000000035
  0
ARC
  8
0
 62
7
  6
CONTINUOUS
 10
63.5094129268
 20
258.7540376719
 40
2.0
 50
306.0
 51
22.4075976794
  0
ARC
  8
0
 62
7
  6
CONTINUOUS
 10
100.9671336105
 20
270.924788898
 40
2.0
 50
193.5924023206
 51
261.9607214229
  0
ARC
  8
0
 62
7
  6
CONTINUOUS
 10
69.0754703779
 20
273.3045929322
 40
1.1
 50
36.0
 51
148.0631844971
  0
ARC
  8
SURFACE
 62
7
  6
CONTINUOUS
 10
87.9114967462
 20
279.424788898
 40
1.1
 50
67.9368155029
 51
180.0
  0
ARC
  8
0
 62
7
  6
CONTINUOUS
 10
64.4500253729
 20
265.6506764005
 40
1.0
 50
150.9266505232
 51
192.9352412043
  0
ARC
  8
SURFACE
 62
7
  6
CONTINUOUS
 10
96.1524196214
 20
275.9514087096
 40
1.0
 50
23.0647587957
 51
65.0733494768
  0
ARC
  8
0
 62
7
  6
CONTINUOUS
 10
120.8240859246
 20
81.0970510691
 40
180.0
 50
76.0631844971
 51
78.9266505232
  0
ARC
  8
SURFACE
 62
7
  6
CONTINUOUS
 10
159.0227458201
 20
93.5085480389
 40
180.0
 50
137.0733494768
 51
139.9368155029
  0
ARC
  8
0
 62
7
  6
CONTINUOUS
 10
107.3370895371
 20
123.6677999215
 40
37.563731
 50
12.9352412043
 51
22.4075976793
  0
ARC
  8
SURFACE
 62
7
  6
CONTINUOUS
 10
144.9114967462
 20
135.876464898
 40
37.563731
 50
193.5924023206
 51
203.0647587957
  0
ARC
  8
0
 62
7
  6
CONTINUOUS
 10
129.1114968378
 20
120.5784649278
 40
8.5
 50
36.0
 51
70.250076611
  0
ARC
  8
SURFACE
 62
7
  6
CONTINUOUS
 10
129.1114967462
 20
120.578464898
 40
8.5
 50
145.749923389
 51
180.0
  0
ARC
  8
SURFACE
 62
7
  6
CONTINUOUS
 10
106.4558598819
 20
126.578464898
 40
2.0
 50
13.5924023172
 51
90.0000000035
  0
ARC
  8
0
 62
7
  6
CONTINUOUS
 10
106.4558598819
 20
126.578464898
 40
2.0
 50
13.5924023206
 51
81.9607214229
  0
ARC
  8
0
 62
7
  6
CONTINUOUS
 10
138.3475231145
 20
124.1986608639
 40
1.1
 50
216.0
 51
328.0631844971
  0
ARC
  8
SURFACE
 62
7
  6
CONTINUOUS
 10
119.5114967462
 20
118.078464898
 40
1.1
 50
247.9368155029
 51
360.0
  0
ARC
  8
0
 62
7
  6
CONTINUOUS
 10
142.9729681195
 20
131.8525773956
 40
1.0
 50
330.9266505232
 51
12.9352412043
  0
ARC
  8
SURFACE
 62
7
  6
CONTINUOUS
 10
111.270573871
 20
121.5518450865
 40
1.0
 50
203.0647587957
 51
245.0733494768
  0
ARC
  8
0
 62
7
  6
CONTINUOUS
 10
150.7778291112
 20
140.1386048446
 40
37.563731
 50
48.9352412043
 51
58.4075976793
  0
ARC
  8
CURVE
 62
40
  6
CONTINUOUS
 10
146.7432143689
 20
192.3565805158
 40
3.2
 50
92.2544307753
 51
135.0
  0
ARC
  8
CURVE
 62
40
  6
CONTINUOUS
 10
142.5005736818
 20
188.1139398287
 40
3.2
 50
135.0
 51
176.4096221093
  0
ARC
  8
CURVE
 62
40
  6
CONTINUOUS
 10
136.1131352227
 20
188.5147264689
 40
3.2
 50
315.0
 51
356.4096221093
  0
ARC
  8
CURVE
 62
40
  6
CONTINUOUS
 10
113.9483971753
 20
166.3499884216
 40
3.2
 50
273.5903778907
 51
315.0
  0
ARC
  8
CURVE
 62
40
  6
CONTINUOUS
 10
114.3491838156
 20
159.9625499625
 40
3.2
 50
93.5903778907
 51
135.0
  0
ARC
  8
CURVE
 62
40
  6
CONTINUOUS
 10
110.1065431285
 20
155.7199092754
 40
3.2
 50
135.0
 51
177.7455692247
  0
ARC
  8
CURVE
 62
40
  6
CONTINUOUS
 10
103.7114967462
 20
155.9716666363
 40
3.2
 50
182.2544307753
 51
357.7455692247
  0
ARC
  8
SURFACE
 62
7
  6
CONTINUOUS
 10
148.3540533966
 20
141.9754084804
 40
2.0
 50
49.5924023172
 51
126.0000000035
  0
ARC
  8
0
 62
7
  6
CONTINUOUS
 10
143.9135805656
 20
138.7492161242
 40
2.0
 50
126.0
 51
202.4075976794
  0
ARC
  8
0
 62
7
  6
CONTINUOUS
 10
148.3540533966
 20
141.9754084804
 40
2.0
 50
49.5924023206
 51
117.9607214229
  0
CIRCLE
  8
0
 62
7
  6
CONTINUOUS
 10
107.6494967462
 20
149.889126898
 40
1.9125
  0
ARC
  8
0
 62
7
  6
CONTINUOUS
 10
105.2114967462
 20
146.251626898
 40
1.5
 50
0.0
 51
90.0
  0
ARC
  8
0
 62
7
  6
CONTINUOUS
 10
104.8339939622
 20
146.401626898
 40
1.35
 50
90.0
 51
146.2510114041
  0
ARC
  8
SURFACE
 62
7
  6
CONTINUOUS
 10
155.203811831
 20
140.7388055054
 40
1.0
 50
239.0647587957
 51
281.0733494768
  0
ARC
  8
0
 62
7
  6
CONTINUOUS
 10
104.4614967462
 20
145.951626898
 40
0.75
 50
90.0
 51
180.0
  0
ARC
  8
0
 62
7
  6
CONTINUOUS
 10
105.0614967462
 20
146.326626898
 40
0.375
 50
0.0
 51
90.0
  0
ARC
  8
0
 62
7
  6
CONTINUOUS
 10
186.7114967462
 20
113.6256031341
 40
180.0
 50
112.0631844971
 51
114.9266505232
  0
ARC
  8
0
 62
7
  6
CONTINUOUS
 10
220.8957286341
 20
178.6694029497
 40
180.0
 50
148.0631844971
 51
150.9266505232
  0
ARC
  8
SURFACE
 62
7
  6
CONTINUOUS
 10
210.3195668864
 20
146.1193240522
 40
180.0
 50
173.0733494768
 51
175.9368155029
  0
ARC
  8
0
 62
7
  6
CONTINUOUS
 10
176.2408294477
 20
178.9975920088
 40
37.563731
 50
84.9352412043
 51
94.4075976793
  0
ARC
  8
SURFACE
 62
7
  6
CONTINUOUS
 10
174.0000898736
 20
172.1013047104
 40
37.563731
 50
229.5924023206
 51
239.0647587957
  0
ARC
  8
0
 62
7
  6
CONTINUOUS
 10
170.2095602086
 20
150.4379558221
 40
8.5
 50
72.0
 51
106.250076611
  0
ARC
  8
SURFACE
 62
7
  6
CONTINUOUS
 10
170.209560152
 20
150.4379557443
 40
8.5
 50
181.749923389
 51
216.0
  0
ARC
  8
SURFACE
 62
7
  6
CONTINUOUS
 10
173.2003076156
 20
179.0589377455
 40
2.0
 50
85.5924023172
 51
162.0000000035
  0
ARC
  8
0
 62
7
  6
CONTINUOUS
 10
171.5041979203
 20
173.838848859
 40
2.0
 50
162.0
 51
238.4075976794
  0
ARC
  8
0
 62
7
  6
CONTINUOUS
 10
173.2003076156
 20
179.0589377455
 40
2.0
 50
85.5924023206
 51
153.9606126877
  0
ARC
  8
0
 62
7
  6
CONTINUOUS
 10
175.5537646453
 20
158.7955558926
 40
1.1
 50
252.0
 51
4.0631844971
  0
ARC
  8
SURFACE
 62
7
  6
CONTINUOUS
 10
185.3187016676
 20
188.8489418075
 40
1.1
 50
319.9368155029
 51
72.0
  0
ARC
  8
SURFACE
 62
7
  6
CONTINUOUS
 10
163.9124601367
 20
142.7726748363
 40
1.1
 50
283.9368155029
 51
36.0
  0
ARC
  8
0
 62
7
  6
CONTINUOUS
 10
174.7969690013
 20
167.7064727995
 40
1.0
 50
6.9266505232
 51
48.9352412043
  0
ARC
  8
SURFACE
 62
7
  6
CONTINUOUS
 10
179.468735588
 20
182.084691913
 40
1.0
 50
275.0647587957
 51
317.0733494768
  0
ARC
  8
0
 62
7
  6
CONTINUOUS
 10
103.7114967462
 20
198.751626898
 40
76.5
 50
184.9426138688
 51
193.1140978703
  0
ARC
  8
0
 62
7
  6
CONTINUOUS
 10
103.7114967462
 20
198.751626898
 40
76.5
 50
148.9426168119
 51
157.1140978705
  0
ARC
  8
0
 62
7
  6
CONTINUOUS
 10
103.7114967462
 20
198.751626898
 40
76.5
 50
112.9426138688
 51
121.1140978705
  0
ARC
  8
0
 62
7
  6
CONTINUOUS
 10
103.7114967462
 20
198.751626898
 40
76.5
 50
76.9426206338
 51
85.1140978701
  0
ARC
  8
0
 62
7
  6
CONTINUOUS
 10
103.7114967462
 20
198.751626898
 40
76.5
 50
40.9426169866
 51
49.114097893
  0
ARC
  8
0
 62
7
  6
CONTINUOUS
 10
103.7114967462
 20
198.751626898
 40
76.5
 50
4.9426138688
 51
13.1140978703
  0
ARC
  8
0
 62
7
  6
CONTINUOUS
 10
103.7114967462
 20
198.751626898
 40
76.5
 50
328.9426168251
 51
337.1140978705
  0
ARC
  8
0
 62
7
  6
CONTINUOUS
 10
103.7114967462
 20
198.751626898
 40
76.5
 50
292.9426138688
 51
301.1140978705
  0
ARC
  8
0
 62
7
  6
CONTINUOUS
 10
103.7114967462
 20
198.751626898
 40
76.5
 50
256.9426209906
 51
265.1140978701
  0
ARC
  8
SURFACE
 62
7
  6
CONTINUOUS
 10
103.7114967462
 20
198.751626898
 40
76.5
 50
22.8859020994
 51
31.0573853544
  0
ARC
  8
SURFACE
 62
7
  6
CONTINUOUS
 10
103.7114967462
 20
198.751626898
 40
76.5
 50
58.8859020993
 51
67.0573945362
  0
ARC
  8
SURFACE
 62
7
  6
CONTINUOUS
 10
103.7114967462
 20
198.751626898
 40
76.5
 50
346.8859020995
 51
355.0573945362
  0
ARC
  8
SURFACE
 62
7
  6
CONTINUOUS
 10
103.7114967462
 20
198.751626898
 40
76.5
 50
310.8859020706
 51
319.0573784501
  0
ARC
  8
SURFACE
 62
7
  6
CONTINUOUS
 10
103.7114967462
 20
198.751626898
 40
76.5
 50
274.8859020998
 51
283.0573967266
  0
ARC
  8
SURFACE
 62
7
  6
CONTINUOUS
 10
103.7114967462
 20
198.751626898
 40
76.5
 50
238.8859020993
 51
247.0573945362
  0
ARC
  8
SURFACE
 62
7
  6
CONTINUOUS
 10
103.7114967462
 20
198.751626898
 40
76.5
 50
202.8859020994
 51
211.0573851114
  0
ARC
  8
SURFACE
 62
7
  6
CONTINUOUS
 10
103.7114967462
 20
198.751626898
 40
76.5
 50
166.8859020995
 51
175.0573945362
  0
ARC
  8
SURFACE
 62
7
  6
CONTINUOUS
 10
103.7114967462
 20
198.751626898
 40
76.5
 50
130.8859020706
 51
139.0573858185
  0
ARC
  8
SURFACE
 62
7
  6
CONTINUOUS
 10
103.7114967462
 20
198.751626898
 40
76.5
 50
94.8859020998
 51
103.0573976734
  0
ARC
  8
0
 62
7
  6
CONTINUOUS
 10
103.7114967462
 20
198.751626898
 40
76.5
 50
220.9426170082
 51
229.114097893
  0
CIRCLE
  8
0
 62
7
  6
CONTINUOUS
 10
103.7114967462
 20
198.751626898
 40
60.0
  0
CIRCLE
  8
CURVE
 62
40
  6
CONTINUOUS
 10
103.7114967462
 20
198.751626898
 40
9.525
  0
ARC
  8
CURVE
 62
40
  6
CONTINUOUS
 10
103.7114967462
 20
241.5315871598
 40
3.2
 50
2.2544307753
 51
177.7455692247
  0
ARC
  8
CURVE
 62
40
  6
CONTINUOUS
 10
110.1065431285
 20
241.7833445207
 40
3.2
 50
182.2544307753
 51
225.0
  0
ARC
  8
CURVE
 62
40
  6
CONTINUOUS
 10
114.3491838156
 20
237.5407038336
 40
3.2
 50
225.0
 51
266.4096221093
  0
ARC
  8
CURVE
 62
40
  6
CONTINUOUS
 10
113.9483971753
 20
231.1532653745
 40
3.2
 50
45.0
 51
86.4096221093
  0
CIRCLE
  8
0
 62
7
  6
CONTINUOUS
 10
103.7114967462
 20
250.751626898
 40
1.6454482672
  0
ARC
  8
CURVE
 62
40
  6
CONTINUOUS
 10
146.7432143689
 20
205.1466732803
 40
3.2
 50
225.0
 51
267.7455692247
  0
ARC
  8
CURVE
 62
40
  6
CONTINUOUS
 10
146.491457008
 20
198.751626898
 40
3.2
 50
272.2544307753
 51
87.7455692247
  0
ARC
  8
CURVE
 62
40
  6
CONTINUOUS
 10
136.1131352227
 20
208.9885273271
 40
3.2
 50
3.5903778907
 51
45.0
  0
ARC
  8
CURVE
 62
40
  6
CONTINUOUS
 10
142.5005736818
 20
209.3893139674
 40
3.2
 50
183.5903778907
 51
225.0
  0
ARC
  8
SURFACE
 62
7
  6
CONTINUOUS
 10
150.7778291112
 20
257.3646489515
 40
37.563731
 50
301.5924023206
 51
311.0647587957
  0
ARC
  8
0
 62
7
  6
CONTINUOUS
 10
148.3540533966
 20
255.5278453157
 40
2.0
 50
234.0
 51
310.4075976794
  0
ARC
  8
0
 62
7
  6
CONTINUOUS
 10
155.203811831
 20
256.7644482907
 40
1.0
 50
78.9266505232
 51
120.9352412043
  0
ARC
  8
0
 62
7
  6
CONTINUOUS
 10
159.0227458201
 20
303.9947057572
 40
180.0
 50
220.0631844971
 51
222.9266505232
  0
ARC
  8
SURFACE
 62
7
  6
CONTINUOUS
 10
120.8240859246
 20
316.406202727
 40
180.0
 50
281.0733494768
 51
283.9368155029
  0
ARC
  8
0
 62
7
  6
CONTINUOUS
 10
144.9114967462
 20
261.626788898
 40
37.563731
 50
156.9352412043
 51
166.4075976794
  0
ARC
  8
SURFACE
 62
7
  6
CONTINUOUS
 10
107.3370895371
 20
273.8354538746
 40
37.563731
 50
337.5924023206
 51
347.0647587957
  0
ARC
  8
0
 62
7
  6
CONTINUOUS
 10
129.1114967462
 20
276.924788898
 40
8.5
 50
180.0
 51
214.250076611
  0
ARC
  8
SURFACE
 62
7
  6
CONTINUOUS
 10
129.1114968378
 20
276.9247888683
 40
8.5
 50
289.749923389
 51
324.0
  0
ARC
  8
SURFACE
 62
7
  6
CONTINUOUS
 10
143.9135805656
 20
258.7540376719
 40
2.0
 50
157.5924023172
 51
234.0000000035
  0
ARC
  8
0
 62
7
  6
CONTINUOUS
 10
106.4558598819
 20
270.924788898
 40
2.0
 50
270.0
 51
346.4075976794
  0
ARC
  8
0
 62
7
  6
CONTINUOUS
 10
143.9135805656
 20
258.7540376719
 40
2.0
 50
157.5924023206
 51
225.9607214229
  0
ARC
  8
0
 62
7
  6
CONTINUOUS
 10
119.5114967462
 20
279.424788898
 40
1.1
 50
0.0
 51
112.0631844971
  0
ARC
  8
SURFACE
 62
7
  6
CONTINUOUS
 10
138.3475231145
 20
273.3045929322
 40
1.1
 50
31.9368155029
 51
144.0
  0
ARC
  8
0
 62
7
  6
CONTINUOUS
 10
111.270573871
 20
275.9514087096
 40
1.0
 50
114.9266505232
 51
156.9352412043
  0
ARC
  8
SURFACE
 62
7
  6
CONTINUOUS
 10
142.9729681195
 20
265.6506764005
 40
1.0
 50
347.0647587957
 51
29.0733494768
  0
ARC
  8
0
 62
7
  6
CONTINUOUS
 10
174.0000898736
 20
225.4019490857
 40
37.563731
 50
120.9352412043
 51
130.4075976793
  0
ARC
  8
SURFACE
 62
7
  6
CONTINUOUS
 10
176.2408294477
 20
218.5056617873
 40
37.563731
 50
265.5924023206
 51
275.0647587957
  0
ARC
  8
0
 62
7
  6
CONTINUOUS
 10
185.9076235228
 20
198.7516269462
 40
8.5
 50
108.0
 51
142.250076611
  0
ARC
  8
SURFACE
 62
7
  6
CONTINUOUS
 10
185.9076235228
 20
198.7516268499
 40
8.5
 50
217.749923389
 51
252.0
  0
ARC
  8
SURFACE
 62
7
  6
CONTINUOUS
 10
171.5041979203
 20
223.6644049371
 40
2.0
 50
121.5924023172
 51
198.0000000035
  0
ARC
  8
0
 62
7
  6
CONTINUOUS
 10
173.2003076156
 20
218.4443160506
 40
2.0
 50
198.0
 51
274.4075976794
  0
ARC
  8
0
 62
7
  6
CONTINUOUS
 10
171.5041979203
 20
223.6644049371
 40
2.0
 50
121.5924023206
 51
189.9606126877
  0
ARC
  8
0
 62
7
  6
CONTINUOUS
 10
185.3187016676
 20
208.6543119885
 40
1.1
 50
288.0
 51
40.0631844971
  0
ARC
  8
0
 62
7
  6
CONTINUOUS
 10
179.468735588
 20
215.4185618831
 40
1.0
 50
42.9266505232
 51
84.9352412043
  0
ARC
  8
0
 62
7
  6
CONTINUOUS
 10
170.209560152
 20
247.0652980518
 40
8.5
 50
144.0
 51
178.250076611
  0
ARC
  8
SURFACE
 62
7
  6
CONTINUOUS
 10
170.2095602086
 20
247.065297974
 40
8.5
 50
253.749923389
 51
288.0
  0
ARC
  8
0
 62
7
  6
CONTINUOUS
 10
163.9124601367
 20
254.7305789598
 40
1.1
 50
324.0
 51
76.0631844971
  0
ARC
  8
SURFACE
 62
7
  6
CONTINUOUS
 10
175.5537646453
 20
238.7076979035
 40
1.1
 50
355.9368155029
 51
108.0
  0
ARC
  8
SURFACE
 62
7
  6
CONTINUOUS
 10
174.7969690013
 20
229.7967809966
 40
1.0
 50
311.0647587957
 51
353.0733494768
  0
ARC
  8
SURFACE
 62
7
  6
CONTINUOUS
 10
220.8957286341
 20
218.8338508464
 40
180.0
 50
209.0733494768
 51
211.9368155029
  0
ARC
  8
0
 62
7
  6
CONTINUOUS
 10
210.3195668864
 20
251.3839297439
 40
180.0
 50
184.0631844971
 51
186.9266505232
  0
ARC
  8
SURFACE
 62
7
  6
CONTINUOUS
 10
186.7114967462
 20
283.877650662
 40
180.0
 50
245.0733494768
 51
247.9368155029
  0
ARC
  8
0
 62
7
  6
CONTINUOUS
 10
169.7114967462
 20
59.9860629067
 40
6.0
 50
90.0
 51
180.0
  0
ARC
  8
0
 62
7
  6
CONTINUOUS
 10
37.7114967462
 20
59.9860629067
 40
6.0
 50
0.0
 51
90.0
  0
ARC
  8
0
 62
7
  6
CONTINUOUS
 10
37.7114967462
 20
89.7860629067
 40
6.0
 50
270.0
 51
360.0
  0
ARC
  8
0
 62
7
  6
CONTINUOUS
 10
169.7114967462
 20
89.7860629067
 40
6.0
 50
180.0
 51
270.0
  0
ARC
  8
SURFACE
 62
7
  6
CONTINUOUS
 10
46.7114967462
 20
93.0360629067
 40
3.0
 50
90.0
 51
180.0
  0
ARC
  8
SURFACE
 62
7
  6
CONTINUOUS
 10
160.7114967462
 20
93.0360629067
 40
3.0
 50
0.0
 51
90.0
  0
ARC
  8
0
 62
7
  6
CONTINUOUS
 10
160.7114967462
 20
56.7360629067
 40
3.0
 50
270.0
 51
360.0
  0
ARC
  8
0
 62
7
  6
CONTINUOUS
 10
46.7114967462
 20
56.7360629067
 40
3.0
 50
180.0
 51
270.0
  0
ENDSEC
  0
EOF
