  0
SECTION
  2
HEADER
  9
$EXTMAX
 10
420.0
 20
297.0
 30
0.0
  9
$EXTMIN
 10
0.0
 20
0.0
 30
0.0
  9
$LIMMIN
 10
0.0
 20
0.0
  9
$LIMMAX
 10
420.0
 20
297.0
  9
$VIEWCTR
 10
210.0
 20
148.5
  9
$VIEWSIZE
 40
297.0
  9
$CLAYER
  8
0
  9
$LTSCALE
 40
23.1
  9
$CELTYPE
  6
BYLAYER
  9
$DIMSCALE
 40
1.0
  9
$DIMASZ
 40
3.5
  9
$DIMEXO
 40
2.625
  9
$DIMDLI
 40
15.96
  9
$DIMEXE
 40
7.56
  9
$DIMCEN
 40
3.78
  9
$DIMLFAC
 40
1.0
  9
$DIMBLK
  1
_FILLED
  9
$DIMTXT
 40
3.5
  9
$PDMODE
 70
3
  9
$PDSIZE
 40
0.3125
  9
$TILEMODE
 70
1
  0
ENDSEC
  0
SECTION
  2
TABLES
  0
TABLE
  2
LTYPE
 70
6
  0
LTYPE
  2
BYBLOCK
 70
0
  3

 72
65
 73
0
 40
0.0
  0
LTYPE
  2
BYLAYER
 70
0
  3

 72
65
 73
0
 40
0.0
  0
LTYPE
  2
CONTINUOUS
 70
64
  3
Solid line
 72
65
 73
0
 40
0.0
  0
LTYPE
  2
CENTER
 70
64
  3
____ _ ____ _ ____ _ ____ _ ____ _ ____ _ ____
 72
65
 73
4
 40
0.6
 49
0.375
 49
-0.075
 49
0.075
 49
-0.075
  0
LTYPE
  2
HIDDEN
 70
64
  3
- - - - - - - - - - - - - - - - - - - -
 72
65
 73
2
 40
0.2
 49
0.1
 49
-0.1
  0
LTYPE
  2
PHANTOM
 70
64
  3
_____ _ _ _____ _ _ _____ _ _ _____
 72
65
 73
6
 40
0.8
 49
0.45
 49
-0.05
 49
0.1
 49
-0.05
 49
0.1
 49
-0.05
  0
LTYPE
  2
DOT
 70
64
  3
. . . . . . . . . . . . . . . . . . . .
 72
65
 73
2
 40
0.2
 49
0.1
 49
-0.1
  0
LTYPE
  2
DASHED
 70
64
  3
- - - - - - - - - - - - - - - - - - - -
 72
65
 73
2
 40
0.2
 49
0.1
 49
-0.1
  0
ENDTAB
  0
TABLE
  2
LAYER
 70
36
  0
LAYER
  2
0
 70
0
 62
7
  6
CONTINUOUS
  0
LAYER
  2
DEFAULT_1
 70
0
 62
7
  6
CENTER
  0
LAYER
  2
DEFAULT_2
 70
0
 62
8
  6
HIDDEN
  0
LAYER
  2
DEFAULT_3
 70
0
 62
7
  6
PHANTOM
  0
LAYER
  2
AXES
 70
0
 62
7
  6
CONTINUOUS
  0
LAYER
  2
BLANK_PLANS
 70
0
 62
7
  6
CONTINUOUS
  0
LAYER
  2
CURVE
 70
0
 62
7
  6
CONTINUOUS
  0
LAYER
  2
EMNE_SURF
 70
0
 62
7
  6
CONTINUOUS
  0
LAYER
  2
HJAELPE_SURF
 70
0
 62
7
  6
CONTINUOUS
  0
LAYER
  2
SURFACE
 70
0
 62
7
  6
CONTINUOUS
  0
ENDTAB
  0
TABLE
  2
STYLE
 70
1
  0
STYLE
  2
STANDARD
 70
0
 40
0.0
 41
0.8
 50
0.0
 71
0
 42
0.2
  3
txt
  4

  0
STYLE
  2
TEXTSTYLE_1
 70
0
 40
0.0
 41
0.8
 50
0.0
 71
0
 42
0.2
  3
gdt
  4

  0
STYLE
  2
TEXTSTYLE_2
 70
0
 40
0.0
 41
0.6
 50
0.0
 71
0
 42
0.2
  3
txt
  4

  0
STYLE
  2
TEXTSTYLE_3
 70
0
 40
0.0
 41
1.0
 50
0.0
 71
0
 42
0.2
  3
ftb_____.ttf
  4

  0
STYLE
  2
TEXTSTYLE_4
 70
0
 40
0.0
 41
1.0
 50
0.0
 71
0
 42
0.2
  3
fti_____.ttf
  4

  0
STYLE
  2
TEXTSTYLE_5
 70
0
 40
0.0
 41
1.0
 50
0.0
 71
0
 42
0.2
  3
frutiger light.ttf
  4

  0
STYLE
  2
TEXTSTYLE_6
 70
0
 40
0.0
 41
0.7
 50
0.0
 71
0
 42
0.2
  3
txt
  4

  0
STYLE
  2
TEXTSTYLE_7
 70
0
 40
0.0
 41
0.8
 50
0.0
 71
0
 42
0.2
  3
txt
  4

  0
ENDTAB
  0
ENDSEC
  0
SECTION
  2
BLOCKS
  0
BLOCK
  8
0
 62
2
  6
CONTINUOUS
  2
SYMBOL_5_BL1
 70
64
 10
382.7840918555
 20
35.5067593403
  0
TEXT
  8
0
 62
7
  6
CONTINUOUS
 10
373.842376864
 20
30.5995157174
  7
TEXTSTYLE_4
 40
1.0655737705
  1
The brand for plastic modular belts and chains
 41
1.0
 72
0
  0
LINE
  8
0
 62
7
  6
CONTINUOUS
 10
358.7621602445
 20
36.0805298321
 11
358.7621602445
 21
33.9493822911
  0
LINE
  8
0
 62
7
  6
CONTINUOUS
 10
359.0512227376
 20
30.9584509954
 11
359.0512227376
 21
31.0552420547
  0
LINE
  8
0
 62
7
  6
CONTINUOUS
 10
358.7621602445
 20
31.0229783683
 11
358.8199727462
 21
30.8293962497
  0
LINE
  8
0
 62
7
  6
CONTINUOUS
 10
360.1556028675
 20
33.867415078
 11
360.1556028675
 21
36.0805298321
  0
LINE
  8
0
 62
7
  6
CONTINUOUS
 10
361.0746601894
 20
32.0231527829
 11
361.0746601894
 21
30.5067593403
  0
LINE
  8
0
 62
7
  6
CONTINUOUS
 10
361.3637227445
 20
30.5067593403
 11
361.3637227445
 21
31.2488242184
  0
LINE
  8
0
 62
7
  6
CONTINUOUS
 10
361.3637227445
 20
31.3778789641
 11
361.3637227445
 21
32.0231527829
  0
LINE
  8
0
 62
7
  6
CONTINUOUS
 10
358.8199727462
 20
31.216560532
 11
358.7621602445
 21
31.0229783683
  0
LINE
  8
0
 62
7
  6
CONTINUOUS
 10
359.1668477307
 20
30.7971325633
 11
359.0512227376
 21
30.9584509954
  0
LINE
  8
0
 62
7
  6
CONTINUOUS
 10
360.2652852997
 20
31.3133515913
 11
360.3230977445
 21
31.216560532
  0
LINE
  8
0
 62
7
  6
CONTINUOUS
 10
360.6121602997
 20
31.216560532
 11
360.5543476894
 21
31.3456152777
  0
LINE
  8
0
 62
7
  6
CONTINUOUS
 10
362.0408487691
 20
36.0805298321
 11
362.0408487691
 21
34.2772511436
  0
LINE
  8
0
 62
7
  6
CONTINUOUS
 10
362.0408487691
 20
32.9657757338
 11
362.0408487691
 21
32.3100380288
  0
LINE
  8
0
 62
7
  6
CONTINUOUS
 10
362.4043477445
 20
31.1520331591
 11
362.4043477445
 21
30.5067593403
  0
LINE
  8
0
 62
7
  6
CONTINUOUS
 10
362.6934101343
 20
30.5067593403
 11
362.6934101343
 21
31.1520331591
  0
LINE
  8
0
 62
7
  6
CONTINUOUS
 10
359.0512227376
 20
31.0552420547
 11
359.1090352445
 21
31.1842968456
  0
LINE
  8
0
 62
7
  6
CONTINUOUS
 10
358.8199727462
 20
30.8293962497
 11
358.9355977445
 21
30.7003414814
  0
LINE
  8
0
 62
7
  6
CONTINUOUS
 10
362.3465351343
 20
31.2810879048
 11
362.4043477445
 21
31.1520331591
  0
LINE
  8
0
 62
7
  6
CONTINUOUS
 10
363.1559103548
 20
30.7971325633
 11
363.2137226343
 21
30.668077795
  0
LINE
  8
0
 62
7
  6
CONTINUOUS
 10
362.6934101343
 20
31.1520331591
 11
362.6355978548
 21
31.3133515913
  0
LINE
  8
0
 62
7
  6
CONTINUOUS
 10
363.1559103548
 20
31.3456152777
 11
363.1559103548
 21
31.2810879048
  0
LINE
  8
0
 62
7
  6
CONTINUOUS
 10
363.1559103548
 20
30.8939236226
 11
363.1559103548
 21
30.7971325633
  0
LINE
  8
0
 62
7
  6
CONTINUOUS
 10
363.4342913921
 20
32.3100380288
 11
363.4342913921
 21
36.0805298321
  0
LINE
  8
0
 62
7
  6
CONTINUOUS
 10
363.4449727445
 20
30.7648688543
 11
363.4449727445
 21
30.8293962497
  0
LINE
  8
0
 62
7
  6
CONTINUOUS
 10
363.7621602445
 20
36.0805298321
 11
363.7621602445
 21
32.3100380288
  0
LINE
  8
0
 62
7
  6
CONTINUOUS
 10
360.5543476894
 20
30.7003414814
 11
360.6121602997
 21
30.8293962497
  0
LINE
  8
0
 62
7
  6
CONTINUOUS
 10
364.9480979651
 20
30.6035504109
 11
364.890285024
 21
30.7648688543
  0
LINE
  8
0
 62
7
  6
CONTINUOUS
 10
364.6012229651
 20
31.2810879048
 11
364.6012229651
 21
31.1842968456
  0
LINE
  8
0
 62
7
  6
CONTINUOUS
 10
364.6012229651
 20
31.0552420547
 11
364.6012229651
 21
30.8616599362
  0
LINE
  8
0
 62
7
  6
CONTINUOUS
 10
364.890285024
 20
30.7648688543
 11
364.890285024
 21
31.2810879048
  0
LINE
  8
0
 62
7
  6
CONTINUOUS
 10
365.1556028675
 20
32.3100380288
 11
365.1556028675
 21
34.1133167174
  0
LINE
  8
0
 62
7
  6
CONTINUOUS
 10
365.1556028675
 20
35.4247921272
 11
365.1556028675
 21
36.0805298321
  0
LINE
  8
0
 62
7
  6
CONTINUOUS
 10
365.4684104651
 20
32.0231527829
 11
365.4684104651
 21
31.8618343508
  0
LINE
  8
0
 62
7
  6
CONTINUOUS
 10
365.4684104651
 20
31.5391973962
 11
365.4684104651
 21
30.5067593403
  0
LINE
  8
0
 62
7
  6
CONTINUOUS
 10
365.757472524
 20
30.5067593403
 11
365.757472524
 21
31.5391973962
  0
LINE
  8
0
 62
7
  6
CONTINUOUS
 10
365.757472524
 20
31.8618343508
 11
365.757472524
 21
32.0231527829
  0
LINE
  8
0
 62
7
  6
CONTINUOUS
 10
360.3230977445
 20
30.8293962497
 11
360.2652852997
 21
30.7326051679
  0
LINE
  8
0
 62
7
  6
CONTINUOUS
 10
362.6355978548
 20
31.3133515913
 11
362.5777852445
 21
31.3778789641
  0
LINE
  8
0
 62
7
  6
CONTINUOUS
 10
363.5027853548
 20
30.7003414814
 11
363.4449727445
 21
30.7648688543
  0
LINE
  8
0
 62
7
  6
CONTINUOUS
 10
364.6590352445
 20
30.5712867188
 11
364.716847524
 21
30.5067593403
  0
LINE
  8
0
 62
7
  6
CONTINUOUS
 10
364.6012229651
 20
30.668077795
 11
364.6590352445
 21
30.5712867188
  0
LINE
  8
0
 62
7
  6
CONTINUOUS
 10
365.0059102445
 20
30.5067593403
 11
364.9480979651
 21
30.6035504109
  0
LINE
  8
0
 62
7
  6
CONTINUOUS
 10
364.890285024
 20
31.2810879048
 11
364.8324727445
 21
31.3778789641
  0
LINE
  8
0
 62
7
  6
CONTINUOUS
 10
366.2199727445
 20
31.5391973962
 11
366.2199727445
 21
30.5067593403
  0
LINE
  8
0
 62
7
  6
CONTINUOUS
 10
366.5090354651
 20
30.5067593403
 11
366.5090354651
 21
31.2488242184
  0
LINE
  8
0
 62
7
  6
CONTINUOUS
 10
366.5090354651
 20
31.3778789641
 11
366.5090354651
 21
31.5391973962
  0
LINE
  8
0
 62
7
  6
CONTINUOUS
 10
367.0408487691
 20
34.5231527829
 11
367.0408487691
 21
32.3100380288
  0
LINE
  8
0
 62
7
  6
CONTINUOUS
 10
358.9355977445
 20
31.3456152777
 11
358.8199727462
 21
31.216560532
  0
LINE
  8
0
 62
7
  6
CONTINUOUS
 10
359.1090352445
 20
31.1842968456
 11
359.1668477307
 21
31.2488242184
  0
LINE
  8
0
 62
7
  6
CONTINUOUS
 10
358.9355977445
 20
30.7003414814
 11
359.0512227376
 21
30.6358140973
  0
LINE
  8
0
 62
7
  6
CONTINUOUS
 10
359.3402852307
 20
30.7003414814
 11
359.1668477307
 21
30.7971325633
  0
LINE
  8
0
 62
7
  6
CONTINUOUS
 10
364.543410024
 20
31.3456152777
 11
364.6012229651
 21
31.2810879048
  0
LINE
  8
0
 62
7
  6
CONTINUOUS
 10
367.491847524
 20
31.2810879048
 11
367.5496604651
 21
31.1197694727
  0
LINE
  8
0
 62
7
  6
CONTINUOUS
 10
367.838722524
 20
31.1197694727
 11
367.7809102445
 21
31.2810879048
  0
LINE
  8
0
 62
7
  6
CONTINUOUS
 10
367.5496604651
 20
31.1197694727
 11
367.5496604651
 21
30.5067593403
  0
LINE
  8
0
 62
7
  6
CONTINUOUS
 10
367.838722524
 20
30.5067593403
 11
367.838722524
 21
31.1197694727
  0
LINE
  8
0
 62
7
  6
CONTINUOUS
 10
368.3012227445
 20
31.3456152777
 11
368.3012227445
 21
31.2810879048
  0
LINE
  8
0
 62
7
  6
CONTINUOUS
 10
368.4342913921
 20
32.3100380288
 11
368.4342913921
 21
34.4411855698
  0
LINE
  8
0
 62
7
  6
CONTINUOUS
 10
368.7621602445
 20
36.0805298321
 11
368.7621602445
 21
32.3100380288
  0
LINE
  8
0
 62
7
  6
CONTINUOUS
 10
363.4449727445
 20
30.8293962497
 11
363.5027853548
 21
30.926187309
  0
LINE
  8
0
 62
7
  6
CONTINUOUS
 10
359.0512227376
 20
30.6358140973
 11
359.2246602583
 21
30.5712867188
  0
LINE
  8
0
 62
7
  6
CONTINUOUS
 10
360.5543476894
 20
31.3456152777
 11
360.3809101894
 21
31.4424063369
  0
LINE
  8
0
 62
7
  6
CONTINUOUS
 10
363.2137226343
 20
30.668077795
 11
363.3871601343
 21
30.5712867188
  0
LINE
  8
0
 62
7
  6
CONTINUOUS
 10
362.2309102445
 20
31.3456152777
 11
362.3465351343
 21
31.2810879048
  0
LINE
  8
0
 62
7
  6
CONTINUOUS
 10
362.5777852445
 20
31.3778789641
 11
362.4621603548
 21
31.4424063369
  0
LINE
  8
0
 62
7
  6
CONTINUOUS
 10
368.3012227445
 20
30.7648688543
 11
368.4168479651
 21
30.6358140973
  0
LINE
  8
0
 62
7
  6
CONTINUOUS
 10
368.6480977445
 20
30.7003414814
 11
368.5902854651
 21
30.7648688543
  0
LINE
  8
0
 62
7
  6
CONTINUOUS
 10
368.3012227445
 20
31.2810879048
 11
368.4168479651
 21
31.1520331591
  0
LINE
  8
0
 62
7
  6
CONTINUOUS
 10
367.7809102445
 20
31.2810879048
 11
367.7230979651
 21
31.3778789641
  0
LINE
  8
0
 62
7
  6
CONTINUOUS
 10
370.1512223035
 20
30.7003414814
 11
370.1512223035
 21
30.7648688543
  0
LINE
  8
0
 62
7
  6
CONTINUOUS
 10
370.1556028675
 20
32.3100380288
 11
370.1556028675
 21
36.0805298321
  0
LINE
  8
0
 62
7
  6
CONTINUOUS
 10
363.2137226343
 20
31.4101426505
 11
363.1559103548
 21
31.3456152777
  0
LINE
  8
0
 62
7
  6
CONTINUOUS
 10
360.091847717
 20
31.3778789641
 11
360.2652852997
 21
31.3133515913
  0
LINE
  8
0
 62
7
  6
CONTINUOUS
 10
364.8324727445
 20
31.3778789641
 11
364.716847524
 21
31.4424063369
  0
LINE
  8
0
 62
7
  6
CONTINUOUS
 10
368.6480977445
 20
31.216560532
 11
368.5902854651
 21
31.2810879048
  0
LINE
  8
0
 62
7
  6
CONTINUOUS
 10
369.8043479651
 20
30.8293962497
 11
369.8621602445
 21
30.7648688543
  0
LINE
  8
0
 62
7
  6
CONTINUOUS
 10
370.1512223035
 20
30.7648688543
 11
370.0355977445
 21
30.8939236226
  0
LINE
  8
0
 62
7
  6
CONTINUOUS
 10
369.8043479651
 20
31.3456152777
 11
369.8621602445
 21
31.2810879048
  0
LINE
  8
0
 62
7
  6
CONTINUOUS
 10
370.1512223035
 20
31.2810879048
 11
370.0355977445
 21
31.4101426505
  0
LINE
  8
0
 62
7
  6
CONTINUOUS
 10
363.4449727445
 20
31.2810879048
 11
363.5027853548
 21
31.3456152777
  0
LINE
  8
0
 62
7
  6
CONTINUOUS
 10
363.2715352445
 20
31.0229783683
 11
363.1559103548
 21
30.8939236226
  0
LINE
  8
0
 62
7
  6
CONTINUOUS
 10
364.6012229651
 20
30.8616599362
 11
364.543410024
 21
30.7971325633
  0
LINE
  8
0
 62
7
  6
CONTINUOUS
 10
364.543410024
 20
30.6035504109
 11
364.6012229651
 21
30.668077795
  0
LINE
  8
0
 62
7
  6
CONTINUOUS
 10
363.3871601343
 20
30.5712867188
 11
363.5027853548
 21
30.5390230296
  0
LINE
  8
0
 62
7
  6
CONTINUOUS
 10
360.3809101894
 20
31.4424063369
 11
360.1496602445
 21
31.5069337098
  0
LINE
  8
0
 62
7
  6
CONTINUOUS
 10
363.7340351343
 20
30.6358140973
 11
363.5027853548
 21
30.7003414814
  0
LINE
  8
0
 62
7
  6
CONTINUOUS
 10
362.4621603548
 20
31.4424063369
 11
362.2887228548
 21
31.5069337098
  0
LINE
  8
0
 62
7
  6
CONTINUOUS
 10
364.716847524
 20
31.4424063369
 11
364.543410024
 21
31.5069337098
  0
LINE
  8
0
 62
7
  6
CONTINUOUS
 10
367.3762229651
 20
31.3456152777
 11
367.491847524
 21
31.2810879048
  0
LINE
  8
0
 62
7
  6
CONTINUOUS
 10
367.7230979651
 20
31.3778789641
 11
367.6074727445
 21
31.4424063369
  0
LINE
  8
0
 62
7
  6
CONTINUOUS
 10
359.2246602583
 20
30.5712867188
 11
359.3980977583
 21
30.5390230296
  0
LINE
  8
0
 62
7
  6
CONTINUOUS
 10
359.6871602721
 20
30.6358140973
 11
359.3402852307
 21
30.7003414814
  0
LINE
  8
0
 62
7
  6
CONTINUOUS
 10
362.1152853548
 20
31.3778789641
 11
362.2309102445
 21
31.3456152777
  0
LINE
  8
0
 62
7
  6
CONTINUOUS
 10
364.4277854651
 20
31.3778789641
 11
364.543410024
 21
31.3456152777
  0
LINE
  8
0
 62
7
  6
CONTINUOUS
 10
368.7637229651
 20
30.668077795
 11
368.6480977445
 21
30.7003414814
  0
LINE
  8
0
 62
7
  6
CONTINUOUS
 10
367.2605977445
 20
31.3778789641
 11
367.3762229651
 21
31.3456152777
  0
LINE
  8
0
 62
7
  6
CONTINUOUS
 10
368.4168479651
 20
30.6358140973
 11
368.5902854651
 21
30.5712867188
  0
LINE
  8
0
 62
7
  6
CONTINUOUS
 10
367.6074727445
 20
31.4424063369
 11
367.4340352445
 21
31.5069337098
  0
LINE
  8
0
 62
7
  6
CONTINUOUS
 10
368.8215352445
 20
31.1520331591
 11
368.6480977445
 21
31.216560532
  0
LINE
  8
0
 62
7
  6
CONTINUOUS
 10
369.6309104651
 20
30.8939236226
 11
369.8043479651
 21
30.8293962497
  0
LINE
  8
0
 62
7
  6
CONTINUOUS
 10
370.0355977445
 20
31.4101426505
 11
369.8621602445
 21
31.4746700234
  0
LINE
  8
0
 62
7
  6
CONTINUOUS
 10
368.4168479651
 20
31.1520331591
 11
368.6480977445
 21
31.0552420547
  0
LINE
  8
0
 62
7
  6
CONTINUOUS
 10
370.0355977445
 20
30.8939236226
 11
369.8043479651
 21
30.9907146818
  0
LINE
  8
0
 62
7
  6
CONTINUOUS
 10
368.5902854651
 20
31.2810879048
 11
368.6480977445
 21
31.3456152777
  0
LINE
  8
0
 62
7
  6
CONTINUOUS
 10
359.0512227376
 20
31.4101426505
 11
358.9355977445
 21
31.3456152777
  0
LINE
  8
0
 62
7
  6
CONTINUOUS
 10
359.1668477307
 20
31.2488242184
 11
359.3402852307
 21
31.3456152777
  0
LINE
  8
0
 62
7
  6
CONTINUOUS
 10
361.4793477997
 20
31.4424063369
 11
361.3637227445
 21
31.3778789641
  0
LINE
  8
0
 62
7
  6
CONTINUOUS
 10
361.3637227445
 20
31.2488242184
 11
361.4793477997
 21
31.3133515913
  0
LINE
  8
0
 62
7
  6
CONTINUOUS
 10
360.3809101894
 20
30.6035504109
 11
360.5543476894
 21
30.7003414814
  0
LINE
  8
0
 62
7
  6
CONTINUOUS
 10
359.3980977583
 20
30.5390230296
 11
359.744972717
 21
30.5067593403
  0
LINE
  8
0
 62
7
  6
CONTINUOUS
 10
363.5027853548
 20
30.5390230296
 11
363.7340351343
 21
30.5067593403
  0
LINE
  8
0
 62
7
  6
CONTINUOUS
 10
361.8840352445
 20
31.4101426505
 11
362.1152853548
 21
31.3778789641
  0
LINE
  8
0
 62
7
  6
CONTINUOUS
 10
364.1965353548
 20
31.4101426505
 11
364.4277854651
 21
31.3778789641
  0
LINE
  8
0
 62
7
  6
CONTINUOUS
 10
368.6480977445
 20
31.0552420547
 11
369.6309104651
 21
30.8939236226
  0
LINE
  8
0
 62
7
  6
CONTINUOUS
 10
369.8043479651
 20
30.9907146818
 11
368.8215352445
 21
31.1520331591
  0
LINE
  8
0
 62
7
  6
CONTINUOUS
 10
362.2887228548
 20
31.5069337098
 11
362.1152853548
 21
31.5391973962
  0
LINE
  8
0
 62
7
  6
CONTINUOUS
 10
368.5902854651
 20
30.5712867188
 11
368.7637229651
 21
30.5390230296
  0
LINE
  8
0
 62
7
  6
CONTINUOUS
 10
367.4340352445
 20
31.5069337098
 11
367.2605977445
 21
31.5391973962
  0
LINE
  8
0
 62
7
  6
CONTINUOUS
 10
369.6887227445
 20
31.3778789641
 11
369.8043479651
 21
31.3456152777
  0
LINE
  8
0
 62
7
  6
CONTINUOUS
 10
369.8621602445
 20
30.7648688543
 11
369.8043479651
 21
30.7003414814
  0
LINE
  8
0
 62
7
  6
CONTINUOUS
 10
368.4168479651
 20
31.4424063369
 11
368.3012227445
 21
31.3456152777
  0
LINE
  8
0
 62
7
  6
CONTINUOUS
 10
363.3293478548
 20
31.4746700234
 11
363.2137226343
 21
31.4101426505
  0
LINE
  8
0
 62
7
  6
CONTINUOUS
 10
363.3871601343
 20
31.0875057863
 11
363.2715352445
 21
31.0229783683
  0
LINE
  8
0
 62
7
  6
CONTINUOUS
 10
363.5027853548
 20
30.926187309
 11
363.6184102445
 21
30.9907146818
  0
LINE
  8
0
 62
7
  6
CONTINUOUS
 10
361.0746601894
 20
30.5067593403
 11
361.3637227445
 21
30.5067593403
  0
LINE
  8
0
 62
7
  6
CONTINUOUS
 10
362.4043477445
 20
30.5067593403
 11
362.6934101343
 21
30.5067593403
  0
LINE
  8
0
 62
7
  6
CONTINUOUS
 10
363.7340351343
 20
30.5067593403
 11
364.0809101343
 21
30.5067593403
  0
LINE
  8
0
 62
7
  6
CONTINUOUS
 10
364.716847524
 20
30.5067593403
 11
365.0059102445
 21
30.5067593403
  0
LINE
  8
0
 62
7
  6
CONTINUOUS
 10
365.4684104651
 20
30.5067593403
 11
365.757472524
 21
30.5067593403
  0
LINE
  8
0
 62
7
  6
CONTINUOUS
 10
366.2199727445
 20
30.5067593403
 11
366.5090354651
 21
30.5067593403
  0
LINE
  8
0
 62
7
  6
CONTINUOUS
 10
367.5496604651
 20
30.5067593403
 11
367.838722524
 21
30.5067593403
  0
LINE
  8
0
 62
7
  6
CONTINUOUS
 10
369.1105979651
 20
30.5067593403
 11
369.4574729651
 21
30.5067593403
  0
LINE
  8
0
 62
7
  6
CONTINUOUS
 10
369.4574729651
 20
30.6358140973
 11
369.1105979651
 21
30.6358140973
  0
LINE
  8
0
 62
7
  6
CONTINUOUS
 10
364.0809101343
 20
30.6358140973
 11
363.7340351343
 21
30.6358140973
  0
LINE
  8
0
 62
7
  6
CONTINUOUS
 10
368.5902854651
 20
30.7648688543
 11
368.3012227445
 21
30.7648688543
  0
LINE
  8
0
 62
7
  6
CONTINUOUS
 10
360.6121602997
 20
30.8293962497
 11
360.3230977445
 21
30.8293962497
  0
LINE
  8
0
 62
7
  6
CONTINUOUS
 10
359.6871602721
 20
31.4101426505
 11
360.091847717
 21
31.3778789641
  0
LINE
  8
0
 62
7
  6
CONTINUOUS
 10
360.1496602445
 20
31.5069337098
 11
359.744972717
 21
31.5391973962
  0
LINE
  8
0
 62
7
  6
CONTINUOUS
 10
368.7637229651
 20
30.5390230296
 11
369.1105979651
 21
30.5067593403
  0
LINE
  8
0
 62
7
  6
CONTINUOUS
 10
369.1105979651
 20
30.6358140973
 11
368.7637229651
 21
30.668077795
  0
LINE
  8
0
 62
7
  6
CONTINUOUS
 10
364.543410024
 20
31.5069337098
 11
364.1965353548
 21
31.5391973962
  0
LINE
  8
0
 62
7
  6
CONTINUOUS
 10
369.3418477445
 20
31.4101426505
 11
369.6887227445
 21
31.3778789641
  0
LINE
  8
0
 62
7
  6
CONTINUOUS
 10
369.6887227445
 20
31.5069337098
 11
369.3418477445
 21
31.5391973962
  0
LINE
  8
0
 62
7
  6
CONTINUOUS
 10
367.0293479651
 20
31.4101426505
 11
367.2605977445
 21
31.3778789641
  0
LINE
  8
0
 62
7
  6
CONTINUOUS
 10
369.8621602445
 20
31.4746700234
 11
369.6887227445
 21
31.5069337098
  0
LINE
  8
0
 62
7
  6
CONTINUOUS
 10
370.0355977445
 20
30.6035504109
 11
370.1512223035
 21
30.7003414814
  0
LINE
  8
0
 62
7
  6
CONTINUOUS
 10
364.543410024
 20
30.7971325633
 11
364.369972524
 21
30.7003414814
  0
LINE
  8
0
 62
7
  6
CONTINUOUS
 10
366.624660024
 20
31.4424063369
 11
366.5090354651
 21
31.3778789641
  0
LINE
  8
0
 62
7
  6
CONTINUOUS
 10
366.5090354651
 20
31.2488242184
 11
366.624660024
 21
31.3133515913
  0
LINE
  8
0
 62
7
  6
CONTINUOUS
 10
359.2246602583
 20
31.4746700234
 11
359.0512227376
 21
31.4101426505
  0
LINE
  8
0
 62
7
  6
CONTINUOUS
 10
361.6527851343
 20
31.5069337098
 11
361.4793477997
 21
31.4424063369
  0
LINE
  8
0
 62
7
  6
CONTINUOUS
 10
361.4793477997
 20
31.3133515913
 11
361.6527851343
 21
31.3778789641
  0
LINE
  8
0
 62
7
  6
CONTINUOUS
 10
360.2652852997
 20
30.7326051679
 11
360.091847717
 21
30.668077795
  0
LINE
  8
0
 62
7
  6
CONTINUOUS
 10
369.6887227445
 20
30.668077795
 11
369.4574729651
 21
30.6358140973
  0
LINE
  8
0
 62
7
  6
CONTINUOUS
 10
364.0809101343
 20
30.5067593403
 11
364.369972524
 21
30.5390230296
  0
LINE
  8
0
 62
7
  6
CONTINUOUS
 10
369.4574729651
 20
30.5067593403
 11
369.8043479651
 21
30.5390230296
  0
LINE
  8
0
 62
7
  6
CONTINUOUS
 10
359.744972717
 20
30.5067593403
 11
360.1496602445
 21
30.5390230296
  0
LINE
  8
0
 62
7
  6
CONTINUOUS
 10
360.091847717
 20
30.668077795
 11
359.6871602721
 21
30.6358140973
  0
LINE
  8
0
 62
7
  6
CONTINUOUS
 10
363.9652852445
 20
31.0552420547
 11
364.6012229651
 21
31.0552420547
  0
LINE
  8
0
 62
7
  6
CONTINUOUS
 10
364.6012229651
 20
31.1842968456
 11
363.9652852445
 21
31.1842968456
  0
LINE
  8
0
 62
7
  6
CONTINUOUS
 10
360.3230977445
 20
31.216560532
 11
360.6121602997
 21
31.216560532
  0
LINE
  8
0
 62
7
  6
CONTINUOUS
 10
363.1559103548
 20
31.2810879048
 11
363.4449727445
 21
31.2810879048
  0
LINE
  8
0
 62
7
  6
CONTINUOUS
 10
369.8621602445
 20
31.2810879048
 11
370.1512223035
 21
31.2810879048
  0
LINE
  8
0
 62
7
  6
CONTINUOUS
 10
363.8496603548
 20
31.4101426505
 11
364.1965353548
 21
31.4101426505
  0
LINE
  8
0
 62
7
  6
CONTINUOUS
 10
368.9949727445
 20
31.4101426505
 11
369.3418477445
 21
31.4101426505
  0
LINE
  8
0
 62
7
  6
CONTINUOUS
 10
369.3418477445
 20
31.5391973962
 11
368.9949727445
 21
31.5391973962
  0
LINE
  8
0
 62
7
  6
CONTINUOUS
 10
367.2605977445
 20
31.5391973962
 11
367.0293479651
 21
31.5391973962
  0
LINE
  8
0
 62
7
  6
CONTINUOUS
 10
366.5090354651
 20
31.5391973962
 11
366.2199727445
 21
31.5391973962
  0
LINE
  8
0
 62
7
  6
CONTINUOUS
 10
365.757472524
 20
31.5391973962
 11
365.4684104651
 21
31.5391973962
  0
LINE
  8
0
 62
7
  6
CONTINUOUS
 10
364.1965353548
 20
31.5391973962
 11
363.8496603548
 21
31.5391973962
  0
LINE
  8
0
 62
7
  6
CONTINUOUS
 10
362.1152853548
 20
31.5391973962
 11
361.8840352445
 21
31.5391973962
  0
LINE
  8
0
 62
7
  6
CONTINUOUS
 10
365.4684104651
 20
31.8618343508
 11
365.757472524
 21
31.8618343508
  0
LINE
  8
0
 62
7
  6
CONTINUOUS
 10
365.757472524
 20
32.0231527829
 11
365.4684104651
 21
32.0231527829
  0
LINE
  8
0
 62
7
  6
CONTINUOUS
 10
361.3637227445
 20
32.0231527829
 11
361.0746601894
 21
32.0231527829
  0
LINE
  8
0
 62
7
  6
CONTINUOUS
 10
360.4015045068
 20
32.3100380288
 11
360.8140758554
 21
32.3100380288
  0
LINE
  8
0
 62
7
  6
CONTINUOUS
 10
362.0408487691
 20
32.3100380288
 11
363.4342913921
 21
32.3100380288
  0
LINE
  8
0
 62
7
  6
CONTINUOUS
 10
363.7621602445
 20
32.3100380288
 11
365.1556028675
 21
32.3100380288
  0
LINE
  8
0
 62
7
  6
CONTINUOUS
 10
367.0408487691
 20
32.3100380288
 11
368.4342913921
 21
32.3100380288
  0
LINE
  8
0
 62
7
  6
CONTINUOUS
 10
368.7621602445
 20
32.3100380288
 11
370.1556028675
 21
32.3100380288
  0
LINE
  8
0
 62
7
  6
CONTINUOUS
 10
366.798097524
 20
31.5069337098
 11
366.624660024
 21
31.4424063369
  0
LINE
  8
0
 62
7
  6
CONTINUOUS
 10
364.369972524
 20
30.5390230296
 11
364.543410024
 21
30.6035504109
  0
LINE
  8
0
 62
7
  6
CONTINUOUS
 10
369.8043479651
 20
30.5390230296
 11
370.0355977445
 21
30.6035504109
  0
LINE
  8
0
 62
7
  6
CONTINUOUS
 10
369.8043479651
 20
30.7003414814
 11
369.6887227445
 21
30.668077795
  0
LINE
  8
0
 62
7
  6
CONTINUOUS
 10
368.7637229651
 20
31.3778789641
 11
368.9949727445
 21
31.4101426505
  0
LINE
  8
0
 62
7
  6
CONTINUOUS
 10
366.798097524
 20
31.3778789641
 11
367.0293479651
 21
31.4101426505
  0
LINE
  8
0
 62
7
  6
CONTINUOUS
 10
363.7340351343
 20
31.0229783683
 11
363.9652852445
 21
31.0552420547
  0
LINE
  8
0
 62
7
  6
CONTINUOUS
 10
367.0293479651
 20
31.5391973962
 11
366.798097524
 21
31.5069337098
  0
LINE
  8
0
 62
7
  6
CONTINUOUS
 10
363.6184102445
 20
31.3778789641
 11
363.8496603548
 21
31.4101426505
  0
LINE
  8
0
 62
7
  6
CONTINUOUS
 10
368.9949727445
 20
31.5391973962
 11
368.6480977445
 21
31.5069337098
  0
LINE
  8
0
 62
7
  6
CONTINUOUS
 10
363.9652852445
 20
31.1842968456
 11
363.6184102445
 21
31.1520331591
  0
LINE
  8
0
 62
7
  6
CONTINUOUS
 10
359.744972717
 20
31.5391973962
 11
359.3980977583
 21
31.5069337098
  0
LINE
  8
0
 62
7
  6
CONTINUOUS
 10
363.8496603548
 20
31.5391973962
 11
363.4449727445
 21
31.5069337098
  0
LINE
  8
0
 62
7
  6
CONTINUOUS
 10
361.221176638
 20
33.4575790124
 11
360.565438933
 21
33.4575790124
  0
LINE
  8
0
 62
7
  6
CONTINUOUS
 10
366.624660024
 20
31.3133515913
 11
366.798097524
 21
31.3778789641
  0
LINE
  8
0
 62
7
  6
CONTINUOUS
 10
368.6480977445
 20
31.3456152777
 11
368.7637229651
 21
31.3778789641
  0
LINE
  8
0
 62
7
  6
CONTINUOUS
 10
368.6480977445
 20
31.5069337098
 11
368.4168479651
 21
31.4424063369
  0
LINE
  8
0
 62
7
  6
CONTINUOUS
 10
364.369972524
 20
30.7003414814
 11
364.0809101343
 21
30.6358140973
  0
LINE
  8
0
 62
7
  6
CONTINUOUS
 10
361.6527851343
 20
31.3778789641
 11
361.8840352445
 21
31.4101426505
  0
LINE
  8
0
 62
7
  6
CONTINUOUS
 10
361.8840352445
 20
31.5391973962
 11
361.6527851343
 21
31.5069337098
  0
LINE
  8
0
 62
7
  6
CONTINUOUS
 10
359.4559102445
 20
31.3778789641
 11
359.6871602721
 21
31.4101426505
  0
LINE
  8
0
 62
7
  6
CONTINUOUS
 10
365.9752749986
 20
34.9329888485
 11
366.6310127035
 21
34.9329888485
  0
LINE
  8
0
 62
7
  6
CONTINUOUS
 10
363.6184102445
 20
30.9907146818
 11
363.7340351343
 21
31.0229783683
  0
LINE
  8
0
 62
7
  6
CONTINUOUS
 10
363.6184102445
 20
31.1520331591
 11
363.3871601343
 21
31.0875057863
  0
LINE
  8
0
 62
7
  6
CONTINUOUS
 10
363.5027853548
 20
31.3456152777
 11
363.6184102445
 21
31.3778789641
  0
LINE
  8
0
 62
7
  6
CONTINUOUS
 10
360.1496602445
 20
30.5390230296
 11
360.3809101894
 21
30.6035504109
  0
LINE
  8
0
 62
7
  6
CONTINUOUS
 10
363.4449727445
 20
31.5069337098
 11
363.3293478548
 21
31.4746700234
  0
LINE
  8
0
 62
7
  6
CONTINUOUS
 10
359.3980977583
 20
31.5069337098
 11
359.2246602583
 21
31.4746700234
  0
LINE
  8
0
 62
7
  6
CONTINUOUS
 10
370.1556028675
 20
36.0805298321
 11
368.7621602445
 21
36.0805298321
  0
LINE
  8
0
 62
7
  6
CONTINUOUS
 10
366.7949471298
 20
36.0805298321
 11
366.3823757812
 21
36.0805298321
  0
LINE
  8
0
 62
7
  6
CONTINUOUS
 10
365.1556028675
 20
36.0805298321
 11
363.7621602445
 21
36.0805298321
  0
LINE
  8
0
 62
7
  6
CONTINUOUS
 10
363.4342913921
 20
36.0805298321
 11
362.0408487691
 21
36.0805298321
  0
LINE
  8
0
 62
7
  6
CONTINUOUS
 10
360.1556028675
 20
36.0805298321
 11
358.7621602445
 21
36.0805298321
  0
LINE
  8
0
 62
7
  6
CONTINUOUS
 10
359.3402852307
 20
31.3456152777
 11
359.4559102445
 21
31.3778789641
  0
CIRCLE
  8
0
 62
7
  6
CONTINUOUS
 10
369.458881556
 20
38.4165954059
 40
2.0901639344
  0
ARC
  8
0
 62
7
  6
CONTINUOUS
 10
360.4015045068
 20
33.9493822911
 40
1.6393442623
 50
180.0
 51
270.0
  0
ARC
  8
0
 62
7
  6
CONTINUOUS
 10
366.7949471298
 20
34.4411855698
 40
1.6393442623
 50
0.0
 51
90.0
  0
ARC
  8
0
 62
7
  6
CONTINUOUS
 10
360.8140758554
 20
33.7854478649
 40
1.4754098361
 50
270.0
 51
326.2510114041
  0
ARC
  8
0
 62
7
  6
CONTINUOUS
 10
366.3823757812
 20
34.6051199961
 40
1.4754098361
 50
90.0
 51
146.2510114041
  0
ARC
  8
0
 62
7
  6
CONTINUOUS
 10
361.221176638
 20
34.2772511436
 40
0.8196721311
 50
270.0
 51
360.0
  0
ARC
  8
0
 62
7
  6
CONTINUOUS
 10
365.9752749986
 20
34.1133167174
 40
0.8196721311
 50
90.0
 51
180.0
  0
ARC
  8
0
 62
7
  6
CONTINUOUS
 10
360.565438933
 20
33.867415078
 40
0.4098360656
 50
180.0
 51
270.0
  0
ARC
  8
0
 62
7
  6
CONTINUOUS
 10
366.6310127035
 20
34.5231527829
 40
0.4098360656
 50
0.0
 51
90.0
  0
SOLID
  8
0
 62
7
  6
CONTINUOUS
 10
365.4684104651
 20
31.8618347111
 11
365.4684104651
 21
32.0231531947
 12
365.757472524
 22
31.8618347111
 13
365.757472524
 23
32.0231531947
  0
SOLID
  8
0
 62
7
  6
CONTINUOUS
 10
359.744972717
 20
31.5391977439
 11
360.1496602445
 21
31.5069333244
 12
359.3980977583
 22
31.5069333244
 13
359.3980977583
 23
31.5069333244
  0
SOLID
  8
0
 62
7
  6
CONTINUOUS
 10
359.2246602583
 20
31.4746706537
 11
359.3980977583
 21
31.5069333244
 12
360.1496602445
 22
31.5069333244
 13
360.1496602445
 23
31.5069333244
  0
SOLID
  8
0
 62
7
  6
CONTINUOUS
 10
360.1496602445
 20
31.5069333244
 11
360.3809101894
 21
31.4424063504
 12
359.2246602583
 22
31.4746706537
 13
359.2246602583
 23
31.4746706537
  0
SOLID
  8
0
 62
7
  6
CONTINUOUS
 10
359.0512227376
 20
31.4101419116
 11
359.2246602583
 21
31.4746706537
 12
360.3809101894
 22
31.4424063504
 13
360.3809101894
 23
31.4424063504
  0
SOLID
  8
0
 62
7
  6
CONTINUOUS
 10
359.0512227376
 20
31.4101419116
 11
360.3809101894
 21
31.4424063504
 12
359.6871602721
 22
31.4101419116
 13
359.6871602721
 23
31.4101419116
  0
SOLID
  8
0
 62
7
  6
CONTINUOUS
 10
359.6871602721
 20
31.4101419116
 11
360.3809101894
 21
31.4424063504
 12
360.091847717
 22
31.3778792603
 13
360.091847717
 23
31.3778792603
  0
SOLID
  8
0
 62
7
  6
CONTINUOUS
 10
360.3809101894
 20
31.4424063504
 11
360.5543476894
 21
31.345614957
 12
360.091847717
 22
31.3778792603
 13
360.091847717
 23
31.3778792603
  0
SOLID
  8
0
 62
7
  6
CONTINUOUS
 10
360.2652852997
 20
31.3133521701
 11
360.091847717
 21
31.3778792603
 12
360.5543476894
 22
31.345614957
 13
360.5543476894
 23
31.345614957
  0
SOLID
  8
0
 62
7
  6
CONTINUOUS
 10
360.2652852997
 20
31.3133521701
 11
360.5543476894
 21
31.345614957
 12
360.3230977445
 22
31.2165606992
 13
360.3230977445
 23
31.2165606992
  0
SOLID
  8
0
 62
7
  6
CONTINUOUS
 10
360.5543476894
 20
31.345614957
 11
360.6121602997
 21
31.2165606992
 12
360.3230977445
 22
31.2165606992
 13
360.3230977445
 23
31.2165606992
  0
SOLID
  8
0
 62
7
  6
CONTINUOUS
 10
361.6527851343
 20
31.5069329918
 11
361.8840352445
 21
31.5391972951
 12
362.1152853548
 22
31.5391972951
 13
362.1152853548
 23
31.5391972951
  0
SOLID
  8
0
 62
7
  6
CONTINUOUS
 10
362.1152853548
 20
31.5391972951
 11
362.2887228548
 21
31.5069329918
 12
361.6527851343
 22
31.5069329918
 13
361.6527851343
 23
31.5069329918
  0
SOLID
  8
0
 62
7
  6
CONTINUOUS
 10
361.4793477997
 20
31.4424059016
 11
361.6527851343
 21
31.5069329918
 12
362.2887228548
 22
31.5069329918
 13
362.2887228548
 23
31.5069329918
  0
SOLID
  8
0
 62
7
  6
CONTINUOUS
 10
362.2887228548
 20
31.5069329918
 11
362.4621603548
 21
31.4424059016
 12
361.4793477997
 22
31.4424059016
 13
361.4793477997
 23
31.4424059016
  0
SOLID
  8
0
 62
7
  6
CONTINUOUS
 10
362.4621603548
 20
31.4424059016
 11
361.8840352445
 21
31.4101420472
 12
361.4793477997
 22
31.4424059016
 13
361.4793477997
 23
31.4424059016
  0
SOLID
  8
0
 62
7
  6
CONTINUOUS
 10
361.3637227445
 20
31.3778788115
 11
361.4793477997
 21
31.4424059016
 12
361.8840352445
 22
31.4101420472
 13
361.8840352445
 23
31.4101420472
  0
SOLID
  8
0
 62
7
  6
CONTINUOUS
 10
361.8840352445
 20
31.4101420472
 11
361.6527851343
 21
31.3778788115
 12
361.3637227445
 22
31.3778788115
 13
361.3637227445
 23
31.3778788115
  0
SOLID
  8
0
 62
7
  6
CONTINUOUS
 10
361.8840352445
 20
31.4101420472
 11
362.4621603548
 21
31.4424059016
 12
362.1152853548
 22
31.3778788115
 13
362.1152853548
 23
31.3778788115
  0
SOLID
  8
0
 62
7
  6
CONTINUOUS
 10
362.4621603548
 20
31.4424059016
 11
362.5777852445
 21
31.3778788115
 12
362.1152853548
 22
31.3778788115
 13
362.1152853548
 23
31.3778788115
  0
SOLID
  8
0
 62
7
  6
CONTINUOUS
 10
362.2309102445
 20
31.345614957
 11
362.1152853548
 21
31.3778788115
 12
362.5777852445
 22
31.3778788115
 13
362.5777852445
 23
31.3778788115
  0
SOLID
  8
0
 62
7
  6
CONTINUOUS
 10
362.5777852445
 20
31.3778788115
 11
362.6355978548
 21
31.3133517213
 12
362.2309102445
 22
31.345614957
 13
362.2309102445
 23
31.345614957
  0
SOLID
  8
0
 62
7
  6
CONTINUOUS
 10
362.3465351343
 20
31.2810878668
 11
362.2309102445
 21
31.345614957
 12
362.6355978548
 22
31.3133517213
 13
362.6355978548
 23
31.3133517213
  0
SOLID
  8
0
 62
7
  6
CONTINUOUS
 10
362.3465351343
 20
31.2810878668
 11
362.6355978548
 21
31.3133517213
 12
362.4043477445
 22
31.1520332377
 13
362.4043477445
 23
31.1520332377
  0
SOLID
  8
0
 62
7
  6
CONTINUOUS
 10
362.6355978548
 20
31.3133517213
 11
362.6934101343
 21
31.1520332377
 12
362.4043477445
 22
31.1520332377
 13
362.4043477445
 23
31.1520332377
  0
SOLID
  8
0
 62
7
  6
CONTINUOUS
 10
361.6527851343
 20
31.3778788115
 11
361.4793477997
 21
31.3133517213
 12
361.3637227445
 22
31.3778788115
 13
361.3637227445
 23
31.3778788115
  0
SOLID
  8
0
 62
7
  6
CONTINUOUS
 10
361.4793477997
 20
31.3133517213
 11
361.3637227445
 21
31.2488235635
 12
361.3637227445
 22
31.3778788115
 13
361.3637227445
 23
31.3778788115
  0
SOLID
  8
0
 62
7
  6
CONTINUOUS
 10
361.3637227445
 20
31.2488235635
 11
361.0746601894
 21
30.5067593033
 12
361.3637227445
 22
31.3778788115
 13
361.3637227445
 23
31.3778788115
  0
SOLID
  8
0
 62
7
  6
CONTINUOUS
 10
361.3637227445
 20
31.3778788115
 11
361.0746601894
 21
30.5067593033
 12
361.3637227445
 22
32.0231527459
 13
361.3637227445
 23
32.0231527459
  0
SOLID
  8
0
 62
7
  6
CONTINUOUS
 10
361.0746601894
 20
30.5067593033
 11
361.0746601894
 21
32.0231527459
 12
361.3637227445
 22
32.0231527459
 13
361.3637227445
 23
32.0231527459
  0
SOLID
  8
0
 62
7
  6
CONTINUOUS
 10
361.3637227445
 20
31.2488235635
 11
361.3637227445
 21
30.5067593033
 12
361.0746601894
 22
30.5067593033
 13
361.0746601894
 23
30.5067593033
  0
SOLID
  8
0
 62
7
  6
CONTINUOUS
 10
362.4043477445
 20
30.5067593033
 11
362.4043477445
 21
31.1520332377
 12
362.6934101343
 22
31.1520332377
 13
362.6934101343
 23
31.1520332377
  0
SOLID
  8
0
 62
7
  6
CONTINUOUS
 10
362.6934101343
 20
31.1520332377
 11
362.6934101343
 21
30.5067593033
 12
362.4043477445
 22
30.5067593033
 13
362.4043477445
 23
30.5067593033
  0
SOLID
  8
0
 62
7
  6
CONTINUOUS
 10
363.4449727445
 20
31.506933758
 11
363.8496603548
 21
31.5391977507
 12
364.1965353548
 22
31.5391977507
 13
364.1965353548
 23
31.5391977507
  0
SOLID
  8
0
 62
7
  6
CONTINUOUS
 10
364.1965353548
 20
31.5391977507
 11
364.543410024
 21
31.506933758
 12
363.4449727445
 22
31.506933758
 13
363.4449727445
 23
31.506933758
  0
SOLID
  8
0
 62
7
  6
CONTINUOUS
 10
363.3293478548
 20
31.4746706537
 11
363.4449727445
 21
31.506933758
 12
364.543410024
 22
31.506933758
 13
364.543410024
 23
31.506933758
  0
SOLID
  8
0
 62
7
  6
CONTINUOUS
 10
364.543410024
 20
31.506933758
 11
364.716847524
 21
31.4424063504
 12
363.3293478548
 22
31.4746706537
 13
363.3293478548
 23
31.4746706537
  0
SOLID
  8
0
 62
7
  6
CONTINUOUS
 10
363.2137226343
 20
31.4101417797
 11
363.3293478548
 21
31.4746706537
 12
364.716847524
 22
31.4424063504
 13
364.716847524
 23
31.4424063504
  0
SOLID
  8
0
 62
7
  6
CONTINUOUS
 10
363.2137226343
 20
31.4101417797
 11
364.716847524
 21
31.4424063504
 12
363.8496603548
 22
31.4101417797
 13
363.8496603548
 23
31.4101417797
  0
SOLID
  8
0
 62
7
  6
CONTINUOUS
 10
363.8496603548
 20
31.4101417797
 11
364.716847524
 21
31.4424063504
 12
364.1965353548
 22
31.4101417797
 13
364.1965353548
 23
31.4101417797
  0
SOLID
  8
0
 62
7
  6
CONTINUOUS
 10
364.1965353548
 20
31.4101417797
 11
364.716847524
 21
31.4424063504
 12
364.4277854651
 22
31.3778793357
 13
364.4277854651
 23
31.3778793357
  0
SOLID
  8
0
 62
7
  6
CONTINUOUS
 10
364.716847524
 20
31.4424063504
 11
364.8324727445
 21
31.3778793357
 12
364.4277854651
 22
31.3778793357
 13
364.4277854651
 23
31.3778793357
  0
SOLID
  8
0
 62
7
  6
CONTINUOUS
 10
363.1559103548
 20
31.3456153429
 11
363.2137226343
 21
31.4101417797
 12
363.8496603548
 22
31.4101417797
 13
363.8496603548
 23
31.4101417797
  0
SOLID
  8
0
 62
7
  6
CONTINUOUS
 10
364.543410024
 20
31.3456153429
 11
364.4277854651
 21
31.3778793357
 12
364.8324727445
 22
31.3778793357
 13
364.8324727445
 23
31.3778793357
  0
SOLID
  8
0
 62
7
  6
CONTINUOUS
 10
364.543410024
 20
31.3456153429
 11
364.8324727445
 21
31.3778793357
 12
364.6012229651
 22
31.2810881318
 13
364.6012229651
 23
31.2810881318
  0
SOLID
  8
0
 62
7
  6
CONTINUOUS
 10
364.8324727445
 20
31.3778793357
 11
364.890285024
 21
31.2810881318
 12
364.6012229651
 22
31.2810881318
 13
364.6012229651
 23
31.2810881318
  0
SOLID
  8
0
 62
7
  6
CONTINUOUS
 10
364.6012229651
 20
31.1842964734
 11
364.6012229651
 21
31.2810881318
 12
364.890285024
 22
31.2810881318
 13
364.890285024
 23
31.2810881318
  0
SOLID
  8
0
 62
7
  6
CONTINUOUS
 10
364.6012229651
 20
31.1842964734
 11
364.890285024
 21
31.2810881318
 12
364.6012229651
 22
31.0552422931
 13
364.6012229651
 23
31.0552422931
  0
SOLID
  8
0
 62
7
  6
CONTINUOUS
 10
364.6012229651
 20
31.0552422931
 11
364.890285024
 21
31.2810881318
 12
364.6012229651
 22
30.8616599362
 13
364.6012229651
 23
30.8616599362
  0
SOLID
  8
0
 62
7
  6
CONTINUOUS
 10
364.890285024
 20
31.2810881318
 11
364.890285024
 21
30.7648681127
 12
364.6012229651
 22
30.8616599362
 13
364.6012229651
 23
30.8616599362
  0
SOLID
  8
0
 62
7
  6
CONTINUOUS
 10
366.798097524
 20
31.5069339419
 11
367.0293479651
 21
31.5391976292
 12
367.2605977445
 22
31.5391976292
 13
367.2605977445
 23
31.5391976292
  0
SOLID
  8
0
 62
7
  6
CONTINUOUS
 10
367.2605977445
 20
31.5391976292
 11
367.4340352445
 21
31.5069339419
 12
366.798097524
 22
31.5069339419
 13
366.798097524
 23
31.5069339419
  0
SOLID
  8
0
 62
7
  6
CONTINUOUS
 10
366.624660024
 20
31.4424065674
 11
366.798097524
 21
31.5069339419
 12
367.4340352445
 22
31.5069339419
 13
367.4340352445
 23
31.5069339419
  0
SOLID
  8
0
 62
7
  6
CONTINUOUS
 10
367.4340352445
 20
31.5069339419
 11
367.6074727445
 21
31.4424065674
 12
366.624660024
 22
31.4424065674
 13
366.624660024
 23
31.4424065674
  0
SOLID
  8
0
 62
7
  6
CONTINUOUS
 10
367.6074727445
 20
31.4424065674
 11
367.0293479651
 21
31.4101420472
 12
366.624660024
 22
31.4424065674
 13
366.624660024
 23
31.4424065674
  0
SOLID
  8
0
 62
7
  6
CONTINUOUS
 10
366.5090354651
 20
31.377879193
 11
366.624660024
 21
31.4424065674
 12
367.0293479651
 22
31.4101420472
 13
367.0293479651
 23
31.4101420472
  0
SOLID
  8
0
 62
7
  6
CONTINUOUS
 10
367.0293479651
 20
31.4101420472
 11
366.798097524
 21
31.377879193
 12
366.5090354651
 22
31.377879193
 13
366.5090354651
 23
31.377879193
  0
SOLID
  8
0
 62
7
  6
CONTINUOUS
 10
367.0293479651
 20
31.4101420472
 11
367.6074727445
 21
31.4424065674
 12
367.2605977445
 22
31.377879193
 13
367.2605977445
 23
31.377879193
  0
SOLID
  8
0
 62
7
  6
CONTINUOUS
 10
367.6074727445
 20
31.4424065674
 11
367.7230979651
 21
31.377879193
 12
367.2605977445
 22
31.377879193
 13
367.2605977445
 23
31.377879193
  0
SOLID
  8
0
 62
7
  6
CONTINUOUS
 10
367.3762229651
 20
31.345614957
 11
367.2605977445
 21
31.377879193
 12
367.7230979651
 22
31.377879193
 13
367.7230979651
 23
31.377879193
  0
SOLID
  8
0
 62
7
  6
CONTINUOUS
 10
367.3762229651
 20
31.345614957
 11
367.7230979651
 21
31.377879193
 12
367.491847524
 22
31.2810881312
 13
367.491847524
 23
31.2810881312
  0
SOLID
  8
0
 62
7
  6
CONTINUOUS
 10
367.7230979651
 20
31.377879193
 11
367.7809102445
 21
31.2810881312
 12
367.491847524
 22
31.2810881312
 13
367.491847524
 23
31.2810881312
  0
SOLID
  8
0
 62
7
  6
CONTINUOUS
 10
367.5496604651
 20
31.119769695
 11
367.491847524
 21
31.2810881312
 12
367.7809102445
 22
31.2810881312
 13
367.7809102445
 23
31.2810881312
  0
SOLID
  8
0
 62
7
  6
CONTINUOUS
 10
367.7809102445
 20
31.2810881312
 11
367.838722524
 21
31.119769695
 12
367.5496604651
 22
31.119769695
 13
367.5496604651
 23
31.119769695
  0
SOLID
  8
0
 62
7
  6
CONTINUOUS
 10
366.798097524
 20
31.377879193
 11
366.624660024
 21
31.3133521701
 12
366.5090354651
 22
31.377879193
 13
366.5090354651
 23
31.377879193
  0
SOLID
  8
0
 62
7
  6
CONTINUOUS
 10
366.624660024
 20
31.3133521701
 11
366.5090354651
 21
31.2488235635
 12
366.5090354651
 22
31.377879193
 13
366.5090354651
 23
31.377879193
  0
SOLID
  8
0
 62
7
  6
CONTINUOUS
 10
366.5090354651
 20
31.2488235635
 11
366.2199727445
 21
30.5067596374
 12
366.5090354651
 22
31.377879193
 13
366.5090354651
 23
31.377879193
  0
SOLID
  8
0
 62
7
  6
CONTINUOUS
 10
366.5090354651
 20
31.377879193
 11
366.2199727445
 21
30.5067596374
 12
366.5090354651
 22
31.5391976292
 13
366.5090354651
 23
31.5391976292
  0
SOLID
  8
0
 62
7
  6
CONTINUOUS
 10
366.2199727445
 20
30.5067596374
 11
366.2199727445
 21
31.5391976292
 12
366.5090354651
 22
31.5391976292
 13
366.5090354651
 23
31.5391976292
  0
SOLID
  8
0
 62
7
  6
CONTINUOUS
 10
366.5090354651
 20
31.2488235635
 11
366.5090354651
 21
30.5067596374
 12
366.2199727445
 22
30.5067596374
 13
366.2199727445
 23
30.5067596374
  0
SOLID
  8
0
 62
7
  6
CONTINUOUS
 10
367.5496604651
 20
30.5067596374
 11
367.5496604651
 21
31.119769695
 12
367.838722524
 22
31.119769695
 13
367.838722524
 23
31.119769695
  0
SOLID
  8
0
 62
7
  6
CONTINUOUS
 10
367.838722524
 20
31.119769695
 11
367.838722524
 21
30.5067596374
 12
367.5496604651
 22
30.5067596374
 13
367.5496604651
 23
30.5067596374
  0
SOLID
  8
0
 62
7
  6
CONTINUOUS
 10
368.6480977445
 20
31.5069334157
 11
368.9949727445
 21
31.539197762
 12
369.3418477445
 22
31.539197762
 13
369.3418477445
 23
31.539197762
  0
SOLID
  8
0
 62
7
  6
CONTINUOUS
 10
369.3418477445
 20
31.539197762
 11
369.6887227445
 21
31.5069334157
 12
368.6480977445
 22
31.5069334157
 13
368.6480977445
 23
31.5069334157
  0
SOLID
  8
0
 62
7
  6
CONTINUOUS
 10
368.4168479651
 20
31.4424063504
 11
368.6480977445
 21
31.5069334157
 12
369.6887227445
 22
31.5069334157
 13
369.6887227445
 23
31.5069334157
  0
SOLID
  8
0
 62
7
  6
CONTINUOUS
 10
368.4168479651
 20
31.4424063504
 11
369.6887227445
 21
31.5069334406
 12
369.8621602445
 22
31.4746706537
 13
369.8621602445
 23
31.4746706537
  0
SOLID
  8
0
 62
7
  6
CONTINUOUS
 10
368.4168479651
 20
31.4424063504
 11
369.8621602445
 21
31.4746706537
 12
368.9949727445
 22
31.4101421267
 13
368.9949727445
 23
31.4101421267
  0
SOLID
  8
0
 62
7
  6
CONTINUOUS
 10
368.9949727445
 20
31.4101421267
 11
369.8621602445
 21
31.4746706537
 12
369.3418477445
 22
31.4101421267
 13
369.3418477445
 23
31.4101421267
  0
SOLID
  8
0
 62
7
  6
CONTINUOUS
 10
369.8621602445
 20
31.4746706537
 11
370.0355977445
 21
31.4101421267
 12
369.3418477445
 22
31.4101421267
 13
369.3418477445
 23
31.4101421267
  0
SOLID
  8
0
 62
7
  6
CONTINUOUS
 10
369.6887227445
 20
31.3778792603
 11
369.3418477445
 21
31.4101421267
 12
370.0355977445
 22
31.4101421267
 13
370.0355977445
 23
31.4101421267
  0
SOLID
  8
0
 62
7
  6
CONTINUOUS
 10
368.3012227445
 20
31.3456148845
 11
368.4168479651
 21
31.4424063504
 12
368.9949727445
 22
31.4101421267
 13
368.9949727445
 23
31.4101421267
  0
SOLID
  8
0
 62
7
  6
CONTINUOUS
 10
369.6887227445
 20
31.3778792603
 11
370.0355977445
 21
31.4101421267
 12
369.8043479651
 22
31.3456148845
 13
369.8043479651
 23
31.3456148845
  0
SOLID
  8
0
 62
7
  6
CONTINUOUS
 10
369.8043479651
 20
31.3456148845
 11
370.0355977445
 21
31.4101421267
 12
369.8621602445
 22
31.281087868
 13
369.8621602445
 23
31.281087868
  0
SOLID
  8
0
 62
7
  6
CONTINUOUS
 10
370.0355977445
 20
31.4101421267
 11
370.1512223035
 21
31.281087868
 12
369.8621602445
 22
31.281087868
 13
369.8621602445
 23
31.281087868
  0
SOLID
  8
0
 62
7
  6
CONTINUOUS
 10
359.4559102445
 20
31.3778792603
 11
358.9355977445
 21
31.3456148963
 12
359.6871602721
 22
31.4101421155
 13
359.6871602721
 23
31.4101421155
  0
SOLID
  8
0
 62
7
  6
CONTINUOUS
 10
358.9355977445
 20
31.3456148963
 11
359.0512227376
 21
31.4101421155
 12
359.6871602721
 22
31.4101421155
 13
359.6871602721
 23
31.4101421155
  0
SOLID
  8
0
 62
7
  6
CONTINUOUS
 10
359.4559102445
 20
31.3778792603
 11
359.3402852307
 21
31.3456148963
 12
358.9355977445
 22
31.3456148963
 13
358.9355977445
 23
31.3456148963
  0
SOLID
  8
0
 62
7
  6
CONTINUOUS
 10
358.8199727462
 20
31.2165607767
 11
358.9355977445
 21
31.3456148963
 12
359.3402852307
 22
31.3456148963
 13
359.3402852307
 23
31.3456148963
  0
SOLID
  8
0
 62
7
  6
CONTINUOUS
 10
363.1559103548
 20
31.3456149608
 11
363.8496603548
 21
31.4101420472
 12
363.6184102445
 22
31.3778792603
 13
363.6184102445
 23
31.3778792603
  0
SOLID
  8
0
 62
7
  6
CONTINUOUS
 10
363.6184102445
 20
31.3778792603
 11
363.5027853548
 21
31.3456149608
 12
363.1559103548
 22
31.3456149608
 13
363.1559103548
 23
31.3456149608
  0
SOLID
  8
0
 62
7
  6
CONTINUOUS
 10
363.1559103548
 20
31.2810878707
 11
363.1559103548
 21
31.3456149608
 12
363.5027853548
 22
31.3456149608
 13
363.5027853548
 23
31.3456149608
  0
SOLID
  8
0
 62
7
  6
CONTINUOUS
 10
363.5027853548
 20
31.3456149608
 11
363.4449727445
 21
31.2810878707
 12
363.1559103548
 22
31.2810878707
 13
363.1559103548
 23
31.2810878707
  0
SOLID
  8
0
 62
7
  6
CONTINUOUS
 10
368.3012227445
 20
31.3456149608
 11
368.9949727445
 21
31.4101420472
 12
368.7637229651
 22
31.3778792603
 13
368.7637229651
 23
31.3778792603
  0
SOLID
  8
0
 62
7
  6
CONTINUOUS
 10
368.7637229651
 20
31.3778792603
 11
368.6480977445
 21
31.3456149608
 12
368.3012227445
 22
31.3456149608
 13
368.3012227445
 23
31.3456149608
  0
SOLID
  8
0
 62
7
  6
CONTINUOUS
 10
368.3012227445
 20
31.2810878707
 11
368.3012227445
 21
31.3456149608
 12
368.6480977445
 22
31.3456149608
 13
368.6480977445
 23
31.3456149608
  0
SOLID
  8
0
 62
7
  6
CONTINUOUS
 10
368.6480977445
 20
31.3456149608
 11
368.5902854651
 21
31.2810878707
 12
368.3012227445
 22
31.2810878707
 13
368.3012227445
 23
31.2810878707
  0
SOLID
  8
0
 62
7
  6
CONTINUOUS
 10
368.4168479651
 20
31.1520336865
 11
368.3012227445
 21
31.2810878707
 12
368.5902854651
 22
31.2810878707
 13
368.5902854651
 23
31.2810878707
  0
SOLID
  8
0
 62
7
  6
CONTINUOUS
 10
358.8199727462
 20
31.2165607767
 11
359.3402852307
 21
31.345614957
 12
359.1668477307
 22
31.2488235635
 13
359.1668477307
 23
31.2488235635
  0
SOLID
  8
0
 62
7
  6
CONTINUOUS
 10
359.1668477307
 20
31.2488235635
 11
359.1090352445
 21
31.1842964734
 12
358.8199727462
 22
31.2165607767
 13
358.8199727462
 23
31.2165607767
  0
SOLID
  8
0
 62
7
  6
CONTINUOUS
 10
358.7621602445
 20
31.0229779898
 11
358.8199727462
 21
31.2165607767
 12
359.1090352445
 22
31.1842964734
 13
359.1090352445
 23
31.1842964734
  0
SOLID
  8
0
 62
7
  6
CONTINUOUS
 10
363.6184102445
 20
31.1520336865
 11
363.9652852445
 21
31.1842964611
 12
364.6012229651
 22
31.1842964611
 13
364.6012229651
 23
31.1842964611
  0
SOLID
  8
0
 62
7
  6
CONTINUOUS
 10
363.6184102445
 20
31.1520336865
 11
364.6012229651
 21
31.1842964611
 12
363.3871601343
 22
31.0875057863
 13
363.3871601343
 23
31.0875057863
  0
SOLID
  8
0
 62
7
  6
CONTINUOUS
 10
363.3871601343
 20
31.0875057863
 11
364.6012229651
 21
31.1842964611
 12
363.9652852445
 22
31.0552422808
 13
363.9652852445
 23
31.0552422808
  0
SOLID
  8
0
 62
7
  6
CONTINUOUS
 10
364.6012229651
 20
31.1842964611
 11
364.6012229651
 21
31.0552422808
 12
363.9652852445
 22
31.0552422808
 13
363.9652852445
 23
31.0552422808
  0
SOLID
  8
0
 62
7
  6
CONTINUOUS
 10
368.4168479651
 20
31.1520338754
 11
368.5902854651
 21
31.2810878668
 12
368.6480977445
 22
31.2165607767
 13
368.6480977445
 23
31.2165607767
  0
SOLID
  8
0
 62
7
  6
CONTINUOUS
 10
368.6480977445
 20
31.2165607767
 11
368.8215352445
 21
31.1520338754
 12
368.4168479651
 22
31.1520338754
 13
368.4168479651
 23
31.1520338754
  0
SOLID
  8
0
 62
7
  6
CONTINUOUS
 10
368.6480977445
 20
31.0552422931
 11
368.4168479651
 21
31.1520338754
 12
368.8215352445
 22
31.1520338754
 13
368.8215352445
 23
31.1520338754
  0
SOLID
  8
0
 62
7
  6
CONTINUOUS
 10
368.8215352445
 20
31.1520338754
 11
369.8043479651
 21
30.9907152029
 12
368.6480977445
 22
31.0552422931
 13
368.6480977445
 23
31.0552422931
  0
SOLID
  8
0
 62
7
  6
CONTINUOUS
 10
369.6309104651
 20
30.8939239876
 11
368.6480977445
 21
31.0552422931
 12
369.8043479651
 22
30.9907152029
 13
369.8043479651
 23
30.9907152029
  0
SOLID
  8
0
 62
7
  6
CONTINUOUS
 10
369.8043479651
 20
30.9907152029
 11
370.0355977445
 21
30.8939239876
 12
369.6309104651
 22
30.8939239876
 13
369.6309104651
 23
30.8939239876
  0
SOLID
  8
0
 62
7
  6
CONTINUOUS
 10
369.8043479651
 20
30.8293967193
 11
369.6309104651
 21
30.8939239876
 12
370.0355977445
 22
30.8939239876
 13
370.0355977445
 23
30.8939239876
  0
SOLID
  8
0
 62
7
  6
CONTINUOUS
 10
369.8043479651
 20
30.8293967193
 11
370.0355977445
 21
30.8939239876
 12
369.8621602445
 22
30.7648682694
 13
369.8621602445
 23
30.7648682694
  0
SOLID
  8
0
 62
7
  6
CONTINUOUS
 10
370.0355977445
 20
30.8939239876
 11
370.1512223035
 21
30.7648682694
 12
369.8621602445
 22
30.7648682694
 13
369.8621602445
 23
30.7648682694
  0
SOLID
  8
0
 62
7
  6
CONTINUOUS
 10
369.8043479651
 20
30.7003411846
 11
369.8621602445
 21
30.7648682694
 12
370.1512223035
 22
30.7648682694
 13
370.1512223035
 23
30.7648682694
  0
SOLID
  8
0
 62
7
  6
CONTINUOUS
 10
370.1512223035
 20
30.7648682694
 11
370.1512223035
 21
30.7003411846
 12
369.8043479651
 22
30.7003411846
 13
369.8043479651
 23
30.7003411846
  0
SOLID
  8
0
 62
7
  6
CONTINUOUS
 10
369.6887227445
 20
30.6680782357
 11
369.8043479651
 21
30.7003411846
 12
370.1512223035
 22
30.7003411846
 13
370.1512223035
 23
30.7003411846
  0
SOLID
  8
0
 62
7
  6
CONTINUOUS
 10
369.6887227445
 20
30.6680782357
 11
370.1512223035
 21
30.7003411846
 12
369.4574729651
 22
30.6358140998
 13
369.4574729651
 23
30.6358140998
  0
SOLID
  8
0
 62
7
  6
CONTINUOUS
 10
370.1512223035
 20
30.7003411846
 11
370.0355977445
 21
30.6035511455
 12
369.4574729651
 22
30.6358140998
 13
369.4574729651
 23
30.6358140998
  0
SOLID
  8
0
 62
7
  6
CONTINUOUS
 10
370.0355977445
 20
30.6035511455
 11
368.5902854651
 21
30.5712868422
 12
369.4574729651
 22
30.6358140998
 13
369.4574729651
 23
30.6358140998
  0
SOLID
  8
0
 62
7
  6
CONTINUOUS
 10
369.4574729651
 20
30.6358140998
 11
368.5902854651
 21
30.5712868422
 12
369.1105979651
 22
30.6358140998
 13
369.1105979651
 23
30.6358140998
  0
SOLID
  8
0
 62
7
  6
CONTINUOUS
 10
368.5902854651
 20
30.5712868422
 11
368.4168479651
 21
30.6358140998
 12
369.1105979651
 22
30.6358140998
 13
369.1105979651
 23
30.6358140998
  0
SOLID
  8
0
 62
7
  6
CONTINUOUS
 10
368.5902854651
 20
30.5712868422
 11
370.0355977445
 21
30.6035511455
 12
368.7637229651
 22
30.5390223111
 13
368.7637229651
 23
30.5390223111
  0
SOLID
  8
0
 62
7
  6
CONTINUOUS
 10
370.0355977445
 20
30.6035511455
 11
369.8043479651
 21
30.5390223111
 12
368.7637229651
 22
30.5390223111
 13
368.7637229651
 23
30.5390223111
  0
SOLID
  8
0
 62
7
  6
CONTINUOUS
 10
369.1105979651
 20
30.5067599302
 11
368.7637229651
 21
30.5390223111
 12
369.8043479651
 22
30.5390223111
 13
369.8043479651
 23
30.5390223111
  0
SOLID
  8
0
 62
7
  6
CONTINUOUS
 10
369.8043479651
 20
30.5390223111
 11
369.4574729651
 21
30.5067599302
 12
369.1105979651
 22
30.5067599302
 13
369.1105979651
 23
30.5067599302
  0
SOLID
  8
0
 62
7
  6
CONTINUOUS
 10
358.7621602445
 20
31.0229779898
 11
359.1090352445
 21
31.1842964734
 12
359.0512227376
 22
31.0552422931
 13
359.0512227376
 23
31.0552422931
  0
SOLID
  8
0
 62
7
  6
CONTINUOUS
 10
359.0512227376
 20
31.0552422931
 11
359.0512227376
 21
30.9584509954
 12
358.7621602445
 22
31.0229779898
 13
358.7621602445
 23
31.0229779898
  0
SOLID
  8
0
 62
7
  6
CONTINUOUS
 10
358.8199727462
 20
30.8293967193
 11
358.7621602445
 21
31.0229779898
 12
359.0512227376
 22
30.9584509954
 13
359.0512227376
 23
30.9584509954
  0
SOLID
  8
0
 62
7
  6
CONTINUOUS
 10
359.0512227376
 20
30.9584509954
 11
359.1668477307
 21
30.797132416
 12
358.8199727462
 22
30.8293967193
 13
358.8199727462
 23
30.8293967193
  0
SOLID
  8
0
 62
7
  6
CONTINUOUS
 10
358.9355977445
 20
30.7003413087
 11
358.8199727462
 21
30.8293967193
 12
359.1668477307
 22
30.797132416
 13
359.1668477307
 23
30.797132416
  0
SOLID
  8
0
 62
7
  6
CONTINUOUS
 10
359.1668477307
 20
30.797132416
 11
359.3402852307
 21
30.7003413087
 12
358.9355977445
 22
30.7003413087
 13
358.9355977445
 23
30.7003413087
  0
SOLID
  8
0
 62
7
  6
CONTINUOUS
 10
359.0512227376
 20
30.6358140759
 11
358.9355977445
 21
30.7003413087
 12
359.3402852307
 22
30.7003413087
 13
359.3402852307
 23
30.7003413087
  0
SOLID
  8
0
 62
7
  6
CONTINUOUS
 10
359.3402852307
 20
30.7003413087
 11
359.6871602721
 21
30.6358140759
 12
359.0512227376
 22
30.6358140759
 13
359.0512227376
 23
30.6358140759
  0
SOLID
  8
0
 62
7
  6
CONTINUOUS
 10
359.2246602583
 20
30.5712868422
 11
359.0512227376
 21
30.6358140759
 12
359.6871602721
 22
30.6358140759
 13
359.6871602721
 23
30.6358140759
  0
SOLID
  8
0
 62
7
  6
CONTINUOUS
 10
363.2715352445
 20
31.0229779808
 11
363.3871601343
 21
31.0875057863
 12
363.9652852445
 22
31.0552422931
 13
363.9652852445
 23
31.0552422931
  0
SOLID
  8
0
 62
7
  6
CONTINUOUS
 10
363.9652852445
 20
31.0552422931
 11
363.7340351343
 21
31.0229779808
 12
363.2715352445
 22
31.0229779808
 13
363.2715352445
 23
31.0229779808
  0
SOLID
  8
0
 62
7
  6
CONTINUOUS
 10
363.1559103548
 20
30.8939238094
 11
363.2715352445
 21
31.0229779808
 12
363.7340351343
 22
31.0229779808
 13
363.7340351343
 23
31.0229779808
  0
SOLID
  8
0
 62
7
  6
CONTINUOUS
 10
363.5027853548
 20
30.926187309
 11
363.1559103548
 21
30.8939238094
 12
363.6184102445
 22
30.9907152029
 13
363.6184102445
 23
30.9907152029
  0
SOLID
  8
0
 62
7
  6
CONTINUOUS
 10
363.1559103548
 20
30.8939238094
 11
363.7340351343
 21
31.0229779898
 12
363.6184102445
 22
30.9907152029
 13
363.6184102445
 23
30.9907152029
  0
SOLID
  8
0
 62
7
  6
CONTINUOUS
 10
363.5027853548
 20
30.926187309
 11
363.4449727445
 21
30.8293967193
 12
363.1559103548
 22
30.8939238094
 13
363.1559103548
 23
30.8939238094
  0
SOLID
  8
0
 62
7
  6
CONTINUOUS
 10
363.1559103548
 20
30.797132416
 11
363.1559103548
 21
30.8939238094
 12
363.4449727445
 22
30.8293967193
 13
363.4449727445
 23
30.8293967193
  0
SOLID
  8
0
 62
7
  6
CONTINUOUS
 10
363.4449727445
 20
30.8293967193
 11
363.4449727445
 21
30.7648681127
 12
363.1559103548
 22
30.797132416
 13
363.1559103548
 23
30.797132416
  0
SOLID
  8
0
 62
7
  6
CONTINUOUS
 10
363.2137226343
 20
30.6680782357
 11
363.1559103548
 21
30.797132416
 12
363.4449727445
 22
30.7648681127
 13
363.4449727445
 23
30.7648681127
  0
SOLID
  8
0
 62
7
  6
CONTINUOUS
 10
364.6012229651
 20
30.8616599362
 11
364.890285024
 21
30.7648681127
 12
364.543410024
 22
30.797132416
 13
364.543410024
 23
30.797132416
  0
SOLID
  8
0
 62
7
  6
CONTINUOUS
 10
364.369972524
 20
30.7003410226
 11
364.543410024
 21
30.797132416
 12
364.890285024
 22
30.7648681127
 13
364.890285024
 23
30.7648681127
  0
SOLID
  8
0
 62
7
  6
CONTINUOUS
 10
364.369972524
 20
30.7003410226
 11
364.890285024
 21
30.7648681127
 12
364.6012229651
 22
30.6680782357
 13
364.6012229651
 23
30.6680782357
  0
SOLID
  8
0
 62
7
  6
CONTINUOUS
 10
364.890285024
 20
30.7648681127
 11
364.9480979651
 21
30.6035511455
 12
364.6012229651
 22
30.6680782357
 13
364.6012229651
 23
30.6680782357
  0
SOLID
  8
0
 62
7
  6
CONTINUOUS
 10
364.6590352445
 20
30.5712868422
 11
364.6012229651
 21
30.6680782357
 12
364.9480979651
 22
30.6035511455
 13
364.9480979651
 23
30.6035511455
  0
SOLID
  8
0
 62
7
  6
CONTINUOUS
 10
364.6590352445
 20
30.5712868422
 11
364.9480979651
 21
30.6035511455
 12
364.716847524
 22
30.5067598731
 13
364.716847524
 23
30.5067598731
  0
SOLID
  8
0
 62
7
  6
CONTINUOUS
 10
364.9480979651
 20
30.6035511455
 11
365.0059102445
 21
30.5067598731
 12
364.716847524
 22
30.5067598731
 13
364.716847524
 23
30.5067598731
  0
SOLID
  8
0
 62
7
  6
CONTINUOUS
 10
360.2652852997
 20
30.7326051679
 11
360.3230977445
 21
30.8293966612
 12
360.6121602997
 22
30.8293966612
 13
360.6121602997
 23
30.8293966612
  0
SOLID
  8
0
 62
7
  6
CONTINUOUS
 10
360.6121602997
 20
30.8293966612
 11
360.5543476894
 21
30.7003410226
 12
360.2652852997
 22
30.7326051679
 13
360.2652852997
 23
30.7326051679
  0
SOLID
  8
0
 62
7
  6
CONTINUOUS
 10
360.091847717
 20
30.6680782357
 11
360.2652852997
 21
30.7326051679
 12
360.5543476894
 22
30.7003410226
 13
360.5543476894
 23
30.7003410226
  0
SOLID
  8
0
 62
7
  6
CONTINUOUS
 10
360.091847717
 20
30.6680782357
 11
360.5543476894
 21
30.7003410226
 12
359.6871602721
 22
30.6358139324
 13
359.6871602721
 23
30.6358139324
  0
SOLID
  8
0
 62
7
  6
CONTINUOUS
 10
360.5543476894
 20
30.7003410226
 11
360.3809101894
 21
30.6035511455
 12
359.6871602721
 22
30.6358139324
 13
359.6871602721
 23
30.6358139324
  0
SOLID
  8
0
 62
7
  6
CONTINUOUS
 10
359.2246602583
 20
30.5712868422
 11
359.6871602721
 21
30.6358139324
 12
360.3809101894
 22
30.6035511455
 13
360.3809101894
 23
30.6035511455
  0
SOLID
  8
0
 62
7
  6
CONTINUOUS
 10
359.2246602583
 20
30.5712868422
 11
360.3809101894
 21
30.6035511455
 12
359.3980977583
 22
30.5390224228
 13
359.3980977583
 23
30.5390224228
  0
SOLID
  8
0
 62
7
  6
CONTINUOUS
 10
360.3809101894
 20
30.6035511455
 11
360.1496602445
 21
30.5390224228
 12
359.3980977583
 22
30.5390224228
 13
359.3980977583
 23
30.5390224228
  0
SOLID
  8
0
 62
7
  6
CONTINUOUS
 10
359.744972717
 20
30.5067597521
 11
359.3980977583
 21
30.5390224228
 12
360.1496602445
 22
30.5390224228
 13
360.1496602445
 23
30.5390224228
  0
SOLID
  8
0
 62
7
  6
CONTINUOUS
 10
363.2137226343
 20
30.6680782357
 11
363.4449727445
 21
30.7648681127
 12
363.5027853548
 22
30.7003410226
 13
363.5027853548
 23
30.7003410226
  0
SOLID
  8
0
 62
7
  6
CONTINUOUS
 10
363.5027853548
 20
30.7003410226
 11
363.7340351343
 21
30.6358139324
 12
363.2137226343
 22
30.6680782357
 13
363.2137226343
 23
30.6680782357
  0
SOLID
  8
0
 62
7
  6
CONTINUOUS
 10
363.3871601343
 20
30.5712868422
 11
363.2137226343
 21
30.6680782357
 12
363.7340351343
 22
30.6358139324
 13
363.7340351343
 23
30.6358139324
  0
SOLID
  8
0
 62
7
  6
CONTINUOUS
 10
364.0809101343
 20
30.6358139363
 11
364.369972524
 21
30.7003410226
 12
364.6012229651
 22
30.6680782357
 13
364.6012229651
 23
30.6680782357
  0
SOLID
  8
0
 62
7
  6
CONTINUOUS
 10
364.6012229651
 20
30.6680782357
 11
364.543410024
 21
30.6035511455
 12
364.0809101343
 22
30.6358139363
 13
364.0809101343
 23
30.6358139363
  0
SOLID
  8
0
 62
7
  6
CONTINUOUS
 10
364.543410024
 20
30.6035511455
 11
363.3871601343
 21
30.5712868422
 12
364.0809101343
 22
30.6358139363
 13
364.0809101343
 23
30.6358139363
  0
SOLID
  8
0
 62
7
  6
CONTINUOUS
 10
363.3871601343
 20
30.5712868422
 11
363.7340351343
 21
30.6358139363
 12
364.0809101343
 22
30.6358139363
 13
364.0809101343
 23
30.6358139363
  0
SOLID
  8
0
 62
7
  6
CONTINUOUS
 10
363.3871601343
 20
30.5712868422
 11
364.543410024
 21
30.6035511455
 12
363.5027853548
 22
30.5390225267
 13
363.5027853548
 23
30.5390225267
  0
SOLID
  8
0
 62
7
  6
CONTINUOUS
 10
364.543410024
 20
30.6035511455
 11
364.369972524
 21
30.5390225267
 12
363.5027853548
 22
30.5390225267
 13
363.5027853548
 23
30.5390225267
  0
SOLID
  8
0
 62
7
  6
CONTINUOUS
 10
363.7340351343
 20
30.5067596914
 11
363.5027853548
 21
30.5390225267
 12
364.369972524
 22
30.5390225267
 13
364.369972524
 23
30.5390225267
  0
SOLID
  8
0
 62
7
  6
CONTINUOUS
 10
364.369972524
 20
30.5390225267
 11
364.0809101343
 21
30.5067596914
 12
363.7340351343
 22
30.5067596914
 13
363.7340351343
 23
30.5067596914
  0
SOLID
  8
0
 62
7
  6
CONTINUOUS
 10
368.7637229651
 20
30.6680782357
 11
368.4168479651
 21
30.6358138717
 12
368.6480977445
 22
30.7003410226
 13
368.6480977445
 23
30.7003410226
  0
SOLID
  8
0
 62
7
  6
CONTINUOUS
 10
368.6480977445
 20
30.7003410226
 11
368.4168479651
 21
30.6358138717
 12
368.5902854651
 22
30.7648680521
 13
368.5902854651
 23
30.7648680521
  0
SOLID
  8
0
 62
7
  6
CONTINUOUS
 10
368.4168479651
 20
30.6358138717
 11
368.3012227445
 21
30.7648680521
 12
368.5902854651
 22
30.7648680521
 13
368.5902854651
 23
30.7648680521
  0
SOLID
  8
0
 62
7
  6
CONTINUOUS
 10
368.7637229651
 20
30.6680782357
 11
369.1105979651
 21
30.6358138717
 12
368.4168479651
 22
30.6358138717
 13
368.4168479651
 23
30.6358138717
  0
SOLID
  8
0
 62
7
  6
CONTINUOUS
 10
365.4684104651
 20
30.5067597521
 11
365.4684104651
 21
31.5391977439
 12
365.757472524
 22
30.5067597521
 13
365.757472524
 23
31.5391977439
  0
ENDBLK
  8
0
  6
BYBLOCK
 62
0
  0
BLOCK
  8
0
 62
2
  6
CONTINUOUS
  2
SYMBOL_0_BL0
 70
64
 10
240.8592468615
 20
19.762288695
  0
TEXT
  8
0
 62
7
  6
CONTINUOUS
 10
227.1239507038
 20
19.1357028027
  7
TEXTSTYLE_3
 40
2.7338706658
  1
Ammeraal Beltech
 41
1.0
 51
15.0
 72
0
  0
TEXT
  8
0
 62
7
  6
CONTINUOUS
 10
237.9247515296
 20
16.8621661299
  7
TEXTSTYLE_4
 40
1.0935482663
  1
Innovation & Service in Belting
 41
1.0
 72
0
  0
LINE
  8
0
 62
7
  6
CONTINUOUS
 10
221.0994100525
 20
19.9022961113
 11
221.8775620458
 21
23.5632134089
  0
LINE
  8
0
 62
7
  6
CONTINUOUS
 10
231.9727303357
 20
27.2266073205
 11
222.3653797889
 21
24.1049898993
  0
LINE
  8
0
 62
7
  6
CONTINUOUS
 10
221.3246933848
 20
19.2089453082
 11
228.8317686459
 21
12.4495443822
  0
LINE
  8
0
 62
7
  6
CONTINUOUS
 10
221.5872277955
 20
20.4440726016
 11
232.3954971607
 21
23.9558922005
  0
LINE
  8
0
 62
7
  6
CONTINUOUS
 10
232.3912920235
 20
13.6061036368
 11
223.9458323548
 21
21.2104296785
  0
LINE
  8
0
 62
7
  6
CONTINUOUS
 10
232.9111147433
 20
26.3816822048
 11
231.9345552061
 21
21.7873308023
  0
LINE
  8
0
 62
7
  6
CONTINUOUS
 10
231.2347532584
 20
18.4950214885
 11
230.5483050469
 21
15.2655365641
  0
LINE
  8
0
 62
7
  6
CONTINUOUS
 10
233.5922108419
 20
13.9963058145
 11
234.5484423775
 21
18.4950214885
  0
LINE
  8
0
 62
7
  6
CONTINUOUS
 10
235.2482443252
 20
21.7873308023
 11
235.6924861276
 21
23.8773241617
  0
LINE
  8
0
 62
7
  6
CONTINUOUS
 10
229.5448697213
 20
12.2979700695
 11
233.1043930989
 21
13.4545293241
  0
LINE
  8
0
 62
7
  6
CONTINUOUS
 10
232.685831411
 20
27.0750330078
 11
235.4672027953
 21
24.5706749648
  0
ARC
  8
0
 62
7
  6
CONTINUOUS
 10
222.5906631212
 20
23.4116390962
 40
0.7290321776
 50
108.0
 51
168.0
  0
ARC
  8
0
 62
7
  6
CONTINUOUS
 10
232.198013668
 20
26.5332565175
 40
0.7290321776
 50
348.0
 51
108.0
  0
ARC
  8
0
 62
7
  6
CONTINUOUS
 10
234.9793850522
 20
24.0288984744
 40
0.7290321776
 50
348.0
 51
48.0
  0
ARC
  8
0
 62
7
  6
CONTINUOUS
 10
229.319586389
 20
12.9913208726
 40
0.7290321776
 50
228.0
 51
288.0
  0
ARC
  8
0
 62
7
  6
CONTINUOUS
 10
221.8125111278
 20
19.7507217986
 40
0.7290321776
 50
108.0
 51
228.0
  0
ARC
  8
0
 62
7
  6
CONTINUOUS
 10
232.8791097665
 20
14.1478801272
 40
0.7290321776
 50
228.0
 51
348.0
  0
ENDBLK
  8
0
  6
BYBLOCK
 62
0
  0
ENDSEC
  0
SECTION
  2
ENTITIES
  0
TEXT
  8
0
 62
5
  6
CONTINUOUS
 10
304.937007874
 20
25.636
  7
TEXTSTYLE_2
 40
2.8
  1
Scale :
 41
0.6
 51
0.000019
 72
0
  0
TEXT
  8
0
 62
5
  6
CONTINUOUS
 10
324.937007874
 20
25.636
  7
TEXTSTYLE_2
 40
2.8
  1
Belt type:
 41
0.6
 51
0.000019
 72
0
  0
INSERT
  8
0
 62
2
  6
CONTINUOUS
  2
SYMBOL_0_BL0
 10
240.8592468615
 20
19.762288695
  0
INSERT
  8
0
 62
2
  6
CONTINUOUS
  2
SYMBOL_5_BL1
 10
382.7840918555
 20
35.5067593403
  0
LINE
  8
0
 62
2
  6
CONTINUOUS
 10
218.937007874
 20
30.0
 11
408.937007874
 21
30.0
  0
LINE
  8
0
 62
2
  6
CONTINUOUS
 10
218.937007874
 20
30.0
 11
218.937007874
 21
10.0
  0
LINE
  8
0
 62
2
  6
CONTINUOUS
 10
218.937007874
 20
10.0
 11
408.937007874
 21
10.0
  0
LINE
  8
0
 62
2
  6
CONTINUOUS
 10
303.937007874
 20
30.0
 11
303.937007874
 21
10.0
  0
LINE
  8
0
 62
2
  6
CONTINUOUS
 10
323.937007874
 20
30.0
 11
323.937007874
 21
10.0
  0
LINE
  8
0
 62
2
  6
CONTINUOUS
 10
408.937007874
 20
30.0
 11
408.937007874
 21
10.0
  0
TEXT
  8
0
 62
5
  6
CONTINUOUS
 10
221.937007874
 20
23.303
  7
TEXTSTYLE_5
 40
1.52
  1
                                                                     Ammeraal Beltech Modular A/S
 41
1.0
 72
0
  0
TEXT
  8
0
 62
5
  6
CONTINUOUS
 10
221.937007874
 20
20.595
  7
TEXTSTYLE_5
 40
1.5
  1
                                                                      Hjulmagervej 21, 7100 Vejle,  DK
 41
1.0
 72
0
  0
TEXT
  8
0
 62
5
  6
CONTINUOUS
 10
221.937007874
 20
17.881
  7
TEXTSTYLE_5
 40
1.495
  1
                                                                      tel: 
 41
1.0
 72
0
  0
TEXT
  8
0
 62
5
  6
CONTINUOUS
 10
266.9239544389
 20
17.881
  7
TEXTSTYLE_5
 40
1.51
  1
+45 75723100     fax: +45 75723348
 41
1.0
 72
0
  0
TEXT
  8
0
 62
5
  6
CONTINUOUS
 10
221.937007874
 20
15.177
  7
TEXTSTYLE_5
 40
1.5
  1
                                                                      admin@unichains.dk  www.unichains.com
 41
1.0
 72
0
  0
TEXT
  8
0
 62
5
  6
CONTINUOUS
 10
308.687007874
 20
13.75
  7
TEXTSTYLE_6
 40
5.0
  1
1:1
 41
0.7
 72
1
 11
313.937007874
 21
13.75
  0
TEXT
  8
0
 62
5
  6
CONTINUOUS
 10
326.937007874
 20
13.75
  7
TEXTSTYLE_7
 40
7.5
  1
38% Outer K600
 41
0.6880952381
 72
0
  0
LINE
  8
0
 62
7
  6
CONTINUOUS
 10
0.0
 20
0.0
 11
0.0
 21
297.0
  0
LINE
  8
0
 62
7
  6
CONTINUOUS
 10
8.937007874
 20
10.0
 11
8.937007874
 21
287.0
  0
LINE
  8
0
 62
7
  6
CONTINUOUS
 10
0.0
 20
0.0
 11
420.0
 21
0.0
  0
LINE
  8
0
 62
7
  6
CONTINUOUS
 10
408.937007874
 20
10.0
 11
8.937007874
 21
10.0
  0
LINE
  8
0
 62
7
  6
CONTINUOUS
 10
218.937007874
 20
30.0
 11
408.937007874
 21
30.0
  0
LINE
  8
0
 62
7
  6
CONTINUOUS
 10
210.0
 20
297.0
 11
210.0
 21
292.0
  0
LINE
  8
0
 62
7
  6
CONTINUOUS
 10
210.0
 20
0.0
 11
210.0
 21
5.0
  0
LINE
  8
0
 62
7
  6
CONTINUOUS
 10
8.937007874
 20
287.0
 11
408.937007874
 21
287.0
  0
LINE
  8
0
 62
7
  6
CONTINUOUS
 10
0.0
 20
297.0
 11
420.0
 21
297.0
  0
LINE
  8
0
 62
7
  6
CONTINUOUS
 10
408.937007874
 20
287.0
 11
408.937007874
 21
10.0
  0
LINE
  8
0
 62
7
  6
CONTINUOUS
 10
420.0
 20
0.0
 11
420.0
 21
297.0
  0
LINE
  8
0
 62
7
  6
CONTINUOUS
 10
64.7417554303
 20
217.7964238622
 11
64.7417554303
 21
232.5964238622
  0
LINE
  8
0
 62
7
  6
CONTINUOUS
 10
64.7430842337
 20
229.2599953336
 11
64.7440873159
 21
229.251928836
  0
LINE
  8
0
 62
7
  6
CONTINUOUS
 10
74.9807152136
 20
218.8111613534
 11
74.7839947945
 21
221.2722855139
  0
LINE
  8
SURFACE
 62
7
  6
CONTINUOUS
 10
74.7839947945
 20
221.2722855139
 11
74.2782131386
 21
227.6000041035
  0
LINE
  8
0
 62
7
  6
CONTINUOUS
 10
70.4917554303
 20
218.8039285556
 11
70.4917554303
 21
217.2964238622
  0
LINE
  8
0
 62
7
  6
CONTINUOUS
 10
71.3417554303
 20
221.8087129225
 11
71.3417554303
 21
232.5964238622
  0
LINE
  8
0
 62
7
  6
CONTINUOUS
 10
72.9417554303
 20
232.5438834622
 11
72.9417554303
 21
232.5964238622
  0
POLYLINE
  8
0
 62
7
  6
CONTINUOUS
 66
1
 70
0
  0
VERTEX
  8
0
 62
7
  6
CONTINUOUS
 10
70.4917553761
 20
218.8039412731
  0
VERTEX
  8
0
 62
7
  6
CONTINUOUS
 10
70.4934866697
 20
218.8365371497
  0
VERTEX
  8
0
 62
7
  6
CONTINUOUS
 10
70.5003524111
 20
218.8798086022
  0
VERTEX
  8
0
 62
7
  6
CONTINUOUS
 10
70.5134037145
 20
218.9289381822
  0
VERTEX
  8
0
 62
7
  6
CONTINUOUS
 10
70.533351596
 20
218.9826674094
  0
VERTEX
  8
0
 62
7
  6
CONTINUOUS
 10
70.560724501
 20
219.0397245259
  0
VERTEX
  8
0
 62
7
  6
CONTINUOUS
 10
70.5912000159
 20
219.0914662559
  0
SEQEND
  0
LINE
  8
SURFACE
 62
7
  6
CONTINUOUS
 10
71.4901657972
 20
223.6574606856
 11
71.3425826532
 21
221.8110817327
  0
LINE
  8
0
 62
7
  6
CONTINUOUS
 10
71.1027946131
 20
218.8111484201
 11
71.8858010281
 21
228.6071625498
  0
POLYLINE
  8
0
 62
7
  6
CONTINUOUS
 66
1
 70
0
  0
VERTEX
  8
0
 62
7
  6
CONTINUOUS
 10
72.9340556609
 20
232.4895680192
  0
VERTEX
  8
0
 62
7
  6
CONTINUOUS
 10
72.9394957429
 20
232.5145492612
  0
VERTEX
  8
0
 62
7
  6
CONTINUOUS
 10
72.9417044376
 20
232.5400204153
  0
VERTEX
  8
0
 62
7
  6
CONTINUOUS
 10
72.9417552234
 20
232.544527252
  0
SEQEND
  0
LINE
  8
0
 62
7
  6
CONTINUOUS
 10
71.9917577991
 20
229.1925285102
 11
72.9340565515
 21
232.4895711354
  0
LINE
  8
0
 62
7
  6
CONTINUOUS
 10
72.4574673589
 20
230.8256015307
 11
72.4669490782
 21
230.8552026528
  0
LINE
  8
0
 62
7
  6
CONTINUOUS
 10
72.4569527262
 20
230.8241441667
 11
72.4572461942
 21
230.8250560025
  0
POLYLINE
  8
0
 62
7
  6
CONTINUOUS
 66
1
 70
0
  0
VERTEX
  8
0
 62
7
  6
CONTINUOUS
 10
72.4669453535
 20
230.8551909353
  0
VERTEX
  8
0
 62
7
  6
CONTINUOUS
 10
72.451198865
 20
230.8087506701
  0
VERTEX
  8
0
 62
7
  6
CONTINUOUS
 10
72.4293957196
 20
230.7598448133
  0
VERTEX
  8
0
 62
7
  6
CONTINUOUS
 10
72.4018607157
 20
230.7112401207
  0
VERTEX
  8
0
 62
7
  6
CONTINUOUS
 10
72.3686128359
 20
230.6639831335
  0
VERTEX
  8
0
 62
7
  6
CONTINUOUS
 10
72.3299015172
 20
230.619151373
  0
VERTEX
  8
0
 62
7
  6
CONTINUOUS
 10
72.2861977086
 20
230.5777844889
  0
VERTEX
  8
0
 62
7
  6
CONTINUOUS
 10
72.2382604528
 20
230.5408873388
  0
VERTEX
  8
0
 62
7
  6
CONTINUOUS
 10
72.1869776944
 20
230.5092473526
  0
VERTEX
  8
0
 62
7
  6
CONTINUOUS
 10
72.1333904319
 20
230.4834583959
  0
VERTEX
  8
0
 62
7
  6
CONTINUOUS
 10
72.0785753021
 20
230.4638548194
  0
VERTEX
  8
0
 62
7
  6
CONTINUOUS
 10
72.0233122224
 20
230.4504673353
  0
VERTEX
  8
0
 62
7
  6
CONTINUOUS
 10
71.9954228785
 20
230.4467888583
  0
SEQEND
  0
LINE
  8
0
 62
7
  6
CONTINUOUS
 10
72.4368179693
 20
230.7748729643
 11
72.4574673589
 21
230.8256015307
  0
POLYLINE
  8
0
 62
7
  6
CONTINUOUS
 66
1
 70
0
  0
VERTEX
  8
0
 62
7
  6
CONTINUOUS
 10
74.9807097814
 20
218.8112236834
  0
VERTEX
  8
0
 62
7
  6
CONTINUOUS
 10
74.9875841318
 20
218.7452339195
  0
VERTEX
  8
0
 62
7
  6
CONTINUOUS
 10
75.0006394469
 20
218.6629058848
  0
VERTEX
  8
0
 62
7
  6
CONTINUOUS
 10
75.0180261103
 20
218.5832234834
  0
VERTEX
  8
0
 62
7
  6
CONTINUOUS
 10
75.0392766716
 20
218.5063988995
  0
VERTEX
  8
0
 62
7
  6
CONTINUOUS
 10
75.0639186485
 20
218.4326418946
  0
VERTEX
  8
0
 62
7
  6
CONTINUOUS
 10
75.0914716988
 20
218.3621346391
  0
VERTEX
  8
0
 62
7
  6
CONTINUOUS
 10
75.1214891806
 20
218.2949381065
  0
VERTEX
  8
0
 62
7
  6
CONTINUOUS
 10
75.1535488646
 20
218.2310574149
  0
VERTEX
  8
0
 62
7
  6
CONTINUOUS
 10
75.1872281599
 20
218.1704991529
  0
VERTEX
  8
0
 62
7
  6
CONTINUOUS
 10
75.2221013332
 20
218.1132655731
  0
VERTEX
  8
0
 62
7
  6
CONTINUOUS
 10
75.2577373492
 20
218.0593542661
  0
VERTEX
  8
0
 62
7
  6
CONTINUOUS
 10
75.293701232
 20
218.00875669
  0
VERTEX
  8
0
 62
7
  6
CONTINUOUS
 10
75.3295403628
 20
217.9614776019
  0
VERTEX
  8
0
 62
7
  6
CONTINUOUS
 10
75.3647388849
 20
217.9175872436
  0
VERTEX
  8
0
 62
7
  6
CONTINUOUS
 10
75.3987617754
 20
217.8771647324
  0
VERTEX
  8
0
 62
7
  6
CONTINUOUS
 10
75.4312133008
 20
217.8401333471
  0
VERTEX
  8
0
 62
7
  6
CONTINUOUS
 10
75.4619307176
 20
217.8061945158
  0
VERTEX
  8
0
 62
7
  6
CONTINUOUS
 10
75.4907471257
 20
217.7751179084
  0
VERTEX
  8
0
 62
7
  6
CONTINUOUS
 10
75.5636350304
 20
217.698010195
  0
SEQEND
  0
POLYLINE
  8
SURFACE
 62
7
  6
CONTINUOUS
 66
1
 70
0
  0
VERTEX
  8
SURFACE
 62
7
  6
CONTINUOUS
 10
74.2782131386
 20
227.6000041035
  0
VERTEX
  8
SURFACE
 62
7
  6
CONTINUOUS
 10
74.2748059415
 20
227.6362373296
  0
VERTEX
  8
SURFACE
 62
7
  6
CONTINUOUS
 10
74.2703849316
 20
227.6723676457
  0
VERTEX
  8
SURFACE
 62
7
  6
CONTINUOUS
 10
74.2649541171
 20
227.7083599846
  0
VERTEX
  8
SURFACE
 62
7
  6
CONTINUOUS
 10
74.2585189646
 20
227.74417992
  0
VERTEX
  8
SURFACE
 62
7
  6
CONTINUOUS
 10
74.2510854552
 20
227.7797976286
  0
VERTEX
  8
SURFACE
 62
7
  6
CONTINUOUS
 10
74.2426593842
 20
227.8151881436
  0
VERTEX
  8
SURFACE
 62
7
  6
CONTINUOUS
 10
74.2332464474
 20
227.8503285956
  0
VERTEX
  8
SURFACE
 62
7
  6
CONTINUOUS
 10
74.2228546435
 20
227.8851895899
  0
VERTEX
  8
SURFACE
 62
7
  6
CONTINUOUS
 10
74.2115132688
 20
227.9196830105
  0
VERTEX
  8
SURFACE
 62
7
  6
CONTINUOUS
 10
74.1992135181
 20
227.9538448061
  0
VERTEX
  8
SURFACE
 62
7
  6
CONTINUOUS
 10
74.1859907583
 20
227.9875855129
  0
VERTEX
  8
SURFACE
 62
7
  6
CONTINUOUS
 10
74.1718636076
 20
228.0208743622
  0
VERTEX
  8
SURFACE
 62
7
  6
CONTINUOUS
 10
74.1568236623
 20
228.0537412588
  0
SEQEND
  0
LINE
  8
0
 62
7
  6
CONTINUOUS
 10
75.5917554303
 20
217.6675932414
 11
75.5917554303
 21
217.2964238622
  0
LINE
  8
0
 62
7
  6
CONTINUOUS
 10
72.4109992597
 20
230.7255715001
 11
72.4374926765
 21
230.7763316625
  0
LINE
  8
0
 62
7
  6
CONTINUOUS
 10
72.3791650111
 20
230.6768411299
 11
72.4118389639
 21
230.7270096703
  0
LINE
  8
SURFACE
 62
7
  6
CONTINUOUS
 10
83.4606414623
 20
217.8112223409
 11
83.4681929936
 21
217.7167468611
  0
LINE
  8
0
 62
7
  6
CONTINUOUS
 10
83.4620444456
 20
217.793669938
 11
83.1423926283
 21
221.7927606974
  0
LINE
  8
0
 62
7
  6
CONTINUOUS
 10
83.1408619782
 20
221.8119103111
 11
82.5977097024
 21
228.6071641774
  0
POLYLINE
  8
0
 62
7
  6
CONTINUOUS
 66
1
 70
0
  0
VERTEX
  8
0
 62
7
  6
CONTINUOUS
 10
82.8160354394
 20
225.8757408191
  0
VERTEX
  8
0
 62
7
  6
CONTINUOUS
 10
82.812095228
 20
225.9444952616
  0
VERTEX
  8
0
 62
7
  6
CONTINUOUS
 10
82.8115182401
 20
226.00645974
  0
VERTEX
  8
0
 62
7
  6
CONTINUOUS
 10
82.8138771486
 20
226.0620984776
  0
VERTEX
  8
0
 62
7
  6
CONTINUOUS
 10
82.8188090093
 20
226.1119325101
  0
VERTEX
  8
0
 62
7
  6
CONTINUOUS
 10
82.8260713436
 20
226.156714584
  0
VERTEX
  8
0
 62
7
  6
CONTINUOUS
 10
82.8355067441
 20
226.1969126314
  0
VERTEX
  8
0
 62
7
  6
CONTINUOUS
 10
82.8470615616
 20
226.2329348356
  0
SEQEND
  0
POLYLINE
  8
0
 62
7
  6
CONTINUOUS
 66
1
 70
0
  0
VERTEX
  8
0
 62
7
  6
CONTINUOUS
 10
83.1417554303
 20
222.1353764851
  0
VERTEX
  8
0
 62
7
  6
CONTINUOUS
 10
83.1388474071
 20
222.2293257249
  0
VERTEX
  8
0
 62
7
  6
CONTINUOUS
 10
83.1298119825
 20
222.3314684802
  0
VERTEX
  8
0
 62
7
  6
CONTINUOUS
 10
83.1141887537
 20
222.4423532991
  0
VERTEX
  8
0
 62
7
  6
CONTINUOUS
 10
83.0915472166
 20
222.5624812358
  0
SEQEND
  0
LINE
  8
0
 62
7
  6
CONTINUOUS
 10
81.5417554303
 20
232.5438631723
 11
81.5417554303
 21
232.5964238622
  0
LINE
  8
0
 62
7
  6
CONTINUOUS
 10
83.1417554303
 20
232.5964238622
 11
83.1417554303
 21
221.808686792
  0
LINE
  8
SURFACE
 62
7
  6
CONTINUOUS
 10
80.2052977221
 20
227.6000041054
 11
79.415317867
 21
217.7167468611
  0
POLYLINE
  8
0
 62
7
  6
CONTINUOUS
 66
1
 70
0
  0
VERTEX
  8
0
 62
7
  6
CONTINUOUS
 10
70.5912194478
 20
219.0914967516
  0
VERTEX
  8
0
 62
7
  6
CONTINUOUS
 10
70.6215417542
 20
219.1373255384
  0
VERTEX
  8
0
 62
7
  6
CONTINUOUS
 10
70.6620592853
 20
219.1961391468
  0
VERTEX
  8
0
 62
7
  6
CONTINUOUS
 10
70.755903197
 20
219.3304160304
  0
SEQEND
  0
POLYLINE
  8
0
 62
7
  6
CONTINUOUS
 66
1
 70
0
  0
VERTEX
  8
0
 62
7
  6
CONTINUOUS
 10
70.755903197
 20
219.3304160304
  0
VERTEX
  8
0
 62
7
  6
CONTINUOUS
 10
70.8069192487
 20
219.4055809993
  0
VERTEX
  8
0
 62
7
  6
CONTINUOUS
 10
70.8591746976
 20
219.4860787516
  0
VERTEX
  8
0
 62
7
  6
CONTINUOUS
 10
70.9115990906
 20
219.5719297154
  0
VERTEX
  8
0
 62
7
  6
CONTINUOUS
 10
70.9632389371
 20
219.6632671671
  0
VERTEX
  8
0
 62
7
  6
CONTINUOUS
 10
71.0132366703
 20
219.7603251336
  0
VERTEX
  8
0
 62
7
  6
CONTINUOUS
 10
71.0607349676
 20
219.8632821527
  0
VERTEX
  8
0
 62
7
  6
CONTINUOUS
 10
71.1049183757
 20
219.9723510069
  0
VERTEX
  8
0
 62
7
  6
CONTINUOUS
 10
71.1449984444
 20
220.087798149
  0
VERTEX
  8
0
 62
7
  6
CONTINUOUS
 10
71.1801822078
 20
220.2099479442
  0
VERTEX
  8
0
 62
7
  6
CONTINUOUS
 10
71.2095909132
 20
220.3389864353
  0
VERTEX
  8
0
 62
7
  6
CONTINUOUS
 10
71.2322530032
 20
220.4748829441
  0
VERTEX
  8
0
 62
7
  6
CONTINUOUS
 10
71.2458428559
 20
220.6007901005
  0
SEQEND
  0
LINE
  8
0
 62
7
  6
CONTINUOUS
 10
72.3410569162
 20
230.6294677376
 11
72.3801696977
 21
230.6782312367
  0
POLYLINE
  8
SURFACE
 62
7
  6
CONTINUOUS
 66
1
 70
0
  0
VERTEX
  8
SURFACE
 62
7
  6
CONTINUOUS
 10
74.1568236623
 20
228.0537412588
  0
VERTEX
  8
SURFACE
 62
7
  6
CONTINUOUS
 10
74.1234164087
 20
228.1192872254
  0
VERTEX
  8
SURFACE
 62
7
  6
CONTINUOUS
 10
74.0842521359
 20
228.186208828
  0
VERTEX
  8
SURFACE
 62
7
  6
CONTINUOUS
 10
74.0384985997
 20
228.2544094159
  0
VERTEX
  8
SURFACE
 62
7
  6
CONTINUOUS
 10
73.9853009816
 20
228.3235161772
  0
VERTEX
  8
SURFACE
 62
7
  6
CONTINUOUS
 10
73.9240548461
 20
228.3926296522
  0
VERTEX
  8
SURFACE
 62
7
  6
CONTINUOUS
 10
73.8539771277
 20
228.460923483
  0
VERTEX
  8
SURFACE
 62
7
  6
CONTINUOUS
 10
73.7746175628
 20
228.5271061998
  0
VERTEX
  8
SURFACE
 62
7
  6
CONTINUOUS
 10
73.6855714746
 20
228.5898012935
  0
VERTEX
  8
SURFACE
 62
7
  6
CONTINUOUS
 10
73.5868667184
 20
228.6473169666
  0
VERTEX
  8
SURFACE
 62
7
  6
CONTINUOUS
 10
73.4789523945
 20
228.6978323204
  0
VERTEX
  8
SURFACE
 62
7
  6
CONTINUOUS
 10
73.3629145059
 20
228.7394716333
  0
VERTEX
  8
SURFACE
 62
7
  6
CONTINUOUS
 10
73.2400565306
 20
228.7706237615
  0
VERTEX
  8
SURFACE
 62
7
  6
CONTINUOUS
 10
73.1124569156
 20
228.7898963979
  0
SEQEND
  0
POLYLINE
  8
0
 62
7
  6
CONTINUOUS
 66
1
 70
0
  0
VERTEX
  8
0
 62
7
  6
CONTINUOUS
 10
83.0915482547
 20
222.5624756611
  0
VERTEX
  8
0
 62
7
  6
CONTINUOUS
 10
83.0770180062
 20
222.645522059
  0
VERTEX
  8
0
 62
7
  6
CONTINUOUS
 10
83.0668187244
 20
222.7382485286
  0
SEQEND
  0
LINE
  8
0
 62
7
  6
CONTINUOUS
 10
88.1417554303
 20
224.7964238622
 11
88.1417554303
 21
232.5964238622
  0
LINE
  8
0
 62
7
  6
CONTINUOUS
 10
89.7417554303
 20
232.596367459
 11
89.7417554303
 21
232.5964238622
  0
POLYLINE
  8
0
 62
7
  6
CONTINUOUS
 66
1
 70
0
  0
VERTEX
  8
0
 62
7
  6
CONTINUOUS
 10
87.855953364
 20
224.7964238622
  0
VERTEX
  8
0
 62
7
  6
CONTINUOUS
 10
87.8556186732
 20
224.5306597299
  0
VERTEX
  8
0
 62
7
  6
CONTINUOUS
 10
87.8546159642
 20
224.2659845572
  0
VERTEX
  8
0
 62
7
  6
CONTINUOUS
 10
87.8529493223
 20
224.0034829448
  0
VERTEX
  8
0
 62
7
  6
CONTINUOUS
 10
87.8506255392
 20
223.7442307883
  0
VERTEX
  8
0
 62
7
  6
CONTINUOUS
 10
87.847654087
 20
223.4892909521
  0
VERTEX
  8
0
 62
7
  6
CONTINUOUS
 10
87.8440470821
 20
223.2397090093
  0
VERTEX
  8
0
 62
7
  6
CONTINUOUS
 10
87.8398192392
 20
222.9965090027
  0
VERTEX
  8
0
 62
7
  6
CONTINUOUS
 10
87.8349878143
 20
222.7606892977
  0
VERTEX
  8
0
 62
7
  6
CONTINUOUS
 10
87.8295725386
 20
222.5332185359
  0
VERTEX
  8
0
 62
7
  6
CONTINUOUS
 10
87.8235955416
 20
222.3150316328
  0
VERTEX
  8
0
 62
7
  6
CONTINUOUS
 10
87.8170812646
 20
222.1070259585
  0
VERTEX
  8
0
 62
7
  6
CONTINUOUS
 10
87.8100563653
 20
221.9100576232
  0
VERTEX
  8
0
 62
7
  6
CONTINUOUS
 10
87.8025496113
 20
221.7249378753
  0
VERTEX
  8
0
 62
7
  6
CONTINUOUS
 10
87.7945917666
 20
221.5524297391
  0
VERTEX
  8
0
 62
7
  6
CONTINUOUS
 10
87.7862154678
 20
221.3932447733
  0
VERTEX
  8
0
 62
7
  6
CONTINUOUS
 10
87.7774550919
 20
221.2480400424
  0
VERTEX
  8
0
 62
7
  6
CONTINUOUS
 10
87.7683466177
 20
221.1174153294
  0
VERTEX
  8
0
 62
7
  6
CONTINUOUS
 10
87.7589274777
 20
221.0019105352
  0
VERTEX
  8
0
 62
7
  6
CONTINUOUS
 10
87.7492364042
 20
220.9020033544
  0
VERTEX
  8
0
 62
7
  6
CONTINUOUS
 10
87.7393132702
 20
220.8181072038
  0
VERTEX
  8
0
 62
7
  6
CONTINUOUS
 10
87.7291989224
 20
220.7505694044
  0
VERTEX
  8
0
 62
7
  6
CONTINUOUS
 10
87.7189350114
 20
220.6996696704
  0
VERTEX
  8
0
 62
7
  6
CONTINUOUS
 10
87.7085638173
 20
220.6656188749
  0
VERTEX
  8
0
 62
7
  6
CONTINUOUS
 10
87.6981280719
 20
220.6485581189
  0
VERTEX
  8
0
 62
7
  6
CONTINUOUS
 10
87.6928994199
 20
220.6464255209
  0
SEQEND
  0
LINE
  8
0
 62
7
  6
CONTINUOUS
 10
89.0871918394
 20
226.2950480153
 11
89.0940641899
 21
228.7964204624
  0
POLYLINE
  8
0
 62
7
  6
CONTINUOUS
 66
1
 70
0
  0
VERTEX
  8
0
 62
7
  6
CONTINUOUS
 10
88.0390739069
 20
222.6349970927
  0
VERTEX
  8
0
 62
7
  6
CONTINUOUS
 10
88.0588781038
 20
224.0693633194
  0
VERTEX
  8
0
 62
7
  6
CONTINUOUS
 10
88.0698939239
 20
224.7964238622
  0
SEQEND
  0
POLYLINE
  8
0
 62
7
  6
CONTINUOUS
 66
1
 70
0
  0
VERTEX
  8
0
 62
7
  6
CONTINUOUS
 10
88.004893339
 20
220.1985504222
  0
VERTEX
  8
0
 62
7
  6
CONTINUOUS
 10
88.0086336323
 20
220.3855864386
  0
VERTEX
  8
0
 62
7
  6
CONTINUOUS
 10
88.0121718619
 20
220.5807216104
  0
VERTEX
  8
0
 62
7
  6
CONTINUOUS
 10
88.0154829386
 20
220.7839944203
  0
VERTEX
  8
0
 62
7
  6
CONTINUOUS
 10
88.0185405694
 20
220.9954148552
  0
VERTEX
  8
0
 62
7
  6
CONTINUOUS
 10
88.0390739069
 20
222.6349970927
  0
SEQEND
  0
LINE
  8
0
 62
7
  6
CONTINUOUS
 10
87.9969003912
 20
219.8484647164
 11
88.004893339
 21
220.1985504222
  0
LINE
  8
0
 62
7
  6
CONTINUOUS
 10
87.9883676438
 20
219.5295762465
 11
87.9969003912
 21
219.8484647164
  0
LINE
  8
0
 62
7
  6
CONTINUOUS
 10
87.9794483677
 20
219.2406191131
 11
87.9883676438
 21
219.5295762465
  0
LINE
  8
0
 62
7
  6
CONTINUOUS
 10
87.9702765719
 20
218.9800931122
 11
87.9794483677
 21
219.2406191131
  0
LINE
  8
0
 62
7
  6
CONTINUOUS
 10
87.9609816682
 20
218.7466531939
 11
87.9702765719
 21
218.9800931122
  0
LINE
  8
0
 62
7
  6
CONTINUOUS
 10
87.9516861416
 20
218.5389202108
 11
87.9609816682
 21
218.7466531939
  0
LINE
  8
0
 62
7
  6
CONTINUOUS
 10
87.9424693436
 20
218.3547593612
 11
87.9516861416
 21
218.5389202108
  0
LINE
  8
0
 62
7
  6
CONTINUOUS
 10
87.9333455953
 20
218.1912473412
 11
87.9424693436
 21
218.3547593612
  0
LINE
  8
0
 62
7
  6
CONTINUOUS
 10
87.9243050643
 20
218.0457162556
 11
87.9333455953
 21
218.1912473412
  0
LINE
  8
0
 62
7
  6
CONTINUOUS
 10
87.9153654973
 20
217.9164516979
 11
87.9243050643
 21
218.0457162556
  0
POLYLINE
  8
0
 62
7
  6
CONTINUOUS
 66
1
 70
0
  0
VERTEX
  8
0
 62
7
  6
CONTINUOUS
 10
88.1417554303
 20
228.6033822592
  0
VERTEX
  8
0
 62
7
  6
CONTINUOUS
 10
88.1488624875
 20
228.6287072814
  0
VERTEX
  8
0
 62
7
  6
CONTINUOUS
 10
88.1608054978
 20
228.6571790736
  0
VERTEX
  8
0
 62
7
  6
CONTINUOUS
 10
88.1761670093
 20
228.6839615774
  0
VERTEX
  8
0
 62
7
  6
CONTINUOUS
 10
88.194712725
 20
228.7086462974
  0
VERTEX
  8
0
 62
7
  6
CONTINUOUS
 10
88.2161597813
 20
228.730856731
  0
VERTEX
  8
0
 62
7
  6
CONTINUOUS
 10
88.2401810525
 20
228.7502541061
  0
VERTEX
  8
0
 62
7
  6
CONTINUOUS
 10
88.2664101477
 20
228.7665425606
  0
VERTEX
  8
0
 62
7
  6
CONTINUOUS
 10
88.2944469788
 20
228.7794736464
  0
VERTEX
  8
0
 62
7
  6
CONTINUOUS
 10
88.3238626215
 20
228.788849821
  0
VERTEX
  8
0
 62
7
  6
CONTINUOUS
 10
88.3542079616
 20
228.7945285249
  0
VERTEX
  8
0
 62
7
  6
CONTINUOUS
 10
88.3849332452
 20
228.7964237957
  0
SEQEND
  0
LINE
  8
0
 62
7
  6
CONTINUOUS
 10
89.5555766303
 20
231.86508139
 11
88.9048471805
 21
229.5882209697
  0
POLYLINE
  8
0
 62
7
  6
CONTINUOUS
 66
1
 70
0
  0
VERTEX
  8
0
 62
7
  6
CONTINUOUS
 10
82.8470611198
 20
226.2329335916
  0
VERTEX
  8
0
 62
7
  6
CONTINUOUS
 10
82.9156846675
 20
226.4233143603
  0
VERTEX
  8
0
 62
7
  6
CONTINUOUS
 10
82.9769704258
 20
226.6064638194
  0
VERTEX
  8
0
 62
7
  6
CONTINUOUS
 10
83.0291628968
 20
226.7795034241
  0
VERTEX
  8
0
 62
7
  6
CONTINUOUS
 10
83.0713664784
 20
226.9407353765
  0
VERTEX
  8
0
 62
7
  6
CONTINUOUS
 10
83.1032311805
 20
227.0887613417
  0
VERTEX
  8
0
 62
7
  6
CONTINUOUS
 10
83.1251210253
 20
227.2236273486
  0
VERTEX
  8
0
 62
7
  6
CONTINUOUS
 10
83.1377199858
 20
227.3462295364
  0
VERTEX
  8
0
 62
7
  6
CONTINUOUS
 10
83.1417554303
 20
227.4574712393
  0
SEQEND
  0
LINE
  8
0
 62
7
  6
CONTINUOUS
 10
72.2972881251
 20
230.5851116766
 11
72.3422136781
 21
230.6307704894
  0
POLYLINE
  8
0
 62
7
  6
CONTINUOUS
 66
1
 70
0
  0
VERTEX
  8
0
 62
7
  6
CONTINUOUS
 10
75.5636350304
 20
217.698010195
  0
VERTEX
  8
0
 62
7
  6
CONTINUOUS
 10
75.5823467481
 20
217.6779454923
  0
VERTEX
  8
0
 62
7
  6
CONTINUOUS
 10
75.5977464612
 20
217.6610013879
  0
VERTEX
  8
0
 62
7
  6
CONTINUOUS
 10
75.6095971726
 20
217.6474498636
  0
VERTEX
  8
0
 62
7
  6
CONTINUOUS
 10
75.6177826155
 20
217.6375915121
  0
VERTEX
  8
0
 62
7
  6
CONTINUOUS
 10
75.6213492475
 20
217.6330518115
  0
SEQEND
  0
LINE
  8
0
 62
7
  6
CONTINUOUS
 10
75.6213665458
 20
217.6330292139
 11
75.621588727
 21
217.6327336324
  0
LINE
  8
0
 62
7
  6
CONTINUOUS
 10
81.5494541815
 20
232.4895715819
 11
82.4917531073
 21
229.1925283496
  0
POLYLINE
  8
0
 62
7
  6
CONTINUOUS
 66
1
 70
0
  0
VERTEX
  8
0
 62
7
  6
CONTINUOUS
 10
82.5925316331
 20
228.6649137095
  0
VERTEX
  8
0
 62
7
  6
CONTINUOUS
 10
82.5953307964
 20
228.6543576879
  0
VERTEX
  8
0
 62
7
  6
CONTINUOUS
 10
82.6016192331
 20
228.6437481167
  0
VERTEX
  8
0
 62
7
  6
CONTINUOUS
 10
82.6112039686
 20
228.6333848389
  0
VERTEX
  8
0
 62
7
  6
CONTINUOUS
 10
82.6239184994
 20
228.6234227016
  0
VERTEX
  8
0
 62
7
  6
CONTINUOUS
 10
82.639529237
 20
228.6140629232
  0
SEQEND
  0
POLYLINE
  8
0
 62
7
  6
CONTINUOUS
 66
1
 70
0
  0
VERTEX
  8
0
 62
7
  6
CONTINUOUS
 10
91.598041252
 20
225.7964238622
  0
VERTEX
  8
0
 62
7
  6
CONTINUOUS
 10
91.6031406473
 20
225.4878747524
  0
VERTEX
  8
0
 62
7
  6
CONTINUOUS
 10
91.6246328139
 20
224.069359374
  0
VERTEX
  8
0
 62
7
  6
CONTINUOUS
 10
91.6444369881
 20
222.6349944675
  0
VERTEX
  8
0
 62
7
  6
CONTINUOUS
 10
91.6663587941
 20
220.8960944386
  0
SEQEND
  0
POLYLINE
  8
0
 62
7
  6
CONTINUOUS
 66
1
 70
0
  0
VERTEX
  8
0
 62
7
  6
CONTINUOUS
 10
91.6663587941
 20
220.8960944386
  0
VERTEX
  8
0
 62
7
  6
CONTINUOUS
 10
91.6710993435
 20
220.5946964373
  0
VERTEX
  8
0
 62
7
  6
CONTINUOUS
 10
91.6763314064
 20
220.3107648659
  0
VERTEX
  8
0
 62
7
  6
CONTINUOUS
 10
91.6819768674
 20
220.0441568642
  0
VERTEX
  8
0
 62
7
  6
CONTINUOUS
 10
91.6879635034
 20
219.794595107
  0
VERTEX
  8
0
 62
7
  6
CONTINUOUS
 10
91.6942252283
 20
219.5616783734
  0
VERTEX
  8
0
 62
7
  6
CONTINUOUS
 10
91.7007021264
 20
219.3449015953
  0
VERTEX
  8
0
 62
7
  6
CONTINUOUS
 10
91.7073402747
 20
219.1436792891
  0
VERTEX
  8
0
 62
7
  6
CONTINUOUS
 10
91.7140894035
 20
218.9574211935
  0
VERTEX
  8
0
 62
7
  6
CONTINUOUS
 10
91.7208977704
 20
218.7856433137
  0
VERTEX
  8
0
 62
7
  6
CONTINUOUS
 10
91.7277163136
 20
218.6278204453
  0
VERTEX
  8
0
 62
7
  6
CONTINUOUS
 10
91.7345031613
 20
218.4832955872
  0
VERTEX
  8
0
 62
7
  6
CONTINUOUS
 10
91.7412422512
 20
218.3509689835
  0
VERTEX
  8
0
 62
7
  6
CONTINUOUS
 10
91.7479325328
 20
218.2296493648
  0
VERTEX
  8
0
 62
7
  6
CONTINUOUS
 10
91.7545799307
 20
218.1182339751
  0
VERTEX
  8
0
 62
7
  6
CONTINUOUS
 10
91.7611872528
 20
218.0158550147
  0
VERTEX
  8
0
 62
7
  6
CONTINUOUS
 10
91.7677346397
 20
217.9220896786
  0
VERTEX
  8
0
 62
7
  6
CONTINUOUS
 10
91.774199829
 20
217.8365540289
  0
VERTEX
  8
0
 62
7
  6
CONTINUOUS
 10
91.7805631784
 20
217.7588281857
  0
VERTEX
  8
0
 62
7
  6
CONTINUOUS
 10
91.7868065016
 20
217.6884752703
  0
VERTEX
  8
0
 62
7
  6
CONTINUOUS
 10
91.7929052352
 20
217.625125133
  0
VERTEX
  8
0
 62
7
  6
CONTINUOUS
 10
91.7988337423
 20
217.5683948124
  0
VERTEX
  8
0
 62
7
  6
CONTINUOUS
 10
91.8045940338
 20
217.5176470506
  0
VERTEX
  8
0
 62
7
  6
CONTINUOUS
 10
91.8102324256
 20
217.4719556815
  0
VERTEX
  8
0
 62
7
  6
CONTINUOUS
 10
91.8158085297
 20
217.4304603434
  0
VERTEX
  8
0
 62
7
  6
CONTINUOUS
 10
91.8213740166
 20
217.3925168342
  0
VERTEX
  8
0
 62
7
  6
CONTINUOUS
 10
91.8269729512
 20
217.3576462596
  0
VERTEX
  8
0
 62
7
  6
CONTINUOUS
 10
91.8326642288
 20
217.3253720782
  0
VERTEX
  8
0
 62
7
  6
CONTINUOUS
 10
91.8385259002
 20
217.2952169326
  0
VERTEX
  8
0
 62
7
  6
CONTINUOUS
 10
91.844658988
 20
217.2667109466
  0
VERTEX
  8
0
 62
7
  6
CONTINUOUS
 10
91.8512001523
 20
217.2393657443
  0
VERTEX
  8
0
 62
7
  6
CONTINUOUS
 10
91.8583496977
 20
217.2126163175
  0
VERTEX
  8
0
 62
7
  6
CONTINUOUS
 10
91.8664041267
 20
217.18580318
  0
VERTEX
  8
0
 62
7
  6
CONTINUOUS
 10
91.8757861658
 20
217.1582089672
  0
VERTEX
  8
0
 62
7
  6
CONTINUOUS
 10
91.8870164542
 20
217.1292627579
  0
VERTEX
  8
0
 62
7
  6
CONTINUOUS
 10
91.9007070729
 20
217.0985998386
  0
VERTEX
  8
0
 62
7
  6
CONTINUOUS
 10
91.9175615155
 20
217.0660725539
  0
VERTEX
  8
0
 62
7
  6
CONTINUOUS
 10
91.9380363997
 20
217.0322664383
  0
VERTEX
  8
0
 62
7
  6
CONTINUOUS
 10
91.9620265505
 20
216.9985160616
  0
VERTEX
  8
0
 62
7
  6
CONTINUOUS
 10
91.9895910297
 20
216.9655541582
  0
VERTEX
  8
0
 62
7
  6
CONTINUOUS
 10
92.021671035
 20
216.933148844
  0
VERTEX
  8
0
 62
7
  6
CONTINUOUS
 10
92.0591716622
 20
216.9015820205
  0
VERTEX
  8
0
 62
7
  6
CONTINUOUS
 10
92.1020194885
 20
216.8721444342
  0
VERTEX
  8
0
 62
7
  6
CONTINUOUS
 10
92.1496751992
 20
216.8462012458
  0
VERTEX
  8
0
 62
7
  6
CONTINUOUS
 10
92.2012678043
 20
216.8249392235
  0
VERTEX
  8
0
 62
7
  6
CONTINUOUS
 10
92.2558559871
 20
216.8092140563
  0
VERTEX
  8
0
 62
7
  6
CONTINUOUS
 10
92.3123905653
 20
216.7996069605
  0
VERTEX
  8
0
 62
7
  6
CONTINUOUS
 10
92.3691990416
 20
216.7964239016
  0
SEQEND
  0
LINE
  8
0
 62
7
  6
CONTINUOUS
 10
90.5963190212
 20
226.2950480154
 11
90.5894466707
 21
228.7964204624
  0
LINE
  8
0
 62
7
  6
CONTINUOUS
 10
91.5417554303
 20
225.7964238622
 11
91.5417554303
 21
224.7964238622
  0
LINE
  8
0
 62
7
  6
CONTINUOUS
 10
92.1346200829
 20
225.8198891253
 11
92.18657569
 21
228.7964238622
  0
POLYLINE
  8
0
 62
7
  6
CONTINUOUS
 66
1
 70
0
  0
VERTEX
  8
0
 62
7
  6
CONTINUOUS
 10
70.4917554303
 20
217.6675917334
  0
VERTEX
  8
0
 62
7
  6
CONTINUOUS
 10
70.5007629953
 20
217.6775102333
  0
VERTEX
  8
0
 62
7
  6
CONTINUOUS
 10
70.5194285411
 20
217.6975347041
  0
SEQEND
  0
POLYLINE
  8
0
 62
7
  6
CONTINUOUS
 66
1
 70
0
  0
VERTEX
  8
0
 62
7
  6
CONTINUOUS
 10
70.5922766315
 20
217.7745980158
  0
VERTEX
  8
0
 62
7
  6
CONTINUOUS
 10
70.6210954274
 20
217.8056660045
  0
VERTEX
  8
0
 62
7
  6
CONTINUOUS
 10
70.6518091712
 20
217.8395858979
  0
VERTEX
  8
0
 62
7
  6
CONTINUOUS
 10
70.684270177
 20
217.8766085513
  0
VERTEX
  8
0
 62
7
  6
CONTINUOUS
 10
70.718296943
 20
217.9170096866
  0
VERTEX
  8
0
 62
7
  6
CONTINUOUS
 10
70.753490619
 20
217.9608633247
  0
VERTEX
  8
0
 62
7
  6
CONTINUOUS
 10
70.7893256633
 20
218.0080991098
  0
VERTEX
  8
0
 62
7
  6
CONTINUOUS
 10
70.8252859382
 20
218.058644125
  0
VERTEX
  8
0
 62
7
  6
CONTINUOUS
 10
70.8609192945
 20
218.1124945603
  0
VERTEX
  8
0
 62
7
  6
CONTINUOUS
 10
70.8957948718
 20
218.1696635002
  0
VERTEX
  8
0
 62
7
  6
CONTINUOUS
 10
70.9294821893
 20
218.2301520214
  0
VERTEX
  8
0
 62
7
  6
CONTINUOUS
 10
70.9615559216
 20
218.2939574414
  0
VERTEX
  8
0
 62
7
  6
CONTINUOUS
 10
70.9915946171
 20
218.3610748755
  0
VERTEX
  8
0
 62
7
  6
CONTINUOUS
 10
71.0191774108
 20
218.4315000772
  0
VERTEX
  8
0
 62
7
  6
CONTINUOUS
 10
71.0438578956
 20
218.5051697651
  0
VERTEX
  8
0
 62
7
  6
CONTINUOUS
 10
71.0651574298
 20
218.5819044911
  0
VERTEX
  8
0
 62
7
  6
CONTINUOUS
 10
71.0826050016
 20
218.6614977745
  0
VERTEX
  8
0
 62
7
  6
CONTINUOUS
 10
71.0957344685
 20
218.743744679
  0
VERTEX
  8
0
 62
7
  6
CONTINUOUS
 10
71.1027897606
 20
218.8110853601
  0
SEQEND
  0
LINE
  8
0
 62
7
  6
CONTINUOUS
 10
70.5194285411
 20
217.6975347041
 11
70.5922766315
 21
217.7745980158
  0
LINE
  8
0
 62
7
  6
CONTINUOUS
 10
72.249146739
 20
230.5454475983
 11
72.2985624261
 21
230.5862803483
  0
LINE
  8
SURFACE
 62
7
  6
CONTINUOUS
 10
100.2606414623
 20
217.8112223409
 11
100.2681929936
 21
217.7167468611
  0
LINE
  8
0
 62
7
  6
CONTINUOUS
 10
100.2620444456
 20
217.793669938
 11
99.9423926283
 21
221.7927606973
  0
LINE
  8
0
 62
7
  6
CONTINUOUS
 10
99.9408619782
 20
221.8119103111
 11
99.3977097024
 21
228.6071641774
  0
POLYLINE
  8
0
 62
7
  6
CONTINUOUS
 66
1
 70
0
  0
VERTEX
  8
0
 62
7
  6
CONTINUOUS
 10
99.6160354394
 20
225.8757408191
  0
VERTEX
  8
0
 62
7
  6
CONTINUOUS
 10
99.612095228
 20
225.9444952616
  0
VERTEX
  8
0
 62
7
  6
CONTINUOUS
 10
99.6115182401
 20
226.00645974
  0
VERTEX
  8
0
 62
7
  6
CONTINUOUS
 10
99.6138771486
 20
226.0620984776
  0
VERTEX
  8
0
 62
7
  6
CONTINUOUS
 10
99.6188090093
 20
226.1119325101
  0
VERTEX
  8
0
 62
7
  6
CONTINUOUS
 10
99.6260713436
 20
226.156714584
  0
VERTEX
  8
0
 62
7
  6
CONTINUOUS
 10
99.6355067441
 20
226.1969126314
  0
VERTEX
  8
0
 62
7
  6
CONTINUOUS
 10
99.6470615616
 20
226.2329348356
  0
SEQEND
  0
POLYLINE
  8
0
 62
7
  6
CONTINUOUS
 66
1
 70
0
  0
VERTEX
  8
0
 62
7
  6
CONTINUOUS
 10
99.9417554303
 20
222.1353764851
  0
VERTEX
  8
0
 62
7
  6
CONTINUOUS
 10
99.9388474071
 20
222.2293257249
  0
VERTEX
  8
0
 62
7
  6
CONTINUOUS
 10
99.9298119825
 20
222.3314684802
  0
VERTEX
  8
0
 62
7
  6
CONTINUOUS
 10
99.9141887537
 20
222.4423532991
  0
VERTEX
  8
0
 62
7
  6
CONTINUOUS
 10
99.8915472166
 20
222.5624812358
  0
SEQEND
  0
LINE
  8
0
 62
7
  6
CONTINUOUS
 10
95.9150800337
 20
227.7569053494
 11
95.8969351706
 21
228.7964238622
  0
LINE
  8
0
 62
7
  6
CONTINUOUS
 10
98.3417554303
 20
232.5438631723
 11
98.3417554303
 21
232.5964238622
  0
LINE
  8
0
 62
7
  6
CONTINUOUS
 10
99.9417554303
 20
221.808686792
 11
99.9417554303
 21
232.5964238622
  0
LINE
  8
SURFACE
 62
7
  6
CONTINUOUS
 10
97.0052977221
 20
227.6000041054
 11
96.215317867
 21
217.7167468611
  0
LINE
  8
0
 62
7
  6
CONTINUOUS
 10
72.1976866043
 20
230.5113467566
 11
72.25050081
 21
230.54645295
  0
POLYLINE
  8
0
 62
7
  6
CONTINUOUS
 66
1
 70
0
  0
VERTEX
  8
0
 62
7
  6
CONTINUOUS
 10
99.9477286558
 20
221.9905969541
  0
VERTEX
  8
0
 62
7
  6
CONTINUOUS
 10
99.9433068727
 20
222.0294139632
  0
VERTEX
  8
0
 62
7
  6
CONTINUOUS
 10
99.9417554303
 20
222.0709808081
  0
SEQEND
  0
POLYLINE
  8
0
 62
7
  6
CONTINUOUS
 66
1
 70
0
  0
VERTEX
  8
0
 62
7
  6
CONTINUOUS
 10
104.9417554303
 20
227.4574712393
  0
VERTEX
  8
0
 62
7
  6
CONTINUOUS
 10
104.9457877862
 20
227.3462735581
  0
VERTEX
  8
0
 62
7
  6
CONTINUOUS
 10
104.9583815505
 20
227.22368956
  0
VERTEX
  8
0
 62
7
  6
CONTINUOUS
 10
104.9802656069
 20
227.0888356319
  0
VERTEX
  8
0
 62
7
  6
CONTINUOUS
 10
105.012119851
 20
226.9408379129
  0
VERTEX
  8
0
 62
7
  6
CONTINUOUS
 10
105.0543076959
 20
226.7796459329
  0
VERTEX
  8
0
 62
7
  6
CONTINUOUS
 10
105.1064921642
 20
226.606615084
  0
VERTEX
  8
0
 62
7
  6
CONTINUOUS
 10
105.167790659
 20
226.4234162714
  0
VERTEX
  8
0
 62
7
  6
CONTINUOUS
 10
105.2364497655
 20
226.2329335094
  0
SEQEND
  0
LINE
  8
0
 62
7
  6
CONTINUOUS
 10
104.9417554303
 20
221.8087129225
 11
104.9417554303
 21
232.5964238622
  0
POLYLINE
  8
0
 62
7
  6
CONTINUOUS
 66
1
 70
0
  0
VERTEX
  8
0
 62
7
  6
CONTINUOUS
 10
104.9417554303
 20
222.0708484381
  0
VERTEX
  8
0
 62
7
  6
CONTINUOUS
 10
104.9401963383
 20
222.0291078853
  0
VERTEX
  8
0
 62
7
  6
CONTINUOUS
 10
104.9357658894
 20
221.9903758674
  0
SEQEND
  0
LINE
  8
0
 62
7
  6
CONTINUOUS
 10
105.4858011582
 20
228.6071641774
 11
104.9436775137
 21
221.8247792819
  0
LINE
  8
SURFACE
 62
7
  6
CONTINUOUS
 10
104.6228693988
 20
217.8112223474
 11
104.615317867
 21
217.7167468611
  0
LINE
  8
0
 62
7
  6
CONTINUOUS
 10
104.621466415
 20
217.793669938
 11
104.9411195771
 21
221.7927775223
  0
POLYLINE
  8
0
 62
7
  6
CONTINUOUS
 66
1
 70
0
  0
VERTEX
  8
0
 62
7
  6
CONTINUOUS
 10
104.9417554303
 20
228.3209805719
  0
VERTEX
  8
0
 62
7
  6
CONTINUOUS
 10
104.9449177839
 20
228.3552672564
  0
VERTEX
  8
0
 62
7
  6
CONTINUOUS
 10
104.954191351
 20
228.3874977296
  0
VERTEX
  8
0
 62
7
  6
CONTINUOUS
 10
104.9691540407
 20
228.4173550073
  0
VERTEX
  8
0
 62
7
  6
CONTINUOUS
 10
104.9893193817
 20
228.4446870539
  0
VERTEX
  8
0
 62
7
  6
CONTINUOUS
 10
105.0144737289
 20
228.4696924473
  0
VERTEX
  8
0
 62
7
  6
CONTINUOUS
 10
105.0442493077
 20
228.4922986747
  0
VERTEX
  8
0
 62
7
  6
CONTINUOUS
 10
105.0780242079
 20
228.5123455858
  0
VERTEX
  8
0
 62
7
  6
CONTINUOUS
 10
105.1151062239
 20
228.5297767543
  0
VERTEX
  8
0
 62
7
  6
CONTINUOUS
 10
105.1552950474
 20
228.5447884063
  0
VERTEX
  8
0
 62
7
  6
CONTINUOUS
 10
105.1981993815
 20
228.5574357512
  0
VERTEX
  8
0
 62
7
  6
CONTINUOUS
 10
105.2431312245
 20
228.5677042683
  0
VERTEX
  8
0
 62
7
  6
CONTINUOUS
 10
105.2895815172
 20
228.5756583643
  0
SEQEND
  0
POLYLINE
  8
0
 62
7
  6
CONTINUOUS
 66
1
 70
0
  0
VERTEX
  8
0
 62
7
  6
CONTINUOUS
 10
105.0166921724
 20
222.7382489791
  0
VERTEX
  8
0
 62
7
  6
CONTINUOUS
 10
105.0064929406
 20
222.6455226686
  0
VERTEX
  8
0
 62
7
  6
CONTINUOUS
 10
104.9919621154
 20
222.5624731507
  0
SEQEND
  0
LINE
  8
0
 62
7
  6
CONTINUOUS
 10
106.5340566791
 20
232.4895715819
 11
105.5917577532
 21
229.1925283496
  0
POLYLINE
  8
0
 62
7
  6
CONTINUOUS
 66
1
 70
0
  0
VERTEX
  8
0
 62
7
  6
CONTINUOUS
 10
99.6470611198
 20
226.2329335916
  0
VERTEX
  8
0
 62
7
  6
CONTINUOUS
 10
99.7156846675
 20
226.4233143603
  0
VERTEX
  8
0
 62
7
  6
CONTINUOUS
 10
99.7769704258
 20
226.6064638194
  0
VERTEX
  8
0
 62
7
  6
CONTINUOUS
 10
99.8291628968
 20
226.7795034241
  0
VERTEX
  8
0
 62
7
  6
CONTINUOUS
 10
99.8713664784
 20
226.9407353765
  0
VERTEX
  8
0
 62
7
  6
CONTINUOUS
 10
99.9032311805
 20
227.0887613417
  0
VERTEX
  8
0
 62
7
  6
CONTINUOUS
 10
99.9251210253
 20
227.2236273486
  0
VERTEX
  8
0
 62
7
  6
CONTINUOUS
 10
99.9377199858
 20
227.3462295364
  0
VERTEX
  8
0
 62
7
  6
CONTINUOUS
 10
99.9417554303
 20
227.4574712393
  0
SEQEND
  0
LINE
  8
0
 62
7
  6
CONTINUOUS
 10
72.1438650181
 20
230.4833127463
 11
72.1990876331
 21
230.5121754889
  0
POLYLINE
  8
0
 62
7
  6
CONTINUOUS
 66
1
 70
0
  0
VERTEX
  8
0
 62
7
  6
CONTINUOUS
 10
71.3417554303
 20
230.3368197093
  0
VERTEX
  8
0
 62
7
  6
CONTINUOUS
 10
71.3511232154
 20
230.3413097005
  0
VERTEX
  8
0
 62
7
  6
CONTINUOUS
 10
71.3711700184
 20
230.3493557627
  0
VERTEX
  8
0
 62
7
  6
CONTINUOUS
 10
71.3971097695
 20
230.3580502295
  0
VERTEX
  8
0
 62
7
  6
CONTINUOUS
 10
71.4288363534
 20
230.3668922811
  0
VERTEX
  8
0
 62
7
  6
CONTINUOUS
 10
71.4661230467
 20
230.3754768651
  0
VERTEX
  8
0
 62
7
  6
CONTINUOUS
 10
71.5086625314
 20
230.3834847389
  0
VERTEX
  8
0
 62
7
  6
CONTINUOUS
 10
71.5560469016
 20
230.3906600652
  0
VERTEX
  8
0
 62
7
  6
CONTINUOUS
 10
71.6077855347
 20
230.3968004577
  0
SEQEND
  0
LINE
  8
0
 62
7
  6
CONTINUOUS
 10
98.3494541815
 20
232.4895715819
 11
99.2917531073
 21
229.1925283496
  0
POLYLINE
  8
0
 62
7
  6
CONTINUOUS
 66
1
 70
0
  0
VERTEX
  8
0
 62
7
  6
CONTINUOUS
 10
99.3925316331
 20
228.6649137095
  0
VERTEX
  8
0
 62
7
  6
CONTINUOUS
 10
99.3953307964
 20
228.6543576879
  0
VERTEX
  8
0
 62
7
  6
CONTINUOUS
 10
99.4016192331
 20
228.6437481167
  0
VERTEX
  8
0
 62
7
  6
CONTINUOUS
 10
99.4112039686
 20
228.6333848389
  0
VERTEX
  8
0
 62
7
  6
CONTINUOUS
 10
99.4239184994
 20
228.6234227016
  0
VERTEX
  8
0
 62
7
  6
CONTINUOUS
 10
99.439529237
 20
228.6140629232
  0
SEQEND
  0
POLYLINE
  8
0
 62
7
  6
CONTINUOUS
 66
1
 70
0
  0
VERTEX
  8
0
 62
7
  6
CONTINUOUS
 10
99.8915482547
 20
222.5624756611
  0
VERTEX
  8
0
 62
7
  6
CONTINUOUS
 10
99.8770180062
 20
222.645522059
  0
VERTEX
  8
0
 62
7
  6
CONTINUOUS
 10
99.8668187244
 20
222.7382485286
  0
SEQEND
  0
POLYLINE
  8
SURFACE
 62
7
  6
CONTINUOUS
 66
1
 70
0
  0
VERTEX
  8
SURFACE
 62
7
  6
CONTINUOUS
 10
107.8782131386
 20
227.6000041035
  0
VERTEX
  8
SURFACE
 62
7
  6
CONTINUOUS
 10
107.8748059415
 20
227.6362373296
  0
VERTEX
  8
SURFACE
 62
7
  6
CONTINUOUS
 10
107.8703849316
 20
227.6723676457
  0
VERTEX
  8
SURFACE
 62
7
  6
CONTINUOUS
 10
107.8649541171
 20
227.7083599846
  0
VERTEX
  8
SURFACE
 62
7
  6
CONTINUOUS
 10
107.8585189646
 20
227.74417992
  0
VERTEX
  8
SURFACE
 62
7
  6
CONTINUOUS
 10
107.8510854552
 20
227.7797976286
  0
VERTEX
  8
SURFACE
 62
7
  6
CONTINUOUS
 10
107.8426593842
 20
227.8151881436
  0
VERTEX
  8
SURFACE
 62
7
  6
CONTINUOUS
 10
107.8332464474
 20
227.8503285956
  0
VERTEX
  8
SURFACE
 62
7
  6
CONTINUOUS
 10
107.8228546435
 20
227.8851895899
  0
VERTEX
  8
SURFACE
 62
7
  6
CONTINUOUS
 10
107.8115132688
 20
227.9196830105
  0
VERTEX
  8
SURFACE
 62
7
  6
CONTINUOUS
 10
107.7992135181
 20
227.9538448061
  0
VERTEX
  8
SURFACE
 62
7
  6
CONTINUOUS
 10
107.7859907583
 20
227.9875855129
  0
VERTEX
  8
SURFACE
 62
7
  6
CONTINUOUS
 10
107.7718636076
 20
228.0208743622
  0
VERTEX
  8
SURFACE
 62
7
  6
CONTINUOUS
 10
107.7568236623
 20
228.0537412588
  0
SEQEND
  0
LINE
  8
SURFACE
 62
7
  6
CONTINUOUS
 10
108.6681929936
 20
217.7167468611
 11
107.8782131386
 21
227.6000041035
  0
LINE
  8
0
 62
7
  6
CONTINUOUS
 10
106.5417554303
 20
232.5438631723
 11
106.5417554303
 21
232.5964238622
  0
POLYLINE
  8
0
 62
7
  6
CONTINUOUS
 66
1
 70
0
  0
VERTEX
  8
0
 62
7
  6
CONTINUOUS
 10
104.9357658894
 20
221.9903758674
  0
VERTEX
  8
0
 62
7
  6
CONTINUOUS
 10
104.923254168
 20
221.9126663963
  0
VERTEX
  8
0
 62
7
  6
CONTINUOUS
 10
104.9095778929
 20
221.834304096
  0
VERTEX
  8
0
 62
7
  6
CONTINUOUS
 10
104.8941467575
 20
221.752952003
  0
VERTEX
  8
0
 62
7
  6
CONTINUOUS
 10
104.8761321194
 20
221.6659651302
  0
VERTEX
  8
0
 62
7
  6
CONTINUOUS
 10
104.8545508185
 20
221.5711833123
  0
VERTEX
  8
0
 62
7
  6
CONTINUOUS
 10
104.8281948188
 20
221.4669222186
  0
VERTEX
  8
0
 62
7
  6
CONTINUOUS
 10
104.7955313013
 20
221.3519204574
  0
VERTEX
  8
0
 62
7
  6
CONTINUOUS
 10
104.7544001611
 20
221.224902016
  0
VERTEX
  8
0
 62
7
  6
CONTINUOUS
 10
104.7021948705
 20
221.0860057454
  0
VERTEX
  8
0
 62
7
  6
CONTINUOUS
 10
104.6398939023
 20
220.9455007558
  0
VERTEX
  8
0
 62
7
  6
CONTINUOUS
 10
104.5754779016
 20
220.8227543905
  0
VERTEX
  8
0
 62
7
  6
CONTINUOUS
 10
104.5119928476
 20
220.7197494844
  0
VERTEX
  8
0
 62
7
  6
CONTINUOUS
 10
104.4492002643
 20
220.6324509815
  0
VERTEX
  8
0
 62
7
  6
CONTINUOUS
 10
104.3865997191
 20
220.557799157
  0
VERTEX
  8
0
 62
7
  6
CONTINUOUS
 10
104.3234305924
 20
220.4934839728
  0
VERTEX
  8
0
 62
7
  6
CONTINUOUS
 10
104.2603753774
 20
220.4391916459
  0
VERTEX
  8
0
 62
7
  6
CONTINUOUS
 10
104.1988103635
 20
220.3949233926
  0
VERTEX
  8
0
 62
7
  6
CONTINUOUS
 10
104.1391237092
 20
220.3596916134
  0
VERTEX
  8
0
 62
7
  6
CONTINUOUS
 10
104.0812537786
 20
220.3323806913
  0
VERTEX
  8
0
 62
7
  6
CONTINUOUS
 10
104.0246591401
 20
220.311945736
  0
VERTEX
  8
0
 62
7
  6
CONTINUOUS
 10
103.9688808626
 20
220.2977238207
  0
VERTEX
  8
0
 62
7
  6
CONTINUOUS
 10
103.9140312909
 20
220.2893928948
  0
VERTEX
  8
0
 62
7
  6
CONTINUOUS
 10
103.8599527584
 20
220.2866594563
  0
SEQEND
  0
POLYLINE
  8
0
 62
7
  6
CONTINUOUS
 66
1
 70
0
  0
VERTEX
  8
0
 62
7
  6
CONTINUOUS
 10
104.9919634502
 20
222.562480319
  0
VERTEX
  8
0
 62
7
  6
CONTINUOUS
 10
104.9693206486
 20
222.4423444699
  0
VERTEX
  8
0
 62
7
  6
CONTINUOUS
 10
104.9536964803
 20
222.331447655
  0
VERTEX
  8
0
 62
7
  6
CONTINUOUS
 10
104.9446620156
 20
222.2293018255
  0
VERTEX
  8
0
 62
7
  6
CONTINUOUS
 10
104.9417554303
 20
222.1353764851
  0
SEQEND
  0
LINE
  8
0
 62
7
  6
CONTINUOUS
 10
72.0887928465
 20
230.4616921955
 11
72.1452844545
 21
230.4839610934
  0
POLYLINE
  8
0
 62
7
  6
CONTINUOUS
 66
1
 70
0
  0
VERTEX
  8
0
 62
7
  6
CONTINUOUS
 10
105.2364491979
 20
226.2329351078
  0
VERTEX
  8
0
 62
7
  6
CONTINUOUS
 10
105.2480041886
 20
226.1969123213
  0
VERTEX
  8
0
 62
7
  6
CONTINUOUS
 10
105.2574395808
 20
226.1567142356
  0
VERTEX
  8
0
 62
7
  6
CONTINUOUS
 10
105.2647018954
 20
226.1119321876
  0
VERTEX
  8
0
 62
7
  6
CONTINUOUS
 10
105.2696337415
 20
226.0620981046
  0
VERTEX
  8
0
 62
7
  6
CONTINUOUS
 10
105.2719926315
 20
226.006459109
  0
VERTEX
  8
0
 62
7
  6
CONTINUOUS
 10
105.2714155894
 20
225.9444939709
  0
VERTEX
  8
0
 62
7
  6
CONTINUOUS
 10
105.2674754241
 20
225.8757408539
  0
SEQEND
  0
LINE
  8
0
 62
7
  6
CONTINUOUS
 10
115.1417554303
 20
232.5438631723
 11
115.1417554303
 21
232.5964238622
  0
LINE
  8
SURFACE
 62
7
  6
CONTINUOUS
 10
113.8052977221
 20
227.6000041054
 11
113.015317867
 21
217.7167468611
  0
LINE
  8
0
 62
7
  6
CONTINUOUS
 10
97.3603785681
 20
228.5498590646
 11
95.9150800337
 21
227.7569053494
  0
POLYLINE
  8
0
 62
7
  6
CONTINUOUS
 66
1
 70
0
  0
VERTEX
  8
0
 62
7
  6
CONTINUOUS
 10
88.1417554303
 20
232.1904340243
  0
VERTEX
  8
0
 62
7
  6
CONTINUOUS
 10
88.1466668854
 20
232.1921512209
  0
VERTEX
  8
0
 62
7
  6
CONTINUOUS
 10
88.1699117926
 20
232.1990409374
  0
VERTEX
  8
0
 62
7
  6
CONTINUOUS
 10
88.1980180305
 20
232.2061023959
  0
VERTEX
  8
0
 62
7
  6
CONTINUOUS
 10
88.2308918621
 20
232.2130866333
  0
VERTEX
  8
0
 62
7
  6
CONTINUOUS
 10
88.2684164471
 20
232.2197932604
  0
VERTEX
  8
0
 62
7
  6
CONTINUOUS
 10
88.3104439397
 20
232.2260568345
  0
VERTEX
  8
0
 62
7
  6
CONTINUOUS
 10
88.3567905425
 20
232.2317374006
  0
VERTEX
  8
0
 62
7
  6
CONTINUOUS
 10
88.4072317643
 20
232.2367132462
  0
VERTEX
  8
0
 62
7
  6
CONTINUOUS
 10
88.4432973127
 20
232.2396061599
  0
SEQEND
  0
POLYLINE
  8
SURFACE
 62
7
  6
CONTINUOUS
 66
1
 70
0
  0
VERTEX
  8
SURFACE
 62
7
  6
CONTINUOUS
 10
107.7568236623
 20
228.0537412588
  0
VERTEX
  8
SURFACE
 62
7
  6
CONTINUOUS
 10
107.7234164087
 20
228.1192872254
  0
VERTEX
  8
SURFACE
 62
7
  6
CONTINUOUS
 10
107.6842521359
 20
228.186208828
  0
VERTEX
  8
SURFACE
 62
7
  6
CONTINUOUS
 10
107.6384985997
 20
228.2544094159
  0
VERTEX
  8
SURFACE
 62
7
  6
CONTINUOUS
 10
107.5853009816
 20
228.3235161772
  0
VERTEX
  8
SURFACE
 62
7
  6
CONTINUOUS
 10
107.5240548461
 20
228.3926296522
  0
VERTEX
  8
SURFACE
 62
7
  6
CONTINUOUS
 10
107.4539771277
 20
228.460923483
  0
VERTEX
  8
SURFACE
 62
7
  6
CONTINUOUS
 10
107.3746175628
 20
228.5271061998
  0
VERTEX
  8
SURFACE
 62
7
  6
CONTINUOUS
 10
107.2855714746
 20
228.5898012935
  0
VERTEX
  8
SURFACE
 62
7
  6
CONTINUOUS
 10
107.1868667184
 20
228.6473169666
  0
VERTEX
  8
SURFACE
 62
7
  6
CONTINUOUS
 10
107.0789523945
 20
228.6978323204
  0
VERTEX
  8
SURFACE
 62
7
  6
CONTINUOUS
 10
106.9629145059
 20
228.7394716333
  0
VERTEX
  8
SURFACE
 62
7
  6
CONTINUOUS
 10
106.8400565306
 20
228.7706237615
  0
VERTEX
  8
SURFACE
 62
7
  6
CONTINUOUS
 10
106.7124569156
 20
228.7898963979
  0
SEQEND
  0
LINE
  8
SURFACE
 62
7
  6
CONTINUOUS
 10
117.0606414623
 20
217.8112223409
 11
117.0681929936
 21
217.7167468611
  0
LINE
  8
0
 62
7
  6
CONTINUOUS
 10
117.0620444456
 20
217.793669938
 11
116.7423926283
 21
221.7927606974
  0
LINE
  8
0
 62
7
  6
CONTINUOUS
 10
116.7408619782
 20
221.8119103111
 11
116.1977097024
 21
228.6071641774
  0
POLYLINE
  8
0
 62
7
  6
CONTINUOUS
 66
1
 70
0
  0
VERTEX
  8
0
 62
7
  6
CONTINUOUS
 10
116.4160354394
 20
225.8757408191
  0
VERTEX
  8
0
 62
7
  6
CONTINUOUS
 10
116.412095228
 20
225.9444952616
  0
VERTEX
  8
0
 62
7
  6
CONTINUOUS
 10
116.4115182401
 20
226.00645974
  0
VERTEX
  8
0
 62
7
  6
CONTINUOUS
 10
116.4138771486
 20
226.0620984776
  0
VERTEX
  8
0
 62
7
  6
CONTINUOUS
 10
116.4188090093
 20
226.1119325101
  0
VERTEX
  8
0
 62
7
  6
CONTINUOUS
 10
116.4260713436
 20
226.156714584
  0
VERTEX
  8
0
 62
7
  6
CONTINUOUS
 10
116.4355067441
 20
226.1969126314
  0
VERTEX
  8
0
 62
7
  6
CONTINUOUS
 10
116.4470615616
 20
226.2329348356
  0
SEQEND
  0
POLYLINE
  8
0
 62
7
  6
CONTINUOUS
 66
1
 70
0
  0
VERTEX
  8
0
 62
7
  6
CONTINUOUS
 10
116.7417554303
 20
222.1353764851
  0
VERTEX
  8
0
 62
7
  6
CONTINUOUS
 10
116.7388474071
 20
222.2293257249
  0
VERTEX
  8
0
 62
7
  6
CONTINUOUS
 10
116.7298119825
 20
222.3314684802
  0
VERTEX
  8
0
 62
7
  6
CONTINUOUS
 10
116.7141887537
 20
222.4423532991
  0
VERTEX
  8
0
 62
7
  6
CONTINUOUS
 10
116.6915472166
 20
222.5624812358
  0
SEQEND
  0
LINE
  8
0
 62
7
  6
CONTINUOUS
 10
116.7417554303
 20
232.5964238622
 11
116.7417554303
 21
221.808686792
  0
POLYLINE
  8
0
 62
7
  6
CONTINUOUS
 66
1
 70
0
  0
VERTEX
  8
0
 62
7
  6
CONTINUOUS
 10
116.4470611198
 20
226.2329335916
  0
VERTEX
  8
0
 62
7
  6
CONTINUOUS
 10
116.5156846675
 20
226.4233143603
  0
VERTEX
  8
0
 62
7
  6
CONTINUOUS
 10
116.5769704258
 20
226.6064638194
  0
VERTEX
  8
0
 62
7
  6
CONTINUOUS
 10
116.6291628968
 20
226.7795034241
  0
VERTEX
  8
0
 62
7
  6
CONTINUOUS
 10
116.6713664784
 20
226.9407353765
  0
VERTEX
  8
0
 62
7
  6
CONTINUOUS
 10
116.7032311805
 20
227.0887613417
  0
VERTEX
  8
0
 62
7
  6
CONTINUOUS
 10
116.7251210253
 20
227.2236273486
  0
VERTEX
  8
0
 62
7
  6
CONTINUOUS
 10
116.7377199858
 20
227.3462295364
  0
VERTEX
  8
0
 62
7
  6
CONTINUOUS
 10
116.7417554303
 20
227.4574712393
  0
SEQEND
  0
POLYLINE
  8
0
 62
7
  6
CONTINUOUS
 66
1
 70
0
  0
VERTEX
  8
0
 62
7
  6
CONTINUOUS
 10
105.4439816231
 20
228.614062923
  0
VERTEX
  8
0
 62
7
  6
CONTINUOUS
 10
105.4595925025
 20
228.6234227982
  0
VERTEX
  8
0
 62
7
  6
CONTINUOUS
 10
105.4723057547
 20
228.6333838024
  0
VERTEX
  8
0
 62
7
  6
CONTINUOUS
 10
105.4818923547
 20
228.6437490767
  0
VERTEX
  8
0
 62
7
  6
CONTINUOUS
 10
105.4881804174
 20
228.654358512
  0
VERTEX
  8
0
 62
7
  6
CONTINUOUS
 10
105.4909792275
 20
228.6649137103
  0
SEQEND
  0
POLYLINE
  8
0
 62
7
  6
CONTINUOUS
 66
1
 70
0
  0
VERTEX
  8
0
 62
7
  6
CONTINUOUS
 10
87.6928994199
 20
220.6464255209
  0
VERTEX
  8
0
 62
7
  6
CONTINUOUS
 10
87.687670779
 20
220.6485581098
  0
VERTEX
  8
0
 62
7
  6
CONTINUOUS
 10
87.6772350335
 20
220.665618848
  0
VERTEX
  8
0
 62
7
  6
CONTINUOUS
 10
87.6668638391
 20
220.6996696264
  0
VERTEX
  8
0
 62
7
  6
CONTINUOUS
 10
87.6565999277
 20
220.7505693446
  0
VERTEX
  8
0
 62
7
  6
CONTINUOUS
 10
87.6464855793
 20
220.8181071299
  0
VERTEX
  8
0
 62
7
  6
CONTINUOUS
 10
87.6365624448
 20
220.9020032683
  0
VERTEX
  8
0
 62
7
  6
CONTINUOUS
 10
87.6268713706
 20
221.0019104395
  0
VERTEX
  8
0
 62
7
  6
CONTINUOUS
 10
87.6174522298
 20
221.1174152265
  0
VERTEX
  8
0
 62
7
  6
CONTINUOUS
 10
87.6083437548
 20
221.2480399352
  0
VERTEX
  8
0
 62
7
  6
CONTINUOUS
 10
87.5995833781
 20
221.3932446643
  0
VERTEX
  8
0
 62
7
  6
CONTINUOUS
 10
87.5912070785
 20
221.5524296312
  0
VERTEX
  8
0
 62
7
  6
CONTINUOUS
 10
87.583249233
 20
221.724937771
  0
VERTEX
  8
0
 62
7
  6
CONTINUOUS
 10
87.5757424782
 20
221.9100575247
  0
VERTEX
  8
0
 62
7
  6
CONTINUOUS
 10
87.5687175782
 20
222.1070258678
  0
VERTEX
  8
0
 62
7
  6
CONTINUOUS
 10
87.5622033006
 20
222.3150315515
  0
VERTEX
  8
0
 62
7
  6
CONTINUOUS
 10
87.556226303
 20
222.5332184651
  0
VERTEX
  8
0
 62
7
  6
CONTINUOUS
 10
87.5508110269
 20
222.7606892382
  0
VERTEX
  8
0
 62
7
  6
CONTINUOUS
 10
87.5459796015
 20
222.9965089545
  0
VERTEX
  8
0
 62
7
  6
CONTINUOUS
 10
87.5417517583
 20
223.2397089722
  0
VERTEX
  8
0
 62
7
  6
CONTINUOUS
 10
87.5381447532
 20
223.4892909253
  0
VERTEX
  8
0
 62
7
  6
CONTINUOUS
 10
87.5351733008
 20
223.7442307706
  0
VERTEX
  8
0
 62
7
  6
CONTINUOUS
 10
87.5328495176
 20
224.0034829346
  0
VERTEX
  8
0
 62
7
  6
CONTINUOUS
 10
87.5311828757
 20
224.2659845526
  0
VERTEX
  8
0
 62
7
  6
CONTINUOUS
 10
87.5301801666
 20
224.5306597288
  0
VERTEX
  8
0
 62
7
  6
CONTINUOUS
 10
87.5298454758
 20
224.7964238622
  0
SEQEND
  0
LINE
  8
0
 62
7
  6
CONTINUOUS
 10
115.1494541815
 20
232.4895715819
 11
116.0917531073
 21
229.1925283496
  0
POLYLINE
  8
0
 62
7
  6
CONTINUOUS
 66
1
 70
0
  0
VERTEX
  8
0
 62
7
  6
CONTINUOUS
 10
116.1925316331
 20
228.6649137095
  0
VERTEX
  8
0
 62
7
  6
CONTINUOUS
 10
116.1953307964
 20
228.6543576879
  0
VERTEX
  8
0
 62
7
  6
CONTINUOUS
 10
116.2016192331
 20
228.6437481167
  0
VERTEX
  8
0
 62
7
  6
CONTINUOUS
 10
116.2112039686
 20
228.6333848389
  0
VERTEX
  8
0
 62
7
  6
CONTINUOUS
 10
116.2239184994
 20
228.6234227016
  0
VERTEX
  8
0
 62
7
  6
CONTINUOUS
 10
116.239529237
 20
228.6140629232
  0
SEQEND
  0
POLYLINE
  8
0
 62
7
  6
CONTINUOUS
 66
1
 70
0
  0
VERTEX
  8
0
 62
7
  6
CONTINUOUS
 10
116.6915482547
 20
222.5624756611
  0
VERTEX
  8
0
 62
7
  6
CONTINUOUS
 10
116.6770180062
 20
222.645522059
  0
VERTEX
  8
0
 62
7
  6
CONTINUOUS
 10
116.6668187244
 20
222.7382485286
  0
SEQEND
  0
POLYLINE
  8
SURFACE
 62
7
  6
CONTINUOUS
 66
1
 70
0
  0
VERTEX
  8
SURFACE
 62
7
  6
CONTINUOUS
 10
124.6782131386
 20
227.6000041035
  0
VERTEX
  8
SURFACE
 62
7
  6
CONTINUOUS
 10
124.6748059415
 20
227.6362373296
  0
VERTEX
  8
SURFACE
 62
7
  6
CONTINUOUS
 10
124.6703849316
 20
227.6723676457
  0
VERTEX
  8
SURFACE
 62
7
  6
CONTINUOUS
 10
124.6649541171
 20
227.7083599846
  0
VERTEX
  8
SURFACE
 62
7
  6
CONTINUOUS
 10
124.6585189646
 20
227.74417992
  0
VERTEX
  8
SURFACE
 62
7
  6
CONTINUOUS
 10
124.6510854552
 20
227.7797976286
  0
VERTEX
  8
SURFACE
 62
7
  6
CONTINUOUS
 10
124.6426593842
 20
227.8151881436
  0
VERTEX
  8
SURFACE
 62
7
  6
CONTINUOUS
 10
124.6332464474
 20
227.8503285956
  0
VERTEX
  8
SURFACE
 62
7
  6
CONTINUOUS
 10
124.6228546435
 20
227.8851895899
  0
VERTEX
  8
SURFACE
 62
7
  6
CONTINUOUS
 10
124.6115132688
 20
227.9196830105
  0
VERTEX
  8
SURFACE
 62
7
  6
CONTINUOUS
 10
124.5992135181
 20
227.9538448061
  0
VERTEX
  8
SURFACE
 62
7
  6
CONTINUOUS
 10
124.5859907583
 20
227.9875855129
  0
VERTEX
  8
SURFACE
 62
7
  6
CONTINUOUS
 10
124.5718636076
 20
228.0208743622
  0
VERTEX
  8
SURFACE
 62
7
  6
CONTINUOUS
 10
124.5568236623
 20
228.0537412588
  0
SEQEND
  0
LINE
  8
SURFACE
 62
7
  6
CONTINUOUS
 10
125.4681929936
 20
217.7167468611
 11
124.6782131386
 21
227.6000041035
  0
POLYLINE
  8
0
 62
7
  6
CONTINUOUS
 66
1
 70
0
  0
VERTEX
  8
0
 62
7
  6
CONTINUOUS
 10
121.7417554303
 20
227.4574712393
  0
VERTEX
  8
0
 62
7
  6
CONTINUOUS
 10
121.7457877862
 20
227.3462735581
  0
VERTEX
  8
0
 62
7
  6
CONTINUOUS
 10
121.7583815505
 20
227.22368956
  0
VERTEX
  8
0
 62
7
  6
CONTINUOUS
 10
121.7802656069
 20
227.0888356319
  0
VERTEX
  8
0
 62
7
  6
CONTINUOUS
 10
121.812119851
 20
226.9408379129
  0
VERTEX
  8
0
 62
7
  6
CONTINUOUS
 10
121.8543076959
 20
226.7796459329
  0
VERTEX
  8
0
 62
7
  6
CONTINUOUS
 10
121.9064921642
 20
226.606615084
  0
VERTEX
  8
0
 62
7
  6
CONTINUOUS
 10
121.967790659
 20
226.4234162714
  0
VERTEX
  8
0
 62
7
  6
CONTINUOUS
 10
122.0364497655
 20
226.2329335094
  0
SEQEND
  0
LINE
  8
0
 62
7
  6
CONTINUOUS
 10
121.7417554303
 20
221.8087129225
 11
121.7417554303
 21
232.5964238622
  0
LINE
  8
0
 62
7
  6
CONTINUOUS
 10
123.3417554303
 20
232.5438631723
 11
123.3417554303
 21
232.5964238622
  0
LINE
  8
0
 62
7
  6
CONTINUOUS
 10
122.2858011582
 20
228.6071641774
 11
121.7436775137
 21
221.8247792819
  0
LINE
  8
SURFACE
 62
7
  6
CONTINUOUS
 10
121.4228693988
 20
217.8112223474
 11
121.415317867
 21
217.7167468611
  0
LINE
  8
0
 62
7
  6
CONTINUOUS
 10
121.421466415
 20
217.793669938
 11
121.7411195771
 21
221.7927775223
  0
POLYLINE
  8
0
 62
7
  6
CONTINUOUS
 66
1
 70
0
  0
VERTEX
  8
0
 62
7
  6
CONTINUOUS
 10
121.7417554303
 20
228.3209805719
  0
VERTEX
  8
0
 62
7
  6
CONTINUOUS
 10
121.7449177839
 20
228.3552672564
  0
VERTEX
  8
0
 62
7
  6
CONTINUOUS
 10
121.754191351
 20
228.3874977296
  0
VERTEX
  8
0
 62
7
  6
CONTINUOUS
 10
121.7691540407
 20
228.4173550073
  0
VERTEX
  8
0
 62
7
  6
CONTINUOUS
 10
121.7893193817
 20
228.4446870539
  0
VERTEX
  8
0
 62
7
  6
CONTINUOUS
 10
121.8144737289
 20
228.4696924473
  0
VERTEX
  8
0
 62
7
  6
CONTINUOUS
 10
121.8442493077
 20
228.4922986747
  0
VERTEX
  8
0
 62
7
  6
CONTINUOUS
 10
121.8780242079
 20
228.5123455858
  0
VERTEX
  8
0
 62
7
  6
CONTINUOUS
 10
121.9151062239
 20
228.5297767543
  0
VERTEX
  8
0
 62
7
  6
CONTINUOUS
 10
121.9552950475
 20
228.5447884063
  0
VERTEX
  8
0
 62
7
  6
CONTINUOUS
 10
121.9981993815
 20
228.5574357512
  0
VERTEX
  8
0
 62
7
  6
CONTINUOUS
 10
122.0431312245
 20
228.5677042683
  0
VERTEX
  8
0
 62
7
  6
CONTINUOUS
 10
122.0895815172
 20
228.5756583643
  0
SEQEND
  0
POLYLINE
  8
0
 62
7
  6
CONTINUOUS
 66
1
 70
0
  0
VERTEX
  8
0
 62
7
  6
CONTINUOUS
 10
121.8166921724
 20
222.7382489791
  0
VERTEX
  8
0
 62
7
  6
CONTINUOUS
 10
121.8064929406
 20
222.6455226686
  0
VERTEX
  8
0
 62
7
  6
CONTINUOUS
 10
121.7919621154
 20
222.5624731507
  0
SEQEND
  0
POLYLINE
  8
0
 62
7
  6
CONTINUOUS
 66
1
 70
0
  0
VERTEX
  8
0
 62
7
  6
CONTINUOUS
 10
121.7919634502
 20
222.562480319
  0
VERTEX
  8
0
 62
7
  6
CONTINUOUS
 10
121.7693206486
 20
222.4423444699
  0
VERTEX
  8
0
 62
7
  6
CONTINUOUS
 10
121.7536964803
 20
222.331447655
  0
VERTEX
  8
0
 62
7
  6
CONTINUOUS
 10
121.7446620156
 20
222.2293018255
  0
VERTEX
  8
0
 62
7
  6
CONTINUOUS
 10
121.7417554303
 20
222.1353764851
  0
SEQEND
  0
LINE
  8
0
 62
7
  6
CONTINUOUS
 10
123.3340566791
 20
232.4895715819
 11
122.3917577532
 21
229.1925283496
  0
POLYLINE
  8
0
 62
7
  6
CONTINUOUS
 66
1
 70
0
  0
VERTEX
  8
0
 62
7
  6
CONTINUOUS
 10
205.8095448183
 20
221.5154298354
  0
VERTEX
  8
0
 62
7
  6
CONTINUOUS
 10
205.8234321673
 20
221.5186511723
  0
VERTEX
  8
0
 62
7
  6
CONTINUOUS
 10
205.842541548
 20
221.5218378294
  0
VERTEX
  8
0
 62
7
  6
CONTINUOUS
 10
205.8666510013
 20
221.5244541354
  0
VERTEX
  8
0
 62
7
  6
CONTINUOUS
 10
205.8955074887
 20
221.5260716832
  0
VERTEX
  8
0
 62
7
  6
CONTINUOUS
 10
205.9180255632
 20
221.5264235813
  0
SEQEND
  0
POLYLINE
  8
0
 62
7
  6
CONTINUOUS
 66
1
 70
0
  0
VERTEX
  8
0
 62
7
  6
CONTINUOUS
 10
82.639529237
 20
228.6140629232
  0
VERTEX
  8
0
 62
7
  6
CONTINUOUS
 10
82.6552230401
 20
228.6065785027
  0
VERTEX
  8
0
 62
7
  6
CONTINUOUS
 10
82.672433937
 20
228.5999079564
  0
VERTEX
  8
0
 62
7
  6
CONTINUOUS
 10
82.6910675967
 20
228.5940685229
  0
VERTEX
  8
0
 62
7
  6
CONTINUOUS
 10
82.7110842851
 20
228.5890962573
  0
VERTEX
  8
0
 62
7
  6
CONTINUOUS
 10
82.7324087914
 20
228.5850652184
  0
SEQEND
  0
POLYLINE
  8
0
 62
7
  6
CONTINUOUS
 66
1
 70
0
  0
VERTEX
  8
0
 62
7
  6
CONTINUOUS
 10
122.0364491979
 20
226.2329351078
  0
VERTEX
  8
0
 62
7
  6
CONTINUOUS
 10
122.0480041886
 20
226.1969123213
  0
VERTEX
  8
0
 62
7
  6
CONTINUOUS
 10
122.0574395808
 20
226.1567142356
  0
VERTEX
  8
0
 62
7
  6
CONTINUOUS
 10
122.0647018954
 20
226.1119321876
  0
VERTEX
  8
0
 62
7
  6
CONTINUOUS
 10
122.0696337415
 20
226.0620981046
  0
VERTEX
  8
0
 62
7
  6
CONTINUOUS
 10
122.0719926315
 20
226.006459109
  0
VERTEX
  8
0
 62
7
  6
CONTINUOUS
 10
122.0714155894
 20
225.9444939709
  0
VERTEX
  8
0
 62
7
  6
CONTINUOUS
 10
122.0674754241
 20
225.8757408539
  0
SEQEND
  0
LINE
  8
SURFACE
 62
7
  6
CONTINUOUS
 10
130.6052977221
 20
227.6000041054
 11
129.815317867
 21
217.7167468611
  0
POLYLINE
  8
0
 62
7
  6
CONTINUOUS
 66
1
 70
0
  0
VERTEX
  8
0
 62
7
  6
CONTINUOUS
 10
122.2439816231
 20
228.614062923
  0
VERTEX
  8
0
 62
7
  6
CONTINUOUS
 10
122.2595925025
 20
228.6234227982
  0
VERTEX
  8
0
 62
7
  6
CONTINUOUS
 10
122.2723057547
 20
228.6333838024
  0
VERTEX
  8
0
 62
7
  6
CONTINUOUS
 10
122.2818923547
 20
228.6437490767
  0
VERTEX
  8
0
 62
7
  6
CONTINUOUS
 10
122.2881804174
 20
228.654358512
  0
VERTEX
  8
0
 62
7
  6
CONTINUOUS
 10
122.2909792275
 20
228.6649137103
  0
SEQEND
  0
POLYLINE
  8
0
 62
7
  6
CONTINUOUS
 66
1
 70
0
  0
VERTEX
  8
0
 62
7
  6
CONTINUOUS
 10
189.0081892349
 20
221.5150575122
  0
VERTEX
  8
0
 62
7
  6
CONTINUOUS
 10
189.0223727886
 20
221.5184372432
  0
VERTEX
  8
0
 62
7
  6
CONTINUOUS
 10
189.0422167314
 20
221.5217929564
  0
VERTEX
  8
0
 62
7
  6
CONTINUOUS
 10
189.0671779199
 20
221.524497128
  0
VERTEX
  8
0
 62
7
  6
CONTINUOUS
 10
189.096613615
 20
221.5261061918
  0
VERTEX
  8
0
 62
7
  6
CONTINUOUS
 10
189.1180024936
 20
221.5264235874
  0
SEQEND
  0
POLYLINE
  8
0
 62
7
  6
CONTINUOUS
 66
1
 70
0
  0
VERTEX
  8
0
 62
7
  6
CONTINUOUS
 10
99.439529237
 20
228.6140629232
  0
VERTEX
  8
0
 62
7
  6
CONTINUOUS
 10
99.4552230401
 20
228.6065785027
  0
VERTEX
  8
0
 62
7
  6
CONTINUOUS
 10
99.472433937
 20
228.5999079564
  0
VERTEX
  8
0
 62
7
  6
CONTINUOUS
 10
99.4910675967
 20
228.5940685229
  0
VERTEX
  8
0
 62
7
  6
CONTINUOUS
 10
99.5110842851
 20
228.5890962573
  0
VERTEX
  8
0
 62
7
  6
CONTINUOUS
 10
99.5324087914
 20
228.5850652184
  0
SEQEND
  0
POLYLINE
  8
SURFACE
 62
7
  6
CONTINUOUS
 66
1
 70
0
  0
VERTEX
  8
SURFACE
 62
7
  6
CONTINUOUS
 10
124.5568236623
 20
228.0537412588
  0
VERTEX
  8
SURFACE
 62
7
  6
CONTINUOUS
 10
124.5234164087
 20
228.1192872254
  0
VERTEX
  8
SURFACE
 62
7
  6
CONTINUOUS
 10
124.4842521359
 20
228.186208828
  0
VERTEX
  8
SURFACE
 62
7
  6
CONTINUOUS
 10
124.4384985997
 20
228.2544094159
  0
VERTEX
  8
SURFACE
 62
7
  6
CONTINUOUS
 10
124.3853009816
 20
228.3235161772
  0
VERTEX
  8
SURFACE
 62
7
  6
CONTINUOUS
 10
124.3240548461
 20
228.3926296522
  0
VERTEX
  8
SURFACE
 62
7
  6
CONTINUOUS
 10
124.2539771277
 20
228.460923483
  0
VERTEX
  8
SURFACE
 62
7
  6
CONTINUOUS
 10
124.1746175628
 20
228.5271061998
  0
VERTEX
  8
SURFACE
 62
7
  6
CONTINUOUS
 10
124.0855714746
 20
228.5898012935
  0
VERTEX
  8
SURFACE
 62
7
  6
CONTINUOUS
 10
123.9868667184
 20
228.6473169666
  0
VERTEX
  8
SURFACE
 62
7
  6
CONTINUOUS
 10
123.8789523945
 20
228.6978323204
  0
VERTEX
  8
SURFACE
 62
7
  6
CONTINUOUS
 10
123.7629145059
 20
228.7394716333
  0
VERTEX
  8
SURFACE
 62
7
  6
CONTINUOUS
 10
123.6400565306
 20
228.7706237615
  0
VERTEX
  8
SURFACE
 62
7
  6
CONTINUOUS
 10
123.5124569156
 20
228.7898963979
  0
SEQEND
  0
LINE
  8
SURFACE
 62
7
  6
CONTINUOUS
 10
133.8606414623
 20
217.8112223409
 11
133.8681929936
 21
217.7167468611
  0
LINE
  8
0
 62
7
  6
CONTINUOUS
 10
133.8620444456
 20
217.793669938
 11
133.5423926283
 21
221.7927606974
  0
LINE
  8
0
 62
7
  6
CONTINUOUS
 10
133.5408619782
 20
221.8119103111
 11
132.9977097024
 21
228.6071641774
  0
POLYLINE
  8
0
 62
7
  6
CONTINUOUS
 66
1
 70
0
  0
VERTEX
  8
0
 62
7
  6
CONTINUOUS
 10
133.2160354394
 20
225.8757408191
  0
VERTEX
  8
0
 62
7
  6
CONTINUOUS
 10
133.212095228
 20
225.9444952616
  0
VERTEX
  8
0
 62
7
  6
CONTINUOUS
 10
133.2115182401
 20
226.00645974
  0
VERTEX
  8
0
 62
7
  6
CONTINUOUS
 10
133.2138771486
 20
226.0620984776
  0
VERTEX
  8
0
 62
7
  6
CONTINUOUS
 10
133.2188090093
 20
226.1119325101
  0
VERTEX
  8
0
 62
7
  6
CONTINUOUS
 10
133.2260713436
 20
226.156714584
  0
VERTEX
  8
0
 62
7
  6
CONTINUOUS
 10
133.2355067441
 20
226.1969126314
  0
VERTEX
  8
0
 62
7
  6
CONTINUOUS
 10
133.2470615616
 20
226.2329348356
  0
SEQEND
  0
POLYLINE
  8
0
 62
7
  6
CONTINUOUS
 66
1
 70
0
  0
VERTEX
  8
0
 62
7
  6
CONTINUOUS
 10
133.5417554303
 20
222.1353764851
  0
VERTEX
  8
0
 62
7
  6
CONTINUOUS
 10
133.5388474071
 20
222.2293257249
  0
VERTEX
  8
0
 62
7
  6
CONTINUOUS
 10
133.5298119825
 20
222.3314684802
  0
VERTEX
  8
0
 62
7
  6
CONTINUOUS
 10
133.5141887537
 20
222.4423532991
  0
VERTEX
  8
0
 62
7
  6
CONTINUOUS
 10
133.4915472166
 20
222.5624812358
  0
SEQEND
  0
LINE
  8
0
 62
7
  6
CONTINUOUS
 10
131.9417554303
 20
232.5438631723
 11
131.9417554303
 21
232.5964238622
  0
LINE
  8
0
 62
7
  6
CONTINUOUS
 10
133.5417554303
 20
232.5964238622
 11
133.5417554303
 21
221.808686792
  0
POLYLINE
  8
0
 62
7
  6
CONTINUOUS
 66
1
 70
0
  0
VERTEX
  8
0
 62
7
  6
CONTINUOUS
 10
133.2470611198
 20
226.2329335916
  0
VERTEX
  8
0
 62
7
  6
CONTINUOUS
 10
133.3156846675
 20
226.4233143603
  0
VERTEX
  8
0
 62
7
  6
CONTINUOUS
 10
133.3769704258
 20
226.6064638194
  0
VERTEX
  8
0
 62
7
  6
CONTINUOUS
 10
133.4291628968
 20
226.7795034241
  0
VERTEX
  8
0
 62
7
  6
CONTINUOUS
 10
133.4713664784
 20
226.9407353765
  0
VERTEX
  8
0
 62
7
  6
CONTINUOUS
 10
133.5032311805
 20
227.0887613417
  0
VERTEX
  8
0
 62
7
  6
CONTINUOUS
 10
133.5251210253
 20
227.2236273486
  0
VERTEX
  8
0
 62
7
  6
CONTINUOUS
 10
133.5377199858
 20
227.3462295364
  0
VERTEX
  8
0
 62
7
  6
CONTINUOUS
 10
133.5417554303
 20
227.4574712393
  0
SEQEND
  0
POLYLINE
  8
0
 62
7
  6
CONTINUOUS
 66
1
 70
0
  0
VERTEX
  8
0
 62
7
  6
CONTINUOUS
 10
138.5417554303
 20
232.1904340243
  0
VERTEX
  8
0
 62
7
  6
CONTINUOUS
 10
138.5466668854
 20
232.1921512209
  0
VERTEX
  8
0
 62
7
  6
CONTINUOUS
 10
138.5699117926
 20
232.1990409374
  0
VERTEX
  8
0
 62
7
  6
CONTINUOUS
 10
138.5980180305
 20
232.2061023959
  0
VERTEX
  8
0
 62
7
  6
CONTINUOUS
 10
138.6308918621
 20
232.2130866333
  0
VERTEX
  8
0
 62
7
  6
CONTINUOUS
 10
138.6684164471
 20
232.2197932604
  0
VERTEX
  8
0
 62
7
  6
CONTINUOUS
 10
138.7104439397
 20
232.2260568345
  0
VERTEX
  8
0
 62
7
  6
CONTINUOUS
 10
138.7567905425
 20
232.2317374006
  0
VERTEX
  8
0
 62
7
  6
CONTINUOUS
 10
138.8072317643
 20
232.2367132462
  0
VERTEX
  8
0
 62
7
  6
CONTINUOUS
 10
138.9541061857
 20
232.2484833235
  0
SEQEND
  0
POLYLINE
  8
0
 62
7
  6
CONTINUOUS
 66
1
 70
0
  0
VERTEX
  8
0
 62
7
  6
CONTINUOUS
 10
172.2081895794
 20
221.5150576088
  0
VERTEX
  8
0
 62
7
  6
CONTINUOUS
 10
172.2223732112
 20
221.5184373297
  0
VERTEX
  8
0
 62
7
  6
CONTINUOUS
 10
172.2422171566
 20
221.5217930151
  0
VERTEX
  8
0
 62
7
  6
CONTINUOUS
 10
172.2671782767
 20
221.5244971566
  0
VERTEX
  8
0
 62
7
  6
CONTINUOUS
 10
172.2966138309
 20
221.5261061983
  0
VERTEX
  8
0
 62
7
  6
CONTINUOUS
 10
172.3180024887
 20
221.5264235877
  0
SEQEND
  0
POLYLINE
  8
0
 62
7
  6
CONTINUOUS
 66
1
 70
0
  0
VERTEX
  8
0
 62
7
  6
CONTINUOUS
 10
155.4081895722
 20
221.5150576069
  0
VERTEX
  8
0
 62
7
  6
CONTINUOUS
 10
155.4223732032
 20
221.518437328
  0
VERTEX
  8
0
 62
7
  6
CONTINUOUS
 10
155.4422171501
 20
221.5217930142
  0
VERTEX
  8
0
 62
7
  6
CONTINUOUS
 10
155.4671782741
 20
221.5244971563
  0
VERTEX
  8
0
 62
7
  6
CONTINUOUS
 10
155.4966138316
 20
221.5261061983
  0
VERTEX
  8
0
 62
7
  6
CONTINUOUS
 10
155.5180024875
 20
221.5264235877
  0
SEQEND
  0
POLYLINE
  8
0
 62
7
  6
CONTINUOUS
 66
1
 70
0
  0
VERTEX
  8
0
 62
7
  6
CONTINUOUS
 10
137.714311958
 20
216.7964238872
  0
VERTEX
  8
0
 62
7
  6
CONTINUOUS
 10
137.7719752566
 20
216.7997037796
  0
VERTEX
  8
0
 62
7
  6
CONTINUOUS
 10
137.8289624642
 20
216.8095146975
  0
VERTEX
  8
0
 62
7
  6
CONTINUOUS
 10
137.8837318671
 20
216.8254621249
  0
VERTEX
  8
0
 62
7
  6
CONTINUOUS
 10
137.9353765296
 20
216.8469402483
  0
VERTEX
  8
0
 62
7
  6
CONTINUOUS
 10
137.9830754247
 20
216.8731227253
  0
VERTEX
  8
0
 62
7
  6
CONTINUOUS
 10
138.0260457371
 20
216.9028914152
  0
VERTEX
  8
0
 62
7
  6
CONTINUOUS
 10
138.0637925705
 20
216.9349659292
  0
VERTEX
  8
0
 62
7
  6
CONTINUOUS
 10
138.0961931603
 20
216.9680754041
  0
VERTEX
  8
0
 62
7
  6
CONTINUOUS
 10
138.1237185758
 20
217.0014382382
  0
VERTEX
  8
0
 62
7
  6
CONTINUOUS
 10
138.1469940717
 20
217.0345985766
  0
VERTEX
  8
0
 62
7
  6
CONTINUOUS
 10
138.1665636509
 20
217.0671747641
  0
VERTEX
  8
0
 62
7
  6
CONTINUOUS
 10
138.1827529681
 20
217.0984938843
  0
VERTEX
  8
0
 62
7
  6
CONTINUOUS
 10
138.1959608643
 20
217.1279809633
  0
VERTEX
  8
0
 62
7
  6
CONTINUOUS
 10
138.2067344095
 20
217.1554924116
  0
VERTEX
  8
0
 62
7
  6
CONTINUOUS
 10
138.2156729983
 20
217.1813524144
  0
VERTEX
  8
0
 62
7
  6
CONTINUOUS
 10
138.2232839038
 20
217.2060748445
  0
VERTEX
  8
0
 62
7
  6
CONTINUOUS
 10
138.2299356811
 20
217.2301400766
  0
VERTEX
  8
0
 62
7
  6
CONTINUOUS
 10
138.2358884047
 20
217.2539549219
  0
VERTEX
  8
0
 62
7
  6
CONTINUOUS
 10
138.2413234527
 20
217.2778448204
  0
VERTEX
  8
0
 62
7
  6
CONTINUOUS
 10
138.2463666633
 20
217.3020576133
  0
VERTEX
  8
0
 62
7
  6
CONTINUOUS
 10
138.2511225907
 20
217.3268668117
  0
VERTEX
  8
0
 62
7
  6
CONTINUOUS
 10
138.2556739931
 20
217.3525470742
  0
VERTEX
  8
0
 62
7
  6
CONTINUOUS
 10
138.260080089
 20
217.3793334829
  0
VERTEX
  8
0
 62
7
  6
CONTINUOUS
 10
138.2643845995
 20
217.4074359714
  0
VERTEX
  8
0
 62
7
  6
CONTINUOUS
 10
138.2686209243
 20
217.4370514451
  0
VERTEX
  8
0
 62
7
  6
CONTINUOUS
 10
138.2728144489
 20
217.4683653779
  0
VERTEX
  8
0
 62
7
  6
CONTINUOUS
 10
138.2769843621
 20
217.5015527919
  0
VERTEX
  8
0
 62
7
  6
CONTINUOUS
 10
138.2811456901
 20
217.5367848232
  0
VERTEX
  8
0
 62
7
  6
CONTINUOUS
 10
138.2853113018
 20
217.5742416034
  0
VERTEX
  8
0
 62
7
  6
CONTINUOUS
 10
138.2894936767
 20
217.6141272204
  0
VERTEX
  8
0
 62
7
  6
CONTINUOUS
 10
138.2937031501
 20
217.6566529156
  0
VERTEX
  8
0
 62
7
  6
CONTINUOUS
 10
138.2979482411
 20
217.7020393806
  0
VERTEX
  8
0
 62
7
  6
CONTINUOUS
 10
138.3022356767
 20
217.7505150498
  0
VERTEX
  8
0
 62
7
  6
CONTINUOUS
 10
138.3065693119
 20
217.8022994775
  0
VERTEX
  8
0
 62
7
  6
CONTINUOUS
 10
138.3153654973
 20
217.9164516979
  0
SEQEND
  0
LINE
  8
0
 62
7
  6
CONTINUOUS
 10
204.3917554303
 20
216.7964238622
 11
202.0650137274
 21
216.7964238622
  0
LINE
  8
SURFACE
 62
7
  6
CONTINUOUS
 10
187.6184971331
 20
216.7964238622
 11
185.2650137274
 21
216.7964238622
  0
LINE
  8
SURFACE
 62
7
  6
CONTINUOUS
 10
170.8184971331
 20
216.7964238622
 11
168.4650137274
 21
216.7964238622
  0
LINE
  8
SURFACE
 62
7
  6
CONTINUOUS
 10
154.0184971331
 20
216.7964238622
 11
151.6650137274
 21
216.7964238622
  0
LINE
  8
SURFACE
 62
7
  6
CONTINUOUS
 10
137.4942883731
 20
216.7964238622
 11
134.8650137274
 21
216.7964238622
  0
LINE
  8
SURFACE
 62
7
  6
CONTINUOUS
 10
120.4184971331
 20
216.7964238622
 11
118.0650137274
 21
216.7964238622
  0
LINE
  8
SURFACE
 62
7
  6
CONTINUOUS
 10
103.6184971331
 20
216.7964238622
 11
101.2650137274
 21
216.7964238622
  0
LINE
  8
SURFACE
 62
7
  6
CONTINUOUS
 10
87.0942883731
 20
216.7964238622
 11
84.4650137274
 21
216.7964238622
  0
LINE
  8
0
 62
7
  6
CONTINUOUS
 10
69.9917554303
 20
216.7964238622
 11
65.7417554303
 21
216.7964238622
  0
LINE
  8
0
 62
7
  6
CONTINUOUS
 10
76.0917554303
 20
216.7964238622
 11
78.4184971331
 21
216.7964238622
  0
LINE
  8
0
 62
7
  6
CONTINUOUS
 10
84.4650137274
 20
216.7964238622
 11
87.3143127284
 21
216.7964238622
  0
LINE
  8
0
 62
7
  6
CONTINUOUS
 10
92.3691981687
 20
216.7964238622
 11
95.2184971331
 21
216.7964238622
  0
LINE
  8
SURFACE
 62
7
  6
CONTINUOUS
 10
92.3691978883
 20
216.7964238622
 11
95.2184971331
 21
216.7964238622
  0
LINE
  8
0
 62
7
  6
CONTINUOUS
 10
109.6650137274
 20
216.7964238622
 11
112.0184971331
 21
216.7964238622
  0
LINE
  8
SURFACE
 62
7
  6
CONTINUOUS
 10
109.6650137274
 20
216.7964238622
 11
112.0184971331
 21
216.7964238622
  0
LINE
  8
0
 62
7
  6
CONTINUOUS
 10
126.4650137274
 20
216.7964238622
 11
128.8184971331
 21
216.7964238622
  0
LINE
  8
SURFACE
 62
7
  6
CONTINUOUS
 10
126.4650137274
 20
216.7964238622
 11
128.8184971331
 21
216.7964238622
  0
LINE
  8
0
 62
7
  6
CONTINUOUS
 10
134.8650137274
 20
216.7964238622
 11
137.7143127284
 21
216.7964238622
  0
LINE
  8
0
 62
7
  6
CONTINUOUS
 10
142.7691981687
 20
216.7964238622
 11
145.6184971331
 21
216.7964238622
  0
LINE
  8
SURFACE
 62
7
  6
CONTINUOUS
 10
142.7691978882
 20
216.7964238622
 11
145.6184971331
 21
216.7964238622
  0
LINE
  8
0
 62
7
  6
CONTINUOUS
 10
160.0650137274
 20
216.7964238622
 11
162.4184971331
 21
216.7964238622
  0
LINE
  8
SURFACE
 62
7
  6
CONTINUOUS
 10
160.0650137275
 20
216.7964238622
 11
162.4184971331
 21
216.7964238622
  0
LINE
  8
0
 62
7
  6
CONTINUOUS
 10
176.8650137274
 20
216.7964238622
 11
179.2184971331
 21
216.7964238622
  0
LINE
  8
SURFACE
 62
7
  6
CONTINUOUS
 10
176.8650137275
 20
216.7964238622
 11
179.2184971331
 21
216.7964238622
  0
LINE
  8
0
 62
7
  6
CONTINUOUS
 10
193.6650137274
 20
216.7964238622
 11
196.0184971331
 21
216.7964238622
  0
LINE
  8
0
 62
7
  6
CONTINUOUS
 10
210.4917554303
 20
216.7964238622
 11
214.7417554303
 21
216.7964238622
  0
POLYLINE
  8
0
 62
7
  6
CONTINUOUS
 66
1
 70
0
  0
VERTEX
  8
0
 62
7
  6
CONTINUOUS
 10
101.0235581007
 20
220.2866594562
  0
VERTEX
  8
0
 62
7
  6
CONTINUOUS
 10
100.9676471396
 20
220.2895809579
  0
VERTEX
  8
0
 62
7
  6
CONTINUOUS
 10
100.9110341728
 20
220.2984653507
  0
VERTEX
  8
0
 62
7
  6
CONTINUOUS
 10
100.8535965072
 20
220.3135867313
  0
VERTEX
  8
0
 62
7
  6
CONTINUOUS
 10
100.7949348042
 20
220.3354735917
  0
VERTEX
  8
0
 62
7
  6
CONTINUOUS
 10
100.7347683377
 20
220.3648760185
  0
VERTEX
  8
0
 62
7
  6
CONTINUOUS
 10
100.673261019
 20
220.4025251615
  0
VERTEX
  8
0
 62
7
  6
CONTINUOUS
 10
100.6101131797
 20
220.4496381381
  0
VERTEX
  8
0
 62
7
  6
CONTINUOUS
 10
100.5452845095
 20
220.5076207684
  0
VERTEX
  8
0
 62
7
  6
CONTINUOUS
 10
100.4790002642
 20
220.5779910842
  0
VERTEX
  8
0
 62
7
  6
CONTINUOUS
 10
100.4113807845
 20
220.6627938627
  0
VERTEX
  8
0
 62
7
  6
CONTINUOUS
 10
100.3432273844
 20
220.7636672802
  0
VERTEX
  8
0
 62
7
  6
CONTINUOUS
 10
100.2763778284
 20
220.880538247
  0
VERTEX
  8
0
 62
7
  6
CONTINUOUS
 10
100.2130029903
 20
221.0115258962
  0
VERTEX
  8
0
 62
7
  6
CONTINUOUS
 10
100.1547000667
 20
221.1540615584
  0
VERTEX
  8
0
 62
7
  6
CONTINUOUS
 10
100.1026946465
 20
221.3044212748
  0
VERTEX
  8
0
 62
7
  6
CONTINUOUS
 10
100.0594322143
 20
221.4516372565
  0
VERTEX
  8
0
 62
7
  6
CONTINUOUS
 10
100.0261402052
 20
221.5830286651
  0
VERTEX
  8
0
 62
7
  6
CONTINUOUS
 10
100.00067224
 20
221.697438022
  0
VERTEX
  8
0
 62
7
  6
CONTINUOUS
 10
99.9803280269
 20
221.7998119291
  0
VERTEX
  8
0
 62
7
  6
CONTINUOUS
 10
99.9631197417
 20
221.8955904338
  0
VERTEX
  8
0
 62
7
  6
CONTINUOUS
 10
99.9477286558
 20
221.9905969541
  0
SEQEND
  0
POLYLINE
  8
0
 62
7
  6
CONTINUOUS
 66
1
 70
0
  0
VERTEX
  8
0
 62
7
  6
CONTINUOUS
 10
116.239529237
 20
228.6140629232
  0
VERTEX
  8
0
 62
7
  6
CONTINUOUS
 10
116.2552230401
 20
228.6065785027
  0
VERTEX
  8
0
 62
7
  6
CONTINUOUS
 10
116.272433937
 20
228.5999079564
  0
VERTEX
  8
0
 62
7
  6
CONTINUOUS
 10
116.2910675967
 20
228.5940685229
  0
VERTEX
  8
0
 62
7
  6
CONTINUOUS
 10
116.3110842851
 20
228.5890962573
  0
VERTEX
  8
0
 62
7
  6
CONTINUOUS
 10
116.3324087914
 20
228.5850652184
  0
SEQEND
  0
LINE
  8
0
 62
7
  6
CONTINUOUS
 10
131.9494541815
 20
232.4895715819
 11
132.8917531073
 21
229.1925283496
  0
POLYLINE
  8
0
 62
7
  6
CONTINUOUS
 66
1
 70
0
  0
VERTEX
  8
0
 62
7
  6
CONTINUOUS
 10
132.9925316331
 20
228.6649137095
  0
VERTEX
  8
0
 62
7
  6
CONTINUOUS
 10
132.9953307964
 20
228.6543576879
  0
VERTEX
  8
0
 62
7
  6
CONTINUOUS
 10
133.0016192331
 20
228.6437481167
  0
VERTEX
  8
0
 62
7
  6
CONTINUOUS
 10
133.0112039686
 20
228.6333848389
  0
VERTEX
  8
0
 62
7
  6
CONTINUOUS
 10
133.0239184994
 20
228.6234227016
  0
VERTEX
  8
0
 62
7
  6
CONTINUOUS
 10
133.039529237
 20
228.6140629232
  0
SEQEND
  0
POLYLINE
  8
0
 62
7
  6
CONTINUOUS
 66
1
 70
0
  0
VERTEX
  8
0
 62
7
  6
CONTINUOUS
 10
133.4915482547
 20
222.5624756611
  0
VERTEX
  8
0
 62
7
  6
CONTINUOUS
 10
133.4770180062
 20
222.645522059
  0
VERTEX
  8
0
 62
7
  6
CONTINUOUS
 10
133.4668187244
 20
222.7382485286
  0
SEQEND
  0
LINE
  8
0
 62
7
  6
CONTINUOUS
 10
138.5417554303
 20
224.7964238622
 11
138.5417554303
 21
232.5964238622
  0
LINE
  8
0
 62
7
  6
CONTINUOUS
 10
140.1417554303
 20
232.596367459
 11
140.1417554303
 21
232.5964238622
  0
LINE
  8
DEFAULT_1
 62
2
  6
CENTER
 10
140.2417554303
 20
210.7964238622
 11
140.2417554303
 21
234.8656300142
  0
POLYLINE
  8
0
 62
7
  6
CONTINUOUS
 66
1
 70
0
  0
VERTEX
  8
0
 62
7
  6
CONTINUOUS
 10
138.255953364
 20
224.7964238622
  0
VERTEX
  8
0
 62
7
  6
CONTINUOUS
 10
138.2556186732
 20
224.5306597299
  0
VERTEX
  8
0
 62
7
  6
CONTINUOUS
 10
138.2546159642
 20
224.2659845572
  0
VERTEX
  8
0
 62
7
  6
CONTINUOUS
 10
138.2529493223
 20
224.0034829448
  0
VERTEX
  8
0
 62
7
  6
CONTINUOUS
 10
138.2506255392
 20
223.7442307883
  0
VERTEX
  8
0
 62
7
  6
CONTINUOUS
 10
138.247654087
 20
223.4892909521
  0
VERTEX
  8
0
 62
7
  6
CONTINUOUS
 10
138.2440470821
 20
223.2397090093
  0
VERTEX
  8
0
 62
7
  6
CONTINUOUS
 10
138.2398192392
 20
222.9965090027
  0
VERTEX
  8
0
 62
7
  6
CONTINUOUS
 10
138.2349878143
 20
222.7606892977
  0
VERTEX
  8
0
 62
7
  6
CONTINUOUS
 10
138.2295725386
 20
222.5332185359
  0
VERTEX
  8
0
 62
7
  6
CONTINUOUS
 10
138.2235955416
 20
222.3150316328
  0
VERTEX
  8
0
 62
7
  6
CONTINUOUS
 10
138.2170812646
 20
222.1070259585
  0
VERTEX
  8
0
 62
7
  6
CONTINUOUS
 10
138.2100563653
 20
221.9100576232
  0
VERTEX
  8
0
 62
7
  6
CONTINUOUS
 10
138.2025496113
 20
221.7249378753
  0
VERTEX
  8
0
 62
7
  6
CONTINUOUS
 10
138.1945917666
 20
221.5524297391
  0
VERTEX
  8
0
 62
7
  6
CONTINUOUS
 10
138.1862154678
 20
221.3932447733
  0
VERTEX
  8
0
 62
7
  6
CONTINUOUS
 10
138.1774550919
 20
221.2480400424
  0
VERTEX
  8
0
 62
7
  6
CONTINUOUS
 10
138.1683466177
 20
221.1174153294
  0
VERTEX
  8
0
 62
7
  6
CONTINUOUS
 10
138.1589274777
 20
221.0019105352
  0
VERTEX
  8
0
 62
7
  6
CONTINUOUS
 10
138.1492364042
 20
220.9020033544
  0
VERTEX
  8
0
 62
7
  6
CONTINUOUS
 10
138.1393132702
 20
220.8181072038
  0
VERTEX
  8
0
 62
7
  6
CONTINUOUS
 10
138.1291989224
 20
220.7505694044
  0
VERTEX
  8
0
 62
7
  6
CONTINUOUS
 10
138.1189350114
 20
220.6996696704
  0
VERTEX
  8
0
 62
7
  6
CONTINUOUS
 10
138.1085638173
 20
220.6656188749
  0
VERTEX
  8
0
 62
7
  6
CONTINUOUS
 10
138.0981280719
 20
220.6485581189
  0
VERTEX
  8
0
 62
7
  6
CONTINUOUS
 10
138.0928994199
 20
220.6464255209
  0
SEQEND
  0
LINE
  8
0
 62
7
  6
CONTINUOUS
 10
139.4871918394
 20
226.2950480153
 11
139.4940641899
 21
228.7964204624
  0
POLYLINE
  8
0
 62
7
  6
CONTINUOUS
 66
1
 70
0
  0
VERTEX
  8
0
 62
7
  6
CONTINUOUS
 10
138.4390739069
 20
222.6349970927
  0
VERTEX
  8
0
 62
7
  6
CONTINUOUS
 10
138.4588781038
 20
224.0693633194
  0
VERTEX
  8
0
 62
7
  6
CONTINUOUS
 10
138.4698939239
 20
224.7964238622
  0
SEQEND
  0
POLYLINE
  8
0
 62
7
  6
CONTINUOUS
 66
1
 70
0
  0
VERTEX
  8
0
 62
7
  6
CONTINUOUS
 10
138.404893339
 20
220.1985504222
  0
VERTEX
  8
0
 62
7
  6
CONTINUOUS
 10
138.4086336323
 20
220.3855864386
  0
VERTEX
  8
0
 62
7
  6
CONTINUOUS
 10
138.4121718619
 20
220.5807216104
  0
VERTEX
  8
0
 62
7
  6
CONTINUOUS
 10
138.4154829386
 20
220.7839944203
  0
VERTEX
  8
0
 62
7
  6
CONTINUOUS
 10
138.4185405694
 20
220.9954148552
  0
VERTEX
  8
0
 62
7
  6
CONTINUOUS
 10
138.4390739069
 20
222.6349970927
  0
SEQEND
  0
LINE
  8
0
 62
7
  6
CONTINUOUS
 10
138.3969003912
 20
219.8484647164
 11
138.404893339
 21
220.1985504222
  0
LINE
  8
0
 62
7
  6
CONTINUOUS
 10
138.3883676438
 20
219.5295762465
 11
138.3969003912
 21
219.8484647164
  0
LINE
  8
0
 62
7
  6
CONTINUOUS
 10
138.3794483677
 20
219.2406191131
 11
138.3883676438
 21
219.5295762465
  0
LINE
  8
0
 62
7
  6
CONTINUOUS
 10
138.3702765719
 20
218.9800931122
 11
138.3794483677
 21
219.2406191131
  0
LINE
  8
0
 62
7
  6
CONTINUOUS
 10
138.3609816682
 20
218.7466531939
 11
138.3702765719
 21
218.9800931122
  0
LINE
  8
0
 62
7
  6
CONTINUOUS
 10
138.3516861416
 20
218.5389202108
 11
138.3609816682
 21
218.7466531939
  0
LINE
  8
0
 62
7
  6
CONTINUOUS
 10
138.3424693436
 20
218.3547593612
 11
138.3516861416
 21
218.5389202108
  0
LINE
  8
0
 62
7
  6
CONTINUOUS
 10
138.3333455953
 20
218.1912473412
 11
138.3424693436
 21
218.3547593612
  0
LINE
  8
0
 62
7
  6
CONTINUOUS
 10
138.3243050643
 20
218.0457162556
 11
138.3333455953
 21
218.1912473412
  0
LINE
  8
0
 62
7
  6
CONTINUOUS
 10
138.3153654973
 20
217.9164516979
 11
138.3243050643
 21
218.0457162556
  0
POLYLINE
  8
0
 62
7
  6
CONTINUOUS
 66
1
 70
0
  0
VERTEX
  8
0
 62
7
  6
CONTINUOUS
 10
138.5417554303
 20
228.6033822592
  0
VERTEX
  8
0
 62
7
  6
CONTINUOUS
 10
138.5488624875
 20
228.6287072814
  0
VERTEX
  8
0
 62
7
  6
CONTINUOUS
 10
138.5608054978
 20
228.6571790736
  0
VERTEX
  8
0
 62
7
  6
CONTINUOUS
 10
138.5761670093
 20
228.6839615774
  0
VERTEX
  8
0
 62
7
  6
CONTINUOUS
 10
138.594712725
 20
228.7086462974
  0
VERTEX
  8
0
 62
7
  6
CONTINUOUS
 10
138.6161597813
 20
228.730856731
  0
VERTEX
  8
0
 62
7
  6
CONTINUOUS
 10
138.6401810525
 20
228.7502541061
  0
VERTEX
  8
0
 62
7
  6
CONTINUOUS
 10
138.6664101477
 20
228.7665425606
  0
VERTEX
  8
0
 62
7
  6
CONTINUOUS
 10
138.6944469788
 20
228.7794736464
  0
VERTEX
  8
0
 62
7
  6
CONTINUOUS
 10
138.7238626215
 20
228.788849821
  0
VERTEX
  8
0
 62
7
  6
CONTINUOUS
 10
138.7542079616
 20
228.7945285249
  0
VERTEX
  8
0
 62
7
  6
CONTINUOUS
 10
138.7849332452
 20
228.7964237957
  0
SEQEND
  0
LINE
  8
0
 62
7
  6
CONTINUOUS
 10
139.9555766303
 20
231.86508139
 11
139.3048471805
 21
229.5882209697
  0
LINE
  8
0
 62
7
  6
CONTINUOUS
 10
146.3150800337
 20
227.7569053494
 11
147.7603747889
 21
228.5498569912
  0
POLYLINE
  8
0
 62
7
  6
CONTINUOUS
 66
1
 70
0
  0
VERTEX
  8
0
 62
7
  6
CONTINUOUS
 10
172.5511020683
 20
228.5850652183
  0
VERTEX
  8
0
 62
7
  6
CONTINUOUS
 10
172.5724247941
 20
228.5890958685
  0
VERTEX
  8
0
 62
7
  6
CONTINUOUS
 10
172.5924377446
 20
228.5940669771
  0
VERTEX
  8
0
 62
7
  6
CONTINUOUS
 10
172.6110718022
 20
228.599906169
  0
VERTEX
  8
0
 62
7
  6
CONTINUOUS
 10
172.6282835829
 20
228.6065766817
  0
VERTEX
  8
0
 62
7
  6
CONTINUOUS
 10
172.6439816231
 20
228.614062923
  0
SEQEND
  0
POLYLINE
  8
0
 62
7
  6
CONTINUOUS
 66
1
 70
0
  0
VERTEX
  8
0
 62
7
  6
CONTINUOUS
 10
87.314311958
 20
216.7964238872
  0
VERTEX
  8
0
 62
7
  6
CONTINUOUS
 10
87.3719752566
 20
216.7997037796
  0
VERTEX
  8
0
 62
7
  6
CONTINUOUS
 10
87.4289624642
 20
216.8095146975
  0
VERTEX
  8
0
 62
7
  6
CONTINUOUS
 10
87.4837318671
 20
216.8254621249
  0
VERTEX
  8
0
 62
7
  6
CONTINUOUS
 10
87.5353765296
 20
216.8469402483
  0
VERTEX
  8
0
 62
7
  6
CONTINUOUS
 10
87.5830754247
 20
216.8731227253
  0
VERTEX
  8
0
 62
7
  6
CONTINUOUS
 10
87.6260457371
 20
216.9028914152
  0
VERTEX
  8
0
 62
7
  6
CONTINUOUS
 10
87.6637925705
 20
216.9349659292
  0
VERTEX
  8
0
 62
7
  6
CONTINUOUS
 10
87.6961931603
 20
216.9680754041
  0
VERTEX
  8
0
 62
7
  6
CONTINUOUS
 10
87.7237185758
 20
217.0014382382
  0
VERTEX
  8
0
 62
7
  6
CONTINUOUS
 10
87.7469940717
 20
217.0345985766
  0
VERTEX
  8
0
 62
7
  6
CONTINUOUS
 10
87.7665636509
 20
217.0671747641
  0
VERTEX
  8
0
 62
7
  6
CONTINUOUS
 10
87.7827529681
 20
217.0984938843
  0
VERTEX
  8
0
 62
7
  6
CONTINUOUS
 10
87.7959608643
 20
217.1279809633
  0
VERTEX
  8
0
 62
7
  6
CONTINUOUS
 10
87.8067344095
 20
217.1554924116
  0
VERTEX
  8
0
 62
7
  6
CONTINUOUS
 10
87.8156729983
 20
217.1813524144
  0
VERTEX
  8
0
 62
7
  6
CONTINUOUS
 10
87.8232839038
 20
217.2060748445
  0
VERTEX
  8
0
 62
7
  6
CONTINUOUS
 10
87.8299356811
 20
217.2301400766
  0
VERTEX
  8
0
 62
7
  6
CONTINUOUS
 10
87.8358884047
 20
217.2539549219
  0
VERTEX
  8
0
 62
7
  6
CONTINUOUS
 10
87.8413234527
 20
217.2778448204
  0
VERTEX
  8
0
 62
7
  6
CONTINUOUS
 10
87.8463666633
 20
217.3020576133
  0
VERTEX
  8
0
 62
7
  6
CONTINUOUS
 10
87.8511225907
 20
217.3268668117
  0
VERTEX
  8
0
 62
7
  6
CONTINUOUS
 10
87.8556739931
 20
217.3525470742
  0
VERTEX
  8
0
 62
7
  6
CONTINUOUS
 10
87.860080089
 20
217.3793334829
  0
VERTEX
  8
0
 62
7
  6
CONTINUOUS
 10
87.8643845995
 20
217.4074359714
  0
VERTEX
  8
0
 62
7
  6
CONTINUOUS
 10
87.8686209243
 20
217.4370514451
  0
VERTEX
  8
0
 62
7
  6
CONTINUOUS
 10
87.8728144489
 20
217.4683653779
  0
VERTEX
  8
0
 62
7
  6
CONTINUOUS
 10
87.8769843621
 20
217.5015527919
  0
VERTEX
  8
0
 62
7
  6
CONTINUOUS
 10
87.8811456901
 20
217.5367848232
  0
VERTEX
  8
0
 62
7
  6
CONTINUOUS
 10
87.8853113018
 20
217.5742416034
  0
VERTEX
  8
0
 62
7
  6
CONTINUOUS
 10
87.8894936767
 20
217.6141272204
  0
VERTEX
  8
0
 62
7
  6
CONTINUOUS
 10
87.8937031501
 20
217.6566529156
  0
VERTEX
  8
0
 62
7
  6
CONTINUOUS
 10
87.8979482411
 20
217.7020393806
  0
VERTEX
  8
0
 62
7
  6
CONTINUOUS
 10
87.9022356767
 20
217.7505150498
  0
VERTEX
  8
0
 62
7
  6
CONTINUOUS
 10
87.9065693119
 20
217.8022994775
  0
VERTEX
  8
0
 62
7
  6
CONTINUOUS
 10
87.9153654973
 20
217.9164516979
  0
SEQEND
  0
POLYLINE
  8
0
 62
7
  6
CONTINUOUS
 66
1
 70
0
  0
VERTEX
  8
0
 62
7
  6
CONTINUOUS
 10
215.1596510503
 20
221.5264238622
  0
VERTEX
  8
0
 62
7
  6
CONTINUOUS
 10
215.2063924028
 20
221.5282992265
  0
VERTEX
  8
0
 62
7
  6
CONTINUOUS
 10
215.2678562725
 20
221.5365482291
  0
VERTEX
  8
0
 62
7
  6
CONTINUOUS
 10
215.3280710842
 20
221.5512733762
  0
VERTEX
  8
0
 62
7
  6
CONTINUOUS
 10
215.3863591746
 20
221.5723044218
  0
VERTEX
  8
0
 62
7
  6
CONTINUOUS
 10
215.4420644721
 20
221.5994003526
  0
VERTEX
  8
0
 62
7
  6
CONTINUOUS
 10
215.4945595741
 20
221.6322518367
  0
VERTEX
  8
0
 62
7
  6
CONTINUOUS
 10
215.5432539111
 20
221.6704853338
  0
VERTEX
  8
0
 62
7
  6
CONTINUOUS
 10
215.5875999355
 20
221.713667405
  0
VERTEX
  8
0
 62
7
  6
CONTINUOUS
 10
215.6270981799
 20
221.7613085592
  0
VERTEX
  8
0
 62
7
  6
CONTINUOUS
 10
215.6613030853
 20
221.8128681521
  0
VERTEX
  8
0
 62
7
  6
CONTINUOUS
 10
215.6898291317
 20
221.8677613746
  0
VERTEX
  8
0
 62
7
  6
CONTINUOUS
 10
215.7123550757
 20
221.9253657356
  0
VERTEX
  8
0
 62
7
  6
CONTINUOUS
 10
215.7286275926
 20
221.9850280264
  0
VERTEX
  8
0
 62
7
  6
CONTINUOUS
 10
215.7384642983
 20
222.0460725475
  0
VERTEX
  8
0
 62
7
  6
CONTINUOUS
 10
215.7417554303
 20
222.1078098402
  0
SEQEND
  0
LINE
  8
0
 62
7
  6
CONTINUOUS
 10
101.0235581007
 20
220.2866594562
 11
103.8599527584
 21
220.2866594563
  0
LINE
  8
0
 62
7
  6
CONTINUOUS
 10
168.2235581007
 20
220.2866594562
 11
171.0599527584
 21
220.2866594563
  0
LINE
  8
0
 62
7
  6
CONTINUOUS
 10
150.3636812308
 20
221.5264238622
 11
142.5222767176
 21
221.5264238622
  0
LINE
  8
0
 62
7
  6
CONTINUOUS
 10
155.4117319149
 20
221.5264238622
 11
167.0741030031
 21
221.5264238622
  0
LINE
  8
0
 62
7
  6
CONTINUOUS
 10
172.2117319137
 20
221.5264238622
 11
183.8741029688
 21
221.5264238622
  0
LINE
  8
0
 62
7
  6
CONTINUOUS
 10
189.0117319066
 20
221.5264238622
 11
200.6741030944
 21
221.5264238622
  0
LINE
  8
0
 62
7
  6
CONTINUOUS
 10
205.81173181
 20
221.5264238622
 11
215.1596514268
 21
221.5264238622
  0
POLYLINE
  8
0
 62
7
  6
CONTINUOUS
 66
1
 70
0
  0
VERTEX
  8
0
 62
7
  6
CONTINUOUS
 10
158.5654838579
 20
221.5264235693
  0
VERTEX
  8
0
 62
7
  6
CONTINUOUS
 10
158.5879958745
 20
221.5260719748
  0
VERTEX
  8
0
 62
7
  6
CONTINUOUS
 10
158.6168440747
 20
221.524455523
  0
VERTEX
  8
0
 62
7
  6
CONTINUOUS
 10
158.6409472246
 20
221.5218408837
  0
VERTEX
  8
0
 62
7
  6
CONTINUOUS
 10
158.6600554056
 20
221.5186557616
  0
VERTEX
  8
0
 62
7
  6
CONTINUOUS
 10
158.6739457919
 20
221.5154352283
  0
VERTEX
  8
0
 62
7
  6
CONTINUOUS
 10
158.6826206753
 20
221.5127885842
  0
VERTEX
  8
0
 62
7
  6
CONTINUOUS
 10
158.6859334456
 20
221.5115313389
  0
SEQEND
  0
POLYLINE
  8
0
 62
7
  6
CONTINUOUS
 66
1
 70
0
  0
VERTEX
  8
0
 62
7
  6
CONTINUOUS
 10
166.9654872462
 20
221.5264235929
  0
VERTEX
  8
0
 62
7
  6
CONTINUOUS
 10
166.9881503494
 20
221.5260670632
  0
VERTEX
  8
0
 62
7
  6
CONTINUOUS
 10
167.0171177322
 20
221.5244329585
  0
VERTEX
  8
0
 62
7
  6
CONTINUOUS
 10
167.0412947769
 20
221.5217928675
  0
VERTEX
  8
0
 62
7
  6
CONTINUOUS
 10
167.0604202763
 20
221.5185825944
  0
VERTEX
  8
0
 62
7
  6
CONTINUOUS
 10
167.0742648561
 20
221.5153487713
  0
VERTEX
  8
0
 62
7
  6
CONTINUOUS
 10
167.0788840682
 20
221.5139283305
  0
SEQEND
  0
POLYLINE
  8
0
 62
7
  6
CONTINUOUS
 66
1
 70
0
  0
VERTEX
  8
0
 62
7
  6
CONTINUOUS
 10
175.3654838545
 20
221.5264235694
  0
VERTEX
  8
0
 62
7
  6
CONTINUOUS
 10
175.3879958274
 20
221.5260719765
  0
VERTEX
  8
0
 62
7
  6
CONTINUOUS
 10
175.416843996
 20
221.5244555296
  0
VERTEX
  8
0
 62
7
  6
CONTINUOUS
 10
175.4409471306
 20
221.5218408966
  0
VERTEX
  8
0
 62
7
  6
CONTINUOUS
 10
175.4600553162
 20
221.5186557793
  0
VERTEX
  8
0
 62
7
  6
CONTINUOUS
 10
175.47394572
 20
221.5154352476
  0
VERTEX
  8
0
 62
7
  6
CONTINUOUS
 10
175.4826206307
 20
221.5127885997
  0
VERTEX
  8
0
 62
7
  6
CONTINUOUS
 10
175.4859334257
 20
221.5115313473
  0
SEQEND
  0
POLYLINE
  8
0
 62
7
  6
CONTINUOUS
 66
1
 70
0
  0
VERTEX
  8
0
 62
7
  6
CONTINUOUS
 10
183.765487237
 20
221.5264235933
  0
VERTEX
  8
0
 62
7
  6
CONTINUOUS
 10
183.7881506742
 20
221.5260670534
  0
VERTEX
  8
0
 62
7
  6
CONTINUOUS
 10
183.8171183189
 20
221.5244329102
  0
VERTEX
  8
0
 62
7
  6
CONTINUOUS
 10
183.8412955383
 20
221.5217927616
  0
VERTEX
  8
0
 62
7
  6
CONTINUOUS
 10
183.8604210908
 20
221.5185824299
  0
VERTEX
  8
0
 62
7
  6
CONTINUOUS
 10
183.8742655756
 20
221.5153485753
  0
VERTEX
  8
0
 62
7
  6
CONTINUOUS
 10
183.8788840476
 20
221.5139283367
  0
SEQEND
  0
POLYLINE
  8
0
 62
7
  6
CONTINUOUS
 66
1
 70
0
  0
VERTEX
  8
0
 62
7
  6
CONTINUOUS
 10
192.1654838535
 20
221.5264235694
  0
VERTEX
  8
0
 62
7
  6
CONTINUOUS
 10
192.1879958084
 20
221.5260719771
  0
VERTEX
  8
0
 62
7
  6
CONTINUOUS
 10
192.2168439642
 20
221.5244555323
  0
VERTEX
  8
0
 62
7
  6
CONTINUOUS
 10
192.2409470925
 20
221.5218409018
  0
VERTEX
  8
0
 62
7
  6
CONTINUOUS
 10
192.2600552793
 20
221.5186557866
  0
VERTEX
  8
0
 62
7
  6
CONTINUOUS
 10
192.2739456899
 20
221.5154352557
  0
VERTEX
  8
0
 62
7
  6
CONTINUOUS
 10
192.2826206118
 20
221.5127886063
  0
VERTEX
  8
0
 62
7
  6
CONTINUOUS
 10
192.2859334172
 20
221.5115313509
  0
SEQEND
  0
POLYLINE
  8
0
 62
7
  6
CONTINUOUS
 66
1
 70
0
  0
VERTEX
  8
0
 62
7
  6
CONTINUOUS
 10
200.5654873215
 20
221.5264235897
  0
VERTEX
  8
0
 62
7
  6
CONTINUOUS
 10
200.5881499294
 20
221.5260670719
  0
VERTEX
  8
0
 62
7
  6
CONTINUOUS
 10
200.6171167634
 20
221.524433037
  0
VERTEX
  8
0
 62
7
  6
CONTINUOUS
 10
200.6412932672
 20
221.521793079
  0
VERTEX
  8
0
 62
7
  6
CONTINUOUS
 10
200.6604184262
 20
221.5185829714
  0
VERTEX
  8
0
 62
7
  6
CONTINUOUS
 10
200.6742630539
 20
221.5153492638
  0
VERTEX
  8
0
 62
7
  6
CONTINUOUS
 10
200.6788841181
 20
221.5139283177
  0
SEQEND
  0
POLYLINE
  8
0
 62
7
  6
CONTINUOUS
 66
1
 70
0
  0
VERTEX
  8
0
 62
7
  6
CONTINUOUS
 10
208.9654838678
 20
221.5264235692
  0
VERTEX
  8
0
 62
7
  6
CONTINUOUS
 10
208.9879959676
 20
221.5260719713
  0
VERTEX
  8
0
 62
7
  6
CONTINUOUS
 10
209.0168442291
 20
221.5244555098
  0
VERTEX
  8
0
 62
7
  6
CONTINUOUS
 10
209.0409474071
 20
221.5218408586
  0
VERTEX
  8
0
 62
7
  6
CONTINUOUS
 10
209.0600555732
 20
221.5186557287
  0
VERTEX
  8
0
 62
7
  6
CONTINUOUS
 10
209.0739459227
 20
221.5154351935
  0
VERTEX
  8
0
 62
7
  6
CONTINUOUS
 10
209.0826207541
 20
221.5127885567
  0
VERTEX
  8
0
 62
7
  6
CONTINUOUS
 10
209.0859334798
 20
221.5115313245
  0
SEQEND
  0
POLYLINE
  8
0
 62
7
  6
CONTINUOUS
 66
1
 70
0
  0
VERTEX
  8
0
 62
7
  6
CONTINUOUS
 10
168.2235581007
 20
220.2866594562
  0
VERTEX
  8
0
 62
7
  6
CONTINUOUS
 10
168.1665420118
 20
220.2896973949
  0
VERTEX
  8
0
 62
7
  6
CONTINUOUS
 10
168.1087932458
 20
220.2989396551
  0
VERTEX
  8
0
 62
7
  6
CONTINUOUS
 10
168.0501735009
 20
220.3146836633
  0
VERTEX
  8
0
 62
7
  6
CONTINUOUS
 10
167.9902610573
 20
220.3375021885
  0
VERTEX
  8
0
 62
7
  6
CONTINUOUS
 10
167.928781367
 20
220.3681974283
  0
VERTEX
  8
0
 62
7
  6
CONTINUOUS
 10
167.8658993471
 20
220.4075653462
  0
VERTEX
  8
0
 62
7
  6
CONTINUOUS
 10
167.8012890092
 20
220.4569392821
  0
VERTEX
  8
0
 62
7
  6
CONTINUOUS
 10
167.7349472649
 20
220.5178271164
  0
VERTEX
  8
0
 62
7
  6
CONTINUOUS
 10
167.6671267411
 20
220.5918809709
  0
VERTEX
  8
0
 62
7
  6
CONTINUOUS
 10
167.5980103992
 20
220.6812847819
  0
VERTEX
  8
0
 62
7
  6
CONTINUOUS
 10
167.5286317311
 20
220.7875475113
  0
VERTEX
  8
0
 62
7
  6
CONTINUOUS
 10
167.4610829046
 20
220.9101776372
  0
VERTEX
  8
0
 62
7
  6
CONTINUOUS
 10
167.3976142177
 20
221.0468657793
  0
VERTEX
  8
0
 62
7
  6
CONTINUOUS
 10
167.3397868635
 20
221.1946548025
  0
VERTEX
  8
0
 62
7
  6
CONTINUOUS
 10
167.2889971345
 20
221.3485553526
  0
VERTEX
  8
0
 62
7
  6
CONTINUOUS
 10
167.247876242
 20
221.4952168691
  0
VERTEX
  8
0
 62
7
  6
CONTINUOUS
 10
167.2168901514
 20
221.6230045265
  0
VERTEX
  8
0
 62
7
  6
CONTINUOUS
 10
167.1930010014
 20
221.7347867163
  0
VERTEX
  8
0
 62
7
  6
CONTINUOUS
 10
167.1736119736
 20
221.8360849153
  0
VERTEX
  8
0
 62
7
  6
CONTINUOUS
 10
167.1569229819
 20
221.9326348119
  0
VERTEX
  8
0
 62
7
  6
CONTINUOUS
 10
167.1417554303
 20
222.0301464494
  0
SEQEND
  0
POLYLINE
  8
0
 62
7
  6
CONTINUOUS
 66
1
 70
0
  0
VERTEX
  8
0
 62
7
  6
CONTINUOUS
 10
82.7324087978
 20
228.5850652173
  0
VERTEX
  8
0
 62
7
  6
CONTINUOUS
 10
82.7631365861
 20
228.5802446517
  0
VERTEX
  8
0
 62
7
  6
CONTINUOUS
 10
82.7939293433
 20
228.5756583643
  0
SEQEND
  0
POLYLINE
  8
0
 62
7
  6
CONTINUOUS
 66
1
 70
0
  0
VERTEX
  8
0
 62
7
  6
CONTINUOUS
 10
99.5324087978
 20
228.5850652173
  0
VERTEX
  8
0
 62
7
  6
CONTINUOUS
 10
99.5631365861
 20
228.5802446517
  0
VERTEX
  8
0
 62
7
  6
CONTINUOUS
 10
99.5939293433
 20
228.5756583643
  0
SEQEND
  0
POLYLINE
  8
0
 62
7
  6
CONTINUOUS
 66
1
 70
0
  0
VERTEX
  8
0
 62
7
  6
CONTINUOUS
 10
82.7939293433
 20
228.5756583643
  0
VERTEX
  8
0
 62
7
  6
CONTINUOUS
 10
82.8403831359
 20
228.5677035726
  0
VERTEX
  8
0
 62
7
  6
CONTINUOUS
 10
82.8853104269
 20
228.557436025
  0
VERTEX
  8
0
 62
7
  6
CONTINUOUS
 10
82.9282070315
 20
228.544791323
  0
VERTEX
  8
0
 62
7
  6
CONTINUOUS
 10
82.9683907685
 20
228.5297825633
  0
VERTEX
  8
0
 62
7
  6
CONTINUOUS
 10
83.0054771453
 20
228.512350598
  0
VERTEX
  8
0
 62
7
  6
CONTINUOUS
 10
83.0392557012
 20
228.4923025916
  0
VERTEX
  8
0
 62
7
  6
CONTINUOUS
 10
83.0690311308
 20
228.4696976385
  0
VERTEX
  8
0
 62
7
  6
CONTINUOUS
 10
83.0941842447
 20
228.4446953912
  0
VERTEX
  8
0
 62
7
  6
CONTINUOUS
 10
83.1143512088
 20
228.4173641033
  0
VERTEX
  8
0
 62
7
  6
CONTINUOUS
 10
83.1293179875
 20
228.3875016082
  0
VERTEX
  8
0
 62
7
  6
CONTINUOUS
 10
83.1385929386
 20
228.3552679896
  0
VERTEX
  8
0
 62
7
  6
CONTINUOUS
 10
83.1417554303
 20
228.3209805719
  0
SEQEND
  0
POLYLINE
  8
0
 62
7
  6
CONTINUOUS
 66
1
 70
0
  0
VERTEX
  8
0
 62
7
  6
CONTINUOUS
 10
99.5939293433
 20
228.5756583643
  0
VERTEX
  8
0
 62
7
  6
CONTINUOUS
 10
99.6403831359
 20
228.5677035726
  0
VERTEX
  8
0
 62
7
  6
CONTINUOUS
 10
99.6853104269
 20
228.557436025
  0
VERTEX
  8
0
 62
7
  6
CONTINUOUS
 10
99.7282070315
 20
228.544791323
  0
VERTEX
  8
0
 62
7
  6
CONTINUOUS
 10
99.7683907685
 20
228.5297825633
  0
VERTEX
  8
0
 62
7
  6
CONTINUOUS
 10
99.8054771453
 20
228.512350598
  0
VERTEX
  8
0
 62
7
  6
CONTINUOUS
 10
99.8392557012
 20
228.4923025916
  0
VERTEX
  8
0
 62
7
  6
CONTINUOUS
 10
99.8690311308
 20
228.4696976385
  0
VERTEX
  8
0
 62
7
  6
CONTINUOUS
 10
99.8941842447
 20
228.4446953912
  0
VERTEX
  8
0
 62
7
  6
CONTINUOUS
 10
99.9143512088
 20
228.4173641033
  0
VERTEX
  8
0
 62
7
  6
CONTINUOUS
 10
99.9293179875
 20
228.3875016082
  0
VERTEX
  8
0
 62
7
  6
CONTINUOUS
 10
99.9385929386
 20
228.3552679896
  0
VERTEX
  8
0
 62
7
  6
CONTINUOUS
 10
99.9417554303
 20
228.3209805719
  0
SEQEND
  0
POLYLINE
  8
0
 62
7
  6
CONTINUOUS
 66
1
 70
0
  0
VERTEX
  8
0
 62
7
  6
CONTINUOUS
 10
138.0928994199
 20
220.6464255209
  0
VERTEX
  8
0
 62
7
  6
CONTINUOUS
 10
138.087670779
 20
220.6485581098
  0
VERTEX
  8
0
 62
7
  6
CONTINUOUS
 10
138.0772350335
 20
220.665618848
  0
VERTEX
  8
0
 62
7
  6
CONTINUOUS
 10
138.0668638391
 20
220.6996696264
  0
VERTEX
  8
0
 62
7
  6
CONTINUOUS
 10
138.0565999277
 20
220.7505693446
  0
VERTEX
  8
0
 62
7
  6
CONTINUOUS
 10
138.0464855793
 20
220.8181071299
  0
VERTEX
  8
0
 62
7
  6
CONTINUOUS
 10
138.0365624448
 20
220.9020032683
  0
VERTEX
  8
0
 62
7
  6
CONTINUOUS
 10
138.0268713706
 20
221.0019104395
  0
VERTEX
  8
0
 62
7
  6
CONTINUOUS
 10
138.0174522298
 20
221.1174152265
  0
VERTEX
  8
0
 62
7
  6
CONTINUOUS
 10
138.0083437548
 20
221.2480399352
  0
VERTEX
  8
0
 62
7
  6
CONTINUOUS
 10
137.9995833781
 20
221.3932446643
  0
VERTEX
  8
0
 62
7
  6
CONTINUOUS
 10
137.9912070785
 20
221.5524296312
  0
VERTEX
  8
0
 62
7
  6
CONTINUOUS
 10
137.983249233
 20
221.724937771
  0
VERTEX
  8
0
 62
7
  6
CONTINUOUS
 10
137.9757424782
 20
221.9100575247
  0
VERTEX
  8
0
 62
7
  6
CONTINUOUS
 10
137.9687175782
 20
222.1070258678
  0
VERTEX
  8
0
 62
7
  6
CONTINUOUS
 10
137.9622033006
 20
222.3150315515
  0
VERTEX
  8
0
 62
7
  6
CONTINUOUS
 10
137.956226303
 20
222.5332184651
  0
VERTEX
  8
0
 62
7
  6
CONTINUOUS
 10
137.9508110269
 20
222.7606892382
  0
VERTEX
  8
0
 62
7
  6
CONTINUOUS
 10
137.9459796015
 20
222.9965089545
  0
VERTEX
  8
0
 62
7
  6
CONTINUOUS
 10
137.9417517583
 20
223.2397089722
  0
VERTEX
  8
0
 62
7
  6
CONTINUOUS
 10
137.9381447532
 20
223.4892909253
  0
VERTEX
  8
0
 62
7
  6
CONTINUOUS
 10
137.9351733008
 20
223.7442307706
  0
VERTEX
  8
0
 62
7
  6
CONTINUOUS
 10
137.9328495176
 20
224.0034829346
  0
VERTEX
  8
0
 62
7
  6
CONTINUOUS
 10
137.9311828757
 20
224.2659845526
  0
VERTEX
  8
0
 62
7
  6
CONTINUOUS
 10
137.9301801666
 20
224.5306597288
  0
VERTEX
  8
0
 62
7
  6
CONTINUOUS
 10
137.9298454758
 20
224.7964238622
  0
SEQEND
  0
LINE
  8
0
 62
7
  6
CONTINUOUS
 10
142.0343178657
 20
221.8518115035
 11
142.0355694304
 21
221.8375727638
  0
POLYLINE
  8
0
 62
7
  6
CONTINUOUS
 66
1
 70
0
  0
VERTEX
  8
0
 62
7
  6
CONTINUOUS
 10
142.0355694304
 20
221.8375727638
  0
VERTEX
  8
0
 62
7
  6
CONTINUOUS
 10
142.0368906546
 20
221.8213341991
  0
VERTEX
  8
0
 62
7
  6
CONTINUOUS
 10
142.0382733104
 20
221.8030007517
  0
VERTEX
  8
0
 62
7
  6
CONTINUOUS
 10
142.0397101441
 20
221.7824659939
  0
VERTEX
  8
0
 62
7
  6
CONTINUOUS
 10
142.0411912027
 20
221.7596645412
  0
SEQEND
  0
LINE
  8
0
 62
7
  6
CONTINUOUS
 10
142.0411912027
 20
221.7596645412
 11
142.0442440736
 21
221.7071008441
  0
LINE
  8
0
 62
7
  6
CONTINUOUS
 10
142.0442440736
 20
221.7071008441
 11
142.0473538706
 21
221.6450408018
  0
LINE
  8
0
 62
7
  6
CONTINUOUS
 10
142.0473538706
 20
221.6450408018
 11
142.0504551674
 21
221.5731727735
  0
POLYLINE
  8
0
 62
7
  6
CONTINUOUS
 66
1
 70
0
  0
VERTEX
  8
0
 62
7
  6
CONTINUOUS
 10
142.0151688435
 20
222.0051079657
  0
VERTEX
  8
0
 62
7
  6
CONTINUOUS
 10
142.0162715622
 20
221.9767563056
  0
VERTEX
  8
0
 62
7
  6
CONTINUOUS
 10
142.0221333973
 20
221.9272468183
  0
VERTEX
  8
0
 62
7
  6
CONTINUOUS
 10
142.0328660196
 20
221.8788182625
  0
VERTEX
  8
0
 62
7
  6
CONTINUOUS
 10
142.0452164493
 20
221.8401020557
  0
SEQEND
  0
LINE
  8
0
 62
7
  6
CONTINUOUS
 10
142.0504551674
 20
221.5731727735
 11
142.0534873503
 21
221.4911982767
  0
LINE
  8
0
 62
7
  6
CONTINUOUS
 10
142.0534873503
 20
221.4911982767
 11
142.0563787846
 21
221.3992826031
  0
LINE
  8
0
 62
7
  6
CONTINUOUS
 10
142.0563787846
 20
221.3992826031
 11
142.059021163
 21
221.299484037
  0
POLYLINE
  8
0
 62
7
  6
CONTINUOUS
 66
1
 70
0
  0
VERTEX
  8
0
 62
7
  6
CONTINUOUS
 10
142.079889257
 20
220.1387250813
  0
VERTEX
  8
0
 62
7
  6
CONTINUOUS
 10
142.0858566575
 20
219.8790836065
  0
VERTEX
  8
0
 62
7
  6
CONTINUOUS
 10
142.0921300968
 20
219.6368091177
  0
VERTEX
  8
0
 62
7
  6
CONTINUOUS
 10
142.0986444014
 20
219.4114026419
  0
VERTEX
  8
0
 62
7
  6
CONTINUOUS
 10
142.1053408469
 20
219.2022724711
  0
VERTEX
  8
0
 62
7
  6
CONTINUOUS
 10
142.1121669441
 20
219.0087562082
  0
VERTEX
  8
0
 62
7
  6
CONTINUOUS
 10
142.1190726284
 20
218.8302271946
  0
VERTEX
  8
0
 62
7
  6
CONTINUOUS
 10
142.1260064847
 20
218.6661527501
  0
VERTEX
  8
0
 62
7
  6
CONTINUOUS
 10
142.1329204715
 20
218.5159473498
  0
VERTEX
  8
0
 62
7
  6
CONTINUOUS
 10
142.1397787757
 20
218.3788110524
  0
VERTEX
  8
0
 62
7
  6
CONTINUOUS
 10
142.1465737228
 20
218.2535203067
  0
VERTEX
  8
0
 62
7
  6
CONTINUOUS
 10
142.1533088684
 20
218.1388665973
  0
VERTEX
  8
0
 62
7
  6
CONTINUOUS
 10
142.1599940738
 20
218.0337519203
  0
VERTEX
  8
0
 62
7
  6
CONTINUOUS
 10
142.1666251994
 20
217.9374604579
  0
VERTEX
  8
0
 62
7
  6
CONTINUOUS
 10
142.1731799695
 20
217.8495979904
  0
VERTEX
  8
0
 62
7
  6
CONTINUOUS
 10
142.1796377947
 20
217.769746335
  0
VERTEX
  8
0
 62
7
  6
CONTINUOUS
 10
142.1859808689
 20
217.6974537408
  0
VERTEX
  8
0
 62
7
  6
CONTINUOUS
 10
142.1921894877
 20
217.6322932061
  0
VERTEX
  8
0
 62
7
  6
CONTINUOUS
 10
142.1982377988
 20
217.5738875717
  0
VERTEX
  8
0
 62
7
  6
CONTINUOUS
 10
142.2041090392
 20
217.5217585924
  0
VERTEX
  8
0
 62
7
  6
CONTINUOUS
 10
142.2098361937
 20
217.4750418157
  0
VERTEX
  8
0
 62
7
  6
CONTINUOUS
 10
142.2154794036
 20
217.4328109766
  0
VERTEX
  8
0
 62
7
  6
CONTINUOUS
 10
142.2211030189
 20
217.394286974
  0
VERTEX
  8
0
 62
7
  6
CONTINUOUS
 10
142.2267576119
 20
217.3589287313
  0
VERTEX
  8
0
 62
7
  6
CONTINUOUS
 10
142.2325046561
 20
217.3262355521
  0
VERTEX
  8
0
 62
7
  6
CONTINUOUS
 10
142.2384270657
 20
217.2957009493
  0
VERTEX
  8
0
 62
7
  6
CONTINUOUS
 10
142.2446297397
 20
217.2668400173
  0
VERTEX
  8
0
 62
7
  6
CONTINUOUS
 10
142.2512513928
 20
217.2391629388
  0
VERTEX
  8
0
 62
7
  6
CONTINUOUS
 10
142.2584886644
 20
217.2121255945
  0
VERTEX
  8
0
 62
7
  6
CONTINUOUS
 10
142.2666345203
 20
217.1850818416
  0
VERTEX
  8
0
 62
7
  6
CONTINUOUS
 10
142.2761063362
 20
217.1573268953
  0
VERTEX
  8
0
 62
7
  6
CONTINUOUS
 10
142.2874307096
 20
217.1282668672
  0
VERTEX
  8
0
 62
7
  6
CONTINUOUS
 10
142.3012140159
 20
217.0975452935
  0
VERTEX
  8
0
 62
7
  6
CONTINUOUS
 10
142.318142524
 20
217.0650353088
  0
VERTEX
  8
0
 62
7
  6
CONTINUOUS
 10
142.3386566983
 20
217.0313218152
  0
VERTEX
  8
0
 62
7
  6
CONTINUOUS
 10
142.3626599819
 20
216.9976950961
  0
VERTEX
  8
0
 62
7
  6
CONTINUOUS
 10
142.3902435474
 20
216.9648364733
  0
VERTEX
  8
0
 62
7
  6
CONTINUOUS
 10
142.4223498538
 20
216.9325215366
  0
VERTEX
  8
0
 62
7
  6
CONTINUOUS
 10
142.4598505616
 20
216.9010642441
  0
VERTEX
  8
0
 62
7
  6
CONTINUOUS
 10
142.5026575336
 20
216.8717526197
  0
VERTEX
  8
0
 62
7
  6
CONTINUOUS
 10
142.5502311072
 20
216.845936179
  0
VERTEX
  8
0
 62
7
  6
CONTINUOUS
 10
142.6017070233
 20
216.8247859425
  0
VERTEX
  8
0
 62
7
  6
CONTINUOUS
 10
142.6561555361
 20
216.8091456896
  0
VERTEX
  8
0
 62
7
  6
CONTINUOUS
 10
142.7125392837
 20
216.799590265
  0
VERTEX
  8
0
 62
7
  6
CONTINUOUS
 10
142.7691990412
 20
216.7964239016
  0
SEQEND
  0
LINE
  8
0
 62
7
  6
CONTINUOUS
 10
142.059021163
 20
221.299484037
 11
142.0614856984
 21
221.1868065591
  0
LINE
  8
0
 62
7
  6
CONTINUOUS
 10
142.0718073444
 20
220.5537102797
 11
142.079889257
 21
220.1387250813
  0
POLYLINE
  8
0
 62
7
  6
CONTINUOUS
 66
1
 70
0
  0
VERTEX
  8
0
 62
7
  6
CONTINUOUS
 10
142.0614856984
 20
221.1868065591
  0
VERTEX
  8
0
 62
7
  6
CONTINUOUS
 10
142.0645760825
 20
221.0041155712
  0
VERTEX
  8
0
 62
7
  6
CONTINUOUS
 10
142.0718012543
 20
220.554058878
  0
SEQEND
  0
POLYLINE
  8
0
 62
7
  6
CONTINUOUS
 66
1
 70
0
  0
VERTEX
  8
0
 62
7
  6
CONTINUOUS
 10
141.9699976938
 20
225.7964238622
  0
VERTEX
  8
0
 62
7
  6
CONTINUOUS
 10
141.9819053333
 20
224.9071364996
  0
VERTEX
  8
0
 62
7
  6
CONTINUOUS
 10
141.9995138674
 20
223.4509274942
  0
VERTEX
  8
0
 62
7
  6
CONTINUOUS
 10
142.0151685363
 20
222.0051112932
  0
SEQEND
  0
LINE
  8
0
 62
7
  6
CONTINUOUS
 10
140.9963190212
 20
226.2950480154
 11
140.9894466707
 21
228.7964204624
  0
LINE
  8
0
 62
7
  6
CONTINUOUS
 10
141.9417554303
 20
225.7964238622
 11
141.9417554303
 21
224.7964238622
  0
LINE
  8
0
 62
7
  6
CONTINUOUS
 10
142.5346200829
 20
225.8198891253
 11
142.58657569
 21
228.7964238622
  0
POLYLINE
  8
0
 62
7
  6
CONTINUOUS
 66
1
 70
0
  0
VERTEX
  8
0
 62
7
  6
CONTINUOUS
 10
155.8439816231
 20
228.614062923
  0
VERTEX
  8
0
 62
7
  6
CONTINUOUS
 10
155.8595925025
 20
228.6234227982
  0
VERTEX
  8
0
 62
7
  6
CONTINUOUS
 10
155.8723057547
 20
228.6333838024
  0
VERTEX
  8
0
 62
7
  6
CONTINUOUS
 10
155.8818923547
 20
228.6437490767
  0
VERTEX
  8
0
 62
7
  6
CONTINUOUS
 10
155.8881804174
 20
228.654358512
  0
VERTEX
  8
0
 62
7
  6
CONTINUOUS
 10
155.8909792275
 20
228.6649137103
  0
SEQEND
  0
POLYLINE
  8
0
 62
7
  6
CONTINUOUS
 66
1
 70
0
  0
VERTEX
  8
0
 62
7
  6
CONTINUOUS
 10
155.7511020683
 20
228.5850652183
  0
VERTEX
  8
0
 62
7
  6
CONTINUOUS
 10
155.7724247941
 20
228.5890958685
  0
VERTEX
  8
0
 62
7
  6
CONTINUOUS
 10
155.7924377446
 20
228.5940669771
  0
VERTEX
  8
0
 62
7
  6
CONTINUOUS
 10
155.8110718022
 20
228.599906169
  0
VERTEX
  8
0
 62
7
  6
CONTINUOUS
 10
155.8282835829
 20
228.6065766817
  0
VERTEX
  8
0
 62
7
  6
CONTINUOUS
 10
155.8439816231
 20
228.614062923
  0
SEQEND
  0
POLYLINE
  8
0
 62
7
  6
CONTINUOUS
 66
1
 70
0
  0
VERTEX
  8
0
 62
7
  6
CONTINUOUS
 10
172.4895815172
 20
228.5756583643
  0
VERTEX
  8
0
 62
7
  6
CONTINUOUS
 10
172.5203742614
 20
228.5802446497
  0
VERTEX
  8
0
 62
7
  6
CONTINUOUS
 10
172.5511020629
 20
228.5850652174
  0
SEQEND
  0
POLYLINE
  8
0
 62
7
  6
CONTINUOUS
 66
1
 70
0
  0
VERTEX
  8
0
 62
7
  6
CONTINUOUS
 10
155.6895815172
 20
228.5756583643
  0
VERTEX
  8
0
 62
7
  6
CONTINUOUS
 10
155.7203742614
 20
228.5802446497
  0
VERTEX
  8
0
 62
7
  6
CONTINUOUS
 10
155.7511020629
 20
228.5850652174
  0
SEQEND
  0
LINE
  8
0
 62
7
  6
CONTINUOUS
 10
141.9832440747
 20
224.7964238622
 11
141.9417554303
 21
224.7964238622
  0
LINE
  8
0
 62
7
  6
CONTINUOUS
 10
91.6136169368
 20
224.7964238622
 11
91.5417554303
 21
224.7964238622
  0
LINE
  8
DEFAULT_1
 62
2
  6
CENTER
 10
141.9417554303
 20
224.7964238622
 11
138.5417554303
 21
224.7964238622
  0
LINE
  8
DEFAULT_1
 62
2
  6
CENTER
 10
137.2781927851
 20
224.7964238622
 11
104.9417554303
 21
224.7964238622
  0
LINE
  8
DEFAULT_1
 62
2
  6
CENTER
 10
99.9417554303
 20
224.7964238622
 11
91.6136169368
 21
224.7964238622
  0
LINE
  8
DEFAULT_1
 62
2
  6
CENTER
 10
91.5417554303
 20
224.7964238622
 11
88.1417554303
 21
224.7964238622
  0
LINE
  8
DEFAULT_1
 62
2
  6
CENTER
 10
86.8781927851
 20
224.7964238622
 11
73.5917554303
 21
224.7964238622
  0
LINE
  8
DEFAULT_1
 62
2
  6
CENTER
 10
167.1417554303
 20
224.7964238622
 11
141.9832440747
 21
224.7964238622
  0
LINE
  8
0
 62
7
  6
CONTINUOUS
 10
86.8781927851
 20
224.7964238622
 11
88.1417554303
 21
224.7964238622
  0
LINE
  8
0
 62
7
  6
CONTINUOUS
 10
99.9417554303
 20
224.7964238622
 11
104.9417554303
 21
224.7964238622
  0
LINE
  8
0
 62
7
  6
CONTINUOUS
 10
137.2781927851
 20
224.7964238622
 11
138.5417554303
 21
224.7964238622
  0
LINE
  8
0
 62
7
  6
CONTINUOUS
 10
167.1417554303
 20
224.7964238622
 11
172.1417554303
 21
224.7964238622
  0
LINE
  8
DEFAULT_1
 62
2
  6
CENTER
 10
172.1417554303
 20
224.7964238622
 11
217.7417554303
 21
224.7964238622
  0
LINE
  8
0
 62
7
  6
CONTINUOUS
 10
142.2291429788
 20
225.7964238622
 11
141.4963189291
 21
225.7964238622
  0
LINE
  8
0
 62
7
  6
CONTINUOUS
 10
138.9871919342
 20
225.7964238622
 11
138.5417554303
 21
225.7964238622
  0
LINE
  8
0
 62
7
  6
CONTINUOUS
 10
91.8291429788
 20
225.7964238622
 11
91.0963189291
 21
225.7964238622
  0
LINE
  8
0
 62
7
  6
CONTINUOUS
 10
88.5871919342
 20
225.7964238622
 11
88.1417554303
 21
225.7964238622
  0
LINE
  8
SURFACE
 62
7
  6
CONTINUOUS
 10
73.1124569156
 20
228.7898963979
 11
73.0417630269
 21
228.7934430068
  0
LINE
  8
SURFACE
 62
7
  6
CONTINUOUS
 10
106.7124569156
 20
228.7898963979
 11
106.6417630269
 21
228.7934430068
  0
LINE
  8
SURFACE
 62
7
  6
CONTINUOUS
 10
123.5124569156
 20
228.7898963979
 11
123.4417630269
 21
228.7934430068
  0
POLYLINE
  8
0
 62
7
  6
CONTINUOUS
 66
1
 70
0
  0
VERTEX
  8
0
 62
7
  6
CONTINUOUS
 10
116.3324087978
 20
228.5850652173
  0
VERTEX
  8
0
 62
7
  6
CONTINUOUS
 10
116.3631365861
 20
228.5802446517
  0
VERTEX
  8
0
 62
7
  6
CONTINUOUS
 10
116.3939293433
 20
228.5756583643
  0
SEQEND
  0
POLYLINE
  8
0
 62
7
  6
CONTINUOUS
 66
1
 70
0
  0
VERTEX
  8
0
 62
7
  6
CONTINUOUS
 10
133.1324087978
 20
228.5850652173
  0
VERTEX
  8
0
 62
7
  6
CONTINUOUS
 10
133.1631365861
 20
228.5802446517
  0
VERTEX
  8
0
 62
7
  6
CONTINUOUS
 10
133.1939293433
 20
228.5756583643
  0
SEQEND
  0
POLYLINE
  8
0
 62
7
  6
CONTINUOUS
 66
1
 70
0
  0
VERTEX
  8
0
 62
7
  6
CONTINUOUS
 10
116.3939293433
 20
228.5756583643
  0
VERTEX
  8
0
 62
7
  6
CONTINUOUS
 10
116.4403831359
 20
228.5677035726
  0
VERTEX
  8
0
 62
7
  6
CONTINUOUS
 10
116.4853104269
 20
228.557436025
  0
VERTEX
  8
0
 62
7
  6
CONTINUOUS
 10
116.5282070315
 20
228.544791323
  0
VERTEX
  8
0
 62
7
  6
CONTINUOUS
 10
116.5683907685
 20
228.5297825633
  0
VERTEX
  8
0
 62
7
  6
CONTINUOUS
 10
116.6054771453
 20
228.512350598
  0
VERTEX
  8
0
 62
7
  6
CONTINUOUS
 10
116.6392557012
 20
228.4923025916
  0
VERTEX
  8
0
 62
7
  6
CONTINUOUS
 10
116.6690311308
 20
228.4696976385
  0
VERTEX
  8
0
 62
7
  6
CONTINUOUS
 10
116.6941842447
 20
228.4446953912
  0
VERTEX
  8
0
 62
7
  6
CONTINUOUS
 10
116.7143512088
 20
228.4173641033
  0
VERTEX
  8
0
 62
7
  6
CONTINUOUS
 10
116.7293179875
 20
228.3875016082
  0
VERTEX
  8
0
 62
7
  6
CONTINUOUS
 10
116.7385929386
 20
228.3552679896
  0
VERTEX
  8
0
 62
7
  6
CONTINUOUS
 10
116.7417554303
 20
228.3209805719
  0
SEQEND
  0
POLYLINE
  8
0
 62
7
  6
CONTINUOUS
 66
1
 70
0
  0
VERTEX
  8
0
 62
7
  6
CONTINUOUS
 10
133.1939293433
 20
228.5756583643
  0
VERTEX
  8
0
 62
7
  6
CONTINUOUS
 10
133.2403831359
 20
228.5677035726
  0
VERTEX
  8
0
 62
7
  6
CONTINUOUS
 10
133.2853104269
 20
228.557436025
  0
VERTEX
  8
0
 62
7
  6
CONTINUOUS
 10
133.3282070315
 20
228.544791323
  0
VERTEX
  8
0
 62
7
  6
CONTINUOUS
 10
133.3683907685
 20
228.5297825633
  0
VERTEX
  8
0
 62
7
  6
CONTINUOUS
 10
133.4054771453
 20
228.512350598
  0
VERTEX
  8
0
 62
7
  6
CONTINUOUS
 10
133.4392557012
 20
228.4923025916
  0
VERTEX
  8
0
 62
7
  6
CONTINUOUS
 10
133.4690311308
 20
228.4696976385
  0
VERTEX
  8
0
 62
7
  6
CONTINUOUS
 10
133.4941842447
 20
228.4446953912
  0
VERTEX
  8
0
 62
7
  6
CONTINUOUS
 10
133.5143512088
 20
228.4173641033
  0
VERTEX
  8
0
 62
7
  6
CONTINUOUS
 10
133.5293179875
 20
228.3875016082
  0
VERTEX
  8
0
 62
7
  6
CONTINUOUS
 10
133.5385929386
 20
228.3552679896
  0
VERTEX
  8
0
 62
7
  6
CONTINUOUS
 10
133.5417554303
 20
228.3209805719
  0
SEQEND
  0
POLYLINE
  8
0
 62
7
  6
CONTINUOUS
 66
1
 70
0
  0
VERTEX
  8
0
 62
7
  6
CONTINUOUS
 10
133.039529237
 20
228.6140629232
  0
VERTEX
  8
0
 62
7
  6
CONTINUOUS
 10
133.0552230401
 20
228.6065785027
  0
VERTEX
  8
0
 62
7
  6
CONTINUOUS
 10
133.072433937
 20
228.5999079564
  0
VERTEX
  8
0
 62
7
  6
CONTINUOUS
 10
133.0910675967
 20
228.5940685229
  0
VERTEX
  8
0
 62
7
  6
CONTINUOUS
 10
133.1110842851
 20
228.5890962573
  0
VERTEX
  8
0
 62
7
  6
CONTINUOUS
 10
133.1324087914
 20
228.5850652184
  0
SEQEND
  0
POLYLINE
  8
0
 62
7
  6
CONTINUOUS
 66
1
 70
0
  0
VERTEX
  8
0
 62
7
  6
CONTINUOUS
 10
142.0300492987
 20
221.8915280849
  0
VERTEX
  8
0
 62
7
  6
CONTINUOUS
 10
142.0303182009
 20
221.8895309916
  0
VERTEX
  8
0
 62
7
  6
CONTINUOUS
 10
142.0311180249
 20
221.8830171602
  0
VERTEX
  8
0
 62
7
  6
CONTINUOUS
 10
142.0320730231
 20
221.8745199141
  0
VERTEX
  8
0
 62
7
  6
CONTINUOUS
 10
142.0331473029
 20
221.8641148012
  0
VERTEX
  8
0
 62
7
  6
CONTINUOUS
 10
142.0343178657
 20
221.8518115035
  0
SEQEND
  0
LINE
  8
0
 62
7
  6
CONTINUOUS
 10
150.6623524741
 20
217.7898162641
 11
150.6681929936
 21
217.7167468611
  0
LINE
  8
SURFACE
 62
7
  6
CONTINUOUS
 10
150.6681929936
 20
217.7167468611
 11
150.6620444456
 21
217.793669938
  0
LINE
  8
0
 62
7
  6
CONTINUOUS
 10
150.6620444456
 20
217.793669938
 11
150.3423926283
 21
221.7927606974
  0
LINE
  8
0
 62
7
  6
CONTINUOUS
 10
150.3408619782
 20
221.8119103111
 11
149.7977097024
 21
228.6071641774
  0
POLYLINE
  8
0
 62
7
  6
CONTINUOUS
 66
1
 70
0
  0
VERTEX
  8
0
 62
7
  6
CONTINUOUS
 10
150.0160354394
 20
225.8757408191
  0
VERTEX
  8
0
 62
7
  6
CONTINUOUS
 10
150.012095228
 20
225.9444952616
  0
VERTEX
  8
0
 62
7
  6
CONTINUOUS
 10
150.0115182401
 20
226.00645974
  0
VERTEX
  8
0
 62
7
  6
CONTINUOUS
 10
150.0138771486
 20
226.0620984776
  0
VERTEX
  8
0
 62
7
  6
CONTINUOUS
 10
150.0188090093
 20
226.1119325101
  0
VERTEX
  8
0
 62
7
  6
CONTINUOUS
 10
150.0260713436
 20
226.156714584
  0
VERTEX
  8
0
 62
7
  6
CONTINUOUS
 10
150.0355067441
 20
226.1969126314
  0
VERTEX
  8
0
 62
7
  6
CONTINUOUS
 10
150.0470615616
 20
226.2329348356
  0
SEQEND
  0
POLYLINE
  8
0
 62
7
  6
CONTINUOUS
 66
1
 70
0
  0
VERTEX
  8
0
 62
7
  6
CONTINUOUS
 10
150.3417554303
 20
222.1353764851
  0
VERTEX
  8
0
 62
7
  6
CONTINUOUS
 10
150.3388474071
 20
222.2293257249
  0
VERTEX
  8
0
 62
7
  6
CONTINUOUS
 10
150.3298119825
 20
222.3314684802
  0
VERTEX
  8
0
 62
7
  6
CONTINUOUS
 10
150.3141887537
 20
222.4423532991
  0
VERTEX
  8
0
 62
7
  6
CONTINUOUS
 10
150.2915472166
 20
222.5624812358
  0
SEQEND
  0
LINE
  8
0
 62
7
  6
CONTINUOUS
 10
146.3150800337
 20
227.7569053494
 11
146.2969351706
 21
228.7964238622
  0
LINE
  8
0
 62
7
  6
CONTINUOUS
 10
148.7417554303
 20
232.5438631723
 11
148.7417554303
 21
232.5964238622
  0
LINE
  8
0
 62
7
  6
CONTINUOUS
 10
150.3417554303
 20
232.5964238622
 11
150.3417554303
 21
221.808686792
  0
LINE
  8
SURFACE
 62
7
  6
CONTINUOUS
 10
146.8995160661
 20
221.2722855139
 11
146.615317867
 21
217.7167468611
  0
LINE
  8
0
 62
7
  6
CONTINUOUS
 10
146.9076264
 20
221.3737520458
 11
146.8995160661
 21
221.2722855139
  0
POLYLINE
  8
0
 62
7
  6
CONTINUOUS
 66
1
 70
0
  0
VERTEX
  8
0
 62
7
  6
CONTINUOUS
 10
150.0470611198
 20
226.2329335916
  0
VERTEX
  8
0
 62
7
  6
CONTINUOUS
 10
150.1156846675
 20
226.4233143603
  0
VERTEX
  8
0
 62
7
  6
CONTINUOUS
 10
150.1769704258
 20
226.6064638194
  0
VERTEX
  8
0
 62
7
  6
CONTINUOUS
 10
150.2291628968
 20
226.7795034241
  0
VERTEX
  8
0
 62
7
  6
CONTINUOUS
 10
150.2713664784
 20
226.9407353765
  0
VERTEX
  8
0
 62
7
  6
CONTINUOUS
 10
150.3032311805
 20
227.0887613417
  0
VERTEX
  8
0
 62
7
  6
CONTINUOUS
 10
150.3251210253
 20
227.2236273486
  0
VERTEX
  8
0
 62
7
  6
CONTINUOUS
 10
150.3377199858
 20
227.3462295364
  0
VERTEX
  8
0
 62
7
  6
CONTINUOUS
 10
150.3417554303
 20
227.4574712393
  0
SEQEND
  0
POLYLINE
  8
0
 62
7
  6
CONTINUOUS
 66
1
 70
0
  0
VERTEX
  8
0
 62
7
  6
CONTINUOUS
 10
146.8930879097
 20
221.3459055006
  0
VERTEX
  8
0
 62
7
  6
CONTINUOUS
 10
146.8931420425
 20
221.3460493517
  0
VERTEX
  8
0
 62
7
  6
CONTINUOUS
 10
146.8946701192
 20
221.3497238605
  0
VERTEX
  8
0
 62
7
  6
CONTINUOUS
 10
146.8984801642
 20
221.3577152516
  0
VERTEX
  8
0
 62
7
  6
CONTINUOUS
 10
146.9049347316
 20
221.3694830254
  0
VERTEX
  8
0
 62
7
  6
CONTINUOUS
 10
146.914269492
 20
221.3842880748
  0
VERTEX
  8
0
 62
7
  6
CONTINUOUS
 10
146.9266154754
 20
221.4013338601
  0
VERTEX
  8
0
 62
7
  6
CONTINUOUS
 10
146.9421278736
 20
221.4199545026
  0
VERTEX
  8
0
 62
7
  6
CONTINUOUS
 10
146.9609150191
 20
221.4394763828
  0
VERTEX
  8
0
 62
7
  6
CONTINUOUS
 10
146.9830777391
 20
221.4592420666
  0
VERTEX
  8
0
 62
7
  6
CONTINUOUS
 10
147.0091673275
 20
221.4788819749
  0
VERTEX
  8
0
 62
7
  6
CONTINUOUS
 10
147.037684512
 20
221.4965607472
  0
VERTEX
  8
0
 62
7
  6
CONTINUOUS
 10
147.0647874973
 20
221.5100502433
  0
VERTEX
  8
0
 62
7
  6
CONTINUOUS
 10
147.0871730516
 20
221.5187937128
  0
VERTEX
  8
0
 62
7
  6
CONTINUOUS
 10
147.1037332065
 20
221.5237337094
  0
SEQEND
  0
POLYLINE
  8
0
 62
7
  6
CONTINUOUS
 66
1
 70
0
  0
VERTEX
  8
0
 62
7
  6
CONTINUOUS
 10
163.7969783152
 20
221.5112781929
  0
VERTEX
  8
0
 62
7
  6
CONTINUOUS
 10
163.7972221625
 20
221.5113795795
  0
VERTEX
  8
0
 62
7
  6
CONTINUOUS
 10
163.8012746136
 20
221.5129221141
  0
VERTEX
  8
0
 62
7
  6
CONTINUOUS
 10
163.8101942438
 20
221.5156037011
  0
VERTEX
  8
0
 62
7
  6
CONTINUOUS
 10
163.8242759662
 20
221.5188181871
  0
VERTEX
  8
0
 62
7
  6
CONTINUOUS
 10
163.8435082329
 20
221.5219695967
  0
VERTEX
  8
0
 62
7
  6
CONTINUOUS
 10
163.8676716998
 20
221.5245371167
  0
VERTEX
  8
0
 62
7
  6
CONTINUOUS
 10
163.8965307381
 20
221.5261038661
  0
VERTEX
  8
0
 62
7
  6
CONTINUOUS
 10
163.9180288156
 20
221.5264236819
  0
SEQEND
  0
LINE
  8
0
 62
7
  6
CONTINUOUS
 10
155.404628187
 20
221.5139290592
 11
155.4081895722
 21
221.5150576069
  0
POLYLINE
  8
0
 62
7
  6
CONTINUOUS
 66
1
 70
0
  0
VERTEX
  8
0
 62
7
  6
CONTINUOUS
 10
139.9918693026
 20
232.4027856391
  0
VERTEX
  8
0
 62
7
  6
CONTINUOUS
 10
139.994734894
 20
232.4035532708
  0
VERTEX
  8
0
 62
7
  6
CONTINUOUS
 10
139.9985739505
 20
232.4046518745
  0
VERTEX
  8
0
 62
7
  6
CONTINUOUS
 10
140.0034177504
 20
232.4061561787
  0
VERTEX
  8
0
 62
7
  6
CONTINUOUS
 10
140.0090628062
 20
232.4080806629
  0
VERTEX
  8
0
 62
7
  6
CONTINUOUS
 10
140.0152823517
 20
232.4104216981
  0
VERTEX
  8
0
 62
7
  6
CONTINUOUS
 10
140.0219689167
 20
232.4132068204
  0
VERTEX
  8
0
 62
7
  6
CONTINUOUS
 10
140.0291190981
 20
232.4165071621
  0
VERTEX
  8
0
 62
7
  6
CONTINUOUS
 10
140.0366846539
 20
232.4203822227
  0
VERTEX
  8
0
 62
7
  6
CONTINUOUS
 10
140.0445112332
 20
232.4248334161
  0
VERTEX
  8
0
 62
7
  6
CONTINUOUS
 10
140.0524294946
 20
232.429831149
  0
VERTEX
  8
0
 62
7
  6
CONTINUOUS
 10
140.0603542622
 20
232.4353771016
  0
VERTEX
  8
0
 62
7
  6
CONTINUOUS
 10
140.0682219028
 20
232.4414792058
  0
VERTEX
  8
0
 62
7
  6
CONTINUOUS
 10
140.0759688431
 20
232.4481394855
  0
VERTEX
  8
0
 62
7
  6
CONTINUOUS
 10
140.0835316724
 20
232.4553533809
  0
VERTEX
  8
0
 62
7
  6
CONTINUOUS
 10
140.0908477947
 20
232.4631094172
  0
VERTEX
  8
0
 62
7
  6
CONTINUOUS
 10
140.0978564889
 20
232.4713893573
  0
VERTEX
  8
0
 62
7
  6
CONTINUOUS
 10
140.1045074357
 20
232.4801790864
  0
VERTEX
  8
0
 62
7
  6
CONTINUOUS
 10
140.1107606998
 20
232.4894744432
  0
VERTEX
  8
0
 62
7
  6
CONTINUOUS
 10
140.116575024
 20
232.4992695233
  0
VERTEX
  8
0
 62
7
  6
CONTINUOUS
 10
140.1219071276
 20
232.5095554654
  0
VERTEX
  8
0
 62
7
  6
CONTINUOUS
 10
140.1267118044
 20
232.5203200626
  0
VERTEX
  8
0
 62
7
  6
CONTINUOUS
 10
140.130942068
 20
232.5315473595
  0
VERTEX
  8
0
 62
7
  6
CONTINUOUS
 10
140.1345493484
 20
232.5432172363
  0
VERTEX
  8
0
 62
7
  6
CONTINUOUS
 10
140.1374837436
 20
232.5553049815
  0
VERTEX
  8
0
 62
7
  6
CONTINUOUS
 10
140.1396943386
 20
232.5677809149
  0
VERTEX
  8
0
 62
7
  6
CONTINUOUS
 10
140.1411295611
 20
232.5806099198
  0
VERTEX
  8
0
 62
7
  6
CONTINUOUS
 10
140.1417376189
 20
232.5937509721
  0
VERTEX
  8
0
 62
7
  6
CONTINUOUS
 10
140.1417554283
 20
232.5964199525
  0
SEQEND
  0
LINE
  8
0
 62
7
  6
CONTINUOUS
 10
139.989715196
 20
232.4022370345
 11
139.9918693026
 21
232.4027856391
  0
POLYLINE
  8
0
 62
7
  6
CONTINUOUS
 66
1
 70
0
  0
VERTEX
  8
0
 62
7
  6
CONTINUOUS
 10
139.9385301864
 20
232.3914336418
  0
VERTEX
  8
0
 62
7
  6
CONTINUOUS
 10
139.9635940125
 20
232.3965426104
  0
VERTEX
  8
0
 62
7
  6
CONTINUOUS
 10
139.9794572682
 20
232.3998856651
  0
VERTEX
  8
0
 62
7
  6
CONTINUOUS
 10
139.9819271887
 20
232.4004961305
  0
SEQEND
  0
POLYLINE
  8
0
 62
7
  6
CONTINUOUS
 66
1
 70
0
  0
VERTEX
  8
0
 62
7
  6
CONTINUOUS
 10
139.8587033065
 20
232.3759323036
  0
VERTEX
  8
0
 62
7
  6
CONTINUOUS
 10
139.9035634443
 20
232.3845155752
  0
VERTEX
  8
0
 62
7
  6
CONTINUOUS
 10
139.9385301864
 20
232.3914336418
  0
SEQEND
  0
POLYLINE
  8
0
 62
7
  6
CONTINUOUS
 66
1
 70
0
  0
VERTEX
  8
0
 62
7
  6
CONTINUOUS
 10
139.8045712726
 20
232.3661597299
  0
VERTEX
  8
0
 62
7
  6
CONTINUOUS
 10
139.8579547865
 20
232.3762703081
  0
VERTEX
  8
0
 62
7
  6
CONTINUOUS
 10
139.9744802456
 20
232.3991109324
  0
SEQEND
  0
POLYLINE
  8
0
 62
7
  6
CONTINUOUS
 66
1
 70
0
  0
VERTEX
  8
0
 62
7
  6
CONTINUOUS
 10
122.1511020683
 20
228.5850652183
  0
VERTEX
  8
0
 62
7
  6
CONTINUOUS
 10
122.1724247941
 20
228.5890958685
  0
VERTEX
  8
0
 62
7
  6
CONTINUOUS
 10
122.1924377446
 20
228.5940669771
  0
VERTEX
  8
0
 62
7
  6
CONTINUOUS
 10
122.2110718022
 20
228.599906169
  0
VERTEX
  8
0
 62
7
  6
CONTINUOUS
 10
122.2282835829
 20
228.6065766817
  0
VERTEX
  8
0
 62
7
  6
CONTINUOUS
 10
122.2439816231
 20
228.614062923
  0
SEQEND
  0
LINE
  8
0
 62
7
  6
CONTINUOUS
 10
139.9744802456
 20
232.3991109324
 11
139.9819271887
 21
232.4004961305
  0
LINE
  8
0
 62
7
  6
CONTINUOUS
 10
139.7807157421
 20
232.361781991
 11
139.804247324
 21
232.365914646
  0
POLYLINE
  8
0
 62
7
  6
CONTINUOUS
 66
1
 70
0
  0
VERTEX
  8
0
 62
7
  6
CONTINUOUS
 10
122.0895815172
 20
228.5756583643
  0
VERTEX
  8
0
 62
7
  6
CONTINUOUS
 10
122.1203742614
 20
228.5802446497
  0
VERTEX
  8
0
 62
7
  6
CONTINUOUS
 10
122.1511020629
 20
228.5850652174
  0
SEQEND
  0
POLYLINE
  8
0
 62
7
  6
CONTINUOUS
 66
1
 70
0
  0
VERTEX
  8
0
 62
7
  6
CONTINUOUS
 10
138.9541061857
 20
232.2484833235
  0
VERTEX
  8
0
 62
7
  6
CONTINUOUS
 10
139.0742687289
 20
232.2598473082
  0
VERTEX
  8
0
 62
7
  6
CONTINUOUS
 10
139.1896848526
 20
232.2724433928
  0
VERTEX
  8
0
 62
7
  6
CONTINUOUS
 10
139.2995685751
 20
232.2859451029
  0
VERTEX
  8
0
 62
7
  6
CONTINUOUS
 10
139.4031671622
 20
232.3000026125
  0
VERTEX
  8
0
 62
7
  6
CONTINUOUS
 10
139.4997844676
 20
232.3142550388
  0
VERTEX
  8
0
 62
7
  6
CONTINUOUS
 10
139.5887884061
 20
232.3283415356
  0
VERTEX
  8
0
 62
7
  6
CONTINUOUS
 10
139.6696018078
 20
232.3419093972
  0
VERTEX
  8
0
 62
7
  6
CONTINUOUS
 10
139.7416790734
 20
232.3546183548
  0
VERTEX
  8
0
 62
7
  6
CONTINUOUS
 10
139.8587033065
 20
232.3759323036
  0
SEQEND
  0
LINE
  8
0
 62
7
  6
CONTINUOUS
 10
131.7823461958
 20
228.7964238622
 11
123.5011646648
 21
228.7964238622
  0
LINE
  8
0
 62
7
  6
CONTINUOUS
 10
114.9823461958
 20
228.7964238622
 11
106.7011646648
 21
228.7964238622
  0
LINE
  8
0
 62
7
  6
CONTINUOUS
 10
81.3823461958
 20
228.7964238622
 11
73.1011646648
 21
228.7964238622
  0
LINE
  8
0
 62
7
  6
CONTINUOUS
 10
88.2199564939
 20
228.7964238622
 11
98.1823461958
 21
228.7964238622
  0
LINE
  8
0
 62
7
  6
CONTINUOUS
 10
138.6199564939
 20
228.7964238622
 11
148.5823461958
 21
228.7964238622
  0
LINE
  8
0
 62
7
  6
CONTINUOUS
 10
215.3353418783
 20
230.6872302586
 11
215.7417554359
 21
230.6872302586
  0
LINE
  8
0
 62
7
  6
CONTINUOUS
 10
72.9417554303
 20
232.5964238622
 11
73.3292852541
 21
232.5964238622
  0
LINE
  8
0
 62
7
  6
CONTINUOUS
 10
81.1540731037
 20
232.5964238622
 11
81.5417554303
 21
232.5964238622
  0
LINE
  8
0
 62
7
  6
CONTINUOUS
 10
89.7417554303
 20
232.5964238622
 11
90.1292852541
 21
232.5964238622
  0
LINE
  8
0
 62
7
  6
CONTINUOUS
 10
97.9540731038
 20
232.5964238622
 11
98.3417554303
 21
232.5964238622
  0
LINE
  8
0
 62
7
  6
CONTINUOUS
 10
106.5417554303
 20
232.5964238622
 11
106.929285254
 21
232.5964238622
  0
LINE
  8
0
 62
7
  6
CONTINUOUS
 10
114.7540731067
 20
232.5964238622
 11
115.1417554303
 21
232.5964238622
  0
LINE
  8
0
 62
7
  6
CONTINUOUS
 10
123.3417554303
 20
232.5964238622
 11
123.729285254
 21
232.5964238622
  0
LINE
  8
0
 62
7
  6
CONTINUOUS
 10
131.5540731062
 20
232.5964238622
 11
131.9417554303
 21
232.5964238622
  0
LINE
  8
0
 62
7
  6
CONTINUOUS
 10
140.1417554303
 20
232.5964238622
 11
140.529285254
 21
232.5964238622
  0
LINE
  8
0
 62
7
  6
CONTINUOUS
 10
148.3540731039
 20
232.5964238622
 11
148.7417554303
 21
232.5964238622
  0
LINE
  8
0
 62
7
  6
CONTINUOUS
 10
156.9417554303
 20
232.5964238622
 11
157.329285254
 21
232.5964238622
  0
LINE
  8
0
 62
7
  6
CONTINUOUS
 10
173.7417554303
 20
232.5964238622
 11
174.129285254
 21
232.5964238622
  0
LINE
  8
0
 62
7
  6
CONTINUOUS
 10
215.5417554303
 20
232.7964238622
 11
207.7292824958
 21
232.7964238622
  0
LINE
  8
0
 62
7
  6
CONTINUOUS
 10
207.1565872734
 20
232.7964238622
 11
199.3269235871
 21
232.7964238622
  0
LINE
  8
SURFACE
 62
7
  6
CONTINUOUS
 10
171.9417554303
 20
232.7964238622
 11
167.1417554303
 21
232.7964238622
  0
LINE
  8
SURFACE
 62
7
  6
CONTINUOUS
 10
155.1417554303
 20
232.7964238622
 11
150.5417554303
 21
232.7964238622
  0
LINE
  8
SURFACE
 62
7
  6
CONTINUOUS
 10
148.9417570754
 20
232.7964238622
 11
139.9417554303
 21
232.7964238622
  0
LINE
  8
SURFACE
 62
7
  6
CONTINUOUS
 10
138.3417554303
 20
232.7964238622
 11
133.7417554303
 21
232.7964238622
  0
LINE
  8
SURFACE
 62
7
  6
CONTINUOUS
 10
132.1417570754
 20
232.7964238622
 11
123.1417554303
 21
232.7964238622
  0
LINE
  8
SURFACE
 62
7
  6
CONTINUOUS
 10
121.5417554303
 20
232.7964238622
 11
116.9417554303
 21
232.7964238622
  0
LINE
  8
SURFACE
 62
7
  6
CONTINUOUS
 10
104.7417554303
 20
232.7964238622
 11
100.1417554303
 21
232.7964238622
  0
LINE
  8
SURFACE
 62
7
  6
CONTINUOUS
 10
98.5417570754
 20
232.7964238622
 11
89.5417554303
 21
232.7964238622
  0
LINE
  8
SURFACE
 62
7
  6
CONTINUOUS
 10
87.9417554303
 20
232.7964238622
 11
83.3417554303
 21
232.7964238622
  0
LINE
  8
SURFACE
 62
7
  6
CONTINUOUS
 10
81.7417570754
 20
232.7964238622
 11
72.7417554303
 21
232.7964238622
  0
LINE
  8
SURFACE
 62
7
  6
CONTINUOUS
 10
71.1417554303
 20
232.7964238622
 11
64.9417554303
 21
232.7964238622
  0
LINE
  8
0
 62
7
  6
CONTINUOUS
 10
64.9417554303
 20
232.7964238622
 11
181.954076036
 21
232.7964238622
  0
LINE
  8
SURFACE
 62
7
  6
CONTINUOUS
 10
181.954076036
 20
232.7964238622
 11
190.9292824958
 21
232.7964238622
  0
LINE
  8
0
 62
7
  6
CONTINUOUS
 10
190.9292824958
 20
232.7964238622
 11
198.754076036
 21
232.7964238622
  0
LINE
  8
SURFACE
 62
7
  6
CONTINUOUS
 10
198.754076036
 20
232.7964238622
 11
207.7292824958
 21
232.7964238622
  0
POLYLINE
  8
0
 62
7
  6
CONTINUOUS
 66
1
 70
0
  0
VERTEX
  8
0
 62
7
  6
CONTINUOUS
 10
149.9324087978
 20
228.5850652173
  0
VERTEX
  8
0
 62
7
  6
CONTINUOUS
 10
149.9631365861
 20
228.5802446517
  0
VERTEX
  8
0
 62
7
  6
CONTINUOUS
 10
149.9939293433
 20
228.5756583643
  0
SEQEND
  0
POLYLINE
  8
0
 62
7
  6
CONTINUOUS
 66
1
 70
0
  0
VERTEX
  8
0
 62
7
  6
CONTINUOUS
 10
149.9939293433
 20
228.5756583643
  0
VERTEX
  8
0
 62
7
  6
CONTINUOUS
 10
150.0403831359
 20
228.5677035726
  0
VERTEX
  8
0
 62
7
  6
CONTINUOUS
 10
150.0853104269
 20
228.557436025
  0
VERTEX
  8
0
 62
7
  6
CONTINUOUS
 10
150.1282070315
 20
228.544791323
  0
VERTEX
  8
0
 62
7
  6
CONTINUOUS
 10
150.1683907685
 20
228.5297825633
  0
VERTEX
  8
0
 62
7
  6
CONTINUOUS
 10
150.2054771453
 20
228.512350598
  0
VERTEX
  8
0
 62
7
  6
CONTINUOUS
 10
150.2392557012
 20
228.4923025916
  0
VERTEX
  8
0
 62
7
  6
CONTINUOUS
 10
150.2690311308
 20
228.4696976385
  0
VERTEX
  8
0
 62
7
  6
CONTINUOUS
 10
150.2941842447
 20
228.4446953912
  0
VERTEX
  8
0
 62
7
  6
CONTINUOUS
 10
150.3143512088
 20
228.4173641033
  0
VERTEX
  8
0
 62
7
  6
CONTINUOUS
 10
150.3293179875
 20
228.3875016082
  0
VERTEX
  8
0
 62
7
  6
CONTINUOUS
 10
150.3385929386
 20
228.3552679896
  0
VERTEX
  8
0
 62
7
  6
CONTINUOUS
 10
150.3417554303
 20
228.3209805719
  0
SEQEND
  0
POLYLINE
  8
0
 62
7
  6
CONTINUOUS
 66
1
 70
0
  0
VERTEX
  8
0
 62
7
  6
CONTINUOUS
 10
166.7939293433
 20
228.5756583643
  0
VERTEX
  8
0
 62
7
  6
CONTINUOUS
 10
166.8403831359
 20
228.5677035726
  0
VERTEX
  8
0
 62
7
  6
CONTINUOUS
 10
166.8853104269
 20
228.557436025
  0
VERTEX
  8
0
 62
7
  6
CONTINUOUS
 10
166.9282070315
 20
228.544791323
  0
VERTEX
  8
0
 62
7
  6
CONTINUOUS
 10
166.9683907685
 20
228.5297825633
  0
VERTEX
  8
0
 62
7
  6
CONTINUOUS
 10
167.0054771453
 20
228.512350598
  0
VERTEX
  8
0
 62
7
  6
CONTINUOUS
 10
167.0392557012
 20
228.4923025916
  0
VERTEX
  8
0
 62
7
  6
CONTINUOUS
 10
167.0690311308
 20
228.4696976385
  0
VERTEX
  8
0
 62
7
  6
CONTINUOUS
 10
167.0941842447
 20
228.4446953912
  0
VERTEX
  8
0
 62
7
  6
CONTINUOUS
 10
167.1143512088
 20
228.4173641033
  0
VERTEX
  8
0
 62
7
  6
CONTINUOUS
 10
167.1293179875
 20
228.3875016082
  0
VERTEX
  8
0
 62
7
  6
CONTINUOUS
 10
167.1385929386
 20
228.3552679896
  0
VERTEX
  8
0
 62
7
  6
CONTINUOUS
 10
167.1417554303
 20
228.3209805719
  0
SEQEND
  0
POLYLINE
  8
0
 62
7
  6
CONTINUOUS
 66
1
 70
0
  0
VERTEX
  8
0
 62
7
  6
CONTINUOUS
 10
166.5975561008
 20
228.60907814
  0
VERTEX
  8
0
 62
7
  6
CONTINUOUS
 10
166.6952976082
 20
228.5912107753
  0
VERTEX
  8
0
 62
7
  6
CONTINUOUS
 10
166.7939293433
 20
228.5756583643
  0
SEQEND
  0
POLYLINE
  8
0
 62
7
  6
CONTINUOUS
 66
1
 70
0
  0
VERTEX
  8
0
 62
7
  6
CONTINUOUS
 10
149.839529237
 20
228.6140629232
  0
VERTEX
  8
0
 62
7
  6
CONTINUOUS
 10
149.8552230401
 20
228.6065785027
  0
VERTEX
  8
0
 62
7
  6
CONTINUOUS
 10
149.872433937
 20
228.5999079564
  0
VERTEX
  8
0
 62
7
  6
CONTINUOUS
 10
149.8910675967
 20
228.5940685229
  0
VERTEX
  8
0
 62
7
  6
CONTINUOUS
 10
149.9110842851
 20
228.5890962573
  0
VERTEX
  8
0
 62
7
  6
CONTINUOUS
 10
149.9324087914
 20
228.5850652184
  0
SEQEND
  0
POLYLINE
  8
0
 62
7
  6
CONTINUOUS
 66
1
 70
0
  0
VERTEX
  8
0
 62
7
  6
CONTINUOUS
 10
149.7925316331
 20
228.6649137095
  0
VERTEX
  8
0
 62
7
  6
CONTINUOUS
 10
149.7953307964
 20
228.6543576879
  0
VERTEX
  8
0
 62
7
  6
CONTINUOUS
 10
149.8016192331
 20
228.6437481167
  0
VERTEX
  8
0
 62
7
  6
CONTINUOUS
 10
149.8112039686
 20
228.6333848389
  0
VERTEX
  8
0
 62
7
  6
CONTINUOUS
 10
149.8239184994
 20
228.6234227016
  0
VERTEX
  8
0
 62
7
  6
CONTINUOUS
 10
149.839529237
 20
228.6140629232
  0
SEQEND
  0
POLYLINE
  8
0
 62
7
  6
CONTINUOUS
 66
1
 70
0
  0
VERTEX
  8
0
 62
7
  6
CONTINUOUS
 10
150.2915482547
 20
222.5624756611
  0
VERTEX
  8
0
 62
7
  6
CONTINUOUS
 10
150.2770180062
 20
222.645522059
  0
VERTEX
  8
0
 62
7
  6
CONTINUOUS
 10
150.2668187244
 20
222.7382485286
  0
SEQEND
  0
POLYLINE
  8
0
 62
7
  6
CONTINUOUS
 66
1
 70
0
  0
VERTEX
  8
0
 62
7
  6
CONTINUOUS
 10
155.3417554303
 20
227.4574712393
  0
VERTEX
  8
0
 62
7
  6
CONTINUOUS
 10
155.3457877862
 20
227.3462735581
  0
VERTEX
  8
0
 62
7
  6
CONTINUOUS
 10
155.3583815505
 20
227.22368956
  0
VERTEX
  8
0
 62
7
  6
CONTINUOUS
 10
155.3802656069
 20
227.0888356319
  0
VERTEX
  8
0
 62
7
  6
CONTINUOUS
 10
155.412119851
 20
226.9408379129
  0
VERTEX
  8
0
 62
7
  6
CONTINUOUS
 10
155.4543076959
 20
226.7796459329
  0
VERTEX
  8
0
 62
7
  6
CONTINUOUS
 10
155.5064921642
 20
226.606615084
  0
VERTEX
  8
0
 62
7
  6
CONTINUOUS
 10
155.567790659
 20
226.4234162714
  0
VERTEX
  8
0
 62
7
  6
CONTINUOUS
 10
155.6364497655
 20
226.2329335094
  0
SEQEND
  0
LINE
  8
0
 62
7
  6
CONTINUOUS
 10
155.3417554303
 20
221.8087129225
 11
155.3417554303
 21
232.5964238622
  0
LINE
  8
0
 62
7
  6
CONTINUOUS
 10
155.8858011582
 20
228.6071641774
 11
155.3436775137
 21
221.8247792819
  0
LINE
  8
0
 62
7
  6
CONTINUOUS
 10
155.0211583893
 20
217.7898162993
 11
155.015317867
 21
217.7167468611
  0
LINE
  8
SURFACE
 62
7
  6
CONTINUOUS
 10
155.015317867
 20
217.7167468611
 11
155.021466415
 21
217.793669938
  0
LINE
  8
0
 62
7
  6
CONTINUOUS
 10
155.021466415
 20
217.793669938
 11
155.3411195771
 21
221.7927775223
  0
POLYLINE
  8
0
 62
7
  6
CONTINUOUS
 66
1
 70
0
  0
VERTEX
  8
0
 62
7
  6
CONTINUOUS
 10
155.2610269329
 20
220.7903260407
  0
VERTEX
  8
0
 62
7
  6
CONTINUOUS
 10
155.265051196
 20
220.8379753763
  0
VERTEX
  8
0
 62
7
  6
CONTINUOUS
 10
155.2714463991
 20
220.9042000401
  0
VERTEX
  8
0
 62
7
  6
CONTINUOUS
 10
155.2791956844
 20
220.9741998187
  0
VERTEX
  8
0
 62
7
  6
CONTINUOUS
 10
155.287733276
 20
221.0428347393
  0
VERTEX
  8
0
 62
7
  6
CONTINUOUS
 10
155.2966825511
 20
221.1066471877
  0
VERTEX
  8
0
 62
7
  6
CONTINUOUS
 10
155.3059831661
 20
221.1658218742
  0
VERTEX
  8
0
 62
7
  6
CONTINUOUS
 10
155.3156555776
 20
221.2207618072
  0
VERTEX
  8
0
 62
7
  6
CONTINUOUS
 10
155.3257312399
 20
221.2717473493
  0
VERTEX
  8
0
 62
7
  6
CONTINUOUS
 10
155.3362292012
 20
221.3189300408
  0
VERTEX
  8
0
 62
7
  6
CONTINUOUS
 10
155.347039539
 20
221.3619083007
  0
VERTEX
  8
0
 62
7
  6
CONTINUOUS
 10
155.3578286455
 20
221.3997379014
  0
VERTEX
  8
0
 62
7
  6
CONTINUOUS
 10
155.3681791418
 20
221.4317243484
  0
VERTEX
  8
0
 62
7
  6
CONTINUOUS
 10
155.3777495958
 20
221.4578299692
  0
VERTEX
  8
0
 62
7
  6
CONTINUOUS
 10
155.3865039528
 20
221.478930254
  0
VERTEX
  8
0
 62
7
  6
CONTINUOUS
 10
155.3943770583
 20
221.4956646212
  0
VERTEX
  8
0
 62
7
  6
CONTINUOUS
 10
155.4010852564
 20
221.5081742679
  0
VERTEX
  8
0
 62
7
  6
CONTINUOUS
 10
155.4061578556
 20
221.516413704
  0
VERTEX
  8
0
 62
7
  6
CONTINUOUS
 10
155.4089983749
 20
221.5204071328
  0
VERTEX
  8
0
 62
7
  6
CONTINUOUS
 10
155.4093800075
 20
221.5208839438
  0
SEQEND
  0
POLYLINE
  8
0
 62
7
  6
CONTINUOUS
 66
1
 70
0
  0
VERTEX
  8
0
 62
7
  6
CONTINUOUS
 10
155.3417554303
 20
228.3209805719
  0
VERTEX
  8
0
 62
7
  6
CONTINUOUS
 10
155.3449177839
 20
228.3552672564
  0
VERTEX
  8
0
 62
7
  6
CONTINUOUS
 10
155.354191351
 20
228.3874977296
  0
VERTEX
  8
0
 62
7
  6
CONTINUOUS
 10
155.3691540407
 20
228.4173550073
  0
VERTEX
  8
0
 62
7
  6
CONTINUOUS
 10
155.3893193817
 20
228.4446870539
  0
VERTEX
  8
0
 62
7
  6
CONTINUOUS
 10
155.4144737289
 20
228.4696924473
  0
VERTEX
  8
0
 62
7
  6
CONTINUOUS
 10
155.4442493077
 20
228.4922986747
  0
VERTEX
  8
0
 62
7
  6
CONTINUOUS
 10
155.4780242079
 20
228.5123455858
  0
VERTEX
  8
0
 62
7
  6
CONTINUOUS
 10
155.5151062239
 20
228.5297767543
  0
VERTEX
  8
0
 62
7
  6
CONTINUOUS
 10
155.5552950475
 20
228.5447884063
  0
VERTEX
  8
0
 62
7
  6
CONTINUOUS
 10
155.5981993815
 20
228.5574357512
  0
VERTEX
  8
0
 62
7
  6
CONTINUOUS
 10
155.6431312245
 20
228.5677042683
  0
VERTEX
  8
0
 62
7
  6
CONTINUOUS
 10
155.6895815172
 20
228.5756583643
  0
SEQEND
  0
POLYLINE
  8
0
 62
7
  6
CONTINUOUS
 66
1
 70
0
  0
VERTEX
  8
0
 62
7
  6
CONTINUOUS
 10
155.4166921724
 20
222.7382489791
  0
VERTEX
  8
0
 62
7
  6
CONTINUOUS
 10
155.4064929406
 20
222.6455226686
  0
VERTEX
  8
0
 62
7
  6
CONTINUOUS
 10
155.3919621154
 20
222.5624731507
  0
SEQEND
  0
POLYLINE
  8
0
 62
7
  6
CONTINUOUS
 66
1
 70
0
  0
VERTEX
  8
0
 62
7
  6
CONTINUOUS
 10
155.3919634502
 20
222.562480319
  0
VERTEX
  8
0
 62
7
  6
CONTINUOUS
 10
155.3693206486
 20
222.4423444699
  0
VERTEX
  8
0
 62
7
  6
CONTINUOUS
 10
155.3536964803
 20
222.331447655
  0
VERTEX
  8
0
 62
7
  6
CONTINUOUS
 10
155.3446620156
 20
222.2293018255
  0
VERTEX
  8
0
 62
7
  6
CONTINUOUS
 10
155.3417554303
 20
222.1353764851
  0
SEQEND
  0
LINE
  8
0
 62
7
  6
CONTINUOUS
 10
156.9340566791
 20
232.4895715819
 11
155.9917577532
 21
229.1925283496
  0
POLYLINE
  8
0
 62
7
  6
CONTINUOUS
 66
1
 70
0
  0
VERTEX
  8
0
 62
7
  6
CONTINUOUS
 10
165.1540760371
 20
232.5964238622
  0
VERTEX
  8
0
 62
7
  6
CONTINUOUS
 10
165.1916158879
 20
232.6384989909
  0
VERTEX
  8
0
 62
7
  6
CONTINUOUS
 10
165.230544102
 20
232.678226354
  0
VERTEX
  8
0
 62
7
  6
CONTINUOUS
 10
165.2704947749
 20
232.7123843021
  0
VERTEX
  8
0
 62
7
  6
CONTINUOUS
 10
165.3103593464
 20
232.7398824294
  0
VERTEX
  8
0
 62
7
  6
CONTINUOUS
 10
165.3496574247
 20
232.7611829209
  0
VERTEX
  8
0
 62
7
  6
CONTINUOUS
 10
165.3883418266
 20
232.7770321506
  0
VERTEX
  8
0
 62
7
  6
CONTINUOUS
 10
165.4264318641
 20
232.7879869125
  0
VERTEX
  8
0
 62
7
  6
CONTINUOUS
 10
165.4637069413
 20
232.7943678953
  0
VERTEX
  8
0
 62
7
  6
CONTINUOUS
 10
165.4996081232
 20
232.7964238622
  0
SEQEND
  0
POLYLINE
  8
0
 62
7
  6
CONTINUOUS
 66
1
 70
0
  0
VERTEX
  8
0
 62
7
  6
CONTINUOUS
 10
172.6439816231
 20
228.614062923
  0
VERTEX
  8
0
 62
7
  6
CONTINUOUS
 10
172.6595925025
 20
228.6234227982
  0
VERTEX
  8
0
 62
7
  6
CONTINUOUS
 10
172.6723057547
 20
228.6333838024
  0
VERTEX
  8
0
 62
7
  6
CONTINUOUS
 10
172.6818923547
 20
228.6437490767
  0
VERTEX
  8
0
 62
7
  6
CONTINUOUS
 10
172.6881804174
 20
228.654358512
  0
VERTEX
  8
0
 62
7
  6
CONTINUOUS
 10
172.6909792275
 20
228.6649137103
  0
SEQEND
  0
LINE
  8
0
 62
7
  6
CONTINUOUS
 10
172.2046281871
 20
221.5139290591
 11
172.2081895794
 21
221.5150576088
  0
POLYLINE
  8
0
 62
7
  6
CONTINUOUS
 66
1
 70
0
  0
VERTEX
  8
0
 62
7
  6
CONTINUOUS
 10
105.3511020683
 20
228.5850652183
  0
VERTEX
  8
0
 62
7
  6
CONTINUOUS
 10
105.3724247941
 20
228.5890958685
  0
VERTEX
  8
0
 62
7
  6
CONTINUOUS
 10
105.3924377446
 20
228.5940669771
  0
VERTEX
  8
0
 62
7
  6
CONTINUOUS
 10
105.4110718022
 20
228.599906169
  0
VERTEX
  8
0
 62
7
  6
CONTINUOUS
 10
105.4282835829
 20
228.6065766817
  0
VERTEX
  8
0
 62
7
  6
CONTINUOUS
 10
105.4439816231
 20
228.614062923
  0
SEQEND
  0
POLYLINE
  8
0
 62
7
  6
CONTINUOUS
 66
1
 70
0
  0
VERTEX
  8
0
 62
7
  6
CONTINUOUS
 10
105.2895815172
 20
228.5756583643
  0
VERTEX
  8
0
 62
7
  6
CONTINUOUS
 10
105.3203742614
 20
228.5802446497
  0
VERTEX
  8
0
 62
7
  6
CONTINUOUS
 10
105.3511020629
 20
228.5850652174
  0
SEQEND
  0
POLYLINE
  8
0
 62
7
  6
CONTINUOUS
 66
1
 70
0
  0
VERTEX
  8
0
 62
7
  6
CONTINUOUS
 10
71.6077855347
 20
230.3968004577
  0
VERTEX
  8
0
 62
7
  6
CONTINUOUS
 10
71.7300792615
 20
230.4080187754
  0
VERTEX
  8
0
 62
7
  6
CONTINUOUS
 10
71.8257994548
 20
230.4181436981
  0
VERTEX
  8
0
 62
7
  6
CONTINUOUS
 10
71.9189708278
 20
230.4294432836
  0
VERTEX
  8
0
 62
7
  6
CONTINUOUS
 10
71.9963311481
 20
230.4399025724
  0
SEQEND
  0
POLYLINE
  8
0
 62
7
  6
CONTINUOUS
 66
1
 70
0
  0
VERTEX
  8
0
 62
7
  6
CONTINUOUS
 10
88.4432978952
 20
232.2396060813
  0
VERTEX
  8
0
 62
7
  6
CONTINUOUS
 10
88.5541067239
 20
232.2484833704
  0
VERTEX
  8
0
 62
7
  6
CONTINUOUS
 10
88.6742698175
 20
232.2598474193
  0
VERTEX
  8
0
 62
7
  6
CONTINUOUS
 10
88.7896864672
 20
232.2724435804
  0
VERTEX
  8
0
 62
7
  6
CONTINUOUS
 10
88.8995706576
 20
232.2859453726
  0
VERTEX
  8
0
 62
7
  6
CONTINUOUS
 10
89.003169625
 20
232.3000029618
  0
VERTEX
  8
0
 62
7
  6
CONTINUOUS
 10
89.0997871994
 20
232.3142554572
  0
VERTEX
  8
0
 62
7
  6
CONTINUOUS
 10
89.1887912788
 20
232.3283420049
  0
VERTEX
  8
0
 62
7
  6
CONTINUOUS
 10
89.2696046956
 20
232.341909895
  0
VERTEX
  8
0
 62
7
  6
CONTINUOUS
 10
89.341681903
 20
232.3546188647
  0
VERTEX
  8
0
 62
7
  6
CONTINUOUS
 10
89.4587002513
 20
232.3759317295
  0
SEQEND
  0
POLYLINE
  8
0
 62
7
  6
CONTINUOUS
 66
1
 70
0
  0
VERTEX
  8
0
 62
7
  6
CONTINUOUS
 10
215.5417915089
 20
232.796423859
  0
VERTEX
  8
0
 62
7
  6
CONTINUOUS
 10
215.5516722034
 20
232.7961778549
  0
VERTEX
  8
0
 62
7
  6
CONTINUOUS
 10
215.561505136
 20
232.7954463462
  0
VERTEX
  8
0
 62
7
  6
CONTINUOUS
 10
215.5714539506
 20
232.7942065659
  0
VERTEX
  8
0
 62
7
  6
CONTINUOUS
 10
215.58179231
 20
232.79237551
  0
VERTEX
  8
0
 62
7
  6
CONTINUOUS
 10
215.5928806214
 20
232.7897790143
  0
VERTEX
  8
0
 62
7
  6
CONTINUOUS
 10
215.6050078154
 20
232.7861582444
  0
VERTEX
  8
0
 62
7
  6
CONTINUOUS
 10
215.6186099323
 20
232.7810678048
  0
VERTEX
  8
0
 62
7
  6
CONTINUOUS
 10
215.6337331356
 20
232.7740191936
  0
VERTEX
  8
0
 62
7
  6
CONTINUOUS
 10
215.6503387154
 20
232.7643812086
  0
VERTEX
  8
0
 62
7
  6
CONTINUOUS
 10
215.6679143039
 20
232.7516138703
  0
VERTEX
  8
0
 62
7
  6
CONTINUOUS
 10
215.686000724
 20
232.7349637309
  0
VERTEX
  8
0
 62
7
  6
CONTINUOUS
 10
215.7020019713
 20
232.7160944355
  0
VERTEX
  8
0
 62
7
  6
CONTINUOUS
 10
215.7157220785
 20
232.6950930332
  0
VERTEX
  8
0
 62
7
  6
CONTINUOUS
 10
215.7266183408
 20
232.6727501638
  0
VERTEX
  8
0
 62
7
  6
CONTINUOUS
 10
215.7348127193
 20
232.6486625753
  0
VERTEX
  8
0
 62
7
  6
CONTINUOUS
 10
215.7399839435
 20
232.6229842943
  0
VERTEX
  8
0
 62
7
  6
CONTINUOUS
 10
215.7417554303
 20
232.5964238622
  0
SEQEND
  0
LINE
  8
0
 62
7
  6
CONTINUOUS
 10
158.678894999
 20
221.513925261
 11
158.6805125529
 21
221.5114189805
  0
POLYLINE
  8
0
 62
7
  6
CONTINUOUS
 66
1
 70
0
  0
VERTEX
  8
0
 62
7
  6
CONTINUOUS
 10
158.6805125529
 20
221.5114189805
  0
VERTEX
  8
0
 62
7
  6
CONTINUOUS
 10
158.6866299595
 20
221.5005302564
  0
VERTEX
  8
0
 62
7
  6
CONTINUOUS
 10
158.6940396069
 20
221.4854885307
  0
VERTEX
  8
0
 62
7
  6
CONTINUOUS
 10
158.7024452334
 20
221.4661304419
  0
VERTEX
  8
0
 62
7
  6
CONTINUOUS
 10
158.7116696344
 20
221.4420956507
  0
VERTEX
  8
0
 62
7
  6
CONTINUOUS
 10
158.7216022381
 20
221.4128288171
  0
VERTEX
  8
0
 62
7
  6
CONTINUOUS
 10
158.7321181674
 20
221.3777504888
  0
VERTEX
  8
0
 62
7
  6
CONTINUOUS
 10
158.7430723558
 20
221.3363048686
  0
VERTEX
  8
0
 62
7
  6
CONTINUOUS
 10
158.7543545215
 20
221.2877726297
  0
VERTEX
  8
0
 62
7
  6
CONTINUOUS
 10
158.7661428081
 20
221.2298535871
  0
VERTEX
  8
0
 62
7
  6
CONTINUOUS
 10
158.7777466669
 20
221.1645037482
  0
VERTEX
  8
0
 62
7
  6
CONTINUOUS
 10
158.7884467202
 20
221.0956583621
  0
VERTEX
  8
0
 62
7
  6
CONTINUOUS
 10
158.7979220477
 20
221.026353055
  0
VERTEX
  8
0
 62
7
  6
CONTINUOUS
 10
158.806202415
 20
220.9578568137
  0
VERTEX
  8
0
 62
7
  6
CONTINUOUS
 10
158.8131781657
 20
220.8934073457
  0
VERTEX
  8
0
 62
7
  6
CONTINUOUS
 10
158.8189357597
 20
220.8326113967
  0
SEQEND
  0
POLYLINE
  8
0
 62
7
  6
CONTINUOUS
 66
1
 70
0
  0
VERTEX
  8
0
 62
7
  6
CONTINUOUS
 10
155.6364491979
 20
226.2329351078
  0
VERTEX
  8
0
 62
7
  6
CONTINUOUS
 10
155.6480041886
 20
226.1969123213
  0
VERTEX
  8
0
 62
7
  6
CONTINUOUS
 10
155.6574395808
 20
226.1567142356
  0
VERTEX
  8
0
 62
7
  6
CONTINUOUS
 10
155.6647018954
 20
226.1119321876
  0
VERTEX
  8
0
 62
7
  6
CONTINUOUS
 10
155.6696337415
 20
226.0620981046
  0
VERTEX
  8
0
 62
7
  6
CONTINUOUS
 10
155.6719926315
 20
226.006459109
  0
VERTEX
  8
0
 62
7
  6
CONTINUOUS
 10
155.6714155894
 20
225.9444939709
  0
VERTEX
  8
0
 62
7
  6
CONTINUOUS
 10
155.6674754241
 20
225.8757408539
  0
SEQEND
  0
LINE
  8
0
 62
7
  6
CONTINUOUS
 10
148.7494541815
 20
232.4895715819
 11
149.6917531073
 21
229.1925283496
  0
LINE
  8
0
 62
7
  6
CONTINUOUS
 10
159.0681929936
 20
217.7167468611
 11
158.8189357597
 21
220.8326113967
  0
LINE
  8
0
 62
7
  6
CONTINUOUS
 10
156.9417554303
 20
232.5438631723
 11
156.9417554303
 21
232.5964238622
  0
POLYLINE
  8
0
 62
7
  6
CONTINUOUS
 66
1
 70
0
  0
VERTEX
  8
0
 62
7
  6
CONTINUOUS
 10
180.5969784324
 20
221.5112782563
  0
VERTEX
  8
0
 62
7
  6
CONTINUOUS
 10
180.5972220011
 20
221.5113795127
  0
VERTEX
  8
0
 62
7
  6
CONTINUOUS
 10
180.6012741994
 20
221.5129219739
  0
VERTEX
  8
0
 62
7
  6
CONTINUOUS
 10
180.6101938002
 20
221.515603583
  0
VERTEX
  8
0
 62
7
  6
CONTINUOUS
 10
180.624275748
 20
221.5188181402
  0
VERTEX
  8
0
 62
7
  6
CONTINUOUS
 10
180.6435083935
 20
221.5219696122
  0
VERTEX
  8
0
 62
7
  6
CONTINUOUS
 10
180.6676722292
 20
221.5245371564
  0
VERTEX
  8
0
 62
7
  6
CONTINUOUS
 10
180.6965312599
 20
221.5261038873
  0
VERTEX
  8
0
 62
7
  6
CONTINUOUS
 10
180.7180288228
 20
221.5264236883
  0
SEQEND
  0
LINE
  8
0
 62
7
  6
CONTINUOUS
 10
189.0046281816
 20
221.5139290602
 11
189.0081892349
 21
221.5150575122
  0
LINE
  8
0
 62
7
  6
CONTINUOUS
 10
205.8046169614
 20
221.5139256218
 11
205.8095448183
 21
221.5154298354
  0
POLYLINE
  8
0
 62
7
  6
CONTINUOUS
 66
1
 70
0
  0
VERTEX
  8
0
 62
7
  6
CONTINUOUS
 10
89.5385280055
 20
232.3914332033
  0
VERTEX
  8
0
 62
7
  6
CONTINUOUS
 10
89.5635926756
 20
232.3965423335
  0
VERTEX
  8
0
 62
7
  6
CONTINUOUS
 10
89.5794567356
 20
232.3998855498
  0
VERTEX
  8
0
 62
7
  6
CONTINUOUS
 10
89.5819271887
 20
232.4004961305
  0
SEQEND
  0
POLYLINE
  8
0
 62
7
  6
CONTINUOUS
 66
1
 70
0
  0
VERTEX
  8
0
 62
7
  6
CONTINUOUS
 10
89.4587002513
 20
232.3759317295
  0
VERTEX
  8
0
 62
7
  6
CONTINUOUS
 10
89.5035606714
 20
232.3845150349
  0
VERTEX
  8
0
 62
7
  6
CONTINUOUS
 10
89.5385280055
 20
232.3914332033
  0
SEQEND
  0
POLYLINE
  8
0
 62
7
  6
CONTINUOUS
 66
1
 70
0
  0
VERTEX
  8
0
 62
7
  6
CONTINUOUS
 10
89.4045740153
 20
232.3661602421
  0
VERTEX
  8
0
 62
7
  6
CONTINUOUS
 10
89.4579574261
 20
232.3762708148
  0
VERTEX
  8
0
 62
7
  6
CONTINUOUS
 10
89.574480542
 20
232.3991109895
  0
SEQEND
  0
LINE
  8
0
 62
7
  6
CONTINUOUS
 10
89.574480542
 20
232.3991109895
 11
89.5819271887
 21
232.4004961305
  0
LINE
  8
0
 62
7
  6
CONTINUOUS
 10
71.9963338134
 20
230.439902662
 11
72.0350754512
 21
230.4468981102
  0
LINE
  8
0
 62
7
  6
CONTINUOUS
 10
89.3807150365
 20
232.3617818635
 11
89.4042441551
 21
232.3659140754
  0
POLYLINE
  8
SURFACE
 62
7
  6
CONTINUOUS
 66
1
 70
0
  0
VERTEX
  8
SURFACE
 62
7
  6
CONTINUOUS
 10
190.3565872734
 20
232.7843756694
  0
VERTEX
  8
SURFACE
 62
7
  6
CONTINUOUS
 10
190.3894824727
 20
232.7801273178
  0
VERTEX
  8
SURFACE
 62
7
  6
CONTINUOUS
 10
190.4214551919
 20
232.7707742835
  0
VERTEX
  8
SURFACE
 62
7
  6
CONTINUOUS
 10
190.4516220743
 20
232.7566027418
  0
VERTEX
  8
SURFACE
 62
7
  6
CONTINUOUS
 10
190.4791533821
 20
232.738034547
  0
VERTEX
  8
SURFACE
 62
7
  6
CONTINUOUS
 10
190.5032961982
 20
232.7156138623
  0
VERTEX
  8
SURFACE
 62
7
  6
CONTINUOUS
 10
190.52339471
 20
232.6899905334
  0
VERTEX
  8
SURFACE
 62
7
  6
CONTINUOUS
 10
190.5389070914
 20
232.6619010143
  0
VERTEX
  8
SURFACE
 62
7
  6
CONTINUOUS
 10
190.5494187225
 20
232.6321476731
  0
VERTEX
  8
SURFACE
 62
7
  6
CONTINUOUS
 10
190.554651733
 20
232.6015772611
  0
VERTEX
  8
SURFACE
 62
7
  6
CONTINUOUS
 10
190.5544710876
 20
232.5710592057
  0
VERTEX
  8
SURFACE
 62
7
  6
CONTINUOUS
 10
190.5488876472
 20
232.5414641838
  0
SEQEND
  0
POLYLINE
  8
SURFACE
 62
7
  6
CONTINUOUS
 66
1
 70
0
  0
VERTEX
  8
SURFACE
 62
7
  6
CONTINUOUS
 10
207.1565872734
 20
232.7843756694
  0
VERTEX
  8
SURFACE
 62
7
  6
CONTINUOUS
 10
207.1894824727
 20
232.7801273178
  0
VERTEX
  8
SURFACE
 62
7
  6
CONTINUOUS
 10
207.2214551919
 20
232.7707742835
  0
VERTEX
  8
SURFACE
 62
7
  6
CONTINUOUS
 10
207.2516220743
 20
232.7566027418
  0
VERTEX
  8
SURFACE
 62
7
  6
CONTINUOUS
 10
207.2791533821
 20
232.738034547
  0
VERTEX
  8
SURFACE
 62
7
  6
CONTINUOUS
 10
207.3032961982
 20
232.7156138623
  0
VERTEX
  8
SURFACE
 62
7
  6
CONTINUOUS
 10
207.32339471
 20
232.6899905334
  0
VERTEX
  8
SURFACE
 62
7
  6
CONTINUOUS
 10
207.3389070914
 20
232.6619010143
  0
VERTEX
  8
SURFACE
 62
7
  6
CONTINUOUS
 10
207.3494187225
 20
232.6321476731
  0
VERTEX
  8
SURFACE
 62
7
  6
CONTINUOUS
 10
207.354651733
 20
232.6015772611
  0
VERTEX
  8
SURFACE
 62
7
  6
CONTINUOUS
 10
207.3544710876
 20
232.5710592057
  0
VERTEX
  8
SURFACE
 62
7
  6
CONTINUOUS
 10
207.3488876472
 20
232.5414641838
  0
SEQEND
  0
POLYLINE
  8
0
 62
7
  6
CONTINUOUS
 66
1
 70
0
  0
VERTEX
  8
0
 62
7
  6
CONTINUOUS
 10
165.350253429
 20
232.4313831724
  0
VERTEX
  8
0
 62
7
  6
CONTINUOUS
 10
165.3100695951
 20
232.4531429927
  0
VERTEX
  8
0
 62
7
  6
CONTINUOUS
 10
165.2691962854
 20
232.4814664458
  0
VERTEX
  8
0
 62
7
  6
CONTINUOUS
 10
165.2293809883
 20
232.5157194203
  0
VERTEX
  8
0
 62
7
  6
CONTINUOUS
 10
165.1913305586
 20
232.5546598877
  0
VERTEX
  8
0
 62
7
  6
CONTINUOUS
 10
165.1540760371
 20
232.5964238622
  0
SEQEND
  0
POLYLINE
  8
0
 62
7
  6
CONTINUOUS
 66
1
 70
0
  0
VERTEX
  8
0
 62
7
  6
CONTINUOUS
 10
167.0741030031
 20
221.5209177501
  0
VERTEX
  8
0
 62
7
  6
CONTINUOUS
 10
167.074221483
 20
221.5207734559
  0
VERTEX
  8
0
 62
7
  6
CONTINUOUS
 10
167.0764187724
 20
221.5177901816
  0
VERTEX
  8
0
 62
7
  6
CONTINUOUS
 10
167.08093786
 20
221.5107110945
  0
VERTEX
  8
0
 62
7
  6
CONTINUOUS
 10
167.0872053326
 20
221.4994322902
  0
VERTEX
  8
0
 62
7
  6
CONTINUOUS
 10
167.0947554396
 20
221.483934009
  0
VERTEX
  8
0
 62
7
  6
CONTINUOUS
 10
167.1032959724
 20
221.4640368802
  0
VERTEX
  8
0
 62
7
  6
CONTINUOUS
 10
167.1126480516
 20
221.4393716536
  0
VERTEX
  8
0
 62
7
  6
CONTINUOUS
 10
167.1226957268
 20
221.4093829862
  0
VERTEX
  8
0
 62
7
  6
CONTINUOUS
 10
167.1333102579
 20
221.3734919141
  0
VERTEX
  8
0
 62
7
  6
CONTINUOUS
 10
167.1443484227
 20
221.331126109
  0
VERTEX
  8
0
 62
7
  6
CONTINUOUS
 10
167.1557351655
 20
221.2813892393
  0
VERTEX
  8
0
 62
7
  6
CONTINUOUS
 10
167.1676627986
 20
221.2217922524
  0
VERTEX
  8
0
 62
7
  6
CONTINUOUS
 10
167.1792488311
 20
221.1553676658
  0
VERTEX
  8
0
 62
7
  6
CONTINUOUS
 10
167.1897023416
 20
221.0869732464
  0
VERTEX
  8
0
 62
7
  6
CONTINUOUS
 10
167.1988162868
 20
221.0193341485
  0
VERTEX
  8
0
 62
7
  6
CONTINUOUS
 10
167.2067291737
 20
220.953237693
  0
VERTEX
  8
0
 62
7
  6
CONTINUOUS
 10
167.2134051713
 20
220.8911502588
  0
VERTEX
  8
0
 62
7
  6
CONTINUOUS
 10
167.2189887002
 20
220.8319711798
  0
SEQEND
  0
LINE
  8
0
 62
7
  6
CONTINUOUS
 10
165.5417554303
 20
232.5164846004
 11
165.5417554303
 21
232.6728370123
  0
POLYLINE
  8
0
 62
7
  6
CONTINUOUS
 66
1
 70
0
  0
VERTEX
  8
0
 62
7
  6
CONTINUOUS
 10
163.415317867
 20
217.7167468611
  0
VERTEX
  8
0
 62
7
  6
CONTINUOUS
 10
163.6647429957
 20
220.8345353709
  0
VERTEX
  8
0
 62
7
  6
CONTINUOUS
 10
163.6707352755
 20
220.8973260236
  0
VERTEX
  8
0
 62
7
  6
CONTINUOUS
 10
163.6780822891
 20
220.9646072262
  0
VERTEX
  8
0
 62
7
  6
CONTINUOUS
 10
163.6867938786
 20
221.0356818317
  0
VERTEX
  8
0
 62
7
  6
CONTINUOUS
 10
163.6966910773
 20
221.1067019888
  0
VERTEX
  8
0
 62
7
  6
CONTINUOUS
 10
163.7076523049
 20
221.1757566388
  0
VERTEX
  8
0
 62
7
  6
CONTINUOUS
 10
163.7192766491
 20
221.2397741252
  0
VERTEX
  8
0
 62
7
  6
CONTINUOUS
 10
163.7309168509
 20
221.295766746
  0
VERTEX
  8
0
 62
7
  6
CONTINUOUS
 10
163.7420886271
 20
221.3428897125
  0
VERTEX
  8
0
 62
7
  6
CONTINUOUS
 10
163.7529288402
 20
221.3831512437
  0
VERTEX
  8
0
 62
7
  6
CONTINUOUS
 10
163.7633079724
 20
221.4171724936
  0
VERTEX
  8
0
 62
7
  6
CONTINUOUS
 10
163.7730916236
 20
221.4455275196
  0
VERTEX
  8
0
 62
7
  6
CONTINUOUS
 10
163.7821656793
 20
221.4688008442
  0
VERTEX
  8
0
 62
7
  6
CONTINUOUS
 10
163.790414858
 20
221.4875107313
  0
VERTEX
  8
0
 62
7
  6
CONTINUOUS
 10
163.7976506079
 20
221.5019799507
  0
SEQEND
  0
POLYLINE
  8
0
 62
7
  6
CONTINUOUS
 66
1
 70
0
  0
VERTEX
  8
0
 62
7
  6
CONTINUOUS
 10
166.7979205672
 20
226.1023718499
  0
VERTEX
  8
0
 62
7
  6
CONTINUOUS
 10
166.8759073757
 20
226.3115589335
  0
VERTEX
  8
0
 62
7
  6
CONTINUOUS
 10
166.9470268119
 20
226.5149583841
  0
VERTEX
  8
0
 62
7
  6
CONTINUOUS
 10
167.0083342074
 20
226.7078890915
  0
VERTEX
  8
0
 62
7
  6
CONTINUOUS
 10
167.058291051
 20
226.8878046515
  0
VERTEX
  8
0
 62
7
  6
CONTINUOUS
 10
167.0961274793
 20
227.0525401184
  0
VERTEX
  8
0
 62
7
  6
CONTINUOUS
 10
167.1220950841
 20
227.2017318657
  0
VERTEX
  8
0
 62
7
  6
CONTINUOUS
 10
167.136997585
 20
227.3363303549
  0
VERTEX
  8
0
 62
7
  6
CONTINUOUS
 10
167.1417554303
 20
227.4574712393
  0
SEQEND
  0
POLYLINE
  8
0
 62
7
  6
CONTINUOUS
 66
1
 70
0
  0
VERTEX
  8
0
 62
7
  6
CONTINUOUS
 10
163.7976506079
 20
221.5019799507
  0
VERTEX
  8
0
 62
7
  6
CONTINUOUS
 10
163.8035638239
 20
221.5123479044
  0
VERTEX
  8
0
 62
7
  6
CONTINUOUS
 10
163.8045938645
 20
221.5139200097
  0
SEQEND
  0
POLYLINE
  8
0
 62
7
  6
CONTINUOUS
 66
1
 70
0
  0
VERTEX
  8
0
 62
7
  6
CONTINUOUS
 10
197.3969784484
 20
221.5112782646
  0
VERTEX
  8
0
 62
7
  6
CONTINUOUS
 10
197.397221976
 20
221.5113795019
  0
VERTEX
  8
0
 62
7
  6
CONTINUOUS
 10
197.4012741263
 20
221.5129219488
  0
VERTEX
  8
0
 62
7
  6
CONTINUOUS
 10
197.4101936959
 20
221.5156035552
  0
VERTEX
  8
0
 62
7
  6
CONTINUOUS
 10
197.4242756346
 20
221.5188181178
  0
VERTEX
  8
0
 62
7
  6
CONTINUOUS
 10
197.4435082932
 20
221.5219695985
  0
VERTEX
  8
0
 62
7
  6
CONTINUOUS
 10
197.4676721587
 20
221.5245371507
  0
VERTEX
  8
0
 62
7
  6
CONTINUOUS
 10
197.4965312246
 20
221.5261038863
  0
VERTEX
  8
0
 62
7
  6
CONTINUOUS
 10
197.5180288228
 20
221.5264236885
  0
SEQEND
  0
LINE
  8
0
 62
7
  6
CONTINUOUS
 10
72.0336799141
 20
230.4465933281
 11
72.0902076509
 21
230.4621639603
  0
POLYLINE
  8
0
 62
7
  6
CONTINUOUS
 66
1
 70
0
  0
VERTEX
  8
0
 62
7
  6
CONTINUOUS
 10
89.5918693026
 20
232.4027856391
  0
VERTEX
  8
0
 62
7
  6
CONTINUOUS
 10
89.594734894
 20
232.4035532708
  0
VERTEX
  8
0
 62
7
  6
CONTINUOUS
 10
89.5985739505
 20
232.4046518744
  0
VERTEX
  8
0
 62
7
  6
CONTINUOUS
 10
89.6034177504
 20
232.4061561787
  0
VERTEX
  8
0
 62
7
  6
CONTINUOUS
 10
89.6090628062
 20
232.4080806629
  0
VERTEX
  8
0
 62
7
  6
CONTINUOUS
 10
89.6152823517
 20
232.4104216981
  0
VERTEX
  8
0
 62
7
  6
CONTINUOUS
 10
89.6219689167
 20
232.4132068204
  0
VERTEX
  8
0
 62
7
  6
CONTINUOUS
 10
89.6291190981
 20
232.4165071621
  0
VERTEX
  8
0
 62
7
  6
CONTINUOUS
 10
89.6366846539
 20
232.4203822227
  0
VERTEX
  8
0
 62
7
  6
CONTINUOUS
 10
89.6445112332
 20
232.4248334161
  0
VERTEX
  8
0
 62
7
  6
CONTINUOUS
 10
89.6524294946
 20
232.429831149
  0
VERTEX
  8
0
 62
7
  6
CONTINUOUS
 10
89.6603542623
 20
232.4353771016
  0
VERTEX
  8
0
 62
7
  6
CONTINUOUS
 10
89.6682219028
 20
232.4414792058
  0
VERTEX
  8
0
 62
7
  6
CONTINUOUS
 10
89.6759688431
 20
232.4481394855
  0
VERTEX
  8
0
 62
7
  6
CONTINUOUS
 10
89.6835316724
 20
232.4553533809
  0
VERTEX
  8
0
 62
7
  6
CONTINUOUS
 10
89.6908477947
 20
232.4631094172
  0
VERTEX
  8
0
 62
7
  6
CONTINUOUS
 10
89.6978564889
 20
232.4713893573
  0
VERTEX
  8
0
 62
7
  6
CONTINUOUS
 10
89.7045074357
 20
232.4801790864
  0
VERTEX
  8
0
 62
7
  6
CONTINUOUS
 10
89.7107606998
 20
232.4894744432
  0
VERTEX
  8
0
 62
7
  6
CONTINUOUS
 10
89.716575024
 20
232.4992695233
  0
VERTEX
  8
0
 62
7
  6
CONTINUOUS
 10
89.7219071276
 20
232.5095554654
  0
VERTEX
  8
0
 62
7
  6
CONTINUOUS
 10
89.7267118044
 20
232.5203200626
  0
VERTEX
  8
0
 62
7
  6
CONTINUOUS
 10
89.730942068
 20
232.5315473595
  0
VERTEX
  8
0
 62
7
  6
CONTINUOUS
 10
89.7345493484
 20
232.5432172363
  0
VERTEX
  8
0
 62
7
  6
CONTINUOUS
 10
89.7374837436
 20
232.5553049815
  0
VERTEX
  8
0
 62
7
  6
CONTINUOUS
 10
89.7396943386
 20
232.5677809149
  0
VERTEX
  8
0
 62
7
  6
CONTINUOUS
 10
89.7411295611
 20
232.5806099198
  0
VERTEX
  8
0
 62
7
  6
CONTINUOUS
 10
89.7417376189
 20
232.5937509721
  0
VERTEX
  8
0
 62
7
  6
CONTINUOUS
 10
89.7417554283
 20
232.5964199525
  0
SEQEND
  0
LINE
  8
0
 62
7
  6
CONTINUOUS
 10
89.589715196
 20
232.4022370345
 11
89.5918693026
 21
232.4027856391
  0
LINE
  8
0
 62
7
  6
CONTINUOUS
 10
167.4623524741
 20
217.7898162645
 11
167.4681929936
 21
217.7167468611
  0
LINE
  8
SURFACE
 62
7
  6
CONTINUOUS
 10
167.4681929936
 20
217.7167468611
 11
167.4620444456
 21
217.793669938
  0
LINE
  8
0
 62
7
  6
CONTINUOUS
 10
167.4620444456
 20
217.793669938
 11
166.5977097024
 21
228.6071641774
  0
POLYLINE
  8
0
 62
7
  6
CONTINUOUS
 66
1
 70
0
  0
VERTEX
  8
0
 62
7
  6
CONTINUOUS
 10
167.1417554303
 20
222.1353764851
  0
VERTEX
  8
0
 62
7
  6
CONTINUOUS
 10
167.137918647
 20
222.2437537976
  0
VERTEX
  8
0
 62
7
  6
CONTINUOUS
 10
167.1259426931
 20
222.3629831496
  0
VERTEX
  8
0
 62
7
  6
CONTINUOUS
 10
167.1051458449
 20
222.4938761915
  0
VERTEX
  8
0
 62
7
  6
CONTINUOUS
 10
167.0748930574
 20
222.6372323871
  0
SEQEND
  0
LINE
  8
0
 62
7
  6
CONTINUOUS
 10
167.1417554303
 20
221.8007173938
 11
167.1417554303
 21
232.7964238622
  0
LINE
  8
0
 62
7
  6
CONTINUOUS
 10
173.7340566791
 20
232.4895715819
 11
172.7917577532
 21
229.1925283496
  0
LINE
  8
0
 62
7
  6
CONTINUOUS
 10
175.4788950023
 20
221.51392526
 11
175.4805124542
 21
221.5114191439
  0
POLYLINE
  8
0
 62
7
  6
CONTINUOUS
 66
1
 70
0
  0
VERTEX
  8
0
 62
7
  6
CONTINUOUS
 10
175.4805124542
 20
221.5114191439
  0
VERTEX
  8
0
 62
7
  6
CONTINUOUS
 10
175.486629823
 20
221.5005305153
  0
VERTEX
  8
0
 62
7
  6
CONTINUOUS
 10
175.4940394359
 20
221.4854888999
  0
VERTEX
  8
0
 62
7
  6
CONTINUOUS
 10
175.5024450297
 20
221.4661309402
  0
VERTEX
  8
0
 62
7
  6
CONTINUOUS
 10
175.5116693982
 20
221.4420963043
  0
VERTEX
  8
0
 62
7
  6
CONTINUOUS
 10
175.5216019696
 20
221.4128296577
  0
VERTEX
  8
0
 62
7
  6
CONTINUOUS
 10
175.5321178688
 20
221.3777515484
  0
VERTEX
  8
0
 62
7
  6
CONTINUOUS
 10
175.5430720304
 20
221.3363061792
  0
VERTEX
  8
0
 62
7
  6
CONTINUOUS
 10
175.5543541662
 20
221.2877742603
  0
VERTEX
  8
0
 62
7
  6
CONTINUOUS
 10
175.5661424141
 20
221.2298556572
  0
VERTEX
  8
0
 62
7
  6
CONTINUOUS
 10
175.5777462765
 20
221.1645061036
  0
VERTEX
  8
0
 62
7
  6
CONTINUOUS
 10
175.5884463893
 20
221.0956606286
  0
VERTEX
  8
0
 62
7
  6
CONTINUOUS
 10
175.5979218128
 20
221.0263548897
  0
VERTEX
  8
0
 62
7
  6
CONTINUOUS
 10
175.6062022739
 20
220.9578580639
  0
VERTEX
  8
0
 62
7
  6
CONTINUOUS
 10
175.6131781014
 20
220.893407952
  0
VERTEX
  8
0
 62
7
  6
CONTINUOUS
 10
175.6189357469
 20
220.8326115496
  0
SEQEND
  0
POLYLINE
  8
0
 62
7
  6
CONTINUOUS
 66
1
 70
0
  0
VERTEX
  8
0
 62
7
  6
CONTINUOUS
 10
165.6871917137
 20
232.0076368308
  0
VERTEX
  8
0
 62
7
  6
CONTINUOUS
 10
165.664565422
 20
232.0752162344
  0
VERTEX
  8
0
 62
7
  6
CONTINUOUS
 10
165.6368585611
 20
232.1383713023
  0
VERTEX
  8
0
 62
7
  6
CONTINUOUS
 10
165.604765765
 20
232.1964808268
  0
VERTEX
  8
0
 62
7
  6
CONTINUOUS
 10
165.5688880301
 20
232.2492981804
  0
VERTEX
  8
0
 62
7
  6
CONTINUOUS
 10
165.5295101377
 20
232.2969847267
  0
VERTEX
  8
0
 62
7
  6
CONTINUOUS
 10
165.4873512741
 20
232.3391277094
  0
VERTEX
  8
0
 62
7
  6
CONTINUOUS
 10
165.4431887598
 20
232.3754675467
  0
VERTEX
  8
0
 62
7
  6
CONTINUOUS
 10
165.3974300861
 20
232.4061481212
  0
VERTEX
  8
0
 62
7
  6
CONTINUOUS
 10
165.350253429
 20
232.4313831724
  0
SEQEND
  0
LINE
  8
0
 62
7
  6
CONTINUOUS
 10
165.5417554274
 20
232.5165090265
 11
166.4917531073
 21
229.1925283496
  0
LINE
  8
0
 62
7
  6
CONTINUOUS
 10
175.8681929936
 20
217.7167468611
 11
175.6189357469
 21
220.8326115496
  0
POLYLINE
  8
0
 62
7
  6
CONTINUOUS
 66
1
 70
0
  0
VERTEX
  8
0
 62
7
  6
CONTINUOUS
 10
172.1417554303
 20
227.4574712393
  0
VERTEX
  8
0
 62
7
  6
CONTINUOUS
 10
172.1457877862
 20
227.3462735581
  0
VERTEX
  8
0
 62
7
  6
CONTINUOUS
 10
172.1583815505
 20
227.22368956
  0
VERTEX
  8
0
 62
7
  6
CONTINUOUS
 10
172.1802656069
 20
227.0888356319
  0
VERTEX
  8
0
 62
7
  6
CONTINUOUS
 10
172.212119851
 20
226.9408379129
  0
VERTEX
  8
0
 62
7
  6
CONTINUOUS
 10
172.2543076959
 20
226.7796459329
  0
VERTEX
  8
0
 62
7
  6
CONTINUOUS
 10
172.3064921642
 20
226.606615084
  0
VERTEX
  8
0
 62
7
  6
CONTINUOUS
 10
172.367790659
 20
226.4234162714
  0
VERTEX
  8
0
 62
7
  6
CONTINUOUS
 10
172.4364497655
 20
226.2329335094
  0
SEQEND
  0
LINE
  8
0
 62
7
  6
CONTINUOUS
 10
172.1417554303
 20
221.8087129225
 11
172.1417554303
 21
232.5964238622
  0
LINE
  8
0
 62
7
  6
CONTINUOUS
 10
173.7417554303
 20
232.5438631723
 11
173.7417554303
 21
232.5964238622
  0
POLYLINE
  8
0
 62
7
  6
CONTINUOUS
 66
1
 70
0
  0
VERTEX
  8
0
 62
7
  6
CONTINUOUS
 10
172.1417554303
 20
222.0708484381
  0
VERTEX
  8
0
 62
7
  6
CONTINUOUS
 10
172.1401964452
 20
222.0291092861
  0
VERTEX
  8
0
 62
7
  6
CONTINUOUS
 10
172.1357658813
 20
221.9903757967
  0
SEQEND
  0
LINE
  8
0
 62
7
  6
CONTINUOUS
 10
172.6858011582
 20
228.6071641774
 11
172.1436775137
 21
221.8247792819
  0
LINE
  8
0
 62
7
  6
CONTINUOUS
 10
171.8211583893
 20
217.7898162993
 11
171.815317867
 21
217.7167468611
  0
LINE
  8
SURFACE
 62
7
  6
CONTINUOUS
 10
171.815317867
 20
217.7167468611
 11
171.821466415
 21
217.793669938
  0
LINE
  8
0
 62
7
  6
CONTINUOUS
 10
171.821466415
 20
217.793669938
 11
172.1411195771
 21
221.7927775223
  0
POLYLINE
  8
0
 62
7
  6
CONTINUOUS
 66
1
 70
0
  0
VERTEX
  8
0
 62
7
  6
CONTINUOUS
 10
172.0610269328
 20
220.7903260388
  0
VERTEX
  8
0
 62
7
  6
CONTINUOUS
 10
172.0650512346
 20
220.837975812
  0
VERTEX
  8
0
 62
7
  6
CONTINUOUS
 10
172.0714464639
 20
220.9042006578
  0
VERTEX
  8
0
 62
7
  6
CONTINUOUS
 10
172.0791957579
 20
220.9742004503
  0
VERTEX
  8
0
 62
7
  6
CONTINUOUS
 10
172.087733348
 20
221.0428352834
  0
VERTEX
  8
0
 62
7
  6
CONTINUOUS
 10
172.0966826207
 20
221.1066476554
  0
VERTEX
  8
0
 62
7
  6
CONTINUOUS
 10
172.1059832341
 20
221.1658222838
  0
VERTEX
  8
0
 62
7
  6
CONTINUOUS
 10
172.1156556454
 20
221.2207621704
  0
VERTEX
  8
0
 62
7
  6
CONTINUOUS
 10
172.1257313073
 20
221.2717476713
  0
VERTEX
  8
0
 62
7
  6
CONTINUOUS
 10
172.1362292679
 20
221.3189303227
  0
VERTEX
  8
0
 62
7
  6
CONTINUOUS
 10
172.147039603
 20
221.3619085397
  0
VERTEX
  8
0
 62
7
  6
CONTINUOUS
 10
172.1578287032
 20
221.3997380909
  0
VERTEX
  8
0
 62
7
  6
CONTINUOUS
 10
172.1681791917
 20
221.4317244929
  0
VERTEX
  8
0
 62
7
  6
CONTINUOUS
 10
172.1777496376
 20
221.4578300763
  0
VERTEX
  8
0
 62
7
  6
CONTINUOUS
 10
172.1865039877
 20
221.4789303328
  0
VERTEX
  8
0
 62
7
  6
CONTINUOUS
 10
172.1943770859
 20
221.495664676
  0
VERTEX
  8
0
 62
7
  6
CONTINUOUS
 10
172.2010852764
 20
221.5081743026
  0
VERTEX
  8
0
 62
7
  6
CONTINUOUS
 10
172.2061578675
 20
221.5164137218
  0
VERTEX
  8
0
 62
7
  6
CONTINUOUS
 10
172.2089983789
 20
221.5204071379
  0
VERTEX
  8
0
 62
7
  6
CONTINUOUS
 10
172.2093800086
 20
221.5208839451
  0
SEQEND
  0
POLYLINE
  8
0
 62
7
  6
CONTINUOUS
 66
1
 70
0
  0
VERTEX
  8
0
 62
7
  6
CONTINUOUS
 10
172.1417554303
 20
228.3209805719
  0
VERTEX
  8
0
 62
7
  6
CONTINUOUS
 10
172.1449177839
 20
228.3552672564
  0
VERTEX
  8
0
 62
7
  6
CONTINUOUS
 10
172.154191351
 20
228.3874977296
  0
VERTEX
  8
0
 62
7
  6
CONTINUOUS
 10
172.1691540407
 20
228.4173550073
  0
VERTEX
  8
0
 62
7
  6
CONTINUOUS
 10
172.1893193817
 20
228.4446870539
  0
VERTEX
  8
0
 62
7
  6
CONTINUOUS
 10
172.2144737289
 20
228.4696924473
  0
VERTEX
  8
0
 62
7
  6
CONTINUOUS
 10
172.2442493077
 20
228.4922986747
  0
VERTEX
  8
0
 62
7
  6
CONTINUOUS
 10
172.2780242079
 20
228.5123455858
  0
VERTEX
  8
0
 62
7
  6
CONTINUOUS
 10
172.3151062239
 20
228.5297767543
  0
VERTEX
  8
0
 62
7
  6
CONTINUOUS
 10
172.3552950475
 20
228.5447884063
  0
VERTEX
  8
0
 62
7
  6
CONTINUOUS
 10
172.3981993815
 20
228.5574357512
  0
VERTEX
  8
0
 62
7
  6
CONTINUOUS
 10
172.4431312245
 20
228.5677042683
  0
VERTEX
  8
0
 62
7
  6
CONTINUOUS
 10
172.4895815172
 20
228.5756583643
  0
SEQEND
  0
POLYLINE
  8
0
 62
7
  6
CONTINUOUS
 66
1
 70
0
  0
VERTEX
  8
0
 62
7
  6
CONTINUOUS
 10
172.2166921724
 20
222.7382489791
  0
VERTEX
  8
0
 62
7
  6
CONTINUOUS
 10
172.2064929406
 20
222.6455226686
  0
VERTEX
  8
0
 62
7
  6
CONTINUOUS
 10
172.1919621154
 20
222.5624731507
  0
SEQEND
  0
POLYLINE
  8
0
 62
7
  6
CONTINUOUS
 66
1
 70
0
  0
VERTEX
  8
0
 62
7
  6
CONTINUOUS
 10
172.1357658813
 20
221.9903757967
  0
VERTEX
  8
0
 62
7
  6
CONTINUOUS
 10
172.1232541179
 20
221.9126660974
  0
VERTEX
  8
0
 62
7
  6
CONTINUOUS
 10
172.10957784
 20
221.834303805
  0
VERTEX
  8
0
 62
7
  6
CONTINUOUS
 10
172.0941466996
 20
221.7529517102
  0
VERTEX
  8
0
 62
7
  6
CONTINUOUS
 10
172.0761320542
 20
221.6659648294
  0
VERTEX
  8
0
 62
7
  6
CONTINUOUS
 10
172.0545507437
 20
221.5711829996
  0
VERTEX
  8
0
 62
7
  6
CONTINUOUS
 10
172.0281947319
 20
221.4669218931
  0
VERTEX
  8
0
 62
7
  6
CONTINUOUS
 10
171.9955311992
 20
221.3519201193
  0
VERTEX
  8
0
 62
7
  6
CONTINUOUS
 10
171.954400039
 20
221.2249016643
  0
VERTEX
  8
0
 62
7
  6
CONTINUOUS
 10
171.9021947254
 20
221.0860053889
  0
VERTEX
  8
0
 62
7
  6
CONTINUOUS
 10
171.8398937568
 20
220.9455004547
  0
VERTEX
  8
0
 62
7
  6
CONTINUOUS
 10
171.7754777675
 20
220.8227541554
  0
VERTEX
  8
0
 62
7
  6
CONTINUOUS
 10
171.711992726
 20
220.7197493022
  0
VERTEX
  8
0
 62
7
  6
CONTINUOUS
 10
171.6492001547
 20
220.6324508405
  0
VERTEX
  8
0
 62
7
  6
CONTINUOUS
 10
171.5865996198
 20
220.5577990475
  0
VERTEX
  8
0
 62
7
  6
CONTINUOUS
 10
171.5234305036
 20
220.4934838896
  0
VERTEX
  8
0
 62
7
  6
CONTINUOUS
 10
171.4603753009
 20
220.4391915857
  0
VERTEX
  8
0
 62
7
  6
CONTINUOUS
 10
171.3988102997
 20
220.394923351
  0
VERTEX
  8
0
 62
7
  6
CONTINUOUS
 10
171.3391236578
 20
220.3596915862
  0
VERTEX
  8
0
 62
7
  6
CONTINUOUS
 10
171.2812537385
 20
220.3323806747
  0
VERTEX
  8
0
 62
7
  6
CONTINUOUS
 10
171.2246591105
 20
220.3119457269
  0
VERTEX
  8
0
 62
7
  6
CONTINUOUS
 10
171.1688808433
 20
220.2977238167
  0
VERTEX
  8
0
 62
7
  6
CONTINUOUS
 10
171.1140312813
 20
220.2893928938
  0
VERTEX
  8
0
 62
7
  6
CONTINUOUS
 10
171.0599527584
 20
220.2866594563
  0
SEQEND
  0
POLYLINE
  8
0
 62
7
  6
CONTINUOUS
 66
1
 70
0
  0
VERTEX
  8
0
 62
7
  6
CONTINUOUS
 10
172.1919634502
 20
222.562480319
  0
VERTEX
  8
0
 62
7
  6
CONTINUOUS
 10
172.1693206486
 20
222.4423444699
  0
VERTEX
  8
0
 62
7
  6
CONTINUOUS
 10
172.1536964803
 20
222.331447655
  0
VERTEX
  8
0
 62
7
  6
CONTINUOUS
 10
172.1446620156
 20
222.2293018255
  0
VERTEX
  8
0
 62
7
  6
CONTINUOUS
 10
172.1417554303
 20
222.1353764851
  0
SEQEND
  0
POLYLINE
  8
0
 62
7
  6
CONTINUOUS
 66
1
 70
0
  0
VERTEX
  8
0
 62
7
  6
CONTINUOUS
 10
180.5976490785
 20
221.5019770924
  0
VERTEX
  8
0
 62
7
  6
CONTINUOUS
 10
180.6035627363
 20
221.5123461326
  0
VERTEX
  8
0
 62
7
  6
CONTINUOUS
 10
180.6045939148
 20
221.5139200207
  0
SEQEND
  0
POLYLINE
  8
0
 62
7
  6
CONTINUOUS
 66
1
 70
0
  0
VERTEX
  8
0
 62
7
  6
CONTINUOUS
 10
183.8741029688
 20
221.5209177897
  0
VERTEX
  8
0
 62
7
  6
CONTINUOUS
 10
183.8742216217
 20
221.5207732852
  0
VERTEX
  8
0
 62
7
  6
CONTINUOUS
 10
183.876419361
 20
221.5177893312
  0
VERTEX
  8
0
 62
7
  6
CONTINUOUS
 10
183.8809388615
 20
221.5107094184
  0
VERTEX
  8
0
 62
7
  6
CONTINUOUS
 10
183.8872066872
 20
221.499429691
  0
VERTEX
  8
0
 62
7
  6
CONTINUOUS
 10
183.8947571089
 20
221.4839303636
  0
VERTEX
  8
0
 62
7
  6
CONTINUOUS
 10
183.9032979332
 20
221.4640320265
  0
VERTEX
  8
0
 62
7
  6
CONTINUOUS
 10
183.9126502946
 20
221.4393653699
  0
VERTEX
  8
0
 62
7
  6
CONTINUOUS
 10
183.9226982456
 20
221.4093749964
  0
VERTEX
  8
0
 62
7
  6
CONTINUOUS
 10
183.9333130297
 20
221.3734819427
  0
VERTEX
  8
0
 62
7
  6
CONTINUOUS
 10
183.9443514166
 20
221.3311138692
  0
VERTEX
  8
0
 62
7
  6
CONTINUOUS
 10
183.955738451
 20
221.2813739278
  0
VERTEX
  8
0
 62
7
  6
CONTINUOUS
 10
183.9676663734
 20
221.2217731224
  0
VERTEX
  8
0
 62
7
  6
CONTINUOUS
 10
183.9792522701
 20
221.1553465583
  0
VERTEX
  8
0
 62
7
  6
CONTINUOUS
 10
183.9897051484
 20
221.0869536789
  0
VERTEX
  8
0
 62
7
  6
CONTINUOUS
 10
183.9988182663
 20
221.0193185202
  0
VERTEX
  8
0
 62
7
  6
CONTINUOUS
 10
184.006730343
 20
220.9532273291
  0
VERTEX
  8
0
 62
7
  6
CONTINUOUS
 10
184.0134056804
 20
220.8911452977
  0
VERTEX
  8
0
 62
7
  6
CONTINUOUS
 10
184.0189888081
 20
220.8319699477
  0
VERTEX
  8
0
 62
7
  6
CONTINUOUS
 10
184.0224616588
 20
220.790596109
  0
SEQEND
  0
POLYLINE
  8
0
 62
7
  6
CONTINUOUS
 66
1
 70
0
  0
VERTEX
  8
0
 62
7
  6
CONTINUOUS
 10
172.4364491979
 20
226.2329351078
  0
VERTEX
  8
0
 62
7
  6
CONTINUOUS
 10
172.4480041886
 20
226.1969123213
  0
VERTEX
  8
0
 62
7
  6
CONTINUOUS
 10
172.4574395808
 20
226.1567142356
  0
VERTEX
  8
0
 62
7
  6
CONTINUOUS
 10
172.4647018954
 20
226.1119321876
  0
VERTEX
  8
0
 62
7
  6
CONTINUOUS
 10
172.4696337415
 20
226.0620981046
  0
VERTEX
  8
0
 62
7
  6
CONTINUOUS
 10
172.4719926315
 20
226.006459109
  0
VERTEX
  8
0
 62
7
  6
CONTINUOUS
 10
172.4714155894
 20
225.9444939709
  0
VERTEX
  8
0
 62
7
  6
CONTINUOUS
 10
172.4674754241
 20
225.8757408539
  0
SEQEND
  0
POLYLINE
  8
0
 62
7
  6
CONTINUOUS
 66
1
 70
0
  0
VERTEX
  8
0
 62
7
  6
CONTINUOUS
 10
180.215317867
 20
217.7167468611
  0
VERTEX
  8
0
 62
7
  6
CONTINUOUS
 10
180.4647428006
 20
220.8345330221
  0
VERTEX
  8
0
 62
7
  6
CONTINUOUS
 10
180.4707344366
 20
220.8973181545
  0
VERTEX
  8
0
 62
7
  6
CONTINUOUS
 10
180.4780805569
 20
220.9645919789
  0
VERTEX
  8
0
 62
7
  6
CONTINUOUS
 10
180.486791026
 20
221.0356599562
  0
VERTEX
  8
0
 62
7
  6
CONTINUOUS
 10
180.4966871204
 20
221.1066754109
  0
VERTEX
  8
0
 62
7
  6
CONTINUOUS
 10
180.5076477938
 20
221.1757300442
  0
VERTEX
  8
0
 62
7
  6
CONTINUOUS
 10
180.5192722138
 20
221.2397513259
  0
VERTEX
  8
0
 62
7
  6
CONTINUOUS
 10
180.5309128954
 20
221.2957489607
  0
VERTEX
  8
0
 62
7
  6
CONTINUOUS
 10
180.542084948
 20
221.342875178
  0
VERTEX
  8
0
 62
7
  6
CONTINUOUS
 10
180.5529254982
 20
221.3831395936
  0
VERTEX
  8
0
 62
7
  6
CONTINUOUS
 10
180.5633049511
 20
221.4171631979
  0
VERTEX
  8
0
 62
7
  6
CONTINUOUS
 10
180.5730889754
 20
221.4455203076
  0
VERTEX
  8
0
 62
7
  6
CONTINUOUS
 10
180.5821633849
 20
221.4687953184
  0
VERTEX
  8
0
 62
7
  6
CONTINUOUS
 10
180.5904129324
 20
221.4875066358
  0
VERTEX
  8
0
 62
7
  6
CONTINUOUS
 10
180.5976490785
 20
221.5019770924
  0
SEQEND
  0
LINE
  8
0
 62
7
  6
CONTINUOUS
 10
184.2608057779
 20
217.8091666266
 11
184.2681929936
 21
217.7167468611
  0
LINE
  8
SURFACE
 62
7
  6
CONTINUOUS
 10
184.2681929936
 20
217.7167468611
 11
183.3977097259
 21
228.6071638836
  0
LINE
  8
SURFACE
 62
7
  6
CONTINUOUS
 10
190.5488876472
 20
232.5414641838
 11
189.5917575645
 21
229.1925276892
  0
POLYLINE
  8
0
 62
7
  6
CONTINUOUS
 66
1
 70
0
  0
VERTEX
  8
0
 62
7
  6
CONTINUOUS
 10
200.6741030944
 20
221.5209176444
  0
VERTEX
  8
0
 62
7
  6
CONTINUOUS
 10
200.6742211206
 20
221.5207739013
  0
VERTEX
  8
0
 62
7
  6
CONTINUOUS
 10
200.676417252
 20
221.5177923775
  0
VERTEX
  8
0
 62
7
  6
CONTINUOUS
 10
200.6809352987
 20
221.5107153809
  0
VERTEX
  8
0
 62
7
  6
CONTINUOUS
 10
200.6872018973
 20
221.4994388816
  0
VERTEX
  8
0
 62
7
  6
CONTINUOUS
 10
200.6947512432
 20
221.483943173
  0
VERTEX
  8
0
 62
7
  6
CONTINUOUS
 10
200.7032910838
 20
221.4640489813
  0
VERTEX
  8
0
 62
7
  6
CONTINUOUS
 10
200.7126425031
 20
221.4393871973
  0
VERTEX
  8
0
 62
7
  6
CONTINUOUS
 10
200.7226895365
 20
221.409402621
  0
VERTEX
  8
0
 62
7
  6
CONTINUOUS
 10
200.7333034875
 20
221.3735162693
  0
VERTEX
  8
0
 62
7
  6
CONTINUOUS
 10
200.7443411458
 20
221.3311558578
  0
VERTEX
  8
0
 62
7
  6
CONTINUOUS
 10
200.7557272206
 20
221.28142626
  0
VERTEX
  8
0
 62
7
  6
CONTINUOUS
 10
200.7676541999
 20
221.2218382675
  0
VERTEX
  8
0
 62
7
  6
CONTINUOUS
 10
200.7792405884
 20
221.1554182511
  0
VERTEX
  8
0
 62
7
  6
CONTINUOUS
 10
200.7896956282
 20
221.0870200527
  0
VERTEX
  8
0
 62
7
  6
CONTINUOUS
 10
200.7988115517
 20
221.0193715256
  0
VERTEX
  8
0
 62
7
  6
CONTINUOUS
 10
200.8067263749
 20
220.9532624906
  0
VERTEX
  8
0
 62
7
  6
CONTINUOUS
 10
200.8134039478
 20
220.8911622223
  0
VERTEX
  8
0
 62
7
  6
CONTINUOUS
 10
200.8189884324
 20
220.8319742217
  0
VERTEX
  8
0
 62
7
  6
CONTINUOUS
 10
200.8224616415
 20
220.7905964629
  0
SEQEND
  0
LINE
  8
0
 62
7
  6
CONTINUOUS
 10
192.2788950037
 20
221.5139252596
 11
192.2805124131
 21
221.5114192119
  0
POLYLINE
  8
0
 62
7
  6
CONTINUOUS
 66
1
 70
0
  0
VERTEX
  8
0
 62
7
  6
CONTINUOUS
 10
192.2805124131
 20
221.5114192119
  0
VERTEX
  8
0
 62
7
  6
CONTINUOUS
 10
192.2866297663
 20
221.5005306229
  0
VERTEX
  8
0
 62
7
  6
CONTINUOUS
 10
192.294039365
 20
221.485489053
  0
VERTEX
  8
0
 62
7
  6
CONTINUOUS
 10
192.3024449453
 20
221.4661311466
  0
VERTEX
  8
0
 62
7
  6
CONTINUOUS
 10
192.3116693006
 20
221.4420965744
  0
VERTEX
  8
0
 62
7
  6
CONTINUOUS
 10
192.3216018588
 20
221.4128300046
  0
VERTEX
  8
0
 62
7
  6
CONTINUOUS
 10
192.3321177457
 20
221.377751985
  0
VERTEX
  8
0
 62
7
  6
CONTINUOUS
 10
192.3430718964
 20
221.3363067188
  0
VERTEX
  8
0
 62
7
  6
CONTINUOUS
 10
192.35435402
 20
221.2877749311
  0
VERTEX
  8
0
 62
7
  6
CONTINUOUS
 10
192.3661422523
 20
221.2298565078
  0
VERTEX
  8
0
 62
7
  6
CONTINUOUS
 10
192.3777461161
 20
221.1645070711
  0
VERTEX
  8
0
 62
7
  6
CONTINUOUS
 10
192.3884462534
 20
221.0956615588
  0
VERTEX
  8
0
 62
7
  6
CONTINUOUS
 10
192.3979217164
 20
221.0263556426
  0
VERTEX
  8
0
 62
7
  6
CONTINUOUS
 10
192.406202216
 20
220.9578585769
  0
VERTEX
  8
0
 62
7
  6
CONTINUOUS
 10
192.4131780752
 20
220.8934081967
  0
VERTEX
  8
0
 62
7
  6
CONTINUOUS
 10
192.4189357421
 20
220.8326116075
  0
SEQEND
  0
LINE
  8
SURFACE
 62
7
  6
CONTINUOUS
 10
183.291753118
 20
229.1925283123
 11
182.3346232134
 21
232.5414641838
  0
POLYLINE
  8
SURFACE
 62
7
  6
CONTINUOUS
 66
1
 70
0
  0
VERTEX
  8
SURFACE
 62
7
  6
CONTINUOUS
 10
182.3346232134
 20
232.5414641838
  0
VERTEX
  8
SURFACE
 62
7
  6
CONTINUOUS
 10
182.3290258921
 20
232.571108809
  0
VERTEX
  8
SURFACE
 62
7
  6
CONTINUOUS
 10
182.3288358878
 20
232.6016637919
  0
VERTEX
  8
SURFACE
 62
7
  6
CONTINUOUS
 10
182.3340640768
 20
232.6322587801
  0
VERTEX
  8
SURFACE
 62
7
  6
CONTINUOUS
 10
182.3445749541
 20
232.662024802
  0
VERTEX
  8
SURFACE
 62
7
  6
CONTINUOUS
 10
182.3600897741
 20
232.6901159008
  0
VERTEX
  8
SURFACE
 62
7
  6
CONTINUOUS
 10
182.380192808
 20
232.7157309644
  0
VERTEX
  8
SURFACE
 62
7
  6
CONTINUOUS
 10
182.4043410898
 20
232.7381352803
  0
VERTEX
  8
SURFACE
 62
7
  6
CONTINUOUS
 10
182.4318778244
 20
232.7566811562
  0
VERTEX
  8
SURFACE
 62
7
  6
CONTINUOUS
 10
182.4620494059
 20
232.7708268437
  0
VERTEX
  8
SURFACE
 62
7
  6
CONTINUOUS
 10
182.4940257709
 20
232.7801529655
  0
VERTEX
  8
SURFACE
 62
7
  6
CONTINUOUS
 10
182.5269235871
 20
232.7843756694
  0
SEQEND
  0
LINE
  8
0
 62
7
  6
CONTINUOUS
 10
188.6211583893
 20
217.7898162992
 11
188.615317867
 21
217.7167468611
  0
LINE
  8
SURFACE
 62
7
  6
CONTINUOUS
 10
188.615317867
 20
217.7167468611
 11
189.4858011374
 21
228.6071639175
  0
POLYLINE
  8
0
 62
7
  6
CONTINUOUS
 66
1
 70
0
  0
VERTEX
  8
0
 62
7
  6
CONTINUOUS
 10
188.8610269336
 20
220.7903260672
  0
VERTEX
  8
0
 62
7
  6
CONTINUOUS
 10
188.865050624
 20
220.837968933
  0
VERTEX
  8
0
 62
7
  6
CONTINUOUS
 10
188.8714454344
 20
220.9041908203
  0
VERTEX
  8
0
 62
7
  6
CONTINUOUS
 10
188.8791945694
 20
220.9741902719
  0
VERTEX
  8
0
 62
7
  6
CONTINUOUS
 10
188.8877321688
 20
221.0428263568
  0
VERTEX
  8
0
 62
7
  6
CONTINUOUS
 10
188.8966814693
 20
221.1066399168
  0
VERTEX
  8
0
 62
7
  6
CONTINUOUS
 10
188.9059820913
 20
221.1658154122
  0
VERTEX
  8
0
 62
7
  6
CONTINUOUS
 10
188.9156544885
 20
221.220755966
  0
VERTEX
  8
0
 62
7
  6
CONTINUOUS
 10
188.9257301236
 20
221.2717420245
  0
VERTEX
  8
0
 62
7
  6
CONTINUOUS
 10
188.9362280684
 20
221.3189252493
  0
VERTEX
  8
0
 62
7
  6
CONTINUOUS
 10
188.9470384342
 20
221.3619041781
  0
VERTEX
  8
0
 62
7
  6
CONTINUOUS
 10
188.9578276114
 20
221.3997345011
  0
VERTEX
  8
0
 62
7
  6
CONTINUOUS
 10
188.9681782206
 20
221.431721679
  0
VERTEX
  8
0
 62
7
  6
CONTINUOUS
 10
188.9777487904
 20
221.457827907
  0
VERTEX
  8
0
 62
7
  6
CONTINUOUS
 10
188.9865032547
 20
221.4789286755
  0
VERTEX
  8
0
 62
7
  6
CONTINUOUS
 10
188.9943764735
 20
221.4956634584
  0
VERTEX
  8
0
 62
7
  6
CONTINUOUS
 10
189.0010848064
 20
221.5081734868
  0
VERTEX
  8
0
 62
7
  6
CONTINUOUS
 10
189.0061575685
 20
221.5164132732
  0
VERTEX
  8
0
 62
7
  6
CONTINUOUS
 10
189.0089982724
 20
221.5204070015
  0
VERTEX
  8
0
 62
7
  6
CONTINUOUS
 10
189.009379978
 20
221.5208839084
  0
SEQEND
  0
POLYLINE
  8
0
 62
7
  6
CONTINUOUS
 66
1
 70
0
  0
VERTEX
  8
0
 62
7
  6
CONTINUOUS
 10
197.397648876
 20
221.5019767138
  0
VERTEX
  8
0
 62
7
  6
CONTINUOUS
 10
197.4035625915
 20
221.5123458965
  0
VERTEX
  8
0
 62
7
  6
CONTINUOUS
 10
197.4045939215
 20
221.5139200221
  0
SEQEND
  0
POLYLINE
  8
0
 62
7
  6
CONTINUOUS
 66
1
 70
0
  0
VERTEX
  8
0
 62
7
  6
CONTINUOUS
 10
204.8917554303
 20
217.6675917334
  0
VERTEX
  8
0
 62
7
  6
CONTINUOUS
 10
204.9007629953
 20
217.6775102333
  0
VERTEX
  8
0
 62
7
  6
CONTINUOUS
 10
204.9194285411
 20
217.6975347041
  0
SEQEND
  0
POLYLINE
  8
0
 62
7
  6
CONTINUOUS
 66
1
 70
0
  0
VERTEX
  8
0
 62
7
  6
CONTINUOUS
 10
204.9922766315
 20
217.7745980158
  0
VERTEX
  8
0
 62
7
  6
CONTINUOUS
 10
205.0210954274
 20
217.8056660045
  0
VERTEX
  8
0
 62
7
  6
CONTINUOUS
 10
205.0518091712
 20
217.8395858979
  0
VERTEX
  8
0
 62
7
  6
CONTINUOUS
 10
205.084270177
 20
217.8766085513
  0
VERTEX
  8
0
 62
7
  6
CONTINUOUS
 10
205.118296943
 20
217.9170096866
  0
VERTEX
  8
0
 62
7
  6
CONTINUOUS
 10
205.153490619
 20
217.9608633247
  0
VERTEX
  8
0
 62
7
  6
CONTINUOUS
 10
205.1893256633
 20
218.0080991098
  0
VERTEX
  8
0
 62
7
  6
CONTINUOUS
 10
205.2252859382
 20
218.058644125
  0
VERTEX
  8
0
 62
7
  6
CONTINUOUS
 10
205.2609192945
 20
218.1124945603
  0
VERTEX
  8
0
 62
7
  6
CONTINUOUS
 10
205.2957948718
 20
218.1696635002
  0
VERTEX
  8
0
 62
7
  6
CONTINUOUS
 10
205.3294821893
 20
218.2301520214
  0
VERTEX
  8
0
 62
7
  6
CONTINUOUS
 10
205.3615559216
 20
218.2939574414
  0
VERTEX
  8
0
 62
7
  6
CONTINUOUS
 10
205.3915946171
 20
218.3610748755
  0
VERTEX
  8
0
 62
7
  6
CONTINUOUS
 10
205.4191774108
 20
218.4315000772
  0
VERTEX
  8
0
 62
7
  6
CONTINUOUS
 10
205.4438578956
 20
218.5051697651
  0
VERTEX
  8
0
 62
7
  6
CONTINUOUS
 10
205.4651574298
 20
218.5819044911
  0
VERTEX
  8
0
 62
7
  6
CONTINUOUS
 10
205.4826050016
 20
218.6614977745
  0
VERTEX
  8
0
 62
7
  6
CONTINUOUS
 10
205.4957344685
 20
218.743744679
  0
VERTEX
  8
0
 62
7
  6
CONTINUOUS
 10
205.5027897606
 20
218.8110853601
  0
SEQEND
  0
LINE
  8
0
 62
7
  6
CONTINUOUS
 10
204.9194285411
 20
217.6975347041
 11
204.9922766315
 21
217.7745980158
  0
POLYLINE
  8
0
 62
7
  6
CONTINUOUS
 66
1
 70
0
  0
VERTEX
  8
0
 62
7
  6
CONTINUOUS
 10
209.9636350304
 20
217.698010195
  0
VERTEX
  8
0
 62
7
  6
CONTINUOUS
 10
209.9823467481
 20
217.6779454923
  0
VERTEX
  8
0
 62
7
  6
CONTINUOUS
 10
209.9977464612
 20
217.6610013879
  0
VERTEX
  8
0
 62
7
  6
CONTINUOUS
 10
210.0095971726
 20
217.6474498636
  0
VERTEX
  8
0
 62
7
  6
CONTINUOUS
 10
210.0177826155
 20
217.6375915121
  0
VERTEX
  8
0
 62
7
  6
CONTINUOUS
 10
210.0213492475
 20
217.6330518115
  0
SEQEND
  0
LINE
  8
0
 62
7
  6
CONTINUOUS
 10
192.6681929936
 20
217.7167468611
 11
192.4189357421
 21
220.8326116075
  0
POLYLINE
  8
0
 62
7
  6
CONTINUOUS
 66
1
 70
0
  0
VERTEX
  8
0
 62
7
  6
CONTINUOUS
 10
204.9912194478
 20
219.0914967516
  0
VERTEX
  8
0
 62
7
  6
CONTINUOUS
 10
205.0215417542
 20
219.1373255384
  0
VERTEX
  8
0
 62
7
  6
CONTINUOUS
 10
205.0620592853
 20
219.1961391468
  0
VERTEX
  8
0
 62
7
  6
CONTINUOUS
 10
205.155903197
 20
219.3304160304
  0
SEQEND
  0
POLYLINE
  8
0
 62
7
  6
CONTINUOUS
 66
1
 70
0
  0
VERTEX
  8
0
 62
7
  6
CONTINUOUS
 10
205.155903197
 20
219.3304160304
  0
VERTEX
  8
0
 62
7
  6
CONTINUOUS
 10
205.2069192487
 20
219.4055809993
  0
VERTEX
  8
0
 62
7
  6
CONTINUOUS
 10
205.2591746976
 20
219.4860787516
  0
VERTEX
  8
0
 62
7
  6
CONTINUOUS
 10
205.3115990906
 20
219.5719297154
  0
VERTEX
  8
0
 62
7
  6
CONTINUOUS
 10
205.3632389371
 20
219.6632671671
  0
VERTEX
  8
0
 62
7
  6
CONTINUOUS
 10
205.4132366703
 20
219.7603251336
  0
VERTEX
  8
0
 62
7
  6
CONTINUOUS
 10
205.4607349676
 20
219.8632821527
  0
VERTEX
  8
0
 62
7
  6
CONTINUOUS
 10
205.5049183757
 20
219.9723510069
  0
VERTEX
  8
0
 62
7
  6
CONTINUOUS
 10
205.5449984444
 20
220.087798149
  0
VERTEX
  8
0
 62
7
  6
CONTINUOUS
 10
205.5801822078
 20
220.2099479442
  0
VERTEX
  8
0
 62
7
  6
CONTINUOUS
 10
205.6095909132
 20
220.3389864353
  0
VERTEX
  8
0
 62
7
  6
CONTINUOUS
 10
205.6322530032
 20
220.4748829441
  0
VERTEX
  8
0
 62
7
  6
CONTINUOUS
 10
205.6458428559
 20
220.6007901005
  0
SEQEND
  0
LINE
  8
0
 62
7
  6
CONTINUOUS
 10
210.0213665458
 20
217.6330292139
 11
210.021588727
 21
217.6327336324
  0
LINE
  8
0
 62
7
  6
CONTINUOUS
 10
201.0608057777
 20
217.8091666288
 11
201.0681929936
 21
217.7167468611
  0
LINE
  8
SURFACE
 62
7
  6
CONTINUOUS
 10
201.0681929936
 20
217.7167468611
 11
200.1977097259
 21
228.6071638836
  0
POLYLINE
  8
0
 62
7
  6
CONTINUOUS
 66
1
 70
0
  0
VERTEX
  8
0
 62
7
  6
CONTINUOUS
 10
197.015317867
 20
217.7167468611
  0
VERTEX
  8
0
 62
7
  6
CONTINUOUS
 10
197.2647427799
 20
220.8345327879
  0
VERTEX
  8
0
 62
7
  6
CONTINUOUS
 10
197.2707343344
 20
220.8973171836
  0
VERTEX
  8
0
 62
7
  6
CONTINUOUS
 10
197.2780803304
 20
220.9645899974
  0
VERTEX
  8
0
 62
7
  6
CONTINUOUS
 10
197.2867906543
 20
221.0356571068
  0
VERTEX
  8
0
 62
7
  6
CONTINUOUS
 10
197.2966866107
 20
221.106671985
  0
VERTEX
  8
0
 62
7
  6
CONTINUOUS
 10
197.3076472118
 20
221.1757266144
  0
VERTEX
  8
0
 62
7
  6
CONTINUOUS
 10
197.3192716419
 20
221.2397483864
  0
VERTEX
  8
0
 62
7
  6
CONTINUOUS
 10
197.3309123832
 20
221.2957466579
  0
VERTEX
  8
0
 62
7
  6
CONTINUOUS
 10
197.3420844726
 20
221.3428732991
  0
VERTEX
  8
0
 62
7
  6
CONTINUOUS
 10
197.3529250623
 20
221.3831380746
  0
VERTEX
  8
0
 62
7
  6
CONTINUOUS
 10
197.3633045579
 20
221.4171619877
  0
VERTEX
  8
0
 62
7
  6
CONTINUOUS
 10
197.3730886284
 20
221.4455193629
  0
VERTEX
  8
0
 62
7
  6
CONTINUOUS
 10
197.3821630839
 20
221.4687945933
  0
VERTEX
  8
0
 62
7
  6
CONTINUOUS
 10
197.3904126788
 20
221.4875060964
  0
VERTEX
  8
0
 62
7
  6
CONTINUOUS
 10
197.397648876
 20
221.5019767138
  0
SEQEND
  0
LINE
  8
0
 62
7
  6
CONTINUOUS
 10
209.0788949927
 20
221.5139252632
 11
209.0805127366
 21
221.5114186764
  0
POLYLINE
  8
0
 62
7
  6
CONTINUOUS
 66
1
 70
0
  0
VERTEX
  8
0
 62
7
  6
CONTINUOUS
 10
209.0805127366
 20
221.5114186764
  0
VERTEX
  8
0
 62
7
  6
CONTINUOUS
 10
209.0866302145
 20
221.5005297725
  0
VERTEX
  8
0
 62
7
  6
CONTINUOUS
 10
209.0940399279
 20
221.4854878375
  0
VERTEX
  8
0
 62
7
  6
CONTINUOUS
 10
209.1024456175
 20
221.4661295024
  0
VERTEX
  8
0
 62
7
  6
CONTINUOUS
 10
209.1116700815
 20
221.4420944136
  0
VERTEX
  8
0
 62
7
  6
CONTINUOUS
 10
209.1216027481
 20
221.4128272208
  0
VERTEX
  8
0
 62
7
  6
CONTINUOUS
 10
209.1321187361
 20
221.3777484709
  0
VERTEX
  8
0
 62
7
  6
CONTINUOUS
 10
209.143072977
 20
221.3363023669
  0
VERTEX
  8
0
 62
7
  6
CONTINUOUS
 10
209.154355201
 20
221.2877695117
  0
VERTEX
  8
0
 62
7
  6
CONTINUOUS
 10
209.1661435635
 20
221.2298496192
  0
VERTEX
  8
0
 62
7
  6
CONTINUOUS
 10
209.1777474162
 20
221.1644992266
  0
VERTEX
  8
0
 62
7
  6
CONTINUOUS
 10
209.1884473567
 20
221.0956540049
  0
VERTEX
  8
0
 62
7
  6
CONTINUOUS
 10
209.1979224984
 20
221.0263495348
  0
VERTEX
  8
0
 62
7
  6
CONTINUOUS
 10
209.2062026858
 20
220.9578544081
  0
VERTEX
  8
0
 62
7
  6
CONTINUOUS
 10
209.2131782903
 20
220.8934061747
  0
VERTEX
  8
0
 62
7
  6
CONTINUOUS
 10
209.2189357844
 20
220.8326111009
  0
SEQEND
  0
LINE
  8
SURFACE
 62
7
  6
CONTINUOUS
 10
200.091753118
 20
229.1925283123
 11
199.1346232134
 21
232.5414641838
  0
POLYLINE
  8
SURFACE
 62
7
  6
CONTINUOUS
 66
1
 70
0
  0
VERTEX
  8
SURFACE
 62
7
  6
CONTINUOUS
 10
199.1346232134
 20
232.5414641838
  0
VERTEX
  8
SURFACE
 62
7
  6
CONTINUOUS
 10
199.1290258921
 20
232.571108809
  0
VERTEX
  8
SURFACE
 62
7
  6
CONTINUOUS
 10
199.1288358878
 20
232.6016637919
  0
VERTEX
  8
SURFACE
 62
7
  6
CONTINUOUS
 10
199.1340640768
 20
232.6322587801
  0
VERTEX
  8
SURFACE
 62
7
  6
CONTINUOUS
 10
199.1445749541
 20
232.662024802
  0
VERTEX
  8
SURFACE
 62
7
  6
CONTINUOUS
 10
199.1600897741
 20
232.6901159008
  0
VERTEX
  8
SURFACE
 62
7
  6
CONTINUOUS
 10
199.180192808
 20
232.7157309644
  0
VERTEX
  8
SURFACE
 62
7
  6
CONTINUOUS
 10
199.2043410898
 20
232.7381352803
  0
VERTEX
  8
SURFACE
 62
7
  6
CONTINUOUS
 10
199.2318778244
 20
232.7566811562
  0
VERTEX
  8
SURFACE
 62
7
  6
CONTINUOUS
 10
199.2620494059
 20
232.7708268437
  0
VERTEX
  8
SURFACE
 62
7
  6
CONTINUOUS
 10
199.2940257709
 20
232.7801529655
  0
VERTEX
  8
SURFACE
 62
7
  6
CONTINUOUS
 10
199.3269235871
 20
232.7843756694
  0
SEQEND
  0
LINE
  8
0
 62
7
  6
CONTINUOUS
 10
204.8917554303
 20
218.8039285556
 11
204.8917554303
 21
217.2964238622
  0
POLYLINE
  8
0
 62
7
  6
CONTINUOUS
 66
1
 70
0
  0
VERTEX
  8
0
 62
7
  6
CONTINUOUS
 10
204.8917553761
 20
218.8039412731
  0
VERTEX
  8
0
 62
7
  6
CONTINUOUS
 10
204.8934866697
 20
218.8365371497
  0
VERTEX
  8
0
 62
7
  6
CONTINUOUS
 10
204.9003524111
 20
218.8798086022
  0
VERTEX
  8
0
 62
7
  6
CONTINUOUS
 10
204.9134037145
 20
218.9289381822
  0
VERTEX
  8
0
 62
7
  6
CONTINUOUS
 10
204.933351596
 20
218.9826674094
  0
VERTEX
  8
0
 62
7
  6
CONTINUOUS
 10
204.960724501
 20
219.0397245259
  0
VERTEX
  8
0
 62
7
  6
CONTINUOUS
 10
204.9912000159
 20
219.0914662559
  0
SEQEND
  0
LINE
  8
0
 62
7
  6
CONTINUOUS
 10
205.5027901244
 20
218.811092291
 11
206.2858011374
 21
228.6071639175
  0
POLYLINE
  8
0
 62
7
  6
CONTINUOUS
 66
1
 70
0
  0
VERTEX
  8
0
 62
7
  6
CONTINUOUS
 10
205.6645703614
 20
220.832555654
  0
VERTEX
  8
0
 62
7
  6
CONTINUOUS
 10
205.6703106758
 20
220.8931978139
  0
VERTEX
  8
0
 62
7
  6
CONTINUOUS
 10
205.6772602394
 20
220.9574298284
  0
VERTEX
  8
0
 62
7
  6
CONTINUOUS
 10
205.6855086654
 20
221.0257268964
  0
VERTEX
  8
0
 62
7
  6
CONTINUOUS
 10
205.6949513136
 20
221.094885251
  0
VERTEX
  8
0
 62
7
  6
CONTINUOUS
 10
205.7056311132
 20
221.1637001242
  0
VERTEX
  8
0
 62
7
  6
CONTINUOUS
 10
205.7172336568
 20
221.2291469853
  0
VERTEX
  8
0
 62
7
  6
CONTINUOUS
 10
205.7290353611
 20
221.287217028
  0
VERTEX
  8
0
 62
7
  6
CONTINUOUS
 10
205.7403277872
 20
221.3358587476
  0
VERTEX
  8
0
 62
7
  6
CONTINUOUS
 10
205.7512913395
 20
221.3773906012
  0
VERTEX
  8
0
 62
7
  6
CONTINUOUS
 10
205.7618176084
 20
221.4125437999
  0
VERTEX
  8
0
 62
7
  6
CONTINUOUS
 10
205.7717613757
 20
221.4418745871
  0
VERTEX
  8
0
 62
7
  6
CONTINUOUS
 10
205.7809969117
 20
221.4659622771
  0
VERTEX
  8
0
 62
7
  6
CONTINUOUS
 10
205.7894137404
 20
221.4853642793
  0
VERTEX
  8
0
 62
7
  6
CONTINUOUS
 10
205.7968351457
 20
221.5004433905
  0
VERTEX
  8
0
 62
7
  6
CONTINUOUS
 10
205.8029653003
 20
221.5113643206
  0
VERTEX
  8
0
 62
7
  6
CONTINUOUS
 10
205.8073234659
 20
221.5181227134
  0
VERTEX
  8
0
 62
7
  6
CONTINUOUS
 10
205.8084803069
 20
221.5197274247
  0
SEQEND
  0
LINE
  8
0
 62
7
  6
CONTINUOUS
 10
206.8966242872
 20
230.9590238249
 11
206.3917578114
 21
229.1925285532
  0
LINE
  8
SURFACE
 62
7
  6
CONTINUOUS
 10
206.3917577566
 20
229.1925283613
 11
207.3488876472
 21
232.5414641838
  0
POLYLINE
  8
0
 62
7
  6
CONTINUOUS
 66
1
 70
0
  0
VERTEX
  8
0
 62
7
  6
CONTINUOUS
 10
209.3807097814
 20
218.8112236834
  0
VERTEX
  8
0
 62
7
  6
CONTINUOUS
 10
209.3875841318
 20
218.7452339195
  0
VERTEX
  8
0
 62
7
  6
CONTINUOUS
 10
209.4006394469
 20
218.6629058848
  0
VERTEX
  8
0
 62
7
  6
CONTINUOUS
 10
209.4180261103
 20
218.5832234834
  0
VERTEX
  8
0
 62
7
  6
CONTINUOUS
 10
209.4392766716
 20
218.5063988995
  0
VERTEX
  8
0
 62
7
  6
CONTINUOUS
 10
209.4639186485
 20
218.4326418946
  0
VERTEX
  8
0
 62
7
  6
CONTINUOUS
 10
209.4914716988
 20
218.3621346391
  0
VERTEX
  8
0
 62
7
  6
CONTINUOUS
 10
209.5214891806
 20
218.2949381065
  0
VERTEX
  8
0
 62
7
  6
CONTINUOUS
 10
209.5535488646
 20
218.2310574149
  0
VERTEX
  8
0
 62
7
  6
CONTINUOUS
 10
209.5872281599
 20
218.1704991529
  0
VERTEX
  8
0
 62
7
  6
CONTINUOUS
 10
209.6221013332
 20
218.1132655731
  0
VERTEX
  8
0
 62
7
  6
CONTINUOUS
 10
209.6577373492
 20
218.0593542661
  0
VERTEX
  8
0
 62
7
  6
CONTINUOUS
 10
209.693701232
 20
218.00875669
  0
VERTEX
  8
0
 62
7
  6
CONTINUOUS
 10
209.7295403628
 20
217.9614776019
  0
VERTEX
  8
0
 62
7
  6
CONTINUOUS
 10
209.7647388849
 20
217.9175872436
  0
VERTEX
  8
0
 62
7
  6
CONTINUOUS
 10
209.7987617754
 20
217.8771647324
  0
VERTEX
  8
0
 62
7
  6
CONTINUOUS
 10
209.8312133008
 20
217.8401333471
  0
VERTEX
  8
0
 62
7
  6
CONTINUOUS
 10
209.8619307176
 20
217.8061945158
  0
VERTEX
  8
0
 62
7
  6
CONTINUOUS
 10
209.8907471257
 20
217.7751179084
  0
VERTEX
  8
0
 62
7
  6
CONTINUOUS
 10
209.9636350304
 20
217.698010195
  0
SEQEND
  0
LINE
  8
0
 62
7
  6
CONTINUOUS
 10
209.3807152136
 20
218.8111613534
 11
209.2189357844
 21
220.8326111009
  0
LINE
  8
0
 62
7
  6
CONTINUOUS
 10
209.9917554303
 20
217.6675932414
 11
209.9917554303
 21
217.2964238622
  0
LINE
  8
0
 62
7
  6
CONTINUOUS
 10
215.7417554303
 20
232.5964238622
 11
215.7417554303
 21
217.7964238622
  0
POLYLINE
  8
0
 62
7
  6
CONTINUOUS
 66
1
 70
0
  0
VERTEX
  8
0
 62
7
  6
CONTINUOUS
 10
64.7417555122
 20
97.7416714693
  0
VERTEX
  8
0
 62
7
  6
CONTINUOUS
 10
64.7433867421
 20
97.7161381982
  0
VERTEX
  8
0
 62
7
  6
CONTINUOUS
 10
64.7484456479
 20
97.6902877387
  0
VERTEX
  8
0
 62
7
  6
CONTINUOUS
 10
64.7568703232
 20
97.6652610954
  0
VERTEX
  8
0
 62
7
  6
CONTINUOUS
 10
64.7685059499
 20
97.641554547
  0
VERTEX
  8
0
 62
7
  6
CONTINUOUS
 10
64.7831065012
 20
97.6196341473
  0
VERTEX
  8
0
 62
7
  6
CONTINUOUS
 10
64.8003414383
 20
97.5999145047
  0
VERTEX
  8
0
 62
7
  6
CONTINUOUS
 10
64.8197845852
 20
97.5827578938
  0
VERTEX
  8
0
 62
7
  6
CONTINUOUS
 10
64.8407686284
 20
97.5685329415
  0
VERTEX
  8
0
 62
7
  6
CONTINUOUS
 10
64.8625057049
 20
97.5574236195
  0
VERTEX
  8
0
 62
7
  6
CONTINUOUS
 10
64.8841862106
 20
97.5493855068
  0
VERTEX
  8
0
 62
7
  6
CONTINUOUS
 10
64.9050972942
 20
97.5441552077
  0
VERTEX
  8
0
 62
7
  6
CONTINUOUS
 10
64.9248765477
 20
97.5412988472
  0
VERTEX
  8
0
 62
7
  6
CONTINUOUS
 10
64.9444680072
 20
97.5403719921
  0
SEQEND
  0
LINE
  8
0
 62
7
  6
CONTINUOUS
 10
64.7417554303
 20
97.7416703451
 11
64.7417554303
 21
152.4558272412
  0
LINE
  8
0
 62
7
  6
CONTINUOUS
 10
67.0563959497
 20
119.9403719912
 11
67.0563959497
 21
146.9403719912
  0
LINE
  8
0
 62
7
  6
CONTINUOUS
 10
70.6271149109
 20
146.9403719912
 11
70.6271149109
 21
119.9403719912
  0
LINE
  8
0
 62
7
  6
CONTINUOUS
 10
71.3417554303
 20
97.740371046
 11
71.3417554303
 21
103.8494817612
  0
LINE
  8
0
 62
7
  6
CONTINUOUS
 10
71.3417554303
 20
108.2312622213
 11
71.3417554303
 21
109.2249169912
  0
LINE
  8
0
 62
7
  6
CONTINUOUS
 10
74.7417554303
 20
165.1403715272
 11
74.7417554303
 21
159.0312622213
  0
LINE
  8
0
 62
7
  6
CONTINUOUS
 10
74.7417554303
 20
154.6494817612
 11
74.7417554303
 21
153.6558269912
  0
LINE
  8
0
 62
7
  6
CONTINUOUS
 10
75.4563959497
 20
115.9403719912
 11
75.4563959497
 21
142.9403719912
  0
LINE
  8
0
 62
7
  6
CONTINUOUS
 10
79.0271149109
 20
142.9403719912
 11
79.0271149109
 21
115.9403719912
  0
LINE
  8
0
 62
7
  6
CONTINUOUS
 10
79.7417554303
 20
153.6558269912
 11
79.7417554303
 21
154.6494817612
  0
LINE
  8
0
 62
7
  6
CONTINUOUS
 10
79.7417554303
 20
159.0312622213
 11
79.7417554303
 21
165.1403715272
  0
LINE
  8
0
 62
7
  6
CONTINUOUS
 10
83.1417554303
 20
109.2249169912
 11
83.1417554303
 21
108.2312622213
  0
LINE
  8
0
 62
7
  6
CONTINUOUS
 10
83.1417554303
 20
103.8494817612
 11
83.1417554303
 21
97.7403710473
  0
LINE
  8
0
 62
7
  6
CONTINUOUS
 10
83.8563959497
 20
146.9403719912
 11
83.8563959497
 21
119.9403719912
  0
LINE
  8
0
 62
7
  6
CONTINUOUS
 10
87.4271149109
 20
119.9403719912
 11
87.4271149109
 21
146.9403719912
  0
LINE
  8
0
 62
7
  6
CONTINUOUS
 10
88.1417554303
 20
97.7403719912
 11
88.1417554303
 21
103.8494817612
  0
LINE
  8
0
 62
7
  6
CONTINUOUS
 10
88.1417554303
 20
108.2312622213
 11
88.1417554303
 21
109.2249169912
  0
POLYLINE
  8
0
 62
7
  6
CONTINUOUS
 66
1
 70
0
  0
VERTEX
  8
0
 62
7
  6
CONTINUOUS
 10
89.7417349509
 20
106.031785643
  0
VERTEX
  8
0
 62
7
  6
CONTINUOUS
 10
89.7411393839
 20
105.9933162093
  0
VERTEX
  8
0
 62
7
  6
CONTINUOUS
 10
89.7397170183
 20
105.9547349176
  0
SEQEND
  0
POLYLINE
  8
0
 62
7
  6
CONTINUOUS
 66
1
 70
0
  0
VERTEX
  8
0
 62
7
  6
CONTINUOUS
 10
64.7417554303
 20
152.4558272412
  0
VERTEX
  8
0
 62
7
  6
CONTINUOUS
 10
64.7434442331
 20
152.4531517127
  0
VERTEX
  8
0
 62
7
  6
CONTINUOUS
 10
64.7484942333
 20
152.4510572678
  0
VERTEX
  8
0
 62
7
  6
CONTINUOUS
 10
64.7568366247
 20
152.4495330815
  0
VERTEX
  8
0
 62
7
  6
CONTINUOUS
 10
64.7683431964
 20
152.44855984
  0
VERTEX
  8
0
 62
7
  6
CONTINUOUS
 10
64.782827385
 20
152.448110087
  0
VERTEX
  8
0
 62
7
  6
CONTINUOUS
 10
64.8000473242
 20
152.4481486257
  0
VERTEX
  8
0
 62
7
  6
CONTINUOUS
 10
64.819710685
 20
152.4486329906
  0
VERTEX
  8
0
 62
7
  6
CONTINUOUS
 10
64.8414809024
 20
152.4495140038
  0
VERTEX
  8
0
 62
7
  6
CONTINUOUS
 10
64.8649842734
 20
152.4507364398
  0
VERTEX
  8
0
 62
7
  6
CONTINUOUS
 10
64.8898174197
 20
152.4522398287
  0
VERTEX
  8
0
 62
7
  6
CONTINUOUS
 10
64.9155547121
 20
152.453959411
  0
VERTEX
  8
0
 62
7
  6
CONTINUOUS
 10
64.9417554303
 20
152.4558272412
  0
SEQEND
  0
LINE
  8
0
 62
7
  6
CONTINUOUS
 10
91.5417554303
 20
165.1403719912
 11
91.5417554303
 21
159.0312622213
  0
LINE
  8
0
 62
7
  6
CONTINUOUS
 10
91.5417554303
 20
154.6494817612
 11
91.5417554303
 21
153.6558269912
  0
LINE
  8
0
 62
7
  6
CONTINUOUS
 10
92.2563959497
 20
142.9403719912
 11
92.2563959497
 21
115.9403719912
  0
LINE
  8
0
 62
7
  6
CONTINUOUS
 10
95.8271149109
 20
115.9403719912
 11
95.8271149109
 21
142.9403719912
  0
LINE
  8
0
 62
7
  6
CONTINUOUS
 10
96.5417554303
 20
153.6558269912
 11
96.5417554303
 21
154.6494817612
  0
LINE
  8
0
 62
7
  6
CONTINUOUS
 10
96.5417554303
 20
159.0312622213
 11
96.5417554303
 21
165.1403715272
  0
LINE
  8
0
 62
7
  6
CONTINUOUS
 10
99.9417554303
 20
109.2249169912
 11
99.9417554303
 21
108.2312622213
  0
LINE
  8
0
 62
7
  6
CONTINUOUS
 10
99.9417554303
 20
103.8494817612
 11
99.9417554303
 21
97.7403719912
  0
LINE
  8
0
 62
7
  6
CONTINUOUS
 10
100.6563959497
 20
146.9403719912
 11
100.6563959497
 21
119.9403719912
  0
LINE
  8
0
 62
7
  6
CONTINUOUS
 10
104.2271149109
 20
119.9403719912
 11
104.2271149109
 21
146.9403719912
  0
LINE
  8
0
 62
7
  6
CONTINUOUS
 10
104.9417554303
 20
97.7403719912
 11
104.9417554303
 21
103.8494817612
  0
LINE
  8
0
 62
7
  6
CONTINUOUS
 10
104.9417554303
 20
108.2312622213
 11
104.9417554303
 21
109.2249169912
  0
POLYLINE
  8
SURFACE
 62
7
  6
CONTINUOUS
 66
1
 70
0
  0
VERTEX
  8
SURFACE
 62
7
  6
CONTINUOUS
 10
188.8206568364
 20
97.5403719934
  0
VERTEX
  8
SURFACE
 62
7
  6
CONTINUOUS
 10
188.859216709
 20
97.5410015896
  0
VERTEX
  8
SURFACE
 62
7
  6
CONTINUOUS
 10
188.9323314622
 20
97.5461326317
  0
VERTEX
  8
SURFACE
 62
7
  6
CONTINUOUS
 10
188.9996153841
 20
97.5567729111
  0
VERTEX
  8
SURFACE
 62
7
  6
CONTINUOUS
 10
189.0623658884
 20
97.5739857152
  0
VERTEX
  8
SURFACE
 62
7
  6
CONTINUOUS
 10
189.1199137524
 20
97.5989663249
  0
VERTEX
  8
SURFACE
 62
7
  6
CONTINUOUS
 10
189.1697659522
 20
97.631618289
  0
VERTEX
  8
SURFACE
 62
7
  6
CONTINUOUS
 10
189.2096948496
 20
97.669763376
  0
VERTEX
  8
SURFACE
 62
7
  6
CONTINUOUS
 10
189.2376704246
 20
97.7072296327
  0
VERTEX
  8
SURFACE
 62
7
  6
CONTINUOUS
 10
189.2579336354
 20
97.742791067
  0
VERTEX
  8
SURFACE
 62
7
  6
CONTINUOUS
 10
189.2732592589
 20
97.773759784
  0
VERTEX
  8
SURFACE
 62
7
  6
CONTINUOUS
 10
189.2885897429
 20
97.8083055727
  0
VERTEX
  8
SURFACE
 62
7
  6
CONTINUOUS
 10
189.3039782762
 20
97.8467912428
  0
VERTEX
  8
SURFACE
 62
7
  6
CONTINUOUS
 10
189.3193527578
 20
97.8892699446
  0
VERTEX
  8
SURFACE
 62
7
  6
CONTINUOUS
 10
189.3347522513
 20
97.936050483
  0
VERTEX
  8
SURFACE
 62
7
  6
CONTINUOUS
 10
189.3502618703
 20
97.9876302691
  0
VERTEX
  8
SURFACE
 62
7
  6
CONTINUOUS
 10
189.365949004
 20
98.0445362219
  0
VERTEX
  8
SURFACE
 62
7
  6
CONTINUOUS
 10
189.381865832
 20
98.1073222471
  0
VERTEX
  8
SURFACE
 62
7
  6
CONTINUOUS
 10
189.3980719237
 20
98.1766595783
  0
VERTEX
  8
SURFACE
 62
7
  6
CONTINUOUS
 10
189.4146297163
 20
98.2533429474
  0
VERTEX
  8
SURFACE
 62
7
  6
CONTINUOUS
 10
189.4315904933
 20
98.3382419207
  0
VERTEX
  8
SURFACE
 62
7
  6
CONTINUOUS
 10
189.4489945191
 20
98.4323020391
  0
VERTEX
  8
SURFACE
 62
7
  6
CONTINUOUS
 10
189.4668713215
 20
98.5365478462
  0
VERTEX
  8
SURFACE
 62
7
  6
CONTINUOUS
 10
189.4841114546
 20
98.6447353017
  0
SEQEND
  0
POLYLINE
  8
SURFACE
 62
7
  6
CONTINUOUS
 66
1
 70
0
  0
VERTEX
  8
SURFACE
 62
7
  6
CONTINUOUS
 10
205.6204446621
 20
97.540371961
  0
VERTEX
  8
SURFACE
 62
7
  6
CONTINUOUS
 10
205.6361054782
 20
97.5404721868
  0
VERTEX
  8
SURFACE
 62
7
  6
CONTINUOUS
 10
205.6965621401
 20
97.5429121641
  0
VERTEX
  8
SURFACE
 62
7
  6
CONTINUOUS
 10
205.7510603499
 20
97.5484392932
  0
VERTEX
  8
SURFACE
 62
7
  6
CONTINUOUS
 10
205.8013971712
 20
97.5571516805
  0
VERTEX
  8
SURFACE
 62
7
  6
CONTINUOUS
 10
205.8491896992
 20
97.5696411127
  0
VERTEX
  8
SURFACE
 62
7
  6
CONTINUOUS
 10
205.894940474
 20
97.5867857819
  0
VERTEX
  8
SURFACE
 62
7
  6
CONTINUOUS
 10
205.9374532734
 20
97.6090206075
  0
VERTEX
  8
SURFACE
 62
7
  6
CONTINUOUS
 10
205.975105746
 20
97.6359655269
  0
VERTEX
  8
SURFACE
 62
7
  6
CONTINUOUS
 10
206.0064370445
 20
97.6660886188
  0
VERTEX
  8
SURFACE
 62
7
  6
CONTINUOUS
 10
206.0309053462
 20
97.6970313698
  0
VERTEX
  8
SURFACE
 62
7
  6
CONTINUOUS
 10
206.0490821535
 20
97.7263855748
  0
VERTEX
  8
SURFACE
 62
7
  6
CONTINUOUS
 10
206.0613381608
 20
97.7493814031
  0
VERTEX
  8
SURFACE
 62
7
  6
CONTINUOUS
 10
206.0734713776
 20
97.7742130357
  0
VERTEX
  8
SURFACE
 62
7
  6
CONTINUOUS
 10
206.085743505
 20
97.8016132672
  0
VERTEX
  8
SURFACE
 62
7
  6
CONTINUOUS
 10
206.0981823682
 20
97.8318332248
  0
VERTEX
  8
SURFACE
 62
7
  6
CONTINUOUS
 10
206.110760446
 20
97.8650217256
  0
VERTEX
  8
SURFACE
 62
7
  6
CONTINUOUS
 10
206.1234624899
 20
97.9013323633
  0
VERTEX
  8
SURFACE
 62
7
  6
CONTINUOUS
 10
206.1362629629
 20
97.9408747884
  0
VERTEX
  8
SURFACE
 62
7
  6
CONTINUOUS
 10
206.1491670542
 20
97.9838385811
  0
VERTEX
  8
SURFACE
 62
7
  6
CONTINUOUS
 10
206.1621923391
 20
98.0304656668
  0
VERTEX
  8
SURFACE
 62
7
  6
CONTINUOUS
 10
206.1753499858
 20
98.0809935438
  0
VERTEX
  8
SURFACE
 62
7
  6
CONTINUOUS
 10
206.1886454294
 20
98.1356533929
  0
VERTEX
  8
SURFACE
 62
7
  6
CONTINUOUS
 10
206.2020791344
 20
98.194668479
  0
VERTEX
  8
SURFACE
 62
7
  6
CONTINUOUS
 10
206.2156473213
 20
98.2582531128
  0
VERTEX
  8
SURFACE
 62
7
  6
CONTINUOUS
 10
206.229342712
 20
98.3266123334
  0
VERTEX
  8
SURFACE
 62
7
  6
CONTINUOUS
 10
206.2431550944
 20
98.3999414569
  0
VERTEX
  8
SURFACE
 62
7
  6
CONTINUOUS
 10
206.2570717211
 20
98.4784253023
  0
VERTEX
  8
SURFACE
 62
7
  6
CONTINUOUS
 10
206.271077643
 20
98.5622374231
  0
VERTEX
  8
SURFACE
 62
7
  6
CONTINUOUS
 10
206.2841114588
 20
98.6447353292
  0
SEQEND
  0
LINE
  8
0
 62
7
  6
CONTINUOUS
 10
205.6204447672
 20
97.5403719916
 11
205.6205751574
 21
97.5403720052
  0
LINE
  8
SURFACE
 62
7
  6
CONTINUOUS
 10
64.9445626333
 20
97.5403719912
 11
71.1417554184
 21
97.5403719912
  0
LINE
  8
SURFACE
 62
7
  6
CONTINUOUS
 10
83.3417554327
 20
97.5403719912
 11
86.8781927851
 21
97.5403719912
  0
LINE
  8
0
 62
7
  6
CONTINUOUS
 10
86.8781927851
 20
97.5403719912
 11
87.9417554303
 21
97.5403719912
  0
LINE
  8
0
 62
7
  6
CONTINUOUS
 10
100.1417554303
 20
97.5403719912
 11
104.7417554303
 21
97.5403719912
  0
LINE
  8
SURFACE
 62
7
  6
CONTINUOUS
 10
116.9417554327
 20
97.5403719912
 11
121.5417554184
 21
97.5403719912
  0
LINE
  8
SURFACE
 62
7
  6
CONTINUOUS
 10
133.7417554327
 20
97.5403719912
 11
137.2781927851
 21
97.5403719912
  0
LINE
  8
0
 62
7
  6
CONTINUOUS
 10
137.2781927851
 20
97.5403719912
 11
138.3417554303
 21
97.5403719912
  0
LINE
  8
SURFACE
 62
7
  6
CONTINUOUS
 10
150.5417554327
 20
97.5403719912
 11
155.1417554184
 21
97.5403719912
  0
LINE
  8
0
 62
7
  6
CONTINUOUS
 10
167.2630874436
 20
97.5403719912
 11
171.9417554303
 21
97.5403719912
  0
LINE
  8
0
 62
7
  6
CONTINUOUS
 10
200.8632268006
 20
97.5403719912
 11
205.6202806558
 21
97.5403719912
  0
LINE
  8
SURFACE
 62
7
  6
CONTINUOUS
 10
188.8206569854
 20
97.5403720239
 11
184.0628745741
 21
97.5403720179
  0
LINE
  8
SURFACE
 62
7
  6
CONTINUOUS
 10
200.8629353601
 20
97.5403720049
 11
200.8628745741
 21
97.5403720179
  0
LINE
  8
0
 62
7
  6
CONTINUOUS
 10
108.3417554303
 20
165.1403715272
 11
108.3417554303
 21
159.0312622213
  0
LINE
  8
0
 62
7
  6
CONTINUOUS
 10
108.3417554303
 20
154.6494817612
 11
108.3417554303
 21
153.6558269912
  0
LINE
  8
0
 62
7
  6
CONTINUOUS
 10
109.0563959497
 20
142.9403719912
 11
109.0563959497
 21
115.9403719912
  0
LINE
  8
0
 62
7
  6
CONTINUOUS
 10
112.6271149109
 20
115.9403719912
 11
112.6271149109
 21
142.9403719912
  0
POLYLINE
  8
SURFACE
 62
7
  6
CONTINUOUS
 66
1
 70
0
  0
VERTEX
  8
SURFACE
 62
7
  6
CONTINUOUS
 10
167.1417554303
 20
97.5472359578
  0
VERTEX
  8
SURFACE
 62
7
  6
CONTINUOUS
 10
167.2078089677
 20
97.5416760118
  0
VERTEX
  8
SURFACE
 62
7
  6
CONTINUOUS
 10
167.2629313563
 20
97.5403720003
  0
SEQEND
  0
LINE
  8
0
 62
7
  6
CONTINUOUS
 10
113.3417554303
 20
153.6558269912
 11
113.3417554303
 21
154.6494817612
  0
LINE
  8
0
 62
7
  6
CONTINUOUS
 10
113.3417554303
 20
159.0312622213
 11
113.3417554303
 21
165.1403715272
  0
LINE
  8
0
 62
7
  6
CONTINUOUS
 10
116.7417554303
 20
109.2249169912
 11
116.7417554303
 21
108.2312622213
  0
LINE
  8
0
 62
7
  6
CONTINUOUS
 10
116.7417554303
 20
103.8494817612
 11
116.7417554303
 21
97.7403710473
  0
LINE
  8
0
 62
7
  6
CONTINUOUS
 10
117.4563959497
 20
146.9403719912
 11
117.4563959497
 21
119.9403719912
  0
POLYLINE
  8
0
 62
7
  6
CONTINUOUS
 66
1
 70
0
  0
VERTEX
  8
0
 62
7
  6
CONTINUOUS
 10
215.5417554303
 20
110.2249167413
  0
VERTEX
  8
0
 62
7
  6
CONTINUOUS
 10
215.5679541423
 20
110.2266400975
  0
VERTEX
  8
0
 62
7
  6
CONTINUOUS
 10
215.5936507769
 20
110.2317668694
  0
VERTEX
  8
0
 62
7
  6
CONTINUOUS
 10
215.6184554761
 20
110.2402085851
  0
VERTEX
  8
0
 62
7
  6
CONTINUOUS
 10
215.641873505
 20
110.2517798847
  0
VERTEX
  8
0
 62
7
  6
CONTINUOUS
 10
215.6635692454
 20
110.2662933053
  0
VERTEX
  8
0
 62
7
  6
CONTINUOUS
 10
215.6832207285
 20
110.2835393407
  0
VERTEX
  8
0
 62
7
  6
CONTINUOUS
 10
215.7004103031
 20
110.3031438735
  0
VERTEX
  8
0
 62
7
  6
CONTINUOUS
 10
215.7149171616
 20
110.3248416954
  0
VERTEX
  8
0
 62
7
  6
CONTINUOUS
 10
215.7265004614
 20
110.3483055575
  0
VERTEX
  8
0
 62
7
  6
CONTINUOUS
 10
215.7349110955
 20
110.3730429617
  0
VERTEX
  8
0
 62
7
  6
CONTINUOUS
 10
215.740034508
 20
110.3987364556
  0
VERTEX
  8
0
 62
7
  6
CONTINUOUS
 10
215.7417554303
 20
110.4249167413
  0
SEQEND
  0
LINE
  8
DEFAULT_1
 62
2
  6
CENTER
 10
62.7417554303
 20
106.0403719912
 11
206.8917554303
 21
106.0403719912
  0
POLYLINE
  8
SURFACE
 62
7
  6
CONTINUOUS
 66
1
 70
0
  0
VERTEX
  8
SURFACE
 62
7
  6
CONTINUOUS
 10
190.3565872734
 20
103.1347522767
  0
VERTEX
  8
SURFACE
 62
7
  6
CONTINUOUS
 10
190.3894824727
 20
103.1312105073
  0
VERTEX
  8
SURFACE
 62
7
  6
CONTINUOUS
 10
190.4214551919
 20
103.1296753731
  0
VERTEX
  8
SURFACE
 62
7
  6
CONTINUOUS
 10
190.4516220743
 20
103.1302424149
  0
VERTEX
  8
SURFACE
 62
7
  6
CONTINUOUS
 10
190.4791533821
 20
103.1329488442
  0
VERTEX
  8
SURFACE
 62
7
  6
CONTINUOUS
 10
190.5032961982
 20
103.1377727621
  0
VERTEX
  8
SURFACE
 62
7
  6
CONTINUOUS
 10
190.52339471
 20
103.1446342702
  0
VERTEX
  8
SURFACE
 62
7
  6
CONTINUOUS
 10
190.5389070914
 20
103.1533983097
  0
VERTEX
  8
SURFACE
 62
7
  6
CONTINUOUS
 10
190.5494187225
 20
103.1638789843
  0
VERTEX
  8
SURFACE
 62
7
  6
CONTINUOUS
 10
190.554651733
 20
103.175845043
  0
VERTEX
  8
SURFACE
 62
7
  6
CONTINUOUS
 10
190.5550005791
 20
103.1779770051
  0
SEQEND
  0
LINE
  8
0
 62
7
  6
CONTINUOUS
 10
121.0271149109
 20
119.9403719912
 11
121.0271149109
 21
146.9403719912
  0
LINE
  8
0
 62
7
  6
CONTINUOUS
 10
121.7417554303
 20
97.740371046
 11
121.7417554303
 21
103.8494817612
  0
LINE
  8
0
 62
7
  6
CONTINUOUS
 10
121.7417554303
 20
108.2312622213
 11
121.7417554303
 21
109.2249169912
  0
LINE
  8
SURFACE
 62
7
  6
CONTINUOUS
 10
181.9540760371
 20
110.2249167413
 11
174.1292823776
 21
110.2249167413
  0
LINE
  8
SURFACE
 62
7
  6
CONTINUOUS
 10
165.1540760371
 20
110.2249167413
 11
157.3292826967
 21
110.2249167413
  0
LINE
  8
SURFACE
 62
7
  6
CONTINUOUS
 10
148.3540760371
 20
110.2249167413
 11
140.5292823776
 21
110.2249167413
  0
LINE
  8
SURFACE
 62
7
  6
CONTINUOUS
 10
131.5540760371
 20
110.2249167413
 11
123.7292826937
 21
110.2249167413
  0
LINE
  8
SURFACE
 62
7
  6
CONTINUOUS
 10
114.7540760371
 20
110.2249167413
 11
106.9292823776
 21
110.2249167413
  0
LINE
  8
SURFACE
 62
7
  6
CONTINUOUS
 10
97.9540760371
 20
110.2249167413
 11
90.1292823776
 21
110.2249167413
  0
LINE
  8
SURFACE
 62
7
  6
CONTINUOUS
 10
81.1540760371
 20
110.2249167413
 11
73.3292827051
 21
110.2249167413
  0
LINE
  8
0
 62
7
  6
CONTINUOUS
 10
72.3417554303
 20
110.2249169912
 11
73.3292852541
 21
110.2249169912
  0
LINE
  8
0
 62
7
  6
CONTINUOUS
 10
81.1540731037
 20
110.2249169912
 11
82.1417554303
 21
110.2249169912
  0
LINE
  8
0
 62
7
  6
CONTINUOUS
 10
89.1417554303
 20
110.2249169912
 11
90.1292852541
 21
110.2249169912
  0
LINE
  8
0
 62
7
  6
CONTINUOUS
 10
97.9540731038
 20
110.2249169912
 11
98.9417554303
 21
110.2249169912
  0
LINE
  8
0
 62
7
  6
CONTINUOUS
 10
105.9417554303
 20
110.2249169912
 11
106.929285254
 21
110.2249169912
  0
LINE
  8
0
 62
7
  6
CONTINUOUS
 10
114.7540731067
 20
110.2249169912
 11
115.7417554303
 21
110.2249169912
  0
LINE
  8
0
 62
7
  6
CONTINUOUS
 10
122.7417554303
 20
110.2249169912
 11
123.729285254
 21
110.2249169912
  0
LINE
  8
0
 62
7
  6
CONTINUOUS
 10
131.5540731062
 20
110.2249169912
 11
132.5417554303
 21
110.2249169912
  0
LINE
  8
0
 62
7
  6
CONTINUOUS
 10
139.5417554303
 20
110.2249169912
 11
140.529285254
 21
110.2249169912
  0
LINE
  8
0
 62
7
  6
CONTINUOUS
 10
148.3540731039
 20
110.2249169912
 11
149.3417554303
 21
110.2249169912
  0
LINE
  8
0
 62
7
  6
CONTINUOUS
 10
156.3417554303
 20
110.2249169912
 11
157.329285254
 21
110.2249169912
  0
LINE
  8
0
 62
7
  6
CONTINUOUS
 10
165.1540760371
 20
110.2249169912
 11
166.1417554303
 21
110.2249169912
  0
LINE
  8
0
 62
7
  6
CONTINUOUS
 10
173.1417554303
 20
110.2249169912
 11
174.129285254
 21
110.2249169912
  0
LINE
  8
SURFACE
 62
7
  6
CONTINUOUS
 10
190.9292824956
 20
110.2249167413
 11
198.7540760371
 21
110.2249167413
  0
LINE
  8
SURFACE
 62
7
  6
CONTINUOUS
 10
207.7292824956
 20
110.2249167413
 11
215.5417554303
 21
110.2249167413
  0
LINE
  8
0
 62
7
  6
CONTINUOUS
 10
78.1667554303
 20
115.0800125107
 11
76.3167554303
 21
115.0800125107
  0
LINE
  8
0
 62
7
  6
CONTINUOUS
 10
93.1167554303
 20
115.0800125107
 11
94.9667554303
 21
115.0800125107
  0
LINE
  8
0
 62
7
  6
CONTINUOUS
 10
109.9167554303
 20
115.0800125107
 11
111.7667554303
 21
115.0800125107
  0
LINE
  8
0
 62
7
  6
CONTINUOUS
 10
126.7167554303
 20
115.0800125107
 11
128.5667554303
 21
115.0800125107
  0
LINE
  8
0
 62
7
  6
CONTINUOUS
 10
143.5167554303
 20
115.0800125107
 11
145.3667554303
 21
115.0800125107
  0
POLYLINE
  8
SURFACE
 62
7
  6
CONTINUOUS
 66
1
 70
0
  0
VERTEX
  8
SURFACE
 62
7
  6
CONTINUOUS
 10
181.9540760371
 20
110.2249167593
  0
VERTEX
  8
SURFACE
 62
7
  6
CONTINUOUS
 10
181.9691401066
 20
110.2241872361
  0
VERTEX
  8
SURFACE
 62
7
  6
CONTINUOUS
 10
181.9933637703
 20
110.2198641855
  0
VERTEX
  8
SURFACE
 62
7
  6
CONTINUOUS
 10
182.0180610146
 20
110.2113410051
  0
VERTEX
  8
SURFACE
 62
7
  6
CONTINUOUS
 10
182.042665716
 20
110.198653875
  0
VERTEX
  8
SURFACE
 62
7
  6
CONTINUOUS
 10
182.0668303367
 20
110.1820441276
  0
VERTEX
  8
SURFACE
 62
7
  6
CONTINUOUS
 10
182.0903255642
 20
110.1618029951
  0
VERTEX
  8
SURFACE
 62
7
  6
CONTINUOUS
 10
182.1130668525
 20
110.138122808
  0
VERTEX
  8
SURFACE
 62
7
  6
CONTINUOUS
 10
182.1350629008
 20
110.1110411582
  0
VERTEX
  8
SURFACE
 62
7
  6
CONTINUOUS
 10
182.156121626
 20
110.0808079082
  0
VERTEX
  8
SURFACE
 62
7
  6
CONTINUOUS
 10
182.1760124266
 20
110.047825474
  0
VERTEX
  8
SURFACE
 62
7
  6
CONTINUOUS
 10
182.194650346
 20
110.0123612642
  0
VERTEX
  8
SURFACE
 62
7
  6
CONTINUOUS
 10
182.2119866932
 20
109.9746549466
  0
VERTEX
  8
SURFACE
 62
7
  6
CONTINUOUS
 10
182.2280112628
 20
109.9348873456
  0
VERTEX
  8
SURFACE
 62
7
  6
CONTINUOUS
 10
182.2427454639
 20
109.8931590821
  0
VERTEX
  8
SURFACE
 62
7
  6
CONTINUOUS
 10
182.2562261966
 20
109.8494968789
  0
VERTEX
  8
SURFACE
 62
7
  6
CONTINUOUS
 10
182.2684575182
 20
109.804009583
  0
VERTEX
  8
SURFACE
 62
7
  6
CONTINUOUS
 10
182.2794410787
 20
109.7568377169
  0
VERTEX
  8
SURFACE
 62
7
  6
CONTINUOUS
 10
182.2891944689
 20
109.7080822494
  0
VERTEX
  8
SURFACE
 62
7
  6
CONTINUOUS
 10
182.2977429622
 20
109.6578162371
  0
VERTEX
  8
SURFACE
 62
7
  6
CONTINUOUS
 10
182.3051140623
 20
109.6061075202
  0
VERTEX
  8
SURFACE
 62
7
  6
CONTINUOUS
 10
182.3113374143
 20
109.5530439364
  0
VERTEX
  8
SURFACE
 62
7
  6
CONTINUOUS
 10
182.3164521494
 20
109.4986994858
  0
VERTEX
  8
SURFACE
 62
7
  6
CONTINUOUS
 10
182.3205024753
 20
109.4431438634
  0
VERTEX
  8
SURFACE
 62
7
  6
CONTINUOUS
 10
182.3235343664
 20
109.3864453206
  0
VERTEX
  8
SURFACE
 62
7
  6
CONTINUOUS
 10
182.3255879532
 20
109.3286731495
  0
VERTEX
  8
SURFACE
 62
7
  6
CONTINUOUS
 10
182.3266959949
 20
109.2698829589
  0
VERTEX
  8
SURFACE
 62
7
  6
CONTINUOUS
 10
182.3269236213
 20
109.2275926686
  0
SEQEND
  0
POLYLINE
  8
SURFACE
 62
7
  6
CONTINUOUS
 66
1
 70
0
  0
VERTEX
  8
SURFACE
 62
7
  6
CONTINUOUS
 10
198.7540760371
 20
110.2249167593
  0
VERTEX
  8
SURFACE
 62
7
  6
CONTINUOUS
 10
198.7691401066
 20
110.2241872361
  0
VERTEX
  8
SURFACE
 62
7
  6
CONTINUOUS
 10
198.7933637703
 20
110.2198641855
  0
VERTEX
  8
SURFACE
 62
7
  6
CONTINUOUS
 10
198.8180610146
 20
110.2113410051
  0
VERTEX
  8
SURFACE
 62
7
  6
CONTINUOUS
 10
198.842665716
 20
110.198653875
  0
VERTEX
  8
SURFACE
 62
7
  6
CONTINUOUS
 10
198.8668303367
 20
110.1820441276
  0
VERTEX
  8
SURFACE
 62
7
  6
CONTINUOUS
 10
198.8903255642
 20
110.1618029951
  0
VERTEX
  8
SURFACE
 62
7
  6
CONTINUOUS
 10
198.9130668525
 20
110.138122808
  0
VERTEX
  8
SURFACE
 62
7
  6
CONTINUOUS
 10
198.9350629008
 20
110.1110411582
  0
VERTEX
  8
SURFACE
 62
7
  6
CONTINUOUS
 10
198.956121626
 20
110.0808079082
  0
VERTEX
  8
SURFACE
 62
7
  6
CONTINUOUS
 10
198.9760124266
 20
110.047825474
  0
VERTEX
  8
SURFACE
 62
7
  6
CONTINUOUS
 10
198.994650346
 20
110.0123612642
  0
VERTEX
  8
SURFACE
 62
7
  6
CONTINUOUS
 10
199.0119866932
 20
109.9746549466
  0
VERTEX
  8
SURFACE
 62
7
  6
CONTINUOUS
 10
199.0280112628
 20
109.9348873456
  0
VERTEX
  8
SURFACE
 62
7
  6
CONTINUOUS
 10
199.0427454639
 20
109.8931590821
  0
VERTEX
  8
SURFACE
 62
7
  6
CONTINUOUS
 10
199.0562261966
 20
109.8494968789
  0
VERTEX
  8
SURFACE
 62
7
  6
CONTINUOUS
 10
199.0684575182
 20
109.804009583
  0
VERTEX
  8
SURFACE
 62
7
  6
CONTINUOUS
 10
199.0794410787
 20
109.7568377169
  0
VERTEX
  8
SURFACE
 62
7
  6
CONTINUOUS
 10
199.0891944689
 20
109.7080822494
  0
VERTEX
  8
SURFACE
 62
7
  6
CONTINUOUS
 10
199.0977429622
 20
109.6578162371
  0
VERTEX
  8
SURFACE
 62
7
  6
CONTINUOUS
 10
199.1051140623
 20
109.6061075202
  0
VERTEX
  8
SURFACE
 62
7
  6
CONTINUOUS
 10
199.1113374143
 20
109.5530439364
  0
VERTEX
  8
SURFACE
 62
7
  6
CONTINUOUS
 10
199.1164521494
 20
109.4986994858
  0
VERTEX
  8
SURFACE
 62
7
  6
CONTINUOUS
 10
199.1205024753
 20
109.4431438634
  0
VERTEX
  8
SURFACE
 62
7
  6
CONTINUOUS
 10
199.1235343664
 20
109.3864453206
  0
VERTEX
  8
SURFACE
 62
7
  6
CONTINUOUS
 10
199.1255879532
 20
109.3286731495
  0
VERTEX
  8
SURFACE
 62
7
  6
CONTINUOUS
 10
199.1266959949
 20
109.2698829589
  0
VERTEX
  8
SURFACE
 62
7
  6
CONTINUOUS
 10
199.1269236213
 20
109.2275926686
  0
SEQEND
  0
POLYLINE
  8
SURFACE
 62
7
  6
CONTINUOUS
 66
1
 70
0
  0
VERTEX
  8
SURFACE
 62
7
  6
CONTINUOUS
 10
207.1565872734
 20
103.1347522767
  0
VERTEX
  8
SURFACE
 62
7
  6
CONTINUOUS
 10
207.1894824727
 20
103.1312105073
  0
VERTEX
  8
SURFACE
 62
7
  6
CONTINUOUS
 10
207.2214551919
 20
103.1296753731
  0
VERTEX
  8
SURFACE
 62
7
  6
CONTINUOUS
 10
207.2516220743
 20
103.1302424149
  0
VERTEX
  8
SURFACE
 62
7
  6
CONTINUOUS
 10
207.2791533821
 20
103.1329488442
  0
VERTEX
  8
SURFACE
 62
7
  6
CONTINUOUS
 10
207.3032961982
 20
103.1377727621
  0
VERTEX
  8
SURFACE
 62
7
  6
CONTINUOUS
 10
207.32339471
 20
103.1446342702
  0
VERTEX
  8
SURFACE
 62
7
  6
CONTINUOUS
 10
207.3389070914
 20
103.1533983097
  0
VERTEX
  8
SURFACE
 62
7
  6
CONTINUOUS
 10
207.3494187225
 20
103.1638789843
  0
VERTEX
  8
SURFACE
 62
7
  6
CONTINUOUS
 10
207.354651733
 20
103.175845043
  0
VERTEX
  8
SURFACE
 62
7
  6
CONTINUOUS
 10
207.3550005791
 20
103.1779770051
  0
SEQEND
  0
LINE
  8
0
 62
7
  6
CONTINUOUS
 10
125.1417554303
 20
165.1403715272
 11
125.1417554303
 21
159.0312622213
  0
LINE
  8
0
 62
7
  6
CONTINUOUS
 10
125.1417554303
 20
154.6494817612
 11
125.1417554303
 21
153.6558269912
  0
LINE
  8
0
 62
7
  6
CONTINUOUS
 10
125.8563959497
 20
142.9403719912
 11
125.8563959497
 21
115.9403719912
  0
LINE
  8
0
 62
7
  6
CONTINUOUS
 10
129.4271149109
 20
115.9403719912
 11
129.4271149109
 21
142.9403719912
  0
LINE
  8
0
 62
7
  6
CONTINUOUS
 10
69.7667554303
 20
119.0800125107
 11
67.9167554303
 21
119.0800125107
  0
LINE
  8
0
 62
7
  6
CONTINUOUS
 10
84.7167554303
 20
119.0800125107
 11
86.5667554303
 21
119.0800125107
  0
LINE
  8
0
 62
7
  6
CONTINUOUS
 10
101.5167554303
 20
119.0800125107
 11
103.3667554303
 21
119.0800125107
  0
LINE
  8
0
 62
7
  6
CONTINUOUS
 10
118.3167554303
 20
119.0800125107
 11
120.1667554303
 21
119.0800125107
  0
LINE
  8
0
 62
7
  6
CONTINUOUS
 10
135.1167554303
 20
119.0800125107
 11
136.9667554303
 21
119.0800125107
  0
LINE
  8
0
 62
7
  6
CONTINUOUS
 10
151.7767554303
 20
120.5800125107
 11
153.6267554303
 21
120.5800125107
  0
LINE
  8
0
 62
7
  6
CONTINUOUS
 10
160.1767554303
 20
120.5800125107
 11
162.0267554303
 21
120.5800125107
  0
LINE
  8
0
 62
7
  6
CONTINUOUS
 10
168.5767554303
 20
120.5800125107
 11
170.4267554303
 21
120.5800125107
  0
LINE
  8
0
 62
7
  6
CONTINUOUS
 10
176.9767554303
 20
120.5800125107
 11
178.8267554303
 21
120.5800125107
  0
LINE
  8
0
 62
7
  6
CONTINUOUS
 10
185.3767554303
 20
120.5800125107
 11
187.2267554303
 21
120.5800125107
  0
LINE
  8
0
 62
7
  6
CONTINUOUS
 10
193.7767554303
 20
120.5800125107
 11
195.6267554303
 21
120.5800125107
  0
LINE
  8
0
 62
7
  6
CONTINUOUS
 10
202.1767554303
 20
120.5800125107
 11
204.0267554303
 21
120.5800125107
  0
LINE
  8
0
 62
7
  6
CONTINUOUS
 10
210.5767554303
 20
120.5800125107
 11
212.4267554303
 21
120.5800125107
  0
LINE
  8
0
 62
7
  6
CONTINUOUS
 10
130.1417554303
 20
153.6558269912
 11
130.1417554303
 21
154.6494817612
  0
LINE
  8
0
 62
7
  6
CONTINUOUS
 10
130.1417554303
 20
159.0312622213
 11
130.1417554303
 21
165.1403715272
  0
LINE
  8
0
 62
7
  6
CONTINUOUS
 10
133.5417554303
 20
109.2249169912
 11
133.5417554303
 21
108.2312622213
  0
LINE
  8
0
 62
7
  6
CONTINUOUS
 10
133.5417554303
 20
103.8494817612
 11
133.5417554303
 21
97.7403710473
  0
LINE
  8
0
 62
7
  6
CONTINUOUS
 10
134.2563959497
 20
146.9403719912
 11
134.2563959497
 21
119.9403719912
  0
LINE
  8
0
 62
7
  6
CONTINUOUS
 10
137.8271149109
 20
119.9403719912
 11
137.8271149109
 21
146.9403719912
  0
LINE
  8
0
 62
7
  6
CONTINUOUS
 10
138.5417554303
 20
97.7403719912
 11
138.5417554303
 21
103.8494817612
  0
LINE
  8
0
 62
7
  6
CONTINUOUS
 10
138.5417554303
 20
108.2312622213
 11
138.5417554303
 21
109.2249169912
  0
LINE
  8
DEFAULT_1
 62
2
  6
CENTER
 10
140.2417554303
 20
136.6903719912
 11
140.2417554303
 21
133.4404719912
  0
LINE
  8
0
 62
2
  6
CONTINUOUS
 10
140.2417554303
 20
132.4903719912
 11
140.2417554303
 21
130.3903719912
  0
LINE
  8
DEFAULT_1
 62
2
  6
CENTER
 10
140.2417554303
 20
126.1903719912
 11
140.2417554303
 21
129.4402719912
  0
POLYLINE
  8
0
 62
7
  6
CONTINUOUS
 66
1
 70
0
  0
VERTEX
  8
0
 62
7
  6
CONTINUOUS
 10
140.1417349509
 20
106.031785643
  0
VERTEX
  8
0
 62
7
  6
CONTINUOUS
 10
140.1411393839
 20
105.9933162095
  0
VERTEX
  8
0
 62
7
  6
CONTINUOUS
 10
140.1397170183
 20
105.9547349179
  0
SEQEND
  0
POLYLINE
  8
0
 62
7
  6
CONTINUOUS
 66
1
 70
0
  0
VERTEX
  8
0
 62
7
  6
CONTINUOUS
 10
140.3417776508
 20
156.8493159012
  0
VERTEX
  8
0
 62
7
  6
CONTINUOUS
 10
140.3423737938
 20
156.8875164664
  0
VERTEX
  8
0
 62
7
  6
CONTINUOUS
 10
140.3437937738
 20
156.9260076274
  0
SEQEND
  0
LINE
  8
0
 62
7
  6
CONTINUOUS
 10
193.7767554303
 20
129.3757314718
 11
195.6267554303
 21
129.3757314718
  0
LINE
  8
0
 62
7
  6
CONTINUOUS
 10
202.1767554303
 20
129.3757314718
 11
204.0267554303
 21
129.3757314718
  0
LINE
  8
0
 62
7
  6
CONTINUOUS
 10
210.5767554303
 20
129.3757314718
 11
212.4267554303
 21
129.3757314718
  0
LINE
  8
DEFAULT_1
 62
2
  6
CENTER
 10
145.4917554303
 20
131.4403719912
 11
142.2418554303
 21
131.4403719912
  0
LINE
  8
0
 62
2
  6
CONTINUOUS
 10
141.2917554303
 20
131.4403719912
 11
139.1917554303
 21
131.4403719912
  0
LINE
  8
DEFAULT_1
 62
2
  6
CENTER
 10
134.9917554303
 20
131.4403719912
 11
138.2416554303
 21
131.4403719912
  0
LINE
  8
0
 62
7
  6
CONTINUOUS
 10
141.9417554303
 20
165.1403719912
 11
141.9417554303
 21
159.0312622213
  0
LINE
  8
0
 62
7
  6
CONTINUOUS
 10
141.9417554303
 20
154.6494817612
 11
141.9417554303
 21
153.6558269912
  0
LINE
  8
0
 62
7
  6
CONTINUOUS
 10
142.6563959497
 20
142.9403719912
 11
142.6563959497
 21
115.9403719912
  0
LINE
  8
0
 62
7
  6
CONTINUOUS
 10
146.2271149109
 20
115.9403719912
 11
146.2271149109
 21
142.9403719912
  0
LINE
  8
0
 62
7
  6
CONTINUOUS
 10
212.4267554303
 20
133.5050125107
 11
210.5767554303
 21
133.5050125107
  0
LINE
  8
0
 62
7
  6
CONTINUOUS
 10
204.0267554303
 20
133.5050125107
 11
202.1767554303
 21
133.5050125107
  0
LINE
  8
0
 62
7
  6
CONTINUOUS
 10
195.6267554303
 20
133.5050125107
 11
193.7767554303
 21
133.5050125107
  0
LINE
  8
0
 62
7
  6
CONTINUOUS
 10
146.9417554303
 20
153.6558269912
 11
146.9417554303
 21
154.6494817612
  0
LINE
  8
0
 62
7
  6
CONTINUOUS
 10
146.9417554303
 20
159.0312622213
 11
146.9417554303
 21
165.1403715272
  0
LINE
  8
0
 62
7
  6
CONTINUOUS
 10
150.3417554303
 20
109.2249169912
 11
150.3417554303
 21
108.2312622213
  0
LINE
  8
0
 62
7
  6
CONTINUOUS
 10
150.3417554303
 20
103.8494817612
 11
150.3417554303
 21
97.7403710473
  0
LINE
  8
0
 62
7
  6
CONTINUOUS
 10
150.9163959497
 20
141.4403719912
 11
150.9163959497
 21
121.4403719912
  0
LINE
  8
0
 62
7
  6
CONTINUOUS
 10
212.4267554303
 20
142.3007314718
 11
210.5767554303
 21
142.3007314718
  0
LINE
  8
0
 62
7
  6
CONTINUOUS
 10
204.0267554303
 20
142.3007314718
 11
202.1767554303
 21
142.3007314718
  0
LINE
  8
0
 62
7
  6
CONTINUOUS
 10
195.6267554303
 20
142.3007314718
 11
193.7767554303
 21
142.3007314718
  0
LINE
  8
0
 62
7
  6
CONTINUOUS
 10
187.2267554303
 20
142.3007314718
 11
185.3767554303
 21
142.3007314718
  0
LINE
  8
0
 62
7
  6
CONTINUOUS
 10
178.8267554303
 20
142.3007314718
 11
176.9767554303
 21
142.3007314718
  0
LINE
  8
0
 62
7
  6
CONTINUOUS
 10
170.4267554303
 20
142.3007314718
 11
168.5767554303
 21
142.3007314718
  0
LINE
  8
0
 62
7
  6
CONTINUOUS
 10
162.0267554303
 20
142.3007314718
 11
160.1767554303
 21
142.3007314718
  0
LINE
  8
0
 62
7
  6
CONTINUOUS
 10
153.6267554303
 20
142.3007314718
 11
151.7767554303
 21
142.3007314718
  0
LINE
  8
0
 62
7
  6
CONTINUOUS
 10
154.4871149109
 20
121.4403719912
 11
154.4871149109
 21
141.4403719912
  0
LINE
  8
0
 62
7
  6
CONTINUOUS
 10
155.3417554303
 20
97.740371046
 11
155.3417554303
 21
103.8494817612
  0
LINE
  8
0
 62
7
  6
CONTINUOUS
 10
155.3417554303
 20
108.2312622213
 11
155.3417554303
 21
109.2249169912
  0
LINE
  8
0
 62
7
  6
CONTINUOUS
 10
145.3667554303
 20
143.8007314718
 11
143.5167554303
 21
143.8007314718
  0
LINE
  8
0
 62
7
  6
CONTINUOUS
 10
128.5667554303
 20
143.8007314718
 11
126.7167554303
 21
143.8007314718
  0
LINE
  8
0
 62
7
  6
CONTINUOUS
 10
111.7667554303
 20
143.8007314718
 11
109.9167554303
 21
143.8007314718
  0
LINE
  8
0
 62
7
  6
CONTINUOUS
 10
94.9667554303
 20
143.8007314718
 11
93.1167554303
 21
143.8007314718
  0
LINE
  8
0
 62
7
  6
CONTINUOUS
 10
76.3167554303
 20
143.8007314718
 11
78.1667554303
 21
143.8007314718
  0
LINE
  8
0
 62
7
  6
CONTINUOUS
 10
136.9667554303
 20
147.8007314718
 11
135.1167554303
 21
147.8007314718
  0
LINE
  8
0
 62
7
  6
CONTINUOUS
 10
120.1667554303
 20
147.8007314718
 11
118.3167554303
 21
147.8007314718
  0
LINE
  8
0
 62
7
  6
CONTINUOUS
 10
103.3667554303
 20
147.8007314718
 11
101.5167554303
 21
147.8007314718
  0
LINE
  8
0
 62
7
  6
CONTINUOUS
 10
86.5667554303
 20
147.8007314718
 11
84.7167554303
 21
147.8007314718
  0
LINE
  8
0
 62
7
  6
CONTINUOUS
 10
67.9167554303
 20
147.8007314718
 11
69.7667554303
 21
147.8007314718
  0
LINE
  8
0
 62
7
  6
CONTINUOUS
 10
158.7417554303
 20
165.1403715272
 11
158.7417554303
 21
159.0312622213
  0
LINE
  8
0
 62
7
  6
CONTINUOUS
 10
158.7417554303
 20
154.6494817612
 11
158.7417554303
 21
153.6558269912
  0
LINE
  8
0
 62
7
  6
CONTINUOUS
 10
159.3163959497
 20
141.4403719912
 11
159.3163959497
 21
121.4403719912
  0
LINE
  8
0
 62
7
  6
CONTINUOUS
 10
162.8871149109
 20
121.4403719912
 11
162.8871149109
 21
141.4403719912
  0
POLYLINE
  8
SURFACE
 62
7
  6
CONTINUOUS
 66
1
 70
0
  0
VERTEX
  8
SURFACE
 62
7
  6
CONTINUOUS
 10
174.901657911
 20
163.9279910746
  0
VERTEX
  8
SURFACE
 62
7
  6
CONTINUOUS
 10
174.7994332776
 20
163.6879022232
  0
VERTEX
  8
SURFACE
 62
7
  6
CONTINUOUS
 10
174.6985475686
 20
163.423862537
  0
VERTEX
  8
SURFACE
 62
7
  6
CONTINUOUS
 10
174.6025475128
 20
163.1444491788
  0
VERTEX
  8
SURFACE
 62
7
  6
CONTINUOUS
 10
174.5114841755
 20
162.8504431828
  0
VERTEX
  8
SURFACE
 62
7
  6
CONTINUOUS
 10
174.4254240143
 20
162.5426397509
  0
VERTEX
  8
SURFACE
 62
7
  6
CONTINUOUS
 10
174.3444424522
 20
162.2218470403
  0
VERTEX
  8
SURFACE
 62
7
  6
CONTINUOUS
 10
174.2686196338
 20
161.888886381
  0
VERTEX
  8
SURFACE
 62
7
  6
CONTINUOUS
 10
174.1980378668
 20
161.5445954625
  0
VERTEX
  8
SURFACE
 62
7
  6
CONTINUOUS
 10
174.132778756
 20
161.1898275223
  0
VERTEX
  8
SURFACE
 62
7
  6
CONTINUOUS
 10
174.0729203785
 20
160.8254465022
  0
VERTEX
  8
SURFACE
 62
7
  6
CONTINUOUS
 10
174.0185358046
 20
160.4523250904
  0
VERTEX
  8
SURFACE
 62
7
  6
CONTINUOUS
 10
173.9696917301
 20
160.0713404835
  0
VERTEX
  8
SURFACE
 62
7
  6
CONTINUOUS
 10
173.9279956734
 20
159.6983047257
  0
SEQEND
  0
LINE
  8
0
 62
7
  6
CONTINUOUS
 10
157.7417554303
 20
152.6558269912
 11
156.7542271008
 21
152.6558269912
  0
LINE
  8
0
 62
7
  6
CONTINUOUS
 10
148.9294380805
 20
152.6558269912
 11
147.9417554303
 21
152.6558269912
  0
LINE
  8
0
 62
7
  6
CONTINUOUS
 10
140.9417554303
 20
152.6558269912
 11
139.9542271008
 21
152.6558269912
  0
LINE
  8
0
 62
7
  6
CONTINUOUS
 10
132.1294380813
 20
152.6558269912
 11
131.1417554303
 21
152.6558269912
  0
LINE
  8
0
 62
7
  6
CONTINUOUS
 10
124.1417554303
 20
152.6558269912
 11
123.1542271008
 21
152.6558269912
  0
LINE
  8
0
 62
7
  6
CONTINUOUS
 10
115.3294380805
 20
152.6558269912
 11
114.3417554303
 21
152.6558269912
  0
LINE
  8
0
 62
7
  6
CONTINUOUS
 10
107.3417554303
 20
152.6558269912
 11
106.3542271008
 21
152.6558269912
  0
LINE
  8
0
 62
7
  6
CONTINUOUS
 10
98.5294380802
 20
152.6558269912
 11
97.5417554303
 21
152.6558269912
  0
LINE
  8
0
 62
7
  6
CONTINUOUS
 10
90.5417554303
 20
152.6558269912
 11
89.554229977
 21
152.6558272412
  0
LINE
  8
0
 62
7
  6
CONTINUOUS
 10
81.729438083
 20
152.6558269912
 11
80.7417554303
 21
152.6558269912
  0
LINE
  8
0
 62
7
  6
CONTINUOUS
 10
73.7417554303
 20
152.6558269912
 11
72.7542271007
 21
152.6558269912
  0
LINE
  8
SURFACE
 62
7
  6
CONTINUOUS
 10
64.9417554303
 20
152.6558272412
 11
72.7542299771
 21
152.6558272412
  0
LINE
  8
SURFACE
 62
7
  6
CONTINUOUS
 10
81.7294351494
 20
152.6558272412
 11
90.5417554303
 21
152.6558272412
  0
LINE
  8
SURFACE
 62
7
  6
CONTINUOUS
 10
98.5294351494
 20
152.6558272412
 11
106.3542299771
 21
152.6558272412
  0
LINE
  8
SURFACE
 62
7
  6
CONTINUOUS
 10
115.3294351494
 20
152.6558272412
 11
123.1542299771
 21
152.6558272412
  0
LINE
  8
SURFACE
 62
7
  6
CONTINUOUS
 10
132.1294351494
 20
152.6558272412
 11
139.9542299771
 21
152.6558272412
  0
LINE
  8
SURFACE
 62
7
  6
CONTINUOUS
 10
148.9294351494
 20
152.6558272412
 11
156.7542299771
 21
152.6558272412
  0
LINE
  8
SURFACE
 62
7
  6
CONTINUOUS
 10
165.7294351494
 20
152.6558272412
 11
173.5542298569
 21
152.6558272412
  0
LINE
  8
SURFACE
 62
7
  6
CONTINUOUS
 10
182.5294351494
 20
152.6558272412
 11
190.3542298569
 21
152.6558272412
  0
LINE
  8
SURFACE
 62
7
  6
CONTINUOUS
 10
199.3294351494
 20
152.6558272412
 11
207.1542298569
 21
152.6558272412
  0
LINE
  8
0
 62
7
  6
CONTINUOUS
 10
165.6727884771
 20
152.6603719912
 11
164.7417554303
 21
152.6603719912
  0
POLYLINE
  8
SURFACE
 62
7
  6
CONTINUOUS
 66
1
 70
0
  0
VERTEX
  8
SURFACE
 62
7
  6
CONTINUOUS
 10
165.7294351494
 20
152.6558272232
  0
VERTEX
  8
SURFACE
 62
7
  6
CONTINUOUS
 10
165.7255088074
 20
152.6558762807
  0
VERTEX
  8
SURFACE
 62
7
  6
CONTINUOUS
 10
165.7072319494
 20
152.6574214598
  0
VERTEX
  8
SURFACE
 62
7
  6
CONTINUOUS
 10
165.7047165626
 20
152.6578070361
  0
SEQEND
  0
LINE
  8
0
 62
7
  6
CONTINUOUS
 10
163.7417554303
 20
153.6603719912
 11
163.7417554303
 21
154.6494817612
  0
LINE
  8
0
 62
7
  6
CONTINUOUS
 10
163.7417554303
 20
159.0312622213
 11
163.7417554303
 21
165.1403715272
  0
LINE
  8
0
 62
7
  6
CONTINUOUS
 10
167.1417554303
 20
97.5472361317
 11
167.1417554303
 21
103.8494817612
  0
LINE
  8
0
 62
7
  6
CONTINUOUS
 10
167.1417554303
 20
108.2312622213
 11
167.1417554303
 21
109.2249169912
  0
LINE
  8
0
 62
7
  6
CONTINUOUS
 10
167.7163959497
 20
141.4403719912
 11
167.7163959497
 21
121.4403719912
  0
POLYLINE
  8
SURFACE
 62
7
  6
CONTINUOUS
 66
1
 70
0
  0
VERTEX
  8
SURFACE
 62
7
  6
CONTINUOUS
 10
174.9993988563
 20
164.2360051219
  0
VERTEX
  8
SURFACE
 62
7
  6
CONTINUOUS
 10
174.986847845
 20
164.1715630247
  0
VERTEX
  8
SURFACE
 62
7
  6
CONTINUOUS
 10
174.9657006945
 20
164.0944886513
  0
VERTEX
  8
SURFACE
 62
7
  6
CONTINUOUS
 10
174.9362627937
 20
164.0105904413
  0
VERTEX
  8
SURFACE
 62
7
  6
CONTINUOUS
 10
174.9016591993
 20
163.9279939383
  0
SEQEND
  0
POLYLINE
  8
SURFACE
 62
7
  6
CONTINUOUS
 66
1
 70
0
  0
VERTEX
  8
SURFACE
 62
7
  6
CONTINUOUS
 10
192.3029687598
 20
165.3403719864
  0
VERTEX
  8
SURFACE
 62
7
  6
CONTINUOUS
 10
192.2527055719
 20
165.3353451898
  0
VERTEX
  8
SURFACE
 62
7
  6
CONTINUOUS
 10
192.1990747225
 20
165.3183049346
  0
VERTEX
  8
SURFACE
 62
7
  6
CONTINUOUS
 10
192.1510341136
 20
165.2911477174
  0
VERTEX
  8
SURFACE
 62
7
  6
CONTINUOUS
 10
192.1107156585
 20
165.2574410801
  0
VERTEX
  8
SURFACE
 62
7
  6
CONTINUOUS
 10
192.0769602074
 20
165.2192995586
  0
VERTEX
  8
SURFACE
 62
7
  6
CONTINUOUS
 10
192.0480672831
 20
165.1775215507
  0
VERTEX
  8
SURFACE
 62
7
  6
CONTINUOUS
 10
192.0223362173
 20
165.131692261
  0
VERTEX
  8
SURFACE
 62
7
  6
CONTINUOUS
 10
191.9984422474
 20
165.0806995155
  0
VERTEX
  8
SURFACE
 62
7
  6
CONTINUOUS
 10
191.9756036103
 20
165.0234884268
  0
VERTEX
  8
SURFACE
 62
7
  6
CONTINUOUS
 10
191.9533369413
 20
164.9590549806
  0
VERTEX
  8
SURFACE
 62
7
  6
CONTINUOUS
 10
191.9313131788
 20
164.8863525824
  0
VERTEX
  8
SURFACE
 62
7
  6
CONTINUOUS
 10
191.9093322252
 20
164.8043909477
  0
VERTEX
  8
SURFACE
 62
7
  6
CONTINUOUS
 10
191.8872944272
 20
164.7123059348
  0
VERTEX
  8
SURFACE
 62
7
  6
CONTINUOUS
 10
191.8651498711
 20
164.6092834039
  0
VERTEX
  8
SURFACE
 62
7
  6
CONTINUOUS
 10
191.8428799582
 20
164.4945386261
  0
VERTEX
  8
SURFACE
 62
7
  6
CONTINUOUS
 10
191.8204900874
 20
164.3673204698
  0
VERTEX
  8
SURFACE
 62
7
  6
CONTINUOUS
 10
191.7993992761
 20
164.2360078337
  0
SEQEND
  0
POLYLINE
  8
SURFACE
 62
7
  6
CONTINUOUS
 66
1
 70
0
  0
VERTEX
  8
SURFACE
 62
7
  6
CONTINUOUS
 10
209.1030021654
 20
165.3403719594
  0
VERTEX
  8
SURFACE
 62
7
  6
CONTINUOUS
 10
209.0583231148
 20
165.3364131099
  0
VERTEX
  8
SURFACE
 62
7
  6
CONTINUOUS
 10
209.0028205866
 20
165.3199193392
  0
VERTEX
  8
SURFACE
 62
7
  6
CONTINUOUS
 10
208.95306506
 20
165.292558691
  0
VERTEX
  8
SURFACE
 62
7
  6
CONTINUOUS
 10
208.911666223
 20
165.2583723199
  0
VERTEX
  8
SURFACE
 62
7
  6
CONTINUOUS
 10
208.8775775328
 20
165.2200931543
  0
VERTEX
  8
SURFACE
 62
7
  6
CONTINUOUS
 10
208.8484356532
 20
165.1781151707
  0
VERTEX
  8
SURFACE
 62
7
  6
CONTINUOUS
 10
208.8222281905
 20
165.1314807968
  0
VERTEX
  8
SURFACE
 62
7
  6
CONTINUOUS
 10
208.797563857
 20
165.0786572761
  0
VERTEX
  8
SURFACE
 62
7
  6
CONTINUOUS
 10
208.773475525
 20
165.0177094502
  0
VERTEX
  8
SURFACE
 62
7
  6
CONTINUOUS
 10
208.7492718837
 20
164.9463229322
  0
VERTEX
  8
SURFACE
 62
7
  6
CONTINUOUS
 10
208.7247600395
 20
164.8629220271
  0
VERTEX
  8
SURFACE
 62
7
  6
CONTINUOUS
 10
208.6998978492
 20
164.7662123955
  0
VERTEX
  8
SURFACE
 62
7
  6
CONTINUOUS
 10
208.6747184078
 20
164.6551220202
  0
VERTEX
  8
SURFACE
 62
7
  6
CONTINUOUS
 10
208.6493059419
 20
164.5288280221
  0
VERTEX
  8
SURFACE
 62
7
  6
CONTINUOUS
 10
208.6237791142
 20
164.3867784598
  0
VERTEX
  8
SURFACE
 62
7
  6
CONTINUOUS
 10
208.5993992389
 20
164.236007592
  0
SEQEND
  0
POLYLINE
  8
0
 62
7
  6
CONTINUOUS
 66
1
 70
0
  0
VERTEX
  8
0
 62
7
  6
CONTINUOUS
 10
64.9417554303
 20
152.6558272412
  0
VERTEX
  8
0
 62
7
  6
CONTINUOUS
 10
64.9155567182
 20
152.654103885
  0
VERTEX
  8
0
 62
7
  6
CONTINUOUS
 10
64.8898600837
 20
152.6489771131
  0
VERTEX
  8
0
 62
7
  6
CONTINUOUS
 10
64.8650553844
 20
152.6405353974
  0
VERTEX
  8
0
 62
7
  6
CONTINUOUS
 10
64.8416373555
 20
152.6289640978
  0
VERTEX
  8
0
 62
7
  6
CONTINUOUS
 10
64.8199416152
 20
152.6144506772
  0
VERTEX
  8
0
 62
7
  6
CONTINUOUS
 10
64.800290132
 20
152.5972046418
  0
VERTEX
  8
0
 62
7
  6
CONTINUOUS
 10
64.7831005575
 20
152.577600109
  0
VERTEX
  8
0
 62
7
  6
CONTINUOUS
 10
64.768593699
 20
152.5559022871
  0
VERTEX
  8
0
 62
7
  6
CONTINUOUS
 10
64.7570103992
 20
152.532438425
  0
VERTEX
  8
0
 62
7
  6
CONTINUOUS
 10
64.7485997651
 20
152.5077010208
  0
VERTEX
  8
0
 62
7
  6
CONTINUOUS
 10
64.7434763526
 20
152.4820075269
  0
VERTEX
  8
0
 62
7
  6
CONTINUOUS
 10
64.7417554303
 20
152.4558272412
  0
SEQEND
  0
LINE
  8
DEFAULT_1
 62
2
  6
CENTER
 10
73.5917554303
 20
156.8403719912
 11
217.7417554303
 21
156.8403719912
  0
POLYLINE
  8
SURFACE
 62
7
  6
CONTINUOUS
 66
1
 70
0
  0
VERTEX
  8
SURFACE
 62
7
  6
CONTINUOUS
 10
182.5294351494
 20
152.6558272232
  0
VERTEX
  8
SURFACE
 62
7
  6
CONTINUOUS
 10
182.5143710844
 20
152.6565567451
  0
VERTEX
  8
SURFACE
 62
7
  6
CONTINUOUS
 10
182.4901474131
 20
152.6608797909
  0
VERTEX
  8
SURFACE
 62
7
  6
CONTINUOUS
 10
182.4654501601
 20
152.6694029611
  0
VERTEX
  8
SURFACE
 62
7
  6
CONTINUOUS
 10
182.4408454478
 20
152.6820900763
  0
VERTEX
  8
SURFACE
 62
7
  6
CONTINUOUS
 10
182.4166808142
 20
152.6986998052
  0
VERTEX
  8
SURFACE
 62
7
  6
CONTINUOUS
 10
182.3931855698
 20
152.718940919
  0
VERTEX
  8
SURFACE
 62
7
  6
CONTINUOUS
 10
182.3704442609
 20
152.7426210891
  0
VERTEX
  8
SURFACE
 62
7
  6
CONTINUOUS
 10
182.3484481909
 20
152.7697027222
  0
VERTEX
  8
SURFACE
 62
7
  6
CONTINUOUS
 10
182.3273894431
 20
152.7999359572
  0
VERTEX
  8
SURFACE
 62
7
  6
CONTINUOUS
 10
182.3074986161
 20
152.8329183839
  0
VERTEX
  8
SURFACE
 62
7
  6
CONTINUOUS
 10
182.2888606748
 20
152.868382582
  0
VERTEX
  8
SURFACE
 62
7
  6
CONTINUOUS
 10
182.271524306
 20
152.9060888905
  0
VERTEX
  8
SURFACE
 62
7
  6
CONTINUOUS
 10
182.2554997143
 20
152.9458564897
  0
VERTEX
  8
SURFACE
 62
7
  6
CONTINUOUS
 10
182.2407654908
 20
152.9875847595
  0
VERTEX
  8
SURFACE
 62
7
  6
CONTINUOUS
 10
182.2272847387
 20
153.0312469694
  0
VERTEX
  8
SURFACE
 62
7
  6
CONTINUOUS
 10
182.2150533999
 20
153.0767342725
  0
VERTEX
  8
SURFACE
 62
7
  6
CONTINUOUS
 10
182.2040698262
 20
153.1239061391
  0
VERTEX
  8
SURFACE
 62
7
  6
CONTINUOUS
 10
182.194316425
 20
153.1726616088
  0
VERTEX
  8
SURFACE
 62
7
  6
CONTINUOUS
 10
182.1857679212
 20
153.2229276379
  0
VERTEX
  8
SURFACE
 62
7
  6
CONTINUOUS
 10
182.1783968106
 20
153.2746363942
  0
VERTEX
  8
SURFACE
 62
7
  6
CONTINUOUS
 10
182.1721734534
 20
153.3277000057
  0
VERTEX
  8
SURFACE
 62
7
  6
CONTINUOUS
 10
182.1670587157
 20
153.3820444309
  0
VERTEX
  8
SURFACE
 62
7
  6
CONTINUOUS
 10
182.1630083826
 20
153.4376000868
  0
VERTEX
  8
SURFACE
 62
7
  6
CONTINUOUS
 10
182.1599764879
 20
153.4942986255
  0
VERTEX
  8
SURFACE
 62
7
  6
CONTINUOUS
 10
182.1579229092
 20
153.5520708991
  0
VERTEX
  8
SURFACE
 62
7
  6
CONTINUOUS
 10
182.1568148689
 20
153.6108610081
  0
VERTEX
  8
SURFACE
 62
7
  6
CONTINUOUS
 10
182.1565872369
 20
153.65315131
  0
SEQEND
  0
POLYLINE
  8
SURFACE
 62
7
  6
CONTINUOUS
 66
1
 70
0
  0
VERTEX
  8
SURFACE
 62
7
  6
CONTINUOUS
 10
199.3294351494
 20
152.6558272232
  0
VERTEX
  8
SURFACE
 62
7
  6
CONTINUOUS
 10
199.3143710844
 20
152.6565567451
  0
VERTEX
  8
SURFACE
 62
7
  6
CONTINUOUS
 10
199.2901474131
 20
152.6608797909
  0
VERTEX
  8
SURFACE
 62
7
  6
CONTINUOUS
 10
199.2654501601
 20
152.6694029611
  0
VERTEX
  8
SURFACE
 62
7
  6
CONTINUOUS
 10
199.2408454478
 20
152.6820900763
  0
VERTEX
  8
SURFACE
 62
7
  6
CONTINUOUS
 10
199.2166808142
 20
152.6986998052
  0
VERTEX
  8
SURFACE
 62
7
  6
CONTINUOUS
 10
199.1931855698
 20
152.718940919
  0
VERTEX
  8
SURFACE
 62
7
  6
CONTINUOUS
 10
199.1704442609
 20
152.7426210891
  0
VERTEX
  8
SURFACE
 62
7
  6
CONTINUOUS
 10
199.1484481909
 20
152.7697027222
  0
VERTEX
  8
SURFACE
 62
7
  6
CONTINUOUS
 10
199.1273894431
 20
152.7999359572
  0
VERTEX
  8
SURFACE
 62
7
  6
CONTINUOUS
 10
199.1074986161
 20
152.8329183839
  0
VERTEX
  8
SURFACE
 62
7
  6
CONTINUOUS
 10
199.0888606748
 20
152.868382582
  0
VERTEX
  8
SURFACE
 62
7
  6
CONTINUOUS
 10
199.071524306
 20
152.9060888905
  0
VERTEX
  8
SURFACE
 62
7
  6
CONTINUOUS
 10
199.0554997143
 20
152.9458564897
  0
VERTEX
  8
SURFACE
 62
7
  6
CONTINUOUS
 10
199.0407654908
 20
152.9875847595
  0
VERTEX
  8
SURFACE
 62
7
  6
CONTINUOUS
 10
199.0272847387
 20
153.0312469694
  0
VERTEX
  8
SURFACE
 62
7
  6
CONTINUOUS
 10
199.0150533999
 20
153.0767342725
  0
VERTEX
  8
SURFACE
 62
7
  6
CONTINUOUS
 10
199.0040698262
 20
153.1239061391
  0
VERTEX
  8
SURFACE
 62
7
  6
CONTINUOUS
 10
198.994316425
 20
153.1726616088
  0
VERTEX
  8
SURFACE
 62
7
  6
CONTINUOUS
 10
198.9857679212
 20
153.2229276379
  0
VERTEX
  8
SURFACE
 62
7
  6
CONTINUOUS
 10
198.9783968106
 20
153.2746363942
  0
VERTEX
  8
SURFACE
 62
7
  6
CONTINUOUS
 10
198.9721734534
 20
153.3277000057
  0
VERTEX
  8
SURFACE
 62
7
  6
CONTINUOUS
 10
198.9670587157
 20
153.3820444309
  0
VERTEX
  8
SURFACE
 62
7
  6
CONTINUOUS
 10
198.9630083826
 20
153.4376000868
  0
VERTEX
  8
SURFACE
 62
7
  6
CONTINUOUS
 10
198.9599764879
 20
153.4942986255
  0
VERTEX
  8
SURFACE
 62
7
  6
CONTINUOUS
 10
198.9579229092
 20
153.5520708991
  0
VERTEX
  8
SURFACE
 62
7
  6
CONTINUOUS
 10
198.9568148689
 20
153.6108610081
  0
VERTEX
  8
SURFACE
 62
7
  6
CONTINUOUS
 10
198.9565872369
 20
153.65315131
  0
SEQEND
  0
POLYLINE
  8
SURFACE
 62
7
  6
CONTINUOUS
 66
1
 70
0
  0
VERTEX
  8
SURFACE
 62
7
  6
CONTINUOUS
 10
183.3016590599
 20
98.9527503535
  0
VERTEX
  8
SURFACE
 62
7
  6
CONTINUOUS
 10
183.336496006
 20
98.8695501645
  0
VERTEX
  8
SURFACE
 62
7
  6
CONTINUOUS
 10
183.3658778885
 20
98.7856889025
  0
VERTEX
  8
SURFACE
 62
7
  6
CONTINUOUS
 10
183.3869712401
 20
98.7086514527
  0
VERTEX
  8
SURFACE
 62
7
  6
CONTINUOUS
 10
183.39939881
 20
98.6447391617
  0
SEQEND
  0
LINE
  8
0
 62
7
  6
CONTINUOUS
 10
171.2871149109
 20
121.4403719912
 11
171.2871149109
 21
141.4403719912
  0
LINE
  8
0
 62
7
  6
CONTINUOUS
 10
172.1417554303
 20
97.7403719912
 11
172.1417554303
 21
103.8494817612
  0
LINE
  8
0
 62
7
  6
CONTINUOUS
 10
172.1417554303
 20
108.2312622213
 11
172.1417554303
 21
109.2249169912
  0
LINE
  8
SURFACE
 62
7
  6
CONTINUOUS
 10
173.9269235871
 20
153.6531396783
 11
173.9269235871
 21
159.673872967
  0
POLYLINE
  8
SURFACE
 62
7
  6
CONTINUOUS
 66
1
 70
0
  0
VERTEX
  8
SURFACE
 62
7
  6
CONTINUOUS
 10
173.9269236469
 20
153.6531396783
  0
VERTEX
  8
SURFACE
 62
7
  6
CONTINUOUS
 10
173.9266804902
 20
153.6094530327
  0
VERTEX
  8
SURFACE
 62
7
  6
CONTINUOUS
 10
173.92555059
 20
153.5507137311
  0
VERTEX
  8
SURFACE
 62
7
  6
CONTINUOUS
 10
173.9234749153
 20
153.4929882021
  0
VERTEX
  8
SURFACE
 62
7
  6
CONTINUOUS
 10
173.920421911
 20
153.4363322579
  0
VERTEX
  8
SURFACE
 62
7
  6
CONTINUOUS
 10
173.9163519746
 20
153.3808237846
  0
VERTEX
  8
SURFACE
 62
7
  6
CONTINUOUS
 10
173.9112163766
 20
153.3265318274
  0
VERTEX
  8
SURFACE
 62
7
  6
CONTINUOUS
 10
173.904970264
 20
153.2735162848
  0
VERTEX
  8
SURFACE
 62
7
  6
CONTINUOUS
 10
173.8975770405
 20
153.2218506198
  0
VERTEX
  8
SURFACE
 62
7
  6
CONTINUOUS
 10
173.8890082471
 20
153.171626141
  0
VERTEX
  8
SURFACE
 62
7
  6
CONTINUOUS
 10
173.8792353161
 20
153.1229120507
  0
VERTEX
  8
SURFACE
 62
7
  6
CONTINUOUS
 10
173.8682316773
 20
153.0757804019
  0
VERTEX
  8
SURFACE
 62
7
  6
CONTINUOUS
 10
173.8559795927
 20
153.0303314551
  0
VERTEX
  8
SURFACE
 62
7
  6
CONTINUOUS
 10
173.8424780585
 20
152.986706645
  0
VERTEX
  8
SURFACE
 62
7
  6
CONTINUOUS
 10
173.8277231985
 20
152.9450158345
  0
VERTEX
  8
SURFACE
 62
7
  6
CONTINUOUS
 10
173.8116774614
 20
152.9052856702
  0
VERTEX
  8
SURFACE
 62
7
  6
CONTINUOUS
 10
173.794318668
 20
152.8676168838
  0
VERTEX
  8
SURFACE
 62
7
  6
CONTINUOUS
 10
173.7756562162
 20
152.8321904629
  0
VERTEX
  8
SURFACE
 62
7
  6
CONTINUOUS
 10
173.7557388423
 20
152.7992478396
  0
VERTEX
  8
SURFACE
 62
7
  6
CONTINUOUS
 10
173.73465054
 20
152.7690567704
  0
VERTEX
  8
SURFACE
 62
7
  6
CONTINUOUS
 10
173.7126216156
 20
152.7420212677
  0
VERTEX
  8
SURFACE
 62
7
  6
CONTINUOUS
 10
173.6898469908
 20
152.7183963077
  0
VERTEX
  8
SURFACE
 62
7
  6
CONTINUOUS
 10
173.6663182532
 20
152.6982216702
  0
VERTEX
  8
SURFACE
 62
7
  6
CONTINUOUS
 10
173.6421202991
 20
152.6816919018
  0
VERTEX
  8
SURFACE
 62
7
  6
CONTINUOUS
 10
173.6174875192
 20
152.6691017548
  0
VERTEX
  8
SURFACE
 62
7
  6
CONTINUOUS
 10
173.5927745438
 20
152.6606914011
  0
VERTEX
  8
SURFACE
 62
7
  6
CONTINUOUS
 10
173.5685516965
 20
152.6564865832
  0
VERTEX
  8
SURFACE
 62
7
  6
CONTINUOUS
 10
173.5542298569
 20
152.6558272381
  0
SEQEND
  0
POLYLINE
  8
SURFACE
 62
7
  6
CONTINUOUS
 66
1
 70
0
  0
VERTEX
  8
SURFACE
 62
7
  6
CONTINUOUS
 10
173.9279959295
 20
159.6983071953
  0
VERTEX
  8
SURFACE
 62
7
  6
CONTINUOUS
 10
173.9274742407
 20
159.692455171
  0
VERTEX
  8
SURFACE
 62
7
  6
CONTINUOUS
 10
173.9269601314
 20
159.6738010475
  0
SEQEND
  0
POLYLINE
  8
SURFACE
 62
7
  6
CONTINUOUS
 66
1
 70
0
  0
VERTEX
  8
SURFACE
 62
7
  6
CONTINUOUS
 10
175.5029687598
 20
165.3403719864
  0
VERTEX
  8
SURFACE
 62
7
  6
CONTINUOUS
 10
175.4527055719
 20
165.3353451898
  0
VERTEX
  8
SURFACE
 62
7
  6
CONTINUOUS
 10
175.3990747225
 20
165.3183049346
  0
VERTEX
  8
SURFACE
 62
7
  6
CONTINUOUS
 10
175.3510341136
 20
165.2911477174
  0
VERTEX
  8
SURFACE
 62
7
  6
CONTINUOUS
 10
175.3107156585
 20
165.2574410801
  0
VERTEX
  8
SURFACE
 62
7
  6
CONTINUOUS
 10
175.2769602074
 20
165.2192995586
  0
VERTEX
  8
SURFACE
 62
7
  6
CONTINUOUS
 10
175.2480672831
 20
165.1775215507
  0
VERTEX
  8
SURFACE
 62
7
  6
CONTINUOUS
 10
175.2223362173
 20
165.131692261
  0
VERTEX
  8
SURFACE
 62
7
  6
CONTINUOUS
 10
175.1984422474
 20
165.0806995155
  0
VERTEX
  8
SURFACE
 62
7
  6
CONTINUOUS
 10
175.1756036103
 20
165.0234884268
  0
VERTEX
  8
SURFACE
 62
7
  6
CONTINUOUS
 10
175.1533369413
 20
164.9590549806
  0
VERTEX
  8
SURFACE
 62
7
  6
CONTINUOUS
 10
175.1313131788
 20
164.8863525824
  0
VERTEX
  8
SURFACE
 62
7
  6
CONTINUOUS
 10
175.1093322252
 20
164.8043909477
  0
VERTEX
  8
SURFACE
 62
7
  6
CONTINUOUS
 10
175.0872944272
 20
164.7123059348
  0
VERTEX
  8
SURFACE
 62
7
  6
CONTINUOUS
 10
175.0651498711
 20
164.6092834039
  0
VERTEX
  8
SURFACE
 62
7
  6
CONTINUOUS
 10
175.0428799582
 20
164.4945386261
  0
VERTEX
  8
SURFACE
 62
7
  6
CONTINUOUS
 10
175.0204900874
 20
164.3673204698
  0
VERTEX
  8
SURFACE
 62
7
  6
CONTINUOUS
 10
174.9993992761
 20
164.2360078337
  0
SEQEND
  0
LINE
  8
SURFACE
 62
7
  6
CONTINUOUS
 10
197.3804880678
 20
165.3403719305
 11
197.3805425285
 21
165.3403719853
  0
LINE
  8
0
 62
7
  6
CONTINUOUS
 10
143.2053180756
 20
165.3403719912
 11
142.1417554303
 21
165.3403719912
  0
LINE
  8
0
 62
7
  6
CONTINUOUS
 10
92.8053180756
 20
165.3403719912
 11
91.7417554303
 21
165.3403719912
  0
LINE
  8
SURFACE
 62
7
  6
CONTINUOUS
 10
74.9417554303
 20
165.3403719912
 11
79.5417554303
 21
165.3403719912
  0
LINE
  8
SURFACE
 62
7
  6
CONTINUOUS
 10
92.8053180756
 20
165.3403719912
 11
96.3417554303
 21
165.3403719912
  0
LINE
  8
SURFACE
 62
7
  6
CONTINUOUS
 10
108.5417554303
 20
165.3403719912
 11
113.1417554303
 21
165.3403719912
  0
LINE
  8
SURFACE
 62
7
  6
CONTINUOUS
 10
125.3417554303
 20
165.3403719912
 11
129.9417554303
 21
165.3403719912
  0
LINE
  8
SURFACE
 62
7
  6
CONTINUOUS
 10
143.2053180756
 20
165.3403719912
 11
146.7417554303
 21
165.3403719912
  0
LINE
  8
SURFACE
 62
7
  6
CONTINUOUS
 10
158.9417554303
 20
165.3403719912
 11
163.5417554303
 21
165.3403719912
  0
LINE
  8
SURFACE
 62
7
  6
CONTINUOUS
 10
175.5029438387
 20
165.3403719912
 11
180.5805670368
 21
165.3403719912
  0
LINE
  8
0
 62
7
  6
CONTINUOUS
 10
192.3029438387
 20
165.3403719912
 11
197.3805670368
 21
165.3403719912
  0
LINE
  8
SURFACE
 62
7
  6
CONTINUOUS
 10
209.1029443074
 20
165.3403719912
 11
215.5389402067
 21
165.3403719912
  0
POLYLINE
  8
SURFACE
 62
7
  6
CONTINUOUS
 66
1
 70
0
  0
VERTEX
  8
SURFACE
 62
7
  6
CONTINUOUS
 10
182.3284840203
 20
103.1781851195
  0
VERTEX
  8
SURFACE
 62
7
  6
CONTINUOUS
 10
182.3277752598
 20
103.1846822366
  0
VERTEX
  8
SURFACE
 62
7
  6
CONTINUOUS
 10
182.3269235872
 20
103.2031197994
  0
SEQEND
  0
LINE
  8
0
 62
7
  6
CONTINUOUS
 10
176.1163959497
 20
141.4403719912
 11
176.1163959497
 21
121.4403719912
  0
LINE
  8
0
 62
7
  6
CONTINUOUS
 10
179.6871149109
 20
121.4403719912
 11
179.6871149109
 21
141.4403719912
  0
POLYLINE
  8
SURFACE
 62
7
  6
CONTINUOUS
 66
1
 70
0
  0
VERTEX
  8
SURFACE
 62
7
  6
CONTINUOUS
 10
191.701657911
 20
163.9279910746
  0
VERTEX
  8
SURFACE
 62
7
  6
CONTINUOUS
 10
191.5994332776
 20
163.6879022232
  0
VERTEX
  8
SURFACE
 62
7
  6
CONTINUOUS
 10
191.4985475686
 20
163.423862537
  0
VERTEX
  8
SURFACE
 62
7
  6
CONTINUOUS
 10
191.4025475128
 20
163.1444491788
  0
VERTEX
  8
SURFACE
 62
7
  6
CONTINUOUS
 10
191.3114841755
 20
162.8504431827
  0
VERTEX
  8
SURFACE
 62
7
  6
CONTINUOUS
 10
191.2254240143
 20
162.5426397509
  0
VERTEX
  8
SURFACE
 62
7
  6
CONTINUOUS
 10
191.1444424522
 20
162.2218470403
  0
VERTEX
  8
SURFACE
 62
7
  6
CONTINUOUS
 10
191.0686196338
 20
161.888886381
  0
VERTEX
  8
SURFACE
 62
7
  6
CONTINUOUS
 10
190.9980378668
 20
161.5445954625
  0
VERTEX
  8
SURFACE
 62
7
  6
CONTINUOUS
 10
190.932778756
 20
161.1898275223
  0
VERTEX
  8
SURFACE
 62
7
  6
CONTINUOUS
 10
190.8729203785
 20
160.8254465022
  0
VERTEX
  8
SURFACE
 62
7
  6
CONTINUOUS
 10
190.8185358046
 20
160.4523250904
  0
VERTEX
  8
SURFACE
 62
7
  6
CONTINUOUS
 10
190.7696917301
 20
160.0713404835
  0
VERTEX
  8
SURFACE
 62
7
  6
CONTINUOUS
 10
190.7279956734
 20
159.6983047257
  0
SEQEND
  0
POLYLINE
  8
SURFACE
 62
7
  6
CONTINUOUS
 66
1
 70
0
  0
VERTEX
  8
SURFACE
 62
7
  6
CONTINUOUS
 10
182.3284840203
 20
103.1781851195
  0
VERTEX
  8
SURFACE
 62
7
  6
CONTINUOUS
 10
182.3288358878
 20
103.1760309365
  0
VERTEX
  8
SURFACE
 62
7
  6
CONTINUOUS
 10
182.3340640768
 20
103.1641189288
  0
VERTEX
  8
SURFACE
 62
7
  6
CONTINUOUS
 10
182.3445749541
 20
103.1536678762
  0
VERTEX
  8
SURFACE
 62
7
  6
CONTINUOUS
 10
182.3600897741
 20
103.1449108592
  0
VERTEX
  8
SURFACE
 62
7
  6
CONTINUOUS
 10
182.380192808
 20
103.1380360547
  0
VERTEX
  8
SURFACE
 62
7
  6
CONTINUOUS
 10
182.4043410898
 20
103.1331812168
  0
VERTEX
  8
SURFACE
 62
7
  6
CONTINUOUS
 10
182.4318778244
 20
103.1304293413
  0
VERTEX
  8
SURFACE
 62
7
  6
CONTINUOUS
 10
182.4620494059
 20
103.1298058127
  0
VERTEX
  8
SURFACE
 62
7
  6
CONTINUOUS
 10
182.4940257709
 20
103.1312772612
  0
VERTEX
  8
SURFACE
 62
7
  6
CONTINUOUS
 10
182.5269235871
 20
103.1347522767
  0
SEQEND
  0
POLYLINE
  8
SURFACE
 62
7
  6
CONTINUOUS
 66
1
 70
0
  0
VERTEX
  8
SURFACE
 62
7
  6
CONTINUOUS
 10
183.3993994158
 20
98.6447352382
  0
VERTEX
  8
SURFACE
 62
7
  6
CONTINUOUS
 10
183.4136636472
 20
98.5546761412
  0
VERTEX
  8
SURFACE
 62
7
  6
CONTINUOUS
 10
183.4287635833
 20
98.4649885257
  0
VERTEX
  8
SURFACE
 62
7
  6
CONTINUOUS
 10
183.4435766527
 20
98.382440728
  0
VERTEX
  8
SURFACE
 62
7
  6
CONTINUOUS
 10
183.4581253045
 20
98.3064217653
  0
VERTEX
  8
SURFACE
 62
7
  6
CONTINUOUS
 10
183.4724372734
 20
98.2363650711
  0
VERTEX
  8
SURFACE
 62
7
  6
CONTINUOUS
 10
183.4865460625
 20
98.1717450919
  0
VERTEX
  8
SURFACE
 62
7
  6
CONTINUOUS
 10
183.5004922637
 20
98.1120717366
  0
VERTEX
  8
SURFACE
 62
7
  6
CONTINUOUS
 10
183.5143237081
 20
98.0568917854
  0
VERTEX
  8
SURFACE
 62
7
  6
CONTINUOUS
 10
183.5280967946
 20
98.0057863906
  0
VERTEX
  8
SURFACE
 62
7
  6
CONTINUOUS
 10
183.541876303
 20
97.9583751529
  0
VERTEX
  8
SURFACE
 62
7
  6
CONTINUOUS
 10
183.5556952714
 20
97.91444228
  0
VERTEX
  8
SURFACE
 62
7
  6
CONTINUOUS
 10
183.569549078
 20
97.8739038828
  0
VERTEX
  8
SURFACE
 62
7
  6
CONTINUOUS
 10
183.5834499751
 20
97.8366196444
  0
VERTEX
  8
SURFACE
 62
7
  6
CONTINUOUS
 10
183.5974084853
 20
97.8024488621
  0
VERTEX
  8
SURFACE
 62
7
  6
CONTINUOUS
 10
183.6114568548
 20
97.771198777
  0
VERTEX
  8
SURFACE
 62
7
  6
CONTINUOUS
 10
183.6256609391
 20
97.7426340435
  0
VERTEX
  8
SURFACE
 62
7
  6
CONTINUOUS
 10
183.6442200491
 20
97.7098009807
  0
VERTEX
  8
SURFACE
 62
7
  6
CONTINUOUS
 10
183.6709557992
 20
97.6730893837
  0
VERTEX
  8
SURFACE
 62
7
  6
CONTINUOUS
 10
183.709329846
 20
97.6351980933
  0
VERTEX
  8
SURFACE
 62
7
  6
CONTINUOUS
 10
183.7571410975
 20
97.6025095835
  0
VERTEX
  8
SURFACE
 62
7
  6
CONTINUOUS
 10
183.8127939057
 20
97.5769730898
  0
VERTEX
  8
SURFACE
 62
7
  6
CONTINUOUS
 10
183.8727965419
 20
97.5592258901
  0
VERTEX
  8
SURFACE
 62
7
  6
CONTINUOUS
 10
183.9367418253
 20
97.5478698638
  0
VERTEX
  8
SURFACE
 62
7
  6
CONTINUOUS
 10
184.0058329253
 20
97.541774329
  0
VERTEX
  8
SURFACE
 62
7
  6
CONTINUOUS
 10
184.0628746211
 20
97.5403720126
  0
SEQEND
  0
POLYLINE
  8
SURFACE
 62
7
  6
CONTINUOUS
 66
1
 70
0
  0
VERTEX
  8
SURFACE
 62
7
  6
CONTINUOUS
 10
182.3283803201
 20
103.178742022
  0
VERTEX
  8
SURFACE
 62
7
  6
CONTINUOUS
 10
182.3698362005
 20
102.8081971916
  0
VERTEX
  8
SURFACE
 62
7
  6
CONTINUOUS
 10
182.4186967332
 20
102.4272432939
  0
VERTEX
  8
SURFACE
 62
7
  6
CONTINUOUS
 10
182.4730974476
 20
102.0541543929
  0
VERTEX
  8
SURFACE
 62
7
  6
CONTINUOUS
 10
182.5329716535
 20
101.689807697
  0
VERTEX
  8
SURFACE
 62
7
  6
CONTINUOUS
 10
182.5982462396
 20
101.3350761503
  0
VERTEX
  8
SURFACE
 62
7
  6
CONTINUOUS
 10
182.6688430912
 20
100.9908238418
  0
VERTEX
  8
SURFACE
 62
7
  6
CONTINUOUS
 10
182.7446805612
 20
100.6579041192
  0
VERTEX
  8
SURFACE
 62
7
  6
CONTINUOUS
 10
182.8256763217
 20
100.3371546566
  0
VERTEX
  8
SURFACE
 62
7
  6
CONTINUOUS
 10
182.9117502474
 20
100.0293966318
  0
VERTEX
  8
SURFACE
 62
7
  6
CONTINUOUS
 10
183.0028269526
 20
99.7354380482
  0
VERTEX
  8
SURFACE
 62
7
  6
CONTINUOUS
 10
183.098840032
 20
99.4560739749
  0
VERTEX
  8
SURFACE
 62
7
  6
CONTINUOUS
 10
183.199738512
 20
99.1920852855
  0
VERTEX
  8
SURFACE
 62
7
  6
CONTINUOUS
 10
183.3016579684
 20
98.9527527804
  0
SEQEND
  0
LINE
  8
SURFACE
 62
7
  6
CONTINUOUS
 10
182.1555916362
 20
159.6975556559
 11
182.1565872734
 21
159.6776241831
  0
LINE
  8
SURFACE
 62
7
  6
CONTINUOUS
 10
182.1565872734
 20
159.6776241831
 11
182.1565872734
 21
153.6531513086
  0
LINE
  8
SURFACE
 62
7
  6
CONTINUOUS
 10
182.3269235871
 20
103.2031197994
 11
182.3269235871
 21
109.2275926701
  0
LINE
  8
0
 62
7
  6
CONTINUOUS
 10
184.5163959497
 20
141.4403719912
 11
184.5163959497
 21
121.4403719912
  0
POLYLINE
  8
SURFACE
 62
7
  6
CONTINUOUS
 66
1
 70
0
  0
VERTEX
  8
SURFACE
 62
7
  6
CONTINUOUS
 10
191.7993988563
 20
164.2360051219
  0
VERTEX
  8
SURFACE
 62
7
  6
CONTINUOUS
 10
191.786847845
 20
164.1715630247
  0
VERTEX
  8
SURFACE
 62
7
  6
CONTINUOUS
 10
191.7657006945
 20
164.0944886513
  0
VERTEX
  8
SURFACE
 62
7
  6
CONTINUOUS
 10
191.7362627937
 20
164.0105904413
  0
VERTEX
  8
SURFACE
 62
7
  6
CONTINUOUS
 10
191.7016591993
 20
163.9279939383
  0
SEQEND
  0
POLYLINE
  8
SURFACE
 62
7
  6
CONTINUOUS
 66
1
 70
0
  0
VERTEX
  8
SURFACE
 62
7
  6
CONTINUOUS
 10
173.9269235872
 20
159.6738027231
  0
VERTEX
  8
SURFACE
 62
7
  6
CONTINUOUS
 10
173.9272474727
 20
159.6732363267
  0
VERTEX
  8
SURFACE
 62
7
  6
CONTINUOUS
 10
173.9319573465
 20
159.6719776579
  0
VERTEX
  8
SURFACE
 62
7
  6
CONTINUOUS
 10
173.9421622247
 20
159.6713040274
  0
VERTEX
  8
SURFACE
 62
7
  6
CONTINUOUS
 10
173.95758404
 20
159.6711688506
  0
VERTEX
  8
SURFACE
 62
7
  6
CONTINUOUS
 10
173.9777922558
 20
159.6715125068
  0
VERTEX
  8
SURFACE
 62
7
  6
CONTINUOUS
 10
174.0022173442
 20
159.6722637513
  0
VERTEX
  8
SURFACE
 62
7
  6
CONTINUOUS
 10
174.0301688808
 20
159.6733415199
  0
VERTEX
  8
SURFACE
 62
7
  6
CONTINUOUS
 10
174.1269235871
 20
159.6776241831
  0
SEQEND
  0
POLYLINE
  8
SURFACE
 62
7
  6
CONTINUOUS
 66
1
 70
0
  0
VERTEX
  8
SURFACE
 62
7
  6
CONTINUOUS
 10
200.1016590599
 20
98.9527503535
  0
VERTEX
  8
SURFACE
 62
7
  6
CONTINUOUS
 10
200.136496006
 20
98.8695501645
  0
VERTEX
  8
SURFACE
 62
7
  6
CONTINUOUS
 10
200.1658778885
 20
98.7856889025
  0
VERTEX
  8
SURFACE
 62
7
  6
CONTINUOUS
 10
200.1869712401
 20
98.7086514527
  0
VERTEX
  8
SURFACE
 62
7
  6
CONTINUOUS
 10
200.19939881
 20
98.6447391617
  0
SEQEND
  0
POLYLINE
  8
SURFACE
 62
7
  6
CONTINUOUS
 66
1
 70
0
  0
VERTEX
  8
SURFACE
 62
7
  6
CONTINUOUS
 10
181.0841115718
 20
164.2360079156
  0
VERTEX
  8
SURFACE
 62
7
  6
CONTINUOUS
 10
181.0629101409
 20
164.3679793632
  0
VERTEX
  8
SURFACE
 62
7
  6
CONTINUOUS
 10
181.0405258353
 20
164.4951070981
  0
VERTEX
  8
SURFACE
 62
7
  6
CONTINUOUS
 10
181.0182625011
 20
164.6097656418
  0
VERTEX
  8
SURFACE
 62
7
  6
CONTINUOUS
 10
180.996125245
 20
164.7127080777
  0
VERTEX
  8
SURFACE
 62
7
  6
CONTINUOUS
 10
180.9740951546
 20
164.8047205997
  0
VERTEX
  8
SURFACE
 62
7
  6
CONTINUOUS
 10
180.9521219847
 20
164.8866183331
  0
VERTEX
  8
SURFACE
 62
7
  6
CONTINUOUS
 10
180.9301057312
 20
164.9592659468
  0
VERTEX
  8
SURFACE
 62
7
  6
CONTINUOUS
 10
180.9078459245
 20
165.0236538007
  0
VERTEX
  8
SURFACE
 62
7
  6
CONTINUOUS
 10
180.8850130913
 20
165.0808281892
  0
VERTEX
  8
SURFACE
 62
7
  6
CONTINUOUS
 10
180.8611237406
 20
165.1317918466
  0
VERTEX
  8
SURFACE
 62
7
  6
CONTINUOUS
 10
180.835395734
 20
165.1775987441
  0
VERTEX
  8
SURFACE
 62
7
  6
CONTINUOUS
 10
180.8065034285
 20
165.2193604007
  0
VERTEX
  8
SURFACE
 62
7
  6
CONTINUOUS
 10
180.7727449977
 20
165.2574904517
  0
VERTEX
  8
SURFACE
 62
7
  6
CONTINUOUS
 10
180.7324233014
 20
165.2911851703
  0
VERTEX
  8
SURFACE
 62
7
  6
CONTINUOUS
 10
180.6843902483
 20
165.318325122
  0
VERTEX
  8
SURFACE
 62
7
  6
CONTINUOUS
 10
180.6307881536
 20
165.3353486322
  0
VERTEX
  8
SURFACE
 62
7
  6
CONTINUOUS
 10
180.5805401165
 20
165.3403719896
  0
SEQEND
  0
LINE
  8
SURFACE
 62
7
  6
CONTINUOUS
 10
182.1547883264
 20
159.7043887593
 11
182.1555916362
 21
159.6975556559
  0
POLYLINE
  8
SURFACE
 62
7
  6
CONTINUOUS
 66
1
 70
0
  0
VERTEX
  8
SURFACE
 62
7
  6
CONTINUOUS
 10
182.1549685984
 20
159.7035569321
  0
VERTEX
  8
SURFACE
 62
7
  6
CONTINUOUS
 10
182.1136743999
 20
160.0725489635
  0
VERTEX
  8
SURFACE
 62
7
  6
CONTINUOUS
 10
182.0648136529
 20
160.4535041528
  0
VERTEX
  8
SURFACE
 62
7
  6
CONTINUOUS
 10
182.0104128047
 20
160.826593516
  0
VERTEX
  8
SURFACE
 62
7
  6
CONTINUOUS
 10
181.9505385717
 20
161.190939937
  0
VERTEX
  8
SURFACE
 62
7
  6
CONTINUOUS
 10
181.8852640291
 20
161.5456708778
  0
VERTEX
  8
SURFACE
 62
7
  6
CONTINUOUS
 10
181.814667255
 20
161.8899225203
  0
VERTEX
  8
SURFACE
 62
7
  6
CONTINUOUS
 10
181.7388298483
 20
162.2228417434
  0
VERTEX
  8
SURFACE
 62
7
  6
CONTINUOUS
 10
181.6578341113
 20
162.5435909352
  0
VERTEX
  8
SURFACE
 62
7
  6
CONTINUOUS
 10
181.5717601872
 20
162.8513487982
  0
VERTEX
  8
SURFACE
 62
7
  6
CONTINUOUS
 10
181.4806834891
 20
163.1453072184
  0
VERTEX
  8
SURFACE
 62
7
  6
CONTINUOUS
 10
181.384670457
 20
163.4246710333
  0
VERTEX
  8
SURFACE
 62
7
  6
CONTINUOUS
 10
181.2837721026
 20
163.6886593065
  0
VERTEX
  8
SURFACE
 62
7
  6
CONTINUOUS
 10
181.1818528922
 20
163.927991202
  0
SEQEND
  0
LINE
  8
0
 62
7
  6
CONTINUOUS
 10
188.0871149109
 20
121.4403719912
 11
188.0871149109
 21
141.4403719912
  0
LINE
  8
SURFACE
 62
7
  6
CONTINUOUS
 10
190.5565872734
 20
103.2031197994
 11
190.5565872734
 21
109.2276042175
  0
LINE
  8
SURFACE
 62
7
  6
CONTINUOUS
 10
190.7269235871
 20
153.6531396783
 11
190.7269235871
 21
159.673872967
  0
POLYLINE
  8
SURFACE
 62
7
  6
CONTINUOUS
 66
1
 70
0
  0
VERTEX
  8
SURFACE
 62
7
  6
CONTINUOUS
 10
190.5565871974
 20
109.227604216
  0
VERTEX
  8
SURFACE
 62
7
  6
CONTINUOUS
 10
190.5567687995
 20
109.2654056223
  0
VERTEX
  8
SURFACE
 62
7
  6
CONTINUOUS
 10
190.5576742647
 20
109.3189732325
  0
VERTEX
  8
SURFACE
 62
7
  6
CONTINUOUS
 10
190.559348577
 20
109.371467641
  0
VERTEX
  8
SURFACE
 62
7
  6
CONTINUOUS
 10
190.5618051595
 20
109.4229004313
  0
VERTEX
  8
SURFACE
 62
7
  6
CONTINUOUS
 10
190.565063312
 20
109.4732615584
  0
VERTEX
  8
SURFACE
 62
7
  6
CONTINUOUS
 10
190.5691524821
 20
109.5225417326
  0
VERTEX
  8
SURFACE
 62
7
  6
CONTINUOUS
 10
190.5741044626
 20
109.5707362799
  0
VERTEX
  8
SURFACE
 62
7
  6
CONTINUOUS
 10
190.5799474079
 20
109.6178261607
  0
VERTEX
  8
SURFACE
 62
7
  6
CONTINUOUS
 10
190.586713025
 20
109.6638290852
  0
VERTEX
  8
SURFACE
 62
7
  6
CONTINUOUS
 10
190.5944355927
 20
109.7087556245
  0
VERTEX
  8
SURFACE
 62
7
  6
CONTINUOUS
 10
190.6031515166
 20
109.7525997608
  0
VERTEX
  8
SURFACE
 62
7
  6
CONTINUOUS
 10
190.6128989457
 20
109.7953394659
  0
VERTEX
  8
SURFACE
 62
7
  6
CONTINUOUS
 10
190.6237165262
 20
109.8369343158
  0
VERTEX
  8
SURFACE
 62
7
  6
CONTINUOUS
 10
190.6356419975
 20
109.8773226212
  0
VERTEX
  8
SURFACE
 62
7
  6
CONTINUOUS
 10
190.6487012719
 20
109.9163936573
  0
VERTEX
  8
SURFACE
 62
7
  6
CONTINUOUS
 10
190.6629175218
 20
109.9540294135
  0
VERTEX
  8
SURFACE
 62
7
  6
CONTINUOUS
 10
190.6783018758
 20
109.99008243
  0
VERTEX
  8
SURFACE
 62
7
  6
CONTINUOUS
 10
190.6948350009
 20
110.0243496109
  0
VERTEX
  8
SURFACE
 62
7
  6
CONTINUOUS
 10
190.712453857
 20
110.0565766013
  0
VERTEX
  8
SURFACE
 62
7
  6
CONTINUOUS
 10
190.7310738186
 20
110.0865234077
  0
VERTEX
  8
SURFACE
 62
7
  6
CONTINUOUS
 10
190.7506900634
 20
110.1140994579
  0
VERTEX
  8
SURFACE
 62
7
  6
CONTINUOUS
 10
190.7712547821
 20
110.139134562
  0
VERTEX
  8
SURFACE
 62
7
  6
CONTINUOUS
 10
190.7926958645
 20
110.1614268346
  0
VERTEX
  8
SURFACE
 62
7
  6
CONTINUOUS
 10
190.8150957977
 20
110.1808907297
  0
VERTEX
  8
SURFACE
 62
7
  6
CONTINUOUS
 10
190.8384351593
 20
110.1972557708
  0
VERTEX
  8
SURFACE
 62
7
  6
CONTINUOUS
 10
190.8626448898
 20
110.2101645688
  0
VERTEX
  8
SURFACE
 62
7
  6
CONTINUOUS
 10
190.8876224482
 20
110.2192234813
  0
VERTEX
  8
SURFACE
 62
7
  6
CONTINUOUS
 10
190.9125125294
 20
110.2240108176
  0
VERTEX
  8
SURFACE
 62
7
  6
CONTINUOUS
 10
190.9292824956
 20
110.2249167423
  0
SEQEND
  0
POLYLINE
  8
SURFACE
 62
7
  6
CONTINUOUS
 66
1
 70
0
  0
VERTEX
  8
SURFACE
 62
7
  6
CONTINUOUS
 10
190.7269236469
 20
153.6531396783
  0
VERTEX
  8
SURFACE
 62
7
  6
CONTINUOUS
 10
190.7266804902
 20
153.6094530327
  0
VERTEX
  8
SURFACE
 62
7
  6
CONTINUOUS
 10
190.72555059
 20
153.5507137311
  0
VERTEX
  8
SURFACE
 62
7
  6
CONTINUOUS
 10
190.7234749153
 20
153.4929882021
  0
VERTEX
  8
SURFACE
 62
7
  6
CONTINUOUS
 10
190.720421911
 20
153.4363322579
  0
VERTEX
  8
SURFACE
 62
7
  6
CONTINUOUS
 10
190.7163519746
 20
153.3808237846
  0
VERTEX
  8
SURFACE
 62
7
  6
CONTINUOUS
 10
190.7112163766
 20
153.3265318274
  0
VERTEX
  8
SURFACE
 62
7
  6
CONTINUOUS
 10
190.704970264
 20
153.2735162848
  0
VERTEX
  8
SURFACE
 62
7
  6
CONTINUOUS
 10
190.6975770405
 20
153.2218506198
  0
VERTEX
  8
SURFACE
 62
7
  6
CONTINUOUS
 10
190.6890082471
 20
153.171626141
  0
VERTEX
  8
SURFACE
 62
7
  6
CONTINUOUS
 10
190.6792353161
 20
153.1229120507
  0
VERTEX
  8
SURFACE
 62
7
  6
CONTINUOUS
 10
190.6682316773
 20
153.0757804019
  0
VERTEX
  8
SURFACE
 62
7
  6
CONTINUOUS
 10
190.6559795927
 20
153.0303314551
  0
VERTEX
  8
SURFACE
 62
7
  6
CONTINUOUS
 10
190.6424780585
 20
152.986706645
  0
VERTEX
  8
SURFACE
 62
7
  6
CONTINUOUS
 10
190.6277231985
 20
152.9450158345
  0
VERTEX
  8
SURFACE
 62
7
  6
CONTINUOUS
 10
190.6116774614
 20
152.9052856702
  0
VERTEX
  8
SURFACE
 62
7
  6
CONTINUOUS
 10
190.594318668
 20
152.8676168838
  0
VERTEX
  8
SURFACE
 62
7
  6
CONTINUOUS
 10
190.5756562162
 20
152.8321904629
  0
VERTEX
  8
SURFACE
 62
7
  6
CONTINUOUS
 10
190.5557388423
 20
152.7992478396
  0
VERTEX
  8
SURFACE
 62
7
  6
CONTINUOUS
 10
190.53465054
 20
152.7690567704
  0
VERTEX
  8
SURFACE
 62
7
  6
CONTINUOUS
 10
190.5126216156
 20
152.7420212677
  0
VERTEX
  8
SURFACE
 62
7
  6
CONTINUOUS
 10
190.4898469908
 20
152.7183963077
  0
VERTEX
  8
SURFACE
 62
7
  6
CONTINUOUS
 10
190.4663182532
 20
152.6982216702
  0
VERTEX
  8
SURFACE
 62
7
  6
CONTINUOUS
 10
190.4421202991
 20
152.6816919018
  0
VERTEX
  8
SURFACE
 62
7
  6
CONTINUOUS
 10
190.4174875192
 20
152.6691017548
  0
VERTEX
  8
SURFACE
 62
7
  6
CONTINUOUS
 10
190.3927745438
 20
152.6606914011
  0
VERTEX
  8
SURFACE
 62
7
  6
CONTINUOUS
 10
190.3685516965
 20
152.6564865832
  0
VERTEX
  8
SURFACE
 62
7
  6
CONTINUOUS
 10
190.3542298569
 20
152.6558272381
  0
SEQEND
  0
POLYLINE
  8
SURFACE
 62
7
  6
CONTINUOUS
 66
1
 70
0
  0
VERTEX
  8
SURFACE
 62
7
  6
CONTINUOUS
 10
190.7279959295
 20
159.6983071953
  0
VERTEX
  8
SURFACE
 62
7
  6
CONTINUOUS
 10
190.7274742407
 20
159.692455171
  0
VERTEX
  8
SURFACE
 62
7
  6
CONTINUOUS
 10
190.7269601314
 20
159.6738010475
  0
SEQEND
  0
POLYLINE
  8
SURFACE
 62
7
  6
CONTINUOUS
 66
1
 70
0
  0
VERTEX
  8
SURFACE
 62
7
  6
CONTINUOUS
 10
208.501657911
 20
163.9279910746
  0
VERTEX
  8
SURFACE
 62
7
  6
CONTINUOUS
 10
208.3994332776
 20
163.6879022232
  0
VERTEX
  8
SURFACE
 62
7
  6
CONTINUOUS
 10
208.2985475686
 20
163.423862537
  0
VERTEX
  8
SURFACE
 62
7
  6
CONTINUOUS
 10
208.2025475128
 20
163.1444491788
  0
VERTEX
  8
SURFACE
 62
7
  6
CONTINUOUS
 10
208.1114841755
 20
162.8504431827
  0
VERTEX
  8
SURFACE
 62
7
  6
CONTINUOUS
 10
208.0254240143
 20
162.5426397509
  0
VERTEX
  8
SURFACE
 62
7
  6
CONTINUOUS
 10
207.9444424522
 20
162.2218470403
  0
VERTEX
  8
SURFACE
 62
7
  6
CONTINUOUS
 10
207.8686196338
 20
161.888886381
  0
VERTEX
  8
SURFACE
 62
7
  6
CONTINUOUS
 10
207.7980378668
 20
161.5445954625
  0
VERTEX
  8
SURFACE
 62
7
  6
CONTINUOUS
 10
207.732778756
 20
161.1898275223
  0
VERTEX
  8
SURFACE
 62
7
  6
CONTINUOUS
 10
207.6729203785
 20
160.8254465022
  0
VERTEX
  8
SURFACE
 62
7
  6
CONTINUOUS
 10
207.6185358046
 20
160.4523250904
  0
VERTEX
  8
SURFACE
 62
7
  6
CONTINUOUS
 10
207.5696917301
 20
160.0713404835
  0
VERTEX
  8
SURFACE
 62
7
  6
CONTINUOUS
 10
207.5279956734
 20
159.6983047257
  0
SEQEND
  0
POLYLINE
  8
SURFACE
 62
7
  6
CONTINUOUS
 66
1
 70
0
  0
VERTEX
  8
SURFACE
 62
7
  6
CONTINUOUS
 10
182.1491976537
 20
159.7187073378
  0
VERTEX
  8
SURFACE
 62
7
  6
CONTINUOUS
 10
182.1386831184
 20
159.7294190495
  0
VERTEX
  8
SURFACE
 62
7
  6
CONTINUOUS
 10
182.1231936963
 20
159.7382415369
  0
VERTEX
  8
SURFACE
 62
7
  6
CONTINUOUS
 10
182.1031342778
 20
159.7450055055
  0
VERTEX
  8
SURFACE
 62
7
  6
CONTINUOUS
 10
182.0790367121
 20
159.7495954613
  0
VERTEX
  8
SURFACE
 62
7
  6
CONTINUOUS
 10
182.0515483044
 20
159.7519541316
  0
VERTEX
  8
SURFACE
 62
7
  6
CONTINUOUS
 10
182.0214162122
 20
159.7520854343
  0
VERTEX
  8
SURFACE
 62
7
  6
CONTINUOUS
 10
181.9894677906
 20
159.750055537
  0
VERTEX
  8
SURFACE
 62
7
  6
CONTINUOUS
 10
181.9565872734
 20
159.7459917058
  0
SEQEND
  0
POLYLINE
  8
SURFACE
 62
7
  6
CONTINUOUS
 66
1
 70
0
  0
VERTEX
  8
SURFACE
 62
7
  6
CONTINUOUS
 10
181.1818518007
 20
163.9279936289
  0
VERTEX
  8
SURFACE
 62
7
  6
CONTINUOUS
 10
181.1470148553
 20
164.0111938163
  0
VERTEX
  8
SURFACE
 62
7
  6
CONTINUOUS
 10
181.1176329727
 20
164.0950550781
  0
VERTEX
  8
SURFACE
 62
7
  6
CONTINUOUS
 10
181.0965396207
 20
164.1720925286
  0
VERTEX
  8
SURFACE
 62
7
  6
CONTINUOUS
 10
181.0841120506
 20
164.2360048208
  0
SEQEND
  0
POLYLINE
  8
SURFACE
 62
7
  6
CONTINUOUS
 66
1
 70
0
  0
VERTEX
  8
SURFACE
 62
7
  6
CONTINUOUS
 10
182.1547883264
 20
159.7043887593
  0
VERTEX
  8
SURFACE
 62
7
  6
CONTINUOUS
 10
182.1544670588
 20
159.706324206
  0
VERTEX
  8
SURFACE
 62
7
  6
CONTINUOUS
 10
182.1491976537
 20
159.7187073378
  0
SEQEND
  0
POLYLINE
  8
SURFACE
 62
7
  6
CONTINUOUS
 66
1
 70
0
  0
VERTEX
  8
SURFACE
 62
7
  6
CONTINUOUS
 10
199.1284840203
 20
103.1781851195
  0
VERTEX
  8
SURFACE
 62
7
  6
CONTINUOUS
 10
199.1277752598
 20
103.1846822366
  0
VERTEX
  8
SURFACE
 62
7
  6
CONTINUOUS
 10
199.1269235872
 20
103.2031197994
  0
SEQEND
  0
LINE
  8
0
 62
7
  6
CONTINUOUS
 10
192.9163959497
 20
141.4403719912
 11
192.9163959497
 21
134.3653719912
  0
LINE
  8
0
 62
7
  6
CONTINUOUS
 10
192.9163959497
 20
128.5153719912
 11
192.9163959497
 21
121.4403719912
  0
LINE
  8
0
 62
7
  6
CONTINUOUS
 10
196.4871149109
 20
121.4403719912
 11
196.4871149109
 21
128.5153719912
  0
LINE
  8
0
 62
7
  6
CONTINUOUS
 10
196.4871149109
 20
134.3653719912
 11
196.4871149109
 21
141.4403719912
  0
LINE
  8
SURFACE
 62
7
  6
CONTINUOUS
 10
190.5565872734
 20
103.2031197994
 11
190.5557253022
 21
103.1845713361
  0
POLYLINE
  8
SURFACE
 62
7
  6
CONTINUOUS
 66
1
 70
0
  0
VERTEX
  8
SURFACE
 62
7
  6
CONTINUOUS
 10
189.4841120263
 20
98.6447389976
  0
VERTEX
  8
SURFACE
 62
7
  6
CONTINUOUS
 10
189.4965425889
 20
98.7086642057
  0
VERTEX
  8
SURFACE
 62
7
  6
CONTINUOUS
 10
189.517634177
 20
98.7856927585
  0
VERTEX
  8
SURFACE
 62
7
  6
CONTINUOUS
 10
189.5470117688
 20
98.8695421771
  0
VERTEX
  8
SURFACE
 62
7
  6
CONTINUOUS
 10
189.581851906
 20
98.9527505863
  0
SEQEND
  0
POLYLINE
  8
SURFACE
 62
7
  6
CONTINUOUS
 66
1
 70
0
  0
VERTEX
  8
SURFACE
 62
7
  6
CONTINUOUS
 10
199.1284840203
 20
103.1781851195
  0
VERTEX
  8
SURFACE
 62
7
  6
CONTINUOUS
 10
199.1288358878
 20
103.1760309365
  0
VERTEX
  8
SURFACE
 62
7
  6
CONTINUOUS
 10
199.1340640768
 20
103.1641189288
  0
VERTEX
  8
SURFACE
 62
7
  6
CONTINUOUS
 10
199.1445749541
 20
103.1536678762
  0
VERTEX
  8
SURFACE
 62
7
  6
CONTINUOUS
 10
199.1600897741
 20
103.1449108592
  0
VERTEX
  8
SURFACE
 62
7
  6
CONTINUOUS
 10
199.180192808
 20
103.1380360547
  0
VERTEX
  8
SURFACE
 62
7
  6
CONTINUOUS
 10
199.2043410898
 20
103.1331812168
  0
VERTEX
  8
SURFACE
 62
7
  6
CONTINUOUS
 10
199.2318778244
 20
103.1304293413
  0
VERTEX
  8
SURFACE
 62
7
  6
CONTINUOUS
 10
199.2620494059
 20
103.1298058127
  0
VERTEX
  8
SURFACE
 62
7
  6
CONTINUOUS
 10
199.2940257709
 20
103.1312772612
  0
VERTEX
  8
SURFACE
 62
7
  6
CONTINUOUS
 10
199.3269235871
 20
103.1347522767
  0
SEQEND
  0
POLYLINE
  8
SURFACE
 62
7
  6
CONTINUOUS
 66
1
 70
0
  0
VERTEX
  8
SURFACE
 62
7
  6
CONTINUOUS
 10
200.1993994158
 20
98.6447352382
  0
VERTEX
  8
SURFACE
 62
7
  6
CONTINUOUS
 10
200.2136636472
 20
98.5546761412
  0
VERTEX
  8
SURFACE
 62
7
  6
CONTINUOUS
 10
200.2287635833
 20
98.4649885257
  0
VERTEX
  8
SURFACE
 62
7
  6
CONTINUOUS
 10
200.2435766527
 20
98.382440728
  0
VERTEX
  8
SURFACE
 62
7
  6
CONTINUOUS
 10
200.2581253045
 20
98.3064217653
  0
VERTEX
  8
SURFACE
 62
7
  6
CONTINUOUS
 10
200.2724372734
 20
98.2363650711
  0
VERTEX
  8
SURFACE
 62
7
  6
CONTINUOUS
 10
200.2865460625
 20
98.1717450919
  0
VERTEX
  8
SURFACE
 62
7
  6
CONTINUOUS
 10
200.3004922637
 20
98.1120717366
  0
VERTEX
  8
SURFACE
 62
7
  6
CONTINUOUS
 10
200.3143237081
 20
98.0568917854
  0
VERTEX
  8
SURFACE
 62
7
  6
CONTINUOUS
 10
200.3280967946
 20
98.0057863906
  0
VERTEX
  8
SURFACE
 62
7
  6
CONTINUOUS
 10
200.341876303
 20
97.9583751529
  0
VERTEX
  8
SURFACE
 62
7
  6
CONTINUOUS
 10
200.3556952714
 20
97.91444228
  0
VERTEX
  8
SURFACE
 62
7
  6
CONTINUOUS
 10
200.369549078
 20
97.8739038828
  0
VERTEX
  8
SURFACE
 62
7
  6
CONTINUOUS
 10
200.3834499751
 20
97.8366196444
  0
VERTEX
  8
SURFACE
 62
7
  6
CONTINUOUS
 10
200.3974084853
 20
97.8024488621
  0
VERTEX
  8
SURFACE
 62
7
  6
CONTINUOUS
 10
200.4114568548
 20
97.771198777
  0
VERTEX
  8
SURFACE
 62
7
  6
CONTINUOUS
 10
200.4256609391
 20
97.7426340435
  0
VERTEX
  8
SURFACE
 62
7
  6
CONTINUOUS
 10
200.4442200491
 20
97.7098009807
  0
VERTEX
  8
SURFACE
 62
7
  6
CONTINUOUS
 10
200.4709557992
 20
97.6730893837
  0
VERTEX
  8
SURFACE
 62
7
  6
CONTINUOUS
 10
200.509329846
 20
97.6351980933
  0
VERTEX
  8
SURFACE
 62
7
  6
CONTINUOUS
 10
200.5571410975
 20
97.6025095835
  0
VERTEX
  8
SURFACE
 62
7
  6
CONTINUOUS
 10
200.6127939057
 20
97.5769730898
  0
VERTEX
  8
SURFACE
 62
7
  6
CONTINUOUS
 10
200.6727965419
 20
97.5592258901
  0
VERTEX
  8
SURFACE
 62
7
  6
CONTINUOUS
 10
200.7367418253
 20
97.5478698638
  0
VERTEX
  8
SURFACE
 62
7
  6
CONTINUOUS
 10
200.8058329253
 20
97.541774329
  0
VERTEX
  8
SURFACE
 62
7
  6
CONTINUOUS
 10
200.8628746211
 20
97.5403720126
  0
SEQEND
  0
POLYLINE
  8
SURFACE
 62
7
  6
CONTINUOUS
 66
1
 70
0
  0
VERTEX
  8
SURFACE
 62
7
  6
CONTINUOUS
 10
199.1283803201
 20
103.178742022
  0
VERTEX
  8
SURFACE
 62
7
  6
CONTINUOUS
 10
199.1698362005
 20
102.8081971916
  0
VERTEX
  8
SURFACE
 62
7
  6
CONTINUOUS
 10
199.2186967332
 20
102.4272432939
  0
VERTEX
  8
SURFACE
 62
7
  6
CONTINUOUS
 10
199.2730974476
 20
102.0541543929
  0
VERTEX
  8
SURFACE
 62
7
  6
CONTINUOUS
 10
199.3329716535
 20
101.689807697
  0
VERTEX
  8
SURFACE
 62
7
  6
CONTINUOUS
 10
199.3982462396
 20
101.3350761503
  0
VERTEX
  8
SURFACE
 62
7
  6
CONTINUOUS
 10
199.4688430912
 20
100.9908238418
  0
VERTEX
  8
SURFACE
 62
7
  6
CONTINUOUS
 10
199.5446805612
 20
100.6579041192
  0
VERTEX
  8
SURFACE
 62
7
  6
CONTINUOUS
 10
199.6256763217
 20
100.3371546566
  0
VERTEX
  8
SURFACE
 62
7
  6
CONTINUOUS
 10
199.7117502474
 20
100.0293966318
  0
VERTEX
  8
SURFACE
 62
7
  6
CONTINUOUS
 10
199.8028269526
 20
99.7354380482
  0
VERTEX
  8
SURFACE
 62
7
  6
CONTINUOUS
 10
199.898840032
 20
99.4560739749
  0
VERTEX
  8
SURFACE
 62
7
  6
CONTINUOUS
 10
199.999738512
 20
99.1920852855
  0
VERTEX
  8
SURFACE
 62
7
  6
CONTINUOUS
 10
200.1016579684
 20
98.9527527804
  0
SEQEND
  0
LINE
  8
SURFACE
 62
7
  6
CONTINUOUS
 10
198.9555916362
 20
159.6975556559
 11
198.9565872734
 21
159.6776241831
  0
LINE
  8
SURFACE
 62
7
  6
CONTINUOUS
 10
198.9565872734
 20
159.6776241831
 11
198.9565872734
 21
153.6531513086
  0
LINE
  8
SURFACE
 62
7
  6
CONTINUOUS
 10
199.1269235871
 20
103.2031197994
 11
199.1269235871
 21
109.2275926701
  0
LINE
  8
0
 62
7
  6
CONTINUOUS
 10
201.3163959497
 20
141.4403719912
 11
201.3163959497
 21
134.3653719912
  0
LINE
  8
0
 62
7
  6
CONTINUOUS
 10
201.3163959497
 20
128.5153719912
 11
201.3163959497
 21
121.4403719912
  0
POLYLINE
  8
SURFACE
 62
7
  6
CONTINUOUS
 66
1
 70
0
  0
VERTEX
  8
SURFACE
 62
7
  6
CONTINUOUS
 10
208.5993988563
 20
164.2360051219
  0
VERTEX
  8
SURFACE
 62
7
  6
CONTINUOUS
 10
208.586847845
 20
164.1715630247
  0
VERTEX
  8
SURFACE
 62
7
  6
CONTINUOUS
 10
208.5657006945
 20
164.0944886513
  0
VERTEX
  8
SURFACE
 62
7
  6
CONTINUOUS
 10
208.5362627937
 20
164.0105904413
  0
VERTEX
  8
SURFACE
 62
7
  6
CONTINUOUS
 10
208.5016591993
 20
163.9279939383
  0
SEQEND
  0
POLYLINE
  8
SURFACE
 62
7
  6
CONTINUOUS
 66
1
 70
0
  0
VERTEX
  8
SURFACE
 62
7
  6
CONTINUOUS
 10
189.5818528729
 20
98.9527527373
  0
VERTEX
  8
SURFACE
 62
7
  6
CONTINUOUS
 10
189.6837743564
 20
99.1920902604
  0
VERTEX
  8
SURFACE
 62
7
  6
CONTINUOUS
 10
189.7846725244
 20
99.456078656
  0
VERTEX
  8
SURFACE
 62
7
  6
CONTINUOUS
 10
189.8806854412
 20
99.7354427482
  0
VERTEX
  8
SURFACE
 62
7
  6
CONTINUOUS
 10
189.9717620425
 20
100.0294014875
  0
VERTEX
  8
SURFACE
 62
7
  6
CONTINUOUS
 10
190.0578358612
 20
100.3371596322
  0
VERTEX
  8
SURFACE
 62
7
  6
CONTINUOUS
 10
190.1388314596
 20
100.6579089558
  0
VERTEX
  8
SURFACE
 62
7
  6
CONTINUOUS
 10
190.2146686677
 20
100.9908279958
  0
VERTEX
  8
SURFACE
 62
7
  6
CONTINUOUS
 10
190.2852651759
 20
101.3350790054
  0
VERTEX
  8
SURFACE
 62
7
  6
CONTINUOUS
 10
190.3505393867
 20
101.6898087281
  0
VERTEX
  8
SURFACE
 62
7
  6
CONTINUOUS
 10
190.4104132248
 20
102.0541531783
  0
VERTEX
  8
SURFACE
 62
7
  6
CONTINUOUS
 10
190.4648136159
 20
102.4272395584
  0
VERTEX
  8
SURFACE
 62
7
  6
CONTINUOUS
 10
190.5136738935
 20
102.80819079
  0
VERTEX
  8
SURFACE
 62
7
  6
CONTINUOUS
 10
190.5557253022
 20
103.1845713361
  0
SEQEND
  0
POLYLINE
  8
SURFACE
 62
7
  6
CONTINUOUS
 66
1
 70
0
  0
VERTEX
  8
SURFACE
 62
7
  6
CONTINUOUS
 10
198.9491976537
 20
159.7187073378
  0
VERTEX
  8
SURFACE
 62
7
  6
CONTINUOUS
 10
198.9386831184
 20
159.7294190495
  0
VERTEX
  8
SURFACE
 62
7
  6
CONTINUOUS
 10
198.9231936963
 20
159.7382415369
  0
VERTEX
  8
SURFACE
 62
7
  6
CONTINUOUS
 10
198.9031342778
 20
159.7450055055
  0
VERTEX
  8
SURFACE
 62
7
  6
CONTINUOUS
 10
198.8790367121
 20
159.7495954613
  0
VERTEX
  8
SURFACE
 62
7
  6
CONTINUOUS
 10
198.8515483044
 20
159.7519541316
  0
VERTEX
  8
SURFACE
 62
7
  6
CONTINUOUS
 10
198.8214162122
 20
159.7520854343
  0
VERTEX
  8
SURFACE
 62
7
  6
CONTINUOUS
 10
198.7894677906
 20
159.750055537
  0
VERTEX
  8
SURFACE
 62
7
  6
CONTINUOUS
 10
198.7565872734
 20
159.7459917058
  0
SEQEND
  0
POLYLINE
  8
SURFACE
 62
7
  6
CONTINUOUS
 66
1
 70
0
  0
VERTEX
  8
SURFACE
 62
7
  6
CONTINUOUS
 10
190.7269235872
 20
159.6738027231
  0
VERTEX
  8
SURFACE
 62
7
  6
CONTINUOUS
 10
190.7272474727
 20
159.6732363267
  0
VERTEX
  8
SURFACE
 62
7
  6
CONTINUOUS
 10
190.7319573465
 20
159.6719776579
  0
VERTEX
  8
SURFACE
 62
7
  6
CONTINUOUS
 10
190.7421622247
 20
159.6713040274
  0
VERTEX
  8
SURFACE
 62
7
  6
CONTINUOUS
 10
190.75758404
 20
159.6711688506
  0
VERTEX
  8
SURFACE
 62
7
  6
CONTINUOUS
 10
190.7777922558
 20
159.6715125068
  0
VERTEX
  8
SURFACE
 62
7
  6
CONTINUOUS
 10
190.8022173442
 20
159.6722637513
  0
VERTEX
  8
SURFACE
 62
7
  6
CONTINUOUS
 10
190.8301688808
 20
159.6733415199
  0
VERTEX
  8
SURFACE
 62
7
  6
CONTINUOUS
 10
190.9269235871
 20
159.6776241831
  0
SEQEND
  0
POLYLINE
  8
SURFACE
 62
7
  6
CONTINUOUS
 66
1
 70
0
  0
VERTEX
  8
SURFACE
 62
7
  6
CONTINUOUS
 10
198.9547883264
 20
159.7043887593
  0
VERTEX
  8
SURFACE
 62
7
  6
CONTINUOUS
 10
198.9544670588
 20
159.706324206
  0
VERTEX
  8
SURFACE
 62
7
  6
CONTINUOUS
 10
198.9491976537
 20
159.7187073378
  0
SEQEND
  0
POLYLINE
  8
SURFACE
 62
7
  6
CONTINUOUS
 66
1
 70
0
  0
VERTEX
  8
SURFACE
 62
7
  6
CONTINUOUS
 10
197.8841115718
 20
164.2360079156
  0
VERTEX
  8
SURFACE
 62
7
  6
CONTINUOUS
 10
197.8629101409
 20
164.3679793632
  0
VERTEX
  8
SURFACE
 62
7
  6
CONTINUOUS
 10
197.8405258353
 20
164.4951070981
  0
VERTEX
  8
SURFACE
 62
7
  6
CONTINUOUS
 10
197.8182625011
 20
164.6097656418
  0
VERTEX
  8
SURFACE
 62
7
  6
CONTINUOUS
 10
197.796125245
 20
164.7127080777
  0
VERTEX
  8
SURFACE
 62
7
  6
CONTINUOUS
 10
197.7740951546
 20
164.8047205997
  0
VERTEX
  8
SURFACE
 62
7
  6
CONTINUOUS
 10
197.7521219847
 20
164.8866183331
  0
VERTEX
  8
SURFACE
 62
7
  6
CONTINUOUS
 10
197.7301057312
 20
164.9592659468
  0
VERTEX
  8
SURFACE
 62
7
  6
CONTINUOUS
 10
197.7078459245
 20
165.0236538007
  0
VERTEX
  8
SURFACE
 62
7
  6
CONTINUOUS
 10
197.6850130913
 20
165.0808281892
  0
VERTEX
  8
SURFACE
 62
7
  6
CONTINUOUS
 10
197.6611237406
 20
165.1317918466
  0
VERTEX
  8
SURFACE
 62
7
  6
CONTINUOUS
 10
197.635395734
 20
165.1775987441
  0
VERTEX
  8
SURFACE
 62
7
  6
CONTINUOUS
 10
197.6065034285
 20
165.2193604007
  0
VERTEX
  8
SURFACE
 62
7
  6
CONTINUOUS
 10
197.5727449977
 20
165.2574904517
  0
VERTEX
  8
SURFACE
 62
7
  6
CONTINUOUS
 10
197.5324233014
 20
165.2911851703
  0
VERTEX
  8
SURFACE
 62
7
  6
CONTINUOUS
 10
197.4843902483
 20
165.318325122
  0
VERTEX
  8
SURFACE
 62
7
  6
CONTINUOUS
 10
197.4307881536
 20
165.3353486322
  0
VERTEX
  8
SURFACE
 62
7
  6
CONTINUOUS
 10
197.3805401165
 20
165.3403719896
  0
SEQEND
  0
LINE
  8
SURFACE
 62
7
  6
CONTINUOUS
 10
198.9547883264
 20
159.7043887593
 11
198.9555916362
 21
159.6975556559
  0
POLYLINE
  8
SURFACE
 62
7
  6
CONTINUOUS
 66
1
 70
0
  0
VERTEX
  8
SURFACE
 62
7
  6
CONTINUOUS
 10
198.9549685984
 20
159.7035569321
  0
VERTEX
  8
SURFACE
 62
7
  6
CONTINUOUS
 10
198.9136743999
 20
160.0725489635
  0
VERTEX
  8
SURFACE
 62
7
  6
CONTINUOUS
 10
198.8648136529
 20
160.4535041528
  0
VERTEX
  8
SURFACE
 62
7
  6
CONTINUOUS
 10
198.8104128047
 20
160.826593516
  0
VERTEX
  8
SURFACE
 62
7
  6
CONTINUOUS
 10
198.7505385717
 20
161.190939937
  0
VERTEX
  8
SURFACE
 62
7
  6
CONTINUOUS
 10
198.6852640291
 20
161.5456708778
  0
VERTEX
  8
SURFACE
 62
7
  6
CONTINUOUS
 10
198.614667255
 20
161.8899225203
  0
VERTEX
  8
SURFACE
 62
7
  6
CONTINUOUS
 10
198.5388298483
 20
162.2228417434
  0
VERTEX
  8
SURFACE
 62
7
  6
CONTINUOUS
 10
198.4578341113
 20
162.5435909352
  0
VERTEX
  8
SURFACE
 62
7
  6
CONTINUOUS
 10
198.3717601872
 20
162.8513487982
  0
VERTEX
  8
SURFACE
 62
7
  6
CONTINUOUS
 10
198.2806834891
 20
163.1453072184
  0
VERTEX
  8
SURFACE
 62
7
  6
CONTINUOUS
 10
198.184670457
 20
163.4246710333
  0
VERTEX
  8
SURFACE
 62
7
  6
CONTINUOUS
 10
198.0837721026
 20
163.6886593065
  0
VERTEX
  8
SURFACE
 62
7
  6
CONTINUOUS
 10
197.9818528922
 20
163.927991202
  0
SEQEND
  0
LINE
  8
0
 62
7
  6
CONTINUOUS
 10
204.8871149109
 20
121.4403719912
 11
204.8871149109
 21
128.5153719912
  0
LINE
  8
0
 62
7
  6
CONTINUOUS
 10
204.8871149109
 20
134.3653719912
 11
204.8871149109
 21
141.4403719912
  0
LINE
  8
SURFACE
 62
7
  6
CONTINUOUS
 10
207.3565872734
 20
103.2031197994
 11
207.3565872734
 21
109.2276042175
  0
LINE
  8
SURFACE
 62
7
  6
CONTINUOUS
 10
207.5269235871
 20
153.6531396783
 11
207.5269235871
 21
159.673872967
  0
POLYLINE
  8
SURFACE
 62
7
  6
CONTINUOUS
 66
1
 70
0
  0
VERTEX
  8
SURFACE
 62
7
  6
CONTINUOUS
 10
207.3565871974
 20
109.227604216
  0
VERTEX
  8
SURFACE
 62
7
  6
CONTINUOUS
 10
207.3567687995
 20
109.2654056223
  0
VERTEX
  8
SURFACE
 62
7
  6
CONTINUOUS
 10
207.3576742647
 20
109.3189732325
  0
VERTEX
  8
SURFACE
 62
7
  6
CONTINUOUS
 10
207.359348577
 20
109.371467641
  0
VERTEX
  8
SURFACE
 62
7
  6
CONTINUOUS
 10
207.3618051595
 20
109.4229004313
  0
VERTEX
  8
SURFACE
 62
7
  6
CONTINUOUS
 10
207.365063312
 20
109.4732615584
  0
VERTEX
  8
SURFACE
 62
7
  6
CONTINUOUS
 10
207.3691524821
 20
109.5225417326
  0
VERTEX
  8
SURFACE
 62
7
  6
CONTINUOUS
 10
207.3741044626
 20
109.5707362799
  0
VERTEX
  8
SURFACE
 62
7
  6
CONTINUOUS
 10
207.3799474079
 20
109.6178261607
  0
VERTEX
  8
SURFACE
 62
7
  6
CONTINUOUS
 10
207.386713025
 20
109.6638290852
  0
VERTEX
  8
SURFACE
 62
7
  6
CONTINUOUS
 10
207.3944355927
 20
109.7087556245
  0
VERTEX
  8
SURFACE
 62
7
  6
CONTINUOUS
 10
207.4031515166
 20
109.7525997608
  0
VERTEX
  8
SURFACE
 62
7
  6
CONTINUOUS
 10
207.4128989457
 20
109.7953394659
  0
VERTEX
  8
SURFACE
 62
7
  6
CONTINUOUS
 10
207.4237165262
 20
109.8369343158
  0
VERTEX
  8
SURFACE
 62
7
  6
CONTINUOUS
 10
207.4356419975
 20
109.8773226212
  0
VERTEX
  8
SURFACE
 62
7
  6
CONTINUOUS
 10
207.4487012719
 20
109.9163936573
  0
VERTEX
  8
SURFACE
 62
7
  6
CONTINUOUS
 10
207.4629175218
 20
109.9540294135
  0
VERTEX
  8
SURFACE
 62
7
  6
CONTINUOUS
 10
207.4783018758
 20
109.99008243
  0
VERTEX
  8
SURFACE
 62
7
  6
CONTINUOUS
 10
207.4948350009
 20
110.0243496109
  0
VERTEX
  8
SURFACE
 62
7
  6
CONTINUOUS
 10
207.512453857
 20
110.0565766013
  0
VERTEX
  8
SURFACE
 62
7
  6
CONTINUOUS
 10
207.5310738186
 20
110.0865234077
  0
VERTEX
  8
SURFACE
 62
7
  6
CONTINUOUS
 10
207.5506900634
 20
110.1140994579
  0
VERTEX
  8
SURFACE
 62
7
  6
CONTINUOUS
 10
207.5712547821
 20
110.139134562
  0
VERTEX
  8
SURFACE
 62
7
  6
CONTINUOUS
 10
207.5926958645
 20
110.1614268346
  0
VERTEX
  8
SURFACE
 62
7
  6
CONTINUOUS
 10
207.6150957977
 20
110.1808907297
  0
VERTEX
  8
SURFACE
 62
7
  6
CONTINUOUS
 10
207.6384351593
 20
110.1972557708
  0
VERTEX
  8
SURFACE
 62
7
  6
CONTINUOUS
 10
207.6626448898
 20
110.2101645688
  0
VERTEX
  8
SURFACE
 62
7
  6
CONTINUOUS
 10
207.6876224482
 20
110.2192234813
  0
VERTEX
  8
SURFACE
 62
7
  6
CONTINUOUS
 10
207.7125125294
 20
110.2240108176
  0
VERTEX
  8
SURFACE
 62
7
  6
CONTINUOUS
 10
207.7292824956
 20
110.2249167423
  0
SEQEND
  0
POLYLINE
  8
SURFACE
 62
7
  6
CONTINUOUS
 66
1
 70
0
  0
VERTEX
  8
SURFACE
 62
7
  6
CONTINUOUS
 10
207.5269236469
 20
153.6531396783
  0
VERTEX
  8
SURFACE
 62
7
  6
CONTINUOUS
 10
207.5266804902
 20
153.6094530327
  0
VERTEX
  8
SURFACE
 62
7
  6
CONTINUOUS
 10
207.52555059
 20
153.5507137311
  0
VERTEX
  8
SURFACE
 62
7
  6
CONTINUOUS
 10
207.5234749153
 20
153.4929882021
  0
VERTEX
  8
SURFACE
 62
7
  6
CONTINUOUS
 10
207.520421911
 20
153.4363322579
  0
VERTEX
  8
SURFACE
 62
7
  6
CONTINUOUS
 10
207.5163519746
 20
153.3808237846
  0
VERTEX
  8
SURFACE
 62
7
  6
CONTINUOUS
 10
207.5112163766
 20
153.3265318274
  0
VERTEX
  8
SURFACE
 62
7
  6
CONTINUOUS
 10
207.504970264
 20
153.2735162848
  0
VERTEX
  8
SURFACE
 62
7
  6
CONTINUOUS
 10
207.4975770405
 20
153.2218506198
  0
VERTEX
  8
SURFACE
 62
7
  6
CONTINUOUS
 10
207.4890082471
 20
153.171626141
  0
VERTEX
  8
SURFACE
 62
7
  6
CONTINUOUS
 10
207.4792353161
 20
153.1229120507
  0
VERTEX
  8
SURFACE
 62
7
  6
CONTINUOUS
 10
207.4682316773
 20
153.0757804019
  0
VERTEX
  8
SURFACE
 62
7
  6
CONTINUOUS
 10
207.4559795927
 20
153.0303314551
  0
VERTEX
  8
SURFACE
 62
7
  6
CONTINUOUS
 10
207.4424780585
 20
152.986706645
  0
VERTEX
  8
SURFACE
 62
7
  6
CONTINUOUS
 10
207.4277231985
 20
152.9450158345
  0
VERTEX
  8
SURFACE
 62
7
  6
CONTINUOUS
 10
207.4116774614
 20
152.9052856702
  0
VERTEX
  8
SURFACE
 62
7
  6
CONTINUOUS
 10
207.394318668
 20
152.8676168838
  0
VERTEX
  8
SURFACE
 62
7
  6
CONTINUOUS
 10
207.3756562162
 20
152.8321904629
  0
VERTEX
  8
SURFACE
 62
7
  6
CONTINUOUS
 10
207.3557388423
 20
152.7992478396
  0
VERTEX
  8
SURFACE
 62
7
  6
CONTINUOUS
 10
207.33465054
 20
152.7690567704
  0
VERTEX
  8
SURFACE
 62
7
  6
CONTINUOUS
 10
207.3126216156
 20
152.7420212677
  0
VERTEX
  8
SURFACE
 62
7
  6
CONTINUOUS
 10
207.2898469908
 20
152.7183963077
  0
VERTEX
  8
SURFACE
 62
7
  6
CONTINUOUS
 10
207.2663182532
 20
152.6982216702
  0
VERTEX
  8
SURFACE
 62
7
  6
CONTINUOUS
 10
207.2421202991
 20
152.6816919018
  0
VERTEX
  8
SURFACE
 62
7
  6
CONTINUOUS
 10
207.2174875192
 20
152.6691017548
  0
VERTEX
  8
SURFACE
 62
7
  6
CONTINUOUS
 10
207.1927745438
 20
152.6606914011
  0
VERTEX
  8
SURFACE
 62
7
  6
CONTINUOUS
 10
207.1685516965
 20
152.6564865832
  0
VERTEX
  8
SURFACE
 62
7
  6
CONTINUOUS
 10
207.1542298569
 20
152.6558272381
  0
SEQEND
  0
POLYLINE
  8
SURFACE
 62
7
  6
CONTINUOUS
 66
1
 70
0
  0
VERTEX
  8
SURFACE
 62
7
  6
CONTINUOUS
 10
207.5279959295
 20
159.6983071953
  0
VERTEX
  8
SURFACE
 62
7
  6
CONTINUOUS
 10
207.5274742407
 20
159.692455171
  0
VERTEX
  8
SURFACE
 62
7
  6
CONTINUOUS
 10
207.5269601314
 20
159.6738010475
  0
SEQEND
  0
POLYLINE
  8
SURFACE
 62
7
  6
CONTINUOUS
 66
1
 70
0
  0
VERTEX
  8
SURFACE
 62
7
  6
CONTINUOUS
 10
197.9818518007
 20
163.9279936289
  0
VERTEX
  8
SURFACE
 62
7
  6
CONTINUOUS
 10
197.9470148553
 20
164.0111938163
  0
VERTEX
  8
SURFACE
 62
7
  6
CONTINUOUS
 10
197.9176329727
 20
164.0950550781
  0
VERTEX
  8
SURFACE
 62
7
  6
CONTINUOUS
 10
197.8965396207
 20
164.1720925286
  0
VERTEX
  8
SURFACE
 62
7
  6
CONTINUOUS
 10
197.8841120506
 20
164.2360048208
  0
SEQEND
  0
LINE
  8
0
 62
7
  6
CONTINUOUS
 10
209.7163959497
 20
141.4403719912
 11
209.7163959497
 21
134.3653719912
  0
LINE
  8
0
 62
7
  6
CONTINUOUS
 10
209.7163959497
 20
128.5153719912
 11
209.7163959497
 21
121.4403719912
  0
LINE
  8
0
 62
7
  6
CONTINUOUS
 10
213.2871149109
 20
121.4403719912
 11
213.2871149109
 21
128.5153719912
  0
LINE
  8
0
 62
7
  6
CONTINUOUS
 10
213.2871149109
 20
134.3653719912
 11
213.2871149109
 21
141.4403719912
  0
LINE
  8
SURFACE
 62
7
  6
CONTINUOUS
 10
207.3565872734
 20
103.2031197994
 11
207.3557253022
 21
103.1845713361
  0
POLYLINE
  8
SURFACE
 62
7
  6
CONTINUOUS
 66
1
 70
0
  0
VERTEX
  8
SURFACE
 62
7
  6
CONTINUOUS
 10
206.2841120263
 20
98.6447389976
  0
VERTEX
  8
SURFACE
 62
7
  6
CONTINUOUS
 10
206.2965425889
 20
98.7086642057
  0
VERTEX
  8
SURFACE
 62
7
  6
CONTINUOUS
 10
206.317634177
 20
98.7856927585
  0
VERTEX
  8
SURFACE
 62
7
  6
CONTINUOUS
 10
206.3470117688
 20
98.8695421771
  0
VERTEX
  8
SURFACE
 62
7
  6
CONTINUOUS
 10
206.381851906
 20
98.9527505863
  0
SEQEND
  0
POLYLINE
  8
SURFACE
 62
7
  6
CONTINUOUS
 66
1
 70
0
  0
VERTEX
  8
SURFACE
 62
7
  6
CONTINUOUS
 10
206.3818528729
 20
98.9527527373
  0
VERTEX
  8
SURFACE
 62
7
  6
CONTINUOUS
 10
206.4837743564
 20
99.1920902604
  0
VERTEX
  8
SURFACE
 62
7
  6
CONTINUOUS
 10
206.5846725244
 20
99.456078656
  0
VERTEX
  8
SURFACE
 62
7
  6
CONTINUOUS
 10
206.6806854412
 20
99.7354427482
  0
VERTEX
  8
SURFACE
 62
7
  6
CONTINUOUS
 10
206.7717620425
 20
100.0294014875
  0
VERTEX
  8
SURFACE
 62
7
  6
CONTINUOUS
 10
206.8578358612
 20
100.3371596322
  0
VERTEX
  8
SURFACE
 62
7
  6
CONTINUOUS
 10
206.9388314596
 20
100.6579089558
  0
VERTEX
  8
SURFACE
 62
7
  6
CONTINUOUS
 10
207.0146686677
 20
100.9908279958
  0
VERTEX
  8
SURFACE
 62
7
  6
CONTINUOUS
 10
207.0852651759
 20
101.3350790054
  0
VERTEX
  8
SURFACE
 62
7
  6
CONTINUOUS
 10
207.1505393867
 20
101.6898087281
  0
VERTEX
  8
SURFACE
 62
7
  6
CONTINUOUS
 10
207.2104132248
 20
102.0541531783
  0
VERTEX
  8
SURFACE
 62
7
  6
CONTINUOUS
 10
207.2648136159
 20
102.4272395584
  0
VERTEX
  8
SURFACE
 62
7
  6
CONTINUOUS
 10
207.3136738935
 20
102.80819079
  0
VERTEX
  8
SURFACE
 62
7
  6
CONTINUOUS
 10
207.3557253022
 20
103.1845713361
  0
SEQEND
  0
POLYLINE
  8
SURFACE
 62
7
  6
CONTINUOUS
 66
1
 70
0
  0
VERTEX
  8
SURFACE
 62
7
  6
CONTINUOUS
 10
207.5269235872
 20
159.6738027231
  0
VERTEX
  8
SURFACE
 62
7
  6
CONTINUOUS
 10
207.5272474727
 20
159.6732363267
  0
VERTEX
  8
SURFACE
 62
7
  6
CONTINUOUS
 10
207.5319573465
 20
159.6719776579
  0
VERTEX
  8
SURFACE
 62
7
  6
CONTINUOUS
 10
207.5421622247
 20
159.6713040274
  0
VERTEX
  8
SURFACE
 62
7
  6
CONTINUOUS
 10
207.55758404
 20
159.6711688506
  0
VERTEX
  8
SURFACE
 62
7
  6
CONTINUOUS
 10
207.5777922558
 20
159.6715125068
  0
VERTEX
  8
SURFACE
 62
7
  6
CONTINUOUS
 10
207.6022173442
 20
159.6722637513
  0
VERTEX
  8
SURFACE
 62
7
  6
CONTINUOUS
 10
207.6301688808
 20
159.6733415199
  0
VERTEX
  8
SURFACE
 62
7
  6
CONTINUOUS
 10
207.7269235871
 20
159.6776241831
  0
SEQEND
  0
POLYLINE
  8
0
 62
7
  6
CONTINUOUS
 66
1
 70
0
  0
VERTEX
  8
0
 62
7
  6
CONTINUOUS
 10
215.7417542293
 20
165.1393455112
  0
VERTEX
  8
0
 62
7
  6
CONTINUOUS
 10
215.7400833056
 20
165.1648857864
  0
VERTEX
  8
0
 62
7
  6
CONTINUOUS
 10
215.7350366429
 20
165.1905320033
  0
VERTEX
  8
0
 62
7
  6
CONTINUOUS
 10
215.7266495747
 20
165.2154314057
  0
VERTEX
  8
0
 62
7
  6
CONTINUOUS
 10
215.7150426391
 20
165.2390964123
  0
VERTEX
  8
0
 62
7
  6
CONTINUOUS
 10
215.7004279628
 20
165.2610536704
  0
VERTEX
  8
0
 62
7
  6
CONTINUOUS
 10
215.6831077039
 20
165.2808683514
  0
VERTEX
  8
0
 62
7
  6
CONTINUOUS
 10
215.663534477
 20
165.298113744
  0
VERTEX
  8
0
 62
7
  6
CONTINUOUS
 10
215.6424448715
 20
165.3123682405
  0
VERTEX
  8
0
 62
7
  6
CONTINUOUS
 10
215.6206953251
 20
165.3234406578
  0
VERTEX
  8
0
 62
7
  6
CONTINUOUS
 10
215.5990107803
 20
165.3314430276
  0
VERTEX
  8
0
 62
7
  6
CONTINUOUS
 10
215.5779661333
 20
165.3366671858
  0
VERTEX
  8
0
 62
7
  6
CONTINUOUS
 10
215.5580630643
 20
165.3394941909
  0
VERTEX
  8
0
 62
7
  6
CONTINUOUS
 10
215.5389877765
 20
165.3403719909
  0
SEQEND
  0
LINE
  8
0
 62
7
  6
CONTINUOUS
 10
215.7417554303
 20
165.1390317872
 11
215.7417554303
 21
110.4249167413
  0
POLYLINE
  8
0
 62
7
  6
CONTINUOUS
 66
1
 70
0
  0
VERTEX
  8
0
 62
7
  6
CONTINUOUS
 10
215.7417554303
 20
159.6776241831
  0
VERTEX
  8
0
 62
7
  6
CONTINUOUS
 10
215.7400489438
 20
159.6889986629
  0
VERTEX
  8
0
 62
7
  6
CONTINUOUS
 10
215.7349618579
 20
159.6996934683
  0
VERTEX
  8
0
 62
7
  6
CONTINUOUS
 10
215.7265830126
 20
159.7095665634
  0
VERTEX
  8
0
 62
7
  6
CONTINUOUS
 10
215.7150536677
 20
159.7184896661
  0
VERTEX
  8
0
 62
7
  6
CONTINUOUS
 10
215.7005657542
 20
159.7263496539
  0
VERTEX
  8
0
 62
7
  6
CONTINUOUS
 10
215.6833597333
 20
159.7330501135
  0
VERTEX
  8
0
 62
7
  6
CONTINUOUS
 10
215.6637218411
 20
159.738512951
  0
VERTEX
  8
0
 62
7
  6
CONTINUOUS
 10
215.6419805506
 20
159.7426799633
  0
VERTEX
  8
0
 62
7
  6
CONTINUOUS
 10
215.6185021487
 20
159.7455142435
  0
VERTEX
  8
0
 62
7
  6
CONTINUOUS
 10
215.5936853807
 20
159.7470012984
  0
VERTEX
  8
0
 62
7
  6
CONTINUOUS
 10
215.5679551652
 20
159.7471497741
  0
VERTEX
  8
0
 62
7
  6
CONTINUOUS
 10
215.5417554303
 20
159.7459917058
  0
SEQEND
  0
LINE
  8
0
 62
7
  6
CONTINUOUS
 10
264.291999453
 20
223.6972991862
 11
264.291999453
 21
224.7964183956
  0
LINE
  8
DEFAULT_1
 62
2
  6
CENTER
 10
270.091999453
 20
230.0464238622
 11
270.091999453
 21
226.7965238622
  0
LINE
  8
0
 62
2
  6
CONTINUOUS
 10
270.091999453
 20
225.8464238622
 11
270.091999453
 21
223.7464238622
  0
LINE
  8
DEFAULT_1
 62
2
  6
CENTER
 10
270.091999453
 20
219.5464238622
 11
270.091999453
 21
222.7963238622
  0
LINE
  8
0
 62
7
  6
CONTINUOUS
 10
274.276544453
 20
232.5964238622
 11
274.276544453
 21
231.1449539693
  0
POLYLINE
  8
0
 62
7
  6
CONTINUOUS
 66
1
 70
0
  0
VERTEX
  8
0
 62
7
  6
CONTINUOUS
 10
274.476544203
 20
232.5964238622
  0
VERTEX
  8
0
 62
7
  6
CONTINUOUS
 10
274.4792197315
 20
232.6223597267
  0
VERTEX
  8
0
 62
7
  6
CONTINUOUS
 10
274.4813141764
 20
232.6479030789
  0
VERTEX
  8
0
 62
7
  6
CONTINUOUS
 10
274.4828383627
 20
232.6726146447
  0
VERTEX
  8
0
 62
7
  6
CONTINUOUS
 10
274.4838116042
 20
232.6960642011
  0
VERTEX
  8
0
 62
7
  6
CONTINUOUS
 10
274.4842613572
 20
232.7178399914
  0
VERTEX
  8
0
 62
7
  6
CONTINUOUS
 10
274.4842228185
 20
232.737557886
  0
VERTEX
  8
0
 62
7
  6
CONTINUOUS
 10
274.4837384536
 20
232.7548696894
  0
VERTEX
  8
0
 62
7
  6
CONTINUOUS
 10
274.4828574404
 20
232.7694701538
  0
VERTEX
  8
0
 62
7
  6
CONTINUOUS
 10
274.4816350044
 20
232.7811024735
  0
VERTEX
  8
0
 62
7
  6
CONTINUOUS
 10
274.4801316155
 20
232.7895622661
  0
VERTEX
  8
0
 62
7
  6
CONTINUOUS
 10
274.4784120332
 20
232.794700241
  0
VERTEX
  8
0
 62
7
  6
CONTINUOUS
 10
274.476544203
 20
232.7964238622
  0
SEQEND
  0
LINE
  8
0
 62
7
  6
CONTINUOUS
 10
275.891999453
 20
224.7964238622
 11
275.891999453
 21
223.6972991862
  0
LINE
  8
0
 62
7
  6
CONTINUOUS
 10
283.8719351366
 20
226.2947270335
 11
283.696999453
 21
228.7964238622
  0
POLYLINE
  8
0
 62
7
  6
CONTINUOUS
 66
1
 70
0
  0
VERTEX
  8
0
 62
7
  6
CONTINUOUS
 10
283.8725810937
 20
226.2854937333
  0
VERTEX
  8
0
 62
7
  6
CONTINUOUS
 10
283.8790331991
 20
226.2321679231
  0
VERTEX
  8
0
 62
7
  6
CONTINUOUS
 10
283.8914247254
 20
226.177814688
  0
VERTEX
  8
0
 62
7
  6
CONTINUOUS
 10
283.9095702124
 20
226.1249542003
  0
VERTEX
  8
0
 62
7
  6
CONTINUOUS
 10
283.9332899386
 20
226.0742876624
  0
VERTEX
  8
0
 62
7
  6
CONTINUOUS
 10
283.9623149706
 20
226.0264502035
  0
VERTEX
  8
0
 62
7
  6
CONTINUOUS
 10
283.9963047897
 20
225.9820139115
  0
VERTEX
  8
0
 62
7
  6
CONTINUOUS
 10
284.034846852
 20
225.9415033596
  0
VERTEX
  8
0
 62
7
  6
CONTINUOUS
 10
284.077457695
 20
225.9053894484
  0
VERTEX
  8
0
 62
7
  6
CONTINUOUS
 10
284.1235734709
 20
225.8740847701
  0
VERTEX
  8
0
 62
7
  6
CONTINUOUS
 10
284.1725151894
 20
225.8479383829
  0
VERTEX
  8
0
 62
7
  6
CONTINUOUS
 10
284.2233353011
 20
225.8272442621
  0
VERTEX
  8
0
 62
7
  6
CONTINUOUS
 10
284.2749322295
 20
225.8120879863
  0
VERTEX
  8
0
 62
7
  6
CONTINUOUS
 10
284.3261742568
 20
225.8022785837
  0
VERTEX
  8
0
 62
7
  6
CONTINUOUS
 10
284.3757412933
 20
225.7973605797
  0
VERTEX
  8
0
 62
7
  6
CONTINUOUS
 10
284.4094420481
 20
225.7964239772
  0
SEQEND
  0
LINE
  8
0
 62
7
  6
CONTINUOUS
 10
274.3424688358
 20
232.4480195475
 11
274.3343475572
 21
232.4562291372
  0
POLYLINE
  8
0
 62
7
  6
CONTINUOUS
 66
1
 70
0
  0
VERTEX
  8
0
 62
7
  6
CONTINUOUS
 10
283.9497662846
 20
226.0549649306
  0
VERTEX
  8
0
 62
7
  6
CONTINUOUS
 10
283.9250998197
 20
226.0989290414
  0
VERTEX
  8
0
 62
7
  6
CONTINUOUS
 10
283.9047512737
 20
226.1453835573
  0
VERTEX
  8
0
 62
7
  6
CONTINUOUS
 10
283.8890167521
 20
226.1937309435
  0
VERTEX
  8
0
 62
7
  6
CONTINUOUS
 10
283.8780165687
 20
226.2437207392
  0
VERTEX
  8
0
 62
7
  6
CONTINUOUS
 10
283.8719351366
 20
226.2947270335
  0
SEQEND
  0
LINE
  8
0
 62
7
  6
CONTINUOUS
 10
290.8023950523
 20
228.2872572105
 11
290.837999453
 21
228.7964238622
  0
LINE
  8
0
 62
7
  6
CONTINUOUS
 10
290.7981071635
 20
228.2519887999
 11
290.6601194375
 21
226.3026422416
  0
POLYLINE
  8
0
 62
7
  6
CONTINUOUS
 66
1
 70
0
  0
VERTEX
  8
0
 62
7
  6
CONTINUOUS
 10
290.6601194375
 20
226.3026422416
  0
VERTEX
  8
0
 62
7
  6
CONTINUOUS
 10
290.653208334
 20
226.2473233181
  0
VERTEX
  8
0
 62
7
  6
CONTINUOUS
 10
290.6404315651
 20
226.1930523119
  0
VERTEX
  8
0
 62
7
  6
CONTINUOUS
 10
290.6219372676
 20
226.1404593926
  0
VERTEX
  8
0
 62
7
  6
CONTINUOUS
 10
290.5979475174
 20
226.0901667962
  0
VERTEX
  8
0
 62
7
  6
CONTINUOUS
 10
290.5918186263
 20
226.0792266903
  0
SEQEND
  0
POLYLINE
  8
0
 62
7
  6
CONTINUOUS
 66
1
 70
0
  0
VERTEX
  8
0
 62
7
  6
CONTINUOUS
 10
290.5918186263
 20
226.0792266903
  0
VERTEX
  8
0
 62
7
  6
CONTINUOUS
 10
290.5687420917
 20
226.0427490169
  0
VERTEX
  8
0
 62
7
  6
CONTINUOUS
 10
290.5346765896
 20
225.9987679358
  0
VERTEX
  8
0
 62
7
  6
CONTINUOUS
 10
290.4961490773
 20
225.9587199752
  0
VERTEX
  8
0
 62
7
  6
CONTINUOUS
 10
290.453628986
 20
225.9230740606
  0
VERTEX
  8
0
 62
7
  6
CONTINUOUS
 10
290.4076110014
 20
225.8922250141
  0
VERTEX
  8
0
 62
7
  6
CONTINUOUS
 10
290.358658054
 20
225.8665288411
  0
VERTEX
  8
0
 62
7
  6
CONTINUOUS
 10
290.3073438839
 20
225.8462631846
  0
VERTEX
  8
0
 62
7
  6
CONTINUOUS
 10
290.2542934914
 20
225.8316496804
  0
VERTEX
  8
0
 62
7
  6
CONTINUOUS
 10
290.2001310169
 20
225.8228326951
  0
VERTEX
  8
0
 62
7
  6
CONTINUOUS
 10
290.1455121792
 20
225.8198891253
  0
SEQEND
  0
LINE
  8
0
 62
7
  6
CONTINUOUS
 10
273.191999453
 20
216.7964238622
 11
267.591999453
 21
216.7964238622
  0
LINE
  8
0
 62
7
  6
CONTINUOUS
 10
317.791999453
 20
216.7964238622
 11
323.391999453
 21
216.7964238622
  0
LINE
  8
0
 62
7
  6
CONTINUOUS
 10
274.3592145642
 20
232.4345168054
 11
274.3424688358
 21
232.4480195475
  0
LINE
  8
DEFAULT_1
 62
2
  6
CENTER
 10
295.491999453
 20
210.7964238622
 11
295.491999453
 21
234.8656300142
  0
POLYLINE
  8
0
 62
7
  6
CONTINUOUS
 66
1
 70
0
  0
VERTEX
  8
0
 62
7
  6
CONTINUOUS
 10
279.8059271312
 20
221.5264233743
  0
VERTEX
  8
0
 62
7
  6
CONTINUOUS
 10
279.7795779251
 20
221.5260812661
  0
VERTEX
  8
0
 62
7
  6
CONTINUOUS
 10
279.7527828814
 20
221.5250277047
  0
VERTEX
  8
0
 62
7
  6
CONTINUOUS
 10
279.7258572202
 20
221.523242217
  0
VERTEX
  8
0
 62
7
  6
CONTINUOUS
 10
279.699091683
 20
221.5207307044
  0
SEQEND
  0
LINE
  8
0
 62
7
  6
CONTINUOUS
 10
311.2580393931
 20
221.5264238622
 11
279.8059271999
 21
221.5264238622
  0
POLYLINE
  8
0
 62
7
  6
CONTINUOUS
 66
1
 70
0
  0
VERTEX
  8
0
 62
7
  6
CONTINUOUS
 10
306.5745568578
 20
225.7964239772
  0
VERTEX
  8
0
 62
7
  6
CONTINUOUS
 10
306.6082576126
 20
225.7973605797
  0
VERTEX
  8
0
 62
7
  6
CONTINUOUS
 10
306.6578246491
 20
225.8022785837
  0
VERTEX
  8
0
 62
7
  6
CONTINUOUS
 10
306.7090666764
 20
225.8120879863
  0
VERTEX
  8
0
 62
7
  6
CONTINUOUS
 10
306.7606636048
 20
225.8272442621
  0
VERTEX
  8
0
 62
7
  6
CONTINUOUS
 10
306.8114837165
 20
225.8479383829
  0
VERTEX
  8
0
 62
7
  6
CONTINUOUS
 10
306.860425435
 20
225.8740847701
  0
VERTEX
  8
0
 62
7
  6
CONTINUOUS
 10
306.9065412109
 20
225.9053894484
  0
VERTEX
  8
0
 62
7
  6
CONTINUOUS
 10
306.9491520539
 20
225.9415033596
  0
VERTEX
  8
0
 62
7
  6
CONTINUOUS
 10
306.9876941162
 20
225.9820139115
  0
VERTEX
  8
0
 62
7
  6
CONTINUOUS
 10
307.0216839353
 20
226.0264502035
  0
VERTEX
  8
0
 62
7
  6
CONTINUOUS
 10
307.0507089674
 20
226.0742876624
  0
VERTEX
  8
0
 62
7
  6
CONTINUOUS
 10
307.0744286935
 20
226.1249542003
  0
VERTEX
  8
0
 62
7
  6
CONTINUOUS
 10
307.0925741805
 20
226.177814688
  0
VERTEX
  8
0
 62
7
  6
CONTINUOUS
 10
307.1049657068
 20
226.2321679231
  0
VERTEX
  8
0
 62
7
  6
CONTINUOUS
 10
307.1114178122
 20
226.2854937333
  0
SEQEND
  0
LINE
  8
DEFAULT_1
 62
2
  6
CENTER
 10
326.141999453
 20
224.7964238622
 11
322.892099453
 21
224.7964238622
  0
LINE
  8
0
 62
2
  6
CONTINUOUS
 10
321.941999453
 20
224.7964238622
 11
319.841999453
 21
224.7964238622
  0
LINE
  8
DEFAULT_1
 62
2
  6
CENTER
 10
275.341999453
 20
224.7964238622
 11
272.092099453
 21
224.7964238622
  0
LINE
  8
0
 62
2
  6
CONTINUOUS
 10
271.141999453
 20
224.7964238622
 11
269.041999453
 21
224.7964238622
  0
LINE
  8
DEFAULT_1
 62
2
  6
CENTER
 10
264.841999453
 20
224.7964238622
 11
268.091899453
 21
224.7964238622
  0
LINE
  8
DEFAULT_1
 62
2
  6
CENTER
 10
315.641999453
 20
224.7964238622
 11
318.891899453
 21
224.7964238622
  0
POLYLINE
  8
0
 62
7
  6
CONTINUOUS
 66
1
 70
0
  0
VERTEX
  8
0
 62
7
  6
CONTINUOUS
 10
284.3725246278
 20
225.8198891253
  0
VERTEX
  8
0
 62
7
  6
CONTINUOUS
 10
284.3225468125
 20
225.822424239
  0
VERTEX
  8
0
 62
7
  6
CONTINUOUS
 10
284.2729951645
 20
225.8300139492
  0
VERTEX
  8
0
 62
7
  6
CONTINUOUS
 10
284.2244036098
 20
225.8425886321
  0
VERTEX
  8
0
 62
7
  6
CONTINUOUS
 10
284.1772218805
 20
225.8600472273
  0
VERTEX
  8
0
 62
7
  6
CONTINUOUS
 10
284.1319756227
 20
225.8822120121
  0
VERTEX
  8
0
 62
7
  6
CONTINUOUS
 10
284.0890845444
 20
225.9088965141
  0
VERTEX
  8
0
 62
7
  6
CONTINUOUS
 10
284.0490320829
 20
225.9398216027
  0
VERTEX
  8
0
 62
7
  6
CONTINUOUS
 10
284.0122002314
 20
225.9747154955
  0
VERTEX
  8
0
 62
7
  6
CONTINUOUS
 10
283.979000743
 20
226.0132155817
  0
VERTEX
  8
0
 62
7
  6
CONTINUOUS
 10
283.9497662846
 20
226.0549649306
  0
SEQEND
  0
LINE
  8
0
 62
7
  6
CONTINUOUS
 10
300.1474370484
 20
228.7964238622
 11
300.3238794684
 21
226.3026422416
  0
LINE
  8
0
 62
7
  6
CONTINUOUS
 10
300.145999453
 20
228.7964238622
 11
300.1816038537
 21
228.2872572105
  0
POLYLINE
  8
0
 62
7
  6
CONTINUOUS
 66
1
 70
0
  0
VERTEX
  8
0
 62
7
  6
CONTINUOUS
 10
290.2947413218
 20
227.7569053494
  0
VERTEX
  8
0
 62
7
  6
CONTINUOUS
 10
290.3446779176
 20
227.7597215532
  0
VERTEX
  8
0
 62
7
  6
CONTINUOUS
 10
290.3944835197
 20
227.7682056685
  0
VERTEX
  8
0
 62
7
  6
CONTINUOUS
 10
290.4437715383
 20
227.7824114363
  0
VERTEX
  8
0
 62
7
  6
CONTINUOUS
 10
290.4921296709
 20
227.8023892696
  0
VERTEX
  8
0
 62
7
  6
CONTINUOUS
 10
290.5391177864
 20
227.8281829047
  0
VERTEX
  8
0
 62
7
  6
CONTINUOUS
 10
290.5842041687
 20
227.8597802804
  0
VERTEX
  8
0
 62
7
  6
CONTINUOUS
 10
290.6268265464
 20
227.8971201349
  0
VERTEX
  8
0
 62
7
  6
CONTINUOUS
 10
290.6663377539
 20
227.940017648
  0
VERTEX
  8
0
 62
7
  6
CONTINUOUS
 10
290.7020897775
 20
227.9881983792
  0
VERTEX
  8
0
 62
7
  6
CONTINUOUS
 10
290.7333939375
 20
228.0412049353
  0
VERTEX
  8
0
 62
7
  6
CONTINUOUS
 10
290.7596119392
 20
228.0984599316
  0
VERTEX
  8
0
 62
7
  6
CONTINUOUS
 10
290.780140847
 20
228.1591610247
  0
VERTEX
  8
0
 62
7
  6
CONTINUOUS
 10
290.7945115491
 20
228.2224144311
  0
VERTEX
  8
0
 62
7
  6
CONTINUOUS
 10
290.8023950523
 20
228.2872572105
  0
SEQEND
  0
POLYLINE
  8
0
 62
7
  6
CONTINUOUS
 66
1
 70
0
  0
VERTEX
  8
0
 62
7
  6
CONTINUOUS
 10
290.0710900486
 20
225.7964239773
  0
VERTEX
  8
0
 62
7
  6
CONTINUOUS
 10
290.1118415694
 20
225.7974794137
  0
VERTEX
  8
0
 62
7
  6
CONTINUOUS
 10
290.1661331618
 20
225.8024272304
  0
VERTEX
  8
0
 62
7
  6
CONTINUOUS
 10
290.2220606808
 20
225.8122464802
  0
VERTEX
  8
0
 62
7
  6
CONTINUOUS
 10
290.2784320955
 20
225.8275892191
  0
VERTEX
  8
0
 62
7
  6
CONTINUOUS
 10
290.3337902959
 20
225.8486957857
  0
VERTEX
  8
0
 62
7
  6
CONTINUOUS
 10
290.3867800626
 20
225.8754026547
  0
VERTEX
  8
0
 62
7
  6
CONTINUOUS
 10
290.4366270268
 20
225.9074770158
  0
VERTEX
  8
0
 62
7
  6
CONTINUOUS
 10
290.4827196303
 20
225.944603609
  0
VERTEX
  8
0
 62
7
  6
CONTINUOUS
 10
290.524555877
 20
225.9864264526
  0
VERTEX
  8
0
 62
7
  6
CONTINUOUS
 10
290.5616670187
 20
226.0325200065
  0
VERTEX
  8
0
 62
7
  6
CONTINUOUS
 10
290.5918193157
 20
226.0792262932
  0
SEQEND
  0
LINE
  8
0
 62
7
  6
CONTINUOUS
 10
306.5745711026
 20
225.7964238622
 11
300.9129066572
 21
225.7964238622
  0
LINE
  8
0
 62
7
  6
CONTINUOUS
 10
290.0710971859
 20
225.7964238622
 11
284.4094247808
 21
225.7964238622
  0
LINE
  8
0
 62
7
  6
CONTINUOUS
 10
290.1455121792
 20
225.8198891253
 11
284.3725246278
 21
225.8198891253
  0
LINE
  8
0
 62
7
  6
CONTINUOUS
 10
284.2402575841
 20
227.7569053494
 11
290.2947413218
 21
227.7569053494
  0
POLYLINE
  8
0
 62
7
  6
CONTINUOUS
 66
1
 70
0
  0
VERTEX
  8
0
 62
7
  6
CONTINUOUS
 10
284.2402575841
 20
227.7569053494
  0
VERTEX
  8
0
 62
7
  6
CONTINUOUS
 10
284.1903209883
 20
227.7597215532
  0
VERTEX
  8
0
 62
7
  6
CONTINUOUS
 10
284.1405153862
 20
227.7682056685
  0
VERTEX
  8
0
 62
7
  6
CONTINUOUS
 10
284.0912273676
 20
227.7824114363
  0
VERTEX
  8
0
 62
7
  6
CONTINUOUS
 10
284.042869235
 20
227.8023892696
  0
VERTEX
  8
0
 62
7
  6
CONTINUOUS
 10
283.9958811195
 20
227.8281829047
  0
VERTEX
  8
0
 62
7
  6
CONTINUOUS
 10
283.9507947372
 20
227.8597802804
  0
VERTEX
  8
0
 62
7
  6
CONTINUOUS
 10
283.9081723595
 20
227.8971201349
  0
VERTEX
  8
0
 62
7
  6
CONTINUOUS
 10
283.868661152
 20
227.940017648
  0
VERTEX
  8
0
 62
7
  6
CONTINUOUS
 10
283.8329091284
 20
227.9881983792
  0
VERTEX
  8
0
 62
7
  6
CONTINUOUS
 10
283.8016049684
 20
228.0412049353
  0
VERTEX
  8
0
 62
7
  6
CONTINUOUS
 10
283.7753869667
 20
228.0984599316
  0
VERTEX
  8
0
 62
7
  6
CONTINUOUS
 10
283.7548580589
 20
228.1591610247
  0
VERTEX
  8
0
 62
7
  6
CONTINUOUS
 10
283.7404873568
 20
228.2224144311
  0
VERTEX
  8
0
 62
7
  6
CONTINUOUS
 10
283.7326038537
 20
228.2872572105
  0
SEQEND
  0
POLYLINE
  8
0
 62
7
  6
CONTINUOUS
 66
1
 70
0
  0
VERTEX
  8
0
 62
7
  6
CONTINUOUS
 10
300.3238794684
 20
226.3026422416
  0
VERTEX
  8
0
 62
7
  6
CONTINUOUS
 10
300.3307905719
 20
226.2473233181
  0
VERTEX
  8
0
 62
7
  6
CONTINUOUS
 10
300.3435673408
 20
226.1930523119
  0
VERTEX
  8
0
 62
7
  6
CONTINUOUS
 10
300.3620616383
 20
226.1404593926
  0
VERTEX
  8
0
 62
7
  6
CONTINUOUS
 10
300.3860513885
 20
226.0901667962
  0
VERTEX
  8
0
 62
7
  6
CONTINUOUS
 10
300.3921802796
 20
226.0792266903
  0
SEQEND
  0
LINE
  8
0
 62
7
  6
CONTINUOUS
 10
300.1858917424
 20
228.2519887999
 11
300.1816038537
 21
228.2872572105
  0
LINE
  8
0
 62
7
  6
CONTINUOUS
 10
278.7370596793
 20
228.7964238622
 11
308.1774818913
 21
228.7964238622
  0
POLYLINE
  8
0
 62
7
  6
CONTINUOUS
 66
1
 70
0
  0
VERTEX
  8
0
 62
7
  6
CONTINUOUS
 10
300.3921795902
 20
226.0792262932
  0
VERTEX
  8
0
 62
7
  6
CONTINUOUS
 10
300.4223318872
 20
226.0325200065
  0
VERTEX
  8
0
 62
7
  6
CONTINUOUS
 10
300.4594430289
 20
225.9864264526
  0
VERTEX
  8
0
 62
7
  6
CONTINUOUS
 10
300.5012792756
 20
225.944603609
  0
VERTEX
  8
0
 62
7
  6
CONTINUOUS
 10
300.5473718791
 20
225.9074770158
  0
VERTEX
  8
0
 62
7
  6
CONTINUOUS
 10
300.5972188433
 20
225.8754026547
  0
VERTEX
  8
0
 62
7
  6
CONTINUOUS
 10
300.65020861
 20
225.8486957857
  0
VERTEX
  8
0
 62
7
  6
CONTINUOUS
 10
300.7055668104
 20
225.8275892191
  0
VERTEX
  8
0
 62
7
  6
CONTINUOUS
 10
300.7619382251
 20
225.8122464802
  0
VERTEX
  8
0
 62
7
  6
CONTINUOUS
 10
300.8178657441
 20
225.8024272304
  0
VERTEX
  8
0
 62
7
  6
CONTINUOUS
 10
300.8721573365
 20
225.7974794137
  0
VERTEX
  8
0
 62
7
  6
CONTINUOUS
 10
300.9129088573
 20
225.7964239773
  0
SEQEND
  0
LINE
  8
0
 62
7
  6
CONTINUOUS
 10
267.2547472611
 20
232.7964238622
 11
323.7292516448
 21
232.7964238622
  0
LINE
  8
0
 62
7
  6
CONTINUOUS
 10
307.1114174189
 20
226.2854837918
 11
307.286999453
 21
228.7964238622
  0
LINE
  8
DEFAULT_1
 62
2
  6
CENTER
 10
320.891999453
 20
230.0464238622
 11
320.891999453
 21
226.7965238622
  0
LINE
  8
0
 62
2
  6
CONTINUOUS
 10
320.891999453
 20
225.8464238622
 11
320.891999453
 21
223.7464238622
  0
LINE
  8
DEFAULT_1
 62
2
  6
CENTER
 10
320.891999453
 20
219.5464238622
 11
320.891999453
 21
222.7963238622
  0
ARC
  8
0
 62
7
  6
CONTINUOUS
 10
65.7417554303
 20
217.7964238622
 40
1.0
 50
180.0
 51
270.0
  0
ARC
  8
SURFACE
 62
7
  6
CONTINUOUS
 10
84.4650137273
 20
217.7964238646
 40
0.9999999976
 50
184.5700001362
 51
270.0000000109
  0
ARC
  8
SURFACE
 62
7
  6
CONTINUOUS
 10
95.2184971334
 20
217.7964238654
 40
0.9999999968
 50
269.9999999853
 51
355.4299998152
  0
ARC
  8
SURFACE
 62
7
  6
CONTINUOUS
 10
78.4184971334
 20
217.7964238654
 40
0.9999999968
 50
269.9999999853
 51
355.4299998152
  0
ARC
  8
0
 62
7
  6
CONTINUOUS
 10
76.0917554303
 20
217.2964238622
 40
0.5
 50
180.0
 51
270.0
  0
ARC
  8
0
 62
7
  6
CONTINUOUS
 10
69.9917554303
 20
217.2964238622
 40
0.5
 50
270.0
 51
360.0
  0
ARC
  8
0
 62
7
  6
CONTINUOUS
 10
71.1417554303
 20
221.8087129225
 40
0.2
 50
355.4300165893
 51
359.9989602641
  0
ARC
  8
0
 62
7
  6
CONTINUOUS
 10
74.9417554303
 20
221.8087129225
 40
0.2
 50
180.0018396716
 51
184.571762152
  0
ARC
  8
0
 62
7
  6
CONTINUOUS
 10
83.3417554303
 20
221.8087129225
 40
0.2
 50
180.0074858365
 51
184.5748353297
  0
ARC
  8
0
 62
7
  6
CONTINUOUS
 10
100.1417554303
 20
221.8087129225
 40
0.2
 50
180.007485836
 51
184.5748353662
  0
ARC
  8
0
 62
7
  6
CONTINUOUS
 10
79.5417554585
 20
221.8087132757
 40
0.1999999953
 50
355.4298985042
 51
359.9998988267
  0
ARC
  8
0
 62
7
  6
CONTINUOUS
 10
96.3417554585
 20
221.8087132757
 40
0.1999999953
 50
355.4298985041
 51
359.9998988267
  0
ARC
  8
SURFACE
 62
7
  6
CONTINUOUS
 10
120.4184971333
 20
217.7964238646
 40
1.0
 50
269.9999999889
 51
355.4299998603
  0
ARC
  8
SURFACE
 62
7
  6
CONTINUOUS
 10
103.6184971333
 20
217.7964238646
 40
1.0
 50
269.9999999889
 51
355.4299998603
  0
ARC
  8
SURFACE
 62
7
  6
CONTINUOUS
 10
126.4650137272
 20
217.7964238647
 40
0.9999999995
 50
184.5700001443
 51
270.0000000115
  0
ARC
  8
SURFACE
 62
7
  6
CONTINUOUS
 10
109.6650137272
 20
217.7964238647
 40
0.9999999995
 50
184.5700001443
 51
270.0000000115
  0
ARC
  8
SURFACE
 62
7
  6
CONTINUOUS
 10
134.8650137273
 20
217.7964238646
 40
0.9999999976
 50
184.5700001362
 51
270.0000000109
  0
ARC
  8
SURFACE
 62
7
  6
CONTINUOUS
 10
118.0650137273
 20
217.7964238646
 40
0.9999999976
 50
184.5700001362
 51
270.0000000109
  0
ARC
  8
SURFACE
 62
7
  6
CONTINUOUS
 10
101.2650137273
 20
217.7964238646
 40
0.9999999976
 50
184.5700001362
 51
270.0000000109
  0
ARC
  8
SURFACE
 62
7
  6
CONTINUOUS
 10
128.8184971334
 20
217.7964238654
 40
0.9999999968
 50
269.9999999853
 51
355.4299998152
  0
ARC
  8
SURFACE
 62
7
  6
CONTINUOUS
 10
112.0184971334
 20
217.7964238654
 40
0.9999999968
 50
269.9999999853
 51
355.4299998152
  0
ARC
  8
0
 62
7
  6
CONTINUOUS
 10
121.5417554303
 20
221.8087128618
 40
0.2
 50
355.4300173228
 51
0.0000173758
  0
ARC
  8
0
 62
7
  6
CONTINUOUS
 10
125.3417554303
 20
221.8087129225
 40
0.2
 50
180.0
 51
184.57
  0
ARC
  8
0
 62
7
  6
CONTINUOUS
 10
108.5417554303
 20
221.8087129225
 40
0.2
 50
180.0
 51
184.57
  0
ARC
  8
0
 62
7
  6
CONTINUOUS
 10
104.7417554303
 20
221.8087128889
 40
0.2
 50
355.4300096053
 51
0.0000096337
  0
ARC
  8
0
 62
7
  6
CONTINUOUS
 10
116.9417554303
 20
221.8087129225
 40
0.2
 50
180.0074858365
 51
184.5748353296
  0
ARC
  8
0
 62
7
  6
CONTINUOUS
 10
133.7417554303
 20
221.8087129225
 40
0.2
 50
180.0074858365
 51
184.5748353296
  0
ARC
  8
0
 62
7
  6
CONTINUOUS
 10
129.9417554585
 20
221.8087132757
 40
0.1999999953
 50
355.4298985041
 51
359.9998988267
  0
ARC
  8
0
 62
7
  6
CONTINUOUS
 10
113.1417554585
 20
221.8087132757
 40
0.1999999953
 50
355.4298985042
 51
359.9998988268
  0
ARC
  8
0
 62
7
  6
CONTINUOUS
 10
81.3611213825
 20
226.7964238622
 40
2.0
 50
88.3875240712
 51
89.392715218
  0
ARC
  8
SURFACE
 62
7
  6
CONTINUOUS
 10
81.5011646648
 20
227.4964238622
 40
1.3
 50
92.6233399025
 51
175.429993736
  0
ARC
  8
SURFACE
 62
7
  6
CONTINUOUS
 10
81.3823461958
 20
227.4964238622
 40
1.3
 50
4.57
 51
90.0
  0
ARC
  8
SURFACE
 62
7
  6
CONTINUOUS
 10
72.9823461958
 20
227.4964238622
 40
1.3
 50
84.7681841196
 51
87.3766600984
  0
ARC
  8
SURFACE
 62
7
  6
CONTINUOUS
 10
73.1011646648
 20
227.4964238622
 40
1.3
 50
90.0
 51
175.43
  0
ARC
  8
0
 62
7
  6
CONTINUOUS
 10
79.6072475008
 20
228.368133174
 40
3.0
 50
4.57
 51
5.6634389242
  0
ARC
  8
0
 62
7
  6
CONTINUOUS
 10
79.6072475008
 20
228.368133174
 40
3.0
 50
5.6774040909
 51
15.95
  0
ARC
  8
0
 62
7
  6
CONTINUOUS
 10
74.8762633598
 20
228.368133174
 40
3.0
 50
164.0499968104
 51
175.4300311856
  0
ARC
  8
0
 62
7
  6
CONTINUOUS
 10
65.2417554303
 20
229.2964238622
 40
0.5
 50
180.0
 51
185.1080852361
  0
ARC
  8
0
 62
7
  6
CONTINUOUS
 10
98.322389478
 20
226.7964238622
 40
2.0
 50
92.4724943179
 51
118.7512139601
  0
ARC
  8
SURFACE
 62
7
  6
CONTINUOUS
 10
98.3011646648
 20
227.4964238622
 40
1.3
 50
92.6233399025
 51
175.429993736
  0
ARC
  8
SURFACE
 62
7
  6
CONTINUOUS
 10
98.1823461958
 20
227.4964238622
 40
1.3
 50
4.57
 51
90.0
  0
ARC
  8
0
 62
7
  6
CONTINUOUS
 10
88.5871934998
 20
226.2964238622
 40
0.5
 50
270.0000000002
 51
359.8425689965
  0
ARC
  8
0
 62
7
  6
CONTINUOUS
 10
91.096317362
 20
226.2964238622
 40
0.5
 50
180.1574309598
 51
269.9999999998
  0
ARC
  8
0
 62
7
  6
CONTINUOUS
 10
96.4072475008
 20
228.368133174
 40
3.0
 50
4.57
 51
5.6634389242
  0
ARC
  8
0
 62
7
  6
CONTINUOUS
 10
96.4072475008
 20
228.368133174
 40
3.0
 50
5.6774040909
 51
15.95
  0
ARC
  8
0
 62
7
  6
CONTINUOUS
 10
91.8291525169
 20
227.7964238622
 40
2.0
 50
269.9997267519
 51
278.7853866728
  0
ARC
  8
0
 62
7
  6
CONTINUOUS
 10
72.7417554303
 20
232.5964238622
 40
0.2
 50
0.0
 51
90.0
  0
ARC
  8
0
 62
7
  6
CONTINUOUS
 10
81.7417554303
 20
232.5964238622
 40
0.2
 50
90.0
 51
180.0
  0
ARC
  8
0
 62
7
  6
CONTINUOUS
 10
81.7417556138
 20
232.5445275567
 40
0.2
 50
180.0001640918
 51
195.95
  0
ARC
  8
0
 62
7
  6
CONTINUOUS
 10
89.5417554303
 20
232.5964238622
 40
0.2
 50
0.0
 51
90.0
  0
ARC
  8
0
 62
7
  6
CONTINUOUS
 10
98.5417554303
 20
232.5964238622
 40
0.2
 50
90.0
 51
180.0
  0
ARC
  8
0
 62
7
  6
CONTINUOUS
 10
98.5417556138
 20
232.5445275567
 40
0.2
 50
180.0001640918
 51
195.95
  0
ARC
  8
0
 62
7
  6
CONTINUOUS
 10
71.1417554303
 20
232.5964238622
 40
0.2
 50
0.0
 51
90.0
  0
ARC
  8
0
 62
7
  6
CONTINUOUS
 10
83.3417554303
 20
232.5964238622
 40
0.2
 50
90.0
 51
180.0
  0
ARC
  8
0
 62
7
  6
CONTINUOUS
 10
87.9417554303
 20
232.5964238622
 40
0.2
 50
0.0
 51
90.0
  0
ARC
  8
0
 62
7
  6
CONTINUOUS
 10
100.1417554303
 20
232.5964238622
 40
0.2
 50
90.0
 51
180.0
  0
ARC
  8
0
 62
7
  6
CONTINUOUS
 10
64.9417554303
 20
232.5964238622
 40
0.2
 50
90.0
 51
180.0
  0
ARC
  8
0
 62
7
  6
CONTINUOUS
 10
113.2072475008
 20
228.368133174
 40
3.0
 50
4.57
 51
5.6634389242
  0
ARC
  8
0
 62
7
  6
CONTINUOUS
 10
113.2072475008
 20
228.368133174
 40
3.0
 50
5.6774040909
 51
15.95
  0
ARC
  8
0
 62
7
  6
CONTINUOUS
 10
108.4762633598
 20
228.368133174
 40
3.0
 50
174.3365197049
 51
175.43
  0
ARC
  8
0
 62
7
  6
CONTINUOUS
 10
108.4762633598
 20
228.368133174
 40
3.0
 50
164.05
 51
174.3225959074
  0
ARC
  8
SURFACE
 62
7
  6
CONTINUOUS
 10
115.1011646648
 20
227.4964238622
 40
1.3
 50
92.6233399025
 51
175.429993736
  0
ARC
  8
SURFACE
 62
7
  6
CONTINUOUS
 10
114.9823461958
 20
227.4964238622
 40
1.3
 50
4.57
 51
90.0
  0
ARC
  8
SURFACE
 62
7
  6
CONTINUOUS
 10
106.5823461958
 20
227.4964238622
 40
1.3
 50
84.7681841196
 51
87.3766600984
  0
ARC
  8
SURFACE
 62
7
  6
CONTINUOUS
 10
106.7011646648
 20
227.4964238622
 40
1.3
 50
90.0
 51
175.43
  0
ARC
  8
0
 62
7
  6
CONTINUOUS
 10
131.7611213825
 20
226.7964238622
 40
2.0
 50
88.3875240712
 51
89.392715218
  0
ARC
  8
0
 62
7
  6
CONTINUOUS
 10
138.9871934998
 20
226.2964238622
 40
0.5
 50
270.0000000002
 51
359.8425689965
  0
ARC
  8
0
 62
7
  6
CONTINUOUS
 10
130.0072475008
 20
228.368133174
 40
3.0
 50
4.57
 51
5.6634389242
  0
ARC
  8
0
 62
7
  6
CONTINUOUS
 10
130.0072475008
 20
228.368133174
 40
3.0
 50
5.6774040909
 51
15.95
  0
ARC
  8
0
 62
7
  6
CONTINUOUS
 10
125.2762633598
 20
228.368133174
 40
3.0
 50
174.3365197049
 51
175.43
  0
ARC
  8
0
 62
7
  6
CONTINUOUS
 10
125.2762633598
 20
228.368133174
 40
3.0
 50
164.05
 51
174.3225959074
  0
ARC
  8
SURFACE
 62
7
  6
CONTINUOUS
 10
131.9011646648
 20
227.4964238622
 40
1.3
 50
92.6233399025
 51
175.429993736
  0
ARC
  8
SURFACE
 62
7
  6
CONTINUOUS
 10
131.7823461958
 20
227.4964238622
 40
1.3
 50
4.57
 51
90.0
  0
ARC
  8
SURFACE
 62
7
  6
CONTINUOUS
 10
123.3823461958
 20
227.4964238622
 40
1.3
 50
84.7681841196
 51
87.3766600984
  0
ARC
  8
SURFACE
 62
7
  6
CONTINUOUS
 10
123.5011646648
 20
227.4964238622
 40
1.3
 50
90.0
 51
175.43
  0
ARC
  8
0
 62
7
  6
CONTINUOUS
 10
123.1417554303
 20
232.5964238622
 40
0.2
 50
0.0
 51
90.0
  0
ARC
  8
0
 62
7
  6
CONTINUOUS
 10
123.1417552468
 20
232.5445275567
 40
0.2
 50
344.05
 51
359.9998359082
  0
ARC
  8
0
 62
7
  6
CONTINUOUS
 10
106.3417554303
 20
232.5964238622
 40
0.2
 50
0.0
 51
90.0
  0
ARC
  8
0
 62
7
  6
CONTINUOUS
 10
106.3417552468
 20
232.5445275567
 40
0.2
 50
344.05
 51
359.9998359082
  0
ARC
  8
0
 62
7
  6
CONTINUOUS
 10
115.3417554303
 20
232.5964238622
 40
0.2
 50
90.0
 51
180.0
  0
ARC
  8
0
 62
7
  6
CONTINUOUS
 10
115.3417556138
 20
232.5445275567
 40
0.2
 50
180.0001640918
 51
195.95
  0
ARC
  8
0
 62
7
  6
CONTINUOUS
 10
132.1417554303
 20
232.5964238622
 40
0.2
 50
90.0
 51
180.0
  0
ARC
  8
0
 62
7
  6
CONTINUOUS
 10
132.1417556138
 20
232.5445275567
 40
0.2
 50
180.0001640918
 51
195.95
  0
ARC
  8
0
 62
7
  6
CONTINUOUS
 10
139.9417554303
 20
232.5964238622
 40
0.2
 50
0.0
 51
90.0
  0
ARC
  8
0
 62
7
  6
CONTINUOUS
 10
121.5417554303
 20
232.5964238622
 40
0.2
 50
0.0
 51
90.0
  0
ARC
  8
0
 62
7
  6
CONTINUOUS
 10
104.7417554303
 20
232.5964238622
 40
0.2
 50
0.0
 51
90.0
  0
ARC
  8
0
 62
7
  6
CONTINUOUS
 10
116.9417554303
 20
232.5964238622
 40
0.2
 50
90.0
 51
180.0
  0
ARC
  8
0
 62
7
  6
CONTINUOUS
 10
133.7417554303
 20
232.5964238622
 40
0.2
 50
90.0
 51
180.0
  0
ARC
  8
0
 62
7
  6
CONTINUOUS
 10
138.3417554303
 20
232.5964238622
 40
0.2
 50
0.0
 51
90.0
  0
ARC
  8
SURFACE
 62
7
  6
CONTINUOUS
 10
187.6184971333
 20
217.7964238646
 40
1.0
 50
269.9999999889
 51
355.4299998602
  0
ARC
  8
SURFACE
 62
7
  6
CONTINUOUS
 10
170.8184971333
 20
217.7964238646
 40
1.0
 50
269.9999999889
 51
355.4299998603
  0
ARC
  8
SURFACE
 62
7
  6
CONTINUOUS
 10
154.0184971333
 20
217.7964238646
 40
1.0
 50
269.9999999889
 51
355.4299998603
  0
ARC
  8
0
 62
7
  6
CONTINUOUS
 10
214.7417554303
 20
217.7964238622
 40
1.0
 50
270.0
 51
360.0
  0
ARC
  8
SURFACE
 62
7
  6
CONTINUOUS
 10
193.6650137272
 20
217.7964238647
 40
0.9999999995
 50
184.5700001443
 51
270.0000000115
  0
ARC
  8
SURFACE
 62
7
  6
CONTINUOUS
 10
176.8650137272
 20
217.7964238647
 40
0.9999999995
 50
184.5700001443
 51
270.0000000115
  0
ARC
  8
SURFACE
 62
7
  6
CONTINUOUS
 10
160.0650137272
 20
217.7964238647
 40
0.9999999995
 50
184.5700001443
 51
270.0000000115
  0
ARC
  8
SURFACE
 62
7
  6
CONTINUOUS
 10
202.0650137273
 20
217.7964238646
 40
0.9999999976
 50
184.5700001362
 51
270.0000000109
  0
ARC
  8
SURFACE
 62
7
  6
CONTINUOUS
 10
185.2650137273
 20
217.7964238646
 40
0.9999999976
 50
184.5700001362
 51
270.0000000109
  0
ARC
  8
SURFACE
 62
7
  6
CONTINUOUS
 10
168.4650137273
 20
217.7964238646
 40
0.9999999976
 50
184.5700001362
 51
270.0000000109
  0
ARC
  8
SURFACE
 62
7
  6
CONTINUOUS
 10
151.6650137273
 20
217.7964238646
 40
0.9999999976
 50
184.5700001362
 51
270.0000000109
  0
ARC
  8
SURFACE
 62
7
  6
CONTINUOUS
 10
196.0184971334
 20
217.7964238654
 40
0.9999999968
 50
269.9999999853
 51
355.4299998152
  0
ARC
  8
SURFACE
 62
7
  6
CONTINUOUS
 10
179.2184971334
 20
217.7964238654
 40
0.9999999968
 50
269.9999999853
 51
355.4299998152
  0
ARC
  8
SURFACE
 62
7
  6
CONTINUOUS
 10
162.4184971334
 20
217.7964238654
 40
0.9999999968
 50
269.9999999853
 51
355.4299998152
  0
ARC
  8
SURFACE
 62
7
  6
CONTINUOUS
 10
145.6184971334
 20
217.7964238654
 40
0.9999999968
 50
269.9999999853
 51
355.4299998152
  0
ARC
  8
0
 62
7
  6
CONTINUOUS
 10
210.4917554303
 20
217.2964238622
 40
0.5
 50
180.0
 51
270.0
  0
ARC
  8
0
 62
7
  6
CONTINUOUS
 10
204.3917554303
 20
217.2964238622
 40
0.5
 50
270.0
 51
360.0
  0
ARC
  8
0
 62
7
  6
CONTINUOUS
 10
155.1417554303
 20
221.8087128618
 40
0.2
 50
355.4300173228
 51
0.0000173758
  0
ARC
  8
0
 62
7
  6
CONTINUOUS
 10
171.9417554303
 20
221.808712895
 40
0.2
 50
355.4300078478
 51
0.0000078706
  0
ARC
  8
0
 62
7
  6
CONTINUOUS
 10
150.5417554303
 20
221.8087129225
 40
0.2
 50
180.0074858365
 51
184.5748353297
  0
ARC
  8
0
 62
7
  6
CONTINUOUS
 10
163.6072475008
 20
228.368133174
 40
3.0
 50
4.6066715186
 51
15.95
  0
ARC
  8
0
 62
7
  6
CONTINUOUS
 10
175.6762633598
 20
228.368133174
 40
3.0
 50
174.3365197049
 51
175.43
  0
ARC
  8
0
 62
7
  6
CONTINUOUS
 10
175.6762633598
 20
228.368133174
 40
3.0
 50
164.05
 51
174.3225959074
  0
ARC
  8
0
 62
7
  6
CONTINUOUS
 10
146.8072475008
 20
228.368133174
 40
3.0
 50
4.57
 51
5.6634389242
  0
ARC
  8
0
 62
7
  6
CONTINUOUS
 10
146.8072475008
 20
228.368133174
 40
3.0
 50
5.6774040909
 51
15.95
  0
ARC
  8
0
 62
7
  6
CONTINUOUS
 10
158.8762633598
 20
228.368133174
 40
3.0
 50
174.3365197049
 51
175.43
  0
ARC
  8
0
 62
7
  6
CONTINUOUS
 10
158.8762633598
 20
228.368133174
 40
3.0
 50
164.05
 51
174.3225959074
  0
ARC
  8
0
 62
7
  6
CONTINUOUS
 10
142.2291525169
 20
227.7964238622
 40
2.0
 50
269.9997267519
 51
278.7853866728
  0
ARC
  8
0
 62
7
  6
CONTINUOUS
 10
148.722389478
 20
226.7964238622
 40
2.0
 50
92.1558382679
 51
118.7512139601
  0
ARC
  8
0
 62
7
  6
CONTINUOUS
 10
148.5823461958
 20
227.4964238622
 40
1.3
 50
4.57
 51
90.0
  0
ARC
  8
0
 62
7
  6
CONTINUOUS
 10
141.496317362
 20
226.2964238622
 40
0.5
 50
180.1574309598
 51
269.9999999998
  0
ARC
  8
0
 62
7
  6
CONTINUOUS
 10
156.7417554303
 20
232.5964238622
 40
0.2
 50
0.0
 51
90.0
  0
ARC
  8
0
 62
7
  6
CONTINUOUS
 10
156.7417552468
 20
232.5445275567
 40
0.2
 50
344.05
 51
359.9998359082
  0
ARC
  8
0
 62
7
  6
CONTINUOUS
 10
173.5417554303
 20
232.5964238622
 40
0.2
 50
0.0
 51
90.0
  0
ARC
  8
0
 62
7
  6
CONTINUOUS
 10
173.5417552468
 20
232.5445275567
 40
0.2
 50
344.05
 51
359.9998359082
  0
ARC
  8
0
 62
7
  6
CONTINUOUS
 10
148.9417554303
 20
232.5964238622
 40
0.2
 50
90.0
 51
180.0
  0
ARC
  8
0
 62
7
  6
CONTINUOUS
 10
148.9417556138
 20
232.5445275567
 40
0.2
 50
180.0001640918
 51
195.95
  0
ARC
  8
0
 62
7
  6
CONTINUOUS
 10
165.7269235871
 20
232.5964238622
 40
0.2
 50
90.0
 51
157.7894865726
  0
ARC
  8
0
 62
7
  6
CONTINUOUS
 10
155.1417554303
 20
232.5964238622
 40
0.2
 50
0.0
 51
90.0
  0
ARC
  8
0
 62
7
  6
CONTINUOUS
 10
171.9417554303
 20
232.5964238622
 40
0.2
 50
0.0
 51
90.0
  0
ARC
  8
0
 62
7
  6
CONTINUOUS
 10
150.5417554303
 20
232.5964238622
 40
0.2
 50
90.0
 51
180.0
  0
ARC
  8
SURFACE
 62
7
  6
CONTINUOUS
 10
197.2072475008
 20
228.368133174
 40
3.0
 50
4.5699943704
 51
15.949999258
  0
ARC
  8
SURFACE
 62
7
  6
CONTINUOUS
 10
209.2762633598
 20
228.368133174
 40
3.0
 50
164.0499997686
 51
175.4300049796
  0
ARC
  8
SURFACE
 62
7
  6
CONTINUOUS
 10
180.4072475008
 20
228.368133174
 40
3.0
 50
4.5699943704
 51
15.949999258
  0
ARC
  8
SURFACE
 62
7
  6
CONTINUOUS
 10
192.4762633598
 20
228.368133174
 40
3.0
 50
164.0499997686
 51
175.4300049796
  0
ARC
  8
SURFACE
 62
7
  6
CONTINUOUS
 10
199.3269236385
 20
232.5964238622
 40
0.2
 50
90.0000147115
 51
195.9499959575
  0
ARC
  8
SURFACE
 62
7
  6
CONTINUOUS
 10
207.1565872734
 20
232.5964238622
 40
0.2
 50
344.05
 51
90.0
  0
ARC
  8
SURFACE
 62
7
  6
CONTINUOUS
 10
182.5269236385
 20
232.5964238622
 40
0.2
 50
90.0000147115
 51
195.9499959575
  0
ARC
  8
SURFACE
 62
7
  6
CONTINUOUS
 10
190.3565872734
 20
232.5964238622
 40
0.2
 50
344.05
 51
90.0
  0
ARC
  8
0
 62
7
  6
CONTINUOUS
 10
215.5417554303
 20
232.5964238622
 40
0.2
 50
82.7845401868
 51
90.0
  0
ARC
  8
0
 62
7
  6
CONTINUOUS
 10
71.1417554303
 20
97.7403719912
 40
0.2
 50
269.9999965921
 51
359.9999984251
  0
ARC
  8
0
 62
7
  6
CONTINUOUS
 10
83.3417554303
 20
97.7403719912
 40
0.2
 50
180.0000003931
 51
270.0
  0
ARC
  8
0
 62
7
  6
CONTINUOUS
 10
83.3417554303
 20
106.0403719912
 40
1.8
 50
107.7189318734
 51
252.2810681266
  0
ARC
  8
0
 62
7
  6
CONTINUOUS
 10
71.1417554303
 20
106.0403719912
 40
1.8
 50
287.7189318734
 51
72.2810681266
  0
ARC
  8
0
 62
7
  6
CONTINUOUS
 10
71.8417554303
 20
103.8494817612
 40
0.5
 50
107.7189318734
 51
180.0
  0
ARC
  8
0
 62
7
  6
CONTINUOUS
 10
71.8417554303
 20
108.2312622213
 40
0.5
 50
180.0
 51
252.2810681266
  0
ARC
  8
0
 62
7
  6
CONTINUOUS
 10
82.6417554303
 20
108.2312622213
 40
0.5
 50
287.7189318734
 51
360.0
  0
ARC
  8
0
 62
7
  6
CONTINUOUS
 10
82.6417554303
 20
103.8494817612
 40
0.5
 50
0.0
 51
72.2810681266
  0
ARC
  8
0
 62
7
  6
CONTINUOUS
 10
87.9417554303
 20
97.7403719912
 40
0.2
 50
270.0
 51
360.0
  0
ARC
  8
0
 62
7
  6
CONTINUOUS
 10
100.1417554303
 20
97.7403719912
 40
0.2
 50
180.0
 51
270.0
  0
ARC
  8
0
 62
7
  6
CONTINUOUS
 10
100.1417554303
 20
106.0403719912
 40
1.8
 50
107.7189318734
 51
252.2810681266
  0
ARC
  8
0
 62
7
  6
CONTINUOUS
 10
87.9417554303
 20
106.0403719912
 40
1.8
 50
287.7189318734
 51
72.2810681266
  0
ARC
  8
0
 62
7
  6
CONTINUOUS
 10
88.6417554303
 20
103.8494817612
 40
0.5
 50
107.7189318734
 51
180.0
  0
ARC
  8
0
 62
7
  6
CONTINUOUS
 10
88.6417554303
 20
108.2312622213
 40
0.5
 50
180.0
 51
252.2810681266
  0
ARC
  8
0
 62
7
  6
CONTINUOUS
 10
99.4417554303
 20
103.8494817612
 40
0.5
 50
0.0
 51
72.2810681266
  0
ARC
  8
0
 62
7
  6
CONTINUOUS
 10
99.4417554303
 20
108.2312622213
 40
0.5
 50
287.7189318734
 51
360.0
  0
ARC
  8
0
 62
7
  6
CONTINUOUS
 10
98.9417554303
 20
109.2249169912
 40
1.0
 50
0.0
 51
90.0
  0
ARC
  8
0
 62
7
  6
CONTINUOUS
 10
89.1417554303
 20
109.2249169912
 40
1.0
 50
90.0
 51
180.0
  0
ARC
  8
0
 62
7
  6
CONTINUOUS
 10
82.1417554303
 20
109.2249169912
 40
1.0
 50
0.0
 51
90.0
  0
ARC
  8
0
 62
7
  6
CONTINUOUS
 10
72.3417554303
 20
109.2249169912
 40
1.0
 50
90.0
 51
180.0
  0
ARC
  8
0
 62
7
  6
CONTINUOUS
 10
101.5167554303
 20
119.9403719912
 40
0.8603594806
 50
180.0
 51
270.0
  0
ARC
  8
0
 62
7
  6
CONTINUOUS
 10
103.3667554303
 20
119.9403719912
 40
0.8603594806
 50
270.0
 51
360.0
  0
ARC
  8
0
 62
7
  6
CONTINUOUS
 10
93.1167554303
 20
115.9403719912
 40
0.8603594806
 50
180.0
 51
270.0
  0
ARC
  8
0
 62
7
  6
CONTINUOUS
 10
94.9667554303
 20
115.9403719912
 40
0.8603594806
 50
270.0
 51
360.0
  0
ARC
  8
0
 62
7
  6
CONTINUOUS
 10
84.7167554303
 20
119.9403719912
 40
0.8603594806
 50
180.0
 51
270.0
  0
ARC
  8
0
 62
7
  6
CONTINUOUS
 10
86.5667554303
 20
119.9403719912
 40
0.8603594806
 50
270.0
 51
360.0
  0
ARC
  8
0
 62
7
  6
CONTINUOUS
 10
76.3167554303
 20
115.9403719912
 40
0.8603594806
 50
180.0
 51
270.0
  0
ARC
  8
0
 62
7
  6
CONTINUOUS
 10
78.1667554303
 20
115.9403719912
 40
0.8603594806
 50
270.0
 51
360.0
  0
ARC
  8
0
 62
7
  6
CONTINUOUS
 10
67.9167554303
 20
119.9403719912
 40
0.8603594806
 50
180.0
 51
270.0
  0
ARC
  8
0
 62
7
  6
CONTINUOUS
 10
69.7667554303
 20
119.9403719912
 40
0.8603594806
 50
270.0
 51
360.0
  0
ARC
  8
0
 62
7
  6
CONTINUOUS
 10
121.5417554303
 20
97.7403719912
 40
0.2
 50
269.9999965922
 51
359.9999984251
  0
ARC
  8
0
 62
7
  6
CONTINUOUS
 10
116.9417554303
 20
97.7403719912
 40
0.2
 50
180.0000003931
 51
270.0
  0
ARC
  8
0
 62
7
  6
CONTINUOUS
 10
104.7417554303
 20
97.7403719912
 40
0.2
 50
270.0
 51
360.0
  0
ARC
  8
0
 62
7
  6
CONTINUOUS
 10
121.5417554303
 20
106.0403719912
 40
1.8
 50
287.7189318734
 51
72.2810681266
  0
ARC
  8
0
 62
7
  6
CONTINUOUS
 10
116.9417554303
 20
106.0403719912
 40
1.8
 50
107.7189318734
 51
252.2810681266
  0
ARC
  8
0
 62
7
  6
CONTINUOUS
 10
104.7417554303
 20
106.0403719912
 40
1.8
 50
287.7189318734
 51
72.2810681266
  0
ARC
  8
0
 62
7
  6
CONTINUOUS
 10
105.4417554303
 20
108.2312622213
 40
0.5
 50
180.0
 51
252.2810681266
  0
ARC
  8
0
 62
7
  6
CONTINUOUS
 10
105.4417554303
 20
103.8494817612
 40
0.5
 50
107.7189318734
 51
180.0
  0
ARC
  8
0
 62
7
  6
CONTINUOUS
 10
116.2417554303
 20
103.8494817612
 40
0.5
 50
0.0
 51
72.2810681266
  0
ARC
  8
0
 62
7
  6
CONTINUOUS
 10
116.2417554303
 20
108.2312622213
 40
0.5
 50
287.7189318734
 51
360.0
  0
ARC
  8
0
 62
7
  6
CONTINUOUS
 10
133.7417554303
 20
97.7403719912
 40
0.2
 50
180.0000003931
 51
270.0
  0
ARC
  8
0
 62
7
  6
CONTINUOUS
 10
138.3417554303
 20
97.7403719912
 40
0.2
 50
270.0
 51
360.0
  0
ARC
  8
0
 62
7
  6
CONTINUOUS
 10
122.2417554303
 20
103.8494817612
 40
0.5
 50
107.7189318734
 51
180.0
  0
ARC
  8
0
 62
7
  6
CONTINUOUS
 10
122.2417554303
 20
108.2312622213
 40
0.5
 50
180.0
 51
252.2810681266
  0
ARC
  8
0
 62
7
  6
CONTINUOUS
 10
133.0417554303
 20
103.8494817612
 40
0.5
 50
0.0
 51
72.2810681266
  0
ARC
  8
0
 62
7
  6
CONTINUOUS
 10
139.0417554303
 20
103.8494817612
 40
0.5
 50
107.7189318734
 51
180.0
  0
ARC
  8
0
 62
7
  6
CONTINUOUS
 10
138.3417554303
 20
106.0403719912
 40
1.8
 50
287.7189318734
 51
72.2810681266
  0
ARC
  8
0
 62
7
  6
CONTINUOUS
 10
133.7417554303
 20
106.0403719912
 40
1.8
 50
107.7189318734
 51
252.2810681266
  0
ARC
  8
0
 62
7
  6
CONTINUOUS
 10
139.0417554303
 20
108.2312622213
 40
0.5
 50
180.0
 51
252.2810681266
  0
ARC
  8
0
 62
7
  6
CONTINUOUS
 10
133.0417554303
 20
108.2312622213
 40
0.5
 50
287.7189318734
 51
360.0
  0
ARC
  8
0
 62
7
  6
CONTINUOUS
 10
139.5417554303
 20
109.2249169912
 40
1.0
 50
90.0
 51
180.0
  0
ARC
  8
0
 62
7
  6
CONTINUOUS
 10
132.5417554303
 20
109.2249169912
 40
1.0
 50
0.0
 51
90.0
  0
ARC
  8
0
 62
7
  6
CONTINUOUS
 10
122.7417554303
 20
109.2249169912
 40
1.0
 50
90.0
 51
180.0
  0
ARC
  8
0
 62
7
  6
CONTINUOUS
 10
115.7417554303
 20
109.2249169912
 40
1.0
 50
0.0
 51
90.0
  0
ARC
  8
0
 62
7
  6
CONTINUOUS
 10
105.9417554303
 20
109.2249169912
 40
1.0
 50
90.0
 51
180.0
  0
ARC
  8
0
 62
7
  6
CONTINUOUS
 10
135.1167554303
 20
119.9403719912
 40
0.8603594806
 50
180.0
 51
270.0
  0
ARC
  8
0
 62
7
  6
CONTINUOUS
 10
136.9667554303
 20
119.9403719912
 40
0.8603594806
 50
270.0
 51
360.0
  0
ARC
  8
0
 62
7
  6
CONTINUOUS
 10
126.7167554303
 20
115.9403719912
 40
0.8603594806
 50
180.0
 51
270.0
  0
ARC
  8
0
 62
7
  6
CONTINUOUS
 10
128.5667554303
 20
115.9403719912
 40
0.8603594806
 50
270.0
 51
360.0
  0
ARC
  8
0
 62
7
  6
CONTINUOUS
 10
118.3167554303
 20
119.9403719912
 40
0.8603594806
 50
180.0
 51
270.0
  0
ARC
  8
0
 62
7
  6
CONTINUOUS
 10
120.1667554303
 20
119.9403719912
 40
0.8603594806
 50
270.0
 51
360.0
  0
ARC
  8
0
 62
7
  6
CONTINUOUS
 10
109.9167554303
 20
115.9403719912
 40
0.8603594806
 50
180.0
 51
270.0
  0
ARC
  8
0
 62
7
  6
CONTINUOUS
 10
111.7667554303
 20
115.9403719912
 40
0.8603594806
 50
270.0
 51
360.0
  0
ARC
  8
0
 62
7
  6
CONTINUOUS
 10
97.5417554303
 20
153.6558269912
 40
1.0
 50
180.0
 51
270.0
  0
ARC
  8
0
 62
7
  6
CONTINUOUS
 10
80.7417554303
 20
153.6558269912
 40
1.0
 50
180.0
 51
270.0
  0
ARC
  8
0
 62
7
  6
CONTINUOUS
 10
90.5417554303
 20
153.6558269912
 40
1.0
 50
270.0
 51
360.0
  0
ARC
  8
0
 62
7
  6
CONTINUOUS
 10
73.7417554303
 20
153.6558269912
 40
1.0
 50
270.0
 51
360.0
  0
ARC
  8
0
 62
7
  6
CONTINUOUS
 10
101.5167554303
 20
146.9403719912
 40
0.8603594806
 50
90.0
 51
180.0
  0
ARC
  8
0
 62
7
  6
CONTINUOUS
 10
94.9667554303
 20
142.9403719912
 40
0.8603594806
 50
0.0
 51
90.0
  0
ARC
  8
0
 62
7
  6
CONTINUOUS
 10
93.1167554303
 20
142.9403719912
 40
0.8603594806
 50
90.0
 51
180.0
  0
ARC
  8
0
 62
7
  6
CONTINUOUS
 10
86.5667554303
 20
146.9403719912
 40
0.8603594806
 50
0.0
 51
90.0
  0
ARC
  8
0
 62
7
  6
CONTINUOUS
 10
84.7167554303
 20
146.9403719912
 40
0.8603594806
 50
90.0
 51
180.0
  0
ARC
  8
0
 62
7
  6
CONTINUOUS
 10
78.1667554303
 20
142.9403719912
 40
0.8603594806
 50
0.0
 51
90.0
  0
ARC
  8
0
 62
7
  6
CONTINUOUS
 10
76.3167554303
 20
142.9403719912
 40
0.8603594806
 50
90.0
 51
180.0
  0
ARC
  8
0
 62
7
  6
CONTINUOUS
 10
69.7667554303
 20
146.9403719912
 40
0.8603594806
 50
0.0
 51
90.0
  0
ARC
  8
0
 62
7
  6
CONTINUOUS
 10
67.9167554303
 20
146.9403719912
 40
0.8603594806
 50
90.0
 51
180.0
  0
ARC
  8
0
 62
7
  6
CONTINUOUS
 10
79.5417554303
 20
156.8403719912
 40
1.8
 50
287.7189318734
 51
72.2810681266
  0
ARC
  8
0
 62
7
  6
CONTINUOUS
 10
74.9417554303
 20
156.8403719912
 40
1.8
 50
107.7189318734
 51
252.2810681266
  0
ARC
  8
0
 62
7
  6
CONTINUOUS
 10
74.2417554303
 20
154.6494817612
 40
0.5
 50
0.0
 51
72.2810681266
  0
ARC
  8
0
 62
7
  6
CONTINUOUS
 10
74.2417554303
 20
159.0312622213
 40
0.5
 50
287.7189318734
 51
360.0
  0
ARC
  8
0
 62
7
  6
CONTINUOUS
 10
80.2417554303
 20
159.0312622213
 40
0.5
 50
180.0
 51
252.2810681266
  0
ARC
  8
0
 62
7
  6
CONTINUOUS
 10
80.2417554303
 20
154.6494817612
 40
0.5
 50
107.7189318734
 51
180.0
  0
ARC
  8
0
 62
7
  6
CONTINUOUS
 10
79.5417554303
 20
165.1403719912
 40
0.2
 50
0.0
 51
90.0
  0
ARC
  8
0
 62
7
  6
CONTINUOUS
 10
74.9417554303
 20
165.1403719912
 40
0.2
 50
90.0
 51
180.0
  0
ARC
  8
0
 62
7
  6
CONTINUOUS
 10
96.3417554303
 20
156.8403719912
 40
1.8
 50
287.7189318734
 51
72.2810681266
  0
ARC
  8
0
 62
7
  6
CONTINUOUS
 10
91.7417554303
 20
156.8403719912
 40
1.8
 50
107.7189318734
 51
252.2810681266
  0
ARC
  8
0
 62
7
  6
CONTINUOUS
 10
91.0417554303
 20
159.0312622213
 40
0.5
 50
287.7189318734
 51
360.0
  0
ARC
  8
0
 62
7
  6
CONTINUOUS
 10
91.0417554303
 20
154.6494817612
 40
0.5
 50
0.0
 51
72.2810681266
  0
ARC
  8
0
 62
7
  6
CONTINUOUS
 10
97.0417554303
 20
159.0312622213
 40
0.5
 50
180.0
 51
252.2810681266
  0
ARC
  8
0
 62
7
  6
CONTINUOUS
 10
97.0417554303
 20
154.6494817612
 40
0.5
 50
107.7189318734
 51
180.0
  0
ARC
  8
0
 62
7
  6
CONTINUOUS
 10
91.7417554303
 20
165.1403719912
 40
0.2
 50
90.0
 51
180.0
  0
ARC
  8
0
 62
7
  6
CONTINUOUS
 10
96.3417554303
 20
165.1403719912
 40
0.2
 50
0.0
 51
90.0
  0
ARC
  8
0
 62
7
  6
CONTINUOUS
 10
131.1417554303
 20
153.6558269912
 40
1.0
 50
180.0
 51
270.0
  0
ARC
  8
0
 62
7
  6
CONTINUOUS
 10
114.3417554303
 20
153.6558269912
 40
1.0
 50
180.0
 51
270.0
  0
ARC
  8
0
 62
7
  6
CONTINUOUS
 10
124.1417554303
 20
153.6558269912
 40
1.0
 50
270.0
 51
360.0
  0
ARC
  8
0
 62
7
  6
CONTINUOUS
 10
107.3417554303
 20
153.6558269912
 40
1.0
 50
270.0
 51
360.0
  0
ARC
  8
0
 62
7
  6
CONTINUOUS
 10
136.9667554303
 20
146.9403719912
 40
0.8603594806
 50
0.0
 51
90.0
  0
ARC
  8
0
 62
7
  6
CONTINUOUS
 10
135.1167554303
 20
146.9403719912
 40
0.8603594806
 50
90.0
 51
180.0
  0
ARC
  8
0
 62
7
  6
CONTINUOUS
 10
128.5667554303
 20
142.9403719912
 40
0.8603594806
 50
0.0
 51
90.0
  0
ARC
  8
0
 62
7
  6
CONTINUOUS
 10
126.7167554303
 20
142.9403719912
 40
0.8603594806
 50
90.0
 51
180.0
  0
ARC
  8
0
 62
7
  6
CONTINUOUS
 10
120.1667554303
 20
146.9403719912
 40
0.8603594806
 50
0.0
 51
90.0
  0
ARC
  8
0
 62
7
  6
CONTINUOUS
 10
118.3167554303
 20
146.9403719912
 40
0.8603594806
 50
90.0
 51
180.0
  0
ARC
  8
0
 62
7
  6
CONTINUOUS
 10
111.7667554303
 20
142.9403719912
 40
0.8603594806
 50
0.0
 51
90.0
  0
ARC
  8
0
 62
7
  6
CONTINUOUS
 10
109.9167554303
 20
142.9403719912
 40
0.8603594806
 50
90.0
 51
180.0
  0
ARC
  8
0
 62
7
  6
CONTINUOUS
 10
103.3667554303
 20
146.9403719912
 40
0.8603594806
 50
0.0
 51
90.0
  0
ARC
  8
0
 62
7
  6
CONTINUOUS
 10
113.1417554303
 20
156.8403719912
 40
1.8
 50
287.7189318734
 51
72.2810681266
  0
ARC
  8
0
 62
7
  6
CONTINUOUS
 10
108.5417554303
 20
156.8403719912
 40
1.8
 50
107.7189318734
 51
252.2810681266
  0
ARC
  8
0
 62
7
  6
CONTINUOUS
 10
113.8417554303
 20
159.0312622213
 40
0.5
 50
180.0
 51
252.2810681266
  0
ARC
  8
0
 62
7
  6
CONTINUOUS
 10
113.8417554303
 20
154.6494817612
 40
0.5
 50
107.7189318734
 51
180.0
  0
ARC
  8
0
 62
7
  6
CONTINUOUS
 10
107.8417554303
 20
154.6494817612
 40
0.5
 50
0.0
 51
72.2810681266
  0
ARC
  8
0
 62
7
  6
CONTINUOUS
 10
107.8417554303
 20
159.0312622213
 40
0.5
 50
287.7189318734
 51
360.0
  0
ARC
  8
0
 62
7
  6
CONTINUOUS
 10
113.1417554303
 20
165.1403719912
 40
0.2
 50
0.0
 51
90.0
  0
ARC
  8
0
 62
7
  6
CONTINUOUS
 10
108.5417554303
 20
165.1403719912
 40
0.2
 50
90.0
 51
180.0
  0
ARC
  8
0
 62
7
  6
CONTINUOUS
 10
129.9417554303
 20
156.8403719912
 40
1.8
 50
287.7189318734
 51
72.2810681266
  0
ARC
  8
0
 62
7
  6
CONTINUOUS
 10
125.3417554303
 20
156.8403719912
 40
1.8
 50
107.7189318734
 51
252.2810681266
  0
ARC
  8
0
 62
7
  6
CONTINUOUS
 10
130.6417554303
 20
159.0312622213
 40
0.5
 50
180.0
 51
252.2810681266
  0
ARC
  8
0
 62
7
  6
CONTINUOUS
 10
130.6417554303
 20
154.6494817612
 40
0.5
 50
107.7189318734
 51
180.0
  0
ARC
  8
0
 62
7
  6
CONTINUOUS
 10
124.6417554303
 20
159.0312622213
 40
0.5
 50
287.7189318734
 51
360.0
  0
ARC
  8
0
 62
7
  6
CONTINUOUS
 10
124.6417554303
 20
154.6494817612
 40
0.5
 50
0.0
 51
72.2810681266
  0
ARC
  8
0
 62
7
  6
CONTINUOUS
 10
129.9417554303
 20
165.1403719912
 40
0.2
 50
0.0
 51
90.0
  0
ARC
  8
0
 62
7
  6
CONTINUOUS
 10
125.3417554303
 20
165.1403719912
 40
0.2
 50
90.0
 51
180.0
  0
ARC
  8
0
 62
7
  6
CONTINUOUS
 10
171.9417554303
 20
106.0403719912
 40
1.8
 50
287.7189318734
 51
72.2810681266
  0
ARC
  8
0
 62
7
  6
CONTINUOUS
 10
155.1417554303
 20
106.0403719912
 40
1.8
 50
287.7189318734
 51
72.2810681266
  0
ARC
  8
0
 62
7
  6
CONTINUOUS
 10
150.5417554303
 20
106.0403719912
 40
1.8
 50
107.7189318734
 51
252.2810681266
  0
ARC
  8
0
 62
7
  6
CONTINUOUS
 10
167.3417554303
 20
106.0403719912
 40
1.8
 50
107.7189318734
 51
252.2810681266
  0
ARC
  8
0
 62
7
  6
CONTINUOUS
 10
166.1417554303
 20
109.2249169912
 40
1.0
 50
0.0
 51
90.0
  0
ARC
  8
0
 62
7
  6
CONTINUOUS
 10
173.1417554303
 20
109.2249169912
 40
1.0
 50
90.0
 51
180.0
  0
ARC
  8
0
 62
7
  6
CONTINUOUS
 10
156.3417554303
 20
109.2249169912
 40
1.0
 50
90.0
 51
180.0
  0
ARC
  8
0
 62
7
  6
CONTINUOUS
 10
149.3417554303
 20
109.2249169912
 40
1.0
 50
0.0
 51
90.0
  0
ARC
  8
0
 62
7
  6
CONTINUOUS
 10
155.8417554303
 20
103.8494817612
 40
0.5
 50
107.7189318734
 51
180.0
  0
ARC
  8
0
 62
7
  6
CONTINUOUS
 10
155.8417554303
 20
108.2312622213
 40
0.5
 50
180.0
 51
252.2810681266
  0
ARC
  8
0
 62
7
  6
CONTINUOUS
 10
172.6417554303
 20
108.2312622213
 40
0.5
 50
180.0
 51
252.2810681266
  0
ARC
  8
0
 62
7
  6
CONTINUOUS
 10
172.6417554303
 20
103.8494817612
 40
0.5
 50
107.7189318734
 51
180.0
  0
ARC
  8
0
 62
7
  6
CONTINUOUS
 10
166.6417554303
 20
103.8494817612
 40
0.5
 50
0.0
 51
72.2810681266
  0
ARC
  8
0
 62
7
  6
CONTINUOUS
 10
166.6417554303
 20
108.2312622213
 40
0.5
 50
287.7189318734
 51
360.0
  0
ARC
  8
0
 62
7
  6
CONTINUOUS
 10
149.8417554303
 20
103.8494817612
 40
0.5
 50
0.0
 51
72.2810681266
  0
ARC
  8
0
 62
7
  6
CONTINUOUS
 10
149.8417554303
 20
108.2312622213
 40
0.5
 50
287.7189318734
 51
360.0
  0
ARC
  8
0
 62
7
  6
CONTINUOUS
 10
155.1417554303
 20
97.7403719912
 40
0.2
 50
269.9999965922
 51
359.9999984251
  0
ARC
  8
0
 62
7
  6
CONTINUOUS
 10
150.5417554303
 20
97.7403719912
 40
0.2
 50
180.0000003931
 51
270.0
  0
ARC
  8
0
 62
7
  6
CONTINUOUS
 10
171.9417554303
 20
97.7403719912
 40
0.2
 50
270.0
 51
360.0
  0
ARC
  8
0
 62
7
  6
CONTINUOUS
 10
143.5167554303
 20
115.9403719912
 40
0.8603594806
 50
180.0
 51
270.0
  0
ARC
  8
0
 62
7
  6
CONTINUOUS
 10
145.3667554303
 20
115.9403719912
 40
0.8603594806
 50
270.0
 51
360.0
  0
ARC
  8
0
 62
7
  6
CONTINUOUS
 10
151.7767554303
 20
121.4403719912
 40
0.8603594806
 50
180.0
 51
270.0
  0
ARC
  8
0
 62
7
  6
CONTINUOUS
 10
153.6267554303
 20
121.4403719912
 40
0.8603594806
 50
270.0
 51
360.0
  0
ARC
  8
0
 62
7
  6
CONTINUOUS
 10
160.1767554303
 20
121.4403719912
 40
0.8603594806
 50
180.0
 51
270.0
  0
ARC
  8
0
 62
7
  6
CONTINUOUS
 10
162.0267554303
 20
121.4403719912
 40
0.8603594806
 50
270.0
 51
360.0
  0
ARC
  8
0
 62
7
  6
CONTINUOUS
 10
168.5767554303
 20
121.4403719912
 40
0.8603594806
 50
180.0
 51
270.0
  0
ARC
  8
0
 62
7
  6
CONTINUOUS
 10
170.4267554303
 20
121.4403719912
 40
0.8603594806
 50
270.0
 51
360.0
  0
ARC
  8
0
 62
7
  6
CONTINUOUS
 10
176.9767554303
 20
121.4403719912
 40
0.8603594806
 50
180.0
 51
270.0
  0
ARC
  8
0
 62
7
  6
CONTINUOUS
 10
178.8267554303
 20
121.4403719912
 40
0.8603594806
 50
270.0
 51
360.0
  0
ARC
  8
0
 62
7
  6
CONTINUOUS
 10
185.3767554303
 20
121.4403719912
 40
0.8603594806
 50
180.0
 51
270.0
  0
ARC
  8
0
 62
7
  6
CONTINUOUS
 10
187.2267554303
 20
121.4403719912
 40
0.8603594806
 50
270.0
 51
360.0
  0
ARC
  8
0
 62
7
  6
CONTINUOUS
 10
210.5767554303
 20
121.4403719912
 40
0.8603594806
 50
180.0
 51
270.0
  0
ARC
  8
0
 62
7
  6
CONTINUOUS
 10
212.4267554303
 20
121.4403719912
 40
0.8603594806
 50
270.0
 51
360.0
  0
ARC
  8
0
 62
7
  6
CONTINUOUS
 10
202.1767554303
 20
121.4403719912
 40
0.8603594806
 50
180.0
 51
270.0
  0
ARC
  8
0
 62
7
  6
CONTINUOUS
 10
204.0267554303
 20
121.4403719912
 40
0.8603594806
 50
270.0
 51
360.0
  0
ARC
  8
0
 62
7
  6
CONTINUOUS
 10
193.7767554303
 20
121.4403719912
 40
0.8603594806
 50
180.0
 51
270.0
  0
ARC
  8
0
 62
7
  6
CONTINUOUS
 10
195.6267554303
 20
121.4403719912
 40
0.8603594806
 50
270.0
 51
360.0
  0
ARC
  8
0
 62
7
  6
CONTINUOUS
 10
193.7767554303
 20
128.5153719912
 40
0.8603594806
 50
90.0
 51
180.0
  0
ARC
  8
0
 62
7
  6
CONTINUOUS
 10
195.6267554303
 20
128.5153719912
 40
0.8603594806
 50
0.0
 51
90.0
  0
ARC
  8
0
 62
7
  6
CONTINUOUS
 10
202.1767554303
 20
128.5153719912
 40
0.8603594806
 50
90.0
 51
180.0
  0
ARC
  8
0
 62
7
  6
CONTINUOUS
 10
204.0267554303
 20
128.5153719912
 40
0.8603594806
 50
0.0
 51
90.0
  0
ARC
  8
0
 62
7
  6
CONTINUOUS
 10
210.5767554303
 20
128.5153719912
 40
0.8603594806
 50
90.0
 51
180.0
  0
ARC
  8
0
 62
7
  6
CONTINUOUS
 10
212.4267554303
 20
128.5153719912
 40
0.8603594806
 50
0.0
 51
90.0
  0
ARC
  8
0
 62
7
  6
CONTINUOUS
 10
145.3667554303
 20
142.9403719912
 40
0.8603594806
 50
0.0
 51
90.0
  0
ARC
  8
0
 62
7
  6
CONTINUOUS
 10
143.5167554303
 20
142.9403719912
 40
0.8603594806
 50
90.0
 51
180.0
  0
ARC
  8
0
 62
7
  6
CONTINUOUS
 10
153.6267554303
 20
141.4403719912
 40
0.8603594806
 50
0.0
 51
90.0
  0
ARC
  8
0
 62
7
  6
CONTINUOUS
 10
151.7767554303
 20
141.4403719912
 40
0.8603594806
 50
90.0
 51
180.0
  0
ARC
  8
0
 62
7
  6
CONTINUOUS
 10
162.0267554303
 20
141.4403719912
 40
0.8603594806
 50
0.0
 51
90.0
  0
ARC
  8
0
 62
7
  6
CONTINUOUS
 10
160.1767554303
 20
141.4403719912
 40
0.8603594806
 50
90.0
 51
180.0
  0
ARC
  8
0
 62
7
  6
CONTINUOUS
 10
170.4267554303
 20
141.4403719912
 40
0.8603594806
 50
0.0
 51
90.0
  0
ARC
  8
0
 62
7
  6
CONTINUOUS
 10
168.5767554303
 20
141.4403719912
 40
0.8603594806
 50
90.0
 51
180.0
  0
ARC
  8
0
 62
7
  6
CONTINUOUS
 10
146.7417554303
 20
156.8403719912
 40
1.8
 50
287.7189318734
 51
72.2810681266
  0
ARC
  8
0
 62
7
  6
CONTINUOUS
 10
142.1417554303
 20
156.8403719912
 40
1.8
 50
107.7189318734
 51
252.2810681266
  0
ARC
  8
0
 62
7
  6
CONTINUOUS
 10
147.9417554303
 20
153.6558269912
 40
1.0
 50
180.0
 51
270.0
  0
ARC
  8
0
 62
7
  6
CONTINUOUS
 10
140.9417554303
 20
153.6558269912
 40
1.0
 50
270.0
 51
360.0
  0
ARC
  8
0
 62
7
  6
CONTINUOUS
 10
147.4417554303
 20
154.6494817612
 40
0.5
 50
107.7189318734
 51
180.0
  0
ARC
  8
0
 62
7
  6
CONTINUOUS
 10
141.4417554303
 20
154.6494817612
 40
0.5
 50
0.0
 51
72.2810681266
  0
ARC
  8
0
 62
7
  6
CONTINUOUS
 10
147.4417554303
 20
159.0312622213
 40
0.5
 50
180.0
 51
252.2810681266
  0
ARC
  8
0
 62
7
  6
CONTINUOUS
 10
141.4417554303
 20
159.0312622213
 40
0.5
 50
287.7189318734
 51
360.0
  0
ARC
  8
0
 62
7
  6
CONTINUOUS
 10
146.7417554303
 20
165.1403719912
 40
0.2
 50
0.0
 51
90.0
  0
ARC
  8
0
 62
7
  6
CONTINUOUS
 10
142.1417554303
 20
165.1403719912
 40
0.2
 50
90.0
 51
180.0
  0
ARC
  8
0
 62
7
  6
CONTINUOUS
 10
163.5417554303
 20
156.8403719912
 40
1.8
 50
287.7189318734
 51
72.2810681266
  0
ARC
  8
0
 62
7
  6
CONTINUOUS
 10
158.9417554303
 20
156.8403719912
 40
1.8
 50
107.7189318734
 51
252.2810681266
  0
ARC
  8
0
 62
7
  6
CONTINUOUS
 10
164.7417554303
 20
153.6603719912
 40
1.0
 50
180.0
 51
270.0
  0
ARC
  8
0
 62
7
  6
CONTINUOUS
 10
157.7417554303
 20
153.6558269912
 40
1.0
 50
270.0
 51
360.0
  0
ARC
  8
0
 62
7
  6
CONTINUOUS
 10
164.2417554303
 20
154.6494817612
 40
0.5
 50
107.7189318734
 51
180.0
  0
ARC
  8
0
 62
7
  6
CONTINUOUS
 10
158.2417554303
 20
154.6494817612
 40
0.5
 50
0.0
 51
72.2810681266
  0
ARC
  8
0
 62
7
  6
CONTINUOUS
 10
165.672788475
 20
152.4603719912
 40
0.2
 50
80.8139737889
 51
89.9999962178
  0
ARC
  8
0
 62
7
  6
CONTINUOUS
 10
164.2417554303
 20
159.0312622213
 40
0.5
 50
180.0
 51
252.2810681266
  0
ARC
  8
0
 62
7
  6
CONTINUOUS
 10
158.2417554303
 20
159.0312622213
 40
0.5
 50
287.7189318734
 51
360.0
  0
ARC
  8
0
 62
7
  6
CONTINUOUS
 10
163.5417554303
 20
165.1403719912
 40
0.2
 50
0.0
 51
90.0
  0
ARC
  8
0
 62
7
  6
CONTINUOUS
 10
158.9417554303
 20
165.1403719912
 40
0.2
 50
90.0
 51
180.0
  0
ARC
  8
0
 62
7
  6
CONTINUOUS
 10
178.8267554303
 20
141.4403719912
 40
0.8603594806
 50
0.0
 51
90.0
  0
ARC
  8
0
 62
7
  6
CONTINUOUS
 10
176.9767554303
 20
141.4403719912
 40
0.8603594806
 50
90.0
 51
180.0
  0
ARC
  8
0
 62
7
  6
CONTINUOUS
 10
187.2267554303
 20
141.4403719912
 40
0.8603594806
 50
0.0
 51
90.0
  0
ARC
  8
0
 62
7
  6
CONTINUOUS
 10
185.3767554303
 20
141.4403719912
 40
0.8603594806
 50
90.0
 51
180.0
  0
ARC
  8
0
 62
7
  6
CONTINUOUS
 10
195.6267554303
 20
141.4403719912
 40
0.8603594806
 50
0.0
 51
90.0
  0
ARC
  8
0
 62
7
  6
CONTINUOUS
 10
193.7767554303
 20
141.4403719912
 40
0.8603594806
 50
90.0
 51
180.0
  0
ARC
  8
0
 62
7
  6
CONTINUOUS
 10
204.0267554303
 20
141.4403719912
 40
0.8603594806
 50
0.0
 51
90.0
  0
ARC
  8
0
 62
7
  6
CONTINUOUS
 10
202.1767554303
 20
141.4403719912
 40
0.8603594806
 50
90.0
 51
180.0
  0
ARC
  8
0
 62
7
  6
CONTINUOUS
 10
212.4267554303
 20
141.4403719912
 40
0.8603594806
 50
0.0
 51
90.0
  0
ARC
  8
0
 62
7
  6
CONTINUOUS
 10
210.5767554303
 20
141.4403719912
 40
0.8603594806
 50
90.0
 51
180.0
  0
ARC
  8
0
 62
7
  6
CONTINUOUS
 10
195.6267554303
 20
134.3653719912
 40
0.8603594806
 50
270.0
 51
360.0
  0
ARC
  8
0
 62
7
  6
CONTINUOUS
 10
204.0267554303
 20
134.3653719912
 40
0.8603594806
 50
270.0
 51
360.0
  0
ARC
  8
0
 62
7
  6
CONTINUOUS
 10
212.4267554303
 20
134.3653719912
 40
0.8603594806
 50
270.0
 51
360.0
  0
ARC
  8
0
 62
7
  6
CONTINUOUS
 10
210.5767554303
 20
134.3653719912
 40
0.8603594806
 50
180.0
 51
270.0
  0
ARC
  8
0
 62
7
  6
CONTINUOUS
 10
202.1767554303
 20
134.3653719912
 40
0.8603594806
 50
180.0
 51
270.0
  0
ARC
  8
0
 62
7
  6
CONTINUOUS
 10
193.7767554303
 20
134.3653719912
 40
0.8603594806
 50
180.0
 51
270.0
  0
ARC
  8
0
 62
7
  6
CONTINUOUS
 10
261.9388320095
 20
209.186609521
 40
50.01586887
 50
14.724639125
 51
23.0834776581
  0
ARC
  8
0
 62
7
  6
CONTINUOUS
 10
264.1797491655
 20
206.6184567739
 40
50.0
 50
16.7916494165
 51
25.3854478982
  0
ARC
  8
0
 62
7
  6
CONTINUOUS
 10
267.591999453
 20
218.7964238622
 40
2.0
 50
247.380135052
 51
270.0
  0
ARC
  8
SURFACE
 62
7
  6
CONTINUOUS
 10
267.591999453
 20
218.7964238622
 40
2.0
 50
262.4597774246
 51
266.0792829431
  0
ARC
  8
SURFACE
 62
7
  6
CONTINUOUS
 10
267.591999453
 20
218.7964238622
 40
2.0
 50
254.9197822444
 51
258.840872949
  0
ARC
  8
0
 62
7
  6
CONTINUOUS
 10
270.0876377333
 20
224.7964238622
 40
8.75
 50
32.4514908424
 51
60.6343989129
  0
ARC
  8
SURFACE
 62
7
  6
CONTINUOUS
 10
270.091999453
 20
224.7964238622
 40
8.5
 50
109.9888711098
 51
112.9828719455
  0
ARC
  8
SURFACE
 62
7
  6
CONTINUOUS
 10
270.091999453
 20
224.7964238622
 40
8.5
 50
149.8725570722
 51
152.5454227436
  0
ARC
  8
SURFACE
 62
7
  6
CONTINUOUS
 10
270.091999453
 20
224.7964238622
 40
8.5
 50
146.9351519113
 51
147.5697297956
  0
ARC
  8
0
 62
7
  6
CONTINUOUS
 10
270.091999453
 20
224.7964238622
 40
8.5
 50
109.9888710197
 51
247.3801340371
  0
ARC
  8
0
 62
7
  6
CONTINUOUS
 10
270.091999453
 20
224.7964238622
 40
5.8
 50
359.9999382295
 51
180.0000540026
  0
CIRCLE
  8
0
 62
7
  6
CONTINUOUS
 10
270.091999453
 20
224.7964238622
 40
4.15
  0
ARC
  8
SURFACE
 62
7
  6
CONTINUOUS
 10
273.191999453
 20
222.7964238622
 40
6.0
 50
293.5781769661
 51
294.7352185005
  0
ARC
  8
SURFACE
 62
7
  6
CONTINUOUS
 10
273.191999453
 20
222.7964238622
 40
6.0
 50
269.9999949252
 51
293.5537573435
  0
ARC
  8
0
 62
7
  6
CONTINUOUS
 10
273.191999453
 20
222.7964238622
 40
6.0
 50
270.0
 51
343.2083543266
  0
ARC
  8
SURFACE
 62
7
  6
CONTINUOUS
 10
274.476544203
 20
232.5964238622
 40
0.2
 50
204.4878433795
 51
210.8829665762
  0
ARC
  8
SURFACE
 62
7
  6
CONTINUOUS
 10
274.476544203
 20
232.5964238622
 40
0.2
 50
192.8995908423
 51
193.6919513758
  0
ARC
  8
0
 62
7
  6
CONTINUOUS
 10
274.476544203
 20
232.5964238622
 40
0.2
 50
90.0
 51
240.6343979082
  0
ARC
  8
0
 62
7
  6
CONTINUOUS
 10
267.2547472611
 20
232.5964238622
 40
0.2
 50
90.0
 51
109.9888731217
  0
ARC
  8
SURFACE
 62
7
  6
CONTINUOUS
 10
267.2547472611
 20
232.5964238622
 40
0.2
 50
90.0
 51
109.9888748479
  0
ARC
  8
0
 62
7
  6
CONTINUOUS
 10
279.8137135121
 20
220.5264238622
 40
0.9999998936
 50
89.9999873707
 51
161.0776944933
  0
ARC
  8
0
 62
7
  6
CONTINUOUS
 10
279.8065665061
 20
220.5364238622
 40
0.989999902
 50
90.0000107684
 51
161.1362317438
  0
ARC
  8
0
 62
7
  6
CONTINUOUS
 10
280.1883129721
 20
222.0264238622
 40
0.5
 50
270.0
 51
345.275360875
  0
ARC
  8
0
 62
7
  6
CONTINUOUS
 10
278.7370596793
 20
230.2964238622
 40
1.5
 50
212.4514921117
 51
270.0
  0
ARC
  8
SURFACE
 62
7
  6
CONTINUOUS
 10
278.7370596793
 20
230.2964238622
 40
1.5
 50
219.3036986854
 51
220.2887007813
  0
ARC
  8
0
 62
7
  6
CONTINUOUS
 10
282.806516955
 20
227.4964238622
 40
1.3
 50
89.9995672946
 51
150.774741927
  0
ARC
  8
SURFACE
 62
7
  6
CONTINUOUS
 10
282.806516955
 20
227.4964238622
 40
1.3
 50
90.0
 51
154.6145886722
  0
ARC
  8
0
 62
7
  6
CONTINUOUS
 10
329.0451668964
 20
209.186609521
 40
50.01586887
 50
156.9165223397
 51
165.275360875
  0
ARC
  8
SURFACE
 62
7
  6
CONTINUOUS
 10
326.8042497404
 20
206.6184567739
 40
50.0
 50
154.6145529839
 51
163.208350117
  0
ARC
  8
SURFACE
 62
7
  6
CONTINUOUS
 10
323.391999453
 20
218.7964238622
 40
2.0
 50
270.0
 51
271.3961672032
  0
ARC
  8
SURFACE
 62
7
  6
CONTINUOUS
 10
323.391999453
 20
218.7964238622
 40
2.0
 50
273.6192163984
 51
281.159143758
  0
ARC
  8
SURFACE
 62
7
  6
CONTINUOUS
 10
323.391999453
 20
218.7964238622
 40
2.0
 50
281.4606458501
 51
291.2235132993
  0
ARC
  8
0
 62
7
  6
CONTINUOUS
 10
323.391999453
 20
218.7964238622
 40
2.0
 50
270.0
 51
292.6198676213
  0
ARC
  8
0
 62
7
  6
CONTINUOUS
 10
311.1702853902
 20
220.5264238622
 40
0.9999998953
 50
18.9223096863
 51
84.9758819289
  0
ARC
  8
0
 62
7
  6
CONTINUOUS
 10
310.7956859338
 20
222.0264238622
 40
0.5
 50
194.724639125
 51
270.0
  0
ARC
  8
0
 62
7
  6
CONTINUOUS
 10
308.1774819509
 20
227.4964238622
 40
1.3
 50
25.385445254
 51
90.0000026248
  0
ARC
  8
SURFACE
 62
7
  6
CONTINUOUS
 10
317.791999453
 20
222.7964238622
 40
6.0
 50
245.2649026715
 51
246.4463179688
  0
ARC
  8
SURFACE
 62
7
  6
CONTINUOUS
 10
317.791999453
 20
222.7964238622
 40
6.0
 50
266.7867034831
 51
270.0000046987
  0
ARC
  8
0
 62
7
  6
CONTINUOUS
 10
317.791999453
 20
222.7964238622
 40
6.0
 50
196.7916495606
 51
270.0
  0
ARC
  8
0
 62
7
  6
CONTINUOUS
 10
320.891999453
 20
224.7964238622
 40
8.5
 50
292.6198655771
 51
70.0111289351
  0
CIRCLE
  8
0
 62
7
  6
CONTINUOUS
 10
320.891999453
 20
224.7964238622
 40
4.15
  0
ARC
  8
0
 62
7
  6
CONTINUOUS
 10
323.7292516448
 20
232.5964238622
 40
0.2
 50
70.0111270628
 51
90.0
  0
ENDSEC
  0
EOF
