  0
SECTION
  2
HEADER
  9
$EXTMAX
 10
420.0
 20
297.0
 30
0.0
  9
$EXTMIN
 10
0.0
 20
0.0
 30
0.0
  9
$LIMMIN
 10
0.0
 20
0.0
  9
$LIMMAX
 10
420.0
 20
297.0
  9
$VIEWCTR
 10
210.0
 20
148.5
  9
$VIEWSIZE
 40
297.0
  9
$CLAYER
  8
0
  9
$LTSCALE
 40
23.1
  9
$CELTYPE
  6
BYLAYER
  9
$DIMSCALE
 40
1.0
  9
$DIMASZ
 40
3.5
  9
$DIMEXO
 40
2.625
  9
$DIMDLI
 40
15.96
  9
$DIMEXE
 40
7.56
  9
$DIMCEN
 40
3.78
  9
$DIMLFAC
 40
1.0
  9
$DIMBLK
  1
_FILLED
  9
$DIMTXT
 40
3.5
  9
$PDMODE
 70
3
  9
$PDSIZE
 40
0.3125
  9
$TILEMODE
 70
1
  0
ENDSEC
  0
SECTION
  2
TABLES
  0
TABLE
  2
LTYPE
 70
6
  0
LTYPE
  2
BYBLOCK
 70
0
  3

 72
65
 73
0
 40
0.0
  0
LTYPE
  2
BYLAYER
 70
0
  3

 72
65
 73
0
 40
0.0
  0
LTYPE
  2
CONTINUOUS
 70
64
  3
Solid line
 72
65
 73
0
 40
0.0
  0
LTYPE
  2
CENTER
 70
64
  3
____ _ ____ _ ____ _ ____ _ ____ _ ____ _ ____
 72
65
 73
4
 40
0.6
 49
0.375
 49
-0.075
 49
0.075
 49
-0.075
  0
LTYPE
  2
HIDDEN
 70
64
  3
- - - - - - - - - - - - - - - - - - - -
 72
65
 73
2
 40
0.2
 49
0.1
 49
-0.1
  0
LTYPE
  2
PHANTOM
 70
64
  3
_____ _ _ _____ _ _ _____ _ _ _____
 72
65
 73
6
 40
0.8
 49
0.45
 49
-0.05
 49
0.1
 49
-0.05
 49
0.1
 49
-0.05
  0
LTYPE
  2
DOT
 70
64
  3
. . . . . . . . . . . . . . . . . . . .
 72
65
 73
2
 40
0.2
 49
0.1
 49
-0.1
  0
LTYPE
  2
DASHED
 70
64
  3
- - - - - - - - - - - - - - - - - - - -
 72
65
 73
2
 40
0.2
 49
0.1
 49
-0.1
  0
ENDTAB
  0
TABLE
  2
LAYER
 70
36
  0
LAYER
  2
0
 70
0
 62
7
  6
CONTINUOUS
  0
LAYER
  2
DEFAULT_1
 70
0
 62
7
  6
CENTER
  0
LAYER
  2
DEFAULT_2
 70
0
 62
8
  6
HIDDEN
  0
LAYER
  2
DEFAULT_3
 70
0
 62
7
  6
PHANTOM
  0
LAYER
  2
AXES
 70
0
 62
7
  6
CONTINUOUS
  0
LAYER
  2
BLANK_PLANS
 70
0
 62
7
  6
CONTINUOUS
  0
LAYER
  2
CURVE
 70
0
 62
7
  6
CONTINUOUS
  0
LAYER
  2
EMNE_SURF
 70
0
 62
7
  6
CONTINUOUS
  0
LAYER
  2
HJAELPE_SURF
 70
0
 62
7
  6
CONTINUOUS
  0
LAYER
  2
SURFACE
 70
0
 62
7
  6
CONTINUOUS
  0
ENDTAB
  0
TABLE
  2
STYLE
 70
1
  0
STYLE
  2
STANDARD
 70
0
 40
0.0
 41
0.8
 50
0.0
 71
0
 42
0.2
  3
txt
  4

  0
STYLE
  2
TEXTSTYLE_1
 70
0
 40
0.0
 41
0.8
 50
0.0
 71
0
 42
0.2
  3
gdt
  4

  0
STYLE
  2
TEXTSTYLE_2
 70
0
 40
0.0
 41
0.6
 50
0.0
 71
0
 42
0.2
  3
txt
  4

  0
STYLE
  2
TEXTSTYLE_3
 70
0
 40
0.0
 41
1.0
 50
0.0
 71
0
 42
0.2
  3
ftb_____.ttf
  4

  0
STYLE
  2
TEXTSTYLE_4
 70
0
 40
0.0
 41
1.0
 50
0.0
 71
0
 42
0.2
  3
fti_____.ttf
  4

  0
STYLE
  2
TEXTSTYLE_5
 70
0
 40
0.0
 41
1.0
 50
0.0
 71
0
 42
0.2
  3
frutiger light.ttf
  4

  0
STYLE
  2
TEXTSTYLE_6
 70
0
 40
0.0
 41
0.7
 50
0.0
 71
0
 42
0.2
  3
txt
  4

  0
STYLE
  2
TEXTSTYLE_7
 70
0
 40
0.0
 41
0.8
 50
0.0
 71
0
 42
0.2
  3
txt
  4

  0
ENDTAB
  0
ENDSEC
  0
SECTION
  2
BLOCKS
  0
BLOCK
  8
0
 62
2
  6
CONTINUOUS
  2
SYMBOL_5_BL1
 70
64
 10
382.3920721743
 20
35.81661148
  0
TEXT
  8
0
 62
7
  6
CONTINUOUS
 10
373.4503571828
 20
30.9093678571
  7
TEXTSTYLE_4
 40
1.0655737705
  1
The brand for plastic modular belts and chains
 41
1.0
 72
0
  0
LINE
  8
0
 62
7
  6
CONTINUOUS
 10
358.3701405634
 20
36.3903819718
 11
358.3701405634
 21
34.2592344308
  0
LINE
  8
0
 62
7
  6
CONTINUOUS
 10
358.6592030565
 20
31.2683031351
 11
358.6592030565
 21
31.3650941944
  0
LINE
  8
0
 62
7
  6
CONTINUOUS
 10
358.3701405634
 20
31.332830508
 11
358.4279530651
 21
31.1392483894
  0
LINE
  8
0
 62
7
  6
CONTINUOUS
 10
359.7635831863
 20
34.1772672177
 11
359.7635831863
 21
36.3903819718
  0
LINE
  8
0
 62
7
  6
CONTINUOUS
 10
360.6826405082
 20
32.3330049227
 11
360.6826405082
 21
30.81661148
  0
LINE
  8
0
 62
7
  6
CONTINUOUS
 10
360.9717030634
 20
30.81661148
 11
360.9717030634
 21
31.5586763581
  0
LINE
  8
0
 62
7
  6
CONTINUOUS
 10
360.9717030634
 20
31.6877311038
 11
360.9717030634
 21
32.3330049227
  0
LINE
  8
0
 62
7
  6
CONTINUOUS
 10
358.4279530651
 20
31.5264126717
 11
358.3701405634
 21
31.332830508
  0
LINE
  8
0
 62
7
  6
CONTINUOUS
 10
358.7748280496
 20
31.106984703
 11
358.6592030565
 21
31.2683031351
  0
LINE
  8
0
 62
7
  6
CONTINUOUS
 10
359.8732656185
 20
31.623203731
 11
359.9310780634
 21
31.5264126717
  0
LINE
  8
0
 62
7
  6
CONTINUOUS
 10
360.2201406185
 20
31.5264126717
 11
360.1623280082
 21
31.6554674174
  0
LINE
  8
0
 62
7
  6
CONTINUOUS
 10
361.648829088
 20
36.3903819718
 11
361.648829088
 21
34.5871032833
  0
LINE
  8
0
 62
7
  6
CONTINUOUS
 10
361.648829088
 20
33.2756278735
 11
361.648829088
 21
32.6198901686
  0
LINE
  8
0
 62
7
  6
CONTINUOUS
 10
362.0123280634
 20
31.4618852989
 11
362.0123280634
 21
30.81661148
  0
LINE
  8
0
 62
7
  6
CONTINUOUS
 10
362.3013904531
 20
30.81661148
 11
362.3013904531
 21
31.4618852989
  0
LINE
  8
0
 62
7
  6
CONTINUOUS
 10
358.6592030565
 20
31.3650941944
 11
358.7170155634
 21
31.4941489853
  0
LINE
  8
0
 62
7
  6
CONTINUOUS
 10
358.4279530651
 20
31.1392483894
 11
358.5435780634
 21
31.0101936212
  0
LINE
  8
0
 62
7
  6
CONTINUOUS
 10
361.9545154531
 20
31.5909400446
 11
362.0123280634
 21
31.4618852989
  0
LINE
  8
0
 62
7
  6
CONTINUOUS
 10
362.7638906736
 20
31.106984703
 11
362.8217029531
 21
30.9779299347
  0
LINE
  8
0
 62
7
  6
CONTINUOUS
 10
362.3013904531
 20
31.4618852989
 11
362.2435781736
 21
31.623203731
  0
LINE
  8
0
 62
7
  6
CONTINUOUS
 10
362.7638906736
 20
31.6554674174
 11
362.7638906736
 21
31.5909400446
  0
LINE
  8
0
 62
7
  6
CONTINUOUS
 10
362.7638906736
 20
31.2037757623
 11
362.7638906736
 21
31.106984703
  0
LINE
  8
0
 62
7
  6
CONTINUOUS
 10
363.0422717109
 20
32.6198901686
 11
363.0422717109
 21
36.3903819718
  0
LINE
  8
0
 62
7
  6
CONTINUOUS
 10
363.0529530634
 20
31.074720994
 11
363.0529530634
 21
31.1392483894
  0
LINE
  8
0
 62
7
  6
CONTINUOUS
 10
363.3701405634
 20
36.3903819718
 11
363.3701405634
 21
32.6198901686
  0
LINE
  8
0
 62
7
  6
CONTINUOUS
 10
360.1623280082
 20
31.0101936212
 11
360.2201406185
 21
31.1392483894
  0
LINE
  8
0
 62
7
  6
CONTINUOUS
 10
364.5560782839
 20
30.9134025506
 11
364.4982653428
 21
31.074720994
  0
LINE
  8
0
 62
7
  6
CONTINUOUS
 10
364.2092032839
 20
31.5909400446
 11
364.2092032839
 21
31.4941489853
  0
LINE
  8
0
 62
7
  6
CONTINUOUS
 10
364.2092032839
 20
31.3650941944
 11
364.2092032839
 21
31.1715120759
  0
LINE
  8
0
 62
7
  6
CONTINUOUS
 10
364.4982653428
 20
31.074720994
 11
364.4982653428
 21
31.5909400446
  0
LINE
  8
0
 62
7
  6
CONTINUOUS
 10
364.7635831863
 20
32.6198901686
 11
364.7635831863
 21
34.4231688571
  0
LINE
  8
0
 62
7
  6
CONTINUOUS
 10
364.7635831863
 20
35.7346442669
 11
364.7635831863
 21
36.3903819718
  0
LINE
  8
0
 62
7
  6
CONTINUOUS
 10
365.0763907839
 20
32.3330049227
 11
365.0763907839
 21
32.1716864905
  0
LINE
  8
0
 62
7
  6
CONTINUOUS
 10
365.0763907839
 20
31.8490495359
 11
365.0763907839
 21
30.81661148
  0
LINE
  8
0
 62
7
  6
CONTINUOUS
 10
365.3654528428
 20
30.81661148
 11
365.3654528428
 21
31.8490495359
  0
LINE
  8
0
 62
7
  6
CONTINUOUS
 10
365.3654528428
 20
32.1716864905
 11
365.3654528428
 21
32.3330049227
  0
LINE
  8
0
 62
7
  6
CONTINUOUS
 10
359.9310780634
 20
31.1392483894
 11
359.8732656185
 21
31.0424573076
  0
LINE
  8
0
 62
7
  6
CONTINUOUS
 10
362.2435781736
 20
31.623203731
 11
362.1857655634
 21
31.6877311038
  0
LINE
  8
0
 62
7
  6
CONTINUOUS
 10
363.1107656736
 20
31.0101936212
 11
363.0529530634
 21
31.074720994
  0
LINE
  8
0
 62
7
  6
CONTINUOUS
 10
364.2670155634
 20
30.8811388585
 11
364.3248278428
 21
30.81661148
  0
LINE
  8
0
 62
7
  6
CONTINUOUS
 10
364.2092032839
 20
30.9779299347
 11
364.2670155634
 21
30.8811388585
  0
LINE
  8
0
 62
7
  6
CONTINUOUS
 10
364.6138905634
 20
30.81661148
 11
364.5560782839
 21
30.9134025506
  0
LINE
  8
0
 62
7
  6
CONTINUOUS
 10
364.4982653428
 20
31.5909400446
 11
364.4404530634
 21
31.6877311038
  0
LINE
  8
0
 62
7
  6
CONTINUOUS
 10
365.8279530634
 20
31.8490495359
 11
365.8279530634
 21
30.81661148
  0
LINE
  8
0
 62
7
  6
CONTINUOUS
 10
366.1170157839
 20
30.81661148
 11
366.1170157839
 21
31.5586763581
  0
LINE
  8
0
 62
7
  6
CONTINUOUS
 10
366.1170157839
 20
31.6877311038
 11
366.1170157839
 21
31.8490495359
  0
LINE
  8
0
 62
7
  6
CONTINUOUS
 10
366.648829088
 20
34.8330049227
 11
366.648829088
 21
32.6198901686
  0
LINE
  8
0
 62
7
  6
CONTINUOUS
 10
358.5435780634
 20
31.6554674174
 11
358.4279530651
 21
31.5264126717
  0
LINE
  8
0
 62
7
  6
CONTINUOUS
 10
358.7170155634
 20
31.4941489853
 11
358.7748280496
 21
31.5586763581
  0
LINE
  8
0
 62
7
  6
CONTINUOUS
 10
358.5435780634
 20
31.0101936212
 11
358.6592030565
 21
30.945666237
  0
LINE
  8
0
 62
7
  6
CONTINUOUS
 10
358.9482655496
 20
31.0101936212
 11
358.7748280496
 21
31.106984703
  0
LINE
  8
0
 62
7
  6
CONTINUOUS
 10
364.1513903428
 20
31.6554674174
 11
364.2092032839
 21
31.5909400446
  0
LINE
  8
0
 62
7
  6
CONTINUOUS
 10
367.0998278428
 20
31.5909400446
 11
367.1576407839
 21
31.4296216124
  0
LINE
  8
0
 62
7
  6
CONTINUOUS
 10
367.4467028428
 20
31.4296216124
 11
367.3888905634
 21
31.5909400446
  0
LINE
  8
0
 62
7
  6
CONTINUOUS
 10
367.1576407839
 20
31.4296216124
 11
367.1576407839
 21
30.81661148
  0
LINE
  8
0
 62
7
  6
CONTINUOUS
 10
367.4467028428
 20
30.81661148
 11
367.4467028428
 21
31.4296216124
  0
LINE
  8
0
 62
7
  6
CONTINUOUS
 10
367.9092030634
 20
31.6554674174
 11
367.9092030634
 21
31.5909400446
  0
LINE
  8
0
 62
7
  6
CONTINUOUS
 10
368.0422717109
 20
32.6198901686
 11
368.0422717109
 21
34.7510377095
  0
LINE
  8
0
 62
7
  6
CONTINUOUS
 10
368.3701405634
 20
36.3903819718
 11
368.3701405634
 21
32.6198901686
  0
LINE
  8
0
 62
7
  6
CONTINUOUS
 10
363.0529530634
 20
31.1392483894
 11
363.1107656736
 21
31.2360394487
  0
LINE
  8
0
 62
7
  6
CONTINUOUS
 10
358.6592030565
 20
30.945666237
 11
358.8326405772
 21
30.8811388585
  0
LINE
  8
0
 62
7
  6
CONTINUOUS
 10
360.1623280082
 20
31.6554674174
 11
359.9888905082
 21
31.7522584767
  0
LINE
  8
0
 62
7
  6
CONTINUOUS
 10
362.8217029531
 20
30.9779299347
 11
362.9951404531
 21
30.8811388585
  0
LINE
  8
0
 62
7
  6
CONTINUOUS
 10
361.8388905634
 20
31.6554674174
 11
361.9545154531
 21
31.5909400446
  0
LINE
  8
0
 62
7
  6
CONTINUOUS
 10
362.1857655634
 20
31.6877311038
 11
362.0701406736
 21
31.7522584767
  0
LINE
  8
0
 62
7
  6
CONTINUOUS
 10
367.9092030634
 20
31.074720994
 11
368.0248282839
 21
30.945666237
  0
LINE
  8
0
 62
7
  6
CONTINUOUS
 10
368.2560780634
 20
31.0101936212
 11
368.1982657839
 21
31.074720994
  0
LINE
  8
0
 62
7
  6
CONTINUOUS
 10
367.9092030634
 20
31.5909400446
 11
368.0248282839
 21
31.4618852989
  0
LINE
  8
0
 62
7
  6
CONTINUOUS
 10
367.3888905634
 20
31.5909400446
 11
367.3310782839
 21
31.6877311038
  0
LINE
  8
0
 62
7
  6
CONTINUOUS
 10
369.7592026223
 20
31.0101936212
 11
369.7592026223
 21
31.074720994
  0
LINE
  8
0
 62
7
  6
CONTINUOUS
 10
369.7635831863
 20
32.6198901686
 11
369.7635831863
 21
36.3903819718
  0
LINE
  8
0
 62
7
  6
CONTINUOUS
 10
362.8217029531
 20
31.7199947902
 11
362.7638906736
 21
31.6554674174
  0
LINE
  8
0
 62
7
  6
CONTINUOUS
 10
359.6998280358
 20
31.6877311038
 11
359.8732656185
 21
31.623203731
  0
LINE
  8
0
 62
7
  6
CONTINUOUS
 10
364.4404530634
 20
31.6877311038
 11
364.3248278428
 21
31.7522584767
  0
LINE
  8
0
 62
7
  6
CONTINUOUS
 10
368.2560780634
 20
31.5264126717
 11
368.1982657839
 21
31.5909400446
  0
LINE
  8
0
 62
7
  6
CONTINUOUS
 10
369.4123282839
 20
31.1392483894
 11
369.4701405634
 21
31.074720994
  0
LINE
  8
0
 62
7
  6
CONTINUOUS
 10
369.7592026223
 20
31.074720994
 11
369.6435780634
 21
31.2037757623
  0
LINE
  8
0
 62
7
  6
CONTINUOUS
 10
369.4123282839
 20
31.6554674174
 11
369.4701405634
 21
31.5909400446
  0
LINE
  8
0
 62
7
  6
CONTINUOUS
 10
369.7592026223
 20
31.5909400446
 11
369.6435780634
 21
31.7199947902
  0
LINE
  8
0
 62
7
  6
CONTINUOUS
 10
363.0529530634
 20
31.5909400446
 11
363.1107656736
 21
31.6554674174
  0
LINE
  8
0
 62
7
  6
CONTINUOUS
 10
362.8795155634
 20
31.332830508
 11
362.7638906736
 21
31.2037757623
  0
LINE
  8
0
 62
7
  6
CONTINUOUS
 10
364.2092032839
 20
31.1715120759
 11
364.1513903428
 21
31.106984703
  0
LINE
  8
0
 62
7
  6
CONTINUOUS
 10
364.1513903428
 20
30.9134025506
 11
364.2092032839
 21
30.9779299347
  0
LINE
  8
0
 62
7
  6
CONTINUOUS
 10
362.9951404531
 20
30.8811388585
 11
363.1107656736
 21
30.8488751693
  0
LINE
  8
0
 62
7
  6
CONTINUOUS
 10
359.9888905082
 20
31.7522584767
 11
359.7576405634
 21
31.8167858495
  0
LINE
  8
0
 62
7
  6
CONTINUOUS
 10
363.3420154531
 20
30.945666237
 11
363.1107656736
 21
31.0101936212
  0
LINE
  8
0
 62
7
  6
CONTINUOUS
 10
362.0701406736
 20
31.7522584767
 11
361.8967031736
 21
31.8167858495
  0
LINE
  8
0
 62
7
  6
CONTINUOUS
 10
364.3248278428
 20
31.7522584767
 11
364.1513903428
 21
31.8167858495
  0
LINE
  8
0
 62
7
  6
CONTINUOUS
 10
366.9842032839
 20
31.6554674174
 11
367.0998278428
 21
31.5909400446
  0
LINE
  8
0
 62
7
  6
CONTINUOUS
 10
367.3310782839
 20
31.6877311038
 11
367.2154530634
 21
31.7522584767
  0
LINE
  8
0
 62
7
  6
CONTINUOUS
 10
358.8326405772
 20
30.8811388585
 11
359.0060780772
 21
30.8488751693
  0
LINE
  8
0
 62
7
  6
CONTINUOUS
 10
359.2951405909
 20
30.945666237
 11
358.9482655496
 21
31.0101936212
  0
LINE
  8
0
 62
7
  6
CONTINUOUS
 10
361.7232656736
 20
31.6877311038
 11
361.8388905634
 21
31.6554674174
  0
LINE
  8
0
 62
7
  6
CONTINUOUS
 10
364.0357657839
 20
31.6877311038
 11
364.1513903428
 21
31.6554674174
  0
LINE
  8
0
 62
7
  6
CONTINUOUS
 10
368.3717032839
 20
30.9779299347
 11
368.2560780634
 21
31.0101936212
  0
LINE
  8
0
 62
7
  6
CONTINUOUS
 10
366.8685780634
 20
31.6877311038
 11
366.9842032839
 21
31.6554674174
  0
LINE
  8
0
 62
7
  6
CONTINUOUS
 10
368.0248282839
 20
30.945666237
 11
368.1982657839
 21
30.8811388585
  0
LINE
  8
0
 62
7
  6
CONTINUOUS
 10
367.2154530634
 20
31.7522584767
 11
367.0420155634
 21
31.8167858495
  0
LINE
  8
0
 62
7
  6
CONTINUOUS
 10
368.4295155634
 20
31.4618852989
 11
368.2560780634
 21
31.5264126717
  0
LINE
  8
0
 62
7
  6
CONTINUOUS
 10
369.2388907839
 20
31.2037757623
 11
369.4123282839
 21
31.1392483894
  0
LINE
  8
0
 62
7
  6
CONTINUOUS
 10
369.6435780634
 20
31.7199947902
 11
369.4701405634
 21
31.7845221631
  0
LINE
  8
0
 62
7
  6
CONTINUOUS
 10
368.0248282839
 20
31.4618852989
 11
368.2560780634
 21
31.3650941944
  0
LINE
  8
0
 62
7
  6
CONTINUOUS
 10
369.6435780634
 20
31.2037757623
 11
369.4123282839
 21
31.3005668216
  0
LINE
  8
0
 62
7
  6
CONTINUOUS
 10
368.1982657839
 20
31.5909400446
 11
368.2560780634
 21
31.6554674174
  0
LINE
  8
0
 62
7
  6
CONTINUOUS
 10
358.6592030565
 20
31.7199947902
 11
358.5435780634
 21
31.6554674174
  0
LINE
  8
0
 62
7
  6
CONTINUOUS
 10
358.7748280496
 20
31.5586763581
 11
358.9482655496
 21
31.6554674174
  0
LINE
  8
0
 62
7
  6
CONTINUOUS
 10
361.0873281185
 20
31.7522584767
 11
360.9717030634
 21
31.6877311038
  0
LINE
  8
0
 62
7
  6
CONTINUOUS
 10
360.9717030634
 20
31.5586763581
 11
361.0873281185
 21
31.623203731
  0
LINE
  8
0
 62
7
  6
CONTINUOUS
 10
359.9888905082
 20
30.9134025506
 11
360.1623280082
 21
31.0101936212
  0
LINE
  8
0
 62
7
  6
CONTINUOUS
 10
359.0060780772
 20
30.8488751693
 11
359.3529530358
 21
30.81661148
  0
LINE
  8
0
 62
7
  6
CONTINUOUS
 10
363.1107656736
 20
30.8488751693
 11
363.3420154531
 21
30.81661148
  0
LINE
  8
0
 62
7
  6
CONTINUOUS
 10
361.4920155634
 20
31.7199947902
 11
361.7232656736
 21
31.6877311038
  0
LINE
  8
0
 62
7
  6
CONTINUOUS
 10
363.8045156736
 20
31.7199947902
 11
364.0357657839
 21
31.6877311038
  0
LINE
  8
0
 62
7
  6
CONTINUOUS
 10
368.2560780634
 20
31.3650941944
 11
369.2388907839
 21
31.2037757623
  0
LINE
  8
0
 62
7
  6
CONTINUOUS
 10
369.4123282839
 20
31.3005668216
 11
368.4295155634
 21
31.4618852989
  0
LINE
  8
0
 62
7
  6
CONTINUOUS
 10
361.8967031736
 20
31.8167858495
 11
361.7232656736
 21
31.8490495359
  0
LINE
  8
0
 62
7
  6
CONTINUOUS
 10
368.1982657839
 20
30.8811388585
 11
368.3717032839
 21
30.8488751693
  0
LINE
  8
0
 62
7
  6
CONTINUOUS
 10
367.0420155634
 20
31.8167858495
 11
366.8685780634
 21
31.8490495359
  0
LINE
  8
0
 62
7
  6
CONTINUOUS
 10
369.2967030634
 20
31.6877311038
 11
369.4123282839
 21
31.6554674174
  0
LINE
  8
0
 62
7
  6
CONTINUOUS
 10
369.4701405634
 20
31.074720994
 11
369.4123282839
 21
31.0101936212
  0
LINE
  8
0
 62
7
  6
CONTINUOUS
 10
368.0248282839
 20
31.7522584767
 11
367.9092030634
 21
31.6554674174
  0
LINE
  8
0
 62
7
  6
CONTINUOUS
 10
362.9373281736
 20
31.7845221631
 11
362.8217029531
 21
31.7199947902
  0
LINE
  8
0
 62
7
  6
CONTINUOUS
 10
362.9951404531
 20
31.397357926
 11
362.8795155634
 21
31.332830508
  0
LINE
  8
0
 62
7
  6
CONTINUOUS
 10
363.1107656736
 20
31.2360394487
 11
363.2263905634
 21
31.3005668216
  0
LINE
  8
0
 62
7
  6
CONTINUOUS
 10
360.6826405082
 20
30.81661148
 11
360.9717030634
 21
30.81661148
  0
LINE
  8
0
 62
7
  6
CONTINUOUS
 10
362.0123280634
 20
30.81661148
 11
362.3013904531
 21
30.81661148
  0
LINE
  8
0
 62
7
  6
CONTINUOUS
 10
363.3420154531
 20
30.81661148
 11
363.6888904531
 21
30.81661148
  0
LINE
  8
0
 62
7
  6
CONTINUOUS
 10
364.3248278428
 20
30.81661148
 11
364.6138905634
 21
30.81661148
  0
LINE
  8
0
 62
7
  6
CONTINUOUS
 10
365.0763907839
 20
30.81661148
 11
365.3654528428
 21
30.81661148
  0
LINE
  8
0
 62
7
  6
CONTINUOUS
 10
365.8279530634
 20
30.81661148
 11
366.1170157839
 21
30.81661148
  0
LINE
  8
0
 62
7
  6
CONTINUOUS
 10
367.1576407839
 20
30.81661148
 11
367.4467028428
 21
30.81661148
  0
LINE
  8
0
 62
7
  6
CONTINUOUS
 10
368.7185782839
 20
30.81661148
 11
369.0654532839
 21
30.81661148
  0
LINE
  8
0
 62
7
  6
CONTINUOUS
 10
369.0654532839
 20
30.945666237
 11
368.7185782839
 21
30.945666237
  0
LINE
  8
0
 62
7
  6
CONTINUOUS
 10
363.6888904531
 20
30.945666237
 11
363.3420154531
 21
30.945666237
  0
LINE
  8
0
 62
7
  6
CONTINUOUS
 10
368.1982657839
 20
31.074720994
 11
367.9092030634
 21
31.074720994
  0
LINE
  8
0
 62
7
  6
CONTINUOUS
 10
360.2201406185
 20
31.1392483894
 11
359.9310780634
 21
31.1392483894
  0
LINE
  8
0
 62
7
  6
CONTINUOUS
 10
359.2951405909
 20
31.7199947902
 11
359.6998280358
 21
31.6877311038
  0
LINE
  8
0
 62
7
  6
CONTINUOUS
 10
359.7576405634
 20
31.8167858495
 11
359.3529530358
 21
31.8490495359
  0
LINE
  8
0
 62
7
  6
CONTINUOUS
 10
368.3717032839
 20
30.8488751693
 11
368.7185782839
 21
30.81661148
  0
LINE
  8
0
 62
7
  6
CONTINUOUS
 10
368.7185782839
 20
30.945666237
 11
368.3717032839
 21
30.9779299347
  0
LINE
  8
0
 62
7
  6
CONTINUOUS
 10
364.1513903428
 20
31.8167858495
 11
363.8045156736
 21
31.8490495359
  0
LINE
  8
0
 62
7
  6
CONTINUOUS
 10
368.9498280634
 20
31.7199947902
 11
369.2967030634
 21
31.6877311038
  0
LINE
  8
0
 62
7
  6
CONTINUOUS
 10
369.2967030634
 20
31.8167858495
 11
368.9498280634
 21
31.8490495359
  0
LINE
  8
0
 62
7
  6
CONTINUOUS
 10
366.6373282839
 20
31.7199947902
 11
366.8685780634
 21
31.6877311038
  0
LINE
  8
0
 62
7
  6
CONTINUOUS
 10
369.4701405634
 20
31.7845221631
 11
369.2967030634
 21
31.8167858495
  0
LINE
  8
0
 62
7
  6
CONTINUOUS
 10
369.6435780634
 20
30.9134025506
 11
369.7592026223
 21
31.0101936212
  0
LINE
  8
0
 62
7
  6
CONTINUOUS
 10
364.1513903428
 20
31.106984703
 11
363.9779528428
 21
31.0101936212
  0
LINE
  8
0
 62
7
  6
CONTINUOUS
 10
366.2326403428
 20
31.7522584767
 11
366.1170157839
 21
31.6877311038
  0
LINE
  8
0
 62
7
  6
CONTINUOUS
 10
366.1170157839
 20
31.5586763581
 11
366.2326403428
 21
31.623203731
  0
LINE
  8
0
 62
7
  6
CONTINUOUS
 10
358.8326405772
 20
31.7845221631
 11
358.6592030565
 21
31.7199947902
  0
LINE
  8
0
 62
7
  6
CONTINUOUS
 10
361.2607654531
 20
31.8167858495
 11
361.0873281185
 21
31.7522584767
  0
LINE
  8
0
 62
7
  6
CONTINUOUS
 10
361.0873281185
 20
31.623203731
 11
361.2607654531
 21
31.6877311038
  0
LINE
  8
0
 62
7
  6
CONTINUOUS
 10
359.8732656185
 20
31.0424573076
 11
359.6998280358
 21
30.9779299347
  0
LINE
  8
0
 62
7
  6
CONTINUOUS
 10
369.2967030634
 20
30.9779299347
 11
369.0654532839
 21
30.945666237
  0
LINE
  8
0
 62
7
  6
CONTINUOUS
 10
363.6888904531
 20
30.81661148
 11
363.9779528428
 21
30.8488751693
  0
LINE
  8
0
 62
7
  6
CONTINUOUS
 10
369.0654532839
 20
30.81661148
 11
369.4123282839
 21
30.8488751693
  0
LINE
  8
0
 62
7
  6
CONTINUOUS
 10
359.3529530358
 20
30.81661148
 11
359.7576405634
 21
30.8488751693
  0
LINE
  8
0
 62
7
  6
CONTINUOUS
 10
359.6998280358
 20
30.9779299347
 11
359.2951405909
 21
30.945666237
  0
LINE
  8
0
 62
7
  6
CONTINUOUS
 10
363.5732655634
 20
31.3650941944
 11
364.2092032839
 21
31.3650941944
  0
LINE
  8
0
 62
7
  6
CONTINUOUS
 10
364.2092032839
 20
31.4941489853
 11
363.5732655634
 21
31.4941489853
  0
LINE
  8
0
 62
7
  6
CONTINUOUS
 10
359.9310780634
 20
31.5264126717
 11
360.2201406185
 21
31.5264126717
  0
LINE
  8
0
 62
7
  6
CONTINUOUS
 10
362.7638906736
 20
31.5909400446
 11
363.0529530634
 21
31.5909400446
  0
LINE
  8
0
 62
7
  6
CONTINUOUS
 10
369.4701405634
 20
31.5909400446
 11
369.7592026223
 21
31.5909400446
  0
LINE
  8
0
 62
7
  6
CONTINUOUS
 10
363.4576406736
 20
31.7199947902
 11
363.8045156736
 21
31.7199947902
  0
LINE
  8
0
 62
7
  6
CONTINUOUS
 10
368.6029530634
 20
31.7199947902
 11
368.9498280634
 21
31.7199947902
  0
LINE
  8
0
 62
7
  6
CONTINUOUS
 10
368.9498280634
 20
31.8490495359
 11
368.6029530634
 21
31.8490495359
  0
LINE
  8
0
 62
7
  6
CONTINUOUS
 10
366.8685780634
 20
31.8490495359
 11
366.6373282839
 21
31.8490495359
  0
LINE
  8
0
 62
7
  6
CONTINUOUS
 10
366.1170157839
 20
31.8490495359
 11
365.8279530634
 21
31.8490495359
  0
LINE
  8
0
 62
7
  6
CONTINUOUS
 10
365.3654528428
 20
31.8490495359
 11
365.0763907839
 21
31.8490495359
  0
LINE
  8
0
 62
7
  6
CONTINUOUS
 10
363.8045156736
 20
31.8490495359
 11
363.4576406736
 21
31.8490495359
  0
LINE
  8
0
 62
7
  6
CONTINUOUS
 10
361.7232656736
 20
31.8490495359
 11
361.4920155634
 21
31.8490495359
  0
LINE
  8
0
 62
7
  6
CONTINUOUS
 10
365.0763907839
 20
32.1716864905
 11
365.3654528428
 21
32.1716864905
  0
LINE
  8
0
 62
7
  6
CONTINUOUS
 10
365.3654528428
 20
32.3330049227
 11
365.0763907839
 21
32.3330049227
  0
LINE
  8
0
 62
7
  6
CONTINUOUS
 10
360.9717030634
 20
32.3330049227
 11
360.6826405082
 21
32.3330049227
  0
LINE
  8
0
 62
7
  6
CONTINUOUS
 10
360.0094848257
 20
32.6198901686
 11
360.4220561743
 21
32.6198901686
  0
LINE
  8
0
 62
7
  6
CONTINUOUS
 10
361.648829088
 20
32.6198901686
 11
363.0422717109
 21
32.6198901686
  0
LINE
  8
0
 62
7
  6
CONTINUOUS
 10
363.3701405634
 20
32.6198901686
 11
364.7635831863
 21
32.6198901686
  0
LINE
  8
0
 62
7
  6
CONTINUOUS
 10
366.648829088
 20
32.6198901686
 11
368.0422717109
 21
32.6198901686
  0
LINE
  8
0
 62
7
  6
CONTINUOUS
 10
368.3701405634
 20
32.6198901686
 11
369.7635831863
 21
32.6198901686
  0
LINE
  8
0
 62
7
  6
CONTINUOUS
 10
366.4060778428
 20
31.8167858495
 11
366.2326403428
 21
31.7522584767
  0
LINE
  8
0
 62
7
  6
CONTINUOUS
 10
363.9779528428
 20
30.8488751693
 11
364.1513903428
 21
30.9134025506
  0
LINE
  8
0
 62
7
  6
CONTINUOUS
 10
369.4123282839
 20
30.8488751693
 11
369.6435780634
 21
30.9134025506
  0
LINE
  8
0
 62
7
  6
CONTINUOUS
 10
369.4123282839
 20
31.0101936212
 11
369.2967030634
 21
30.9779299347
  0
LINE
  8
0
 62
7
  6
CONTINUOUS
 10
368.3717032839
 20
31.6877311038
 11
368.6029530634
 21
31.7199947902
  0
LINE
  8
0
 62
7
  6
CONTINUOUS
 10
366.4060778428
 20
31.6877311038
 11
366.6373282839
 21
31.7199947902
  0
LINE
  8
0
 62
7
  6
CONTINUOUS
 10
363.3420154531
 20
31.332830508
 11
363.5732655634
 21
31.3650941944
  0
LINE
  8
0
 62
7
  6
CONTINUOUS
 10
366.6373282839
 20
31.8490495359
 11
366.4060778428
 21
31.8167858495
  0
LINE
  8
0
 62
7
  6
CONTINUOUS
 10
363.2263905634
 20
31.6877311038
 11
363.4576406736
 21
31.7199947902
  0
LINE
  8
0
 62
7
  6
CONTINUOUS
 10
368.6029530634
 20
31.8490495359
 11
368.2560780634
 21
31.8167858495
  0
LINE
  8
0
 62
7
  6
CONTINUOUS
 10
363.5732655634
 20
31.4941489853
 11
363.2263905634
 21
31.4618852989
  0
LINE
  8
0
 62
7
  6
CONTINUOUS
 10
359.3529530358
 20
31.8490495359
 11
359.0060780772
 21
31.8167858495
  0
LINE
  8
0
 62
7
  6
CONTINUOUS
 10
363.4576406736
 20
31.8490495359
 11
363.0529530634
 21
31.8167858495
  0
LINE
  8
0
 62
7
  6
CONTINUOUS
 10
360.8291569568
 20
33.7674311522
 11
360.1734192519
 21
33.7674311522
  0
LINE
  8
0
 62
7
  6
CONTINUOUS
 10
366.2326403428
 20
31.623203731
 11
366.4060778428
 21
31.6877311038
  0
LINE
  8
0
 62
7
  6
CONTINUOUS
 10
368.2560780634
 20
31.6554674174
 11
368.3717032839
 21
31.6877311038
  0
LINE
  8
0
 62
7
  6
CONTINUOUS
 10
368.2560780634
 20
31.8167858495
 11
368.0248282839
 21
31.7522584767
  0
LINE
  8
0
 62
7
  6
CONTINUOUS
 10
363.9779528428
 20
31.0101936212
 11
363.6888904531
 21
30.945666237
  0
LINE
  8
0
 62
7
  6
CONTINUOUS
 10
361.2607654531
 20
31.6877311038
 11
361.4920155634
 21
31.7199947902
  0
LINE
  8
0
 62
7
  6
CONTINUOUS
 10
361.4920155634
 20
31.8490495359
 11
361.2607654531
 21
31.8167858495
  0
LINE
  8
0
 62
7
  6
CONTINUOUS
 10
359.0638905634
 20
31.6877311038
 11
359.2951405909
 21
31.7199947902
  0
LINE
  8
0
 62
7
  6
CONTINUOUS
 10
365.5832553175
 20
35.2428409882
 11
366.2389930224
 21
35.2428409882
  0
LINE
  8
0
 62
7
  6
CONTINUOUS
 10
363.2263905634
 20
31.3005668216
 11
363.3420154531
 21
31.332830508
  0
LINE
  8
0
 62
7
  6
CONTINUOUS
 10
363.2263905634
 20
31.4618852989
 11
362.9951404531
 21
31.397357926
  0
LINE
  8
0
 62
7
  6
CONTINUOUS
 10
363.1107656736
 20
31.6554674174
 11
363.2263905634
 21
31.6877311038
  0
LINE
  8
0
 62
7
  6
CONTINUOUS
 10
359.7576405634
 20
30.8488751693
 11
359.9888905082
 21
30.9134025506
  0
LINE
  8
0
 62
7
  6
CONTINUOUS
 10
363.0529530634
 20
31.8167858495
 11
362.9373281736
 21
31.7845221631
  0
LINE
  8
0
 62
7
  6
CONTINUOUS
 10
359.0060780772
 20
31.8167858495
 11
358.8326405772
 21
31.7845221631
  0
LINE
  8
0
 62
7
  6
CONTINUOUS
 10
369.7635831863
 20
36.3903819718
 11
368.3701405634
 21
36.3903819718
  0
LINE
  8
0
 62
7
  6
CONTINUOUS
 10
366.4029274486
 20
36.3903819718
 11
365.9903561
 21
36.3903819718
  0
LINE
  8
0
 62
7
  6
CONTINUOUS
 10
364.7635831863
 20
36.3903819718
 11
363.3701405634
 21
36.3903819718
  0
LINE
  8
0
 62
7
  6
CONTINUOUS
 10
363.0422717109
 20
36.3903819718
 11
361.648829088
 21
36.3903819718
  0
LINE
  8
0
 62
7
  6
CONTINUOUS
 10
359.7635831863
 20
36.3903819718
 11
358.3701405634
 21
36.3903819718
  0
LINE
  8
0
 62
7
  6
CONTINUOUS
 10
358.9482655496
 20
31.6554674174
 11
359.0638905634
 21
31.6877311038
  0
CIRCLE
  8
0
 62
7
  6
CONTINUOUS
 10
369.0668618749
 20
38.7264475456
 40
2.0901639344
  0
ARC
  8
0
 62
7
  6
CONTINUOUS
 10
360.0094848257
 20
34.2592344308
 40
1.6393442623
 50
180.0
 51
270.0
  0
ARC
  8
0
 62
7
  6
CONTINUOUS
 10
366.4029274486
 20
34.7510377095
 40
1.6393442623
 50
0.0
 51
90.0
  0
ARC
  8
0
 62
7
  6
CONTINUOUS
 10
360.4220561743
 20
34.0953000046
 40
1.4754098361
 50
270.0
 51
326.2510114041
  0
ARC
  8
0
 62
7
  6
CONTINUOUS
 10
365.9903561
 20
34.9149721358
 40
1.4754098361
 50
90.0
 51
146.2510114041
  0
ARC
  8
0
 62
7
  6
CONTINUOUS
 10
360.8291569568
 20
34.5871032833
 40
0.8196721311
 50
270.0
 51
360.0
  0
ARC
  8
0
 62
7
  6
CONTINUOUS
 10
365.5832553175
 20
34.4231688571
 40
0.8196721311
 50
90.0
 51
180.0
  0
ARC
  8
0
 62
7
  6
CONTINUOUS
 10
360.1734192519
 20
34.1772672177
 40
0.4098360656
 50
180.0
 51
270.0
  0
ARC
  8
0
 62
7
  6
CONTINUOUS
 10
366.2389930224
 20
34.8330049227
 40
0.4098360656
 50
0.0
 51
90.0
  0
SOLID
  8
0
 62
7
  6
CONTINUOUS
 10
365.0763907839
 20
32.1716868508
 11
365.0763907839
 21
32.3330053344
 12
365.3654528428
 22
32.1716868508
 13
365.3654528428
 23
32.3330053344
  0
SOLID
  8
0
 62
7
  6
CONTINUOUS
 10
359.3529530358
 20
31.8490498836
 11
359.7576405634
 21
31.8167854792
 12
359.0060780772
 22
31.8167854792
 13
359.0060780772
 23
31.8167854792
  0
SOLID
  8
0
 62
7
  6
CONTINUOUS
 10
358.8326405772
 20
31.7845227934
 11
359.0060780772
 21
31.8167854792
 12
359.7576405634
 22
31.8167854792
 13
359.7576405634
 23
31.8167854792
  0
SOLID
  8
0
 62
7
  6
CONTINUOUS
 10
359.7576405634
 20
31.8167854792
 11
359.9888905082
 21
31.7522584901
 12
358.8326405772
 22
31.7845227934
 13
358.8326405772
 23
31.7845227934
  0
SOLID
  8
0
 62
7
  6
CONTINUOUS
 10
358.6592030565
 20
31.7199940664
 11
358.8326405772
 21
31.7845227934
 12
359.9888905082
 22
31.7522584901
 13
359.9888905082
 23
31.7522584901
  0
SOLID
  8
0
 62
7
  6
CONTINUOUS
 10
358.6592030565
 20
31.7199940664
 11
359.9888905082
 21
31.7522584901
 12
359.2951405909
 22
31.7199940664
 13
359.2951405909
 23
31.7199940664
  0
SOLID
  8
0
 62
7
  6
CONTINUOUS
 10
359.2951405909
 20
31.7199940664
 11
359.9888905082
 21
31.7522584901
 12
359.6998280358
 22
31.6877314
 13
359.6998280358
 23
31.6877314
  0
SOLID
  8
0
 62
7
  6
CONTINUOUS
 10
359.9888905082
 20
31.7522584901
 11
360.1623280082
 21
31.6554670967
 12
359.6998280358
 22
31.6877314
 13
359.6998280358
 23
31.6877314
  0
SOLID
  8
0
 62
7
  6
CONTINUOUS
 10
359.8732656185
 20
31.6232043098
 11
359.6998280358
 21
31.6877314
 12
360.1623280082
 22
31.6554670967
 13
360.1623280082
 23
31.6554670967
  0
SOLID
  8
0
 62
7
  6
CONTINUOUS
 10
359.8732656185
 20
31.6232043098
 11
360.1623280082
 21
31.6554670967
 12
359.9310780634
 22
31.5264128539
 13
359.9310780634
 23
31.5264128539
  0
SOLID
  8
0
 62
7
  6
CONTINUOUS
 10
360.1623280082
 20
31.6554670967
 11
360.2201406185
 21
31.5264128539
 12
359.9310780634
 22
31.5264128539
 13
359.9310780634
 23
31.5264128539
  0
SOLID
  8
0
 62
7
  6
CONTINUOUS
 10
361.2607654531
 20
31.8167852459
 11
361.4920155634
 21
31.8490495492
 12
361.7232656736
 22
31.8490495492
 13
361.7232656736
 23
31.8490495492
  0
SOLID
  8
0
 62
7
  6
CONTINUOUS
 10
361.7232656736
 20
31.8490495492
 11
361.8967031736
 21
31.8167852459
 12
361.2607654531
 22
31.8167852459
 13
361.2607654531
 23
31.8167852459
  0
SOLID
  8
0
 62
7
  6
CONTINUOUS
 10
361.0873281185
 20
31.7522581557
 11
361.2607654531
 21
31.8167852459
 12
361.8967031736
 22
31.8167852459
 13
361.8967031736
 23
31.8167852459
  0
SOLID
  8
0
 62
7
  6
CONTINUOUS
 10
361.8967031736
 20
31.8167852459
 11
362.0701406736
 21
31.7522581557
 12
361.0873281185
 22
31.7522581557
 13
361.0873281185
 23
31.7522581557
  0
SOLID
  8
0
 62
7
  6
CONTINUOUS
 10
362.0701406736
 20
31.7522581557
 11
361.4920155634
 21
31.7199941869
 12
361.0873281185
 22
31.7522581557
 13
361.0873281185
 23
31.7522581557
  0
SOLID
  8
0
 62
7
  6
CONTINUOUS
 10
360.9717030634
 20
31.6877310656
 11
361.0873281185
 21
31.7522581557
 12
361.4920155634
 22
31.7199941869
 13
361.4920155634
 23
31.7199941869
  0
SOLID
  8
0
 62
7
  6
CONTINUOUS
 10
361.4920155634
 20
31.7199941869
 11
361.2607654531
 21
31.6877310656
 12
360.9717030634
 22
31.6877310656
 13
360.9717030634
 23
31.6877310656
  0
SOLID
  8
0
 62
7
  6
CONTINUOUS
 10
361.4920155634
 20
31.7199941869
 11
362.0701406736
 21
31.7522581557
 12
361.7232656736
 22
31.6877310656
 13
361.7232656736
 23
31.6877310656
  0
SOLID
  8
0
 62
7
  6
CONTINUOUS
 10
362.0701406736
 20
31.7522581557
 11
362.1857655634
 21
31.6877310656
 12
361.7232656736
 22
31.6877310656
 13
361.7232656736
 23
31.6877310656
  0
SOLID
  8
0
 62
7
  6
CONTINUOUS
 10
361.8388905634
 20
31.6554670967
 11
361.7232656736
 21
31.6877310656
 12
362.1857655634
 22
31.6877310656
 13
362.1857655634
 23
31.6877310656
  0
SOLID
  8
0
 62
7
  6
CONTINUOUS
 10
362.1857655634
 20
31.6877310656
 11
362.2435781736
 21
31.6232039754
 12
361.8388905634
 22
31.6554670967
 13
361.8388905634
 23
31.6554670967
  0
SOLID
  8
0
 62
7
  6
CONTINUOUS
 10
361.9545154531
 20
31.5909400065
 11
361.8388905634
 21
31.6554670967
 12
362.2435781736
 22
31.6232039754
 13
362.2435781736
 23
31.6232039754
  0
SOLID
  8
0
 62
7
  6
CONTINUOUS
 10
361.9545154531
 20
31.5909400065
 11
362.2435781736
 21
31.6232039754
 12
362.0123280634
 22
31.4618854918
 13
362.0123280634
 23
31.4618854918
  0
SOLID
  8
0
 62
7
  6
CONTINUOUS
 10
362.2435781736
 20
31.6232039754
 11
362.3013904531
 21
31.4618854918
 12
362.0123280634
 22
31.4618854918
 13
362.0123280634
 23
31.4618854918
  0
SOLID
  8
0
 62
7
  6
CONTINUOUS
 10
361.2607654531
 20
31.6877310656
 11
361.0873281185
 21
31.6232039754
 12
360.9717030634
 22
31.6877310656
 13
360.9717030634
 23
31.6877310656
  0
SOLID
  8
0
 62
7
  6
CONTINUOUS
 10
361.0873281185
 20
31.6232039754
 11
360.9717030634
 21
31.5586757033
 12
360.9717030634
 22
31.6877310656
 13
360.9717030634
 23
31.6877310656
  0
SOLID
  8
0
 62
7
  6
CONTINUOUS
 10
360.9717030634
 20
31.5586757033
 11
360.6826405082
 21
30.8166115574
 12
360.9717030634
 22
31.6877310656
 13
360.9717030634
 23
31.6877310656
  0
SOLID
  8
0
 62
7
  6
CONTINUOUS
 10
360.9717030634
 20
31.6877310656
 11
360.6826405082
 21
30.8166115574
 12
360.9717030634
 22
32.333005
 13
360.9717030634
 23
32.333005
  0
SOLID
  8
0
 62
7
  6
CONTINUOUS
 10
360.6826405082
 20
30.8166115574
 11
360.6826405082
 21
32.333005
 12
360.9717030634
 22
32.333005
 13
360.9717030634
 23
32.333005
  0
SOLID
  8
0
 62
7
  6
CONTINUOUS
 10
360.9717030634
 20
31.5586757033
 11
360.9717030634
 21
30.8166115574
 12
360.6826405082
 22
30.8166115574
 13
360.6826405082
 23
30.8166115574
  0
SOLID
  8
0
 62
7
  6
CONTINUOUS
 10
362.0123280634
 20
30.8166115574
 11
362.0123280634
 21
31.4618854918
 12
362.3013904531
 22
31.4618854918
 13
362.3013904531
 23
31.4618854918
  0
SOLID
  8
0
 62
7
  6
CONTINUOUS
 10
362.3013904531
 20
31.4618854918
 11
362.3013904531
 21
30.8166115574
 12
362.0123280634
 22
30.8166115574
 13
362.0123280634
 23
30.8166115574
  0
SOLID
  8
0
 62
7
  6
CONTINUOUS
 10
363.0529530634
 20
31.8167856315
 11
363.4576406736
 21
31.8490496243
 12
363.8045156736
 22
31.8490496243
 13
363.8045156736
 23
31.8490496243
  0
SOLID
  8
0
 62
7
  6
CONTINUOUS
 10
363.8045156736
 20
31.8490496243
 11
364.1513903428
 21
31.8167856315
 12
363.0529530634
 22
31.8167856315
 13
363.0529530634
 23
31.8167856315
  0
SOLID
  8
0
 62
7
  6
CONTINUOUS
 10
362.9373281736
 20
31.7845227934
 11
363.0529530634
 21
31.8167856315
 12
364.1513903428
 22
31.8167856315
 13
364.1513903428
 23
31.8167856315
  0
SOLID
  8
0
 62
7
  6
CONTINUOUS
 10
364.1513903428
 20
31.8167856315
 11
364.3248278428
 21
31.7522584901
 12
362.9373281736
 22
31.7845227934
 13
362.9373281736
 23
31.7845227934
  0
SOLID
  8
0
 62
7
  6
CONTINUOUS
 10
362.8217029531
 20
31.7199944276
 11
362.9373281736
 21
31.7845227934
 12
364.3248278428
 22
31.7522584901
 13
364.3248278428
 23
31.7522584901
  0
SOLID
  8
0
 62
7
  6
CONTINUOUS
 10
362.8217029531
 20
31.7199944276
 11
364.3248278428
 21
31.7522584901
 12
363.4576406736
 22
31.7199944276
 13
363.4576406736
 23
31.7199944276
  0
SOLID
  8
0
 62
7
  6
CONTINUOUS
 10
363.4576406736
 20
31.7199944276
 11
364.3248278428
 21
31.7522584901
 12
363.8045156736
 22
31.7199944276
 13
363.8045156736
 23
31.7199944276
  0
SOLID
  8
0
 62
7
  6
CONTINUOUS
 10
363.8045156736
 20
31.7199944276
 11
364.3248278428
 21
31.7522584901
 12
364.0357657839
 22
31.6877312092
 13
364.0357657839
 23
31.6877312092
  0
SOLID
  8
0
 62
7
  6
CONTINUOUS
 10
364.3248278428
 20
31.7522584901
 11
364.4404530634
 21
31.6877312092
 12
364.0357657839
 22
31.6877312092
 13
364.0357657839
 23
31.6877312092
  0
SOLID
  8
0
 62
7
  6
CONTINUOUS
 10
362.7638906736
 20
31.6554672165
 11
362.8217029531
 21
31.7199944276
 12
363.4576406736
 22
31.7199944276
 13
363.4576406736
 23
31.7199944276
  0
SOLID
  8
0
 62
7
  6
CONTINUOUS
 10
364.1513903428
 20
31.6554672165
 11
364.0357657839
 21
31.6877312092
 12
364.4404530634
 22
31.6877312092
 13
364.4404530634
 23
31.6877312092
  0
SOLID
  8
0
 62
7
  6
CONTINUOUS
 10
364.1513903428
 20
31.6554672165
 11
364.4404530634
 21
31.6877312092
 12
364.2092032839
 22
31.5909400053
 13
364.2092032839
 23
31.5909400053
  0
SOLID
  8
0
 62
7
  6
CONTINUOUS
 10
364.4404530634
 20
31.6877312092
 11
364.4982653428
 21
31.5909400053
 12
364.2092032839
 22
31.5909400053
 13
364.2092032839
 23
31.5909400053
  0
SOLID
  8
0
 62
7
  6
CONTINUOUS
 10
364.2092032839
 20
31.4941486131
 11
364.2092032839
 21
31.5909400053
 12
364.4982653428
 22
31.5909400053
 13
364.4982653428
 23
31.5909400053
  0
SOLID
  8
0
 62
7
  6
CONTINUOUS
 10
364.2092032839
 20
31.4941486131
 11
364.4982653428
 21
31.5909400053
 12
364.2092032839
 22
31.3650944328
 13
364.2092032839
 23
31.3650944328
  0
SOLID
  8
0
 62
7
  6
CONTINUOUS
 10
364.2092032839
 20
31.3650944328
 11
364.4982653428
 21
31.5909400053
 12
364.2092032839
 22
31.1715120759
 13
364.2092032839
 23
31.1715120759
  0
SOLID
  8
0
 62
7
  6
CONTINUOUS
 10
364.4982653428
 20
31.5909400053
 11
364.4982653428
 21
31.0747202524
 12
364.2092032839
 22
31.1715120759
 13
364.2092032839
 23
31.1715120759
  0
SOLID
  8
0
 62
7
  6
CONTINUOUS
 10
366.4060778428
 20
31.8167851023
 11
366.6373282839
 21
31.849049822
 12
366.8685780634
 22
31.849049822
 13
366.8685780634
 23
31.849049822
  0
SOLID
  8
0
 62
7
  6
CONTINUOUS
 10
366.8685780634
 20
31.849049822
 11
367.0420155634
 21
31.8167851023
 12
366.4060778428
 22
31.8167851023
 13
366.4060778428
 23
31.8167851023
  0
SOLID
  8
0
 62
7
  6
CONTINUOUS
 10
366.2326403428
 20
31.7522587602
 11
366.4060778428
 21
31.8167851023
 12
367.0420155634
 22
31.8167851023
 13
367.0420155634
 23
31.8167851023
  0
SOLID
  8
0
 62
7
  6
CONTINUOUS
 10
367.0420155634
 20
31.8167851023
 11
367.2154530634
 21
31.7522587602
 12
366.2326403428
 22
31.7522587602
 13
366.2326403428
 23
31.7522587602
  0
SOLID
  8
0
 62
7
  6
CONTINUOUS
 10
367.2154530634
 20
31.7522587602
 11
366.6373282839
 21
31.7199941869
 12
366.2326403428
 22
31.7522587602
 13
366.2326403428
 23
31.7522587602
  0
SOLID
  8
0
 62
7
  6
CONTINUOUS
 10
366.1170157839
 20
31.6877313857
 11
366.2326403428
 21
31.7522587602
 12
366.6373282839
 22
31.7199941869
 13
366.6373282839
 23
31.7199941869
  0
SOLID
  8
0
 62
7
  6
CONTINUOUS
 10
366.6373282839
 20
31.7199941869
 11
366.4060778428
 21
31.6877313857
 12
366.1170157839
 22
31.6877313857
 13
366.1170157839
 23
31.6877313857
  0
SOLID
  8
0
 62
7
  6
CONTINUOUS
 10
366.6373282839
 20
31.7199941869
 11
367.2154530634
 21
31.7522587602
 12
366.8685780634
 22
31.6877313857
 13
366.8685780634
 23
31.6877313857
  0
SOLID
  8
0
 62
7
  6
CONTINUOUS
 10
367.2154530634
 20
31.7522587602
 11
367.3310782839
 21
31.6877313857
 12
366.8685780634
 22
31.6877313857
 13
366.8685780634
 23
31.6877313857
  0
SOLID
  8
0
 62
7
  6
CONTINUOUS
 10
366.9842032839
 20
31.6554670967
 11
366.8685780634
 21
31.6877313857
 12
367.3310782839
 22
31.6877313857
 13
367.3310782839
 23
31.6877313857
  0
SOLID
  8
0
 62
7
  6
CONTINUOUS
 10
366.9842032839
 20
31.6554670967
 11
367.3310782839
 21
31.6877313857
 12
367.0998278428
 22
31.590940324
 13
367.0998278428
 23
31.590940324
  0
SOLID
  8
0
 62
7
  6
CONTINUOUS
 10
367.3310782839
 20
31.6877313857
 11
367.3888905634
 21
31.590940324
 12
367.0998278428
 22
31.590940324
 13
367.0998278428
 23
31.590940324
  0
SOLID
  8
0
 62
7
  6
CONTINUOUS
 10
367.1576407839
 20
31.4296218878
 11
367.0998278428
 21
31.590940324
 12
367.3888905634
 22
31.590940324
 13
367.3888905634
 23
31.590940324
  0
SOLID
  8
0
 62
7
  6
CONTINUOUS
 10
367.3888905634
 20
31.590940324
 11
367.4467028428
 21
31.4296218878
 12
367.1576407839
 22
31.4296218878
 13
367.1576407839
 23
31.4296218878
  0
SOLID
  8
0
 62
7
  6
CONTINUOUS
 10
366.4060778428
 20
31.6877313857
 11
366.2326403428
 21
31.6232043098
 12
366.1170157839
 22
31.6877313857
 13
366.1170157839
 23
31.6877313857
  0
SOLID
  8
0
 62
7
  6
CONTINUOUS
 10
366.2326403428
 20
31.6232043098
 11
366.1170157839
 21
31.5586757033
 12
366.1170157839
 22
31.6877313857
 13
366.1170157839
 23
31.6877313857
  0
SOLID
  8
0
 62
7
  6
CONTINUOUS
 10
366.1170157839
 20
31.5586757033
 11
365.8279530634
 21
30.8166118302
 12
366.1170157839
 22
31.6877313857
 13
366.1170157839
 23
31.6877313857
  0
SOLID
  8
0
 62
7
  6
CONTINUOUS
 10
366.1170157839
 20
31.6877313857
 11
365.8279530634
 21
30.8166118302
 12
366.1170157839
 22
31.849049822
 13
366.1170157839
 23
31.849049822
  0
SOLID
  8
0
 62
7
  6
CONTINUOUS
 10
365.8279530634
 20
30.8166118302
 11
365.8279530634
 21
31.849049822
 12
366.1170157839
 22
31.849049822
 13
366.1170157839
 23
31.849049822
  0
SOLID
  8
0
 62
7
  6
CONTINUOUS
 10
366.1170157839
 20
31.5586757033
 11
366.1170157839
 21
30.8166118302
 12
365.8279530634
 22
30.8166118302
 13
365.8279530634
 23
30.8166118302
  0
SOLID
  8
0
 62
7
  6
CONTINUOUS
 10
367.1576407839
 20
30.8166118302
 11
367.1576407839
 21
31.4296218878
 12
367.4467028428
 22
31.4296218878
 13
367.4467028428
 23
31.4296218878
  0
SOLID
  8
0
 62
7
  6
CONTINUOUS
 10
367.4467028428
 20
31.4296218878
 11
367.4467028428
 21
30.8166118302
 12
367.1576407839
 22
30.8166118302
 13
367.1576407839
 23
30.8166118302
  0
SOLID
  8
0
 62
7
  6
CONTINUOUS
 10
368.2560780634
 20
31.8167856056
 11
368.6029530634
 21
31.8490498552
 12
368.9498280634
 22
31.8490498552
 13
368.9498280634
 23
31.8490498552
  0
SOLID
  8
0
 62
7
  6
CONTINUOUS
 10
368.9498280634
 20
31.8490498552
 11
369.2967030634
 21
31.8167856056
 12
368.2560780634
 22
31.8167856056
 13
368.2560780634
 23
31.8167856056
  0
SOLID
  8
0
 62
7
  6
CONTINUOUS
 10
368.0248282839
 20
31.7522584901
 11
368.2560780634
 21
31.8167856056
 12
369.2967030634
 22
31.8167856056
 13
369.2967030634
 23
31.8167856056
  0
SOLID
  8
0
 62
7
  6
CONTINUOUS
 10
368.0248282839
 20
31.7522584901
 11
369.2967030634
 21
31.8167855803
 12
369.4701405634
 22
31.7845227934
 13
369.4701405634
 23
31.7845227934
  0
SOLID
  8
0
 62
7
  6
CONTINUOUS
 10
368.0248282839
 20
31.7522584901
 11
369.4701405634
 21
31.7845227934
 12
368.6029530634
 22
31.7199941235
 13
368.6029530634
 23
31.7199941235
  0
SOLID
  8
0
 62
7
  6
CONTINUOUS
 10
368.6029530634
 20
31.7199941235
 11
369.4701405634
 21
31.7845227934
 12
368.9498280634
 22
31.7199941235
 13
368.9498280634
 23
31.7199941235
  0
SOLID
  8
0
 62
7
  6
CONTINUOUS
 10
369.4701405634
 20
31.7845227934
 11
369.6435780634
 21
31.7199941235
 12
368.9498280634
 22
31.7199941235
 13
368.9498280634
 23
31.7199941235
  0
SOLID
  8
0
 62
7
  6
CONTINUOUS
 10
369.2967030634
 20
31.6877314
 11
368.9498280634
 21
31.7199941235
 12
369.6435780634
 22
31.7199941235
 13
369.6435780634
 23
31.7199941235
  0
SOLID
  8
0
 62
7
  6
CONTINUOUS
 10
367.9092030634
 20
31.6554671071
 11
368.0248282839
 21
31.7522584901
 12
368.6029530634
 22
31.7199941235
 13
368.6029530634
 23
31.7199941235
  0
SOLID
  8
0
 62
7
  6
CONTINUOUS
 10
369.2967030634
 20
31.6877314
 11
369.6435780634
 21
31.7199941235
 12
369.4123282839
 22
31.6554671071
 13
369.4123282839
 23
31.6554671071
  0
SOLID
  8
0
 62
7
  6
CONTINUOUS
 10
369.4123282839
 20
31.6554671071
 11
369.6435780634
 21
31.7199941235
 12
369.4701405634
 22
31.5909400907
 13
369.4701405634
 23
31.5909400907
  0
SOLID
  8
0
 62
7
  6
CONTINUOUS
 10
369.6435780634
 20
31.7199941235
 11
369.7592026223
 21
31.5909400907
 12
369.4701405634
 22
31.5909400907
 13
369.4701405634
 23
31.5909400907
  0
SOLID
  8
0
 62
7
  6
CONTINUOUS
 10
359.0638905634
 20
31.6877314
 11
358.5435780634
 21
31.6554670789
 12
359.2951405909
 22
31.7199941045
 13
359.2951405909
 23
31.7199941045
  0
SOLID
  8
0
 62
7
  6
CONTINUOUS
 10
358.5435780634
 20
31.6554670789
 11
358.6592030565
 21
31.7199941045
 12
359.2951405909
 22
31.7199941045
 13
359.2951405909
 23
31.7199941045
  0
SOLID
  8
0
 62
7
  6
CONTINUOUS
 10
359.0638905634
 20
31.6877314
 11
358.9482655496
 21
31.6554670789
 12
358.5435780634
 22
31.6554670789
 13
358.5435780634
 23
31.6554670789
  0
SOLID
  8
0
 62
7
  6
CONTINUOUS
 10
358.4279530651
 20
31.5264129164
 11
358.5435780634
 21
31.6554670789
 12
358.9482655496
 22
31.6554670789
 13
358.9482655496
 23
31.6554670789
  0
SOLID
  8
0
 62
7
  6
CONTINUOUS
 10
362.7638906736
 20
31.6554670789
 11
363.4576406736
 21
31.7199941869
 12
363.2263905634
 22
31.6877314
 13
363.2263905634
 23
31.6877314
  0
SOLID
  8
0
 62
7
  6
CONTINUOUS
 10
363.2263905634
 20
31.6877314
 11
363.1107656736
 21
31.6554670789
 12
362.7638906736
 22
31.6554670789
 13
362.7638906736
 23
31.6554670789
  0
SOLID
  8
0
 62
7
  6
CONTINUOUS
 10
362.7638906736
 20
31.5909399887
 11
362.7638906736
 21
31.6554670789
 12
363.1107656736
 22
31.6554670789
 13
363.1107656736
 23
31.6554670789
  0
SOLID
  8
0
 62
7
  6
CONTINUOUS
 10
363.1107656736
 20
31.6554670789
 11
363.0529530634
 21
31.5909399887
 12
362.7638906736
 22
31.5909399887
 13
362.7638906736
 23
31.5909399887
  0
SOLID
  8
0
 62
7
  6
CONTINUOUS
 10
367.9092030634
 20
31.6554670789
 11
368.6029530634
 21
31.7199941869
 12
368.3717032839
 22
31.6877314
 13
368.3717032839
 23
31.6877314
  0
SOLID
  8
0
 62
7
  6
CONTINUOUS
 10
368.3717032839
 20
31.6877314
 11
368.2560780634
 21
31.6554670789
 12
367.9092030634
 22
31.6554670789
 13
367.9092030634
 23
31.6554670789
  0
SOLID
  8
0
 62
7
  6
CONTINUOUS
 10
367.9092030634
 20
31.5909399887
 11
367.9092030634
 21
31.6554670789
 12
368.2560780634
 22
31.6554670789
 13
368.2560780634
 23
31.6554670789
  0
SOLID
  8
0
 62
7
  6
CONTINUOUS
 10
368.2560780634
 20
31.6554670789
 11
368.1982657839
 21
31.5909399887
 12
367.9092030634
 22
31.5909399887
 13
367.9092030634
 23
31.5909399887
  0
SOLID
  8
0
 62
7
  6
CONTINUOUS
 10
368.0248282839
 20
31.4618858262
 11
367.9092030634
 21
31.5909399887
 12
368.1982657839
 22
31.5909399887
 13
368.1982657839
 23
31.5909399887
  0
SOLID
  8
0
 62
7
  6
CONTINUOUS
 10
358.4279530651
 20
31.5264129164
 11
358.9482655496
 21
31.6554670967
 12
358.7748280496
 22
31.5586757033
 13
358.7748280496
 23
31.5586757033
  0
SOLID
  8
0
 62
7
  6
CONTINUOUS
 10
358.7748280496
 20
31.5586757033
 11
358.7170155634
 21
31.4941486131
 12
358.4279530651
 22
31.5264129164
 13
358.4279530651
 23
31.5264129164
  0
SOLID
  8
0
 62
7
  6
CONTINUOUS
 10
358.3701405634
 20
31.3328301295
 11
358.4279530651
 21
31.5264129164
 12
358.7170155634
 22
31.4941486131
 13
358.7170155634
 23
31.4941486131
  0
SOLID
  8
0
 62
7
  6
CONTINUOUS
 10
363.2263905634
 20
31.4618858262
 11
363.5732655634
 21
31.4941485791
 12
364.2092032839
 22
31.4941485791
 13
364.2092032839
 23
31.4941485791
  0
SOLID
  8
0
 62
7
  6
CONTINUOUS
 10
363.2263905634
 20
31.4618858262
 11
364.2092032839
 21
31.4941485791
 12
362.9951404531
 22
31.397357926
 13
362.9951404531
 23
31.397357926
  0
SOLID
  8
0
 62
7
  6
CONTINUOUS
 10
362.9951404531
 20
31.397357926
 11
364.2092032839
 21
31.4941485791
 12
363.5732655634
 22
31.3650943988
 13
363.5732655634
 23
31.3650943988
  0
SOLID
  8
0
 62
7
  6
CONTINUOUS
 10
364.2092032839
 20
31.4941485791
 11
364.2092032839
 21
31.3650943988
 12
363.5732655634
 22
31.3650943988
 13
363.5732655634
 23
31.3650943988
  0
SOLID
  8
0
 62
7
  6
CONTINUOUS
 10
368.0248282839
 20
31.4618859165
 11
368.1982657839
 21
31.5909400065
 12
368.2560780634
 22
31.5264129164
 13
368.2560780634
 23
31.5264129164
  0
SOLID
  8
0
 62
7
  6
CONTINUOUS
 10
368.2560780634
 20
31.5264129164
 11
368.4295155634
 21
31.4618859165
 12
368.0248282839
 22
31.4618859165
 13
368.0248282839
 23
31.4618859165
  0
SOLID
  8
0
 62
7
  6
CONTINUOUS
 10
368.2560780634
 20
31.3650944328
 11
368.0248282839
 21
31.4618859165
 12
368.4295155634
 22
31.4618859165
 13
368.4295155634
 23
31.4618859165
  0
SOLID
  8
0
 62
7
  6
CONTINUOUS
 10
368.4295155634
 20
31.4618859165
 11
369.4123282839
 21
31.3005673426
 12
368.2560780634
 22
31.3650944328
 13
368.2560780634
 23
31.3650944328
  0
SOLID
  8
0
 62
7
  6
CONTINUOUS
 10
369.2388907839
 20
31.2037760287
 11
368.2560780634
 21
31.3650944328
 12
369.4123282839
 22
31.3005673426
 13
369.4123282839
 23
31.3005673426
  0
SOLID
  8
0
 62
7
  6
CONTINUOUS
 10
369.4123282839
 20
31.3005673426
 11
369.6435780634
 21
31.2037760287
 12
369.2388907839
 22
31.2037760287
 13
369.2388907839
 23
31.2037760287
  0
SOLID
  8
0
 62
7
  6
CONTINUOUS
 10
369.4123282839
 20
31.139248859
 11
369.2388907839
 21
31.2037760287
 12
369.6435780634
 22
31.2037760287
 13
369.6435780634
 23
31.2037760287
  0
SOLID
  8
0
 62
7
  6
CONTINUOUS
 10
369.4123282839
 20
31.139248859
 11
369.6435780634
 21
31.2037760287
 12
369.4701405634
 22
31.0747203105
 13
369.4701405634
 23
31.0747203105
  0
SOLID
  8
0
 62
7
  6
CONTINUOUS
 10
369.6435780634
 20
31.2037760287
 11
369.7592026223
 21
31.0747203105
 12
369.4701405634
 22
31.0747203105
 13
369.4701405634
 23
31.0747203105
  0
SOLID
  8
0
 62
7
  6
CONTINUOUS
 10
369.4123282839
 20
31.0101932257
 11
369.4701405634
 21
31.0747203105
 12
369.7592026223
 22
31.0747203105
 13
369.7592026223
 23
31.0747203105
  0
SOLID
  8
0
 62
7
  6
CONTINUOUS
 10
369.7592026223
 20
31.0747203105
 11
369.7592026223
 21
31.0101932257
 12
369.4123282839
 22
31.0101932257
 13
369.4123282839
 23
31.0101932257
  0
SOLID
  8
0
 62
7
  6
CONTINUOUS
 10
369.2967030634
 20
30.9779303754
 11
369.4123282839
 21
31.0101932257
 12
369.7592026223
 22
31.0101932257
 13
369.7592026223
 23
31.0101932257
  0
SOLID
  8
0
 62
7
  6
CONTINUOUS
 10
369.2967030634
 20
30.9779303754
 11
369.7592026223
 21
31.0101932257
 12
369.0654532839
 22
30.9456661409
 13
369.0654532839
 23
30.9456661409
  0
SOLID
  8
0
 62
7
  6
CONTINUOUS
 10
369.7592026223
 20
31.0101932257
 11
369.6435780634
 21
30.9134032852
 12
369.0654532839
 22
30.9456661409
 13
369.0654532839
 23
30.9456661409
  0
SOLID
  8
0
 62
7
  6
CONTINUOUS
 10
369.6435780634
 20
30.9134032852
 11
368.1982657839
 21
30.8811389819
 12
369.0654532839
 22
30.9456661409
 13
369.0654532839
 23
30.9456661409
  0
SOLID
  8
0
 62
7
  6
CONTINUOUS
 10
369.0654532839
 20
30.9456661409
 11
368.1982657839
 21
30.8811389819
 12
368.7185782839
 22
30.9456661409
 13
368.7185782839
 23
30.9456661409
  0
SOLID
  8
0
 62
7
  6
CONTINUOUS
 10
368.1982657839
 20
30.8811389819
 11
368.0248282839
 21
30.9456661409
 12
368.7185782839
 22
30.9456661409
 13
368.7185782839
 23
30.9456661409
  0
SOLID
  8
0
 62
7
  6
CONTINUOUS
 10
368.1982657839
 20
30.8811389819
 11
369.6435780634
 21
30.9134032852
 12
368.3717032839
 22
30.8488743522
 13
368.3717032839
 23
30.8488743522
  0
SOLID
  8
0
 62
7
  6
CONTINUOUS
 10
369.6435780634
 20
30.9134032852
 11
369.4123282839
 21
30.8488743522
 12
368.3717032839
 22
30.8488743522
 13
368.3717032839
 23
30.8488743522
  0
SOLID
  8
0
 62
7
  6
CONTINUOUS
 10
368.7185782839
 20
30.8166119713
 11
368.3717032839
 21
30.8488743522
 12
369.4123282839
 22
30.8488743522
 13
369.4123282839
 23
30.8488743522
  0
SOLID
  8
0
 62
7
  6
CONTINUOUS
 10
369.4123282839
 20
30.8488743522
 11
369.0654532839
 21
30.8166119713
 12
368.7185782839
 22
30.8166119713
 13
368.7185782839
 23
30.8166119713
  0
SOLID
  8
0
 62
7
  6
CONTINUOUS
 10
358.3701405634
 20
31.3328301295
 11
358.7170155634
 21
31.4941486131
 12
358.6592030565
 22
31.3650944328
 13
358.6592030565
 23
31.3650944328
  0
SOLID
  8
0
 62
7
  6
CONTINUOUS
 10
358.6592030565
 20
31.3650944328
 11
358.6592030565
 21
31.2683031351
 12
358.3701405634
 22
31.3328301295
 13
358.3701405634
 23
31.3328301295
  0
SOLID
  8
0
 62
7
  6
CONTINUOUS
 10
358.4279530651
 20
31.139248859
 11
358.3701405634
 21
31.3328301295
 12
358.6592030565
 22
31.2683031351
 13
358.6592030565
 23
31.2683031351
  0
SOLID
  8
0
 62
7
  6
CONTINUOUS
 10
358.6592030565
 20
31.2683031351
 11
358.7748280496
 21
31.1069845557
 12
358.4279530651
 22
31.139248859
 13
358.4279530651
 23
31.139248859
  0
SOLID
  8
0
 62
7
  6
CONTINUOUS
 10
358.5435780634
 20
31.0101931569
 11
358.4279530651
 21
31.139248859
 12
358.7748280496
 22
31.1069845557
 13
358.7748280496
 23
31.1069845557
  0
SOLID
  8
0
 62
7
  6
CONTINUOUS
 10
358.7748280496
 20
31.1069845557
 11
358.9482655496
 21
31.0101931569
 12
358.5435780634
 22
31.0101931569
 13
358.5435780634
 23
31.0101931569
  0
SOLID
  8
0
 62
7
  6
CONTINUOUS
 10
358.6592030565
 20
30.9456659241
 11
358.5435780634
 21
31.0101931569
 12
358.9482655496
 22
31.0101931569
 13
358.9482655496
 23
31.0101931569
  0
SOLID
  8
0
 62
7
  6
CONTINUOUS
 10
358.9482655496
 20
31.0101931569
 11
359.2951405909
 21
30.9456659241
 12
358.6592030565
 22
30.9456659241
 13
358.6592030565
 23
30.9456659241
  0
SOLID
  8
0
 62
7
  6
CONTINUOUS
 10
358.8326405772
 20
30.8811389819
 11
358.6592030565
 21
30.9456659241
 12
359.2951405909
 22
30.9456659241
 13
359.2951405909
 23
30.9456659241
  0
SOLID
  8
0
 62
7
  6
CONTINUOUS
 10
362.8795155634
 20
31.3328301325
 11
362.9951404531
 21
31.397357926
 12
363.5732655634
 22
31.3650944328
 13
363.5732655634
 23
31.3650944328
  0
SOLID
  8
0
 62
7
  6
CONTINUOUS
 10
363.5732655634
 20
31.3650944328
 11
363.3420154531
 21
31.3328301325
 12
362.8795155634
 22
31.3328301325
 13
362.8795155634
 23
31.3328301325
  0
SOLID
  8
0
 62
7
  6
CONTINUOUS
 10
362.7638906736
 20
31.2037759492
 11
362.8795155634
 21
31.3328301325
 12
363.3420154531
 22
31.3328301325
 13
363.3420154531
 23
31.3328301325
  0
SOLID
  8
0
 62
7
  6
CONTINUOUS
 10
363.1107656736
 20
31.2360394487
 11
362.7638906736
 21
31.2037759492
 12
363.2263905634
 22
31.3005673426
 13
363.2263905634
 23
31.3005673426
  0
SOLID
  8
0
 62
7
  6
CONTINUOUS
 10
362.7638906736
 20
31.2037759492
 11
363.3420154531
 21
31.3328301295
 12
363.2263905634
 22
31.3005673426
 13
363.2263905634
 23
31.3005673426
  0
SOLID
  8
0
 62
7
  6
CONTINUOUS
 10
363.1107656736
 20
31.2360394487
 11
363.0529530634
 21
31.139248859
 12
362.7638906736
 22
31.2037759492
 13
362.7638906736
 23
31.2037759492
  0
SOLID
  8
0
 62
7
  6
CONTINUOUS
 10
362.7638906736
 20
31.1069845557
 11
362.7638906736
 21
31.2037759492
 12
363.0529530634
 22
31.139248859
 13
363.0529530634
 23
31.139248859
  0
SOLID
  8
0
 62
7
  6
CONTINUOUS
 10
363.0529530634
 20
31.139248859
 11
363.0529530634
 21
31.0747202524
 12
362.7638906736
 22
31.1069845557
 13
362.7638906736
 23
31.1069845557
  0
SOLID
  8
0
 62
7
  6
CONTINUOUS
 10
362.8217029531
 20
30.9779303754
 11
362.7638906736
 21
31.1069845557
 12
363.0529530634
 22
31.0747202524
 13
363.0529530634
 23
31.0747202524
  0
SOLID
  8
0
 62
7
  6
CONTINUOUS
 10
364.2092032839
 20
31.1715120759
 11
364.4982653428
 21
31.0747202524
 12
364.1513903428
 22
31.1069845557
 13
364.1513903428
 23
31.1069845557
  0
SOLID
  8
0
 62
7
  6
CONTINUOUS
 10
363.9779528428
 20
31.0101931623
 11
364.1513903428
 21
31.1069845557
 12
364.4982653428
 22
31.0747202524
 13
364.4982653428
 23
31.0747202524
  0
SOLID
  8
0
 62
7
  6
CONTINUOUS
 10
363.9779528428
 20
31.0101931623
 11
364.4982653428
 21
31.0747202524
 12
364.2092032839
 22
30.9779303754
 13
364.2092032839
 23
30.9779303754
  0
SOLID
  8
0
 62
7
  6
CONTINUOUS
 10
364.4982653428
 20
31.0747202524
 11
364.5560782839
 21
30.9134032852
 12
364.2092032839
 22
30.9779303754
 13
364.2092032839
 23
30.9779303754
  0
SOLID
  8
0
 62
7
  6
CONTINUOUS
 10
364.2670155634
 20
30.8811389819
 11
364.2092032839
 21
30.9779303754
 12
364.5560782839
 22
30.9134032852
 13
364.5560782839
 23
30.9134032852
  0
SOLID
  8
0
 62
7
  6
CONTINUOUS
 10
364.2670155634
 20
30.8811389819
 11
364.5560782839
 21
30.9134032852
 12
364.3248278428
 22
30.816611867
 13
364.3248278428
 23
30.816611867
  0
SOLID
  8
0
 62
7
  6
CONTINUOUS
 10
364.5560782839
 20
30.9134032852
 11
364.6138905634
 21
30.816611867
 12
364.3248278428
 22
30.816611867
 13
364.3248278428
 23
30.816611867
  0
SOLID
  8
0
 62
7
  6
CONTINUOUS
 10
359.8732656185
 20
31.0424573076
 11
359.9310780634
 21
31.1392488159
 12
360.2201406185
 22
31.1392488159
 13
360.2201406185
 23
31.1392488159
  0
SOLID
  8
0
 62
7
  6
CONTINUOUS
 10
360.2201406185
 20
31.1392488159
 11
360.1623280082
 21
31.0101931623
 12
359.8732656185
 22
31.0424573076
 13
359.8732656185
 23
31.0424573076
  0
SOLID
  8
0
 62
7
  6
CONTINUOUS
 10
359.6998280358
 20
30.9779303754
 11
359.8732656185
 21
31.0424573076
 12
360.1623280082
 22
31.0101931623
 13
360.1623280082
 23
31.0101931623
  0
SOLID
  8
0
 62
7
  6
CONTINUOUS
 10
359.6998280358
 20
30.9779303754
 11
360.1623280082
 21
31.0101931623
 12
359.2951405909
 22
30.9456660721
 13
359.2951405909
 23
30.9456660721
  0
SOLID
  8
0
 62
7
  6
CONTINUOUS
 10
360.1623280082
 20
31.0101931623
 11
359.9888905082
 21
30.9134032852
 12
359.2951405909
 22
30.9456660721
 13
359.2951405909
 23
30.9456660721
  0
SOLID
  8
0
 62
7
  6
CONTINUOUS
 10
358.8326405772
 20
30.8811389819
 11
359.2951405909
 21
30.9456660721
 12
359.9888905082
 22
30.9134032852
 13
359.9888905082
 23
30.9134032852
  0
SOLID
  8
0
 62
7
  6
CONTINUOUS
 10
358.8326405772
 20
30.8811389819
 11
359.9888905082
 21
30.9134032852
 12
359.0060780772
 22
30.8488745775
 13
359.0060780772
 23
30.8488745775
  0
SOLID
  8
0
 62
7
  6
CONTINUOUS
 10
359.9888905082
 20
30.9134032852
 11
359.7576405634
 21
30.8488745775
 12
359.0060780772
 22
30.8488745775
 13
359.0060780772
 23
30.8488745775
  0
SOLID
  8
0
 62
7
  6
CONTINUOUS
 10
359.3529530358
 20
30.8166118918
 11
359.0060780772
 21
30.8488745775
 12
359.7576405634
 22
30.8488745775
 13
359.7576405634
 23
30.8488745775
  0
SOLID
  8
0
 62
7
  6
CONTINUOUS
 10
362.8217029531
 20
30.9779303754
 11
363.0529530634
 21
31.0747202524
 12
363.1107656736
 22
31.0101931623
 13
363.1107656736
 23
31.0101931623
  0
SOLID
  8
0
 62
7
  6
CONTINUOUS
 10
363.1107656736
 20
31.0101931623
 11
363.3420154531
 21
30.9456660721
 12
362.8217029531
 22
30.9779303754
 13
362.8217029531
 23
30.9779303754
  0
SOLID
  8
0
 62
7
  6
CONTINUOUS
 10
362.9951404531
 20
30.8811389819
 11
362.8217029531
 21
30.9779303754
 12
363.3420154531
 22
30.9456660721
 13
363.3420154531
 23
30.9456660721
  0
SOLID
  8
0
 62
7
  6
CONTINUOUS
 10
363.6888904531
 20
30.9456661188
 11
363.9779528428
 21
31.0101931623
 12
364.2092032839
 22
30.9779303754
 13
364.2092032839
 23
30.9779303754
  0
SOLID
  8
0
 62
7
  6
CONTINUOUS
 10
364.2092032839
 20
30.9779303754
 11
364.1513903428
 21
30.9134032852
 12
363.6888904531
 22
30.9456661188
 13
363.6888904531
 23
30.9456661188
  0
SOLID
  8
0
 62
7
  6
CONTINUOUS
 10
364.1513903428
 20
30.9134032852
 11
362.9951404531
 21
30.8811389819
 12
363.6888904531
 22
30.9456661188
 13
363.6888904531
 23
30.9456661188
  0
SOLID
  8
0
 62
7
  6
CONTINUOUS
 10
362.9951404531
 20
30.8811389819
 11
363.3420154531
 21
30.9456661188
 12
363.6888904531
 22
30.9456661188
 13
363.6888904531
 23
30.9456661188
  0
SOLID
  8
0
 62
7
  6
CONTINUOUS
 10
362.9951404531
 20
30.8811389819
 11
364.1513903428
 21
30.9134032852
 12
363.1107656736
 22
30.8488747093
 13
363.1107656736
 23
30.8488747093
  0
SOLID
  8
0
 62
7
  6
CONTINUOUS
 10
364.1513903428
 20
30.9134032852
 11
363.9779528428
 21
30.8488747093
 12
363.1107656736
 22
30.8488747093
 13
363.1107656736
 23
30.8488747093
  0
SOLID
  8
0
 62
7
  6
CONTINUOUS
 10
363.3420154531
 20
30.816611874
 11
363.1107656736
 21
30.8488747093
 12
363.9779528428
 22
30.8488747093
 13
363.9779528428
 23
30.8488747093
  0
SOLID
  8
0
 62
7
  6
CONTINUOUS
 10
363.9779528428
 20
30.8488747093
 11
363.6888904531
 21
30.816611874
 12
363.3420154531
 22
30.816611874
 13
363.3420154531
 23
30.816611874
  0
SOLID
  8
0
 62
7
  6
CONTINUOUS
 10
368.3717032839
 20
30.9779303754
 11
368.0248282839
 21
30.9456661188
 12
368.2560780634
 22
31.0101931623
 13
368.2560780634
 23
31.0101931623
  0
SOLID
  8
0
 62
7
  6
CONTINUOUS
 10
368.2560780634
 20
31.0101931623
 11
368.0248282839
 21
30.9456661188
 12
368.1982657839
 22
31.0747202992
 13
368.1982657839
 23
31.0747202992
  0
SOLID
  8
0
 62
7
  6
CONTINUOUS
 10
368.0248282839
 20
30.9456661188
 11
367.9092030634
 21
31.0747202992
 12
368.1982657839
 22
31.0747202992
 13
368.1982657839
 23
31.0747202992
  0
SOLID
  8
0
 62
7
  6
CONTINUOUS
 10
368.3717032839
 20
30.9779303754
 11
368.7185782839
 21
30.9456661188
 12
368.0248282839
 22
30.9456661188
 13
368.0248282839
 23
30.9456661188
  0
SOLID
  8
0
 62
7
  6
CONTINUOUS
 10
365.0763907839
 20
30.8166118918
 11
365.0763907839
 21
31.8490498836
 12
365.3654528428
 22
30.8166118918
 13
365.3654528428
 23
31.8490498836
  0
ENDBLK
  8
0
  6
BYBLOCK
 62
0
  0
BLOCK
  8
0
 62
2
  6
CONTINUOUS
  2
SYMBOL_0_BL0
 70
64
 10
241.0459637928
 20
19.6790146053
  0
TEXT
  8
0
 62
7
  6
CONTINUOUS
 10
227.3106676351
 20
19.0524287129
  7
TEXTSTYLE_3
 40
2.7338706658
  1
Ammeraal Beltech
 41
1.0
 51
15.0
 72
0
  0
TEXT
  8
0
 62
7
  6
CONTINUOUS
 10
238.1114684608
 20
16.7788920401
  7
TEXTSTYLE_4
 40
1.0935482663
  1
Innovation & Service in Belting
 41
1.0
 72
0
  0
LINE
  8
0
 62
7
  6
CONTINUOUS
 10
221.2861269837
 20
19.8190220215
 11
222.0642789771
 21
23.4799393191
  0
LINE
  8
0
 62
7
  6
CONTINUOUS
 10
232.1594472669
 20
27.1433332308
 11
222.5520967201
 21
24.0217158095
  0
LINE
  8
0
 62
7
  6
CONTINUOUS
 10
221.511410316
 20
19.1256712184
 11
229.0184855772
 21
12.3662702925
  0
LINE
  8
0
 62
7
  6
CONTINUOUS
 10
221.7739447268
 20
20.3607985118
 11
232.5822140919
 21
23.8726181108
  0
LINE
  8
0
 62
7
  6
CONTINUOUS
 10
232.5780089548
 20
13.522829547
 11
224.132549286
 21
21.1271555887
  0
LINE
  8
0
 62
7
  6
CONTINUOUS
 10
233.0978316746
 20
26.298408115
 11
232.1212721373
 21
21.7040567125
  0
LINE
  8
0
 62
7
  6
CONTINUOUS
 10
231.4214701896
 20
18.4117473987
 11
230.7350219782
 21
15.1822624744
  0
LINE
  8
0
 62
7
  6
CONTINUOUS
 10
233.7789277731
 20
13.9130317247
 11
234.7351593087
 21
18.4117473987
  0
LINE
  8
0
 62
7
  6
CONTINUOUS
 10
235.4349612564
 20
21.7040567125
 11
235.8792030588
 21
23.7940500719
  0
LINE
  8
0
 62
7
  6
CONTINUOUS
 10
229.7315866525
 20
12.2146959798
 11
233.2911100301
 21
13.3712552343
  0
LINE
  8
0
 62
7
  6
CONTINUOUS
 10
232.8725483422
 20
26.9917589181
 11
235.6539197265
 21
24.487400875
  0
ARC
  8
0
 62
7
  6
CONTINUOUS
 10
222.7773800524
 20
23.3283650064
 40
0.7290321776
 50
108.0
 51
168.0
  0
ARC
  8
0
 62
7
  6
CONTINUOUS
 10
232.3847305992
 20
26.4499824277
 40
0.7290321776
 50
348.0
 51
108.0
  0
ARC
  8
0
 62
7
  6
CONTINUOUS
 10
235.1661019835
 20
23.9456243846
 40
0.7290321776
 50
348.0
 51
48.0
  0
ARC
  8
0
 62
7
  6
CONTINUOUS
 10
229.5063033202
 20
12.9080467828
 40
0.7290321776
 50
228.0
 51
288.0
  0
ARC
  8
0
 62
7
  6
CONTINUOUS
 10
221.9992280591
 20
19.6674477088
 40
0.7290321776
 50
108.0
 51
228.0
  0
ARC
  8
0
 62
7
  6
CONTINUOUS
 10
233.0658266978
 20
14.0646060374
 40
0.7290321776
 50
228.0
 51
348.0
  0
ENDBLK
  8
0
  6
BYBLOCK
 62
0
  0
ENDSEC
  0
SECTION
  2
ENTITIES
  0
TEXT
  8
0
 62
5
  6
CONTINUOUS
 10
304.937007874
 20
25.636
  7
TEXTSTYLE_2
 40
2.8
  1
Scale :
 41
0.6
 51
0.000019
 72
0
  0
TEXT
  8
0
 62
5
  6
CONTINUOUS
 10
324.937007874
 20
25.636
  7
TEXTSTYLE_2
 40
2.8
  1
Chain type:
 41
0.6
 51
0.000019
 72
0
  0
INSERT
  8
0
 62
2
  6
CONTINUOUS
  2
SYMBOL_0_BL0
 10
241.0459637928
 20
19.6790146053
  0
INSERT
  8
0
 62
2
  6
CONTINUOUS
  2
SYMBOL_5_BL1
 10
382.3920721743
 20
35.81661148
  0
LINE
  8
0
 62
2
  6
CONTINUOUS
 10
218.937007874
 20
30.0
 11
408.937007874
 21
30.0
  0
LINE
  8
0
 62
2
  6
CONTINUOUS
 10
218.937007874
 20
30.0
 11
218.937007874
 21
10.0
  0
LINE
  8
0
 62
2
  6
CONTINUOUS
 10
218.937007874
 20
10.0
 11
408.937007874
 21
10.0
  0
LINE
  8
0
 62
2
  6
CONTINUOUS
 10
303.937007874
 20
30.0
 11
303.937007874
 21
10.0
  0
LINE
  8
0
 62
2
  6
CONTINUOUS
 10
323.937007874
 20
30.0
 11
323.937007874
 21
10.0
  0
LINE
  8
0
 62
2
  6
CONTINUOUS
 10
408.937007874
 20
30.0
 11
408.937007874
 21
10.0
  0
TEXT
  8
0
 62
5
  6
CONTINUOUS
 10
221.937007874
 20
23.303
  7
TEXTSTYLE_5
 40
1.52
  1
                                                                     Ammeraal Beltech Modular A/S
 41
1.0
 72
0
  0
TEXT
  8
0
 62
5
  6
CONTINUOUS
 10
221.937007874
 20
20.595
  7
TEXTSTYLE_5
 40
1.5
  1
                                                                      Hjulmagervej 21, 7100 Vejle,  DK
 41
1.0
 72
0
  0
TEXT
  8
0
 62
5
  6
CONTINUOUS
 10
221.937007874
 20
17.881
  7
TEXTSTYLE_5
 40
1.495
  1
                                                                      tel: 
 41
1.0
 72
0
  0
TEXT
  8
0
 62
5
  6
CONTINUOUS
 10
266.9239544389
 20
17.881
  7
TEXTSTYLE_5
 40
1.51
  1
+45 75723100     fax: +45 75723348
 41
1.0
 72
0
  0
TEXT
  8
0
 62
5
  6
CONTINUOUS
 10
221.937007874
 20
15.177
  7
TEXTSTYLE_5
 40
1.5
  1
                                                                      admin@unichains.dk  www.unichains.com
 41
1.0
 72
0
  0
TEXT
  8
0
 62
5
  6
CONTINUOUS
 10
308.687007874
 20
13.75
  7
TEXTSTYLE_6
 40
5.0
  1
1:1
 41
0.7
 72
1
 11
313.937007874
 21
13.75
  0
TEXT
  8
0
 62
5
  6
CONTINUOUS
 10
326.937007874
 20
13.75
  7
TEXTSTYLE_7
 40
7.5
  1
K600 38% Open
 41
0.7128205128
 72
0
  0
LINE
  8
0
 62
7
  6
CONTINUOUS
 10
0.0
 20
0.0
 11
0.0
 21
297.0
  0
LINE
  8
0
 62
7
  6
CONTINUOUS
 10
8.937007874
 20
10.0
 11
8.937007874
 21
287.0
  0
LINE
  8
0
 62
7
  6
CONTINUOUS
 10
0.0
 20
0.0
 11
420.0
 21
0.0
  0
LINE
  8
0
 62
7
  6
CONTINUOUS
 10
408.937007874
 20
10.0
 11
8.937007874
 21
10.0
  0
LINE
  8
0
 62
7
  6
CONTINUOUS
 10
218.937007874
 20
30.0
 11
408.937007874
 21
30.0
  0
LINE
  8
0
 62
7
  6
CONTINUOUS
 10
210.0
 20
297.0
 11
210.0
 21
292.0
  0
LINE
  8
0
 62
7
  6
CONTINUOUS
 10
210.0
 20
0.0
 11
210.0
 21
5.0
  0
LINE
  8
0
 62
7
  6
CONTINUOUS
 10
8.937007874
 20
287.0
 11
408.937007874
 21
287.0
  0
LINE
  8
0
 62
7
  6
CONTINUOUS
 10
0.0
 20
297.0
 11
420.0
 21
297.0
  0
LINE
  8
0
 62
7
  6
CONTINUOUS
 10
408.937007874
 20
287.0
 11
408.937007874
 21
10.0
  0
LINE
  8
0
 62
7
  6
CONTINUOUS
 10
420.0
 20
0.0
 11
420.0
 21
297.0
  0
LINE
  8
0
 62
7
  6
CONTINUOUS
 10
80.4132241708
 20
223.3700760848
 11
80.4132241708
 21
238.1700760848
  0
POLYLINE
  8
0
 62
7
  6
CONTINUOUS
 66
1
 70
0
  0
VERTEX
  8
0
 62
7
  6
CONTINUOUS
 10
80.4132241708
 20
238.1700760848
  0
VERTEX
  8
0
 62
7
  6
CONTINUOUS
 10
80.4149306573
 20
238.1935346378
  0
VERTEX
  8
0
 62
7
  6
CONTINUOUS
 10
80.4200177432
 20
238.2168117563
  0
VERTEX
  8
0
 62
7
  6
CONTINUOUS
 10
80.4283965885
 20
238.2394911348
  0
VERTEX
  8
0
 62
7
  6
CONTINUOUS
 10
80.4399259334
 20
238.2611679791
  0
VERTEX
  8
0
 62
7
  6
CONTINUOUS
 10
80.4544138469
 20
238.2814543121
  0
VERTEX
  8
0
 62
7
  6
CONTINUOUS
 10
80.4716198678
 20
238.2999844664
  0
VERTEX
  8
0
 62
7
  6
CONTINUOUS
 10
80.49125776
 20
238.3164207211
  0
VERTEX
  8
0
 62
7
  6
CONTINUOUS
 10
80.5129990505
 20
238.3304589727
  0
VERTEX
  8
0
 62
7
  6
CONTINUOUS
 10
80.5364774524
 20
238.3418342896
  0
VERTEX
  8
0
 62
7
  6
CONTINUOUS
 10
80.5612942204
 20
238.3503261781
  0
VERTEX
  8
0
 62
7
  6
CONTINUOUS
 10
80.5870244359
 20
238.3557633652
  0
VERTEX
  8
0
 62
7
  6
CONTINUOUS
 10
80.6132241708
 20
238.358027892
  0
SEQEND
  0
LINE
  8
SURFACE
 62
7
  6
CONTINUOUS
 10
89.9496818889
 20
233.1736562045
 11
90.455463535
 21
226.8459377365
  0
LINE
  8
0
 62
7
  6
CONTINUOUS
 10
90.652184988
 20
224.3848006427
 11
89.9496818903
 21
233.1736561863
  0
LINE
  8
0
 62
7
  6
CONTINUOUS
 10
86.1632241708
 20
222.8700760848
 11
86.1632241708
 21
224.3775807782
  0
LINE
  8
0
 62
7
  6
CONTINUOUS
 10
87.0131261708
 20
227.3811647399
 11
87.0131261708
 21
238.1700760848
  0
LINE
  8
0
 62
7
  6
CONTINUOUS
 10
88.6131261708
 20
238.1171923092
 11
88.6131261708
 21
238.1700760848
  0
POLYLINE
  8
0
 62
7
  6
CONTINUOUS
 66
1
 70
0
  0
VERTEX
  8
0
 62
7
  6
CONTINUOUS
 10
86.1632241191
 20
224.3775939661
  0
VERTEX
  8
0
 62
7
  6
CONTINUOUS
 10
86.1649122814
 20
224.40976474
  0
VERTEX
  8
0
 62
7
  6
CONTINUOUS
 10
86.1717171423
 20
224.4529677908
  0
VERTEX
  8
0
 62
7
  6
CONTINUOUS
 10
86.1846991084
 20
224.5020435517
  0
VERTEX
  8
0
 62
7
  6
CONTINUOUS
 10
86.2045733243
 20
224.5557363469
  0
VERTEX
  8
0
 62
7
  6
CONTINUOUS
 10
86.2318713135
 20
224.6127753573
  0
VERTEX
  8
0
 62
7
  6
CONTINUOUS
 10
86.2626692509
 20
224.6651192633
  0
SEQEND
  0
LINE
  8
0
 62
7
  6
CONTINUOUS
 10
87.5572697705
 20
234.1808147964
 11
86.7742643875
 21
224.384813576
  0
LINE
  8
SURFACE
 62
7
  6
CONTINUOUS
 10
87.0140511946
 20
227.384731464
 11
87.1616345378
 21
229.2311129082
  0
POLYLINE
  8
SURFACE
 62
7
  6
CONTINUOUS
 66
1
 70
0
  0
VERTEX
  8
SURFACE
 62
7
  6
CONTINUOUS
 10
87.4767664625
 20
233.1736563261
  0
VERTEX
  8
SURFACE
 62
7
  6
CONTINUOUS
 10
87.4801736596
 20
233.2098895522
  0
VERTEX
  8
SURFACE
 62
7
  6
CONTINUOUS
 10
87.4845946695
 20
233.2460198683
  0
VERTEX
  8
SURFACE
 62
7
  6
CONTINUOUS
 10
87.490025484
 20
233.2820122072
  0
SEQEND
  0
POLYLINE
  8
SURFACE
 62
7
  6
CONTINUOUS
 66
1
 70
0
  0
VERTEX
  8
SURFACE
 62
7
  6
CONTINUOUS
 10
87.490025484
 20
233.2820122072
  0
VERTEX
  8
SURFACE
 62
7
  6
CONTINUOUS
 10
87.4964606366
 20
233.3178321426
  0
VERTEX
  8
SURFACE
 62
7
  6
CONTINUOUS
 10
87.5038941459
 20
233.3534498512
  0
VERTEX
  8
SURFACE
 62
7
  6
CONTINUOUS
 10
87.5123202169
 20
233.3888403662
  0
VERTEX
  8
SURFACE
 62
7
  6
CONTINUOUS
 10
87.5217331537
 20
233.4239808182
  0
VERTEX
  8
SURFACE
 62
7
  6
CONTINUOUS
 10
87.5273766543
 20
233.4429128579
  0
SEQEND
  0
POLYLINE
  8
0
 62
7
  6
CONTINUOUS
 66
1
 70
0
  0
VERTEX
  8
0
 62
7
  6
CONTINUOUS
 10
88.6054264009
 20
238.0628773443
  0
VERTEX
  8
0
 62
7
  6
CONTINUOUS
 10
88.6108661193
 20
238.0878561881
  0
VERTEX
  8
0
 62
7
  6
CONTINUOUS
 10
88.613075068
 20
238.1133248906
  0
VERTEX
  8
0
 62
7
  6
CONTINUOUS
 10
88.6131259631
 20
238.1178365753
  0
SEQEND
  0
LINE
  8
0
 62
7
  6
CONTINUOUS
 10
88.6054272948
 20
238.0628804719
 11
87.6632265236
 21
234.7661806767
  0
POLYLINE
  8
SURFACE
 62
7
  6
CONTINUOUS
 66
1
 70
0
  0
VERTEX
  8
SURFACE
 62
7
  6
CONTINUOUS
 10
87.528679635
 20
233.447283918
  0
VERTEX
  8
SURFACE
 62
7
  6
CONTINUOUS
 10
87.5321249576
 20
233.4588418125
  0
VERTEX
  8
SURFACE
 62
7
  6
CONTINUOUS
 10
87.5434663323
 20
233.4933352331
  0
VERTEX
  8
SURFACE
 62
7
  6
CONTINUOUS
 10
87.5557660831
 20
233.5274970287
  0
VERTEX
  8
SURFACE
 62
7
  6
CONTINUOUS
 10
87.5689888429
 20
233.5612377355
  0
SEQEND
  0
LINE
  8
0
 62
7
  6
CONTINUOUS
 10
88.1289404325
 20
236.3992697967
 11
88.1384429528
 21
236.4289417595
  0
LINE
  8
0
 62
7
  6
CONTINUOUS
 10
88.1284259647
 20
236.3978129172
 11
88.128719097
 21
236.3987238913
  0
POLYLINE
  8
0
 62
7
  6
CONTINUOUS
 66
1
 70
0
  0
VERTEX
  8
0
 62
7
  6
CONTINUOUS
 10
88.1384393332
 20
236.4289305891
  0
VERTEX
  8
0
 62
7
  6
CONTINUOUS
 10
88.1226740931
 20
236.3824245373
  0
VERTEX
  8
0
 62
7
  6
CONTINUOUS
 10
88.1008693618
 20
236.3335147724
  0
VERTEX
  8
0
 62
7
  6
CONTINUOUS
 10
88.0733324465
 20
236.2849070459
  0
VERTEX
  8
0
 62
7
  6
CONTINUOUS
 10
88.0400852227
 20
236.2376513699
  0
VERTEX
  8
0
 62
7
  6
CONTINUOUS
 10
88.0013744307
 20
236.1928202679
  0
VERTEX
  8
0
 62
7
  6
CONTINUOUS
 10
87.9576684486
 20
236.1514513881
  0
VERTEX
  8
0
 62
7
  6
CONTINUOUS
 10
87.9097314128
 20
236.1145545012
  0
VERTEX
  8
0
 62
7
  6
CONTINUOUS
 10
87.8584512514
 20
236.0829158802
  0
VERTEX
  8
0
 62
7
  6
CONTINUOUS
 10
87.8048623231
 20
236.0571257363
  0
VERTEX
  8
0
 62
7
  6
CONTINUOUS
 10
87.7500492377
 20
236.0375224187
  0
VERTEX
  8
0
 62
7
  6
CONTINUOUS
 10
87.6947859649
 20
236.0241342787
  0
VERTEX
  8
0
 62
7
  6
CONTINUOUS
 10
87.6668992405
 20
236.0204557714
  0
SEQEND
  0
LINE
  8
0
 62
7
  6
CONTINUOUS
 10
88.1082802416
 20
236.3485186093
 11
88.1289404325
 21
236.3992697967
  0
POLYLINE
  8
0
 62
7
  6
CONTINUOUS
 66
1
 70
0
  0
VERTEX
  8
0
 62
7
  6
CONTINUOUS
 10
90.6521898405
 20
224.3847375827
  0
VERTEX
  8
0
 62
7
  6
CONTINUOUS
 10
90.6592451326
 20
224.3173969016
  0
VERTEX
  8
0
 62
7
  6
CONTINUOUS
 10
90.6723745995
 20
224.2351499971
  0
VERTEX
  8
0
 62
7
  6
CONTINUOUS
 10
90.6898221713
 20
224.1555567137
  0
VERTEX
  8
0
 62
7
  6
CONTINUOUS
 10
90.7111217055
 20
224.0788219877
  0
VERTEX
  8
0
 62
7
  6
CONTINUOUS
 10
90.7358021903
 20
224.0051522997
  0
VERTEX
  8
0
 62
7
  6
CONTINUOUS
 10
90.763384984
 20
223.9347270981
  0
VERTEX
  8
0
 62
7
  6
CONTINUOUS
 10
90.7934236795
 20
223.867609664
  0
VERTEX
  8
0
 62
7
  6
CONTINUOUS
 10
90.8254974118
 20
223.803804244
  0
VERTEX
  8
0
 62
7
  6
CONTINUOUS
 10
90.8591847293
 20
223.7433157228
  0
VERTEX
  8
0
 62
7
  6
CONTINUOUS
 10
90.8940603066
 20
223.6861467829
  0
VERTEX
  8
0
 62
7
  6
CONTINUOUS
 10
90.9296936629
 20
223.6322963476
  0
VERTEX
  8
0
 62
7
  6
CONTINUOUS
 10
90.9656539378
 20
223.5817513324
  0
VERTEX
  8
0
 62
7
  6
CONTINUOUS
 10
91.0014889821
 20
223.5345155473
  0
VERTEX
  8
0
 62
7
  6
CONTINUOUS
 10
91.0366826582
 20
223.4906619092
  0
VERTEX
  8
0
 62
7
  6
CONTINUOUS
 10
91.0707094241
 20
223.4502607739
  0
VERTEX
  8
0
 62
7
  6
CONTINUOUS
 10
91.1031704299
 20
223.4132381205
  0
VERTEX
  8
0
 62
7
  6
CONTINUOUS
 10
91.1338841737
 20
223.3793182271
  0
VERTEX
  8
0
 62
7
  6
CONTINUOUS
 10
91.1627029696
 20
223.3482502384
  0
VERTEX
  8
0
 62
7
  6
CONTINUOUS
 10
91.23555106
 20
223.2711869267
  0
SEQEND
  0
LINE
  8
0
 62
7
  6
CONTINUOUS
 10
91.2632241708
 20
222.8700760848
 11
91.2632241708
 21
223.241243956
  0
POLYLINE
  8
SURFACE
 62
7
  6
CONTINUOUS
 66
1
 70
0
  0
VERTEX
  8
SURFACE
 62
7
  6
CONTINUOUS
 10
87.5689888429
 20
233.5612377355
  0
VERTEX
  8
SURFACE
 62
7
  6
CONTINUOUS
 10
87.5831159935
 20
233.5945265848
  0
VERTEX
  8
SURFACE
 62
7
  6
CONTINUOUS
 10
87.5981559388
 20
233.6273934814
  0
SEQEND
  0
LINE
  8
SURFACE
 62
7
  6
CONTINUOUS
 10
87.5981559388
 20
233.6273934814
 11
87.6315631924
 21
233.692939448
  0
LINE
  8
0
 62
7
  6
CONTINUOUS
 10
88.0824449039
 20
236.2991939542
 11
88.1089544221
 21
236.3499759797
  0
POLYLINE
  8
SURFACE
 62
7
  6
CONTINUOUS
 66
1
 70
0
  0
VERTEX
  8
SURFACE
 62
7
  6
CONTINUOUS
 10
87.6315631924
 20
233.692939448
  0
VERTEX
  8
SURFACE
 62
7
  6
CONTINUOUS
 10
87.6707274652
 20
233.7598610506
  0
VERTEX
  8
SURFACE
 62
7
  6
CONTINUOUS
 10
87.7164810014
 20
233.8280616385
  0
VERTEX
  8
SURFACE
 62
7
  6
CONTINUOUS
 10
87.7696786195
 20
233.8971683998
  0
VERTEX
  8
SURFACE
 62
7
  6
CONTINUOUS
 10
87.8309247551
 20
233.9662818748
  0
VERTEX
  8
SURFACE
 62
7
  6
CONTINUOUS
 10
87.9010024735
 20
234.0345757056
  0
VERTEX
  8
SURFACE
 62
7
  6
CONTINUOUS
 10
87.9803620384
 20
234.1007584224
  0
VERTEX
  8
SURFACE
 62
7
  6
CONTINUOUS
 10
88.0694081265
 20
234.1634535161
  0
VERTEX
  8
SURFACE
 62
7
  6
CONTINUOUS
 10
88.1681128828
 20
234.2209691892
  0
VERTEX
  8
SURFACE
 62
7
  6
CONTINUOUS
 10
88.2760272066
 20
234.271484543
  0
VERTEX
  8
SURFACE
 62
7
  6
CONTINUOUS
 10
88.3920650952
 20
234.3131238559
  0
VERTEX
  8
SURFACE
 62
7
  6
CONTINUOUS
 10
88.5149230705
 20
234.3442759841
  0
VERTEX
  8
SURFACE
 62
7
  6
CONTINUOUS
 10
88.6383518572
 20
234.3629186589
  0
SEQEND
  0
LINE
  8
0
 62
7
  6
CONTINUOUS
 10
88.0505985437
 20
236.2504559938
 11
88.0832835884
 21
236.3006300611
  0
LINE
  8
SURFACE
 62
7
  6
CONTINUOUS
 10
99.1321105877
 20
223.3848697492
 11
99.1396617341
 21
223.2903990836
  0
LINE
  8
0
 62
7
  6
CONTINUOUS
 10
99.1335131862
 20
223.3673221606
 11
98.8137614176
 21
227.3676633878
  0
LINE
  8
0
 62
7
  6
CONTINUOUS
 10
98.8122337312
 20
227.3867759227
 11
98.2691787542
 21
234.1808125062
  0
POLYLINE
  8
0
 62
7
  6
CONTINUOUS
 66
1
 70
0
  0
VERTEX
  8
0
 62
7
  6
CONTINUOUS
 10
98.4874806966
 20
231.4496868365
  0
VERTEX
  8
0
 62
7
  6
CONTINUOUS
 10
98.4835419673
 20
231.5184211166
  0
VERTEX
  8
0
 62
7
  6
CONTINUOUS
 10
98.4829660343
 20
231.5803736323
  0
VERTEX
  8
0
 62
7
  6
CONTINUOUS
 10
98.4853273317
 20
231.636020821
  0
VERTEX
  8
0
 62
7
  6
CONTINUOUS
 10
98.4902639625
 20
231.6858659229
  0
VERTEX
  8
0
 62
7
  6
CONTINUOUS
 10
98.4975310579
 20
231.7306458351
  0
VERTEX
  8
0
 62
7
  6
CONTINUOUS
 10
98.5069651453
 20
231.7708159602
  0
VERTEX
  8
0
 62
7
  6
CONTINUOUS
 10
98.5185015287
 20
231.8067737392
  0
SEQEND
  0
POLYLINE
  8
0
 62
7
  6
CONTINUOUS
 66
1
 70
0
  0
VERTEX
  8
0
 62
7
  6
CONTINUOUS
 10
98.8131261708
 20
227.7090287077
  0
VERTEX
  8
0
 62
7
  6
CONTINUOUS
 10
98.8102219038
 20
227.8029155037
  0
VERTEX
  8
0
 62
7
  6
CONTINUOUS
 10
98.8012053531
 20
227.9049240811
  0
VERTEX
  8
0
 62
7
  6
CONTINUOUS
 10
98.7856214076
 20
228.0156304867
  0
VERTEX
  8
0
 62
7
  6
CONTINUOUS
 10
98.7630375084
 20
228.1355650259
  0
SEQEND
  0
LINE
  8
0
 62
7
  6
CONTINUOUS
 10
97.2131261708
 20
238.1178573661
 11
97.2131261708
 21
238.1700760848
  0
LINE
  8
0
 62
7
  6
CONTINUOUS
 10
98.8131261708
 20
238.1700760848
 11
98.8131261708
 21
227.3836015998
  0
LINE
  8
SURFACE
 62
7
  6
CONTINUOUS
 10
95.8767664591
 20
233.1736562837
 11
95.0867866075
 21
223.2903990836
  0
POLYLINE
  8
0
 62
7
  6
CONTINUOUS
 66
1
 70
0
  0
VERTEX
  8
0
 62
7
  6
CONTINUOUS
 10
86.2626884419
 20
224.6651492393
  0
VERTEX
  8
0
 62
7
  6
CONTINUOUS
 10
86.2925364851
 20
224.7102769719
  0
VERTEX
  8
0
 62
7
  6
CONTINUOUS
 10
86.3329684592
 20
224.7689893645
  0
VERTEX
  8
0
 62
7
  6
CONTINUOUS
 10
86.4266516991
 20
224.9030248241
  0
SEQEND
  0
POLYLINE
  8
0
 62
7
  6
CONTINUOUS
 66
1
 70
0
  0
VERTEX
  8
0
 62
7
  6
CONTINUOUS
 10
86.4266516991
 20
224.9030248241
  0
VERTEX
  8
0
 62
7
  6
CONTINUOUS
 10
86.4776007483
 20
224.9780513605
  0
VERTEX
  8
0
 62
7
  6
CONTINUOUS
 10
86.5298151293
 20
225.0584198361
  0
VERTEX
  8
0
 62
7
  6
CONTINUOUS
 10
86.5822279868
 20
225.1441574874
  0
VERTEX
  8
0
 62
7
  6
CONTINUOUS
 10
86.633886975
 20
225.2354040859
  0
VERTEX
  8
0
 62
7
  6
CONTINUOUS
 10
86.6839339117
 20
225.3324009661
  0
VERTEX
  8
0
 62
7
  6
CONTINUOUS
 10
86.7315089339
 20
225.4353343982
  0
VERTEX
  8
0
 62
7
  6
CONTINUOUS
 10
86.7757869741
 20
225.5444115315
  0
VERTEX
  8
0
 62
7
  6
CONTINUOUS
 10
86.8159704005
 20
225.6598903374
  0
VERTEX
  8
0
 62
7
  6
CONTINUOUS
 10
86.8512592341
 20
225.7820864491
  0
VERTEX
  8
0
 62
7
  6
CONTINUOUS
 10
86.880770311
 20
225.9111781945
  0
VERTEX
  8
0
 62
7
  6
CONTINUOUS
 10
86.9035288861
 20
226.047121151
  0
VERTEX
  8
0
 62
7
  6
CONTINUOUS
 10
86.9173122535
 20
226.1744519877
  0
SEQEND
  0
LINE
  8
0
 62
7
  6
CONTINUOUS
 10
88.0124966742
 20
236.2030996989
 11
88.0516016171
 21
236.2518435349
  0
POLYLINE
  8
0
 62
7
  6
CONTINUOUS
 66
1
 70
0
  0
VERTEX
  8
0
 62
7
  6
CONTINUOUS
 10
98.763038604
 20
228.1355591369
  0
VERTEX
  8
0
 62
7
  6
CONTINUOUS
 10
98.7485312072
 20
228.2185376909
  0
VERTEX
  8
0
 62
7
  6
CONTINUOUS
 10
98.7383464082
 20
228.3111633258
  0
SEQEND
  0
POLYLINE
  8
0
 62
7
  6
CONTINUOUS
 66
1
 70
0
  0
VERTEX
  8
0
 62
7
  6
CONTINUOUS
 10
103.2417998716
 20
222.8235018173
  0
VERTEX
  8
0
 62
7
  6
CONTINUOUS
 10
103.2263524017
 20
222.9650833265
  0
VERTEX
  8
0
 62
7
  6
CONTINUOUS
 10
103.2112193418
 20
223.1278028689
  0
VERTEX
  8
0
 62
7
  6
CONTINUOUS
 10
103.1964424344
 20
223.3112379512
  0
VERTEX
  8
0
 62
7
  6
CONTINUOUS
 10
103.18206373
 20
223.5148980786
  0
VERTEX
  8
0
 62
7
  6
CONTINUOUS
 10
103.1681189474
 20
223.7383272959
  0
VERTEX
  8
0
 62
7
  6
CONTINUOUS
 10
103.1546611059
 20
223.9807084214
  0
VERTEX
  8
0
 62
7
  6
CONTINUOUS
 10
103.14169614
 20
224.2420371439
  0
VERTEX
  8
0
 62
7
  6
CONTINUOUS
 10
103.1294619929
 20
224.5170325221
  0
VERTEX
  8
0
 62
7
  6
CONTINUOUS
 10
103.1186191225
 20
224.7871651755
  0
VERTEX
  8
0
 62
7
  6
CONTINUOUS
 10
103.109369708
 20
225.0401867376
  0
VERTEX
  8
0
 62
7
  6
CONTINUOUS
 10
103.10160392
 20
225.271088468
  0
VERTEX
  8
0
 62
7
  6
CONTINUOUS
 10
103.0950258978
 20
225.4817566769
  0
SEQEND
  0
LINE
  8
0
 62
7
  6
CONTINUOUS
 10
103.0950258978
 20
225.4817566769
 11
103.0844841932
 21
225.8533843705
  0
LINE
  8
0
 62
7
  6
CONTINUOUS
 10
103.0844841932
 20
225.8533843705
 11
103.0765078644
 21
226.1683506304
  0
LINE
  8
0
 62
7
  6
CONTINUOUS
 10
103.0765078644
 20
226.1683506304
 11
103.0703876485
 21
226.4346065056
  0
LINE
  8
0
 62
7
  6
CONTINUOUS
 10
103.0703876485
 20
226.4346065056
 11
103.0629621063
 21
226.7938597852
  0
LINE
  8
0
 62
7
  6
CONTINUOUS
 10
103.0629621063
 20
226.7938597852
 11
103.0565904882
 21
227.1433007102
  0
LINE
  8
0
 62
7
  6
CONTINUOUS
 10
103.0565904882
 20
227.1433007102
 11
103.0509515279
 21
227.4960015836
  0
LINE
  8
0
 62
7
  6
CONTINUOUS
 10
103.0509515279
 20
227.4960015836
 11
103.0442492313
 21
227.9641727307
  0
LINE
  8
0
 62
7
  6
CONTINUOUS
 10
103.0442492313
 20
227.9641727307
 11
103.0413640224
 21
228.2101944391
  0
POLYLINE
  8
0
 62
7
  6
CONTINUOUS
 66
1
 70
0
  0
VERTEX
  8
0
 62
7
  6
CONTINUOUS
 10
103.0413640224
 20
228.2101944391
  0
VERTEX
  8
0
 62
7
  6
CONTINUOUS
 10
103.0374315891
 20
228.6353028995
  0
VERTEX
  8
0
 62
7
  6
CONTINUOUS
 10
103.0343622863
 20
229.0649840605
  0
VERTEX
  8
0
 62
7
  6
CONTINUOUS
 10
103.0321641805
 20
229.4981020331
  0
VERTEX
  8
0
 62
7
  6
CONTINUOUS
 10
103.0308430198
 20
229.9335150347
  0
VERTEX
  8
0
 62
7
  6
CONTINUOUS
 10
103.0304022509
 20
230.3700760848
  0
SEQEND
  0
POLYLINE
  8
0
 62
7
  6
CONTINUOUS
 66
1
 70
0
  0
VERTEX
  8
0
 62
7
  6
CONTINUOUS
 10
103.2013142164
 20
230.3700760848
  0
VERTEX
  8
0
 62
7
  6
CONTINUOUS
 10
103.2016489072
 20
230.1043119525
  0
VERTEX
  8
0
 62
7
  6
CONTINUOUS
 10
103.2026516162
 20
229.8396367798
  0
VERTEX
  8
0
 62
7
  6
CONTINUOUS
 10
103.204318258
 20
229.5771351674
  0
VERTEX
  8
0
 62
7
  6
CONTINUOUS
 10
103.2066420411
 20
229.3178830109
  0
VERTEX
  8
0
 62
7
  6
CONTINUOUS
 10
103.2096134934
 20
229.0629431747
  0
VERTEX
  8
0
 62
7
  6
CONTINUOUS
 10
103.2132204983
 20
228.8133612319
  0
VERTEX
  8
0
 62
7
  6
CONTINUOUS
 10
103.2174483412
 20
228.5701612253
  0
VERTEX
  8
0
 62
7
  6
CONTINUOUS
 10
103.2222797661
 20
228.3343415203
  0
VERTEX
  8
0
 62
7
  6
CONTINUOUS
 10
103.2276950417
 20
228.1068707585
  0
VERTEX
  8
0
 62
7
  6
CONTINUOUS
 10
103.2336720387
 20
227.8886838554
  0
VERTEX
  8
0
 62
7
  6
CONTINUOUS
 10
103.2401863158
 20
227.6806781811
  0
VERTEX
  8
0
 62
7
  6
CONTINUOUS
 10
103.247211215
 20
227.4837098458
  0
VERTEX
  8
0
 62
7
  6
CONTINUOUS
 10
103.254717969
 20
227.2985900979
  0
VERTEX
  8
0
 62
7
  6
CONTINUOUS
 10
103.2626758137
 20
227.1260819617
  0
VERTEX
  8
0
 62
7
  6
CONTINUOUS
 10
103.2710521125
 20
226.9668969959
  0
VERTEX
  8
0
 62
7
  6
CONTINUOUS
 10
103.2798124884
 20
226.821692265
  0
VERTEX
  8
0
 62
7
  6
CONTINUOUS
 10
103.2889209626
 20
226.691067552
  0
VERTEX
  8
0
 62
7
  6
CONTINUOUS
 10
103.2983401027
 20
226.5755627578
  0
VERTEX
  8
0
 62
7
  6
CONTINUOUS
 10
103.3080311762
 20
226.475655577
  0
VERTEX
  8
0
 62
7
  6
CONTINUOUS
 10
103.3179543101
 20
226.3917594264
  0
VERTEX
  8
0
 62
7
  6
CONTINUOUS
 10
103.3280686579
 20
226.324221627
  0
VERTEX
  8
0
 62
7
  6
CONTINUOUS
 10
103.338332569
 20
226.273321893
  0
VERTEX
  8
0
 62
7
  6
CONTINUOUS
 10
103.3487037631
 20
226.2392710975
  0
VERTEX
  8
0
 62
7
  6
CONTINUOUS
 10
103.3591395085
 20
226.2222103414
  0
VERTEX
  8
0
 62
7
  6
CONTINUOUS
 10
103.3643681604
 20
226.2200777435
  0
SEQEND
  0
LINE
  8
0
 62
7
  6
CONTINUOUS
 10
103.8131261708
 20
230.3700760848
 11
103.8131261708
 21
238.1700760848
  0
LINE
  8
0
 62
7
  6
CONTINUOUS
 10
105.4131261708
 20
238.0891774878
 11
105.4131261708
 21
238.1700760848
  0
LINE
  8
0
 62
7
  6
CONTINUOUS
 10
104.7586605799
 20
231.868700238
 11
104.7655329305
 21
234.370072685
  0
LINE
  8
0
 62
7
  6
CONTINUOUS
 10
103.7513567196
 20
230.3700760848
 11
103.7021710956
 21
227.5256734957
  0
LINE
  8
0
 62
7
  6
CONTINUOUS
 10
103.7021710956
 20
227.5256734957
 11
103.6850912342
 21
226.5662233924
  0
LINE
  8
0
 62
7
  6
CONTINUOUS
 10
103.6850912342
 20
226.5662233924
 11
103.6787997272
 21
226.2771520917
  0
LINE
  8
0
 62
7
  6
CONTINUOUS
 10
103.6787997272
 20
226.2771520917
 11
103.6731323909
 21
226.052649969
  0
LINE
  8
0
 62
7
  6
CONTINUOUS
 10
103.6731323909
 20
226.052649969
 11
103.6680183526
 21
225.8730538557
  0
LINE
  8
0
 62
7
  6
CONTINUOUS
 10
103.8183888184
 20
233.7091121818
 11
103.8132767706
 21
233.5305833152
  0
LINE
  8
0
 62
7
  6
CONTINUOUS
 10
103.8251147518
 20
233.915287787
 11
103.8183888184
 21
233.7091121818
  0
LINE
  8
0
 62
7
  6
CONTINUOUS
 10
103.6680183526
 20
225.8730538557
 11
103.6614110072
 21
225.6681600068
  0
POLYLINE
  8
0
 62
7
  6
CONTINUOUS
 66
1
 70
0
  0
VERTEX
  8
0
 62
7
  6
CONTINUOUS
 10
103.8251147518
 20
233.915287787
  0
VERTEX
  8
0
 62
7
  6
CONTINUOUS
 10
103.8281206834
 20
233.9972568902
  0
VERTEX
  8
0
 62
7
  6
CONTINUOUS
 10
103.8313930546
 20
234.0723310541
  0
VERTEX
  8
0
 62
7
  6
CONTINUOUS
 10
103.8349077294
 20
234.1399540177
  0
VERTEX
  8
0
 62
7
  6
CONTINUOUS
 10
103.8386385971
 20
234.1996205261
  0
VERTEX
  8
0
 62
7
  6
CONTINUOUS
 10
103.8425579148
 20
234.2508843554
  0
VERTEX
  8
0
 62
7
  6
CONTINUOUS
 10
103.8466365136
 20
234.293361795
  0
VERTEX
  8
0
 62
7
  6
CONTINUOUS
 10
103.8508440166
 20
234.32673467
  0
VERTEX
  8
0
 62
7
  6
CONTINUOUS
 10
103.855149067
 20
234.3507528403
  0
VERTEX
  8
0
 62
7
  6
CONTINUOUS
 10
103.8595195649
 20
234.3652361937
  0
VERTEX
  8
0
 62
7
  6
CONTINUOUS
 10
103.8639229136
 20
234.3700760848
  0
SEQEND
  0
LINE
  8
0
 62
7
  6
CONTINUOUS
 10
103.6614110072
 20
225.6681600068
 11
103.6559165565
 21
225.5187452406
  0
LINE
  8
0
 62
7
  6
CONTINUOUS
 10
103.6559165565
 20
225.5187452406
 11
103.6513316005
 21
225.4083226475
  0
LINE
  8
0
 62
7
  6
CONTINUOUS
 10
103.6513316005
 20
225.4083226475
 11
103.6474836882
 21
225.3265301864
  0
LINE
  8
0
 62
7
  6
CONTINUOUS
 10
103.6474836882
 20
225.3265301864
 11
103.6452078607
 21
225.2836851079
  0
POLYLINE
  8
0
 62
7
  6
CONTINUOUS
 66
1
 70
0
  0
VERTEX
  8
0
 62
7
  6
CONTINUOUS
 10
103.6452078607
 20
225.2836851079
  0
VERTEX
  8
0
 62
7
  6
CONTINUOUS
 10
103.6431451118
 20
225.2493504301
  0
VERTEX
  8
0
 62
7
  6
CONTINUOUS
 10
103.6422074627
 20
225.2355253017
  0
VERTEX
  8
0
 62
7
  6
CONTINUOUS
 10
103.6413342797
 20
225.2239096549
  0
SEQEND
  0
LINE
  8
0
 62
7
  6
CONTINUOUS
 10
103.6413342798
 20
225.2239096549
 11
103.4861674865
 21
223.2829994216
  0
POLYLINE
  8
0
 62
7
  6
CONTINUOUS
 66
1
 70
0
  0
VERTEX
  8
0
 62
7
  6
CONTINUOUS
 10
104.4386734137
 20
234.6748455403
  0
VERTEX
  8
0
 62
7
  6
CONTINUOUS
 10
104.4296085703
 20
234.6365503202
  0
VERTEX
  8
0
 62
7
  6
CONTINUOUS
 10
104.4217293631
 20
234.5977757306
  0
VERTEX
  8
0
 62
7
  6
CONTINUOUS
 10
104.4152438842
 20
234.5579066692
  0
VERTEX
  8
0
 62
7
  6
CONTINUOUS
 10
104.4108642777
 20
234.5182173268
  0
VERTEX
  8
0
 62
7
  6
CONTINUOUS
 10
104.4094147466
 20
234.4819327619
  0
VERTEX
  8
0
 62
7
  6
CONTINUOUS
 10
104.4112245463
 20
234.450454965
  0
VERTEX
  8
0
 62
7
  6
CONTINUOUS
 10
104.4164258925
 20
234.4243786091
  0
VERTEX
  8
0
 62
7
  6
CONTINUOUS
 10
104.4249811282
 20
234.403738012
  0
SEQEND
  0
LINE
  8
0
 62
7
  6
CONTINUOUS
 10
104.4632264938
 20
234.7661805722
 11
105.2678649879
 21
237.5815588229
  0
LINE
  8
0
 62
7
  6
CONTINUOUS
 10
105.3766511688
 20
237.9621946612
 11
105.413127836
 21
238.0898241696
  0
POLYLINE
  8
0
 62
7
  6
CONTINUOUS
 66
1
 70
0
  0
VERTEX
  8
0
 62
7
  6
CONTINUOUS
 10
98.5185010921
 20
231.8067725096
  0
VERTEX
  8
0
 62
7
  6
CONTINUOUS
 10
98.5871047011
 20
231.9971079555
  0
VERTEX
  8
0
 62
7
  6
CONTINUOUS
 10
98.6483815854
 20
232.1802427016
  0
VERTEX
  8
0
 62
7
  6
CONTINUOUS
 10
98.7005499196
 20
232.3532132678
  0
VERTEX
  8
0
 62
7
  6
CONTINUOUS
 10
98.7427363302
 20
232.5143838842
  0
VERTEX
  8
0
 62
7
  6
CONTINUOUS
 10
98.7746013695
 20
232.6624106533
  0
VERTEX
  8
0
 62
7
  6
CONTINUOUS
 10
98.796495199
 20
232.7973053496
  0
VERTEX
  8
0
 62
7
  6
CONTINUOUS
 10
98.8090933603
 20
232.9199193
  0
VERTEX
  8
0
 62
7
  6
CONTINUOUS
 10
98.8131261708
 20
233.0311234619
  0
SEQEND
  0
LINE
  8
0
 62
7
  6
CONTINUOUS
 10
87.9687494407
 20
236.158770118
 11
88.013651391
 21
236.2043999345
  0
POLYLINE
  8
0
 62
7
  6
CONTINUOUS
 66
1
 70
0
  0
VERTEX
  8
0
 62
7
  6
CONTINUOUS
 10
91.23555106
 20
223.2711869267
  0
VERTEX
  8
0
 62
7
  6
CONTINUOUS
 10
91.2542166058
 20
223.2511624559
  0
VERTEX
  8
0
 62
7
  6
CONTINUOUS
 10
91.2695572875
 20
223.2342703714
  0
VERTEX
  8
0
 62
7
  6
CONTINUOUS
 10
91.2813321982
 20
223.2207895498
  0
VERTEX
  8
0
 62
7
  6
CONTINUOUS
 10
91.2894291702
 20
223.2110222305
  0
VERTEX
  8
0
 62
7
  6
CONTINUOUS
 10
91.2928179335
 20
223.2067040772
  0
SEQEND
  0
LINE
  8
0
 62
7
  6
CONTINUOUS
 10
91.2928349511
 20
223.2066818766
 11
91.2930487041
 21
223.2063981579
  0
LINE
  8
0
 62
7
  6
CONTINUOUS
 10
97.2208249187
 20
238.0635667118
 11
98.1632197382
 21
234.766187954
  0
POLYLINE
  8
0
 62
7
  6
CONTINUOUS
 66
1
 70
0
  0
VERTEX
  8
0
 62
7
  6
CONTINUOUS
 10
98.2640017804
 20
234.2385517815
  0
VERTEX
  8
0
 62
7
  6
CONTINUOUS
 10
98.2667997032
 20
234.2279983373
  0
VERTEX
  8
0
 62
7
  6
CONTINUOUS
 10
98.2730850646
 20
234.2173913085
  0
VERTEX
  8
0
 62
7
  6
CONTINUOUS
 10
98.2826650194
 20
234.2070303834
  0
VERTEX
  8
0
 62
7
  6
CONTINUOUS
 10
98.2953731977
 20
234.1970702685
  0
VERTEX
  8
0
 62
7
  6
CONTINUOUS
 10
98.3109764455
 20
234.1877118953
  0
SEQEND
  0
LINE
  8
0
 62
7
  6
CONTINUOUS
 10
107.3851140605
 20
225.2239096731
 11
107.5402808496
 21
223.2829994779
  0
POLYLINE
  8
0
 62
7
  6
CONTINUOUS
 66
1
 70
0
  0
VERTEX
  8
0
 62
7
  6
CONTINUOUS
 10
107.3807200841
 20
225.2930661367
  0
VERTEX
  8
0
 62
7
  6
CONTINUOUS
 10
107.3822819893
 20
225.2657413896
  0
VERTEX
  8
0
 62
7
  6
CONTINUOUS
 10
107.3837459882
 20
225.2426634728
  0
VERTEX
  8
0
 62
7
  6
CONTINUOUS
 10
107.3851140605
 20
225.2239096731
  0
SEQEND
  0
LINE
  8
0
 62
7
  6
CONTINUOUS
 10
107.3772699972
 20
225.3612242942
 11
107.3807200841
 21
225.2930661367
  0
LINE
  8
0
 62
7
  6
CONTINUOUS
 10
107.3733455696
 20
225.4493996645
 11
107.3772699972
 21
225.3612242942
  0
LINE
  8
0
 62
7
  6
CONTINUOUS
 10
107.3665237142
 20
225.6259149856
 11
107.3733455696
 21
225.4493996645
  0
LINE
  8
0
 62
7
  6
CONTINUOUS
 10
107.361317609
 20
225.7799748275
 11
107.3665237142
 21
225.6259149856
  0
LINE
  8
0
 62
7
  6
CONTINUOUS
 10
107.3554727735
 20
225.9744801213
 11
107.361317609
 21
225.7799748275
  0
LINE
  8
0
 62
7
  6
CONTINUOUS
 10
107.3489775207
 20
226.2218108547
 11
107.3554727735
 21
225.9744801213
  0
LINE
  8
0
 62
7
  6
CONTINUOUS
 10
107.3418100963
 20
226.5437148651
 11
107.3489775207
 21
226.2218108547
  0
LINE
  8
0
 62
7
  6
CONTINUOUS
 10
107.2570613064
 20
231.3700760848
 11
107.2826559888
 21
229.9434651127
  0
LINE
  8
0
 62
7
  6
CONTINUOUS
 10
107.3240575644
 20
227.5384286909
 11
107.3418100963
 21
226.5437148651
  0
LINE
  8
0
 62
7
  6
CONTINUOUS
 10
107.2826559888
 20
229.9434651127
 11
107.3240575644
 21
227.5384286909
  0
LINE
  8
0
 62
7
  6
CONTINUOUS
 10
106.2677877617
 20
231.8687002379
 11
106.2609154112
 21
234.370072685
  0
LINE
  8
0
 62
7
  6
CONTINUOUS
 10
107.2133221708
 20
230.3700760848
 11
107.2133221708
 21
231.3700760848
  0
LINE
  8
0
 62
7
  6
CONTINUOUS
 10
107.8060888234
 20
231.3935413479
 11
107.8580444305
 21
234.3700760848
  0
POLYLINE
  8
0
 62
7
  6
CONTINUOUS
 66
1
 70
0
  0
VERTEX
  8
0
 62
7
  6
CONTINUOUS
 10
86.1632241708
 20
223.241245464
  0
VERTEX
  8
0
 62
7
  6
CONTINUOUS
 10
86.172632853
 20
223.2515977149
  0
VERTEX
  8
0
 62
7
  6
CONTINUOUS
 10
86.1913445707
 20
223.2716624176
  0
SEQEND
  0
POLYLINE
  8
0
 62
7
  6
CONTINUOUS
 66
1
 70
0
  0
VERTEX
  8
0
 62
7
  6
CONTINUOUS
 10
86.2642324754
 20
223.3487701309
  0
VERTEX
  8
0
 62
7
  6
CONTINUOUS
 10
86.2930488835
 20
223.3798467384
  0
VERTEX
  8
0
 62
7
  6
CONTINUOUS
 10
86.3237663003
 20
223.4137855697
  0
VERTEX
  8
0
 62
7
  6
CONTINUOUS
 10
86.3562178257
 20
223.450816955
  0
VERTEX
  8
0
 62
7
  6
CONTINUOUS
 10
86.3902407162
 20
223.4912394662
  0
VERTEX
  8
0
 62
7
  6
CONTINUOUS
 10
86.4254392384
 20
223.5351298245
  0
VERTEX
  8
0
 62
7
  6
CONTINUOUS
 10
86.4612783692
 20
223.5824089126
  0
VERTEX
  8
0
 62
7
  6
CONTINUOUS
 10
86.4972422519
 20
223.6330064887
  0
VERTEX
  8
0
 62
7
  6
CONTINUOUS
 10
86.5328782679
 20
223.6869177957
  0
VERTEX
  8
0
 62
7
  6
CONTINUOUS
 10
86.5677514413
 20
223.7441513755
  0
VERTEX
  8
0
 62
7
  6
CONTINUOUS
 10
86.6014307365
 20
223.8047096375
  0
VERTEX
  8
0
 62
7
  6
CONTINUOUS
 10
86.6334904205
 20
223.8685903291
  0
VERTEX
  8
0
 62
7
  6
CONTINUOUS
 10
86.6635079024
 20
223.9357868616
  0
VERTEX
  8
0
 62
7
  6
CONTINUOUS
 10
86.6910609527
 20
224.0062941172
  0
VERTEX
  8
0
 62
7
  6
CONTINUOUS
 10
86.7157029295
 20
224.0800511221
  0
VERTEX
  8
0
 62
7
  6
CONTINUOUS
 10
86.7369534908
 20
224.156875706
  0
VERTEX
  8
0
 62
7
  6
CONTINUOUS
 10
86.7543401542
 20
224.2365581074
  0
VERTEX
  8
0
 62
7
  6
CONTINUOUS
 10
86.7673954694
 20
224.3188861421
  0
VERTEX
  8
0
 62
7
  6
CONTINUOUS
 10
86.7742698197
 20
224.3848759059
  0
SEQEND
  0
LINE
  8
0
 62
7
  6
CONTINUOUS
 10
86.1913445707
 20
223.2716624176
 11
86.2642324754
 21
223.3487701309
  0
LINE
  8
0
 62
7
  6
CONTINUOUS
 10
87.9206283278
 20
236.1191228095
 11
87.9700218247
 21
236.1599369819
  0
LINE
  8
SURFACE
 62
7
  6
CONTINUOUS
 10
115.9321105877
 20
223.3848697492
 11
115.9396617341
 21
223.2903990836
  0
LINE
  8
0
 62
7
  6
CONTINUOUS
 10
115.9335131862
 20
223.3673221606
 11
115.6137614176
 21
227.3676633878
  0
LINE
  8
0
 62
7
  6
CONTINUOUS
 10
115.6122337312
 20
227.3867759227
 11
115.0691787542
 21
234.1808125062
  0
POLYLINE
  8
0
 62
7
  6
CONTINUOUS
 66
1
 70
0
  0
VERTEX
  8
0
 62
7
  6
CONTINUOUS
 10
115.2874806966
 20
231.4496868365
  0
VERTEX
  8
0
 62
7
  6
CONTINUOUS
 10
115.2835419673
 20
231.5184211166
  0
VERTEX
  8
0
 62
7
  6
CONTINUOUS
 10
115.2829660343
 20
231.5803736323
  0
VERTEX
  8
0
 62
7
  6
CONTINUOUS
 10
115.2853273317
 20
231.636020821
  0
VERTEX
  8
0
 62
7
  6
CONTINUOUS
 10
115.2902639625
 20
231.6858659229
  0
VERTEX
  8
0
 62
7
  6
CONTINUOUS
 10
115.2975310579
 20
231.7306458351
  0
VERTEX
  8
0
 62
7
  6
CONTINUOUS
 10
115.3069651453
 20
231.7708159602
  0
VERTEX
  8
0
 62
7
  6
CONTINUOUS
 10
115.3185015287
 20
231.8067737392
  0
SEQEND
  0
POLYLINE
  8
0
 62
7
  6
CONTINUOUS
 66
1
 70
0
  0
VERTEX
  8
0
 62
7
  6
CONTINUOUS
 10
115.6131261708
 20
227.7090287077
  0
VERTEX
  8
0
 62
7
  6
CONTINUOUS
 10
115.6102219038
 20
227.8029155037
  0
VERTEX
  8
0
 62
7
  6
CONTINUOUS
 10
115.6012053531
 20
227.9049240811
  0
VERTEX
  8
0
 62
7
  6
CONTINUOUS
 10
115.5856214076
 20
228.0156304867
  0
VERTEX
  8
0
 62
7
  6
CONTINUOUS
 10
115.5630375084
 20
228.1355650259
  0
SEQEND
  0
LINE
  8
0
 62
7
  6
CONTINUOUS
 10
111.5865487743
 20
233.330557572
 11
111.5684039111
 21
234.3700760848
  0
LINE
  8
0
 62
7
  6
CONTINUOUS
 10
114.0131261708
 20
238.1178573661
 11
114.0131261708
 21
238.1700760848
  0
LINE
  8
0
 62
7
  6
CONTINUOUS
 10
115.6131261708
 20
238.1700760848
 11
115.6131261708
 21
227.3836015998
  0
LINE
  8
SURFACE
 62
7
  6
CONTINUOUS
 10
112.6767664591
 20
233.1736562837
 11
111.8867866075
 21
223.2903990836
  0
POLYLINE
  8
0
 62
7
  6
CONTINUOUS
 66
1
 70
0
  0
VERTEX
  8
0
 62
7
  6
CONTINUOUS
 10
105.8007499398
 20
238.1700760848
  0
VERTEX
  8
0
 62
7
  6
CONTINUOUS
 10
105.7697486284
 20
238.135175243
  0
VERTEX
  8
0
 62
7
  6
CONTINUOUS
 10
105.7383785091
 20
238.101950178
  0
VERTEX
  8
0
 62
7
  6
CONTINUOUS
 10
105.7058279169
 20
238.0716117473
  0
VERTEX
  8
0
 62
7
  6
CONTINUOUS
 10
105.6721567435
 20
238.045018998
  0
VERTEX
  8
0
 62
7
  6
CONTINUOUS
 10
105.6380732048
 20
238.0227457961
  0
VERTEX
  8
0
 62
7
  6
CONTINUOUS
 10
105.557458446
 20
237.9798003434
  0
SEQEND
  0
LINE
  8
0
 62
7
  6
CONTINUOUS
 10
87.8691805178
 20
236.0850275797
 11
87.9219809444
 21
236.1201271368
  0
POLYLINE
  8
0
 62
7
  6
CONTINUOUS
 66
1
 70
0
  0
VERTEX
  8
0
 62
7
  6
CONTINUOUS
 10
120.6131261708
 20
233.0311234619
  0
VERTEX
  8
0
 62
7
  6
CONTINUOUS
 10
120.6171578485
 20
232.9199354494
  0
VERTEX
  8
0
 62
7
  6
CONTINUOUS
 10
120.6297571235
 20
232.7973054931
  0
VERTEX
  8
0
 62
7
  6
CONTINUOUS
 10
120.6516563679
 20
232.6623821732
  0
VERTEX
  8
0
 62
7
  6
CONTINUOUS
 10
120.6835274199
 20
232.5143362035
  0
VERTEX
  8
0
 62
7
  6
CONTINUOUS
 10
120.7257199074
 20
232.3531513892
  0
VERTEX
  8
0
 62
7
  6
CONTINUOUS
 10
120.777905849
 20
232.1801327321
  0
VERTEX
  8
0
 62
7
  6
CONTINUOUS
 10
120.839223376
 20
231.9968907492
  0
VERTEX
  8
0
 62
7
  6
CONTINUOUS
 10
120.9078897373
 20
231.8063990483
  0
SEQEND
  0
LINE
  8
0
 62
7
  6
CONTINUOUS
 10
120.6131261708
 20
227.3811647399
 11
120.6131261708
 21
238.1700760848
  0
LINE
  8
0
 62
7
  6
CONTINUOUS
 10
120.6124922144
 20
227.3652274194
 11
120.2929351555
 21
223.3673221606
  0
LINE
  8
SURFACE
 62
7
  6
CONTINUOUS
 10
120.2867866075
 20
223.2903990836
 11
120.2943377283
 21
223.3848694282
  0
LINE
  8
0
 62
7
  6
CONTINUOUS
 10
120.6150546743
 20
227.3972857687
 11
121.1572695847
 21
234.1808124714
  0
POLYLINE
  8
0
 62
7
  6
CONTINUOUS
 66
1
 70
0
  0
VERTEX
  8
0
 62
7
  6
CONTINUOUS
 10
120.6131261708
 20
233.8946327945
  0
VERTEX
  8
0
 62
7
  6
CONTINUOUS
 10
120.6162910527
 20
233.9289328964
  0
VERTEX
  8
0
 62
7
  6
CONTINUOUS
 10
120.6255743265
 20
233.961181123
  0
VERTEX
  8
0
 62
7
  6
CONTINUOUS
 10
120.6405554566
 20
233.9910569441
  0
VERTEX
  8
0
 62
7
  6
CONTINUOUS
 10
120.6607477765
 20
234.0184056987
  0
VERTEX
  8
0
 62
7
  6
CONTINUOUS
 10
120.6859365607
 20
234.043424302
  0
VERTEX
  8
0
 62
7
  6
CONTINUOUS
 10
120.7157492068
 20
234.0660373094
  0
VERTEX
  8
0
 62
7
  6
CONTINUOUS
 10
120.7495577175
 20
234.0860835764
  0
VERTEX
  8
0
 62
7
  6
CONTINUOUS
 10
120.786663686
 20
234.1035071492
  0
VERTEX
  8
0
 62
7
  6
CONTINUOUS
 10
120.8268370507
 20
234.1184974855
  0
VERTEX
  8
0
 62
7
  6
CONTINUOUS
 10
120.8696714273
 20
234.1311143208
  0
VERTEX
  8
0
 62
7
  6
CONTINUOUS
 10
120.9144959609
 20
234.1413552973
  0
VERTEX
  8
0
 62
7
  6
CONTINUOUS
 10
120.9609522578
 20
234.1493105869
  0
SEQEND
  0
POLYLINE
  8
SURFACE
 62
7
  6
CONTINUOUS
 66
1
 70
0
  0
VERTEX
  8
SURFACE
 62
7
  6
CONTINUOUS
 10
121.0767664625
 20
233.1736563261
  0
VERTEX
  8
SURFACE
 62
7
  6
CONTINUOUS
 10
121.0801736596
 20
233.2098895522
  0
VERTEX
  8
SURFACE
 62
7
  6
CONTINUOUS
 10
121.0845946695
 20
233.2460198683
  0
VERTEX
  8
SURFACE
 62
7
  6
CONTINUOUS
 10
121.090025484
 20
233.2820122072
  0
SEQEND
  0
POLYLINE
  8
0
 62
7
  6
CONTINUOUS
 66
1
 70
0
  0
VERTEX
  8
0
 62
7
  6
CONTINUOUS
 10
120.6882197976
 20
228.3126378952
  0
VERTEX
  8
0
 62
7
  6
CONTINUOUS
 10
120.6780061928
 20
228.2198114917
  0
VERTEX
  8
0
 62
7
  6
CONTINUOUS
 10
120.663452365
 20
228.1366930962
  0
SEQEND
  0
POLYLINE
  8
SURFACE
 62
7
  6
CONTINUOUS
 66
1
 70
0
  0
VERTEX
  8
SURFACE
 62
7
  6
CONTINUOUS
 10
121.090025484
 20
233.2820122072
  0
VERTEX
  8
SURFACE
 62
7
  6
CONTINUOUS
 10
121.0964606366
 20
233.3178321426
  0
VERTEX
  8
SURFACE
 62
7
  6
CONTINUOUS
 10
121.1038941459
 20
233.3534498512
  0
VERTEX
  8
SURFACE
 62
7
  6
CONTINUOUS
 10
121.1123202169
 20
233.3888403662
  0
VERTEX
  8
SURFACE
 62
7
  6
CONTINUOUS
 10
121.1217331537
 20
233.4239808182
  0
VERTEX
  8
SURFACE
 62
7
  6
CONTINUOUS
 10
121.1273766543
 20
233.4429128579
  0
SEQEND
  0
LINE
  8
0
 62
7
  6
CONTINUOUS
 10
122.2054274227
 20
238.0628809196
 11
121.263228604
 21
234.7661879559
  0
POLYLINE
  8
0
 62
7
  6
CONTINUOUS
 66
1
 70
0
  0
VERTEX
  8
0
 62
7
  6
CONTINUOUS
 10
115.3185010921
 20
231.8067725096
  0
VERTEX
  8
0
 62
7
  6
CONTINUOUS
 10
115.3871047011
 20
231.9971079555
  0
VERTEX
  8
0
 62
7
  6
CONTINUOUS
 10
115.4483815854
 20
232.1802427016
  0
VERTEX
  8
0
 62
7
  6
CONTINUOUS
 10
115.5005499196
 20
232.3532132678
  0
VERTEX
  8
0
 62
7
  6
CONTINUOUS
 10
115.5427363302
 20
232.5143838842
  0
VERTEX
  8
0
 62
7
  6
CONTINUOUS
 10
115.5746013695
 20
232.6624106533
  0
VERTEX
  8
0
 62
7
  6
CONTINUOUS
 10
115.596495199
 20
232.7973053496
  0
VERTEX
  8
0
 62
7
  6
CONTINUOUS
 10
115.6090933603
 20
232.9199193
  0
VERTEX
  8
0
 62
7
  6
CONTINUOUS
 10
115.6131261708
 20
233.0311234619
  0
SEQEND
  0
POLYLINE
  8
0
 62
7
  6
CONTINUOUS
 66
1
 70
0
  0
VERTEX
  8
0
 62
7
  6
CONTINUOUS
 10
105.557458446
 20
237.9798003434
  0
VERTEX
  8
0
 62
7
  6
CONTINUOUS
 10
105.5117149347
 20
237.949127447
  0
VERTEX
  8
0
 62
7
  6
CONTINUOUS
 10
105.4675708477
 20
237.9128009279
  0
VERTEX
  8
0
 62
7
  6
CONTINUOUS
 10
105.4254313067
 20
237.870676172
  0
VERTEX
  8
0
 62
7
  6
CONTINUOUS
 10
105.3860720505
 20
237.8230115167
  0
VERTEX
  8
0
 62
7
  6
CONTINUOUS
 10
105.3502152519
 20
237.7702243265
  0
VERTEX
  8
0
 62
7
  6
CONTINUOUS
 10
105.3181482559
 20
237.7121612595
  0
VERTEX
  8
0
 62
7
  6
CONTINUOUS
 10
105.2904669539
 20
237.6490649384
  0
VERTEX
  8
0
 62
7
  6
CONTINUOUS
 10
105.2678649879
 20
237.5815588229
  0
SEQEND
  0
LINE
  8
0
 62
7
  6
CONTINUOUS
 10
87.8153632948
 20
236.0569923185
 11
87.8705806808
 21
236.0858558981
  0
POLYLINE
  8
0
 62
7
  6
CONTINUOUS
 66
1
 70
0
  0
VERTEX
  8
0
 62
7
  6
CONTINUOUS
 10
87.0131261708
 20
235.9104719319
  0
VERTEX
  8
0
 62
7
  6
CONTINUOUS
 10
87.0224939559
 20
235.9149619231
  0
VERTEX
  8
0
 62
7
  6
CONTINUOUS
 10
87.042540759
 20
235.9230079853
  0
VERTEX
  8
0
 62
7
  6
CONTINUOUS
 10
87.06848051
 20
235.9317024521
  0
VERTEX
  8
0
 62
7
  6
CONTINUOUS
 10
87.100207094
 20
235.9405445037
  0
VERTEX
  8
0
 62
7
  6
CONTINUOUS
 10
87.1374937872
 20
235.9491290877
  0
VERTEX
  8
0
 62
7
  6
CONTINUOUS
 10
87.180033272
 20
235.9571369615
  0
VERTEX
  8
0
 62
7
  6
CONTINUOUS
 10
87.2274176422
 20
235.9643122878
  0
VERTEX
  8
0
 62
7
  6
CONTINUOUS
 10
87.2791562752
 20
235.9704526803
  0
SEQEND
  0
POLYLINE
  8
0
 62
7
  6
CONTINUOUS
 66
1
 70
0
  0
VERTEX
  8
0
 62
7
  6
CONTINUOUS
 10
104.4249811282
 20
234.403738012
  0
VERTEX
  8
0
 62
7
  6
CONTINUOUS
 10
104.4359793511
 20
234.3887117502
  0
VERTEX
  8
0
 62
7
  6
CONTINUOUS
 10
104.4494323029
 20
234.378195305
  0
VERTEX
  8
0
 62
7
  6
CONTINUOUS
 10
104.4654610999
 20
234.3720557375
  0
VERTEX
  8
0
 62
7
  6
CONTINUOUS
 10
104.4841011518
 20
234.3700760848
  0
SEQEND
  0
LINE
  8
0
 62
7
  6
CONTINUOUS
 10
114.0208249187
 20
238.0635667118
 11
114.9632197382
 21
234.766187954
  0
POLYLINE
  8
0
 62
7
  6
CONTINUOUS
 66
1
 70
0
  0
VERTEX
  8
0
 62
7
  6
CONTINUOUS
 10
115.0640017804
 20
234.2385517815
  0
VERTEX
  8
0
 62
7
  6
CONTINUOUS
 10
115.0667997032
 20
234.2279983373
  0
VERTEX
  8
0
 62
7
  6
CONTINUOUS
 10
115.0730850646
 20
234.2173913085
  0
VERTEX
  8
0
 62
7
  6
CONTINUOUS
 10
115.0826650194
 20
234.2070303834
  0
VERTEX
  8
0
 62
7
  6
CONTINUOUS
 10
115.0953731977
 20
234.1970702685
  0
VERTEX
  8
0
 62
7
  6
CONTINUOUS
 10
115.1109764455
 20
234.1877118953
  0
SEQEND
  0
POLYLINE
  8
0
 62
7
  6
CONTINUOUS
 66
1
 70
0
  0
VERTEX
  8
0
 62
7
  6
CONTINUOUS
 10
115.563038604
 20
228.1355591369
  0
VERTEX
  8
0
 62
7
  6
CONTINUOUS
 10
115.5485312072
 20
228.2185376909
  0
VERTEX
  8
0
 62
7
  6
CONTINUOUS
 10
115.5383464082
 20
228.3111633258
  0
SEQEND
  0
LINE
  8
SURFACE
 62
7
  6
CONTINUOUS
 10
123.5496818889
 20
233.1736562045
 11
124.3396617341
 21
223.2903990836
  0
LINE
  8
0
 62
7
  6
CONTINUOUS
 10
124.3335131862
 20
223.3673221606
 11
124.10548936
 21
226.2200760848
  0
LINE
  8
0
 62
7
  6
CONTINUOUS
 10
122.2131261708
 20
238.1171716719
 11
122.2131261708
 21
238.1700760848
  0
POLYLINE
  8
0
 62
7
  6
CONTINUOUS
 66
1
 70
0
  0
VERTEX
  8
0
 62
7
  6
CONTINUOUS
 10
120.6634536845
 20
228.1367001751
  0
VERTEX
  8
0
 62
7
  6
CONTINUOUS
 10
120.6407594421
 20
228.0164085222
  0
VERTEX
  8
0
 62
7
  6
CONTINUOUS
 10
120.62510038
 20
227.9053877077
  0
VERTEX
  8
0
 62
7
  6
CONTINUOUS
 10
120.6160424556
 20
227.8031151581
  0
VERTEX
  8
0
 62
7
  6
CONTINUOUS
 10
120.6131261708
 20
227.7090287077
  0
SEQEND
  0
POLYLINE
  8
SURFACE
 62
7
  6
CONTINUOUS
 66
1
 70
0
  0
VERTEX
  8
SURFACE
 62
7
  6
CONTINUOUS
 10
121.128679635
 20
233.447283918
  0
VERTEX
  8
SURFACE
 62
7
  6
CONTINUOUS
 10
121.1321249576
 20
233.4588418125
  0
VERTEX
  8
SURFACE
 62
7
  6
CONTINUOUS
 10
121.1434663323
 20
233.4933352331
  0
VERTEX
  8
SURFACE
 62
7
  6
CONTINUOUS
 10
121.1557660831
 20
233.5274970287
  0
VERTEX
  8
SURFACE
 62
7
  6
CONTINUOUS
 10
121.1689888429
 20
233.5612377355
  0
SEQEND
  0
POLYLINE
  8
SURFACE
 62
7
  6
CONTINUOUS
 66
1
 70
0
  0
VERTEX
  8
SURFACE
 62
7
  6
CONTINUOUS
 10
121.1689888429
 20
233.5612377355
  0
VERTEX
  8
SURFACE
 62
7
  6
CONTINUOUS
 10
121.1831159935
 20
233.5945265848
  0
VERTEX
  8
SURFACE
 62
7
  6
CONTINUOUS
 10
121.1981559388
 20
233.6273934814
  0
SEQEND
  0
LINE
  8
SURFACE
 62
7
  6
CONTINUOUS
 10
121.1981559388
 20
233.6273934814
 11
121.2315631924
 21
233.692939448
  0
POLYLINE
  8
SURFACE
 62
7
  6
CONTINUOUS
 66
1
 70
0
  0
VERTEX
  8
SURFACE
 62
7
  6
CONTINUOUS
 10
121.2315631924
 20
233.692939448
  0
VERTEX
  8
SURFACE
 62
7
  6
CONTINUOUS
 10
121.2707274652
 20
233.7598610506
  0
VERTEX
  8
SURFACE
 62
7
  6
CONTINUOUS
 10
121.3164810014
 20
233.8280616385
  0
VERTEX
  8
SURFACE
 62
7
  6
CONTINUOUS
 10
121.3696786195
 20
233.8971683998
  0
VERTEX
  8
SURFACE
 62
7
  6
CONTINUOUS
 10
121.4309247551
 20
233.9662818748
  0
VERTEX
  8
SURFACE
 62
7
  6
CONTINUOUS
 10
121.5010024735
 20
234.0345757056
  0
VERTEX
  8
SURFACE
 62
7
  6
CONTINUOUS
 10
121.5803620384
 20
234.1007584224
  0
VERTEX
  8
SURFACE
 62
7
  6
CONTINUOUS
 10
121.6694081265
 20
234.1634535161
  0
VERTEX
  8
SURFACE
 62
7
  6
CONTINUOUS
 10
121.7681128828
 20
234.2209691892
  0
VERTEX
  8
SURFACE
 62
7
  6
CONTINUOUS
 10
121.8760272066
 20
234.271484543
  0
VERTEX
  8
SURFACE
 62
7
  6
CONTINUOUS
 10
121.9920650952
 20
234.3131238559
  0
VERTEX
  8
SURFACE
 62
7
  6
CONTINUOUS
 10
122.1149230705
 20
234.3442759841
  0
VERTEX
  8
SURFACE
 62
7
  6
CONTINUOUS
 10
122.2383518572
 20
234.3629186589
  0
SEQEND
  0
LINE
  8
0
 62
7
  6
CONTINUOUS
 10
87.7602885913
 20
236.035367317
 11
87.8167823712
 21
236.057640604
  0
POLYLINE
  8
0
 62
7
  6
CONTINUOUS
 66
1
 70
0
  0
VERTEX
  8
0
 62
7
  6
CONTINUOUS
 10
120.9078891737
 20
231.8064006353
  0
VERTEX
  8
0
 62
7
  6
CONTINUOUS
 10
120.9194304321
 20
231.7704300141
  0
VERTEX
  8
0
 62
7
  6
CONTINUOUS
 10
120.9288689672
 20
231.7302411351
  0
VERTEX
  8
0
 62
7
  6
CONTINUOUS
 10
120.9361395746
 20
231.6854362328
  0
VERTEX
  8
0
 62
7
  6
CONTINUOUS
 10
120.9410783126
 20
231.6355600296
  0
VERTEX
  8
0
 62
7
  6
CONTINUOUS
 10
120.9434400016
 20
231.5798756092
  0
VERTEX
  8
0
 62
7
  6
CONTINUOUS
 10
120.9428625761
 20
231.5178799798
  0
VERTEX
  8
0
 62
7
  6
CONTINUOUS
 10
120.9389206795
 20
231.4490992592
  0
SEQEND
  0
LINE
  8
0
 62
7
  6
CONTINUOUS
 10
130.8131261708
 20
238.1178573661
 11
130.8131261708
 21
238.1700760848
  0
LINE
  8
SURFACE
 62
7
  6
CONTINUOUS
 10
129.4767664591
 20
233.1736562837
 11
128.6867866075
 21
223.2903990836
  0
LINE
  8
0
 62
7
  6
CONTINUOUS
 10
111.5865487743
 20
233.330557572
 11
113.0318435295
 21
234.1235092138
  0
LINE
  8
SURFACE
 62
2
  6
CONTINUOUS
 10
108.4626321674
 20
231.6166408824
 11
113.0318473086
 21
234.1235112872
  0
LINE
  8
SURFACE
 62
7
  6
CONTINUOUS
 10
132.7321105877
 20
223.3848697492
 11
132.7396617341
 21
223.2903990836
  0
LINE
  8
0
 62
7
  6
CONTINUOUS
 10
132.7335131862
 20
223.3673221606
 11
132.4137614176
 21
227.3676633878
  0
LINE
  8
0
 62
7
  6
CONTINUOUS
 10
132.4122337312
 20
227.3867759227
 11
131.8691787542
 21
234.1808125062
  0
POLYLINE
  8
0
 62
7
  6
CONTINUOUS
 66
1
 70
0
  0
VERTEX
  8
0
 62
7
  6
CONTINUOUS
 10
132.0874806966
 20
231.4496868365
  0
VERTEX
  8
0
 62
7
  6
CONTINUOUS
 10
132.0835419673
 20
231.5184211166
  0
VERTEX
  8
0
 62
7
  6
CONTINUOUS
 10
132.0829660343
 20
231.5803736323
  0
VERTEX
  8
0
 62
7
  6
CONTINUOUS
 10
132.0853273317
 20
231.636020821
  0
VERTEX
  8
0
 62
7
  6
CONTINUOUS
 10
132.0902639625
 20
231.6858659229
  0
VERTEX
  8
0
 62
7
  6
CONTINUOUS
 10
132.0975310579
 20
231.7306458351
  0
VERTEX
  8
0
 62
7
  6
CONTINUOUS
 10
132.1069651453
 20
231.7708159602
  0
VERTEX
  8
0
 62
7
  6
CONTINUOUS
 10
132.1185015287
 20
231.8067737392
  0
SEQEND
  0
POLYLINE
  8
0
 62
7
  6
CONTINUOUS
 66
1
 70
0
  0
VERTEX
  8
0
 62
7
  6
CONTINUOUS
 10
132.4131261708
 20
227.7090287077
  0
VERTEX
  8
0
 62
7
  6
CONTINUOUS
 10
132.4102219038
 20
227.8029155037
  0
VERTEX
  8
0
 62
7
  6
CONTINUOUS
 10
132.4012053531
 20
227.9049240811
  0
VERTEX
  8
0
 62
7
  6
CONTINUOUS
 10
132.3856214076
 20
228.0156304867
  0
VERTEX
  8
0
 62
7
  6
CONTINUOUS
 10
132.3630375084
 20
228.1355650259
  0
SEQEND
  0
LINE
  8
0
 62
7
  6
CONTINUOUS
 10
132.4131261708
 20
238.1700760848
 11
132.4131261708
 21
227.3836015998
  0
POLYLINE
  8
0
 62
7
  6
CONTINUOUS
 66
1
 70
0
  0
VERTEX
  8
0
 62
7
  6
CONTINUOUS
 10
132.1185010921
 20
231.8067725096
  0
VERTEX
  8
0
 62
7
  6
CONTINUOUS
 10
132.1871047011
 20
231.9971079555
  0
VERTEX
  8
0
 62
7
  6
CONTINUOUS
 10
132.2483815854
 20
232.1802427016
  0
VERTEX
  8
0
 62
7
  6
CONTINUOUS
 10
132.3005499196
 20
232.3532132678
  0
VERTEX
  8
0
 62
7
  6
CONTINUOUS
 10
132.3427363302
 20
232.5143838842
  0
VERTEX
  8
0
 62
7
  6
CONTINUOUS
 10
132.3746013695
 20
232.6624106533
  0
VERTEX
  8
0
 62
7
  6
CONTINUOUS
 10
132.396495199
 20
232.7973053496
  0
VERTEX
  8
0
 62
7
  6
CONTINUOUS
 10
132.4090933603
 20
232.9199193
  0
VERTEX
  8
0
 62
7
  6
CONTINUOUS
 10
132.4131261708
 20
233.0311234619
  0
SEQEND
  0
POLYLINE
  8
0
 62
7
  6
CONTINUOUS
 66
1
 70
0
  0
VERTEX
  8
0
 62
7
  6
CONTINUOUS
 10
121.1154288207
 20
234.1877183975
  0
VERTEX
  8
0
 62
7
  6
CONTINUOUS
 10
121.1310471921
 20
234.1970796766
  0
VERTEX
  8
0
 62
7
  6
CONTINUOUS
 10
121.1437667995
 20
234.2070427029
  0
VERTEX
  8
0
 62
7
  6
CONTINUOUS
 10
121.153358184
 20
234.2174103307
  0
VERTEX
  8
0
 62
7
  6
CONTINUOUS
 10
121.1596493238
 20
234.2280223091
  0
VERTEX
  8
0
 62
7
  6
CONTINUOUS
 10
121.1624493751
 20
234.238580086
  0
SEQEND
  0
LINE
  8
SURFACE
 62
2
  6
CONTINUOUS
 10
97.994601033
 20
234.1235112872
 11
102.5638132741
 21
231.6166424735
  0
LINE
  8
0
 62
7
  6
CONTINUOUS
 10
130.8208249187
 20
238.0635667118
 11
131.7632197382
 21
234.766187954
  0
POLYLINE
  8
0
 62
7
  6
CONTINUOUS
 66
1
 70
0
  0
VERTEX
  8
0
 62
7
  6
CONTINUOUS
 10
131.8640017804
 20
234.2385517815
  0
VERTEX
  8
0
 62
7
  6
CONTINUOUS
 10
131.8667997032
 20
234.2279983373
  0
VERTEX
  8
0
 62
7
  6
CONTINUOUS
 10
131.8730850646
 20
234.2173913085
  0
VERTEX
  8
0
 62
7
  6
CONTINUOUS
 10
131.8826650194
 20
234.2070303834
  0
VERTEX
  8
0
 62
7
  6
CONTINUOUS
 10
131.8953731977
 20
234.1970702685
  0
VERTEX
  8
0
 62
7
  6
CONTINUOUS
 10
131.9109764455
 20
234.1877118953
  0
SEQEND
  0
POLYLINE
  8
0
 62
7
  6
CONTINUOUS
 66
1
 70
0
  0
VERTEX
  8
0
 62
7
  6
CONTINUOUS
 10
132.363038604
 20
228.1355591369
  0
VERTEX
  8
0
 62
7
  6
CONTINUOUS
 10
132.3485312072
 20
228.2185376909
  0
VERTEX
  8
0
 62
7
  6
CONTINUOUS
 10
132.3383464082
 20
228.3111633258
  0
SEQEND
  0
LINE
  8
0
 62
7
  6
CONTINUOUS
 10
140.3496818903
 20
233.1736561863
 11
140.4875277861
 21
231.4490977188
  0
LINE
  8
SURFACE
 62
7
  6
CONTINUOUS
 10
140.3496818889
 20
233.1736562045
 11
141.1396617341
 21
223.2903990836
  0
LINE
  8
0
 62
7
  6
CONTINUOUS
 10
141.1335131862
 20
223.3673221606
 11
140.90548936
 21
226.2200760848
  0
POLYLINE
  8
0
 62
7
  6
CONTINUOUS
 66
1
 70
0
  0
VERTEX
  8
0
 62
7
  6
CONTINUOUS
 10
137.4131261708
 20
233.0311234619
  0
VERTEX
  8
0
 62
7
  6
CONTINUOUS
 10
137.4171578485
 20
232.9199354494
  0
VERTEX
  8
0
 62
7
  6
CONTINUOUS
 10
137.4297571235
 20
232.7973054931
  0
VERTEX
  8
0
 62
7
  6
CONTINUOUS
 10
137.4516563679
 20
232.6623821732
  0
VERTEX
  8
0
 62
7
  6
CONTINUOUS
 10
137.4835274199
 20
232.5143362035
  0
VERTEX
  8
0
 62
7
  6
CONTINUOUS
 10
137.5257199074
 20
232.3531513892
  0
VERTEX
  8
0
 62
7
  6
CONTINUOUS
 10
137.577905849
 20
232.1801327321
  0
VERTEX
  8
0
 62
7
  6
CONTINUOUS
 10
137.639223376
 20
231.9968907492
  0
VERTEX
  8
0
 62
7
  6
CONTINUOUS
 10
137.7078897373
 20
231.8063990483
  0
SEQEND
  0
LINE
  8
0
 62
7
  6
CONTINUOUS
 10
137.4131261708
 20
227.3811647399
 11
137.4131261708
 21
238.1700760848
  0
LINE
  8
0
 62
7
  6
CONTINUOUS
 10
139.0131261708
 20
238.1171716719
 11
139.0131261708
 21
238.1700760848
  0
LINE
  8
0
 62
7
  6
CONTINUOUS
 10
137.4124922144
 20
227.3652274194
 11
137.0929351555
 21
223.3673221606
  0
LINE
  8
SURFACE
 62
7
  6
CONTINUOUS
 10
137.0867866075
 20
223.2903990836
 11
137.0943377283
 21
223.3848694282
  0
LINE
  8
0
 62
7
  6
CONTINUOUS
 10
137.4150546743
 20
227.3972857687
 11
137.9572695847
 21
234.1808124714
  0
POLYLINE
  8
0
 62
7
  6
CONTINUOUS
 66
1
 70
0
  0
VERTEX
  8
0
 62
7
  6
CONTINUOUS
 10
137.4131261708
 20
233.8946327945
  0
VERTEX
  8
0
 62
7
  6
CONTINUOUS
 10
137.4162910527
 20
233.9289328964
  0
VERTEX
  8
0
 62
7
  6
CONTINUOUS
 10
137.4255743265
 20
233.961181123
  0
VERTEX
  8
0
 62
7
  6
CONTINUOUS
 10
137.4405554566
 20
233.9910569441
  0
VERTEX
  8
0
 62
7
  6
CONTINUOUS
 10
137.4607477765
 20
234.0184056987
  0
VERTEX
  8
0
 62
7
  6
CONTINUOUS
 10
137.4859365607
 20
234.043424302
  0
VERTEX
  8
0
 62
7
  6
CONTINUOUS
 10
137.5157492068
 20
234.0660373094
  0
VERTEX
  8
0
 62
7
  6
CONTINUOUS
 10
137.5495577175
 20
234.0860835764
  0
VERTEX
  8
0
 62
7
  6
CONTINUOUS
 10
137.586663686
 20
234.1035071492
  0
VERTEX
  8
0
 62
7
  6
CONTINUOUS
 10
137.6268370507
 20
234.1184974855
  0
VERTEX
  8
0
 62
7
  6
CONTINUOUS
 10
137.6696714273
 20
234.1311143208
  0
VERTEX
  8
0
 62
7
  6
CONTINUOUS
 10
137.7144959609
 20
234.1413552973
  0
VERTEX
  8
0
 62
7
  6
CONTINUOUS
 10
137.7609522578
 20
234.1493105869
  0
SEQEND
  0
POLYLINE
  8
SURFACE
 62
7
  6
CONTINUOUS
 66
1
 70
0
  0
VERTEX
  8
SURFACE
 62
7
  6
CONTINUOUS
 10
137.8767664625
 20
233.1736563261
  0
VERTEX
  8
SURFACE
 62
7
  6
CONTINUOUS
 10
137.8801736596
 20
233.2098895522
  0
VERTEX
  8
SURFACE
 62
7
  6
CONTINUOUS
 10
137.8845946695
 20
233.2460198683
  0
VERTEX
  8
SURFACE
 62
7
  6
CONTINUOUS
 10
137.890025484
 20
233.2820122072
  0
SEQEND
  0
POLYLINE
  8
0
 62
7
  6
CONTINUOUS
 66
1
 70
0
  0
VERTEX
  8
0
 62
7
  6
CONTINUOUS
 10
137.4882197976
 20
228.3126378952
  0
VERTEX
  8
0
 62
7
  6
CONTINUOUS
 10
137.4780061928
 20
228.2198114917
  0
VERTEX
  8
0
 62
7
  6
CONTINUOUS
 10
137.463452365
 20
228.1366930962
  0
SEQEND
  0
POLYLINE
  8
SURFACE
 62
7
  6
CONTINUOUS
 66
1
 70
0
  0
VERTEX
  8
SURFACE
 62
7
  6
CONTINUOUS
 10
137.890025484
 20
233.2820122072
  0
VERTEX
  8
SURFACE
 62
7
  6
CONTINUOUS
 10
137.8964606366
 20
233.3178321426
  0
VERTEX
  8
SURFACE
 62
7
  6
CONTINUOUS
 10
137.9038941459
 20
233.3534498512
  0
VERTEX
  8
SURFACE
 62
7
  6
CONTINUOUS
 10
137.9123202169
 20
233.3888403662
  0
VERTEX
  8
SURFACE
 62
7
  6
CONTINUOUS
 10
137.9217331537
 20
233.4239808182
  0
VERTEX
  8
SURFACE
 62
7
  6
CONTINUOUS
 10
137.9273766543
 20
233.4429128579
  0
SEQEND
  0
POLYLINE
  8
0
 62
7
  6
CONTINUOUS
 66
1
 70
0
  0
VERTEX
  8
0
 62
7
  6
CONTINUOUS
 10
137.4634536845
 20
228.1367001751
  0
VERTEX
  8
0
 62
7
  6
CONTINUOUS
 10
137.4407594421
 20
228.0164085222
  0
VERTEX
  8
0
 62
7
  6
CONTINUOUS
 10
137.42510038
 20
227.9053877077
  0
VERTEX
  8
0
 62
7
  6
CONTINUOUS
 10
137.4160424556
 20
227.8031151581
  0
VERTEX
  8
0
 62
7
  6
CONTINUOUS
 10
137.4131261708
 20
227.7090287077
  0
SEQEND
  0
LINE
  8
0
 62
7
  6
CONTINUOUS
 10
139.0054274227
 20
238.0628809196
 11
138.063228604
 21
234.7661879559
  0
POLYLINE
  8
SURFACE
 62
7
  6
CONTINUOUS
 66
1
 70
0
  0
VERTEX
  8
SURFACE
 62
7
  6
CONTINUOUS
 10
137.928679635
 20
233.447283918
  0
VERTEX
  8
SURFACE
 62
7
  6
CONTINUOUS
 10
137.9321249576
 20
233.4588418125
  0
VERTEX
  8
SURFACE
 62
7
  6
CONTINUOUS
 10
137.9434663323
 20
233.4933352331
  0
VERTEX
  8
SURFACE
 62
7
  6
CONTINUOUS
 10
137.9557660831
 20
233.5274970287
  0
VERTEX
  8
SURFACE
 62
7
  6
CONTINUOUS
 10
137.9689888429
 20
233.5612377355
  0
SEQEND
  0
POLYLINE
  8
SURFACE
 62
7
  6
CONTINUOUS
 66
1
 70
0
  0
VERTEX
  8
SURFACE
 62
7
  6
CONTINUOUS
 10
137.9689888429
 20
233.5612377355
  0
VERTEX
  8
SURFACE
 62
7
  6
CONTINUOUS
 10
137.9831159935
 20
233.5945265848
  0
VERTEX
  8
SURFACE
 62
7
  6
CONTINUOUS
 10
137.9981559388
 20
233.6273934814
  0
SEQEND
  0
LINE
  8
SURFACE
 62
7
  6
CONTINUOUS
 10
137.9981559388
 20
233.6273934814
 11
138.0315631924
 21
233.692939448
  0
POLYLINE
  8
SURFACE
 62
7
  6
CONTINUOUS
 66
1
 70
0
  0
VERTEX
  8
SURFACE
 62
7
  6
CONTINUOUS
 10
138.0315631924
 20
233.692939448
  0
VERTEX
  8
SURFACE
 62
7
  6
CONTINUOUS
 10
138.0707274652
 20
233.7598610506
  0
VERTEX
  8
SURFACE
 62
7
  6
CONTINUOUS
 10
138.1164810014
 20
233.8280616385
  0
VERTEX
  8
SURFACE
 62
7
  6
CONTINUOUS
 10
138.1696786195
 20
233.8971683998
  0
VERTEX
  8
SURFACE
 62
7
  6
CONTINUOUS
 10
138.2309247551
 20
233.9662818748
  0
VERTEX
  8
SURFACE
 62
7
  6
CONTINUOUS
 10
138.3010024735
 20
234.0345757056
  0
VERTEX
  8
SURFACE
 62
7
  6
CONTINUOUS
 10
138.3803620384
 20
234.1007584224
  0
VERTEX
  8
SURFACE
 62
7
  6
CONTINUOUS
 10
138.4694081265
 20
234.1634535161
  0
VERTEX
  8
SURFACE
 62
7
  6
CONTINUOUS
 10
138.5681128828
 20
234.2209691892
  0
VERTEX
  8
SURFACE
 62
7
  6
CONTINUOUS
 10
138.6760272066
 20
234.271484543
  0
VERTEX
  8
SURFACE
 62
7
  6
CONTINUOUS
 10
138.7920650952
 20
234.3131238559
  0
VERTEX
  8
SURFACE
 62
7
  6
CONTINUOUS
 10
138.9149230705
 20
234.3442759841
  0
VERTEX
  8
SURFACE
 62
7
  6
CONTINUOUS
 10
139.0383518572
 20
234.3629186589
  0
SEQEND
  0
POLYLINE
  8
0
 62
7
  6
CONTINUOUS
 66
1
 70
0
  0
VERTEX
  8
0
 62
7
  6
CONTINUOUS
 10
103.3643681604
 20
226.2200777435
  0
VERTEX
  8
0
 62
7
  6
CONTINUOUS
 10
103.3695968013
 20
226.2222103324
  0
VERTEX
  8
0
 62
7
  6
CONTINUOUS
 10
103.3800325469
 20
226.2392710706
  0
VERTEX
  8
0
 62
7
  6
CONTINUOUS
 10
103.3904037412
 20
226.273321849
  0
VERTEX
  8
0
 62
7
  6
CONTINUOUS
 10
103.4006676527
 20
226.3242215672
  0
VERTEX
  8
0
 62
7
  6
CONTINUOUS
 10
103.410782001
 20
226.3917593525
  0
VERTEX
  8
0
 62
7
  6
CONTINUOUS
 10
103.4207051355
 20
226.4756554909
  0
VERTEX
  8
0
 62
7
  6
CONTINUOUS
 10
103.4303962097
 20
226.5755626621
  0
VERTEX
  8
0
 62
7
  6
CONTINUOUS
 10
103.4398153505
 20
226.6910674491
  0
VERTEX
  8
0
 62
7
  6
CONTINUOUS
 10
103.4489238255
 20
226.8216921578
  0
VERTEX
  8
0
 62
7
  6
CONTINUOUS
 10
103.4576842022
 20
226.9668968869
  0
VERTEX
  8
0
 62
7
  6
CONTINUOUS
 10
103.4660605019
 20
227.1260818538
  0
VERTEX
  8
0
 62
7
  6
CONTINUOUS
 10
103.4740183474
 20
227.2985899936
  0
VERTEX
  8
0
 62
7
  6
CONTINUOUS
 10
103.4815251021
 20
227.4837097473
  0
VERTEX
  8
0
 62
7
  6
CONTINUOUS
 10
103.4885500021
 20
227.6806780904
  0
VERTEX
  8
0
 62
7
  6
CONTINUOUS
 10
103.4950642798
 20
227.8886837741
  0
VERTEX
  8
0
 62
7
  6
CONTINUOUS
 10
103.5010412774
 20
228.1068706877
  0
VERTEX
  8
0
 62
7
  6
CONTINUOUS
 10
103.5064565535
 20
228.3343414608
  0
VERTEX
  8
0
 62
7
  6
CONTINUOUS
 10
103.5112879788
 20
228.5701611771
  0
VERTEX
  8
0
 62
7
  6
CONTINUOUS
 10
103.515515822
 20
228.8133611948
  0
VERTEX
  8
0
 62
7
  6
CONTINUOUS
 10
103.5191228272
 20
229.0629431479
  0
VERTEX
  8
0
 62
7
  6
CONTINUOUS
 10
103.5220942796
 20
229.3178829932
  0
VERTEX
  8
0
 62
7
  6
CONTINUOUS
 10
103.5244180628
 20
229.5771351572
  0
VERTEX
  8
0
 62
7
  6
CONTINUOUS
 10
103.5260847047
 20
229.8396367752
  0
VERTEX
  8
0
 62
7
  6
CONTINUOUS
 10
103.5270874137
 20
230.1043119514
  0
VERTEX
  8
0
 62
7
  6
CONTINUOUS
 10
103.5274221045
 20
230.3700760848
  0
SEQEND
  0
POLYLINE
  8
0
 62
7
  6
CONTINUOUS
 66
1
 70
0
  0
VERTEX
  8
0
 62
7
  6
CONTINUOUS
 10
98.3109764455
 20
234.1877118953
  0
VERTEX
  8
0
 62
7
  6
CONTINUOUS
 10
98.3266743951
 20
234.1802232446
  0
VERTEX
  8
0
 62
7
  6
CONTINUOUS
 10
98.3438911145
 20
234.1735490147
  0
VERTEX
  8
0
 62
7
  6
CONTINUOUS
 10
98.362531991
 20
234.1677065479
  0
VERTEX
  8
0
 62
7
  6
CONTINUOUS
 10
98.3825572692
 20
234.1627319524
  0
VERTEX
  8
0
 62
7
  6
CONTINUOUS
 10
98.4038913998
 20
234.1586994503
  0
SEQEND
  0
POLYLINE
  8
0
 62
7
  6
CONTINUOUS
 66
1
 70
0
  0
VERTEX
  8
0
 62
7
  6
CONTINUOUS
 10
137.7078891737
 20
231.8064006353
  0
VERTEX
  8
0
 62
7
  6
CONTINUOUS
 10
137.7194304321
 20
231.7704300141
  0
VERTEX
  8
0
 62
7
  6
CONTINUOUS
 10
137.7288689672
 20
231.7302411351
  0
VERTEX
  8
0
 62
7
  6
CONTINUOUS
 10
137.7361395746
 20
231.6854362328
  0
VERTEX
  8
0
 62
7
  6
CONTINUOUS
 10
137.7410783126
 20
231.6355600296
  0
VERTEX
  8
0
 62
7
  6
CONTINUOUS
 10
137.7434400016
 20
231.5798756092
  0
VERTEX
  8
0
 62
7
  6
CONTINUOUS
 10
137.7428625761
 20
231.5178799798
  0
VERTEX
  8
0
 62
7
  6
CONTINUOUS
 10
137.7389206795
 20
231.4490992592
  0
SEQEND
  0
LINE
  8
SURFACE
 62
7
  6
CONTINUOUS
 10
146.2767664591
 20
233.1736562837
 11
145.4867866075
 21
223.2903990836
  0
POLYLINE
  8
0
 62
7
  6
CONTINUOUS
 66
1
 70
0
  0
VERTEX
  8
0
 62
7
  6
CONTINUOUS
 10
137.9154288207
 20
234.1877183975
  0
VERTEX
  8
0
 62
7
  6
CONTINUOUS
 10
137.9310471921
 20
234.1970796766
  0
VERTEX
  8
0
 62
7
  6
CONTINUOUS
 10
137.9437667995
 20
234.2070427029
  0
VERTEX
  8
0
 62
7
  6
CONTINUOUS
 10
137.953358184
 20
234.2174103307
  0
VERTEX
  8
0
 62
7
  6
CONTINUOUS
 10
137.9596493238
 20
234.2280223091
  0
VERTEX
  8
0
 62
7
  6
CONTINUOUS
 10
137.9624493751
 20
234.238580086
  0
SEQEND
  0
POLYLINE
  8
0
 62
7
  6
CONTINUOUS
 66
1
 70
0
  0
VERTEX
  8
0
 62
7
  6
CONTINUOUS
 10
103.2661429035
 20
222.7395610431
  0
VERTEX
  8
0
 62
7
  6
CONTINUOUS
 10
103.2611786941
 20
222.7380821499
  0
VERTEX
  8
0
 62
7
  6
CONTINUOUS
 10
103.2562380958
 20
222.7458376946
  0
VERTEX
  8
0
 62
7
  6
CONTINUOUS
 10
103.251346449
 20
222.7627395703
  0
VERTEX
  8
0
 62
7
  6
CONTINUOUS
 10
103.2465213772
 20
222.7887047777
  0
VERTEX
  8
0
 62
7
  6
CONTINUOUS
 10
103.2417998716
 20
222.8235018173
  0
SEQEND
  0
LINE
  8
0
 62
7
  6
CONTINUOUS
 10
222.105167601
 20
236.020263594
 11
222.1617034206
 21
236.0358391785
  0
POLYLINE
  8
0
 62
7
  6
CONTINUOUS
 66
1
 70
0
  0
VERTEX
  8
0
 62
7
  6
CONTINUOUS
 10
115.1109764455
 20
234.1877118953
  0
VERTEX
  8
0
 62
7
  6
CONTINUOUS
 10
115.1266743951
 20
234.1802232446
  0
VERTEX
  8
0
 62
7
  6
CONTINUOUS
 10
115.1438911145
 20
234.1735490147
  0
VERTEX
  8
0
 62
7
  6
CONTINUOUS
 10
115.162531991
 20
234.1677065479
  0
VERTEX
  8
0
 62
7
  6
CONTINUOUS
 10
115.1825572692
 20
234.1627319524
  0
VERTEX
  8
0
 62
7
  6
CONTINUOUS
 10
115.2038913998
 20
234.1586994503
  0
SEQEND
  0
LINE
  8
SURFACE
 62
7
  6
CONTINUOUS
 10
149.5321105877
 20
223.3848697492
 11
149.5396617341
 21
223.2903990836
  0
LINE
  8
0
 62
7
  6
CONTINUOUS
 10
149.5335131862
 20
223.3673221606
 11
149.2137614176
 21
227.3676633878
  0
LINE
  8
0
 62
7
  6
CONTINUOUS
 10
149.2122337312
 20
227.3867759227
 11
148.6691787542
 21
234.1808125062
  0
POLYLINE
  8
0
 62
7
  6
CONTINUOUS
 66
1
 70
0
  0
VERTEX
  8
0
 62
7
  6
CONTINUOUS
 10
148.8874806966
 20
231.4496868365
  0
VERTEX
  8
0
 62
7
  6
CONTINUOUS
 10
148.8835419673
 20
231.5184211166
  0
VERTEX
  8
0
 62
7
  6
CONTINUOUS
 10
148.8829660343
 20
231.5803736323
  0
VERTEX
  8
0
 62
7
  6
CONTINUOUS
 10
148.8853273317
 20
231.636020821
  0
VERTEX
  8
0
 62
7
  6
CONTINUOUS
 10
148.8902639625
 20
231.6858659229
  0
VERTEX
  8
0
 62
7
  6
CONTINUOUS
 10
148.8975310579
 20
231.7306458351
  0
VERTEX
  8
0
 62
7
  6
CONTINUOUS
 10
148.9069651453
 20
231.7708159602
  0
VERTEX
  8
0
 62
7
  6
CONTINUOUS
 10
148.9185015287
 20
231.8067737392
  0
SEQEND
  0
POLYLINE
  8
0
 62
7
  6
CONTINUOUS
 66
1
 70
0
  0
VERTEX
  8
0
 62
7
  6
CONTINUOUS
 10
149.2131261708
 20
227.7090287077
  0
VERTEX
  8
0
 62
7
  6
CONTINUOUS
 10
149.2102219038
 20
227.8029155037
  0
VERTEX
  8
0
 62
7
  6
CONTINUOUS
 10
149.2012053531
 20
227.9049240811
  0
VERTEX
  8
0
 62
7
  6
CONTINUOUS
 10
149.1856214076
 20
228.0156304867
  0
VERTEX
  8
0
 62
7
  6
CONTINUOUS
 10
149.1630375084
 20
228.1355650259
  0
SEQEND
  0
LINE
  8
0
 62
7
  6
CONTINUOUS
 10
147.6131261708
 20
238.1178573661
 11
147.6131261708
 21
238.1700760848
  0
LINE
  8
0
 62
7
  6
CONTINUOUS
 10
149.2131261708
 20
238.1700760848
 11
149.2131261708
 21
227.3836015998
  0
POLYLINE
  8
0
 62
7
  6
CONTINUOUS
 66
1
 70
0
  0
VERTEX
  8
0
 62
7
  6
CONTINUOUS
 10
148.9185010921
 20
231.8067725096
  0
VERTEX
  8
0
 62
7
  6
CONTINUOUS
 10
148.9871047011
 20
231.9971079555
  0
VERTEX
  8
0
 62
7
  6
CONTINUOUS
 10
149.0483815854
 20
232.1802427016
  0
VERTEX
  8
0
 62
7
  6
CONTINUOUS
 10
149.1005499196
 20
232.3532132678
  0
VERTEX
  8
0
 62
7
  6
CONTINUOUS
 10
149.1427363302
 20
232.5143838842
  0
VERTEX
  8
0
 62
7
  6
CONTINUOUS
 10
149.1746013695
 20
232.6624106533
  0
VERTEX
  8
0
 62
7
  6
CONTINUOUS
 10
149.196495199
 20
232.7973053496
  0
VERTEX
  8
0
 62
7
  6
CONTINUOUS
 10
149.2090933603
 20
232.9199193
  0
VERTEX
  8
0
 62
7
  6
CONTINUOUS
 10
149.2131261708
 20
233.0311234619
  0
SEQEND
  0
POLYLINE
  8
0
 62
7
  6
CONTINUOUS
 66
1
 70
0
  0
VERTEX
  8
0
 62
7
  6
CONTINUOUS
 10
156.2007499398
 20
238.1700760848
  0
VERTEX
  8
0
 62
7
  6
CONTINUOUS
 10
156.1697486284
 20
238.135175243
  0
VERTEX
  8
0
 62
7
  6
CONTINUOUS
 10
156.1383785091
 20
238.101950178
  0
VERTEX
  8
0
 62
7
  6
CONTINUOUS
 10
156.1058279169
 20
238.0716117473
  0
VERTEX
  8
0
 62
7
  6
CONTINUOUS
 10
156.0721567435
 20
238.045018998
  0
VERTEX
  8
0
 62
7
  6
CONTINUOUS
 10
156.0380732048
 20
238.0227457961
  0
VERTEX
  8
0
 62
7
  6
CONTINUOUS
 10
155.957458446
 20
237.9798003435
  0
SEQEND
  0
POLYLINE
  8
0
 62
7
  6
CONTINUOUS
 66
1
 70
0
  0
VERTEX
  8
0
 62
7
  6
CONTINUOUS
 10
155.957458446
 20
237.9798003435
  0
VERTEX
  8
0
 62
7
  6
CONTINUOUS
 10
155.9117149347
 20
237.949127447
  0
VERTEX
  8
0
 62
7
  6
CONTINUOUS
 10
155.8675708477
 20
237.9128009279
  0
VERTEX
  8
0
 62
7
  6
CONTINUOUS
 10
155.8254313068
 20
237.870676172
  0
VERTEX
  8
0
 62
7
  6
CONTINUOUS
 10
155.7860720505
 20
237.8230115167
  0
VERTEX
  8
0
 62
7
  6
CONTINUOUS
 10
155.7502152519
 20
237.7702243266
  0
VERTEX
  8
0
 62
7
  6
CONTINUOUS
 10
155.7181482559
 20
237.7121612595
  0
VERTEX
  8
0
 62
7
  6
CONTINUOUS
 10
155.6904669539
 20
237.6490649384
  0
VERTEX
  8
0
 62
7
  6
CONTINUOUS
 10
155.6678649879
 20
237.5815588229
  0
SEQEND
  0
LINE
  8
0
 62
7
  6
CONTINUOUS
 10
155.613851871
 20
237.9245731462
 11
155.6166043993
 21
237.9253875021
  0
POLYLINE
  8
0
 62
7
  6
CONTINUOUS
 66
1
 70
0
  0
VERTEX
  8
0
 62
7
  6
CONTINUOUS
 10
203.7857805589
 20
222.3700761242
  0
VERTEX
  8
0
 62
7
  6
CONTINUOUS
 10
203.8434489997
 20
222.3733565933
  0
VERTEX
  8
0
 62
7
  6
CONTINUOUS
 10
203.9004386333
 20
222.38316866
  0
VERTEX
  8
0
 62
7
  6
CONTINUOUS
 10
203.955211081
 20
222.3991180633
  0
VERTEX
  8
0
 62
7
  6
CONTINUOUS
 10
204.0068586567
 20
222.4205989318
  0
VERTEX
  8
0
 62
7
  6
CONTINUOUS
 10
204.0545596484
 20
222.4467845535
  0
VERTEX
  8
0
 62
7
  6
CONTINUOUS
 10
204.0975307896
 20
222.4765562021
  0
VERTEX
  8
0
 62
7
  6
CONTINUOUS
 10
204.135277039
 20
222.5086328472
  0
VERTEX
  8
0
 62
7
  6
CONTINUOUS
 10
204.1676759156
 20
222.5417432497
  0
VERTEX
  8
0
 62
7
  6
CONTINUOUS
 10
204.1951993682
 20
222.5751063178
  0
VERTEX
  8
0
 62
7
  6
CONTINUOUS
 10
204.2184726458
 20
222.6082659718
  0
VERTEX
  8
0
 62
7
  6
CONTINUOUS
 10
204.2380402859
 20
222.6408411928
  0
VERTEX
  8
0
 62
7
  6
CONTINUOUS
 10
204.2542280886
 20
222.6721594081
  0
VERTEX
  8
0
 62
7
  6
CONTINUOUS
 10
204.2674346698
 20
222.7016453154
  0
VERTEX
  8
0
 62
7
  6
CONTINUOUS
 10
204.2782070135
 20
222.7291551646
  0
VERTEX
  8
0
 62
7
  6
CONTINUOUS
 10
204.2871444511
 20
222.7550129837
  0
VERTEX
  8
0
 62
7
  6
CONTINUOUS
 10
204.2947543678
 20
222.7797329948
  0
VERTEX
  8
0
 62
7
  6
CONTINUOUS
 10
204.3014054341
 20
222.8037961508
  0
VERTEX
  8
0
 62
7
  6
CONTINUOUS
 10
204.3073576701
 20
222.8276093364
  0
VERTEX
  8
0
 62
7
  6
CONTINUOUS
 10
204.3127923701
 20
222.8514978629
  0
VERTEX
  8
0
 62
7
  6
CONTINUOUS
 10
204.3178353527
 20
222.8757095852
  0
VERTEX
  8
0
 62
7
  6
CONTINUOUS
 10
204.3225911162
 20
222.9005178606
  0
VERTEX
  8
0
 62
7
  6
CONTINUOUS
 10
204.3271424132
 20
222.926197414
  0
VERTEX
  8
0
 62
7
  6
CONTINUOUS
 10
204.3315484143
 20
222.9529830981
  0
VERTEX
  8
0
 62
7
  6
CONTINUOUS
 10
204.3358528752
 20
222.9810850522
  0
VERTEX
  8
0
 62
7
  6
CONTINUOUS
 10
204.3400892038
 20
223.0107003255
  0
VERTEX
  8
0
 62
7
  6
CONTINUOUS
 10
204.3442827737
 20
223.0420144017
  0
VERTEX
  8
0
 62
7
  6
CONTINUOUS
 10
204.3484527687
 20
223.0752022776
  0
VERTEX
  8
0
 62
7
  6
CONTINUOUS
 10
204.3526142381
 20
223.1104353562
  0
VERTEX
  8
0
 62
7
  6
CONTINUOUS
 10
204.3567800552
 20
223.1478939483
  0
VERTEX
  8
0
 62
7
  6
CONTINUOUS
 10
204.3609626596
 20
223.1877818287
  0
VERTEX
  8
0
 62
7
  6
CONTINUOUS
 10
204.3651723708
 20
223.2303101185
  0
VERTEX
  8
0
 62
7
  6
CONTINUOUS
 10
204.3694176731
 20
223.2756992086
  0
VERTEX
  8
0
 62
7
  6
CONTINUOUS
 10
204.3737052562
 20
223.3241770297
  0
VERTEX
  8
0
 62
7
  6
CONTINUOUS
 10
204.3780389675
 20
223.375962927
  0
VERTEX
  8
0
 62
7
  6
CONTINUOUS
 10
204.3868351303
 20
223.4901161406
  0
SEQEND
  0
POLYLINE
  8
0
 62
7
  6
CONTINUOUS
 66
1
 70
0
  0
VERTEX
  8
0
 62
7
  6
CONTINUOUS
 10
153.3857805589
 20
222.3700761242
  0
VERTEX
  8
0
 62
7
  6
CONTINUOUS
 10
153.4434489997
 20
222.3733565933
  0
VERTEX
  8
0
 62
7
  6
CONTINUOUS
 10
153.5004386333
 20
222.38316866
  0
VERTEX
  8
0
 62
7
  6
CONTINUOUS
 10
153.555211081
 20
222.3991180633
  0
VERTEX
  8
0
 62
7
  6
CONTINUOUS
 10
153.6068586567
 20
222.4205989318
  0
VERTEX
  8
0
 62
7
  6
CONTINUOUS
 10
153.6545596484
 20
222.4467845535
  0
VERTEX
  8
0
 62
7
  6
CONTINUOUS
 10
153.6975307896
 20
222.4765562021
  0
VERTEX
  8
0
 62
7
  6
CONTINUOUS
 10
153.735277039
 20
222.5086328472
  0
VERTEX
  8
0
 62
7
  6
CONTINUOUS
 10
153.7676759156
 20
222.5417432497
  0
VERTEX
  8
0
 62
7
  6
CONTINUOUS
 10
153.7951993682
 20
222.5751063178
  0
VERTEX
  8
0
 62
7
  6
CONTINUOUS
 10
153.8184726458
 20
222.6082659718
  0
VERTEX
  8
0
 62
7
  6
CONTINUOUS
 10
153.8380402859
 20
222.6408411928
  0
VERTEX
  8
0
 62
7
  6
CONTINUOUS
 10
153.8542280886
 20
222.6721594081
  0
VERTEX
  8
0
 62
7
  6
CONTINUOUS
 10
153.8674346698
 20
222.7016453154
  0
VERTEX
  8
0
 62
7
  6
CONTINUOUS
 10
153.8782070135
 20
222.7291551646
  0
VERTEX
  8
0
 62
7
  6
CONTINUOUS
 10
153.8871444511
 20
222.7550129837
  0
VERTEX
  8
0
 62
7
  6
CONTINUOUS
 10
153.8947543678
 20
222.7797329948
  0
VERTEX
  8
0
 62
7
  6
CONTINUOUS
 10
153.9014054341
 20
222.8037961508
  0
VERTEX
  8
0
 62
7
  6
CONTINUOUS
 10
153.9073576701
 20
222.8276093364
  0
VERTEX
  8
0
 62
7
  6
CONTINUOUS
 10
153.9127923701
 20
222.8514978629
  0
VERTEX
  8
0
 62
7
  6
CONTINUOUS
 10
153.9178353527
 20
222.8757095852
  0
VERTEX
  8
0
 62
7
  6
CONTINUOUS
 10
153.9225911162
 20
222.9005178606
  0
VERTEX
  8
0
 62
7
  6
CONTINUOUS
 10
153.9271424132
 20
222.926197414
  0
VERTEX
  8
0
 62
7
  6
CONTINUOUS
 10
153.9315484143
 20
222.9529830981
  0
VERTEX
  8
0
 62
7
  6
CONTINUOUS
 10
153.9358528752
 20
222.9810850522
  0
VERTEX
  8
0
 62
7
  6
CONTINUOUS
 10
153.9400892038
 20
223.0107003255
  0
VERTEX
  8
0
 62
7
  6
CONTINUOUS
 10
153.9442827737
 20
223.0420144017
  0
VERTEX
  8
0
 62
7
  6
CONTINUOUS
 10
153.9484527687
 20
223.0752022776
  0
VERTEX
  8
0
 62
7
  6
CONTINUOUS
 10
153.9526142381
 20
223.1104353562
  0
VERTEX
  8
0
 62
7
  6
CONTINUOUS
 10
153.9567800552
 20
223.1478939483
  0
VERTEX
  8
0
 62
7
  6
CONTINUOUS
 10
153.9609626596
 20
223.1877818287
  0
VERTEX
  8
0
 62
7
  6
CONTINUOUS
 10
153.9651723708
 20
223.2303101185
  0
VERTEX
  8
0
 62
7
  6
CONTINUOUS
 10
153.9694176731
 20
223.2756992086
  0
VERTEX
  8
0
 62
7
  6
CONTINUOUS
 10
153.9737052562
 20
223.3241770297
  0
VERTEX
  8
0
 62
7
  6
CONTINUOUS
 10
153.9780389675
 20
223.375962927
  0
VERTEX
  8
0
 62
7
  6
CONTINUOUS
 10
153.9868351303
 20
223.4901161406
  0
SEQEND
  0
LINE
  8
SURFACE
 62
7
  6
CONTINUOUS
 10
230.4132241708
 20
222.3700760848
 11
226.1632241708
 21
222.3700760848
  0
LINE
  8
0
 62
7
  6
CONTINUOUS
 10
220.0632241708
 20
222.3700760848
 11
217.736482468
 21
222.3700760848
  0
LINE
  8
SURFACE
 62
7
  6
CONTINUOUS
 10
211.6899658737
 20
222.3700760848
 11
208.8406666288
 21
222.3700760848
  0
LINE
  8
SURFACE
 62
7
  6
CONTINUOUS
 10
194.8899658737
 20
222.3700760848
 11
192.536482468
 21
222.3700760848
  0
LINE
  8
0
 62
7
  6
CONTINUOUS
 10
186.4899658737
 20
222.3700760848
 11
184.136482468
 21
222.3700760848
  0
LINE
  8
SURFACE
 62
7
  6
CONTINUOUS
 10
178.0899658737
 20
222.3700760848
 11
175.736482468
 21
222.3700760848
  0
LINE
  8
0
 62
7
  6
CONTINUOUS
 10
169.6899658737
 20
222.3700760848
 11
167.336482468
 21
222.3700760848
  0
LINE
  8
SURFACE
 62
7
  6
CONTINUOUS
 10
161.2899658737
 20
222.3700760848
 11
158.4406666288
 21
222.3700760848
  0
LINE
  8
SURFACE
 62
7
  6
CONTINUOUS
 10
144.4899658737
 20
222.3700760848
 11
142.136482468
 21
222.3700760848
  0
LINE
  8
0
 62
7
  6
CONTINUOUS
 10
136.0899658737
 20
222.3700760848
 11
133.736482468
 21
222.3700760848
  0
LINE
  8
SURFACE
 62
7
  6
CONTINUOUS
 10
127.6899658737
 20
222.3700760848
 11
125.336482468
 21
222.3700760848
  0
LINE
  8
0
 62
7
  6
CONTINUOUS
 10
119.2899658737
 20
222.3700760848
 11
116.936482468
 21
222.3700760848
  0
LINE
  8
SURFACE
 62
7
  6
CONTINUOUS
 10
110.8899658737
 20
222.3700760848
 11
108.536482468
 21
222.3700760848
  0
LINE
  8
0
 62
7
  6
CONTINUOUS
 10
102.4899658737
 20
222.3700760848
 11
100.136482468
 21
222.3700760848
  0
LINE
  8
0
 62
7
  6
CONTINUOUS
 10
94.0899658737
 20
222.3700760848
 11
91.7632241708
 21
222.3700760848
  0
LINE
  8
0
 62
7
  6
CONTINUOUS
 10
85.6632241708
 20
222.3700760848
 11
81.4132241708
 21
222.3700760848
  0
LINE
  8
SURFACE
 62
7
  6
CONTINUOUS
 10
150.536482468
 20
222.3700760848
 11
153.1657571136
 21
222.3700760848
  0
LINE
  8
0
 62
7
  6
CONTINUOUS
 10
150.536482468
 20
222.3700760848
 11
153.3857814324
 21
222.3700760848
  0
LINE
  8
0
 62
7
  6
CONTINUOUS
 10
158.4406668728
 20
222.3700760848
 11
161.2899658737
 21
222.3700760848
  0
LINE
  8
SURFACE
 62
7
  6
CONTINUOUS
 10
200.936482468
 20
222.3700760848
 11
203.5657571136
 21
222.3700760848
  0
LINE
  8
0
 62
7
  6
CONTINUOUS
 10
200.936482468
 20
222.3700760848
 11
203.7857814324
 21
222.3700760848
  0
LINE
  8
0
 62
7
  6
CONTINUOUS
 10
208.8406668728
 20
222.3700760848
 11
211.6899658737
 21
222.3700760848
  0
LINE
  8
SURFACE
 62
7
  6
CONTINUOUS
 10
217.736482468
 20
222.3700760848
 11
220.0632241708
 21
222.3700760848
  0
LINE
  8
0
 62
7
  6
CONTINUOUS
 10
226.1632241708
 20
222.3700760848
 11
230.4132241708
 21
222.3700760848
  0
POLYLINE
  8
0
 62
7
  6
CONTINUOUS
 66
1
 70
0
  0
VERTEX
  8
0
 62
7
  6
CONTINUOUS
 10
131.9109764455
 20
234.1877118953
  0
VERTEX
  8
0
 62
7
  6
CONTINUOUS
 10
131.9266743951
 20
234.1802232446
  0
VERTEX
  8
0
 62
7
  6
CONTINUOUS
 10
131.9438911145
 20
234.1735490147
  0
VERTEX
  8
0
 62
7
  6
CONTINUOUS
 10
131.962531991
 20
234.1677065479
  0
VERTEX
  8
0
 62
7
  6
CONTINUOUS
 10
131.9825572692
 20
234.1627319524
  0
VERTEX
  8
0
 62
7
  6
CONTINUOUS
 10
132.0038913998
 20
234.1586994503
  0
SEQEND
  0
LINE
  8
0
 62
7
  6
CONTINUOUS
 10
147.6208249187
 20
238.0635667118
 11
148.5632197382
 21
234.766187954
  0
POLYLINE
  8
0
 62
7
  6
CONTINUOUS
 66
1
 70
0
  0
VERTEX
  8
0
 62
7
  6
CONTINUOUS
 10
148.6640017804
 20
234.2385517815
  0
VERTEX
  8
0
 62
7
  6
CONTINUOUS
 10
148.6667997032
 20
234.2279983373
  0
VERTEX
  8
0
 62
7
  6
CONTINUOUS
 10
148.6730850646
 20
234.2173913085
  0
VERTEX
  8
0
 62
7
  6
CONTINUOUS
 10
148.6826650194
 20
234.2070303834
  0
VERTEX
  8
0
 62
7
  6
CONTINUOUS
 10
148.6953731977
 20
234.1970702685
  0
VERTEX
  8
0
 62
7
  6
CONTINUOUS
 10
148.7109764455
 20
234.1877118953
  0
SEQEND
  0
POLYLINE
  8
0
 62
7
  6
CONTINUOUS
 66
1
 70
0
  0
VERTEX
  8
0
 62
7
  6
CONTINUOUS
 10
149.163038604
 20
228.1355591369
  0
VERTEX
  8
0
 62
7
  6
CONTINUOUS
 10
149.1485312072
 20
228.2185376909
  0
VERTEX
  8
0
 62
7
  6
CONTINUOUS
 10
149.1383464082
 20
228.3111633258
  0
SEQEND
  0
POLYLINE
  8
0
 62
7
  6
CONTINUOUS
 66
1
 70
0
  0
VERTEX
  8
0
 62
7
  6
CONTINUOUS
 10
153.6013142164
 20
230.3700760848
  0
VERTEX
  8
0
 62
7
  6
CONTINUOUS
 10
153.6016489072
 20
230.1043119525
  0
VERTEX
  8
0
 62
7
  6
CONTINUOUS
 10
153.6026516162
 20
229.8396367798
  0
VERTEX
  8
0
 62
7
  6
CONTINUOUS
 10
153.604318258
 20
229.5771351674
  0
VERTEX
  8
0
 62
7
  6
CONTINUOUS
 10
153.6066420411
 20
229.3178830109
  0
VERTEX
  8
0
 62
7
  6
CONTINUOUS
 10
153.6096134934
 20
229.0629431747
  0
VERTEX
  8
0
 62
7
  6
CONTINUOUS
 10
153.6132204983
 20
228.8133612319
  0
VERTEX
  8
0
 62
7
  6
CONTINUOUS
 10
153.6174483412
 20
228.5701612253
  0
VERTEX
  8
0
 62
7
  6
CONTINUOUS
 10
153.6222797661
 20
228.3343415203
  0
VERTEX
  8
0
 62
7
  6
CONTINUOUS
 10
153.6276950417
 20
228.1068707585
  0
VERTEX
  8
0
 62
7
  6
CONTINUOUS
 10
153.6336720387
 20
227.8886838554
  0
VERTEX
  8
0
 62
7
  6
CONTINUOUS
 10
153.6401863158
 20
227.6806781811
  0
VERTEX
  8
0
 62
7
  6
CONTINUOUS
 10
153.647211215
 20
227.4837098458
  0
VERTEX
  8
0
 62
7
  6
CONTINUOUS
 10
153.654717969
 20
227.2985900979
  0
VERTEX
  8
0
 62
7
  6
CONTINUOUS
 10
153.6626758137
 20
227.1260819617
  0
VERTEX
  8
0
 62
7
  6
CONTINUOUS
 10
153.6710521125
 20
226.9668969959
  0
VERTEX
  8
0
 62
7
  6
CONTINUOUS
 10
153.6798124884
 20
226.821692265
  0
VERTEX
  8
0
 62
7
  6
CONTINUOUS
 10
153.6889209626
 20
226.691067552
  0
VERTEX
  8
0
 62
7
  6
CONTINUOUS
 10
153.6983401027
 20
226.5755627578
  0
VERTEX
  8
0
 62
7
  6
CONTINUOUS
 10
153.7080311762
 20
226.475655577
  0
VERTEX
  8
0
 62
7
  6
CONTINUOUS
 10
153.7179543101
 20
226.3917594264
  0
VERTEX
  8
0
 62
7
  6
CONTINUOUS
 10
153.7280686579
 20
226.324221627
  0
VERTEX
  8
0
 62
7
  6
CONTINUOUS
 10
153.738332569
 20
226.273321893
  0
VERTEX
  8
0
 62
7
  6
CONTINUOUS
 10
153.7487037631
 20
226.2392710975
  0
VERTEX
  8
0
 62
7
  6
CONTINUOUS
 10
153.7591395085
 20
226.2222103414
  0
VERTEX
  8
0
 62
7
  6
CONTINUOUS
 10
153.7643681604
 20
226.2200777435
  0
SEQEND
  0
LINE
  8
0
 62
7
  6
CONTINUOUS
 10
154.2131261708
 20
230.3700760848
 11
154.2131261708
 21
238.1700760848
  0
LINE
  8
0
 62
7
  6
CONTINUOUS
 10
155.8131261708
 20
238.0934775558
 11
155.8131261708
 21
238.1700760848
  0
LINE
  8
0
 62
7
  6
CONTINUOUS
 10
155.1586605799
 20
231.868700238
 11
155.1655329305
 21
234.370072685
  0
POLYLINE
  8
0
 62
7
  6
CONTINUOUS
 66
1
 70
0
  0
VERTEX
  8
0
 62
7
  6
CONTINUOUS
 10
154.110542613
 20
228.2086466901
  0
VERTEX
  8
0
 62
7
  6
CONTINUOUS
 10
154.1303467872
 20
229.6430115966
  0
VERTEX
  8
0
 62
7
  6
CONTINUOUS
 10
154.1413626643
 20
230.3700760848
  0
SEQEND
  0
POLYLINE
  8
0
 62
7
  6
CONTINUOUS
 66
1
 70
0
  0
VERTEX
  8
0
 62
7
  6
CONTINUOUS
 10
154.0763622079
 20
225.7722087651
  0
VERTEX
  8
0
 62
7
  6
CONTINUOUS
 10
154.0801024664
 20
225.9592435947
  0
VERTEX
  8
0
 62
7
  6
CONTINUOUS
 10
154.0836406628
 20
226.15437731
  0
VERTEX
  8
0
 62
7
  6
CONTINUOUS
 10
154.0869517116
 20
226.3576487489
  0
VERTEX
  8
0
 62
7
  6
CONTINUOUS
 10
154.0900093258
 20
226.5690682998
  0
VERTEX
  8
0
 62
7
  6
CONTINUOUS
 10
154.110542613
 20
228.2086466901
  0
SEQEND
  0
LINE
  8
0
 62
7
  6
CONTINUOUS
 10
154.0683693254
 20
225.4221247645
 11
154.0763622079
 21
225.7722087651
  0
LINE
  8
0
 62
7
  6
CONTINUOUS
 10
154.0598366472
 20
225.1032376078
 11
154.0683693254
 21
225.4221247645
  0
LINE
  8
0
 62
7
  6
CONTINUOUS
 10
154.0509174441
 20
224.8142814997
 11
154.0598366472
 21
225.1032376078
  0
LINE
  8
0
 62
7
  6
CONTINUOUS
 10
154.0417457234
 20
224.5537562828
 11
154.0509174441
 21
224.8142814997
  0
LINE
  8
0
 62
7
  6
CONTINUOUS
 10
154.032450889
 20
224.3203167656
 11
154.0417457234
 21
224.5537562828
  0
LINE
  8
0
 62
7
  6
CONTINUOUS
 10
154.023155413
 20
224.1125836274
 11
154.032450889
 21
224.3203167656
  0
LINE
  8
0
 62
7
  6
CONTINUOUS
 10
154.0139386539
 20
223.928422355
 11
154.023155413
 21
224.1125836274
  0
LINE
  8
0
 62
7
  6
CONTINUOUS
 10
154.0048149686
 20
223.7649103132
 11
154.0139386539
 21
223.928422355
  0
LINE
  8
0
 62
7
  6
CONTINUOUS
 10
153.995774562
 20
223.619380034
 11
154.0048149686
 21
223.7649103132
  0
LINE
  8
0
 62
7
  6
CONTINUOUS
 10
153.9868351303
 20
223.4901161406
 11
153.995774562
 21
223.619380034
  0
POLYLINE
  8
0
 62
7
  6
CONTINUOUS
 66
1
 70
0
  0
VERTEX
  8
0
 62
7
  6
CONTINUOUS
 10
154.2131261708
 20
234.1766852722
  0
VERTEX
  8
0
 62
7
  6
CONTINUOUS
 10
154.2203312281
 20
234.2023595041
  0
VERTEX
  8
0
 62
7
  6
CONTINUOUS
 10
154.2322742384
 20
234.2308312963
  0
VERTEX
  8
0
 62
7
  6
CONTINUOUS
 10
154.2476357499
 20
234.2576138001
  0
VERTEX
  8
0
 62
7
  6
CONTINUOUS
 10
154.2661814656
 20
234.2822985201
  0
VERTEX
  8
0
 62
7
  6
CONTINUOUS
 10
154.287628522
 20
234.3045089537
  0
VERTEX
  8
0
 62
7
  6
CONTINUOUS
 10
154.3116497932
 20
234.3239063289
  0
VERTEX
  8
0
 62
7
  6
CONTINUOUS
 10
154.3378788885
 20
234.3401947833
  0
VERTEX
  8
0
 62
7
  6
CONTINUOUS
 10
154.3659157196
 20
234.3531258691
  0
VERTEX
  8
0
 62
7
  6
CONTINUOUS
 10
154.3953313622
 20
234.3625020436
  0
VERTEX
  8
0
 62
7
  6
CONTINUOUS
 10
154.4256767021
 20
234.3681807475
  0
VERTEX
  8
0
 62
7
  6
CONTINUOUS
 10
154.4564019857
 20
234.3700760183
  0
SEQEND
  0
LINE
  8
0
 62
7
  6
CONTINUOUS
 10
154.9763111428
 20
235.1618564734
 11
155.6678649879
 21
237.5815588229
  0
POLYLINE
  8
0
 62
7
  6
CONTINUOUS
 66
1
 70
0
  0
VERTEX
  8
0
 62
7
  6
CONTINUOUS
 10
155.4739306605
 20
236.9029951058
  0
VERTEX
  8
0
 62
7
  6
CONTINUOUS
 10
155.4633198289
 20
236.8725073725
  0
VERTEX
  8
0
 62
7
  6
CONTINUOUS
 10
155.4496227182
 20
236.8439703434
  0
VERTEX
  8
0
 62
7
  6
CONTINUOUS
 10
155.433315933
 20
236.8179328528
  0
VERTEX
  8
0
 62
7
  6
CONTINUOUS
 10
155.4145824106
 20
236.7944098752
  0
VERTEX
  8
0
 62
7
  6
CONTINUOUS
 10
155.3938390068
 20
236.7737829585
  0
VERTEX
  8
0
 62
7
  6
CONTINUOUS
 10
155.3717164888
 20
236.7564697465
  0
VERTEX
  8
0
 62
7
  6
CONTINUOUS
 10
155.3488988673
 20
236.7426914729
  0
VERTEX
  8
0
 62
7
  6
CONTINUOUS
 10
155.3257663015
 20
236.7323485282
  0
VERTEX
  8
0
 62
7
  6
CONTINUOUS
 10
155.302630226
 20
236.7253052558
  0
VERTEX
  8
0
 62
7
  6
CONTINUOUS
 10
155.2797289862
 20
236.7214100868
  0
VERTEX
  8
0
 62
7
  6
CONTINUOUS
 10
155.257222127
 20
236.7205208405
  0
SEQEND
  0
POLYLINE
  8
0
 62
7
  6
CONTINUOUS
 66
1
 70
0
  0
VERTEX
  8
0
 62
7
  6
CONTINUOUS
 10
155.8131066344
 20
238.0941993985
  0
VERTEX
  8
0
 62
7
  6
CONTINUOUS
 10
155.8129175795
 20
238.0937393763
  0
VERTEX
  8
0
 62
7
  6
CONTINUOUS
 10
155.8105305625
 20
238.0880230965
  0
VERTEX
  8
0
 62
7
  6
CONTINUOUS
 10
155.8049662334
 20
238.0760118252
  0
VERTEX
  8
0
 62
7
  6
CONTINUOUS
 10
155.7949404128
 20
238.0576392664
  0
VERTEX
  8
0
 62
7
  6
CONTINUOUS
 10
155.7794410265
 20
238.0344608656
  0
VERTEX
  8
0
 62
7
  6
CONTINUOUS
 10
155.757897997
 20
238.0087630887
  0
VERTEX
  8
0
 62
7
  6
CONTINUOUS
 10
155.7297348448
 20
237.9825370688
  0
VERTEX
  8
0
 62
7
  6
CONTINUOUS
 10
155.69445624
 20
237.9578646368
  0
VERTEX
  8
0
 62
7
  6
CONTINUOUS
 10
155.6542437913
 20
237.9382275123
  0
VERTEX
  8
0
 62
7
  6
CONTINUOUS
 10
155.6161928464
 20
237.9267785534
  0
SEQEND
  0
LINE
  8
0
 62
7
  6
CONTINUOUS
 10
155.8131261706
 20
238.0942454968
 11
155.8131066344
 21
238.0941993985
  0
LINE
  8
0
 62
7
  6
CONTINUOUS
 10
163.4318473086
 20
234.1235112872
 11
161.9865487743
 21
233.330557572
  0
POLYLINE
  8
0
 62
7
  6
CONTINUOUS
 66
1
 70
0
  0
VERTEX
  8
0
 62
7
  6
CONTINUOUS
 10
206.0161921883
 20
237.9267784045
  0
VERTEX
  8
0
 62
7
  6
CONTINUOUS
 10
205.9536468264
 20
237.9135951067
  0
VERTEX
  8
0
 62
7
  6
CONTINUOUS
 10
205.8827654095
 20
237.8991576545
  0
VERTEX
  8
0
 62
7
  6
CONTINUOUS
 10
205.8041331561
 20
237.8837961176
  0
VERTEX
  8
0
 62
7
  6
CONTINUOUS
 10
205.7183560419
 20
237.8678514479
  0
VERTEX
  8
0
 62
7
  6
CONTINUOUS
 10
205.6257168731
 20
237.8516101728
  0
VERTEX
  8
0
 62
7
  6
CONTINUOUS
 10
205.5268379549
 20
237.8354227302
  0
VERTEX
  8
0
 62
7
  6
CONTINUOUS
 10
205.4223071837
 20
237.8196248939
  0
VERTEX
  8
0
 62
7
  6
CONTINUOUS
 10
205.3127366681
 20
237.8045423451
  0
VERTEX
  8
0
 62
7
  6
CONTINUOUS
 10
205.1989099263
 20
237.7905010625
  0
VERTEX
  8
0
 62
7
  6
CONTINUOUS
 10
205.0814402415
 20
237.7777749752
  0
VERTEX
  8
0
 62
7
  6
CONTINUOUS
 10
204.9609522578
 20
237.7666094718
  0
SEQEND
  0
POLYLINE
  8
0
 62
7
  6
CONTINUOUS
 66
1
 70
0
  0
VERTEX
  8
0
 62
7
  6
CONTINUOUS
 10
188.2225846769
 20
234.1587354348
  0
VERTEX
  8
0
 62
7
  6
CONTINUOUS
 10
188.2438980828
 20
234.1627646879
  0
VERTEX
  8
0
 62
7
  6
CONTINUOUS
 10
188.2639027361
 20
234.1677335676
  0
VERTEX
  8
0
 62
7
  6
CONTINUOUS
 10
188.2825296824
 20
234.173569805
  0
VERTEX
  8
0
 62
7
  6
CONTINUOUS
 10
188.2997354482
 20
234.1802366096
  0
VERTEX
  8
0
 62
7
  6
CONTINUOUS
 10
188.3154288207
 20
234.1877183975
  0
SEQEND
  0
POLYLINE
  8
0
 62
7
  6
CONTINUOUS
 66
1
 70
0
  0
VERTEX
  8
0
 62
7
  6
CONTINUOUS
 10
205.8162163996
 20
237.8861566908
  0
VERTEX
  8
0
 62
7
  6
CONTINUOUS
 10
205.8800555495
 20
237.8979032288
  0
VERTEX
  8
0
 62
7
  6
CONTINUOUS
 10
205.9509478639
 20
237.911706939
  0
VERTEX
  8
0
 62
7
  6
CONTINUOUS
 10
206.0138515005
 20
237.9245730649
  0
SEQEND
  0
LINE
  8
0
 62
7
  6
CONTINUOUS
 10
222.0678104018
 20
236.013569868
 11
222.1065633102
 21
236.0205684744
  0
POLYLINE
  8
0
 62
7
  6
CONTINUOUS
 66
1
 70
0
  0
VERTEX
  8
0
 62
7
  6
CONTINUOUS
 10
98.4038914061
 20
234.1586994493
  0
VERTEX
  8
0
 62
7
  6
CONTINUOUS
 10
98.4345633874
 20
234.1538883019
  0
VERTEX
  8
0
 62
7
  6
CONTINUOUS
 10
98.4653000839
 20
234.1493105869
  0
SEQEND
  0
POLYLINE
  8
0
 62
7
  6
CONTINUOUS
 66
1
 70
0
  0
VERTEX
  8
0
 62
7
  6
CONTINUOUS
 10
115.2038914061
 20
234.1586994493
  0
VERTEX
  8
0
 62
7
  6
CONTINUOUS
 10
115.2345633874
 20
234.1538883019
  0
VERTEX
  8
0
 62
7
  6
CONTINUOUS
 10
115.2653000839
 20
234.1493105869
  0
SEQEND
  0
POLYLINE
  8
0
 62
7
  6
CONTINUOUS
 66
1
 70
0
  0
VERTEX
  8
0
 62
7
  6
CONTINUOUS
 10
98.4653000839
 20
234.1493105869
  0
VERTEX
  8
0
 62
7
  6
CONTINUOUS
 10
98.5117578222
 20
234.1413550107
  0
VERTEX
  8
0
 62
7
  6
CONTINUOUS
 10
98.5565807937
 20
234.1311143521
  0
VERTEX
  8
0
 62
7
  6
CONTINUOUS
 10
98.599408235
 20
234.1184998268
  0
VERTEX
  8
0
 62
7
  6
CONTINUOUS
 10
98.6395772515
 20
234.1035119208
  0
VERTEX
  8
0
 62
7
  6
CONTINUOUS
 10
98.6766875814
 20
234.0860872854
  0
VERTEX
  8
0
 62
7
  6
CONTINUOUS
 10
98.7104994047
 20
234.0660398037
  0
VERTEX
  8
0
 62
7
  6
CONTINUOUS
 10
98.7403114421
 20
234.0434280521
  0
VERTEX
  8
0
 62
7
  6
CONTINUOUS
 10
98.765498482
 20
234.0184127039
  0
VERTEX
  8
0
 62
7
  6
CONTINUOUS
 10
98.7856919597
 20
233.9910649234
  0
VERTEX
  8
0
 62
7
  6
CONTINUOUS
 10
98.8006768151
 20
233.9611841793
  0
VERTEX
  8
0
 62
7
  6
CONTINUOUS
 10
98.8099612339
 20
233.9289331886
  0
VERTEX
  8
0
 62
7
  6
CONTINUOUS
 10
98.8131261708
 20
233.8946327945
  0
SEQEND
  0
POLYLINE
  8
0
 62
7
  6
CONTINUOUS
 66
1
 70
0
  0
VERTEX
  8
0
 62
7
  6
CONTINUOUS
 10
115.2653000839
 20
234.1493105869
  0
VERTEX
  8
0
 62
7
  6
CONTINUOUS
 10
115.3117578222
 20
234.1413550107
  0
VERTEX
  8
0
 62
7
  6
CONTINUOUS
 10
115.3565807937
 20
234.1311143521
  0
VERTEX
  8
0
 62
7
  6
CONTINUOUS
 10
115.399408235
 20
234.1184998268
  0
VERTEX
  8
0
 62
7
  6
CONTINUOUS
 10
115.4395772515
 20
234.1035119208
  0
VERTEX
  8
0
 62
7
  6
CONTINUOUS
 10
115.4766875814
 20
234.0860872854
  0
VERTEX
  8
0
 62
7
  6
CONTINUOUS
 10
115.5104994047
 20
234.0660398037
  0
VERTEX
  8
0
 62
7
  6
CONTINUOUS
 10
115.5403114421
 20
234.0434280521
  0
VERTEX
  8
0
 62
7
  6
CONTINUOUS
 10
115.565498482
 20
234.0184127039
  0
VERTEX
  8
0
 62
7
  6
CONTINUOUS
 10
115.5856919597
 20
233.9910649234
  0
VERTEX
  8
0
 62
7
  6
CONTINUOUS
 10
115.6006768151
 20
233.9611841793
  0
VERTEX
  8
0
 62
7
  6
CONTINUOUS
 10
115.6099612339
 20
233.9289331886
  0
VERTEX
  8
0
 62
7
  6
CONTINUOUS
 10
115.6131261708
 20
233.8946327945
  0
SEQEND
  0
POLYLINE
  8
0
 62
7
  6
CONTINUOUS
 66
1
 70
0
  0
VERTEX
  8
0
 62
7
  6
CONTINUOUS
 10
157.6695099943
 20
231.3700760848
  0
VERTEX
  8
0
 62
7
  6
CONTINUOUS
 10
157.6746093261
 20
231.0615308757
  0
VERTEX
  8
0
 62
7
  6
CONTINUOUS
 10
157.6961014974
 20
229.643015542
  0
VERTEX
  8
0
 62
7
  6
CONTINUOUS
 10
157.7159056942
 20
228.2086493153
  0
VERTEX
  8
0
 62
7
  6
CONTINUOUS
 10
157.7378277937
 20
226.4697286518
  0
SEQEND
  0
POLYLINE
  8
0
 62
7
  6
CONTINUOUS
 66
1
 70
0
  0
VERTEX
  8
0
 62
7
  6
CONTINUOUS
 10
157.7378277937
 20
226.4697286518
  0
VERTEX
  8
0
 62
7
  6
CONTINUOUS
 10
157.7425686719
 20
226.1683142756
  0
VERTEX
  8
0
 62
7
  6
CONTINUOUS
 10
157.7478011223
 20
225.8843678486
  0
VERTEX
  8
0
 62
7
  6
CONTINUOUS
 10
157.7534470019
 20
225.6177473664
  0
VERTEX
  8
0
 62
7
  6
CONTINUOUS
 10
157.7594340784
 20
225.3681752016
  0
VERTEX
  8
0
 62
7
  6
CONTINUOUS
 10
157.765696258
 20
225.135249922
  0
VERTEX
  8
0
 62
7
  6
CONTINUOUS
 10
157.7721736167
 20
224.9184663294
  0
VERTEX
  8
0
 62
7
  6
CONTINUOUS
 10
157.778812224
 20
224.7172388061
  0
VERTEX
  8
0
 62
7
  6
CONTINUOUS
 10
157.7855618009
 20
224.530977024
  0
VERTEX
  8
0
 62
7
  6
CONTINUOUS
 10
157.7923705954
 20
224.3591969081
  0
VERTEX
  8
0
 62
7
  6
CONTINUOUS
 10
157.7991895392
 20
224.2013731619
  0
VERTEX
  8
0
 62
7
  6
CONTINUOUS
 10
157.8059767639
 20
224.0568484634
  0
VERTEX
  8
0
 62
7
  6
CONTINUOUS
 10
157.8127162216
 20
223.9245225752
  0
VERTEX
  8
0
 62
7
  6
CONTINUOUS
 10
157.8194068658
 20
223.8032041207
  0
VERTEX
  8
0
 62
7
  6
CONTINUOUS
 10
157.8260546305
 20
223.6917902032
  0
VERTEX
  8
0
 62
7
  6
CONTINUOUS
 10
157.8326623055
 20
223.5894132273
  0
VERTEX
  8
0
 62
7
  6
CONTINUOUS
 10
157.8392100146
 20
223.4956506109
  0
VERTEX
  8
0
 62
7
  6
CONTINUOUS
 10
157.8456754975
 20
223.4101182092
  0
VERTEX
  8
0
 62
7
  6
CONTINUOUS
 10
157.8520391018
 20
223.3323961614
  0
VERTEX
  8
0
 62
7
  6
CONTINUOUS
 10
157.8582826472
 20
223.2620474129
  0
VERTEX
  8
0
 62
7
  6
CONTINUOUS
 10
157.8643815481
 20
223.1987018899
  0
VERTEX
  8
0
 62
7
  6
CONTINUOUS
 10
157.8703101939
 20
223.1419762672
  0
VERTEX
  8
0
 62
7
  6
CONTINUOUS
 10
157.8760706358
 20
223.0912328699
  0
VERTEX
  8
0
 62
7
  6
CONTINUOUS
 10
157.8817092386
 20
223.0455452145
  0
VERTEX
  8
0
 62
7
  6
CONTINUOUS
 10
157.887285591
 20
223.0040533058
  0
VERTEX
  8
0
 62
7
  6
CONTINUOUS
 10
157.8928513723
 20
222.9661129038
  0
VERTEX
  8
0
 62
7
  6
CONTINUOUS
 10
157.8984507536
 20
222.9312446152
  0
VERTEX
  8
0
 62
7
  6
CONTINUOUS
 10
157.904142682
 20
222.8989718245
  0
VERTEX
  8
0
 62
7
  6
CONTINUOUS
 10
157.9100053989
 20
222.8688165111
  0
VERTEX
  8
0
 62
7
  6
CONTINUOUS
 10
157.9161400348
 20
222.8403088842
  0
VERTEX
  8
0
 62
7
  6
CONTINUOUS
 10
157.9226832099
 20
222.812961295
  0
VERTEX
  8
0
 62
7
  6
CONTINUOUS
 10
157.9298354775
 20
222.7862083098
  0
VERTEX
  8
0
 62
7
  6
CONTINUOUS
 10
157.9378934749
 20
222.7593907728
  0
VERTEX
  8
0
 62
7
  6
CONTINUOUS
 10
157.9472798603
 20
222.731792311
  0
VERTEX
  8
0
 62
7
  6
CONTINUOUS
 10
157.9585150324
 20
222.7028430953
  0
VERTEX
  8
0
 62
7
  6
CONTINUOUS
 10
157.972211533
 20
222.6721775829
  0
VERTEX
  8
0
 62
7
  6
CONTINUOUS
 10
157.9890728671
 20
222.6396485289
  0
VERTEX
  8
0
 62
7
  6
CONTINUOUS
 10
158.0095536097
 20
222.6058447009
  0
VERTEX
  8
0
 62
7
  6
CONTINUOUS
 10
158.0335464105
 20
222.5721019275
  0
VERTEX
  8
0
 62
7
  6
CONTINUOUS
 10
158.0611130816
 20
222.5391476669
  0
VERTEX
  8
0
 62
7
  6
CONTINUOUS
 10
158.0931955458
 20
222.5067494593
  0
VERTEX
  8
0
 62
7
  6
CONTINUOUS
 10
158.1306963633
 20
222.475191502
  0
VERTEX
  8
0
 62
7
  6
CONTINUOUS
 10
158.1735409798
 20
222.4457642102
  0
VERTEX
  8
0
 62
7
  6
CONTINUOUS
 10
158.2211901231
 20
222.419831403
  0
VERTEX
  8
0
 62
7
  6
CONTINUOUS
 10
158.2727734545
 20
222.3985785289
  0
VERTEX
  8
0
 62
7
  6
CONTINUOUS
 10
158.327350736
 20
222.382860314
  0
VERTEX
  8
0
 62
7
  6
CONTINUOUS
 10
158.3838739175
 20
222.3732575206
  0
VERTEX
  8
0
 62
7
  6
CONTINUOUS
 10
158.4406676425
 20
222.3700761098
  0
SEQEND
  0
LINE
  8
0
 62
7
  6
CONTINUOUS
 10
156.6677877617
 20
231.8687002379
 11
156.6609154112
 21
234.370072685
  0
LINE
  8
0
 62
7
  6
CONTINUOUS
 10
157.6133221708
 20
230.3700760848
 11
157.6133221708
 21
231.3700760848
  0
LINE
  8
0
 62
7
  6
CONTINUOUS
 10
158.2060888234
 20
231.3935413479
 11
158.2580444305
 21
234.3700760848
  0
POLYLINE
  8
0
 62
7
  6
CONTINUOUS
 66
1
 70
0
  0
VERTEX
  8
0
 62
7
  6
CONTINUOUS
 10
171.5154288207
 20
234.1877183975
  0
VERTEX
  8
0
 62
7
  6
CONTINUOUS
 10
171.5310471921
 20
234.1970796766
  0
VERTEX
  8
0
 62
7
  6
CONTINUOUS
 10
171.5437667995
 20
234.2070427029
  0
VERTEX
  8
0
 62
7
  6
CONTINUOUS
 10
171.553358184
 20
234.2174103307
  0
VERTEX
  8
0
 62
7
  6
CONTINUOUS
 10
171.5596493238
 20
234.2280223091
  0
VERTEX
  8
0
 62
7
  6
CONTINUOUS
 10
171.5624493751
 20
234.238580086
  0
SEQEND
  0
POLYLINE
  8
0
 62
7
  6
CONTINUOUS
 66
1
 70
0
  0
VERTEX
  8
0
 62
7
  6
CONTINUOUS
 10
153.7643681604
 20
226.2200777435
  0
VERTEX
  8
0
 62
7
  6
CONTINUOUS
 10
153.7695968013
 20
226.2222103324
  0
VERTEX
  8
0
 62
7
  6
CONTINUOUS
 10
153.7800325469
 20
226.2392710706
  0
VERTEX
  8
0
 62
7
  6
CONTINUOUS
 10
153.7904037412
 20
226.273321849
  0
VERTEX
  8
0
 62
7
  6
CONTINUOUS
 10
153.8006676527
 20
226.3242215672
  0
VERTEX
  8
0
 62
7
  6
CONTINUOUS
 10
153.810782001
 20
226.3917593525
  0
VERTEX
  8
0
 62
7
  6
CONTINUOUS
 10
153.8207051355
 20
226.4756554909
  0
VERTEX
  8
0
 62
7
  6
CONTINUOUS
 10
153.8303962097
 20
226.5755626621
  0
VERTEX
  8
0
 62
7
  6
CONTINUOUS
 10
153.8398153505
 20
226.6910674491
  0
VERTEX
  8
0
 62
7
  6
CONTINUOUS
 10
153.8489238255
 20
226.8216921578
  0
VERTEX
  8
0
 62
7
  6
CONTINUOUS
 10
153.8576842022
 20
226.9668968869
  0
VERTEX
  8
0
 62
7
  6
CONTINUOUS
 10
153.8660605019
 20
227.1260818538
  0
VERTEX
  8
0
 62
7
  6
CONTINUOUS
 10
153.8740183474
 20
227.2985899936
  0
VERTEX
  8
0
 62
7
  6
CONTINUOUS
 10
153.8815251021
 20
227.4837097473
  0
VERTEX
  8
0
 62
7
  6
CONTINUOUS
 10
153.8885500021
 20
227.6806780904
  0
VERTEX
  8
0
 62
7
  6
CONTINUOUS
 10
153.8950642798
 20
227.8886837741
  0
VERTEX
  8
0
 62
7
  6
CONTINUOUS
 10
153.9010412774
 20
228.1068706877
  0
VERTEX
  8
0
 62
7
  6
CONTINUOUS
 10
153.9064565535
 20
228.3343414608
  0
VERTEX
  8
0
 62
7
  6
CONTINUOUS
 10
153.9112879788
 20
228.5701611771
  0
VERTEX
  8
0
 62
7
  6
CONTINUOUS
 10
153.915515822
 20
228.8133611948
  0
VERTEX
  8
0
 62
7
  6
CONTINUOUS
 10
153.9191228272
 20
229.0629431479
  0
VERTEX
  8
0
 62
7
  6
CONTINUOUS
 10
153.9220942796
 20
229.3178829932
  0
VERTEX
  8
0
 62
7
  6
CONTINUOUS
 10
153.9244180628
 20
229.5771351572
  0
VERTEX
  8
0
 62
7
  6
CONTINUOUS
 10
153.9260847047
 20
229.8396367752
  0
VERTEX
  8
0
 62
7
  6
CONTINUOUS
 10
153.9270874137
 20
230.1043119514
  0
VERTEX
  8
0
 62
7
  6
CONTINUOUS
 10
153.9274221045
 20
230.3700760848
  0
SEQEND
  0
LINE
  8
0
 62
7
  6
CONTINUOUS
 10
206.013851871
 20
237.9245731462
 11
206.0166043993
 21
237.9253875021
  0
POLYLINE
  8
0
 62
7
  6
CONTINUOUS
 66
1
 70
0
  0
VERTEX
  8
0
 62
7
  6
CONTINUOUS
 10
171.4225846769
 20
234.1587354348
  0
VERTEX
  8
0
 62
7
  6
CONTINUOUS
 10
171.4438980828
 20
234.1627646879
  0
VERTEX
  8
0
 62
7
  6
CONTINUOUS
 10
171.4639027361
 20
234.1677335676
  0
VERTEX
  8
0
 62
7
  6
CONTINUOUS
 10
171.4825296824
 20
234.173569805
  0
VERTEX
  8
0
 62
7
  6
CONTINUOUS
 10
171.4997354482
 20
234.1802366096
  0
VERTEX
  8
0
 62
7
  6
CONTINUOUS
 10
171.5154288207
 20
234.1877183975
  0
SEQEND
  0
POLYLINE
  8
0
 62
7
  6
CONTINUOUS
 66
1
 70
0
  0
VERTEX
  8
0
 62
7
  6
CONTINUOUS
 10
188.1609522578
 20
234.1493105869
  0
VERTEX
  8
0
 62
7
  6
CONTINUOUS
 10
188.1918010677
 20
234.1539054462
  0
VERTEX
  8
0
 62
7
  6
CONTINUOUS
 10
188.2225846715
 20
234.1587354339
  0
SEQEND
  0
POLYLINE
  8
0
 62
7
  6
CONTINUOUS
 66
1
 70
0
  0
VERTEX
  8
0
 62
7
  6
CONTINUOUS
 10
171.3609522578
 20
234.1493105869
  0
VERTEX
  8
0
 62
7
  6
CONTINUOUS
 10
171.3918010677
 20
234.1539054462
  0
VERTEX
  8
0
 62
7
  6
CONTINUOUS
 10
171.4225846715
 20
234.1587354339
  0
SEQEND
  0
POLYLINE
  8
0
 62
7
  6
CONTINUOUS
 66
1
 70
0
  0
VERTEX
  8
0
 62
7
  6
CONTINUOUS
 10
204.9609522578
 20
237.7666094718
  0
VERTEX
  8
0
 62
7
  6
CONTINUOUS
 10
204.912715713
 20
237.761838025
  0
VERTEX
  8
0
 62
7
  6
CONTINUOUS
 10
204.8662576716
 20
237.7557984025
  0
VERTEX
  8
0
 62
7
  6
CONTINUOUS
 10
204.8223625464
 20
237.7485183354
  0
VERTEX
  8
0
 62
7
  6
CONTINUOUS
 10
204.7817152403
 20
237.7400543625
  0
VERTEX
  8
0
 62
7
  6
CONTINUOUS
 10
204.7445577789
 20
237.7303957708
  0
VERTEX
  8
0
 62
7
  6
CONTINUOUS
 10
204.7111096151
 20
237.7194989596
  0
VERTEX
  8
0
 62
7
  6
CONTINUOUS
 10
204.6820098959
 20
237.707461758
  0
VERTEX
  8
0
 62
7
  6
CONTINUOUS
 10
204.6577623617
 20
237.6944280728
  0
VERTEX
  8
0
 62
7
  6
CONTINUOUS
 10
204.6385412306
 20
237.6804438661
  0
VERTEX
  8
0
 62
7
  6
CONTINUOUS
 10
204.6245052018
 20
237.6655113346
  0
VERTEX
  8
0
 62
7
  6
CONTINUOUS
 10
204.615976193
 20
237.6498137981
  0
VERTEX
  8
0
 62
7
  6
CONTINUOUS
 10
204.6131261708
 20
237.6335928102
  0
SEQEND
  0
POLYLINE
  8
0
 62
7
  6
CONTINUOUS
 66
1
 70
0
  0
VERTEX
  8
0
 62
7
  6
CONTINUOUS
 10
221.6791562887
 20
235.9704526817
  0
VERTEX
  8
0
 62
7
  6
CONTINUOUS
 10
221.801478917
 20
235.9816738286
  0
VERTEX
  8
0
 62
7
  6
CONTINUOUS
 10
221.8972264904
 20
235.9918023184
  0
VERTEX
  8
0
 62
7
  6
CONTINUOUS
 10
221.9904233276
 20
236.0031060455
  0
VERTEX
  8
0
 62
7
  6
CONTINUOUS
 10
222.067807566
 20
236.0135697496
  0
SEQEND
  0
LINE
  8
0
 62
7
  6
CONTINUOUS
 10
208.0850856773
 20
230.3700760848
 11
208.0133221708
 21
230.3700760848
  0
LINE
  8
0
 62
7
  6
CONTINUOUS
 10
103.8131261708
 20
230.3700760848
 11
103.0304022509
 21
230.3700760848
  0
LINE
  8
DEFAULT_1
 62
2
  6
CENTER
 10
89.2632241708
 20
230.3700760848
 11
103.0304022509
 21
230.3700760848
  0
LINE
  8
DEFAULT_1
 62
2
  6
CENTER
 10
208.0850856773
 20
230.3700760848
 11
233.4132241708
 21
230.3700760848
  0
LINE
  8
DEFAULT_1
 62
2
  6
CENTER
 10
204.6131261708
 20
230.3700760848
 11
208.0133221708
 21
230.3700760848
  0
LINE
  8
DEFAULT_1
 62
2
  6
CENTER
 10
154.2131261708
 20
230.3700760848
 11
157.6133221708
 21
230.3700760848
  0
LINE
  8
DEFAULT_1
 62
2
  6
CENTER
 10
103.8131261708
 20
230.3700760848
 11
107.2133221708
 21
230.3700760848
  0
LINE
  8
DEFAULT_1
 62
2
  6
CENTER
 10
157.6850856773
 20
230.3700760848
 11
203.3496615255
 21
230.3700760848
  0
LINE
  8
DEFAULT_1
 62
2
  6
CENTER
 10
107.2750909791
 20
230.3700760848
 11
152.9496615255
 21
230.3700760848
  0
LINE
  8
0
 62
7
  6
CONTINUOUS
 10
107.2133221708
 20
230.3700760848
 11
107.2750909791
 21
230.3700760848
  0
LINE
  8
0
 62
7
  6
CONTINUOUS
 10
152.9496615255
 20
230.3700760848
 11
154.2131261708
 21
230.3700760848
  0
LINE
  8
0
 62
7
  6
CONTINUOUS
 10
157.6133221708
 20
230.3700760848
 11
157.6850856773
 21
230.3700760848
  0
LINE
  8
0
 62
7
  6
CONTINUOUS
 10
203.3496615255
 20
230.3700760848
 11
204.6131261708
 21
230.3700760848
  0
LINE
  8
0
 62
7
  6
CONTINUOUS
 10
208.3006117193
 20
231.3700760848
 11
207.5677876669
 21
231.3700760848
  0
LINE
  8
0
 62
7
  6
CONTINUOUS
 10
205.058660672
 20
231.3700760848
 11
204.6131261708
 21
231.3700760848
  0
LINE
  8
0
 62
7
  6
CONTINUOUS
 10
157.9006117193
 20
231.3700760848
 11
157.1677876669
 21
231.3700760848
  0
LINE
  8
0
 62
7
  6
CONTINUOUS
 10
154.658660672
 20
231.3700760848
 11
154.2131261708
 21
231.3700760848
  0
LINE
  8
0
 62
7
  6
CONTINUOUS
 10
107.5006117193
 20
231.3700760848
 11
106.7677876669
 21
231.3700760848
  0
LINE
  8
0
 62
7
  6
CONTINUOUS
 10
104.258660672
 20
231.3700760848
 11
103.8131261708
 21
231.3700760848
  0
LINE
  8
SURFACE
 62
2
  6
CONTINUOUS
 10
103.5258270842
 20
231.3700760848
 11
107.5006117193
 21
231.3700760848
  0
LINE
  8
SURFACE
 62
2
  6
CONTINUOUS
 10
204.3258270842
 20
231.3700760848
 11
208.3006117193
 21
231.3700760848
  0
POLYLINE
  8
0
 62
7
  6
CONTINUOUS
 66
1
 70
0
  0
VERTEX
  8
0
 62
7
  6
CONTINUOUS
 10
104.8131261708
 20
236.7216587216
  0
VERTEX
  8
0
 62
7
  6
CONTINUOUS
 10
104.7351324629
 20
236.7256664548
  0
VERTEX
  8
0
 62
7
  6
CONTINUOUS
 10
104.6564427106
 20
236.7337713716
  0
VERTEX
  8
0
 62
7
  6
CONTINUOUS
 10
104.577866575
 20
236.7459994631
  0
VERTEX
  8
0
 62
7
  6
CONTINUOUS
 10
104.500176982
 20
236.7622736423
  0
VERTEX
  8
0
 62
7
  6
CONTINUOUS
 10
104.4234920823
 20
236.7826060561
  0
VERTEX
  8
0
 62
7
  6
CONTINUOUS
 10
104.348014933
 20
236.8070311723
  0
VERTEX
  8
0
 62
7
  6
CONTINUOUS
 10
104.274559461
 20
236.8353810332
  0
VERTEX
  8
0
 62
7
  6
CONTINUOUS
 10
104.2039450328
 20
236.8673982904
  0
VERTEX
  8
0
 62
7
  6
CONTINUOUS
 10
104.1364876035
 20
236.9030264954
  0
VERTEX
  8
0
 62
7
  6
CONTINUOUS
 10
104.0731927524
 20
236.9418515361
  0
VERTEX
  8
0
 62
7
  6
CONTINUOUS
 10
104.0152413119
 20
236.9832013036
  0
VERTEX
  8
0
 62
7
  6
CONTINUOUS
 10
103.9634647685
 20
237.0264716255
  0
VERTEX
  8
0
 62
7
  6
CONTINUOUS
 10
103.9183675283
 20
237.0712610278
  0
VERTEX
  8
0
 62
7
  6
CONTINUOUS
 10
103.880756039
 20
237.1168042136
  0
VERTEX
  8
0
 62
7
  6
CONTINUOUS
 10
103.851229103
 20
237.1623117987
  0
VERTEX
  8
0
 62
7
  6
CONTINUOUS
 10
103.8300265156
 20
237.2072847761
  0
VERTEX
  8
0
 62
7
  6
CONTINUOUS
 10
103.8173272991
 20
237.2511461979
  0
VERTEX
  8
0
 62
7
  6
CONTINUOUS
 10
103.8131261708
 20
237.2933870056
  0
SEQEND
  0
POLYLINE
  8
0
 62
7
  6
CONTINUOUS
 66
1
 70
0
  0
VERTEX
  8
0
 62
7
  6
CONTINUOUS
 10
132.0038914061
 20
234.1586994493
  0
VERTEX
  8
0
 62
7
  6
CONTINUOUS
 10
132.0345633874
 20
234.1538883019
  0
VERTEX
  8
0
 62
7
  6
CONTINUOUS
 10
132.0653000839
 20
234.1493105869
  0
SEQEND
  0
POLYLINE
  8
0
 62
7
  6
CONTINUOUS
 66
1
 70
0
  0
VERTEX
  8
0
 62
7
  6
CONTINUOUS
 10
148.8038914061
 20
234.1586994493
  0
VERTEX
  8
0
 62
7
  6
CONTINUOUS
 10
148.8345633874
 20
234.1538883019
  0
VERTEX
  8
0
 62
7
  6
CONTINUOUS
 10
148.8653000839
 20
234.1493105869
  0
SEQEND
  0
POLYLINE
  8
0
 62
7
  6
CONTINUOUS
 66
1
 70
0
  0
VERTEX
  8
0
 62
7
  6
CONTINUOUS
 10
132.0653000839
 20
234.1493105869
  0
VERTEX
  8
0
 62
7
  6
CONTINUOUS
 10
132.1117578222
 20
234.1413550107
  0
VERTEX
  8
0
 62
7
  6
CONTINUOUS
 10
132.1565807937
 20
234.1311143521
  0
VERTEX
  8
0
 62
7
  6
CONTINUOUS
 10
132.199408235
 20
234.1184998268
  0
VERTEX
  8
0
 62
7
  6
CONTINUOUS
 10
132.2395772515
 20
234.1035119208
  0
VERTEX
  8
0
 62
7
  6
CONTINUOUS
 10
132.2766875814
 20
234.0860872854
  0
VERTEX
  8
0
 62
7
  6
CONTINUOUS
 10
132.3104994047
 20
234.0660398037
  0
VERTEX
  8
0
 62
7
  6
CONTINUOUS
 10
132.3403114421
 20
234.0434280521
  0
VERTEX
  8
0
 62
7
  6
CONTINUOUS
 10
132.365498482
 20
234.0184127039
  0
VERTEX
  8
0
 62
7
  6
CONTINUOUS
 10
132.3856919597
 20
233.9910649234
  0
VERTEX
  8
0
 62
7
  6
CONTINUOUS
 10
132.4006768151
 20
233.9611841793
  0
VERTEX
  8
0
 62
7
  6
CONTINUOUS
 10
132.4099612339
 20
233.9289331886
  0
VERTEX
  8
0
 62
7
  6
CONTINUOUS
 10
132.4131261708
 20
233.8946327945
  0
SEQEND
  0
POLYLINE
  8
0
 62
7
  6
CONTINUOUS
 66
1
 70
0
  0
VERTEX
  8
0
 62
7
  6
CONTINUOUS
 10
148.8653000839
 20
234.1493105869
  0
VERTEX
  8
0
 62
7
  6
CONTINUOUS
 10
148.9117578222
 20
234.1413550107
  0
VERTEX
  8
0
 62
7
  6
CONTINUOUS
 10
148.9565807937
 20
234.1311143521
  0
VERTEX
  8
0
 62
7
  6
CONTINUOUS
 10
148.999408235
 20
234.1184998268
  0
VERTEX
  8
0
 62
7
  6
CONTINUOUS
 10
149.0395772515
 20
234.1035119208
  0
VERTEX
  8
0
 62
7
  6
CONTINUOUS
 10
149.0766875814
 20
234.0860872854
  0
VERTEX
  8
0
 62
7
  6
CONTINUOUS
 10
149.1104994047
 20
234.0660398037
  0
VERTEX
  8
0
 62
7
  6
CONTINUOUS
 10
149.1403114421
 20
234.0434280521
  0
VERTEX
  8
0
 62
7
  6
CONTINUOUS
 10
149.165498482
 20
234.0184127039
  0
VERTEX
  8
0
 62
7
  6
CONTINUOUS
 10
149.1856919597
 20
233.9910649234
  0
VERTEX
  8
0
 62
7
  6
CONTINUOUS
 10
149.2006768151
 20
233.9611841793
  0
VERTEX
  8
0
 62
7
  6
CONTINUOUS
 10
149.2099612339
 20
233.9289331886
  0
VERTEX
  8
0
 62
7
  6
CONTINUOUS
 10
149.2131261708
 20
233.8946327945
  0
SEQEND
  0
POLYLINE
  8
0
 62
7
  6
CONTINUOUS
 66
1
 70
0
  0
VERTEX
  8
0
 62
7
  6
CONTINUOUS
 10
148.7109764455
 20
234.1877118953
  0
VERTEX
  8
0
 62
7
  6
CONTINUOUS
 10
148.7266743951
 20
234.1802232446
  0
VERTEX
  8
0
 62
7
  6
CONTINUOUS
 10
148.7438911145
 20
234.1735490147
  0
VERTEX
  8
0
 62
7
  6
CONTINUOUS
 10
148.762531991
 20
234.1677065479
  0
VERTEX
  8
0
 62
7
  6
CONTINUOUS
 10
148.7825572692
 20
234.1627319524
  0
VERTEX
  8
0
 62
7
  6
CONTINUOUS
 10
148.8038913998
 20
234.1586994503
  0
SEQEND
  0
LINE
  8
SURFACE
 62
7
  6
CONTINUOUS
 10
166.3321105877
 20
223.3848697492
 11
166.3396617341
 21
223.2903990836
  0
LINE
  8
0
 62
7
  6
CONTINUOUS
 10
166.3335131862
 20
223.3673221606
 11
166.0137614176
 21
227.3676633878
  0
LINE
  8
0
 62
7
  6
CONTINUOUS
 10
166.0122337312
 20
227.3867759227
 11
165.4691787542
 21
234.1808125062
  0
POLYLINE
  8
0
 62
7
  6
CONTINUOUS
 66
1
 70
0
  0
VERTEX
  8
0
 62
7
  6
CONTINUOUS
 10
165.6874806966
 20
231.4496868365
  0
VERTEX
  8
0
 62
7
  6
CONTINUOUS
 10
165.6835419673
 20
231.5184211166
  0
VERTEX
  8
0
 62
7
  6
CONTINUOUS
 10
165.6829660343
 20
231.5803736323
  0
VERTEX
  8
0
 62
7
  6
CONTINUOUS
 10
165.6853273317
 20
231.636020821
  0
VERTEX
  8
0
 62
7
  6
CONTINUOUS
 10
165.6902639625
 20
231.6858659229
  0
VERTEX
  8
0
 62
7
  6
CONTINUOUS
 10
165.6975310579
 20
231.7306458351
  0
VERTEX
  8
0
 62
7
  6
CONTINUOUS
 10
165.7069651453
 20
231.7708159602
  0
VERTEX
  8
0
 62
7
  6
CONTINUOUS
 10
165.7185015287
 20
231.8067737392
  0
SEQEND
  0
POLYLINE
  8
0
 62
7
  6
CONTINUOUS
 66
1
 70
0
  0
VERTEX
  8
0
 62
7
  6
CONTINUOUS
 10
166.0131261708
 20
227.7090287077
  0
VERTEX
  8
0
 62
7
  6
CONTINUOUS
 10
166.0102219038
 20
227.8029155037
  0
VERTEX
  8
0
 62
7
  6
CONTINUOUS
 10
166.0012053531
 20
227.9049240811
  0
VERTEX
  8
0
 62
7
  6
CONTINUOUS
 10
165.9856214076
 20
228.0156304867
  0
VERTEX
  8
0
 62
7
  6
CONTINUOUS
 10
165.9630375084
 20
228.1355650259
  0
SEQEND
  0
LINE
  8
0
 62
7
  6
CONTINUOUS
 10
161.9865487743
 20
233.330557572
 11
161.9684039111
 21
234.3700760848
  0
LINE
  8
0
 62
7
  6
CONTINUOUS
 10
164.4131261708
 20
238.1178573661
 11
164.4131261708
 21
238.1700760848
  0
LINE
  8
0
 62
7
  6
CONTINUOUS
 10
166.0131261708
 20
238.1700760848
 11
166.0131261708
 21
227.3836015998
  0
LINE
  8
SURFACE
 62
7
  6
CONTINUOUS
 10
163.0767664591
 20
233.1736562837
 11
162.2867866075
 21
223.2903990836
  0
POLYLINE
  8
0
 62
7
  6
CONTINUOUS
 66
1
 70
0
  0
VERTEX
  8
0
 62
7
  6
CONTINUOUS
 10
165.7185010921
 20
231.8067725096
  0
VERTEX
  8
0
 62
7
  6
CONTINUOUS
 10
165.7871047011
 20
231.9971079555
  0
VERTEX
  8
0
 62
7
  6
CONTINUOUS
 10
165.8483815854
 20
232.1802427016
  0
VERTEX
  8
0
 62
7
  6
CONTINUOUS
 10
165.9005499196
 20
232.3532132678
  0
VERTEX
  8
0
 62
7
  6
CONTINUOUS
 10
165.9427363302
 20
232.5143838842
  0
VERTEX
  8
0
 62
7
  6
CONTINUOUS
 10
165.9746013695
 20
232.6624106533
  0
VERTEX
  8
0
 62
7
  6
CONTINUOUS
 10
165.996495199
 20
232.7973053496
  0
VERTEX
  8
0
 62
7
  6
CONTINUOUS
 10
166.0090933603
 20
232.9199193
  0
VERTEX
  8
0
 62
7
  6
CONTINUOUS
 10
166.0131261708
 20
233.0311234619
  0
SEQEND
  0
POLYLINE
  8
0
 62
7
  6
CONTINUOUS
 66
1
 70
0
  0
VERTEX
  8
0
 62
7
  6
CONTINUOUS
 10
155.6161921883
 20
237.9267784045
  0
VERTEX
  8
0
 62
7
  6
CONTINUOUS
 10
155.5536468264
 20
237.9135951067
  0
VERTEX
  8
0
 62
7
  6
CONTINUOUS
 10
155.4827654095
 20
237.8991576545
  0
VERTEX
  8
0
 62
7
  6
CONTINUOUS
 10
155.4041331561
 20
237.8837961176
  0
VERTEX
  8
0
 62
7
  6
CONTINUOUS
 10
155.3183560419
 20
237.8678514479
  0
VERTEX
  8
0
 62
7
  6
CONTINUOUS
 10
155.2257168731
 20
237.8516101728
  0
VERTEX
  8
0
 62
7
  6
CONTINUOUS
 10
155.1268379549
 20
237.8354227302
  0
VERTEX
  8
0
 62
7
  6
CONTINUOUS
 10
155.0223071837
 20
237.8196248939
  0
VERTEX
  8
0
 62
7
  6
CONTINUOUS
 10
154.9127366681
 20
237.8045423451
  0
VERTEX
  8
0
 62
7
  6
CONTINUOUS
 10
154.7989099263
 20
237.7905010625
  0
VERTEX
  8
0
 62
7
  6
CONTINUOUS
 10
154.6814402415
 20
237.7777749752
  0
VERTEX
  8
0
 62
7
  6
CONTINUOUS
 10
154.5609522578
 20
237.7666094718
  0
SEQEND
  0
POLYLINE
  8
0
 62
7
  6
CONTINUOUS
 66
1
 70
0
  0
VERTEX
  8
0
 62
7
  6
CONTINUOUS
 10
137.8225846769
 20
234.1587354348
  0
VERTEX
  8
0
 62
7
  6
CONTINUOUS
 10
137.8438980828
 20
234.1627646879
  0
VERTEX
  8
0
 62
7
  6
CONTINUOUS
 10
137.8639027361
 20
234.1677335676
  0
VERTEX
  8
0
 62
7
  6
CONTINUOUS
 10
137.8825296824
 20
234.173569805
  0
VERTEX
  8
0
 62
7
  6
CONTINUOUS
 10
137.8997354482
 20
234.1802366096
  0
VERTEX
  8
0
 62
7
  6
CONTINUOUS
 10
137.9154288207
 20
234.1877183975
  0
SEQEND
  0
POLYLINE
  8
0
 62
7
  6
CONTINUOUS
 66
1
 70
0
  0
VERTEX
  8
0
 62
7
  6
CONTINUOUS
 10
155.4162163996
 20
237.8861566908
  0
VERTEX
  8
0
 62
7
  6
CONTINUOUS
 10
155.4800555495
 20
237.8979032288
  0
VERTEX
  8
0
 62
7
  6
CONTINUOUS
 10
155.5509478639
 20
237.911706939
  0
VERTEX
  8
0
 62
7
  6
CONTINUOUS
 10
155.6138515005
 20
237.9245730649
  0
SEQEND
  0
POLYLINE
  8
0
 62
7
  6
CONTINUOUS
 66
1
 70
0
  0
VERTEX
  8
0
 62
7
  6
CONTINUOUS
 10
137.7609522578
 20
234.1493105869
  0
VERTEX
  8
0
 62
7
  6
CONTINUOUS
 10
137.7918010677
 20
234.1539054462
  0
VERTEX
  8
0
 62
7
  6
CONTINUOUS
 10
137.8225846715
 20
234.1587354339
  0
SEQEND
  0
POLYLINE
  8
0
 62
7
  6
CONTINUOUS
 66
1
 70
0
  0
VERTEX
  8
0
 62
7
  6
CONTINUOUS
 10
154.5609522578
 20
237.7666094718
  0
VERTEX
  8
0
 62
7
  6
CONTINUOUS
 10
154.512715713
 20
237.761838025
  0
VERTEX
  8
0
 62
7
  6
CONTINUOUS
 10
154.4662576716
 20
237.7557984025
  0
VERTEX
  8
0
 62
7
  6
CONTINUOUS
 10
154.4223625464
 20
237.7485183354
  0
VERTEX
  8
0
 62
7
  6
CONTINUOUS
 10
154.3817152403
 20
237.7400543625
  0
VERTEX
  8
0
 62
7
  6
CONTINUOUS
 10
154.3445577789
 20
237.7303957708
  0
VERTEX
  8
0
 62
7
  6
CONTINUOUS
 10
154.3111096151
 20
237.7194989596
  0
VERTEX
  8
0
 62
7
  6
CONTINUOUS
 10
154.2820098959
 20
237.707461758
  0
VERTEX
  8
0
 62
7
  6
CONTINUOUS
 10
154.2577623617
 20
237.6944280728
  0
VERTEX
  8
0
 62
7
  6
CONTINUOUS
 10
154.2385412306
 20
237.6804438661
  0
VERTEX
  8
0
 62
7
  6
CONTINUOUS
 10
154.2245052018
 20
237.6655113346
  0
VERTEX
  8
0
 62
7
  6
CONTINUOUS
 10
154.215976193
 20
237.6498137981
  0
VERTEX
  8
0
 62
7
  6
CONTINUOUS
 10
154.2131261708
 20
237.6335928102
  0
SEQEND
  0
LINE
  8
SURFACE
 62
7
  6
CONTINUOUS
 10
230.9132241708
 20
234.3700760848
 11
223.1726334054
 21
234.3700760848
  0
LINE
  8
SURFACE
 62
7
  6
CONTINUOUS
 10
214.6538149363
 20
234.3700760848
 11
206.3726336034
 21
234.3700760848
  0
LINE
  8
SURFACE
 62
7
  6
CONTINUOUS
 10
197.8538149363
 20
234.3700760848
 11
189.5726334054
 21
234.3700760848
  0
LINE
  8
SURFACE
 62
7
  6
CONTINUOUS
 10
181.0538149363
 20
234.3700760848
 11
172.7726334054
 21
234.3700760848
  0
LINE
  8
SURFACE
 62
7
  6
CONTINUOUS
 10
164.2538149363
 20
234.3700760848
 11
155.9726336034
 21
234.3700760848
  0
LINE
  8
SURFACE
 62
7
  6
CONTINUOUS
 10
147.4538149363
 20
234.3700760848
 11
139.1726334054
 21
234.3700760848
  0
LINE
  8
SURFACE
 62
7
  6
CONTINUOUS
 10
130.6538149363
 20
234.3700760848
 11
122.3726334054
 21
234.3700760848
  0
LINE
  8
SURFACE
 62
7
  6
CONTINUOUS
 10
113.8538149363
 20
234.3700760848
 11
105.5726334054
 21
234.3700760848
  0
LINE
  8
0
 62
7
  6
CONTINUOUS
 10
97.0538149363
 20
234.3700760848
 11
88.7726334054
 21
234.3700760848
  0
LINE
  8
0
 62
7
  6
CONTINUOUS
 10
103.8131261708
 20
234.3700760848
 11
113.8538149363
 21
234.3700760848
  0
LINE
  8
0
 62
7
  6
CONTINUOUS
 10
154.2914252344
 20
234.3700760848
 11
164.2538149363
 21
234.3700760848
  0
LINE
  8
0
 62
7
  6
CONTINUOUS
 10
204.6914252344
 20
234.3700760848
 11
214.6538149363
 21
234.3700760848
  0
LINE
  8
0
 62
7
  6
CONTINUOUS
 10
223.1726334054
 20
234.3700760848
 11
230.9132241708
 21
234.3700760848
  0
LINE
  8
0
 62
7
  6
CONTINUOUS
 10
88.6131261708
 20
238.1700760848
 11
89.0007524758
 21
238.1700760848
  0
LINE
  8
0
 62
7
  6
CONTINUOUS
 10
96.8255416833
 20
238.1700760848
 11
97.2131261708
 21
238.1700760848
  0
LINE
  8
0
 62
7
  6
CONTINUOUS
 10
105.4131261708
 20
238.1700760848
 11
105.8007499398
 21
238.1700760848
  0
LINE
  8
0
 62
7
  6
CONTINUOUS
 10
113.6255416833
 20
238.1700760848
 11
114.0131261708
 21
238.1700760848
  0
LINE
  8
0
 62
7
  6
CONTINUOUS
 10
122.2131261708
 20
238.1700760848
 11
122.6007524758
 21
238.1700760848
  0
LINE
  8
0
 62
7
  6
CONTINUOUS
 10
130.4255416833
 20
238.1700760848
 11
130.8131261708
 21
238.1700760848
  0
LINE
  8
0
 62
7
  6
CONTINUOUS
 10
139.0131261708
 20
238.1700760848
 11
139.4007524758
 21
238.1700760848
  0
LINE
  8
0
 62
7
  6
CONTINUOUS
 10
147.2255416833
 20
238.1700760848
 11
147.6131261708
 21
238.1700760848
  0
LINE
  8
0
 62
7
  6
CONTINUOUS
 10
155.8131261708
 20
238.1700760848
 11
156.2007499398
 21
238.1700760848
  0
LINE
  8
0
 62
7
  6
CONTINUOUS
 10
164.0255416833
 20
238.1700760848
 11
164.4131261708
 21
238.1700760848
  0
LINE
  8
0
 62
7
  6
CONTINUOUS
 10
172.6131261708
 20
238.1700760848
 11
173.0007524758
 21
238.1700760848
  0
LINE
  8
0
 62
7
  6
CONTINUOUS
 10
180.8255416833
 20
238.1700760848
 11
181.2131261708
 21
238.1700760848
  0
LINE
  8
0
 62
7
  6
CONTINUOUS
 10
189.4131261708
 20
238.1700760848
 11
189.8007524758
 21
238.1700760848
  0
LINE
  8
0
 62
7
  6
CONTINUOUS
 10
197.6255416833
 20
238.1700760848
 11
198.0131261708
 21
238.1700760848
  0
LINE
  8
0
 62
7
  6
CONTINUOUS
 10
206.2131261708
 20
238.1700760848
 11
206.6007499398
 21
238.1700760848
  0
LINE
  8
0
 62
7
  6
CONTINUOUS
 10
214.4255416833
 20
238.1700760848
 11
214.8131261708
 21
238.1700760848
  0
LINE
  8
0
 62
7
  6
CONTINUOUS
 10
223.0131261708
 20
238.1700760848
 11
223.4007524758
 21
238.1700760848
  0
LINE
  8
SURFACE
 62
7
  6
CONTINUOUS
 10
199.8131261708
 20
238.3700760848
 11
204.4131261708
 21
238.3700760848
  0
LINE
  8
0
 62
7
  6
CONTINUOUS
 10
80.6132241708
 20
238.3700760848
 11
231.2132241708
 21
238.3700760848
  0
LINE
  8
0
 62
7
  6
CONTINUOUS
 10
105.0205729384
 20
236.7162998739
 11
104.8131261708
 21
236.7216587216
  0
LINE
  8
0
 62
7
  6
CONTINUOUS
 10
155.257222127
 20
236.7205208405
 11
155.2131261708
 21
236.7216587216
  0
LINE
  8
0
 62
7
  6
CONTINUOUS
 10
205.657222127
 20
236.7205208405
 11
205.6131261708
 21
236.7216587216
  0
POLYLINE
  8
0
 62
7
  6
CONTINUOUS
 66
1
 70
0
  0
VERTEX
  8
0
 62
7
  6
CONTINUOUS
 10
155.2131261708
 20
236.7216587216
  0
VERTEX
  8
0
 62
7
  6
CONTINUOUS
 10
155.1351324629
 20
236.7256664548
  0
VERTEX
  8
0
 62
7
  6
CONTINUOUS
 10
155.0564427106
 20
236.7337713716
  0
VERTEX
  8
0
 62
7
  6
CONTINUOUS
 10
154.977866575
 20
236.7459994631
  0
VERTEX
  8
0
 62
7
  6
CONTINUOUS
 10
154.900176982
 20
236.7622736423
  0
VERTEX
  8
0
 62
7
  6
CONTINUOUS
 10
154.8234920823
 20
236.7826060561
  0
VERTEX
  8
0
 62
7
  6
CONTINUOUS
 10
154.748014933
 20
236.8070311723
  0
VERTEX
  8
0
 62
7
  6
CONTINUOUS
 10
154.674559461
 20
236.8353810332
  0
VERTEX
  8
0
 62
7
  6
CONTINUOUS
 10
154.6039450328
 20
236.8673982904
  0
VERTEX
  8
0
 62
7
  6
CONTINUOUS
 10
154.5364876035
 20
236.9030264954
  0
VERTEX
  8
0
 62
7
  6
CONTINUOUS
 10
154.4731927524
 20
236.9418515361
  0
VERTEX
  8
0
 62
7
  6
CONTINUOUS
 10
154.415241312
 20
236.9832013036
  0
VERTEX
  8
0
 62
7
  6
CONTINUOUS
 10
154.3634647686
 20
237.0264716255
  0
VERTEX
  8
0
 62
7
  6
CONTINUOUS
 10
154.3183675283
 20
237.0712610277
  0
VERTEX
  8
0
 62
7
  6
CONTINUOUS
 10
154.280756039
 20
237.1168042135
  0
VERTEX
  8
0
 62
7
  6
CONTINUOUS
 10
154.251229103
 20
237.1623117987
  0
VERTEX
  8
0
 62
7
  6
CONTINUOUS
 10
154.2300265156
 20
237.2072847761
  0
VERTEX
  8
0
 62
7
  6
CONTINUOUS
 10
154.2173272991
 20
237.2511461979
  0
VERTEX
  8
0
 62
7
  6
CONTINUOUS
 10
154.2131261708
 20
237.2933870056
  0
SEQEND
  0
POLYLINE
  8
0
 62
7
  6
CONTINUOUS
 66
1
 70
0
  0
VERTEX
  8
0
 62
7
  6
CONTINUOUS
 10
165.6038914061
 20
234.1586994493
  0
VERTEX
  8
0
 62
7
  6
CONTINUOUS
 10
165.6345633874
 20
234.1538883019
  0
VERTEX
  8
0
 62
7
  6
CONTINUOUS
 10
165.6653000839
 20
234.1493105869
  0
SEQEND
  0
POLYLINE
  8
0
 62
7
  6
CONTINUOUS
 66
1
 70
0
  0
VERTEX
  8
0
 62
7
  6
CONTINUOUS
 10
182.4038914061
 20
234.1586994493
  0
VERTEX
  8
0
 62
7
  6
CONTINUOUS
 10
182.4345633874
 20
234.1538883019
  0
VERTEX
  8
0
 62
7
  6
CONTINUOUS
 10
182.4653000839
 20
234.1493105869
  0
SEQEND
  0
POLYLINE
  8
0
 62
7
  6
CONTINUOUS
 66
1
 70
0
  0
VERTEX
  8
0
 62
7
  6
CONTINUOUS
 10
165.6653000839
 20
234.1493105869
  0
VERTEX
  8
0
 62
7
  6
CONTINUOUS
 10
165.7117578222
 20
234.1413550107
  0
VERTEX
  8
0
 62
7
  6
CONTINUOUS
 10
165.7565807937
 20
234.1311143521
  0
VERTEX
  8
0
 62
7
  6
CONTINUOUS
 10
165.799408235
 20
234.1184998268
  0
VERTEX
  8
0
 62
7
  6
CONTINUOUS
 10
165.8395772515
 20
234.1035119208
  0
VERTEX
  8
0
 62
7
  6
CONTINUOUS
 10
165.8766875814
 20
234.0860872854
  0
VERTEX
  8
0
 62
7
  6
CONTINUOUS
 10
165.9104994047
 20
234.0660398037
  0
VERTEX
  8
0
 62
7
  6
CONTINUOUS
 10
165.9403114421
 20
234.0434280521
  0
VERTEX
  8
0
 62
7
  6
CONTINUOUS
 10
165.965498482
 20
234.0184127039
  0
VERTEX
  8
0
 62
7
  6
CONTINUOUS
 10
165.9856919597
 20
233.9910649234
  0
VERTEX
  8
0
 62
7
  6
CONTINUOUS
 10
166.0006768151
 20
233.9611841793
  0
VERTEX
  8
0
 62
7
  6
CONTINUOUS
 10
166.0099612339
 20
233.9289331886
  0
VERTEX
  8
0
 62
7
  6
CONTINUOUS
 10
166.0131261708
 20
233.8946327945
  0
SEQEND
  0
POLYLINE
  8
0
 62
7
  6
CONTINUOUS
 66
1
 70
0
  0
VERTEX
  8
0
 62
7
  6
CONTINUOUS
 10
182.4653000839
 20
234.1493105869
  0
VERTEX
  8
0
 62
7
  6
CONTINUOUS
 10
182.5117578222
 20
234.1413550107
  0
VERTEX
  8
0
 62
7
  6
CONTINUOUS
 10
182.5565807937
 20
234.1311143521
  0
VERTEX
  8
0
 62
7
  6
CONTINUOUS
 10
182.599408235
 20
234.1184998268
  0
VERTEX
  8
0
 62
7
  6
CONTINUOUS
 10
182.6395772515
 20
234.1035119208
  0
VERTEX
  8
0
 62
7
  6
CONTINUOUS
 10
182.6766875814
 20
234.0860872854
  0
VERTEX
  8
0
 62
7
  6
CONTINUOUS
 10
182.7104994047
 20
234.0660398037
  0
VERTEX
  8
0
 62
7
  6
CONTINUOUS
 10
182.7403114421
 20
234.0434280521
  0
VERTEX
  8
0
 62
7
  6
CONTINUOUS
 10
182.765498482
 20
234.0184127039
  0
VERTEX
  8
0
 62
7
  6
CONTINUOUS
 10
182.7856919597
 20
233.9910649234
  0
VERTEX
  8
0
 62
7
  6
CONTINUOUS
 10
182.8006768151
 20
233.9611841793
  0
VERTEX
  8
0
 62
7
  6
CONTINUOUS
 10
182.8099612339
 20
233.9289331886
  0
VERTEX
  8
0
 62
7
  6
CONTINUOUS
 10
182.8131261708
 20
233.8946327945
  0
SEQEND
  0
POLYLINE
  8
0
 62
7
  6
CONTINUOUS
 66
1
 70
0
  0
VERTEX
  8
0
 62
7
  6
CONTINUOUS
 10
165.5109764455
 20
234.1877118953
  0
VERTEX
  8
0
 62
7
  6
CONTINUOUS
 10
165.5266743951
 20
234.1802232446
  0
VERTEX
  8
0
 62
7
  6
CONTINUOUS
 10
165.5438911145
 20
234.1735490147
  0
VERTEX
  8
0
 62
7
  6
CONTINUOUS
 10
165.562531991
 20
234.1677065479
  0
VERTEX
  8
0
 62
7
  6
CONTINUOUS
 10
165.5825572692
 20
234.1627319524
  0
VERTEX
  8
0
 62
7
  6
CONTINUOUS
 10
165.6038913998
 20
234.1586994503
  0
SEQEND
  0
POLYLINE
  8
0
 62
7
  6
CONTINUOUS
 66
1
 70
0
  0
VERTEX
  8
0
 62
7
  6
CONTINUOUS
 10
165.4640017804
 20
234.2385517815
  0
VERTEX
  8
0
 62
7
  6
CONTINUOUS
 10
165.4667997032
 20
234.2279983373
  0
VERTEX
  8
0
 62
7
  6
CONTINUOUS
 10
165.4730850646
 20
234.2173913085
  0
VERTEX
  8
0
 62
7
  6
CONTINUOUS
 10
165.4826650194
 20
234.2070303834
  0
VERTEX
  8
0
 62
7
  6
CONTINUOUS
 10
165.4953731977
 20
234.1970702685
  0
VERTEX
  8
0
 62
7
  6
CONTINUOUS
 10
165.5109764455
 20
234.1877118953
  0
SEQEND
  0
POLYLINE
  8
0
 62
7
  6
CONTINUOUS
 66
1
 70
0
  0
VERTEX
  8
0
 62
7
  6
CONTINUOUS
 10
165.963038604
 20
228.1355591369
  0
VERTEX
  8
0
 62
7
  6
CONTINUOUS
 10
165.9485312072
 20
228.2185376909
  0
VERTEX
  8
0
 62
7
  6
CONTINUOUS
 10
165.9383464082
 20
228.3111633258
  0
SEQEND
  0
POLYLINE
  8
0
 62
7
  6
CONTINUOUS
 66
1
 70
0
  0
VERTEX
  8
0
 62
7
  6
CONTINUOUS
 10
171.0131261708
 20
233.0311234619
  0
VERTEX
  8
0
 62
7
  6
CONTINUOUS
 10
171.0171578485
 20
232.9199354494
  0
VERTEX
  8
0
 62
7
  6
CONTINUOUS
 10
171.0297571235
 20
232.7973054931
  0
VERTEX
  8
0
 62
7
  6
CONTINUOUS
 10
171.0516563679
 20
232.6623821732
  0
VERTEX
  8
0
 62
7
  6
CONTINUOUS
 10
171.0835274199
 20
232.5143362035
  0
VERTEX
  8
0
 62
7
  6
CONTINUOUS
 10
171.1257199074
 20
232.3531513892
  0
VERTEX
  8
0
 62
7
  6
CONTINUOUS
 10
171.177905849
 20
232.1801327321
  0
VERTEX
  8
0
 62
7
  6
CONTINUOUS
 10
171.239223376
 20
231.9968907492
  0
VERTEX
  8
0
 62
7
  6
CONTINUOUS
 10
171.3078897373
 20
231.8063990483
  0
SEQEND
  0
LINE
  8
0
 62
7
  6
CONTINUOUS
 10
171.0131261708
 20
227.3811647399
 11
171.0131261708
 21
238.1700760848
  0
LINE
  8
0
 62
7
  6
CONTINUOUS
 10
171.0124922144
 20
227.3652274194
 11
170.6929351555
 21
223.3673221606
  0
LINE
  8
SURFACE
 62
7
  6
CONTINUOUS
 10
170.6867866075
 20
223.2903990836
 11
170.6943377283
 21
223.3848694282
  0
LINE
  8
0
 62
7
  6
CONTINUOUS
 10
171.0150546743
 20
227.3972857687
 11
171.5572695847
 21
234.1808124714
  0
POLYLINE
  8
0
 62
7
  6
CONTINUOUS
 66
1
 70
0
  0
VERTEX
  8
0
 62
7
  6
CONTINUOUS
 10
171.0131261708
 20
233.8946327945
  0
VERTEX
  8
0
 62
7
  6
CONTINUOUS
 10
171.0162910527
 20
233.9289328964
  0
VERTEX
  8
0
 62
7
  6
CONTINUOUS
 10
171.0255743265
 20
233.961181123
  0
VERTEX
  8
0
 62
7
  6
CONTINUOUS
 10
171.0405554566
 20
233.9910569441
  0
VERTEX
  8
0
 62
7
  6
CONTINUOUS
 10
171.0607477765
 20
234.0184056987
  0
VERTEX
  8
0
 62
7
  6
CONTINUOUS
 10
171.0859365607
 20
234.043424302
  0
VERTEX
  8
0
 62
7
  6
CONTINUOUS
 10
171.1157492068
 20
234.0660373094
  0
VERTEX
  8
0
 62
7
  6
CONTINUOUS
 10
171.1495577175
 20
234.0860835764
  0
VERTEX
  8
0
 62
7
  6
CONTINUOUS
 10
171.186663686
 20
234.1035071492
  0
VERTEX
  8
0
 62
7
  6
CONTINUOUS
 10
171.2268370507
 20
234.1184974855
  0
VERTEX
  8
0
 62
7
  6
CONTINUOUS
 10
171.2696714273
 20
234.1311143208
  0
VERTEX
  8
0
 62
7
  6
CONTINUOUS
 10
171.3144959609
 20
234.1413552973
  0
VERTEX
  8
0
 62
7
  6
CONTINUOUS
 10
171.3609522578
 20
234.1493105869
  0
SEQEND
  0
POLYLINE
  8
SURFACE
 62
7
  6
CONTINUOUS
 66
1
 70
0
  0
VERTEX
  8
SURFACE
 62
7
  6
CONTINUOUS
 10
171.4767664625
 20
233.1736563261
  0
VERTEX
  8
SURFACE
 62
7
  6
CONTINUOUS
 10
171.4801736596
 20
233.2098895522
  0
VERTEX
  8
SURFACE
 62
7
  6
CONTINUOUS
 10
171.4845946695
 20
233.2460198683
  0
VERTEX
  8
SURFACE
 62
7
  6
CONTINUOUS
 10
171.490025484
 20
233.2820122072
  0
SEQEND
  0
POLYLINE
  8
0
 62
7
  6
CONTINUOUS
 66
1
 70
0
  0
VERTEX
  8
0
 62
7
  6
CONTINUOUS
 10
171.0882197976
 20
228.3126378952
  0
VERTEX
  8
0
 62
7
  6
CONTINUOUS
 10
171.0780061928
 20
228.2198114917
  0
VERTEX
  8
0
 62
7
  6
CONTINUOUS
 10
171.063452365
 20
228.1366930962
  0
SEQEND
  0
POLYLINE
  8
SURFACE
 62
7
  6
CONTINUOUS
 66
1
 70
0
  0
VERTEX
  8
SURFACE
 62
7
  6
CONTINUOUS
 10
171.490025484
 20
233.2820122072
  0
VERTEX
  8
SURFACE
 62
7
  6
CONTINUOUS
 10
171.4964606366
 20
233.3178321426
  0
VERTEX
  8
SURFACE
 62
7
  6
CONTINUOUS
 10
171.5038941459
 20
233.3534498512
  0
VERTEX
  8
SURFACE
 62
7
  6
CONTINUOUS
 10
171.5123202169
 20
233.3888403662
  0
VERTEX
  8
SURFACE
 62
7
  6
CONTINUOUS
 10
171.5217331537
 20
233.4239808182
  0
VERTEX
  8
SURFACE
 62
7
  6
CONTINUOUS
 10
171.5273766543
 20
233.4429128579
  0
SEQEND
  0
POLYLINE
  8
0
 62
7
  6
CONTINUOUS
 66
1
 70
0
  0
VERTEX
  8
0
 62
7
  6
CONTINUOUS
 10
171.0634536845
 20
228.1367001751
  0
VERTEX
  8
0
 62
7
  6
CONTINUOUS
 10
171.0407594421
 20
228.0164085222
  0
VERTEX
  8
0
 62
7
  6
CONTINUOUS
 10
171.02510038
 20
227.9053877077
  0
VERTEX
  8
0
 62
7
  6
CONTINUOUS
 10
171.0160424556
 20
227.8031151581
  0
VERTEX
  8
0
 62
7
  6
CONTINUOUS
 10
171.0131261708
 20
227.7090287077
  0
SEQEND
  0
LINE
  8
0
 62
7
  6
CONTINUOUS
 10
172.6054274227
 20
238.0628809196
 11
171.663228604
 21
234.7661879559
  0
POLYLINE
  8
SURFACE
 62
7
  6
CONTINUOUS
 66
1
 70
0
  0
VERTEX
  8
SURFACE
 62
7
  6
CONTINUOUS
 10
171.528679635
 20
233.447283918
  0
VERTEX
  8
SURFACE
 62
7
  6
CONTINUOUS
 10
171.5321249576
 20
233.4588418125
  0
VERTEX
  8
SURFACE
 62
7
  6
CONTINUOUS
 10
171.5434663323
 20
233.4933352331
  0
VERTEX
  8
SURFACE
 62
7
  6
CONTINUOUS
 10
171.5557660831
 20
233.5274970287
  0
VERTEX
  8
SURFACE
 62
7
  6
CONTINUOUS
 10
171.5689888429
 20
233.5612377355
  0
SEQEND
  0
POLYLINE
  8
SURFACE
 62
7
  6
CONTINUOUS
 66
1
 70
0
  0
VERTEX
  8
SURFACE
 62
7
  6
CONTINUOUS
 10
171.5689888429
 20
233.5612377355
  0
VERTEX
  8
SURFACE
 62
7
  6
CONTINUOUS
 10
171.5831159935
 20
233.5945265848
  0
VERTEX
  8
SURFACE
 62
7
  6
CONTINUOUS
 10
171.5981559388
 20
233.6273934814
  0
SEQEND
  0
LINE
  8
SURFACE
 62
7
  6
CONTINUOUS
 10
171.5981559388
 20
233.6273934814
 11
171.6315631924
 21
233.692939448
  0
POLYLINE
  8
SURFACE
 62
7
  6
CONTINUOUS
 66
1
 70
0
  0
VERTEX
  8
SURFACE
 62
7
  6
CONTINUOUS
 10
171.6315631924
 20
233.692939448
  0
VERTEX
  8
SURFACE
 62
7
  6
CONTINUOUS
 10
171.6707274652
 20
233.7598610506
  0
VERTEX
  8
SURFACE
 62
7
  6
CONTINUOUS
 10
171.7164810014
 20
233.8280616385
  0
VERTEX
  8
SURFACE
 62
7
  6
CONTINUOUS
 10
171.7696786195
 20
233.8971683998
  0
VERTEX
  8
SURFACE
 62
7
  6
CONTINUOUS
 10
171.8309247551
 20
233.9662818748
  0
VERTEX
  8
SURFACE
 62
7
  6
CONTINUOUS
 10
171.9010024735
 20
234.0345757056
  0
VERTEX
  8
SURFACE
 62
7
  6
CONTINUOUS
 10
171.9803620384
 20
234.1007584224
  0
VERTEX
  8
SURFACE
 62
7
  6
CONTINUOUS
 10
172.0694081265
 20
234.1634535161
  0
VERTEX
  8
SURFACE
 62
7
  6
CONTINUOUS
 10
172.1681128828
 20
234.2209691892
  0
VERTEX
  8
SURFACE
 62
7
  6
CONTINUOUS
 10
172.2760272066
 20
234.271484543
  0
VERTEX
  8
SURFACE
 62
7
  6
CONTINUOUS
 10
172.3920650952
 20
234.3131238559
  0
VERTEX
  8
SURFACE
 62
7
  6
CONTINUOUS
 10
172.5149230705
 20
234.3442759841
  0
VERTEX
  8
SURFACE
 62
7
  6
CONTINUOUS
 10
172.6383518572
 20
234.3629186589
  0
SEQEND
  0
POLYLINE
  8
0
 62
7
  6
CONTINUOUS
 66
1
 70
0
  0
VERTEX
  8
0
 62
7
  6
CONTINUOUS
 10
188.3154288207
 20
234.1877183975
  0
VERTEX
  8
0
 62
7
  6
CONTINUOUS
 10
188.3310471921
 20
234.1970796766
  0
VERTEX
  8
0
 62
7
  6
CONTINUOUS
 10
188.3437667995
 20
234.2070427029
  0
VERTEX
  8
0
 62
7
  6
CONTINUOUS
 10
188.353358184
 20
234.2174103307
  0
VERTEX
  8
0
 62
7
  6
CONTINUOUS
 10
188.3596493238
 20
234.2280223091
  0
VERTEX
  8
0
 62
7
  6
CONTINUOUS
 10
188.3624493751
 20
234.238580086
  0
SEQEND
  0
POLYLINE
  8
0
 62
7
  6
CONTINUOUS
 66
1
 70
0
  0
VERTEX
  8
0
 62
7
  6
CONTINUOUS
 10
121.0225846769
 20
234.1587354348
  0
VERTEX
  8
0
 62
7
  6
CONTINUOUS
 10
121.0438980828
 20
234.1627646879
  0
VERTEX
  8
0
 62
7
  6
CONTINUOUS
 10
121.0639027361
 20
234.1677335676
  0
VERTEX
  8
0
 62
7
  6
CONTINUOUS
 10
121.0825296824
 20
234.173569805
  0
VERTEX
  8
0
 62
7
  6
CONTINUOUS
 10
121.0997354482
 20
234.1802366096
  0
VERTEX
  8
0
 62
7
  6
CONTINUOUS
 10
121.1154288207
 20
234.1877183975
  0
SEQEND
  0
POLYLINE
  8
0
 62
7
  6
CONTINUOUS
 66
1
 70
0
  0
VERTEX
  8
0
 62
7
  6
CONTINUOUS
 10
120.9609522578
 20
234.1493105869
  0
VERTEX
  8
0
 62
7
  6
CONTINUOUS
 10
120.9918010677
 20
234.1539054462
  0
VERTEX
  8
0
 62
7
  6
CONTINUOUS
 10
121.0225846715
 20
234.1587354339
  0
SEQEND
  0
POLYLINE
  8
0
 62
7
  6
CONTINUOUS
 66
1
 70
0
  0
VERTEX
  8
0
 62
7
  6
CONTINUOUS
 10
104.1609522578
 20
237.7666094718
  0
VERTEX
  8
0
 62
7
  6
CONTINUOUS
 10
104.112715713
 20
237.761838025
  0
VERTEX
  8
0
 62
7
  6
CONTINUOUS
 10
104.0662576716
 20
237.7557984025
  0
VERTEX
  8
0
 62
7
  6
CONTINUOUS
 10
104.0223625464
 20
237.7485183354
  0
VERTEX
  8
0
 62
7
  6
CONTINUOUS
 10
103.9817152403
 20
237.7400543625
  0
VERTEX
  8
0
 62
7
  6
CONTINUOUS
 10
103.9445577789
 20
237.7303957708
  0
VERTEX
  8
0
 62
7
  6
CONTINUOUS
 10
103.9111096151
 20
237.7194989596
  0
VERTEX
  8
0
 62
7
  6
CONTINUOUS
 10
103.8820098959
 20
237.707461758
  0
VERTEX
  8
0
 62
7
  6
CONTINUOUS
 10
103.8577623617
 20
237.6944280728
  0
VERTEX
  8
0
 62
7
  6
CONTINUOUS
 10
103.8385412306
 20
237.6804438661
  0
VERTEX
  8
0
 62
7
  6
CONTINUOUS
 10
103.8245052018
 20
237.6655113346
  0
VERTEX
  8
0
 62
7
  6
CONTINUOUS
 10
103.815976193
 20
237.6498137981
  0
VERTEX
  8
0
 62
7
  6
CONTINUOUS
 10
103.8131261708
 20
237.6335928102
  0
SEQEND
  0
POLYLINE
  8
0
 62
7
  6
CONTINUOUS
 66
1
 70
0
  0
VERTEX
  8
0
 62
7
  6
CONTINUOUS
 10
87.2791562752
 20
235.9704526803
  0
VERTEX
  8
0
 62
7
  6
CONTINUOUS
 10
87.4014787403
 20
235.9816738114
  0
VERTEX
  8
0
 62
7
  6
CONTINUOUS
 10
87.4972262437
 20
235.9918022906
  0
VERTEX
  8
0
 62
7
  6
CONTINUOUS
 10
87.590423173
 20
236.0031060253
  0
VERTEX
  8
0
 62
7
  6
CONTINUOUS
 10
87.6678075681
 20
236.0135697493
  0
SEQEND
  0
POLYLINE
  8
0
 62
7
  6
CONTINUOUS
 66
1
 70
0
  0
VERTEX
  8
0
 62
7
  6
CONTINUOUS
 10
231.2132241708
 20
238.3700760848
  0
VERTEX
  8
0
 62
7
  6
CONTINUOUS
 10
231.223108147
 20
238.369831703
  0
VERTEX
  8
0
 62
7
  6
CONTINUOUS
 10
231.2329440843
 20
238.3691015229
  0
VERTEX
  8
0
 62
7
  6
CONTINUOUS
 10
231.2428951747
 20
238.3678629184
  0
VERTEX
  8
0
 62
7
  6
CONTINUOUS
 10
231.2532351798
 20
238.3660330167
  0
VERTEX
  8
0
 62
7
  6
CONTINUOUS
 10
231.2643251415
 20
238.3634376394
  0
VERTEX
  8
0
 62
7
  6
CONTINUOUS
 10
231.2764527811
 20
238.3598183912
  0
VERTEX
  8
0
 62
7
  6
CONTINUOUS
 10
231.2900554027
 20
238.3547297114
  0
VERTEX
  8
0
 62
7
  6
CONTINUOUS
 10
231.305177599
 20
238.3476839873
  0
VERTEX
  8
0
 62
7
  6
CONTINUOUS
 10
231.3217805198
 20
238.3380508421
  0
VERTEX
  8
0
 62
7
  6
CONTINUOUS
 10
231.3393530908
 20
238.3252904384
  0
VERTEX
  8
0
 62
7
  6
CONTINUOUS
 10
231.3574404574
 20
238.308646149
  0
VERTEX
  8
0
 62
7
  6
CONTINUOUS
 10
231.3734490395
 20
238.2897756732
  0
VERTEX
  8
0
 62
7
  6
CONTINUOUS
 10
231.3871769852
 20
238.2687696427
  0
VERTEX
  8
0
 62
7
  6
CONTINUOUS
 10
231.3980786469
 20
238.2464228115
  0
VERTEX
  8
0
 62
7
  6
CONTINUOUS
 10
231.4062773938
 20
238.2223298224
  0
VERTEX
  8
0
 62
7
  6
CONTINUOUS
 10
231.4114516133
 20
238.1966445069
  0
VERTEX
  8
0
 62
7
  6
CONTINUOUS
 10
231.4132241708
 20
238.1700760848
  0
SEQEND
  0
POLYLINE
  8
0
 62
7
  6
CONTINUOUS
 66
1
 70
0
  0
VERTEX
  8
0
 62
7
  6
CONTINUOUS
 10
205.6131261708
 20
236.7216587216
  0
VERTEX
  8
0
 62
7
  6
CONTINUOUS
 10
205.5351324629
 20
236.7256664548
  0
VERTEX
  8
0
 62
7
  6
CONTINUOUS
 10
205.4564427106
 20
236.7337713716
  0
VERTEX
  8
0
 62
7
  6
CONTINUOUS
 10
205.377866575
 20
236.7459994631
  0
VERTEX
  8
0
 62
7
  6
CONTINUOUS
 10
205.300176982
 20
236.7622736423
  0
VERTEX
  8
0
 62
7
  6
CONTINUOUS
 10
205.2234920823
 20
236.7826060561
  0
VERTEX
  8
0
 62
7
  6
CONTINUOUS
 10
205.148014933
 20
236.8070311723
  0
VERTEX
  8
0
 62
7
  6
CONTINUOUS
 10
205.074559461
 20
236.8353810332
  0
VERTEX
  8
0
 62
7
  6
CONTINUOUS
 10
205.0039450328
 20
236.8673982904
  0
VERTEX
  8
0
 62
7
  6
CONTINUOUS
 10
204.9364876035
 20
236.9030264954
  0
VERTEX
  8
0
 62
7
  6
CONTINUOUS
 10
204.8731927524
 20
236.9418515361
  0
VERTEX
  8
0
 62
7
  6
CONTINUOUS
 10
204.815241312
 20
236.9832013036
  0
VERTEX
  8
0
 62
7
  6
CONTINUOUS
 10
204.7634647686
 20
237.0264716255
  0
VERTEX
  8
0
 62
7
  6
CONTINUOUS
 10
204.7183675283
 20
237.0712610277
  0
VERTEX
  8
0
 62
7
  6
CONTINUOUS
 10
204.680756039
 20
237.1168042135
  0
VERTEX
  8
0
 62
7
  6
CONTINUOUS
 10
204.651229103
 20
237.1623117987
  0
VERTEX
  8
0
 62
7
  6
CONTINUOUS
 10
204.6300265156
 20
237.2072847761
  0
VERTEX
  8
0
 62
7
  6
CONTINUOUS
 10
204.6173272991
 20
237.2511461979
  0
VERTEX
  8
0
 62
7
  6
CONTINUOUS
 10
204.6131261708
 20
237.2933870056
  0
SEQEND
  0
POLYLINE
  8
0
 62
7
  6
CONTINUOUS
 66
1
 70
0
  0
VERTEX
  8
0
 62
7
  6
CONTINUOUS
 10
199.2038914061
 20
234.1586994493
  0
VERTEX
  8
0
 62
7
  6
CONTINUOUS
 10
199.2345633874
 20
234.1538883019
  0
VERTEX
  8
0
 62
7
  6
CONTINUOUS
 10
199.2653000839
 20
234.1493105869
  0
SEQEND
  0
POLYLINE
  8
0
 62
7
  6
CONTINUOUS
 66
1
 70
0
  0
VERTEX
  8
0
 62
7
  6
CONTINUOUS
 10
216.0038914061
 20
234.1586994493
  0
VERTEX
  8
0
 62
7
  6
CONTINUOUS
 10
216.0345633874
 20
234.1538883019
  0
VERTEX
  8
0
 62
7
  6
CONTINUOUS
 10
216.0653000839
 20
234.1493105869
  0
SEQEND
  0
POLYLINE
  8
0
 62
7
  6
CONTINUOUS
 66
1
 70
0
  0
VERTEX
  8
0
 62
7
  6
CONTINUOUS
 10
199.2653000839
 20
234.1493105869
  0
VERTEX
  8
0
 62
7
  6
CONTINUOUS
 10
199.3117578222
 20
234.1413550107
  0
VERTEX
  8
0
 62
7
  6
CONTINUOUS
 10
199.3565807937
 20
234.1311143521
  0
VERTEX
  8
0
 62
7
  6
CONTINUOUS
 10
199.399408235
 20
234.1184998268
  0
VERTEX
  8
0
 62
7
  6
CONTINUOUS
 10
199.4395772515
 20
234.1035119208
  0
VERTEX
  8
0
 62
7
  6
CONTINUOUS
 10
199.4766875814
 20
234.0860872854
  0
VERTEX
  8
0
 62
7
  6
CONTINUOUS
 10
199.5104994047
 20
234.0660398037
  0
VERTEX
  8
0
 62
7
  6
CONTINUOUS
 10
199.5403114421
 20
234.0434280521
  0
VERTEX
  8
0
 62
7
  6
CONTINUOUS
 10
199.565498482
 20
234.0184127039
  0
VERTEX
  8
0
 62
7
  6
CONTINUOUS
 10
199.5856919597
 20
233.9910649234
  0
VERTEX
  8
0
 62
7
  6
CONTINUOUS
 10
199.6006768151
 20
233.9611841793
  0
VERTEX
  8
0
 62
7
  6
CONTINUOUS
 10
199.6099612339
 20
233.9289331886
  0
VERTEX
  8
0
 62
7
  6
CONTINUOUS
 10
199.6131261708
 20
233.8946327945
  0
SEQEND
  0
POLYLINE
  8
0
 62
7
  6
CONTINUOUS
 66
1
 70
0
  0
VERTEX
  8
0
 62
7
  6
CONTINUOUS
 10
216.0653000839
 20
234.1493105869
  0
VERTEX
  8
0
 62
7
  6
CONTINUOUS
 10
216.1117578222
 20
234.1413550107
  0
VERTEX
  8
0
 62
7
  6
CONTINUOUS
 10
216.1565807937
 20
234.1311143521
  0
VERTEX
  8
0
 62
7
  6
CONTINUOUS
 10
216.199408235
 20
234.1184998268
  0
VERTEX
  8
0
 62
7
  6
CONTINUOUS
 10
216.2395772515
 20
234.1035119208
  0
VERTEX
  8
0
 62
7
  6
CONTINUOUS
 10
216.2766875814
 20
234.0860872854
  0
VERTEX
  8
0
 62
7
  6
CONTINUOUS
 10
216.3104994047
 20
234.0660398037
  0
VERTEX
  8
0
 62
7
  6
CONTINUOUS
 10
216.3403114421
 20
234.0434280521
  0
VERTEX
  8
0
 62
7
  6
CONTINUOUS
 10
216.365498482
 20
234.0184127039
  0
VERTEX
  8
0
 62
7
  6
CONTINUOUS
 10
216.3856919597
 20
233.9910649234
  0
VERTEX
  8
0
 62
7
  6
CONTINUOUS
 10
216.4006768151
 20
233.9611841793
  0
VERTEX
  8
0
 62
7
  6
CONTINUOUS
 10
216.4099612339
 20
233.9289331886
  0
VERTEX
  8
0
 62
7
  6
CONTINUOUS
 10
216.4131261708
 20
233.8946327945
  0
SEQEND
  0
POLYLINE
  8
0
 62
7
  6
CONTINUOUS
 66
1
 70
0
  0
VERTEX
  8
0
 62
7
  6
CONTINUOUS
 10
171.3078891737
 20
231.8064006353
  0
VERTEX
  8
0
 62
7
  6
CONTINUOUS
 10
171.3194304321
 20
231.7704300141
  0
VERTEX
  8
0
 62
7
  6
CONTINUOUS
 10
171.3288689672
 20
231.7302411351
  0
VERTEX
  8
0
 62
7
  6
CONTINUOUS
 10
171.3361395746
 20
231.6854362328
  0
VERTEX
  8
0
 62
7
  6
CONTINUOUS
 10
171.3410783126
 20
231.6355600296
  0
VERTEX
  8
0
 62
7
  6
CONTINUOUS
 10
171.3434400016
 20
231.5798756092
  0
VERTEX
  8
0
 62
7
  6
CONTINUOUS
 10
171.3428625761
 20
231.5178799798
  0
VERTEX
  8
0
 62
7
  6
CONTINUOUS
 10
171.3389206795
 20
231.4490992592
  0
SEQEND
  0
LINE
  8
0
 62
7
  6
CONTINUOUS
 10
164.4208249187
 20
238.0635667118
 11
165.3632197382
 21
234.766187954
  0
LINE
  8
0
 62
7
  6
CONTINUOUS
 10
173.9496818903
 20
233.1736561863
 11
174.0875277861
 21
231.4490977188
  0
LINE
  8
SURFACE
 62
7
  6
CONTINUOUS
 10
173.9496818889
 20
233.1736562045
 11
174.7396617341
 21
223.2903990836
  0
LINE
  8
0
 62
7
  6
CONTINUOUS
 10
174.7335131862
 20
223.3673221606
 11
174.50548936
 21
226.2200760848
  0
LINE
  8
0
 62
7
  6
CONTINUOUS
 10
172.6131261708
 20
238.1171716719
 11
172.6131261708
 21
238.1700760848
  0
POLYLINE
  8
0
 62
7
  6
CONTINUOUS
 66
1
 70
0
  0
VERTEX
  8
0
 62
7
  6
CONTINUOUS
 10
206.357458446
 20
237.9798003435
  0
VERTEX
  8
0
 62
7
  6
CONTINUOUS
 10
206.3117149347
 20
237.949127447
  0
VERTEX
  8
0
 62
7
  6
CONTINUOUS
 10
206.2675708477
 20
237.9128009279
  0
VERTEX
  8
0
 62
7
  6
CONTINUOUS
 10
206.2254313068
 20
237.870676172
  0
VERTEX
  8
0
 62
7
  6
CONTINUOUS
 10
206.1860720505
 20
237.8230115167
  0
VERTEX
  8
0
 62
7
  6
CONTINUOUS
 10
206.1502152519
 20
237.7702243266
  0
VERTEX
  8
0
 62
7
  6
CONTINUOUS
 10
206.1181482559
 20
237.7121612595
  0
VERTEX
  8
0
 62
7
  6
CONTINUOUS
 10
206.0904669539
 20
237.6490649384
  0
VERTEX
  8
0
 62
7
  6
CONTINUOUS
 10
206.0678649879
 20
237.5815588229
  0
SEQEND
  0
POLYLINE
  8
0
 62
7
  6
CONTINUOUS
 66
1
 70
0
  0
VERTEX
  8
0
 62
7
  6
CONTINUOUS
 10
204.1643681604
 20
226.2200777435
  0
VERTEX
  8
0
 62
7
  6
CONTINUOUS
 10
204.1695968013
 20
226.2222103324
  0
VERTEX
  8
0
 62
7
  6
CONTINUOUS
 10
204.1800325469
 20
226.2392710706
  0
VERTEX
  8
0
 62
7
  6
CONTINUOUS
 10
204.1904037412
 20
226.273321849
  0
VERTEX
  8
0
 62
7
  6
CONTINUOUS
 10
204.2006676527
 20
226.3242215672
  0
VERTEX
  8
0
 62
7
  6
CONTINUOUS
 10
204.210782001
 20
226.3917593525
  0
VERTEX
  8
0
 62
7
  6
CONTINUOUS
 10
204.2207051355
 20
226.4756554909
  0
VERTEX
  8
0
 62
7
  6
CONTINUOUS
 10
204.2303962097
 20
226.5755626621
  0
VERTEX
  8
0
 62
7
  6
CONTINUOUS
 10
204.2398153505
 20
226.6910674491
  0
VERTEX
  8
0
 62
7
  6
CONTINUOUS
 10
204.2489238255
 20
226.8216921578
  0
VERTEX
  8
0
 62
7
  6
CONTINUOUS
 10
204.2576842022
 20
226.9668968869
  0
VERTEX
  8
0
 62
7
  6
CONTINUOUS
 10
204.2660605019
 20
227.1260818538
  0
VERTEX
  8
0
 62
7
  6
CONTINUOUS
 10
204.2740183474
 20
227.2985899936
  0
VERTEX
  8
0
 62
7
  6
CONTINUOUS
 10
204.2815251021
 20
227.4837097473
  0
VERTEX
  8
0
 62
7
  6
CONTINUOUS
 10
204.2885500021
 20
227.6806780904
  0
VERTEX
  8
0
 62
7
  6
CONTINUOUS
 10
204.2950642798
 20
227.8886837741
  0
VERTEX
  8
0
 62
7
  6
CONTINUOUS
 10
204.3010412774
 20
228.1068706877
  0
VERTEX
  8
0
 62
7
  6
CONTINUOUS
 10
204.3064565535
 20
228.3343414608
  0
VERTEX
  8
0
 62
7
  6
CONTINUOUS
 10
204.3112879788
 20
228.5701611771
  0
VERTEX
  8
0
 62
7
  6
CONTINUOUS
 10
204.315515822
 20
228.8133611948
  0
VERTEX
  8
0
 62
7
  6
CONTINUOUS
 10
204.3191228272
 20
229.0629431479
  0
VERTEX
  8
0
 62
7
  6
CONTINUOUS
 10
204.3220942796
 20
229.3178829932
  0
VERTEX
  8
0
 62
7
  6
CONTINUOUS
 10
204.3244180628
 20
229.5771351572
  0
VERTEX
  8
0
 62
7
  6
CONTINUOUS
 10
204.3260847047
 20
229.8396367752
  0
VERTEX
  8
0
 62
7
  6
CONTINUOUS
 10
204.3270874137
 20
230.1043119514
  0
VERTEX
  8
0
 62
7
  6
CONTINUOUS
 10
204.3274221045
 20
230.3700760848
  0
SEQEND
  0
LINE
  8
0
 62
7
  6
CONTINUOUS
 10
222.1602885913
 20
236.035367317
 11
222.2167823712
 21
236.0576406041
  0
POLYLINE
  8
0
 62
7
  6
CONTINUOUS
 66
1
 70
0
  0
VERTEX
  8
0
 62
7
  6
CONTINUOUS
 10
105.3766511688
 20
237.9621946612
  0
VERTEX
  8
0
 62
7
  6
CONTINUOUS
 10
105.3031176009
 20
237.9457324083
  0
VERTEX
  8
0
 62
7
  6
CONTINUOUS
 10
105.2517690745
 20
237.9344524356
  0
VERTEX
  8
0
 62
7
  6
CONTINUOUS
 10
105.1908603353
 20
237.9213904189
  0
VERTEX
  8
0
 62
7
  6
CONTINUOUS
 10
105.1207827996
 20
237.9068331272
  0
VERTEX
  8
0
 62
7
  6
CONTINUOUS
 10
105.0417462822
 20
237.8910566753
  0
SEQEND
  0
POLYLINE
  8
0
 62
7
  6
CONTINUOUS
 66
1
 70
0
  0
VERTEX
  8
0
 62
7
  6
CONTINUOUS
 10
104.9543295904
 20
237.8744335756
  0
VERTEX
  8
0
 62
7
  6
CONTINUOUS
 10
105.119180894
 20
237.9054314189
  0
VERTEX
  8
0
 62
7
  6
CONTINUOUS
 10
105.1894917809
 20
237.9195204417
  0
VERTEX
  8
0
 62
7
  6
CONTINUOUS
 10
105.2506476146
 20
237.9323773636
  0
VERTEX
  8
0
 62
7
  6
CONTINUOUS
 10
105.3022464224
 20
237.9436848856
  0
VERTEX
  8
0
 62
7
  6
CONTINUOUS
 10
105.3441657304
 20
237.9532112947
  0
VERTEX
  8
0
 62
7
  6
CONTINUOUS
 10
105.3762371356
 20
237.9607459858
  0
SEQEND
  0
LINE
  8
0
 62
7
  6
CONTINUOUS
 10
87.6678104018
 20
236.013569868
 11
87.7065633102
 21
236.0205684744
  0
POLYLINE
  8
0
 62
7
  6
CONTINUOUS
 66
1
 70
0
  0
VERTEX
  8
0
 62
7
  6
CONTINUOUS
 10
104.9543295904
 20
237.8744335756
  0
VERTEX
  8
0
 62
7
  6
CONTINUOUS
 10
104.8589773
 20
237.8573228078
  0
VERTEX
  8
0
 62
7
  6
CONTINUOUS
 10
104.756357449
 20
237.8401298099
  0
VERTEX
  8
0
 62
7
  6
CONTINUOUS
 10
104.647229815
 20
237.8232674616
  0
VERTEX
  8
0
 62
7
  6
CONTINUOUS
 10
104.5322790582
 20
237.8071205041
  0
VERTEX
  8
0
 62
7
  6
CONTINUOUS
 10
104.4124211502
 20
237.7920802097
  0
VERTEX
  8
0
 62
7
  6
CONTINUOUS
 10
104.2883851695
 20
237.7784770562
  0
VERTEX
  8
0
 62
7
  6
CONTINUOUS
 10
104.1609522578
 20
237.7666094718
  0
SEQEND
  0
LINE
  8
0
 62
7
  6
CONTINUOUS
 10
105.0157919138
 20
237.8861212099
 11
105.0399532412
 21
237.8904147228
  0
POLYLINE
  8
0
 62
7
  6
CONTINUOUS
 66
1
 70
0
  0
VERTEX
  8
0
 62
7
  6
CONTINUOUS
 10
182.3109764455
 20
234.1877118953
  0
VERTEX
  8
0
 62
7
  6
CONTINUOUS
 10
182.3266743951
 20
234.1802232446
  0
VERTEX
  8
0
 62
7
  6
CONTINUOUS
 10
182.3438911145
 20
234.1735490147
  0
VERTEX
  8
0
 62
7
  6
CONTINUOUS
 10
182.362531991
 20
234.1677065479
  0
VERTEX
  8
0
 62
7
  6
CONTINUOUS
 10
182.3825572692
 20
234.1627319524
  0
VERTEX
  8
0
 62
7
  6
CONTINUOUS
 10
182.4038913998
 20
234.1586994503
  0
SEQEND
  0
LINE
  8
0
 62
7
  6
CONTINUOUS
 10
181.2131261708
 20
238.1178573661
 11
181.2131261708
 21
238.1700760848
  0
LINE
  8
SURFACE
 62
7
  6
CONTINUOUS
 10
179.8767664591
 20
233.1736562837
 11
179.0867866075
 21
223.2903990836
  0
POLYLINE
  8
0
 62
7
  6
CONTINUOUS
 66
1
 70
0
  0
VERTEX
  8
0
 62
7
  6
CONTINUOUS
 10
182.5185010921
 20
231.8067725096
  0
VERTEX
  8
0
 62
7
  6
CONTINUOUS
 10
182.5871047011
 20
231.9971079555
  0
VERTEX
  8
0
 62
7
  6
CONTINUOUS
 10
182.6483815854
 20
232.1802427016
  0
VERTEX
  8
0
 62
7
  6
CONTINUOUS
 10
182.7005499196
 20
232.3532132678
  0
VERTEX
  8
0
 62
7
  6
CONTINUOUS
 10
182.7427363302
 20
232.5143838842
  0
VERTEX
  8
0
 62
7
  6
CONTINUOUS
 10
182.7746013695
 20
232.6624106533
  0
VERTEX
  8
0
 62
7
  6
CONTINUOUS
 10
182.796495199
 20
232.7973053496
  0
VERTEX
  8
0
 62
7
  6
CONTINUOUS
 10
182.8090933603
 20
232.9199193
  0
VERTEX
  8
0
 62
7
  6
CONTINUOUS
 10
182.8131261708
 20
233.0311234619
  0
SEQEND
  0
POLYLINE
  8
SURFACE
 62
7
  6
CONTINUOUS
 66
1
 70
0
  0
VERTEX
  8
SURFACE
 62
7
  6
CONTINUOUS
 10
188.4315631924
 20
233.692939448
  0
VERTEX
  8
SURFACE
 62
7
  6
CONTINUOUS
 10
188.4707274652
 20
233.7598610506
  0
VERTEX
  8
SURFACE
 62
7
  6
CONTINUOUS
 10
188.5164810014
 20
233.8280616385
  0
VERTEX
  8
SURFACE
 62
7
  6
CONTINUOUS
 10
188.5696786195
 20
233.8971683998
  0
VERTEX
  8
SURFACE
 62
7
  6
CONTINUOUS
 10
188.6309247551
 20
233.9662818748
  0
VERTEX
  8
SURFACE
 62
7
  6
CONTINUOUS
 10
188.7010024735
 20
234.0345757056
  0
VERTEX
  8
SURFACE
 62
7
  6
CONTINUOUS
 10
188.7803620384
 20
234.1007584224
  0
VERTEX
  8
SURFACE
 62
7
  6
CONTINUOUS
 10
188.8694081265
 20
234.1634535161
  0
VERTEX
  8
SURFACE
 62
7
  6
CONTINUOUS
 10
188.9681128828
 20
234.2209691892
  0
VERTEX
  8
SURFACE
 62
7
  6
CONTINUOUS
 10
189.0760272066
 20
234.271484543
  0
VERTEX
  8
SURFACE
 62
7
  6
CONTINUOUS
 10
189.1920650952
 20
234.3131238559
  0
VERTEX
  8
SURFACE
 62
7
  6
CONTINUOUS
 10
189.3149230705
 20
234.3442759841
  0
VERTEX
  8
SURFACE
 62
7
  6
CONTINUOUS
 10
189.4383518572
 20
234.3629186589
  0
SEQEND
  0
LINE
  8
0
 62
7
  6
CONTINUOUS
 10
212.3865487743
 20
233.330557572
 11
213.8318435295
 21
234.1235092138
  0
LINE
  8
SURFACE
 62
2
  6
CONTINUOUS
 10
209.2626321674
 20
231.6166408824
 11
213.8318473086
 21
234.1235112872
  0
LINE
  8
0
 62
7
  6
CONTINUOUS
 10
222.2153632947
 20
236.0569923184
 11
222.2705806809
 21
236.0858558981
  0
POLYLINE
  8
0
 62
7
  6
CONTINUOUS
 66
1
 70
0
  0
VERTEX
  8
0
 62
7
  6
CONTINUOUS
 10
221.4131261708
 20
235.9104719322
  0
VERTEX
  8
0
 62
7
  6
CONTINUOUS
 10
221.4224939882
 20
235.9149619373
  0
VERTEX
  8
0
 62
7
  6
CONTINUOUS
 10
221.4425407979
 20
235.9230079997
  0
VERTEX
  8
0
 62
7
  6
CONTINUOUS
 10
221.4684805517
 20
235.9317024648
  0
VERTEX
  8
0
 62
7
  6
CONTINUOUS
 10
221.5002071353
 20
235.9405445142
  0
VERTEX
  8
0
 62
7
  6
CONTINUOUS
 10
221.5374938256
 20
235.9491290957
  0
VERTEX
  8
0
 62
7
  6
CONTINUOUS
 10
221.5800333049
 20
235.9571369671
  0
VERTEX
  8
0
 62
7
  6
CONTINUOUS
 10
221.6274176668
 20
235.9643122911
  0
VERTEX
  8
0
 62
7
  6
CONTINUOUS
 10
221.6791562887
 20
235.9704526817
  0
SEQEND
  0
LINE
  8
0
 62
7
  6
CONTINUOUS
 10
87.705167601
 20
236.020263594
 11
87.7617034206
 21
236.0358391785
  0
POLYLINE
  8
0
 62
7
  6
CONTINUOUS
 66
1
 70
0
  0
VERTEX
  8
0
 62
7
  6
CONTINUOUS
 10
199.1109764455
 20
234.1877118953
  0
VERTEX
  8
0
 62
7
  6
CONTINUOUS
 10
199.1266743951
 20
234.1802232446
  0
VERTEX
  8
0
 62
7
  6
CONTINUOUS
 10
199.1438911145
 20
234.1735490147
  0
VERTEX
  8
0
 62
7
  6
CONTINUOUS
 10
199.162531991
 20
234.1677065479
  0
VERTEX
  8
0
 62
7
  6
CONTINUOUS
 10
199.1825572692
 20
234.1627319524
  0
VERTEX
  8
0
 62
7
  6
CONTINUOUS
 10
199.2038913998
 20
234.1586994503
  0
SEQEND
  0
LINE
  8
SURFACE
 62
2
  6
CONTINUOUS
 10
198.794601033
 20
234.1235112872
 11
203.3638132741
 21
231.6166424735
  0
LINE
  8
SURFACE
 62
7
  6
CONTINUOUS
 10
183.1321105877
 20
223.3848697492
 11
183.1396617341
 21
223.2903990836
  0
LINE
  8
0
 62
7
  6
CONTINUOUS
 10
183.1335131862
 20
223.3673221606
 11
182.8137614176
 21
227.3676633878
  0
LINE
  8
0
 62
7
  6
CONTINUOUS
 10
182.8122337312
 20
227.3867759227
 11
182.2691787542
 21
234.1808125062
  0
POLYLINE
  8
0
 62
7
  6
CONTINUOUS
 66
1
 70
0
  0
VERTEX
  8
0
 62
7
  6
CONTINUOUS
 10
182.4874806966
 20
231.4496868365
  0
VERTEX
  8
0
 62
7
  6
CONTINUOUS
 10
182.4835419673
 20
231.5184211166
  0
VERTEX
  8
0
 62
7
  6
CONTINUOUS
 10
182.4829660343
 20
231.5803736323
  0
VERTEX
  8
0
 62
7
  6
CONTINUOUS
 10
182.4853273317
 20
231.636020821
  0
VERTEX
  8
0
 62
7
  6
CONTINUOUS
 10
182.4902639625
 20
231.6858659229
  0
VERTEX
  8
0
 62
7
  6
CONTINUOUS
 10
182.4975310579
 20
231.7306458351
  0
VERTEX
  8
0
 62
7
  6
CONTINUOUS
 10
182.5069651453
 20
231.7708159602
  0
VERTEX
  8
0
 62
7
  6
CONTINUOUS
 10
182.5185015287
 20
231.8067737392
  0
SEQEND
  0
POLYLINE
  8
0
 62
7
  6
CONTINUOUS
 66
1
 70
0
  0
VERTEX
  8
0
 62
7
  6
CONTINUOUS
 10
182.8131261708
 20
227.7090287077
  0
VERTEX
  8
0
 62
7
  6
CONTINUOUS
 10
182.8102219038
 20
227.8029155037
  0
VERTEX
  8
0
 62
7
  6
CONTINUOUS
 10
182.8012053531
 20
227.9049240811
  0
VERTEX
  8
0
 62
7
  6
CONTINUOUS
 10
182.7856214076
 20
228.0156304867
  0
VERTEX
  8
0
 62
7
  6
CONTINUOUS
 10
182.7630375084
 20
228.1355650259
  0
SEQEND
  0
LINE
  8
0
 62
7
  6
CONTINUOUS
 10
182.8131261708
 20
238.1700760848
 11
182.8131261708
 21
227.3836015998
  0
POLYLINE
  8
SURFACE
 62
7
  6
CONTINUOUS
 66
1
 70
0
  0
VERTEX
  8
SURFACE
 62
7
  6
CONTINUOUS
 10
188.290025484
 20
233.2820122072
  0
VERTEX
  8
SURFACE
 62
7
  6
CONTINUOUS
 10
188.2964606366
 20
233.3178321426
  0
VERTEX
  8
SURFACE
 62
7
  6
CONTINUOUS
 10
188.3038941459
 20
233.3534498512
  0
VERTEX
  8
SURFACE
 62
7
  6
CONTINUOUS
 10
188.3123202169
 20
233.3888403662
  0
VERTEX
  8
SURFACE
 62
7
  6
CONTINUOUS
 10
188.3217331537
 20
233.4239808182
  0
VERTEX
  8
SURFACE
 62
7
  6
CONTINUOUS
 10
188.3273766543
 20
233.4429128579
  0
SEQEND
  0
LINE
  8
0
 62
7
  6
CONTINUOUS
 10
189.4054274227
 20
238.0628809196
 11
188.463228604
 21
234.7661879559
  0
POLYLINE
  8
SURFACE
 62
7
  6
CONTINUOUS
 66
1
 70
0
  0
VERTEX
  8
SURFACE
 62
7
  6
CONTINUOUS
 10
188.328679635
 20
233.447283918
  0
VERTEX
  8
SURFACE
 62
7
  6
CONTINUOUS
 10
188.3321249576
 20
233.4588418125
  0
VERTEX
  8
SURFACE
 62
7
  6
CONTINUOUS
 10
188.3434663323
 20
233.4933352331
  0
VERTEX
  8
SURFACE
 62
7
  6
CONTINUOUS
 10
188.3557660831
 20
233.5274970287
  0
VERTEX
  8
SURFACE
 62
7
  6
CONTINUOUS
 10
188.3689888429
 20
233.5612377355
  0
SEQEND
  0
POLYLINE
  8
SURFACE
 62
7
  6
CONTINUOUS
 66
1
 70
0
  0
VERTEX
  8
SURFACE
 62
7
  6
CONTINUOUS
 10
188.3689888429
 20
233.5612377355
  0
VERTEX
  8
SURFACE
 62
7
  6
CONTINUOUS
 10
188.3831159935
 20
233.5945265848
  0
VERTEX
  8
SURFACE
 62
7
  6
CONTINUOUS
 10
188.3981559388
 20
233.6273934814
  0
SEQEND
  0
LINE
  8
SURFACE
 62
7
  6
CONTINUOUS
 10
188.3981559388
 20
233.6273934814
 11
188.4315631924
 21
233.692939448
  0
LINE
  8
0
 62
7
  6
CONTINUOUS
 10
222.2691805177
 20
236.0850275796
 11
222.3219809445
 21
236.1201271368
  0
POLYLINE
  8
0
 62
7
  6
CONTINUOUS
 66
1
 70
0
  0
VERTEX
  8
0
 62
7
  6
CONTINUOUS
 10
215.9109764455
 20
234.1877118953
  0
VERTEX
  8
0
 62
7
  6
CONTINUOUS
 10
215.9266743951
 20
234.1802232446
  0
VERTEX
  8
0
 62
7
  6
CONTINUOUS
 10
215.9438911145
 20
234.1735490147
  0
VERTEX
  8
0
 62
7
  6
CONTINUOUS
 10
215.962531991
 20
234.1677065479
  0
VERTEX
  8
0
 62
7
  6
CONTINUOUS
 10
215.9825572692
 20
234.1627319524
  0
VERTEX
  8
0
 62
7
  6
CONTINUOUS
 10
216.0038913998
 20
234.1586994503
  0
SEQEND
  0
LINE
  8
0
 62
7
  6
CONTINUOUS
 10
181.2208249187
 20
238.0635667118
 11
182.1632197382
 21
234.766187954
  0
POLYLINE
  8
0
 62
7
  6
CONTINUOUS
 66
1
 70
0
  0
VERTEX
  8
0
 62
7
  6
CONTINUOUS
 10
182.2640017804
 20
234.2385517815
  0
VERTEX
  8
0
 62
7
  6
CONTINUOUS
 10
182.2667997032
 20
234.2279983373
  0
VERTEX
  8
0
 62
7
  6
CONTINUOUS
 10
182.2730850646
 20
234.2173913085
  0
VERTEX
  8
0
 62
7
  6
CONTINUOUS
 10
182.2826650194
 20
234.2070303834
  0
VERTEX
  8
0
 62
7
  6
CONTINUOUS
 10
182.2953731977
 20
234.1970702685
  0
VERTEX
  8
0
 62
7
  6
CONTINUOUS
 10
182.3109764455
 20
234.1877118953
  0
SEQEND
  0
POLYLINE
  8
0
 62
7
  6
CONTINUOUS
 66
1
 70
0
  0
VERTEX
  8
0
 62
7
  6
CONTINUOUS
 10
182.763038604
 20
228.1355591369
  0
VERTEX
  8
0
 62
7
  6
CONTINUOUS
 10
182.7485312072
 20
228.2185376909
  0
VERTEX
  8
0
 62
7
  6
CONTINUOUS
 10
182.7383464082
 20
228.3111633258
  0
SEQEND
  0
LINE
  8
0
 62
7
  6
CONTINUOUS
 10
190.7496818903
 20
233.1736561863
 11
190.8875277861
 21
231.4490977188
  0
LINE
  8
SURFACE
 62
7
  6
CONTINUOUS
 10
190.7496818889
 20
233.1736562045
 11
191.5396617341
 21
223.2903990836
  0
LINE
  8
0
 62
7
  6
CONTINUOUS
 10
191.5335131862
 20
223.3673221606
 11
191.30548936
 21
226.2200760848
  0
POLYLINE
  8
0
 62
7
  6
CONTINUOUS
 66
1
 70
0
  0
VERTEX
  8
0
 62
7
  6
CONTINUOUS
 10
187.8131261708
 20
233.0311234619
  0
VERTEX
  8
0
 62
7
  6
CONTINUOUS
 10
187.8171578485
 20
232.9199354494
  0
VERTEX
  8
0
 62
7
  6
CONTINUOUS
 10
187.8297571235
 20
232.7973054931
  0
VERTEX
  8
0
 62
7
  6
CONTINUOUS
 10
187.8516563679
 20
232.6623821732
  0
VERTEX
  8
0
 62
7
  6
CONTINUOUS
 10
187.8835274199
 20
232.5143362035
  0
VERTEX
  8
0
 62
7
  6
CONTINUOUS
 10
187.9257199074
 20
232.3531513892
  0
VERTEX
  8
0
 62
7
  6
CONTINUOUS
 10
187.977905849
 20
232.1801327321
  0
VERTEX
  8
0
 62
7
  6
CONTINUOUS
 10
188.039223376
 20
231.9968907492
  0
VERTEX
  8
0
 62
7
  6
CONTINUOUS
 10
188.1078897373
 20
231.8063990483
  0
SEQEND
  0
LINE
  8
0
 62
7
  6
CONTINUOUS
 10
187.8131261708
 20
227.3811647399
 11
187.8131261708
 21
238.1700760848
  0
LINE
  8
0
 62
7
  6
CONTINUOUS
 10
189.4131261708
 20
238.1171716719
 11
189.4131261708
 21
238.1700760848
  0
LINE
  8
0
 62
7
  6
CONTINUOUS
 10
187.8124922144
 20
227.3652274194
 11
187.4929351555
 21
223.3673221606
  0
LINE
  8
SURFACE
 62
7
  6
CONTINUOUS
 10
187.4867866075
 20
223.2903990836
 11
187.4943377283
 21
223.3848694282
  0
LINE
  8
0
 62
7
  6
CONTINUOUS
 10
187.8150546743
 20
227.3972857687
 11
188.3572695847
 21
234.1808124714
  0
POLYLINE
  8
0
 62
7
  6
CONTINUOUS
 66
1
 70
0
  0
VERTEX
  8
0
 62
7
  6
CONTINUOUS
 10
187.8131261708
 20
233.8946327945
  0
VERTEX
  8
0
 62
7
  6
CONTINUOUS
 10
187.8162910527
 20
233.9289328964
  0
VERTEX
  8
0
 62
7
  6
CONTINUOUS
 10
187.8255743265
 20
233.961181123
  0
VERTEX
  8
0
 62
7
  6
CONTINUOUS
 10
187.8405554566
 20
233.9910569441
  0
VERTEX
  8
0
 62
7
  6
CONTINUOUS
 10
187.8607477765
 20
234.0184056987
  0
VERTEX
  8
0
 62
7
  6
CONTINUOUS
 10
187.8859365607
 20
234.043424302
  0
VERTEX
  8
0
 62
7
  6
CONTINUOUS
 10
187.9157492068
 20
234.0660373094
  0
VERTEX
  8
0
 62
7
  6
CONTINUOUS
 10
187.9495577175
 20
234.0860835764
  0
VERTEX
  8
0
 62
7
  6
CONTINUOUS
 10
187.986663686
 20
234.1035071492
  0
VERTEX
  8
0
 62
7
  6
CONTINUOUS
 10
188.0268370507
 20
234.1184974855
  0
VERTEX
  8
0
 62
7
  6
CONTINUOUS
 10
188.0696714273
 20
234.1311143208
  0
VERTEX
  8
0
 62
7
  6
CONTINUOUS
 10
188.1144959609
 20
234.1413552973
  0
VERTEX
  8
0
 62
7
  6
CONTINUOUS
 10
188.1609522578
 20
234.1493105869
  0
SEQEND
  0
POLYLINE
  8
SURFACE
 62
7
  6
CONTINUOUS
 66
1
 70
0
  0
VERTEX
  8
SURFACE
 62
7
  6
CONTINUOUS
 10
188.2767664625
 20
233.1736563261
  0
VERTEX
  8
SURFACE
 62
7
  6
CONTINUOUS
 10
188.2801736596
 20
233.2098895522
  0
VERTEX
  8
SURFACE
 62
7
  6
CONTINUOUS
 10
188.2845946695
 20
233.2460198683
  0
VERTEX
  8
SURFACE
 62
7
  6
CONTINUOUS
 10
188.290025484
 20
233.2820122072
  0
SEQEND
  0
POLYLINE
  8
0
 62
7
  6
CONTINUOUS
 66
1
 70
0
  0
VERTEX
  8
0
 62
7
  6
CONTINUOUS
 10
187.8882197976
 20
228.3126378952
  0
VERTEX
  8
0
 62
7
  6
CONTINUOUS
 10
187.8780061928
 20
228.2198114917
  0
VERTEX
  8
0
 62
7
  6
CONTINUOUS
 10
187.863452365
 20
228.1366930962
  0
SEQEND
  0
POLYLINE
  8
0
 62
7
  6
CONTINUOUS
 66
1
 70
0
  0
VERTEX
  8
0
 62
7
  6
CONTINUOUS
 10
187.8634536845
 20
228.1367001751
  0
VERTEX
  8
0
 62
7
  6
CONTINUOUS
 10
187.8407594421
 20
228.0164085222
  0
VERTEX
  8
0
 62
7
  6
CONTINUOUS
 10
187.82510038
 20
227.9053877077
  0
VERTEX
  8
0
 62
7
  6
CONTINUOUS
 10
187.8160424556
 20
227.8031151581
  0
VERTEX
  8
0
 62
7
  6
CONTINUOUS
 10
187.8131261708
 20
227.7090287077
  0
SEQEND
  0
POLYLINE
  8
0
 62
7
  6
CONTINUOUS
 66
1
 70
0
  0
VERTEX
  8
0
 62
7
  6
CONTINUOUS
 10
206.6007499398
 20
238.1700760848
  0
VERTEX
  8
0
 62
7
  6
CONTINUOUS
 10
206.5697486284
 20
238.135175243
  0
VERTEX
  8
0
 62
7
  6
CONTINUOUS
 10
206.5383785091
 20
238.101950178
  0
VERTEX
  8
0
 62
7
  6
CONTINUOUS
 10
206.5058279169
 20
238.0716117473
  0
VERTEX
  8
0
 62
7
  6
CONTINUOUS
 10
206.4721567435
 20
238.045018998
  0
VERTEX
  8
0
 62
7
  6
CONTINUOUS
 10
206.4380732048
 20
238.0227457961
  0
VERTEX
  8
0
 62
7
  6
CONTINUOUS
 10
206.357458446
 20
237.9798003435
  0
SEQEND
  0
POLYLINE
  8
0
 62
7
  6
CONTINUOUS
 66
1
 70
0
  0
VERTEX
  8
0
 62
7
  6
CONTINUOUS
 10
188.1078891737
 20
231.8064006353
  0
VERTEX
  8
0
 62
7
  6
CONTINUOUS
 10
188.1194304321
 20
231.7704300141
  0
VERTEX
  8
0
 62
7
  6
CONTINUOUS
 10
188.1288689672
 20
231.7302411351
  0
VERTEX
  8
0
 62
7
  6
CONTINUOUS
 10
188.1361395746
 20
231.6854362328
  0
VERTEX
  8
0
 62
7
  6
CONTINUOUS
 10
188.1410783126
 20
231.6355600296
  0
VERTEX
  8
0
 62
7
  6
CONTINUOUS
 10
188.1434400016
 20
231.5798756092
  0
VERTEX
  8
0
 62
7
  6
CONTINUOUS
 10
188.1428625761
 20
231.5178799798
  0
VERTEX
  8
0
 62
7
  6
CONTINUOUS
 10
188.1389206795
 20
231.4490992592
  0
SEQEND
  0
LINE
  8
SURFACE
 62
7
  6
CONTINUOUS
 10
196.6767664591
 20
233.1736562837
 11
195.8867866075
 21
223.2903990836
  0
POLYLINE
  8
0
 62
7
  6
CONTINUOUS
 66
1
 70
0
  0
VERTEX
  8
0
 62
7
  6
CONTINUOUS
 10
199.3185010921
 20
231.8067725096
  0
VERTEX
  8
0
 62
7
  6
CONTINUOUS
 10
199.3871047011
 20
231.9971079555
  0
VERTEX
  8
0
 62
7
  6
CONTINUOUS
 10
199.4483815854
 20
232.1802427016
  0
VERTEX
  8
0
 62
7
  6
CONTINUOUS
 10
199.5005499196
 20
232.3532132678
  0
VERTEX
  8
0
 62
7
  6
CONTINUOUS
 10
199.5427363302
 20
232.5143838842
  0
VERTEX
  8
0
 62
7
  6
CONTINUOUS
 10
199.5746013695
 20
232.6624106533
  0
VERTEX
  8
0
 62
7
  6
CONTINUOUS
 10
199.596495199
 20
232.7973053496
  0
VERTEX
  8
0
 62
7
  6
CONTINUOUS
 10
199.6090933603
 20
232.9199193
  0
VERTEX
  8
0
 62
7
  6
CONTINUOUS
 10
199.6131261708
 20
233.0311234619
  0
SEQEND
  0
LINE
  8
0
 62
7
  6
CONTINUOUS
 10
222.3206283277
 20
236.1191228094
 11
222.3700218248
 21
236.159936982
  0
LINE
  8
0
 62
7
  6
CONTINUOUS
 10
231.1907306191
 20
234.4541552135
 11
231.2295620829
 21
234.4828778855
  0
LINE
  8
SURFACE
 62
7
  6
CONTINUOUS
 10
199.9321105877
 20
223.3848697492
 11
199.9396617341
 21
223.2903990836
  0
LINE
  8
0
 62
7
  6
CONTINUOUS
 10
199.9335131862
 20
223.3673221606
 11
199.6137614176
 21
227.3676633878
  0
LINE
  8
0
 62
7
  6
CONTINUOUS
 10
199.6122337312
 20
227.3867759227
 11
199.0691787542
 21
234.1808125062
  0
POLYLINE
  8
0
 62
7
  6
CONTINUOUS
 66
1
 70
0
  0
VERTEX
  8
0
 62
7
  6
CONTINUOUS
 10
199.2874806966
 20
231.4496868365
  0
VERTEX
  8
0
 62
7
  6
CONTINUOUS
 10
199.2835419673
 20
231.5184211166
  0
VERTEX
  8
0
 62
7
  6
CONTINUOUS
 10
199.2829660343
 20
231.5803736323
  0
VERTEX
  8
0
 62
7
  6
CONTINUOUS
 10
199.2853273317
 20
231.636020821
  0
VERTEX
  8
0
 62
7
  6
CONTINUOUS
 10
199.2902639625
 20
231.6858659229
  0
VERTEX
  8
0
 62
7
  6
CONTINUOUS
 10
199.2975310579
 20
231.7306458351
  0
VERTEX
  8
0
 62
7
  6
CONTINUOUS
 10
199.3069651453
 20
231.7708159602
  0
VERTEX
  8
0
 62
7
  6
CONTINUOUS
 10
199.3185015287
 20
231.8067737392
  0
SEQEND
  0
POLYLINE
  8
0
 62
7
  6
CONTINUOUS
 66
1
 70
0
  0
VERTEX
  8
0
 62
7
  6
CONTINUOUS
 10
199.6131261708
 20
227.7090287077
  0
VERTEX
  8
0
 62
7
  6
CONTINUOUS
 10
199.6102219038
 20
227.8029155037
  0
VERTEX
  8
0
 62
7
  6
CONTINUOUS
 10
199.6012053531
 20
227.9049240811
  0
VERTEX
  8
0
 62
7
  6
CONTINUOUS
 10
199.5856214076
 20
228.0156304867
  0
VERTEX
  8
0
 62
7
  6
CONTINUOUS
 10
199.5630375084
 20
228.1355650259
  0
SEQEND
  0
LINE
  8
0
 62
7
  6
CONTINUOUS
 10
198.0131261708
 20
238.1178573661
 11
198.0131261708
 21
238.1700760848
  0
LINE
  8
0
 62
7
  6
CONTINUOUS
 10
199.6131261708
 20
238.1700760848
 11
199.6131261708
 21
227.3836015998
  0
POLYLINE
  8
0
 62
7
  6
CONTINUOUS
 66
1
 70
0
  0
VERTEX
  8
0
 62
7
  6
CONTINUOUS
 10
204.6131261708
 20
234.1766852722
  0
VERTEX
  8
0
 62
7
  6
CONTINUOUS
 10
204.6203312281
 20
234.2023595041
  0
VERTEX
  8
0
 62
7
  6
CONTINUOUS
 10
204.6322742384
 20
234.2308312963
  0
VERTEX
  8
0
 62
7
  6
CONTINUOUS
 10
204.6476357499
 20
234.2576138001
  0
VERTEX
  8
0
 62
7
  6
CONTINUOUS
 10
204.6661814656
 20
234.2822985201
  0
VERTEX
  8
0
 62
7
  6
CONTINUOUS
 10
204.687628522
 20
234.3045089537
  0
VERTEX
  8
0
 62
7
  6
CONTINUOUS
 10
204.7116497932
 20
234.3239063289
  0
VERTEX
  8
0
 62
7
  6
CONTINUOUS
 10
204.7378788885
 20
234.3401947833
  0
VERTEX
  8
0
 62
7
  6
CONTINUOUS
 10
204.7659157196
 20
234.3531258691
  0
VERTEX
  8
0
 62
7
  6
CONTINUOUS
 10
204.7953313622
 20
234.3625020436
  0
VERTEX
  8
0
 62
7
  6
CONTINUOUS
 10
204.8256767021
 20
234.3681807475
  0
VERTEX
  8
0
 62
7
  6
CONTINUOUS
 10
204.8564019857
 20
234.3700760183
  0
SEQEND
  0
LINE
  8
0
 62
7
  6
CONTINUOUS
 10
205.3763111428
 20
235.1618564734
 11
206.0678649879
 21
237.5815588229
  0
POLYLINE
  8
0
 62
7
  6
CONTINUOUS
 66
1
 70
0
  0
VERTEX
  8
0
 62
7
  6
CONTINUOUS
 10
205.8739306605
 20
236.9029951058
  0
VERTEX
  8
0
 62
7
  6
CONTINUOUS
 10
205.8633198289
 20
236.8725073725
  0
VERTEX
  8
0
 62
7
  6
CONTINUOUS
 10
205.8496227182
 20
236.8439703434
  0
VERTEX
  8
0
 62
7
  6
CONTINUOUS
 10
205.833315933
 20
236.8179328528
  0
VERTEX
  8
0
 62
7
  6
CONTINUOUS
 10
205.8145824106
 20
236.7944098752
  0
VERTEX
  8
0
 62
7
  6
CONTINUOUS
 10
205.7938390068
 20
236.7737829585
  0
VERTEX
  8
0
 62
7
  6
CONTINUOUS
 10
205.7717164888
 20
236.7564697465
  0
VERTEX
  8
0
 62
7
  6
CONTINUOUS
 10
205.7488988673
 20
236.7426914729
  0
VERTEX
  8
0
 62
7
  6
CONTINUOUS
 10
205.7257663015
 20
236.7323485282
  0
VERTEX
  8
0
 62
7
  6
CONTINUOUS
 10
205.702630226
 20
236.7253052558
  0
VERTEX
  8
0
 62
7
  6
CONTINUOUS
 10
205.6797289862
 20
236.7214100868
  0
VERTEX
  8
0
 62
7
  6
CONTINUOUS
 10
205.657222127
 20
236.7205208405
  0
SEQEND
  0
POLYLINE
  8
0
 62
7
  6
CONTINUOUS
 66
1
 70
0
  0
VERTEX
  8
0
 62
7
  6
CONTINUOUS
 10
206.2131066344
 20
238.0941993985
  0
VERTEX
  8
0
 62
7
  6
CONTINUOUS
 10
206.2129175795
 20
238.0937393763
  0
VERTEX
  8
0
 62
7
  6
CONTINUOUS
 10
206.2105305625
 20
238.0880230965
  0
VERTEX
  8
0
 62
7
  6
CONTINUOUS
 10
206.2049662334
 20
238.0760118252
  0
VERTEX
  8
0
 62
7
  6
CONTINUOUS
 10
206.1949404128
 20
238.0576392664
  0
VERTEX
  8
0
 62
7
  6
CONTINUOUS
 10
206.1794410265
 20
238.0344608656
  0
VERTEX
  8
0
 62
7
  6
CONTINUOUS
 10
206.157897997
 20
238.0087630887
  0
VERTEX
  8
0
 62
7
  6
CONTINUOUS
 10
206.1297348448
 20
237.9825370688
  0
VERTEX
  8
0
 62
7
  6
CONTINUOUS
 10
206.09445624
 20
237.9578646368
  0
VERTEX
  8
0
 62
7
  6
CONTINUOUS
 10
206.0542437913
 20
237.9382275123
  0
VERTEX
  8
0
 62
7
  6
CONTINUOUS
 10
206.0161928464
 20
237.9267785534
  0
SEQEND
  0
LINE
  8
0
 62
7
  6
CONTINUOUS
 10
206.2131261706
 20
238.0942454968
 11
206.2131066344
 21
238.0941993985
  0
LINE
  8
0
 62
7
  6
CONTINUOUS
 10
222.3687494406
 20
236.1587701179
 11
222.4136513911
 21
236.2043999346
  0
LINE
  8
0
 62
7
  6
CONTINUOUS
 10
231.2295620829
 20
234.4828778855
 11
231.2388259534
 21
234.4912451562
  0
LINE
  8
0
 62
7
  6
CONTINUOUS
 10
198.0208249187
 20
238.0635667118
 11
198.9632197382
 21
234.766187954
  0
POLYLINE
  8
0
 62
7
  6
CONTINUOUS
 66
1
 70
0
  0
VERTEX
  8
0
 62
7
  6
CONTINUOUS
 10
199.0640017804
 20
234.2385517815
  0
VERTEX
  8
0
 62
7
  6
CONTINUOUS
 10
199.0667997032
 20
234.2279983373
  0
VERTEX
  8
0
 62
7
  6
CONTINUOUS
 10
199.0730850646
 20
234.2173913085
  0
VERTEX
  8
0
 62
7
  6
CONTINUOUS
 10
199.0826650194
 20
234.2070303834
  0
VERTEX
  8
0
 62
7
  6
CONTINUOUS
 10
199.0953731977
 20
234.1970702685
  0
VERTEX
  8
0
 62
7
  6
CONTINUOUS
 10
199.1109764455
 20
234.1877118953
  0
SEQEND
  0
POLYLINE
  8
0
 62
7
  6
CONTINUOUS
 66
1
 70
0
  0
VERTEX
  8
0
 62
7
  6
CONTINUOUS
 10
199.563038604
 20
228.1355591369
  0
VERTEX
  8
0
 62
7
  6
CONTINUOUS
 10
199.5485312072
 20
228.2185376909
  0
VERTEX
  8
0
 62
7
  6
CONTINUOUS
 10
199.5383464082
 20
228.3111633258
  0
SEQEND
  0
LINE
  8
0
 62
7
  6
CONTINUOUS
 10
207.0677877617
 20
231.8687002379
 11
207.0609154112
 21
234.370072685
  0
POLYLINE
  8
0
 62
7
  6
CONTINUOUS
 66
1
 70
0
  0
VERTEX
  8
0
 62
7
  6
CONTINUOUS
 10
204.0013142164
 20
230.3700760848
  0
VERTEX
  8
0
 62
7
  6
CONTINUOUS
 10
204.0016489072
 20
230.1043119525
  0
VERTEX
  8
0
 62
7
  6
CONTINUOUS
 10
204.0026516162
 20
229.8396367798
  0
VERTEX
  8
0
 62
7
  6
CONTINUOUS
 10
204.004318258
 20
229.5771351674
  0
VERTEX
  8
0
 62
7
  6
CONTINUOUS
 10
204.0066420411
 20
229.3178830109
  0
VERTEX
  8
0
 62
7
  6
CONTINUOUS
 10
204.0096134934
 20
229.0629431747
  0
VERTEX
  8
0
 62
7
  6
CONTINUOUS
 10
204.0132204983
 20
228.8133612319
  0
VERTEX
  8
0
 62
7
  6
CONTINUOUS
 10
204.0174483412
 20
228.5701612253
  0
VERTEX
  8
0
 62
7
  6
CONTINUOUS
 10
204.0222797661
 20
228.3343415203
  0
VERTEX
  8
0
 62
7
  6
CONTINUOUS
 10
204.0276950417
 20
228.1068707585
  0
VERTEX
  8
0
 62
7
  6
CONTINUOUS
 10
204.0336720387
 20
227.8886838554
  0
VERTEX
  8
0
 62
7
  6
CONTINUOUS
 10
204.0401863158
 20
227.6806781811
  0
VERTEX
  8
0
 62
7
  6
CONTINUOUS
 10
204.047211215
 20
227.4837098458
  0
VERTEX
  8
0
 62
7
  6
CONTINUOUS
 10
204.054717969
 20
227.2985900979
  0
VERTEX
  8
0
 62
7
  6
CONTINUOUS
 10
204.0626758137
 20
227.1260819617
  0
VERTEX
  8
0
 62
7
  6
CONTINUOUS
 10
204.0710521125
 20
226.9668969959
  0
VERTEX
  8
0
 62
7
  6
CONTINUOUS
 10
204.0798124884
 20
226.821692265
  0
VERTEX
  8
0
 62
7
  6
CONTINUOUS
 10
204.0889209626
 20
226.691067552
  0
VERTEX
  8
0
 62
7
  6
CONTINUOUS
 10
204.0983401027
 20
226.5755627578
  0
VERTEX
  8
0
 62
7
  6
CONTINUOUS
 10
204.1080311762
 20
226.475655577
  0
VERTEX
  8
0
 62
7
  6
CONTINUOUS
 10
204.1179543101
 20
226.3917594264
  0
VERTEX
  8
0
 62
7
  6
CONTINUOUS
 10
204.1280686579
 20
226.324221627
  0
VERTEX
  8
0
 62
7
  6
CONTINUOUS
 10
204.138332569
 20
226.273321893
  0
VERTEX
  8
0
 62
7
  6
CONTINUOUS
 10
204.1487037631
 20
226.2392710975
  0
VERTEX
  8
0
 62
7
  6
CONTINUOUS
 10
204.1591395085
 20
226.2222103414
  0
VERTEX
  8
0
 62
7
  6
CONTINUOUS
 10
204.1643681604
 20
226.2200777435
  0
SEQEND
  0
LINE
  8
0
 62
7
  6
CONTINUOUS
 10
204.6131261708
 20
230.3700760848
 11
204.6131261708
 21
238.1700760848
  0
LINE
  8
0
 62
7
  6
CONTINUOUS
 10
206.2131261708
 20
238.0934775558
 11
206.2131261708
 21
238.1700760848
  0
LINE
  8
0
 62
7
  6
CONTINUOUS
 10
205.5586605799
 20
231.868700238
 11
205.5655329305
 21
234.370072685
  0
POLYLINE
  8
0
 62
7
  6
CONTINUOUS
 66
1
 70
0
  0
VERTEX
  8
0
 62
7
  6
CONTINUOUS
 10
204.510542613
 20
228.2086466901
  0
VERTEX
  8
0
 62
7
  6
CONTINUOUS
 10
204.5303467872
 20
229.6430115966
  0
VERTEX
  8
0
 62
7
  6
CONTINUOUS
 10
204.5413626643
 20
230.3700760848
  0
SEQEND
  0
POLYLINE
  8
0
 62
7
  6
CONTINUOUS
 66
1
 70
0
  0
VERTEX
  8
0
 62
7
  6
CONTINUOUS
 10
204.4763622079
 20
225.7722087651
  0
VERTEX
  8
0
 62
7
  6
CONTINUOUS
 10
204.4801024664
 20
225.9592435947
  0
VERTEX
  8
0
 62
7
  6
CONTINUOUS
 10
204.4836406628
 20
226.15437731
  0
VERTEX
  8
0
 62
7
  6
CONTINUOUS
 10
204.4869517116
 20
226.3576487489
  0
VERTEX
  8
0
 62
7
  6
CONTINUOUS
 10
204.4900093258
 20
226.5690682998
  0
VERTEX
  8
0
 62
7
  6
CONTINUOUS
 10
204.510542613
 20
228.2086466901
  0
SEQEND
  0
LINE
  8
0
 62
7
  6
CONTINUOUS
 10
204.4683693254
 20
225.4221247645
 11
204.4763622079
 21
225.7722087651
  0
LINE
  8
0
 62
7
  6
CONTINUOUS
 10
204.4598366472
 20
225.1032376078
 11
204.4683693254
 21
225.4221247645
  0
LINE
  8
0
 62
7
  6
CONTINUOUS
 10
204.4509174441
 20
224.8142814997
 11
204.4598366472
 21
225.1032376078
  0
LINE
  8
0
 62
7
  6
CONTINUOUS
 10
204.4417457234
 20
224.5537562828
 11
204.4509174441
 21
224.8142814997
  0
LINE
  8
0
 62
7
  6
CONTINUOUS
 10
204.432450889
 20
224.3203167656
 11
204.4417457234
 21
224.5537562828
  0
LINE
  8
0
 62
7
  6
CONTINUOUS
 10
204.423155413
 20
224.1125836274
 11
204.432450889
 21
224.3203167656
  0
LINE
  8
0
 62
7
  6
CONTINUOUS
 10
204.4139386539
 20
223.928422355
 11
204.423155413
 21
224.1125836274
  0
LINE
  8
0
 62
7
  6
CONTINUOUS
 10
204.4048149686
 20
223.7649103132
 11
204.4139386539
 21
223.928422355
  0
LINE
  8
0
 62
7
  6
CONTINUOUS
 10
204.395774562
 20
223.619380034
 11
204.4048149686
 21
223.7649103132
  0
LINE
  8
0
 62
7
  6
CONTINUOUS
 10
204.3868351303
 20
223.4901161406
 11
204.395774562
 21
223.619380034
  0
POLYLINE
  8
0
 62
7
  6
CONTINUOUS
 66
1
 70
0
  0
VERTEX
  8
0
 62
7
  6
CONTINUOUS
 10
222.4505985437
 20
236.2504559938
  0
VERTEX
  8
0
 62
7
  6
CONTINUOUS
 10
222.4824449039
 20
236.2991939542
  0
VERTEX
  8
0
 62
7
  6
CONTINUOUS
 10
222.5089544221
 20
236.3499759796
  0
SEQEND
  0
LINE
  8
0
 62
7
  6
CONTINUOUS
 10
222.4124966741
 20
236.2030996989
 11
222.4516016171
 21
236.2518435349
  0
POLYLINE
  8
0
 62
7
  6
CONTINUOUS
 66
1
 70
0
  0
VERTEX
  8
0
 62
7
  6
CONTINUOUS
 10
220.5632241708
 20
223.241245464
  0
VERTEX
  8
0
 62
7
  6
CONTINUOUS
 10
220.572632853
 20
223.2515977149
  0
VERTEX
  8
0
 62
7
  6
CONTINUOUS
 10
220.5913445707
 20
223.2716624176
  0
SEQEND
  0
POLYLINE
  8
0
 62
7
  6
CONTINUOUS
 66
1
 70
0
  0
VERTEX
  8
0
 62
7
  6
CONTINUOUS
 10
220.6642324754
 20
223.3487701309
  0
VERTEX
  8
0
 62
7
  6
CONTINUOUS
 10
220.6930488835
 20
223.3798467384
  0
VERTEX
  8
0
 62
7
  6
CONTINUOUS
 10
220.7237663003
 20
223.4137855697
  0
VERTEX
  8
0
 62
7
  6
CONTINUOUS
 10
220.7562178257
 20
223.450816955
  0
VERTEX
  8
0
 62
7
  6
CONTINUOUS
 10
220.7902407162
 20
223.4912394662
  0
VERTEX
  8
0
 62
7
  6
CONTINUOUS
 10
220.8254392384
 20
223.5351298245
  0
VERTEX
  8
0
 62
7
  6
CONTINUOUS
 10
220.8612783692
 20
223.5824089126
  0
VERTEX
  8
0
 62
7
  6
CONTINUOUS
 10
220.8972422519
 20
223.6330064887
  0
VERTEX
  8
0
 62
7
  6
CONTINUOUS
 10
220.9328782679
 20
223.6869177957
  0
VERTEX
  8
0
 62
7
  6
CONTINUOUS
 10
220.9677514413
 20
223.7441513755
  0
VERTEX
  8
0
 62
7
  6
CONTINUOUS
 10
221.0014307365
 20
223.8047096375
  0
VERTEX
  8
0
 62
7
  6
CONTINUOUS
 10
221.0334904205
 20
223.8685903291
  0
VERTEX
  8
0
 62
7
  6
CONTINUOUS
 10
221.0635079024
 20
223.9357868616
  0
VERTEX
  8
0
 62
7
  6
CONTINUOUS
 10
221.0910609527
 20
224.0062941172
  0
VERTEX
  8
0
 62
7
  6
CONTINUOUS
 10
221.1157029295
 20
224.0800511221
  0
VERTEX
  8
0
 62
7
  6
CONTINUOUS
 10
221.1369534908
 20
224.156875706
  0
VERTEX
  8
0
 62
7
  6
CONTINUOUS
 10
221.1543401542
 20
224.2365581074
  0
VERTEX
  8
0
 62
7
  6
CONTINUOUS
 10
221.1673954694
 20
224.3188861421
  0
VERTEX
  8
0
 62
7
  6
CONTINUOUS
 10
221.1742698197
 20
224.384875906
  0
SEQEND
  0
LINE
  8
0
 62
7
  6
CONTINUOUS
 10
220.5913445707
 20
223.2716624176
 11
220.6642324754
 21
223.3487701309
  0
POLYLINE
  8
0
 62
7
  6
CONTINUOUS
 66
1
 70
0
  0
VERTEX
  8
0
 62
7
  6
CONTINUOUS
 10
225.63555106
 20
223.2711869267
  0
VERTEX
  8
0
 62
7
  6
CONTINUOUS
 10
225.6542166058
 20
223.2511624559
  0
VERTEX
  8
0
 62
7
  6
CONTINUOUS
 10
225.6695572875
 20
223.2342703714
  0
VERTEX
  8
0
 62
7
  6
CONTINUOUS
 10
225.6813321982
 20
223.2207895498
  0
VERTEX
  8
0
 62
7
  6
CONTINUOUS
 10
225.6894291702
 20
223.2110222305
  0
VERTEX
  8
0
 62
7
  6
CONTINUOUS
 10
225.6928179335
 20
223.2067040772
  0
SEQEND
  0
POLYLINE
  8
0
 62
7
  6
CONTINUOUS
 66
1
 70
0
  0
VERTEX
  8
0
 62
7
  6
CONTINUOUS
 10
208.0695099943
 20
231.3700760848
  0
VERTEX
  8
0
 62
7
  6
CONTINUOUS
 10
208.0746093261
 20
231.0615308757
  0
VERTEX
  8
0
 62
7
  6
CONTINUOUS
 10
208.0961014974
 20
229.643015542
  0
VERTEX
  8
0
 62
7
  6
CONTINUOUS
 10
208.1159056942
 20
228.2086493153
  0
VERTEX
  8
0
 62
7
  6
CONTINUOUS
 10
208.1378277937
 20
226.4697286518
  0
SEQEND
  0
POLYLINE
  8
0
 62
7
  6
CONTINUOUS
 66
1
 70
0
  0
VERTEX
  8
0
 62
7
  6
CONTINUOUS
 10
208.1378277937
 20
226.4697286518
  0
VERTEX
  8
0
 62
7
  6
CONTINUOUS
 10
208.1425686719
 20
226.1683142756
  0
VERTEX
  8
0
 62
7
  6
CONTINUOUS
 10
208.1478011223
 20
225.8843678486
  0
VERTEX
  8
0
 62
7
  6
CONTINUOUS
 10
208.1534470019
 20
225.6177473664
  0
VERTEX
  8
0
 62
7
  6
CONTINUOUS
 10
208.1594340784
 20
225.3681752016
  0
VERTEX
  8
0
 62
7
  6
CONTINUOUS
 10
208.165696258
 20
225.135249922
  0
VERTEX
  8
0
 62
7
  6
CONTINUOUS
 10
208.1721736167
 20
224.9184663294
  0
VERTEX
  8
0
 62
7
  6
CONTINUOUS
 10
208.178812224
 20
224.7172388061
  0
VERTEX
  8
0
 62
7
  6
CONTINUOUS
 10
208.1855618009
 20
224.530977024
  0
VERTEX
  8
0
 62
7
  6
CONTINUOUS
 10
208.1923705954
 20
224.3591969081
  0
VERTEX
  8
0
 62
7
  6
CONTINUOUS
 10
208.1991895392
 20
224.2013731619
  0
VERTEX
  8
0
 62
7
  6
CONTINUOUS
 10
208.2059767639
 20
224.0568484634
  0
VERTEX
  8
0
 62
7
  6
CONTINUOUS
 10
208.2127162216
 20
223.9245225752
  0
VERTEX
  8
0
 62
7
  6
CONTINUOUS
 10
208.2194068658
 20
223.8032041207
  0
VERTEX
  8
0
 62
7
  6
CONTINUOUS
 10
208.2260546305
 20
223.6917902032
  0
VERTEX
  8
0
 62
7
  6
CONTINUOUS
 10
208.2326623055
 20
223.5894132273
  0
VERTEX
  8
0
 62
7
  6
CONTINUOUS
 10
208.2392100146
 20
223.4956506109
  0
VERTEX
  8
0
 62
7
  6
CONTINUOUS
 10
208.2456754975
 20
223.4101182092
  0
VERTEX
  8
0
 62
7
  6
CONTINUOUS
 10
208.2520391018
 20
223.3323961614
  0
VERTEX
  8
0
 62
7
  6
CONTINUOUS
 10
208.2582826472
 20
223.2620474129
  0
VERTEX
  8
0
 62
7
  6
CONTINUOUS
 10
208.2643815481
 20
223.1987018899
  0
VERTEX
  8
0
 62
7
  6
CONTINUOUS
 10
208.2703101939
 20
223.1419762672
  0
VERTEX
  8
0
 62
7
  6
CONTINUOUS
 10
208.2760706358
 20
223.0912328699
  0
VERTEX
  8
0
 62
7
  6
CONTINUOUS
 10
208.2817092386
 20
223.0455452145
  0
VERTEX
  8
0
 62
7
  6
CONTINUOUS
 10
208.287285591
 20
223.0040533058
  0
VERTEX
  8
0
 62
7
  6
CONTINUOUS
 10
208.2928513723
 20
222.9661129038
  0
VERTEX
  8
0
 62
7
  6
CONTINUOUS
 10
208.2984507536
 20
222.9312446152
  0
VERTEX
  8
0
 62
7
  6
CONTINUOUS
 10
208.304142682
 20
222.8989718245
  0
VERTEX
  8
0
 62
7
  6
CONTINUOUS
 10
208.3100053989
 20
222.8688165111
  0
VERTEX
  8
0
 62
7
  6
CONTINUOUS
 10
208.3161400348
 20
222.8403088842
  0
VERTEX
  8
0
 62
7
  6
CONTINUOUS
 10
208.3226832099
 20
222.812961295
  0
VERTEX
  8
0
 62
7
  6
CONTINUOUS
 10
208.3298354775
 20
222.7862083098
  0
VERTEX
  8
0
 62
7
  6
CONTINUOUS
 10
208.3378934749
 20
222.7593907728
  0
VERTEX
  8
0
 62
7
  6
CONTINUOUS
 10
208.3472798603
 20
222.731792311
  0
VERTEX
  8
0
 62
7
  6
CONTINUOUS
 10
208.3585150324
 20
222.7028430953
  0
VERTEX
  8
0
 62
7
  6
CONTINUOUS
 10
208.372211533
 20
222.6721775829
  0
VERTEX
  8
0
 62
7
  6
CONTINUOUS
 10
208.3890728671
 20
222.6396485289
  0
VERTEX
  8
0
 62
7
  6
CONTINUOUS
 10
208.4095536097
 20
222.6058447009
  0
VERTEX
  8
0
 62
7
  6
CONTINUOUS
 10
208.4335464105
 20
222.5721019275
  0
VERTEX
  8
0
 62
7
  6
CONTINUOUS
 10
208.4611130816
 20
222.5391476669
  0
VERTEX
  8
0
 62
7
  6
CONTINUOUS
 10
208.4931955458
 20
222.5067494593
  0
VERTEX
  8
0
 62
7
  6
CONTINUOUS
 10
208.5306963633
 20
222.475191502
  0
VERTEX
  8
0
 62
7
  6
CONTINUOUS
 10
208.5735409798
 20
222.4457642102
  0
VERTEX
  8
0
 62
7
  6
CONTINUOUS
 10
208.6211901231
 20
222.419831403
  0
VERTEX
  8
0
 62
7
  6
CONTINUOUS
 10
208.6727734545
 20
222.3985785289
  0
VERTEX
  8
0
 62
7
  6
CONTINUOUS
 10
208.727350736
 20
222.382860314
  0
VERTEX
  8
0
 62
7
  6
CONTINUOUS
 10
208.7838739175
 20
222.3732575206
  0
VERTEX
  8
0
 62
7
  6
CONTINUOUS
 10
208.8406676425
 20
222.3700761098
  0
SEQEND
  0
LINE
  8
0
 62
7
  6
CONTINUOUS
 10
208.0133221708
 20
231.3700760848
 11
208.0133221708
 21
230.3700760848
  0
LINE
  8
0
 62
7
  6
CONTINUOUS
 10
208.6060888234
 20
231.3935413479
 11
208.6580444305
 21
234.3700760848
  0
POLYLINE
  8
0
 62
7
  6
CONTINUOUS
 66
1
 70
0
  0
VERTEX
  8
0
 62
7
  6
CONTINUOUS
 10
216.1185010921
 20
231.8067725096
  0
VERTEX
  8
0
 62
7
  6
CONTINUOUS
 10
216.1871047011
 20
231.9971079555
  0
VERTEX
  8
0
 62
7
  6
CONTINUOUS
 10
216.2483815854
 20
232.1802427016
  0
VERTEX
  8
0
 62
7
  6
CONTINUOUS
 10
216.3005499196
 20
232.3532132678
  0
VERTEX
  8
0
 62
7
  6
CONTINUOUS
 10
216.3427363302
 20
232.5143838842
  0
VERTEX
  8
0
 62
7
  6
CONTINUOUS
 10
216.3746013695
 20
232.6624106533
  0
VERTEX
  8
0
 62
7
  6
CONTINUOUS
 10
216.396495199
 20
232.7973053496
  0
VERTEX
  8
0
 62
7
  6
CONTINUOUS
 10
216.4090933603
 20
232.9199193
  0
VERTEX
  8
0
 62
7
  6
CONTINUOUS
 10
216.4131261708
 20
233.0311234619
  0
SEQEND
  0
LINE
  8
SURFACE
 62
7
  6
CONTINUOUS
 10
221.9981559388
 20
233.6273934814
 11
222.0315631924
 21
233.692939448
  0
POLYLINE
  8
SURFACE
 62
7
  6
CONTINUOUS
 66
1
 70
0
  0
VERTEX
  8
SURFACE
 62
7
  6
CONTINUOUS
 10
222.0315631924
 20
233.692939448
  0
VERTEX
  8
SURFACE
 62
7
  6
CONTINUOUS
 10
222.0707274652
 20
233.7598610506
  0
VERTEX
  8
SURFACE
 62
7
  6
CONTINUOUS
 10
222.1164810014
 20
233.8280616385
  0
VERTEX
  8
SURFACE
 62
7
  6
CONTINUOUS
 10
222.1696786195
 20
233.8971683998
  0
VERTEX
  8
SURFACE
 62
7
  6
CONTINUOUS
 10
222.2309247551
 20
233.9662818748
  0
VERTEX
  8
SURFACE
 62
7
  6
CONTINUOUS
 10
222.3010024735
 20
234.0345757056
  0
VERTEX
  8
SURFACE
 62
7
  6
CONTINUOUS
 10
222.3803620384
 20
234.1007584224
  0
VERTEX
  8
SURFACE
 62
7
  6
CONTINUOUS
 10
222.4694081265
 20
234.1634535161
  0
VERTEX
  8
SURFACE
 62
7
  6
CONTINUOUS
 10
222.5681128828
 20
234.2209691892
  0
VERTEX
  8
SURFACE
 62
7
  6
CONTINUOUS
 10
222.6760272066
 20
234.271484543
  0
VERTEX
  8
SURFACE
 62
7
  6
CONTINUOUS
 10
222.7920650952
 20
234.3131238559
  0
VERTEX
  8
SURFACE
 62
7
  6
CONTINUOUS
 10
222.9149230705
 20
234.3442759841
  0
VERTEX
  8
SURFACE
 62
7
  6
CONTINUOUS
 10
223.0383518572
 20
234.3629186589
  0
SEQEND
  0
LINE
  8
0
 62
7
  6
CONTINUOUS
 10
222.4516016171
 20
236.2518435349
 11
222.4832835884
 21
236.300630061
  0
POLYLINE
  8
0
 62
7
  6
CONTINUOUS
 66
1
 70
0
  0
VERTEX
  8
0
 62
7
  6
CONTINUOUS
 10
220.6626884419
 20
224.6651492393
  0
VERTEX
  8
0
 62
7
  6
CONTINUOUS
 10
220.6925364851
 20
224.7102769719
  0
VERTEX
  8
0
 62
7
  6
CONTINUOUS
 10
220.7329684592
 20
224.7689893645
  0
VERTEX
  8
0
 62
7
  6
CONTINUOUS
 10
220.8266516991
 20
224.9030248241
  0
SEQEND
  0
POLYLINE
  8
0
 62
7
  6
CONTINUOUS
 66
1
 70
0
  0
VERTEX
  8
0
 62
7
  6
CONTINUOUS
 10
220.8266516991
 20
224.9030248241
  0
VERTEX
  8
0
 62
7
  6
CONTINUOUS
 10
220.8776007483
 20
224.9780513605
  0
VERTEX
  8
0
 62
7
  6
CONTINUOUS
 10
220.9298151293
 20
225.0584198361
  0
VERTEX
  8
0
 62
7
  6
CONTINUOUS
 10
220.9822279868
 20
225.1441574874
  0
VERTEX
  8
0
 62
7
  6
CONTINUOUS
 10
221.033886975
 20
225.2354040859
  0
VERTEX
  8
0
 62
7
  6
CONTINUOUS
 10
221.0839339117
 20
225.3324009661
  0
VERTEX
  8
0
 62
7
  6
CONTINUOUS
 10
221.1315089339
 20
225.4353343982
  0
VERTEX
  8
0
 62
7
  6
CONTINUOUS
 10
221.1757869741
 20
225.5444115315
  0
VERTEX
  8
0
 62
7
  6
CONTINUOUS
 10
221.2159704005
 20
225.6598903374
  0
VERTEX
  8
0
 62
7
  6
CONTINUOUS
 10
221.2512592341
 20
225.7820864491
  0
VERTEX
  8
0
 62
7
  6
CONTINUOUS
 10
221.280770311
 20
225.9111781945
  0
VERTEX
  8
0
 62
7
  6
CONTINUOUS
 10
221.3035288861
 20
226.047121151
  0
VERTEX
  8
0
 62
7
  6
CONTINUOUS
 10
221.3173122535
 20
226.1744519877
  0
SEQEND
  0
LINE
  8
0
 62
7
  6
CONTINUOUS
 10
231.2672486045
 20
234.5169943657
 11
231.3010904793
 21
234.5545621539
  0
LINE
  8
0
 62
7
  6
CONTINUOUS
 10
225.6928349511
 20
223.2066818766
 11
225.6930487041
 21
223.2063981579
  0
LINE
  8
SURFACE
 62
7
  6
CONTINUOUS
 10
216.7321105877
 20
223.3848697492
 11
216.7396617341
 21
223.2903990836
  0
LINE
  8
0
 62
7
  6
CONTINUOUS
 10
216.7335131862
 20
223.3673221606
 11
216.4137614176
 21
227.3676633878
  0
LINE
  8
0
 62
7
  6
CONTINUOUS
 10
216.4122337312
 20
227.3867759227
 11
215.8691787542
 21
234.1808125062
  0
POLYLINE
  8
0
 62
7
  6
CONTINUOUS
 66
1
 70
0
  0
VERTEX
  8
0
 62
7
  6
CONTINUOUS
 10
216.0874806966
 20
231.4496868365
  0
VERTEX
  8
0
 62
7
  6
CONTINUOUS
 10
216.0835419673
 20
231.5184211166
  0
VERTEX
  8
0
 62
7
  6
CONTINUOUS
 10
216.0829660343
 20
231.5803736323
  0
VERTEX
  8
0
 62
7
  6
CONTINUOUS
 10
216.0853273317
 20
231.636020821
  0
VERTEX
  8
0
 62
7
  6
CONTINUOUS
 10
216.0902639625
 20
231.6858659229
  0
VERTEX
  8
0
 62
7
  6
CONTINUOUS
 10
216.0975310579
 20
231.7306458351
  0
VERTEX
  8
0
 62
7
  6
CONTINUOUS
 10
216.1069651453
 20
231.7708159602
  0
VERTEX
  8
0
 62
7
  6
CONTINUOUS
 10
216.1185015287
 20
231.8067737392
  0
SEQEND
  0
POLYLINE
  8
0
 62
7
  6
CONTINUOUS
 66
1
 70
0
  0
VERTEX
  8
0
 62
7
  6
CONTINUOUS
 10
216.4131261708
 20
227.7090287077
  0
VERTEX
  8
0
 62
7
  6
CONTINUOUS
 10
216.4102219038
 20
227.8029155037
  0
VERTEX
  8
0
 62
7
  6
CONTINUOUS
 10
216.4012053531
 20
227.9049240811
  0
VERTEX
  8
0
 62
7
  6
CONTINUOUS
 10
216.3856214076
 20
228.0156304867
  0
VERTEX
  8
0
 62
7
  6
CONTINUOUS
 10
216.3630375084
 20
228.1355650259
  0
SEQEND
  0
LINE
  8
0
 62
7
  6
CONTINUOUS
 10
212.3865487743
 20
233.330557572
 11
212.3684039111
 21
234.3700760848
  0
LINE
  8
0
 62
7
  6
CONTINUOUS
 10
214.8131261708
 20
238.1178573661
 11
214.8131261708
 21
238.1700760848
  0
LINE
  8
0
 62
7
  6
CONTINUOUS
 10
216.4131261708
 20
238.1700760848
 11
216.4131261708
 21
227.3836015998
  0
LINE
  8
SURFACE
 62
7
  6
CONTINUOUS
 10
213.4767664591
 20
233.1736562837
 11
212.6867866075
 21
223.2903990836
  0
LINE
  8
0
 62
7
  6
CONTINUOUS
 10
222.5289404324
 20
236.3992697967
 11
222.5384429527
 21
236.4289417593
  0
LINE
  8
0
 62
7
  6
CONTINUOUS
 10
222.5284259647
 20
236.3978129173
 11
222.528719097
 21
236.3987238914
  0
POLYLINE
  8
0
 62
7
  6
CONTINUOUS
 66
1
 70
0
  0
VERTEX
  8
0
 62
7
  6
CONTINUOUS
 10
222.5384393331
 20
236.4289305889
  0
VERTEX
  8
0
 62
7
  6
CONTINUOUS
 10
222.5226740931
 20
236.3824245373
  0
VERTEX
  8
0
 62
7
  6
CONTINUOUS
 10
222.5008693618
 20
236.3335147724
  0
VERTEX
  8
0
 62
7
  6
CONTINUOUS
 10
222.4733324466
 20
236.284907046
  0
VERTEX
  8
0
 62
7
  6
CONTINUOUS
 10
222.4400852227
 20
236.2376513699
  0
VERTEX
  8
0
 62
7
  6
CONTINUOUS
 10
222.4013744308
 20
236.192820268
  0
VERTEX
  8
0
 62
7
  6
CONTINUOUS
 10
222.3576684487
 20
236.1514513882
  0
VERTEX
  8
0
 62
7
  6
CONTINUOUS
 10
222.3097314129
 20
236.1145545013
  0
VERTEX
  8
0
 62
7
  6
CONTINUOUS
 10
222.2584512515
 20
236.0829158802
  0
VERTEX
  8
0
 62
7
  6
CONTINUOUS
 10
222.2048623231
 20
236.0571257363
  0
VERTEX
  8
0
 62
7
  6
CONTINUOUS
 10
222.1500492378
 20
236.0375224187
  0
VERTEX
  8
0
 62
7
  6
CONTINUOUS
 10
222.0947859649
 20
236.0241342787
  0
VERTEX
  8
0
 62
7
  6
CONTINUOUS
 10
222.0668992385
 20
236.0204557711
  0
SEQEND
  0
LINE
  8
0
 62
7
  6
CONTINUOUS
 10
222.5082802416
 20
236.3485186093
 11
222.5289404324
 21
236.3992697967
  0
POLYLINE
  8
SURFACE
 62
7
  6
CONTINUOUS
 66
1
 70
0
  0
VERTEX
  8
SURFACE
 62
7
  6
CONTINUOUS
 10
221.9689888429
 20
233.5612377355
  0
VERTEX
  8
SURFACE
 62
7
  6
CONTINUOUS
 10
221.9831159935
 20
233.5945265848
  0
VERTEX
  8
SURFACE
 62
7
  6
CONTINUOUS
 10
221.9981559388
 20
233.6273934814
  0
SEQEND
  0
LINE
  8
0
 62
7
  6
CONTINUOUS
 10
231.3010904793
 20
234.5545621539
 11
231.3312140802
 21
234.5956959914
  0
LINE
  8
0
 62
7
  6
CONTINUOUS
 10
214.8208249187
 20
238.0635667118
 11
215.7632197382
 21
234.766187954
  0
POLYLINE
  8
0
 62
7
  6
CONTINUOUS
 66
1
 70
0
  0
VERTEX
  8
0
 62
7
  6
CONTINUOUS
 10
215.8640017804
 20
234.2385517815
  0
VERTEX
  8
0
 62
7
  6
CONTINUOUS
 10
215.8667997032
 20
234.2279983373
  0
VERTEX
  8
0
 62
7
  6
CONTINUOUS
 10
215.8730850646
 20
234.2173913085
  0
VERTEX
  8
0
 62
7
  6
CONTINUOUS
 10
215.8826650194
 20
234.2070303834
  0
VERTEX
  8
0
 62
7
  6
CONTINUOUS
 10
215.8953731977
 20
234.1970702685
  0
VERTEX
  8
0
 62
7
  6
CONTINUOUS
 10
215.9109764455
 20
234.1877118953
  0
SEQEND
  0
POLYLINE
  8
0
 62
7
  6
CONTINUOUS
 66
1
 70
0
  0
VERTEX
  8
0
 62
7
  6
CONTINUOUS
 10
216.363038604
 20
228.1355591369
  0
VERTEX
  8
0
 62
7
  6
CONTINUOUS
 10
216.3485312072
 20
228.2185376909
  0
VERTEX
  8
0
 62
7
  6
CONTINUOUS
 10
216.3383464082
 20
228.3111633258
  0
SEQEND
  0
LINE
  8
0
 62
7
  6
CONTINUOUS
 10
220.5632241708
 20
222.8700760848
 11
220.5632241708
 21
224.3775807782
  0
LINE
  8
0
 62
7
  6
CONTINUOUS
 10
221.4131261708
 20
227.3811647399
 11
221.4131261708
 21
238.1700760848
  0
POLYLINE
  8
0
 62
7
  6
CONTINUOUS
 66
1
 70
0
  0
VERTEX
  8
0
 62
7
  6
CONTINUOUS
 10
220.5632241191
 20
224.3775939661
  0
VERTEX
  8
0
 62
7
  6
CONTINUOUS
 10
220.5649122814
 20
224.40976474
  0
VERTEX
  8
0
 62
7
  6
CONTINUOUS
 10
220.5717171423
 20
224.4529677908
  0
VERTEX
  8
0
 62
7
  6
CONTINUOUS
 10
220.5846991084
 20
224.5020435517
  0
VERTEX
  8
0
 62
7
  6
CONTINUOUS
 10
220.6045733243
 20
224.5557363469
  0
VERTEX
  8
0
 62
7
  6
CONTINUOUS
 10
220.6318713135
 20
224.6127753573
  0
VERTEX
  8
0
 62
7
  6
CONTINUOUS
 10
220.6626692509
 20
224.6651192633
  0
SEQEND
  0
LINE
  8
0
 62
7
  6
CONTINUOUS
 10
221.9572697707
 20
234.180814798
 11
221.1742643875
 21
224.384813576
  0
LINE
  8
SURFACE
 62
7
  6
CONTINUOUS
 10
221.4140511946
 20
227.384731464
 11
221.5616345378
 21
229.2311129082
  0
POLYLINE
  8
SURFACE
 62
7
  6
CONTINUOUS
 66
1
 70
0
  0
VERTEX
  8
SURFACE
 62
7
  6
CONTINUOUS
 10
221.8767664625
 20
233.1736563261
  0
VERTEX
  8
SURFACE
 62
7
  6
CONTINUOUS
 10
221.8801736596
 20
233.2098895522
  0
VERTEX
  8
SURFACE
 62
7
  6
CONTINUOUS
 10
221.8845946695
 20
233.2460198683
  0
VERTEX
  8
SURFACE
 62
7
  6
CONTINUOUS
 10
221.890025484
 20
233.2820122072
  0
SEQEND
  0
POLYLINE
  8
SURFACE
 62
7
  6
CONTINUOUS
 66
1
 70
0
  0
VERTEX
  8
SURFACE
 62
7
  6
CONTINUOUS
 10
221.890025484
 20
233.2820122072
  0
VERTEX
  8
SURFACE
 62
7
  6
CONTINUOUS
 10
221.8964606366
 20
233.3178321426
  0
VERTEX
  8
SURFACE
 62
7
  6
CONTINUOUS
 10
221.9038941459
 20
233.3534498512
  0
VERTEX
  8
SURFACE
 62
7
  6
CONTINUOUS
 10
221.9123202169
 20
233.3888403662
  0
VERTEX
  8
SURFACE
 62
7
  6
CONTINUOUS
 10
221.9217331537
 20
233.4239808182
  0
VERTEX
  8
SURFACE
 62
7
  6
CONTINUOUS
 10
221.9273766543
 20
233.4429128579
  0
SEQEND
  0
POLYLINE
  8
0
 62
7
  6
CONTINUOUS
 66
1
 70
0
  0
VERTEX
  8
0
 62
7
  6
CONTINUOUS
 10
223.0054264009
 20
238.0628773443
  0
VERTEX
  8
0
 62
7
  6
CONTINUOUS
 10
223.0108661193
 20
238.0878561881
  0
VERTEX
  8
0
 62
7
  6
CONTINUOUS
 10
223.013075068
 20
238.1133248906
  0
VERTEX
  8
0
 62
7
  6
CONTINUOUS
 10
223.0131259631
 20
238.1178365753
  0
SEQEND
  0
LINE
  8
0
 62
7
  6
CONTINUOUS
 10
223.0054272948
 20
238.0628804719
 11
222.0632265236
 21
234.7661806767
  0
POLYLINE
  8
SURFACE
 62
7
  6
CONTINUOUS
 66
1
 70
0
  0
VERTEX
  8
SURFACE
 62
7
  6
CONTINUOUS
 10
221.928679635
 20
233.447283918
  0
VERTEX
  8
SURFACE
 62
7
  6
CONTINUOUS
 10
221.9321249576
 20
233.4588418125
  0
VERTEX
  8
SURFACE
 62
7
  6
CONTINUOUS
 10
221.9434663323
 20
233.4933352331
  0
VERTEX
  8
SURFACE
 62
7
  6
CONTINUOUS
 10
221.9557660831
 20
233.5274970287
  0
VERTEX
  8
SURFACE
 62
7
  6
CONTINUOUS
 10
221.9689888429
 20
233.5612377355
  0
SEQEND
  0
POLYLINE
  8
0
 62
7
  6
CONTINUOUS
 66
1
 70
0
  0
VERTEX
  8
0
 62
7
  6
CONTINUOUS
 10
231.3312140802
 20
234.5956959914
  0
VERTEX
  8
0
 62
7
  6
CONTINUOUS
 10
231.3568858694
 20
234.6395022415
  0
VERTEX
  8
0
 62
7
  6
CONTINUOUS
 10
231.3779825682
 20
234.6856861932
  0
VERTEX
  8
0
 62
7
  6
CONTINUOUS
 10
231.3942866269
 20
234.7337715972
  0
VERTEX
  8
0
 62
7
  6
CONTINUOUS
 10
231.4056299125
 20
234.7832625746
  0
SEQEND
  0
POLYLINE
  8
0
 62
7
  6
CONTINUOUS
 66
1
 70
0
  0
VERTEX
  8
0
 62
7
  6
CONTINUOUS
 10
225.0521898405
 20
224.3847375827
  0
VERTEX
  8
0
 62
7
  6
CONTINUOUS
 10
225.0592451326
 20
224.3173969016
  0
VERTEX
  8
0
 62
7
  6
CONTINUOUS
 10
225.0723745995
 20
224.2351499971
  0
VERTEX
  8
0
 62
7
  6
CONTINUOUS
 10
225.0898221713
 20
224.1555567137
  0
VERTEX
  8
0
 62
7
  6
CONTINUOUS
 10
225.1111217055
 20
224.0788219877
  0
VERTEX
  8
0
 62
7
  6
CONTINUOUS
 10
225.1358021903
 20
224.0051522997
  0
VERTEX
  8
0
 62
7
  6
CONTINUOUS
 10
225.163384984
 20
223.9347270981
  0
VERTEX
  8
0
 62
7
  6
CONTINUOUS
 10
225.1934236795
 20
223.867609664
  0
VERTEX
  8
0
 62
7
  6
CONTINUOUS
 10
225.2254974118
 20
223.803804244
  0
VERTEX
  8
0
 62
7
  6
CONTINUOUS
 10
225.2591847293
 20
223.7433157228
  0
VERTEX
  8
0
 62
7
  6
CONTINUOUS
 10
225.2940603066
 20
223.6861467829
  0
VERTEX
  8
0
 62
7
  6
CONTINUOUS
 10
225.3296936629
 20
223.6322963476
  0
VERTEX
  8
0
 62
7
  6
CONTINUOUS
 10
225.3656539378
 20
223.5817513324
  0
VERTEX
  8
0
 62
7
  6
CONTINUOUS
 10
225.4014889821
 20
223.5345155473
  0
VERTEX
  8
0
 62
7
  6
CONTINUOUS
 10
225.4366826582
 20
223.4906619092
  0
VERTEX
  8
0
 62
7
  6
CONTINUOUS
 10
225.4707094241
 20
223.4502607739
  0
VERTEX
  8
0
 62
7
  6
CONTINUOUS
 10
225.5031704299
 20
223.4132381205
  0
VERTEX
  8
0
 62
7
  6
CONTINUOUS
 10
225.5338841737
 20
223.3793182271
  0
VERTEX
  8
0
 62
7
  6
CONTINUOUS
 10
225.5627029696
 20
223.3482502384
  0
VERTEX
  8
0
 62
7
  6
CONTINUOUS
 10
225.63555106
 20
223.2711869267
  0
SEQEND
  0
LINE
  8
SURFACE
 62
7
  6
CONTINUOUS
 10
224.3496818889
 20
233.1736562045
 11
224.855463535
 21
226.8459377365
  0
LINE
  8
0
 62
7
  6
CONTINUOUS
 10
225.052184988
 20
224.3848006427
 11
224.3496818903
 21
233.1736561863
  0
LINE
  8
0
 62
7
  6
CONTINUOUS
 10
223.0131261708
 20
238.1171923092
 11
223.0131261708
 21
238.1700760848
  0
LINE
  8
0
 62
7
  6
CONTINUOUS
 10
225.6632241708
 20
222.8700760848
 11
225.6632241708
 21
223.241243956
  0
LINE
  8
0
 62
7
  6
CONTINUOUS
 10
231.4132241708
 20
238.1700760848
 11
231.4132241708
 21
223.3700760848
  0
LINE
  8
0
 62
7
  6
CONTINUOUS
 10
231.4056299125
 20
234.7832625746
 11
231.4118953674
 21
234.8336475562
  0
POLYLINE
  8
0
 62
7
  6
CONTINUOUS
 66
1
 70
0
  0
VERTEX
  8
0
 62
7
  6
CONTINUOUS
 10
80.4132241708
 20
106.3048703465
  0
VERTEX
  8
0
 62
7
  6
CONTINUOUS
 10
80.4149306573
 20
106.2934958666
  0
VERTEX
  8
0
 62
7
  6
CONTINUOUS
 10
80.4200177432
 20
106.2828010612
  0
VERTEX
  8
0
 62
7
  6
CONTINUOUS
 10
80.4283965885
 20
106.2729279662
  0
VERTEX
  8
0
 62
7
  6
CONTINUOUS
 10
80.4399259334
 20
106.2640048635
  0
VERTEX
  8
0
 62
7
  6
CONTINUOUS
 10
80.4544138469
 20
106.2561448756
  0
VERTEX
  8
0
 62
7
  6
CONTINUOUS
 10
80.4716198678
 20
106.2494444161
  0
VERTEX
  8
0
 62
7
  6
CONTINUOUS
 10
80.49125776
 20
106.2439815786
  0
VERTEX
  8
0
 62
7
  6
CONTINUOUS
 10
80.5129990505
 20
106.2398145663
  0
VERTEX
  8
0
 62
7
  6
CONTINUOUS
 10
80.5364774524
 20
106.2369802861
  0
VERTEX
  8
0
 62
7
  6
CONTINUOUS
 10
80.5612942204
 20
106.2354932311
  0
VERTEX
  8
0
 62
7
  6
CONTINUOUS
 10
80.5870244359
 20
106.2353447555
  0
VERTEX
  8
0
 62
7
  6
CONTINUOUS
 10
80.6132241708
 20
106.2365028238
  0
SEQEND
  0
POLYLINE
  8
0
 62
7
  6
CONTINUOUS
 66
1
 70
0
  0
VERTEX
  8
0
 62
7
  6
CONTINUOUS
 10
80.4132253718
 20
100.8431490184
  0
VERTEX
  8
0
 62
7
  6
CONTINUOUS
 10
80.4148917595
 20
100.817643694
  0
VERTEX
  8
0
 62
7
  6
CONTINUOUS
 10
80.4199264263
 20
100.7920248521
  0
VERTEX
  8
0
 62
7
  6
CONTINUOUS
 10
80.4282954973
 20
100.7671470944
  0
VERTEX
  8
0
 62
7
  6
CONTINUOUS
 10
80.4398785307
 20
100.7434998561
  0
VERTEX
  8
0
 62
7
  6
CONTINUOUS
 10
80.4544623105
 20
100.7215577513
  0
VERTEX
  8
0
 62
7
  6
CONTINUOUS
 10
80.4717433807
 20
100.7017552368
  0
VERTEX
  8
0
 62
7
  6
CONTINUOUS
 10
80.4913005632
 20
100.6844925052
  0
VERTEX
  8
0
 62
7
  6
CONTINUOUS
 10
80.512429596
 20
100.6701881126
  0
VERTEX
  8
0
 62
7
  6
CONTINUOUS
 10
80.5342843159
 20
100.6590538544
  0
VERTEX
  8
0
 62
7
  6
CONTINUOUS
 10
80.5559921327
 20
100.6510443795
  0
VERTEX
  8
0
 62
7
  6
CONTINUOUS
 10
80.5768229306
 20
100.6458641135
  0
VERTEX
  8
0
 62
7
  6
CONTINUOUS
 10
80.596472503
 20
100.6430418614
  0
VERTEX
  8
0
 62
7
  6
CONTINUOUS
 10
80.6159919436
 20
100.6421225387
  0
SEQEND
  0
LINE
  8
0
 62
7
  6
CONTINUOUS
 10
80.4132241708
 20
100.8434627424
 11
80.4132241708
 21
155.5575777883
  0
LINE
  8
0
 62
7
  6
CONTINUOUS
 10
82.7278646903
 20
150.0421225383
 11
82.7278646903
 21
123.0421225383
  0
LINE
  8
0
 62
7
  6
CONTINUOUS
 10
86.2985836514
 20
123.0421225383
 11
86.2985836514
 21
150.0421225383
  0
LINE
  8
0
 62
7
  6
CONTINUOUS
 10
87.0131261708
 20
100.8421235846
 11
87.0131261708
 21
106.9512323083
  0
LINE
  8
0
 62
7
  6
CONTINUOUS
 10
87.0131261708
 20
111.3330127683
 11
87.0131261708
 21
112.3266675383
  0
LINE
  8
0
 62
7
  6
CONTINUOUS
 10
90.4133221708
 20
168.3420081991
 11
90.4133221708
 21
162.1330127683
  0
LINE
  8
0
 62
7
  6
CONTINUOUS
 10
90.4133221708
 20
157.7512323083
 11
90.4133221708
 21
156.7575775383
  0
LINE
  8
0
 62
7
  6
CONTINUOUS
 10
91.1278646903
 20
146.0421225383
 11
91.1278646903
 21
119.0421225383
  0
LINE
  8
0
 62
7
  6
CONTINUOUS
 10
94.6985836514
 20
119.0421225383
 11
94.6985836514
 21
146.0421225383
  0
POLYLINE
  8
0
 62
7
  6
CONTINUOUS
 66
1
 70
0
  0
VERTEX
  8
0
 62
7
  6
CONTINUOUS
 10
95.4133221708
 20
168.3419174297
  0
VERTEX
  8
0
 62
7
  6
CONTINUOUS
 10
95.4120851589
 20
168.3575977631
  0
VERTEX
  8
0
 62
7
  6
CONTINUOUS
 10
95.4084047278
 20
168.3728901595
  0
VERTEX
  8
0
 62
7
  6
CONTINUOUS
 10
95.4023719332
 20
168.3874162813
  0
VERTEX
  8
0
 62
7
  6
CONTINUOUS
 10
95.394136029
 20
168.4008167491
  0
VERTEX
  8
0
 62
7
  6
CONTINUOUS
 10
95.383900775
 20
168.4127600326
  0
VERTEX
  8
0
 62
7
  6
CONTINUOUS
 10
95.3719193951
 20
168.4229506531
  0
VERTEX
  8
0
 62
7
  6
CONTINUOUS
 10
95.3584883118
 20
168.4311364945
  0
VERTEX
  8
0
 62
7
  6
CONTINUOUS
 10
95.3439398123
 20
168.4371150392
  0
VERTEX
  8
0
 62
7
  6
CONTINUOUS
 10
95.3286338288
 20
168.4407383783
  0
SEQEND
  0
LINE
  8
0
 62
7
  6
CONTINUOUS
 10
95.4133221708
 20
156.7575775383
 11
95.4133221708
 21
157.7512323083
  0
LINE
  8
0
 62
7
  6
CONTINUOUS
 10
95.4133221708
 20
162.1330127683
 11
95.4133221708
 21
168.3418488597
  0
LINE
  8
SURFACE
 62
2
  6
CONTINUOUS
 10
97.994601033
 20
147.5421225383
 11
97.994601033
 21
121.5421225383
  0
LINE
  8
0
 62
7
  6
CONTINUOUS
 10
98.8131261708
 20
112.3266675383
 11
98.8131261708
 21
111.3330127683
  0
LINE
  8
0
 62
7
  6
CONTINUOUS
 10
98.8131261708
 20
106.9512323083
 11
98.8131261708
 21
100.8421235824
  0
LINE
  8
0
 62
7
  6
CONTINUOUS
 10
99.5278646903
 20
150.0421225383
 11
99.5278646903
 21
123.0421225383
  0
LINE
  8
0
 62
7
  6
CONTINUOUS
 10
103.0985836514
 20
123.0421225383
 11
103.0985836514
 21
150.0421225383
  0
LINE
  8
0
 62
7
  6
CONTINUOUS
 10
103.8131261708
 20
100.8421225383
 11
103.8131261708
 21
106.9512323083
  0
LINE
  8
0
 62
7
  6
CONTINUOUS
 10
103.8131261708
 20
111.3330127683
 11
103.8131261708
 21
112.3266675383
  0
LINE
  8
0
 62
7
  6
CONTINUOUS
 10
107.2133221708
 20
168.3419210488
 11
107.2133221708
 21
162.1330127683
  0
LINE
  8
0
 62
7
  6
CONTINUOUS
 10
107.2133221708
 20
157.7512323083
 11
107.2133221708
 21
156.7575775383
  0
LINE
  8
0
 62
7
  6
CONTINUOUS
 10
107.9278646903
 20
146.0421225383
 11
107.9278646903
 21
119.0421225383
  0
LINE
  8
0
 62
7
  6
CONTINUOUS
 10
111.4985836514
 20
119.0421225383
 11
111.4985836514
 21
146.0421225383
  0
POLYLINE
  8
0
 62
7
  6
CONTINUOUS
 66
1
 70
0
  0
VERTEX
  8
0
 62
7
  6
CONTINUOUS
 10
112.2133221708
 20
168.3419174297
  0
VERTEX
  8
0
 62
7
  6
CONTINUOUS
 10
112.2120851589
 20
168.3575977631
  0
VERTEX
  8
0
 62
7
  6
CONTINUOUS
 10
112.2084047278
 20
168.3728901595
  0
VERTEX
  8
0
 62
7
  6
CONTINUOUS
 10
112.2023719332
 20
168.3874162813
  0
VERTEX
  8
0
 62
7
  6
CONTINUOUS
 10
112.194136029
 20
168.4008167491
  0
VERTEX
  8
0
 62
7
  6
CONTINUOUS
 10
112.183900775
 20
168.4127600326
  0
VERTEX
  8
0
 62
7
  6
CONTINUOUS
 10
112.1719193951
 20
168.4229506531
  0
VERTEX
  8
0
 62
7
  6
CONTINUOUS
 10
112.1584883118
 20
168.4311364945
  0
VERTEX
  8
0
 62
7
  6
CONTINUOUS
 10
112.1439398123
 20
168.4371150392
  0
VERTEX
  8
0
 62
7
  6
CONTINUOUS
 10
112.1286338288
 20
168.4407383783
  0
SEQEND
  0
LINE
  8
0
 62
7
  6
CONTINUOUS
 10
112.2133221708
 20
156.7575775383
 11
112.2133221708
 21
157.7512323083
  0
LINE
  8
0
 62
7
  6
CONTINUOUS
 10
112.2133221708
 20
162.1330127683
 11
112.2133221708
 21
168.3418488597
  0
LINE
  8
SURFACE
 62
2
  6
CONTINUOUS
 10
113.0318473086
 20
147.5421225383
 11
113.0318473086
 21
121.5421225383
  0
LINE
  8
0
 62
7
  6
CONTINUOUS
 10
115.6131261708
 20
112.3266675383
 11
115.6131261708
 21
111.3330127683
  0
LINE
  8
0
 62
7
  6
CONTINUOUS
 10
115.6131261708
 20
106.9512323083
 11
115.6131261708
 21
100.8421235824
  0
LINE
  8
0
 62
7
  6
CONTINUOUS
 10
116.3278646903
 20
150.0421225383
 11
116.3278646903
 21
123.0421225383
  0
LINE
  8
0
 62
7
  6
CONTINUOUS
 10
119.8985836514
 20
123.0421225383
 11
119.8985836514
 21
150.0421225383
  0
LINE
  8
0
 62
7
  6
CONTINUOUS
 10
120.6131261708
 20
100.8421235846
 11
120.6131261708
 21
106.9512323083
  0
LINE
  8
0
 62
7
  6
CONTINUOUS
 10
120.6131261708
 20
111.3330127683
 11
120.6131261708
 21
112.3266675383
  0
LINE
  8
SURFACE
 62
7
  6
CONTINUOUS
 10
221.2131261708
 20
100.6421225383
 11
216.6131261708
 21
100.6421225383
  0
LINE
  8
SURFACE
 62
7
  6
CONTINUOUS
 10
203.3496615255
 20
100.6421225383
 11
199.8131261708
 21
100.6421225383
  0
LINE
  8
SURFACE
 62
7
  6
CONTINUOUS
 10
187.6131261708
 20
100.6421225383
 11
183.0131261708
 21
100.6421225383
  0
LINE
  8
SURFACE
 62
7
  6
CONTINUOUS
 10
170.8131261708
 20
100.6421225383
 11
166.2131261708
 21
100.6421225383
  0
LINE
  8
SURFACE
 62
7
  6
CONTINUOUS
 10
152.9496615255
 20
100.6421225383
 11
149.4131261708
 21
100.6421225383
  0
LINE
  8
SURFACE
 62
7
  6
CONTINUOUS
 10
137.2131261708
 20
100.6421225383
 11
132.6131261708
 21
100.6421225383
  0
LINE
  8
SURFACE
 62
7
  6
CONTINUOUS
 10
120.4131261708
 20
100.6421225383
 11
115.8131261708
 21
100.6421225383
  0
LINE
  8
0
 62
7
  6
CONTINUOUS
 10
103.6131261708
 20
100.6421225383
 11
99.0131261708
 21
100.6421225383
  0
LINE
  8
SURFACE
 62
7
  6
CONTINUOUS
 10
86.8131261708
 20
100.6421225383
 11
80.6160393944
 21
100.6421225383
  0
LINE
  8
0
 62
7
  6
CONTINUOUS
 10
152.9496615255
 20
100.6421225383
 11
154.0131261708
 21
100.6421225383
  0
LINE
  8
0
 62
7
  6
CONTINUOUS
 10
203.3496615255
 20
100.6421225383
 11
204.4131261708
 21
100.6421225383
  0
LINE
  8
0
 62
7
  6
CONTINUOUS
 10
124.0133221708
 20
168.3419239322
 11
124.0133221708
 21
162.1330127683
  0
LINE
  8
0
 62
7
  6
CONTINUOUS
 10
124.0133221708
 20
157.7512323083
 11
124.0133221708
 21
156.7575775383
  0
LINE
  8
0
 62
7
  6
CONTINUOUS
 10
124.7278646903
 20
146.0421225383
 11
124.7278646903
 21
119.0421225383
  0
LINE
  8
0
 62
7
  6
CONTINUOUS
 10
128.2985836514
 20
119.0421225383
 11
128.2985836514
 21
146.0421225383
  0
POLYLINE
  8
0
 62
7
  6
CONTINUOUS
 66
1
 70
0
  0
VERTEX
  8
0
 62
7
  6
CONTINUOUS
 10
129.0133221708
 20
168.3419174287
  0
VERTEX
  8
0
 62
7
  6
CONTINUOUS
 10
129.0120851592
 20
168.3575977603
  0
VERTEX
  8
0
 62
7
  6
CONTINUOUS
 10
129.008404729
 20
168.3728901549
  0
VERTEX
  8
0
 62
7
  6
CONTINUOUS
 10
129.0023719357
 20
168.3874162752
  0
VERTEX
  8
0
 62
7
  6
CONTINUOUS
 10
128.9941360335
 20
168.4008167419
  0
VERTEX
  8
0
 62
7
  6
CONTINUOUS
 10
128.9839007817
 20
168.4127600247
  0
VERTEX
  8
0
 62
7
  6
CONTINUOUS
 10
128.9719194043
 20
168.4229506453
  0
VERTEX
  8
0
 62
7
  6
CONTINUOUS
 10
128.9584883235
 20
168.4311364873
  0
VERTEX
  8
0
 62
7
  6
CONTINUOUS
 10
128.9439398266
 20
168.4371150334
  0
VERTEX
  8
0
 62
7
  6
CONTINUOUS
 10
128.9286338455
 20
168.4407383745
  0
SEQEND
  0
LINE
  8
0
 62
7
  6
CONTINUOUS
 10
129.0133221708
 20
156.7575775383
 11
129.0133221708
 21
157.7512323083
  0
LINE
  8
0
 62
7
  6
CONTINUOUS
 10
129.0133221708
 20
162.1330127683
 11
129.0133221708
 21
168.3418488597
  0
LINE
  8
0
 62
7
  6
CONTINUOUS
 10
132.4131261708
 20
112.3266675383
 11
132.4131261708
 21
111.3330127683
  0
LINE
  8
0
 62
7
  6
CONTINUOUS
 10
132.4131261708
 20
106.9512323083
 11
132.4131261708
 21
100.8421235824
  0
LINE
  8
0
 62
7
  6
CONTINUOUS
 10
133.1278646903
 20
150.0421225383
 11
133.1278646903
 21
123.0421225383
  0
POLYLINE
  8
0
 62
7
  6
CONTINUOUS
 66
1
 70
0
  0
VERTEX
  8
0
 62
7
  6
CONTINUOUS
 10
231.2132241708
 20
113.3266672883
  0
VERTEX
  8
0
 62
7
  6
CONTINUOUS
 10
231.2394228829
 20
113.3283906445
  0
VERTEX
  8
0
 62
7
  6
CONTINUOUS
 10
231.2651195175
 20
113.3335174165
  0
VERTEX
  8
0
 62
7
  6
CONTINUOUS
 10
231.2899242167
 20
113.3419591321
  0
VERTEX
  8
0
 62
7
  6
CONTINUOUS
 10
231.3133422456
 20
113.3535304318
  0
VERTEX
  8
0
 62
7
  6
CONTINUOUS
 10
231.3350379859
 20
113.3680438523
  0
VERTEX
  8
0
 62
7
  6
CONTINUOUS
 10
231.3546894691
 20
113.3852898878
  0
VERTEX
  8
0
 62
7
  6
CONTINUOUS
 10
231.3718790437
 20
113.4048944205
  0
VERTEX
  8
0
 62
7
  6
CONTINUOUS
 10
231.3863859022
 20
113.4265922425
  0
VERTEX
  8
0
 62
7
  6
CONTINUOUS
 10
231.3979692019
 20
113.4500561046
  0
VERTEX
  8
0
 62
7
  6
CONTINUOUS
 10
231.406379836
 20
113.4747935087
  0
VERTEX
  8
0
 62
7
  6
CONTINUOUS
 10
231.4115032485
 20
113.5004870026
  0
VERTEX
  8
0
 62
7
  6
CONTINUOUS
 10
231.4132241708
 20
113.5266672883
  0
SEQEND
  0
LINE
  8
DEFAULT_1
 62
2
  6
CENTER
 10
78.4132241708
 20
109.1421225383
 11
222.5632241708
 21
109.1421225383
  0
LINE
  8
0
 62
7
  6
CONTINUOUS
 10
136.6985836514
 20
123.0421225383
 11
136.6985836514
 21
150.0421225383
  0
LINE
  8
0
 62
7
  6
CONTINUOUS
 10
137.4131261708
 20
100.8421235846
 11
137.4131261708
 21
106.9512323083
  0
LINE
  8
0
 62
7
  6
CONTINUOUS
 10
137.4131261708
 20
111.3330127683
 11
137.4131261708
 21
112.3266675383
  0
LINE
  8
SURFACE
 62
7
  6
CONTINUOUS
 10
231.2132241708
 20
113.3266672883
 11
223.400749624
 21
113.3266672883
  0
LINE
  8
SURFACE
 62
7
  6
CONTINUOUS
 10
214.4255444517
 20
113.3266672883
 11
206.6007497442
 21
113.3266672883
  0
LINE
  8
SURFACE
 62
7
  6
CONTINUOUS
 10
197.6255444517
 20
113.3266672883
 11
189.800749624
 21
113.3266672883
  0
LINE
  8
SURFACE
 62
7
  6
CONTINUOUS
 10
180.8255444517
 20
113.3266672883
 11
173.000749624
 21
113.3266672883
  0
LINE
  8
SURFACE
 62
7
  6
CONTINUOUS
 10
164.0255444517
 20
113.3266672883
 11
156.2007497442
 21
113.3266672883
  0
LINE
  8
SURFACE
 62
7
  6
CONTINUOUS
 10
147.2255444517
 20
113.3266672883
 11
139.400749624
 21
113.3266672883
  0
LINE
  8
SURFACE
 62
7
  6
CONTINUOUS
 10
130.4255444517
 20
113.3266672883
 11
122.600749624
 21
113.3266672883
  0
LINE
  8
SURFACE
 62
7
  6
CONTINUOUS
 10
113.6255444517
 20
113.3266672883
 11
105.8007497442
 21
113.3266672883
  0
LINE
  8
SURFACE
 62
7
  6
CONTINUOUS
 10
96.8255444517
 20
113.3266672883
 11
89.000749624
 21
113.3266672883
  0
LINE
  8
0
 62
7
  6
CONTINUOUS
 10
88.0131261708
 20
113.3266675383
 11
89.0007524758
 21
113.3266675383
  0
LINE
  8
0
 62
7
  6
CONTINUOUS
 10
96.8255416833
 20
113.3266675383
 11
97.8131261708
 21
113.3266675383
  0
LINE
  8
0
 62
7
  6
CONTINUOUS
 10
104.8131261708
 20
113.3266675383
 11
105.8007499398
 21
113.3266675383
  0
LINE
  8
0
 62
7
  6
CONTINUOUS
 10
113.6255416833
 20
113.3266675383
 11
114.6131261708
 21
113.3266675383
  0
LINE
  8
0
 62
7
  6
CONTINUOUS
 10
121.6131261708
 20
113.3266675383
 11
122.6007524758
 21
113.3266675383
  0
LINE
  8
0
 62
7
  6
CONTINUOUS
 10
130.4255416833
 20
113.3266675383
 11
131.4131261708
 21
113.3266675383
  0
LINE
  8
0
 62
7
  6
CONTINUOUS
 10
138.4131261708
 20
113.3266675383
 11
139.4007524758
 21
113.3266675383
  0
LINE
  8
0
 62
7
  6
CONTINUOUS
 10
147.2255416833
 20
113.3266675383
 11
148.2131261708
 21
113.3266675383
  0
LINE
  8
0
 62
7
  6
CONTINUOUS
 10
155.2131261708
 20
113.3266675383
 11
156.2007499398
 21
113.3266675383
  0
LINE
  8
0
 62
7
  6
CONTINUOUS
 10
164.0255416833
 20
113.3266675383
 11
165.0131261708
 21
113.3266675383
  0
LINE
  8
0
 62
7
  6
CONTINUOUS
 10
172.0131261708
 20
113.3266675383
 11
173.0007524758
 21
113.3266675383
  0
LINE
  8
0
 62
7
  6
CONTINUOUS
 10
180.8255416833
 20
113.3266675383
 11
181.8131261708
 21
113.3266675383
  0
LINE
  8
0
 62
7
  6
CONTINUOUS
 10
188.8131261708
 20
113.3266675383
 11
189.8007524758
 21
113.3266675383
  0
LINE
  8
0
 62
7
  6
CONTINUOUS
 10
197.6255416833
 20
113.3266675383
 11
198.6131261708
 21
113.3266675383
  0
LINE
  8
0
 62
7
  6
CONTINUOUS
 10
205.6131261708
 20
113.3266675383
 11
206.6007499398
 21
113.3266675383
  0
LINE
  8
0
 62
7
  6
CONTINUOUS
 10
214.4255416833
 20
113.3266675383
 11
215.4131261708
 21
113.3266675383
  0
LINE
  8
0
 62
7
  6
CONTINUOUS
 10
222.4131261708
 20
113.3266675383
 11
223.4007524758
 21
113.3266675383
  0
LINE
  8
0
 62
7
  6
CONTINUOUS
 10
228.2382241708
 20
118.1817630577
 11
226.3882241708
 21
118.1817630577
  0
LINE
  8
0
 62
7
  6
CONTINUOUS
 10
91.9882241708
 20
118.1817630577
 11
93.8382241708
 21
118.1817630577
  0
LINE
  8
0
 62
7
  6
CONTINUOUS
 10
108.7882241708
 20
118.1817630577
 11
110.6382241708
 21
118.1817630577
  0
LINE
  8
0
 62
7
  6
CONTINUOUS
 10
125.5882241708
 20
118.1817630577
 11
127.4382241708
 21
118.1817630577
  0
LINE
  8
0
 62
7
  6
CONTINUOUS
 10
142.3882241708
 20
118.1817630577
 11
144.2382241708
 21
118.1817630577
  0
LINE
  8
0
 62
7
  6
CONTINUOUS
 10
159.1882241708
 20
118.1817630577
 11
161.0382241708
 21
118.1817630577
  0
LINE
  8
0
 62
7
  6
CONTINUOUS
 10
175.9882241708
 20
118.1817630577
 11
177.8382241708
 21
118.1817630577
  0
LINE
  8
0
 62
7
  6
CONTINUOUS
 10
192.7882241708
 20
118.1817630577
 11
194.6382241708
 21
118.1817630577
  0
LINE
  8
0
 62
7
  6
CONTINUOUS
 10
209.5882241708
 20
118.1817630577
 11
211.4382241708
 21
118.1817630577
  0
LINE
  8
0
 62
7
  6
CONTINUOUS
 10
140.8133221708
 20
168.2421211779
 11
140.8133221708
 21
162.1330127683
  0
LINE
  8
0
 62
7
  6
CONTINUOUS
 10
140.8133221708
 20
157.7512323083
 11
140.8133221708
 21
156.7575775383
  0
LINE
  8
0
 62
7
  6
CONTINUOUS
 10
141.5278646903
 20
146.0421225383
 11
141.5278646903
 21
119.0421225383
  0
LINE
  8
0
 62
7
  6
CONTINUOUS
 10
145.0985836514
 20
119.0421225383
 11
145.0985836514
 21
146.0421225383
  0
LINE
  8
SURFACE
 62
2
  6
CONTINUOUS
 10
97.994601033
 20
121.5421225383
 11
113.0318473086
 21
121.5421225383
  0
LINE
  8
SURFACE
 62
2
  6
CONTINUOUS
 10
198.794601033
 20
121.5421225383
 11
213.8318473086
 21
121.5421225383
  0
LINE
  8
0
 62
7
  6
CONTINUOUS
 10
219.8382241708
 20
122.1817630577
 11
217.9882241708
 21
122.1817630577
  0
LINE
  8
0
 62
7
  6
CONTINUOUS
 10
83.5882241708
 20
122.1817630577
 11
85.4382241708
 21
122.1817630577
  0
LINE
  8
0
 62
7
  6
CONTINUOUS
 10
100.3882241708
 20
122.1817630577
 11
102.2382241708
 21
122.1817630577
  0
LINE
  8
0
 62
7
  6
CONTINUOUS
 10
117.1882241708
 20
122.1817630577
 11
119.0382241708
 21
122.1817630577
  0
LINE
  8
0
 62
7
  6
CONTINUOUS
 10
133.9882241708
 20
122.1817630577
 11
135.8382241708
 21
122.1817630577
  0
LINE
  8
0
 62
7
  6
CONTINUOUS
 10
150.7882241708
 20
122.1817630577
 11
152.6382241708
 21
122.1817630577
  0
LINE
  8
0
 62
7
  6
CONTINUOUS
 10
167.5882241708
 20
122.1817630577
 11
169.4382241708
 21
122.1817630577
  0
LINE
  8
0
 62
7
  6
CONTINUOUS
 10
184.3882241708
 20
122.1817630577
 11
186.2382241708
 21
122.1817630577
  0
LINE
  8
0
 62
7
  6
CONTINUOUS
 10
201.1882241708
 20
122.1817630577
 11
203.0382241708
 21
122.1817630577
  0
LINE
  8
0
 62
7
  6
CONTINUOUS
 10
145.8133221708
 20
156.7575775383
 11
145.8133221708
 21
157.7512323083
  0
LINE
  8
0
 62
7
  6
CONTINUOUS
 10
145.8133221708
 20
162.1330127683
 11
145.8133221708
 21
168.2421211709
  0
LINE
  8
0
 62
7
  6
CONTINUOUS
 10
149.2131261708
 20
112.3266675383
 11
149.2131261708
 21
111.3330127683
  0
LINE
  8
0
 62
7
  6
CONTINUOUS
 10
149.2131261708
 20
106.9512323083
 11
149.2131261708
 21
100.8421235824
  0
LINE
  8
0
 62
7
  6
CONTINUOUS
 10
149.9278646903
 20
150.0421225383
 11
149.9278646903
 21
123.0421225383
  0
LINE
  8
0
 62
7
  6
CONTINUOUS
 10
153.4985836514
 20
123.0421225383
 11
153.4985836514
 21
150.0421225383
  0
LINE
  8
0
 62
7
  6
CONTINUOUS
 10
154.2131261708
 20
100.8421225383
 11
154.2131261708
 21
106.9512323083
  0
LINE
  8
0
 62
7
  6
CONTINUOUS
 10
154.2131261708
 20
111.3330127683
 11
154.2131261708
 21
112.3266675383
  0
LINE
  8
DEFAULT_1
 62
2
  6
CENTER
 10
155.9132241708
 20
139.7921225383
 11
155.9132241708
 21
136.5422225383
  0
LINE
  8
0
 62
2
  6
CONTINUOUS
 10
155.9132241708
 20
135.5921225383
 11
155.9132241708
 21
133.4921225383
  0
LINE
  8
DEFAULT_1
 62
2
  6
CENTER
 10
155.9132241708
 20
129.2921225383
 11
155.9132241708
 21
132.5420225383
  0
LINE
  8
DEFAULT_1
 62
2
  6
CENTER
 10
161.1632241708
 20
134.5421225383
 11
157.9133241708
 21
134.5421225383
  0
LINE
  8
0
 62
2
  6
CONTINUOUS
 10
156.9632241708
 20
134.5421225383
 11
154.8632241708
 21
134.5421225383
  0
LINE
  8
DEFAULT_1
 62
2
  6
CENTER
 10
150.6632241708
 20
134.5421225383
 11
153.9131241708
 21
134.5421225383
  0
LINE
  8
0
 62
7
  6
CONTINUOUS
 10
157.6133221708
 20
168.2421225383
 11
157.6133221708
 21
162.1330127683
  0
LINE
  8
0
 62
7
  6
CONTINUOUS
 10
157.6133221708
 20
157.7512323083
 11
157.6133221708
 21
156.7575775383
  0
LINE
  8
0
 62
7
  6
CONTINUOUS
 10
158.3278646903
 20
146.0421225383
 11
158.3278646903
 21
119.0421225383
  0
LINE
  8
0
 62
7
  6
CONTINUOUS
 10
161.8985836514
 20
119.0421225383
 11
161.8985836514
 21
146.0421225383
  0
LINE
  8
0
 62
7
  6
CONTINUOUS
 10
95.8939668161
 20
161.6084727017
 11
95.8941262701
 21
161.608407528
  0
LINE
  8
0
 62
7
  6
CONTINUOUS
 10
162.6133221708
 20
156.7575775383
 11
162.6133221708
 21
157.7512323083
  0
LINE
  8
0
 62
7
  6
CONTINUOUS
 10
162.6133221708
 20
162.1330127683
 11
162.6133221708
 21
168.2421211709
  0
LINE
  8
0
 62
7
  6
CONTINUOUS
 10
166.0131261708
 20
112.3266675383
 11
166.0131261708
 21
111.3330127683
  0
LINE
  8
0
 62
7
  6
CONTINUOUS
 10
166.0131261708
 20
106.9512323083
 11
166.0131261708
 21
100.8421235824
  0
LINE
  8
0
 62
7
  6
CONTINUOUS
 10
166.7278646903
 20
150.0421225383
 11
166.7278646903
 21
123.0421225383
  0
LINE
  8
0
 62
7
  6
CONTINUOUS
 10
112.6939668161
 20
161.6084727017
 11
112.6941262701
 21
161.608407528
  0
LINE
  8
0
 62
7
  6
CONTINUOUS
 10
170.2985836514
 20
123.0421225383
 11
170.2985836514
 21
150.0421225383
  0
LINE
  8
0
 62
7
  6
CONTINUOUS
 10
171.0131261708
 20
100.8421235846
 11
171.0131261708
 21
106.9512323083
  0
LINE
  8
0
 62
7
  6
CONTINUOUS
 10
171.0131261708
 20
111.3330127683
 11
171.0131261708
 21
112.3266675383
  0
LINE
  8
0
 62
7
  6
CONTINUOUS
 10
211.4382241708
 20
146.9024820189
 11
209.5882241708
 21
146.9024820189
  0
LINE
  8
0
 62
7
  6
CONTINUOUS
 10
194.6382241708
 20
146.9024820189
 11
192.7882241708
 21
146.9024820189
  0
LINE
  8
0
 62
7
  6
CONTINUOUS
 10
177.8382241708
 20
146.9024820189
 11
175.9882241708
 21
146.9024820189
  0
LINE
  8
0
 62
7
  6
CONTINUOUS
 10
161.0382241708
 20
146.9024820189
 11
159.1882241708
 21
146.9024820189
  0
LINE
  8
0
 62
7
  6
CONTINUOUS
 10
144.2382241708
 20
146.9024820189
 11
142.3882241708
 21
146.9024820189
  0
LINE
  8
0
 62
7
  6
CONTINUOUS
 10
127.4382241708
 20
146.9024820189
 11
125.5882241708
 21
146.9024820189
  0
LINE
  8
0
 62
7
  6
CONTINUOUS
 10
110.6382241708
 20
146.9024820189
 11
108.7882241708
 21
146.9024820189
  0
LINE
  8
0
 62
7
  6
CONTINUOUS
 10
93.8382241708
 20
146.9024820189
 11
91.9882241708
 21
146.9024820189
  0
LINE
  8
0
 62
7
  6
CONTINUOUS
 10
226.3882241708
 20
146.9024820189
 11
228.2382241708
 21
146.9024820189
  0
LINE
  8
SURFACE
 62
2
  6
CONTINUOUS
 10
97.994601033
 20
147.5421225383
 11
113.0318473086
 21
147.5421225383
  0
LINE
  8
SURFACE
 62
2
  6
CONTINUOUS
 10
198.794601033
 20
147.5421225383
 11
213.8318473086
 21
147.5421225383
  0
LINE
  8
0
 62
7
  6
CONTINUOUS
 10
203.0382241708
 20
150.9024820189
 11
201.1882241708
 21
150.9024820189
  0
LINE
  8
0
 62
7
  6
CONTINUOUS
 10
186.2382241708
 20
150.9024820189
 11
184.3882241708
 21
150.9024820189
  0
LINE
  8
0
 62
7
  6
CONTINUOUS
 10
169.4382241708
 20
150.9024820189
 11
167.5882241708
 21
150.9024820189
  0
LINE
  8
0
 62
7
  6
CONTINUOUS
 10
152.6382241708
 20
150.9024820189
 11
150.7882241708
 21
150.9024820189
  0
LINE
  8
0
 62
7
  6
CONTINUOUS
 10
135.8382241708
 20
150.9024820189
 11
133.9882241708
 21
150.9024820189
  0
LINE
  8
0
 62
7
  6
CONTINUOUS
 10
119.0382241708
 20
150.9024820189
 11
117.1882241708
 21
150.9024820189
  0
LINE
  8
0
 62
7
  6
CONTINUOUS
 10
102.2382241708
 20
150.9024820189
 11
100.3882241708
 21
150.9024820189
  0
LINE
  8
0
 62
7
  6
CONTINUOUS
 10
85.4382241708
 20
150.9024820189
 11
83.5882241708
 21
150.9024820189
  0
LINE
  8
0
 62
7
  6
CONTINUOUS
 10
217.9882241708
 20
150.9024820189
 11
219.8382241708
 21
150.9024820189
  0
LINE
  8
0
 62
7
  6
CONTINUOUS
 10
174.4133221708
 20
168.2421211779
 11
174.4133221708
 21
162.1330127683
  0
LINE
  8
0
 62
7
  6
CONTINUOUS
 10
174.4133221708
 20
157.7512323083
 11
174.4133221708
 21
156.7575775383
  0
LINE
  8
0
 62
7
  6
CONTINUOUS
 10
175.1278646903
 20
146.0421225383
 11
175.1278646903
 21
119.0421225383
  0
LINE
  8
0
 62
7
  6
CONTINUOUS
 10
178.6985836514
 20
119.0421225383
 11
178.6985836514
 21
146.0421225383
  0
LINE
  8
0
 62
7
  6
CONTINUOUS
 10
223.8133221708
 20
155.7575775383
 11
222.8256971055
 21
155.7575775383
  0
LINE
  8
0
 62
7
  6
CONTINUOUS
 10
215.000903564
 20
155.7575775383
 11
214.0133221708
 21
155.7575775383
  0
LINE
  8
0
 62
7
  6
CONTINUOUS
 10
207.0133221708
 20
155.7575775383
 11
206.0256971055
 21
155.7575775383
  0
LINE
  8
0
 62
7
  6
CONTINUOUS
 10
198.2009063321
 20
155.7575775383
 11
197.2133221708
 21
155.7575775383
  0
LINE
  8
0
 62
7
  6
CONTINUOUS
 10
190.2133221708
 20
155.7575775383
 11
189.2256941371
 21
155.7575775383
  0
LINE
  8
0
 62
7
  6
CONTINUOUS
 10
181.4009063321
 20
155.7575775383
 11
180.4133221708
 21
155.7575775383
  0
LINE
  8
0
 62
7
  6
CONTINUOUS
 10
173.4133221708
 20
155.7575775383
 11
172.4256941371
 21
155.7575775383
  0
LINE
  8
0
 62
7
  6
CONTINUOUS
 10
164.6009063321
 20
155.7575775383
 11
163.6133221708
 21
155.7575775383
  0
LINE
  8
0
 62
7
  6
CONTINUOUS
 10
156.6133221708
 20
155.7575775383
 11
155.6256972742
 21
155.7575775383
  0
LINE
  8
0
 62
7
  6
CONTINUOUS
 10
147.8009063321
 20
155.7575775383
 11
146.8133221708
 21
155.7575775383
  0
LINE
  8
0
 62
7
  6
CONTINUOUS
 10
139.8133221708
 20
155.7575775383
 11
138.8256941371
 21
155.7575775383
  0
LINE
  8
0
 62
7
  6
CONTINUOUS
 10
131.000903564
 20
155.7575775383
 11
130.0133221708
 21
155.7575775383
  0
LINE
  8
0
 62
7
  6
CONTINUOUS
 10
123.0133221708
 20
155.7575775383
 11
122.0256971055
 21
155.7575775383
  0
LINE
  8
0
 62
7
  6
CONTINUOUS
 10
114.200903564
 20
155.7575775383
 11
113.2133221708
 21
155.7575775383
  0
LINE
  8
0
 62
7
  6
CONTINUOUS
 10
106.2133221708
 20
155.7575775383
 11
105.2256971055
 21
155.7575775383
  0
LINE
  8
SURFACE
 62
7
  6
CONTINUOUS
 10
105.2256971055
 20
155.7575777883
 11
97.400903564
 21
155.7575777883
  0
LINE
  8
0
 62
7
  6
CONTINUOUS
 10
97.400903564
 20
155.7575775383
 11
96.4133221708
 21
155.7575775383
  0
LINE
  8
0
 62
7
  6
CONTINUOUS
 10
89.4133221708
 20
155.7575775383
 11
88.4256971055
 21
155.7575775383
  0
LINE
  8
SURFACE
 62
7
  6
CONTINUOUS
 10
88.4256971055
 20
155.7575777883
 11
80.6132241708
 21
155.7575777883
  0
LINE
  8
SURFACE
 62
7
  6
CONTINUOUS
 10
114.200903564
 20
155.7575777883
 11
122.0256971055
 21
155.7575777883
  0
LINE
  8
SURFACE
 62
7
  6
CONTINUOUS
 10
131.000903564
 20
155.7575777883
 11
138.8256971055
 21
155.7575777883
  0
LINE
  8
SURFACE
 62
7
  6
CONTINUOUS
 10
147.800903564
 20
155.7575777883
 11
155.6256971055
 21
155.7575777883
  0
LINE
  8
SURFACE
 62
7
  6
CONTINUOUS
 10
164.600903564
 20
155.7575777883
 11
172.4256971055
 21
155.7575777883
  0
LINE
  8
SURFACE
 62
7
  6
CONTINUOUS
 10
181.400903564
 20
155.7575777883
 11
189.2256971055
 21
155.7575777883
  0
LINE
  8
SURFACE
 62
7
  6
CONTINUOUS
 10
198.200903564
 20
155.7575777883
 11
206.0256971055
 21
155.7575777883
  0
LINE
  8
SURFACE
 62
7
  6
CONTINUOUS
 10
215.000903564
 20
155.7575777883
 11
222.8256971055
 21
155.7575777883
  0
LINE
  8
0
 62
7
  6
CONTINUOUS
 10
179.4133221708
 20
156.7575775383
 11
179.4133221708
 21
157.7512323083
  0
LINE
  8
0
 62
7
  6
CONTINUOUS
 10
179.4133221708
 20
162.1330127683
 11
179.4133221708
 21
168.2421211709
  0
LINE
  8
0
 62
7
  6
CONTINUOUS
 10
182.8131261708
 20
112.3266675383
 11
182.8131261708
 21
111.3330127683
  0
LINE
  8
0
 62
7
  6
CONTINUOUS
 10
182.8131261708
 20
106.9512323083
 11
182.8131261708
 21
100.8421235824
  0
LINE
  8
0
 62
7
  6
CONTINUOUS
 10
183.5278646903
 20
150.0421225383
 11
183.5278646903
 21
123.0421225383
  0
POLYLINE
  8
0
 62
7
  6
CONTINUOUS
 66
1
 70
0
  0
VERTEX
  8
0
 62
7
  6
CONTINUOUS
 10
80.6132241708
 20
155.7575777883
  0
VERTEX
  8
0
 62
7
  6
CONTINUOUS
 10
80.5870254588
 20
155.7558544321
  0
VERTEX
  8
0
 62
7
  6
CONTINUOUS
 10
80.5613288242
 20
155.7507276601
  0
VERTEX
  8
0
 62
7
  6
CONTINUOUS
 10
80.536524125
 20
155.7422859445
  0
VERTEX
  8
0
 62
7
  6
CONTINUOUS
 10
80.5131060961
 20
155.7307146449
  0
VERTEX
  8
0
 62
7
  6
CONTINUOUS
 10
80.4914103558
 20
155.7162012243
  0
VERTEX
  8
0
 62
7
  6
CONTINUOUS
 10
80.4717588726
 20
155.6989551888
  0
VERTEX
  8
0
 62
7
  6
CONTINUOUS
 10
80.454569298
 20
155.679350656
  0
VERTEX
  8
0
 62
7
  6
CONTINUOUS
 10
80.4400624395
 20
155.6576528341
  0
VERTEX
  8
0
 62
7
  6
CONTINUOUS
 10
80.4284791397
 20
155.634188972
  0
VERTEX
  8
0
 62
7
  6
CONTINUOUS
 10
80.4200685056
 20
155.6094515678
  0
VERTEX
  8
0
 62
7
  6
CONTINUOUS
 10
80.4149450932
 20
155.583758074
  0
VERTEX
  8
0
 62
7
  6
CONTINUOUS
 10
80.4132241708
 20
155.5575777883
  0
SEQEND
  0
LINE
  8
DEFAULT_1
 62
2
  6
CENTER
 10
89.2632241708
 20
159.9421225383
 11
233.4132241708
 21
159.9421225383
  0
LINE
  8
0
 62
7
  6
CONTINUOUS
 10
95.3286338288
 20
168.4407383783
 11
95.3152763194
 21
168.4418984713
  0
LINE
  8
0
 62
7
  6
CONTINUOUS
 10
187.0985836514
 20
123.0421225383
 11
187.0985836514
 21
150.0421225383
  0
LINE
  8
0
 62
7
  6
CONTINUOUS
 10
187.8131261708
 20
100.8421235846
 11
187.8131261708
 21
106.9512323083
  0
LINE
  8
0
 62
7
  6
CONTINUOUS
 10
187.8131261708
 20
111.3330127683
 11
187.8131261708
 21
112.3266675383
  0
LINE
  8
SURFACE
 62
7
  6
CONTINUOUS
 10
124.1160291885
 20
168.441982242
 11
124.1114002671
 21
168.4419022318
  0
LINE
  8
SURFACE
 62
7
  6
CONTINUOUS
 10
124.1345584778
 20
168.4421225689
 11
124.1160291885
 21
168.441982242
  0
LINE
  8
SURFACE
 62
7
  6
CONTINUOUS
 10
107.3345584732
 20
168.4421225689
 11
107.316115195
 21
168.441983555
  0
LINE
  8
SURFACE
 62
7
  6
CONTINUOUS
 10
90.5345582318
 20
168.4421225689
 11
90.5236561974
 21
168.4420743978
  0
LINE
  8
SURFACE
 62
7
  6
CONTINUOUS
 10
231.2104169679
 20
168.4421225383
 11
225.0033221705
 21
168.4421225383
  0
LINE
  8
SURFACE
 62
7
  6
CONTINUOUS
 10
212.8233221714
 20
168.4421225383
 11
209.276786816
 21
168.4421225383
  0
LINE
  8
0
 62
7
  6
CONTINUOUS
 10
209.276786816
 20
168.4421225383
 11
208.2033221708
 21
168.4421225383
  0
LINE
  8
0
 62
7
  6
CONTINUOUS
 10
196.0133221708
 20
168.4421225383
 11
191.4133221708
 21
168.4421225383
  0
LINE
  8
SURFACE
 62
7
  6
CONTINUOUS
 10
179.2133221686
 20
168.4421225383
 11
174.6133221822
 21
168.4421225383
  0
LINE
  8
SURFACE
 62
7
  6
CONTINUOUS
 10
162.4133221686
 20
168.4421225383
 11
158.876786816
 21
168.4421225383
  0
LINE
  8
0
 62
7
  6
CONTINUOUS
 10
158.876786816
 20
168.4421225383
 11
157.8133221708
 21
168.4421225383
  0
LINE
  8
SURFACE
 62
7
  6
CONTINUOUS
 10
145.6133221686
 20
168.4421225383
 11
141.0133221822
 21
168.4421225383
  0
LINE
  8
0
 62
7
  6
CONTINUOUS
 10
128.8918921576
 20
168.4421225383
 11
124.1345578856
 21
168.4421225383
  0
LINE
  8
SURFACE
 62
7
  6
CONTINUOUS
 10
112.0917756828
 20
168.4421225383
 11
107.9960460908
 21
168.4421225383
  0
LINE
  8
0
 62
7
  6
CONTINUOUS
 10
107.9960460908
 20
168.4421225383
 11
107.3345578856
 21
168.4421225383
  0
LINE
  8
0
 62
7
  6
CONTINUOUS
 10
95.2917756828
 20
168.4421225383
 11
90.5346715113
 21
168.4421225383
  0
LINE
  8
0
 62
7
  6
CONTINUOUS
 10
90.5345555468
 20
168.4421225383
 11
90.5344216192
 21
168.4421225278
  0
LINE
  8
0
 62
7
  6
CONTINUOUS
 10
112.0918921431
 20
168.4421225383
 11
112.0920246968
 21
168.442122528
  0
LINE
  8
SURFACE
 62
7
  6
CONTINUOUS
 10
95.3104204252
 20
168.4419822525
 11
95.2918919713
 21
168.4421225436
  0
LINE
  8
SURFACE
 62
7
  6
CONTINUOUS
 10
112.1104204252
 20
168.4419822525
 11
112.0918919713
 21
168.4421225436
  0
LINE
  8
SURFACE
 62
7
  6
CONTINUOUS
 10
128.9104260152
 20
168.441982167
 11
128.8918919848
 21
168.4421225436
  0
LINE
  8
SURFACE
 62
7
  6
CONTINUOUS
 10
95.3152623515
 20
168.4418981215
 11
95.3104204252
 21
168.4419822525
  0
LINE
  8
SURFACE
 62
7
  6
CONTINUOUS
 10
112.1152623515
 20
168.4418981215
 11
112.1104204252
 21
168.4419822525
  0
LINE
  8
SURFACE
 62
7
  6
CONTINUOUS
 10
128.9152623515
 20
168.4418981215
 11
128.9104260152
 21
168.441982167
  0
LINE
  8
0
 62
7
  6
CONTINUOUS
 10
112.1286338288
 20
168.4407383783
 11
112.1152763194
 21
168.4418984713
  0
LINE
  8
0
 62
7
  6
CONTINUOUS
 10
128.9286338455
 20
168.4407383745
 11
128.9152763189
 21
168.4418984701
  0
LINE
  8
0
 62
7
  6
CONTINUOUS
 10
191.2133221708
 20
168.2421225383
 11
191.2133221708
 21
162.1330127683
  0
LINE
  8
0
 62
7
  6
CONTINUOUS
 10
191.2133221708
 20
157.7512323083
 11
191.2133221708
 21
156.7575775383
  0
LINE
  8
0
 62
7
  6
CONTINUOUS
 10
191.9278646903
 20
146.0421225383
 11
191.9278646903
 21
119.0421225383
  0
LINE
  8
0
 62
7
  6
CONTINUOUS
 10
195.4985836514
 20
119.0421225383
 11
195.4985836514
 21
146.0421225383
  0
LINE
  8
0
 62
7
  6
CONTINUOUS
 10
124.1113865644
 20
168.4419027283
 11
124.0980105123
 21
168.4407422741
  0
LINE
  8
0
 62
7
  6
CONTINUOUS
 10
90.5113891211
 20
168.4419033376
 11
90.4980105502
 21
168.4407428384
  0
LINE
  8
SURFACE
 62
7
  6
CONTINUOUS
 10
107.316115195
 20
168.441983555
 11
107.3113940689
 21
168.4419021123
  0
LINE
  8
SURFACE
 62
7
  6
CONTINUOUS
 10
90.5236561974
 20
168.4420743978
 11
90.5113976309
 21
168.4419021809
  0
LINE
  8
0
 62
7
  6
CONTINUOUS
 10
196.2133221708
 20
156.7575775383
 11
196.2133221708
 21
157.7512323083
  0
LINE
  8
0
 62
7
  6
CONTINUOUS
 10
196.2133221708
 20
162.1330127683
 11
196.2133221708
 21
168.2421225383
  0
LINE
  8
SURFACE
 62
2
  6
CONTINUOUS
 10
198.794601033
 20
147.5421225383
 11
198.794601033
 21
121.5421225383
  0
LINE
  8
0
 62
7
  6
CONTINUOUS
 10
199.6131261708
 20
112.3266675383
 11
199.6131261708
 21
111.3330127683
  0
LINE
  8
0
 62
7
  6
CONTINUOUS
 10
199.6131261708
 20
106.9512323083
 11
199.6131261708
 21
100.8421235824
  0
LINE
  8
0
 62
7
  6
CONTINUOUS
 10
200.3278646903
 20
150.0421225383
 11
200.3278646903
 21
123.0421225383
  0
POLYLINE
  8
0
 62
7
  6
CONTINUOUS
 66
1
 70
0
  0
VERTEX
  8
0
 62
7
  6
CONTINUOUS
 10
124.0980105123
 20
168.4407422741
  0
VERTEX
  8
0
 62
7
  6
CONTINUOUS
 10
124.0827045313
 20
168.4371189347
  0
VERTEX
  8
0
 62
7
  6
CONTINUOUS
 10
124.0681560336
 20
168.4311403894
  0
VERTEX
  8
0
 62
7
  6
CONTINUOUS
 10
124.0547249511
 20
168.422954547
  0
VERTEX
  8
0
 62
7
  6
CONTINUOUS
 10
124.0427435713
 20
168.4127639247
  0
VERTEX
  8
0
 62
7
  6
CONTINUOUS
 10
124.0325083165
 20
168.4008206384
  0
VERTEX
  8
0
 62
7
  6
CONTINUOUS
 10
124.0242724111
 20
168.3874201664
  0
VERTEX
  8
0
 62
7
  6
CONTINUOUS
 10
124.0182396152
 20
168.3728940392
  0
VERTEX
  8
0
 62
7
  6
CONTINUOUS
 10
124.0145591831
 20
168.3576016366
  0
VERTEX
  8
0
 62
7
  6
CONTINUOUS
 10
124.0133221708
 20
168.3419212962
  0
SEQEND
  0
LINE
  8
0
 62
7
  6
CONTINUOUS
 10
203.8985836514
 20
123.0421225383
 11
203.8985836514
 21
150.0421225383
  0
LINE
  8
0
 62
7
  6
CONTINUOUS
 10
204.6131261708
 20
100.8421225383
 11
204.6131261708
 21
106.9512323083
  0
LINE
  8
0
 62
7
  6
CONTINUOUS
 10
204.6131261708
 20
111.3330127683
 11
204.6131261708
 21
112.3266675383
  0
POLYLINE
  8
0
 62
7
  6
CONTINUOUS
 66
1
 70
0
  0
VERTEX
  8
0
 62
7
  6
CONTINUOUS
 10
90.4980105502
 20
168.4407428384
  0
VERTEX
  8
0
 62
7
  6
CONTINUOUS
 10
90.4827045737
 20
168.4371195021
  0
VERTEX
  8
0
 62
7
  6
CONTINUOUS
 10
90.4681560773
 20
168.4311409577
  0
VERTEX
  8
0
 62
7
  6
CONTINUOUS
 10
90.4547249926
 20
168.4229551128
  0
VERTEX
  8
0
 62
7
  6
CONTINUOUS
 10
90.4427436068
 20
168.412764483
  0
VERTEX
  8
0
 62
7
  6
CONTINUOUS
 10
90.4325083433
 20
168.4008211828
  0
VERTEX
  8
0
 62
7
  6
CONTINUOUS
 10
90.4242724282
 20
168.3874206904
  0
VERTEX
  8
0
 62
7
  6
CONTINUOUS
 10
90.4182396236
 20
168.3728945371
  0
VERTEX
  8
0
 62
7
  6
CONTINUOUS
 10
90.4145591854
 20
168.3576021036
  0
VERTEX
  8
0
 62
7
  6
CONTINUOUS
 10
90.4133221708
 20
168.3419217289
  0
SEQEND
  0
LINE
  8
0
 62
7
  6
CONTINUOUS
 10
208.0133221708
 20
168.2521225383
 11
208.0133221708
 21
162.1330127683
  0
LINE
  8
0
 62
7
  6
CONTINUOUS
 10
208.0133221708
 20
157.7512323083
 11
208.0133221708
 21
156.7575775383
  0
LINE
  8
0
 62
7
  6
CONTINUOUS
 10
208.7278646903
 20
146.0421225383
 11
208.7278646903
 21
119.0421225383
  0
LINE
  8
0
 62
7
  6
CONTINUOUS
 10
212.2985836514
 20
119.0421225383
 11
212.2985836514
 21
146.0421225383
  0
POLYLINE
  8
0
 62
7
  6
CONTINUOUS
 66
1
 70
0
  0
VERTEX
  8
0
 62
7
  6
CONTINUOUS
 10
231.4132241708
 20
113.5266672883
  0
VERTEX
  8
0
 62
7
  6
CONTINUOUS
 10
231.411535368
 20
113.5293428169
  0
VERTEX
  8
0
 62
7
  6
CONTINUOUS
 10
231.4064853678
 20
113.5314372618
  0
VERTEX
  8
0
 62
7
  6
CONTINUOUS
 10
231.3981429764
 20
113.5329614481
  0
VERTEX
  8
0
 62
7
  6
CONTINUOUS
 10
231.3866364048
 20
113.5339346896
  0
VERTEX
  8
0
 62
7
  6
CONTINUOUS
 10
231.3721522161
 20
113.5343844425
  0
VERTEX
  8
0
 62
7
  6
CONTINUOUS
 10
231.3549322769
 20
113.5343459038
  0
VERTEX
  8
0
 62
7
  6
CONTINUOUS
 10
231.3352689161
 20
113.533861539
  0
VERTEX
  8
0
 62
7
  6
CONTINUOUS
 10
231.3134986988
 20
113.5329805257
  0
VERTEX
  8
0
 62
7
  6
CONTINUOUS
 10
231.2899953278
 20
113.5317580898
  0
VERTEX
  8
0
 62
7
  6
CONTINUOUS
 10
231.2651621814
 20
113.5302547009
  0
VERTEX
  8
0
 62
7
  6
CONTINUOUS
 10
231.239424889
 20
113.5285351185
  0
VERTEX
  8
0
 62
7
  6
CONTINUOUS
 10
231.2132241708
 20
113.5266672883
  0
SEQEND
  0
LINE
  8
0
 62
7
  6
CONTINUOUS
 10
213.0133221708
 20
156.7575775383
 11
213.0133221708
 21
157.7512323083
  0
LINE
  8
0
 62
7
  6
CONTINUOUS
 10
213.0133221708
 20
162.1330127683
 11
213.0133221708
 21
168.2521209481
  0
LINE
  8
SURFACE
 62
2
  6
CONTINUOUS
 10
213.8318473086
 20
147.5421225383
 11
213.8318473086
 21
121.5421225383
  0
LINE
  8
0
 62
7
  6
CONTINUOUS
 10
216.4131261708
 20
112.3266675383
 11
216.4131261708
 21
111.3330127683
  0
LINE
  8
0
 62
7
  6
CONTINUOUS
 10
216.4131261708
 20
106.9512323083
 11
216.4131261708
 21
100.8421235824
  0
LINE
  8
0
 62
7
  6
CONTINUOUS
 10
217.1278646903
 20
123.0421225383
 11
217.1278646903
 21
150.0421225383
  0
LINE
  8
0
 62
7
  6
CONTINUOUS
 10
220.6985836514
 20
150.0421225383
 11
220.6985836514
 21
123.0421225383
  0
LINE
  8
0
 62
7
  6
CONTINUOUS
 10
221.4131261708
 20
100.8421235846
 11
221.4131261708
 21
106.9512323083
  0
LINE
  8
0
 62
7
  6
CONTINUOUS
 10
221.4131261708
 20
111.3330127683
 11
221.4131261708
 21
112.3266675383
  0
LINE
  8
0
 62
7
  6
CONTINUOUS
 10
224.8133221708
 20
168.2521209588
 11
224.8133221708
 21
162.1330127683
  0
LINE
  8
0
 62
7
  6
CONTINUOUS
 10
224.8133221708
 20
157.7512323083
 11
224.8133221708
 21
156.7575775383
  0
LINE
  8
0
 62
7
  6
CONTINUOUS
 10
225.5278646903
 20
119.0421225383
 11
225.5278646903
 21
146.0421225383
  0
LINE
  8
0
 62
7
  6
CONTINUOUS
 10
229.0985836514
 20
146.0421225383
 11
229.0985836514
 21
119.0421225383
  0
POLYLINE
  8
0
 62
7
  6
CONTINUOUS
 66
1
 70
0
  0
VERTEX
  8
0
 62
7
  6
CONTINUOUS
 10
231.4132240889
 20
168.2408230602
  0
VERTEX
  8
0
 62
7
  6
CONTINUOUS
 10
231.4115928554
 20
168.2663563589
  0
VERTEX
  8
0
 62
7
  6
CONTINUOUS
 10
231.4065339422
 20
168.2922068321
  0
VERTEX
  8
0
 62
7
  6
CONTINUOUS
 10
231.3981092596
 20
168.3172334788
  0
VERTEX
  8
0
 62
7
  6
CONTINUOUS
 10
231.386473628
 20
168.3409400228
  0
VERTEX
  8
0
 62
7
  6
CONTINUOUS
 10
231.3718730752
 20
168.3628604146
  0
VERTEX
  8
0
 62
7
  6
CONTINUOUS
 10
231.3546381388
 20
168.3825800489
  0
VERTEX
  8
0
 62
7
  6
CONTINUOUS
 10
231.3351949934
 20
168.3997366532
  0
VERTEX
  8
0
 62
7
  6
CONTINUOUS
 10
231.3142109524
 20
168.4139616
  0
VERTEX
  8
0
 62
7
  6
CONTINUOUS
 10
231.2924738786
 20
168.4250709177
  0
VERTEX
  8
0
 62
7
  6
CONTINUOUS
 10
231.2707933764
 20
168.4331090271
  0
VERTEX
  8
0
 62
7
  6
CONTINUOUS
 10
231.2498822967
 20
168.4383393238
  0
VERTEX
  8
0
 62
7
  6
CONTINUOUS
 10
231.2301030471
 20
168.441195683
  0
VERTEX
  8
0
 62
7
  6
CONTINUOUS
 10
231.2105115939
 20
168.4421225374
  0
SEQEND
  0
LINE
  8
0
 62
7
  6
CONTINUOUS
 10
231.4132241708
 20
168.2408241845
 11
231.4132241708
 21
113.5266672883
  0
LINE
  8
0
 62
7
  6
CONTINUOUS
 10
303.4516001094
 20
230.3700704841
 11
303.4516001094
 21
229.2709514088
  0
LINE
  8
0
 62
2
  6
CONTINUOUS
 10
309.2516001094
 20
231.4200760848
 11
309.2516001094
 21
229.3200760848
  0
LINE
  8
DEFAULT_1
 62
2
  6
CENTER
 10
309.2516001094
 20
225.1200760848
 11
309.2516001094
 21
224.2200760848
  0
LINE
  8
DEFAULT_1
 62
2
  6
CENTER
 10
309.2516001094
 20
235.6200760848
 11
309.2516001094
 21
236.5200760848
  0
LINE
  8
0
 62
7
  6
CONTINUOUS
 10
313.4361451094
 20
238.2700760853
 11
313.4361451094
 21
236.3543601478
  0
LINE
  8
0
 62
7
  6
CONTINUOUS
 10
315.0516001094
 20
229.2709514088
 11
315.0516001094
 21
230.3700706655
  0
LINE
  8
SURFACE
 62
2
  6
CONTINUOUS
 10
321.6516001094
 20
234.1235112872
 11
321.6516001094
 21
231.3700760848
  0
LINE
  8
0
 62
7
  6
CONTINUOUS
 10
322.8566001094
 20
234.3700760848
 11
323.0315357931
 21
231.8683792561
  0
LINE
  8
0
 62
7
  6
CONTINUOUS
 10
329.2966001612
 20
237.241023237
 11
329.2266001271
 21
237.1686828201
  0
LINE
  8
0
 62
7
  6
CONTINUOUS
 10
329.4016000623
 20
237.3133636539
 11
329.2966001612
 21
237.241023237
  0
LINE
  8
0
 62
7
  6
CONTINUOUS
 10
329.2966001612
 20
237.0963424032
 11
329.4016000623
 21
237.1686828201
  0
LINE
  8
0
 62
7
  6
CONTINUOUS
 10
328.4566001018
 20
236.445278575
 11
328.3516001006
 21
236.3729381581
  0
LINE
  8
0
 62
7
  6
CONTINUOUS
 10
313.4797907786
 20
238.0458616654
 11
313.4773864577
 21
238.0489007781
  0
POLYLINE
  8
0
 62
7
  6
CONTINUOUS
 66
1
 70
0
  0
VERTEX
  8
0
 62
7
  6
CONTINUOUS
 10
323.0321817501
 20
231.8591459559
  0
VERTEX
  8
0
 62
7
  6
CONTINUOUS
 10
323.0386338556
 20
231.8058201457
  0
VERTEX
  8
0
 62
7
  6
CONTINUOUS
 10
323.0510253819
 20
231.7514669106
  0
VERTEX
  8
0
 62
7
  6
CONTINUOUS
 10
323.0691708688
 20
231.6986064229
  0
VERTEX
  8
0
 62
7
  6
CONTINUOUS
 10
323.092890595
 20
231.647939885
  0
VERTEX
  8
0
 62
7
  6
CONTINUOUS
 10
323.121915627
 20
231.6001024261
  0
VERTEX
  8
0
 62
7
  6
CONTINUOUS
 10
323.1559054462
 20
231.5556661341
  0
VERTEX
  8
0
 62
7
  6
CONTINUOUS
 10
323.1944475084
 20
231.5151555822
  0
VERTEX
  8
0
 62
7
  6
CONTINUOUS
 10
323.2370583515
 20
231.479041671
  0
VERTEX
  8
0
 62
7
  6
CONTINUOUS
 10
323.2831741274
 20
231.4477369927
  0
VERTEX
  8
0
 62
7
  6
CONTINUOUS
 10
323.3321158458
 20
231.4215906055
  0
VERTEX
  8
0
 62
7
  6
CONTINUOUS
 10
323.3829359576
 20
231.4008964847
  0
VERTEX
  8
0
 62
7
  6
CONTINUOUS
 10
323.434532886
 20
231.3857402089
  0
VERTEX
  8
0
 62
7
  6
CONTINUOUS
 10
323.4857749133
 20
231.3759308063
  0
VERTEX
  8
0
 62
7
  6
CONTINUOUS
 10
323.5353419497
 20
231.3710128023
  0
VERTEX
  8
0
 62
7
  6
CONTINUOUS
 10
323.5690427045
 20
231.3700761997
  0
SEQEND
  0
LINE
  8
0
 62
7
  6
CONTINUOUS
 10
328.5266000858
 20
236.5537892257
 11
328.4566001018
 21
236.445278575
  0
LINE
  8
0
 62
7
  6
CONTINUOUS
 10
328.4216001347
 20
236.2644275138
 11
328.5266000858
 21
236.3729381581
  0
LINE
  8
0
 62
7
  6
CONTINUOUS
 10
329.2266001271
 20
237.0240019863
 11
329.2966001612
 21
237.0963424032
  0
LINE
  8
0
 62
7
  6
CONTINUOUS
 10
328.3516001006
 20
236.2282573022
 11
328.4216001347
 21
236.2644275138
  0
LINE
  8
0
 62
7
  6
CONTINUOUS
 10
333.5316001754
 20
237.0601721948
 11
333.6016003097
 21
237.0963424032
  0
LINE
  8
0
 62
7
  6
CONTINUOUS
 10
333.4266001742
 20
237.2048530286
 11
333.321600173
 21
237.1686828201
  0
LINE
  8
0
 62
7
  6
CONTINUOUS
 10
333.4266001742
 20
236.445278575
 11
333.321600173
 21
236.4091083666
  0
LINE
  8
0
 62
7
  6
CONTINUOUS
 10
336.5415999421
 20
237.2048530286
 11
336.4365999409
 21
237.1686828201
  0
LINE
  8
0
 62
7
  6
CONTINUOUS
 10
313.4815740425
 20
238.043159328
 11
313.4940606622
 21
238.0297444546
  0
POLYLINE
  8
0
 62
7
  6
CONTINUOUS
 66
1
 70
0
  0
VERTEX
  8
0
 62
7
  6
CONTINUOUS
 10
323.1093669411
 20
231.6286171532
  0
VERTEX
  8
0
 62
7
  6
CONTINUOUS
 10
323.0847004762
 20
231.672581264
  0
VERTEX
  8
0
 62
7
  6
CONTINUOUS
 10
323.0643519302
 20
231.7190357799
  0
VERTEX
  8
0
 62
7
  6
CONTINUOUS
 10
323.0486174085
 20
231.7673831661
  0
VERTEX
  8
0
 62
7
  6
CONTINUOUS
 10
323.0376172251
 20
231.8173729618
  0
VERTEX
  8
0
 62
7
  6
CONTINUOUS
 10
323.0315357931
 20
231.8683792561
  0
SEQEND
  0
LINE
  8
0
 62
7
  6
CONTINUOUS
 10
327.6516001094
 20
237.3495338624
 11
327.6516001094
 21
236.6261296426
  0
LINE
  8
0
 62
7
  6
CONTINUOUS
 10
327.8266001072
 20
236.6261296426
 11
327.8266001072
 21
237.3495338624
  0
LINE
  8
0
 62
7
  6
CONTINUOUS
 10
328.5266000858
 20
237.3495338624
 11
328.5266000858
 21
236.5537892257
  0
LINE
  8
0
 62
7
  6
CONTINUOUS
 10
328.7016001212
 20
236.4091083666
 11
328.7016001212
 21
237.3495338624
  0
LINE
  8
0
 62
7
  6
CONTINUOUS
 10
329.0516000917
 20
237.3495338624
 11
329.0516000917
 21
236.1920870905
  0
LINE
  8
0
 62
7
  6
CONTINUOUS
 10
329.2266001271
 20
236.1920870905
 11
329.2266001271
 21
237.0240019863
  0
LINE
  8
0
 62
7
  6
CONTINUOUS
 10
329.2266001271
 20
237.1686828201
 11
329.2266001271
 21
237.3495338624
  0
LINE
  8
0
 62
7
  6
CONTINUOUS
 10
329.9619957087
 20
233.8609094331
 11
329.9976001094
 21
234.3700760848
  0
LINE
  8
0
 62
7
  6
CONTINUOUS
 10
329.9577078199
 20
233.8256410225
 11
329.819720094
 21
231.8762944642
  0
POLYLINE
  8
0
 62
7
  6
CONTINUOUS
 66
1
 70
0
  0
VERTEX
  8
0
 62
7
  6
CONTINUOUS
 10
329.819720094
 20
231.8762944642
  0
VERTEX
  8
0
 62
7
  6
CONTINUOUS
 10
329.8128089904
 20
231.8209755407
  0
VERTEX
  8
0
 62
7
  6
CONTINUOUS
 10
329.8000322216
 20
231.7667045345
  0
VERTEX
  8
0
 62
7
  6
CONTINUOUS
 10
329.781537924
 20
231.7141116152
  0
VERTEX
  8
0
 62
7
  6
CONTINUOUS
 10
329.7575481738
 20
231.6638190188
  0
VERTEX
  8
0
 62
7
  6
CONTINUOUS
 10
329.7514192828
 20
231.6528789129
  0
SEQEND
  0
POLYLINE
  8
0
 62
7
  6
CONTINUOUS
 66
1
 70
0
  0
VERTEX
  8
0
 62
7
  6
CONTINUOUS
 10
329.7514192828
 20
231.6528789129
  0
VERTEX
  8
0
 62
7
  6
CONTINUOUS
 10
329.7283427481
 20
231.6164012394
  0
VERTEX
  8
0
 62
7
  6
CONTINUOUS
 10
329.6942772461
 20
231.5724201584
  0
VERTEX
  8
0
 62
7
  6
CONTINUOUS
 10
329.6557497337
 20
231.5323721978
  0
VERTEX
  8
0
 62
7
  6
CONTINUOUS
 10
329.6132296424
 20
231.4967262832
  0
VERTEX
  8
0
 62
7
  6
CONTINUOUS
 10
329.5672116578
 20
231.4658772367
  0
VERTEX
  8
0
 62
7
  6
CONTINUOUS
 10
329.5182587104
 20
231.4401810637
  0
VERTEX
  8
0
 62
7
  6
CONTINUOUS
 10
329.4669445404
 20
231.4199154072
  0
VERTEX
  8
0
 62
7
  6
CONTINUOUS
 10
329.4138941479
 20
231.405301903
  0
VERTEX
  8
0
 62
7
  6
CONTINUOUS
 10
329.3597316734
 20
231.3964849177
  0
VERTEX
  8
0
 62
7
  6
CONTINUOUS
 10
329.3051128357
 20
231.3935413479
  0
SEQEND
  0
LINE
  8
0
 62
7
  6
CONTINUOUS
 10
333.6016003097
 20
237.0963424032
 11
333.7066003109
 21
237.241023237
  0
LINE
  8
0
 62
7
  6
CONTINUOUS
 10
333.6016003097
 20
236.336767937
 11
333.7066003109
 21
236.4814487835
  0
LINE
  8
0
 62
7
  6
CONTINUOUS
 10
333.4966003085
 20
237.2771934455
 11
333.4266001742
 21
237.2048530286
  0
LINE
  8
0
 62
7
  6
CONTINUOUS
 10
333.4966003085
 20
236.5176190173
 11
333.4266001742
 21
236.445278575
  0
LINE
  8
0
 62
7
  6
CONTINUOUS
 10
333.4616000411
 20
236.2282573022
 11
333.6016003097
 21
236.336767937
  0
LINE
  8
0
 62
7
  6
CONTINUOUS
 10
336.5766002095
 20
236.2282573022
 11
336.7166004781
 21
236.336767937
  0
LINE
  8
0
 62
7
  6
CONTINUOUS
 10
336.6465999433
 20
237.0601721948
 11
336.7166004781
 21
237.0963424032
  0
LINE
  8
0
 62
7
  6
CONTINUOUS
 10
336.5415999421
 20
236.445278575
 11
336.4365999409
 21
236.4091083666
  0
LINE
  8
0
 62
7
  6
CONTINUOUS
 10
339.7965999786
 20
237.2048530286
 11
339.6915999775
 21
237.1686828201
  0
LINE
  8
0
 62
7
  6
CONTINUOUS
 10
306.7516001094
 20
222.3700760848
 11
312.3516001094
 21
222.3700760848
  0
LINE
  8
0
 62
7
  6
CONTINUOUS
 10
356.9516001094
 20
222.3700760848
 11
362.5516001094
 21
222.3700760848
  0
LINE
  8
0
 62
7
  6
CONTINUOUS
 10
327.6516001094
 20
236.6261296426
 11
327.6866001108
 21
236.4814487835
  0
LINE
  8
0
 62
7
  6
CONTINUOUS
 10
329.8566001341
 20
236.8793211525
 11
329.8566001341
 21
236.1920870905
  0
LINE
  8
0
 62
7
  6
CONTINUOUS
 10
330.0316000694
 20
236.1920870905
 11
330.0316000694
 21
236.8793211525
  0
LINE
  8
0
 62
7
  6
CONTINUOUS
 10
330.311600206
 20
237.8920870905
 11
330.311600206
 21
237.7112360483
  0
LINE
  8
0
 62
7
  6
CONTINUOUS
 10
330.311600206
 20
237.3495338624
 11
330.311600206
 21
236.1920870905
  0
LINE
  8
0
 62
7
  6
CONTINUOUS
 10
330.4866001412
 20
236.1920870905
 11
330.4866001412
 21
237.3495338624
  0
LINE
  8
0
 62
7
  6
CONTINUOUS
 10
330.4866001412
 20
237.7112360483
 11
330.4866001412
 21
237.8920870905
  0
LINE
  8
0
 62
7
  6
CONTINUOUS
 10
333.5316001754
 20
237.3857040708
 11
333.4966003085
 21
237.2771934455
  0
LINE
  8
0
 62
7
  6
CONTINUOUS
 10
333.7066003109
 20
237.241023237
 11
333.7416001777
 21
237.3495338624
  0
LINE
  8
0
 62
7
  6
CONTINUOUS
 10
333.5316001754
 20
236.6261296426
 11
333.4966003085
 21
236.5176190173
  0
LINE
  8
0
 62
7
  6
CONTINUOUS
 10
333.7066003109
 20
236.4814487835
 11
333.7416001777
 21
236.5899594342
  0
LINE
  8
0
 62
7
  6
CONTINUOUS
 10
336.7166004781
 20
237.0963424032
 11
336.8216004793
 21
237.241023237
  0
LINE
  8
0
 62
7
  6
CONTINUOUS
 10
336.7166004781
 20
236.336767937
 11
336.8216004793
 21
236.4814487835
  0
LINE
  8
0
 62
7
  6
CONTINUOUS
 10
336.611600477
 20
237.2771934455
 11
336.5415999421
 21
237.2048530286
  0
LINE
  8
0
 62
7
  6
CONTINUOUS
 10
336.611600477
 20
236.5176190173
 11
336.5415999421
 21
236.445278575
  0
LINE
  8
0
 62
7
  6
CONTINUOUS
 10
339.8666005135
 20
237.2771934455
 11
339.7965999786
 21
237.2048530286
  0
LINE
  8
0
 62
7
  6
CONTINUOUS
 10
339.8316002461
 20
236.9878317779
 11
339.9716005147
 21
237.0963424032
  0
LINE
  8
0
 62
7
  6
CONTINUOUS
 10
327.6866001108
 20
236.4814487835
 11
327.7216001123
 21
236.4091083666
  0
LINE
  8
0
 62
7
  6
CONTINUOUS
 10
328.5266000858
 20
236.3729381581
 11
328.59660012
 21
236.1920870905
  0
LINE
  8
0
 62
7
  6
CONTINUOUS
 10
327.8616001118
 20
236.5176190173
 11
327.8266001072
 21
236.6261296426
  0
LINE
  8
0
 62
7
  6
CONTINUOUS
 10
328.7366000882
 20
236.2644275138
 11
328.7016001212
 21
236.4091083666
  0
LINE
  8
0
 62
7
  6
CONTINUOUS
 10
329.821600067
 20
237.0601721948
 11
329.8566001341
 21
236.8793211525
  0
LINE
  8
0
 62
7
  6
CONTINUOUS
 10
330.0316000694
 20
236.8793211525
 11
329.9966002025
 21
237.0601721948
  0
LINE
  8
0
 62
7
  6
CONTINUOUS
 10
332.4466002967
 20
237.8920870905
 11
332.4466002967
 21
236.1920870905
  0
LINE
  8
0
 62
7
  6
CONTINUOUS
 10
332.6566002991
 20
236.4091083666
 11
332.6566002991
 21
236.9516615694
  0
LINE
  8
0
 62
7
  6
CONTINUOUS
 10
332.6566002991
 20
237.1686828201
 11
332.6566002991
 21
237.6750658398
  0
LINE
  8
0
 62
7
  6
CONTINUOUS
 10
333.5316001754
 20
237.4580444878
 11
333.5316001754
 21
237.3857040708
  0
LINE
  8
0
 62
7
  6
CONTINUOUS
 10
333.5316001754
 20
236.734640268
 11
333.5316001754
 21
236.6261296426
  0
LINE
  8
0
 62
7
  6
CONTINUOUS
 10
333.7416001777
 20
236.5899594342
 11
333.7416001777
 21
236.7708104765
  0
LINE
  8
0
 62
7
  6
CONTINUOUS
 10
333.7416001777
 20
237.3495338624
 11
333.7416001777
 21
237.4942147975
  0
LINE
  8
0
 62
7
  6
CONTINUOUS
 10
334.0216003144
 20
237.8920870905
 11
334.0216003144
 21
236.1920870905
  0
LINE
  8
0
 62
7
  6
CONTINUOUS
 10
334.2316003167
 20
236.4091083666
 11
334.2316003167
 21
237.8920870905
  0
LINE
  8
DEFAULT_1
 62
2
  6
CENTER
 10
334.6516001094
 20
216.3700760848
 11
334.6516001094
 21
240.3700770881
  0
LINE
  8
0
 62
7
  6
CONTINUOUS
 10
336.6465999433
 20
237.3857040708
 11
336.611600477
 21
237.2771934455
  0
LINE
  8
0
 62
7
  6
CONTINUOUS
 10
336.8216004793
 20
237.241023237
 11
336.8565999457
 21
237.3495338624
  0
LINE
  8
0
 62
7
  6
CONTINUOUS
 10
336.6465999433
 20
236.6261296426
 11
336.611600477
 21
236.5176190173
  0
LINE
  8
0
 62
7
  6
CONTINUOUS
 10
336.8216004793
 20
236.4814487835
 11
336.8565999457
 21
236.5899594342
  0
LINE
  8
0
 62
7
  6
CONTINUOUS
 10
339.9716005147
 20
237.0963424032
 11
340.0766005158
 21
237.241023237
  0
LINE
  8
0
 62
7
  6
CONTINUOUS
 10
327.9316001209
 20
236.4091083666
 11
327.8616001118
 21
236.5176190173
  0
LINE
  8
0
 62
7
  6
CONTINUOUS
 10
328.7716001554
 20
236.1920870905
 11
328.7366000882
 21
236.2644275138
  0
LINE
  8
0
 62
7
  6
CONTINUOUS
 10
329.9966002025
 20
237.0601721948
 11
329.9616001353
 21
237.1686828201
  0
LINE
  8
0
 62
7
  6
CONTINUOUS
 10
335.281599928
 20
236.1920870905
 11
335.281599928
 21
236.4091083666
  0
LINE
  8
0
 62
7
  6
CONTINUOUS
 10
335.5616004652
 20
237.8920870905
 11
335.5616004652
 21
236.1920870905
  0
LINE
  8
0
 62
7
  6
CONTINUOUS
 10
335.7716004675
 20
236.4091083666
 11
335.7716004675
 21
236.9516615694
  0
LINE
  8
0
 62
7
  6
CONTINUOUS
 10
335.7716004675
 20
237.1686828201
 11
335.7716004675
 21
237.6750658398
  0
LINE
  8
0
 62
7
  6
CONTINUOUS
 10
336.6465999433
 20
237.4580444878
 11
336.6465999433
 21
237.3857040708
  0
LINE
  8
0
 62
7
  6
CONTINUOUS
 10
336.6465999433
 20
236.734640268
 11
336.6465999433
 21
236.6261296426
  0
LINE
  8
0
 62
7
  6
CONTINUOUS
 10
336.8565999457
 20
236.5899594342
 11
336.8565999457
 21
236.7708104765
  0
LINE
  8
0
 62
7
  6
CONTINUOUS
 10
336.8565999457
 20
237.3495338624
 11
336.8565999457
 21
237.4942147975
  0
LINE
  8
0
 62
7
  6
CONTINUOUS
 10
339.9015999798
 20
237.3857040708
 11
339.8666005135
 21
237.2771934455
  0
LINE
  8
0
 62
7
  6
CONTINUOUS
 10
340.0766005158
 20
237.241023237
 11
340.1115999822
 21
237.3495338624
  0
POLYLINE
  8
0
 62
7
  6
CONTINUOUS
 66
1
 70
0
  0
VERTEX
  8
0
 62
7
  6
CONTINUOUS
 10
345.7341575143
 20
231.3700761997
  0
VERTEX
  8
0
 62
7
  6
CONTINUOUS
 10
345.7678582691
 20
231.3710128023
  0
VERTEX
  8
0
 62
7
  6
CONTINUOUS
 10
345.8174253055
 20
231.3759308063
  0
VERTEX
  8
0
 62
7
  6
CONTINUOUS
 10
345.8686673329
 20
231.3857402089
  0
VERTEX
  8
0
 62
7
  6
CONTINUOUS
 10
345.9202642612
 20
231.4008964847
  0
VERTEX
  8
0
 62
7
  6
CONTINUOUS
 10
345.971084373
 20
231.4215906055
  0
VERTEX
  8
0
 62
7
  6
CONTINUOUS
 10
346.0200260914
 20
231.4477369927
  0
VERTEX
  8
0
 62
7
  6
CONTINUOUS
 10
346.0661418674
 20
231.479041671
  0
VERTEX
  8
0
 62
7
  6
CONTINUOUS
 10
346.1087527104
 20
231.5151555822
  0
VERTEX
  8
0
 62
7
  6
CONTINUOUS
 10
346.1472947726
 20
231.5556661341
  0
VERTEX
  8
0
 62
7
  6
CONTINUOUS
 10
346.1812845918
 20
231.6001024261
  0
VERTEX
  8
0
 62
7
  6
CONTINUOUS
 10
346.2103096238
 20
231.647939885
  0
VERTEX
  8
0
 62
7
  6
CONTINUOUS
 10
346.23402935
 20
231.6986064229
  0
VERTEX
  8
0
 62
7
  6
CONTINUOUS
 10
346.252174837
 20
231.7514669106
  0
VERTEX
  8
0
 62
7
  6
CONTINUOUS
 10
346.2645663632
 20
231.8058201457
  0
VERTEX
  8
0
 62
7
  6
CONTINUOUS
 10
346.2710184687
 20
231.8591459559
  0
SEQEND
  0
LINE
  8
0
 62
2
  6
CONTINUOUS
 10
361.1016001094
 20
230.3700760848
 11
359.0016001094
 21
230.3700760848
  0
LINE
  8
DEFAULT_1
 62
2
  6
CENTER
 10
354.8016001094
 20
230.3700760848
 11
353.9016001094
 21
230.3700760848
  0
LINE
  8
0
 62
2
  6
CONTINUOUS
 10
310.3016001094
 20
230.3700760848
 11
308.2016001094
 21
230.3700760848
  0
LINE
  8
DEFAULT_1
 62
2
  6
CENTER
 10
304.0016001094
 20
230.3700760848
 11
303.1016001094
 21
230.3700760848
  0
LINE
  8
DEFAULT_1
 62
2
  6
CENTER
 10
314.5016001094
 20
230.3700760848
 11
315.4016001094
 21
230.3700760848
  0
LINE
  8
DEFAULT_1
 62
2
  6
CENTER
 10
365.3016001094
 20
230.3700760848
 11
366.2016001094
 21
230.3700760848
  0
POLYLINE
  8
0
 62
7
  6
CONTINUOUS
 66
1
 70
0
  0
VERTEX
  8
0
 62
7
  6
CONTINUOUS
 10
323.5321252843
 20
231.3935413479
  0
VERTEX
  8
0
 62
7
  6
CONTINUOUS
 10
323.482147469
 20
231.3960764616
  0
VERTEX
  8
0
 62
7
  6
CONTINUOUS
 10
323.432595821
 20
231.4036661718
  0
VERTEX
  8
0
 62
7
  6
CONTINUOUS
 10
323.3840042662
 20
231.4162408547
  0
VERTEX
  8
0
 62
7
  6
CONTINUOUS
 10
323.336822537
 20
231.4336994499
  0
VERTEX
  8
0
 62
7
  6
CONTINUOUS
 10
323.2915762792
 20
231.4558642347
  0
VERTEX
  8
0
 62
7
  6
CONTINUOUS
 10
323.2486852008
 20
231.4825487367
  0
VERTEX
  8
0
 62
7
  6
CONTINUOUS
 10
323.2086327394
 20
231.5134738252
  0
VERTEX
  8
0
 62
7
  6
CONTINUOUS
 10
323.1718008878
 20
231.5483677181
  0
VERTEX
  8
0
 62
7
  6
CONTINUOUS
 10
323.1386013995
 20
231.5868678043
  0
VERTEX
  8
0
 62
7
  6
CONTINUOUS
 10
323.1093669411
 20
231.6286171532
  0
SEQEND
  0
LINE
  8
0
 62
7
  6
CONTINUOUS
 10
327.8266001072
 20
236.3005977286
 11
327.9316001209
 21
236.2282573022
  0
LINE
  8
0
 62
7
  6
CONTINUOUS
 10
327.7216001123
 20
236.4091083666
 11
327.8266001072
 21
236.3005977286
  0
LINE
  8
0
 62
7
  6
CONTINUOUS
 10
329.751600133
 20
237.1325126117
 11
329.821600067
 21
237.0601721948
  0
LINE
  8
0
 62
7
  6
CONTINUOUS
 10
329.9616001353
 20
237.1686828201
 11
329.8916002013
 21
237.241023237
  0
LINE
  8
0
 62
7
  6
CONTINUOUS
 10
333.4966003085
 20
236.843150944
 11
333.5316001754
 21
236.734640268
  0
LINE
  8
0
 62
7
  6
CONTINUOUS
 10
333.7416001777
 20
236.7708104765
 11
333.7066003109
 21
236.8793211525
  0
LINE
  8
0
 62
7
  6
CONTINUOUS
 10
333.4966003085
 20
237.5665552144
 11
333.5316001754
 21
237.4580444878
  0
LINE
  8
0
 62
7
  6
CONTINUOUS
 10
333.7416001777
 20
237.4942147975
 11
333.7066003109
 21
237.6027254229
  0
LINE
  8
0
 62
7
  6
CONTINUOUS
 10
339.3070377049
 20
234.3700760848
 11
339.4834801248
 21
231.8762944642
  0
LINE
  8
0
 62
7
  6
CONTINUOUS
 10
339.3056001094
 20
234.3700760848
 11
339.3412045101
 21
233.8609094331
  0
LINE
  8
0
 62
7
  6
CONTINUOUS
 10
338.8166005017
 20
237.8920870905
 11
338.8166005017
 21
236.1920870905
  0
LINE
  8
0
 62
7
  6
CONTINUOUS
 10
339.0266005041
 20
236.1920870905
 11
339.0266005041
 21
236.9516615694
  0
LINE
  8
0
 62
7
  6
CONTINUOUS
 10
339.0266005041
 20
237.1686828201
 11
339.0266005041
 21
237.7112360483
  0
LINE
  8
0
 62
7
  6
CONTINUOUS
 10
339.9015999798
 20
237.4942147975
 11
339.9015999798
 21
237.3857040708
  0
LINE
  8
0
 62
7
  6
CONTINUOUS
 10
340.1115999822
 20
237.3495338624
 11
340.1115999822
 21
237.4942147975
  0
POLYLINE
  8
0
 62
7
  6
CONTINUOUS
 66
1
 70
0
  0
VERTEX
  8
0
 62
7
  6
CONTINUOUS
 10
329.4543419782
 20
233.330557572
  0
VERTEX
  8
0
 62
7
  6
CONTINUOUS
 10
329.504278574
 20
233.3333737758
  0
VERTEX
  8
0
 62
7
  6
CONTINUOUS
 10
329.5540841762
 20
233.3418578911
  0
VERTEX
  8
0
 62
7
  6
CONTINUOUS
 10
329.6033721947
 20
233.3560636589
  0
VERTEX
  8
0
 62
7
  6
CONTINUOUS
 10
329.6517303274
 20
233.3760414922
  0
VERTEX
  8
0
 62
7
  6
CONTINUOUS
 10
329.6987184429
 20
233.4018351273
  0
VERTEX
  8
0
 62
7
  6
CONTINUOUS
 10
329.7438048251
 20
233.433432503
  0
VERTEX
  8
0
 62
7
  6
CONTINUOUS
 10
329.7864272028
 20
233.4707723575
  0
VERTEX
  8
0
 62
7
  6
CONTINUOUS
 10
329.8259384103
 20
233.5136698706
  0
VERTEX
  8
0
 62
7
  6
CONTINUOUS
 10
329.861690434
 20
233.5618506018
  0
VERTEX
  8
0
 62
7
  6
CONTINUOUS
 10
329.892994594
 20
233.6148571579
  0
VERTEX
  8
0
 62
7
  6
CONTINUOUS
 10
329.9192125956
 20
233.6721121542
  0
VERTEX
  8
0
 62
7
  6
CONTINUOUS
 10
329.9397415035
 20
233.7328132473
  0
VERTEX
  8
0
 62
7
  6
CONTINUOUS
 10
329.9541122055
 20
233.7960666537
  0
VERTEX
  8
0
 62
7
  6
CONTINUOUS
 10
329.9619957087
 20
233.8609094331
  0
SEQEND
  0
POLYLINE
  8
0
 62
7
  6
CONTINUOUS
 66
1
 70
0
  0
VERTEX
  8
0
 62
7
  6
CONTINUOUS
 10
329.2306907051
 20
231.3700761999
  0
VERTEX
  8
0
 62
7
  6
CONTINUOUS
 10
329.2714422259
 20
231.3711316363
  0
VERTEX
  8
0
 62
7
  6
CONTINUOUS
 10
329.3257338183
 20
231.376079453
  0
VERTEX
  8
0
 62
7
  6
CONTINUOUS
 10
329.3816613372
 20
231.3858987028
  0
VERTEX
  8
0
 62
7
  6
CONTINUOUS
 10
329.438032752
 20
231.4012414417
  0
VERTEX
  8
0
 62
7
  6
CONTINUOUS
 10
329.4933909524
 20
231.4223480083
  0
VERTEX
  8
0
 62
7
  6
CONTINUOUS
 10
329.546380719
 20
231.4490548773
  0
VERTEX
  8
0
 62
7
  6
CONTINUOUS
 10
329.5962276833
 20
231.4811292384
  0
VERTEX
  8
0
 62
7
  6
CONTINUOUS
 10
329.6423202867
 20
231.5182558316
  0
VERTEX
  8
0
 62
7
  6
CONTINUOUS
 10
329.6841565334
 20
231.5600786752
  0
VERTEX
  8
0
 62
7
  6
CONTINUOUS
 10
329.7212676752
 20
231.6061722291
  0
VERTEX
  8
0
 62
7
  6
CONTINUOUS
 10
329.7514199721
 20
231.6528785158
  0
SEQEND
  0
LINE
  8
0
 62
7
  6
CONTINUOUS
 10
345.734171759
 20
231.3700760848
 11
340.0725073137
 21
231.3700760848
  0
LINE
  8
0
 62
7
  6
CONTINUOUS
 10
329.2306978423
 20
231.3700760848
 11
323.5690254372
 21
231.3700760848
  0
LINE
  8
0
 62
7
  6
CONTINUOUS
 10
329.3051128357
 20
231.3935413479
 11
323.5321252843
 21
231.3935413479
  0
LINE
  8
0
 62
7
  6
CONTINUOUS
 10
329.4543419782
 20
233.330557572
 11
323.3998582406
 21
233.330557572
  0
POLYLINE
  8
0
 62
7
  6
CONTINUOUS
 66
1
 70
0
  0
VERTEX
  8
0
 62
7
  6
CONTINUOUS
 10
323.3998582406
 20
233.330557572
  0
VERTEX
  8
0
 62
7
  6
CONTINUOUS
 10
323.3499216448
 20
233.3333737758
  0
VERTEX
  8
0
 62
7
  6
CONTINUOUS
 10
323.3001160426
 20
233.3418578911
  0
VERTEX
  8
0
 62
7
  6
CONTINUOUS
 10
323.2508280241
 20
233.3560636589
  0
VERTEX
  8
0
 62
7
  6
CONTINUOUS
 10
323.2024698914
 20
233.3760414922
  0
VERTEX
  8
0
 62
7
  6
CONTINUOUS
 10
323.155481776
 20
233.4018351273
  0
VERTEX
  8
0
 62
7
  6
CONTINUOUS
 10
323.1103953937
 20
233.433432503
  0
VERTEX
  8
0
 62
7
  6
CONTINUOUS
 10
323.067773016
 20
233.4707723575
  0
VERTEX
  8
0
 62
7
  6
CONTINUOUS
 10
323.0282618085
 20
233.5136698706
  0
VERTEX
  8
0
 62
7
  6
CONTINUOUS
 10
322.9925097848
 20
233.5618506018
  0
VERTEX
  8
0
 62
7
  6
CONTINUOUS
 10
322.9612056249
 20
233.6148571579
  0
VERTEX
  8
0
 62
7
  6
CONTINUOUS
 10
322.9349876232
 20
233.6721121542
  0
VERTEX
  8
0
 62
7
  6
CONTINUOUS
 10
322.9144587154
 20
233.7328132473
  0
VERTEX
  8
0
 62
7
  6
CONTINUOUS
 10
322.9000880133
 20
233.7960666537
  0
VERTEX
  8
0
 62
7
  6
CONTINUOUS
 10
322.8922045101
 20
233.8609094331
  0
SEQEND
  0
LINE
  8
0
 62
7
  6
CONTINUOUS
 10
328.0716001141
 20
236.336767937
 11
327.9316001209
 21
236.4091083666
  0
LINE
  8
0
 62
7
  6
CONTINUOUS
 10
329.8916002013
 20
237.241023237
 11
329.7866002001
 21
237.3133636539
  0
LINE
  8
0
 62
7
  6
CONTINUOUS
 10
333.4266001742
 20
236.9154913609
 11
333.4966003085
 21
236.843150944
  0
LINE
  8
0
 62
7
  6
CONTINUOUS
 10
333.7066003109
 20
236.8793211525
 11
333.6016003097
 21
237.0240019863
  0
LINE
  8
0
 62
7
  6
CONTINUOUS
 10
333.7066003109
 20
237.6027254229
 11
333.6016003097
 21
237.7474062567
  0
LINE
  8
0
 62
7
  6
CONTINUOUS
 10
336.611600477
 20
236.843150944
 11
336.6465999433
 21
236.734640268
  0
LINE
  8
0
 62
7
  6
CONTINUOUS
 10
336.8565999457
 20
236.7708104765
 11
336.8216004793
 21
236.8793211525
  0
LINE
  8
0
 62
7
  6
CONTINUOUS
 10
336.611600477
 20
237.5665552144
 11
336.6465999433
 21
237.4580444878
  0
LINE
  8
0
 62
7
  6
CONTINUOUS
 10
336.8565999457
 20
237.4942147975
 11
336.8216004793
 21
237.6027254229
  0
POLYLINE
  8
0
 62
7
  6
CONTINUOUS
 66
1
 70
0
  0
VERTEX
  8
0
 62
7
  6
CONTINUOUS
 10
339.4834801248
 20
231.8762944642
  0
VERTEX
  8
0
 62
7
  6
CONTINUOUS
 10
339.4903912284
 20
231.8209755407
  0
VERTEX
  8
0
 62
7
  6
CONTINUOUS
 10
339.5031679972
 20
231.7667045345
  0
VERTEX
  8
0
 62
7
  6
CONTINUOUS
 10
339.5216622948
 20
231.7141116152
  0
VERTEX
  8
0
 62
7
  6
CONTINUOUS
 10
339.545652045
 20
231.6638190188
  0
VERTEX
  8
0
 62
7
  6
CONTINUOUS
 10
339.5517809361
 20
231.6528789129
  0
SEQEND
  0
LINE
  8
0
 62
7
  6
CONTINUOUS
 10
339.3454923989
 20
233.8256410225
 11
339.3412045101
 21
233.8609094331
  0
LINE
  8
0
 62
7
  6
CONTINUOUS
 10
340.3916005194
 20
237.8920870905
 11
340.3916005194
 21
236.1920870905
  0
LINE
  8
0
 62
7
  6
CONTINUOUS
 10
340.6016005217
 20
236.4091083666
 11
340.6016005217
 21
236.9878317779
  0
LINE
  8
0
 62
7
  6
CONTINUOUS
 10
340.6016005217
 20
237.2048530286
 11
340.6016005217
 21
237.6750658398
  0
LINE
  8
0
 62
7
  6
CONTINUOUS
 10
341.5116002649
 20
236.9878317779
 11
341.5116002649
 21
237.2048530286
  0
LINE
  8
0
 62
7
  6
CONTINUOUS
 10
341.6515997324
 20
236.1920870905
 11
341.6515997324
 21
236.4091083666
  0
LINE
  8
0
 62
7
  6
CONTINUOUS
 10
341.6515997324
 20
237.6750658398
 11
341.6515997324
 21
237.8920870905
  0
LINE
  8
0
 62
7
  6
CONTINUOUS
 10
336.4016004746
 20
236.1920870905
 11
336.5766002095
 21
236.2282573022
  0
LINE
  8
0
 62
7
  6
CONTINUOUS
 10
339.6566005111
 20
236.9516615694
 11
339.8316002461
 21
236.9878317779
  0
LINE
  8
0
 62
7
  6
CONTINUOUS
 10
333.2866003061
 20
236.1920870905
 11
333.4616000411
 21
236.2282573022
  0
LINE
  8
SURFACE
 62
2
  6
CONTINUOUS
 10
321.6516001094
 20
234.1235112872
 11
347.6516001094
 21
234.1235112872
  0
LINE
  8
0
 62
7
  6
CONTINUOUS
 10
317.8966603357
 20
234.3700760848
 11
347.3370825477
 21
234.3700760848
  0
LINE
  8
0
 62
7
  6
CONTINUOUS
 10
328.0716001141
 20
236.1920870905
 11
328.2116001324
 21
236.1920870905
  0
LINE
  8
0
 62
7
  6
CONTINUOUS
 10
328.59660012
 20
236.1920870905
 11
328.7716001554
 21
236.1920870905
  0
LINE
  8
0
 62
7
  6
CONTINUOUS
 10
329.0516000917
 20
236.1920870905
 11
329.2266001271
 21
236.1920870905
  0
LINE
  8
0
 62
7
  6
CONTINUOUS
 10
329.8566001341
 20
236.1920870905
 11
330.0316000694
 21
236.1920870905
  0
LINE
  8
0
 62
7
  6
CONTINUOUS
 10
330.311600206
 20
236.1920870905
 11
330.4866001412
 21
236.1920870905
  0
LINE
  8
0
 62
7
  6
CONTINUOUS
 10
332.4466002967
 20
236.1920870905
 11
333.2866003061
 21
236.1920870905
  0
LINE
  8
0
 62
7
  6
CONTINUOUS
 10
334.0216003144
 20
236.1920870905
 11
335.281599928
 21
236.1920870905
  0
LINE
  8
0
 62
7
  6
CONTINUOUS
 10
335.5616004652
 20
236.1920870905
 11
336.4016004746
 21
236.1920870905
  0
LINE
  8
0
 62
7
  6
CONTINUOUS
 10
338.8166005017
 20
236.1920870905
 11
339.0266005041
 21
236.1920870905
  0
LINE
  8
0
 62
7
  6
CONTINUOUS
 10
340.3916005194
 20
236.1920870905
 11
341.6515997324
 21
236.1920870905
  0
LINE
  8
0
 62
7
  6
CONTINUOUS
 10
328.2116001324
 20
236.336767937
 11
328.0716001141
 21
236.336767937
  0
LINE
  8
0
 62
7
  6
CONTINUOUS
 10
341.6515997324
 20
236.4091083666
 11
340.6016005217
 21
236.4091083666
  0
LINE
  8
0
 62
7
  6
CONTINUOUS
 10
336.4365999409
 20
236.4091083666
 11
335.7716004675
 21
236.4091083666
  0
LINE
  8
0
 62
7
  6
CONTINUOUS
 10
335.281599928
 20
236.4091083666
 11
334.2316003167
 21
236.4091083666
  0
LINE
  8
0
 62
7
  6
CONTINUOUS
 10
333.321600173
 20
236.4091083666
 11
332.6566002991
 21
236.4091083666
  0
LINE
  8
0
 62
7
  6
CONTINUOUS
 10
327.9316001209
 20
236.2282573022
 11
328.0716001141
 21
236.1920870905
  0
LINE
  8
0
 62
7
  6
CONTINUOUS
 10
329.5416001306
 20
237.2048530286
 11
329.6816001989
 21
237.1686828201
  0
LINE
  8
0
 62
7
  6
CONTINUOUS
 10
329.7866002001
 20
237.3133636539
 11
329.6816001989
 21
237.3495338624
  0
LINE
  8
0
 62
7
  6
CONTINUOUS
 10
333.321600173
 20
236.9516615694
 11
333.4266001742
 21
236.9154913609
  0
LINE
  8
0
 62
7
  6
CONTINUOUS
 10
329.6816001989
 20
237.1686828201
 11
329.751600133
 21
237.1325126117
  0
LINE
  8
0
 62
7
  6
CONTINUOUS
 10
333.6016003097
 20
237.0240019863
 11
333.5316001754
 21
237.0601721948
  0
LINE
  8
0
 62
7
  6
CONTINUOUS
 10
333.6016003097
 20
237.7474062567
 11
333.4616000411
 21
237.8559168821
  0
LINE
  8
0
 62
7
  6
CONTINUOUS
 10
333.4266001742
 20
237.6388956314
 11
333.4966003085
 21
237.5665552144
  0
LINE
  8
0
 62
7
  6
CONTINUOUS
 10
336.5415999421
 20
236.9154913609
 11
336.611600477
 21
236.843150944
  0
LINE
  8
0
 62
7
  6
CONTINUOUS
 10
336.5415999421
 20
237.6388956314
 11
336.611600477
 21
237.5665552144
  0
LINE
  8
0
 62
7
  6
CONTINUOUS
 10
336.8216004793
 20
236.8793211525
 11
336.7166004781
 21
237.0240019863
  0
LINE
  8
0
 62
7
  6
CONTINUOUS
 10
336.8216004793
 20
237.6027254229
 11
336.7166004781
 21
237.7474062567
  0
POLYLINE
  8
0
 62
7
  6
CONTINUOUS
 66
1
 70
0
  0
VERTEX
  8
0
 62
7
  6
CONTINUOUS
 10
339.5517802467
 20
231.6528785158
  0
VERTEX
  8
0
 62
7
  6
CONTINUOUS
 10
339.5819325436
 20
231.6061722291
  0
VERTEX
  8
0
 62
7
  6
CONTINUOUS
 10
339.6190436854
 20
231.5600786752
  0
VERTEX
  8
0
 62
7
  6
CONTINUOUS
 10
339.6608799321
 20
231.5182558316
  0
VERTEX
  8
0
 62
7
  6
CONTINUOUS
 10
339.7069725355
 20
231.4811292384
  0
VERTEX
  8
0
 62
7
  6
CONTINUOUS
 10
339.7568194998
 20
231.4490548773
  0
VERTEX
  8
0
 62
7
  6
CONTINUOUS
 10
339.8098092665
 20
231.4223480083
  0
VERTEX
  8
0
 62
7
  6
CONTINUOUS
 10
339.8651674669
 20
231.4012414417
  0
VERTEX
  8
0
 62
7
  6
CONTINUOUS
 10
339.9215388816
 20
231.3858987028
  0
VERTEX
  8
0
 62
7
  6
CONTINUOUS
 10
339.9774664006
 20
231.376079453
  0
VERTEX
  8
0
 62
7
  6
CONTINUOUS
 10
340.0317579929
 20
231.3711316363
  0
VERTEX
  8
0
 62
7
  6
CONTINUOUS
 10
340.0725095138
 20
231.3700761999
  0
SEQEND
  0
LINE
  8
0
 62
7
  6
CONTINUOUS
 10
339.8666005135
 20
237.6027254229
 11
339.9015999798
 21
237.4942147975
  0
LINE
  8
0
 62
7
  6
CONTINUOUS
 10
340.1115999822
 20
237.4942147975
 11
340.0766005158
 21
237.6027254229
  0
LINE
  8
0
 62
7
  6
CONTINUOUS
 10
328.2116001324
 20
236.1920870905
 11
328.3516001006
 21
236.2282573022
  0
LINE
  8
0
 62
7
  6
CONTINUOUS
 10
328.3516001006
 20
236.3729381581
 11
328.2116001324
 21
236.336767937
  0
LINE
  8
0
 62
7
  6
CONTINUOUS
 10
329.4016000623
 20
237.1686828201
 11
329.5416001306
 21
237.2048530286
  0
LINE
  8
0
 62
7
  6
CONTINUOUS
 10
329.5416001306
 20
237.3495338624
 11
329.4016000623
 21
237.3133636539
  0
LINE
  8
0
 62
7
  6
CONTINUOUS
 10
332.6566002991
 20
236.9516615694
 11
333.321600173
 21
236.9516615694
  0
LINE
  8
0
 62
7
  6
CONTINUOUS
 10
335.7716004675
 20
236.9516615694
 11
336.4365999409
 21
236.9516615694
  0
LINE
  8
0
 62
7
  6
CONTINUOUS
 10
339.0266005041
 20
236.9516615694
 11
339.6566005111
 21
236.9516615694
  0
LINE
  8
0
 62
7
  6
CONTINUOUS
 10
340.6016005217
 20
236.9878317779
 11
341.5116002649
 21
236.9878317779
  0
LINE
  8
0
 62
7
  6
CONTINUOUS
 10
339.6915999775
 20
237.1686828201
 11
339.0266005041
 21
237.1686828201
  0
LINE
  8
0
 62
7
  6
CONTINUOUS
 10
336.4365999409
 20
237.1686828201
 11
335.7716004675
 21
237.1686828201
  0
LINE
  8
0
 62
7
  6
CONTINUOUS
 10
333.321600173
 20
237.1686828201
 11
332.6566002991
 21
237.1686828201
  0
LINE
  8
0
 62
7
  6
CONTINUOUS
 10
341.5116002649
 20
237.2048530286
 11
340.6016005217
 21
237.2048530286
  0
LINE
  8
0
 62
7
  6
CONTINUOUS
 10
330.4866001412
 20
237.3495338624
 11
330.311600206
 21
237.3495338624
  0
LINE
  8
0
 62
7
  6
CONTINUOUS
 10
329.6816001989
 20
237.3495338624
 11
329.5416001306
 21
237.3495338624
  0
LINE
  8
0
 62
7
  6
CONTINUOUS
 10
329.2266001271
 20
237.3495338624
 11
329.0516000917
 21
237.3495338624
  0
LINE
  8
0
 62
7
  6
CONTINUOUS
 10
328.7016001212
 20
237.3495338624
 11
328.5266000858
 21
237.3495338624
  0
LINE
  8
0
 62
7
  6
CONTINUOUS
 10
327.8266001072
 20
237.3495338624
 11
327.6516001094
 21
237.3495338624
  0
LINE
  8
0
 62
7
  6
CONTINUOUS
 10
332.6566002991
 20
237.6750658398
 11
333.321600173
 21
237.6750658398
  0
LINE
  8
0
 62
7
  6
CONTINUOUS
 10
335.7716004675
 20
237.6750658398
 11
336.4365999409
 21
237.6750658398
  0
LINE
  8
0
 62
7
  6
CONTINUOUS
 10
340.6016005217
 20
237.6750658398
 11
341.6515997324
 21
237.6750658398
  0
LINE
  8
0
 62
7
  6
CONTINUOUS
 10
330.311600206
 20
237.7112360483
 11
330.4866001412
 21
237.7112360483
  0
LINE
  8
0
 62
7
  6
CONTINUOUS
 10
339.0266005041
 20
237.7112360483
 11
339.6915999775
 21
237.7112360483
  0
LINE
  8
0
 62
7
  6
CONTINUOUS
 10
341.6515997324
 20
237.8920870905
 11
340.3916005194
 21
237.8920870905
  0
LINE
  8
0
 62
7
  6
CONTINUOUS
 10
339.6566005111
 20
237.8920870905
 11
338.8166005017
 21
237.8920870905
  0
LINE
  8
0
 62
7
  6
CONTINUOUS
 10
336.4016004746
 20
237.8920870905
 11
335.5616004652
 21
237.8920870905
  0
LINE
  8
0
 62
7
  6
CONTINUOUS
 10
334.2316003167
 20
237.8920870905
 11
334.0216003144
 21
237.8920870905
  0
LINE
  8
0
 62
7
  6
CONTINUOUS
 10
333.2866003061
 20
237.8920870905
 11
332.4466002967
 21
237.8920870905
  0
LINE
  8
0
 62
7
  6
CONTINUOUS
 10
330.4866001412
 20
237.8920870905
 11
330.311600206
 21
237.8920870905
  0
LINE
  8
0
 62
7
  6
CONTINUOUS
 10
306.4143479176
 20
238.3700760848
 11
362.8888523012
 21
238.3700760848
  0
LINE
  8
0
 62
7
  6
CONTINUOUS
 10
333.4616000411
 20
237.8559168821
 11
333.2866003061
 21
237.8920870905
  0
LINE
  8
0
 62
7
  6
CONTINUOUS
 10
336.5766002095
 20
237.8559168821
 11
336.4016004746
 21
237.8920870905
  0
LINE
  8
0
 62
7
  6
CONTINUOUS
 10
339.8316002461
 20
237.8559168821
 11
339.6566005111
 21
237.8920870905
  0
LINE
  8
0
 62
7
  6
CONTINUOUS
 10
333.321600173
 20
237.6750658398
 11
333.4266001742
 21
237.6388956314
  0
LINE
  8
0
 62
7
  6
CONTINUOUS
 10
336.4365999409
 20
236.9516615694
 11
336.5415999421
 21
236.9154913609
  0
LINE
  8
0
 62
7
  6
CONTINUOUS
 10
336.4365999409
 20
237.6750658398
 11
336.5415999421
 21
237.6388956314
  0
LINE
  8
0
 62
7
  6
CONTINUOUS
 10
339.6915999775
 20
237.7112360483
 11
339.7965999786
 21
237.6750658398
  0
LINE
  8
0
 62
7
  6
CONTINUOUS
 10
336.7166004781
 20
237.0240019863
 11
336.6465999433
 21
237.0601721948
  0
LINE
  8
0
 62
7
  6
CONTINUOUS
 10
336.7166004781
 20
237.7474062567
 11
336.5766002095
 21
237.8559168821
  0
LINE
  8
0
 62
7
  6
CONTINUOUS
 10
339.9716005147
 20
237.7474062567
 11
339.8316002461
 21
237.8559168821
  0
LINE
  8
0
 62
7
  6
CONTINUOUS
 10
339.7965999786
 20
237.6750658398
 11
339.8666005135
 21
237.6027254229
  0
LINE
  8
0
 62
7
  6
CONTINUOUS
 10
340.0766005158
 20
237.6027254229
 11
339.9716005147
 21
237.7474062567
  0
LINE
  8
SURFACE
 62
2
  6
CONTINUOUS
 10
347.6516001094
 20
234.1235112872
 11
347.6516001094
 21
231.3700760848
  0
LINE
  8
0
 62
7
  6
CONTINUOUS
 10
346.2710180753
 20
231.8591360144
 11
346.4466001094
 21
234.3700760848
  0
POLYLINE
  8
0
 62
7
  6
CONTINUOUS
 66
1
 70
0
  0
VERTEX
  8
0
 62
7
  6
CONTINUOUS
 10
362.8888523012
 20
238.1700760848
  0
VERTEX
  8
0
 62
7
  6
CONTINUOUS
 10
362.9002267811
 20
238.1935346378
  0
VERTEX
  8
0
 62
7
  6
CONTINUOUS
 10
362.9109215865
 20
238.2168117563
  0
VERTEX
  8
0
 62
7
  6
CONTINUOUS
 10
362.9207946815
 20
238.2394911348
  0
VERTEX
  8
0
 62
7
  6
CONTINUOUS
 10
362.9297177842
 20
238.2611679791
  0
VERTEX
  8
0
 62
7
  6
CONTINUOUS
 10
362.9375777721
 20
238.2814543121
  0
VERTEX
  8
0
 62
7
  6
CONTINUOUS
 10
362.9442782317
 20
238.2999844664
  0
VERTEX
  8
0
 62
7
  6
CONTINUOUS
 10
362.9497410691
 20
238.3164207211
  0
VERTEX
  8
0
 62
7
  6
CONTINUOUS
 10
362.9539080814
 20
238.3304589727
  0
VERTEX
  8
0
 62
7
  6
CONTINUOUS
 10
362.9567423616
 20
238.3418342896
  0
VERTEX
  8
0
 62
7
  6
CONTINUOUS
 10
362.9582294166
 20
238.3503261781
  0
VERTEX
  8
0
 62
7
  6
CONTINUOUS
 10
362.9583778922
 20
238.3557633652
  0
VERTEX
  8
0
 62
7
  6
CONTINUOUS
 10
362.9572198239
 20
238.358027892
  0
SEQEND
  0
LINE
  8
0
 62
2
  6
CONTINUOUS
 10
360.0516001094
 20
231.4200760848
 11
360.0516001094
 21
229.3200760848
  0
LINE
  8
DEFAULT_1
 62
2
  6
CENTER
 10
360.0516001094
 20
225.1200760848
 11
360.0516001094
 21
224.2200760848
  0
LINE
  8
DEFAULT_1
 62
2
  6
CENTER
 10
360.0516001094
 20
235.6200760848
 11
360.0516001094
 21
236.5200760848
  0
ARC
  8
0
 62
7
  6
CONTINUOUS
 10
108.5364824678
 20
223.3700760872
 40
1.0
 50
184.995448493
 51
270.0000000111
  0
ARC
  8
0
 62
7
  6
CONTINUOUS
 10
81.4132241708
 20
223.3700760848
 40
1.0
 50
180.0
 51
270.0
  0
ARC
  8
0
 62
7
  6
CONTINUOUS
 10
102.4899658739
 20
223.3700760873
 40
0.9999999995
 50
269.9999999885
 51
355.0045515069
  0
ARC
  8
SURFACE
 62
7
  6
CONTINUOUS
 10
94.0899658739
 20
223.3700760872
 40
0.9999999976
 50
269.9999999891
 51
355.4299998638
  0
ARC
  8
SURFACE
 62
7
  6
CONTINUOUS
 10
110.8899658739
 20
223.3700760872
 40
0.9999999976
 50
269.9999999891
 51
355.4299998638
  0
ARC
  8
SURFACE
 62
7
  6
CONTINUOUS
 10
100.1364824677
 20
223.370076088
 40
0.9999999968
 50
184.5700001848
 51
270.0000000147
  0
ARC
  8
0
 62
7
  6
CONTINUOUS
 10
85.6632241708
 20
222.8700760848
 40
0.5
 50
270.0
 51
360.0
  0
ARC
  8
0
 62
7
  6
CONTINUOUS
 10
91.7632241708
 20
222.8700760848
 40
0.5
 50
180.0
 51
270.0
  0
ARC
  8
0
 62
7
  6
CONTINUOUS
 10
86.8131261708
 20
227.3811909368
 40
0.2
 50
355.4220142931
 51
359.992495211
  0
ARC
  8
0
 62
7
  6
CONTINUOUS
 10
115.8131261708
 20
227.3835912007
 40
0.2
 50
179.9970208797
 51
184.5678194535
  0
ARC
  8
0
 62
7
  6
CONTINUOUS
 10
99.0131261708
 20
227.3835912007
 40
0.2
 50
179.9970208797
 51
184.5678194535
  0
ARC
  8
0
 62
7
  6
CONTINUOUS
 10
112.1133221861
 20
227.3796011989
 40
0.0999999986
 50
355.4298900826
 51
359.9998904319
  0
ARC
  8
0
 62
7
  6
CONTINUOUS
 10
95.3133221861
 20
227.3796011989
 40
0.0999999986
 50
355.4298900826
 51
359.9998904319
  0
ARC
  8
SURFACE
 62
7
  6
CONTINUOUS
 10
125.3364824678
 20
223.3700760872
 40
1.0
 50
184.5700001397
 51
270.0000000111
  0
ARC
  8
SURFACE
 62
7
  6
CONTINUOUS
 10
142.1364824678
 20
223.3700760872
 40
1.0
 50
184.5700001397
 51
270.0000000111
  0
ARC
  8
SURFACE
 62
7
  6
CONTINUOUS
 10
119.2899658739
 20
223.3700760873
 40
0.9999999995
 50
269.9999999885
 51
355.4299998557
  0
ARC
  8
SURFACE
 62
7
  6
CONTINUOUS
 10
136.0899658739
 20
223.3700760873
 40
0.9999999995
 50
269.9999999885
 51
355.4299998557
  0
ARC
  8
SURFACE
 62
7
  6
CONTINUOUS
 10
127.6899658739
 20
223.3700760872
 40
0.9999999976
 50
269.9999999891
 51
355.4299998638
  0
ARC
  8
SURFACE
 62
7
  6
CONTINUOUS
 10
144.4899658739
 20
223.3700760872
 40
0.9999999976
 50
269.9999999891
 51
355.4299998638
  0
ARC
  8
SURFACE
 62
7
  6
CONTINUOUS
 10
116.9364824677
 20
223.370076088
 40
0.9999999968
 50
184.5700001848
 51
270.0000000147
  0
ARC
  8
SURFACE
 62
7
  6
CONTINUOUS
 10
133.7364824677
 20
223.370076088
 40
0.9999999968
 50
184.5700001848
 51
270.0000000147
  0
ARC
  8
SURFACE
 62
7
  6
CONTINUOUS
 10
150.5364824677
 20
223.370076088
 40
0.9999999968
 50
184.5700001848
 51
270.0000000147
  0
ARC
  8
0
 62
7
  6
CONTINUOUS
 10
120.4131261708
 20
227.3811909484
 40
0.2000000026
 50
355.4220109613
 51
359.9924918865
  0
ARC
  8
0
 62
7
  6
CONTINUOUS
 10
137.2131261708
 20
227.3811909484
 40
0.2000000026
 50
355.4220109613
 51
359.9924918864
  0
ARC
  8
0
 62
7
  6
CONTINUOUS
 10
132.6131261708
 20
227.3835912007
 40
0.2
 50
179.9970208797
 51
184.5678194535
  0
ARC
  8
0
 62
7
  6
CONTINUOUS
 10
149.4131261708
 20
227.3835912007
 40
0.2
 50
179.9970208797
 51
184.5678194535
  0
ARC
  8
0
 62
7
  6
CONTINUOUS
 10
145.613322199
 20
227.3835915533
 40
0.1999999953
 50
355.429898653
 51
359.9998989751
  0
ARC
  8
0
 62
7
  6
CONTINUOUS
 10
97.0325901231
 20
232.3700760848
 40
2.0
 50
88.3860407106
 51
89.392715218
  0
ARC
  8
0
 62
7
  6
CONTINUOUS
 10
95.2787162413
 20
233.9417853966
 40
3.0
 50
4.5699253967
 51
5.663173753
  0
ARC
  8
0
 62
7
  6
CONTINUOUS
 10
95.2787162413
 20
233.9417853966
 40
3.0
 50
5.6771325067
 51
15.950146682
  0
ARC
  8
0
 62
7
  6
CONTINUOUS
 10
90.5477321004
 20
233.9417853966
 40
3.0
 50
164.0499979248
 51
175.4300307247
  0
ARC
  8
SURFACE
 62
7
  6
CONTINUOUS
 10
97.1726334054
 20
233.0700760848
 40
1.3
 50
92.7079673289
 51
175.4299956922
  0
ARC
  8
0
 62
7
  6
CONTINUOUS
 10
97.1726334054
 20
233.0700760848
 40
1.3
 50
92.6233399029
 51
95.2318158804
  0
ARC
  8
0
 62
7
  6
CONTINUOUS
 10
88.6538149363
 20
233.0700760848
 40
1.3
 50
28.8555659015
 51
83.8978571733
  0
ARC
  8
0
 62
7
  6
CONTINUOUS
 10
88.6538149363
 20
233.0700760848
 40
1.3
 50
84.7681841197
 51
87.376660097
  0
ARC
  8
SURFACE
 62
7
  6
CONTINUOUS
 10
88.6538149363
 20
233.0700760848
 40
1.3
 50
4.5700008051
 51
87.3712001109
  0
ARC
  8
0
 62
7
  6
CONTINUOUS
 10
88.7726334054
 20
233.0700760848
 40
1.3
 50
90.0000000001
 51
175.4299999999
  0
ARC
  8
SURFACE
 62
7
  6
CONTINUOUS
 10
97.0538149363
 20
233.0700760848
 40
1.3
 50
4.570006264
 51
10.7296484792
  0
ARC
  8
SURFACE
 62
7
  6
CONTINUOUS
 10
97.0538149363
 20
233.0700760848
 40
1.3
 50
16.6684750732
 51
89.9689391673
  0
ARC
  8
0
 62
7
  6
CONTINUOUS
 10
97.0538149363
 20
233.0700760848
 40
1.3
 50
4.57
 51
90.0
  0
ARC
  8
0
 62
7
  6
CONTINUOUS
 10
113.9938582186
 20
232.3700760848
 40
2.0
 50
92.4719550643
 51
118.7512139601
  0
ARC
  8
0
 62
7
  6
CONTINUOUS
 10
106.7677861013
 20
231.8700760848
 40
0.5
 50
180.1574310035
 51
269.9999999998
  0
ARC
  8
0
 62
7
  6
CONTINUOUS
 10
104.2586622392
 20
231.8700760848
 40
0.5
 50
270.0000000002
 51
359.8425690402
  0
ARC
  8
0
 62
7
  6
CONTINUOUS
 10
112.0787162413
 20
233.9417853966
 40
3.0
 50
4.5699253967
 51
5.663173753
  0
ARC
  8
0
 62
7
  6
CONTINUOUS
 10
112.0787162413
 20
233.9417853966
 40
3.0
 50
5.6771325067
 51
15.950146682
  0
ARC
  8
0
 62
7
  6
CONTINUOUS
 10
107.3477321004
 20
233.9417853966
 40
3.0
 50
164.05
 51
165.8564637406
  0
ARC
  8
0
 62
7
  6
CONTINUOUS
 10
107.5006212575
 20
233.3700760848
 40
2.0
 50
269.9997190694
 51
278.7853866728
  0
ARC
  8
SURFACE
 62
2
  6
CONTINUOUS
 10
107.5006212575
 20
233.3700760848
 40
2.0
 50
269.9997267519
 51
298.7512229029
  0
ARC
  8
SURFACE
 62
2
  6
CONTINUOUS
 10
103.5258270842
 20
233.3700760848
 40
2.0
 50
241.2488147617
 51
270.0
  0
ARC
  8
SURFACE
 62
7
  6
CONTINUOUS
 10
113.9726334054
 20
233.0700760848
 40
1.3
 50
92.6233399029
 51
175.4299956922
  0
ARC
  8
SURFACE
 62
7
  6
CONTINUOUS
 10
113.8538149363
 20
233.0700760848
 40
1.3
 50
4.57
 51
90.0
  0
ARC
  8
0
 62
7
  6
CONTINUOUS
 10
88.4131261708
 20
238.1700760848
 40
0.2
 50
0.0
 51
90.0000003707
  0
ARC
  8
0
 62
7
  6
CONTINUOUS
 10
105.2131261708
 20
238.1700760848
 40
0.2
 50
0.0
 51
90.0000003707
  0
ARC
  8
0
 62
7
  6
CONTINUOUS
 10
114.2131261708
 20
238.1700760848
 40
0.2
 50
89.9999996293
 51
180.0
  0
ARC
  8
0
 62
7
  6
CONTINUOUS
 10
114.2131263548
 20
238.1185226731
 40
0.2
 50
180.0001645736
 51
195.95
  0
ARC
  8
0
 62
7
  6
CONTINUOUS
 10
97.4131261708
 20
238.1700760848
 40
0.2
 50
89.9999996293
 51
180.0
  0
ARC
  8
0
 62
7
  6
CONTINUOUS
 10
97.4131263548
 20
238.1185226731
 40
0.2
 50
180.0001645736
 51
195.95
  0
ARC
  8
0
 62
7
  6
CONTINUOUS
 10
80.6132241708
 20
238.1700760848
 40
0.2
 50
90.0
 51
180.0
  0
ARC
  8
0
 62
7
  6
CONTINUOUS
 10
86.8131261708
 20
238.1700760848
 40
0.2
 50
0.0
 51
90.0
  0
ARC
  8
0
 62
7
  6
CONTINUOUS
 10
103.6131261708
 20
238.1700760848
 40
0.2
 50
0.0
 51
90.0
  0
ARC
  8
0
 62
7
  6
CONTINUOUS
 10
115.8131261708
 20
238.1700760848
 40
0.2
 50
90.0
 51
180.0
  0
ARC
  8
0
 62
7
  6
CONTINUOUS
 10
99.0131261708
 20
238.1700760848
 40
0.2
 50
90.0
 51
180.0
  0
ARC
  8
0
 62
7
  6
CONTINUOUS
 10
128.8787162413
 20
233.9417853966
 40
3.0
 50
4.5699253967
 51
5.663173753
  0
ARC
  8
0
 62
7
  6
CONTINUOUS
 10
128.8787162413
 20
233.9417853966
 40
3.0
 50
5.6771325067
 51
15.950146682
  0
ARC
  8
0
 62
7
  6
CONTINUOUS
 10
124.1477321004
 20
233.9417853966
 40
3.0
 50
174.3362360617
 51
175.4300752701
  0
ARC
  8
0
 62
7
  6
CONTINUOUS
 10
124.1477321004
 20
233.9417853966
 40
3.0
 50
164.0498533359
 51
174.322324274
  0
ARC
  8
SURFACE
 62
7
  6
CONTINUOUS
 10
130.7726334054
 20
233.0700760848
 40
1.3
 50
92.6233399029
 51
175.4299956922
  0
ARC
  8
SURFACE
 62
7
  6
CONTINUOUS
 10
122.2538149363
 20
233.0700760848
 40
1.3
 50
4.5700008051
 51
87.3712001109
  0
ARC
  8
SURFACE
 62
7
  6
CONTINUOUS
 10
122.3726334054
 20
233.0700760848
 40
1.3
 50
90.0000000001
 51
175.4299999999
  0
ARC
  8
SURFACE
 62
7
  6
CONTINUOUS
 10
130.6538149363
 20
233.0700760848
 40
1.3
 50
4.57
 51
90.0
  0
ARC
  8
0
 62
7
  6
CONTINUOUS
 10
147.4325901231
 20
232.3700760848
 40
2.0
 50
88.3860407106
 51
89.392715218
  0
ARC
  8
0
 62
7
  6
CONTINUOUS
 10
154.6586622392
 20
231.8700760848
 40
0.5
 50
270.0000000002
 51
359.8425690402
  0
ARC
  8
0
 62
7
  6
CONTINUOUS
 10
145.6787162413
 20
233.9417853966
 40
3.0
 50
4.5699253967
 51
5.663173753
  0
ARC
  8
0
 62
7
  6
CONTINUOUS
 10
145.6787162413
 20
233.9417853966
 40
3.0
 50
5.6771325067
 51
15.950146682
  0
ARC
  8
0
 62
7
  6
CONTINUOUS
 10
140.9477321004
 20
233.9417853966
 40
3.0
 50
174.3362360617
 51
175.4300752701
  0
ARC
  8
0
 62
7
  6
CONTINUOUS
 10
140.9477321004
 20
233.9417853966
 40
3.0
 50
164.0498533359
 51
174.322324274
  0
ARC
  8
SURFACE
 62
7
  6
CONTINUOUS
 10
147.5726334054
 20
233.0700760848
 40
1.3
 50
92.6233399029
 51
175.4299956922
  0
ARC
  8
SURFACE
 62
7
  6
CONTINUOUS
 10
139.0538149363
 20
233.0700760848
 40
1.3
 50
4.5700008051
 51
87.3712001109
  0
ARC
  8
SURFACE
 62
7
  6
CONTINUOUS
 10
139.1726334054
 20
233.0700760848
 40
1.3
 50
90.0000000001
 51
175.4299999999
  0
ARC
  8
SURFACE
 62
7
  6
CONTINUOUS
 10
147.4538149363
 20
233.0700760848
 40
1.3
 50
4.57
 51
90.0
  0
ARC
  8
0
 62
7
  6
CONTINUOUS
 10
122.0131259869
 20
238.1178368819
 40
0.2
 50
344.05
 51
359.9998354767
  0
ARC
  8
0
 62
7
  6
CONTINUOUS
 10
122.0131261708
 20
238.1700760848
 40
0.2
 50
0.0
 51
90.0000003707
  0
ARC
  8
0
 62
7
  6
CONTINUOUS
 10
131.0131261708
 20
238.1700760848
 40
0.2
 50
89.9999996293
 51
180.0
  0
ARC
  8
0
 62
7
  6
CONTINUOUS
 10
131.0131263548
 20
238.1185226731
 40
0.2
 50
180.0001645736
 51
195.95
  0
ARC
  8
0
 62
7
  6
CONTINUOUS
 10
138.8131259869
 20
238.1178368819
 40
0.2
 50
344.05
 51
359.9998354767
  0
ARC
  8
0
 62
7
  6
CONTINUOUS
 10
138.8131261708
 20
238.1700760848
 40
0.2
 50
0.0
 51
90.0000003707
  0
ARC
  8
0
 62
7
  6
CONTINUOUS
 10
147.8131261708
 20
238.1700760848
 40
0.2
 50
89.9999996293
 51
180.0
  0
ARC
  8
0
 62
7
  6
CONTINUOUS
 10
147.8131263548
 20
238.1185226731
 40
0.2
 50
180.0001645736
 51
195.95
  0
ARC
  8
0
 62
7
  6
CONTINUOUS
 10
155.6131261708
 20
238.1700760848
 40
0.2
 50
0.0
 51
90.0000003707
  0
ARC
  8
0
 62
7
  6
CONTINUOUS
 10
120.4131261708
 20
238.1700760848
 40
0.2
 50
0.0
 51
90.0
  0
ARC
  8
0
 62
7
  6
CONTINUOUS
 10
132.6131261708
 20
238.1700760848
 40
0.2
 50
90.0
 51
180.0
  0
ARC
  8
0
 62
7
  6
CONTINUOUS
 10
137.2131261708
 20
238.1700760848
 40
0.2
 50
0.0
 51
90.0
  0
ARC
  8
0
 62
7
  6
CONTINUOUS
 10
149.4131261708
 20
238.1700760848
 40
0.2
 50
90.0
 51
180.0
  0
ARC
  8
0
 62
7
  6
CONTINUOUS
 10
154.0131261708
 20
238.1700760848
 40
0.2
 50
0.0
 51
90.0
  0
ARC
  8
SURFACE
 62
7
  6
CONTINUOUS
 10
175.7364824678
 20
223.3700760872
 40
1.0
 50
184.5700001397
 51
270.0000000111
  0
ARC
  8
SURFACE
 62
7
  6
CONTINUOUS
 10
192.5364824678
 20
223.3700760872
 40
1.0
 50
184.5700001398
 51
270.0000000111
  0
ARC
  8
SURFACE
 62
7
  6
CONTINUOUS
 10
169.6899658739
 20
223.3700760873
 40
0.9999999995
 50
269.9999999885
 51
355.4299998557
  0
ARC
  8
SURFACE
 62
7
  6
CONTINUOUS
 10
186.4899658739
 20
223.3700760873
 40
0.9999999995
 50
269.9999999885
 51
355.4299998557
  0
ARC
  8
SURFACE
 62
7
  6
CONTINUOUS
 10
161.2899658739
 20
223.3700760872
 40
0.9999999976
 50
269.9999999891
 51
355.4299998638
  0
ARC
  8
SURFACE
 62
7
  6
CONTINUOUS
 10
178.0899658739
 20
223.3700760872
 40
0.9999999976
 50
269.9999999891
 51
355.4299998638
  0
ARC
  8
SURFACE
 62
7
  6
CONTINUOUS
 10
194.8899658739
 20
223.3700760872
 40
0.9999999976
 50
269.9999999891
 51
355.4299998638
  0
ARC
  8
SURFACE
 62
7
  6
CONTINUOUS
 10
167.3364824677
 20
223.370076088
 40
0.9999999968
 50
184.5700001848
 51
270.0000000147
  0
ARC
  8
SURFACE
 62
7
  6
CONTINUOUS
 10
184.1364824677
 20
223.370076088
 40
0.9999999968
 50
184.5700001848
 51
270.0000000147
  0
ARC
  8
0
 62
7
  6
CONTINUOUS
 10
170.8131261708
 20
227.3811909484
 40
0.2000000026
 50
355.4220109613
 51
359.9924918865
  0
ARC
  8
0
 62
7
  6
CONTINUOUS
 10
187.6131261708
 20
227.3811909484
 40
0.2000000026
 50
355.4220109613
 51
359.9924918865
  0
ARC
  8
0
 62
7
  6
CONTINUOUS
 10
166.2131261708
 20
227.3835912007
 40
0.2
 50
179.9970208797
 51
184.5678194535
  0
ARC
  8
0
 62
7
  6
CONTINUOUS
 10
183.0131261708
 20
227.3835912007
 40
0.2
 50
179.9970208797
 51
184.5678194535
  0
ARC
  8
0
 62
7
  6
CONTINUOUS
 10
179.213322199
 20
227.3835915533
 40
0.1999999953
 50
355.4298986531
 51
359.9998989752
  0
ARC
  8
0
 62
7
  6
CONTINUOUS
 10
162.413322199
 20
227.3835915533
 40
0.1999999953
 50
355.429898653
 51
359.9998989752
  0
ARC
  8
0
 62
7
  6
CONTINUOUS
 10
230.4132241708
 20
223.3700760848
 40
1.0
 50
270.0
 51
360.0
  0
ARC
  8
SURFACE
 62
7
  6
CONTINUOUS
 10
211.6899658739
 20
223.3700760872
 40
0.9999999976
 50
269.9999999891
 51
355.4299998638
  0
ARC
  8
SURFACE
 62
7
  6
CONTINUOUS
 10
200.9364824677
 20
223.370076088
 40
0.9999999968
 50
184.5700001848
 51
270.0000000147
  0
ARC
  8
SURFACE
 62
7
  6
CONTINUOUS
 10
217.7364824677
 20
223.370076088
 40
0.9999999968
 50
184.5700001848
 51
270.0000000147
  0
ARC
  8
0
 62
7
  6
CONTINUOUS
 10
220.0632241708
 20
222.8700760848
 40
0.5
 50
270.0
 51
360.0
  0
ARC
  8
0
 62
7
  6
CONTINUOUS
 10
226.1632241708
 20
222.8700760848
 40
0.5
 50
180.0
 51
270.0
  0
ARC
  8
0
 62
7
  6
CONTINUOUS
 10
199.8131261708
 20
227.3835912007
 40
0.2
 50
179.9970208797
 51
184.5678194535
  0
ARC
  8
0
 62
7
  6
CONTINUOUS
 10
216.6131261708
 20
227.3835912007
 40
0.2
 50
179.9970208797
 51
184.5678194535
  0
ARC
  8
0
 62
7
  6
CONTINUOUS
 10
221.2131261708
 20
227.3811909368
 40
0.2
 50
355.4220142931
 51
359.9924952109
  0
ARC
  8
0
 62
7
  6
CONTINUOUS
 10
196.013322199
 20
227.3835915533
 40
0.1999999953
 50
355.429898653
 51
359.9998989751
  0
ARC
  8
0
 62
7
  6
CONTINUOUS
 10
212.8233221982
 20
227.3831925236
 40
0.1899999956
 50
355.4298964635
 51
359.9998967926
  0
ARC
  8
0
 62
7
  6
CONTINUOUS
 10
164.3938582186
 20
232.3700760848
 40
2.0
 50
92.4719550643
 51
118.7512139601
  0
ARC
  8
0
 62
7
  6
CONTINUOUS
 10
157.1677861013
 20
231.8700760848
 40
0.5
 50
180.1574310035
 51
269.9999999998
  0
ARC
  8
0
 62
7
  6
CONTINUOUS
 10
162.4787162413
 20
233.9417853966
 40
3.0
 50
4.5699253967
 51
5.663173753
  0
ARC
  8
0
 62
7
  6
CONTINUOUS
 10
162.4787162413
 20
233.9417853966
 40
3.0
 50
5.6771325067
 51
15.950146682
  0
ARC
  8
0
 62
7
  6
CONTINUOUS
 10
157.9006212575
 20
233.3700760848
 40
2.0
 50
269.9997190694
 51
278.7853866728
  0
ARC
  8
SURFACE
 62
7
  6
CONTINUOUS
 10
164.2538149363
 20
233.0700760848
 40
1.3
 50
4.57
 51
90.0
  0
ARC
  8
SURFACE
 62
7
  6
CONTINUOUS
 10
164.3726334054
 20
233.0700760848
 40
1.3
 50
92.6233399029
 51
175.4299956922
  0
ARC
  8
SURFACE
 62
7
  6
CONTINUOUS
 10
172.7726334054
 20
233.0700760848
 40
1.3
 50
90.0000000001
 51
175.4299999999
  0
ARC
  8
SURFACE
 62
7
  6
CONTINUOUS
 10
172.6538149363
 20
233.0700760848
 40
1.3
 50
4.5700008051
 51
87.3712001109
  0
ARC
  8
0
 62
7
  6
CONTINUOUS
 10
179.2787162413
 20
233.9417853966
 40
3.0
 50
4.5699253967
 51
5.663173753
  0
ARC
  8
0
 62
7
  6
CONTINUOUS
 10
179.2787162413
 20
233.9417853966
 40
3.0
 50
5.6771325067
 51
15.950146682
  0
ARC
  8
0
 62
7
  6
CONTINUOUS
 10
174.5477321004
 20
233.9417853966
 40
3.0
 50
174.3362360617
 51
175.4300752701
  0
ARC
  8
0
 62
7
  6
CONTINUOUS
 10
174.5477321004
 20
233.9417853966
 40
3.0
 50
164.0498533359
 51
174.322324274
  0
ARC
  8
0
 62
7
  6
CONTINUOUS
 10
191.3477321004
 20
233.9417853966
 40
3.0
 50
174.3362360617
 51
175.4300752701
  0
ARC
  8
0
 62
7
  6
CONTINUOUS
 10
191.3477321004
 20
233.9417853966
 40
3.0
 50
164.0498533359
 51
174.322324274
  0
ARC
  8
SURFACE
 62
7
  6
CONTINUOUS
 10
181.0538149363
 20
233.0700760848
 40
1.3
 50
4.57
 51
90.0
  0
ARC
  8
SURFACE
 62
7
  6
CONTINUOUS
 10
181.1726334054
 20
233.0700760848
 40
1.3
 50
92.6233399029
 51
175.4299956922
  0
ARC
  8
SURFACE
 62
7
  6
CONTINUOUS
 10
189.5726334054
 20
233.0700760848
 40
1.3
 50
90.0000000001
 51
175.4299999999
  0
ARC
  8
SURFACE
 62
7
  6
CONTINUOUS
 10
189.4538149363
 20
233.0700760848
 40
1.3
 50
4.5700008051
 51
87.3712001109
  0
ARC
  8
0
 62
7
  6
CONTINUOUS
 10
164.6131261708
 20
238.1700760848
 40
0.2
 50
89.9999996293
 51
180.0
  0
ARC
  8
0
 62
7
  6
CONTINUOUS
 10
164.6131263548
 20
238.1185226731
 40
0.2
 50
180.0001645736
 51
195.95
  0
ARC
  8
0
 62
7
  6
CONTINUOUS
 10
172.4131259869
 20
238.1178368819
 40
0.2
 50
344.05
 51
359.9998354767
  0
ARC
  8
0
 62
7
  6
CONTINUOUS
 10
172.4131261708
 20
238.1700760848
 40
0.2
 50
0.0
 51
90.0000003707
  0
ARC
  8
0
 62
7
  6
CONTINUOUS
 10
181.4131261708
 20
238.1700760848
 40
0.2
 50
89.9999996293
 51
180.0
  0
ARC
  8
0
 62
7
  6
CONTINUOUS
 10
181.4131263548
 20
238.1185226731
 40
0.2
 50
180.0001645736
 51
195.95
  0
ARC
  8
0
 62
7
  6
CONTINUOUS
 10
189.2131259869
 20
238.1178368819
 40
0.2
 50
344.05
 51
359.9998354767
  0
ARC
  8
0
 62
7
  6
CONTINUOUS
 10
189.2131261708
 20
238.1700760848
 40
0.2
 50
0.0
 51
90.0000003707
  0
ARC
  8
0
 62
7
  6
CONTINUOUS
 10
166.2131261708
 20
238.1700760848
 40
0.2
 50
90.0
 51
180.0
  0
ARC
  8
0
 62
7
  6
CONTINUOUS
 10
170.8131261708
 20
238.1700760848
 40
0.2
 50
0.0
 51
90.0
  0
ARC
  8
0
 62
7
  6
CONTINUOUS
 10
183.0131261708
 20
238.1700760848
 40
0.2
 50
90.0
 51
180.0
  0
ARC
  8
0
 62
7
  6
CONTINUOUS
 10
187.6131261708
 20
238.1700760848
 40
0.2
 50
0.0
 51
90.0
  0
ARC
  8
0
 62
7
  6
CONTINUOUS
 10
197.8325901231
 20
232.3700760848
 40
2.0
 50
88.3860407106
 51
89.392715218
  0
ARC
  8
SURFACE
 62
7
  6
CONTINUOUS
 10
197.8538149363
 20
233.0700760848
 40
1.3
 50
4.57
 51
90.0
  0
ARC
  8
SURFACE
 62
7
  6
CONTINUOUS
 10
197.9726334054
 20
233.0700760848
 40
1.3
 50
92.6233399029
 51
175.4299956922
  0
ARC
  8
0
 62
7
  6
CONTINUOUS
 10
207.5677861013
 20
231.8700760848
 40
0.5
 50
180.1574310035
 51
269.9999999998
  0
ARC
  8
0
 62
7
  6
CONTINUOUS
 10
205.0586622392
 20
231.8700760848
 40
0.5
 50
270.0000000002
 51
359.8425690402
  0
ARC
  8
0
 62
7
  6
CONTINUOUS
 10
196.0787162413
 20
233.9417853966
 40
3.0
 50
4.5699253967
 51
5.663173753
  0
ARC
  8
0
 62
7
  6
CONTINUOUS
 10
196.0787162413
 20
233.9417853966
 40
3.0
 50
5.6771325067
 51
15.950146682
  0
ARC
  8
0
 62
7
  6
CONTINUOUS
 10
212.8787162413
 20
233.9417853966
 40
3.0
 50
4.5699253967
 51
5.663173753
  0
ARC
  8
0
 62
7
  6
CONTINUOUS
 10
212.8787162413
 20
233.9417853966
 40
3.0
 50
5.6771325067
 51
15.950146682
  0
ARC
  8
0
 62
7
  6
CONTINUOUS
 10
208.3006212575
 20
233.3700760848
 40
2.0
 50
269.9997190694
 51
278.7853866728
  0
ARC
  8
SURFACE
 62
2
  6
CONTINUOUS
 10
208.3006212575
 20
233.3700760848
 40
2.0
 50
269.9997267519
 51
298.7512229029
  0
ARC
  8
SURFACE
 62
2
  6
CONTINUOUS
 10
204.3258270842
 20
233.3700760848
 40
2.0
 50
241.2488147617
 51
270.0
  0
ARC
  8
0
 62
7
  6
CONTINUOUS
 10
214.7938582186
 20
232.3700760848
 40
2.0
 50
92.4719550643
 51
118.7512139601
  0
ARC
  8
SURFACE
 62
7
  6
CONTINUOUS
 10
214.6538149363
 20
233.0700760848
 40
1.3
 50
4.57
 51
90.0
  0
ARC
  8
SURFACE
 62
7
  6
CONTINUOUS
 10
214.7726334054
 20
233.0700760848
 40
1.3
 50
92.6233399029
 51
175.4299956922
  0
ARC
  8
SURFACE
 62
7
  6
CONTINUOUS
 10
223.1726334054
 20
233.0700760848
 40
1.3
 50
90.0000000001
 51
175.4299999999
  0
ARC
  8
SURFACE
 62
7
  6
CONTINUOUS
 10
223.0538149363
 20
233.0700760848
 40
1.3
 50
4.5700008051
 51
87.3712001109
  0
ARC
  8
0
 62
7
  6
CONTINUOUS
 10
224.9477321004
 20
233.9417853966
 40
3.0
 50
164.0499979255
 51
175.4300306936
  0
ARC
  8
0
 62
7
  6
CONTINUOUS
 10
230.9132241708
 20
234.8700760848
 40
0.5
 50
270.0
 51
360.0
  0
ARC
  8
0
 62
7
  6
CONTINUOUS
 10
198.2131261708
 20
238.1700760848
 40
0.2
 50
89.9999996293
 51
180.0
  0
ARC
  8
0
 62
7
  6
CONTINUOUS
 10
198.2131263548
 20
238.1185226731
 40
0.2
 50
180.0001645736
 51
195.95
  0
ARC
  8
0
 62
7
  6
CONTINUOUS
 10
206.0131261708
 20
238.1700760848
 40
0.2
 50
0.0
 51
90.0000003707
  0
ARC
  8
0
 62
7
  6
CONTINUOUS
 10
215.0131261708
 20
238.1700760848
 40
0.2
 50
89.9999996293
 51
180.0
  0
ARC
  8
0
 62
7
  6
CONTINUOUS
 10
215.0131263548
 20
238.1185226731
 40
0.2
 50
180.0001645736
 51
195.95
  0
ARC
  8
0
 62
7
  6
CONTINUOUS
 10
222.8131261708
 20
238.1700760848
 40
0.2
 50
0.0
 51
90.0000003707
  0
ARC
  8
0
 62
7
  6
CONTINUOUS
 10
231.2132241708
 20
238.1700760848
 40
0.2
 50
0.0
 51
90.0
  0
ARC
  8
0
 62
7
  6
CONTINUOUS
 10
199.8131261708
 20
238.1700760848
 40
0.2
 50
90.0
 51
180.0
  0
ARC
  8
0
 62
7
  6
CONTINUOUS
 10
204.4131261708
 20
238.1700760848
 40
0.2
 50
0.0
 51
90.0
  0
ARC
  8
0
 62
7
  6
CONTINUOUS
 10
216.6131261708
 20
238.1700760848
 40
0.2
 50
90.0
 51
180.0
  0
ARC
  8
0
 62
7
  6
CONTINUOUS
 10
221.2131261708
 20
238.1700760848
 40
0.2
 50
0.0
 51
90.0
  0
ARC
  8
0
 62
7
  6
CONTINUOUS
 10
86.8131261708
 20
100.8421225383
 40
0.2
 50
270.0
 51
0.0000353487
  0
ARC
  8
0
 62
7
  6
CONTINUOUS
 10
99.0131261708
 20
100.8421225383
 40
0.2
 50
179.9999641985
 51
270.0
  0
ARC
  8
0
 62
7
  6
CONTINUOUS
 10
99.0131261708
 20
109.1421225383
 40
1.8
 50
107.7189318734
 51
252.2810681266
  0
ARC
  8
0
 62
7
  6
CONTINUOUS
 10
86.8131261708
 20
109.1421225383
 40
1.8
 50
287.7189318734
 51
72.2810681266
  0
ARC
  8
0
 62
7
  6
CONTINUOUS
 10
87.5131261708
 20
106.9512323083
 40
0.5
 50
107.7189318734
 51
180.0
  0
ARC
  8
0
 62
7
  6
CONTINUOUS
 10
87.5131261708
 20
111.3330127683
 40
0.5
 50
180.0
 51
252.2810681266
  0
ARC
  8
0
 62
7
  6
CONTINUOUS
 10
98.3131261708
 20
106.9512323083
 40
0.5
 50
0.0
 51
72.2810681266
  0
ARC
  8
0
 62
7
  6
CONTINUOUS
 10
98.3131261708
 20
111.3330127683
 40
0.5
 50
287.7189318734
 51
360.0
  0
ARC
  8
0
 62
7
  6
CONTINUOUS
 10
103.6131261708
 20
100.8421225383
 40
0.2
 50
270.0
 51
360.0
  0
ARC
  8
0
 62
7
  6
CONTINUOUS
 10
115.8131261708
 20
100.8421225383
 40
0.2
 50
179.9999641985
 51
270.0
  0
ARC
  8
0
 62
7
  6
CONTINUOUS
 10
115.8131261708
 20
109.1421225383
 40
1.8
 50
107.7189318734
 51
252.2810681266
  0
ARC
  8
0
 62
7
  6
CONTINUOUS
 10
103.6131261708
 20
109.1421225383
 40
1.8
 50
287.7189318734
 51
72.2810681266
  0
ARC
  8
0
 62
7
  6
CONTINUOUS
 10
104.3131261708
 20
106.9512323083
 40
0.5
 50
107.7189318734
 51
180.0
  0
ARC
  8
0
 62
7
  6
CONTINUOUS
 10
104.3131261708
 20
111.3330127683
 40
0.5
 50
180.0
 51
252.2810681266
  0
ARC
  8
0
 62
7
  6
CONTINUOUS
 10
115.1131261708
 20
106.9512323083
 40
0.5
 50
0.0
 51
72.2810681266
  0
ARC
  8
0
 62
7
  6
CONTINUOUS
 10
115.1131261708
 20
111.3330127683
 40
0.5
 50
287.7189318734
 51
360.0
  0
ARC
  8
0
 62
7
  6
CONTINUOUS
 10
114.6131261708
 20
112.3266675383
 40
1.0
 50
0.0
 51
90.0
  0
ARC
  8
0
 62
7
  6
CONTINUOUS
 10
104.8131261708
 20
112.3266675383
 40
1.0
 50
90.0
 51
180.0
  0
ARC
  8
0
 62
7
  6
CONTINUOUS
 10
97.8131261708
 20
112.3266675383
 40
1.0
 50
0.0
 51
90.0
  0
ARC
  8
0
 62
7
  6
CONTINUOUS
 10
88.0131261708
 20
112.3266675383
 40
1.0
 50
90.0
 51
180.0
  0
ARC
  8
0
 62
7
  6
CONTINUOUS
 10
83.5882241708
 20
123.0421225383
 40
0.8603594806
 50
180.0
 51
270.0
  0
ARC
  8
0
 62
7
  6
CONTINUOUS
 10
85.4382241708
 20
123.0421225383
 40
0.8603594806
 50
270.0
 51
360.0
  0
ARC
  8
0
 62
7
  6
CONTINUOUS
 10
91.9882241708
 20
119.0421225383
 40
0.8603594806
 50
180.0
 51
270.0
  0
ARC
  8
0
 62
7
  6
CONTINUOUS
 10
93.8382241708
 20
119.0421225383
 40
0.8603594806
 50
270.0
 51
360.0
  0
ARC
  8
0
 62
7
  6
CONTINUOUS
 10
100.3882241708
 20
123.0421225383
 40
0.8603594806
 50
180.0
 51
270.0
  0
ARC
  8
0
 62
7
  6
CONTINUOUS
 10
102.2382241708
 20
123.0421225383
 40
0.8603594806
 50
270.0
 51
360.0
  0
ARC
  8
0
 62
7
  6
CONTINUOUS
 10
108.7882241708
 20
119.0421225383
 40
0.8603594806
 50
180.0
 51
270.0
  0
ARC
  8
0
 62
7
  6
CONTINUOUS
 10
110.6382241708
 20
119.0421225383
 40
0.8603594806
 50
270.0
 51
360.0
  0
ARC
  8
0
 62
7
  6
CONTINUOUS
 10
117.1882241708
 20
123.0421225383
 40
0.8603594806
 50
180.0
 51
270.0
  0
ARC
  8
0
 62
7
  6
CONTINUOUS
 10
119.0382241708
 20
123.0421225383
 40
0.8603594806
 50
270.0
 51
360.0
  0
ARC
  8
0
 62
7
  6
CONTINUOUS
 10
120.4131261708
 20
100.8421225383
 40
0.2
 50
270.0
 51
0.0000353501
  0
ARC
  8
0
 62
7
  6
CONTINUOUS
 10
132.6131261708
 20
100.8421225383
 40
0.2
 50
179.9999641985
 51
270.0
  0
ARC
  8
0
 62
7
  6
CONTINUOUS
 10
137.2131261708
 20
100.8421225383
 40
0.2
 50
270.0
 51
0.0000353501
  0
ARC
  8
0
 62
7
  6
CONTINUOUS
 10
137.2131261708
 20
109.1421225383
 40
1.8
 50
287.7189318734
 51
72.2810681266
  0
ARC
  8
0
 62
7
  6
CONTINUOUS
 10
132.6131261708
 20
109.1421225383
 40
1.8
 50
107.7189318734
 51
252.2810681266
  0
ARC
  8
0
 62
7
  6
CONTINUOUS
 10
120.4131261708
 20
109.1421225383
 40
1.8
 50
287.7189318734
 51
72.2810681266
  0
ARC
  8
0
 62
7
  6
CONTINUOUS
 10
131.9131261708
 20
106.9512323083
 40
0.5
 50
0.0
 51
72.2810681266
  0
ARC
  8
0
 62
7
  6
CONTINUOUS
 10
121.1131261708
 20
106.9512323083
 40
0.5
 50
107.7189318734
 51
180.0
  0
ARC
  8
0
 62
7
  6
CONTINUOUS
 10
121.1131261708
 20
111.3330127683
 40
0.5
 50
180.0
 51
252.2810681266
  0
ARC
  8
0
 62
7
  6
CONTINUOUS
 10
131.9131261708
 20
111.3330127683
 40
0.5
 50
287.7189318734
 51
360.0
  0
ARC
  8
0
 62
7
  6
CONTINUOUS
 10
149.4131261708
 20
100.8421225383
 40
0.2
 50
179.9999641985
 51
270.0
  0
ARC
  8
0
 62
7
  6
CONTINUOUS
 10
154.0131261708
 20
100.8421225383
 40
0.2
 50
270.0
 51
360.0
  0
ARC
  8
0
 62
7
  6
CONTINUOUS
 10
154.0131261708
 20
109.1421225383
 40
1.8
 50
287.7189318734
 51
72.2810681266
  0
ARC
  8
0
 62
7
  6
CONTINUOUS
 10
149.4131261708
 20
109.1421225383
 40
1.8
 50
107.7189318734
 51
252.2810681266
  0
ARC
  8
0
 62
7
  6
CONTINUOUS
 10
154.7131261708
 20
111.3330127683
 40
0.5
 50
180.0
 51
252.2810681266
  0
ARC
  8
0
 62
7
  6
CONTINUOUS
 10
137.9131261708
 20
106.9512323083
 40
0.5
 50
107.7189318734
 51
180.0
  0
ARC
  8
0
 62
7
  6
CONTINUOUS
 10
137.9131261708
 20
111.3330127683
 40
0.5
 50
180.0
 51
252.2810681266
  0
ARC
  8
0
 62
7
  6
CONTINUOUS
 10
148.7131261708
 20
111.3330127683
 40
0.5
 50
287.7189318734
 51
360.0
  0
ARC
  8
0
 62
7
  6
CONTINUOUS
 10
148.7131261708
 20
106.9512323083
 40
0.5
 50
0.0
 51
72.2810681266
  0
ARC
  8
0
 62
7
  6
CONTINUOUS
 10
154.7131261708
 20
106.9512323083
 40
0.5
 50
107.7189318734
 51
180.0
  0
ARC
  8
0
 62
7
  6
CONTINUOUS
 10
155.2131261708
 20
112.3266675383
 40
1.0
 50
90.0
 51
180.0
  0
ARC
  8
0
 62
7
  6
CONTINUOUS
 10
148.2131261708
 20
112.3266675383
 40
1.0
 50
0.0
 51
90.0
  0
ARC
  8
0
 62
7
  6
CONTINUOUS
 10
138.4131261708
 20
112.3266675383
 40
1.0
 50
90.0
 51
180.0
  0
ARC
  8
0
 62
7
  6
CONTINUOUS
 10
131.4131261708
 20
112.3266675383
 40
1.0
 50
0.0
 51
90.0
  0
ARC
  8
0
 62
7
  6
CONTINUOUS
 10
121.6131261708
 20
112.3266675383
 40
1.0
 50
90.0
 51
180.0
  0
ARC
  8
0
 62
7
  6
CONTINUOUS
 10
125.5882241708
 20
119.0421225383
 40
0.8603594806
 50
180.0
 51
270.0
  0
ARC
  8
0
 62
7
  6
CONTINUOUS
 10
127.4382241708
 20
119.0421225383
 40
0.8603594806
 50
270.0
 51
360.0
  0
ARC
  8
0
 62
7
  6
CONTINUOUS
 10
133.9882241708
 20
123.0421225383
 40
0.8603594806
 50
180.0
 51
270.0
  0
ARC
  8
0
 62
7
  6
CONTINUOUS
 10
135.8382241708
 20
123.0421225383
 40
0.8603594806
 50
270.0
 51
360.0
  0
ARC
  8
0
 62
7
  6
CONTINUOUS
 10
142.3882241708
 20
119.0421225383
 40
0.8603594806
 50
180.0
 51
270.0
  0
ARC
  8
0
 62
7
  6
CONTINUOUS
 10
144.2382241708
 20
119.0421225383
 40
0.8603594806
 50
270.0
 51
360.0
  0
ARC
  8
0
 62
7
  6
CONTINUOUS
 10
150.7882241708
 20
123.0421225383
 40
0.8603594806
 50
180.0
 51
270.0
  0
ARC
  8
0
 62
7
  6
CONTINUOUS
 10
152.6382241708
 20
123.0421225383
 40
0.8603594806
 50
270.0
 51
360.0
  0
ARC
  8
0
 62
7
  6
CONTINUOUS
 10
89.4133221708
 20
156.7575775383
 40
1.0
 50
270.0
 51
360.0
  0
ARC
  8
0
 62
7
  6
CONTINUOUS
 10
96.4133221708
 20
156.7575775383
 40
1.0
 50
180.0
 51
270.0
  0
ARC
  8
0
 62
7
  6
CONTINUOUS
 10
106.2133221708
 20
156.7575775383
 40
1.0
 50
270.0
 51
360.0
  0
ARC
  8
0
 62
7
  6
CONTINUOUS
 10
113.2133221708
 20
156.7575775383
 40
1.0
 50
180.0
 51
270.0
  0
ARC
  8
0
 62
7
  6
CONTINUOUS
 10
85.4382241708
 20
150.0421225383
 40
0.8603594806
 50
0.0
 51
90.0
  0
ARC
  8
0
 62
7
  6
CONTINUOUS
 10
83.5882241708
 20
150.0421225383
 40
0.8603594806
 50
90.0
 51
180.0
  0
ARC
  8
0
 62
7
  6
CONTINUOUS
 10
93.8382241708
 20
146.0421225383
 40
0.8603594806
 50
0.0
 51
90.0
  0
ARC
  8
0
 62
7
  6
CONTINUOUS
 10
91.9882241708
 20
146.0421225383
 40
0.8603594806
 50
90.0
 51
180.0
  0
ARC
  8
0
 62
7
  6
CONTINUOUS
 10
102.2382241708
 20
150.0421225383
 40
0.8603594806
 50
0.0
 51
90.0
  0
ARC
  8
0
 62
7
  6
CONTINUOUS
 10
100.3882241708
 20
150.0421225383
 40
0.8603594806
 50
90.0
 51
180.0
  0
ARC
  8
0
 62
7
  6
CONTINUOUS
 10
110.6382241708
 20
146.0421225383
 40
0.8603594806
 50
0.0
 51
90.0
  0
ARC
  8
0
 62
7
  6
CONTINUOUS
 10
108.7882241708
 20
146.0421225383
 40
0.8603594806
 50
90.0
 51
180.0
  0
ARC
  8
0
 62
7
  6
CONTINUOUS
 10
117.1882241708
 20
150.0421225383
 40
0.8603594806
 50
90.0
 51
180.0
  0
ARC
  8
0
 62
7
  6
CONTINUOUS
 10
89.9133221708
 20
157.7512323083
 40
0.5
 50
0.0
 51
72.2810681266
  0
ARC
  8
0
 62
7
  6
CONTINUOUS
 10
89.9133221708
 20
162.1330127683
 40
0.5
 50
287.7189318734
 51
360.0
  0
ARC
  8
0
 62
7
  6
CONTINUOUS
 10
90.6133221708
 20
159.9421225383
 40
1.8
 50
107.7189318734
 51
252.2810681266
  0
ARC
  8
0
 62
7
  6
CONTINUOUS
 10
95.9133221708
 20
157.7512323083
 40
0.5
 50
107.7189318734
 51
180.0
  0
ARC
  8
0
 62
7
  6
CONTINUOUS
 10
95.2133221708
 20
159.9421225383
 40
1.8
 50
287.7189318734
 51
72.2810681266
  0
ARC
  8
0
 62
7
  6
CONTINUOUS
 10
95.9133221708
 20
162.1330127683
 40
0.5
 50
180.0
 51
252.2810681266
  0
ARC
  8
0
 62
7
  6
CONTINUOUS
 10
107.4133221708
 20
159.9421225383
 40
1.8
 50
107.7189318734
 51
252.2810681266
  0
ARC
  8
0
 62
7
  6
CONTINUOUS
 10
112.0133221708
 20
159.9421225383
 40
1.8
 50
287.7189318734
 51
72.2810681266
  0
ARC
  8
0
 62
7
  6
CONTINUOUS
 10
106.7133221708
 20
162.1330127683
 40
0.5
 50
287.7189318734
 51
360.0
  0
ARC
  8
0
 62
7
  6
CONTINUOUS
 10
106.7133221708
 20
157.7512323083
 40
0.5
 50
0.0
 51
72.2810681266
  0
ARC
  8
0
 62
7
  6
CONTINUOUS
 10
112.7133221708
 20
157.7512323083
 40
0.5
 50
107.7189318734
 51
180.0
  0
ARC
  8
0
 62
7
  6
CONTINUOUS
 10
112.7133221708
 20
162.1330127683
 40
0.5
 50
180.0
 51
252.2810681266
  0
ARC
  8
0
 62
7
  6
CONTINUOUS
 10
107.3133221708
 20
168.3419207023
 40
0.1
 50
91.1047095621
 51
180.0
  0
ARC
  8
0
 62
7
  6
CONTINUOUS
 10
123.0133221708
 20
156.7575775383
 40
1.0
 50
270.0
 51
360.0
  0
ARC
  8
0
 62
7
  6
CONTINUOUS
 10
130.0133221708
 20
156.7575775383
 40
1.0
 50
180.0
 51
270.0
  0
ARC
  8
0
 62
7
  6
CONTINUOUS
 10
139.8133221708
 20
156.7575775383
 40
1.0
 50
270.0
 51
360.0
  0
ARC
  8
0
 62
7
  6
CONTINUOUS
 10
146.8133221708
 20
156.7575775383
 40
1.0
 50
180.0
 51
270.0
  0
ARC
  8
0
 62
7
  6
CONTINUOUS
 10
119.0382241708
 20
150.0421225383
 40
0.8603594806
 50
0.0
 51
90.0
  0
ARC
  8
0
 62
7
  6
CONTINUOUS
 10
127.4382241708
 20
146.0421225383
 40
0.8603594806
 50
0.0
 51
90.0
  0
ARC
  8
0
 62
7
  6
CONTINUOUS
 10
125.5882241708
 20
146.0421225383
 40
0.8603594806
 50
90.0
 51
180.0
  0
ARC
  8
0
 62
7
  6
CONTINUOUS
 10
135.8382241708
 20
150.0421225383
 40
0.8603594806
 50
0.0
 51
90.0
  0
ARC
  8
0
 62
7
  6
CONTINUOUS
 10
133.9882241708
 20
150.0421225383
 40
0.8603594806
 50
90.0
 51
180.0
  0
ARC
  8
0
 62
7
  6
CONTINUOUS
 10
144.2382241708
 20
146.0421225383
 40
0.8603594806
 50
0.0
 51
90.0
  0
ARC
  8
0
 62
7
  6
CONTINUOUS
 10
142.3882241708
 20
146.0421225383
 40
0.8603594806
 50
90.0
 51
180.0
  0
ARC
  8
0
 62
7
  6
CONTINUOUS
 10
152.6382241708
 20
150.0421225383
 40
0.8603594806
 50
0.0
 51
90.0
  0
ARC
  8
0
 62
7
  6
CONTINUOUS
 10
150.7882241708
 20
150.0421225383
 40
0.8603594806
 50
90.0
 51
180.0
  0
ARC
  8
0
 62
7
  6
CONTINUOUS
 10
124.2133221708
 20
159.9421225383
 40
1.8
 50
107.7189318734
 51
252.2810681266
  0
ARC
  8
0
 62
7
  6
CONTINUOUS
 10
128.8133221708
 20
159.9421225383
 40
1.8
 50
287.7189318734
 51
72.2810681266
  0
ARC
  8
0
 62
7
  6
CONTINUOUS
 10
129.5133221708
 20
162.1330127683
 40
0.5
 50
180.0
 51
252.2810681266
  0
ARC
  8
0
 62
7
  6
CONTINUOUS
 10
129.5133221708
 20
157.7512323083
 40
0.5
 50
107.7189318734
 51
180.0
  0
ARC
  8
0
 62
7
  6
CONTINUOUS
 10
123.5133221708
 20
157.7512323083
 40
0.5
 50
0.0
 51
72.2810681266
  0
ARC
  8
0
 62
7
  6
CONTINUOUS
 10
123.5133221708
 20
162.1330127683
 40
0.5
 50
287.7189318734
 51
360.0
  0
ARC
  8
0
 62
7
  6
CONTINUOUS
 10
141.0133221708
 20
159.9421225383
 40
1.8
 50
107.7189318734
 51
252.2810681266
  0
ARC
  8
0
 62
7
  6
CONTINUOUS
 10
145.6133221708
 20
159.9421225383
 40
1.8
 50
287.7189318734
 51
72.2810681266
  0
ARC
  8
0
 62
7
  6
CONTINUOUS
 10
140.3133221708
 20
162.1330127683
 40
0.5
 50
287.7189318734
 51
360.0
  0
ARC
  8
0
 62
7
  6
CONTINUOUS
 10
140.3133221708
 20
157.7512323083
 40
0.5
 50
0.0
 51
72.2810681266
  0
ARC
  8
0
 62
7
  6
CONTINUOUS
 10
146.3133221708
 20
157.7512323083
 40
0.5
 50
107.7189318734
 51
180.0
  0
ARC
  8
0
 62
7
  6
CONTINUOUS
 10
146.3133221708
 20
162.1330127683
 40
0.5
 50
180.0
 51
252.2810681266
  0
ARC
  8
0
 62
7
  6
CONTINUOUS
 10
141.0133221708
 20
168.2421225383
 40
0.2
 50
89.999996747
 51
180.0000242405
  0
ARC
  8
0
 62
7
  6
CONTINUOUS
 10
145.6133221708
 20
168.2421225383
 40
0.2
 50
359.9999748375
 51
90.0
  0
ARC
  8
0
 62
7
  6
CONTINUOUS
 10
166.2131261708
 20
100.8421225383
 40
0.2
 50
179.9999641985
 51
270.0
  0
ARC
  8
0
 62
7
  6
CONTINUOUS
 10
170.8131261708
 20
100.8421225383
 40
0.2
 50
270.0
 51
0.0000353501
  0
ARC
  8
0
 62
7
  6
CONTINUOUS
 10
170.8131261708
 20
109.1421225383
 40
1.8
 50
287.7189318734
 51
72.2810681266
  0
ARC
  8
0
 62
7
  6
CONTINUOUS
 10
166.2131261708
 20
109.1421225383
 40
1.8
 50
107.7189318734
 51
252.2810681266
  0
ARC
  8
0
 62
7
  6
CONTINUOUS
 10
165.5131261708
 20
111.3330127683
 40
0.5
 50
287.7189318734
 51
360.0
  0
ARC
  8
0
 62
7
  6
CONTINUOUS
 10
165.5131261708
 20
106.9512323083
 40
0.5
 50
0.0
 51
72.2810681266
  0
ARC
  8
0
 62
7
  6
CONTINUOUS
 10
171.5131261708
 20
106.9512323083
 40
0.5
 50
107.7189318734
 51
180.0
  0
ARC
  8
0
 62
7
  6
CONTINUOUS
 10
171.5131261708
 20
111.3330127683
 40
0.5
 50
180.0
 51
252.2810681266
  0
ARC
  8
0
 62
7
  6
CONTINUOUS
 10
183.0131261708
 20
100.8421225383
 40
0.2
 50
179.9999641985
 51
270.0
  0
ARC
  8
0
 62
7
  6
CONTINUOUS
 10
187.6131261708
 20
100.8421225383
 40
0.2
 50
270.0
 51
0.0000353501
  0
ARC
  8
0
 62
7
  6
CONTINUOUS
 10
187.6131261708
 20
109.1421225383
 40
1.8
 50
287.7189318734
 51
72.2810681266
  0
ARC
  8
0
 62
7
  6
CONTINUOUS
 10
183.0131261708
 20
109.1421225383
 40
1.8
 50
107.7189318734
 51
252.2810681266
  0
ARC
  8
0
 62
7
  6
CONTINUOUS
 10
188.3131261708
 20
111.3330127683
 40
0.5
 50
180.0
 51
252.2810681266
  0
ARC
  8
0
 62
7
  6
CONTINUOUS
 10
188.3131261708
 20
106.9512323083
 40
0.5
 50
107.7189318734
 51
180.0
  0
ARC
  8
0
 62
7
  6
CONTINUOUS
 10
182.3131261708
 20
106.9512323083
 40
0.5
 50
0.0
 51
72.2810681266
  0
ARC
  8
0
 62
7
  6
CONTINUOUS
 10
182.3131261708
 20
111.3330127683
 40
0.5
 50
287.7189318734
 51
360.0
  0
ARC
  8
0
 62
7
  6
CONTINUOUS
 10
188.8131261708
 20
112.3266675383
 40
1.0
 50
90.0
 51
180.0
  0
ARC
  8
0
 62
7
  6
CONTINUOUS
 10
181.8131261708
 20
112.3266675383
 40
1.0
 50
0.0
 51
90.0
  0
ARC
  8
0
 62
7
  6
CONTINUOUS
 10
172.0131261708
 20
112.3266675383
 40
1.0
 50
90.0
 51
180.0
  0
ARC
  8
0
 62
7
  6
CONTINUOUS
 10
165.0131261708
 20
112.3266675383
 40
1.0
 50
0.0
 51
90.0
  0
ARC
  8
0
 62
7
  6
CONTINUOUS
 10
159.1882241708
 20
119.0421225383
 40
0.8603594806
 50
180.0
 51
270.0
  0
ARC
  8
0
 62
7
  6
CONTINUOUS
 10
161.0382241708
 20
119.0421225383
 40
0.8603594806
 50
270.0
 51
360.0
  0
ARC
  8
0
 62
7
  6
CONTINUOUS
 10
167.5882241708
 20
123.0421225383
 40
0.8603594806
 50
180.0
 51
270.0
  0
ARC
  8
0
 62
7
  6
CONTINUOUS
 10
169.4382241708
 20
123.0421225383
 40
0.8603594806
 50
270.0
 51
360.0
  0
ARC
  8
0
 62
7
  6
CONTINUOUS
 10
175.9882241708
 20
119.0421225383
 40
0.8603594806
 50
180.0
 51
270.0
  0
ARC
  8
0
 62
7
  6
CONTINUOUS
 10
177.8382241708
 20
119.0421225383
 40
0.8603594806
 50
270.0
 51
360.0
  0
ARC
  8
0
 62
7
  6
CONTINUOUS
 10
184.3882241708
 20
123.0421225383
 40
0.8603594806
 50
180.0
 51
270.0
  0
ARC
  8
0
 62
7
  6
CONTINUOUS
 10
186.2382241708
 20
123.0421225383
 40
0.8603594806
 50
270.0
 51
360.0
  0
ARC
  8
0
 62
7
  6
CONTINUOUS
 10
192.7882241708
 20
119.0421225383
 40
0.8603594806
 50
180.0
 51
270.0
  0
ARC
  8
0
 62
7
  6
CONTINUOUS
 10
199.8131261708
 20
100.8421225383
 40
0.2
 50
179.9999641985
 51
270.0
  0
ARC
  8
0
 62
7
  6
CONTINUOUS
 10
204.4131261708
 20
100.8421225383
 40
0.2
 50
270.0
 51
360.0
  0
ARC
  8
0
 62
7
  6
CONTINUOUS
 10
204.4131261708
 20
109.1421225383
 40
1.8
 50
287.7189318734
 51
72.2810681266
  0
ARC
  8
0
 62
7
  6
CONTINUOUS
 10
199.8131261708
 20
109.1421225383
 40
1.8
 50
107.7189318734
 51
252.2810681266
  0
ARC
  8
0
 62
7
  6
CONTINUOUS
 10
199.1131261708
 20
111.3330127683
 40
0.5
 50
287.7189318734
 51
360.0
  0
ARC
  8
0
 62
7
  6
CONTINUOUS
 10
199.1131261708
 20
106.9512323083
 40
0.5
 50
0.0
 51
72.2810681266
  0
ARC
  8
0
 62
7
  6
CONTINUOUS
 10
205.1131261708
 20
106.9512323083
 40
0.5
 50
107.7189318734
 51
180.0
  0
ARC
  8
0
 62
7
  6
CONTINUOUS
 10
205.1131261708
 20
111.3330127683
 40
0.5
 50
180.0
 51
252.2810681266
  0
ARC
  8
0
 62
7
  6
CONTINUOUS
 10
216.6131261708
 20
100.8421225383
 40
0.2
 50
179.9999641985
 51
270.0
  0
ARC
  8
0
 62
7
  6
CONTINUOUS
 10
221.2131261708
 20
100.8421225383
 40
0.2
 50
270.0
 51
0.0000353487
  0
ARC
  8
0
 62
7
  6
CONTINUOUS
 10
221.2131261708
 20
109.1421225383
 40
1.8
 50
287.7189318734
 51
72.2810681266
  0
ARC
  8
0
 62
7
  6
CONTINUOUS
 10
216.6131261708
 20
109.1421225383
 40
1.8
 50
107.7189318734
 51
252.2810681266
  0
ARC
  8
0
 62
7
  6
CONTINUOUS
 10
221.9131261708
 20
111.3330127683
 40
0.5
 50
180.0
 51
252.2810681266
  0
ARC
  8
0
 62
7
  6
CONTINUOUS
 10
221.9131261708
 20
106.9512323083
 40
0.5
 50
107.7189318734
 51
180.0
  0
ARC
  8
0
 62
7
  6
CONTINUOUS
 10
215.9131261708
 20
106.9512323083
 40
0.5
 50
0.0
 51
72.2810681266
  0
ARC
  8
0
 62
7
  6
CONTINUOUS
 10
215.9131261708
 20
111.3330127683
 40
0.5
 50
287.7189318734
 51
360.0
  0
ARC
  8
0
 62
7
  6
CONTINUOUS
 10
222.4131261708
 20
112.3266675383
 40
1.0
 50
90.0
 51
180.0
  0
ARC
  8
0
 62
7
  6
CONTINUOUS
 10
215.4131261708
 20
112.3266675383
 40
1.0
 50
0.0
 51
90.0
  0
ARC
  8
0
 62
7
  6
CONTINUOUS
 10
205.6131261708
 20
112.3266675383
 40
1.0
 50
90.0
 51
180.0
  0
ARC
  8
0
 62
7
  6
CONTINUOUS
 10
198.6131261708
 20
112.3266675383
 40
1.0
 50
0.0
 51
90.0
  0
ARC
  8
0
 62
7
  6
CONTINUOUS
 10
194.6382241708
 20
119.0421225383
 40
0.8603594806
 50
270.0
 51
360.0
  0
ARC
  8
0
 62
7
  6
CONTINUOUS
 10
201.1882241708
 20
123.0421225383
 40
0.8603594806
 50
180.0
 51
270.0
  0
ARC
  8
0
 62
7
  6
CONTINUOUS
 10
203.0382241708
 20
123.0421225383
 40
0.8603594806
 50
270.0
 51
360.0
  0
ARC
  8
0
 62
7
  6
CONTINUOUS
 10
209.5882241708
 20
119.0421225383
 40
0.8603594806
 50
180.0
 51
270.0
  0
ARC
  8
0
 62
7
  6
CONTINUOUS
 10
211.4382241708
 20
119.0421225383
 40
0.8603594806
 50
270.0
 51
360.0
  0
ARC
  8
0
 62
7
  6
CONTINUOUS
 10
217.9882241708
 20
123.0421225383
 40
0.8603594806
 50
180.0
 51
270.0
  0
ARC
  8
0
 62
7
  6
CONTINUOUS
 10
219.8382241708
 20
123.0421225383
 40
0.8603594806
 50
270.0
 51
360.0
  0
ARC
  8
0
 62
7
  6
CONTINUOUS
 10
226.3882241708
 20
119.0421225383
 40
0.8603594806
 50
180.0
 51
270.0
  0
ARC
  8
0
 62
7
  6
CONTINUOUS
 10
228.2382241708
 20
119.0421225383
 40
0.8603594806
 50
270.0
 51
360.0
  0
ARC
  8
0
 62
7
  6
CONTINUOUS
 10
156.6133221708
 20
156.7575775383
 40
1.0
 50
270.0
 51
360.0
  0
ARC
  8
0
 62
7
  6
CONTINUOUS
 10
163.6133221708
 20
156.7575775383
 40
1.0
 50
180.0
 51
270.0
  0
ARC
  8
0
 62
7
  6
CONTINUOUS
 10
173.4133221708
 20
156.7575775383
 40
1.0
 50
270.0
 51
360.0
  0
ARC
  8
0
 62
7
  6
CONTINUOUS
 10
180.4133221708
 20
156.7575775383
 40
1.0
 50
180.0
 51
270.0
  0
ARC
  8
0
 62
7
  6
CONTINUOUS
 10
190.2133221708
 20
156.7575775383
 40
1.0
 50
270.0
 51
360.0
  0
ARC
  8
0
 62
7
  6
CONTINUOUS
 10
161.0382241708
 20
146.0421225383
 40
0.8603594806
 50
0.0
 51
90.0
  0
ARC
  8
0
 62
7
  6
CONTINUOUS
 10
159.1882241708
 20
146.0421225383
 40
0.8603594806
 50
90.0
 51
180.0
  0
ARC
  8
0
 62
7
  6
CONTINUOUS
 10
169.4382241708
 20
150.0421225383
 40
0.8603594806
 50
0.0
 51
90.0
  0
ARC
  8
0
 62
7
  6
CONTINUOUS
 10
167.5882241708
 20
150.0421225383
 40
0.8603594806
 50
90.0
 51
180.0
  0
ARC
  8
0
 62
7
  6
CONTINUOUS
 10
177.8382241708
 20
146.0421225383
 40
0.8603594806
 50
0.0
 51
90.0
  0
ARC
  8
0
 62
7
  6
CONTINUOUS
 10
175.9882241708
 20
146.0421225383
 40
0.8603594806
 50
90.0
 51
180.0
  0
ARC
  8
0
 62
7
  6
CONTINUOUS
 10
186.2382241708
 20
150.0421225383
 40
0.8603594806
 50
0.0
 51
90.0
  0
ARC
  8
0
 62
7
  6
CONTINUOUS
 10
184.3882241708
 20
150.0421225383
 40
0.8603594806
 50
90.0
 51
180.0
  0
ARC
  8
0
 62
7
  6
CONTINUOUS
 10
157.8133221708
 20
159.9421225383
 40
1.8
 50
107.7189318734
 51
252.2810681266
  0
ARC
  8
0
 62
7
  6
CONTINUOUS
 10
162.4133221708
 20
159.9421225383
 40
1.8
 50
287.7189318734
 51
72.2810681266
  0
ARC
  8
0
 62
7
  6
CONTINUOUS
 10
163.1133221708
 20
157.7512323083
 40
0.5
 50
107.7189318734
 51
180.0
  0
ARC
  8
0
 62
7
  6
CONTINUOUS
 10
157.1133221708
 20
157.7512323083
 40
0.5
 50
0.0
 51
72.2810681266
  0
ARC
  8
0
 62
7
  6
CONTINUOUS
 10
157.1133221708
 20
162.1330127683
 40
0.5
 50
287.7189318734
 51
360.0
  0
ARC
  8
0
 62
7
  6
CONTINUOUS
 10
173.9133221708
 20
162.1330127683
 40
0.5
 50
287.7189318734
 51
360.0
  0
ARC
  8
0
 62
7
  6
CONTINUOUS
 10
173.9133221708
 20
157.7512323083
 40
0.5
 50
0.0
 51
72.2810681266
  0
ARC
  8
0
 62
7
  6
CONTINUOUS
 10
163.1133221708
 20
162.1330127683
 40
0.5
 50
180.0
 51
252.2810681266
  0
ARC
  8
0
 62
7
  6
CONTINUOUS
 10
162.4133221708
 20
168.2421225383
 40
0.2
 50
359.9999748375
 51
90.0
  0
ARC
  8
0
 62
7
  6
CONTINUOUS
 10
157.8133221708
 20
168.2421225383
 40
0.2
 50
90.0
 51
180.0
  0
ARC
  8
0
 62
7
  6
CONTINUOUS
 10
174.6133221708
 20
159.9421225383
 40
1.8
 50
107.7189318734
 51
252.2810681266
  0
ARC
  8
0
 62
7
  6
CONTINUOUS
 10
179.2133221708
 20
159.9421225383
 40
1.8
 50
287.7189318734
 51
72.2810681266
  0
ARC
  8
0
 62
7
  6
CONTINUOUS
 10
191.4133221708
 20
159.9421225383
 40
1.8
 50
107.7189318734
 51
252.2810681266
  0
ARC
  8
0
 62
7
  6
CONTINUOUS
 10
179.9133221708
 20
157.7512323083
 40
0.5
 50
107.7189318734
 51
180.0
  0
ARC
  8
0
 62
7
  6
CONTINUOUS
 10
179.9133221708
 20
162.1330127683
 40
0.5
 50
180.0
 51
252.2810681266
  0
ARC
  8
0
 62
7
  6
CONTINUOUS
 10
190.7133221708
 20
157.7512323083
 40
0.5
 50
0.0
 51
72.2810681266
  0
ARC
  8
0
 62
7
  6
CONTINUOUS
 10
190.7133221708
 20
162.1330127683
 40
0.5
 50
287.7189318734
 51
360.0
  0
ARC
  8
0
 62
7
  6
CONTINUOUS
 10
174.6133221708
 20
168.2421225383
 40
0.2
 50
89.999996747
 51
180.0000242405
  0
ARC
  8
0
 62
7
  6
CONTINUOUS
 10
179.2133221708
 20
168.2421225383
 40
0.2
 50
359.9999748375
 51
90.0
  0
ARC
  8
0
 62
7
  6
CONTINUOUS
 10
191.4133221708
 20
168.2421225383
 40
0.2
 50
90.0
 51
180.0
  0
ARC
  8
0
 62
7
  6
CONTINUOUS
 10
197.2133221708
 20
156.7575775383
 40
1.0
 50
180.0
 51
270.0
  0
ARC
  8
0
 62
7
  6
CONTINUOUS
 10
207.0133221708
 20
156.7575775383
 40
1.0
 50
270.0
 51
360.0
  0
ARC
  8
0
 62
7
  6
CONTINUOUS
 10
214.0133221708
 20
156.7575775383
 40
1.0
 50
180.0
 51
270.0
  0
ARC
  8
0
 62
7
  6
CONTINUOUS
 10
223.8133221708
 20
156.7575775383
 40
1.0
 50
270.0
 51
360.0
  0
ARC
  8
0
 62
7
  6
CONTINUOUS
 10
194.6382241708
 20
146.0421225383
 40
0.8603594806
 50
0.0
 51
90.0
  0
ARC
  8
0
 62
7
  6
CONTINUOUS
 10
192.7882241708
 20
146.0421225383
 40
0.8603594806
 50
90.0
 51
180.0
  0
ARC
  8
0
 62
7
  6
CONTINUOUS
 10
203.0382241708
 20
150.0421225383
 40
0.8603594806
 50
0.0
 51
90.0
  0
ARC
  8
0
 62
7
  6
CONTINUOUS
 10
201.1882241708
 20
150.0421225383
 40
0.8603594806
 50
90.0
 51
180.0
  0
ARC
  8
0
 62
7
  6
CONTINUOUS
 10
211.4382241708
 20
146.0421225383
 40
0.8603594806
 50
0.0
 51
90.0
  0
ARC
  8
0
 62
7
  6
CONTINUOUS
 10
209.5882241708
 20
146.0421225383
 40
0.8603594806
 50
90.0
 51
180.0
  0
ARC
  8
0
 62
7
  6
CONTINUOUS
 10
219.8382241708
 20
150.0421225383
 40
0.8603594806
 50
0.0
 51
90.0
  0
ARC
  8
0
 62
7
  6
CONTINUOUS
 10
217.9882241708
 20
150.0421225383
 40
0.8603594806
 50
90.0
 51
180.0
  0
ARC
  8
0
 62
7
  6
CONTINUOUS
 10
228.2382241708
 20
146.0421225383
 40
0.8603594806
 50
0.0
 51
90.0
  0
ARC
  8
0
 62
7
  6
CONTINUOUS
 10
226.3882241708
 20
146.0421225383
 40
0.8603594806
 50
90.0
 51
180.0
  0
ARC
  8
0
 62
7
  6
CONTINUOUS
 10
196.0133221708
 20
159.9421225383
 40
1.8
 50
287.7189318734
 51
72.2810681266
  0
ARC
  8
0
 62
7
  6
CONTINUOUS
 10
208.2133221708
 20
159.9421225383
 40
1.8
 50
107.7189099943
 51
252.2810681266
  0
ARC
  8
0
 62
7
  6
CONTINUOUS
 10
196.7133221708
 20
157.7512323083
 40
0.5
 50
107.7189318734
 51
180.0
  0
ARC
  8
0
 62
7
  6
CONTINUOUS
 10
196.7133221708
 20
162.1330127683
 40
0.5
 50
180.0
 51
252.2810681266
  0
ARC
  8
0
 62
7
  6
CONTINUOUS
 10
207.5133221708
 20
157.7512323083
 40
0.5
 50
0.0
 51
72.2810681266
  0
ARC
  8
0
 62
7
  6
CONTINUOUS
 10
207.5133221708
 20
162.1330127683
 40
0.5
 50
287.7189318734
 51
360.0
  0
ARC
  8
0
 62
7
  6
CONTINUOUS
 10
196.0133221708
 20
168.2421225383
 40
0.2
 50
0.0
 51
90.0
  0
ARC
  8
0
 62
7
  6
CONTINUOUS
 10
208.2033221708
 20
168.2521225383
 40
0.19
 50
90.0
 51
180.0
  0
ARC
  8
0
 62
7
  6
CONTINUOUS
 10
212.8133221708
 20
159.9421225383
 40
1.8
 50
287.7189318734
 51
72.2810681266
  0
ARC
  8
0
 62
7
  6
CONTINUOUS
 10
225.0133221708
 20
159.9421225383
 40
1.8
 50
107.7189318734
 51
252.2810681266
  0
ARC
  8
0
 62
7
  6
CONTINUOUS
 10
213.5133221708
 20
157.7512323083
 40
0.5
 50
107.7189318734
 51
180.0
  0
ARC
  8
0
 62
7
  6
CONTINUOUS
 10
213.5133221708
 20
162.1330127683
 40
0.5
 50
180.0
 51
252.2810681266
  0
ARC
  8
0
 62
7
  6
CONTINUOUS
 10
224.3133221708
 20
157.7512323083
 40
0.5
 50
0.0
 51
72.2810681266
  0
ARC
  8
0
 62
7
  6
CONTINUOUS
 10
224.3133221708
 20
162.1330127683
 40
0.5
 50
287.7189318734
 51
360.0
  0
ARC
  8
0
 62
7
  6
CONTINUOUS
 10
212.8233221708
 20
168.2521225383
 40
0.19
 50
359.9999761223
 51
90.0
  0
ARC
  8
0
 62
7
  6
CONTINUOUS
 10
225.0033221708
 20
168.2521225383
 40
0.19
 50
90.0000001009
 51
180.0000212764
  0
ARC
  8
0
 62
7
  6
CONTINUOUS
 10
303.3393498219
 20
212.1921089965
 40
50.0
 50
16.7916494165
 51
25.3854478982
  0
ARC
  8
0
 62
7
  6
CONTINUOUS
 10
306.7516001094
 20
224.3700760848
 40
2.0
 50
247.380135052
 51
270.0
  0
ARC
  8
SURFACE
 62
7
  6
CONTINUOUS
 10
306.7516001094
 20
224.3700760848
 40
2.0
 50
247.3801301528
 51
266.3807448128
  0
ARC
  8
0
 62
7
  6
CONTINUOUS
 10
309.2472383897
 20
230.3700760848
 40
8.75
 50
32.4514908239
 51
60.6343989158
  0
ARC
  8
0
 62
7
  6
CONTINUOUS
 10
309.2516001094
 20
230.3700760848
 40
8.5
 50
109.9888710649
 51
247.380135052
  0
ARC
  8
0
 62
7
  6
CONTINUOUS
 10
309.2516001094
 20
230.3700760848
 40
5.8
 50
359.9999464653
 51
180.0000553268
  0
CIRCLE
  8
0
 62
7
  6
CONTINUOUS
 10
309.2516001094
 20
230.3700760848
 40
4.15
  0
ARC
  8
SURFACE
 62
7
  6
CONTINUOUS
 10
312.3516001094
 20
228.3700760848
 40
6.0
 50
269.9999953013
 51
294.7351006611
  0
ARC
  8
0
 62
7
  6
CONTINUOUS
 10
312.3516001094
 20
228.3700760848
 40
6.0
 50
270.0
 51
343.2083544219
  0
ARC
  8
0
 62
7
  6
CONTINUOUS
 10
306.4143479176
 20
238.1700760848
 40
0.2
 50
90.0
 51
109.9888710198
  0
ARC
  8
0
 62
7
  6
CONTINUOUS
 10
313.6361448594
 20
238.1700760848
 40
0.2
 50
90.0
 51
240.6343977801
  0
ARC
  8
0
 62
7
  6
CONTINUOUS
 10
313.5361451094
 20
238.2700761244
 40
0.1
 50
90.0000055916
 51
180.0000224531
  0
ARC
  8
SURFACE
 62
7
  6
CONTINUOUS
 10
321.9661176115
 20
233.0700760848
 40
1.3
 50
89.9981114872
 51
154.6147863976
  0
ARC
  8
0
 62
7
  6
CONTINUOUS
 10
321.9661176115
 20
233.0700760848
 40
1.3
 50
95.3807691203
 51
139.444931314
  0
ARC
  8
0
 62
7
  6
CONTINUOUS
 10
317.8966603357
 20
235.8700760848
 40
1.5
 50
212.4514922194
 51
270.0
  0
ARC
  8
SURFACE
 62
7
  6
CONTINUOUS
 10
365.9638503969
 20
212.1921089965
 40
50.0
 50
154.6145581247
 51
163.2083501056
  0
ARC
  8
0
 62
7
  6
CONTINUOUS
 10
362.5516001094
 20
224.3700760848
 40
2.0
 50
270.0
 51
292.6198674096
  0
ARC
  8
SURFACE
 62
7
  6
CONTINUOUS
 10
362.5516001094
 20
224.3700760848
 40
2.0
 50
273.9207170569
 51
277.5402225754
  0
ARC
  8
SURFACE
 62
7
  6
CONTINUOUS
 10
362.5516001094
 20
224.3700760848
 40
2.0
 50
281.159127051
 51
285.0802177556
  0
ARC
  8
0
 62
7
  6
CONTINUOUS
 10
347.3370826074
 20
233.0700760848
 40
1.3
 50
25.3854452534
 51
90.000002629
  0
ARC
  8
0
 62
7
  6
CONTINUOUS
 10
360.0516001094
 20
230.3700760848
 40
8.5
 50
292.6198655272
 51
70.0111289803
  0
ARC
  8
SURFACE
 62
7
  6
CONTINUOUS
 10
356.9516001094
 20
228.3700760848
 40
6.0
 50
245.2647814995
 51
246.4462426565
  0
ARC
  8
0
 62
7
  6
CONTINUOUS
 10
356.9516001094
 20
228.3700760848
 40
6.0
 50
196.791649432
 51
270.0
  0
CIRCLE
  8
0
 62
7
  6
CONTINUOUS
 10
360.0516001094
 20
230.3700760848
 40
4.15
  0
ARC
  8
0
 62
7
  6
CONTINUOUS
 10
362.8888523012
 20
238.1700760848
 40
0.2
 50
70.0111268783
 51
90.0
  0
ENDSEC
  0
EOF
