  0
SECTION
  2
HEADER
  9
$EXTMAX
 10
210.0
 20
297.0
 30
0.0
  9
$EXTMIN
 10
0.0
 20
0.0
 30
0.0
  9
$LIMMIN
 10
0.0
 20
0.0
  9
$LIMMAX
 10
210.0
 20
297.0
  9
$VIEWCTR
 10
105.0
 20
148.5
  9
$VIEWSIZE
 40
297.0
  9
$CLAYER
  8
0
  9
$LTSCALE
 40
19.36
  9
$CELTYPE
  6
BYLAYER
  9
$DIMSCALE
 40
1.0
  9
$DIMASZ
 40
3.5
  9
$DIMEXO
 40
2.2
  9
$DIMDLI
 40
13.376
  9
$DIMEXE
 40
6.336
  9
$DIMCEN
 40
3.168
  9
$DIMLFAC
 40
1.0
  9
$DIMBLK
  1
_FILLED
  9
$DIMTXT
 40
3.5
  9
$PDMODE
 70
3
  9
$PDSIZE
 40
0.3125
  9
$TILEMODE
 70
1
  0
ENDSEC
  0
SECTION
  2
TABLES
  0
TABLE
  2
LTYPE
 70
6
  0
LTYPE
  2
BYBLOCK
 70
0
  3

 72
65
 73
0
 40
0.0
  0
LTYPE
  2
BYLAYER
 70
0
  3

 72
65
 73
0
 40
0.0
  0
LTYPE
  2
CONTINUOUS
 70
64
  3
Solid line
 72
65
 73
0
 40
0.0
  0
LTYPE
  2
CENTER
 70
64
  3
____ _ ____ _ ____ _ ____ _ ____ _ ____ _ ____
 72
65
 73
4
 40
0.6
 49
0.375
 49
-0.075
 49
0.075
 49
-0.075
  0
LTYPE
  2
HIDDEN
 70
64
  3
- - - - - - - - - - - - - - - - - - - -
 72
65
 73
2
 40
0.2
 49
0.1
 49
-0.1
  0
LTYPE
  2
PHANTOM
 70
64
  3
_____ _ _ _____ _ _ _____ _ _ _____
 72
65
 73
6
 40
0.8
 49
0.45
 49
-0.05
 49
0.1
 49
-0.05
 49
0.1
 49
-0.05
  0
LTYPE
  2
DOT
 70
64
  3
. . . . . . . . . . . . . . . . . . . .
 72
65
 73
2
 40
0.2
 49
0.1
 49
-0.1
  0
LTYPE
  2
DASHED
 70
64
  3
- - - - - - - - - - - - - - - - - - - -
 72
65
 73
2
 40
0.2
 49
0.1
 49
-0.1
  0
ENDTAB
  0
TABLE
  2
LAYER
 70
36
  0
LAYER
  2
0
 70
0
 62
7
  6
CONTINUOUS
  0
LAYER
  2
DEFAULT_1
 70
0
 62
7
  6
CENTER
  0
LAYER
  2
DEFAULT_2
 70
0
 62
8
  6
HIDDEN
  0
LAYER
  2
DEFAULT_3
 70
0
 62
7
  6
PHANTOM
  0
LAYER
  2
AXES
 70
0
 62
7
  6
CONTINUOUS
  0
LAYER
  2
BLANK_PLANS
 70
0
 62
7
  6
CONTINUOUS
  0
LAYER
  2
CURVE
 70
0
 62
7
  6
CONTINUOUS
  0
LAYER
  2
EMNE_SURF
 70
0
 62
7
  6
CONTINUOUS
  0
LAYER
  2
HJAELPE_SURF
 70
0
 62
7
  6
CONTINUOUS
  0
LAYER
  2
SURFACE
 70
0
 62
7
  6
CONTINUOUS
  0
ENDTAB
  0
TABLE
  2
STYLE
 70
1
  0
STYLE
  2
STANDARD
 70
0
 40
0.0
 41
0.8
 50
0.0
 71
0
 42
0.2
  3
txt
  4

  0
STYLE
  2
TEXTSTYLE_1
 70
0
 40
0.0
 41
0.8
 50
0.0
 71
0
 42
0.2
  3
gdt
  4

  0
STYLE
  2
TEXTSTYLE_2
 70
0
 40
0.0
 41
0.6
 50
0.0
 71
0
 42
0.2
  3
txt
  4

  0
STYLE
  2
TEXTSTYLE_3
 70
0
 40
0.0
 41
1.0
 50
0.0
 71
0
 42
0.2
  3
ftb_____.ttf
  4

  0
STYLE
  2
TEXTSTYLE_4
 70
0
 40
0.0
 41
1.0
 50
0.0
 71
0
 42
0.2
  3
fti_____.ttf
  4

  0
STYLE
  2
TEXTSTYLE_5
 70
0
 40
0.0
 41
1.0
 50
0.0
 71
0
 42
0.2
  3
frutiger light.ttf
  4

  0
STYLE
  2
TEXTSTYLE_6
 70
0
 40
0.0
 41
0.7
 50
0.0
 71
0
 42
0.2
  3
txt
  4

  0
STYLE
  2
TEXTSTYLE_7
 70
0
 40
0.0
 41
0.8
 50
0.0
 71
0
 42
0.2
  3
txt
  4

  0
ENDTAB
  0
ENDSEC
  0
SECTION
  2
BLOCKS
  0
BLOCK
  8
0
 62
2
  6
CONTINUOUS
  2
SYMBOL_8_BL1
 70
64
 10
173.5956734183
 20
35.5937998301
  0
TEXT
  8
0
 62
7
  6
CONTINUOUS
 10
164.6539584268
 20
30.6865562072
  7
TEXTSTYLE_4
 40
1.0655737705
  1
The brand for plastic modular belts and chains
 41
1.0
 72
0
  0
LINE
  8
0
 62
7
  6
CONTINUOUS
 10
149.5737418074
 20
36.1675703219
 11
149.5737418074
 21
34.0364227809
  0
LINE
  8
0
 62
7
  6
CONTINUOUS
 10
149.8628043005
 20
31.0454914852
 11
149.8628043005
 21
31.1422825445
  0
LINE
  8
0
 62
7
  6
CONTINUOUS
 10
149.5737418074
 20
31.1100188581
 11
149.6315543091
 21
30.9164367395
  0
LINE
  8
0
 62
7
  6
CONTINUOUS
 10
150.9671844304
 20
33.9544555678
 11
150.9671844304
 21
36.1675703219
  0
LINE
  8
0
 62
7
  6
CONTINUOUS
 10
151.8862417523
 20
32.1101932727
 11
151.8862417523
 21
30.5937998301
  0
LINE
  8
0
 62
7
  6
CONTINUOUS
 10
152.1753043074
 20
30.5937998301
 11
152.1753043074
 21
31.3358647082
  0
LINE
  8
0
 62
7
  6
CONTINUOUS
 10
152.1753043074
 20
31.4649194539
 11
152.1753043074
 21
32.1101932727
  0
LINE
  8
0
 62
7
  6
CONTINUOUS
 10
149.6315543091
 20
31.3036010218
 11
149.5737418074
 21
31.1100188581
  0
LINE
  8
0
 62
7
  6
CONTINUOUS
 10
149.9784292936
 20
30.8841730531
 11
149.8628043005
 21
31.0454914852
  0
LINE
  8
0
 62
7
  6
CONTINUOUS
 10
151.0768668626
 20
31.400392081
 11
151.1346793074
 21
31.3036010218
  0
LINE
  8
0
 62
7
  6
CONTINUOUS
 10
151.4237418626
 20
31.3036010218
 11
151.3659292523
 21
31.4326557675
  0
LINE
  8
0
 62
7
  6
CONTINUOUS
 10
152.852430332
 20
36.1675703219
 11
152.852430332
 21
34.3642916334
  0
LINE
  8
0
 62
7
  6
CONTINUOUS
 10
152.852430332
 20
33.0528162235
 11
152.852430332
 21
32.3970785186
  0
LINE
  8
0
 62
7
  6
CONTINUOUS
 10
153.2159293074
 20
31.2390736489
 11
153.2159293074
 21
30.5937998301
  0
LINE
  8
0
 62
7
  6
CONTINUOUS
 10
153.5049916972
 20
30.5937998301
 11
153.5049916972
 21
31.2390736489
  0
LINE
  8
0
 62
7
  6
CONTINUOUS
 10
149.8628043005
 20
31.1422825445
 11
149.9206168074
 21
31.2713373354
  0
LINE
  8
0
 62
7
  6
CONTINUOUS
 10
149.6315543091
 20
30.9164367395
 11
149.7471793074
 21
30.7873819712
  0
LINE
  8
0
 62
7
  6
CONTINUOUS
 10
153.1581166972
 20
31.3681283946
 11
153.2159293074
 21
31.2390736489
  0
LINE
  8
0
 62
7
  6
CONTINUOUS
 10
153.9674919177
 20
30.8841730531
 11
154.0253041972
 21
30.7551182848
  0
LINE
  8
0
 62
7
  6
CONTINUOUS
 10
153.5049916972
 20
31.2390736489
 11
153.4471794177
 21
31.400392081
  0
LINE
  8
0
 62
7
  6
CONTINUOUS
 10
153.9674919177
 20
31.4326557675
 11
153.9674919177
 21
31.3681283946
  0
LINE
  8
0
 62
7
  6
CONTINUOUS
 10
153.9674919177
 20
30.9809641124
 11
153.9674919177
 21
30.8841730531
  0
LINE
  8
0
 62
7
  6
CONTINUOUS
 10
154.245872955
 20
32.3970785186
 11
154.245872955
 21
36.1675703219
  0
LINE
  8
0
 62
7
  6
CONTINUOUS
 10
154.2565543074
 20
30.8519093441
 11
154.2565543074
 21
30.9164367395
  0
LINE
  8
0
 62
7
  6
CONTINUOUS
 10
154.5737418074
 20
36.1675703219
 11
154.5737418074
 21
32.3970785186
  0
LINE
  8
0
 62
7
  6
CONTINUOUS
 10
151.3659292523
 20
30.7873819712
 11
151.4237418626
 21
30.9164367395
  0
LINE
  8
0
 62
7
  6
CONTINUOUS
 10
155.759679528
 20
30.6905909007
 11
155.7018665869
 21
30.8519093441
  0
LINE
  8
0
 62
7
  6
CONTINUOUS
 10
155.412804528
 20
31.3681283946
 11
155.412804528
 21
31.2713373354
  0
LINE
  8
0
 62
7
  6
CONTINUOUS
 10
155.412804528
 20
31.1422825445
 11
155.412804528
 21
30.9487004259
  0
LINE
  8
0
 62
7
  6
CONTINUOUS
 10
155.7018665869
 20
30.8519093441
 11
155.7018665869
 21
31.3681283946
  0
LINE
  8
0
 62
7
  6
CONTINUOUS
 10
155.9671844304
 20
32.3970785186
 11
155.9671844304
 21
34.2003572071
  0
LINE
  8
0
 62
7
  6
CONTINUOUS
 10
155.9671844304
 20
35.511832617
 11
155.9671844304
 21
36.1675703219
  0
LINE
  8
0
 62
7
  6
CONTINUOUS
 10
156.279992028
 20
32.1101932727
 11
156.279992028
 21
31.9488748406
  0
LINE
  8
0
 62
7
  6
CONTINUOUS
 10
156.279992028
 20
31.626237886
 11
156.279992028
 21
30.5937998301
  0
LINE
  8
0
 62
7
  6
CONTINUOUS
 10
156.5690540869
 20
30.5937998301
 11
156.5690540869
 21
31.626237886
  0
LINE
  8
0
 62
7
  6
CONTINUOUS
 10
156.5690540869
 20
31.9488748406
 11
156.5690540869
 21
32.1101932727
  0
LINE
  8
0
 62
7
  6
CONTINUOUS
 10
151.1346793074
 20
30.9164367395
 11
151.0768668626
 21
30.8196456577
  0
LINE
  8
0
 62
7
  6
CONTINUOUS
 10
153.4471794177
 20
31.400392081
 11
153.3893668074
 21
31.4649194539
  0
LINE
  8
0
 62
7
  6
CONTINUOUS
 10
154.3143669177
 20
30.7873819712
 11
154.2565543074
 21
30.8519093441
  0
LINE
  8
0
 62
7
  6
CONTINUOUS
 10
155.4706168074
 20
30.6583272086
 11
155.5284290869
 21
30.5937998301
  0
LINE
  8
0
 62
7
  6
CONTINUOUS
 10
155.412804528
 20
30.7551182848
 11
155.4706168074
 21
30.6583272086
  0
LINE
  8
0
 62
7
  6
CONTINUOUS
 10
155.8174918074
 20
30.5937998301
 11
155.759679528
 21
30.6905909007
  0
LINE
  8
0
 62
7
  6
CONTINUOUS
 10
155.7018665869
 20
31.3681283946
 11
155.6440543074
 21
31.4649194539
  0
LINE
  8
0
 62
7
  6
CONTINUOUS
 10
157.0315543074
 20
31.626237886
 11
157.0315543074
 21
30.5937998301
  0
LINE
  8
0
 62
7
  6
CONTINUOUS
 10
157.320617028
 20
30.5937998301
 11
157.320617028
 21
31.3358647082
  0
LINE
  8
0
 62
7
  6
CONTINUOUS
 10
157.320617028
 20
31.4649194539
 11
157.320617028
 21
31.626237886
  0
LINE
  8
0
 62
7
  6
CONTINUOUS
 10
157.852430332
 20
34.6101932727
 11
157.852430332
 21
32.3970785186
  0
LINE
  8
0
 62
7
  6
CONTINUOUS
 10
149.7471793074
 20
31.4326557675
 11
149.6315543091
 21
31.3036010218
  0
LINE
  8
0
 62
7
  6
CONTINUOUS
 10
149.9206168074
 20
31.2713373354
 11
149.9784292936
 21
31.3358647082
  0
LINE
  8
0
 62
7
  6
CONTINUOUS
 10
149.7471793074
 20
30.7873819712
 11
149.8628043005
 21
30.7228545871
  0
LINE
  8
0
 62
7
  6
CONTINUOUS
 10
150.1518667936
 20
30.7873819712
 11
149.9784292936
 21
30.8841730531
  0
LINE
  8
0
 62
7
  6
CONTINUOUS
 10
155.3549915869
 20
31.4326557675
 11
155.412804528
 21
31.3681283946
  0
LINE
  8
0
 62
7
  6
CONTINUOUS
 10
158.3034290869
 20
31.3681283946
 11
158.361242028
 21
31.2068099625
  0
LINE
  8
0
 62
7
  6
CONTINUOUS
 10
158.6503040869
 20
31.2068099625
 11
158.5924918074
 21
31.3681283946
  0
LINE
  8
0
 62
7
  6
CONTINUOUS
 10
158.361242028
 20
31.2068099625
 11
158.361242028
 21
30.5937998301
  0
LINE
  8
0
 62
7
  6
CONTINUOUS
 10
158.6503040869
 20
30.5937998301
 11
158.6503040869
 21
31.2068099625
  0
LINE
  8
0
 62
7
  6
CONTINUOUS
 10
159.1128043074
 20
31.4326557675
 11
159.1128043074
 21
31.3681283946
  0
LINE
  8
0
 62
7
  6
CONTINUOUS
 10
159.245872955
 20
32.3970785186
 11
159.245872955
 21
34.5282260596
  0
LINE
  8
0
 62
7
  6
CONTINUOUS
 10
159.5737418074
 20
36.1675703219
 11
159.5737418074
 21
32.3970785186
  0
LINE
  8
0
 62
7
  6
CONTINUOUS
 10
154.2565543074
 20
30.9164367395
 11
154.3143669177
 21
31.0132277988
  0
LINE
  8
0
 62
7
  6
CONTINUOUS
 10
149.8628043005
 20
30.7228545871
 11
150.0362418212
 21
30.6583272086
  0
LINE
  8
0
 62
7
  6
CONTINUOUS
 10
151.3659292523
 20
31.4326557675
 11
151.1924917523
 21
31.5294468267
  0
LINE
  8
0
 62
7
  6
CONTINUOUS
 10
154.0253041972
 20
30.7551182848
 11
154.1987416972
 21
30.6583272086
  0
LINE
  8
0
 62
7
  6
CONTINUOUS
 10
153.0424918074
 20
31.4326557675
 11
153.1581166972
 21
31.3681283946
  0
LINE
  8
0
 62
7
  6
CONTINUOUS
 10
153.3893668074
 20
31.4649194539
 11
153.2737419177
 21
31.5294468267
  0
LINE
  8
0
 62
7
  6
CONTINUOUS
 10
159.1128043074
 20
30.8519093441
 11
159.228429528
 21
30.7228545871
  0
LINE
  8
0
 62
7
  6
CONTINUOUS
 10
159.4596793074
 20
30.7873819712
 11
159.401867028
 21
30.8519093441
  0
LINE
  8
0
 62
7
  6
CONTINUOUS
 10
159.1128043074
 20
31.3681283946
 11
159.228429528
 21
31.2390736489
  0
LINE
  8
0
 62
7
  6
CONTINUOUS
 10
158.5924918074
 20
31.3681283946
 11
158.534679528
 21
31.4649194539
  0
LINE
  8
0
 62
7
  6
CONTINUOUS
 10
160.9628038663
 20
30.7873819712
 11
160.9628038663
 21
30.8519093441
  0
LINE
  8
0
 62
7
  6
CONTINUOUS
 10
160.9671844304
 20
32.3970785186
 11
160.9671844304
 21
36.1675703219
  0
LINE
  8
0
 62
7
  6
CONTINUOUS
 10
154.0253041972
 20
31.4971831403
 11
153.9674919177
 21
31.4326557675
  0
LINE
  8
0
 62
7
  6
CONTINUOUS
 10
150.9034292799
 20
31.4649194539
 11
151.0768668626
 21
31.400392081
  0
LINE
  8
0
 62
7
  6
CONTINUOUS
 10
155.6440543074
 20
31.4649194539
 11
155.5284290869
 21
31.5294468267
  0
LINE
  8
0
 62
7
  6
CONTINUOUS
 10
159.4596793074
 20
31.3036010218
 11
159.401867028
 21
31.3681283946
  0
LINE
  8
0
 62
7
  6
CONTINUOUS
 10
160.615929528
 20
30.9164367395
 11
160.6737418074
 21
30.8519093441
  0
LINE
  8
0
 62
7
  6
CONTINUOUS
 10
160.9628038663
 20
30.8519093441
 11
160.8471793074
 21
30.9809641124
  0
LINE
  8
0
 62
7
  6
CONTINUOUS
 10
160.615929528
 20
31.4326557675
 11
160.6737418074
 21
31.3681283946
  0
LINE
  8
0
 62
7
  6
CONTINUOUS
 10
160.9628038663
 20
31.3681283946
 11
160.8471793074
 21
31.4971831403
  0
LINE
  8
0
 62
7
  6
CONTINUOUS
 10
154.2565543074
 20
31.3681283946
 11
154.3143669177
 21
31.4326557675
  0
LINE
  8
0
 62
7
  6
CONTINUOUS
 10
154.0831168074
 20
31.1100188581
 11
153.9674919177
 21
30.9809641124
  0
LINE
  8
0
 62
7
  6
CONTINUOUS
 10
155.412804528
 20
30.9487004259
 11
155.3549915869
 21
30.8841730531
  0
LINE
  8
0
 62
7
  6
CONTINUOUS
 10
155.3549915869
 20
30.6905909007
 11
155.412804528
 21
30.7551182848
  0
LINE
  8
0
 62
7
  6
CONTINUOUS
 10
154.1987416972
 20
30.6583272086
 11
154.3143669177
 21
30.6260635193
  0
LINE
  8
0
 62
7
  6
CONTINUOUS
 10
151.1924917523
 20
31.5294468267
 11
150.9612418074
 21
31.5939741996
  0
LINE
  8
0
 62
7
  6
CONTINUOUS
 10
154.5456166972
 20
30.7228545871
 11
154.3143669177
 21
30.7873819712
  0
LINE
  8
0
 62
7
  6
CONTINUOUS
 10
153.2737419177
 20
31.5294468267
 11
153.1003044177
 21
31.5939741996
  0
LINE
  8
0
 62
7
  6
CONTINUOUS
 10
155.5284290869
 20
31.5294468267
 11
155.3549915869
 21
31.5939741996
  0
LINE
  8
0
 62
7
  6
CONTINUOUS
 10
158.187804528
 20
31.4326557675
 11
158.3034290869
 21
31.3681283946
  0
LINE
  8
0
 62
7
  6
CONTINUOUS
 10
158.534679528
 20
31.4649194539
 11
158.4190543074
 21
31.5294468267
  0
LINE
  8
0
 62
7
  6
CONTINUOUS
 10
150.0362418212
 20
30.6583272086
 11
150.2096793212
 21
30.6260635193
  0
LINE
  8
0
 62
7
  6
CONTINUOUS
 10
150.498741835
 20
30.7228545871
 11
150.1518667936
 21
30.7873819712
  0
LINE
  8
0
 62
7
  6
CONTINUOUS
 10
152.9268669177
 20
31.4649194539
 11
153.0424918074
 21
31.4326557675
  0
LINE
  8
0
 62
7
  6
CONTINUOUS
 10
155.239367028
 20
31.4649194539
 11
155.3549915869
 21
31.4326557675
  0
LINE
  8
0
 62
7
  6
CONTINUOUS
 10
159.575304528
 20
30.7551182848
 11
159.4596793074
 21
30.7873819712
  0
LINE
  8
0
 62
7
  6
CONTINUOUS
 10
158.0721793074
 20
31.4649194539
 11
158.187804528
 21
31.4326557675
  0
LINE
  8
0
 62
7
  6
CONTINUOUS
 10
159.228429528
 20
30.7228545871
 11
159.401867028
 21
30.6583272086
  0
LINE
  8
0
 62
7
  6
CONTINUOUS
 10
158.4190543074
 20
31.5294468267
 11
158.2456168074
 21
31.5939741996
  0
LINE
  8
0
 62
7
  6
CONTINUOUS
 10
159.6331168074
 20
31.2390736489
 11
159.4596793074
 21
31.3036010218
  0
LINE
  8
0
 62
7
  6
CONTINUOUS
 10
160.442492028
 20
30.9809641124
 11
160.615929528
 21
30.9164367395
  0
LINE
  8
0
 62
7
  6
CONTINUOUS
 10
160.8471793074
 20
31.4971831403
 11
160.6737418074
 21
31.5617105132
  0
LINE
  8
0
 62
7
  6
CONTINUOUS
 10
159.228429528
 20
31.2390736489
 11
159.4596793074
 21
31.1422825445
  0
LINE
  8
0
 62
7
  6
CONTINUOUS
 10
160.8471793074
 20
30.9809641124
 11
160.615929528
 21
31.0777551716
  0
LINE
  8
0
 62
7
  6
CONTINUOUS
 10
159.401867028
 20
31.3681283946
 11
159.4596793074
 21
31.4326557675
  0
LINE
  8
0
 62
7
  6
CONTINUOUS
 10
149.8628043005
 20
31.4971831403
 11
149.7471793074
 21
31.4326557675
  0
LINE
  8
0
 62
7
  6
CONTINUOUS
 10
149.9784292936
 20
31.3358647082
 11
150.1518667936
 21
31.4326557675
  0
LINE
  8
0
 62
7
  6
CONTINUOUS
 10
152.2909293626
 20
31.5294468267
 11
152.1753043074
 21
31.4649194539
  0
LINE
  8
0
 62
7
  6
CONTINUOUS
 10
152.1753043074
 20
31.3358647082
 11
152.2909293626
 21
31.400392081
  0
LINE
  8
0
 62
7
  6
CONTINUOUS
 10
151.1924917523
 20
30.6905909007
 11
151.3659292523
 21
30.7873819712
  0
LINE
  8
0
 62
7
  6
CONTINUOUS
 10
150.2096793212
 20
30.6260635193
 11
150.5565542799
 21
30.5937998301
  0
LINE
  8
0
 62
7
  6
CONTINUOUS
 10
154.3143669177
 20
30.6260635193
 11
154.5456166972
 21
30.5937998301
  0
LINE
  8
0
 62
7
  6
CONTINUOUS
 10
152.6956168074
 20
31.4971831403
 11
152.9268669177
 21
31.4649194539
  0
LINE
  8
0
 62
7
  6
CONTINUOUS
 10
155.0081169177
 20
31.4971831403
 11
155.239367028
 21
31.4649194539
  0
LINE
  8
0
 62
7
  6
CONTINUOUS
 10
159.4596793074
 20
31.1422825445
 11
160.442492028
 21
30.9809641124
  0
LINE
  8
0
 62
7
  6
CONTINUOUS
 10
160.615929528
 20
31.0777551716
 11
159.6331168074
 21
31.2390736489
  0
LINE
  8
0
 62
7
  6
CONTINUOUS
 10
153.1003044177
 20
31.5939741996
 11
152.9268669177
 21
31.626237886
  0
LINE
  8
0
 62
7
  6
CONTINUOUS
 10
159.401867028
 20
30.6583272086
 11
159.575304528
 21
30.6260635193
  0
LINE
  8
0
 62
7
  6
CONTINUOUS
 10
158.2456168074
 20
31.5939741996
 11
158.0721793074
 21
31.626237886
  0
LINE
  8
0
 62
7
  6
CONTINUOUS
 10
160.5003043074
 20
31.4649194539
 11
160.615929528
 21
31.4326557675
  0
LINE
  8
0
 62
7
  6
CONTINUOUS
 10
160.6737418074
 20
30.8519093441
 11
160.615929528
 21
30.7873819712
  0
LINE
  8
0
 62
7
  6
CONTINUOUS
 10
159.228429528
 20
31.5294468267
 11
159.1128043074
 21
31.4326557675
  0
LINE
  8
0
 62
7
  6
CONTINUOUS
 10
154.1409294177
 20
31.5617105132
 11
154.0253041972
 21
31.4971831403
  0
LINE
  8
0
 62
7
  6
CONTINUOUS
 10
154.1987416972
 20
31.1745462761
 11
154.0831168074
 21
31.1100188581
  0
LINE
  8
0
 62
7
  6
CONTINUOUS
 10
154.3143669177
 20
31.0132277988
 11
154.4299918074
 21
31.0777551716
  0
LINE
  8
0
 62
7
  6
CONTINUOUS
 10
151.8862417523
 20
30.5937998301
 11
152.1753043074
 21
30.5937998301
  0
LINE
  8
0
 62
7
  6
CONTINUOUS
 10
153.2159293074
 20
30.5937998301
 11
153.5049916972
 21
30.5937998301
  0
LINE
  8
0
 62
7
  6
CONTINUOUS
 10
154.5456166972
 20
30.5937998301
 11
154.8924916972
 21
30.5937998301
  0
LINE
  8
0
 62
7
  6
CONTINUOUS
 10
155.5284290869
 20
30.5937998301
 11
155.8174918074
 21
30.5937998301
  0
LINE
  8
0
 62
7
  6
CONTINUOUS
 10
156.279992028
 20
30.5937998301
 11
156.5690540869
 21
30.5937998301
  0
LINE
  8
0
 62
7
  6
CONTINUOUS
 10
157.0315543074
 20
30.5937998301
 11
157.320617028
 21
30.5937998301
  0
LINE
  8
0
 62
7
  6
CONTINUOUS
 10
158.361242028
 20
30.5937998301
 11
158.6503040869
 21
30.5937998301
  0
LINE
  8
0
 62
7
  6
CONTINUOUS
 10
159.922179528
 20
30.5937998301
 11
160.269054528
 21
30.5937998301
  0
LINE
  8
0
 62
7
  6
CONTINUOUS
 10
160.269054528
 20
30.7228545871
 11
159.922179528
 21
30.7228545871
  0
LINE
  8
0
 62
7
  6
CONTINUOUS
 10
154.8924916972
 20
30.7228545871
 11
154.5456166972
 21
30.7228545871
  0
LINE
  8
0
 62
7
  6
CONTINUOUS
 10
159.401867028
 20
30.8519093441
 11
159.1128043074
 21
30.8519093441
  0
LINE
  8
0
 62
7
  6
CONTINUOUS
 10
151.4237418626
 20
30.9164367395
 11
151.1346793074
 21
30.9164367395
  0
LINE
  8
0
 62
7
  6
CONTINUOUS
 10
150.498741835
 20
31.4971831403
 11
150.9034292799
 21
31.4649194539
  0
LINE
  8
0
 62
7
  6
CONTINUOUS
 10
150.9612418074
 20
31.5939741996
 11
150.5565542799
 21
31.626237886
  0
LINE
  8
0
 62
7
  6
CONTINUOUS
 10
159.575304528
 20
30.6260635193
 11
159.922179528
 21
30.5937998301
  0
LINE
  8
0
 62
7
  6
CONTINUOUS
 10
159.922179528
 20
30.7228545871
 11
159.575304528
 21
30.7551182848
  0
LINE
  8
0
 62
7
  6
CONTINUOUS
 10
155.3549915869
 20
31.5939741996
 11
155.0081169177
 21
31.626237886
  0
LINE
  8
0
 62
7
  6
CONTINUOUS
 10
160.1534293074
 20
31.4971831403
 11
160.5003043074
 21
31.4649194539
  0
LINE
  8
0
 62
7
  6
CONTINUOUS
 10
160.5003043074
 20
31.5939741996
 11
160.1534293074
 21
31.626237886
  0
LINE
  8
0
 62
7
  6
CONTINUOUS
 10
157.840929528
 20
31.4971831403
 11
158.0721793074
 21
31.4649194539
  0
LINE
  8
0
 62
7
  6
CONTINUOUS
 10
160.6737418074
 20
31.5617105132
 11
160.5003043074
 21
31.5939741996
  0
LINE
  8
0
 62
7
  6
CONTINUOUS
 10
160.8471793074
 20
30.6905909007
 11
160.9628038663
 21
30.7873819712
  0
LINE
  8
0
 62
7
  6
CONTINUOUS
 10
155.3549915869
 20
30.8841730531
 11
155.1815540869
 21
30.7873819712
  0
LINE
  8
0
 62
7
  6
CONTINUOUS
 10
157.4362415869
 20
31.5294468267
 11
157.320617028
 21
31.4649194539
  0
LINE
  8
0
 62
7
  6
CONTINUOUS
 10
157.320617028
 20
31.3358647082
 11
157.4362415869
 21
31.400392081
  0
LINE
  8
0
 62
7
  6
CONTINUOUS
 10
150.0362418212
 20
31.5617105132
 11
149.8628043005
 21
31.4971831403
  0
LINE
  8
0
 62
7
  6
CONTINUOUS
 10
152.4643666972
 20
31.5939741996
 11
152.2909293626
 21
31.5294468267
  0
LINE
  8
0
 62
7
  6
CONTINUOUS
 10
152.2909293626
 20
31.400392081
 11
152.4643666972
 21
31.4649194539
  0
LINE
  8
0
 62
7
  6
CONTINUOUS
 10
151.0768668626
 20
30.8196456577
 11
150.9034292799
 21
30.7551182848
  0
LINE
  8
0
 62
7
  6
CONTINUOUS
 10
160.5003043074
 20
30.7551182848
 11
160.269054528
 21
30.7228545871
  0
LINE
  8
0
 62
7
  6
CONTINUOUS
 10
154.8924916972
 20
30.5937998301
 11
155.1815540869
 21
30.6260635193
  0
LINE
  8
0
 62
7
  6
CONTINUOUS
 10
160.269054528
 20
30.5937998301
 11
160.615929528
 21
30.6260635193
  0
LINE
  8
0
 62
7
  6
CONTINUOUS
 10
150.5565542799
 20
30.5937998301
 11
150.9612418074
 21
30.6260635193
  0
LINE
  8
0
 62
7
  6
CONTINUOUS
 10
150.9034292799
 20
30.7551182848
 11
150.498741835
 21
30.7228545871
  0
LINE
  8
0
 62
7
  6
CONTINUOUS
 10
154.7768668074
 20
31.1422825445
 11
155.412804528
 21
31.1422825445
  0
LINE
  8
0
 62
7
  6
CONTINUOUS
 10
155.412804528
 20
31.2713373354
 11
154.7768668074
 21
31.2713373354
  0
LINE
  8
0
 62
7
  6
CONTINUOUS
 10
151.1346793074
 20
31.3036010218
 11
151.4237418626
 21
31.3036010218
  0
LINE
  8
0
 62
7
  6
CONTINUOUS
 10
153.9674919177
 20
31.3681283946
 11
154.2565543074
 21
31.3681283946
  0
LINE
  8
0
 62
7
  6
CONTINUOUS
 10
160.6737418074
 20
31.3681283946
 11
160.9628038663
 21
31.3681283946
  0
LINE
  8
0
 62
7
  6
CONTINUOUS
 10
154.6612419177
 20
31.4971831403
 11
155.0081169177
 21
31.4971831403
  0
LINE
  8
0
 62
7
  6
CONTINUOUS
 10
159.8065543074
 20
31.4971831403
 11
160.1534293074
 21
31.4971831403
  0
LINE
  8
0
 62
7
  6
CONTINUOUS
 10
160.1534293074
 20
31.626237886
 11
159.8065543074
 21
31.626237886
  0
LINE
  8
0
 62
7
  6
CONTINUOUS
 10
158.0721793074
 20
31.626237886
 11
157.840929528
 21
31.626237886
  0
LINE
  8
0
 62
7
  6
CONTINUOUS
 10
157.320617028
 20
31.626237886
 11
157.0315543074
 21
31.626237886
  0
LINE
  8
0
 62
7
  6
CONTINUOUS
 10
156.5690540869
 20
31.626237886
 11
156.279992028
 21
31.626237886
  0
LINE
  8
0
 62
7
  6
CONTINUOUS
 10
155.0081169177
 20
31.626237886
 11
154.6612419177
 21
31.626237886
  0
LINE
  8
0
 62
7
  6
CONTINUOUS
 10
152.9268669177
 20
31.626237886
 11
152.6956168074
 21
31.626237886
  0
LINE
  8
0
 62
7
  6
CONTINUOUS
 10
156.279992028
 20
31.9488748406
 11
156.5690540869
 21
31.9488748406
  0
LINE
  8
0
 62
7
  6
CONTINUOUS
 10
156.5690540869
 20
32.1101932727
 11
156.279992028
 21
32.1101932727
  0
LINE
  8
0
 62
7
  6
CONTINUOUS
 10
152.1753043074
 20
32.1101932727
 11
151.8862417523
 21
32.1101932727
  0
LINE
  8
0
 62
7
  6
CONTINUOUS
 10
151.2130860697
 20
32.3970785186
 11
151.6256574183
 21
32.3970785186
  0
LINE
  8
0
 62
7
  6
CONTINUOUS
 10
152.852430332
 20
32.3970785186
 11
154.245872955
 21
32.3970785186
  0
LINE
  8
0
 62
7
  6
CONTINUOUS
 10
154.5737418074
 20
32.3970785186
 11
155.9671844304
 21
32.3970785186
  0
LINE
  8
0
 62
7
  6
CONTINUOUS
 10
157.852430332
 20
32.3970785186
 11
159.245872955
 21
32.3970785186
  0
LINE
  8
0
 62
7
  6
CONTINUOUS
 10
159.5737418074
 20
32.3970785186
 11
160.9671844304
 21
32.3970785186
  0
LINE
  8
0
 62
7
  6
CONTINUOUS
 10
157.6096790869
 20
31.5939741996
 11
157.4362415869
 21
31.5294468267
  0
LINE
  8
0
 62
7
  6
CONTINUOUS
 10
155.1815540869
 20
30.6260635193
 11
155.3549915869
 21
30.6905909007
  0
LINE
  8
0
 62
7
  6
CONTINUOUS
 10
160.615929528
 20
30.6260635193
 11
160.8471793074
 21
30.6905909007
  0
LINE
  8
0
 62
7
  6
CONTINUOUS
 10
160.615929528
 20
30.7873819712
 11
160.5003043074
 21
30.7551182848
  0
LINE
  8
0
 62
7
  6
CONTINUOUS
 10
159.575304528
 20
31.4649194539
 11
159.8065543074
 21
31.4971831403
  0
LINE
  8
0
 62
7
  6
CONTINUOUS
 10
157.6096790869
 20
31.4649194539
 11
157.840929528
 21
31.4971831403
  0
LINE
  8
0
 62
7
  6
CONTINUOUS
 10
154.5456166972
 20
31.1100188581
 11
154.7768668074
 21
31.1422825445
  0
LINE
  8
0
 62
7
  6
CONTINUOUS
 10
157.840929528
 20
31.626237886
 11
157.6096790869
 21
31.5939741996
  0
LINE
  8
0
 62
7
  6
CONTINUOUS
 10
154.4299918074
 20
31.4649194539
 11
154.6612419177
 21
31.4971831403
  0
LINE
  8
0
 62
7
  6
CONTINUOUS
 10
159.8065543074
 20
31.626237886
 11
159.4596793074
 21
31.5939741996
  0
LINE
  8
0
 62
7
  6
CONTINUOUS
 10
154.7768668074
 20
31.2713373354
 11
154.4299918074
 21
31.2390736489
  0
LINE
  8
0
 62
7
  6
CONTINUOUS
 10
150.5565542799
 20
31.626237886
 11
150.2096793212
 21
31.5939741996
  0
LINE
  8
0
 62
7
  6
CONTINUOUS
 10
154.6612419177
 20
31.626237886
 11
154.2565543074
 21
31.5939741996
  0
LINE
  8
0
 62
7
  6
CONTINUOUS
 10
152.0327582009
 20
33.5446195022
 11
151.3770204959
 21
33.5446195022
  0
LINE
  8
0
 62
7
  6
CONTINUOUS
 10
157.4362415869
 20
31.400392081
 11
157.6096790869
 21
31.4649194539
  0
LINE
  8
0
 62
7
  6
CONTINUOUS
 10
159.4596793074
 20
31.4326557675
 11
159.575304528
 21
31.4649194539
  0
LINE
  8
0
 62
7
  6
CONTINUOUS
 10
159.4596793074
 20
31.5939741996
 11
159.228429528
 21
31.5294468267
  0
LINE
  8
0
 62
7
  6
CONTINUOUS
 10
155.1815540869
 20
30.7873819712
 11
154.8924916972
 21
30.7228545871
  0
LINE
  8
0
 62
7
  6
CONTINUOUS
 10
152.4643666972
 20
31.4649194539
 11
152.6956168074
 21
31.4971831403
  0
LINE
  8
0
 62
7
  6
CONTINUOUS
 10
152.6956168074
 20
31.626237886
 11
152.4643666972
 21
31.5939741996
  0
LINE
  8
0
 62
7
  6
CONTINUOUS
 10
150.2674918074
 20
31.4649194539
 11
150.498741835
 21
31.4971831403
  0
LINE
  8
0
 62
7
  6
CONTINUOUS
 10
156.7868565615
 20
35.0200293383
 11
157.4425942664
 21
35.0200293383
  0
LINE
  8
0
 62
7
  6
CONTINUOUS
 10
154.4299918074
 20
31.0777551716
 11
154.5456166972
 21
31.1100188581
  0
LINE
  8
0
 62
7
  6
CONTINUOUS
 10
154.4299918074
 20
31.2390736489
 11
154.1987416972
 21
31.1745462761
  0
LINE
  8
0
 62
7
  6
CONTINUOUS
 10
154.3143669177
 20
31.4326557675
 11
154.4299918074
 21
31.4649194539
  0
LINE
  8
0
 62
7
  6
CONTINUOUS
 10
150.9612418074
 20
30.6260635193
 11
151.1924917523
 21
30.6905909007
  0
LINE
  8
0
 62
7
  6
CONTINUOUS
 10
154.2565543074
 20
31.5939741996
 11
154.1409294177
 21
31.5617105132
  0
LINE
  8
0
 62
7
  6
CONTINUOUS
 10
150.2096793212
 20
31.5939741996
 11
150.0362418212
 21
31.5617105132
  0
LINE
  8
0
 62
7
  6
CONTINUOUS
 10
160.9671844304
 20
36.1675703219
 11
159.5737418074
 21
36.1675703219
  0
LINE
  8
0
 62
7
  6
CONTINUOUS
 10
157.6065286927
 20
36.1675703219
 11
157.1939573441
 21
36.1675703219
  0
LINE
  8
0
 62
7
  6
CONTINUOUS
 10
155.9671844304
 20
36.1675703219
 11
154.5737418074
 21
36.1675703219
  0
LINE
  8
0
 62
7
  6
CONTINUOUS
 10
154.245872955
 20
36.1675703219
 11
152.852430332
 21
36.1675703219
  0
LINE
  8
0
 62
7
  6
CONTINUOUS
 10
150.9671844304
 20
36.1675703219
 11
149.5737418074
 21
36.1675703219
  0
LINE
  8
0
 62
7
  6
CONTINUOUS
 10
150.1518667936
 20
31.4326557675
 11
150.2674918074
 21
31.4649194539
  0
CIRCLE
  8
0
 62
7
  6
CONTINUOUS
 10
160.2704631189
 20
38.5036358957
 40
2.0901639344
  0
ARC
  8
0
 62
7
  6
CONTINUOUS
 10
151.2130860697
 20
34.0364227809
 40
1.6393442623
 50
180.0
 51
270.0
  0
ARC
  8
0
 62
7
  6
CONTINUOUS
 10
157.6065286927
 20
34.5282260596
 40
1.6393442623
 50
0.0
 51
90.0
  0
ARC
  8
0
 62
7
  6
CONTINUOUS
 10
151.6256574183
 20
33.8724883547
 40
1.4754098361
 50
270.0
 51
326.2510114041
  0
ARC
  8
0
 62
7
  6
CONTINUOUS
 10
157.1939573441
 20
34.6921604858
 40
1.4754098361
 50
90.0
 51
146.2510114041
  0
ARC
  8
0
 62
7
  6
CONTINUOUS
 10
152.0327582009
 20
34.3642916334
 40
0.8196721311
 50
270.0
 51
360.0
  0
ARC
  8
0
 62
7
  6
CONTINUOUS
 10
156.7868565615
 20
34.2003572071
 40
0.8196721311
 50
90.0
 51
180.0
  0
ARC
  8
0
 62
7
  6
CONTINUOUS
 10
151.3770204959
 20
33.9544555678
 40
0.4098360656
 50
180.0
 51
270.0
  0
ARC
  8
0
 62
7
  6
CONTINUOUS
 10
157.4425942664
 20
34.6101932727
 40
0.4098360656
 50
0.0
 51
90.0
  0
SOLID
  8
0
 62
7
  6
CONTINUOUS
 10
156.279992028
 20
31.9488752009
 11
156.279992028
 21
32.1101936845
 12
156.5690540869
 22
31.9488752009
 13
156.5690540869
 23
32.1101936845
  0
SOLID
  8
0
 62
7
  6
CONTINUOUS
 10
150.5565542799
 20
31.6262382337
 11
150.9612418074
 21
31.5939740028
 12
150.2096793212
 22
31.5939740028
 13
150.2096793212
 23
31.5939740028
  0
SOLID
  8
0
 62
7
  6
CONTINUOUS
 10
150.0362418212
 20
31.5617111435
 11
150.2096793212
 21
31.5939740028
 12
150.9612418074
 22
31.5939740028
 13
150.9612418074
 23
31.5939740028
  0
SOLID
  8
0
 62
7
  6
CONTINUOUS
 10
150.9612418074
 20
31.5939740028
 11
151.1924917523
 21
31.5294468402
 12
150.0362418212
 22
31.5617111435
 13
150.0362418212
 23
31.5617111435
  0
SOLID
  8
0
 62
7
  6
CONTINUOUS
 10
149.8628043005
 20
31.49718259
 11
150.0362418212
 21
31.5617111435
 12
151.1924917523
 22
31.5294468402
 13
151.1924917523
 23
31.5294468402
  0
SOLID
  8
0
 62
7
  6
CONTINUOUS
 10
149.8628043005
 20
31.49718259
 11
151.1924917523
 21
31.5294468402
 12
150.498741835
 22
31.49718259
 13
150.498741835
 23
31.49718259
  0
SOLID
  8
0
 62
7
  6
CONTINUOUS
 10
150.498741835
 20
31.49718259
 11
151.1924917523
 21
31.5294468402
 12
150.9034292799
 22
31.4649197501
 13
150.9034292799
 23
31.4649197501
  0
SOLID
  8
0
 62
7
  6
CONTINUOUS
 10
151.1924917523
 20
31.5294468402
 11
151.3659292523
 21
31.4326554468
 12
150.9034292799
 22
31.4649197501
 13
150.9034292799
 23
31.4649197501
  0
SOLID
  8
0
 62
7
  6
CONTINUOUS
 10
151.0768668626
 20
31.4003926599
 11
150.9034292799
 21
31.4649197501
 12
151.3659292523
 22
31.4326554468
 13
151.3659292523
 23
31.4326554468
  0
SOLID
  8
0
 62
7
  6
CONTINUOUS
 10
151.0768668626
 20
31.4003926599
 11
151.3659292523
 21
31.4326554468
 12
151.1346793074
 22
31.3036013776
 13
151.1346793074
 23
31.3036013776
  0
SOLID
  8
0
 62
7
  6
CONTINUOUS
 10
151.3659292523
 20
31.4326554468
 11
151.4237418626
 21
31.3036013776
 12
151.1346793074
 22
31.3036013776
 13
151.1346793074
 23
31.3036013776
  0
SOLID
  8
0
 62
7
  6
CONTINUOUS
 10
152.4643666972
 20
31.5939739754
 11
152.6956168074
 21
31.6262382787
 12
152.9268669177
 22
31.6262382787
 13
152.9268669177
 23
31.6262382787
  0
SOLID
  8
0
 62
7
  6
CONTINUOUS
 10
152.9268669177
 20
31.6262382787
 11
153.1003044177
 21
31.5939739754
 12
152.4643666972
 22
31.5939739754
 13
152.4643666972
 23
31.5939739754
  0
SOLID
  8
0
 62
7
  6
CONTINUOUS
 10
152.2909293626
 20
31.5294468852
 11
152.4643666972
 21
31.5939739754
 12
153.1003044177
 22
31.5939739754
 13
153.1003044177
 23
31.5939739754
  0
SOLID
  8
0
 62
7
  6
CONTINUOUS
 10
153.1003044177
 20
31.5939739754
 11
153.2737419177
 21
31.5294468852
 12
152.2909293626
 22
31.5294468852
 13
152.2909293626
 23
31.5294468852
  0
SOLID
  8
0
 62
7
  6
CONTINUOUS
 10
153.2737419177
 20
31.5294468852
 11
152.6956168074
 21
31.4971825369
 12
152.2909293626
 22
31.5294468852
 13
152.2909293626
 23
31.5294468852
  0
SOLID
  8
0
 62
7
  6
CONTINUOUS
 10
152.1753043074
 20
31.4649197951
 11
152.2909293626
 21
31.5294468852
 12
152.6956168074
 22
31.4971825369
 13
152.6956168074
 23
31.4971825369
  0
SOLID
  8
0
 62
7
  6
CONTINUOUS
 10
152.6956168074
 20
31.4971825369
 11
152.4643666972
 21
31.4649197951
 12
152.1753043074
 22
31.4649197951
 13
152.1753043074
 23
31.4649197951
  0
SOLID
  8
0
 62
7
  6
CONTINUOUS
 10
152.6956168074
 20
31.4971825369
 11
153.2737419177
 21
31.5294468852
 12
152.9268669177
 22
31.4649197951
 13
152.9268669177
 23
31.4649197951
  0
SOLID
  8
0
 62
7
  6
CONTINUOUS
 10
153.2737419177
 20
31.5294468852
 11
153.3893668074
 21
31.4649197951
 12
152.9268669177
 22
31.4649197951
 13
152.9268669177
 23
31.4649197951
  0
SOLID
  8
0
 62
7
  6
CONTINUOUS
 10
153.0424918074
 20
31.4326554468
 11
152.9268669177
 21
31.4649197951
 12
153.3893668074
 22
31.4649197951
 13
153.3893668074
 23
31.4649197951
  0
SOLID
  8
0
 62
7
  6
CONTINUOUS
 10
153.3893668074
 20
31.4649197951
 11
153.4471794177
 21
31.4003927049
 12
153.0424918074
 22
31.4326554468
 13
153.0424918074
 23
31.4326554468
  0
SOLID
  8
0
 62
7
  6
CONTINUOUS
 10
153.1581166972
 20
31.3681283566
 11
153.0424918074
 21
31.4326554468
 12
153.4471794177
 22
31.4003927049
 13
153.4471794177
 23
31.4003927049
  0
SOLID
  8
0
 62
7
  6
CONTINUOUS
 10
153.1581166972
 20
31.3681283566
 11
153.4471794177
 21
31.4003927049
 12
153.2159293074
 22
31.2390742213
 13
153.2159293074
 23
31.2390742213
  0
SOLID
  8
0
 62
7
  6
CONTINUOUS
 10
153.4471794177
 20
31.4003927049
 11
153.5049916972
 21
31.2390742213
 12
153.2159293074
 22
31.2390742213
 13
153.2159293074
 23
31.2390742213
  0
SOLID
  8
0
 62
7
  6
CONTINUOUS
 10
152.4643666972
 20
31.4649197951
 11
152.2909293626
 21
31.4003927049
 12
152.1753043074
 22
31.4649197951
 13
152.1753043074
 23
31.4649197951
  0
SOLID
  8
0
 62
7
  6
CONTINUOUS
 10
152.2909293626
 20
31.4003927049
 11
152.1753043074
 21
31.3358640533
 12
152.1753043074
 22
31.4649197951
 13
152.1753043074
 23
31.4649197951
  0
SOLID
  8
0
 62
7
  6
CONTINUOUS
 10
152.1753043074
 20
31.3358640533
 11
151.8862417523
 21
30.5938002869
 12
152.1753043074
 22
31.4649197951
 13
152.1753043074
 23
31.4649197951
  0
SOLID
  8
0
 62
7
  6
CONTINUOUS
 10
152.1753043074
 20
31.4649197951
 11
151.8862417523
 21
30.5938002869
 12
152.1753043074
 22
32.1101937295
 13
152.1753043074
 23
32.1101937295
  0
SOLID
  8
0
 62
7
  6
CONTINUOUS
 10
151.8862417523
 20
30.5938002869
 11
151.8862417523
 21
32.1101937295
 12
152.1753043074
 22
32.1101937295
 13
152.1753043074
 23
32.1101937295
  0
SOLID
  8
0
 62
7
  6
CONTINUOUS
 10
152.1753043074
 20
31.3358640533
 11
152.1753043074
 21
30.5938002869
 12
151.8862417523
 22
30.5938002869
 13
151.8862417523
 23
30.5938002869
  0
SOLID
  8
0
 62
7
  6
CONTINUOUS
 10
153.2159293074
 20
30.5938002869
 11
153.2159293074
 21
31.2390742213
 12
153.5049916972
 22
31.2390742213
 13
153.5049916972
 23
31.2390742213
  0
SOLID
  8
0
 62
7
  6
CONTINUOUS
 10
153.5049916972
 20
31.2390742213
 11
153.5049916972
 21
30.5938002869
 12
153.2159293074
 22
30.5938002869
 13
153.2159293074
 23
30.5938002869
  0
SOLID
  8
0
 62
7
  6
CONTINUOUS
 10
154.2565543074
 20
31.5939738288
 11
154.6612419177
 21
31.6262385959
 12
155.0081169177
 22
31.6262385959
 13
155.0081169177
 23
31.6262385959
  0
SOLID
  8
0
 62
7
  6
CONTINUOUS
 10
155.0081169177
 20
31.6262385959
 11
155.3549915869
 21
31.5939738288
 12
154.2565543074
 22
31.5939738288
 13
154.2565543074
 23
31.5939738288
  0
SOLID
  8
0
 62
7
  6
CONTINUOUS
 10
154.1409294177
 20
31.5617111435
 11
154.2565543074
 21
31.5939738288
 12
155.3549915869
 22
31.5939738288
 13
155.3549915869
 23
31.5939738288
  0
SOLID
  8
0
 62
7
  6
CONTINUOUS
 10
155.3549915869
 20
31.5939738288
 11
155.5284290869
 21
31.5294468402
 12
154.1409294177
 22
31.5617111435
 13
154.1409294177
 23
31.5617111435
  0
SOLID
  8
0
 62
7
  6
CONTINUOUS
 10
154.0253041972
 20
31.4971826249
 11
154.1409294177
 21
31.5617111435
 12
155.5284290869
 22
31.5294468402
 13
155.5284290869
 23
31.5294468402
  0
SOLID
  8
0
 62
7
  6
CONTINUOUS
 10
154.0253041972
 20
31.4971826249
 11
155.5284290869
 21
31.5294468402
 12
154.6612419177
 22
31.4971826249
 13
154.6612419177
 23
31.4971826249
  0
SOLID
  8
0
 62
7
  6
CONTINUOUS
 10
154.6612419177
 20
31.4971826249
 11
155.5284290869
 21
31.5294468402
 12
155.0081169177
 22
31.4971826249
 13
155.0081169177
 23
31.4971826249
  0
SOLID
  8
0
 62
7
  6
CONTINUOUS
 10
155.0081169177
 20
31.4971826249
 11
155.5284290869
 21
31.5294468402
 12
155.239367028
 22
31.4649194065
 13
155.239367028
 23
31.4649194065
  0
SOLID
  8
0
 62
7
  6
CONTINUOUS
 10
155.5284290869
 20
31.5294468402
 11
155.6440543074
 21
31.4649194065
 12
155.239367028
 22
31.4649194065
 13
155.239367028
 23
31.4649194065
  0
SOLID
  8
0
 62
7
  6
CONTINUOUS
 10
153.9674919177
 20
31.4326554138
 11
154.0253041972
 21
31.4971826249
 12
154.6612419177
 22
31.4971826249
 13
154.6612419177
 23
31.4971826249
  0
SOLID
  8
0
 62
7
  6
CONTINUOUS
 10
155.3549915869
 20
31.4326554138
 11
155.239367028
 21
31.4649194065
 12
155.6440543074
 22
31.4649194065
 13
155.6440543074
 23
31.4649194065
  0
SOLID
  8
0
 62
7
  6
CONTINUOUS
 10
155.3549915869
 20
31.4326554138
 11
155.6440543074
 21
31.4649194065
 12
155.412804528
 22
31.3681282026
 13
155.412804528
 23
31.3681282026
  0
SOLID
  8
0
 62
7
  6
CONTINUOUS
 10
155.6440543074
 20
31.4649194065
 11
155.7018665869
 21
31.3681282026
 12
155.412804528
 22
31.3681282026
 13
155.412804528
 23
31.3681282026
  0
SOLID
  8
0
 62
7
  6
CONTINUOUS
 10
155.412804528
 20
31.2713369632
 11
155.412804528
 21
31.3681282026
 12
155.7018665869
 22
31.3681282026
 13
155.7018665869
 23
31.3681282026
  0
SOLID
  8
0
 62
7
  6
CONTINUOUS
 10
155.412804528
 20
31.2713369632
 11
155.7018665869
 21
31.3681282026
 12
155.412804528
 22
31.1422827828
 13
155.412804528
 23
31.1422827828
  0
SOLID
  8
0
 62
7
  6
CONTINUOUS
 10
155.412804528
 20
31.1422827828
 11
155.7018665869
 21
31.3681282026
 12
155.412804528
 22
30.9487004259
 13
155.412804528
 23
30.9487004259
  0
SOLID
  8
0
 62
7
  6
CONTINUOUS
 10
155.7018665869
 20
31.3681282026
 11
155.7018665869
 21
30.8519086025
 12
155.412804528
 22
30.9487004259
 13
155.412804528
 23
30.9487004259
  0
SOLID
  8
0
 62
7
  6
CONTINUOUS
 10
157.6096790869
 20
31.5939736268
 11
157.840929528
 21
31.6262383465
 12
158.0721793074
 22
31.6262383465
 13
158.0721793074
 23
31.6262383465
  0
SOLID
  8
0
 62
7
  6
CONTINUOUS
 10
158.0721793074
 20
31.6262383465
 11
158.2456168074
 21
31.5939736268
 12
157.6096790869
 22
31.5939736268
 13
157.6096790869
 23
31.5939736268
  0
SOLID
  8
0
 62
7
  6
CONTINUOUS
 10
157.4362415869
 20
31.5294472848
 11
157.6096790869
 21
31.5939736268
 12
158.2456168074
 22
31.5939736268
 13
158.2456168074
 23
31.5939736268
  0
SOLID
  8
0
 62
7
  6
CONTINUOUS
 10
158.2456168074
 20
31.5939736268
 11
158.4190543074
 21
31.5294472848
 12
157.4362415869
 22
31.5294472848
 13
157.4362415869
 23
31.5294472848
  0
SOLID
  8
0
 62
7
  6
CONTINUOUS
 10
158.4190543074
 20
31.5294472848
 11
157.840929528
 21
31.4971825369
 12
157.4362415869
 22
31.5294472848
 13
157.4362415869
 23
31.5294472848
  0
SOLID
  8
0
 62
7
  6
CONTINUOUS
 10
157.320617028
 20
31.4649199103
 11
157.4362415869
 21
31.5294472848
 12
157.840929528
 22
31.4971825369
 13
157.840929528
 23
31.4971825369
  0
SOLID
  8
0
 62
7
  6
CONTINUOUS
 10
157.840929528
 20
31.4971825369
 11
157.6096790869
 21
31.4649199103
 12
157.320617028
 22
31.4649199103
 13
157.320617028
 23
31.4649199103
  0
SOLID
  8
0
 62
7
  6
CONTINUOUS
 10
157.840929528
 20
31.4971825369
 11
158.4190543074
 21
31.5294472848
 12
158.0721793074
 22
31.4649199103
 13
158.0721793074
 23
31.4649199103
  0
SOLID
  8
0
 62
7
  6
CONTINUOUS
 10
158.4190543074
 20
31.5294472848
 11
158.534679528
 21
31.4649199103
 12
158.0721793074
 22
31.4649199103
 13
158.0721793074
 23
31.4649199103
  0
SOLID
  8
0
 62
7
  6
CONTINUOUS
 10
158.187804528
 20
31.4326554468
 11
158.0721793074
 21
31.4649199103
 12
158.534679528
 22
31.4649199103
 13
158.534679528
 23
31.4649199103
  0
SOLID
  8
0
 62
7
  6
CONTINUOUS
 10
158.187804528
 20
31.4326554468
 11
158.534679528
 21
31.4649199103
 12
158.3034290869
 22
31.3681288486
 13
158.3034290869
 23
31.3681288486
  0
SOLID
  8
0
 62
7
  6
CONTINUOUS
 10
158.534679528
 20
31.4649199103
 11
158.5924918074
 21
31.3681288486
 12
158.3034290869
 22
31.3681288486
 13
158.3034290869
 23
31.3681288486
  0
SOLID
  8
0
 62
7
  6
CONTINUOUS
 10
158.361242028
 20
31.2068093799
 11
158.3034290869
 21
31.3681288486
 12
158.5924918074
 22
31.3681288486
 13
158.5924918074
 23
31.3681288486
  0
SOLID
  8
0
 62
7
  6
CONTINUOUS
 10
158.5924918074
 20
31.3681288486
 11
158.6503040869
 21
31.2068093799
 12
158.361242028
 22
31.2068093799
 13
158.361242028
 23
31.2068093799
  0
SOLID
  8
0
 62
7
  6
CONTINUOUS
 10
157.6096790869
 20
31.4649199103
 11
157.4362415869
 21
31.4003926599
 12
157.320617028
 22
31.4649199103
 13
157.320617028
 23
31.4649199103
  0
SOLID
  8
0
 62
7
  6
CONTINUOUS
 10
157.4362415869
 20
31.4003926599
 11
157.320617028
 21
31.3358640533
 12
157.320617028
 22
31.4649199103
 13
157.320617028
 23
31.4649199103
  0
SOLID
  8
0
 62
7
  6
CONTINUOUS
 10
157.320617028
 20
31.3358640533
 11
157.0315543074
 21
30.5938003547
 12
157.320617028
 22
31.4649199103
 13
157.320617028
 23
31.4649199103
  0
SOLID
  8
0
 62
7
  6
CONTINUOUS
 10
157.320617028
 20
31.4649199103
 11
157.0315543074
 21
30.5938003547
 12
157.320617028
 22
31.6262383465
 13
157.320617028
 23
31.6262383465
  0
SOLID
  8
0
 62
7
  6
CONTINUOUS
 10
157.0315543074
 20
30.5938003547
 11
157.0315543074
 21
31.6262383465
 12
157.320617028
 22
31.6262383465
 13
157.320617028
 23
31.6262383465
  0
SOLID
  8
0
 62
7
  6
CONTINUOUS
 10
157.320617028
 20
31.3358640533
 11
157.320617028
 21
30.5938003547
 12
157.0315543074
 22
30.5938003547
 13
157.0315543074
 23
30.5938003547
  0
SOLID
  8
0
 62
7
  6
CONTINUOUS
 10
158.361242028
 20
30.5938003547
 11
158.361242028
 21
31.2068093799
 12
158.6503040869
 22
31.2068093799
 13
158.6503040869
 23
31.2068093799
  0
SOLID
  8
0
 62
7
  6
CONTINUOUS
 10
158.6503040869
 20
31.2068093799
 11
158.6503040869
 21
30.5938003547
 12
158.361242028
 22
30.5938003547
 13
158.361242028
 23
30.5938003547
  0
SOLID
  8
0
 62
7
  6
CONTINUOUS
 10
159.4596793074
 20
31.5939739474
 11
159.8065543074
 21
31.6262381969
 12
160.1534293074
 22
31.6262381969
 13
160.1534293074
 23
31.6262381969
  0
SOLID
  8
0
 62
7
  6
CONTINUOUS
 10
160.1534293074
 20
31.6262381969
 11
160.5003043074
 21
31.5939739474
 12
159.4596793074
 22
31.5939739474
 13
159.4596793074
 23
31.5939739474
  0
SOLID
  8
0
 62
7
  6
CONTINUOUS
 10
159.228429528
 20
31.5294468402
 11
159.4596793074
 21
31.5939739474
 12
160.5003043074
 22
31.5939739474
 13
160.5003043074
 23
31.5939739474
  0
SOLID
  8
0
 62
7
  6
CONTINUOUS
 10
159.228429528
 20
31.5294468402
 11
160.5003043074
 21
31.5939739304
 12
160.6737418074
 22
31.5617111435
 13
160.6737418074
 23
31.5617111435
  0
SOLID
  8
0
 62
7
  6
CONTINUOUS
 10
159.228429528
 20
31.5294468402
 11
160.6737418074
 21
31.5617111435
 12
159.8065543074
 22
31.4971825592
 13
159.8065543074
 23
31.4971825592
  0
SOLID
  8
0
 62
7
  6
CONTINUOUS
 10
159.8065543074
 20
31.4971825592
 11
160.6737418074
 21
31.5617111435
 12
160.1534293074
 22
31.4971825592
 13
160.1534293074
 23
31.4971825592
  0
SOLID
  8
0
 62
7
  6
CONTINUOUS
 10
160.6737418074
 20
31.5617111435
 11
160.8471793074
 21
31.4971825592
 12
160.1534293074
 22
31.4971825592
 13
160.1534293074
 23
31.4971825592
  0
SOLID
  8
0
 62
7
  6
CONTINUOUS
 10
160.5003043074
 20
31.4649197501
 11
160.1534293074
 21
31.4971825592
 12
160.8471793074
 22
31.4971825592
 13
160.8471793074
 23
31.4971825592
  0
SOLID
  8
0
 62
7
  6
CONTINUOUS
 10
159.1128043074
 20
31.4326555427
 11
159.228429528
 21
31.5294468402
 12
159.8065543074
 22
31.4971825592
 13
159.8065543074
 23
31.4971825592
  0
SOLID
  8
0
 62
7
  6
CONTINUOUS
 10
160.5003043074
 20
31.4649197501
 11
160.8471793074
 21
31.4971825592
 12
160.615929528
 22
31.4326555427
 13
160.615929528
 23
31.4326555427
  0
SOLID
  8
0
 62
7
  6
CONTINUOUS
 10
160.615929528
 20
31.4326555427
 11
160.8471793074
 21
31.4971825592
 12
160.6737418074
 22
31.3681283005
 13
160.6737418074
 23
31.3681283005
  0
SOLID
  8
0
 62
7
  6
CONTINUOUS
 10
160.8471793074
 20
31.4971825592
 11
160.9628038663
 21
31.3681283005
 12
160.6737418074
 22
31.3681283005
 13
160.6737418074
 23
31.3681283005
  0
SOLID
  8
0
 62
7
  6
CONTINUOUS
 10
150.2674918074
 20
31.4649197501
 11
149.7471793074
 21
31.4326554237
 12
150.498741835
 22
31.4971824493
 13
150.498741835
 23
31.4971824493
  0
SOLID
  8
0
 62
7
  6
CONTINUOUS
 10
149.7471793074
 20
31.4326554237
 11
149.8628043005
 21
31.4971824493
 12
150.498741835
 22
31.4971824493
 13
150.498741835
 23
31.4971824493
  0
SOLID
  8
0
 62
7
  6
CONTINUOUS
 10
150.2674918074
 20
31.4649197501
 11
150.1518667936
 21
31.4326554237
 12
149.7471793074
 22
31.4326554237
 13
149.7471793074
 23
31.4326554237
  0
SOLID
  8
0
 62
7
  6
CONTINUOUS
 10
149.6315543091
 20
31.3036012664
 11
149.7471793074
 21
31.4326554237
 12
150.1518667936
 22
31.4326554237
 13
150.1518667936
 23
31.4326554237
  0
SOLID
  8
0
 62
7
  6
CONTINUOUS
 10
153.9674919177
 20
31.4326554237
 11
154.6612419177
 21
31.4971825369
 12
154.4299918074
 22
31.4649197501
 13
154.4299918074
 23
31.4649197501
  0
SOLID
  8
0
 62
7
  6
CONTINUOUS
 10
154.4299918074
 20
31.4649197501
 11
154.3143669177
 21
31.4326554237
 12
153.9674919177
 22
31.4326554237
 13
153.9674919177
 23
31.4326554237
  0
SOLID
  8
0
 62
7
  6
CONTINUOUS
 10
153.9674919177
 20
31.3681283335
 11
153.9674919177
 21
31.4326554237
 12
154.3143669177
 22
31.4326554237
 13
154.3143669177
 23
31.4326554237
  0
SOLID
  8
0
 62
7
  6
CONTINUOUS
 10
154.3143669177
 20
31.4326554237
 11
154.2565543074
 21
31.3681283335
 12
153.9674919177
 22
31.3681283335
 13
153.9674919177
 23
31.3681283335
  0
SOLID
  8
0
 62
7
  6
CONTINUOUS
 10
159.1128043074
 20
31.4326555528
 11
159.8065543074
 21
31.4971825369
 12
159.575304528
 22
31.4649197501
 13
159.575304528
 23
31.4649197501
  0
SOLID
  8
0
 62
7
  6
CONTINUOUS
 10
159.575304528
 20
31.4649197501
 11
159.4596793074
 21
31.4326555528
 12
159.1128043074
 22
31.4326555528
 13
159.1128043074
 23
31.4326555528
  0
SOLID
  8
0
 62
7
  6
CONTINUOUS
 10
159.1128043074
 20
31.3681284626
 11
159.1128043074
 21
31.4326555528
 12
159.4596793074
 22
31.4326555528
 13
159.4596793074
 23
31.4326555528
  0
SOLID
  8
0
 62
7
  6
CONTINUOUS
 10
159.4596793074
 20
31.4326555528
 11
159.401867028
 21
31.3681284626
 12
159.1128043074
 22
31.3681284626
 13
159.1128043074
 23
31.3681284626
  0
SOLID
  8
0
 62
7
  6
CONTINUOUS
 10
159.228429528
 20
31.2390741763
 11
159.1128043074
 21
31.3681284626
 12
159.401867028
 22
31.3681284626
 13
159.401867028
 23
31.3681284626
  0
SOLID
  8
0
 62
7
  6
CONTINUOUS
 10
149.6315543091
 20
31.3036012664
 11
150.1518667936
 21
31.4326554468
 12
149.9784292936
 22
31.3358640533
 13
149.9784292936
 23
31.3358640533
  0
SOLID
  8
0
 62
7
  6
CONTINUOUS
 10
149.9784292936
 20
31.3358640533
 11
149.9206168074
 21
31.2713369632
 12
149.6315543091
 22
31.3036012664
 13
149.6315543091
 23
31.3036012664
  0
SOLID
  8
0
 62
7
  6
CONTINUOUS
 10
149.5737418074
 20
31.1100184796
 11
149.6315543091
 21
31.3036012664
 12
149.9206168074
 22
31.2713369632
 13
149.9206168074
 23
31.2713369632
  0
SOLID
  8
0
 62
7
  6
CONTINUOUS
 10
154.4299918074
 20
31.2390741763
 11
154.7768668074
 21
31.271336924
 12
155.412804528
 22
31.271336924
 13
155.412804528
 23
31.271336924
  0
SOLID
  8
0
 62
7
  6
CONTINUOUS
 10
154.4299918074
 20
31.2390741763
 11
155.412804528
 21
31.271336924
 12
154.1987416972
 22
31.1745462761
 13
154.1987416972
 23
31.1745462761
  0
SOLID
  8
0
 62
7
  6
CONTINUOUS
 10
154.1987416972
 20
31.1745462761
 11
155.412804528
 21
31.271336924
 12
154.7768668074
 22
31.1422827436
 13
154.7768668074
 23
31.1422827436
  0
SOLID
  8
0
 62
7
  6
CONTINUOUS
 10
155.412804528
 20
31.271336924
 11
155.412804528
 21
31.1422827436
 12
154.7768668074
 22
31.1422827436
 13
154.7768668074
 23
31.1422827436
  0
SOLID
  8
0
 62
7
  6
CONTINUOUS
 10
159.228429528
 20
31.2390745501
 11
159.401867028
 21
31.3681283566
 12
159.4596793074
 22
31.3036012664
 13
159.4596793074
 23
31.3036012664
  0
SOLID
  8
0
 62
7
  6
CONTINUOUS
 10
159.4596793074
 20
31.3036012664
 11
159.6331168074
 21
31.2390745501
 12
159.228429528
 22
31.2390745501
 13
159.228429528
 23
31.2390745501
  0
SOLID
  8
0
 62
7
  6
CONTINUOUS
 10
159.4596793074
 20
31.1422827828
 11
159.228429528
 21
31.2390745501
 12
159.6331168074
 22
31.2390745501
 13
159.6331168074
 23
31.2390745501
  0
SOLID
  8
0
 62
7
  6
CONTINUOUS
 10
159.6331168074
 20
31.2390745501
 11
160.615929528
 21
31.0777556927
 12
159.4596793074
 22
31.1422827828
 13
159.4596793074
 23
31.1422827828
  0
SOLID
  8
0
 62
7
  6
CONTINUOUS
 10
160.442492028
 20
30.9809646623
 11
159.4596793074
 21
31.1422827828
 12
160.615929528
 22
31.0777556927
 13
160.615929528
 23
31.0777556927
  0
SOLID
  8
0
 62
7
  6
CONTINUOUS
 10
160.615929528
 20
31.0777556927
 11
160.8471793074
 21
30.9809646623
 12
160.442492028
 22
30.9809646623
 13
160.442492028
 23
30.9809646623
  0
SOLID
  8
0
 62
7
  6
CONTINUOUS
 10
160.615929528
 20
30.9164372091
 11
160.442492028
 21
30.9809646623
 12
160.8471793074
 22
30.9809646623
 13
160.8471793074
 23
30.9809646623
  0
SOLID
  8
0
 62
7
  6
CONTINUOUS
 10
160.615929528
 20
30.9164372091
 11
160.8471793074
 21
30.9809646623
 12
160.6737418074
 22
30.8519089441
 13
160.6737418074
 23
30.8519089441
  0
SOLID
  8
0
 62
7
  6
CONTINUOUS
 10
160.8471793074
 20
30.9809646623
 11
160.9628038663
 21
30.8519089441
 12
160.6737418074
 22
30.8519089441
 13
160.6737418074
 23
30.8519089441
  0
SOLID
  8
0
 62
7
  6
CONTINUOUS
 10
160.615929528
 20
30.7873818593
 11
160.6737418074
 21
30.8519089441
 12
160.9628038663
 22
30.8519089441
 13
160.9628038663
 23
30.8519089441
  0
SOLID
  8
0
 62
7
  6
CONTINUOUS
 10
160.9628038663
 20
30.8519089441
 11
160.9628038663
 21
30.7873818593
 12
160.615929528
 22
30.7873818593
 13
160.615929528
 23
30.7873818593
  0
SOLID
  8
0
 62
7
  6
CONTINUOUS
 10
160.5003043074
 20
30.7551187255
 11
160.615929528
 21
30.7873818593
 12
160.9628038663
 22
30.7873818593
 13
160.9628038663
 23
30.7873818593
  0
SOLID
  8
0
 62
7
  6
CONTINUOUS
 10
160.5003043074
 20
30.7551187255
 11
160.9628038663
 21
30.7873818593
 12
160.269054528
 22
30.7228547745
 13
160.269054528
 23
30.7228547745
  0
SOLID
  8
0
 62
7
  6
CONTINUOUS
 10
160.9628038663
 20
30.7873818593
 11
160.8471793074
 21
30.6905916353
 12
160.269054528
 22
30.7228547745
 13
160.269054528
 23
30.7228547745
  0
SOLID
  8
0
 62
7
  6
CONTINUOUS
 10
160.8471793074
 20
30.6905916353
 11
159.401867028
 21
30.658327332
 12
160.269054528
 22
30.7228547745
 13
160.269054528
 23
30.7228547745
  0
SOLID
  8
0
 62
7
  6
CONTINUOUS
 10
160.269054528
 20
30.7228547745
 11
159.401867028
 21
30.658327332
 12
159.922179528
 22
30.7228547745
 13
159.922179528
 23
30.7228547745
  0
SOLID
  8
0
 62
7
  6
CONTINUOUS
 10
159.401867028
 20
30.658327332
 11
159.228429528
 21
30.7228547745
 12
159.922179528
 22
30.7228547745
 13
159.922179528
 23
30.7228547745
  0
SOLID
  8
0
 62
7
  6
CONTINUOUS
 10
159.401867028
 20
30.658327332
 11
160.8471793074
 21
30.6905916353
 12
159.575304528
 22
30.6260629858
 13
159.575304528
 23
30.6260629858
  0
SOLID
  8
0
 62
7
  6
CONTINUOUS
 10
160.8471793074
 20
30.6905916353
 11
160.615929528
 21
30.6260629858
 12
159.575304528
 22
30.6260629858
 13
159.575304528
 23
30.6260629858
  0
SOLID
  8
0
 62
7
  6
CONTINUOUS
 10
159.922179528
 20
30.5938006049
 11
159.575304528
 21
30.6260629858
 12
160.615929528
 22
30.6260629858
 13
160.615929528
 23
30.6260629858
  0
SOLID
  8
0
 62
7
  6
CONTINUOUS
 10
160.615929528
 20
30.6260629858
 11
160.269054528
 21
30.5938006049
 12
159.922179528
 22
30.5938006049
 13
159.922179528
 23
30.5938006049
  0
SOLID
  8
0
 62
7
  6
CONTINUOUS
 10
149.5737418074
 20
31.1100184796
 11
149.9206168074
 21
31.2713369632
 12
149.8628043005
 22
31.1422827828
 13
149.8628043005
 23
31.1422827828
  0
SOLID
  8
0
 62
7
  6
CONTINUOUS
 10
149.8628043005
 20
31.1422827828
 11
149.8628043005
 21
31.0454914852
 12
149.5737418074
 22
31.1100184796
 13
149.5737418074
 23
31.1100184796
  0
SOLID
  8
0
 62
7
  6
CONTINUOUS
 10
149.6315543091
 20
30.9164372091
 11
149.5737418074
 21
31.1100184796
 12
149.8628043005
 22
31.0454914852
 13
149.8628043005
 23
31.0454914852
  0
SOLID
  8
0
 62
7
  6
CONTINUOUS
 10
149.8628043005
 20
31.0454914852
 11
149.9784292936
 21
30.8841729058
 12
149.6315543091
 22
30.9164372091
 13
149.6315543091
 23
30.9164372091
  0
SOLID
  8
0
 62
7
  6
CONTINUOUS
 10
149.7471793074
 20
30.7873813202
 11
149.6315543091
 21
30.9164372091
 12
149.9784292936
 22
30.8841729058
 13
149.9784292936
 23
30.8841729058
  0
SOLID
  8
0
 62
7
  6
CONTINUOUS
 10
149.9784292936
 20
30.8841729058
 11
150.1518667936
 21
30.7873813202
 12
149.7471793074
 22
30.7873813202
 13
149.7471793074
 23
30.7873813202
  0
SOLID
  8
0
 62
7
  6
CONTINUOUS
 10
149.8628043005
 20
30.7228547004
 11
149.7471793074
 21
30.7873813202
 12
150.1518667936
 22
30.7873813202
 13
150.1518667936
 23
30.7873813202
  0
SOLID
  8
0
 62
7
  6
CONTINUOUS
 10
150.1518667936
 20
30.7873813202
 11
150.498741835
 21
30.7228547004
 12
149.8628043005
 22
30.7228547004
 13
149.8628043005
 23
30.7228547004
  0
SOLID
  8
0
 62
7
  6
CONTINUOUS
 10
150.0362418212
 20
30.658327332
 11
149.8628043005
 21
30.7228547004
 12
150.498741835
 22
30.7228547004
 13
150.498741835
 23
30.7228547004
  0
SOLID
  8
0
 62
7
  6
CONTINUOUS
 10
154.0831168074
 20
31.1100184386
 11
154.1987416972
 21
31.1745462761
 12
154.7768668074
 22
31.1422827828
 13
154.7768668074
 23
31.1422827828
  0
SOLID
  8
0
 62
7
  6
CONTINUOUS
 10
154.7768668074
 20
31.1422827828
 11
154.5456166972
 21
31.1100184386
 12
154.0831168074
 22
31.1100184386
 13
154.0831168074
 23
31.1100184386
  0
SOLID
  8
0
 62
7
  6
CONTINUOUS
 10
153.9674919177
 20
30.9809642992
 11
154.0831168074
 21
31.1100184386
 12
154.5456166972
 22
31.1100184386
 13
154.5456166972
 23
31.1100184386
  0
SOLID
  8
0
 62
7
  6
CONTINUOUS
 10
154.3143669177
 20
31.0132277988
 11
153.9674919177
 21
30.9809642992
 12
154.4299918074
 22
31.0777556927
 13
154.4299918074
 23
31.0777556927
  0
SOLID
  8
0
 62
7
  6
CONTINUOUS
 10
153.9674919177
 20
30.9809642992
 11
154.5456166972
 21
31.1100184796
 12
154.4299918074
 22
31.0777556927
 13
154.4299918074
 23
31.0777556927
  0
SOLID
  8
0
 62
7
  6
CONTINUOUS
 10
154.3143669177
 20
31.0132277988
 11
154.2565543074
 21
30.9164372091
 12
153.9674919177
 22
30.9809642992
 13
153.9674919177
 23
30.9809642992
  0
SOLID
  8
0
 62
7
  6
CONTINUOUS
 10
153.9674919177
 20
30.8841729058
 11
153.9674919177
 21
30.9809642992
 12
154.2565543074
 22
30.9164372091
 13
154.2565543074
 23
30.9164372091
  0
SOLID
  8
0
 62
7
  6
CONTINUOUS
 10
154.2565543074
 20
30.9164372091
 11
154.2565543074
 21
30.8519086025
 12
153.9674919177
 22
30.8841729058
 13
153.9674919177
 23
30.8841729058
  0
SOLID
  8
0
 62
7
  6
CONTINUOUS
 10
154.0253041972
 20
30.7551187255
 11
153.9674919177
 21
30.8841729058
 12
154.2565543074
 22
30.8519086025
 13
154.2565543074
 23
30.8519086025
  0
SOLID
  8
0
 62
7
  6
CONTINUOUS
 10
155.412804528
 20
30.9487004259
 11
155.7018665869
 21
30.8519086025
 12
155.3549915869
 22
30.8841729058
 13
155.3549915869
 23
30.8841729058
  0
SOLID
  8
0
 62
7
  6
CONTINUOUS
 10
155.1815540869
 20
30.7873815123
 11
155.3549915869
 21
30.8841729058
 12
155.7018665869
 22
30.8519086025
 13
155.7018665869
 23
30.8519086025
  0
SOLID
  8
0
 62
7
  6
CONTINUOUS
 10
155.1815540869
 20
30.7873815123
 11
155.7018665869
 21
30.8519086025
 12
155.412804528
 22
30.7551187255
 13
155.412804528
 23
30.7551187255
  0
SOLID
  8
0
 62
7
  6
CONTINUOUS
 10
155.7018665869
 20
30.8519086025
 11
155.759679528
 21
30.6905916353
 12
155.412804528
 22
30.7551187255
 13
155.412804528
 23
30.7551187255
  0
SOLID
  8
0
 62
7
  6
CONTINUOUS
 10
155.4706168074
 20
30.658327332
 11
155.412804528
 21
30.7551187255
 12
155.759679528
 22
30.6905916353
 13
155.759679528
 23
30.6905916353
  0
SOLID
  8
0
 62
7
  6
CONTINUOUS
 10
155.4706168074
 20
30.658327332
 11
155.759679528
 21
30.6905916353
 12
155.5284290869
 22
30.5938002079
 13
155.5284290869
 23
30.5938002079
  0
SOLID
  8
0
 62
7
  6
CONTINUOUS
 10
155.759679528
 20
30.6905916353
 11
155.8174918074
 21
30.5938002079
 12
155.5284290869
 22
30.5938002079
 13
155.5284290869
 23
30.5938002079
  0
SOLID
  8
0
 62
7
  6
CONTINUOUS
 10
151.0768668626
 20
30.8196456577
 11
151.1346793074
 21
30.9164373395
 12
151.4237418626
 22
30.9164373395
 13
151.4237418626
 23
30.9164373395
  0
SOLID
  8
0
 62
7
  6
CONTINUOUS
 10
151.4237418626
 20
30.9164373395
 11
151.3659292523
 21
30.7873815123
 12
151.0768668626
 22
30.8196456577
 13
151.0768668626
 23
30.8196456577
  0
SOLID
  8
0
 62
7
  6
CONTINUOUS
 10
150.9034292799
 20
30.7551187255
 11
151.0768668626
 21
30.8196456577
 12
151.3659292523
 22
30.7873815123
 13
151.3659292523
 23
30.7873815123
  0
SOLID
  8
0
 62
7
  6
CONTINUOUS
 10
150.9034292799
 20
30.7551187255
 11
151.3659292523
 21
30.7873815123
 12
150.498741835
 22
30.7228544222
 13
150.498741835
 23
30.7228544222
  0
SOLID
  8
0
 62
7
  6
CONTINUOUS
 10
151.3659292523
 20
30.7873815123
 11
151.1924917523
 21
30.6905916353
 12
150.498741835
 22
30.7228544222
 13
150.498741835
 23
30.7228544222
  0
SOLID
  8
0
 62
7
  6
CONTINUOUS
 10
150.0362418212
 20
30.658327332
 11
150.498741835
 21
30.7228544222
 12
151.1924917523
 22
30.6905916353
 13
151.1924917523
 23
30.6905916353
  0
SOLID
  8
0
 62
7
  6
CONTINUOUS
 10
150.0362418212
 20
30.658327332
 11
151.1924917523
 21
30.6905916353
 12
150.2096793212
 22
30.6260631011
 13
150.2096793212
 23
30.6260631011
  0
SOLID
  8
0
 62
7
  6
CONTINUOUS
 10
151.1924917523
 20
30.6905916353
 11
150.9612418074
 21
30.6260631011
 12
150.2096793212
 22
30.6260631011
 13
150.2096793212
 23
30.6260631011
  0
SOLID
  8
0
 62
7
  6
CONTINUOUS
 10
150.5565542799
 20
30.5938002419
 11
150.2096793212
 21
30.6260631011
 12
150.9612418074
 22
30.6260631011
 13
150.9612418074
 23
30.6260631011
  0
SOLID
  8
0
 62
7
  6
CONTINUOUS
 10
154.0253041972
 20
30.7551187255
 11
154.2565543074
 21
30.8519086025
 12
154.3143669177
 22
30.7873815123
 13
154.3143669177
 23
30.7873815123
  0
SOLID
  8
0
 62
7
  6
CONTINUOUS
 10
154.3143669177
 20
30.7873815123
 11
154.5456166972
 21
30.7228544222
 12
154.0253041972
 22
30.7551187255
 13
154.0253041972
 23
30.7551187255
  0
SOLID
  8
0
 62
7
  6
CONTINUOUS
 10
154.1987416972
 20
30.658327332
 11
154.0253041972
 21
30.7551187255
 12
154.5456166972
 22
30.7228544222
 13
154.5456166972
 23
30.7228544222
  0
SOLID
  8
0
 62
7
  6
CONTINUOUS
 10
154.8924916972
 20
30.7228544637
 11
155.1815540869
 21
30.7873815123
 12
155.412804528
 22
30.7551187255
 13
155.412804528
 23
30.7551187255
  0
SOLID
  8
0
 62
7
  6
CONTINUOUS
 10
155.412804528
 20
30.7551187255
 11
155.3549915869
 21
30.6905916353
 12
154.8924916972
 22
30.7228544637
 13
154.8924916972
 23
30.7228544637
  0
SOLID
  8
0
 62
7
  6
CONTINUOUS
 10
155.3549915869
 20
30.6905916353
 11
154.1987416972
 21
30.658327332
 12
154.8924916972
 22
30.7228544637
 13
154.8924916972
 23
30.7228544637
  0
SOLID
  8
0
 62
7
  6
CONTINUOUS
 10
154.1987416972
 20
30.658327332
 11
154.5456166972
 21
30.7228544637
 12
154.8924916972
 22
30.7228544637
 13
154.8924916972
 23
30.7228544637
  0
SOLID
  8
0
 62
7
  6
CONTINUOUS
 10
154.1987416972
 20
30.658327332
 11
155.3549915869
 21
30.6905916353
 12
154.3143669177
 22
30.6260630541
 13
154.3143669177
 23
30.6260630541
  0
SOLID
  8
0
 62
7
  6
CONTINUOUS
 10
155.3549915869
 20
30.6905916353
 11
155.1815540869
 21
30.6260630541
 12
154.3143669177
 22
30.6260630541
 13
154.3143669177
 23
30.6260630541
  0
SOLID
  8
0
 62
7
  6
CONTINUOUS
 10
154.5456166972
 20
30.5938002188
 11
154.3143669177
 21
30.6260630541
 12
155.1815540869
 22
30.6260630541
 13
155.1815540869
 23
30.6260630541
  0
SOLID
  8
0
 62
7
  6
CONTINUOUS
 10
155.1815540869
 20
30.6260630541
 11
154.8924916972
 21
30.5938002188
 12
154.5456166972
 22
30.5938002188
 13
154.5456166972
 23
30.5938002188
  0
SOLID
  8
0
 62
7
  6
CONTINUOUS
 10
159.575304528
 20
30.7551187255
 11
159.228429528
 21
30.7228544637
 12
159.4596793074
 22
30.7873815123
 13
159.4596793074
 23
30.7873815123
  0
SOLID
  8
0
 62
7
  6
CONTINUOUS
 10
159.4596793074
 20
30.7873815123
 11
159.228429528
 21
30.7228544637
 12
159.401867028
 22
30.851908644
 13
159.401867028
 23
30.851908644
  0
SOLID
  8
0
 62
7
  6
CONTINUOUS
 10
159.228429528
 20
30.7228544637
 11
159.1128043074
 21
30.851908644
 12
159.401867028
 22
30.851908644
 13
159.401867028
 23
30.851908644
  0
SOLID
  8
0
 62
7
  6
CONTINUOUS
 10
159.575304528
 20
30.7551187255
 11
159.922179528
 21
30.7228544637
 12
159.228429528
 22
30.7228544637
 13
159.228429528
 23
30.7228544637
  0
SOLID
  8
0
 62
7
  6
CONTINUOUS
 10
156.279992028
 20
30.5938002419
 11
156.279992028
 21
31.6262382337
 12
156.5690540869
 22
30.5938002419
 13
156.5690540869
 23
31.6262382337
  0
ENDBLK
  8
0
  6
BYBLOCK
 62
0
  0
BLOCK
  8
0
 62
2
  6
CONTINUOUS
  2
SYMBOL_3_BL0
 70
64
 10
32.1213064866
 20
19.8534310916
  0
TEXT
  8
0
 62
7
  6
CONTINUOUS
 10
18.3860103289
 20
19.2268451992
  7
TEXTSTYLE_3
 40
2.7338706658
  1
Ammeraal Beltech
 41
1.0
 51
15.0
 72
0
  0
TEXT
  8
0
 62
7
  6
CONTINUOUS
 10
29.1868111546
 20
16.9533085264
  7
TEXTSTYLE_4
 40
1.0935482663
  1
Innovation & Service in Belting
 41
1.0
 72
0
  0
LINE
  8
0
 62
7
  6
CONTINUOUS
 10
12.3614696776
 20
19.9934385078
 11
13.1396216709
 21
23.6543558055
  0
LINE
  8
0
 62
7
  6
CONTINUOUS
 10
23.2347899607
 20
27.3177497171
 11
13.6274394139
 21
24.1961322958
  0
LINE
  8
0
 62
7
  6
CONTINUOUS
 10
12.5867530099
 20
19.3000877048
 11
20.093828271
 21
12.5406867788
  0
LINE
  8
0
 62
7
  6
CONTINUOUS
 10
12.8492874206
 20
20.5352149982
 11
23.6575567857
 21
24.0470345971
  0
LINE
  8
0
 62
7
  6
CONTINUOUS
 10
23.6533516486
 20
13.6972460334
 11
15.2078919798
 21
21.3015720751
  0
LINE
  8
0
 62
7
  6
CONTINUOUS
 10
24.1731743684
 20
26.4728246013
 11
23.1966148312
 21
21.8784731989
  0
LINE
  8
0
 62
7
  6
CONTINUOUS
 10
22.4968128835
 20
18.5861638851
 11
21.810364672
 21
15.3566789607
  0
LINE
  8
0
 62
7
  6
CONTINUOUS
 10
24.8542704669
 20
14.087448211
 11
25.8105020025
 21
18.5861638851
  0
LINE
  8
0
 62
7
  6
CONTINUOUS
 10
26.5103039502
 20
21.8784731989
 11
26.9545457526
 21
23.9684665583
  0
LINE
  8
0
 62
7
  6
CONTINUOUS
 10
20.8069293463
 20
12.3891124661
 11
24.3664527239
 21
13.5456717207
  0
LINE
  8
0
 62
7
  6
CONTINUOUS
 10
23.9478910361
 20
27.1661754044
 11
26.7292624203
 21
24.6618173613
  0
ARC
  8
0
 62
7
  6
CONTINUOUS
 10
13.8527227462
 20
23.5027814928
 40
0.7290321776
 50
108.0
 51
168.0
  0
ARC
  8
0
 62
7
  6
CONTINUOUS
 10
23.4600732931
 20
26.624398914
 40
0.7290321776
 50
348.0
 51
108.0
  0
ARC
  8
0
 62
7
  6
CONTINUOUS
 10
26.2414446773
 20
24.120040871
 40
0.7290321776
 50
348.0
 51
48.0
  0
ARC
  8
0
 62
7
  6
CONTINUOUS
 10
20.581646014
 20
13.0824632691
 40
0.7290321776
 50
228.0
 51
288.0
  0
ARC
  8
0
 62
7
  6
CONTINUOUS
 10
13.0745707529
 20
19.8418641951
 40
0.7290321776
 50
108.0
 51
228.0
  0
ARC
  8
0
 62
7
  6
CONTINUOUS
 10
24.1411693916
 20
14.2390225237
 40
0.7290321776
 50
228.0
 51
348.0
  0
ENDBLK
  8
0
  6
BYBLOCK
 62
0
  0
ENDSEC
  0
SECTION
  2
ENTITIES
  0
TEXT
  8
0
 62
5
  6
CONTINUOUS
 10
96.0
 20
25.636
  7
TEXTSTYLE_2
 40
2.8
  1
Scale :
 41
0.6
 51
0.000019
 72
0
  0
TEXT
  8
0
 62
5
  6
CONTINUOUS
 10
116.0
 20
25.636
  7
TEXTSTYLE_2
 40
2.8
  1
Belt type:
 41
0.6
 51
0.000019
 72
0
  0
INSERT
  8
0
 62
2
  6
CONTINUOUS
  2
SYMBOL_3_BL0
 10
32.1213064866
 20
19.8534310916
  0
INSERT
  8
0
 62
2
  6
CONTINUOUS
  2
SYMBOL_8_BL1
 10
173.5956734183
 20
35.5937998301
  0
LINE
  8
0
 62
2
  6
CONTINUOUS
 10
10.0
 20
30.0
 11
200.0
 21
30.0
  0
LINE
  8
0
 62
2
  6
CONTINUOUS
 10
10.0
 20
30.0
 11
10.0
 21
10.0
  0
LINE
  8
0
 62
2
  6
CONTINUOUS
 10
10.0
 20
10.0
 11
200.0
 21
10.0
  0
LINE
  8
0
 62
2
  6
CONTINUOUS
 10
95.0
 20
30.0
 11
95.0
 21
10.0
  0
LINE
  8
0
 62
2
  6
CONTINUOUS
 10
115.0
 20
30.0
 11
115.0
 21
10.0
  0
LINE
  8
0
 62
2
  6
CONTINUOUS
 10
200.0
 20
30.0
 11
200.0
 21
10.0
  0
TEXT
  8
0
 62
5
  6
CONTINUOUS
 10
13.0
 20
23.303
  7
TEXTSTYLE_5
 40
1.52
  1
                                                                     Ammeraal Beltech Modular A/S
 41
1.0
 72
0
  0
TEXT
  8
0
 62
5
  6
CONTINUOUS
 10
13.0
 20
20.595
  7
TEXTSTYLE_5
 40
1.5
  1
                                                                      Hjulmagervej 21,  7100 Vejle,  DK
 41
1.0
 72
0
  0
TEXT
  8
0
 62
5
  6
CONTINUOUS
 10
13.0
 20
17.881
  7
TEXTSTYLE_5
 40
1.495
  1
                                                                      tel: 
 41
1.0
 72
0
  0
TEXT
  8
0
 62
5
  6
CONTINUOUS
 10
57.9869465649
 20
17.881
  7
TEXTSTYLE_5
 40
1.51
  1
+45 75723100     fax: +45 75723348
 41
1.0
 72
0
  0
TEXT
  8
0
 62
5
  6
CONTINUOUS
 10
13.0
 20
15.177
  7
TEXTSTYLE_5
 40
1.5
  1
                                                                      admin@unichains.dk  www.unichains.com
 41
1.0
 72
0
  0
TEXT
  8
0
 62
5
  6
CONTINUOUS
 10
99.75
 20
13.75
  7
TEXTSTYLE_6
 40
5.0
  1
1:1
 41
0.7
 72
1
 11
105.0
 21
13.75
  0
TEXT
  8
0
 62
5
  6
CONTINUOUS
 10
118.0
 20
13.75
  7
TEXTSTYLE_7
 40
7.5
  1
K600 22% Open 
 41
0.719047619
 72
0
  0
LINE
  8
0
 62
7
  6
CONTINUOUS
 10
210.0
 20
0.0
 11
0.0
 21
0.0
  0
LINE
  8
0
 62
7
  6
CONTINUOUS
 10
10.0
 20
10.0
 11
200.0
 21
10.0
  0
LINE
  8
0
 62
7
  6
CONTINUOUS
 10
10.0
 20
30.0
 11
200.0
 21
30.0
  0
LINE
  8
0
 62
7
  6
CONTINUOUS
 10
0.0
 20
0.0
 11
0.0
 21
297.0
  0
LINE
  8
0
 62
7
  6
CONTINUOUS
 10
10.0
 20
10.0
 11
10.0
 21
287.0
  0
LINE
  8
0
 62
7
  6
CONTINUOUS
 10
200.0
 20
287.0
 11
200.0
 21
10.0
  0
LINE
  8
0
 62
7
  6
CONTINUOUS
 10
210.0
 20
0.0
 11
210.0
 21
297.0
  0
LINE
  8
0
 62
7
  6
CONTINUOUS
 10
10.0
 20
287.0
 11
200.0
 21
287.0
  0
LINE
  8
0
 62
7
  6
CONTINUOUS
 10
0.0
 20
297.0
 11
210.0
 21
297.0
  0
POLYLINE
  8
0
 62
7
  6
CONTINUOUS
 66
1
 70
0
  0
VERTEX
  8
0
 62
7
  6
CONTINUOUS
 10
103.1171906751
 20
77.874180178
  0
VERTEX
  8
0
 62
7
  6
CONTINUOUS
 10
103.1427239613
 20
77.8758114099
  0
VERTEX
  8
0
 62
7
  6
CONTINUOUS
 10
103.1685744284
 20
77.8808703198
  0
VERTEX
  8
0
 62
7
  6
CONTINUOUS
 10
103.1936010735
 20
77.8892949991
  0
VERTEX
  8
0
 62
7
  6
CONTINUOUS
 10
103.2173076196
 20
77.9009306285
  0
VERTEX
  8
0
 62
7
  6
CONTINUOUS
 10
103.2392280149
 20
77.9155311806
  0
VERTEX
  8
0
 62
7
  6
CONTINUOUS
 10
103.2589476529
 20
77.9327661173
  0
VERTEX
  8
0
 62
7
  6
CONTINUOUS
 10
103.2761042602
 20
77.9522092634
  0
VERTEX
  8
0
 62
7
  6
CONTINUOUS
 10
103.2903292095
 20
77.9731933054
  0
VERTEX
  8
0
 62
7
  6
CONTINUOUS
 10
103.3014385292
 20
77.9949303804
  0
VERTEX
  8
0
 62
7
  6
CONTINUOUS
 10
103.30947664
 20
78.0166108842
  0
VERTEX
  8
0
 62
7
  6
CONTINUOUS
 10
103.3147069378
 20
78.0375219657
  0
VERTEX
  8
0
 62
7
  6
CONTINUOUS
 10
103.3175632976
 20
78.057301217
  0
VERTEX
  8
0
 62
7
  6
CONTINUOUS
 10
103.3184901523
 20
78.076892673
  0
SEQEND
  0
LINE
  8
0
 62
7
  6
CONTINUOUS
 10
103.1171917994
 20
77.8741800961
 11
48.4030349032
 21
77.8741800961
  0
LINE
  8
0
 62
7
  6
CONTINUOUS
 10
54.5484901532
 20
79.6089058328
 11
57.2884901532
 21
79.6089058328
  0
LINE
  8
0
 62
7
  6
CONTINUOUS
 10
59.9484901532
 20
79.6089058328
 11
62.6884901532
 21
79.6089058328
  0
LINE
  8
0
 62
7
  6
CONTINUOUS
 10
65.3484901532
 20
79.6089058328
 11
68.0884901532
 21
79.6089058328
  0
LINE
  8
0
 62
7
  6
CONTINUOUS
 10
70.7484901532
 20
79.6089058328
 11
73.4884901532
 21
79.6089058328
  0
LINE
  8
0
 62
7
  6
CONTINUOUS
 10
76.1484901532
 20
79.6089058328
 11
78.8884901532
 21
79.6089058328
  0
LINE
  8
0
 62
7
  6
CONTINUOUS
 10
78.8884901532
 20
84.3394543594
 11
76.1484901532
 21
84.3394543594
  0
LINE
  8
0
 62
7
  6
CONTINUOUS
 10
73.4884901532
 20
84.3394543594
 11
70.7484901532
 21
84.3394543594
  0
LINE
  8
0
 62
7
  6
CONTINUOUS
 10
68.0884901532
 20
84.3394543594
 11
65.3484901532
 21
84.3394543594
  0
LINE
  8
0
 62
7
  6
CONTINUOUS
 10
62.6884901532
 20
84.3394543594
 11
59.9484901532
 21
84.3394543594
  0
LINE
  8
0
 62
7
  6
CONTINUOUS
 10
57.2884901532
 20
84.3394543594
 11
54.5484901532
 21
84.3394543594
  0
LINE
  8
0
 62
7
  6
CONTINUOUS
 10
103.1284885737
 20
84.4740820961
 11
97.0093803832
 21
84.4740820961
  0
LINE
  8
0
 62
7
  6
CONTINUOUS
 10
92.6275999232
 20
84.4740820961
 11
91.6339451532
 21
84.4740820961
  0
LINE
  8
0
 62
7
  6
CONTINUOUS
 10
35.7184911994
 20
87.8742780961
 11
41.8275999232
 21
87.8742780961
  0
LINE
  8
0
 62
7
  6
CONTINUOUS
 10
46.2093803832
 20
87.8742780961
 11
47.2030351532
 21
87.8742780961
  0
LINE
  8
0
 62
7
  6
CONTINUOUS
 10
59.9484901532
 20
88.0089058328
 11
62.6884901532
 21
88.0089058328
  0
LINE
  8
0
 62
7
  6
CONTINUOUS
 10
65.3484901532
 20
88.0089058328
 11
68.0884901532
 21
88.0089058328
  0
LINE
  8
0
 62
7
  6
CONTINUOUS
 10
70.7484901532
 20
88.0089058328
 11
73.4884901532
 21
88.0089058328
  0
LINE
  8
0
 62
7
  6
CONTINUOUS
 10
76.1484901532
 20
88.0089058328
 11
78.8884901532
 21
88.0089058328
  0
LINE
  8
0
 62
7
  6
CONTINUOUS
 10
81.5484901532
 20
88.0089058328
 11
84.2884901532
 21
88.0089058328
  0
LINE
  8
0
 62
7
  6
CONTINUOUS
 10
84.2884901532
 20
92.7394543594
 11
81.5484901532
 21
92.7394543594
  0
LINE
  8
0
 62
7
  6
CONTINUOUS
 10
78.8884901532
 20
92.7394543594
 11
76.1484901532
 21
92.7394543594
  0
LINE
  8
0
 62
7
  6
CONTINUOUS
 10
73.4884901532
 20
92.7394543594
 11
70.7484901532
 21
92.7394543594
  0
LINE
  8
0
 62
7
  6
CONTINUOUS
 10
68.0884901532
 20
92.7394543594
 11
65.3484901532
 21
92.7394543594
  0
LINE
  8
0
 62
7
  6
CONTINUOUS
 10
62.6884901532
 20
92.7394543594
 11
59.9484901532
 21
92.7394543594
  0
LINE
  8
0
 62
7
  6
CONTINUOUS
 10
47.2030351532
 20
92.8742780961
 11
46.2093803832
 21
92.8742780961
  0
LINE
  8
0
 62
7
  6
CONTINUOUS
 10
41.8275999232
 20
92.8742780961
 11
35.7184911973
 21
92.8742780961
  0
LINE
  8
0
 62
7
  6
CONTINUOUS
 10
91.6339451532
 20
96.2740820961
 11
92.6275999232
 21
96.2740820961
  0
LINE
  8
0
 62
7
  6
CONTINUOUS
 10
97.0093803832
 20
96.2740820961
 11
103.128488563
 21
96.2740820961
  0
LINE
  8
0
 62
7
  6
CONTINUOUS
 10
54.5484901532
 20
96.4089058328
 11
57.2884901532
 21
96.4089058328
  0
LINE
  8
0
 62
7
  6
CONTINUOUS
 10
65.3484901532
 20
96.4089058328
 11
68.0884901532
 21
96.4089058328
  0
LINE
  8
0
 62
7
  6
CONTINUOUS
 10
70.7484901532
 20
96.4089058328
 11
73.4884901532
 21
96.4089058328
  0
LINE
  8
0
 62
7
  6
CONTINUOUS
 10
76.1484901532
 20
96.4089058328
 11
78.8884901532
 21
96.4089058328
  0
LINE
  8
0
 62
7
  6
CONTINUOUS
 10
78.8884901532
 20
101.1394543594
 11
76.1484901532
 21
101.1394543594
  0
LINE
  8
0
 62
7
  6
CONTINUOUS
 10
73.4884901532
 20
101.1394543594
 11
70.7484901532
 21
101.1394543594
  0
LINE
  8
0
 62
7
  6
CONTINUOUS
 10
68.0884901532
 20
101.1394543594
 11
65.3484901532
 21
101.1394543594
  0
LINE
  8
0
 62
7
  6
CONTINUOUS
 10
57.2884901532
 20
101.1394543594
 11
54.5484901532
 21
101.1394543594
  0
LINE
  8
0
 62
7
  6
CONTINUOUS
 10
103.1284901532
 20
101.2740820961
 11
97.0093803832
 21
101.2740820961
  0
LINE
  8
0
 62
7
  6
CONTINUOUS
 10
92.6275999232
 20
101.2740820961
 11
91.6339451532
 21
101.2740820961
  0
LINE
  8
0
 62
7
  6
CONTINUOUS
 10
35.7184901532
 20
104.6742780961
 11
41.8275999232
 21
104.6742780961
  0
LINE
  8
0
 62
7
  6
CONTINUOUS
 10
46.2093803832
 20
104.6742780961
 11
47.2030351532
 21
104.6742780961
  0
LINE
  8
0
 62
7
  6
CONTINUOUS
 10
59.9484901532
 20
104.8089058328
 11
62.6884901532
 21
104.8089058328
  0
LINE
  8
0
 62
7
  6
CONTINUOUS
 10
65.3484901532
 20
104.8089058328
 11
68.0884901532
 21
104.8089058328
  0
LINE
  8
0
 62
7
  6
CONTINUOUS
 10
70.7484901532
 20
104.8089058328
 11
73.4884901532
 21
104.8089058328
  0
LINE
  8
0
 62
7
  6
CONTINUOUS
 10
81.5484901532
 20
104.8089058328
 11
84.2884901532
 21
104.8089058328
  0
LINE
  8
0
 62
7
  6
CONTINUOUS
 10
84.2884901532
 20
109.5394543594
 11
81.5484901532
 21
109.5394543594
  0
LINE
  8
0
 62
7
  6
CONTINUOUS
 10
73.4884901532
 20
109.5394543594
 11
70.7484901532
 21
109.5394543594
  0
LINE
  8
0
 62
7
  6
CONTINUOUS
 10
68.0884901532
 20
109.5394543594
 11
65.3484901532
 21
109.5394543594
  0
LINE
  8
0
 62
7
  6
CONTINUOUS
 10
62.6884901532
 20
109.5394543594
 11
59.9484901532
 21
109.5394543594
  0
LINE
  8
0
 62
7
  6
CONTINUOUS
 10
47.2030351532
 20
109.6742780961
 11
46.2093803832
 21
109.6742780961
  0
LINE
  8
0
 62
7
  6
CONTINUOUS
 10
41.8275999232
 20
109.6742780961
 11
35.7184911973
 21
109.6742780961
  0
LINE
  8
0
 62
7
  6
CONTINUOUS
 10
91.6339451532
 20
113.0740820961
 11
92.6275999232
 21
113.0740820961
  0
LINE
  8
0
 62
7
  6
CONTINUOUS
 10
97.0093803832
 20
113.0740820961
 11
103.1184901532
 21
113.0740820961
  0
LINE
  8
0
 62
7
  6
CONTINUOUS
 10
54.5484901532
 20
113.2089058328
 11
57.2884901532
 21
113.2089058328
  0
LINE
  8
0
 62
7
  6
CONTINUOUS
 10
59.9484901532
 20
113.2089058328
 11
62.6884901532
 21
113.2089058328
  0
LINE
  8
0
 62
7
  6
CONTINUOUS
 10
65.3484901532
 20
113.2089058328
 11
68.0884901532
 21
113.2089058328
  0
LINE
  8
0
 62
7
  6
CONTINUOUS
 10
70.7484901532
 20
113.2089058328
 11
73.4884901532
 21
113.2089058328
  0
LINE
  8
0
 62
7
  6
CONTINUOUS
 10
76.1484901532
 20
113.2089058328
 11
78.8884901532
 21
113.2089058328
  0
LINE
  8
0
 62
7
  6
CONTINUOUS
 10
35.5184901532
 20
156.3377427415
 11
35.5184901532
 21
155.2742780961
  0
LINE
  8
0
 62
7
  6
CONTINUOUS
 10
35.5184901532
 20
105.9377427415
 11
35.5184901532
 21
104.8742780961
  0
LINE
  8
SURFACE
 62
7
  6
CONTINUOUS
 10
35.5184901532
 20
88.0742780961
 11
35.5184901532
 21
92.6742780961
  0
LINE
  8
SURFACE
 62
7
  6
CONTINUOUS
 10
35.5184901532
 20
105.9377427415
 11
35.5184901532
 21
109.4742780961
  0
LINE
  8
SURFACE
 62
7
  6
CONTINUOUS
 10
35.5184901532
 20
121.6742780961
 11
35.5184901532
 21
126.2742780961
  0
LINE
  8
SURFACE
 62
7
  6
CONTINUOUS
 10
35.5184901532
 20
138.4742780961
 11
35.5184901532
 21
143.0742780961
  0
LINE
  8
SURFACE
 62
7
  6
CONTINUOUS
 10
35.5184901532
 20
156.3377427415
 11
35.5184901532
 21
159.8742780961
  0
LINE
  8
SURFACE
 62
7
  6
CONTINUOUS
 10
35.5184901532
 20
172.0742780961
 11
35.5184901532
 21
176.6742780961
  0
LINE
  8
SURFACE
 62
7
  6
CONTINUOUS
 10
35.5184901532
 20
188.8742780961
 11
35.5184901532
 21
193.4742780961
  0
LINE
  8
0
 62
7
  6
CONTINUOUS
 10
35.5184901532
 20
205.6742780961
 11
35.5184901532
 21
210.2742780961
  0
LINE
  8
SURFACE
 62
7
  6
CONTINUOUS
 10
35.5184901532
 20
222.4742780961
 11
35.5184901532
 21
228.6713648726
  0
LINE
  8
0
 62
7
  6
CONTINUOUS
 10
78.8884901532
 20
117.9394543594
 11
76.1484901532
 21
117.9394543594
  0
LINE
  8
0
 62
7
  6
CONTINUOUS
 10
73.4884901532
 20
117.9394543594
 11
70.7484901532
 21
117.9394543594
  0
LINE
  8
0
 62
7
  6
CONTINUOUS
 10
68.0884901532
 20
117.9394543594
 11
65.3484901532
 21
117.9394543594
  0
LINE
  8
0
 62
7
  6
CONTINUOUS
 10
62.6884901532
 20
117.9394543594
 11
59.9484901532
 21
117.9394543594
  0
LINE
  8
0
 62
7
  6
CONTINUOUS
 10
57.2884901532
 20
117.9394543594
 11
54.5484901532
 21
117.9394543594
  0
LINE
  8
0
 62
7
  6
CONTINUOUS
 10
103.1184901532
 20
118.0740820961
 11
97.0093803832
 21
118.0740820961
  0
LINE
  8
0
 62
7
  6
CONTINUOUS
 10
92.6275999232
 20
118.0740820961
 11
91.6339451532
 21
118.0740820961
  0
LINE
  8
0
 62
7
  6
CONTINUOUS
 10
35.7184911994
 20
121.4742780961
 11
41.8275999232
 21
121.4742780961
  0
LINE
  8
0
 62
7
  6
CONTINUOUS
 10
46.2093803832
 20
121.4742780961
 11
47.2030351532
 21
121.4742780961
  0
LINE
  8
0
 62
7
  6
CONTINUOUS
 10
59.9484901532
 20
121.6089058328
 11
62.6884901532
 21
121.6089058328
  0
LINE
  8
0
 62
7
  6
CONTINUOUS
 10
65.3484901532
 20
121.6089058328
 11
68.0884901532
 21
121.6089058328
  0
LINE
  8
0
 62
7
  6
CONTINUOUS
 10
70.7484901532
 20
121.6089058328
 11
73.4884901532
 21
121.6089058328
  0
LINE
  8
0
 62
7
  6
CONTINUOUS
 10
76.1484901532
 20
121.6089058328
 11
78.8884901532
 21
121.6089058328
  0
LINE
  8
0
 62
7
  6
CONTINUOUS
 10
81.5484901532
 20
121.6089058328
 11
84.2884901532
 21
121.6089058328
  0
POLYLINE
  8
0
 62
7
  6
CONTINUOUS
 66
1
 70
0
  0
VERTEX
  8
0
 62
7
  6
CONTINUOUS
 10
48.2030349032
 20
78.0741800961
  0
VERTEX
  8
0
 62
7
  6
CONTINUOUS
 10
48.2047582594
 20
78.0479813841
  0
VERTEX
  8
0
 62
7
  6
CONTINUOUS
 10
48.2098850314
 20
78.0222847495
  0
VERTEX
  8
0
 62
7
  6
CONTINUOUS
 10
48.218326747
 20
77.9974800502
  0
VERTEX
  8
0
 62
7
  6
CONTINUOUS
 10
48.2298980466
 20
77.9740620214
  0
VERTEX
  8
0
 62
7
  6
CONTINUOUS
 10
48.2444114672
 20
77.952366281
  0
VERTEX
  8
0
 62
7
  6
CONTINUOUS
 10
48.2616575027
 20
77.9327147979
  0
VERTEX
  8
0
 62
7
  6
CONTINUOUS
 10
48.2812620354
 20
77.9155252233
  0
VERTEX
  8
0
 62
7
  6
CONTINUOUS
 10
48.3029598573
 20
77.9010183648
  0
VERTEX
  8
0
 62
7
  6
CONTINUOUS
 10
48.3264237194
 20
77.889435065
  0
VERTEX
  8
0
 62
7
  6
CONTINUOUS
 10
48.3511611236
 20
77.8810244309
  0
VERTEX
  8
0
 62
7
  6
CONTINUOUS
 10
48.3768546175
 20
77.8759010185
  0
VERTEX
  8
0
 62
7
  6
CONTINUOUS
 10
48.4030349032
 20
77.8741800961
  0
SEQEND
  0
LINE
  8
DEFAULT_1
 62
2
  6
CENTER
 10
44.0184901532
 20
86.7241800961
 11
44.0184901532
 21
230.8741800961
  0
LINE
  8
0
 62
7
  6
CONTINUOUS
 10
84.2884901532
 20
126.3394543594
 11
81.5484901532
 21
126.3394543594
  0
LINE
  8
0
 62
7
  6
CONTINUOUS
 10
78.8884901532
 20
126.3394543594
 11
76.1484901532
 21
126.3394543594
  0
LINE
  8
0
 62
7
  6
CONTINUOUS
 10
73.4884901532
 20
126.3394543594
 11
70.7484901532
 21
126.3394543594
  0
LINE
  8
0
 62
7
  6
CONTINUOUS
 10
68.0884901532
 20
126.3394543594
 11
65.3484901532
 21
126.3394543594
  0
LINE
  8
0
 62
7
  6
CONTINUOUS
 10
62.6884901532
 20
126.3394543594
 11
59.9484901532
 21
126.3394543594
  0
LINE
  8
0
 62
7
  6
CONTINUOUS
 10
47.2030351532
 20
126.4742780961
 11
46.2093803832
 21
126.4742780961
  0
LINE
  8
0
 62
7
  6
CONTINUOUS
 10
41.8275999232
 20
126.4742780961
 11
35.7184911973
 21
126.4742780961
  0
LINE
  8
0
 62
7
  6
CONTINUOUS
 10
91.6339451532
 20
129.8740820961
 11
92.6275999232
 21
129.8740820961
  0
LINE
  8
0
 62
7
  6
CONTINUOUS
 10
97.0093803832
 20
129.8740820961
 11
103.1184887858
 21
129.8740820961
  0
LINE
  8
0
 62
7
  6
CONTINUOUS
 10
54.5484901532
 20
130.0089058328
 11
57.2884901532
 21
130.0089058328
  0
LINE
  8
0
 62
7
  6
CONTINUOUS
 10
59.9484901532
 20
130.0089058328
 11
62.6884901532
 21
130.0089058328
  0
LINE
  8
0
 62
7
  6
CONTINUOUS
 10
65.3484901532
 20
130.0089058328
 11
68.0884901532
 21
130.0089058328
  0
LINE
  8
0
 62
7
  6
CONTINUOUS
 10
70.7484901532
 20
130.0089058328
 11
73.4884901532
 21
130.0089058328
  0
LINE
  8
0
 62
7
  6
CONTINUOUS
 10
76.1484901532
 20
130.0089058328
 11
78.8884901532
 21
130.0089058328
  0
LINE
  8
0
 62
7
  6
CONTINUOUS
 10
48.2030351532
 20
221.2742780961
 11
48.2030351532
 21
220.2866517912
  0
LINE
  8
0
 62
7
  6
CONTINUOUS
 10
48.2030351532
 20
212.4618625837
 11
48.2030351532
 21
211.4742780961
  0
LINE
  8
0
 62
7
  6
CONTINUOUS
 10
48.2030351532
 20
204.4742780961
 11
48.2030351532
 21
203.4866543272
  0
LINE
  8
0
 62
7
  6
CONTINUOUS
 10
48.2030351532
 20
195.6618625837
 11
48.2030351532
 21
194.6742780961
  0
LINE
  8
0
 62
7
  6
CONTINUOUS
 10
48.2030351532
 20
187.6742780961
 11
48.2030351532
 21
186.6866517912
  0
LINE
  8
0
 62
7
  6
CONTINUOUS
 10
48.2030351532
 20
178.8618625837
 11
48.2030351532
 21
177.8742780961
  0
LINE
  8
0
 62
7
  6
CONTINUOUS
 10
48.2030351532
 20
170.8742780961
 11
48.2030351532
 21
169.8866517912
  0
LINE
  8
0
 62
7
  6
CONTINUOUS
 10
48.2030351532
 20
162.0618625837
 11
48.2030351532
 21
161.0742780961
  0
LINE
  8
0
 62
7
  6
CONTINUOUS
 10
48.2030351532
 20
154.0742780961
 11
48.2030351532
 21
153.0866543272
  0
LINE
  8
0
 62
7
  6
CONTINUOUS
 10
48.2030351532
 20
145.2618625837
 11
48.2030351532
 21
144.2742780961
  0
LINE
  8
0
 62
7
  6
CONTINUOUS
 10
48.2030351532
 20
137.2742780961
 11
48.2030351532
 21
136.2866517912
  0
LINE
  8
0
 62
7
  6
CONTINUOUS
 10
48.2030351532
 20
128.4618625837
 11
48.2030351532
 21
127.4742780961
  0
LINE
  8
0
 62
7
  6
CONTINUOUS
 10
48.2030351532
 20
120.4742780961
 11
48.2030351532
 21
119.4866517912
  0
LINE
  8
0
 62
7
  6
CONTINUOUS
 10
48.2030351532
 20
111.6618625837
 11
48.2030351532
 21
110.6742780961
  0
LINE
  8
0
 62
7
  6
CONTINUOUS
 10
48.2030351532
 20
103.6742780961
 11
48.2030351532
 21
102.6866543272
  0
LINE
  8
0
 62
7
  6
CONTINUOUS
 10
48.2030351532
 20
94.8618625837
 11
48.2030351532
 21
93.8742780961
  0
LINE
  8
0
 62
7
  6
CONTINUOUS
 10
48.2030351532
 20
86.8742780961
 11
48.2030351532
 21
85.8866517912
  0
LINE
  8
SURFACE
 62
7
  6
CONTINUOUS
 10
48.2030349032
 20
78.0741800961
 11
48.2030349032
 21
85.886654643
  0
LINE
  8
SURFACE
 62
7
  6
CONTINUOUS
 10
48.2030349032
 20
94.8618598152
 11
48.2030349032
 21
102.6866545228
  0
LINE
  8
SURFACE
 62
7
  6
CONTINUOUS
 10
48.2030349032
 20
111.6618598152
 11
48.2030349032
 21
119.486654643
  0
LINE
  8
SURFACE
 62
7
  6
CONTINUOUS
 10
48.2030349032
 20
128.4618598152
 11
48.2030349032
 21
136.286654643
  0
LINE
  8
SURFACE
 62
7
  6
CONTINUOUS
 10
48.2030349032
 20
145.2618598152
 11
48.2030349032
 21
153.0866545228
  0
LINE
  8
SURFACE
 62
7
  6
CONTINUOUS
 10
48.2030349032
 20
162.0618598152
 11
48.2030349032
 21
169.886654643
  0
LINE
  8
SURFACE
 62
7
  6
CONTINUOUS
 10
48.2030349032
 20
178.8618598152
 11
48.2030349032
 21
186.686654643
  0
LINE
  8
SURFACE
 62
7
  6
CONTINUOUS
 10
48.2030349032
 20
195.6618598152
 11
48.2030349032
 21
203.4866545228
  0
LINE
  8
SURFACE
 62
7
  6
CONTINUOUS
 10
48.2030349032
 20
212.4618598152
 11
48.2030349032
 21
220.286654643
  0
LINE
  8
0
 62
7
  6
CONTINUOUS
 10
78.8884901532
 20
134.7394543594
 11
76.1484901532
 21
134.7394543594
  0
LINE
  8
0
 62
7
  6
CONTINUOUS
 10
73.4884901532
 20
134.7394543594
 11
70.7484901532
 21
134.7394543594
  0
LINE
  8
0
 62
7
  6
CONTINUOUS
 10
68.0884901532
 20
134.7394543594
 11
65.3484901532
 21
134.7394543594
  0
LINE
  8
0
 62
7
  6
CONTINUOUS
 10
62.6884901532
 20
134.7394543594
 11
59.9484901532
 21
134.7394543594
  0
LINE
  8
0
 62
7
  6
CONTINUOUS
 10
57.2884901532
 20
134.7394543594
 11
54.5484901532
 21
134.7394543594
  0
LINE
  8
0
 62
7
  6
CONTINUOUS
 10
103.1184887928
 20
134.8740820961
 11
97.0093803832
 21
134.8740820961
  0
LINE
  8
0
 62
7
  6
CONTINUOUS
 10
92.6275999232
 20
134.8740820961
 11
91.6339451532
 21
134.8740820961
  0
LINE
  8
0
 62
7
  6
CONTINUOUS
 10
54.0484901532
 20
151.1441800961
 11
54.0484901532
 21
147.2041800961
  0
LINE
  8
0
 62
7
  6
CONTINUOUS
 10
54.1532158899
 20
218.3441800961
 11
54.1532158899
 21
214.4041800961
  0
LINE
  8
0
 62
7
  6
CONTINUOUS
 10
54.1532158899
 20
201.5441800961
 11
54.1532158899
 21
197.6041800961
  0
LINE
  8
0
 62
7
  6
CONTINUOUS
 10
54.1532158899
 20
184.7441800961
 11
54.1532158899
 21
180.8041800961
  0
LINE
  8
0
 62
7
  6
CONTINUOUS
 10
54.1532158899
 20
167.9441800961
 11
54.1532158899
 21
164.0041800961
  0
LINE
  8
0
 62
7
  6
CONTINUOUS
 10
54.1532158899
 20
134.3441800961
 11
54.1532158899
 21
130.4041800961
  0
LINE
  8
0
 62
7
  6
CONTINUOUS
 10
54.1532158899
 20
117.5441800961
 11
54.1532158899
 21
113.6041800961
  0
LINE
  8
0
 62
7
  6
CONTINUOUS
 10
54.1532158899
 20
100.7441800961
 11
54.1532158899
 21
96.8041800961
  0
LINE
  8
0
 62
7
  6
CONTINUOUS
 10
54.1532158899
 20
83.9441800961
 11
54.1532158899
 21
80.0041800961
  0
LINE
  8
0
 62
7
  6
CONTINUOUS
 10
57.6837644165
 20
80.0041800961
 11
57.6837644165
 21
83.9441800961
  0
LINE
  8
0
 62
7
  6
CONTINUOUS
 10
57.6837644165
 20
96.8041800961
 11
57.6837644165
 21
100.7441800961
  0
LINE
  8
0
 62
7
  6
CONTINUOUS
 10
57.6837644165
 20
113.6041800961
 11
57.6837644165
 21
117.5441800961
  0
LINE
  8
0
 62
7
  6
CONTINUOUS
 10
57.6837644165
 20
130.4041800961
 11
57.6837644165
 21
134.3441800961
  0
LINE
  8
0
 62
7
  6
CONTINUOUS
 10
57.6837644165
 20
164.0041800961
 11
57.6837644165
 21
167.9441800961
  0
LINE
  8
0
 62
7
  6
CONTINUOUS
 10
57.6837644165
 20
180.8041800961
 11
57.6837644165
 21
184.7441800961
  0
LINE
  8
0
 62
7
  6
CONTINUOUS
 10
57.6837644165
 20
197.6041800961
 11
57.6837644165
 21
201.5441800961
  0
LINE
  8
0
 62
7
  6
CONTINUOUS
 10
57.6837644165
 20
214.4041800961
 11
57.6837644165
 21
218.3441800961
  0
LINE
  8
0
 62
7
  6
CONTINUOUS
 10
57.7884901532
 20
147.2041800961
 11
57.7884901532
 21
151.1441800961
  0
LINE
  8
0
 62
7
  6
CONTINUOUS
 10
35.7184911994
 20
138.2742780961
 11
41.8275999232
 21
138.2742780961
  0
LINE
  8
0
 62
7
  6
CONTINUOUS
 10
46.2093803832
 20
138.2742780961
 11
47.2030351532
 21
138.2742780961
  0
LINE
  8
0
 62
7
  6
CONTINUOUS
 10
59.9484901532
 20
138.4089058328
 11
62.6884901532
 21
138.4089058328
  0
LINE
  8
0
 62
7
  6
CONTINUOUS
 10
65.3484901532
 20
138.4089058328
 11
68.0884901532
 21
138.4089058328
  0
LINE
  8
0
 62
7
  6
CONTINUOUS
 10
70.7484901532
 20
138.4089058328
 11
73.4884901532
 21
138.4089058328
  0
LINE
  8
0
 62
7
  6
CONTINUOUS
 10
76.1484901532
 20
138.4089058328
 11
78.8884901532
 21
138.4089058328
  0
LINE
  8
0
 62
7
  6
CONTINUOUS
 10
81.5484901532
 20
138.4089058328
 11
84.2884901532
 21
138.4089058328
  0
LINE
  8
0
 62
7
  6
CONTINUOUS
 10
59.4484901532
 20
159.5441800961
 11
59.4484901532
 21
155.6041800961
  0
LINE
  8
0
 62
7
  6
CONTINUOUS
 10
59.5532158899
 20
226.7441800961
 11
59.5532158899
 21
222.8041800961
  0
LINE
  8
0
 62
7
  6
CONTINUOUS
 10
59.5532158899
 20
218.3441800961
 11
59.5532158899
 21
214.4041800961
  0
LINE
  8
0
 62
7
  6
CONTINUOUS
 10
59.5532158899
 20
209.9441800961
 11
59.5532158899
 21
206.0041800961
  0
LINE
  8
0
 62
7
  6
CONTINUOUS
 10
59.5532158899
 20
193.1441800961
 11
59.5532158899
 21
189.2041800961
  0
LINE
  8
0
 62
7
  6
CONTINUOUS
 10
59.5532158899
 20
184.7441800961
 11
59.5532158899
 21
180.8041800961
  0
LINE
  8
0
 62
7
  6
CONTINUOUS
 10
59.5532158899
 20
176.3441800961
 11
59.5532158899
 21
172.4041800961
  0
LINE
  8
0
 62
7
  6
CONTINUOUS
 10
59.5532158899
 20
167.9441800961
 11
59.5532158899
 21
164.0041800961
  0
LINE
  8
0
 62
7
  6
CONTINUOUS
 10
59.5532158899
 20
142.7441800961
 11
59.5532158899
 21
138.8041800961
  0
LINE
  8
0
 62
7
  6
CONTINUOUS
 10
59.5532158899
 20
134.3441800961
 11
59.5532158899
 21
130.4041800961
  0
LINE
  8
0
 62
7
  6
CONTINUOUS
 10
59.5532158899
 20
125.9441800961
 11
59.5532158899
 21
122.0041800961
  0
LINE
  8
0
 62
7
  6
CONTINUOUS
 10
59.5532158899
 20
117.5441800961
 11
59.5532158899
 21
113.6041800961
  0
LINE
  8
0
 62
7
  6
CONTINUOUS
 10
59.5532158899
 20
109.1441800961
 11
59.5532158899
 21
105.2041800961
  0
LINE
  8
0
 62
7
  6
CONTINUOUS
 10
59.5532158899
 20
92.3441800961
 11
59.5532158899
 21
88.4041800961
  0
LINE
  8
0
 62
7
  6
CONTINUOUS
 10
59.5532158899
 20
83.9441800961
 11
59.5532158899
 21
80.0041800961
  0
LINE
  8
0
 62
7
  6
CONTINUOUS
 10
63.0837644165
 20
80.0041800961
 11
63.0837644165
 21
83.9441800961
  0
LINE
  8
0
 62
7
  6
CONTINUOUS
 10
63.0837644165
 20
88.4041800961
 11
63.0837644165
 21
92.3441800961
  0
LINE
  8
0
 62
7
  6
CONTINUOUS
 10
63.0837644165
 20
105.2041800961
 11
63.0837644165
 21
109.1441800961
  0
LINE
  8
0
 62
7
  6
CONTINUOUS
 10
63.0837644165
 20
113.6041800961
 11
63.0837644165
 21
117.5441800961
  0
LINE
  8
0
 62
7
  6
CONTINUOUS
 10
63.0837644165
 20
122.0041800961
 11
63.0837644165
 21
125.9441800961
  0
LINE
  8
0
 62
7
  6
CONTINUOUS
 10
63.0837644165
 20
130.4041800961
 11
63.0837644165
 21
134.3441800961
  0
LINE
  8
0
 62
7
  6
CONTINUOUS
 10
63.0837644165
 20
138.8041800961
 11
63.0837644165
 21
142.7441800961
  0
LINE
  8
0
 62
7
  6
CONTINUOUS
 10
63.0837644165
 20
164.0041800961
 11
63.0837644165
 21
167.9441800961
  0
LINE
  8
0
 62
7
  6
CONTINUOUS
 10
63.0837644165
 20
172.4041800961
 11
63.0837644165
 21
176.3441800961
  0
LINE
  8
0
 62
7
  6
CONTINUOUS
 10
63.0837644165
 20
180.8041800961
 11
63.0837644165
 21
184.7441800961
  0
LINE
  8
0
 62
7
  6
CONTINUOUS
 10
63.0837644165
 20
189.2041800961
 11
63.0837644165
 21
193.1441800961
  0
LINE
  8
0
 62
7
  6
CONTINUOUS
 10
63.0837644165
 20
206.0041800961
 11
63.0837644165
 21
209.9441800961
  0
LINE
  8
0
 62
7
  6
CONTINUOUS
 10
63.0837644165
 20
214.4041800961
 11
63.0837644165
 21
218.3441800961
  0
LINE
  8
0
 62
7
  6
CONTINUOUS
 10
63.0837644165
 20
222.8041800961
 11
63.0837644165
 21
226.7441800961
  0
LINE
  8
0
 62
7
  6
CONTINUOUS
 10
63.1884901532
 20
155.6041800961
 11
63.1884901532
 21
159.5441800961
  0
LINE
  8
0
 62
7
  6
CONTINUOUS
 10
84.2884901532
 20
143.1394543594
 11
81.5484901532
 21
143.1394543594
  0
LINE
  8
0
 62
7
  6
CONTINUOUS
 10
78.8884901532
 20
143.1394543594
 11
76.1484901532
 21
143.1394543594
  0
LINE
  8
0
 62
7
  6
CONTINUOUS
 10
73.4884901532
 20
143.1394543594
 11
70.7484901532
 21
143.1394543594
  0
LINE
  8
0
 62
7
  6
CONTINUOUS
 10
68.0884901532
 20
143.1394543594
 11
65.3484901532
 21
143.1394543594
  0
LINE
  8
0
 62
7
  6
CONTINUOUS
 10
62.6884901532
 20
143.1394543594
 11
59.9484901532
 21
143.1394543594
  0
LINE
  8
0
 62
7
  6
CONTINUOUS
 10
47.2030351532
 20
143.2742780961
 11
46.2093803832
 21
143.2742780961
  0
LINE
  8
0
 62
7
  6
CONTINUOUS
 10
41.8275999232
 20
143.2742780961
 11
35.7184911973
 21
143.2742780961
  0
LINE
  8
0
 62
7
  6
CONTINUOUS
 10
91.6339451532
 20
146.6740820961
 11
92.6275999232
 21
146.6740820961
  0
LINE
  8
0
 62
7
  6
CONTINUOUS
 10
97.0093803832
 20
146.6740820961
 11
103.1184887858
 21
146.6740820961
  0
LINE
  8
0
 62
7
  6
CONTINUOUS
 10
54.5484901532
 20
146.7041800961
 11
57.2884901532
 21
146.7041800961
  0
LINE
  8
0
 62
7
  6
CONTINUOUS
 10
76.1484901532
 20
146.7041800961
 11
78.8884901532
 21
146.7041800961
  0
LINE
  8
0
 62
7
  6
CONTINUOUS
 10
65.3484901532
 20
146.8089058328
 11
68.0884901532
 21
146.8089058328
  0
LINE
  8
0
 62
7
  6
CONTINUOUS
 10
70.7484901532
 20
146.8089058328
 11
73.4884901532
 21
146.8089058328
  0
LINE
  8
0
 62
7
  6
CONTINUOUS
 10
64.9532158899
 20
226.7441800961
 11
64.9532158899
 21
222.8041800961
  0
LINE
  8
0
 62
7
  6
CONTINUOUS
 10
64.9532158899
 20
218.3441800961
 11
64.9532158899
 21
214.4041800961
  0
LINE
  8
0
 62
7
  6
CONTINUOUS
 10
64.9532158899
 20
209.9441800961
 11
64.9532158899
 21
206.0041800961
  0
LINE
  8
0
 62
7
  6
CONTINUOUS
 10
64.9532158899
 20
201.5441800961
 11
64.9532158899
 21
197.6041800961
  0
LINE
  8
0
 62
7
  6
CONTINUOUS
 10
64.9532158899
 20
193.1441800961
 11
64.9532158899
 21
189.2041800961
  0
LINE
  8
0
 62
7
  6
CONTINUOUS
 10
64.9532158899
 20
184.7441800961
 11
64.9532158899
 21
180.8041800961
  0
LINE
  8
0
 62
7
  6
CONTINUOUS
 10
64.9532158899
 20
176.3441800961
 11
64.9532158899
 21
172.4041800961
  0
LINE
  8
0
 62
7
  6
CONTINUOUS
 10
64.9532158899
 20
167.9441800961
 11
64.9532158899
 21
164.0041800961
  0
LINE
  8
0
 62
7
  6
CONTINUOUS
 10
64.9532158899
 20
159.5441800961
 11
64.9532158899
 21
155.6041800961
  0
LINE
  8
0
 62
7
  6
CONTINUOUS
 10
64.9532158899
 20
151.1441800961
 11
64.9532158899
 21
147.2041800961
  0
LINE
  8
0
 62
7
  6
CONTINUOUS
 10
64.9532158899
 20
142.7441800961
 11
64.9532158899
 21
138.8041800961
  0
LINE
  8
0
 62
7
  6
CONTINUOUS
 10
64.9532158899
 20
134.3441800961
 11
64.9532158899
 21
130.4041800961
  0
LINE
  8
0
 62
7
  6
CONTINUOUS
 10
64.9532158899
 20
125.9441800961
 11
64.9532158899
 21
122.0041800961
  0
LINE
  8
0
 62
7
  6
CONTINUOUS
 10
64.9532158899
 20
117.5441800961
 11
64.9532158899
 21
113.6041800961
  0
LINE
  8
0
 62
7
  6
CONTINUOUS
 10
64.9532158899
 20
109.1441800961
 11
64.9532158899
 21
105.2041800961
  0
LINE
  8
0
 62
7
  6
CONTINUOUS
 10
64.9532158899
 20
100.7441800961
 11
64.9532158899
 21
96.8041800961
  0
LINE
  8
0
 62
7
  6
CONTINUOUS
 10
64.9532158899
 20
92.3441800961
 11
64.9532158899
 21
88.4041800961
  0
LINE
  8
0
 62
7
  6
CONTINUOUS
 10
64.9532158899
 20
83.9441800961
 11
64.9532158899
 21
80.0041800961
  0
LINE
  8
0
 62
7
  6
CONTINUOUS
 10
68.4837644165
 20
80.0041800961
 11
68.4837644165
 21
83.9441800961
  0
LINE
  8
0
 62
7
  6
CONTINUOUS
 10
68.4837644165
 20
88.4041800961
 11
68.4837644165
 21
92.3441800961
  0
LINE
  8
0
 62
7
  6
CONTINUOUS
 10
68.4837644165
 20
96.8041800961
 11
68.4837644165
 21
100.7441800961
  0
LINE
  8
0
 62
7
  6
CONTINUOUS
 10
68.4837644165
 20
105.2041800961
 11
68.4837644165
 21
109.1441800961
  0
LINE
  8
0
 62
7
  6
CONTINUOUS
 10
68.4837644165
 20
113.6041800961
 11
68.4837644165
 21
117.5441800961
  0
LINE
  8
0
 62
7
  6
CONTINUOUS
 10
68.4837644165
 20
122.0041800961
 11
68.4837644165
 21
125.9441800961
  0
LINE
  8
0
 62
7
  6
CONTINUOUS
 10
68.4837644165
 20
130.4041800961
 11
68.4837644165
 21
134.3441800961
  0
LINE
  8
0
 62
7
  6
CONTINUOUS
 10
68.4837644165
 20
138.8041800961
 11
68.4837644165
 21
142.7441800961
  0
LINE
  8
0
 62
7
  6
CONTINUOUS
 10
68.4837644165
 20
147.2041800961
 11
68.4837644165
 21
151.1441800961
  0
LINE
  8
0
 62
7
  6
CONTINUOUS
 10
68.4837644165
 20
155.6041800961
 11
68.4837644165
 21
159.5441800961
  0
LINE
  8
0
 62
7
  6
CONTINUOUS
 10
68.4837644165
 20
164.0041800961
 11
68.4837644165
 21
167.9441800961
  0
LINE
  8
0
 62
7
  6
CONTINUOUS
 10
68.4837644165
 20
172.4041800961
 11
68.4837644165
 21
176.3441800961
  0
LINE
  8
0
 62
7
  6
CONTINUOUS
 10
68.4837644165
 20
180.8041800961
 11
68.4837644165
 21
184.7441800961
  0
LINE
  8
0
 62
7
  6
CONTINUOUS
 10
68.4837644165
 20
189.2041800961
 11
68.4837644165
 21
193.1441800961
  0
LINE
  8
0
 62
7
  6
CONTINUOUS
 10
68.4837644165
 20
197.6041800961
 11
68.4837644165
 21
201.5441800961
  0
LINE
  8
0
 62
7
  6
CONTINUOUS
 10
68.4837644165
 20
206.0041800961
 11
68.4837644165
 21
209.9441800961
  0
LINE
  8
0
 62
7
  6
CONTINUOUS
 10
68.4837644165
 20
214.4041800961
 11
68.4837644165
 21
218.3441800961
  0
LINE
  8
0
 62
7
  6
CONTINUOUS
 10
68.4837644165
 20
222.8041800961
 11
68.4837644165
 21
226.7441800961
  0
LINE
  8
DEFAULT_1
 62
2
  6
CENTER
 10
69.4184901532
 20
157.7741800961
 11
69.4184901532
 21
155.3742800961
  0
LINE
  8
0
 62
2
  6
CONTINUOUS
 10
69.4184901532
 20
154.2541800961
 11
69.4184901532
 21
152.4941800961
  0
LINE
  8
DEFAULT_1
 62
2
  6
CENTER
 10
69.4184901532
 20
148.9741800961
 11
69.4184901532
 21
151.3740800961
  0
LINE
  8
0
 62
7
  6
CONTINUOUS
 10
73.4884901532
 20
151.5394543594
 11
70.7484901532
 21
151.5394543594
  0
LINE
  8
0
 62
7
  6
CONTINUOUS
 10
68.0884901532
 20
151.5394543594
 11
65.3484901532
 21
151.5394543594
  0
LINE
  8
0
 62
7
  6
CONTINUOUS
 10
78.8884901532
 20
151.6441800961
 11
76.1484901532
 21
151.6441800961
  0
LINE
  8
0
 62
7
  6
CONTINUOUS
 10
57.2884901532
 20
151.6441800961
 11
54.5484901532
 21
151.6441800961
  0
LINE
  8
0
 62
7
  6
CONTINUOUS
 10
103.1184901532
 20
151.6740820961
 11
97.0093803832
 21
151.6740820961
  0
LINE
  8
0
 62
7
  6
CONTINUOUS
 10
92.6275999232
 20
151.6740820961
 11
91.6339451532
 21
151.6740820961
  0
LINE
  8
DEFAULT_1
 62
2
  6
CENTER
 10
73.8184901532
 20
153.3741800961
 11
71.4185901532
 21
153.3741800961
  0
LINE
  8
0
 62
2
  6
CONTINUOUS
 10
70.2984901532
 20
153.3741800961
 11
68.5384901532
 21
153.3741800961
  0
LINE
  8
DEFAULT_1
 62
2
  6
CENTER
 10
65.0184901532
 20
153.3741800961
 11
67.4183901532
 21
153.3741800961
  0
LINE
  8
0
 62
7
  6
CONTINUOUS
 10
70.3532158899
 20
226.7441800961
 11
70.3532158899
 21
222.8041800961
  0
LINE
  8
0
 62
7
  6
CONTINUOUS
 10
70.3532158899
 20
218.3441800961
 11
70.3532158899
 21
214.4041800961
  0
LINE
  8
0
 62
7
  6
CONTINUOUS
 10
70.3532158899
 20
209.9441800961
 11
70.3532158899
 21
206.0041800961
  0
LINE
  8
0
 62
7
  6
CONTINUOUS
 10
70.3532158899
 20
201.5441800961
 11
70.3532158899
 21
197.6041800961
  0
LINE
  8
0
 62
7
  6
CONTINUOUS
 10
70.3532158899
 20
193.1441800961
 11
70.3532158899
 21
189.2041800961
  0
LINE
  8
0
 62
7
  6
CONTINUOUS
 10
70.3532158899
 20
184.7441800961
 11
70.3532158899
 21
180.8041800961
  0
LINE
  8
0
 62
7
  6
CONTINUOUS
 10
70.3532158899
 20
176.3441800961
 11
70.3532158899
 21
172.4041800961
  0
LINE
  8
0
 62
7
  6
CONTINUOUS
 10
70.3532158899
 20
167.9441800961
 11
70.3532158899
 21
164.0041800961
  0
LINE
  8
0
 62
7
  6
CONTINUOUS
 10
70.3532158899
 20
159.5441800961
 11
70.3532158899
 21
155.6041800961
  0
LINE
  8
0
 62
7
  6
CONTINUOUS
 10
70.3532158899
 20
151.1441800961
 11
70.3532158899
 21
147.2041800961
  0
LINE
  8
0
 62
7
  6
CONTINUOUS
 10
70.3532158899
 20
142.7441800961
 11
70.3532158899
 21
138.8041800961
  0
LINE
  8
0
 62
7
  6
CONTINUOUS
 10
70.3532158899
 20
134.3441800961
 11
70.3532158899
 21
130.4041800961
  0
LINE
  8
0
 62
7
  6
CONTINUOUS
 10
70.3532158899
 20
125.9441800961
 11
70.3532158899
 21
122.0041800961
  0
LINE
  8
0
 62
7
  6
CONTINUOUS
 10
70.3532158899
 20
117.5441800961
 11
70.3532158899
 21
113.6041800961
  0
LINE
  8
0
 62
7
  6
CONTINUOUS
 10
70.3532158899
 20
109.1441800961
 11
70.3532158899
 21
105.2041800961
  0
LINE
  8
0
 62
7
  6
CONTINUOUS
 10
70.3532158899
 20
100.7441800961
 11
70.3532158899
 21
96.8041800961
  0
LINE
  8
0
 62
7
  6
CONTINUOUS
 10
70.3532158899
 20
92.3441800961
 11
70.3532158899
 21
88.4041800961
  0
LINE
  8
0
 62
7
  6
CONTINUOUS
 10
70.3532158899
 20
83.9441800961
 11
70.3532158899
 21
80.0041800961
  0
LINE
  8
0
 62
7
  6
CONTINUOUS
 10
73.8837644165
 20
80.0041800961
 11
73.8837644165
 21
83.9441800961
  0
LINE
  8
0
 62
7
  6
CONTINUOUS
 10
73.8837644165
 20
88.4041800961
 11
73.8837644165
 21
92.3441800961
  0
LINE
  8
0
 62
7
  6
CONTINUOUS
 10
73.8837644165
 20
96.8041800961
 11
73.8837644165
 21
100.7441800961
  0
LINE
  8
0
 62
7
  6
CONTINUOUS
 10
73.8837644165
 20
105.2041800961
 11
73.8837644165
 21
109.1441800961
  0
LINE
  8
0
 62
7
  6
CONTINUOUS
 10
73.8837644165
 20
113.6041800961
 11
73.8837644165
 21
117.5441800961
  0
LINE
  8
0
 62
7
  6
CONTINUOUS
 10
73.8837644165
 20
122.0041800961
 11
73.8837644165
 21
125.9441800961
  0
LINE
  8
0
 62
7
  6
CONTINUOUS
 10
73.8837644165
 20
130.4041800961
 11
73.8837644165
 21
134.3441800961
  0
LINE
  8
0
 62
7
  6
CONTINUOUS
 10
73.8837644165
 20
138.8041800961
 11
73.8837644165
 21
142.7441800961
  0
LINE
  8
0
 62
7
  6
CONTINUOUS
 10
73.8837644165
 20
147.2041800961
 11
73.8837644165
 21
151.1441800961
  0
LINE
  8
0
 62
7
  6
CONTINUOUS
 10
73.8837644165
 20
155.6041800961
 11
73.8837644165
 21
159.5441800961
  0
LINE
  8
0
 62
7
  6
CONTINUOUS
 10
73.8837644165
 20
164.0041800961
 11
73.8837644165
 21
167.9441800961
  0
LINE
  8
0
 62
7
  6
CONTINUOUS
 10
73.8837644165
 20
172.4041800961
 11
73.8837644165
 21
176.3441800961
  0
LINE
  8
0
 62
7
  6
CONTINUOUS
 10
73.8837644165
 20
180.8041800961
 11
73.8837644165
 21
184.7441800961
  0
LINE
  8
0
 62
7
  6
CONTINUOUS
 10
73.8837644165
 20
189.2041800961
 11
73.8837644165
 21
193.1441800961
  0
LINE
  8
0
 62
7
  6
CONTINUOUS
 10
73.8837644165
 20
197.6041800961
 11
73.8837644165
 21
201.5441800961
  0
LINE
  8
0
 62
7
  6
CONTINUOUS
 10
73.8837644165
 20
206.0041800961
 11
73.8837644165
 21
209.9441800961
  0
LINE
  8
0
 62
7
  6
CONTINUOUS
 10
73.8837644165
 20
214.4041800961
 11
73.8837644165
 21
218.3441800961
  0
LINE
  8
0
 62
7
  6
CONTINUOUS
 10
73.8837644165
 20
222.8041800961
 11
73.8837644165
 21
226.7441800961
  0
LINE
  8
0
 62
7
  6
CONTINUOUS
 10
75.6484901532
 20
151.1441800961
 11
75.6484901532
 21
147.2041800961
  0
LINE
  8
0
 62
7
  6
CONTINUOUS
 10
75.7532158899
 20
226.7441800961
 11
75.7532158899
 21
222.8041800961
  0
LINE
  8
0
 62
7
  6
CONTINUOUS
 10
75.7532158899
 20
201.5441800961
 11
75.7532158899
 21
197.6041800961
  0
LINE
  8
0
 62
7
  6
CONTINUOUS
 10
75.7532158899
 20
193.1441800961
 11
75.7532158899
 21
189.2041800961
  0
LINE
  8
0
 62
7
  6
CONTINUOUS
 10
75.7532158899
 20
184.7441800961
 11
75.7532158899
 21
180.8041800961
  0
LINE
  8
0
 62
7
  6
CONTINUOUS
 10
75.7532158899
 20
176.3441800961
 11
75.7532158899
 21
172.4041800961
  0
LINE
  8
0
 62
7
  6
CONTINUOUS
 10
75.7532158899
 20
167.9441800961
 11
75.7532158899
 21
164.0041800961
  0
LINE
  8
0
 62
7
  6
CONTINUOUS
 10
75.7532158899
 20
142.7441800961
 11
75.7532158899
 21
138.8041800961
  0
LINE
  8
0
 62
7
  6
CONTINUOUS
 10
75.7532158899
 20
134.3441800961
 11
75.7532158899
 21
130.4041800961
  0
LINE
  8
0
 62
7
  6
CONTINUOUS
 10
75.7532158899
 20
125.9441800961
 11
75.7532158899
 21
122.0041800961
  0
LINE
  8
0
 62
7
  6
CONTINUOUS
 10
75.7532158899
 20
117.5441800961
 11
75.7532158899
 21
113.6041800961
  0
LINE
  8
0
 62
7
  6
CONTINUOUS
 10
75.7532158899
 20
100.7441800961
 11
75.7532158899
 21
96.8041800961
  0
LINE
  8
0
 62
7
  6
CONTINUOUS
 10
75.7532158899
 20
92.3441800961
 11
75.7532158899
 21
88.4041800961
  0
LINE
  8
0
 62
7
  6
CONTINUOUS
 10
75.7532158899
 20
83.9441800961
 11
75.7532158899
 21
80.0041800961
  0
LINE
  8
0
 62
7
  6
CONTINUOUS
 10
75.7532158899
 20
214.4041800961
 11
75.7532158899
 21
218.3441800961
  0
LINE
  8
0
 62
7
  6
CONTINUOUS
 10
35.7184901532
 20
155.0742780961
 11
41.8275999232
 21
155.0742780961
  0
LINE
  8
0
 62
7
  6
CONTINUOUS
 10
46.2093803832
 20
155.0742780961
 11
47.2030351532
 21
155.0742780961
  0
LINE
  8
0
 62
7
  6
CONTINUOUS
 10
59.9484901532
 20
155.1041800961
 11
62.6884901532
 21
155.1041800961
  0
LINE
  8
0
 62
7
  6
CONTINUOUS
 10
81.5484901532
 20
155.1041800961
 11
84.2884901532
 21
155.1041800961
  0
LINE
  8
0
 62
7
  6
CONTINUOUS
 10
65.3484901532
 20
155.2089058328
 11
68.0884901532
 21
155.2089058328
  0
LINE
  8
0
 62
7
  6
CONTINUOUS
 10
70.7484901532
 20
155.2089058328
 11
73.4884901532
 21
155.2089058328
  0
LINE
  8
0
 62
7
  6
CONTINUOUS
 10
79.2837644165
 20
218.3441800961
 11
79.2837644165
 21
214.4041800961
  0
LINE
  8
0
 62
7
  6
CONTINUOUS
 10
79.2837644165
 20
80.0041800961
 11
79.2837644165
 21
83.9441800961
  0
LINE
  8
0
 62
7
  6
CONTINUOUS
 10
79.2837644165
 20
88.4041800961
 11
79.2837644165
 21
92.3441800961
  0
LINE
  8
0
 62
7
  6
CONTINUOUS
 10
79.2837644165
 20
96.8041800961
 11
79.2837644165
 21
100.7441800961
  0
LINE
  8
0
 62
7
  6
CONTINUOUS
 10
79.2837644165
 20
113.6041800961
 11
79.2837644165
 21
117.5441800961
  0
LINE
  8
0
 62
7
  6
CONTINUOUS
 10
79.2837644165
 20
122.0041800961
 11
79.2837644165
 21
125.9441800961
  0
LINE
  8
0
 62
7
  6
CONTINUOUS
 10
79.2837644165
 20
130.4041800961
 11
79.2837644165
 21
134.3441800961
  0
LINE
  8
0
 62
7
  6
CONTINUOUS
 10
79.2837644165
 20
138.8041800961
 11
79.2837644165
 21
142.7441800961
  0
LINE
  8
0
 62
7
  6
CONTINUOUS
 10
79.2837644165
 20
164.0041800961
 11
79.2837644165
 21
167.9441800961
  0
LINE
  8
0
 62
7
  6
CONTINUOUS
 10
79.2837644165
 20
172.4041800961
 11
79.2837644165
 21
176.3441800961
  0
LINE
  8
0
 62
7
  6
CONTINUOUS
 10
79.2837644165
 20
180.8041800961
 11
79.2837644165
 21
184.7441800961
  0
LINE
  8
0
 62
7
  6
CONTINUOUS
 10
79.2837644165
 20
189.2041800961
 11
79.2837644165
 21
193.1441800961
  0
LINE
  8
0
 62
7
  6
CONTINUOUS
 10
79.2837644165
 20
197.6041800961
 11
79.2837644165
 21
201.5441800961
  0
LINE
  8
0
 62
7
  6
CONTINUOUS
 10
79.2837644165
 20
222.8041800961
 11
79.2837644165
 21
226.7441800961
  0
LINE
  8
0
 62
7
  6
CONTINUOUS
 10
79.3884901532
 20
147.2041800961
 11
79.3884901532
 21
151.1441800961
  0
LINE
  8
0
 62
7
  6
CONTINUOUS
 10
81.0484901532
 20
159.5441800961
 11
81.0484901532
 21
155.6041800961
  0
LINE
  8
0
 62
7
  6
CONTINUOUS
 10
81.1532158899
 20
209.9441800961
 11
81.1532158899
 21
206.0041800961
  0
LINE
  8
0
 62
7
  6
CONTINUOUS
 10
81.1532158899
 20
193.1441800961
 11
81.1532158899
 21
189.2041800961
  0
LINE
  8
0
 62
7
  6
CONTINUOUS
 10
81.1532158899
 20
176.3441800961
 11
81.1532158899
 21
172.4041800961
  0
LINE
  8
0
 62
7
  6
CONTINUOUS
 10
81.1532158899
 20
142.7441800961
 11
81.1532158899
 21
138.8041800961
  0
LINE
  8
0
 62
7
  6
CONTINUOUS
 10
81.1532158899
 20
125.9441800961
 11
81.1532158899
 21
122.0041800961
  0
LINE
  8
0
 62
7
  6
CONTINUOUS
 10
81.1532158899
 20
109.1441800961
 11
81.1532158899
 21
105.2041800961
  0
LINE
  8
0
 62
7
  6
CONTINUOUS
 10
81.1532158899
 20
92.3441800961
 11
81.1532158899
 21
88.4041800961
  0
LINE
  8
0
 62
7
  6
CONTINUOUS
 10
81.1532158899
 20
222.8041800961
 11
81.1532158899
 21
226.7441800961
  0
LINE
  8
0
 62
7
  6
CONTINUOUS
 10
73.4884901532
 20
159.9394543594
 11
70.7484901532
 21
159.9394543594
  0
LINE
  8
0
 62
7
  6
CONTINUOUS
 10
68.0884901532
 20
159.9394543594
 11
65.3484901532
 21
159.9394543594
  0
LINE
  8
0
 62
7
  6
CONTINUOUS
 10
84.2884901532
 20
160.0441800961
 11
81.5484901532
 21
160.0441800961
  0
LINE
  8
0
 62
7
  6
CONTINUOUS
 10
62.6884901532
 20
160.0441800961
 11
59.9484901532
 21
160.0441800961
  0
LINE
  8
0
 62
7
  6
CONTINUOUS
 10
47.2030351532
 20
160.0742780961
 11
46.2093803832
 21
160.0742780961
  0
LINE
  8
0
 62
7
  6
CONTINUOUS
 10
41.8275999232
 20
160.0742780961
 11
35.7184911973
 21
160.0742780961
  0
LINE
  8
0
 62
7
  6
CONTINUOUS
 10
91.6339451532
 20
163.4740820961
 11
92.6275999232
 21
163.4740820961
  0
LINE
  8
0
 62
7
  6
CONTINUOUS
 10
97.0093803832
 20
163.4740820961
 11
103.1184887858
 21
163.4740820961
  0
LINE
  8
0
 62
7
  6
CONTINUOUS
 10
54.5484901532
 20
163.6089058328
 11
57.2884901532
 21
163.6089058328
  0
LINE
  8
0
 62
7
  6
CONTINUOUS
 10
59.9484901532
 20
163.6089058328
 11
62.6884901532
 21
163.6089058328
  0
LINE
  8
0
 62
7
  6
CONTINUOUS
 10
65.3484901532
 20
163.6089058328
 11
68.0884901532
 21
163.6089058328
  0
LINE
  8
0
 62
7
  6
CONTINUOUS
 10
70.7484901532
 20
163.6089058328
 11
73.4884901532
 21
163.6089058328
  0
LINE
  8
0
 62
7
  6
CONTINUOUS
 10
76.1484901532
 20
163.6089058328
 11
78.8884901532
 21
163.6089058328
  0
LINE
  8
0
 62
7
  6
CONTINUOUS
 10
84.6837644165
 20
226.7441800961
 11
84.6837644165
 21
222.8041800961
  0
LINE
  8
0
 62
7
  6
CONTINUOUS
 10
84.6837644165
 20
88.4041800961
 11
84.6837644165
 21
92.3441800961
  0
LINE
  8
0
 62
7
  6
CONTINUOUS
 10
84.6837644165
 20
105.2041800961
 11
84.6837644165
 21
109.1441800961
  0
LINE
  8
0
 62
7
  6
CONTINUOUS
 10
84.6837644165
 20
122.0041800961
 11
84.6837644165
 21
125.9441800961
  0
LINE
  8
0
 62
7
  6
CONTINUOUS
 10
84.6837644165
 20
138.8041800961
 11
84.6837644165
 21
142.7441800961
  0
LINE
  8
0
 62
7
  6
CONTINUOUS
 10
84.6837644165
 20
172.4041800961
 11
84.6837644165
 21
176.3441800961
  0
LINE
  8
0
 62
7
  6
CONTINUOUS
 10
84.6837644165
 20
189.2041800961
 11
84.6837644165
 21
193.1441800961
  0
LINE
  8
0
 62
7
  6
CONTINUOUS
 10
84.6837644165
 20
206.0041800961
 11
84.6837644165
 21
209.9441800961
  0
LINE
  8
0
 62
7
  6
CONTINUOUS
 10
84.7884901532
 20
155.6041800961
 11
84.7884901532
 21
159.5441800961
  0
LINE
  8
0
 62
7
  6
CONTINUOUS
 10
78.8884901532
 20
168.3394543594
 11
76.1484901532
 21
168.3394543594
  0
LINE
  8
0
 62
7
  6
CONTINUOUS
 10
73.4884901532
 20
168.3394543594
 11
70.7484901532
 21
168.3394543594
  0
LINE
  8
0
 62
7
  6
CONTINUOUS
 10
68.0884901532
 20
168.3394543594
 11
65.3484901532
 21
168.3394543594
  0
LINE
  8
0
 62
7
  6
CONTINUOUS
 10
62.6884901532
 20
168.3394543594
 11
59.9484901532
 21
168.3394543594
  0
LINE
  8
0
 62
7
  6
CONTINUOUS
 10
57.2884901532
 20
168.3394543594
 11
54.5484901532
 21
168.3394543594
  0
LINE
  8
0
 62
7
  6
CONTINUOUS
 10
103.1184887928
 20
168.4740820961
 11
97.0093803832
 21
168.4740820961
  0
LINE
  8
0
 62
7
  6
CONTINUOUS
 10
92.6275999232
 20
168.4740820961
 11
91.6339451532
 21
168.4740820961
  0
LINE
  8
SURFACE
 62
7
  6
CONTINUOUS
 10
90.6339454031
 20
195.086500703
 11
90.6339454031
 21
187.2617071614
  0
LINE
  8
SURFACE
 62
7
  6
CONTINUOUS
 10
90.6339454031
 20
178.286500703
 11
90.6339454031
 21
170.4617071614
  0
LINE
  8
SURFACE
 62
7
  6
CONTINUOUS
 10
90.6339454031
 20
161.486500703
 11
90.6339454031
 21
153.6617071614
  0
LINE
  8
SURFACE
 62
7
  6
CONTINUOUS
 10
90.6339454031
 20
144.686500703
 11
90.6339454031
 21
136.8617071614
  0
LINE
  8
SURFACE
 62
7
  6
CONTINUOUS
 10
90.6339454031
 20
127.886500703
 11
90.6339454031
 21
120.0617071614
  0
LINE
  8
SURFACE
 62
7
  6
CONTINUOUS
 10
90.6339454031
 20
111.086500703
 11
90.6339454031
 21
103.2617071614
  0
LINE
  8
SURFACE
 62
7
  6
CONTINUOUS
 10
90.6339454031
 20
94.286500703
 11
90.6339454031
 21
86.4617071614
  0
LINE
  8
0
 62
7
  6
CONTINUOUS
 10
90.6339451532
 20
85.4740820961
 11
90.6339451532
 21
86.4617071614
  0
LINE
  8
0
 62
7
  6
CONTINUOUS
 10
90.6339451532
 20
94.286500703
 11
90.6339451532
 21
95.2740820961
  0
LINE
  8
0
 62
7
  6
CONTINUOUS
 10
90.6339451532
 20
102.2740820961
 11
90.6339451532
 21
103.2617071614
  0
LINE
  8
0
 62
7
  6
CONTINUOUS
 10
90.6339451532
 20
111.0864979349
 11
90.6339451532
 21
112.0740820961
  0
LINE
  8
0
 62
7
  6
CONTINUOUS
 10
90.6339451532
 20
119.0740820961
 11
90.6339451532
 21
120.0617101298
  0
LINE
  8
0
 62
7
  6
CONTINUOUS
 10
90.6339451532
 20
127.8864979349
 11
90.6339451532
 21
128.8740820961
  0
LINE
  8
0
 62
7
  6
CONTINUOUS
 10
90.6339451532
 20
135.8740820961
 11
90.6339451532
 21
136.8617101298
  0
LINE
  8
0
 62
7
  6
CONTINUOUS
 10
90.6339451532
 20
144.6864979349
 11
90.6339451532
 21
145.6740820961
  0
LINE
  8
0
 62
7
  6
CONTINUOUS
 10
90.6339451532
 20
152.6740820961
 11
90.6339451532
 21
153.6617069927
  0
LINE
  8
0
 62
7
  6
CONTINUOUS
 10
90.6339451532
 20
161.4864979349
 11
90.6339451532
 21
162.4740820961
  0
LINE
  8
0
 62
7
  6
CONTINUOUS
 10
90.6339451532
 20
169.4740820961
 11
90.6339451532
 21
170.4617101298
  0
LINE
  8
0
 62
7
  6
CONTINUOUS
 10
90.6339451532
 20
178.286500703
 11
90.6339451532
 21
179.2740820961
  0
LINE
  8
0
 62
7
  6
CONTINUOUS
 10
90.6339451532
 20
186.2740820961
 11
90.6339451532
 21
187.2617071614
  0
LINE
  8
0
 62
7
  6
CONTINUOUS
 10
90.6339451532
 20
195.086500703
 11
90.6339451532
 21
196.0740820961
  0
LINE
  8
0
 62
7
  6
CONTINUOUS
 10
90.6339451532
 20
203.0740820961
 11
90.6339451532
 21
204.0617071614
  0
LINE
  8
SURFACE
 62
7
  6
CONTINUOUS
 10
90.6339454031
 20
204.0617071614
 11
90.6339454031
 21
211.886500703
  0
LINE
  8
0
 62
7
  6
CONTINUOUS
 10
90.6339451532
 20
211.886500703
 11
90.6339451532
 21
212.8740820961
  0
LINE
  8
0
 62
7
  6
CONTINUOUS
 10
90.6339451532
 20
219.8740820961
 11
90.6339451532
 21
220.8617071614
  0
LINE
  8
SURFACE
 62
7
  6
CONTINUOUS
 10
90.6339454031
 20
220.8617071614
 11
90.6339454031
 21
228.6741800961
  0
LINE
  8
0
 62
7
  6
CONTINUOUS
 10
35.7184911994
 20
171.8742780961
 11
41.8275999232
 21
171.8742780961
  0
LINE
  8
0
 62
7
  6
CONTINUOUS
 10
46.2093803832
 20
171.8742780961
 11
47.2030351532
 21
171.8742780961
  0
LINE
  8
0
 62
7
  6
CONTINUOUS
 10
59.9484901532
 20
172.0089058328
 11
62.6884901532
 21
172.0089058328
  0
LINE
  8
0
 62
7
  6
CONTINUOUS
 10
65.3484901532
 20
172.0089058328
 11
68.0884901532
 21
172.0089058328
  0
LINE
  8
0
 62
7
  6
CONTINUOUS
 10
70.7484901532
 20
172.0089058328
 11
73.4884901532
 21
172.0089058328
  0
LINE
  8
0
 62
7
  6
CONTINUOUS
 10
76.1484901532
 20
172.0089058328
 11
78.8884901532
 21
172.0089058328
  0
LINE
  8
0
 62
7
  6
CONTINUOUS
 10
81.5484901532
 20
172.0089058328
 11
84.2884901532
 21
172.0089058328
  0
POLYLINE
  8
0
 62
7
  6
CONTINUOUS
 66
1
 70
0
  0
VERTEX
  8
0
 62
7
  6
CONTINUOUS
 10
90.6339454031
 20
228.6741800961
  0
VERTEX
  8
0
 62
7
  6
CONTINUOUS
 10
90.632222047
 20
228.7003788082
  0
VERTEX
  8
0
 62
7
  6
CONTINUOUS
 10
90.627095275
 20
228.7260754427
  0
VERTEX
  8
0
 62
7
  6
CONTINUOUS
 10
90.6186535593
 20
228.750880142
  0
VERTEX
  8
0
 62
7
  6
CONTINUOUS
 10
90.6070822597
 20
228.7742981709
  0
VERTEX
  8
0
 62
7
  6
CONTINUOUS
 10
90.5925688392
 20
228.7959939112
  0
VERTEX
  8
0
 62
7
  6
CONTINUOUS
 10
90.5753228037
 20
228.8156453944
  0
VERTEX
  8
0
 62
7
  6
CONTINUOUS
 10
90.5557182709
 20
228.832834969
  0
VERTEX
  8
0
 62
7
  6
CONTINUOUS
 10
90.534020449
 20
228.8473418275
  0
VERTEX
  8
0
 62
7
  6
CONTINUOUS
 10
90.5105565869
 20
228.8589251272
  0
VERTEX
  8
0
 62
7
  6
CONTINUOUS
 10
90.4858191827
 20
228.8673357613
  0
VERTEX
  8
0
 62
7
  6
CONTINUOUS
 10
90.4601256888
 20
228.8724591738
  0
VERTEX
  8
0
 62
7
  6
CONTINUOUS
 10
90.4339454031
 20
228.8741800961
  0
SEQEND
  0
LINE
  8
DEFAULT_1
 62
2
  6
CENTER
 10
94.8184901532
 20
75.8741800961
 11
94.8184901532
 21
220.0241800961
  0
LINE
  8
0
 62
7
  6
CONTINUOUS
 10
103.3171059932
 20
213.9587704381
 11
103.3182660862
 21
213.9721279475
  0
POLYLINE
  8
0
 62
7
  6
CONTINUOUS
 66
1
 70
0
  0
VERTEX
  8
0
 62
7
  6
CONTINUOUS
 10
103.2182850436
 20
180.2740820961
  0
VERTEX
  8
0
 62
7
  6
CONTINUOUS
 10
103.2339653751
 20
180.2753191077
  0
VERTEX
  8
0
 62
7
  6
CONTINUOUS
 10
103.2492577697
 20
180.278999538
  0
VERTEX
  8
0
 62
7
  6
CONTINUOUS
 10
103.2637838901
 20
180.2850323312
  0
VERTEX
  8
0
 62
7
  6
CONTINUOUS
 10
103.2771843568
 20
180.2932682335
  0
VERTEX
  8
0
 62
7
  6
CONTINUOUS
 10
103.2891276396
 20
180.3035034853
  0
VERTEX
  8
0
 62
7
  6
CONTINUOUS
 10
103.2993182601
 20
180.3154848626
  0
VERTEX
  8
0
 62
7
  6
CONTINUOUS
 10
103.3075041022
 20
180.3289159434
  0
VERTEX
  8
0
 62
7
  6
CONTINUOUS
 10
103.3134826483
 20
180.3434644403
  0
VERTEX
  8
0
 62
7
  6
CONTINUOUS
 10
103.3171059894
 20
180.3587704214
  0
SEQEND
  0
LINE
  8
0
 62
7
  6
CONTINUOUS
 10
84.2884901532
 20
176.7394543594
 11
81.5484901532
 21
176.7394543594
  0
LINE
  8
0
 62
7
  6
CONTINUOUS
 10
78.8884901532
 20
176.7394543594
 11
76.1484901532
 21
176.7394543594
  0
LINE
  8
0
 62
7
  6
CONTINUOUS
 10
73.4884901532
 20
176.7394543594
 11
70.7484901532
 21
176.7394543594
  0
LINE
  8
0
 62
7
  6
CONTINUOUS
 10
68.0884901532
 20
176.7394543594
 11
65.3484901532
 21
176.7394543594
  0
LINE
  8
0
 62
7
  6
CONTINUOUS
 10
62.6884901532
 20
176.7394543594
 11
59.9484901532
 21
176.7394543594
  0
LINE
  8
0
 62
7
  6
CONTINUOUS
 10
47.2030351532
 20
176.8742780961
 11
46.2093803832
 21
176.8742780961
  0
LINE
  8
0
 62
7
  6
CONTINUOUS
 10
41.8275999232
 20
176.8742780961
 11
35.7184911973
 21
176.8742780961
  0
LINE
  8
0
 62
7
  6
CONTINUOUS
 10
91.6339451532
 20
180.2740820961
 11
92.6275999231
 21
180.2740820961
  0
LINE
  8
0
 62
7
  6
CONTINUOUS
 10
97.0093803832
 20
180.2740820961
 11
103.2182164746
 21
180.2740820961
  0
LINE
  8
0
 62
7
  6
CONTINUOUS
 10
54.5484901532
 20
180.4089058328
 11
57.2884901532
 21
180.4089058328
  0
LINE
  8
0
 62
7
  6
CONTINUOUS
 10
59.9484901532
 20
180.4089058328
 11
62.6884901532
 21
180.4089058328
  0
LINE
  8
0
 62
7
  6
CONTINUOUS
 10
65.3484901532
 20
180.4089058328
 11
68.0884901532
 21
180.4089058328
  0
LINE
  8
0
 62
7
  6
CONTINUOUS
 10
70.7484901532
 20
180.4089058328
 11
73.4884901532
 21
180.4089058328
  0
LINE
  8
0
 62
7
  6
CONTINUOUS
 10
76.1484901532
 20
180.4089058328
 11
78.8884901532
 21
180.4089058328
  0
LINE
  8
SURFACE
 62
7
  6
CONTINUOUS
 10
103.3183498569
 20
185.1713750784
 11
103.3182698467
 21
185.1760039999
  0
LINE
  8
SURFACE
 62
7
  6
CONTINUOUS
 10
103.3184901838
 20
185.1528457891
 11
103.3183498569
 21
185.1713750784
  0
LINE
  8
SURFACE
 62
7
  6
CONTINUOUS
 10
103.3184901838
 20
201.9528457938
 11
103.3183511699
 21
201.971289072
  0
LINE
  8
SURFACE
 62
7
  6
CONTINUOUS
 10
103.3184901838
 20
218.7528460352
 11
103.3184420127
 21
218.7637480696
  0
LINE
  8
SURFACE
 62
7
  6
CONTINUOUS
 10
103.3184901532
 20
78.0769872991
 11
103.3184901532
 21
84.2840820965
  0
LINE
  8
SURFACE
 62
7
  6
CONTINUOUS
 10
103.3184901532
 20
96.4640820956
 11
103.3184901532
 21
100.010617451
  0
LINE
  8
0
 62
7
  6
CONTINUOUS
 10
103.3184901532
 20
100.010617451
 11
103.3184901532
 21
101.0840820961
  0
LINE
  8
0
 62
7
  6
CONTINUOUS
 10
103.3184901532
 20
113.2740820961
 11
103.3184901532
 21
117.8740820961
  0
LINE
  8
SURFACE
 62
7
  6
CONTINUOUS
 10
103.3184901532
 20
130.0740820984
 11
103.3184901532
 21
134.6740820848
  0
LINE
  8
SURFACE
 62
7
  6
CONTINUOUS
 10
103.3184901532
 20
146.8740820984
 11
103.3184901532
 21
150.410617451
  0
LINE
  8
0
 62
7
  6
CONTINUOUS
 10
103.3184901532
 20
150.410617451
 11
103.3184901532
 21
151.4740820961
  0
LINE
  8
SURFACE
 62
7
  6
CONTINUOUS
 10
103.3184901532
 20
163.6740820984
 11
103.3184901532
 21
168.2740820848
  0
LINE
  8
0
 62
7
  6
CONTINUOUS
 10
103.3184901532
 20
180.3955121094
 11
103.3184901532
 21
185.1528463814
  0
LINE
  8
SURFACE
 62
7
  6
CONTINUOUS
 10
103.3184901532
 20
197.1956285841
 11
103.3184901532
 21
201.2913581762
  0
LINE
  8
0
 62
7
  6
CONTINUOUS
 10
103.3184901532
 20
201.2913581762
 11
103.3184901532
 21
201.9528463814
  0
LINE
  8
0
 62
7
  6
CONTINUOUS
 10
103.3184901532
 20
213.9956285841
 11
103.3184901532
 21
218.7527327557
  0
LINE
  8
0
 62
7
  6
CONTINUOUS
 10
103.3184901532
 20
218.7528487201
 11
103.3184901426
 21
218.7529826477
  0
LINE
  8
0
 62
7
  6
CONTINUOUS
 10
103.3184901532
 20
197.1955121239
 11
103.3184901429
 21
197.1953795702
  0
LINE
  8
SURFACE
 62
7
  6
CONTINUOUS
 10
103.3183498674
 20
213.9769838418
 11
103.3184901585
 21
213.9955122957
  0
LINE
  8
SURFACE
 62
7
  6
CONTINUOUS
 10
103.3183498674
 20
197.1769838418
 11
103.3184901585
 21
197.1955122957
  0
LINE
  8
SURFACE
 62
7
  6
CONTINUOUS
 10
103.3183497818
 20
180.3769782517
 11
103.3184901585
 21
180.3955122822
  0
LINE
  8
SURFACE
 62
7
  6
CONTINUOUS
 10
103.3182657364
 20
213.9721419155
 11
103.3183498674
 21
213.9769838418
  0
LINE
  8
SURFACE
 62
7
  6
CONTINUOUS
 10
103.3182657364
 20
197.1721419155
 11
103.3183498674
 21
197.1769838418
  0
LINE
  8
SURFACE
 62
7
  6
CONTINUOUS
 10
103.3182657364
 20
180.3721419154
 11
103.3183497818
 21
180.3769782517
  0
LINE
  8
0
 62
7
  6
CONTINUOUS
 10
103.3171059932
 20
197.1587704381
 11
103.3182660862
 21
197.1721279475
  0
LINE
  8
0
 62
7
  6
CONTINUOUS
 10
103.3171059894
 20
180.3587704214
 11
103.318266085
 21
180.372127948
  0
LINE
  8
0
 62
7
  6
CONTINUOUS
 10
78.8884901532
 20
185.1394543594
 11
76.1484901532
 21
185.1394543594
  0
LINE
  8
0
 62
7
  6
CONTINUOUS
 10
73.4884901532
 20
185.1394543594
 11
70.7484901532
 21
185.1394543594
  0
LINE
  8
0
 62
7
  6
CONTINUOUS
 10
68.0884901532
 20
185.1394543594
 11
65.3484901532
 21
185.1394543594
  0
LINE
  8
0
 62
7
  6
CONTINUOUS
 10
62.6884901532
 20
185.1394543594
 11
59.9484901532
 21
185.1394543594
  0
LINE
  8
0
 62
7
  6
CONTINUOUS
 10
57.2884901532
 20
185.1394543594
 11
54.5484901532
 21
185.1394543594
  0
LINE
  8
0
 62
7
  6
CONTINUOUS
 10
103.2182915471
 20
185.2740820961
 11
97.0093803832
 21
185.2740820961
  0
LINE
  8
0
 62
7
  6
CONTINUOUS
 10
92.6275999232
 20
185.2740820961
 11
91.6339451532
 21
185.2740820961
  0
LINE
  8
0
 62
7
  6
CONTINUOUS
 10
103.3182703432
 20
185.1760177025
 11
103.317109889
 21
185.1893937546
  0
LINE
  8
0
 62
7
  6
CONTINUOUS
 10
103.3182709525
 20
218.7760151459
 11
103.3171104533
 21
218.7893937167
  0
LINE
  8
SURFACE
 62
7
  6
CONTINUOUS
 10
103.3183511699
 20
201.971289072
 11
103.3182697272
 21
201.9760101981
  0
LINE
  8
SURFACE
 62
7
  6
CONTINUOUS
 10
103.3184420127
 20
218.7637480696
 11
103.3182697958
 21
218.776006636
  0
LINE
  8
0
 62
7
  6
CONTINUOUS
 10
35.7184911994
 20
188.6742780961
 11
41.8275999232
 21
188.6742780961
  0
LINE
  8
0
 62
7
  6
CONTINUOUS
 10
46.2093803832
 20
188.6742780961
 11
47.2030351532
 21
188.6742780961
  0
LINE
  8
0
 62
7
  6
CONTINUOUS
 10
59.9484901532
 20
188.8089058328
 11
62.6884901532
 21
188.8089058328
  0
LINE
  8
0
 62
7
  6
CONTINUOUS
 10
65.3484901532
 20
188.8089058328
 11
68.0884901532
 21
188.8089058328
  0
LINE
  8
0
 62
7
  6
CONTINUOUS
 10
70.7484901532
 20
188.8089058328
 11
73.4884901532
 21
188.8089058328
  0
LINE
  8
0
 62
7
  6
CONTINUOUS
 10
76.1484901532
 20
188.8089058328
 11
78.8884901532
 21
188.8089058328
  0
LINE
  8
0
 62
7
  6
CONTINUOUS
 10
81.5484901532
 20
188.8089058328
 11
84.2884901532
 21
188.8089058328
  0
LINE
  8
0
 62
7
  6
CONTINUOUS
 10
93.1527612508
 20
196.5919184619
 11
93.1522045687
 21
196.5932794521
  0
POLYLINE
  8
0
 62
7
  6
CONTINUOUS
 66
1
 70
0
  0
VERTEX
  8
0
 62
7
  6
CONTINUOUS
 10
103.2182850446
 20
197.0740820961
  0
VERTEX
  8
0
 62
7
  6
CONTINUOUS
 10
103.233965378
 20
197.075319108
  0
VERTEX
  8
0
 62
7
  6
CONTINUOUS
 10
103.2492577744
 20
197.0789995392
  0
VERTEX
  8
0
 62
7
  6
CONTINUOUS
 10
103.2637838962
 20
197.0850323338
  0
VERTEX
  8
0
 62
7
  6
CONTINUOUS
 10
103.277184364
 20
197.093268238
  0
VERTEX
  8
0
 62
7
  6
CONTINUOUS
 10
103.2891276474
 20
197.103503492
  0
VERTEX
  8
0
 62
7
  6
CONTINUOUS
 10
103.2993182679
 20
197.1154848718
  0
VERTEX
  8
0
 62
7
  6
CONTINUOUS
 10
103.3075041093
 20
197.1289159552
  0
VERTEX
  8
0
 62
7
  6
CONTINUOUS
 10
103.3134826541
 20
197.1434644547
  0
VERTEX
  8
0
 62
7
  6
CONTINUOUS
 10
103.3171059932
 20
197.1587704381
  0
SEQEND
  0
LINE
  8
0
 62
7
  6
CONTINUOUS
 10
84.2884901532
 20
193.5394543594
 11
81.5484901532
 21
193.5394543594
  0
LINE
  8
0
 62
7
  6
CONTINUOUS
 10
78.8884901532
 20
193.5394543594
 11
76.1484901532
 21
193.5394543594
  0
LINE
  8
0
 62
7
  6
CONTINUOUS
 10
73.4884901532
 20
193.5394543594
 11
70.7484901532
 21
193.5394543594
  0
LINE
  8
0
 62
7
  6
CONTINUOUS
 10
68.0884901532
 20
193.5394543594
 11
65.3484901532
 21
193.5394543594
  0
LINE
  8
0
 62
7
  6
CONTINUOUS
 10
62.6884901532
 20
193.5394543594
 11
59.9484901532
 21
193.5394543594
  0
LINE
  8
0
 62
7
  6
CONTINUOUS
 10
47.2030351532
 20
193.6742780961
 11
46.2093803832
 21
193.6742780961
  0
LINE
  8
0
 62
7
  6
CONTINUOUS
 10
41.8275999232
 20
193.6742780961
 11
35.7184911973
 21
193.6742780961
  0
LINE
  8
0
 62
7
  6
CONTINUOUS
 10
91.6339451532
 20
197.0740820961
 11
92.6275999231
 21
197.0740820961
  0
LINE
  8
0
 62
7
  6
CONTINUOUS
 10
97.0093803832
 20
197.0740820961
 11
103.2182164746
 21
197.0740820961
  0
LINE
  8
0
 62
7
  6
CONTINUOUS
 10
54.5484901532
 20
197.2089058328
 11
57.2884901532
 21
197.2089058328
  0
LINE
  8
0
 62
7
  6
CONTINUOUS
 10
65.3484901532
 20
197.2089058328
 11
68.0884901532
 21
197.2089058328
  0
LINE
  8
0
 62
7
  6
CONTINUOUS
 10
70.7484901532
 20
197.2089058328
 11
73.4884901532
 21
197.2089058328
  0
LINE
  8
0
 62
7
  6
CONTINUOUS
 10
76.1484901532
 20
197.2089058328
 11
78.8884901532
 21
197.2089058328
  0
LINE
  8
0
 62
7
  6
CONTINUOUS
 10
93.1527612508
 20
213.3919184619
 11
93.1522045687
 21
213.3932794521
  0
POLYLINE
  8
0
 62
7
  6
CONTINUOUS
 66
1
 70
0
  0
VERTEX
  8
0
 62
7
  6
CONTINUOUS
 10
103.317109889
 20
185.1893937546
  0
VERTEX
  8
0
 62
7
  6
CONTINUOUS
 10
103.3134865495
 20
185.2046997357
  0
VERTEX
  8
0
 62
7
  6
CONTINUOUS
 10
103.3075080043
 20
185.2192482334
  0
VERTEX
  8
0
 62
7
  6
CONTINUOUS
 10
103.2993221619
 20
185.2326793158
  0
VERTEX
  8
0
 62
7
  6
CONTINUOUS
 10
103.2891315396
 20
185.2446606957
  0
VERTEX
  8
0
 62
7
  6
CONTINUOUS
 10
103.2771882533
 20
185.2548959505
  0
VERTEX
  8
0
 62
7
  6
CONTINUOUS
 10
103.2637877813
 20
185.2631318559
  0
VERTEX
  8
0
 62
7
  6
CONTINUOUS
 10
103.2492616541
 20
185.2691646518
  0
VERTEX
  8
0
 62
7
  6
CONTINUOUS
 10
103.2339692515
 20
185.2728450839
  0
VERTEX
  8
0
 62
7
  6
CONTINUOUS
 10
103.2182889111
 20
185.2740820961
  0
SEQEND
  0
LINE
  8
0
 62
7
  6
CONTINUOUS
 10
78.8884901532
 20
201.9394543594
 11
76.1484901532
 21
201.9394543594
  0
LINE
  8
0
 62
7
  6
CONTINUOUS
 10
73.4884901532
 20
201.9394543594
 11
70.7484901532
 21
201.9394543594
  0
LINE
  8
0
 62
7
  6
CONTINUOUS
 10
68.0884901532
 20
201.9394543594
 11
65.3484901532
 21
201.9394543594
  0
LINE
  8
0
 62
7
  6
CONTINUOUS
 10
57.2884901532
 20
201.9394543594
 11
54.5484901532
 21
201.9394543594
  0
LINE
  8
0
 62
7
  6
CONTINUOUS
 10
103.2182886636
 20
202.0740820961
 11
97.0093803832
 21
202.0740820961
  0
LINE
  8
0
 62
7
  6
CONTINUOUS
 10
92.6275999232
 20
202.0740820961
 11
91.6339451532
 21
202.0740820961
  0
POLYLINE
  8
0
 62
7
  6
CONTINUOUS
 66
1
 70
0
  0
VERTEX
  8
0
 62
7
  6
CONTINUOUS
 10
103.3171104533
 20
218.7893937167
  0
VERTEX
  8
0
 62
7
  6
CONTINUOUS
 10
103.313487117
 20
218.8046996933
  0
VERTEX
  8
0
 62
7
  6
CONTINUOUS
 10
103.3075085726
 20
218.8192481897
  0
VERTEX
  8
0
 62
7
  6
CONTINUOUS
 10
103.2993227277
 20
218.8326792744
  0
VERTEX
  8
0
 62
7
  6
CONTINUOUS
 10
103.2891320979
 20
218.8446606601
  0
VERTEX
  8
0
 62
7
  6
CONTINUOUS
 10
103.2771887977
 20
218.8548959237
  0
VERTEX
  8
0
 62
7
  6
CONTINUOUS
 10
103.2637883053
 20
218.8631318388
  0
VERTEX
  8
0
 62
7
  6
CONTINUOUS
 10
103.249262152
 20
218.8691646434
  0
VERTEX
  8
0
 62
7
  6
CONTINUOUS
 10
103.2339697185
 20
218.8728450816
  0
VERTEX
  8
0
 62
7
  6
CONTINUOUS
 10
103.2182893438
 20
218.8740820961
  0
SEQEND
  0
POLYLINE
  8
0
 62
7
  6
CONTINUOUS
 66
1
 70
0
  0
VERTEX
  8
0
 62
7
  6
CONTINUOUS
 10
48.4030349032
 20
77.8741800961
  0
VERTEX
  8
0
 62
7
  6
CONTINUOUS
 10
48.4057104317
 20
77.8758688989
  0
VERTEX
  8
0
 62
7
  6
CONTINUOUS
 10
48.4078048767
 20
77.8809188992
  0
VERTEX
  8
0
 62
7
  6
CONTINUOUS
 10
48.4093290629
 20
77.8892612905
  0
VERTEX
  8
0
 62
7
  6
CONTINUOUS
 10
48.4103023045
 20
77.9007678622
  0
VERTEX
  8
0
 62
7
  6
CONTINUOUS
 10
48.4107520574
 20
77.9152520509
  0
VERTEX
  8
0
 62
7
  6
CONTINUOUS
 10
48.4107135187
 20
77.9324719901
  0
VERTEX
  8
0
 62
7
  6
CONTINUOUS
 10
48.4102291538
 20
77.9521353509
  0
VERTEX
  8
0
 62
7
  6
CONTINUOUS
 10
48.4093481406
 20
77.9739055682
  0
VERTEX
  8
0
 62
7
  6
CONTINUOUS
 10
48.4081257046
 20
77.9974089392
  0
VERTEX
  8
0
 62
7
  6
CONTINUOUS
 10
48.4066223157
 20
78.0222420855
  0
VERTEX
  8
0
 62
7
  6
CONTINUOUS
 10
48.4049027334
 20
78.047979378
  0
VERTEX
  8
0
 62
7
  6
CONTINUOUS
 10
48.4030349032
 20
78.0741800961
  0
SEQEND
  0
LINE
  8
0
 62
7
  6
CONTINUOUS
 10
35.7184901532
 20
205.4742780961
 11
41.8275999232
 21
205.4742780961
  0
LINE
  8
0
 62
7
  6
CONTINUOUS
 10
46.2093803832
 20
205.4742780961
 11
47.2030351532
 21
205.4742780961
  0
LINE
  8
0
 62
7
  6
CONTINUOUS
 10
59.9484901532
 20
205.6089058328
 11
62.6884901532
 21
205.6089058328
  0
LINE
  8
0
 62
7
  6
CONTINUOUS
 10
65.3484901532
 20
205.6089058328
 11
68.0884901532
 21
205.6089058328
  0
LINE
  8
0
 62
7
  6
CONTINUOUS
 10
70.7484901532
 20
205.6089058328
 11
73.4884901532
 21
205.6089058328
  0
LINE
  8
0
 62
7
  6
CONTINUOUS
 10
81.5484901532
 20
205.6089058328
 11
84.2884901532
 21
205.6089058328
  0
POLYLINE
  8
0
 62
7
  6
CONTINUOUS
 66
1
 70
0
  0
VERTEX
  8
0
 62
7
  6
CONTINUOUS
 10
103.2182850446
 20
213.8740820961
  0
VERTEX
  8
0
 62
7
  6
CONTINUOUS
 10
103.233965378
 20
213.875319108
  0
VERTEX
  8
0
 62
7
  6
CONTINUOUS
 10
103.2492577744
 20
213.8789995392
  0
VERTEX
  8
0
 62
7
  6
CONTINUOUS
 10
103.2637838962
 20
213.8850323338
  0
VERTEX
  8
0
 62
7
  6
CONTINUOUS
 10
103.277184364
 20
213.893268238
  0
VERTEX
  8
0
 62
7
  6
CONTINUOUS
 10
103.2891276474
 20
213.903503492
  0
VERTEX
  8
0
 62
7
  6
CONTINUOUS
 10
103.2993182679
 20
213.9154848718
  0
VERTEX
  8
0
 62
7
  6
CONTINUOUS
 10
103.3075041093
 20
213.9289159552
  0
VERTEX
  8
0
 62
7
  6
CONTINUOUS
 10
103.3134826541
 20
213.9434644547
  0
VERTEX
  8
0
 62
7
  6
CONTINUOUS
 10
103.3171059932
 20
213.9587704381
  0
SEQEND
  0
LINE
  8
0
 62
7
  6
CONTINUOUS
 10
84.2884901532
 20
210.3394543594
 11
81.5484901532
 21
210.3394543594
  0
LINE
  8
0
 62
7
  6
CONTINUOUS
 10
73.4884901532
 20
210.3394543594
 11
70.7484901532
 21
210.3394543594
  0
LINE
  8
0
 62
7
  6
CONTINUOUS
 10
68.0884901532
 20
210.3394543594
 11
65.3484901532
 21
210.3394543594
  0
LINE
  8
0
 62
7
  6
CONTINUOUS
 10
62.6884901532
 20
210.3394543594
 11
59.9484901532
 21
210.3394543594
  0
LINE
  8
0
 62
7
  6
CONTINUOUS
 10
47.2030351532
 20
210.4742780961
 11
46.2093803832
 21
210.4742780961
  0
LINE
  8
0
 62
7
  6
CONTINUOUS
 10
41.8275999232
 20
210.4742780961
 11
35.7184911973
 21
210.4742780961
  0
LINE
  8
0
 62
7
  6
CONTINUOUS
 10
91.6339451532
 20
213.8740820961
 11
92.6275999231
 21
213.8740820961
  0
LINE
  8
0
 62
7
  6
CONTINUOUS
 10
97.0093803832
 20
213.8740820961
 11
103.2182164746
 21
213.8740820961
  0
LINE
  8
0
 62
7
  6
CONTINUOUS
 10
78.8884901532
 20
214.0089058328
 11
76.1484901532
 21
214.0089058328
  0
LINE
  8
0
 62
7
  6
CONTINUOUS
 10
54.5484901532
 20
214.0089058328
 11
57.2884901532
 21
214.0089058328
  0
LINE
  8
0
 62
7
  6
CONTINUOUS
 10
59.9484901532
 20
214.0089058328
 11
62.6884901532
 21
214.0089058328
  0
LINE
  8
0
 62
7
  6
CONTINUOUS
 10
65.3484901532
 20
214.0089058328
 11
68.0884901532
 21
214.0089058328
  0
LINE
  8
0
 62
7
  6
CONTINUOUS
 10
70.7484901532
 20
214.0089058328
 11
73.4884901532
 21
214.0089058328
  0
LINE
  8
0
 62
7
  6
CONTINUOUS
 10
73.4884901532
 20
218.7394543594
 11
70.7484901532
 21
218.7394543594
  0
LINE
  8
0
 62
7
  6
CONTINUOUS
 10
68.0884901532
 20
218.7394543594
 11
65.3484901532
 21
218.7394543594
  0
LINE
  8
0
 62
7
  6
CONTINUOUS
 10
62.6884901532
 20
218.7394543594
 11
59.9484901532
 21
218.7394543594
  0
LINE
  8
0
 62
7
  6
CONTINUOUS
 10
57.2884901532
 20
218.7394543594
 11
54.5484901532
 21
218.7394543594
  0
LINE
  8
0
 62
7
  6
CONTINUOUS
 10
76.1484901532
 20
218.7394543594
 11
78.8884901532
 21
218.7394543594
  0
LINE
  8
0
 62
7
  6
CONTINUOUS
 10
103.218375814
 20
218.8740820961
 11
97.0093803832
 21
218.8740820961
  0
LINE
  8
0
 62
7
  6
CONTINUOUS
 10
92.6275999232
 20
218.8740820961
 11
91.6339451532
 21
218.8740820961
  0
LINE
  8
0
 62
7
  6
CONTINUOUS
 10
35.7184911994
 20
222.2742780961
 11
41.8275999232
 21
222.2742780961
  0
LINE
  8
0
 62
7
  6
CONTINUOUS
 10
46.2093803832
 20
222.2742780961
 11
47.2030351532
 21
222.2742780961
  0
LINE
  8
0
 62
7
  6
CONTINUOUS
 10
84.2884901532
 20
222.4089058328
 11
81.5484901532
 21
222.4089058328
  0
LINE
  8
0
 62
7
  6
CONTINUOUS
 10
59.9484901532
 20
222.4089058328
 11
62.6884901532
 21
222.4089058328
  0
LINE
  8
0
 62
7
  6
CONTINUOUS
 10
65.3484901532
 20
222.4089058328
 11
68.0884901532
 21
222.4089058328
  0
LINE
  8
0
 62
7
  6
CONTINUOUS
 10
70.7484901532
 20
222.4089058328
 11
73.4884901532
 21
222.4089058328
  0
LINE
  8
0
 62
7
  6
CONTINUOUS
 10
76.1484901532
 20
222.4089058328
 11
78.8884901532
 21
222.4089058328
  0
LINE
  8
0
 62
7
  6
CONTINUOUS
 10
78.8884901532
 20
227.1394543594
 11
76.1484901532
 21
227.1394543594
  0
LINE
  8
0
 62
7
  6
CONTINUOUS
 10
73.4884901532
 20
227.1394543594
 11
70.7484901532
 21
227.1394543594
  0
LINE
  8
0
 62
7
  6
CONTINUOUS
 10
68.0884901532
 20
227.1394543594
 11
65.3484901532
 21
227.1394543594
  0
LINE
  8
0
 62
7
  6
CONTINUOUS
 10
62.6884901532
 20
227.1394543594
 11
59.9484901532
 21
227.1394543594
  0
LINE
  8
0
 62
7
  6
CONTINUOUS
 10
81.5484901532
 20
227.1394543594
 11
84.2884901532
 21
227.1394543594
  0
POLYLINE
  8
0
 62
7
  6
CONTINUOUS
 66
1
 70
0
  0
VERTEX
  8
0
 62
7
  6
CONTINUOUS
 10
41.1812379614
 20
228.8741800961
  0
VERTEX
  8
0
 62
7
  6
CONTINUOUS
 10
41.1698634815
 20
228.8724736096
  0
VERTEX
  8
0
 62
7
  6
CONTINUOUS
 10
41.1591686761
 20
228.8673865237
  0
VERTEX
  8
0
 62
7
  6
CONTINUOUS
 10
41.149295581
 20
228.8590076784
  0
VERTEX
  8
0
 62
7
  6
CONTINUOUS
 10
41.1403724783
 20
228.8474783335
  0
VERTEX
  8
0
 62
7
  6
CONTINUOUS
 10
41.1325124905
 20
228.83299042
  0
VERTEX
  8
0
 62
7
  6
CONTINUOUS
 10
41.1258120309
 20
228.8157843992
  0
VERTEX
  8
0
 62
7
  6
CONTINUOUS
 10
41.1203491934
 20
228.796146507
  0
VERTEX
  8
0
 62
7
  6
CONTINUOUS
 10
41.1161821812
 20
228.7744052164
  0
VERTEX
  8
0
 62
7
  6
CONTINUOUS
 10
41.1133479009
 20
228.7509268145
  0
VERTEX
  8
0
 62
7
  6
CONTINUOUS
 10
41.111860846
 20
228.7261100466
  0
VERTEX
  8
0
 62
7
  6
CONTINUOUS
 10
41.1117123704
 20
228.7003798311
  0
VERTEX
  8
0
 62
7
  6
CONTINUOUS
 10
41.1128704387
 20
228.6741800961
  0
SEQEND
  0
POLYLINE
  8
0
 62
7
  6
CONTINUOUS
 66
1
 70
0
  0
VERTEX
  8
0
 62
7
  6
CONTINUOUS
 10
35.7195166333
 20
228.8741788951
  0
VERTEX
  8
0
 62
7
  6
CONTINUOUS
 10
35.6940112468
 20
228.8725124994
  0
VERTEX
  8
0
 62
7
  6
CONTINUOUS
 10
35.6683923742
 20
228.867477816
  0
VERTEX
  8
0
 62
7
  6
CONTINUOUS
 10
35.6435146097
 20
228.8591087287
  0
VERTEX
  8
0
 62
7
  6
CONTINUOUS
 10
35.6198673809
 20
228.8475256845
  0
VERTEX
  8
0
 62
7
  6
CONTINUOUS
 10
35.5979252935
 20
228.8329419009
  0
VERTEX
  8
0
 62
7
  6
CONTINUOUS
 10
35.5781227971
 20
228.815660832
  0
VERTEX
  8
0
 62
7
  6
CONTINUOUS
 10
35.5608600806
 20
228.7961036527
  0
VERTEX
  8
0
 62
7
  6
CONTINUOUS
 10
35.5465557004
 20
228.7749746249
  0
VERTEX
  8
0
 62
7
  6
CONTINUOUS
 10
35.535421452
 20
228.7531199114
  0
VERTEX
  8
0
 62
7
  6
CONTINUOUS
 10
35.5274119847
 20
228.7314121027
  0
VERTEX
  8
0
 62
7
  6
CONTINUOUS
 10
35.5222317239
 20
228.7105813136
  0
VERTEX
  8
0
 62
7
  6
CONTINUOUS
 10
35.519409475
 20
228.6909317499
  0
VERTEX
  8
0
 62
7
  6
CONTINUOUS
 10
35.5184901536
 20
228.6714123234
  0
SEQEND
  0
LINE
  8
0
 62
7
  6
CONTINUOUS
 10
35.7198303573
 20
228.8741800961
 11
90.4339454031
 21
228.8741800961
  0
LINE
  8
0
 62
7
  6
CONTINUOUS
 10
158.1801964349
 20
77.8741800961
 11
143.3801964349
 21
77.8741800961
  0
LINE
  8
0
 62
7
  6
CONTINUOUS
 10
154.7933829863
 20
77.8817743436
 11
154.8437679821
 21
77.875508894
  0
POLYLINE
  8
0
 62
7
  6
CONTINUOUS
 66
1
 70
0
  0
VERTEX
  8
0
 62
7
  6
CONTINUOUS
 10
144.3948579328
 20
84.2352144265
  0
VERTEX
  8
0
 62
7
  6
CONTINUOUS
 10
144.3275172517
 20
84.2281591344
  0
VERTEX
  8
0
 62
7
  6
CONTINUOUS
 10
144.2452703472
 20
84.2150296675
  0
VERTEX
  8
0
 62
7
  6
CONTINUOUS
 10
144.1656770638
 20
84.1975820956
  0
VERTEX
  8
0
 62
7
  6
CONTINUOUS
 10
144.0889423378
 20
84.1762825614
  0
VERTEX
  8
0
 62
7
  6
CONTINUOUS
 10
144.0152726499
 20
84.1516020767
  0
VERTEX
  8
0
 62
7
  6
CONTINUOUS
 10
143.9448474482
 20
84.124019283
  0
VERTEX
  8
0
 62
7
  6
CONTINUOUS
 10
143.8777300142
 20
84.0939805874
  0
VERTEX
  8
0
 62
7
  6
CONTINUOUS
 10
143.8139245941
 20
84.0619068552
  0
VERTEX
  8
0
 62
7
  6
CONTINUOUS
 10
143.753436073
 20
84.0282195376
  0
VERTEX
  8
0
 62
7
  6
CONTINUOUS
 10
143.696267133
 20
83.9933439603
  0
VERTEX
  8
0
 62
7
  6
CONTINUOUS
 10
143.6424166977
 20
83.957710604
  0
VERTEX
  8
0
 62
7
  6
CONTINUOUS
 10
143.5918716825
 20
83.9217503291
  0
VERTEX
  8
0
 62
7
  6
CONTINUOUS
 10
143.5446358974
 20
83.8859152848
  0
VERTEX
  8
0
 62
7
  6
CONTINUOUS
 10
143.5007822593
 20
83.8507216088
  0
VERTEX
  8
0
 62
7
  6
CONTINUOUS
 10
143.460381124
 20
83.8166948429
  0
VERTEX
  8
0
 62
7
  6
CONTINUOUS
 10
143.4233584706
 20
83.7842338371
  0
VERTEX
  8
0
 62
7
  6
CONTINUOUS
 10
143.3894385772
 20
83.7535200933
  0
VERTEX
  8
0
 62
7
  6
CONTINUOUS
 10
143.3583705885
 20
83.7247012974
  0
VERTEX
  8
0
 62
7
  6
CONTINUOUS
 10
143.2813072768
 20
83.6518532069
  0
SEQEND
  0
LINE
  8
SURFACE
 62
7
  6
CONTINUOUS
 10
153.1837765546
 20
84.9377223781
 11
146.8560580866
 21
84.4319407319
  0
LINE
  8
0
 62
7
  6
CONTINUOUS
 10
144.3949209928
 20
84.235219279
 11
153.1837765364
 21
84.9377223766
  0
LINE
  8
0
 62
7
  6
CONTINUOUS
 10
142.8801964349
 20
83.6241800961
 11
143.2513643062
 21
83.6241800961
  0
LINE
  8
0
 62
7
  6
CONTINUOUS
 10
158.1273126593
 20
86.2742780961
 11
158.1801964349
 21
86.2742780961
  0
LINE
  8
0
 62
7
  6
CONTINUOUS
 10
147.39128509
 20
87.8742780961
 11
158.1801964349
 21
87.8742780961
  0
LINE
  8
0
 62
7
  6
CONTINUOUS
 10
154.1909351481
 20
87.3301344963
 11
144.3949339261
 21
88.1131398795
  0
LINE
  8
SURFACE
 62
7
  6
CONTINUOUS
 10
147.3948518141
 20
87.8733530724
 11
149.2412332583
 21
87.7257697292
  0
POLYLINE
  8
0
 62
7
  6
CONTINUOUS
 66
1
 70
0
  0
VERTEX
  8
0
 62
7
  6
CONTINUOUS
 10
151.4598071866
 20
93.1999235704
  0
VERTEX
  8
0
 62
7
  6
CONTINUOUS
 10
151.5285414667
 20
93.2038622996
  0
VERTEX
  8
0
 62
7
  6
CONTINUOUS
 10
151.5904939825
 20
93.2044382327
  0
VERTEX
  8
0
 62
7
  6
CONTINUOUS
 10
151.6461411711
 20
93.2020769353
  0
VERTEX
  8
0
 62
7
  6
CONTINUOUS
 10
151.695986273
 20
93.1971403045
  0
VERTEX
  8
0
 62
7
  6
CONTINUOUS
 10
151.7407661852
 20
93.189873209
  0
VERTEX
  8
0
 62
7
  6
CONTINUOUS
 10
151.7809363103
 20
93.1804391217
  0
VERTEX
  8
0
 62
7
  6
CONTINUOUS
 10
151.8168940893
 20
93.1689027382
  0
SEQEND
  0
POLYLINE
  8
0
 62
7
  6
CONTINUOUS
 66
1
 70
0
  0
VERTEX
  8
0
 62
7
  6
CONTINUOUS
 10
147.7191490579
 20
92.8742780961
  0
VERTEX
  8
0
 62
7
  6
CONTINUOUS
 10
147.8130358538
 20
92.8771823632
  0
VERTEX
  8
0
 62
7
  6
CONTINUOUS
 10
147.9150444312
 20
92.8861989139
  0
VERTEX
  8
0
 62
7
  6
CONTINUOUS
 10
148.0257508368
 20
92.9017828594
  0
VERTEX
  8
0
 62
7
  6
CONTINUOUS
 10
148.145685376
 20
92.9243667586
  0
SEQEND
  0
LINE
  8
0
 62
7
  6
CONTINUOUS
 10
142.8801964349
 20
88.7241800961
 11
144.3877011283
 21
88.7241800961
  0
LINE
  8
0
 62
7
  6
CONTINUOUS
 10
158.1801964349
 20
92.8742780961
 11
147.3937219499
 21
92.8742780961
  0
POLYLINE
  8
0
 62
7
  6
CONTINUOUS
 66
1
 70
0
  0
VERTEX
  8
0
 62
7
  6
CONTINUOUS
 10
144.3877143162
 20
88.7241801478
  0
VERTEX
  8
0
 62
7
  6
CONTINUOUS
 10
144.4198850902
 20
88.7224919856
  0
VERTEX
  8
0
 62
7
  6
CONTINUOUS
 10
144.4630881409
 20
88.7156871247
  0
VERTEX
  8
0
 62
7
  6
CONTINUOUS
 10
144.5121639018
 20
88.7027051585
  0
VERTEX
  8
0
 62
7
  6
CONTINUOUS
 10
144.565856697
 20
88.6828309426
  0
VERTEX
  8
0
 62
7
  6
CONTINUOUS
 10
144.6228957074
 20
88.6555329534
  0
VERTEX
  8
0
 62
7
  6
CONTINUOUS
 10
144.6752396134
 20
88.624735016
  0
SEQEND
  0
POLYLINE
  8
SURFACE
 62
7
  6
CONTINUOUS
 66
1
 70
0
  0
VERTEX
  8
SURFACE
 62
7
  6
CONTINUOUS
 10
153.1837766762
 20
87.4106378045
  0
VERTEX
  8
SURFACE
 62
7
  6
CONTINUOUS
 10
153.2200099023
 20
87.4072306073
  0
VERTEX
  8
SURFACE
 62
7
  6
CONTINUOUS
 10
153.2561402184
 20
87.4028095974
  0
VERTEX
  8
SURFACE
 62
7
  6
CONTINUOUS
 10
153.2921325573
 20
87.397378783
  0
SEQEND
  0
POLYLINE
  8
SURFACE
 62
7
  6
CONTINUOUS
 66
1
 70
0
  0
VERTEX
  8
SURFACE
 62
7
  6
CONTINUOUS
 10
153.2921325573
 20
87.397378783
  0
VERTEX
  8
SURFACE
 62
7
  6
CONTINUOUS
 10
153.3279524927
 20
87.3909436304
  0
VERTEX
  8
SURFACE
 62
7
  6
CONTINUOUS
 10
153.3635702013
 20
87.3835101211
  0
VERTEX
  8
SURFACE
 62
7
  6
CONTINUOUS
 10
153.3989607163
 20
87.37508405
  0
VERTEX
  8
SURFACE
 62
7
  6
CONTINUOUS
 10
153.4341011683
 20
87.3656711133
  0
VERTEX
  8
SURFACE
 62
7
  6
CONTINUOUS
 10
153.453033208
 20
87.3600276126
  0
SEQEND
  0
POLYLINE
  8
0
 62
7
  6
CONTINUOUS
 66
1
 70
0
  0
VERTEX
  8
0
 62
7
  6
CONTINUOUS
 10
158.0729976944
 20
86.2819778661
  0
VERTEX
  8
0
 62
7
  6
CONTINUOUS
 10
158.0979765382
 20
86.2765381477
  0
VERTEX
  8
0
 62
7
  6
CONTINUOUS
 10
158.1234452407
 20
86.2743291989
  0
VERTEX
  8
0
 62
7
  6
CONTINUOUS
 10
158.1279569255
 20
86.2742783038
  0
SEQEND
  0
LINE
  8
0
 62
7
  6
CONTINUOUS
 10
158.073000822
 20
86.2819769722
 11
154.7763010268
 21
87.2241777433
  0
POLYLINE
  8
SURFACE
 62
7
  6
CONTINUOUS
 66
1
 70
0
  0
VERTEX
  8
SURFACE
 62
7
  6
CONTINUOUS
 10
153.4574042682
 20
87.358724632
  0
VERTEX
  8
SURFACE
 62
7
  6
CONTINUOUS
 10
153.4689621626
 20
87.3552793094
  0
VERTEX
  8
SURFACE
 62
7
  6
CONTINUOUS
 10
153.5034555832
 20
87.3439379346
  0
VERTEX
  8
SURFACE
 62
7
  6
CONTINUOUS
 10
153.5376173788
 20
87.3316381839
  0
VERTEX
  8
SURFACE
 62
7
  6
CONTINUOUS
 10
153.5713580856
 20
87.3184154241
  0
SEQEND
  0
LINE
  8
0
 62
7
  6
CONTINUOUS
 10
156.4093901468
 20
86.7584638345
 11
156.4390621095
 21
86.7489613142
  0
LINE
  8
0
 62
7
  6
CONTINUOUS
 10
156.4079332674
 20
86.7589783022
 11
156.4088442415
 21
86.7586851699
  0
POLYLINE
  8
0
 62
7
  6
CONTINUOUS
 66
1
 70
0
  0
VERTEX
  8
0
 62
7
  6
CONTINUOUS
 10
156.439050939
 20
86.7489649339
  0
VERTEX
  8
0
 62
7
  6
CONTINUOUS
 10
156.3925448874
 20
86.7647301739
  0
VERTEX
  8
0
 62
7
  6
CONTINUOUS
 10
156.3436351225
 20
86.7865349052
  0
VERTEX
  8
0
 62
7
  6
CONTINUOUS
 10
156.2950273961
 20
86.8140718204
  0
VERTEX
  8
0
 62
7
  6
CONTINUOUS
 10
156.24777172
 20
86.8473190442
  0
VERTEX
  8
0
 62
7
  6
CONTINUOUS
 10
156.2029406181
 20
86.8860298361
  0
VERTEX
  8
0
 62
7
  6
CONTINUOUS
 10
156.1615717384
 20
86.9297358182
  0
VERTEX
  8
0
 62
7
  6
CONTINUOUS
 10
156.1246748514
 20
86.977672854
  0
VERTEX
  8
0
 62
7
  6
CONTINUOUS
 10
156.0930362304
 20
87.0289530155
  0
VERTEX
  8
0
 62
7
  6
CONTINUOUS
 10
156.0672460865
 20
87.0825419438
  0
VERTEX
  8
0
 62
7
  6
CONTINUOUS
 10
156.0476427688
 20
87.1373550292
  0
VERTEX
  8
0
 62
7
  6
CONTINUOUS
 10
156.0342546288
 20
87.1926183021
  0
VERTEX
  8
0
 62
7
  6
CONTINUOUS
 10
156.0305761212
 20
87.2205050285
  0
SEQEND
  0
POLYLINE
  8
0
 62
7
  6
CONTINUOUS
 66
1
 70
0
  0
VERTEX
  8
0
 62
7
  6
CONTINUOUS
 10
154.6058163589
 20
77.9561901753
  0
VERTEX
  8
0
 62
7
  6
CONTINUOUS
 10
154.6496226193
 20
77.9305183831
  0
VERTEX
  8
0
 62
7
  6
CONTINUOUS
 10
154.6958065821
 20
77.9094216834
  0
VERTEX
  8
0
 62
7
  6
CONTINUOUS
 10
154.7438919975
 20
77.8931176258
  0
VERTEX
  8
0
 62
7
  6
CONTINUOUS
 10
154.7933829863
 20
77.8817743436
  0
SEQEND
  0
POLYLINE
  8
0
 62
7
  6
CONTINUOUS
 66
1
 70
0
  0
VERTEX
  8
0
 62
7
  6
CONTINUOUS
 10
154.2486721316
 20
93.4234024865
  0
VERTEX
  8
0
 62
7
  6
CONTINUOUS
 10
154.2381186874
 20
93.4206045637
  0
VERTEX
  8
0
 62
7
  6
CONTINUOUS
 10
154.2275116586
 20
93.4143192023
  0
VERTEX
  8
0
 62
7
  6
CONTINUOUS
 10
154.2171507335
 20
93.4047392476
  0
VERTEX
  8
0
 62
7
  6
CONTINUOUS
 10
154.2071906186
 20
93.3920310692
  0
VERTEX
  8
0
 62
7
  6
CONTINUOUS
 10
154.1978322454
 20
93.3764278215
  0
SEQEND
  0
POLYLINE
  8
0
 62
7
  6
CONTINUOUS
 66
1
 70
0
  0
VERTEX
  8
0
 62
7
  6
CONTINUOUS
 10
148.145679487
 20
92.924365663
  0
VERTEX
  8
0
 62
7
  6
CONTINUOUS
 10
148.228658041
 20
92.9388730598
  0
VERTEX
  8
0
 62
7
  6
CONTINUOUS
 10
148.3212836759
 20
92.9490578587
  0
SEQEND
  0
LINE
  8
SURFACE
 62
7
  6
CONTINUOUS
 10
143.3949900993
 20
92.5552936793
 11
143.3005194338
 21
92.5477425328
  0
LINE
  8
0
 62
7
  6
CONTINUOUS
 10
143.3774425107
 20
92.5538910808
 11
147.3777837379
 21
92.8736428494
  0
LINE
  8
0
 62
7
  6
CONTINUOUS
 10
147.3968962728
 20
92.8751705358
 11
154.1909328563
 21
93.4182255128
  0
LINE
  8
0
 62
7
  6
CONTINUOUS
 10
158.1279777162
 20
94.4742780961
 11
158.1801964349
 21
94.4742780961
  0
LINE
  8
SURFACE
 62
7
  6
CONTINUOUS
 10
153.1837766339
 20
95.8106378078
 11
143.3005194338
 21
96.6006176594
  0
POLYLINE
  8
0
 62
7
  6
CONTINUOUS
 66
1
 70
0
  0
VERTEX
  8
0
 62
7
  6
CONTINUOUS
 10
151.8168928597
 20
93.1689031749
  0
VERTEX
  8
0
 62
7
  6
CONTINUOUS
 10
152.0072283056
 20
93.1002995659
  0
VERTEX
  8
0
 62
7
  6
CONTINUOUS
 10
152.1903630517
 20
93.0390226816
  0
VERTEX
  8
0
 62
7
  6
CONTINUOUS
 10
152.3633336179
 20
92.9868543474
  0
VERTEX
  8
0
 62
7
  6
CONTINUOUS
 10
152.5245042344
 20
92.9446679368
  0
VERTEX
  8
0
 62
7
  6
CONTINUOUS
 10
152.6725310034
 20
92.9128028975
  0
VERTEX
  8
0
 62
7
  6
CONTINUOUS
 10
152.8074256997
 20
92.8909090679
  0
VERTEX
  8
0
 62
7
  6
CONTINUOUS
 10
152.9300396501
 20
92.8783109066
  0
VERTEX
  8
0
 62
7
  6
CONTINUOUS
 10
153.041243812
 20
92.8742780961
  0
SEQEND
  0
LINE
  8
0
 62
7
  6
CONTINUOUS
 10
156.3586389594
 20
86.7791240254
 11
156.4093901468
 21
86.7584638345
  0
POLYLINE
  8
SURFACE
 62
7
  6
CONTINUOUS
 66
1
 70
0
  0
VERTEX
  8
SURFACE
 62
7
  6
CONTINUOUS
 10
153.5713580856
 20
87.3184154241
  0
VERTEX
  8
SURFACE
 62
7
  6
CONTINUOUS
 10
153.6046469349
 20
87.3042882734
  0
VERTEX
  8
SURFACE
 62
7
  6
CONTINUOUS
 10
153.6375138315
 20
87.2892483281
  0
SEQEND
  0
LINE
  8
SURFACE
 62
7
  6
CONTINUOUS
 10
153.6375138315
 20
87.2892483281
 11
153.7030597981
 21
87.2558410745
  0
LINE
  8
0
 62
7
  6
CONTINUOUS
 10
156.3093143043
 20
86.8049593631
 11
156.3600963298
 21
86.7784498449
  0
LINE
  8
0
 62
7
  6
CONTINUOUS
 10
144.6752396616
 20
88.6247350908
 11
144.6752695894
 21
88.624715825
  0
POLYLINE
  8
0
 62
7
  6
CONTINUOUS
 66
1
 70
0
  0
VERTEX
  8
0
 62
7
  6
CONTINUOUS
 10
144.6752695894
 20
88.624715825
  0
VERTEX
  8
0
 62
7
  6
CONTINUOUS
 10
144.7203973221
 20
88.5948677819
  0
VERTEX
  8
0
 62
7
  6
CONTINUOUS
 10
144.7791097146
 20
88.5544358077
  0
VERTEX
  8
0
 62
7
  6
CONTINUOUS
 10
144.8434508895
 20
88.5093321238
  0
VERTEX
  8
0
 62
7
  6
CONTINUOUS
 10
144.9131451742
 20
88.4607525679
  0
VERTEX
  8
0
 62
7
  6
CONTINUOUS
 10
144.9881717106
 20
88.4098035187
  0
VERTEX
  8
0
 62
7
  6
CONTINUOUS
 10
145.0685401862
 20
88.3575891377
  0
VERTEX
  8
0
 62
7
  6
CONTINUOUS
 10
145.1542778375
 20
88.3051762801
  0
VERTEX
  8
0
 62
7
  6
CONTINUOUS
 10
145.245524436
 20
88.253517292
  0
VERTEX
  8
0
 62
7
  6
CONTINUOUS
 10
145.3425213162
 20
88.2034703552
  0
VERTEX
  8
0
 62
7
  6
CONTINUOUS
 10
145.4454547484
 20
88.1558953331
  0
VERTEX
  8
0
 62
7
  6
CONTINUOUS
 10
145.5545318816
 20
88.1116172928
  0
VERTEX
  8
0
 62
7
  6
CONTINUOUS
 10
145.6700106875
 20
88.0714338664
  0
VERTEX
  8
0
 62
7
  6
CONTINUOUS
 10
145.7922067992
 20
88.0361450329
  0
VERTEX
  8
0
 62
7
  6
CONTINUOUS
 10
145.9212985446
 20
88.0066339559
  0
VERTEX
  8
0
 62
7
  6
CONTINUOUS
 10
146.0572415011
 20
87.9838753809
  0
VERTEX
  8
0
 62
7
  6
CONTINUOUS
 10
146.1845723378
 20
87.9700920134
  0
SEQEND
  0
LINE
  8
0
 62
7
  6
CONTINUOUS
 10
154.5646826886
 20
77.9863136221
 11
154.6058163589
 21
77.9561901753
  0
POLYLINE
  8
0
 62
7
  6
CONTINUOUS
 66
1
 70
0
  0
VERTEX
  8
0
 62
7
  6
CONTINUOUS
 10
143.2813072768
 20
218.0518532069
  0
VERTEX
  8
0
 62
7
  6
CONTINUOUS
 10
143.261282806
 20
218.0331876611
  0
VERTEX
  8
0
 62
7
  6
CONTINUOUS
 10
143.2443907215
 20
218.0178469794
  0
VERTEX
  8
0
 62
7
  6
CONTINUOUS
 10
143.2309099
 20
218.0060720687
  0
VERTEX
  8
0
 62
7
  6
CONTINUOUS
 10
143.2211425806
 20
217.9979750968
  0
VERTEX
  8
0
 62
7
  6
CONTINUOUS
 10
143.2168244273
 20
217.9945863334
  0
SEQEND
  0
LINE
  8
0
 62
7
  6
CONTINUOUS
 10
143.2168022267
 20
217.9945693158
 11
143.216518508
 21
217.9943555629
  0
LINE
  8
0
 62
7
  6
CONTINUOUS
 10
158.0736870619
 20
212.0665793483
 11
154.7763083041
 21
211.1241845288
  0
POLYLINE
  8
0
 62
7
  6
CONTINUOUS
 66
1
 70
0
  0
VERTEX
  8
0
 62
7
  6
CONTINUOUS
 10
151.3801964349
 20
101.2178942727
  0
VERTEX
  8
0
 62
7
  6
CONTINUOUS
 10
151.0716512258
 20
101.2127949409
  0
VERTEX
  8
0
 62
7
  6
CONTINUOUS
 10
149.6531358921
 20
101.1913027696
  0
VERTEX
  8
0
 62
7
  6
CONTINUOUS
 10
148.2187696654
 20
101.1714985727
  0
VERTEX
  8
0
 62
7
  6
CONTINUOUS
 10
146.4798490019
 20
101.1495764732
  0
SEQEND
  0
POLYLINE
  8
0
 62
7
  6
CONTINUOUS
 66
1
 70
0
  0
VERTEX
  8
0
 62
7
  6
CONTINUOUS
 10
146.4798490019
 20
101.1495764732
  0
VERTEX
  8
0
 62
7
  6
CONTINUOUS
 10
146.1784346257
 20
101.144835595
  0
VERTEX
  8
0
 62
7
  6
CONTINUOUS
 10
145.8944881987
 20
101.1396031447
  0
VERTEX
  8
0
 62
7
  6
CONTINUOUS
 10
145.6278677165
 20
101.1339572651
  0
VERTEX
  8
0
 62
7
  6
CONTINUOUS
 10
145.3782955517
 20
101.1279701886
  0
VERTEX
  8
0
 62
7
  6
CONTINUOUS
 10
145.1453702721
 20
101.1217080089
  0
VERTEX
  8
0
 62
7
  6
CONTINUOUS
 10
144.9285866795
 20
101.1152306502
  0
VERTEX
  8
0
 62
7
  6
CONTINUOUS
 10
144.7273591562
 20
101.1085920429
  0
VERTEX
  8
0
 62
7
  6
CONTINUOUS
 10
144.5410973741
 20
101.101842466
  0
VERTEX
  8
0
 62
7
  6
CONTINUOUS
 10
144.3693172582
 20
101.0950336715
  0
VERTEX
  8
0
 62
7
  6
CONTINUOUS
 10
144.211493512
 20
101.0882147278
  0
VERTEX
  8
0
 62
7
  6
CONTINUOUS
 10
144.0669688135
 20
101.081427503
  0
VERTEX
  8
0
 62
7
  6
CONTINUOUS
 10
143.9346429253
 20
101.0746880453
  0
VERTEX
  8
0
 62
7
  6
CONTINUOUS
 10
143.8133244708
 20
101.0679974011
  0
VERTEX
  8
0
 62
7
  6
CONTINUOUS
 10
143.7019105533
 20
101.0613496364
  0
VERTEX
  8
0
 62
7
  6
CONTINUOUS
 10
143.5995335774
 20
101.0547419614
  0
VERTEX
  8
0
 62
7
  6
CONTINUOUS
 10
143.505770961
 20
101.0481942524
  0
VERTEX
  8
0
 62
7
  6
CONTINUOUS
 10
143.4202385593
 20
101.0417287694
  0
VERTEX
  8
0
 62
7
  6
CONTINUOUS
 10
143.3425165115
 20
101.0353651651
  0
VERTEX
  8
0
 62
7
  6
CONTINUOUS
 10
143.272167763
 20
101.0291216198
  0
VERTEX
  8
0
 62
7
  6
CONTINUOUS
 10
143.20882224
 20
101.0230227188
  0
VERTEX
  8
0
 62
7
  6
CONTINUOUS
 10
143.1520966173
 20
101.0170940731
  0
VERTEX
  8
0
 62
7
  6
CONTINUOUS
 10
143.10135322
 20
101.0113336312
  0
VERTEX
  8
0
 62
7
  6
CONTINUOUS
 10
143.0556655646
 20
101.0056950284
  0
VERTEX
  8
0
 62
7
  6
CONTINUOUS
 10
143.0141736559
 20
101.000118676
  0
VERTEX
  8
0
 62
7
  6
CONTINUOUS
 10
142.9762332539
 20
100.9945528947
  0
VERTEX
  8
0
 62
7
  6
CONTINUOUS
 10
142.9413649653
 20
100.9889535134
  0
VERTEX
  8
0
 62
7
  6
CONTINUOUS
 10
142.9090921746
 20
100.983261585
  0
VERTEX
  8
0
 62
7
  6
CONTINUOUS
 10
142.8789368612
 20
100.9773988681
  0
VERTEX
  8
0
 62
7
  6
CONTINUOUS
 10
142.8504292343
 20
100.9712642322
  0
VERTEX
  8
0
 62
7
  6
CONTINUOUS
 10
142.8230816451
 20
100.964721057
  0
VERTEX
  8
0
 62
7
  6
CONTINUOUS
 10
142.7963286599
 20
100.9575687895
  0
VERTEX
  8
0
 62
7
  6
CONTINUOUS
 10
142.7695111229
 20
100.949510792
  0
VERTEX
  8
0
 62
7
  6
CONTINUOUS
 10
142.7419126611
 20
100.9401244066
  0
VERTEX
  8
0
 62
7
  6
CONTINUOUS
 10
142.7129634454
 20
100.9288892345
  0
VERTEX
  8
0
 62
7
  6
CONTINUOUS
 10
142.682297933
 20
100.915192734
  0
VERTEX
  8
0
 62
7
  6
CONTINUOUS
 10
142.649768879
 20
100.8983313999
  0
VERTEX
  8
0
 62
7
  6
CONTINUOUS
 10
142.615965051
 20
100.8778506573
  0
VERTEX
  8
0
 62
7
  6
CONTINUOUS
 10
142.5822222776
 20
100.8538578564
  0
VERTEX
  8
0
 62
7
  6
CONTINUOUS
 10
142.549268017
 20
100.8262911854
  0
VERTEX
  8
0
 62
7
  6
CONTINUOUS
 10
142.5168698094
 20
100.7942087212
  0
VERTEX
  8
0
 62
7
  6
CONTINUOUS
 10
142.4853118521
 20
100.7567079036
  0
VERTEX
  8
0
 62
7
  6
CONTINUOUS
 10
142.4558845603
 20
100.7138632872
  0
VERTEX
  8
0
 62
7
  6
CONTINUOUS
 10
142.4299517532
 20
100.6662141439
  0
VERTEX
  8
0
 62
7
  6
CONTINUOUS
 10
142.408698879
 20
100.6146308124
  0
VERTEX
  8
0
 62
7
  6
CONTINUOUS
 10
142.3929806641
 20
100.560053531
  0
VERTEX
  8
0
 62
7
  6
CONTINUOUS
 10
142.3833778707
 20
100.5035303494
  0
VERTEX
  8
0
 62
7
  6
CONTINUOUS
 10
142.3801964599
 20
100.4467366245
  0
SEQEND
  0
LINE
  8
0
 62
7
  6
CONTINUOUS
 10
151.8788203119
 20
102.2021324069
 11
154.3801930352
 21
102.2090047581
  0
LINE
  8
0
 62
7
  6
CONTINUOUS
 10
151.3801964349
 20
101.2740820961
 11
150.3801964349
 21
101.2740820961
  0
LINE
  8
0
 62
7
  6
CONTINUOUS
 10
158.1035979059
 20
103.0742780961
 11
158.1801964349
 21
103.0742780961
  0
POLYLINE
  8
SURFACE
 62
7
  6
CONTINUOUS
 66
1
 70
0
  0
VERTEX
  8
SURFACE
 62
7
  6
CONTINUOUS
 10
153.7030597981
 20
87.2558410745
  0
VERTEX
  8
SURFACE
 62
7
  6
CONTINUOUS
 10
153.7699814007
 20
87.2166768018
  0
VERTEX
  8
SURFACE
 62
7
  6
CONTINUOUS
 10
153.8381819886
 20
87.1709232656
  0
VERTEX
  8
SURFACE
 62
7
  6
CONTINUOUS
 10
153.9072887499
 20
87.1177256475
  0
VERTEX
  8
SURFACE
 62
7
  6
CONTINUOUS
 10
153.9764022249
 20
87.0564795119
  0
VERTEX
  8
SURFACE
 62
7
  6
CONTINUOUS
 10
154.0446960557
 20
86.9864017935
  0
VERTEX
  8
SURFACE
 62
7
  6
CONTINUOUS
 10
154.1108787725
 20
86.9070422286
  0
VERTEX
  8
SURFACE
 62
7
  6
CONTINUOUS
 10
154.1735738662
 20
86.8179961404
  0
VERTEX
  8
SURFACE
 62
7
  6
CONTINUOUS
 10
154.2310895393
 20
86.7192913842
  0
VERTEX
  8
SURFACE
 62
7
  6
CONTINUOUS
 10
154.2816048931
 20
86.6113770604
  0
VERTEX
  8
SURFACE
 62
7
  6
CONTINUOUS
 10
154.3232442061
 20
86.4953391717
  0
VERTEX
  8
SURFACE
 62
7
  6
CONTINUOUS
 10
154.3543963342
 20
86.3724811965
  0
VERTEX
  8
SURFACE
 62
7
  6
CONTINUOUS
 10
154.373039009
 20
86.2490524098
  0
SEQEND
  0
LINE
  8
0
 62
7
  6
CONTINUOUS
 10
156.2605763439
 20
86.8368057233
 11
156.3107504112
 21
86.8041206786
  0
LINE
  8
0
 62
7
  6
CONTINUOUS
 10
154.5271147158
 20
78.0201556625
 11
154.5646826886
 21
77.9863136221
  0
POLYLINE
  8
0
 62
7
  6
CONTINUOUS
 66
1
 70
0
  0
VERTEX
  8
0
 62
7
  6
CONTINUOUS
 10
143.2513658141
 20
88.7241800961
  0
VERTEX
  8
0
 62
7
  6
CONTINUOUS
 10
143.261718065
 20
88.714771414
  0
VERTEX
  8
0
 62
7
  6
CONTINUOUS
 10
143.2817827677
 20
88.6960596962
  0
SEQEND
  0
POLYLINE
  8
0
 62
7
  6
CONTINUOUS
 66
1
 70
0
  0
VERTEX
  8
0
 62
7
  6
CONTINUOUS
 10
143.3588904811
 20
88.6231717916
  0
VERTEX
  8
0
 62
7
  6
CONTINUOUS
 10
143.3899670886
 20
88.5943553834
  0
VERTEX
  8
0
 62
7
  6
CONTINUOUS
 10
143.4239059199
 20
88.5636379667
  0
VERTEX
  8
0
 62
7
  6
CONTINUOUS
 10
143.4609373051
 20
88.5311864413
  0
VERTEX
  8
0
 62
7
  6
CONTINUOUS
 10
143.5013598163
 20
88.4971635508
  0
VERTEX
  8
0
 62
7
  6
CONTINUOUS
 10
143.5452501746
 20
88.4619650286
  0
VERTEX
  8
0
 62
7
  6
CONTINUOUS
 10
143.5925292627
 20
88.4261258978
  0
VERTEX
  8
0
 62
7
  6
CONTINUOUS
 10
143.6431268388
 20
88.390162015
  0
VERTEX
  8
0
 62
7
  6
CONTINUOUS
 10
143.6970381459
 20
88.3545259991
  0
VERTEX
  8
0
 62
7
  6
CONTINUOUS
 10
143.7542717256
 20
88.3196528257
  0
VERTEX
  8
0
 62
7
  6
CONTINUOUS
 10
143.8148299876
 20
88.2859735304
  0
VERTEX
  8
0
 62
7
  6
CONTINUOUS
 10
143.8787106792
 20
88.2539138464
  0
VERTEX
  8
0
 62
7
  6
CONTINUOUS
 10
143.9459072118
 20
88.2238963646
  0
VERTEX
  8
0
 62
7
  6
CONTINUOUS
 10
144.0164144673
 20
88.1963433143
  0
VERTEX
  8
0
 62
7
  6
CONTINUOUS
 10
144.0901714722
 20
88.1717013374
  0
VERTEX
  8
0
 62
7
  6
CONTINUOUS
 10
144.1669960561
 20
88.1504507761
  0
VERTEX
  8
0
 62
7
  6
CONTINUOUS
 10
144.2466784575
 20
88.1330641127
  0
VERTEX
  8
0
 62
7
  6
CONTINUOUS
 10
144.3290064922
 20
88.1200087976
  0
VERTEX
  8
0
 62
7
  6
CONTINUOUS
 10
144.3949962561
 20
88.1131344472
  0
SEQEND
  0
LINE
  8
0
 62
7
  6
CONTINUOUS
 10
143.2817827677
 20
88.6960596962
 11
143.3588904811
 21
88.6231717916
  0
POLYLINE
  8
0
 62
7
  6
CONTINUOUS
 66
1
 70
0
  0
VERTEX
  8
0
 62
7
  6
CONTINUOUS
 10
150.3801964349
 20
105.2860900506
  0
VERTEX
  8
0
 62
7
  6
CONTINUOUS
 10
150.1144323026
 20
105.2857553598
  0
VERTEX
  8
0
 62
7
  6
CONTINUOUS
 10
149.8497571299
 20
105.2847526508
  0
VERTEX
  8
0
 62
7
  6
CONTINUOUS
 10
149.5872555175
 20
105.2830860089
  0
VERTEX
  8
0
 62
7
  6
CONTINUOUS
 10
149.328003361
 20
105.2807622258
  0
VERTEX
  8
0
 62
7
  6
CONTINUOUS
 10
149.0730635248
 20
105.2777907736
  0
VERTEX
  8
0
 62
7
  6
CONTINUOUS
 10
148.823481582
 20
105.2741837687
  0
VERTEX
  8
0
 62
7
  6
CONTINUOUS
 10
148.5802815754
 20
105.2699559258
  0
VERTEX
  8
0
 62
7
  6
CONTINUOUS
 10
148.3444618704
 20
105.2651245009
  0
VERTEX
  8
0
 62
7
  6
CONTINUOUS
 10
148.1169911086
 20
105.2597092253
  0
VERTEX
  8
0
 62
7
  6
CONTINUOUS
 10
147.8988042055
 20
105.2537322282
  0
VERTEX
  8
0
 62
7
  6
CONTINUOUS
 10
147.6907985312
 20
105.2472179512
  0
VERTEX
  8
0
 62
7
  6
CONTINUOUS
 10
147.4938301959
 20
105.2401930519
  0
VERTEX
  8
0
 62
7
  6
CONTINUOUS
 10
147.308710448
 20
105.2326862979
  0
VERTEX
  8
0
 62
7
  6
CONTINUOUS
 10
147.1362023118
 20
105.2247284532
  0
VERTEX
  8
0
 62
7
  6
CONTINUOUS
 10
146.977017346
 20
105.2163521545
  0
VERTEX
  8
0
 62
7
  6
CONTINUOUS
 10
146.8318126151
 20
105.2075917785
  0
VERTEX
  8
0
 62
7
  6
CONTINUOUS
 10
146.7011879021
 20
105.1984833044
  0
VERTEX
  8
0
 62
7
  6
CONTINUOUS
 10
146.5856831079
 20
105.1890641643
  0
VERTEX
  8
0
 62
7
  6
CONTINUOUS
 10
146.4857759271
 20
105.1793730908
  0
VERTEX
  8
0
 62
7
  6
CONTINUOUS
 10
146.4018797765
 20
105.1694499569
  0
VERTEX
  8
0
 62
7
  6
CONTINUOUS
 10
146.3343419771
 20
105.159335609
  0
VERTEX
  8
0
 62
7
  6
CONTINUOUS
 10
146.2834422431
 20
105.149071698
  0
VERTEX
  8
0
 62
7
  6
CONTINUOUS
 10
146.2493914476
 20
105.1387005039
  0
VERTEX
  8
0
 62
7
  6
CONTINUOUS
 10
146.2323306916
 20
105.1282647585
  0
VERTEX
  8
0
 62
7
  6
CONTINUOUS
 10
146.2301980936
 20
105.1230361065
  0
SEQEND
  0
LINE
  8
0
 62
7
  6
CONTINUOUS
 10
150.3801964349
 20
104.6742780961
 11
158.1801964349
 21
104.6742780961
  0
LINE
  8
0
 62
7
  6
CONTINUOUS
 10
151.8788206676
 20
103.7462277844
 11
154.3801930352
 21
103.7393554341
  0
POLYLINE
  8
0
 62
7
  6
CONTINUOUS
 66
1
 70
0
  0
VERTEX
  8
0
 62
7
  6
CONTINUOUS
 10
148.2187670402
 20
104.776861654
  0
VERTEX
  8
0
 62
7
  6
CONTINUOUS
 10
149.6531319467
 20
104.7570574798
  0
VERTEX
  8
0
 62
7
  6
CONTINUOUS
 10
150.3801964349
 20
104.7460416026
  0
SEQEND
  0
POLYLINE
  8
0
 62
7
  6
CONTINUOUS
 66
1
 70
0
  0
VERTEX
  8
0
 62
7
  6
CONTINUOUS
 10
145.7823291152
 20
104.811042059
  0
VERTEX
  8
0
 62
7
  6
CONTINUOUS
 10
145.9693639448
 20
104.8073018006
  0
VERTEX
  8
0
 62
7
  6
CONTINUOUS
 10
146.1644976601
 20
104.8037636042
  0
VERTEX
  8
0
 62
7
  6
CONTINUOUS
 10
146.3677690991
 20
104.8004525553
  0
VERTEX
  8
0
 62
7
  6
CONTINUOUS
 10
146.57918865
 20
104.7973949412
  0
VERTEX
  8
0
 62
7
  6
CONTINUOUS
 10
148.2187670402
 20
104.776861654
  0
SEQEND
  0
LINE
  8
0
 62
7
  6
CONTINUOUS
 10
145.4322451146
 20
104.8190349415
 11
145.7823291152
 21
104.811042059
  0
LINE
  8
0
 62
7
  6
CONTINUOUS
 10
145.1133579579
 20
104.8275676197
 11
145.4322451146
 21
104.8190349415
  0
LINE
  8
0
 62
7
  6
CONTINUOUS
 10
144.8244018498
 20
104.8364868229
 11
145.1133579579
 21
104.8275676197
  0
LINE
  8
0
 62
7
  6
CONTINUOUS
 10
144.5638766329
 20
104.8456585436
 11
144.8244018498
 21
104.8364868229
  0
LINE
  8
0
 62
7
  6
CONTINUOUS
 10
144.3304371157
 20
104.8549533779
 11
144.5638766329
 21
104.8456585436
  0
LINE
  8
0
 62
7
  6
CONTINUOUS
 10
144.1227039775
 20
104.864248854
 11
144.3304371157
 21
104.8549533779
  0
LINE
  8
0
 62
7
  6
CONTINUOUS
 10
143.9385427051
 20
104.873465613
 11
144.1227039775
 21
104.864248854
  0
LINE
  8
0
 62
7
  6
CONTINUOUS
 10
143.7750306633
 20
104.8825892984
 11
143.9385427051
 21
104.873465613
  0
LINE
  8
0
 62
7
  6
CONTINUOUS
 10
143.6295003841
 20
104.8916297049
 11
143.7750306633
 21
104.8825892984
  0
LINE
  8
0
 62
7
  6
CONTINUOUS
 10
143.5002364907
 20
104.9005691366
 11
143.6295003841
 21
104.8916297049
  0
POLYLINE
  8
0
 62
7
  6
CONTINUOUS
 66
1
 70
0
  0
VERTEX
  8
0
 62
7
  6
CONTINUOUS
 10
154.1868056223
 20
104.6742780961
  0
VERTEX
  8
0
 62
7
  6
CONTINUOUS
 10
154.2124798542
 20
104.6670730389
  0
VERTEX
  8
0
 62
7
  6
CONTINUOUS
 10
154.2409516463
 20
104.6551300286
  0
VERTEX
  8
0
 62
7
  6
CONTINUOUS
 10
154.2677341502
 20
104.6397685171
  0
VERTEX
  8
0
 62
7
  6
CONTINUOUS
 10
154.2924188702
 20
104.6212228014
  0
VERTEX
  8
0
 62
7
  6
CONTINUOUS
 10
154.3146293038
 20
104.599775745
  0
VERTEX
  8
0
 62
7
  6
CONTINUOUS
 10
154.3340266789
 20
104.5757544738
  0
VERTEX
  8
0
 62
7
  6
CONTINUOUS
 10
154.3503151334
 20
104.5495253785
  0
VERTEX
  8
0
 62
7
  6
CONTINUOUS
 10
154.3632462192
 20
104.5214885474
  0
VERTEX
  8
0
 62
7
  6
CONTINUOUS
 10
154.3726223937
 20
104.4920729048
  0
VERTEX
  8
0
 62
7
  6
CONTINUOUS
 10
154.3783010976
 20
104.4617275648
  0
VERTEX
  8
0
 62
7
  6
CONTINUOUS
 10
154.3801963684
 20
104.4310022812
  0
SEQEND
  0
LINE
  8
0
 62
7
  6
CONTINUOUS
 10
155.1719768235
 20
103.9110931242
 11
157.591679173
 21
103.2195392791
  0
LINE
  8
0
 62
7
  6
CONTINUOUS
 10
156.213220049
 20
86.8749075928
 11
156.261963885
 21
86.8358026499
  0
LINE
  8
0
 62
7
  6
CONTINUOUS
 10
154.4929982662
 20
78.0578421718
 11
154.5013655932
 21
78.0485782063
  0
POLYLINE
  8
0
 62
7
  6
CONTINUOUS
 66
1
 70
0
  0
VERTEX
  8
0
 62
7
  6
CONTINUOUS
 10
154.2486721316
 20
110.2234024865
  0
VERTEX
  8
0
 62
7
  6
CONTINUOUS
 10
154.2381186874
 20
110.2206045637
  0
VERTEX
  8
0
 62
7
  6
CONTINUOUS
 10
154.2275116586
 20
110.2143192023
  0
VERTEX
  8
0
 62
7
  6
CONTINUOUS
 10
154.2171507335
 20
110.2047392476
  0
VERTEX
  8
0
 62
7
  6
CONTINUOUS
 10
154.2071906186
 20
110.1920310692
  0
VERTEX
  8
0
 62
7
  6
CONTINUOUS
 10
154.1978322454
 20
110.1764278215
  0
SEQEND
  0
POLYLINE
  8
0
 62
7
  6
CONTINUOUS
 66
1
 70
0
  0
VERTEX
  8
0
 62
7
  6
CONTINUOUS
 10
148.145679487
 20
109.724365663
  0
VERTEX
  8
0
 62
7
  6
CONTINUOUS
 10
148.228658041
 20
109.7388730598
  0
VERTEX
  8
0
 62
7
  6
CONTINUOUS
 10
148.3212836759
 20
109.7490578587
  0
SEQEND
  0
LINE
  8
SURFACE
 62
7
  6
CONTINUOUS
 10
143.3949900993
 20
109.3552936793
 11
143.3005194338
 21
109.3477425328
  0
LINE
  8
0
 62
7
  6
CONTINUOUS
 10
143.3774425107
 20
109.3538910808
 11
147.3777837379
 21
109.6736428494
  0
LINE
  8
0
 62
7
  6
CONTINUOUS
 10
147.3968962728
 20
109.6751705358
 11
154.1909328563
 21
110.2182255128
  0
POLYLINE
  8
0
 62
7
  6
CONTINUOUS
 66
1
 70
0
  0
VERTEX
  8
0
 62
7
  6
CONTINUOUS
 10
151.4598071866
 20
109.9999235704
  0
VERTEX
  8
0
 62
7
  6
CONTINUOUS
 10
151.5285414667
 20
110.0038622996
  0
VERTEX
  8
0
 62
7
  6
CONTINUOUS
 10
151.5904939825
 20
110.0044382327
  0
VERTEX
  8
0
 62
7
  6
CONTINUOUS
 10
151.6461411711
 20
110.0020769353
  0
VERTEX
  8
0
 62
7
  6
CONTINUOUS
 10
151.695986273
 20
109.9971403045
  0
VERTEX
  8
0
 62
7
  6
CONTINUOUS
 10
151.7407661852
 20
109.989873209
  0
VERTEX
  8
0
 62
7
  6
CONTINUOUS
 10
151.7809363103
 20
109.9804391217
  0
VERTEX
  8
0
 62
7
  6
CONTINUOUS
 10
151.8168940893
 20
109.9689027382
  0
SEQEND
  0
POLYLINE
  8
0
 62
7
  6
CONTINUOUS
 66
1
 70
0
  0
VERTEX
  8
0
 62
7
  6
CONTINUOUS
 10
147.7191490579
 20
109.6742780961
  0
VERTEX
  8
0
 62
7
  6
CONTINUOUS
 10
147.8130358538
 20
109.6771823632
  0
VERTEX
  8
0
 62
7
  6
CONTINUOUS
 10
147.9150444312
 20
109.6861989139
  0
VERTEX
  8
0
 62
7
  6
CONTINUOUS
 10
148.0257508368
 20
109.7017828594
  0
VERTEX
  8
0
 62
7
  6
CONTINUOUS
 10
148.145685376
 20
109.7243667586
  0
SEQEND
  0
LINE
  8
0
 62
7
  6
CONTINUOUS
 10
158.1801964349
 20
109.6742780961
 11
147.3937219499
 21
109.6742780961
  0
LINE
  8
0
 62
7
  6
CONTINUOUS
 10
158.1279777162
 20
111.2742780961
 11
158.1801964349
 21
111.2742780961
  0
LINE
  8
SURFACE
 62
7
  6
CONTINUOUS
 10
153.1837766339
 20
112.6106378078
 11
143.3005194338
 21
113.4006176594
  0
POLYLINE
  8
0
 62
7
  6
CONTINUOUS
 66
1
 70
0
  0
VERTEX
  8
0
 62
7
  6
CONTINUOUS
 10
156.9131154559
 20
103.4134736065
  0
VERTEX
  8
0
 62
7
  6
CONTINUOUS
 10
156.8826277226
 20
103.4240844381
  0
VERTEX
  8
0
 62
7
  6
CONTINUOUS
 10
156.8540906935
 20
103.4377815487
  0
VERTEX
  8
0
 62
7
  6
CONTINUOUS
 10
156.8280532029
 20
103.454088334
  0
VERTEX
  8
0
 62
7
  6
CONTINUOUS
 10
156.8045302253
 20
103.4728218563
  0
VERTEX
  8
0
 62
7
  6
CONTINUOUS
 10
156.7839033086
 20
103.4935652601
  0
VERTEX
  8
0
 62
7
  6
CONTINUOUS
 10
156.7665900966
 20
103.5156877782
  0
VERTEX
  8
0
 62
7
  6
CONTINUOUS
 10
156.752811823
 20
103.5385053996
  0
VERTEX
  8
0
 62
7
  6
CONTINUOUS
 10
156.7424688783
 20
103.5616379655
  0
VERTEX
  8
0
 62
7
  6
CONTINUOUS
 10
156.7354256059
 20
103.5847740409
  0
VERTEX
  8
0
 62
7
  6
CONTINUOUS
 10
156.7315304369
 20
103.6076752808
  0
VERTEX
  8
0
 62
7
  6
CONTINUOUS
 10
156.7306411906
 20
103.6301821399
  0
SEQEND
  0
POLYLINE
  8
0
 62
7
  6
CONTINUOUS
 66
1
 70
0
  0
VERTEX
  8
0
 62
7
  6
CONTINUOUS
 10
158.1043197486
 20
103.0742976326
  0
VERTEX
  8
0
 62
7
  6
CONTINUOUS
 10
158.1038597264
 20
103.0744866875
  0
VERTEX
  8
0
 62
7
  6
CONTINUOUS
 10
158.0981434466
 20
103.0768737044
  0
VERTEX
  8
0
 62
7
  6
CONTINUOUS
 10
158.0861321753
 20
103.0824380335
  0
VERTEX
  8
0
 62
7
  6
CONTINUOUS
 10
158.0677596165
 20
103.0924638541
  0
VERTEX
  8
0
 62
7
  6
CONTINUOUS
 10
158.0445812157
 20
103.1079632405
  0
VERTEX
  8
0
 62
7
  6
CONTINUOUS
 10
158.0188834388
 20
103.12950627
  0
VERTEX
  8
0
 62
7
  6
CONTINUOUS
 10
157.9926574189
 20
103.1576694222
  0
VERTEX
  8
0
 62
7
  6
CONTINUOUS
 10
157.9679849869
 20
103.1929480269
  0
VERTEX
  8
0
 62
7
  6
CONTINUOUS
 10
157.9483478624
 20
103.2331604757
  0
VERTEX
  8
0
 62
7
  6
CONTINUOUS
 10
157.9368989035
 20
103.2712114205
  0
SEQEND
  0
LINE
  8
0
 62
7
  6
CONTINUOUS
 10
158.104365847
 20
103.0742780964
 11
158.1043197486
 21
103.0742976326
  0
LINE
  8
0
 62
7
  6
CONTINUOUS
 10
156.168890468
 20
86.9186548264
 11
156.2145202847
 21
86.8737528759
  0
POLYLINE
  8
0
 62
7
  6
CONTINUOUS
 66
1
 70
0
  0
VERTEX
  8
0
 62
7
  6
CONTINUOUS
 10
154.4138583621
 20
204.8624231388
  0
VERTEX
  8
0
 62
7
  6
CONTINUOUS
 10
154.3988321003
 20
204.8514249158
  0
VERTEX
  8
0
 62
7
  6
CONTINUOUS
 10
154.3883156551
 20
204.8379719641
  0
VERTEX
  8
0
 62
7
  6
CONTINUOUS
 10
154.3821760876
 20
204.821943167
  0
VERTEX
  8
0
 62
7
  6
CONTINUOUS
 10
154.3801964349
 20
204.8033031152
  0
SEQEND
  0
LINE
  8
0
 62
7
  6
CONTINUOUS
 10
158.0736870619
 20
195.2665793483
 11
154.7763083041
 21
194.3241845288
  0
LINE
  8
0
 62
7
  6
CONTINUOUS
 10
153.1837765364
 20
118.5377223766
 11
151.459218069
 21
118.3998764808
  0
LINE
  8
SURFACE
 62
7
  6
CONTINUOUS
 10
153.1837765546
 20
118.5377223781
 11
143.3005194338
 21
117.7477425328
  0
LINE
  8
0
 62
7
  6
CONTINUOUS
 10
143.3774425107
 20
117.7538910808
 11
146.2301964349
 21
117.981914907
  0
POLYLINE
  8
0
 62
7
  6
CONTINUOUS
 66
1
 70
0
  0
VERTEX
  8
0
 62
7
  6
CONTINUOUS
 10
151.8168928597
 20
109.9689031749
  0
VERTEX
  8
0
 62
7
  6
CONTINUOUS
 10
152.0072283056
 20
109.9002995659
  0
VERTEX
  8
0
 62
7
  6
CONTINUOUS
 10
152.1903630517
 20
109.8390226816
  0
VERTEX
  8
0
 62
7
  6
CONTINUOUS
 10
152.3633336179
 20
109.7868543474
  0
VERTEX
  8
0
 62
7
  6
CONTINUOUS
 10
152.5245042344
 20
109.7446679368
  0
VERTEX
  8
0
 62
7
  6
CONTINUOUS
 10
152.6725310034
 20
109.7128028975
  0
VERTEX
  8
0
 62
7
  6
CONTINUOUS
 10
152.8074256997
 20
109.6909090679
  0
VERTEX
  8
0
 62
7
  6
CONTINUOUS
 10
152.9300396501
 20
109.6783109066
  0
VERTEX
  8
0
 62
7
  6
CONTINUOUS
 10
153.041243812
 20
109.6742780961
  0
SEQEND
  0
LINE
  8
0
 62
7
  6
CONTINUOUS
 10
156.1292431595
 20
86.9667759393
 11
156.1700573321
 21
86.9173824421
  0
LINE
  8
0
 62
7
  6
CONTINUOUS
 10
154.4627013149
 20
78.0990477193
 11
154.4929982662
 21
78.0578421718
  0
POLYLINE
  8
0
 62
7
  6
CONTINUOUS
 66
1
 70
0
  0
VERTEX
  8
0
 62
7
  6
CONTINUOUS
 10
151.8165209854
 20
188.3795150933
  0
VERTEX
  8
0
 62
7
  6
CONTINUOUS
 10
151.7805503642
 20
188.3679738349
  0
VERTEX
  8
0
 62
7
  6
CONTINUOUS
 10
151.7403614852
 20
188.3585352998
  0
VERTEX
  8
0
 62
7
  6
CONTINUOUS
 10
151.6955565829
 20
188.3512646924
  0
VERTEX
  8
0
 62
7
  6
CONTINUOUS
 10
151.6456803797
 20
188.3463259544
  0
VERTEX
  8
0
 62
7
  6
CONTINUOUS
 10
151.5899959593
 20
188.3439642653
  0
VERTEX
  8
0
 62
7
  6
CONTINUOUS
 10
151.52800033
 20
188.3445416908
  0
VERTEX
  8
0
 62
7
  6
CONTINUOUS
 10
151.4592196093
 20
188.3484835875
  0
SEQEND
  0
POLYLINE
  8
0
 62
7
  6
CONTINUOUS
 66
1
 70
0
  0
VERTEX
  8
0
 62
7
  6
CONTINUOUS
 10
153.041243812
 20
121.4742780961
  0
VERTEX
  8
0
 62
7
  6
CONTINUOUS
 10
152.9300557995
 20
121.4702464184
  0
VERTEX
  8
0
 62
7
  6
CONTINUOUS
 10
152.8074258432
 20
121.4576471434
  0
VERTEX
  8
0
 62
7
  6
CONTINUOUS
 10
152.6725025233
 20
121.4357478991
  0
VERTEX
  8
0
 62
7
  6
CONTINUOUS
 10
152.5244565536
 20
121.403876847
  0
VERTEX
  8
0
 62
7
  6
CONTINUOUS
 10
152.3632717393
 20
121.3616843595
  0
VERTEX
  8
0
 62
7
  6
CONTINUOUS
 10
152.1902530822
 20
121.3094984179
  0
VERTEX
  8
0
 62
7
  6
CONTINUOUS
 10
152.0070110993
 20
121.2481808909
  0
VERTEX
  8
0
 62
7
  6
CONTINUOUS
 10
151.8165193985
 20
121.1795145297
  0
SEQEND
  0
LINE
  8
0
 62
7
  6
CONTINUOUS
 10
158.127292022
 20
119.8742780961
 11
158.1801964349
 21
119.8742780961
  0
LINE
  8
0
 62
7
  6
CONTINUOUS
 10
147.39128509
 20
121.4742780961
 11
158.1801964349
 21
121.4742780961
  0
LINE
  8
0
 62
7
  6
CONTINUOUS
 10
147.3753477695
 20
121.4749120526
 11
143.3774425107
 21
121.7944691115
  0
LINE
  8
SURFACE
 62
7
  6
CONTINUOUS
 10
143.3005194338
 20
121.8006176594
 11
143.3949897783
 21
121.7930665386
  0
LINE
  8
0
 62
7
  6
CONTINUOUS
 10
147.4074061188
 20
121.4723495927
 11
154.1909328215
 21
120.9301346823
  0
POLYLINE
  8
0
 62
7
  6
CONTINUOUS
 66
1
 70
0
  0
VERTEX
  8
0
 62
7
  6
CONTINUOUS
 10
153.9047531446
 20
121.4742780961
  0
VERTEX
  8
0
 62
7
  6
CONTINUOUS
 10
153.9390532465
 20
121.4711132142
  0
VERTEX
  8
0
 62
7
  6
CONTINUOUS
 10
153.9713014731
 20
121.4618299404
  0
VERTEX
  8
0
 62
7
  6
CONTINUOUS
 10
154.0011772942
 20
121.4468488103
  0
VERTEX
  8
0
 62
7
  6
CONTINUOUS
 10
154.0285260488
 20
121.4266564904
  0
VERTEX
  8
0
 62
7
  6
CONTINUOUS
 10
154.0535446521
 20
121.4014677062
  0
VERTEX
  8
0
 62
7
  6
CONTINUOUS
 10
154.0761576595
 20
121.3716550601
  0
VERTEX
  8
0
 62
7
  6
CONTINUOUS
 10
154.0962039265
 20
121.3378465495
  0
VERTEX
  8
0
 62
7
  6
CONTINUOUS
 10
154.1136274993
 20
121.300740581
  0
VERTEX
  8
0
 62
7
  6
CONTINUOUS
 10
154.1286178356
 20
121.2605672163
  0
VERTEX
  8
0
 62
7
  6
CONTINUOUS
 10
154.1412346709
 20
121.2177328397
  0
VERTEX
  8
0
 62
7
  6
CONTINUOUS
 10
154.1514756474
 20
121.1729083061
  0
VERTEX
  8
0
 62
7
  6
CONTINUOUS
 10
154.159430937
 20
121.1264520092
  0
SEQEND
  0
POLYLINE
  8
SURFACE
 62
7
  6
CONTINUOUS
 66
1
 70
0
  0
VERTEX
  8
SURFACE
 62
7
  6
CONTINUOUS
 10
153.1837766762
 20
121.0106378045
  0
VERTEX
  8
SURFACE
 62
7
  6
CONTINUOUS
 10
153.2200099023
 20
121.0072306073
  0
VERTEX
  8
SURFACE
 62
7
  6
CONTINUOUS
 10
153.2561402184
 20
121.0028095974
  0
VERTEX
  8
SURFACE
 62
7
  6
CONTINUOUS
 10
153.2921325573
 20
120.997378783
  0
SEQEND
  0
POLYLINE
  8
0
 62
7
  6
CONTINUOUS
 66
1
 70
0
  0
VERTEX
  8
0
 62
7
  6
CONTINUOUS
 10
148.3227582453
 20
121.3991844693
  0
VERTEX
  8
0
 62
7
  6
CONTINUOUS
 10
148.2299318418
 20
121.4093980741
  0
VERTEX
  8
0
 62
7
  6
CONTINUOUS
 10
148.1468134463
 20
121.4239519019
  0
SEQEND
  0
POLYLINE
  8
SURFACE
 62
7
  6
CONTINUOUS
 66
1
 70
0
  0
VERTEX
  8
SURFACE
 62
7
  6
CONTINUOUS
 10
153.2921325573
 20
120.997378783
  0
VERTEX
  8
SURFACE
 62
7
  6
CONTINUOUS
 10
153.3279524927
 20
120.9909436304
  0
VERTEX
  8
SURFACE
 62
7
  6
CONTINUOUS
 10
153.3635702013
 20
120.9835101211
  0
VERTEX
  8
SURFACE
 62
7
  6
CONTINUOUS
 10
153.3989607163
 20
120.97508405
  0
VERTEX
  8
SURFACE
 62
7
  6
CONTINUOUS
 10
153.4341011683
 20
120.9656711133
  0
VERTEX
  8
SURFACE
 62
7
  6
CONTINUOUS
 10
153.453033208
 20
120.9600276126
  0
SEQEND
  0
POLYLINE
  8
0
 62
7
  6
CONTINUOUS
 66
1
 70
0
  0
VERTEX
  8
0
 62
7
  6
CONTINUOUS
 10
148.1468205253
 20
121.4239505825
  0
VERTEX
  8
0
 62
7
  6
CONTINUOUS
 10
148.0265288723
 20
121.4466448248
  0
VERTEX
  8
0
 62
7
  6
CONTINUOUS
 10
147.9155080578
 20
121.462303887
  0
VERTEX
  8
0
 62
7
  6
CONTINUOUS
 10
147.8132355082
 20
121.4713618113
  0
VERTEX
  8
0
 62
7
  6
CONTINUOUS
 10
147.7191490579
 20
121.4742780961
  0
SEQEND
  0
POLYLINE
  8
0
 62
7
  6
CONTINUOUS
 66
1
 70
0
  0
VERTEX
  8
0
 62
7
  6
CONTINUOUS
 10
158.1801964349
 20
102.6866543272
  0
VERTEX
  8
0
 62
7
  6
CONTINUOUS
 10
158.1452955931
 20
102.7176556386
  0
VERTEX
  8
0
 62
7
  6
CONTINUOUS
 10
158.1120705281
 20
102.7490257578
  0
VERTEX
  8
0
 62
7
  6
CONTINUOUS
 10
158.0817320974
 20
102.7815763501
  0
VERTEX
  8
0
 62
7
  6
CONTINUOUS
 10
158.0551393481
 20
102.8152475234
  0
VERTEX
  8
0
 62
7
  6
CONTINUOUS
 10
158.0328661462
 20
102.8493310621
  0
VERTEX
  8
0
 62
7
  6
CONTINUOUS
 10
157.9899206936
 20
102.929945821
  0
SEQEND
  0
LINE
  8
0
 62
7
  6
CONTINUOUS
 10
156.0951479297
 20
87.0182237493
 11
156.130247487
 21
86.9654233225
  0
POLYLINE
  8
0
 62
7
  6
CONTINUOUS
 66
1
 70
0
  0
VERTEX
  8
0
 62
7
  6
CONTINUOUS
 10
154.2486721316
 20
127.0234024865
  0
VERTEX
  8
0
 62
7
  6
CONTINUOUS
 10
154.2381186874
 20
127.0206045637
  0
VERTEX
  8
0
 62
7
  6
CONTINUOUS
 10
154.2275116586
 20
127.0143192023
  0
VERTEX
  8
0
 62
7
  6
CONTINUOUS
 10
154.2171507335
 20
127.0047392476
  0
VERTEX
  8
0
 62
7
  6
CONTINUOUS
 10
154.2071906186
 20
126.9920310692
  0
VERTEX
  8
0
 62
7
  6
CONTINUOUS
 10
154.1978322454
 20
126.9764278215
  0
SEQEND
  0
POLYLINE
  8
0
 62
7
  6
CONTINUOUS
 66
1
 70
0
  0
VERTEX
  8
0
 62
7
  6
CONTINUOUS
 10
148.145679487
 20
126.524365663
  0
VERTEX
  8
0
 62
7
  6
CONTINUOUS
 10
148.228658041
 20
126.5388730598
  0
VERTEX
  8
0
 62
7
  6
CONTINUOUS
 10
148.3212836759
 20
126.5490578587
  0
SEQEND
  0
LINE
  8
SURFACE
 62
7
  6
CONTINUOUS
 10
143.3949900993
 20
126.1552936793
 11
143.3005194338
 21
126.1477425328
  0
LINE
  8
0
 62
7
  6
CONTINUOUS
 10
143.3774425107
 20
126.1538910808
 11
147.3777837379
 21
126.4736428494
  0
LINE
  8
0
 62
7
  6
CONTINUOUS
 10
147.3968962728
 20
126.4751705358
 11
154.1909328563
 21
127.0182255128
  0
POLYLINE
  8
0
 62
7
  6
CONTINUOUS
 66
1
 70
0
  0
VERTEX
  8
0
 62
7
  6
CONTINUOUS
 10
151.4598071866
 20
126.7999235704
  0
VERTEX
  8
0
 62
7
  6
CONTINUOUS
 10
151.5285414667
 20
126.8038622996
  0
VERTEX
  8
0
 62
7
  6
CONTINUOUS
 10
151.5904939825
 20
126.8044382327
  0
VERTEX
  8
0
 62
7
  6
CONTINUOUS
 10
151.6461411711
 20
126.8020769353
  0
VERTEX
  8
0
 62
7
  6
CONTINUOUS
 10
151.695986273
 20
126.7971403045
  0
VERTEX
  8
0
 62
7
  6
CONTINUOUS
 10
151.7407661852
 20
126.789873209
  0
VERTEX
  8
0
 62
7
  6
CONTINUOUS
 10
151.7809363103
 20
126.7804391217
  0
VERTEX
  8
0
 62
7
  6
CONTINUOUS
 10
151.8168940893
 20
126.7689027382
  0
SEQEND
  0
POLYLINE
  8
0
 62
7
  6
CONTINUOUS
 66
1
 70
0
  0
VERTEX
  8
0
 62
7
  6
CONTINUOUS
 10
147.7191490579
 20
126.4742780961
  0
VERTEX
  8
0
 62
7
  6
CONTINUOUS
 10
147.8130358538
 20
126.4771823632
  0
VERTEX
  8
0
 62
7
  6
CONTINUOUS
 10
147.9150444312
 20
126.4861989139
  0
VERTEX
  8
0
 62
7
  6
CONTINUOUS
 10
148.0257508368
 20
126.5017828594
  0
VERTEX
  8
0
 62
7
  6
CONTINUOUS
 10
148.145685376
 20
126.5243667586
  0
SEQEND
  0
LINE
  8
0
 62
7
  6
CONTINUOUS
 10
158.1801964349
 20
126.4742780961
 11
147.3937219499
 21
126.4742780961
  0
LINE
  8
0
 62
7
  6
CONTINUOUS
 10
158.1279777162
 20
128.0742780961
 11
158.1801964349
 21
128.0742780961
  0
LINE
  8
0
 62
7
  6
CONTINUOUS
 10
158.0730012697
 20
119.8819768443
 11
154.776308306
 21
120.8241756629
  0
POLYLINE
  8
SURFACE
 62
7
  6
CONTINUOUS
 66
1
 70
0
  0
VERTEX
  8
SURFACE
 62
7
  6
CONTINUOUS
 10
153.4574042682
 20
120.958724632
  0
VERTEX
  8
SURFACE
 62
7
  6
CONTINUOUS
 10
153.4689621626
 20
120.9552793094
  0
VERTEX
  8
SURFACE
 62
7
  6
CONTINUOUS
 10
153.5034555832
 20
120.9439379346
  0
VERTEX
  8
SURFACE
 62
7
  6
CONTINUOUS
 10
153.5376173788
 20
120.9316381839
  0
VERTEX
  8
SURFACE
 62
7
  6
CONTINUOUS
 10
153.5713580856
 20
120.9184154241
  0
SEQEND
  0
POLYLINE
  8
SURFACE
 62
7
  6
CONTINUOUS
 66
1
 70
0
  0
VERTEX
  8
SURFACE
 62
7
  6
CONTINUOUS
 10
153.5713580856
 20
120.9184154241
  0
VERTEX
  8
SURFACE
 62
7
  6
CONTINUOUS
 10
153.6046469349
 20
120.9042882734
  0
VERTEX
  8
SURFACE
 62
7
  6
CONTINUOUS
 10
153.6375138315
 20
120.8892483281
  0
SEQEND
  0
LINE
  8
SURFACE
 62
7
  6
CONTINUOUS
 10
153.6375138315
 20
120.8892483281
 11
153.7030597981
 21
120.8558410745
  0
POLYLINE
  8
SURFACE
 62
7
  6
CONTINUOUS
 66
1
 70
0
  0
VERTEX
  8
SURFACE
 62
7
  6
CONTINUOUS
 10
153.7030597981
 20
120.8558410745
  0
VERTEX
  8
SURFACE
 62
7
  6
CONTINUOUS
 10
153.7699814007
 20
120.8166768018
  0
VERTEX
  8
SURFACE
 62
7
  6
CONTINUOUS
 10
153.8381819886
 20
120.7709232656
  0
VERTEX
  8
SURFACE
 62
7
  6
CONTINUOUS
 10
153.9072887499
 20
120.7177256475
  0
VERTEX
  8
SURFACE
 62
7
  6
CONTINUOUS
 10
153.9764022249
 20
120.6564795119
  0
VERTEX
  8
SURFACE
 62
7
  6
CONTINUOUS
 10
154.0446960557
 20
120.5864017935
  0
VERTEX
  8
SURFACE
 62
7
  6
CONTINUOUS
 10
154.1108787725
 20
120.5070422286
  0
VERTEX
  8
SURFACE
 62
7
  6
CONTINUOUS
 10
154.1735738662
 20
120.4179961404
  0
VERTEX
  8
SURFACE
 62
7
  6
CONTINUOUS
 10
154.2310895393
 20
120.3192913842
  0
VERTEX
  8
SURFACE
 62
7
  6
CONTINUOUS
 10
154.2816048931
 20
120.2113770604
  0
VERTEX
  8
SURFACE
 62
7
  6
CONTINUOUS
 10
154.3232442061
 20
120.0953391717
  0
VERTEX
  8
SURFACE
 62
7
  6
CONTINUOUS
 10
154.3543963342
 20
119.9724811965
  0
VERTEX
  8
SURFACE
 62
7
  6
CONTINUOUS
 10
154.373039009
 20
119.8490524098
  0
SEQEND
  0
LINE
  8
0
 62
7
  6
CONTINUOUS
 10
158.0736870619
 20
178.4665793483
 11
154.7763083041
 21
177.5241845288
  0
LINE
  8
SURFACE
 62
7
  6
CONTINUOUS
 10
153.1837766339
 20
129.4106378078
 11
143.3005194338
 21
130.2006176594
  0
POLYLINE
  8
0
 62
7
  6
CONTINUOUS
 66
1
 70
0
  0
VERTEX
  8
0
 62
7
  6
CONTINUOUS
 10
151.8168928597
 20
126.7689031749
  0
VERTEX
  8
0
 62
7
  6
CONTINUOUS
 10
152.0072283056
 20
126.7002995659
  0
VERTEX
  8
0
 62
7
  6
CONTINUOUS
 10
152.1903630517
 20
126.6390226816
  0
VERTEX
  8
0
 62
7
  6
CONTINUOUS
 10
152.3633336179
 20
126.5868543474
  0
VERTEX
  8
0
 62
7
  6
CONTINUOUS
 10
152.5245042344
 20
126.5446679368
  0
VERTEX
  8
0
 62
7
  6
CONTINUOUS
 10
152.6725310034
 20
126.5128028975
  0
VERTEX
  8
0
 62
7
  6
CONTINUOUS
 10
152.8074256997
 20
126.4909090679
  0
VERTEX
  8
0
 62
7
  6
CONTINUOUS
 10
152.9300396501
 20
126.4783109066
  0
VERTEX
  8
0
 62
7
  6
CONTINUOUS
 10
153.041243812
 20
126.4742780961
  0
SEQEND
  0
POLYLINE
  8
0
 62
7
  6
CONTINUOUS
 66
1
 70
0
  0
VERTEX
  8
0
 62
7
  6
CONTINUOUS
 10
157.9899206936
 20
102.929945821
  0
VERTEX
  8
0
 62
7
  6
CONTINUOUS
 10
157.9592477971
 20
102.9756893322
  0
VERTEX
  8
0
 62
7
  6
CONTINUOUS
 10
157.922921278
 20
103.0198334193
  0
VERTEX
  8
0
 62
7
  6
CONTINUOUS
 10
157.8807965221
 20
103.0619729602
  0
VERTEX
  8
0
 62
7
  6
CONTINUOUS
 10
157.8331318669
 20
103.1013322164
  0
VERTEX
  8
0
 62
7
  6
CONTINUOUS
 10
157.7803446767
 20
103.137189015
  0
VERTEX
  8
0
 62
7
  6
CONTINUOUS
 10
157.7222816096
 20
103.1692560111
  0
VERTEX
  8
0
 62
7
  6
CONTINUOUS
 10
157.6591852885
 20
103.196937313
  0
VERTEX
  8
0
 62
7
  6
CONTINUOUS
 10
157.591679173
 20
103.2195392791
  0
SEQEND
  0
LINE
  8
0
 62
7
  6
CONTINUOUS
 10
154.1330593639
 20
95.4636664995
 11
151.6273335059
 21
100.0243634193
  0
LINE
  8
0
 62
7
  6
CONTINUOUS
 10
156.0671126685
 20
87.0720409722
 11
156.0959762483
 21
87.0168235861
  0
POLYLINE
  8
0
 62
7
  6
CONTINUOUS
 66
1
 70
0
  0
VERTEX
  8
0
 62
7
  6
CONTINUOUS
 10
155.9205922823
 20
87.8742780961
  0
VERTEX
  8
0
 62
7
  6
CONTINUOUS
 10
155.9250822874
 20
87.8649102788
  0
VERTEX
  8
0
 62
7
  6
CONTINUOUS
 10
155.9331283498
 20
87.8448634691
  0
VERTEX
  8
0
 62
7
  6
CONTINUOUS
 10
155.9418228149
 20
87.8189237152
  0
VERTEX
  8
0
 62
7
  6
CONTINUOUS
 10
155.9506648643
 20
87.7871971317
  0
VERTEX
  8
0
 62
7
  6
CONTINUOUS
 10
155.9592494459
 20
87.7499104414
  0
VERTEX
  8
0
 62
7
  6
CONTINUOUS
 10
155.9672573172
 20
87.7073709621
  0
VERTEX
  8
0
 62
7
  6
CONTINUOUS
 10
155.9744326412
 20
87.6599866002
  0
VERTEX
  8
0
 62
7
  6
CONTINUOUS
 10
155.9805730318
 20
87.6082479782
  0
SEQEND
  0
POLYLINE
  8
0
 62
7
  6
CONTINUOUS
 66
1
 70
0
  0
VERTEX
  8
0
 62
7
  6
CONTINUOUS
 10
146.2301980936
 20
105.1230361065
  0
VERTEX
  8
0
 62
7
  6
CONTINUOUS
 10
146.2323306825
 20
105.1178074656
  0
VERTEX
  8
0
 62
7
  6
CONTINUOUS
 10
146.2493914207
 20
105.1073717201
  0
VERTEX
  8
0
 62
7
  6
CONTINUOUS
 10
146.2834421991
 20
105.0970005257
  0
VERTEX
  8
0
 62
7
  6
CONTINUOUS
 10
146.3343419173
 20
105.0867366143
  0
VERTEX
  8
0
 62
7
  6
CONTINUOUS
 10
146.4018797026
 20
105.076622266
  0
VERTEX
  8
0
 62
7
  6
CONTINUOUS
 10
146.4857758411
 20
105.0666991314
  0
VERTEX
  8
0
 62
7
  6
CONTINUOUS
 10
146.5856830122
 20
105.0570080572
  0
VERTEX
  8
0
 62
7
  6
CONTINUOUS
 10
146.7011877993
 20
105.0475889164
  0
VERTEX
  8
0
 62
7
  6
CONTINUOUS
 10
146.8318125079
 20
105.0384804414
  0
VERTEX
  8
0
 62
7
  6
CONTINUOUS
 10
146.977017237
 20
105.0297200647
  0
VERTEX
  8
0
 62
7
  6
CONTINUOUS
 10
147.1362022039
 20
105.0213437651
  0
VERTEX
  8
0
 62
7
  6
CONTINUOUS
 10
147.3087103437
 20
105.0133859196
  0
VERTEX
  8
0
 62
7
  6
CONTINUOUS
 10
147.4938300974
 20
105.0058791648
  0
VERTEX
  8
0
 62
7
  6
CONTINUOUS
 10
147.6907984405
 20
104.9988542649
  0
VERTEX
  8
0
 62
7
  6
CONTINUOUS
 10
147.8988041242
 20
104.9923399872
  0
VERTEX
  8
0
 62
7
  6
CONTINUOUS
 10
148.1169910378
 20
104.9863629896
  0
VERTEX
  8
0
 62
7
  6
CONTINUOUS
 10
148.3444618109
 20
104.9809477135
  0
VERTEX
  8
0
 62
7
  6
CONTINUOUS
 10
148.5802815272
 20
104.9761162881
  0
VERTEX
  8
0
 62
7
  6
CONTINUOUS
 10
148.8234815449
 20
104.9718884449
  0
VERTEX
  8
0
 62
7
  6
CONTINUOUS
 10
149.073063498
 20
104.9682814398
  0
VERTEX
  8
0
 62
7
  6
CONTINUOUS
 10
149.3280033434
 20
104.9653099874
  0
VERTEX
  8
0
 62
7
  6
CONTINUOUS
 10
149.5872555073
 20
104.9629862042
  0
VERTEX
  8
0
 62
7
  6
CONTINUOUS
 10
149.8497571254
 20
104.9613195623
  0
VERTEX
  8
0
 62
7
  6
CONTINUOUS
 10
150.1144323015
 20
104.9603168533
  0
VERTEX
  8
0
 62
7
  6
CONTINUOUS
 10
150.3801964349
 20
104.9599821624
  0
SEQEND
  0
POLYLINE
  8
0
 62
7
  6
CONTINUOUS
 66
1
 70
0
  0
VERTEX
  8
0
 62
7
  6
CONTINUOUS
 10
154.1978322454
 20
210.9764278215
  0
VERTEX
  8
0
 62
7
  6
CONTINUOUS
 10
154.1903435947
 20
210.9607298719
  0
VERTEX
  8
0
 62
7
  6
CONTINUOUS
 10
154.1836693648
 20
210.9435131524
  0
VERTEX
  8
0
 62
7
  6
CONTINUOUS
 10
154.177826898
 20
210.9248722759
  0
VERTEX
  8
0
 62
7
  6
CONTINUOUS
 10
154.1728523026
 20
210.9048469978
  0
VERTEX
  8
0
 62
7
  6
CONTINUOUS
 10
154.1688198005
 20
210.8835128672
  0
SEQEND
  0
POLYLINE
  8
0
 62
7
  6
CONTINUOUS
 66
1
 70
0
  0
VERTEX
  8
0
 62
7
  6
CONTINUOUS
 10
151.8165209854
 20
171.5795150933
  0
VERTEX
  8
0
 62
7
  6
CONTINUOUS
 10
151.7805503642
 20
171.5679738349
  0
VERTEX
  8
0
 62
7
  6
CONTINUOUS
 10
151.7403614852
 20
171.5585352998
  0
VERTEX
  8
0
 62
7
  6
CONTINUOUS
 10
151.6955565829
 20
171.5512646924
  0
VERTEX
  8
0
 62
7
  6
CONTINUOUS
 10
151.6456803797
 20
171.5463259544
  0
VERTEX
  8
0
 62
7
  6
CONTINUOUS
 10
151.5899959593
 20
171.5439642653
  0
VERTEX
  8
0
 62
7
  6
CONTINUOUS
 10
151.52800033
 20
171.5445416908
  0
VERTEX
  8
0
 62
7
  6
CONTINUOUS
 10
151.4592196093
 20
171.5484835875
  0
SEQEND
  0
LINE
  8
0
 62
7
  6
CONTINUOUS
 10
153.1837765364
 20
135.3377223766
 11
151.459218069
 21
135.1998764808
  0
LINE
  8
SURFACE
 62
7
  6
CONTINUOUS
 10
153.1837765546
 20
135.3377223781
 11
143.3005194338
 21
134.5477425328
  0
LINE
  8
0
 62
7
  6
CONTINUOUS
 10
143.3774425107
 20
134.5538910808
 11
146.2301964349
 21
134.781914907
  0
POLYLINE
  8
0
 62
7
  6
CONTINUOUS
 66
1
 70
0
  0
VERTEX
  8
0
 62
7
  6
CONTINUOUS
 10
153.041243812
 20
138.2742780961
  0
VERTEX
  8
0
 62
7
  6
CONTINUOUS
 10
152.9300557995
 20
138.2702464184
  0
VERTEX
  8
0
 62
7
  6
CONTINUOUS
 10
152.8074258432
 20
138.2576471434
  0
VERTEX
  8
0
 62
7
  6
CONTINUOUS
 10
152.6725025233
 20
138.2357478991
  0
VERTEX
  8
0
 62
7
  6
CONTINUOUS
 10
152.5244565536
 20
138.203876847
  0
VERTEX
  8
0
 62
7
  6
CONTINUOUS
 10
152.3632717393
 20
138.1616843595
  0
VERTEX
  8
0
 62
7
  6
CONTINUOUS
 10
152.1902530822
 20
138.1094984179
  0
VERTEX
  8
0
 62
7
  6
CONTINUOUS
 10
152.0070110993
 20
138.0481808909
  0
VERTEX
  8
0
 62
7
  6
CONTINUOUS
 10
151.8165193985
 20
137.9795145297
  0
SEQEND
  0
LINE
  8
0
 62
7
  6
CONTINUOUS
 10
158.127292022
 20
136.6742780961
 11
158.1801964349
 21
136.6742780961
  0
LINE
  8
0
 62
7
  6
CONTINUOUS
 10
147.39128509
 20
138.2742780961
 11
158.1801964349
 21
138.2742780961
  0
LINE
  8
0
 62
7
  6
CONTINUOUS
 10
147.3753477695
 20
138.2749120526
 11
143.3774425107
 21
138.5944691115
  0
LINE
  8
SURFACE
 62
7
  6
CONTINUOUS
 10
143.3005194338
 20
138.6006176594
 11
143.3949897783
 21
138.5930665386
  0
LINE
  8
0
 62
7
  6
CONTINUOUS
 10
147.4074061188
 20
138.2723495927
 11
154.1909328215
 21
137.7301346823
  0
POLYLINE
  8
SURFACE
 62
7
  6
CONTINUOUS
 66
1
 70
0
  0
VERTEX
  8
SURFACE
 62
7
  6
CONTINUOUS
 10
153.1837766762
 20
137.8106378045
  0
VERTEX
  8
SURFACE
 62
7
  6
CONTINUOUS
 10
153.2200099023
 20
137.8072306073
  0
VERTEX
  8
SURFACE
 62
7
  6
CONTINUOUS
 10
153.2561402184
 20
137.8028095974
  0
VERTEX
  8
SURFACE
 62
7
  6
CONTINUOUS
 10
153.2921325573
 20
137.797378783
  0
SEQEND
  0
POLYLINE
  8
0
 62
7
  6
CONTINUOUS
 66
1
 70
0
  0
VERTEX
  8
0
 62
7
  6
CONTINUOUS
 10
148.3227582453
 20
138.1991844693
  0
VERTEX
  8
0
 62
7
  6
CONTINUOUS
 10
148.2299318418
 20
138.2093980741
  0
VERTEX
  8
0
 62
7
  6
CONTINUOUS
 10
148.1468134463
 20
138.2239519019
  0
SEQEND
  0
POLYLINE
  8
0
 62
7
  6
CONTINUOUS
 66
1
 70
0
  0
VERTEX
  8
0
 62
7
  6
CONTINUOUS
 10
148.1468205253
 20
138.2239505825
  0
VERTEX
  8
0
 62
7
  6
CONTINUOUS
 10
148.0265288723
 20
138.2466448248
  0
VERTEX
  8
0
 62
7
  6
CONTINUOUS
 10
147.9155080578
 20
138.262303887
  0
VERTEX
  8
0
 62
7
  6
CONTINUOUS
 10
147.8132355082
 20
138.2713618113
  0
VERTEX
  8
0
 62
7
  6
CONTINUOUS
 10
147.7191490579
 20
138.2742780961
  0
SEQEND
  0
LINE
  8
0
 62
7
  6
CONTINUOUS
 10
156.0454876671
 20
87.1271156757
 11
156.0677609542
 21
87.0706218958
  0
POLYLINE
  8
0
 62
7
  6
CONTINUOUS
 66
1
 70
0
  0
VERTEX
  8
0
 62
7
  6
CONTINUOUS
 10
154.1978322454
 20
194.1764278215
  0
VERTEX
  8
0
 62
7
  6
CONTINUOUS
 10
154.1903435947
 20
194.1607298719
  0
VERTEX
  8
0
 62
7
  6
CONTINUOUS
 10
154.1836693648
 20
194.1435131524
  0
VERTEX
  8
0
 62
7
  6
CONTINUOUS
 10
154.177826898
 20
194.1248722759
  0
VERTEX
  8
0
 62
7
  6
CONTINUOUS
 10
154.1728523026
 20
194.1048469978
  0
VERTEX
  8
0
 62
7
  6
CONTINUOUS
 10
154.1688198005
 20
194.0835128672
  0
SEQEND
  0
POLYLINE
  8
0
 62
7
  6
CONTINUOUS
 66
1
 70
0
  0
VERTEX
  8
0
 62
7
  6
CONTINUOUS
 10
154.2486721316
 20
143.8234024865
  0
VERTEX
  8
0
 62
7
  6
CONTINUOUS
 10
154.2381186874
 20
143.8206045637
  0
VERTEX
  8
0
 62
7
  6
CONTINUOUS
 10
154.2275116586
 20
143.8143192023
  0
VERTEX
  8
0
 62
7
  6
CONTINUOUS
 10
154.2171507335
 20
143.8047392476
  0
VERTEX
  8
0
 62
7
  6
CONTINUOUS
 10
154.2071906186
 20
143.7920310692
  0
VERTEX
  8
0
 62
7
  6
CONTINUOUS
 10
154.1978322454
 20
143.7764278215
  0
SEQEND
  0
POLYLINE
  8
0
 62
7
  6
CONTINUOUS
 66
1
 70
0
  0
VERTEX
  8
0
 62
7
  6
CONTINUOUS
 10
148.145679487
 20
143.324365663
  0
VERTEX
  8
0
 62
7
  6
CONTINUOUS
 10
148.228658041
 20
143.3388730598
  0
VERTEX
  8
0
 62
7
  6
CONTINUOUS
 10
148.3212836759
 20
143.3490578587
  0
SEQEND
  0
LINE
  8
SURFACE
 62
7
  6
CONTINUOUS
 10
143.3949900993
 20
142.9552936793
 11
143.3005194338
 21
142.9477425328
  0
LINE
  8
0
 62
7
  6
CONTINUOUS
 10
143.3774425107
 20
142.9538910808
 11
147.3777837379
 21
143.2736428494
  0
LINE
  8
0
 62
7
  6
CONTINUOUS
 10
147.3968962728
 20
143.2751705358
 11
154.1909328563
 21
143.8182255128
  0
POLYLINE
  8
0
 62
7
  6
CONTINUOUS
 66
1
 70
0
  0
VERTEX
  8
0
 62
7
  6
CONTINUOUS
 10
151.4598071866
 20
143.5999235704
  0
VERTEX
  8
0
 62
7
  6
CONTINUOUS
 10
151.5285414667
 20
143.6038622996
  0
VERTEX
  8
0
 62
7
  6
CONTINUOUS
 10
151.5904939825
 20
143.6044382327
  0
VERTEX
  8
0
 62
7
  6
CONTINUOUS
 10
151.6461411711
 20
143.6020769353
  0
VERTEX
  8
0
 62
7
  6
CONTINUOUS
 10
151.695986273
 20
143.5971403045
  0
VERTEX
  8
0
 62
7
  6
CONTINUOUS
 10
151.7407661852
 20
143.589873209
  0
VERTEX
  8
0
 62
7
  6
CONTINUOUS
 10
151.7809363103
 20
143.5804391217
  0
VERTEX
  8
0
 62
7
  6
CONTINUOUS
 10
151.8168940893
 20
143.5689027382
  0
SEQEND
  0
POLYLINE
  8
0
 62
7
  6
CONTINUOUS
 66
1
 70
0
  0
VERTEX
  8
0
 62
7
  6
CONTINUOUS
 10
147.7191490579
 20
143.2742780961
  0
VERTEX
  8
0
 62
7
  6
CONTINUOUS
 10
147.8130358538
 20
143.2771823632
  0
VERTEX
  8
0
 62
7
  6
CONTINUOUS
 10
147.9150444312
 20
143.2861989139
  0
VERTEX
  8
0
 62
7
  6
CONTINUOUS
 10
148.0257508368
 20
143.3017828594
  0
VERTEX
  8
0
 62
7
  6
CONTINUOUS
 10
148.145685376
 20
143.3243667586
  0
SEQEND
  0
LINE
  8
0
 62
7
  6
CONTINUOUS
 10
158.1801964349
 20
143.2742780961
 11
147.3937219499
 21
143.2742780961
  0
POLYLINE
  8
0
 62
7
  6
CONTINUOUS
 66
1
 70
0
  0
VERTEX
  8
0
 62
7
  6
CONTINUOUS
 10
153.9047531446
 20
138.2742780961
  0
VERTEX
  8
0
 62
7
  6
CONTINUOUS
 10
153.9390532465
 20
138.2711132142
  0
VERTEX
  8
0
 62
7
  6
CONTINUOUS
 10
153.9713014731
 20
138.2618299404
  0
VERTEX
  8
0
 62
7
  6
CONTINUOUS
 10
154.0011772942
 20
138.2468488103
  0
VERTEX
  8
0
 62
7
  6
CONTINUOUS
 10
154.0285260488
 20
138.2266564904
  0
VERTEX
  8
0
 62
7
  6
CONTINUOUS
 10
154.0535446521
 20
138.2014677062
  0
VERTEX
  8
0
 62
7
  6
CONTINUOUS
 10
154.0761576595
 20
138.1716550601
  0
VERTEX
  8
0
 62
7
  6
CONTINUOUS
 10
154.0962039265
 20
138.1378465495
  0
VERTEX
  8
0
 62
7
  6
CONTINUOUS
 10
154.1136274993
 20
138.100740581
  0
VERTEX
  8
0
 62
7
  6
CONTINUOUS
 10
154.1286178356
 20
138.0605672163
  0
VERTEX
  8
0
 62
7
  6
CONTINUOUS
 10
154.1412346709
 20
138.0177328397
  0
VERTEX
  8
0
 62
7
  6
CONTINUOUS
 10
154.1514756474
 20
137.9729083061
  0
VERTEX
  8
0
 62
7
  6
CONTINUOUS
 10
154.159430937
 20
137.9264520092
  0
SEQEND
  0
POLYLINE
  8
SURFACE
 62
7
  6
CONTINUOUS
 66
1
 70
0
  0
VERTEX
  8
SURFACE
 62
7
  6
CONTINUOUS
 10
153.2921325573
 20
137.797378783
  0
VERTEX
  8
SURFACE
 62
7
  6
CONTINUOUS
 10
153.3279524927
 20
137.7909436304
  0
VERTEX
  8
SURFACE
 62
7
  6
CONTINUOUS
 10
153.3635702013
 20
137.7835101211
  0
VERTEX
  8
SURFACE
 62
7
  6
CONTINUOUS
 10
153.3989607163
 20
137.77508405
  0
VERTEX
  8
SURFACE
 62
7
  6
CONTINUOUS
 10
153.4341011683
 20
137.7656711133
  0
VERTEX
  8
SURFACE
 62
7
  6
CONTINUOUS
 10
153.453033208
 20
137.7600276126
  0
SEQEND
  0
LINE
  8
0
 62
7
  6
CONTINUOUS
 10
158.0730012697
 20
136.6819768443
 11
154.776308306
 21
137.6241756629
  0
POLYLINE
  8
SURFACE
 62
7
  6
CONTINUOUS
 66
1
 70
0
  0
VERTEX
  8
SURFACE
 62
7
  6
CONTINUOUS
 10
153.4574042682
 20
137.758724632
  0
VERTEX
  8
SURFACE
 62
7
  6
CONTINUOUS
 10
153.4689621626
 20
137.7552793094
  0
VERTEX
  8
SURFACE
 62
7
  6
CONTINUOUS
 10
153.5034555832
 20
137.7439379346
  0
VERTEX
  8
SURFACE
 62
7
  6
CONTINUOUS
 10
153.5376173788
 20
137.7316381839
  0
VERTEX
  8
SURFACE
 62
7
  6
CONTINUOUS
 10
153.5713580856
 20
137.7184154241
  0
SEQEND
  0
POLYLINE
  8
SURFACE
 62
7
  6
CONTINUOUS
 66
1
 70
0
  0
VERTEX
  8
SURFACE
 62
7
  6
CONTINUOUS
 10
153.5713580856
 20
137.7184154241
  0
VERTEX
  8
SURFACE
 62
7
  6
CONTINUOUS
 10
153.6046469349
 20
137.7042882734
  0
VERTEX
  8
SURFACE
 62
7
  6
CONTINUOUS
 10
153.6375138315
 20
137.6892483281
  0
SEQEND
  0
LINE
  8
SURFACE
 62
7
  6
CONTINUOUS
 10
153.6375138315
 20
137.6892483281
 11
153.7030597981
 21
137.6558410745
  0
POLYLINE
  8
SURFACE
 62
7
  6
CONTINUOUS
 66
1
 70
0
  0
VERTEX
  8
SURFACE
 62
7
  6
CONTINUOUS
 10
153.7030597981
 20
137.6558410745
  0
VERTEX
  8
SURFACE
 62
7
  6
CONTINUOUS
 10
153.7699814007
 20
137.6166768018
  0
VERTEX
  8
SURFACE
 62
7
  6
CONTINUOUS
 10
153.8381819886
 20
137.5709232656
  0
VERTEX
  8
SURFACE
 62
7
  6
CONTINUOUS
 10
153.9072887499
 20
137.5177256475
  0
VERTEX
  8
SURFACE
 62
7
  6
CONTINUOUS
 10
153.9764022249
 20
137.4564795119
  0
VERTEX
  8
SURFACE
 62
7
  6
CONTINUOUS
 10
154.0446960557
 20
137.3864017935
  0
VERTEX
  8
SURFACE
 62
7
  6
CONTINUOUS
 10
154.1108787725
 20
137.3070422286
  0
VERTEX
  8
SURFACE
 62
7
  6
CONTINUOUS
 10
154.1735738662
 20
137.2179961404
  0
VERTEX
  8
SURFACE
 62
7
  6
CONTINUOUS
 10
154.2310895393
 20
137.1192913842
  0
VERTEX
  8
SURFACE
 62
7
  6
CONTINUOUS
 10
154.2816048931
 20
137.0113770604
  0
VERTEX
  8
SURFACE
 62
7
  6
CONTINUOUS
 10
154.3232442061
 20
136.8953391717
  0
VERTEX
  8
SURFACE
 62
7
  6
CONTINUOUS
 10
154.3543963342
 20
136.7724811965
  0
VERTEX
  8
SURFACE
 62
7
  6
CONTINUOUS
 10
154.373039009
 20
136.6490524098
  0
SEQEND
  0
POLYLINE
  8
0
 62
7
  6
CONTINUOUS
 66
1
 70
0
  0
VERTEX
  8
0
 62
7
  6
CONTINUOUS
 10
154.1978387476
 20
120.9719754463
  0
VERTEX
  8
0
 62
7
  6
CONTINUOUS
 10
154.2072000267
 20
120.9563570748
  0
VERTEX
  8
0
 62
7
  6
CONTINUOUS
 10
154.217163053
 20
120.9436374675
  0
VERTEX
  8
0
 62
7
  6
CONTINUOUS
 10
154.2275306808
 20
120.9340460829
  0
VERTEX
  8
0
 62
7
  6
CONTINUOUS
 10
154.2381426592
 20
120.9277549431
  0
VERTEX
  8
0
 62
7
  6
CONTINUOUS
 10
154.2487004361
 20
120.9249548918
  0
SEQEND
  0
LINE
  8
0
 62
7
  6
CONTINUOUS
 10
156.0303839441
 20
87.1822366659
 11
156.0459595286
 21
87.1257008464
  0
POLYLINE
  8
0
 62
7
  6
CONTINUOUS
 66
1
 70
0
  0
VERTEX
  8
0
 62
7
  6
CONTINUOUS
 10
142.3801964743
 20
105.5016237081
  0
VERTEX
  8
0
 62
7
  6
CONTINUOUS
 10
142.3834769434
 20
105.4439552673
  0
VERTEX
  8
0
 62
7
  6
CONTINUOUS
 10
142.3932890101
 20
105.3869656337
  0
VERTEX
  8
0
 62
7
  6
CONTINUOUS
 10
142.4092384134
 20
105.332193186
  0
VERTEX
  8
0
 62
7
  6
CONTINUOUS
 10
142.4307192819
 20
105.2805456102
  0
VERTEX
  8
0
 62
7
  6
CONTINUOUS
 10
142.4569049036
 20
105.2328446186
  0
VERTEX
  8
0
 62
7
  6
CONTINUOUS
 10
142.4866765522
 20
105.1898734774
  0
VERTEX
  8
0
 62
7
  6
CONTINUOUS
 10
142.5187531973
 20
105.152127228
  0
VERTEX
  8
0
 62
7
  6
CONTINUOUS
 10
142.5518635998
 20
105.1197283514
  0
VERTEX
  8
0
 62
7
  6
CONTINUOUS
 10
142.5852266679
 20
105.0922048988
  0
VERTEX
  8
0
 62
7
  6
CONTINUOUS
 10
142.6183863219
 20
105.0689316211
  0
VERTEX
  8
0
 62
7
  6
CONTINUOUS
 10
142.6509615429
 20
105.049363981
  0
VERTEX
  8
0
 62
7
  6
CONTINUOUS
 10
142.6822797582
 20
105.0331761783
  0
VERTEX
  8
0
 62
7
  6
CONTINUOUS
 10
142.7117656655
 20
105.0199695972
  0
VERTEX
  8
0
 62
7
  6
CONTINUOUS
 10
142.7392755147
 20
105.0091972534
  0
VERTEX
  8
0
 62
7
  6
CONTINUOUS
 10
142.7651333338
 20
105.0002598159
  0
VERTEX
  8
0
 62
7
  6
CONTINUOUS
 10
142.7898533449
 20
104.9926498992
  0
VERTEX
  8
0
 62
7
  6
CONTINUOUS
 10
142.813916501
 20
104.9859988329
  0
VERTEX
  8
0
 62
7
  6
CONTINUOUS
 10
142.8377296865
 20
104.9800465969
  0
VERTEX
  8
0
 62
7
  6
CONTINUOUS
 10
142.8616182131
 20
104.9746118968
  0
VERTEX
  8
0
 62
7
  6
CONTINUOUS
 10
142.8858299353
 20
104.9695689143
  0
VERTEX
  8
0
 62
7
  6
CONTINUOUS
 10
142.9106382107
 20
104.9648131508
  0
VERTEX
  8
0
 62
7
  6
CONTINUOUS
 10
142.9363177641
 20
104.9602618538
  0
VERTEX
  8
0
 62
7
  6
CONTINUOUS
 10
142.9631034482
 20
104.9558558527
  0
VERTEX
  8
0
 62
7
  6
CONTINUOUS
 10
142.9912054023
 20
104.9515513918
  0
VERTEX
  8
0
 62
7
  6
CONTINUOUS
 10
143.0208206756
 20
104.9473150632
  0
VERTEX
  8
0
 62
7
  6
CONTINUOUS
 10
143.0521347518
 20
104.9431214933
  0
VERTEX
  8
0
 62
7
  6
CONTINUOUS
 10
143.0853226277
 20
104.9389514983
  0
VERTEX
  8
0
 62
7
  6
CONTINUOUS
 10
143.1205557063
 20
104.9347900289
  0
VERTEX
  8
0
 62
7
  6
CONTINUOUS
 10
143.1580142984
 20
104.9306242117
  0
VERTEX
  8
0
 62
7
  6
CONTINUOUS
 10
143.1979021788
 20
104.9264416073
  0
VERTEX
  8
0
 62
7
  6
CONTINUOUS
 10
143.2404304686
 20
104.9222318962
  0
VERTEX
  8
0
 62
7
  6
CONTINUOUS
 10
143.2858195587
 20
104.9179865939
  0
VERTEX
  8
0
 62
7
  6
CONTINUOUS
 10
143.3342973798
 20
104.9136990107
  0
VERTEX
  8
0
 62
7
  6
CONTINUOUS
 10
143.3860832771
 20
104.9093652994
  0
VERTEX
  8
0
 62
7
  6
CONTINUOUS
 10
143.5002364907
 20
104.9005691366
  0
SEQEND
  0
POLYLINE
  8
0
 62
7
  6
CONTINUOUS
 66
1
 70
0
  0
VERTEX
  8
0
 62
7
  6
CONTINUOUS
 10
142.3801964743
 20
155.9016237081
  0
VERTEX
  8
0
 62
7
  6
CONTINUOUS
 10
142.3834769434
 20
155.8439552673
  0
VERTEX
  8
0
 62
7
  6
CONTINUOUS
 10
142.3932890101
 20
155.7869656337
  0
VERTEX
  8
0
 62
7
  6
CONTINUOUS
 10
142.4092384134
 20
155.732193186
  0
VERTEX
  8
0
 62
7
  6
CONTINUOUS
 10
142.4307192819
 20
155.6805456102
  0
VERTEX
  8
0
 62
7
  6
CONTINUOUS
 10
142.4569049036
 20
155.6328446186
  0
VERTEX
  8
0
 62
7
  6
CONTINUOUS
 10
142.4866765522
 20
155.5898734774
  0
VERTEX
  8
0
 62
7
  6
CONTINUOUS
 10
142.5187531973
 20
155.552127228
  0
VERTEX
  8
0
 62
7
  6
CONTINUOUS
 10
142.5518635998
 20
155.5197283514
  0
VERTEX
  8
0
 62
7
  6
CONTINUOUS
 10
142.5852266679
 20
155.4922048988
  0
VERTEX
  8
0
 62
7
  6
CONTINUOUS
 10
142.6183863219
 20
155.4689316211
  0
VERTEX
  8
0
 62
7
  6
CONTINUOUS
 10
142.6509615429
 20
155.449363981
  0
VERTEX
  8
0
 62
7
  6
CONTINUOUS
 10
142.6822797582
 20
155.4331761783
  0
VERTEX
  8
0
 62
7
  6
CONTINUOUS
 10
142.7117656655
 20
155.4199695972
  0
VERTEX
  8
0
 62
7
  6
CONTINUOUS
 10
142.7392755147
 20
155.4091972534
  0
VERTEX
  8
0
 62
7
  6
CONTINUOUS
 10
142.7651333338
 20
155.4002598159
  0
VERTEX
  8
0
 62
7
  6
CONTINUOUS
 10
142.7898533449
 20
155.3926498992
  0
VERTEX
  8
0
 62
7
  6
CONTINUOUS
 10
142.813916501
 20
155.3859988329
  0
VERTEX
  8
0
 62
7
  6
CONTINUOUS
 10
142.8377296865
 20
155.3800465969
  0
VERTEX
  8
0
 62
7
  6
CONTINUOUS
 10
142.8616182131
 20
155.3746118968
  0
VERTEX
  8
0
 62
7
  6
CONTINUOUS
 10
142.8858299353
 20
155.3695689143
  0
VERTEX
  8
0
 62
7
  6
CONTINUOUS
 10
142.9106382107
 20
155.3648131508
  0
VERTEX
  8
0
 62
7
  6
CONTINUOUS
 10
142.9363177641
 20
155.3602618538
  0
VERTEX
  8
0
 62
7
  6
CONTINUOUS
 10
142.9631034482
 20
155.3558558527
  0
VERTEX
  8
0
 62
7
  6
CONTINUOUS
 10
142.9912054023
 20
155.3515513918
  0
VERTEX
  8
0
 62
7
  6
CONTINUOUS
 10
143.0208206756
 20
155.3473150632
  0
VERTEX
  8
0
 62
7
  6
CONTINUOUS
 10
143.0521347518
 20
155.3431214933
  0
VERTEX
  8
0
 62
7
  6
CONTINUOUS
 10
143.0853226277
 20
155.3389514983
  0
VERTEX
  8
0
 62
7
  6
CONTINUOUS
 10
143.1205557063
 20
155.3347900289
  0
VERTEX
  8
0
 62
7
  6
CONTINUOUS
 10
143.1580142984
 20
155.3306242117
  0
VERTEX
  8
0
 62
7
  6
CONTINUOUS
 10
143.1979021788
 20
155.3264416073
  0
VERTEX
  8
0
 62
7
  6
CONTINUOUS
 10
143.2404304686
 20
155.3222318962
  0
VERTEX
  8
0
 62
7
  6
CONTINUOUS
 10
143.2858195587
 20
155.3179865939
  0
VERTEX
  8
0
 62
7
  6
CONTINUOUS
 10
143.3342973798
 20
155.3136990107
  0
VERTEX
  8
0
 62
7
  6
CONTINUOUS
 10
143.3860832771
 20
155.3093652994
  0
VERTEX
  8
0
 62
7
  6
CONTINUOUS
 10
143.5002364907
 20
155.3005691366
  0
SEQEND
  0
LINE
  8
0
 62
7
  6
CONTINUOUS
 10
142.3801964349
 20
217.5241800961
 11
142.3801964349
 21
215.1974383933
  0
LINE
  8
SURFACE
 62
7
  6
CONTINUOUS
 10
142.3801964349
 20
200.750921799
 11
142.3801964349
 21
198.3974383933
  0
LINE
  8
SURFACE
 62
7
  6
CONTINUOUS
 10
142.3801964349
 20
183.950921799
 11
142.3801964349
 21
181.5974383933
  0
LINE
  8
SURFACE
 62
7
  6
CONTINUOUS
 10
142.3801964349
 20
167.150921799
 11
142.3801964349
 21
164.7974383933
  0
LINE
  8
SURFACE
 62
7
  6
CONTINUOUS
 10
142.3801964349
 20
158.750921799
 11
142.3801964349
 21
156.1216471533
  0
LINE
  8
0
 62
7
  6
CONTINUOUS
 10
142.3801964349
 20
150.8467373942
 11
142.3801964349
 21
147.9974383933
  0
LINE
  8
SURFACE
 62
7
  6
CONTINUOUS
 10
142.3801964349
 20
133.550921799
 11
142.3801964349
 21
131.1974383933
  0
LINE
  8
SURFACE
 62
7
  6
CONTINUOUS
 10
142.3801964349
 20
116.750921799
 11
142.3801964349
 21
114.3974383933
  0
LINE
  8
SURFACE
 62
7
  6
CONTINUOUS
 10
142.3801964349
 20
108.350921799
 11
142.3801964349
 21
105.7216471533
  0
LINE
  8
0
 62
7
  6
CONTINUOUS
 10
142.3801964349
 20
100.4467373942
 11
142.3801964349
 21
97.5974383933
  0
LINE
  8
SURFACE
 62
7
  6
CONTINUOUS
 10
142.3801964349
 20
91.550921799
 11
142.3801964349
 21
89.2241800961
  0
LINE
  8
0
 62
7
  6
CONTINUOUS
 10
142.3801964349
 20
83.1241800961
 11
142.3801964349
 21
78.8741800961
  0
LINE
  8
SURFACE
 62
7
  6
CONTINUOUS
 10
142.3801964349
 20
78.8741800961
 11
142.3801964349
 21
83.1241800961
  0
LINE
  8
0
 62
7
  6
CONTINUOUS
 10
142.3801964349
 20
89.2241800961
 11
142.3801964349
 21
91.550921799
  0
LINE
  8
SURFACE
 62
7
  6
CONTINUOUS
 10
142.3801964349
 20
97.5974383933
 11
142.3801964349
 21
100.4467376382
  0
LINE
  8
0
 62
7
  6
CONTINUOUS
 10
142.3801964349
 20
105.5016228345
 11
142.3801964349
 21
108.350921799
  0
LINE
  8
0
 62
7
  6
CONTINUOUS
 10
142.3801964349
 20
122.7974383933
 11
142.3801964349
 21
125.150921799
  0
LINE
  8
0
 62
7
  6
CONTINUOUS
 10
142.3801964349
 20
139.5974383933
 11
142.3801964349
 21
141.950921799
  0
LINE
  8
SURFACE
 62
7
  6
CONTINUOUS
 10
142.3801964349
 20
147.9974383933
 11
142.3801964349
 21
150.8467376382
  0
LINE
  8
0
 62
7
  6
CONTINUOUS
 10
142.3801964349
 20
155.9016225541
 11
142.3801964349
 21
158.750921799
  0
LINE
  8
0
 62
7
  6
CONTINUOUS
 10
142.3801964349
 20
173.1974383933
 11
142.3801964349
 21
175.550921799
  0
LINE
  8
0
 62
7
  6
CONTINUOUS
 10
142.3801964349
 20
189.9974383933
 11
142.3801964349
 21
192.350921799
  0
LINE
  8
0
 62
7
  6
CONTINUOUS
 10
142.3801964349
 20
206.7974383933
 11
142.3801964349
 21
209.150921799
  0
LINE
  8
0
 62
7
  6
CONTINUOUS
 10
142.3801964349
 20
223.6241800961
 11
142.3801964349
 21
227.8741800961
  0
POLYLINE
  8
0
 62
7
  6
CONTINUOUS
 66
1
 70
0
  0
VERTEX
  8
0
 62
7
  6
CONTINUOUS
 10
154.1978322454
 20
177.3764278215
  0
VERTEX
  8
0
 62
7
  6
CONTINUOUS
 10
154.1903435947
 20
177.3607298719
  0
VERTEX
  8
0
 62
7
  6
CONTINUOUS
 10
154.1836693648
 20
177.3435131524
  0
VERTEX
  8
0
 62
7
  6
CONTINUOUS
 10
154.177826898
 20
177.3248722759
  0
VERTEX
  8
0
 62
7
  6
CONTINUOUS
 10
154.1728523026
 20
177.3048469978
  0
VERTEX
  8
0
 62
7
  6
CONTINUOUS
 10
154.1688198005
 20
177.2835128672
  0
SEQEND
  0
LINE
  8
0
 62
7
  6
CONTINUOUS
 10
158.0736870619
 20
161.6665793483
 11
154.7763083041
 21
160.7241845288
  0
LINE
  8
0
 62
7
  6
CONTINUOUS
 10
158.1279777162
 20
144.8742780961
 11
158.1801964349
 21
144.8742780961
  0
LINE
  8
SURFACE
 62
7
  6
CONTINUOUS
 10
153.1837766339
 20
146.2106378078
 11
143.3005194338
 21
147.0006176594
  0
POLYLINE
  8
0
 62
7
  6
CONTINUOUS
 66
1
 70
0
  0
VERTEX
  8
0
 62
7
  6
CONTINUOUS
 10
151.8168928597
 20
143.5689031749
  0
VERTEX
  8
0
 62
7
  6
CONTINUOUS
 10
152.0072283056
 20
143.5002995659
  0
VERTEX
  8
0
 62
7
  6
CONTINUOUS
 10
152.1903630517
 20
143.4390226816
  0
VERTEX
  8
0
 62
7
  6
CONTINUOUS
 10
152.3633336179
 20
143.3868543474
  0
VERTEX
  8
0
 62
7
  6
CONTINUOUS
 10
152.5245042344
 20
143.3446679368
  0
VERTEX
  8
0
 62
7
  6
CONTINUOUS
 10
152.6725310034
 20
143.3128028975
  0
VERTEX
  8
0
 62
7
  6
CONTINUOUS
 10
152.8074256997
 20
143.2909090679
  0
VERTEX
  8
0
 62
7
  6
CONTINUOUS
 10
152.9300396501
 20
143.2783109066
  0
VERTEX
  8
0
 62
7
  6
CONTINUOUS
 10
153.041243812
 20
143.2742780961
  0
SEQEND
  0
LINE
  8
0
 62
7
  6
CONTINUOUS
 10
157.9346934963
 20
103.2735523959
 11
157.9355078522
 21
103.2707998677
  0
POLYLINE
  8
0
 62
7
  6
CONTINUOUS
 66
1
 70
0
  0
VERTEX
  8
0
 62
7
  6
CONTINUOUS
 10
154.1688197994
 20
210.8835128608
  0
VERTEX
  8
0
 62
7
  6
CONTINUOUS
 10
154.164008652
 20
210.8528408796
  0
VERTEX
  8
0
 62
7
  6
CONTINUOUS
 10
154.159430937
 20
210.8221041831
  0
SEQEND
  0
POLYLINE
  8
0
 62
7
  6
CONTINUOUS
 66
1
 70
0
  0
VERTEX
  8
0
 62
7
  6
CONTINUOUS
 10
154.1688197994
 20
194.0835128608
  0
VERTEX
  8
0
 62
7
  6
CONTINUOUS
 10
154.164008652
 20
194.0528408796
  0
VERTEX
  8
0
 62
7
  6
CONTINUOUS
 10
154.159430937
 20
194.0221041831
  0
SEQEND
  0
POLYLINE
  8
0
 62
7
  6
CONTINUOUS
 66
1
 70
0
  0
VERTEX
  8
0
 62
7
  6
CONTINUOUS
 10
154.159430937
 20
210.8221041831
  0
VERTEX
  8
0
 62
7
  6
CONTINUOUS
 10
154.1514753608
 20
210.7756464448
  0
VERTEX
  8
0
 62
7
  6
CONTINUOUS
 10
154.1412347022
 20
210.7308234733
  0
VERTEX
  8
0
 62
7
  6
CONTINUOUS
 10
154.1286201769
 20
210.6879960319
  0
VERTEX
  8
0
 62
7
  6
CONTINUOUS
 10
154.1136322709
 20
210.6478270155
  0
VERTEX
  8
0
 62
7
  6
CONTINUOUS
 10
154.0962076355
 20
210.6107166855
  0
VERTEX
  8
0
 62
7
  6
CONTINUOUS
 10
154.0761601538
 20
210.5769048623
  0
VERTEX
  8
0
 62
7
  6
CONTINUOUS
 10
154.0535484022
 20
210.5470928248
  0
VERTEX
  8
0
 62
7
  6
CONTINUOUS
 10
154.028533054
 20
210.5219057849
  0
VERTEX
  8
0
 62
7
  6
CONTINUOUS
 10
154.0011852735
 20
210.5017123073
  0
VERTEX
  8
0
 62
7
  6
CONTINUOUS
 10
153.9713045294
 20
210.4867274518
  0
VERTEX
  8
0
 62
7
  6
CONTINUOUS
 10
153.9390535387
 20
210.4774430331
  0
VERTEX
  8
0
 62
7
  6
CONTINUOUS
 10
153.9047531446
 20
210.4742780961
  0
SEQEND
  0
POLYLINE
  8
0
 62
7
  6
CONTINUOUS
 66
1
 70
0
  0
VERTEX
  8
0
 62
7
  6
CONTINUOUS
 10
154.159430937
 20
194.0221041831
  0
VERTEX
  8
0
 62
7
  6
CONTINUOUS
 10
154.1514753608
 20
193.9756464448
  0
VERTEX
  8
0
 62
7
  6
CONTINUOUS
 10
154.1412347022
 20
193.9308234733
  0
VERTEX
  8
0
 62
7
  6
CONTINUOUS
 10
154.1286201769
 20
193.8879960319
  0
VERTEX
  8
0
 62
7
  6
CONTINUOUS
 10
154.1136322709
 20
193.8478270155
  0
VERTEX
  8
0
 62
7
  6
CONTINUOUS
 10
154.0962076355
 20
193.8107166855
  0
VERTEX
  8
0
 62
7
  6
CONTINUOUS
 10
154.0761601538
 20
193.7769048623
  0
VERTEX
  8
0
 62
7
  6
CONTINUOUS
 10
154.0535484022
 20
193.7470928248
  0
VERTEX
  8
0
 62
7
  6
CONTINUOUS
 10
154.028533054
 20
193.7219057849
  0
VERTEX
  8
0
 62
7
  6
CONTINUOUS
 10
154.0011852735
 20
193.7017123073
  0
VERTEX
  8
0
 62
7
  6
CONTINUOUS
 10
153.9713045294
 20
193.6867274518
  0
VERTEX
  8
0
 62
7
  6
CONTINUOUS
 10
153.9390535387
 20
193.6774430331
  0
VERTEX
  8
0
 62
7
  6
CONTINUOUS
 10
153.9047531446
 20
193.6742780961
  0
SEQEND
  0
POLYLINE
  8
0
 62
7
  6
CONTINUOUS
 66
1
 70
0
  0
VERTEX
  8
0
 62
7
  6
CONTINUOUS
 10
151.3801964349
 20
151.6178942727
  0
VERTEX
  8
0
 62
7
  6
CONTINUOUS
 10
151.0716512258
 20
151.6127949409
  0
VERTEX
  8
0
 62
7
  6
CONTINUOUS
 10
149.6531358921
 20
151.5913027696
  0
VERTEX
  8
0
 62
7
  6
CONTINUOUS
 10
148.2187696654
 20
151.5714985727
  0
VERTEX
  8
0
 62
7
  6
CONTINUOUS
 10
146.4798490019
 20
151.5495764732
  0
SEQEND
  0
POLYLINE
  8
0
 62
7
  6
CONTINUOUS
 66
1
 70
0
  0
VERTEX
  8
0
 62
7
  6
CONTINUOUS
 10
146.4798490019
 20
151.5495764732
  0
VERTEX
  8
0
 62
7
  6
CONTINUOUS
 10
146.1784346257
 20
151.544835595
  0
VERTEX
  8
0
 62
7
  6
CONTINUOUS
 10
145.8944881987
 20
151.5396031447
  0
VERTEX
  8
0
 62
7
  6
CONTINUOUS
 10
145.6278677165
 20
151.5339572651
  0
VERTEX
  8
0
 62
7
  6
CONTINUOUS
 10
145.3782955517
 20
151.5279701886
  0
VERTEX
  8
0
 62
7
  6
CONTINUOUS
 10
145.1453702721
 20
151.5217080089
  0
VERTEX
  8
0
 62
7
  6
CONTINUOUS
 10
144.9285866795
 20
151.5152306502
  0
VERTEX
  8
0
 62
7
  6
CONTINUOUS
 10
144.7273591562
 20
151.5085920429
  0
VERTEX
  8
0
 62
7
  6
CONTINUOUS
 10
144.5410973741
 20
151.501842466
  0
VERTEX
  8
0
 62
7
  6
CONTINUOUS
 10
144.3693172582
 20
151.4950336715
  0
VERTEX
  8
0
 62
7
  6
CONTINUOUS
 10
144.211493512
 20
151.4882147278
  0
VERTEX
  8
0
 62
7
  6
CONTINUOUS
 10
144.0669688135
 20
151.481427503
  0
VERTEX
  8
0
 62
7
  6
CONTINUOUS
 10
143.9346429253
 20
151.4746880453
  0
VERTEX
  8
0
 62
7
  6
CONTINUOUS
 10
143.8133244708
 20
151.4679974011
  0
VERTEX
  8
0
 62
7
  6
CONTINUOUS
 10
143.7019105533
 20
151.4613496364
  0
VERTEX
  8
0
 62
7
  6
CONTINUOUS
 10
143.5995335774
 20
151.4547419614
  0
VERTEX
  8
0
 62
7
  6
CONTINUOUS
 10
143.505770961
 20
151.4481942524
  0
VERTEX
  8
0
 62
7
  6
CONTINUOUS
 10
143.4202385593
 20
151.4417287694
  0
VERTEX
  8
0
 62
7
  6
CONTINUOUS
 10
143.3425165115
 20
151.4353651651
  0
VERTEX
  8
0
 62
7
  6
CONTINUOUS
 10
143.272167763
 20
151.4291216198
  0
VERTEX
  8
0
 62
7
  6
CONTINUOUS
 10
143.20882224
 20
151.4230227188
  0
VERTEX
  8
0
 62
7
  6
CONTINUOUS
 10
143.1520966173
 20
151.4170940731
  0
VERTEX
  8
0
 62
7
  6
CONTINUOUS
 10
143.10135322
 20
151.4113336312
  0
VERTEX
  8
0
 62
7
  6
CONTINUOUS
 10
143.0556655646
 20
151.4056950284
  0
VERTEX
  8
0
 62
7
  6
CONTINUOUS
 10
143.0141736559
 20
151.400118676
  0
VERTEX
  8
0
 62
7
  6
CONTINUOUS
 10
142.9762332539
 20
151.3945528947
  0
VERTEX
  8
0
 62
7
  6
CONTINUOUS
 10
142.9413649653
 20
151.3889535134
  0
VERTEX
  8
0
 62
7
  6
CONTINUOUS
 10
142.9090921746
 20
151.383261585
  0
VERTEX
  8
0
 62
7
  6
CONTINUOUS
 10
142.8789368612
 20
151.3773988681
  0
VERTEX
  8
0
 62
7
  6
CONTINUOUS
 10
142.8504292343
 20
151.3712642322
  0
VERTEX
  8
0
 62
7
  6
CONTINUOUS
 10
142.8230816451
 20
151.364721057
  0
VERTEX
  8
0
 62
7
  6
CONTINUOUS
 10
142.7963286599
 20
151.3575687895
  0
VERTEX
  8
0
 62
7
  6
CONTINUOUS
 10
142.7695111229
 20
151.349510792
  0
VERTEX
  8
0
 62
7
  6
CONTINUOUS
 10
142.7419126611
 20
151.3401244066
  0
VERTEX
  8
0
 62
7
  6
CONTINUOUS
 10
142.7129634454
 20
151.3288892345
  0
VERTEX
  8
0
 62
7
  6
CONTINUOUS
 10
142.682297933
 20
151.315192734
  0
VERTEX
  8
0
 62
7
  6
CONTINUOUS
 10
142.649768879
 20
151.2983313999
  0
VERTEX
  8
0
 62
7
  6
CONTINUOUS
 10
142.615965051
 20
151.2778506573
  0
VERTEX
  8
0
 62
7
  6
CONTINUOUS
 10
142.5822222777
 20
151.2538578564
  0
VERTEX
  8
0
 62
7
  6
CONTINUOUS
 10
142.549268017
 20
151.2262911854
  0
VERTEX
  8
0
 62
7
  6
CONTINUOUS
 10
142.5168698094
 20
151.1942087212
  0
VERTEX
  8
0
 62
7
  6
CONTINUOUS
 10
142.4853118521
 20
151.1567079036
  0
VERTEX
  8
0
 62
7
  6
CONTINUOUS
 10
142.4558845603
 20
151.1138632872
  0
VERTEX
  8
0
 62
7
  6
CONTINUOUS
 10
142.4299517532
 20
151.0662141439
  0
VERTEX
  8
0
 62
7
  6
CONTINUOUS
 10
142.408698879
 20
151.0146308124
  0
VERTEX
  8
0
 62
7
  6
CONTINUOUS
 10
142.3929806641
 20
150.960053531
  0
VERTEX
  8
0
 62
7
  6
CONTINUOUS
 10
142.3833778707
 20
150.9035303494
  0
VERTEX
  8
0
 62
7
  6
CONTINUOUS
 10
142.3801964599
 20
150.8467366245
  0
SEQEND
  0
LINE
  8
0
 62
7
  6
CONTINUOUS
 10
151.8788203119
 20
152.6021324069
 11
154.3801930352
 21
152.6090047581
  0
LINE
  8
0
 62
7
  6
CONTINUOUS
 10
150.3801964349
 20
151.6740820961
 11
151.3801964349
 21
151.6740820961
  0
LINE
  8
0
 62
7
  6
CONTINUOUS
 10
158.1035979059
 20
153.4742780961
 11
158.1801964349
 21
153.4742780961
  0
POLYLINE
  8
0
 62
7
  6
CONTINUOUS
 66
1
 70
0
  0
VERTEX
  8
0
 62
7
  6
CONTINUOUS
 10
154.1978387476
 20
137.7719754463
  0
VERTEX
  8
0
 62
7
  6
CONTINUOUS
 10
154.2072000267
 20
137.7563570748
  0
VERTEX
  8
0
 62
7
  6
CONTINUOUS
 10
154.217163053
 20
137.7436374675
  0
VERTEX
  8
0
 62
7
  6
CONTINUOUS
 10
154.2275306808
 20
137.7340460829
  0
VERTEX
  8
0
 62
7
  6
CONTINUOUS
 10
154.2381426592
 20
137.7277549431
  0
VERTEX
  8
0
 62
7
  6
CONTINUOUS
 10
154.2487004361
 20
137.7249548918
  0
SEQEND
  0
POLYLINE
  8
0
 62
7
  6
CONTINUOUS
 66
1
 70
0
  0
VERTEX
  8
0
 62
7
  6
CONTINUOUS
 10
146.2301980936
 20
155.5230361065
  0
VERTEX
  8
0
 62
7
  6
CONTINUOUS
 10
146.2323306825
 20
155.5178074656
  0
VERTEX
  8
0
 62
7
  6
CONTINUOUS
 10
146.2493914207
 20
155.5073717201
  0
VERTEX
  8
0
 62
7
  6
CONTINUOUS
 10
146.2834421991
 20
155.4970005257
  0
VERTEX
  8
0
 62
7
  6
CONTINUOUS
 10
146.3343419173
 20
155.4867366143
  0
VERTEX
  8
0
 62
7
  6
CONTINUOUS
 10
146.4018797026
 20
155.476622266
  0
VERTEX
  8
0
 62
7
  6
CONTINUOUS
 10
146.4857758411
 20
155.4666991314
  0
VERTEX
  8
0
 62
7
  6
CONTINUOUS
 10
146.5856830122
 20
155.4570080572
  0
VERTEX
  8
0
 62
7
  6
CONTINUOUS
 10
146.7011877993
 20
155.4475889164
  0
VERTEX
  8
0
 62
7
  6
CONTINUOUS
 10
146.8318125079
 20
155.4384804414
  0
VERTEX
  8
0
 62
7
  6
CONTINUOUS
 10
146.977017237
 20
155.4297200647
  0
VERTEX
  8
0
 62
7
  6
CONTINUOUS
 10
147.1362022039
 20
155.4213437651
  0
VERTEX
  8
0
 62
7
  6
CONTINUOUS
 10
147.3087103437
 20
155.4133859196
  0
VERTEX
  8
0
 62
7
  6
CONTINUOUS
 10
147.4938300974
 20
155.4058791648
  0
VERTEX
  8
0
 62
7
  6
CONTINUOUS
 10
147.6907984405
 20
155.3988542649
  0
VERTEX
  8
0
 62
7
  6
CONTINUOUS
 10
147.8988041242
 20
155.3923399872
  0
VERTEX
  8
0
 62
7
  6
CONTINUOUS
 10
148.1169910378
 20
155.3863629896
  0
VERTEX
  8
0
 62
7
  6
CONTINUOUS
 10
148.3444618109
 20
155.3809477135
  0
VERTEX
  8
0
 62
7
  6
CONTINUOUS
 10
148.5802815272
 20
155.3761162881
  0
VERTEX
  8
0
 62
7
  6
CONTINUOUS
 10
148.8234815449
 20
155.3718884449
  0
VERTEX
  8
0
 62
7
  6
CONTINUOUS
 10
149.073063498
 20
155.3682814398
  0
VERTEX
  8
0
 62
7
  6
CONTINUOUS
 10
149.3280033434
 20
155.3653099874
  0
VERTEX
  8
0
 62
7
  6
CONTINUOUS
 10
149.5872555073
 20
155.3629862042
  0
VERTEX
  8
0
 62
7
  6
CONTINUOUS
 10
149.8497571254
 20
155.3613195623
  0
VERTEX
  8
0
 62
7
  6
CONTINUOUS
 10
150.1144323015
 20
155.3603168533
  0
VERTEX
  8
0
 62
7
  6
CONTINUOUS
 10
150.3801964349
 20
155.3599821624
  0
SEQEND
  0
POLYLINE
  8
0
 62
7
  6
CONTINUOUS
 66
1
 70
0
  0
VERTEX
  8
0
 62
7
  6
CONTINUOUS
 10
157.9368987546
 20
103.2712120786
  0
VERTEX
  8
0
 62
7
  6
CONTINUOUS
 10
157.9237154568
 20
103.3337574406
  0
VERTEX
  8
0
 62
7
  6
CONTINUOUS
 10
157.9092780046
 20
103.4046388575
  0
VERTEX
  8
0
 62
7
  6
CONTINUOUS
 10
157.8939164677
 20
103.4832711109
  0
VERTEX
  8
0
 62
7
  6
CONTINUOUS
 10
157.877971798
 20
103.569048225
  0
VERTEX
  8
0
 62
7
  6
CONTINUOUS
 10
157.8617305229
 20
103.6616873938
  0
VERTEX
  8
0
 62
7
  6
CONTINUOUS
 10
157.8455430803
 20
103.760566312
  0
VERTEX
  8
0
 62
7
  6
CONTINUOUS
 10
157.829745244
 20
103.8650970832
  0
VERTEX
  8
0
 62
7
  6
CONTINUOUS
 10
157.8146626952
 20
103.9746675988
  0
VERTEX
  8
0
 62
7
  6
CONTINUOUS
 10
157.8006214126
 20
104.0884943407
  0
VERTEX
  8
0
 62
7
  6
CONTINUOUS
 10
157.7878953254
 20
104.2059640254
  0
VERTEX
  8
0
 62
7
  6
CONTINUOUS
 10
157.7767298219
 20
104.3264520092
  0
SEQEND
  0
POLYLINE
  8
0
 62
7
  6
CONTINUOUS
 66
1
 70
0
  0
VERTEX
  8
0
 62
7
  6
CONTINUOUS
 10
154.1688557849
 20
121.06481959
  0
VERTEX
  8
0
 62
7
  6
CONTINUOUS
 10
154.172885038
 20
121.0435061842
  0
VERTEX
  8
0
 62
7
  6
CONTINUOUS
 10
154.1778539177
 20
121.0235015309
  0
VERTEX
  8
0
 62
7
  6
CONTINUOUS
 10
154.1836901551
 20
121.0048745846
  0
VERTEX
  8
0
 62
7
  6
CONTINUOUS
 10
154.1903569597
 20
120.9876688187
  0
VERTEX
  8
0
 62
7
  6
CONTINUOUS
 10
154.1978387476
 20
120.9719754463
  0
SEQEND
  0
POLYLINE
  8
0
 62
7
  6
CONTINUOUS
 66
1
 70
0
  0
VERTEX
  8
0
 62
7
  6
CONTINUOUS
 10
157.8962770409
 20
103.4711878674
  0
VERTEX
  8
0
 62
7
  6
CONTINUOUS
 10
157.908023579
 20
103.4073487175
  0
VERTEX
  8
0
 62
7
  6
CONTINUOUS
 10
157.9218272891
 20
103.3364564031
  0
VERTEX
  8
0
 62
7
  6
CONTINUOUS
 10
157.934693415
 20
103.2735527664
  0
SEQEND
  0
LINE
  8
0
 62
7
  6
CONTINUOUS
 10
156.0236902181
 20
87.2195938651
 11
156.0306888245
 21
87.1808409568
  0
POLYLINE
  8
0
 62
7
  6
CONTINUOUS
 66
1
 70
0
  0
VERTEX
  8
0
 62
7
  6
CONTINUOUS
 10
154.3815121
 20
78.3379318676
  0
VERTEX
  8
0
 62
7
  6
CONTINUOUS
 10
154.3877967457
 20
78.2873322635
  0
VERTEX
  8
0
 62
7
  6
CONTINUOUS
 10
154.3992025242
 20
78.2376339213
  0
VERTEX
  8
0
 62
7
  6
CONTINUOUS
 10
154.4156106923
 20
78.1893556178
  0
VERTEX
  8
0
 62
7
  6
CONTINUOUS
 10
154.4368505891
 20
78.1429995152
  0
VERTEX
  8
0
 62
7
  6
CONTINUOUS
 10
154.4627013149
 20
78.0990477193
  0
SEQEND
  0
POLYLINE
  8
0
 62
7
  6
CONTINUOUS
 66
1
 70
0
  0
VERTEX
  8
0
 62
7
  6
CONTINUOUS
 10
157.7767298219
 20
104.3264520092
  0
VERTEX
  8
0
 62
7
  6
CONTINUOUS
 10
157.7719583752
 20
104.374688554
  0
VERTEX
  8
0
 62
7
  6
CONTINUOUS
 10
157.7659187526
 20
104.4211465953
  0
VERTEX
  8
0
 62
7
  6
CONTINUOUS
 10
157.7586386855
 20
104.4650417205
  0
VERTEX
  8
0
 62
7
  6
CONTINUOUS
 10
157.7501747127
 20
104.5056890266
  0
VERTEX
  8
0
 62
7
  6
CONTINUOUS
 10
157.7405161209
 20
104.5428464881
  0
VERTEX
  8
0
 62
7
  6
CONTINUOUS
 10
157.7296193097
 20
104.5762946519
  0
VERTEX
  8
0
 62
7
  6
CONTINUOUS
 10
157.7175821081
 20
104.605394371
  0
VERTEX
  8
0
 62
7
  6
CONTINUOUS
 10
157.704548423
 20
104.6296419052
  0
VERTEX
  8
0
 62
7
  6
CONTINUOUS
 10
157.6905642162
 20
104.6488630363
  0
VERTEX
  8
0
 62
7
  6
CONTINUOUS
 10
157.6756316847
 20
104.6628990652
  0
VERTEX
  8
0
 62
7
  6
CONTINUOUS
 10
157.6599341482
 20
104.671428074
  0
VERTEX
  8
0
 62
7
  6
CONTINUOUS
 10
157.6437131603
 20
104.6742780961
  0
SEQEND
  0
POLYLINE
  8
0
 62
7
  6
CONTINUOUS
 66
1
 70
0
  0
VERTEX
  8
0
 62
7
  6
CONTINUOUS
 10
155.9805730318
 20
87.6082479782
  0
VERTEX
  8
0
 62
7
  6
CONTINUOUS
 10
155.9917941787
 20
87.4859253499
  0
VERTEX
  8
0
 62
7
  6
CONTINUOUS
 10
156.0019226685
 20
87.3901777766
  0
VERTEX
  8
0
 62
7
  6
CONTINUOUS
 10
156.0132263956
 20
87.2969809394
  0
VERTEX
  8
0
 62
7
  6
CONTINUOUS
 10
156.0236900997
 20
87.2195967009
  0
SEQEND
  0
LINE
  8
DEFAULT_1
 62
2
  6
CENTER
 10
150.3801964349
 20
202.0123132879
 11
150.3801964349
 21
156.3377427415
  0
LINE
  8
DEFAULT_1
 62
2
  6
CENTER
 10
150.3801964349
 20
205.4742780961
 11
150.3801964349
 21
202.0740820961
  0
LINE
  8
DEFAULT_1
 62
2
  6
CENTER
 10
150.3801964349
 20
155.0742780961
 11
150.3801964349
 21
151.6740820961
  0
LINE
  8
DEFAULT_1
 62
2
  6
CENTER
 10
150.3801964349
 20
151.6023185897
 11
150.3801964349
 21
105.9377427415
  0
LINE
  8
DEFAULT_1
 62
2
  6
CENTER
 10
150.3801964349
 20
104.6742780961
 11
150.3801964349
 21
101.2740820961
  0
LINE
  8
DEFAULT_1
 62
2
  6
CENTER
 10
150.3801964349
 20
101.2023185897
 11
150.3801964349
 21
75.8741800961
  0
LINE
  8
0
 62
7
  6
CONTINUOUS
 10
150.3801964349
 20
202.0740820961
 11
150.3801964349
 21
202.0123132879
  0
LINE
  8
0
 62
7
  6
CONTINUOUS
 10
150.3801964349
 20
151.6740820961
 11
150.3801964349
 21
151.6023185897
  0
LINE
  8
0
 62
7
  6
CONTINUOUS
 10
150.3801964349
 20
101.2023185897
 11
150.3801964349
 21
101.2740820961
  0
LINE
  8
0
 62
7
  6
CONTINUOUS
 10
150.3801964349
 20
104.6742780961
 11
150.3801964349
 21
105.9377427415
  0
LINE
  8
0
 62
7
  6
CONTINUOUS
 10
150.3801964349
 20
155.0742780961
 11
150.3801964349
 21
156.3377427415
  0
LINE
  8
0
 62
7
  6
CONTINUOUS
 10
150.3801964349
 20
205.4742780961
 11
150.3801964349
 21
206.2570020161
  0
LINE
  8
DEFAULT_1
 62
2
  6
CENTER
 10
150.3801964349
 20
206.2570020161
 11
150.3801964349
 21
220.0241800961
  0
LINE
  8
0
 62
7
  6
CONTINUOUS
 10
151.3801964349
 20
202.5021320676
 11
151.3801964349
 21
201.7874260162
  0
LINE
  8
0
 62
7
  6
CONTINUOUS
 10
151.3801964349
 20
152.1021320676
 11
151.3801964349
 21
151.3874260162
  0
LINE
  8
0
 62
7
  6
CONTINUOUS
 10
151.3801964349
 20
101.7021320676
 11
151.3801964349
 21
100.9874260162
  0
LINE
  8
0
 62
7
  6
CONTINUOUS
 10
151.3801964349
 20
104.246227573
 11
151.3801964349
 21
104.6742780961
  0
LINE
  8
0
 62
7
  6
CONTINUOUS
 10
151.3801964349
 20
154.646227573
 11
151.3801964349
 21
155.0742780961
  0
LINE
  8
0
 62
7
  6
CONTINUOUS
 10
151.3801964349
 20
205.046227573
 11
151.3801964349
 21
205.4742780961
  0
POLYLINE
  8
0
 62
7
  6
CONTINUOUS
 66
1
 70
0
  0
VERTEX
  8
0
 62
7
  6
CONTINUOUS
 10
156.7317790717
 20
204.4742780961
  0
VERTEX
  8
0
 62
7
  6
CONTINUOUS
 10
156.7357868049
 20
204.552271804
  0
VERTEX
  8
0
 62
7
  6
CONTINUOUS
 10
156.7438917217
 20
204.6309615564
  0
VERTEX
  8
0
 62
7
  6
CONTINUOUS
 10
156.7561198132
 20
204.7095376919
  0
VERTEX
  8
0
 62
7
  6
CONTINUOUS
 10
156.7723939924
 20
204.787227285
  0
VERTEX
  8
0
 62
7
  6
CONTINUOUS
 10
156.7927264062
 20
204.8639121846
  0
VERTEX
  8
0
 62
7
  6
CONTINUOUS
 10
156.8171515224
 20
204.939389334
  0
VERTEX
  8
0
 62
7
  6
CONTINUOUS
 10
156.8455013833
 20
205.012844806
  0
VERTEX
  8
0
 62
7
  6
CONTINUOUS
 10
156.8775186405
 20
205.0834592341
  0
VERTEX
  8
0
 62
7
  6
CONTINUOUS
 10
156.9131468455
 20
205.1509166635
  0
VERTEX
  8
0
 62
7
  6
CONTINUOUS
 10
156.9519718862
 20
205.2142115145
  0
VERTEX
  8
0
 62
7
  6
CONTINUOUS
 10
156.9933216537
 20
205.272162955
  0
VERTEX
  8
0
 62
7
  6
CONTINUOUS
 10
157.0365919756
 20
205.3239394984
  0
VERTEX
  8
0
 62
7
  6
CONTINUOUS
 10
157.0813813779
 20
205.3690367387
  0
VERTEX
  8
0
 62
7
  6
CONTINUOUS
 10
157.1269245637
 20
205.406648228
  0
VERTEX
  8
0
 62
7
  6
CONTINUOUS
 10
157.1724321488
 20
205.4361751639
  0
VERTEX
  8
0
 62
7
  6
CONTINUOUS
 10
157.2174051262
 20
205.4573777513
  0
VERTEX
  8
0
 62
7
  6
CONTINUOUS
 10
157.261266548
 20
205.4700769679
  0
VERTEX
  8
0
 62
7
  6
CONTINUOUS
 10
157.3035073557
 20
205.4742780961
  0
SEQEND
  0
POLYLINE
  8
0
 62
7
  6
CONTINUOUS
 66
1
 70
0
  0
VERTEX
  8
0
 62
7
  6
CONTINUOUS
 10
154.1688197994
 20
177.2835128608
  0
VERTEX
  8
0
 62
7
  6
CONTINUOUS
 10
154.164008652
 20
177.2528408796
  0
VERTEX
  8
0
 62
7
  6
CONTINUOUS
 10
154.159430937
 20
177.2221041831
  0
SEQEND
  0
POLYLINE
  8
0
 62
7
  6
CONTINUOUS
 66
1
 70
0
  0
VERTEX
  8
0
 62
7
  6
CONTINUOUS
 10
154.1688197994
 20
160.4835128608
  0
VERTEX
  8
0
 62
7
  6
CONTINUOUS
 10
154.164008652
 20
160.4528408796
  0
VERTEX
  8
0
 62
7
  6
CONTINUOUS
 10
154.159430937
 20
160.4221041831
  0
SEQEND
  0
POLYLINE
  8
0
 62
7
  6
CONTINUOUS
 66
1
 70
0
  0
VERTEX
  8
0
 62
7
  6
CONTINUOUS
 10
154.159430937
 20
177.2221041831
  0
VERTEX
  8
0
 62
7
  6
CONTINUOUS
 10
154.1514753608
 20
177.1756464448
  0
VERTEX
  8
0
 62
7
  6
CONTINUOUS
 10
154.1412347022
 20
177.1308234733
  0
VERTEX
  8
0
 62
7
  6
CONTINUOUS
 10
154.1286201769
 20
177.0879960319
  0
VERTEX
  8
0
 62
7
  6
CONTINUOUS
 10
154.1136322709
 20
177.0478270155
  0
VERTEX
  8
0
 62
7
  6
CONTINUOUS
 10
154.0962076355
 20
177.0107166855
  0
VERTEX
  8
0
 62
7
  6
CONTINUOUS
 10
154.0761601538
 20
176.9769048623
  0
VERTEX
  8
0
 62
7
  6
CONTINUOUS
 10
154.0535484022
 20
176.9470928248
  0
VERTEX
  8
0
 62
7
  6
CONTINUOUS
 10
154.028533054
 20
176.9219057849
  0
VERTEX
  8
0
 62
7
  6
CONTINUOUS
 10
154.0011852735
 20
176.9017123073
  0
VERTEX
  8
0
 62
7
  6
CONTINUOUS
 10
153.9713045294
 20
176.8867274518
  0
VERTEX
  8
0
 62
7
  6
CONTINUOUS
 10
153.9390535387
 20
176.8774430331
  0
VERTEX
  8
0
 62
7
  6
CONTINUOUS
 10
153.9047531446
 20
176.8742780961
  0
SEQEND
  0
POLYLINE
  8
0
 62
7
  6
CONTINUOUS
 66
1
 70
0
  0
VERTEX
  8
0
 62
7
  6
CONTINUOUS
 10
154.159430937
 20
160.4221041831
  0
VERTEX
  8
0
 62
7
  6
CONTINUOUS
 10
154.1514753608
 20
160.3756464448
  0
VERTEX
  8
0
 62
7
  6
CONTINUOUS
 10
154.1412347022
 20
160.3308234733
  0
VERTEX
  8
0
 62
7
  6
CONTINUOUS
 10
154.1286201769
 20
160.2879960319
  0
VERTEX
  8
0
 62
7
  6
CONTINUOUS
 10
154.1136322709
 20
160.2478270155
  0
VERTEX
  8
0
 62
7
  6
CONTINUOUS
 10
154.0962076355
 20
160.2107166855
  0
VERTEX
  8
0
 62
7
  6
CONTINUOUS
 10
154.0761601538
 20
160.1769048623
  0
VERTEX
  8
0
 62
7
  6
CONTINUOUS
 10
154.0535484022
 20
160.1470928248
  0
VERTEX
  8
0
 62
7
  6
CONTINUOUS
 10
154.028533054
 20
160.1219057849
  0
VERTEX
  8
0
 62
7
  6
CONTINUOUS
 10
154.0011852735
 20
160.1017123073
  0
VERTEX
  8
0
 62
7
  6
CONTINUOUS
 10
153.9713045294
 20
160.0867274518
  0
VERTEX
  8
0
 62
7
  6
CONTINUOUS
 10
153.9390535387
 20
160.0774430331
  0
VERTEX
  8
0
 62
7
  6
CONTINUOUS
 10
153.9047531446
 20
160.0742780961
  0
SEQEND
  0
POLYLINE
  8
0
 62
7
  6
CONTINUOUS
 66
1
 70
0
  0
VERTEX
  8
0
 62
7
  6
CONTINUOUS
 10
154.1978322454
 20
160.5764278215
  0
VERTEX
  8
0
 62
7
  6
CONTINUOUS
 10
154.1903435947
 20
160.5607298719
  0
VERTEX
  8
0
 62
7
  6
CONTINUOUS
 10
154.1836693648
 20
160.5435131524
  0
VERTEX
  8
0
 62
7
  6
CONTINUOUS
 10
154.177826898
 20
160.5248722759
  0
VERTEX
  8
0
 62
7
  6
CONTINUOUS
 10
154.1728523026
 20
160.5048469978
  0
VERTEX
  8
0
 62
7
  6
CONTINUOUS
 10
154.1688198005
 20
160.4835128672
  0
SEQEND
  0
POLYLINE
  8
0
 62
7
  6
CONTINUOUS
 66
1
 70
0
  0
VERTEX
  8
0
 62
7
  6
CONTINUOUS
 10
154.2486721316
 20
160.6234024865
  0
VERTEX
  8
0
 62
7
  6
CONTINUOUS
 10
154.2381186874
 20
160.6206045637
  0
VERTEX
  8
0
 62
7
  6
CONTINUOUS
 10
154.2275116586
 20
160.6143192023
  0
VERTEX
  8
0
 62
7
  6
CONTINUOUS
 10
154.2171507335
 20
160.6047392476
  0
VERTEX
  8
0
 62
7
  6
CONTINUOUS
 10
154.2071906186
 20
160.5920310692
  0
VERTEX
  8
0
 62
7
  6
CONTINUOUS
 10
154.1978322454
 20
160.5764278215
  0
SEQEND
  0
POLYLINE
  8
0
 62
7
  6
CONTINUOUS
 66
1
 70
0
  0
VERTEX
  8
0
 62
7
  6
CONTINUOUS
 10
150.3801964349
 20
155.6860900506
  0
VERTEX
  8
0
 62
7
  6
CONTINUOUS
 10
150.1144323026
 20
155.6857553598
  0
VERTEX
  8
0
 62
7
  6
CONTINUOUS
 10
149.8497571299
 20
155.6847526508
  0
VERTEX
  8
0
 62
7
  6
CONTINUOUS
 10
149.5872555175
 20
155.6830860089
  0
VERTEX
  8
0
 62
7
  6
CONTINUOUS
 10
149.328003361
 20
155.6807622258
  0
VERTEX
  8
0
 62
7
  6
CONTINUOUS
 10
149.0730635248
 20
155.6777907736
  0
VERTEX
  8
0
 62
7
  6
CONTINUOUS
 10
148.823481582
 20
155.6741837687
  0
VERTEX
  8
0
 62
7
  6
CONTINUOUS
 10
148.5802815754
 20
155.6699559258
  0
VERTEX
  8
0
 62
7
  6
CONTINUOUS
 10
148.3444618704
 20
155.6651245009
  0
VERTEX
  8
0
 62
7
  6
CONTINUOUS
 10
148.1169911086
 20
155.6597092253
  0
VERTEX
  8
0
 62
7
  6
CONTINUOUS
 10
147.8988042055
 20
155.6537322282
  0
VERTEX
  8
0
 62
7
  6
CONTINUOUS
 10
147.6907985312
 20
155.6472179512
  0
VERTEX
  8
0
 62
7
  6
CONTINUOUS
 10
147.4938301959
 20
155.6401930519
  0
VERTEX
  8
0
 62
7
  6
CONTINUOUS
 10
147.308710448
 20
155.6326862979
  0
VERTEX
  8
0
 62
7
  6
CONTINUOUS
 10
147.1362023118
 20
155.6247284532
  0
VERTEX
  8
0
 62
7
  6
CONTINUOUS
 10
146.977017346
 20
155.6163521545
  0
VERTEX
  8
0
 62
7
  6
CONTINUOUS
 10
146.8318126151
 20
155.6075917785
  0
VERTEX
  8
0
 62
7
  6
CONTINUOUS
 10
146.7011879021
 20
155.5984833044
  0
VERTEX
  8
0
 62
7
  6
CONTINUOUS
 10
146.5856831079
 20
155.5890641643
  0
VERTEX
  8
0
 62
7
  6
CONTINUOUS
 10
146.4857759271
 20
155.5793730908
  0
VERTEX
  8
0
 62
7
  6
CONTINUOUS
 10
146.4018797765
 20
155.5694499569
  0
VERTEX
  8
0
 62
7
  6
CONTINUOUS
 10
146.3343419771
 20
155.559335609
  0
VERTEX
  8
0
 62
7
  6
CONTINUOUS
 10
146.2834422431
 20
155.549071698
  0
VERTEX
  8
0
 62
7
  6
CONTINUOUS
 10
146.2493914476
 20
155.5387005039
  0
VERTEX
  8
0
 62
7
  6
CONTINUOUS
 10
146.2323306916
 20
155.5282647585
  0
VERTEX
  8
0
 62
7
  6
CONTINUOUS
 10
146.2301980936
 20
155.5230361065
  0
SEQEND
  0
LINE
  8
0
 62
7
  6
CONTINUOUS
 10
150.3801964349
 20
155.0742780961
 11
158.1801964349
 21
155.0742780961
  0
LINE
  8
0
 62
7
  6
CONTINUOUS
 10
151.8788206676
 20
154.1462277844
 11
154.3801930352
 21
154.1393554341
  0
POLYLINE
  8
0
 62
7
  6
CONTINUOUS
 66
1
 70
0
  0
VERTEX
  8
0
 62
7
  6
CONTINUOUS
 10
148.2187670402
 20
155.176861654
  0
VERTEX
  8
0
 62
7
  6
CONTINUOUS
 10
149.6531319467
 20
155.1570574798
  0
VERTEX
  8
0
 62
7
  6
CONTINUOUS
 10
150.3801964349
 20
155.1460416026
  0
SEQEND
  0
POLYLINE
  8
0
 62
7
  6
CONTINUOUS
 66
1
 70
0
  0
VERTEX
  8
0
 62
7
  6
CONTINUOUS
 10
145.7823291152
 20
155.211042059
  0
VERTEX
  8
0
 62
7
  6
CONTINUOUS
 10
145.9693639448
 20
155.2073018006
  0
VERTEX
  8
0
 62
7
  6
CONTINUOUS
 10
146.1644976601
 20
155.2037636042
  0
VERTEX
  8
0
 62
7
  6
CONTINUOUS
 10
146.3677690991
 20
155.2004525553
  0
VERTEX
  8
0
 62
7
  6
CONTINUOUS
 10
146.57918865
 20
155.1973949412
  0
VERTEX
  8
0
 62
7
  6
CONTINUOUS
 10
148.2187670402
 20
155.176861654
  0
SEQEND
  0
LINE
  8
0
 62
7
  6
CONTINUOUS
 10
145.4322451146
 20
155.2190349415
 11
145.7823291152
 21
155.211042059
  0
LINE
  8
0
 62
7
  6
CONTINUOUS
 10
145.1133579579
 20
155.2275676197
 11
145.4322451146
 21
155.2190349415
  0
LINE
  8
0
 62
7
  6
CONTINUOUS
 10
144.8244018498
 20
155.2364868229
 11
145.1133579579
 21
155.2275676197
  0
LINE
  8
0
 62
7
  6
CONTINUOUS
 10
144.5638766329
 20
155.2456585436
 11
144.8244018498
 21
155.2364868229
  0
LINE
  8
0
 62
7
  6
CONTINUOUS
 10
144.3304371157
 20
155.2549533779
 11
144.5638766329
 21
155.2456585436
  0
LINE
  8
0
 62
7
  6
CONTINUOUS
 10
144.1227039775
 20
155.264248854
 11
144.3304371157
 21
155.2549533779
  0
LINE
  8
0
 62
7
  6
CONTINUOUS
 10
143.9385427051
 20
155.273465613
 11
144.1227039775
 21
155.264248854
  0
LINE
  8
0
 62
7
  6
CONTINUOUS
 10
143.7750306633
 20
155.2825892984
 11
143.9385427051
 21
155.273465613
  0
LINE
  8
0
 62
7
  6
CONTINUOUS
 10
143.6295003841
 20
155.2916297049
 11
143.7750306633
 21
155.2825892984
  0
LINE
  8
0
 62
7
  6
CONTINUOUS
 10
143.5002364907
 20
155.3005691366
 11
143.6295003841
 21
155.2916297049
  0
POLYLINE
  8
0
 62
7
  6
CONTINUOUS
 66
1
 70
0
  0
VERTEX
  8
0
 62
7
  6
CONTINUOUS
 10
154.1868056223
 20
155.0742780961
  0
VERTEX
  8
0
 62
7
  6
CONTINUOUS
 10
154.2124798542
 20
155.0670730389
  0
VERTEX
  8
0
 62
7
  6
CONTINUOUS
 10
154.2409516464
 20
155.0551300286
  0
VERTEX
  8
0
 62
7
  6
CONTINUOUS
 10
154.2677341502
 20
155.0397685171
  0
VERTEX
  8
0
 62
7
  6
CONTINUOUS
 10
154.2924188702
 20
155.0212228013
  0
VERTEX
  8
0
 62
7
  6
CONTINUOUS
 10
154.3146293038
 20
154.999775745
  0
VERTEX
  8
0
 62
7
  6
CONTINUOUS
 10
154.334026679
 20
154.9757544737
  0
VERTEX
  8
0
 62
7
  6
CONTINUOUS
 10
154.3503151334
 20
154.9495253785
  0
VERTEX
  8
0
 62
7
  6
CONTINUOUS
 10
154.3632462192
 20
154.9214885473
  0
VERTEX
  8
0
 62
7
  6
CONTINUOUS
 10
154.3726223937
 20
154.8920729047
  0
VERTEX
  8
0
 62
7
  6
CONTINUOUS
 10
154.3783010976
 20
154.8617275649
  0
VERTEX
  8
0
 62
7
  6
CONTINUOUS
 10
154.3801963684
 20
154.8310022812
  0
SEQEND
  0
LINE
  8
0
 62
7
  6
CONTINUOUS
 10
155.1719768235
 20
154.3110931242
 11
157.591679173
 21
153.6195392791
  0
POLYLINE
  8
0
 62
7
  6
CONTINUOUS
 66
1
 70
0
  0
VERTEX
  8
0
 62
7
  6
CONTINUOUS
 10
156.9131154559
 20
153.8134736065
  0
VERTEX
  8
0
 62
7
  6
CONTINUOUS
 10
156.8826277226
 20
153.8240844381
  0
VERTEX
  8
0
 62
7
  6
CONTINUOUS
 10
156.8540906935
 20
153.8377815487
  0
VERTEX
  8
0
 62
7
  6
CONTINUOUS
 10
156.8280532029
 20
153.854088334
  0
VERTEX
  8
0
 62
7
  6
CONTINUOUS
 10
156.8045302253
 20
153.8728218563
  0
VERTEX
  8
0
 62
7
  6
CONTINUOUS
 10
156.7839033086
 20
153.8935652601
  0
VERTEX
  8
0
 62
7
  6
CONTINUOUS
 10
156.7665900966
 20
153.9156877782
  0
VERTEX
  8
0
 62
7
  6
CONTINUOUS
 10
156.752811823
 20
153.9385053996
  0
VERTEX
  8
0
 62
7
  6
CONTINUOUS
 10
156.7424688783
 20
153.9616379655
  0
VERTEX
  8
0
 62
7
  6
CONTINUOUS
 10
156.7354256059
 20
153.9847740409
  0
VERTEX
  8
0
 62
7
  6
CONTINUOUS
 10
156.7315304369
 20
154.0076752808
  0
VERTEX
  8
0
 62
7
  6
CONTINUOUS
 10
156.7306411906
 20
154.0301821399
  0
SEQEND
  0
POLYLINE
  8
0
 62
7
  6
CONTINUOUS
 66
1
 70
0
  0
VERTEX
  8
0
 62
7
  6
CONTINUOUS
 10
158.1043197486
 20
153.4742976326
  0
VERTEX
  8
0
 62
7
  6
CONTINUOUS
 10
158.1038597264
 20
153.4744866875
  0
VERTEX
  8
0
 62
7
  6
CONTINUOUS
 10
158.0981434466
 20
153.4768737044
  0
VERTEX
  8
0
 62
7
  6
CONTINUOUS
 10
158.0861321753
 20
153.4824380335
  0
VERTEX
  8
0
 62
7
  6
CONTINUOUS
 10
158.0677596165
 20
153.4924638541
  0
VERTEX
  8
0
 62
7
  6
CONTINUOUS
 10
158.0445812157
 20
153.5079632405
  0
VERTEX
  8
0
 62
7
  6
CONTINUOUS
 10
158.0188834388
 20
153.52950627
  0
VERTEX
  8
0
 62
7
  6
CONTINUOUS
 10
157.9926574189
 20
153.5576694222
  0
VERTEX
  8
0
 62
7
  6
CONTINUOUS
 10
157.9679849869
 20
153.5929480269
  0
VERTEX
  8
0
 62
7
  6
CONTINUOUS
 10
157.9483478624
 20
153.6331604757
  0
VERTEX
  8
0
 62
7
  6
CONTINUOUS
 10
157.9368989035
 20
153.6712114205
  0
SEQEND
  0
LINE
  8
0
 62
7
  6
CONTINUOUS
 10
158.104365847
 20
153.4742780964
 11
158.1043197486
 21
153.4742976326
  0
LINE
  8
0
 62
7
  6
CONTINUOUS
 10
154.1330572819
 20
145.863670289
 11
151.6273355472
 21
150.424359704
  0
POLYLINE
  8
0
 62
7
  6
CONTINUOUS
 66
1
 70
0
  0
VERTEX
  8
0
 62
7
  6
CONTINUOUS
 10
154.1688557849
 20
137.86481959
  0
VERTEX
  8
0
 62
7
  6
CONTINUOUS
 10
154.172885038
 20
137.8435061842
  0
VERTEX
  8
0
 62
7
  6
CONTINUOUS
 10
154.1778539177
 20
137.8235015309
  0
VERTEX
  8
0
 62
7
  6
CONTINUOUS
 10
154.1836901551
 20
137.8048745846
  0
VERTEX
  8
0
 62
7
  6
CONTINUOUS
 10
154.1903569597
 20
137.7876688187
  0
VERTEX
  8
0
 62
7
  6
CONTINUOUS
 10
154.1978387476
 20
137.7719754463
  0
SEQEND
  0
POLYLINE
  8
0
 62
7
  6
CONTINUOUS
 66
1
 70
0
  0
VERTEX
  8
0
 62
7
  6
CONTINUOUS
 10
154.159430937
 20
121.1264520092
  0
VERTEX
  8
0
 62
7
  6
CONTINUOUS
 10
154.1640257963
 20
121.0956031992
  0
VERTEX
  8
0
 62
7
  6
CONTINUOUS
 10
154.168855784
 20
121.0648195954
  0
SEQEND
  0
POLYLINE
  8
0
 62
7
  6
CONTINUOUS
 66
1
 70
0
  0
VERTEX
  8
0
 62
7
  6
CONTINUOUS
 10
154.159430937
 20
137.9264520092
  0
VERTEX
  8
0
 62
7
  6
CONTINUOUS
 10
154.1640257963
 20
137.8956031992
  0
VERTEX
  8
0
 62
7
  6
CONTINUOUS
 10
154.168855784
 20
137.8648195954
  0
SEQEND
  0
POLYLINE
  8
0
 62
7
  6
CONTINUOUS
 66
1
 70
0
  0
VERTEX
  8
0
 62
7
  6
CONTINUOUS
 10
157.7767298219
 20
154.7264520092
  0
VERTEX
  8
0
 62
7
  6
CONTINUOUS
 10
157.7719583752
 20
154.774688554
  0
VERTEX
  8
0
 62
7
  6
CONTINUOUS
 10
157.7659187526
 20
154.8211465953
  0
VERTEX
  8
0
 62
7
  6
CONTINUOUS
 10
157.7586386855
 20
154.8650417205
  0
VERTEX
  8
0
 62
7
  6
CONTINUOUS
 10
157.7501747127
 20
154.9056890266
  0
VERTEX
  8
0
 62
7
  6
CONTINUOUS
 10
157.7405161209
 20
154.9428464881
  0
VERTEX
  8
0
 62
7
  6
CONTINUOUS
 10
157.7296193097
 20
154.9762946519
  0
VERTEX
  8
0
 62
7
  6
CONTINUOUS
 10
157.7175821081
 20
155.005394371
  0
VERTEX
  8
0
 62
7
  6
CONTINUOUS
 10
157.704548423
 20
155.0296419052
  0
VERTEX
  8
0
 62
7
  6
CONTINUOUS
 10
157.6905642162
 20
155.0488630363
  0
VERTEX
  8
0
 62
7
  6
CONTINUOUS
 10
157.6756316847
 20
155.0628990652
  0
VERTEX
  8
0
 62
7
  6
CONTINUOUS
 10
157.6599341482
 20
155.071428074
  0
VERTEX
  8
0
 62
7
  6
CONTINUOUS
 10
157.6437131603
 20
155.0742780961
  0
SEQEND
  0
LINE
  8
0
 62
7
  6
CONTINUOUS
 10
154.3801964349
 20
86.1147708616
 11
154.3801964349
 21
78.3741800961
  0
LINE
  8
SURFACE
 62
7
  6
CONTINUOUS
 10
154.3801964349
 20
78.3741800961
 11
154.3801964349
 21
86.1147708616
  0
LINE
  8
SURFACE
 62
7
  6
CONTINUOUS
 10
154.3801964349
 20
94.6335893307
 11
154.3801964349
 21
102.9147706635
  0
LINE
  8
0
 62
7
  6
CONTINUOUS
 10
154.3801964349
 20
94.6335893307
 11
154.3801964349
 21
104.5959790325
  0
LINE
  8
SURFACE
 62
7
  6
CONTINUOUS
 10
154.3801964349
 20
111.4335893307
 11
154.3801964349
 21
119.7147708616
  0
LINE
  8
SURFACE
 62
7
  6
CONTINUOUS
 10
154.3801964349
 20
128.2335893307
 11
154.3801964349
 21
136.5147708616
  0
LINE
  8
SURFACE
 62
7
  6
CONTINUOUS
 10
154.3801964349
 20
145.0335893307
 11
154.3801964349
 21
153.3147706635
  0
LINE
  8
0
 62
7
  6
CONTINUOUS
 10
154.3801964349
 20
145.0335893307
 11
154.3801964349
 21
154.9959790325
  0
LINE
  8
SURFACE
 62
7
  6
CONTINUOUS
 10
154.3801964349
 20
161.8335893307
 11
154.3801964349
 21
170.1147708616
  0
LINE
  8
SURFACE
 62
7
  6
CONTINUOUS
 10
154.3801964349
 20
178.6335893307
 11
154.3801964349
 21
186.9147708616
  0
LINE
  8
SURFACE
 62
7
  6
CONTINUOUS
 10
154.3801964349
 20
195.4335893307
 11
154.3801964349
 21
203.7147708616
  0
LINE
  8
0
 62
7
  6
CONTINUOUS
 10
154.3801964349
 20
195.4335893307
 11
154.3801964349
 21
205.4742780961
  0
LINE
  8
0
 62
7
  6
CONTINUOUS
 10
154.3801964349
 20
212.2335893307
 11
154.3801964349
 21
220.5147708616
  0
LINE
  8
0
 62
7
  6
CONTINUOUS
 10
158.1801964349
 20
220.6742780961
 11
158.1801964349
 21
220.2866517912
  0
LINE
  8
0
 62
7
  6
CONTINUOUS
 10
158.1801964349
 20
212.4618625837
 11
158.1801964349
 21
212.0742780961
  0
LINE
  8
0
 62
7
  6
CONTINUOUS
 10
158.1801964349
 20
203.8742780961
 11
158.1801964349
 21
203.4866543272
  0
LINE
  8
0
 62
7
  6
CONTINUOUS
 10
158.1801964349
 20
195.6618625837
 11
158.1801964349
 21
195.2742780961
  0
LINE
  8
0
 62
7
  6
CONTINUOUS
 10
158.1801964349
 20
187.0742780961
 11
158.1801964349
 21
186.6866517912
  0
LINE
  8
0
 62
7
  6
CONTINUOUS
 10
158.1801964349
 20
178.8618625837
 11
158.1801964349
 21
178.4742780961
  0
LINE
  8
0
 62
7
  6
CONTINUOUS
 10
158.1801964349
 20
170.2742780961
 11
158.1801964349
 21
169.8866517912
  0
LINE
  8
0
 62
7
  6
CONTINUOUS
 10
158.1801964349
 20
162.0618625837
 11
158.1801964349
 21
161.6742780961
  0
LINE
  8
0
 62
7
  6
CONTINUOUS
 10
158.1801964349
 20
153.4742780961
 11
158.1801964349
 21
153.0866543272
  0
LINE
  8
0
 62
7
  6
CONTINUOUS
 10
158.1801964349
 20
145.2618625837
 11
158.1801964349
 21
144.8742780961
  0
LINE
  8
0
 62
7
  6
CONTINUOUS
 10
158.1801964349
 20
136.6742780961
 11
158.1801964349
 21
136.2866517912
  0
LINE
  8
0
 62
7
  6
CONTINUOUS
 10
158.1801964349
 20
128.4618625837
 11
158.1801964349
 21
128.0742780961
  0
LINE
  8
0
 62
7
  6
CONTINUOUS
 10
158.1801964349
 20
119.8742780961
 11
158.1801964349
 21
119.4866517912
  0
LINE
  8
0
 62
7
  6
CONTINUOUS
 10
158.1801964349
 20
111.6618625837
 11
158.1801964349
 21
111.2742780961
  0
LINE
  8
0
 62
7
  6
CONTINUOUS
 10
158.1801964349
 20
103.0742780961
 11
158.1801964349
 21
102.6866543272
  0
LINE
  8
0
 62
7
  6
CONTINUOUS
 10
158.1801964349
 20
94.8618625837
 11
158.1801964349
 21
94.4742780961
  0
LINE
  8
0
 62
7
  6
CONTINUOUS
 10
158.1801964349
 20
86.2742780961
 11
158.1801964349
 21
85.8866517912
  0
LINE
  8
SURFACE
 62
7
  6
CONTINUOUS
 10
158.3801964349
 20
109.4742780961
 11
158.3801964349
 21
104.8742780961
  0
LINE
  8
0
 62
7
  6
CONTINUOUS
 10
158.3801964349
 20
78.0741800961
 11
158.3801964349
 21
228.6741800961
  0
LINE
  8
0
 62
7
  6
CONTINUOUS
 10
156.7264202241
 20
204.2668313285
 11
156.7317790717
 21
204.4742780961
  0
LINE
  8
0
 62
7
  6
CONTINUOUS
 10
156.7306411906
 20
154.0301821399
 11
156.7317790717
 21
154.0742780961
  0
LINE
  8
0
 62
7
  6
CONTINUOUS
 10
156.7306411906
 20
103.6301821399
 11
156.7317790717
 21
103.6742780961
  0
POLYLINE
  8
0
 62
7
  6
CONTINUOUS
 66
1
 70
0
  0
VERTEX
  8
0
 62
7
  6
CONTINUOUS
 10
156.7317790717
 20
154.0742780961
  0
VERTEX
  8
0
 62
7
  6
CONTINUOUS
 10
156.7357868049
 20
154.152271804
  0
VERTEX
  8
0
 62
7
  6
CONTINUOUS
 10
156.7438917217
 20
154.2309615564
  0
VERTEX
  8
0
 62
7
  6
CONTINUOUS
 10
156.7561198132
 20
154.3095376919
  0
VERTEX
  8
0
 62
7
  6
CONTINUOUS
 10
156.7723939924
 20
154.387227285
  0
VERTEX
  8
0
 62
7
  6
CONTINUOUS
 10
156.7927264062
 20
154.4639121846
  0
VERTEX
  8
0
 62
7
  6
CONTINUOUS
 10
156.8171515224
 20
154.5393893339
  0
VERTEX
  8
0
 62
7
  6
CONTINUOUS
 10
156.8455013833
 20
154.612844806
  0
VERTEX
  8
0
 62
7
  6
CONTINUOUS
 10
156.8775186405
 20
154.6834592341
  0
VERTEX
  8
0
 62
7
  6
CONTINUOUS
 10
156.9131468455
 20
154.7509166635
  0
VERTEX
  8
0
 62
7
  6
CONTINUOUS
 10
156.9519718862
 20
154.8142115145
  0
VERTEX
  8
0
 62
7
  6
CONTINUOUS
 10
156.9933216537
 20
154.872162955
  0
VERTEX
  8
0
 62
7
  6
CONTINUOUS
 10
157.0365919756
 20
154.9239394984
  0
VERTEX
  8
0
 62
7
  6
CONTINUOUS
 10
157.0813813778
 20
154.9690367386
  0
VERTEX
  8
0
 62
7
  6
CONTINUOUS
 10
157.1269245636
 20
155.0066482279
  0
VERTEX
  8
0
 62
7
  6
CONTINUOUS
 10
157.1724321488
 20
155.0361751639
  0
VERTEX
  8
0
 62
7
  6
CONTINUOUS
 10
157.2174051262
 20
155.0573777513
  0
VERTEX
  8
0
 62
7
  6
CONTINUOUS
 10
157.261266548
 20
155.0700769679
  0
VERTEX
  8
0
 62
7
  6
CONTINUOUS
 10
157.3035073557
 20
155.0742780961
  0
SEQEND
  0
POLYLINE
  8
0
 62
7
  6
CONTINUOUS
 66
1
 70
0
  0
VERTEX
  8
0
 62
7
  6
CONTINUOUS
 10
154.1688197994
 20
143.6835128608
  0
VERTEX
  8
0
 62
7
  6
CONTINUOUS
 10
154.164008652
 20
143.6528408796
  0
VERTEX
  8
0
 62
7
  6
CONTINUOUS
 10
154.159430937
 20
143.6221041831
  0
SEQEND
  0
POLYLINE
  8
0
 62
7
  6
CONTINUOUS
 66
1
 70
0
  0
VERTEX
  8
0
 62
7
  6
CONTINUOUS
 10
154.1688197994
 20
126.8835128608
  0
VERTEX
  8
0
 62
7
  6
CONTINUOUS
 10
154.164008652
 20
126.8528408796
  0
VERTEX
  8
0
 62
7
  6
CONTINUOUS
 10
154.159430937
 20
126.8221041831
  0
SEQEND
  0
POLYLINE
  8
0
 62
7
  6
CONTINUOUS
 66
1
 70
0
  0
VERTEX
  8
0
 62
7
  6
CONTINUOUS
 10
154.159430937
 20
143.6221041831
  0
VERTEX
  8
0
 62
7
  6
CONTINUOUS
 10
154.1514753608
 20
143.5756464448
  0
VERTEX
  8
0
 62
7
  6
CONTINUOUS
 10
154.1412347022
 20
143.5308234733
  0
VERTEX
  8
0
 62
7
  6
CONTINUOUS
 10
154.1286201769
 20
143.4879960319
  0
VERTEX
  8
0
 62
7
  6
CONTINUOUS
 10
154.1136322709
 20
143.4478270155
  0
VERTEX
  8
0
 62
7
  6
CONTINUOUS
 10
154.0962076355
 20
143.4107166855
  0
VERTEX
  8
0
 62
7
  6
CONTINUOUS
 10
154.0761601538
 20
143.3769048623
  0
VERTEX
  8
0
 62
7
  6
CONTINUOUS
 10
154.0535484022
 20
143.3470928248
  0
VERTEX
  8
0
 62
7
  6
CONTINUOUS
 10
154.028533054
 20
143.3219057849
  0
VERTEX
  8
0
 62
7
  6
CONTINUOUS
 10
154.0011852735
 20
143.3017123073
  0
VERTEX
  8
0
 62
7
  6
CONTINUOUS
 10
153.9713045294
 20
143.2867274518
  0
VERTEX
  8
0
 62
7
  6
CONTINUOUS
 10
153.9390535387
 20
143.2774430331
  0
VERTEX
  8
0
 62
7
  6
CONTINUOUS
 10
153.9047531446
 20
143.2742780961
  0
SEQEND
  0
POLYLINE
  8
0
 62
7
  6
CONTINUOUS
 66
1
 70
0
  0
VERTEX
  8
0
 62
7
  6
CONTINUOUS
 10
154.159430937
 20
126.8221041831
  0
VERTEX
  8
0
 62
7
  6
CONTINUOUS
 10
154.1514753608
 20
126.7756464448
  0
VERTEX
  8
0
 62
7
  6
CONTINUOUS
 10
154.1412347022
 20
126.7308234733
  0
VERTEX
  8
0
 62
7
  6
CONTINUOUS
 10
154.1286201769
 20
126.6879960319
  0
VERTEX
  8
0
 62
7
  6
CONTINUOUS
 10
154.1136322709
 20
126.6478270155
  0
VERTEX
  8
0
 62
7
  6
CONTINUOUS
 10
154.0962076355
 20
126.6107166855
  0
VERTEX
  8
0
 62
7
  6
CONTINUOUS
 10
154.0761601538
 20
126.5769048623
  0
VERTEX
  8
0
 62
7
  6
CONTINUOUS
 10
154.0535484022
 20
126.5470928248
  0
VERTEX
  8
0
 62
7
  6
CONTINUOUS
 10
154.028533054
 20
126.5219057849
  0
VERTEX
  8
0
 62
7
  6
CONTINUOUS
 10
154.0011852735
 20
126.5017123073
  0
VERTEX
  8
0
 62
7
  6
CONTINUOUS
 10
153.9713045294
 20
126.4867274518
  0
VERTEX
  8
0
 62
7
  6
CONTINUOUS
 10
153.9390535387
 20
126.4774430331
  0
VERTEX
  8
0
 62
7
  6
CONTINUOUS
 10
153.9047531446
 20
126.4742780961
  0
SEQEND
  0
POLYLINE
  8
0
 62
7
  6
CONTINUOUS
 66
1
 70
0
  0
VERTEX
  8
0
 62
7
  6
CONTINUOUS
 10
154.1978322454
 20
143.7764278215
  0
VERTEX
  8
0
 62
7
  6
CONTINUOUS
 10
154.1903435947
 20
143.7607298719
  0
VERTEX
  8
0
 62
7
  6
CONTINUOUS
 10
154.1836693648
 20
143.7435131524
  0
VERTEX
  8
0
 62
7
  6
CONTINUOUS
 10
154.177826898
 20
143.7248722759
  0
VERTEX
  8
0
 62
7
  6
CONTINUOUS
 10
154.1728523026
 20
143.7048469978
  0
VERTEX
  8
0
 62
7
  6
CONTINUOUS
 10
154.1688198005
 20
143.6835128672
  0
SEQEND
  0
POLYLINE
  8
0
 62
7
  6
CONTINUOUS
 66
1
 70
0
  0
VERTEX
  8
0
 62
7
  6
CONTINUOUS
 10
148.145679487
 20
160.124365663
  0
VERTEX
  8
0
 62
7
  6
CONTINUOUS
 10
148.228658041
 20
160.1388730598
  0
VERTEX
  8
0
 62
7
  6
CONTINUOUS
 10
148.3212836759
 20
160.1490578587
  0
SEQEND
  0
LINE
  8
SURFACE
 62
7
  6
CONTINUOUS
 10
143.3949900993
 20
159.7552936793
 11
143.3005194338
 21
159.7477425328
  0
LINE
  8
0
 62
7
  6
CONTINUOUS
 10
143.3774425107
 20
159.7538910808
 11
147.3777837379
 21
160.0736428494
  0
LINE
  8
0
 62
7
  6
CONTINUOUS
 10
147.3968962728
 20
160.0751705358
 11
154.1909328563
 21
160.6182255128
  0
POLYLINE
  8
0
 62
7
  6
CONTINUOUS
 66
1
 70
0
  0
VERTEX
  8
0
 62
7
  6
CONTINUOUS
 10
151.4598071866
 20
160.3999235704
  0
VERTEX
  8
0
 62
7
  6
CONTINUOUS
 10
151.5285414667
 20
160.4038622996
  0
VERTEX
  8
0
 62
7
  6
CONTINUOUS
 10
151.5904939825
 20
160.4044382327
  0
VERTEX
  8
0
 62
7
  6
CONTINUOUS
 10
151.6461411711
 20
160.4020769353
  0
VERTEX
  8
0
 62
7
  6
CONTINUOUS
 10
151.695986273
 20
160.3971403045
  0
VERTEX
  8
0
 62
7
  6
CONTINUOUS
 10
151.7407661852
 20
160.389873209
  0
VERTEX
  8
0
 62
7
  6
CONTINUOUS
 10
151.7809363103
 20
160.3804391217
  0
VERTEX
  8
0
 62
7
  6
CONTINUOUS
 10
151.8168940893
 20
160.3689027382
  0
SEQEND
  0
POLYLINE
  8
0
 62
7
  6
CONTINUOUS
 66
1
 70
0
  0
VERTEX
  8
0
 62
7
  6
CONTINUOUS
 10
147.7191490579
 20
160.0742780961
  0
VERTEX
  8
0
 62
7
  6
CONTINUOUS
 10
147.8130358538
 20
160.0771823632
  0
VERTEX
  8
0
 62
7
  6
CONTINUOUS
 10
147.9150444312
 20
160.0861989139
  0
VERTEX
  8
0
 62
7
  6
CONTINUOUS
 10
148.0257508368
 20
160.1017828594
  0
VERTEX
  8
0
 62
7
  6
CONTINUOUS
 10
148.145685376
 20
160.1243667586
  0
SEQEND
  0
LINE
  8
0
 62
7
  6
CONTINUOUS
 10
158.1801964349
 20
160.0742780961
 11
147.3937219499
 21
160.0742780961
  0
LINE
  8
0
 62
7
  6
CONTINUOUS
 10
158.1279777162
 20
161.6742780961
 11
158.1801964349
 21
161.6742780961
  0
LINE
  8
SURFACE
 62
7
  6
CONTINUOUS
 10
153.1837766339
 20
163.0106378078
 11
143.3005194338
 21
163.8006176594
  0
POLYLINE
  8
0
 62
7
  6
CONTINUOUS
 66
1
 70
0
  0
VERTEX
  8
0
 62
7
  6
CONTINUOUS
 10
151.8168928597
 20
160.3689031749
  0
VERTEX
  8
0
 62
7
  6
CONTINUOUS
 10
152.0072283056
 20
160.3002995659
  0
VERTEX
  8
0
 62
7
  6
CONTINUOUS
 10
152.1903630517
 20
160.2390226816
  0
VERTEX
  8
0
 62
7
  6
CONTINUOUS
 10
152.3633336179
 20
160.1868543474
  0
VERTEX
  8
0
 62
7
  6
CONTINUOUS
 10
152.5245042344
 20
160.1446679368
  0
VERTEX
  8
0
 62
7
  6
CONTINUOUS
 10
152.6725310034
 20
160.1128028975
  0
VERTEX
  8
0
 62
7
  6
CONTINUOUS
 10
152.8074256997
 20
160.0909090679
  0
VERTEX
  8
0
 62
7
  6
CONTINUOUS
 10
152.9300396501
 20
160.0783109066
  0
VERTEX
  8
0
 62
7
  6
CONTINUOUS
 10
153.041243812
 20
160.0742780961
  0
SEQEND
  0
POLYLINE
  8
0
 62
7
  6
CONTINUOUS
 66
1
 70
0
  0
VERTEX
  8
0
 62
7
  6
CONTINUOUS
 10
158.1801964349
 20
153.0866543272
  0
VERTEX
  8
0
 62
7
  6
CONTINUOUS
 10
158.1452955931
 20
153.1176556386
  0
VERTEX
  8
0
 62
7
  6
CONTINUOUS
 10
158.1120705281
 20
153.1490257578
  0
VERTEX
  8
0
 62
7
  6
CONTINUOUS
 10
158.0817320975
 20
153.1815763501
  0
VERTEX
  8
0
 62
7
  6
CONTINUOUS
 10
158.0551393481
 20
153.2152475234
  0
VERTEX
  8
0
 62
7
  6
CONTINUOUS
 10
158.0328661462
 20
153.2493310621
  0
VERTEX
  8
0
 62
7
  6
CONTINUOUS
 10
157.9899206936
 20
153.329945821
  0
SEQEND
  0
POLYLINE
  8
0
 62
7
  6
CONTINUOUS
 66
1
 70
0
  0
VERTEX
  8
0
 62
7
  6
CONTINUOUS
 10
157.9899206936
 20
153.329945821
  0
VERTEX
  8
0
 62
7
  6
CONTINUOUS
 10
157.9592477971
 20
153.3756893322
  0
VERTEX
  8
0
 62
7
  6
CONTINUOUS
 10
157.922921278
 20
153.4198334193
  0
VERTEX
  8
0
 62
7
  6
CONTINUOUS
 10
157.8807965221
 20
153.4619729602
  0
VERTEX
  8
0
 62
7
  6
CONTINUOUS
 10
157.8331318669
 20
153.5013322164
  0
VERTEX
  8
0
 62
7
  6
CONTINUOUS
 10
157.7803446767
 20
153.537189015
  0
VERTEX
  8
0
 62
7
  6
CONTINUOUS
 10
157.7222816096
 20
153.5692560111
  0
VERTEX
  8
0
 62
7
  6
CONTINUOUS
 10
157.6591852885
 20
153.596937313
  0
VERTEX
  8
0
 62
7
  6
CONTINUOUS
 10
157.591679173
 20
153.6195392791
  0
SEQEND
  0
POLYLINE
  8
0
 62
7
  6
CONTINUOUS
 66
1
 70
0
  0
VERTEX
  8
0
 62
7
  6
CONTINUOUS
 10
142.7496813932
 20
206.0212613634
  0
VERTEX
  8
0
 62
7
  6
CONTINUOUS
 10
142.7482025
 20
206.0262255728
  0
VERTEX
  8
0
 62
7
  6
CONTINUOUS
 10
142.7559580447
 20
206.0311661711
  0
VERTEX
  8
0
 62
7
  6
CONTINUOUS
 10
142.7728599204
 20
206.036057818
  0
VERTEX
  8
0
 62
7
  6
CONTINUOUS
 10
142.7988251278
 20
206.0408828897
  0
VERTEX
  8
0
 62
7
  6
CONTINUOUS
 10
142.8336221674
 20
206.0456043954
  0
SEQEND
  0
LINE
  8
0
 62
7
  6
CONTINUOUS
 10
157.9346934963
 20
153.6735523959
 11
157.9355078522
 21
153.6707998677
  0
POLYLINE
  8
0
 62
7
  6
CONTINUOUS
 66
1
 70
0
  0
VERTEX
  8
0
 62
7
  6
CONTINUOUS
 10
157.9368987546
 20
153.6712120786
  0
VERTEX
  8
0
 62
7
  6
CONTINUOUS
 10
157.9237154568
 20
153.7337574406
  0
VERTEX
  8
0
 62
7
  6
CONTINUOUS
 10
157.9092780046
 20
153.8046388575
  0
VERTEX
  8
0
 62
7
  6
CONTINUOUS
 10
157.8939164677
 20
153.8832711109
  0
VERTEX
  8
0
 62
7
  6
CONTINUOUS
 10
157.877971798
 20
153.969048225
  0
VERTEX
  8
0
 62
7
  6
CONTINUOUS
 10
157.8617305229
 20
154.0616873938
  0
VERTEX
  8
0
 62
7
  6
CONTINUOUS
 10
157.8455430803
 20
154.160566312
  0
VERTEX
  8
0
 62
7
  6
CONTINUOUS
 10
157.829745244
 20
154.2650970832
  0
VERTEX
  8
0
 62
7
  6
CONTINUOUS
 10
157.8146626952
 20
154.3746675988
  0
VERTEX
  8
0
 62
7
  6
CONTINUOUS
 10
157.8006214126
 20
154.4884943407
  0
VERTEX
  8
0
 62
7
  6
CONTINUOUS
 10
157.7878953254
 20
154.6059640254
  0
VERTEX
  8
0
 62
7
  6
CONTINUOUS
 10
157.7767298219
 20
154.7264520092
  0
SEQEND
  0
POLYLINE
  8
0
 62
7
  6
CONTINUOUS
 66
1
 70
0
  0
VERTEX
  8
0
 62
7
  6
CONTINUOUS
 10
154.1688557849
 20
171.46481959
  0
VERTEX
  8
0
 62
7
  6
CONTINUOUS
 10
154.172885038
 20
171.4435061842
  0
VERTEX
  8
0
 62
7
  6
CONTINUOUS
 10
154.1778539177
 20
171.4235015309
  0
VERTEX
  8
0
 62
7
  6
CONTINUOUS
 10
154.1836901551
 20
171.4048745846
  0
VERTEX
  8
0
 62
7
  6
CONTINUOUS
 10
154.1903569597
 20
171.3876688187
  0
VERTEX
  8
0
 62
7
  6
CONTINUOUS
 10
154.1978387476
 20
171.3719754463
  0
SEQEND
  0
POLYLINE
  8
0
 62
7
  6
CONTINUOUS
 66
1
 70
0
  0
VERTEX
  8
0
 62
7
  6
CONTINUOUS
 10
157.8962770409
 20
153.8711878674
  0
VERTEX
  8
0
 62
7
  6
CONTINUOUS
 10
157.908023579
 20
153.8073487175
  0
VERTEX
  8
0
 62
7
  6
CONTINUOUS
 10
157.9218272891
 20
153.7364564031
  0
VERTEX
  8
0
 62
7
  6
CONTINUOUS
 10
157.934693415
 20
153.6735527664
  0
SEQEND
  0
POLYLINE
  8
0
 62
7
  6
CONTINUOUS
 66
1
 70
0
  0
VERTEX
  8
0
 62
7
  6
CONTINUOUS
 10
154.159430937
 20
171.5264520092
  0
VERTEX
  8
0
 62
7
  6
CONTINUOUS
 10
154.1640257963
 20
171.4956031992
  0
VERTEX
  8
0
 62
7
  6
CONTINUOUS
 10
154.168855784
 20
171.4648195954
  0
SEQEND
  0
POLYLINE
  8
0
 62
7
  6
CONTINUOUS
 66
1
 70
0
  0
VERTEX
  8
0
 62
7
  6
CONTINUOUS
 10
157.7767298219
 20
205.1264520092
  0
VERTEX
  8
0
 62
7
  6
CONTINUOUS
 10
157.7719583752
 20
205.174688554
  0
VERTEX
  8
0
 62
7
  6
CONTINUOUS
 10
157.7659187526
 20
205.2211465953
  0
VERTEX
  8
0
 62
7
  6
CONTINUOUS
 10
157.7586386855
 20
205.2650417205
  0
VERTEX
  8
0
 62
7
  6
CONTINUOUS
 10
157.7501747127
 20
205.3056890266
  0
VERTEX
  8
0
 62
7
  6
CONTINUOUS
 10
157.7405161209
 20
205.3428464881
  0
VERTEX
  8
0
 62
7
  6
CONTINUOUS
 10
157.7296193097
 20
205.3762946519
  0
VERTEX
  8
0
 62
7
  6
CONTINUOUS
 10
157.7175821081
 20
205.405394371
  0
VERTEX
  8
0
 62
7
  6
CONTINUOUS
 10
157.704548423
 20
205.4296419052
  0
VERTEX
  8
0
 62
7
  6
CONTINUOUS
 10
157.6905642162
 20
205.4488630363
  0
VERTEX
  8
0
 62
7
  6
CONTINUOUS
 10
157.6756316847
 20
205.4628990652
  0
VERTEX
  8
0
 62
7
  6
CONTINUOUS
 10
157.6599341482
 20
205.471428074
  0
VERTEX
  8
0
 62
7
  6
CONTINUOUS
 10
157.6437131603
 20
205.4742780961
  0
SEQEND
  0
POLYLINE
  8
0
 62
7
  6
CONTINUOUS
 66
1
 70
0
  0
VERTEX
  8
0
 62
7
  6
CONTINUOUS
 10
155.9805730304
 20
222.0082479918
  0
VERTEX
  8
0
 62
7
  6
CONTINUOUS
 10
155.9917941615
 20
221.8859255266
  0
VERTEX
  8
0
 62
7
  6
CONTINUOUS
 10
156.0019226407
 20
221.7901780232
  0
VERTEX
  8
0
 62
7
  6
CONTINUOUS
 10
156.0132263754
 20
221.696981094
  0
VERTEX
  8
0
 62
7
  6
CONTINUOUS
 10
156.0236900994
 20
221.6195966988
  0
SEQEND
  0
POLYLINE
  8
0
 62
7
  6
CONTINUOUS
 66
1
 70
0
  0
VERTEX
  8
0
 62
7
  6
CONTINUOUS
 10
158.3801964349
 20
78.0741800961
  0
VERTEX
  8
0
 62
7
  6
CONTINUOUS
 10
158.3799520531
 20
78.06429612
  0
VERTEX
  8
0
 62
7
  6
CONTINUOUS
 10
158.379221873
 20
78.0544601826
  0
VERTEX
  8
0
 62
7
  6
CONTINUOUS
 10
158.3779832685
 20
78.0445090923
  0
VERTEX
  8
0
 62
7
  6
CONTINUOUS
 10
158.3761533668
 20
78.0341690872
  0
VERTEX
  8
0
 62
7
  6
CONTINUOUS
 10
158.3735579895
 20
78.0230791255
  0
VERTEX
  8
0
 62
7
  6
CONTINUOUS
 10
158.3699387413
 20
78.0109514858
  0
VERTEX
  8
0
 62
7
  6
CONTINUOUS
 10
158.3648500615
 20
77.9973488643
  0
VERTEX
  8
0
 62
7
  6
CONTINUOUS
 10
158.3578043375
 20
77.9822266679
  0
VERTEX
  8
0
 62
7
  6
CONTINUOUS
 10
158.3481711922
 20
77.9656237472
  0
VERTEX
  8
0
 62
7
  6
CONTINUOUS
 10
158.3354107885
 20
77.9480511762
  0
VERTEX
  8
0
 62
7
  6
CONTINUOUS
 10
158.3187664991
 20
77.9299638096
  0
VERTEX
  8
0
 62
7
  6
CONTINUOUS
 10
158.2998960234
 20
77.9139552275
  0
VERTEX
  8
0
 62
7
  6
CONTINUOUS
 10
158.2788899928
 20
77.9002272817
  0
VERTEX
  8
0
 62
7
  6
CONTINUOUS
 10
158.2565431616
 20
77.88932562
  0
VERTEX
  8
0
 62
7
  6
CONTINUOUS
 10
158.2324501725
 20
77.8811268731
  0
VERTEX
  8
0
 62
7
  6
CONTINUOUS
 10
158.206764857
 20
77.8759526537
  0
VERTEX
  8
0
 62
7
  6
CONTINUOUS
 10
158.1801964349
 20
77.8741800961
  0
SEQEND
  0
POLYLINE
  8
0
 62
7
  6
CONTINUOUS
 66
1
 70
0
  0
VERTEX
  8
0
 62
7
  6
CONTINUOUS
 10
156.7317790717
 20
103.6742780961
  0
VERTEX
  8
0
 62
7
  6
CONTINUOUS
 10
156.7357868049
 20
103.752271804
  0
VERTEX
  8
0
 62
7
  6
CONTINUOUS
 10
156.7438917217
 20
103.8309615564
  0
VERTEX
  8
0
 62
7
  6
CONTINUOUS
 10
156.7561198132
 20
103.9095376919
  0
VERTEX
  8
0
 62
7
  6
CONTINUOUS
 10
156.7723939924
 20
103.987227285
  0
VERTEX
  8
0
 62
7
  6
CONTINUOUS
 10
156.7927264062
 20
104.0639121846
  0
VERTEX
  8
0
 62
7
  6
CONTINUOUS
 10
156.8171515224
 20
104.1393893339
  0
VERTEX
  8
0
 62
7
  6
CONTINUOUS
 10
156.8455013833
 20
104.212844806
  0
VERTEX
  8
0
 62
7
  6
CONTINUOUS
 10
156.8775186405
 20
104.2834592341
  0
VERTEX
  8
0
 62
7
  6
CONTINUOUS
 10
156.9131468455
 20
104.3509166635
  0
VERTEX
  8
0
 62
7
  6
CONTINUOUS
 10
156.9519718862
 20
104.4142115145
  0
VERTEX
  8
0
 62
7
  6
CONTINUOUS
 10
156.9933216537
 20
104.472162955
  0
VERTEX
  8
0
 62
7
  6
CONTINUOUS
 10
157.0365919756
 20
104.5239394984
  0
VERTEX
  8
0
 62
7
  6
CONTINUOUS
 10
157.0813813778
 20
104.5690367386
  0
VERTEX
  8
0
 62
7
  6
CONTINUOUS
 10
157.1269245636
 20
104.6066482279
  0
VERTEX
  8
0
 62
7
  6
CONTINUOUS
 10
157.1724321488
 20
104.6361751639
  0
VERTEX
  8
0
 62
7
  6
CONTINUOUS
 10
157.2174051262
 20
104.6573777513
  0
VERTEX
  8
0
 62
7
  6
CONTINUOUS
 10
157.261266548
 20
104.6700769679
  0
VERTEX
  8
0
 62
7
  6
CONTINUOUS
 10
157.3035073557
 20
104.6742780961
  0
SEQEND
  0
POLYLINE
  8
0
 62
7
  6
CONTINUOUS
 66
1
 70
0
  0
VERTEX
  8
0
 62
7
  6
CONTINUOUS
 10
154.1688197994
 20
110.0835128608
  0
VERTEX
  8
0
 62
7
  6
CONTINUOUS
 10
154.164008652
 20
110.0528408796
  0
VERTEX
  8
0
 62
7
  6
CONTINUOUS
 10
154.159430937
 20
110.0221041831
  0
SEQEND
  0
POLYLINE
  8
0
 62
7
  6
CONTINUOUS
 66
1
 70
0
  0
VERTEX
  8
0
 62
7
  6
CONTINUOUS
 10
154.1688197994
 20
93.2835128608
  0
VERTEX
  8
0
 62
7
  6
CONTINUOUS
 10
154.164008652
 20
93.2528408796
  0
VERTEX
  8
0
 62
7
  6
CONTINUOUS
 10
154.159430937
 20
93.2221041831
  0
SEQEND
  0
POLYLINE
  8
0
 62
7
  6
CONTINUOUS
 66
1
 70
0
  0
VERTEX
  8
0
 62
7
  6
CONTINUOUS
 10
154.159430937
 20
110.0221041831
  0
VERTEX
  8
0
 62
7
  6
CONTINUOUS
 10
154.1514753608
 20
109.9756464448
  0
VERTEX
  8
0
 62
7
  6
CONTINUOUS
 10
154.1412347022
 20
109.9308234733
  0
VERTEX
  8
0
 62
7
  6
CONTINUOUS
 10
154.1286201769
 20
109.8879960319
  0
VERTEX
  8
0
 62
7
  6
CONTINUOUS
 10
154.1136322709
 20
109.8478270155
  0
VERTEX
  8
0
 62
7
  6
CONTINUOUS
 10
154.0962076355
 20
109.8107166855
  0
VERTEX
  8
0
 62
7
  6
CONTINUOUS
 10
154.0761601538
 20
109.7769048623
  0
VERTEX
  8
0
 62
7
  6
CONTINUOUS
 10
154.0535484022
 20
109.7470928248
  0
VERTEX
  8
0
 62
7
  6
CONTINUOUS
 10
154.028533054
 20
109.7219057849
  0
VERTEX
  8
0
 62
7
  6
CONTINUOUS
 10
154.0011852735
 20
109.7017123073
  0
VERTEX
  8
0
 62
7
  6
CONTINUOUS
 10
153.9713045294
 20
109.6867274518
  0
VERTEX
  8
0
 62
7
  6
CONTINUOUS
 10
153.9390535387
 20
109.6774430331
  0
VERTEX
  8
0
 62
7
  6
CONTINUOUS
 10
153.9047531446
 20
109.6742780961
  0
SEQEND
  0
POLYLINE
  8
0
 62
7
  6
CONTINUOUS
 66
1
 70
0
  0
VERTEX
  8
0
 62
7
  6
CONTINUOUS
 10
154.159430937
 20
93.2221041831
  0
VERTEX
  8
0
 62
7
  6
CONTINUOUS
 10
154.1514753608
 20
93.1756464448
  0
VERTEX
  8
0
 62
7
  6
CONTINUOUS
 10
154.1412347022
 20
93.1308234733
  0
VERTEX
  8
0
 62
7
  6
CONTINUOUS
 10
154.1286201769
 20
93.0879960319
  0
VERTEX
  8
0
 62
7
  6
CONTINUOUS
 10
154.1136322709
 20
93.0478270155
  0
VERTEX
  8
0
 62
7
  6
CONTINUOUS
 10
154.0962076355
 20
93.0107166855
  0
VERTEX
  8
0
 62
7
  6
CONTINUOUS
 10
154.0761601538
 20
92.9769048623
  0
VERTEX
  8
0
 62
7
  6
CONTINUOUS
 10
154.0535484022
 20
92.9470928248
  0
VERTEX
  8
0
 62
7
  6
CONTINUOUS
 10
154.028533054
 20
92.9219057849
  0
VERTEX
  8
0
 62
7
  6
CONTINUOUS
 10
154.0011852735
 20
92.9017123073
  0
VERTEX
  8
0
 62
7
  6
CONTINUOUS
 10
153.9713045294
 20
92.8867274518
  0
VERTEX
  8
0
 62
7
  6
CONTINUOUS
 10
153.9390535387
 20
92.8774430331
  0
VERTEX
  8
0
 62
7
  6
CONTINUOUS
 10
153.9047531446
 20
92.8742780961
  0
SEQEND
  0
POLYLINE
  8
0
 62
7
  6
CONTINUOUS
 66
1
 70
0
  0
VERTEX
  8
0
 62
7
  6
CONTINUOUS
 10
151.8165209854
 20
137.9795150933
  0
VERTEX
  8
0
 62
7
  6
CONTINUOUS
 10
151.7805503642
 20
137.9679738349
  0
VERTEX
  8
0
 62
7
  6
CONTINUOUS
 10
151.7403614852
 20
137.9585352998
  0
VERTEX
  8
0
 62
7
  6
CONTINUOUS
 10
151.6955565829
 20
137.9512646924
  0
VERTEX
  8
0
 62
7
  6
CONTINUOUS
 10
151.6456803797
 20
137.9463259544
  0
VERTEX
  8
0
 62
7
  6
CONTINUOUS
 10
151.5899959593
 20
137.9439642653
  0
VERTEX
  8
0
 62
7
  6
CONTINUOUS
 10
151.52800033
 20
137.9445416908
  0
VERTEX
  8
0
 62
7
  6
CONTINUOUS
 10
151.4592196093
 20
137.9484835875
  0
SEQEND
  0
LINE
  8
0
 62
7
  6
CONTINUOUS
 10
158.0736870619
 20
144.8665793483
 11
154.7763083041
 21
143.9241845288
  0
LINE
  8
0
 62
7
  6
CONTINUOUS
 10
153.1837765364
 20
168.9377223766
 11
151.459218069
 21
168.7998764808
  0
LINE
  8
SURFACE
 62
7
  6
CONTINUOUS
 10
153.1837765546
 20
168.9377223781
 11
143.3005194338
 21
168.1477425328
  0
LINE
  8
0
 62
7
  6
CONTINUOUS
 10
143.3774425107
 20
168.1538910808
 11
146.2301964349
 21
168.381914907
  0
POLYLINE
  8
0
 62
7
  6
CONTINUOUS
 66
1
 70
0
  0
VERTEX
  8
0
 62
7
  6
CONTINUOUS
 10
154.1978387476
 20
171.3719754463
  0
VERTEX
  8
0
 62
7
  6
CONTINUOUS
 10
154.2072000267
 20
171.3563570748
  0
VERTEX
  8
0
 62
7
  6
CONTINUOUS
 10
154.217163053
 20
171.3436374675
  0
VERTEX
  8
0
 62
7
  6
CONTINUOUS
 10
154.2275306808
 20
171.3340460829
  0
VERTEX
  8
0
 62
7
  6
CONTINUOUS
 10
154.2381426592
 20
171.3277549431
  0
VERTEX
  8
0
 62
7
  6
CONTINUOUS
 10
154.2487004361
 20
171.3249548918
  0
SEQEND
  0
POLYLINE
  8
0
 62
7
  6
CONTINUOUS
 66
1
 70
0
  0
VERTEX
  8
0
 62
7
  6
CONTINUOUS
 10
154.1688557849
 20
188.26481959
  0
VERTEX
  8
0
 62
7
  6
CONTINUOUS
 10
154.172885038
 20
188.2435061842
  0
VERTEX
  8
0
 62
7
  6
CONTINUOUS
 10
154.1778539177
 20
188.2235015309
  0
VERTEX
  8
0
 62
7
  6
CONTINUOUS
 10
154.1836901551
 20
188.2048745846
  0
VERTEX
  8
0
 62
7
  6
CONTINUOUS
 10
154.1903569597
 20
188.1876688187
  0
VERTEX
  8
0
 62
7
  6
CONTINUOUS
 10
154.1978387476
 20
188.1719754463
  0
SEQEND
  0
POLYLINE
  8
0
 62
7
  6
CONTINUOUS
 66
1
 70
0
  0
VERTEX
  8
0
 62
7
  6
CONTINUOUS
 10
154.159430937
 20
188.3264520092
  0
VERTEX
  8
0
 62
7
  6
CONTINUOUS
 10
154.1640257963
 20
188.2956031992
  0
VERTEX
  8
0
 62
7
  6
CONTINUOUS
 10
154.168855784
 20
188.2648195954
  0
SEQEND
  0
POLYLINE
  8
0
 62
7
  6
CONTINUOUS
 66
1
 70
0
  0
VERTEX
  8
0
 62
7
  6
CONTINUOUS
 10
154.1978322454
 20
126.9764278215
  0
VERTEX
  8
0
 62
7
  6
CONTINUOUS
 10
154.1903435947
 20
126.9607298719
  0
VERTEX
  8
0
 62
7
  6
CONTINUOUS
 10
154.1836693648
 20
126.9435131524
  0
VERTEX
  8
0
 62
7
  6
CONTINUOUS
 10
154.177826898
 20
126.9248722759
  0
VERTEX
  8
0
 62
7
  6
CONTINUOUS
 10
154.1728523026
 20
126.9048469978
  0
VERTEX
  8
0
 62
7
  6
CONTINUOUS
 10
154.1688198005
 20
126.8835128672
  0
SEQEND
  0
POLYLINE
  8
0
 62
7
  6
CONTINUOUS
 66
1
 70
0
  0
VERTEX
  8
0
 62
7
  6
CONTINUOUS
 10
153.041243812
 20
171.8742780961
  0
VERTEX
  8
0
 62
7
  6
CONTINUOUS
 10
152.9300557995
 20
171.8702464184
  0
VERTEX
  8
0
 62
7
  6
CONTINUOUS
 10
152.8074258432
 20
171.8576471434
  0
VERTEX
  8
0
 62
7
  6
CONTINUOUS
 10
152.6725025233
 20
171.8357478991
  0
VERTEX
  8
0
 62
7
  6
CONTINUOUS
 10
152.5244565536
 20
171.803876847
  0
VERTEX
  8
0
 62
7
  6
CONTINUOUS
 10
152.3632717393
 20
171.7616843595
  0
VERTEX
  8
0
 62
7
  6
CONTINUOUS
 10
152.1902530822
 20
171.7094984179
  0
VERTEX
  8
0
 62
7
  6
CONTINUOUS
 10
152.0070110993
 20
171.6481808909
  0
VERTEX
  8
0
 62
7
  6
CONTINUOUS
 10
151.8165193985
 20
171.5795145297
  0
SEQEND
  0
LINE
  8
0
 62
7
  6
CONTINUOUS
 10
158.127292022
 20
170.2742780961
 11
158.1801964349
 21
170.2742780961
  0
LINE
  8
0
 62
7
  6
CONTINUOUS
 10
147.39128509
 20
171.8742780961
 11
158.1801964349
 21
171.8742780961
  0
LINE
  8
0
 62
7
  6
CONTINUOUS
 10
147.3753477695
 20
171.8749120526
 11
143.3774425107
 21
172.1944691115
  0
LINE
  8
SURFACE
 62
7
  6
CONTINUOUS
 10
143.3005194338
 20
172.2006176594
 11
143.3949897783
 21
172.1930665386
  0
LINE
  8
0
 62
7
  6
CONTINUOUS
 10
147.4074061188
 20
171.8723495927
 11
154.1909328215
 21
171.3301346823
  0
POLYLINE
  8
0
 62
7
  6
CONTINUOUS
 66
1
 70
0
  0
VERTEX
  8
0
 62
7
  6
CONTINUOUS
 10
153.9047531446
 20
171.8742780961
  0
VERTEX
  8
0
 62
7
  6
CONTINUOUS
 10
153.9390532465
 20
171.8711132142
  0
VERTEX
  8
0
 62
7
  6
CONTINUOUS
 10
153.9713014731
 20
171.8618299404
  0
VERTEX
  8
0
 62
7
  6
CONTINUOUS
 10
154.0011772942
 20
171.8468488103
  0
VERTEX
  8
0
 62
7
  6
CONTINUOUS
 10
154.0285260488
 20
171.8266564904
  0
VERTEX
  8
0
 62
7
  6
CONTINUOUS
 10
154.0535446521
 20
171.8014677062
  0
VERTEX
  8
0
 62
7
  6
CONTINUOUS
 10
154.0761576595
 20
171.7716550601
  0
VERTEX
  8
0
 62
7
  6
CONTINUOUS
 10
154.0962039265
 20
171.7378465495
  0
VERTEX
  8
0
 62
7
  6
CONTINUOUS
 10
154.1136274993
 20
171.700740581
  0
VERTEX
  8
0
 62
7
  6
CONTINUOUS
 10
154.1286178356
 20
171.6605672163
  0
VERTEX
  8
0
 62
7
  6
CONTINUOUS
 10
154.1412346709
 20
171.6177328397
  0
VERTEX
  8
0
 62
7
  6
CONTINUOUS
 10
154.1514756474
 20
171.5729083061
  0
VERTEX
  8
0
 62
7
  6
CONTINUOUS
 10
154.159430937
 20
171.5264520092
  0
SEQEND
  0
POLYLINE
  8
SURFACE
 62
7
  6
CONTINUOUS
 66
1
 70
0
  0
VERTEX
  8
SURFACE
 62
7
  6
CONTINUOUS
 10
153.1837766762
 20
171.4106378045
  0
VERTEX
  8
SURFACE
 62
7
  6
CONTINUOUS
 10
153.2200099023
 20
171.4072306073
  0
VERTEX
  8
SURFACE
 62
7
  6
CONTINUOUS
 10
153.2561402184
 20
171.4028095974
  0
VERTEX
  8
SURFACE
 62
7
  6
CONTINUOUS
 10
153.2921325573
 20
171.397378783
  0
SEQEND
  0
POLYLINE
  8
0
 62
7
  6
CONTINUOUS
 66
1
 70
0
  0
VERTEX
  8
0
 62
7
  6
CONTINUOUS
 10
148.3227582453
 20
171.7991844693
  0
VERTEX
  8
0
 62
7
  6
CONTINUOUS
 10
148.2299318418
 20
171.8093980741
  0
VERTEX
  8
0
 62
7
  6
CONTINUOUS
 10
148.1468134463
 20
171.8239519019
  0
SEQEND
  0
POLYLINE
  8
SURFACE
 62
7
  6
CONTINUOUS
 66
1
 70
0
  0
VERTEX
  8
SURFACE
 62
7
  6
CONTINUOUS
 10
153.2921325573
 20
171.397378783
  0
VERTEX
  8
SURFACE
 62
7
  6
CONTINUOUS
 10
153.3279524927
 20
171.3909436304
  0
VERTEX
  8
SURFACE
 62
7
  6
CONTINUOUS
 10
153.3635702013
 20
171.3835101211
  0
VERTEX
  8
SURFACE
 62
7
  6
CONTINUOUS
 10
153.3989607163
 20
171.37508405
  0
VERTEX
  8
SURFACE
 62
7
  6
CONTINUOUS
 10
153.4341011683
 20
171.3656711133
  0
VERTEX
  8
SURFACE
 62
7
  6
CONTINUOUS
 10
153.453033208
 20
171.3600276126
  0
SEQEND
  0
POLYLINE
  8
0
 62
7
  6
CONTINUOUS
 66
1
 70
0
  0
VERTEX
  8
0
 62
7
  6
CONTINUOUS
 10
148.1468205253
 20
171.8239505825
  0
VERTEX
  8
0
 62
7
  6
CONTINUOUS
 10
148.0265288723
 20
171.8466448248
  0
VERTEX
  8
0
 62
7
  6
CONTINUOUS
 10
147.9155080578
 20
171.862303887
  0
VERTEX
  8
0
 62
7
  6
CONTINUOUS
 10
147.8132355082
 20
171.8713618113
  0
VERTEX
  8
0
 62
7
  6
CONTINUOUS
 10
147.7191490579
 20
171.8742780961
  0
SEQEND
  0
LINE
  8
0
 62
7
  6
CONTINUOUS
 10
158.0730012697
 20
170.2819768443
 11
154.776308306
 21
171.2241756629
  0
POLYLINE
  8
SURFACE
 62
7
  6
CONTINUOUS
 66
1
 70
0
  0
VERTEX
  8
SURFACE
 62
7
  6
CONTINUOUS
 10
153.4574042682
 20
171.358724632
  0
VERTEX
  8
SURFACE
 62
7
  6
CONTINUOUS
 10
153.4689621626
 20
171.3552793094
  0
VERTEX
  8
SURFACE
 62
7
  6
CONTINUOUS
 10
153.5034555832
 20
171.3439379346
  0
VERTEX
  8
SURFACE
 62
7
  6
CONTINUOUS
 10
153.5376173788
 20
171.3316381839
  0
VERTEX
  8
SURFACE
 62
7
  6
CONTINUOUS
 10
153.5713580856
 20
171.3184154241
  0
SEQEND
  0
POLYLINE
  8
SURFACE
 62
7
  6
CONTINUOUS
 66
1
 70
0
  0
VERTEX
  8
SURFACE
 62
7
  6
CONTINUOUS
 10
153.5713580856
 20
171.3184154241
  0
VERTEX
  8
SURFACE
 62
7
  6
CONTINUOUS
 10
153.6046469349
 20
171.3042882734
  0
VERTEX
  8
SURFACE
 62
7
  6
CONTINUOUS
 10
153.6375138315
 20
171.2892483281
  0
SEQEND
  0
LINE
  8
SURFACE
 62
7
  6
CONTINUOUS
 10
153.6375138315
 20
171.2892483281
 11
153.7030597981
 21
171.2558410745
  0
POLYLINE
  8
SURFACE
 62
7
  6
CONTINUOUS
 66
1
 70
0
  0
VERTEX
  8
SURFACE
 62
7
  6
CONTINUOUS
 10
153.7030597981
 20
171.2558410745
  0
VERTEX
  8
SURFACE
 62
7
  6
CONTINUOUS
 10
153.7699814007
 20
171.2166768018
  0
VERTEX
  8
SURFACE
 62
7
  6
CONTINUOUS
 10
153.8381819886
 20
171.1709232656
  0
VERTEX
  8
SURFACE
 62
7
  6
CONTINUOUS
 10
153.9072887499
 20
171.1177256475
  0
VERTEX
  8
SURFACE
 62
7
  6
CONTINUOUS
 10
153.9764022249
 20
171.0564795119
  0
VERTEX
  8
SURFACE
 62
7
  6
CONTINUOUS
 10
154.0446960557
 20
170.9864017935
  0
VERTEX
  8
SURFACE
 62
7
  6
CONTINUOUS
 10
154.1108787725
 20
170.9070422286
  0
VERTEX
  8
SURFACE
 62
7
  6
CONTINUOUS
 10
154.1735738662
 20
170.8179961404
  0
VERTEX
  8
SURFACE
 62
7
  6
CONTINUOUS
 10
154.2310895393
 20
170.7192913842
  0
VERTEX
  8
SURFACE
 62
7
  6
CONTINUOUS
 10
154.2816048931
 20
170.6113770604
  0
VERTEX
  8
SURFACE
 62
7
  6
CONTINUOUS
 10
154.3232442061
 20
170.4953391717
  0
VERTEX
  8
SURFACE
 62
7
  6
CONTINUOUS
 10
154.3543963342
 20
170.3724811965
  0
VERTEX
  8
SURFACE
 62
7
  6
CONTINUOUS
 10
154.373039009
 20
170.2490524098
  0
SEQEND
  0
POLYLINE
  8
0
 62
7
  6
CONTINUOUS
 66
1
 70
0
  0
VERTEX
  8
0
 62
7
  6
CONTINUOUS
 10
146.2301980936
 20
205.9230361065
  0
VERTEX
  8
0
 62
7
  6
CONTINUOUS
 10
146.2323306825
 20
205.9178074656
  0
VERTEX
  8
0
 62
7
  6
CONTINUOUS
 10
146.2493914207
 20
205.9073717201
  0
VERTEX
  8
0
 62
7
  6
CONTINUOUS
 10
146.2834421991
 20
205.8970005257
  0
VERTEX
  8
0
 62
7
  6
CONTINUOUS
 10
146.3343419173
 20
205.8867366143
  0
VERTEX
  8
0
 62
7
  6
CONTINUOUS
 10
146.4018797026
 20
205.876622266
  0
VERTEX
  8
0
 62
7
  6
CONTINUOUS
 10
146.4857758411
 20
205.8666991314
  0
VERTEX
  8
0
 62
7
  6
CONTINUOUS
 10
146.5856830122
 20
205.8570080572
  0
VERTEX
  8
0
 62
7
  6
CONTINUOUS
 10
146.7011877993
 20
205.8475889164
  0
VERTEX
  8
0
 62
7
  6
CONTINUOUS
 10
146.8318125079
 20
205.8384804414
  0
VERTEX
  8
0
 62
7
  6
CONTINUOUS
 10
146.977017237
 20
205.8297200647
  0
VERTEX
  8
0
 62
7
  6
CONTINUOUS
 10
147.1362022039
 20
205.8213437651
  0
VERTEX
  8
0
 62
7
  6
CONTINUOUS
 10
147.3087103437
 20
205.8133859196
  0
VERTEX
  8
0
 62
7
  6
CONTINUOUS
 10
147.4938300974
 20
205.8058791648
  0
VERTEX
  8
0
 62
7
  6
CONTINUOUS
 10
147.6907984405
 20
205.7988542649
  0
VERTEX
  8
0
 62
7
  6
CONTINUOUS
 10
147.8988041242
 20
205.7923399872
  0
VERTEX
  8
0
 62
7
  6
CONTINUOUS
 10
148.1169910378
 20
205.7863629896
  0
VERTEX
  8
0
 62
7
  6
CONTINUOUS
 10
148.3444618109
 20
205.7809477135
  0
VERTEX
  8
0
 62
7
  6
CONTINUOUS
 10
148.5802815272
 20
205.7761162881
  0
VERTEX
  8
0
 62
7
  6
CONTINUOUS
 10
148.8234815449
 20
205.7718884449
  0
VERTEX
  8
0
 62
7
  6
CONTINUOUS
 10
149.073063498
 20
205.7682814398
  0
VERTEX
  8
0
 62
7
  6
CONTINUOUS
 10
149.3280033434
 20
205.7653099874
  0
VERTEX
  8
0
 62
7
  6
CONTINUOUS
 10
149.5872555073
 20
205.7629862042
  0
VERTEX
  8
0
 62
7
  6
CONTINUOUS
 10
149.8497571254
 20
205.7613195623
  0
VERTEX
  8
0
 62
7
  6
CONTINUOUS
 10
150.1144323015
 20
205.7603168533
  0
VERTEX
  8
0
 62
7
  6
CONTINUOUS
 10
150.3801964349
 20
205.7599821624
  0
SEQEND
  0
POLYLINE
  8
0
 62
7
  6
CONTINUOUS
 66
1
 70
0
  0
VERTEX
  8
0
 62
7
  6
CONTINUOUS
 10
157.9723150113
 20
203.9107530981
  0
VERTEX
  8
0
 62
7
  6
CONTINUOUS
 10
157.9558527584
 20
203.984286666
  0
VERTEX
  8
0
 62
7
  6
CONTINUOUS
 10
157.9445727857
 20
204.0356351925
  0
VERTEX
  8
0
 62
7
  6
CONTINUOUS
 10
157.931510769
 20
204.0965439316
  0
VERTEX
  8
0
 62
7
  6
CONTINUOUS
 10
157.9169534773
 20
204.1666214674
  0
VERTEX
  8
0
 62
7
  6
CONTINUOUS
 10
157.9011770254
 20
204.2456579848
  0
SEQEND
  0
POLYLINE
  8
0
 62
7
  6
CONTINUOUS
 66
1
 70
0
  0
VERTEX
  8
0
 62
7
  6
CONTINUOUS
 10
157.8845539257
 20
204.3330746765
  0
VERTEX
  8
0
 62
7
  6
CONTINUOUS
 10
157.915551769
 20
204.1682233729
  0
VERTEX
  8
0
 62
7
  6
CONTINUOUS
 10
157.9296407919
 20
204.0979124861
  0
VERTEX
  8
0
 62
7
  6
CONTINUOUS
 10
157.9424977137
 20
204.0367566523
  0
VERTEX
  8
0
 62
7
  6
CONTINUOUS
 10
157.9538052357
 20
203.9851578445
  0
VERTEX
  8
0
 62
7
  6
CONTINUOUS
 10
157.9633316448
 20
203.9432385366
  0
VERTEX
  8
0
 62
7
  6
CONTINUOUS
 10
157.9708663359
 20
203.9111671313
  0
SEQEND
  0
LINE
  8
0
 62
7
  6
CONTINUOUS
 10
156.0236902181
 20
221.6195938651
 11
156.0306888245
 21
221.5808409568
  0
POLYLINE
  8
0
 62
7
  6
CONTINUOUS
 66
1
 70
0
  0
VERTEX
  8
0
 62
7
  6
CONTINUOUS
 10
157.8845539257
 20
204.3330746765
  0
VERTEX
  8
0
 62
7
  6
CONTINUOUS
 10
157.8674431579
 20
204.428426967
  0
VERTEX
  8
0
 62
7
  6
CONTINUOUS
 10
157.85025016
 20
204.531046818
  0
VERTEX
  8
0
 62
7
  6
CONTINUOUS
 10
157.8333878117
 20
204.640174452
  0
VERTEX
  8
0
 62
7
  6
CONTINUOUS
 10
157.8172408542
 20
204.7551252088
  0
VERTEX
  8
0
 62
7
  6
CONTINUOUS
 10
157.8022005598
 20
204.8749831168
  0
VERTEX
  8
0
 62
7
  6
CONTINUOUS
 10
157.7885974063
 20
204.9990190974
  0
VERTEX
  8
0
 62
7
  6
CONTINUOUS
 10
157.7767298219
 20
205.1264520092
  0
SEQEND
  0
LINE
  8
0
 62
7
  6
CONTINUOUS
 10
157.8962415601
 20
204.2716123532
 11
157.9005350729
 21
204.2474510257
  0
POLYLINE
  8
0
 62
7
  6
CONTINUOUS
 66
1
 70
0
  0
VERTEX
  8
0
 62
7
  6
CONTINUOUS
 10
154.1978322454
 20
110.1764278215
  0
VERTEX
  8
0
 62
7
  6
CONTINUOUS
 10
154.1903435947
 20
110.1607298719
  0
VERTEX
  8
0
 62
7
  6
CONTINUOUS
 10
154.1836693648
 20
110.1435131524
  0
VERTEX
  8
0
 62
7
  6
CONTINUOUS
 10
154.177826898
 20
110.1248722759
  0
VERTEX
  8
0
 62
7
  6
CONTINUOUS
 10
154.1728523026
 20
110.1048469978
  0
VERTEX
  8
0
 62
7
  6
CONTINUOUS
 10
154.1688198005
 20
110.0835128672
  0
SEQEND
  0
POLYLINE
  8
0
 62
7
  6
CONTINUOUS
 66
1
 70
0
  0
VERTEX
  8
0
 62
7
  6
CONTINUOUS
 10
154.2486721316
 20
177.4234024865
  0
VERTEX
  8
0
 62
7
  6
CONTINUOUS
 10
154.2381186874
 20
177.4206045637
  0
VERTEX
  8
0
 62
7
  6
CONTINUOUS
 10
154.2275116586
 20
177.4143192023
  0
VERTEX
  8
0
 62
7
  6
CONTINUOUS
 10
154.2171507335
 20
177.4047392476
  0
VERTEX
  8
0
 62
7
  6
CONTINUOUS
 10
154.2071906186
 20
177.3920310692
  0
VERTEX
  8
0
 62
7
  6
CONTINUOUS
 10
154.1978322454
 20
177.3764278215
  0
SEQEND
  0
POLYLINE
  8
0
 62
7
  6
CONTINUOUS
 66
1
 70
0
  0
VERTEX
  8
0
 62
7
  6
CONTINUOUS
 10
148.145679487
 20
176.924365663
  0
VERTEX
  8
0
 62
7
  6
CONTINUOUS
 10
148.228658041
 20
176.9388730598
  0
VERTEX
  8
0
 62
7
  6
CONTINUOUS
 10
148.3212836759
 20
176.9490578587
  0
SEQEND
  0
LINE
  8
SURFACE
 62
7
  6
CONTINUOUS
 10
143.3949900993
 20
176.5552936793
 11
143.3005194338
 21
176.5477425328
  0
LINE
  8
0
 62
7
  6
CONTINUOUS
 10
143.3774425107
 20
176.5538910808
 11
147.3777837379
 21
176.8736428494
  0
LINE
  8
0
 62
7
  6
CONTINUOUS
 10
147.3968962728
 20
176.8751705358
 11
154.1909328563
 21
177.4182255128
  0
POLYLINE
  8
0
 62
7
  6
CONTINUOUS
 66
1
 70
0
  0
VERTEX
  8
0
 62
7
  6
CONTINUOUS
 10
151.4598071866
 20
177.1999235704
  0
VERTEX
  8
0
 62
7
  6
CONTINUOUS
 10
151.5285414667
 20
177.2038622996
  0
VERTEX
  8
0
 62
7
  6
CONTINUOUS
 10
151.5904939825
 20
177.2044382327
  0
VERTEX
  8
0
 62
7
  6
CONTINUOUS
 10
151.6461411711
 20
177.2020769353
  0
VERTEX
  8
0
 62
7
  6
CONTINUOUS
 10
151.695986273
 20
177.1971403045
  0
VERTEX
  8
0
 62
7
  6
CONTINUOUS
 10
151.7407661852
 20
177.189873209
  0
VERTEX
  8
0
 62
7
  6
CONTINUOUS
 10
151.7809363103
 20
177.1804391217
  0
VERTEX
  8
0
 62
7
  6
CONTINUOUS
 10
151.8168940893
 20
177.1689027382
  0
SEQEND
  0
POLYLINE
  8
0
 62
7
  6
CONTINUOUS
 66
1
 70
0
  0
VERTEX
  8
0
 62
7
  6
CONTINUOUS
 10
147.7191490579
 20
176.8742780961
  0
VERTEX
  8
0
 62
7
  6
CONTINUOUS
 10
147.8130358538
 20
176.8771823632
  0
VERTEX
  8
0
 62
7
  6
CONTINUOUS
 10
147.9150444312
 20
176.8861989139
  0
VERTEX
  8
0
 62
7
  6
CONTINUOUS
 10
148.0257508368
 20
176.9017828594
  0
VERTEX
  8
0
 62
7
  6
CONTINUOUS
 10
148.145685376
 20
176.9243667586
  0
SEQEND
  0
LINE
  8
0
 62
7
  6
CONTINUOUS
 10
158.1801964349
 20
176.8742780961
 11
147.3937219499
 21
176.8742780961
  0
LINE
  8
0
 62
7
  6
CONTINUOUS
 10
158.1279777162
 20
178.4742780961
 11
158.1801964349
 21
178.4742780961
  0
POLYLINE
  8
0
 62
7
  6
CONTINUOUS
 66
1
 70
0
  0
VERTEX
  8
0
 62
7
  6
CONTINUOUS
 10
151.8168928597
 20
177.1689031749
  0
VERTEX
  8
0
 62
7
  6
CONTINUOUS
 10
152.0072283056
 20
177.1002995659
  0
VERTEX
  8
0
 62
7
  6
CONTINUOUS
 10
152.1903630517
 20
177.0390226816
  0
VERTEX
  8
0
 62
7
  6
CONTINUOUS
 10
152.3633336179
 20
176.9868543474
  0
VERTEX
  8
0
 62
7
  6
CONTINUOUS
 10
152.5245042344
 20
176.9446679368
  0
VERTEX
  8
0
 62
7
  6
CONTINUOUS
 10
152.6725310034
 20
176.9128028975
  0
VERTEX
  8
0
 62
7
  6
CONTINUOUS
 10
152.8074256997
 20
176.8909090679
  0
VERTEX
  8
0
 62
7
  6
CONTINUOUS
 10
152.9300396501
 20
176.8783109066
  0
VERTEX
  8
0
 62
7
  6
CONTINUOUS
 10
153.041243812
 20
176.8742780961
  0
SEQEND
  0
POLYLINE
  8
0
 62
7
  6
CONTINUOUS
 66
1
 70
0
  0
VERTEX
  8
0
 62
7
  6
CONTINUOUS
 10
154.1978387476
 20
188.1719754463
  0
VERTEX
  8
0
 62
7
  6
CONTINUOUS
 10
154.2072000267
 20
188.1563570748
  0
VERTEX
  8
0
 62
7
  6
CONTINUOUS
 10
154.217163053
 20
188.1436374675
  0
VERTEX
  8
0
 62
7
  6
CONTINUOUS
 10
154.2275306808
 20
188.1340460829
  0
VERTEX
  8
0
 62
7
  6
CONTINUOUS
 10
154.2381426592
 20
188.1277549431
  0
VERTEX
  8
0
 62
7
  6
CONTINUOUS
 10
154.2487004361
 20
188.1249548918
  0
SEQEND
  0
LINE
  8
0
 62
7
  6
CONTINUOUS
 10
154.1330593639
 20
196.2636664995
 11
151.6273335059
 21
200.8243634193
  0
LINE
  8
0
 62
7
  6
CONTINUOUS
 10
156.0303839441
 20
221.5822366659
 11
156.0459595286
 21
221.5257008464
  0
POLYLINE
  8
0
 62
7
  6
CONTINUOUS
 66
1
 70
0
  0
VERTEX
  8
0
 62
7
  6
CONTINUOUS
 10
154.1978322454
 20
93.3764278215
  0
VERTEX
  8
0
 62
7
  6
CONTINUOUS
 10
154.1903435947
 20
93.3607298719
  0
VERTEX
  8
0
 62
7
  6
CONTINUOUS
 10
154.1836693648
 20
93.3435131524
  0
VERTEX
  8
0
 62
7
  6
CONTINUOUS
 10
154.177826898
 20
93.3248722759
  0
VERTEX
  8
0
 62
7
  6
CONTINUOUS
 10
154.1728523026
 20
93.3048469978
  0
VERTEX
  8
0
 62
7
  6
CONTINUOUS
 10
154.1688198005
 20
93.2835128672
  0
SEQEND
  0
LINE
  8
0
 62
7
  6
CONTINUOUS
 10
158.0736870619
 20
128.0665793483
 11
154.7763083041
 21
127.1241845288
  0
LINE
  8
SURFACE
 62
7
  6
CONTINUOUS
 10
153.1837766339
 20
179.8106378078
 11
143.3005194338
 21
180.6006176594
  0
POLYLINE
  8
0
 62
7
  6
CONTINUOUS
 66
1
 70
0
  0
VERTEX
  8
0
 62
7
  6
CONTINUOUS
 10
151.8165209854
 20
121.1795150933
  0
VERTEX
  8
0
 62
7
  6
CONTINUOUS
 10
151.7805503642
 20
121.1679738349
  0
VERTEX
  8
0
 62
7
  6
CONTINUOUS
 10
151.7403614852
 20
121.1585352998
  0
VERTEX
  8
0
 62
7
  6
CONTINUOUS
 10
151.6955565829
 20
121.1512646924
  0
VERTEX
  8
0
 62
7
  6
CONTINUOUS
 10
151.6456803797
 20
121.1463259544
  0
VERTEX
  8
0
 62
7
  6
CONTINUOUS
 10
151.5899959593
 20
121.1439642653
  0
VERTEX
  8
0
 62
7
  6
CONTINUOUS
 10
151.52800033
 20
121.1445416908
  0
VERTEX
  8
0
 62
7
  6
CONTINUOUS
 10
151.4592196093
 20
121.1484835875
  0
SEQEND
  0
LINE
  8
SURFACE
 62
7
  6
CONTINUOUS
 10
153.1837765546
 20
185.7377223781
 11
143.3005194338
 21
184.9477425328
  0
LINE
  8
0
 62
7
  6
CONTINUOUS
 10
143.3774425107
 20
184.9538910808
 11
146.2301964349
 21
185.181914907
  0
POLYLINE
  8
0
 62
7
  6
CONTINUOUS
 66
1
 70
0
  0
VERTEX
  8
0
 62
7
  6
CONTINUOUS
 10
153.041243812
 20
188.6742780961
  0
VERTEX
  8
0
 62
7
  6
CONTINUOUS
 10
152.9300557995
 20
188.6702464184
  0
VERTEX
  8
0
 62
7
  6
CONTINUOUS
 10
152.8074258432
 20
188.6576471434
  0
VERTEX
  8
0
 62
7
  6
CONTINUOUS
 10
152.6725025233
 20
188.6357478991
  0
VERTEX
  8
0
 62
7
  6
CONTINUOUS
 10
152.5244565536
 20
188.603876847
  0
VERTEX
  8
0
 62
7
  6
CONTINUOUS
 10
152.3632717393
 20
188.5616843595
  0
VERTEX
  8
0
 62
7
  6
CONTINUOUS
 10
152.1902530822
 20
188.5094984179
  0
VERTEX
  8
0
 62
7
  6
CONTINUOUS
 10
152.0070110993
 20
188.4481808909
  0
VERTEX
  8
0
 62
7
  6
CONTINUOUS
 10
151.8165193985
 20
188.3795145297
  0
SEQEND
  0
LINE
  8
0
 62
7
  6
CONTINUOUS
 10
158.127292022
 20
187.0742780961
 11
158.1801964349
 21
187.0742780961
  0
LINE
  8
0
 62
7
  6
CONTINUOUS
 10
147.39128509
 20
188.6742780961
 11
158.1801964349
 21
188.6742780961
  0
LINE
  8
0
 62
7
  6
CONTINUOUS
 10
147.3753477695
 20
188.6749120526
 11
143.3774425107
 21
188.9944691115
  0
LINE
  8
SURFACE
 62
7
  6
CONTINUOUS
 10
143.3005194338
 20
189.0006176594
 11
143.3949897783
 21
188.9930665386
  0
LINE
  8
0
 62
7
  6
CONTINUOUS
 10
147.4074061188
 20
188.6723495927
 11
154.1909328215
 21
188.1301346823
  0
POLYLINE
  8
0
 62
7
  6
CONTINUOUS
 66
1
 70
0
  0
VERTEX
  8
0
 62
7
  6
CONTINUOUS
 10
153.9047531446
 20
188.6742780961
  0
VERTEX
  8
0
 62
7
  6
CONTINUOUS
 10
153.9390532465
 20
188.6711132142
  0
VERTEX
  8
0
 62
7
  6
CONTINUOUS
 10
153.9713014731
 20
188.6618299404
  0
VERTEX
  8
0
 62
7
  6
CONTINUOUS
 10
154.0011772942
 20
188.6468488103
  0
VERTEX
  8
0
 62
7
  6
CONTINUOUS
 10
154.0285260488
 20
188.6266564904
  0
VERTEX
  8
0
 62
7
  6
CONTINUOUS
 10
154.0535446521
 20
188.6014677062
  0
VERTEX
  8
0
 62
7
  6
CONTINUOUS
 10
154.0761576595
 20
188.5716550601
  0
VERTEX
  8
0
 62
7
  6
CONTINUOUS
 10
154.0962039265
 20
188.5378465495
  0
VERTEX
  8
0
 62
7
  6
CONTINUOUS
 10
154.1136274993
 20
188.500740581
  0
VERTEX
  8
0
 62
7
  6
CONTINUOUS
 10
154.1286178356
 20
188.4605672163
  0
VERTEX
  8
0
 62
7
  6
CONTINUOUS
 10
154.1412346709
 20
188.4177328397
  0
VERTEX
  8
0
 62
7
  6
CONTINUOUS
 10
154.1514756474
 20
188.3729083061
  0
VERTEX
  8
0
 62
7
  6
CONTINUOUS
 10
154.159430937
 20
188.3264520092
  0
SEQEND
  0
POLYLINE
  8
SURFACE
 62
7
  6
CONTINUOUS
 66
1
 70
0
  0
VERTEX
  8
SURFACE
 62
7
  6
CONTINUOUS
 10
153.1837766762
 20
188.2106378045
  0
VERTEX
  8
SURFACE
 62
7
  6
CONTINUOUS
 10
153.2200099023
 20
188.2072306073
  0
VERTEX
  8
SURFACE
 62
7
  6
CONTINUOUS
 10
153.2561402184
 20
188.2028095974
  0
VERTEX
  8
SURFACE
 62
7
  6
CONTINUOUS
 10
153.2921325573
 20
188.197378783
  0
SEQEND
  0
POLYLINE
  8
0
 62
7
  6
CONTINUOUS
 66
1
 70
0
  0
VERTEX
  8
0
 62
7
  6
CONTINUOUS
 10
148.3227582453
 20
188.5991844693
  0
VERTEX
  8
0
 62
7
  6
CONTINUOUS
 10
148.2299318418
 20
188.6093980741
  0
VERTEX
  8
0
 62
7
  6
CONTINUOUS
 10
148.1468134463
 20
188.6239519019
  0
SEQEND
  0
POLYLINE
  8
SURFACE
 62
7
  6
CONTINUOUS
 66
1
 70
0
  0
VERTEX
  8
SURFACE
 62
7
  6
CONTINUOUS
 10
153.2921325573
 20
188.197378783
  0
VERTEX
  8
SURFACE
 62
7
  6
CONTINUOUS
 10
153.3279524927
 20
188.1909436304
  0
VERTEX
  8
SURFACE
 62
7
  6
CONTINUOUS
 10
153.3635702013
 20
188.1835101211
  0
VERTEX
  8
SURFACE
 62
7
  6
CONTINUOUS
 10
153.3989607163
 20
188.17508405
  0
VERTEX
  8
SURFACE
 62
7
  6
CONTINUOUS
 10
153.4341011683
 20
188.1656711133
  0
VERTEX
  8
SURFACE
 62
7
  6
CONTINUOUS
 10
153.453033208
 20
188.1600276126
  0
SEQEND
  0
POLYLINE
  8
0
 62
7
  6
CONTINUOUS
 66
1
 70
0
  0
VERTEX
  8
0
 62
7
  6
CONTINUOUS
 10
148.1468205253
 20
188.6239505825
  0
VERTEX
  8
0
 62
7
  6
CONTINUOUS
 10
148.0265288723
 20
188.6466448248
  0
VERTEX
  8
0
 62
7
  6
CONTINUOUS
 10
147.9155080578
 20
188.662303887
  0
VERTEX
  8
0
 62
7
  6
CONTINUOUS
 10
147.8132355082
 20
188.6713618113
  0
VERTEX
  8
0
 62
7
  6
CONTINUOUS
 10
147.7191490579
 20
188.6742780961
  0
SEQEND
  0
LINE
  8
0
 62
7
  6
CONTINUOUS
 10
158.0730012697
 20
187.0819768443
 11
154.776308306
 21
188.0241756629
  0
POLYLINE
  8
SURFACE
 62
7
  6
CONTINUOUS
 66
1
 70
0
  0
VERTEX
  8
SURFACE
 62
7
  6
CONTINUOUS
 10
153.4574042682
 20
188.158724632
  0
VERTEX
  8
SURFACE
 62
7
  6
CONTINUOUS
 10
153.4689621626
 20
188.1552793094
  0
VERTEX
  8
SURFACE
 62
7
  6
CONTINUOUS
 10
153.5034555832
 20
188.1439379346
  0
VERTEX
  8
SURFACE
 62
7
  6
CONTINUOUS
 10
153.5376173788
 20
188.1316381839
  0
VERTEX
  8
SURFACE
 62
7
  6
CONTINUOUS
 10
153.5713580856
 20
188.1184154241
  0
SEQEND
  0
POLYLINE
  8
SURFACE
 62
7
  6
CONTINUOUS
 66
1
 70
0
  0
VERTEX
  8
SURFACE
 62
7
  6
CONTINUOUS
 10
153.5713580856
 20
188.1184154241
  0
VERTEX
  8
SURFACE
 62
7
  6
CONTINUOUS
 10
153.6046469349
 20
188.1042882734
  0
VERTEX
  8
SURFACE
 62
7
  6
CONTINUOUS
 10
153.6375138315
 20
188.0892483281
  0
SEQEND
  0
LINE
  8
SURFACE
 62
7
  6
CONTINUOUS
 10
153.6375138315
 20
188.0892483281
 11
153.7030597981
 21
188.0558410745
  0
POLYLINE
  8
SURFACE
 62
7
  6
CONTINUOUS
 66
1
 70
0
  0
VERTEX
  8
SURFACE
 62
7
  6
CONTINUOUS
 10
153.7030597981
 20
188.0558410745
  0
VERTEX
  8
SURFACE
 62
7
  6
CONTINUOUS
 10
153.7699814007
 20
188.0166768018
  0
VERTEX
  8
SURFACE
 62
7
  6
CONTINUOUS
 10
153.8381819886
 20
187.9709232656
  0
VERTEX
  8
SURFACE
 62
7
  6
CONTINUOUS
 10
153.9072887499
 20
187.9177256475
  0
VERTEX
  8
SURFACE
 62
7
  6
CONTINUOUS
 10
153.9764022249
 20
187.8564795119
  0
VERTEX
  8
SURFACE
 62
7
  6
CONTINUOUS
 10
154.0446960557
 20
187.7864017935
  0
VERTEX
  8
SURFACE
 62
7
  6
CONTINUOUS
 10
154.1108787725
 20
187.7070422286
  0
VERTEX
  8
SURFACE
 62
7
  6
CONTINUOUS
 10
154.1735738662
 20
187.6179961404
  0
VERTEX
  8
SURFACE
 62
7
  6
CONTINUOUS
 10
154.2310895393
 20
187.5192913842
  0
VERTEX
  8
SURFACE
 62
7
  6
CONTINUOUS
 10
154.2816048931
 20
187.4113770604
  0
VERTEX
  8
SURFACE
 62
7
  6
CONTINUOUS
 10
154.3232442061
 20
187.2953391717
  0
VERTEX
  8
SURFACE
 62
7
  6
CONTINUOUS
 10
154.3543963342
 20
187.1724811965
  0
VERTEX
  8
SURFACE
 62
7
  6
CONTINUOUS
 10
154.373039009
 20
187.0490524098
  0
SEQEND
  0
POLYLINE
  8
0
 62
7
  6
CONTINUOUS
 66
1
 70
0
  0
VERTEX
  8
0
 62
7
  6
CONTINUOUS
 10
157.9899206936
 20
203.729945821
  0
VERTEX
  8
0
 62
7
  6
CONTINUOUS
 10
157.9592477971
 20
203.7756893322
  0
VERTEX
  8
0
 62
7
  6
CONTINUOUS
 10
157.922921278
 20
203.8198334193
  0
VERTEX
  8
0
 62
7
  6
CONTINUOUS
 10
157.8807965221
 20
203.8619729602
  0
VERTEX
  8
0
 62
7
  6
CONTINUOUS
 10
157.8331318668
 20
203.9013322165
  0
VERTEX
  8
0
 62
7
  6
CONTINUOUS
 10
157.7803446767
 20
203.937189015
  0
VERTEX
  8
0
 62
7
  6
CONTINUOUS
 10
157.7222816096
 20
203.9692560111
  0
VERTEX
  8
0
 62
7
  6
CONTINUOUS
 10
157.6591852885
 20
203.996937313
  0
VERTEX
  8
0
 62
7
  6
CONTINUOUS
 10
157.591679173
 20
204.0195392791
  0
SEQEND
  0
LINE
  8
0
 62
7
  6
CONTINUOUS
 10
156.0454876672
 20
221.5271156757
 11
156.0677609541
 21
221.4706218958
  0
POLYLINE
  8
0
 62
7
  6
CONTINUOUS
 66
1
 70
0
  0
VERTEX
  8
0
 62
7
  6
CONTINUOUS
 10
154.2486721316
 20
194.2234024865
  0
VERTEX
  8
0
 62
7
  6
CONTINUOUS
 10
154.2381186874
 20
194.2206045637
  0
VERTEX
  8
0
 62
7
  6
CONTINUOUS
 10
154.2275116586
 20
194.2143192023
  0
VERTEX
  8
0
 62
7
  6
CONTINUOUS
 10
154.2171507335
 20
194.2047392476
  0
VERTEX
  8
0
 62
7
  6
CONTINUOUS
 10
154.2071906186
 20
194.1920310692
  0
VERTEX
  8
0
 62
7
  6
CONTINUOUS
 10
154.1978322454
 20
194.1764278215
  0
SEQEND
  0
POLYLINE
  8
0
 62
7
  6
CONTINUOUS
 66
1
 70
0
  0
VERTEX
  8
0
 62
7
  6
CONTINUOUS
 10
148.145679487
 20
193.724365663
  0
VERTEX
  8
0
 62
7
  6
CONTINUOUS
 10
148.228658041
 20
193.7388730598
  0
VERTEX
  8
0
 62
7
  6
CONTINUOUS
 10
148.3212836759
 20
193.7490578587
  0
SEQEND
  0
LINE
  8
SURFACE
 62
7
  6
CONTINUOUS
 10
143.3949900993
 20
193.3552936793
 11
143.3005194338
 21
193.3477425328
  0
LINE
  8
0
 62
7
  6
CONTINUOUS
 10
143.3774425107
 20
193.3538910808
 11
147.3777837379
 21
193.6736428494
  0
LINE
  8
0
 62
7
  6
CONTINUOUS
 10
147.3968962728
 20
193.6751705358
 11
154.1909328563
 21
194.2182255128
  0
POLYLINE
  8
0
 62
7
  6
CONTINUOUS
 66
1
 70
0
  0
VERTEX
  8
0
 62
7
  6
CONTINUOUS
 10
151.4598071866
 20
193.9999235704
  0
VERTEX
  8
0
 62
7
  6
CONTINUOUS
 10
151.5285414667
 20
194.0038622996
  0
VERTEX
  8
0
 62
7
  6
CONTINUOUS
 10
151.5904939825
 20
194.0044382327
  0
VERTEX
  8
0
 62
7
  6
CONTINUOUS
 10
151.6461411711
 20
194.0020769353
  0
VERTEX
  8
0
 62
7
  6
CONTINUOUS
 10
151.695986273
 20
193.9971403045
  0
VERTEX
  8
0
 62
7
  6
CONTINUOUS
 10
151.7407661852
 20
193.989873209
  0
VERTEX
  8
0
 62
7
  6
CONTINUOUS
 10
151.7809363103
 20
193.9804391217
  0
VERTEX
  8
0
 62
7
  6
CONTINUOUS
 10
151.8168940893
 20
193.9689027382
  0
SEQEND
  0
POLYLINE
  8
0
 62
7
  6
CONTINUOUS
 66
1
 70
0
  0
VERTEX
  8
0
 62
7
  6
CONTINUOUS
 10
147.7191490579
 20
193.6742780961
  0
VERTEX
  8
0
 62
7
  6
CONTINUOUS
 10
147.8130358538
 20
193.6771823632
  0
VERTEX
  8
0
 62
7
  6
CONTINUOUS
 10
147.9150444312
 20
193.6861989139
  0
VERTEX
  8
0
 62
7
  6
CONTINUOUS
 10
148.0257508368
 20
193.7017828594
  0
VERTEX
  8
0
 62
7
  6
CONTINUOUS
 10
148.145685376
 20
193.7243667586
  0
SEQEND
  0
LINE
  8
0
 62
7
  6
CONTINUOUS
 10
158.1801964349
 20
193.6742780961
 11
147.3937219499
 21
193.6742780961
  0
POLYLINE
  8
0
 62
7
  6
CONTINUOUS
 66
1
 70
0
  0
VERTEX
  8
0
 62
7
  6
CONTINUOUS
 10
151.8168928597
 20
193.9689031749
  0
VERTEX
  8
0
 62
7
  6
CONTINUOUS
 10
152.0072283056
 20
193.9002995659
  0
VERTEX
  8
0
 62
7
  6
CONTINUOUS
 10
152.1903630517
 20
193.8390226816
  0
VERTEX
  8
0
 62
7
  6
CONTINUOUS
 10
152.3633336179
 20
193.7868543474
  0
VERTEX
  8
0
 62
7
  6
CONTINUOUS
 10
152.5245042344
 20
193.7446679368
  0
VERTEX
  8
0
 62
7
  6
CONTINUOUS
 10
152.6725310034
 20
193.7128028975
  0
VERTEX
  8
0
 62
7
  6
CONTINUOUS
 10
152.8074256997
 20
193.6909090679
  0
VERTEX
  8
0
 62
7
  6
CONTINUOUS
 10
152.9300396501
 20
193.6783109066
  0
VERTEX
  8
0
 62
7
  6
CONTINUOUS
 10
153.041243812
 20
193.6742780961
  0
SEQEND
  0
LINE
  8
0
 62
7
  6
CONTINUOUS
 10
156.0671126686
 20
221.4720409722
 11
156.0959762482
 21
221.4168235862
  0
POLYLINE
  8
0
 62
7
  6
CONTINUOUS
 66
1
 70
0
  0
VERTEX
  8
0
 62
7
  6
CONTINUOUS
 10
155.920592282
 20
222.2742780961
  0
VERTEX
  8
0
 62
7
  6
CONTINUOUS
 10
155.9250822732
 20
222.2649103111
  0
VERTEX
  8
0
 62
7
  6
CONTINUOUS
 10
155.9331283354
 20
222.244863508
  0
VERTEX
  8
0
 62
7
  6
CONTINUOUS
 10
155.9418228022
 20
222.2189237569
  0
VERTEX
  8
0
 62
7
  6
CONTINUOUS
 10
155.9506648538
 20
222.187197173
  0
VERTEX
  8
0
 62
7
  6
CONTINUOUS
 10
155.9592494378
 20
222.1499104797
  0
VERTEX
  8
0
 62
7
  6
CONTINUOUS
 10
155.9672573116
 20
222.107370995
  0
VERTEX
  8
0
 62
7
  6
CONTINUOUS
 10
155.9744326379
 20
222.0599866248
  0
VERTEX
  8
0
 62
7
  6
CONTINUOUS
 10
155.9805730304
 20
222.0082479918
  0
SEQEND
  0
LINE
  8
0
 62
7
  6
CONTINUOUS
 10
158.0736870619
 20
111.2665793483
 11
154.7763083041
 21
110.3241845288
  0
LINE
  8
0
 62
7
  6
CONTINUOUS
 10
158.1279777162
 20
195.2742780961
 11
158.1801964349
 21
195.2742780961
  0
LINE
  8
SURFACE
 62
7
  6
CONTINUOUS
 10
153.1837766339
 20
196.6106378078
 11
143.3005194338
 21
197.4006176594
  0
POLYLINE
  8
0
 62
7
  6
CONTINUOUS
 66
1
 70
0
  0
VERTEX
  8
0
 62
7
  6
CONTINUOUS
 10
158.1801964349
 20
203.4866543272
  0
VERTEX
  8
0
 62
7
  6
CONTINUOUS
 10
158.1452955931
 20
203.5176556386
  0
VERTEX
  8
0
 62
7
  6
CONTINUOUS
 10
158.1120705281
 20
203.5490257578
  0
VERTEX
  8
0
 62
7
  6
CONTINUOUS
 10
158.0817320975
 20
203.5815763501
  0
VERTEX
  8
0
 62
7
  6
CONTINUOUS
 10
158.0551393481
 20
203.6152475234
  0
VERTEX
  8
0
 62
7
  6
CONTINUOUS
 10
158.0328661462
 20
203.6493310621
  0
VERTEX
  8
0
 62
7
  6
CONTINUOUS
 10
157.9899206936
 20
203.729945821
  0
SEQEND
  0
LINE
  8
0
 62
7
  6
CONTINUOUS
 10
156.0951479298
 20
221.4182237492
 11
156.1302474869
 21
221.3654233226
  0
POLYLINE
  8
0
 62
7
  6
CONTINUOUS
 66
1
 70
0
  0
VERTEX
  8
0
 62
7
  6
CONTINUOUS
 10
143.2813072768
 20
83.6518532069
  0
VERTEX
  8
0
 62
7
  6
CONTINUOUS
 10
143.261282806
 20
83.6331876611
  0
VERTEX
  8
0
 62
7
  6
CONTINUOUS
 10
143.2443907215
 20
83.6178469794
  0
VERTEX
  8
0
 62
7
  6
CONTINUOUS
 10
143.2309099
 20
83.6060720687
  0
VERTEX
  8
0
 62
7
  6
CONTINUOUS
 10
143.2211425806
 20
83.5979750968
  0
VERTEX
  8
0
 62
7
  6
CONTINUOUS
 10
143.2168244273
 20
83.5945863334
  0
SEQEND
  0
LINE
  8
0
 62
7
  6
CONTINUOUS
 10
145.2340300232
 20
201.9022902065
 11
143.293119828
 21
201.7471234174
  0
POLYLINE
  8
0
 62
7
  6
CONTINUOUS
 66
1
 70
0
  0
VERTEX
  8
0
 62
7
  6
CONTINUOUS
 10
145.3031864868
 20
201.9066841828
  0
VERTEX
  8
0
 62
7
  6
CONTINUOUS
 10
145.2758617397
 20
201.9051222776
  0
VERTEX
  8
0
 62
7
  6
CONTINUOUS
 10
145.2527838229
 20
201.9036582787
  0
VERTEX
  8
0
 62
7
  6
CONTINUOUS
 10
145.2340300232
 20
201.9022902065
  0
SEQEND
  0
LINE
  8
0
 62
7
  6
CONTINUOUS
 10
145.3713446443
 20
201.9101342698
 11
145.3031864868
 21
201.9066841828
  0
LINE
  8
0
 62
7
  6
CONTINUOUS
 10
145.4595200146
 20
201.9140586974
 11
145.3713446443
 21
201.9101342698
  0
LINE
  8
0
 62
7
  6
CONTINUOUS
 10
145.6360353357
 20
201.9208805527
 11
145.4595200146
 21
201.9140586974
  0
LINE
  8
0
 62
7
  6
CONTINUOUS
 10
145.7900951776
 20
201.926086658
 11
145.6360353357
 21
201.9208805527
  0
LINE
  8
0
 62
7
  6
CONTINUOUS
 10
145.9846004714
 20
201.9319314934
 11
145.7900951776
 21
201.926086658
  0
LINE
  8
0
 62
7
  6
CONTINUOUS
 10
146.2319312048
 20
201.9384267462
 11
145.9846004714
 21
201.9319314934
  0
LINE
  8
0
 62
7
  6
CONTINUOUS
 10
146.5538352152
 20
201.9455941706
 11
146.2319312048
 21
201.9384267462
  0
LINE
  8
0
 62
7
  6
CONTINUOUS
 10
151.3801964349
 20
202.0303429605
 11
149.9535854628
 21
202.0047482782
  0
POLYLINE
  8
0
 62
7
  6
CONTINUOUS
 66
1
 70
0
  0
VERTEX
  8
0
 62
7
  6
CONTINUOUS
 10
149.9535854628
 20
202.0047482782
  0
VERTEX
  8
0
 62
7
  6
CONTINUOUS
 10
147.548549041
 20
201.9633467025
  0
VERTEX
  8
0
 62
7
  6
CONTINUOUS
 10
146.5538352152
 20
201.9455941706
  0
SEQEND
  0
LINE
  8
0
 62
7
  6
CONTINUOUS
 10
151.8788203119
 20
203.0021324069
 11
154.3801930352
 21
203.0090047581
  0
LINE
  8
0
 62
7
  6
CONTINUOUS
 10
150.3801964349
 20
202.0740820961
 11
151.3801964349
 21
202.0740820961
  0
LINE
  8
0
 62
7
  6
CONTINUOUS
 10
158.0992978379
 20
203.8742780961
 11
158.1801964349
 21
203.8742780961
  0
LINE
  8
0
 62
7
  6
CONTINUOUS
 10
151.8788206676
 20
204.5462277844
 11
154.3801930352
 21
204.5393554341
  0
LINE
  8
0
 62
7
  6
CONTINUOUS
 10
154.7763009223
 20
204.8241777732
 11
157.591679173
 21
204.0195392791
  0
LINE
  8
0
 62
7
  6
CONTINUOUS
 10
157.9723150113
 20
203.9107530981
 11
158.0999445197
 21
203.874276431
  0
POLYLINE
  8
0
 62
7
  6
CONTINUOUS
 66
1
 70
0
  0
VERTEX
  8
0
 62
7
  6
CONTINUOUS
 10
143.2513658141
 20
223.1241800961
  0
VERTEX
  8
0
 62
7
  6
CONTINUOUS
 10
143.261718065
 20
223.114771414
  0
VERTEX
  8
0
 62
7
  6
CONTINUOUS
 10
143.2817827677
 20
223.0960596962
  0
SEQEND
  0
POLYLINE
  8
0
 62
7
  6
CONTINUOUS
 66
1
 70
0
  0
VERTEX
  8
0
 62
7
  6
CONTINUOUS
 10
143.3588904811
 20
223.0231717916
  0
VERTEX
  8
0
 62
7
  6
CONTINUOUS
 10
143.3899670886
 20
222.9943553834
  0
VERTEX
  8
0
 62
7
  6
CONTINUOUS
 10
143.4239059199
 20
222.9636379667
  0
VERTEX
  8
0
 62
7
  6
CONTINUOUS
 10
143.4609373051
 20
222.9311864413
  0
VERTEX
  8
0
 62
7
  6
CONTINUOUS
 10
143.5013598163
 20
222.8971635508
  0
VERTEX
  8
0
 62
7
  6
CONTINUOUS
 10
143.5452501746
 20
222.8619650286
  0
VERTEX
  8
0
 62
7
  6
CONTINUOUS
 10
143.5925292627
 20
222.8261258978
  0
VERTEX
  8
0
 62
7
  6
CONTINUOUS
 10
143.6431268388
 20
222.790162015
  0
VERTEX
  8
0
 62
7
  6
CONTINUOUS
 10
143.6970381459
 20
222.7545259991
  0
VERTEX
  8
0
 62
7
  6
CONTINUOUS
 10
143.7542717256
 20
222.7196528257
  0
VERTEX
  8
0
 62
7
  6
CONTINUOUS
 10
143.8148299876
 20
222.6859735304
  0
VERTEX
  8
0
 62
7
  6
CONTINUOUS
 10
143.8787106792
 20
222.6539138464
  0
VERTEX
  8
0
 62
7
  6
CONTINUOUS
 10
143.9459072118
 20
222.6238963646
  0
VERTEX
  8
0
 62
7
  6
CONTINUOUS
 10
144.0164144673
 20
222.5963433143
  0
VERTEX
  8
0
 62
7
  6
CONTINUOUS
 10
144.0901714722
 20
222.5717013374
  0
VERTEX
  8
0
 62
7
  6
CONTINUOUS
 10
144.1669960561
 20
222.5504507761
  0
VERTEX
  8
0
 62
7
  6
CONTINUOUS
 10
144.2466784575
 20
222.5330641127
  0
VERTEX
  8
0
 62
7
  6
CONTINUOUS
 10
144.3290064922
 20
222.5200087976
  0
VERTEX
  8
0
 62
7
  6
CONTINUOUS
 10
144.3949962561
 20
222.5131344472
  0
SEQEND
  0
LINE
  8
0
 62
7
  6
CONTINUOUS
 10
143.2817827677
 20
223.0960596962
 11
143.3588904811
 21
223.0231717916
  0
LINE
  8
0
 62
7
  6
CONTINUOUS
 10
156.1292431596
 20
221.3667759392
 11
156.170057332
 21
221.3173824422
  0
LINE
  8
0
 62
7
  6
CONTINUOUS
 10
143.2168022267
 20
83.5945693158
 11
143.216518508
 21
83.5943555629
  0
POLYLINE
  8
0
 62
7
  6
CONTINUOUS
 66
1
 70
0
  0
VERTEX
  8
0
 62
7
  6
CONTINUOUS
 10
154.2486721316
 20
211.0234024865
  0
VERTEX
  8
0
 62
7
  6
CONTINUOUS
 10
154.2381186874
 20
211.0206045637
  0
VERTEX
  8
0
 62
7
  6
CONTINUOUS
 10
154.2275116586
 20
211.0143192023
  0
VERTEX
  8
0
 62
7
  6
CONTINUOUS
 10
154.2171507335
 20
211.0047392476
  0
VERTEX
  8
0
 62
7
  6
CONTINUOUS
 10
154.2071906186
 20
210.9920310692
  0
VERTEX
  8
0
 62
7
  6
CONTINUOUS
 10
154.1978322454
 20
210.9764278215
  0
SEQEND
  0
POLYLINE
  8
0
 62
7
  6
CONTINUOUS
 66
1
 70
0
  0
VERTEX
  8
0
 62
7
  6
CONTINUOUS
 10
148.145679487
 20
210.524365663
  0
VERTEX
  8
0
 62
7
  6
CONTINUOUS
 10
148.228658041
 20
210.5388730598
  0
VERTEX
  8
0
 62
7
  6
CONTINUOUS
 10
148.3212836759
 20
210.5490578587
  0
SEQEND
  0
POLYLINE
  8
0
 62
7
  6
CONTINUOUS
 66
1
 70
0
  0
VERTEX
  8
0
 62
7
  6
CONTINUOUS
 10
142.8336221674
 20
206.0456043954
  0
VERTEX
  8
0
 62
7
  6
CONTINUOUS
 10
142.9752036766
 20
206.0610518652
  0
VERTEX
  8
0
 62
7
  6
CONTINUOUS
 10
143.137923219
 20
206.0761849252
  0
VERTEX
  8
0
 62
7
  6
CONTINUOUS
 10
143.3213583013
 20
206.0909618325
  0
VERTEX
  8
0
 62
7
  6
CONTINUOUS
 10
143.5250184287
 20
206.1053405369
  0
VERTEX
  8
0
 62
7
  6
CONTINUOUS
 10
143.748447646
 20
206.1192853195
  0
VERTEX
  8
0
 62
7
  6
CONTINUOUS
 10
143.9908287715
 20
206.132743161
  0
VERTEX
  8
0
 62
7
  6
CONTINUOUS
 10
144.252157494
 20
206.145708127
  0
VERTEX
  8
0
 62
7
  6
CONTINUOUS
 10
144.5271528722
 20
206.1579422741
  0
VERTEX
  8
0
 62
7
  6
CONTINUOUS
 10
144.7972855256
 20
206.1687851444
  0
VERTEX
  8
0
 62
7
  6
CONTINUOUS
 10
145.0503070877
 20
206.1780345589
  0
VERTEX
  8
0
 62
7
  6
CONTINUOUS
 10
145.2812088181
 20
206.185800347
  0
VERTEX
  8
0
 62
7
  6
CONTINUOUS
 10
145.491877027
 20
206.1923783691
  0
SEQEND
  0
LINE
  8
0
 62
7
  6
CONTINUOUS
 10
145.491877027
 20
206.1923783691
 11
145.8635047206
 21
206.2029200738
  0
LINE
  8
0
 62
7
  6
CONTINUOUS
 10
145.8635047206
 20
206.2029200738
 11
146.1784709805
 21
206.2108964025
  0
LINE
  8
0
 62
7
  6
CONTINUOUS
 10
146.1784709805
 20
206.2108964025
 11
146.4447268557
 21
206.2170166184
  0
LINE
  8
0
 62
7
  6
CONTINUOUS
 10
146.4447268557
 20
206.2170166184
 11
146.8039801353
 21
206.2244421607
  0
LINE
  8
0
 62
7
  6
CONTINUOUS
 10
146.8039801353
 20
206.2244421607
 11
147.1534210604
 21
206.2308137788
  0
LINE
  8
0
 62
7
  6
CONTINUOUS
 10
147.1534210604
 20
206.2308137788
 11
147.5061219337
 21
206.2364527391
  0
LINE
  8
0
 62
7
  6
CONTINUOUS
 10
147.5061219337
 20
206.2364527391
 11
147.9742930808
 21
206.2431550356
  0
LINE
  8
0
 62
7
  6
CONTINUOUS
 10
147.9742930808
 20
206.2431550356
 11
148.2203147892
 21
206.2460402445
  0
POLYLINE
  8
0
 62
7
  6
CONTINUOUS
 66
1
 70
0
  0
VERTEX
  8
0
 62
7
  6
CONTINUOUS
 10
148.2203147892
 20
206.2460402445
  0
VERTEX
  8
0
 62
7
  6
CONTINUOUS
 10
148.6454232496
 20
206.2499726778
  0
VERTEX
  8
0
 62
7
  6
CONTINUOUS
 10
149.0751044106
 20
206.2530419807
  0
VERTEX
  8
0
 62
7
  6
CONTINUOUS
 10
149.5082223832
 20
206.2552400865
  0
VERTEX
  8
0
 62
7
  6
CONTINUOUS
 10
149.9436353848
 20
206.2565612472
  0
VERTEX
  8
0
 62
7
  6
CONTINUOUS
 10
150.3801964349
 20
206.2570020161
  0
SEQEND
  0
POLYLINE
  8
0
 62
7
  6
CONTINUOUS
 66
1
 70
0
  0
VERTEX
  8
0
 62
7
  6
CONTINUOUS
 10
150.3801964349
 20
206.0860900506
  0
VERTEX
  8
0
 62
7
  6
CONTINUOUS
 10
150.1144323026
 20
206.0857553598
  0
VERTEX
  8
0
 62
7
  6
CONTINUOUS
 10
149.8497571299
 20
206.0847526508
  0
VERTEX
  8
0
 62
7
  6
CONTINUOUS
 10
149.5872555175
 20
206.0830860089
  0
VERTEX
  8
0
 62
7
  6
CONTINUOUS
 10
149.328003361
 20
206.0807622258
  0
VERTEX
  8
0
 62
7
  6
CONTINUOUS
 10
149.0730635248
 20
206.0777907736
  0
VERTEX
  8
0
 62
7
  6
CONTINUOUS
 10
148.823481582
 20
206.0741837687
  0
VERTEX
  8
0
 62
7
  6
CONTINUOUS
 10
148.5802815754
 20
206.0699559258
  0
VERTEX
  8
0
 62
7
  6
CONTINUOUS
 10
148.3444618704
 20
206.0651245009
  0
VERTEX
  8
0
 62
7
  6
CONTINUOUS
 10
148.1169911086
 20
206.0597092253
  0
VERTEX
  8
0
 62
7
  6
CONTINUOUS
 10
147.8988042055
 20
206.0537322282
  0
VERTEX
  8
0
 62
7
  6
CONTINUOUS
 10
147.6907985312
 20
206.0472179512
  0
VERTEX
  8
0
 62
7
  6
CONTINUOUS
 10
147.4938301959
 20
206.0401930519
  0
VERTEX
  8
0
 62
7
  6
CONTINUOUS
 10
147.308710448
 20
206.0326862979
  0
VERTEX
  8
0
 62
7
  6
CONTINUOUS
 10
147.1362023118
 20
206.0247284532
  0
VERTEX
  8
0
 62
7
  6
CONTINUOUS
 10
146.977017346
 20
206.0163521545
  0
VERTEX
  8
0
 62
7
  6
CONTINUOUS
 10
146.8318126151
 20
206.0075917785
  0
VERTEX
  8
0
 62
7
  6
CONTINUOUS
 10
146.7011879021
 20
205.9984833044
  0
VERTEX
  8
0
 62
7
  6
CONTINUOUS
 10
146.5856831079
 20
205.9890641643
  0
VERTEX
  8
0
 62
7
  6
CONTINUOUS
 10
146.4857759271
 20
205.9793730908
  0
VERTEX
  8
0
 62
7
  6
CONTINUOUS
 10
146.4018797765
 20
205.9694499569
  0
VERTEX
  8
0
 62
7
  6
CONTINUOUS
 10
146.3343419771
 20
205.959335609
  0
VERTEX
  8
0
 62
7
  6
CONTINUOUS
 10
146.2834422431
 20
205.949071698
  0
VERTEX
  8
0
 62
7
  6
CONTINUOUS
 10
146.2493914476
 20
205.9387005039
  0
VERTEX
  8
0
 62
7
  6
CONTINUOUS
 10
146.2323306916
 20
205.9282647585
  0
VERTEX
  8
0
 62
7
  6
CONTINUOUS
 10
146.2301980936
 20
205.9230361065
  0
SEQEND
  0
LINE
  8
0
 62
7
  6
CONTINUOUS
 10
150.3801964349
 20
205.4742780961
 11
158.1801964349
 21
205.4742780961
  0
LINE
  8
0
 62
7
  6
CONTINUOUS
 10
150.3801964349
 20
205.5360475474
 11
147.5357938458
 21
205.5852331714
  0
LINE
  8
0
 62
7
  6
CONTINUOUS
 10
147.5357938458
 20
205.5852331714
 11
146.5763437425
 21
205.6023130328
  0
LINE
  8
0
 62
7
  6
CONTINUOUS
 10
146.5763437425
 20
205.6023130328
 11
146.2872724418
 21
205.6086045398
  0
LINE
  8
0
 62
7
  6
CONTINUOUS
 10
146.2872724418
 20
205.6086045398
 11
146.0627703191
 21
205.614271876
  0
LINE
  8
0
 62
7
  6
CONTINUOUS
 10
146.0627703191
 20
205.614271876
 11
145.8831742058
 21
205.6193859144
  0
LINE
  8
0
 62
7
  6
CONTINUOUS
 10
153.7192325319
 20
205.4690154486
 11
153.5407036653
 21
205.4741274964
  0
LINE
  8
0
 62
7
  6
CONTINUOUS
 10
153.9254081371
 20
205.4622895151
 11
153.7192325319
 21
205.4690154486
  0
LINE
  8
0
 62
7
  6
CONTINUOUS
 10
145.8831742058
 20
205.6193859144
 11
145.6782803569
 21
205.6259932597
  0
POLYLINE
  8
0
 62
7
  6
CONTINUOUS
 66
1
 70
0
  0
VERTEX
  8
0
 62
7
  6
CONTINUOUS
 10
153.9254081371
 20
205.4622895151
  0
VERTEX
  8
0
 62
7
  6
CONTINUOUS
 10
154.0073772404
 20
205.4592835835
  0
VERTEX
  8
0
 62
7
  6
CONTINUOUS
 10
154.0824514042
 20
205.4560112124
  0
VERTEX
  8
0
 62
7
  6
CONTINUOUS
 10
154.1500743679
 20
205.4524965376
  0
VERTEX
  8
0
 62
7
  6
CONTINUOUS
 10
154.2097408762
 20
205.4487656699
  0
VERTEX
  8
0
 62
7
  6
CONTINUOUS
 10
154.2610047055
 20
205.4448463521
  0
VERTEX
  8
0
 62
7
  6
CONTINUOUS
 10
154.3034821451
 20
205.4407677534
  0
VERTEX
  8
0
 62
7
  6
CONTINUOUS
 10
154.3368550201
 20
205.4365602504
  0
VERTEX
  8
0
 62
7
  6
CONTINUOUS
 10
154.3608731904
 20
205.4322552
  0
VERTEX
  8
0
 62
7
  6
CONTINUOUS
 10
154.3753565438
 20
205.4278847021
  0
VERTEX
  8
0
 62
7
  6
CONTINUOUS
 10
154.3801964349
 20
205.4234813533
  0
SEQEND
  0
LINE
  8
0
 62
7
  6
CONTINUOUS
 10
145.6782803569
 20
205.6259932597
 11
145.5288655907
 21
205.6314877105
  0
LINE
  8
0
 62
7
  6
CONTINUOUS
 10
145.5288655907
 20
205.6314877105
 11
145.4184429976
 21
205.6360726664
  0
LINE
  8
0
 62
7
  6
CONTINUOUS
 10
145.4184429976
 20
205.6360726664
 11
145.3366505365
 21
205.6399205788
  0
LINE
  8
0
 62
7
  6
CONTINUOUS
 10
145.3366505365
 20
205.6399205788
 11
145.293805458
 21
205.6421964063
  0
POLYLINE
  8
0
 62
7
  6
CONTINUOUS
 66
1
 70
0
  0
VERTEX
  8
0
 62
7
  6
CONTINUOUS
 10
145.293805458
 20
205.6421964063
  0
VERTEX
  8
0
 62
7
  6
CONTINUOUS
 10
145.2594707802
 20
205.6442591552
  0
VERTEX
  8
0
 62
7
  6
CONTINUOUS
 10
145.2456456518
 20
205.6451968043
  0
VERTEX
  8
0
 62
7
  6
CONTINUOUS
 10
145.234030005
 20
205.6460699872
  0
SEQEND
  0
LINE
  8
0
 62
7
  6
CONTINUOUS
 10
145.2340300051
 20
205.6460699872
 11
143.2931197717
 21
205.8012367805
  0
POLYLINE
  8
0
 62
7
  6
CONTINUOUS
 66
1
 70
0
  0
VERTEX
  8
0
 62
7
  6
CONTINUOUS
 10
154.6849658904
 20
204.8487308533
  0
VERTEX
  8
0
 62
7
  6
CONTINUOUS
 10
154.6466706703
 20
204.8577956966
  0
VERTEX
  8
0
 62
7
  6
CONTINUOUS
 10
154.6078960807
 20
204.8656749038
  0
VERTEX
  8
0
 62
7
  6
CONTINUOUS
 10
154.5680270193
 20
204.8721603828
  0
VERTEX
  8
0
 62
7
  6
CONTINUOUS
 10
154.5283376769
 20
204.8765399893
  0
VERTEX
  8
0
 62
7
  6
CONTINUOUS
 10
154.492053112
 20
204.8779895204
  0
VERTEX
  8
0
 62
7
  6
CONTINUOUS
 10
154.4605753151
 20
204.8761797206
  0
VERTEX
  8
0
 62
7
  6
CONTINUOUS
 10
154.4344989593
 20
204.8709783745
  0
VERTEX
  8
0
 62
7
  6
CONTINUOUS
 10
154.4138583621
 20
204.8624231388
  0
SEQEND
  0
POLYLINE
  8
0
 62
7
  6
CONTINUOUS
 66
1
 70
0
  0
VERTEX
  8
0
 62
7
  6
CONTINUOUS
 10
151.8168928597
 20
210.7689031749
  0
VERTEX
  8
0
 62
7
  6
CONTINUOUS
 10
152.0072283056
 20
210.7002995659
  0
VERTEX
  8
0
 62
7
  6
CONTINUOUS
 10
152.1903630517
 20
210.6390226816
  0
VERTEX
  8
0
 62
7
  6
CONTINUOUS
 10
152.3633336179
 20
210.5868543474
  0
VERTEX
  8
0
 62
7
  6
CONTINUOUS
 10
152.5245042344
 20
210.5446679368
  0
VERTEX
  8
0
 62
7
  6
CONTINUOUS
 10
152.6725310034
 20
210.5128028975
  0
VERTEX
  8
0
 62
7
  6
CONTINUOUS
 10
152.8074256997
 20
210.4909090679
  0
VERTEX
  8
0
 62
7
  6
CONTINUOUS
 10
152.9300396501
 20
210.4783109066
  0
VERTEX
  8
0
 62
7
  6
CONTINUOUS
 10
153.041243812
 20
210.4742780961
  0
SEQEND
  0
POLYLINE
  8
0
 62
7
  6
CONTINUOUS
 66
1
 70
0
  0
VERTEX
  8
0
 62
7
  6
CONTINUOUS
 10
144.6752695894
 20
223.024715825
  0
VERTEX
  8
0
 62
7
  6
CONTINUOUS
 10
144.7203973221
 20
222.9948677819
  0
VERTEX
  8
0
 62
7
  6
CONTINUOUS
 10
144.7791097146
 20
222.9544358077
  0
VERTEX
  8
0
 62
7
  6
CONTINUOUS
 10
144.9131451742
 20
222.8607525679
  0
SEQEND
  0
POLYLINE
  8
0
 62
7
  6
CONTINUOUS
 66
1
 70
0
  0
VERTEX
  8
0
 62
7
  6
CONTINUOUS
 10
144.9131451742
 20
222.8607525679
  0
VERTEX
  8
0
 62
7
  6
CONTINUOUS
 10
144.9881717106
 20
222.8098035187
  0
VERTEX
  8
0
 62
7
  6
CONTINUOUS
 10
145.0685401862
 20
222.7575891377
  0
VERTEX
  8
0
 62
7
  6
CONTINUOUS
 10
145.1542778375
 20
222.7051762801
  0
VERTEX
  8
0
 62
7
  6
CONTINUOUS
 10
145.245524436
 20
222.653517292
  0
VERTEX
  8
0
 62
7
  6
CONTINUOUS
 10
145.3425213162
 20
222.6034703552
  0
VERTEX
  8
0
 62
7
  6
CONTINUOUS
 10
145.4454547484
 20
222.5558953331
  0
VERTEX
  8
0
 62
7
  6
CONTINUOUS
 10
145.5545318816
 20
222.5116172928
  0
VERTEX
  8
0
 62
7
  6
CONTINUOUS
 10
145.6700106875
 20
222.4714338664
  0
VERTEX
  8
0
 62
7
  6
CONTINUOUS
 10
145.7922067992
 20
222.4361450329
  0
VERTEX
  8
0
 62
7
  6
CONTINUOUS
 10
145.9212985446
 20
222.4066339559
  0
VERTEX
  8
0
 62
7
  6
CONTINUOUS
 10
146.0572415011
 20
222.3838753809
  0
VERTEX
  8
0
 62
7
  6
CONTINUOUS
 10
146.1845723378
 20
222.3700920134
  0
SEQEND
  0
LINE
  8
0
 62
7
  6
CONTINUOUS
 10
156.1688904681
 20
221.3186548263
 11
156.2145202846
 21
221.2737528759
  0
LINE
  8
0
 62
7
  6
CONTINUOUS
 10
158.0736870619
 20
94.4665793483
 11
154.7763083041
 21
93.5241845288
  0
LINE
  8
SURFACE
 62
7
  6
CONTINUOUS
 10
143.3949900993
 20
210.1552936793
 11
143.3005194338
 21
210.1477425328
  0
LINE
  8
0
 62
7
  6
CONTINUOUS
 10
143.3774425107
 20
210.1538910808
 11
147.3777837379
 21
210.4736428494
  0
LINE
  8
0
 62
7
  6
CONTINUOUS
 10
147.3968962728
 20
210.4751705358
 11
154.1909328563
 21
211.0182255128
  0
POLYLINE
  8
0
 62
7
  6
CONTINUOUS
 66
1
 70
0
  0
VERTEX
  8
0
 62
7
  6
CONTINUOUS
 10
151.4598071866
 20
210.7999235704
  0
VERTEX
  8
0
 62
7
  6
CONTINUOUS
 10
151.5285414667
 20
210.8038622996
  0
VERTEX
  8
0
 62
7
  6
CONTINUOUS
 10
151.5904939825
 20
210.8044382327
  0
VERTEX
  8
0
 62
7
  6
CONTINUOUS
 10
151.6461411711
 20
210.8020769353
  0
VERTEX
  8
0
 62
7
  6
CONTINUOUS
 10
151.695986273
 20
210.7971403045
  0
VERTEX
  8
0
 62
7
  6
CONTINUOUS
 10
151.7407661852
 20
210.789873209
  0
VERTEX
  8
0
 62
7
  6
CONTINUOUS
 10
151.7809363103
 20
210.7804391217
  0
VERTEX
  8
0
 62
7
  6
CONTINUOUS
 10
151.8168940893
 20
210.7689027382
  0
SEQEND
  0
POLYLINE
  8
0
 62
7
  6
CONTINUOUS
 66
1
 70
0
  0
VERTEX
  8
0
 62
7
  6
CONTINUOUS
 10
147.7191490579
 20
210.4742780961
  0
VERTEX
  8
0
 62
7
  6
CONTINUOUS
 10
147.8130358538
 20
210.4771823632
  0
VERTEX
  8
0
 62
7
  6
CONTINUOUS
 10
147.9150444312
 20
210.4861989139
  0
VERTEX
  8
0
 62
7
  6
CONTINUOUS
 10
148.0257508368
 20
210.5017828594
  0
VERTEX
  8
0
 62
7
  6
CONTINUOUS
 10
148.145685376
 20
210.5243667586
  0
SEQEND
  0
LINE
  8
0
 62
7
  6
CONTINUOUS
 10
158.1801964349
 20
210.4742780961
 11
147.3937219499
 21
210.4742780961
  0
LINE
  8
0
 62
7
  6
CONTINUOUS
 10
158.1279777162
 20
212.0742780961
 11
158.1801964349
 21
212.0742780961
  0
LINE
  8
SURFACE
 62
7
  6
CONTINUOUS
 10
153.1837766339
 20
213.4106378078
 11
143.3005194338
 21
214.2006176594
  0
LINE
  8
0
 62
7
  6
CONTINUOUS
 10
144.6752396616
 20
223.0247350908
 11
144.6752695894
 21
223.024715825
  0
LINE
  8
0
 62
7
  6
CONTINUOUS
 10
156.2605763439
 20
221.2368057233
 11
156.3107504112
 21
221.2041206786
  0
LINE
  8
0
 62
7
  6
CONTINUOUS
 10
156.213220049
 20
221.2749075928
 11
156.261963885
 21
221.2358026499
  0
POLYLINE
  8
0
 62
7
  6
CONTINUOUS
 66
1
 70
0
  0
VERTEX
  8
0
 62
7
  6
CONTINUOUS
 10
144.3948579328
 20
218.6352144265
  0
VERTEX
  8
0
 62
7
  6
CONTINUOUS
 10
144.3275172517
 20
218.6281591344
  0
VERTEX
  8
0
 62
7
  6
CONTINUOUS
 10
144.2452703472
 20
218.6150296675
  0
VERTEX
  8
0
 62
7
  6
CONTINUOUS
 10
144.1656770638
 20
218.5975820956
  0
VERTEX
  8
0
 62
7
  6
CONTINUOUS
 10
144.0889423378
 20
218.5762825614
  0
VERTEX
  8
0
 62
7
  6
CONTINUOUS
 10
144.0152726499
 20
218.5516020767
  0
VERTEX
  8
0
 62
7
  6
CONTINUOUS
 10
143.9448474482
 20
218.524019283
  0
VERTEX
  8
0
 62
7
  6
CONTINUOUS
 10
143.8777300142
 20
218.4939805874
  0
VERTEX
  8
0
 62
7
  6
CONTINUOUS
 10
143.8139245941
 20
218.4619068552
  0
VERTEX
  8
0
 62
7
  6
CONTINUOUS
 10
143.753436073
 20
218.4282195376
  0
VERTEX
  8
0
 62
7
  6
CONTINUOUS
 10
143.696267133
 20
218.3933439603
  0
VERTEX
  8
0
 62
7
  6
CONTINUOUS
 10
143.6424166977
 20
218.357710604
  0
VERTEX
  8
0
 62
7
  6
CONTINUOUS
 10
143.5918716825
 20
218.3217503291
  0
VERTEX
  8
0
 62
7
  6
CONTINUOUS
 10
143.5446358974
 20
218.2859152848
  0
VERTEX
  8
0
 62
7
  6
CONTINUOUS
 10
143.5007822593
 20
218.2507216088
  0
VERTEX
  8
0
 62
7
  6
CONTINUOUS
 10
143.460381124
 20
218.2166948429
  0
VERTEX
  8
0
 62
7
  6
CONTINUOUS
 10
143.4233584706
 20
218.1842338371
  0
VERTEX
  8
0
 62
7
  6
CONTINUOUS
 10
143.3894385772
 20
218.1535200933
  0
VERTEX
  8
0
 62
7
  6
CONTINUOUS
 10
143.3583705885
 20
218.1247012974
  0
VERTEX
  8
0
 62
7
  6
CONTINUOUS
 10
143.2813072768
 20
218.0518532069
  0
SEQEND
  0
LINE
  8
SURFACE
 62
7
  6
CONTINUOUS
 10
153.1837765546
 20
219.3377223781
 11
146.8560580866
 21
218.8319407319
  0
LINE
  8
0
 62
7
  6
CONTINUOUS
 10
144.3949209928
 20
218.635219279
 11
153.1837765364
 21
219.3377223766
  0
LINE
  8
0
 62
7
  6
CONTINUOUS
 10
142.8801964349
 20
218.0241800961
 11
143.2513643062
 21
218.0241800961
  0
LINE
  8
0
 62
7
  6
CONTINUOUS
 10
156.3586389594
 20
221.1791240254
 11
156.4093901468
 21
221.1584638345
  0
POLYLINE
  8
SURFACE
 62
7
  6
CONTINUOUS
 66
1
 70
0
  0
VERTEX
  8
SURFACE
 62
7
  6
CONTINUOUS
 10
153.5713580856
 20
221.7184154241
  0
VERTEX
  8
SURFACE
 62
7
  6
CONTINUOUS
 10
153.6046469349
 20
221.7042882734
  0
VERTEX
  8
SURFACE
 62
7
  6
CONTINUOUS
 10
153.6375138315
 20
221.6892483281
  0
SEQEND
  0
LINE
  8
SURFACE
 62
7
  6
CONTINUOUS
 10
153.6375138315
 20
221.6892483281
 11
153.7030597981
 21
221.6558410745
  0
LINE
  8
0
 62
7
  6
CONTINUOUS
 10
156.3093143043
 20
221.2049593631
 11
156.3600963298
 21
221.1784498449
  0
POLYLINE
  8
SURFACE
 62
7
  6
CONTINUOUS
 66
1
 70
0
  0
VERTEX
  8
SURFACE
 62
7
  6
CONTINUOUS
 10
153.7030597981
 20
221.6558410745
  0
VERTEX
  8
SURFACE
 62
7
  6
CONTINUOUS
 10
153.7699814007
 20
221.6166768018
  0
VERTEX
  8
SURFACE
 62
7
  6
CONTINUOUS
 10
153.8381819886
 20
221.5709232656
  0
VERTEX
  8
SURFACE
 62
7
  6
CONTINUOUS
 10
153.9072887499
 20
221.5177256475
  0
VERTEX
  8
SURFACE
 62
7
  6
CONTINUOUS
 10
153.9764022249
 20
221.4564795119
  0
VERTEX
  8
SURFACE
 62
7
  6
CONTINUOUS
 10
154.0446960557
 20
221.3864017935
  0
VERTEX
  8
SURFACE
 62
7
  6
CONTINUOUS
 10
154.1108787725
 20
221.3070422286
  0
VERTEX
  8
SURFACE
 62
7
  6
CONTINUOUS
 10
154.1735738662
 20
221.2179961404
  0
VERTEX
  8
SURFACE
 62
7
  6
CONTINUOUS
 10
154.2310895393
 20
221.1192913842
  0
VERTEX
  8
SURFACE
 62
7
  6
CONTINUOUS
 10
154.2816048931
 20
221.0113770604
  0
VERTEX
  8
SURFACE
 62
7
  6
CONTINUOUS
 10
154.3232442061
 20
220.8953391717
  0
VERTEX
  8
SURFACE
 62
7
  6
CONTINUOUS
 10
154.3543963342
 20
220.7724811965
  0
VERTEX
  8
SURFACE
 62
7
  6
CONTINUOUS
 10
154.373039009
 20
220.6490524098
  0
SEQEND
  0
LINE
  8
0
 62
7
  6
CONTINUOUS
 10
158.1273126593
 20
220.6742780961
 11
158.1801964349
 21
220.6742780961
  0
LINE
  8
0
 62
7
  6
CONTINUOUS
 10
147.39128509
 20
222.2742780961
 11
158.1801964349
 21
222.2742780961
  0
LINE
  8
0
 62
7
  6
CONTINUOUS
 10
142.8801964349
 20
223.1241800961
 11
144.3877011283
 21
223.1241800961
  0
LINE
  8
0
 62
7
  6
CONTINUOUS
 10
143.3801964349
 20
228.8741800961
 11
158.1801964349
 21
228.8741800961
  0
POLYLINE
  8
0
 62
7
  6
CONTINUOUS
 66
1
 70
0
  0
VERTEX
  8
0
 62
7
  6
CONTINUOUS
 10
144.3877143162
 20
223.1241801478
  0
VERTEX
  8
0
 62
7
  6
CONTINUOUS
 10
144.4198850902
 20
223.1224919856
  0
VERTEX
  8
0
 62
7
  6
CONTINUOUS
 10
144.4630881409
 20
223.1156871247
  0
VERTEX
  8
0
 62
7
  6
CONTINUOUS
 10
144.5121639018
 20
223.1027051585
  0
VERTEX
  8
0
 62
7
  6
CONTINUOUS
 10
144.565856697
 20
223.0828309426
  0
VERTEX
  8
0
 62
7
  6
CONTINUOUS
 10
144.6228957074
 20
223.0555329534
  0
VERTEX
  8
0
 62
7
  6
CONTINUOUS
 10
144.6752396134
 20
223.024735016
  0
SEQEND
  0
POLYLINE
  8
0
 62
7
  6
CONTINUOUS
 66
1
 70
0
  0
VERTEX
  8
0
 62
7
  6
CONTINUOUS
 10
158.1801964349
 20
228.8741800961
  0
VERTEX
  8
0
 62
7
  6
CONTINUOUS
 10
158.203654988
 20
228.8724736096
  0
VERTEX
  8
0
 62
7
  6
CONTINUOUS
 10
158.2269321064
 20
228.8673865237
  0
VERTEX
  8
0
 62
7
  6
CONTINUOUS
 10
158.2496114849
 20
228.8590076784
  0
VERTEX
  8
0
 62
7
  6
CONTINUOUS
 10
158.2712883292
 20
228.8474783335
  0
VERTEX
  8
0
 62
7
  6
CONTINUOUS
 10
158.2915746622
 20
228.83299042
  0
VERTEX
  8
0
 62
7
  6
CONTINUOUS
 10
158.3101048165
 20
228.8157843992
  0
VERTEX
  8
0
 62
7
  6
CONTINUOUS
 10
158.3265410712
 20
228.796146507
  0
VERTEX
  8
0
 62
7
  6
CONTINUOUS
 10
158.3405793228
 20
228.7744052164
  0
VERTEX
  8
0
 62
7
  6
CONTINUOUS
 10
158.3519546397
 20
228.7509268145
  0
VERTEX
  8
0
 62
7
  6
CONTINUOUS
 10
158.3604465282
 20
228.7261100466
  0
VERTEX
  8
0
 62
7
  6
CONTINUOUS
 10
158.3658837153
 20
228.7003798311
  0
VERTEX
  8
0
 62
7
  6
CONTINUOUS
 10
158.3681482421
 20
228.6741800961
  0
SEQEND
  0
LINE
  8
0
 62
7
  6
CONTINUOUS
 10
154.1909351465
 20
221.7301344964
 11
144.3949339261
 21
222.5131398795
  0
LINE
  8
SURFACE
 62
7
  6
CONTINUOUS
 10
147.3948518141
 20
222.2733530724
 11
149.2412332583
 21
222.1257697292
  0
POLYLINE
  8
SURFACE
 62
7
  6
CONTINUOUS
 66
1
 70
0
  0
VERTEX
  8
SURFACE
 62
7
  6
CONTINUOUS
 10
153.1837766762
 20
221.8106378045
  0
VERTEX
  8
SURFACE
 62
7
  6
CONTINUOUS
 10
153.2200099023
 20
221.8072306073
  0
VERTEX
  8
SURFACE
 62
7
  6
CONTINUOUS
 10
153.2561402184
 20
221.8028095974
  0
VERTEX
  8
SURFACE
 62
7
  6
CONTINUOUS
 10
153.2921325573
 20
221.797378783
  0
SEQEND
  0
POLYLINE
  8
SURFACE
 62
7
  6
CONTINUOUS
 66
1
 70
0
  0
VERTEX
  8
SURFACE
 62
7
  6
CONTINUOUS
 10
153.2921325573
 20
221.797378783
  0
VERTEX
  8
SURFACE
 62
7
  6
CONTINUOUS
 10
153.3279524927
 20
221.7909436304
  0
VERTEX
  8
SURFACE
 62
7
  6
CONTINUOUS
 10
153.3635702013
 20
221.7835101211
  0
VERTEX
  8
SURFACE
 62
7
  6
CONTINUOUS
 10
153.3989607163
 20
221.77508405
  0
VERTEX
  8
SURFACE
 62
7
  6
CONTINUOUS
 10
153.4341011683
 20
221.7656711133
  0
VERTEX
  8
SURFACE
 62
7
  6
CONTINUOUS
 10
153.453033208
 20
221.7600276126
  0
SEQEND
  0
POLYLINE
  8
0
 62
7
  6
CONTINUOUS
 66
1
 70
0
  0
VERTEX
  8
0
 62
7
  6
CONTINUOUS
 10
158.0729976944
 20
220.6819778661
  0
VERTEX
  8
0
 62
7
  6
CONTINUOUS
 10
158.0979765382
 20
220.6765381477
  0
VERTEX
  8
0
 62
7
  6
CONTINUOUS
 10
158.1234452407
 20
220.6743291989
  0
VERTEX
  8
0
 62
7
  6
CONTINUOUS
 10
158.1279569255
 20
220.6742783038
  0
SEQEND
  0
LINE
  8
0
 62
7
  6
CONTINUOUS
 10
158.073000822
 20
220.6819769722
 11
154.7763010268
 21
221.6241777433
  0
POLYLINE
  8
SURFACE
 62
7
  6
CONTINUOUS
 66
1
 70
0
  0
VERTEX
  8
SURFACE
 62
7
  6
CONTINUOUS
 10
153.4574042682
 20
221.758724632
  0
VERTEX
  8
SURFACE
 62
7
  6
CONTINUOUS
 10
153.4689621626
 20
221.7552793094
  0
VERTEX
  8
SURFACE
 62
7
  6
CONTINUOUS
 10
153.5034555832
 20
221.7439379346
  0
VERTEX
  8
SURFACE
 62
7
  6
CONTINUOUS
 10
153.5376173788
 20
221.7316381839
  0
VERTEX
  8
SURFACE
 62
7
  6
CONTINUOUS
 10
153.5713580856
 20
221.7184154241
  0
SEQEND
  0
LINE
  8
0
 62
7
  6
CONTINUOUS
 10
156.4093901468
 20
221.1584638345
 11
156.4390621097
 21
221.1489613142
  0
LINE
  8
0
 62
7
  6
CONTINUOUS
 10
156.4079332673
 20
221.1589783023
 11
156.4088442415
 21
221.15868517
  0
POLYLINE
  8
0
 62
7
  6
CONTINUOUS
 66
1
 70
0
  0
VERTEX
  8
0
 62
7
  6
CONTINUOUS
 10
156.4390509392
 20
221.1489649338
  0
VERTEX
  8
0
 62
7
  6
CONTINUOUS
 10
156.3925448874
 20
221.1647301739
  0
VERTEX
  8
0
 62
7
  6
CONTINUOUS
 10
156.3436351225
 20
221.1865349052
  0
VERTEX
  8
0
 62
7
  6
CONTINUOUS
 10
156.2950273961
 20
221.2140718204
  0
VERTEX
  8
0
 62
7
  6
CONTINUOUS
 10
156.24777172
 20
221.2473190443
  0
VERTEX
  8
0
 62
7
  6
CONTINUOUS
 10
156.202940618
 20
221.2860298362
  0
VERTEX
  8
0
 62
7
  6
CONTINUOUS
 10
156.1615717382
 20
221.3297358184
  0
VERTEX
  8
0
 62
7
  6
CONTINUOUS
 10
156.1246748513
 20
221.3776728541
  0
VERTEX
  8
0
 62
7
  6
CONTINUOUS
 10
156.0930362303
 20
221.4289530156
  0
VERTEX
  8
0
 62
7
  6
CONTINUOUS
 10
156.0672460864
 20
221.4825419439
  0
VERTEX
  8
0
 62
7
  6
CONTINUOUS
 10
156.0476427688
 20
221.5373550292
  0
VERTEX
  8
0
 62
7
  6
CONTINUOUS
 10
156.0342546288
 20
221.5926183021
  0
VERTEX
  8
0
 62
7
  6
CONTINUOUS
 10
156.0305761215
 20
221.6205050265
  0
SEQEND
  0
LINE
  8
0
 62
7
  6
CONTINUOUS
 10
38.2184901532
 20
260.5321658508
 11
38.2184901532
 21
261.6312850602
  0
LINE
  8
0
 62
2
  6
CONTINUOUS
 10
44.0184901532
 20
262.5112905268
 11
44.0184901532
 21
260.7512905268
  0
LINE
  8
DEFAULT_1
 62
2
  6
CENTER
 10
44.0184901532
 20
257.2312905268
 11
44.0184901532
 21
255.4812905268
  0
LINE
  8
DEFAULT_1
 62
2
  6
CENTER
 10
44.0184901532
 20
266.0312905268
 11
44.0184901532
 21
267.7812905268
  0
LINE
  8
0
 62
7
  6
CONTINUOUS
 10
48.2030351532
 20
269.4312905268
 11
48.2030351532
 21
267.9794777382
  0
POLYLINE
  8
0
 62
7
  6
CONTINUOUS
 66
1
 70
0
  0
VERTEX
  8
0
 62
7
  6
CONTINUOUS
 10
48.4030349032
 20
269.4312905268
  0
VERTEX
  8
0
 62
7
  6
CONTINUOUS
 10
48.4057104317
 20
269.4572263913
  0
VERTEX
  8
0
 62
7
  6
CONTINUOUS
 10
48.4078048767
 20
269.4827697435
  0
VERTEX
  8
0
 62
7
  6
CONTINUOUS
 10
48.4093290629
 20
269.5074813093
  0
VERTEX
  8
0
 62
7
  6
CONTINUOUS
 10
48.4103023045
 20
269.5309308657
  0
VERTEX
  8
0
 62
7
  6
CONTINUOUS
 10
48.4107520574
 20
269.5527066561
  0
VERTEX
  8
0
 62
7
  6
CONTINUOUS
 10
48.4107135187
 20
269.5724245506
  0
VERTEX
  8
0
 62
7
  6
CONTINUOUS
 10
48.4102291538
 20
269.589736354
  0
VERTEX
  8
0
 62
7
  6
CONTINUOUS
 10
48.4093481406
 20
269.6043368185
  0
VERTEX
  8
0
 62
7
  6
CONTINUOUS
 10
48.4081257046
 20
269.6159691381
  0
VERTEX
  8
0
 62
7
  6
CONTINUOUS
 10
48.4066223157
 20
269.6244289307
  0
VERTEX
  8
0
 62
7
  6
CONTINUOUS
 10
48.4049027334
 20
269.6295669056
  0
VERTEX
  8
0
 62
7
  6
CONTINUOUS
 10
48.4030349032
 20
269.6312905268
  0
SEQEND
  0
LINE
  8
0
 62
7
  6
CONTINUOUS
 10
49.8184901532
 20
261.6312905268
 11
49.8184901532
 21
260.5321658508
  0
LINE
  8
0
 62
7
  6
CONTINUOUS
 10
58.0684901532
 20
265.6312905268
 11
58.243834906
 21
263.1237437365
  0
LINE
  8
0
 62
7
  6
CONTINUOUS
 10
48.250579289
 20
269.3021484775
 11
48.2440110643
 21
269.3104506148
  0
POLYLINE
  8
0
 62
7
  6
CONTINUOUS
 66
1
 70
0
  0
VERTEX
  8
0
 62
7
  6
CONTINUOUS
 10
58.2438346561
 20
263.1237523779
  0
VERTEX
  8
0
 62
7
  6
CONTINUOUS
 10
58.2503530816
 20
263.0699071095
  0
VERTEX
  8
0
 62
7
  6
CONTINUOUS
 10
58.2628451077
 20
263.0151540624
  0
VERTEX
  8
0
 62
7
  6
CONTINUOUS
 10
58.2811381648
 20
262.9619063922
  0
VERTEX
  8
0
 62
7
  6
CONTINUOUS
 10
58.3050529611
 20
262.9108762879
  0
VERTEX
  8
0
 62
7
  6
CONTINUOUS
 10
58.3343177653
 20
262.8627075315
  0
VERTEX
  8
0
 62
7
  6
CONTINUOUS
 10
58.3685882878
 20
262.8179768958
  0
VERTEX
  8
0
 62
7
  6
CONTINUOUS
 10
58.4074479714
 20
262.7772115697
  0
VERTEX
  8
0
 62
7
  6
CONTINUOUS
 10
58.4504078979
 20
262.7408847236
  0
VERTEX
  8
0
 62
7
  6
CONTINUOUS
 10
58.496894923
 20
262.7094113445
  0
VERTEX
  8
0
 62
7
  6
CONTINUOUS
 10
58.5462168946
 20
262.6831403109
  0
VERTEX
  8
0
 62
7
  6
CONTINUOUS
 10
58.5974266896
 20
262.6623543658
  0
VERTEX
  8
0
 62
7
  6
CONTINUOUS
 10
58.6494362472
 20
262.6471250863
  0
VERTEX
  8
0
 62
7
  6
CONTINUOUS
 10
58.7011344098
 20
262.637250962
  0
VERTEX
  8
0
 62
7
  6
CONTINUOUS
 10
58.7512235997
 20
262.6322708829
  0
VERTEX
  8
0
 62
7
  6
CONTINUOUS
 10
58.7861520573
 20
262.631290662
  0
SEQEND
  0
LINE
  8
0
 62
7
  6
CONTINUOUS
 10
48.2480278084
 20
269.3049069823
 11
48.2650464832
 21
269.286517412
  0
LINE
  8
0
 62
7
  6
CONTINUOUS
 10
64.3952114108
 20
263.1532890633
 11
64.5684901532
 21
265.6312905268
  0
LINE
  8
0
 62
7
  6
CONTINUOUS
 10
47.1184901532
 20
253.6312905268
 11
41.5184901532
 21
253.6312905268
  0
LINE
  8
0
 62
7
  6
CONTINUOUS
 10
91.7184901532
 20
253.6312905268
 11
97.3184901532
 21
253.6312905268
  0
LINE
  8
0
 62
7
  6
CONTINUOUS
 10
48.2650464832
 20
269.286517412
 11
48.2842595342
 21
269.2703787389
  0
LINE
  8
0
 62
7
  6
CONTINUOUS
 10
48.2842595342
 20
269.2703787389
 11
48.3050337361
 21
269.2569131344
  0
POLYLINE
  8
0
 62
7
  6
CONTINUOUS
 66
1
 70
0
  0
VERTEX
  8
0
 62
7
  6
CONTINUOUS
 10
80.0508282491
 20
262.631290662
  0
VERTEX
  8
0
 62
7
  6
CONTINUOUS
 10
80.0857567067
 20
262.6322708829
  0
VERTEX
  8
0
 62
7
  6
CONTINUOUS
 10
80.1358458966
 20
262.637250962
  0
VERTEX
  8
0
 62
7
  6
CONTINUOUS
 10
80.1875440591
 20
262.6471250863
  0
VERTEX
  8
0
 62
7
  6
CONTINUOUS
 10
80.2395536168
 20
262.6623543658
  0
VERTEX
  8
0
 62
7
  6
CONTINUOUS
 10
80.2907634117
 20
262.6831403109
  0
VERTEX
  8
0
 62
7
  6
CONTINUOUS
 10
80.3400853834
 20
262.7094113445
  0
VERTEX
  8
0
 62
7
  6
CONTINUOUS
 10
80.3865724084
 20
262.7408847236
  0
VERTEX
  8
0
 62
7
  6
CONTINUOUS
 10
80.429532335
 20
262.7772115697
  0
VERTEX
  8
0
 62
7
  6
CONTINUOUS
 10
80.4683920186
 20
262.8179768958
  0
VERTEX
  8
0
 62
7
  6
CONTINUOUS
 10
80.502662541
 20
262.8627075315
  0
VERTEX
  8
0
 62
7
  6
CONTINUOUS
 10
80.5319273452
 20
262.9108762879
  0
VERTEX
  8
0
 62
7
  6
CONTINUOUS
 10
80.5558421415
 20
262.9619063922
  0
VERTEX
  8
0
 62
7
  6
CONTINUOUS
 10
80.5741351986
 20
263.0151540624
  0
VERTEX
  8
0
 62
7
  6
CONTINUOUS
 10
80.5866272248
 20
263.0699071095
  0
VERTEX
  8
0
 62
7
  6
CONTINUOUS
 10
80.5931456503
 20
263.1237523779
  0
SEQEND
  0
LINE
  8
0
 62
2
  6
CONTINUOUS
 10
95.6984901532
 20
261.6312905268
 11
93.9384901532
 21
261.6312905268
  0
LINE
  8
DEFAULT_1
 62
2
  6
CENTER
 10
90.4184901532
 20
261.6312905268
 11
88.6684901532
 21
261.6312905268
  0
LINE
  8
0
 62
2
  6
CONTINUOUS
 10
44.8984901532
 20
261.6312905268
 11
43.1384901532
 21
261.6312905268
  0
LINE
  8
DEFAULT_1
 62
2
  6
CENTER
 10
39.6184901532
 20
261.6312905268
 11
37.8684901532
 21
261.6312905268
  0
LINE
  8
DEFAULT_1
 62
2
  6
CENTER
 10
48.4184901532
 20
261.6312905268
 11
50.1684901532
 21
261.6312905268
  0
LINE
  8
DEFAULT_1
 62
2
  6
CENTER
 10
99.2184901532
 20
261.6312905268
 11
100.9684901532
 21
261.6312905268
  0
LINE
  8
0
 62
7
  6
CONTINUOUS
 10
74.2684901532
 20
265.6312905268
 11
74.4417688955
 21
263.1532890633
  0
POLYLINE
  8
0
 62
7
  6
CONTINUOUS
 66
1
 70
0
  0
VERTEX
  8
0
 62
7
  6
CONTINUOUS
 10
63.8047812152
 20
262.6312906367
  0
VERTEX
  8
0
 62
7
  6
CONTINUOUS
 10
63.8470232171
 20
262.6324428608
  0
VERTEX
  8
0
 62
7
  6
CONTINUOUS
 10
63.9024804351
 20
262.637736511
  0
VERTEX
  8
0
 62
7
  6
CONTINUOUS
 10
63.9592799945
 20
262.648125649
  0
VERTEX
  8
0
 62
7
  6
CONTINUOUS
 10
64.0162862602
 20
262.6642335018
  0
VERTEX
  8
0
 62
7
  6
CONTINUOUS
 10
64.0722508207
 20
262.6863489952
  0
VERTEX
  8
0
 62
7
  6
CONTINUOUS
 10
64.1259288162
 20
262.714404251
  0
VERTEX
  8
0
 62
7
  6
CONTINUOUS
 10
64.1762222071
 20
262.7480342508
  0
VERTEX
  8
0
 62
7
  6
CONTINUOUS
 10
64.2224915168
 20
262.7868870202
  0
VERTEX
  8
0
 62
7
  6
CONTINUOUS
 10
64.2642452678
 20
262.8306105345
  0
VERTEX
  8
0
 62
7
  6
CONTINUOUS
 10
64.3009600868
 20
262.8787217531
  0
VERTEX
  8
0
 62
7
  6
CONTINUOUS
 10
64.3321568703
 20
262.9306259463
  0
VERTEX
  8
0
 62
7
  6
CONTINUOUS
 10
64.3574697132
 20
262.9857069777
  0
VERTEX
  8
0
 62
7
  6
CONTINUOUS
 10
64.3766135535
 20
263.0432870777
  0
VERTEX
  8
0
 62
7
  6
CONTINUOUS
 10
64.38938603
 20
263.1024934908
  0
VERTEX
  8
0
 62
7
  6
CONTINUOUS
 10
64.3952125314
 20
263.1533092559
  0
SEQEND
  0
LINE
  8
0
 62
7
  6
CONTINUOUS
 10
80.0508443306
 20
262.6312905268
 11
75.0321894701
 21
262.6312905268
  0
LINE
  8
0
 62
7
  6
CONTINUOUS
 10
63.8047954913
 20
262.6312905268
 11
58.7861321069
 21
262.6312905268
  0
POLYLINE
  8
0
 62
7
  6
CONTINUOUS
 66
1
 70
0
  0
VERTEX
  8
0
 62
7
  6
CONTINUOUS
 10
74.4417677749
 20
263.1533092559
  0
VERTEX
  8
0
 62
7
  6
CONTINUOUS
 10
74.4475942763
 20
263.1024934908
  0
VERTEX
  8
0
 62
7
  6
CONTINUOUS
 10
74.4603667529
 20
263.0432870777
  0
VERTEX
  8
0
 62
7
  6
CONTINUOUS
 10
74.4795105932
 20
262.9857069777
  0
VERTEX
  8
0
 62
7
  6
CONTINUOUS
 10
74.5048234361
 20
262.9306259463
  0
VERTEX
  8
0
 62
7
  6
CONTINUOUS
 10
74.5360202196
 20
262.8787217531
  0
VERTEX
  8
0
 62
7
  6
CONTINUOUS
 10
74.5727350386
 20
262.8306105345
  0
VERTEX
  8
0
 62
7
  6
CONTINUOUS
 10
74.6144887896
 20
262.7868870202
  0
VERTEX
  8
0
 62
7
  6
CONTINUOUS
 10
74.6607580992
 20
262.7480342508
  0
VERTEX
  8
0
 62
7
  6
CONTINUOUS
 10
74.7110514902
 20
262.714404251
  0
VERTEX
  8
0
 62
7
  6
CONTINUOUS
 10
74.7647294856
 20
262.6863489952
  0
VERTEX
  8
0
 62
7
  6
CONTINUOUS
 10
74.8206940462
 20
262.6642335018
  0
VERTEX
  8
0
 62
7
  6
CONTINUOUS
 10
74.8777003118
 20
262.648125649
  0
VERTEX
  8
0
 62
7
  6
CONTINUOUS
 10
74.9344998713
 20
262.637736511
  0
VERTEX
  8
0
 62
7
  6
CONTINUOUS
 10
74.9899570892
 20
262.6324428608
  0
VERTEX
  8
0
 62
7
  6
CONTINUOUS
 10
75.0321990912
 20
262.6312906367
  0
SEQEND
  0
LINE
  8
0
 62
7
  6
CONTINUOUS
 10
52.6635503795
 20
265.6312905268
 11
82.1039725916
 21
265.6312905268
  0
LINE
  8
0
 62
7
  6
CONTINUOUS
 10
41.1812379614
 20
269.6312905268
 11
97.655742345
 21
269.6312905268
  0
LINE
  8
0
 62
7
  6
CONTINUOUS
 10
80.5931451328
 20
263.1237399101
 11
80.7684901532
 21
265.6312905268
  0
LINE
  8
0
 62
2
  6
CONTINUOUS
 10
94.8184901532
 20
262.5112905268
 11
94.8184901532
 21
260.7512905268
  0
LINE
  8
DEFAULT_1
 62
2
  6
CENTER
 10
94.8184901532
 20
257.2312905268
 11
94.8184901532
 21
255.4812905268
  0
LINE
  8
DEFAULT_1
 62
2
  6
CENTER
 10
94.8184901532
 20
266.0312905268
 11
94.8184901532
 21
267.7812905268
  0
ARC
  8
0
 62
7
  6
CONTINUOUS
 10
35.7184901532
 20
92.6742780961
 40
0.2
 50
89.9999641985
 51
180.0
  0
ARC
  8
0
 62
7
  6
CONTINUOUS
 10
35.7184901532
 20
88.0742780961
 40
0.2
 50
180.0
 51
270.0000353487
  0
ARC
  8
0
 62
7
  6
CONTINUOUS
 10
35.7184901532
 20
109.4742780961
 40
0.2
 50
89.9999641985
 51
180.0
  0
ARC
  8
0
 62
7
  6
CONTINUOUS
 10
35.7184901532
 20
104.8742780961
 40
0.2
 50
180.0
 51
270.0
  0
ARC
  8
0
 62
7
  6
CONTINUOUS
 10
44.0184901532
 20
88.0742780961
 40
1.8
 50
197.7189318734
 51
342.2810681266
  0
ARC
  8
0
 62
7
  6
CONTINUOUS
 10
44.0184901532
 20
92.6742780961
 40
1.8
 50
17.7189318734
 51
162.2810681266
  0
ARC
  8
0
 62
7
  6
CONTINUOUS
 10
47.2030351532
 20
86.8742780961
 40
1.0
 50
0.0
 51
90.0
  0
ARC
  8
0
 62
7
  6
CONTINUOUS
 10
47.2030351532
 20
93.8742780961
 40
1.0
 50
270.0
 51
360.0
  0
ARC
  8
0
 62
7
  6
CONTINUOUS
 10
46.2093803832
 20
87.3742780961
 40
0.5
 50
90.0
 51
162.2810681266
  0
ARC
  8
0
 62
7
  6
CONTINUOUS
 10
41.8275999232
 20
87.3742780961
 40
0.5
 50
17.7189318734
 51
90.0
  0
ARC
  8
0
 62
7
  6
CONTINUOUS
 10
41.8275999232
 20
93.3742780961
 40
0.5
 50
270.0
 51
342.2810681266
  0
ARC
  8
0
 62
7
  6
CONTINUOUS
 10
46.2093803832
 20
93.3742780961
 40
0.5
 50
197.7189318734
 51
270.0
  0
ARC
  8
0
 62
7
  6
CONTINUOUS
 10
44.0184901532
 20
104.8742780961
 40
1.8
 50
197.7189318734
 51
342.2810681266
  0
ARC
  8
0
 62
7
  6
CONTINUOUS
 10
44.0184901532
 20
109.4742780961
 40
1.8
 50
17.7189318734
 51
162.2810681266
  0
ARC
  8
0
 62
7
  6
CONTINUOUS
 10
47.2030351532
 20
103.6742780961
 40
1.0
 50
0.0
 51
90.0
  0
ARC
  8
0
 62
7
  6
CONTINUOUS
 10
47.2030351532
 20
110.6742780961
 40
1.0
 50
270.0
 51
360.0
  0
ARC
  8
0
 62
7
  6
CONTINUOUS
 10
46.2093803832
 20
110.1742780961
 40
0.5
 50
197.7189318734
 51
270.0
  0
ARC
  8
0
 62
7
  6
CONTINUOUS
 10
41.8275999232
 20
110.1742780961
 40
0.5
 50
270.0
 51
342.2810681266
  0
ARC
  8
0
 62
7
  6
CONTINUOUS
 10
41.8275999232
 20
104.1742780961
 40
0.5
 50
17.7189318734
 51
90.0
  0
ARC
  8
0
 62
7
  6
CONTINUOUS
 10
46.2093803832
 20
104.1742780961
 40
0.5
 50
90.0
 51
162.2810681266
  0
ARC
  8
0
 62
7
  6
CONTINUOUS
 10
35.7184901532
 20
126.2742780961
 40
0.2
 50
89.9999641985
 51
180.0
  0
ARC
  8
0
 62
7
  6
CONTINUOUS
 10
35.7184901532
 20
121.6742780961
 40
0.2
 50
180.0
 51
270.0000353501
  0
ARC
  8
0
 62
7
  6
CONTINUOUS
 10
35.7184901532
 20
143.0742780961
 40
0.2
 50
89.9999641985
 51
180.0
  0
ARC
  8
0
 62
7
  6
CONTINUOUS
 10
35.7184901532
 20
138.4742780961
 40
0.2
 50
180.0
 51
270.0000353501
  0
ARC
  8
0
 62
7
  6
CONTINUOUS
 10
44.0184901532
 20
121.6742780961
 40
1.8
 50
197.7189318734
 51
342.2810681266
  0
ARC
  8
0
 62
7
  6
CONTINUOUS
 10
44.0184901532
 20
126.2742780961
 40
1.8
 50
17.7189318734
 51
162.2810681266
  0
ARC
  8
0
 62
7
  6
CONTINUOUS
 10
47.2030351532
 20
120.4742780961
 40
1.0
 50
0.0
 51
90.0
  0
ARC
  8
0
 62
7
  6
CONTINUOUS
 10
47.2030351532
 20
127.4742780961
 40
1.0
 50
270.0
 51
360.0
  0
ARC
  8
0
 62
7
  6
CONTINUOUS
 10
46.2093803832
 20
120.9742780961
 40
0.5
 50
90.0
 51
162.2810681266
  0
ARC
  8
0
 62
7
  6
CONTINUOUS
 10
41.8275999232
 20
120.9742780961
 40
0.5
 50
17.7189318734
 51
90.0
  0
ARC
  8
0
 62
7
  6
CONTINUOUS
 10
41.8275999232
 20
126.9742780961
 40
0.5
 50
270.0
 51
342.2810681266
  0
ARC
  8
0
 62
7
  6
CONTINUOUS
 10
46.2093803832
 20
126.9742780961
 40
0.5
 50
197.7189318734
 51
270.0
  0
ARC
  8
0
 62
7
  6
CONTINUOUS
 10
44.0184901532
 20
138.4742780961
 40
1.8
 50
197.7189318734
 51
342.2810681266
  0
ARC
  8
0
 62
7
  6
CONTINUOUS
 10
44.0184901532
 20
143.0742780961
 40
1.8
 50
17.7189318734
 51
162.2810681266
  0
ARC
  8
0
 62
7
  6
CONTINUOUS
 10
47.2030351532
 20
137.2742780961
 40
1.0
 50
0.0
 51
90.0
  0
ARC
  8
0
 62
7
  6
CONTINUOUS
 10
47.2030351532
 20
144.2742780961
 40
1.0
 50
270.0
 51
360.0
  0
ARC
  8
0
 62
7
  6
CONTINUOUS
 10
46.2093803832
 20
143.7742780961
 40
0.5
 50
197.7189318734
 51
270.0
  0
ARC
  8
0
 62
7
  6
CONTINUOUS
 10
41.8275999232
 20
143.7742780961
 40
0.5
 50
270.0
 51
342.2810681266
  0
ARC
  8
0
 62
7
  6
CONTINUOUS
 10
41.8275999232
 20
137.7742780961
 40
0.5
 50
17.7189318734
 51
90.0
  0
ARC
  8
0
 62
7
  6
CONTINUOUS
 10
46.2093803832
 20
137.7742780961
 40
0.5
 50
90.0
 51
162.2810681266
  0
ARC
  8
0
 62
7
  6
CONTINUOUS
 10
57.2884901532
 20
83.9441800961
 40
0.3952742633
 50
0.0
 51
90.0
  0
ARC
  8
0
 62
7
  6
CONTINUOUS
 10
54.5484901532
 20
83.9441800961
 40
0.3952742633
 50
90.0
 51
180.0
  0
ARC
  8
0
 62
7
  6
CONTINUOUS
 10
54.5484901532
 20
80.0041800961
 40
0.3952742633
 50
180.0
 51
270.0
  0
ARC
  8
0
 62
7
  6
CONTINUOUS
 10
57.2884901532
 20
80.0041800961
 40
0.3952742633
 50
270.0
 51
360.0
  0
ARC
  8
0
 62
7
  6
CONTINUOUS
 10
59.9484901532
 20
92.3441800961
 40
0.3952742633
 50
90.0
 51
180.0
  0
ARC
  8
0
 62
7
  6
CONTINUOUS
 10
59.9484901532
 20
88.4041800961
 40
0.3952742633
 50
180.0
 51
270.0
  0
ARC
  8
0
 62
7
  6
CONTINUOUS
 10
59.9484901532
 20
83.9441800961
 40
0.3952742633
 50
90.0
 51
180.0
  0
ARC
  8
0
 62
7
  6
CONTINUOUS
 10
59.9484901532
 20
80.0041800961
 40
0.3952742633
 50
180.0
 51
270.0
  0
ARC
  8
0
 62
7
  6
CONTINUOUS
 10
57.2884901532
 20
100.7441800961
 40
0.3952742633
 50
0.0
 51
90.0
  0
ARC
  8
0
 62
7
  6
CONTINUOUS
 10
54.5484901532
 20
100.7441800961
 40
0.3952742633
 50
90.0
 51
180.0
  0
ARC
  8
0
 62
7
  6
CONTINUOUS
 10
54.5484901532
 20
96.8041800961
 40
0.3952742633
 50
180.0
 51
270.0
  0
ARC
  8
0
 62
7
  6
CONTINUOUS
 10
57.2884901532
 20
96.8041800961
 40
0.3952742633
 50
270.0
 51
360.0
  0
ARC
  8
0
 62
7
  6
CONTINUOUS
 10
59.9484901532
 20
109.1441800961
 40
0.3952742633
 50
90.0
 51
180.0
  0
ARC
  8
0
 62
7
  6
CONTINUOUS
 10
59.9484901532
 20
105.2041800961
 40
0.3952742633
 50
180.0
 51
270.0
  0
ARC
  8
0
 62
7
  6
CONTINUOUS
 10
54.5484901532
 20
113.6041800961
 40
0.3952742633
 50
180.0
 51
270.0
  0
ARC
  8
0
 62
7
  6
CONTINUOUS
 10
57.2884901532
 20
113.6041800961
 40
0.3952742633
 50
270.0
 51
360.0
  0
ARC
  8
0
 62
7
  6
CONTINUOUS
 10
59.9484901532
 20
113.6041800961
 40
0.3952742633
 50
180.0
 51
270.0
  0
ARC
  8
0
 62
7
  6
CONTINUOUS
 10
62.6884901532
 20
92.3441800961
 40
0.3952742633
 50
0.0
 51
90.0
  0
ARC
  8
0
 62
7
  6
CONTINUOUS
 10
62.6884901532
 20
88.4041800961
 40
0.3952742633
 50
270.0
 51
360.0
  0
ARC
  8
0
 62
7
  6
CONTINUOUS
 10
62.6884901532
 20
83.9441800961
 40
0.3952742633
 50
0.0
 51
90.0
  0
ARC
  8
0
 62
7
  6
CONTINUOUS
 10
62.6884901532
 20
80.0041800961
 40
0.3952742633
 50
270.0
 51
360.0
  0
ARC
  8
0
 62
7
  6
CONTINUOUS
 10
68.0884901532
 20
92.3441800961
 40
0.3952742633
 50
0.0
 51
90.0
  0
ARC
  8
0
 62
7
  6
CONTINUOUS
 10
65.3484901532
 20
92.3441800961
 40
0.3952742633
 50
90.0
 51
180.0
  0
ARC
  8
0
 62
7
  6
CONTINUOUS
 10
65.3484901532
 20
88.4041800961
 40
0.3952742633
 50
180.0
 51
270.0
  0
ARC
  8
0
 62
7
  6
CONTINUOUS
 10
68.0884901532
 20
88.4041800961
 40
0.3952742633
 50
270.0
 51
360.0
  0
ARC
  8
0
 62
7
  6
CONTINUOUS
 10
68.0884901532
 20
83.9441800961
 40
0.3952742633
 50
0.0
 51
90.0
  0
ARC
  8
0
 62
7
  6
CONTINUOUS
 10
65.3484901532
 20
83.9441800961
 40
0.3952742633
 50
90.0
 51
180.0
  0
ARC
  8
0
 62
7
  6
CONTINUOUS
 10
65.3484901532
 20
80.0041800961
 40
0.3952742633
 50
180.0
 51
270.0
  0
ARC
  8
0
 62
7
  6
CONTINUOUS
 10
68.0884901532
 20
80.0041800961
 40
0.3952742633
 50
270.0
 51
360.0
  0
ARC
  8
0
 62
7
  6
CONTINUOUS
 10
62.6884901532
 20
109.1441800961
 40
0.3952742633
 50
0.0
 51
90.0
  0
ARC
  8
0
 62
7
  6
CONTINUOUS
 10
62.6884901532
 20
105.2041800961
 40
0.3952742633
 50
270.0
 51
360.0
  0
ARC
  8
0
 62
7
  6
CONTINUOUS
 10
68.0884901532
 20
109.1441800961
 40
0.3952742633
 50
0.0
 51
90.0
  0
ARC
  8
0
 62
7
  6
CONTINUOUS
 10
65.3484901532
 20
109.1441800961
 40
0.3952742633
 50
90.0
 51
180.0
  0
ARC
  8
0
 62
7
  6
CONTINUOUS
 10
65.3484901532
 20
105.2041800961
 40
0.3952742633
 50
180.0
 51
270.0
  0
ARC
  8
0
 62
7
  6
CONTINUOUS
 10
68.0884901532
 20
105.2041800961
 40
0.3952742633
 50
270.0
 51
360.0
  0
ARC
  8
0
 62
7
  6
CONTINUOUS
 10
62.6884901532
 20
113.6041800961
 40
0.3952742633
 50
270.0
 51
360.0
  0
ARC
  8
0
 62
7
  6
CONTINUOUS
 10
68.0884901532
 20
100.7441800961
 40
0.3952742633
 50
0.0
 51
90.0
  0
ARC
  8
0
 62
7
  6
CONTINUOUS
 10
65.3484901532
 20
100.7441800961
 40
0.3952742633
 50
90.0
 51
180.0
  0
ARC
  8
0
 62
7
  6
CONTINUOUS
 10
65.3484901532
 20
96.8041800961
 40
0.3952742633
 50
180.0
 51
270.0
  0
ARC
  8
0
 62
7
  6
CONTINUOUS
 10
68.0884901532
 20
96.8041800961
 40
0.3952742633
 50
270.0
 51
360.0
  0
ARC
  8
0
 62
7
  6
CONTINUOUS
 10
65.3484901532
 20
113.6041800961
 40
0.3952742633
 50
180.0
 51
270.0
  0
ARC
  8
0
 62
7
  6
CONTINUOUS
 10
68.0884901532
 20
113.6041800961
 40
0.3952742633
 50
270.0
 51
360.0
  0
ARC
  8
0
 62
7
  6
CONTINUOUS
 10
57.2884901532
 20
117.5441800961
 40
0.3952742633
 50
0.0
 51
90.0
  0
ARC
  8
0
 62
7
  6
CONTINUOUS
 10
54.5484901532
 20
117.5441800961
 40
0.3952742633
 50
90.0
 51
180.0
  0
ARC
  8
0
 62
7
  6
CONTINUOUS
 10
59.9484901532
 20
125.9441800961
 40
0.3952742633
 50
90.0
 51
180.0
  0
ARC
  8
0
 62
7
  6
CONTINUOUS
 10
59.9484901532
 20
122.0041800961
 40
0.3952742633
 50
180.0
 51
270.0
  0
ARC
  8
0
 62
7
  6
CONTINUOUS
 10
54.5484901532
 20
130.4041800961
 40
0.3952742633
 50
180.0
 51
270.0
  0
ARC
  8
0
 62
7
  6
CONTINUOUS
 10
57.2884901532
 20
130.4041800961
 40
0.3952742633
 50
270.0
 51
360.0
  0
ARC
  8
0
 62
7
  6
CONTINUOUS
 10
59.9484901532
 20
117.5441800961
 40
0.3952742633
 50
90.0
 51
180.0
  0
ARC
  8
0
 62
7
  6
CONTINUOUS
 10
59.9484901532
 20
130.4041800961
 40
0.3952742633
 50
180.0
 51
270.0
  0
ARC
  8
0
 62
7
  6
CONTINUOUS
 10
57.2884901532
 20
151.1441800961
 40
0.5
 50
0.0
 51
90.0
  0
ARC
  8
0
 62
7
  6
CONTINUOUS
 10
54.5484901532
 20
151.1441800961
 40
0.5
 50
90.0
 51
180.0
  0
ARC
  8
0
 62
7
  6
CONTINUOUS
 10
54.5484901532
 20
147.2041800961
 40
0.5
 50
180.0
 51
270.0
  0
ARC
  8
0
 62
7
  6
CONTINUOUS
 10
57.2884901532
 20
147.2041800961
 40
0.5
 50
270.0
 51
360.0
  0
ARC
  8
0
 62
7
  6
CONTINUOUS
 10
57.2884901532
 20
134.3441800961
 40
0.3952742633
 50
0.0
 51
90.0
  0
ARC
  8
0
 62
7
  6
CONTINUOUS
 10
54.5484901532
 20
134.3441800961
 40
0.3952742633
 50
90.0
 51
180.0
  0
ARC
  8
0
 62
7
  6
CONTINUOUS
 10
59.9484901532
 20
142.7441800961
 40
0.3952742633
 50
90.0
 51
180.0
  0
ARC
  8
0
 62
7
  6
CONTINUOUS
 10
59.9484901532
 20
138.8041800961
 40
0.3952742633
 50
180.0
 51
270.0
  0
ARC
  8
0
 62
7
  6
CONTINUOUS
 10
59.9484901532
 20
134.3441800961
 40
0.3952742633
 50
90.0
 51
180.0
  0
ARC
  8
0
 62
7
  6
CONTINUOUS
 10
62.6884901532
 20
125.9441800961
 40
0.3952742633
 50
0.0
 51
90.0
  0
ARC
  8
0
 62
7
  6
CONTINUOUS
 10
62.6884901532
 20
122.0041800961
 40
0.3952742633
 50
270.0
 51
360.0
  0
ARC
  8
0
 62
7
  6
CONTINUOUS
 10
62.6884901532
 20
117.5441800961
 40
0.3952742633
 50
0.0
 51
90.0
  0
ARC
  8
0
 62
7
  6
CONTINUOUS
 10
68.0884901532
 20
125.9441800961
 40
0.3952742633
 50
0.0
 51
90.0
  0
ARC
  8
0
 62
7
  6
CONTINUOUS
 10
65.3484901532
 20
125.9441800961
 40
0.3952742633
 50
90.0
 51
180.0
  0
ARC
  8
0
 62
7
  6
CONTINUOUS
 10
65.3484901532
 20
122.0041800961
 40
0.3952742633
 50
180.0
 51
270.0
  0
ARC
  8
0
 62
7
  6
CONTINUOUS
 10
68.0884901532
 20
122.0041800961
 40
0.3952742633
 50
270.0
 51
360.0
  0
ARC
  8
0
 62
7
  6
CONTINUOUS
 10
62.6884901532
 20
130.4041800961
 40
0.3952742633
 50
270.0
 51
360.0
  0
ARC
  8
0
 62
7
  6
CONTINUOUS
 10
68.0884901532
 20
117.5441800961
 40
0.3952742633
 50
0.0
 51
90.0
  0
ARC
  8
0
 62
7
  6
CONTINUOUS
 10
65.3484901532
 20
117.5441800961
 40
0.3952742633
 50
90.0
 51
180.0
  0
ARC
  8
0
 62
7
  6
CONTINUOUS
 10
65.3484901532
 20
130.4041800961
 40
0.3952742633
 50
180.0
 51
270.0
  0
ARC
  8
0
 62
7
  6
CONTINUOUS
 10
68.0884901532
 20
130.4041800961
 40
0.3952742633
 50
270.0
 51
360.0
  0
ARC
  8
0
 62
7
  6
CONTINUOUS
 10
62.6884901532
 20
142.7441800961
 40
0.3952742633
 50
0.0
 51
90.0
  0
ARC
  8
0
 62
7
  6
CONTINUOUS
 10
62.6884901532
 20
138.8041800961
 40
0.3952742633
 50
270.0
 51
360.0
  0
ARC
  8
0
 62
7
  6
CONTINUOUS
 10
62.6884901532
 20
134.3441800961
 40
0.3952742633
 50
0.0
 51
90.0
  0
ARC
  8
0
 62
7
  6
CONTINUOUS
 10
68.0884901532
 20
142.7441800961
 40
0.3952742633
 50
0.0
 51
90.0
  0
ARC
  8
0
 62
7
  6
CONTINUOUS
 10
65.3484901532
 20
142.7441800961
 40
0.3952742633
 50
90.0
 51
180.0
  0
ARC
  8
0
 62
7
  6
CONTINUOUS
 10
65.3484901532
 20
138.8041800961
 40
0.3952742633
 50
180.0
 51
270.0
  0
ARC
  8
0
 62
7
  6
CONTINUOUS
 10
68.0884901532
 20
138.8041800961
 40
0.3952742633
 50
270.0
 51
360.0
  0
ARC
  8
0
 62
7
  6
CONTINUOUS
 10
68.0884901532
 20
134.3441800961
 40
0.3952742633
 50
0.0
 51
90.0
  0
ARC
  8
0
 62
7
  6
CONTINUOUS
 10
65.3484901532
 20
134.3441800961
 40
0.3952742633
 50
90.0
 51
180.0
  0
ARC
  8
0
 62
7
  6
CONTINUOUS
 10
68.0884901532
 20
151.1441800961
 40
0.3952742633
 50
0.0
 51
90.0
  0
ARC
  8
0
 62
7
  6
CONTINUOUS
 10
65.3484901532
 20
151.1441800961
 40
0.3952742633
 50
90.0
 51
180.0
  0
ARC
  8
0
 62
7
  6
CONTINUOUS
 10
65.3484901532
 20
147.2041800961
 40
0.3952742633
 50
180.0
 51
270.0
  0
ARC
  8
0
 62
7
  6
CONTINUOUS
 10
68.0884901532
 20
147.2041800961
 40
0.3952742633
 50
270.0
 51
360.0
  0
ARC
  8
0
 62
7
  6
CONTINUOUS
 10
35.7184901532
 20
159.8742780961
 40
0.2
 50
89.9999641985
 51
180.0
  0
ARC
  8
0
 62
7
  6
CONTINUOUS
 10
35.7184901532
 20
155.2742780961
 40
0.2
 50
180.0
 51
270.0
  0
ARC
  8
0
 62
7
  6
CONTINUOUS
 10
35.7184901532
 20
188.8742780961
 40
0.2
 50
180.0
 51
270.0000353501
  0
ARC
  8
0
 62
7
  6
CONTINUOUS
 10
35.7184901532
 20
176.6742780961
 40
0.2
 50
89.9999641985
 51
180.0
  0
ARC
  8
0
 62
7
  6
CONTINUOUS
 10
35.7184901532
 20
172.0742780961
 40
0.2
 50
180.0
 51
270.0000353501
  0
ARC
  8
0
 62
7
  6
CONTINUOUS
 10
44.0184901532
 20
155.2742780961
 40
1.8
 50
197.7189318734
 51
342.2810681266
  0
ARC
  8
0
 62
7
  6
CONTINUOUS
 10
44.0184901532
 20
159.8742780961
 40
1.8
 50
17.7189318734
 51
162.2810681266
  0
ARC
  8
0
 62
7
  6
CONTINUOUS
 10
47.2030351532
 20
154.0742780961
 40
1.0
 50
0.0
 51
90.0
  0
ARC
  8
0
 62
7
  6
CONTINUOUS
 10
47.2030351532
 20
161.0742780961
 40
1.0
 50
270.0
 51
360.0
  0
ARC
  8
0
 62
7
  6
CONTINUOUS
 10
47.2030351532
 20
170.8742780961
 40
1.0
 50
0.0
 51
90.0
  0
ARC
  8
0
 62
7
  6
CONTINUOUS
 10
46.2093803832
 20
154.5742780961
 40
0.5
 50
90.0
 51
162.2810681266
  0
ARC
  8
0
 62
7
  6
CONTINUOUS
 10
41.8275999232
 20
171.3742780961
 40
0.5
 50
17.7189318734
 51
90.0
  0
ARC
  8
0
 62
7
  6
CONTINUOUS
 10
46.2093803832
 20
171.3742780961
 40
0.5
 50
90.0
 51
162.2810681266
  0
ARC
  8
0
 62
7
  6
CONTINUOUS
 10
46.2093803832
 20
160.5742780961
 40
0.5
 50
197.7189318734
 51
270.0
  0
ARC
  8
0
 62
7
  6
CONTINUOUS
 10
41.8275999232
 20
160.5742780961
 40
0.5
 50
270.0
 51
342.2810681266
  0
ARC
  8
0
 62
7
  6
CONTINUOUS
 10
41.8275999232
 20
154.5742780961
 40
0.5
 50
17.7189318734
 51
90.0
  0
ARC
  8
0
 62
7
  6
CONTINUOUS
 10
44.0184901532
 20
172.0742780961
 40
1.8
 50
197.7189318734
 51
342.2810681266
  0
ARC
  8
0
 62
7
  6
CONTINUOUS
 10
44.0184901532
 20
176.6742780961
 40
1.8
 50
17.7189318734
 51
162.2810681266
  0
ARC
  8
0
 62
7
  6
CONTINUOUS
 10
44.0184901532
 20
188.8742780961
 40
1.8
 50
197.7189318734
 51
342.2810681266
  0
ARC
  8
0
 62
7
  6
CONTINUOUS
 10
47.2030351532
 20
177.8742780961
 40
1.0
 50
270.0
 51
360.0
  0
ARC
  8
0
 62
7
  6
CONTINUOUS
 10
47.2030351532
 20
187.6742780961
 40
1.0
 50
0.0
 51
90.0
  0
ARC
  8
0
 62
7
  6
CONTINUOUS
 10
41.8275999232
 20
177.3742780961
 40
0.5
 50
270.0
 51
342.2810681266
  0
ARC
  8
0
 62
7
  6
CONTINUOUS
 10
41.8275999232
 20
188.1742780961
 40
0.5
 50
17.7189318734
 51
90.0
  0
ARC
  8
0
 62
7
  6
CONTINUOUS
 10
46.2093803832
 20
188.1742780961
 40
0.5
 50
90.0
 51
162.2810681266
  0
ARC
  8
0
 62
7
  6
CONTINUOUS
 10
46.2093803832
 20
177.3742780961
 40
0.5
 50
197.7189318734
 51
270.0
  0
ARC
  8
0
 62
7
  6
CONTINUOUS
 10
35.7184901532
 20
205.6742780961
 40
0.2
 50
180.0
 51
270.0
  0
ARC
  8
0
 62
7
  6
CONTINUOUS
 10
35.7184901532
 20
193.4742780961
 40
0.2
 50
89.9999641985
 51
180.0
  0
ARC
  8
0
 62
7
  6
CONTINUOUS
 10
35.7184901532
 20
222.4742780961
 40
0.2
 50
180.0
 51
270.0000353487
  0
ARC
  8
0
 62
7
  6
CONTINUOUS
 10
35.7184901532
 20
210.2742780961
 40
0.2
 50
89.9999641985
 51
180.0
  0
ARC
  8
0
 62
7
  6
CONTINUOUS
 10
44.0184901532
 20
193.4742780961
 40
1.8
 50
17.7189318734
 51
162.2810681266
  0
ARC
  8
0
 62
7
  6
CONTINUOUS
 10
44.0184901532
 20
205.6742780961
 40
1.8
 50
197.7189318734
 51
342.2810681266
  0
ARC
  8
0
 62
7
  6
CONTINUOUS
 10
47.2030351532
 20
194.6742780961
 40
1.0
 50
270.0
 51
360.0
  0
ARC
  8
0
 62
7
  6
CONTINUOUS
 10
47.2030351532
 20
204.4742780961
 40
1.0
 50
0.0
 51
90.0
  0
ARC
  8
0
 62
7
  6
CONTINUOUS
 10
41.8275999232
 20
204.9742780961
 40
0.5
 50
17.7189318734
 51
90.0
  0
ARC
  8
0
 62
7
  6
CONTINUOUS
 10
46.2093803832
 20
204.9742780961
 40
0.5
 50
90.0
 51
162.2810681266
  0
ARC
  8
0
 62
7
  6
CONTINUOUS
 10
41.8275999232
 20
194.1742780961
 40
0.5
 50
270.0
 51
342.2810681266
  0
ARC
  8
0
 62
7
  6
CONTINUOUS
 10
46.2093803832
 20
194.1742780961
 40
0.5
 50
197.7189318734
 51
270.0
  0
ARC
  8
0
 62
7
  6
CONTINUOUS
 10
44.0184901532
 20
210.2742780961
 40
1.8
 50
17.7189318734
 51
162.2810681266
  0
ARC
  8
0
 62
7
  6
CONTINUOUS
 10
41.8275999232
 20
210.9742780961
 40
0.5
 50
270.0
 51
342.2810681266
  0
ARC
  8
0
 62
7
  6
CONTINUOUS
 10
44.0184901532
 20
222.4742780961
 40
1.8
 50
197.7189318734
 51
342.2810681266
  0
ARC
  8
0
 62
7
  6
CONTINUOUS
 10
41.8275999232
 20
221.7742780961
 40
0.5
 50
17.7189318734
 51
90.0
  0
ARC
  8
0
 62
7
  6
CONTINUOUS
 10
47.2030351532
 20
211.4742780961
 40
1.0
 50
270.0
 51
360.0
  0
ARC
  8
0
 62
7
  6
CONTINUOUS
 10
46.2093803832
 20
210.9742780961
 40
0.5
 50
197.7189318734
 51
270.0
  0
ARC
  8
0
 62
7
  6
CONTINUOUS
 10
47.2030351532
 20
221.2742780961
 40
1.0
 50
0.0
 51
90.0
  0
ARC
  8
0
 62
7
  6
CONTINUOUS
 10
46.2093803832
 20
221.7742780961
 40
0.5
 50
90.0
 51
162.2810681266
  0
ARC
  8
0
 62
7
  6
CONTINUOUS
 10
59.9484901532
 20
159.5441800961
 40
0.5
 50
90.0
 51
180.0
  0
ARC
  8
0
 62
7
  6
CONTINUOUS
 10
59.9484901532
 20
155.6041800961
 40
0.5
 50
180.0
 51
270.0
  0
ARC
  8
0
 62
7
  6
CONTINUOUS
 10
57.2884901532
 20
167.9441800961
 40
0.3952742633
 50
0.0
 51
90.0
  0
ARC
  8
0
 62
7
  6
CONTINUOUS
 10
54.5484901532
 20
167.9441800961
 40
0.3952742633
 50
90.0
 51
180.0
  0
ARC
  8
0
 62
7
  6
CONTINUOUS
 10
54.5484901532
 20
164.0041800961
 40
0.3952742633
 50
180.0
 51
270.0
  0
ARC
  8
0
 62
7
  6
CONTINUOUS
 10
57.2884901532
 20
164.0041800961
 40
0.3952742633
 50
270.0
 51
360.0
  0
ARC
  8
0
 62
7
  6
CONTINUOUS
 10
59.9484901532
 20
167.9441800961
 40
0.3952742633
 50
90.0
 51
180.0
  0
ARC
  8
0
 62
7
  6
CONTINUOUS
 10
59.9484901532
 20
164.0041800961
 40
0.3952742633
 50
180.0
 51
270.0
  0
ARC
  8
0
 62
7
  6
CONTINUOUS
 10
59.9484901532
 20
176.3441800961
 40
0.3952742633
 50
90.0
 51
180.0
  0
ARC
  8
0
 62
7
  6
CONTINUOUS
 10
59.9484901532
 20
172.4041800961
 40
0.3952742633
 50
180.0
 51
270.0
  0
ARC
  8
0
 62
7
  6
CONTINUOUS
 10
57.2884901532
 20
184.7441800961
 40
0.3952742633
 50
0.0
 51
90.0
  0
ARC
  8
0
 62
7
  6
CONTINUOUS
 10
54.5484901532
 20
184.7441800961
 40
0.3952742633
 50
90.0
 51
180.0
  0
ARC
  8
0
 62
7
  6
CONTINUOUS
 10
54.5484901532
 20
180.8041800961
 40
0.3952742633
 50
180.0
 51
270.0
  0
ARC
  8
0
 62
7
  6
CONTINUOUS
 10
57.2884901532
 20
180.8041800961
 40
0.3952742633
 50
270.0
 51
360.0
  0
ARC
  8
0
 62
7
  6
CONTINUOUS
 10
59.9484901532
 20
189.2041800961
 40
0.3952742633
 50
180.0
 51
270.0
  0
ARC
  8
0
 62
7
  6
CONTINUOUS
 10
59.9484901532
 20
184.7441800961
 40
0.3952742633
 50
90.0
 51
180.0
  0
ARC
  8
0
 62
7
  6
CONTINUOUS
 10
59.9484901532
 20
180.8041800961
 40
0.3952742633
 50
180.0
 51
270.0
  0
ARC
  8
0
 62
7
  6
CONTINUOUS
 10
62.6884901532
 20
159.5441800961
 40
0.5
 50
0.0
 51
90.0
  0
ARC
  8
0
 62
7
  6
CONTINUOUS
 10
62.6884901532
 20
155.6041800961
 40
0.5
 50
270.0
 51
360.0
  0
ARC
  8
0
 62
7
  6
CONTINUOUS
 10
68.0884901532
 20
159.5441800961
 40
0.3952742633
 50
0.0
 51
90.0
  0
ARC
  8
0
 62
7
  6
CONTINUOUS
 10
65.3484901532
 20
159.5441800961
 40
0.3952742633
 50
90.0
 51
180.0
  0
ARC
  8
0
 62
7
  6
CONTINUOUS
 10
65.3484901532
 20
155.6041800961
 40
0.3952742633
 50
180.0
 51
270.0
  0
ARC
  8
0
 62
7
  6
CONTINUOUS
 10
68.0884901532
 20
155.6041800961
 40
0.3952742633
 50
270.0
 51
360.0
  0
ARC
  8
0
 62
7
  6
CONTINUOUS
 10
62.6884901532
 20
167.9441800961
 40
0.3952742633
 50
0.0
 51
90.0
  0
ARC
  8
0
 62
7
  6
CONTINUOUS
 10
62.6884901532
 20
164.0041800961
 40
0.3952742633
 50
270.0
 51
360.0
  0
ARC
  8
0
 62
7
  6
CONTINUOUS
 10
68.0884901532
 20
167.9441800961
 40
0.3952742633
 50
0.0
 51
90.0
  0
ARC
  8
0
 62
7
  6
CONTINUOUS
 10
65.3484901532
 20
167.9441800961
 40
0.3952742633
 50
90.0
 51
180.0
  0
ARC
  8
0
 62
7
  6
CONTINUOUS
 10
65.3484901532
 20
164.0041800961
 40
0.3952742633
 50
180.0
 51
270.0
  0
ARC
  8
0
 62
7
  6
CONTINUOUS
 10
68.0884901532
 20
164.0041800961
 40
0.3952742633
 50
270.0
 51
360.0
  0
ARC
  8
0
 62
7
  6
CONTINUOUS
 10
62.6884901532
 20
176.3441800961
 40
0.3952742633
 50
0.0
 51
90.0
  0
ARC
  8
0
 62
7
  6
CONTINUOUS
 10
62.6884901532
 20
172.4041800961
 40
0.3952742633
 50
270.0
 51
360.0
  0
ARC
  8
0
 62
7
  6
CONTINUOUS
 10
62.6884901532
 20
189.2041800961
 40
0.3952742633
 50
270.0
 51
360.0
  0
ARC
  8
0
 62
7
  6
CONTINUOUS
 10
68.0884901532
 20
176.3441800961
 40
0.3952742633
 50
0.0
 51
90.0
  0
ARC
  8
0
 62
7
  6
CONTINUOUS
 10
65.3484901532
 20
176.3441800961
 40
0.3952742633
 50
90.0
 51
180.0
  0
ARC
  8
0
 62
7
  6
CONTINUOUS
 10
65.3484901532
 20
172.4041800961
 40
0.3952742633
 50
180.0
 51
270.0
  0
ARC
  8
0
 62
7
  6
CONTINUOUS
 10
68.0884901532
 20
172.4041800961
 40
0.3952742633
 50
270.0
 51
360.0
  0
ARC
  8
0
 62
7
  6
CONTINUOUS
 10
62.6884901532
 20
184.7441800961
 40
0.3952742633
 50
0.0
 51
90.0
  0
ARC
  8
0
 62
7
  6
CONTINUOUS
 10
62.6884901532
 20
180.8041800961
 40
0.3952742633
 50
270.0
 51
360.0
  0
ARC
  8
0
 62
7
  6
CONTINUOUS
 10
65.3484901532
 20
189.2041800961
 40
0.3952742633
 50
180.0
 51
270.0
  0
ARC
  8
0
 62
7
  6
CONTINUOUS
 10
68.0884901532
 20
189.2041800961
 40
0.3952742633
 50
270.0
 51
360.0
  0
ARC
  8
0
 62
7
  6
CONTINUOUS
 10
68.0884901532
 20
184.7441800961
 40
0.3952742633
 50
0.0
 51
90.0
  0
ARC
  8
0
 62
7
  6
CONTINUOUS
 10
65.3484901532
 20
184.7441800961
 40
0.3952742633
 50
90.0
 51
180.0
  0
ARC
  8
0
 62
7
  6
CONTINUOUS
 10
65.3484901532
 20
180.8041800961
 40
0.3952742633
 50
180.0
 51
270.0
  0
ARC
  8
0
 62
7
  6
CONTINUOUS
 10
68.0884901532
 20
180.8041800961
 40
0.3952742633
 50
270.0
 51
360.0
  0
ARC
  8
0
 62
7
  6
CONTINUOUS
 10
59.9484901532
 20
193.1441800961
 40
0.3952742633
 50
90.0
 51
180.0
  0
ARC
  8
0
 62
7
  6
CONTINUOUS
 10
57.2884901532
 20
201.5441800961
 40
0.3952742633
 50
0.0
 51
90.0
  0
ARC
  8
0
 62
7
  6
CONTINUOUS
 10
54.5484901532
 20
201.5441800961
 40
0.3952742633
 50
90.0
 51
180.0
  0
ARC
  8
0
 62
7
  6
CONTINUOUS
 10
54.5484901532
 20
197.6041800961
 40
0.3952742633
 50
180.0
 51
270.0
  0
ARC
  8
0
 62
7
  6
CONTINUOUS
 10
57.2884901532
 20
197.6041800961
 40
0.3952742633
 50
270.0
 51
360.0
  0
ARC
  8
0
 62
7
  6
CONTINUOUS
 10
59.9484901532
 20
206.0041800961
 40
0.3952742633
 50
180.0
 51
270.0
  0
ARC
  8
0
 62
7
  6
CONTINUOUS
 10
59.9484901532
 20
209.9441800961
 40
0.3952742633
 50
90.0
 51
180.0
  0
ARC
  8
0
 62
7
  6
CONTINUOUS
 10
57.2884901532
 20
218.3441800961
 40
0.3952742633
 50
0.0
 51
90.0
  0
ARC
  8
0
 62
7
  6
CONTINUOUS
 10
54.5484901532
 20
218.3441800961
 40
0.3952742633
 50
90.0
 51
180.0
  0
ARC
  8
0
 62
7
  6
CONTINUOUS
 10
54.5484901532
 20
214.4041800961
 40
0.3952742633
 50
180.0
 51
270.0
  0
ARC
  8
0
 62
7
  6
CONTINUOUS
 10
57.2884901532
 20
214.4041800961
 40
0.3952742633
 50
270.0
 51
360.0
  0
ARC
  8
0
 62
7
  6
CONTINUOUS
 10
59.9484901532
 20
226.7441800961
 40
0.3952742633
 50
90.0
 51
180.0
  0
ARC
  8
0
 62
7
  6
CONTINUOUS
 10
59.9484901532
 20
222.8041800961
 40
0.3952742633
 50
180.0
 51
270.0
  0
ARC
  8
0
 62
7
  6
CONTINUOUS
 10
59.9484901532
 20
218.3441800961
 40
0.3952742633
 50
90.0
 51
180.0
  0
ARC
  8
0
 62
7
  6
CONTINUOUS
 10
59.9484901532
 20
214.4041800961
 40
0.3952742633
 50
180.0
 51
270.0
  0
ARC
  8
0
 62
7
  6
CONTINUOUS
 10
62.6884901532
 20
193.1441800961
 40
0.3952742633
 50
0.0
 51
90.0
  0
ARC
  8
0
 62
7
  6
CONTINUOUS
 10
62.6884901532
 20
206.0041800961
 40
0.3952742633
 50
270.0
 51
360.0
  0
ARC
  8
0
 62
7
  6
CONTINUOUS
 10
68.0884901532
 20
193.1441800961
 40
0.3952742633
 50
0.0
 51
90.0
  0
ARC
  8
0
 62
7
  6
CONTINUOUS
 10
65.3484901532
 20
193.1441800961
 40
0.3952742633
 50
90.0
 51
180.0
  0
ARC
  8
0
 62
7
  6
CONTINUOUS
 10
65.3484901532
 20
206.0041800961
 40
0.3952742633
 50
180.0
 51
270.0
  0
ARC
  8
0
 62
7
  6
CONTINUOUS
 10
68.0884901532
 20
206.0041800961
 40
0.3952742633
 50
270.0
 51
360.0
  0
ARC
  8
0
 62
7
  6
CONTINUOUS
 10
68.0884901532
 20
201.5441800961
 40
0.3952742633
 50
0.0
 51
90.0
  0
ARC
  8
0
 62
7
  6
CONTINUOUS
 10
65.3484901532
 20
201.5441800961
 40
0.3952742633
 50
90.0
 51
180.0
  0
ARC
  8
0
 62
7
  6
CONTINUOUS
 10
65.3484901532
 20
197.6041800961
 40
0.3952742633
 50
180.0
 51
270.0
  0
ARC
  8
0
 62
7
  6
CONTINUOUS
 10
68.0884901532
 20
197.6041800961
 40
0.3952742633
 50
270.0
 51
360.0
  0
ARC
  8
0
 62
7
  6
CONTINUOUS
 10
62.6884901532
 20
209.9441800961
 40
0.3952742633
 50
0.0
 51
90.0
  0
ARC
  8
0
 62
7
  6
CONTINUOUS
 10
62.6884901532
 20
226.7441800961
 40
0.3952742633
 50
0.0
 51
90.0
  0
ARC
  8
0
 62
7
  6
CONTINUOUS
 10
62.6884901532
 20
222.8041800961
 40
0.3952742633
 50
270.0
 51
360.0
  0
ARC
  8
0
 62
7
  6
CONTINUOUS
 10
68.0884901532
 20
209.9441800961
 40
0.3952742633
 50
0.0
 51
90.0
  0
ARC
  8
0
 62
7
  6
CONTINUOUS
 10
65.3484901532
 20
209.9441800961
 40
0.3952742633
 50
90.0
 51
180.0
  0
ARC
  8
0
 62
7
  6
CONTINUOUS
 10
62.6884901532
 20
218.3441800961
 40
0.3952742633
 50
0.0
 51
90.0
  0
ARC
  8
0
 62
7
  6
CONTINUOUS
 10
62.6884901532
 20
214.4041800961
 40
0.3952742633
 50
270.0
 51
360.0
  0
ARC
  8
0
 62
7
  6
CONTINUOUS
 10
68.0884901532
 20
226.7441800961
 40
0.3952742633
 50
0.0
 51
90.0
  0
ARC
  8
0
 62
7
  6
CONTINUOUS
 10
65.3484901532
 20
226.7441800961
 40
0.3952742633
 50
90.0
 51
180.0
  0
ARC
  8
0
 62
7
  6
CONTINUOUS
 10
65.3484901532
 20
222.8041800961
 40
0.3952742633
 50
180.0
 51
270.0
  0
ARC
  8
0
 62
7
  6
CONTINUOUS
 10
68.0884901532
 20
222.8041800961
 40
0.3952742633
 50
270.0
 51
360.0
  0
ARC
  8
0
 62
7
  6
CONTINUOUS
 10
68.0884901532
 20
218.3441800961
 40
0.3952742633
 50
0.0
 51
90.0
  0
ARC
  8
0
 62
7
  6
CONTINUOUS
 10
65.3484901532
 20
218.3441800961
 40
0.3952742633
 50
90.0
 51
180.0
  0
ARC
  8
0
 62
7
  6
CONTINUOUS
 10
65.3484901532
 20
214.4041800961
 40
0.3952742633
 50
180.0
 51
270.0
  0
ARC
  8
0
 62
7
  6
CONTINUOUS
 10
68.0884901532
 20
214.4041800961
 40
0.3952742633
 50
270.0
 51
360.0
  0
ARC
  8
0
 62
7
  6
CONTINUOUS
 10
73.4884901532
 20
92.3441800961
 40
0.3952742633
 50
0.0
 51
90.0
  0
ARC
  8
0
 62
7
  6
CONTINUOUS
 10
70.7484901532
 20
92.3441800961
 40
0.3952742633
 50
90.0
 51
180.0
  0
ARC
  8
0
 62
7
  6
CONTINUOUS
 10
70.7484901532
 20
88.4041800961
 40
0.3952742633
 50
180.0
 51
270.0
  0
ARC
  8
0
 62
7
  6
CONTINUOUS
 10
73.4884901532
 20
88.4041800961
 40
0.3952742633
 50
270.0
 51
360.0
  0
ARC
  8
0
 62
7
  6
CONTINUOUS
 10
73.4884901532
 20
83.9441800961
 40
0.3952742633
 50
0.0
 51
90.0
  0
ARC
  8
0
 62
7
  6
CONTINUOUS
 10
70.7484901532
 20
83.9441800961
 40
0.3952742633
 50
90.0
 51
180.0
  0
ARC
  8
0
 62
7
  6
CONTINUOUS
 10
70.7484901532
 20
80.0041800961
 40
0.3952742633
 50
180.0
 51
270.0
  0
ARC
  8
0
 62
7
  6
CONTINUOUS
 10
73.4884901532
 20
80.0041800961
 40
0.3952742633
 50
270.0
 51
360.0
  0
ARC
  8
0
 62
7
  6
CONTINUOUS
 10
76.1484901532
 20
92.3441800961
 40
0.3952742633
 50
90.0
 51
180.0
  0
ARC
  8
0
 62
7
  6
CONTINUOUS
 10
76.1484901532
 20
88.4041800961
 40
0.3952742633
 50
180.0
 51
270.0
  0
ARC
  8
0
 62
7
  6
CONTINUOUS
 10
76.1484901532
 20
83.9441800961
 40
0.3952742633
 50
90.0
 51
180.0
  0
ARC
  8
0
 62
7
  6
CONTINUOUS
 10
76.1484901532
 20
80.0041800961
 40
0.3952742633
 50
180.0
 51
270.0
  0
ARC
  8
0
 62
7
  6
CONTINUOUS
 10
73.4884901532
 20
109.1441800961
 40
0.3952742633
 50
0.0
 51
90.0
  0
ARC
  8
0
 62
7
  6
CONTINUOUS
 10
70.7484901532
 20
109.1441800961
 40
0.3952742633
 50
90.0
 51
180.0
  0
ARC
  8
0
 62
7
  6
CONTINUOUS
 10
70.7484901532
 20
105.2041800961
 40
0.3952742633
 50
180.0
 51
270.0
  0
ARC
  8
0
 62
7
  6
CONTINUOUS
 10
73.4884901532
 20
105.2041800961
 40
0.3952742633
 50
270.0
 51
360.0
  0
ARC
  8
0
 62
7
  6
CONTINUOUS
 10
73.4884901532
 20
100.7441800961
 40
0.3952742633
 50
0.0
 51
90.0
  0
ARC
  8
0
 62
7
  6
CONTINUOUS
 10
70.7484901532
 20
100.7441800961
 40
0.3952742633
 50
90.0
 51
180.0
  0
ARC
  8
0
 62
7
  6
CONTINUOUS
 10
70.7484901532
 20
96.8041800961
 40
0.3952742633
 50
180.0
 51
270.0
  0
ARC
  8
0
 62
7
  6
CONTINUOUS
 10
73.4884901532
 20
96.8041800961
 40
0.3952742633
 50
270.0
 51
360.0
  0
ARC
  8
0
 62
7
  6
CONTINUOUS
 10
70.7484901532
 20
113.6041800961
 40
0.3952742633
 50
180.0
 51
270.0
  0
ARC
  8
0
 62
7
  6
CONTINUOUS
 10
73.4884901532
 20
113.6041800961
 40
0.3952742633
 50
270.0
 51
360.0
  0
ARC
  8
0
 62
7
  6
CONTINUOUS
 10
76.1484901532
 20
100.7441800961
 40
0.3952742633
 50
90.0
 51
180.0
  0
ARC
  8
0
 62
7
  6
CONTINUOUS
 10
76.1484901532
 20
96.8041800961
 40
0.3952742633
 50
180.0
 51
270.0
  0
ARC
  8
0
 62
7
  6
CONTINUOUS
 10
76.1484901532
 20
113.6041800961
 40
0.3952742633
 50
180.0
 51
270.0
  0
ARC
  8
0
 62
7
  6
CONTINUOUS
 10
78.8884901532
 20
92.3441800961
 40
0.3952742633
 50
0.0
 51
90.0
  0
ARC
  8
0
 62
7
  6
CONTINUOUS
 10
78.8884901532
 20
88.4041800961
 40
0.3952742633
 50
270.0
 51
360.0
  0
ARC
  8
0
 62
7
  6
CONTINUOUS
 10
78.8884901532
 20
83.9441800961
 40
0.3952742633
 50
0.0
 51
90.0
  0
ARC
  8
0
 62
7
  6
CONTINUOUS
 10
78.8884901532
 20
80.0041800961
 40
0.3952742633
 50
270.0
 51
360.0
  0
ARC
  8
0
 62
7
  6
CONTINUOUS
 10
84.2884901532
 20
92.3441800961
 40
0.3952742633
 50
0.0
 51
90.0
  0
ARC
  8
0
 62
7
  6
CONTINUOUS
 10
81.5484901532
 20
92.3441800961
 40
0.3952742633
 50
90.0
 51
180.0
  0
ARC
  8
0
 62
7
  6
CONTINUOUS
 10
81.5484901532
 20
88.4041800961
 40
0.3952742633
 50
180.0
 51
270.0
  0
ARC
  8
0
 62
7
  6
CONTINUOUS
 10
84.2884901532
 20
88.4041800961
 40
0.3952742633
 50
270.0
 51
360.0
  0
ARC
  8
0
 62
7
  6
CONTINUOUS
 10
78.8884901532
 20
100.7441800961
 40
0.3952742633
 50
0.0
 51
90.0
  0
ARC
  8
0
 62
7
  6
CONTINUOUS
 10
78.8884901532
 20
96.8041800961
 40
0.3952742633
 50
270.0
 51
360.0
  0
ARC
  8
0
 62
7
  6
CONTINUOUS
 10
84.2884901532
 20
109.1441800961
 40
0.3952742633
 50
0.0
 51
90.0
  0
ARC
  8
0
 62
7
  6
CONTINUOUS
 10
81.5484901532
 20
109.1441800961
 40
0.3952742633
 50
90.0
 51
180.0
  0
ARC
  8
0
 62
7
  6
CONTINUOUS
 10
81.5484901532
 20
105.2041800961
 40
0.3952742633
 50
180.0
 51
270.0
  0
ARC
  8
0
 62
7
  6
CONTINUOUS
 10
84.2884901532
 20
105.2041800961
 40
0.3952742633
 50
270.0
 51
360.0
  0
ARC
  8
0
 62
7
  6
CONTINUOUS
 10
78.8884901532
 20
113.6041800961
 40
0.3952742633
 50
270.0
 51
360.0
  0
ARC
  8
0
 62
7
  6
CONTINUOUS
 10
73.4884901532
 20
125.9441800961
 40
0.3952742633
 50
0.0
 51
90.0
  0
ARC
  8
0
 62
7
  6
CONTINUOUS
 10
70.7484901532
 20
125.9441800961
 40
0.3952742633
 50
90.0
 51
180.0
  0
ARC
  8
0
 62
7
  6
CONTINUOUS
 10
70.7484901532
 20
122.0041800961
 40
0.3952742633
 50
180.0
 51
270.0
  0
ARC
  8
0
 62
7
  6
CONTINUOUS
 10
73.4884901532
 20
122.0041800961
 40
0.3952742633
 50
270.0
 51
360.0
  0
ARC
  8
0
 62
7
  6
CONTINUOUS
 10
73.4884901532
 20
117.5441800961
 40
0.3952742633
 50
0.0
 51
90.0
  0
ARC
  8
0
 62
7
  6
CONTINUOUS
 10
70.7484901532
 20
117.5441800961
 40
0.3952742633
 50
90.0
 51
180.0
  0
ARC
  8
0
 62
7
  6
CONTINUOUS
 10
76.1484901532
 20
125.9441800961
 40
0.3952742633
 50
90.0
 51
180.0
  0
ARC
  8
0
 62
7
  6
CONTINUOUS
 10
76.1484901532
 20
122.0041800961
 40
0.3952742633
 50
180.0
 51
270.0
  0
ARC
  8
0
 62
7
  6
CONTINUOUS
 10
70.7484901532
 20
130.4041800961
 40
0.3952742633
 50
180.0
 51
270.0
  0
ARC
  8
0
 62
7
  6
CONTINUOUS
 10
73.4884901532
 20
130.4041800961
 40
0.3952742633
 50
270.0
 51
360.0
  0
ARC
  8
0
 62
7
  6
CONTINUOUS
 10
76.1484901532
 20
117.5441800961
 40
0.3952742633
 50
90.0
 51
180.0
  0
ARC
  8
0
 62
7
  6
CONTINUOUS
 10
76.1484901532
 20
130.4041800961
 40
0.3952742633
 50
180.0
 51
270.0
  0
ARC
  8
0
 62
7
  6
CONTINUOUS
 10
76.1484901532
 20
151.1441800961
 40
0.5
 50
90.0
 51
180.0
  0
ARC
  8
0
 62
7
  6
CONTINUOUS
 10
76.1484901532
 20
147.2041800961
 40
0.5
 50
180.0
 51
270.0
  0
ARC
  8
0
 62
7
  6
CONTINUOUS
 10
73.4884901532
 20
142.7441800961
 40
0.3952742633
 50
0.0
 51
90.0
  0
ARC
  8
0
 62
7
  6
CONTINUOUS
 10
70.7484901532
 20
142.7441800961
 40
0.3952742633
 50
90.0
 51
180.0
  0
ARC
  8
0
 62
7
  6
CONTINUOUS
 10
70.7484901532
 20
138.8041800961
 40
0.3952742633
 50
180.0
 51
270.0
  0
ARC
  8
0
 62
7
  6
CONTINUOUS
 10
73.4884901532
 20
138.8041800961
 40
0.3952742633
 50
270.0
 51
360.0
  0
ARC
  8
0
 62
7
  6
CONTINUOUS
 10
73.4884901532
 20
134.3441800961
 40
0.3952742633
 50
0.0
 51
90.0
  0
ARC
  8
0
 62
7
  6
CONTINUOUS
 10
70.7484901532
 20
134.3441800961
 40
0.3952742633
 50
90.0
 51
180.0
  0
ARC
  8
0
 62
7
  6
CONTINUOUS
 10
76.1484901532
 20
142.7441800961
 40
0.3952742633
 50
90.0
 51
180.0
  0
ARC
  8
0
 62
7
  6
CONTINUOUS
 10
76.1484901532
 20
138.8041800961
 40
0.3952742633
 50
180.0
 51
270.0
  0
ARC
  8
0
 62
7
  6
CONTINUOUS
 10
73.4884901532
 20
151.1441800961
 40
0.3952742633
 50
0.0
 51
90.0
  0
ARC
  8
0
 62
7
  6
CONTINUOUS
 10
70.7484901532
 20
151.1441800961
 40
0.3952742633
 50
90.0
 51
180.0
  0
ARC
  8
0
 62
7
  6
CONTINUOUS
 10
70.7484901532
 20
147.2041800961
 40
0.3952742633
 50
180.0
 51
270.0
  0
ARC
  8
0
 62
7
  6
CONTINUOUS
 10
73.4884901532
 20
147.2041800961
 40
0.3952742633
 50
270.0
 51
360.0
  0
ARC
  8
0
 62
7
  6
CONTINUOUS
 10
76.1484901532
 20
134.3441800961
 40
0.3952742633
 50
90.0
 51
180.0
  0
ARC
  8
0
 62
7
  6
CONTINUOUS
 10
78.8884901532
 20
125.9441800961
 40
0.3952742633
 50
0.0
 51
90.0
  0
ARC
  8
0
 62
7
  6
CONTINUOUS
 10
78.8884901532
 20
122.0041800961
 40
0.3952742633
 50
270.0
 51
360.0
  0
ARC
  8
0
 62
7
  6
CONTINUOUS
 10
78.8884901532
 20
117.5441800961
 40
0.3952742633
 50
0.0
 51
90.0
  0
ARC
  8
0
 62
7
  6
CONTINUOUS
 10
84.2884901532
 20
125.9441800961
 40
0.3952742633
 50
0.0
 51
90.0
  0
ARC
  8
0
 62
7
  6
CONTINUOUS
 10
81.5484901532
 20
125.9441800961
 40
0.3952742633
 50
90.0
 51
180.0
  0
ARC
  8
0
 62
7
  6
CONTINUOUS
 10
81.5484901532
 20
122.0041800961
 40
0.3952742633
 50
180.0
 51
270.0
  0
ARC
  8
0
 62
7
  6
CONTINUOUS
 10
84.2884901532
 20
122.0041800961
 40
0.3952742633
 50
270.0
 51
360.0
  0
ARC
  8
0
 62
7
  6
CONTINUOUS
 10
78.8884901532
 20
130.4041800961
 40
0.3952742633
 50
270.0
 51
360.0
  0
ARC
  8
0
 62
7
  6
CONTINUOUS
 10
78.8884901532
 20
151.1441800961
 40
0.5
 50
0.0
 51
90.0
  0
ARC
  8
0
 62
7
  6
CONTINUOUS
 10
78.8884901532
 20
147.2041800961
 40
0.5
 50
270.0
 51
360.0
  0
ARC
  8
0
 62
7
  6
CONTINUOUS
 10
78.8884901532
 20
142.7441800961
 40
0.3952742633
 50
0.0
 51
90.0
  0
ARC
  8
0
 62
7
  6
CONTINUOUS
 10
78.8884901532
 20
138.8041800961
 40
0.3952742633
 50
270.0
 51
360.0
  0
ARC
  8
0
 62
7
  6
CONTINUOUS
 10
78.8884901532
 20
134.3441800961
 40
0.3952742633
 50
0.0
 51
90.0
  0
ARC
  8
0
 62
7
  6
CONTINUOUS
 10
84.2884901532
 20
142.7441800961
 40
0.3952742633
 50
0.0
 51
90.0
  0
ARC
  8
0
 62
7
  6
CONTINUOUS
 10
81.5484901532
 20
142.7441800961
 40
0.3952742633
 50
90.0
 51
180.0
  0
ARC
  8
0
 62
7
  6
CONTINUOUS
 10
81.5484901532
 20
138.8041800961
 40
0.3952742633
 50
180.0
 51
270.0
  0
ARC
  8
0
 62
7
  6
CONTINUOUS
 10
84.2884901532
 20
138.8041800961
 40
0.3952742633
 50
270.0
 51
360.0
  0
ARC
  8
0
 62
7
  6
CONTINUOUS
 10
94.8184901532
 20
96.4740820961
 40
1.8
 50
197.7189318734
 51
342.2810681266
  0
ARC
  8
0
 62
7
  6
CONTINUOUS
 10
94.8184901532
 20
84.2740820961
 40
1.8
 50
17.7189318734
 51
162.2810681266
  0
ARC
  8
0
 62
7
  6
CONTINUOUS
 10
91.6339451532
 20
95.2740820961
 40
1.0
 50
90.0
 51
180.0
  0
ARC
  8
0
 62
7
  6
CONTINUOUS
 10
91.6339451532
 20
85.4740820961
 40
1.0
 50
180.0
 51
270.0
  0
ARC
  8
0
 62
7
  6
CONTINUOUS
 10
92.6275999232
 20
95.7740820961
 40
0.5
 50
17.7189318734
 51
90.0
  0
ARC
  8
0
 62
7
  6
CONTINUOUS
 10
97.0093803832
 20
95.7740820961
 40
0.5
 50
90.0
 51
162.2810681266
  0
ARC
  8
0
 62
7
  6
CONTINUOUS
 10
92.6275999232
 20
84.9740820961
 40
0.5
 50
270.0
 51
342.2810681266
  0
ARC
  8
0
 62
7
  6
CONTINUOUS
 10
97.0093803832
 20
84.9740820961
 40
0.5
 50
197.7189318734
 51
270.0
  0
ARC
  8
0
 62
7
  6
CONTINUOUS
 10
94.8184901532
 20
113.2740820961
 40
1.8
 50
197.7189318734
 51
342.2810681266
  0
ARC
  8
0
 62
7
  6
CONTINUOUS
 10
94.8184901532
 20
101.0740820961
 40
1.8
 50
17.7189318734
 51
162.2810681266
  0
ARC
  8
0
 62
7
  6
CONTINUOUS
 10
91.6339451532
 20
112.0740820961
 40
1.0
 50
90.0
 51
180.0
  0
ARC
  8
0
 62
7
  6
CONTINUOUS
 10
91.6339451532
 20
102.2740820961
 40
1.0
 50
180.0
 51
270.0
  0
ARC
  8
0
 62
7
  6
CONTINUOUS
 10
92.6275999232
 20
112.5740820961
 40
0.5
 50
17.7189318734
 51
90.0
  0
ARC
  8
0
 62
7
  6
CONTINUOUS
 10
97.0093803832
 20
112.5740820961
 40
0.5
 50
90.0
 51
162.2810681266
  0
ARC
  8
0
 62
7
  6
CONTINUOUS
 10
92.6275999232
 20
101.7740820961
 40
0.5
 50
270.0
 51
342.2810681266
  0
ARC
  8
0
 62
7
  6
CONTINUOUS
 10
97.0093803832
 20
101.7740820961
 40
0.5
 50
197.7189318734
 51
270.0
  0
ARC
  8
0
 62
7
  6
CONTINUOUS
 10
103.1284901532
 20
96.4640820961
 40
0.19
 50
269.9999761223
 51
360.0
  0
ARC
  8
0
 62
7
  6
CONTINUOUS
 10
103.1284901532
 20
84.2840820961
 40
0.19
 50
0.0000001009
 51
90.0000212765
  0
ARC
  8
0
 62
7
  6
CONTINUOUS
 10
103.1184901532
 20
113.2740820961
 40
0.2
 50
270.0
 51
360.0
  0
ARC
  8
0
 62
7
  6
CONTINUOUS
 10
103.1284901532
 20
101.0840820961
 40
0.19
 50
0.0
 51
90.0
  0
ARC
  8
0
 62
7
  6
CONTINUOUS
 10
94.8184901532
 20
134.6740820961
 40
1.8
 50
17.7189318734
 51
162.2810681266
  0
ARC
  8
0
 62
7
  6
CONTINUOUS
 10
94.8184901532
 20
130.0740820961
 40
1.8
 50
197.7189318734
 51
342.2810681266
  0
ARC
  8
0
 62
7
  6
CONTINUOUS
 10
94.8184901532
 20
117.8740820961
 40
1.8
 50
17.7189318734
 51
162.2810681266
  0
ARC
  8
0
 62
7
  6
CONTINUOUS
 10
91.6339451532
 20
128.8740820961
 40
1.0
 50
90.0
 51
180.0
  0
ARC
  8
0
 62
7
  6
CONTINUOUS
 10
91.6339451532
 20
119.0740820961
 40
1.0
 50
180.0
 51
270.0
  0
ARC
  8
0
 62
7
  6
CONTINUOUS
 10
92.6275999232
 20
129.3740820961
 40
0.5
 50
17.7189318734
 51
90.0
  0
ARC
  8
0
 62
7
  6
CONTINUOUS
 10
97.0093803832
 20
129.3740820961
 40
0.5
 50
90.0
 51
162.2810681266
  0
ARC
  8
0
 62
7
  6
CONTINUOUS
 10
92.6275999232
 20
118.5740820961
 40
0.5
 50
270.0
 51
342.2810681266
  0
ARC
  8
0
 62
7
  6
CONTINUOUS
 10
97.0093803832
 20
118.5740820961
 40
0.5
 50
197.7189318734
 51
270.0
  0
ARC
  8
0
 62
7
  6
CONTINUOUS
 10
94.8184901532
 20
151.4740820961
 40
1.8
 50
17.7189318734
 51
162.2810681266
  0
ARC
  8
0
 62
7
  6
CONTINUOUS
 10
94.8184901532
 20
146.8740820961
 40
1.8
 50
197.7189318734
 51
342.2810681266
  0
ARC
  8
0
 62
7
  6
CONTINUOUS
 10
91.6339451532
 20
152.6740820961
 40
1.0
 50
180.0
 51
270.0
  0
ARC
  8
0
 62
7
  6
CONTINUOUS
 10
91.6339451532
 20
145.6740820961
 40
1.0
 50
90.0
 51
180.0
  0
ARC
  8
0
 62
7
  6
CONTINUOUS
 10
91.6339451532
 20
135.8740820961
 40
1.0
 50
180.0
 51
270.0
  0
ARC
  8
0
 62
7
  6
CONTINUOUS
 10
92.6275999232
 20
146.1740820961
 40
0.5
 50
17.7189318734
 51
90.0
  0
ARC
  8
0
 62
7
  6
CONTINUOUS
 10
92.6275999232
 20
152.1740820961
 40
0.5
 50
270.0
 51
342.2810681266
  0
ARC
  8
0
 62
7
  6
CONTINUOUS
 10
97.0093803832
 20
152.1740820961
 40
0.5
 50
197.7189318734
 51
270.0
  0
ARC
  8
0
 62
7
  6
CONTINUOUS
 10
97.0093803832
 20
135.3740820961
 40
0.5
 50
197.7189318734
 51
270.0
  0
ARC
  8
0
 62
7
  6
CONTINUOUS
 10
92.6275999232
 20
135.3740820961
 40
0.5
 50
270.0
 51
342.2810681266
  0
ARC
  8
0
 62
7
  6
CONTINUOUS
 10
97.0093803832
 20
146.1740820961
 40
0.5
 50
90.0
 51
162.2810681266
  0
ARC
  8
0
 62
7
  6
CONTINUOUS
 10
103.1184901532
 20
134.6740820961
 40
0.2
 50
359.999996747
 51
90.0000242405
  0
ARC
  8
0
 62
7
  6
CONTINUOUS
 10
103.1184901532
 20
130.0740820961
 40
0.2
 50
269.9999748375
 51
360.0
  0
ARC
  8
0
 62
7
  6
CONTINUOUS
 10
103.1184901532
 20
117.8740820961
 40
0.2
 50
0.0
 51
90.0
  0
ARC
  8
0
 62
7
  6
CONTINUOUS
 10
103.1184901532
 20
146.8740820961
 40
0.2
 50
269.9999748375
 51
360.0
  0
ARC
  8
0
 62
7
  6
CONTINUOUS
 10
103.1184901532
 20
151.4740820961
 40
0.2
 50
0.0
 51
90.0
  0
ARC
  8
0
 62
7
  6
CONTINUOUS
 10
73.4884901532
 20
159.5441800961
 40
0.3952742633
 50
0.0
 51
90.0
  0
ARC
  8
0
 62
7
  6
CONTINUOUS
 10
70.7484901532
 20
159.5441800961
 40
0.3952742633
 50
90.0
 51
180.0
  0
ARC
  8
0
 62
7
  6
CONTINUOUS
 10
70.7484901532
 20
155.6041800961
 40
0.3952742633
 50
180.0
 51
270.0
  0
ARC
  8
0
 62
7
  6
CONTINUOUS
 10
73.4884901532
 20
155.6041800961
 40
0.3952742633
 50
270.0
 51
360.0
  0
ARC
  8
0
 62
7
  6
CONTINUOUS
 10
73.4884901532
 20
167.9441800961
 40
0.3952742633
 50
0.0
 51
90.0
  0
ARC
  8
0
 62
7
  6
CONTINUOUS
 10
70.7484901532
 20
167.9441800961
 40
0.3952742633
 50
90.0
 51
180.0
  0
ARC
  8
0
 62
7
  6
CONTINUOUS
 10
70.7484901532
 20
164.0041800961
 40
0.3952742633
 50
180.0
 51
270.0
  0
ARC
  8
0
 62
7
  6
CONTINUOUS
 10
73.4884901532
 20
164.0041800961
 40
0.3952742633
 50
270.0
 51
360.0
  0
ARC
  8
0
 62
7
  6
CONTINUOUS
 10
76.1484901532
 20
167.9441800961
 40
0.3952742633
 50
90.0
 51
180.0
  0
ARC
  8
0
 62
7
  6
CONTINUOUS
 10
76.1484901532
 20
164.0041800961
 40
0.3952742633
 50
180.0
 51
270.0
  0
ARC
  8
0
 62
7
  6
CONTINUOUS
 10
73.4884901532
 20
176.3441800961
 40
0.3952742633
 50
0.0
 51
90.0
  0
ARC
  8
0
 62
7
  6
CONTINUOUS
 10
70.7484901532
 20
176.3441800961
 40
0.3952742633
 50
90.0
 51
180.0
  0
ARC
  8
0
 62
7
  6
CONTINUOUS
 10
70.7484901532
 20
172.4041800961
 40
0.3952742633
 50
180.0
 51
270.0
  0
ARC
  8
0
 62
7
  6
CONTINUOUS
 10
73.4884901532
 20
172.4041800961
 40
0.3952742633
 50
270.0
 51
360.0
  0
ARC
  8
0
 62
7
  6
CONTINUOUS
 10
70.7484901532
 20
189.2041800961
 40
0.3952742633
 50
180.0
 51
270.0
  0
ARC
  8
0
 62
7
  6
CONTINUOUS
 10
73.4884901532
 20
189.2041800961
 40
0.3952742633
 50
270.0
 51
360.0
  0
ARC
  8
0
 62
7
  6
CONTINUOUS
 10
76.1484901532
 20
176.3441800961
 40
0.3952742633
 50
90.0
 51
180.0
  0
ARC
  8
0
 62
7
  6
CONTINUOUS
 10
76.1484901532
 20
172.4041800961
 40
0.3952742633
 50
180.0
 51
270.0
  0
ARC
  8
0
 62
7
  6
CONTINUOUS
 10
73.4884901532
 20
184.7441800961
 40
0.3952742633
 50
0.0
 51
90.0
  0
ARC
  8
0
 62
7
  6
CONTINUOUS
 10
70.7484901532
 20
184.7441800961
 40
0.3952742633
 50
90.0
 51
180.0
  0
ARC
  8
0
 62
7
  6
CONTINUOUS
 10
70.7484901532
 20
180.8041800961
 40
0.3952742633
 50
180.0
 51
270.0
  0
ARC
  8
0
 62
7
  6
CONTINUOUS
 10
73.4884901532
 20
180.8041800961
 40
0.3952742633
 50
270.0
 51
360.0
  0
ARC
  8
0
 62
7
  6
CONTINUOUS
 10
76.1484901532
 20
189.2041800961
 40
0.3952742633
 50
180.0
 51
270.0
  0
ARC
  8
0
 62
7
  6
CONTINUOUS
 10
76.1484901532
 20
184.7441800961
 40
0.3952742633
 50
90.0
 51
180.0
  0
ARC
  8
0
 62
7
  6
CONTINUOUS
 10
76.1484901532
 20
180.8041800961
 40
0.3952742633
 50
180.0
 51
270.0
  0
ARC
  8
0
 62
7
  6
CONTINUOUS
 10
84.2884901532
 20
159.5441800961
 40
0.5
 50
0.0
 51
90.0
  0
ARC
  8
0
 62
7
  6
CONTINUOUS
 10
81.5484901532
 20
159.5441800961
 40
0.5
 50
90.0
 51
180.0
  0
ARC
  8
0
 62
7
  6
CONTINUOUS
 10
81.5484901532
 20
155.6041800961
 40
0.5
 50
180.0
 51
270.0
  0
ARC
  8
0
 62
7
  6
CONTINUOUS
 10
84.2884901532
 20
155.6041800961
 40
0.5
 50
270.0
 51
360.0
  0
ARC
  8
0
 62
7
  6
CONTINUOUS
 10
78.8884901532
 20
167.9441800961
 40
0.3952742633
 50
0.0
 51
90.0
  0
ARC
  8
0
 62
7
  6
CONTINUOUS
 10
78.8884901532
 20
164.0041800961
 40
0.3952742633
 50
270.0
 51
360.0
  0
ARC
  8
0
 62
7
  6
CONTINUOUS
 10
78.8884901532
 20
176.3441800961
 40
0.3952742633
 50
0.0
 51
90.0
  0
ARC
  8
0
 62
7
  6
CONTINUOUS
 10
78.8884901532
 20
172.4041800961
 40
0.3952742633
 50
270.0
 51
360.0
  0
ARC
  8
0
 62
7
  6
CONTINUOUS
 10
78.8884901532
 20
189.2041800961
 40
0.3952742633
 50
270.0
 51
360.0
  0
ARC
  8
0
 62
7
  6
CONTINUOUS
 10
84.2884901532
 20
176.3441800961
 40
0.3952742633
 50
0.0
 51
90.0
  0
ARC
  8
0
 62
7
  6
CONTINUOUS
 10
81.5484901532
 20
176.3441800961
 40
0.3952742633
 50
90.0
 51
180.0
  0
ARC
  8
0
 62
7
  6
CONTINUOUS
 10
81.5484901532
 20
172.4041800961
 40
0.3952742633
 50
180.0
 51
270.0
  0
ARC
  8
0
 62
7
  6
CONTINUOUS
 10
84.2884901532
 20
172.4041800961
 40
0.3952742633
 50
270.0
 51
360.0
  0
ARC
  8
0
 62
7
  6
CONTINUOUS
 10
78.8884901532
 20
184.7441800961
 40
0.3952742633
 50
0.0
 51
90.0
  0
ARC
  8
0
 62
7
  6
CONTINUOUS
 10
78.8884901532
 20
180.8041800961
 40
0.3952742633
 50
270.0
 51
360.0
  0
ARC
  8
0
 62
7
  6
CONTINUOUS
 10
81.5484901532
 20
189.2041800961
 40
0.3952742633
 50
180.0
 51
270.0
  0
ARC
  8
0
 62
7
  6
CONTINUOUS
 10
84.2884901532
 20
189.2041800961
 40
0.3952742633
 50
270.0
 51
360.0
  0
ARC
  8
0
 62
7
  6
CONTINUOUS
 10
73.4884901532
 20
193.1441800961
 40
0.3952742633
 50
0.0
 51
90.0
  0
ARC
  8
0
 62
7
  6
CONTINUOUS
 10
70.7484901532
 20
193.1441800961
 40
0.3952742633
 50
90.0
 51
180.0
  0
ARC
  8
0
 62
7
  6
CONTINUOUS
 10
70.7484901532
 20
206.0041800961
 40
0.3952742633
 50
180.0
 51
270.0
  0
ARC
  8
0
 62
7
  6
CONTINUOUS
 10
73.4884901532
 20
206.0041800961
 40
0.3952742633
 50
270.0
 51
360.0
  0
ARC
  8
0
 62
7
  6
CONTINUOUS
 10
76.1484901532
 20
193.1441800961
 40
0.3952742633
 50
90.0
 51
180.0
  0
ARC
  8
0
 62
7
  6
CONTINUOUS
 10
73.4884901532
 20
201.5441800961
 40
0.3952742633
 50
0.0
 51
90.0
  0
ARC
  8
0
 62
7
  6
CONTINUOUS
 10
70.7484901532
 20
201.5441800961
 40
0.3952742633
 50
90.0
 51
180.0
  0
ARC
  8
0
 62
7
  6
CONTINUOUS
 10
70.7484901532
 20
197.6041800961
 40
0.3952742633
 50
180.0
 51
270.0
  0
ARC
  8
0
 62
7
  6
CONTINUOUS
 10
73.4884901532
 20
197.6041800961
 40
0.3952742633
 50
270.0
 51
360.0
  0
ARC
  8
0
 62
7
  6
CONTINUOUS
 10
76.1484901532
 20
201.5441800961
 40
0.3952742633
 50
90.0
 51
180.0
  0
ARC
  8
0
 62
7
  6
CONTINUOUS
 10
76.1484901532
 20
197.6041800961
 40
0.3952742633
 50
180.0
 51
270.0
  0
ARC
  8
0
 62
7
  6
CONTINUOUS
 10
73.4884901532
 20
209.9441800961
 40
0.3952742633
 50
0.0
 51
90.0
  0
ARC
  8
0
 62
7
  6
CONTINUOUS
 10
70.7484901532
 20
209.9441800961
 40
0.3952742633
 50
90.0
 51
180.0
  0
ARC
  8
0
 62
7
  6
CONTINUOUS
 10
73.4884901532
 20
226.7441800961
 40
0.3952742633
 50
0.0
 51
90.0
  0
ARC
  8
0
 62
7
  6
CONTINUOUS
 10
70.7484901532
 20
226.7441800961
 40
0.3952742633
 50
90.0
 51
180.0
  0
ARC
  8
0
 62
7
  6
CONTINUOUS
 10
70.7484901532
 20
222.8041800961
 40
0.3952742633
 50
180.0
 51
270.0
  0
ARC
  8
0
 62
7
  6
CONTINUOUS
 10
73.4884901532
 20
222.8041800961
 40
0.3952742633
 50
270.0
 51
360.0
  0
ARC
  8
0
 62
7
  6
CONTINUOUS
 10
73.4884901532
 20
218.3441800961
 40
0.3952742633
 50
0.0
 51
90.0
  0
ARC
  8
0
 62
7
  6
CONTINUOUS
 10
70.7484901532
 20
218.3441800961
 40
0.3952742633
 50
90.0
 51
180.0
  0
ARC
  8
0
 62
7
  6
CONTINUOUS
 10
70.7484901532
 20
214.4041800961
 40
0.3952742633
 50
180.0
 51
270.0
  0
ARC
  8
0
 62
7
  6
CONTINUOUS
 10
73.4884901532
 20
214.4041800961
 40
0.3952742633
 50
270.0
 51
360.0
  0
ARC
  8
0
 62
7
  6
CONTINUOUS
 10
76.1484901532
 20
226.7441800961
 40
0.3952742633
 50
90.0
 51
180.0
  0
ARC
  8
0
 62
7
  6
CONTINUOUS
 10
76.1484901532
 20
222.8041800961
 40
0.3952742633
 50
180.0
 51
270.0
  0
ARC
  8
0
 62
7
  6
CONTINUOUS
 10
76.1484901532
 20
218.3441800961
 40
0.3952742633
 50
90.0
 51
180.0
  0
ARC
  8
0
 62
7
  6
CONTINUOUS
 10
76.1484901532
 20
214.4041800961
 40
0.3952742633
 50
180.0
 51
270.0
  0
ARC
  8
0
 62
7
  6
CONTINUOUS
 10
78.8884901532
 20
193.1441800961
 40
0.3952742633
 50
0.0
 51
90.0
  0
ARC
  8
0
 62
7
  6
CONTINUOUS
 10
84.2884901532
 20
193.1441800961
 40
0.3952742633
 50
0.0
 51
90.0
  0
ARC
  8
0
 62
7
  6
CONTINUOUS
 10
81.5484901532
 20
193.1441800961
 40
0.3952742633
 50
90.0
 51
180.0
  0
ARC
  8
0
 62
7
  6
CONTINUOUS
 10
78.8884901532
 20
201.5441800961
 40
0.3952742633
 50
0.0
 51
90.0
  0
ARC
  8
0
 62
7
  6
CONTINUOUS
 10
78.8884901532
 20
197.6041800961
 40
0.3952742633
 50
270.0
 51
360.0
  0
ARC
  8
0
 62
7
  6
CONTINUOUS
 10
81.5484901532
 20
206.0041800961
 40
0.3952742633
 50
180.0
 51
270.0
  0
ARC
  8
0
 62
7
  6
CONTINUOUS
 10
84.2884901532
 20
206.0041800961
 40
0.3952742633
 50
270.0
 51
360.0
  0
ARC
  8
0
 62
7
  6
CONTINUOUS
 10
78.8884901532
 20
226.7441800961
 40
0.3952742633
 50
0.0
 51
90.0
  0
ARC
  8
0
 62
7
  6
CONTINUOUS
 10
78.8884901532
 20
222.8041800961
 40
0.3952742633
 50
270.0
 51
360.0
  0
ARC
  8
0
 62
7
  6
CONTINUOUS
 10
84.2884901532
 20
209.9441800961
 40
0.3952742633
 50
0.0
 51
90.0
  0
ARC
  8
0
 62
7
  6
CONTINUOUS
 10
81.5484901532
 20
209.9441800961
 40
0.3952742633
 50
90.0
 51
180.0
  0
ARC
  8
0
 62
7
  6
CONTINUOUS
 10
78.8884901532
 20
218.3441800961
 40
0.3952742633
 50
0.0
 51
90.0
  0
ARC
  8
0
 62
7
  6
CONTINUOUS
 10
78.8884901532
 20
214.4041800961
 40
0.3952742633
 50
270.0
 51
360.0
  0
ARC
  8
0
 62
7
  6
CONTINUOUS
 10
84.2884901532
 20
226.7441800961
 40
0.3952742633
 50
0.0
 51
90.0
  0
ARC
  8
0
 62
7
  6
CONTINUOUS
 10
81.5484901532
 20
226.7441800961
 40
0.3952742633
 50
90.0
 51
180.0
  0
ARC
  8
0
 62
7
  6
CONTINUOUS
 10
81.5484901532
 20
222.8041800961
 40
0.3952742633
 50
180.0
 51
270.0
  0
ARC
  8
0
 62
7
  6
CONTINUOUS
 10
84.2884901532
 20
222.8041800961
 40
0.3952742633
 50
270.0
 51
360.0
  0
ARC
  8
0
 62
7
  6
CONTINUOUS
 10
94.8184901532
 20
168.2740820961
 40
1.8
 50
17.7189318734
 51
162.2810681266
  0
ARC
  8
0
 62
7
  6
CONTINUOUS
 10
94.8184901532
 20
163.6740820961
 40
1.8
 50
197.7189318734
 51
342.2810681266
  0
ARC
  8
0
 62
7
  6
CONTINUOUS
 10
91.6339451532
 20
169.4740820961
 40
1.0
 50
180.0
 51
270.0
  0
ARC
  8
0
 62
7
  6
CONTINUOUS
 10
91.6339451532
 20
162.4740820961
 40
1.0
 50
90.0
 51
180.0
  0
ARC
  8
0
 62
7
  6
CONTINUOUS
 10
97.0093803832
 20
168.9740820961
 40
0.5
 50
197.7189318734
 51
270.0
  0
ARC
  8
0
 62
7
  6
CONTINUOUS
 10
92.6275999232
 20
168.9740820961
 40
0.5
 50
270.0
 51
342.2810681266
  0
ARC
  8
0
 62
7
  6
CONTINUOUS
 10
92.6275999232
 20
162.9740820961
 40
0.5
 50
17.7189318734
 51
90.0
  0
ARC
  8
0
 62
7
  6
CONTINUOUS
 10
97.0093803832
 20
162.9740820961
 40
0.5
 50
90.0
 51
162.2810681266
  0
ARC
  8
0
 62
7
  6
CONTINUOUS
 10
94.8184901532
 20
185.0740820961
 40
1.8
 50
17.7189318734
 51
162.2810681266
  0
ARC
  8
0
 62
7
  6
CONTINUOUS
 10
94.8184901532
 20
180.4740820961
 40
1.8
 50
197.7189318734
 51
342.2810681266
  0
ARC
  8
0
 62
7
  6
CONTINUOUS
 10
91.6339451532
 20
186.2740820961
 40
1.0
 50
180.0
 51
270.0
  0
ARC
  8
0
 62
7
  6
CONTINUOUS
 10
91.6339451532
 20
179.2740820961
 40
1.0
 50
90.0
 51
180.0
  0
ARC
  8
0
 62
7
  6
CONTINUOUS
 10
97.0093803832
 20
179.7740820961
 40
0.5
 50
90.0
 51
162.2810681266
  0
ARC
  8
0
 62
7
  6
CONTINUOUS
 10
92.6275999232
 20
179.7740820961
 40
0.5
 50
17.7189318734
 51
90.0
  0
ARC
  8
0
 62
7
  6
CONTINUOUS
 10
92.6275999232
 20
185.7740820961
 40
0.5
 50
270.0
 51
342.2810681266
  0
ARC
  8
0
 62
7
  6
CONTINUOUS
 10
97.0093803832
 20
185.7740820961
 40
0.5
 50
197.7189318734
 51
270.0
  0
ARC
  8
0
 62
7
  6
CONTINUOUS
 10
103.1184901532
 20
168.2740820961
 40
0.2
 50
359.999996747
 51
90.0000242405
  0
ARC
  8
0
 62
7
  6
CONTINUOUS
 10
103.1184901532
 20
163.6740820961
 40
0.2
 50
269.9999748375
 51
360.0
  0
ARC
  8
0
 62
7
  6
CONTINUOUS
 10
94.8184901532
 20
201.8740820961
 40
1.8
 50
17.7189318734
 51
162.2810681266
  0
ARC
  8
0
 62
7
  6
CONTINUOUS
 10
94.8184901532
 20
197.2740820961
 40
1.8
 50
197.7189318734
 51
342.2810681266
  0
ARC
  8
0
 62
7
  6
CONTINUOUS
 10
91.6339451532
 20
203.0740820961
 40
1.0
 50
180.0
 51
270.0
  0
ARC
  8
0
 62
7
  6
CONTINUOUS
 10
91.6339451532
 20
196.0740820961
 40
1.0
 50
90.0
 51
180.0
  0
ARC
  8
0
 62
7
  6
CONTINUOUS
 10
97.0093803832
 20
202.5740820961
 40
0.5
 50
197.7189318734
 51
270.0
  0
ARC
  8
0
 62
7
  6
CONTINUOUS
 10
92.6275999232
 20
202.5740820961
 40
0.5
 50
270.0
 51
342.2810681266
  0
ARC
  8
0
 62
7
  6
CONTINUOUS
 10
92.6275999232
 20
196.5740820961
 40
0.5
 50
17.7189318734
 51
90.0
  0
ARC
  8
0
 62
7
  6
CONTINUOUS
 10
97.0093803832
 20
196.5740820961
 40
0.5
 50
90.0
 51
162.2810681266
  0
ARC
  8
0
 62
7
  6
CONTINUOUS
 10
91.6339451532
 20
212.8740820961
 40
1.0
 50
90.0
 51
180.0
  0
ARC
  8
0
 62
7
  6
CONTINUOUS
 10
92.6275999232
 20
213.3740820961
 40
0.5
 50
17.7189318734
 51
90.0
  0
ARC
  8
0
 62
7
  6
CONTINUOUS
 10
91.6339451532
 20
219.8740820961
 40
1.0
 50
180.0
 51
270.0
  0
ARC
  8
0
 62
7
  6
CONTINUOUS
 10
92.6275999232
 20
219.3740820961
 40
0.5
 50
270.0
 51
342.2810681266
  0
ARC
  8
0
 62
7
  6
CONTINUOUS
 10
94.8184901532
 20
214.0740820961
 40
1.8
 50
197.7189318734
 51
342.2810681266
  0
ARC
  8
0
 62
7
  6
CONTINUOUS
 10
97.0093803832
 20
213.3740820961
 40
0.5
 50
90.0
 51
162.2810681266
  0
ARC
  8
0
 62
7
  6
CONTINUOUS
 10
94.8184901532
 20
218.6740820961
 40
1.8
 50
17.7189318734
 51
162.2810681266
  0
ARC
  8
0
 62
7
  6
CONTINUOUS
 10
97.0093803832
 20
219.3740820961
 40
0.5
 50
197.7189318734
 51
270.0
  0
ARC
  8
0
 62
7
  6
CONTINUOUS
 10
103.2182883172
 20
201.9740820961
 40
0.1
 50
1.1047095621
 51
90.0
  0
ARC
  8
0
 62
7
  6
CONTINUOUS
 10
143.3801964349
 20
78.8741800961
 40
1.0
 50
180.0
 51
270.0
  0
ARC
  8
SURFACE
 62
7
  6
CONTINUOUS
 10
143.3801964373
 20
97.5974383931
 40
0.9999999976
 50
179.9999999891
 51
265.4299998638
  0
ARC
  8
SURFACE
 62
7
  6
CONTINUOUS
 10
143.3801964381
 20
108.3509217992
 40
0.9999999968
 50
94.5700001848
 51
180.0000000147
  0
ARC
  8
SURFACE
 62
7
  6
CONTINUOUS
 10
143.3801964381
 20
91.5509217992
 40
0.9999999968
 50
94.5700001848
 51
180.0000000147
  0
ARC
  8
0
 62
7
  6
CONTINUOUS
 10
142.8801964349
 20
89.2241800961
 40
0.5
 50
180.0
 51
270.0
  0
ARC
  8
0
 62
7
  6
CONTINUOUS
 10
142.8801964349
 20
83.1241800961
 40
0.5
 50
90.0
 51
180.0
  0
ARC
  8
SURFACE
 62
7
  6
CONTINUOUS
 10
143.3801964373
 20
133.5509217992
 40
1.0
 50
94.5700001397
 51
180.0000000111
  0
ARC
  8
SURFACE
 62
7
  6
CONTINUOUS
 10
143.3801964373
 20
116.7509217992
 40
1.0
 50
94.5700001397
 51
180.0000000111
  0
ARC
  8
SURFACE
 62
7
  6
CONTINUOUS
 10
143.3801964374
 20
139.5974383931
 40
0.9999999995
 50
179.9999999885
 51
265.4299998557
  0
ARC
  8
SURFACE
 62
7
  6
CONTINUOUS
 10
143.3801964374
 20
122.7974383931
 40
0.9999999995
 50
179.9999999885
 51
265.4299998557
  0
ARC
  8
SURFACE
 62
7
  6
CONTINUOUS
 10
143.3801964373
 20
147.9974383931
 40
0.9999999976
 50
179.9999999891
 51
265.4299998638
  0
ARC
  8
SURFACE
 62
7
  6
CONTINUOUS
 10
143.3801964373
 20
131.1974383931
 40
0.9999999976
 50
179.9999999891
 51
265.4299998638
  0
ARC
  8
SURFACE
 62
7
  6
CONTINUOUS
 10
143.3801964373
 20
114.3974383931
 40
0.9999999976
 50
179.9999999891
 51
265.4299998638
  0
ARC
  8
SURFACE
 62
7
  6
CONTINUOUS
 10
143.3801964381
 20
141.9509217992
 40
0.9999999968
 50
94.5700001848
 51
180.0000000147
  0
ARC
  8
SURFACE
 62
7
  6
CONTINUOUS
 10
143.3801964381
 20
125.1509217992
 40
0.9999999968
 50
94.5700001848
 51
180.0000000147
  0
ARC
  8
0
 62
7
  6
CONTINUOUS
 10
147.3937115508
 20
109.4742780961
 40
0.2
 50
89.9970208797
 51
94.5678194535
  0
ARC
  8
0
 62
7
  6
CONTINUOUS
 10
147.3937115508
 20
92.6742780961
 40
0.2
 50
89.9970208797
 51
94.5678194535
  0
ARC
  8
0
 62
7
  6
CONTINUOUS
 10
147.3913112869
 20
88.0742780961
 40
0.2
 50
265.4220142931
 51
269.9924952109
  0
ARC
  8
0
 62
7
  6
CONTINUOUS
 10
147.3937119034
 20
113.2740820679
 40
0.1999999953
 50
265.429898653
 51
269.9998989751
  0
ARC
  8
0
 62
7
  6
CONTINUOUS
 10
147.3933128737
 20
96.4640820688
 40
0.1899999956
 50
265.4298964635
 51
269.9998967925
  0
ARC
  8
0
 62
7
  6
CONTINUOUS
 10
147.3913112985
 20
138.4742780961
 40
0.2000000026
 50
265.4220109613
 51
269.9924918865
  0
ARC
  8
0
 62
7
  6
CONTINUOUS
 10
147.3913112985
 20
121.6742780961
 40
0.2000000026
 50
265.4220109613
 51
269.9924918865
  0
ARC
  8
0
 62
7
  6
CONTINUOUS
 10
147.3937115508
 20
143.0742780961
 40
0.2
 50
89.9970208797
 51
94.5678194535
  0
ARC
  8
0
 62
7
  6
CONTINUOUS
 10
147.3937115508
 20
126.2742780961
 40
0.2
 50
89.9970208797
 51
94.5678194535
  0
ARC
  8
0
 62
7
  6
CONTINUOUS
 10
147.3937119034
 20
130.0740820679
 40
0.1999999953
 50
265.4298986531
 51
269.9998989752
  0
ARC
  8
0
 62
7
  6
CONTINUOUS
 10
147.3937119034
 20
146.8740820679
 40
0.1999999953
 50
265.429898653
 51
269.9998989752
  0
ARC
  8
SURFACE
 62
7
  6
CONTINUOUS
 10
143.3801964373
 20
183.9509217992
 40
1.0
 50
94.5700001397
 51
180.0000000111
  0
ARC
  8
SURFACE
 62
7
  6
CONTINUOUS
 10
143.3801964373
 20
167.1509217992
 40
1.0
 50
94.5700001397
 51
180.0000000111
  0
ARC
  8
SURFACE
 62
7
  6
CONTINUOUS
 10
143.3801964374
 20
189.9974383931
 40
0.9999999995
 50
179.9999999885
 51
265.4299998557
  0
ARC
  8
SURFACE
 62
7
  6
CONTINUOUS
 10
143.3801964374
 20
173.1974383931
 40
0.9999999995
 50
179.9999999885
 51
265.4299998557
  0
ARC
  8
SURFACE
 62
7
  6
CONTINUOUS
 10
143.3801964373
 20
181.5974383931
 40
0.9999999976
 50
179.9999999891
 51
265.4299998638
  0
ARC
  8
SURFACE
 62
7
  6
CONTINUOUS
 10
143.3801964373
 20
164.7974383931
 40
0.9999999976
 50
179.9999999891
 51
265.4299998638
  0
ARC
  8
SURFACE
 62
7
  6
CONTINUOUS
 10
143.3801964381
 20
192.3509217992
 40
0.9999999968
 50
94.5700001848
 51
180.0000000147
  0
ARC
  8
SURFACE
 62
7
  6
CONTINUOUS
 10
143.3801964381
 20
175.5509217992
 40
0.9999999968
 50
94.5700001848
 51
180.0000000147
  0
ARC
  8
SURFACE
 62
7
  6
CONTINUOUS
 10
143.3801964381
 20
158.7509217992
 40
0.9999999968
 50
94.5700001848
 51
180.0000000147
  0
ARC
  8
0
 62
7
  6
CONTINUOUS
 10
143.3801964373
 20
200.7509217992
 40
1.0
 50
94.995448493
 51
180.0000000111
  0
ARC
  8
0
 62
7
  6
CONTINUOUS
 10
143.3801964349
 20
227.8741800961
 40
1.0
 50
90.0
 51
180.0
  0
ARC
  8
0
 62
7
  6
CONTINUOUS
 10
143.3801964374
 20
206.7974383931
 40
0.9999999995
 50
179.9999999885
 51
265.004551507
  0
ARC
  8
SURFACE
 62
7
  6
CONTINUOUS
 10
143.3801964373
 20
215.1974383931
 40
0.9999999976
 50
179.9999999891
 51
265.4299998638
  0
ARC
  8
SURFACE
 62
7
  6
CONTINUOUS
 10
143.3801964373
 20
198.3974383931
 40
0.9999999976
 50
179.9999999891
 51
265.4299998638
  0
ARC
  8
SURFACE
 62
7
  6
CONTINUOUS
 10
143.3801964381
 20
209.1509217992
 40
0.9999999968
 50
94.5700001848
 51
180.0000000147
  0
ARC
  8
0
 62
7
  6
CONTINUOUS
 10
142.8801964349
 20
223.6241800961
 40
0.5
 50
180.0
 51
270.0
  0
ARC
  8
0
 62
7
  6
CONTINUOUS
 10
142.8801964349
 20
217.5241800961
 40
0.5
 50
90.0
 51
180.0
  0
ARC
  8
0
 62
7
  6
CONTINUOUS
 10
147.3913112985
 20
188.8742780961
 40
0.2000000026
 50
265.4220109613
 51
269.9924918865
  0
ARC
  8
0
 62
7
  6
CONTINUOUS
 10
147.3913112985
 20
172.0742780961
 40
0.2000000026
 50
265.4220109613
 51
269.9924918865
  0
ARC
  8
0
 62
7
  6
CONTINUOUS
 10
147.3937115508
 20
176.6742780961
 40
0.2
 50
89.9970208797
 51
94.5678194535
  0
ARC
  8
0
 62
7
  6
CONTINUOUS
 10
147.3937115508
 20
159.8742780961
 40
0.2
 50
89.9970208797
 51
94.5678194535
  0
ARC
  8
0
 62
7
  6
CONTINUOUS
 10
147.3937119034
 20
163.6740820679
 40
0.1999999953
 50
265.429898653
 51
269.9998989752
  0
ARC
  8
0
 62
7
  6
CONTINUOUS
 10
147.3913112869
 20
222.4742780961
 40
0.2
 50
265.4220142931
 51
269.9924952109
  0
ARC
  8
0
 62
7
  6
CONTINUOUS
 10
147.3937115508
 20
193.4742780961
 40
0.2
 50
89.9970208797
 51
94.5678194535
  0
ARC
  8
0
 62
7
  6
CONTINUOUS
 10
147.3937115508
 20
210.2742780961
 40
0.2
 50
89.9970208797
 51
94.5678194535
  0
ARC
  8
0
 62
7
  6
CONTINUOUS
 10
147.389721549
 20
197.1740820808
 40
0.0999999986
 50
265.4298900825
 51
269.9998904319
  0
ARC
  8
0
 62
7
  6
CONTINUOUS
 10
147.389721549
 20
213.9740820808
 40
0.0999999986
 50
265.4298900826
 51
269.9998904319
  0
ARC
  8
0
 62
7
  6
CONTINUOUS
 10
152.3801964349
 20
94.5006132548
 40
2.0
 50
2.3460883248
 51
28.7852795421
  0
ARC
  8
SURFACE
 62
7
  6
CONTINUOUS
 10
153.0801964349
 20
94.6335893307
 40
1.3
 50
274.57
 51
360.0
  0
ARC
  8
SURFACE
 62
7
  6
CONTINUOUS
 10
153.0801964349
 20
94.5147708616
 40
1.3
 50
2.6233399029
 51
85.4299956922
  0
ARC
  8
SURFACE
 62
7
  6
CONTINUOUS
 10
153.0801964349
 20
86.1147708616
 40
1.3
 50
0.0000000001
 51
85.4299999999
  0
ARC
  8
SURFACE
 62
7
  6
CONTINUOUS
 10
153.0801964349
 20
86.2335893307
 40
1.3
 50
274.5700008051
 51
357.3712001109
  0
ARC
  8
0
 62
7
  6
CONTINUOUS
 10
152.3801964349
 20
111.4477469374
 40
2.0
 50
358.9224912076
 51
359.5949492423
  0
ARC
  8
SURFACE
 62
7
  6
CONTINUOUS
 10
153.0801964349
 20
111.4335893307
 40
1.3
 50
274.57
 51
360.0
  0
ARC
  8
SURFACE
 62
7
  6
CONTINUOUS
 10
153.0801964349
 20
111.3147708616
 40
1.3
 50
2.6233399029
 51
85.4299956922
  0
ARC
  8
0
 62
7
  6
CONTINUOUS
 10
151.8801964349
 20
101.7021340099
 40
0.5
 50
90.157428509
 51
179.9999999999
  0
ARC
  8
0
 62
7
  6
CONTINUOUS
 10
151.8801964349
 20
104.2462261099
 40
0.5
 50
180.0000000002
 51
269.8425684784
  0
ARC
  8
0
 62
7
  6
CONTINUOUS
 10
153.9519057467
 20
84.3396721666
 40
3.0
 50
74.0499979255
 51
85.4300306936
  0
ARC
  8
0
 62
7
  6
CONTINUOUS
 10
154.8801964349
 20
78.3741800961
 40
0.5
 50
180.0
 51
270.0
  0
ARC
  8
0
 62
7
  6
CONTINUOUS
 10
153.9519057467
 20
113.2086880257
 40
3.0
 50
274.5699253967
 51
275.663173753
  0
ARC
  8
0
 62
7
  6
CONTINUOUS
 10
153.9519057467
 20
113.2086880257
 40
3.0
 50
275.6771325067
 51
285.950146682
  0
ARC
  8
0
 62
7
  6
CONTINUOUS
 10
153.9519057467
 20
96.4086880257
 40
3.0
 50
274.5699253967
 51
275.663173753
  0
ARC
  8
0
 62
7
  6
CONTINUOUS
 10
153.9519057467
 20
96.4086880257
 40
3.0
 50
275.6771325067
 51
285.950146682
  0
ARC
  8
0
 62
7
  6
CONTINUOUS
 10
153.3801964349
 20
100.987416664
 40
2.0
 50
179.9996750278
 51
208.7852771182
  0
ARC
  8
0
 62
7
  6
CONTINUOUS
 10
152.3801964349
 20
144.9006132548
 40
2.0
 50
2.3460883248
 51
28.7852795421
  0
ARC
  8
0
 62
7
  6
CONTINUOUS
 10
151.8801964349
 20
152.1021340099
 40
0.5
 50
90.157428509
 51
179.9999999999
  0
ARC
  8
0
 62
7
  6
CONTINUOUS
 10
153.9519057467
 20
130.0086880257
 40
3.0
 50
274.5699253967
 51
275.663173753
  0
ARC
  8
0
 62
7
  6
CONTINUOUS
 10
153.9519057467
 20
130.0086880257
 40
3.0
 50
275.6771325067
 51
285.950146682
  0
ARC
  8
0
 62
7
  6
CONTINUOUS
 10
153.9519057467
 20
134.7396721666
 40
3.0
 50
84.3362360617
 51
85.4300752701
  0
ARC
  8
0
 62
7
  6
CONTINUOUS
 10
153.9519057467
 20
134.7396721666
 40
3.0
 50
74.0498533359
 51
84.322324274
  0
ARC
  8
0
 62
7
  6
CONTINUOUS
 10
153.9519057467
 20
117.9396721666
 40
3.0
 50
84.3362360617
 51
85.4300752701
  0
ARC
  8
0
 62
7
  6
CONTINUOUS
 10
153.9519057467
 20
117.9396721666
 40
3.0
 50
74.0498533359
 51
84.322324274
  0
ARC
  8
SURFACE
 62
7
  6
CONTINUOUS
 10
153.0801964349
 20
128.2335893307
 40
1.3
 50
274.57
 51
360.0
  0
ARC
  8
SURFACE
 62
7
  6
CONTINUOUS
 10
153.0801964349
 20
128.1147708616
 40
1.3
 50
2.6233399029
 51
85.4299956922
  0
ARC
  8
SURFACE
 62
7
  6
CONTINUOUS
 10
153.0801964349
 20
119.7147708616
 40
1.3
 50
0.0000000001
 51
85.4299999999
  0
ARC
  8
SURFACE
 62
7
  6
CONTINUOUS
 10
153.0801964349
 20
119.8335893307
 40
1.3
 50
274.5700008051
 51
357.3712001109
  0
ARC
  8
0
 62
7
  6
CONTINUOUS
 10
153.9519057467
 20
146.8086880257
 40
3.0
 50
274.5699253967
 51
275.663173753
  0
ARC
  8
0
 62
7
  6
CONTINUOUS
 10
153.9519057467
 20
146.8086880257
 40
3.0
 50
275.6771325067
 51
285.950146682
  0
ARC
  8
0
 62
7
  6
CONTINUOUS
 10
153.3801964349
 20
151.387416664
 40
2.0
 50
179.9996750278
 51
208.7852771182
  0
ARC
  8
SURFACE
 62
7
  6
CONTINUOUS
 10
153.0801964349
 20
145.0335893307
 40
1.3
 50
274.57
 51
360.0
  0
ARC
  8
SURFACE
 62
7
  6
CONTINUOUS
 10
153.0801964349
 20
144.9147708616
 40
1.3
 50
2.6233399029
 51
85.4299956922
  0
ARC
  8
SURFACE
 62
7
  6
CONTINUOUS
 10
153.0801964349
 20
136.5147708616
 40
1.3
 50
0.0000000001
 51
85.4299999999
  0
ARC
  8
SURFACE
 62
7
  6
CONTINUOUS
 10
153.0801964349
 20
136.6335893307
 40
1.3
 50
274.5700008051
 51
357.3712001109
  0
ARC
  8
0
 62
7
  6
CONTINUOUS
 10
158.1801964349
 20
111.0742780961
 40
0.2
 50
359.9999996293
 51
90.0
  0
ARC
  8
0
 62
7
  6
CONTINUOUS
 10
158.1286430232
 20
111.0742779121
 40
0.2
 50
90.0001645736
 51
105.95
  0
ARC
  8
0
 62
7
  6
CONTINUOUS
 10
158.1801964349
 20
103.2742780961
 40
0.2
 50
270.0
 51
0.0000003707
  0
ARC
  8
0
 62
7
  6
CONTINUOUS
 10
158.1801964349
 20
94.2742780961
 40
0.2
 50
359.9999996293
 51
90.0
  0
ARC
  8
0
 62
7
  6
CONTINUOUS
 10
158.1286430232
 20
94.2742779121
 40
0.2
 50
90.0001645736
 51
105.95
  0
ARC
  8
0
 62
7
  6
CONTINUOUS
 10
158.1801964349
 20
86.4742780961
 40
0.2
 50
270.0
 51
0.0000003707
  0
ARC
  8
0
 62
7
  6
CONTINUOUS
 10
158.1801964349
 20
78.0741800961
 40
0.2
 50
270.0
 51
360.0
  0
ARC
  8
0
 62
7
  6
CONTINUOUS
 10
158.1801964349
 20
109.4742780961
 40
0.2
 50
0.0
 51
90.0
  0
ARC
  8
0
 62
7
  6
CONTINUOUS
 10
158.1801964349
 20
104.8742780961
 40
0.2
 50
270.0
 51
360.0
  0
ARC
  8
0
 62
7
  6
CONTINUOUS
 10
158.1801964349
 20
92.6742780961
 40
0.2
 50
0.0
 51
90.0
  0
ARC
  8
0
 62
7
  6
CONTINUOUS
 10
158.1801964349
 20
88.0742780961
 40
0.2
 50
270.0
 51
360.0
  0
ARC
  8
0
 62
7
  6
CONTINUOUS
 10
158.1801964349
 20
144.6742780961
 40
0.2
 50
359.9999996293
 51
90.0
  0
ARC
  8
0
 62
7
  6
CONTINUOUS
 10
158.1286430232
 20
144.6742779121
 40
0.2
 50
90.0001645736
 51
105.95
  0
ARC
  8
0
 62
7
  6
CONTINUOUS
 10
158.127957232
 20
136.8742782801
 40
0.2
 50
254.05
 51
269.9998354767
  0
ARC
  8
0
 62
7
  6
CONTINUOUS
 10
158.1801964349
 20
136.8742780961
 40
0.2
 50
270.0
 51
0.0000003707
  0
ARC
  8
0
 62
7
  6
CONTINUOUS
 10
158.1801964349
 20
127.8742780961
 40
0.2
 50
359.9999996293
 51
90.0
  0
ARC
  8
0
 62
7
  6
CONTINUOUS
 10
158.1286430232
 20
127.8742779121
 40
0.2
 50
90.0001645736
 51
105.95
  0
ARC
  8
0
 62
7
  6
CONTINUOUS
 10
158.127957232
 20
120.0742782801
 40
0.2
 50
254.05
 51
269.9998354767
  0
ARC
  8
0
 62
7
  6
CONTINUOUS
 10
158.1801964349
 20
120.0742780961
 40
0.2
 50
270.0
 51
0.0000003707
  0
ARC
  8
0
 62
7
  6
CONTINUOUS
 10
158.1801964349
 20
143.0742780961
 40
0.2
 50
0.0
 51
90.0
  0
ARC
  8
0
 62
7
  6
CONTINUOUS
 10
158.1801964349
 20
138.4742780961
 40
0.2
 50
270.0
 51
360.0
  0
ARC
  8
0
 62
7
  6
CONTINUOUS
 10
158.1801964349
 20
126.2742780961
 40
0.2
 50
0.0
 51
90.0
  0
ARC
  8
0
 62
7
  6
CONTINUOUS
 10
158.1801964349
 20
121.6742780961
 40
0.2
 50
270.0
 51
360.0
  0
ARC
  8
0
 62
7
  6
CONTINUOUS
 10
152.3801964349
 20
161.8477469374
 40
2.0
 50
358.9224912076
 51
359.5949492423
  0
ARC
  8
0
 62
7
  6
CONTINUOUS
 10
151.8801964349
 20
154.6462261099
 40
0.5
 50
180.0000000002
 51
269.8425684784
  0
ARC
  8
0
 62
7
  6
CONTINUOUS
 10
153.9519057467
 20
163.6086880257
 40
3.0
 50
274.5699253967
 51
275.663173753
  0
ARC
  8
0
 62
7
  6
CONTINUOUS
 10
153.9519057467
 20
163.6086880257
 40
3.0
 50
275.6771325067
 51
285.950146682
  0
ARC
  8
0
 62
7
  6
CONTINUOUS
 10
153.9519057467
 20
168.3396721666
 40
3.0
 50
84.3362360617
 51
85.4300752701
  0
ARC
  8
0
 62
7
  6
CONTINUOUS
 10
153.9519057467
 20
168.3396721666
 40
3.0
 50
74.0498533359
 51
84.322324274
  0
ARC
  8
SURFACE
 62
7
  6
CONTINUOUS
 10
153.0801964349
 20
161.7147708616
 40
1.3
 50
2.6233399029
 51
85.4299956922
  0
ARC
  8
SURFACE
 62
7
  6
CONTINUOUS
 10
153.0801964349
 20
170.2335893307
 40
1.3
 50
274.5700008051
 51
357.3712001109
  0
ARC
  8
SURFACE
 62
7
  6
CONTINUOUS
 10
153.0801964349
 20
170.1147708616
 40
1.3
 50
0.0000000001
 51
85.4299999999
  0
ARC
  8
SURFACE
 62
7
  6
CONTINUOUS
 10
153.0801964349
 20
161.8335893307
 40
1.3
 50
274.57
 51
360.0
  0
ARC
  8
0
 62
7
  6
CONTINUOUS
 10
153.9519057467
 20
180.4086880257
 40
3.0
 50
274.5699253967
 51
275.663173753
  0
ARC
  8
0
 62
7
  6
CONTINUOUS
 10
153.9519057467
 20
180.4086880257
 40
3.0
 50
275.6771325067
 51
285.950146682
  0
ARC
  8
0
 62
7
  6
CONTINUOUS
 10
153.9519057467
 20
185.1396721666
 40
3.0
 50
84.3362360617
 51
85.4300752701
  0
ARC
  8
0
 62
7
  6
CONTINUOUS
 10
153.9519057467
 20
185.1396721666
 40
3.0
 50
74.0498533359
 51
84.322324274
  0
ARC
  8
SURFACE
 62
7
  6
CONTINUOUS
 10
153.0801964349
 20
178.5147708616
 40
1.3
 50
2.6233399029
 51
85.4299956922
  0
ARC
  8
SURFACE
 62
7
  6
CONTINUOUS
 10
153.0801964349
 20
187.0335893307
 40
1.3
 50
274.5700008051
 51
357.3712001109
  0
ARC
  8
SURFACE
 62
7
  6
CONTINUOUS
 10
153.0801964349
 20
186.9147708616
 40
1.3
 50
0.0000000001
 51
85.4299999999
  0
ARC
  8
SURFACE
 62
7
  6
CONTINUOUS
 10
153.0801964349
 20
178.6335893307
 40
1.3
 50
274.57
 51
360.0
  0
ARC
  8
0
 62
7
  6
CONTINUOUS
 10
152.3801964349
 20
195.3006132548
 40
2.0
 50
2.3460883248
 51
28.7852795421
  0
ARC
  8
0
 62
7
  6
CONTINUOUS
 10
151.8801964349
 20
202.5021340099
 40
0.5
 50
90.157428509
 51
179.9999999999
  0
ARC
  8
0
 62
7
  6
CONTINUOUS
 10
151.8801964349
 20
205.0462261099
 40
0.5
 50
180.0000000002
 51
269.8425684784
  0
ARC
  8
0
 62
7
  6
CONTINUOUS
 10
152.3801964349
 20
212.2477469374
 40
2.0
 50
358.9224912076
 51
359.5949492423
  0
ARC
  8
0
 62
7
  6
CONTINUOUS
 10
153.9519057467
 20
197.2086880257
 40
3.0
 50
274.5699253967
 51
275.663173753
  0
ARC
  8
0
 62
7
  6
CONTINUOUS
 10
153.9519057467
 20
197.2086880257
 40
3.0
 50
275.6771325067
 51
285.950146682
  0
ARC
  8
0
 62
7
  6
CONTINUOUS
 10
153.9519057467
 20
201.9396721666
 40
3.0
 50
74.05
 51
75.8564637406
  0
ARC
  8
0
 62
7
  6
CONTINUOUS
 10
153.3801964349
 20
201.787416664
 40
2.0
 50
179.9996750278
 51
208.7852771182
  0
ARC
  8
SURFACE
 62
7
  6
CONTINUOUS
 10
153.0801964349
 20
195.3147708616
 40
1.3
 50
2.6233399029
 51
85.4299956922
  0
ARC
  8
SURFACE
 62
7
  6
CONTINUOUS
 10
153.0801964349
 20
195.4335893307
 40
1.3
 50
274.57
 51
360.0
  0
ARC
  8
0
 62
7
  6
CONTINUOUS
 10
153.9519057467
 20
214.0086880257
 40
3.0
 50
274.5699253967
 51
275.663173753
  0
ARC
  8
0
 62
7
  6
CONTINUOUS
 10
153.9519057467
 20
214.0086880257
 40
3.0
 50
275.6771325067
 51
285.950146682
  0
ARC
  8
0
 62
7
  6
CONTINUOUS
 10
153.9519057467
 20
218.7396721666
 40
3.0
 50
74.0499979248
 51
85.4300307247
  0
ARC
  8
SURFACE
 62
7
  6
CONTINUOUS
 10
153.0801964349
 20
212.1147708616
 40
1.3
 50
2.6285892763
 51
85.4299956922
  0
ARC
  8
0
 62
7
  6
CONTINUOUS
 10
153.0801964349
 20
212.1147708616
 40
1.3
 50
2.6233399029
 51
5.2318158804
  0
ARC
  8
0
 62
7
  6
CONTINUOUS
 10
153.0801964349
 20
220.6335893307
 40
1.3
 50
298.8555659015
 51
353.8978571733
  0
ARC
  8
0
 62
7
  6
CONTINUOUS
 10
153.0801964349
 20
220.6335893307
 40
1.3
 50
354.7681841197
 51
357.376660097
  0
ARC
  8
SURFACE
 62
7
  6
CONTINUOUS
 10
153.0801964349
 20
220.6335893307
 40
1.3
 50
274.5700008051
 51
357.3712001109
  0
ARC
  8
0
 62
7
  6
CONTINUOUS
 10
153.0801964349
 20
220.5147708616
 40
1.3
 50
0.0000000001
 51
85.4299999999
  0
ARC
  8
SURFACE
 62
7
  6
CONTINUOUS
 10
153.0801964349
 20
212.2335893307
 40
1.3
 50
274.570006264
 51
280.7296484793
  0
ARC
  8
SURFACE
 62
7
  6
CONTINUOUS
 10
153.0801964349
 20
212.2335893307
 40
1.3
 50
286.6684750732
 51
359.9689391668
  0
ARC
  8
0
 62
7
  6
CONTINUOUS
 10
153.0801964349
 20
212.2335893307
 40
1.3
 50
274.57
 51
360.0
  0
ARC
  8
0
 62
7
  6
CONTINUOUS
 10
158.127957232
 20
187.2742782801
 40
0.2
 50
254.05
 51
269.9998354767
  0
ARC
  8
0
 62
7
  6
CONTINUOUS
 10
158.1801964349
 20
187.2742780961
 40
0.2
 50
270.0
 51
0.0000003707
  0
ARC
  8
0
 62
7
  6
CONTINUOUS
 10
158.1801964349
 20
178.2742780961
 40
0.2
 50
359.9999996293
 51
90.0
  0
ARC
  8
0
 62
7
  6
CONTINUOUS
 10
158.1286430232
 20
178.2742779121
 40
0.2
 50
90.0001645736
 51
105.95
  0
ARC
  8
0
 62
7
  6
CONTINUOUS
 10
158.127957232
 20
170.4742782801
 40
0.2
 50
254.05
 51
269.9998354767
  0
ARC
  8
0
 62
7
  6
CONTINUOUS
 10
158.1801964349
 20
170.4742780961
 40
0.2
 50
270.0
 51
0.0000003707
  0
ARC
  8
0
 62
7
  6
CONTINUOUS
 10
158.1801964349
 20
161.4742780961
 40
0.2
 50
359.9999996293
 51
90.0
  0
ARC
  8
0
 62
7
  6
CONTINUOUS
 10
158.1286430232
 20
161.4742779121
 40
0.2
 50
90.0001645736
 51
105.95
  0
ARC
  8
0
 62
7
  6
CONTINUOUS
 10
158.1801964349
 20
153.6742780961
 40
0.2
 50
270.0
 51
0.0000003707
  0
ARC
  8
0
 62
7
  6
CONTINUOUS
 10
158.1801964349
 20
188.8742780961
 40
0.2
 50
270.0
 51
360.0
  0
ARC
  8
0
 62
7
  6
CONTINUOUS
 10
158.1801964349
 20
176.6742780961
 40
0.2
 50
0.0
 51
90.0
  0
ARC
  8
0
 62
7
  6
CONTINUOUS
 10
158.1801964349
 20
172.0742780961
 40
0.2
 50
270.0
 51
360.0
  0
ARC
  8
0
 62
7
  6
CONTINUOUS
 10
158.1801964349
 20
159.8742780961
 40
0.2
 50
0.0
 51
90.0
  0
ARC
  8
0
 62
7
  6
CONTINUOUS
 10
158.1801964349
 20
155.2742780961
 40
0.2
 50
270.0
 51
360.0
  0
ARC
  8
0
 62
7
  6
CONTINUOUS
 10
158.1801964349
 20
220.8742780961
 40
0.2
 50
270.0
 51
0.0000003707
  0
ARC
  8
0
 62
7
  6
CONTINUOUS
 10
158.1801964349
 20
204.0742780961
 40
0.2
 50
270.0
 51
0.0000003707
  0
ARC
  8
0
 62
7
  6
CONTINUOUS
 10
158.1801964349
 20
195.0742780961
 40
0.2
 50
359.9999996293
 51
90.0
  0
ARC
  8
0
 62
7
  6
CONTINUOUS
 10
158.1286430232
 20
195.0742779121
 40
0.2
 50
90.0001645736
 51
105.95
  0
ARC
  8
0
 62
7
  6
CONTINUOUS
 10
158.1801964349
 20
211.8742780961
 40
0.2
 50
359.9999996293
 51
90.0
  0
ARC
  8
0
 62
7
  6
CONTINUOUS
 10
158.1286430232
 20
211.8742779121
 40
0.2
 50
90.0001645736
 51
105.95
  0
ARC
  8
0
 62
7
  6
CONTINUOUS
 10
158.1801964349
 20
222.4742780961
 40
0.2
 50
270.0
 51
360.0
  0
ARC
  8
0
 62
7
  6
CONTINUOUS
 10
158.1801964349
 20
205.6742780961
 40
0.2
 50
270.0
 51
360.0
  0
ARC
  8
0
 62
7
  6
CONTINUOUS
 10
158.1801964349
 20
193.4742780961
 40
0.2
 50
0.0
 51
90.0
  0
ARC
  8
0
 62
7
  6
CONTINUOUS
 10
158.1801964349
 20
228.6741800961
 40
0.2
 50
0.0
 51
90.0
  0
ARC
  8
0
 62
7
  6
CONTINUOUS
 10
158.1801964349
 20
210.2742780961
 40
0.2
 50
0.0
 51
90.0
  0
ARC
  8
0
 62
7
  6
CONTINUOUS
 10
38.1062398657
 20
243.4533234385
 40
50.0
 50
16.7916494165
 51
25.3854478982
  0
ARC
  8
0
 62
7
  6
CONTINUOUS
 10
41.5184901532
 20
255.6312905268
 40
2.0
 50
247.380135052
 51
270.0
  0
ARC
  8
SURFACE
 62
7
  6
CONTINUOUS
 10
41.5184901532
 20
255.6312905268
 40
2.0
 50
258.840872949
 51
270.0
  0
ARC
  8
SURFACE
 62
7
  6
CONTINUOUS
 10
41.5184901532
 20
255.6312905268
 40
2.0
 50
247.3801307389
 51
258.5393710692
  0
ARC
  8
0
 62
7
  6
CONTINUOUS
 10
44.0141284335
 20
261.6312905268
 40
8.75
 50
32.4514908424
 51
60.6343989129
  0
ARC
  8
0
 62
7
  6
CONTINUOUS
 10
44.0184901532
 20
261.6312905268
 40
8.5
 50
109.9888710197
 51
247.3801340371
  0
ARC
  8
0
 62
7
  6
CONTINUOUS
 10
44.0184901532
 20
261.6312905268
 40
5.8
 50
359.9999382295
 51
180.0000540026
  0
CIRCLE
  8
0
 62
7
  6
CONTINUOUS
 10
44.0184901532
 20
261.6312905268
 40
4.15
  0
ARC
  8
SURFACE
 62
7
  6
CONTINUOUS
 10
47.1184901532
 20
259.6312905268
 40
6.0
 50
269.9999949252
 51
294.7352185005
  0
ARC
  8
0
 62
7
  6
CONTINUOUS
 10
47.1184901532
 20
259.6312905268
 40
6.0
 50
270.0
 51
343.2083543266
  0
ARC
  8
0
 62
7
  6
CONTINUOUS
 10
48.4030349032
 20
269.4312905268
 40
0.2
 50
90.0
 51
240.6343979082
  0
ARC
  8
0
 62
7
  6
CONTINUOUS
 10
41.1812379614
 20
269.4312905268
 40
0.2
 50
90.0
 51
109.9888731217
  0
ARC
  8
SURFACE
 62
7
  6
CONTINUOUS
 10
56.7330076552
 20
264.3312905268
 40
1.3
 50
90.0
 51
154.6145886722
  0
ARC
  8
0
 62
7
  6
CONTINUOUS
 10
56.7330076552
 20
264.3312905268
 40
1.3
 50
89.9995672946
 51
150.774741927
  0
ARC
  8
0
 62
7
  6
CONTINUOUS
 10
52.6635503795
 20
267.1312905268
 40
1.5
 50
212.4514921117
 51
270.0
  0
ARC
  8
SURFACE
 62
7
  6
CONTINUOUS
 10
52.6635503795
 20
267.1312905268
 40
1.5
 50
219.3036986854
 51
220.2887007813
  0
ARC
  8
SURFACE
 62
7
  6
CONTINUOUS
 10
100.7307404407
 20
243.4533234385
 40
50.0
 50
154.6145529839
 51
163.208350117
  0
ARC
  8
SURFACE
 62
7
  6
CONTINUOUS
 10
97.3184901532
 20
255.6312905268
 40
2.0
 50
270.0
 51
288.6990750246
  0
ARC
  8
SURFACE
 62
7
  6
CONTINUOUS
 10
97.3184901532
 20
255.6312905268
 40
2.0
 50
289.0006187454
 51
291.2235132993
  0
ARC
  8
0
 62
7
  6
CONTINUOUS
 10
97.3184901532
 20
255.6312905268
 40
2.0
 50
270.0
 51
292.6198676213
  0
ARC
  8
0
 62
7
  6
CONTINUOUS
 10
82.1039726511
 20
264.3312905268
 40
1.3
 50
25.385445254
 51
90.0000026248
  0
ARC
  8
0
 62
7
  6
CONTINUOUS
 10
94.8184901532
 20
261.6312905268
 40
8.5
 50
292.6198655771
 51
70.0111289351
  0
ARC
  8
SURFACE
 62
7
  6
CONTINUOUS
 10
91.7184901532
 20
259.6312905268
 40
6.0
 50
245.2649026715
 51
268.8630091192
  0
ARC
  8
0
 62
7
  6
CONTINUOUS
 10
91.7184901532
 20
259.6312905268
 40
6.0
 50
196.7916495606
 51
270.0
  0
CIRCLE
  8
0
 62
7
  6
CONTINUOUS
 10
94.8184901532
 20
261.6312905268
 40
4.15
  0
ARC
  8
0
 62
7
  6
CONTINUOUS
 10
97.655742345
 20
269.4312905268
 40
0.2
 50
70.0111270628
 51
90.0
  0
ENDSEC
  0
EOF
