  0
SECTION
  2
HEADER
  9
$EXTMAX
 10
841.0
 20
594.0
 30
0.0
  9
$EXTMIN
 10
0.0
 20
0.0
 30
0.0
  9
$LIMMIN
 10
0.0
 20
0.0
  9
$LIMMAX
 10
841.0
 20
594.0
  9
$VIEWCTR
 10
420.5
 20
297.0
  9
$VIEWSIZE
 40
594.0
  9
$CLAYER
  8
0
  9
$LTSCALE
 40
46.255
  9
$CELTYPE
  6
BYLAYER
  9
$DIMSCALE
 40
1.0
  9
$DIMASZ
 40
3.5
  9
$DIMEXO
 40
0.0
  9
$DIMDLI
 40
31.958
  9
$DIMEXE
 40
2.0
  9
$DIMCEN
 40
7.569
  9
$DIMLFAC
 40
1.0
  9
$DIMBLK
  1
_FILLED
  9
$DIMALT
 70
0
  9
$DIMALTF
 40
0.0393700787
  9
$DIMTXT
 40
3.5
  9
$AUNITS
 70
0
  9
$PDMODE
 70
3
  9
$PDSIZE
 40
0.3125
  9
$TILEMODE
 70
1
  0
ENDSEC
  0
SECTION
  2
TABLES
  0
TABLE
  2
LTYPE
 70
6
  0
LTYPE
  2
BYBLOCK
 70
0
  3

 72
65
 73
0
 40
0.0
  0
LTYPE
  2
BYLAYER
 70
0
  3

 72
65
 73
0
 40
0.0
  0
LTYPE
  2
CONTINUOUS
 70
64
  3
Solid line
 72
65
 73
0
 40
0.0
  0
LTYPE
  2
CENTER
 70
64
  3
____ _ ____ _ ____ _ ____ _ ____ _ ____ _ ____
 72
65
 73
4
 40
0.6
 49
0.375
 49
-0.075
 49
0.075
 49
-0.075
  0
LTYPE
  2
HIDDEN
 70
64
  3
- - - - - - - - - - - - - - - - - - - -
 72
65
 73
2
 40
0.2
 49
0.1
 49
-0.1
  0
LTYPE
  2
PHANTOM
 70
64
  3
_____ _ _ _____ _ _ _____ _ _ _____
 72
65
 73
6
 40
0.8
 49
0.45
 49
-0.05
 49
0.1
 49
-0.05
 49
0.1
 49
-0.05
  0
LTYPE
  2
DOT
 70
64
  3
. . . . . . . . . . . . . . . . . . . .
 72
65
 73
2
 40
0.2
 49
0.1
 49
-0.1
  0
LTYPE
  2
DASHED
 70
64
  3
- - - - - - - - - - - - - - - - - - - -
 72
65
 73
2
 40
0.2
 49
0.1
 49
-0.1
  0
ENDTAB
  0
TABLE
  2
LAYER
 70
36
  0
LAYER
  2
0
 70
0
 62
7
  6
CONTINUOUS
  0
LAYER
  2
DEFAULT_1
 70
0
 62
7
  6
CENTER
  0
LAYER
  2
DEFAULT_2
 70
0
 62
8
  6
HIDDEN
  0
LAYER
  2
DEFAULT_3
 70
0
 62
7
  6
PHANTOM
  0
LAYER
  2
1_CSYS
 70
0
 62
7
  6
CONTINUOUS
  0
LAYER
  2
1_DATUM_PLANE
 70
0
 62
7
  6
CONTINUOUS
  0
LAYER
  2
2_FEATURE
 70
0
 62
7
  6
CONTINUOUS
  0
LAYER
  2
6_DIM
 70
0
 62
7
  6
CONTINUOUS
  0
LAYER
  2
AXES
 70
0
 62
7
  6
CONTINUOUS
  0
LAYER
  2
BLANK_BELT
 70
0
 62
7
  6
CONTINUOUS
  0
LAYER
  2
BLANK_CURVE_BORE
 70
0
 62
7
  6
CONTINUOUS
  0
LAYER
  2
BLANK_PLAN
 70
0
 62
7
  6
CONTINUOUS
  0
LAYER
  2
BLANK_SQ
 70
0
 62
7
  6
CONTINUOUS
  0
LAYER
  2
CSYS
 70
0
 62
7
  6
CONTINUOUS
  0
LAYER
  2
DTM_AXES
 70
0
 62
7
  6
CONTINUOUS
  0
LAYER
  2
DTM_CRV
 70
0
 62
7
  6
CONTINUOUS
  0
LAYER
  2
NOTES
 70
0
 62
7
  6
CONTINUOUS
  0
LAYER
  2
OUTERLINE
 70
0
 62
7
  6
CONTINUOUS
  0
LAYER
  2
PITCH_LINE
 70
0
 62
7
  6
CONTINUOUS
  0
LAYER
  2
PLANES
 70
0
 62
7
  6
CONTINUOUS
  0
LAYER
  2
QUILTS
 70
0
 62
7
  6
CONTINUOUS
  0
ENDTAB
  0
TABLE
  2
STYLE
 70
1
  0
STYLE
  2
STANDARD
 70
0
 40
0.0
 41
0.8
 50
0.0
 71
0
 42
0.2
  3
txt
  4

  0
STYLE
  2
TEXTSTYLE_1
 70
0
 40
0.0
 41
0.8
 50
0.0
 71
0
 42
0.2
  3
gdt
  4

  0
STYLE
  2
TEXTSTYLE_2
 70
0
 40
0.0
 41
0.6
 50
0.0
 71
0
 42
0.2
  3
txt
  4

  0
STYLE
  2
TEXTSTYLE_3
 70
0
 40
0.0
 41
1.0
 50
0.0
 71
0
 42
0.2
  3
frutiger light.ttf
  4

  0
STYLE
  2
TEXTSTYLE_4
 70
0
 40
0.0
 41
1.0
 50
0.0
 71
0
 42
0.2
  3
ftr_____.ttf
  4

  0
STYLE
  2
TEXTSTYLE_5
 70
0
 40
0.0
 41
0.7
 50
0.0
 71
0
 42
0.2
  3
txt
  4

  0
STYLE
  2
TEXTSTYLE_6
 70
0
 40
0.0
 41
1.0
 50
0.0
 71
0
 42
0.2
  3
ftb_____.ttf
  4

  0
ENDTAB
  0
ENDSEC
  0
SECTION
  2
BLOCKS
  0
BLOCK
  8
0
 62
2
  6
CONTINUOUS
  2
UNI_LOGO2_BL1
 70
64
 10
804.4079930916
 20
35.8092573885
  0
TEXT
  8
0
 62
7
  6
CONTINUOUS
 10
795.4662781001
 20
30.9020137655
  7
TEXTSTYLE_4
 40
1.0655737705
  1
The brand for plastic modular belts and chains
 41
1.0
 72
0
  0
LINE
  8
0
 62
7
  6
CONTINUOUS
 10
780.3860614807
 20
36.3830278803
 11
780.3860614807
 21
34.2518803393
  0
LINE
  8
0
 62
7
  6
CONTINUOUS
 10
780.6751239738
 20
31.2609490436
 11
780.6751239738
 21
31.3577401029
  0
LINE
  8
0
 62
7
  6
CONTINUOUS
 10
780.3860614807
 20
31.3254764164
 11
780.4438739824
 21
31.1318942979
  0
LINE
  8
0
 62
7
  6
CONTINUOUS
 10
781.7795041036
 20
34.1699131262
 11
781.7795041036
 21
36.3830278803
  0
LINE
  8
0
 62
7
  6
CONTINUOUS
 10
782.6985614255
 20
32.3256508311
 11
782.6985614255
 21
30.8092573885
  0
LINE
  8
0
 62
7
  6
CONTINUOUS
 10
782.9876239807
 20
30.8092573885
 11
782.9876239807
 21
31.5513222666
  0
LINE
  8
0
 62
7
  6
CONTINUOUS
 10
782.9876239807
 20
31.6803770123
 11
782.9876239807
 21
32.3256508311
  0
LINE
  8
0
 62
7
  6
CONTINUOUS
 10
780.4438739824
 20
31.5190585802
 11
780.3860614807
 21
31.3254764164
  0
LINE
  8
0
 62
7
  6
CONTINUOUS
 10
780.7907489669
 20
31.0996306115
 11
780.6751239738
 21
31.2609490436
  0
LINE
  8
0
 62
7
  6
CONTINUOUS
 10
781.8891865358
 20
31.6158496394
 11
781.9469989807
 21
31.5190585802
  0
LINE
  8
0
 62
7
  6
CONTINUOUS
 10
782.2360615358
 20
31.5190585802
 11
782.1782489255
 21
31.6481133259
  0
LINE
  8
0
 62
7
  6
CONTINUOUS
 10
783.6647500052
 20
36.3830278803
 11
783.6647500052
 21
34.5797491918
  0
LINE
  8
0
 62
7
  6
CONTINUOUS
 10
783.6647500052
 20
33.2682737819
 11
783.6647500052
 21
32.612536077
  0
LINE
  8
0
 62
7
  6
CONTINUOUS
 10
784.0282489807
 20
31.4545312073
 11
784.0282489807
 21
30.8092573885
  0
LINE
  8
0
 62
7
  6
CONTINUOUS
 10
784.3173113704
 20
30.8092573885
 11
784.3173113704
 21
31.4545312073
  0
LINE
  8
0
 62
7
  6
CONTINUOUS
 10
780.6751239738
 20
31.3577401029
 11
780.7329364807
 21
31.4867948937
  0
LINE
  8
0
 62
7
  6
CONTINUOUS
 10
780.4438739824
 20
31.1318942979
 11
780.5594989807
 21
31.0028395296
  0
LINE
  8
0
 62
7
  6
CONTINUOUS
 10
783.9704363704
 20
31.583585953
 11
784.0282489807
 21
31.4545312073
  0
LINE
  8
0
 62
7
  6
CONTINUOUS
 10
784.7798115909
 20
31.0996306115
 11
784.8376238704
 21
30.9705758432
  0
LINE
  8
0
 62
7
  6
CONTINUOUS
 10
784.3173113704
 20
31.4545312073
 11
784.2594990909
 21
31.6158496394
  0
LINE
  8
0
 62
7
  6
CONTINUOUS
 10
784.7798115909
 20
31.6481133259
 11
784.7798115909
 21
31.583585953
  0
LINE
  8
0
 62
7
  6
CONTINUOUS
 10
784.7798115909
 20
31.1964216708
 11
784.7798115909
 21
31.0996306115
  0
LINE
  8
0
 62
7
  6
CONTINUOUS
 10
785.0581926282
 20
32.612536077
 11
785.0581926282
 21
36.3830278803
  0
LINE
  8
0
 62
7
  6
CONTINUOUS
 10
785.0688739807
 20
31.0673669025
 11
785.0688739807
 21
31.1318942979
  0
LINE
  8
0
 62
7
  6
CONTINUOUS
 10
785.3860614807
 20
36.3830278803
 11
785.3860614807
 21
32.612536077
  0
LINE
  8
0
 62
7
  6
CONTINUOUS
 10
782.1782489255
 20
31.0028395296
 11
782.2360615358
 21
31.1318942979
  0
LINE
  8
0
 62
7
  6
CONTINUOUS
 10
786.5719992012
 20
30.9060484591
 11
786.5141862601
 21
31.0673669025
  0
LINE
  8
0
 62
7
  6
CONTINUOUS
 10
786.2251242012
 20
31.583585953
 11
786.2251242012
 21
31.4867948937
  0
LINE
  8
0
 62
7
  6
CONTINUOUS
 10
786.2251242012
 20
31.3577401029
 11
786.2251242012
 21
31.1641579843
  0
LINE
  8
0
 62
7
  6
CONTINUOUS
 10
786.5141862601
 20
31.0673669025
 11
786.5141862601
 21
31.583585953
  0
LINE
  8
0
 62
7
  6
CONTINUOUS
 10
786.7795041036
 20
32.612536077
 11
786.7795041036
 21
34.4158147655
  0
LINE
  8
0
 62
7
  6
CONTINUOUS
 10
786.7795041036
 20
35.7272901754
 11
786.7795041036
 21
36.3830278803
  0
LINE
  8
0
 62
7
  6
CONTINUOUS
 10
787.0923117012
 20
32.3256508311
 11
787.0923117012
 21
32.164332399
  0
LINE
  8
0
 62
7
  6
CONTINUOUS
 10
787.0923117012
 20
31.8416954444
 11
787.0923117012
 21
30.8092573885
  0
LINE
  8
0
 62
7
  6
CONTINUOUS
 10
787.3813737601
 20
30.8092573885
 11
787.3813737601
 21
31.8416954444
  0
LINE
  8
0
 62
7
  6
CONTINUOUS
 10
787.3813737601
 20
32.164332399
 11
787.3813737601
 21
32.3256508311
  0
LINE
  8
0
 62
7
  6
CONTINUOUS
 10
781.9469989807
 20
31.1318942979
 11
781.8891865358
 21
31.035103216
  0
LINE
  8
0
 62
7
  6
CONTINUOUS
 10
784.2594990909
 20
31.6158496394
 11
784.2016864807
 21
31.6803770123
  0
LINE
  8
0
 62
7
  6
CONTINUOUS
 10
785.1266865909
 20
31.0028395296
 11
785.0688739807
 21
31.0673669025
  0
LINE
  8
0
 62
7
  6
CONTINUOUS
 10
786.2829364807
 20
30.873784767
 11
786.3407487601
 21
30.8092573885
  0
LINE
  8
0
 62
7
  6
CONTINUOUS
 10
786.2251242012
 20
30.9705758432
 11
786.2829364807
 21
30.873784767
  0
LINE
  8
0
 62
7
  6
CONTINUOUS
 10
786.6298114807
 20
30.8092573885
 11
786.5719992012
 21
30.9060484591
  0
LINE
  8
0
 62
7
  6
CONTINUOUS
 10
786.5141862601
 20
31.583585953
 11
786.4563739807
 21
31.6803770123
  0
LINE
  8
0
 62
7
  6
CONTINUOUS
 10
787.8438739807
 20
31.8416954444
 11
787.8438739807
 21
30.8092573885
  0
LINE
  8
0
 62
7
  6
CONTINUOUS
 10
788.1329367012
 20
30.8092573885
 11
788.1329367012
 21
31.5513222666
  0
LINE
  8
0
 62
7
  6
CONTINUOUS
 10
788.1329367012
 20
31.6803770123
 11
788.1329367012
 21
31.8416954444
  0
LINE
  8
0
 62
7
  6
CONTINUOUS
 10
788.6647500052
 20
34.8256508311
 11
788.6647500052
 21
32.612536077
  0
LINE
  8
0
 62
7
  6
CONTINUOUS
 10
780.5594989807
 20
31.6481133259
 11
780.4438739824
 21
31.5190585802
  0
LINE
  8
0
 62
7
  6
CONTINUOUS
 10
780.7329364807
 20
31.4867948937
 11
780.7907489669
 21
31.5513222666
  0
LINE
  8
0
 62
7
  6
CONTINUOUS
 10
780.5594989807
 20
31.0028395296
 11
780.6751239738
 21
30.9383121455
  0
LINE
  8
0
 62
7
  6
CONTINUOUS
 10
780.9641864669
 20
31.0028395296
 11
780.7907489669
 21
31.0996306115
  0
LINE
  8
0
 62
7
  6
CONTINUOUS
 10
786.1673112601
 20
31.6481133259
 11
786.2251242012
 21
31.583585953
  0
LINE
  8
0
 62
7
  6
CONTINUOUS
 10
789.1157487601
 20
31.583585953
 11
789.1735617012
 21
31.4222675209
  0
LINE
  8
0
 62
7
  6
CONTINUOUS
 10
789.4626237601
 20
31.4222675209
 11
789.4048114807
 21
31.583585953
  0
LINE
  8
0
 62
7
  6
CONTINUOUS
 10
789.1735617012
 20
31.4222675209
 11
789.1735617012
 21
30.8092573885
  0
LINE
  8
0
 62
7
  6
CONTINUOUS
 10
789.4626237601
 20
30.8092573885
 11
789.4626237601
 21
31.4222675209
  0
LINE
  8
0
 62
7
  6
CONTINUOUS
 10
789.9251239807
 20
31.6481133259
 11
789.9251239807
 21
31.583585953
  0
LINE
  8
0
 62
7
  6
CONTINUOUS
 10
790.0581926282
 20
32.612536077
 11
790.0581926282
 21
34.743683618
  0
LINE
  8
0
 62
7
  6
CONTINUOUS
 10
790.3860614807
 20
36.3830278803
 11
790.3860614807
 21
32.612536077
  0
LINE
  8
0
 62
7
  6
CONTINUOUS
 10
785.0688739807
 20
31.1318942979
 11
785.1266865909
 21
31.2286853572
  0
LINE
  8
0
 62
7
  6
CONTINUOUS
 10
780.6751239738
 20
30.9383121455
 11
780.8485614944
 21
30.873784767
  0
LINE
  8
0
 62
7
  6
CONTINUOUS
 10
782.1782489255
 20
31.6481133259
 11
782.0048114255
 21
31.7449043851
  0
LINE
  8
0
 62
7
  6
CONTINUOUS
 10
784.8376238704
 20
30.9705758432
 11
785.0110613704
 21
30.873784767
  0
LINE
  8
0
 62
7
  6
CONTINUOUS
 10
783.8548114807
 20
31.6481133259
 11
783.9704363704
 21
31.583585953
  0
LINE
  8
0
 62
7
  6
CONTINUOUS
 10
784.2016864807
 20
31.6803770123
 11
784.0860615909
 21
31.7449043851
  0
LINE
  8
0
 62
7
  6
CONTINUOUS
 10
789.9251239807
 20
31.0673669025
 11
790.0407492012
 21
30.9383121455
  0
LINE
  8
0
 62
7
  6
CONTINUOUS
 10
790.2719989807
 20
31.0028395296
 11
790.2141867012
 21
31.0673669025
  0
LINE
  8
0
 62
7
  6
CONTINUOUS
 10
789.9251239807
 20
31.583585953
 11
790.0407492012
 21
31.4545312073
  0
LINE
  8
0
 62
7
  6
CONTINUOUS
 10
789.4048114807
 20
31.583585953
 11
789.3469992012
 21
31.6803770123
  0
LINE
  8
0
 62
7
  6
CONTINUOUS
 10
791.7751235396
 20
31.0028395296
 11
791.7751235396
 21
31.0673669025
  0
LINE
  8
0
 62
7
  6
CONTINUOUS
 10
791.7795041036
 20
32.612536077
 11
791.7795041036
 21
36.3830278803
  0
LINE
  8
0
 62
7
  6
CONTINUOUS
 10
784.8376238704
 20
31.7126406987
 11
784.7798115909
 21
31.6481133259
  0
LINE
  8
0
 62
7
  6
CONTINUOUS
 10
781.7157489531
 20
31.6803770123
 11
781.8891865358
 21
31.6158496394
  0
LINE
  8
0
 62
7
  6
CONTINUOUS
 10
786.4563739807
 20
31.6803770123
 11
786.3407487601
 21
31.7449043851
  0
LINE
  8
0
 62
7
  6
CONTINUOUS
 10
790.2719989807
 20
31.5190585802
 11
790.2141867012
 21
31.583585953
  0
LINE
  8
0
 62
7
  6
CONTINUOUS
 10
791.4282492012
 20
31.1318942979
 11
791.4860614807
 21
31.0673669025
  0
LINE
  8
0
 62
7
  6
CONTINUOUS
 10
791.7751235396
 20
31.0673669025
 11
791.6594989807
 21
31.1964216708
  0
LINE
  8
0
 62
7
  6
CONTINUOUS
 10
791.4282492012
 20
31.6481133259
 11
791.4860614807
 21
31.583585953
  0
LINE
  8
0
 62
7
  6
CONTINUOUS
 10
791.7751235396
 20
31.583585953
 11
791.6594989807
 21
31.7126406987
  0
LINE
  8
0
 62
7
  6
CONTINUOUS
 10
785.0688739807
 20
31.583585953
 11
785.1266865909
 21
31.6481133259
  0
LINE
  8
0
 62
7
  6
CONTINUOUS
 10
784.8954364807
 20
31.3254764164
 11
784.7798115909
 21
31.1964216708
  0
LINE
  8
0
 62
7
  6
CONTINUOUS
 10
786.2251242012
 20
31.1641579843
 11
786.1673112601
 21
31.0996306115
  0
LINE
  8
0
 62
7
  6
CONTINUOUS
 10
786.1673112601
 20
30.9060484591
 11
786.2251242012
 21
30.9705758432
  0
LINE
  8
0
 62
7
  6
CONTINUOUS
 10
785.0110613704
 20
30.873784767
 11
785.1266865909
 21
30.8415210777
  0
LINE
  8
0
 62
7
  6
CONTINUOUS
 10
782.0048114255
 20
31.7449043851
 11
781.7735614807
 21
31.809431758
  0
LINE
  8
0
 62
7
  6
CONTINUOUS
 10
785.3579363704
 20
30.9383121455
 11
785.1266865909
 21
31.0028395296
  0
LINE
  8
0
 62
7
  6
CONTINUOUS
 10
784.0860615909
 20
31.7449043851
 11
783.9126240909
 21
31.809431758
  0
LINE
  8
0
 62
7
  6
CONTINUOUS
 10
786.3407487601
 20
31.7449043851
 11
786.1673112601
 21
31.809431758
  0
LINE
  8
0
 62
7
  6
CONTINUOUS
 10
789.0001242012
 20
31.6481133259
 11
789.1157487601
 21
31.583585953
  0
LINE
  8
0
 62
7
  6
CONTINUOUS
 10
789.3469992012
 20
31.6803770123
 11
789.2313739807
 21
31.7449043851
  0
LINE
  8
0
 62
7
  6
CONTINUOUS
 10
780.8485614944
 20
30.873784767
 11
781.0219989944
 21
30.8415210777
  0
LINE
  8
0
 62
7
  6
CONTINUOUS
 10
781.3110615082
 20
30.9383121455
 11
780.9641864669
 21
31.0028395296
  0
LINE
  8
0
 62
7
  6
CONTINUOUS
 10
783.7391865909
 20
31.6803770123
 11
783.8548114807
 21
31.6481133259
  0
LINE
  8
0
 62
7
  6
CONTINUOUS
 10
786.0516867012
 20
31.6803770123
 11
786.1673112601
 21
31.6481133259
  0
LINE
  8
0
 62
7
  6
CONTINUOUS
 10
790.3876242012
 20
30.9705758432
 11
790.2719989807
 21
31.0028395296
  0
LINE
  8
0
 62
7
  6
CONTINUOUS
 10
788.8844989807
 20
31.6803770123
 11
789.0001242012
 21
31.6481133259
  0
LINE
  8
0
 62
7
  6
CONTINUOUS
 10
790.0407492012
 20
30.9383121455
 11
790.2141867012
 21
30.873784767
  0
LINE
  8
0
 62
7
  6
CONTINUOUS
 10
789.2313739807
 20
31.7449043851
 11
789.0579364807
 21
31.809431758
  0
LINE
  8
0
 62
7
  6
CONTINUOUS
 10
790.4454364807
 20
31.4545312073
 11
790.2719989807
 21
31.5190585802
  0
LINE
  8
0
 62
7
  6
CONTINUOUS
 10
791.2548117012
 20
31.1964216708
 11
791.4282492012
 21
31.1318942979
  0
LINE
  8
0
 62
7
  6
CONTINUOUS
 10
791.6594989807
 20
31.7126406987
 11
791.4860614807
 21
31.7771680715
  0
LINE
  8
0
 62
7
  6
CONTINUOUS
 10
790.0407492012
 20
31.4545312073
 11
790.2719989807
 21
31.3577401029
  0
LINE
  8
0
 62
7
  6
CONTINUOUS
 10
791.6594989807
 20
31.1964216708
 11
791.4282492012
 21
31.29321273
  0
LINE
  8
0
 62
7
  6
CONTINUOUS
 10
790.2141867012
 20
31.583585953
 11
790.2719989807
 21
31.6481133259
  0
LINE
  8
0
 62
7
  6
CONTINUOUS
 10
780.6751239738
 20
31.7126406987
 11
780.5594989807
 21
31.6481133259
  0
LINE
  8
0
 62
7
  6
CONTINUOUS
 10
780.7907489669
 20
31.5513222666
 11
780.9641864669
 21
31.6481133259
  0
LINE
  8
0
 62
7
  6
CONTINUOUS
 10
783.1032490358
 20
31.7449043851
 11
782.9876239807
 21
31.6803770123
  0
LINE
  8
0
 62
7
  6
CONTINUOUS
 10
782.9876239807
 20
31.5513222666
 11
783.1032490358
 21
31.6158496394
  0
LINE
  8
0
 62
7
  6
CONTINUOUS
 10
782.0048114255
 20
30.9060484591
 11
782.1782489255
 21
31.0028395296
  0
LINE
  8
0
 62
7
  6
CONTINUOUS
 10
781.0219989944
 20
30.8415210777
 11
781.3688739531
 21
30.8092573885
  0
LINE
  8
0
 62
7
  6
CONTINUOUS
 10
785.1266865909
 20
30.8415210777
 11
785.3579363704
 21
30.8092573885
  0
LINE
  8
0
 62
7
  6
CONTINUOUS
 10
783.5079364807
 20
31.7126406987
 11
783.7391865909
 21
31.6803770123
  0
LINE
  8
0
 62
7
  6
CONTINUOUS
 10
785.8204365909
 20
31.7126406987
 11
786.0516867012
 21
31.6803770123
  0
LINE
  8
0
 62
7
  6
CONTINUOUS
 10
790.2719989807
 20
31.3577401029
 11
791.2548117012
 21
31.1964216708
  0
LINE
  8
0
 62
7
  6
CONTINUOUS
 10
791.4282492012
 20
31.29321273
 11
790.4454364807
 21
31.4545312073
  0
LINE
  8
0
 62
7
  6
CONTINUOUS
 10
783.9126240909
 20
31.809431758
 11
783.7391865909
 21
31.8416954444
  0
LINE
  8
0
 62
7
  6
CONTINUOUS
 10
790.2141867012
 20
30.873784767
 11
790.3876242012
 21
30.8415210777
  0
LINE
  8
0
 62
7
  6
CONTINUOUS
 10
789.0579364807
 20
31.809431758
 11
788.8844989807
 21
31.8416954444
  0
LINE
  8
0
 62
7
  6
CONTINUOUS
 10
791.3126239807
 20
31.6803770123
 11
791.4282492012
 21
31.6481133259
  0
LINE
  8
0
 62
7
  6
CONTINUOUS
 10
791.4860614807
 20
31.0673669025
 11
791.4282492012
 21
31.0028395296
  0
LINE
  8
0
 62
7
  6
CONTINUOUS
 10
790.0407492012
 20
31.7449043851
 11
789.9251239807
 21
31.6481133259
  0
LINE
  8
0
 62
7
  6
CONTINUOUS
 10
784.9532490909
 20
31.7771680715
 11
784.8376238704
 21
31.7126406987
  0
LINE
  8
0
 62
7
  6
CONTINUOUS
 10
785.0110613704
 20
31.3900038345
 11
784.8954364807
 21
31.3254764164
  0
LINE
  8
0
 62
7
  6
CONTINUOUS
 10
785.1266865909
 20
31.2286853572
 11
785.2423114807
 21
31.29321273
  0
LINE
  8
0
 62
7
  6
CONTINUOUS
 10
782.6985614255
 20
30.8092573885
 11
782.9876239807
 21
30.8092573885
  0
LINE
  8
0
 62
7
  6
CONTINUOUS
 10
784.0282489807
 20
30.8092573885
 11
784.3173113704
 21
30.8092573885
  0
LINE
  8
0
 62
7
  6
CONTINUOUS
 10
785.3579363704
 20
30.8092573885
 11
785.7048113704
 21
30.8092573885
  0
LINE
  8
0
 62
7
  6
CONTINUOUS
 10
786.3407487601
 20
30.8092573885
 11
786.6298114807
 21
30.8092573885
  0
LINE
  8
0
 62
7
  6
CONTINUOUS
 10
787.0923117012
 20
30.8092573885
 11
787.3813737601
 21
30.8092573885
  0
LINE
  8
0
 62
7
  6
CONTINUOUS
 10
787.8438739807
 20
30.8092573885
 11
788.1329367012
 21
30.8092573885
  0
LINE
  8
0
 62
7
  6
CONTINUOUS
 10
789.1735617012
 20
30.8092573885
 11
789.4626237601
 21
30.8092573885
  0
LINE
  8
0
 62
7
  6
CONTINUOUS
 10
790.7344992012
 20
30.8092573885
 11
791.0813742012
 21
30.8092573885
  0
LINE
  8
0
 62
7
  6
CONTINUOUS
 10
791.0813742012
 20
30.9383121455
 11
790.7344992012
 21
30.9383121455
  0
LINE
  8
0
 62
7
  6
CONTINUOUS
 10
785.7048113704
 20
30.9383121455
 11
785.3579363704
 21
30.9383121455
  0
LINE
  8
0
 62
7
  6
CONTINUOUS
 10
790.2141867012
 20
31.0673669025
 11
789.9251239807
 21
31.0673669025
  0
LINE
  8
0
 62
7
  6
CONTINUOUS
 10
782.2360615358
 20
31.1318942979
 11
781.9469989807
 21
31.1318942979
  0
LINE
  8
0
 62
7
  6
CONTINUOUS
 10
781.3110615082
 20
31.7126406987
 11
781.7157489531
 21
31.6803770123
  0
LINE
  8
0
 62
7
  6
CONTINUOUS
 10
781.7735614807
 20
31.809431758
 11
781.3688739531
 21
31.8416954444
  0
LINE
  8
0
 62
7
  6
CONTINUOUS
 10
790.3876242012
 20
30.8415210777
 11
790.7344992012
 21
30.8092573885
  0
LINE
  8
0
 62
7
  6
CONTINUOUS
 10
790.7344992012
 20
30.9383121455
 11
790.3876242012
 21
30.9705758432
  0
LINE
  8
0
 62
7
  6
CONTINUOUS
 10
786.1673112601
 20
31.809431758
 11
785.8204365909
 21
31.8416954444
  0
LINE
  8
0
 62
7
  6
CONTINUOUS
 10
790.9657489807
 20
31.7126406987
 11
791.3126239807
 21
31.6803770123
  0
LINE
  8
0
 62
7
  6
CONTINUOUS
 10
791.3126239807
 20
31.809431758
 11
790.9657489807
 21
31.8416954444
  0
LINE
  8
0
 62
7
  6
CONTINUOUS
 10
788.6532492012
 20
31.7126406987
 11
788.8844989807
 21
31.6803770123
  0
LINE
  8
0
 62
7
  6
CONTINUOUS
 10
791.4860614807
 20
31.7771680715
 11
791.3126239807
 21
31.809431758
  0
LINE
  8
0
 62
7
  6
CONTINUOUS
 10
791.6594989807
 20
30.9060484591
 11
791.7751235396
 21
31.0028395296
  0
LINE
  8
0
 62
7
  6
CONTINUOUS
 10
786.1673112601
 20
31.0996306115
 11
785.9938737601
 21
31.0028395296
  0
LINE
  8
0
 62
7
  6
CONTINUOUS
 10
788.2485612601
 20
31.7449043851
 11
788.1329367012
 21
31.6803770123
  0
LINE
  8
0
 62
7
  6
CONTINUOUS
 10
788.1329367012
 20
31.5513222666
 11
788.2485612601
 21
31.6158496394
  0
LINE
  8
0
 62
7
  6
CONTINUOUS
 10
780.8485614944
 20
31.7771680715
 11
780.6751239738
 21
31.7126406987
  0
LINE
  8
0
 62
7
  6
CONTINUOUS
 10
783.2766863704
 20
31.809431758
 11
783.1032490358
 21
31.7449043851
  0
LINE
  8
0
 62
7
  6
CONTINUOUS
 10
783.1032490358
 20
31.6158496394
 11
783.2766863704
 21
31.6803770123
  0
LINE
  8
0
 62
7
  6
CONTINUOUS
 10
781.8891865358
 20
31.035103216
 11
781.7157489531
 21
30.9705758432
  0
LINE
  8
0
 62
7
  6
CONTINUOUS
 10
791.3126239807
 20
30.9705758432
 11
791.0813742012
 21
30.9383121455
  0
LINE
  8
0
 62
7
  6
CONTINUOUS
 10
785.7048113704
 20
30.8092573885
 11
785.9938737601
 21
30.8415210777
  0
LINE
  8
0
 62
7
  6
CONTINUOUS
 10
791.0813742012
 20
30.8092573885
 11
791.4282492012
 21
30.8415210777
  0
LINE
  8
0
 62
7
  6
CONTINUOUS
 10
781.3688739531
 20
30.8092573885
 11
781.7735614807
 21
30.8415210777
  0
LINE
  8
0
 62
7
  6
CONTINUOUS
 10
781.7157489531
 20
30.9705758432
 11
781.3110615082
 21
30.9383121455
  0
LINE
  8
0
 62
7
  6
CONTINUOUS
 10
785.5891864807
 20
31.3577401029
 11
786.2251242012
 21
31.3577401029
  0
LINE
  8
0
 62
7
  6
CONTINUOUS
 10
786.2251242012
 20
31.4867948937
 11
785.5891864807
 21
31.4867948937
  0
LINE
  8
0
 62
7
  6
CONTINUOUS
 10
781.9469989807
 20
31.5190585802
 11
782.2360615358
 21
31.5190585802
  0
LINE
  8
0
 62
7
  6
CONTINUOUS
 10
784.7798115909
 20
31.583585953
 11
785.0688739807
 21
31.583585953
  0
LINE
  8
0
 62
7
  6
CONTINUOUS
 10
791.4860614807
 20
31.583585953
 11
791.7751235396
 21
31.583585953
  0
LINE
  8
0
 62
7
  6
CONTINUOUS
 10
785.4735615909
 20
31.7126406987
 11
785.8204365909
 21
31.7126406987
  0
LINE
  8
0
 62
7
  6
CONTINUOUS
 10
790.6188739807
 20
31.7126406987
 11
790.9657489807
 21
31.7126406987
  0
LINE
  8
0
 62
7
  6
CONTINUOUS
 10
790.9657489807
 20
31.8416954444
 11
790.6188739807
 21
31.8416954444
  0
LINE
  8
0
 62
7
  6
CONTINUOUS
 10
788.8844989807
 20
31.8416954444
 11
788.6532492012
 21
31.8416954444
  0
LINE
  8
0
 62
7
  6
CONTINUOUS
 10
788.1329367012
 20
31.8416954444
 11
787.8438739807
 21
31.8416954444
  0
LINE
  8
0
 62
7
  6
CONTINUOUS
 10
787.3813737601
 20
31.8416954444
 11
787.0923117012
 21
31.8416954444
  0
LINE
  8
0
 62
7
  6
CONTINUOUS
 10
785.8204365909
 20
31.8416954444
 11
785.4735615909
 21
31.8416954444
  0
LINE
  8
0
 62
7
  6
CONTINUOUS
 10
783.7391865909
 20
31.8416954444
 11
783.5079364807
 21
31.8416954444
  0
LINE
  8
0
 62
7
  6
CONTINUOUS
 10
787.0923117012
 20
32.164332399
 11
787.3813737601
 21
32.164332399
  0
LINE
  8
0
 62
7
  6
CONTINUOUS
 10
787.3813737601
 20
32.3256508311
 11
787.0923117012
 21
32.3256508311
  0
LINE
  8
0
 62
7
  6
CONTINUOUS
 10
782.9876239807
 20
32.3256508311
 11
782.6985614255
 21
32.3256508311
  0
LINE
  8
0
 62
7
  6
CONTINUOUS
 10
782.025405743
 20
32.612536077
 11
782.4379770916
 21
32.612536077
  0
LINE
  8
0
 62
7
  6
CONTINUOUS
 10
783.6647500052
 20
32.612536077
 11
785.0581926282
 21
32.612536077
  0
LINE
  8
0
 62
7
  6
CONTINUOUS
 10
785.3860614807
 20
32.612536077
 11
786.7795041036
 21
32.612536077
  0
LINE
  8
0
 62
7
  6
CONTINUOUS
 10
788.6647500052
 20
32.612536077
 11
790.0581926282
 21
32.612536077
  0
LINE
  8
0
 62
7
  6
CONTINUOUS
 10
790.3860614807
 20
32.612536077
 11
791.7795041036
 21
32.612536077
  0
LINE
  8
0
 62
7
  6
CONTINUOUS
 10
788.4219987601
 20
31.809431758
 11
788.2485612601
 21
31.7449043851
  0
LINE
  8
0
 62
7
  6
CONTINUOUS
 10
785.9938737601
 20
30.8415210777
 11
786.1673112601
 21
30.9060484591
  0
LINE
  8
0
 62
7
  6
CONTINUOUS
 10
791.4282492012
 20
30.8415210777
 11
791.6594989807
 21
30.9060484591
  0
LINE
  8
0
 62
7
  6
CONTINUOUS
 10
791.4282492012
 20
31.0028395296
 11
791.3126239807
 21
30.9705758432
  0
LINE
  8
0
 62
7
  6
CONTINUOUS
 10
790.3876242012
 20
31.6803770123
 11
790.6188739807
 21
31.7126406987
  0
LINE
  8
0
 62
7
  6
CONTINUOUS
 10
788.4219987601
 20
31.6803770123
 11
788.6532492012
 21
31.7126406987
  0
LINE
  8
0
 62
7
  6
CONTINUOUS
 10
785.3579363704
 20
31.3254764164
 11
785.5891864807
 21
31.3577401029
  0
LINE
  8
0
 62
7
  6
CONTINUOUS
 10
788.6532492012
 20
31.8416954444
 11
788.4219987601
 21
31.809431758
  0
LINE
  8
0
 62
7
  6
CONTINUOUS
 10
785.2423114807
 20
31.6803770123
 11
785.4735615909
 21
31.7126406987
  0
LINE
  8
0
 62
7
  6
CONTINUOUS
 10
790.6188739807
 20
31.8416954444
 11
790.2719989807
 21
31.809431758
  0
LINE
  8
0
 62
7
  6
CONTINUOUS
 10
785.5891864807
 20
31.4867948937
 11
785.2423114807
 21
31.4545312073
  0
LINE
  8
0
 62
7
  6
CONTINUOUS
 10
781.3688739531
 20
31.8416954444
 11
781.0219989944
 21
31.809431758
  0
LINE
  8
0
 62
7
  6
CONTINUOUS
 10
785.4735615909
 20
31.8416954444
 11
785.0688739807
 21
31.809431758
  0
LINE
  8
0
 62
7
  6
CONTINUOUS
 10
782.8450778741
 20
33.7600770606
 11
782.1893401692
 21
33.7600770606
  0
LINE
  8
0
 62
7
  6
CONTINUOUS
 10
788.2485612601
 20
31.6158496394
 11
788.4219987601
 21
31.6803770123
  0
LINE
  8
0
 62
7
  6
CONTINUOUS
 10
790.2719989807
 20
31.6481133259
 11
790.3876242012
 21
31.6803770123
  0
LINE
  8
0
 62
7
  6
CONTINUOUS
 10
790.2719989807
 20
31.809431758
 11
790.0407492012
 21
31.7449043851
  0
LINE
  8
0
 62
7
  6
CONTINUOUS
 10
785.9938737601
 20
31.0028395296
 11
785.7048113704
 21
30.9383121455
  0
LINE
  8
0
 62
7
  6
CONTINUOUS
 10
783.2766863704
 20
31.6803770123
 11
783.5079364807
 21
31.7126406987
  0
LINE
  8
0
 62
7
  6
CONTINUOUS
 10
783.5079364807
 20
31.8416954444
 11
783.2766863704
 21
31.809431758
  0
LINE
  8
0
 62
7
  6
CONTINUOUS
 10
781.0798114807
 20
31.6803770123
 11
781.3110615082
 21
31.7126406987
  0
LINE
  8
0
 62
7
  6
CONTINUOUS
 10
787.5991762348
 20
35.2354868967
 11
788.2549139397
 21
35.2354868967
  0
LINE
  8
0
 62
7
  6
CONTINUOUS
 10
785.2423114807
 20
31.29321273
 11
785.3579363704
 21
31.3254764164
  0
LINE
  8
0
 62
7
  6
CONTINUOUS
 10
785.2423114807
 20
31.4545312073
 11
785.0110613704
 21
31.3900038345
  0
LINE
  8
0
 62
7
  6
CONTINUOUS
 10
785.1266865909
 20
31.6481133259
 11
785.2423114807
 21
31.6803770123
  0
LINE
  8
0
 62
7
  6
CONTINUOUS
 10
781.7735614807
 20
30.8415210777
 11
782.0048114255
 21
30.9060484591
  0
LINE
  8
0
 62
7
  6
CONTINUOUS
 10
785.0688739807
 20
31.809431758
 11
784.9532490909
 21
31.7771680715
  0
LINE
  8
0
 62
7
  6
CONTINUOUS
 10
781.0219989944
 20
31.809431758
 11
780.8485614944
 21
31.7771680715
  0
LINE
  8
0
 62
7
  6
CONTINUOUS
 10
791.7795041036
 20
36.3830278803
 11
790.3860614807
 21
36.3830278803
  0
LINE
  8
0
 62
7
  6
CONTINUOUS
 10
788.4188483659
 20
36.3830278803
 11
788.0062770173
 21
36.3830278803
  0
LINE
  8
0
 62
7
  6
CONTINUOUS
 10
786.7795041036
 20
36.3830278803
 11
785.3860614807
 21
36.3830278803
  0
LINE
  8
0
 62
7
  6
CONTINUOUS
 10
785.0581926282
 20
36.3830278803
 11
783.6647500052
 21
36.3830278803
  0
LINE
  8
0
 62
7
  6
CONTINUOUS
 10
781.7795041036
 20
36.3830278803
 11
780.3860614807
 21
36.3830278803
  0
LINE
  8
0
 62
7
  6
CONTINUOUS
 10
780.9641864669
 20
31.6481133259
 11
781.0798114807
 21
31.6803770123
  0
CIRCLE
  8
0
 62
7
  6
CONTINUOUS
 10
791.0827827921
 20
38.7190934541
 40
2.0901639344
  0
ARC
  8
0
 62
7
  6
CONTINUOUS
 10
782.025405743
 20
34.2518803393
 40
1.6393442623
 50
180.0
 51
270.0
  0
ARC
  8
0
 62
7
  6
CONTINUOUS
 10
788.4188483659
 20
34.743683618
 40
1.6393442623
 50
0.0
 51
90.0
  0
ARC
  8
0
 62
7
  6
CONTINUOUS
 10
782.4379770916
 20
34.0879459131
 40
1.4754098361
 50
270.0
 51
326.2510114041
  0
ARC
  8
0
 62
7
  6
CONTINUOUS
 10
788.0062770173
 20
34.9076180442
 40
1.4754098361
 50
90.0
 51
146.2510114041
  0
ARC
  8
0
 62
7
  6
CONTINUOUS
 10
782.8450778741
 20
34.5797491918
 40
0.8196721311
 50
270.0
 51
360.0
  0
ARC
  8
0
 62
7
  6
CONTINUOUS
 10
787.5991762348
 20
34.4158147655
 40
0.8196721311
 50
90.0
 51
180.0
  0
ARC
  8
0
 62
7
  6
CONTINUOUS
 10
782.1893401692
 20
34.1699131262
 40
0.4098360656
 50
180.0
 51
270.0
  0
ARC
  8
0
 62
7
  6
CONTINUOUS
 10
788.2549139397
 20
34.8256508311
 40
0.4098360656
 50
0.0
 51
90.0
  0
SOLID
  8
0
 62
7
  6
CONTINUOUS
 10
787.0923117012
 20
32.1643327593
 11
787.0923117012
 21
32.3256512429
 12
787.3813737601
 22
32.1643327593
 13
787.3813737601
 23
32.3256512429
  0
SOLID
  8
0
 62
7
  6
CONTINUOUS
 10
781.3688739531
 20
31.841695792
 11
781.7735614807
 21
31.8094316148
 12
781.0219989944
 22
31.8094316148
 13
781.0219989944
 23
31.8094316148
  0
SOLID
  8
0
 62
7
  6
CONTINUOUS
 10
780.8485614944
 20
31.7771687019
 11
781.0219989944
 21
31.8094316148
 12
781.7735614807
 22
31.8094316148
 13
781.7735614807
 23
31.8094316148
  0
SOLID
  8
0
 62
7
  6
CONTINUOUS
 10
781.7735614807
 20
31.8094316148
 11
782.0048114255
 21
31.7449043986
 12
780.8485614944
 22
31.7771687019
 13
780.8485614944
 23
31.7771687019
  0
SOLID
  8
0
 62
7
  6
CONTINUOUS
 10
780.6751239738
 20
31.712640202
 11
780.8485614944
 21
31.7771687019
 12
782.0048114255
 22
31.7449043986
 13
782.0048114255
 23
31.7449043986
  0
SOLID
  8
0
 62
7
  6
CONTINUOUS
 10
780.6751239738
 20
31.712640202
 11
782.0048114255
 21
31.7449043986
 12
781.3110615082
 22
31.712640202
 13
781.3110615082
 23
31.712640202
  0
SOLID
  8
0
 62
7
  6
CONTINUOUS
 10
781.3110615082
 20
31.712640202
 11
782.0048114255
 21
31.7449043986
 12
781.7157489531
 22
31.6803773084
 13
781.7157489531
 23
31.6803773084
  0
SOLID
  8
0
 62
7
  6
CONTINUOUS
 10
782.0048114255
 20
31.7449043986
 11
782.1782489255
 21
31.6481130052
 12
781.7157489531
 22
31.6803773084
 13
781.7157489531
 23
31.6803773084
  0
SOLID
  8
0
 62
7
  6
CONTINUOUS
 10
781.8891865358
 20
31.6158502183
 11
781.7157489531
 21
31.6803773084
 12
782.1782489255
 22
31.6481130052
 13
782.1782489255
 23
31.6481130052
  0
SOLID
  8
0
 62
7
  6
CONTINUOUS
 10
781.8891865358
 20
31.6158502183
 11
782.1782489255
 21
31.6481130052
 12
781.9469989807
 22
31.5190586669
 13
781.9469989807
 23
31.5190586669
  0
SOLID
  8
0
 62
7
  6
CONTINUOUS
 10
782.1782489255
 20
31.6481130052
 11
782.2360615358
 21
31.5190586669
 12
781.9469989807
 22
31.5190586669
 13
781.9469989807
 23
31.5190586669
  0
SOLID
  8
0
 62
7
  6
CONTINUOUS
 10
783.2766863704
 20
31.8094307377
 11
783.5079364807
 21
31.841695041
 12
783.7391865909
 22
31.841695041
 13
783.7391865909
 23
31.841695041
  0
SOLID
  8
0
 62
7
  6
CONTINUOUS
 10
783.7391865909
 20
31.841695041
 11
783.9126240909
 21
31.8094307377
 12
783.2766863704
 22
31.8094307377
 13
783.2766863704
 23
31.8094307377
  0
SOLID
  8
0
 62
7
  6
CONTINUOUS
 10
783.1032490358
 20
31.7449036475
 11
783.2766863704
 21
31.8094307377
 12
783.9126240909
 22
31.8094307377
 13
783.9126240909
 23
31.8094307377
  0
SOLID
  8
0
 62
7
  6
CONTINUOUS
 10
783.9126240909
 20
31.8094307377
 11
784.0860615909
 21
31.7449036475
 12
783.1032490358
 22
31.7449036475
 13
783.1032490358
 23
31.7449036475
  0
SOLID
  8
0
 62
7
  6
CONTINUOUS
 10
784.0860615909
 20
31.7449036475
 11
783.5079364807
 21
31.7126400953
 12
783.1032490358
 22
31.7449036475
 13
783.1032490358
 23
31.7449036475
  0
SOLID
  8
0
 62
7
  6
CONTINUOUS
 10
782.9876239807
 20
31.6803765574
 11
783.1032490358
 21
31.7449036475
 12
783.5079364807
 22
31.7126400953
 13
783.5079364807
 23
31.7126400953
  0
SOLID
  8
0
 62
7
  6
CONTINUOUS
 10
783.5079364807
 20
31.7126400953
 11
783.2766863704
 21
31.6803765574
 12
782.9876239807
 22
31.6803765574
 13
782.9876239807
 23
31.6803765574
  0
SOLID
  8
0
 62
7
  6
CONTINUOUS
 10
783.5079364807
 20
31.7126400953
 11
784.0860615909
 21
31.7449036475
 12
783.7391865909
 22
31.6803765574
 13
783.7391865909
 23
31.6803765574
  0
SOLID
  8
0
 62
7
  6
CONTINUOUS
 10
784.0860615909
 20
31.7449036475
 11
784.2016864807
 21
31.6803765574
 12
783.7391865909
 22
31.6803765574
 13
783.7391865909
 23
31.6803765574
  0
SOLID
  8
0
 62
7
  6
CONTINUOUS
 10
783.8548114807
 20
31.6481130052
 11
783.7391865909
 21
31.6803765574
 12
784.2016864807
 22
31.6803765574
 13
784.2016864807
 23
31.6803765574
  0
SOLID
  8
0
 62
7
  6
CONTINUOUS
 10
784.2016864807
 20
31.6803765574
 11
784.2594990909
 21
31.6158494672
 12
783.8548114807
 22
31.6481130052
 13
783.8548114807
 23
31.6481130052
  0
SOLID
  8
0
 62
7
  6
CONTINUOUS
 10
783.9704363704
 20
31.583585915
 11
783.8548114807
 21
31.6481130052
 12
784.2594990909
 22
31.6158494672
 13
784.2594990909
 23
31.6158494672
  0
SOLID
  8
0
 62
7
  6
CONTINUOUS
 10
783.9704363704
 20
31.583585915
 11
784.2594990909
 21
31.6158494672
 12
784.0282489807
 22
31.4545309836
 13
784.0282489807
 23
31.4545309836
  0
SOLID
  8
0
 62
7
  6
CONTINUOUS
 10
784.2594990909
 20
31.6158494672
 11
784.3173113704
 21
31.4545309836
 12
784.0282489807
 22
31.4545309836
 13
784.0282489807
 23
31.4545309836
  0
SOLID
  8
0
 62
7
  6
CONTINUOUS
 10
783.2766863704
 20
31.6803765574
 11
783.1032490358
 21
31.6158494672
 12
782.9876239807
 22
31.6803765574
 13
782.9876239807
 23
31.6803765574
  0
SOLID
  8
0
 62
7
  6
CONTINUOUS
 10
783.1032490358
 20
31.6158494672
 11
782.9876239807
 21
31.5513216117
 12
782.9876239807
 22
31.6803765574
 13
782.9876239807
 23
31.6803765574
  0
SOLID
  8
0
 62
7
  6
CONTINUOUS
 10
782.9876239807
 20
31.5513216117
 11
782.6985614255
 21
30.8092570492
 12
782.9876239807
 22
31.6803765574
 13
782.9876239807
 23
31.6803765574
  0
SOLID
  8
0
 62
7
  6
CONTINUOUS
 10
782.9876239807
 20
31.6803765574
 11
782.6985614255
 21
30.8092570492
 12
782.9876239807
 22
32.3256504918
 13
782.9876239807
 23
32.3256504918
  0
SOLID
  8
0
 62
7
  6
CONTINUOUS
 10
782.6985614255
 20
30.8092570492
 11
782.6985614255
 21
32.3256504918
 12
782.9876239807
 22
32.3256504918
 13
782.9876239807
 23
32.3256504918
  0
SOLID
  8
0
 62
7
  6
CONTINUOUS
 10
782.9876239807
 20
31.5513216117
 11
782.9876239807
 21
30.8092570492
 12
782.6985614255
 22
30.8092570492
 13
782.6985614255
 23
30.8092570492
  0
SOLID
  8
0
 62
7
  6
CONTINUOUS
 10
784.0282489807
 20
30.8092570492
 11
784.0282489807
 21
31.4545309836
 12
784.3173113704
 22
31.4545309836
 13
784.3173113704
 23
31.4545309836
  0
SOLID
  8
0
 62
7
  6
CONTINUOUS
 10
784.3173113704
 20
31.4545309836
 11
784.3173113704
 21
30.8092570492
 12
784.0282489807
 22
30.8092570492
 13
784.0282489807
 23
30.8092570492
  0
SOLID
  8
0
 62
7
  6
CONTINUOUS
 10
785.0688739807
 20
31.809431823
 11
785.4735615909
 21
31.8416958158
 12
785.8204365909
 22
31.8416958158
 13
785.8204365909
 23
31.8416958158
  0
SOLID
  8
0
 62
7
  6
CONTINUOUS
 10
785.8204365909
 20
31.8416958158
 11
786.1673112601
 21
31.809431823
 12
785.0688739807
 22
31.809431823
 13
785.0688739807
 23
31.809431823
  0
SOLID
  8
0
 62
7
  6
CONTINUOUS
 10
784.9532490909
 20
31.7771687019
 11
785.0688739807
 21
31.809431823
 12
786.1673112601
 22
31.809431823
 13
786.1673112601
 23
31.809431823
  0
SOLID
  8
0
 62
7
  6
CONTINUOUS
 10
786.1673112601
 20
31.809431823
 11
786.3407487601
 21
31.7449043986
 12
784.9532490909
 22
31.7771687019
 13
784.9532490909
 23
31.7771687019
  0
SOLID
  8
0
 62
7
  6
CONTINUOUS
 10
784.8376238704
 20
31.7126398448
 11
784.9532490909
 21
31.7771687019
 12
786.3407487601
 22
31.7449043986
 13
786.3407487601
 23
31.7449043986
  0
SOLID
  8
0
 62
7
  6
CONTINUOUS
 10
784.8376238704
 20
31.7126398448
 11
786.3407487601
 21
31.7449043986
 12
785.4735615909
 22
31.7126398448
 13
785.4735615909
 23
31.7126398448
  0
SOLID
  8
0
 62
7
  6
CONTINUOUS
 10
785.4735615909
 20
31.7126398448
 11
786.3407487601
 21
31.7449043986
 12
785.8204365909
 22
31.7126398448
 13
785.8204365909
 23
31.7126398448
  0
SOLID
  8
0
 62
7
  6
CONTINUOUS
 10
785.8204365909
 20
31.7126398448
 11
786.3407487601
 21
31.7449043986
 12
786.0516867012
 22
31.6803774007
 13
786.0516867012
 23
31.6803774007
  0
SOLID
  8
0
 62
7
  6
CONTINUOUS
 10
786.3407487601
 20
31.7449043986
 11
786.4563739807
 21
31.6803774007
 12
786.0516867012
 22
31.6803774007
 13
786.0516867012
 23
31.6803774007
  0
SOLID
  8
0
 62
7
  6
CONTINUOUS
 10
784.7798115909
 20
31.6481126336
 11
784.8376238704
 21
31.7126398448
 12
785.4735615909
 22
31.7126398448
 13
785.4735615909
 23
31.7126398448
  0
SOLID
  8
0
 62
7
  6
CONTINUOUS
 10
786.1673112601
 20
31.6481126336
 11
786.0516867012
 21
31.6803774007
 12
786.4563739807
 22
31.6803774007
 13
786.4563739807
 23
31.6803774007
  0
SOLID
  8
0
 62
7
  6
CONTINUOUS
 10
786.1673112601
 20
31.6481126336
 11
786.4563739807
 21
31.6803774007
 12
786.2251242012
 22
31.5835861968
 13
786.2251242012
 23
31.5835861968
  0
SOLID
  8
0
 62
7
  6
CONTINUOUS
 10
786.4563739807
 20
31.6803774007
 11
786.5141862601
 21
31.5835861968
 12
786.2251242012
 22
31.5835861968
 13
786.2251242012
 23
31.5835861968
  0
SOLID
  8
0
 62
7
  6
CONTINUOUS
 10
786.2251242012
 20
31.4867945216
 11
786.2251242012
 21
31.5835861968
 12
786.5141862601
 22
31.5835861968
 13
786.5141862601
 23
31.5835861968
  0
SOLID
  8
0
 62
7
  6
CONTINUOUS
 10
786.2251242012
 20
31.4867945216
 11
786.5141862601
 21
31.5835861968
 12
786.2251242012
 22
31.3577403412
 13
786.2251242012
 23
31.3577403412
  0
SOLID
  8
0
 62
7
  6
CONTINUOUS
 10
786.2251242012
 20
31.3577403412
 11
786.5141862601
 21
31.5835861968
 12
786.2251242012
 22
31.1641579843
 13
786.2251242012
 23
31.1641579843
  0
SOLID
  8
0
 62
7
  6
CONTINUOUS
 10
786.5141862601
 20
31.5835861968
 11
786.5141862601
 21
31.0673661609
 12
786.2251242012
 22
31.1641579843
 13
786.2251242012
 23
31.1641579843
  0
SOLID
  8
0
 62
7
  6
CONTINUOUS
 10
788.4219987601
 20
31.8094310465
 11
788.6532492012
 21
31.8416957661
 12
788.8844989807
 22
31.8416957661
 13
788.8844989807
 23
31.8416957661
  0
SOLID
  8
0
 62
7
  6
CONTINUOUS
 10
788.8844989807
 20
31.8416957661
 11
789.0579364807
 21
31.8094310465
 12
788.4219987601
 22
31.8094310465
 13
788.4219987601
 23
31.8094310465
  0
SOLID
  8
0
 62
7
  6
CONTINUOUS
 10
788.2485612601
 20
31.7449047044
 11
788.4219987601
 21
31.8094310465
 12
789.0579364807
 22
31.8094310465
 13
789.0579364807
 23
31.8094310465
  0
SOLID
  8
0
 62
7
  6
CONTINUOUS
 10
789.0579364807
 20
31.8094310465
 11
789.2313739807
 21
31.7449047044
 12
788.2485612601
 22
31.7449047044
 13
788.2485612601
 23
31.7449047044
  0
SOLID
  8
0
 62
7
  6
CONTINUOUS
 10
789.2313739807
 20
31.7449047044
 11
788.6532492012
 21
31.7126400953
 12
788.2485612601
 22
31.7449047044
 13
788.2485612601
 23
31.7449047044
  0
SOLID
  8
0
 62
7
  6
CONTINUOUS
 10
788.1329367012
 20
31.6803773299
 11
788.2485612601
 21
31.7449047044
 12
788.6532492012
 22
31.7126400953
 13
788.6532492012
 23
31.7126400953
  0
SOLID
  8
0
 62
7
  6
CONTINUOUS
 10
788.6532492012
 20
31.7126400953
 11
788.4219987601
 21
31.6803773299
 12
788.1329367012
 22
31.6803773299
 13
788.1329367012
 23
31.6803773299
  0
SOLID
  8
0
 62
7
  6
CONTINUOUS
 10
788.6532492012
 20
31.7126400953
 11
789.2313739807
 21
31.7449047044
 12
788.8844989807
 22
31.6803773299
 13
788.8844989807
 23
31.6803773299
  0
SOLID
  8
0
 62
7
  6
CONTINUOUS
 10
789.2313739807
 20
31.7449047044
 11
789.3469992012
 21
31.6803773299
 12
788.8844989807
 22
31.6803773299
 13
788.8844989807
 23
31.6803773299
  0
SOLID
  8
0
 62
7
  6
CONTINUOUS
 10
789.0001242012
 20
31.6481130052
 11
788.8844989807
 21
31.6803773299
 12
789.3469992012
 22
31.6803773299
 13
789.3469992012
 23
31.6803773299
  0
SOLID
  8
0
 62
7
  6
CONTINUOUS
 10
789.0001242012
 20
31.6481130052
 11
789.3469992012
 21
31.6803773299
 12
789.1157487601
 22
31.5835862682
 13
789.1157487601
 23
31.5835862682
  0
SOLID
  8
0
 62
7
  6
CONTINUOUS
 10
789.3469992012
 20
31.6803773299
 11
789.4048114807
 21
31.5835862682
 12
789.1157487601
 22
31.5835862682
 13
789.1157487601
 23
31.5835862682
  0
SOLID
  8
0
 62
7
  6
CONTINUOUS
 10
789.1735617012
 20
31.422267832
 11
789.1157487601
 21
31.5835862682
 12
789.4048114807
 22
31.5835862682
 13
789.4048114807
 23
31.5835862682
  0
SOLID
  8
0
 62
7
  6
CONTINUOUS
 10
789.4048114807
 20
31.5835862682
 11
789.4626237601
 21
31.422267832
 12
789.1735617012
 22
31.422267832
 13
789.1735617012
 23
31.422267832
  0
SOLID
  8
0
 62
7
  6
CONTINUOUS
 10
788.4219987601
 20
31.6803773299
 11
788.2485612601
 21
31.6158502183
 12
788.1329367012
 22
31.6803773299
 13
788.1329367012
 23
31.6803773299
  0
SOLID
  8
0
 62
7
  6
CONTINUOUS
 10
788.2485612601
 20
31.6158502183
 11
788.1329367012
 21
31.5513216117
 12
788.1329367012
 22
31.6803773299
 13
788.1329367012
 23
31.6803773299
  0
SOLID
  8
0
 62
7
  6
CONTINUOUS
 10
788.1329367012
 20
31.5513216117
 11
787.8438739807
 21
30.8092577743
 12
788.1329367012
 22
31.6803773299
 13
788.1329367012
 23
31.6803773299
  0
SOLID
  8
0
 62
7
  6
CONTINUOUS
 10
788.1329367012
 20
31.6803773299
 11
787.8438739807
 21
30.8092577743
 12
788.1329367012
 22
31.8416957661
 13
788.1329367012
 23
31.8416957661
  0
SOLID
  8
0
 62
7
  6
CONTINUOUS
 10
787.8438739807
 20
30.8092577743
 11
787.8438739807
 21
31.8416957661
 12
788.1329367012
 22
31.8416957661
 13
788.1329367012
 23
31.8416957661
  0
SOLID
  8
0
 62
7
  6
CONTINUOUS
 10
788.1329367012
 20
31.5513216117
 11
788.1329367012
 21
30.8092577743
 12
787.8438739807
 22
30.8092577743
 13
787.8438739807
 23
30.8092577743
  0
SOLID
  8
0
 62
7
  6
CONTINUOUS
 10
789.1735617012
 20
30.8092577743
 11
789.1735617012
 21
31.422267832
 12
789.4626237601
 22
31.422267832
 13
789.4626237601
 23
31.422267832
  0
SOLID
  8
0
 62
7
  6
CONTINUOUS
 10
789.4626237601
 20
31.422267832
 11
789.4626237601
 21
30.8092577743
 12
789.1735617012
 22
30.8092577743
 13
789.1735617012
 23
30.8092577743
  0
SOLID
  8
0
 62
7
  6
CONTINUOUS
 10
790.2719989807
 20
31.8094314924
 11
790.6188739807
 21
31.8416958387
 12
790.9657489807
 22
31.8416958387
 13
790.9657489807
 23
31.8416958387
  0
SOLID
  8
0
 62
7
  6
CONTINUOUS
 10
790.9657489807
 20
31.8416958387
 11
791.3126239807
 21
31.8094314924
 12
790.2719989807
 22
31.8094314924
 13
790.2719989807
 23
31.8094314924
  0
SOLID
  8
0
 62
7
  6
CONTINUOUS
 10
790.0407492012
 20
31.7449043986
 11
790.2719989807
 21
31.8094314924
 12
791.3126239807
 22
31.8094314924
 13
791.3126239807
 23
31.8094314924
  0
SOLID
  8
0
 62
7
  6
CONTINUOUS
 10
790.0407492012
 20
31.7449043986
 11
791.3126239807
 21
31.8094314888
 12
791.4860614807
 22
31.7771687019
 13
791.4860614807
 23
31.7771687019
  0
SOLID
  8
0
 62
7
  6
CONTINUOUS
 10
790.0407492012
 20
31.7449043986
 11
791.4860614807
 21
31.7771687019
 12
790.6188739807
 22
31.7126401399
 13
790.6188739807
 23
31.7126401399
  0
SOLID
  8
0
 62
7
  6
CONTINUOUS
 10
790.6188739807
 20
31.7126401399
 11
791.4860614807
 21
31.7771687019
 12
790.9657489807
 22
31.7126401399
 13
790.9657489807
 23
31.7126401399
  0
SOLID
  8
0
 62
7
  6
CONTINUOUS
 10
791.4860614807
 20
31.7771687019
 11
791.6594989807
 21
31.7126401399
 12
790.9657489807
 22
31.7126401399
 13
790.9657489807
 23
31.7126401399
  0
SOLID
  8
0
 62
7
  6
CONTINUOUS
 10
791.3126239807
 20
31.6803773084
 11
790.9657489807
 21
31.7126401399
 12
791.6594989807
 22
31.7126401399
 13
791.6594989807
 23
31.7126401399
  0
SOLID
  8
0
 62
7
  6
CONTINUOUS
 10
789.9251239807
 20
31.6481128977
 11
790.0407492012
 21
31.7449043986
 12
790.6188739807
 22
31.7126401399
 13
790.6188739807
 23
31.7126401399
  0
SOLID
  8
0
 62
7
  6
CONTINUOUS
 10
791.3126239807
 20
31.6803773084
 11
791.6594989807
 21
31.7126401399
 12
791.4282492012
 22
31.6481128977
 13
791.4282492012
 23
31.6481128977
  0
SOLID
  8
0
 62
7
  6
CONTINUOUS
 10
791.4282492012
 20
31.6481128977
 11
791.6594989807
 21
31.7126401399
 12
791.4860614807
 22
31.5835858812
 13
791.4860614807
 23
31.5835858812
  0
SOLID
  8
0
 62
7
  6
CONTINUOUS
 10
791.6594989807
 20
31.7126401399
 11
791.7751235396
 21
31.5835858812
 12
791.4860614807
 22
31.5835858812
 13
791.4860614807
 23
31.5835858812
  0
SOLID
  8
0
 62
7
  6
CONTINUOUS
 10
781.0798114807
 20
31.6803773084
 11
780.5594989807
 21
31.6481129264
 12
781.3110615082
 22
31.7126401456
 13
781.3110615082
 23
31.7126401456
  0
SOLID
  8
0
 62
7
  6
CONTINUOUS
 10
780.5594989807
 20
31.6481129264
 11
780.6751239738
 21
31.7126401456
 12
781.3110615082
 22
31.7126401456
 13
781.3110615082
 23
31.7126401456
  0
SOLID
  8
0
 62
7
  6
CONTINUOUS
 10
781.0798114807
 20
31.6803773084
 11
780.9641864669
 21
31.6481129264
 12
780.5594989807
 22
31.6481129264
 13
780.5594989807
 23
31.6481129264
  0
SOLID
  8
0
 62
7
  6
CONTINUOUS
 10
780.4438739824
 20
31.5190588248
 11
780.5594989807
 21
31.6481129264
 12
780.9641864669
 22
31.6481129264
 13
780.9641864669
 23
31.6481129264
  0
SOLID
  8
0
 62
7
  6
CONTINUOUS
 10
784.7798115909
 20
31.6481130555
 11
785.4735615909
 21
31.7126400953
 12
785.2423114807
 22
31.6803773084
 13
785.2423114807
 23
31.6803773084
  0
SOLID
  8
0
 62
7
  6
CONTINUOUS
 10
785.2423114807
 20
31.6803773084
 11
785.1266865909
 21
31.6481130555
 12
784.7798115909
 22
31.6481130555
 13
784.7798115909
 23
31.6481130555
  0
SOLID
  8
0
 62
7
  6
CONTINUOUS
 10
784.7798115909
 20
31.5835859653
 11
784.7798115909
 21
31.6481130555
 12
785.1266865909
 22
31.6481130555
 13
785.1266865909
 23
31.6481130555
  0
SOLID
  8
0
 62
7
  6
CONTINUOUS
 10
785.1266865909
 20
31.6481130555
 11
785.0688739807
 21
31.5835859653
 12
784.7798115909
 22
31.5835859653
 13
784.7798115909
 23
31.5835859653
  0
SOLID
  8
0
 62
7
  6
CONTINUOUS
 10
789.9251239807
 20
31.6481130555
 11
790.6188739807
 21
31.7126400953
 12
790.3876242012
 22
31.6803773084
 13
790.3876242012
 23
31.6803773084
  0
SOLID
  8
0
 62
7
  6
CONTINUOUS
 10
790.3876242012
 20
31.6803773084
 11
790.2719989807
 21
31.6481130555
 12
789.9251239807
 22
31.6481130555
 13
789.9251239807
 23
31.6481130555
  0
SOLID
  8
0
 62
7
  6
CONTINUOUS
 10
789.9251239807
 20
31.5835859653
 11
789.9251239807
 21
31.6481130555
 12
790.2719989807
 22
31.6481130555
 13
790.2719989807
 23
31.6481130555
  0
SOLID
  8
0
 62
7
  6
CONTINUOUS
 10
790.2719989807
 20
31.6481130555
 11
790.2141867012
 21
31.5835859653
 12
789.9251239807
 22
31.5835859653
 13
789.9251239807
 23
31.5835859653
  0
SOLID
  8
0
 62
7
  6
CONTINUOUS
 10
790.0407492012
 20
31.4545317347
 11
789.9251239807
 21
31.5835859653
 12
790.2141867012
 22
31.5835859653
 13
790.2141867012
 23
31.5835859653
  0
SOLID
  8
0
 62
7
  6
CONTINUOUS
 10
780.4438739824
 20
31.5190588248
 11
780.9641864669
 21
31.6481130052
 12
780.7907489669
 22
31.5513216117
 13
780.7907489669
 23
31.5513216117
  0
SOLID
  8
0
 62
7
  6
CONTINUOUS
 10
780.7907489669
 20
31.5513216117
 11
780.7329364807
 21
31.4867945216
 12
780.4438739824
 22
31.5190588248
 13
780.4438739824
 23
31.5190588248
  0
SOLID
  8
0
 62
7
  6
CONTINUOUS
 10
780.3860614807
 20
31.325476038
 11
780.4438739824
 21
31.5190588248
 12
780.7329364807
 22
31.4867945216
 13
780.7329364807
 23
31.4867945216
  0
SOLID
  8
0
 62
7
  6
CONTINUOUS
 10
785.2423114807
 20
31.4545317347
 11
785.5891864807
 21
31.4867945557
 12
786.2251242012
 22
31.4867945557
 13
786.2251242012
 23
31.4867945557
  0
SOLID
  8
0
 62
7
  6
CONTINUOUS
 10
785.2423114807
 20
31.4545317347
 11
786.2251242012
 21
31.4867945557
 12
785.0110613704
 22
31.3900038345
 13
785.0110613704
 23
31.3900038345
  0
SOLID
  8
0
 62
7
  6
CONTINUOUS
 10
785.0110613704
 20
31.3900038345
 11
786.2251242012
 21
31.4867945557
 12
785.5891864807
 22
31.3577403754
 13
785.5891864807
 23
31.3577403754
  0
SOLID
  8
0
 62
7
  6
CONTINUOUS
 10
786.2251242012
 20
31.4867945557
 11
786.2251242012
 21
31.3577403754
 12
785.5891864807
 22
31.3577403754
 13
785.5891864807
 23
31.3577403754
  0
SOLID
  8
0
 62
7
  6
CONTINUOUS
 10
790.0407492012
 20
31.4545313481
 11
790.2141867012
 21
31.583585915
 12
790.2719989807
 22
31.5190588248
 13
790.2719989807
 23
31.5190588248
  0
SOLID
  8
0
 62
7
  6
CONTINUOUS
 10
790.2719989807
 20
31.5190588248
 11
790.4454364807
 21
31.4545313481
 12
790.0407492012
 22
31.4545313481
 13
790.0407492012
 23
31.4545313481
  0
SOLID
  8
0
 62
7
  6
CONTINUOUS
 10
790.2719989807
 20
31.3577403412
 11
790.0407492012
 21
31.4545313481
 12
790.4454364807
 22
31.4545313481
 13
790.4454364807
 23
31.4545313481
  0
SOLID
  8
0
 62
7
  6
CONTINUOUS
 10
790.4454364807
 20
31.4545313481
 11
791.4282492012
 21
31.2932132511
 12
790.2719989807
 22
31.3577403412
 13
790.2719989807
 23
31.3577403412
  0
SOLID
  8
0
 62
7
  6
CONTINUOUS
 10
791.2548117012
 20
31.1964222346
 11
790.2719989807
 21
31.3577403412
 12
791.4282492012
 22
31.2932132511
 13
791.4282492012
 23
31.2932132511
  0
SOLID
  8
0
 62
7
  6
CONTINUOUS
 10
791.4282492012
 20
31.2932132511
 11
791.6594989807
 21
31.1964222346
 12
791.2548117012
 22
31.1964222346
 13
791.2548117012
 23
31.1964222346
  0
SOLID
  8
0
 62
7
  6
CONTINUOUS
 10
791.4282492012
 20
31.1318947675
 11
791.2548117012
 21
31.1964222346
 12
791.6594989807
 22
31.1964222346
 13
791.6594989807
 23
31.1964222346
  0
SOLID
  8
0
 62
7
  6
CONTINUOUS
 10
791.4282492012
 20
31.1318947675
 11
791.6594989807
 21
31.1964222346
 12
791.4860614807
 22
31.0673665164
 13
791.4860614807
 23
31.0673665164
  0
SOLID
  8
0
 62
7
  6
CONTINUOUS
 10
791.6594989807
 20
31.1964222346
 11
791.7751235396
 21
31.0673665164
 12
791.4860614807
 22
31.0673665164
 13
791.4860614807
 23
31.0673665164
  0
SOLID
  8
0
 62
7
  6
CONTINUOUS
 10
791.4282492012
 20
31.0028394316
 11
791.4860614807
 21
31.0673665164
 12
791.7751235396
 22
31.0673665164
 13
791.7751235396
 23
31.0673665164
  0
SOLID
  8
0
 62
7
  6
CONTINUOUS
 10
791.7751235396
 20
31.0673665164
 11
791.7751235396
 21
31.0028394316
 12
791.4282492012
 22
31.0028394316
 13
791.4282492012
 23
31.0028394316
  0
SOLID
  8
0
 62
7
  6
CONTINUOUS
 10
791.3126239807
 20
30.9705762839
 11
791.4282492012
 21
31.0028394316
 12
791.7751235396
 22
31.0028394316
 13
791.7751235396
 23
31.0028394316
  0
SOLID
  8
0
 62
7
  6
CONTINUOUS
 10
791.3126239807
 20
30.9705762839
 11
791.7751235396
 21
31.0028394316
 12
791.0813742012
 22
30.9383123468
 13
791.0813742012
 23
30.9383123468
  0
SOLID
  8
0
 62
7
  6
CONTINUOUS
 10
791.7751235396
 20
31.0028394316
 11
791.6594989807
 21
30.9060491937
 12
791.0813742012
 22
30.9383123468
 13
791.0813742012
 23
30.9383123468
  0
SOLID
  8
0
 62
7
  6
CONTINUOUS
 10
791.6594989807
 20
30.9060491937
 11
790.2141867012
 21
30.8737848904
 12
791.0813742012
 22
30.9383123468
 13
791.0813742012
 23
30.9383123468
  0
SOLID
  8
0
 62
7
  6
CONTINUOUS
 10
791.0813742012
 20
30.9383123468
 11
790.2141867012
 21
30.8737848904
 12
790.7344992012
 22
30.9383123468
 13
790.7344992012
 23
30.9383123468
  0
SOLID
  8
0
 62
7
  6
CONTINUOUS
 10
790.2141867012
 20
30.8737848904
 11
790.0407492012
 21
30.9383123468
 12
790.7344992012
 22
30.9383123468
 13
790.7344992012
 23
30.9383123468
  0
SOLID
  8
0
 62
7
  6
CONTINUOUS
 10
790.2141867012
 20
30.8737848904
 11
791.6594989807
 21
30.9060491937
 12
790.3876242012
 22
30.8415205581
 13
790.3876242012
 23
30.8415205581
  0
SOLID
  8
0
 62
7
  6
CONTINUOUS
 10
791.6594989807
 20
30.9060491937
 11
791.4282492012
 21
30.8415205581
 12
790.3876242012
 22
30.8415205581
 13
790.3876242012
 23
30.8415205581
  0
SOLID
  8
0
 62
7
  6
CONTINUOUS
 10
790.7344992012
 20
30.8092581772
 11
790.3876242012
 21
30.8415205581
 12
791.4282492012
 22
30.8415205581
 13
791.4282492012
 23
30.8415205581
  0
SOLID
  8
0
 62
7
  6
CONTINUOUS
 10
791.4282492012
 20
30.8415205581
 11
791.0813742012
 21
30.8092581772
 12
790.7344992012
 22
30.8092581772
 13
790.7344992012
 23
30.8092581772
  0
SOLID
  8
0
 62
7
  6
CONTINUOUS
 10
780.3860614807
 20
31.325476038
 11
780.7329364807
 21
31.4867945216
 12
780.6751239738
 22
31.3577403412
 13
780.6751239738
 23
31.3577403412
  0
SOLID
  8
0
 62
7
  6
CONTINUOUS
 10
780.6751239738
 20
31.3577403412
 11
780.6751239738
 21
31.2609490436
 12
780.3860614807
 22
31.325476038
 13
780.3860614807
 23
31.325476038
  0
SOLID
  8
0
 62
7
  6
CONTINUOUS
 10
780.4438739824
 20
31.1318947675
 11
780.3860614807
 21
31.325476038
 12
780.6751239738
 22
31.2609490436
 13
780.6751239738
 23
31.2609490436
  0
SOLID
  8
0
 62
7
  6
CONTINUOUS
 10
780.6751239738
 20
31.2609490436
 11
780.7907489669
 21
31.0996304642
 12
780.4438739824
 22
31.1318947675
 13
780.4438739824
 23
31.1318947675
  0
SOLID
  8
0
 62
7
  6
CONTINUOUS
 10
780.5594989807
 20
31.0028388804
 11
780.4438739824
 21
31.1318947675
 12
780.7907489669
 22
31.0996304642
 13
780.7907489669
 23
31.0996304642
  0
SOLID
  8
0
 62
7
  6
CONTINUOUS
 10
780.7907489669
 20
31.0996304642
 11
780.9641864669
 21
31.0028388804
 12
780.5594989807
 22
31.0028388804
 13
780.5594989807
 23
31.0028388804
  0
SOLID
  8
0
 62
7
  6
CONTINUOUS
 10
780.6751239738
 20
30.9383122606
 11
780.5594989807
 21
31.0028388804
 12
780.9641864669
 22
31.0028388804
 13
780.9641864669
 23
31.0028388804
  0
SOLID
  8
0
 62
7
  6
CONTINUOUS
 10
780.9641864669
 20
31.0028388804
 11
781.3110615082
 21
30.9383122606
 12
780.6751239738
 22
30.9383122606
 13
780.6751239738
 23
30.9383122606
  0
SOLID
  8
0
 62
7
  6
CONTINUOUS
 10
780.8485614944
 20
30.8737848904
 11
780.6751239738
 21
30.9383122606
 12
781.3110615082
 22
30.9383122606
 13
781.3110615082
 23
30.9383122606
  0
SOLID
  8
0
 62
7
  6
CONTINUOUS
 10
784.8954364807
 20
31.3254759532
 11
785.0110613704
 21
31.3900038345
 12
785.5891864807
 22
31.3577403412
 13
785.5891864807
 23
31.3577403412
  0
SOLID
  8
0
 62
7
  6
CONTINUOUS
 10
785.5891864807
 20
31.3577403412
 11
785.3579363704
 21
31.3254759532
 12
784.8954364807
 22
31.3254759532
 13
784.8954364807
 23
31.3254759532
  0
SOLID
  8
0
 62
7
  6
CONTINUOUS
 10
784.7798115909
 20
31.1964218576
 11
784.8954364807
 21
31.3254759532
 12
785.3579363704
 22
31.3254759532
 13
785.3579363704
 23
31.3254759532
  0
SOLID
  8
0
 62
7
  6
CONTINUOUS
 10
785.1266865909
 20
31.2286853572
 11
784.7798115909
 21
31.1964218576
 12
785.2423114807
 22
31.2932132511
 13
785.2423114807
 23
31.2932132511
  0
SOLID
  8
0
 62
7
  6
CONTINUOUS
 10
784.7798115909
 20
31.1964218576
 11
785.3579363704
 21
31.325476038
 12
785.2423114807
 22
31.2932132511
 13
785.2423114807
 23
31.2932132511
  0
SOLID
  8
0
 62
7
  6
CONTINUOUS
 10
785.1266865909
 20
31.2286853572
 11
785.0688739807
 21
31.1318947675
 12
784.7798115909
 22
31.1964218576
 13
784.7798115909
 23
31.1964218576
  0
SOLID
  8
0
 62
7
  6
CONTINUOUS
 10
784.7798115909
 20
31.0996304642
 11
784.7798115909
 21
31.1964218576
 12
785.0688739807
 22
31.1318947675
 13
785.0688739807
 23
31.1318947675
  0
SOLID
  8
0
 62
7
  6
CONTINUOUS
 10
785.0688739807
 20
31.1318947675
 11
785.0688739807
 21
31.0673661609
 12
784.7798115909
 22
31.0996304642
 13
784.7798115909
 23
31.0996304642
  0
SOLID
  8
0
 62
7
  6
CONTINUOUS
 10
784.8376238704
 20
30.9705762839
 11
784.7798115909
 21
31.0996304642
 12
785.0688739807
 22
31.0673661609
 13
785.0688739807
 23
31.0673661609
  0
SOLID
  8
0
 62
7
  6
CONTINUOUS
 10
786.2251242012
 20
31.1641579843
 11
786.5141862601
 21
31.0673661609
 12
786.1673112601
 22
31.0996304642
 13
786.1673112601
 23
31.0996304642
  0
SOLID
  8
0
 62
7
  6
CONTINUOUS
 10
785.9938737601
 20
31.0028390707
 11
786.1673112601
 21
31.0996304642
 12
786.5141862601
 22
31.0673661609
 13
786.5141862601
 23
31.0673661609
  0
SOLID
  8
0
 62
7
  6
CONTINUOUS
 10
785.9938737601
 20
31.0028390707
 11
786.5141862601
 21
31.0673661609
 12
786.2251242012
 22
30.9705762839
 13
786.2251242012
 23
30.9705762839
  0
SOLID
  8
0
 62
7
  6
CONTINUOUS
 10
786.5141862601
 20
31.0673661609
 11
786.5719992012
 21
30.9060491937
 12
786.2251242012
 22
30.9705762839
 13
786.2251242012
 23
30.9705762839
  0
SOLID
  8
0
 62
7
  6
CONTINUOUS
 10
786.2829364807
 20
30.8737848904
 11
786.2251242012
 21
30.9705762839
 12
786.5719992012
 22
30.9060491937
 13
786.5719992012
 23
30.9060491937
  0
SOLID
  8
0
 62
7
  6
CONTINUOUS
 10
786.2829364807
 20
30.8737848904
 11
786.5719992012
 21
30.9060491937
 12
786.3407487601
 22
30.8092576254
 13
786.3407487601
 23
30.8092576254
  0
SOLID
  8
0
 62
7
  6
CONTINUOUS
 10
786.5719992012
 20
30.9060491937
 11
786.6298114807
 21
30.8092576254
 12
786.3407487601
 22
30.8092576254
 13
786.3407487601
 23
30.8092576254
  0
SOLID
  8
0
 62
7
  6
CONTINUOUS
 10
781.8891865358
 20
31.035103216
 11
781.9469989807
 21
31.1318946289
 12
782.2360615358
 22
31.1318946289
 13
782.2360615358
 23
31.1318946289
  0
SOLID
  8
0
 62
7
  6
CONTINUOUS
 10
782.2360615358
 20
31.1318946289
 11
782.1782489255
 21
31.0028390707
 12
781.8891865358
 22
31.035103216
 13
781.8891865358
 23
31.035103216
  0
SOLID
  8
0
 62
7
  6
CONTINUOUS
 10
781.7157489531
 20
30.9705762839
 11
781.8891865358
 21
31.035103216
 12
782.1782489255
 22
31.0028390707
 13
782.1782489255
 23
31.0028390707
  0
SOLID
  8
0
 62
7
  6
CONTINUOUS
 10
781.7157489531
 20
30.9705762839
 11
782.1782489255
 21
31.0028390707
 12
781.3110615082
 22
30.9383119806
 13
781.3110615082
 23
30.9383119806
  0
SOLID
  8
0
 62
7
  6
CONTINUOUS
 10
782.1782489255
 20
31.0028390707
 11
782.0048114255
 21
30.9060491937
 12
781.3110615082
 22
30.9383119806
 13
781.3110615082
 23
30.9383119806
  0
SOLID
  8
0
 62
7
  6
CONTINUOUS
 10
780.8485614944
 20
30.8737848904
 11
781.3110615082
 21
30.9383119806
 12
782.0048114255
 22
30.9060491937
 13
782.0048114255
 23
30.9060491937
  0
SOLID
  8
0
 62
7
  6
CONTINUOUS
 10
780.8485614944
 20
30.8737848904
 11
782.0048114255
 21
30.9060491937
 12
781.0219989944
 22
30.8415207131
 13
781.0219989944
 23
30.8415207131
  0
SOLID
  8
0
 62
7
  6
CONTINUOUS
 10
782.0048114255
 20
30.9060491937
 11
781.7735614807
 21
30.8415207131
 12
781.0219989944
 22
30.8415207131
 13
781.0219989944
 23
30.8415207131
  0
SOLID
  8
0
 62
7
  6
CONTINUOUS
 10
781.3688739531
 20
30.8092578002
 11
781.0219989944
 21
30.8415207131
 12
781.7735614807
 22
30.8415207131
 13
781.7735614807
 23
30.8415207131
  0
SOLID
  8
0
 62
7
  6
CONTINUOUS
 10
784.8376238704
 20
30.9705762839
 11
785.0688739807
 21
31.0673661609
 12
785.1266865909
 22
31.0028390707
 13
785.1266865909
 23
31.0028390707
  0
SOLID
  8
0
 62
7
  6
CONTINUOUS
 10
785.1266865909
 20
31.0028390707
 11
785.3579363704
 21
30.9383119806
 12
784.8376238704
 22
30.9705762839
 13
784.8376238704
 23
30.9705762839
  0
SOLID
  8
0
 62
7
  6
CONTINUOUS
 10
785.0110613704
 20
30.8737848904
 11
784.8376238704
 21
30.9705762839
 12
785.3579363704
 22
30.9383119806
 13
785.3579363704
 23
30.9383119806
  0
SOLID
  8
0
 62
7
  6
CONTINUOUS
 10
785.7048113704
 20
30.9383119664
 11
785.9938737601
 21
31.0028390707
 12
786.2251242012
 22
30.9705762839
 13
786.2251242012
 23
30.9705762839
  0
SOLID
  8
0
 62
7
  6
CONTINUOUS
 10
786.2251242012
 20
30.9705762839
 11
786.1673112601
 21
30.9060491937
 12
785.7048113704
 22
30.9383119664
 13
785.7048113704
 23
30.9383119664
  0
SOLID
  8
0
 62
7
  6
CONTINUOUS
 10
786.1673112601
 20
30.9060491937
 11
785.0110613704
 21
30.8737848904
 12
785.7048113704
 22
30.9383119664
 13
785.7048113704
 23
30.9383119664
  0
SOLID
  8
0
 62
7
  6
CONTINUOUS
 10
785.0110613704
 20
30.8737848904
 11
785.3579363704
 21
30.9383119664
 12
785.7048113704
 22
30.9383119664
 13
785.7048113704
 23
30.9383119664
  0
SOLID
  8
0
 62
7
  6
CONTINUOUS
 10
785.0110613704
 20
30.8737848904
 11
786.1673112601
 21
30.9060491937
 12
785.1266865909
 22
30.8415205568
 13
785.1266865909
 23
30.8415205568
  0
SOLID
  8
0
 62
7
  6
CONTINUOUS
 10
786.1673112601
 20
30.9060491937
 11
785.9938737601
 21
30.8415205568
 12
785.1266865909
 22
30.8415205568
 13
785.1266865909
 23
30.8415205568
  0
SOLID
  8
0
 62
7
  6
CONTINUOUS
 10
785.3579363704
 20
30.8092577215
 11
785.1266865909
 21
30.8415205568
 12
785.9938737601
 22
30.8415205568
 13
785.9938737601
 23
30.8415205568
  0
SOLID
  8
0
 62
7
  6
CONTINUOUS
 10
785.9938737601
 20
30.8415205568
 11
785.7048113704
 21
30.8092577215
 12
785.3579363704
 22
30.8092577215
 13
785.3579363704
 23
30.8092577215
  0
SOLID
  8
0
 62
7
  6
CONTINUOUS
 10
790.3876242012
 20
30.9705762839
 11
790.0407492012
 21
30.9383119664
 12
790.2719989807
 22
31.0028390707
 13
790.2719989807
 23
31.0028390707
  0
SOLID
  8
0
 62
7
  6
CONTINUOUS
 10
790.2719989807
 20
31.0028390707
 11
790.0407492012
 21
30.9383119664
 12
790.2141867012
 22
31.0673661467
 13
790.2141867012
 23
31.0673661467
  0
SOLID
  8
0
 62
7
  6
CONTINUOUS
 10
790.0407492012
 20
30.9383119664
 11
789.9251239807
 21
31.0673661467
 12
790.2141867012
 22
31.0673661467
 13
790.2141867012
 23
31.0673661467
  0
SOLID
  8
0
 62
7
  6
CONTINUOUS
 10
790.3876242012
 20
30.9705762839
 11
790.7344992012
 21
30.9383119664
 12
790.0407492012
 22
30.9383119664
 13
790.0407492012
 23
30.9383119664
  0
SOLID
  8
0
 62
7
  6
CONTINUOUS
 10
787.0923117012
 20
30.8092578002
 11
787.0923117012
 21
31.841695792
 12
787.3813737601
 22
30.8092578002
 13
787.3813737601
 23
31.841695792
  0
ENDBLK
  8
0
  6
BYBLOCK
 62
0
  0
BLOCK
  8
0
 62
2
  6
CONTINUOUS
  2
AMMEAAL_LOGO_BL0
 70
64
 10
663.0141013953
 20
19.7009994242
  0
TEXT
  8
0
 62
7
  6
CONTINUOUS
 10
649.4066669574
 20
19.0744135318
  7
TEXTSTYLE_3
 40
2.7338706658
  1
Ammeraal Beltech
 41
1.0
 51
15.0
 72
0
  0
TEXT
  8
0
 62
7
  6
CONTINUOUS
 10
660.2074677831
 20
16.800876859
  7
TEXTSTYLE_4
 40
1.0935482663
  1
Innovation & Service in Belting
 41
1.0
 72
0
  0
LINE
  8
0
 62
7
  6
CONTINUOUS
 10
643.382126306
 20
19.8410068404
 11
644.1602782994
 21
23.5019241381
  0
LINE
  8
0
 62
7
  6
CONTINUOUS
 10
654.2554465892
 20
27.1653180497
 11
644.6480960424
 21
24.0437006284
  0
LINE
  8
0
 62
7
  6
CONTINUOUS
 10
643.6074096383
 20
19.1476560374
 11
651.1144848995
 21
12.3882551114
  0
LINE
  8
0
 62
7
  6
CONTINUOUS
 10
643.869944049
 20
20.3827833308
 11
654.6782134142
 21
23.8946029297
  0
LINE
  8
0
 62
7
  6
CONTINUOUS
 10
654.674008277
 20
13.544814366
 11
646.2285486083
 21
21.1491404077
  0
LINE
  8
0
 62
7
  6
CONTINUOUS
 10
655.1938309968
 20
26.320392934
 11
654.2172714596
 21
21.7260415315
  0
LINE
  8
0
 62
7
  6
CONTINUOUS
 10
653.5174695119
 20
18.4337322177
 11
652.8310213004
 21
15.2042472933
  0
LINE
  8
0
 62
7
  6
CONTINUOUS
 10
655.8749270954
 20
13.9350165436
 11
656.831158631
 21
18.4337322177
  0
LINE
  8
0
 62
7
  6
CONTINUOUS
 10
657.5309605787
 20
21.7260415315
 11
657.9752023811
 21
23.8160348909
  0
LINE
  8
0
 62
7
  6
CONTINUOUS
 10
651.8275859748
 20
12.2366807987
 11
655.3871093524
 21
13.3932400533
  0
LINE
  8
0
 62
7
  6
CONTINUOUS
 10
654.9685476645
 20
27.013743737
 11
657.7499190488
 21
24.5093856939
  0
ARC
  8
0
 62
7
  6
CONTINUOUS
 10
644.8733793747
 20
23.3503498254
 40
0.7290321776
 50
108.0
 51
168.0
  0
ARC
  8
0
 62
7
  6
CONTINUOUS
 10
654.4807299215
 20
26.4719672466
 40
0.7290321776
 50
348.0
 51
108.0
  0
ARC
  8
0
 62
7
  6
CONTINUOUS
 10
657.2621013058
 20
23.9676092036
 40
0.7290321776
 50
348.0
 51
48.0
  0
ARC
  8
0
 62
7
  6
CONTINUOUS
 10
651.6023026425
 20
12.9300316018
 40
0.7290321776
 50
228.0
 51
288.0
  0
ARC
  8
0
 62
7
  6
CONTINUOUS
 10
644.0952273813
 20
19.6894325277
 40
0.7290321776
 50
108.0
 51
228.0
  0
ARC
  8
0
 62
7
  6
CONTINUOUS
 10
655.1618260201
 20
14.0865908563
 40
0.7290321776
 50
228.0
 51
348.0
  0
ENDBLK
  8
0
  6
BYBLOCK
 62
0
  0
BLOCK
  8
0
  2
_FILLED
 70
64
 10
0.0
 20
0.0
  0
SOLID
  8
0
  6
BYBLOCK
 62
0
 10
0.0
 20
0.0
 11
-1.0
 21
0.2142857143
 12
-1.0
 22
-0.2142857143
 13
-1.0
 23
-0.2142857143
  0
ENDBLK
  8
0
  6
BYBLOCK
 62
0
  0
ENDSEC
  0
SECTION
  2
ENTITIES
  0
TEXT
  8
0
 62
5
  6
CONTINUOUS
 10
727.0
 20
25.636
  7
TEXTSTYLE_2
 40
2.8
  1
Scale :
 41
0.6
 51
0.000019
 72
0
  0
TEXT
  8
0
 62
5
  6
CONTINUOUS
 10
747.0
 20
25.636
  7
TEXTSTYLE_2
 40
2.8
  1
Belt type:
 41
0.6
 51
0.000019
 72
0
  0
INSERT
  8
0
 62
2
  6
CONTINUOUS
  2
AMMEAAL_LOGO_BL0
 10
663.0141013953
 20
19.7009994242
  0
INSERT
  8
0
 62
2
  6
CONTINUOUS
  2
UNI_LOGO2_BL1
 10
804.4079930916
 20
35.8092573885
  0
LINE
  8
0
 62
2
  6
CONTINUOUS
 10
641.0
 20
30.0
 11
831.0
 21
30.0
  0
LINE
  8
0
 62
2
  6
CONTINUOUS
 10
641.0
 20
30.0
 11
641.0
 21
10.0
  0
LINE
  8
0
 62
2
  6
CONTINUOUS
 10
641.0
 20
10.0
 11
831.0
 21
10.0
  0
LINE
  8
0
 62
2
  6
CONTINUOUS
 10
726.0
 20
30.0
 11
726.0
 21
10.0
  0
LINE
  8
0
 62
2
  6
CONTINUOUS
 10
746.0
 20
30.0
 11
746.0
 21
10.0
  0
LINE
  8
0
 62
2
  6
CONTINUOUS
 10
831.0
 20
30.0
 11
831.0
 21
10.0
  0
TEXT
  8
0
 62
5
  6
CONTINUOUS
 10
644.0
 20
23.303
  7
TEXTSTYLE_3
 40
1.52
  1
                                                                     Ammeraal Beltech Modular A/S
 41
1.0
 72
0
  0
TEXT
  8
0
 62
5
  6
CONTINUOUS
 10
644.0
 20
20.595
  7
TEXTSTYLE_3
 40
1.5
  1
                                                                      Hjulmagervej 21, 7100 Vejle,  DK
 41
1.0
 72
0
  0
TEXT
  8
0
 62
5
  6
CONTINUOUS
 10
644.0
 20
17.881
  7
TEXTSTYLE_3
 40
1.495
  1
                                                                      tel: 
 41
1.0
 72
0
  0
TEXT
  8
0
 62
5
  6
CONTINUOUS
 10
688.9869465649
 20
17.881
  7
TEXTSTYLE_3
 40
1.51
  1
+45 75723100     fax: +45 75723348
 41
1.0
 72
0
  0
TEXT
  8
0
 62
5
  6
CONTINUOUS
 10
644.0
 20
15.177
  7
TEXTSTYLE_3
 40
1.5
  1
                                                                      admin@unichains.dk  www.unichains.com
 41
1.0
 72
0
  0
TEXT
  8
0
 62
5
  6
CONTINUOUS
 10
730.75
 20
13.75
  7
TEXTSTYLE_5
 40
5.0
  1
1:1
 41
0.7
 72
1
 11
736.0
 21
13.75
  0
TEXT
  8
0
 62
5
  6
CONTINUOUS
 10
749.0
 20
13.75
  7
TEXTSTYLE_6
 40
7.5
  1
Z20 Bore 90SQ
 41
1.0
 72
0
  0
LINE
  8
0
 62
7
  6
CONTINUOUS
 10
-0.0
 20
0.0
 11
-0.0
 21
594.0
  0
LINE
  8
0
 62
7
  6
CONTINUOUS
 10
10.0
 20
10.0
 11
10.0
 21
584.0
  0
LINE
  8
0
 62
7
  6
CONTINUOUS
 10
-0.0
 20
0.0
 11
841.0
 21
0.0
  0
LINE
  8
0
 62
7
  6
CONTINUOUS
 10
10.0
 20
10.0
 11
831.0
 21
10.0
  0
LINE
  8
0
 62
7
  6
CONTINUOUS
 10
641.0
 20
30.0
 11
831.0
 21
30.0
  0
LINE
  8
0
 62
7
  6
CONTINUOUS
 10
211.0
 20
5.0
 11
211.0
 21
10.0
  0
LINE
  8
0
 62
7
  6
CONTINUOUS
 10
211.0
 20
584.0
 11
211.0
 21
589.0
  0
LINE
  8
0
 62
7
  6
CONTINUOUS
 10
421.0
 20
5.0
 11
421.0
 21
10.0
  0
LINE
  8
0
 62
7
  6
CONTINUOUS
 10
421.0
 20
584.0
 11
421.0
 21
589.0
  0
LINE
  8
0
 62
7
  6
CONTINUOUS
 10
5.0
 20
297.0
 11
10.0
 21
297.0
  0
LINE
  8
0
 62
7
  6
CONTINUOUS
 10
831.0
 20
297.0
 11
836.0
 21
297.0
  0
LINE
  8
0
 62
7
  6
CONTINUOUS
 10
631.0
 20
584.0
 11
631.0
 21
589.0
  0
LINE
  8
0
 62
7
  6
CONTINUOUS
 10
10.0
 20
584.0
 11
831.0
 21
584.0
  0
LINE
  8
0
 62
7
  6
CONTINUOUS
 10
-0.0
 20
594.0
 11
841.0
 21
594.0
  0
LINE
  8
0
 62
7
  6
CONTINUOUS
 10
831.0
 20
10.0
 11
831.0
 21
584.0
  0
LINE
  8
0
 62
7
  6
CONTINUOUS
 10
841.0
 20
0.0
 11
841.0
 21
594.0
  0
LINE
  8
0
 62
7
  6
CONTINUOUS
 10
65.9486214116
 20
332.2746882391
 11
66.5706705533
 21
344.0941352719
  0
LINE
  8
0
 62
7
  6
CONTINUOUS
 10
76.9390102483
 20
392.8204080315
 11
81.1830241352
 21
403.8691463949
  0
LINE
  8
0
 62
7
  6
CONTINUOUS
 10
106.1011475206
 20
447.0065924484
 11
113.5516925037
 21
456.2030946504
  0
LINE
  8
0
 62
7
  6
CONTINUOUS
 10
150.5804400477
 20
489.5291202219
 11
160.508204873
 21
495.9731685511
  0
LINE
  8
0
 62
7
  6
CONTINUOUS
 10
319.1353169343
 20
139.4789220442
 11
307.7021310587
 21
136.4181159367
  0
LINE
  8
0
 62
7
  6
CONTINUOUS
 10
258.1566986667
 20
131.2217466115
 11
246.3372516339
 21
131.8437957532
  0
LINE
  8
0
 62
7
  6
CONTINUOUS
 10
197.6109788744
 20
142.2121354483
 11
186.5622405109
 21
146.4561493352
  0
LINE
  8
0
 62
7
  6
CONTINUOUS
 10
143.4247944574
 20
171.3742727206
 11
134.2282922554
 21
178.8248177037
  0
LINE
  8
0
 62
7
  6
CONTINUOUS
 10
100.9022666839
 20
215.8535652477
 11
94.4582183548
 21
225.781330073
  0
LINE
  8
0
 62
7
  6
CONTINUOUS
 10
74.2057968443
 20
271.2960699715
 11
71.1449907367
 21
282.7292558472
  0
LINE
  8
0
 62
7
  6
CONTINUOUS
 10
80.0018326863
 20
323.3558247112
 11
80.0018326863
 21
297.3522560529
  0
LINE
  8
0
 62
7
  6
CONTINUOUS
 10
87.5483280053
 20
379.9953836458
 11
79.5127833755
 21
355.2645202265
  0
LINE
  8
0
 62
7
  6
CONTINUOUS
 10
112.2280578184
 20
431.5308099492
 11
96.9435436541
 21
410.4934809902
  0
LINE
  8
0
 62
7
  6
CONTINUOUS
 10
151.6251982177
 20
472.9174570262
 11
130.5878692587
 21
457.6329428619
  0
LINE
  8
0
 62
7
  6
CONTINUOUS
 10
201.8832826048
 20
500.1041115032
 11
177.1524191854
 21
492.0685668734
  0
LINE
  8
0
 62
7
  6
CONTINUOUS
 10
267.0755621947
 20
145.2749578862
 11
293.0791308529
 21
145.2749578862
  0
LINE
  8
0
 62
7
  6
CONTINUOUS
 10
210.43600326
 20
152.8214532053
 11
235.1668666794
 21
144.7859085755
  0
LINE
  8
0
 62
7
  6
CONTINUOUS
 10
158.9005769567
 20
177.5011830184
 11
179.9379059156
 21
162.2166688541
  0
LINE
  8
0
 62
7
  6
CONTINUOUS
 10
117.5139298797
 20
216.8983234176
 11
132.798444044
 21
195.8609944587
  0
LINE
  8
0
 62
7
  6
CONTINUOUS
 10
90.3272754026
 20
267.1564078047
 11
98.3628200324
 21
242.4255443853
  0
LINE
  8
0
 62
7
  6
CONTINUOUS
 10
270.9927099787
 20
491.5321112758
 11
270.6063616795
 21
491.29431337
  0
LINE
  8
0
 62
7
  6
CONTINUOUS
 10
274.6172161733
 20
494.3758985442
 11
274.2241035509
 21
494.149458596
  0
LINE
  8
0
 62
7
  6
CONTINUOUS
 10
274.1857602177
 20
493.6402619759
 11
274.5788728401
 21
493.8667019242
  0
LINE
  8
0
 62
7
  6
CONTINUOUS
 10
270.5828710732
 20
490.7842156535
 11
270.8384791754
 21
490.9002394598
  0
LINE
  8
0
 62
7
  6
CONTINUOUS
 10
274.2241035509
 20
494.149458596
 11
273.9556375571
 21
493.913632554
  0
LINE
  8
0
 62
7
  6
CONTINUOUS
 10
273.917294224
 20
493.404435934
 11
274.1857602177
 21
493.6402619759
  0
LINE
  8
0
 62
7
  6
CONTINUOUS
 10
302.4581609837
 20
489.8519697575
 11
302.156009402
 21
489.6611996664
  0
LINE
  8
0
 62
7
  6
CONTINUOUS
 10
315.8577771916
 20
482.7190929608
 11
321.3173848525
 21
485.3826453544
  0
LINE
  8
0
 62
7
  6
CONTINUOUS
 10
320.8142202273
 20
485.8328015455
 11
315.2368576305
 21
483.2111726895
  0
LINE
  8
0
 62
7
  6
CONTINUOUS
 10
322.6511684645
 20
485.4127211981
 11
321.9994243657
 21
485.1194959754
  0
LINE
  8
0
 62
7
  6
CONTINUOUS
 10
301.4826127115
 20
486.2785009508
 11
302.0574676557
 21
486.5358245604
  0
LINE
  8
0
 62
7
  6
CONTINUOUS
 10
327.996695808
 20
483.1297426615
 11
327.5007467984
 21
482.9264393228
  0
LINE
  8
0
 62
7
  6
CONTINUOUS
 10
324.5603964536
 20
482.7459715155
 11
320.1378014222
 21
481.0500186906
  0
LINE
  8
0
 62
7
  6
CONTINUOUS
 10
321.0689864724
 20
480.6854717636
 11
325.0027735076
 21
482.1615056408
  0
LINE
  8
0
 62
7
  6
CONTINUOUS
 10
270.8384791754
 20
490.9002394598
 11
271.2306999497
 21
491.2655618504
  0
LINE
  8
0
 62
7
  6
CONTINUOUS
 10
302.675822029
 20
489.1443874329
 11
303.1584920605
 21
489.5547604946
  0
LINE
  8
0
 62
7
  6
CONTINUOUS
 10
302.0574676557
 20
486.5358245604
 11
302.5401376975
 21
486.9461976656
  0
LINE
  8
0
 62
7
  6
CONTINUOUS
 10
301.8398066413
 20
487.2434070155
 11
301.5376550391
 21
487.0526368374
  0
LINE
  8
0
 62
7
  6
CONTINUOUS
 10
328.5518280633
 20
477.4691758177
 11
329.0477770905
 21
477.6724791975
  0
LINE
  8
0
 62
7
  6
CONTINUOUS
 10
271.2600632071
 20
491.9031839877
 11
270.9927099787
 21
491.5321112758
  0
LINE
  8
0
 62
7
  6
CONTINUOUS
 10
327.5007467984
 20
482.9264393228
 11
327.0690705044
 21
482.5564298015
  0
LINE
  8
0
 62
7
  6
CONTINUOUS
 10
322.2788652753
 20
484.4617238418
 11
322.6512752546
 21
484.7272111105
  0
LINE
  8
0
 62
7
  6
CONTINUOUS
 10
325.0027735076
 20
482.1615056408
 11
325.3751835701
 21
482.4269928769
  0
LINE
  8
0
 62
7
  6
CONTINUOUS
 10
327.3766833091
 20
482.0068416059
 11
328.1389925272
 21
482.5123869676
  0
LINE
  8
0
 62
7
  6
CONTINUOUS
 10
329.1718398168
 20
478.5920769511
 11
328.4095313618
 21
478.0865315526
  0
LINE
  8
0
 62
7
  6
CONTINUOUS
 10
294.4977359237
 20
487.6973455945
 11
297.1256166226
 21
491.9947039565
  0
LINE
  8
0
 62
7
  6
CONTINUOUS
 10
324.9793444147
 20
483.1303334211
 11
324.5603964536
 21
482.7459715155
  0
LINE
  8
0
 62
7
  6
CONTINUOUS
 10
329.0477770905
 20
477.6724791975
 11
329.4794530915
 21
478.0424889424
  0
LINE
  8
0
 62
7
  6
CONTINUOUS
 10
247.3455678636
 20
122.5609611973
 11
246.4776975458
 21
130.8181957005
  0
LINE
  8
0
 62
7
  6
CONTINUOUS
 10
184.652652598
 20
137.3160621904
 11
186.3788846649
 21
145.4373455484
  0
LINE
  8
0
 62
7
  6
CONTINUOUS
 10
286.8077359442
 20
491.1105932506
 11
288.4486119001
 21
494.3438023177
  0
LINE
  8
0
 62
7
  6
CONTINUOUS
 10
285.8765385868
 20
489.1882200908
 11
286.6058163091
 21
490.6252019128
  0
LINE
  8
0
 62
7
  6
CONTINUOUS
 10
288.0329432407
 20
494.9251546187
 11
285.1354315026
 21
489.3033734222
  0
LINE
  8
0
 62
7
  6
CONTINUOUS
 10
129.5877239696
 20
170.7221733825
 11
133.7390827992
 21
177.9125377959
  0
LINE
  8
0
 62
7
  6
CONTINUOUS
 10
297.0037931193
 20
493.319649367
 11
294.1301869528
 21
488.4200716135
  0
LINE
  8
0
 62
7
  6
CONTINUOUS
 10
302.6681248764
 20
490.1957899933
 11
302.4581609837
 21
489.8519697575
  0
LINE
  8
0
 62
7
  6
CONTINUOUS
 10
303.1584920605
 20
489.5547604946
 11
303.3684559532
 21
489.8985807304
  0
LINE
  8
0
 62
7
  6
CONTINUOUS
 10
302.0497705341
 20
487.5872272513
 11
301.8398066413
 21
487.2434070155
  0
LINE
  8
0
 62
7
  6
CONTINUOUS
 10
302.5401376975
 20
486.9461976656
 11
302.7501016109
 21
487.2900179884
  0
LINE
  8
0
 62
7
  6
CONTINUOUS
 10
321.9994243657
 20
485.1194959754
 11
321.6968746398
 21
484.6895656631
  0
LINE
  8
0
 62
7
  6
CONTINUOUS
 10
325.3751835701
 20
482.4269928769
 11
325.6777331815
 21
482.8569232339
  0
LINE
  8
0
 62
7
  6
CONTINUOUS
 10
327.0690705044
 20
482.5564298015
 11
326.8027106243
 21
482.254187637
  0
LINE
  8
0
 62
7
  6
CONTINUOUS
 10
329.4794530915
 20
478.0424889424
 11
329.7458131585
 21
478.344730637
  0
LINE
  8
0
 62
7
  6
CONTINUOUS
 10
234.7452509303
 20
366.4216787416
 11
224.0097081642
 21
355.6861359755
  0
LINE
  8
0
 62
7
  6
CONTINUOUS
 10
256.3246969673
 20
385.237432474
 11
240.7683477812
 21
369.6810832879
  0
LINE
  8
0
 62
7
  6
CONTINUOUS
 10
220.7503036179
 20
349.6630391247
 11
205.1939544318
 21
334.1066899386
  0
LINE
  8
0
 62
7
  6
CONTINUOUS
 10
87.5409208526
 20
219.509271856
 11
93.7110425185
 21
225.0648743578
  0
LINE
  8
0
 62
7
  6
CONTINUOUS
 10
62.6280772933
 20
278.9017364927
 11
70.212987297
 21
282.2787560018
  0
LINE
  8
0
 62
7
  6
CONTINUOUS
 10
467.8704257085
 20
312.6186930636
 11
459.6131912053
 21
311.7508227457
  0
LINE
  8
0
 62
7
  6
CONTINUOUS
 10
453.1153247154
 20
249.9257777979
 11
444.9940413574
 21
251.6520098648
  0
LINE
  8
0
 62
7
  6
CONTINUOUS
 10
419.7092135233
 20
194.8608491696
 11
412.51884911
 21
199.0122079992
  0
LINE
  8
0
 62
7
  6
CONTINUOUS
 10
224.0097081642
 20
300.0183761303
 11
234.7452509303
 21
289.2828333642
  0
LINE
  8
0
 62
7
  6
CONTINUOUS
 10
205.1939544318
 20
321.5978221672
 11
220.7503036179
 21
306.0414729811
  0
LINE
  8
0
 62
7
  6
CONTINUOUS
 10
240.7683477812
 20
286.0234288179
 11
256.3246969673
 21
270.4670796318
  0
LINE
  8
0
 62
7
  6
CONTINUOUS
 10
370.9221150498
 20
152.8140460525
 11
365.3665125481
 21
158.9841677184
  0
LINE
  8
0
 62
7
  6
CONTINUOUS
 10
311.5296504132
 20
127.9012024933
 11
308.152630904
 21
135.486112497
  0
LINE
  8
0
 62
7
  6
CONTINUOUS
 10
326.9587586317
 20
481.3528886143
 11
327.3766833091
 21
482.0068416059
  0
LINE
  8
0
 62
7
  6
CONTINUOUS
 10
329.5897652219
 20
479.2460298239
 11
329.1718398168
 21
478.5920769511
  0
LINE
  8
0
 62
7
  6
CONTINUOUS
 10
326.8027106243
 20
482.254187637
 11
326.4353073742
 21
481.7174717916
  0
LINE
  8
0
 62
7
  6
CONTINUOUS
 10
329.7458131585
 20
478.344730637
 11
330.1132161509
 21
478.8814467882
  0
LINE
  8
DEFAULT_1
 62
2
  6
CENTER
 10
262.5791308529
 20
327.8522560529
 11
262.5791308529
 21
125.1937464552
  0
LINE
  8
DEFAULT_1
 62
2
  6
CENTER
 10
262.5791308529
 20
327.8522560529
 11
262.5791308529
 21
530.5107656506
  0
LINE
  8
0
 62
7
  6
CONTINUOUS
 10
268.2675700005
 20
494.8524787836
 11
268.1501169789
 21
492.3019904131
  0
LINE
  8
0
 62
7
  6
CONTINUOUS
 10
268.7744552938
 20
492.2732388914
 11
268.8919083154
 21
494.8237272619
  0
LINE
  8
0
 62
7
  6
CONTINUOUS
 10
271.3892615301
 20
494.7087211774
 11
271.2600632071
 21
491.9031839877
  0
LINE
  8
0
 62
7
  6
CONTINUOUS
 10
271.8609110491
 20
491.3643347322
 11
272.0135999789
 21
494.6799696496
  0
LINE
  8
0
 62
7
  6
CONTINUOUS
 10
266.3144760238
 20
520.9454800913
 11
265.6332046595
 21
511.2028456799
  0
LINE
  8
0
 62
7
  6
CONTINUOUS
 10
273.380331084
 20
494.5970589858
 11
273.0735843917
 21
490.5234856687
  0
LINE
  8
0
 62
7
  6
CONTINUOUS
 10
273.6968200313
 20
490.476555012
 11
273.917294224
 21
493.404435934
  0
LINE
  8
0
 62
7
  6
CONTINUOUS
 10
273.9556375571
 20
493.913632554
 11
274.0035667236
 21
494.5501283291
  0
LINE
  8
0
 62
7
  6
CONTINUOUS
 10
276.1225987654
 20
492.7262889819
 11
275.940467906
 21
490.30760468
  0
LINE
  8
0
 62
7
  6
CONTINUOUS
 10
276.5637031889
 20
490.2606740502
 11
276.7458340484
 21
492.6793583521
  0
LINE
  8
0
 62
7
  6
CONTINUOUS
 10
278.121896361
 20
496.1363019293
 11
278.062017655
 21
495.5008189498
  0
LINE
  8
0
 62
7
  6
CONTINUOUS
 10
277.9422602093
 20
494.2298526347
 11
277.5590364568
 21
490.1627612098
  0
LINE
  8
0
 62
7
  6
CONTINUOUS
 10
278.1812800444
 20
490.1041299921
 11
278.5645037968
 21
494.1712214171
  0
LINE
  8
0
 62
7
  6
CONTINUOUS
 10
278.6842612425
 20
495.4421877321
 11
278.7441399486
 21
496.0776707117
  0
LINE
  8
0
 62
7
  6
CONTINUOUS
 10
292.2202682317
 20
494.2595965478
 11
291.0634098235
 21
488.372179574
  0
LINE
  8
0
 62
7
  6
CONTINUOUS
 10
291.7993369453
 20
488.227572273
 11
292.7100552959
 21
492.8623474868
  0
LINE
  8
0
 62
7
  6
CONTINUOUS
 10
297.1256166226
 20
491.9947039565
 11
296.2148982719
 21
487.3599287427
  0
LINE
  8
0
 62
7
  6
CONTINUOUS
 10
299.309850997
 20
492.8286236015
 11
297.9259150153
 21
486.9904114438
  0
LINE
  8
0
 62
7
  6
CONTINUOUS
 10
298.8323642131
 20
487.5627231239
 11
299.2740459186
 21
489.4259823621
  0
LINE
  8
0
 62
7
  6
CONTINUOUS
 10
299.4507185761
 20
490.1712859529
 11
299.8629548593
 21
491.9103280129
  0
LINE
  8
0
 62
7
  6
CONTINUOUS
 10
302.7270157623
 20
490.4442245235
 11
302.6681248764
 21
490.1957899933
  0
LINE
  8
0
 62
7
  6
CONTINUOUS
 10
302.1381068628
 20
487.9598790467
 11
302.0497705341
 21
487.5872272513
  0
LINE
  8
0
 62
7
  6
CONTINUOUS
 10
302.7501016109
 20
487.2900179884
 11
302.8973288254
 21
487.9111043141
  0
LINE
  8
0
 62
7
  6
CONTINUOUS
 10
303.3684559532
 20
489.8985807304
 11
303.4862378074
 21
490.395450139
  0
LINE
  8
0
 62
7
  6
CONTINUOUS
 10
316.9067269236
 20
487.9015056843
 11
316.6926411438
 21
487.3001810169
  0
LINE
  8
0
 62
7
  6
CONTINUOUS
 10
315.2368576305
 20
483.2111726895
 11
314.8943203527
 21
482.2490531375
  0
LINE
  8
0
 62
7
  6
CONTINUOUS
 10
319.6046983734
 20
480.5720473419
 11
319.8616013393
 21
481.2936370269
  0
LINE
  8
0
 62
7
  6
CONTINUOUS
 10
321.3173848525
 20
485.3826453544
 11
321.6171049444
 21
486.2244998886
  0
LINE
  8
0
 62
7
  6
CONTINUOUS
 10
320.1378014222
 20
481.0500186906
 11
319.9051118964
 21
480.4556452597
  0
LINE
  8
0
 62
7
  6
CONTINUOUS
 10
325.0724203424
 20
483.3680830932
 11
324.9793444147
 21
483.1303334211
  0
LINE
  8
0
 62
7
  6
CONTINUOUS
 10
324.095444497
 20
478.8151841367
 11
324.3281340229
 21
479.4095575677
  0
LINE
  8
0
 62
7
  6
CONTINUOUS
 10
325.6777331815
 20
482.8569232339
 11
325.7708091092
 21
483.094672906
  0
LINE
  8
0
 62
7
  6
CONTINUOUS
 10
325.8007429448
 20
510.3405398894
 11
322.1421757713
 21
501.2852683759
  0
LINE
  8
0
 62
7
  6
CONTINUOUS
 10
326.4353073742
 20
481.7174717916
 11
325.9806115723
 21
480.6623387496
  0
LINE
  8
0
 62
7
  6
CONTINUOUS
 10
326.6051063413
 20
480.5322295817
 11
326.9587586317
 21
481.3528886143
  0
LINE
  8
0
 62
7
  6
CONTINUOUS
 10
329.9434175122
 20
480.0666888565
 11
329.5897652219
 21
479.2460298239
  0
LINE
  8
0
 62
7
  6
CONTINUOUS
 10
330.1132161509
 20
478.8814467882
 11
330.5679119528
 21
479.9365798301
  0
LINE
  8
0
 62
7
  6
CONTINUOUS
 10
379.0984379834
 20
481.872374995
 11
372.8207010464
 21
474.3908594469
  0
LINE
  8
0
 62
7
  6
CONTINUOUS
 10
420.9904114023
 20
438.3276477372
 11
412.7080133327
 21
433.1522310232
  0
LINE
  8
0
 62
7
  6
CONTINUOUS
 10
77.7822767411
 20
271.7356926917
 11
87.2585971133
 21
274.0984047244
  0
LINE
  8
DEFAULT_1
 62
2
  6
CENTER
 10
262.5791308529
 20
327.8522560529
 11
59.9206212552
 21
327.8522560529
  0
LINE
  8
DEFAULT_1
 62
2
  6
CENTER
 10
262.5791308529
 20
327.8522560529
 11
465.2376404506
 21
327.8522560529
  0
LINE
  8
0
 62
7
  6
CONTINUOUS
 10
69.4859068146
 20
331.5876012237
 11
79.2285412259
 21
330.9063298594
  0
LINE
  8
0
 62
7
  6
CONTINUOUS
 10
80.0908470164
 20
391.0738681448
 11
89.1461185299
 21
387.4153009713
  0
LINE
  8
0
 62
7
  6
CONTINUOUS
 10
108.5590119109
 20
444.3715631833
 11
116.0405274589
 21
438.0938262463
  0
LINE
  8
0
 62
7
  6
CONTINUOUS
 10
152.1037391686
 20
486.2635366022
 11
157.2791558826
 21
477.9811385327
  0
LINE
  8
0
 62
7
  6
CONTINUOUS
 10
206.4625674918
 20
512.6491101647
 11
208.8252795245
 21
503.1727897925
  0
LINE
  8
0
 62
7
  6
CONTINUOUS
 10
258.8437856821
 20
134.7590320145
 11
259.5250570464
 21
144.5016664259
  0
LINE
  8
0
 62
7
  6
CONTINUOUS
 10
296.9508253937
 20
487.2153214417
 11
298.1076838019
 21
493.1027384155
  0
LINE
  8
0
 62
7
  6
CONTINUOUS
 10
199.3575187611
 20
145.3639722164
 11
203.0160859346
 21
154.4192437299
  0
LINE
  8
0
 62
7
  6
CONTINUOUS
 10
146.0598237225
 20
173.8321371108
 11
152.3375606595
 21
181.3136526589
  0
LINE
  8
0
 62
7
  6
CONTINUOUS
 10
104.1678503036
 20
217.3768643686
 11
112.4502483731
 21
222.5522810826
  0
LINE
  8
0
 62
7
  6
CONTINUOUS
 10
447.3759849647
 20
383.9688194141
 11
437.8996645925
 21
381.6061073814
  0
LINE
  8
0
 62
7
  6
CONTINUOUS
 10
455.6723548913
 20
324.1169108821
 11
445.9297204799
 21
324.7981822464
  0
LINE
  8
0
 62
7
  6
CONTINUOUS
 10
445.0674146894
 20
264.630643961
 11
436.012143176
 21
268.2892111346
  0
LINE
  8
0
 62
7
  6
CONTINUOUS
 10
416.599249795
 20
211.3329489225
 11
409.117734247
 21
217.6106858595
  0
LINE
  8
0
 62
7
  6
CONTINUOUS
 10
373.0545225372
 20
169.4409755036
 11
367.8791058233
 21
177.7233735731
  0
LINE
  8
0
 62
7
  6
CONTINUOUS
 10
318.6956942141
 20
143.0554019411
 11
316.3329821814
 21
152.5317223133
  0
LINE
  8
0
 62
7
  6
CONTINUOUS
 10
278.6805641601
 20
524.8863164053
 11
277.8126938422
 21
533.1435509085
  0
LINE
  8
0
 62
7
  6
CONTINUOUS
 10
338.779377041
 20
510.2671665574
 11
340.5056091079
 21
518.3884499154
  0
LINE
  8
0
 62
7
  6
CONTINUOUS
 10
325.9806115723
 20
480.6623387496
 11
325.842797194
 21
480.0266843842
  0
LINE
  8
0
 62
7
  6
CONTINUOUS
 10
330.5679119528
 20
479.9365798301
 11
330.7057265888
 21
480.5722338898
  0
LINE
  8
0
 62
7
  6
CONTINUOUS
 10
326.4167698788
 20
479.7793383531
 11
326.6051063413
 21
480.5322295817
  0
LINE
  8
0
 62
7
  6
CONTINUOUS
 10
330.1317532471
 20
480.8195802039
 11
329.9434175122
 21
480.0666888565
  0
LINE
  8
0
 62
7
  6
CONTINUOUS
 10
391.4191789067
 20
477.7919743099
 11
395.5705377363
 21
484.9823387233
  0
LINE
  8
0
 62
7
  6
CONTINUOUS
 10
431.4472191874
 20
430.639637748
 11
437.6173408533
 21
436.1952402498
  0
LINE
  8
0
 62
7
  6
CONTINUOUS
 10
454.9452744089
 20
373.425756104
 11
462.5301844126
 21
376.8027756131
  0
LINE
  8
0
 62
7
  6
CONTINUOUS
 10
57.2878359974
 20
343.0858190422
 11
65.5450705006
 21
343.9536893601
  0
LINE
  8
0
 62
7
  6
CONTINUOUS
 10
72.0429369905
 20
405.7787343079
 11
80.1642203484
 21
404.052502241
  0
LINE
  8
0
 62
7
  6
CONTINUOUS
 10
105.4490481825
 20
460.8436629362
 11
112.6394125959
 21
456.6923041066
  0
LINE
  8
0
 62
7
  6
CONTINUOUS
 10
154.236146656
 20
502.8904660533
 11
159.7917491578
 21
496.7203443874
  0
LINE
  8
0
 62
7
  6
CONTINUOUS
 10
217.0056308018
 20
520.2183996088
 11
213.6286112927
 21
527.8033096125
  0
LINE
  8
0
 62
7
  6
CONTINUOUS
 10
268.1501169789
 20
492.3019904131
 11
268.2514940418
 21
491.7861423808
  0
LINE
  8
0
 62
7
  6
CONTINUOUS
 10
271.9622879902
 20
490.8484867279
 11
271.8609110491
 21
491.3643347322
  0
LINE
  8
0
 62
7
  6
CONTINUOUS
 10
276.04588059
 20
493.3721709045
 11
276.1225987654
 21
492.7262889819
  0
LINE
  8
0
 62
7
  6
CONTINUOUS
 10
276.7458340484
 20
492.6793583521
 11
276.6691165862
 21
493.3252402209
  0
LINE
  8
0
 62
7
  6
CONTINUOUS
 10
302.1048156688
 20
488.3613625758
 11
302.1381068628
 21
487.9598790467
  0
LINE
  8
0
 62
7
  6
CONTINUOUS
 10
302.8973288254
 20
487.9111043141
 11
302.8640376314
 21
488.3125878432
  0
LINE
  8
0
 62
7
  6
CONTINUOUS
 10
302.6937246094
 20
490.8457082266
 11
302.7270157623
 21
490.4442245235
  0
LINE
  8
0
 62
7
  6
CONTINUOUS
 10
303.4862378074
 20
490.395450139
 11
303.4529465721
 21
490.7969334941
  0
LINE
  8
0
 62
7
  6
CONTINUOUS
 10
325.842797194
 20
480.0266843842
 11
325.806026398
 21
479.6255041923
  0
LINE
  8
0
 62
7
  6
CONTINUOUS
 10
330.7057265888
 20
480.5722338898
 11
330.7424971979
 21
480.9734145517
  0
LINE
  8
0
 62
7
  6
CONTINUOUS
 10
325.7708091092
 20
483.094672906
 11
325.840562687
 21
483.6157399052
  0
LINE
  8
0
 62
7
  6
CONTINUOUS
 10
268.8335647386
 20
270.4670796318
 11
284.3899139247
 21
286.0234288179
  0
LINE
  8
0
 62
7
  6
CONTINUOUS
 10
304.407958088
 20
306.0414729811
 11
319.9643072741
 21
321.5978221672
  0
LINE
  8
0
 62
7
  6
CONTINUOUS
 10
290.4130107755
 20
289.2828333642
 11
301.1485535416
 21
300.0183761303
  0
LINE
  8
0
 62
7
  6
CONTINUOUS
 10
319.9643072741
 20
334.1066899386
 11
304.407958088
 21
349.6630391247
  0
LINE
  8
0
 62
7
  6
CONTINUOUS
 10
284.3899139247
 20
369.6810832879
 11
268.8335647386
 21
385.237432474
  0
LINE
  8
0
 62
7
  6
CONTINUOUS
 10
301.1485535416
 20
355.6861359755
 11
290.4130107755
 21
366.4216787416
  0
LINE
  8
0
 62
7
  6
CONTINUOUS
 10
271.2306999497
 20
491.2655618504
 11
271.4510721432
 21
490.6164390987
  0
LINE
  8
0
 62
7
  6
CONTINUOUS
 10
268.8817050226
 20
491.8849153575
 11
268.7744552938
 21
492.2732388914
  0
LINE
  8
0
 62
7
  6
CONTINUOUS
 10
276.6691165862
 20
493.3252402209
 11
276.5732267442
 21
493.7165238334
  0
LINE
  8
0
 62
7
  6
CONTINUOUS
 10
290.0761449261
 20
488.5356846193
 11
289.0210864908
 21
494.7716167702
  0
LINE
  8
0
 62
7
  6
CONTINUOUS
 10
289.0761737277
 20
490.2413574015
 11
289.3350378419
 21
488.6508379508
  0
LINE
  8
0
 62
7
  6
CONTINUOUS
 10
288.4486119001
 20
494.3438023177
 11
289.0310571968
 21
490.7651332564
  0
LINE
  8
0
 62
7
  6
CONTINUOUS
 10
292.7100552959
 20
492.8623474868
 11
293.5165006972
 21
487.8901551454
  0
LINE
  8
0
 62
7
  6
CONTINUOUS
 10
294.1301869528
 20
488.4200716135
 11
293.3241575106
 21
494.0426858721
  0
LINE
  8
0
 62
7
  6
CONTINUOUS
 10
325.806026398
 20
479.6255041923
 11
325.8335286105
 21
479.0576175942
  0
LINE
  8
0
 62
7
  6
CONTINUOUS
 10
330.7424971979
 20
480.9734145517
 11
330.7149952784
 21
481.5413009261
  0
LINE
  8
0
 62
7
  6
CONTINUOUS
 10
268.2514940418
 20
491.7861423808
 11
268.3646164101
 21
491.5253432569
  0
LINE
  8
0
 62
7
  6
CONTINUOUS
 10
272.075410592
 20
490.5876875709
 11
271.9622879902
 21
490.8484867279
  0
LINE
  8
0
 62
7
  6
CONTINUOUS
 10
269.1138224281
 20
491.4908414291
 11
268.8817050226
 21
491.8849153575
  0
LINE
  8
0
 62
7
  6
CONTINUOUS
 10
302.8640376314
 20
488.3125878432
 11
302.6169311432
 21
488.8959529026
  0
LINE
  8
0
 62
7
  6
CONTINUOUS
 10
324.9792376718
 20
483.8158438743
 11
325.0724203424
 21
483.3680830932
  0
LINE
  8
0
 62
7
  6
CONTINUOUS
 10
326.5728178508
 20
478.8780392483
 11
326.4167698788
 21
479.7793383531
  0
LINE
  8
0
 62
7
  6
CONTINUOUS
 10
329.9757060381
 20
481.720879272
 11
330.1317532471
 21
480.8195802039
  0
LINE
  8
0
 62
7
  6
CONTINUOUS
 10
268.3646164101
 20
491.5253432569
 11
268.7216014316
 21
491.1255190711
  0
LINE
  8
0
 62
7
  6
CONTINUOUS
 10
275.815758286
 20
493.6455414557
 11
276.04588059
 21
493.3721709045
  0
LINE
  8
0
 62
7
  6
CONTINUOUS
 10
276.5732267442
 20
493.7165238334
 11
276.3431044403
 21
493.9898943847
  0
LINE
  8
0
 62
7
  6
CONTINUOUS
 10
301.9204458588
 20
488.6674615453
 11
302.1048156688
 21
488.3613625758
  0
LINE
  8
0
 62
7
  6
CONTINUOUS
 10
302.5093547994
 20
491.1518071961
 11
302.6937246094
 21
490.8457082266
  0
LINE
  8
0
 62
7
  6
CONTINUOUS
 10
325.840562687
 20
483.6157399052
 11
325.5611215484
 21
484.2735121284
  0
LINE
  8
0
 62
7
  6
CONTINUOUS
 10
303.4529465721
 20
490.7969334941
 11
303.2058400838
 21
491.3802985535
  0
LINE
  8
0
 62
7
  6
CONTINUOUS
 10
325.8335286105
 20
479.0576175942
 11
326.0263470678
 21
478.5574988639
  0
LINE
  8
0
 62
7
  6
CONTINUOUS
 10
330.7149952784
 20
481.5413009261
 11
330.5221768034
 21
482.0414196154
  0
LINE
  8
0
 62
7
  6
CONTINUOUS
 10
328.4095313618
 20
478.0865315526
 11
327.964104108
 21
478.0004652186
  0
LINE
  8
0
 62
7
  6
CONTINUOUS
 10
327.826289441
 20
477.364811087
 11
328.5518280633
 21
477.4691758177
  0
LINE
  8
0
 62
7
  6
CONTINUOUS
 10
268.7216014316
 20
491.1255190711
 11
269.0844591712
 21
490.853219303
  0
LINE
  8
0
 62
7
  6
CONTINUOUS
 10
276.3431044403
 20
493.9898943847
 11
275.9883347944
 21
494.2726510834
  0
LINE
  8
0
 62
7
  6
CONTINUOUS
 10
303.2058400838
 20
491.3802985535
 11
302.8076578048
 21
491.8682785674
  0
LINE
  8
0
 62
7
  6
CONTINUOUS
 10
326.0263470678
 20
478.5574988639
 11
326.448754472
 21
477.958441788
  0
LINE
  8
0
 62
7
  6
CONTINUOUS
 10
326.8161580815
 20
478.4951575637
 11
326.5728178508
 21
478.8780392483
  0
LINE
  8
0
 62
7
  6
CONTINUOUS
 10
302.4031158902
 20
489.077834607
 11
302.675822029
 21
489.1443874329
  0
LINE
  8
0
 62
7
  6
CONTINUOUS
 10
322.6512752546
 20
484.7272111105
 11
323.0935454353
 21
484.828255356
  0
LINE
  8
0
 62
7
  6
CONTINUOUS
 10
270.0775278773
 20
490.6796924451
 11
270.5828710732
 21
490.7842156535
  0
LINE
  8
0
 62
7
  6
CONTINUOUS
 10
270.6063616795
 20
491.29431337
 11
270.1010184821
 21
491.1897901282
  0
LINE
  8
0
 62
7
  6
CONTINUOUS
 10
328.1389925272
 20
482.5123869676
 11
328.5844197809
 21
482.5984533017
  0
LINE
  8
0
 62
7
  6
CONTINUOUS
 10
328.72223376
 20
483.2341076445
 11
327.996695808
 21
483.1297426615
  0
LINE
  8
0
 62
7
  6
CONTINUOUS
 10
323.2098367453
 20
485.4681970899
 11
322.6511684645
 21
485.4127211981
  0
LINE
  8
0
 62
7
  6
CONTINUOUS
 10
301.5376550391
 20
487.0526368374
 11
301.1433213363
 21
487.0149155711
  0
LINE
  8
0
 62
7
  6
CONTINUOUS
 10
302.156009402
 20
489.6611996664
 11
301.7616756993
 21
489.6234784001
  0
LINE
  8
0
 62
7
  6
CONTINUOUS
 10
269.0844591712
 20
490.853219303
 11
269.578057154
 21
490.7026936657
  0
LINE
  8
0
 62
7
  6
CONTINUOUS
 10
275.9883347944
 20
494.2726510834
 11
275.6239793153
 21
494.428108627
  0
LINE
  8
0
 62
7
  6
CONTINUOUS
 10
269.6015477587
 20
491.2127913488
 11
269.1138224281
 21
491.4908414291
  0
LINE
  8
0
 62
7
  6
CONTINUOUS
 10
275.5760501488
 20
493.7916128519
 11
275.815758286
 21
493.6455414557
  0
LINE
  8
0
 62
7
  6
CONTINUOUS
 10
301.5850030418
 20
488.8781748093
 11
301.9204458588
 21
488.6674615453
  0
LINE
  8
0
 62
7
  6
CONTINUOUS
 10
302.6169311432
 20
488.8959529026
 11
302.4031158902
 21
489.077834607
  0
LINE
  8
0
 62
7
  6
CONTINUOUS
 10
325.5611215484
 20
484.2735121284
 11
325.1886049455
 21
484.6935348821
  0
LINE
  8
0
 62
7
  6
CONTINUOUS
 10
330.5221768034
 20
482.0414196154
 11
330.0997687291
 21
482.6404769435
  0
LINE
  8
0
 62
7
  6
CONTINUOUS
 10
324.7231190857
 20
484.190298307
 11
324.9792376718
 21
483.8158438743
  0
LINE
  8
0
 62
7
  6
CONTINUOUS
 10
329.7323658074
 20
482.1037609565
 11
329.9757060381
 21
481.720879272
  0
LINE
  8
0
 62
7
  6
CONTINUOUS
 10
274.5788728401
 20
493.8667019242
 11
275.0870473278
 21
493.9564565431
  0
LINE
  8
0
 62
7
  6
CONTINUOUS
 10
275.1253906609
 20
494.4656531631
 11
274.6172161733
 21
494.3758985442
  0
LINE
  8
0
 62
7
  6
CONTINUOUS
 10
300.8450210942
 20
486.2984434529
 11
301.4826127115
 21
486.2785009508
  0
LINE
  8
0
 62
7
  6
CONTINUOUS
 10
269.578057154
 20
490.7026936657
 11
270.0775278773
 21
490.6796924451
  0
LINE
  8
0
 62
7
  6
CONTINUOUS
 10
271.4510721432
 20
490.6164390987
 11
272.075410592
 21
490.5876875709
  0
LINE
  8
0
 62
7
  6
CONTINUOUS
 10
270.1010184821
 20
491.1897901282
 11
269.6015477587
 21
491.2127913488
  0
LINE
  8
0
 62
7
  6
CONTINUOUS
 10
272.0135999789
 20
494.6799696496
 11
271.3892615301
 21
494.7087211774
  0
LINE
  8
0
 62
7
  6
CONTINUOUS
 10
268.8919083154
 20
494.8237272619
 11
268.2675700005
 21
494.8524787836
  0
LINE
  8
0
 62
7
  6
CONTINUOUS
 10
273.0735843917
 20
490.5234856687
 11
273.6968200313
 21
490.476555012
  0
LINE
  8
0
 62
7
  6
CONTINUOUS
 10
275.940467906
 20
490.30760468
 11
276.5637031889
 21
490.2606740502
  0
LINE
  8
0
 62
7
  6
CONTINUOUS
 10
275.6239793153
 20
494.428108627
 11
275.1253906609
 21
494.4656531631
  0
LINE
  8
0
 62
7
  6
CONTINUOUS
 10
274.0035667236
 20
494.5501283291
 11
273.380331084
 21
494.5970589858
  0
LINE
  8
0
 62
7
  6
CONTINUOUS
 10
277.5590364568
 20
490.1627612098
 11
278.1812800444
 21
490.1041299921
  0
LINE
  8
0
 62
7
  6
CONTINUOUS
 10
278.5645037968
 20
494.1712214171
 11
277.9422602093
 21
494.2298526347
  0
LINE
  8
0
 62
7
  6
CONTINUOUS
 10
278.062017655
 20
495.5008189498
 11
278.6842612425
 21
495.4421877321
  0
LINE
  8
0
 62
7
  6
CONTINUOUS
 10
278.7441399486
 20
496.0776707117
 11
278.121896361
 21
496.1363019293
  0
LINE
  8
0
 62
7
  6
CONTINUOUS
 10
285.1354315026
 20
489.3033734222
 11
285.8765385868
 21
489.1882200908
  0
LINE
  8
0
 62
7
  6
CONTINUOUS
 10
289.3350378419
 20
488.6508379508
 11
290.0761449261
 21
488.5356846193
  0
LINE
  8
0
 62
7
  6
CONTINUOUS
 10
286.6058163091
 20
490.6252019128
 11
289.0761737277
 21
490.2413574015
  0
LINE
  8
0
 62
7
  6
CONTINUOUS
 10
289.0310571968
 20
490.7651332564
 11
286.8077359442
 21
491.1105932506
  0
LINE
  8
0
 62
7
  6
CONTINUOUS
 10
289.0210864908
 20
494.7716167702
 11
288.0329432407
 21
494.9251546187
  0
LINE
  8
0
 62
7
  6
CONTINUOUS
 10
323.0935454353
 20
484.828255356
 11
323.7220740007
 21
484.7192881921
  0
LINE
  8
0
 62
7
  6
CONTINUOUS
 10
291.0634098235
 20
488.372179574
 11
291.7993369453
 21
488.227572273
  0
LINE
  8
0
 62
7
  6
CONTINUOUS
 10
293.5165006972
 20
487.8901551454
 11
294.4977359237
 21
487.6973455945
  0
LINE
  8
0
 62
7
  6
CONTINUOUS
 10
296.2148982719
 20
487.3599287427
 11
296.9508253937
 21
487.2153214417
  0
LINE
  8
0
 62
7
  6
CONTINUOUS
 10
298.1076838019
 20
493.1027384155
 11
297.0037931193
 21
493.319649367
  0
LINE
  8
0
 62
7
  6
CONTINUOUS
 10
293.3241575106
 20
494.0426858721
 11
292.2202682317
 21
494.2595965478
  0
LINE
  8
0
 62
7
  6
CONTINUOUS
 10
327.964104108
 20
478.0004652186
 11
327.3396090106
 21
478.130574528
  0
LINE
  8
0
 62
7
  6
CONTINUOUS
 10
328.5844197809
 20
482.5984533017
 11
329.2089142215
 21
482.4683442753
  0
LINE
  8
0
 62
7
  6
CONTINUOUS
 10
324.0711615107
 20
485.2680932187
 11
323.2098367453
 21
485.4681970899
  0
LINE
  8
0
 62
7
  6
CONTINUOUS
 10
297.9259150153
 20
486.9904114438
 11
300.8450210942
 21
486.2984434529
  0
LINE
  8
0
 62
7
  6
CONTINUOUS
 10
301.1433213363
 20
487.0149155711
 11
298.8323642131
 21
487.5627231239
  0
LINE
  8
0
 62
7
  6
CONTINUOUS
 10
299.2740459186
 20
489.4259823621
 11
301.5850030418
 21
488.8781748093
  0
LINE
  8
0
 62
7
  6
CONTINUOUS
 10
301.7616756993
 20
489.6234784001
 11
299.4507185761
 21
490.1712859529
  0
LINE
  8
0
 62
7
  6
CONTINUOUS
 10
299.8629548593
 20
491.9103280129
 11
302.1739119825
 21
491.3625204601
  0
LINE
  8
0
 62
7
  6
CONTINUOUS
 10
302.2289570759
 20
492.1366556106
 11
299.309850997
 21
492.8286236015
  0
LINE
  8
0
 62
7
  6
CONTINUOUS
 10
327.0870001964
 20
477.5443894226
 11
327.826289441
 21
477.364811087
  0
LINE
  8
0
 62
7
  6
CONTINUOUS
 10
329.4615230003
 20
483.0545292986
 11
328.72223376
 21
483.2341076445
  0
LINE
  8
0
 62
7
  6
CONTINUOUS
 10
275.0870473278
 20
493.9564565431
 11
275.5760501488
 21
493.7916128519
  0
LINE
  8
0
 62
7
  6
CONTINUOUS
 10
314.8943203527
 20
482.2490531375
 11
319.6046983734
 21
480.5720473419
  0
LINE
  8
0
 62
7
  6
CONTINUOUS
 10
319.8616013393
 20
481.2936370269
 11
315.8577771916
 21
482.7190929608
  0
LINE
  8
0
 62
7
  6
CONTINUOUS
 10
316.6926411438
 20
487.3001810169
 11
320.8142202273
 21
485.8328015455
  0
LINE
  8
0
 62
7
  6
CONTINUOUS
 10
321.6171049444
 20
486.2244998886
 11
316.9067269236
 21
487.9015056843
  0
LINE
  8
0
 62
7
  6
CONTINUOUS
 10
319.9051118964
 20
480.4556452597
 11
324.095444497
 21
478.8151841367
  0
LINE
  8
0
 62
7
  6
CONTINUOUS
 10
324.3281340229
 20
479.4095575677
 11
321.0689864724
 21
480.6854717636
  0
LINE
  8
0
 62
7
  6
CONTINUOUS
 10
321.6968746398
 20
484.6895656631
 11
322.2788652753
 21
484.4617238418
  0
LINE
  8
0
 62
7
  6
CONTINUOUS
 10
323.7220740007
 20
484.7192881921
 11
324.1876664009
 21
484.5370147774
  0
LINE
  8
0
 62
7
  6
CONTINUOUS
 10
324.5367540774
 20
485.0858197388
 11
324.0711615107
 21
485.2680932187
  0
LINE
  8
0
 62
7
  6
CONTINUOUS
 10
302.8076578048
 20
491.8682785674
 11
302.2289570759
 21
492.1366556106
  0
LINE
  8
0
 62
7
  6
CONTINUOUS
 10
325.1886049455
 20
484.6935348821
 11
324.5367540774
 21
485.0858197388
  0
LINE
  8
0
 62
7
  6
CONTINUOUS
 10
302.1739119825
 20
491.3625204601
 11
302.5093547994
 21
491.1518071961
  0
LINE
  8
0
 62
7
  6
CONTINUOUS
 10
324.1876664009
 20
484.5370147774
 11
324.7231190857
 21
484.190298307
  0
LINE
  8
0
 62
7
  6
CONTINUOUS
 10
326.448754472
 20
477.958441788
 11
327.0870001964
 21
477.5443894226
  0
LINE
  8
0
 62
7
  6
CONTINUOUS
 10
330.0997687291
 20
482.6404769435
 11
329.4615230003
 21
483.0545292986
  0
LINE
  8
0
 62
7
  6
CONTINUOUS
 10
327.3396090106
 20
478.130574528
 11
326.8161580815
 21
478.4951575637
  0
LINE
  8
0
 62
7
  6
CONTINUOUS
 10
329.2089142215
 20
482.4683442753
 11
329.7323658074
 21
482.1037609565
  0
LINE
  8
0
 62
7
  6
CONTINUOUS
 10
445.1564290196
 20
332.3486873946
 11
445.1564290196
 21
358.3522560529
  0
LINE
  8
0
 62
7
  6
CONTINUOUS
 10
459.2096402943
 20
323.4298238667
 11
458.5875911526
 21
311.6103768339
  0
LINE
  8
0
 62
7
  6
CONTINUOUS
 10
437.6099337005
 20
275.70912846
 11
445.6454783303
 21
300.4399918793
  0
LINE
  8
0
 62
7
  6
CONTINUOUS
 10
448.2192514576
 20
262.8841040743
 11
443.9752375706
 21
251.8353657109
  0
LINE
  8
0
 62
7
  6
CONTINUOUS
 10
412.9302038874
 20
224.1737021566
 11
428.2147180518
 21
245.2110311156
  0
LINE
  8
0
 62
7
  6
CONTINUOUS
 10
419.0571141853
 20
208.6979196574
 11
411.6065692022
 21
199.5014174554
  0
LINE
  8
0
 62
7
  6
CONTINUOUS
 10
373.5330634882
 20
182.7870550796
 11
394.5703924471
 21
198.0715692439
  0
LINE
  8
0
 62
7
  6
CONTINUOUS
 10
374.5778216582
 20
166.1753918839
 11
364.6500568328
 21
159.7313435547
  0
LINE
  8
0
 62
7
  6
CONTINUOUS
 10
323.2749791011
 20
155.6004006026
 11
348.0058425205
 21
163.6359452324
  0
LINE
  8
0
 62
7
  6
CONTINUOUS
 10
206.0229447716
 20
516.2255900616
 11
217.4561306472
 21
519.2863961692
  0
LINE
  8
0
 62
7
  6
CONTINUOUS
 10
258.0826995112
 20
510.4295542196
 11
232.0791308529
 21
510.4295542196
  0
LINE
  8
0
 62
7
  6
CONTINUOUS
 10
267.0015630392
 20
524.4827654943
 11
278.821010072
 21
523.8607163526
  0
LINE
  8
0
 62
7
  6
CONTINUOUS
 10
314.7222584459
 20
502.8830589005
 11
289.9913950265
 21
510.9186035303
  0
LINE
  8
0
 62
7
  6
CONTINUOUS
 10
327.5472828315
 20
513.4923766575
 11
338.596021195
 21
509.2483627706
  0
LINE
  8
0
 62
7
  6
CONTINUOUS
 10
366.2576847492
 20
478.2033290874
 11
345.2203557903
 21
493.4878432517
  0
LINE
  8
0
 62
7
  6
CONTINUOUS
 10
381.7334672485
 20
484.3302393852
 11
390.9299694504
 21
476.8796944021
  0
LINE
  8
0
 62
7
  6
CONTINUOUS
 10
407.6443318262
 20
438.8061886882
 11
392.3598176619
 21
459.8435176471
  0
LINE
  8
0
 62
7
  6
CONTINUOUS
 10
424.2559950219
 20
439.8509468582
 11
430.7000433511
 21
429.9231820328
  0
LINE
  8
0
 62
7
  6
CONTINUOUS
 10
434.8309863033
 20
388.5481043011
 11
426.7954416735
 21
413.2789677205
  0
LINE
  8
0
 62
7
  6
CONTINUOUS
 10
450.9524648616
 20
384.4084421343
 11
454.0132709692
 21
372.9752562586
  0
LINE
  8
0
 62
7
  6
CONTINUOUS
 10
633.6182822921
 20
121.6654896606
 11
641.7452719247
 21
121.6654896606
  0
LINE
  8
0
 62
7
  6
CONTINUOUS
 10
659.0182822921
 20
121.6654896606
 11
667.1452719247
 21
121.6654896606
  0
LINE
  8
0
 62
9
  6
CONTINUOUS
 10
667.1811668449
 20
122.5609611973
 11
658.9823873719
 21
122.5609611973
  0
LINE
  8
0
 62
9
  6
CONTINUOUS
 10
641.7811668449
 20
122.5609611973
 11
633.5823873719
 21
122.5609611973
  0
LINE
  8
0
 62
9
  6
CONTINUOUS
 10
667.5376521957
 20
130.8181957005
 11
658.6259020211
 21
130.8181957005
  0
LINE
  8
0
 62
9
  6
CONTINUOUS
 10
642.1376521957
 20
130.8181957005
 11
633.2259020211
 21
130.8181957005
  0
LINE
  8
0
 62
7
  6
CONTINUOUS
 10
667.1483182904
 20
136.1081505504
 11
659.0152359264
 21
136.1081505504
  0
LINE
  8
0
 62
7
  6
CONTINUOUS
 10
641.7483182904
 20
136.1081505504
 11
633.6152359264
 21
136.1081505504
  0
LINE
  8
0
 62
9
  6
CONTINUOUS
 10
667.1811668449
 20
137.3160621904
 11
658.9823873719
 21
137.3160621904
  0
LINE
  8
0
 62
9
  6
CONTINUOUS
 10
641.7811668449
 20
137.3160621904
 11
633.5823873719
 21
137.3160621904
  0
LINE
  8
0
 62
9
  6
CONTINUOUS
 10
667.5376521957
 20
145.4373455484
 11
658.6259020211
 21
145.4373455484
  0
LINE
  8
0
 62
9
  6
CONTINUOUS
 10
642.1376521957
 20
145.4373455484
 11
633.2259020211
 21
145.4373455484
  0
LINE
  8
0
 62
7
  6
CONTINUOUS
 10
658.5817771084
 20
150.8522560529
 11
642.1817771084
 21
150.8522560529
  0
LINE
  8
0
 62
7
  6
CONTINUOUS
 10
627.3817771084
 20
150.8522560529
 11
633.1817771084
 21
150.8522560529
  0
LINE
  8
0
 62
7
  6
CONTINUOUS
 10
667.5817771084
 20
150.8522560529
 11
673.3817771084
 21
150.8522560529
  0
LINE
  8
0
 62
9
  6
CONTINUOUS
 10
667.5817771084
 20
162.2166688541
 11
658.5817771084
 21
162.2166688541
  0
LINE
  8
0
 62
9
  6
CONTINUOUS
 10
642.1817771084
 20
162.2166688541
 11
633.1817771084
 21
162.2166688541
  0
LINE
  8
0
 62
7
  6
CONTINUOUS
 10
633.5131315484
 20
168.5453937342
 11
641.8504226685
 21
168.5453937342
  0
LINE
  8
0
 62
7
  6
CONTINUOUS
 10
658.9131315484
 20
168.5453937342
 11
667.2504226685
 21
168.5453937342
  0
LINE
  8
0
 62
9
  6
CONTINUOUS
 10
667.1483182904
 20
169.271215386
 11
659.0152359264
 21
169.271215386
  0
LINE
  8
0
 62
9
  6
CONTINUOUS
 10
641.7483182904
 20
169.271215386
 11
633.6152359264
 21
169.271215386
  0
LINE
  8
0
 62
9
  6
CONTINUOUS
 10
667.1811668449
 20
170.7221733825
 11
658.9823873719
 21
170.7221733825
  0
LINE
  8
0
 62
9
  6
CONTINUOUS
 10
641.7811668449
 20
170.7221733825
 11
633.5823873719
 21
170.7221733825
  0
LINE
  8
0
 62
9
  6
CONTINUOUS
 10
667.5376521957
 20
177.9125377959
 11
658.6259020211
 21
177.9125377959
  0
LINE
  8
0
 62
9
  6
CONTINUOUS
 10
642.1376521957
 20
177.9125377959
 11
633.2259020211
 21
177.9125377959
  0
POLYLINE
  8
0
 62
7
  6
CONTINUOUS
 66
1
 70
0
  0
VERTEX
  8
0
 62
7
  6
CONTINUOUS
 10
633.5131322772
 20
168.5453937342
  0
VERTEX
  8
0
 62
7
  6
CONTINUOUS
 10
633.4969656167
 20
168.5566939147
  0
VERTEX
  8
0
 62
7
  6
CONTINUOUS
 10
633.4440249042
 20
168.7273088718
  0
VERTEX
  8
0
 62
7
  6
CONTINUOUS
 10
633.385290474
 20
169.1008631377
  0
VERTEX
  8
0
 62
7
  6
CONTINUOUS
 10
633.3214718371
 20
169.6722187139
  0
VERTEX
  8
0
 62
7
  6
CONTINUOUS
 10
633.2533495959
 20
170.4335206079
  0
VERTEX
  8
0
 62
7
  6
CONTINUOUS
 10
633.1817771084
 20
171.3742727206
  0
SEQEND
  0
LINE
  8
0
 62
9
  6
CONTINUOUS
 10
667.5817771084
 20
195.8609944587
 11
658.5817771084
 21
195.8609944587
  0
LINE
  8
0
 62
9
  6
CONTINUOUS
 10
642.1817771084
 20
195.8609944587
 11
633.1817771084
 21
195.8609944587
  0
POLYLINE
  8
0
 62
7
  6
CONTINUOUS
 66
1
 70
0
  0
VERTEX
  8
0
 62
7
  6
CONTINUOUS
 10
658.9131322772
 20
168.5453937342
  0
VERTEX
  8
0
 62
7
  6
CONTINUOUS
 10
658.8969656167
 20
168.5566939147
  0
VERTEX
  8
0
 62
7
  6
CONTINUOUS
 10
658.8440249042
 20
168.7273088718
  0
VERTEX
  8
0
 62
7
  6
CONTINUOUS
 10
658.785290474
 20
169.1008631377
  0
VERTEX
  8
0
 62
7
  6
CONTINUOUS
 10
658.7214718371
 20
169.6722187139
  0
VERTEX
  8
0
 62
7
  6
CONTINUOUS
 10
658.6533495959
 20
170.4335206079
  0
VERTEX
  8
0
 62
7
  6
CONTINUOUS
 10
658.5817771084
 20
171.3742727206
  0
SEQEND
  0
POLYLINE
  8
0
 62
7
  6
CONTINUOUS
 66
1
 70
0
  0
VERTEX
  8
0
 62
7
  6
CONTINUOUS
 10
641.751784606
 20
503.2213354469
  0
VERTEX
  8
0
 62
7
  6
CONTINUOUS
 10
641.7506251641
 20
503.219957415
  0
VERTEX
  8
0
 62
7
  6
CONTINUOUS
 10
641.7469092922
 20
503.1837726017
  0
VERTEX
  8
0
 62
7
  6
CONTINUOUS
 10
641.7452502429
 20
503.1001725627
  0
VERTEX
  8
0
 62
7
  6
CONTINUOUS
 10
641.7457277598
 20
502.9732940801
  0
VERTEX
  8
0
 62
7
  6
CONTINUOUS
 10
641.7483182904
 20
502.8093784711
  0
SEQEND
  0
LINE
  8
0
 62
7
  6
CONTINUOUS
 10
633.3645352499
 20
215.1279761917
 11
641.999018967
 21
215.1279761917
  0
LINE
  8
0
 62
7
  6
CONTINUOUS
 10
658.7645352499
 20
215.1279761917
 11
667.399018967
 21
215.1279761917
  0
LINE
  8
0
 62
9
  6
CONTINUOUS
 10
667.1483182904
 20
217.9572973812
 11
659.0152359264
 21
217.9572973812
  0
LINE
  8
0
 62
9
  6
CONTINUOUS
 10
641.7483182904
 20
217.9572973812
 11
633.6152359264
 21
217.9572973812
  0
POLYLINE
  8
0
 62
7
  6
CONTINUOUS
 66
1
 70
0
  0
VERTEX
  8
0
 62
7
  6
CONTINUOUS
 10
667.151784606
 20
503.2213354469
  0
VERTEX
  8
0
 62
7
  6
CONTINUOUS
 10
667.1506251641
 20
503.219957415
  0
VERTEX
  8
0
 62
7
  6
CONTINUOUS
 10
667.1469092922
 20
503.1837726017
  0
VERTEX
  8
0
 62
7
  6
CONTINUOUS
 10
667.1452502429
 20
503.1001725627
  0
VERTEX
  8
0
 62
7
  6
CONTINUOUS
 10
667.1457277598
 20
502.9732940801
  0
VERTEX
  8
0
 62
7
  6
CONTINUOUS
 10
667.1483182904
 20
502.8093784711
  0
SEQEND
  0
POLYLINE
  8
0
 62
7
  6
CONTINUOUS
 66
1
 70
0
  0
VERTEX
  8
0
 62
7
  6
CONTINUOUS
 10
633.6028353381
 20
460.9776375325
  0
VERTEX
  8
0
 62
7
  6
CONTINUOUS
 10
633.6001361421
 20
460.9745661524
  0
VERTEX
  8
0
 62
7
  6
CONTINUOUS
 10
633.5916809502
 20
460.9326747814
  0
VERTEX
  8
0
 62
7
  6
CONTINUOUS
 10
633.5823873719
 20
460.8436629362
  0
SEQEND
  0
LINE
  8
0
 62
9
  6
CONTINUOUS
 10
667.1811668449
 20
219.509271856
 11
658.9823873719
 21
219.509271856
  0
LINE
  8
0
 62
9
  6
CONTINUOUS
 10
641.7811668449
 20
219.509271856
 11
633.5823873719
 21
219.509271856
  0
LINE
  8
0
 62
9
  6
CONTINUOUS
 10
667.5376521957
 20
225.0648743578
 11
658.6259020211
 21
225.0648743578
  0
LINE
  8
0
 62
9
  6
CONTINUOUS
 10
642.1376521957
 20
225.0648743578
 11
633.2259020211
 21
225.0648743578
  0
LINE
  8
0
 62
9
  6
CONTINUOUS
 10
667.5817771084
 20
242.4255443853
 11
658.5817771084
 21
242.4255443853
  0
LINE
  8
0
 62
9
  6
CONTINUOUS
 10
642.1817771084
 20
242.4255443853
 11
633.1817771084
 21
242.4255443853
  0
POLYLINE
  8
0
 62
7
  6
CONTINUOUS
 66
1
 70
0
  0
VERTEX
  8
0
 62
7
  6
CONTINUOUS
 10
633.3645339822
 20
215.1279761917
  0
VERTEX
  8
0
 62
7
  6
CONTINUOUS
 10
633.3214718371
 20
215.1736492915
  0
VERTEX
  8
0
 62
7
  6
CONTINUOUS
 10
633.2533495959
 20
215.4127804724
  0
VERTEX
  8
0
 62
7
  6
CONTINUOUS
 10
633.1817771084
 20
215.8535652477
  0
SEQEND
  0
POLYLINE
  8
0
 62
7
  6
CONTINUOUS
 66
1
 70
0
  0
VERTEX
  8
0
 62
7
  6
CONTINUOUS
 10
633.6117696109
 20
503.2213354469
  0
VERTEX
  8
0
 62
7
  6
CONTINUOUS
 10
633.6073357528
 20
503.2069208205
  0
VERTEX
  8
0
 62
7
  6
CONTINUOUS
 10
633.6001361421
 20
503.1452700688
  0
VERTEX
  8
0
 62
7
  6
CONTINUOUS
 10
633.5916809502
 20
503.0380106827
  0
VERTEX
  8
0
 62
7
  6
CONTINUOUS
 10
633.5823873719
 20
502.8904660533
  0
SEQEND
  0
POLYLINE
  8
0
 62
7
  6
CONTINUOUS
 66
1
 70
0
  0
VERTEX
  8
0
 62
7
  6
CONTINUOUS
 10
659.0028353381
 20
460.9776375325
  0
VERTEX
  8
0
 62
7
  6
CONTINUOUS
 10
659.0001361421
 20
460.9745661524
  0
VERTEX
  8
0
 62
7
  6
CONTINUOUS
 10
658.9916809502
 20
460.9326747814
  0
VERTEX
  8
0
 62
7
  6
CONTINUOUS
 10
658.9823873719
 20
460.8436629362
  0
SEQEND
  0
POLYLINE
  8
0
 62
7
  6
CONTINUOUS
 66
1
 70
0
  0
VERTEX
  8
0
 62
7
  6
CONTINUOUS
 10
658.7645339822
 20
215.1279761917
  0
VERTEX
  8
0
 62
7
  6
CONTINUOUS
 10
658.7214718371
 20
215.1736492915
  0
VERTEX
  8
0
 62
7
  6
CONTINUOUS
 10
658.6533495959
 20
215.4127804724
  0
VERTEX
  8
0
 62
7
  6
CONTINUOUS
 10
658.5817771084
 20
215.8535652477
  0
SEQEND
  0
POLYLINE
  8
0
 62
7
  6
CONTINUOUS
 66
1
 70
0
  0
VERTEX
  8
0
 62
7
  6
CONTINUOUS
 10
633.6151591906
 20
136.108149799
  0
VERTEX
  8
0
 62
7
  6
CONTINUOUS
 10
633.5830670662
 20
136.2102437307
  0
VERTEX
  8
0
 62
7
  6
CONTINUOUS
 10
633.5434929396
 20
136.5162407778
  0
VERTEX
  8
0
 62
7
  6
CONTINUOUS
 10
633.4969656167
 20
137.0219454261
  0
VERTEX
  8
0
 62
7
  6
CONTINUOUS
 10
633.4440249042
 20
137.7203898485
  0
VERTEX
  8
0
 62
7
  6
CONTINUOUS
 10
633.385290474
 20
138.6020042966
  0
VERTEX
  8
0
 62
7
  6
CONTINUOUS
 10
633.3214718371
 20
139.6545522961
  0
VERTEX
  8
0
 62
7
  6
CONTINUOUS
 10
633.2533495959
 20
140.8635033695
  0
VERTEX
  8
0
 62
7
  6
CONTINUOUS
 10
633.1817771084
 20
142.2121354483
  0
SEQEND
  0
POLYLINE
  8
0
 62
7
  6
CONTINUOUS
 66
1
 70
0
  0
VERTEX
  8
0
 62
7
  6
CONTINUOUS
 10
641.7607188788
 20
460.9776375325
  0
VERTEX
  8
0
 62
7
  6
CONTINUOUS
 10
641.756218464
 20
460.9672640532
  0
VERTEX
  8
0
 62
7
  6
CONTINUOUS
 10
641.7506251641
 20
460.9111662079
  0
VERTEX
  8
0
 62
7
  6
CONTINUOUS
 10
641.7469092922
 20
460.8090701388
  0
VERTEX
  8
0
 62
7
  6
CONTINUOUS
 10
641.7452502429
 20
460.6660225174
  0
VERTEX
  8
0
 62
7
  6
CONTINUOUS
 10
641.7457277598
 20
460.4890855063
  0
VERTEX
  8
0
 62
7
  6
CONTINUOUS
 10
641.7483182904
 20
460.2869575753
  0
SEQEND
  0
LINE
  8
0
 62
9
  6
CONTINUOUS
 10
633.1817771084
 20
267.1564078047
 11
642.1817771084
 21
267.1564078047
  0
LINE
  8
0
 62
9
  6
CONTINUOUS
 10
658.5817771084
 20
267.1564078047
 11
667.5817771084
 21
267.1564078047
  0
LINE
  8
0
 62
9
  6
CONTINUOUS
 10
633.1817771084
 20
268.9822520108
 11
642.1817771084
 21
268.9822520108
  0
LINE
  8
0
 62
9
  6
CONTINUOUS
 10
658.5817771084
 20
268.9822520108
 11
667.5817771084
 21
268.9822520108
  0
LINE
  8
0
 62
7
  6
CONTINUOUS
 10
633.181942884
 20
271.2960694406
 11
642.1816113328
 21
271.2960694406
  0
LINE
  8
0
 62
7
  6
CONTINUOUS
 10
658.581942884
 20
271.2960694406
 11
667.5816113328
 21
271.2960694406
  0
POLYLINE
  8
0
 62
7
  6
CONTINUOUS
 66
1
 70
0
  0
VERTEX
  8
0
 62
7
  6
CONTINUOUS
 10
659.0117696109
 20
503.2213354469
  0
VERTEX
  8
0
 62
7
  6
CONTINUOUS
 10
659.0073357528
 20
503.2069208205
  0
VERTEX
  8
0
 62
7
  6
CONTINUOUS
 10
659.0001361421
 20
503.1452700688
  0
VERTEX
  8
0
 62
7
  6
CONTINUOUS
 10
658.9916809502
 20
503.0380106827
  0
VERTEX
  8
0
 62
7
  6
CONTINUOUS
 10
658.9823873719
 20
502.8904660533
  0
SEQEND
  0
LINE
  8
0
 62
7
  6
CONTINUOUS
 10
633.5911517035
 20
405.8005867071
 11
633.5823873719
 21
405.7787343079
  0
LINE
  8
0
 62
9
  6
CONTINUOUS
 10
667.1483182904
 20
277.4006636143
 11
659.0152359264
 21
277.4006636143
  0
LINE
  8
0
 62
9
  6
CONTINUOUS
 10
641.7483182904
 20
277.4006636143
 11
633.6152359264
 21
277.4006636143
  0
LINE
  8
0
 62
9
  6
CONTINUOUS
 10
667.1811668449
 20
278.9017364927
 11
658.9823873719
 21
278.9017364927
  0
LINE
  8
0
 62
9
  6
CONTINUOUS
 10
641.7811668449
 20
278.9017364927
 11
633.5823873719
 21
278.9017364927
  0
LINE
  8
0
 62
9
  6
CONTINUOUS
 10
667.5376521957
 20
282.2787560018
 11
658.6259020211
 21
282.2787560018
  0
LINE
  8
0
 62
9
  6
CONTINUOUS
 10
642.1376521957
 20
282.2787560018
 11
633.2259020211
 21
282.2787560018
  0
POLYLINE
  8
0
 62
7
  6
CONTINUOUS
 66
1
 70
0
  0
VERTEX
  8
0
 62
7
  6
CONTINUOUS
 10
659.0151591906
 20
136.108149799
  0
VERTEX
  8
0
 62
7
  6
CONTINUOUS
 10
658.9830670662
 20
136.2102437307
  0
VERTEX
  8
0
 62
7
  6
CONTINUOUS
 10
658.9434929396
 20
136.5162407778
  0
VERTEX
  8
0
 62
7
  6
CONTINUOUS
 10
658.8969656167
 20
137.0219454261
  0
VERTEX
  8
0
 62
7
  6
CONTINUOUS
 10
658.8440249042
 20
137.7203898485
  0
VERTEX
  8
0
 62
7
  6
CONTINUOUS
 10
658.785290474
 20
138.6020042966
  0
VERTEX
  8
0
 62
7
  6
CONTINUOUS
 10
658.7214718371
 20
139.6545522961
  0
VERTEX
  8
0
 62
7
  6
CONTINUOUS
 10
658.6533495959
 20
140.8635033695
  0
VERTEX
  8
0
 62
7
  6
CONTINUOUS
 10
658.5817771084
 20
142.2121354483
  0
SEQEND
  0
POLYLINE
  8
0
 62
7
  6
CONTINUOUS
 66
1
 70
0
  0
VERTEX
  8
0
 62
7
  6
CONTINUOUS
 10
633.6152359264
 20
121.7143347211
  0
VERTEX
  8
0
 62
7
  6
CONTINUOUS
 10
633.6178264571
 20
121.6696682573
  0
VERTEX
  8
0
 62
7
  6
CONTINUOUS
 10
633.6182823072
 20
121.6654896606
  0
SEQEND
  0
POLYLINE
  8
0
 62
7
  6
CONTINUOUS
 66
1
 70
0
  0
VERTEX
  8
0
 62
7
  6
CONTINUOUS
 10
633.6152359264
 20
121.7143347211
  0
VERTEX
  8
0
 62
7
  6
CONTINUOUS
 10
633.5830670662
 20
122.3491515943
  0
VERTEX
  8
0
 62
7
  6
CONTINUOUS
 10
633.5434929396
 20
123.1704857129
  0
SEQEND
  0
LINE
  8
0
 62
7
  6
CONTINUOUS
 10
633.5434929396
 20
123.1704857129
 11
633.4440249042
 21
125.3249026159
  0
POLYLINE
  8
0
 62
7
  6
CONTINUOUS
 66
1
 70
0
  0
VERTEX
  8
0
 62
7
  6
CONTINUOUS
 10
633.4440249042
 20
125.3249026159
  0
VERTEX
  8
0
 62
7
  6
CONTINUOUS
 10
633.3214718371
 20
128.0589883725
  0
VERTEX
  8
0
 62
7
  6
CONTINUOUS
 10
633.2533495959
 20
129.5972480711
  0
VERTEX
  8
0
 62
7
  6
CONTINUOUS
 10
633.1817771084
 20
131.2217466115
  0
SEQEND
  0
LINE
  8
0
 62
7
  6
CONTINUOUS
 10
633.385290474
 20
529.0762334244
 11
633.2533495959
 21
526.1072640347
  0
POLYLINE
  8
0
 62
7
  6
CONTINUOUS
 66
1
 70
0
  0
VERTEX
  8
0
 62
7
  6
CONTINUOUS
 10
633.1817771084
 20
519.2863961692
  0
VERTEX
  8
0
 62
7
  6
CONTINUOUS
 10
633.5916809502
 20
527.9949443299
  0
VERTEX
  8
0
 62
7
  6
CONTINUOUS
 10
633.6001361421
 20
528.157072435
  0
VERTEX
  8
0
 62
7
  6
CONTINUOUS
 10
633.6073357528
 20
528.2816412325
  0
VERTEX
  8
0
 62
7
  6
CONTINUOUS
 10
633.6129290527
 20
528.3625361541
  0
VERTEX
  8
0
 62
7
  6
CONTINUOUS
 10
633.6166449246
 20
528.3958046184
  0
VERTEX
  8
0
 62
7
  6
CONTINUOUS
 10
633.6170899565
 20
528.3965729694
  0
SEQEND
  0
POLYLINE
  8
0
 62
7
  6
CONTINUOUS
 66
1
 70
0
  0
VERTEX
  8
0
 62
7
  6
CONTINUOUS
 10
633.6152359264
 20
533.9901773847
  0
VERTEX
  8
0
 62
7
  6
CONTINUOUS
 10
633.5830670662
 20
533.3553605115
  0
VERTEX
  8
0
 62
7
  6
CONTINUOUS
 10
633.5434929396
 20
532.5340263929
  0
VERTEX
  8
0
 62
7
  6
CONTINUOUS
 10
633.4969656167
 20
531.5375147712
  0
VERTEX
  8
0
 62
7
  6
CONTINUOUS
 10
633.385290474
 20
529.0762334244
  0
SEQEND
  0
LINE
  8
0
 62
7
  6
CONTINUOUS
 10
633.5823873719
 20
502.8904660533
 11
633.1817771084
 21
495.9731685511
  0
POLYLINE
  8
0
 62
7
  6
CONTINUOUS
 66
1
 70
0
  0
VERTEX
  8
0
 62
7
  6
CONTINUOUS
 10
633.5823873719
 20
460.8436629362
  0
VERTEX
  8
0
 62
7
  6
CONTINUOUS
 10
633.1964146736
 20
456.359789957
  0
VERTEX
  8
0
 62
7
  6
CONTINUOUS
 10
633.1817771084
 20
456.2030946504
  0
SEQEND
  0
POLYLINE
  8
0
 62
7
  6
CONTINUOUS
 66
1
 70
0
  0
VERTEX
  8
0
 62
7
  6
CONTINUOUS
 10
633.6182823072
 20
534.0390224452
  0
VERTEX
  8
0
 62
7
  6
CONTINUOUS
 10
633.6178264571
 20
534.0348438485
  0
VERTEX
  8
0
 62
7
  6
CONTINUOUS
 10
633.6152359264
 20
533.9901773847
  0
SEQEND
  0
LINE
  8
0
 62
7
  6
CONTINUOUS
 10
633.5823873719
 20
405.7787343079
 11
633.2259020211
 21
404.052502241
  0
POLYLINE
  8
0
 62
7
  6
CONTINUOUS
 66
1
 70
0
  0
VERTEX
  8
0
 62
7
  6
CONTINUOUS
 10
633.2259020211
 20
404.052502241
  0
VERTEX
  8
0
 62
7
  6
CONTINUOUS
 10
633.2111252536
 20
403.9842838183
  0
VERTEX
  8
0
 62
7
  6
CONTINUOUS
 10
633.1964146736
 20
403.9231563104
  0
VERTEX
  8
0
 62
7
  6
CONTINUOUS
 10
633.1817771084
 20
403.8691463949
  0
SEQEND
  0
POLYLINE
  8
0
 62
7
  6
CONTINUOUS
 66
1
 70
0
  0
VERTEX
  8
0
 62
7
  6
CONTINUOUS
 10
641.7724025134
 20
405.8005867071
  0
VERTEX
  8
0
 62
7
  6
CONTINUOUS
 10
641.7634180748
 20
405.7729230059
  0
VERTEX
  8
0
 62
7
  6
CONTINUOUS
 10
641.756218464
 20
405.6973828361
  0
VERTEX
  8
0
 62
7
  6
CONTINUOUS
 10
641.7506251641
 20
405.5776417989
  0
VERTEX
  8
0
 62
7
  6
CONTINUOUS
 10
641.7469092922
 20
405.4196283485
  0
VERTEX
  8
0
 62
7
  6
CONTINUOUS
 10
641.7452502429
 20
405.2311356427
  0
VERTEX
  8
0
 62
7
  6
CONTINUOUS
 10
641.7457277598
 20
405.0214599305
  0
VERTEX
  8
0
 62
7
  6
CONTINUOUS
 10
641.7483182904
 20
404.8009053676
  0
SEQEND
  0
POLYLINE
  8
0
 62
7
  6
CONTINUOUS
 66
1
 70
0
  0
VERTEX
  8
0
 62
7
  6
CONTINUOUS
 10
667.1607188788
 20
460.9776375325
  0
VERTEX
  8
0
 62
7
  6
CONTINUOUS
 10
667.156218464
 20
460.9672640532
  0
VERTEX
  8
0
 62
7
  6
CONTINUOUS
 10
667.1506251641
 20
460.9111662079
  0
VERTEX
  8
0
 62
7
  6
CONTINUOUS
 10
667.1469092922
 20
460.8090701388
  0
VERTEX
  8
0
 62
7
  6
CONTINUOUS
 10
667.1452502429
 20
460.6660225174
  0
VERTEX
  8
0
 62
7
  6
CONTINUOUS
 10
667.1457277598
 20
460.4890855063
  0
VERTEX
  8
0
 62
7
  6
CONTINUOUS
 10
667.1483182904
 20
460.2869575753
  0
SEQEND
  0
LINE
  8
0
 62
9
  6
CONTINUOUS
 10
667.5817771084
 20
297.3522560529
 11
658.5817771084
 21
297.3522560529
  0
LINE
  8
0
 62
9
  6
CONTINUOUS
 10
642.1817771084
 20
297.3522560529
 11
633.1817771084
 21
297.3522560529
  0
POLYLINE
  8
0
 62
7
  6
CONTINUOUS
 66
1
 70
0
  0
VERTEX
  8
0
 62
7
  6
CONTINUOUS
 10
633.5823873719
 20
278.9017364927
  0
VERTEX
  8
0
 62
7
  6
CONTINUOUS
 10
633.2111252536
 20
282.4224147421
  0
VERTEX
  8
0
 62
7
  6
CONTINUOUS
 10
633.1964146736
 20
282.5726034567
  0
VERTEX
  8
0
 62
7
  6
CONTINUOUS
 10
633.1817771084
 20
282.7292558472
  0
SEQEND
  0
POLYLINE
  8
0
 62
7
  6
CONTINUOUS
 66
1
 70
0
  0
VERTEX
  8
0
 62
7
  6
CONTINUOUS
 10
641.7483182904
 20
169.271215386
  0
VERTEX
  8
0
 62
7
  6
CONTINUOUS
 10
641.7804871507
 20
168.8305912816
  0
VERTEX
  8
0
 62
7
  6
CONTINUOUS
 10
641.8200612773
 20
168.5912981342
  0
VERTEX
  8
0
 62
7
  6
CONTINUOUS
 10
641.8504219397
 20
168.5453937342
  0
SEQEND
  0
POLYLINE
  8
0
 62
7
  6
CONTINUOUS
 66
1
 70
0
  0
VERTEX
  8
0
 62
7
  6
CONTINUOUS
 10
633.5823873719
 20
219.509271856
  0
VERTEX
  8
0
 62
7
  6
CONTINUOUS
 10
633.1964146736
 20
225.5373218621
  0
VERTEX
  8
0
 62
7
  6
CONTINUOUS
 10
633.1817771084
 20
225.781330073
  0
SEQEND
  0
LINE
  8
0
 62
7
  6
CONTINUOUS
 10
633.1964146736
 20
178.5173388961
 11
633.1817771084
 21
178.8248177037
  0
LINE
  8
0
 62
7
  6
CONTINUOUS
 10
633.5916809502
 20
137.0950025494
 11
633.1817771084
 21
146.4561493352
  0
POLYLINE
  8
0
 62
7
  6
CONTINUOUS
 66
1
 70
0
  0
VERTEX
  8
0
 62
7
  6
CONTINUOUS
 10
641.7483182904
 20
217.9572973812
  0
VERTEX
  8
0
 62
7
  6
CONTINUOUS
 10
641.7804871507
 20
217.0170873495
  0
VERTEX
  8
0
 62
7
  6
CONTINUOUS
 10
641.8200612773
 20
216.2559276881
  0
VERTEX
  8
0
 62
7
  6
CONTINUOUS
 10
641.8665886002
 20
215.6844019028
  0
VERTEX
  8
0
 62
7
  6
CONTINUOUS
 10
641.9195293127
 20
215.3104864139
  0
VERTEX
  8
0
 62
7
  6
CONTINUOUS
 10
641.9782637429
 20
215.1394144034
  0
VERTEX
  8
0
 62
7
  6
CONTINUOUS
 10
641.9990202346
 20
215.1279761917
  0
SEQEND
  0
LINE
  8
0
 62
7
  6
CONTINUOUS
 10
625.3817771084
 20
502.8522560529
 11
625.3817771084
 21
152.8522560529
  0
LINE
  8
0
 62
9
  6
CONTINUOUS
 10
627.3817771084
 20
504.8522560529
 11
627.3817771084
 21
150.8522560529
  0
LINE
  8
0
 62
7
  6
CONTINUOUS
 10
633.1817771084
 20
131.2217466115
 11
633.1817771084
 21
524.4827654943
  0
POLYLINE
  8
0
 62
7
  6
CONTINUOUS
 66
1
 70
0
  0
VERTEX
  8
0
 62
7
  6
CONTINUOUS
 10
633.6182823072
 20
121.6654896606
  0
VERTEX
  8
0
 62
7
  6
CONTINUOUS
 10
633.618303974
 20
121.6740502722
  0
VERTEX
  8
0
 62
7
  6
CONTINUOUS
 10
633.6166449246
 20
121.7272752734
  0
VERTEX
  8
0
 62
7
  6
CONTINUOUS
 10
633.6129290527
 20
121.8267404661
  0
VERTEX
  8
0
 62
7
  6
CONTINUOUS
 10
633.1817771084
 20
131.8437957532
  0
SEQEND
  0
POLYLINE
  8
0
 62
7
  6
CONTINUOUS
 66
1
 70
0
  0
VERTEX
  8
0
 62
7
  6
CONTINUOUS
 10
633.6152359264
 20
404.8009053676
  0
VERTEX
  8
0
 62
7
  6
CONTINUOUS
 10
633.6178264571
 20
405.0214599305
  0
VERTEX
  8
0
 62
7
  6
CONTINUOUS
 10
633.618303974
 20
405.2311356427
  0
VERTEX
  8
0
 62
7
  6
CONTINUOUS
 10
633.6166449246
 20
405.4196283485
  0
VERTEX
  8
0
 62
7
  6
CONTINUOUS
 10
633.6129290527
 20
405.5776417989
  0
VERTEX
  8
0
 62
7
  6
CONTINUOUS
 10
633.6073357528
 20
405.6973828361
  0
VERTEX
  8
0
 62
7
  6
CONTINUOUS
 10
633.6001361421
 20
405.7729230059
  0
VERTEX
  8
0
 62
7
  6
CONTINUOUS
 10
633.5911517035
 20
405.8005867071
  0
SEQEND
  0
POLYLINE
  8
0
 62
7
  6
CONTINUOUS
 66
1
 70
0
  0
VERTEX
  8
0
 62
7
  6
CONTINUOUS
 10
633.6152359264
 20
341.7825832323
  0
VERTEX
  8
0
 62
7
  6
CONTINUOUS
 10
633.6178264571
 20
341.9999750097
  0
VERTEX
  8
0
 62
7
  6
CONTINUOUS
 10
633.618303974
 20
342.2218649033
  0
VERTEX
  8
0
 62
7
  6
CONTINUOUS
 10
633.6166449246
 20
342.4373517142
  0
VERTEX
  8
0
 62
7
  6
CONTINUOUS
 10
633.6129290527
 20
342.6358150885
  0
VERTEX
  8
0
 62
7
  6
CONTINUOUS
 10
633.6073357528
 20
342.8074782306
  0
VERTEX
  8
0
 62
7
  6
CONTINUOUS
 10
633.6001361421
 20
342.9438620728
  0
VERTEX
  8
0
 62
7
  6
CONTINUOUS
 10
633.5916809502
 20
343.0382085156
  0
VERTEX
  8
0
 62
7
  6
CONTINUOUS
 10
633.5823873719
 20
343.0858190422
  0
SEQEND
  0
POLYLINE
  8
0
 62
7
  6
CONTINUOUS
 66
1
 70
0
  0
VERTEX
  8
0
 62
7
  6
CONTINUOUS
 10
633.6152359264
 20
460.2869575753
  0
VERTEX
  8
0
 62
7
  6
CONTINUOUS
 10
633.6178264571
 20
460.4890855063
  0
VERTEX
  8
0
 62
7
  6
CONTINUOUS
 10
633.618303974
 20
460.6660225174
  0
VERTEX
  8
0
 62
7
  6
CONTINUOUS
 10
633.6166449246
 20
460.8090701388
  0
VERTEX
  8
0
 62
7
  6
CONTINUOUS
 10
633.6129290527
 20
460.9111662079
  0
VERTEX
  8
0
 62
7
  6
CONTINUOUS
 10
633.6073357528
 20
460.9672640532
  0
VERTEX
  8
0
 62
7
  6
CONTINUOUS
 10
633.6028353381
 20
460.9776375325
  0
SEQEND
  0
POLYLINE
  8
0
 62
7
  6
CONTINUOUS
 66
1
 70
0
  0
VERTEX
  8
0
 62
7
  6
CONTINUOUS
 10
633.6152359264
 20
277.4006636143
  0
VERTEX
  8
0
 62
7
  6
CONTINUOUS
 10
633.6178264571
 20
277.5936127844
  0
VERTEX
  8
0
 62
7
  6
CONTINUOUS
 10
633.618303974
 20
277.8059967307
  0
VERTEX
  8
0
 62
7
  6
CONTINUOUS
 10
633.6166449246
 20
278.0273842963
  0
VERTEX
  8
0
 62
7
  6
CONTINUOUS
 10
633.6129290527
 20
278.2468706166
  0
VERTEX
  8
0
 62
7
  6
CONTINUOUS
 10
633.6073357528
 20
278.4536522791
  0
VERTEX
  8
0
 62
7
  6
CONTINUOUS
 10
633.6001361421
 20
278.637529593
  0
VERTEX
  8
0
 62
7
  6
CONTINUOUS
 10
633.5916809502
 20
278.7894099283
  0
VERTEX
  8
0
 62
7
  6
CONTINUOUS
 10
633.5823873719
 20
278.9017364927
  0
SEQEND
  0
POLYLINE
  8
0
 62
7
  6
CONTINUOUS
 66
1
 70
0
  0
VERTEX
  8
0
 62
7
  6
CONTINUOUS
 10
633.6152359264
 20
502.8093784711
  0
VERTEX
  8
0
 62
7
  6
CONTINUOUS
 10
633.6178264571
 20
502.9732940801
  0
VERTEX
  8
0
 62
7
  6
CONTINUOUS
 10
633.618303974
 20
503.1001725627
  0
VERTEX
  8
0
 62
7
  6
CONTINUOUS
 10
633.6166449246
 20
503.1837726017
  0
VERTEX
  8
0
 62
7
  6
CONTINUOUS
 10
633.6129290527
 20
503.219957415
  0
VERTEX
  8
0
 62
7
  6
CONTINUOUS
 10
633.6117696109
 20
503.2213354469
  0
SEQEND
  0
POLYLINE
  8
0
 62
7
  6
CONTINUOUS
 66
1
 70
0
  0
VERTEX
  8
0
 62
7
  6
CONTINUOUS
 10
633.6152359264
 20
217.9572973812
  0
VERTEX
  8
0
 62
7
  6
CONTINUOUS
 10
633.6178264571
 20
218.1069167348
  0
VERTEX
  8
0
 62
7
  6
CONTINUOUS
 10
633.618303974
 20
218.2890051134
  0
VERTEX
  8
0
 62
7
  6
CONTINUOUS
 10
633.6166449246
 20
218.4946224762
  0
VERTEX
  8
0
 62
7
  6
CONTINUOUS
 10
633.6129290527
 20
218.7136468922
  0
VERTEX
  8
0
 62
7
  6
CONTINUOUS
 10
633.6073357528
 20
218.9353058454
  0
VERTEX
  8
0
 62
7
  6
CONTINUOUS
 10
633.6001361421
 20
219.1486774384
  0
VERTEX
  8
0
 62
7
  6
CONTINUOUS
 10
633.5916809502
 20
219.3432245606
  0
VERTEX
  8
0
 62
7
  6
CONTINUOUS
 10
633.5823873719
 20
219.509271856
  0
SEQEND
  0
POLYLINE
  8
0
 62
7
  6
CONTINUOUS
 66
1
 70
0
  0
VERTEX
  8
0
 62
7
  6
CONTINUOUS
 10
633.6152359264
 20
404.8009053676
  0
VERTEX
  8
0
 62
7
  6
CONTINUOUS
 10
633.5830670662
 20
403.0608053131
  0
VERTEX
  8
0
 62
7
  6
CONTINUOUS
 10
633.5434929396
 20
401.3446743472
  0
VERTEX
  8
0
 62
7
  6
CONTINUOUS
 10
633.4969656167
 20
399.6762938698
  0
VERTEX
  8
0
 62
7
  6
CONTINUOUS
 10
633.4440249042
 20
398.0788245685
  0
VERTEX
  8
0
 62
7
  6
CONTINUOUS
 10
633.385290474
 20
396.5743412933
  0
VERTEX
  8
0
 62
7
  6
CONTINUOUS
 10
633.3214718371
 20
395.1838771269
  0
VERTEX
  8
0
 62
7
  6
CONTINUOUS
 10
633.2533495959
 20
393.9267329912
  0
VERTEX
  8
0
 62
7
  6
CONTINUOUS
 10
633.1817771084
 20
392.8204080315
  0
SEQEND
  0
POLYLINE
  8
0
 62
7
  6
CONTINUOUS
 66
1
 70
0
  0
VERTEX
  8
0
 62
7
  6
CONTINUOUS
 10
633.6152359264
 20
460.2869575753
  0
VERTEX
  8
0
 62
7
  6
CONTINUOUS
 10
633.5830670662
 20
458.6004755516
  0
VERTEX
  8
0
 62
7
  6
CONTINUOUS
 10
633.5434929396
 20
456.873779726
  0
VERTEX
  8
0
 62
7
  6
CONTINUOUS
 10
633.4969656167
 20
455.1307842708
  0
VERTEX
  8
0
 62
7
  6
CONTINUOUS
 10
633.4440249042
 20
453.3956694861
  0
VERTEX
  8
0
 62
7
  6
CONTINUOUS
 10
633.385290474
 20
451.6923870166
  0
VERTEX
  8
0
 62
7
  6
CONTINUOUS
 10
633.3214718371
 20
450.0447217913
  0
VERTEX
  8
0
 62
7
  6
CONTINUOUS
 10
633.2533495959
 20
448.475520242
  0
VERTEX
  8
0
 62
7
  6
CONTINUOUS
 10
633.1817771084
 20
447.0065924484
  0
SEQEND
  0
POLYLINE
  8
0
 62
7
  6
CONTINUOUS
 66
1
 70
0
  0
VERTEX
  8
0
 62
7
  6
CONTINUOUS
 10
633.6152359264
 20
341.7825832323
  0
VERTEX
  8
0
 62
7
  6
CONTINUOUS
 10
633.5830670662
 20
340.1591982641
  0
VERTEX
  8
0
 62
7
  6
CONTINUOUS
 10
633.5434929396
 20
338.621619014
  0
VERTEX
  8
0
 62
7
  6
CONTINUOUS
 10
633.4969656167
 20
337.1911662197
  0
VERTEX
  8
0
 62
7
  6
CONTINUOUS
 10
633.4440249042
 20
335.8877138273
  0
VERTEX
  8
0
 62
7
  6
CONTINUOUS
 10
633.385290474
 20
334.7292990518
  0
VERTEX
  8
0
 62
7
  6
CONTINUOUS
 10
633.3214718371
 20
333.7321442649
  0
VERTEX
  8
0
 62
7
  6
CONTINUOUS
 10
633.2533495959
 20
332.9101155698
  0
VERTEX
  8
0
 62
7
  6
CONTINUOUS
 10
633.1817771084
 20
332.2746882391
  0
SEQEND
  0
POLYLINE
  8
0
 62
7
  6
CONTINUOUS
 66
1
 70
0
  0
VERTEX
  8
0
 62
7
  6
CONTINUOUS
 10
633.6152359264
 20
502.8093784711
  0
VERTEX
  8
0
 62
7
  6
CONTINUOUS
 10
633.5830670662
 20
501.3415990893
  0
VERTEX
  8
0
 62
7
  6
CONTINUOUS
 10
633.5434929396
 20
499.7733594218
  0
VERTEX
  8
0
 62
7
  6
CONTINUOUS
 10
633.4969656167
 20
498.1263655283
  0
VERTEX
  8
0
 62
7
  6
CONTINUOUS
 10
633.4440249042
 20
496.4234503844
  0
VERTEX
  8
0
 62
7
  6
CONTINUOUS
 10
633.385290474
 20
494.6880978763
  0
VERTEX
  8
0
 62
7
  6
CONTINUOUS
 10
633.3214718371
 20
492.9445165442
  0
VERTEX
  8
0
 62
7
  6
CONTINUOUS
 10
633.2533495959
 20
491.2168619623
  0
VERTEX
  8
0
 62
7
  6
CONTINUOUS
 10
633.1817771084
 20
489.5291202219
  0
SEQEND
  0
POLYLINE
  8
0
 62
7
  6
CONTINUOUS
 66
1
 70
0
  0
VERTEX
  8
0
 62
7
  6
CONTINUOUS
 10
633.6152359264
 20
277.4006636143
  0
VERTEX
  8
0
 62
7
  6
CONTINUOUS
 10
633.5830670662
 20
276.052901964
  0
VERTEX
  8
0
 62
7
  6
CONTINUOUS
 10
633.5434929396
 20
274.8443833996
  0
VERTEX
  8
0
 62
7
  6
CONTINUOUS
 10
633.4969656167
 20
273.7918809745
  0
VERTEX
  8
0
 62
7
  6
CONTINUOUS
 10
633.4440249042
 20
272.9100364929
  0
VERTEX
  8
0
 62
7
  6
CONTINUOUS
 10
633.385290474
 20
272.2110839263
  0
VERTEX
  8
0
 62
7
  6
CONTINUOUS
 10
633.3214718371
 20
271.704846977
  0
VERTEX
  8
0
 62
7
  6
CONTINUOUS
 10
633.2533495959
 20
271.3983996186
  0
VERTEX
  8
0
 62
7
  6
CONTINUOUS
 10
633.181943058
 20
271.2960694406
  0
SEQEND
  0
POLYLINE
  8
0
 62
7
  6
CONTINUOUS
 66
1
 70
0
  0
VERTEX
  8
0
 62
7
  6
CONTINUOUS
 10
633.6152359264
 20
169.271215386
  0
VERTEX
  8
0
 62
7
  6
CONTINUOUS
 10
633.6178264571
 20
169.3628591384
  0
VERTEX
  8
0
 62
7
  6
CONTINUOUS
 10
633.618303974
 20
169.49682787
  0
VERTEX
  8
0
 62
7
  6
CONTINUOUS
 10
633.6166449246
 20
169.6665477701
  0
VERTEX
  8
0
 62
7
  6
CONTINUOUS
 10
633.6129290527
 20
169.8636706459
  0
VERTEX
  8
0
 62
7
  6
CONTINUOUS
 10
633.6073357528
 20
170.0785093669
  0
VERTEX
  8
0
 62
7
  6
CONTINUOUS
 10
633.6001361421
 20
170.3004889408
  0
VERTEX
  8
0
 62
7
  6
CONTINUOUS
 10
633.5916809502
 20
170.5186592223
  0
VERTEX
  8
0
 62
7
  6
CONTINUOUS
 10
633.1964146736
 20
178.5173388961
  0
SEQEND
  0
POLYLINE
  8
0
 62
7
  6
CONTINUOUS
 66
1
 70
0
  0
VERTEX
  8
0
 62
7
  6
CONTINUOUS
 10
633.6152359264
 20
528.2057772267
  0
VERTEX
  8
0
 62
7
  6
CONTINUOUS
 10
633.5830670662
 20
527.1003769592
  0
VERTEX
  8
0
 62
7
  6
CONTINUOUS
 10
633.5434929396
 20
525.8441036752
  0
VERTEX
  8
0
 62
7
  6
CONTINUOUS
 10
633.4969656167
 20
524.4543305807
  0
VERTEX
  8
0
 62
7
  6
CONTINUOUS
 10
633.4440249042
 20
522.950308277
  0
VERTEX
  8
0
 62
7
  6
CONTINUOUS
 10
633.385290474
 20
521.3527541246
  0
VERTEX
  8
0
 62
7
  6
CONTINUOUS
 10
633.3214718371
 20
519.6839305748
  0
VERTEX
  8
0
 62
7
  6
CONTINUOUS
 10
633.2533495959
 20
517.966937828
  0
VERTEX
  8
0
 62
7
  6
CONTINUOUS
 10
633.1817771084
 20
516.2255900616
  0
SEQEND
  0
POLYLINE
  8
0
 62
7
  6
CONTINUOUS
 66
1
 70
0
  0
VERTEX
  8
0
 62
7
  6
CONTINUOUS
 10
633.6152359264
 20
217.9572973812
  0
VERTEX
  8
0
 62
7
  6
CONTINUOUS
 10
633.5830670662
 20
217.0170873495
  0
VERTEX
  8
0
 62
7
  6
CONTINUOUS
 10
633.5434929396
 20
216.2559276881
  0
VERTEX
  8
0
 62
7
  6
CONTINUOUS
 10
633.4969656167
 20
215.6844019028
  0
VERTEX
  8
0
 62
7
  6
CONTINUOUS
 10
633.4440249042
 20
215.3104864139
  0
VERTEX
  8
0
 62
7
  6
CONTINUOUS
 10
633.385290474
 20
215.1394144034
  0
VERTEX
  8
0
 62
7
  6
CONTINUOUS
 10
633.3645339822
 20
215.1279761917
  0
SEQEND
  0
LINE
  8
0
 62
7
  6
CONTINUOUS
 10
633.2533495959
 20
526.1072640347
 11
633.1817771084
 21
524.4827654943
  0
POLYLINE
  8
0
 62
7
  6
CONTINUOUS
 66
1
 70
0
  0
VERTEX
  8
0
 62
7
  6
CONTINUOUS
 10
641.7464642604
 20
528.3965729694
  0
VERTEX
  8
0
 62
7
  6
CONTINUOUS
 10
641.7452502429
 20
528.379835516
  0
VERTEX
  8
0
 62
7
  6
CONTINUOUS
 10
641.7457277598
 20
528.3154353118
  0
VERTEX
  8
0
 62
7
  6
CONTINUOUS
 10
641.7483182904
 20
528.2057772267
  0
SEQEND
  0
POLYLINE
  8
0
 62
7
  6
CONTINUOUS
 66
1
 70
0
  0
VERTEX
  8
0
 62
7
  6
CONTINUOUS
 10
659.0182823072
 20
534.0390224452
  0
VERTEX
  8
0
 62
7
  6
CONTINUOUS
 10
659.0178264571
 20
534.0348438485
  0
VERTEX
  8
0
 62
7
  6
CONTINUOUS
 10
659.0152359264
 20
533.9901773847
  0
SEQEND
  0
POLYLINE
  8
0
 62
7
  6
CONTINUOUS
 66
1
 70
0
  0
VERTEX
  8
0
 62
7
  6
CONTINUOUS
 10
642.1376521957
 20
343.9536893601
  0
VERTEX
  8
0
 62
7
  6
CONTINUOUS
 10
642.1524289632
 20
343.9933506821
  0
VERTEX
  8
0
 62
7
  6
CONTINUOUS
 10
642.1671395433
 20
344.0401729294
  0
VERTEX
  8
0
 62
7
  6
CONTINUOUS
 10
642.1817771084
 20
344.0941352719
  0
SEQEND
  0
LINE
  8
0
 62
7
  6
CONTINUOUS
 10
658.9911517035
 20
405.8005867071
 11
658.9823873719
 21
405.7787343079
  0
LINE
  8
0
 62
7
  6
CONTINUOUS
 10
642.1376521957
 20
343.9536893601
 11
641.7811668449
 21
343.0858190422
  0
POLYLINE
  8
0
 62
7
  6
CONTINUOUS
 66
1
 70
0
  0
VERTEX
  8
0
 62
7
  6
CONTINUOUS
 10
633.6170899565
 20
528.3965729694
  0
VERTEX
  8
0
 62
7
  6
CONTINUOUS
 10
633.618303974
 20
528.379835516
  0
VERTEX
  8
0
 62
7
  6
CONTINUOUS
 10
633.6178264571
 20
528.3154353118
  0
VERTEX
  8
0
 62
7
  6
CONTINUOUS
 10
633.6152359264
 20
528.2057772267
  0
SEQEND
  0
LINE
  8
0
 62
7
  6
CONTINUOUS
 10
658.9823873719
 20
219.509271856
 11
658.6111252536
 21
225.2984681978
  0
POLYLINE
  8
0
 62
7
  6
CONTINUOUS
 66
1
 70
0
  0
VERTEX
  8
0
 62
7
  6
CONTINUOUS
 10
659.0152359264
 20
121.7143347211
  0
VERTEX
  8
0
 62
7
  6
CONTINUOUS
 10
659.0178264571
 20
121.6696682573
  0
VERTEX
  8
0
 62
7
  6
CONTINUOUS
 10
659.0182823072
 20
121.6654896606
  0
SEQEND
  0
LINE
  8
0
 62
7
  6
CONTINUOUS
 10
642.1671395433
 20
496.2172108205
 11
641.7811668449
 21
502.8904660533
  0
POLYLINE
  8
0
 62
7
  6
CONTINUOUS
 66
1
 70
0
  0
VERTEX
  8
0
 62
7
  6
CONTINUOUS
 10
659.0152359264
 20
121.7143347211
  0
VERTEX
  8
0
 62
7
  6
CONTINUOUS
 10
658.9830670662
 20
122.3491515943
  0
VERTEX
  8
0
 62
7
  6
CONTINUOUS
 10
658.9434929396
 20
123.1704857129
  0
SEQEND
  0
POLYLINE
  8
0
 62
7
  6
CONTINUOUS
 66
1
 70
0
  0
VERTEX
  8
0
 62
7
  6
CONTINUOUS
 10
641.7483182904
 20
533.9901773847
  0
VERTEX
  8
0
 62
7
  6
CONTINUOUS
 10
641.7804871507
 20
533.3553605115
  0
VERTEX
  8
0
 62
7
  6
CONTINUOUS
 10
641.8200612773
 20
532.5340263929
  0
SEQEND
  0
LINE
  8
0
 62
7
  6
CONTINUOUS
 10
641.7811668449
 20
527.8033096125
 11
641.7634180748
 21
528.157072435
  0
LINE
  8
0
 62
7
  6
CONTINUOUS
 10
658.5964146736
 20
178.5173388961
 11
658.5817771084
 21
178.8248177037
  0
LINE
  8
0
 62
7
  6
CONTINUOUS
 10
641.7811668449
 20
527.8033096125
 11
642.1817771084
 21
519.2863961692
  0
LINE
  8
0
 62
7
  6
CONTINUOUS
 10
658.9434929396
 20
123.1704857129
 11
658.8440249042
 21
125.3249026159
  0
LINE
  8
0
 62
7
  6
CONTINUOUS
 10
641.8200612773
 20
532.5340263929
 11
641.9195293127
 21
530.3796094899
  0
LINE
  8
0
 62
7
  6
CONTINUOUS
 10
658.8440249042
 20
125.3249026159
 11
658.7214718371
 21
128.0589883725
  0
LINE
  8
0
 62
7
  6
CONTINUOUS
 10
641.9195293127
 20
530.3796094899
 11
642.0420823798
 21
527.6455237333
  0
LINE
  8
0
 62
7
  6
CONTINUOUS
 10
658.7214718371
 20
128.0589883725
 11
658.5817771084
 21
131.2217466115
  0
LINE
  8
0
 62
7
  6
CONTINUOUS
 10
642.0420823798
 20
527.6455237333
 11
642.1817771084
 21
524.4827654943
  0
POLYLINE
  8
0
 62
7
  6
CONTINUOUS
 66
1
 70
0
  0
VERTEX
  8
0
 62
7
  6
CONTINUOUS
 10
641.7483182904
 20
528.2057772267
  0
VERTEX
  8
0
 62
7
  6
CONTINUOUS
 10
641.7804871507
 20
527.1003769592
  0
VERTEX
  8
0
 62
7
  6
CONTINUOUS
 10
641.8200612773
 20
525.8441036752
  0
VERTEX
  8
0
 62
7
  6
CONTINUOUS
 10
641.8665886002
 20
524.4543305807
  0
VERTEX
  8
0
 62
7
  6
CONTINUOUS
 10
641.9195293127
 20
522.950308277
  0
VERTEX
  8
0
 62
7
  6
CONTINUOUS
 10
641.9782637429
 20
521.3527541246
  0
VERTEX
  8
0
 62
7
  6
CONTINUOUS
 10
642.0420823798
 20
519.6839305748
  0
VERTEX
  8
0
 62
7
  6
CONTINUOUS
 10
642.110204621
 20
517.966937828
  0
VERTEX
  8
0
 62
7
  6
CONTINUOUS
 10
642.1817771084
 20
516.2255900616
  0
SEQEND
  0
POLYLINE
  8
0
 62
7
  6
CONTINUOUS
 66
1
 70
0
  0
VERTEX
  8
0
 62
7
  6
CONTINUOUS
 10
641.7483182904
 20
277.4006636143
  0
VERTEX
  8
0
 62
7
  6
CONTINUOUS
 10
641.7804871507
 20
276.052901964
  0
VERTEX
  8
0
 62
7
  6
CONTINUOUS
 10
641.8200612773
 20
274.8443833996
  0
VERTEX
  8
0
 62
7
  6
CONTINUOUS
 10
641.8665886002
 20
273.7918809745
  0
VERTEX
  8
0
 62
7
  6
CONTINUOUS
 10
641.9195293127
 20
272.9100364929
  0
VERTEX
  8
0
 62
7
  6
CONTINUOUS
 10
641.9782637429
 20
272.2110839263
  0
VERTEX
  8
0
 62
7
  6
CONTINUOUS
 10
642.0420823798
 20
271.704846977
  0
VERTEX
  8
0
 62
7
  6
CONTINUOUS
 10
642.110204621
 20
271.3983996186
  0
VERTEX
  8
0
 62
7
  6
CONTINUOUS
 10
642.1816111588
 20
271.2960694406
  0
SEQEND
  0
POLYLINE
  8
0
 62
7
  6
CONTINUOUS
 66
1
 70
0
  0
VERTEX
  8
0
 62
7
  6
CONTINUOUS
 10
641.7483182904
 20
502.8093784711
  0
VERTEX
  8
0
 62
7
  6
CONTINUOUS
 10
641.7804871507
 20
501.3415990893
  0
VERTEX
  8
0
 62
7
  6
CONTINUOUS
 10
641.8200612773
 20
499.7733594218
  0
VERTEX
  8
0
 62
7
  6
CONTINUOUS
 10
641.8665886002
 20
498.1263655283
  0
VERTEX
  8
0
 62
7
  6
CONTINUOUS
 10
641.9195293127
 20
496.4234503844
  0
VERTEX
  8
0
 62
7
  6
CONTINUOUS
 10
641.9782637429
 20
494.6880978763
  0
VERTEX
  8
0
 62
7
  6
CONTINUOUS
 10
642.0420823798
 20
492.9445165442
  0
VERTEX
  8
0
 62
7
  6
CONTINUOUS
 10
642.110204621
 20
491.2168619623
  0
VERTEX
  8
0
 62
7
  6
CONTINUOUS
 10
642.1817771084
 20
489.5291202219
  0
SEQEND
  0
POLYLINE
  8
0
 62
7
  6
CONTINUOUS
 66
1
 70
0
  0
VERTEX
  8
0
 62
7
  6
CONTINUOUS
 10
641.7483182904
 20
341.7825832323
  0
VERTEX
  8
0
 62
7
  6
CONTINUOUS
 10
641.7804871507
 20
340.1591982641
  0
VERTEX
  8
0
 62
7
  6
CONTINUOUS
 10
641.8200612773
 20
338.621619014
  0
VERTEX
  8
0
 62
7
  6
CONTINUOUS
 10
641.8665886002
 20
337.1911662197
  0
VERTEX
  8
0
 62
7
  6
CONTINUOUS
 10
641.9195293127
 20
335.8877138273
  0
VERTEX
  8
0
 62
7
  6
CONTINUOUS
 10
641.9782637429
 20
334.7292990518
  0
VERTEX
  8
0
 62
7
  6
CONTINUOUS
 10
642.0420823798
 20
333.7321442649
  0
VERTEX
  8
0
 62
7
  6
CONTINUOUS
 10
642.110204621
 20
332.9101155698
  0
VERTEX
  8
0
 62
7
  6
CONTINUOUS
 10
642.1817771084
 20
332.2746882391
  0
SEQEND
  0
POLYLINE
  8
0
 62
7
  6
CONTINUOUS
 66
1
 70
0
  0
VERTEX
  8
0
 62
7
  6
CONTINUOUS
 10
641.7483182904
 20
460.2869575753
  0
VERTEX
  8
0
 62
7
  6
CONTINUOUS
 10
641.7804871507
 20
458.6004755516
  0
VERTEX
  8
0
 62
7
  6
CONTINUOUS
 10
641.8200612773
 20
456.873779726
  0
VERTEX
  8
0
 62
7
  6
CONTINUOUS
 10
641.8665886002
 20
455.1307842708
  0
VERTEX
  8
0
 62
7
  6
CONTINUOUS
 10
641.9195293127
 20
453.3956694861
  0
VERTEX
  8
0
 62
7
  6
CONTINUOUS
 10
641.9782637429
 20
451.6923870166
  0
VERTEX
  8
0
 62
7
  6
CONTINUOUS
 10
642.0420823798
 20
450.0447217913
  0
VERTEX
  8
0
 62
7
  6
CONTINUOUS
 10
642.110204621
 20
448.475520242
  0
VERTEX
  8
0
 62
7
  6
CONTINUOUS
 10
642.1817771084
 20
447.0065924484
  0
SEQEND
  0
POLYLINE
  8
0
 62
7
  6
CONTINUOUS
 66
1
 70
0
  0
VERTEX
  8
0
 62
7
  6
CONTINUOUS
 10
641.7483182904
 20
404.8009053676
  0
VERTEX
  8
0
 62
7
  6
CONTINUOUS
 10
641.7804871507
 20
403.0608053131
  0
VERTEX
  8
0
 62
7
  6
CONTINUOUS
 10
641.8200612773
 20
401.3446743472
  0
VERTEX
  8
0
 62
7
  6
CONTINUOUS
 10
641.8665886002
 20
399.6762938698
  0
VERTEX
  8
0
 62
7
  6
CONTINUOUS
 10
641.9195293127
 20
398.0788245685
  0
VERTEX
  8
0
 62
7
  6
CONTINUOUS
 10
641.9782637429
 20
396.5743412933
  0
VERTEX
  8
0
 62
7
  6
CONTINUOUS
 10
642.0420823798
 20
395.1838771269
  0
VERTEX
  8
0
 62
7
  6
CONTINUOUS
 10
642.110204621
 20
393.9267329912
  0
VERTEX
  8
0
 62
7
  6
CONTINUOUS
 10
642.1817771084
 20
392.8204080315
  0
SEQEND
  0
LINE
  8
0
 62
7
  6
CONTINUOUS
 10
642.1817771084
 20
131.2217466115
 11
642.1817771084
 21
524.4827654943
  0
POLYLINE
  8
0
 62
7
  6
CONTINUOUS
 66
1
 70
0
  0
VERTEX
  8
0
 62
7
  6
CONTINUOUS
 10
641.756218464
 20
136.6657064884
  0
VERTEX
  8
0
 62
7
  6
CONTINUOUS
 10
641.7506251641
 20
136.4787179104
  0
VERTEX
  8
0
 62
7
  6
CONTINUOUS
 10
641.7469092922
 20
136.3227923353
  0
VERTEX
  8
0
 62
7
  6
CONTINUOUS
 10
641.7452502429
 20
136.2055832644
  0
VERTEX
  8
0
 62
7
  6
CONTINUOUS
 10
641.7457277598
 20
136.1328479726
  0
VERTEX
  8
0
 62
7
  6
CONTINUOUS
 10
641.7483182904
 20
136.1081505504
  0
SEQEND
  0
POLYLINE
  8
0
 62
7
  6
CONTINUOUS
 66
1
 70
0
  0
VERTEX
  8
0
 62
7
  6
CONTINUOUS
 10
641.7469092922
 20
121.7272752734
  0
VERTEX
  8
0
 62
7
  6
CONTINUOUS
 10
641.7452502429
 20
121.6740502722
  0
VERTEX
  8
0
 62
7
  6
CONTINUOUS
 10
641.7452719097
 20
121.6654896606
  0
SEQEND
  0
LINE
  8
0
 62
7
  6
CONTINUOUS
 10
641.7718732667
 20
137.0950025494
 11
641.756218464
 21
136.6657064884
  0
POLYLINE
  8
0
 62
7
  6
CONTINUOUS
 66
1
 70
0
  0
VERTEX
  8
0
 62
7
  6
CONTINUOUS
 10
641.7718732667
 20
170.5186592223
  0
VERTEX
  8
0
 62
7
  6
CONTINUOUS
 10
641.7634180748
 20
170.3004889408
  0
VERTEX
  8
0
 62
7
  6
CONTINUOUS
 10
641.756218464
 20
170.0785093669
  0
VERTEX
  8
0
 62
7
  6
CONTINUOUS
 10
641.7506251641
 20
169.8636706459
  0
VERTEX
  8
0
 62
7
  6
CONTINUOUS
 10
641.7469092922
 20
169.6665477701
  0
VERTEX
  8
0
 62
7
  6
CONTINUOUS
 10
641.7452502429
 20
169.49682787
  0
VERTEX
  8
0
 62
7
  6
CONTINUOUS
 10
641.7457277598
 20
169.3628591384
  0
VERTEX
  8
0
 62
7
  6
CONTINUOUS
 10
641.7483182904
 20
169.271215386
  0
SEQEND
  0
LINE
  8
0
 62
7
  6
CONTINUOUS
 10
641.7634180748
 20
122.1428683378
 11
641.7469092922
 21
121.7272752734
  0
LINE
  8
0
 62
7
  6
CONTINUOUS
 10
642.1376521957
 20
130.8181957005
 11
642.1817771084
 21
131.8437957532
  0
LINE
  8
0
 62
7
  6
CONTINUOUS
 10
642.1376521957
 20
130.8181957005
 11
641.7634180748
 21
122.1428683378
  0
LINE
  8
0
 62
7
  6
CONTINUOUS
 10
642.1376521957
 20
145.4373455484
 11
642.1817771084
 21
146.4561493352
  0
LINE
  8
0
 62
7
  6
CONTINUOUS
 10
642.1376521957
 20
145.4373455484
 11
641.7718732667
 21
137.0950025494
  0
LINE
  8
0
 62
7
  6
CONTINUOUS
 10
658.785290474
 20
529.0762334244
 11
658.5817771084
 21
524.4827654943
  0
LINE
  8
0
 62
7
  6
CONTINUOUS
 10
641.9782637429
 20
126.6282786814
 11
642.1817771084
 21
131.2217466115
  0
POLYLINE
  8
0
 62
7
  6
CONTINUOUS
 66
1
 70
0
  0
VERTEX
  8
0
 62
7
  6
CONTINUOUS
 10
658.5817771084
 20
519.2863961692
  0
VERTEX
  8
0
 62
7
  6
CONTINUOUS
 10
658.9916809502
 20
527.9949443299
  0
VERTEX
  8
0
 62
7
  6
CONTINUOUS
 10
659.0001361421
 20
528.157072435
  0
VERTEX
  8
0
 62
7
  6
CONTINUOUS
 10
659.0073357528
 20
528.2816412325
  0
VERTEX
  8
0
 62
7
  6
CONTINUOUS
 10
659.0129290527
 20
528.3625361541
  0
VERTEX
  8
0
 62
7
  6
CONTINUOUS
 10
659.0166449246
 20
528.3958046184
  0
VERTEX
  8
0
 62
7
  6
CONTINUOUS
 10
659.0170899565
 20
528.3965729694
  0
SEQEND
  0
LINE
  8
0
 62
7
  6
CONTINUOUS
 10
642.1376521957
 20
177.9125377959
 11
642.1817771084
 21
178.8248177037
  0
LINE
  8
0
 62
7
  6
CONTINUOUS
 10
642.1376521957
 20
177.9125377959
 11
641.7718732667
 21
170.5186592223
  0
POLYLINE
  8
0
 62
7
  6
CONTINUOUS
 66
1
 70
0
  0
VERTEX
  8
0
 62
7
  6
CONTINUOUS
 10
659.0152359264
 20
533.9901773847
  0
VERTEX
  8
0
 62
7
  6
CONTINUOUS
 10
658.9830670662
 20
533.3553605115
  0
VERTEX
  8
0
 62
7
  6
CONTINUOUS
 10
658.9434929396
 20
532.5340263929
  0
VERTEX
  8
0
 62
7
  6
CONTINUOUS
 10
658.8969656167
 20
531.5375147712
  0
VERTEX
  8
0
 62
7
  6
CONTINUOUS
 10
658.785290474
 20
529.0762334244
  0
SEQEND
  0
POLYLINE
  8
0
 62
7
  6
CONTINUOUS
 66
1
 70
0
  0
VERTEX
  8
0
 62
7
  6
CONTINUOUS
 10
641.7483182904
 20
121.7143347211
  0
VERTEX
  8
0
 62
7
  6
CONTINUOUS
 10
641.7804871507
 20
122.3491515943
  0
VERTEX
  8
0
 62
7
  6
CONTINUOUS
 10
641.8200612773
 20
123.1704857129
  0
VERTEX
  8
0
 62
7
  6
CONTINUOUS
 10
641.8665886002
 20
124.1669973346
  0
VERTEX
  8
0
 62
7
  6
CONTINUOUS
 10
641.9782637429
 20
126.6282786814
  0
SEQEND
  0
POLYLINE
  8
0
 62
7
  6
CONTINUOUS
 66
1
 70
0
  0
VERTEX
  8
0
 62
7
  6
CONTINUOUS
 10
641.7811668449
 20
219.509271856
  0
VERTEX
  8
0
 62
7
  6
CONTINUOUS
 10
641.7718732667
 20
219.3432245606
  0
VERTEX
  8
0
 62
7
  6
CONTINUOUS
 10
641.7634180748
 20
219.1486774384
  0
VERTEX
  8
0
 62
7
  6
CONTINUOUS
 10
641.756218464
 20
218.9353058454
  0
VERTEX
  8
0
 62
7
  6
CONTINUOUS
 10
641.7506251641
 20
218.7136468922
  0
VERTEX
  8
0
 62
7
  6
CONTINUOUS
 10
641.7469092922
 20
218.4946224762
  0
VERTEX
  8
0
 62
7
  6
CONTINUOUS
 10
641.7452502429
 20
218.2890051134
  0
VERTEX
  8
0
 62
7
  6
CONTINUOUS
 10
641.7457277598
 20
218.1069167348
  0
VERTEX
  8
0
 62
7
  6
CONTINUOUS
 10
641.7483182904
 20
217.9572973812
  0
SEQEND
  0
LINE
  8
0
 62
7
  6
CONTINUOUS
 10
658.9823873719
 20
502.8904660533
 11
658.5817771084
 21
495.9731685511
  0
LINE
  8
0
 62
7
  6
CONTINUOUS
 10
642.1376521957
 20
225.0648743578
 11
642.1817771084
 21
225.781330073
  0
LINE
  8
0
 62
7
  6
CONTINUOUS
 10
642.1376521957
 20
225.0648743578
 11
641.7811668449
 21
219.509271856
  0
POLYLINE
  8
0
 62
7
  6
CONTINUOUS
 66
1
 70
0
  0
VERTEX
  8
0
 62
7
  6
CONTINUOUS
 10
633.6152359264
 20
169.271215386
  0
VERTEX
  8
0
 62
7
  6
CONTINUOUS
 10
633.5830670662
 20
168.8305912816
  0
VERTEX
  8
0
 62
7
  6
CONTINUOUS
 10
633.5434929396
 20
168.5912981342
  0
VERTEX
  8
0
 62
7
  6
CONTINUOUS
 10
633.5131322772
 20
168.5453937342
  0
SEQEND
  0
POLYLINE
  8
0
 62
7
  6
CONTINUOUS
 66
1
 70
0
  0
VERTEX
  8
0
 62
7
  6
CONTINUOUS
 10
641.7811668449
 20
278.9017364927
  0
VERTEX
  8
0
 62
7
  6
CONTINUOUS
 10
641.7718732667
 20
278.7894099283
  0
VERTEX
  8
0
 62
7
  6
CONTINUOUS
 10
641.7634180748
 20
278.637529593
  0
VERTEX
  8
0
 62
7
  6
CONTINUOUS
 10
641.756218464
 20
278.4536522791
  0
VERTEX
  8
0
 62
7
  6
CONTINUOUS
 10
641.7506251641
 20
278.2468706166
  0
VERTEX
  8
0
 62
7
  6
CONTINUOUS
 10
641.7469092922
 20
278.0273842963
  0
VERTEX
  8
0
 62
7
  6
CONTINUOUS
 10
641.7452502429
 20
277.8059967307
  0
VERTEX
  8
0
 62
7
  6
CONTINUOUS
 10
641.7457277598
 20
277.5936127844
  0
VERTEX
  8
0
 62
7
  6
CONTINUOUS
 10
641.7483182904
 20
277.4006636143
  0
SEQEND
  0
POLYLINE
  8
0
 62
7
  6
CONTINUOUS
 66
1
 70
0
  0
VERTEX
  8
0
 62
7
  6
CONTINUOUS
 10
658.9823873719
 20
460.8436629362
  0
VERTEX
  8
0
 62
7
  6
CONTINUOUS
 10
658.5964146736
 20
456.359789957
  0
VERTEX
  8
0
 62
7
  6
CONTINUOUS
 10
658.5817771084
 20
456.2030946504
  0
SEQEND
  0
POLYLINE
  8
0
 62
7
  6
CONTINUOUS
 66
1
 70
0
  0
VERTEX
  8
0
 62
7
  6
CONTINUOUS
 10
642.1524289632
 20
282.4224147421
  0
VERTEX
  8
0
 62
7
  6
CONTINUOUS
 10
642.1671395433
 20
282.5726034567
  0
VERTEX
  8
0
 62
7
  6
CONTINUOUS
 10
642.1817771084
 20
282.7292558472
  0
SEQEND
  0
LINE
  8
0
 62
7
  6
CONTINUOUS
 10
642.1524289632
 20
282.4224147421
 11
641.7811668449
 21
278.9017364927
  0
POLYLINE
  8
0
 62
7
  6
CONTINUOUS
 66
1
 70
0
  0
VERTEX
  8
0
 62
7
  6
CONTINUOUS
 10
641.7811668449
 20
343.0858190422
  0
VERTEX
  8
0
 62
7
  6
CONTINUOUS
 10
641.7718732667
 20
343.0382085156
  0
VERTEX
  8
0
 62
7
  6
CONTINUOUS
 10
641.7634180748
 20
342.9438620728
  0
VERTEX
  8
0
 62
7
  6
CONTINUOUS
 10
641.756218464
 20
342.8074782306
  0
VERTEX
  8
0
 62
7
  6
CONTINUOUS
 10
641.7506251641
 20
342.6358150885
  0
VERTEX
  8
0
 62
7
  6
CONTINUOUS
 10
641.7469092922
 20
342.4373517142
  0
VERTEX
  8
0
 62
7
  6
CONTINUOUS
 10
641.7452502429
 20
342.2218649033
  0
VERTEX
  8
0
 62
7
  6
CONTINUOUS
 10
641.7457277598
 20
341.9999750097
  0
VERTEX
  8
0
 62
7
  6
CONTINUOUS
 10
641.7483182904
 20
341.7825832323
  0
SEQEND
  0
LINE
  8
0
 62
7
  6
CONTINUOUS
 10
658.6259020211
 20
404.052502241
 11
658.9823873719
 21
405.7787343079
  0
POLYLINE
  8
0
 62
7
  6
CONTINUOUS
 66
1
 70
0
  0
VERTEX
  8
0
 62
7
  6
CONTINUOUS
 10
658.6259020211
 20
404.052502241
  0
VERTEX
  8
0
 62
7
  6
CONTINUOUS
 10
658.6111252536
 20
403.9842838183
  0
VERTEX
  8
0
 62
7
  6
CONTINUOUS
 10
658.5964146736
 20
403.9231563104
  0
VERTEX
  8
0
 62
7
  6
CONTINUOUS
 10
658.5817771084
 20
403.8691463949
  0
SEQEND
  0
POLYLINE
  8
0
 62
7
  6
CONTINUOUS
 66
1
 70
0
  0
VERTEX
  8
0
 62
7
  6
CONTINUOUS
 10
667.1724025134
 20
405.8005867071
  0
VERTEX
  8
0
 62
7
  6
CONTINUOUS
 10
667.1634180748
 20
405.7729230059
  0
VERTEX
  8
0
 62
7
  6
CONTINUOUS
 10
667.156218464
 20
405.6973828361
  0
VERTEX
  8
0
 62
7
  6
CONTINUOUS
 10
667.1506251641
 20
405.5776417989
  0
VERTEX
  8
0
 62
7
  6
CONTINUOUS
 10
667.1469092922
 20
405.4196283485
  0
VERTEX
  8
0
 62
7
  6
CONTINUOUS
 10
667.1452502429
 20
405.2311356427
  0
VERTEX
  8
0
 62
7
  6
CONTINUOUS
 10
667.1457277598
 20
405.0214599305
  0
VERTEX
  8
0
 62
7
  6
CONTINUOUS
 10
667.1483182904
 20
404.8009053676
  0
SEQEND
  0
LINE
  8
0
 62
9
  6
CONTINUOUS
 10
633.1817771084
 20
323.3558247112
 11
642.1817771084
 21
323.3558247112
  0
LINE
  8
0
 62
9
  6
CONTINUOUS
 10
658.5817771084
 20
323.3558247112
 11
667.5817771084
 21
323.3558247112
  0
LINE
  8
0
 62
9
  6
CONTINUOUS
 10
633.1817771084
 20
324.9971283245
 11
642.1817771084
 21
324.9971283245
  0
LINE
  8
0
 62
9
  6
CONTINUOUS
 10
658.5817771084
 20
324.9971283245
 11
667.5817771084
 21
324.9971283245
  0
LINE
  8
DEFAULT_1
 62
2
  6
CENTER
 10
620.3817771084
 20
327.8522560529
 11
680.3817771084
 21
327.8522560529
  0
LINE
  8
0
 62
7
  6
CONTINUOUS
 10
633.5823873719
 20
343.0858190422
 11
633.2259020211
 21
343.9536893601
  0
POLYLINE
  8
0
 62
7
  6
CONTINUOUS
 66
1
 70
0
  0
VERTEX
  8
0
 62
7
  6
CONTINUOUS
 10
633.2259020211
 20
343.9536893601
  0
VERTEX
  8
0
 62
7
  6
CONTINUOUS
 10
633.2111252536
 20
343.9933506821
  0
VERTEX
  8
0
 62
7
  6
CONTINUOUS
 10
633.1964146736
 20
344.0401729294
  0
VERTEX
  8
0
 62
7
  6
CONTINUOUS
 10
633.1817771084
 20
344.0941352719
  0
SEQEND
  0
POLYLINE
  8
0
 62
7
  6
CONTINUOUS
 66
1
 70
0
  0
VERTEX
  8
0
 62
7
  6
CONTINUOUS
 10
641.7452719097
 20
534.0390224452
  0
VERTEX
  8
0
 62
7
  6
CONTINUOUS
 10
641.7457277598
 20
534.0348438485
  0
VERTEX
  8
0
 62
7
  6
CONTINUOUS
 10
641.7483182904
 20
533.9901773847
  0
SEQEND
  0
POLYLINE
  8
0
 62
7
  6
CONTINUOUS
 66
1
 70
0
  0
VERTEX
  8
0
 62
7
  6
CONTINUOUS
 10
641.7811668449
 20
460.8436629362
  0
VERTEX
  8
0
 62
7
  6
CONTINUOUS
 10
641.7718732667
 20
460.9326747814
  0
VERTEX
  8
0
 62
7
  6
CONTINUOUS
 10
641.7634180748
 20
460.9745661524
  0
VERTEX
  8
0
 62
7
  6
CONTINUOUS
 10
641.7607188788
 20
460.9776375325
  0
SEQEND
  0
POLYLINE
  8
0
 62
7
  6
CONTINUOUS
 66
1
 70
0
  0
VERTEX
  8
0
 62
7
  6
CONTINUOUS
 10
658.9823873719
 20
278.9017364927
  0
VERTEX
  8
0
 62
7
  6
CONTINUOUS
 10
658.6111252536
 20
282.4224147421
  0
VERTEX
  8
0
 62
7
  6
CONTINUOUS
 10
658.5964146736
 20
282.5726034567
  0
VERTEX
  8
0
 62
7
  6
CONTINUOUS
 10
658.5817771084
 20
282.7292558472
  0
SEQEND
  0
LINE
  8
0
 62
7
  6
CONTINUOUS
 10
642.1524289632
 20
456.5228836337
 11
642.1817771084
 21
456.2030946504
  0
LINE
  8
0
 62
7
  6
CONTINUOUS
 10
642.1524289632
 20
456.5228836337
 11
641.7811668449
 21
460.8436629362
  0
POLYLINE
  8
0
 62
7
  6
CONTINUOUS
 66
1
 70
0
  0
VERTEX
  8
0
 62
7
  6
CONTINUOUS
 10
667.1483182904
 20
169.271215386
  0
VERTEX
  8
0
 62
7
  6
CONTINUOUS
 10
667.1804871507
 20
168.8305912816
  0
VERTEX
  8
0
 62
7
  6
CONTINUOUS
 10
667.2200612773
 20
168.5912981342
  0
VERTEX
  8
0
 62
7
  6
CONTINUOUS
 10
667.2504219397
 20
168.5453937342
  0
SEQEND
  0
POLYLINE
  8
0
 62
7
  6
CONTINUOUS
 66
1
 70
0
  0
VERTEX
  8
0
 62
7
  6
CONTINUOUS
 10
641.7811668449
 20
502.8904660533
  0
VERTEX
  8
0
 62
7
  6
CONTINUOUS
 10
641.7718732667
 20
503.0380106827
  0
VERTEX
  8
0
 62
7
  6
CONTINUOUS
 10
641.7634180748
 20
503.1452700688
  0
VERTEX
  8
0
 62
7
  6
CONTINUOUS
 10
641.756218464
 20
503.2069208205
  0
VERTEX
  8
0
 62
7
  6
CONTINUOUS
 10
641.751784606
 20
503.2213354469
  0
SEQEND
  0
LINE
  8
0
 62
7
  6
CONTINUOUS
 10
642.1671395433
 20
496.2172108205
 11
642.1817771084
 21
495.9731685511
  0
LINE
  8
0
 62
7
  6
CONTINUOUS
 10
658.6111252536
 20
225.2984681978
 11
658.5817771084
 21
225.781330073
  0
POLYLINE
  8
0
 62
7
  6
CONTINUOUS
 66
1
 70
0
  0
VERTEX
  8
0
 62
7
  6
CONTINUOUS
 10
641.7634180748
 20
528.157072435
  0
VERTEX
  8
0
 62
7
  6
CONTINUOUS
 10
641.756218464
 20
528.2816412325
  0
VERTEX
  8
0
 62
7
  6
CONTINUOUS
 10
641.7506251641
 20
528.3625361541
  0
VERTEX
  8
0
 62
7
  6
CONTINUOUS
 10
641.7469092922
 20
528.3958046184
  0
VERTEX
  8
0
 62
7
  6
CONTINUOUS
 10
641.7464642604
 20
528.3965729694
  0
SEQEND
  0
POLYLINE
  8
0
 62
7
  6
CONTINUOUS
 66
1
 70
0
  0
VERTEX
  8
0
 62
7
  6
CONTINUOUS
 10
667.1483182904
 20
217.9572973812
  0
VERTEX
  8
0
 62
7
  6
CONTINUOUS
 10
667.1804871507
 20
217.0170873495
  0
VERTEX
  8
0
 62
7
  6
CONTINUOUS
 10
667.2200612773
 20
216.2559276881
  0
VERTEX
  8
0
 62
7
  6
CONTINUOUS
 10
667.2665886002
 20
215.6844019028
  0
VERTEX
  8
0
 62
7
  6
CONTINUOUS
 10
667.3195293127
 20
215.3104864139
  0
VERTEX
  8
0
 62
7
  6
CONTINUOUS
 10
667.3782637429
 20
215.1394144034
  0
VERTEX
  8
0
 62
7
  6
CONTINUOUS
 10
667.3990202346
 20
215.1279761917
  0
SEQEND
  0
POLYLINE
  8
0
 62
7
  6
CONTINUOUS
 66
1
 70
0
  0
VERTEX
  8
0
 62
7
  6
CONTINUOUS
 10
667.1483182904
 20
277.4006636143
  0
VERTEX
  8
0
 62
7
  6
CONTINUOUS
 10
667.1804871507
 20
276.052901964
  0
VERTEX
  8
0
 62
7
  6
CONTINUOUS
 10
667.2200612773
 20
274.8443833996
  0
VERTEX
  8
0
 62
7
  6
CONTINUOUS
 10
667.2665886002
 20
273.7918809745
  0
VERTEX
  8
0
 62
7
  6
CONTINUOUS
 10
667.3195293127
 20
272.9100364929
  0
VERTEX
  8
0
 62
7
  6
CONTINUOUS
 10
667.3782637429
 20
272.2110839263
  0
VERTEX
  8
0
 62
7
  6
CONTINUOUS
 10
667.4420823798
 20
271.704846977
  0
VERTEX
  8
0
 62
7
  6
CONTINUOUS
 10
667.510204621
 20
271.3983996186
  0
VERTEX
  8
0
 62
7
  6
CONTINUOUS
 10
667.5816111588
 20
271.2960694406
  0
SEQEND
  0
LINE
  8
0
 62
7
  6
CONTINUOUS
 10
658.5817771084
 20
131.2217466115
 11
658.5817771084
 21
524.4827654943
  0
POLYLINE
  8
0
 62
7
  6
CONTINUOUS
 66
1
 70
0
  0
VERTEX
  8
0
 62
7
  6
CONTINUOUS
 10
659.0182823072
 20
121.6654896606
  0
VERTEX
  8
0
 62
7
  6
CONTINUOUS
 10
659.018303974
 20
121.6740502722
  0
VERTEX
  8
0
 62
7
  6
CONTINUOUS
 10
659.0166449246
 20
121.7272752734
  0
VERTEX
  8
0
 62
7
  6
CONTINUOUS
 10
659.0129290527
 20
121.8267404661
  0
VERTEX
  8
0
 62
7
  6
CONTINUOUS
 10
658.5817771084
 20
131.8437957532
  0
SEQEND
  0
POLYLINE
  8
0
 62
7
  6
CONTINUOUS
 66
1
 70
0
  0
VERTEX
  8
0
 62
7
  6
CONTINUOUS
 10
659.0152359264
 20
404.8009053676
  0
VERTEX
  8
0
 62
7
  6
CONTINUOUS
 10
659.0178264571
 20
405.0214599305
  0
VERTEX
  8
0
 62
7
  6
CONTINUOUS
 10
659.018303974
 20
405.2311356427
  0
VERTEX
  8
0
 62
7
  6
CONTINUOUS
 10
659.0166449246
 20
405.4196283485
  0
VERTEX
  8
0
 62
7
  6
CONTINUOUS
 10
659.0129290527
 20
405.5776417989
  0
VERTEX
  8
0
 62
7
  6
CONTINUOUS
 10
659.0073357528
 20
405.6973828361
  0
VERTEX
  8
0
 62
7
  6
CONTINUOUS
 10
659.0001361421
 20
405.7729230059
  0
VERTEX
  8
0
 62
7
  6
CONTINUOUS
 10
658.9911517035
 20
405.8005867071
  0
SEQEND
  0
POLYLINE
  8
0
 62
7
  6
CONTINUOUS
 66
1
 70
0
  0
VERTEX
  8
0
 62
7
  6
CONTINUOUS
 10
659.0152359264
 20
341.7825832323
  0
VERTEX
  8
0
 62
7
  6
CONTINUOUS
 10
659.0178264571
 20
341.9999750097
  0
VERTEX
  8
0
 62
7
  6
CONTINUOUS
 10
659.018303974
 20
342.2218649033
  0
VERTEX
  8
0
 62
7
  6
CONTINUOUS
 10
659.0166449246
 20
342.4373517142
  0
VERTEX
  8
0
 62
7
  6
CONTINUOUS
 10
659.0129290527
 20
342.6358150885
  0
VERTEX
  8
0
 62
7
  6
CONTINUOUS
 10
659.0073357528
 20
342.8074782306
  0
VERTEX
  8
0
 62
7
  6
CONTINUOUS
 10
659.0001361421
 20
342.9438620728
  0
VERTEX
  8
0
 62
7
  6
CONTINUOUS
 10
658.9916809502
 20
343.0382085156
  0
VERTEX
  8
0
 62
7
  6
CONTINUOUS
 10
658.9823873719
 20
343.0858190422
  0
SEQEND
  0
POLYLINE
  8
0
 62
7
  6
CONTINUOUS
 66
1
 70
0
  0
VERTEX
  8
0
 62
7
  6
CONTINUOUS
 10
659.0152359264
 20
460.2869575753
  0
VERTEX
  8
0
 62
7
  6
CONTINUOUS
 10
659.0178264571
 20
460.4890855063
  0
VERTEX
  8
0
 62
7
  6
CONTINUOUS
 10
659.018303974
 20
460.6660225174
  0
VERTEX
  8
0
 62
7
  6
CONTINUOUS
 10
659.0166449246
 20
460.8090701388
  0
VERTEX
  8
0
 62
7
  6
CONTINUOUS
 10
659.0129290527
 20
460.9111662079
  0
VERTEX
  8
0
 62
7
  6
CONTINUOUS
 10
659.0073357528
 20
460.9672640532
  0
VERTEX
  8
0
 62
7
  6
CONTINUOUS
 10
659.0028353381
 20
460.9776375325
  0
SEQEND
  0
POLYLINE
  8
0
 62
7
  6
CONTINUOUS
 66
1
 70
0
  0
VERTEX
  8
0
 62
7
  6
CONTINUOUS
 10
659.0152359264
 20
277.4006636143
  0
VERTEX
  8
0
 62
7
  6
CONTINUOUS
 10
659.0178264571
 20
277.5936127844
  0
VERTEX
  8
0
 62
7
  6
CONTINUOUS
 10
659.018303974
 20
277.8059967307
  0
VERTEX
  8
0
 62
7
  6
CONTINUOUS
 10
659.0166449246
 20
278.0273842963
  0
VERTEX
  8
0
 62
7
  6
CONTINUOUS
 10
659.0129290527
 20
278.2468706166
  0
VERTEX
  8
0
 62
7
  6
CONTINUOUS
 10
659.0073357528
 20
278.4536522791
  0
VERTEX
  8
0
 62
7
  6
CONTINUOUS
 10
659.0001361421
 20
278.637529593
  0
VERTEX
  8
0
 62
7
  6
CONTINUOUS
 10
658.9916809502
 20
278.7894099283
  0
VERTEX
  8
0
 62
7
  6
CONTINUOUS
 10
658.9823873719
 20
278.9017364927
  0
SEQEND
  0
POLYLINE
  8
0
 62
7
  6
CONTINUOUS
 66
1
 70
0
  0
VERTEX
  8
0
 62
7
  6
CONTINUOUS
 10
659.0152359264
 20
502.8093784711
  0
VERTEX
  8
0
 62
7
  6
CONTINUOUS
 10
659.0178264571
 20
502.9732940801
  0
VERTEX
  8
0
 62
7
  6
CONTINUOUS
 10
659.018303974
 20
503.1001725627
  0
VERTEX
  8
0
 62
7
  6
CONTINUOUS
 10
659.0166449246
 20
503.1837726017
  0
VERTEX
  8
0
 62
7
  6
CONTINUOUS
 10
659.0129290527
 20
503.219957415
  0
VERTEX
  8
0
 62
7
  6
CONTINUOUS
 10
659.0117696109
 20
503.2213354469
  0
SEQEND
  0
POLYLINE
  8
0
 62
7
  6
CONTINUOUS
 66
1
 70
0
  0
VERTEX
  8
0
 62
7
  6
CONTINUOUS
 10
659.0152359264
 20
217.9572973812
  0
VERTEX
  8
0
 62
7
  6
CONTINUOUS
 10
659.0178264571
 20
218.1069167348
  0
VERTEX
  8
0
 62
7
  6
CONTINUOUS
 10
659.018303974
 20
218.2890051134
  0
VERTEX
  8
0
 62
7
  6
CONTINUOUS
 10
659.0166449246
 20
218.4946224762
  0
VERTEX
  8
0
 62
7
  6
CONTINUOUS
 10
659.0129290527
 20
218.7136468922
  0
VERTEX
  8
0
 62
7
  6
CONTINUOUS
 10
659.0073357528
 20
218.9353058454
  0
VERTEX
  8
0
 62
7
  6
CONTINUOUS
 10
659.0001361421
 20
219.1486774384
  0
VERTEX
  8
0
 62
7
  6
CONTINUOUS
 10
658.9916809502
 20
219.3432245606
  0
VERTEX
  8
0
 62
7
  6
CONTINUOUS
 10
658.9823873719
 20
219.509271856
  0
SEQEND
  0
POLYLINE
  8
0
 62
7
  6
CONTINUOUS
 66
1
 70
0
  0
VERTEX
  8
0
 62
7
  6
CONTINUOUS
 10
659.0152359264
 20
404.8009053676
  0
VERTEX
  8
0
 62
7
  6
CONTINUOUS
 10
658.9830670662
 20
403.0608053131
  0
VERTEX
  8
0
 62
7
  6
CONTINUOUS
 10
658.9434929396
 20
401.3446743472
  0
VERTEX
  8
0
 62
7
  6
CONTINUOUS
 10
658.8969656167
 20
399.6762938698
  0
VERTEX
  8
0
 62
7
  6
CONTINUOUS
 10
658.8440249042
 20
398.0788245685
  0
VERTEX
  8
0
 62
7
  6
CONTINUOUS
 10
658.785290474
 20
396.5743412933
  0
VERTEX
  8
0
 62
7
  6
CONTINUOUS
 10
658.7214718371
 20
395.1838771269
  0
VERTEX
  8
0
 62
7
  6
CONTINUOUS
 10
658.6533495959
 20
393.9267329912
  0
VERTEX
  8
0
 62
7
  6
CONTINUOUS
 10
658.5817771084
 20
392.8204080315
  0
SEQEND
  0
POLYLINE
  8
0
 62
7
  6
CONTINUOUS
 66
1
 70
0
  0
VERTEX
  8
0
 62
7
  6
CONTINUOUS
 10
659.0152359264
 20
460.2869575753
  0
VERTEX
  8
0
 62
7
  6
CONTINUOUS
 10
658.9830670662
 20
458.6004755516
  0
VERTEX
  8
0
 62
7
  6
CONTINUOUS
 10
658.9434929396
 20
456.873779726
  0
VERTEX
  8
0
 62
7
  6
CONTINUOUS
 10
658.8969656167
 20
455.1307842708
  0
VERTEX
  8
0
 62
7
  6
CONTINUOUS
 10
658.8440249042
 20
453.3956694861
  0
VERTEX
  8
0
 62
7
  6
CONTINUOUS
 10
658.785290474
 20
451.6923870166
  0
VERTEX
  8
0
 62
7
  6
CONTINUOUS
 10
658.7214718371
 20
450.0447217913
  0
VERTEX
  8
0
 62
7
  6
CONTINUOUS
 10
658.6533495959
 20
448.475520242
  0
VERTEX
  8
0
 62
7
  6
CONTINUOUS
 10
658.5817771084
 20
447.0065924484
  0
SEQEND
  0
POLYLINE
  8
0
 62
7
  6
CONTINUOUS
 66
1
 70
0
  0
VERTEX
  8
0
 62
7
  6
CONTINUOUS
 10
659.0152359264
 20
341.7825832323
  0
VERTEX
  8
0
 62
7
  6
CONTINUOUS
 10
658.9830670662
 20
340.1591982641
  0
VERTEX
  8
0
 62
7
  6
CONTINUOUS
 10
658.9434929396
 20
338.621619014
  0
VERTEX
  8
0
 62
7
  6
CONTINUOUS
 10
658.8969656167
 20
337.1911662197
  0
VERTEX
  8
0
 62
7
  6
CONTINUOUS
 10
658.8440249042
 20
335.8877138273
  0
VERTEX
  8
0
 62
7
  6
CONTINUOUS
 10
658.785290474
 20
334.7292990518
  0
VERTEX
  8
0
 62
7
  6
CONTINUOUS
 10
658.7214718371
 20
333.7321442649
  0
VERTEX
  8
0
 62
7
  6
CONTINUOUS
 10
658.6533495959
 20
332.9101155698
  0
VERTEX
  8
0
 62
7
  6
CONTINUOUS
 10
658.5817771084
 20
332.2746882391
  0
SEQEND
  0
POLYLINE
  8
0
 62
7
  6
CONTINUOUS
 66
1
 70
0
  0
VERTEX
  8
0
 62
7
  6
CONTINUOUS
 10
659.0152359264
 20
502.8093784711
  0
VERTEX
  8
0
 62
7
  6
CONTINUOUS
 10
658.9830670662
 20
501.3415990893
  0
VERTEX
  8
0
 62
7
  6
CONTINUOUS
 10
658.9434929396
 20
499.7733594218
  0
VERTEX
  8
0
 62
7
  6
CONTINUOUS
 10
658.8969656167
 20
498.1263655283
  0
VERTEX
  8
0
 62
7
  6
CONTINUOUS
 10
658.8440249042
 20
496.4234503844
  0
VERTEX
  8
0
 62
7
  6
CONTINUOUS
 10
658.785290474
 20
494.6880978763
  0
VERTEX
  8
0
 62
7
  6
CONTINUOUS
 10
658.7214718371
 20
492.9445165442
  0
VERTEX
  8
0
 62
7
  6
CONTINUOUS
 10
658.6533495959
 20
491.2168619623
  0
VERTEX
  8
0
 62
7
  6
CONTINUOUS
 10
658.5817771084
 20
489.5291202219
  0
SEQEND
  0
POLYLINE
  8
0
 62
7
  6
CONTINUOUS
 66
1
 70
0
  0
VERTEX
  8
0
 62
7
  6
CONTINUOUS
 10
659.0152359264
 20
277.4006636143
  0
VERTEX
  8
0
 62
7
  6
CONTINUOUS
 10
658.9830670662
 20
276.052901964
  0
VERTEX
  8
0
 62
7
  6
CONTINUOUS
 10
658.9434929396
 20
274.8443833996
  0
VERTEX
  8
0
 62
7
  6
CONTINUOUS
 10
658.8969656167
 20
273.7918809745
  0
VERTEX
  8
0
 62
7
  6
CONTINUOUS
 10
658.8440249042
 20
272.9100364929
  0
VERTEX
  8
0
 62
7
  6
CONTINUOUS
 10
658.785290474
 20
272.2110839263
  0
VERTEX
  8
0
 62
7
  6
CONTINUOUS
 10
658.7214718371
 20
271.704846977
  0
VERTEX
  8
0
 62
7
  6
CONTINUOUS
 10
658.6533495959
 20
271.3983996186
  0
VERTEX
  8
0
 62
7
  6
CONTINUOUS
 10
658.581943058
 20
271.2960694406
  0
SEQEND
  0
POLYLINE
  8
0
 62
7
  6
CONTINUOUS
 66
1
 70
0
  0
VERTEX
  8
0
 62
7
  6
CONTINUOUS
 10
659.0152359264
 20
169.271215386
  0
VERTEX
  8
0
 62
7
  6
CONTINUOUS
 10
659.0178264571
 20
169.3628591384
  0
VERTEX
  8
0
 62
7
  6
CONTINUOUS
 10
659.018303974
 20
169.49682787
  0
VERTEX
  8
0
 62
7
  6
CONTINUOUS
 10
659.0166449246
 20
169.6665477701
  0
VERTEX
  8
0
 62
7
  6
CONTINUOUS
 10
659.0129290527
 20
169.8636706459
  0
VERTEX
  8
0
 62
7
  6
CONTINUOUS
 10
659.0073357528
 20
170.0785093669
  0
VERTEX
  8
0
 62
7
  6
CONTINUOUS
 10
659.0001361421
 20
170.3004889408
  0
VERTEX
  8
0
 62
7
  6
CONTINUOUS
 10
658.9916809502
 20
170.5186592223
  0
VERTEX
  8
0
 62
7
  6
CONTINUOUS
 10
658.5964146736
 20
178.5173388961
  0
SEQEND
  0
POLYLINE
  8
0
 62
7
  6
CONTINUOUS
 66
1
 70
0
  0
VERTEX
  8
0
 62
7
  6
CONTINUOUS
 10
659.0152359264
 20
528.2057772267
  0
VERTEX
  8
0
 62
7
  6
CONTINUOUS
 10
658.9830670662
 20
527.1003769592
  0
VERTEX
  8
0
 62
7
  6
CONTINUOUS
 10
658.9434929396
 20
525.8441036752
  0
VERTEX
  8
0
 62
7
  6
CONTINUOUS
 10
658.8969656167
 20
524.4543305807
  0
VERTEX
  8
0
 62
7
  6
CONTINUOUS
 10
658.8440249042
 20
522.950308277
  0
VERTEX
  8
0
 62
7
  6
CONTINUOUS
 10
658.785290474
 20
521.3527541246
  0
VERTEX
  8
0
 62
7
  6
CONTINUOUS
 10
658.7214718371
 20
519.6839305748
  0
VERTEX
  8
0
 62
7
  6
CONTINUOUS
 10
658.6533495959
 20
517.966937828
  0
VERTEX
  8
0
 62
7
  6
CONTINUOUS
 10
658.5817771084
 20
516.2255900616
  0
SEQEND
  0
POLYLINE
  8
0
 62
7
  6
CONTINUOUS
 66
1
 70
0
  0
VERTEX
  8
0
 62
7
  6
CONTINUOUS
 10
659.0152359264
 20
217.9572973812
  0
VERTEX
  8
0
 62
7
  6
CONTINUOUS
 10
658.9830670662
 20
217.0170873495
  0
VERTEX
  8
0
 62
7
  6
CONTINUOUS
 10
658.9434929396
 20
216.2559276881
  0
VERTEX
  8
0
 62
7
  6
CONTINUOUS
 10
658.8969656167
 20
215.6844019028
  0
VERTEX
  8
0
 62
7
  6
CONTINUOUS
 10
658.8440249042
 20
215.3104864139
  0
VERTEX
  8
0
 62
7
  6
CONTINUOUS
 10
658.785290474
 20
215.1394144034
  0
VERTEX
  8
0
 62
7
  6
CONTINUOUS
 10
658.7645339822
 20
215.1279761917
  0
SEQEND
  0
POLYLINE
  8
0
 62
7
  6
CONTINUOUS
 66
1
 70
0
  0
VERTEX
  8
0
 62
7
  6
CONTINUOUS
 10
667.1464642604
 20
528.3965729694
  0
VERTEX
  8
0
 62
7
  6
CONTINUOUS
 10
667.1452502429
 20
528.379835516
  0
VERTEX
  8
0
 62
7
  6
CONTINUOUS
 10
667.1457277598
 20
528.3154353118
  0
VERTEX
  8
0
 62
7
  6
CONTINUOUS
 10
667.1483182904
 20
528.2057772267
  0
SEQEND
  0
POLYLINE
  8
0
 62
7
  6
CONTINUOUS
 66
1
 70
0
  0
VERTEX
  8
0
 62
7
  6
CONTINUOUS
 10
633.6152359264
 20
136.1081505504
  0
VERTEX
  8
0
 62
7
  6
CONTINUOUS
 10
633.6178264571
 20
136.1328479726
  0
VERTEX
  8
0
 62
7
  6
CONTINUOUS
 10
633.618303974
 20
136.2055832644
  0
VERTEX
  8
0
 62
7
  6
CONTINUOUS
 10
633.6166449246
 20
136.3227923353
  0
VERTEX
  8
0
 62
7
  6
CONTINUOUS
 10
633.6129290527
 20
136.4787179104
  0
VERTEX
  8
0
 62
7
  6
CONTINUOUS
 10
633.6073357528
 20
136.6657064884
  0
VERTEX
  8
0
 62
7
  6
CONTINUOUS
 10
633.5916809502
 20
137.0950025494
  0
SEQEND
  0
POLYLINE
  8
0
 62
7
  6
CONTINUOUS
 66
1
 70
0
  0
VERTEX
  8
0
 62
7
  6
CONTINUOUS
 10
641.7452719097
 20
121.6654896606
  0
VERTEX
  8
0
 62
7
  6
CONTINUOUS
 10
641.7457277598
 20
121.6696682573
  0
VERTEX
  8
0
 62
7
  6
CONTINUOUS
 10
641.7483182904
 20
121.7143347211
  0
SEQEND
  0
POLYLINE
  8
0
 62
7
  6
CONTINUOUS
 66
1
 70
0
  0
VERTEX
  8
0
 62
7
  6
CONTINUOUS
 10
667.1811668449
 20
343.0858190422
  0
VERTEX
  8
0
 62
7
  6
CONTINUOUS
 10
667.1718732667
 20
343.0382085156
  0
VERTEX
  8
0
 62
7
  6
CONTINUOUS
 10
667.1634180748
 20
342.9438620728
  0
VERTEX
  8
0
 62
7
  6
CONTINUOUS
 10
667.156218464
 20
342.8074782306
  0
VERTEX
  8
0
 62
7
  6
CONTINUOUS
 10
667.1506251641
 20
342.6358150885
  0
VERTEX
  8
0
 62
7
  6
CONTINUOUS
 10
667.1469092922
 20
342.4373517142
  0
VERTEX
  8
0
 62
7
  6
CONTINUOUS
 10
667.1452502429
 20
342.2218649033
  0
VERTEX
  8
0
 62
7
  6
CONTINUOUS
 10
667.1457277598
 20
341.9999750097
  0
VERTEX
  8
0
 62
7
  6
CONTINUOUS
 10
667.1483182904
 20
341.7825832323
  0
SEQEND
  0
POLYLINE
  8
0
 62
7
  6
CONTINUOUS
 66
1
 70
0
  0
VERTEX
  8
0
 62
7
  6
CONTINUOUS
 10
667.5376521957
 20
343.9536893601
  0
VERTEX
  8
0
 62
7
  6
CONTINUOUS
 10
667.5524289632
 20
343.9933506821
  0
VERTEX
  8
0
 62
7
  6
CONTINUOUS
 10
667.5671395433
 20
344.0401729294
  0
VERTEX
  8
0
 62
7
  6
CONTINUOUS
 10
667.5817771084
 20
344.0941352719
  0
SEQEND
  0
LINE
  8
0
 62
7
  6
CONTINUOUS
 10
667.1811668449
 20
343.0858190422
 11
667.5376521957
 21
343.9536893601
  0
LINE
  8
0
 62
9
  6
CONTINUOUS
 10
633.1817771084
 20
330.9063298594
 11
642.1817771084
 21
330.9063298594
  0
LINE
  8
0
 62
9
  6
CONTINUOUS
 10
658.5817771084
 20
330.9063298594
 11
667.5817771084
 21
330.9063298594
  0
LINE
  8
0
 62
9
  6
CONTINUOUS
 10
667.5817771084
 20
331.5876012237
 11
658.5817771084
 21
331.5876012237
  0
LINE
  8
0
 62
9
  6
CONTINUOUS
 10
642.1817771084
 20
331.5876012237
 11
633.1817771084
 21
331.5876012237
  0
LINE
  8
0
 62
9
  6
CONTINUOUS
 10
667.1483182904
 20
341.7825832323
 11
659.0152359264
 21
341.7825832323
  0
LINE
  8
0
 62
9
  6
CONTINUOUS
 10
641.7483182904
 20
341.7825832323
 11
633.6152359264
 21
341.7825832323
  0
LINE
  8
0
 62
9
  6
CONTINUOUS
 10
667.1811668449
 20
343.0858190422
 11
658.9823873719
 21
343.0858190422
  0
LINE
  8
0
 62
9
  6
CONTINUOUS
 10
641.7811668449
 20
343.0858190422
 11
633.5823873719
 21
343.0858190422
  0
LINE
  8
0
 62
7
  6
CONTINUOUS
 10
658.6259020211
 20
343.9536893601
 11
658.9823873719
 21
343.0858190422
  0
POLYLINE
  8
0
 62
7
  6
CONTINUOUS
 66
1
 70
0
  0
VERTEX
  8
0
 62
7
  6
CONTINUOUS
 10
658.6259020211
 20
343.9536893601
  0
VERTEX
  8
0
 62
7
  6
CONTINUOUS
 10
658.6111252536
 20
343.9933506821
  0
VERTEX
  8
0
 62
7
  6
CONTINUOUS
 10
658.5964146736
 20
344.0401729294
  0
VERTEX
  8
0
 62
7
  6
CONTINUOUS
 10
658.5817771084
 20
344.0941352719
  0
SEQEND
  0
POLYLINE
  8
0
 62
7
  6
CONTINUOUS
 66
1
 70
0
  0
VERTEX
  8
0
 62
7
  6
CONTINUOUS
 10
642.1376521957
 20
404.052502241
  0
VERTEX
  8
0
 62
7
  6
CONTINUOUS
 10
642.1524289632
 20
403.9842838183
  0
VERTEX
  8
0
 62
7
  6
CONTINUOUS
 10
642.1671395433
 20
403.9231563104
  0
VERTEX
  8
0
 62
7
  6
CONTINUOUS
 10
642.1817771084
 20
403.8691463949
  0
SEQEND
  0
LINE
  8
0
 62
7
  6
CONTINUOUS
 10
642.1376521957
 20
404.052502241
 11
641.7811668449
 21
405.7787343079
  0
LINE
  8
0
 62
7
  6
CONTINUOUS
 10
667.5524289632
 20
456.5228836337
 11
667.5817771084
 21
456.2030946504
  0
LINE
  8
0
 62
7
  6
CONTINUOUS
 10
667.1811668449
 20
460.8436629362
 11
667.5524289632
 21
456.5228836337
  0
POLYLINE
  8
0
 62
7
  6
CONTINUOUS
 66
1
 70
0
  0
VERTEX
  8
0
 62
7
  6
CONTINUOUS
 10
659.0170899565
 20
528.3965729694
  0
VERTEX
  8
0
 62
7
  6
CONTINUOUS
 10
659.018303974
 20
528.379835516
  0
VERTEX
  8
0
 62
7
  6
CONTINUOUS
 10
659.0178264571
 20
528.3154353118
  0
VERTEX
  8
0
 62
7
  6
CONTINUOUS
 10
659.0152359264
 20
528.2057772267
  0
SEQEND
  0
POLYLINE
  8
0
 62
7
  6
CONTINUOUS
 66
1
 70
0
  0
VERTEX
  8
0
 62
7
  6
CONTINUOUS
 10
667.1811668449
 20
502.8904660533
  0
VERTEX
  8
0
 62
7
  6
CONTINUOUS
 10
667.1718732667
 20
503.0380106827
  0
VERTEX
  8
0
 62
7
  6
CONTINUOUS
 10
667.1634180748
 20
503.1452700688
  0
VERTEX
  8
0
 62
7
  6
CONTINUOUS
 10
667.156218464
 20
503.2069208205
  0
VERTEX
  8
0
 62
7
  6
CONTINUOUS
 10
667.151784606
 20
503.2213354469
  0
SEQEND
  0
POLYLINE
  8
0
 62
7
  6
CONTINUOUS
 66
1
 70
0
  0
VERTEX
  8
0
 62
7
  6
CONTINUOUS
 10
667.1634180748
 20
528.157072435
  0
VERTEX
  8
0
 62
7
  6
CONTINUOUS
 10
667.156218464
 20
528.2816412325
  0
VERTEX
  8
0
 62
7
  6
CONTINUOUS
 10
667.1506251641
 20
528.3625361541
  0
VERTEX
  8
0
 62
7
  6
CONTINUOUS
 10
667.1469092922
 20
528.3958046184
  0
VERTEX
  8
0
 62
7
  6
CONTINUOUS
 10
667.1464642604
 20
528.3965729694
  0
SEQEND
  0
LINE
  8
0
 62
7
  6
CONTINUOUS
 10
667.1811668449
 20
502.8904660533
 11
667.5817771084
 21
495.9731685511
  0
POLYLINE
  8
0
 62
7
  6
CONTINUOUS
 66
1
 70
0
  0
VERTEX
  8
0
 62
7
  6
CONTINUOUS
 10
667.1483182904
 20
533.9901773847
  0
VERTEX
  8
0
 62
7
  6
CONTINUOUS
 10
667.1804871507
 20
533.3553605115
  0
VERTEX
  8
0
 62
7
  6
CONTINUOUS
 10
667.2200612773
 20
532.5340263929
  0
SEQEND
  0
LINE
  8
0
 62
7
  6
CONTINUOUS
 10
667.1811668449
 20
527.8033096125
 11
667.1634180748
 21
528.157072435
  0
LINE
  8
0
 62
7
  6
CONTINUOUS
 10
667.5817771084
 20
519.2863961692
 11
667.1811668449
 21
527.8033096125
  0
LINE
  8
0
 62
7
  6
CONTINUOUS
 10
667.2200612773
 20
532.5340263929
 11
667.3195293127
 21
530.3796094899
  0
LINE
  8
0
 62
7
  6
CONTINUOUS
 10
667.3195293127
 20
530.3796094899
 11
667.4420823798
 21
527.6455237333
  0
LINE
  8
0
 62
7
  6
CONTINUOUS
 10
667.4420823798
 20
527.6455237333
 11
667.5817771084
 21
524.4827654943
  0
POLYLINE
  8
0
 62
7
  6
CONTINUOUS
 66
1
 70
0
  0
VERTEX
  8
0
 62
7
  6
CONTINUOUS
 10
667.1483182904
 20
528.2057772267
  0
VERTEX
  8
0
 62
7
  6
CONTINUOUS
 10
667.1804871507
 20
527.1003769592
  0
VERTEX
  8
0
 62
7
  6
CONTINUOUS
 10
667.2200612773
 20
525.8441036752
  0
VERTEX
  8
0
 62
7
  6
CONTINUOUS
 10
667.2665886002
 20
524.4543305807
  0
VERTEX
  8
0
 62
7
  6
CONTINUOUS
 10
667.3195293127
 20
522.950308277
  0
VERTEX
  8
0
 62
7
  6
CONTINUOUS
 10
667.3782637429
 20
521.3527541246
  0
VERTEX
  8
0
 62
7
  6
CONTINUOUS
 10
667.4420823798
 20
519.6839305748
  0
VERTEX
  8
0
 62
7
  6
CONTINUOUS
 10
667.510204621
 20
517.966937828
  0
VERTEX
  8
0
 62
7
  6
CONTINUOUS
 10
667.5817771084
 20
516.2255900616
  0
SEQEND
  0
POLYLINE
  8
0
 62
7
  6
CONTINUOUS
 66
1
 70
0
  0
VERTEX
  8
0
 62
7
  6
CONTINUOUS
 10
667.1483182904
 20
502.8093784711
  0
VERTEX
  8
0
 62
7
  6
CONTINUOUS
 10
667.1804871507
 20
501.3415990893
  0
VERTEX
  8
0
 62
7
  6
CONTINUOUS
 10
667.2200612773
 20
499.7733594218
  0
VERTEX
  8
0
 62
7
  6
CONTINUOUS
 10
667.2665886002
 20
498.1263655283
  0
VERTEX
  8
0
 62
7
  6
CONTINUOUS
 10
667.3195293127
 20
496.4234503844
  0
VERTEX
  8
0
 62
7
  6
CONTINUOUS
 10
667.3782637429
 20
494.6880978763
  0
VERTEX
  8
0
 62
7
  6
CONTINUOUS
 10
667.4420823798
 20
492.9445165442
  0
VERTEX
  8
0
 62
7
  6
CONTINUOUS
 10
667.510204621
 20
491.2168619623
  0
VERTEX
  8
0
 62
7
  6
CONTINUOUS
 10
667.5817771084
 20
489.5291202219
  0
SEQEND
  0
POLYLINE
  8
0
 62
7
  6
CONTINUOUS
 66
1
 70
0
  0
VERTEX
  8
0
 62
7
  6
CONTINUOUS
 10
667.1483182904
 20
341.7825832323
  0
VERTEX
  8
0
 62
7
  6
CONTINUOUS
 10
667.1804871507
 20
340.1591982641
  0
VERTEX
  8
0
 62
7
  6
CONTINUOUS
 10
667.2200612773
 20
338.621619014
  0
VERTEX
  8
0
 62
7
  6
CONTINUOUS
 10
667.2665886002
 20
337.1911662197
  0
VERTEX
  8
0
 62
7
  6
CONTINUOUS
 10
667.3195293127
 20
335.8877138273
  0
VERTEX
  8
0
 62
7
  6
CONTINUOUS
 10
667.3782637429
 20
334.7292990518
  0
VERTEX
  8
0
 62
7
  6
CONTINUOUS
 10
667.4420823798
 20
333.7321442649
  0
VERTEX
  8
0
 62
7
  6
CONTINUOUS
 10
667.510204621
 20
332.9101155698
  0
VERTEX
  8
0
 62
7
  6
CONTINUOUS
 10
667.5817771084
 20
332.2746882391
  0
SEQEND
  0
POLYLINE
  8
0
 62
7
  6
CONTINUOUS
 66
1
 70
0
  0
VERTEX
  8
0
 62
7
  6
CONTINUOUS
 10
667.1483182904
 20
460.2869575753
  0
VERTEX
  8
0
 62
7
  6
CONTINUOUS
 10
667.1804871507
 20
458.6004755516
  0
VERTEX
  8
0
 62
7
  6
CONTINUOUS
 10
667.2200612773
 20
456.873779726
  0
VERTEX
  8
0
 62
7
  6
CONTINUOUS
 10
667.2665886002
 20
455.1307842708
  0
VERTEX
  8
0
 62
7
  6
CONTINUOUS
 10
667.3195293127
 20
453.3956694861
  0
VERTEX
  8
0
 62
7
  6
CONTINUOUS
 10
667.3782637429
 20
451.6923870166
  0
VERTEX
  8
0
 62
7
  6
CONTINUOUS
 10
667.4420823798
 20
450.0447217913
  0
VERTEX
  8
0
 62
7
  6
CONTINUOUS
 10
667.510204621
 20
448.475520242
  0
VERTEX
  8
0
 62
7
  6
CONTINUOUS
 10
667.5817771084
 20
447.0065924484
  0
SEQEND
  0
POLYLINE
  8
0
 62
7
  6
CONTINUOUS
 66
1
 70
0
  0
VERTEX
  8
0
 62
7
  6
CONTINUOUS
 10
667.1483182904
 20
404.8009053676
  0
VERTEX
  8
0
 62
7
  6
CONTINUOUS
 10
667.1804871507
 20
403.0608053131
  0
VERTEX
  8
0
 62
7
  6
CONTINUOUS
 10
667.2200612773
 20
401.3446743472
  0
VERTEX
  8
0
 62
7
  6
CONTINUOUS
 10
667.2665886002
 20
399.6762938698
  0
VERTEX
  8
0
 62
7
  6
CONTINUOUS
 10
667.3195293127
 20
398.0788245685
  0
VERTEX
  8
0
 62
7
  6
CONTINUOUS
 10
667.3782637429
 20
396.5743412933
  0
VERTEX
  8
0
 62
7
  6
CONTINUOUS
 10
667.4420823798
 20
395.1838771269
  0
VERTEX
  8
0
 62
7
  6
CONTINUOUS
 10
667.510204621
 20
393.9267329912
  0
VERTEX
  8
0
 62
7
  6
CONTINUOUS
 10
667.5817771084
 20
392.8204080315
  0
SEQEND
  0
LINE
  8
0
 62
7
  6
CONTINUOUS
 10
667.5817771084
 20
131.2217466115
 11
667.5817771084
 21
524.4827654943
  0
LINE
  8
0
 62
9
  6
CONTINUOUS
 10
673.3817771084
 20
504.8522560529
 11
673.3817771084
 21
150.8522560529
  0
LINE
  8
0
 62
7
  6
CONTINUOUS
 10
675.3817771084
 20
502.8522560529
 11
675.3817771084
 21
152.8522560529
  0
POLYLINE
  8
0
 62
7
  6
CONTINUOUS
 66
1
 70
0
  0
VERTEX
  8
0
 62
7
  6
CONTINUOUS
 10
667.156218464
 20
136.6657064884
  0
VERTEX
  8
0
 62
7
  6
CONTINUOUS
 10
667.1506251641
 20
136.4787179104
  0
VERTEX
  8
0
 62
7
  6
CONTINUOUS
 10
667.1469092922
 20
136.3227923353
  0
VERTEX
  8
0
 62
7
  6
CONTINUOUS
 10
667.1452502429
 20
136.2055832644
  0
VERTEX
  8
0
 62
7
  6
CONTINUOUS
 10
667.1457277598
 20
136.1328479726
  0
VERTEX
  8
0
 62
7
  6
CONTINUOUS
 10
667.1483182904
 20
136.1081505504
  0
SEQEND
  0
POLYLINE
  8
0
 62
7
  6
CONTINUOUS
 66
1
 70
0
  0
VERTEX
  8
0
 62
7
  6
CONTINUOUS
 10
667.1469092922
 20
121.7272752734
  0
VERTEX
  8
0
 62
7
  6
CONTINUOUS
 10
667.1452502429
 20
121.6740502722
  0
VERTEX
  8
0
 62
7
  6
CONTINUOUS
 10
667.1452719097
 20
121.6654896606
  0
SEQEND
  0
LINE
  8
0
 62
7
  6
CONTINUOUS
 10
667.1718732667
 20
137.0950025494
 11
667.156218464
 21
136.6657064884
  0
POLYLINE
  8
0
 62
7
  6
CONTINUOUS
 66
1
 70
0
  0
VERTEX
  8
0
 62
7
  6
CONTINUOUS
 10
667.1718732667
 20
170.5186592223
  0
VERTEX
  8
0
 62
7
  6
CONTINUOUS
 10
667.1634180748
 20
170.3004889408
  0
VERTEX
  8
0
 62
7
  6
CONTINUOUS
 10
667.156218464
 20
170.0785093669
  0
VERTEX
  8
0
 62
7
  6
CONTINUOUS
 10
667.1506251641
 20
169.8636706459
  0
VERTEX
  8
0
 62
7
  6
CONTINUOUS
 10
667.1469092922
 20
169.6665477701
  0
VERTEX
  8
0
 62
7
  6
CONTINUOUS
 10
667.1452502429
 20
169.49682787
  0
VERTEX
  8
0
 62
7
  6
CONTINUOUS
 10
667.1457277598
 20
169.3628591384
  0
VERTEX
  8
0
 62
7
  6
CONTINUOUS
 10
667.1483182904
 20
169.271215386
  0
SEQEND
  0
LINE
  8
0
 62
7
  6
CONTINUOUS
 10
667.1634180748
 20
122.1428683378
 11
667.1469092922
 21
121.7272752734
  0
LINE
  8
0
 62
7
  6
CONTINUOUS
 10
667.5376521957
 20
130.8181957005
 11
667.5817771084
 21
131.8437957532
  0
LINE
  8
0
 62
7
  6
CONTINUOUS
 10
667.1634180748
 20
122.1428683378
 11
667.5376521957
 21
130.8181957005
  0
LINE
  8
0
 62
7
  6
CONTINUOUS
 10
667.5376521957
 20
145.4373455484
 11
667.5817771084
 21
146.4561493352
  0
LINE
  8
0
 62
7
  6
CONTINUOUS
 10
667.1718732667
 20
137.0950025494
 11
667.5376521957
 21
145.4373455484
  0
LINE
  8
0
 62
7
  6
CONTINUOUS
 10
667.3782637429
 20
126.6282786814
 11
667.5817771084
 21
131.2217466115
  0
LINE
  8
0
 62
7
  6
CONTINUOUS
 10
667.5376521957
 20
177.9125377959
 11
667.5817771084
 21
178.8248177037
  0
LINE
  8
0
 62
7
  6
CONTINUOUS
 10
667.1718732667
 20
170.5186592223
 11
667.5376521957
 21
177.9125377959
  0
POLYLINE
  8
0
 62
7
  6
CONTINUOUS
 66
1
 70
0
  0
VERTEX
  8
0
 62
7
  6
CONTINUOUS
 10
667.1483182904
 20
121.7143347211
  0
VERTEX
  8
0
 62
7
  6
CONTINUOUS
 10
667.1804871507
 20
122.3491515943
  0
VERTEX
  8
0
 62
7
  6
CONTINUOUS
 10
667.2200612773
 20
123.1704857129
  0
VERTEX
  8
0
 62
7
  6
CONTINUOUS
 10
667.2665886002
 20
124.1669973346
  0
VERTEX
  8
0
 62
7
  6
CONTINUOUS
 10
667.3782637429
 20
126.6282786814
  0
SEQEND
  0
POLYLINE
  8
0
 62
7
  6
CONTINUOUS
 66
1
 70
0
  0
VERTEX
  8
0
 62
7
  6
CONTINUOUS
 10
667.1811668449
 20
219.509271856
  0
VERTEX
  8
0
 62
7
  6
CONTINUOUS
 10
667.1718732667
 20
219.3432245606
  0
VERTEX
  8
0
 62
7
  6
CONTINUOUS
 10
667.1634180748
 20
219.1486774384
  0
VERTEX
  8
0
 62
7
  6
CONTINUOUS
 10
667.156218464
 20
218.9353058454
  0
VERTEX
  8
0
 62
7
  6
CONTINUOUS
 10
667.1506251641
 20
218.7136468922
  0
VERTEX
  8
0
 62
7
  6
CONTINUOUS
 10
667.1469092922
 20
218.4946224762
  0
VERTEX
  8
0
 62
7
  6
CONTINUOUS
 10
667.1452502429
 20
218.2890051134
  0
VERTEX
  8
0
 62
7
  6
CONTINUOUS
 10
667.1457277598
 20
218.1069167348
  0
VERTEX
  8
0
 62
7
  6
CONTINUOUS
 10
667.1483182904
 20
217.9572973812
  0
SEQEND
  0
LINE
  8
0
 62
7
  6
CONTINUOUS
 10
667.5376521957
 20
225.0648743578
 11
667.5817771084
 21
225.781330073
  0
LINE
  8
0
 62
7
  6
CONTINUOUS
 10
667.1811668449
 20
219.509271856
 11
667.5376521957
 21
225.0648743578
  0
POLYLINE
  8
0
 62
7
  6
CONTINUOUS
 66
1
 70
0
  0
VERTEX
  8
0
 62
7
  6
CONTINUOUS
 10
659.0152359264
 20
169.271215386
  0
VERTEX
  8
0
 62
7
  6
CONTINUOUS
 10
658.9830670662
 20
168.8305912816
  0
VERTEX
  8
0
 62
7
  6
CONTINUOUS
 10
658.9434929396
 20
168.5912981342
  0
VERTEX
  8
0
 62
7
  6
CONTINUOUS
 10
658.9131322772
 20
168.5453937342
  0
SEQEND
  0
POLYLINE
  8
0
 62
7
  6
CONTINUOUS
 66
1
 70
0
  0
VERTEX
  8
0
 62
7
  6
CONTINUOUS
 10
667.1811668449
 20
278.9017364927
  0
VERTEX
  8
0
 62
7
  6
CONTINUOUS
 10
667.1718732667
 20
278.7894099283
  0
VERTEX
  8
0
 62
7
  6
CONTINUOUS
 10
667.1634180748
 20
278.637529593
  0
VERTEX
  8
0
 62
7
  6
CONTINUOUS
 10
667.156218464
 20
278.4536522791
  0
VERTEX
  8
0
 62
7
  6
CONTINUOUS
 10
667.1506251641
 20
278.2468706166
  0
VERTEX
  8
0
 62
7
  6
CONTINUOUS
 10
667.1469092922
 20
278.0273842963
  0
VERTEX
  8
0
 62
7
  6
CONTINUOUS
 10
667.1452502429
 20
277.8059967307
  0
VERTEX
  8
0
 62
7
  6
CONTINUOUS
 10
667.1457277598
 20
277.5936127844
  0
VERTEX
  8
0
 62
7
  6
CONTINUOUS
 10
667.1483182904
 20
277.4006636143
  0
SEQEND
  0
POLYLINE
  8
0
 62
7
  6
CONTINUOUS
 66
1
 70
0
  0
VERTEX
  8
0
 62
7
  6
CONTINUOUS
 10
667.5524289632
 20
282.4224147421
  0
VERTEX
  8
0
 62
7
  6
CONTINUOUS
 10
667.5671395433
 20
282.5726034567
  0
VERTEX
  8
0
 62
7
  6
CONTINUOUS
 10
667.5817771084
 20
282.7292558472
  0
SEQEND
  0
POLYLINE
  8
0
 62
7
  6
CONTINUOUS
 66
1
 70
0
  0
VERTEX
  8
0
 62
7
  6
CONTINUOUS
 10
659.0152359264
 20
136.1081505504
  0
VERTEX
  8
0
 62
7
  6
CONTINUOUS
 10
659.0178264571
 20
136.1328479726
  0
VERTEX
  8
0
 62
7
  6
CONTINUOUS
 10
659.018303974
 20
136.2055832644
  0
VERTEX
  8
0
 62
7
  6
CONTINUOUS
 10
659.0166449246
 20
136.3227923353
  0
VERTEX
  8
0
 62
7
  6
CONTINUOUS
 10
659.0129290527
 20
136.4787179104
  0
VERTEX
  8
0
 62
7
  6
CONTINUOUS
 10
659.0073357528
 20
136.6657064884
  0
VERTEX
  8
0
 62
7
  6
CONTINUOUS
 10
659.0001361421
 20
136.8745651359
  0
VERTEX
  8
0
 62
7
  6
CONTINUOUS
 10
658.9916809502
 20
137.0950025494
  0
VERTEX
  8
0
 62
7
  6
CONTINUOUS
 10
658.5817771084
 20
146.4561493352
  0
SEQEND
  0
LINE
  8
0
 62
7
  6
CONTINUOUS
 10
667.1811668449
 20
278.9017364927
 11
667.5524289632
 21
282.4224147421
  0
LINE
  8
0
 62
9
  6
CONTINUOUS
 10
667.5376521957
 20
343.9536893601
 11
658.6259020211
 21
343.9536893601
  0
LINE
  8
0
 62
9
  6
CONTINUOUS
 10
642.1376521957
 20
343.9536893601
 11
633.2259020211
 21
343.9536893601
  0
LINE
  8
0
 62
9
  6
CONTINUOUS
 10
667.5817771084
 20
355.2645202265
 11
658.5817771084
 21
355.2645202265
  0
LINE
  8
0
 62
9
  6
CONTINUOUS
 10
642.1817771084
 20
355.2645202265
 11
633.1817771084
 21
355.2645202265
  0
LINE
  8
0
 62
7
  6
CONTINUOUS
 10
641.7811668449
 20
405.7787343079
 11
641.7724025134
 21
405.8005867071
  0
POLYLINE
  8
0
 62
7
  6
CONTINUOUS
 66
1
 70
0
  0
VERTEX
  8
0
 62
7
  6
CONTINUOUS
 10
667.1452719097
 20
534.0390224452
  0
VERTEX
  8
0
 62
7
  6
CONTINUOUS
 10
667.1457277598
 20
534.0348438485
  0
VERTEX
  8
0
 62
7
  6
CONTINUOUS
 10
667.1483182904
 20
533.9901773847
  0
SEQEND
  0
POLYLINE
  8
0
 62
7
  6
CONTINUOUS
 66
1
 70
0
  0
VERTEX
  8
0
 62
7
  6
CONTINUOUS
 10
667.1811668449
 20
460.8436629362
  0
VERTEX
  8
0
 62
7
  6
CONTINUOUS
 10
667.1718732667
 20
460.9326747814
  0
VERTEX
  8
0
 62
7
  6
CONTINUOUS
 10
667.1634180748
 20
460.9745661524
  0
VERTEX
  8
0
 62
7
  6
CONTINUOUS
 10
667.1607188788
 20
460.9776375325
  0
SEQEND
  0
POLYLINE
  8
0
 62
7
  6
CONTINUOUS
 66
1
 70
0
  0
VERTEX
  8
0
 62
7
  6
CONTINUOUS
 10
667.1452719097
 20
121.6654896606
  0
VERTEX
  8
0
 62
7
  6
CONTINUOUS
 10
667.1457277598
 20
121.6696682573
  0
VERTEX
  8
0
 62
7
  6
CONTINUOUS
 10
667.1483182904
 20
121.7143347211
  0
SEQEND
  0
POLYLINE
  8
0
 62
7
  6
CONTINUOUS
 66
1
 70
0
  0
VERTEX
  8
0
 62
7
  6
CONTINUOUS
 10
667.5376521957
 20
404.052502241
  0
VERTEX
  8
0
 62
7
  6
CONTINUOUS
 10
667.5524289632
 20
403.9842838183
  0
VERTEX
  8
0
 62
7
  6
CONTINUOUS
 10
667.5671395433
 20
403.9231563104
  0
VERTEX
  8
0
 62
7
  6
CONTINUOUS
 10
667.5817771084
 20
403.8691463949
  0
SEQEND
  0
LINE
  8
0
 62
7
  6
CONTINUOUS
 10
667.1811668449
 20
405.7787343079
 11
667.5376521957
 21
404.052502241
  0
POLYLINE
  8
0
 62
7
  6
CONTINUOUS
 66
1
 70
0
  0
VERTEX
  8
0
 62
7
  6
CONTINUOUS
 10
641.7483950263
 20
136.108149799
  0
VERTEX
  8
0
 62
7
  6
CONTINUOUS
 10
641.7804871507
 20
136.2102437307
  0
VERTEX
  8
0
 62
7
  6
CONTINUOUS
 10
641.8200612773
 20
136.5162407778
  0
VERTEX
  8
0
 62
7
  6
CONTINUOUS
 10
641.8665886002
 20
137.0219454261
  0
VERTEX
  8
0
 62
7
  6
CONTINUOUS
 10
641.9195293127
 20
137.7203898485
  0
VERTEX
  8
0
 62
7
  6
CONTINUOUS
 10
641.9782637429
 20
138.6020042966
  0
VERTEX
  8
0
 62
7
  6
CONTINUOUS
 10
642.0420823798
 20
139.6545522961
  0
VERTEX
  8
0
 62
7
  6
CONTINUOUS
 10
642.110204621
 20
140.8635033695
  0
VERTEX
  8
0
 62
7
  6
CONTINUOUS
 10
642.1817771084
 20
142.2121354483
  0
SEQEND
  0
LINE
  8
0
 62
9
  6
CONTINUOUS
 10
633.1817771084
 20
379.9953836458
 11
642.1817771084
 21
379.9953836458
  0
LINE
  8
0
 62
9
  6
CONTINUOUS
 10
658.5817771084
 20
379.9953836458
 11
667.5817771084
 21
379.9953836458
  0
LINE
  8
0
 62
9
  6
CONTINUOUS
 10
633.1817771084
 20
381.291484433
 11
642.1817771084
 21
381.291484433
  0
LINE
  8
0
 62
9
  6
CONTINUOUS
 10
658.5817771084
 20
381.291484433
 11
667.5817771084
 21
381.291484433
  0
LINE
  8
0
 62
7
  6
CONTINUOUS
 10
667.1811668449
 20
405.7787343079
 11
667.1724025134
 21
405.8005867071
  0
LINE
  8
0
 62
9
  6
CONTINUOUS
 10
633.1817771084
 20
387.4153009713
 11
642.1817771084
 21
387.4153009713
  0
LINE
  8
0
 62
9
  6
CONTINUOUS
 10
658.5817771084
 20
387.4153009713
 11
667.5817771084
 21
387.4153009713
  0
LINE
  8
0
 62
9
  6
CONTINUOUS
 10
667.5817771084
 20
391.0738681448
 11
658.5817771084
 21
391.0738681448
  0
LINE
  8
0
 62
9
  6
CONTINUOUS
 10
642.1817771084
 20
391.0738681448
 11
633.1817771084
 21
391.0738681448
  0
POLYLINE
  8
0
 62
7
  6
CONTINUOUS
 66
1
 70
0
  0
VERTEX
  8
0
 62
7
  6
CONTINUOUS
 10
667.1483950263
 20
136.108149799
  0
VERTEX
  8
0
 62
7
  6
CONTINUOUS
 10
667.1804871507
 20
136.2102437307
  0
VERTEX
  8
0
 62
7
  6
CONTINUOUS
 10
667.2200612773
 20
136.5162407778
  0
VERTEX
  8
0
 62
7
  6
CONTINUOUS
 10
667.2665886002
 20
137.0219454261
  0
VERTEX
  8
0
 62
7
  6
CONTINUOUS
 10
667.3195293127
 20
137.7203898485
  0
VERTEX
  8
0
 62
7
  6
CONTINUOUS
 10
667.3782637429
 20
138.6020042966
  0
VERTEX
  8
0
 62
7
  6
CONTINUOUS
 10
667.4420823798
 20
139.6545522961
  0
VERTEX
  8
0
 62
7
  6
CONTINUOUS
 10
667.510204621
 20
140.8635033695
  0
VERTEX
  8
0
 62
7
  6
CONTINUOUS
 10
667.5817771084
 20
142.2121354483
  0
SEQEND
  0
POLYLINE
  8
0
 62
7
  6
CONTINUOUS
 66
1
 70
0
  0
VERTEX
  8
0
 62
7
  6
CONTINUOUS
 10
641.9990202346
 20
215.1279761917
  0
VERTEX
  8
0
 62
7
  6
CONTINUOUS
 10
642.0420823798
 20
215.1736492915
  0
VERTEX
  8
0
 62
7
  6
CONTINUOUS
 10
642.110204621
 20
215.4127804724
  0
VERTEX
  8
0
 62
7
  6
CONTINUOUS
 10
642.1817771084
 20
215.8535652477
  0
SEQEND
  0
LINE
  8
0
 62
9
  6
CONTINUOUS
 10
667.1483182904
 20
404.8009053676
 11
659.0152359264
 21
404.8009053676
  0
LINE
  8
0
 62
9
  6
CONTINUOUS
 10
641.7483182904
 20
404.8009053676
 11
633.6152359264
 21
404.8009053676
  0
LINE
  8
0
 62
7
  6
CONTINUOUS
 10
633.5911509818
 20
405.8005867071
 11
641.7724032351
 21
405.8005867071
  0
LINE
  8
0
 62
7
  6
CONTINUOUS
 10
658.9911509818
 20
405.8005867071
 11
667.1724032351
 21
405.8005867071
  0
LINE
  8
0
 62
9
  6
CONTINUOUS
 10
667.5817771084
 20
410.4934809902
 11
658.5817771084
 21
410.4934809902
  0
LINE
  8
0
 62
9
  6
CONTINUOUS
 10
642.1817771084
 20
410.4934809902
 11
633.1817771084
 21
410.4934809902
  0
POLYLINE
  8
0
 62
7
  6
CONTINUOUS
 66
1
 70
0
  0
VERTEX
  8
0
 62
7
  6
CONTINUOUS
 10
667.3990202346
 20
215.1279761917
  0
VERTEX
  8
0
 62
7
  6
CONTINUOUS
 10
667.4420823798
 20
215.1736492915
  0
VERTEX
  8
0
 62
7
  6
CONTINUOUS
 10
667.510204621
 20
215.4127804724
  0
VERTEX
  8
0
 62
7
  6
CONTINUOUS
 10
667.5817771084
 20
215.8535652477
  0
SEQEND
  0
LINE
  8
0
 62
9
  6
CONTINUOUS
 10
633.1817771084
 20
431.5308099492
 11
642.1817771084
 21
431.5308099492
  0
LINE
  8
0
 62
9
  6
CONTINUOUS
 10
658.5817771084
 20
431.5308099492
 11
667.5817771084
 21
431.5308099492
  0
LINE
  8
0
 62
7
  6
CONTINUOUS
 10
633.1817771084
 20
432.3552394446
 11
642.1817771084
 21
432.3552394446
  0
LINE
  8
0
 62
7
  6
CONTINUOUS
 10
658.5817771084
 20
432.3552394446
 11
667.5817771084
 21
432.3552394446
  0
LINE
  8
0
 62
9
  6
CONTINUOUS
 10
633.1817771084
 20
438.0938262463
 11
642.1817771084
 21
438.0938262463
  0
LINE
  8
0
 62
9
  6
CONTINUOUS
 10
658.5817771084
 20
438.0938262463
 11
667.5817771084
 21
438.0938262463
  0
POLYLINE
  8
0
 62
7
  6
CONTINUOUS
 66
1
 70
0
  0
VERTEX
  8
0
 62
7
  6
CONTINUOUS
 10
641.8504219397
 20
168.5453937342
  0
VERTEX
  8
0
 62
7
  6
CONTINUOUS
 10
641.8665886002
 20
168.5566939147
  0
VERTEX
  8
0
 62
7
  6
CONTINUOUS
 10
641.9195293127
 20
168.7273088718
  0
VERTEX
  8
0
 62
7
  6
CONTINUOUS
 10
641.9782637429
 20
169.1008631377
  0
VERTEX
  8
0
 62
7
  6
CONTINUOUS
 10
642.0420823798
 20
169.6722187139
  0
VERTEX
  8
0
 62
7
  6
CONTINUOUS
 10
642.110204621
 20
170.4335206079
  0
VERTEX
  8
0
 62
7
  6
CONTINUOUS
 10
642.1817771084
 20
171.3742727206
  0
SEQEND
  0
LINE
  8
0
 62
9
  6
CONTINUOUS
 10
667.5817771084
 20
444.3715631833
 11
658.5817771084
 21
444.3715631833
  0
LINE
  8
0
 62
9
  6
CONTINUOUS
 10
642.1817771084
 20
444.3715631833
 11
633.1817771084
 21
444.3715631833
  0
POLYLINE
  8
0
 62
7
  6
CONTINUOUS
 66
1
 70
0
  0
VERTEX
  8
0
 62
7
  6
CONTINUOUS
 10
667.2504219397
 20
168.5453937342
  0
VERTEX
  8
0
 62
7
  6
CONTINUOUS
 10
667.2665886002
 20
168.5566939147
  0
VERTEX
  8
0
 62
7
  6
CONTINUOUS
 10
667.3195293127
 20
168.7273088718
  0
VERTEX
  8
0
 62
7
  6
CONTINUOUS
 10
667.3782637429
 20
169.1008631377
  0
VERTEX
  8
0
 62
7
  6
CONTINUOUS
 10
667.4420823798
 20
169.6722187139
  0
VERTEX
  8
0
 62
7
  6
CONTINUOUS
 10
667.510204621
 20
170.4335206079
  0
VERTEX
  8
0
 62
7
  6
CONTINUOUS
 10
667.5817771084
 20
171.3742727206
  0
SEQEND
  0
LINE
  8
0
 62
9
  6
CONTINUOUS
 10
667.5817771084
 20
457.6329428619
 11
667.4569154281
 21
457.6329428619
  0
LINE
  8
0
 62
9
  6
CONTINUOUS
 10
658.706638789
 20
457.6329428619
 11
658.5817771084
 21
457.6329428619
  0
LINE
  8
0
 62
9
  6
CONTINUOUS
 10
642.1817771084
 20
457.6329428619
 11
642.0569154279
 21
457.6329428619
  0
LINE
  8
0
 62
9
  6
CONTINUOUS
 10
633.3066387887
 20
457.6329428619
 11
633.1817771084
 21
457.6329428619
  0
LINE
  8
0
 62
9
  6
CONTINUOUS
 10
667.1483182904
 20
460.2869575753
 11
659.0152359264
 21
460.2869575753
  0
LINE
  8
0
 62
9
  6
CONTINUOUS
 10
641.7483182904
 20
460.2869575753
 11
633.6152359264
 21
460.2869575753
  0
LINE
  8
0
 62
7
  6
CONTINUOUS
 10
633.602834765
 20
460.9776375325
 11
641.7607194519
 21
460.9776375325
  0
LINE
  8
0
 62
7
  6
CONTINUOUS
 10
659.002834765
 20
460.9776375325
 11
667.1607194519
 21
460.9776375325
  0
LINE
  8
0
 62
9
  6
CONTINUOUS
 10
633.1817771084
 20
472.9174570262
 11
642.1817771084
 21
472.9174570262
  0
LINE
  8
0
 62
9
  6
CONTINUOUS
 10
658.5817771084
 20
472.9174570262
 11
667.5817771084
 21
472.9174570262
  0
LINE
  8
0
 62
7
  6
CONTINUOUS
 10
633.1817771084
 20
473.2994230374
 11
642.1817771084
 21
473.2994230374
  0
LINE
  8
0
 62
7
  6
CONTINUOUS
 10
658.5817771084
 20
473.2994230374
 11
667.5817771084
 21
473.2994230374
  0
LINE
  8
0
 62
9
  6
CONTINUOUS
 10
633.1817771084
 20
477.9811385327
 11
642.1817771084
 21
477.9811385327
  0
LINE
  8
0
 62
9
  6
CONTINUOUS
 10
658.5817771084
 20
477.9811385327
 11
667.5817771084
 21
477.9811385327
  0
LINE
  8
0
 62
9
  6
CONTINUOUS
 10
667.5817771084
 20
486.2635366022
 11
658.5817771084
 21
486.2635366022
  0
LINE
  8
0
 62
9
  6
CONTINUOUS
 10
642.1817771084
 20
486.2635366022
 11
633.1817771084
 21
486.2635366022
  0
LINE
  8
0
 62
9
  6
CONTINUOUS
 10
633.1817771084
 20
500.1041115032
 11
633.4213481247
 21
500.1041115032
  0
LINE
  8
0
 62
9
  6
CONTINUOUS
 10
641.9422060921
 20
500.1041115032
 11
642.1817771084
 21
500.1041115032
  0
LINE
  8
0
 62
9
  6
CONTINUOUS
 10
658.5817771084
 20
500.1041115032
 11
658.8213481248
 21
500.1041115032
  0
LINE
  8
0
 62
9
  6
CONTINUOUS
 10
667.3422060922
 20
500.1041115032
 11
667.5817771084
 21
500.1041115032
  0
LINE
  8
0
 62
7
  6
CONTINUOUS
 10
633.1817771084
 20
500.2019984707
 11
633.4270036321
 21
500.2019984707
  0
LINE
  8
0
 62
7
  6
CONTINUOUS
 10
641.9365505846
 20
500.2019984707
 11
642.1817771084
 21
500.2019984707
  0
LINE
  8
0
 62
7
  6
CONTINUOUS
 10
658.5817771084
 20
500.2019984707
 11
658.8270036322
 21
500.2019984707
  0
LINE
  8
0
 62
7
  6
CONTINUOUS
 10
667.3365505848
 20
500.2019984707
 11
667.5817771084
 21
500.2019984707
  0
LINE
  8
0
 62
9
  6
CONTINUOUS
 10
667.1483182904
 20
502.8093784711
 11
659.0152359264
 21
502.8093784711
  0
LINE
  8
0
 62
9
  6
CONTINUOUS
 10
641.7483182904
 20
502.8093784711
 11
633.6152359264
 21
502.8093784711
  0
LINE
  8
0
 62
9
  6
CONTINUOUS
 10
633.1817771084
 20
503.1727897925
 11
633.6033499115
 21
503.1727897925
  0
LINE
  8
0
 62
9
  6
CONTINUOUS
 10
641.7602043054
 20
503.1727897925
 11
642.1817771084
 21
503.1727897925
  0
LINE
  8
0
 62
9
  6
CONTINUOUS
 10
658.5817771084
 20
503.1727897925
 11
659.0033499115
 21
503.1727897925
  0
LINE
  8
0
 62
9
  6
CONTINUOUS
 10
667.1602043054
 20
503.1727897925
 11
667.5817771084
 21
503.1727897925
  0
LINE
  8
0
 62
7
  6
CONTINUOUS
 10
633.6117696687
 20
503.2213354469
 11
641.7517845482
 21
503.2213354469
  0
LINE
  8
0
 62
7
  6
CONTINUOUS
 10
659.0117696687
 20
503.2213354469
 11
667.1517845482
 21
503.2213354469
  0
LINE
  8
0
 62
7
  6
CONTINUOUS
 10
658.5817771084
 20
504.8522560529
 11
642.1817771084
 21
504.8522560529
  0
LINE
  8
0
 62
7
  6
CONTINUOUS
 10
627.3817771084
 20
504.8522560529
 11
633.1817771084
 21
504.8522560529
  0
LINE
  8
0
 62
7
  6
CONTINUOUS
 10
667.5817771084
 20
504.8522560529
 11
673.3817771084
 21
504.8522560529
  0
LINE
  8
0
 62
9
  6
CONTINUOUS
 10
667.5817771084
 20
512.6491101647
 11
658.5817771084
 21
512.6491101647
  0
LINE
  8
0
 62
9
  6
CONTINUOUS
 10
642.1817771084
 20
512.6491101647
 11
633.1817771084
 21
512.6491101647
  0
LINE
  8
0
 62
9
  6
CONTINUOUS
 10
667.5817771084
 20
520.9454800913
 11
667.5034958958
 21
520.9454800913
  0
LINE
  8
0
 62
9
  6
CONTINUOUS
 10
658.6600583211
 20
520.9454800913
 11
658.5817771084
 21
520.9454800913
  0
LINE
  8
0
 62
9
  6
CONTINUOUS
 10
642.1817771084
 20
520.9454800913
 11
642.1034958957
 21
520.9454800913
  0
LINE
  8
0
 62
9
  6
CONTINUOUS
 10
633.260058321
 20
520.9454800913
 11
633.1817771084
 21
520.9454800913
  0
LINE
  8
0
 62
9
  6
CONTINUOUS
 10
667.1483182904
 20
528.2057772267
 11
659.0152359264
 21
528.2057772267
  0
LINE
  8
0
 62
9
  6
CONTINUOUS
 10
641.7483182904
 20
528.2057772267
 11
633.6152359264
 21
528.2057772267
  0
LINE
  8
0
 62
7
  6
CONTINUOUS
 10
633.6170902392
 20
528.3965729694
 11
641.7464639777
 21
528.3965729694
  0
LINE
  8
0
 62
7
  6
CONTINUOUS
 10
659.0170902392
 20
528.3965729694
 11
667.1464639777
 21
528.3965729694
  0
LINE
  8
0
 62
9
  6
CONTINUOUS
 10
667.1483182904
 20
533.9901773847
 11
659.0152359264
 21
533.9901773847
  0
LINE
  8
0
 62
9
  6
CONTINUOUS
 10
641.7483182904
 20
533.9901773847
 11
633.6152359264
 21
533.9901773847
  0
LINE
  8
0
 62
7
  6
CONTINUOUS
 10
633.6182822921
 20
534.0390224452
 11
641.7452719247
 21
534.0390224452
  0
LINE
  8
0
 62
7
  6
CONTINUOUS
 10
659.0182822921
 20
534.0390224452
 11
667.1452719247
 21
534.0390224452
  0
ARC
  8
0
 62
7
  6
CONTINUOUS
 10
119.4496636368
 20
186.1625377959
 40
16.5
 50
330.0
 51
36.0
  0
ARC
  8
0
 62
7
  6
CONTINUOUS
 10
134.7223659643
 20
183.3453937342
 40
14.8
 50
251.9817420984
 51
320.0
  0
ARC
  8
0
 62
7
  6
CONTINUOUS
 10
154.8272050996
 20
179.2245929274
 40
3.25
 50
358.849904579
 51
140.0
  0
ARC
  8
0
 62
7
  6
CONTINUOUS
 10
114.1724859819
 20
219.7961247701
 40
3.25
 50
340.8499045791
 51
122.0
  0
ARC
  8
0
 62
7
  6
CONTINUOUS
 10
119.1319638684
 20
218.0738939222
 40
2.0
 50
160.849904579
 51
216.0
  0
ARC
  8
0
 62
7
  6
CONTINUOUS
 10
88.2100514589
 20
218.7661270305
 40
1.0
 50
132.0
 51
233.9817420984
  0
ARC
  8
0
 62
7
  6
CONTINUOUS
 10
130.4537493734
 20
170.2221733825
 40
1.0
 50
150.0
 51
251.9817420984
  0
ARC
  8
0
 62
7
  6
CONTINUOUS
 10
63.5018326863
 20
297.3522560529
 40
16.5
 50
294.0
 51
360.0
  0
ARC
  8
0
 62
7
  6
CONTINUOUS
 10
82.6703875135
 20
237.3267639782
 40
16.5
 50
312.0
 51
18.0
  0
ARC
  8
0
 62
7
  6
CONTINUOUS
 10
74.2018326863
 20
286.0960694406
 40
14.8
 50
215.9817420984
 51
284.0
  0
ARC
  8
0
 62
7
  6
CONTINUOUS
 10
96.3250451929
 20
229.9279761917
 40
14.8
 50
233.9817420984
 51
302.0
  0
ARC
  8
0
 62
7
  6
CONTINUOUS
 10
88.044843274
 20
270.944943614
 40
3.25
 50
322.8499045791
 51
104.0
  0
ARC
  8
0
 62
7
  6
CONTINUOUS
 10
79.0018326863
 20
327.6642466961
 40
3.25
 50
304.849904579
 51
86.0
  0
ARC
  8
0
 62
7
  6
CONTINUOUS
 10
92.2293884352
 20
267.7744417935
 40
2.0
 50
142.849904579
 51
198.0
  0
ARC
  8
0
 62
7
  6
CONTINUOUS
 10
82.0018326863
 20
323.3558247112
 40
2.0
 50
124.849904579
 51
180.0
  0
ARC
  8
0
 62
7
  6
CONTINUOUS
 10
63.0348139364
 20
277.988191035
 40
1.0
 50
114.0
 51
215.9817420984
  0
ARC
  8
0
 62
7
  6
CONTINUOUS
 10
230.0680862722
 20
129.0934760566
 40
16.5
 50
6.0
 51
72.0
  0
ARC
  8
0
 62
7
  6
CONTINUOUS
 10
170.2394492528
 20
148.8678884469
 40
16.5
 50
348.0
 51
54.0
  0
ARC
  8
0
 62
7
  6
CONTINUOUS
 10
244.0798377382
 20
135.7914278259
 40
14.8
 50
287.9817420984
 51
356.0
  0
ARC
  8
0
 62
7
  6
CONTINUOUS
 10
185.6351977135
 20
150.908149799
 40
14.8
 50
269.9817420984
 51
338.0
  0
ARC
  8
0
 62
7
  6
CONTINUOUS
 10
206.0294334619
 20
153.2017723013
 40
3.25
 50
16.849904579
 51
158.0
  0
ARC
  8
0
 62
7
  6
CONTINUOUS
 10
211.0540372487
 20
154.7235662379
 40
2.0
 50
196.849904579
 51
252.0
  0
ARC
  8
0
 62
7
  6
CONTINUOUS
 10
160.0761474612
 20
179.1192170071
 40
2.0
 50
178.849904579
 51
234.0
  0
ARC
  8
0
 62
7
  6
CONTINUOUS
 10
248.340089759
 20
122.6654896606
 40
1.0
 50
186.0
 51
287.9817420984
  0
ARC
  8
0
 62
7
  6
CONTINUOUS
 10
185.6308001987
 20
137.1081504996
 40
1.0
 50
168.0
 51
269.9817420984
  0
ARC
  8
0
 62
7
  6
CONTINUOUS
 10
236.525707094
 20
281.7807881308
 40
6.0
 50
45.0
 51
78.1598440864
  0
ARC
  8
0
 62
7
  6
CONTINUOUS
 10
238.9878916174
 20
293.5254740513
 40
6.0
 50
225.0
 51
258.1598440864
  0
ARC
  8
0
 62
7
  6
CONTINUOUS
 10
228.2523488514
 20
304.2610168174
 40
6.0
 50
191.8401559136
 51
225.0
  0
ARC
  8
0
 62
7
  6
CONTINUOUS
 10
216.5076629308
 20
301.798832294
 40
6.0
 50
11.8401559136
 51
45.0
  0
ARC
  8
0
 62
7
  6
CONTINUOUS
 10
255.656943622
 20
269.7993262865
 40
0.9443458372
 50
355.4216527464
 51
45.0
  0
ARC
  8
0
 62
7
  6
CONTINUOUS
 10
204.5262010866
 20
320.930068822
 40
0.9443458372
 50
45.0
 51
94.5783472535
  0
ARC
  8
0
 62
7
  6
CONTINUOUS
 10
83.5947632469
 20
420.1919376531
 40
16.5
 50
258.0
 51
324.0
  0
ARC
  8
0
 62
7
  6
CONTINUOUS
 10
63.8203508567
 20
360.3633006336
 40
16.5
 50
276.0
 51
342.0
  0
ARC
  8
0
 62
7
  6
CONTINUOUS
 10
85.635024599
 20
404.7961891923
 40
14.8
 50
179.9817420984
 51
248.0
  0
ARC
  8
0
 62
7
  6
CONTINUOUS
 10
70.518302626
 20
346.3515491676
 40
14.8
 50
197.9817420984
 51
266.0
  0
ARC
  8
0
 62
7
  6
CONTINUOUS
 10
87.9286471013
 20
384.4019534439
 40
3.25
 50
286.849904579
 51
68.0
  0
ARC
  8
0
 62
7
  6
CONTINUOUS
 10
89.4504410379
 20
379.3773496571
 40
2.0
 50
106.8499045791
 51
162.0
  0
ARC
  8
0
 62
7
  6
CONTINUOUS
 10
71.8350252997
 20
404.8005867071
 40
1.0
 50
78.0
 51
179.9817420984
  0
ARC
  8
0
 62
7
  6
CONTINUOUS
 10
57.3923644607
 20
342.0912971468
 40
1.0
 50
96.0
 51
197.9817420984
  0
ARC
  8
0
 62
7
  6
CONTINUOUS
 10
120.8894125959
 20
470.9817232691
 40
16.5
 50
240.0
 51
306.0
  0
ARC
  8
0
 62
7
  6
CONTINUOUS
 10
118.0722685342
 20
455.7090209415
 40
14.8
 50
161.9817420984
 51
230.0
  0
ARC
  8
0
 62
7
  6
CONTINUOUS
 10
113.9514677274
 20
435.6041818062
 40
3.25
 50
268.849904579
 51
50.0
  0
ARC
  8
0
 62
7
  6
CONTINUOUS
 10
154.5229995701
 20
476.2589009239
 40
3.25
 50
250.849904579
 51
32.0
  0
ARC
  8
0
 62
7
  6
CONTINUOUS
 10
113.8460918072
 20
430.3552394446
 40
2.0
 50
88.849904579
 51
144.0
  0
ARC
  8
0
 62
7
  6
CONTINUOUS
 10
152.8007687223
 20
471.2994230374
 40
2.0
 50
70.849904579
 51
126.0
  0
ARC
  8
0
 62
7
  6
CONTINUOUS
 10
153.4930018306
 20
502.2213354469
 40
1.0
 50
42.0
 51
143.9817420984
  0
ARC
  8
0
 62
7
  6
CONTINUOUS
 10
104.9490481825
 20
459.9776375325
 40
1.0
 50
60.0
 51
161.9817420984
  0
ARC
  8
0
 62
7
  6
CONTINUOUS
 10
203.9718879563
 20
327.8522560529
 40
6.0
 50
85.4216527464
 51
274.5783472535
  0
ARC
  8
0
 62
7
  6
CONTINUOUS
 10
216.5076629308
 20
353.9056798118
 40
6.0
 50
315.0
 51
348.1598440864
  0
ARC
  8
0
 62
7
  6
CONTINUOUS
 10
228.2523488514
 20
351.4434952884
 40
6.0
 50
135.0
 51
168.1598440864
  0
ARC
  8
0
 62
7
  6
CONTINUOUS
 10
238.9878916174
 20
362.1790380545
 40
6.0
 50
101.8401559136
 51
135.0
  0
ARC
  8
0
 62
7
  6
CONTINUOUS
 10
236.525707094
 20
373.923723975
 40
6.0
 50
281.8401559136
 51
315.0
  0
ARC
  8
0
 62
7
  6
CONTINUOUS
 10
204.5262010866
 20
334.7744432838
 40
0.9443458372
 50
265.4216527464
 51
315.0
  0
ARC
  8
0
 62
7
  6
CONTINUOUS
 10
255.656943622
 20
385.9051858193
 40
0.9443458372
 50
315.0
 51
4.5783472536
  0
ARC
  8
0
 62
7
  6
CONTINUOUS
 10
232.0791308529
 20
526.9295542196
 40
16.5
 50
204.0
 51
270.0
  0
ARC
  8
0
 62
7
  6
CONTINUOUS
 10
172.0536387782
 20
507.7609993923
 40
16.5
 50
222.0
 51
288.0
  0
ARC
  8
0
 62
7
  6
CONTINUOUS
 10
220.8229442407
 20
516.2295542196
 40
14.8
 50
125.9817420984
 51
194.0
  0
ARC
  8
0
 62
7
  6
CONTINUOUS
 10
164.6548509918
 20
494.1063417129
 40
14.8
 50
143.9817420984
 51
212.0
  0
ARC
  8
0
 62
7
  6
CONTINUOUS
 10
205.6718184141
 20
502.3865436318
 40
3.25
 50
232.849904579
 51
14.0
  0
ARC
  8
0
 62
7
  6
CONTINUOUS
 10
262.3911214961
 20
511.4295542196
 40
3.25
 50
214.849904579
 51
356.0
  0
ARC
  8
0
 62
7
  6
CONTINUOUS
 10
202.5013165935
 20
498.2019984706
 40
2.0
 50
52.849904579
 51
108.0
  0
ARC
  8
0
 62
7
  6
CONTINUOUS
 10
258.0826995112
 20
508.4295542196
 40
2.0
 50
34.849904579
 51
90.0
  0
ARC
  8
0
 62
7
  6
CONTINUOUS
 10
212.7150658351
 20
527.3965729694
 40
1.0
 50
24.0
 51
125.9817420984
  0
ARC
  8
0
 62
7
  6
CONTINUOUS
 10
353.1046229277
 20
147.9435127135
 40
16.5
 50
42.0
 51
108.0
  0
ARC
  8
0
 62
7
  6
CONTINUOUS
 10
293.0791308529
 20
128.7749578862
 40
16.5
 50
24.0
 51
90.0
  0
ARC
  8
0
 62
7
  6
CONTINUOUS
 10
360.5034107141
 20
161.5981703929
 40
14.8
 50
323.9817420984
 51
32.0
  0
ARC
  8
0
 62
7
  6
CONTINUOUS
 10
304.3353174652
 20
139.4749578862
 40
14.8
 50
305.9817420984
 51
14.0
  0
ARC
  8
0
 62
7
  6
CONTINUOUS
 10
319.4864432918
 20
153.317968474
 40
3.25
 50
52.849904579
 51
194.0
  0
ARC
  8
0
 62
7
  6
CONTINUOUS
 10
262.7671402098
 20
144.2749578862
 40
3.25
 50
34.849904579
 51
176.0
  0
ARC
  8
0
 62
7
  6
CONTINUOUS
 10
322.6569451124
 20
157.5025136352
 40
2.0
 50
232.849904579
 51
288.0
  0
ARC
  8
0
 62
7
  6
CONTINUOUS
 10
267.0755621947
 20
147.2749578862
 40
2.0
 50
214.849904579
 51
270.0
  0
ARC
  8
0
 62
7
  6
CONTINUOUS
 10
312.4431958708
 20
128.3079391364
 40
1.0
 50
204.0
 51
305.9817420984
  0
ARC
  8
0
 62
7
  6
CONTINUOUS
 10
308.6505987751
 20
301.798832294
 40
6.0
 50
135.0
 51
168.1598440864
  0
ARC
  8
0
 62
7
  6
CONTINUOUS
 10
296.9059128545
 20
304.2610168174
 40
6.0
 50
315.0
 51
348.1598440864
  0
ARC
  8
0
 62
7
  6
CONTINUOUS
 10
286.1703700884
 20
293.5254740513
 40
6.0
 50
281.8401559136
 51
315.0
  0
ARC
  8
0
 62
7
  6
CONTINUOUS
 10
288.6325546118
 20
281.7807881308
 40
6.0
 50
101.8401559136
 51
135.0
  0
ARC
  8
0
 62
7
  6
CONTINUOUS
 10
262.5791308529
 20
269.2450131562
 40
6.0
 50
175.4216527464
 51
4.5783472536
  0
ARC
  8
0
 62
7
  6
CONTINUOUS
 10
320.6320606193
 20
320.930068822
 40
0.9443458372
 50
85.4216527464
 51
135.0
  0
ARC
  8
0
 62
7
  6
CONTINUOUS
 10
269.5013180839
 20
269.7993262865
 40
0.9443458372
 50
135.0
 51
184.5783472536
  0
ARC
  8
0
 62
7
  6
CONTINUOUS
 10
404.26884911
 20
184.7227888367
 40
16.5
 50
60.0
 51
126.0
  0
ARC
  8
0
 62
7
  6
CONTINUOUS
 10
407.0859931716
 20
199.9954911643
 40
14.8
 50
341.9817420984
 51
50.0
  0
ARC
  8
0
 62
7
  6
CONTINUOUS
 10
411.2067939784
 20
220.1003302996
 40
3.25
 50
88.849904579
 51
230.0
  0
ARC
  8
0
 62
7
  6
CONTINUOUS
 10
370.6352621358
 20
179.4456111819
 40
3.25
 50
70.8499045791
 51
212.0
  0
ARC
  8
0
 62
7
  6
CONTINUOUS
 10
372.3574929836
 20
184.4050890684
 40
2.0
 50
250.849904579
 51
306.0
  0
ARC
  8
0
 62
7
  6
CONTINUOUS
 10
420.2092135233
 20
195.7268745733
 40
1.0
 50
240.0
 51
341.9817420984
  0
ARC
  8
0
 62
7
  6
CONTINUOUS
 10
371.6652598753
 20
153.4831766589
 40
1.0
 50
222.0
 51
323.9817420984
  0
ARC
  8
0
 62
7
  6
CONTINUOUS
 10
461.3379108492
 20
295.3412114722
 40
16.5
 50
96.0
 51
162.0
  0
ARC
  8
0
 62
7
  6
CONTINUOUS
 10
441.5634984589
 20
235.5125744527
 40
16.5
 50
78.0
 51
144.0
  0
ARC
  8
0
 62
7
  6
CONTINUOUS
 10
454.6399590799
 20
309.3529629382
 40
14.8
 50
17.9817420984
 51
86.0
  0
ARC
  8
0
 62
7
  6
CONTINUOUS
 10
439.5232371069
 20
250.9083229135
 40
14.8
 50
359.9817420984
 51
68.0
  0
ARC
  8
0
 62
7
  6
CONTINUOUS
 10
437.2296146046
 20
271.3025586619
 40
3.25
 50
106.849904579
 51
248.0
  0
ARC
  8
0
 62
7
  6
CONTINUOUS
 10
435.707820668
 20
276.3271624487
 40
2.0
 50
286.849904579
 51
342.0
  0
ARC
  8
0
 62
7
  6
CONTINUOUS
 10
411.3121698987
 20
225.3492726612
 40
2.0
 50
268.849904579
 51
324.0
  0
ARC
  8
0
 62
7
  6
CONTINUOUS
 10
467.7658972452
 20
313.613214959
 40
1.0
 50
276.0
 51
17.9817420984
  0
ARC
  8
0
 62
7
  6
CONTINUOUS
 10
453.3232364062
 20
250.9039253987
 40
1.0
 50
258.0
 51
359.9817420984
  0
CIRCLE
  8
0
 62
7
  6
CONTINUOUS
 10
262.5791308529
 20
327.8522560529
 40
177.0
  0
CIRCLE
  8
0
 62
9
  6
CONTINUOUS
 10
262.5791308529
 20
327.8522560529
 40
175.0
  0
ARC
  8
0
 62
7
  6
CONTINUOUS
 10
288.6325546118
 20
373.923723975
 40
6.0
 50
225.0
 51
258.1598440864
  0
ARC
  8
0
 62
7
  6
CONTINUOUS
 10
286.1703700884
 20
362.1790380545
 40
6.0
 50
45.0
 51
78.1598440864
  0
ARC
  8
0
 62
7
  6
CONTINUOUS
 10
296.9059128545
 20
351.4434952884
 40
6.0
 50
11.8401559136
 51
45.0
  0
ARC
  8
0
 62
7
  6
CONTINUOUS
 10
308.6505987751
 20
353.9056798118
 40
6.0
 50
191.8401559136
 51
225.0
  0
ARC
  8
0
 62
7
  6
CONTINUOUS
 10
321.1863737496
 20
327.8522560529
 40
6.0
 50
265.4216527464
 51
94.5783472536
  0
ARC
  8
0
 62
7
  6
CONTINUOUS
 10
262.5791308529
 20
386.4594989496
 40
6.0
 50
355.4216527464
 51
184.5783472536
  0
ARC
  8
0
 62
7
  6
CONTINUOUS
 10
269.5013180839
 20
385.9051858193
 40
0.9443458372
 50
175.4216527464
 51
225.0
  0
ARC
  8
0
 62
7
  6
CONTINUOUS
 10
320.6320606193
 20
334.7744432838
 40
0.9443458372
 50
225.0
 51
274.5783472536
  0
ARC
  8
0
 62
7
  6
CONTINUOUS
 10
295.0901754337
 20
526.6110360492
 40
16.5
 50
186.0
 51
252.0
  0
ARC
  8
0
 62
7
  6
CONTINUOUS
 10
354.9188124531
 20
506.8366236589
 40
16.5
 50
168.0
 51
234.0
  0
ARC
  8
0
 62
7
  6
CONTINUOUS
 10
281.0784239676
 20
519.9130842799
 40
14.8
 50
107.9817420984
 51
176.0
  0
ARC
  8
0
 62
7
  6
CONTINUOUS
 10
339.5230639924
 20
504.7963623068
 40
14.8
 50
89.9817420984
 51
158.0
  0
CIRCLE
  8
0
 62
7
  6
CONTINUOUS
 10
262.5791308529
 20
498.3522560529
 40
4.0
  0
ARC
  8
0
 62
7
  6
CONTINUOUS
 10
319.1288282439
 20
502.5027398045
 40
3.25
 50
196.849904579
 51
338.0
  0
ARC
  8
0
 62
7
  6
CONTINUOUS
 10
314.1042244571
 20
500.9809458679
 40
2.0
 50
16.849904579
 51
72.0
  0
ARC
  8
0
 62
7
  6
CONTINUOUS
 10
276.8181719469
 20
533.0390224452
 40
1.0
 50
6.0
 51
107.9817420984
  0
ARC
  8
0
 62
7
  6
CONTINUOUS
 10
339.5274615072
 20
518.5963616062
 40
1.0
 50
348.0
 51
89.9817420984
  0
ARC
  8
0
 62
7
  6
CONTINUOUS
 10
442.4878741923
 20
418.3777481277
 40
16.5
 50
132.0
 51
198.0
  0
ARC
  8
0
 62
7
  6
CONTINUOUS
 10
461.6564290196
 20
358.3522560529
 40
16.5
 50
114.0
 51
180.0
  0
ARC
  8
0
 62
7
  6
CONTINUOUS
 10
428.8332165129
 20
425.7765359141
 40
14.8
 50
53.9817420984
 51
122.0
  0
ARC
  8
0
 62
7
  6
CONTINUOUS
 10
450.9564290196
 20
369.6084426652
 40
14.8
 50
35.9817420984
 51
104.0
  0
ARC
  8
0
 62
7
  6
CONTINUOUS
 10
437.1134184318
 20
384.7595684918
 40
3.25
 50
142.849904579
 51
284.0
  0
ARC
  8
0
 62
7
  6
CONTINUOUS
 10
446.1564290196
 20
328.0402654097
 40
3.25
 50
124.849904579
 51
266.0
  0
ARC
  8
0
 62
7
  6
CONTINUOUS
 10
432.9288732707
 20
387.9300703123
 40
2.0
 50
322.849904579
 51
18.0
  0
ARC
  8
0
 62
7
  6
CONTINUOUS
 10
443.1564290196
 20
332.3486873946
 40
2.0
 50
304.849904579
 51
360.0
  0
ARC
  8
0
 62
7
  6
CONTINUOUS
 10
462.1234477695
 20
377.7163210708
 40
1.0
 50
294.0
 51
35.9817420984
  0
ARC
  8
0
 62
7
  6
CONTINUOUS
 10
405.7085980691
 20
469.5419743099
 40
16.5
 50
150.0
 51
216.0
  0
ARC
  8
0
 62
7
  6
CONTINUOUS
 10
390.4358957415
 20
472.3591183716
 40
14.8
 50
71.9817420984
 51
140.0
  0
ARC
  8
0
 62
7
  6
CONTINUOUS
 10
370.3310566062
 20
476.4799191784
 40
3.25
 50
178.8499045791
 51
320.0
  0
ARC
  8
0
 62
7
  6
CONTINUOUS
 10
410.985775724
 20
435.9083873357
 40
3.25
 50
160.849904579
 51
302.0
  0
ARC
  8
0
 62
7
  6
CONTINUOUS
 10
365.0821142446
 20
476.5852950987
 40
2.0
 50
358.8499045789
 51
54.0
  0
ARC
  8
0
 62
7
  6
CONTINUOUS
 10
406.0262978375
 20
437.6306181836
 40
2.0
 50
340.849904579
 51
36.0
  0
ARC
  8
0
 62
7
  6
CONTINUOUS
 10
394.7045123325
 20
485.4823387233
 40
1.0
 50
330.0
 51
71.9817420984
  0
ARC
  8
0
 62
7
  6
CONTINUOUS
 10
436.9482102469
 20
436.9383850753
 40
1.0
 50
312.0
 51
53.9817420984
  0
ARC
  8
0
 62
7
  6
CONTINUOUS
 10
627.3817771084
 20
152.8522560529
 40
2.0
 50
180.0
 51
270.0
  0
ARC
  8
0
 62
7
  6
CONTINUOUS
 10
627.3817771084
 20
502.8522560529
 40
2.0
 50
90.0
 51
180.0
  0
ARC
  8
0
 62
7
  6
CONTINUOUS
 10
673.3817771084
 20
152.8522560529
 40
2.0
 50
270.0
 51
360.0
  0
ARC
  8
0
 62
7
  6
CONTINUOUS
 10
673.3817771084
 20
502.8522560529
 40
2.0
 50
0.0
 51
90.0
  0
ENDSEC
  0
EOF
