  0
SECTION
  2
HEADER
  9
$EXTMAX
 10
841.0
 20
594.0
 30
0.0
  9
$EXTMIN
 10
0.0
 20
0.0
 30
0.0
  9
$LIMMIN
 10
0.0
 20
0.0
  9
$LIMMAX
 10
841.0
 20
594.0
  9
$VIEWCTR
 10
420.5
 20
297.0
  9
$VIEWSIZE
 40
594.0
  9
$CLAYER
  8
0
  9
$LTSCALE
 40
46.255
  9
$CELTYPE
  6
BYLAYER
  9
$DIMSCALE
 40
1.0
  9
$DIMASZ
 40
3.5
  9
$DIMEXO
 40
0.0
  9
$DIMDLI
 40
31.958
  9
$DIMEXE
 40
2.0
  9
$DIMCEN
 40
7.569
  9
$DIMLFAC
 40
1.0
  9
$DIMBLK
  1
_FILLED
  9
$DIMALT
 70
0
  9
$DIMALTF
 40
0.0393700787
  9
$DIMTXT
 40
3.5
  9
$AUNITS
 70
0
  9
$PDMODE
 70
3
  9
$PDSIZE
 40
0.3125
  9
$TILEMODE
 70
1
  0
ENDSEC
  0
SECTION
  2
TABLES
  0
TABLE
  2
LTYPE
 70
6
  0
LTYPE
  2
BYBLOCK
 70
0
  3

 72
65
 73
0
 40
0.0
  0
LTYPE
  2
BYLAYER
 70
0
  3

 72
65
 73
0
 40
0.0
  0
LTYPE
  2
CONTINUOUS
 70
64
  3
Solid line
 72
65
 73
0
 40
0.0
  0
LTYPE
  2
CENTER
 70
64
  3
____ _ ____ _ ____ _ ____ _ ____ _ ____ _ ____
 72
65
 73
4
 40
0.6
 49
0.375
 49
-0.075
 49
0.075
 49
-0.075
  0
LTYPE
  2
HIDDEN
 70
64
  3
- - - - - - - - - - - - - - - - - - - -
 72
65
 73
2
 40
0.2
 49
0.1
 49
-0.1
  0
LTYPE
  2
PHANTOM
 70
64
  3
_____ _ _ _____ _ _ _____ _ _ _____
 72
65
 73
6
 40
0.8
 49
0.45
 49
-0.05
 49
0.1
 49
-0.05
 49
0.1
 49
-0.05
  0
LTYPE
  2
DOT
 70
64
  3
. . . . . . . . . . . . . . . . . . . .
 72
65
 73
2
 40
0.2
 49
0.1
 49
-0.1
  0
LTYPE
  2
DASHED
 70
64
  3
- - - - - - - - - - - - - - - - - - - -
 72
65
 73
2
 40
0.2
 49
0.1
 49
-0.1
  0
ENDTAB
  0
TABLE
  2
LAYER
 70
36
  0
LAYER
  2
0
 70
0
 62
7
  6
CONTINUOUS
  0
LAYER
  2
DEFAULT_1
 70
0
 62
7
  6
CENTER
  0
LAYER
  2
DEFAULT_2
 70
0
 62
8
  6
HIDDEN
  0
LAYER
  2
DEFAULT_3
 70
0
 62
7
  6
PHANTOM
  0
LAYER
  2
1_CSYS
 70
0
 62
7
  6
CONTINUOUS
  0
LAYER
  2
1_DATUM_PLANE
 70
0
 62
7
  6
CONTINUOUS
  0
LAYER
  2
2_FEATURE
 70
0
 62
7
  6
CONTINUOUS
  0
LAYER
  2
6_DIM
 70
0
 62
7
  6
CONTINUOUS
  0
LAYER
  2
AXES
 70
0
 62
7
  6
CONTINUOUS
  0
LAYER
  2
BLANK_BELT
 70
0
 62
7
  6
CONTINUOUS
  0
LAYER
  2
BLANK_CURVE_BORE
 70
0
 62
7
  6
CONTINUOUS
  0
LAYER
  2
BLANK_PLAN
 70
0
 62
7
  6
CONTINUOUS
  0
LAYER
  2
BLANK_SQ
 70
0
 62
7
  6
CONTINUOUS
  0
LAYER
  2
CSYS
 70
0
 62
7
  6
CONTINUOUS
  0
LAYER
  2
DTM_AXES
 70
0
 62
7
  6
CONTINUOUS
  0
LAYER
  2
DTM_CRV
 70
0
 62
7
  6
CONTINUOUS
  0
LAYER
  2
NOTES
 70
0
 62
7
  6
CONTINUOUS
  0
LAYER
  2
OUTERLINE
 70
0
 62
7
  6
CONTINUOUS
  0
LAYER
  2
PITCH_LINE
 70
0
 62
7
  6
CONTINUOUS
  0
LAYER
  2
PLANES
 70
0
 62
7
  6
CONTINUOUS
  0
LAYER
  2
QUILTS
 70
0
 62
7
  6
CONTINUOUS
  0
ENDTAB
  0
TABLE
  2
STYLE
 70
1
  0
STYLE
  2
STANDARD
 70
0
 40
0.0
 41
0.8
 50
0.0
 71
0
 42
0.2
  3
txt
  4

  0
STYLE
  2
TEXTSTYLE_1
 70
0
 40
0.0
 41
0.8
 50
0.0
 71
0
 42
0.2
  3
gdt
  4

  0
STYLE
  2
TEXTSTYLE_2
 70
0
 40
0.0
 41
0.6
 50
0.0
 71
0
 42
0.2
  3
txt
  4

  0
STYLE
  2
TEXTSTYLE_3
 70
0
 40
0.0
 41
1.0
 50
0.0
 71
0
 42
0.2
  3
frutiger light.ttf
  4

  0
STYLE
  2
TEXTSTYLE_4
 70
0
 40
0.0
 41
1.0
 50
0.0
 71
0
 42
0.2
  3
ftr_____.ttf
  4

  0
STYLE
  2
TEXTSTYLE_5
 70
0
 40
0.0
 41
0.7
 50
0.0
 71
0
 42
0.2
  3
txt
  4

  0
STYLE
  2
TEXTSTYLE_6
 70
0
 40
0.0
 41
1.0
 50
0.0
 71
0
 42
0.2
  3
ftb_____.ttf
  4

  0
ENDTAB
  0
ENDSEC
  0
SECTION
  2
BLOCKS
  0
BLOCK
  8
0
 62
2
  6
CONTINUOUS
  2
UNI_LOGO2_BL1
 70
64
 10
804.4079930916
 20
35.8092573885
  0
TEXT
  8
0
 62
7
  6
CONTINUOUS
 10
795.4662781001
 20
30.9020137655
  7
TEXTSTYLE_4
 40
1.0655737705
  1
The brand for plastic modular belts and chains
 41
1.0
 72
0
  0
LINE
  8
0
 62
7
  6
CONTINUOUS
 10
780.3860614807
 20
36.3830278803
 11
780.3860614807
 21
34.2518803393
  0
LINE
  8
0
 62
7
  6
CONTINUOUS
 10
780.6751239738
 20
31.2609490436
 11
780.6751239738
 21
31.3577401029
  0
LINE
  8
0
 62
7
  6
CONTINUOUS
 10
780.3860614807
 20
31.3254764164
 11
780.4438739824
 21
31.1318942979
  0
LINE
  8
0
 62
7
  6
CONTINUOUS
 10
781.7795041036
 20
34.1699131262
 11
781.7795041036
 21
36.3830278803
  0
LINE
  8
0
 62
7
  6
CONTINUOUS
 10
782.6985614255
 20
32.3256508311
 11
782.6985614255
 21
30.8092573885
  0
LINE
  8
0
 62
7
  6
CONTINUOUS
 10
782.9876239807
 20
30.8092573885
 11
782.9876239807
 21
31.5513222666
  0
LINE
  8
0
 62
7
  6
CONTINUOUS
 10
782.9876239807
 20
31.6803770123
 11
782.9876239807
 21
32.3256508311
  0
LINE
  8
0
 62
7
  6
CONTINUOUS
 10
780.4438739824
 20
31.5190585802
 11
780.3860614807
 21
31.3254764164
  0
LINE
  8
0
 62
7
  6
CONTINUOUS
 10
780.7907489669
 20
31.0996306115
 11
780.6751239738
 21
31.2609490436
  0
LINE
  8
0
 62
7
  6
CONTINUOUS
 10
781.8891865358
 20
31.6158496394
 11
781.9469989807
 21
31.5190585802
  0
LINE
  8
0
 62
7
  6
CONTINUOUS
 10
782.2360615358
 20
31.5190585802
 11
782.1782489255
 21
31.6481133259
  0
LINE
  8
0
 62
7
  6
CONTINUOUS
 10
783.6647500052
 20
36.3830278803
 11
783.6647500052
 21
34.5797491918
  0
LINE
  8
0
 62
7
  6
CONTINUOUS
 10
783.6647500052
 20
33.2682737819
 11
783.6647500052
 21
32.612536077
  0
LINE
  8
0
 62
7
  6
CONTINUOUS
 10
784.0282489807
 20
31.4545312073
 11
784.0282489807
 21
30.8092573885
  0
LINE
  8
0
 62
7
  6
CONTINUOUS
 10
784.3173113704
 20
30.8092573885
 11
784.3173113704
 21
31.4545312073
  0
LINE
  8
0
 62
7
  6
CONTINUOUS
 10
780.6751239738
 20
31.3577401029
 11
780.7329364807
 21
31.4867948937
  0
LINE
  8
0
 62
7
  6
CONTINUOUS
 10
780.4438739824
 20
31.1318942979
 11
780.5594989807
 21
31.0028395296
  0
LINE
  8
0
 62
7
  6
CONTINUOUS
 10
783.9704363704
 20
31.583585953
 11
784.0282489807
 21
31.4545312073
  0
LINE
  8
0
 62
7
  6
CONTINUOUS
 10
784.7798115909
 20
31.0996306115
 11
784.8376238704
 21
30.9705758432
  0
LINE
  8
0
 62
7
  6
CONTINUOUS
 10
784.3173113704
 20
31.4545312073
 11
784.2594990909
 21
31.6158496394
  0
LINE
  8
0
 62
7
  6
CONTINUOUS
 10
784.7798115909
 20
31.6481133259
 11
784.7798115909
 21
31.583585953
  0
LINE
  8
0
 62
7
  6
CONTINUOUS
 10
784.7798115909
 20
31.1964216708
 11
784.7798115909
 21
31.0996306115
  0
LINE
  8
0
 62
7
  6
CONTINUOUS
 10
785.0581926282
 20
32.612536077
 11
785.0581926282
 21
36.3830278803
  0
LINE
  8
0
 62
7
  6
CONTINUOUS
 10
785.0688739807
 20
31.0673669025
 11
785.0688739807
 21
31.1318942979
  0
LINE
  8
0
 62
7
  6
CONTINUOUS
 10
785.3860614807
 20
36.3830278803
 11
785.3860614807
 21
32.612536077
  0
LINE
  8
0
 62
7
  6
CONTINUOUS
 10
782.1782489255
 20
31.0028395296
 11
782.2360615358
 21
31.1318942979
  0
LINE
  8
0
 62
7
  6
CONTINUOUS
 10
786.5719992012
 20
30.9060484591
 11
786.5141862601
 21
31.0673669025
  0
LINE
  8
0
 62
7
  6
CONTINUOUS
 10
786.2251242012
 20
31.583585953
 11
786.2251242012
 21
31.4867948937
  0
LINE
  8
0
 62
7
  6
CONTINUOUS
 10
786.2251242012
 20
31.3577401029
 11
786.2251242012
 21
31.1641579843
  0
LINE
  8
0
 62
7
  6
CONTINUOUS
 10
786.5141862601
 20
31.0673669025
 11
786.5141862601
 21
31.583585953
  0
LINE
  8
0
 62
7
  6
CONTINUOUS
 10
786.7795041036
 20
32.612536077
 11
786.7795041036
 21
34.4158147655
  0
LINE
  8
0
 62
7
  6
CONTINUOUS
 10
786.7795041036
 20
35.7272901754
 11
786.7795041036
 21
36.3830278803
  0
LINE
  8
0
 62
7
  6
CONTINUOUS
 10
787.0923117012
 20
32.3256508311
 11
787.0923117012
 21
32.164332399
  0
LINE
  8
0
 62
7
  6
CONTINUOUS
 10
787.0923117012
 20
31.8416954444
 11
787.0923117012
 21
30.8092573885
  0
LINE
  8
0
 62
7
  6
CONTINUOUS
 10
787.3813737601
 20
30.8092573885
 11
787.3813737601
 21
31.8416954444
  0
LINE
  8
0
 62
7
  6
CONTINUOUS
 10
787.3813737601
 20
32.164332399
 11
787.3813737601
 21
32.3256508311
  0
LINE
  8
0
 62
7
  6
CONTINUOUS
 10
781.9469989807
 20
31.1318942979
 11
781.8891865358
 21
31.035103216
  0
LINE
  8
0
 62
7
  6
CONTINUOUS
 10
784.2594990909
 20
31.6158496394
 11
784.2016864807
 21
31.6803770123
  0
LINE
  8
0
 62
7
  6
CONTINUOUS
 10
785.1266865909
 20
31.0028395296
 11
785.0688739807
 21
31.0673669025
  0
LINE
  8
0
 62
7
  6
CONTINUOUS
 10
786.2829364807
 20
30.873784767
 11
786.3407487601
 21
30.8092573885
  0
LINE
  8
0
 62
7
  6
CONTINUOUS
 10
786.2251242012
 20
30.9705758432
 11
786.2829364807
 21
30.873784767
  0
LINE
  8
0
 62
7
  6
CONTINUOUS
 10
786.6298114807
 20
30.8092573885
 11
786.5719992012
 21
30.9060484591
  0
LINE
  8
0
 62
7
  6
CONTINUOUS
 10
786.5141862601
 20
31.583585953
 11
786.4563739807
 21
31.6803770123
  0
LINE
  8
0
 62
7
  6
CONTINUOUS
 10
787.8438739807
 20
31.8416954444
 11
787.8438739807
 21
30.8092573885
  0
LINE
  8
0
 62
7
  6
CONTINUOUS
 10
788.1329367012
 20
30.8092573885
 11
788.1329367012
 21
31.5513222666
  0
LINE
  8
0
 62
7
  6
CONTINUOUS
 10
788.1329367012
 20
31.6803770123
 11
788.1329367012
 21
31.8416954444
  0
LINE
  8
0
 62
7
  6
CONTINUOUS
 10
788.6647500052
 20
34.8256508311
 11
788.6647500052
 21
32.612536077
  0
LINE
  8
0
 62
7
  6
CONTINUOUS
 10
780.5594989807
 20
31.6481133259
 11
780.4438739824
 21
31.5190585802
  0
LINE
  8
0
 62
7
  6
CONTINUOUS
 10
780.7329364807
 20
31.4867948937
 11
780.7907489669
 21
31.5513222666
  0
LINE
  8
0
 62
7
  6
CONTINUOUS
 10
780.5594989807
 20
31.0028395296
 11
780.6751239738
 21
30.9383121455
  0
LINE
  8
0
 62
7
  6
CONTINUOUS
 10
780.9641864669
 20
31.0028395296
 11
780.7907489669
 21
31.0996306115
  0
LINE
  8
0
 62
7
  6
CONTINUOUS
 10
786.1673112601
 20
31.6481133259
 11
786.2251242012
 21
31.583585953
  0
LINE
  8
0
 62
7
  6
CONTINUOUS
 10
789.1157487601
 20
31.583585953
 11
789.1735617012
 21
31.4222675209
  0
LINE
  8
0
 62
7
  6
CONTINUOUS
 10
789.4626237601
 20
31.4222675209
 11
789.4048114807
 21
31.583585953
  0
LINE
  8
0
 62
7
  6
CONTINUOUS
 10
789.1735617012
 20
31.4222675209
 11
789.1735617012
 21
30.8092573885
  0
LINE
  8
0
 62
7
  6
CONTINUOUS
 10
789.4626237601
 20
30.8092573885
 11
789.4626237601
 21
31.4222675209
  0
LINE
  8
0
 62
7
  6
CONTINUOUS
 10
789.9251239807
 20
31.6481133259
 11
789.9251239807
 21
31.583585953
  0
LINE
  8
0
 62
7
  6
CONTINUOUS
 10
790.0581926282
 20
32.612536077
 11
790.0581926282
 21
34.743683618
  0
LINE
  8
0
 62
7
  6
CONTINUOUS
 10
790.3860614807
 20
36.3830278803
 11
790.3860614807
 21
32.612536077
  0
LINE
  8
0
 62
7
  6
CONTINUOUS
 10
785.0688739807
 20
31.1318942979
 11
785.1266865909
 21
31.2286853572
  0
LINE
  8
0
 62
7
  6
CONTINUOUS
 10
780.6751239738
 20
30.9383121455
 11
780.8485614944
 21
30.873784767
  0
LINE
  8
0
 62
7
  6
CONTINUOUS
 10
782.1782489255
 20
31.6481133259
 11
782.0048114255
 21
31.7449043851
  0
LINE
  8
0
 62
7
  6
CONTINUOUS
 10
784.8376238704
 20
30.9705758432
 11
785.0110613704
 21
30.873784767
  0
LINE
  8
0
 62
7
  6
CONTINUOUS
 10
783.8548114807
 20
31.6481133259
 11
783.9704363704
 21
31.583585953
  0
LINE
  8
0
 62
7
  6
CONTINUOUS
 10
784.2016864807
 20
31.6803770123
 11
784.0860615909
 21
31.7449043851
  0
LINE
  8
0
 62
7
  6
CONTINUOUS
 10
789.9251239807
 20
31.0673669025
 11
790.0407492012
 21
30.9383121455
  0
LINE
  8
0
 62
7
  6
CONTINUOUS
 10
790.2719989807
 20
31.0028395296
 11
790.2141867012
 21
31.0673669025
  0
LINE
  8
0
 62
7
  6
CONTINUOUS
 10
789.9251239807
 20
31.583585953
 11
790.0407492012
 21
31.4545312073
  0
LINE
  8
0
 62
7
  6
CONTINUOUS
 10
789.4048114807
 20
31.583585953
 11
789.3469992012
 21
31.6803770123
  0
LINE
  8
0
 62
7
  6
CONTINUOUS
 10
791.7751235396
 20
31.0028395296
 11
791.7751235396
 21
31.0673669025
  0
LINE
  8
0
 62
7
  6
CONTINUOUS
 10
791.7795041036
 20
32.612536077
 11
791.7795041036
 21
36.3830278803
  0
LINE
  8
0
 62
7
  6
CONTINUOUS
 10
784.8376238704
 20
31.7126406987
 11
784.7798115909
 21
31.6481133259
  0
LINE
  8
0
 62
7
  6
CONTINUOUS
 10
781.7157489531
 20
31.6803770123
 11
781.8891865358
 21
31.6158496394
  0
LINE
  8
0
 62
7
  6
CONTINUOUS
 10
786.4563739807
 20
31.6803770123
 11
786.3407487601
 21
31.7449043851
  0
LINE
  8
0
 62
7
  6
CONTINUOUS
 10
790.2719989807
 20
31.5190585802
 11
790.2141867012
 21
31.583585953
  0
LINE
  8
0
 62
7
  6
CONTINUOUS
 10
791.4282492012
 20
31.1318942979
 11
791.4860614807
 21
31.0673669025
  0
LINE
  8
0
 62
7
  6
CONTINUOUS
 10
791.7751235396
 20
31.0673669025
 11
791.6594989807
 21
31.1964216708
  0
LINE
  8
0
 62
7
  6
CONTINUOUS
 10
791.4282492012
 20
31.6481133259
 11
791.4860614807
 21
31.583585953
  0
LINE
  8
0
 62
7
  6
CONTINUOUS
 10
791.7751235396
 20
31.583585953
 11
791.6594989807
 21
31.7126406987
  0
LINE
  8
0
 62
7
  6
CONTINUOUS
 10
785.0688739807
 20
31.583585953
 11
785.1266865909
 21
31.6481133259
  0
LINE
  8
0
 62
7
  6
CONTINUOUS
 10
784.8954364807
 20
31.3254764164
 11
784.7798115909
 21
31.1964216708
  0
LINE
  8
0
 62
7
  6
CONTINUOUS
 10
786.2251242012
 20
31.1641579843
 11
786.1673112601
 21
31.0996306115
  0
LINE
  8
0
 62
7
  6
CONTINUOUS
 10
786.1673112601
 20
30.9060484591
 11
786.2251242012
 21
30.9705758432
  0
LINE
  8
0
 62
7
  6
CONTINUOUS
 10
785.0110613704
 20
30.873784767
 11
785.1266865909
 21
30.8415210777
  0
LINE
  8
0
 62
7
  6
CONTINUOUS
 10
782.0048114255
 20
31.7449043851
 11
781.7735614807
 21
31.809431758
  0
LINE
  8
0
 62
7
  6
CONTINUOUS
 10
785.3579363704
 20
30.9383121455
 11
785.1266865909
 21
31.0028395296
  0
LINE
  8
0
 62
7
  6
CONTINUOUS
 10
784.0860615909
 20
31.7449043851
 11
783.9126240909
 21
31.809431758
  0
LINE
  8
0
 62
7
  6
CONTINUOUS
 10
786.3407487601
 20
31.7449043851
 11
786.1673112601
 21
31.809431758
  0
LINE
  8
0
 62
7
  6
CONTINUOUS
 10
789.0001242012
 20
31.6481133259
 11
789.1157487601
 21
31.583585953
  0
LINE
  8
0
 62
7
  6
CONTINUOUS
 10
789.3469992012
 20
31.6803770123
 11
789.2313739807
 21
31.7449043851
  0
LINE
  8
0
 62
7
  6
CONTINUOUS
 10
780.8485614944
 20
30.873784767
 11
781.0219989944
 21
30.8415210777
  0
LINE
  8
0
 62
7
  6
CONTINUOUS
 10
781.3110615082
 20
30.9383121455
 11
780.9641864669
 21
31.0028395296
  0
LINE
  8
0
 62
7
  6
CONTINUOUS
 10
783.7391865909
 20
31.6803770123
 11
783.8548114807
 21
31.6481133259
  0
LINE
  8
0
 62
7
  6
CONTINUOUS
 10
786.0516867012
 20
31.6803770123
 11
786.1673112601
 21
31.6481133259
  0
LINE
  8
0
 62
7
  6
CONTINUOUS
 10
790.3876242012
 20
30.9705758432
 11
790.2719989807
 21
31.0028395296
  0
LINE
  8
0
 62
7
  6
CONTINUOUS
 10
788.8844989807
 20
31.6803770123
 11
789.0001242012
 21
31.6481133259
  0
LINE
  8
0
 62
7
  6
CONTINUOUS
 10
790.0407492012
 20
30.9383121455
 11
790.2141867012
 21
30.873784767
  0
LINE
  8
0
 62
7
  6
CONTINUOUS
 10
789.2313739807
 20
31.7449043851
 11
789.0579364807
 21
31.809431758
  0
LINE
  8
0
 62
7
  6
CONTINUOUS
 10
790.4454364807
 20
31.4545312073
 11
790.2719989807
 21
31.5190585802
  0
LINE
  8
0
 62
7
  6
CONTINUOUS
 10
791.2548117012
 20
31.1964216708
 11
791.4282492012
 21
31.1318942979
  0
LINE
  8
0
 62
7
  6
CONTINUOUS
 10
791.6594989807
 20
31.7126406987
 11
791.4860614807
 21
31.7771680715
  0
LINE
  8
0
 62
7
  6
CONTINUOUS
 10
790.0407492012
 20
31.4545312073
 11
790.2719989807
 21
31.3577401029
  0
LINE
  8
0
 62
7
  6
CONTINUOUS
 10
791.6594989807
 20
31.1964216708
 11
791.4282492012
 21
31.29321273
  0
LINE
  8
0
 62
7
  6
CONTINUOUS
 10
790.2141867012
 20
31.583585953
 11
790.2719989807
 21
31.6481133259
  0
LINE
  8
0
 62
7
  6
CONTINUOUS
 10
780.6751239738
 20
31.7126406987
 11
780.5594989807
 21
31.6481133259
  0
LINE
  8
0
 62
7
  6
CONTINUOUS
 10
780.7907489669
 20
31.5513222666
 11
780.9641864669
 21
31.6481133259
  0
LINE
  8
0
 62
7
  6
CONTINUOUS
 10
783.1032490358
 20
31.7449043851
 11
782.9876239807
 21
31.6803770123
  0
LINE
  8
0
 62
7
  6
CONTINUOUS
 10
782.9876239807
 20
31.5513222666
 11
783.1032490358
 21
31.6158496394
  0
LINE
  8
0
 62
7
  6
CONTINUOUS
 10
782.0048114255
 20
30.9060484591
 11
782.1782489255
 21
31.0028395296
  0
LINE
  8
0
 62
7
  6
CONTINUOUS
 10
781.0219989944
 20
30.8415210777
 11
781.3688739531
 21
30.8092573885
  0
LINE
  8
0
 62
7
  6
CONTINUOUS
 10
785.1266865909
 20
30.8415210777
 11
785.3579363704
 21
30.8092573885
  0
LINE
  8
0
 62
7
  6
CONTINUOUS
 10
783.5079364807
 20
31.7126406987
 11
783.7391865909
 21
31.6803770123
  0
LINE
  8
0
 62
7
  6
CONTINUOUS
 10
785.8204365909
 20
31.7126406987
 11
786.0516867012
 21
31.6803770123
  0
LINE
  8
0
 62
7
  6
CONTINUOUS
 10
790.2719989807
 20
31.3577401029
 11
791.2548117012
 21
31.1964216708
  0
LINE
  8
0
 62
7
  6
CONTINUOUS
 10
791.4282492012
 20
31.29321273
 11
790.4454364807
 21
31.4545312073
  0
LINE
  8
0
 62
7
  6
CONTINUOUS
 10
783.9126240909
 20
31.809431758
 11
783.7391865909
 21
31.8416954444
  0
LINE
  8
0
 62
7
  6
CONTINUOUS
 10
790.2141867012
 20
30.873784767
 11
790.3876242012
 21
30.8415210777
  0
LINE
  8
0
 62
7
  6
CONTINUOUS
 10
789.0579364807
 20
31.809431758
 11
788.8844989807
 21
31.8416954444
  0
LINE
  8
0
 62
7
  6
CONTINUOUS
 10
791.3126239807
 20
31.6803770123
 11
791.4282492012
 21
31.6481133259
  0
LINE
  8
0
 62
7
  6
CONTINUOUS
 10
791.4860614807
 20
31.0673669025
 11
791.4282492012
 21
31.0028395296
  0
LINE
  8
0
 62
7
  6
CONTINUOUS
 10
790.0407492012
 20
31.7449043851
 11
789.9251239807
 21
31.6481133259
  0
LINE
  8
0
 62
7
  6
CONTINUOUS
 10
784.9532490909
 20
31.7771680715
 11
784.8376238704
 21
31.7126406987
  0
LINE
  8
0
 62
7
  6
CONTINUOUS
 10
785.0110613704
 20
31.3900038345
 11
784.8954364807
 21
31.3254764164
  0
LINE
  8
0
 62
7
  6
CONTINUOUS
 10
785.1266865909
 20
31.2286853572
 11
785.2423114807
 21
31.29321273
  0
LINE
  8
0
 62
7
  6
CONTINUOUS
 10
782.6985614255
 20
30.8092573885
 11
782.9876239807
 21
30.8092573885
  0
LINE
  8
0
 62
7
  6
CONTINUOUS
 10
784.0282489807
 20
30.8092573885
 11
784.3173113704
 21
30.8092573885
  0
LINE
  8
0
 62
7
  6
CONTINUOUS
 10
785.3579363704
 20
30.8092573885
 11
785.7048113704
 21
30.8092573885
  0
LINE
  8
0
 62
7
  6
CONTINUOUS
 10
786.3407487601
 20
30.8092573885
 11
786.6298114807
 21
30.8092573885
  0
LINE
  8
0
 62
7
  6
CONTINUOUS
 10
787.0923117012
 20
30.8092573885
 11
787.3813737601
 21
30.8092573885
  0
LINE
  8
0
 62
7
  6
CONTINUOUS
 10
787.8438739807
 20
30.8092573885
 11
788.1329367012
 21
30.8092573885
  0
LINE
  8
0
 62
7
  6
CONTINUOUS
 10
789.1735617012
 20
30.8092573885
 11
789.4626237601
 21
30.8092573885
  0
LINE
  8
0
 62
7
  6
CONTINUOUS
 10
790.7344992012
 20
30.8092573885
 11
791.0813742012
 21
30.8092573885
  0
LINE
  8
0
 62
7
  6
CONTINUOUS
 10
791.0813742012
 20
30.9383121455
 11
790.7344992012
 21
30.9383121455
  0
LINE
  8
0
 62
7
  6
CONTINUOUS
 10
785.7048113704
 20
30.9383121455
 11
785.3579363704
 21
30.9383121455
  0
LINE
  8
0
 62
7
  6
CONTINUOUS
 10
790.2141867012
 20
31.0673669025
 11
789.9251239807
 21
31.0673669025
  0
LINE
  8
0
 62
7
  6
CONTINUOUS
 10
782.2360615358
 20
31.1318942979
 11
781.9469989807
 21
31.1318942979
  0
LINE
  8
0
 62
7
  6
CONTINUOUS
 10
781.3110615082
 20
31.7126406987
 11
781.7157489531
 21
31.6803770123
  0
LINE
  8
0
 62
7
  6
CONTINUOUS
 10
781.7735614807
 20
31.809431758
 11
781.3688739531
 21
31.8416954444
  0
LINE
  8
0
 62
7
  6
CONTINUOUS
 10
790.3876242012
 20
30.8415210777
 11
790.7344992012
 21
30.8092573885
  0
LINE
  8
0
 62
7
  6
CONTINUOUS
 10
790.7344992012
 20
30.9383121455
 11
790.3876242012
 21
30.9705758432
  0
LINE
  8
0
 62
7
  6
CONTINUOUS
 10
786.1673112601
 20
31.809431758
 11
785.8204365909
 21
31.8416954444
  0
LINE
  8
0
 62
7
  6
CONTINUOUS
 10
790.9657489807
 20
31.7126406987
 11
791.3126239807
 21
31.6803770123
  0
LINE
  8
0
 62
7
  6
CONTINUOUS
 10
791.3126239807
 20
31.809431758
 11
790.9657489807
 21
31.8416954444
  0
LINE
  8
0
 62
7
  6
CONTINUOUS
 10
788.6532492012
 20
31.7126406987
 11
788.8844989807
 21
31.6803770123
  0
LINE
  8
0
 62
7
  6
CONTINUOUS
 10
791.4860614807
 20
31.7771680715
 11
791.3126239807
 21
31.809431758
  0
LINE
  8
0
 62
7
  6
CONTINUOUS
 10
791.6594989807
 20
30.9060484591
 11
791.7751235396
 21
31.0028395296
  0
LINE
  8
0
 62
7
  6
CONTINUOUS
 10
786.1673112601
 20
31.0996306115
 11
785.9938737601
 21
31.0028395296
  0
LINE
  8
0
 62
7
  6
CONTINUOUS
 10
788.2485612601
 20
31.7449043851
 11
788.1329367012
 21
31.6803770123
  0
LINE
  8
0
 62
7
  6
CONTINUOUS
 10
788.1329367012
 20
31.5513222666
 11
788.2485612601
 21
31.6158496394
  0
LINE
  8
0
 62
7
  6
CONTINUOUS
 10
780.8485614944
 20
31.7771680715
 11
780.6751239738
 21
31.7126406987
  0
LINE
  8
0
 62
7
  6
CONTINUOUS
 10
783.2766863704
 20
31.809431758
 11
783.1032490358
 21
31.7449043851
  0
LINE
  8
0
 62
7
  6
CONTINUOUS
 10
783.1032490358
 20
31.6158496394
 11
783.2766863704
 21
31.6803770123
  0
LINE
  8
0
 62
7
  6
CONTINUOUS
 10
781.8891865358
 20
31.035103216
 11
781.7157489531
 21
30.9705758432
  0
LINE
  8
0
 62
7
  6
CONTINUOUS
 10
791.3126239807
 20
30.9705758432
 11
791.0813742012
 21
30.9383121455
  0
LINE
  8
0
 62
7
  6
CONTINUOUS
 10
785.7048113704
 20
30.8092573885
 11
785.9938737601
 21
30.8415210777
  0
LINE
  8
0
 62
7
  6
CONTINUOUS
 10
791.0813742012
 20
30.8092573885
 11
791.4282492012
 21
30.8415210777
  0
LINE
  8
0
 62
7
  6
CONTINUOUS
 10
781.3688739531
 20
30.8092573885
 11
781.7735614807
 21
30.8415210777
  0
LINE
  8
0
 62
7
  6
CONTINUOUS
 10
781.7157489531
 20
30.9705758432
 11
781.3110615082
 21
30.9383121455
  0
LINE
  8
0
 62
7
  6
CONTINUOUS
 10
785.5891864807
 20
31.3577401029
 11
786.2251242012
 21
31.3577401029
  0
LINE
  8
0
 62
7
  6
CONTINUOUS
 10
786.2251242012
 20
31.4867948937
 11
785.5891864807
 21
31.4867948937
  0
LINE
  8
0
 62
7
  6
CONTINUOUS
 10
781.9469989807
 20
31.5190585802
 11
782.2360615358
 21
31.5190585802
  0
LINE
  8
0
 62
7
  6
CONTINUOUS
 10
784.7798115909
 20
31.583585953
 11
785.0688739807
 21
31.583585953
  0
LINE
  8
0
 62
7
  6
CONTINUOUS
 10
791.4860614807
 20
31.583585953
 11
791.7751235396
 21
31.583585953
  0
LINE
  8
0
 62
7
  6
CONTINUOUS
 10
785.4735615909
 20
31.7126406987
 11
785.8204365909
 21
31.7126406987
  0
LINE
  8
0
 62
7
  6
CONTINUOUS
 10
790.6188739807
 20
31.7126406987
 11
790.9657489807
 21
31.7126406987
  0
LINE
  8
0
 62
7
  6
CONTINUOUS
 10
790.9657489807
 20
31.8416954444
 11
790.6188739807
 21
31.8416954444
  0
LINE
  8
0
 62
7
  6
CONTINUOUS
 10
788.8844989807
 20
31.8416954444
 11
788.6532492012
 21
31.8416954444
  0
LINE
  8
0
 62
7
  6
CONTINUOUS
 10
788.1329367012
 20
31.8416954444
 11
787.8438739807
 21
31.8416954444
  0
LINE
  8
0
 62
7
  6
CONTINUOUS
 10
787.3813737601
 20
31.8416954444
 11
787.0923117012
 21
31.8416954444
  0
LINE
  8
0
 62
7
  6
CONTINUOUS
 10
785.8204365909
 20
31.8416954444
 11
785.4735615909
 21
31.8416954444
  0
LINE
  8
0
 62
7
  6
CONTINUOUS
 10
783.7391865909
 20
31.8416954444
 11
783.5079364807
 21
31.8416954444
  0
LINE
  8
0
 62
7
  6
CONTINUOUS
 10
787.0923117012
 20
32.164332399
 11
787.3813737601
 21
32.164332399
  0
LINE
  8
0
 62
7
  6
CONTINUOUS
 10
787.3813737601
 20
32.3256508311
 11
787.0923117012
 21
32.3256508311
  0
LINE
  8
0
 62
7
  6
CONTINUOUS
 10
782.9876239807
 20
32.3256508311
 11
782.6985614255
 21
32.3256508311
  0
LINE
  8
0
 62
7
  6
CONTINUOUS
 10
782.025405743
 20
32.612536077
 11
782.4379770916
 21
32.612536077
  0
LINE
  8
0
 62
7
  6
CONTINUOUS
 10
783.6647500052
 20
32.612536077
 11
785.0581926282
 21
32.612536077
  0
LINE
  8
0
 62
7
  6
CONTINUOUS
 10
785.3860614807
 20
32.612536077
 11
786.7795041036
 21
32.612536077
  0
LINE
  8
0
 62
7
  6
CONTINUOUS
 10
788.6647500052
 20
32.612536077
 11
790.0581926282
 21
32.612536077
  0
LINE
  8
0
 62
7
  6
CONTINUOUS
 10
790.3860614807
 20
32.612536077
 11
791.7795041036
 21
32.612536077
  0
LINE
  8
0
 62
7
  6
CONTINUOUS
 10
788.4219987601
 20
31.809431758
 11
788.2485612601
 21
31.7449043851
  0
LINE
  8
0
 62
7
  6
CONTINUOUS
 10
785.9938737601
 20
30.8415210777
 11
786.1673112601
 21
30.9060484591
  0
LINE
  8
0
 62
7
  6
CONTINUOUS
 10
791.4282492012
 20
30.8415210777
 11
791.6594989807
 21
30.9060484591
  0
LINE
  8
0
 62
7
  6
CONTINUOUS
 10
791.4282492012
 20
31.0028395296
 11
791.3126239807
 21
30.9705758432
  0
LINE
  8
0
 62
7
  6
CONTINUOUS
 10
790.3876242012
 20
31.6803770123
 11
790.6188739807
 21
31.7126406987
  0
LINE
  8
0
 62
7
  6
CONTINUOUS
 10
788.4219987601
 20
31.6803770123
 11
788.6532492012
 21
31.7126406987
  0
LINE
  8
0
 62
7
  6
CONTINUOUS
 10
785.3579363704
 20
31.3254764164
 11
785.5891864807
 21
31.3577401029
  0
LINE
  8
0
 62
7
  6
CONTINUOUS
 10
788.6532492012
 20
31.8416954444
 11
788.4219987601
 21
31.809431758
  0
LINE
  8
0
 62
7
  6
CONTINUOUS
 10
785.2423114807
 20
31.6803770123
 11
785.4735615909
 21
31.7126406987
  0
LINE
  8
0
 62
7
  6
CONTINUOUS
 10
790.6188739807
 20
31.8416954444
 11
790.2719989807
 21
31.809431758
  0
LINE
  8
0
 62
7
  6
CONTINUOUS
 10
785.5891864807
 20
31.4867948937
 11
785.2423114807
 21
31.4545312073
  0
LINE
  8
0
 62
7
  6
CONTINUOUS
 10
781.3688739531
 20
31.8416954444
 11
781.0219989944
 21
31.809431758
  0
LINE
  8
0
 62
7
  6
CONTINUOUS
 10
785.4735615909
 20
31.8416954444
 11
785.0688739807
 21
31.809431758
  0
LINE
  8
0
 62
7
  6
CONTINUOUS
 10
782.8450778741
 20
33.7600770606
 11
782.1893401692
 21
33.7600770606
  0
LINE
  8
0
 62
7
  6
CONTINUOUS
 10
788.2485612601
 20
31.6158496394
 11
788.4219987601
 21
31.6803770123
  0
LINE
  8
0
 62
7
  6
CONTINUOUS
 10
790.2719989807
 20
31.6481133259
 11
790.3876242012
 21
31.6803770123
  0
LINE
  8
0
 62
7
  6
CONTINUOUS
 10
790.2719989807
 20
31.809431758
 11
790.0407492012
 21
31.7449043851
  0
LINE
  8
0
 62
7
  6
CONTINUOUS
 10
785.9938737601
 20
31.0028395296
 11
785.7048113704
 21
30.9383121455
  0
LINE
  8
0
 62
7
  6
CONTINUOUS
 10
783.2766863704
 20
31.6803770123
 11
783.5079364807
 21
31.7126406987
  0
LINE
  8
0
 62
7
  6
CONTINUOUS
 10
783.5079364807
 20
31.8416954444
 11
783.2766863704
 21
31.809431758
  0
LINE
  8
0
 62
7
  6
CONTINUOUS
 10
781.0798114807
 20
31.6803770123
 11
781.3110615082
 21
31.7126406987
  0
LINE
  8
0
 62
7
  6
CONTINUOUS
 10
787.5991762348
 20
35.2354868967
 11
788.2549139397
 21
35.2354868967
  0
LINE
  8
0
 62
7
  6
CONTINUOUS
 10
785.2423114807
 20
31.29321273
 11
785.3579363704
 21
31.3254764164
  0
LINE
  8
0
 62
7
  6
CONTINUOUS
 10
785.2423114807
 20
31.4545312073
 11
785.0110613704
 21
31.3900038345
  0
LINE
  8
0
 62
7
  6
CONTINUOUS
 10
785.1266865909
 20
31.6481133259
 11
785.2423114807
 21
31.6803770123
  0
LINE
  8
0
 62
7
  6
CONTINUOUS
 10
781.7735614807
 20
30.8415210777
 11
782.0048114255
 21
30.9060484591
  0
LINE
  8
0
 62
7
  6
CONTINUOUS
 10
785.0688739807
 20
31.809431758
 11
784.9532490909
 21
31.7771680715
  0
LINE
  8
0
 62
7
  6
CONTINUOUS
 10
781.0219989944
 20
31.809431758
 11
780.8485614944
 21
31.7771680715
  0
LINE
  8
0
 62
7
  6
CONTINUOUS
 10
791.7795041036
 20
36.3830278803
 11
790.3860614807
 21
36.3830278803
  0
LINE
  8
0
 62
7
  6
CONTINUOUS
 10
788.4188483659
 20
36.3830278803
 11
788.0062770173
 21
36.3830278803
  0
LINE
  8
0
 62
7
  6
CONTINUOUS
 10
786.7795041036
 20
36.3830278803
 11
785.3860614807
 21
36.3830278803
  0
LINE
  8
0
 62
7
  6
CONTINUOUS
 10
785.0581926282
 20
36.3830278803
 11
783.6647500052
 21
36.3830278803
  0
LINE
  8
0
 62
7
  6
CONTINUOUS
 10
781.7795041036
 20
36.3830278803
 11
780.3860614807
 21
36.3830278803
  0
LINE
  8
0
 62
7
  6
CONTINUOUS
 10
780.9641864669
 20
31.6481133259
 11
781.0798114807
 21
31.6803770123
  0
CIRCLE
  8
0
 62
7
  6
CONTINUOUS
 10
791.0827827921
 20
38.7190934541
 40
2.0901639344
  0
ARC
  8
0
 62
7
  6
CONTINUOUS
 10
782.025405743
 20
34.2518803393
 40
1.6393442623
 50
180.0
 51
270.0
  0
ARC
  8
0
 62
7
  6
CONTINUOUS
 10
788.4188483659
 20
34.743683618
 40
1.6393442623
 50
0.0
 51
90.0
  0
ARC
  8
0
 62
7
  6
CONTINUOUS
 10
782.4379770916
 20
34.0879459131
 40
1.4754098361
 50
270.0
 51
326.2510114041
  0
ARC
  8
0
 62
7
  6
CONTINUOUS
 10
788.0062770173
 20
34.9076180442
 40
1.4754098361
 50
90.0
 51
146.2510114041
  0
ARC
  8
0
 62
7
  6
CONTINUOUS
 10
782.8450778741
 20
34.5797491918
 40
0.8196721311
 50
270.0
 51
360.0
  0
ARC
  8
0
 62
7
  6
CONTINUOUS
 10
787.5991762348
 20
34.4158147655
 40
0.8196721311
 50
90.0
 51
180.0
  0
ARC
  8
0
 62
7
  6
CONTINUOUS
 10
782.1893401692
 20
34.1699131262
 40
0.4098360656
 50
180.0
 51
270.0
  0
ARC
  8
0
 62
7
  6
CONTINUOUS
 10
788.2549139397
 20
34.8256508311
 40
0.4098360656
 50
0.0
 51
90.0
  0
SOLID
  8
0
 62
7
  6
CONTINUOUS
 10
787.0923117012
 20
32.1643327593
 11
787.0923117012
 21
32.3256512429
 12
787.3813737601
 22
32.1643327593
 13
787.3813737601
 23
32.3256512429
  0
SOLID
  8
0
 62
7
  6
CONTINUOUS
 10
781.3688739531
 20
31.841695792
 11
781.7735614807
 21
31.8094316148
 12
781.0219989944
 22
31.8094316148
 13
781.0219989944
 23
31.8094316148
  0
SOLID
  8
0
 62
7
  6
CONTINUOUS
 10
780.8485614944
 20
31.7771687019
 11
781.0219989944
 21
31.8094316148
 12
781.7735614807
 22
31.8094316148
 13
781.7735614807
 23
31.8094316148
  0
SOLID
  8
0
 62
7
  6
CONTINUOUS
 10
781.7735614807
 20
31.8094316148
 11
782.0048114255
 21
31.7449043986
 12
780.8485614944
 22
31.7771687019
 13
780.8485614944
 23
31.7771687019
  0
SOLID
  8
0
 62
7
  6
CONTINUOUS
 10
780.6751239738
 20
31.712640202
 11
780.8485614944
 21
31.7771687019
 12
782.0048114255
 22
31.7449043986
 13
782.0048114255
 23
31.7449043986
  0
SOLID
  8
0
 62
7
  6
CONTINUOUS
 10
780.6751239738
 20
31.712640202
 11
782.0048114255
 21
31.7449043986
 12
781.3110615082
 22
31.712640202
 13
781.3110615082
 23
31.712640202
  0
SOLID
  8
0
 62
7
  6
CONTINUOUS
 10
781.3110615082
 20
31.712640202
 11
782.0048114255
 21
31.7449043986
 12
781.7157489531
 22
31.6803773084
 13
781.7157489531
 23
31.6803773084
  0
SOLID
  8
0
 62
7
  6
CONTINUOUS
 10
782.0048114255
 20
31.7449043986
 11
782.1782489255
 21
31.6481130052
 12
781.7157489531
 22
31.6803773084
 13
781.7157489531
 23
31.6803773084
  0
SOLID
  8
0
 62
7
  6
CONTINUOUS
 10
781.8891865358
 20
31.6158502183
 11
781.7157489531
 21
31.6803773084
 12
782.1782489255
 22
31.6481130052
 13
782.1782489255
 23
31.6481130052
  0
SOLID
  8
0
 62
7
  6
CONTINUOUS
 10
781.8891865358
 20
31.6158502183
 11
782.1782489255
 21
31.6481130052
 12
781.9469989807
 22
31.5190586669
 13
781.9469989807
 23
31.5190586669
  0
SOLID
  8
0
 62
7
  6
CONTINUOUS
 10
782.1782489255
 20
31.6481130052
 11
782.2360615358
 21
31.5190586669
 12
781.9469989807
 22
31.5190586669
 13
781.9469989807
 23
31.5190586669
  0
SOLID
  8
0
 62
7
  6
CONTINUOUS
 10
783.2766863704
 20
31.8094307377
 11
783.5079364807
 21
31.841695041
 12
783.7391865909
 22
31.841695041
 13
783.7391865909
 23
31.841695041
  0
SOLID
  8
0
 62
7
  6
CONTINUOUS
 10
783.7391865909
 20
31.841695041
 11
783.9126240909
 21
31.8094307377
 12
783.2766863704
 22
31.8094307377
 13
783.2766863704
 23
31.8094307377
  0
SOLID
  8
0
 62
7
  6
CONTINUOUS
 10
783.1032490358
 20
31.7449036475
 11
783.2766863704
 21
31.8094307377
 12
783.9126240909
 22
31.8094307377
 13
783.9126240909
 23
31.8094307377
  0
SOLID
  8
0
 62
7
  6
CONTINUOUS
 10
783.9126240909
 20
31.8094307377
 11
784.0860615909
 21
31.7449036475
 12
783.1032490358
 22
31.7449036475
 13
783.1032490358
 23
31.7449036475
  0
SOLID
  8
0
 62
7
  6
CONTINUOUS
 10
784.0860615909
 20
31.7449036475
 11
783.5079364807
 21
31.7126400953
 12
783.1032490358
 22
31.7449036475
 13
783.1032490358
 23
31.7449036475
  0
SOLID
  8
0
 62
7
  6
CONTINUOUS
 10
782.9876239807
 20
31.6803765574
 11
783.1032490358
 21
31.7449036475
 12
783.5079364807
 22
31.7126400953
 13
783.5079364807
 23
31.7126400953
  0
SOLID
  8
0
 62
7
  6
CONTINUOUS
 10
783.5079364807
 20
31.7126400953
 11
783.2766863704
 21
31.6803765574
 12
782.9876239807
 22
31.6803765574
 13
782.9876239807
 23
31.6803765574
  0
SOLID
  8
0
 62
7
  6
CONTINUOUS
 10
783.5079364807
 20
31.7126400953
 11
784.0860615909
 21
31.7449036475
 12
783.7391865909
 22
31.6803765574
 13
783.7391865909
 23
31.6803765574
  0
SOLID
  8
0
 62
7
  6
CONTINUOUS
 10
784.0860615909
 20
31.7449036475
 11
784.2016864807
 21
31.6803765574
 12
783.7391865909
 22
31.6803765574
 13
783.7391865909
 23
31.6803765574
  0
SOLID
  8
0
 62
7
  6
CONTINUOUS
 10
783.8548114807
 20
31.6481130052
 11
783.7391865909
 21
31.6803765574
 12
784.2016864807
 22
31.6803765574
 13
784.2016864807
 23
31.6803765574
  0
SOLID
  8
0
 62
7
  6
CONTINUOUS
 10
784.2016864807
 20
31.6803765574
 11
784.2594990909
 21
31.6158494672
 12
783.8548114807
 22
31.6481130052
 13
783.8548114807
 23
31.6481130052
  0
SOLID
  8
0
 62
7
  6
CONTINUOUS
 10
783.9704363704
 20
31.583585915
 11
783.8548114807
 21
31.6481130052
 12
784.2594990909
 22
31.6158494672
 13
784.2594990909
 23
31.6158494672
  0
SOLID
  8
0
 62
7
  6
CONTINUOUS
 10
783.9704363704
 20
31.583585915
 11
784.2594990909
 21
31.6158494672
 12
784.0282489807
 22
31.4545309836
 13
784.0282489807
 23
31.4545309836
  0
SOLID
  8
0
 62
7
  6
CONTINUOUS
 10
784.2594990909
 20
31.6158494672
 11
784.3173113704
 21
31.4545309836
 12
784.0282489807
 22
31.4545309836
 13
784.0282489807
 23
31.4545309836
  0
SOLID
  8
0
 62
7
  6
CONTINUOUS
 10
783.2766863704
 20
31.6803765574
 11
783.1032490358
 21
31.6158494672
 12
782.9876239807
 22
31.6803765574
 13
782.9876239807
 23
31.6803765574
  0
SOLID
  8
0
 62
7
  6
CONTINUOUS
 10
783.1032490358
 20
31.6158494672
 11
782.9876239807
 21
31.5513216117
 12
782.9876239807
 22
31.6803765574
 13
782.9876239807
 23
31.6803765574
  0
SOLID
  8
0
 62
7
  6
CONTINUOUS
 10
782.9876239807
 20
31.5513216117
 11
782.6985614255
 21
30.8092570492
 12
782.9876239807
 22
31.6803765574
 13
782.9876239807
 23
31.6803765574
  0
SOLID
  8
0
 62
7
  6
CONTINUOUS
 10
782.9876239807
 20
31.6803765574
 11
782.6985614255
 21
30.8092570492
 12
782.9876239807
 22
32.3256504918
 13
782.9876239807
 23
32.3256504918
  0
SOLID
  8
0
 62
7
  6
CONTINUOUS
 10
782.6985614255
 20
30.8092570492
 11
782.6985614255
 21
32.3256504918
 12
782.9876239807
 22
32.3256504918
 13
782.9876239807
 23
32.3256504918
  0
SOLID
  8
0
 62
7
  6
CONTINUOUS
 10
782.9876239807
 20
31.5513216117
 11
782.9876239807
 21
30.8092570492
 12
782.6985614255
 22
30.8092570492
 13
782.6985614255
 23
30.8092570492
  0
SOLID
  8
0
 62
7
  6
CONTINUOUS
 10
784.0282489807
 20
30.8092570492
 11
784.0282489807
 21
31.4545309836
 12
784.3173113704
 22
31.4545309836
 13
784.3173113704
 23
31.4545309836
  0
SOLID
  8
0
 62
7
  6
CONTINUOUS
 10
784.3173113704
 20
31.4545309836
 11
784.3173113704
 21
30.8092570492
 12
784.0282489807
 22
30.8092570492
 13
784.0282489807
 23
30.8092570492
  0
SOLID
  8
0
 62
7
  6
CONTINUOUS
 10
785.0688739807
 20
31.809431823
 11
785.4735615909
 21
31.8416958158
 12
785.8204365909
 22
31.8416958158
 13
785.8204365909
 23
31.8416958158
  0
SOLID
  8
0
 62
7
  6
CONTINUOUS
 10
785.8204365909
 20
31.8416958158
 11
786.1673112601
 21
31.809431823
 12
785.0688739807
 22
31.809431823
 13
785.0688739807
 23
31.809431823
  0
SOLID
  8
0
 62
7
  6
CONTINUOUS
 10
784.9532490909
 20
31.7771687019
 11
785.0688739807
 21
31.809431823
 12
786.1673112601
 22
31.809431823
 13
786.1673112601
 23
31.809431823
  0
SOLID
  8
0
 62
7
  6
CONTINUOUS
 10
786.1673112601
 20
31.809431823
 11
786.3407487601
 21
31.7449043986
 12
784.9532490909
 22
31.7771687019
 13
784.9532490909
 23
31.7771687019
  0
SOLID
  8
0
 62
7
  6
CONTINUOUS
 10
784.8376238704
 20
31.7126398448
 11
784.9532490909
 21
31.7771687019
 12
786.3407487601
 22
31.7449043986
 13
786.3407487601
 23
31.7449043986
  0
SOLID
  8
0
 62
7
  6
CONTINUOUS
 10
784.8376238704
 20
31.7126398448
 11
786.3407487601
 21
31.7449043986
 12
785.4735615909
 22
31.7126398448
 13
785.4735615909
 23
31.7126398448
  0
SOLID
  8
0
 62
7
  6
CONTINUOUS
 10
785.4735615909
 20
31.7126398448
 11
786.3407487601
 21
31.7449043986
 12
785.8204365909
 22
31.7126398448
 13
785.8204365909
 23
31.7126398448
  0
SOLID
  8
0
 62
7
  6
CONTINUOUS
 10
785.8204365909
 20
31.7126398448
 11
786.3407487601
 21
31.7449043986
 12
786.0516867012
 22
31.6803774007
 13
786.0516867012
 23
31.6803774007
  0
SOLID
  8
0
 62
7
  6
CONTINUOUS
 10
786.3407487601
 20
31.7449043986
 11
786.4563739807
 21
31.6803774007
 12
786.0516867012
 22
31.6803774007
 13
786.0516867012
 23
31.6803774007
  0
SOLID
  8
0
 62
7
  6
CONTINUOUS
 10
784.7798115909
 20
31.6481126336
 11
784.8376238704
 21
31.7126398448
 12
785.4735615909
 22
31.7126398448
 13
785.4735615909
 23
31.7126398448
  0
SOLID
  8
0
 62
7
  6
CONTINUOUS
 10
786.1673112601
 20
31.6481126336
 11
786.0516867012
 21
31.6803774007
 12
786.4563739807
 22
31.6803774007
 13
786.4563739807
 23
31.6803774007
  0
SOLID
  8
0
 62
7
  6
CONTINUOUS
 10
786.1673112601
 20
31.6481126336
 11
786.4563739807
 21
31.6803774007
 12
786.2251242012
 22
31.5835861968
 13
786.2251242012
 23
31.5835861968
  0
SOLID
  8
0
 62
7
  6
CONTINUOUS
 10
786.4563739807
 20
31.6803774007
 11
786.5141862601
 21
31.5835861968
 12
786.2251242012
 22
31.5835861968
 13
786.2251242012
 23
31.5835861968
  0
SOLID
  8
0
 62
7
  6
CONTINUOUS
 10
786.2251242012
 20
31.4867945216
 11
786.2251242012
 21
31.5835861968
 12
786.5141862601
 22
31.5835861968
 13
786.5141862601
 23
31.5835861968
  0
SOLID
  8
0
 62
7
  6
CONTINUOUS
 10
786.2251242012
 20
31.4867945216
 11
786.5141862601
 21
31.5835861968
 12
786.2251242012
 22
31.3577403412
 13
786.2251242012
 23
31.3577403412
  0
SOLID
  8
0
 62
7
  6
CONTINUOUS
 10
786.2251242012
 20
31.3577403412
 11
786.5141862601
 21
31.5835861968
 12
786.2251242012
 22
31.1641579843
 13
786.2251242012
 23
31.1641579843
  0
SOLID
  8
0
 62
7
  6
CONTINUOUS
 10
786.5141862601
 20
31.5835861968
 11
786.5141862601
 21
31.0673661609
 12
786.2251242012
 22
31.1641579843
 13
786.2251242012
 23
31.1641579843
  0
SOLID
  8
0
 62
7
  6
CONTINUOUS
 10
788.4219987601
 20
31.8094310465
 11
788.6532492012
 21
31.8416957661
 12
788.8844989807
 22
31.8416957661
 13
788.8844989807
 23
31.8416957661
  0
SOLID
  8
0
 62
7
  6
CONTINUOUS
 10
788.8844989807
 20
31.8416957661
 11
789.0579364807
 21
31.8094310465
 12
788.4219987601
 22
31.8094310465
 13
788.4219987601
 23
31.8094310465
  0
SOLID
  8
0
 62
7
  6
CONTINUOUS
 10
788.2485612601
 20
31.7449047044
 11
788.4219987601
 21
31.8094310465
 12
789.0579364807
 22
31.8094310465
 13
789.0579364807
 23
31.8094310465
  0
SOLID
  8
0
 62
7
  6
CONTINUOUS
 10
789.0579364807
 20
31.8094310465
 11
789.2313739807
 21
31.7449047044
 12
788.2485612601
 22
31.7449047044
 13
788.2485612601
 23
31.7449047044
  0
SOLID
  8
0
 62
7
  6
CONTINUOUS
 10
789.2313739807
 20
31.7449047044
 11
788.6532492012
 21
31.7126400953
 12
788.2485612601
 22
31.7449047044
 13
788.2485612601
 23
31.7449047044
  0
SOLID
  8
0
 62
7
  6
CONTINUOUS
 10
788.1329367012
 20
31.6803773299
 11
788.2485612601
 21
31.7449047044
 12
788.6532492012
 22
31.7126400953
 13
788.6532492012
 23
31.7126400953
  0
SOLID
  8
0
 62
7
  6
CONTINUOUS
 10
788.6532492012
 20
31.7126400953
 11
788.4219987601
 21
31.6803773299
 12
788.1329367012
 22
31.6803773299
 13
788.1329367012
 23
31.6803773299
  0
SOLID
  8
0
 62
7
  6
CONTINUOUS
 10
788.6532492012
 20
31.7126400953
 11
789.2313739807
 21
31.7449047044
 12
788.8844989807
 22
31.6803773299
 13
788.8844989807
 23
31.6803773299
  0
SOLID
  8
0
 62
7
  6
CONTINUOUS
 10
789.2313739807
 20
31.7449047044
 11
789.3469992012
 21
31.6803773299
 12
788.8844989807
 22
31.6803773299
 13
788.8844989807
 23
31.6803773299
  0
SOLID
  8
0
 62
7
  6
CONTINUOUS
 10
789.0001242012
 20
31.6481130052
 11
788.8844989807
 21
31.6803773299
 12
789.3469992012
 22
31.6803773299
 13
789.3469992012
 23
31.6803773299
  0
SOLID
  8
0
 62
7
  6
CONTINUOUS
 10
789.0001242012
 20
31.6481130052
 11
789.3469992012
 21
31.6803773299
 12
789.1157487601
 22
31.5835862682
 13
789.1157487601
 23
31.5835862682
  0
SOLID
  8
0
 62
7
  6
CONTINUOUS
 10
789.3469992012
 20
31.6803773299
 11
789.4048114807
 21
31.5835862682
 12
789.1157487601
 22
31.5835862682
 13
789.1157487601
 23
31.5835862682
  0
SOLID
  8
0
 62
7
  6
CONTINUOUS
 10
789.1735617012
 20
31.422267832
 11
789.1157487601
 21
31.5835862682
 12
789.4048114807
 22
31.5835862682
 13
789.4048114807
 23
31.5835862682
  0
SOLID
  8
0
 62
7
  6
CONTINUOUS
 10
789.4048114807
 20
31.5835862682
 11
789.4626237601
 21
31.422267832
 12
789.1735617012
 22
31.422267832
 13
789.1735617012
 23
31.422267832
  0
SOLID
  8
0
 62
7
  6
CONTINUOUS
 10
788.4219987601
 20
31.6803773299
 11
788.2485612601
 21
31.6158502183
 12
788.1329367012
 22
31.6803773299
 13
788.1329367012
 23
31.6803773299
  0
SOLID
  8
0
 62
7
  6
CONTINUOUS
 10
788.2485612601
 20
31.6158502183
 11
788.1329367012
 21
31.5513216117
 12
788.1329367012
 22
31.6803773299
 13
788.1329367012
 23
31.6803773299
  0
SOLID
  8
0
 62
7
  6
CONTINUOUS
 10
788.1329367012
 20
31.5513216117
 11
787.8438739807
 21
30.8092577743
 12
788.1329367012
 22
31.6803773299
 13
788.1329367012
 23
31.6803773299
  0
SOLID
  8
0
 62
7
  6
CONTINUOUS
 10
788.1329367012
 20
31.6803773299
 11
787.8438739807
 21
30.8092577743
 12
788.1329367012
 22
31.8416957661
 13
788.1329367012
 23
31.8416957661
  0
SOLID
  8
0
 62
7
  6
CONTINUOUS
 10
787.8438739807
 20
30.8092577743
 11
787.8438739807
 21
31.8416957661
 12
788.1329367012
 22
31.8416957661
 13
788.1329367012
 23
31.8416957661
  0
SOLID
  8
0
 62
7
  6
CONTINUOUS
 10
788.1329367012
 20
31.5513216117
 11
788.1329367012
 21
30.8092577743
 12
787.8438739807
 22
30.8092577743
 13
787.8438739807
 23
30.8092577743
  0
SOLID
  8
0
 62
7
  6
CONTINUOUS
 10
789.1735617012
 20
30.8092577743
 11
789.1735617012
 21
31.422267832
 12
789.4626237601
 22
31.422267832
 13
789.4626237601
 23
31.422267832
  0
SOLID
  8
0
 62
7
  6
CONTINUOUS
 10
789.4626237601
 20
31.422267832
 11
789.4626237601
 21
30.8092577743
 12
789.1735617012
 22
30.8092577743
 13
789.1735617012
 23
30.8092577743
  0
SOLID
  8
0
 62
7
  6
CONTINUOUS
 10
790.2719989807
 20
31.8094314924
 11
790.6188739807
 21
31.8416958387
 12
790.9657489807
 22
31.8416958387
 13
790.9657489807
 23
31.8416958387
  0
SOLID
  8
0
 62
7
  6
CONTINUOUS
 10
790.9657489807
 20
31.8416958387
 11
791.3126239807
 21
31.8094314924
 12
790.2719989807
 22
31.8094314924
 13
790.2719989807
 23
31.8094314924
  0
SOLID
  8
0
 62
7
  6
CONTINUOUS
 10
790.0407492012
 20
31.7449043986
 11
790.2719989807
 21
31.8094314924
 12
791.3126239807
 22
31.8094314924
 13
791.3126239807
 23
31.8094314924
  0
SOLID
  8
0
 62
7
  6
CONTINUOUS
 10
790.0407492012
 20
31.7449043986
 11
791.3126239807
 21
31.8094314888
 12
791.4860614807
 22
31.7771687019
 13
791.4860614807
 23
31.7771687019
  0
SOLID
  8
0
 62
7
  6
CONTINUOUS
 10
790.0407492012
 20
31.7449043986
 11
791.4860614807
 21
31.7771687019
 12
790.6188739807
 22
31.7126401399
 13
790.6188739807
 23
31.7126401399
  0
SOLID
  8
0
 62
7
  6
CONTINUOUS
 10
790.6188739807
 20
31.7126401399
 11
791.4860614807
 21
31.7771687019
 12
790.9657489807
 22
31.7126401399
 13
790.9657489807
 23
31.7126401399
  0
SOLID
  8
0
 62
7
  6
CONTINUOUS
 10
791.4860614807
 20
31.7771687019
 11
791.6594989807
 21
31.7126401399
 12
790.9657489807
 22
31.7126401399
 13
790.9657489807
 23
31.7126401399
  0
SOLID
  8
0
 62
7
  6
CONTINUOUS
 10
791.3126239807
 20
31.6803773084
 11
790.9657489807
 21
31.7126401399
 12
791.6594989807
 22
31.7126401399
 13
791.6594989807
 23
31.7126401399
  0
SOLID
  8
0
 62
7
  6
CONTINUOUS
 10
789.9251239807
 20
31.6481128977
 11
790.0407492012
 21
31.7449043986
 12
790.6188739807
 22
31.7126401399
 13
790.6188739807
 23
31.7126401399
  0
SOLID
  8
0
 62
7
  6
CONTINUOUS
 10
791.3126239807
 20
31.6803773084
 11
791.6594989807
 21
31.7126401399
 12
791.4282492012
 22
31.6481128977
 13
791.4282492012
 23
31.6481128977
  0
SOLID
  8
0
 62
7
  6
CONTINUOUS
 10
791.4282492012
 20
31.6481128977
 11
791.6594989807
 21
31.7126401399
 12
791.4860614807
 22
31.5835858812
 13
791.4860614807
 23
31.5835858812
  0
SOLID
  8
0
 62
7
  6
CONTINUOUS
 10
791.6594989807
 20
31.7126401399
 11
791.7751235396
 21
31.5835858812
 12
791.4860614807
 22
31.5835858812
 13
791.4860614807
 23
31.5835858812
  0
SOLID
  8
0
 62
7
  6
CONTINUOUS
 10
781.0798114807
 20
31.6803773084
 11
780.5594989807
 21
31.6481129264
 12
781.3110615082
 22
31.7126401456
 13
781.3110615082
 23
31.7126401456
  0
SOLID
  8
0
 62
7
  6
CONTINUOUS
 10
780.5594989807
 20
31.6481129264
 11
780.6751239738
 21
31.7126401456
 12
781.3110615082
 22
31.7126401456
 13
781.3110615082
 23
31.7126401456
  0
SOLID
  8
0
 62
7
  6
CONTINUOUS
 10
781.0798114807
 20
31.6803773084
 11
780.9641864669
 21
31.6481129264
 12
780.5594989807
 22
31.6481129264
 13
780.5594989807
 23
31.6481129264
  0
SOLID
  8
0
 62
7
  6
CONTINUOUS
 10
780.4438739824
 20
31.5190588248
 11
780.5594989807
 21
31.6481129264
 12
780.9641864669
 22
31.6481129264
 13
780.9641864669
 23
31.6481129264
  0
SOLID
  8
0
 62
7
  6
CONTINUOUS
 10
784.7798115909
 20
31.6481130555
 11
785.4735615909
 21
31.7126400953
 12
785.2423114807
 22
31.6803773084
 13
785.2423114807
 23
31.6803773084
  0
SOLID
  8
0
 62
7
  6
CONTINUOUS
 10
785.2423114807
 20
31.6803773084
 11
785.1266865909
 21
31.6481130555
 12
784.7798115909
 22
31.6481130555
 13
784.7798115909
 23
31.6481130555
  0
SOLID
  8
0
 62
7
  6
CONTINUOUS
 10
784.7798115909
 20
31.5835859653
 11
784.7798115909
 21
31.6481130555
 12
785.1266865909
 22
31.6481130555
 13
785.1266865909
 23
31.6481130555
  0
SOLID
  8
0
 62
7
  6
CONTINUOUS
 10
785.1266865909
 20
31.6481130555
 11
785.0688739807
 21
31.5835859653
 12
784.7798115909
 22
31.5835859653
 13
784.7798115909
 23
31.5835859653
  0
SOLID
  8
0
 62
7
  6
CONTINUOUS
 10
789.9251239807
 20
31.6481130555
 11
790.6188739807
 21
31.7126400953
 12
790.3876242012
 22
31.6803773084
 13
790.3876242012
 23
31.6803773084
  0
SOLID
  8
0
 62
7
  6
CONTINUOUS
 10
790.3876242012
 20
31.6803773084
 11
790.2719989807
 21
31.6481130555
 12
789.9251239807
 22
31.6481130555
 13
789.9251239807
 23
31.6481130555
  0
SOLID
  8
0
 62
7
  6
CONTINUOUS
 10
789.9251239807
 20
31.5835859653
 11
789.9251239807
 21
31.6481130555
 12
790.2719989807
 22
31.6481130555
 13
790.2719989807
 23
31.6481130555
  0
SOLID
  8
0
 62
7
  6
CONTINUOUS
 10
790.2719989807
 20
31.6481130555
 11
790.2141867012
 21
31.5835859653
 12
789.9251239807
 22
31.5835859653
 13
789.9251239807
 23
31.5835859653
  0
SOLID
  8
0
 62
7
  6
CONTINUOUS
 10
790.0407492012
 20
31.4545317347
 11
789.9251239807
 21
31.5835859653
 12
790.2141867012
 22
31.5835859653
 13
790.2141867012
 23
31.5835859653
  0
SOLID
  8
0
 62
7
  6
CONTINUOUS
 10
780.4438739824
 20
31.5190588248
 11
780.9641864669
 21
31.6481130052
 12
780.7907489669
 22
31.5513216117
 13
780.7907489669
 23
31.5513216117
  0
SOLID
  8
0
 62
7
  6
CONTINUOUS
 10
780.7907489669
 20
31.5513216117
 11
780.7329364807
 21
31.4867945216
 12
780.4438739824
 22
31.5190588248
 13
780.4438739824
 23
31.5190588248
  0
SOLID
  8
0
 62
7
  6
CONTINUOUS
 10
780.3860614807
 20
31.325476038
 11
780.4438739824
 21
31.5190588248
 12
780.7329364807
 22
31.4867945216
 13
780.7329364807
 23
31.4867945216
  0
SOLID
  8
0
 62
7
  6
CONTINUOUS
 10
785.2423114807
 20
31.4545317347
 11
785.5891864807
 21
31.4867945557
 12
786.2251242012
 22
31.4867945557
 13
786.2251242012
 23
31.4867945557
  0
SOLID
  8
0
 62
7
  6
CONTINUOUS
 10
785.2423114807
 20
31.4545317347
 11
786.2251242012
 21
31.4867945557
 12
785.0110613704
 22
31.3900038345
 13
785.0110613704
 23
31.3900038345
  0
SOLID
  8
0
 62
7
  6
CONTINUOUS
 10
785.0110613704
 20
31.3900038345
 11
786.2251242012
 21
31.4867945557
 12
785.5891864807
 22
31.3577403754
 13
785.5891864807
 23
31.3577403754
  0
SOLID
  8
0
 62
7
  6
CONTINUOUS
 10
786.2251242012
 20
31.4867945557
 11
786.2251242012
 21
31.3577403754
 12
785.5891864807
 22
31.3577403754
 13
785.5891864807
 23
31.3577403754
  0
SOLID
  8
0
 62
7
  6
CONTINUOUS
 10
790.0407492012
 20
31.4545313481
 11
790.2141867012
 21
31.583585915
 12
790.2719989807
 22
31.5190588248
 13
790.2719989807
 23
31.5190588248
  0
SOLID
  8
0
 62
7
  6
CONTINUOUS
 10
790.2719989807
 20
31.5190588248
 11
790.4454364807
 21
31.4545313481
 12
790.0407492012
 22
31.4545313481
 13
790.0407492012
 23
31.4545313481
  0
SOLID
  8
0
 62
7
  6
CONTINUOUS
 10
790.2719989807
 20
31.3577403412
 11
790.0407492012
 21
31.4545313481
 12
790.4454364807
 22
31.4545313481
 13
790.4454364807
 23
31.4545313481
  0
SOLID
  8
0
 62
7
  6
CONTINUOUS
 10
790.4454364807
 20
31.4545313481
 11
791.4282492012
 21
31.2932132511
 12
790.2719989807
 22
31.3577403412
 13
790.2719989807
 23
31.3577403412
  0
SOLID
  8
0
 62
7
  6
CONTINUOUS
 10
791.2548117012
 20
31.1964222346
 11
790.2719989807
 21
31.3577403412
 12
791.4282492012
 22
31.2932132511
 13
791.4282492012
 23
31.2932132511
  0
SOLID
  8
0
 62
7
  6
CONTINUOUS
 10
791.4282492012
 20
31.2932132511
 11
791.6594989807
 21
31.1964222346
 12
791.2548117012
 22
31.1964222346
 13
791.2548117012
 23
31.1964222346
  0
SOLID
  8
0
 62
7
  6
CONTINUOUS
 10
791.4282492012
 20
31.1318947675
 11
791.2548117012
 21
31.1964222346
 12
791.6594989807
 22
31.1964222346
 13
791.6594989807
 23
31.1964222346
  0
SOLID
  8
0
 62
7
  6
CONTINUOUS
 10
791.4282492012
 20
31.1318947675
 11
791.6594989807
 21
31.1964222346
 12
791.4860614807
 22
31.0673665164
 13
791.4860614807
 23
31.0673665164
  0
SOLID
  8
0
 62
7
  6
CONTINUOUS
 10
791.6594989807
 20
31.1964222346
 11
791.7751235396
 21
31.0673665164
 12
791.4860614807
 22
31.0673665164
 13
791.4860614807
 23
31.0673665164
  0
SOLID
  8
0
 62
7
  6
CONTINUOUS
 10
791.4282492012
 20
31.0028394316
 11
791.4860614807
 21
31.0673665164
 12
791.7751235396
 22
31.0673665164
 13
791.7751235396
 23
31.0673665164
  0
SOLID
  8
0
 62
7
  6
CONTINUOUS
 10
791.7751235396
 20
31.0673665164
 11
791.7751235396
 21
31.0028394316
 12
791.4282492012
 22
31.0028394316
 13
791.4282492012
 23
31.0028394316
  0
SOLID
  8
0
 62
7
  6
CONTINUOUS
 10
791.3126239807
 20
30.9705762839
 11
791.4282492012
 21
31.0028394316
 12
791.7751235396
 22
31.0028394316
 13
791.7751235396
 23
31.0028394316
  0
SOLID
  8
0
 62
7
  6
CONTINUOUS
 10
791.3126239807
 20
30.9705762839
 11
791.7751235396
 21
31.0028394316
 12
791.0813742012
 22
30.9383123468
 13
791.0813742012
 23
30.9383123468
  0
SOLID
  8
0
 62
7
  6
CONTINUOUS
 10
791.7751235396
 20
31.0028394316
 11
791.6594989807
 21
30.9060491937
 12
791.0813742012
 22
30.9383123468
 13
791.0813742012
 23
30.9383123468
  0
SOLID
  8
0
 62
7
  6
CONTINUOUS
 10
791.6594989807
 20
30.9060491937
 11
790.2141867012
 21
30.8737848904
 12
791.0813742012
 22
30.9383123468
 13
791.0813742012
 23
30.9383123468
  0
SOLID
  8
0
 62
7
  6
CONTINUOUS
 10
791.0813742012
 20
30.9383123468
 11
790.2141867012
 21
30.8737848904
 12
790.7344992012
 22
30.9383123468
 13
790.7344992012
 23
30.9383123468
  0
SOLID
  8
0
 62
7
  6
CONTINUOUS
 10
790.2141867012
 20
30.8737848904
 11
790.0407492012
 21
30.9383123468
 12
790.7344992012
 22
30.9383123468
 13
790.7344992012
 23
30.9383123468
  0
SOLID
  8
0
 62
7
  6
CONTINUOUS
 10
790.2141867012
 20
30.8737848904
 11
791.6594989807
 21
30.9060491937
 12
790.3876242012
 22
30.8415205581
 13
790.3876242012
 23
30.8415205581
  0
SOLID
  8
0
 62
7
  6
CONTINUOUS
 10
791.6594989807
 20
30.9060491937
 11
791.4282492012
 21
30.8415205581
 12
790.3876242012
 22
30.8415205581
 13
790.3876242012
 23
30.8415205581
  0
SOLID
  8
0
 62
7
  6
CONTINUOUS
 10
790.7344992012
 20
30.8092581772
 11
790.3876242012
 21
30.8415205581
 12
791.4282492012
 22
30.8415205581
 13
791.4282492012
 23
30.8415205581
  0
SOLID
  8
0
 62
7
  6
CONTINUOUS
 10
791.4282492012
 20
30.8415205581
 11
791.0813742012
 21
30.8092581772
 12
790.7344992012
 22
30.8092581772
 13
790.7344992012
 23
30.8092581772
  0
SOLID
  8
0
 62
7
  6
CONTINUOUS
 10
780.3860614807
 20
31.325476038
 11
780.7329364807
 21
31.4867945216
 12
780.6751239738
 22
31.3577403412
 13
780.6751239738
 23
31.3577403412
  0
SOLID
  8
0
 62
7
  6
CONTINUOUS
 10
780.6751239738
 20
31.3577403412
 11
780.6751239738
 21
31.2609490436
 12
780.3860614807
 22
31.325476038
 13
780.3860614807
 23
31.325476038
  0
SOLID
  8
0
 62
7
  6
CONTINUOUS
 10
780.4438739824
 20
31.1318947675
 11
780.3860614807
 21
31.325476038
 12
780.6751239738
 22
31.2609490436
 13
780.6751239738
 23
31.2609490436
  0
SOLID
  8
0
 62
7
  6
CONTINUOUS
 10
780.6751239738
 20
31.2609490436
 11
780.7907489669
 21
31.0996304642
 12
780.4438739824
 22
31.1318947675
 13
780.4438739824
 23
31.1318947675
  0
SOLID
  8
0
 62
7
  6
CONTINUOUS
 10
780.5594989807
 20
31.0028388804
 11
780.4438739824
 21
31.1318947675
 12
780.7907489669
 22
31.0996304642
 13
780.7907489669
 23
31.0996304642
  0
SOLID
  8
0
 62
7
  6
CONTINUOUS
 10
780.7907489669
 20
31.0996304642
 11
780.9641864669
 21
31.0028388804
 12
780.5594989807
 22
31.0028388804
 13
780.5594989807
 23
31.0028388804
  0
SOLID
  8
0
 62
7
  6
CONTINUOUS
 10
780.6751239738
 20
30.9383122606
 11
780.5594989807
 21
31.0028388804
 12
780.9641864669
 22
31.0028388804
 13
780.9641864669
 23
31.0028388804
  0
SOLID
  8
0
 62
7
  6
CONTINUOUS
 10
780.9641864669
 20
31.0028388804
 11
781.3110615082
 21
30.9383122606
 12
780.6751239738
 22
30.9383122606
 13
780.6751239738
 23
30.9383122606
  0
SOLID
  8
0
 62
7
  6
CONTINUOUS
 10
780.8485614944
 20
30.8737848904
 11
780.6751239738
 21
30.9383122606
 12
781.3110615082
 22
30.9383122606
 13
781.3110615082
 23
30.9383122606
  0
SOLID
  8
0
 62
7
  6
CONTINUOUS
 10
784.8954364807
 20
31.3254759532
 11
785.0110613704
 21
31.3900038345
 12
785.5891864807
 22
31.3577403412
 13
785.5891864807
 23
31.3577403412
  0
SOLID
  8
0
 62
7
  6
CONTINUOUS
 10
785.5891864807
 20
31.3577403412
 11
785.3579363704
 21
31.3254759532
 12
784.8954364807
 22
31.3254759532
 13
784.8954364807
 23
31.3254759532
  0
SOLID
  8
0
 62
7
  6
CONTINUOUS
 10
784.7798115909
 20
31.1964218576
 11
784.8954364807
 21
31.3254759532
 12
785.3579363704
 22
31.3254759532
 13
785.3579363704
 23
31.3254759532
  0
SOLID
  8
0
 62
7
  6
CONTINUOUS
 10
785.1266865909
 20
31.2286853572
 11
784.7798115909
 21
31.1964218576
 12
785.2423114807
 22
31.2932132511
 13
785.2423114807
 23
31.2932132511
  0
SOLID
  8
0
 62
7
  6
CONTINUOUS
 10
784.7798115909
 20
31.1964218576
 11
785.3579363704
 21
31.325476038
 12
785.2423114807
 22
31.2932132511
 13
785.2423114807
 23
31.2932132511
  0
SOLID
  8
0
 62
7
  6
CONTINUOUS
 10
785.1266865909
 20
31.2286853572
 11
785.0688739807
 21
31.1318947675
 12
784.7798115909
 22
31.1964218576
 13
784.7798115909
 23
31.1964218576
  0
SOLID
  8
0
 62
7
  6
CONTINUOUS
 10
784.7798115909
 20
31.0996304642
 11
784.7798115909
 21
31.1964218576
 12
785.0688739807
 22
31.1318947675
 13
785.0688739807
 23
31.1318947675
  0
SOLID
  8
0
 62
7
  6
CONTINUOUS
 10
785.0688739807
 20
31.1318947675
 11
785.0688739807
 21
31.0673661609
 12
784.7798115909
 22
31.0996304642
 13
784.7798115909
 23
31.0996304642
  0
SOLID
  8
0
 62
7
  6
CONTINUOUS
 10
784.8376238704
 20
30.9705762839
 11
784.7798115909
 21
31.0996304642
 12
785.0688739807
 22
31.0673661609
 13
785.0688739807
 23
31.0673661609
  0
SOLID
  8
0
 62
7
  6
CONTINUOUS
 10
786.2251242012
 20
31.1641579843
 11
786.5141862601
 21
31.0673661609
 12
786.1673112601
 22
31.0996304642
 13
786.1673112601
 23
31.0996304642
  0
SOLID
  8
0
 62
7
  6
CONTINUOUS
 10
785.9938737601
 20
31.0028390707
 11
786.1673112601
 21
31.0996304642
 12
786.5141862601
 22
31.0673661609
 13
786.5141862601
 23
31.0673661609
  0
SOLID
  8
0
 62
7
  6
CONTINUOUS
 10
785.9938737601
 20
31.0028390707
 11
786.5141862601
 21
31.0673661609
 12
786.2251242012
 22
30.9705762839
 13
786.2251242012
 23
30.9705762839
  0
SOLID
  8
0
 62
7
  6
CONTINUOUS
 10
786.5141862601
 20
31.0673661609
 11
786.5719992012
 21
30.9060491937
 12
786.2251242012
 22
30.9705762839
 13
786.2251242012
 23
30.9705762839
  0
SOLID
  8
0
 62
7
  6
CONTINUOUS
 10
786.2829364807
 20
30.8737848904
 11
786.2251242012
 21
30.9705762839
 12
786.5719992012
 22
30.9060491937
 13
786.5719992012
 23
30.9060491937
  0
SOLID
  8
0
 62
7
  6
CONTINUOUS
 10
786.2829364807
 20
30.8737848904
 11
786.5719992012
 21
30.9060491937
 12
786.3407487601
 22
30.8092576254
 13
786.3407487601
 23
30.8092576254
  0
SOLID
  8
0
 62
7
  6
CONTINUOUS
 10
786.5719992012
 20
30.9060491937
 11
786.6298114807
 21
30.8092576254
 12
786.3407487601
 22
30.8092576254
 13
786.3407487601
 23
30.8092576254
  0
SOLID
  8
0
 62
7
  6
CONTINUOUS
 10
781.8891865358
 20
31.035103216
 11
781.9469989807
 21
31.1318946289
 12
782.2360615358
 22
31.1318946289
 13
782.2360615358
 23
31.1318946289
  0
SOLID
  8
0
 62
7
  6
CONTINUOUS
 10
782.2360615358
 20
31.1318946289
 11
782.1782489255
 21
31.0028390707
 12
781.8891865358
 22
31.035103216
 13
781.8891865358
 23
31.035103216
  0
SOLID
  8
0
 62
7
  6
CONTINUOUS
 10
781.7157489531
 20
30.9705762839
 11
781.8891865358
 21
31.035103216
 12
782.1782489255
 22
31.0028390707
 13
782.1782489255
 23
31.0028390707
  0
SOLID
  8
0
 62
7
  6
CONTINUOUS
 10
781.7157489531
 20
30.9705762839
 11
782.1782489255
 21
31.0028390707
 12
781.3110615082
 22
30.9383119806
 13
781.3110615082
 23
30.9383119806
  0
SOLID
  8
0
 62
7
  6
CONTINUOUS
 10
782.1782489255
 20
31.0028390707
 11
782.0048114255
 21
30.9060491937
 12
781.3110615082
 22
30.9383119806
 13
781.3110615082
 23
30.9383119806
  0
SOLID
  8
0
 62
7
  6
CONTINUOUS
 10
780.8485614944
 20
30.8737848904
 11
781.3110615082
 21
30.9383119806
 12
782.0048114255
 22
30.9060491937
 13
782.0048114255
 23
30.9060491937
  0
SOLID
  8
0
 62
7
  6
CONTINUOUS
 10
780.8485614944
 20
30.8737848904
 11
782.0048114255
 21
30.9060491937
 12
781.0219989944
 22
30.8415207131
 13
781.0219989944
 23
30.8415207131
  0
SOLID
  8
0
 62
7
  6
CONTINUOUS
 10
782.0048114255
 20
30.9060491937
 11
781.7735614807
 21
30.8415207131
 12
781.0219989944
 22
30.8415207131
 13
781.0219989944
 23
30.8415207131
  0
SOLID
  8
0
 62
7
  6
CONTINUOUS
 10
781.3688739531
 20
30.8092578002
 11
781.0219989944
 21
30.8415207131
 12
781.7735614807
 22
30.8415207131
 13
781.7735614807
 23
30.8415207131
  0
SOLID
  8
0
 62
7
  6
CONTINUOUS
 10
784.8376238704
 20
30.9705762839
 11
785.0688739807
 21
31.0673661609
 12
785.1266865909
 22
31.0028390707
 13
785.1266865909
 23
31.0028390707
  0
SOLID
  8
0
 62
7
  6
CONTINUOUS
 10
785.1266865909
 20
31.0028390707
 11
785.3579363704
 21
30.9383119806
 12
784.8376238704
 22
30.9705762839
 13
784.8376238704
 23
30.9705762839
  0
SOLID
  8
0
 62
7
  6
CONTINUOUS
 10
785.0110613704
 20
30.8737848904
 11
784.8376238704
 21
30.9705762839
 12
785.3579363704
 22
30.9383119806
 13
785.3579363704
 23
30.9383119806
  0
SOLID
  8
0
 62
7
  6
CONTINUOUS
 10
785.7048113704
 20
30.9383119664
 11
785.9938737601
 21
31.0028390707
 12
786.2251242012
 22
30.9705762839
 13
786.2251242012
 23
30.9705762839
  0
SOLID
  8
0
 62
7
  6
CONTINUOUS
 10
786.2251242012
 20
30.9705762839
 11
786.1673112601
 21
30.9060491937
 12
785.7048113704
 22
30.9383119664
 13
785.7048113704
 23
30.9383119664
  0
SOLID
  8
0
 62
7
  6
CONTINUOUS
 10
786.1673112601
 20
30.9060491937
 11
785.0110613704
 21
30.8737848904
 12
785.7048113704
 22
30.9383119664
 13
785.7048113704
 23
30.9383119664
  0
SOLID
  8
0
 62
7
  6
CONTINUOUS
 10
785.0110613704
 20
30.8737848904
 11
785.3579363704
 21
30.9383119664
 12
785.7048113704
 22
30.9383119664
 13
785.7048113704
 23
30.9383119664
  0
SOLID
  8
0
 62
7
  6
CONTINUOUS
 10
785.0110613704
 20
30.8737848904
 11
786.1673112601
 21
30.9060491937
 12
785.1266865909
 22
30.8415205568
 13
785.1266865909
 23
30.8415205568
  0
SOLID
  8
0
 62
7
  6
CONTINUOUS
 10
786.1673112601
 20
30.9060491937
 11
785.9938737601
 21
30.8415205568
 12
785.1266865909
 22
30.8415205568
 13
785.1266865909
 23
30.8415205568
  0
SOLID
  8
0
 62
7
  6
CONTINUOUS
 10
785.3579363704
 20
30.8092577215
 11
785.1266865909
 21
30.8415205568
 12
785.9938737601
 22
30.8415205568
 13
785.9938737601
 23
30.8415205568
  0
SOLID
  8
0
 62
7
  6
CONTINUOUS
 10
785.9938737601
 20
30.8415205568
 11
785.7048113704
 21
30.8092577215
 12
785.3579363704
 22
30.8092577215
 13
785.3579363704
 23
30.8092577215
  0
SOLID
  8
0
 62
7
  6
CONTINUOUS
 10
790.3876242012
 20
30.9705762839
 11
790.0407492012
 21
30.9383119664
 12
790.2719989807
 22
31.0028390707
 13
790.2719989807
 23
31.0028390707
  0
SOLID
  8
0
 62
7
  6
CONTINUOUS
 10
790.2719989807
 20
31.0028390707
 11
790.0407492012
 21
30.9383119664
 12
790.2141867012
 22
31.0673661467
 13
790.2141867012
 23
31.0673661467
  0
SOLID
  8
0
 62
7
  6
CONTINUOUS
 10
790.0407492012
 20
30.9383119664
 11
789.9251239807
 21
31.0673661467
 12
790.2141867012
 22
31.0673661467
 13
790.2141867012
 23
31.0673661467
  0
SOLID
  8
0
 62
7
  6
CONTINUOUS
 10
790.3876242012
 20
30.9705762839
 11
790.7344992012
 21
30.9383119664
 12
790.0407492012
 22
30.9383119664
 13
790.0407492012
 23
30.9383119664
  0
SOLID
  8
0
 62
7
  6
CONTINUOUS
 10
787.0923117012
 20
30.8092578002
 11
787.0923117012
 21
31.841695792
 12
787.3813737601
 22
30.8092578002
 13
787.3813737601
 23
31.841695792
  0
ENDBLK
  8
0
  6
BYBLOCK
 62
0
  0
BLOCK
  8
0
 62
2
  6
CONTINUOUS
  2
AMMEAAL_LOGO_BL0
 70
64
 10
663.0141013953
 20
19.7009994242
  0
TEXT
  8
0
 62
7
  6
CONTINUOUS
 10
649.4066669574
 20
19.0744135318
  7
TEXTSTYLE_3
 40
2.7338706658
  1
Ammeraal Beltech
 41
1.0
 51
15.0
 72
0
  0
TEXT
  8
0
 62
7
  6
CONTINUOUS
 10
660.2074677831
 20
16.800876859
  7
TEXTSTYLE_4
 40
1.0935482663
  1
Innovation & Service in Belting
 41
1.0
 72
0
  0
LINE
  8
0
 62
7
  6
CONTINUOUS
 10
643.382126306
 20
19.8410068404
 11
644.1602782994
 21
23.5019241381
  0
LINE
  8
0
 62
7
  6
CONTINUOUS
 10
654.2554465892
 20
27.1653180497
 11
644.6480960424
 21
24.0437006284
  0
LINE
  8
0
 62
7
  6
CONTINUOUS
 10
643.6074096383
 20
19.1476560374
 11
651.1144848995
 21
12.3882551114
  0
LINE
  8
0
 62
7
  6
CONTINUOUS
 10
643.869944049
 20
20.3827833308
 11
654.6782134142
 21
23.8946029297
  0
LINE
  8
0
 62
7
  6
CONTINUOUS
 10
654.674008277
 20
13.544814366
 11
646.2285486083
 21
21.1491404077
  0
LINE
  8
0
 62
7
  6
CONTINUOUS
 10
655.1938309968
 20
26.320392934
 11
654.2172714596
 21
21.7260415315
  0
LINE
  8
0
 62
7
  6
CONTINUOUS
 10
653.5174695119
 20
18.4337322177
 11
652.8310213004
 21
15.2042472933
  0
LINE
  8
0
 62
7
  6
CONTINUOUS
 10
655.8749270954
 20
13.9350165436
 11
656.831158631
 21
18.4337322177
  0
LINE
  8
0
 62
7
  6
CONTINUOUS
 10
657.5309605787
 20
21.7260415315
 11
657.9752023811
 21
23.8160348909
  0
LINE
  8
0
 62
7
  6
CONTINUOUS
 10
651.8275859748
 20
12.2366807987
 11
655.3871093524
 21
13.3932400533
  0
LINE
  8
0
 62
7
  6
CONTINUOUS
 10
654.9685476645
 20
27.013743737
 11
657.7499190488
 21
24.5093856939
  0
ARC
  8
0
 62
7
  6
CONTINUOUS
 10
644.8733793747
 20
23.3503498254
 40
0.7290321776
 50
108.0
 51
168.0
  0
ARC
  8
0
 62
7
  6
CONTINUOUS
 10
654.4807299215
 20
26.4719672466
 40
0.7290321776
 50
348.0
 51
108.0
  0
ARC
  8
0
 62
7
  6
CONTINUOUS
 10
657.2621013058
 20
23.9676092036
 40
0.7290321776
 50
348.0
 51
48.0
  0
ARC
  8
0
 62
7
  6
CONTINUOUS
 10
651.6023026425
 20
12.9300316018
 40
0.7290321776
 50
228.0
 51
288.0
  0
ARC
  8
0
 62
7
  6
CONTINUOUS
 10
644.0952273813
 20
19.6894325277
 40
0.7290321776
 50
108.0
 51
228.0
  0
ARC
  8
0
 62
7
  6
CONTINUOUS
 10
655.1618260201
 20
14.0865908563
 40
0.7290321776
 50
228.0
 51
348.0
  0
ENDBLK
  8
0
  6
BYBLOCK
 62
0
  0
BLOCK
  8
0
  2
_FILLED
 70
64
 10
0.0
 20
0.0
  0
SOLID
  8
0
  6
BYBLOCK
 62
0
 10
0.0
 20
0.0
 11
-1.0
 21
0.2142857143
 12
-1.0
 22
-0.2142857143
 13
-1.0
 23
-0.2142857143
  0
ENDBLK
  8
0
  6
BYBLOCK
 62
0
  0
ENDSEC
  0
SECTION
  2
ENTITIES
  0
TEXT
  8
0
 62
5
  6
CONTINUOUS
 10
727.0
 20
25.636
  7
TEXTSTYLE_2
 40
2.8
  1
Scale :
 41
0.6
 51
0.000019
 72
0
  0
TEXT
  8
0
 62
5
  6
CONTINUOUS
 10
747.0
 20
25.636
  7
TEXTSTYLE_2
 40
2.8
  1
Belt type:
 41
0.6
 51
0.000019
 72
0
  0
INSERT
  8
0
 62
2
  6
CONTINUOUS
  2
AMMEAAL_LOGO_BL0
 10
663.0141013953
 20
19.7009994242
  0
INSERT
  8
0
 62
2
  6
CONTINUOUS
  2
UNI_LOGO2_BL1
 10
804.4079930916
 20
35.8092573885
  0
LINE
  8
0
 62
2
  6
CONTINUOUS
 10
641.0
 20
30.0
 11
831.0
 21
30.0
  0
LINE
  8
0
 62
2
  6
CONTINUOUS
 10
641.0
 20
30.0
 11
641.0
 21
10.0
  0
LINE
  8
0
 62
2
  6
CONTINUOUS
 10
641.0
 20
10.0
 11
831.0
 21
10.0
  0
LINE
  8
0
 62
2
  6
CONTINUOUS
 10
726.0
 20
30.0
 11
726.0
 21
10.0
  0
LINE
  8
0
 62
2
  6
CONTINUOUS
 10
746.0
 20
30.0
 11
746.0
 21
10.0
  0
LINE
  8
0
 62
2
  6
CONTINUOUS
 10
831.0
 20
30.0
 11
831.0
 21
10.0
  0
TEXT
  8
0
 62
5
  6
CONTINUOUS
 10
644.0
 20
23.303
  7
TEXTSTYLE_3
 40
1.52
  1
                                                                     Ammeraal Beltech Modular A/S
 41
1.0
 72
0
  0
TEXT
  8
0
 62
5
  6
CONTINUOUS
 10
644.0
 20
20.595
  7
TEXTSTYLE_3
 40
1.5
  1
                                                                      Hjulmagervej 21, 7100 Vejle,  DK
 41
1.0
 72
0
  0
TEXT
  8
0
 62
5
  6
CONTINUOUS
 10
644.0
 20
17.881
  7
TEXTSTYLE_3
 40
1.495
  1
                                                                      tel: 
 41
1.0
 72
0
  0
TEXT
  8
0
 62
5
  6
CONTINUOUS
 10
688.9869465649
 20
17.881
  7
TEXTSTYLE_3
 40
1.51
  1
+45 75723100     fax: +45 75723348
 41
1.0
 72
0
  0
TEXT
  8
0
 62
5
  6
CONTINUOUS
 10
644.0
 20
15.177
  7
TEXTSTYLE_3
 40
1.5
  1
                                                                      admin@unichains.dk  www.unichains.com
 41
1.0
 72
0
  0
TEXT
  8
0
 62
5
  6
CONTINUOUS
 10
730.75
 20
13.75
  7
TEXTSTYLE_5
 40
5.0
  1
1:1
 41
0.7
 72
1
 11
736.0
 21
13.75
  0
TEXT
  8
0
 62
5
  6
CONTINUOUS
 10
749.0
 20
13.75
  7
TEXTSTYLE_6
 40
7.5
  1
Z20 Bore 60SQ
 41
1.0
 72
0
  0
LINE
  8
0
 62
7
  6
CONTINUOUS
 10
-0.0
 20
0.0
 11
-0.0
 21
594.0
  0
LINE
  8
0
 62
7
  6
CONTINUOUS
 10
10.0
 20
10.0
 11
10.0
 21
584.0
  0
LINE
  8
0
 62
7
  6
CONTINUOUS
 10
-0.0
 20
0.0
 11
841.0
 21
0.0
  0
LINE
  8
0
 62
7
  6
CONTINUOUS
 10
10.0
 20
10.0
 11
831.0
 21
10.0
  0
LINE
  8
0
 62
7
  6
CONTINUOUS
 10
641.0
 20
30.0
 11
831.0
 21
30.0
  0
LINE
  8
0
 62
7
  6
CONTINUOUS
 10
211.0
 20
5.0
 11
211.0
 21
10.0
  0
LINE
  8
0
 62
7
  6
CONTINUOUS
 10
211.0
 20
584.0
 11
211.0
 21
589.0
  0
LINE
  8
0
 62
7
  6
CONTINUOUS
 10
421.0
 20
5.0
 11
421.0
 21
10.0
  0
LINE
  8
0
 62
7
  6
CONTINUOUS
 10
421.0
 20
584.0
 11
421.0
 21
589.0
  0
LINE
  8
0
 62
7
  6
CONTINUOUS
 10
5.0
 20
297.0
 11
10.0
 21
297.0
  0
LINE
  8
0
 62
7
  6
CONTINUOUS
 10
831.0
 20
297.0
 11
836.0
 21
297.0
  0
LINE
  8
0
 62
7
  6
CONTINUOUS
 10
631.0
 20
584.0
 11
631.0
 21
589.0
  0
LINE
  8
0
 62
7
  6
CONTINUOUS
 10
10.0
 20
584.0
 11
831.0
 21
584.0
  0
LINE
  8
0
 62
7
  6
CONTINUOUS
 10
-0.0
 20
594.0
 11
841.0
 21
594.0
  0
LINE
  8
0
 62
7
  6
CONTINUOUS
 10
831.0
 20
10.0
 11
831.0
 21
584.0
  0
LINE
  8
0
 62
7
  6
CONTINUOUS
 10
841.0
 20
0.0
 11
841.0
 21
594.0
  0
LINE
  8
0
 62
7
  6
CONTINUOUS
 10
55.4994497248
 20
336.0743870343
 11
56.1214988665
 21
347.8938340671
  0
LINE
  8
0
 62
7
  6
CONTINUOUS
 10
66.4898385616
 20
396.6201068267
 11
70.7338524485
 21
407.6688451901
  0
LINE
  8
0
 62
7
  6
CONTINUOUS
 10
95.6519758339
 20
450.8062912436
 11
103.102520817
 21
460.0027934456
  0
LINE
  8
0
 62
7
  6
CONTINUOUS
 10
140.1312683609
 20
493.3288190171
 11
150.0590331863
 21
499.7728673463
  0
LINE
  8
0
 62
7
  6
CONTINUOUS
 10
308.6861452476
 20
143.2786208394
 11
297.2529593719
 21
140.2178147318
  0
LINE
  8
0
 62
7
  6
CONTINUOUS
 10
247.7075269799
 20
135.0214454067
 11
235.8880799471
 21
135.6434945484
  0
LINE
  8
0
 62
7
  6
CONTINUOUS
 10
187.1618071876
 20
146.0118342435
 11
176.1130688242
 21
150.2558481304
  0
LINE
  8
0
 62
7
  6
CONTINUOUS
 10
132.9756227707
 20
175.1739715158
 11
123.7791205687
 21
182.6245164989
  0
LINE
  8
0
 62
7
  6
CONTINUOUS
 10
90.4530949972
 20
219.6532640428
 11
84.009046668
 21
229.5810288682
  0
LINE
  8
0
 62
7
  6
CONTINUOUS
 10
63.7566251575
 20
275.0957687667
 11
60.6958190499
 21
286.5289546424
  0
LINE
  8
0
 62
7
  6
CONTINUOUS
 10
69.5526609995
 20
327.1555235064
 11
69.5526609995
 21
301.1519548481
  0
LINE
  8
0
 62
7
  6
CONTINUOUS
 10
77.0991563186
 20
383.795082441
 11
69.0636116888
 21
359.0642190216
  0
LINE
  8
0
 62
7
  6
CONTINUOUS
 10
101.7788861317
 20
435.3305087444
 11
86.4943719674
 21
414.2931797854
  0
LINE
  8
0
 62
7
  6
CONTINUOUS
 10
141.1760265309
 20
476.7171558214
 11
120.138697572
 21
461.4326416571
  0
LINE
  8
0
 62
7
  6
CONTINUOUS
 10
191.434110918
 20
503.9038102984
 11
166.7032474986
 21
495.8682656686
  0
LINE
  8
0
 62
7
  6
CONTINUOUS
 10
256.6263905079
 20
149.0746566814
 11
282.6299591662
 21
149.0746566814
  0
LINE
  8
0
 62
7
  6
CONTINUOUS
 10
199.9868315732
 20
156.6211520005
 11
224.7176949926
 21
148.5856073707
  0
LINE
  8
0
 62
7
  6
CONTINUOUS
 10
148.4514052699
 20
181.3008818136
 11
169.4887342289
 21
166.0163676493
  0
LINE
  8
0
 62
7
  6
CONTINUOUS
 10
107.0647581929
 20
220.6980222128
 11
122.3492723572
 21
199.6606932539
  0
LINE
  8
0
 62
7
  6
CONTINUOUS
 10
79.8781037159
 20
270.9561065999
 11
87.9136483457
 21
246.2252431805
  0
LINE
  8
0
 62
7
  6
CONTINUOUS
 10
260.5435382919
 20
495.331810071
 11
260.1571899927
 21
495.0940121652
  0
LINE
  8
0
 62
7
  6
CONTINUOUS
 10
264.1680444866
 20
498.1755973394
 11
263.7749318641
 21
497.9491573912
  0
LINE
  8
0
 62
7
  6
CONTINUOUS
 10
263.736588531
 20
497.4399607711
 11
264.1297011534
 21
497.6664007194
  0
LINE
  8
0
 62
7
  6
CONTINUOUS
 10
260.1336993865
 20
494.5839144487
 11
260.3893074886
 21
494.699938255
  0
LINE
  8
0
 62
7
  6
CONTINUOUS
 10
263.7749318641
 20
497.9491573912
 11
263.5064658704
 21
497.7133313492
  0
LINE
  8
0
 62
7
  6
CONTINUOUS
 10
263.4681225372
 20
497.2041347292
 11
263.736588531
 21
497.4399607711
  0
LINE
  8
0
 62
7
  6
CONTINUOUS
 10
292.0089892969
 20
493.6516685527
 11
291.7068377153
 21
493.4608984616
  0
LINE
  8
0
 62
7
  6
CONTINUOUS
 10
305.4086055049
 20
486.5187917559
 11
310.8682131658
 21
489.1823441495
  0
LINE
  8
0
 62
7
  6
CONTINUOUS
 10
310.3650485406
 20
489.6325003407
 11
304.7876859438
 21
487.0108714847
  0
LINE
  8
0
 62
7
  6
CONTINUOUS
 10
312.2019967778
 20
489.2124199933
 11
311.5502526789
 21
488.9191947706
  0
LINE
  8
0
 62
7
  6
CONTINUOUS
 10
291.0334410247
 20
490.078199746
 11
291.608295969
 21
490.3355233556
  0
LINE
  8
0
 62
7
  6
CONTINUOUS
 10
317.5475241212
 20
486.9294414567
 11
317.0515751117
 21
486.726138118
  0
LINE
  8
0
 62
7
  6
CONTINUOUS
 10
314.1112247668
 20
486.5456703107
 11
309.6886297355
 21
484.8497174858
  0
LINE
  8
0
 62
7
  6
CONTINUOUS
 10
310.6198147856
 20
484.4851705587
 11
314.5536018208
 21
485.961204436
  0
LINE
  8
0
 62
7
  6
CONTINUOUS
 10
260.3893074886
 20
494.699938255
 11
260.7815282629
 21
495.0652606456
  0
LINE
  8
0
 62
7
  6
CONTINUOUS
 10
292.2266503422
 20
492.9440862281
 11
292.7093203737
 21
493.3544592898
  0
LINE
  8
0
 62
7
  6
CONTINUOUS
 10
291.608295969
 20
490.3355233556
 11
292.0909660108
 21
490.7458964608
  0
LINE
  8
0
 62
7
  6
CONTINUOUS
 10
291.3906349546
 20
491.0431058107
 11
291.0884833523
 21
490.8523356326
  0
LINE
  8
0
 62
7
  6
CONTINUOUS
 10
318.1026563765
 20
481.2688746129
 11
318.5986054038
 21
481.4721779927
  0
LINE
  8
0
 62
7
  6
CONTINUOUS
 10
260.8108915204
 20
495.7028827829
 11
260.5435382919
 21
495.331810071
  0
LINE
  8
0
 62
7
  6
CONTINUOUS
 10
317.0515751117
 20
486.726138118
 11
316.6198988176
 21
486.3561285967
  0
LINE
  8
0
 62
7
  6
CONTINUOUS
 10
311.8296935886
 20
488.261422637
 11
312.2021035679
 21
488.5269099057
  0
LINE
  8
0
 62
7
  6
CONTINUOUS
 10
314.5536018208
 20
485.961204436
 11
314.9260118834
 21
486.226691672
  0
LINE
  8
0
 62
7
  6
CONTINUOUS
 10
316.9275116223
 20
485.8065404011
 11
317.6898208404
 21
486.3120857628
  0
LINE
  8
0
 62
7
  6
CONTINUOUS
 10
318.7226681301
 20
482.3917757463
 11
317.960359675
 21
481.8862303478
  0
LINE
  8
0
 62
7
  6
CONTINUOUS
 10
284.048564237
 20
491.4970443897
 11
286.6764449359
 21
495.7944027517
  0
LINE
  8
0
 62
7
  6
CONTINUOUS
 10
314.530172728
 20
486.9300322163
 11
314.1112247668
 21
486.5456703107
  0
LINE
  8
0
 62
7
  6
CONTINUOUS
 10
318.5986054038
 20
481.4721779927
 11
319.0302814047
 21
481.8421877376
  0
LINE
  8
0
 62
7
  6
CONTINUOUS
 10
236.8963961769
 20
126.3606599925
 11
236.028525859
 21
134.6178944957
  0
LINE
  8
0
 62
7
  6
CONTINUOUS
 10
174.2034809112
 20
141.1157609856
 11
175.9297129781
 21
149.2370443436
  0
LINE
  8
0
 62
7
  6
CONTINUOUS
 10
276.3585642574
 20
494.9102920458
 11
277.9994402133
 21
498.1435011129
  0
LINE
  8
0
 62
7
  6
CONTINUOUS
 10
275.4273669001
 20
492.987918886
 11
276.1566446224
 21
494.4249007079
  0
LINE
  8
0
 62
7
  6
CONTINUOUS
 10
277.5837715539
 20
498.7248534139
 11
274.6862598159
 21
493.1030722174
  0
LINE
  8
0
 62
7
  6
CONTINUOUS
 10
119.1385522828
 20
174.5218721777
 11
123.2899111125
 21
181.712236591
  0
LINE
  8
0
 62
7
  6
CONTINUOUS
 10
286.5546214325
 20
497.1193481622
 11
283.681015266
 21
492.2197704087
  0
LINE
  8
0
 62
7
  6
CONTINUOUS
 10
292.2189531897
 20
493.9954887884
 11
292.0089892969
 21
493.6516685527
  0
LINE
  8
0
 62
7
  6
CONTINUOUS
 10
292.7093203737
 20
493.3544592898
 11
292.9192842665
 21
493.6982795256
  0
LINE
  8
0
 62
7
  6
CONTINUOUS
 10
291.6005988473
 20
491.3869260464
 11
291.3906349546
 21
491.0431058107
  0
LINE
  8
0
 62
7
  6
CONTINUOUS
 10
292.0909660108
 20
490.7458964608
 11
292.3009299241
 21
491.0897167836
  0
LINE
  8
0
 62
7
  6
CONTINUOUS
 10
311.5502526789
 20
488.9191947706
 11
311.2477029531
 21
488.4892644583
  0
LINE
  8
0
 62
7
  6
CONTINUOUS
 10
314.9260118834
 20
486.226691672
 11
315.2285614948
 21
486.6566220291
  0
LINE
  8
0
 62
7
  6
CONTINUOUS
 10
316.6198988176
 20
486.3561285967
 11
316.3535389375
 21
486.0538864322
  0
LINE
  8
0
 62
7
  6
CONTINUOUS
 10
319.0302814047
 20
481.8421877376
 11
319.2966414717
 21
482.1444294322
  0
LINE
  8
0
 62
7
  6
CONTINUOUS
 10
77.0917491658
 20
223.3089706512
 11
83.2618708317
 21
228.864573153
  0
LINE
  8
0
 62
7
  6
CONTINUOUS
 10
52.1789056066
 20
282.7014352878
 11
59.7638156103
 21
286.078454797
  0
LINE
  8
0
 62
7
  6
CONTINUOUS
 10
457.4212540217
 20
316.4183918588
 11
449.1640195186
 21
315.5505215409
  0
LINE
  8
0
 62
7
  6
CONTINUOUS
 10
442.6661530287
 20
253.7254765931
 11
434.5448696707
 21
255.45170866
  0
LINE
  8
0
 62
7
  6
CONTINUOUS
 10
409.2600418366
 20
198.6605479647
 11
402.0696774232
 21
202.8119067944
  0
LINE
  8
0
 62
7
  6
CONTINUOUS
 10
360.4729433631
 20
156.6137448477
 11
354.9173408613
 21
162.7838665136
  0
LINE
  8
0
 62
7
  6
CONTINUOUS
 10
301.0804787264
 20
131.7009012885
 11
297.7034592173
 21
139.2858112922
  0
LINE
  8
0
 62
7
  6
CONTINUOUS
 10
316.5095869449
 20
485.1525874095
 11
316.9275116223
 21
485.8065404011
  0
LINE
  8
0
 62
7
  6
CONTINUOUS
 10
319.1405935351
 20
483.0457286191
 11
318.7226681301
 21
482.3917757463
  0
LINE
  8
0
 62
7
  6
CONTINUOUS
 10
316.3535389375
 20
486.0538864322
 11
315.9861356874
 21
485.5171705867
  0
LINE
  8
0
 62
7
  6
CONTINUOUS
 10
319.2966414717
 20
482.1444294322
 11
319.6640444642
 21
482.6811455833
  0
LINE
  8
0
 62
7
  6
CONTINUOUS
 10
245.8755252805
 20
367.8239278336
 11
215.9579861807
 21
337.9063887338
  0
LINE
  8
0
 62
7
  6
CONTINUOUS
 10
215.9579861807
 20
325.3975209624
 11
245.8755252805
 21
295.4799818626
  0
LINE
  8
DEFAULT_1
 62
2
  6
CENTER
 10
252.1299591662
 20
331.6519548481
 11
252.1299591662
 21
128.9934452504
  0
LINE
  8
DEFAULT_1
 62
2
  6
CENTER
 10
252.1299591662
 20
331.6519548481
 11
252.1299591662
 21
534.3104644458
  0
LINE
  8
0
 62
7
  6
CONTINUOUS
 10
257.8183983138
 20
498.6521775787
 11
257.7009452922
 21
496.1016892083
  0
LINE
  8
0
 62
7
  6
CONTINUOUS
 10
258.325283607
 20
496.0729376866
 11
258.4427366286
 21
498.6234260571
  0
LINE
  8
0
 62
7
  6
CONTINUOUS
 10
260.9400898433
 20
498.5084199726
 11
260.8108915204
 21
495.7028827829
  0
LINE
  8
0
 62
7
  6
CONTINUOUS
 10
261.4117393624
 20
495.1640335274
 11
261.5644282921
 21
498.4796684447
  0
LINE
  8
0
 62
7
  6
CONTINUOUS
 10
255.865304337
 20
524.7451788865
 11
255.1840329727
 21
515.0025444751
  0
LINE
  8
0
 62
7
  6
CONTINUOUS
 10
262.9311593973
 20
498.396757781
 11
262.624412705
 21
494.3231844639
  0
LINE
  8
0
 62
7
  6
CONTINUOUS
 10
263.2476483446
 20
494.2762538072
 11
263.4681225372
 21
497.2041347292
  0
LINE
  8
0
 62
7
  6
CONTINUOUS
 10
263.5064658704
 20
497.7133313492
 11
263.5543950369
 21
498.3498271243
  0
LINE
  8
0
 62
7
  6
CONTINUOUS
 10
265.6734270787
 20
496.5259877771
 11
265.4912962192
 21
494.1073034752
  0
LINE
  8
0
 62
7
  6
CONTINUOUS
 10
266.1145315022
 20
494.0603728453
 11
266.2966623617
 21
496.4790571473
  0
LINE
  8
0
 62
7
  6
CONTINUOUS
 10
267.6727246743
 20
499.9360007245
 11
267.6128459682
 21
499.300517745
  0
LINE
  8
0
 62
7
  6
CONTINUOUS
 10
267.4930885225
 20
498.0295514299
 11
267.1098647701
 21
493.9624600049
  0
LINE
  8
0
 62
7
  6
CONTINUOUS
 10
267.7321083577
 20
493.9038287873
 11
268.1153321101
 21
497.9709202122
  0
LINE
  8
0
 62
7
  6
CONTINUOUS
 10
268.2350895558
 20
499.2418865273
 11
268.2949682619
 21
499.8773695068
  0
LINE
  8
0
 62
7
  6
CONTINUOUS
 10
281.771096545
 20
498.059295343
 11
280.6142381368
 21
492.1718783692
  0
LINE
  8
0
 62
7
  6
CONTINUOUS
 10
281.3501652585
 20
492.0272710682
 11
282.2608836092
 21
496.662046282
  0
LINE
  8
0
 62
7
  6
CONTINUOUS
 10
286.6764449359
 20
495.7944027517
 11
285.7657265852
 21
491.1596275379
  0
LINE
  8
0
 62
7
  6
CONTINUOUS
 10
288.8606793103
 20
496.6283223967
 11
287.4767433286
 21
490.790110239
  0
LINE
  8
0
 62
7
  6
CONTINUOUS
 10
288.3831925264
 20
491.3624219191
 11
288.8248742319
 21
493.2256811573
  0
LINE
  8
0
 62
7
  6
CONTINUOUS
 10
289.0015468893
 20
493.9709847481
 11
289.4137831726
 21
495.7100268081
  0
LINE
  8
0
 62
7
  6
CONTINUOUS
 10
292.2778440755
 20
494.2439233187
 11
292.2189531897
 21
493.9954887884
  0
LINE
  8
0
 62
7
  6
CONTINUOUS
 10
291.6889351761
 20
491.7595778419
 11
291.6005988473
 21
491.3869260464
  0
LINE
  8
0
 62
7
  6
CONTINUOUS
 10
292.3009299241
 20
491.0897167836
 11
292.4481571387
 21
491.7108031093
  0
LINE
  8
0
 62
7
  6
CONTINUOUS
 10
292.9192842665
 20
493.6982795256
 11
293.0370661206
 21
494.1951489341
  0
LINE
  8
0
 62
7
  6
CONTINUOUS
 10
306.4575552369
 20
491.7012044794
 11
306.243469457
 21
491.0998798121
  0
LINE
  8
0
 62
7
  6
CONTINUOUS
 10
304.7876859438
 20
487.0108714847
 11
304.445148666
 21
486.0487519327
  0
LINE
  8
0
 62
7
  6
CONTINUOUS
 10
309.1555266867
 20
484.3717461371
 11
309.4124296526
 21
485.0933358221
  0
LINE
  8
0
 62
7
  6
CONTINUOUS
 10
310.8682131658
 20
489.1823441495
 11
311.1679332576
 21
490.0241986838
  0
LINE
  8
0
 62
7
  6
CONTINUOUS
 10
309.6886297355
 20
484.8497174858
 11
309.4559402096
 21
484.2553440549
  0
LINE
  8
0
 62
7
  6
CONTINUOUS
 10
314.6232486557
 20
487.1677818884
 11
314.530172728
 21
486.9300322163
  0
LINE
  8
0
 62
7
  6
CONTINUOUS
 10
313.6462728103
 20
482.6148829319
 11
313.8789623361
 21
483.2092563628
  0
LINE
  8
0
 62
7
  6
CONTINUOUS
 10
315.2285614948
 20
486.6566220291
 11
315.3216374224
 21
486.8943717012
  0
LINE
  8
0
 62
7
  6
CONTINUOUS
 10
315.351571258
 20
514.1402386846
 11
311.6930040845
 21
505.0849671711
  0
LINE
  8
0
 62
7
  6
CONTINUOUS
 10
315.9861356874
 20
485.5171705867
 11
315.5314398856
 21
484.4620375448
  0
LINE
  8
0
 62
7
  6
CONTINUOUS
 10
316.1559346546
 20
484.3319283768
 11
316.5095869449
 21
485.1525874095
  0
LINE
  8
0
 62
7
  6
CONTINUOUS
 10
319.4942458255
 20
483.8663876517
 11
319.1405935351
 21
483.0457286191
  0
LINE
  8
0
 62
7
  6
CONTINUOUS
 10
319.6640444642
 20
482.6811455833
 11
320.118740266
 21
483.7362786253
  0
LINE
  8
0
 62
7
  6
CONTINUOUS
 10
368.6492662966
 20
485.6720737901
 11
362.3715293596
 21
478.1905582421
  0
LINE
  8
0
 62
7
  6
CONTINUOUS
 10
410.5412397155
 20
442.1273465324
 11
402.258841646
 21
436.9519298184
  0
LINE
  8
0
 62
7
  6
CONTINUOUS
 10
67.3331050544
 20
275.5353914869
 11
76.8094254266
 21
277.8981035196
  0
LINE
  8
DEFAULT_1
 62
2
  6
CENTER
 10
252.1299591662
 20
331.6519548481
 11
49.4714495685
 21
331.6519548481
  0
LINE
  8
DEFAULT_1
 62
2
  6
CENTER
 10
252.1299591662
 20
331.6519548481
 11
454.7884687639
 21
331.6519548481
  0
LINE
  8
0
 62
7
  6
CONTINUOUS
 10
59.0367351278
 20
335.3873000189
 11
68.7793695392
 21
334.7060286546
  0
LINE
  8
0
 62
7
  6
CONTINUOUS
 10
69.6416753297
 20
394.8735669399
 11
78.6969468432
 21
391.2149997664
  0
LINE
  8
0
 62
7
  6
CONTINUOUS
 10
98.1098402241
 20
448.1712619785
 11
105.5913557722
 21
441.8935250415
  0
LINE
  8
0
 62
7
  6
CONTINUOUS
 10
141.6545674819
 20
490.0632353974
 11
146.8299841959
 21
481.7808373279
  0
LINE
  8
0
 62
7
  6
CONTINUOUS
 10
196.013395805
 20
516.4488089599
 11
198.3761078377
 21
506.9724885877
  0
LINE
  8
0
 62
7
  6
CONTINUOUS
 10
248.3946139953
 20
138.5587308097
 11
249.0758853597
 21
148.3013652211
  0
LINE
  8
0
 62
7
  6
CONTINUOUS
 10
286.5016537069
 20
491.0150202369
 11
287.6585121151
 21
496.9024372107
  0
LINE
  8
0
 62
7
  6
CONTINUOUS
 10
188.9083470743
 20
149.1636710116
 11
192.5669142478
 21
158.2189425251
  0
LINE
  8
0
 62
7
  6
CONTINUOUS
 10
135.6106520358
 20
177.631835906
 11
141.8883889728
 21
185.1133514541
  0
LINE
  8
0
 62
7
  6
CONTINUOUS
 10
93.7186786168
 20
221.1765631638
 11
102.0010766864
 21
226.3519798778
  0
LINE
  8
0
 62
7
  6
CONTINUOUS
 10
436.926813278
 20
387.7685182092
 11
427.4504929058
 21
385.4058061766
  0
LINE
  8
0
 62
7
  6
CONTINUOUS
 10
445.2231832046
 20
327.9166096772
 11
435.4805487932
 21
328.5978810416
  0
LINE
  8
0
 62
7
  6
CONTINUOUS
 10
434.6182430027
 20
268.4303427562
 11
425.5629714892
 21
272.0889099297
  0
LINE
  8
0
 62
7
  6
CONTINUOUS
 10
406.1500781082
 20
215.1326477176
 11
398.6685625602
 21
221.4103846547
  0
LINE
  8
0
 62
7
  6
CONTINUOUS
 10
362.6053508505
 20
173.2406742987
 11
357.4299341365
 21
181.5230723683
  0
LINE
  8
0
 62
7
  6
CONTINUOUS
 10
308.2465225274
 20
146.8551007363
 11
305.8838104947
 21
156.3314211085
  0
LINE
  8
0
 62
7
  6
CONTINUOUS
 10
268.2313924734
 20
528.6860152004
 11
267.3635221555
 21
536.9432497036
  0
LINE
  8
0
 62
7
  6
CONTINUOUS
 10
328.3302053542
 20
514.0668653526
 11
330.0564374212
 21
522.1881487105
  0
LINE
  8
0
 62
7
  6
CONTINUOUS
 10
315.5314398856
 20
484.4620375448
 11
315.3936255073
 21
483.8263831793
  0
LINE
  8
0
 62
7
  6
CONTINUOUS
 10
320.118740266
 20
483.7362786253
 11
320.256554902
 21
484.371932685
  0
LINE
  8
0
 62
7
  6
CONTINUOUS
 10
315.9675981921
 20
483.5790371483
 11
316.1559346546
 21
484.3319283768
  0
LINE
  8
0
 62
7
  6
CONTINUOUS
 10
319.6825815603
 20
484.6192789991
 11
319.4942458255
 21
483.8663876517
  0
LINE
  8
0
 62
7
  6
CONTINUOUS
 10
380.9700072199
 20
481.5916731051
 11
385.1213660495
 21
488.7820375185
  0
LINE
  8
0
 62
7
  6
CONTINUOUS
 10
258.3843930519
 20
295.4799818626
 11
288.3019321517
 21
325.3975209624
  0
LINE
  8
0
 62
7
  6
CONTINUOUS
 10
420.9980475007
 20
434.4393365432
 11
427.1681691665
 21
439.994939045
  0
LINE
  8
0
 62
7
  6
CONTINUOUS
 10
444.4961027221
 20
377.2254548992
 11
452.0810127258
 21
380.6024744083
  0
LINE
  8
0
 62
7
  6
CONTINUOUS
 10
46.8386643106
 20
346.8855178374
 11
55.0958988138
 21
347.7533881553
  0
LINE
  8
0
 62
7
  6
CONTINUOUS
 10
61.5937653037
 20
409.5784331031
 11
69.7150486617
 21
407.8522010361
  0
LINE
  8
0
 62
7
  6
CONTINUOUS
 10
94.9998764958
 20
464.6433617314
 11
102.1902409092
 21
460.4920029018
  0
LINE
  8
0
 62
7
  6
CONTINUOUS
 10
288.3019321517
 20
337.9063887338
 11
258.3843930519
 21
367.8239278336
  0
LINE
  8
0
 62
7
  6
CONTINUOUS
 10
143.7869749693
 20
506.6901648484
 11
149.3425774711
 21
500.5200431826
  0
LINE
  8
0
 62
7
  6
CONTINUOUS
 10
206.5564591151
 20
524.018098404
 11
203.179439606
 21
531.6030084077
  0
LINE
  8
0
 62
7
  6
CONTINUOUS
 10
257.7009452922
 20
496.1016892083
 11
257.802322355
 21
495.5858411759
  0
LINE
  8
0
 62
7
  6
CONTINUOUS
 10
261.5131163035
 20
494.6481855231
 11
261.4117393624
 21
495.1640335274
  0
LINE
  8
0
 62
7
  6
CONTINUOUS
 10
265.5967089033
 20
497.1718696997
 11
265.6734270787
 21
496.5259877771
  0
LINE
  8
0
 62
7
  6
CONTINUOUS
 10
266.2966623617
 20
496.4790571473
 11
266.2199448995
 21
497.1249390161
  0
LINE
  8
0
 62
7
  6
CONTINUOUS
 10
291.655643982
 20
492.161061371
 11
291.6889351761
 21
491.7595778419
  0
LINE
  8
0
 62
7
  6
CONTINUOUS
 10
292.4481571387
 20
491.7108031093
 11
292.4148659446
 21
492.1122866384
  0
LINE
  8
0
 62
7
  6
CONTINUOUS
 10
292.2445529227
 20
494.6454070218
 11
292.2778440755
 21
494.2439233187
  0
LINE
  8
0
 62
7
  6
CONTINUOUS
 10
293.0370661206
 20
494.1951489341
 11
293.0037748853
 21
494.5966322893
  0
LINE
  8
0
 62
7
  6
CONTINUOUS
 10
315.3936255073
 20
483.8263831793
 11
315.3568547112
 21
483.4252029874
  0
LINE
  8
0
 62
7
  6
CONTINUOUS
 10
320.256554902
 20
484.371932685
 11
320.2933255111
 21
484.7731133468
  0
LINE
  8
0
 62
7
  6
CONTINUOUS
 10
315.3216374224
 20
486.8943717012
 11
315.3913910003
 21
487.4154387004
  0
LINE
  8
0
 62
7
  6
CONTINUOUS
 10
260.7815282629
 20
495.0652606456
 11
261.0019004564
 21
494.4161378939
  0
LINE
  8
0
 62
7
  6
CONTINUOUS
 10
258.4325333358
 20
495.6846141527
 11
258.325283607
 21
496.0729376866
  0
LINE
  8
0
 62
7
  6
CONTINUOUS
 10
266.2199448995
 20
497.1249390161
 11
266.1240550575
 21
497.5162226286
  0
LINE
  8
0
 62
7
  6
CONTINUOUS
 10
279.6269732394
 20
492.3353834145
 11
278.571914804
 21
498.5713155654
  0
LINE
  8
0
 62
7
  6
CONTINUOUS
 10
278.6270020409
 20
494.0410561967
 11
278.8858661552
 21
492.4505367459
  0
LINE
  8
0
 62
7
  6
CONTINUOUS
 10
277.9994402133
 20
498.1435011129
 11
278.58188551
 21
494.5648320515
  0
LINE
  8
0
 62
7
  6
CONTINUOUS
 10
282.2608836092
 20
496.662046282
 11
283.0673290104
 21
491.6898539405
  0
LINE
  8
0
 62
7
  6
CONTINUOUS
 10
283.681015266
 20
492.2197704087
 11
282.8749858239
 21
497.8423846673
  0
LINE
  8
0
 62
7
  6
CONTINUOUS
 10
315.3568547112
 20
483.4252029874
 11
315.3843569238
 21
482.8573163893
  0
LINE
  8
0
 62
7
  6
CONTINUOUS
 10
320.2933255111
 20
484.7731133468
 11
320.2658235916
 21
485.3409997213
  0
LINE
  8
0
 62
7
  6
CONTINUOUS
 10
257.802322355
 20
495.5858411759
 11
257.9154447234
 21
495.3250420521
  0
LINE
  8
0
 62
7
  6
CONTINUOUS
 10
261.6262389052
 20
494.3873863661
 11
261.5131163035
 21
494.6481855231
  0
LINE
  8
0
 62
7
  6
CONTINUOUS
 10
258.6646507414
 20
495.2905402243
 11
258.4325333358
 21
495.6846141527
  0
LINE
  8
0
 62
7
  6
CONTINUOUS
 10
292.4148659446
 20
492.1122866384
 11
292.1677594564
 21
492.6956516978
  0
LINE
  8
0
 62
7
  6
CONTINUOUS
 10
314.530065985
 20
487.6155426695
 11
314.6232486557
 21
487.1677818884
  0
LINE
  8
0
 62
7
  6
CONTINUOUS
 10
316.123646164
 20
482.6777380435
 11
315.9675981921
 21
483.5790371483
  0
LINE
  8
0
 62
7
  6
CONTINUOUS
 10
319.5265343514
 20
485.5205780671
 11
319.6825815603
 21
484.6192789991
  0
LINE
  8
0
 62
7
  6
CONTINUOUS
 10
257.9154447234
 20
495.3250420521
 11
258.2724297448
 21
494.9252178663
  0
LINE
  8
0
 62
7
  6
CONTINUOUS
 10
265.3665865993
 20
497.4452402509
 11
265.5967089033
 21
497.1718696997
  0
LINE
  8
0
 62
7
  6
CONTINUOUS
 10
266.1240550575
 20
497.5162226286
 11
265.8939327535
 21
497.7895931798
  0
LINE
  8
0
 62
7
  6
CONTINUOUS
 10
291.471274172
 20
492.4671603404
 11
291.655643982
 21
492.161061371
  0
LINE
  8
0
 62
7
  6
CONTINUOUS
 10
292.0601831127
 20
494.9515059913
 11
292.2445529227
 21
494.6454070218
  0
LINE
  8
0
 62
7
  6
CONTINUOUS
 10
315.3913910003
 20
487.4154387004
 11
315.1119498617
 21
488.0732109236
  0
LINE
  8
0
 62
7
  6
CONTINUOUS
 10
293.0037748853
 20
494.5966322893
 11
292.7566683971
 21
495.1799973487
  0
LINE
  8
0
 62
7
  6
CONTINUOUS
 10
315.3843569238
 20
482.8573163893
 11
315.577175381
 21
482.357197659
  0
LINE
  8
0
 62
7
  6
CONTINUOUS
 10
320.2658235916
 20
485.3409997213
 11
320.0730051167
 21
485.8411184105
  0
LINE
  8
0
 62
7
  6
CONTINUOUS
 10
317.960359675
 20
481.8862303478
 11
317.5149324212
 21
481.8001640137
  0
LINE
  8
0
 62
7
  6
CONTINUOUS
 10
317.3771177543
 20
481.1645098822
 11
318.1026563765
 21
481.2688746129
  0
LINE
  8
0
 62
7
  6
CONTINUOUS
 10
258.2724297448
 20
494.9252178663
 11
258.6352874844
 21
494.6529180982
  0
LINE
  8
0
 62
7
  6
CONTINUOUS
 10
265.8939327535
 20
497.7895931798
 11
265.5391631077
 21
498.0723498785
  0
LINE
  8
0
 62
7
  6
CONTINUOUS
 10
292.7566683971
 20
495.1799973487
 11
292.3584861181
 21
495.6679773626
  0
LINE
  8
0
 62
7
  6
CONTINUOUS
 10
315.577175381
 20
482.357197659
 11
315.9995827853
 21
481.7581405832
  0
LINE
  8
0
 62
7
  6
CONTINUOUS
 10
316.3669863948
 20
482.2948563589
 11
316.123646164
 21
482.6777380435
  0
LINE
  8
0
 62
7
  6
CONTINUOUS
 10
291.9539442035
 20
492.8775334022
 11
292.2266503422
 21
492.9440862281
  0
LINE
  8
0
 62
7
  6
CONTINUOUS
 10
312.2021035679
 20
488.5269099057
 11
312.6443737486
 21
488.6279541512
  0
LINE
  8
0
 62
7
  6
CONTINUOUS
 10
259.6283561906
 20
494.4793912403
 11
260.1336993865
 21
494.5839144487
  0
LINE
  8
0
 62
7
  6
CONTINUOUS
 10
260.1571899927
 20
495.0940121652
 11
259.6518467953
 21
494.9894889233
  0
LINE
  8
0
 62
7
  6
CONTINUOUS
 10
317.6898208404
 20
486.3120857628
 11
318.1352480942
 21
486.3981520969
  0
LINE
  8
0
 62
7
  6
CONTINUOUS
 10
318.2730620733
 20
487.0338064397
 11
317.5475241212
 21
486.9294414567
  0
LINE
  8
0
 62
7
  6
CONTINUOUS
 10
312.7606650585
 20
489.2678958851
 11
312.2019967778
 21
489.2124199933
  0
LINE
  8
0
 62
7
  6
CONTINUOUS
 10
291.0884833523
 20
490.8523356326
 11
290.6941496495
 21
490.8146143663
  0
LINE
  8
0
 62
7
  6
CONTINUOUS
 10
291.7068377153
 20
493.4608984616
 11
291.3125040125
 21
493.4231771953
  0
LINE
  8
0
 62
7
  6
CONTINUOUS
 10
258.6352874844
 20
494.6529180982
 11
259.1288854672
 21
494.5023924609
  0
LINE
  8
0
 62
7
  6
CONTINUOUS
 10
265.5391631077
 20
498.0723498785
 11
265.1748076285
 21
498.2278074222
  0
LINE
  8
0
 62
7
  6
CONTINUOUS
 10
259.152376072
 20
495.0124901439
 11
258.6646507414
 21
495.2905402243
  0
LINE
  8
0
 62
7
  6
CONTINUOUS
 10
265.126878462
 20
497.5913116471
 11
265.3665865993
 21
497.4452402509
  0
LINE
  8
0
 62
7
  6
CONTINUOUS
 10
291.1358313551
 20
492.6778736044
 11
291.471274172
 21
492.4671603404
  0
LINE
  8
0
 62
7
  6
CONTINUOUS
 10
292.1677594564
 20
492.6956516978
 11
291.9539442035
 21
492.8775334022
  0
LINE
  8
0
 62
7
  6
CONTINUOUS
 10
315.1119498617
 20
488.0732109236
 11
314.7394332588
 21
488.4932336773
  0
LINE
  8
0
 62
7
  6
CONTINUOUS
 10
320.0730051167
 20
485.8411184105
 11
319.6505970423
 21
486.4401757387
  0
LINE
  8
0
 62
7
  6
CONTINUOUS
 10
314.2739473989
 20
487.9899971021
 11
314.530065985
 21
487.6155426695
  0
LINE
  8
0
 62
7
  6
CONTINUOUS
 10
319.2831941206
 20
485.9034597517
 11
319.5265343514
 21
485.5205780671
  0
LINE
  8
0
 62
7
  6
CONTINUOUS
 10
264.1297011534
 20
497.6664007194
 11
264.637875641
 21
497.7561553383
  0
LINE
  8
0
 62
7
  6
CONTINUOUS
 10
264.6762189742
 20
498.2653519583
 11
264.1680444866
 21
498.1755973394
  0
LINE
  8
0
 62
7
  6
CONTINUOUS
 10
290.3958494074
 20
490.0981422481
 11
291.0334410247
 21
490.078199746
  0
LINE
  8
0
 62
7
  6
CONTINUOUS
 10
259.1288854672
 20
494.5023924609
 11
259.6283561906
 21
494.4793912403
  0
LINE
  8
0
 62
7
  6
CONTINUOUS
 10
261.0019004564
 20
494.4161378939
 11
261.6262389052
 21
494.3873863661
  0
LINE
  8
0
 62
7
  6
CONTINUOUS
 10
259.6518467953
 20
494.9894889233
 11
259.152376072
 21
495.0124901439
  0
LINE
  8
0
 62
7
  6
CONTINUOUS
 10
261.5644282921
 20
498.4796684447
 11
260.9400898433
 21
498.5084199726
  0
LINE
  8
0
 62
7
  6
CONTINUOUS
 10
258.4427366286
 20
498.6234260571
 11
257.8183983138
 21
498.6521775787
  0
LINE
  8
0
 62
7
  6
CONTINUOUS
 10
262.624412705
 20
494.3231844639
 11
263.2476483446
 21
494.2762538072
  0
LINE
  8
0
 62
7
  6
CONTINUOUS
 10
265.4912962192
 20
494.1073034752
 11
266.1145315022
 21
494.0603728453
  0
LINE
  8
0
 62
7
  6
CONTINUOUS
 10
265.1748076285
 20
498.2278074222
 11
264.6762189742
 21
498.2653519583
  0
LINE
  8
0
 62
7
  6
CONTINUOUS
 10
263.5543950369
 20
498.3498271243
 11
262.9311593973
 21
498.396757781
  0
LINE
  8
0
 62
7
  6
CONTINUOUS
 10
267.1098647701
 20
493.9624600049
 11
267.7321083577
 21
493.9038287873
  0
LINE
  8
0
 62
7
  6
CONTINUOUS
 10
268.1153321101
 20
497.9709202122
 11
267.4930885225
 21
498.0295514299
  0
LINE
  8
0
 62
7
  6
CONTINUOUS
 10
267.6128459682
 20
499.300517745
 11
268.2350895558
 21
499.2418865273
  0
LINE
  8
0
 62
7
  6
CONTINUOUS
 10
268.2949682619
 20
499.8773695068
 11
267.6727246743
 21
499.9360007245
  0
LINE
  8
0
 62
7
  6
CONTINUOUS
 10
274.6862598159
 20
493.1030722174
 11
275.4273669001
 21
492.987918886
  0
LINE
  8
0
 62
7
  6
CONTINUOUS
 10
278.8858661552
 20
492.4505367459
 11
279.6269732394
 21
492.3353834145
  0
LINE
  8
0
 62
7
  6
CONTINUOUS
 10
276.1566446224
 20
494.4249007079
 11
278.6270020409
 21
494.0410561967
  0
LINE
  8
0
 62
7
  6
CONTINUOUS
 10
278.58188551
 20
494.5648320515
 11
276.3585642574
 21
494.9102920458
  0
LINE
  8
0
 62
7
  6
CONTINUOUS
 10
278.571914804
 20
498.5713155654
 11
277.5837715539
 21
498.7248534139
  0
LINE
  8
0
 62
7
  6
CONTINUOUS
 10
312.6443737486
 20
488.6279541512
 11
313.2729023139
 21
488.5189869872
  0
LINE
  8
0
 62
7
  6
CONTINUOUS
 10
280.6142381368
 20
492.1718783692
 11
281.3501652585
 21
492.0272710682
  0
LINE
  8
0
 62
7
  6
CONTINUOUS
 10
283.0673290104
 20
491.6898539405
 11
284.048564237
 21
491.4970443897
  0
LINE
  8
0
 62
7
  6
CONTINUOUS
 10
285.7657265852
 20
491.1596275379
 11
286.5016537069
 21
491.0150202369
  0
LINE
  8
0
 62
7
  6
CONTINUOUS
 10
287.6585121151
 20
496.9024372107
 11
286.5546214325
 21
497.1193481622
  0
LINE
  8
0
 62
7
  6
CONTINUOUS
 10
282.8749858239
 20
497.8423846673
 11
281.771096545
 21
498.059295343
  0
LINE
  8
0
 62
7
  6
CONTINUOUS
 10
317.5149324212
 20
481.8001640137
 11
316.8904373238
 21
481.9302733232
  0
LINE
  8
0
 62
7
  6
CONTINUOUS
 10
318.1352480942
 20
486.3981520969
 11
318.7597425347
 21
486.2680430705
  0
LINE
  8
0
 62
7
  6
CONTINUOUS
 10
313.621989824
 20
489.0677920138
 11
312.7606650585
 21
489.2678958851
  0
LINE
  8
0
 62
7
  6
CONTINUOUS
 10
287.4767433286
 20
490.790110239
 11
290.3958494074
 21
490.0981422481
  0
LINE
  8
0
 62
7
  6
CONTINUOUS
 10
290.6941496495
 20
490.8146143663
 11
288.3831925264
 21
491.3624219191
  0
LINE
  8
0
 62
7
  6
CONTINUOUS
 10
288.8248742319
 20
493.2256811573
 11
291.1358313551
 21
492.6778736044
  0
LINE
  8
0
 62
7
  6
CONTINUOUS
 10
291.3125040125
 20
493.4231771953
 11
289.0015468893
 21
493.9709847481
  0
LINE
  8
0
 62
7
  6
CONTINUOUS
 10
289.4137831726
 20
495.7100268081
 11
291.7247402957
 21
495.1622192553
  0
LINE
  8
0
 62
7
  6
CONTINUOUS
 10
291.7797853892
 20
495.9363544058
 11
288.8606793103
 21
496.6283223967
  0
LINE
  8
0
 62
7
  6
CONTINUOUS
 10
316.6378285096
 20
481.3440882178
 11
317.3771177543
 21
481.1645098822
  0
LINE
  8
0
 62
7
  6
CONTINUOUS
 10
319.0123513136
 20
486.8542280938
 11
318.2730620733
 21
487.0338064397
  0
LINE
  8
0
 62
7
  6
CONTINUOUS
 10
264.637875641
 20
497.7561553383
 11
265.126878462
 21
497.5913116471
  0
LINE
  8
0
 62
7
  6
CONTINUOUS
 10
304.445148666
 20
486.0487519327
 11
309.1555266867
 21
484.3717461371
  0
LINE
  8
0
 62
7
  6
CONTINUOUS
 10
309.4124296526
 20
485.0933358221
 11
305.4086055049
 21
486.5187917559
  0
LINE
  8
0
 62
7
  6
CONTINUOUS
 10
306.243469457
 20
491.0998798121
 11
310.3650485406
 21
489.6325003407
  0
LINE
  8
0
 62
7
  6
CONTINUOUS
 10
311.1679332576
 20
490.0241986838
 11
306.4575552369
 21
491.7012044794
  0
LINE
  8
0
 62
7
  6
CONTINUOUS
 10
309.4559402096
 20
484.2553440549
 11
313.6462728103
 21
482.6148829319
  0
LINE
  8
0
 62
7
  6
CONTINUOUS
 10
313.8789623361
 20
483.2092563628
 11
310.6198147856
 21
484.4851705587
  0
LINE
  8
0
 62
7
  6
CONTINUOUS
 10
311.2477029531
 20
488.4892644583
 11
311.8296935886
 21
488.261422637
  0
LINE
  8
0
 62
7
  6
CONTINUOUS
 10
313.2729023139
 20
488.5189869872
 11
313.7384947141
 21
488.3367135726
  0
LINE
  8
0
 62
7
  6
CONTINUOUS
 10
314.0875823907
 20
488.885518534
 11
313.621989824
 21
489.0677920138
  0
LINE
  8
0
 62
7
  6
CONTINUOUS
 10
292.3584861181
 20
495.6679773626
 11
291.7797853892
 21
495.9363544058
  0
LINE
  8
0
 62
7
  6
CONTINUOUS
 10
314.7394332588
 20
488.4932336773
 11
314.0875823907
 21
488.885518534
  0
LINE
  8
0
 62
7
  6
CONTINUOUS
 10
291.7247402957
 20
495.1622192553
 11
292.0601831127
 21
494.9515059913
  0
LINE
  8
0
 62
7
  6
CONTINUOUS
 10
313.7384947141
 20
488.3367135726
 11
314.2739473989
 21
487.9899971021
  0
LINE
  8
0
 62
7
  6
CONTINUOUS
 10
315.9995827853
 20
481.7581405832
 11
316.6378285096
 21
481.3440882178
  0
LINE
  8
0
 62
7
  6
CONTINUOUS
 10
319.6505970423
 20
486.4401757387
 11
319.0123513136
 21
486.8542280938
  0
LINE
  8
0
 62
7
  6
CONTINUOUS
 10
316.8904373238
 20
481.9302733232
 11
316.3669863948
 21
482.2948563589
  0
LINE
  8
0
 62
7
  6
CONTINUOUS
 10
318.7597425347
 20
486.2680430705
 11
319.2831941206
 21
485.9034597517
  0
LINE
  8
0
 62
7
  6
CONTINUOUS
 10
434.7072573329
 20
336.1483861898
 11
434.7072573329
 21
362.1519548481
  0
LINE
  8
0
 62
7
  6
CONTINUOUS
 10
448.7604686076
 20
327.2295226618
 11
448.1384194659
 21
315.410075629
  0
LINE
  8
0
 62
7
  6
CONTINUOUS
 10
427.1607620138
 20
279.5088272551
 11
435.1963066436
 21
304.2396906745
  0
LINE
  8
0
 62
7
  6
CONTINUOUS
 10
437.7700797708
 20
266.6838028695
 11
433.5260658839
 21
255.6350645061
  0
LINE
  8
0
 62
7
  6
CONTINUOUS
 10
402.4810322007
 20
227.9734009518
 11
417.765546365
 21
249.0107299107
  0
LINE
  8
0
 62
7
  6
CONTINUOUS
 10
408.6079424985
 20
212.4976184525
 11
401.1573975154
 21
203.3011162506
  0
LINE
  8
0
 62
7
  6
CONTINUOUS
 10
363.0838918015
 20
186.5867538748
 11
384.1212207604
 21
201.8712680391
  0
LINE
  8
0
 62
7
  6
CONTINUOUS
 10
364.1286499714
 20
169.9750906791
 11
354.2008851461
 21
163.5310423499
  0
LINE
  8
0
 62
7
  6
CONTINUOUS
 10
312.8258074144
 20
159.4000993977
 11
337.5566708338
 21
167.4356440275
  0
LINE
  8
0
 62
7
  6
CONTINUOUS
 10
195.5737730848
 20
520.0252888567
 11
207.0069589605
 21
523.0860949643
  0
LINE
  8
0
 62
7
  6
CONTINUOUS
 10
247.6335278245
 20
514.2292530147
 11
221.6299591662
 21
514.2292530147
  0
LINE
  8
0
 62
7
  6
CONTINUOUS
 10
256.5523913524
 20
528.2824642894
 11
268.3718383852
 21
527.6604151478
  0
LINE
  8
0
 62
7
  6
CONTINUOUS
 10
304.2730867591
 20
506.6827576957
 11
279.5422233397
 21
514.7183023255
  0
LINE
  8
0
 62
7
  6
CONTINUOUS
 10
317.0981111448
 20
517.2920754527
 11
328.1468495082
 21
513.0480615658
  0
LINE
  8
0
 62
7
  6
CONTINUOUS
 10
355.8085130625
 20
482.0030278826
 11
334.7711841035
 21
497.2875420469
  0
LINE
  8
0
 62
7
  6
CONTINUOUS
 10
371.2842955617
 20
488.1299381804
 11
380.4807977637
 21
480.6793931973
  0
LINE
  8
0
 62
7
  6
CONTINUOUS
 10
397.1951601395
 20
442.6058874833
 11
381.9106459752
 21
463.6432164423
  0
LINE
  8
0
 62
7
  6
CONTINUOUS
 10
413.8068233352
 20
443.6506456533
 11
420.2508716644
 21
433.722880828
  0
LINE
  8
0
 62
7
  6
CONTINUOUS
 10
424.3818146165
 20
392.3478030963
 11
416.3462699867
 21
417.0786665156
  0
LINE
  8
0
 62
7
  6
CONTINUOUS
 10
440.5032931749
 20
388.2081409295
 11
443.5640992824
 21
376.7749550538
  0
LINE
  8
0
 62
7
  6
CONTINUOUS
 10
644.0674539789
 20
125.4651884558
 11
652.1944436115
 21
125.4651884558
  0
LINE
  8
0
 62
7
  6
CONTINUOUS
 10
669.4674539789
 20
125.4651884558
 11
677.5944436115
 21
125.4651884558
  0
LINE
  8
0
 62
9
  6
CONTINUOUS
 10
677.6303385317
 20
126.3606599925
 11
669.4315590587
 21
126.3606599925
  0
LINE
  8
0
 62
9
  6
CONTINUOUS
 10
652.2303385317
 20
126.3606599925
 11
644.0315590587
 21
126.3606599925
  0
LINE
  8
0
 62
9
  6
CONTINUOUS
 10
677.9868238825
 20
134.6178944957
 11
669.0750737079
 21
134.6178944957
  0
LINE
  8
0
 62
9
  6
CONTINUOUS
 10
652.5868238825
 20
134.6178944957
 11
643.6750737079
 21
134.6178944957
  0
LINE
  8
0
 62
7
  6
CONTINUOUS
 10
677.5974899772
 20
139.9078493456
 11
669.4644076132
 21
139.9078493456
  0
LINE
  8
0
 62
7
  6
CONTINUOUS
 10
652.1974899772
 20
139.9078493456
 11
644.0644076132
 21
139.9078493456
  0
LINE
  8
0
 62
9
  6
CONTINUOUS
 10
677.6303385317
 20
141.1157609856
 11
669.4315590587
 21
141.1157609856
  0
LINE
  8
0
 62
9
  6
CONTINUOUS
 10
652.2303385317
 20
141.1157609856
 11
644.0315590587
 21
141.1157609856
  0
LINE
  8
0
 62
9
  6
CONTINUOUS
 10
677.9868238825
 20
149.2370443436
 11
669.0750737079
 21
149.2370443436
  0
LINE
  8
0
 62
9
  6
CONTINUOUS
 10
652.5868238825
 20
149.2370443436
 11
643.6750737079
 21
149.2370443436
  0
LINE
  8
0
 62
7
  6
CONTINUOUS
 10
669.0309487952
 20
154.6519548481
 11
652.6309487952
 21
154.6519548481
  0
LINE
  8
0
 62
7
  6
CONTINUOUS
 10
637.8309487952
 20
154.6519548481
 11
643.6309487952
 21
154.6519548481
  0
LINE
  8
0
 62
7
  6
CONTINUOUS
 10
678.0309487952
 20
154.6519548481
 11
683.8309487952
 21
154.6519548481
  0
LINE
  8
0
 62
9
  6
CONTINUOUS
 10
678.0309487952
 20
166.0163676493
 11
669.0309487952
 21
166.0163676493
  0
LINE
  8
0
 62
9
  6
CONTINUOUS
 10
652.6309487952
 20
166.0163676493
 11
643.6309487952
 21
166.0163676493
  0
LINE
  8
0
 62
7
  6
CONTINUOUS
 10
643.9623032351
 20
172.3450925294
 11
652.2995943552
 21
172.3450925294
  0
LINE
  8
0
 62
7
  6
CONTINUOUS
 10
669.3623032351
 20
172.3450925294
 11
677.6995943552
 21
172.3450925294
  0
LINE
  8
0
 62
9
  6
CONTINUOUS
 10
677.5974899772
 20
173.0709141812
 11
669.4644076132
 21
173.0709141812
  0
LINE
  8
0
 62
9
  6
CONTINUOUS
 10
652.1974899772
 20
173.0709141812
 11
644.0644076132
 21
173.0709141812
  0
LINE
  8
0
 62
9
  6
CONTINUOUS
 10
677.6303385317
 20
174.5218721777
 11
669.4315590587
 21
174.5218721777
  0
LINE
  8
0
 62
9
  6
CONTINUOUS
 10
652.2303385317
 20
174.5218721777
 11
644.0315590587
 21
174.5218721777
  0
LINE
  8
0
 62
9
  6
CONTINUOUS
 10
677.9868238825
 20
181.712236591
 11
669.0750737079
 21
181.712236591
  0
LINE
  8
0
 62
9
  6
CONTINUOUS
 10
652.5868238825
 20
181.712236591
 11
643.6750737079
 21
181.712236591
  0
POLYLINE
  8
0
 62
7
  6
CONTINUOUS
 66
1
 70
0
  0
VERTEX
  8
0
 62
7
  6
CONTINUOUS
 10
643.9623039639
 20
172.3450925294
  0
VERTEX
  8
0
 62
7
  6
CONTINUOUS
 10
643.9461373034
 20
172.3563927098
  0
VERTEX
  8
0
 62
7
  6
CONTINUOUS
 10
643.8931965909
 20
172.527007667
  0
VERTEX
  8
0
 62
7
  6
CONTINUOUS
 10
643.8344621607
 20
172.9005619329
  0
VERTEX
  8
0
 62
7
  6
CONTINUOUS
 10
643.7706435239
 20
173.471917509
  0
VERTEX
  8
0
 62
7
  6
CONTINUOUS
 10
643.7025212826
 20
174.233219403
  0
VERTEX
  8
0
 62
7
  6
CONTINUOUS
 10
643.6309487952
 20
175.1739715158
  0
SEQEND
  0
LINE
  8
0
 62
9
  6
CONTINUOUS
 10
678.0309487952
 20
199.6606932539
 11
669.0309487952
 21
199.6606932539
  0
LINE
  8
0
 62
9
  6
CONTINUOUS
 10
652.6309487952
 20
199.6606932539
 11
643.6309487952
 21
199.6606932539
  0
POLYLINE
  8
0
 62
7
  6
CONTINUOUS
 66
1
 70
0
  0
VERTEX
  8
0
 62
7
  6
CONTINUOUS
 10
669.3623039639
 20
172.3450925294
  0
VERTEX
  8
0
 62
7
  6
CONTINUOUS
 10
669.3461373034
 20
172.3563927098
  0
VERTEX
  8
0
 62
7
  6
CONTINUOUS
 10
669.2931965909
 20
172.527007667
  0
VERTEX
  8
0
 62
7
  6
CONTINUOUS
 10
669.2344621607
 20
172.9005619329
  0
VERTEX
  8
0
 62
7
  6
CONTINUOUS
 10
669.1706435239
 20
173.471917509
  0
VERTEX
  8
0
 62
7
  6
CONTINUOUS
 10
669.1025212826
 20
174.233219403
  0
VERTEX
  8
0
 62
7
  6
CONTINUOUS
 10
669.0309487952
 20
175.1739715158
  0
SEQEND
  0
POLYLINE
  8
0
 62
7
  6
CONTINUOUS
 66
1
 70
0
  0
VERTEX
  8
0
 62
7
  6
CONTINUOUS
 10
652.2009562927
 20
507.0210342421
  0
VERTEX
  8
0
 62
7
  6
CONTINUOUS
 10
652.1997968509
 20
507.0196562101
  0
VERTEX
  8
0
 62
7
  6
CONTINUOUS
 10
652.196080979
 20
506.9834713969
  0
VERTEX
  8
0
 62
7
  6
CONTINUOUS
 10
652.1944219297
 20
506.8998713579
  0
VERTEX
  8
0
 62
7
  6
CONTINUOUS
 10
652.1948994466
 20
506.7729928753
  0
VERTEX
  8
0
 62
7
  6
CONTINUOUS
 10
652.1974899772
 20
506.6090772663
  0
SEQEND
  0
LINE
  8
0
 62
7
  6
CONTINUOUS
 10
643.8137069367
 20
218.9276749869
 11
652.4481906537
 21
218.9276749869
  0
LINE
  8
0
 62
7
  6
CONTINUOUS
 10
669.2137069367
 20
218.9276749869
 11
677.8481906537
 21
218.9276749869
  0
LINE
  8
0
 62
9
  6
CONTINUOUS
 10
677.5974899772
 20
221.7569961764
 11
669.4644076132
 21
221.7569961764
  0
LINE
  8
0
 62
9
  6
CONTINUOUS
 10
652.1974899772
 20
221.7569961764
 11
644.0644076132
 21
221.7569961764
  0
POLYLINE
  8
0
 62
7
  6
CONTINUOUS
 66
1
 70
0
  0
VERTEX
  8
0
 62
7
  6
CONTINUOUS
 10
677.6009562927
 20
507.0210342421
  0
VERTEX
  8
0
 62
7
  6
CONTINUOUS
 10
677.5997968509
 20
507.0196562101
  0
VERTEX
  8
0
 62
7
  6
CONTINUOUS
 10
677.596080979
 20
506.9834713969
  0
VERTEX
  8
0
 62
7
  6
CONTINUOUS
 10
677.5944219297
 20
506.8998713579
  0
VERTEX
  8
0
 62
7
  6
CONTINUOUS
 10
677.5948994466
 20
506.7729928753
  0
VERTEX
  8
0
 62
7
  6
CONTINUOUS
 10
677.5974899772
 20
506.6090772663
  0
SEQEND
  0
POLYLINE
  8
0
 62
7
  6
CONTINUOUS
 66
1
 70
0
  0
VERTEX
  8
0
 62
7
  6
CONTINUOUS
 10
644.0520070248
 20
464.7773363276
  0
VERTEX
  8
0
 62
7
  6
CONTINUOUS
 10
644.0493078289
 20
464.7742649476
  0
VERTEX
  8
0
 62
7
  6
CONTINUOUS
 10
644.0408526369
 20
464.7323735765
  0
VERTEX
  8
0
 62
7
  6
CONTINUOUS
 10
644.0315590587
 20
464.6433617314
  0
SEQEND
  0
LINE
  8
0
 62
9
  6
CONTINUOUS
 10
677.6303385317
 20
223.3089706512
 11
669.4315590587
 21
223.3089706512
  0
LINE
  8
0
 62
9
  6
CONTINUOUS
 10
652.2303385317
 20
223.3089706512
 11
644.0315590587
 21
223.3089706512
  0
LINE
  8
0
 62
9
  6
CONTINUOUS
 10
677.9868238825
 20
228.864573153
 11
669.0750737079
 21
228.864573153
  0
LINE
  8
0
 62
9
  6
CONTINUOUS
 10
652.5868238825
 20
228.864573153
 11
643.6750737079
 21
228.864573153
  0
LINE
  8
0
 62
9
  6
CONTINUOUS
 10
678.0309487952
 20
246.2252431805
 11
669.0309487952
 21
246.2252431805
  0
LINE
  8
0
 62
9
  6
CONTINUOUS
 10
652.6309487952
 20
246.2252431805
 11
643.6309487952
 21
246.2252431805
  0
POLYLINE
  8
0
 62
7
  6
CONTINUOUS
 66
1
 70
0
  0
VERTEX
  8
0
 62
7
  6
CONTINUOUS
 10
643.813705669
 20
218.9276749869
  0
VERTEX
  8
0
 62
7
  6
CONTINUOUS
 10
643.7706435239
 20
218.9733480867
  0
VERTEX
  8
0
 62
7
  6
CONTINUOUS
 10
643.7025212826
 20
219.2124792676
  0
VERTEX
  8
0
 62
7
  6
CONTINUOUS
 10
643.6309487952
 20
219.6532640428
  0
SEQEND
  0
POLYLINE
  8
0
 62
7
  6
CONTINUOUS
 66
1
 70
0
  0
VERTEX
  8
0
 62
7
  6
CONTINUOUS
 10
644.0609412976
 20
507.0210342421
  0
VERTEX
  8
0
 62
7
  6
CONTINUOUS
 10
644.0565074396
 20
507.0066196157
  0
VERTEX
  8
0
 62
7
  6
CONTINUOUS
 10
644.0493078289
 20
506.9449688639
  0
VERTEX
  8
0
 62
7
  6
CONTINUOUS
 10
644.0408526369
 20
506.8377094779
  0
VERTEX
  8
0
 62
7
  6
CONTINUOUS
 10
644.0315590587
 20
506.6901648484
  0
SEQEND
  0
POLYLINE
  8
0
 62
7
  6
CONTINUOUS
 66
1
 70
0
  0
VERTEX
  8
0
 62
7
  6
CONTINUOUS
 10
669.4520070248
 20
464.7773363276
  0
VERTEX
  8
0
 62
7
  6
CONTINUOUS
 10
669.4493078289
 20
464.7742649476
  0
VERTEX
  8
0
 62
7
  6
CONTINUOUS
 10
669.4408526369
 20
464.7323735765
  0
VERTEX
  8
0
 62
7
  6
CONTINUOUS
 10
669.4315590587
 20
464.6433617314
  0
SEQEND
  0
POLYLINE
  8
0
 62
7
  6
CONTINUOUS
 66
1
 70
0
  0
VERTEX
  8
0
 62
7
  6
CONTINUOUS
 10
669.213705669
 20
218.9276749869
  0
VERTEX
  8
0
 62
7
  6
CONTINUOUS
 10
669.1706435239
 20
218.9733480867
  0
VERTEX
  8
0
 62
7
  6
CONTINUOUS
 10
669.1025212826
 20
219.2124792676
  0
VERTEX
  8
0
 62
7
  6
CONTINUOUS
 10
669.0309487952
 20
219.6532640428
  0
SEQEND
  0
POLYLINE
  8
0
 62
7
  6
CONTINUOUS
 66
1
 70
0
  0
VERTEX
  8
0
 62
7
  6
CONTINUOUS
 10
644.0643308773
 20
139.9078485941
  0
VERTEX
  8
0
 62
7
  6
CONTINUOUS
 10
644.0322387529
 20
140.0099425259
  0
VERTEX
  8
0
 62
7
  6
CONTINUOUS
 10
643.9926646263
 20
140.315939573
  0
VERTEX
  8
0
 62
7
  6
CONTINUOUS
 10
643.9461373034
 20
140.8216442212
  0
VERTEX
  8
0
 62
7
  6
CONTINUOUS
 10
643.8931965909
 20
141.5200886437
  0
VERTEX
  8
0
 62
7
  6
CONTINUOUS
 10
643.8344621607
 20
142.4017030918
  0
VERTEX
  8
0
 62
7
  6
CONTINUOUS
 10
643.7706435239
 20
143.4542510912
  0
VERTEX
  8
0
 62
7
  6
CONTINUOUS
 10
643.7025212826
 20
144.6632021647
  0
VERTEX
  8
0
 62
7
  6
CONTINUOUS
 10
643.6309487952
 20
146.0118342435
  0
SEQEND
  0
POLYLINE
  8
0
 62
7
  6
CONTINUOUS
 66
1
 70
0
  0
VERTEX
  8
0
 62
7
  6
CONTINUOUS
 10
652.2098905655
 20
464.7773363276
  0
VERTEX
  8
0
 62
7
  6
CONTINUOUS
 10
652.2053901508
 20
464.7669628484
  0
VERTEX
  8
0
 62
7
  6
CONTINUOUS
 10
652.1997968509
 20
464.7108650031
  0
VERTEX
  8
0
 62
7
  6
CONTINUOUS
 10
652.196080979
 20
464.6087689339
  0
VERTEX
  8
0
 62
7
  6
CONTINUOUS
 10
652.1944219297
 20
464.4657213126
  0
VERTEX
  8
0
 62
7
  6
CONTINUOUS
 10
652.1948994466
 20
464.2887843015
  0
VERTEX
  8
0
 62
7
  6
CONTINUOUS
 10
652.1974899772
 20
464.0866563705
  0
SEQEND
  0
LINE
  8
0
 62
9
  6
CONTINUOUS
 10
643.6309487952
 20
270.9561065999
 11
652.6309487952
 21
270.9561065999
  0
LINE
  8
0
 62
9
  6
CONTINUOUS
 10
669.0309487952
 20
270.9561065999
 11
678.0309487952
 21
270.9561065999
  0
LINE
  8
0
 62
9
  6
CONTINUOUS
 10
643.6309487952
 20
272.781950806
 11
652.6309487952
 21
272.781950806
  0
LINE
  8
0
 62
9
  6
CONTINUOUS
 10
669.0309487952
 20
272.781950806
 11
678.0309487952
 21
272.781950806
  0
LINE
  8
0
 62
7
  6
CONTINUOUS
 10
643.6311145708
 20
275.0957682358
 11
652.6307830196
 21
275.0957682358
  0
LINE
  8
0
 62
7
  6
CONTINUOUS
 10
669.0311145708
 20
275.0957682358
 11
678.0307830196
 21
275.0957682358
  0
POLYLINE
  8
0
 62
7
  6
CONTINUOUS
 66
1
 70
0
  0
VERTEX
  8
0
 62
7
  6
CONTINUOUS
 10
669.4609412976
 20
507.0210342421
  0
VERTEX
  8
0
 62
7
  6
CONTINUOUS
 10
669.4565074396
 20
507.0066196157
  0
VERTEX
  8
0
 62
7
  6
CONTINUOUS
 10
669.4493078289
 20
506.9449688639
  0
VERTEX
  8
0
 62
7
  6
CONTINUOUS
 10
669.4408526369
 20
506.8377094779
  0
VERTEX
  8
0
 62
7
  6
CONTINUOUS
 10
669.4315590587
 20
506.6901648484
  0
SEQEND
  0
LINE
  8
0
 62
7
  6
CONTINUOUS
 10
644.0403233903
 20
409.6002855023
 11
644.0315590587
 21
409.5784331031
  0
LINE
  8
0
 62
9
  6
CONTINUOUS
 10
677.5974899772
 20
281.2003624095
 11
669.4644076132
 21
281.2003624095
  0
LINE
  8
0
 62
9
  6
CONTINUOUS
 10
652.1974899772
 20
281.2003624095
 11
644.0644076132
 21
281.2003624095
  0
LINE
  8
0
 62
9
  6
CONTINUOUS
 10
677.6303385317
 20
282.7014352878
 11
669.4315590587
 21
282.7014352878
  0
LINE
  8
0
 62
9
  6
CONTINUOUS
 10
652.2303385317
 20
282.7014352878
 11
644.0315590587
 21
282.7014352878
  0
LINE
  8
0
 62
9
  6
CONTINUOUS
 10
677.9868238825
 20
286.078454797
 11
669.0750737079
 21
286.078454797
  0
LINE
  8
0
 62
9
  6
CONTINUOUS
 10
652.5868238825
 20
286.078454797
 11
643.6750737079
 21
286.078454797
  0
POLYLINE
  8
0
 62
7
  6
CONTINUOUS
 66
1
 70
0
  0
VERTEX
  8
0
 62
7
  6
CONTINUOUS
 10
669.4643308773
 20
139.9078485941
  0
VERTEX
  8
0
 62
7
  6
CONTINUOUS
 10
669.4322387529
 20
140.0099425259
  0
VERTEX
  8
0
 62
7
  6
CONTINUOUS
 10
669.3926646263
 20
140.315939573
  0
VERTEX
  8
0
 62
7
  6
CONTINUOUS
 10
669.3461373034
 20
140.8216442212
  0
VERTEX
  8
0
 62
7
  6
CONTINUOUS
 10
669.2931965909
 20
141.5200886437
  0
VERTEX
  8
0
 62
7
  6
CONTINUOUS
 10
669.2344621607
 20
142.4017030918
  0
VERTEX
  8
0
 62
7
  6
CONTINUOUS
 10
669.1706435239
 20
143.4542510912
  0
VERTEX
  8
0
 62
7
  6
CONTINUOUS
 10
669.1025212826
 20
144.6632021647
  0
VERTEX
  8
0
 62
7
  6
CONTINUOUS
 10
669.0309487952
 20
146.0118342435
  0
SEQEND
  0
POLYLINE
  8
0
 62
7
  6
CONTINUOUS
 66
1
 70
0
  0
VERTEX
  8
0
 62
7
  6
CONTINUOUS
 10
644.0644076132
 20
125.5140335163
  0
VERTEX
  8
0
 62
7
  6
CONTINUOUS
 10
644.0669981438
 20
125.4693670525
  0
VERTEX
  8
0
 62
7
  6
CONTINUOUS
 10
644.0674539939
 20
125.4651884558
  0
SEQEND
  0
POLYLINE
  8
0
 62
7
  6
CONTINUOUS
 66
1
 70
0
  0
VERTEX
  8
0
 62
7
  6
CONTINUOUS
 10
644.0644076132
 20
125.5140335163
  0
VERTEX
  8
0
 62
7
  6
CONTINUOUS
 10
644.0322387529
 20
126.1488503895
  0
VERTEX
  8
0
 62
7
  6
CONTINUOUS
 10
643.9926646263
 20
126.9701845081
  0
SEQEND
  0
LINE
  8
0
 62
7
  6
CONTINUOUS
 10
643.9926646263
 20
126.9701845081
 11
643.8931965909
 21
129.1246014111
  0
POLYLINE
  8
0
 62
7
  6
CONTINUOUS
 66
1
 70
0
  0
VERTEX
  8
0
 62
7
  6
CONTINUOUS
 10
643.8931965909
 20
129.1246014111
  0
VERTEX
  8
0
 62
7
  6
CONTINUOUS
 10
643.7706435239
 20
131.8586871677
  0
VERTEX
  8
0
 62
7
  6
CONTINUOUS
 10
643.7025212826
 20
133.3969468663
  0
VERTEX
  8
0
 62
7
  6
CONTINUOUS
 10
643.6309487952
 20
135.0214454067
  0
SEQEND
  0
LINE
  8
0
 62
7
  6
CONTINUOUS
 10
643.8344621607
 20
532.8759322196
 11
643.7025212826
 21
529.9069628299
  0
POLYLINE
  8
0
 62
7
  6
CONTINUOUS
 66
1
 70
0
  0
VERTEX
  8
0
 62
7
  6
CONTINUOUS
 10
643.6309487952
 20
523.0860949643
  0
VERTEX
  8
0
 62
7
  6
CONTINUOUS
 10
644.0408526369
 20
531.7946431251
  0
VERTEX
  8
0
 62
7
  6
CONTINUOUS
 10
644.0493078289
 20
531.9567712302
  0
VERTEX
  8
0
 62
7
  6
CONTINUOUS
 10
644.0565074396
 20
532.0813400277
  0
VERTEX
  8
0
 62
7
  6
CONTINUOUS
 10
644.0621007395
 20
532.1622349493
  0
VERTEX
  8
0
 62
7
  6
CONTINUOUS
 10
644.0658166114
 20
532.1955034136
  0
VERTEX
  8
0
 62
7
  6
CONTINUOUS
 10
644.0662616432
 20
532.1962717646
  0
SEQEND
  0
POLYLINE
  8
0
 62
7
  6
CONTINUOUS
 66
1
 70
0
  0
VERTEX
  8
0
 62
7
  6
CONTINUOUS
 10
644.0644076132
 20
537.7898761799
  0
VERTEX
  8
0
 62
7
  6
CONTINUOUS
 10
644.0322387529
 20
537.1550593067
  0
VERTEX
  8
0
 62
7
  6
CONTINUOUS
 10
643.9926646263
 20
536.3337251881
  0
VERTEX
  8
0
 62
7
  6
CONTINUOUS
 10
643.9461373034
 20
535.3372135664
  0
VERTEX
  8
0
 62
7
  6
CONTINUOUS
 10
643.8344621607
 20
532.8759322196
  0
SEQEND
  0
LINE
  8
0
 62
7
  6
CONTINUOUS
 10
644.0315590587
 20
506.6901648484
 11
643.6309487952
 21
499.7728673463
  0
POLYLINE
  8
0
 62
7
  6
CONTINUOUS
 66
1
 70
0
  0
VERTEX
  8
0
 62
7
  6
CONTINUOUS
 10
644.0315590587
 20
464.6433617314
  0
VERTEX
  8
0
 62
7
  6
CONTINUOUS
 10
643.6455863603
 20
460.1594887522
  0
VERTEX
  8
0
 62
7
  6
CONTINUOUS
 10
643.6309487952
 20
460.0027934456
  0
SEQEND
  0
POLYLINE
  8
0
 62
7
  6
CONTINUOUS
 66
1
 70
0
  0
VERTEX
  8
0
 62
7
  6
CONTINUOUS
 10
644.0674539939
 20
537.8387212404
  0
VERTEX
  8
0
 62
7
  6
CONTINUOUS
 10
644.0669981438
 20
537.8345426437
  0
VERTEX
  8
0
 62
7
  6
CONTINUOUS
 10
644.0644076132
 20
537.7898761799
  0
SEQEND
  0
LINE
  8
0
 62
7
  6
CONTINUOUS
 10
644.0315590587
 20
409.5784331031
 11
643.6750737079
 21
407.8522010361
  0
POLYLINE
  8
0
 62
7
  6
CONTINUOUS
 66
1
 70
0
  0
VERTEX
  8
0
 62
7
  6
CONTINUOUS
 10
643.6750737079
 20
407.8522010361
  0
VERTEX
  8
0
 62
7
  6
CONTINUOUS
 10
643.6602969404
 20
407.7839826134
  0
VERTEX
  8
0
 62
7
  6
CONTINUOUS
 10
643.6455863603
 20
407.7228551056
  0
VERTEX
  8
0
 62
7
  6
CONTINUOUS
 10
643.6309487952
 20
407.6688451901
  0
SEQEND
  0
POLYLINE
  8
0
 62
7
  6
CONTINUOUS
 66
1
 70
0
  0
VERTEX
  8
0
 62
7
  6
CONTINUOUS
 10
652.2215742001
 20
409.6002855023
  0
VERTEX
  8
0
 62
7
  6
CONTINUOUS
 10
652.2125897615
 20
409.5726218011
  0
VERTEX
  8
0
 62
7
  6
CONTINUOUS
 10
652.2053901508
 20
409.4970816313
  0
VERTEX
  8
0
 62
7
  6
CONTINUOUS
 10
652.1997968509
 20
409.3773405941
  0
VERTEX
  8
0
 62
7
  6
CONTINUOUS
 10
652.196080979
 20
409.2193271437
  0
VERTEX
  8
0
 62
7
  6
CONTINUOUS
 10
652.1944219297
 20
409.0308344379
  0
VERTEX
  8
0
 62
7
  6
CONTINUOUS
 10
652.1948994466
 20
408.8211587257
  0
VERTEX
  8
0
 62
7
  6
CONTINUOUS
 10
652.1974899772
 20
408.6006041628
  0
SEQEND
  0
POLYLINE
  8
0
 62
7
  6
CONTINUOUS
 66
1
 70
0
  0
VERTEX
  8
0
 62
7
  6
CONTINUOUS
 10
677.6098905655
 20
464.7773363276
  0
VERTEX
  8
0
 62
7
  6
CONTINUOUS
 10
677.6053901508
 20
464.7669628484
  0
VERTEX
  8
0
 62
7
  6
CONTINUOUS
 10
677.5997968509
 20
464.7108650031
  0
VERTEX
  8
0
 62
7
  6
CONTINUOUS
 10
677.596080979
 20
464.6087689339
  0
VERTEX
  8
0
 62
7
  6
CONTINUOUS
 10
677.5944219297
 20
464.4657213126
  0
VERTEX
  8
0
 62
7
  6
CONTINUOUS
 10
677.5948994466
 20
464.2887843015
  0
VERTEX
  8
0
 62
7
  6
CONTINUOUS
 10
677.5974899772
 20
464.0866563705
  0
SEQEND
  0
LINE
  8
0
 62
9
  6
CONTINUOUS
 10
678.0309487952
 20
301.1519548481
 11
669.0309487952
 21
301.1519548481
  0
LINE
  8
0
 62
9
  6
CONTINUOUS
 10
652.6309487952
 20
301.1519548481
 11
643.6309487952
 21
301.1519548481
  0
POLYLINE
  8
0
 62
7
  6
CONTINUOUS
 66
1
 70
0
  0
VERTEX
  8
0
 62
7
  6
CONTINUOUS
 10
644.0315590587
 20
282.7014352878
  0
VERTEX
  8
0
 62
7
  6
CONTINUOUS
 10
643.6602969404
 20
286.2221135373
  0
VERTEX
  8
0
 62
7
  6
CONTINUOUS
 10
643.6455863603
 20
286.3723022519
  0
VERTEX
  8
0
 62
7
  6
CONTINUOUS
 10
643.6309487952
 20
286.5289546424
  0
SEQEND
  0
POLYLINE
  8
0
 62
7
  6
CONTINUOUS
 66
1
 70
0
  0
VERTEX
  8
0
 62
7
  6
CONTINUOUS
 10
652.1974899772
 20
173.0709141812
  0
VERTEX
  8
0
 62
7
  6
CONTINUOUS
 10
652.2296588374
 20
172.6302900768
  0
VERTEX
  8
0
 62
7
  6
CONTINUOUS
 10
652.2692329641
 20
172.3909969294
  0
VERTEX
  8
0
 62
7
  6
CONTINUOUS
 10
652.2995936264
 20
172.3450925294
  0
SEQEND
  0
POLYLINE
  8
0
 62
7
  6
CONTINUOUS
 66
1
 70
0
  0
VERTEX
  8
0
 62
7
  6
CONTINUOUS
 10
644.0315590587
 20
223.3089706512
  0
VERTEX
  8
0
 62
7
  6
CONTINUOUS
 10
643.6455863603
 20
229.3370206573
  0
VERTEX
  8
0
 62
7
  6
CONTINUOUS
 10
643.6309487952
 20
229.5810288682
  0
SEQEND
  0
LINE
  8
0
 62
7
  6
CONTINUOUS
 10
643.6455863603
 20
182.3170376912
 11
643.6309487952
 21
182.6245164989
  0
LINE
  8
0
 62
7
  6
CONTINUOUS
 10
644.0408526369
 20
140.8947013446
 11
643.6309487952
 21
150.2558481304
  0
POLYLINE
  8
0
 62
7
  6
CONTINUOUS
 66
1
 70
0
  0
VERTEX
  8
0
 62
7
  6
CONTINUOUS
 10
652.1974899772
 20
221.7569961764
  0
VERTEX
  8
0
 62
7
  6
CONTINUOUS
 10
652.2296588374
 20
220.8167861446
  0
VERTEX
  8
0
 62
7
  6
CONTINUOUS
 10
652.2692329641
 20
220.0556264832
  0
VERTEX
  8
0
 62
7
  6
CONTINUOUS
 10
652.3157602869
 20
219.484100698
  0
VERTEX
  8
0
 62
7
  6
CONTINUOUS
 10
652.3687009995
 20
219.1101852091
  0
VERTEX
  8
0
 62
7
  6
CONTINUOUS
 10
652.4274354296
 20
218.9391131986
  0
VERTEX
  8
0
 62
7
  6
CONTINUOUS
 10
652.4481919214
 20
218.9276749869
  0
SEQEND
  0
LINE
  8
0
 62
7
  6
CONTINUOUS
 10
635.8309487952
 20
506.6519548481
 11
635.8309487952
 21
156.6519548481
  0
LINE
  8
0
 62
9
  6
CONTINUOUS
 10
637.8309487952
 20
508.6519548481
 11
637.8309487952
 21
154.6519548481
  0
LINE
  8
0
 62
7
  6
CONTINUOUS
 10
643.6309487952
 20
135.0214454067
 11
643.6309487952
 21
528.2824642894
  0
POLYLINE
  8
0
 62
7
  6
CONTINUOUS
 66
1
 70
0
  0
VERTEX
  8
0
 62
7
  6
CONTINUOUS
 10
644.0674539939
 20
125.4651884558
  0
VERTEX
  8
0
 62
7
  6
CONTINUOUS
 10
644.0674756607
 20
125.4737490673
  0
VERTEX
  8
0
 62
7
  6
CONTINUOUS
 10
644.0658166114
 20
125.5269740686
  0
VERTEX
  8
0
 62
7
  6
CONTINUOUS
 10
644.0621007395
 20
125.6264392613
  0
VERTEX
  8
0
 62
7
  6
CONTINUOUS
 10
643.6309487952
 20
135.6434945484
  0
SEQEND
  0
POLYLINE
  8
0
 62
7
  6
CONTINUOUS
 66
1
 70
0
  0
VERTEX
  8
0
 62
7
  6
CONTINUOUS
 10
644.0644076132
 20
408.6006041628
  0
VERTEX
  8
0
 62
7
  6
CONTINUOUS
 10
644.0669981438
 20
408.8211587257
  0
VERTEX
  8
0
 62
7
  6
CONTINUOUS
 10
644.0674756607
 20
409.0308344379
  0
VERTEX
  8
0
 62
7
  6
CONTINUOUS
 10
644.0658166114
 20
409.2193271437
  0
VERTEX
  8
0
 62
7
  6
CONTINUOUS
 10
644.0621007395
 20
409.3773405941
  0
VERTEX
  8
0
 62
7
  6
CONTINUOUS
 10
644.0565074396
 20
409.4970816313
  0
VERTEX
  8
0
 62
7
  6
CONTINUOUS
 10
644.0493078289
 20
409.5726218011
  0
VERTEX
  8
0
 62
7
  6
CONTINUOUS
 10
644.0403233903
 20
409.6002855023
  0
SEQEND
  0
POLYLINE
  8
0
 62
7
  6
CONTINUOUS
 66
1
 70
0
  0
VERTEX
  8
0
 62
7
  6
CONTINUOUS
 10
644.0644076132
 20
345.5822820275
  0
VERTEX
  8
0
 62
7
  6
CONTINUOUS
 10
644.0669981438
 20
345.7996738049
  0
VERTEX
  8
0
 62
7
  6
CONTINUOUS
 10
644.0674756607
 20
346.0215636985
  0
VERTEX
  8
0
 62
7
  6
CONTINUOUS
 10
644.0658166114
 20
346.2370505094
  0
VERTEX
  8
0
 62
7
  6
CONTINUOUS
 10
644.0621007395
 20
346.4355138837
  0
VERTEX
  8
0
 62
7
  6
CONTINUOUS
 10
644.0565074396
 20
346.6071770258
  0
VERTEX
  8
0
 62
7
  6
CONTINUOUS
 10
644.0493078289
 20
346.743560868
  0
VERTEX
  8
0
 62
7
  6
CONTINUOUS
 10
644.0408526369
 20
346.8379073108
  0
VERTEX
  8
0
 62
7
  6
CONTINUOUS
 10
644.0315590587
 20
346.8855178374
  0
SEQEND
  0
POLYLINE
  8
0
 62
7
  6
CONTINUOUS
 66
1
 70
0
  0
VERTEX
  8
0
 62
7
  6
CONTINUOUS
 10
644.0644076132
 20
464.0866563705
  0
VERTEX
  8
0
 62
7
  6
CONTINUOUS
 10
644.0669981438
 20
464.2887843015
  0
VERTEX
  8
0
 62
7
  6
CONTINUOUS
 10
644.0674756607
 20
464.4657213126
  0
VERTEX
  8
0
 62
7
  6
CONTINUOUS
 10
644.0658166114
 20
464.6087689339
  0
VERTEX
  8
0
 62
7
  6
CONTINUOUS
 10
644.0621007395
 20
464.7108650031
  0
VERTEX
  8
0
 62
7
  6
CONTINUOUS
 10
644.0565074396
 20
464.7669628484
  0
VERTEX
  8
0
 62
7
  6
CONTINUOUS
 10
644.0520070248
 20
464.7773363276
  0
SEQEND
  0
POLYLINE
  8
0
 62
7
  6
CONTINUOUS
 66
1
 70
0
  0
VERTEX
  8
0
 62
7
  6
CONTINUOUS
 10
644.0644076132
 20
281.2003624095
  0
VERTEX
  8
0
 62
7
  6
CONTINUOUS
 10
644.0669981438
 20
281.3933115796
  0
VERTEX
  8
0
 62
7
  6
CONTINUOUS
 10
644.0674756607
 20
281.6056955259
  0
VERTEX
  8
0
 62
7
  6
CONTINUOUS
 10
644.0658166114
 20
281.8270830915
  0
VERTEX
  8
0
 62
7
  6
CONTINUOUS
 10
644.0621007395
 20
282.0465694117
  0
VERTEX
  8
0
 62
7
  6
CONTINUOUS
 10
644.0565074396
 20
282.2533510743
  0
VERTEX
  8
0
 62
7
  6
CONTINUOUS
 10
644.0493078289
 20
282.4372283882
  0
VERTEX
  8
0
 62
7
  6
CONTINUOUS
 10
644.0408526369
 20
282.5891087235
  0
VERTEX
  8
0
 62
7
  6
CONTINUOUS
 10
644.0315590587
 20
282.7014352878
  0
SEQEND
  0
POLYLINE
  8
0
 62
7
  6
CONTINUOUS
 66
1
 70
0
  0
VERTEX
  8
0
 62
7
  6
CONTINUOUS
 10
644.0644076132
 20
506.6090772663
  0
VERTEX
  8
0
 62
7
  6
CONTINUOUS
 10
644.0669981438
 20
506.7729928753
  0
VERTEX
  8
0
 62
7
  6
CONTINUOUS
 10
644.0674756607
 20
506.8998713579
  0
VERTEX
  8
0
 62
7
  6
CONTINUOUS
 10
644.0658166114
 20
506.9834713969
  0
VERTEX
  8
0
 62
7
  6
CONTINUOUS
 10
644.0621007395
 20
507.0196562101
  0
VERTEX
  8
0
 62
7
  6
CONTINUOUS
 10
644.0609412976
 20
507.0210342421
  0
SEQEND
  0
POLYLINE
  8
0
 62
7
  6
CONTINUOUS
 66
1
 70
0
  0
VERTEX
  8
0
 62
7
  6
CONTINUOUS
 10
644.0644076132
 20
221.7569961764
  0
VERTEX
  8
0
 62
7
  6
CONTINUOUS
 10
644.0669981438
 20
221.90661553
  0
VERTEX
  8
0
 62
7
  6
CONTINUOUS
 10
644.0674756607
 20
222.0887039085
  0
VERTEX
  8
0
 62
7
  6
CONTINUOUS
 10
644.0658166114
 20
222.2943212714
  0
VERTEX
  8
0
 62
7
  6
CONTINUOUS
 10
644.0621007395
 20
222.5133456874
  0
VERTEX
  8
0
 62
7
  6
CONTINUOUS
 10
644.0565074396
 20
222.7350046405
  0
VERTEX
  8
0
 62
7
  6
CONTINUOUS
 10
644.0493078289
 20
222.9483762335
  0
VERTEX
  8
0
 62
7
  6
CONTINUOUS
 10
644.0408526369
 20
223.1429233558
  0
VERTEX
  8
0
 62
7
  6
CONTINUOUS
 10
644.0315590587
 20
223.3089706512
  0
SEQEND
  0
POLYLINE
  8
0
 62
7
  6
CONTINUOUS
 66
1
 70
0
  0
VERTEX
  8
0
 62
7
  6
CONTINUOUS
 10
644.0644076132
 20
408.6006041628
  0
VERTEX
  8
0
 62
7
  6
CONTINUOUS
 10
644.0322387529
 20
406.8605041082
  0
VERTEX
  8
0
 62
7
  6
CONTINUOUS
 10
643.9926646263
 20
405.1443731424
  0
VERTEX
  8
0
 62
7
  6
CONTINUOUS
 10
643.9461373034
 20
403.475992665
  0
VERTEX
  8
0
 62
7
  6
CONTINUOUS
 10
643.8931965909
 20
401.8785233637
  0
VERTEX
  8
0
 62
7
  6
CONTINUOUS
 10
643.8344621607
 20
400.3740400885
  0
VERTEX
  8
0
 62
7
  6
CONTINUOUS
 10
643.7706435239
 20
398.9835759221
  0
VERTEX
  8
0
 62
7
  6
CONTINUOUS
 10
643.7025212826
 20
397.7264317864
  0
VERTEX
  8
0
 62
7
  6
CONTINUOUS
 10
643.6309487952
 20
396.6201068267
  0
SEQEND
  0
POLYLINE
  8
0
 62
7
  6
CONTINUOUS
 66
1
 70
0
  0
VERTEX
  8
0
 62
7
  6
CONTINUOUS
 10
644.0644076132
 20
464.0866563705
  0
VERTEX
  8
0
 62
7
  6
CONTINUOUS
 10
644.0322387529
 20
462.4001743468
  0
VERTEX
  8
0
 62
7
  6
CONTINUOUS
 10
643.9926646263
 20
460.6734785212
  0
VERTEX
  8
0
 62
7
  6
CONTINUOUS
 10
643.9461373034
 20
458.930483066
  0
VERTEX
  8
0
 62
7
  6
CONTINUOUS
 10
643.8931965909
 20
457.1953682813
  0
VERTEX
  8
0
 62
7
  6
CONTINUOUS
 10
643.8344621607
 20
455.4920858118
  0
VERTEX
  8
0
 62
7
  6
CONTINUOUS
 10
643.7706435239
 20
453.8444205865
  0
VERTEX
  8
0
 62
7
  6
CONTINUOUS
 10
643.7025212826
 20
452.2752190372
  0
VERTEX
  8
0
 62
7
  6
CONTINUOUS
 10
643.6309487952
 20
450.8062912436
  0
SEQEND
  0
POLYLINE
  8
0
 62
7
  6
CONTINUOUS
 66
1
 70
0
  0
VERTEX
  8
0
 62
7
  6
CONTINUOUS
 10
644.0644076132
 20
345.5822820275
  0
VERTEX
  8
0
 62
7
  6
CONTINUOUS
 10
644.0322387529
 20
343.9588970593
  0
VERTEX
  8
0
 62
7
  6
CONTINUOUS
 10
643.9926646263
 20
342.4213178092
  0
VERTEX
  8
0
 62
7
  6
CONTINUOUS
 10
643.9461373034
 20
340.9908650149
  0
VERTEX
  8
0
 62
7
  6
CONTINUOUS
 10
643.8931965909
 20
339.6874126225
  0
VERTEX
  8
0
 62
7
  6
CONTINUOUS
 10
643.8344621607
 20
338.5289978469
  0
VERTEX
  8
0
 62
7
  6
CONTINUOUS
 10
643.7706435239
 20
337.5318430601
  0
VERTEX
  8
0
 62
7
  6
CONTINUOUS
 10
643.7025212826
 20
336.7098143649
  0
VERTEX
  8
0
 62
7
  6
CONTINUOUS
 10
643.6309487952
 20
336.0743870343
  0
SEQEND
  0
POLYLINE
  8
0
 62
7
  6
CONTINUOUS
 66
1
 70
0
  0
VERTEX
  8
0
 62
7
  6
CONTINUOUS
 10
644.0644076132
 20
506.6090772663
  0
VERTEX
  8
0
 62
7
  6
CONTINUOUS
 10
644.0322387529
 20
505.1412978845
  0
VERTEX
  8
0
 62
7
  6
CONTINUOUS
 10
643.9926646263
 20
503.573058217
  0
VERTEX
  8
0
 62
7
  6
CONTINUOUS
 10
643.9461373034
 20
501.9260643234
  0
VERTEX
  8
0
 62
7
  6
CONTINUOUS
 10
643.8931965909
 20
500.2231491796
  0
VERTEX
  8
0
 62
7
  6
CONTINUOUS
 10
643.8344621607
 20
498.4877966715
  0
VERTEX
  8
0
 62
7
  6
CONTINUOUS
 10
643.7706435239
 20
496.7442153394
  0
VERTEX
  8
0
 62
7
  6
CONTINUOUS
 10
643.7025212826
 20
495.0165607575
  0
VERTEX
  8
0
 62
7
  6
CONTINUOUS
 10
643.6309487952
 20
493.3288190171
  0
SEQEND
  0
POLYLINE
  8
0
 62
7
  6
CONTINUOUS
 66
1
 70
0
  0
VERTEX
  8
0
 62
7
  6
CONTINUOUS
 10
644.0644076132
 20
281.2003624095
  0
VERTEX
  8
0
 62
7
  6
CONTINUOUS
 10
644.0322387529
 20
279.8526007592
  0
VERTEX
  8
0
 62
7
  6
CONTINUOUS
 10
643.9926646263
 20
278.6440821948
  0
VERTEX
  8
0
 62
7
  6
CONTINUOUS
 10
643.9461373034
 20
277.5915797697
  0
VERTEX
  8
0
 62
7
  6
CONTINUOUS
 10
643.8931965909
 20
276.7097352881
  0
VERTEX
  8
0
 62
7
  6
CONTINUOUS
 10
643.8344621607
 20
276.0107827215
  0
VERTEX
  8
0
 62
7
  6
CONTINUOUS
 10
643.7706435239
 20
275.5045457722
  0
VERTEX
  8
0
 62
7
  6
CONTINUOUS
 10
643.7025212826
 20
275.1980984138
  0
VERTEX
  8
0
 62
7
  6
CONTINUOUS
 10
643.6311147448
 20
275.0957682358
  0
SEQEND
  0
POLYLINE
  8
0
 62
7
  6
CONTINUOUS
 66
1
 70
0
  0
VERTEX
  8
0
 62
7
  6
CONTINUOUS
 10
644.0644076132
 20
173.0709141812
  0
VERTEX
  8
0
 62
7
  6
CONTINUOUS
 10
644.0669981438
 20
173.1625579336
  0
VERTEX
  8
0
 62
7
  6
CONTINUOUS
 10
644.0674756607
 20
173.2965266652
  0
VERTEX
  8
0
 62
7
  6
CONTINUOUS
 10
644.0658166114
 20
173.4662465653
  0
VERTEX
  8
0
 62
7
  6
CONTINUOUS
 10
644.0621007395
 20
173.663369441
  0
VERTEX
  8
0
 62
7
  6
CONTINUOUS
 10
644.0565074396
 20
173.8782081621
  0
VERTEX
  8
0
 62
7
  6
CONTINUOUS
 10
644.0493078289
 20
174.100187736
  0
VERTEX
  8
0
 62
7
  6
CONTINUOUS
 10
644.0408526369
 20
174.3183580175
  0
VERTEX
  8
0
 62
7
  6
CONTINUOUS
 10
643.6455863603
 20
182.3170376912
  0
SEQEND
  0
POLYLINE
  8
0
 62
7
  6
CONTINUOUS
 66
1
 70
0
  0
VERTEX
  8
0
 62
7
  6
CONTINUOUS
 10
644.0644076132
 20
532.0054760219
  0
VERTEX
  8
0
 62
7
  6
CONTINUOUS
 10
644.0322387529
 20
530.9000757544
  0
VERTEX
  8
0
 62
7
  6
CONTINUOUS
 10
643.9926646263
 20
529.6438024703
  0
VERTEX
  8
0
 62
7
  6
CONTINUOUS
 10
643.9461373034
 20
528.2540293759
  0
VERTEX
  8
0
 62
7
  6
CONTINUOUS
 10
643.8931965909
 20
526.7500070722
  0
VERTEX
  8
0
 62
7
  6
CONTINUOUS
 10
643.8344621607
 20
525.1524529198
  0
VERTEX
  8
0
 62
7
  6
CONTINUOUS
 10
643.7706435239
 20
523.48362937
  0
VERTEX
  8
0
 62
7
  6
CONTINUOUS
 10
643.7025212826
 20
521.7666366232
  0
VERTEX
  8
0
 62
7
  6
CONTINUOUS
 10
643.6309487952
 20
520.0252888567
  0
SEQEND
  0
POLYLINE
  8
0
 62
7
  6
CONTINUOUS
 66
1
 70
0
  0
VERTEX
  8
0
 62
7
  6
CONTINUOUS
 10
644.0644076132
 20
221.7569961764
  0
VERTEX
  8
0
 62
7
  6
CONTINUOUS
 10
644.0322387529
 20
220.8167861446
  0
VERTEX
  8
0
 62
7
  6
CONTINUOUS
 10
643.9926646263
 20
220.0556264832
  0
VERTEX
  8
0
 62
7
  6
CONTINUOUS
 10
643.9461373034
 20
219.484100698
  0
VERTEX
  8
0
 62
7
  6
CONTINUOUS
 10
643.8931965909
 20
219.1101852091
  0
VERTEX
  8
0
 62
7
  6
CONTINUOUS
 10
643.8344621607
 20
218.9391131986
  0
VERTEX
  8
0
 62
7
  6
CONTINUOUS
 10
643.813705669
 20
218.9276749869
  0
SEQEND
  0
LINE
  8
0
 62
7
  6
CONTINUOUS
 10
643.7025212826
 20
529.9069628299
 11
643.6309487952
 21
528.2824642894
  0
POLYLINE
  8
0
 62
7
  6
CONTINUOUS
 66
1
 70
0
  0
VERTEX
  8
0
 62
7
  6
CONTINUOUS
 10
652.1956359471
 20
532.1962717646
  0
VERTEX
  8
0
 62
7
  6
CONTINUOUS
 10
652.1944219297
 20
532.1795343112
  0
VERTEX
  8
0
 62
7
  6
CONTINUOUS
 10
652.1948994466
 20
532.115134107
  0
VERTEX
  8
0
 62
7
  6
CONTINUOUS
 10
652.1974899772
 20
532.0054760219
  0
SEQEND
  0
POLYLINE
  8
0
 62
7
  6
CONTINUOUS
 66
1
 70
0
  0
VERTEX
  8
0
 62
7
  6
CONTINUOUS
 10
669.4674539939
 20
537.8387212404
  0
VERTEX
  8
0
 62
7
  6
CONTINUOUS
 10
669.4669981438
 20
537.8345426437
  0
VERTEX
  8
0
 62
7
  6
CONTINUOUS
 10
669.4644076132
 20
537.7898761799
  0
SEQEND
  0
POLYLINE
  8
0
 62
7
  6
CONTINUOUS
 66
1
 70
0
  0
VERTEX
  8
0
 62
7
  6
CONTINUOUS
 10
652.5868238825
 20
347.7533881553
  0
VERTEX
  8
0
 62
7
  6
CONTINUOUS
 10
652.60160065
 20
347.7930494773
  0
VERTEX
  8
0
 62
7
  6
CONTINUOUS
 10
652.61631123
 20
347.8398717246
  0
VERTEX
  8
0
 62
7
  6
CONTINUOUS
 10
652.6309487952
 20
347.8938340671
  0
SEQEND
  0
LINE
  8
0
 62
7
  6
CONTINUOUS
 10
669.4403233903
 20
409.6002855023
 11
669.4315590587
 21
409.5784331031
  0
LINE
  8
0
 62
7
  6
CONTINUOUS
 10
652.5868238825
 20
347.7533881553
 11
652.2303385317
 21
346.8855178374
  0
POLYLINE
  8
0
 62
7
  6
CONTINUOUS
 66
1
 70
0
  0
VERTEX
  8
0
 62
7
  6
CONTINUOUS
 10
644.0662616432
 20
532.1962717646
  0
VERTEX
  8
0
 62
7
  6
CONTINUOUS
 10
644.0674756607
 20
532.1795343112
  0
VERTEX
  8
0
 62
7
  6
CONTINUOUS
 10
644.0669981438
 20
532.115134107
  0
VERTEX
  8
0
 62
7
  6
CONTINUOUS
 10
644.0644076132
 20
532.0054760219
  0
SEQEND
  0
LINE
  8
0
 62
7
  6
CONTINUOUS
 10
669.4315590587
 20
223.3089706512
 11
669.0602969404
 21
229.098166993
  0
POLYLINE
  8
0
 62
7
  6
CONTINUOUS
 66
1
 70
0
  0
VERTEX
  8
0
 62
7
  6
CONTINUOUS
 10
669.4644076132
 20
125.5140335163
  0
VERTEX
  8
0
 62
7
  6
CONTINUOUS
 10
669.4669981438
 20
125.4693670525
  0
VERTEX
  8
0
 62
7
  6
CONTINUOUS
 10
669.4674539939
 20
125.4651884558
  0
SEQEND
  0
LINE
  8
0
 62
7
  6
CONTINUOUS
 10
652.61631123
 20
500.0169096156
 11
652.2303385317
 21
506.6901648484
  0
POLYLINE
  8
0
 62
7
  6
CONTINUOUS
 66
1
 70
0
  0
VERTEX
  8
0
 62
7
  6
CONTINUOUS
 10
669.4644076132
 20
125.5140335163
  0
VERTEX
  8
0
 62
7
  6
CONTINUOUS
 10
669.4322387529
 20
126.1488503895
  0
VERTEX
  8
0
 62
7
  6
CONTINUOUS
 10
669.3926646263
 20
126.9701845081
  0
SEQEND
  0
POLYLINE
  8
0
 62
7
  6
CONTINUOUS
 66
1
 70
0
  0
VERTEX
  8
0
 62
7
  6
CONTINUOUS
 10
652.1974899772
 20
537.7898761799
  0
VERTEX
  8
0
 62
7
  6
CONTINUOUS
 10
652.2296588374
 20
537.1550593067
  0
VERTEX
  8
0
 62
7
  6
CONTINUOUS
 10
652.2692329641
 20
536.3337251881
  0
SEQEND
  0
LINE
  8
0
 62
7
  6
CONTINUOUS
 10
652.2303385317
 20
531.6030084077
 11
652.2125897615
 21
531.9567712302
  0
LINE
  8
0
 62
7
  6
CONTINUOUS
 10
669.0455863603
 20
182.3170376912
 11
669.0309487952
 21
182.6245164989
  0
LINE
  8
0
 62
7
  6
CONTINUOUS
 10
652.2303385317
 20
531.6030084077
 11
652.6309487952
 21
523.0860949643
  0
LINE
  8
0
 62
7
  6
CONTINUOUS
 10
669.3926646263
 20
126.9701845081
 11
669.2931965909
 21
129.1246014111
  0
LINE
  8
0
 62
7
  6
CONTINUOUS
 10
652.2692329641
 20
536.3337251881
 11
652.3687009995
 21
534.1793082851
  0
LINE
  8
0
 62
7
  6
CONTINUOUS
 10
669.2931965909
 20
129.1246014111
 11
669.1706435239
 21
131.8586871677
  0
LINE
  8
0
 62
7
  6
CONTINUOUS
 10
652.3687009995
 20
534.1793082851
 11
652.4912540665
 21
531.4452225285
  0
LINE
  8
0
 62
7
  6
CONTINUOUS
 10
669.1706435239
 20
131.8586871677
 11
669.0309487952
 21
135.0214454067
  0
LINE
  8
0
 62
7
  6
CONTINUOUS
 10
652.4912540665
 20
531.4452225285
 11
652.6309487952
 21
528.2824642894
  0
POLYLINE
  8
0
 62
7
  6
CONTINUOUS
 66
1
 70
0
  0
VERTEX
  8
0
 62
7
  6
CONTINUOUS
 10
652.1974899772
 20
532.0054760219
  0
VERTEX
  8
0
 62
7
  6
CONTINUOUS
 10
652.2296588374
 20
530.9000757544
  0
VERTEX
  8
0
 62
7
  6
CONTINUOUS
 10
652.2692329641
 20
529.6438024703
  0
VERTEX
  8
0
 62
7
  6
CONTINUOUS
 10
652.3157602869
 20
528.2540293759
  0
VERTEX
  8
0
 62
7
  6
CONTINUOUS
 10
652.3687009995
 20
526.7500070722
  0
VERTEX
  8
0
 62
7
  6
CONTINUOUS
 10
652.4274354296
 20
525.1524529198
  0
VERTEX
  8
0
 62
7
  6
CONTINUOUS
 10
652.4912540665
 20
523.48362937
  0
VERTEX
  8
0
 62
7
  6
CONTINUOUS
 10
652.5593763078
 20
521.7666366232
  0
VERTEX
  8
0
 62
7
  6
CONTINUOUS
 10
652.6309487952
 20
520.0252888567
  0
SEQEND
  0
POLYLINE
  8
0
 62
7
  6
CONTINUOUS
 66
1
 70
0
  0
VERTEX
  8
0
 62
7
  6
CONTINUOUS
 10
652.1974899772
 20
281.2003624095
  0
VERTEX
  8
0
 62
7
  6
CONTINUOUS
 10
652.2296588374
 20
279.8526007592
  0
VERTEX
  8
0
 62
7
  6
CONTINUOUS
 10
652.2692329641
 20
278.6440821948
  0
VERTEX
  8
0
 62
7
  6
CONTINUOUS
 10
652.3157602869
 20
277.5915797697
  0
VERTEX
  8
0
 62
7
  6
CONTINUOUS
 10
652.3687009995
 20
276.7097352881
  0
VERTEX
  8
0
 62
7
  6
CONTINUOUS
 10
652.4274354296
 20
276.0107827215
  0
VERTEX
  8
0
 62
7
  6
CONTINUOUS
 10
652.4912540665
 20
275.5045457722
  0
VERTEX
  8
0
 62
7
  6
CONTINUOUS
 10
652.5593763078
 20
275.1980984138
  0
VERTEX
  8
0
 62
7
  6
CONTINUOUS
 10
652.6307828456
 20
275.0957682358
  0
SEQEND
  0
POLYLINE
  8
0
 62
7
  6
CONTINUOUS
 66
1
 70
0
  0
VERTEX
  8
0
 62
7
  6
CONTINUOUS
 10
652.1974899772
 20
506.6090772663
  0
VERTEX
  8
0
 62
7
  6
CONTINUOUS
 10
652.2296588374
 20
505.1412978845
  0
VERTEX
  8
0
 62
7
  6
CONTINUOUS
 10
652.2692329641
 20
503.573058217
  0
VERTEX
  8
0
 62
7
  6
CONTINUOUS
 10
652.3157602869
 20
501.9260643234
  0
VERTEX
  8
0
 62
7
  6
CONTINUOUS
 10
652.3687009995
 20
500.2231491796
  0
VERTEX
  8
0
 62
7
  6
CONTINUOUS
 10
652.4274354296
 20
498.4877966715
  0
VERTEX
  8
0
 62
7
  6
CONTINUOUS
 10
652.4912540665
 20
496.7442153394
  0
VERTEX
  8
0
 62
7
  6
CONTINUOUS
 10
652.5593763078
 20
495.0165607575
  0
VERTEX
  8
0
 62
7
  6
CONTINUOUS
 10
652.6309487952
 20
493.3288190171
  0
SEQEND
  0
POLYLINE
  8
0
 62
7
  6
CONTINUOUS
 66
1
 70
0
  0
VERTEX
  8
0
 62
7
  6
CONTINUOUS
 10
652.1974899772
 20
345.5822820275
  0
VERTEX
  8
0
 62
7
  6
CONTINUOUS
 10
652.2296588374
 20
343.9588970593
  0
VERTEX
  8
0
 62
7
  6
CONTINUOUS
 10
652.2692329641
 20
342.4213178092
  0
VERTEX
  8
0
 62
7
  6
CONTINUOUS
 10
652.3157602869
 20
340.9908650149
  0
VERTEX
  8
0
 62
7
  6
CONTINUOUS
 10
652.3687009995
 20
339.6874126225
  0
VERTEX
  8
0
 62
7
  6
CONTINUOUS
 10
652.4274354296
 20
338.5289978469
  0
VERTEX
  8
0
 62
7
  6
CONTINUOUS
 10
652.4912540665
 20
337.5318430601
  0
VERTEX
  8
0
 62
7
  6
CONTINUOUS
 10
652.5593763078
 20
336.7098143649
  0
VERTEX
  8
0
 62
7
  6
CONTINUOUS
 10
652.6309487952
 20
336.0743870343
  0
SEQEND
  0
POLYLINE
  8
0
 62
7
  6
CONTINUOUS
 66
1
 70
0
  0
VERTEX
  8
0
 62
7
  6
CONTINUOUS
 10
652.1974899772
 20
464.0866563705
  0
VERTEX
  8
0
 62
7
  6
CONTINUOUS
 10
652.2296588374
 20
462.4001743468
  0
VERTEX
  8
0
 62
7
  6
CONTINUOUS
 10
652.2692329641
 20
460.6734785212
  0
VERTEX
  8
0
 62
7
  6
CONTINUOUS
 10
652.3157602869
 20
458.930483066
  0
VERTEX
  8
0
 62
7
  6
CONTINUOUS
 10
652.3687009995
 20
457.1953682813
  0
VERTEX
  8
0
 62
7
  6
CONTINUOUS
 10
652.4274354296
 20
455.4920858118
  0
VERTEX
  8
0
 62
7
  6
CONTINUOUS
 10
652.4912540665
 20
453.8444205865
  0
VERTEX
  8
0
 62
7
  6
CONTINUOUS
 10
652.5593763078
 20
452.2752190372
  0
VERTEX
  8
0
 62
7
  6
CONTINUOUS
 10
652.6309487952
 20
450.8062912436
  0
SEQEND
  0
POLYLINE
  8
0
 62
7
  6
CONTINUOUS
 66
1
 70
0
  0
VERTEX
  8
0
 62
7
  6
CONTINUOUS
 10
652.1974899772
 20
408.6006041628
  0
VERTEX
  8
0
 62
7
  6
CONTINUOUS
 10
652.2296588374
 20
406.8605041082
  0
VERTEX
  8
0
 62
7
  6
CONTINUOUS
 10
652.2692329641
 20
405.1443731424
  0
VERTEX
  8
0
 62
7
  6
CONTINUOUS
 10
652.3157602869
 20
403.475992665
  0
VERTEX
  8
0
 62
7
  6
CONTINUOUS
 10
652.3687009995
 20
401.8785233637
  0
VERTEX
  8
0
 62
7
  6
CONTINUOUS
 10
652.4274354296
 20
400.3740400885
  0
VERTEX
  8
0
 62
7
  6
CONTINUOUS
 10
652.4912540665
 20
398.9835759221
  0
VERTEX
  8
0
 62
7
  6
CONTINUOUS
 10
652.5593763078
 20
397.7264317864
  0
VERTEX
  8
0
 62
7
  6
CONTINUOUS
 10
652.6309487952
 20
396.6201068267
  0
SEQEND
  0
LINE
  8
0
 62
7
  6
CONTINUOUS
 10
652.6309487952
 20
135.0214454067
 11
652.6309487952
 21
528.2824642894
  0
POLYLINE
  8
0
 62
7
  6
CONTINUOUS
 66
1
 70
0
  0
VERTEX
  8
0
 62
7
  6
CONTINUOUS
 10
652.2053901508
 20
140.4654052836
  0
VERTEX
  8
0
 62
7
  6
CONTINUOUS
 10
652.1997968509
 20
140.2784167056
  0
VERTEX
  8
0
 62
7
  6
CONTINUOUS
 10
652.196080979
 20
140.1224911305
  0
VERTEX
  8
0
 62
7
  6
CONTINUOUS
 10
652.1944219297
 20
140.0052820596
  0
VERTEX
  8
0
 62
7
  6
CONTINUOUS
 10
652.1948994466
 20
139.9325467678
  0
VERTEX
  8
0
 62
7
  6
CONTINUOUS
 10
652.1974899772
 20
139.9078493456
  0
SEQEND
  0
POLYLINE
  8
0
 62
7
  6
CONTINUOUS
 66
1
 70
0
  0
VERTEX
  8
0
 62
7
  6
CONTINUOUS
 10
652.196080979
 20
125.5269740686
  0
VERTEX
  8
0
 62
7
  6
CONTINUOUS
 10
652.1944219297
 20
125.4737490673
  0
VERTEX
  8
0
 62
7
  6
CONTINUOUS
 10
652.1944435964
 20
125.4651884558
  0
SEQEND
  0
LINE
  8
0
 62
7
  6
CONTINUOUS
 10
652.2210449535
 20
140.8947013446
 11
652.2053901508
 21
140.4654052836
  0
POLYLINE
  8
0
 62
7
  6
CONTINUOUS
 66
1
 70
0
  0
VERTEX
  8
0
 62
7
  6
CONTINUOUS
 10
652.2210449535
 20
174.3183580175
  0
VERTEX
  8
0
 62
7
  6
CONTINUOUS
 10
652.2125897615
 20
174.100187736
  0
VERTEX
  8
0
 62
7
  6
CONTINUOUS
 10
652.2053901508
 20
173.8782081621
  0
VERTEX
  8
0
 62
7
  6
CONTINUOUS
 10
652.1997968509
 20
173.663369441
  0
VERTEX
  8
0
 62
7
  6
CONTINUOUS
 10
652.196080979
 20
173.4662465653
  0
VERTEX
  8
0
 62
7
  6
CONTINUOUS
 10
652.1944219297
 20
173.2965266652
  0
VERTEX
  8
0
 62
7
  6
CONTINUOUS
 10
652.1948994466
 20
173.1625579336
  0
VERTEX
  8
0
 62
7
  6
CONTINUOUS
 10
652.1974899772
 20
173.0709141812
  0
SEQEND
  0
LINE
  8
0
 62
7
  6
CONTINUOUS
 10
652.2125897615
 20
125.942567133
 11
652.196080979
 21
125.5269740686
  0
LINE
  8
0
 62
7
  6
CONTINUOUS
 10
652.5868238825
 20
134.6178944957
 11
652.6309487952
 21
135.6434945484
  0
LINE
  8
0
 62
7
  6
CONTINUOUS
 10
652.5868238825
 20
134.6178944957
 11
652.2125897615
 21
125.942567133
  0
LINE
  8
0
 62
7
  6
CONTINUOUS
 10
652.5868238825
 20
149.2370443436
 11
652.6309487952
 21
150.2558481304
  0
LINE
  8
0
 62
7
  6
CONTINUOUS
 10
652.5868238825
 20
149.2370443436
 11
652.2210449535
 21
140.8947013446
  0
LINE
  8
0
 62
7
  6
CONTINUOUS
 10
669.2344621607
 20
532.8759322196
 11
669.0309487952
 21
528.2824642894
  0
LINE
  8
0
 62
7
  6
CONTINUOUS
 10
652.4274354296
 20
130.4279774766
 11
652.6309487952
 21
135.0214454067
  0
POLYLINE
  8
0
 62
7
  6
CONTINUOUS
 66
1
 70
0
  0
VERTEX
  8
0
 62
7
  6
CONTINUOUS
 10
669.0309487952
 20
523.0860949643
  0
VERTEX
  8
0
 62
7
  6
CONTINUOUS
 10
669.4408526369
 20
531.7946431251
  0
VERTEX
  8
0
 62
7
  6
CONTINUOUS
 10
669.4493078289
 20
531.9567712302
  0
VERTEX
  8
0
 62
7
  6
CONTINUOUS
 10
669.4565074396
 20
532.0813400277
  0
VERTEX
  8
0
 62
7
  6
CONTINUOUS
 10
669.4621007395
 20
532.1622349493
  0
VERTEX
  8
0
 62
7
  6
CONTINUOUS
 10
669.4658166114
 20
532.1955034136
  0
VERTEX
  8
0
 62
7
  6
CONTINUOUS
 10
669.4662616432
 20
532.1962717646
  0
SEQEND
  0
LINE
  8
0
 62
7
  6
CONTINUOUS
 10
652.5868238825
 20
181.712236591
 11
652.6309487952
 21
182.6245164989
  0
LINE
  8
0
 62
7
  6
CONTINUOUS
 10
652.5868238825
 20
181.712236591
 11
652.2210449535
 21
174.3183580175
  0
POLYLINE
  8
0
 62
7
  6
CONTINUOUS
 66
1
 70
0
  0
VERTEX
  8
0
 62
7
  6
CONTINUOUS
 10
669.4644076132
 20
537.7898761799
  0
VERTEX
  8
0
 62
7
  6
CONTINUOUS
 10
669.4322387529
 20
537.1550593067
  0
VERTEX
  8
0
 62
7
  6
CONTINUOUS
 10
669.3926646263
 20
536.3337251881
  0
VERTEX
  8
0
 62
7
  6
CONTINUOUS
 10
669.3461373034
 20
535.3372135664
  0
VERTEX
  8
0
 62
7
  6
CONTINUOUS
 10
669.2344621607
 20
532.8759322196
  0
SEQEND
  0
POLYLINE
  8
0
 62
7
  6
CONTINUOUS
 66
1
 70
0
  0
VERTEX
  8
0
 62
7
  6
CONTINUOUS
 10
652.1974899772
 20
125.5140335163
  0
VERTEX
  8
0
 62
7
  6
CONTINUOUS
 10
652.2296588374
 20
126.1488503895
  0
VERTEX
  8
0
 62
7
  6
CONTINUOUS
 10
652.2692329641
 20
126.9701845081
  0
VERTEX
  8
0
 62
7
  6
CONTINUOUS
 10
652.3157602869
 20
127.9666961297
  0
VERTEX
  8
0
 62
7
  6
CONTINUOUS
 10
652.4274354296
 20
130.4279774766
  0
SEQEND
  0
POLYLINE
  8
0
 62
7
  6
CONTINUOUS
 66
1
 70
0
  0
VERTEX
  8
0
 62
7
  6
CONTINUOUS
 10
652.2303385317
 20
223.3089706512
  0
VERTEX
  8
0
 62
7
  6
CONTINUOUS
 10
652.2210449535
 20
223.1429233558
  0
VERTEX
  8
0
 62
7
  6
CONTINUOUS
 10
652.2125897615
 20
222.9483762335
  0
VERTEX
  8
0
 62
7
  6
CONTINUOUS
 10
652.2053901508
 20
222.7350046405
  0
VERTEX
  8
0
 62
7
  6
CONTINUOUS
 10
652.1997968509
 20
222.5133456874
  0
VERTEX
  8
0
 62
7
  6
CONTINUOUS
 10
652.196080979
 20
222.2943212714
  0
VERTEX
  8
0
 62
7
  6
CONTINUOUS
 10
652.1944219297
 20
222.0887039085
  0
VERTEX
  8
0
 62
7
  6
CONTINUOUS
 10
652.1948994466
 20
221.90661553
  0
VERTEX
  8
0
 62
7
  6
CONTINUOUS
 10
652.1974899772
 20
221.7569961764
  0
SEQEND
  0
LINE
  8
0
 62
7
  6
CONTINUOUS
 10
669.4315590587
 20
506.6901648484
 11
669.0309487952
 21
499.7728673463
  0
LINE
  8
0
 62
7
  6
CONTINUOUS
 10
652.5868238825
 20
228.864573153
 11
652.6309487952
 21
229.5810288682
  0
LINE
  8
0
 62
7
  6
CONTINUOUS
 10
652.5868238825
 20
228.864573153
 11
652.2303385317
 21
223.3089706512
  0
POLYLINE
  8
0
 62
7
  6
CONTINUOUS
 66
1
 70
0
  0
VERTEX
  8
0
 62
7
  6
CONTINUOUS
 10
644.0644076132
 20
173.0709141812
  0
VERTEX
  8
0
 62
7
  6
CONTINUOUS
 10
644.0322387529
 20
172.6302900768
  0
VERTEX
  8
0
 62
7
  6
CONTINUOUS
 10
643.9926646263
 20
172.3909969294
  0
VERTEX
  8
0
 62
7
  6
CONTINUOUS
 10
643.9623039639
 20
172.3450925294
  0
SEQEND
  0
POLYLINE
  8
0
 62
7
  6
CONTINUOUS
 66
1
 70
0
  0
VERTEX
  8
0
 62
7
  6
CONTINUOUS
 10
652.2303385317
 20
282.7014352878
  0
VERTEX
  8
0
 62
7
  6
CONTINUOUS
 10
652.2210449535
 20
282.5891087235
  0
VERTEX
  8
0
 62
7
  6
CONTINUOUS
 10
652.2125897615
 20
282.4372283882
  0
VERTEX
  8
0
 62
7
  6
CONTINUOUS
 10
652.2053901508
 20
282.2533510743
  0
VERTEX
  8
0
 62
7
  6
CONTINUOUS
 10
652.1997968509
 20
282.0465694117
  0
VERTEX
  8
0
 62
7
  6
CONTINUOUS
 10
652.196080979
 20
281.8270830915
  0
VERTEX
  8
0
 62
7
  6
CONTINUOUS
 10
652.1944219297
 20
281.6056955259
  0
VERTEX
  8
0
 62
7
  6
CONTINUOUS
 10
652.1948994466
 20
281.3933115796
  0
VERTEX
  8
0
 62
7
  6
CONTINUOUS
 10
652.1974899772
 20
281.2003624095
  0
SEQEND
  0
POLYLINE
  8
0
 62
7
  6
CONTINUOUS
 66
1
 70
0
  0
VERTEX
  8
0
 62
7
  6
CONTINUOUS
 10
669.4315590587
 20
464.6433617314
  0
VERTEX
  8
0
 62
7
  6
CONTINUOUS
 10
669.0455863603
 20
460.1594887522
  0
VERTEX
  8
0
 62
7
  6
CONTINUOUS
 10
669.0309487952
 20
460.0027934456
  0
SEQEND
  0
POLYLINE
  8
0
 62
7
  6
CONTINUOUS
 66
1
 70
0
  0
VERTEX
  8
0
 62
7
  6
CONTINUOUS
 10
652.60160065
 20
286.2221135373
  0
VERTEX
  8
0
 62
7
  6
CONTINUOUS
 10
652.61631123
 20
286.3723022519
  0
VERTEX
  8
0
 62
7
  6
CONTINUOUS
 10
652.6309487952
 20
286.5289546424
  0
SEQEND
  0
LINE
  8
0
 62
7
  6
CONTINUOUS
 10
652.60160065
 20
286.2221135373
 11
652.2303385317
 21
282.7014352878
  0
POLYLINE
  8
0
 62
7
  6
CONTINUOUS
 66
1
 70
0
  0
VERTEX
  8
0
 62
7
  6
CONTINUOUS
 10
652.2303385317
 20
346.8855178374
  0
VERTEX
  8
0
 62
7
  6
CONTINUOUS
 10
652.2210449535
 20
346.8379073108
  0
VERTEX
  8
0
 62
7
  6
CONTINUOUS
 10
652.2125897615
 20
346.743560868
  0
VERTEX
  8
0
 62
7
  6
CONTINUOUS
 10
652.2053901508
 20
346.6071770258
  0
VERTEX
  8
0
 62
7
  6
CONTINUOUS
 10
652.1997968509
 20
346.4355138837
  0
VERTEX
  8
0
 62
7
  6
CONTINUOUS
 10
652.196080979
 20
346.2370505094
  0
VERTEX
  8
0
 62
7
  6
CONTINUOUS
 10
652.1944219297
 20
346.0215636985
  0
VERTEX
  8
0
 62
7
  6
CONTINUOUS
 10
652.1948994466
 20
345.7996738049
  0
VERTEX
  8
0
 62
7
  6
CONTINUOUS
 10
652.1974899772
 20
345.5822820275
  0
SEQEND
  0
LINE
  8
0
 62
7
  6
CONTINUOUS
 10
669.0750737079
 20
407.8522010361
 11
669.4315590587
 21
409.5784331031
  0
POLYLINE
  8
0
 62
7
  6
CONTINUOUS
 66
1
 70
0
  0
VERTEX
  8
0
 62
7
  6
CONTINUOUS
 10
669.0750737079
 20
407.8522010361
  0
VERTEX
  8
0
 62
7
  6
CONTINUOUS
 10
669.0602969404
 20
407.7839826134
  0
VERTEX
  8
0
 62
7
  6
CONTINUOUS
 10
669.0455863603
 20
407.7228551056
  0
VERTEX
  8
0
 62
7
  6
CONTINUOUS
 10
669.0309487952
 20
407.6688451901
  0
SEQEND
  0
POLYLINE
  8
0
 62
7
  6
CONTINUOUS
 66
1
 70
0
  0
VERTEX
  8
0
 62
7
  6
CONTINUOUS
 10
677.6215742001
 20
409.6002855023
  0
VERTEX
  8
0
 62
7
  6
CONTINUOUS
 10
677.6125897615
 20
409.5726218011
  0
VERTEX
  8
0
 62
7
  6
CONTINUOUS
 10
677.6053901508
 20
409.4970816313
  0
VERTEX
  8
0
 62
7
  6
CONTINUOUS
 10
677.5997968509
 20
409.3773405941
  0
VERTEX
  8
0
 62
7
  6
CONTINUOUS
 10
677.596080979
 20
409.2193271437
  0
VERTEX
  8
0
 62
7
  6
CONTINUOUS
 10
677.5944219297
 20
409.0308344379
  0
VERTEX
  8
0
 62
7
  6
CONTINUOUS
 10
677.5948994466
 20
408.8211587257
  0
VERTEX
  8
0
 62
7
  6
CONTINUOUS
 10
677.5974899772
 20
408.6006041628
  0
SEQEND
  0
LINE
  8
0
 62
9
  6
CONTINUOUS
 10
643.6309487952
 20
327.1555235064
 11
652.6309487952
 21
327.1555235064
  0
LINE
  8
0
 62
9
  6
CONTINUOUS
 10
669.0309487952
 20
327.1555235064
 11
678.0309487952
 21
327.1555235064
  0
LINE
  8
0
 62
9
  6
CONTINUOUS
 10
643.6309487952
 20
328.7968271197
 11
652.6309487952
 21
328.7968271197
  0
LINE
  8
0
 62
9
  6
CONTINUOUS
 10
669.0309487952
 20
328.7968271197
 11
678.0309487952
 21
328.7968271197
  0
LINE
  8
DEFAULT_1
 62
2
  6
CENTER
 10
630.8309487952
 20
331.6519548481
 11
690.8309487952
 21
331.6519548481
  0
LINE
  8
0
 62
7
  6
CONTINUOUS
 10
644.0315590587
 20
346.8855178374
 11
643.6750737079
 21
347.7533881553
  0
POLYLINE
  8
0
 62
7
  6
CONTINUOUS
 66
1
 70
0
  0
VERTEX
  8
0
 62
7
  6
CONTINUOUS
 10
643.6750737079
 20
347.7533881553
  0
VERTEX
  8
0
 62
7
  6
CONTINUOUS
 10
643.6602969404
 20
347.7930494773
  0
VERTEX
  8
0
 62
7
  6
CONTINUOUS
 10
643.6455863603
 20
347.8398717246
  0
VERTEX
  8
0
 62
7
  6
CONTINUOUS
 10
643.6309487952
 20
347.8938340671
  0
SEQEND
  0
POLYLINE
  8
0
 62
7
  6
CONTINUOUS
 66
1
 70
0
  0
VERTEX
  8
0
 62
7
  6
CONTINUOUS
 10
652.1944435964
 20
537.8387212404
  0
VERTEX
  8
0
 62
7
  6
CONTINUOUS
 10
652.1948994466
 20
537.8345426437
  0
VERTEX
  8
0
 62
7
  6
CONTINUOUS
 10
652.1974899772
 20
537.7898761799
  0
SEQEND
  0
POLYLINE
  8
0
 62
7
  6
CONTINUOUS
 66
1
 70
0
  0
VERTEX
  8
0
 62
7
  6
CONTINUOUS
 10
652.2303385317
 20
464.6433617314
  0
VERTEX
  8
0
 62
7
  6
CONTINUOUS
 10
652.2210449535
 20
464.7323735765
  0
VERTEX
  8
0
 62
7
  6
CONTINUOUS
 10
652.2125897615
 20
464.7742649476
  0
VERTEX
  8
0
 62
7
  6
CONTINUOUS
 10
652.2098905655
 20
464.7773363276
  0
SEQEND
  0
POLYLINE
  8
0
 62
7
  6
CONTINUOUS
 66
1
 70
0
  0
VERTEX
  8
0
 62
7
  6
CONTINUOUS
 10
669.4315590587
 20
282.7014352878
  0
VERTEX
  8
0
 62
7
  6
CONTINUOUS
 10
669.0602969404
 20
286.2221135373
  0
VERTEX
  8
0
 62
7
  6
CONTINUOUS
 10
669.0455863603
 20
286.3723022519
  0
VERTEX
  8
0
 62
7
  6
CONTINUOUS
 10
669.0309487952
 20
286.5289546424
  0
SEQEND
  0
LINE
  8
0
 62
7
  6
CONTINUOUS
 10
652.60160065
 20
460.3225824289
 11
652.6309487952
 21
460.0027934456
  0
LINE
  8
0
 62
7
  6
CONTINUOUS
 10
652.60160065
 20
460.3225824289
 11
652.2303385317
 21
464.6433617314
  0
POLYLINE
  8
0
 62
7
  6
CONTINUOUS
 66
1
 70
0
  0
VERTEX
  8
0
 62
7
  6
CONTINUOUS
 10
677.5974899772
 20
173.0709141812
  0
VERTEX
  8
0
 62
7
  6
CONTINUOUS
 10
677.6296588374
 20
172.6302900768
  0
VERTEX
  8
0
 62
7
  6
CONTINUOUS
 10
677.6692329641
 20
172.3909969294
  0
VERTEX
  8
0
 62
7
  6
CONTINUOUS
 10
677.6995936264
 20
172.3450925294
  0
SEQEND
  0
POLYLINE
  8
0
 62
7
  6
CONTINUOUS
 66
1
 70
0
  0
VERTEX
  8
0
 62
7
  6
CONTINUOUS
 10
652.2303385317
 20
506.6901648484
  0
VERTEX
  8
0
 62
7
  6
CONTINUOUS
 10
652.2210449535
 20
506.8377094779
  0
VERTEX
  8
0
 62
7
  6
CONTINUOUS
 10
652.2125897615
 20
506.9449688639
  0
VERTEX
  8
0
 62
7
  6
CONTINUOUS
 10
652.2053901508
 20
507.0066196157
  0
VERTEX
  8
0
 62
7
  6
CONTINUOUS
 10
652.2009562927
 20
507.0210342421
  0
SEQEND
  0
LINE
  8
0
 62
7
  6
CONTINUOUS
 10
652.61631123
 20
500.0169096156
 11
652.6309487952
 21
499.7728673463
  0
LINE
  8
0
 62
7
  6
CONTINUOUS
 10
669.0602969404
 20
229.098166993
 11
669.0309487952
 21
229.5810288682
  0
POLYLINE
  8
0
 62
7
  6
CONTINUOUS
 66
1
 70
0
  0
VERTEX
  8
0
 62
7
  6
CONTINUOUS
 10
652.2125897615
 20
531.9567712302
  0
VERTEX
  8
0
 62
7
  6
CONTINUOUS
 10
652.2053901508
 20
532.0813400277
  0
VERTEX
  8
0
 62
7
  6
CONTINUOUS
 10
652.1997968509
 20
532.1622349493
  0
VERTEX
  8
0
 62
7
  6
CONTINUOUS
 10
652.196080979
 20
532.1955034136
  0
VERTEX
  8
0
 62
7
  6
CONTINUOUS
 10
652.1956359471
 20
532.1962717646
  0
SEQEND
  0
POLYLINE
  8
0
 62
7
  6
CONTINUOUS
 66
1
 70
0
  0
VERTEX
  8
0
 62
7
  6
CONTINUOUS
 10
677.5974899772
 20
221.7569961764
  0
VERTEX
  8
0
 62
7
  6
CONTINUOUS
 10
677.6296588374
 20
220.8167861446
  0
VERTEX
  8
0
 62
7
  6
CONTINUOUS
 10
677.6692329641
 20
220.0556264832
  0
VERTEX
  8
0
 62
7
  6
CONTINUOUS
 10
677.7157602869
 20
219.484100698
  0
VERTEX
  8
0
 62
7
  6
CONTINUOUS
 10
677.7687009995
 20
219.1101852091
  0
VERTEX
  8
0
 62
7
  6
CONTINUOUS
 10
677.8274354296
 20
218.9391131986
  0
VERTEX
  8
0
 62
7
  6
CONTINUOUS
 10
677.8481919214
 20
218.9276749869
  0
SEQEND
  0
POLYLINE
  8
0
 62
7
  6
CONTINUOUS
 66
1
 70
0
  0
VERTEX
  8
0
 62
7
  6
CONTINUOUS
 10
677.5974899772
 20
281.2003624095
  0
VERTEX
  8
0
 62
7
  6
CONTINUOUS
 10
677.6296588374
 20
279.8526007592
  0
VERTEX
  8
0
 62
7
  6
CONTINUOUS
 10
677.6692329641
 20
278.6440821948
  0
VERTEX
  8
0
 62
7
  6
CONTINUOUS
 10
677.7157602869
 20
277.5915797697
  0
VERTEX
  8
0
 62
7
  6
CONTINUOUS
 10
677.7687009995
 20
276.7097352881
  0
VERTEX
  8
0
 62
7
  6
CONTINUOUS
 10
677.8274354296
 20
276.0107827215
  0
VERTEX
  8
0
 62
7
  6
CONTINUOUS
 10
677.8912540665
 20
275.5045457722
  0
VERTEX
  8
0
 62
7
  6
CONTINUOUS
 10
677.9593763078
 20
275.1980984138
  0
VERTEX
  8
0
 62
7
  6
CONTINUOUS
 10
678.0307828456
 20
275.0957682358
  0
SEQEND
  0
LINE
  8
0
 62
7
  6
CONTINUOUS
 10
669.0309487952
 20
135.0214454067
 11
669.0309487952
 21
528.2824642894
  0
POLYLINE
  8
0
 62
7
  6
CONTINUOUS
 66
1
 70
0
  0
VERTEX
  8
0
 62
7
  6
CONTINUOUS
 10
669.4674539939
 20
125.4651884558
  0
VERTEX
  8
0
 62
7
  6
CONTINUOUS
 10
669.4674756607
 20
125.4737490673
  0
VERTEX
  8
0
 62
7
  6
CONTINUOUS
 10
669.4658166114
 20
125.5269740686
  0
VERTEX
  8
0
 62
7
  6
CONTINUOUS
 10
669.4621007395
 20
125.6264392613
  0
VERTEX
  8
0
 62
7
  6
CONTINUOUS
 10
669.0309487952
 20
135.6434945484
  0
SEQEND
  0
POLYLINE
  8
0
 62
7
  6
CONTINUOUS
 66
1
 70
0
  0
VERTEX
  8
0
 62
7
  6
CONTINUOUS
 10
669.4644076132
 20
408.6006041628
  0
VERTEX
  8
0
 62
7
  6
CONTINUOUS
 10
669.4669981438
 20
408.8211587257
  0
VERTEX
  8
0
 62
7
  6
CONTINUOUS
 10
669.4674756607
 20
409.0308344379
  0
VERTEX
  8
0
 62
7
  6
CONTINUOUS
 10
669.4658166114
 20
409.2193271437
  0
VERTEX
  8
0
 62
7
  6
CONTINUOUS
 10
669.4621007395
 20
409.3773405941
  0
VERTEX
  8
0
 62
7
  6
CONTINUOUS
 10
669.4565074396
 20
409.4970816313
  0
VERTEX
  8
0
 62
7
  6
CONTINUOUS
 10
669.4493078289
 20
409.5726218011
  0
VERTEX
  8
0
 62
7
  6
CONTINUOUS
 10
669.4403233903
 20
409.6002855023
  0
SEQEND
  0
POLYLINE
  8
0
 62
7
  6
CONTINUOUS
 66
1
 70
0
  0
VERTEX
  8
0
 62
7
  6
CONTINUOUS
 10
669.4644076132
 20
345.5822820275
  0
VERTEX
  8
0
 62
7
  6
CONTINUOUS
 10
669.4669981438
 20
345.7996738049
  0
VERTEX
  8
0
 62
7
  6
CONTINUOUS
 10
669.4674756607
 20
346.0215636985
  0
VERTEX
  8
0
 62
7
  6
CONTINUOUS
 10
669.4658166114
 20
346.2370505094
  0
VERTEX
  8
0
 62
7
  6
CONTINUOUS
 10
669.4621007395
 20
346.4355138837
  0
VERTEX
  8
0
 62
7
  6
CONTINUOUS
 10
669.4565074396
 20
346.6071770258
  0
VERTEX
  8
0
 62
7
  6
CONTINUOUS
 10
669.4493078289
 20
346.743560868
  0
VERTEX
  8
0
 62
7
  6
CONTINUOUS
 10
669.4408526369
 20
346.8379073108
  0
VERTEX
  8
0
 62
7
  6
CONTINUOUS
 10
669.4315590587
 20
346.8855178374
  0
SEQEND
  0
POLYLINE
  8
0
 62
7
  6
CONTINUOUS
 66
1
 70
0
  0
VERTEX
  8
0
 62
7
  6
CONTINUOUS
 10
669.4644076132
 20
464.0866563705
  0
VERTEX
  8
0
 62
7
  6
CONTINUOUS
 10
669.4669981438
 20
464.2887843015
  0
VERTEX
  8
0
 62
7
  6
CONTINUOUS
 10
669.4674756607
 20
464.4657213126
  0
VERTEX
  8
0
 62
7
  6
CONTINUOUS
 10
669.4658166114
 20
464.6087689339
  0
VERTEX
  8
0
 62
7
  6
CONTINUOUS
 10
669.4621007395
 20
464.7108650031
  0
VERTEX
  8
0
 62
7
  6
CONTINUOUS
 10
669.4565074396
 20
464.7669628484
  0
VERTEX
  8
0
 62
7
  6
CONTINUOUS
 10
669.4520070248
 20
464.7773363276
  0
SEQEND
  0
POLYLINE
  8
0
 62
7
  6
CONTINUOUS
 66
1
 70
0
  0
VERTEX
  8
0
 62
7
  6
CONTINUOUS
 10
669.4644076132
 20
281.2003624095
  0
VERTEX
  8
0
 62
7
  6
CONTINUOUS
 10
669.4669981438
 20
281.3933115796
  0
VERTEX
  8
0
 62
7
  6
CONTINUOUS
 10
669.4674756607
 20
281.6056955259
  0
VERTEX
  8
0
 62
7
  6
CONTINUOUS
 10
669.4658166114
 20
281.8270830915
  0
VERTEX
  8
0
 62
7
  6
CONTINUOUS
 10
669.4621007395
 20
282.0465694117
  0
VERTEX
  8
0
 62
7
  6
CONTINUOUS
 10
669.4565074396
 20
282.2533510743
  0
VERTEX
  8
0
 62
7
  6
CONTINUOUS
 10
669.4493078289
 20
282.4372283882
  0
VERTEX
  8
0
 62
7
  6
CONTINUOUS
 10
669.4408526369
 20
282.5891087235
  0
VERTEX
  8
0
 62
7
  6
CONTINUOUS
 10
669.4315590587
 20
282.7014352878
  0
SEQEND
  0
POLYLINE
  8
0
 62
7
  6
CONTINUOUS
 66
1
 70
0
  0
VERTEX
  8
0
 62
7
  6
CONTINUOUS
 10
669.4644076132
 20
506.6090772663
  0
VERTEX
  8
0
 62
7
  6
CONTINUOUS
 10
669.4669981438
 20
506.7729928753
  0
VERTEX
  8
0
 62
7
  6
CONTINUOUS
 10
669.4674756607
 20
506.8998713579
  0
VERTEX
  8
0
 62
7
  6
CONTINUOUS
 10
669.4658166114
 20
506.9834713969
  0
VERTEX
  8
0
 62
7
  6
CONTINUOUS
 10
669.4621007395
 20
507.0196562101
  0
VERTEX
  8
0
 62
7
  6
CONTINUOUS
 10
669.4609412976
 20
507.0210342421
  0
SEQEND
  0
POLYLINE
  8
0
 62
7
  6
CONTINUOUS
 66
1
 70
0
  0
VERTEX
  8
0
 62
7
  6
CONTINUOUS
 10
669.4644076132
 20
221.7569961764
  0
VERTEX
  8
0
 62
7
  6
CONTINUOUS
 10
669.4669981438
 20
221.90661553
  0
VERTEX
  8
0
 62
7
  6
CONTINUOUS
 10
669.4674756607
 20
222.0887039085
  0
VERTEX
  8
0
 62
7
  6
CONTINUOUS
 10
669.4658166114
 20
222.2943212714
  0
VERTEX
  8
0
 62
7
  6
CONTINUOUS
 10
669.4621007395
 20
222.5133456874
  0
VERTEX
  8
0
 62
7
  6
CONTINUOUS
 10
669.4565074396
 20
222.7350046405
  0
VERTEX
  8
0
 62
7
  6
CONTINUOUS
 10
669.4493078289
 20
222.9483762335
  0
VERTEX
  8
0
 62
7
  6
CONTINUOUS
 10
669.4408526369
 20
223.1429233558
  0
VERTEX
  8
0
 62
7
  6
CONTINUOUS
 10
669.4315590587
 20
223.3089706512
  0
SEQEND
  0
POLYLINE
  8
0
 62
7
  6
CONTINUOUS
 66
1
 70
0
  0
VERTEX
  8
0
 62
7
  6
CONTINUOUS
 10
669.4644076132
 20
408.6006041628
  0
VERTEX
  8
0
 62
7
  6
CONTINUOUS
 10
669.4322387529
 20
406.8605041082
  0
VERTEX
  8
0
 62
7
  6
CONTINUOUS
 10
669.3926646263
 20
405.1443731424
  0
VERTEX
  8
0
 62
7
  6
CONTINUOUS
 10
669.3461373034
 20
403.475992665
  0
VERTEX
  8
0
 62
7
  6
CONTINUOUS
 10
669.2931965909
 20
401.8785233637
  0
VERTEX
  8
0
 62
7
  6
CONTINUOUS
 10
669.2344621607
 20
400.3740400885
  0
VERTEX
  8
0
 62
7
  6
CONTINUOUS
 10
669.1706435239
 20
398.9835759221
  0
VERTEX
  8
0
 62
7
  6
CONTINUOUS
 10
669.1025212826
 20
397.7264317864
  0
VERTEX
  8
0
 62
7
  6
CONTINUOUS
 10
669.0309487952
 20
396.6201068267
  0
SEQEND
  0
POLYLINE
  8
0
 62
7
  6
CONTINUOUS
 66
1
 70
0
  0
VERTEX
  8
0
 62
7
  6
CONTINUOUS
 10
669.4644076132
 20
464.0866563705
  0
VERTEX
  8
0
 62
7
  6
CONTINUOUS
 10
669.4322387529
 20
462.4001743468
  0
VERTEX
  8
0
 62
7
  6
CONTINUOUS
 10
669.3926646263
 20
460.6734785212
  0
VERTEX
  8
0
 62
7
  6
CONTINUOUS
 10
669.3461373034
 20
458.930483066
  0
VERTEX
  8
0
 62
7
  6
CONTINUOUS
 10
669.2931965909
 20
457.1953682813
  0
VERTEX
  8
0
 62
7
  6
CONTINUOUS
 10
669.2344621607
 20
455.4920858118
  0
VERTEX
  8
0
 62
7
  6
CONTINUOUS
 10
669.1706435239
 20
453.8444205865
  0
VERTEX
  8
0
 62
7
  6
CONTINUOUS
 10
669.1025212826
 20
452.2752190372
  0
VERTEX
  8
0
 62
7
  6
CONTINUOUS
 10
669.0309487952
 20
450.8062912436
  0
SEQEND
  0
POLYLINE
  8
0
 62
7
  6
CONTINUOUS
 66
1
 70
0
  0
VERTEX
  8
0
 62
7
  6
CONTINUOUS
 10
669.4644076132
 20
345.5822820275
  0
VERTEX
  8
0
 62
7
  6
CONTINUOUS
 10
669.4322387529
 20
343.9588970593
  0
VERTEX
  8
0
 62
7
  6
CONTINUOUS
 10
669.3926646263
 20
342.4213178092
  0
VERTEX
  8
0
 62
7
  6
CONTINUOUS
 10
669.3461373034
 20
340.9908650149
  0
VERTEX
  8
0
 62
7
  6
CONTINUOUS
 10
669.2931965909
 20
339.6874126225
  0
VERTEX
  8
0
 62
7
  6
CONTINUOUS
 10
669.2344621607
 20
338.5289978469
  0
VERTEX
  8
0
 62
7
  6
CONTINUOUS
 10
669.1706435239
 20
337.5318430601
  0
VERTEX
  8
0
 62
7
  6
CONTINUOUS
 10
669.1025212826
 20
336.7098143649
  0
VERTEX
  8
0
 62
7
  6
CONTINUOUS
 10
669.0309487952
 20
336.0743870343
  0
SEQEND
  0
POLYLINE
  8
0
 62
7
  6
CONTINUOUS
 66
1
 70
0
  0
VERTEX
  8
0
 62
7
  6
CONTINUOUS
 10
669.4644076132
 20
506.6090772663
  0
VERTEX
  8
0
 62
7
  6
CONTINUOUS
 10
669.4322387529
 20
505.1412978845
  0
VERTEX
  8
0
 62
7
  6
CONTINUOUS
 10
669.3926646263
 20
503.573058217
  0
VERTEX
  8
0
 62
7
  6
CONTINUOUS
 10
669.3461373034
 20
501.9260643234
  0
VERTEX
  8
0
 62
7
  6
CONTINUOUS
 10
669.2931965909
 20
500.2231491796
  0
VERTEX
  8
0
 62
7
  6
CONTINUOUS
 10
669.2344621607
 20
498.4877966715
  0
VERTEX
  8
0
 62
7
  6
CONTINUOUS
 10
669.1706435239
 20
496.7442153394
  0
VERTEX
  8
0
 62
7
  6
CONTINUOUS
 10
669.1025212826
 20
495.0165607575
  0
VERTEX
  8
0
 62
7
  6
CONTINUOUS
 10
669.0309487952
 20
493.3288190171
  0
SEQEND
  0
POLYLINE
  8
0
 62
7
  6
CONTINUOUS
 66
1
 70
0
  0
VERTEX
  8
0
 62
7
  6
CONTINUOUS
 10
669.4644076132
 20
281.2003624095
  0
VERTEX
  8
0
 62
7
  6
CONTINUOUS
 10
669.4322387529
 20
279.8526007592
  0
VERTEX
  8
0
 62
7
  6
CONTINUOUS
 10
669.3926646263
 20
278.6440821948
  0
VERTEX
  8
0
 62
7
  6
CONTINUOUS
 10
669.3461373034
 20
277.5915797697
  0
VERTEX
  8
0
 62
7
  6
CONTINUOUS
 10
669.2931965909
 20
276.7097352881
  0
VERTEX
  8
0
 62
7
  6
CONTINUOUS
 10
669.2344621607
 20
276.0107827215
  0
VERTEX
  8
0
 62
7
  6
CONTINUOUS
 10
669.1706435239
 20
275.5045457722
  0
VERTEX
  8
0
 62
7
  6
CONTINUOUS
 10
669.1025212826
 20
275.1980984138
  0
VERTEX
  8
0
 62
7
  6
CONTINUOUS
 10
669.0311147448
 20
275.0957682358
  0
SEQEND
  0
POLYLINE
  8
0
 62
7
  6
CONTINUOUS
 66
1
 70
0
  0
VERTEX
  8
0
 62
7
  6
CONTINUOUS
 10
669.4644076132
 20
173.0709141812
  0
VERTEX
  8
0
 62
7
  6
CONTINUOUS
 10
669.4669981438
 20
173.1625579336
  0
VERTEX
  8
0
 62
7
  6
CONTINUOUS
 10
669.4674756607
 20
173.2965266652
  0
VERTEX
  8
0
 62
7
  6
CONTINUOUS
 10
669.4658166114
 20
173.4662465653
  0
VERTEX
  8
0
 62
7
  6
CONTINUOUS
 10
669.4621007395
 20
173.663369441
  0
VERTEX
  8
0
 62
7
  6
CONTINUOUS
 10
669.4565074396
 20
173.8782081621
  0
VERTEX
  8
0
 62
7
  6
CONTINUOUS
 10
669.4493078289
 20
174.100187736
  0
VERTEX
  8
0
 62
7
  6
CONTINUOUS
 10
669.4408526369
 20
174.3183580175
  0
VERTEX
  8
0
 62
7
  6
CONTINUOUS
 10
669.0455863603
 20
182.3170376912
  0
SEQEND
  0
POLYLINE
  8
0
 62
7
  6
CONTINUOUS
 66
1
 70
0
  0
VERTEX
  8
0
 62
7
  6
CONTINUOUS
 10
669.4644076132
 20
532.0054760219
  0
VERTEX
  8
0
 62
7
  6
CONTINUOUS
 10
669.4322387529
 20
530.9000757544
  0
VERTEX
  8
0
 62
7
  6
CONTINUOUS
 10
669.3926646263
 20
529.6438024703
  0
VERTEX
  8
0
 62
7
  6
CONTINUOUS
 10
669.3461373034
 20
528.2540293759
  0
VERTEX
  8
0
 62
7
  6
CONTINUOUS
 10
669.2931965909
 20
526.7500070722
  0
VERTEX
  8
0
 62
7
  6
CONTINUOUS
 10
669.2344621607
 20
525.1524529198
  0
VERTEX
  8
0
 62
7
  6
CONTINUOUS
 10
669.1706435239
 20
523.48362937
  0
VERTEX
  8
0
 62
7
  6
CONTINUOUS
 10
669.1025212826
 20
521.7666366232
  0
VERTEX
  8
0
 62
7
  6
CONTINUOUS
 10
669.0309487952
 20
520.0252888567
  0
SEQEND
  0
POLYLINE
  8
0
 62
7
  6
CONTINUOUS
 66
1
 70
0
  0
VERTEX
  8
0
 62
7
  6
CONTINUOUS
 10
669.4644076132
 20
221.7569961764
  0
VERTEX
  8
0
 62
7
  6
CONTINUOUS
 10
669.4322387529
 20
220.8167861446
  0
VERTEX
  8
0
 62
7
  6
CONTINUOUS
 10
669.3926646263
 20
220.0556264832
  0
VERTEX
  8
0
 62
7
  6
CONTINUOUS
 10
669.3461373034
 20
219.484100698
  0
VERTEX
  8
0
 62
7
  6
CONTINUOUS
 10
669.2931965909
 20
219.1101852091
  0
VERTEX
  8
0
 62
7
  6
CONTINUOUS
 10
669.2344621607
 20
218.9391131986
  0
VERTEX
  8
0
 62
7
  6
CONTINUOUS
 10
669.213705669
 20
218.9276749869
  0
SEQEND
  0
POLYLINE
  8
0
 62
7
  6
CONTINUOUS
 66
1
 70
0
  0
VERTEX
  8
0
 62
7
  6
CONTINUOUS
 10
677.5956359471
 20
532.1962717646
  0
VERTEX
  8
0
 62
7
  6
CONTINUOUS
 10
677.5944219297
 20
532.1795343112
  0
VERTEX
  8
0
 62
7
  6
CONTINUOUS
 10
677.5948994466
 20
532.115134107
  0
VERTEX
  8
0
 62
7
  6
CONTINUOUS
 10
677.5974899772
 20
532.0054760219
  0
SEQEND
  0
POLYLINE
  8
0
 62
7
  6
CONTINUOUS
 66
1
 70
0
  0
VERTEX
  8
0
 62
7
  6
CONTINUOUS
 10
644.0644076132
 20
139.9078493456
  0
VERTEX
  8
0
 62
7
  6
CONTINUOUS
 10
644.0669981438
 20
139.9325467678
  0
VERTEX
  8
0
 62
7
  6
CONTINUOUS
 10
644.0674756607
 20
140.0052820596
  0
VERTEX
  8
0
 62
7
  6
CONTINUOUS
 10
644.0658166114
 20
140.1224911305
  0
VERTEX
  8
0
 62
7
  6
CONTINUOUS
 10
644.0621007395
 20
140.2784167056
  0
VERTEX
  8
0
 62
7
  6
CONTINUOUS
 10
644.0565074396
 20
140.4654052836
  0
VERTEX
  8
0
 62
7
  6
CONTINUOUS
 10
644.0408526369
 20
140.8947013446
  0
SEQEND
  0
POLYLINE
  8
0
 62
7
  6
CONTINUOUS
 66
1
 70
0
  0
VERTEX
  8
0
 62
7
  6
CONTINUOUS
 10
652.1944435964
 20
125.4651884558
  0
VERTEX
  8
0
 62
7
  6
CONTINUOUS
 10
652.1948994466
 20
125.4693670525
  0
VERTEX
  8
0
 62
7
  6
CONTINUOUS
 10
652.1974899772
 20
125.5140335163
  0
SEQEND
  0
POLYLINE
  8
0
 62
7
  6
CONTINUOUS
 66
1
 70
0
  0
VERTEX
  8
0
 62
7
  6
CONTINUOUS
 10
677.6303385317
 20
346.8855178374
  0
VERTEX
  8
0
 62
7
  6
CONTINUOUS
 10
677.6210449535
 20
346.8379073108
  0
VERTEX
  8
0
 62
7
  6
CONTINUOUS
 10
677.6125897615
 20
346.743560868
  0
VERTEX
  8
0
 62
7
  6
CONTINUOUS
 10
677.6053901508
 20
346.6071770258
  0
VERTEX
  8
0
 62
7
  6
CONTINUOUS
 10
677.5997968509
 20
346.4355138837
  0
VERTEX
  8
0
 62
7
  6
CONTINUOUS
 10
677.596080979
 20
346.2370505094
  0
VERTEX
  8
0
 62
7
  6
CONTINUOUS
 10
677.5944219297
 20
346.0215636985
  0
VERTEX
  8
0
 62
7
  6
CONTINUOUS
 10
677.5948994466
 20
345.7996738049
  0
VERTEX
  8
0
 62
7
  6
CONTINUOUS
 10
677.5974899772
 20
345.5822820275
  0
SEQEND
  0
POLYLINE
  8
0
 62
7
  6
CONTINUOUS
 66
1
 70
0
  0
VERTEX
  8
0
 62
7
  6
CONTINUOUS
 10
677.9868238825
 20
347.7533881553
  0
VERTEX
  8
0
 62
7
  6
CONTINUOUS
 10
678.00160065
 20
347.7930494773
  0
VERTEX
  8
0
 62
7
  6
CONTINUOUS
 10
678.01631123
 20
347.8398717246
  0
VERTEX
  8
0
 62
7
  6
CONTINUOUS
 10
678.0309487952
 20
347.8938340671
  0
SEQEND
  0
LINE
  8
0
 62
7
  6
CONTINUOUS
 10
677.6303385317
 20
346.8855178374
 11
677.9868238825
 21
347.7533881553
  0
LINE
  8
0
 62
9
  6
CONTINUOUS
 10
643.6309487952
 20
334.7060286546
 11
652.6309487952
 21
334.7060286546
  0
LINE
  8
0
 62
9
  6
CONTINUOUS
 10
669.0309487952
 20
334.7060286546
 11
678.0309487952
 21
334.7060286546
  0
LINE
  8
0
 62
9
  6
CONTINUOUS
 10
678.0309487952
 20
335.3873000189
 11
669.0309487952
 21
335.3873000189
  0
LINE
  8
0
 62
9
  6
CONTINUOUS
 10
652.6309487952
 20
335.3873000189
 11
643.6309487952
 21
335.3873000189
  0
LINE
  8
0
 62
9
  6
CONTINUOUS
 10
677.5974899772
 20
345.5822820275
 11
669.4644076132
 21
345.5822820275
  0
LINE
  8
0
 62
9
  6
CONTINUOUS
 10
652.1974899772
 20
345.5822820275
 11
644.0644076132
 21
345.5822820275
  0
LINE
  8
0
 62
9
  6
CONTINUOUS
 10
677.6303385317
 20
346.8855178374
 11
669.4315590587
 21
346.8855178374
  0
LINE
  8
0
 62
9
  6
CONTINUOUS
 10
652.2303385317
 20
346.8855178374
 11
644.0315590587
 21
346.8855178374
  0
LINE
  8
0
 62
7
  6
CONTINUOUS
 10
669.0750737079
 20
347.7533881553
 11
669.4315590587
 21
346.8855178374
  0
POLYLINE
  8
0
 62
7
  6
CONTINUOUS
 66
1
 70
0
  0
VERTEX
  8
0
 62
7
  6
CONTINUOUS
 10
669.0750737079
 20
347.7533881553
  0
VERTEX
  8
0
 62
7
  6
CONTINUOUS
 10
669.0602969404
 20
347.7930494773
  0
VERTEX
  8
0
 62
7
  6
CONTINUOUS
 10
669.0455863603
 20
347.8398717246
  0
VERTEX
  8
0
 62
7
  6
CONTINUOUS
 10
669.0309487952
 20
347.8938340671
  0
SEQEND
  0
POLYLINE
  8
0
 62
7
  6
CONTINUOUS
 66
1
 70
0
  0
VERTEX
  8
0
 62
7
  6
CONTINUOUS
 10
652.5868238825
 20
407.8522010361
  0
VERTEX
  8
0
 62
7
  6
CONTINUOUS
 10
652.60160065
 20
407.7839826134
  0
VERTEX
  8
0
 62
7
  6
CONTINUOUS
 10
652.61631123
 20
407.7228551056
  0
VERTEX
  8
0
 62
7
  6
CONTINUOUS
 10
652.6309487952
 20
407.6688451901
  0
SEQEND
  0
LINE
  8
0
 62
7
  6
CONTINUOUS
 10
652.5868238825
 20
407.8522010361
 11
652.2303385317
 21
409.5784331031
  0
LINE
  8
0
 62
7
  6
CONTINUOUS
 10
678.00160065
 20
460.3225824289
 11
678.0309487952
 21
460.0027934456
  0
LINE
  8
0
 62
7
  6
CONTINUOUS
 10
677.6303385317
 20
464.6433617314
 11
678.00160065
 21
460.3225824289
  0
POLYLINE
  8
0
 62
7
  6
CONTINUOUS
 66
1
 70
0
  0
VERTEX
  8
0
 62
7
  6
CONTINUOUS
 10
669.4662616432
 20
532.1962717646
  0
VERTEX
  8
0
 62
7
  6
CONTINUOUS
 10
669.4674756607
 20
532.1795343112
  0
VERTEX
  8
0
 62
7
  6
CONTINUOUS
 10
669.4669981438
 20
532.115134107
  0
VERTEX
  8
0
 62
7
  6
CONTINUOUS
 10
669.4644076132
 20
532.0054760219
  0
SEQEND
  0
POLYLINE
  8
0
 62
7
  6
CONTINUOUS
 66
1
 70
0
  0
VERTEX
  8
0
 62
7
  6
CONTINUOUS
 10
677.6303385317
 20
506.6901648484
  0
VERTEX
  8
0
 62
7
  6
CONTINUOUS
 10
677.6210449535
 20
506.8377094779
  0
VERTEX
  8
0
 62
7
  6
CONTINUOUS
 10
677.6125897615
 20
506.9449688639
  0
VERTEX
  8
0
 62
7
  6
CONTINUOUS
 10
677.6053901508
 20
507.0066196157
  0
VERTEX
  8
0
 62
7
  6
CONTINUOUS
 10
677.6009562927
 20
507.0210342421
  0
SEQEND
  0
POLYLINE
  8
0
 62
7
  6
CONTINUOUS
 66
1
 70
0
  0
VERTEX
  8
0
 62
7
  6
CONTINUOUS
 10
677.6125897615
 20
531.9567712302
  0
VERTEX
  8
0
 62
7
  6
CONTINUOUS
 10
677.6053901508
 20
532.0813400277
  0
VERTEX
  8
0
 62
7
  6
CONTINUOUS
 10
677.5997968509
 20
532.1622349493
  0
VERTEX
  8
0
 62
7
  6
CONTINUOUS
 10
677.596080979
 20
532.1955034136
  0
VERTEX
  8
0
 62
7
  6
CONTINUOUS
 10
677.5956359471
 20
532.1962717646
  0
SEQEND
  0
LINE
  8
0
 62
7
  6
CONTINUOUS
 10
677.6303385317
 20
506.6901648484
 11
678.0309487952
 21
499.7728673463
  0
POLYLINE
  8
0
 62
7
  6
CONTINUOUS
 66
1
 70
0
  0
VERTEX
  8
0
 62
7
  6
CONTINUOUS
 10
677.5974899772
 20
537.7898761799
  0
VERTEX
  8
0
 62
7
  6
CONTINUOUS
 10
677.6296588374
 20
537.1550593067
  0
VERTEX
  8
0
 62
7
  6
CONTINUOUS
 10
677.6692329641
 20
536.3337251881
  0
SEQEND
  0
LINE
  8
0
 62
7
  6
CONTINUOUS
 10
677.6303385317
 20
531.6030084077
 11
677.6125897615
 21
531.9567712302
  0
LINE
  8
0
 62
7
  6
CONTINUOUS
 10
678.0309487952
 20
523.0860949643
 11
677.6303385317
 21
531.6030084077
  0
LINE
  8
0
 62
7
  6
CONTINUOUS
 10
677.6692329641
 20
536.3337251881
 11
677.7687009995
 21
534.1793082851
  0
LINE
  8
0
 62
7
  6
CONTINUOUS
 10
677.7687009995
 20
534.1793082851
 11
677.8912540665
 21
531.4452225285
  0
LINE
  8
0
 62
7
  6
CONTINUOUS
 10
677.8912540665
 20
531.4452225285
 11
678.0309487952
 21
528.2824642894
  0
POLYLINE
  8
0
 62
7
  6
CONTINUOUS
 66
1
 70
0
  0
VERTEX
  8
0
 62
7
  6
CONTINUOUS
 10
677.5974899772
 20
532.0054760219
  0
VERTEX
  8
0
 62
7
  6
CONTINUOUS
 10
677.6296588374
 20
530.9000757544
  0
VERTEX
  8
0
 62
7
  6
CONTINUOUS
 10
677.6692329641
 20
529.6438024703
  0
VERTEX
  8
0
 62
7
  6
CONTINUOUS
 10
677.7157602869
 20
528.2540293759
  0
VERTEX
  8
0
 62
7
  6
CONTINUOUS
 10
677.7687009995
 20
526.7500070722
  0
VERTEX
  8
0
 62
7
  6
CONTINUOUS
 10
677.8274354296
 20
525.1524529198
  0
VERTEX
  8
0
 62
7
  6
CONTINUOUS
 10
677.8912540665
 20
523.48362937
  0
VERTEX
  8
0
 62
7
  6
CONTINUOUS
 10
677.9593763078
 20
521.7666366232
  0
VERTEX
  8
0
 62
7
  6
CONTINUOUS
 10
678.0309487952
 20
520.0252888567
  0
SEQEND
  0
POLYLINE
  8
0
 62
7
  6
CONTINUOUS
 66
1
 70
0
  0
VERTEX
  8
0
 62
7
  6
CONTINUOUS
 10
677.5974899772
 20
506.6090772663
  0
VERTEX
  8
0
 62
7
  6
CONTINUOUS
 10
677.6296588374
 20
505.1412978845
  0
VERTEX
  8
0
 62
7
  6
CONTINUOUS
 10
677.6692329641
 20
503.573058217
  0
VERTEX
  8
0
 62
7
  6
CONTINUOUS
 10
677.7157602869
 20
501.9260643234
  0
VERTEX
  8
0
 62
7
  6
CONTINUOUS
 10
677.7687009995
 20
500.2231491796
  0
VERTEX
  8
0
 62
7
  6
CONTINUOUS
 10
677.8274354296
 20
498.4877966715
  0
VERTEX
  8
0
 62
7
  6
CONTINUOUS
 10
677.8912540665
 20
496.7442153394
  0
VERTEX
  8
0
 62
7
  6
CONTINUOUS
 10
677.9593763078
 20
495.0165607575
  0
VERTEX
  8
0
 62
7
  6
CONTINUOUS
 10
678.0309487952
 20
493.3288190171
  0
SEQEND
  0
POLYLINE
  8
0
 62
7
  6
CONTINUOUS
 66
1
 70
0
  0
VERTEX
  8
0
 62
7
  6
CONTINUOUS
 10
677.5974899772
 20
345.5822820275
  0
VERTEX
  8
0
 62
7
  6
CONTINUOUS
 10
677.6296588374
 20
343.9588970593
  0
VERTEX
  8
0
 62
7
  6
CONTINUOUS
 10
677.6692329641
 20
342.4213178092
  0
VERTEX
  8
0
 62
7
  6
CONTINUOUS
 10
677.7157602869
 20
340.9908650149
  0
VERTEX
  8
0
 62
7
  6
CONTINUOUS
 10
677.7687009995
 20
339.6874126225
  0
VERTEX
  8
0
 62
7
  6
CONTINUOUS
 10
677.8274354296
 20
338.5289978469
  0
VERTEX
  8
0
 62
7
  6
CONTINUOUS
 10
677.8912540665
 20
337.5318430601
  0
VERTEX
  8
0
 62
7
  6
CONTINUOUS
 10
677.9593763078
 20
336.7098143649
  0
VERTEX
  8
0
 62
7
  6
CONTINUOUS
 10
678.0309487952
 20
336.0743870343
  0
SEQEND
  0
POLYLINE
  8
0
 62
7
  6
CONTINUOUS
 66
1
 70
0
  0
VERTEX
  8
0
 62
7
  6
CONTINUOUS
 10
677.5974899772
 20
464.0866563705
  0
VERTEX
  8
0
 62
7
  6
CONTINUOUS
 10
677.6296588374
 20
462.4001743468
  0
VERTEX
  8
0
 62
7
  6
CONTINUOUS
 10
677.6692329641
 20
460.6734785212
  0
VERTEX
  8
0
 62
7
  6
CONTINUOUS
 10
677.7157602869
 20
458.930483066
  0
VERTEX
  8
0
 62
7
  6
CONTINUOUS
 10
677.7687009995
 20
457.1953682813
  0
VERTEX
  8
0
 62
7
  6
CONTINUOUS
 10
677.8274354296
 20
455.4920858118
  0
VERTEX
  8
0
 62
7
  6
CONTINUOUS
 10
677.8912540665
 20
453.8444205865
  0
VERTEX
  8
0
 62
7
  6
CONTINUOUS
 10
677.9593763078
 20
452.2752190372
  0
VERTEX
  8
0
 62
7
  6
CONTINUOUS
 10
678.0309487952
 20
450.8062912436
  0
SEQEND
  0
POLYLINE
  8
0
 62
7
  6
CONTINUOUS
 66
1
 70
0
  0
VERTEX
  8
0
 62
7
  6
CONTINUOUS
 10
677.5974899772
 20
408.6006041628
  0
VERTEX
  8
0
 62
7
  6
CONTINUOUS
 10
677.6296588374
 20
406.8605041082
  0
VERTEX
  8
0
 62
7
  6
CONTINUOUS
 10
677.6692329641
 20
405.1443731424
  0
VERTEX
  8
0
 62
7
  6
CONTINUOUS
 10
677.7157602869
 20
403.475992665
  0
VERTEX
  8
0
 62
7
  6
CONTINUOUS
 10
677.7687009995
 20
401.8785233637
  0
VERTEX
  8
0
 62
7
  6
CONTINUOUS
 10
677.8274354296
 20
400.3740400885
  0
VERTEX
  8
0
 62
7
  6
CONTINUOUS
 10
677.8912540665
 20
398.9835759221
  0
VERTEX
  8
0
 62
7
  6
CONTINUOUS
 10
677.9593763078
 20
397.7264317864
  0
VERTEX
  8
0
 62
7
  6
CONTINUOUS
 10
678.0309487952
 20
396.6201068267
  0
SEQEND
  0
LINE
  8
0
 62
7
  6
CONTINUOUS
 10
678.0309487952
 20
135.0214454067
 11
678.0309487952
 21
528.2824642894
  0
LINE
  8
0
 62
9
  6
CONTINUOUS
 10
683.8309487952
 20
508.6519548481
 11
683.8309487952
 21
154.6519548481
  0
LINE
  8
0
 62
7
  6
CONTINUOUS
 10
685.8309487952
 20
506.6519548481
 11
685.8309487952
 21
156.6519548481
  0
POLYLINE
  8
0
 62
7
  6
CONTINUOUS
 66
1
 70
0
  0
VERTEX
  8
0
 62
7
  6
CONTINUOUS
 10
677.6053901508
 20
140.4654052836
  0
VERTEX
  8
0
 62
7
  6
CONTINUOUS
 10
677.5997968509
 20
140.2784167056
  0
VERTEX
  8
0
 62
7
  6
CONTINUOUS
 10
677.596080979
 20
140.1224911305
  0
VERTEX
  8
0
 62
7
  6
CONTINUOUS
 10
677.5944219297
 20
140.0052820596
  0
VERTEX
  8
0
 62
7
  6
CONTINUOUS
 10
677.5948994466
 20
139.9325467678
  0
VERTEX
  8
0
 62
7
  6
CONTINUOUS
 10
677.5974899772
 20
139.9078493456
  0
SEQEND
  0
POLYLINE
  8
0
 62
7
  6
CONTINUOUS
 66
1
 70
0
  0
VERTEX
  8
0
 62
7
  6
CONTINUOUS
 10
677.596080979
 20
125.5269740686
  0
VERTEX
  8
0
 62
7
  6
CONTINUOUS
 10
677.5944219297
 20
125.4737490673
  0
VERTEX
  8
0
 62
7
  6
CONTINUOUS
 10
677.5944435964
 20
125.4651884558
  0
SEQEND
  0
LINE
  8
0
 62
7
  6
CONTINUOUS
 10
677.6210449535
 20
140.8947013446
 11
677.6053901508
 21
140.4654052836
  0
POLYLINE
  8
0
 62
7
  6
CONTINUOUS
 66
1
 70
0
  0
VERTEX
  8
0
 62
7
  6
CONTINUOUS
 10
677.6210449535
 20
174.3183580175
  0
VERTEX
  8
0
 62
7
  6
CONTINUOUS
 10
677.6125897615
 20
174.100187736
  0
VERTEX
  8
0
 62
7
  6
CONTINUOUS
 10
677.6053901508
 20
173.8782081621
  0
VERTEX
  8
0
 62
7
  6
CONTINUOUS
 10
677.5997968509
 20
173.663369441
  0
VERTEX
  8
0
 62
7
  6
CONTINUOUS
 10
677.596080979
 20
173.4662465653
  0
VERTEX
  8
0
 62
7
  6
CONTINUOUS
 10
677.5944219297
 20
173.2965266652
  0
VERTEX
  8
0
 62
7
  6
CONTINUOUS
 10
677.5948994466
 20
173.1625579336
  0
VERTEX
  8
0
 62
7
  6
CONTINUOUS
 10
677.5974899772
 20
173.0709141812
  0
SEQEND
  0
LINE
  8
0
 62
7
  6
CONTINUOUS
 10
677.6125897615
 20
125.942567133
 11
677.596080979
 21
125.5269740686
  0
LINE
  8
0
 62
7
  6
CONTINUOUS
 10
677.9868238825
 20
134.6178944957
 11
678.0309487952
 21
135.6434945484
  0
LINE
  8
0
 62
7
  6
CONTINUOUS
 10
677.6125897615
 20
125.942567133
 11
677.9868238825
 21
134.6178944957
  0
LINE
  8
0
 62
7
  6
CONTINUOUS
 10
677.9868238825
 20
149.2370443436
 11
678.0309487952
 21
150.2558481304
  0
LINE
  8
0
 62
7
  6
CONTINUOUS
 10
677.6210449535
 20
140.8947013446
 11
677.9868238825
 21
149.2370443436
  0
LINE
  8
0
 62
7
  6
CONTINUOUS
 10
677.8274354296
 20
130.4279774766
 11
678.0309487952
 21
135.0214454067
  0
LINE
  8
0
 62
7
  6
CONTINUOUS
 10
677.9868238825
 20
181.712236591
 11
678.0309487952
 21
182.6245164989
  0
LINE
  8
0
 62
7
  6
CONTINUOUS
 10
677.6210449535
 20
174.3183580175
 11
677.9868238825
 21
181.712236591
  0
POLYLINE
  8
0
 62
7
  6
CONTINUOUS
 66
1
 70
0
  0
VERTEX
  8
0
 62
7
  6
CONTINUOUS
 10
677.5974899772
 20
125.5140335163
  0
VERTEX
  8
0
 62
7
  6
CONTINUOUS
 10
677.6296588374
 20
126.1488503895
  0
VERTEX
  8
0
 62
7
  6
CONTINUOUS
 10
677.6692329641
 20
126.9701845081
  0
VERTEX
  8
0
 62
7
  6
CONTINUOUS
 10
677.7157602869
 20
127.9666961297
  0
VERTEX
  8
0
 62
7
  6
CONTINUOUS
 10
677.8274354296
 20
130.4279774766
  0
SEQEND
  0
POLYLINE
  8
0
 62
7
  6
CONTINUOUS
 66
1
 70
0
  0
VERTEX
  8
0
 62
7
  6
CONTINUOUS
 10
677.6303385317
 20
223.3089706512
  0
VERTEX
  8
0
 62
7
  6
CONTINUOUS
 10
677.6210449535
 20
223.1429233558
  0
VERTEX
  8
0
 62
7
  6
CONTINUOUS
 10
677.6125897615
 20
222.9483762335
  0
VERTEX
  8
0
 62
7
  6
CONTINUOUS
 10
677.6053901508
 20
222.7350046405
  0
VERTEX
  8
0
 62
7
  6
CONTINUOUS
 10
677.5997968509
 20
222.5133456874
  0
VERTEX
  8
0
 62
7
  6
CONTINUOUS
 10
677.596080979
 20
222.2943212714
  0
VERTEX
  8
0
 62
7
  6
CONTINUOUS
 10
677.5944219297
 20
222.0887039085
  0
VERTEX
  8
0
 62
7
  6
CONTINUOUS
 10
677.5948994466
 20
221.90661553
  0
VERTEX
  8
0
 62
7
  6
CONTINUOUS
 10
677.5974899772
 20
221.7569961764
  0
SEQEND
  0
LINE
  8
0
 62
7
  6
CONTINUOUS
 10
677.9868238825
 20
228.864573153
 11
678.0309487952
 21
229.5810288682
  0
LINE
  8
0
 62
7
  6
CONTINUOUS
 10
677.6303385317
 20
223.3089706512
 11
677.9868238825
 21
228.864573153
  0
POLYLINE
  8
0
 62
7
  6
CONTINUOUS
 66
1
 70
0
  0
VERTEX
  8
0
 62
7
  6
CONTINUOUS
 10
669.4644076132
 20
173.0709141812
  0
VERTEX
  8
0
 62
7
  6
CONTINUOUS
 10
669.4322387529
 20
172.6302900768
  0
VERTEX
  8
0
 62
7
  6
CONTINUOUS
 10
669.3926646263
 20
172.3909969294
  0
VERTEX
  8
0
 62
7
  6
CONTINUOUS
 10
669.3623039639
 20
172.3450925294
  0
SEQEND
  0
POLYLINE
  8
0
 62
7
  6
CONTINUOUS
 66
1
 70
0
  0
VERTEX
  8
0
 62
7
  6
CONTINUOUS
 10
677.6303385317
 20
282.7014352878
  0
VERTEX
  8
0
 62
7
  6
CONTINUOUS
 10
677.6210449535
 20
282.5891087235
  0
VERTEX
  8
0
 62
7
  6
CONTINUOUS
 10
677.6125897615
 20
282.4372283882
  0
VERTEX
  8
0
 62
7
  6
CONTINUOUS
 10
677.6053901508
 20
282.2533510743
  0
VERTEX
  8
0
 62
7
  6
CONTINUOUS
 10
677.5997968509
 20
282.0465694117
  0
VERTEX
  8
0
 62
7
  6
CONTINUOUS
 10
677.596080979
 20
281.8270830915
  0
VERTEX
  8
0
 62
7
  6
CONTINUOUS
 10
677.5944219297
 20
281.6056955259
  0
VERTEX
  8
0
 62
7
  6
CONTINUOUS
 10
677.5948994466
 20
281.3933115796
  0
VERTEX
  8
0
 62
7
  6
CONTINUOUS
 10
677.5974899772
 20
281.2003624095
  0
SEQEND
  0
POLYLINE
  8
0
 62
7
  6
CONTINUOUS
 66
1
 70
0
  0
VERTEX
  8
0
 62
7
  6
CONTINUOUS
 10
678.00160065
 20
286.2221135373
  0
VERTEX
  8
0
 62
7
  6
CONTINUOUS
 10
678.01631123
 20
286.3723022519
  0
VERTEX
  8
0
 62
7
  6
CONTINUOUS
 10
678.0309487952
 20
286.5289546424
  0
SEQEND
  0
POLYLINE
  8
0
 62
7
  6
CONTINUOUS
 66
1
 70
0
  0
VERTEX
  8
0
 62
7
  6
CONTINUOUS
 10
669.4644076132
 20
139.9078493456
  0
VERTEX
  8
0
 62
7
  6
CONTINUOUS
 10
669.4669981438
 20
139.9325467678
  0
VERTEX
  8
0
 62
7
  6
CONTINUOUS
 10
669.4674756607
 20
140.0052820596
  0
VERTEX
  8
0
 62
7
  6
CONTINUOUS
 10
669.4658166114
 20
140.1224911305
  0
VERTEX
  8
0
 62
7
  6
CONTINUOUS
 10
669.4621007395
 20
140.2784167056
  0
VERTEX
  8
0
 62
7
  6
CONTINUOUS
 10
669.4565074396
 20
140.4654052836
  0
VERTEX
  8
0
 62
7
  6
CONTINUOUS
 10
669.4493078289
 20
140.6742639311
  0
VERTEX
  8
0
 62
7
  6
CONTINUOUS
 10
669.4408526369
 20
140.8947013446
  0
VERTEX
  8
0
 62
7
  6
CONTINUOUS
 10
669.0309487952
 20
150.2558481304
  0
SEQEND
  0
LINE
  8
0
 62
7
  6
CONTINUOUS
 10
677.6303385317
 20
282.7014352878
 11
678.00160065
 21
286.2221135373
  0
LINE
  8
0
 62
9
  6
CONTINUOUS
 10
677.9868238825
 20
347.7533881553
 11
669.0750737079
 21
347.7533881553
  0
LINE
  8
0
 62
9
  6
CONTINUOUS
 10
652.5868238825
 20
347.7533881553
 11
643.6750737079
 21
347.7533881553
  0
LINE
  8
0
 62
9
  6
CONTINUOUS
 10
678.0309487952
 20
359.0642190216
 11
669.0309487952
 21
359.0642190216
  0
LINE
  8
0
 62
9
  6
CONTINUOUS
 10
652.6309487952
 20
359.0642190216
 11
643.6309487952
 21
359.0642190216
  0
LINE
  8
0
 62
7
  6
CONTINUOUS
 10
652.2303385317
 20
409.5784331031
 11
652.2215742001
 21
409.6002855023
  0
POLYLINE
  8
0
 62
7
  6
CONTINUOUS
 66
1
 70
0
  0
VERTEX
  8
0
 62
7
  6
CONTINUOUS
 10
677.5944435964
 20
537.8387212404
  0
VERTEX
  8
0
 62
7
  6
CONTINUOUS
 10
677.5948994466
 20
537.8345426437
  0
VERTEX
  8
0
 62
7
  6
CONTINUOUS
 10
677.5974899772
 20
537.7898761799
  0
SEQEND
  0
POLYLINE
  8
0
 62
7
  6
CONTINUOUS
 66
1
 70
0
  0
VERTEX
  8
0
 62
7
  6
CONTINUOUS
 10
677.6303385317
 20
464.6433617314
  0
VERTEX
  8
0
 62
7
  6
CONTINUOUS
 10
677.6210449535
 20
464.7323735765
  0
VERTEX
  8
0
 62
7
  6
CONTINUOUS
 10
677.6125897615
 20
464.7742649476
  0
VERTEX
  8
0
 62
7
  6
CONTINUOUS
 10
677.6098905655
 20
464.7773363276
  0
SEQEND
  0
POLYLINE
  8
0
 62
7
  6
CONTINUOUS
 66
1
 70
0
  0
VERTEX
  8
0
 62
7
  6
CONTINUOUS
 10
677.5944435964
 20
125.4651884558
  0
VERTEX
  8
0
 62
7
  6
CONTINUOUS
 10
677.5948994466
 20
125.4693670525
  0
VERTEX
  8
0
 62
7
  6
CONTINUOUS
 10
677.5974899772
 20
125.5140335163
  0
SEQEND
  0
POLYLINE
  8
0
 62
7
  6
CONTINUOUS
 66
1
 70
0
  0
VERTEX
  8
0
 62
7
  6
CONTINUOUS
 10
677.9868238825
 20
407.8522010361
  0
VERTEX
  8
0
 62
7
  6
CONTINUOUS
 10
678.00160065
 20
407.7839826134
  0
VERTEX
  8
0
 62
7
  6
CONTINUOUS
 10
678.01631123
 20
407.7228551056
  0
VERTEX
  8
0
 62
7
  6
CONTINUOUS
 10
678.0309487952
 20
407.6688451901
  0
SEQEND
  0
LINE
  8
0
 62
7
  6
CONTINUOUS
 10
677.6303385317
 20
409.5784331031
 11
677.9868238825
 21
407.8522010361
  0
POLYLINE
  8
0
 62
7
  6
CONTINUOUS
 66
1
 70
0
  0
VERTEX
  8
0
 62
7
  6
CONTINUOUS
 10
652.197566713
 20
139.9078485941
  0
VERTEX
  8
0
 62
7
  6
CONTINUOUS
 10
652.2296588374
 20
140.0099425259
  0
VERTEX
  8
0
 62
7
  6
CONTINUOUS
 10
652.2692329641
 20
140.315939573
  0
VERTEX
  8
0
 62
7
  6
CONTINUOUS
 10
652.3157602869
 20
140.8216442212
  0
VERTEX
  8
0
 62
7
  6
CONTINUOUS
 10
652.3687009995
 20
141.5200886437
  0
VERTEX
  8
0
 62
7
  6
CONTINUOUS
 10
652.4274354296
 20
142.4017030918
  0
VERTEX
  8
0
 62
7
  6
CONTINUOUS
 10
652.4912540665
 20
143.4542510912
  0
VERTEX
  8
0
 62
7
  6
CONTINUOUS
 10
652.5593763078
 20
144.6632021647
  0
VERTEX
  8
0
 62
7
  6
CONTINUOUS
 10
652.6309487952
 20
146.0118342435
  0
SEQEND
  0
LINE
  8
0
 62
9
  6
CONTINUOUS
 10
643.6309487952
 20
383.795082441
 11
652.6309487952
 21
383.795082441
  0
LINE
  8
0
 62
9
  6
CONTINUOUS
 10
669.0309487952
 20
383.795082441
 11
678.0309487952
 21
383.795082441
  0
LINE
  8
0
 62
9
  6
CONTINUOUS
 10
643.6309487952
 20
385.0911832282
 11
652.6309487952
 21
385.0911832282
  0
LINE
  8
0
 62
9
  6
CONTINUOUS
 10
669.0309487952
 20
385.0911832282
 11
678.0309487952
 21
385.0911832282
  0
LINE
  8
0
 62
7
  6
CONTINUOUS
 10
677.6303385317
 20
409.5784331031
 11
677.6215742001
 21
409.6002855023
  0
LINE
  8
0
 62
9
  6
CONTINUOUS
 10
643.6309487952
 20
391.2149997664
 11
652.6309487952
 21
391.2149997664
  0
LINE
  8
0
 62
9
  6
CONTINUOUS
 10
669.0309487952
 20
391.2149997664
 11
678.0309487952
 21
391.2149997664
  0
LINE
  8
0
 62
9
  6
CONTINUOUS
 10
678.0309487952
 20
394.8735669399
 11
669.0309487952
 21
394.8735669399
  0
LINE
  8
0
 62
9
  6
CONTINUOUS
 10
652.6309487952
 20
394.8735669399
 11
643.6309487952
 21
394.8735669399
  0
POLYLINE
  8
0
 62
7
  6
CONTINUOUS
 66
1
 70
0
  0
VERTEX
  8
0
 62
7
  6
CONTINUOUS
 10
677.597566713
 20
139.9078485941
  0
VERTEX
  8
0
 62
7
  6
CONTINUOUS
 10
677.6296588374
 20
140.0099425259
  0
VERTEX
  8
0
 62
7
  6
CONTINUOUS
 10
677.6692329641
 20
140.315939573
  0
VERTEX
  8
0
 62
7
  6
CONTINUOUS
 10
677.7157602869
 20
140.8216442212
  0
VERTEX
  8
0
 62
7
  6
CONTINUOUS
 10
677.7687009995
 20
141.5200886437
  0
VERTEX
  8
0
 62
7
  6
CONTINUOUS
 10
677.8274354296
 20
142.4017030918
  0
VERTEX
  8
0
 62
7
  6
CONTINUOUS
 10
677.8912540665
 20
143.4542510912
  0
VERTEX
  8
0
 62
7
  6
CONTINUOUS
 10
677.9593763078
 20
144.6632021647
  0
VERTEX
  8
0
 62
7
  6
CONTINUOUS
 10
678.0309487952
 20
146.0118342435
  0
SEQEND
  0
POLYLINE
  8
0
 62
7
  6
CONTINUOUS
 66
1
 70
0
  0
VERTEX
  8
0
 62
7
  6
CONTINUOUS
 10
652.4481919214
 20
218.9276749869
  0
VERTEX
  8
0
 62
7
  6
CONTINUOUS
 10
652.4912540665
 20
218.9733480867
  0
VERTEX
  8
0
 62
7
  6
CONTINUOUS
 10
652.5593763078
 20
219.2124792676
  0
VERTEX
  8
0
 62
7
  6
CONTINUOUS
 10
652.6309487952
 20
219.6532640428
  0
SEQEND
  0
LINE
  8
0
 62
9
  6
CONTINUOUS
 10
677.5974899772
 20
408.6006041628
 11
669.4644076132
 21
408.6006041628
  0
LINE
  8
0
 62
9
  6
CONTINUOUS
 10
652.1974899772
 20
408.6006041628
 11
644.0644076132
 21
408.6006041628
  0
LINE
  8
0
 62
7
  6
CONTINUOUS
 10
644.0403226685
 20
409.6002855023
 11
652.2215749219
 21
409.6002855023
  0
LINE
  8
0
 62
7
  6
CONTINUOUS
 10
669.4403226685
 20
409.6002855023
 11
677.6215749219
 21
409.6002855023
  0
LINE
  8
0
 62
9
  6
CONTINUOUS
 10
678.0309487952
 20
414.2931797854
 11
669.0309487952
 21
414.2931797854
  0
LINE
  8
0
 62
9
  6
CONTINUOUS
 10
652.6309487952
 20
414.2931797854
 11
643.6309487952
 21
414.2931797854
  0
POLYLINE
  8
0
 62
7
  6
CONTINUOUS
 66
1
 70
0
  0
VERTEX
  8
0
 62
7
  6
CONTINUOUS
 10
677.8481919214
 20
218.9276749869
  0
VERTEX
  8
0
 62
7
  6
CONTINUOUS
 10
677.8912540665
 20
218.9733480867
  0
VERTEX
  8
0
 62
7
  6
CONTINUOUS
 10
677.9593763078
 20
219.2124792676
  0
VERTEX
  8
0
 62
7
  6
CONTINUOUS
 10
678.0309487952
 20
219.6532640428
  0
SEQEND
  0
LINE
  8
0
 62
9
  6
CONTINUOUS
 10
643.6309487952
 20
435.3305087444
 11
652.6309487952
 21
435.3305087444
  0
LINE
  8
0
 62
9
  6
CONTINUOUS
 10
669.0309487952
 20
435.3305087444
 11
678.0309487952
 21
435.3305087444
  0
LINE
  8
0
 62
7
  6
CONTINUOUS
 10
643.6309487952
 20
436.1549382398
 11
652.6309487952
 21
436.1549382398
  0
LINE
  8
0
 62
7
  6
CONTINUOUS
 10
669.0309487952
 20
436.1549382398
 11
678.0309487952
 21
436.1549382398
  0
LINE
  8
0
 62
9
  6
CONTINUOUS
 10
643.6309487952
 20
441.8935250415
 11
652.6309487952
 21
441.8935250415
  0
LINE
  8
0
 62
9
  6
CONTINUOUS
 10
669.0309487952
 20
441.8935250415
 11
678.0309487952
 21
441.8935250415
  0
POLYLINE
  8
0
 62
7
  6
CONTINUOUS
 66
1
 70
0
  0
VERTEX
  8
0
 62
7
  6
CONTINUOUS
 10
652.2995936264
 20
172.3450925294
  0
VERTEX
  8
0
 62
7
  6
CONTINUOUS
 10
652.3157602869
 20
172.3563927098
  0
VERTEX
  8
0
 62
7
  6
CONTINUOUS
 10
652.3687009995
 20
172.527007667
  0
VERTEX
  8
0
 62
7
  6
CONTINUOUS
 10
652.4274354296
 20
172.9005619329
  0
VERTEX
  8
0
 62
7
  6
CONTINUOUS
 10
652.4912540665
 20
173.471917509
  0
VERTEX
  8
0
 62
7
  6
CONTINUOUS
 10
652.5593763078
 20
174.233219403
  0
VERTEX
  8
0
 62
7
  6
CONTINUOUS
 10
652.6309487952
 20
175.1739715158
  0
SEQEND
  0
LINE
  8
0
 62
9
  6
CONTINUOUS
 10
678.0309487952
 20
448.1712619785
 11
669.0309487952
 21
448.1712619785
  0
LINE
  8
0
 62
9
  6
CONTINUOUS
 10
652.6309487952
 20
448.1712619785
 11
643.6309487952
 21
448.1712619785
  0
POLYLINE
  8
0
 62
7
  6
CONTINUOUS
 66
1
 70
0
  0
VERTEX
  8
0
 62
7
  6
CONTINUOUS
 10
677.6995936264
 20
172.3450925294
  0
VERTEX
  8
0
 62
7
  6
CONTINUOUS
 10
677.7157602869
 20
172.3563927098
  0
VERTEX
  8
0
 62
7
  6
CONTINUOUS
 10
677.7687009995
 20
172.527007667
  0
VERTEX
  8
0
 62
7
  6
CONTINUOUS
 10
677.8274354296
 20
172.9005619329
  0
VERTEX
  8
0
 62
7
  6
CONTINUOUS
 10
677.8912540665
 20
173.471917509
  0
VERTEX
  8
0
 62
7
  6
CONTINUOUS
 10
677.9593763078
 20
174.233219403
  0
VERTEX
  8
0
 62
7
  6
CONTINUOUS
 10
678.0309487952
 20
175.1739715158
  0
SEQEND
  0
LINE
  8
0
 62
9
  6
CONTINUOUS
 10
678.0309487952
 20
461.4326416571
 11
677.9060871149
 21
461.4326416571
  0
LINE
  8
0
 62
9
  6
CONTINUOUS
 10
669.1558104757
 20
461.4326416571
 11
669.0309487952
 21
461.4326416571
  0
LINE
  8
0
 62
9
  6
CONTINUOUS
 10
652.6309487952
 20
461.4326416571
 11
652.5060871146
 21
461.4326416571
  0
LINE
  8
0
 62
9
  6
CONTINUOUS
 10
643.7558104755
 20
461.4326416571
 11
643.6309487952
 21
461.4326416571
  0
LINE
  8
0
 62
9
  6
CONTINUOUS
 10
677.5974899772
 20
464.0866563705
 11
669.4644076132
 21
464.0866563705
  0
LINE
  8
0
 62
9
  6
CONTINUOUS
 10
652.1974899772
 20
464.0866563705
 11
644.0644076132
 21
464.0866563705
  0
LINE
  8
0
 62
7
  6
CONTINUOUS
 10
644.0520064517
 20
464.7773363276
 11
652.2098911387
 21
464.7773363276
  0
LINE
  8
0
 62
7
  6
CONTINUOUS
 10
669.4520064517
 20
464.7773363276
 11
677.6098911387
 21
464.7773363276
  0
LINE
  8
0
 62
9
  6
CONTINUOUS
 10
643.6309487952
 20
476.7171558214
 11
652.6309487952
 21
476.7171558214
  0
LINE
  8
0
 62
9
  6
CONTINUOUS
 10
669.0309487952
 20
476.7171558214
 11
678.0309487952
 21
476.7171558214
  0
LINE
  8
0
 62
7
  6
CONTINUOUS
 10
643.6309487952
 20
477.0991218326
 11
652.6309487952
 21
477.0991218326
  0
LINE
  8
0
 62
7
  6
CONTINUOUS
 10
669.0309487952
 20
477.0991218326
 11
678.0309487952
 21
477.0991218326
  0
LINE
  8
0
 62
9
  6
CONTINUOUS
 10
643.6309487952
 20
481.7808373279
 11
652.6309487952
 21
481.7808373279
  0
LINE
  8
0
 62
9
  6
CONTINUOUS
 10
669.0309487952
 20
481.7808373279
 11
678.0309487952
 21
481.7808373279
  0
LINE
  8
0
 62
9
  6
CONTINUOUS
 10
678.0309487952
 20
490.0632353974
 11
669.0309487952
 21
490.0632353974
  0
LINE
  8
0
 62
9
  6
CONTINUOUS
 10
652.6309487952
 20
490.0632353974
 11
643.6309487952
 21
490.0632353974
  0
LINE
  8
0
 62
9
  6
CONTINUOUS
 10
643.6309487952
 20
503.9038102984
 11
643.8705198114
 21
503.9038102984
  0
LINE
  8
0
 62
9
  6
CONTINUOUS
 10
652.3913777788
 20
503.9038102984
 11
652.6309487952
 21
503.9038102984
  0
LINE
  8
0
 62
9
  6
CONTINUOUS
 10
669.0309487952
 20
503.9038102984
 11
669.2705198115
 21
503.9038102984
  0
LINE
  8
0
 62
9
  6
CONTINUOUS
 10
677.7913777789
 20
503.9038102984
 11
678.0309487952
 21
503.9038102984
  0
LINE
  8
0
 62
7
  6
CONTINUOUS
 10
643.6309487952
 20
504.0016972658
 11
643.8761753188
 21
504.0016972658
  0
LINE
  8
0
 62
7
  6
CONTINUOUS
 10
652.3857222714
 20
504.0016972658
 11
652.6309487952
 21
504.0016972658
  0
LINE
  8
0
 62
7
  6
CONTINUOUS
 10
669.0309487952
 20
504.0016972658
 11
669.276175319
 21
504.0016972658
  0
LINE
  8
0
 62
7
  6
CONTINUOUS
 10
677.7857222715
 20
504.0016972658
 11
678.0309487952
 21
504.0016972658
  0
LINE
  8
0
 62
9
  6
CONTINUOUS
 10
677.5974899772
 20
506.6090772663
 11
669.4644076132
 21
506.6090772663
  0
LINE
  8
0
 62
9
  6
CONTINUOUS
 10
652.1974899772
 20
506.6090772663
 11
644.0644076132
 21
506.6090772663
  0
LINE
  8
0
 62
9
  6
CONTINUOUS
 10
643.6309487952
 20
506.9724885877
 11
644.0525215982
 21
506.9724885877
  0
LINE
  8
0
 62
9
  6
CONTINUOUS
 10
652.2093759921
 20
506.9724885877
 11
652.6309487952
 21
506.9724885877
  0
LINE
  8
0
 62
9
  6
CONTINUOUS
 10
669.0309487952
 20
506.9724885877
 11
669.4525215982
 21
506.9724885877
  0
LINE
  8
0
 62
9
  6
CONTINUOUS
 10
677.6093759921
 20
506.9724885877
 11
678.0309487952
 21
506.9724885877
  0
LINE
  8
0
 62
7
  6
CONTINUOUS
 10
644.0609413554
 20
507.0210342421
 11
652.2009562349
 21
507.0210342421
  0
LINE
  8
0
 62
7
  6
CONTINUOUS
 10
669.4609413554
 20
507.0210342421
 11
677.6009562349
 21
507.0210342421
  0
LINE
  8
0
 62
7
  6
CONTINUOUS
 10
669.0309487952
 20
508.6519548481
 11
652.6309487952
 21
508.6519548481
  0
LINE
  8
0
 62
7
  6
CONTINUOUS
 10
637.8309487952
 20
508.6519548481
 11
643.6309487952
 21
508.6519548481
  0
LINE
  8
0
 62
7
  6
CONTINUOUS
 10
678.0309487952
 20
508.6519548481
 11
683.8309487952
 21
508.6519548481
  0
LINE
  8
0
 62
9
  6
CONTINUOUS
 10
678.0309487952
 20
516.4488089599
 11
669.0309487952
 21
516.4488089599
  0
LINE
  8
0
 62
9
  6
CONTINUOUS
 10
652.6309487952
 20
516.4488089599
 11
643.6309487952
 21
516.4488089599
  0
LINE
  8
0
 62
9
  6
CONTINUOUS
 10
678.0309487952
 20
524.7451788865
 11
677.9526675826
 21
524.7451788865
  0
LINE
  8
0
 62
9
  6
CONTINUOUS
 10
669.1092300079
 20
524.7451788865
 11
669.0309487952
 21
524.7451788865
  0
LINE
  8
0
 62
9
  6
CONTINUOUS
 10
652.6309487952
 20
524.7451788865
 11
652.5526675825
 21
524.7451788865
  0
LINE
  8
0
 62
9
  6
CONTINUOUS
 10
643.7092300078
 20
524.7451788865
 11
643.6309487952
 21
524.7451788865
  0
LINE
  8
0
 62
9
  6
CONTINUOUS
 10
677.5974899772
 20
532.0054760219
 11
669.4644076132
 21
532.0054760219
  0
LINE
  8
0
 62
9
  6
CONTINUOUS
 10
652.1974899772
 20
532.0054760219
 11
644.0644076132
 21
532.0054760219
  0
LINE
  8
0
 62
7
  6
CONTINUOUS
 10
644.0662619259
 20
532.1962717646
 11
652.1956356644
 21
532.1962717646
  0
LINE
  8
0
 62
7
  6
CONTINUOUS
 10
669.4662619259
 20
532.1962717646
 11
677.5956356644
 21
532.1962717646
  0
LINE
  8
0
 62
9
  6
CONTINUOUS
 10
677.5974899772
 20
537.7898761799
 11
669.4644076132
 21
537.7898761799
  0
LINE
  8
0
 62
9
  6
CONTINUOUS
 10
652.1974899772
 20
537.7898761799
 11
644.0644076132
 21
537.7898761799
  0
LINE
  8
0
 62
7
  6
CONTINUOUS
 10
644.0674539789
 20
537.8387212404
 11
652.1944436115
 21
537.8387212404
  0
LINE
  8
0
 62
7
  6
CONTINUOUS
 10
669.4674539789
 20
537.8387212404
 11
677.5944436115
 21
537.8387212404
  0
ARC
  8
0
 62
7
  6
CONTINUOUS
 10
53.0526609995
 20
301.1519548481
 40
16.5
 50
294.0
 51
360.0
  0
ARC
  8
0
 62
7
  6
CONTINUOUS
 10
72.2212158268
 20
241.1264627733
 40
16.5
 50
312.0
 51
18.0
  0
ARC
  8
0
 62
7
  6
CONTINUOUS
 10
109.00049195
 20
189.962236591
 40
16.5
 50
330.0
 51
36.0
  0
ARC
  8
0
 62
7
  6
CONTINUOUS
 10
219.6189145854
 20
132.8931748518
 40
16.5
 50
6.0
 51
72.0
  0
ARC
  8
0
 62
7
  6
CONTINUOUS
 10
159.790277566
 20
152.6675872421
 40
16.5
 50
348.0
 51
54.0
  0
ARC
  8
0
 62
7
  6
CONTINUOUS
 10
63.7526609995
 20
289.8957682358
 40
14.8
 50
215.9817420984
 51
284.0
  0
ARC
  8
0
 62
7
  6
CONTINUOUS
 10
85.8758735062
 20
233.7276749869
 40
14.8
 50
233.9817420984
 51
302.0
  0
ARC
  8
0
 62
7
  6
CONTINUOUS
 10
124.2731942776
 20
187.1450925294
 40
14.8
 50
251.9817420984
 51
320.0
  0
ARC
  8
0
 62
7
  6
CONTINUOUS
 10
175.1860260267
 20
154.7078485941
 40
14.8
 50
269.9817420984
 51
338.0
  0
ARC
  8
0
 62
7
  6
CONTINUOUS
 10
233.6306660515
 20
139.5911266211
 40
14.8
 50
287.9817420984
 51
356.0
  0
ARC
  8
0
 62
7
  6
CONTINUOUS
 10
195.5802617752
 20
157.0014710965
 40
3.25
 50
16.849904579
 51
158.0
  0
ARC
  8
0
 62
7
  6
CONTINUOUS
 10
144.3780334129
 20
183.0242917226
 40
3.25
 50
358.849904579
 51
140.0
  0
ARC
  8
0
 62
7
  6
CONTINUOUS
 10
103.7233142952
 20
223.5958235652
 40
3.25
 50
340.8499045791
 51
122.0
  0
ARC
  8
0
 62
7
  6
CONTINUOUS
 10
77.5956715873
 20
274.7446424092
 40
3.25
 50
322.8499045791
 51
104.0
  0
ARC
  8
0
 62
7
  6
CONTINUOUS
 10
68.5526609995
 20
331.4639454913
 40
3.25
 50
304.849904579
 51
86.0
  0
ARC
  8
0
 62
7
  6
CONTINUOUS
 10
200.604865562
 20
158.5232650331
 40
2.0
 50
196.849904579
 51
252.0
  0
ARC
  8
0
 62
7
  6
CONTINUOUS
 10
149.6269757745
 20
182.9189158023
 40
2.0
 50
178.849904579
 51
234.0
  0
ARC
  8
0
 62
7
  6
CONTINUOUS
 10
108.6827921817
 20
221.8735927174
 40
2.0
 50
160.849904579
 51
216.0
  0
ARC
  8
0
 62
7
  6
CONTINUOUS
 10
81.7802167484
 20
271.5741405887
 40
2.0
 50
142.849904579
 51
198.0
  0
ARC
  8
0
 62
7
  6
CONTINUOUS
 10
71.5526609995
 20
327.1555235064
 40
2.0
 50
124.849904579
 51
180.0
  0
ARC
  8
0
 62
7
  6
CONTINUOUS
 10
52.5856422496
 20
281.7878898302
 40
1.0
 50
114.0
 51
215.9817420984
  0
ARC
  8
0
 62
7
  6
CONTINUOUS
 10
77.7608797722
 20
222.5658258257
 40
1.0
 50
132.0
 51
233.9817420984
  0
ARC
  8
0
 62
7
  6
CONTINUOUS
 10
120.0045776866
 20
174.0218721777
 40
1.0
 50
150.0
 51
251.9817420984
  0
ARC
  8
0
 62
7
  6
CONTINUOUS
 10
175.181628512
 20
140.9078492948
 40
1.0
 50
168.0
 51
269.9817420984
  0
ARC
  8
0
 62
7
  6
CONTINUOUS
 10
237.8909180723
 20
126.4651884558
 40
1.0
 50
186.0
 51
287.9817420984
  0
ARC
  8
0
 62
7
  6
CONTINUOUS
 10
245.2077719353
 20
294.8122285173
 40
0.9443458372
 50
355.4216527464
 51
45.0
  0
ARC
  8
0
 62
7
  6
CONTINUOUS
 10
215.2902328354
 20
324.7297676172
 40
0.9443458372
 50
45.0
 51
94.5783472536
  0
ARC
  8
0
 62
7
  6
CONTINUOUS
 10
221.6299591662
 20
530.7292530147
 40
16.5
 50
204.0
 51
270.0
  0
ARC
  8
0
 62
7
  6
CONTINUOUS
 10
161.6044670914
 20
511.5606981875
 40
16.5
 50
222.0
 51
288.0
  0
ARC
  8
0
 62
7
  6
CONTINUOUS
 10
110.4402409092
 20
474.7814220642
 40
16.5
 50
240.0
 51
306.0
  0
ARC
  8
0
 62
7
  6
CONTINUOUS
 10
73.1455915602
 20
423.9916364482
 40
16.5
 50
258.0
 51
324.0
  0
ARC
  8
0
 62
7
  6
CONTINUOUS
 10
53.3711791699
 20
364.1629994288
 40
16.5
 50
276.0
 51
342.0
  0
ARC
  8
0
 62
7
  6
CONTINUOUS
 10
210.3737725539
 20
520.0292530147
 40
14.8
 50
125.9817420984
 51
194.0
  0
ARC
  8
0
 62
7
  6
CONTINUOUS
 10
154.205679305
 20
497.9060405081
 40
14.8
 50
143.9817420984
 51
212.0
  0
ARC
  8
0
 62
7
  6
CONTINUOUS
 10
107.6230968475
 20
459.5087197367
 40
14.8
 50
161.9817420984
 51
230.0
  0
ARC
  8
0
 62
7
  6
CONTINUOUS
 10
75.1858529122
 20
408.5958879875
 40
14.8
 50
179.9817420984
 51
248.0
  0
ARC
  8
0
 62
7
  6
CONTINUOUS
 10
60.0691309392
 20
350.1512479628
 40
14.8
 50
197.9817420984
 51
266.0
  0
ARC
  8
0
 62
7
  6
CONTINUOUS
 10
214.7359197051
 20
331.6519548481
 40
6.0
 50
85.4216527464
 51
274.5783472536
  0
ARC
  8
0
 62
7
  6
CONTINUOUS
 10
77.4794754146
 20
388.2016522391
 40
3.25
 50
286.849904579
 51
68.0
  0
ARC
  8
0
 62
7
  6
CONTINUOUS
 10
103.5022960407
 20
439.4038806014
 40
3.25
 50
268.849904579
 51
50.0
  0
ARC
  8
0
 62
7
  6
CONTINUOUS
 10
144.0738278834
 20
480.0585997191
 40
3.25
 50
250.849904579
 51
32.0
  0
ARC
  8
0
 62
7
  6
CONTINUOUS
 10
195.2226467273
 20
506.186242427
 40
3.25
 50
232.849904579
 51
14.0
  0
ARC
  8
0
 62
7
  6
CONTINUOUS
 10
251.9419498094
 20
515.2292530147
 40
3.25
 50
214.849904579
 51
356.0
  0
ARC
  8
0
 62
7
  6
CONTINUOUS
 10
79.0012693512
 20
383.1770484523
 40
2.0
 50
106.8499045791
 51
162.0
  0
ARC
  8
0
 62
7
  6
CONTINUOUS
 10
103.3969201204
 20
434.1549382398
 40
2.0
 50
88.849904579
 51
144.0
  0
ARC
  8
0
 62
7
  6
CONTINUOUS
 10
142.3515970355
 20
475.0991218326
 40
2.0
 50
70.849904579
 51
126.0
  0
ARC
  8
0
 62
7
  6
CONTINUOUS
 10
192.0521449068
 20
502.0016972658
 40
2.0
 50
52.849904579
 51
108.0
  0
ARC
  8
0
 62
7
  6
CONTINUOUS
 10
247.6335278245
 20
512.2292530147
 40
2.0
 50
34.849904579
 51
90.0
  0
ARC
  8
0
 62
7
  6
CONTINUOUS
 10
202.2658941483
 20
531.1962717646
 40
1.0
 50
24.0
 51
125.9817420984
  0
ARC
  8
0
 62
7
  6
CONTINUOUS
 10
143.0438301438
 20
506.0210342421
 40
1.0
 50
42.0
 51
143.9817420984
  0
ARC
  8
0
 62
7
  6
CONTINUOUS
 10
94.4998764958
 20
463.7773363276
 40
1.0
 50
60.0
 51
161.9817420984
  0
ARC
  8
0
 62
7
  6
CONTINUOUS
 10
61.3858536129
 20
408.6002855023
 40
1.0
 50
78.0
 51
179.9817420984
  0
ARC
  8
0
 62
7
  6
CONTINUOUS
 10
46.9431927739
 20
345.890995942
 40
1.0
 50
96.0
 51
197.9817420984
  0
ARC
  8
0
 62
7
  6
CONTINUOUS
 10
245.2077719353
 20
368.4916811789
 40
0.9443458372
 50
315.0
 51
4.5783472536
  0
ARC
  8
0
 62
7
  6
CONTINUOUS
 10
215.2902328354
 20
338.574142079
 40
0.9443458372
 50
265.4216527464
 51
315.0
  0
ARC
  8
0
 62
7
  6
CONTINUOUS
 10
450.8887391625
 20
299.1409102673
 40
16.5
 50
96.0
 51
162.0
  0
ARC
  8
0
 62
7
  6
CONTINUOUS
 10
431.1143267722
 20
239.3122732479
 40
16.5
 50
78.0
 51
144.0
  0
ARC
  8
0
 62
7
  6
CONTINUOUS
 10
393.8196774232
 20
188.5224876319
 40
16.5
 50
60.0
 51
126.0
  0
ARC
  8
0
 62
7
  6
CONTINUOUS
 10
342.6554512409
 20
151.7432115087
 40
16.5
 50
42.0
 51
108.0
  0
ARC
  8
0
 62
7
  6
CONTINUOUS
 10
282.6299591662
 20
132.5746566814
 40
16.5
 50
24.0
 51
90.0
  0
ARC
  8
0
 62
7
  6
CONTINUOUS
 10
444.1907873932
 20
313.1526617334
 40
14.8
 50
17.9817420984
 51
86.0
  0
ARC
  8
0
 62
7
  6
CONTINUOUS
 10
429.0740654201
 20
254.7080217086
 40
14.8
 50
359.9817420984
 51
68.0
  0
ARC
  8
0
 62
7
  6
CONTINUOUS
 10
396.6368214849
 20
203.7951899595
 40
14.8
 50
341.9817420984
 51
50.0
  0
ARC
  8
0
 62
7
  6
CONTINUOUS
 10
350.0542390274
 20
165.3978691881
 40
14.8
 50
323.9817420984
 51
32.0
  0
ARC
  8
0
 62
7
  6
CONTINUOUS
 10
293.8861457785
 20
143.2746566814
 40
14.8
 50
305.9817420984
 51
14.0
  0
ARC
  8
0
 62
7
  6
CONTINUOUS
 10
252.1299591662
 20
294.257915387
 40
6.0
 50
175.4216527464
 51
4.5783472536
  0
ARC
  8
0
 62
7
  6
CONTINUOUS
 10
426.7804429178
 20
275.1022574571
 40
3.25
 50
106.849904579
 51
248.0
  0
ARC
  8
0
 62
7
  6
CONTINUOUS
 10
400.7576222917
 20
223.9000290948
 40
3.25
 50
88.849904579
 51
230.0
  0
ARC
  8
0
 62
7
  6
CONTINUOUS
 10
360.186090449
 20
183.245309977
 40
3.25
 50
70.8499045791
 51
212.0
  0
ARC
  8
0
 62
7
  6
CONTINUOUS
 10
309.0372716051
 20
157.1176672692
 40
3.25
 50
52.849904579
 51
194.0
  0
ARC
  8
0
 62
7
  6
CONTINUOUS
 10
252.317968523
 20
148.0746566814
 40
3.25
 50
34.849904579
 51
176.0
  0
ARC
  8
0
 62
7
  6
CONTINUOUS
 10
425.2586489812
 20
280.1268612439
 40
2.0
 50
286.849904579
 51
342.0
  0
ARC
  8
0
 62
7
  6
CONTINUOUS
 10
400.8629982119
 20
229.1489714564
 40
2.0
 50
268.849904579
 51
324.0
  0
ARC
  8
0
 62
7
  6
CONTINUOUS
 10
361.9083212969
 20
188.2047878635
 40
2.0
 50
250.849904579
 51
306.0
  0
ARC
  8
0
 62
7
  6
CONTINUOUS
 10
312.2077734256
 20
161.3022124303
 40
2.0
 50
232.849904579
 51
288.0
  0
ARC
  8
0
 62
7
  6
CONTINUOUS
 10
256.6263905079
 20
151.0746566814
 40
2.0
 50
214.849904579
 51
270.0
  0
ARC
  8
0
 62
7
  6
CONTINUOUS
 10
457.3167255585
 20
317.4129137541
 40
1.0
 50
276.0
 51
17.9817420984
  0
ARC
  8
0
 62
7
  6
CONTINUOUS
 10
442.8740647195
 20
254.7036241938
 40
1.0
 50
258.0
 51
359.9817420984
  0
ARC
  8
0
 62
7
  6
CONTINUOUS
 10
409.7600418366
 20
199.5265733685
 40
1.0
 50
240.0
 51
341.9817420984
  0
ARC
  8
0
 62
7
  6
CONTINUOUS
 10
361.2160881886
 20
157.2828754541
 40
1.0
 50
222.0
 51
323.9817420984
  0
ARC
  8
0
 62
7
  6
CONTINUOUS
 10
301.9940241841
 20
132.1076379315
 40
1.0
 50
204.0
 51
305.9817420984
  0
ARC
  8
0
 62
7
  6
CONTINUOUS
 10
288.969685497
 20
324.7297676172
 40
0.9443458372
 50
85.4216527464
 51
135.0
  0
ARC
  8
0
 62
7
  6
CONTINUOUS
 10
259.0521463971
 20
294.8122285173
 40
0.9443458372
 50
135.0
 51
184.5783472536
  0
CIRCLE
  8
0
 62
7
  6
CONTINUOUS
 10
252.1299591662
 20
331.6519548481
 40
177.0
  0
CIRCLE
  8
0
 62
9
  6
CONTINUOUS
 10
252.1299591662
 20
331.6519548481
 40
175.0
  0
ARC
  8
0
 62
7
  6
CONTINUOUS
 10
252.1299591662
 20
369.0459943092
 40
6.0
 50
355.4216527464
 51
184.5783472536
  0
ARC
  8
0
 62
7
  6
CONTINUOUS
 10
289.5239986273
 20
331.6519548481
 40
6.0
 50
265.4216527464
 51
94.5783472536
  0
ARC
  8
0
 62
7
  6
CONTINUOUS
 10
259.0521463971
 20
368.4916811789
 40
0.9443458372
 50
175.4216527464
 51
225.0
  0
ARC
  8
0
 62
7
  6
CONTINUOUS
 10
288.969685497
 20
338.574142079
 40
0.9443458372
 50
225.0
 51
274.5783472536
  0
ARC
  8
0
 62
7
  6
CONTINUOUS
 10
284.6410037469
 20
530.4107348444
 40
16.5
 50
186.0
 51
252.0
  0
ARC
  8
0
 62
7
  6
CONTINUOUS
 10
344.4696407664
 20
510.6363224541
 40
16.5
 50
168.0
 51
234.0
  0
ARC
  8
0
 62
7
  6
CONTINUOUS
 10
270.6292522809
 20
523.7127830751
 40
14.8
 50
107.9817420984
 51
176.0
  0
ARC
  8
0
 62
7
  6
CONTINUOUS
 10
329.0738923056
 20
508.596061102
 40
14.8
 50
89.9817420984
 51
158.0
  0
CIRCLE
  8
0
 62
7
  6
CONTINUOUS
 10
252.1299591662
 20
502.1519548481
 40
4.0
  0
ARC
  8
0
 62
7
  6
CONTINUOUS
 10
308.6796565572
 20
506.3024385997
 40
3.25
 50
196.849904579
 51
338.0
  0
ARC
  8
0
 62
7
  6
CONTINUOUS
 10
303.6550527704
 20
504.7806446631
 40
2.0
 50
16.849904579
 51
72.0
  0
ARC
  8
0
 62
7
  6
CONTINUOUS
 10
266.3690002601
 20
536.8387212404
 40
1.0
 50
6.0
 51
107.9817420984
  0
ARC
  8
0
 62
7
  6
CONTINUOUS
 10
329.0782898204
 20
522.3960604014
 40
1.0
 50
348.0
 51
89.9817420984
  0
ARC
  8
0
 62
7
  6
CONTINUOUS
 10
432.0387025056
 20
422.1774469228
 40
16.5
 50
132.0
 51
198.0
  0
ARC
  8
0
 62
7
  6
CONTINUOUS
 10
451.2072573329
 20
362.1519548481
 40
16.5
 50
114.0
 51
180.0
  0
ARC
  8
0
 62
7
  6
CONTINUOUS
 10
418.3840448262
 20
429.5762347093
 40
14.8
 50
53.9817420984
 51
122.0
  0
ARC
  8
0
 62
7
  6
CONTINUOUS
 10
440.5072573329
 20
373.4081414604
 40
14.8
 50
35.9817420984
 51
104.0
  0
ARC
  8
0
 62
7
  6
CONTINUOUS
 10
426.6642467451
 20
388.5592672869
 40
3.25
 50
142.849904579
 51
284.0
  0
ARC
  8
0
 62
7
  6
CONTINUOUS
 10
435.7072573329
 20
331.8399642049
 40
3.25
 50
124.849904579
 51
266.0
  0
ARC
  8
0
 62
7
  6
CONTINUOUS
 10
422.4797015839
 20
391.7297691075
 40
2.0
 50
322.849904579
 51
18.0
  0
ARC
  8
0
 62
7
  6
CONTINUOUS
 10
432.7072573329
 20
336.1483861898
 40
2.0
 50
304.8499045791
 51
360.0
  0
ARC
  8
0
 62
7
  6
CONTINUOUS
 10
451.6742760827
 20
381.516019866
 40
1.0
 50
294.0
 51
35.9817420984
  0
ARC
  8
0
 62
7
  6
CONTINUOUS
 10
395.2594263824
 20
473.3416731051
 40
16.5
 50
150.0
 51
216.0
  0
ARC
  8
0
 62
7
  6
CONTINUOUS
 10
379.9867240548
 20
476.1588171668
 40
14.8
 50
71.9817420984
 51
140.0
  0
ARC
  8
0
 62
7
  6
CONTINUOUS
 10
359.8818849195
 20
480.2796179736
 40
3.25
 50
178.8499045791
 51
320.0
  0
ARC
  8
0
 62
7
  6
CONTINUOUS
 10
400.5366040372
 20
439.7080861309
 40
3.25
 50
160.849904579
 51
302.0
  0
ARC
  8
0
 62
7
  6
CONTINUOUS
 10
354.6329425579
 20
480.3849938938
 40
2.0
 50
358.8499045789
 51
54.0
  0
ARC
  8
0
 62
7
  6
CONTINUOUS
 10
395.5771261507
 20
441.4303169788
 40
2.0
 50
340.849904579
 51
36.0
  0
ARC
  8
0
 62
7
  6
CONTINUOUS
 10
384.2553406458
 20
489.2820375185
 40
1.0
 50
330.0
 51
71.9817420984
  0
ARC
  8
0
 62
7
  6
CONTINUOUS
 10
426.4990385602
 20
440.7380838705
 40
1.0
 50
312.0
 51
53.9817420984
  0
ARC
  8
0
 62
7
  6
CONTINUOUS
 10
637.8309487952
 20
156.6519548481
 40
2.0
 50
180.0
 51
270.0
  0
ARC
  8
0
 62
7
  6
CONTINUOUS
 10
637.8309487952
 20
506.6519548481
 40
2.0
 50
90.0
 51
180.0
  0
ARC
  8
0
 62
7
  6
CONTINUOUS
 10
683.8309487952
 20
156.6519548481
 40
2.0
 50
270.0
 51
360.0
  0
ARC
  8
0
 62
7
  6
CONTINUOUS
 10
683.8309487952
 20
506.6519548481
 40
2.0
 50
0.0
 51
90.0
  0
ENDSEC
  0
EOF
