  0
SECTION
  2
HEADER
  9
$EXTMAX
 10
841.0
 20
594.0
 30
0.0
  9
$EXTMIN
 10
0.0
 20
0.0
 30
0.0
  9
$LIMMIN
 10
0.0
 20
0.0
  9
$LIMMAX
 10
841.0
 20
594.0
  9
$VIEWCTR
 10
420.5
 20
297.0
  9
$VIEWSIZE
 40
594.0
  9
$CLAYER
  8
0
  9
$LTSCALE
 40
46.255
  9
$CELTYPE
  6
BYLAYER
  9
$DIMSCALE
 40
1.0
  9
$DIMASZ
 40
3.5
  9
$DIMEXO
 40
0.0
  9
$DIMDLI
 40
31.958
  9
$DIMEXE
 40
2.0
  9
$DIMCEN
 40
7.569
  9
$DIMLFAC
 40
1.0
  9
$DIMBLK
  1
_FILLED
  9
$DIMALT
 70
0
  9
$DIMALTF
 40
0.0393700787
  9
$DIMTXT
 40
3.5
  9
$AUNITS
 70
0
  9
$PDMODE
 70
3
  9
$PDSIZE
 40
0.3125
  9
$TILEMODE
 70
1
  0
ENDSEC
  0
SECTION
  2
TABLES
  0
TABLE
  2
LTYPE
 70
6
  0
LTYPE
  2
BYBLOCK
 70
0
  3

 72
65
 73
0
 40
0.0
  0
LTYPE
  2
BYLAYER
 70
0
  3

 72
65
 73
0
 40
0.0
  0
LTYPE
  2
CONTINUOUS
 70
64
  3
Solid line
 72
65
 73
0
 40
0.0
  0
LTYPE
  2
CENTER
 70
64
  3
____ _ ____ _ ____ _ ____ _ ____ _ ____ _ ____
 72
65
 73
4
 40
0.6
 49
0.375
 49
-0.075
 49
0.075
 49
-0.075
  0
LTYPE
  2
HIDDEN
 70
64
  3
- - - - - - - - - - - - - - - - - - - -
 72
65
 73
2
 40
0.2
 49
0.1
 49
-0.1
  0
LTYPE
  2
PHANTOM
 70
64
  3
_____ _ _ _____ _ _ _____ _ _ _____
 72
65
 73
6
 40
0.8
 49
0.45
 49
-0.05
 49
0.1
 49
-0.05
 49
0.1
 49
-0.05
  0
LTYPE
  2
DOT
 70
64
  3
. . . . . . . . . . . . . . . . . . . .
 72
65
 73
2
 40
0.2
 49
0.1
 49
-0.1
  0
LTYPE
  2
DASHED
 70
64
  3
- - - - - - - - - - - - - - - - - - - -
 72
65
 73
2
 40
0.2
 49
0.1
 49
-0.1
  0
ENDTAB
  0
TABLE
  2
LAYER
 70
36
  0
LAYER
  2
0
 70
0
 62
7
  6
CONTINUOUS
  0
LAYER
  2
DEFAULT_1
 70
0
 62
7
  6
CENTER
  0
LAYER
  2
DEFAULT_2
 70
0
 62
8
  6
HIDDEN
  0
LAYER
  2
DEFAULT_3
 70
0
 62
7
  6
PHANTOM
  0
LAYER
  2
1_CSYS
 70
0
 62
7
  6
CONTINUOUS
  0
LAYER
  2
1_DATUM_PLANE
 70
0
 62
7
  6
CONTINUOUS
  0
LAYER
  2
2_FEATURE
 70
0
 62
7
  6
CONTINUOUS
  0
LAYER
  2
6_DIM
 70
0
 62
7
  6
CONTINUOUS
  0
LAYER
  2
AXES
 70
0
 62
7
  6
CONTINUOUS
  0
LAYER
  2
BLANK_BELT
 70
0
 62
7
  6
CONTINUOUS
  0
LAYER
  2
BLANK_CURVE_BORE
 70
0
 62
7
  6
CONTINUOUS
  0
LAYER
  2
BLANK_PLAN
 70
0
 62
7
  6
CONTINUOUS
  0
LAYER
  2
BLANK_SQ
 70
0
 62
7
  6
CONTINUOUS
  0
LAYER
  2
CSYS
 70
0
 62
7
  6
CONTINUOUS
  0
LAYER
  2
DTM_AXES
 70
0
 62
7
  6
CONTINUOUS
  0
LAYER
  2
DTM_CRV
 70
0
 62
7
  6
CONTINUOUS
  0
LAYER
  2
NOTES
 70
0
 62
7
  6
CONTINUOUS
  0
LAYER
  2
OUTERLINE
 70
0
 62
7
  6
CONTINUOUS
  0
LAYER
  2
PITCH_LINE
 70
0
 62
7
  6
CONTINUOUS
  0
LAYER
  2
PLANES
 70
0
 62
7
  6
CONTINUOUS
  0
LAYER
  2
QUILTS
 70
0
 62
7
  6
CONTINUOUS
  0
ENDTAB
  0
TABLE
  2
STYLE
 70
1
  0
STYLE
  2
STANDARD
 70
0
 40
0.0
 41
0.8
 50
0.0
 71
0
 42
0.2
  3
txt
  4

  0
STYLE
  2
TEXTSTYLE_1
 70
0
 40
0.0
 41
0.8
 50
0.0
 71
0
 42
0.2
  3
gdt
  4

  0
STYLE
  2
TEXTSTYLE_2
 70
0
 40
0.0
 41
0.6
 50
0.0
 71
0
 42
0.2
  3
txt
  4

  0
STYLE
  2
TEXTSTYLE_3
 70
0
 40
0.0
 41
1.0
 50
0.0
 71
0
 42
0.2
  3
frutiger light.ttf
  4

  0
STYLE
  2
TEXTSTYLE_4
 70
0
 40
0.0
 41
1.0
 50
0.0
 71
0
 42
0.2
  3
ftr_____.ttf
  4

  0
STYLE
  2
TEXTSTYLE_5
 70
0
 40
0.0
 41
0.7
 50
0.0
 71
0
 42
0.2
  3
txt
  4

  0
STYLE
  2
TEXTSTYLE_6
 70
0
 40
0.0
 41
1.0
 50
0.0
 71
0
 42
0.2
  3
ftb_____.ttf
  4

  0
ENDTAB
  0
ENDSEC
  0
SECTION
  2
BLOCKS
  0
BLOCK
  8
0
 62
2
  6
CONTINUOUS
  2
UNI_LOGO2_BL1
 70
64
 10
804.4079930916
 20
35.8092573885
  0
TEXT
  8
0
 62
7
  6
CONTINUOUS
 10
795.4662781001
 20
30.9020137655
  7
TEXTSTYLE_4
 40
1.0655737705
  1
The brand for plastic modular belts and chains
 41
1.0
 72
0
  0
LINE
  8
0
 62
7
  6
CONTINUOUS
 10
780.3860614807
 20
36.3830278803
 11
780.3860614807
 21
34.2518803393
  0
LINE
  8
0
 62
7
  6
CONTINUOUS
 10
780.6751239738
 20
31.2609490436
 11
780.6751239738
 21
31.3577401029
  0
LINE
  8
0
 62
7
  6
CONTINUOUS
 10
780.3860614807
 20
31.3254764164
 11
780.4438739824
 21
31.1318942979
  0
LINE
  8
0
 62
7
  6
CONTINUOUS
 10
781.7795041036
 20
34.1699131262
 11
781.7795041036
 21
36.3830278803
  0
LINE
  8
0
 62
7
  6
CONTINUOUS
 10
782.6985614255
 20
32.3256508311
 11
782.6985614255
 21
30.8092573885
  0
LINE
  8
0
 62
7
  6
CONTINUOUS
 10
782.9876239807
 20
30.8092573885
 11
782.9876239807
 21
31.5513222666
  0
LINE
  8
0
 62
7
  6
CONTINUOUS
 10
782.9876239807
 20
31.6803770123
 11
782.9876239807
 21
32.3256508311
  0
LINE
  8
0
 62
7
  6
CONTINUOUS
 10
780.4438739824
 20
31.5190585802
 11
780.3860614807
 21
31.3254764164
  0
LINE
  8
0
 62
7
  6
CONTINUOUS
 10
780.7907489669
 20
31.0996306115
 11
780.6751239738
 21
31.2609490436
  0
LINE
  8
0
 62
7
  6
CONTINUOUS
 10
781.8891865358
 20
31.6158496394
 11
781.9469989807
 21
31.5190585802
  0
LINE
  8
0
 62
7
  6
CONTINUOUS
 10
782.2360615358
 20
31.5190585802
 11
782.1782489255
 21
31.6481133259
  0
LINE
  8
0
 62
7
  6
CONTINUOUS
 10
783.6647500052
 20
36.3830278803
 11
783.6647500052
 21
34.5797491918
  0
LINE
  8
0
 62
7
  6
CONTINUOUS
 10
783.6647500052
 20
33.2682737819
 11
783.6647500052
 21
32.612536077
  0
LINE
  8
0
 62
7
  6
CONTINUOUS
 10
784.0282489807
 20
31.4545312073
 11
784.0282489807
 21
30.8092573885
  0
LINE
  8
0
 62
7
  6
CONTINUOUS
 10
784.3173113704
 20
30.8092573885
 11
784.3173113704
 21
31.4545312073
  0
LINE
  8
0
 62
7
  6
CONTINUOUS
 10
780.6751239738
 20
31.3577401029
 11
780.7329364807
 21
31.4867948937
  0
LINE
  8
0
 62
7
  6
CONTINUOUS
 10
780.4438739824
 20
31.1318942979
 11
780.5594989807
 21
31.0028395296
  0
LINE
  8
0
 62
7
  6
CONTINUOUS
 10
783.9704363704
 20
31.583585953
 11
784.0282489807
 21
31.4545312073
  0
LINE
  8
0
 62
7
  6
CONTINUOUS
 10
784.7798115909
 20
31.0996306115
 11
784.8376238704
 21
30.9705758432
  0
LINE
  8
0
 62
7
  6
CONTINUOUS
 10
784.3173113704
 20
31.4545312073
 11
784.2594990909
 21
31.6158496394
  0
LINE
  8
0
 62
7
  6
CONTINUOUS
 10
784.7798115909
 20
31.6481133259
 11
784.7798115909
 21
31.583585953
  0
LINE
  8
0
 62
7
  6
CONTINUOUS
 10
784.7798115909
 20
31.1964216708
 11
784.7798115909
 21
31.0996306115
  0
LINE
  8
0
 62
7
  6
CONTINUOUS
 10
785.0581926282
 20
32.612536077
 11
785.0581926282
 21
36.3830278803
  0
LINE
  8
0
 62
7
  6
CONTINUOUS
 10
785.0688739807
 20
31.0673669025
 11
785.0688739807
 21
31.1318942979
  0
LINE
  8
0
 62
7
  6
CONTINUOUS
 10
785.3860614807
 20
36.3830278803
 11
785.3860614807
 21
32.612536077
  0
LINE
  8
0
 62
7
  6
CONTINUOUS
 10
782.1782489255
 20
31.0028395296
 11
782.2360615358
 21
31.1318942979
  0
LINE
  8
0
 62
7
  6
CONTINUOUS
 10
786.5719992012
 20
30.9060484591
 11
786.5141862601
 21
31.0673669025
  0
LINE
  8
0
 62
7
  6
CONTINUOUS
 10
786.2251242012
 20
31.583585953
 11
786.2251242012
 21
31.4867948937
  0
LINE
  8
0
 62
7
  6
CONTINUOUS
 10
786.2251242012
 20
31.3577401029
 11
786.2251242012
 21
31.1641579843
  0
LINE
  8
0
 62
7
  6
CONTINUOUS
 10
786.5141862601
 20
31.0673669025
 11
786.5141862601
 21
31.583585953
  0
LINE
  8
0
 62
7
  6
CONTINUOUS
 10
786.7795041036
 20
32.612536077
 11
786.7795041036
 21
34.4158147655
  0
LINE
  8
0
 62
7
  6
CONTINUOUS
 10
786.7795041036
 20
35.7272901754
 11
786.7795041036
 21
36.3830278803
  0
LINE
  8
0
 62
7
  6
CONTINUOUS
 10
787.0923117012
 20
32.3256508311
 11
787.0923117012
 21
32.164332399
  0
LINE
  8
0
 62
7
  6
CONTINUOUS
 10
787.0923117012
 20
31.8416954444
 11
787.0923117012
 21
30.8092573885
  0
LINE
  8
0
 62
7
  6
CONTINUOUS
 10
787.3813737601
 20
30.8092573885
 11
787.3813737601
 21
31.8416954444
  0
LINE
  8
0
 62
7
  6
CONTINUOUS
 10
787.3813737601
 20
32.164332399
 11
787.3813737601
 21
32.3256508311
  0
LINE
  8
0
 62
7
  6
CONTINUOUS
 10
781.9469989807
 20
31.1318942979
 11
781.8891865358
 21
31.035103216
  0
LINE
  8
0
 62
7
  6
CONTINUOUS
 10
784.2594990909
 20
31.6158496394
 11
784.2016864807
 21
31.6803770123
  0
LINE
  8
0
 62
7
  6
CONTINUOUS
 10
785.1266865909
 20
31.0028395296
 11
785.0688739807
 21
31.0673669025
  0
LINE
  8
0
 62
7
  6
CONTINUOUS
 10
786.2829364807
 20
30.873784767
 11
786.3407487601
 21
30.8092573885
  0
LINE
  8
0
 62
7
  6
CONTINUOUS
 10
786.2251242012
 20
30.9705758432
 11
786.2829364807
 21
30.873784767
  0
LINE
  8
0
 62
7
  6
CONTINUOUS
 10
786.6298114807
 20
30.8092573885
 11
786.5719992012
 21
30.9060484591
  0
LINE
  8
0
 62
7
  6
CONTINUOUS
 10
786.5141862601
 20
31.583585953
 11
786.4563739807
 21
31.6803770123
  0
LINE
  8
0
 62
7
  6
CONTINUOUS
 10
787.8438739807
 20
31.8416954444
 11
787.8438739807
 21
30.8092573885
  0
LINE
  8
0
 62
7
  6
CONTINUOUS
 10
788.1329367012
 20
30.8092573885
 11
788.1329367012
 21
31.5513222666
  0
LINE
  8
0
 62
7
  6
CONTINUOUS
 10
788.1329367012
 20
31.6803770123
 11
788.1329367012
 21
31.8416954444
  0
LINE
  8
0
 62
7
  6
CONTINUOUS
 10
788.6647500052
 20
34.8256508311
 11
788.6647500052
 21
32.612536077
  0
LINE
  8
0
 62
7
  6
CONTINUOUS
 10
780.5594989807
 20
31.6481133259
 11
780.4438739824
 21
31.5190585802
  0
LINE
  8
0
 62
7
  6
CONTINUOUS
 10
780.7329364807
 20
31.4867948937
 11
780.7907489669
 21
31.5513222666
  0
LINE
  8
0
 62
7
  6
CONTINUOUS
 10
780.5594989807
 20
31.0028395296
 11
780.6751239738
 21
30.9383121455
  0
LINE
  8
0
 62
7
  6
CONTINUOUS
 10
780.9641864669
 20
31.0028395296
 11
780.7907489669
 21
31.0996306115
  0
LINE
  8
0
 62
7
  6
CONTINUOUS
 10
786.1673112601
 20
31.6481133259
 11
786.2251242012
 21
31.583585953
  0
LINE
  8
0
 62
7
  6
CONTINUOUS
 10
789.1157487601
 20
31.583585953
 11
789.1735617012
 21
31.4222675209
  0
LINE
  8
0
 62
7
  6
CONTINUOUS
 10
789.4626237601
 20
31.4222675209
 11
789.4048114807
 21
31.583585953
  0
LINE
  8
0
 62
7
  6
CONTINUOUS
 10
789.1735617012
 20
31.4222675209
 11
789.1735617012
 21
30.8092573885
  0
LINE
  8
0
 62
7
  6
CONTINUOUS
 10
789.4626237601
 20
30.8092573885
 11
789.4626237601
 21
31.4222675209
  0
LINE
  8
0
 62
7
  6
CONTINUOUS
 10
789.9251239807
 20
31.6481133259
 11
789.9251239807
 21
31.583585953
  0
LINE
  8
0
 62
7
  6
CONTINUOUS
 10
790.0581926282
 20
32.612536077
 11
790.0581926282
 21
34.743683618
  0
LINE
  8
0
 62
7
  6
CONTINUOUS
 10
790.3860614807
 20
36.3830278803
 11
790.3860614807
 21
32.612536077
  0
LINE
  8
0
 62
7
  6
CONTINUOUS
 10
785.0688739807
 20
31.1318942979
 11
785.1266865909
 21
31.2286853572
  0
LINE
  8
0
 62
7
  6
CONTINUOUS
 10
780.6751239738
 20
30.9383121455
 11
780.8485614944
 21
30.873784767
  0
LINE
  8
0
 62
7
  6
CONTINUOUS
 10
782.1782489255
 20
31.6481133259
 11
782.0048114255
 21
31.7449043851
  0
LINE
  8
0
 62
7
  6
CONTINUOUS
 10
784.8376238704
 20
30.9705758432
 11
785.0110613704
 21
30.873784767
  0
LINE
  8
0
 62
7
  6
CONTINUOUS
 10
783.8548114807
 20
31.6481133259
 11
783.9704363704
 21
31.583585953
  0
LINE
  8
0
 62
7
  6
CONTINUOUS
 10
784.2016864807
 20
31.6803770123
 11
784.0860615909
 21
31.7449043851
  0
LINE
  8
0
 62
7
  6
CONTINUOUS
 10
789.9251239807
 20
31.0673669025
 11
790.0407492012
 21
30.9383121455
  0
LINE
  8
0
 62
7
  6
CONTINUOUS
 10
790.2719989807
 20
31.0028395296
 11
790.2141867012
 21
31.0673669025
  0
LINE
  8
0
 62
7
  6
CONTINUOUS
 10
789.9251239807
 20
31.583585953
 11
790.0407492012
 21
31.4545312073
  0
LINE
  8
0
 62
7
  6
CONTINUOUS
 10
789.4048114807
 20
31.583585953
 11
789.3469992012
 21
31.6803770123
  0
LINE
  8
0
 62
7
  6
CONTINUOUS
 10
791.7751235396
 20
31.0028395296
 11
791.7751235396
 21
31.0673669025
  0
LINE
  8
0
 62
7
  6
CONTINUOUS
 10
791.7795041036
 20
32.612536077
 11
791.7795041036
 21
36.3830278803
  0
LINE
  8
0
 62
7
  6
CONTINUOUS
 10
784.8376238704
 20
31.7126406987
 11
784.7798115909
 21
31.6481133259
  0
LINE
  8
0
 62
7
  6
CONTINUOUS
 10
781.7157489531
 20
31.6803770123
 11
781.8891865358
 21
31.6158496394
  0
LINE
  8
0
 62
7
  6
CONTINUOUS
 10
786.4563739807
 20
31.6803770123
 11
786.3407487601
 21
31.7449043851
  0
LINE
  8
0
 62
7
  6
CONTINUOUS
 10
790.2719989807
 20
31.5190585802
 11
790.2141867012
 21
31.583585953
  0
LINE
  8
0
 62
7
  6
CONTINUOUS
 10
791.4282492012
 20
31.1318942979
 11
791.4860614807
 21
31.0673669025
  0
LINE
  8
0
 62
7
  6
CONTINUOUS
 10
791.7751235396
 20
31.0673669025
 11
791.6594989807
 21
31.1964216708
  0
LINE
  8
0
 62
7
  6
CONTINUOUS
 10
791.4282492012
 20
31.6481133259
 11
791.4860614807
 21
31.583585953
  0
LINE
  8
0
 62
7
  6
CONTINUOUS
 10
791.7751235396
 20
31.583585953
 11
791.6594989807
 21
31.7126406987
  0
LINE
  8
0
 62
7
  6
CONTINUOUS
 10
785.0688739807
 20
31.583585953
 11
785.1266865909
 21
31.6481133259
  0
LINE
  8
0
 62
7
  6
CONTINUOUS
 10
784.8954364807
 20
31.3254764164
 11
784.7798115909
 21
31.1964216708
  0
LINE
  8
0
 62
7
  6
CONTINUOUS
 10
786.2251242012
 20
31.1641579843
 11
786.1673112601
 21
31.0996306115
  0
LINE
  8
0
 62
7
  6
CONTINUOUS
 10
786.1673112601
 20
30.9060484591
 11
786.2251242012
 21
30.9705758432
  0
LINE
  8
0
 62
7
  6
CONTINUOUS
 10
785.0110613704
 20
30.873784767
 11
785.1266865909
 21
30.8415210777
  0
LINE
  8
0
 62
7
  6
CONTINUOUS
 10
782.0048114255
 20
31.7449043851
 11
781.7735614807
 21
31.809431758
  0
LINE
  8
0
 62
7
  6
CONTINUOUS
 10
785.3579363704
 20
30.9383121455
 11
785.1266865909
 21
31.0028395296
  0
LINE
  8
0
 62
7
  6
CONTINUOUS
 10
784.0860615909
 20
31.7449043851
 11
783.9126240909
 21
31.809431758
  0
LINE
  8
0
 62
7
  6
CONTINUOUS
 10
786.3407487601
 20
31.7449043851
 11
786.1673112601
 21
31.809431758
  0
LINE
  8
0
 62
7
  6
CONTINUOUS
 10
789.0001242012
 20
31.6481133259
 11
789.1157487601
 21
31.583585953
  0
LINE
  8
0
 62
7
  6
CONTINUOUS
 10
789.3469992012
 20
31.6803770123
 11
789.2313739807
 21
31.7449043851
  0
LINE
  8
0
 62
7
  6
CONTINUOUS
 10
780.8485614944
 20
30.873784767
 11
781.0219989944
 21
30.8415210777
  0
LINE
  8
0
 62
7
  6
CONTINUOUS
 10
781.3110615082
 20
30.9383121455
 11
780.9641864669
 21
31.0028395296
  0
LINE
  8
0
 62
7
  6
CONTINUOUS
 10
783.7391865909
 20
31.6803770123
 11
783.8548114807
 21
31.6481133259
  0
LINE
  8
0
 62
7
  6
CONTINUOUS
 10
786.0516867012
 20
31.6803770123
 11
786.1673112601
 21
31.6481133259
  0
LINE
  8
0
 62
7
  6
CONTINUOUS
 10
790.3876242012
 20
30.9705758432
 11
790.2719989807
 21
31.0028395296
  0
LINE
  8
0
 62
7
  6
CONTINUOUS
 10
788.8844989807
 20
31.6803770123
 11
789.0001242012
 21
31.6481133259
  0
LINE
  8
0
 62
7
  6
CONTINUOUS
 10
790.0407492012
 20
30.9383121455
 11
790.2141867012
 21
30.873784767
  0
LINE
  8
0
 62
7
  6
CONTINUOUS
 10
789.2313739807
 20
31.7449043851
 11
789.0579364807
 21
31.809431758
  0
LINE
  8
0
 62
7
  6
CONTINUOUS
 10
790.4454364807
 20
31.4545312073
 11
790.2719989807
 21
31.5190585802
  0
LINE
  8
0
 62
7
  6
CONTINUOUS
 10
791.2548117012
 20
31.1964216708
 11
791.4282492012
 21
31.1318942979
  0
LINE
  8
0
 62
7
  6
CONTINUOUS
 10
791.6594989807
 20
31.7126406987
 11
791.4860614807
 21
31.7771680715
  0
LINE
  8
0
 62
7
  6
CONTINUOUS
 10
790.0407492012
 20
31.4545312073
 11
790.2719989807
 21
31.3577401029
  0
LINE
  8
0
 62
7
  6
CONTINUOUS
 10
791.6594989807
 20
31.1964216708
 11
791.4282492012
 21
31.29321273
  0
LINE
  8
0
 62
7
  6
CONTINUOUS
 10
790.2141867012
 20
31.583585953
 11
790.2719989807
 21
31.6481133259
  0
LINE
  8
0
 62
7
  6
CONTINUOUS
 10
780.6751239738
 20
31.7126406987
 11
780.5594989807
 21
31.6481133259
  0
LINE
  8
0
 62
7
  6
CONTINUOUS
 10
780.7907489669
 20
31.5513222666
 11
780.9641864669
 21
31.6481133259
  0
LINE
  8
0
 62
7
  6
CONTINUOUS
 10
783.1032490358
 20
31.7449043851
 11
782.9876239807
 21
31.6803770123
  0
LINE
  8
0
 62
7
  6
CONTINUOUS
 10
782.9876239807
 20
31.5513222666
 11
783.1032490358
 21
31.6158496394
  0
LINE
  8
0
 62
7
  6
CONTINUOUS
 10
782.0048114255
 20
30.9060484591
 11
782.1782489255
 21
31.0028395296
  0
LINE
  8
0
 62
7
  6
CONTINUOUS
 10
781.0219989944
 20
30.8415210777
 11
781.3688739531
 21
30.8092573885
  0
LINE
  8
0
 62
7
  6
CONTINUOUS
 10
785.1266865909
 20
30.8415210777
 11
785.3579363704
 21
30.8092573885
  0
LINE
  8
0
 62
7
  6
CONTINUOUS
 10
783.5079364807
 20
31.7126406987
 11
783.7391865909
 21
31.6803770123
  0
LINE
  8
0
 62
7
  6
CONTINUOUS
 10
785.8204365909
 20
31.7126406987
 11
786.0516867012
 21
31.6803770123
  0
LINE
  8
0
 62
7
  6
CONTINUOUS
 10
790.2719989807
 20
31.3577401029
 11
791.2548117012
 21
31.1964216708
  0
LINE
  8
0
 62
7
  6
CONTINUOUS
 10
791.4282492012
 20
31.29321273
 11
790.4454364807
 21
31.4545312073
  0
LINE
  8
0
 62
7
  6
CONTINUOUS
 10
783.9126240909
 20
31.809431758
 11
783.7391865909
 21
31.8416954444
  0
LINE
  8
0
 62
7
  6
CONTINUOUS
 10
790.2141867012
 20
30.873784767
 11
790.3876242012
 21
30.8415210777
  0
LINE
  8
0
 62
7
  6
CONTINUOUS
 10
789.0579364807
 20
31.809431758
 11
788.8844989807
 21
31.8416954444
  0
LINE
  8
0
 62
7
  6
CONTINUOUS
 10
791.3126239807
 20
31.6803770123
 11
791.4282492012
 21
31.6481133259
  0
LINE
  8
0
 62
7
  6
CONTINUOUS
 10
791.4860614807
 20
31.0673669025
 11
791.4282492012
 21
31.0028395296
  0
LINE
  8
0
 62
7
  6
CONTINUOUS
 10
790.0407492012
 20
31.7449043851
 11
789.9251239807
 21
31.6481133259
  0
LINE
  8
0
 62
7
  6
CONTINUOUS
 10
784.9532490909
 20
31.7771680715
 11
784.8376238704
 21
31.7126406987
  0
LINE
  8
0
 62
7
  6
CONTINUOUS
 10
785.0110613704
 20
31.3900038345
 11
784.8954364807
 21
31.3254764164
  0
LINE
  8
0
 62
7
  6
CONTINUOUS
 10
785.1266865909
 20
31.2286853572
 11
785.2423114807
 21
31.29321273
  0
LINE
  8
0
 62
7
  6
CONTINUOUS
 10
782.6985614255
 20
30.8092573885
 11
782.9876239807
 21
30.8092573885
  0
LINE
  8
0
 62
7
  6
CONTINUOUS
 10
784.0282489807
 20
30.8092573885
 11
784.3173113704
 21
30.8092573885
  0
LINE
  8
0
 62
7
  6
CONTINUOUS
 10
785.3579363704
 20
30.8092573885
 11
785.7048113704
 21
30.8092573885
  0
LINE
  8
0
 62
7
  6
CONTINUOUS
 10
786.3407487601
 20
30.8092573885
 11
786.6298114807
 21
30.8092573885
  0
LINE
  8
0
 62
7
  6
CONTINUOUS
 10
787.0923117012
 20
30.8092573885
 11
787.3813737601
 21
30.8092573885
  0
LINE
  8
0
 62
7
  6
CONTINUOUS
 10
787.8438739807
 20
30.8092573885
 11
788.1329367012
 21
30.8092573885
  0
LINE
  8
0
 62
7
  6
CONTINUOUS
 10
789.1735617012
 20
30.8092573885
 11
789.4626237601
 21
30.8092573885
  0
LINE
  8
0
 62
7
  6
CONTINUOUS
 10
790.7344992012
 20
30.8092573885
 11
791.0813742012
 21
30.8092573885
  0
LINE
  8
0
 62
7
  6
CONTINUOUS
 10
791.0813742012
 20
30.9383121455
 11
790.7344992012
 21
30.9383121455
  0
LINE
  8
0
 62
7
  6
CONTINUOUS
 10
785.7048113704
 20
30.9383121455
 11
785.3579363704
 21
30.9383121455
  0
LINE
  8
0
 62
7
  6
CONTINUOUS
 10
790.2141867012
 20
31.0673669025
 11
789.9251239807
 21
31.0673669025
  0
LINE
  8
0
 62
7
  6
CONTINUOUS
 10
782.2360615358
 20
31.1318942979
 11
781.9469989807
 21
31.1318942979
  0
LINE
  8
0
 62
7
  6
CONTINUOUS
 10
781.3110615082
 20
31.7126406987
 11
781.7157489531
 21
31.6803770123
  0
LINE
  8
0
 62
7
  6
CONTINUOUS
 10
781.7735614807
 20
31.809431758
 11
781.3688739531
 21
31.8416954444
  0
LINE
  8
0
 62
7
  6
CONTINUOUS
 10
790.3876242012
 20
30.8415210777
 11
790.7344992012
 21
30.8092573885
  0
LINE
  8
0
 62
7
  6
CONTINUOUS
 10
790.7344992012
 20
30.9383121455
 11
790.3876242012
 21
30.9705758432
  0
LINE
  8
0
 62
7
  6
CONTINUOUS
 10
786.1673112601
 20
31.809431758
 11
785.8204365909
 21
31.8416954444
  0
LINE
  8
0
 62
7
  6
CONTINUOUS
 10
790.9657489807
 20
31.7126406987
 11
791.3126239807
 21
31.6803770123
  0
LINE
  8
0
 62
7
  6
CONTINUOUS
 10
791.3126239807
 20
31.809431758
 11
790.9657489807
 21
31.8416954444
  0
LINE
  8
0
 62
7
  6
CONTINUOUS
 10
788.6532492012
 20
31.7126406987
 11
788.8844989807
 21
31.6803770123
  0
LINE
  8
0
 62
7
  6
CONTINUOUS
 10
791.4860614807
 20
31.7771680715
 11
791.3126239807
 21
31.809431758
  0
LINE
  8
0
 62
7
  6
CONTINUOUS
 10
791.6594989807
 20
30.9060484591
 11
791.7751235396
 21
31.0028395296
  0
LINE
  8
0
 62
7
  6
CONTINUOUS
 10
786.1673112601
 20
31.0996306115
 11
785.9938737601
 21
31.0028395296
  0
LINE
  8
0
 62
7
  6
CONTINUOUS
 10
788.2485612601
 20
31.7449043851
 11
788.1329367012
 21
31.6803770123
  0
LINE
  8
0
 62
7
  6
CONTINUOUS
 10
788.1329367012
 20
31.5513222666
 11
788.2485612601
 21
31.6158496394
  0
LINE
  8
0
 62
7
  6
CONTINUOUS
 10
780.8485614944
 20
31.7771680715
 11
780.6751239738
 21
31.7126406987
  0
LINE
  8
0
 62
7
  6
CONTINUOUS
 10
783.2766863704
 20
31.809431758
 11
783.1032490358
 21
31.7449043851
  0
LINE
  8
0
 62
7
  6
CONTINUOUS
 10
783.1032490358
 20
31.6158496394
 11
783.2766863704
 21
31.6803770123
  0
LINE
  8
0
 62
7
  6
CONTINUOUS
 10
781.8891865358
 20
31.035103216
 11
781.7157489531
 21
30.9705758432
  0
LINE
  8
0
 62
7
  6
CONTINUOUS
 10
791.3126239807
 20
30.9705758432
 11
791.0813742012
 21
30.9383121455
  0
LINE
  8
0
 62
7
  6
CONTINUOUS
 10
785.7048113704
 20
30.8092573885
 11
785.9938737601
 21
30.8415210777
  0
LINE
  8
0
 62
7
  6
CONTINUOUS
 10
791.0813742012
 20
30.8092573885
 11
791.4282492012
 21
30.8415210777
  0
LINE
  8
0
 62
7
  6
CONTINUOUS
 10
781.3688739531
 20
30.8092573885
 11
781.7735614807
 21
30.8415210777
  0
LINE
  8
0
 62
7
  6
CONTINUOUS
 10
781.7157489531
 20
30.9705758432
 11
781.3110615082
 21
30.9383121455
  0
LINE
  8
0
 62
7
  6
CONTINUOUS
 10
785.5891864807
 20
31.3577401029
 11
786.2251242012
 21
31.3577401029
  0
LINE
  8
0
 62
7
  6
CONTINUOUS
 10
786.2251242012
 20
31.4867948937
 11
785.5891864807
 21
31.4867948937
  0
LINE
  8
0
 62
7
  6
CONTINUOUS
 10
781.9469989807
 20
31.5190585802
 11
782.2360615358
 21
31.5190585802
  0
LINE
  8
0
 62
7
  6
CONTINUOUS
 10
784.7798115909
 20
31.583585953
 11
785.0688739807
 21
31.583585953
  0
LINE
  8
0
 62
7
  6
CONTINUOUS
 10
791.4860614807
 20
31.583585953
 11
791.7751235396
 21
31.583585953
  0
LINE
  8
0
 62
7
  6
CONTINUOUS
 10
785.4735615909
 20
31.7126406987
 11
785.8204365909
 21
31.7126406987
  0
LINE
  8
0
 62
7
  6
CONTINUOUS
 10
790.6188739807
 20
31.7126406987
 11
790.9657489807
 21
31.7126406987
  0
LINE
  8
0
 62
7
  6
CONTINUOUS
 10
790.9657489807
 20
31.8416954444
 11
790.6188739807
 21
31.8416954444
  0
LINE
  8
0
 62
7
  6
CONTINUOUS
 10
788.8844989807
 20
31.8416954444
 11
788.6532492012
 21
31.8416954444
  0
LINE
  8
0
 62
7
  6
CONTINUOUS
 10
788.1329367012
 20
31.8416954444
 11
787.8438739807
 21
31.8416954444
  0
LINE
  8
0
 62
7
  6
CONTINUOUS
 10
787.3813737601
 20
31.8416954444
 11
787.0923117012
 21
31.8416954444
  0
LINE
  8
0
 62
7
  6
CONTINUOUS
 10
785.8204365909
 20
31.8416954444
 11
785.4735615909
 21
31.8416954444
  0
LINE
  8
0
 62
7
  6
CONTINUOUS
 10
783.7391865909
 20
31.8416954444
 11
783.5079364807
 21
31.8416954444
  0
LINE
  8
0
 62
7
  6
CONTINUOUS
 10
787.0923117012
 20
32.164332399
 11
787.3813737601
 21
32.164332399
  0
LINE
  8
0
 62
7
  6
CONTINUOUS
 10
787.3813737601
 20
32.3256508311
 11
787.0923117012
 21
32.3256508311
  0
LINE
  8
0
 62
7
  6
CONTINUOUS
 10
782.9876239807
 20
32.3256508311
 11
782.6985614255
 21
32.3256508311
  0
LINE
  8
0
 62
7
  6
CONTINUOUS
 10
782.025405743
 20
32.612536077
 11
782.4379770916
 21
32.612536077
  0
LINE
  8
0
 62
7
  6
CONTINUOUS
 10
783.6647500052
 20
32.612536077
 11
785.0581926282
 21
32.612536077
  0
LINE
  8
0
 62
7
  6
CONTINUOUS
 10
785.3860614807
 20
32.612536077
 11
786.7795041036
 21
32.612536077
  0
LINE
  8
0
 62
7
  6
CONTINUOUS
 10
788.6647500052
 20
32.612536077
 11
790.0581926282
 21
32.612536077
  0
LINE
  8
0
 62
7
  6
CONTINUOUS
 10
790.3860614807
 20
32.612536077
 11
791.7795041036
 21
32.612536077
  0
LINE
  8
0
 62
7
  6
CONTINUOUS
 10
788.4219987601
 20
31.809431758
 11
788.2485612601
 21
31.7449043851
  0
LINE
  8
0
 62
7
  6
CONTINUOUS
 10
785.9938737601
 20
30.8415210777
 11
786.1673112601
 21
30.9060484591
  0
LINE
  8
0
 62
7
  6
CONTINUOUS
 10
791.4282492012
 20
30.8415210777
 11
791.6594989807
 21
30.9060484591
  0
LINE
  8
0
 62
7
  6
CONTINUOUS
 10
791.4282492012
 20
31.0028395296
 11
791.3126239807
 21
30.9705758432
  0
LINE
  8
0
 62
7
  6
CONTINUOUS
 10
790.3876242012
 20
31.6803770123
 11
790.6188739807
 21
31.7126406987
  0
LINE
  8
0
 62
7
  6
CONTINUOUS
 10
788.4219987601
 20
31.6803770123
 11
788.6532492012
 21
31.7126406987
  0
LINE
  8
0
 62
7
  6
CONTINUOUS
 10
785.3579363704
 20
31.3254764164
 11
785.5891864807
 21
31.3577401029
  0
LINE
  8
0
 62
7
  6
CONTINUOUS
 10
788.6532492012
 20
31.8416954444
 11
788.4219987601
 21
31.809431758
  0
LINE
  8
0
 62
7
  6
CONTINUOUS
 10
785.2423114807
 20
31.6803770123
 11
785.4735615909
 21
31.7126406987
  0
LINE
  8
0
 62
7
  6
CONTINUOUS
 10
790.6188739807
 20
31.8416954444
 11
790.2719989807
 21
31.809431758
  0
LINE
  8
0
 62
7
  6
CONTINUOUS
 10
785.5891864807
 20
31.4867948937
 11
785.2423114807
 21
31.4545312073
  0
LINE
  8
0
 62
7
  6
CONTINUOUS
 10
781.3688739531
 20
31.8416954444
 11
781.0219989944
 21
31.809431758
  0
LINE
  8
0
 62
7
  6
CONTINUOUS
 10
785.4735615909
 20
31.8416954444
 11
785.0688739807
 21
31.809431758
  0
LINE
  8
0
 62
7
  6
CONTINUOUS
 10
782.8450778741
 20
33.7600770606
 11
782.1893401692
 21
33.7600770606
  0
LINE
  8
0
 62
7
  6
CONTINUOUS
 10
788.2485612601
 20
31.6158496394
 11
788.4219987601
 21
31.6803770123
  0
LINE
  8
0
 62
7
  6
CONTINUOUS
 10
790.2719989807
 20
31.6481133259
 11
790.3876242012
 21
31.6803770123
  0
LINE
  8
0
 62
7
  6
CONTINUOUS
 10
790.2719989807
 20
31.809431758
 11
790.0407492012
 21
31.7449043851
  0
LINE
  8
0
 62
7
  6
CONTINUOUS
 10
785.9938737601
 20
31.0028395296
 11
785.7048113704
 21
30.9383121455
  0
LINE
  8
0
 62
7
  6
CONTINUOUS
 10
783.2766863704
 20
31.6803770123
 11
783.5079364807
 21
31.7126406987
  0
LINE
  8
0
 62
7
  6
CONTINUOUS
 10
783.5079364807
 20
31.8416954444
 11
783.2766863704
 21
31.809431758
  0
LINE
  8
0
 62
7
  6
CONTINUOUS
 10
781.0798114807
 20
31.6803770123
 11
781.3110615082
 21
31.7126406987
  0
LINE
  8
0
 62
7
  6
CONTINUOUS
 10
787.5991762348
 20
35.2354868967
 11
788.2549139397
 21
35.2354868967
  0
LINE
  8
0
 62
7
  6
CONTINUOUS
 10
785.2423114807
 20
31.29321273
 11
785.3579363704
 21
31.3254764164
  0
LINE
  8
0
 62
7
  6
CONTINUOUS
 10
785.2423114807
 20
31.4545312073
 11
785.0110613704
 21
31.3900038345
  0
LINE
  8
0
 62
7
  6
CONTINUOUS
 10
785.1266865909
 20
31.6481133259
 11
785.2423114807
 21
31.6803770123
  0
LINE
  8
0
 62
7
  6
CONTINUOUS
 10
781.7735614807
 20
30.8415210777
 11
782.0048114255
 21
30.9060484591
  0
LINE
  8
0
 62
7
  6
CONTINUOUS
 10
785.0688739807
 20
31.809431758
 11
784.9532490909
 21
31.7771680715
  0
LINE
  8
0
 62
7
  6
CONTINUOUS
 10
781.0219989944
 20
31.809431758
 11
780.8485614944
 21
31.7771680715
  0
LINE
  8
0
 62
7
  6
CONTINUOUS
 10
791.7795041036
 20
36.3830278803
 11
790.3860614807
 21
36.3830278803
  0
LINE
  8
0
 62
7
  6
CONTINUOUS
 10
788.4188483659
 20
36.3830278803
 11
788.0062770173
 21
36.3830278803
  0
LINE
  8
0
 62
7
  6
CONTINUOUS
 10
786.7795041036
 20
36.3830278803
 11
785.3860614807
 21
36.3830278803
  0
LINE
  8
0
 62
7
  6
CONTINUOUS
 10
785.0581926282
 20
36.3830278803
 11
783.6647500052
 21
36.3830278803
  0
LINE
  8
0
 62
7
  6
CONTINUOUS
 10
781.7795041036
 20
36.3830278803
 11
780.3860614807
 21
36.3830278803
  0
LINE
  8
0
 62
7
  6
CONTINUOUS
 10
780.9641864669
 20
31.6481133259
 11
781.0798114807
 21
31.6803770123
  0
CIRCLE
  8
0
 62
7
  6
CONTINUOUS
 10
791.0827827921
 20
38.7190934541
 40
2.0901639344
  0
ARC
  8
0
 62
7
  6
CONTINUOUS
 10
782.025405743
 20
34.2518803393
 40
1.6393442623
 50
180.0
 51
270.0
  0
ARC
  8
0
 62
7
  6
CONTINUOUS
 10
788.4188483659
 20
34.743683618
 40
1.6393442623
 50
0.0
 51
90.0
  0
ARC
  8
0
 62
7
  6
CONTINUOUS
 10
782.4379770916
 20
34.0879459131
 40
1.4754098361
 50
270.0
 51
326.2510114041
  0
ARC
  8
0
 62
7
  6
CONTINUOUS
 10
788.0062770173
 20
34.9076180442
 40
1.4754098361
 50
90.0
 51
146.2510114041
  0
ARC
  8
0
 62
7
  6
CONTINUOUS
 10
782.8450778741
 20
34.5797491918
 40
0.8196721311
 50
270.0
 51
360.0
  0
ARC
  8
0
 62
7
  6
CONTINUOUS
 10
787.5991762348
 20
34.4158147655
 40
0.8196721311
 50
90.0
 51
180.0
  0
ARC
  8
0
 62
7
  6
CONTINUOUS
 10
782.1893401692
 20
34.1699131262
 40
0.4098360656
 50
180.0
 51
270.0
  0
ARC
  8
0
 62
7
  6
CONTINUOUS
 10
788.2549139397
 20
34.8256508311
 40
0.4098360656
 50
0.0
 51
90.0
  0
SOLID
  8
0
 62
7
  6
CONTINUOUS
 10
787.0923117012
 20
32.1643327593
 11
787.0923117012
 21
32.3256512429
 12
787.3813737601
 22
32.1643327593
 13
787.3813737601
 23
32.3256512429
  0
SOLID
  8
0
 62
7
  6
CONTINUOUS
 10
781.3688739531
 20
31.841695792
 11
781.7735614807
 21
31.8094316148
 12
781.0219989944
 22
31.8094316148
 13
781.0219989944
 23
31.8094316148
  0
SOLID
  8
0
 62
7
  6
CONTINUOUS
 10
780.8485614944
 20
31.7771687019
 11
781.0219989944
 21
31.8094316148
 12
781.7735614807
 22
31.8094316148
 13
781.7735614807
 23
31.8094316148
  0
SOLID
  8
0
 62
7
  6
CONTINUOUS
 10
781.7735614807
 20
31.8094316148
 11
782.0048114255
 21
31.7449043986
 12
780.8485614944
 22
31.7771687019
 13
780.8485614944
 23
31.7771687019
  0
SOLID
  8
0
 62
7
  6
CONTINUOUS
 10
780.6751239738
 20
31.712640202
 11
780.8485614944
 21
31.7771687019
 12
782.0048114255
 22
31.7449043986
 13
782.0048114255
 23
31.7449043986
  0
SOLID
  8
0
 62
7
  6
CONTINUOUS
 10
780.6751239738
 20
31.712640202
 11
782.0048114255
 21
31.7449043986
 12
781.3110615082
 22
31.712640202
 13
781.3110615082
 23
31.712640202
  0
SOLID
  8
0
 62
7
  6
CONTINUOUS
 10
781.3110615082
 20
31.712640202
 11
782.0048114255
 21
31.7449043986
 12
781.7157489531
 22
31.6803773084
 13
781.7157489531
 23
31.6803773084
  0
SOLID
  8
0
 62
7
  6
CONTINUOUS
 10
782.0048114255
 20
31.7449043986
 11
782.1782489255
 21
31.6481130052
 12
781.7157489531
 22
31.6803773084
 13
781.7157489531
 23
31.6803773084
  0
SOLID
  8
0
 62
7
  6
CONTINUOUS
 10
781.8891865358
 20
31.6158502183
 11
781.7157489531
 21
31.6803773084
 12
782.1782489255
 22
31.6481130052
 13
782.1782489255
 23
31.6481130052
  0
SOLID
  8
0
 62
7
  6
CONTINUOUS
 10
781.8891865358
 20
31.6158502183
 11
782.1782489255
 21
31.6481130052
 12
781.9469989807
 22
31.5190586669
 13
781.9469989807
 23
31.5190586669
  0
SOLID
  8
0
 62
7
  6
CONTINUOUS
 10
782.1782489255
 20
31.6481130052
 11
782.2360615358
 21
31.5190586669
 12
781.9469989807
 22
31.5190586669
 13
781.9469989807
 23
31.5190586669
  0
SOLID
  8
0
 62
7
  6
CONTINUOUS
 10
783.2766863704
 20
31.8094307377
 11
783.5079364807
 21
31.841695041
 12
783.7391865909
 22
31.841695041
 13
783.7391865909
 23
31.841695041
  0
SOLID
  8
0
 62
7
  6
CONTINUOUS
 10
783.7391865909
 20
31.841695041
 11
783.9126240909
 21
31.8094307377
 12
783.2766863704
 22
31.8094307377
 13
783.2766863704
 23
31.8094307377
  0
SOLID
  8
0
 62
7
  6
CONTINUOUS
 10
783.1032490358
 20
31.7449036475
 11
783.2766863704
 21
31.8094307377
 12
783.9126240909
 22
31.8094307377
 13
783.9126240909
 23
31.8094307377
  0
SOLID
  8
0
 62
7
  6
CONTINUOUS
 10
783.9126240909
 20
31.8094307377
 11
784.0860615909
 21
31.7449036475
 12
783.1032490358
 22
31.7449036475
 13
783.1032490358
 23
31.7449036475
  0
SOLID
  8
0
 62
7
  6
CONTINUOUS
 10
784.0860615909
 20
31.7449036475
 11
783.5079364807
 21
31.7126400953
 12
783.1032490358
 22
31.7449036475
 13
783.1032490358
 23
31.7449036475
  0
SOLID
  8
0
 62
7
  6
CONTINUOUS
 10
782.9876239807
 20
31.6803765574
 11
783.1032490358
 21
31.7449036475
 12
783.5079364807
 22
31.7126400953
 13
783.5079364807
 23
31.7126400953
  0
SOLID
  8
0
 62
7
  6
CONTINUOUS
 10
783.5079364807
 20
31.7126400953
 11
783.2766863704
 21
31.6803765574
 12
782.9876239807
 22
31.6803765574
 13
782.9876239807
 23
31.6803765574
  0
SOLID
  8
0
 62
7
  6
CONTINUOUS
 10
783.5079364807
 20
31.7126400953
 11
784.0860615909
 21
31.7449036475
 12
783.7391865909
 22
31.6803765574
 13
783.7391865909
 23
31.6803765574
  0
SOLID
  8
0
 62
7
  6
CONTINUOUS
 10
784.0860615909
 20
31.7449036475
 11
784.2016864807
 21
31.6803765574
 12
783.7391865909
 22
31.6803765574
 13
783.7391865909
 23
31.6803765574
  0
SOLID
  8
0
 62
7
  6
CONTINUOUS
 10
783.8548114807
 20
31.6481130052
 11
783.7391865909
 21
31.6803765574
 12
784.2016864807
 22
31.6803765574
 13
784.2016864807
 23
31.6803765574
  0
SOLID
  8
0
 62
7
  6
CONTINUOUS
 10
784.2016864807
 20
31.6803765574
 11
784.2594990909
 21
31.6158494672
 12
783.8548114807
 22
31.6481130052
 13
783.8548114807
 23
31.6481130052
  0
SOLID
  8
0
 62
7
  6
CONTINUOUS
 10
783.9704363704
 20
31.583585915
 11
783.8548114807
 21
31.6481130052
 12
784.2594990909
 22
31.6158494672
 13
784.2594990909
 23
31.6158494672
  0
SOLID
  8
0
 62
7
  6
CONTINUOUS
 10
783.9704363704
 20
31.583585915
 11
784.2594990909
 21
31.6158494672
 12
784.0282489807
 22
31.4545309836
 13
784.0282489807
 23
31.4545309836
  0
SOLID
  8
0
 62
7
  6
CONTINUOUS
 10
784.2594990909
 20
31.6158494672
 11
784.3173113704
 21
31.4545309836
 12
784.0282489807
 22
31.4545309836
 13
784.0282489807
 23
31.4545309836
  0
SOLID
  8
0
 62
7
  6
CONTINUOUS
 10
783.2766863704
 20
31.6803765574
 11
783.1032490358
 21
31.6158494672
 12
782.9876239807
 22
31.6803765574
 13
782.9876239807
 23
31.6803765574
  0
SOLID
  8
0
 62
7
  6
CONTINUOUS
 10
783.1032490358
 20
31.6158494672
 11
782.9876239807
 21
31.5513216117
 12
782.9876239807
 22
31.6803765574
 13
782.9876239807
 23
31.6803765574
  0
SOLID
  8
0
 62
7
  6
CONTINUOUS
 10
782.9876239807
 20
31.5513216117
 11
782.6985614255
 21
30.8092570492
 12
782.9876239807
 22
31.6803765574
 13
782.9876239807
 23
31.6803765574
  0
SOLID
  8
0
 62
7
  6
CONTINUOUS
 10
782.9876239807
 20
31.6803765574
 11
782.6985614255
 21
30.8092570492
 12
782.9876239807
 22
32.3256504918
 13
782.9876239807
 23
32.3256504918
  0
SOLID
  8
0
 62
7
  6
CONTINUOUS
 10
782.6985614255
 20
30.8092570492
 11
782.6985614255
 21
32.3256504918
 12
782.9876239807
 22
32.3256504918
 13
782.9876239807
 23
32.3256504918
  0
SOLID
  8
0
 62
7
  6
CONTINUOUS
 10
782.9876239807
 20
31.5513216117
 11
782.9876239807
 21
30.8092570492
 12
782.6985614255
 22
30.8092570492
 13
782.6985614255
 23
30.8092570492
  0
SOLID
  8
0
 62
7
  6
CONTINUOUS
 10
784.0282489807
 20
30.8092570492
 11
784.0282489807
 21
31.4545309836
 12
784.3173113704
 22
31.4545309836
 13
784.3173113704
 23
31.4545309836
  0
SOLID
  8
0
 62
7
  6
CONTINUOUS
 10
784.3173113704
 20
31.4545309836
 11
784.3173113704
 21
30.8092570492
 12
784.0282489807
 22
30.8092570492
 13
784.0282489807
 23
30.8092570492
  0
SOLID
  8
0
 62
7
  6
CONTINUOUS
 10
785.0688739807
 20
31.809431823
 11
785.4735615909
 21
31.8416958158
 12
785.8204365909
 22
31.8416958158
 13
785.8204365909
 23
31.8416958158
  0
SOLID
  8
0
 62
7
  6
CONTINUOUS
 10
785.8204365909
 20
31.8416958158
 11
786.1673112601
 21
31.809431823
 12
785.0688739807
 22
31.809431823
 13
785.0688739807
 23
31.809431823
  0
SOLID
  8
0
 62
7
  6
CONTINUOUS
 10
784.9532490909
 20
31.7771687019
 11
785.0688739807
 21
31.809431823
 12
786.1673112601
 22
31.809431823
 13
786.1673112601
 23
31.809431823
  0
SOLID
  8
0
 62
7
  6
CONTINUOUS
 10
786.1673112601
 20
31.809431823
 11
786.3407487601
 21
31.7449043986
 12
784.9532490909
 22
31.7771687019
 13
784.9532490909
 23
31.7771687019
  0
SOLID
  8
0
 62
7
  6
CONTINUOUS
 10
784.8376238704
 20
31.7126398448
 11
784.9532490909
 21
31.7771687019
 12
786.3407487601
 22
31.7449043986
 13
786.3407487601
 23
31.7449043986
  0
SOLID
  8
0
 62
7
  6
CONTINUOUS
 10
784.8376238704
 20
31.7126398448
 11
786.3407487601
 21
31.7449043986
 12
785.4735615909
 22
31.7126398448
 13
785.4735615909
 23
31.7126398448
  0
SOLID
  8
0
 62
7
  6
CONTINUOUS
 10
785.4735615909
 20
31.7126398448
 11
786.3407487601
 21
31.7449043986
 12
785.8204365909
 22
31.7126398448
 13
785.8204365909
 23
31.7126398448
  0
SOLID
  8
0
 62
7
  6
CONTINUOUS
 10
785.8204365909
 20
31.7126398448
 11
786.3407487601
 21
31.7449043986
 12
786.0516867012
 22
31.6803774007
 13
786.0516867012
 23
31.6803774007
  0
SOLID
  8
0
 62
7
  6
CONTINUOUS
 10
786.3407487601
 20
31.7449043986
 11
786.4563739807
 21
31.6803774007
 12
786.0516867012
 22
31.6803774007
 13
786.0516867012
 23
31.6803774007
  0
SOLID
  8
0
 62
7
  6
CONTINUOUS
 10
784.7798115909
 20
31.6481126336
 11
784.8376238704
 21
31.7126398448
 12
785.4735615909
 22
31.7126398448
 13
785.4735615909
 23
31.7126398448
  0
SOLID
  8
0
 62
7
  6
CONTINUOUS
 10
786.1673112601
 20
31.6481126336
 11
786.0516867012
 21
31.6803774007
 12
786.4563739807
 22
31.6803774007
 13
786.4563739807
 23
31.6803774007
  0
SOLID
  8
0
 62
7
  6
CONTINUOUS
 10
786.1673112601
 20
31.6481126336
 11
786.4563739807
 21
31.6803774007
 12
786.2251242012
 22
31.5835861968
 13
786.2251242012
 23
31.5835861968
  0
SOLID
  8
0
 62
7
  6
CONTINUOUS
 10
786.4563739807
 20
31.6803774007
 11
786.5141862601
 21
31.5835861968
 12
786.2251242012
 22
31.5835861968
 13
786.2251242012
 23
31.5835861968
  0
SOLID
  8
0
 62
7
  6
CONTINUOUS
 10
786.2251242012
 20
31.4867945216
 11
786.2251242012
 21
31.5835861968
 12
786.5141862601
 22
31.5835861968
 13
786.5141862601
 23
31.5835861968
  0
SOLID
  8
0
 62
7
  6
CONTINUOUS
 10
786.2251242012
 20
31.4867945216
 11
786.5141862601
 21
31.5835861968
 12
786.2251242012
 22
31.3577403412
 13
786.2251242012
 23
31.3577403412
  0
SOLID
  8
0
 62
7
  6
CONTINUOUS
 10
786.2251242012
 20
31.3577403412
 11
786.5141862601
 21
31.5835861968
 12
786.2251242012
 22
31.1641579843
 13
786.2251242012
 23
31.1641579843
  0
SOLID
  8
0
 62
7
  6
CONTINUOUS
 10
786.5141862601
 20
31.5835861968
 11
786.5141862601
 21
31.0673661609
 12
786.2251242012
 22
31.1641579843
 13
786.2251242012
 23
31.1641579843
  0
SOLID
  8
0
 62
7
  6
CONTINUOUS
 10
788.4219987601
 20
31.8094310465
 11
788.6532492012
 21
31.8416957661
 12
788.8844989807
 22
31.8416957661
 13
788.8844989807
 23
31.8416957661
  0
SOLID
  8
0
 62
7
  6
CONTINUOUS
 10
788.8844989807
 20
31.8416957661
 11
789.0579364807
 21
31.8094310465
 12
788.4219987601
 22
31.8094310465
 13
788.4219987601
 23
31.8094310465
  0
SOLID
  8
0
 62
7
  6
CONTINUOUS
 10
788.2485612601
 20
31.7449047044
 11
788.4219987601
 21
31.8094310465
 12
789.0579364807
 22
31.8094310465
 13
789.0579364807
 23
31.8094310465
  0
SOLID
  8
0
 62
7
  6
CONTINUOUS
 10
789.0579364807
 20
31.8094310465
 11
789.2313739807
 21
31.7449047044
 12
788.2485612601
 22
31.7449047044
 13
788.2485612601
 23
31.7449047044
  0
SOLID
  8
0
 62
7
  6
CONTINUOUS
 10
789.2313739807
 20
31.7449047044
 11
788.6532492012
 21
31.7126400953
 12
788.2485612601
 22
31.7449047044
 13
788.2485612601
 23
31.7449047044
  0
SOLID
  8
0
 62
7
  6
CONTINUOUS
 10
788.1329367012
 20
31.6803773299
 11
788.2485612601
 21
31.7449047044
 12
788.6532492012
 22
31.7126400953
 13
788.6532492012
 23
31.7126400953
  0
SOLID
  8
0
 62
7
  6
CONTINUOUS
 10
788.6532492012
 20
31.7126400953
 11
788.4219987601
 21
31.6803773299
 12
788.1329367012
 22
31.6803773299
 13
788.1329367012
 23
31.6803773299
  0
SOLID
  8
0
 62
7
  6
CONTINUOUS
 10
788.6532492012
 20
31.7126400953
 11
789.2313739807
 21
31.7449047044
 12
788.8844989807
 22
31.6803773299
 13
788.8844989807
 23
31.6803773299
  0
SOLID
  8
0
 62
7
  6
CONTINUOUS
 10
789.2313739807
 20
31.7449047044
 11
789.3469992012
 21
31.6803773299
 12
788.8844989807
 22
31.6803773299
 13
788.8844989807
 23
31.6803773299
  0
SOLID
  8
0
 62
7
  6
CONTINUOUS
 10
789.0001242012
 20
31.6481130052
 11
788.8844989807
 21
31.6803773299
 12
789.3469992012
 22
31.6803773299
 13
789.3469992012
 23
31.6803773299
  0
SOLID
  8
0
 62
7
  6
CONTINUOUS
 10
789.0001242012
 20
31.6481130052
 11
789.3469992012
 21
31.6803773299
 12
789.1157487601
 22
31.5835862682
 13
789.1157487601
 23
31.5835862682
  0
SOLID
  8
0
 62
7
  6
CONTINUOUS
 10
789.3469992012
 20
31.6803773299
 11
789.4048114807
 21
31.5835862682
 12
789.1157487601
 22
31.5835862682
 13
789.1157487601
 23
31.5835862682
  0
SOLID
  8
0
 62
7
  6
CONTINUOUS
 10
789.1735617012
 20
31.422267832
 11
789.1157487601
 21
31.5835862682
 12
789.4048114807
 22
31.5835862682
 13
789.4048114807
 23
31.5835862682
  0
SOLID
  8
0
 62
7
  6
CONTINUOUS
 10
789.4048114807
 20
31.5835862682
 11
789.4626237601
 21
31.422267832
 12
789.1735617012
 22
31.422267832
 13
789.1735617012
 23
31.422267832
  0
SOLID
  8
0
 62
7
  6
CONTINUOUS
 10
788.4219987601
 20
31.6803773299
 11
788.2485612601
 21
31.6158502183
 12
788.1329367012
 22
31.6803773299
 13
788.1329367012
 23
31.6803773299
  0
SOLID
  8
0
 62
7
  6
CONTINUOUS
 10
788.2485612601
 20
31.6158502183
 11
788.1329367012
 21
31.5513216117
 12
788.1329367012
 22
31.6803773299
 13
788.1329367012
 23
31.6803773299
  0
SOLID
  8
0
 62
7
  6
CONTINUOUS
 10
788.1329367012
 20
31.5513216117
 11
787.8438739807
 21
30.8092577743
 12
788.1329367012
 22
31.6803773299
 13
788.1329367012
 23
31.6803773299
  0
SOLID
  8
0
 62
7
  6
CONTINUOUS
 10
788.1329367012
 20
31.6803773299
 11
787.8438739807
 21
30.8092577743
 12
788.1329367012
 22
31.8416957661
 13
788.1329367012
 23
31.8416957661
  0
SOLID
  8
0
 62
7
  6
CONTINUOUS
 10
787.8438739807
 20
30.8092577743
 11
787.8438739807
 21
31.8416957661
 12
788.1329367012
 22
31.8416957661
 13
788.1329367012
 23
31.8416957661
  0
SOLID
  8
0
 62
7
  6
CONTINUOUS
 10
788.1329367012
 20
31.5513216117
 11
788.1329367012
 21
30.8092577743
 12
787.8438739807
 22
30.8092577743
 13
787.8438739807
 23
30.8092577743
  0
SOLID
  8
0
 62
7
  6
CONTINUOUS
 10
789.1735617012
 20
30.8092577743
 11
789.1735617012
 21
31.422267832
 12
789.4626237601
 22
31.422267832
 13
789.4626237601
 23
31.422267832
  0
SOLID
  8
0
 62
7
  6
CONTINUOUS
 10
789.4626237601
 20
31.422267832
 11
789.4626237601
 21
30.8092577743
 12
789.1735617012
 22
30.8092577743
 13
789.1735617012
 23
30.8092577743
  0
SOLID
  8
0
 62
7
  6
CONTINUOUS
 10
790.2719989807
 20
31.8094314924
 11
790.6188739807
 21
31.8416958387
 12
790.9657489807
 22
31.8416958387
 13
790.9657489807
 23
31.8416958387
  0
SOLID
  8
0
 62
7
  6
CONTINUOUS
 10
790.9657489807
 20
31.8416958387
 11
791.3126239807
 21
31.8094314924
 12
790.2719989807
 22
31.8094314924
 13
790.2719989807
 23
31.8094314924
  0
SOLID
  8
0
 62
7
  6
CONTINUOUS
 10
790.0407492012
 20
31.7449043986
 11
790.2719989807
 21
31.8094314924
 12
791.3126239807
 22
31.8094314924
 13
791.3126239807
 23
31.8094314924
  0
SOLID
  8
0
 62
7
  6
CONTINUOUS
 10
790.0407492012
 20
31.7449043986
 11
791.3126239807
 21
31.8094314888
 12
791.4860614807
 22
31.7771687019
 13
791.4860614807
 23
31.7771687019
  0
SOLID
  8
0
 62
7
  6
CONTINUOUS
 10
790.0407492012
 20
31.7449043986
 11
791.4860614807
 21
31.7771687019
 12
790.6188739807
 22
31.7126401399
 13
790.6188739807
 23
31.7126401399
  0
SOLID
  8
0
 62
7
  6
CONTINUOUS
 10
790.6188739807
 20
31.7126401399
 11
791.4860614807
 21
31.7771687019
 12
790.9657489807
 22
31.7126401399
 13
790.9657489807
 23
31.7126401399
  0
SOLID
  8
0
 62
7
  6
CONTINUOUS
 10
791.4860614807
 20
31.7771687019
 11
791.6594989807
 21
31.7126401399
 12
790.9657489807
 22
31.7126401399
 13
790.9657489807
 23
31.7126401399
  0
SOLID
  8
0
 62
7
  6
CONTINUOUS
 10
791.3126239807
 20
31.6803773084
 11
790.9657489807
 21
31.7126401399
 12
791.6594989807
 22
31.7126401399
 13
791.6594989807
 23
31.7126401399
  0
SOLID
  8
0
 62
7
  6
CONTINUOUS
 10
789.9251239807
 20
31.6481128977
 11
790.0407492012
 21
31.7449043986
 12
790.6188739807
 22
31.7126401399
 13
790.6188739807
 23
31.7126401399
  0
SOLID
  8
0
 62
7
  6
CONTINUOUS
 10
791.3126239807
 20
31.6803773084
 11
791.6594989807
 21
31.7126401399
 12
791.4282492012
 22
31.6481128977
 13
791.4282492012
 23
31.6481128977
  0
SOLID
  8
0
 62
7
  6
CONTINUOUS
 10
791.4282492012
 20
31.6481128977
 11
791.6594989807
 21
31.7126401399
 12
791.4860614807
 22
31.5835858812
 13
791.4860614807
 23
31.5835858812
  0
SOLID
  8
0
 62
7
  6
CONTINUOUS
 10
791.6594989807
 20
31.7126401399
 11
791.7751235396
 21
31.5835858812
 12
791.4860614807
 22
31.5835858812
 13
791.4860614807
 23
31.5835858812
  0
SOLID
  8
0
 62
7
  6
CONTINUOUS
 10
781.0798114807
 20
31.6803773084
 11
780.5594989807
 21
31.6481129264
 12
781.3110615082
 22
31.7126401456
 13
781.3110615082
 23
31.7126401456
  0
SOLID
  8
0
 62
7
  6
CONTINUOUS
 10
780.5594989807
 20
31.6481129264
 11
780.6751239738
 21
31.7126401456
 12
781.3110615082
 22
31.7126401456
 13
781.3110615082
 23
31.7126401456
  0
SOLID
  8
0
 62
7
  6
CONTINUOUS
 10
781.0798114807
 20
31.6803773084
 11
780.9641864669
 21
31.6481129264
 12
780.5594989807
 22
31.6481129264
 13
780.5594989807
 23
31.6481129264
  0
SOLID
  8
0
 62
7
  6
CONTINUOUS
 10
780.4438739824
 20
31.5190588248
 11
780.5594989807
 21
31.6481129264
 12
780.9641864669
 22
31.6481129264
 13
780.9641864669
 23
31.6481129264
  0
SOLID
  8
0
 62
7
  6
CONTINUOUS
 10
784.7798115909
 20
31.6481130555
 11
785.4735615909
 21
31.7126400953
 12
785.2423114807
 22
31.6803773084
 13
785.2423114807
 23
31.6803773084
  0
SOLID
  8
0
 62
7
  6
CONTINUOUS
 10
785.2423114807
 20
31.6803773084
 11
785.1266865909
 21
31.6481130555
 12
784.7798115909
 22
31.6481130555
 13
784.7798115909
 23
31.6481130555
  0
SOLID
  8
0
 62
7
  6
CONTINUOUS
 10
784.7798115909
 20
31.5835859653
 11
784.7798115909
 21
31.6481130555
 12
785.1266865909
 22
31.6481130555
 13
785.1266865909
 23
31.6481130555
  0
SOLID
  8
0
 62
7
  6
CONTINUOUS
 10
785.1266865909
 20
31.6481130555
 11
785.0688739807
 21
31.5835859653
 12
784.7798115909
 22
31.5835859653
 13
784.7798115909
 23
31.5835859653
  0
SOLID
  8
0
 62
7
  6
CONTINUOUS
 10
789.9251239807
 20
31.6481130555
 11
790.6188739807
 21
31.7126400953
 12
790.3876242012
 22
31.6803773084
 13
790.3876242012
 23
31.6803773084
  0
SOLID
  8
0
 62
7
  6
CONTINUOUS
 10
790.3876242012
 20
31.6803773084
 11
790.2719989807
 21
31.6481130555
 12
789.9251239807
 22
31.6481130555
 13
789.9251239807
 23
31.6481130555
  0
SOLID
  8
0
 62
7
  6
CONTINUOUS
 10
789.9251239807
 20
31.5835859653
 11
789.9251239807
 21
31.6481130555
 12
790.2719989807
 22
31.6481130555
 13
790.2719989807
 23
31.6481130555
  0
SOLID
  8
0
 62
7
  6
CONTINUOUS
 10
790.2719989807
 20
31.6481130555
 11
790.2141867012
 21
31.5835859653
 12
789.9251239807
 22
31.5835859653
 13
789.9251239807
 23
31.5835859653
  0
SOLID
  8
0
 62
7
  6
CONTINUOUS
 10
790.0407492012
 20
31.4545317347
 11
789.9251239807
 21
31.5835859653
 12
790.2141867012
 22
31.5835859653
 13
790.2141867012
 23
31.5835859653
  0
SOLID
  8
0
 62
7
  6
CONTINUOUS
 10
780.4438739824
 20
31.5190588248
 11
780.9641864669
 21
31.6481130052
 12
780.7907489669
 22
31.5513216117
 13
780.7907489669
 23
31.5513216117
  0
SOLID
  8
0
 62
7
  6
CONTINUOUS
 10
780.7907489669
 20
31.5513216117
 11
780.7329364807
 21
31.4867945216
 12
780.4438739824
 22
31.5190588248
 13
780.4438739824
 23
31.5190588248
  0
SOLID
  8
0
 62
7
  6
CONTINUOUS
 10
780.3860614807
 20
31.325476038
 11
780.4438739824
 21
31.5190588248
 12
780.7329364807
 22
31.4867945216
 13
780.7329364807
 23
31.4867945216
  0
SOLID
  8
0
 62
7
  6
CONTINUOUS
 10
785.2423114807
 20
31.4545317347
 11
785.5891864807
 21
31.4867945557
 12
786.2251242012
 22
31.4867945557
 13
786.2251242012
 23
31.4867945557
  0
SOLID
  8
0
 62
7
  6
CONTINUOUS
 10
785.2423114807
 20
31.4545317347
 11
786.2251242012
 21
31.4867945557
 12
785.0110613704
 22
31.3900038345
 13
785.0110613704
 23
31.3900038345
  0
SOLID
  8
0
 62
7
  6
CONTINUOUS
 10
785.0110613704
 20
31.3900038345
 11
786.2251242012
 21
31.4867945557
 12
785.5891864807
 22
31.3577403754
 13
785.5891864807
 23
31.3577403754
  0
SOLID
  8
0
 62
7
  6
CONTINUOUS
 10
786.2251242012
 20
31.4867945557
 11
786.2251242012
 21
31.3577403754
 12
785.5891864807
 22
31.3577403754
 13
785.5891864807
 23
31.3577403754
  0
SOLID
  8
0
 62
7
  6
CONTINUOUS
 10
790.0407492012
 20
31.4545313481
 11
790.2141867012
 21
31.583585915
 12
790.2719989807
 22
31.5190588248
 13
790.2719989807
 23
31.5190588248
  0
SOLID
  8
0
 62
7
  6
CONTINUOUS
 10
790.2719989807
 20
31.5190588248
 11
790.4454364807
 21
31.4545313481
 12
790.0407492012
 22
31.4545313481
 13
790.0407492012
 23
31.4545313481
  0
SOLID
  8
0
 62
7
  6
CONTINUOUS
 10
790.2719989807
 20
31.3577403412
 11
790.0407492012
 21
31.4545313481
 12
790.4454364807
 22
31.4545313481
 13
790.4454364807
 23
31.4545313481
  0
SOLID
  8
0
 62
7
  6
CONTINUOUS
 10
790.4454364807
 20
31.4545313481
 11
791.4282492012
 21
31.2932132511
 12
790.2719989807
 22
31.3577403412
 13
790.2719989807
 23
31.3577403412
  0
SOLID
  8
0
 62
7
  6
CONTINUOUS
 10
791.2548117012
 20
31.1964222346
 11
790.2719989807
 21
31.3577403412
 12
791.4282492012
 22
31.2932132511
 13
791.4282492012
 23
31.2932132511
  0
SOLID
  8
0
 62
7
  6
CONTINUOUS
 10
791.4282492012
 20
31.2932132511
 11
791.6594989807
 21
31.1964222346
 12
791.2548117012
 22
31.1964222346
 13
791.2548117012
 23
31.1964222346
  0
SOLID
  8
0
 62
7
  6
CONTINUOUS
 10
791.4282492012
 20
31.1318947675
 11
791.2548117012
 21
31.1964222346
 12
791.6594989807
 22
31.1964222346
 13
791.6594989807
 23
31.1964222346
  0
SOLID
  8
0
 62
7
  6
CONTINUOUS
 10
791.4282492012
 20
31.1318947675
 11
791.6594989807
 21
31.1964222346
 12
791.4860614807
 22
31.0673665164
 13
791.4860614807
 23
31.0673665164
  0
SOLID
  8
0
 62
7
  6
CONTINUOUS
 10
791.6594989807
 20
31.1964222346
 11
791.7751235396
 21
31.0673665164
 12
791.4860614807
 22
31.0673665164
 13
791.4860614807
 23
31.0673665164
  0
SOLID
  8
0
 62
7
  6
CONTINUOUS
 10
791.4282492012
 20
31.0028394316
 11
791.4860614807
 21
31.0673665164
 12
791.7751235396
 22
31.0673665164
 13
791.7751235396
 23
31.0673665164
  0
SOLID
  8
0
 62
7
  6
CONTINUOUS
 10
791.7751235396
 20
31.0673665164
 11
791.7751235396
 21
31.0028394316
 12
791.4282492012
 22
31.0028394316
 13
791.4282492012
 23
31.0028394316
  0
SOLID
  8
0
 62
7
  6
CONTINUOUS
 10
791.3126239807
 20
30.9705762839
 11
791.4282492012
 21
31.0028394316
 12
791.7751235396
 22
31.0028394316
 13
791.7751235396
 23
31.0028394316
  0
SOLID
  8
0
 62
7
  6
CONTINUOUS
 10
791.3126239807
 20
30.9705762839
 11
791.7751235396
 21
31.0028394316
 12
791.0813742012
 22
30.9383123468
 13
791.0813742012
 23
30.9383123468
  0
SOLID
  8
0
 62
7
  6
CONTINUOUS
 10
791.7751235396
 20
31.0028394316
 11
791.6594989807
 21
30.9060491937
 12
791.0813742012
 22
30.9383123468
 13
791.0813742012
 23
30.9383123468
  0
SOLID
  8
0
 62
7
  6
CONTINUOUS
 10
791.6594989807
 20
30.9060491937
 11
790.2141867012
 21
30.8737848904
 12
791.0813742012
 22
30.9383123468
 13
791.0813742012
 23
30.9383123468
  0
SOLID
  8
0
 62
7
  6
CONTINUOUS
 10
791.0813742012
 20
30.9383123468
 11
790.2141867012
 21
30.8737848904
 12
790.7344992012
 22
30.9383123468
 13
790.7344992012
 23
30.9383123468
  0
SOLID
  8
0
 62
7
  6
CONTINUOUS
 10
790.2141867012
 20
30.8737848904
 11
790.0407492012
 21
30.9383123468
 12
790.7344992012
 22
30.9383123468
 13
790.7344992012
 23
30.9383123468
  0
SOLID
  8
0
 62
7
  6
CONTINUOUS
 10
790.2141867012
 20
30.8737848904
 11
791.6594989807
 21
30.9060491937
 12
790.3876242012
 22
30.8415205581
 13
790.3876242012
 23
30.8415205581
  0
SOLID
  8
0
 62
7
  6
CONTINUOUS
 10
791.6594989807
 20
30.9060491937
 11
791.4282492012
 21
30.8415205581
 12
790.3876242012
 22
30.8415205581
 13
790.3876242012
 23
30.8415205581
  0
SOLID
  8
0
 62
7
  6
CONTINUOUS
 10
790.7344992012
 20
30.8092581772
 11
790.3876242012
 21
30.8415205581
 12
791.4282492012
 22
30.8415205581
 13
791.4282492012
 23
30.8415205581
  0
SOLID
  8
0
 62
7
  6
CONTINUOUS
 10
791.4282492012
 20
30.8415205581
 11
791.0813742012
 21
30.8092581772
 12
790.7344992012
 22
30.8092581772
 13
790.7344992012
 23
30.8092581772
  0
SOLID
  8
0
 62
7
  6
CONTINUOUS
 10
780.3860614807
 20
31.325476038
 11
780.7329364807
 21
31.4867945216
 12
780.6751239738
 22
31.3577403412
 13
780.6751239738
 23
31.3577403412
  0
SOLID
  8
0
 62
7
  6
CONTINUOUS
 10
780.6751239738
 20
31.3577403412
 11
780.6751239738
 21
31.2609490436
 12
780.3860614807
 22
31.325476038
 13
780.3860614807
 23
31.325476038
  0
SOLID
  8
0
 62
7
  6
CONTINUOUS
 10
780.4438739824
 20
31.1318947675
 11
780.3860614807
 21
31.325476038
 12
780.6751239738
 22
31.2609490436
 13
780.6751239738
 23
31.2609490436
  0
SOLID
  8
0
 62
7
  6
CONTINUOUS
 10
780.6751239738
 20
31.2609490436
 11
780.7907489669
 21
31.0996304642
 12
780.4438739824
 22
31.1318947675
 13
780.4438739824
 23
31.1318947675
  0
SOLID
  8
0
 62
7
  6
CONTINUOUS
 10
780.5594989807
 20
31.0028388804
 11
780.4438739824
 21
31.1318947675
 12
780.7907489669
 22
31.0996304642
 13
780.7907489669
 23
31.0996304642
  0
SOLID
  8
0
 62
7
  6
CONTINUOUS
 10
780.7907489669
 20
31.0996304642
 11
780.9641864669
 21
31.0028388804
 12
780.5594989807
 22
31.0028388804
 13
780.5594989807
 23
31.0028388804
  0
SOLID
  8
0
 62
7
  6
CONTINUOUS
 10
780.6751239738
 20
30.9383122606
 11
780.5594989807
 21
31.0028388804
 12
780.9641864669
 22
31.0028388804
 13
780.9641864669
 23
31.0028388804
  0
SOLID
  8
0
 62
7
  6
CONTINUOUS
 10
780.9641864669
 20
31.0028388804
 11
781.3110615082
 21
30.9383122606
 12
780.6751239738
 22
30.9383122606
 13
780.6751239738
 23
30.9383122606
  0
SOLID
  8
0
 62
7
  6
CONTINUOUS
 10
780.8485614944
 20
30.8737848904
 11
780.6751239738
 21
30.9383122606
 12
781.3110615082
 22
30.9383122606
 13
781.3110615082
 23
30.9383122606
  0
SOLID
  8
0
 62
7
  6
CONTINUOUS
 10
784.8954364807
 20
31.3254759532
 11
785.0110613704
 21
31.3900038345
 12
785.5891864807
 22
31.3577403412
 13
785.5891864807
 23
31.3577403412
  0
SOLID
  8
0
 62
7
  6
CONTINUOUS
 10
785.5891864807
 20
31.3577403412
 11
785.3579363704
 21
31.3254759532
 12
784.8954364807
 22
31.3254759532
 13
784.8954364807
 23
31.3254759532
  0
SOLID
  8
0
 62
7
  6
CONTINUOUS
 10
784.7798115909
 20
31.1964218576
 11
784.8954364807
 21
31.3254759532
 12
785.3579363704
 22
31.3254759532
 13
785.3579363704
 23
31.3254759532
  0
SOLID
  8
0
 62
7
  6
CONTINUOUS
 10
785.1266865909
 20
31.2286853572
 11
784.7798115909
 21
31.1964218576
 12
785.2423114807
 22
31.2932132511
 13
785.2423114807
 23
31.2932132511
  0
SOLID
  8
0
 62
7
  6
CONTINUOUS
 10
784.7798115909
 20
31.1964218576
 11
785.3579363704
 21
31.325476038
 12
785.2423114807
 22
31.2932132511
 13
785.2423114807
 23
31.2932132511
  0
SOLID
  8
0
 62
7
  6
CONTINUOUS
 10
785.1266865909
 20
31.2286853572
 11
785.0688739807
 21
31.1318947675
 12
784.7798115909
 22
31.1964218576
 13
784.7798115909
 23
31.1964218576
  0
SOLID
  8
0
 62
7
  6
CONTINUOUS
 10
784.7798115909
 20
31.0996304642
 11
784.7798115909
 21
31.1964218576
 12
785.0688739807
 22
31.1318947675
 13
785.0688739807
 23
31.1318947675
  0
SOLID
  8
0
 62
7
  6
CONTINUOUS
 10
785.0688739807
 20
31.1318947675
 11
785.0688739807
 21
31.0673661609
 12
784.7798115909
 22
31.0996304642
 13
784.7798115909
 23
31.0996304642
  0
SOLID
  8
0
 62
7
  6
CONTINUOUS
 10
784.8376238704
 20
30.9705762839
 11
784.7798115909
 21
31.0996304642
 12
785.0688739807
 22
31.0673661609
 13
785.0688739807
 23
31.0673661609
  0
SOLID
  8
0
 62
7
  6
CONTINUOUS
 10
786.2251242012
 20
31.1641579843
 11
786.5141862601
 21
31.0673661609
 12
786.1673112601
 22
31.0996304642
 13
786.1673112601
 23
31.0996304642
  0
SOLID
  8
0
 62
7
  6
CONTINUOUS
 10
785.9938737601
 20
31.0028390707
 11
786.1673112601
 21
31.0996304642
 12
786.5141862601
 22
31.0673661609
 13
786.5141862601
 23
31.0673661609
  0
SOLID
  8
0
 62
7
  6
CONTINUOUS
 10
785.9938737601
 20
31.0028390707
 11
786.5141862601
 21
31.0673661609
 12
786.2251242012
 22
30.9705762839
 13
786.2251242012
 23
30.9705762839
  0
SOLID
  8
0
 62
7
  6
CONTINUOUS
 10
786.5141862601
 20
31.0673661609
 11
786.5719992012
 21
30.9060491937
 12
786.2251242012
 22
30.9705762839
 13
786.2251242012
 23
30.9705762839
  0
SOLID
  8
0
 62
7
  6
CONTINUOUS
 10
786.2829364807
 20
30.8737848904
 11
786.2251242012
 21
30.9705762839
 12
786.5719992012
 22
30.9060491937
 13
786.5719992012
 23
30.9060491937
  0
SOLID
  8
0
 62
7
  6
CONTINUOUS
 10
786.2829364807
 20
30.8737848904
 11
786.5719992012
 21
30.9060491937
 12
786.3407487601
 22
30.8092576254
 13
786.3407487601
 23
30.8092576254
  0
SOLID
  8
0
 62
7
  6
CONTINUOUS
 10
786.5719992012
 20
30.9060491937
 11
786.6298114807
 21
30.8092576254
 12
786.3407487601
 22
30.8092576254
 13
786.3407487601
 23
30.8092576254
  0
SOLID
  8
0
 62
7
  6
CONTINUOUS
 10
781.8891865358
 20
31.035103216
 11
781.9469989807
 21
31.1318946289
 12
782.2360615358
 22
31.1318946289
 13
782.2360615358
 23
31.1318946289
  0
SOLID
  8
0
 62
7
  6
CONTINUOUS
 10
782.2360615358
 20
31.1318946289
 11
782.1782489255
 21
31.0028390707
 12
781.8891865358
 22
31.035103216
 13
781.8891865358
 23
31.035103216
  0
SOLID
  8
0
 62
7
  6
CONTINUOUS
 10
781.7157489531
 20
30.9705762839
 11
781.8891865358
 21
31.035103216
 12
782.1782489255
 22
31.0028390707
 13
782.1782489255
 23
31.0028390707
  0
SOLID
  8
0
 62
7
  6
CONTINUOUS
 10
781.7157489531
 20
30.9705762839
 11
782.1782489255
 21
31.0028390707
 12
781.3110615082
 22
30.9383119806
 13
781.3110615082
 23
30.9383119806
  0
SOLID
  8
0
 62
7
  6
CONTINUOUS
 10
782.1782489255
 20
31.0028390707
 11
782.0048114255
 21
30.9060491937
 12
781.3110615082
 22
30.9383119806
 13
781.3110615082
 23
30.9383119806
  0
SOLID
  8
0
 62
7
  6
CONTINUOUS
 10
780.8485614944
 20
30.8737848904
 11
781.3110615082
 21
30.9383119806
 12
782.0048114255
 22
30.9060491937
 13
782.0048114255
 23
30.9060491937
  0
SOLID
  8
0
 62
7
  6
CONTINUOUS
 10
780.8485614944
 20
30.8737848904
 11
782.0048114255
 21
30.9060491937
 12
781.0219989944
 22
30.8415207131
 13
781.0219989944
 23
30.8415207131
  0
SOLID
  8
0
 62
7
  6
CONTINUOUS
 10
782.0048114255
 20
30.9060491937
 11
781.7735614807
 21
30.8415207131
 12
781.0219989944
 22
30.8415207131
 13
781.0219989944
 23
30.8415207131
  0
SOLID
  8
0
 62
7
  6
CONTINUOUS
 10
781.3688739531
 20
30.8092578002
 11
781.0219989944
 21
30.8415207131
 12
781.7735614807
 22
30.8415207131
 13
781.7735614807
 23
30.8415207131
  0
SOLID
  8
0
 62
7
  6
CONTINUOUS
 10
784.8376238704
 20
30.9705762839
 11
785.0688739807
 21
31.0673661609
 12
785.1266865909
 22
31.0028390707
 13
785.1266865909
 23
31.0028390707
  0
SOLID
  8
0
 62
7
  6
CONTINUOUS
 10
785.1266865909
 20
31.0028390707
 11
785.3579363704
 21
30.9383119806
 12
784.8376238704
 22
30.9705762839
 13
784.8376238704
 23
30.9705762839
  0
SOLID
  8
0
 62
7
  6
CONTINUOUS
 10
785.0110613704
 20
30.8737848904
 11
784.8376238704
 21
30.9705762839
 12
785.3579363704
 22
30.9383119806
 13
785.3579363704
 23
30.9383119806
  0
SOLID
  8
0
 62
7
  6
CONTINUOUS
 10
785.7048113704
 20
30.9383119664
 11
785.9938737601
 21
31.0028390707
 12
786.2251242012
 22
30.9705762839
 13
786.2251242012
 23
30.9705762839
  0
SOLID
  8
0
 62
7
  6
CONTINUOUS
 10
786.2251242012
 20
30.9705762839
 11
786.1673112601
 21
30.9060491937
 12
785.7048113704
 22
30.9383119664
 13
785.7048113704
 23
30.9383119664
  0
SOLID
  8
0
 62
7
  6
CONTINUOUS
 10
786.1673112601
 20
30.9060491937
 11
785.0110613704
 21
30.8737848904
 12
785.7048113704
 22
30.9383119664
 13
785.7048113704
 23
30.9383119664
  0
SOLID
  8
0
 62
7
  6
CONTINUOUS
 10
785.0110613704
 20
30.8737848904
 11
785.3579363704
 21
30.9383119664
 12
785.7048113704
 22
30.9383119664
 13
785.7048113704
 23
30.9383119664
  0
SOLID
  8
0
 62
7
  6
CONTINUOUS
 10
785.0110613704
 20
30.8737848904
 11
786.1673112601
 21
30.9060491937
 12
785.1266865909
 22
30.8415205568
 13
785.1266865909
 23
30.8415205568
  0
SOLID
  8
0
 62
7
  6
CONTINUOUS
 10
786.1673112601
 20
30.9060491937
 11
785.9938737601
 21
30.8415205568
 12
785.1266865909
 22
30.8415205568
 13
785.1266865909
 23
30.8415205568
  0
SOLID
  8
0
 62
7
  6
CONTINUOUS
 10
785.3579363704
 20
30.8092577215
 11
785.1266865909
 21
30.8415205568
 12
785.9938737601
 22
30.8415205568
 13
785.9938737601
 23
30.8415205568
  0
SOLID
  8
0
 62
7
  6
CONTINUOUS
 10
785.9938737601
 20
30.8415205568
 11
785.7048113704
 21
30.8092577215
 12
785.3579363704
 22
30.8092577215
 13
785.3579363704
 23
30.8092577215
  0
SOLID
  8
0
 62
7
  6
CONTINUOUS
 10
790.3876242012
 20
30.9705762839
 11
790.0407492012
 21
30.9383119664
 12
790.2719989807
 22
31.0028390707
 13
790.2719989807
 23
31.0028390707
  0
SOLID
  8
0
 62
7
  6
CONTINUOUS
 10
790.2719989807
 20
31.0028390707
 11
790.0407492012
 21
30.9383119664
 12
790.2141867012
 22
31.0673661467
 13
790.2141867012
 23
31.0673661467
  0
SOLID
  8
0
 62
7
  6
CONTINUOUS
 10
790.0407492012
 20
30.9383119664
 11
789.9251239807
 21
31.0673661467
 12
790.2141867012
 22
31.0673661467
 13
790.2141867012
 23
31.0673661467
  0
SOLID
  8
0
 62
7
  6
CONTINUOUS
 10
790.3876242012
 20
30.9705762839
 11
790.7344992012
 21
30.9383119664
 12
790.0407492012
 22
30.9383119664
 13
790.0407492012
 23
30.9383119664
  0
SOLID
  8
0
 62
7
  6
CONTINUOUS
 10
787.0923117012
 20
30.8092578002
 11
787.0923117012
 21
31.841695792
 12
787.3813737601
 22
30.8092578002
 13
787.3813737601
 23
31.841695792
  0
ENDBLK
  8
0
  6
BYBLOCK
 62
0
  0
BLOCK
  8
0
 62
2
  6
CONTINUOUS
  2
AMMEAAL_LOGO_BL0
 70
64
 10
663.0141013953
 20
19.7009994242
  0
TEXT
  8
0
 62
7
  6
CONTINUOUS
 10
649.4066669574
 20
19.0744135318
  7
TEXTSTYLE_3
 40
2.7338706658
  1
Ammeraal Beltech
 41
1.0
 51
15.0
 72
0
  0
TEXT
  8
0
 62
7
  6
CONTINUOUS
 10
660.2074677831
 20
16.800876859
  7
TEXTSTYLE_4
 40
1.0935482663
  1
Innovation & Service in Belting
 41
1.0
 72
0
  0
LINE
  8
0
 62
7
  6
CONTINUOUS
 10
643.382126306
 20
19.8410068404
 11
644.1602782994
 21
23.5019241381
  0
LINE
  8
0
 62
7
  6
CONTINUOUS
 10
654.2554465892
 20
27.1653180497
 11
644.6480960424
 21
24.0437006284
  0
LINE
  8
0
 62
7
  6
CONTINUOUS
 10
643.6074096383
 20
19.1476560374
 11
651.1144848995
 21
12.3882551114
  0
LINE
  8
0
 62
7
  6
CONTINUOUS
 10
643.869944049
 20
20.3827833308
 11
654.6782134142
 21
23.8946029297
  0
LINE
  8
0
 62
7
  6
CONTINUOUS
 10
654.674008277
 20
13.544814366
 11
646.2285486083
 21
21.1491404077
  0
LINE
  8
0
 62
7
  6
CONTINUOUS
 10
655.1938309968
 20
26.320392934
 11
654.2172714596
 21
21.7260415315
  0
LINE
  8
0
 62
7
  6
CONTINUOUS
 10
653.5174695119
 20
18.4337322177
 11
652.8310213004
 21
15.2042472933
  0
LINE
  8
0
 62
7
  6
CONTINUOUS
 10
655.8749270954
 20
13.9350165436
 11
656.831158631
 21
18.4337322177
  0
LINE
  8
0
 62
7
  6
CONTINUOUS
 10
657.5309605787
 20
21.7260415315
 11
657.9752023811
 21
23.8160348909
  0
LINE
  8
0
 62
7
  6
CONTINUOUS
 10
651.8275859748
 20
12.2366807987
 11
655.3871093524
 21
13.3932400533
  0
LINE
  8
0
 62
7
  6
CONTINUOUS
 10
654.9685476645
 20
27.013743737
 11
657.7499190488
 21
24.5093856939
  0
ARC
  8
0
 62
7
  6
CONTINUOUS
 10
644.8733793747
 20
23.3503498254
 40
0.7290321776
 50
108.0
 51
168.0
  0
ARC
  8
0
 62
7
  6
CONTINUOUS
 10
654.4807299215
 20
26.4719672466
 40
0.7290321776
 50
348.0
 51
108.0
  0
ARC
  8
0
 62
7
  6
CONTINUOUS
 10
657.2621013058
 20
23.9676092036
 40
0.7290321776
 50
348.0
 51
48.0
  0
ARC
  8
0
 62
7
  6
CONTINUOUS
 10
651.6023026425
 20
12.9300316018
 40
0.7290321776
 50
228.0
 51
288.0
  0
ARC
  8
0
 62
7
  6
CONTINUOUS
 10
644.0952273813
 20
19.6894325277
 40
0.7290321776
 50
108.0
 51
228.0
  0
ARC
  8
0
 62
7
  6
CONTINUOUS
 10
655.1618260201
 20
14.0865908563
 40
0.7290321776
 50
228.0
 51
348.0
  0
ENDBLK
  8
0
  6
BYBLOCK
 62
0
  0
BLOCK
  8
0
  2
_FILLED
 70
64
 10
0.0
 20
0.0
  0
SOLID
  8
0
  6
BYBLOCK
 62
0
 10
0.0
 20
0.0
 11
-1.0
 21
0.2142857143
 12
-1.0
 22
-0.2142857143
 13
-1.0
 23
-0.2142857143
  0
ENDBLK
  8
0
  6
BYBLOCK
 62
0
  0
ENDSEC
  0
SECTION
  2
ENTITIES
  0
TEXT
  8
0
 62
5
  6
CONTINUOUS
 10
727.0
 20
25.636
  7
TEXTSTYLE_2
 40
2.8
  1
Scale :
 41
0.6
 51
0.000019
 72
0
  0
TEXT
  8
0
 62
5
  6
CONTINUOUS
 10
747.0
 20
25.636
  7
TEXTSTYLE_2
 40
2.8
  1
Belt type:
 41
0.6
 51
0.000019
 72
0
  0
INSERT
  8
0
 62
2
  6
CONTINUOUS
  2
AMMEAAL_LOGO_BL0
 10
663.0141013953
 20
19.7009994242
  0
INSERT
  8
0
 62
2
  6
CONTINUOUS
  2
UNI_LOGO2_BL1
 10
804.4079930916
 20
35.8092573885
  0
LINE
  8
0
 62
2
  6
CONTINUOUS
 10
641.0
 20
30.0
 11
831.0
 21
30.0
  0
LINE
  8
0
 62
2
  6
CONTINUOUS
 10
641.0
 20
30.0
 11
641.0
 21
10.0
  0
LINE
  8
0
 62
2
  6
CONTINUOUS
 10
641.0
 20
10.0
 11
831.0
 21
10.0
  0
LINE
  8
0
 62
2
  6
CONTINUOUS
 10
726.0
 20
30.0
 11
726.0
 21
10.0
  0
LINE
  8
0
 62
2
  6
CONTINUOUS
 10
746.0
 20
30.0
 11
746.0
 21
10.0
  0
LINE
  8
0
 62
2
  6
CONTINUOUS
 10
831.0
 20
30.0
 11
831.0
 21
10.0
  0
TEXT
  8
0
 62
5
  6
CONTINUOUS
 10
644.0
 20
23.303
  7
TEXTSTYLE_3
 40
1.52
  1
                                                                     Ammeraal Beltech Modular A/S
 41
1.0
 72
0
  0
TEXT
  8
0
 62
5
  6
CONTINUOUS
 10
644.0
 20
20.595
  7
TEXTSTYLE_3
 40
1.5
  1
                                                                      Hjulmagervej 21, 7100 Vejle,  DK
 41
1.0
 72
0
  0
TEXT
  8
0
 62
5
  6
CONTINUOUS
 10
644.0
 20
17.881
  7
TEXTSTYLE_3
 40
1.495
  1
                                                                      tel: 
 41
1.0
 72
0
  0
TEXT
  8
0
 62
5
  6
CONTINUOUS
 10
688.9869465649
 20
17.881
  7
TEXTSTYLE_3
 40
1.51
  1
+45 75723100     fax: +45 75723348
 41
1.0
 72
0
  0
TEXT
  8
0
 62
5
  6
CONTINUOUS
 10
644.0
 20
15.177
  7
TEXTSTYLE_3
 40
1.5
  1
                                                                      admin@unichains.dk  www.unichains.com
 41
1.0
 72
0
  0
TEXT
  8
0
 62
5
  6
CONTINUOUS
 10
730.75
 20
13.75
  7
TEXTSTYLE_5
 40
5.0
  1
1:1
 41
0.7
 72
1
 11
736.0
 21
13.75
  0
TEXT
  8
0
 62
5
  6
CONTINUOUS
 10
749.0
 20
13.75
  7
TEXTSTYLE_6
 40
7.5
  1
Z20 Bore 120SQ
 41
1.0
 72
0
  0
LINE
  8
0
 62
7
  6
CONTINUOUS
 10
-0.0
 20
0.0
 11
-0.0
 21
594.0
  0
LINE
  8
0
 62
7
  6
CONTINUOUS
 10
10.0
 20
10.0
 11
10.0
 21
584.0
  0
LINE
  8
0
 62
7
  6
CONTINUOUS
 10
-0.0
 20
0.0
 11
841.0
 21
0.0
  0
LINE
  8
0
 62
7
  6
CONTINUOUS
 10
10.0
 20
10.0
 11
831.0
 21
10.0
  0
LINE
  8
0
 62
7
  6
CONTINUOUS
 10
641.0
 20
30.0
 11
831.0
 21
30.0
  0
LINE
  8
0
 62
7
  6
CONTINUOUS
 10
211.0
 20
5.0
 11
211.0
 21
10.0
  0
LINE
  8
0
 62
7
  6
CONTINUOUS
 10
211.0
 20
584.0
 11
211.0
 21
589.0
  0
LINE
  8
0
 62
7
  6
CONTINUOUS
 10
421.0
 20
5.0
 11
421.0
 21
10.0
  0
LINE
  8
0
 62
7
  6
CONTINUOUS
 10
421.0
 20
584.0
 11
421.0
 21
589.0
  0
LINE
  8
0
 62
7
  6
CONTINUOUS
 10
5.0
 20
297.0
 11
10.0
 21
297.0
  0
LINE
  8
0
 62
7
  6
CONTINUOUS
 10
831.0
 20
297.0
 11
836.0
 21
297.0
  0
LINE
  8
0
 62
7
  6
CONTINUOUS
 10
631.0
 20
584.0
 11
631.0
 21
589.0
  0
LINE
  8
0
 62
7
  6
CONTINUOUS
 10
10.0
 20
584.0
 11
831.0
 21
584.0
  0
LINE
  8
0
 62
7
  6
CONTINUOUS
 10
-0.0
 20
594.0
 11
841.0
 21
594.0
  0
LINE
  8
0
 62
7
  6
CONTINUOUS
 10
831.0
 20
10.0
 11
831.0
 21
584.0
  0
LINE
  8
0
 62
7
  6
CONTINUOUS
 10
841.0
 20
0.0
 11
841.0
 21
594.0
  0
LINE
  8
0
 62
7
  6
CONTINUOUS
 10
61.1989979176
 20
332.2746882391
 11
61.8210470593
 21
344.0941352719
  0
LINE
  8
0
 62
7
  6
CONTINUOUS
 10
72.1893867543
 20
392.8204080315
 11
76.4334006412
 21
403.8691463949
  0
LINE
  8
0
 62
7
  6
CONTINUOUS
 10
101.3515240266
 20
447.0065924484
 11
108.8020690097
 21
456.2030946504
  0
LINE
  8
0
 62
7
  6
CONTINUOUS
 10
145.8308165537
 20
489.5291202219
 11
155.7585813791
 21
495.9731685511
  0
LINE
  8
0
 62
7
  6
CONTINUOUS
 10
314.3856934403
 20
139.4789220442
 11
302.9525075647
 21
136.4181159367
  0
LINE
  8
0
 62
7
  6
CONTINUOUS
 10
253.4070751727
 20
131.2217466115
 11
241.5876281399
 21
131.8437957532
  0
LINE
  8
0
 62
7
  6
CONTINUOUS
 10
192.8613553804
 20
142.2121354483
 11
181.8126170169
 21
146.4561493352
  0
LINE
  8
0
 62
7
  6
CONTINUOUS
 10
138.6751709634
 20
171.3742727206
 11
129.4786687615
 21
178.8248177037
  0
LINE
  8
0
 62
7
  6
CONTINUOUS
 10
96.15264319
 20
215.8535652477
 11
89.7085948608
 21
225.781330073
  0
LINE
  8
0
 62
7
  6
CONTINUOUS
 10
69.4561733503
 20
271.2960699715
 11
66.3953672427
 21
282.7292558472
  0
LINE
  8
0
 62
7
  6
CONTINUOUS
 10
75.2522091923
 20
323.3558247112
 11
75.2522091923
 21
297.3522560529
  0
LINE
  8
0
 62
7
  6
CONTINUOUS
 10
82.7987045114
 20
379.9953836458
 11
74.7631598816
 21
355.2645202265
  0
LINE
  8
0
 62
7
  6
CONTINUOUS
 10
107.4784343245
 20
431.5308099492
 11
92.1939201601
 21
410.4934809902
  0
LINE
  8
0
 62
7
  6
CONTINUOUS
 10
146.8755747237
 20
472.9174570262
 11
125.8382457648
 21
457.6329428619
  0
LINE
  8
0
 62
7
  6
CONTINUOUS
 10
197.1336591108
 20
500.1041115032
 11
172.4027956914
 21
492.0685668734
  0
LINE
  8
0
 62
7
  6
CONTINUOUS
 10
262.3259387007
 20
145.2749578862
 11
288.329507359
 21
145.2749578862
  0
LINE
  8
0
 62
7
  6
CONTINUOUS
 10
205.686379766
 20
152.8214532053
 11
230.4172431854
 21
144.7859085755
  0
LINE
  8
0
 62
7
  6
CONTINUOUS
 10
154.1509534627
 20
177.5011830184
 11
175.1882824216
 21
162.2166688541
  0
LINE
  8
0
 62
7
  6
CONTINUOUS
 10
112.7643063857
 20
216.8983234176
 11
128.04882055
 21
195.8609944587
  0
LINE
  8
0
 62
7
  6
CONTINUOUS
 10
85.5776519086
 20
267.1564078047
 11
93.6131965384
 21
242.4255443853
  0
LINE
  8
0
 62
7
  6
CONTINUOUS
 10
266.2430864847
 20
491.5321112758
 11
265.8567381855
 21
491.29431337
  0
LINE
  8
0
 62
7
  6
CONTINUOUS
 10
269.8675926793
 20
494.3758985442
 11
269.4744800569
 21
494.149458596
  0
LINE
  8
0
 62
7
  6
CONTINUOUS
 10
269.4361367237
 20
493.6402619759
 11
269.8292493462
 21
493.8667019242
  0
LINE
  8
0
 62
7
  6
CONTINUOUS
 10
265.8332475792
 20
490.7842156535
 11
266.0888556814
 21
490.9002394598
  0
LINE
  8
0
 62
7
  6
CONTINUOUS
 10
269.4744800569
 20
494.149458596
 11
269.2060140632
 21
493.913632554
  0
LINE
  8
0
 62
7
  6
CONTINUOUS
 10
269.16767073
 20
493.404435934
 11
269.4361367237
 21
493.6402619759
  0
LINE
  8
0
 62
7
  6
CONTINUOUS
 10
297.7085374897
 20
489.8519697575
 11
297.4063859081
 21
489.6611996664
  0
LINE
  8
0
 62
7
  6
CONTINUOUS
 10
311.1081536977
 20
482.7190929608
 11
316.5677613585
 21
485.3826453544
  0
LINE
  8
0
 62
7
  6
CONTINUOUS
 10
316.0645967334
 20
485.8328015455
 11
310.4872341366
 21
483.2111726895
  0
LINE
  8
0
 62
7
  6
CONTINUOUS
 10
317.9015449706
 20
485.4127211981
 11
317.2498008717
 21
485.1194959754
  0
LINE
  8
0
 62
7
  6
CONTINUOUS
 10
296.7329892175
 20
486.2785009508
 11
297.3078441617
 21
486.5358245604
  0
LINE
  8
0
 62
7
  6
CONTINUOUS
 10
323.247072314
 20
483.1297426615
 11
322.7511233044
 21
482.9264393228
  0
LINE
  8
0
 62
7
  6
CONTINUOUS
 10
319.8107729596
 20
482.7459715155
 11
315.3881779283
 21
481.0500186906
  0
LINE
  8
0
 62
7
  6
CONTINUOUS
 10
316.3193629784
 20
480.6854717636
 11
320.2531500136
 21
482.1615056408
  0
LINE
  8
0
 62
7
  6
CONTINUOUS
 10
266.0888556814
 20
490.9002394598
 11
266.4810764557
 21
491.2655618504
  0
LINE
  8
0
 62
7
  6
CONTINUOUS
 10
297.926198535
 20
489.1443874329
 11
298.4088685665
 21
489.5547604946
  0
LINE
  8
0
 62
7
  6
CONTINUOUS
 10
297.3078441617
 20
486.5358245604
 11
297.7905142035
 21
486.9461976656
  0
LINE
  8
0
 62
7
  6
CONTINUOUS
 10
297.0901831474
 20
487.2434070155
 11
296.7880315451
 21
487.0526368374
  0
LINE
  8
0
 62
7
  6
CONTINUOUS
 10
323.8022045693
 20
477.4691758177
 11
324.2981535965
 21
477.6724791975
  0
LINE
  8
0
 62
7
  6
CONTINUOUS
 10
266.5104397131
 20
491.9031839877
 11
266.2430864847
 21
491.5321112758
  0
LINE
  8
0
 62
7
  6
CONTINUOUS
 10
322.7511233044
 20
482.9264393228
 11
322.3194470104
 21
482.5564298015
  0
LINE
  8
0
 62
7
  6
CONTINUOUS
 10
317.5292417814
 20
484.4617238418
 11
317.9016517606
 21
484.7272111105
  0
LINE
  8
0
 62
7
  6
CONTINUOUS
 10
320.2531500136
 20
482.1615056408
 11
320.6255600762
 21
482.4269928769
  0
LINE
  8
0
 62
7
  6
CONTINUOUS
 10
322.6270598151
 20
482.0068416059
 11
323.3893690332
 21
482.5123869676
  0
LINE
  8
0
 62
7
  6
CONTINUOUS
 10
324.4222163228
 20
478.5920769511
 11
323.6599078678
 21
478.0865315526
  0
LINE
  8
0
 62
7
  6
CONTINUOUS
 10
289.7481124297
 20
487.6973455945
 11
292.3759931286
 21
491.9947039565
  0
LINE
  8
0
 62
7
  6
CONTINUOUS
 10
227.1672003116
 20
384.8064550524
 11
200.8753083594
 21
358.5145631003
  0
LINE
  8
0
 62
7
  6
CONTINUOUS
 10
251.5750734733
 20
406.4506359096
 11
233.1902971624
 21
388.0658595988
  0
LINE
  8
0
 62
7
  6
CONTINUOUS
 10
197.6159038131
 20
352.4914662494
 11
179.2311275022
 21
334.1066899386
  0
LINE
  8
0
 62
7
  6
CONTINUOUS
 10
320.2297209208
 20
483.1303334211
 11
319.8107729596
 21
482.7459715155
  0
LINE
  8
0
 62
7
  6
CONTINUOUS
 10
324.2981535965
 20
477.6724791975
 11
324.7298295975
 21
478.0424889424
  0
LINE
  8
0
 62
7
  6
CONTINUOUS
 10
200.8753083594
 20
297.1899490055
 11
227.1672003116
 21
270.8980570534
  0
LINE
  8
0
 62
7
  6
CONTINUOUS
 10
179.2311275022
 20
321.5978221672
 11
197.6159038131
 21
303.2130458564
  0
LINE
  8
0
 62
7
  6
CONTINUOUS
 10
233.1902971624
 20
267.638652507
 11
251.5750734733
 21
249.2538761962
  0
LINE
  8
0
 62
7
  6
CONTINUOUS
 10
242.5959443697
 20
122.5609611973
 11
241.7280740518
 21
130.8181957005
  0
LINE
  8
0
 62
7
  6
CONTINUOUS
 10
179.903029104
 20
137.3160621904
 11
181.6292611709
 21
145.4373455484
  0
LINE
  8
0
 62
7
  6
CONTINUOUS
 10
282.0581124502
 20
491.1105932506
 11
283.6989884061
 21
494.3438023177
  0
LINE
  8
0
 62
7
  6
CONTINUOUS
 10
281.1269150928
 20
489.1882200908
 11
281.8561928151
 21
490.6252019128
  0
LINE
  8
0
 62
7
  6
CONTINUOUS
 10
283.2833197467
 20
494.9251546187
 11
280.3858080086
 21
489.3033734222
  0
LINE
  8
0
 62
7
  6
CONTINUOUS
 10
124.8381004756
 20
170.7221733825
 11
128.9894593052
 21
177.9125377959
  0
LINE
  8
0
 62
7
  6
CONTINUOUS
 10
292.2541696253
 20
493.319649367
 11
289.3805634588
 21
488.4200716135
  0
LINE
  8
0
 62
7
  6
CONTINUOUS
 10
297.9185013825
 20
490.1957899933
 11
297.7085374897
 21
489.8519697575
  0
LINE
  8
0
 62
7
  6
CONTINUOUS
 10
298.4088685665
 20
489.5547604946
 11
298.6188324593
 21
489.8985807304
  0
LINE
  8
0
 62
7
  6
CONTINUOUS
 10
297.3001470401
 20
487.5872272513
 11
297.0901831474
 21
487.2434070155
  0
LINE
  8
0
 62
7
  6
CONTINUOUS
 10
297.7905142035
 20
486.9461976656
 11
298.0004781169
 21
487.2900179884
  0
LINE
  8
0
 62
7
  6
CONTINUOUS
 10
317.2498008717
 20
485.1194959754
 11
316.9472511458
 21
484.6895656631
  0
LINE
  8
0
 62
7
  6
CONTINUOUS
 10
320.6255600762
 20
482.4269928769
 11
320.9281096875
 21
482.8569232339
  0
LINE
  8
0
 62
7
  6
CONTINUOUS
 10
322.3194470104
 20
482.5564298015
 11
322.0530871303
 21
482.254187637
  0
LINE
  8
0
 62
7
  6
CONTINUOUS
 10
324.7298295975
 20
478.0424889424
 11
324.9961896645
 21
478.344730637
  0
LINE
  8
0
 62
7
  6
CONTINUOUS
 10
82.7912973586
 20
219.509271856
 11
88.9614190245
 21
225.0648743578
  0
LINE
  8
0
 62
7
  6
CONTINUOUS
 10
57.8784537993
 20
278.9017364927
 11
65.463363803
 21
282.2787560018
  0
LINE
  8
0
 62
7
  6
CONTINUOUS
 10
463.1208022145
 20
312.6186930636
 11
454.8635677113
 21
311.7508227457
  0
LINE
  8
0
 62
7
  6
CONTINUOUS
 10
448.3657012214
 20
249.9257777979
 11
440.2444178635
 21
251.6520098648
  0
LINE
  8
0
 62
7
  6
CONTINUOUS
 10
414.9595900294
 20
194.8608491696
 11
407.769225616
 21
199.0122079992
  0
LINE
  8
0
 62
7
  6
CONTINUOUS
 10
366.1724915559
 20
152.8140460525
 11
360.6168890541
 21
158.9841677184
  0
LINE
  8
0
 62
7
  6
CONTINUOUS
 10
306.7800269192
 20
127.9012024933
 11
303.4030074101
 21
135.486112497
  0
LINE
  8
0
 62
7
  6
CONTINUOUS
 10
322.2091351377
 20
481.3528886143
 11
322.6270598151
 21
482.0068416059
  0
LINE
  8
0
 62
7
  6
CONTINUOUS
 10
324.8401417279
 20
479.2460298239
 11
324.4222163228
 21
478.5920769511
  0
LINE
  8
0
 62
7
  6
CONTINUOUS
 10
322.0530871303
 20
482.254187637
 11
321.6856838802
 21
481.7174717916
  0
LINE
  8
0
 62
7
  6
CONTINUOUS
 10
324.9961896645
 20
478.344730637
 11
325.3635926569
 21
478.8814467882
  0
LINE
  8
DEFAULT_1
 62
2
  6
CENTER
 10
257.829507359
 20
327.8522560529
 11
257.829507359
 21
125.1937464552
  0
LINE
  8
DEFAULT_1
 62
2
  6
CENTER
 10
257.829507359
 20
327.8522560529
 11
257.829507359
 21
530.5107656506
  0
LINE
  8
0
 62
7
  6
CONTINUOUS
 10
263.5179465066
 20
494.8524787836
 11
263.4004934849
 21
492.3019904131
  0
LINE
  8
0
 62
7
  6
CONTINUOUS
 10
264.0248317998
 20
492.2732388914
 11
264.1422848214
 21
494.8237272619
  0
LINE
  8
0
 62
7
  6
CONTINUOUS
 10
266.6396380361
 20
494.7087211774
 11
266.5104397131
 21
491.9031839877
  0
LINE
  8
0
 62
7
  6
CONTINUOUS
 10
267.1112875552
 20
491.3643347322
 11
267.2639764849
 21
494.6799696496
  0
LINE
  8
0
 62
7
  6
CONTINUOUS
 10
261.5648525298
 20
520.9454800913
 11
260.8835811655
 21
511.2028456799
  0
LINE
  8
0
 62
7
  6
CONTINUOUS
 10
268.63070759
 20
494.5970589858
 11
268.3239608978
 21
490.5234856687
  0
LINE
  8
0
 62
7
  6
CONTINUOUS
 10
268.9471965374
 20
490.476555012
 11
269.16767073
 21
493.404435934
  0
LINE
  8
0
 62
7
  6
CONTINUOUS
 10
269.2060140632
 20
493.913632554
 11
269.2539432296
 21
494.5501283291
  0
LINE
  8
0
 62
7
  6
CONTINUOUS
 10
271.3729752714
 20
492.7262889819
 11
271.190844412
 21
490.30760468
  0
LINE
  8
0
 62
7
  6
CONTINUOUS
 10
271.814079695
 20
490.2606740502
 11
271.9962105544
 21
492.6793583521
  0
LINE
  8
0
 62
7
  6
CONTINUOUS
 10
273.3722728671
 20
496.1363019293
 11
273.312394161
 21
495.5008189498
  0
LINE
  8
0
 62
7
  6
CONTINUOUS
 10
273.1926367153
 20
494.2298526347
 11
272.8094129628
 21
490.1627612098
  0
LINE
  8
0
 62
7
  6
CONTINUOUS
 10
273.4316565504
 20
490.1041299921
 11
273.8148803029
 21
494.1712214171
  0
LINE
  8
0
 62
7
  6
CONTINUOUS
 10
273.9346377486
 20
495.4421877321
 11
273.9945164546
 21
496.0776707117
  0
LINE
  8
0
 62
7
  6
CONTINUOUS
 10
287.4706447377
 20
494.2595965478
 11
286.3137863296
 21
488.372179574
  0
LINE
  8
0
 62
7
  6
CONTINUOUS
 10
287.0497134513
 20
488.227572273
 11
287.960431802
 21
492.8623474868
  0
LINE
  8
0
 62
7
  6
CONTINUOUS
 10
292.3759931286
 20
491.9947039565
 11
291.465274778
 21
487.3599287427
  0
LINE
  8
0
 62
7
  6
CONTINUOUS
 10
294.5602275031
 20
492.8286236015
 11
293.1762915213
 21
486.9904114438
  0
LINE
  8
0
 62
7
  6
CONTINUOUS
 10
294.0827407191
 20
487.5627231239
 11
294.5244224247
 21
489.4259823621
  0
LINE
  8
0
 62
7
  6
CONTINUOUS
 10
294.7010950821
 20
490.1712859529
 11
295.1133313653
 21
491.9103280129
  0
LINE
  8
0
 62
7
  6
CONTINUOUS
 10
297.9773922683
 20
490.4442245235
 11
297.9185013825
 21
490.1957899933
  0
LINE
  8
0
 62
7
  6
CONTINUOUS
 10
297.3884833688
 20
487.9598790467
 11
297.3001470401
 21
487.5872272513
  0
LINE
  8
0
 62
7
  6
CONTINUOUS
 10
298.0004781169
 20
487.2900179884
 11
298.1477053315
 21
487.9111043141
  0
LINE
  8
0
 62
7
  6
CONTINUOUS
 10
298.6188324593
 20
489.8985807304
 11
298.7366143134
 21
490.395450139
  0
LINE
  8
0
 62
7
  6
CONTINUOUS
 10
312.1571034297
 20
487.9015056843
 11
311.9430176498
 21
487.3001810169
  0
LINE
  8
0
 62
7
  6
CONTINUOUS
 10
310.4872341366
 20
483.2111726895
 11
310.1446968587
 21
482.2490531375
  0
LINE
  8
0
 62
7
  6
CONTINUOUS
 10
314.8550748795
 20
480.5720473419
 11
315.1119778453
 21
481.2936370269
  0
LINE
  8
0
 62
7
  6
CONTINUOUS
 10
316.5677613585
 20
485.3826453544
 11
316.8674814504
 21
486.2244998886
  0
LINE
  8
0
 62
7
  6
CONTINUOUS
 10
315.3881779283
 20
481.0500186906
 11
315.1554884024
 21
480.4556452597
  0
LINE
  8
0
 62
7
  6
CONTINUOUS
 10
320.3227968484
 20
483.3680830932
 11
320.2297209208
 21
483.1303334211
  0
LINE
  8
0
 62
7
  6
CONTINUOUS
 10
319.3458210031
 20
478.8151841367
 11
319.5785105289
 21
479.4095575677
  0
LINE
  8
0
 62
7
  6
CONTINUOUS
 10
320.9281096875
 20
482.8569232339
 11
321.0211856152
 21
483.094672906
  0
LINE
  8
0
 62
7
  6
CONTINUOUS
 10
321.0511194508
 20
510.3405398894
 11
317.3925522773
 21
501.2852683759
  0
LINE
  8
0
 62
7
  6
CONTINUOUS
 10
321.6856838802
 20
481.7174717916
 11
321.2309880783
 21
480.6623387496
  0
LINE
  8
0
 62
7
  6
CONTINUOUS
 10
321.8554828473
 20
480.5322295817
 11
322.2091351377
 21
481.3528886143
  0
LINE
  8
0
 62
7
  6
CONTINUOUS
 10
325.1937940182
 20
480.0666888565
 11
324.8401417279
 21
479.2460298239
  0
LINE
  8
0
 62
7
  6
CONTINUOUS
 10
325.3635926569
 20
478.8814467882
 11
325.8182884588
 21
479.9365798301
  0
LINE
  8
0
 62
7
  6
CONTINUOUS
 10
374.3488144894
 20
481.872374995
 11
368.0710775524
 21
474.3908594469
  0
LINE
  8
0
 62
7
  6
CONTINUOUS
 10
416.2407879083
 20
438.3276477372
 11
407.9583898388
 21
433.1522310232
  0
LINE
  8
0
 62
7
  6
CONTINUOUS
 10
73.0326532472
 20
271.7356926917
 11
82.5089736194
 21
274.0984047244
  0
LINE
  8
DEFAULT_1
 62
2
  6
CENTER
 10
257.829507359
 20
327.8522560529
 11
55.1709977613
 21
327.8522560529
  0
LINE
  8
DEFAULT_1
 62
2
  6
CENTER
 10
257.829507359
 20
327.8522560529
 11
460.4880169567
 21
327.8522560529
  0
LINE
  8
0
 62
7
  6
CONTINUOUS
 10
64.7362833206
 20
331.5876012237
 11
74.478917732
 21
330.9063298594
  0
LINE
  8
0
 62
7
  6
CONTINUOUS
 10
75.3412235225
 20
391.0738681448
 11
84.3964950359
 21
387.4153009713
  0
LINE
  8
0
 62
7
  6
CONTINUOUS
 10
103.8093884169
 20
444.3715631833
 11
111.2909039649
 21
438.0938262463
  0
LINE
  8
0
 62
7
  6
CONTINUOUS
 10
147.3541156747
 20
486.2635366022
 11
152.5295323886
 21
477.9811385327
  0
LINE
  8
0
 62
7
  6
CONTINUOUS
 10
201.7129439978
 20
512.6491101647
 11
204.0756560305
 21
503.1727897925
  0
LINE
  8
0
 62
7
  6
CONTINUOUS
 10
254.0941621881
 20
134.7590320145
 11
254.7754335524
 21
144.5016664259
  0
LINE
  8
0
 62
7
  6
CONTINUOUS
 10
292.2012018997
 20
487.2153214417
 11
293.3580603079
 21
493.1027384155
  0
LINE
  8
0
 62
7
  6
CONTINUOUS
 10
194.6078952671
 20
145.3639722164
 11
198.2664624406
 21
154.4192437299
  0
LINE
  8
0
 62
7
  6
CONTINUOUS
 10
141.3102002285
 20
173.8321371108
 11
147.5879371655
 21
181.3136526589
  0
LINE
  8
0
 62
7
  6
CONTINUOUS
 10
99.4182268096
 20
217.3768643686
 11
107.7006248792
 21
222.5522810826
  0
LINE
  8
0
 62
7
  6
CONTINUOUS
 10
442.6263614708
 20
383.9688194141
 11
433.1500410986
 21
381.6061073814
  0
LINE
  8
0
 62
7
  6
CONTINUOUS
 10
450.9227313973
 20
324.1169108821
 11
441.180096986
 21
324.7981822464
  0
LINE
  8
0
 62
7
  6
CONTINUOUS
 10
440.3177911955
 20
264.630643961
 11
431.262519682
 21
268.2892111346
  0
LINE
  8
0
 62
7
  6
CONTINUOUS
 10
411.849626301
 20
211.3329489225
 11
404.368110753
 21
217.6106858595
  0
LINE
  8
0
 62
7
  6
CONTINUOUS
 10
368.3048990433
 20
169.4409755036
 11
363.1294823293
 21
177.7233735731
  0
LINE
  8
0
 62
7
  6
CONTINUOUS
 10
313.9460707201
 20
143.0554019411
 11
311.5833586874
 21
152.5317223133
  0
LINE
  8
0
 62
7
  6
CONTINUOUS
 10
273.9309406661
 20
524.8863164053
 11
273.0630703483
 21
533.1435509085
  0
LINE
  8
0
 62
7
  6
CONTINUOUS
 10
334.029753547
 20
510.2671665574
 11
335.7559856139
 21
518.3884499154
  0
LINE
  8
0
 62
7
  6
CONTINUOUS
 10
321.2309880783
 20
480.6623387496
 11
321.0931737
 21
480.0266843842
  0
LINE
  8
0
 62
7
  6
CONTINUOUS
 10
325.8182884588
 20
479.9365798301
 11
325.9561030948
 21
480.5722338898
  0
LINE
  8
0
 62
7
  6
CONTINUOUS
 10
321.6671463848
 20
479.7793383531
 11
321.8554828473
 21
480.5322295817
  0
LINE
  8
0
 62
7
  6
CONTINUOUS
 10
325.3821297531
 20
480.8195802039
 11
325.1937940182
 21
480.0666888565
  0
LINE
  8
0
 62
7
  6
CONTINUOUS
 10
386.6695554127
 20
477.7919743099
 11
390.8209142423
 21
484.9823387233
  0
LINE
  8
0
 62
7
  6
CONTINUOUS
 10
426.6975956934
 20
430.639637748
 11
432.8677173593
 21
436.1952402498
  0
LINE
  8
0
 62
7
  6
CONTINUOUS
 10
450.1956509149
 20
373.425756104
 11
457.7805609186
 21
376.8027756131
  0
LINE
  8
0
 62
7
  6
CONTINUOUS
 10
52.5382125034
 20
343.0858190422
 11
60.7954470066
 21
343.9536893601
  0
LINE
  8
0
 62
7
  6
CONTINUOUS
 10
67.2933134965
 20
405.7787343079
 11
75.4145968545
 21
404.052502241
  0
LINE
  8
0
 62
7
  6
CONTINUOUS
 10
100.6994246886
 20
460.8436629362
 11
107.8897891019
 21
456.6923041066
  0
LINE
  8
0
 62
7
  6
CONTINUOUS
 10
149.4865231621
 20
502.8904660533
 11
155.0421256638
 21
496.7203443874
  0
LINE
  8
0
 62
7
  6
CONTINUOUS
 10
212.2560073079
 20
520.2183996088
 11
208.8789877987
 21
527.8033096125
  0
LINE
  8
0
 62
7
  6
CONTINUOUS
 10
263.4004934849
 20
492.3019904131
 11
263.5018705478
 21
491.7861423808
  0
LINE
  8
0
 62
7
  6
CONTINUOUS
 10
267.2126644963
 20
490.8484867279
 11
267.1112875552
 21
491.3643347322
  0
LINE
  8
0
 62
7
  6
CONTINUOUS
 10
271.296257096
 20
493.3721709045
 11
271.3729752714
 21
492.7262889819
  0
LINE
  8
0
 62
7
  6
CONTINUOUS
 10
271.9962105544
 20
492.6793583521
 11
271.9194930922
 21
493.3252402209
  0
LINE
  8
0
 62
7
  6
CONTINUOUS
 10
297.3551921748
 20
488.3613625758
 11
297.3884833688
 21
487.9598790467
  0
LINE
  8
0
 62
7
  6
CONTINUOUS
 10
298.1477053315
 20
487.9111043141
 11
298.1144141374
 21
488.3125878432
  0
LINE
  8
0
 62
7
  6
CONTINUOUS
 10
297.9441011155
 20
490.8457082266
 11
297.9773922683
 21
490.4442245235
  0
LINE
  8
0
 62
7
  6
CONTINUOUS
 10
298.7366143134
 20
490.395450139
 11
298.7033230781
 21
490.7969334941
  0
LINE
  8
0
 62
7
  6
CONTINUOUS
 10
321.0931737
 20
480.0266843842
 11
321.056402904
 21
479.6255041923
  0
LINE
  8
0
 62
7
  6
CONTINUOUS
 10
325.9561030948
 20
480.5722338898
 11
325.9928737039
 21
480.9734145517
  0
LINE
  8
0
 62
7
  6
CONTINUOUS
 10
321.0211856152
 20
483.094672906
 11
321.090939193
 21
483.6157399052
  0
LINE
  8
0
 62
7
  6
CONTINUOUS
 10
264.0839412446
 20
249.2538761962
 11
282.4687175555
 21
267.638652507
  0
LINE
  8
0
 62
7
  6
CONTINUOUS
 10
318.0431109048
 20
303.2130458564
 11
336.4278872157
 21
321.5978221672
  0
LINE
  8
0
 62
7
  6
CONTINUOUS
 10
336.4278872157
 20
334.1066899386
 11
318.0431109048
 21
352.4914662494
  0
LINE
  8
0
 62
7
  6
CONTINUOUS
 10
282.4687175555
 20
388.0658595988
 11
264.0839412446
 21
406.4506359096
  0
LINE
  8
0
 62
7
  6
CONTINUOUS
 10
266.4810764557
 20
491.2655618504
 11
266.7014486492
 21
490.6164390987
  0
LINE
  8
0
 62
7
  6
CONTINUOUS
 10
264.1320815286
 20
491.8849153575
 11
264.0248317998
 21
492.2732388914
  0
LINE
  8
0
 62
7
  6
CONTINUOUS
 10
271.9194930922
 20
493.3252402209
 11
271.8236032502
 21
493.7165238334
  0
LINE
  8
0
 62
7
  6
CONTINUOUS
 10
285.3265214322
 20
488.5356846193
 11
284.2714629968
 21
494.7716167702
  0
LINE
  8
0
 62
7
  6
CONTINUOUS
 10
284.3265502337
 20
490.2413574015
 11
284.585414348
 21
488.6508379508
  0
LINE
  8
0
 62
7
  6
CONTINUOUS
 10
283.6989884061
 20
494.3438023177
 11
284.2814337028
 21
490.7651332564
  0
LINE
  8
0
 62
7
  6
CONTINUOUS
 10
287.960431802
 20
492.8623474868
 11
288.7668772032
 21
487.8901551454
  0
LINE
  8
0
 62
7
  6
CONTINUOUS
 10
289.3805634588
 20
488.4200716135
 11
288.5745340167
 21
494.0426858721
  0
LINE
  8
0
 62
7
  6
CONTINUOUS
 10
321.056402904
 20
479.6255041923
 11
321.0839051165
 21
479.0576175942
  0
LINE
  8
0
 62
7
  6
CONTINUOUS
 10
325.9928737039
 20
480.9734145517
 11
325.9653717844
 21
481.5413009261
  0
LINE
  8
0
 62
7
  6
CONTINUOUS
 10
288.4918144063
 20
270.8980570534
 11
314.7837063585
 21
297.1899490055
  0
LINE
  8
0
 62
7
  6
CONTINUOUS
 10
314.7837063585
 20
358.5145631003
 11
288.4918144063
 21
384.8064550524
  0
LINE
  8
0
 62
7
  6
CONTINUOUS
 10
263.5018705478
 20
491.7861423808
 11
263.6149929161
 21
491.5253432569
  0
LINE
  8
0
 62
7
  6
CONTINUOUS
 10
267.325787098
 20
490.5876875709
 11
267.2126644963
 21
490.8484867279
  0
LINE
  8
0
 62
7
  6
CONTINUOUS
 10
264.3641989341
 20
491.4908414291
 11
264.1320815286
 21
491.8849153575
  0
LINE
  8
0
 62
7
  6
CONTINUOUS
 10
298.1144141374
 20
488.3125878432
 11
297.8673076492
 21
488.8959529026
  0
LINE
  8
0
 62
7
  6
CONTINUOUS
 10
320.2296141778
 20
483.8158438743
 11
320.3227968484
 21
483.3680830932
  0
LINE
  8
0
 62
7
  6
CONTINUOUS
 10
321.8231943568
 20
478.8780392483
 11
321.6671463848
 21
479.7793383531
  0
LINE
  8
0
 62
7
  6
CONTINUOUS
 10
325.2260825441
 20
481.720879272
 11
325.3821297531
 21
480.8195802039
  0
LINE
  8
0
 62
7
  6
CONTINUOUS
 10
263.6149929161
 20
491.5253432569
 11
263.9719779376
 21
491.1255190711
  0
LINE
  8
0
 62
7
  6
CONTINUOUS
 10
271.0661347921
 20
493.6455414557
 11
271.296257096
 21
493.3721709045
  0
LINE
  8
0
 62
7
  6
CONTINUOUS
 10
271.8236032502
 20
493.7165238334
 11
271.5934809463
 21
493.9898943847
  0
LINE
  8
0
 62
7
  6
CONTINUOUS
 10
297.1708223648
 20
488.6674615453
 11
297.3551921748
 21
488.3613625758
  0
LINE
  8
0
 62
7
  6
CONTINUOUS
 10
297.7597313055
 20
491.1518071961
 11
297.9441011155
 21
490.8457082266
  0
LINE
  8
0
 62
7
  6
CONTINUOUS
 10
321.090939193
 20
483.6157399052
 11
320.8114980544
 21
484.2735121284
  0
LINE
  8
0
 62
7
  6
CONTINUOUS
 10
298.7033230781
 20
490.7969334941
 11
298.4562165899
 21
491.3802985535
  0
LINE
  8
0
 62
7
  6
CONTINUOUS
 10
321.0839051165
 20
479.0576175942
 11
321.2767235738
 21
478.5574988639
  0
LINE
  8
0
 62
7
  6
CONTINUOUS
 10
325.9653717844
 20
481.5413009261
 11
325.7725533094
 21
482.0414196154
  0
LINE
  8
0
 62
7
  6
CONTINUOUS
 10
323.6599078678
 20
478.0865315526
 11
323.214480614
 21
478.0004652186
  0
LINE
  8
0
 62
7
  6
CONTINUOUS
 10
323.0766659471
 20
477.364811087
 11
323.8022045693
 21
477.4691758177
  0
LINE
  8
0
 62
7
  6
CONTINUOUS
 10
263.9719779376
 20
491.1255190711
 11
264.3348356772
 21
490.853219303
  0
LINE
  8
0
 62
7
  6
CONTINUOUS
 10
271.5934809463
 20
493.9898943847
 11
271.2387113004
 21
494.2726510834
  0
LINE
  8
0
 62
7
  6
CONTINUOUS
 10
298.4562165899
 20
491.3802985535
 11
298.0580343108
 21
491.8682785674
  0
LINE
  8
0
 62
7
  6
CONTINUOUS
 10
321.2767235738
 20
478.5574988639
 11
321.6991309781
 21
477.958441788
  0
LINE
  8
0
 62
7
  6
CONTINUOUS
 10
322.0665345875
 20
478.4951575637
 11
321.8231943568
 21
478.8780392483
  0
LINE
  8
0
 62
7
  6
CONTINUOUS
 10
297.6534923963
 20
489.077834607
 11
297.926198535
 21
489.1443874329
  0
LINE
  8
0
 62
7
  6
CONTINUOUS
 10
317.9016517606
 20
484.7272111105
 11
318.3439219413
 21
484.828255356
  0
LINE
  8
0
 62
7
  6
CONTINUOUS
 10
265.3279043833
 20
490.6796924451
 11
265.8332475792
 21
490.7842156535
  0
LINE
  8
0
 62
7
  6
CONTINUOUS
 10
265.8567381855
 20
491.29431337
 11
265.3513949881
 21
491.1897901282
  0
LINE
  8
0
 62
7
  6
CONTINUOUS
 10
323.3893690332
 20
482.5123869676
 11
323.834796287
 21
482.5984533017
  0
LINE
  8
0
 62
7
  6
CONTINUOUS
 10
323.9726102661
 20
483.2341076445
 11
323.247072314
 21
483.1297426615
  0
LINE
  8
0
 62
7
  6
CONTINUOUS
 10
318.4602132513
 20
485.4681970899
 11
317.9015449706
 21
485.4127211981
  0
LINE
  8
0
 62
7
  6
CONTINUOUS
 10
296.7880315451
 20
487.0526368374
 11
296.3936978423
 21
487.0149155711
  0
LINE
  8
0
 62
7
  6
CONTINUOUS
 10
297.4063859081
 20
489.6611996664
 11
297.0120522053
 21
489.6234784001
  0
LINE
  8
0
 62
7
  6
CONTINUOUS
 10
264.3348356772
 20
490.853219303
 11
264.82843366
 21
490.7026936657
  0
LINE
  8
0
 62
7
  6
CONTINUOUS
 10
271.2387113004
 20
494.2726510834
 11
270.8743558213
 21
494.428108627
  0
LINE
  8
0
 62
7
  6
CONTINUOUS
 10
264.8519242648
 20
491.2127913488
 11
264.3641989341
 21
491.4908414291
  0
LINE
  8
0
 62
7
  6
CONTINUOUS
 10
270.8264266548
 20
493.7916128519
 11
271.0661347921
 21
493.6455414557
  0
LINE
  8
0
 62
7
  6
CONTINUOUS
 10
296.8353795478
 20
488.8781748093
 11
297.1708223648
 21
488.6674615453
  0
LINE
  8
0
 62
7
  6
CONTINUOUS
 10
297.8673076492
 20
488.8959529026
 11
297.6534923963
 21
489.077834607
  0
LINE
  8
0
 62
7
  6
CONTINUOUS
 10
320.8114980544
 20
484.2735121284
 11
320.4389814516
 21
484.6935348821
  0
LINE
  8
0
 62
7
  6
CONTINUOUS
 10
325.7725533094
 20
482.0414196154
 11
325.3501452351
 21
482.6404769435
  0
LINE
  8
0
 62
7
  6
CONTINUOUS
 10
319.9734955917
 20
484.190298307
 11
320.2296141778
 21
483.8158438743
  0
LINE
  8
0
 62
7
  6
CONTINUOUS
 10
324.9827423134
 20
482.1037609565
 11
325.2260825441
 21
481.720879272
  0
LINE
  8
0
 62
7
  6
CONTINUOUS
 10
269.8292493462
 20
493.8667019242
 11
270.3374238338
 21
493.9564565431
  0
LINE
  8
0
 62
7
  6
CONTINUOUS
 10
270.375767167
 20
494.4656531631
 11
269.8675926793
 21
494.3758985442
  0
LINE
  8
0
 62
7
  6
CONTINUOUS
 10
296.0953976002
 20
486.2984434529
 11
296.7329892175
 21
486.2785009508
  0
LINE
  8
0
 62
7
  6
CONTINUOUS
 10
264.82843366
 20
490.7026936657
 11
265.3279043833
 21
490.6796924451
  0
LINE
  8
0
 62
7
  6
CONTINUOUS
 10
266.7014486492
 20
490.6164390987
 11
267.325787098
 21
490.5876875709
  0
LINE
  8
0
 62
7
  6
CONTINUOUS
 10
265.3513949881
 20
491.1897901282
 11
264.8519242648
 21
491.2127913488
  0
LINE
  8
0
 62
7
  6
CONTINUOUS
 10
267.2639764849
 20
494.6799696496
 11
266.6396380361
 21
494.7087211774
  0
LINE
  8
0
 62
7
  6
CONTINUOUS
 10
264.1422848214
 20
494.8237272619
 11
263.5179465066
 21
494.8524787836
  0
LINE
  8
0
 62
7
  6
CONTINUOUS
 10
268.3239608978
 20
490.5234856687
 11
268.9471965374
 21
490.476555012
  0
LINE
  8
0
 62
7
  6
CONTINUOUS
 10
271.190844412
 20
490.30760468
 11
271.814079695
 21
490.2606740502
  0
LINE
  8
0
 62
7
  6
CONTINUOUS
 10
270.8743558213
 20
494.428108627
 11
270.375767167
 21
494.4656531631
  0
LINE
  8
0
 62
7
  6
CONTINUOUS
 10
269.2539432296
 20
494.5501283291
 11
268.63070759
 21
494.5970589858
  0
LINE
  8
0
 62
7
  6
CONTINUOUS
 10
272.8094129628
 20
490.1627612098
 11
273.4316565504
 21
490.1041299921
  0
LINE
  8
0
 62
7
  6
CONTINUOUS
 10
273.8148803029
 20
494.1712214171
 11
273.1926367153
 21
494.2298526347
  0
LINE
  8
0
 62
7
  6
CONTINUOUS
 10
273.312394161
 20
495.5008189498
 11
273.9346377486
 21
495.4421877321
  0
LINE
  8
0
 62
7
  6
CONTINUOUS
 10
273.9945164546
 20
496.0776707117
 11
273.3722728671
 21
496.1363019293
  0
LINE
  8
0
 62
7
  6
CONTINUOUS
 10
280.3858080086
 20
489.3033734222
 11
281.1269150928
 21
489.1882200908
  0
LINE
  8
0
 62
7
  6
CONTINUOUS
 10
284.585414348
 20
488.6508379508
 11
285.3265214322
 21
488.5356846193
  0
LINE
  8
0
 62
7
  6
CONTINUOUS
 10
281.8561928151
 20
490.6252019128
 11
284.3265502337
 21
490.2413574015
  0
LINE
  8
0
 62
7
  6
CONTINUOUS
 10
284.2814337028
 20
490.7651332564
 11
282.0581124502
 21
491.1105932506
  0
LINE
  8
0
 62
7
  6
CONTINUOUS
 10
284.2714629968
 20
494.7716167702
 11
283.2833197467
 21
494.9251546187
  0
LINE
  8
0
 62
7
  6
CONTINUOUS
 10
318.3439219413
 20
484.828255356
 11
318.9724505067
 21
484.7192881921
  0
LINE
  8
0
 62
7
  6
CONTINUOUS
 10
286.3137863296
 20
488.372179574
 11
287.0497134513
 21
488.227572273
  0
LINE
  8
0
 62
7
  6
CONTINUOUS
 10
288.7668772032
 20
487.8901551454
 11
289.7481124297
 21
487.6973455945
  0
LINE
  8
0
 62
7
  6
CONTINUOUS
 10
291.465274778
 20
487.3599287427
 11
292.2012018997
 21
487.2153214417
  0
LINE
  8
0
 62
7
  6
CONTINUOUS
 10
293.3580603079
 20
493.1027384155
 11
292.2541696253
 21
493.319649367
  0
LINE
  8
0
 62
7
  6
CONTINUOUS
 10
288.5745340167
 20
494.0426858721
 11
287.4706447377
 21
494.2595965478
  0
LINE
  8
0
 62
7
  6
CONTINUOUS
 10
323.214480614
 20
478.0004652186
 11
322.5899855166
 21
478.130574528
  0
LINE
  8
0
 62
7
  6
CONTINUOUS
 10
323.834796287
 20
482.5984533017
 11
324.4592907275
 21
482.4683442753
  0
LINE
  8
0
 62
7
  6
CONTINUOUS
 10
319.3215380168
 20
485.2680932187
 11
318.4602132513
 21
485.4681970899
  0
LINE
  8
0
 62
7
  6
CONTINUOUS
 10
293.1762915213
 20
486.9904114438
 11
296.0953976002
 21
486.2984434529
  0
LINE
  8
0
 62
7
  6
CONTINUOUS
 10
296.3936978423
 20
487.0149155711
 11
294.0827407191
 21
487.5627231239
  0
LINE
  8
0
 62
7
  6
CONTINUOUS
 10
294.5244224247
 20
489.4259823621
 11
296.8353795478
 21
488.8781748093
  0
LINE
  8
0
 62
7
  6
CONTINUOUS
 10
297.0120522053
 20
489.6234784001
 11
294.7010950821
 21
490.1712859529
  0
LINE
  8
0
 62
7
  6
CONTINUOUS
 10
295.1133313653
 20
491.9103280129
 11
297.4242884885
 21
491.3625204601
  0
LINE
  8
0
 62
7
  6
CONTINUOUS
 10
297.4793335819
 20
492.1366556106
 11
294.5602275031
 21
492.8286236015
  0
LINE
  8
0
 62
7
  6
CONTINUOUS
 10
322.3373767024
 20
477.5443894226
 11
323.0766659471
 21
477.364811087
  0
LINE
  8
0
 62
7
  6
CONTINUOUS
 10
324.7118995063
 20
483.0545292986
 11
323.9726102661
 21
483.2341076445
  0
LINE
  8
0
 62
7
  6
CONTINUOUS
 10
270.3374238338
 20
493.9564565431
 11
270.8264266548
 21
493.7916128519
  0
LINE
  8
0
 62
7
  6
CONTINUOUS
 10
310.1446968587
 20
482.2490531375
 11
314.8550748795
 21
480.5720473419
  0
LINE
  8
0
 62
7
  6
CONTINUOUS
 10
315.1119778453
 20
481.2936370269
 11
311.1081536977
 21
482.7190929608
  0
LINE
  8
0
 62
7
  6
CONTINUOUS
 10
311.9430176498
 20
487.3001810169
 11
316.0645967334
 21
485.8328015455
  0
LINE
  8
0
 62
7
  6
CONTINUOUS
 10
316.8674814504
 20
486.2244998886
 11
312.1571034297
 21
487.9015056843
  0
LINE
  8
0
 62
7
  6
CONTINUOUS
 10
315.1554884024
 20
480.4556452597
 11
319.3458210031
 21
478.8151841367
  0
LINE
  8
0
 62
7
  6
CONTINUOUS
 10
319.5785105289
 20
479.4095575677
 11
316.3193629784
 21
480.6854717636
  0
LINE
  8
0
 62
7
  6
CONTINUOUS
 10
316.9472511458
 20
484.6895656631
 11
317.5292417814
 21
484.4617238418
  0
LINE
  8
0
 62
7
  6
CONTINUOUS
 10
318.9724505067
 20
484.7192881921
 11
319.4380429069
 21
484.5370147774
  0
LINE
  8
0
 62
7
  6
CONTINUOUS
 10
319.7871305834
 20
485.0858197388
 11
319.3215380168
 21
485.2680932187
  0
LINE
  8
0
 62
7
  6
CONTINUOUS
 10
298.0580343108
 20
491.8682785674
 11
297.4793335819
 21
492.1366556106
  0
LINE
  8
0
 62
7
  6
CONTINUOUS
 10
320.4389814516
 20
484.6935348821
 11
319.7871305834
 21
485.0858197388
  0
LINE
  8
0
 62
7
  6
CONTINUOUS
 10
297.4242884885
 20
491.3625204601
 11
297.7597313055
 21
491.1518071961
  0
LINE
  8
0
 62
7
  6
CONTINUOUS
 10
319.4380429069
 20
484.5370147774
 11
319.9734955917
 21
484.190298307
  0
LINE
  8
0
 62
7
  6
CONTINUOUS
 10
321.6991309781
 20
477.958441788
 11
322.3373767024
 21
477.5443894226
  0
LINE
  8
0
 62
7
  6
CONTINUOUS
 10
325.3501452351
 20
482.6404769435
 11
324.7118995063
 21
483.0545292986
  0
LINE
  8
0
 62
7
  6
CONTINUOUS
 10
322.5899855166
 20
478.130574528
 11
322.0665345875
 21
478.4951575637
  0
LINE
  8
0
 62
7
  6
CONTINUOUS
 10
324.4592907275
 20
482.4683442753
 11
324.9827423134
 21
482.1037609565
  0
LINE
  8
0
 62
7
  6
CONTINUOUS
 10
440.4068055256
 20
332.3486873946
 11
440.4068055256
 21
358.3522560529
  0
LINE
  8
0
 62
7
  6
CONTINUOUS
 10
454.4600168003
 20
323.4298238667
 11
453.8379676586
 21
311.6103768339
  0
LINE
  8
0
 62
7
  6
CONTINUOUS
 10
432.8603102066
 20
275.70912846
 11
440.8958548364
 21
300.4399918793
  0
LINE
  8
0
 62
7
  6
CONTINUOUS
 10
443.4696279636
 20
262.8841040743
 11
439.2256140767
 21
251.8353657109
  0
LINE
  8
0
 62
7
  6
CONTINUOUS
 10
408.1805803935
 20
224.1737021566
 11
423.4650945578
 21
245.2110311156
  0
LINE
  8
0
 62
7
  6
CONTINUOUS
 10
414.3074906913
 20
208.6979196574
 11
406.8569457082
 21
199.5014174554
  0
LINE
  8
0
 62
7
  6
CONTINUOUS
 10
368.7834399942
 20
182.7870550796
 11
389.8207689532
 21
198.0715692439
  0
LINE
  8
0
 62
7
  6
CONTINUOUS
 10
369.8281981642
 20
166.1753918839
 11
359.9004333389
 21
159.7313435547
  0
LINE
  8
0
 62
7
  6
CONTINUOUS
 10
318.5253556071
 20
155.6004006026
 11
343.2562190265
 21
163.6359452324
  0
LINE
  8
0
 62
7
  6
CONTINUOUS
 10
201.2733212776
 20
516.2255900616
 11
212.7065071532
 21
519.2863961692
  0
LINE
  8
0
 62
7
  6
CONTINUOUS
 10
253.3330760172
 20
510.4295542196
 11
227.329507359
 21
510.4295542196
  0
LINE
  8
0
 62
7
  6
CONTINUOUS
 10
262.2519395452
 20
524.4827654943
 11
274.071386578
 21
523.8607163526
  0
LINE
  8
0
 62
7
  6
CONTINUOUS
 10
309.9726349519
 20
502.8830589005
 11
285.2417715325
 21
510.9186035303
  0
LINE
  8
0
 62
7
  6
CONTINUOUS
 10
322.7976593375
 20
513.4923766575
 11
333.846397701
 21
509.2483627706
  0
LINE
  8
0
 62
7
  6
CONTINUOUS
 10
361.5080612552
 20
478.2033290874
 11
340.4707322963
 21
493.4878432517
  0
LINE
  8
0
 62
7
  6
CONTINUOUS
 10
376.9838437545
 20
484.3302393852
 11
386.1803459565
 21
476.8796944021
  0
LINE
  8
0
 62
7
  6
CONTINUOUS
 10
402.8947083322
 20
438.8061886882
 11
387.6101941679
 21
459.8435176471
  0
LINE
  8
0
 62
7
  6
CONTINUOUS
 10
419.506371528
 20
439.8509468582
 11
425.9504198571
 21
429.9231820328
  0
LINE
  8
0
 62
7
  6
CONTINUOUS
 10
430.0813628093
 20
388.5481043011
 11
422.0458181795
 21
413.2789677205
  0
LINE
  8
0
 62
7
  6
CONTINUOUS
 10
446.2028413676
 20
384.4084421343
 11
449.2636474752
 21
372.9752562586
  0
LINE
  8
0
 62
7
  6
CONTINUOUS
 10
650.7169268704
 20
121.6654896606
 11
658.8439165031
 21
121.6654896606
  0
LINE
  8
0
 62
7
  6
CONTINUOUS
 10
676.1169268704
 20
121.6654896606
 11
684.2439165031
 21
121.6654896606
  0
LINE
  8
0
 62
9
  6
CONTINUOUS
 10
684.2798114232
 20
122.5609611973
 11
676.0810319503
 21
122.5609611973
  0
LINE
  8
0
 62
9
  6
CONTINUOUS
 10
658.8798114232
 20
122.5609611973
 11
650.6810319503
 21
122.5609611973
  0
LINE
  8
0
 62
9
  6
CONTINUOUS
 10
684.6362967741
 20
130.8181957005
 11
675.7245465994
 21
130.8181957005
  0
LINE
  8
0
 62
9
  6
CONTINUOUS
 10
659.2362967741
 20
130.8181957005
 11
650.3245465994
 21
130.8181957005
  0
LINE
  8
0
 62
7
  6
CONTINUOUS
 10
684.2469628688
 20
136.1081505504
 11
676.1138805047
 21
136.1081505504
  0
LINE
  8
0
 62
7
  6
CONTINUOUS
 10
658.8469628688
 20
136.1081505504
 11
650.7138805047
 21
136.1081505504
  0
LINE
  8
0
 62
9
  6
CONTINUOUS
 10
684.2798114232
 20
137.3160621904
 11
676.0810319503
 21
137.3160621904
  0
LINE
  8
0
 62
9
  6
CONTINUOUS
 10
658.8798114232
 20
137.3160621904
 11
650.6810319503
 21
137.3160621904
  0
LINE
  8
0
 62
9
  6
CONTINUOUS
 10
684.6362967741
 20
145.4373455484
 11
675.7245465994
 21
145.4373455484
  0
LINE
  8
0
 62
9
  6
CONTINUOUS
 10
659.2362967741
 20
145.4373455484
 11
650.3245465994
 21
145.4373455484
  0
LINE
  8
0
 62
7
  6
CONTINUOUS
 10
675.6804216867
 20
150.8522560529
 11
659.2804216867
 21
150.8522560529
  0
LINE
  8
0
 62
7
  6
CONTINUOUS
 10
644.4804216867
 20
150.8522560529
 11
650.2804216867
 21
150.8522560529
  0
LINE
  8
0
 62
7
  6
CONTINUOUS
 10
684.6804216867
 20
150.8522560529
 11
690.4804216867
 21
150.8522560529
  0
LINE
  8
0
 62
9
  6
CONTINUOUS
 10
684.6804216867
 20
162.2166688541
 11
675.6804216867
 21
162.2166688541
  0
LINE
  8
0
 62
9
  6
CONTINUOUS
 10
659.2804216867
 20
162.2166688541
 11
650.2804216867
 21
162.2166688541
  0
LINE
  8
0
 62
7
  6
CONTINUOUS
 10
650.6117761267
 20
168.5453937342
 11
658.9490672468
 21
168.5453937342
  0
LINE
  8
0
 62
7
  6
CONTINUOUS
 10
676.0117761267
 20
168.5453937342
 11
684.3490672468
 21
168.5453937342
  0
LINE
  8
0
 62
9
  6
CONTINUOUS
 10
684.2469628688
 20
169.271215386
 11
676.1138805047
 21
169.271215386
  0
LINE
  8
0
 62
9
  6
CONTINUOUS
 10
658.8469628688
 20
169.271215386
 11
650.7138805047
 21
169.271215386
  0
LINE
  8
0
 62
9
  6
CONTINUOUS
 10
684.2798114232
 20
170.7221733825
 11
676.0810319503
 21
170.7221733825
  0
LINE
  8
0
 62
9
  6
CONTINUOUS
 10
658.8798114232
 20
170.7221733825
 11
650.6810319503
 21
170.7221733825
  0
LINE
  8
0
 62
9
  6
CONTINUOUS
 10
684.6362967741
 20
177.9125377959
 11
675.7245465994
 21
177.9125377959
  0
LINE
  8
0
 62
9
  6
CONTINUOUS
 10
659.2362967741
 20
177.9125377959
 11
650.3245465994
 21
177.9125377959
  0
POLYLINE
  8
0
 62
7
  6
CONTINUOUS
 66
1
 70
0
  0
VERTEX
  8
0
 62
7
  6
CONTINUOUS
 10
650.6117768555
 20
168.5453937342
  0
VERTEX
  8
0
 62
7
  6
CONTINUOUS
 10
650.595610195
 20
168.5566939147
  0
VERTEX
  8
0
 62
7
  6
CONTINUOUS
 10
650.5426694825
 20
168.7273088718
  0
VERTEX
  8
0
 62
7
  6
CONTINUOUS
 10
650.4839350523
 20
169.1008631377
  0
VERTEX
  8
0
 62
7
  6
CONTINUOUS
 10
650.4201164154
 20
169.6722187139
  0
VERTEX
  8
0
 62
7
  6
CONTINUOUS
 10
650.3519941742
 20
170.4335206079
  0
VERTEX
  8
0
 62
7
  6
CONTINUOUS
 10
650.2804216867
 20
171.3742727206
  0
SEQEND
  0
LINE
  8
0
 62
9
  6
CONTINUOUS
 10
684.6804216867
 20
195.8609944587
 11
675.6804216867
 21
195.8609944587
  0
LINE
  8
0
 62
9
  6
CONTINUOUS
 10
659.2804216867
 20
195.8609944587
 11
650.2804216867
 21
195.8609944587
  0
POLYLINE
  8
0
 62
7
  6
CONTINUOUS
 66
1
 70
0
  0
VERTEX
  8
0
 62
7
  6
CONTINUOUS
 10
676.0117768555
 20
168.5453937342
  0
VERTEX
  8
0
 62
7
  6
CONTINUOUS
 10
675.995610195
 20
168.5566939147
  0
VERTEX
  8
0
 62
7
  6
CONTINUOUS
 10
675.9426694825
 20
168.7273088718
  0
VERTEX
  8
0
 62
7
  6
CONTINUOUS
 10
675.8839350523
 20
169.1008631377
  0
VERTEX
  8
0
 62
7
  6
CONTINUOUS
 10
675.8201164154
 20
169.6722187139
  0
VERTEX
  8
0
 62
7
  6
CONTINUOUS
 10
675.7519941742
 20
170.4335206079
  0
VERTEX
  8
0
 62
7
  6
CONTINUOUS
 10
675.6804216867
 20
171.3742727206
  0
SEQEND
  0
POLYLINE
  8
0
 62
7
  6
CONTINUOUS
 66
1
 70
0
  0
VERTEX
  8
0
 62
7
  6
CONTINUOUS
 10
658.8504291843
 20
503.2213354469
  0
VERTEX
  8
0
 62
7
  6
CONTINUOUS
 10
658.8492697425
 20
503.219957415
  0
VERTEX
  8
0
 62
7
  6
CONTINUOUS
 10
658.8455538705
 20
503.1837726017
  0
VERTEX
  8
0
 62
7
  6
CONTINUOUS
 10
658.8438948212
 20
503.1001725627
  0
VERTEX
  8
0
 62
7
  6
CONTINUOUS
 10
658.8443723381
 20
502.9732940801
  0
VERTEX
  8
0
 62
7
  6
CONTINUOUS
 10
658.8469628688
 20
502.8093784711
  0
SEQEND
  0
LINE
  8
0
 62
7
  6
CONTINUOUS
 10
650.4631798282
 20
215.1279761917
 11
659.0976635453
 21
215.1279761917
  0
LINE
  8
0
 62
7
  6
CONTINUOUS
 10
675.8631798282
 20
215.1279761917
 11
684.4976635453
 21
215.1279761917
  0
LINE
  8
0
 62
9
  6
CONTINUOUS
 10
684.2469628688
 20
217.9572973812
 11
676.1138805047
 21
217.9572973812
  0
LINE
  8
0
 62
9
  6
CONTINUOUS
 10
658.8469628688
 20
217.9572973812
 11
650.7138805047
 21
217.9572973812
  0
POLYLINE
  8
0
 62
7
  6
CONTINUOUS
 66
1
 70
0
  0
VERTEX
  8
0
 62
7
  6
CONTINUOUS
 10
684.2504291843
 20
503.2213354469
  0
VERTEX
  8
0
 62
7
  6
CONTINUOUS
 10
684.2492697425
 20
503.219957415
  0
VERTEX
  8
0
 62
7
  6
CONTINUOUS
 10
684.2455538705
 20
503.1837726017
  0
VERTEX
  8
0
 62
7
  6
CONTINUOUS
 10
684.2438948212
 20
503.1001725627
  0
VERTEX
  8
0
 62
7
  6
CONTINUOUS
 10
684.2443723381
 20
502.9732940801
  0
VERTEX
  8
0
 62
7
  6
CONTINUOUS
 10
684.2469628688
 20
502.8093784711
  0
SEQEND
  0
POLYLINE
  8
0
 62
7
  6
CONTINUOUS
 66
1
 70
0
  0
VERTEX
  8
0
 62
7
  6
CONTINUOUS
 10
650.7014799164
 20
460.9776375325
  0
VERTEX
  8
0
 62
7
  6
CONTINUOUS
 10
650.6987807204
 20
460.9745661524
  0
VERTEX
  8
0
 62
7
  6
CONTINUOUS
 10
650.6903255285
 20
460.9326747814
  0
VERTEX
  8
0
 62
7
  6
CONTINUOUS
 10
650.6810319503
 20
460.8436629362
  0
SEQEND
  0
LINE
  8
0
 62
9
  6
CONTINUOUS
 10
684.2798114232
 20
219.509271856
 11
676.0810319503
 21
219.509271856
  0
LINE
  8
0
 62
9
  6
CONTINUOUS
 10
658.8798114232
 20
219.509271856
 11
650.6810319503
 21
219.509271856
  0
LINE
  8
0
 62
9
  6
CONTINUOUS
 10
684.6362967741
 20
225.0648743578
 11
675.7245465994
 21
225.0648743578
  0
LINE
  8
0
 62
9
  6
CONTINUOUS
 10
659.2362967741
 20
225.0648743578
 11
650.3245465994
 21
225.0648743578
  0
LINE
  8
0
 62
9
  6
CONTINUOUS
 10
684.6804216867
 20
242.4255443853
 11
675.6804216867
 21
242.4255443853
  0
LINE
  8
0
 62
9
  6
CONTINUOUS
 10
659.2804216867
 20
242.4255443853
 11
650.2804216867
 21
242.4255443853
  0
POLYLINE
  8
0
 62
7
  6
CONTINUOUS
 66
1
 70
0
  0
VERTEX
  8
0
 62
7
  6
CONTINUOUS
 10
650.4631785605
 20
215.1279761917
  0
VERTEX
  8
0
 62
7
  6
CONTINUOUS
 10
650.4201164154
 20
215.1736492915
  0
VERTEX
  8
0
 62
7
  6
CONTINUOUS
 10
650.3519941742
 20
215.4127804724
  0
VERTEX
  8
0
 62
7
  6
CONTINUOUS
 10
650.2804216867
 20
215.8535652477
  0
SEQEND
  0
POLYLINE
  8
0
 62
7
  6
CONTINUOUS
 66
1
 70
0
  0
VERTEX
  8
0
 62
7
  6
CONTINUOUS
 10
650.7104141892
 20
503.2213354469
  0
VERTEX
  8
0
 62
7
  6
CONTINUOUS
 10
650.7059803312
 20
503.2069208205
  0
VERTEX
  8
0
 62
7
  6
CONTINUOUS
 10
650.6987807204
 20
503.1452700688
  0
VERTEX
  8
0
 62
7
  6
CONTINUOUS
 10
650.6903255285
 20
503.0380106827
  0
VERTEX
  8
0
 62
7
  6
CONTINUOUS
 10
650.6810319503
 20
502.8904660533
  0
SEQEND
  0
POLYLINE
  8
0
 62
7
  6
CONTINUOUS
 66
1
 70
0
  0
VERTEX
  8
0
 62
7
  6
CONTINUOUS
 10
676.1014799164
 20
460.9776375325
  0
VERTEX
  8
0
 62
7
  6
CONTINUOUS
 10
676.0987807204
 20
460.9745661524
  0
VERTEX
  8
0
 62
7
  6
CONTINUOUS
 10
676.0903255285
 20
460.9326747814
  0
VERTEX
  8
0
 62
7
  6
CONTINUOUS
 10
676.0810319503
 20
460.8436629362
  0
SEQEND
  0
POLYLINE
  8
0
 62
7
  6
CONTINUOUS
 66
1
 70
0
  0
VERTEX
  8
0
 62
7
  6
CONTINUOUS
 10
675.8631785605
 20
215.1279761917
  0
VERTEX
  8
0
 62
7
  6
CONTINUOUS
 10
675.8201164154
 20
215.1736492915
  0
VERTEX
  8
0
 62
7
  6
CONTINUOUS
 10
675.7519941742
 20
215.4127804724
  0
VERTEX
  8
0
 62
7
  6
CONTINUOUS
 10
675.6804216867
 20
215.8535652477
  0
SEQEND
  0
POLYLINE
  8
0
 62
7
  6
CONTINUOUS
 66
1
 70
0
  0
VERTEX
  8
0
 62
7
  6
CONTINUOUS
 10
650.7138037689
 20
136.108149799
  0
VERTEX
  8
0
 62
7
  6
CONTINUOUS
 10
650.6817116445
 20
136.2102437307
  0
VERTEX
  8
0
 62
7
  6
CONTINUOUS
 10
650.6421375179
 20
136.5162407778
  0
VERTEX
  8
0
 62
7
  6
CONTINUOUS
 10
650.595610195
 20
137.0219454261
  0
VERTEX
  8
0
 62
7
  6
CONTINUOUS
 10
650.5426694825
 20
137.7203898485
  0
VERTEX
  8
0
 62
7
  6
CONTINUOUS
 10
650.4839350523
 20
138.6020042966
  0
VERTEX
  8
0
 62
7
  6
CONTINUOUS
 10
650.4201164154
 20
139.6545522961
  0
VERTEX
  8
0
 62
7
  6
CONTINUOUS
 10
650.3519941742
 20
140.8635033695
  0
VERTEX
  8
0
 62
7
  6
CONTINUOUS
 10
650.2804216867
 20
142.2121354483
  0
SEQEND
  0
POLYLINE
  8
0
 62
7
  6
CONTINUOUS
 66
1
 70
0
  0
VERTEX
  8
0
 62
7
  6
CONTINUOUS
 10
658.8593634571
 20
460.9776375325
  0
VERTEX
  8
0
 62
7
  6
CONTINUOUS
 10
658.8548630423
 20
460.9672640532
  0
VERTEX
  8
0
 62
7
  6
CONTINUOUS
 10
658.8492697425
 20
460.9111662079
  0
VERTEX
  8
0
 62
7
  6
CONTINUOUS
 10
658.8455538705
 20
460.8090701388
  0
VERTEX
  8
0
 62
7
  6
CONTINUOUS
 10
658.8438948212
 20
460.6660225174
  0
VERTEX
  8
0
 62
7
  6
CONTINUOUS
 10
658.8443723381
 20
460.4890855063
  0
VERTEX
  8
0
 62
7
  6
CONTINUOUS
 10
658.8469628688
 20
460.2869575753
  0
SEQEND
  0
LINE
  8
0
 62
9
  6
CONTINUOUS
 10
650.2804216867
 20
267.1564078047
 11
659.2804216867
 21
267.1564078047
  0
LINE
  8
0
 62
9
  6
CONTINUOUS
 10
675.6804216867
 20
267.1564078047
 11
684.6804216867
 21
267.1564078047
  0
LINE
  8
0
 62
9
  6
CONTINUOUS
 10
650.2804216867
 20
268.9822520108
 11
659.2804216867
 21
268.9822520108
  0
LINE
  8
0
 62
9
  6
CONTINUOUS
 10
675.6804216867
 20
268.9822520108
 11
684.6804216867
 21
268.9822520108
  0
LINE
  8
0
 62
7
  6
CONTINUOUS
 10
650.2805874623
 20
271.2960694406
 11
659.2802559111
 21
271.2960694406
  0
LINE
  8
0
 62
7
  6
CONTINUOUS
 10
675.6805874623
 20
271.2960694406
 11
684.6802559111
 21
271.2960694406
  0
POLYLINE
  8
0
 62
7
  6
CONTINUOUS
 66
1
 70
0
  0
VERTEX
  8
0
 62
7
  6
CONTINUOUS
 10
676.1104141892
 20
503.2213354469
  0
VERTEX
  8
0
 62
7
  6
CONTINUOUS
 10
676.1059803312
 20
503.2069208205
  0
VERTEX
  8
0
 62
7
  6
CONTINUOUS
 10
676.0987807204
 20
503.1452700688
  0
VERTEX
  8
0
 62
7
  6
CONTINUOUS
 10
676.0903255285
 20
503.0380106827
  0
VERTEX
  8
0
 62
7
  6
CONTINUOUS
 10
676.0810319503
 20
502.8904660533
  0
SEQEND
  0
LINE
  8
0
 62
7
  6
CONTINUOUS
 10
650.6897962818
 20
405.8005867071
 11
650.6810319503
 21
405.7787343079
  0
LINE
  8
0
 62
9
  6
CONTINUOUS
 10
684.2469628688
 20
277.4006636143
 11
676.1138805047
 21
277.4006636143
  0
LINE
  8
0
 62
9
  6
CONTINUOUS
 10
658.8469628688
 20
277.4006636143
 11
650.7138805047
 21
277.4006636143
  0
LINE
  8
0
 62
9
  6
CONTINUOUS
 10
684.2798114232
 20
278.9017364927
 11
676.0810319503
 21
278.9017364927
  0
LINE
  8
0
 62
9
  6
CONTINUOUS
 10
658.8798114232
 20
278.9017364927
 11
650.6810319503
 21
278.9017364927
  0
LINE
  8
0
 62
9
  6
CONTINUOUS
 10
684.6362967741
 20
282.2787560018
 11
675.7245465994
 21
282.2787560018
  0
LINE
  8
0
 62
9
  6
CONTINUOUS
 10
659.2362967741
 20
282.2787560018
 11
650.3245465994
 21
282.2787560018
  0
POLYLINE
  8
0
 62
7
  6
CONTINUOUS
 66
1
 70
0
  0
VERTEX
  8
0
 62
7
  6
CONTINUOUS
 10
676.1138037689
 20
136.108149799
  0
VERTEX
  8
0
 62
7
  6
CONTINUOUS
 10
676.0817116445
 20
136.2102437307
  0
VERTEX
  8
0
 62
7
  6
CONTINUOUS
 10
676.0421375179
 20
136.5162407778
  0
VERTEX
  8
0
 62
7
  6
CONTINUOUS
 10
675.995610195
 20
137.0219454261
  0
VERTEX
  8
0
 62
7
  6
CONTINUOUS
 10
675.9426694825
 20
137.7203898485
  0
VERTEX
  8
0
 62
7
  6
CONTINUOUS
 10
675.8839350523
 20
138.6020042966
  0
VERTEX
  8
0
 62
7
  6
CONTINUOUS
 10
675.8201164154
 20
139.6545522961
  0
VERTEX
  8
0
 62
7
  6
CONTINUOUS
 10
675.7519941742
 20
140.8635033695
  0
VERTEX
  8
0
 62
7
  6
CONTINUOUS
 10
675.6804216867
 20
142.2121354483
  0
SEQEND
  0
POLYLINE
  8
0
 62
7
  6
CONTINUOUS
 66
1
 70
0
  0
VERTEX
  8
0
 62
7
  6
CONTINUOUS
 10
650.7138805047
 20
121.7143347211
  0
VERTEX
  8
0
 62
7
  6
CONTINUOUS
 10
650.7164710354
 20
121.6696682573
  0
VERTEX
  8
0
 62
7
  6
CONTINUOUS
 10
650.7169268855
 20
121.6654896606
  0
SEQEND
  0
POLYLINE
  8
0
 62
7
  6
CONTINUOUS
 66
1
 70
0
  0
VERTEX
  8
0
 62
7
  6
CONTINUOUS
 10
650.7138805047
 20
121.7143347211
  0
VERTEX
  8
0
 62
7
  6
CONTINUOUS
 10
650.6817116445
 20
122.3491515943
  0
VERTEX
  8
0
 62
7
  6
CONTINUOUS
 10
650.6421375179
 20
123.1704857129
  0
SEQEND
  0
LINE
  8
0
 62
7
  6
CONTINUOUS
 10
650.6421375179
 20
123.1704857129
 11
650.5426694825
 21
125.3249026159
  0
POLYLINE
  8
0
 62
7
  6
CONTINUOUS
 66
1
 70
0
  0
VERTEX
  8
0
 62
7
  6
CONTINUOUS
 10
650.5426694825
 20
125.3249026159
  0
VERTEX
  8
0
 62
7
  6
CONTINUOUS
 10
650.4201164154
 20
128.0589883725
  0
VERTEX
  8
0
 62
7
  6
CONTINUOUS
 10
650.3519941742
 20
129.5972480711
  0
VERTEX
  8
0
 62
7
  6
CONTINUOUS
 10
650.2804216867
 20
131.2217466115
  0
SEQEND
  0
LINE
  8
0
 62
7
  6
CONTINUOUS
 10
650.4839350523
 20
529.0762334244
 11
650.3519941742
 21
526.1072640347
  0
POLYLINE
  8
0
 62
7
  6
CONTINUOUS
 66
1
 70
0
  0
VERTEX
  8
0
 62
7
  6
CONTINUOUS
 10
650.2804216867
 20
519.2863961692
  0
VERTEX
  8
0
 62
7
  6
CONTINUOUS
 10
650.6903255285
 20
527.9949443299
  0
VERTEX
  8
0
 62
7
  6
CONTINUOUS
 10
650.6987807204
 20
528.157072435
  0
VERTEX
  8
0
 62
7
  6
CONTINUOUS
 10
650.7059803312
 20
528.2816412325
  0
VERTEX
  8
0
 62
7
  6
CONTINUOUS
 10
650.711573631
 20
528.3625361541
  0
VERTEX
  8
0
 62
7
  6
CONTINUOUS
 10
650.7152895029
 20
528.3958046184
  0
VERTEX
  8
0
 62
7
  6
CONTINUOUS
 10
650.7157345348
 20
528.3965729694
  0
SEQEND
  0
POLYLINE
  8
0
 62
7
  6
CONTINUOUS
 66
1
 70
0
  0
VERTEX
  8
0
 62
7
  6
CONTINUOUS
 10
650.7138805047
 20
533.9901773847
  0
VERTEX
  8
0
 62
7
  6
CONTINUOUS
 10
650.6817116445
 20
533.3553605115
  0
VERTEX
  8
0
 62
7
  6
CONTINUOUS
 10
650.6421375179
 20
532.5340263929
  0
VERTEX
  8
0
 62
7
  6
CONTINUOUS
 10
650.595610195
 20
531.5375147712
  0
VERTEX
  8
0
 62
7
  6
CONTINUOUS
 10
650.4839350523
 20
529.0762334244
  0
SEQEND
  0
LINE
  8
0
 62
7
  6
CONTINUOUS
 10
650.6810319503
 20
502.8904660533
 11
650.2804216867
 21
495.9731685511
  0
POLYLINE
  8
0
 62
7
  6
CONTINUOUS
 66
1
 70
0
  0
VERTEX
  8
0
 62
7
  6
CONTINUOUS
 10
650.6810319503
 20
460.8436629362
  0
VERTEX
  8
0
 62
7
  6
CONTINUOUS
 10
650.2950592519
 20
456.359789957
  0
VERTEX
  8
0
 62
7
  6
CONTINUOUS
 10
650.2804216867
 20
456.2030946504
  0
SEQEND
  0
POLYLINE
  8
0
 62
7
  6
CONTINUOUS
 66
1
 70
0
  0
VERTEX
  8
0
 62
7
  6
CONTINUOUS
 10
650.7169268855
 20
534.0390224452
  0
VERTEX
  8
0
 62
7
  6
CONTINUOUS
 10
650.7164710354
 20
534.0348438485
  0
VERTEX
  8
0
 62
7
  6
CONTINUOUS
 10
650.7138805047
 20
533.9901773847
  0
SEQEND
  0
LINE
  8
0
 62
7
  6
CONTINUOUS
 10
650.6810319503
 20
405.7787343079
 11
650.3245465994
 21
404.052502241
  0
POLYLINE
  8
0
 62
7
  6
CONTINUOUS
 66
1
 70
0
  0
VERTEX
  8
0
 62
7
  6
CONTINUOUS
 10
650.3245465994
 20
404.052502241
  0
VERTEX
  8
0
 62
7
  6
CONTINUOUS
 10
650.309769832
 20
403.9842838183
  0
VERTEX
  8
0
 62
7
  6
CONTINUOUS
 10
650.2950592519
 20
403.9231563104
  0
VERTEX
  8
0
 62
7
  6
CONTINUOUS
 10
650.2804216867
 20
403.8691463949
  0
SEQEND
  0
POLYLINE
  8
0
 62
7
  6
CONTINUOUS
 66
1
 70
0
  0
VERTEX
  8
0
 62
7
  6
CONTINUOUS
 10
658.8710470917
 20
405.8005867071
  0
VERTEX
  8
0
 62
7
  6
CONTINUOUS
 10
658.8620626531
 20
405.7729230059
  0
VERTEX
  8
0
 62
7
  6
CONTINUOUS
 10
658.8548630423
 20
405.6973828361
  0
VERTEX
  8
0
 62
7
  6
CONTINUOUS
 10
658.8492697425
 20
405.5776417989
  0
VERTEX
  8
0
 62
7
  6
CONTINUOUS
 10
658.8455538705
 20
405.4196283485
  0
VERTEX
  8
0
 62
7
  6
CONTINUOUS
 10
658.8438948212
 20
405.2311356427
  0
VERTEX
  8
0
 62
7
  6
CONTINUOUS
 10
658.8443723381
 20
405.0214599305
  0
VERTEX
  8
0
 62
7
  6
CONTINUOUS
 10
658.8469628688
 20
404.8009053676
  0
SEQEND
  0
POLYLINE
  8
0
 62
7
  6
CONTINUOUS
 66
1
 70
0
  0
VERTEX
  8
0
 62
7
  6
CONTINUOUS
 10
684.2593634571
 20
460.9776375325
  0
VERTEX
  8
0
 62
7
  6
CONTINUOUS
 10
684.2548630423
 20
460.9672640532
  0
VERTEX
  8
0
 62
7
  6
CONTINUOUS
 10
684.2492697425
 20
460.9111662079
  0
VERTEX
  8
0
 62
7
  6
CONTINUOUS
 10
684.2455538705
 20
460.8090701388
  0
VERTEX
  8
0
 62
7
  6
CONTINUOUS
 10
684.2438948212
 20
460.6660225174
  0
VERTEX
  8
0
 62
7
  6
CONTINUOUS
 10
684.2443723381
 20
460.4890855063
  0
VERTEX
  8
0
 62
7
  6
CONTINUOUS
 10
684.2469628688
 20
460.2869575753
  0
SEQEND
  0
LINE
  8
0
 62
9
  6
CONTINUOUS
 10
684.6804216867
 20
297.3522560529
 11
675.6804216867
 21
297.3522560529
  0
LINE
  8
0
 62
9
  6
CONTINUOUS
 10
659.2804216867
 20
297.3522560529
 11
650.2804216867
 21
297.3522560529
  0
POLYLINE
  8
0
 62
7
  6
CONTINUOUS
 66
1
 70
0
  0
VERTEX
  8
0
 62
7
  6
CONTINUOUS
 10
650.6810319503
 20
278.9017364927
  0
VERTEX
  8
0
 62
7
  6
CONTINUOUS
 10
650.309769832
 20
282.4224147421
  0
VERTEX
  8
0
 62
7
  6
CONTINUOUS
 10
650.2950592519
 20
282.5726034567
  0
VERTEX
  8
0
 62
7
  6
CONTINUOUS
 10
650.2804216867
 20
282.7292558472
  0
SEQEND
  0
POLYLINE
  8
0
 62
7
  6
CONTINUOUS
 66
1
 70
0
  0
VERTEX
  8
0
 62
7
  6
CONTINUOUS
 10
658.8469628688
 20
169.271215386
  0
VERTEX
  8
0
 62
7
  6
CONTINUOUS
 10
658.879131729
 20
168.8305912816
  0
VERTEX
  8
0
 62
7
  6
CONTINUOUS
 10
658.9187058556
 20
168.5912981342
  0
VERTEX
  8
0
 62
7
  6
CONTINUOUS
 10
658.949066518
 20
168.5453937342
  0
SEQEND
  0
POLYLINE
  8
0
 62
7
  6
CONTINUOUS
 66
1
 70
0
  0
VERTEX
  8
0
 62
7
  6
CONTINUOUS
 10
650.6810319503
 20
219.509271856
  0
VERTEX
  8
0
 62
7
  6
CONTINUOUS
 10
650.2950592519
 20
225.5373218621
  0
VERTEX
  8
0
 62
7
  6
CONTINUOUS
 10
650.2804216867
 20
225.781330073
  0
SEQEND
  0
LINE
  8
0
 62
7
  6
CONTINUOUS
 10
650.2950592519
 20
178.5173388961
 11
650.2804216867
 21
178.8248177037
  0
LINE
  8
0
 62
7
  6
CONTINUOUS
 10
650.6903255285
 20
137.0950025494
 11
650.2804216867
 21
146.4561493352
  0
POLYLINE
  8
0
 62
7
  6
CONTINUOUS
 66
1
 70
0
  0
VERTEX
  8
0
 62
7
  6
CONTINUOUS
 10
658.8469628688
 20
217.9572973812
  0
VERTEX
  8
0
 62
7
  6
CONTINUOUS
 10
658.879131729
 20
217.0170873495
  0
VERTEX
  8
0
 62
7
  6
CONTINUOUS
 10
658.9187058556
 20
216.2559276881
  0
VERTEX
  8
0
 62
7
  6
CONTINUOUS
 10
658.9652331785
 20
215.6844019028
  0
VERTEX
  8
0
 62
7
  6
CONTINUOUS
 10
659.018173891
 20
215.3104864139
  0
VERTEX
  8
0
 62
7
  6
CONTINUOUS
 10
659.0769083212
 20
215.1394144034
  0
VERTEX
  8
0
 62
7
  6
CONTINUOUS
 10
659.097664813
 20
215.1279761917
  0
SEQEND
  0
LINE
  8
0
 62
7
  6
CONTINUOUS
 10
642.4804216867
 20
502.8522560529
 11
642.4804216867
 21
152.8522560529
  0
LINE
  8
0
 62
9
  6
CONTINUOUS
 10
644.4804216867
 20
504.8522560529
 11
644.4804216867
 21
150.8522560529
  0
LINE
  8
0
 62
7
  6
CONTINUOUS
 10
650.2804216867
 20
131.2217466115
 11
650.2804216867
 21
524.4827654943
  0
POLYLINE
  8
0
 62
7
  6
CONTINUOUS
 66
1
 70
0
  0
VERTEX
  8
0
 62
7
  6
CONTINUOUS
 10
650.7169268855
 20
121.6654896606
  0
VERTEX
  8
0
 62
7
  6
CONTINUOUS
 10
650.7169485523
 20
121.6740502722
  0
VERTEX
  8
0
 62
7
  6
CONTINUOUS
 10
650.7152895029
 20
121.7272752734
  0
VERTEX
  8
0
 62
7
  6
CONTINUOUS
 10
650.711573631
 20
121.8267404661
  0
VERTEX
  8
0
 62
7
  6
CONTINUOUS
 10
650.2804216867
 20
131.8437957532
  0
SEQEND
  0
POLYLINE
  8
0
 62
7
  6
CONTINUOUS
 66
1
 70
0
  0
VERTEX
  8
0
 62
7
  6
CONTINUOUS
 10
650.7138805047
 20
404.8009053676
  0
VERTEX
  8
0
 62
7
  6
CONTINUOUS
 10
650.7164710354
 20
405.0214599305
  0
VERTEX
  8
0
 62
7
  6
CONTINUOUS
 10
650.7169485523
 20
405.2311356427
  0
VERTEX
  8
0
 62
7
  6
CONTINUOUS
 10
650.7152895029
 20
405.4196283485
  0
VERTEX
  8
0
 62
7
  6
CONTINUOUS
 10
650.711573631
 20
405.5776417989
  0
VERTEX
  8
0
 62
7
  6
CONTINUOUS
 10
650.7059803312
 20
405.6973828361
  0
VERTEX
  8
0
 62
7
  6
CONTINUOUS
 10
650.6987807204
 20
405.7729230059
  0
VERTEX
  8
0
 62
7
  6
CONTINUOUS
 10
650.6897962818
 20
405.8005867071
  0
SEQEND
  0
POLYLINE
  8
0
 62
7
  6
CONTINUOUS
 66
1
 70
0
  0
VERTEX
  8
0
 62
7
  6
CONTINUOUS
 10
650.7138805047
 20
341.7825832323
  0
VERTEX
  8
0
 62
7
  6
CONTINUOUS
 10
650.7164710354
 20
341.9999750097
  0
VERTEX
  8
0
 62
7
  6
CONTINUOUS
 10
650.7169485523
 20
342.2218649033
  0
VERTEX
  8
0
 62
7
  6
CONTINUOUS
 10
650.7152895029
 20
342.4373517142
  0
VERTEX
  8
0
 62
7
  6
CONTINUOUS
 10
650.711573631
 20
342.6358150885
  0
VERTEX
  8
0
 62
7
  6
CONTINUOUS
 10
650.7059803312
 20
342.8074782306
  0
VERTEX
  8
0
 62
7
  6
CONTINUOUS
 10
650.6987807204
 20
342.9438620728
  0
VERTEX
  8
0
 62
7
  6
CONTINUOUS
 10
650.6903255285
 20
343.0382085156
  0
VERTEX
  8
0
 62
7
  6
CONTINUOUS
 10
650.6810319503
 20
343.0858190422
  0
SEQEND
  0
POLYLINE
  8
0
 62
7
  6
CONTINUOUS
 66
1
 70
0
  0
VERTEX
  8
0
 62
7
  6
CONTINUOUS
 10
650.7138805047
 20
460.2869575753
  0
VERTEX
  8
0
 62
7
  6
CONTINUOUS
 10
650.7164710354
 20
460.4890855063
  0
VERTEX
  8
0
 62
7
  6
CONTINUOUS
 10
650.7169485523
 20
460.6660225174
  0
VERTEX
  8
0
 62
7
  6
CONTINUOUS
 10
650.7152895029
 20
460.8090701388
  0
VERTEX
  8
0
 62
7
  6
CONTINUOUS
 10
650.711573631
 20
460.9111662079
  0
VERTEX
  8
0
 62
7
  6
CONTINUOUS
 10
650.7059803312
 20
460.9672640532
  0
VERTEX
  8
0
 62
7
  6
CONTINUOUS
 10
650.7014799164
 20
460.9776375325
  0
SEQEND
  0
POLYLINE
  8
0
 62
7
  6
CONTINUOUS
 66
1
 70
0
  0
VERTEX
  8
0
 62
7
  6
CONTINUOUS
 10
650.7138805047
 20
277.4006636143
  0
VERTEX
  8
0
 62
7
  6
CONTINUOUS
 10
650.7164710354
 20
277.5936127844
  0
VERTEX
  8
0
 62
7
  6
CONTINUOUS
 10
650.7169485523
 20
277.8059967307
  0
VERTEX
  8
0
 62
7
  6
CONTINUOUS
 10
650.7152895029
 20
278.0273842963
  0
VERTEX
  8
0
 62
7
  6
CONTINUOUS
 10
650.711573631
 20
278.2468706166
  0
VERTEX
  8
0
 62
7
  6
CONTINUOUS
 10
650.7059803312
 20
278.4536522791
  0
VERTEX
  8
0
 62
7
  6
CONTINUOUS
 10
650.6987807204
 20
278.637529593
  0
VERTEX
  8
0
 62
7
  6
CONTINUOUS
 10
650.6903255285
 20
278.7894099283
  0
VERTEX
  8
0
 62
7
  6
CONTINUOUS
 10
650.6810319503
 20
278.9017364927
  0
SEQEND
  0
POLYLINE
  8
0
 62
7
  6
CONTINUOUS
 66
1
 70
0
  0
VERTEX
  8
0
 62
7
  6
CONTINUOUS
 10
650.7138805047
 20
502.8093784711
  0
VERTEX
  8
0
 62
7
  6
CONTINUOUS
 10
650.7164710354
 20
502.9732940801
  0
VERTEX
  8
0
 62
7
  6
CONTINUOUS
 10
650.7169485523
 20
503.1001725627
  0
VERTEX
  8
0
 62
7
  6
CONTINUOUS
 10
650.7152895029
 20
503.1837726017
  0
VERTEX
  8
0
 62
7
  6
CONTINUOUS
 10
650.711573631
 20
503.219957415
  0
VERTEX
  8
0
 62
7
  6
CONTINUOUS
 10
650.7104141892
 20
503.2213354469
  0
SEQEND
  0
POLYLINE
  8
0
 62
7
  6
CONTINUOUS
 66
1
 70
0
  0
VERTEX
  8
0
 62
7
  6
CONTINUOUS
 10
650.7138805047
 20
217.9572973812
  0
VERTEX
  8
0
 62
7
  6
CONTINUOUS
 10
650.7164710354
 20
218.1069167348
  0
VERTEX
  8
0
 62
7
  6
CONTINUOUS
 10
650.7169485523
 20
218.2890051134
  0
VERTEX
  8
0
 62
7
  6
CONTINUOUS
 10
650.7152895029
 20
218.4946224762
  0
VERTEX
  8
0
 62
7
  6
CONTINUOUS
 10
650.711573631
 20
218.7136468922
  0
VERTEX
  8
0
 62
7
  6
CONTINUOUS
 10
650.7059803312
 20
218.9353058454
  0
VERTEX
  8
0
 62
7
  6
CONTINUOUS
 10
650.6987807204
 20
219.1486774384
  0
VERTEX
  8
0
 62
7
  6
CONTINUOUS
 10
650.6903255285
 20
219.3432245606
  0
VERTEX
  8
0
 62
7
  6
CONTINUOUS
 10
650.6810319503
 20
219.509271856
  0
SEQEND
  0
POLYLINE
  8
0
 62
7
  6
CONTINUOUS
 66
1
 70
0
  0
VERTEX
  8
0
 62
7
  6
CONTINUOUS
 10
650.7138805047
 20
404.8009053676
  0
VERTEX
  8
0
 62
7
  6
CONTINUOUS
 10
650.6817116445
 20
403.0608053131
  0
VERTEX
  8
0
 62
7
  6
CONTINUOUS
 10
650.6421375179
 20
401.3446743472
  0
VERTEX
  8
0
 62
7
  6
CONTINUOUS
 10
650.595610195
 20
399.6762938698
  0
VERTEX
  8
0
 62
7
  6
CONTINUOUS
 10
650.5426694825
 20
398.0788245685
  0
VERTEX
  8
0
 62
7
  6
CONTINUOUS
 10
650.4839350523
 20
396.5743412933
  0
VERTEX
  8
0
 62
7
  6
CONTINUOUS
 10
650.4201164154
 20
395.1838771269
  0
VERTEX
  8
0
 62
7
  6
CONTINUOUS
 10
650.3519941742
 20
393.9267329912
  0
VERTEX
  8
0
 62
7
  6
CONTINUOUS
 10
650.2804216867
 20
392.8204080315
  0
SEQEND
  0
POLYLINE
  8
0
 62
7
  6
CONTINUOUS
 66
1
 70
0
  0
VERTEX
  8
0
 62
7
  6
CONTINUOUS
 10
650.7138805047
 20
460.2869575753
  0
VERTEX
  8
0
 62
7
  6
CONTINUOUS
 10
650.6817116445
 20
458.6004755516
  0
VERTEX
  8
0
 62
7
  6
CONTINUOUS
 10
650.6421375179
 20
456.873779726
  0
VERTEX
  8
0
 62
7
  6
CONTINUOUS
 10
650.595610195
 20
455.1307842708
  0
VERTEX
  8
0
 62
7
  6
CONTINUOUS
 10
650.5426694825
 20
453.3956694861
  0
VERTEX
  8
0
 62
7
  6
CONTINUOUS
 10
650.4839350523
 20
451.6923870166
  0
VERTEX
  8
0
 62
7
  6
CONTINUOUS
 10
650.4201164154
 20
450.0447217913
  0
VERTEX
  8
0
 62
7
  6
CONTINUOUS
 10
650.3519941742
 20
448.475520242
  0
VERTEX
  8
0
 62
7
  6
CONTINUOUS
 10
650.2804216867
 20
447.0065924484
  0
SEQEND
  0
POLYLINE
  8
0
 62
7
  6
CONTINUOUS
 66
1
 70
0
  0
VERTEX
  8
0
 62
7
  6
CONTINUOUS
 10
650.7138805047
 20
341.7825832323
  0
VERTEX
  8
0
 62
7
  6
CONTINUOUS
 10
650.6817116445
 20
340.1591982641
  0
VERTEX
  8
0
 62
7
  6
CONTINUOUS
 10
650.6421375179
 20
338.621619014
  0
VERTEX
  8
0
 62
7
  6
CONTINUOUS
 10
650.595610195
 20
337.1911662197
  0
VERTEX
  8
0
 62
7
  6
CONTINUOUS
 10
650.5426694825
 20
335.8877138273
  0
VERTEX
  8
0
 62
7
  6
CONTINUOUS
 10
650.4839350523
 20
334.7292990518
  0
VERTEX
  8
0
 62
7
  6
CONTINUOUS
 10
650.4201164154
 20
333.7321442649
  0
VERTEX
  8
0
 62
7
  6
CONTINUOUS
 10
650.3519941742
 20
332.9101155698
  0
VERTEX
  8
0
 62
7
  6
CONTINUOUS
 10
650.2804216867
 20
332.2746882391
  0
SEQEND
  0
POLYLINE
  8
0
 62
7
  6
CONTINUOUS
 66
1
 70
0
  0
VERTEX
  8
0
 62
7
  6
CONTINUOUS
 10
650.7138805047
 20
502.8093784711
  0
VERTEX
  8
0
 62
7
  6
CONTINUOUS
 10
650.6817116445
 20
501.3415990893
  0
VERTEX
  8
0
 62
7
  6
CONTINUOUS
 10
650.6421375179
 20
499.7733594218
  0
VERTEX
  8
0
 62
7
  6
CONTINUOUS
 10
650.595610195
 20
498.1263655283
  0
VERTEX
  8
0
 62
7
  6
CONTINUOUS
 10
650.5426694825
 20
496.4234503844
  0
VERTEX
  8
0
 62
7
  6
CONTINUOUS
 10
650.4839350523
 20
494.6880978763
  0
VERTEX
  8
0
 62
7
  6
CONTINUOUS
 10
650.4201164154
 20
492.9445165442
  0
VERTEX
  8
0
 62
7
  6
CONTINUOUS
 10
650.3519941742
 20
491.2168619623
  0
VERTEX
  8
0
 62
7
  6
CONTINUOUS
 10
650.2804216867
 20
489.5291202219
  0
SEQEND
  0
POLYLINE
  8
0
 62
7
  6
CONTINUOUS
 66
1
 70
0
  0
VERTEX
  8
0
 62
7
  6
CONTINUOUS
 10
650.7138805047
 20
277.4006636143
  0
VERTEX
  8
0
 62
7
  6
CONTINUOUS
 10
650.6817116445
 20
276.052901964
  0
VERTEX
  8
0
 62
7
  6
CONTINUOUS
 10
650.6421375179
 20
274.8443833996
  0
VERTEX
  8
0
 62
7
  6
CONTINUOUS
 10
650.595610195
 20
273.7918809745
  0
VERTEX
  8
0
 62
7
  6
CONTINUOUS
 10
650.5426694825
 20
272.9100364929
  0
VERTEX
  8
0
 62
7
  6
CONTINUOUS
 10
650.4839350523
 20
272.2110839263
  0
VERTEX
  8
0
 62
7
  6
CONTINUOUS
 10
650.4201164154
 20
271.704846977
  0
VERTEX
  8
0
 62
7
  6
CONTINUOUS
 10
650.3519941742
 20
271.3983996186
  0
VERTEX
  8
0
 62
7
  6
CONTINUOUS
 10
650.2805876363
 20
271.2960694406
  0
SEQEND
  0
POLYLINE
  8
0
 62
7
  6
CONTINUOUS
 66
1
 70
0
  0
VERTEX
  8
0
 62
7
  6
CONTINUOUS
 10
650.7138805047
 20
169.271215386
  0
VERTEX
  8
0
 62
7
  6
CONTINUOUS
 10
650.7164710354
 20
169.3628591384
  0
VERTEX
  8
0
 62
7
  6
CONTINUOUS
 10
650.7169485523
 20
169.49682787
  0
VERTEX
  8
0
 62
7
  6
CONTINUOUS
 10
650.7152895029
 20
169.6665477701
  0
VERTEX
  8
0
 62
7
  6
CONTINUOUS
 10
650.711573631
 20
169.8636706459
  0
VERTEX
  8
0
 62
7
  6
CONTINUOUS
 10
650.7059803312
 20
170.0785093669
  0
VERTEX
  8
0
 62
7
  6
CONTINUOUS
 10
650.6987807204
 20
170.3004889408
  0
VERTEX
  8
0
 62
7
  6
CONTINUOUS
 10
650.6903255285
 20
170.5186592223
  0
VERTEX
  8
0
 62
7
  6
CONTINUOUS
 10
650.2950592519
 20
178.5173388961
  0
SEQEND
  0
POLYLINE
  8
0
 62
7
  6
CONTINUOUS
 66
1
 70
0
  0
VERTEX
  8
0
 62
7
  6
CONTINUOUS
 10
650.7138805047
 20
528.2057772267
  0
VERTEX
  8
0
 62
7
  6
CONTINUOUS
 10
650.6817116445
 20
527.1003769592
  0
VERTEX
  8
0
 62
7
  6
CONTINUOUS
 10
650.6421375179
 20
525.8441036752
  0
VERTEX
  8
0
 62
7
  6
CONTINUOUS
 10
650.595610195
 20
524.4543305807
  0
VERTEX
  8
0
 62
7
  6
CONTINUOUS
 10
650.5426694825
 20
522.950308277
  0
VERTEX
  8
0
 62
7
  6
CONTINUOUS
 10
650.4839350523
 20
521.3527541246
  0
VERTEX
  8
0
 62
7
  6
CONTINUOUS
 10
650.4201164154
 20
519.6839305748
  0
VERTEX
  8
0
 62
7
  6
CONTINUOUS
 10
650.3519941742
 20
517.966937828
  0
VERTEX
  8
0
 62
7
  6
CONTINUOUS
 10
650.2804216867
 20
516.2255900616
  0
SEQEND
  0
POLYLINE
  8
0
 62
7
  6
CONTINUOUS
 66
1
 70
0
  0
VERTEX
  8
0
 62
7
  6
CONTINUOUS
 10
650.7138805047
 20
217.9572973812
  0
VERTEX
  8
0
 62
7
  6
CONTINUOUS
 10
650.6817116445
 20
217.0170873495
  0
VERTEX
  8
0
 62
7
  6
CONTINUOUS
 10
650.6421375179
 20
216.2559276881
  0
VERTEX
  8
0
 62
7
  6
CONTINUOUS
 10
650.595610195
 20
215.6844019028
  0
VERTEX
  8
0
 62
7
  6
CONTINUOUS
 10
650.5426694825
 20
215.3104864139
  0
VERTEX
  8
0
 62
7
  6
CONTINUOUS
 10
650.4839350523
 20
215.1394144034
  0
VERTEX
  8
0
 62
7
  6
CONTINUOUS
 10
650.4631785605
 20
215.1279761917
  0
SEQEND
  0
LINE
  8
0
 62
7
  6
CONTINUOUS
 10
650.3519941742
 20
526.1072640347
 11
650.2804216867
 21
524.4827654943
  0
POLYLINE
  8
0
 62
7
  6
CONTINUOUS
 66
1
 70
0
  0
VERTEX
  8
0
 62
7
  6
CONTINUOUS
 10
658.8451088387
 20
528.3965729694
  0
VERTEX
  8
0
 62
7
  6
CONTINUOUS
 10
658.8438948212
 20
528.379835516
  0
VERTEX
  8
0
 62
7
  6
CONTINUOUS
 10
658.8443723381
 20
528.3154353118
  0
VERTEX
  8
0
 62
7
  6
CONTINUOUS
 10
658.8469628688
 20
528.2057772267
  0
SEQEND
  0
POLYLINE
  8
0
 62
7
  6
CONTINUOUS
 66
1
 70
0
  0
VERTEX
  8
0
 62
7
  6
CONTINUOUS
 10
676.1169268855
 20
534.0390224452
  0
VERTEX
  8
0
 62
7
  6
CONTINUOUS
 10
676.1164710354
 20
534.0348438485
  0
VERTEX
  8
0
 62
7
  6
CONTINUOUS
 10
676.1138805047
 20
533.9901773847
  0
SEQEND
  0
POLYLINE
  8
0
 62
7
  6
CONTINUOUS
 66
1
 70
0
  0
VERTEX
  8
0
 62
7
  6
CONTINUOUS
 10
659.2362967741
 20
343.9536893601
  0
VERTEX
  8
0
 62
7
  6
CONTINUOUS
 10
659.2510735415
 20
343.9933506821
  0
VERTEX
  8
0
 62
7
  6
CONTINUOUS
 10
659.2657841216
 20
344.0401729294
  0
VERTEX
  8
0
 62
7
  6
CONTINUOUS
 10
659.2804216867
 20
344.0941352719
  0
SEQEND
  0
LINE
  8
0
 62
7
  6
CONTINUOUS
 10
676.0897962818
 20
405.8005867071
 11
676.0810319503
 21
405.7787343079
  0
LINE
  8
0
 62
7
  6
CONTINUOUS
 10
659.2362967741
 20
343.9536893601
 11
658.8798114232
 21
343.0858190422
  0
POLYLINE
  8
0
 62
7
  6
CONTINUOUS
 66
1
 70
0
  0
VERTEX
  8
0
 62
7
  6
CONTINUOUS
 10
650.7157345348
 20
528.3965729694
  0
VERTEX
  8
0
 62
7
  6
CONTINUOUS
 10
650.7169485523
 20
528.379835516
  0
VERTEX
  8
0
 62
7
  6
CONTINUOUS
 10
650.7164710354
 20
528.3154353118
  0
VERTEX
  8
0
 62
7
  6
CONTINUOUS
 10
650.7138805047
 20
528.2057772267
  0
SEQEND
  0
LINE
  8
0
 62
7
  6
CONTINUOUS
 10
676.0810319503
 20
219.509271856
 11
675.709769832
 21
225.2984681978
  0
POLYLINE
  8
0
 62
7
  6
CONTINUOUS
 66
1
 70
0
  0
VERTEX
  8
0
 62
7
  6
CONTINUOUS
 10
676.1138805047
 20
121.7143347211
  0
VERTEX
  8
0
 62
7
  6
CONTINUOUS
 10
676.1164710354
 20
121.6696682573
  0
VERTEX
  8
0
 62
7
  6
CONTINUOUS
 10
676.1169268855
 20
121.6654896606
  0
SEQEND
  0
LINE
  8
0
 62
7
  6
CONTINUOUS
 10
659.2657841216
 20
496.2172108205
 11
658.8798114232
 21
502.8904660533
  0
POLYLINE
  8
0
 62
7
  6
CONTINUOUS
 66
1
 70
0
  0
VERTEX
  8
0
 62
7
  6
CONTINUOUS
 10
676.1138805047
 20
121.7143347211
  0
VERTEX
  8
0
 62
7
  6
CONTINUOUS
 10
676.0817116445
 20
122.3491515943
  0
VERTEX
  8
0
 62
7
  6
CONTINUOUS
 10
676.0421375179
 20
123.1704857129
  0
SEQEND
  0
POLYLINE
  8
0
 62
7
  6
CONTINUOUS
 66
1
 70
0
  0
VERTEX
  8
0
 62
7
  6
CONTINUOUS
 10
658.8469628688
 20
533.9901773847
  0
VERTEX
  8
0
 62
7
  6
CONTINUOUS
 10
658.879131729
 20
533.3553605115
  0
VERTEX
  8
0
 62
7
  6
CONTINUOUS
 10
658.9187058556
 20
532.5340263929
  0
SEQEND
  0
LINE
  8
0
 62
7
  6
CONTINUOUS
 10
658.8798114232
 20
527.8033096125
 11
658.8620626531
 21
528.157072435
  0
LINE
  8
0
 62
7
  6
CONTINUOUS
 10
675.6950592519
 20
178.5173388961
 11
675.6804216867
 21
178.8248177037
  0
LINE
  8
0
 62
7
  6
CONTINUOUS
 10
658.8798114232
 20
527.8033096125
 11
659.2804216867
 21
519.2863961692
  0
LINE
  8
0
 62
7
  6
CONTINUOUS
 10
676.0421375179
 20
123.1704857129
 11
675.9426694825
 21
125.3249026159
  0
LINE
  8
0
 62
7
  6
CONTINUOUS
 10
658.9187058556
 20
532.5340263929
 11
659.018173891
 21
530.3796094899
  0
LINE
  8
0
 62
7
  6
CONTINUOUS
 10
675.9426694825
 20
125.3249026159
 11
675.8201164154
 21
128.0589883725
  0
LINE
  8
0
 62
7
  6
CONTINUOUS
 10
659.018173891
 20
530.3796094899
 11
659.1407269581
 21
527.6455237333
  0
LINE
  8
0
 62
7
  6
CONTINUOUS
 10
675.8201164154
 20
128.0589883725
 11
675.6804216867
 21
131.2217466115
  0
LINE
  8
0
 62
7
  6
CONTINUOUS
 10
659.1407269581
 20
527.6455237333
 11
659.2804216867
 21
524.4827654943
  0
POLYLINE
  8
0
 62
7
  6
CONTINUOUS
 66
1
 70
0
  0
VERTEX
  8
0
 62
7
  6
CONTINUOUS
 10
658.8469628688
 20
528.2057772267
  0
VERTEX
  8
0
 62
7
  6
CONTINUOUS
 10
658.879131729
 20
527.1003769592
  0
VERTEX
  8
0
 62
7
  6
CONTINUOUS
 10
658.9187058556
 20
525.8441036752
  0
VERTEX
  8
0
 62
7
  6
CONTINUOUS
 10
658.9652331785
 20
524.4543305807
  0
VERTEX
  8
0
 62
7
  6
CONTINUOUS
 10
659.018173891
 20
522.950308277
  0
VERTEX
  8
0
 62
7
  6
CONTINUOUS
 10
659.0769083212
 20
521.3527541246
  0
VERTEX
  8
0
 62
7
  6
CONTINUOUS
 10
659.1407269581
 20
519.6839305748
  0
VERTEX
  8
0
 62
7
  6
CONTINUOUS
 10
659.2088491993
 20
517.966937828
  0
VERTEX
  8
0
 62
7
  6
CONTINUOUS
 10
659.2804216867
 20
516.2255900616
  0
SEQEND
  0
POLYLINE
  8
0
 62
7
  6
CONTINUOUS
 66
1
 70
0
  0
VERTEX
  8
0
 62
7
  6
CONTINUOUS
 10
658.8469628688
 20
277.4006636143
  0
VERTEX
  8
0
 62
7
  6
CONTINUOUS
 10
658.879131729
 20
276.052901964
  0
VERTEX
  8
0
 62
7
  6
CONTINUOUS
 10
658.9187058556
 20
274.8443833996
  0
VERTEX
  8
0
 62
7
  6
CONTINUOUS
 10
658.9652331785
 20
273.7918809745
  0
VERTEX
  8
0
 62
7
  6
CONTINUOUS
 10
659.018173891
 20
272.9100364929
  0
VERTEX
  8
0
 62
7
  6
CONTINUOUS
 10
659.0769083212
 20
272.2110839263
  0
VERTEX
  8
0
 62
7
  6
CONTINUOUS
 10
659.1407269581
 20
271.704846977
  0
VERTEX
  8
0
 62
7
  6
CONTINUOUS
 10
659.2088491993
 20
271.3983996186
  0
VERTEX
  8
0
 62
7
  6
CONTINUOUS
 10
659.2802557372
 20
271.2960694406
  0
SEQEND
  0
POLYLINE
  8
0
 62
7
  6
CONTINUOUS
 66
1
 70
0
  0
VERTEX
  8
0
 62
7
  6
CONTINUOUS
 10
658.8469628688
 20
502.8093784711
  0
VERTEX
  8
0
 62
7
  6
CONTINUOUS
 10
658.879131729
 20
501.3415990893
  0
VERTEX
  8
0
 62
7
  6
CONTINUOUS
 10
658.9187058556
 20
499.7733594218
  0
VERTEX
  8
0
 62
7
  6
CONTINUOUS
 10
658.9652331785
 20
498.1263655283
  0
VERTEX
  8
0
 62
7
  6
CONTINUOUS
 10
659.018173891
 20
496.4234503844
  0
VERTEX
  8
0
 62
7
  6
CONTINUOUS
 10
659.0769083212
 20
494.6880978763
  0
VERTEX
  8
0
 62
7
  6
CONTINUOUS
 10
659.1407269581
 20
492.9445165442
  0
VERTEX
  8
0
 62
7
  6
CONTINUOUS
 10
659.2088491993
 20
491.2168619623
  0
VERTEX
  8
0
 62
7
  6
CONTINUOUS
 10
659.2804216867
 20
489.5291202219
  0
SEQEND
  0
POLYLINE
  8
0
 62
7
  6
CONTINUOUS
 66
1
 70
0
  0
VERTEX
  8
0
 62
7
  6
CONTINUOUS
 10
658.8469628688
 20
341.7825832323
  0
VERTEX
  8
0
 62
7
  6
CONTINUOUS
 10
658.879131729
 20
340.1591982641
  0
VERTEX
  8
0
 62
7
  6
CONTINUOUS
 10
658.9187058556
 20
338.621619014
  0
VERTEX
  8
0
 62
7
  6
CONTINUOUS
 10
658.9652331785
 20
337.1911662197
  0
VERTEX
  8
0
 62
7
  6
CONTINUOUS
 10
659.018173891
 20
335.8877138273
  0
VERTEX
  8
0
 62
7
  6
CONTINUOUS
 10
659.0769083212
 20
334.7292990518
  0
VERTEX
  8
0
 62
7
  6
CONTINUOUS
 10
659.1407269581
 20
333.7321442649
  0
VERTEX
  8
0
 62
7
  6
CONTINUOUS
 10
659.2088491993
 20
332.9101155698
  0
VERTEX
  8
0
 62
7
  6
CONTINUOUS
 10
659.2804216867
 20
332.2746882391
  0
SEQEND
  0
POLYLINE
  8
0
 62
7
  6
CONTINUOUS
 66
1
 70
0
  0
VERTEX
  8
0
 62
7
  6
CONTINUOUS
 10
658.8469628688
 20
460.2869575753
  0
VERTEX
  8
0
 62
7
  6
CONTINUOUS
 10
658.879131729
 20
458.6004755516
  0
VERTEX
  8
0
 62
7
  6
CONTINUOUS
 10
658.9187058556
 20
456.873779726
  0
VERTEX
  8
0
 62
7
  6
CONTINUOUS
 10
658.9652331785
 20
455.1307842708
  0
VERTEX
  8
0
 62
7
  6
CONTINUOUS
 10
659.018173891
 20
453.3956694861
  0
VERTEX
  8
0
 62
7
  6
CONTINUOUS
 10
659.0769083212
 20
451.6923870166
  0
VERTEX
  8
0
 62
7
  6
CONTINUOUS
 10
659.1407269581
 20
450.0447217913
  0
VERTEX
  8
0
 62
7
  6
CONTINUOUS
 10
659.2088491993
 20
448.475520242
  0
VERTEX
  8
0
 62
7
  6
CONTINUOUS
 10
659.2804216867
 20
447.0065924484
  0
SEQEND
  0
POLYLINE
  8
0
 62
7
  6
CONTINUOUS
 66
1
 70
0
  0
VERTEX
  8
0
 62
7
  6
CONTINUOUS
 10
658.8469628688
 20
404.8009053676
  0
VERTEX
  8
0
 62
7
  6
CONTINUOUS
 10
658.879131729
 20
403.0608053131
  0
VERTEX
  8
0
 62
7
  6
CONTINUOUS
 10
658.9187058556
 20
401.3446743472
  0
VERTEX
  8
0
 62
7
  6
CONTINUOUS
 10
658.9652331785
 20
399.6762938698
  0
VERTEX
  8
0
 62
7
  6
CONTINUOUS
 10
659.018173891
 20
398.0788245685
  0
VERTEX
  8
0
 62
7
  6
CONTINUOUS
 10
659.0769083212
 20
396.5743412933
  0
VERTEX
  8
0
 62
7
  6
CONTINUOUS
 10
659.1407269581
 20
395.1838771269
  0
VERTEX
  8
0
 62
7
  6
CONTINUOUS
 10
659.2088491993
 20
393.9267329912
  0
VERTEX
  8
0
 62
7
  6
CONTINUOUS
 10
659.2804216867
 20
392.8204080315
  0
SEQEND
  0
LINE
  8
0
 62
7
  6
CONTINUOUS
 10
659.2804216867
 20
131.2217466115
 11
659.2804216867
 21
524.4827654943
  0
POLYLINE
  8
0
 62
7
  6
CONTINUOUS
 66
1
 70
0
  0
VERTEX
  8
0
 62
7
  6
CONTINUOUS
 10
658.8548630423
 20
136.6657064884
  0
VERTEX
  8
0
 62
7
  6
CONTINUOUS
 10
658.8492697425
 20
136.4787179104
  0
VERTEX
  8
0
 62
7
  6
CONTINUOUS
 10
658.8455538705
 20
136.3227923353
  0
VERTEX
  8
0
 62
7
  6
CONTINUOUS
 10
658.8438948212
 20
136.2055832644
  0
VERTEX
  8
0
 62
7
  6
CONTINUOUS
 10
658.8443723381
 20
136.1328479726
  0
VERTEX
  8
0
 62
7
  6
CONTINUOUS
 10
658.8469628688
 20
136.1081505504
  0
SEQEND
  0
POLYLINE
  8
0
 62
7
  6
CONTINUOUS
 66
1
 70
0
  0
VERTEX
  8
0
 62
7
  6
CONTINUOUS
 10
658.8455538705
 20
121.7272752734
  0
VERTEX
  8
0
 62
7
  6
CONTINUOUS
 10
658.8438948212
 20
121.6740502722
  0
VERTEX
  8
0
 62
7
  6
CONTINUOUS
 10
658.843916488
 20
121.6654896606
  0
SEQEND
  0
LINE
  8
0
 62
7
  6
CONTINUOUS
 10
658.870517845
 20
137.0950025494
 11
658.8548630423
 21
136.6657064884
  0
POLYLINE
  8
0
 62
7
  6
CONTINUOUS
 66
1
 70
0
  0
VERTEX
  8
0
 62
7
  6
CONTINUOUS
 10
658.870517845
 20
170.5186592223
  0
VERTEX
  8
0
 62
7
  6
CONTINUOUS
 10
658.8620626531
 20
170.3004889408
  0
VERTEX
  8
0
 62
7
  6
CONTINUOUS
 10
658.8548630423
 20
170.0785093669
  0
VERTEX
  8
0
 62
7
  6
CONTINUOUS
 10
658.8492697425
 20
169.8636706459
  0
VERTEX
  8
0
 62
7
  6
CONTINUOUS
 10
658.8455538705
 20
169.6665477701
  0
VERTEX
  8
0
 62
7
  6
CONTINUOUS
 10
658.8438948212
 20
169.49682787
  0
VERTEX
  8
0
 62
7
  6
CONTINUOUS
 10
658.8443723381
 20
169.3628591384
  0
VERTEX
  8
0
 62
7
  6
CONTINUOUS
 10
658.8469628688
 20
169.271215386
  0
SEQEND
  0
LINE
  8
0
 62
7
  6
CONTINUOUS
 10
658.8620626531
 20
122.1428683378
 11
658.8455538705
 21
121.7272752734
  0
LINE
  8
0
 62
7
  6
CONTINUOUS
 10
659.2362967741
 20
130.8181957005
 11
659.2804216867
 21
131.8437957532
  0
LINE
  8
0
 62
7
  6
CONTINUOUS
 10
659.2362967741
 20
130.8181957005
 11
658.8620626531
 21
122.1428683378
  0
LINE
  8
0
 62
7
  6
CONTINUOUS
 10
659.2362967741
 20
145.4373455484
 11
659.2804216867
 21
146.4561493352
  0
LINE
  8
0
 62
7
  6
CONTINUOUS
 10
659.2362967741
 20
145.4373455484
 11
658.870517845
 21
137.0950025494
  0
LINE
  8
0
 62
7
  6
CONTINUOUS
 10
675.8839350523
 20
529.0762334244
 11
675.6804216867
 21
524.4827654943
  0
LINE
  8
0
 62
7
  6
CONTINUOUS
 10
659.0769083212
 20
126.6282786814
 11
659.2804216867
 21
131.2217466115
  0
POLYLINE
  8
0
 62
7
  6
CONTINUOUS
 66
1
 70
0
  0
VERTEX
  8
0
 62
7
  6
CONTINUOUS
 10
675.6804216867
 20
519.2863961692
  0
VERTEX
  8
0
 62
7
  6
CONTINUOUS
 10
676.0903255285
 20
527.9949443299
  0
VERTEX
  8
0
 62
7
  6
CONTINUOUS
 10
676.0987807204
 20
528.157072435
  0
VERTEX
  8
0
 62
7
  6
CONTINUOUS
 10
676.1059803312
 20
528.2816412325
  0
VERTEX
  8
0
 62
7
  6
CONTINUOUS
 10
676.111573631
 20
528.3625361541
  0
VERTEX
  8
0
 62
7
  6
CONTINUOUS
 10
676.1152895029
 20
528.3958046184
  0
VERTEX
  8
0
 62
7
  6
CONTINUOUS
 10
676.1157345348
 20
528.3965729694
  0
SEQEND
  0
LINE
  8
0
 62
7
  6
CONTINUOUS
 10
659.2362967741
 20
177.9125377959
 11
659.2804216867
 21
178.8248177037
  0
LINE
  8
0
 62
7
  6
CONTINUOUS
 10
659.2362967741
 20
177.9125377959
 11
658.870517845
 21
170.5186592223
  0
POLYLINE
  8
0
 62
7
  6
CONTINUOUS
 66
1
 70
0
  0
VERTEX
  8
0
 62
7
  6
CONTINUOUS
 10
676.1138805047
 20
533.9901773847
  0
VERTEX
  8
0
 62
7
  6
CONTINUOUS
 10
676.0817116445
 20
533.3553605115
  0
VERTEX
  8
0
 62
7
  6
CONTINUOUS
 10
676.0421375179
 20
532.5340263929
  0
VERTEX
  8
0
 62
7
  6
CONTINUOUS
 10
675.995610195
 20
531.5375147712
  0
VERTEX
  8
0
 62
7
  6
CONTINUOUS
 10
675.8839350523
 20
529.0762334244
  0
SEQEND
  0
POLYLINE
  8
0
 62
7
  6
CONTINUOUS
 66
1
 70
0
  0
VERTEX
  8
0
 62
7
  6
CONTINUOUS
 10
658.8469628688
 20
121.7143347211
  0
VERTEX
  8
0
 62
7
  6
CONTINUOUS
 10
658.879131729
 20
122.3491515943
  0
VERTEX
  8
0
 62
7
  6
CONTINUOUS
 10
658.9187058556
 20
123.1704857129
  0
VERTEX
  8
0
 62
7
  6
CONTINUOUS
 10
658.9652331785
 20
124.1669973346
  0
VERTEX
  8
0
 62
7
  6
CONTINUOUS
 10
659.0769083212
 20
126.6282786814
  0
SEQEND
  0
POLYLINE
  8
0
 62
7
  6
CONTINUOUS
 66
1
 70
0
  0
VERTEX
  8
0
 62
7
  6
CONTINUOUS
 10
658.8798114232
 20
219.509271856
  0
VERTEX
  8
0
 62
7
  6
CONTINUOUS
 10
658.870517845
 20
219.3432245606
  0
VERTEX
  8
0
 62
7
  6
CONTINUOUS
 10
658.8620626531
 20
219.1486774384
  0
VERTEX
  8
0
 62
7
  6
CONTINUOUS
 10
658.8548630423
 20
218.9353058454
  0
VERTEX
  8
0
 62
7
  6
CONTINUOUS
 10
658.8492697425
 20
218.7136468922
  0
VERTEX
  8
0
 62
7
  6
CONTINUOUS
 10
658.8455538705
 20
218.4946224762
  0
VERTEX
  8
0
 62
7
  6
CONTINUOUS
 10
658.8438948212
 20
218.2890051134
  0
VERTEX
  8
0
 62
7
  6
CONTINUOUS
 10
658.8443723381
 20
218.1069167348
  0
VERTEX
  8
0
 62
7
  6
CONTINUOUS
 10
658.8469628688
 20
217.9572973812
  0
SEQEND
  0
LINE
  8
0
 62
7
  6
CONTINUOUS
 10
676.0810319503
 20
502.8904660533
 11
675.6804216867
 21
495.9731685511
  0
LINE
  8
0
 62
7
  6
CONTINUOUS
 10
659.2362967741
 20
225.0648743578
 11
659.2804216867
 21
225.781330073
  0
LINE
  8
0
 62
7
  6
CONTINUOUS
 10
659.2362967741
 20
225.0648743578
 11
658.8798114232
 21
219.509271856
  0
POLYLINE
  8
0
 62
7
  6
CONTINUOUS
 66
1
 70
0
  0
VERTEX
  8
0
 62
7
  6
CONTINUOUS
 10
650.7138805047
 20
169.271215386
  0
VERTEX
  8
0
 62
7
  6
CONTINUOUS
 10
650.6817116445
 20
168.8305912816
  0
VERTEX
  8
0
 62
7
  6
CONTINUOUS
 10
650.6421375179
 20
168.5912981342
  0
VERTEX
  8
0
 62
7
  6
CONTINUOUS
 10
650.6117768555
 20
168.5453937342
  0
SEQEND
  0
POLYLINE
  8
0
 62
7
  6
CONTINUOUS
 66
1
 70
0
  0
VERTEX
  8
0
 62
7
  6
CONTINUOUS
 10
658.8798114232
 20
278.9017364927
  0
VERTEX
  8
0
 62
7
  6
CONTINUOUS
 10
658.870517845
 20
278.7894099283
  0
VERTEX
  8
0
 62
7
  6
CONTINUOUS
 10
658.8620626531
 20
278.637529593
  0
VERTEX
  8
0
 62
7
  6
CONTINUOUS
 10
658.8548630423
 20
278.4536522791
  0
VERTEX
  8
0
 62
7
  6
CONTINUOUS
 10
658.8492697425
 20
278.2468706166
  0
VERTEX
  8
0
 62
7
  6
CONTINUOUS
 10
658.8455538705
 20
278.0273842963
  0
VERTEX
  8
0
 62
7
  6
CONTINUOUS
 10
658.8438948212
 20
277.8059967307
  0
VERTEX
  8
0
 62
7
  6
CONTINUOUS
 10
658.8443723381
 20
277.5936127844
  0
VERTEX
  8
0
 62
7
  6
CONTINUOUS
 10
658.8469628688
 20
277.4006636143
  0
SEQEND
  0
POLYLINE
  8
0
 62
7
  6
CONTINUOUS
 66
1
 70
0
  0
VERTEX
  8
0
 62
7
  6
CONTINUOUS
 10
676.0810319503
 20
460.8436629362
  0
VERTEX
  8
0
 62
7
  6
CONTINUOUS
 10
675.6950592519
 20
456.359789957
  0
VERTEX
  8
0
 62
7
  6
CONTINUOUS
 10
675.6804216867
 20
456.2030946504
  0
SEQEND
  0
POLYLINE
  8
0
 62
7
  6
CONTINUOUS
 66
1
 70
0
  0
VERTEX
  8
0
 62
7
  6
CONTINUOUS
 10
659.2510735415
 20
282.4224147421
  0
VERTEX
  8
0
 62
7
  6
CONTINUOUS
 10
659.2657841216
 20
282.5726034567
  0
VERTEX
  8
0
 62
7
  6
CONTINUOUS
 10
659.2804216867
 20
282.7292558472
  0
SEQEND
  0
LINE
  8
0
 62
7
  6
CONTINUOUS
 10
659.2510735415
 20
282.4224147421
 11
658.8798114232
 21
278.9017364927
  0
POLYLINE
  8
0
 62
7
  6
CONTINUOUS
 66
1
 70
0
  0
VERTEX
  8
0
 62
7
  6
CONTINUOUS
 10
658.8798114232
 20
343.0858190422
  0
VERTEX
  8
0
 62
7
  6
CONTINUOUS
 10
658.870517845
 20
343.0382085156
  0
VERTEX
  8
0
 62
7
  6
CONTINUOUS
 10
658.8620626531
 20
342.9438620728
  0
VERTEX
  8
0
 62
7
  6
CONTINUOUS
 10
658.8548630423
 20
342.8074782306
  0
VERTEX
  8
0
 62
7
  6
CONTINUOUS
 10
658.8492697425
 20
342.6358150885
  0
VERTEX
  8
0
 62
7
  6
CONTINUOUS
 10
658.8455538705
 20
342.4373517142
  0
VERTEX
  8
0
 62
7
  6
CONTINUOUS
 10
658.8438948212
 20
342.2218649033
  0
VERTEX
  8
0
 62
7
  6
CONTINUOUS
 10
658.8443723381
 20
341.9999750097
  0
VERTEX
  8
0
 62
7
  6
CONTINUOUS
 10
658.8469628688
 20
341.7825832323
  0
SEQEND
  0
LINE
  8
0
 62
7
  6
CONTINUOUS
 10
675.7245465994
 20
404.052502241
 11
676.0810319503
 21
405.7787343079
  0
POLYLINE
  8
0
 62
7
  6
CONTINUOUS
 66
1
 70
0
  0
VERTEX
  8
0
 62
7
  6
CONTINUOUS
 10
675.7245465994
 20
404.052502241
  0
VERTEX
  8
0
 62
7
  6
CONTINUOUS
 10
675.709769832
 20
403.9842838183
  0
VERTEX
  8
0
 62
7
  6
CONTINUOUS
 10
675.6950592519
 20
403.9231563104
  0
VERTEX
  8
0
 62
7
  6
CONTINUOUS
 10
675.6804216867
 20
403.8691463949
  0
SEQEND
  0
POLYLINE
  8
0
 62
7
  6
CONTINUOUS
 66
1
 70
0
  0
VERTEX
  8
0
 62
7
  6
CONTINUOUS
 10
684.2710470917
 20
405.8005867071
  0
VERTEX
  8
0
 62
7
  6
CONTINUOUS
 10
684.2620626531
 20
405.7729230059
  0
VERTEX
  8
0
 62
7
  6
CONTINUOUS
 10
684.2548630423
 20
405.6973828361
  0
VERTEX
  8
0
 62
7
  6
CONTINUOUS
 10
684.2492697425
 20
405.5776417989
  0
VERTEX
  8
0
 62
7
  6
CONTINUOUS
 10
684.2455538705
 20
405.4196283485
  0
VERTEX
  8
0
 62
7
  6
CONTINUOUS
 10
684.2438948212
 20
405.2311356427
  0
VERTEX
  8
0
 62
7
  6
CONTINUOUS
 10
684.2443723381
 20
405.0214599305
  0
VERTEX
  8
0
 62
7
  6
CONTINUOUS
 10
684.2469628688
 20
404.8009053676
  0
SEQEND
  0
LINE
  8
0
 62
9
  6
CONTINUOUS
 10
650.2804216867
 20
323.3558247112
 11
659.2804216867
 21
323.3558247112
  0
LINE
  8
0
 62
9
  6
CONTINUOUS
 10
675.6804216867
 20
323.3558247112
 11
684.6804216867
 21
323.3558247112
  0
LINE
  8
0
 62
9
  6
CONTINUOUS
 10
650.2804216867
 20
324.9971283245
 11
659.2804216867
 21
324.9971283245
  0
LINE
  8
0
 62
9
  6
CONTINUOUS
 10
675.6804216867
 20
324.9971283245
 11
684.6804216867
 21
324.9971283245
  0
LINE
  8
DEFAULT_1
 62
2
  6
CENTER
 10
637.4804216867
 20
327.8522560529
 11
697.4804216867
 21
327.8522560529
  0
LINE
  8
0
 62
7
  6
CONTINUOUS
 10
650.6810319503
 20
343.0858190422
 11
650.3245465994
 21
343.9536893601
  0
POLYLINE
  8
0
 62
7
  6
CONTINUOUS
 66
1
 70
0
  0
VERTEX
  8
0
 62
7
  6
CONTINUOUS
 10
650.3245465994
 20
343.9536893601
  0
VERTEX
  8
0
 62
7
  6
CONTINUOUS
 10
650.309769832
 20
343.9933506821
  0
VERTEX
  8
0
 62
7
  6
CONTINUOUS
 10
650.2950592519
 20
344.0401729294
  0
VERTEX
  8
0
 62
7
  6
CONTINUOUS
 10
650.2804216867
 20
344.0941352719
  0
SEQEND
  0
POLYLINE
  8
0
 62
7
  6
CONTINUOUS
 66
1
 70
0
  0
VERTEX
  8
0
 62
7
  6
CONTINUOUS
 10
658.843916488
 20
534.0390224452
  0
VERTEX
  8
0
 62
7
  6
CONTINUOUS
 10
658.8443723381
 20
534.0348438485
  0
VERTEX
  8
0
 62
7
  6
CONTINUOUS
 10
658.8469628688
 20
533.9901773847
  0
SEQEND
  0
POLYLINE
  8
0
 62
7
  6
CONTINUOUS
 66
1
 70
0
  0
VERTEX
  8
0
 62
7
  6
CONTINUOUS
 10
658.8798114232
 20
460.8436629362
  0
VERTEX
  8
0
 62
7
  6
CONTINUOUS
 10
658.870517845
 20
460.9326747814
  0
VERTEX
  8
0
 62
7
  6
CONTINUOUS
 10
658.8620626531
 20
460.9745661524
  0
VERTEX
  8
0
 62
7
  6
CONTINUOUS
 10
658.8593634571
 20
460.9776375325
  0
SEQEND
  0
POLYLINE
  8
0
 62
7
  6
CONTINUOUS
 66
1
 70
0
  0
VERTEX
  8
0
 62
7
  6
CONTINUOUS
 10
676.0810319503
 20
278.9017364927
  0
VERTEX
  8
0
 62
7
  6
CONTINUOUS
 10
675.709769832
 20
282.4224147421
  0
VERTEX
  8
0
 62
7
  6
CONTINUOUS
 10
675.6950592519
 20
282.5726034567
  0
VERTEX
  8
0
 62
7
  6
CONTINUOUS
 10
675.6804216867
 20
282.7292558472
  0
SEQEND
  0
LINE
  8
0
 62
7
  6
CONTINUOUS
 10
659.2510735415
 20
456.5228836337
 11
659.2804216867
 21
456.2030946504
  0
LINE
  8
0
 62
7
  6
CONTINUOUS
 10
659.2510735415
 20
456.5228836337
 11
658.8798114232
 21
460.8436629362
  0
POLYLINE
  8
0
 62
7
  6
CONTINUOUS
 66
1
 70
0
  0
VERTEX
  8
0
 62
7
  6
CONTINUOUS
 10
684.2469628688
 20
169.271215386
  0
VERTEX
  8
0
 62
7
  6
CONTINUOUS
 10
684.279131729
 20
168.8305912816
  0
VERTEX
  8
0
 62
7
  6
CONTINUOUS
 10
684.3187058556
 20
168.5912981342
  0
VERTEX
  8
0
 62
7
  6
CONTINUOUS
 10
684.349066518
 20
168.5453937342
  0
SEQEND
  0
POLYLINE
  8
0
 62
7
  6
CONTINUOUS
 66
1
 70
0
  0
VERTEX
  8
0
 62
7
  6
CONTINUOUS
 10
658.8798114232
 20
502.8904660533
  0
VERTEX
  8
0
 62
7
  6
CONTINUOUS
 10
658.870517845
 20
503.0380106827
  0
VERTEX
  8
0
 62
7
  6
CONTINUOUS
 10
658.8620626531
 20
503.1452700688
  0
VERTEX
  8
0
 62
7
  6
CONTINUOUS
 10
658.8548630423
 20
503.2069208205
  0
VERTEX
  8
0
 62
7
  6
CONTINUOUS
 10
658.8504291843
 20
503.2213354469
  0
SEQEND
  0
LINE
  8
0
 62
7
  6
CONTINUOUS
 10
659.2657841216
 20
496.2172108205
 11
659.2804216867
 21
495.9731685511
  0
LINE
  8
0
 62
7
  6
CONTINUOUS
 10
675.709769832
 20
225.2984681978
 11
675.6804216867
 21
225.781330073
  0
POLYLINE
  8
0
 62
7
  6
CONTINUOUS
 66
1
 70
0
  0
VERTEX
  8
0
 62
7
  6
CONTINUOUS
 10
658.8620626531
 20
528.157072435
  0
VERTEX
  8
0
 62
7
  6
CONTINUOUS
 10
658.8548630423
 20
528.2816412325
  0
VERTEX
  8
0
 62
7
  6
CONTINUOUS
 10
658.8492697425
 20
528.3625361541
  0
VERTEX
  8
0
 62
7
  6
CONTINUOUS
 10
658.8455538705
 20
528.3958046184
  0
VERTEX
  8
0
 62
7
  6
CONTINUOUS
 10
658.8451088387
 20
528.3965729694
  0
SEQEND
  0
POLYLINE
  8
0
 62
7
  6
CONTINUOUS
 66
1
 70
0
  0
VERTEX
  8
0
 62
7
  6
CONTINUOUS
 10
684.2469628688
 20
217.9572973812
  0
VERTEX
  8
0
 62
7
  6
CONTINUOUS
 10
684.279131729
 20
217.0170873495
  0
VERTEX
  8
0
 62
7
  6
CONTINUOUS
 10
684.3187058556
 20
216.2559276881
  0
VERTEX
  8
0
 62
7
  6
CONTINUOUS
 10
684.3652331785
 20
215.6844019028
  0
VERTEX
  8
0
 62
7
  6
CONTINUOUS
 10
684.418173891
 20
215.3104864139
  0
VERTEX
  8
0
 62
7
  6
CONTINUOUS
 10
684.4769083212
 20
215.1394144034
  0
VERTEX
  8
0
 62
7
  6
CONTINUOUS
 10
684.497664813
 20
215.1279761917
  0
SEQEND
  0
POLYLINE
  8
0
 62
7
  6
CONTINUOUS
 66
1
 70
0
  0
VERTEX
  8
0
 62
7
  6
CONTINUOUS
 10
684.2469628688
 20
277.4006636143
  0
VERTEX
  8
0
 62
7
  6
CONTINUOUS
 10
684.279131729
 20
276.052901964
  0
VERTEX
  8
0
 62
7
  6
CONTINUOUS
 10
684.3187058556
 20
274.8443833996
  0
VERTEX
  8
0
 62
7
  6
CONTINUOUS
 10
684.3652331785
 20
273.7918809745
  0
VERTEX
  8
0
 62
7
  6
CONTINUOUS
 10
684.418173891
 20
272.9100364929
  0
VERTEX
  8
0
 62
7
  6
CONTINUOUS
 10
684.4769083212
 20
272.2110839263
  0
VERTEX
  8
0
 62
7
  6
CONTINUOUS
 10
684.5407269581
 20
271.704846977
  0
VERTEX
  8
0
 62
7
  6
CONTINUOUS
 10
684.6088491993
 20
271.3983996186
  0
VERTEX
  8
0
 62
7
  6
CONTINUOUS
 10
684.6802557372
 20
271.2960694406
  0
SEQEND
  0
LINE
  8
0
 62
7
  6
CONTINUOUS
 10
675.6804216867
 20
131.2217466115
 11
675.6804216867
 21
524.4827654943
  0
POLYLINE
  8
0
 62
7
  6
CONTINUOUS
 66
1
 70
0
  0
VERTEX
  8
0
 62
7
  6
CONTINUOUS
 10
676.1169268855
 20
121.6654896606
  0
VERTEX
  8
0
 62
7
  6
CONTINUOUS
 10
676.1169485523
 20
121.6740502722
  0
VERTEX
  8
0
 62
7
  6
CONTINUOUS
 10
676.1152895029
 20
121.7272752734
  0
VERTEX
  8
0
 62
7
  6
CONTINUOUS
 10
676.111573631
 20
121.8267404661
  0
VERTEX
  8
0
 62
7
  6
CONTINUOUS
 10
675.6804216867
 20
131.8437957532
  0
SEQEND
  0
POLYLINE
  8
0
 62
7
  6
CONTINUOUS
 66
1
 70
0
  0
VERTEX
  8
0
 62
7
  6
CONTINUOUS
 10
676.1138805047
 20
404.8009053676
  0
VERTEX
  8
0
 62
7
  6
CONTINUOUS
 10
676.1164710354
 20
405.0214599305
  0
VERTEX
  8
0
 62
7
  6
CONTINUOUS
 10
676.1169485523
 20
405.2311356427
  0
VERTEX
  8
0
 62
7
  6
CONTINUOUS
 10
676.1152895029
 20
405.4196283485
  0
VERTEX
  8
0
 62
7
  6
CONTINUOUS
 10
676.111573631
 20
405.5776417989
  0
VERTEX
  8
0
 62
7
  6
CONTINUOUS
 10
676.1059803312
 20
405.6973828361
  0
VERTEX
  8
0
 62
7
  6
CONTINUOUS
 10
676.0987807204
 20
405.7729230059
  0
VERTEX
  8
0
 62
7
  6
CONTINUOUS
 10
676.0897962818
 20
405.8005867071
  0
SEQEND
  0
POLYLINE
  8
0
 62
7
  6
CONTINUOUS
 66
1
 70
0
  0
VERTEX
  8
0
 62
7
  6
CONTINUOUS
 10
676.1138805047
 20
341.7825832323
  0
VERTEX
  8
0
 62
7
  6
CONTINUOUS
 10
676.1164710354
 20
341.9999750097
  0
VERTEX
  8
0
 62
7
  6
CONTINUOUS
 10
676.1169485523
 20
342.2218649033
  0
VERTEX
  8
0
 62
7
  6
CONTINUOUS
 10
676.1152895029
 20
342.4373517142
  0
VERTEX
  8
0
 62
7
  6
CONTINUOUS
 10
676.111573631
 20
342.6358150885
  0
VERTEX
  8
0
 62
7
  6
CONTINUOUS
 10
676.1059803312
 20
342.8074782306
  0
VERTEX
  8
0
 62
7
  6
CONTINUOUS
 10
676.0987807204
 20
342.9438620728
  0
VERTEX
  8
0
 62
7
  6
CONTINUOUS
 10
676.0903255285
 20
343.0382085156
  0
VERTEX
  8
0
 62
7
  6
CONTINUOUS
 10
676.0810319503
 20
343.0858190422
  0
SEQEND
  0
POLYLINE
  8
0
 62
7
  6
CONTINUOUS
 66
1
 70
0
  0
VERTEX
  8
0
 62
7
  6
CONTINUOUS
 10
676.1138805047
 20
460.2869575753
  0
VERTEX
  8
0
 62
7
  6
CONTINUOUS
 10
676.1164710354
 20
460.4890855063
  0
VERTEX
  8
0
 62
7
  6
CONTINUOUS
 10
676.1169485523
 20
460.6660225174
  0
VERTEX
  8
0
 62
7
  6
CONTINUOUS
 10
676.1152895029
 20
460.8090701388
  0
VERTEX
  8
0
 62
7
  6
CONTINUOUS
 10
676.111573631
 20
460.9111662079
  0
VERTEX
  8
0
 62
7
  6
CONTINUOUS
 10
676.1059803312
 20
460.9672640532
  0
VERTEX
  8
0
 62
7
  6
CONTINUOUS
 10
676.1014799164
 20
460.9776375325
  0
SEQEND
  0
POLYLINE
  8
0
 62
7
  6
CONTINUOUS
 66
1
 70
0
  0
VERTEX
  8
0
 62
7
  6
CONTINUOUS
 10
676.1138805047
 20
277.4006636143
  0
VERTEX
  8
0
 62
7
  6
CONTINUOUS
 10
676.1164710354
 20
277.5936127844
  0
VERTEX
  8
0
 62
7
  6
CONTINUOUS
 10
676.1169485523
 20
277.8059967307
  0
VERTEX
  8
0
 62
7
  6
CONTINUOUS
 10
676.1152895029
 20
278.0273842963
  0
VERTEX
  8
0
 62
7
  6
CONTINUOUS
 10
676.111573631
 20
278.2468706166
  0
VERTEX
  8
0
 62
7
  6
CONTINUOUS
 10
676.1059803312
 20
278.4536522791
  0
VERTEX
  8
0
 62
7
  6
CONTINUOUS
 10
676.0987807204
 20
278.637529593
  0
VERTEX
  8
0
 62
7
  6
CONTINUOUS
 10
676.0903255285
 20
278.7894099283
  0
VERTEX
  8
0
 62
7
  6
CONTINUOUS
 10
676.0810319503
 20
278.9017364927
  0
SEQEND
  0
POLYLINE
  8
0
 62
7
  6
CONTINUOUS
 66
1
 70
0
  0
VERTEX
  8
0
 62
7
  6
CONTINUOUS
 10
676.1138805047
 20
502.8093784711
  0
VERTEX
  8
0
 62
7
  6
CONTINUOUS
 10
676.1164710354
 20
502.9732940801
  0
VERTEX
  8
0
 62
7
  6
CONTINUOUS
 10
676.1169485523
 20
503.1001725627
  0
VERTEX
  8
0
 62
7
  6
CONTINUOUS
 10
676.1152895029
 20
503.1837726017
  0
VERTEX
  8
0
 62
7
  6
CONTINUOUS
 10
676.111573631
 20
503.219957415
  0
VERTEX
  8
0
 62
7
  6
CONTINUOUS
 10
676.1104141892
 20
503.2213354469
  0
SEQEND
  0
POLYLINE
  8
0
 62
7
  6
CONTINUOUS
 66
1
 70
0
  0
VERTEX
  8
0
 62
7
  6
CONTINUOUS
 10
676.1138805047
 20
217.9572973812
  0
VERTEX
  8
0
 62
7
  6
CONTINUOUS
 10
676.1164710354
 20
218.1069167348
  0
VERTEX
  8
0
 62
7
  6
CONTINUOUS
 10
676.1169485523
 20
218.2890051134
  0
VERTEX
  8
0
 62
7
  6
CONTINUOUS
 10
676.1152895029
 20
218.4946224762
  0
VERTEX
  8
0
 62
7
  6
CONTINUOUS
 10
676.111573631
 20
218.7136468922
  0
VERTEX
  8
0
 62
7
  6
CONTINUOUS
 10
676.1059803312
 20
218.9353058454
  0
VERTEX
  8
0
 62
7
  6
CONTINUOUS
 10
676.0987807204
 20
219.1486774384
  0
VERTEX
  8
0
 62
7
  6
CONTINUOUS
 10
676.0903255285
 20
219.3432245606
  0
VERTEX
  8
0
 62
7
  6
CONTINUOUS
 10
676.0810319503
 20
219.509271856
  0
SEQEND
  0
POLYLINE
  8
0
 62
7
  6
CONTINUOUS
 66
1
 70
0
  0
VERTEX
  8
0
 62
7
  6
CONTINUOUS
 10
676.1138805047
 20
404.8009053676
  0
VERTEX
  8
0
 62
7
  6
CONTINUOUS
 10
676.0817116445
 20
403.0608053131
  0
VERTEX
  8
0
 62
7
  6
CONTINUOUS
 10
676.0421375179
 20
401.3446743472
  0
VERTEX
  8
0
 62
7
  6
CONTINUOUS
 10
675.995610195
 20
399.6762938698
  0
VERTEX
  8
0
 62
7
  6
CONTINUOUS
 10
675.9426694825
 20
398.0788245685
  0
VERTEX
  8
0
 62
7
  6
CONTINUOUS
 10
675.8839350523
 20
396.5743412933
  0
VERTEX
  8
0
 62
7
  6
CONTINUOUS
 10
675.8201164154
 20
395.1838771269
  0
VERTEX
  8
0
 62
7
  6
CONTINUOUS
 10
675.7519941742
 20
393.9267329912
  0
VERTEX
  8
0
 62
7
  6
CONTINUOUS
 10
675.6804216867
 20
392.8204080315
  0
SEQEND
  0
POLYLINE
  8
0
 62
7
  6
CONTINUOUS
 66
1
 70
0
  0
VERTEX
  8
0
 62
7
  6
CONTINUOUS
 10
676.1138805047
 20
460.2869575753
  0
VERTEX
  8
0
 62
7
  6
CONTINUOUS
 10
676.0817116445
 20
458.6004755516
  0
VERTEX
  8
0
 62
7
  6
CONTINUOUS
 10
676.0421375179
 20
456.873779726
  0
VERTEX
  8
0
 62
7
  6
CONTINUOUS
 10
675.995610195
 20
455.1307842708
  0
VERTEX
  8
0
 62
7
  6
CONTINUOUS
 10
675.9426694825
 20
453.3956694861
  0
VERTEX
  8
0
 62
7
  6
CONTINUOUS
 10
675.8839350523
 20
451.6923870166
  0
VERTEX
  8
0
 62
7
  6
CONTINUOUS
 10
675.8201164154
 20
450.0447217913
  0
VERTEX
  8
0
 62
7
  6
CONTINUOUS
 10
675.7519941742
 20
448.475520242
  0
VERTEX
  8
0
 62
7
  6
CONTINUOUS
 10
675.6804216867
 20
447.0065924484
  0
SEQEND
  0
POLYLINE
  8
0
 62
7
  6
CONTINUOUS
 66
1
 70
0
  0
VERTEX
  8
0
 62
7
  6
CONTINUOUS
 10
676.1138805047
 20
341.7825832323
  0
VERTEX
  8
0
 62
7
  6
CONTINUOUS
 10
676.0817116445
 20
340.1591982641
  0
VERTEX
  8
0
 62
7
  6
CONTINUOUS
 10
676.0421375179
 20
338.621619014
  0
VERTEX
  8
0
 62
7
  6
CONTINUOUS
 10
675.995610195
 20
337.1911662197
  0
VERTEX
  8
0
 62
7
  6
CONTINUOUS
 10
675.9426694825
 20
335.8877138273
  0
VERTEX
  8
0
 62
7
  6
CONTINUOUS
 10
675.8839350523
 20
334.7292990518
  0
VERTEX
  8
0
 62
7
  6
CONTINUOUS
 10
675.8201164154
 20
333.7321442649
  0
VERTEX
  8
0
 62
7
  6
CONTINUOUS
 10
675.7519941742
 20
332.9101155698
  0
VERTEX
  8
0
 62
7
  6
CONTINUOUS
 10
675.6804216867
 20
332.2746882391
  0
SEQEND
  0
POLYLINE
  8
0
 62
7
  6
CONTINUOUS
 66
1
 70
0
  0
VERTEX
  8
0
 62
7
  6
CONTINUOUS
 10
676.1138805047
 20
502.8093784711
  0
VERTEX
  8
0
 62
7
  6
CONTINUOUS
 10
676.0817116445
 20
501.3415990893
  0
VERTEX
  8
0
 62
7
  6
CONTINUOUS
 10
676.0421375179
 20
499.7733594218
  0
VERTEX
  8
0
 62
7
  6
CONTINUOUS
 10
675.995610195
 20
498.1263655283
  0
VERTEX
  8
0
 62
7
  6
CONTINUOUS
 10
675.9426694825
 20
496.4234503844
  0
VERTEX
  8
0
 62
7
  6
CONTINUOUS
 10
675.8839350523
 20
494.6880978763
  0
VERTEX
  8
0
 62
7
  6
CONTINUOUS
 10
675.8201164154
 20
492.9445165442
  0
VERTEX
  8
0
 62
7
  6
CONTINUOUS
 10
675.7519941742
 20
491.2168619623
  0
VERTEX
  8
0
 62
7
  6
CONTINUOUS
 10
675.6804216867
 20
489.5291202219
  0
SEQEND
  0
POLYLINE
  8
0
 62
7
  6
CONTINUOUS
 66
1
 70
0
  0
VERTEX
  8
0
 62
7
  6
CONTINUOUS
 10
676.1138805047
 20
277.4006636143
  0
VERTEX
  8
0
 62
7
  6
CONTINUOUS
 10
676.0817116445
 20
276.052901964
  0
VERTEX
  8
0
 62
7
  6
CONTINUOUS
 10
676.0421375179
 20
274.8443833996
  0
VERTEX
  8
0
 62
7
  6
CONTINUOUS
 10
675.995610195
 20
273.7918809745
  0
VERTEX
  8
0
 62
7
  6
CONTINUOUS
 10
675.9426694825
 20
272.9100364929
  0
VERTEX
  8
0
 62
7
  6
CONTINUOUS
 10
675.8839350523
 20
272.2110839263
  0
VERTEX
  8
0
 62
7
  6
CONTINUOUS
 10
675.8201164154
 20
271.704846977
  0
VERTEX
  8
0
 62
7
  6
CONTINUOUS
 10
675.7519941742
 20
271.3983996186
  0
VERTEX
  8
0
 62
7
  6
CONTINUOUS
 10
675.6805876363
 20
271.2960694406
  0
SEQEND
  0
POLYLINE
  8
0
 62
7
  6
CONTINUOUS
 66
1
 70
0
  0
VERTEX
  8
0
 62
7
  6
CONTINUOUS
 10
676.1138805047
 20
169.271215386
  0
VERTEX
  8
0
 62
7
  6
CONTINUOUS
 10
676.1164710354
 20
169.3628591384
  0
VERTEX
  8
0
 62
7
  6
CONTINUOUS
 10
676.1169485523
 20
169.49682787
  0
VERTEX
  8
0
 62
7
  6
CONTINUOUS
 10
676.1152895029
 20
169.6665477701
  0
VERTEX
  8
0
 62
7
  6
CONTINUOUS
 10
676.111573631
 20
169.8636706459
  0
VERTEX
  8
0
 62
7
  6
CONTINUOUS
 10
676.1059803312
 20
170.0785093669
  0
VERTEX
  8
0
 62
7
  6
CONTINUOUS
 10
676.0987807204
 20
170.3004889408
  0
VERTEX
  8
0
 62
7
  6
CONTINUOUS
 10
676.0903255285
 20
170.5186592223
  0
VERTEX
  8
0
 62
7
  6
CONTINUOUS
 10
675.6950592519
 20
178.5173388961
  0
SEQEND
  0
POLYLINE
  8
0
 62
7
  6
CONTINUOUS
 66
1
 70
0
  0
VERTEX
  8
0
 62
7
  6
CONTINUOUS
 10
676.1138805047
 20
528.2057772267
  0
VERTEX
  8
0
 62
7
  6
CONTINUOUS
 10
676.0817116445
 20
527.1003769592
  0
VERTEX
  8
0
 62
7
  6
CONTINUOUS
 10
676.0421375179
 20
525.8441036752
  0
VERTEX
  8
0
 62
7
  6
CONTINUOUS
 10
675.995610195
 20
524.4543305807
  0
VERTEX
  8
0
 62
7
  6
CONTINUOUS
 10
675.9426694825
 20
522.950308277
  0
VERTEX
  8
0
 62
7
  6
CONTINUOUS
 10
675.8839350523
 20
521.3527541246
  0
VERTEX
  8
0
 62
7
  6
CONTINUOUS
 10
675.8201164154
 20
519.6839305748
  0
VERTEX
  8
0
 62
7
  6
CONTINUOUS
 10
675.7519941742
 20
517.966937828
  0
VERTEX
  8
0
 62
7
  6
CONTINUOUS
 10
675.6804216867
 20
516.2255900616
  0
SEQEND
  0
POLYLINE
  8
0
 62
7
  6
CONTINUOUS
 66
1
 70
0
  0
VERTEX
  8
0
 62
7
  6
CONTINUOUS
 10
676.1138805047
 20
217.9572973812
  0
VERTEX
  8
0
 62
7
  6
CONTINUOUS
 10
676.0817116445
 20
217.0170873495
  0
VERTEX
  8
0
 62
7
  6
CONTINUOUS
 10
676.0421375179
 20
216.2559276881
  0
VERTEX
  8
0
 62
7
  6
CONTINUOUS
 10
675.995610195
 20
215.6844019028
  0
VERTEX
  8
0
 62
7
  6
CONTINUOUS
 10
675.9426694825
 20
215.3104864139
  0
VERTEX
  8
0
 62
7
  6
CONTINUOUS
 10
675.8839350523
 20
215.1394144034
  0
VERTEX
  8
0
 62
7
  6
CONTINUOUS
 10
675.8631785605
 20
215.1279761917
  0
SEQEND
  0
POLYLINE
  8
0
 62
7
  6
CONTINUOUS
 66
1
 70
0
  0
VERTEX
  8
0
 62
7
  6
CONTINUOUS
 10
684.2451088387
 20
528.3965729694
  0
VERTEX
  8
0
 62
7
  6
CONTINUOUS
 10
684.2438948212
 20
528.379835516
  0
VERTEX
  8
0
 62
7
  6
CONTINUOUS
 10
684.2443723381
 20
528.3154353118
  0
VERTEX
  8
0
 62
7
  6
CONTINUOUS
 10
684.2469628688
 20
528.2057772267
  0
SEQEND
  0
POLYLINE
  8
0
 62
7
  6
CONTINUOUS
 66
1
 70
0
  0
VERTEX
  8
0
 62
7
  6
CONTINUOUS
 10
650.7138805047
 20
136.1081505504
  0
VERTEX
  8
0
 62
7
  6
CONTINUOUS
 10
650.7164710354
 20
136.1328479726
  0
VERTEX
  8
0
 62
7
  6
CONTINUOUS
 10
650.7169485523
 20
136.2055832644
  0
VERTEX
  8
0
 62
7
  6
CONTINUOUS
 10
650.7152895029
 20
136.3227923353
  0
VERTEX
  8
0
 62
7
  6
CONTINUOUS
 10
650.711573631
 20
136.4787179104
  0
VERTEX
  8
0
 62
7
  6
CONTINUOUS
 10
650.7059803312
 20
136.6657064884
  0
VERTEX
  8
0
 62
7
  6
CONTINUOUS
 10
650.6903255285
 20
137.0950025494
  0
SEQEND
  0
POLYLINE
  8
0
 62
7
  6
CONTINUOUS
 66
1
 70
0
  0
VERTEX
  8
0
 62
7
  6
CONTINUOUS
 10
658.843916488
 20
121.6654896606
  0
VERTEX
  8
0
 62
7
  6
CONTINUOUS
 10
658.8443723381
 20
121.6696682573
  0
VERTEX
  8
0
 62
7
  6
CONTINUOUS
 10
658.8469628688
 20
121.7143347211
  0
SEQEND
  0
POLYLINE
  8
0
 62
7
  6
CONTINUOUS
 66
1
 70
0
  0
VERTEX
  8
0
 62
7
  6
CONTINUOUS
 10
684.2798114232
 20
343.0858190422
  0
VERTEX
  8
0
 62
7
  6
CONTINUOUS
 10
684.270517845
 20
343.0382085156
  0
VERTEX
  8
0
 62
7
  6
CONTINUOUS
 10
684.2620626531
 20
342.9438620728
  0
VERTEX
  8
0
 62
7
  6
CONTINUOUS
 10
684.2548630423
 20
342.8074782306
  0
VERTEX
  8
0
 62
7
  6
CONTINUOUS
 10
684.2492697425
 20
342.6358150885
  0
VERTEX
  8
0
 62
7
  6
CONTINUOUS
 10
684.2455538705
 20
342.4373517142
  0
VERTEX
  8
0
 62
7
  6
CONTINUOUS
 10
684.2438948212
 20
342.2218649033
  0
VERTEX
  8
0
 62
7
  6
CONTINUOUS
 10
684.2443723381
 20
341.9999750097
  0
VERTEX
  8
0
 62
7
  6
CONTINUOUS
 10
684.2469628688
 20
341.7825832323
  0
SEQEND
  0
POLYLINE
  8
0
 62
7
  6
CONTINUOUS
 66
1
 70
0
  0
VERTEX
  8
0
 62
7
  6
CONTINUOUS
 10
684.6362967741
 20
343.9536893601
  0
VERTEX
  8
0
 62
7
  6
CONTINUOUS
 10
684.6510735415
 20
343.9933506821
  0
VERTEX
  8
0
 62
7
  6
CONTINUOUS
 10
684.6657841216
 20
344.0401729294
  0
VERTEX
  8
0
 62
7
  6
CONTINUOUS
 10
684.6804216867
 20
344.0941352719
  0
SEQEND
  0
LINE
  8
0
 62
7
  6
CONTINUOUS
 10
684.2798114232
 20
343.0858190422
 11
684.6362967741
 21
343.9536893601
  0
LINE
  8
0
 62
9
  6
CONTINUOUS
 10
650.2804216867
 20
330.9063298594
 11
659.2804216867
 21
330.9063298594
  0
LINE
  8
0
 62
9
  6
CONTINUOUS
 10
675.6804216867
 20
330.9063298594
 11
684.6804216867
 21
330.9063298594
  0
LINE
  8
0
 62
9
  6
CONTINUOUS
 10
684.6804216867
 20
331.5876012237
 11
675.6804216867
 21
331.5876012237
  0
LINE
  8
0
 62
9
  6
CONTINUOUS
 10
659.2804216867
 20
331.5876012237
 11
650.2804216867
 21
331.5876012237
  0
LINE
  8
0
 62
9
  6
CONTINUOUS
 10
684.2469628688
 20
341.7825832323
 11
676.1138805047
 21
341.7825832323
  0
LINE
  8
0
 62
9
  6
CONTINUOUS
 10
658.8469628688
 20
341.7825832323
 11
650.7138805047
 21
341.7825832323
  0
LINE
  8
0
 62
9
  6
CONTINUOUS
 10
684.2798114232
 20
343.0858190422
 11
676.0810319503
 21
343.0858190422
  0
LINE
  8
0
 62
9
  6
CONTINUOUS
 10
658.8798114232
 20
343.0858190422
 11
650.6810319503
 21
343.0858190422
  0
LINE
  8
0
 62
7
  6
CONTINUOUS
 10
675.7245465994
 20
343.9536893601
 11
676.0810319503
 21
343.0858190422
  0
POLYLINE
  8
0
 62
7
  6
CONTINUOUS
 66
1
 70
0
  0
VERTEX
  8
0
 62
7
  6
CONTINUOUS
 10
675.7245465994
 20
343.9536893601
  0
VERTEX
  8
0
 62
7
  6
CONTINUOUS
 10
675.709769832
 20
343.9933506821
  0
VERTEX
  8
0
 62
7
  6
CONTINUOUS
 10
675.6950592519
 20
344.0401729294
  0
VERTEX
  8
0
 62
7
  6
CONTINUOUS
 10
675.6804216867
 20
344.0941352719
  0
SEQEND
  0
POLYLINE
  8
0
 62
7
  6
CONTINUOUS
 66
1
 70
0
  0
VERTEX
  8
0
 62
7
  6
CONTINUOUS
 10
659.2362967741
 20
404.052502241
  0
VERTEX
  8
0
 62
7
  6
CONTINUOUS
 10
659.2510735415
 20
403.9842838183
  0
VERTEX
  8
0
 62
7
  6
CONTINUOUS
 10
659.2657841216
 20
403.9231563104
  0
VERTEX
  8
0
 62
7
  6
CONTINUOUS
 10
659.2804216867
 20
403.8691463949
  0
SEQEND
  0
LINE
  8
0
 62
7
  6
CONTINUOUS
 10
659.2362967741
 20
404.052502241
 11
658.8798114232
 21
405.7787343079
  0
LINE
  8
0
 62
7
  6
CONTINUOUS
 10
684.6510735415
 20
456.5228836337
 11
684.6804216867
 21
456.2030946504
  0
LINE
  8
0
 62
7
  6
CONTINUOUS
 10
684.2798114232
 20
460.8436629362
 11
684.6510735415
 21
456.5228836337
  0
POLYLINE
  8
0
 62
7
  6
CONTINUOUS
 66
1
 70
0
  0
VERTEX
  8
0
 62
7
  6
CONTINUOUS
 10
676.1157345348
 20
528.3965729694
  0
VERTEX
  8
0
 62
7
  6
CONTINUOUS
 10
676.1169485523
 20
528.379835516
  0
VERTEX
  8
0
 62
7
  6
CONTINUOUS
 10
676.1164710354
 20
528.3154353118
  0
VERTEX
  8
0
 62
7
  6
CONTINUOUS
 10
676.1138805047
 20
528.2057772267
  0
SEQEND
  0
POLYLINE
  8
0
 62
7
  6
CONTINUOUS
 66
1
 70
0
  0
VERTEX
  8
0
 62
7
  6
CONTINUOUS
 10
684.2798114232
 20
502.8904660533
  0
VERTEX
  8
0
 62
7
  6
CONTINUOUS
 10
684.270517845
 20
503.0380106827
  0
VERTEX
  8
0
 62
7
  6
CONTINUOUS
 10
684.2620626531
 20
503.1452700688
  0
VERTEX
  8
0
 62
7
  6
CONTINUOUS
 10
684.2548630423
 20
503.2069208205
  0
VERTEX
  8
0
 62
7
  6
CONTINUOUS
 10
684.2504291843
 20
503.2213354469
  0
SEQEND
  0
POLYLINE
  8
0
 62
7
  6
CONTINUOUS
 66
1
 70
0
  0
VERTEX
  8
0
 62
7
  6
CONTINUOUS
 10
684.2620626531
 20
528.157072435
  0
VERTEX
  8
0
 62
7
  6
CONTINUOUS
 10
684.2548630423
 20
528.2816412325
  0
VERTEX
  8
0
 62
7
  6
CONTINUOUS
 10
684.2492697425
 20
528.3625361541
  0
VERTEX
  8
0
 62
7
  6
CONTINUOUS
 10
684.2455538705
 20
528.3958046184
  0
VERTEX
  8
0
 62
7
  6
CONTINUOUS
 10
684.2451088387
 20
528.3965729694
  0
SEQEND
  0
LINE
  8
0
 62
7
  6
CONTINUOUS
 10
684.2798114232
 20
502.8904660533
 11
684.6804216867
 21
495.9731685511
  0
POLYLINE
  8
0
 62
7
  6
CONTINUOUS
 66
1
 70
0
  0
VERTEX
  8
0
 62
7
  6
CONTINUOUS
 10
684.2469628688
 20
533.9901773847
  0
VERTEX
  8
0
 62
7
  6
CONTINUOUS
 10
684.279131729
 20
533.3553605115
  0
VERTEX
  8
0
 62
7
  6
CONTINUOUS
 10
684.3187058556
 20
532.5340263929
  0
SEQEND
  0
LINE
  8
0
 62
7
  6
CONTINUOUS
 10
684.2798114232
 20
527.8033096125
 11
684.2620626531
 21
528.157072435
  0
LINE
  8
0
 62
7
  6
CONTINUOUS
 10
684.6804216867
 20
519.2863961692
 11
684.2798114232
 21
527.8033096125
  0
LINE
  8
0
 62
7
  6
CONTINUOUS
 10
684.3187058556
 20
532.5340263929
 11
684.418173891
 21
530.3796094899
  0
LINE
  8
0
 62
7
  6
CONTINUOUS
 10
684.418173891
 20
530.3796094899
 11
684.5407269581
 21
527.6455237333
  0
LINE
  8
0
 62
7
  6
CONTINUOUS
 10
684.5407269581
 20
527.6455237333
 11
684.6804216867
 21
524.4827654943
  0
POLYLINE
  8
0
 62
7
  6
CONTINUOUS
 66
1
 70
0
  0
VERTEX
  8
0
 62
7
  6
CONTINUOUS
 10
684.2469628688
 20
528.2057772267
  0
VERTEX
  8
0
 62
7
  6
CONTINUOUS
 10
684.279131729
 20
527.1003769592
  0
VERTEX
  8
0
 62
7
  6
CONTINUOUS
 10
684.3187058556
 20
525.8441036752
  0
VERTEX
  8
0
 62
7
  6
CONTINUOUS
 10
684.3652331785
 20
524.4543305807
  0
VERTEX
  8
0
 62
7
  6
CONTINUOUS
 10
684.418173891
 20
522.950308277
  0
VERTEX
  8
0
 62
7
  6
CONTINUOUS
 10
684.4769083212
 20
521.3527541246
  0
VERTEX
  8
0
 62
7
  6
CONTINUOUS
 10
684.5407269581
 20
519.6839305748
  0
VERTEX
  8
0
 62
7
  6
CONTINUOUS
 10
684.6088491993
 20
517.966937828
  0
VERTEX
  8
0
 62
7
  6
CONTINUOUS
 10
684.6804216867
 20
516.2255900616
  0
SEQEND
  0
POLYLINE
  8
0
 62
7
  6
CONTINUOUS
 66
1
 70
0
  0
VERTEX
  8
0
 62
7
  6
CONTINUOUS
 10
684.2469628688
 20
502.8093784711
  0
VERTEX
  8
0
 62
7
  6
CONTINUOUS
 10
684.279131729
 20
501.3415990893
  0
VERTEX
  8
0
 62
7
  6
CONTINUOUS
 10
684.3187058556
 20
499.7733594218
  0
VERTEX
  8
0
 62
7
  6
CONTINUOUS
 10
684.3652331785
 20
498.1263655283
  0
VERTEX
  8
0
 62
7
  6
CONTINUOUS
 10
684.418173891
 20
496.4234503844
  0
VERTEX
  8
0
 62
7
  6
CONTINUOUS
 10
684.4769083212
 20
494.6880978763
  0
VERTEX
  8
0
 62
7
  6
CONTINUOUS
 10
684.5407269581
 20
492.9445165442
  0
VERTEX
  8
0
 62
7
  6
CONTINUOUS
 10
684.6088491993
 20
491.2168619623
  0
VERTEX
  8
0
 62
7
  6
CONTINUOUS
 10
684.6804216867
 20
489.5291202219
  0
SEQEND
  0
POLYLINE
  8
0
 62
7
  6
CONTINUOUS
 66
1
 70
0
  0
VERTEX
  8
0
 62
7
  6
CONTINUOUS
 10
684.2469628688
 20
341.7825832323
  0
VERTEX
  8
0
 62
7
  6
CONTINUOUS
 10
684.279131729
 20
340.1591982641
  0
VERTEX
  8
0
 62
7
  6
CONTINUOUS
 10
684.3187058556
 20
338.621619014
  0
VERTEX
  8
0
 62
7
  6
CONTINUOUS
 10
684.3652331785
 20
337.1911662197
  0
VERTEX
  8
0
 62
7
  6
CONTINUOUS
 10
684.418173891
 20
335.8877138273
  0
VERTEX
  8
0
 62
7
  6
CONTINUOUS
 10
684.4769083212
 20
334.7292990518
  0
VERTEX
  8
0
 62
7
  6
CONTINUOUS
 10
684.5407269581
 20
333.7321442649
  0
VERTEX
  8
0
 62
7
  6
CONTINUOUS
 10
684.6088491993
 20
332.9101155698
  0
VERTEX
  8
0
 62
7
  6
CONTINUOUS
 10
684.6804216867
 20
332.2746882391
  0
SEQEND
  0
POLYLINE
  8
0
 62
7
  6
CONTINUOUS
 66
1
 70
0
  0
VERTEX
  8
0
 62
7
  6
CONTINUOUS
 10
684.2469628688
 20
460.2869575753
  0
VERTEX
  8
0
 62
7
  6
CONTINUOUS
 10
684.279131729
 20
458.6004755516
  0
VERTEX
  8
0
 62
7
  6
CONTINUOUS
 10
684.3187058556
 20
456.873779726
  0
VERTEX
  8
0
 62
7
  6
CONTINUOUS
 10
684.3652331785
 20
455.1307842708
  0
VERTEX
  8
0
 62
7
  6
CONTINUOUS
 10
684.418173891
 20
453.3956694861
  0
VERTEX
  8
0
 62
7
  6
CONTINUOUS
 10
684.4769083212
 20
451.6923870166
  0
VERTEX
  8
0
 62
7
  6
CONTINUOUS
 10
684.5407269581
 20
450.0447217913
  0
VERTEX
  8
0
 62
7
  6
CONTINUOUS
 10
684.6088491993
 20
448.475520242
  0
VERTEX
  8
0
 62
7
  6
CONTINUOUS
 10
684.6804216867
 20
447.0065924484
  0
SEQEND
  0
POLYLINE
  8
0
 62
7
  6
CONTINUOUS
 66
1
 70
0
  0
VERTEX
  8
0
 62
7
  6
CONTINUOUS
 10
684.2469628688
 20
404.8009053676
  0
VERTEX
  8
0
 62
7
  6
CONTINUOUS
 10
684.279131729
 20
403.0608053131
  0
VERTEX
  8
0
 62
7
  6
CONTINUOUS
 10
684.3187058556
 20
401.3446743472
  0
VERTEX
  8
0
 62
7
  6
CONTINUOUS
 10
684.3652331785
 20
399.6762938698
  0
VERTEX
  8
0
 62
7
  6
CONTINUOUS
 10
684.418173891
 20
398.0788245685
  0
VERTEX
  8
0
 62
7
  6
CONTINUOUS
 10
684.4769083212
 20
396.5743412933
  0
VERTEX
  8
0
 62
7
  6
CONTINUOUS
 10
684.5407269581
 20
395.1838771269
  0
VERTEX
  8
0
 62
7
  6
CONTINUOUS
 10
684.6088491993
 20
393.9267329912
  0
VERTEX
  8
0
 62
7
  6
CONTINUOUS
 10
684.6804216867
 20
392.8204080315
  0
SEQEND
  0
LINE
  8
0
 62
7
  6
CONTINUOUS
 10
684.6804216867
 20
131.2217466115
 11
684.6804216867
 21
524.4827654943
  0
LINE
  8
0
 62
9
  6
CONTINUOUS
 10
690.4804216867
 20
504.8522560529
 11
690.4804216867
 21
150.8522560529
  0
LINE
  8
0
 62
7
  6
CONTINUOUS
 10
692.4804216867
 20
502.8522560529
 11
692.4804216867
 21
152.8522560529
  0
POLYLINE
  8
0
 62
7
  6
CONTINUOUS
 66
1
 70
0
  0
VERTEX
  8
0
 62
7
  6
CONTINUOUS
 10
684.2548630423
 20
136.6657064884
  0
VERTEX
  8
0
 62
7
  6
CONTINUOUS
 10
684.2492697425
 20
136.4787179104
  0
VERTEX
  8
0
 62
7
  6
CONTINUOUS
 10
684.2455538705
 20
136.3227923353
  0
VERTEX
  8
0
 62
7
  6
CONTINUOUS
 10
684.2438948212
 20
136.2055832644
  0
VERTEX
  8
0
 62
7
  6
CONTINUOUS
 10
684.2443723381
 20
136.1328479726
  0
VERTEX
  8
0
 62
7
  6
CONTINUOUS
 10
684.2469628688
 20
136.1081505504
  0
SEQEND
  0
POLYLINE
  8
0
 62
7
  6
CONTINUOUS
 66
1
 70
0
  0
VERTEX
  8
0
 62
7
  6
CONTINUOUS
 10
684.2455538705
 20
121.7272752734
  0
VERTEX
  8
0
 62
7
  6
CONTINUOUS
 10
684.2438948212
 20
121.6740502722
  0
VERTEX
  8
0
 62
7
  6
CONTINUOUS
 10
684.243916488
 20
121.6654896606
  0
SEQEND
  0
LINE
  8
0
 62
7
  6
CONTINUOUS
 10
684.270517845
 20
137.0950025494
 11
684.2548630423
 21
136.6657064884
  0
POLYLINE
  8
0
 62
7
  6
CONTINUOUS
 66
1
 70
0
  0
VERTEX
  8
0
 62
7
  6
CONTINUOUS
 10
684.270517845
 20
170.5186592223
  0
VERTEX
  8
0
 62
7
  6
CONTINUOUS
 10
684.2620626531
 20
170.3004889408
  0
VERTEX
  8
0
 62
7
  6
CONTINUOUS
 10
684.2548630423
 20
170.0785093669
  0
VERTEX
  8
0
 62
7
  6
CONTINUOUS
 10
684.2492697425
 20
169.8636706459
  0
VERTEX
  8
0
 62
7
  6
CONTINUOUS
 10
684.2455538705
 20
169.6665477701
  0
VERTEX
  8
0
 62
7
  6
CONTINUOUS
 10
684.2438948212
 20
169.49682787
  0
VERTEX
  8
0
 62
7
  6
CONTINUOUS
 10
684.2443723381
 20
169.3628591384
  0
VERTEX
  8
0
 62
7
  6
CONTINUOUS
 10
684.2469628688
 20
169.271215386
  0
SEQEND
  0
LINE
  8
0
 62
7
  6
CONTINUOUS
 10
684.2620626531
 20
122.1428683378
 11
684.2455538705
 21
121.7272752734
  0
LINE
  8
0
 62
7
  6
CONTINUOUS
 10
684.6362967741
 20
130.8181957005
 11
684.6804216867
 21
131.8437957532
  0
LINE
  8
0
 62
7
  6
CONTINUOUS
 10
684.2620626531
 20
122.1428683378
 11
684.6362967741
 21
130.8181957005
  0
LINE
  8
0
 62
7
  6
CONTINUOUS
 10
684.6362967741
 20
145.4373455484
 11
684.6804216867
 21
146.4561493352
  0
LINE
  8
0
 62
7
  6
CONTINUOUS
 10
684.270517845
 20
137.0950025494
 11
684.6362967741
 21
145.4373455484
  0
LINE
  8
0
 62
7
  6
CONTINUOUS
 10
684.4769083212
 20
126.6282786814
 11
684.6804216867
 21
131.2217466115
  0
LINE
  8
0
 62
7
  6
CONTINUOUS
 10
684.6362967741
 20
177.9125377959
 11
684.6804216867
 21
178.8248177037
  0
LINE
  8
0
 62
7
  6
CONTINUOUS
 10
684.270517845
 20
170.5186592223
 11
684.6362967741
 21
177.9125377959
  0
POLYLINE
  8
0
 62
7
  6
CONTINUOUS
 66
1
 70
0
  0
VERTEX
  8
0
 62
7
  6
CONTINUOUS
 10
684.2469628688
 20
121.7143347211
  0
VERTEX
  8
0
 62
7
  6
CONTINUOUS
 10
684.279131729
 20
122.3491515943
  0
VERTEX
  8
0
 62
7
  6
CONTINUOUS
 10
684.3187058556
 20
123.1704857129
  0
VERTEX
  8
0
 62
7
  6
CONTINUOUS
 10
684.3652331785
 20
124.1669973346
  0
VERTEX
  8
0
 62
7
  6
CONTINUOUS
 10
684.4769083212
 20
126.6282786814
  0
SEQEND
  0
POLYLINE
  8
0
 62
7
  6
CONTINUOUS
 66
1
 70
0
  0
VERTEX
  8
0
 62
7
  6
CONTINUOUS
 10
684.2798114232
 20
219.509271856
  0
VERTEX
  8
0
 62
7
  6
CONTINUOUS
 10
684.270517845
 20
219.3432245606
  0
VERTEX
  8
0
 62
7
  6
CONTINUOUS
 10
684.2620626531
 20
219.1486774384
  0
VERTEX
  8
0
 62
7
  6
CONTINUOUS
 10
684.2548630423
 20
218.9353058454
  0
VERTEX
  8
0
 62
7
  6
CONTINUOUS
 10
684.2492697425
 20
218.7136468922
  0
VERTEX
  8
0
 62
7
  6
CONTINUOUS
 10
684.2455538705
 20
218.4946224762
  0
VERTEX
  8
0
 62
7
  6
CONTINUOUS
 10
684.2438948212
 20
218.2890051134
  0
VERTEX
  8
0
 62
7
  6
CONTINUOUS
 10
684.2443723381
 20
218.1069167348
  0
VERTEX
  8
0
 62
7
  6
CONTINUOUS
 10
684.2469628688
 20
217.9572973812
  0
SEQEND
  0
LINE
  8
0
 62
7
  6
CONTINUOUS
 10
684.6362967741
 20
225.0648743578
 11
684.6804216867
 21
225.781330073
  0
LINE
  8
0
 62
7
  6
CONTINUOUS
 10
684.2798114232
 20
219.509271856
 11
684.6362967741
 21
225.0648743578
  0
POLYLINE
  8
0
 62
7
  6
CONTINUOUS
 66
1
 70
0
  0
VERTEX
  8
0
 62
7
  6
CONTINUOUS
 10
676.1138805047
 20
169.271215386
  0
VERTEX
  8
0
 62
7
  6
CONTINUOUS
 10
676.0817116445
 20
168.8305912816
  0
VERTEX
  8
0
 62
7
  6
CONTINUOUS
 10
676.0421375179
 20
168.5912981342
  0
VERTEX
  8
0
 62
7
  6
CONTINUOUS
 10
676.0117768555
 20
168.5453937342
  0
SEQEND
  0
POLYLINE
  8
0
 62
7
  6
CONTINUOUS
 66
1
 70
0
  0
VERTEX
  8
0
 62
7
  6
CONTINUOUS
 10
684.2798114232
 20
278.9017364927
  0
VERTEX
  8
0
 62
7
  6
CONTINUOUS
 10
684.270517845
 20
278.7894099283
  0
VERTEX
  8
0
 62
7
  6
CONTINUOUS
 10
684.2620626531
 20
278.637529593
  0
VERTEX
  8
0
 62
7
  6
CONTINUOUS
 10
684.2548630423
 20
278.4536522791
  0
VERTEX
  8
0
 62
7
  6
CONTINUOUS
 10
684.2492697425
 20
278.2468706166
  0
VERTEX
  8
0
 62
7
  6
CONTINUOUS
 10
684.2455538705
 20
278.0273842963
  0
VERTEX
  8
0
 62
7
  6
CONTINUOUS
 10
684.2438948212
 20
277.8059967307
  0
VERTEX
  8
0
 62
7
  6
CONTINUOUS
 10
684.2443723381
 20
277.5936127844
  0
VERTEX
  8
0
 62
7
  6
CONTINUOUS
 10
684.2469628688
 20
277.4006636143
  0
SEQEND
  0
POLYLINE
  8
0
 62
7
  6
CONTINUOUS
 66
1
 70
0
  0
VERTEX
  8
0
 62
7
  6
CONTINUOUS
 10
684.6510735415
 20
282.4224147421
  0
VERTEX
  8
0
 62
7
  6
CONTINUOUS
 10
684.6657841216
 20
282.5726034567
  0
VERTEX
  8
0
 62
7
  6
CONTINUOUS
 10
684.6804216867
 20
282.7292558472
  0
SEQEND
  0
POLYLINE
  8
0
 62
7
  6
CONTINUOUS
 66
1
 70
0
  0
VERTEX
  8
0
 62
7
  6
CONTINUOUS
 10
676.1138805047
 20
136.1081505504
  0
VERTEX
  8
0
 62
7
  6
CONTINUOUS
 10
676.1164710354
 20
136.1328479726
  0
VERTEX
  8
0
 62
7
  6
CONTINUOUS
 10
676.1169485523
 20
136.2055832644
  0
VERTEX
  8
0
 62
7
  6
CONTINUOUS
 10
676.1152895029
 20
136.3227923353
  0
VERTEX
  8
0
 62
7
  6
CONTINUOUS
 10
676.111573631
 20
136.4787179104
  0
VERTEX
  8
0
 62
7
  6
CONTINUOUS
 10
676.1059803312
 20
136.6657064884
  0
VERTEX
  8
0
 62
7
  6
CONTINUOUS
 10
676.0987807204
 20
136.8745651359
  0
VERTEX
  8
0
 62
7
  6
CONTINUOUS
 10
676.0903255285
 20
137.0950025494
  0
VERTEX
  8
0
 62
7
  6
CONTINUOUS
 10
675.6804216867
 20
146.4561493352
  0
SEQEND
  0
LINE
  8
0
 62
7
  6
CONTINUOUS
 10
684.2798114232
 20
278.9017364927
 11
684.6510735415
 21
282.4224147421
  0
LINE
  8
0
 62
9
  6
CONTINUOUS
 10
684.6362967741
 20
343.9536893601
 11
675.7245465994
 21
343.9536893601
  0
LINE
  8
0
 62
9
  6
CONTINUOUS
 10
659.2362967741
 20
343.9536893601
 11
650.3245465994
 21
343.9536893601
  0
LINE
  8
0
 62
9
  6
CONTINUOUS
 10
684.6804216867
 20
355.2645202265
 11
675.6804216867
 21
355.2645202265
  0
LINE
  8
0
 62
9
  6
CONTINUOUS
 10
659.2804216867
 20
355.2645202265
 11
650.2804216867
 21
355.2645202265
  0
LINE
  8
0
 62
7
  6
CONTINUOUS
 10
658.8798114232
 20
405.7787343079
 11
658.8710470917
 21
405.8005867071
  0
POLYLINE
  8
0
 62
7
  6
CONTINUOUS
 66
1
 70
0
  0
VERTEX
  8
0
 62
7
  6
CONTINUOUS
 10
684.243916488
 20
534.0390224452
  0
VERTEX
  8
0
 62
7
  6
CONTINUOUS
 10
684.2443723381
 20
534.0348438485
  0
VERTEX
  8
0
 62
7
  6
CONTINUOUS
 10
684.2469628688
 20
533.9901773847
  0
SEQEND
  0
POLYLINE
  8
0
 62
7
  6
CONTINUOUS
 66
1
 70
0
  0
VERTEX
  8
0
 62
7
  6
CONTINUOUS
 10
684.2798114232
 20
460.8436629362
  0
VERTEX
  8
0
 62
7
  6
CONTINUOUS
 10
684.270517845
 20
460.9326747814
  0
VERTEX
  8
0
 62
7
  6
CONTINUOUS
 10
684.2620626531
 20
460.9745661524
  0
VERTEX
  8
0
 62
7
  6
CONTINUOUS
 10
684.2593634571
 20
460.9776375325
  0
SEQEND
  0
POLYLINE
  8
0
 62
7
  6
CONTINUOUS
 66
1
 70
0
  0
VERTEX
  8
0
 62
7
  6
CONTINUOUS
 10
684.243916488
 20
121.6654896606
  0
VERTEX
  8
0
 62
7
  6
CONTINUOUS
 10
684.2443723381
 20
121.6696682573
  0
VERTEX
  8
0
 62
7
  6
CONTINUOUS
 10
684.2469628688
 20
121.7143347211
  0
SEQEND
  0
POLYLINE
  8
0
 62
7
  6
CONTINUOUS
 66
1
 70
0
  0
VERTEX
  8
0
 62
7
  6
CONTINUOUS
 10
684.6362967741
 20
404.052502241
  0
VERTEX
  8
0
 62
7
  6
CONTINUOUS
 10
684.6510735415
 20
403.9842838183
  0
VERTEX
  8
0
 62
7
  6
CONTINUOUS
 10
684.6657841216
 20
403.9231563104
  0
VERTEX
  8
0
 62
7
  6
CONTINUOUS
 10
684.6804216867
 20
403.8691463949
  0
SEQEND
  0
LINE
  8
0
 62
7
  6
CONTINUOUS
 10
684.2798114232
 20
405.7787343079
 11
684.6362967741
 21
404.052502241
  0
POLYLINE
  8
0
 62
7
  6
CONTINUOUS
 66
1
 70
0
  0
VERTEX
  8
0
 62
7
  6
CONTINUOUS
 10
658.8470396046
 20
136.108149799
  0
VERTEX
  8
0
 62
7
  6
CONTINUOUS
 10
658.879131729
 20
136.2102437307
  0
VERTEX
  8
0
 62
7
  6
CONTINUOUS
 10
658.9187058556
 20
136.5162407778
  0
VERTEX
  8
0
 62
7
  6
CONTINUOUS
 10
658.9652331785
 20
137.0219454261
  0
VERTEX
  8
0
 62
7
  6
CONTINUOUS
 10
659.018173891
 20
137.7203898485
  0
VERTEX
  8
0
 62
7
  6
CONTINUOUS
 10
659.0769083212
 20
138.6020042966
  0
VERTEX
  8
0
 62
7
  6
CONTINUOUS
 10
659.1407269581
 20
139.6545522961
  0
VERTEX
  8
0
 62
7
  6
CONTINUOUS
 10
659.2088491993
 20
140.8635033695
  0
VERTEX
  8
0
 62
7
  6
CONTINUOUS
 10
659.2804216867
 20
142.2121354483
  0
SEQEND
  0
LINE
  8
0
 62
9
  6
CONTINUOUS
 10
650.2804216867
 20
379.9953836458
 11
659.2804216867
 21
379.9953836458
  0
LINE
  8
0
 62
9
  6
CONTINUOUS
 10
675.6804216867
 20
379.9953836458
 11
684.6804216867
 21
379.9953836458
  0
LINE
  8
0
 62
9
  6
CONTINUOUS
 10
650.2804216867
 20
381.291484433
 11
659.2804216867
 21
381.291484433
  0
LINE
  8
0
 62
9
  6
CONTINUOUS
 10
675.6804216867
 20
381.291484433
 11
684.6804216867
 21
381.291484433
  0
LINE
  8
0
 62
7
  6
CONTINUOUS
 10
684.2798114232
 20
405.7787343079
 11
684.2710470917
 21
405.8005867071
  0
LINE
  8
0
 62
9
  6
CONTINUOUS
 10
650.2804216867
 20
387.4153009713
 11
659.2804216867
 21
387.4153009713
  0
LINE
  8
0
 62
9
  6
CONTINUOUS
 10
675.6804216867
 20
387.4153009713
 11
684.6804216867
 21
387.4153009713
  0
LINE
  8
0
 62
9
  6
CONTINUOUS
 10
684.6804216867
 20
391.0738681448
 11
675.6804216867
 21
391.0738681448
  0
LINE
  8
0
 62
9
  6
CONTINUOUS
 10
659.2804216867
 20
391.0738681448
 11
650.2804216867
 21
391.0738681448
  0
POLYLINE
  8
0
 62
7
  6
CONTINUOUS
 66
1
 70
0
  0
VERTEX
  8
0
 62
7
  6
CONTINUOUS
 10
684.2470396046
 20
136.108149799
  0
VERTEX
  8
0
 62
7
  6
CONTINUOUS
 10
684.279131729
 20
136.2102437307
  0
VERTEX
  8
0
 62
7
  6
CONTINUOUS
 10
684.3187058556
 20
136.5162407778
  0
VERTEX
  8
0
 62
7
  6
CONTINUOUS
 10
684.3652331785
 20
137.0219454261
  0
VERTEX
  8
0
 62
7
  6
CONTINUOUS
 10
684.418173891
 20
137.7203898485
  0
VERTEX
  8
0
 62
7
  6
CONTINUOUS
 10
684.4769083212
 20
138.6020042966
  0
VERTEX
  8
0
 62
7
  6
CONTINUOUS
 10
684.5407269581
 20
139.6545522961
  0
VERTEX
  8
0
 62
7
  6
CONTINUOUS
 10
684.6088491993
 20
140.8635033695
  0
VERTEX
  8
0
 62
7
  6
CONTINUOUS
 10
684.6804216867
 20
142.2121354483
  0
SEQEND
  0
POLYLINE
  8
0
 62
7
  6
CONTINUOUS
 66
1
 70
0
  0
VERTEX
  8
0
 62
7
  6
CONTINUOUS
 10
659.097664813
 20
215.1279761917
  0
VERTEX
  8
0
 62
7
  6
CONTINUOUS
 10
659.1407269581
 20
215.1736492915
  0
VERTEX
  8
0
 62
7
  6
CONTINUOUS
 10
659.2088491993
 20
215.4127804724
  0
VERTEX
  8
0
 62
7
  6
CONTINUOUS
 10
659.2804216867
 20
215.8535652477
  0
SEQEND
  0
LINE
  8
0
 62
9
  6
CONTINUOUS
 10
684.2469628688
 20
404.8009053676
 11
676.1138805047
 21
404.8009053676
  0
LINE
  8
0
 62
9
  6
CONTINUOUS
 10
658.8469628688
 20
404.8009053676
 11
650.7138805047
 21
404.8009053676
  0
LINE
  8
0
 62
7
  6
CONTINUOUS
 10
650.6897955601
 20
405.8005867071
 11
658.8710478134
 21
405.8005867071
  0
LINE
  8
0
 62
7
  6
CONTINUOUS
 10
676.0897955601
 20
405.8005867071
 11
684.2710478134
 21
405.8005867071
  0
LINE
  8
0
 62
9
  6
CONTINUOUS
 10
684.6804216867
 20
410.4934809902
 11
675.6804216867
 21
410.4934809902
  0
LINE
  8
0
 62
9
  6
CONTINUOUS
 10
659.2804216867
 20
410.4934809902
 11
650.2804216867
 21
410.4934809902
  0
POLYLINE
  8
0
 62
7
  6
CONTINUOUS
 66
1
 70
0
  0
VERTEX
  8
0
 62
7
  6
CONTINUOUS
 10
684.497664813
 20
215.1279761917
  0
VERTEX
  8
0
 62
7
  6
CONTINUOUS
 10
684.5407269581
 20
215.1736492915
  0
VERTEX
  8
0
 62
7
  6
CONTINUOUS
 10
684.6088491993
 20
215.4127804724
  0
VERTEX
  8
0
 62
7
  6
CONTINUOUS
 10
684.6804216867
 20
215.8535652477
  0
SEQEND
  0
LINE
  8
0
 62
9
  6
CONTINUOUS
 10
650.2804216867
 20
431.5308099492
 11
659.2804216867
 21
431.5308099492
  0
LINE
  8
0
 62
9
  6
CONTINUOUS
 10
675.6804216867
 20
431.5308099492
 11
684.6804216867
 21
431.5308099492
  0
LINE
  8
0
 62
7
  6
CONTINUOUS
 10
650.2804216867
 20
432.3552394446
 11
659.2804216867
 21
432.3552394446
  0
LINE
  8
0
 62
7
  6
CONTINUOUS
 10
675.6804216867
 20
432.3552394446
 11
684.6804216867
 21
432.3552394446
  0
LINE
  8
0
 62
9
  6
CONTINUOUS
 10
650.2804216867
 20
438.0938262463
 11
659.2804216867
 21
438.0938262463
  0
LINE
  8
0
 62
9
  6
CONTINUOUS
 10
675.6804216867
 20
438.0938262463
 11
684.6804216867
 21
438.0938262463
  0
POLYLINE
  8
0
 62
7
  6
CONTINUOUS
 66
1
 70
0
  0
VERTEX
  8
0
 62
7
  6
CONTINUOUS
 10
658.949066518
 20
168.5453937342
  0
VERTEX
  8
0
 62
7
  6
CONTINUOUS
 10
658.9652331785
 20
168.5566939147
  0
VERTEX
  8
0
 62
7
  6
CONTINUOUS
 10
659.018173891
 20
168.7273088718
  0
VERTEX
  8
0
 62
7
  6
CONTINUOUS
 10
659.0769083212
 20
169.1008631377
  0
VERTEX
  8
0
 62
7
  6
CONTINUOUS
 10
659.1407269581
 20
169.6722187139
  0
VERTEX
  8
0
 62
7
  6
CONTINUOUS
 10
659.2088491993
 20
170.4335206079
  0
VERTEX
  8
0
 62
7
  6
CONTINUOUS
 10
659.2804216867
 20
171.3742727206
  0
SEQEND
  0
LINE
  8
0
 62
9
  6
CONTINUOUS
 10
684.6804216867
 20
444.3715631833
 11
675.6804216867
 21
444.3715631833
  0
LINE
  8
0
 62
9
  6
CONTINUOUS
 10
659.2804216867
 20
444.3715631833
 11
650.2804216867
 21
444.3715631833
  0
POLYLINE
  8
0
 62
7
  6
CONTINUOUS
 66
1
 70
0
  0
VERTEX
  8
0
 62
7
  6
CONTINUOUS
 10
684.349066518
 20
168.5453937342
  0
VERTEX
  8
0
 62
7
  6
CONTINUOUS
 10
684.3652331785
 20
168.5566939147
  0
VERTEX
  8
0
 62
7
  6
CONTINUOUS
 10
684.418173891
 20
168.7273088718
  0
VERTEX
  8
0
 62
7
  6
CONTINUOUS
 10
684.4769083212
 20
169.1008631377
  0
VERTEX
  8
0
 62
7
  6
CONTINUOUS
 10
684.5407269581
 20
169.6722187139
  0
VERTEX
  8
0
 62
7
  6
CONTINUOUS
 10
684.6088491993
 20
170.4335206079
  0
VERTEX
  8
0
 62
7
  6
CONTINUOUS
 10
684.6804216867
 20
171.3742727206
  0
SEQEND
  0
LINE
  8
0
 62
9
  6
CONTINUOUS
 10
684.6804216867
 20
457.6329428619
 11
684.5555600064
 21
457.6329428619
  0
LINE
  8
0
 62
9
  6
CONTINUOUS
 10
675.8052833673
 20
457.6329428619
 11
675.6804216867
 21
457.6329428619
  0
LINE
  8
0
 62
9
  6
CONTINUOUS
 10
659.2804216867
 20
457.6329428619
 11
659.1555600062
 21
457.6329428619
  0
LINE
  8
0
 62
9
  6
CONTINUOUS
 10
650.4052833671
 20
457.6329428619
 11
650.2804216867
 21
457.6329428619
  0
LINE
  8
0
 62
9
  6
CONTINUOUS
 10
684.2469628688
 20
460.2869575753
 11
676.1138805047
 21
460.2869575753
  0
LINE
  8
0
 62
9
  6
CONTINUOUS
 10
658.8469628688
 20
460.2869575753
 11
650.7138805047
 21
460.2869575753
  0
LINE
  8
0
 62
7
  6
CONTINUOUS
 10
650.7014793433
 20
460.9776375325
 11
658.8593640302
 21
460.9776375325
  0
LINE
  8
0
 62
7
  6
CONTINUOUS
 10
676.1014793433
 20
460.9776375325
 11
684.2593640302
 21
460.9776375325
  0
LINE
  8
0
 62
9
  6
CONTINUOUS
 10
650.2804216867
 20
472.9174570262
 11
659.2804216867
 21
472.9174570262
  0
LINE
  8
0
 62
9
  6
CONTINUOUS
 10
675.6804216867
 20
472.9174570262
 11
684.6804216867
 21
472.9174570262
  0
LINE
  8
0
 62
7
  6
CONTINUOUS
 10
650.2804216867
 20
473.2994230374
 11
659.2804216867
 21
473.2994230374
  0
LINE
  8
0
 62
7
  6
CONTINUOUS
 10
675.6804216867
 20
473.2994230374
 11
684.6804216867
 21
473.2994230374
  0
LINE
  8
0
 62
9
  6
CONTINUOUS
 10
650.2804216867
 20
477.9811385327
 11
659.2804216867
 21
477.9811385327
  0
LINE
  8
0
 62
9
  6
CONTINUOUS
 10
675.6804216867
 20
477.9811385327
 11
684.6804216867
 21
477.9811385327
  0
LINE
  8
0
 62
9
  6
CONTINUOUS
 10
684.6804216867
 20
486.2635366022
 11
675.6804216867
 21
486.2635366022
  0
LINE
  8
0
 62
9
  6
CONTINUOUS
 10
659.2804216867
 20
486.2635366022
 11
650.2804216867
 21
486.2635366022
  0
LINE
  8
0
 62
9
  6
CONTINUOUS
 10
650.2804216867
 20
500.1041115032
 11
650.519992703
 21
500.1041115032
  0
LINE
  8
0
 62
9
  6
CONTINUOUS
 10
659.0408506704
 20
500.1041115032
 11
659.2804216867
 21
500.1041115032
  0
LINE
  8
0
 62
9
  6
CONTINUOUS
 10
675.6804216867
 20
500.1041115032
 11
675.9199927031
 21
500.1041115032
  0
LINE
  8
0
 62
9
  6
CONTINUOUS
 10
684.4408506705
 20
500.1041115032
 11
684.6804216867
 21
500.1041115032
  0
LINE
  8
0
 62
7
  6
CONTINUOUS
 10
650.2804216867
 20
500.2019984707
 11
650.5256482104
 21
500.2019984707
  0
LINE
  8
0
 62
7
  6
CONTINUOUS
 10
659.0351951629
 20
500.2019984707
 11
659.2804216867
 21
500.2019984707
  0
LINE
  8
0
 62
7
  6
CONTINUOUS
 10
675.6804216867
 20
500.2019984707
 11
675.9256482106
 21
500.2019984707
  0
LINE
  8
0
 62
7
  6
CONTINUOUS
 10
684.4351951631
 20
500.2019984707
 11
684.6804216867
 21
500.2019984707
  0
LINE
  8
0
 62
9
  6
CONTINUOUS
 10
684.2469628688
 20
502.8093784711
 11
676.1138805047
 21
502.8093784711
  0
LINE
  8
0
 62
9
  6
CONTINUOUS
 10
658.8469628688
 20
502.8093784711
 11
650.7138805047
 21
502.8093784711
  0
LINE
  8
0
 62
9
  6
CONTINUOUS
 10
650.2804216867
 20
503.1727897925
 11
650.7019944898
 21
503.1727897925
  0
LINE
  8
0
 62
9
  6
CONTINUOUS
 10
658.8588488837
 20
503.1727897925
 11
659.2804216867
 21
503.1727897925
  0
LINE
  8
0
 62
9
  6
CONTINUOUS
 10
675.6804216867
 20
503.1727897925
 11
676.1019944898
 21
503.1727897925
  0
LINE
  8
0
 62
9
  6
CONTINUOUS
 10
684.2588488837
 20
503.1727897925
 11
684.6804216867
 21
503.1727897925
  0
LINE
  8
0
 62
7
  6
CONTINUOUS
 10
650.710414247
 20
503.2213354469
 11
658.8504291265
 21
503.2213354469
  0
LINE
  8
0
 62
7
  6
CONTINUOUS
 10
676.110414247
 20
503.2213354469
 11
684.2504291265
 21
503.2213354469
  0
LINE
  8
0
 62
7
  6
CONTINUOUS
 10
675.6804216867
 20
504.8522560529
 11
659.2804216867
 21
504.8522560529
  0
LINE
  8
0
 62
7
  6
CONTINUOUS
 10
644.4804216867
 20
504.8522560529
 11
650.2804216867
 21
504.8522560529
  0
LINE
  8
0
 62
7
  6
CONTINUOUS
 10
684.6804216867
 20
504.8522560529
 11
690.4804216867
 21
504.8522560529
  0
LINE
  8
0
 62
9
  6
CONTINUOUS
 10
684.6804216867
 20
512.6491101647
 11
675.6804216867
 21
512.6491101647
  0
LINE
  8
0
 62
9
  6
CONTINUOUS
 10
659.2804216867
 20
512.6491101647
 11
650.2804216867
 21
512.6491101647
  0
LINE
  8
0
 62
9
  6
CONTINUOUS
 10
684.6804216867
 20
520.9454800913
 11
684.6021404741
 21
520.9454800913
  0
LINE
  8
0
 62
9
  6
CONTINUOUS
 10
675.7587028995
 20
520.9454800913
 11
675.6804216867
 21
520.9454800913
  0
LINE
  8
0
 62
9
  6
CONTINUOUS
 10
659.2804216867
 20
520.9454800913
 11
659.202140474
 21
520.9454800913
  0
LINE
  8
0
 62
9
  6
CONTINUOUS
 10
650.3587028994
 20
520.9454800913
 11
650.2804216867
 21
520.9454800913
  0
LINE
  8
0
 62
9
  6
CONTINUOUS
 10
684.2469628688
 20
528.2057772267
 11
676.1138805047
 21
528.2057772267
  0
LINE
  8
0
 62
9
  6
CONTINUOUS
 10
658.8469628688
 20
528.2057772267
 11
650.7138805047
 21
528.2057772267
  0
LINE
  8
0
 62
7
  6
CONTINUOUS
 10
650.7157348175
 20
528.3965729694
 11
658.845108556
 21
528.3965729694
  0
LINE
  8
0
 62
7
  6
CONTINUOUS
 10
676.1157348175
 20
528.3965729694
 11
684.245108556
 21
528.3965729694
  0
LINE
  8
0
 62
9
  6
CONTINUOUS
 10
684.2469628688
 20
533.9901773847
 11
676.1138805047
 21
533.9901773847
  0
LINE
  8
0
 62
9
  6
CONTINUOUS
 10
658.8469628688
 20
533.9901773847
 11
650.7138805047
 21
533.9901773847
  0
LINE
  8
0
 62
7
  6
CONTINUOUS
 10
650.7169268704
 20
534.0390224452
 11
658.8439165031
 21
534.0390224452
  0
LINE
  8
0
 62
7
  6
CONTINUOUS
 10
676.1169268704
 20
534.0390224452
 11
684.2439165031
 21
534.0390224452
  0
ARC
  8
0
 62
7
  6
CONTINUOUS
 10
114.7000401428
 20
186.1625377959
 40
16.5
 50
330.0
 51
36.0
  0
ARC
  8
0
 62
7
  6
CONTINUOUS
 10
129.9727424704
 20
183.3453937342
 40
14.8
 50
251.9817420984
 51
320.0
  0
ARC
  8
0
 62
7
  6
CONTINUOUS
 10
150.0775816057
 20
179.2245929274
 40
3.25
 50
358.849904579
 51
140.0
  0
ARC
  8
0
 62
7
  6
CONTINUOUS
 10
109.4228624879
 20
219.7961247701
 40
3.25
 50
340.8499045791
 51
122.0
  0
ARC
  8
0
 62
7
  6
CONTINUOUS
 10
114.3823403744
 20
218.0738939222
 40
2.0
 50
160.849904579
 51
216.0
  0
ARC
  8
0
 62
7
  6
CONTINUOUS
 10
83.460427965
 20
218.7661270305
 40
1.0
 50
132.0
 51
233.9817420984
  0
ARC
  8
0
 62
7
  6
CONTINUOUS
 10
125.7041258794
 20
170.2221733825
 40
1.0
 50
150.0
 51
251.9817420984
  0
ARC
  8
0
 62
7
  6
CONTINUOUS
 10
58.7522091923
 20
297.3522560529
 40
16.5
 50
294.0
 51
360.0
  0
ARC
  8
0
 62
7
  6
CONTINUOUS
 10
77.9207640196
 20
237.3267639782
 40
16.5
 50
312.0
 51
18.0
  0
ARC
  8
0
 62
7
  6
CONTINUOUS
 10
69.4522091923
 20
286.0960694406
 40
14.8
 50
215.9817420984
 51
284.0
  0
ARC
  8
0
 62
7
  6
CONTINUOUS
 10
91.575421699
 20
229.9279761917
 40
14.8
 50
233.9817420984
 51
302.0
  0
ARC
  8
0
 62
7
  6
CONTINUOUS
 10
83.2952197801
 20
270.944943614
 40
3.25
 50
322.8499045791
 51
104.0
  0
ARC
  8
0
 62
7
  6
CONTINUOUS
 10
74.2522091923
 20
327.6642466961
 40
3.25
 50
304.849904579
 51
86.0
  0
ARC
  8
0
 62
7
  6
CONTINUOUS
 10
87.4797649412
 20
267.7744417935
 40
2.0
 50
142.849904579
 51
198.0
  0
ARC
  8
0
 62
7
  6
CONTINUOUS
 10
77.2522091923
 20
323.3558247112
 40
2.0
 50
124.849904579
 51
180.0
  0
ARC
  8
0
 62
7
  6
CONTINUOUS
 10
58.2851904424
 20
277.988191035
 40
1.0
 50
114.0
 51
215.9817420984
  0
ARC
  8
0
 62
7
  6
CONTINUOUS
 10
225.3184627782
 20
129.0934760566
 40
16.5
 50
6.0
 51
72.0
  0
ARC
  8
0
 62
7
  6
CONTINUOUS
 10
165.4898257588
 20
148.8678884469
 40
16.5
 50
348.0
 51
54.0
  0
ARC
  8
0
 62
7
  6
CONTINUOUS
 10
239.3302142443
 20
135.7914278259
 40
14.8
 50
287.9817420984
 51
356.0
  0
ARC
  8
0
 62
7
  6
CONTINUOUS
 10
180.8855742195
 20
150.908149799
 40
14.8
 50
269.9817420984
 51
338.0
  0
ARC
  8
0
 62
7
  6
CONTINUOUS
 10
201.279809968
 20
153.2017723013
 40
3.25
 50
16.849904579
 51
158.0
  0
ARC
  8
0
 62
7
  6
CONTINUOUS
 10
206.3044137548
 20
154.7235662379
 40
2.0
 50
196.849904579
 51
252.0
  0
ARC
  8
0
 62
7
  6
CONTINUOUS
 10
155.3265239673
 20
179.1192170071
 40
2.0
 50
178.849904579
 51
234.0
  0
ARC
  8
0
 62
7
  6
CONTINUOUS
 10
243.590466265
 20
122.6654896606
 40
1.0
 50
186.0
 51
287.9817420984
  0
ARC
  8
0
 62
7
  6
CONTINUOUS
 10
180.8811767047
 20
137.1081504996
 40
1.0
 50
168.0
 51
269.9817420984
  0
ARC
  8
0
 62
7
  6
CONTINUOUS
 10
228.9476564753
 20
263.3960118199
 40
6.0
 50
45.0
 51
78.1598440864
  0
ARC
  8
0
 62
7
  6
CONTINUOUS
 10
231.4098409987
 20
275.1406977405
 40
6.0
 50
225.0
 51
258.1598440864
  0
ARC
  8
0
 62
7
  6
CONTINUOUS
 10
205.1179490465
 20
301.4325896927
 40
6.0
 50
191.8401559136
 51
225.0
  0
ARC
  8
0
 62
7
  6
CONTINUOUS
 10
193.373263126
 20
298.9704051693
 40
6.0
 50
11.8401559136
 51
45.0
  0
ARC
  8
0
 62
7
  6
CONTINUOUS
 10
250.907320128
 20
248.5861228509
 40
0.9443458372
 50
355.4216527464
 51
45.0
  0
ARC
  8
0
 62
7
  6
CONTINUOUS
 10
178.563374157
 20
320.930068822
 40
0.9443458372
 50
45.0
 51
94.5783472536
  0
ARC
  8
0
 62
7
  6
CONTINUOUS
 10
78.845139753
 20
420.1919376531
 40
16.5
 50
258.0
 51
324.0
  0
ARC
  8
0
 62
7
  6
CONTINUOUS
 10
59.0707273627
 20
360.3633006336
 40
16.5
 50
276.0
 51
342.0
  0
ARC
  8
0
 62
7
  6
CONTINUOUS
 10
80.885401105
 20
404.7961891923
 40
14.8
 50
179.9817420984
 51
248.0
  0
ARC
  8
0
 62
7
  6
CONTINUOUS
 10
65.768679132
 20
346.3515491676
 40
14.8
 50
197.9817420984
 51
266.0
  0
ARC
  8
0
 62
7
  6
CONTINUOUS
 10
83.1790236073
 20
384.4019534439
 40
3.25
 50
286.849904579
 51
68.0
  0
ARC
  8
0
 62
7
  6
CONTINUOUS
 10
84.7008175439
 20
379.3773496571
 40
2.0
 50
106.8499045791
 51
162.0
  0
ARC
  8
0
 62
7
  6
CONTINUOUS
 10
67.0854018057
 20
404.8005867071
 40
1.0
 50
78.0
 51
179.9817420984
  0
ARC
  8
0
 62
7
  6
CONTINUOUS
 10
52.6427409667
 20
342.0912971468
 40
1.0
 50
96.0
 51
197.9817420984
  0
ARC
  8
0
 62
7
  6
CONTINUOUS
 10
116.1397891019
 20
470.9817232691
 40
16.5
 50
240.0
 51
306.0
  0
ARC
  8
0
 62
7
  6
CONTINUOUS
 10
113.3226450403
 20
455.7090209415
 40
14.8
 50
161.9817420984
 51
230.0
  0
ARC
  8
0
 62
7
  6
CONTINUOUS
 10
109.2018442335
 20
435.6041818062
 40
3.25
 50
268.849904579
 51
50.0
  0
ARC
  8
0
 62
7
  6
CONTINUOUS
 10
149.7733760761
 20
476.2589009239
 40
3.25
 50
250.849904579
 51
32.0
  0
ARC
  8
0
 62
7
  6
CONTINUOUS
 10
109.0964683132
 20
430.3552394446
 40
2.0
 50
88.849904579
 51
144.0
  0
ARC
  8
0
 62
7
  6
CONTINUOUS
 10
148.0511452283
 20
471.2994230374
 40
2.0
 50
70.849904579
 51
126.0
  0
ARC
  8
0
 62
7
  6
CONTINUOUS
 10
148.7433783366
 20
502.2213354469
 40
1.0
 50
42.0
 51
143.9817420984
  0
ARC
  8
0
 62
7
  6
CONTINUOUS
 10
100.1994246886
 20
459.9776375325
 40
1.0
 50
60.0
 51
161.9817420984
  0
ARC
  8
0
 62
7
  6
CONTINUOUS
 10
178.0090610267
 20
327.8522560529
 40
6.0
 50
85.4216527464
 51
274.5783472536
  0
ARC
  8
0
 62
7
  6
CONTINUOUS
 10
193.373263126
 20
356.7341069365
 40
6.0
 50
315.0
 51
348.1598440864
  0
ARC
  8
0
 62
7
  6
CONTINUOUS
 10
205.1179490465
 20
354.2719224131
 40
6.0
 50
135.0
 51
168.1598440864
  0
ARC
  8
0
 62
7
  6
CONTINUOUS
 10
231.4098409987
 20
380.5638143653
 40
6.0
 50
101.8401559136
 51
135.0
  0
ARC
  8
0
 62
7
  6
CONTINUOUS
 10
228.9476564753
 20
392.3085002859
 40
6.0
 50
281.8401559136
 51
315.0
  0
ARC
  8
0
 62
7
  6
CONTINUOUS
 10
178.563374157
 20
334.7744432838
 40
0.9443458372
 50
265.4216527464
 51
315.0
  0
ARC
  8
0
 62
7
  6
CONTINUOUS
 10
250.907320128
 20
407.1183892549
 40
0.9443458372
 50
315.0
 51
4.5783472536
  0
ARC
  8
0
 62
7
  6
CONTINUOUS
 10
227.329507359
 20
526.9295542196
 40
16.5
 50
204.0
 51
270.0
  0
ARC
  8
0
 62
7
  6
CONTINUOUS
 10
167.3040152842
 20
507.7609993923
 40
16.5
 50
222.0
 51
288.0
  0
ARC
  8
0
 62
7
  6
CONTINUOUS
 10
216.0733207467
 20
516.2295542196
 40
14.8
 50
125.9817420984
 51
194.0
  0
ARC
  8
0
 62
7
  6
CONTINUOUS
 10
159.9052274978
 20
494.1063417129
 40
14.8
 50
143.9817420984
 51
212.0
  0
ARC
  8
0
 62
7
  6
CONTINUOUS
 10
200.9221949201
 20
502.3865436318
 40
3.25
 50
232.849904579
 51
14.0
  0
ARC
  8
0
 62
7
  6
CONTINUOUS
 10
257.6414980021
 20
511.4295542196
 40
3.25
 50
214.849904579
 51
356.0
  0
ARC
  8
0
 62
7
  6
CONTINUOUS
 10
197.7516930995
 20
498.2019984706
 40
2.0
 50
52.849904579
 51
108.0
  0
ARC
  8
0
 62
7
  6
CONTINUOUS
 10
253.3330760172
 20
508.4295542196
 40
2.0
 50
34.849904579
 51
90.0
  0
ARC
  8
0
 62
7
  6
CONTINUOUS
 10
207.9654423411
 20
527.3965729694
 40
1.0
 50
24.0
 51
125.9817420984
  0
ARC
  8
0
 62
7
  6
CONTINUOUS
 10
348.3549994337
 20
147.9435127135
 40
16.5
 50
42.0
 51
108.0
  0
ARC
  8
0
 62
7
  6
CONTINUOUS
 10
288.329507359
 20
128.7749578862
 40
16.5
 50
24.0
 51
90.0
  0
ARC
  8
0
 62
7
  6
CONTINUOUS
 10
355.7537872201
 20
161.5981703929
 40
14.8
 50
323.9817420984
 51
32.0
  0
ARC
  8
0
 62
7
  6
CONTINUOUS
 10
299.5856939712
 20
139.4749578862
 40
14.8
 50
305.9817420984
 51
14.0
  0
ARC
  8
0
 62
7
  6
CONTINUOUS
 10
314.7368197978
 20
153.317968474
 40
3.25
 50
52.849904579
 51
194.0
  0
ARC
  8
0
 62
7
  6
CONTINUOUS
 10
258.0175167158
 20
144.2749578862
 40
3.25
 50
34.849904579
 51
176.0
  0
ARC
  8
0
 62
7
  6
CONTINUOUS
 10
317.9073216184
 20
157.5025136352
 40
2.0
 50
232.849904579
 51
288.0
  0
ARC
  8
0
 62
7
  6
CONTINUOUS
 10
262.3259387007
 20
147.2749578862
 40
2.0
 50
214.849904579
 51
270.0
  0
ARC
  8
0
 62
7
  6
CONTINUOUS
 10
307.6935723768
 20
128.3079391364
 40
1.0
 50
204.0
 51
305.9817420984
  0
ARC
  8
0
 62
7
  6
CONTINUOUS
 10
322.2857515919
 20
298.9704051693
 40
6.0
 50
135.0
 51
168.1598440864
  0
ARC
  8
0
 62
7
  6
CONTINUOUS
 10
310.5410656714
 20
301.4325896927
 40
6.0
 50
315.0
 51
348.1598440864
  0
ARC
  8
0
 62
7
  6
CONTINUOUS
 10
284.2491737192
 20
275.1406977405
 40
6.0
 50
281.8401559136
 51
315.0
  0
ARC
  8
0
 62
7
  6
CONTINUOUS
 10
286.7113582426
 20
263.3960118199
 40
6.0
 50
101.8401559136
 51
135.0
  0
ARC
  8
0
 62
7
  6
CONTINUOUS
 10
257.829507359
 20
248.0318097206
 40
6.0
 50
175.4216527464
 51
4.5783472536
  0
ARC
  8
0
 62
7
  6
CONTINUOUS
 10
337.0956405609
 20
320.930068822
 40
0.9443458372
 50
85.4216527464
 51
135.0
  0
ARC
  8
0
 62
7
  6
CONTINUOUS
 10
264.7516945899
 20
248.5861228509
 40
0.9443458372
 50
135.0
 51
184.5783472536
  0
ARC
  8
0
 62
7
  6
CONTINUOUS
 10
399.519225616
 20
184.7227888367
 40
16.5
 50
60.0
 51
126.0
  0
ARC
  8
0
 62
7
  6
CONTINUOUS
 10
402.3363696777
 20
199.9954911643
 40
14.8
 50
341.9817420984
 51
50.0
  0
ARC
  8
0
 62
7
  6
CONTINUOUS
 10
406.4571704845
 20
220.1003302996
 40
3.25
 50
88.849904579
 51
230.0
  0
ARC
  8
0
 62
7
  6
CONTINUOUS
 10
365.8856386418
 20
179.4456111819
 40
3.25
 50
70.8499045791
 51
212.0
  0
ARC
  8
0
 62
7
  6
CONTINUOUS
 10
367.6078694896
 20
184.4050890684
 40
2.0
 50
250.849904579
 51
306.0
  0
ARC
  8
0
 62
7
  6
CONTINUOUS
 10
415.4595900294
 20
195.7268745733
 40
1.0
 50
240.0
 51
341.9817420984
  0
ARC
  8
0
 62
7
  6
CONTINUOUS
 10
366.9156363813
 20
153.4831766589
 40
1.0
 50
222.0
 51
323.9817420984
  0
ARC
  8
0
 62
7
  6
CONTINUOUS
 10
456.5882873552
 20
295.3412114722
 40
16.5
 50
96.0
 51
162.0
  0
ARC
  8
0
 62
7
  6
CONTINUOUS
 10
436.813874965
 20
235.5125744527
 40
16.5
 50
78.0
 51
144.0
  0
ARC
  8
0
 62
7
  6
CONTINUOUS
 10
449.8903355859
 20
309.3529629382
 40
14.8
 50
17.9817420984
 51
86.0
  0
ARC
  8
0
 62
7
  6
CONTINUOUS
 10
434.7736136129
 20
250.9083229135
 40
14.8
 50
359.9817420984
 51
68.0
  0
ARC
  8
0
 62
7
  6
CONTINUOUS
 10
432.4799911106
 20
271.3025586619
 40
3.25
 50
106.849904579
 51
248.0
  0
ARC
  8
0
 62
7
  6
CONTINUOUS
 10
430.958197174
 20
276.3271624487
 40
2.0
 50
286.849904579
 51
342.0
  0
ARC
  8
0
 62
7
  6
CONTINUOUS
 10
406.5625464047
 20
225.3492726612
 40
2.0
 50
268.849904579
 51
324.0
  0
ARC
  8
0
 62
7
  6
CONTINUOUS
 10
463.0162737512
 20
313.613214959
 40
1.0
 50
276.0
 51
17.9817420984
  0
ARC
  8
0
 62
7
  6
CONTINUOUS
 10
448.5736129122
 20
250.9039253987
 40
1.0
 50
258.0
 51
359.9817420984
  0
CIRCLE
  8
0
 62
7
  6
CONTINUOUS
 10
257.829507359
 20
327.8522560529
 40
177.0
  0
CIRCLE
  8
0
 62
9
  6
CONTINUOUS
 10
257.829507359
 20
327.8522560529
 40
175.0
  0
ARC
  8
0
 62
7
  6
CONTINUOUS
 10
286.7113582426
 20
392.3085002859
 40
6.0
 50
225.0
 51
258.1598440864
  0
ARC
  8
0
 62
7
  6
CONTINUOUS
 10
284.2491737192
 20
380.5638143653
 40
6.0
 50
45.0
 51
78.1598440864
  0
ARC
  8
0
 62
7
  6
CONTINUOUS
 10
310.5410656714
 20
354.2719224131
 40
6.0
 50
11.8401559136
 51
45.0
  0
ARC
  8
0
 62
7
  6
CONTINUOUS
 10
322.2857515919
 20
356.7341069365
 40
6.0
 50
191.8401559136
 51
225.0
  0
ARC
  8
0
 62
7
  6
CONTINUOUS
 10
337.6499536912
 20
327.8522560529
 40
6.0
 50
265.4216527464
 51
94.5783472536
  0
ARC
  8
0
 62
7
  6
CONTINUOUS
 10
257.829507359
 20
407.6727023852
 40
6.0
 50
355.4216527464
 51
184.5783472536
  0
ARC
  8
0
 62
7
  6
CONTINUOUS
 10
264.7516945899
 20
407.1183892549
 40
0.9443458372
 50
175.4216527464
 51
225.0
  0
ARC
  8
0
 62
7
  6
CONTINUOUS
 10
337.0956405609
 20
334.7744432838
 40
0.9443458372
 50
225.0
 51
274.5783472536
  0
ARC
  8
0
 62
7
  6
CONTINUOUS
 10
290.3405519397
 20
526.6110360492
 40
16.5
 50
186.0
 51
252.0
  0
ARC
  8
0
 62
7
  6
CONTINUOUS
 10
350.1691889591
 20
506.8366236589
 40
16.5
 50
168.0
 51
234.0
  0
ARC
  8
0
 62
7
  6
CONTINUOUS
 10
276.3288004736
 20
519.9130842799
 40
14.8
 50
107.9817420984
 51
176.0
  0
ARC
  8
0
 62
7
  6
CONTINUOUS
 10
334.7734404984
 20
504.7963623068
 40
14.8
 50
89.9817420984
 51
158.0
  0
CIRCLE
  8
0
 62
7
  6
CONTINUOUS
 10
257.829507359
 20
498.3522560529
 40
4.0
  0
ARC
  8
0
 62
7
  6
CONTINUOUS
 10
314.37920475
 20
502.5027398045
 40
3.25
 50
196.849904579
 51
338.0
  0
ARC
  8
0
 62
7
  6
CONTINUOUS
 10
309.3546009632
 20
500.9809458679
 40
2.0
 50
16.849904579
 51
72.0
  0
ARC
  8
0
 62
7
  6
CONTINUOUS
 10
272.0685484529
 20
533.0390224452
 40
1.0
 50
6.0
 51
107.9817420984
  0
ARC
  8
0
 62
7
  6
CONTINUOUS
 10
334.7778380132
 20
518.5963616062
 40
1.0
 50
348.0
 51
89.9817420984
  0
ARC
  8
0
 62
7
  6
CONTINUOUS
 10
437.7382506984
 20
418.3777481277
 40
16.5
 50
132.0
 51
198.0
  0
ARC
  8
0
 62
7
  6
CONTINUOUS
 10
456.9068055256
 20
358.3522560529
 40
16.5
 50
114.0
 51
180.0
  0
ARC
  8
0
 62
7
  6
CONTINUOUS
 10
424.083593019
 20
425.7765359141
 40
14.8
 50
53.9817420984
 51
122.0
  0
ARC
  8
0
 62
7
  6
CONTINUOUS
 10
446.2068055256
 20
369.6084426652
 40
14.8
 50
35.9817420984
 51
104.0
  0
ARC
  8
0
 62
7
  6
CONTINUOUS
 10
432.3637949379
 20
384.7595684918
 40
3.25
 50
142.849904579
 51
284.0
  0
ARC
  8
0
 62
7
  6
CONTINUOUS
 10
441.4068055256
 20
328.0402654097
 40
3.25
 50
124.849904579
 51
266.0
  0
ARC
  8
0
 62
7
  6
CONTINUOUS
 10
428.1792497767
 20
387.9300703123
 40
2.0
 50
322.849904579
 51
18.0
  0
ARC
  8
0
 62
7
  6
CONTINUOUS
 10
438.4068055256
 20
332.3486873946
 40
2.0
 50
304.849904579
 51
360.0
  0
ARC
  8
0
 62
7
  6
CONTINUOUS
 10
457.3738242755
 20
377.7163210708
 40
1.0
 50
294.0
 51
35.9817420984
  0
ARC
  8
0
 62
7
  6
CONTINUOUS
 10
400.9589745751
 20
469.5419743099
 40
16.5
 50
150.0
 51
216.0
  0
ARC
  8
0
 62
7
  6
CONTINUOUS
 10
385.6862722476
 20
472.3591183716
 40
14.8
 50
71.9817420984
 51
140.0
  0
ARC
  8
0
 62
7
  6
CONTINUOUS
 10
365.5814331123
 20
476.4799191784
 40
3.25
 50
178.8499045791
 51
320.0
  0
ARC
  8
0
 62
7
  6
CONTINUOUS
 10
406.23615223
 20
435.9083873357
 40
3.25
 50
160.849904579
 51
302.0
  0
ARC
  8
0
 62
7
  6
CONTINUOUS
 10
360.3324907507
 20
476.5852950987
 40
2.0
 50
358.8499045789
 51
54.0
  0
ARC
  8
0
 62
7
  6
CONTINUOUS
 10
401.2766743435
 20
437.6306181836
 40
2.0
 50
340.849904579
 51
36.0
  0
ARC
  8
0
 62
7
  6
CONTINUOUS
 10
389.9548888385
 20
485.4823387233
 40
1.0
 50
330.0
 51
71.9817420984
  0
ARC
  8
0
 62
7
  6
CONTINUOUS
 10
432.198586753
 20
436.9383850753
 40
1.0
 50
312.0
 51
53.9817420984
  0
ARC
  8
0
 62
7
  6
CONTINUOUS
 10
644.4804216867
 20
152.8522560529
 40
2.0
 50
180.0
 51
270.0
  0
ARC
  8
0
 62
7
  6
CONTINUOUS
 10
644.4804216867
 20
502.8522560529
 40
2.0
 50
90.0
 51
180.0
  0
ARC
  8
0
 62
7
  6
CONTINUOUS
 10
690.4804216867
 20
152.8522560529
 40
2.0
 50
270.0
 51
360.0
  0
ARC
  8
0
 62
7
  6
CONTINUOUS
 10
690.4804216867
 20
502.8522560529
 40
2.0
 50
0.0
 51
90.0
  0
ENDSEC
  0
EOF
