  0
SECTION
  2
HEADER
  9
$EXTMAX
 10
594.0
 20
420.0
 30
0.0
  9
$EXTMIN
 10
0.0
 20
0.0
 30
0.0
  9
$LIMMIN
 10
0.0
 20
0.0
  9
$LIMMAX
 10
594.0
 20
420.0
  9
$VIEWCTR
 10
297.0
 20
210.0
  9
$VIEWSIZE
 40
420.0
  9
$CLAYER
  8
0
  9
$LTSCALE
 40
32.67
  9
$CELTYPE
  6
BYLAYER
  9
$DIMSCALE
 40
1.0
  9
$DIMASZ
 40
3.5
  9
$DIMEXO
 40
0.0
  9
$DIMDLI
 40
22.572
  9
$DIMEXE
 40
2.0
  9
$DIMCEN
 40
5.346
  9
$DIMLFAC
 40
1.0
  9
$DIMBLK
  1
_FILLED
  9
$DIMALT
 70
0
  9
$DIMALTF
 40
0.0393700787
  9
$DIMTXT
 40
3.5
  9
$AUNITS
 70
0
  9
$PDMODE
 70
3
  9
$PDSIZE
 40
0.3125
  9
$TILEMODE
 70
1
  0
ENDSEC
  0
SECTION
  2
TABLES
  0
TABLE
  2
LTYPE
 70
6
  0
LTYPE
  2
BYBLOCK
 70
0
  3

 72
65
 73
0
 40
0.0
  0
LTYPE
  2
BYLAYER
 70
0
  3

 72
65
 73
0
 40
0.0
  0
LTYPE
  2
CONTINUOUS
 70
64
  3
Solid line
 72
65
 73
0
 40
0.0
  0
LTYPE
  2
CENTER
 70
64
  3
____ _ ____ _ ____ _ ____ _ ____ _ ____ _ ____
 72
65
 73
4
 40
0.6
 49
0.375
 49
-0.075
 49
0.075
 49
-0.075
  0
LTYPE
  2
HIDDEN
 70
64
  3
- - - - - - - - - - - - - - - - - - - -
 72
65
 73
2
 40
0.2
 49
0.1
 49
-0.1
  0
LTYPE
  2
PHANTOM
 70
64
  3
_____ _ _ _____ _ _ _____ _ _ _____
 72
65
 73
6
 40
0.8
 49
0.45
 49
-0.05
 49
0.1
 49
-0.05
 49
0.1
 49
-0.05
  0
LTYPE
  2
DOT
 70
64
  3
. . . . . . . . . . . . . . . . . . . .
 72
65
 73
2
 40
0.2
 49
0.1
 49
-0.1
  0
LTYPE
  2
DASHED
 70
64
  3
- - - - - - - - - - - - - - - - - - - -
 72
65
 73
2
 40
0.2
 49
0.1
 49
-0.1
  0
ENDTAB
  0
TABLE
  2
LAYER
 70
36
  0
LAYER
  2
0
 70
0
 62
7
  6
CONTINUOUS
  0
LAYER
  2
DEFAULT_1
 70
0
 62
7
  6
CENTER
  0
LAYER
  2
DEFAULT_2
 70
0
 62
8
  6
HIDDEN
  0
LAYER
  2
DEFAULT_3
 70
0
 62
7
  6
PHANTOM
  0
LAYER
  2
1_CSYS
 70
0
 62
7
  6
CONTINUOUS
  0
LAYER
  2
1_DATUM_PLANE
 70
0
 62
7
  6
CONTINUOUS
  0
LAYER
  2
2_FEATURE
 70
0
 62
7
  6
CONTINUOUS
  0
LAYER
  2
6_DIM
 70
0
 62
7
  6
CONTINUOUS
  0
LAYER
  2
AXES
 70
0
 62
7
  6
CONTINUOUS
  0
LAYER
  2
BLANK_BELT
 70
0
 62
7
  6
CONTINUOUS
  0
LAYER
  2
BLANK_CURVE_BORE
 70
0
 62
7
  6
CONTINUOUS
  0
LAYER
  2
BLANK_PLAN
 70
0
 62
7
  6
CONTINUOUS
  0
LAYER
  2
BLANK_SQ
 70
0
 62
7
  6
CONTINUOUS
  0
LAYER
  2
CSYS
 70
0
 62
7
  6
CONTINUOUS
  0
LAYER
  2
DTM_AXES
 70
0
 62
7
  6
CONTINUOUS
  0
LAYER
  2
DTM_CRV
 70
0
 62
7
  6
CONTINUOUS
  0
LAYER
  2
NOTES
 70
0
 62
7
  6
CONTINUOUS
  0
LAYER
  2
OUTERLINE
 70
0
 62
7
  6
CONTINUOUS
  0
LAYER
  2
PITCH_LINE
 70
0
 62
7
  6
CONTINUOUS
  0
LAYER
  2
PLANES
 70
0
 62
7
  6
CONTINUOUS
  0
LAYER
  2
QUILTS
 70
0
 62
7
  6
CONTINUOUS
  0
ENDTAB
  0
TABLE
  2
STYLE
 70
1
  0
STYLE
  2
STANDARD
 70
0
 40
0.0
 41
0.8
 50
0.0
 71
0
 42
0.2
  3
txt
  4

  0
STYLE
  2
TEXTSTYLE_1
 70
0
 40
0.0
 41
0.8
 50
0.0
 71
0
 42
0.2
  3
gdt
  4

  0
STYLE
  2
TEXTSTYLE_2
 70
0
 40
0.0
 41
0.6
 50
0.0
 71
0
 42
0.2
  3
txt
  4

  0
STYLE
  2
TEXTSTYLE_3
 70
0
 40
0.0
 41
1.0
 50
0.0
 71
0
 42
0.2
  3
ftb_____.ttf
  4

  0
STYLE
  2
TEXTSTYLE_4
 70
0
 40
0.0
 41
1.0
 50
0.0
 71
0
 42
0.2
  3
fti_____.ttf
  4

  0
STYLE
  2
TEXTSTYLE_5
 70
0
 40
0.0
 41
1.0
 50
0.0
 71
0
 42
0.2
  3
frutiger light.ttf
  4

  0
STYLE
  2
TEXTSTYLE_6
 70
0
 40
0.0
 41
0.7
 50
0.0
 71
0
 42
0.2
  3
txt
  4

  0
STYLE
  2
TEXTSTYLE_7
 70
0
 40
0.0
 41
0.8
 50
0.0
 71
0
 42
0.2
  3
txt
  4

  0
ENDTAB
  0
ENDSEC
  0
SECTION
  2
BLOCKS
  0
BLOCK
  8
0
 62
2
  6
CONTINUOUS
  2
UNI_LOGO2_BL1
 70
64
 10
557.4079930916
 20
35.8092573885
  0
TEXT
  8
0
 62
7
  6
CONTINUOUS
 10
548.4662781001
 20
30.9020137655
  7
TEXTSTYLE_4
 40
1.0655737705
  1
The brand for plastic modular belts and chains
 41
1.0
 72
0
  0
LINE
  8
0
 62
7
  6
CONTINUOUS
 10
533.3860614807
 20
36.3830278803
 11
533.3860614807
 21
34.2518803393
  0
LINE
  8
0
 62
7
  6
CONTINUOUS
 10
533.6751239738
 20
31.2609490436
 11
533.6751239738
 21
31.3577401029
  0
LINE
  8
0
 62
7
  6
CONTINUOUS
 10
533.3860614807
 20
31.3254764164
 11
533.4438739824
 21
31.1318942979
  0
LINE
  8
0
 62
7
  6
CONTINUOUS
 10
534.7795041036
 20
34.1699131262
 11
534.7795041036
 21
36.3830278803
  0
LINE
  8
0
 62
7
  6
CONTINUOUS
 10
535.6985614255
 20
32.3256508311
 11
535.6985614255
 21
30.8092573885
  0
LINE
  8
0
 62
7
  6
CONTINUOUS
 10
535.9876239807
 20
30.8092573885
 11
535.9876239807
 21
31.5513222666
  0
LINE
  8
0
 62
7
  6
CONTINUOUS
 10
535.9876239807
 20
31.6803770123
 11
535.9876239807
 21
32.3256508311
  0
LINE
  8
0
 62
7
  6
CONTINUOUS
 10
533.4438739824
 20
31.5190585802
 11
533.3860614807
 21
31.3254764164
  0
LINE
  8
0
 62
7
  6
CONTINUOUS
 10
533.7907489669
 20
31.0996306115
 11
533.6751239738
 21
31.2609490436
  0
LINE
  8
0
 62
7
  6
CONTINUOUS
 10
534.8891865358
 20
31.6158496394
 11
534.9469989807
 21
31.5190585802
  0
LINE
  8
0
 62
7
  6
CONTINUOUS
 10
535.2360615358
 20
31.5190585802
 11
535.1782489255
 21
31.6481133259
  0
LINE
  8
0
 62
7
  6
CONTINUOUS
 10
536.6647500053
 20
36.3830278803
 11
536.6647500053
 21
34.5797491918
  0
LINE
  8
0
 62
7
  6
CONTINUOUS
 10
536.6647500053
 20
33.2682737819
 11
536.6647500053
 21
32.612536077
  0
LINE
  8
0
 62
7
  6
CONTINUOUS
 10
537.0282489807
 20
31.4545312073
 11
537.0282489807
 21
30.8092573885
  0
LINE
  8
0
 62
7
  6
CONTINUOUS
 10
537.3173113704
 20
30.8092573885
 11
537.3173113704
 21
31.4545312073
  0
LINE
  8
0
 62
7
  6
CONTINUOUS
 10
533.6751239738
 20
31.3577401029
 11
533.7329364807
 21
31.4867948937
  0
LINE
  8
0
 62
7
  6
CONTINUOUS
 10
533.4438739824
 20
31.1318942979
 11
533.5594989807
 21
31.0028395296
  0
LINE
  8
0
 62
7
  6
CONTINUOUS
 10
536.9704363704
 20
31.583585953
 11
537.0282489807
 21
31.4545312073
  0
LINE
  8
0
 62
7
  6
CONTINUOUS
 10
537.7798115909
 20
31.0996306115
 11
537.8376238704
 21
30.9705758432
  0
LINE
  8
0
 62
7
  6
CONTINUOUS
 10
537.3173113704
 20
31.4545312073
 11
537.2594990909
 21
31.6158496394
  0
LINE
  8
0
 62
7
  6
CONTINUOUS
 10
537.7798115909
 20
31.6481133259
 11
537.7798115909
 21
31.583585953
  0
LINE
  8
0
 62
7
  6
CONTINUOUS
 10
537.7798115909
 20
31.1964216708
 11
537.7798115909
 21
31.0996306115
  0
LINE
  8
0
 62
7
  6
CONTINUOUS
 10
538.0581926282
 20
32.612536077
 11
538.0581926282
 21
36.3830278803
  0
LINE
  8
0
 62
7
  6
CONTINUOUS
 10
538.0688739807
 20
31.0673669025
 11
538.0688739807
 21
31.1318942979
  0
LINE
  8
0
 62
7
  6
CONTINUOUS
 10
538.3860614807
 20
36.3830278803
 11
538.3860614807
 21
32.612536077
  0
LINE
  8
0
 62
7
  6
CONTINUOUS
 10
535.1782489255
 20
31.0028395296
 11
535.2360615358
 21
31.1318942979
  0
LINE
  8
0
 62
7
  6
CONTINUOUS
 10
539.5719992012
 20
30.9060484591
 11
539.5141862601
 21
31.0673669025
  0
LINE
  8
0
 62
7
  6
CONTINUOUS
 10
539.2251242012
 20
31.583585953
 11
539.2251242012
 21
31.4867948937
  0
LINE
  8
0
 62
7
  6
CONTINUOUS
 10
539.2251242012
 20
31.3577401029
 11
539.2251242012
 21
31.1641579843
  0
LINE
  8
0
 62
7
  6
CONTINUOUS
 10
539.5141862601
 20
31.0673669025
 11
539.5141862601
 21
31.583585953
  0
LINE
  8
0
 62
7
  6
CONTINUOUS
 10
539.7795041036
 20
32.612536077
 11
539.7795041036
 21
34.4158147655
  0
LINE
  8
0
 62
7
  6
CONTINUOUS
 10
539.7795041036
 20
35.7272901754
 11
539.7795041036
 21
36.3830278803
  0
LINE
  8
0
 62
7
  6
CONTINUOUS
 10
540.0923117012
 20
32.3256508311
 11
540.0923117012
 21
32.164332399
  0
LINE
  8
0
 62
7
  6
CONTINUOUS
 10
540.0923117012
 20
31.8416954444
 11
540.0923117012
 21
30.8092573885
  0
LINE
  8
0
 62
7
  6
CONTINUOUS
 10
540.3813737601
 20
30.8092573885
 11
540.3813737601
 21
31.8416954444
  0
LINE
  8
0
 62
7
  6
CONTINUOUS
 10
540.3813737601
 20
32.164332399
 11
540.3813737601
 21
32.3256508311
  0
LINE
  8
0
 62
7
  6
CONTINUOUS
 10
534.9469989807
 20
31.1318942979
 11
534.8891865358
 21
31.035103216
  0
LINE
  8
0
 62
7
  6
CONTINUOUS
 10
537.2594990909
 20
31.6158496394
 11
537.2016864807
 21
31.6803770123
  0
LINE
  8
0
 62
7
  6
CONTINUOUS
 10
538.1266865909
 20
31.0028395296
 11
538.0688739807
 21
31.0673669025
  0
LINE
  8
0
 62
7
  6
CONTINUOUS
 10
539.2829364807
 20
30.873784767
 11
539.3407487601
 21
30.8092573885
  0
LINE
  8
0
 62
7
  6
CONTINUOUS
 10
539.2251242012
 20
30.9705758432
 11
539.2829364807
 21
30.873784767
  0
LINE
  8
0
 62
7
  6
CONTINUOUS
 10
539.6298114807
 20
30.8092573885
 11
539.5719992012
 21
30.9060484591
  0
LINE
  8
0
 62
7
  6
CONTINUOUS
 10
539.5141862601
 20
31.583585953
 11
539.4563739807
 21
31.6803770123
  0
LINE
  8
0
 62
7
  6
CONTINUOUS
 10
540.8438739807
 20
31.8416954444
 11
540.8438739807
 21
30.8092573885
  0
LINE
  8
0
 62
7
  6
CONTINUOUS
 10
541.1329367012
 20
30.8092573885
 11
541.1329367012
 21
31.5513222666
  0
LINE
  8
0
 62
7
  6
CONTINUOUS
 10
541.1329367012
 20
31.6803770123
 11
541.1329367012
 21
31.8416954444
  0
LINE
  8
0
 62
7
  6
CONTINUOUS
 10
541.6647500053
 20
34.8256508311
 11
541.6647500053
 21
32.612536077
  0
LINE
  8
0
 62
7
  6
CONTINUOUS
 10
533.5594989807
 20
31.6481133259
 11
533.4438739824
 21
31.5190585802
  0
LINE
  8
0
 62
7
  6
CONTINUOUS
 10
533.7329364807
 20
31.4867948937
 11
533.7907489669
 21
31.5513222666
  0
LINE
  8
0
 62
7
  6
CONTINUOUS
 10
533.5594989807
 20
31.0028395296
 11
533.6751239738
 21
30.9383121455
  0
LINE
  8
0
 62
7
  6
CONTINUOUS
 10
533.9641864669
 20
31.0028395296
 11
533.7907489669
 21
31.0996306115
  0
LINE
  8
0
 62
7
  6
CONTINUOUS
 10
539.1673112601
 20
31.6481133259
 11
539.2251242012
 21
31.583585953
  0
LINE
  8
0
 62
7
  6
CONTINUOUS
 10
542.1157487601
 20
31.583585953
 11
542.1735617012
 21
31.4222675209
  0
LINE
  8
0
 62
7
  6
CONTINUOUS
 10
542.4626237601
 20
31.4222675209
 11
542.4048114807
 21
31.583585953
  0
LINE
  8
0
 62
7
  6
CONTINUOUS
 10
542.1735617012
 20
31.4222675209
 11
542.1735617012
 21
30.8092573885
  0
LINE
  8
0
 62
7
  6
CONTINUOUS
 10
542.4626237601
 20
30.8092573885
 11
542.4626237601
 21
31.4222675209
  0
LINE
  8
0
 62
7
  6
CONTINUOUS
 10
542.9251239807
 20
31.6481133259
 11
542.9251239807
 21
31.583585953
  0
LINE
  8
0
 62
7
  6
CONTINUOUS
 10
543.0581926282
 20
32.612536077
 11
543.0581926282
 21
34.743683618
  0
LINE
  8
0
 62
7
  6
CONTINUOUS
 10
543.3860614807
 20
36.3830278803
 11
543.3860614807
 21
32.612536077
  0
LINE
  8
0
 62
7
  6
CONTINUOUS
 10
538.0688739807
 20
31.1318942979
 11
538.1266865909
 21
31.2286853572
  0
LINE
  8
0
 62
7
  6
CONTINUOUS
 10
533.6751239738
 20
30.9383121455
 11
533.8485614944
 21
30.873784767
  0
LINE
  8
0
 62
7
  6
CONTINUOUS
 10
535.1782489255
 20
31.6481133259
 11
535.0048114255
 21
31.7449043851
  0
LINE
  8
0
 62
7
  6
CONTINUOUS
 10
537.8376238704
 20
30.9705758432
 11
538.0110613704
 21
30.873784767
  0
LINE
  8
0
 62
7
  6
CONTINUOUS
 10
536.8548114807
 20
31.6481133259
 11
536.9704363704
 21
31.583585953
  0
LINE
  8
0
 62
7
  6
CONTINUOUS
 10
537.2016864807
 20
31.6803770123
 11
537.0860615909
 21
31.7449043851
  0
LINE
  8
0
 62
7
  6
CONTINUOUS
 10
542.9251239807
 20
31.0673669025
 11
543.0407492012
 21
30.9383121455
  0
LINE
  8
0
 62
7
  6
CONTINUOUS
 10
543.2719989807
 20
31.0028395296
 11
543.2141867012
 21
31.0673669025
  0
LINE
  8
0
 62
7
  6
CONTINUOUS
 10
542.9251239807
 20
31.583585953
 11
543.0407492012
 21
31.4545312073
  0
LINE
  8
0
 62
7
  6
CONTINUOUS
 10
542.4048114807
 20
31.583585953
 11
542.3469992012
 21
31.6803770123
  0
LINE
  8
0
 62
7
  6
CONTINUOUS
 10
544.7751235396
 20
31.0028395296
 11
544.7751235396
 21
31.0673669025
  0
LINE
  8
0
 62
7
  6
CONTINUOUS
 10
544.7795041036
 20
32.612536077
 11
544.7795041036
 21
36.3830278803
  0
LINE
  8
0
 62
7
  6
CONTINUOUS
 10
537.8376238704
 20
31.7126406987
 11
537.7798115909
 21
31.6481133259
  0
LINE
  8
0
 62
7
  6
CONTINUOUS
 10
534.7157489531
 20
31.6803770123
 11
534.8891865358
 21
31.6158496394
  0
LINE
  8
0
 62
7
  6
CONTINUOUS
 10
539.4563739807
 20
31.6803770123
 11
539.3407487601
 21
31.7449043851
  0
LINE
  8
0
 62
7
  6
CONTINUOUS
 10
543.2719989807
 20
31.5190585802
 11
543.2141867012
 21
31.583585953
  0
LINE
  8
0
 62
7
  6
CONTINUOUS
 10
544.4282492012
 20
31.1318942979
 11
544.4860614807
 21
31.0673669025
  0
LINE
  8
0
 62
7
  6
CONTINUOUS
 10
544.7751235396
 20
31.0673669025
 11
544.6594989807
 21
31.1964216708
  0
LINE
  8
0
 62
7
  6
CONTINUOUS
 10
544.4282492012
 20
31.6481133259
 11
544.4860614807
 21
31.583585953
  0
LINE
  8
0
 62
7
  6
CONTINUOUS
 10
544.7751235396
 20
31.583585953
 11
544.6594989807
 21
31.7126406987
  0
LINE
  8
0
 62
7
  6
CONTINUOUS
 10
538.0688739807
 20
31.583585953
 11
538.1266865909
 21
31.6481133259
  0
LINE
  8
0
 62
7
  6
CONTINUOUS
 10
537.8954364807
 20
31.3254764164
 11
537.7798115909
 21
31.1964216708
  0
LINE
  8
0
 62
7
  6
CONTINUOUS
 10
539.2251242012
 20
31.1641579843
 11
539.1673112601
 21
31.0996306115
  0
LINE
  8
0
 62
7
  6
CONTINUOUS
 10
539.1673112601
 20
30.9060484591
 11
539.2251242012
 21
30.9705758432
  0
LINE
  8
0
 62
7
  6
CONTINUOUS
 10
538.0110613704
 20
30.873784767
 11
538.1266865909
 21
30.8415210777
  0
LINE
  8
0
 62
7
  6
CONTINUOUS
 10
535.0048114255
 20
31.7449043851
 11
534.7735614807
 21
31.809431758
  0
LINE
  8
0
 62
7
  6
CONTINUOUS
 10
538.3579363704
 20
30.9383121455
 11
538.1266865909
 21
31.0028395296
  0
LINE
  8
0
 62
7
  6
CONTINUOUS
 10
537.0860615909
 20
31.7449043851
 11
536.9126240909
 21
31.809431758
  0
LINE
  8
0
 62
7
  6
CONTINUOUS
 10
539.3407487601
 20
31.7449043851
 11
539.1673112601
 21
31.809431758
  0
LINE
  8
0
 62
7
  6
CONTINUOUS
 10
542.0001242012
 20
31.6481133259
 11
542.1157487601
 21
31.583585953
  0
LINE
  8
0
 62
7
  6
CONTINUOUS
 10
542.3469992012
 20
31.6803770123
 11
542.2313739807
 21
31.7449043851
  0
LINE
  8
0
 62
7
  6
CONTINUOUS
 10
533.8485614944
 20
30.873784767
 11
534.0219989944
 21
30.8415210777
  0
LINE
  8
0
 62
7
  6
CONTINUOUS
 10
534.3110615082
 20
30.9383121455
 11
533.9641864669
 21
31.0028395296
  0
LINE
  8
0
 62
7
  6
CONTINUOUS
 10
536.7391865909
 20
31.6803770123
 11
536.8548114807
 21
31.6481133259
  0
LINE
  8
0
 62
7
  6
CONTINUOUS
 10
539.0516867012
 20
31.6803770123
 11
539.1673112601
 21
31.6481133259
  0
LINE
  8
0
 62
7
  6
CONTINUOUS
 10
543.3876242012
 20
30.9705758432
 11
543.2719989807
 21
31.0028395296
  0
LINE
  8
0
 62
7
  6
CONTINUOUS
 10
541.8844989807
 20
31.6803770123
 11
542.0001242012
 21
31.6481133259
  0
LINE
  8
0
 62
7
  6
CONTINUOUS
 10
543.0407492012
 20
30.9383121455
 11
543.2141867012
 21
30.873784767
  0
LINE
  8
0
 62
7
  6
CONTINUOUS
 10
542.2313739807
 20
31.7449043851
 11
542.0579364807
 21
31.809431758
  0
LINE
  8
0
 62
7
  6
CONTINUOUS
 10
543.4454364807
 20
31.4545312073
 11
543.2719989807
 21
31.5190585802
  0
LINE
  8
0
 62
7
  6
CONTINUOUS
 10
544.2548117012
 20
31.1964216708
 11
544.4282492012
 21
31.1318942979
  0
LINE
  8
0
 62
7
  6
CONTINUOUS
 10
544.6594989807
 20
31.7126406987
 11
544.4860614807
 21
31.7771680715
  0
LINE
  8
0
 62
7
  6
CONTINUOUS
 10
543.0407492012
 20
31.4545312073
 11
543.2719989807
 21
31.3577401029
  0
LINE
  8
0
 62
7
  6
CONTINUOUS
 10
544.6594989807
 20
31.1964216708
 11
544.4282492012
 21
31.29321273
  0
LINE
  8
0
 62
7
  6
CONTINUOUS
 10
543.2141867012
 20
31.583585953
 11
543.2719989807
 21
31.6481133259
  0
LINE
  8
0
 62
7
  6
CONTINUOUS
 10
533.6751239738
 20
31.7126406987
 11
533.5594989807
 21
31.6481133259
  0
LINE
  8
0
 62
7
  6
CONTINUOUS
 10
533.7907489669
 20
31.5513222666
 11
533.9641864669
 21
31.6481133259
  0
LINE
  8
0
 62
7
  6
CONTINUOUS
 10
536.1032490358
 20
31.7449043851
 11
535.9876239807
 21
31.6803770123
  0
LINE
  8
0
 62
7
  6
CONTINUOUS
 10
535.9876239807
 20
31.5513222666
 11
536.1032490358
 21
31.6158496394
  0
LINE
  8
0
 62
7
  6
CONTINUOUS
 10
535.0048114255
 20
30.9060484591
 11
535.1782489255
 21
31.0028395296
  0
LINE
  8
0
 62
7
  6
CONTINUOUS
 10
534.0219989944
 20
30.8415210777
 11
534.3688739531
 21
30.8092573885
  0
LINE
  8
0
 62
7
  6
CONTINUOUS
 10
538.1266865909
 20
30.8415210777
 11
538.3579363704
 21
30.8092573885
  0
LINE
  8
0
 62
7
  6
CONTINUOUS
 10
536.5079364807
 20
31.7126406987
 11
536.7391865909
 21
31.6803770123
  0
LINE
  8
0
 62
7
  6
CONTINUOUS
 10
538.8204365909
 20
31.7126406987
 11
539.0516867012
 21
31.6803770123
  0
LINE
  8
0
 62
7
  6
CONTINUOUS
 10
543.2719989807
 20
31.3577401029
 11
544.2548117012
 21
31.1964216708
  0
LINE
  8
0
 62
7
  6
CONTINUOUS
 10
544.4282492012
 20
31.29321273
 11
543.4454364807
 21
31.4545312073
  0
LINE
  8
0
 62
7
  6
CONTINUOUS
 10
536.9126240909
 20
31.809431758
 11
536.7391865909
 21
31.8416954444
  0
LINE
  8
0
 62
7
  6
CONTINUOUS
 10
543.2141867012
 20
30.873784767
 11
543.3876242012
 21
30.8415210777
  0
LINE
  8
0
 62
7
  6
CONTINUOUS
 10
542.0579364807
 20
31.809431758
 11
541.8844989807
 21
31.8416954444
  0
LINE
  8
0
 62
7
  6
CONTINUOUS
 10
544.3126239807
 20
31.6803770123
 11
544.4282492012
 21
31.6481133259
  0
LINE
  8
0
 62
7
  6
CONTINUOUS
 10
544.4860614807
 20
31.0673669025
 11
544.4282492012
 21
31.0028395296
  0
LINE
  8
0
 62
7
  6
CONTINUOUS
 10
543.0407492012
 20
31.7449043851
 11
542.9251239807
 21
31.6481133259
  0
LINE
  8
0
 62
7
  6
CONTINUOUS
 10
537.9532490909
 20
31.7771680715
 11
537.8376238704
 21
31.7126406987
  0
LINE
  8
0
 62
7
  6
CONTINUOUS
 10
538.0110613704
 20
31.3900038345
 11
537.8954364807
 21
31.3254764164
  0
LINE
  8
0
 62
7
  6
CONTINUOUS
 10
538.1266865909
 20
31.2286853572
 11
538.2423114807
 21
31.29321273
  0
LINE
  8
0
 62
7
  6
CONTINUOUS
 10
535.6985614255
 20
30.8092573885
 11
535.9876239807
 21
30.8092573885
  0
LINE
  8
0
 62
7
  6
CONTINUOUS
 10
537.0282489807
 20
30.8092573885
 11
537.3173113704
 21
30.8092573885
  0
LINE
  8
0
 62
7
  6
CONTINUOUS
 10
538.3579363704
 20
30.8092573885
 11
538.7048113704
 21
30.8092573885
  0
LINE
  8
0
 62
7
  6
CONTINUOUS
 10
539.3407487601
 20
30.8092573885
 11
539.6298114807
 21
30.8092573885
  0
LINE
  8
0
 62
7
  6
CONTINUOUS
 10
540.0923117012
 20
30.8092573885
 11
540.3813737601
 21
30.8092573885
  0
LINE
  8
0
 62
7
  6
CONTINUOUS
 10
540.8438739807
 20
30.8092573885
 11
541.1329367012
 21
30.8092573885
  0
LINE
  8
0
 62
7
  6
CONTINUOUS
 10
542.1735617012
 20
30.8092573885
 11
542.4626237601
 21
30.8092573885
  0
LINE
  8
0
 62
7
  6
CONTINUOUS
 10
543.7344992012
 20
30.8092573885
 11
544.0813742012
 21
30.8092573885
  0
LINE
  8
0
 62
7
  6
CONTINUOUS
 10
544.0813742012
 20
30.9383121455
 11
543.7344992012
 21
30.9383121455
  0
LINE
  8
0
 62
7
  6
CONTINUOUS
 10
538.7048113704
 20
30.9383121455
 11
538.3579363704
 21
30.9383121455
  0
LINE
  8
0
 62
7
  6
CONTINUOUS
 10
543.2141867012
 20
31.0673669025
 11
542.9251239807
 21
31.0673669025
  0
LINE
  8
0
 62
7
  6
CONTINUOUS
 10
535.2360615358
 20
31.1318942979
 11
534.9469989807
 21
31.1318942979
  0
LINE
  8
0
 62
7
  6
CONTINUOUS
 10
534.3110615082
 20
31.7126406987
 11
534.7157489531
 21
31.6803770123
  0
LINE
  8
0
 62
7
  6
CONTINUOUS
 10
534.7735614807
 20
31.809431758
 11
534.3688739531
 21
31.8416954444
  0
LINE
  8
0
 62
7
  6
CONTINUOUS
 10
543.3876242012
 20
30.8415210777
 11
543.7344992012
 21
30.8092573885
  0
LINE
  8
0
 62
7
  6
CONTINUOUS
 10
543.7344992012
 20
30.9383121455
 11
543.3876242012
 21
30.9705758432
  0
LINE
  8
0
 62
7
  6
CONTINUOUS
 10
539.1673112601
 20
31.809431758
 11
538.8204365909
 21
31.8416954444
  0
LINE
  8
0
 62
7
  6
CONTINUOUS
 10
543.9657489807
 20
31.7126406987
 11
544.3126239807
 21
31.6803770123
  0
LINE
  8
0
 62
7
  6
CONTINUOUS
 10
544.3126239807
 20
31.809431758
 11
543.9657489807
 21
31.8416954444
  0
LINE
  8
0
 62
7
  6
CONTINUOUS
 10
541.6532492012
 20
31.7126406987
 11
541.8844989807
 21
31.6803770123
  0
LINE
  8
0
 62
7
  6
CONTINUOUS
 10
544.4860614807
 20
31.7771680715
 11
544.3126239807
 21
31.809431758
  0
LINE
  8
0
 62
7
  6
CONTINUOUS
 10
544.6594989807
 20
30.9060484591
 11
544.7751235396
 21
31.0028395296
  0
LINE
  8
0
 62
7
  6
CONTINUOUS
 10
539.1673112601
 20
31.0996306115
 11
538.9938737601
 21
31.0028395296
  0
LINE
  8
0
 62
7
  6
CONTINUOUS
 10
541.2485612601
 20
31.7449043851
 11
541.1329367012
 21
31.6803770123
  0
LINE
  8
0
 62
7
  6
CONTINUOUS
 10
541.1329367012
 20
31.5513222666
 11
541.2485612601
 21
31.6158496394
  0
LINE
  8
0
 62
7
  6
CONTINUOUS
 10
533.8485614944
 20
31.7771680715
 11
533.6751239738
 21
31.7126406987
  0
LINE
  8
0
 62
7
  6
CONTINUOUS
 10
536.2766863704
 20
31.809431758
 11
536.1032490358
 21
31.7449043851
  0
LINE
  8
0
 62
7
  6
CONTINUOUS
 10
536.1032490358
 20
31.6158496394
 11
536.2766863704
 21
31.6803770123
  0
LINE
  8
0
 62
7
  6
CONTINUOUS
 10
534.8891865358
 20
31.035103216
 11
534.7157489531
 21
30.9705758432
  0
LINE
  8
0
 62
7
  6
CONTINUOUS
 10
544.3126239807
 20
30.9705758432
 11
544.0813742012
 21
30.9383121455
  0
LINE
  8
0
 62
7
  6
CONTINUOUS
 10
538.7048113704
 20
30.8092573885
 11
538.9938737601
 21
30.8415210777
  0
LINE
  8
0
 62
7
  6
CONTINUOUS
 10
544.0813742012
 20
30.8092573885
 11
544.4282492012
 21
30.8415210777
  0
LINE
  8
0
 62
7
  6
CONTINUOUS
 10
534.3688739531
 20
30.8092573885
 11
534.7735614807
 21
30.8415210777
  0
LINE
  8
0
 62
7
  6
CONTINUOUS
 10
534.7157489531
 20
30.9705758432
 11
534.3110615082
 21
30.9383121455
  0
LINE
  8
0
 62
7
  6
CONTINUOUS
 10
538.5891864807
 20
31.3577401029
 11
539.2251242012
 21
31.3577401029
  0
LINE
  8
0
 62
7
  6
CONTINUOUS
 10
539.2251242012
 20
31.4867948937
 11
538.5891864807
 21
31.4867948937
  0
LINE
  8
0
 62
7
  6
CONTINUOUS
 10
534.9469989807
 20
31.5190585802
 11
535.2360615358
 21
31.5190585802
  0
LINE
  8
0
 62
7
  6
CONTINUOUS
 10
537.7798115909
 20
31.583585953
 11
538.0688739807
 21
31.583585953
  0
LINE
  8
0
 62
7
  6
CONTINUOUS
 10
544.4860614807
 20
31.583585953
 11
544.7751235396
 21
31.583585953
  0
LINE
  8
0
 62
7
  6
CONTINUOUS
 10
538.4735615909
 20
31.7126406987
 11
538.8204365909
 21
31.7126406987
  0
LINE
  8
0
 62
7
  6
CONTINUOUS
 10
543.6188739807
 20
31.7126406987
 11
543.9657489807
 21
31.7126406987
  0
LINE
  8
0
 62
7
  6
CONTINUOUS
 10
543.9657489807
 20
31.8416954444
 11
543.6188739807
 21
31.8416954444
  0
LINE
  8
0
 62
7
  6
CONTINUOUS
 10
541.8844989807
 20
31.8416954444
 11
541.6532492012
 21
31.8416954444
  0
LINE
  8
0
 62
7
  6
CONTINUOUS
 10
541.1329367012
 20
31.8416954444
 11
540.8438739807
 21
31.8416954444
  0
LINE
  8
0
 62
7
  6
CONTINUOUS
 10
540.3813737601
 20
31.8416954444
 11
540.0923117012
 21
31.8416954444
  0
LINE
  8
0
 62
7
  6
CONTINUOUS
 10
538.8204365909
 20
31.8416954444
 11
538.4735615909
 21
31.8416954444
  0
LINE
  8
0
 62
7
  6
CONTINUOUS
 10
536.7391865909
 20
31.8416954444
 11
536.5079364807
 21
31.8416954444
  0
LINE
  8
0
 62
7
  6
CONTINUOUS
 10
540.0923117012
 20
32.164332399
 11
540.3813737601
 21
32.164332399
  0
LINE
  8
0
 62
7
  6
CONTINUOUS
 10
540.3813737601
 20
32.3256508311
 11
540.0923117012
 21
32.3256508311
  0
LINE
  8
0
 62
7
  6
CONTINUOUS
 10
535.9876239807
 20
32.3256508311
 11
535.6985614255
 21
32.3256508311
  0
LINE
  8
0
 62
7
  6
CONTINUOUS
 10
535.025405743
 20
32.612536077
 11
535.4379770916
 21
32.612536077
  0
LINE
  8
0
 62
7
  6
CONTINUOUS
 10
536.6647500053
 20
32.612536077
 11
538.0581926282
 21
32.612536077
  0
LINE
  8
0
 62
7
  6
CONTINUOUS
 10
538.3860614807
 20
32.612536077
 11
539.7795041036
 21
32.612536077
  0
LINE
  8
0
 62
7
  6
CONTINUOUS
 10
541.6647500053
 20
32.612536077
 11
543.0581926282
 21
32.612536077
  0
LINE
  8
0
 62
7
  6
CONTINUOUS
 10
543.3860614807
 20
32.612536077
 11
544.7795041036
 21
32.612536077
  0
LINE
  8
0
 62
7
  6
CONTINUOUS
 10
541.4219987601
 20
31.809431758
 11
541.2485612601
 21
31.7449043851
  0
LINE
  8
0
 62
7
  6
CONTINUOUS
 10
538.9938737601
 20
30.8415210777
 11
539.1673112601
 21
30.9060484591
  0
LINE
  8
0
 62
7
  6
CONTINUOUS
 10
544.4282492012
 20
30.8415210777
 11
544.6594989807
 21
30.9060484591
  0
LINE
  8
0
 62
7
  6
CONTINUOUS
 10
544.4282492012
 20
31.0028395296
 11
544.3126239807
 21
30.9705758432
  0
LINE
  8
0
 62
7
  6
CONTINUOUS
 10
543.3876242012
 20
31.6803770123
 11
543.6188739807
 21
31.7126406987
  0
LINE
  8
0
 62
7
  6
CONTINUOUS
 10
541.4219987601
 20
31.6803770123
 11
541.6532492012
 21
31.7126406987
  0
LINE
  8
0
 62
7
  6
CONTINUOUS
 10
538.3579363704
 20
31.3254764164
 11
538.5891864807
 21
31.3577401029
  0
LINE
  8
0
 62
7
  6
CONTINUOUS
 10
541.6532492012
 20
31.8416954444
 11
541.4219987601
 21
31.809431758
  0
LINE
  8
0
 62
7
  6
CONTINUOUS
 10
538.2423114807
 20
31.6803770123
 11
538.4735615909
 21
31.7126406987
  0
LINE
  8
0
 62
7
  6
CONTINUOUS
 10
543.6188739807
 20
31.8416954444
 11
543.2719989807
 21
31.809431758
  0
LINE
  8
0
 62
7
  6
CONTINUOUS
 10
538.5891864807
 20
31.4867948937
 11
538.2423114807
 21
31.4545312073
  0
LINE
  8
0
 62
7
  6
CONTINUOUS
 10
534.3688739531
 20
31.8416954444
 11
534.0219989944
 21
31.809431758
  0
LINE
  8
0
 62
7
  6
CONTINUOUS
 10
538.4735615909
 20
31.8416954444
 11
538.0688739807
 21
31.809431758
  0
LINE
  8
0
 62
7
  6
CONTINUOUS
 10
535.8450778741
 20
33.7600770606
 11
535.1893401692
 21
33.7600770606
  0
LINE
  8
0
 62
7
  6
CONTINUOUS
 10
541.2485612601
 20
31.6158496394
 11
541.4219987601
 21
31.6803770123
  0
LINE
  8
0
 62
7
  6
CONTINUOUS
 10
543.2719989807
 20
31.6481133259
 11
543.3876242012
 21
31.6803770123
  0
LINE
  8
0
 62
7
  6
CONTINUOUS
 10
543.2719989807
 20
31.809431758
 11
543.0407492012
 21
31.7449043851
  0
LINE
  8
0
 62
7
  6
CONTINUOUS
 10
538.9938737601
 20
31.0028395296
 11
538.7048113704
 21
30.9383121455
  0
LINE
  8
0
 62
7
  6
CONTINUOUS
 10
536.2766863704
 20
31.6803770123
 11
536.5079364807
 21
31.7126406987
  0
LINE
  8
0
 62
7
  6
CONTINUOUS
 10
536.5079364807
 20
31.8416954444
 11
536.2766863704
 21
31.809431758
  0
LINE
  8
0
 62
7
  6
CONTINUOUS
 10
534.0798114807
 20
31.6803770123
 11
534.3110615082
 21
31.7126406987
  0
LINE
  8
0
 62
7
  6
CONTINUOUS
 10
540.5991762348
 20
35.2354868967
 11
541.2549139397
 21
35.2354868967
  0
LINE
  8
0
 62
7
  6
CONTINUOUS
 10
538.2423114807
 20
31.29321273
 11
538.3579363704
 21
31.3254764164
  0
LINE
  8
0
 62
7
  6
CONTINUOUS
 10
538.2423114807
 20
31.4545312073
 11
538.0110613704
 21
31.3900038345
  0
LINE
  8
0
 62
7
  6
CONTINUOUS
 10
538.1266865909
 20
31.6481133259
 11
538.2423114807
 21
31.6803770123
  0
LINE
  8
0
 62
7
  6
CONTINUOUS
 10
534.7735614807
 20
30.8415210777
 11
535.0048114255
 21
30.9060484591
  0
LINE
  8
0
 62
7
  6
CONTINUOUS
 10
538.0688739807
 20
31.809431758
 11
537.9532490909
 21
31.7771680715
  0
LINE
  8
0
 62
7
  6
CONTINUOUS
 10
534.0219989944
 20
31.809431758
 11
533.8485614944
 21
31.7771680715
  0
LINE
  8
0
 62
7
  6
CONTINUOUS
 10
544.7795041036
 20
36.3830278803
 11
543.3860614807
 21
36.3830278803
  0
LINE
  8
0
 62
7
  6
CONTINUOUS
 10
541.4188483659
 20
36.3830278803
 11
541.0062770173
 21
36.3830278803
  0
LINE
  8
0
 62
7
  6
CONTINUOUS
 10
539.7795041036
 20
36.3830278803
 11
538.3860614807
 21
36.3830278803
  0
LINE
  8
0
 62
7
  6
CONTINUOUS
 10
538.0581926282
 20
36.3830278803
 11
536.6647500053
 21
36.3830278803
  0
LINE
  8
0
 62
7
  6
CONTINUOUS
 10
534.7795041036
 20
36.3830278803
 11
533.3860614807
 21
36.3830278803
  0
LINE
  8
0
 62
7
  6
CONTINUOUS
 10
533.9641864669
 20
31.6481133259
 11
534.0798114807
 21
31.6803770123
  0
CIRCLE
  8
0
 62
7
  6
CONTINUOUS
 10
544.0827827921
 20
38.7190934541
 40
2.0901639344
  0
ARC
  8
0
 62
7
  6
CONTINUOUS
 10
535.025405743
 20
34.2518803393
 40
1.6393442623
 50
180.0
 51
270.0
  0
ARC
  8
0
 62
7
  6
CONTINUOUS
 10
541.4188483659
 20
34.743683618
 40
1.6393442623
 50
0.0
 51
90.0
  0
ARC
  8
0
 62
7
  6
CONTINUOUS
 10
535.4379770916
 20
34.0879459131
 40
1.4754098361
 50
270.0
 51
326.2510114041
  0
ARC
  8
0
 62
7
  6
CONTINUOUS
 10
541.0062770173
 20
34.9076180442
 40
1.4754098361
 50
90.0
 51
146.2510114041
  0
ARC
  8
0
 62
7
  6
CONTINUOUS
 10
535.8450778741
 20
34.5797491918
 40
0.8196721311
 50
270.0
 51
360.0
  0
ARC
  8
0
 62
7
  6
CONTINUOUS
 10
540.5991762348
 20
34.4158147655
 40
0.8196721311
 50
90.0
 51
180.0
  0
ARC
  8
0
 62
7
  6
CONTINUOUS
 10
535.1893401692
 20
34.1699131262
 40
0.4098360656
 50
180.0
 51
270.0
  0
ARC
  8
0
 62
7
  6
CONTINUOUS
 10
541.2549139397
 20
34.8256508311
 40
0.4098360656
 50
0.0
 51
90.0
  0
SOLID
  8
0
 62
7
  6
CONTINUOUS
 10
540.0923117012
 20
32.1643327593
 11
540.0923117012
 21
32.3256512429
 12
540.3813737601
 22
32.1643327593
 13
540.3813737601
 23
32.3256512429
  0
SOLID
  8
0
 62
7
  6
CONTINUOUS
 10
534.3688739531
 20
31.841695792
 11
534.7735614807
 21
31.8094316148
 12
534.0219989944
 22
31.8094316148
 13
534.0219989944
 23
31.8094316148
  0
SOLID
  8
0
 62
7
  6
CONTINUOUS
 10
533.8485614944
 20
31.7771687019
 11
534.0219989944
 21
31.8094316148
 12
534.7735614807
 22
31.8094316148
 13
534.7735614807
 23
31.8094316148
  0
SOLID
  8
0
 62
7
  6
CONTINUOUS
 10
534.7735614807
 20
31.8094316148
 11
535.0048114255
 21
31.7449043986
 12
533.8485614944
 22
31.7771687019
 13
533.8485614944
 23
31.7771687019
  0
SOLID
  8
0
 62
7
  6
CONTINUOUS
 10
533.6751239738
 20
31.712640202
 11
533.8485614944
 21
31.7771687019
 12
535.0048114255
 22
31.7449043986
 13
535.0048114255
 23
31.7449043986
  0
SOLID
  8
0
 62
7
  6
CONTINUOUS
 10
533.6751239738
 20
31.712640202
 11
535.0048114255
 21
31.7449043986
 12
534.3110615082
 22
31.712640202
 13
534.3110615082
 23
31.712640202
  0
SOLID
  8
0
 62
7
  6
CONTINUOUS
 10
534.3110615082
 20
31.712640202
 11
535.0048114255
 21
31.7449043986
 12
534.7157489531
 22
31.6803773084
 13
534.7157489531
 23
31.6803773084
  0
SOLID
  8
0
 62
7
  6
CONTINUOUS
 10
535.0048114255
 20
31.7449043986
 11
535.1782489255
 21
31.6481130052
 12
534.7157489531
 22
31.6803773084
 13
534.7157489531
 23
31.6803773084
  0
SOLID
  8
0
 62
7
  6
CONTINUOUS
 10
534.8891865358
 20
31.6158502183
 11
534.7157489531
 21
31.6803773084
 12
535.1782489255
 22
31.6481130052
 13
535.1782489255
 23
31.6481130052
  0
SOLID
  8
0
 62
7
  6
CONTINUOUS
 10
534.8891865358
 20
31.6158502183
 11
535.1782489255
 21
31.6481130052
 12
534.9469989807
 22
31.5190586669
 13
534.9469989807
 23
31.5190586669
  0
SOLID
  8
0
 62
7
  6
CONTINUOUS
 10
535.1782489255
 20
31.6481130052
 11
535.2360615358
 21
31.5190586669
 12
534.9469989807
 22
31.5190586669
 13
534.9469989807
 23
31.5190586669
  0
SOLID
  8
0
 62
7
  6
CONTINUOUS
 10
536.2766863704
 20
31.8094307377
 11
536.5079364807
 21
31.841695041
 12
536.7391865909
 22
31.841695041
 13
536.7391865909
 23
31.841695041
  0
SOLID
  8
0
 62
7
  6
CONTINUOUS
 10
536.7391865909
 20
31.841695041
 11
536.9126240909
 21
31.8094307377
 12
536.2766863704
 22
31.8094307377
 13
536.2766863704
 23
31.8094307377
  0
SOLID
  8
0
 62
7
  6
CONTINUOUS
 10
536.1032490358
 20
31.7449036475
 11
536.2766863704
 21
31.8094307377
 12
536.9126240909
 22
31.8094307377
 13
536.9126240909
 23
31.8094307377
  0
SOLID
  8
0
 62
7
  6
CONTINUOUS
 10
536.9126240909
 20
31.8094307377
 11
537.0860615909
 21
31.7449036475
 12
536.1032490358
 22
31.7449036475
 13
536.1032490358
 23
31.7449036475
  0
SOLID
  8
0
 62
7
  6
CONTINUOUS
 10
537.0860615909
 20
31.7449036475
 11
536.5079364807
 21
31.7126400953
 12
536.1032490358
 22
31.7449036475
 13
536.1032490358
 23
31.7449036475
  0
SOLID
  8
0
 62
7
  6
CONTINUOUS
 10
535.9876239807
 20
31.6803765574
 11
536.1032490358
 21
31.7449036475
 12
536.5079364807
 22
31.7126400953
 13
536.5079364807
 23
31.7126400953
  0
SOLID
  8
0
 62
7
  6
CONTINUOUS
 10
536.5079364807
 20
31.7126400953
 11
536.2766863704
 21
31.6803765574
 12
535.9876239807
 22
31.6803765574
 13
535.9876239807
 23
31.6803765574
  0
SOLID
  8
0
 62
7
  6
CONTINUOUS
 10
536.5079364807
 20
31.7126400953
 11
537.0860615909
 21
31.7449036475
 12
536.7391865909
 22
31.6803765574
 13
536.7391865909
 23
31.6803765574
  0
SOLID
  8
0
 62
7
  6
CONTINUOUS
 10
537.0860615909
 20
31.7449036475
 11
537.2016864807
 21
31.6803765574
 12
536.7391865909
 22
31.6803765574
 13
536.7391865909
 23
31.6803765574
  0
SOLID
  8
0
 62
7
  6
CONTINUOUS
 10
536.8548114807
 20
31.6481130052
 11
536.7391865909
 21
31.6803765574
 12
537.2016864807
 22
31.6803765574
 13
537.2016864807
 23
31.6803765574
  0
SOLID
  8
0
 62
7
  6
CONTINUOUS
 10
537.2016864807
 20
31.6803765574
 11
537.2594990909
 21
31.6158494672
 12
536.8548114807
 22
31.6481130052
 13
536.8548114807
 23
31.6481130052
  0
SOLID
  8
0
 62
7
  6
CONTINUOUS
 10
536.9704363704
 20
31.583585915
 11
536.8548114807
 21
31.6481130052
 12
537.2594990909
 22
31.6158494672
 13
537.2594990909
 23
31.6158494672
  0
SOLID
  8
0
 62
7
  6
CONTINUOUS
 10
536.9704363704
 20
31.583585915
 11
537.2594990909
 21
31.6158494672
 12
537.0282489807
 22
31.4545309836
 13
537.0282489807
 23
31.4545309836
  0
SOLID
  8
0
 62
7
  6
CONTINUOUS
 10
537.2594990909
 20
31.6158494672
 11
537.3173113704
 21
31.4545309836
 12
537.0282489807
 22
31.4545309836
 13
537.0282489807
 23
31.4545309836
  0
SOLID
  8
0
 62
7
  6
CONTINUOUS
 10
536.2766863704
 20
31.6803765574
 11
536.1032490358
 21
31.6158494672
 12
535.9876239807
 22
31.6803765574
 13
535.9876239807
 23
31.6803765574
  0
SOLID
  8
0
 62
7
  6
CONTINUOUS
 10
536.1032490358
 20
31.6158494672
 11
535.9876239807
 21
31.5513216117
 12
535.9876239807
 22
31.6803765574
 13
535.9876239807
 23
31.6803765574
  0
SOLID
  8
0
 62
7
  6
CONTINUOUS
 10
535.9876239807
 20
31.5513216117
 11
535.6985614255
 21
30.8092570492
 12
535.9876239807
 22
31.6803765574
 13
535.9876239807
 23
31.6803765574
  0
SOLID
  8
0
 62
7
  6
CONTINUOUS
 10
535.9876239807
 20
31.6803765574
 11
535.6985614255
 21
30.8092570492
 12
535.9876239807
 22
32.3256504918
 13
535.9876239807
 23
32.3256504918
  0
SOLID
  8
0
 62
7
  6
CONTINUOUS
 10
535.6985614255
 20
30.8092570492
 11
535.6985614255
 21
32.3256504918
 12
535.9876239807
 22
32.3256504918
 13
535.9876239807
 23
32.3256504918
  0
SOLID
  8
0
 62
7
  6
CONTINUOUS
 10
535.9876239807
 20
31.5513216117
 11
535.9876239807
 21
30.8092570492
 12
535.6985614255
 22
30.8092570492
 13
535.6985614255
 23
30.8092570492
  0
SOLID
  8
0
 62
7
  6
CONTINUOUS
 10
537.0282489807
 20
30.8092570492
 11
537.0282489807
 21
31.4545309836
 12
537.3173113704
 22
31.4545309836
 13
537.3173113704
 23
31.4545309836
  0
SOLID
  8
0
 62
7
  6
CONTINUOUS
 10
537.3173113704
 20
31.4545309836
 11
537.3173113704
 21
30.8092570492
 12
537.0282489807
 22
30.8092570492
 13
537.0282489807
 23
30.8092570492
  0
SOLID
  8
0
 62
7
  6
CONTINUOUS
 10
538.0688739807
 20
31.809431823
 11
538.4735615909
 21
31.8416958158
 12
538.8204365909
 22
31.8416958158
 13
538.8204365909
 23
31.8416958158
  0
SOLID
  8
0
 62
7
  6
CONTINUOUS
 10
538.8204365909
 20
31.8416958158
 11
539.1673112601
 21
31.809431823
 12
538.0688739807
 22
31.809431823
 13
538.0688739807
 23
31.809431823
  0
SOLID
  8
0
 62
7
  6
CONTINUOUS
 10
537.9532490909
 20
31.7771687019
 11
538.0688739807
 21
31.809431823
 12
539.1673112601
 22
31.809431823
 13
539.1673112601
 23
31.809431823
  0
SOLID
  8
0
 62
7
  6
CONTINUOUS
 10
539.1673112601
 20
31.809431823
 11
539.3407487601
 21
31.7449043986
 12
537.9532490909
 22
31.7771687019
 13
537.9532490909
 23
31.7771687019
  0
SOLID
  8
0
 62
7
  6
CONTINUOUS
 10
537.8376238704
 20
31.7126398448
 11
537.9532490909
 21
31.7771687019
 12
539.3407487601
 22
31.7449043986
 13
539.3407487601
 23
31.7449043986
  0
SOLID
  8
0
 62
7
  6
CONTINUOUS
 10
537.8376238704
 20
31.7126398448
 11
539.3407487601
 21
31.7449043986
 12
538.4735615909
 22
31.7126398448
 13
538.4735615909
 23
31.7126398448
  0
SOLID
  8
0
 62
7
  6
CONTINUOUS
 10
538.4735615909
 20
31.7126398448
 11
539.3407487601
 21
31.7449043986
 12
538.8204365909
 22
31.7126398448
 13
538.8204365909
 23
31.7126398448
  0
SOLID
  8
0
 62
7
  6
CONTINUOUS
 10
538.8204365909
 20
31.7126398448
 11
539.3407487601
 21
31.7449043986
 12
539.0516867012
 22
31.6803774007
 13
539.0516867012
 23
31.6803774007
  0
SOLID
  8
0
 62
7
  6
CONTINUOUS
 10
539.3407487601
 20
31.7449043986
 11
539.4563739807
 21
31.6803774007
 12
539.0516867012
 22
31.6803774007
 13
539.0516867012
 23
31.6803774007
  0
SOLID
  8
0
 62
7
  6
CONTINUOUS
 10
537.7798115909
 20
31.6481126336
 11
537.8376238704
 21
31.7126398448
 12
538.4735615909
 22
31.7126398448
 13
538.4735615909
 23
31.7126398448
  0
SOLID
  8
0
 62
7
  6
CONTINUOUS
 10
539.1673112601
 20
31.6481126336
 11
539.0516867012
 21
31.6803774007
 12
539.4563739807
 22
31.6803774007
 13
539.4563739807
 23
31.6803774007
  0
SOLID
  8
0
 62
7
  6
CONTINUOUS
 10
539.1673112601
 20
31.6481126336
 11
539.4563739807
 21
31.6803774007
 12
539.2251242012
 22
31.5835861968
 13
539.2251242012
 23
31.5835861968
  0
SOLID
  8
0
 62
7
  6
CONTINUOUS
 10
539.4563739807
 20
31.6803774007
 11
539.5141862601
 21
31.5835861968
 12
539.2251242012
 22
31.5835861968
 13
539.2251242012
 23
31.5835861968
  0
SOLID
  8
0
 62
7
  6
CONTINUOUS
 10
539.2251242012
 20
31.4867945216
 11
539.2251242012
 21
31.5835861968
 12
539.5141862601
 22
31.5835861968
 13
539.5141862601
 23
31.5835861968
  0
SOLID
  8
0
 62
7
  6
CONTINUOUS
 10
539.2251242012
 20
31.4867945216
 11
539.5141862601
 21
31.5835861968
 12
539.2251242012
 22
31.3577403412
 13
539.2251242012
 23
31.3577403412
  0
SOLID
  8
0
 62
7
  6
CONTINUOUS
 10
539.2251242012
 20
31.3577403412
 11
539.5141862601
 21
31.5835861968
 12
539.2251242012
 22
31.1641579843
 13
539.2251242012
 23
31.1641579843
  0
SOLID
  8
0
 62
7
  6
CONTINUOUS
 10
539.5141862601
 20
31.5835861968
 11
539.5141862601
 21
31.0673661609
 12
539.2251242012
 22
31.1641579843
 13
539.2251242012
 23
31.1641579843
  0
SOLID
  8
0
 62
7
  6
CONTINUOUS
 10
541.4219987601
 20
31.8094310465
 11
541.6532492012
 21
31.8416957661
 12
541.8844989807
 22
31.8416957661
 13
541.8844989807
 23
31.8416957661
  0
SOLID
  8
0
 62
7
  6
CONTINUOUS
 10
541.8844989807
 20
31.8416957661
 11
542.0579364807
 21
31.8094310465
 12
541.4219987601
 22
31.8094310465
 13
541.4219987601
 23
31.8094310465
  0
SOLID
  8
0
 62
7
  6
CONTINUOUS
 10
541.2485612601
 20
31.7449047044
 11
541.4219987601
 21
31.8094310465
 12
542.0579364807
 22
31.8094310465
 13
542.0579364807
 23
31.8094310465
  0
SOLID
  8
0
 62
7
  6
CONTINUOUS
 10
542.0579364807
 20
31.8094310465
 11
542.2313739807
 21
31.7449047044
 12
541.2485612601
 22
31.7449047044
 13
541.2485612601
 23
31.7449047044
  0
SOLID
  8
0
 62
7
  6
CONTINUOUS
 10
542.2313739807
 20
31.7449047044
 11
541.6532492012
 21
31.7126400953
 12
541.2485612601
 22
31.7449047044
 13
541.2485612601
 23
31.7449047044
  0
SOLID
  8
0
 62
7
  6
CONTINUOUS
 10
541.1329367012
 20
31.6803773299
 11
541.2485612601
 21
31.7449047044
 12
541.6532492012
 22
31.7126400953
 13
541.6532492012
 23
31.7126400953
  0
SOLID
  8
0
 62
7
  6
CONTINUOUS
 10
541.6532492012
 20
31.7126400953
 11
541.4219987601
 21
31.6803773299
 12
541.1329367012
 22
31.6803773299
 13
541.1329367012
 23
31.6803773299
  0
SOLID
  8
0
 62
7
  6
CONTINUOUS
 10
541.6532492012
 20
31.7126400953
 11
542.2313739807
 21
31.7449047044
 12
541.8844989807
 22
31.6803773299
 13
541.8844989807
 23
31.6803773299
  0
SOLID
  8
0
 62
7
  6
CONTINUOUS
 10
542.2313739807
 20
31.7449047044
 11
542.3469992012
 21
31.6803773299
 12
541.8844989807
 22
31.6803773299
 13
541.8844989807
 23
31.6803773299
  0
SOLID
  8
0
 62
7
  6
CONTINUOUS
 10
542.0001242012
 20
31.6481130052
 11
541.8844989807
 21
31.6803773299
 12
542.3469992012
 22
31.6803773299
 13
542.3469992012
 23
31.6803773299
  0
SOLID
  8
0
 62
7
  6
CONTINUOUS
 10
542.0001242012
 20
31.6481130052
 11
542.3469992012
 21
31.6803773299
 12
542.1157487601
 22
31.5835862682
 13
542.1157487601
 23
31.5835862682
  0
SOLID
  8
0
 62
7
  6
CONTINUOUS
 10
542.3469992012
 20
31.6803773299
 11
542.4048114807
 21
31.5835862682
 12
542.1157487601
 22
31.5835862682
 13
542.1157487601
 23
31.5835862682
  0
SOLID
  8
0
 62
7
  6
CONTINUOUS
 10
542.1735617012
 20
31.422267832
 11
542.1157487601
 21
31.5835862682
 12
542.4048114807
 22
31.5835862682
 13
542.4048114807
 23
31.5835862682
  0
SOLID
  8
0
 62
7
  6
CONTINUOUS
 10
542.4048114807
 20
31.5835862682
 11
542.4626237601
 21
31.422267832
 12
542.1735617012
 22
31.422267832
 13
542.1735617012
 23
31.422267832
  0
SOLID
  8
0
 62
7
  6
CONTINUOUS
 10
541.4219987601
 20
31.6803773299
 11
541.2485612601
 21
31.6158502183
 12
541.1329367012
 22
31.6803773299
 13
541.1329367012
 23
31.6803773299
  0
SOLID
  8
0
 62
7
  6
CONTINUOUS
 10
541.2485612601
 20
31.6158502183
 11
541.1329367012
 21
31.5513216117
 12
541.1329367012
 22
31.6803773299
 13
541.1329367012
 23
31.6803773299
  0
SOLID
  8
0
 62
7
  6
CONTINUOUS
 10
541.1329367012
 20
31.5513216117
 11
540.8438739807
 21
30.8092577743
 12
541.1329367012
 22
31.6803773299
 13
541.1329367012
 23
31.6803773299
  0
SOLID
  8
0
 62
7
  6
CONTINUOUS
 10
541.1329367012
 20
31.6803773299
 11
540.8438739807
 21
30.8092577743
 12
541.1329367012
 22
31.8416957661
 13
541.1329367012
 23
31.8416957661
  0
SOLID
  8
0
 62
7
  6
CONTINUOUS
 10
540.8438739807
 20
30.8092577743
 11
540.8438739807
 21
31.8416957661
 12
541.1329367012
 22
31.8416957661
 13
541.1329367012
 23
31.8416957661
  0
SOLID
  8
0
 62
7
  6
CONTINUOUS
 10
541.1329367012
 20
31.5513216117
 11
541.1329367012
 21
30.8092577743
 12
540.8438739807
 22
30.8092577743
 13
540.8438739807
 23
30.8092577743
  0
SOLID
  8
0
 62
7
  6
CONTINUOUS
 10
542.1735617012
 20
30.8092577743
 11
542.1735617012
 21
31.422267832
 12
542.4626237601
 22
31.422267832
 13
542.4626237601
 23
31.422267832
  0
SOLID
  8
0
 62
7
  6
CONTINUOUS
 10
542.4626237601
 20
31.422267832
 11
542.4626237601
 21
30.8092577743
 12
542.1735617012
 22
30.8092577743
 13
542.1735617012
 23
30.8092577743
  0
SOLID
  8
0
 62
7
  6
CONTINUOUS
 10
543.2719989807
 20
31.8094314924
 11
543.6188739807
 21
31.8416958387
 12
543.9657489807
 22
31.8416958387
 13
543.9657489807
 23
31.8416958387
  0
SOLID
  8
0
 62
7
  6
CONTINUOUS
 10
543.9657489807
 20
31.8416958387
 11
544.3126239807
 21
31.8094314924
 12
543.2719989807
 22
31.8094314924
 13
543.2719989807
 23
31.8094314924
  0
SOLID
  8
0
 62
7
  6
CONTINUOUS
 10
543.0407492012
 20
31.7449043986
 11
543.2719989807
 21
31.8094314924
 12
544.3126239807
 22
31.8094314924
 13
544.3126239807
 23
31.8094314924
  0
SOLID
  8
0
 62
7
  6
CONTINUOUS
 10
543.0407492012
 20
31.7449043986
 11
544.3126239807
 21
31.8094314888
 12
544.4860614807
 22
31.7771687019
 13
544.4860614807
 23
31.7771687019
  0
SOLID
  8
0
 62
7
  6
CONTINUOUS
 10
543.0407492012
 20
31.7449043986
 11
544.4860614807
 21
31.7771687019
 12
543.6188739807
 22
31.7126401399
 13
543.6188739807
 23
31.7126401399
  0
SOLID
  8
0
 62
7
  6
CONTINUOUS
 10
543.6188739807
 20
31.7126401399
 11
544.4860614807
 21
31.7771687019
 12
543.9657489807
 22
31.7126401399
 13
543.9657489807
 23
31.7126401399
  0
SOLID
  8
0
 62
7
  6
CONTINUOUS
 10
544.4860614807
 20
31.7771687019
 11
544.6594989807
 21
31.7126401399
 12
543.9657489807
 22
31.7126401399
 13
543.9657489807
 23
31.7126401399
  0
SOLID
  8
0
 62
7
  6
CONTINUOUS
 10
544.3126239807
 20
31.6803773084
 11
543.9657489807
 21
31.7126401399
 12
544.6594989807
 22
31.7126401399
 13
544.6594989807
 23
31.7126401399
  0
SOLID
  8
0
 62
7
  6
CONTINUOUS
 10
542.9251239807
 20
31.6481128977
 11
543.0407492012
 21
31.7449043986
 12
543.6188739807
 22
31.7126401399
 13
543.6188739807
 23
31.7126401399
  0
SOLID
  8
0
 62
7
  6
CONTINUOUS
 10
544.3126239807
 20
31.6803773084
 11
544.6594989807
 21
31.7126401399
 12
544.4282492012
 22
31.6481128977
 13
544.4282492012
 23
31.6481128977
  0
SOLID
  8
0
 62
7
  6
CONTINUOUS
 10
544.4282492012
 20
31.6481128977
 11
544.6594989807
 21
31.7126401399
 12
544.4860614807
 22
31.5835858812
 13
544.4860614807
 23
31.5835858812
  0
SOLID
  8
0
 62
7
  6
CONTINUOUS
 10
544.6594989807
 20
31.7126401399
 11
544.7751235396
 21
31.5835858812
 12
544.4860614807
 22
31.5835858812
 13
544.4860614807
 23
31.5835858812
  0
SOLID
  8
0
 62
7
  6
CONTINUOUS
 10
534.0798114807
 20
31.6803773084
 11
533.5594989807
 21
31.6481129264
 12
534.3110615082
 22
31.7126401456
 13
534.3110615082
 23
31.7126401456
  0
SOLID
  8
0
 62
7
  6
CONTINUOUS
 10
533.5594989807
 20
31.6481129264
 11
533.6751239738
 21
31.7126401456
 12
534.3110615082
 22
31.7126401456
 13
534.3110615082
 23
31.7126401456
  0
SOLID
  8
0
 62
7
  6
CONTINUOUS
 10
534.0798114807
 20
31.6803773084
 11
533.9641864669
 21
31.6481129264
 12
533.5594989807
 22
31.6481129264
 13
533.5594989807
 23
31.6481129264
  0
SOLID
  8
0
 62
7
  6
CONTINUOUS
 10
533.4438739824
 20
31.5190588248
 11
533.5594989807
 21
31.6481129264
 12
533.9641864669
 22
31.6481129264
 13
533.9641864669
 23
31.6481129264
  0
SOLID
  8
0
 62
7
  6
CONTINUOUS
 10
537.7798115909
 20
31.6481130555
 11
538.4735615909
 21
31.7126400953
 12
538.2423114807
 22
31.6803773084
 13
538.2423114807
 23
31.6803773084
  0
SOLID
  8
0
 62
7
  6
CONTINUOUS
 10
538.2423114807
 20
31.6803773084
 11
538.1266865909
 21
31.6481130555
 12
537.7798115909
 22
31.6481130555
 13
537.7798115909
 23
31.6481130555
  0
SOLID
  8
0
 62
7
  6
CONTINUOUS
 10
537.7798115909
 20
31.5835859653
 11
537.7798115909
 21
31.6481130555
 12
538.1266865909
 22
31.6481130555
 13
538.1266865909
 23
31.6481130555
  0
SOLID
  8
0
 62
7
  6
CONTINUOUS
 10
538.1266865909
 20
31.6481130555
 11
538.0688739807
 21
31.5835859653
 12
537.7798115909
 22
31.5835859653
 13
537.7798115909
 23
31.5835859653
  0
SOLID
  8
0
 62
7
  6
CONTINUOUS
 10
542.9251239807
 20
31.6481130555
 11
543.6188739807
 21
31.7126400953
 12
543.3876242012
 22
31.6803773084
 13
543.3876242012
 23
31.6803773084
  0
SOLID
  8
0
 62
7
  6
CONTINUOUS
 10
543.3876242012
 20
31.6803773084
 11
543.2719989807
 21
31.6481130555
 12
542.9251239807
 22
31.6481130555
 13
542.9251239807
 23
31.6481130555
  0
SOLID
  8
0
 62
7
  6
CONTINUOUS
 10
542.9251239807
 20
31.5835859653
 11
542.9251239807
 21
31.6481130555
 12
543.2719989807
 22
31.6481130555
 13
543.2719989807
 23
31.6481130555
  0
SOLID
  8
0
 62
7
  6
CONTINUOUS
 10
543.2719989807
 20
31.6481130555
 11
543.2141867012
 21
31.5835859653
 12
542.9251239807
 22
31.5835859653
 13
542.9251239807
 23
31.5835859653
  0
SOLID
  8
0
 62
7
  6
CONTINUOUS
 10
543.0407492012
 20
31.4545317347
 11
542.9251239807
 21
31.5835859653
 12
543.2141867012
 22
31.5835859653
 13
543.2141867012
 23
31.5835859653
  0
SOLID
  8
0
 62
7
  6
CONTINUOUS
 10
533.4438739824
 20
31.5190588248
 11
533.9641864669
 21
31.6481130052
 12
533.7907489669
 22
31.5513216117
 13
533.7907489669
 23
31.5513216117
  0
SOLID
  8
0
 62
7
  6
CONTINUOUS
 10
533.7907489669
 20
31.5513216117
 11
533.7329364807
 21
31.4867945216
 12
533.4438739824
 22
31.5190588248
 13
533.4438739824
 23
31.5190588248
  0
SOLID
  8
0
 62
7
  6
CONTINUOUS
 10
533.3860614807
 20
31.325476038
 11
533.4438739824
 21
31.5190588248
 12
533.7329364807
 22
31.4867945216
 13
533.7329364807
 23
31.4867945216
  0
SOLID
  8
0
 62
7
  6
CONTINUOUS
 10
538.2423114807
 20
31.4545317347
 11
538.5891864807
 21
31.4867945557
 12
539.2251242012
 22
31.4867945557
 13
539.2251242012
 23
31.4867945557
  0
SOLID
  8
0
 62
7
  6
CONTINUOUS
 10
538.2423114807
 20
31.4545317347
 11
539.2251242012
 21
31.4867945557
 12
538.0110613704
 22
31.3900038345
 13
538.0110613704
 23
31.3900038345
  0
SOLID
  8
0
 62
7
  6
CONTINUOUS
 10
538.0110613704
 20
31.3900038345
 11
539.2251242012
 21
31.4867945557
 12
538.5891864807
 22
31.3577403754
 13
538.5891864807
 23
31.3577403754
  0
SOLID
  8
0
 62
7
  6
CONTINUOUS
 10
539.2251242012
 20
31.4867945557
 11
539.2251242012
 21
31.3577403754
 12
538.5891864807
 22
31.3577403754
 13
538.5891864807
 23
31.3577403754
  0
SOLID
  8
0
 62
7
  6
CONTINUOUS
 10
543.0407492012
 20
31.4545313481
 11
543.2141867012
 21
31.583585915
 12
543.2719989807
 22
31.5190588248
 13
543.2719989807
 23
31.5190588248
  0
SOLID
  8
0
 62
7
  6
CONTINUOUS
 10
543.2719989807
 20
31.5190588248
 11
543.4454364807
 21
31.4545313481
 12
543.0407492012
 22
31.4545313481
 13
543.0407492012
 23
31.4545313481
  0
SOLID
  8
0
 62
7
  6
CONTINUOUS
 10
543.2719989807
 20
31.3577403412
 11
543.0407492012
 21
31.4545313481
 12
543.4454364807
 22
31.4545313481
 13
543.4454364807
 23
31.4545313481
  0
SOLID
  8
0
 62
7
  6
CONTINUOUS
 10
543.4454364807
 20
31.4545313481
 11
544.4282492012
 21
31.2932132511
 12
543.2719989807
 22
31.3577403412
 13
543.2719989807
 23
31.3577403412
  0
SOLID
  8
0
 62
7
  6
CONTINUOUS
 10
544.2548117012
 20
31.1964222346
 11
543.2719989807
 21
31.3577403412
 12
544.4282492012
 22
31.2932132511
 13
544.4282492012
 23
31.2932132511
  0
SOLID
  8
0
 62
7
  6
CONTINUOUS
 10
544.4282492012
 20
31.2932132511
 11
544.6594989807
 21
31.1964222346
 12
544.2548117012
 22
31.1964222346
 13
544.2548117012
 23
31.1964222346
  0
SOLID
  8
0
 62
7
  6
CONTINUOUS
 10
544.4282492012
 20
31.1318947675
 11
544.2548117012
 21
31.1964222346
 12
544.6594989807
 22
31.1964222346
 13
544.6594989807
 23
31.1964222346
  0
SOLID
  8
0
 62
7
  6
CONTINUOUS
 10
544.4282492012
 20
31.1318947675
 11
544.6594989807
 21
31.1964222346
 12
544.4860614807
 22
31.0673665164
 13
544.4860614807
 23
31.0673665164
  0
SOLID
  8
0
 62
7
  6
CONTINUOUS
 10
544.6594989807
 20
31.1964222346
 11
544.7751235396
 21
31.0673665164
 12
544.4860614807
 22
31.0673665164
 13
544.4860614807
 23
31.0673665164
  0
SOLID
  8
0
 62
7
  6
CONTINUOUS
 10
544.4282492012
 20
31.0028394316
 11
544.4860614807
 21
31.0673665164
 12
544.7751235396
 22
31.0673665164
 13
544.7751235396
 23
31.0673665164
  0
SOLID
  8
0
 62
7
  6
CONTINUOUS
 10
544.7751235396
 20
31.0673665164
 11
544.7751235396
 21
31.0028394316
 12
544.4282492012
 22
31.0028394316
 13
544.4282492012
 23
31.0028394316
  0
SOLID
  8
0
 62
7
  6
CONTINUOUS
 10
544.3126239807
 20
30.9705762839
 11
544.4282492012
 21
31.0028394316
 12
544.7751235396
 22
31.0028394316
 13
544.7751235396
 23
31.0028394316
  0
SOLID
  8
0
 62
7
  6
CONTINUOUS
 10
544.3126239807
 20
30.9705762839
 11
544.7751235396
 21
31.0028394316
 12
544.0813742012
 22
30.9383123468
 13
544.0813742012
 23
30.9383123468
  0
SOLID
  8
0
 62
7
  6
CONTINUOUS
 10
544.7751235396
 20
31.0028394316
 11
544.6594989807
 21
30.9060491937
 12
544.0813742012
 22
30.9383123468
 13
544.0813742012
 23
30.9383123468
  0
SOLID
  8
0
 62
7
  6
CONTINUOUS
 10
544.6594989807
 20
30.9060491937
 11
543.2141867012
 21
30.8737848904
 12
544.0813742012
 22
30.9383123468
 13
544.0813742012
 23
30.9383123468
  0
SOLID
  8
0
 62
7
  6
CONTINUOUS
 10
544.0813742012
 20
30.9383123468
 11
543.2141867012
 21
30.8737848904
 12
543.7344992012
 22
30.9383123468
 13
543.7344992012
 23
30.9383123468
  0
SOLID
  8
0
 62
7
  6
CONTINUOUS
 10
543.2141867012
 20
30.8737848904
 11
543.0407492012
 21
30.9383123468
 12
543.7344992012
 22
30.9383123468
 13
543.7344992012
 23
30.9383123468
  0
SOLID
  8
0
 62
7
  6
CONTINUOUS
 10
543.2141867012
 20
30.8737848904
 11
544.6594989807
 21
30.9060491937
 12
543.3876242012
 22
30.8415205581
 13
543.3876242012
 23
30.8415205581
  0
SOLID
  8
0
 62
7
  6
CONTINUOUS
 10
544.6594989807
 20
30.9060491937
 11
544.4282492012
 21
30.8415205581
 12
543.3876242012
 22
30.8415205581
 13
543.3876242012
 23
30.8415205581
  0
SOLID
  8
0
 62
7
  6
CONTINUOUS
 10
543.7344992012
 20
30.8092581772
 11
543.3876242012
 21
30.8415205581
 12
544.4282492012
 22
30.8415205581
 13
544.4282492012
 23
30.8415205581
  0
SOLID
  8
0
 62
7
  6
CONTINUOUS
 10
544.4282492012
 20
30.8415205581
 11
544.0813742012
 21
30.8092581772
 12
543.7344992012
 22
30.8092581772
 13
543.7344992012
 23
30.8092581772
  0
SOLID
  8
0
 62
7
  6
CONTINUOUS
 10
533.3860614807
 20
31.325476038
 11
533.7329364807
 21
31.4867945216
 12
533.6751239738
 22
31.3577403412
 13
533.6751239738
 23
31.3577403412
  0
SOLID
  8
0
 62
7
  6
CONTINUOUS
 10
533.6751239738
 20
31.3577403412
 11
533.6751239738
 21
31.2609490436
 12
533.3860614807
 22
31.325476038
 13
533.3860614807
 23
31.325476038
  0
SOLID
  8
0
 62
7
  6
CONTINUOUS
 10
533.4438739824
 20
31.1318947675
 11
533.3860614807
 21
31.325476038
 12
533.6751239738
 22
31.2609490436
 13
533.6751239738
 23
31.2609490436
  0
SOLID
  8
0
 62
7
  6
CONTINUOUS
 10
533.6751239738
 20
31.2609490436
 11
533.7907489669
 21
31.0996304642
 12
533.4438739824
 22
31.1318947675
 13
533.4438739824
 23
31.1318947675
  0
SOLID
  8
0
 62
7
  6
CONTINUOUS
 10
533.5594989807
 20
31.0028388804
 11
533.4438739824
 21
31.1318947675
 12
533.7907489669
 22
31.0996304642
 13
533.7907489669
 23
31.0996304642
  0
SOLID
  8
0
 62
7
  6
CONTINUOUS
 10
533.7907489669
 20
31.0996304642
 11
533.9641864669
 21
31.0028388804
 12
533.5594989807
 22
31.0028388804
 13
533.5594989807
 23
31.0028388804
  0
SOLID
  8
0
 62
7
  6
CONTINUOUS
 10
533.6751239738
 20
30.9383122606
 11
533.5594989807
 21
31.0028388804
 12
533.9641864669
 22
31.0028388804
 13
533.9641864669
 23
31.0028388804
  0
SOLID
  8
0
 62
7
  6
CONTINUOUS
 10
533.9641864669
 20
31.0028388804
 11
534.3110615082
 21
30.9383122606
 12
533.6751239738
 22
30.9383122606
 13
533.6751239738
 23
30.9383122606
  0
SOLID
  8
0
 62
7
  6
CONTINUOUS
 10
533.8485614944
 20
30.8737848904
 11
533.6751239738
 21
30.9383122606
 12
534.3110615082
 22
30.9383122606
 13
534.3110615082
 23
30.9383122606
  0
SOLID
  8
0
 62
7
  6
CONTINUOUS
 10
537.8954364807
 20
31.3254759532
 11
538.0110613704
 21
31.3900038345
 12
538.5891864807
 22
31.3577403412
 13
538.5891864807
 23
31.3577403412
  0
SOLID
  8
0
 62
7
  6
CONTINUOUS
 10
538.5891864807
 20
31.3577403412
 11
538.3579363704
 21
31.3254759532
 12
537.8954364807
 22
31.3254759532
 13
537.8954364807
 23
31.3254759532
  0
SOLID
  8
0
 62
7
  6
CONTINUOUS
 10
537.7798115909
 20
31.1964218576
 11
537.8954364807
 21
31.3254759532
 12
538.3579363704
 22
31.3254759532
 13
538.3579363704
 23
31.3254759532
  0
SOLID
  8
0
 62
7
  6
CONTINUOUS
 10
538.1266865909
 20
31.2286853572
 11
537.7798115909
 21
31.1964218576
 12
538.2423114807
 22
31.2932132511
 13
538.2423114807
 23
31.2932132511
  0
SOLID
  8
0
 62
7
  6
CONTINUOUS
 10
537.7798115909
 20
31.1964218576
 11
538.3579363704
 21
31.325476038
 12
538.2423114807
 22
31.2932132511
 13
538.2423114807
 23
31.2932132511
  0
SOLID
  8
0
 62
7
  6
CONTINUOUS
 10
538.1266865909
 20
31.2286853572
 11
538.0688739807
 21
31.1318947675
 12
537.7798115909
 22
31.1964218576
 13
537.7798115909
 23
31.1964218576
  0
SOLID
  8
0
 62
7
  6
CONTINUOUS
 10
537.7798115909
 20
31.0996304642
 11
537.7798115909
 21
31.1964218576
 12
538.0688739807
 22
31.1318947675
 13
538.0688739807
 23
31.1318947675
  0
SOLID
  8
0
 62
7
  6
CONTINUOUS
 10
538.0688739807
 20
31.1318947675
 11
538.0688739807
 21
31.0673661609
 12
537.7798115909
 22
31.0996304642
 13
537.7798115909
 23
31.0996304642
  0
SOLID
  8
0
 62
7
  6
CONTINUOUS
 10
537.8376238704
 20
30.9705762839
 11
537.7798115909
 21
31.0996304642
 12
538.0688739807
 22
31.0673661609
 13
538.0688739807
 23
31.0673661609
  0
SOLID
  8
0
 62
7
  6
CONTINUOUS
 10
539.2251242012
 20
31.1641579843
 11
539.5141862601
 21
31.0673661609
 12
539.1673112601
 22
31.0996304642
 13
539.1673112601
 23
31.0996304642
  0
SOLID
  8
0
 62
7
  6
CONTINUOUS
 10
538.9938737601
 20
31.0028390707
 11
539.1673112601
 21
31.0996304642
 12
539.5141862601
 22
31.0673661609
 13
539.5141862601
 23
31.0673661609
  0
SOLID
  8
0
 62
7
  6
CONTINUOUS
 10
538.9938737601
 20
31.0028390707
 11
539.5141862601
 21
31.0673661609
 12
539.2251242012
 22
30.9705762839
 13
539.2251242012
 23
30.9705762839
  0
SOLID
  8
0
 62
7
  6
CONTINUOUS
 10
539.5141862601
 20
31.0673661609
 11
539.5719992012
 21
30.9060491937
 12
539.2251242012
 22
30.9705762839
 13
539.2251242012
 23
30.9705762839
  0
SOLID
  8
0
 62
7
  6
CONTINUOUS
 10
539.2829364807
 20
30.8737848904
 11
539.2251242012
 21
30.9705762839
 12
539.5719992012
 22
30.9060491937
 13
539.5719992012
 23
30.9060491937
  0
SOLID
  8
0
 62
7
  6
CONTINUOUS
 10
539.2829364807
 20
30.8737848904
 11
539.5719992012
 21
30.9060491937
 12
539.3407487601
 22
30.8092576254
 13
539.3407487601
 23
30.8092576254
  0
SOLID
  8
0
 62
7
  6
CONTINUOUS
 10
539.5719992012
 20
30.9060491937
 11
539.6298114807
 21
30.8092576254
 12
539.3407487601
 22
30.8092576254
 13
539.3407487601
 23
30.8092576254
  0
SOLID
  8
0
 62
7
  6
CONTINUOUS
 10
534.8891865358
 20
31.035103216
 11
534.9469989807
 21
31.1318946289
 12
535.2360615358
 22
31.1318946289
 13
535.2360615358
 23
31.1318946289
  0
SOLID
  8
0
 62
7
  6
CONTINUOUS
 10
535.2360615358
 20
31.1318946289
 11
535.1782489255
 21
31.0028390707
 12
534.8891865358
 22
31.035103216
 13
534.8891865358
 23
31.035103216
  0
SOLID
  8
0
 62
7
  6
CONTINUOUS
 10
534.7157489531
 20
30.9705762839
 11
534.8891865358
 21
31.035103216
 12
535.1782489255
 22
31.0028390707
 13
535.1782489255
 23
31.0028390707
  0
SOLID
  8
0
 62
7
  6
CONTINUOUS
 10
534.7157489531
 20
30.9705762839
 11
535.1782489255
 21
31.0028390707
 12
534.3110615082
 22
30.9383119806
 13
534.3110615082
 23
30.9383119806
  0
SOLID
  8
0
 62
7
  6
CONTINUOUS
 10
535.1782489255
 20
31.0028390707
 11
535.0048114255
 21
30.9060491937
 12
534.3110615082
 22
30.9383119806
 13
534.3110615082
 23
30.9383119806
  0
SOLID
  8
0
 62
7
  6
CONTINUOUS
 10
533.8485614944
 20
30.8737848904
 11
534.3110615082
 21
30.9383119806
 12
535.0048114255
 22
30.9060491937
 13
535.0048114255
 23
30.9060491937
  0
SOLID
  8
0
 62
7
  6
CONTINUOUS
 10
533.8485614944
 20
30.8737848904
 11
535.0048114255
 21
30.9060491937
 12
534.0219989944
 22
30.8415207131
 13
534.0219989944
 23
30.8415207131
  0
SOLID
  8
0
 62
7
  6
CONTINUOUS
 10
535.0048114255
 20
30.9060491937
 11
534.7735614807
 21
30.8415207131
 12
534.0219989944
 22
30.8415207131
 13
534.0219989944
 23
30.8415207131
  0
SOLID
  8
0
 62
7
  6
CONTINUOUS
 10
534.3688739531
 20
30.8092578002
 11
534.0219989944
 21
30.8415207131
 12
534.7735614807
 22
30.8415207131
 13
534.7735614807
 23
30.8415207131
  0
SOLID
  8
0
 62
7
  6
CONTINUOUS
 10
537.8376238704
 20
30.9705762839
 11
538.0688739807
 21
31.0673661609
 12
538.1266865909
 22
31.0028390707
 13
538.1266865909
 23
31.0028390707
  0
SOLID
  8
0
 62
7
  6
CONTINUOUS
 10
538.1266865909
 20
31.0028390707
 11
538.3579363704
 21
30.9383119806
 12
537.8376238704
 22
30.9705762839
 13
537.8376238704
 23
30.9705762839
  0
SOLID
  8
0
 62
7
  6
CONTINUOUS
 10
538.0110613704
 20
30.8737848904
 11
537.8376238704
 21
30.9705762839
 12
538.3579363704
 22
30.9383119806
 13
538.3579363704
 23
30.9383119806
  0
SOLID
  8
0
 62
7
  6
CONTINUOUS
 10
538.7048113704
 20
30.9383119664
 11
538.9938737601
 21
31.0028390707
 12
539.2251242012
 22
30.9705762839
 13
539.2251242012
 23
30.9705762839
  0
SOLID
  8
0
 62
7
  6
CONTINUOUS
 10
539.2251242012
 20
30.9705762839
 11
539.1673112601
 21
30.9060491937
 12
538.7048113704
 22
30.9383119664
 13
538.7048113704
 23
30.9383119664
  0
SOLID
  8
0
 62
7
  6
CONTINUOUS
 10
539.1673112601
 20
30.9060491937
 11
538.0110613704
 21
30.8737848904
 12
538.7048113704
 22
30.9383119664
 13
538.7048113704
 23
30.9383119664
  0
SOLID
  8
0
 62
7
  6
CONTINUOUS
 10
538.0110613704
 20
30.8737848904
 11
538.3579363704
 21
30.9383119664
 12
538.7048113704
 22
30.9383119664
 13
538.7048113704
 23
30.9383119664
  0
SOLID
  8
0
 62
7
  6
CONTINUOUS
 10
538.0110613704
 20
30.8737848904
 11
539.1673112601
 21
30.9060491937
 12
538.1266865909
 22
30.8415205568
 13
538.1266865909
 23
30.8415205568
  0
SOLID
  8
0
 62
7
  6
CONTINUOUS
 10
539.1673112601
 20
30.9060491937
 11
538.9938737601
 21
30.8415205568
 12
538.1266865909
 22
30.8415205568
 13
538.1266865909
 23
30.8415205568
  0
SOLID
  8
0
 62
7
  6
CONTINUOUS
 10
538.3579363704
 20
30.8092577215
 11
538.1266865909
 21
30.8415205568
 12
538.9938737601
 22
30.8415205568
 13
538.9938737601
 23
30.8415205568
  0
SOLID
  8
0
 62
7
  6
CONTINUOUS
 10
538.9938737601
 20
30.8415205568
 11
538.7048113704
 21
30.8092577215
 12
538.3579363704
 22
30.8092577215
 13
538.3579363704
 23
30.8092577215
  0
SOLID
  8
0
 62
7
  6
CONTINUOUS
 10
543.3876242012
 20
30.9705762839
 11
543.0407492012
 21
30.9383119664
 12
543.2719989807
 22
31.0028390707
 13
543.2719989807
 23
31.0028390707
  0
SOLID
  8
0
 62
7
  6
CONTINUOUS
 10
543.2719989807
 20
31.0028390707
 11
543.0407492012
 21
30.9383119664
 12
543.2141867012
 22
31.0673661467
 13
543.2141867012
 23
31.0673661467
  0
SOLID
  8
0
 62
7
  6
CONTINUOUS
 10
543.0407492012
 20
30.9383119664
 11
542.9251239807
 21
31.0673661467
 12
543.2141867012
 22
31.0673661467
 13
543.2141867012
 23
31.0673661467
  0
SOLID
  8
0
 62
7
  6
CONTINUOUS
 10
543.3876242012
 20
30.9705762839
 11
543.7344992012
 21
30.9383119664
 12
543.0407492012
 22
30.9383119664
 13
543.0407492012
 23
30.9383119664
  0
SOLID
  8
0
 62
7
  6
CONTINUOUS
 10
540.0923117012
 20
30.8092578002
 11
540.0923117012
 21
31.841695792
 12
540.3813737601
 22
30.8092578002
 13
540.3813737601
 23
31.841695792
  0
ENDBLK
  8
0
  6
BYBLOCK
 62
0
  0
BLOCK
  8
0
 62
2
  6
CONTINUOUS
  2
AMMEAAL_LOGO_BL0
 70
64
 10
416.1419631151
 20
19.7009994242
  0
TEXT
  8
0
 62
7
  6
CONTINUOUS
 10
402.4066669574
 20
19.0744135318
  7
TEXTSTYLE_3
 40
2.7338706658
  1
Ammeraal Beltech
 41
1.0
 51
15.0
 72
0
  0
TEXT
  8
0
 62
7
  6
CONTINUOUS
 10
413.2074677831
 20
16.800876859
  7
TEXTSTYLE_4
 40
1.0935482663
  1
Innovation & Service in Belting
 41
1.0
 72
0
  0
LINE
  8
0
 62
7
  6
CONTINUOUS
 10
396.382126306
 20
19.8410068404
 11
397.1602782994
 21
23.5019241381
  0
LINE
  8
0
 62
7
  6
CONTINUOUS
 10
407.2554465892
 20
27.1653180497
 11
397.6480960424
 21
24.0437006284
  0
LINE
  8
0
 62
7
  6
CONTINUOUS
 10
396.6074096383
 20
19.1476560374
 11
404.1144848995
 21
12.3882551114
  0
LINE
  8
0
 62
7
  6
CONTINUOUS
 10
396.869944049
 20
20.3827833308
 11
407.6782134142
 21
23.8946029297
  0
LINE
  8
0
 62
7
  6
CONTINUOUS
 10
407.674008277
 20
13.544814366
 11
399.2285486083
 21
21.1491404077
  0
LINE
  8
0
 62
7
  6
CONTINUOUS
 10
408.1938309968
 20
26.320392934
 11
407.2172714596
 21
21.7260415315
  0
LINE
  8
0
 62
7
  6
CONTINUOUS
 10
406.5174695119
 20
18.4337322177
 11
405.8310213004
 21
15.2042472933
  0
LINE
  8
0
 62
7
  6
CONTINUOUS
 10
408.8749270954
 20
13.9350165436
 11
409.831158631
 21
18.4337322177
  0
LINE
  8
0
 62
7
  6
CONTINUOUS
 10
410.5309605787
 20
21.7260415315
 11
410.9752023811
 21
23.8160348909
  0
LINE
  8
0
 62
7
  6
CONTINUOUS
 10
404.8275859748
 20
12.2366807987
 11
408.3871093524
 21
13.3932400533
  0
LINE
  8
0
 62
7
  6
CONTINUOUS
 10
407.9685476645
 20
27.013743737
 11
410.7499190488
 21
24.5093856939
  0
ARC
  8
0
 62
7
  6
CONTINUOUS
 10
397.8733793747
 20
23.3503498254
 40
0.7290321776
 50
108.0
 51
168.0
  0
ARC
  8
0
 62
7
  6
CONTINUOUS
 10
407.4807299215
 20
26.4719672466
 40
0.7290321776
 50
348.0
 51
108.0
  0
ARC
  8
0
 62
7
  6
CONTINUOUS
 10
410.2621013058
 20
23.9676092036
 40
0.7290321776
 50
348.0
 51
48.0
  0
ARC
  8
0
 62
7
  6
CONTINUOUS
 10
404.6023026425
 20
12.9300316018
 40
0.7290321776
 50
228.0
 51
288.0
  0
ARC
  8
0
 62
7
  6
CONTINUOUS
 10
397.0952273813
 20
19.6894325277
 40
0.7290321776
 50
108.0
 51
228.0
  0
ARC
  8
0
 62
7
  6
CONTINUOUS
 10
408.1618260201
 20
14.0865908563
 40
0.7290321776
 50
228.0
 51
348.0
  0
ENDBLK
  8
0
  6
BYBLOCK
 62
0
  0
BLOCK
  8
0
  2
_FILLED
 70
64
 10
0.0
 20
0.0
  0
SOLID
  8
0
  6
BYBLOCK
 62
0
 10
0.0
 20
0.0
 11
-1.0
 21
0.2142857143
 12
-1.0
 22
-0.2142857143
 13
-1.0
 23
-0.2142857143
  0
ENDBLK
  8
0
  6
BYBLOCK
 62
0
  0
ENDSEC
  0
SECTION
  2
ENTITIES
  0
TEXT
  8
0
 62
5
  6
CONTINUOUS
 10
480.0
 20
25.636
  7
TEXTSTYLE_2
 40
2.8
  1
Scale :
 41
0.6
 51
0.000019
 72
0
  0
TEXT
  8
0
 62
5
  6
CONTINUOUS
 10
500.0
 20
25.636
  7
TEXTSTYLE_2
 40
2.8
  1
Chain type:
 41
0.6
 51
0.000019
 72
0
  0
INSERT
  8
0
 62
2
  6
CONTINUOUS
  2
AMMEAAL_LOGO_BL0
 10
416.1419631151
 20
19.7009994242
  0
INSERT
  8
0
 62
2
  6
CONTINUOUS
  2
UNI_LOGO2_BL1
 10
557.4079930916
 20
35.8092573885
  0
LINE
  8
0
 62
2
  6
CONTINUOUS
 10
394.0
 20
30.0
 11
584.0
 21
30.0
  0
LINE
  8
0
 62
2
  6
CONTINUOUS
 10
394.0
 20
30.0
 11
394.0
 21
10.0
  0
LINE
  8
0
 62
2
  6
CONTINUOUS
 10
394.0
 20
10.0
 11
584.0
 21
10.0
  0
LINE
  8
0
 62
2
  6
CONTINUOUS
 10
479.0
 20
30.0
 11
479.0
 21
10.0
  0
LINE
  8
0
 62
2
  6
CONTINUOUS
 10
499.0
 20
30.0
 11
499.0
 21
10.0
  0
LINE
  8
0
 62
2
  6
CONTINUOUS
 10
584.0
 20
30.0
 11
584.0
 21
10.0
  0
TEXT
  8
0
 62
5
  6
CONTINUOUS
 10
397.0
 20
23.303
  7
TEXTSTYLE_5
 40
1.52
  1
                                                                     Ammeraal Beltech Modular A/S
 41
1.0
 72
0
  0
TEXT
  8
0
 62
5
  6
CONTINUOUS
 10
397.0
 20
20.595
  7
TEXTSTYLE_5
 40
1.5
  1
                                                                      Hjulmagervej 21, 7100 Vejle,  DK
 41
1.0
 72
0
  0
TEXT
  8
0
 62
5
  6
CONTINUOUS
 10
397.0
 20
17.881
  7
TEXTSTYLE_5
 40
1.495
  1
                                                                      tel: 
 41
1.0
 72
0
  0
TEXT
  8
0
 62
5
  6
CONTINUOUS
 10
441.9869465649
 20
17.881
  7
TEXTSTYLE_5
 40
1.51
  1
+45 75723100     fax: +45 75723348
 41
1.0
 72
0
  0
TEXT
  8
0
 62
5
  6
CONTINUOUS
 10
397.0
 20
15.177
  7
TEXTSTYLE_5
 40
1.5
  1
                                                                      admin@unichains.dk  www.unichains.com
 41
1.0
 72
0
  0
TEXT
  8
0
 62
5
  6
CONTINUOUS
 10
483.75
 20
13.75
  7
TEXTSTYLE_6
 40
5.0
  1
1:1
 41
0.7
 72
1
 11
489.0
 21
13.75
  0
TEXT
  8
0
 62
5
  6
CONTINUOUS
 10
502.0
 20
13.75
  7
TEXTSTYLE_7
 40
7.5
  1
Z15 Bore 90SQ
 41
0.6897435897
 72
0
  0
LINE
  8
0
 62
7
  6
CONTINUOUS
 10
-0.0
 20
-0.0
 11
-0.0
 21
420.0
  0
LINE
  8
0
 62
7
  6
CONTINUOUS
 10
10.0
 20
10.0
 11
10.0
 21
410.0
  0
LINE
  8
0
 62
7
  6
CONTINUOUS
 10
-0.0
 20
-0.0
 11
594.0
 21
-0.0
  0
LINE
  8
0
 62
7
  6
CONTINUOUS
 10
10.0
 20
10.0
 11
584.0
 21
10.0
  0
LINE
  8
0
 62
7
  6
CONTINUOUS
 10
394.0
 20
30.0
 11
584.0
 21
30.0
  0
LINE
  8
0
 62
7
  6
CONTINUOUS
 10
179.0
 20
5.0
 11
179.0
 21
10.0
  0
LINE
  8
0
 62
7
  6
CONTINUOUS
 10
179.0
 20
410.0
 11
179.0
 21
415.0
  0
LINE
  8
0
 62
7
  6
CONTINUOUS
 10
384.0
 20
410.0
 11
384.0
 21
415.0
  0
LINE
  8
0
 62
7
  6
CONTINUOUS
 10
5.0
 20
297.0
 11
10.0
 21
297.0
  0
LINE
  8
0
 62
7
  6
CONTINUOUS
 10
584.0
 20
297.0
 11
589.0
 21
297.0
  0
LINE
  8
0
 62
7
  6
CONTINUOUS
 10
10.0
 20
410.0
 11
584.0
 21
410.0
  0
LINE
  8
0
 62
7
  6
CONTINUOUS
 10
-0.0
 20
420.0
 11
594.0
 21
420.0
  0
LINE
  8
0
 62
7
  6
CONTINUOUS
 10
584.0
 20
10.0
 11
584.0
 21
410.0
  0
LINE
  8
0
 62
7
  6
CONTINUOUS
 10
594.0
 20
-0.0
 11
594.0
 21
420.0
  0
LINE
  8
0
 62
7
  6
CONTINUOUS
 10
138.7411832418
 20
351.1499003953
 11
114.9857412116
 21
340.5732961712
  0
LINE
  8
0
 62
7
  6
CONTINUOUS
 10
228.0162907779
 20
105.331465464
 11
253.4516190716
 21
110.737911391
  0
LINE
  8
0
 62
7
  6
CONTINUOUS
 10
173.374088917
 20
103.4617441781
 11
198.8094172107
 21
98.0552982511
  0
LINE
  8
0
 62
7
  6
CONTINUOUS
 10
122.6954694521
 20
123.9786545456
 11
143.7327984111
 21
108.6941403813
  0
LINE
  8
0
 62
7
  6
CONTINUOUS
 10
84.7432260895
 20
163.3346363735
 11
97.7450104187
 21
140.8148853264
  0
LINE
  8
0
 62
7
  6
CONTINUOUS
 10
66.0796464919
 20
214.724682866
 11
68.7977595633
 21
188.8635644776
  0
LINE
  8
0
 62
7
  6
CONTINUOUS
 10
69.931833125
 20
269.2629881206
 11
61.8962884952
 21
244.5321247012
  0
LINE
  8
0
 62
7
  6
CONTINUOUS
 10
95.633707924
 20
317.5193836937
 11
78.2339242602
 21
298.1949662014
  0
LINE
  8
0
 62
7
  6
CONTINUOUS
 10
204.7264713002
 20
345.5141543057
 11
204.3352227515
 21
345.2845080006
  0
LINE
  8
0
 62
7
  6
CONTINUOUS
 10
208.4598559547
 20
348.2511618806
 11
208.0592230281
 21
348.0383101902
  0
LINE
  8
0
 62
7
  6
CONTINUOUS
 10
208.0034732327
 20
347.5307243655
 11
208.4041061593
 21
347.743576056
  0
LINE
  8
0
 62
7
  6
CONTINUOUS
 10
204.3010437046
 20
344.775014839
 11
204.5590279366
 21
344.8856546219
  0
LINE
  8
0
 62
7
  6
CONTINUOUS
 10
234.7956199208
 20
338.2517557977
 11
235.3944727526
 21
338.4468171541
  0
LINE
  8
0
 62
7
  6
CONTINUOUS
 10
204.5590279366
 20
344.8856546219
 11
204.9588210718
 21
345.2426742767
  0
LINE
  8
0
 62
7
  6
CONTINUOUS
 10
208.0592230281
 20
348.0383101902
 11
207.7828424223
 21
347.8118114648
  0
LINE
  8
0
 62
7
  6
CONTINUOUS
 10
207.7270926269
 20
347.3042256401
 11
208.0034732327
 21
347.5307243655
  0
LINE
  8
0
 62
7
  6
CONTINUOUS
 10
236.1437563716
 20
341.701958959
 11
235.8231175951
 21
341.544226334
  0
LINE
  8
0
 62
7
  6
CONTINUOUS
 10
235.2528936016
 20
339.1734563988
 11
234.9322547954
 21
339.0157236895
  0
LINE
  8
0
 62
7
  6
CONTINUOUS
 10
256.6820575851
 20
334.3110083639
 11
255.5804038446
 21
333.9270679697
  0
LINE
  8
0
 62
7
  6
CONTINUOUS
 10
255.0577780512
 20
333.0496463796
 11
256.1594319747
 21
333.433587081
  0
LINE
  8
0
 62
7
  6
CONTINUOUS
 10
248.6031997789
 20
332.848678147
 11
254.4099064342
 21
334.6330505813
  0
LINE
  8
0
 62
7
  6
CONTINUOUS
 10
253.9826645776
 20
335.1558121259
 11
248.066131977
 21
333.4311227683
  0
LINE
  8
0
 62
7
  6
CONTINUOUS
 10
205.0015448799
 20
345.8795407204
 11
204.7264713002
 21
345.5141543057
  0
LINE
  8
0
 62
7
  6
CONTINUOUS
 10
236.2853355672
 20
340.9753198408
 11
236.8087130673
 21
341.3323246047
  0
LINE
  8
0
 62
7
  6
CONTINUOUS
 10
235.3944727526
 20
338.4468171541
 11
235.9178502676
 21
338.8038219602
  0
LINE
  8
0
 62
7
  6
CONTINUOUS
 10
259.0326320729
 20
327.4151749154
 11
258.614943555
 21
327.2288716172
  0
LINE
  8
0
 62
7
  6
CONTINUOUS
 10
258.6532530003
 20
326.5964881567
 11
259.2451846448
 21
326.8223053018
  0
LINE
  8
0
 62
7
  6
CONTINUOUS
 10
168.4631363961
 20
271.5017015712
 11
157.72759363
 21
260.7661588052
  0
LINE
  8
0
 62
7
  6
CONTINUOUS
 10
190.0425824331
 20
290.3174553037
 11
174.4862332469
 21
274.7611061176
  0
LINE
  8
0
 62
7
  6
CONTINUOUS
 10
154.4681890837
 20
254.7430619543
 11
138.9118398976
 21
239.1867127682
  0
LINE
  8
0
 62
7
  6
CONTINUOUS
 10
157.72759363
 20
205.0983989599
 11
168.4631363961
 21
194.3628561939
  0
LINE
  8
0
 62
7
  6
CONTINUOUS
 10
138.9118398976
 20
226.6778449969
 11
154.4681890837
 21
211.1214958108
  0
LINE
  8
0
 62
7
  6
CONTINUOUS
 10
174.4862332469
 20
191.1034516475
 11
190.0425824331
 21
175.5471024614
  0
LINE
  8
0
 62
7
  6
CONTINUOUS
 10
220.5715770432
 20
344.3670815787
 11
222.4352045147
 21
347.4772274631
  0
LINE
  8
0
 62
7
  6
CONTINUOUS
 10
219.5078286229
 20
342.5147623886
 11
220.3361070209
 21
343.8970494963
  0
LINE
  8
0
 62
7
  6
CONTINUOUS
 10
222.0613386579
 20
348.0863048419
 11
218.7766244523
 21
342.6816169989
  0
LINE
  8
0
 62
7
  6
CONTINUOUS
 10
230.9781903682
 20
345.7362317781
 11
227.6834264539
 21
341.109353207
  0
LINE
  8
0
 62
7
  6
CONTINUOUS
 10
227.985763769
 20
340.3570119996
 11
230.9826173623
 21
344.4057049244
  0
LINE
  8
0
 62
7
  6
CONTINUOUS
 10
236.388917129
 20
342.0216359737
 11
236.1437563716
 21
341.701958959
  0
LINE
  8
0
 62
7
  6
CONTINUOUS
 10
236.8087130673
 20
341.3323246047
 11
237.0538738248
 21
341.6520016194
  0
LINE
  8
0
 62
7
  6
CONTINUOUS
 10
235.4980543591
 20
339.4931334135
 11
235.2528936016
 21
339.1734563988
  0
LINE
  8
0
 62
7
  6
CONTINUOUS
 10
235.9178502676
 20
338.8038219602
 11
236.1630110548
 21
339.1234990593
  0
LINE
  8
0
 62
7
  6
CONTINUOUS
 10
259.3452807614
 20
327.6692389325
 11
259.0326320729
 21
327.4151749154
  0
LINE
  8
0
 62
7
  6
CONTINUOUS
 10
259.2451846448
 20
326.8223053018
 11
259.8012787003
 21
327.2231587327
  0
LINE
  8
0
 62
7
  6
CONTINUOUS
 10
150.1737771604
 20
91.9148170756
 11
148.5787752063
 21
84.4109228576
  0
LINE
  8
0
 62
7
  6
CONTINUOUS
 10
96.8043716634
 20
122.8664286636
 11
92.2951561291
 21
116.6600259266
  0
LINE
  8
0
 62
7
  6
CONTINUOUS
 10
60.6381482897
 20
172.8494256713
 11
53.9944035059
 21
169.013657832
  0
LINE
  8
0
 62
7
  6
CONTINUOUS
 10
341.3631610251
 20
201.8020462308
 11
348.9926712286
 21
201.0001523955
  0
LINE
  8
0
 62
7
  6
CONTINUOUS
 10
316.1597275461
 20
145.4896795264
 11
322.8034723298
 21
141.6539116871
  0
LINE
  8
0
 62
7
  6
CONTINUOUS
 10
270.2309423772
 20
104.2969326417
 11
274.7401579116
 21
98.0905299047
  0
LINE
  8
0
 62
7
  6
CONTINUOUS
 10
211.5183097243
 20
85.3464057375
 11
213.1133116784
 21
77.8425115195
  0
LINE
  8
DEFAULT_1
 62
2
  6
CENTER
 10
196.2970163187
 20
232.9322788826
 11
196.2970163187
 21
86.2127259036
  0
LINE
  8
DEFAULT_1
 62
2
  6
CENTER
 10
196.2970163187
 20
232.9322788826
 11
196.2970163187
 21
379.6518318615
  0
LINE
  8
0
 62
7
  6
CONTINUOUS
 10
202.0715378415
 20
348.8909214899
 11
201.900642621
 21
346.3434558937
  0
LINE
  8
0
 62
7
  6
CONTINUOUS
 10
202.5242409859
 20
346.3016221668
 11
202.6951362063
 21
348.849087763
  0
LINE
  8
0
 62
7
  6
CONTINUOUS
 10
200.1045738802
 20
375.8881275344
 11
199.3510901252
 21
365.1128078243
  0
LINE
  8
0
 62
7
  6
CONTINUOUS
 10
207.231265574
 20
348.5145291934
 11
206.7852671716
 21
344.4538422407
  0
LINE
  8
0
 62
7
  6
CONTINUOUS
 10
207.4065312641
 20
344.3856067928
 11
207.7270926269
 21
347.3042256401
  0
LINE
  8
0
 62
7
  6
CONTINUOUS
 10
207.7828424223
 20
347.8118114648
 11
207.8525296666
 21
348.4462937456
  0
LINE
  8
0
 62
7
  6
CONTINUOUS
 10
212.0723435482
 20
349.8734465994
 11
211.9853353895
 21
349.2411067722
  0
LINE
  8
0
 62
7
  6
CONTINUOUS
 10
211.8113190234
 20
347.9764267636
 11
211.254466759
 21
343.9294515155
  0
LINE
  8
0
 62
7
  6
CONTINUOUS
 10
211.8736326774
 20
343.8442560491
 11
212.4304849418
 21
347.8912312972
  0
LINE
  8
0
 62
7
  6
CONTINUOUS
 10
212.6045013079
 20
349.1559113058
 11
212.6915094666
 21
349.788251133
  0
LINE
  8
0
 62
7
  6
CONTINUOUS
 10
226.2962740795
 20
347.0946392712
 11
224.6243874435
 21
341.3322790711
  0
LINE
  8
0
 62
7
  6
CONTINUOUS
 10
225.3446824685
 20
341.1232932416
 11
226.660848586
 21
345.6596195027
  0
LINE
  8
0
 62
7
  6
CONTINUOUS
 10
233.3280374177
 20
344.9949895771
 11
231.3342015898
 21
339.3359597405
  0
LINE
  8
0
 62
7
  6
CONTINUOUS
 10
232.2961125521
 20
339.8091596011
 11
232.9324431487
 21
341.6152329908
  0
LINE
  8
0
 62
7
  6
CONTINUOUS
 10
233.1869753518
 20
342.3376622456
 11
233.7808839443
 21
344.0233308439
  0
LINE
  8
0
 62
7
  6
CONTINUOUS
 10
257.9207752225
 20
361.980271881
 11
252.8497161937
 21
352.4429969583
  0
LINE
  8
0
 62
7
  6
CONTINUOUS
 10
250.4433869242
 20
337.8056337094
 11
250.1386106873
 21
337.2447990438
  0
LINE
  8
0
 62
7
  6
CONTINUOUS
 10
248.066131977
 20
333.4311227683
 11
247.5784899551
 21
332.5337872249
  0
LINE
  8
0
 62
7
  6
CONTINUOUS
 10
255.5804038446
 20
333.9270679697
 11
255.0577780512
 21
333.0496463796
  0
LINE
  8
0
 62
7
  6
CONTINUOUS
 10
256.1594319747
 20
333.433587081
 11
253.611631758
 21
329.1561577123
  0
LINE
  8
0
 62
7
  6
CONTINUOUS
 10
258.3727267433
 20
333.3099092335
 11
256.5734545597
 21
330.5207572088
  0
LINE
  8
0
 62
7
  6
CONTINUOUS
 10
257.4446692619
 20
330.7183273099
 11
258.5519137572
 21
332.4347286715
  0
LINE
  8
0
 62
7
  6
CONTINUOUS
 10
305.0816688159
 20
325.7588458739
 11
296.5698666887
 21
319.1086972162
  0
LINE
  8
0
 62
7
  6
CONTINUOUS
 10
53.7262966228
 20
221.7760230707
 11
64.5213485031
 21
222.152994589
  0
LINE
  8
DEFAULT_1
 62
2
  6
CENTER
 10
196.2970163187
 20
232.9322788826
 11
49.5774633398
 21
232.9322788826
  0
LINE
  8
DEFAULT_1
 62
2
  6
CENTER
 10
196.2970163187
 20
232.9322788826
 11
343.0165692977
 21
232.9322788826
  0
LINE
  8
0
 62
7
  6
CONTINUOUS
 10
61.5145249095
 20
280.7292679913
 11
71.5296236496
 21
276.682905446
  0
LINE
  8
0
 62
7
  6
CONTINUOUS
 10
92.6078704213
 20
331.417979273
 11
100.1113144648
 21
323.6479355081
  0
LINE
  8
0
 62
7
  6
CONTINUOUS
 10
141.6300112451
 20
365.0776182427
 11
145.3243869502
 21
354.9274044139
  0
LINE
  8
0
 62
7
  6
CONTINUOUS
 10
205.1895296212
 20
348.6817528584
 11
205.0015448799
 21
345.8795407204
  0
LINE
  8
0
 62
7
  6
CONTINUOUS
 10
205.5909643309
 20
345.3282138117
 11
205.8131281199
 21
348.6399191225
  0
LINE
  8
0
 62
7
  6
CONTINUOUS
 10
209.907893138
 20
346.5509922501
 11
209.6430815706
 21
344.1399592275
  0
LINE
  8
0
 62
7
  6
CONTINUOUS
 10
210.2643453077
 20
344.0717238187
 11
210.529156875
 21
346.4827568413
  0
LINE
  8
0
 62
7
  6
CONTINUOUS
 10
162.8504708198
 20
93.8919942434
 11
165.8278040869
 21
104.2751892835
  0
LINE
  8
0
 62
7
  6
CONTINUOUS
 10
230.9826173623
 20
344.4057049244
 11
229.6664512448
 21
339.8693786632
  0
LINE
  8
0
 62
7
  6
CONTINUOUS
 10
230.3867462698
 20
339.6603928337
 11
232.0586329058
 21
345.4227530339
  0
LINE
  8
0
 62
7
  6
CONTINUOUS
 10
236.4737611967
 20
342.2624457253
 11
236.388917129
 21
342.0216359737
  0
LINE
  8
0
 62
7
  6
CONTINUOUS
 10
235.6253204606
 20
339.8543480409
 11
235.4980543591
 21
339.4931334135
  0
LINE
  8
0
 62
7
  6
CONTINUOUS
 10
236.1630110548
 20
339.1234990593
 11
236.375121224
 21
339.7255234382
  0
LINE
  8
0
 62
7
  6
CONTINUOUS
 10
237.0538738248
 20
341.6520016194
 11
237.2235620789
 21
342.1336214599
  0
LINE
  8
0
 62
7
  6
CONTINUOUS
 10
251.9716961968
 20
330.1463726286
 11
252.3374277239
 21
330.8193743058
  0
LINE
  8
0
 62
7
  6
CONTINUOUS
 10
254.4099064342
 20
334.6330505813
 11
254.8365931659
 21
335.4182191131
  0
LINE
  8
0
 62
7
  6
CONTINUOUS
 10
254.2559880895
 20
328.7723544839
 11
257.3264139166
 21
333.9272051355
  0
LINE
  8
0
 62
7
  6
CONTINUOUS
 10
259.4836862991
 20
327.8837890652
 11
259.3452807614
 21
327.6692389325
  0
LINE
  8
0
 62
7
  6
CONTINUOUS
 10
261.5980791244
 20
330.4696580825
 11
261.9440929686
 21
331.0060334141
  0
LINE
  8
0
 62
7
  6
CONTINUOUS
 10
259.8012787003
 20
327.2231587327
 11
260.0780897757
 21
327.6522589979
  0
LINE
  8
0
 62
7
  6
CONTINUOUS
 10
109.1892979779
 20
119.5165940599
 11
116.132453155
 21
127.7911241861
  0
LINE
  8
0
 62
7
  6
CONTINUOUS
 10
70.5898409859
 20
164.7517961313
 11
80.2982834662
 21
169.4869199132
  0
LINE
  8
0
 62
7
  6
CONTINUOUS
 10
333.4327077151
 20
273.4868631312
 11
322.9519304044
 21
270.8737118561
  0
LINE
  8
0
 62
7
  6
CONTINUOUS
 10
47.9285756203
 20
233.2212938348
 11
40.2990654168
 21
232.4193999994
  0
LINE
  8
0
 62
7
  6
CONTINUOUS
 10
338.0717397332
 20
214.202624345
 11
327.4342088509
 21
216.0783080477
  0
LINE
  8
0
 62
7
  6
CONTINUOUS
 10
60.8732542326
 20
293.5431886874
 11
53.5771902354
 21
295.9138235851
  0
LINE
  8
0
 62
7
  6
CONTINUOUS
 10
318.19663409
 20
158.156912982
 11
309.2416753647
 21
164.1971089102
  0
LINE
  8
0
 62
7
  6
CONTINUOUS
 10
97.2339315959
 20
343.384906602
 11
91.5328695528
 21
348.5181659223
  0
LINE
  8
0
 62
7
  6
CONTINUOUS
 10
277.2439771109
 20
115.040541696
 11
271.5199842593
 21
124.2008451003
  0
LINE
  8
0
 62
7
  6
CONTINUOUS
 10
222.2948552307
 20
92.3087227824
 11
220.7915586179
 21
103.0052339855
  0
LINE
  8
0
 62
7
  6
CONTINUOUS
 10
209.8533273504
 20
347.1991216439
 11
209.907893138
 21
346.5509922501
  0
LINE
  8
0
 62
7
  6
CONTINUOUS
 10
210.529156875
 20
346.4827568413
 11
210.4745917985
 21
347.130886157
  0
LINE
  8
0
 62
7
  6
CONTINUOUS
 10
212.0931731204
 20
380.45773145
 11
212.0931731204
 21
388.1292671286
  0
LINE
  8
0
 62
7
  6
CONTINUOUS
 10
270.7315309586
 20
361.2786101712
 11
273.8518256278
 21
368.2869067435
  0
LINE
  8
0
 62
7
  6
CONTINUOUS
 10
316.4994849993
 20
319.9072422227
 11
322.2005470423
 21
325.0405015431
  0
LINE
  8
0
 62
7
  6
CONTINUOUS
 10
341.4833401999
 20
263.4971129701
 11
348.7794041971
 21
265.8677478677
  0
LINE
  8
0
 62
7
  6
CONTINUOUS
 10
150.7235162676
 20
374.1283617532
 11
147.6032215984
 21
381.1366583256
  0
LINE
  8
0
 62
7
  6
CONTINUOUS
 10
201.900642621
 20
346.3434558937
 11
201.991183253
 21
345.8255959751
  0
LINE
  8
0
 62
7
  6
CONTINUOUS
 10
205.6815048417
 20
344.8103539237
 11
205.5909643309
 21
345.3282138117
  0
LINE
  8
0
 62
7
  6
CONTINUOUS
 10
223.6513184578
 20
341.5692530364
 11
223.0362780168
 21
347.8638319221
  0
LINE
  8
0
 62
7
  6
CONTINUOUS
 10
222.773454721
 20
343.3408673559
 11
222.9201142872
 21
341.7361076466
  0
LINE
  8
0
 62
7
  6
CONTINUOUS
 10
222.4352045147
 20
347.4772274631
 11
222.7651895548
 21
343.8665177478
  0
LINE
  8
0
 62
7
  6
CONTINUOUS
 10
226.660848586
 20
345.6596195027
 11
227.0253713182
 21
340.6356595065
  0
LINE
  8
0
 62
7
  6
CONTINUOUS
 10
227.6834264539
 20
341.109353207
 11
227.3767152431
 21
346.7811609256
  0
LINE
  8
0
 62
7
  6
CONTINUOUS
 10
235.6346919655
 20
340.2571004495
 11
235.6253204606
 21
339.8543480409
  0
LINE
  8
0
 62
7
  6
CONTINUOUS
 10
236.375121224
 20
339.7255234382
 11
236.3844927289
 21
340.1282758468
  0
LINE
  8
0
 62
7
  6
CONTINUOUS
 10
236.4831327611
 20
342.6651983025
 11
236.4737611967
 21
342.2624457253
  0
LINE
  8
0
 62
7
  6
CONTINUOUS
 10
237.2235620789
 20
342.1336214599
 11
237.2329335245
 21
342.5363736998
  0
LINE
  8
0
 62
7
  6
CONTINUOUS
 10
260.0780897757
 20
327.6522589979
 11
260.2140235539
 21
328.3241564557
  0
LINE
  8
0
 62
7
  6
CONTINUOUS
 10
259.5862543205
 20
328.2733755962
 11
259.4836862991
 21
327.8837890652
  0
LINE
  8
0
 62
7
  6
CONTINUOUS
 10
253.6821927398
 20
239.1867127682
 11
238.1258435537
 21
254.7430619543
  0
LINE
  8
0
 62
7
  6
CONTINUOUS
 10
218.1077993905
 20
274.7611061176
 11
202.5514502044
 21
290.3174553037
  0
LINE
  8
0
 62
7
  6
CONTINUOUS
 10
204.9588210718
 20
345.2426742767
 11
205.1655367345
 21
344.5890743339
  0
LINE
  8
0
 62
7
  6
CONTINUOUS
 10
202.6233263954
 20
345.9111356075
 11
202.5242409859
 21
346.3016221668
  0
LINE
  8
0
 62
7
  6
CONTINUOUS
 10
210.4745917985
 20
347.130886157
 11
210.3921511132
 21
347.5252226385
  0
LINE
  8
0
 62
7
  6
CONTINUOUS
 10
255.9506295433
 20
329.5552814617
 11
255.8838988829
 21
328.9906589515
  0
LINE
  8
0
 62
7
  6
CONTINUOUS
 10
256.5141398224
 20
328.5840927331
 11
256.5808707833
 21
329.1487150493
  0
LINE
  8
0
 62
7
  6
CONTINUOUS
 10
202.5514502044
 20
175.5471024614
 11
218.1077993905
 21
191.1034516475
  0
LINE
  8
0
 62
7
  6
CONTINUOUS
 10
238.1258435537
 20
211.1214958108
 11
253.6821927398
 21
226.6778449969
  0
LINE
  8
0
 62
7
  6
CONTINUOUS
 10
224.1308962413
 20
194.3628561939
 11
234.8664390074
 21
205.0983989599
  0
LINE
  8
0
 62
7
  6
CONTINUOUS
 10
234.8664390074
 20
260.7661588052
 11
224.1308962413
 21
271.5017015712
  0
LINE
  8
0
 62
7
  6
CONTINUOUS
 10
201.991183253
 20
345.8255959751
 11
202.0988134118
 21
345.5624826875
  0
LINE
  8
0
 62
7
  6
CONTINUOUS
 10
205.7891352332
 20
344.5472405981
 11
205.6815048417
 21
344.8103539237
  0
LINE
  8
0
 62
7
  6
CONTINUOUS
 10
255.8838988829
 20
328.9906589515
 11
255.9222081779
 21
328.3582755879
  0
LINE
  8
0
 62
7
  6
CONTINUOUS
 10
260.2140235539
 20
328.3241564557
 11
260.1757140843
 21
328.9565398786
  0
LINE
  8
0
 62
7
  6
CONTINUOUS
 10
259.5837824641
 20
328.730722771
 11
259.5862543205
 21
328.2733755962
  0
LINE
  8
0
 62
7
  6
CONTINUOUS
 10
202.8471314898
 20
345.5122822125
 11
202.6233263954
 21
345.9111356075
  0
LINE
  8
0
 62
7
  6
CONTINUOUS
 10
236.3844927289
 20
340.1282758468
 11
236.2004914995
 21
340.7345100892
  0
LINE
  8
0
 62
7
  6
CONTINUOUS
 10
237.2329335245
 20
342.5363736998
 11
237.048932295
 21
343.1426079422
  0
LINE
  8
0
 62
7
  6
CONTINUOUS
 10
202.0988134118
 20
345.5624826875
 11
202.4473381331
 21
345.155262595
  0
LINE
  8
0
 62
7
  6
CONTINUOUS
 10
209.6326968955
 20
347.4802087041
 11
209.8533273504
 21
347.1991216439
  0
LINE
  8
0
 62
7
  6
CONTINUOUS
 10
210.3921511132
 20
347.5252226385
 11
210.1715206583
 21
347.8063096987
  0
LINE
  8
0
 62
7
  6
CONTINUOUS
 10
235.4837413244
 20
340.5809873277
 11
235.6346919655
 21
340.2571004495
  0
LINE
  8
0
 62
7
  6
CONTINUOUS
 10
236.3321821199
 20
342.9890851808
 11
236.4831327611
 21
342.6651983025
  0
LINE
  8
0
 62
7
  6
CONTINUOUS
 10
236.0071188245
 20
340.9379920916
 11
236.2853355672
 21
340.9753198408
  0
LINE
  8
0
 62
7
  6
CONTINUOUS
 10
257.3087358812
 20
330.0464298085
 11
257.936504814
 21
330.0972108618
  0
LINE
  8
0
 62
7
  6
CONTINUOUS
 10
258.614943555
 20
327.2288716172
 11
258.1614174725
 21
327.2176046422
  0
LINE
  8
0
 62
7
  6
CONTINUOUS
 10
257.9204436674
 20
326.613468257
 11
258.6532530003
 21
326.5964881567
  0
LINE
  8
0
 62
7
  6
CONTINUOUS
 10
258.1774785767
 20
330.7013471814
 11
257.4446692619
 21
330.7183273099
  0
LINE
  8
0
 62
7
  6
CONTINUOUS
 10
203.32892064
 20
345.2240686458
 11
202.8471314898
 21
345.5122822125
  0
LINE
  8
0
 62
7
  6
CONTINUOUS
 10
209.3981289918
 20
347.6343993082
 11
209.6326968955
 21
347.4802087041
  0
LINE
  8
0
 62
7
  6
CONTINUOUS
 10
202.4473381331
 20
345.155262595
 11
202.8044076824
 21
344.87541578
  0
LINE
  8
0
 62
7
  6
CONTINUOUS
 10
210.1715206583
 20
347.8063096987
 11
209.8266371716
 21
348.101043872
  0
LINE
  8
0
 62
7
  6
CONTINUOUS
 10
236.2004914995
 20
340.7345100892
 11
236.0071188245
 21
340.9379920916
  0
LINE
  8
0
 62
7
  6
CONTINUOUS
 10
237.048932295
 20
343.1426079422
 11
236.7046116773
 21
343.6699758722
  0
LINE
  8
0
 62
7
  6
CONTINUOUS
 10
255.9222081779
 20
328.3582755879
 11
256.2398008615
 21
327.6976450334
  0
LINE
  8
0
 62
7
  6
CONTINUOUS
 10
260.1757140843
 20
328.9565398786
 11
259.8581213826
 21
329.617170405
  0
LINE
  8
0
 62
7
  6
CONTINUOUS
 10
256.6908548296
 20
328.1662594427
 11
256.5141398224
 21
328.5840927331
  0
LINE
  8
0
 62
7
  6
CONTINUOUS
 10
259.4070674569
 20
329.1485560614
 11
259.5837824641
 21
328.730722771
  0
LINE
  8
0
 62
7
  6
CONTINUOUS
 10
203.7936203586
 20
344.6811085313
 11
204.3010437046
 21
344.775014839
  0
LINE
  8
0
 62
7
  6
CONTINUOUS
 10
204.3352227515
 20
345.2845080006
 11
203.8277994033
 21
345.1906016595
  0
LINE
  8
0
 62
7
  6
CONTINUOUS
 10
208.4041061593
 20
347.743576056
 11
208.9150550244
 21
347.8158841383
  0
LINE
  8
0
 62
7
  6
CONTINUOUS
 10
208.9708048198
 20
348.3234699629
 11
208.4598559547
 21
348.2511618806
  0
LINE
  8
0
 62
7
  6
CONTINUOUS
 10
234.9322547954
 20
339.0157236895
 11
234.5361433968
 21
339.019933553
  0
LINE
  8
0
 62
7
  6
CONTINUOUS
 10
235.8231175951
 20
341.544226334
 11
235.4270061964
 21
341.5484361975
  0
LINE
  8
0
 62
7
  6
CONTINUOUS
 10
203.2947415953
 20
344.7145755176
 11
203.7936203586
 21
344.6811085313
  0
LINE
  8
0
 62
7
  6
CONTINUOUS
 10
205.1655367345
 20
344.5890743339
 11
205.7891352332
 21
344.5472405981
  0
LINE
  8
0
 62
7
  6
CONTINUOUS
 10
203.8277994033
 20
345.1906016595
 11
203.32892064
 21
345.2240686458
  0
LINE
  8
0
 62
7
  6
CONTINUOUS
 10
205.8131281199
 20
348.6399191225
 11
205.1895296212
 21
348.6817528584
  0
LINE
  8
0
 62
7
  6
CONTINUOUS
 10
202.6951362063
 20
348.849087763
 11
202.0715378415
 21
348.8909214899
  0
LINE
  8
0
 62
7
  6
CONTINUOUS
 10
206.7852671716
 20
344.4538422407
 11
207.4065312641
 21
344.3856067928
  0
LINE
  8
0
 62
7
  6
CONTINUOUS
 10
209.6430815706
 20
344.1399592275
 11
210.2643453077
 21
344.0717238187
  0
LINE
  8
0
 62
7
  6
CONTINUOUS
 10
209.467816236
 20
348.268881589
 11
208.9708048198
 21
348.3234699629
  0
LINE
  8
0
 62
7
  6
CONTINUOUS
 10
207.8525296666
 20
348.4462937456
 11
207.231265574
 21
348.5145291934
  0
LINE
  8
0
 62
7
  6
CONTINUOUS
 10
211.254466759
 20
343.9294515155
 11
211.8736326774
 21
343.8442560491
  0
LINE
  8
0
 62
7
  6
CONTINUOUS
 10
212.4304849418
 20
347.8912312972
 11
211.8113190234
 21
347.9764267636
  0
LINE
  8
0
 62
7
  6
CONTINUOUS
 10
211.9853353895
 20
349.2411067722
 11
212.6045013079
 21
349.1559113058
  0
LINE
  8
0
 62
7
  6
CONTINUOUS
 10
212.6915094666
 20
349.788251133
 11
212.0723435482
 21
349.8734465994
  0
LINE
  8
0
 62
7
  6
CONTINUOUS
 10
234.1637165081
 20
338.3390418265
 11
234.7956199208
 21
338.2517557977
  0
LINE
  8
0
 62
7
  6
CONTINUOUS
 10
218.7766244523
 20
342.6816169989
 11
219.5078286229
 21
342.5147623886
  0
LINE
  8
0
 62
7
  6
CONTINUOUS
 10
222.9201142872
 20
341.7361076466
 11
223.6513184578
 21
341.5692530364
  0
LINE
  8
0
 62
7
  6
CONTINUOUS
 10
220.3361070209
 20
343.8970494963
 11
222.773454721
 21
343.3408673559
  0
LINE
  8
0
 62
7
  6
CONTINUOUS
 10
222.7651895548
 20
343.8665177478
 11
220.5715770432
 21
344.3670815787
  0
LINE
  8
0
 62
7
  6
CONTINUOUS
 10
223.0362780168
 20
347.8638319221
 11
222.0613386579
 21
348.0863048419
  0
LINE
  8
0
 62
7
  6
CONTINUOUS
 10
224.6243874435
 20
341.3322790711
 11
225.3446824685
 21
341.1232932416
  0
LINE
  8
0
 62
7
  6
CONTINUOUS
 10
227.0253713182
 20
340.6356595065
 11
227.985763769
 21
340.3570119996
  0
LINE
  8
0
 62
7
  6
CONTINUOUS
 10
229.6664512448
 20
339.8693786632
 11
230.3867462698
 21
339.6603928337
  0
LINE
  8
0
 62
7
  6
CONTINUOUS
 10
232.0586329058
 20
345.4227530339
 11
230.9781903682
 21
345.7362317781
  0
LINE
  8
0
 62
7
  6
CONTINUOUS
 10
227.3767152431
 20
346.7811609256
 11
226.2962740795
 21
347.0946392712
  0
LINE
  8
0
 62
7
  6
CONTINUOUS
 10
202.8044076824
 20
344.87541578
 11
203.2947415953
 21
344.7145755176
  0
LINE
  8
0
 62
7
  6
CONTINUOUS
 10
258.1614174725
 20
327.2176046422
 11
257.6720540773
 21
327.3813737216
  0
LINE
  8
0
 62
7
  6
CONTINUOUS
 10
257.936504814
 20
330.0972108618
 11
258.4258685097
 21
329.9334415887
  0
LINE
  8
0
 62
7
  6
CONTINUOUS
 10
231.3342015898
 20
339.3359597405
 11
234.1637165081
 21
338.3390418265
  0
LINE
  8
0
 62
7
  6
CONTINUOUS
 10
234.5361433968
 20
339.019933553
 11
232.2961125521
 21
339.8091596011
  0
LINE
  8
0
 62
7
  6
CONTINUOUS
 10
232.9324431487
 20
341.6152329908
 11
235.1724739934
 21
340.8260069428
  0
LINE
  8
0
 62
7
  6
CONTINUOUS
 10
235.4270061964
 20
341.5484361975
 11
233.1869753518
 21
342.3376622456
  0
LINE
  8
0
 62
7
  6
CONTINUOUS
 10
233.7808839443
 20
344.0233308439
 11
236.020914789
 21
343.2341047958
  0
LINE
  8
0
 62
7
  6
CONTINUOUS
 10
236.157552336
 20
343.9980716631
 11
233.3280374177
 21
344.9949895771
  0
LINE
  8
0
 62
7
  6
CONTINUOUS
 10
208.9150550244
 20
347.8158841383
 11
209.3981289918
 21
347.6343993082
  0
LINE
  8
0
 62
7
  6
CONTINUOUS
 10
257.3260401847
 20
326.8449983148
 11
257.9204436674
 21
326.613468257
  0
LINE
  8
0
 62
7
  6
CONTINUOUS
 10
258.7718823539
 20
330.4698169203
 11
258.1774785767
 21
330.7013471814
  0
LINE
  8
0
 62
7
  6
CONTINUOUS
 10
209.8266371716
 20
348.101043872
 11
209.467816236
 21
348.268881589
  0
LINE
  8
0
 62
7
  6
CONTINUOUS
 10
247.5784899551
 20
332.5337872249
 11
251.9716961968
 21
330.1463726286
  0
LINE
  8
0
 62
7
  6
CONTINUOUS
 10
252.3374277239
 20
330.8193743058
 11
248.6031997789
 21
332.848678147
  0
LINE
  8
0
 62
7
  6
CONTINUOUS
 10
250.1386106873
 20
337.2447990438
 11
253.9826645776
 21
335.1558121259
  0
LINE
  8
0
 62
7
  6
CONTINUOUS
 10
254.8365931659
 20
335.4182191131
 11
250.4433869242
 21
337.8056337094
  0
LINE
  8
0
 62
7
  6
CONTINUOUS
 10
253.611631758
 20
329.1561577123
 11
254.2559880895
 21
328.7723544839
  0
LINE
  8
0
 62
7
  6
CONTINUOUS
 10
257.3264139166
 20
333.9272051355
 11
256.6820575851
 21
334.3110083639
  0
LINE
  8
0
 62
7
  6
CONTINUOUS
 10
236.7046116773
 20
343.6699758722
 11
236.157552336
 21
343.9980716631
  0
LINE
  8
0
 62
7
  6
CONTINUOUS
 10
256.6957990949
 20
327.2515646302
 11
257.3260401847
 21
326.8449983148
  0
LINE
  8
0
 62
7
  6
CONTINUOUS
 10
257.6720540773
 20
327.3813737216
 11
257.0418129876
 21
327.7879400369
  0
LINE
  8
0
 62
7
  6
CONTINUOUS
 10
256.5808707833
 20
329.1487150493
 11
255.9506295433
 21
329.5552814617
  0
LINE
  8
0
 62
7
  6
CONTINUOUS
 10
256.5734545597
 20
330.5207572088
 11
257.3087358812
 21
330.0464298085
  0
LINE
  8
0
 62
7
  6
CONTINUOUS
 10
258.4258685097
 20
329.9334415887
 11
259.0561095994
 21
329.5268752733
  0
LINE
  8
0
 62
7
  6
CONTINUOUS
 10
259.4021234436
 20
330.0632506049
 11
258.7718823539
 21
330.4698169203
  0
LINE
  8
0
 62
7
  6
CONTINUOUS
 10
258.5519137572
 20
332.4347286715
 11
261.5980791244
 21
330.4696580825
  0
LINE
  8
0
 62
7
  6
CONTINUOUS
 10
261.9440929686
 20
331.0060334141
 11
258.3727267433
 21
333.3099092335
  0
LINE
  8
0
 62
7
  6
CONTINUOUS
 10
235.1724739934
 20
340.8260069428
 11
235.4837413244
 21
340.5809873277
  0
LINE
  8
0
 62
7
  6
CONTINUOUS
 10
236.020914789
 20
343.2341047958
 11
236.3321821199
 21
342.9890851808
  0
LINE
  8
0
 62
7
  6
CONTINUOUS
 10
256.2398008615
 20
327.6976450334
 11
256.6957990949
 21
327.2515646302
  0
LINE
  8
0
 62
7
  6
CONTINUOUS
 10
259.8581213826
 20
329.617170405
 11
259.4021234436
 21
330.0632506049
  0
LINE
  8
0
 62
7
  6
CONTINUOUS
 10
257.0418129876
 20
327.7879400369
 11
256.6908548296
 21
328.1662594427
  0
LINE
  8
0
 62
7
  6
CONTINUOUS
 10
259.0561095994
 20
329.5268752733
 11
259.4070674569
 21
329.1485560614
  0
LINE
  8
0
 62
7
  6
CONTINUOUS
 10
327.4543962622
 20
223.6682817067
 11
330.1725093335
 21
249.5294000951
  0
LINE
  8
0
 62
7
  6
CONTINUOUS
 10
312.3472378896
 20
171.1226839102
 11
325.3490222188
 21
193.6424349573
  0
LINE
  8
0
 62
7
  6
CONTINUOUS
 10
277.1739419243
 20
129.2645266068
 11
298.2112708832
 21
144.5490407711
  0
LINE
  8
0
 62
7
  6
CONTINUOUS
 10
191.800584977
 20
364.339516364
 11
165.7970163187
 21
364.339516364
  0
LINE
  8
0
 62
7
  6
CONTINUOUS
 10
245.6374605399
 20
354.8076271748
 11
221.8820185097
 21
365.3842313989
  0
LINE
  8
0
 62
7
  6
CONTINUOUS
 10
290.9429250532
 20
324.2023830632
 11
273.5431413894
 21
343.5268005555
  0
LINE
  8
0
 62
7
  6
CONTINUOUS
 10
319.8832521151
 20
277.8157087758
 11
311.8477074853
 21
302.5465721952
  0
LINE
  8
0
 62
7
  6
CONTINUOUS
 10
458.9393072289
 20
77.0504232103
 11
467.9393072289
 21
77.0504232103
  0
LINE
  8
0
 62
7
  6
CONTINUOUS
 10
484.3393072289
 20
77.0504232103
 11
493.3393072289
 21
77.0504232103
  0
LINE
  8
0
 62
9
  6
CONTINUOUS
 10
493.3393072289
 20
77.8425115195
 11
484.3393072289
 21
77.8425115195
  0
LINE
  8
0
 62
9
  6
CONTINUOUS
 10
467.9393072289
 20
77.8425115195
 11
458.9393072289
 21
77.8425115195
  0
LINE
  8
0
 62
7
  6
CONTINUOUS
 10
458.9393072289
 20
83.2030111668
 11
467.9393072289
 21
83.2030111668
  0
LINE
  8
0
 62
7
  6
CONTINUOUS
 10
484.3393072289
 20
83.2030111668
 11
493.3393072289
 21
83.2030111668
  0
LINE
  8
0
 62
9
  6
CONTINUOUS
 10
493.3393072289
 20
84.4109228576
 11
484.3393072289
 21
84.4109228576
  0
LINE
  8
0
 62
9
  6
CONTINUOUS
 10
467.9393072289
 20
84.4109228576
 11
458.9393072289
 21
84.4109228576
  0
LINE
  8
0
 62
9
  6
CONTINUOUS
 10
493.3393072289
 20
91.9148170756
 11
484.3393072289
 21
91.9148170756
  0
LINE
  8
0
 62
9
  6
CONTINUOUS
 10
467.9393072289
 20
91.9148170756
 11
458.9393072289
 21
91.9148170756
  0
LINE
  8
0
 62
7
  6
CONTINUOUS
 10
484.3393072289
 20
106.9322788826
 11
467.9393072289
 21
106.9322788826
  0
LINE
  8
0
 62
7
  6
CONTINUOUS
 10
453.1393072289
 20
106.9322788826
 11
458.9393072289
 21
106.9322788826
  0
LINE
  8
0
 62
7
  6
CONTINUOUS
 10
493.3393072289
 20
106.9322788826
 11
499.1393072289
 21
106.9322788826
  0
LINE
  8
0
 62
9
  6
CONTINUOUS
 10
493.3393072289
 20
108.6941403813
 11
484.3393072289
 21
108.6941403813
  0
LINE
  8
0
 62
9
  6
CONTINUOUS
 10
467.9393072289
 20
108.6941403813
 11
458.9393072289
 21
108.6941403813
  0
LINE
  8
0
 62
7
  6
CONTINUOUS
 10
458.9393072289
 20
114.2298506832
 11
467.9393072289
 21
114.2298506832
  0
LINE
  8
0
 62
7
  6
CONTINUOUS
 10
484.3393072289
 20
114.2298506832
 11
493.3393072289
 21
114.2298506832
  0
LINE
  8
0
 62
9
  6
CONTINUOUS
 10
493.3393072289
 20
115.1332834273
 11
484.3393072289
 21
115.1332834273
  0
LINE
  8
0
 62
9
  6
CONTINUOUS
 10
467.9393072289
 20
115.1332834273
 11
458.9393072289
 21
115.1332834273
  0
LINE
  8
0
 62
9
  6
CONTINUOUS
 10
493.3393072289
 20
116.6600259266
 11
484.3393072289
 21
116.6600259266
  0
LINE
  8
0
 62
9
  6
CONTINUOUS
 10
467.9393072289
 20
116.6600259266
 11
458.9393072289
 21
116.6600259266
  0
LINE
  8
0
 62
9
  6
CONTINUOUS
 10
493.3393072289
 20
122.8664286636
 11
484.3393072289
 21
122.8664286636
  0
LINE
  8
0
 62
9
  6
CONTINUOUS
 10
467.9393072289
 20
122.8664286636
 11
458.9393072289
 21
122.8664286636
  0
LINE
  8
0
 62
9
  6
CONTINUOUS
 10
493.3393072289
 20
140.8148853264
 11
484.3393072289
 21
140.8148853264
  0
LINE
  8
0
 62
9
  6
CONTINUOUS
 10
467.9393072289
 20
140.8148853264
 11
458.9393072289
 21
140.8148853264
  0
LINE
  8
0
 62
7
  6
CONTINUOUS
 10
458.9393072289
 20
163.2539480165
 11
467.9393072289
 21
163.2539480165
  0
LINE
  8
0
 62
7
  6
CONTINUOUS
 10
484.3393072289
 20
163.2539480165
 11
493.3393072289
 21
163.2539480165
  0
LINE
  8
0
 62
9
  6
CONTINUOUS
 10
493.3393072289
 20
167.4297834725
 11
484.3393072289
 21
167.4297834725
  0
LINE
  8
0
 62
9
  6
CONTINUOUS
 10
467.9393072289
 20
167.4297834725
 11
458.9393072289
 21
167.4297834725
  0
LINE
  8
0
 62
9
  6
CONTINUOUS
 10
493.3393072289
 20
169.013657832
 11
484.3393072289
 21
169.013657832
  0
LINE
  8
0
 62
9
  6
CONTINUOUS
 10
467.9393072289
 20
169.013657832
 11
458.9393072289
 21
169.013657832
  0
LINE
  8
0
 62
9
  6
CONTINUOUS
 10
493.3393072289
 20
172.8494256713
 11
484.3393072289
 21
172.8494256713
  0
LINE
  8
0
 62
9
  6
CONTINUOUS
 10
467.9393072289
 20
172.8494256713
 11
458.9393072289
 21
172.8494256713
  0
LINE
  8
0
 62
9
  6
CONTINUOUS
 10
493.3393072289
 20
188.8635644776
 11
484.3393072289
 21
188.8635644776
  0
LINE
  8
0
 62
9
  6
CONTINUOUS
 10
467.9393072289
 20
188.8635644776
 11
458.9393072289
 21
188.8635644776
  0
LINE
  8
0
 62
7
  6
CONTINUOUS
 10
451.1393072289
 20
356.9322788826
 11
451.1393072289
 21
108.9322788826
  0
LINE
  8
0
 62
9
  6
CONTINUOUS
 10
453.1393072289
 20
358.9322788826
 11
453.1393072289
 21
106.9322788826
  0
LINE
  8
0
 62
7
  6
CONTINUOUS
 10
458.9393072289
 20
77.0504323148
 11
458.9393072289
 21
389.129251679
  0
LINE
  8
0
 62
9
  6
CONTINUOUS
 10
458.9393072289
 20
214.724682866
 11
467.9393072289
 21
214.724682866
  0
LINE
  8
0
 62
9
  6
CONTINUOUS
 10
484.3393072289
 20
214.724682866
 11
493.3393072289
 21
214.724682866
  0
LINE
  8
0
 62
9
  6
CONTINUOUS
 10
458.9393072289
 20
216.446591072
 11
467.9393072289
 21
216.446591072
  0
LINE
  8
0
 62
9
  6
CONTINUOUS
 10
484.3393072289
 20
216.446591072
 11
493.3393072289
 21
216.446591072
  0
LINE
  8
0
 62
7
  6
CONTINUOUS
 10
458.9393072289
 20
221.7670073105
 11
467.9393072289
 21
221.7670073105
  0
LINE
  8
0
 62
7
  6
CONTINUOUS
 10
484.3393072289
 20
221.7670073105
 11
493.3393072289
 21
221.7670073105
  0
LINE
  8
0
 62
7
  6
CONTINUOUS
 10
467.9393072289
 20
77.0504234095
 11
467.9393072289
 21
389.1292641031
  0
LINE
  8
0
 62
9
  6
CONTINUOUS
 10
493.3393072289
 20
231.0522600456
 11
484.3393072289
 21
231.0522600456
  0
LINE
  8
0
 62
9
  6
CONTINUOUS
 10
467.9393072289
 20
231.0522600456
 11
458.9393072289
 21
231.0522600456
  0
LINE
  8
0
 62
9
  6
CONTINUOUS
 10
493.3393072289
 20
232.4193999994
 11
484.3393072289
 21
232.4193999994
  0
LINE
  8
0
 62
9
  6
CONTINUOUS
 10
467.9393072289
 20
232.4193999994
 11
458.9393072289
 21
232.4193999994
  0
LINE
  8
DEFAULT_1
 62
2
  6
CENTER
 10
446.1393072289
 20
232.9322788826
 11
506.1393072289
 21
232.9322788826
  0
LINE
  8
0
 62
9
  6
CONTINUOUS
 10
493.3393072289
 20
233.2212938348
 11
484.3393072289
 21
233.2212938348
  0
LINE
  8
0
 62
9
  6
CONTINUOUS
 10
467.9393072289
 20
233.2212938348
 11
458.9393072289
 21
233.2212938348
  0
LINE
  8
0
 62
7
  6
CONTINUOUS
 10
484.3393072289
 20
77.0504234095
 11
484.3393072289
 21
389.1292641031
  0
LINE
  8
0
 62
9
  6
CONTINUOUS
 10
493.3393072289
 20
244.5321247012
 11
484.3393072289
 21
244.5321247012
  0
LINE
  8
0
 62
9
  6
CONTINUOUS
 10
467.9393072289
 20
244.5321247012
 11
458.9393072289
 21
244.5321247012
  0
LINE
  8
0
 62
7
  6
CONTINUOUS
 10
493.3393072289
 20
77.0504323148
 11
493.3393072289
 21
389.129251679
  0
LINE
  8
0
 62
9
  6
CONTINUOUS
 10
499.1393072289
 20
358.9322788826
 11
499.1393072289
 21
106.9322788826
  0
LINE
  8
0
 62
7
  6
CONTINUOUS
 10
501.1393072289
 20
356.9322788826
 11
501.1393072289
 21
108.9322788826
  0
LINE
  8
0
 62
9
  6
CONTINUOUS
 10
458.9393072289
 20
269.2629881206
 11
467.9393072289
 21
269.2629881206
  0
LINE
  8
0
 62
9
  6
CONTINUOUS
 10
484.3393072289
 20
269.2629881206
 11
493.3393072289
 21
269.2629881206
  0
LINE
  8
0
 62
9
  6
CONTINUOUS
 10
458.9393072289
 20
270.5590889077
 11
467.9393072289
 21
270.5590889077
  0
LINE
  8
0
 62
9
  6
CONTINUOUS
 10
484.3393072289
 20
270.5590889077
 11
493.3393072289
 21
270.5590889077
  0
LINE
  8
0
 62
9
  6
CONTINUOUS
 10
458.9393072289
 20
276.682905446
 11
467.9393072289
 21
276.682905446
  0
LINE
  8
0
 62
9
  6
CONTINUOUS
 10
484.3393072289
 20
276.682905446
 11
493.3393072289
 21
276.682905446
  0
LINE
  8
0
 62
9
  6
CONTINUOUS
 10
493.3393072289
 20
280.7292679913
 11
484.3393072289
 21
280.7292679913
  0
LINE
  8
0
 62
9
  6
CONTINUOUS
 10
467.9393072289
 20
280.7292679913
 11
458.9393072289
 21
280.7292679913
  0
LINE
  8
0
 62
9
  6
CONTINUOUS
 10
493.3393072289
 20
294.999808955
 11
484.3393072289
 21
294.999808955
  0
LINE
  8
0
 62
9
  6
CONTINUOUS
 10
467.9393072289
 20
294.999808955
 11
458.9393072289
 21
294.999808955
  0
LINE
  8
0
 62
7
  6
CONTINUOUS
 10
458.9393072289
 20
295.9627670688
 11
467.9393072289
 21
295.9627670688
  0
LINE
  8
0
 62
7
  6
CONTINUOUS
 10
484.3393072289
 20
295.9627670688
 11
493.3393072289
 21
295.9627670688
  0
LINE
  8
0
 62
9
  6
CONTINUOUS
 10
493.3393072289
 20
298.1949662014
 11
484.3393072289
 21
298.1949662014
  0
LINE
  8
0
 62
9
  6
CONTINUOUS
 10
467.9393072289
 20
298.1949662014
 11
458.9393072289
 21
298.1949662014
  0
LINE
  8
0
 62
9
  6
CONTINUOUS
 10
458.9393072289
 20
317.5193836937
 11
467.9393072289
 21
317.5193836937
  0
LINE
  8
0
 62
9
  6
CONTINUOUS
 10
484.3393072289
 20
317.5193836937
 11
493.3393072289
 21
317.5193836937
  0
LINE
  8
0
 62
7
  6
CONTINUOUS
 10
458.9393072289
 20
318.181122481
 11
467.9393072289
 21
318.181122481
  0
LINE
  8
0
 62
7
  6
CONTINUOUS
 10
484.3393072289
 20
318.181122481
 11
493.3393072289
 21
318.181122481
  0
LINE
  8
0
 62
9
  6
CONTINUOUS
 10
458.9393072289
 20
323.6479355081
 11
467.9393072289
 21
323.6479355081
  0
LINE
  8
0
 62
9
  6
CONTINUOUS
 10
484.3393072289
 20
323.6479355081
 11
493.3393072289
 21
323.6479355081
  0
LINE
  8
0
 62
9
  6
CONTINUOUS
 10
493.3393072289
 20
331.417979273
 11
484.3393072289
 21
331.417979273
  0
LINE
  8
0
 62
9
  6
CONTINUOUS
 10
467.9393072289
 20
331.417979273
 11
458.9393072289
 21
331.417979273
  0
LINE
  8
0
 62
9
  6
CONTINUOUS
 10
493.3393072289
 20
348.2153180491
 11
484.3393072289
 21
348.2153180491
  0
LINE
  8
0
 62
9
  6
CONTINUOUS
 10
467.9393072289
 20
348.2153180491
 11
458.9393072289
 21
348.2153180491
  0
LINE
  8
0
 62
7
  6
CONTINUOUS
 10
458.9393072289
 20
348.7750210969
 11
467.9393072289
 21
348.7750210969
  0
LINE
  8
0
 62
7
  6
CONTINUOUS
 10
484.3393072289
 20
348.7750210969
 11
493.3393072289
 21
348.7750210969
  0
LINE
  8
0
 62
9
  6
CONTINUOUS
 10
458.9393072289
 20
351.1499003953
 11
467.9393072289
 21
351.1499003953
  0
LINE
  8
0
 62
9
  6
CONTINUOUS
 10
484.3393072289
 20
351.1499003953
 11
493.3393072289
 21
351.1499003953
  0
LINE
  8
0
 62
7
  6
CONTINUOUS
 10
458.9393072289
 20
351.32280948
 11
467.9393072289
 21
351.32280948
  0
LINE
  8
0
 62
7
  6
CONTINUOUS
 10
484.3393072289
 20
351.32280948
 11
493.3393072289
 21
351.32280948
  0
LINE
  8
0
 62
9
  6
CONTINUOUS
 10
458.9393072289
 20
354.9274044139
 11
467.9393072289
 21
354.9274044139
  0
LINE
  8
0
 62
9
  6
CONTINUOUS
 10
484.3393072289
 20
354.9274044139
 11
493.3393072289
 21
354.9274044139
  0
LINE
  8
0
 62
7
  6
CONTINUOUS
 10
484.3393072289
 20
358.9322788826
 11
467.9393072289
 21
358.9322788826
  0
LINE
  8
0
 62
7
  6
CONTINUOUS
 10
453.1393072289
 20
358.9322788826
 11
458.9393072289
 21
358.9322788826
  0
LINE
  8
0
 62
7
  6
CONTINUOUS
 10
493.3393072289
 20
358.9322788826
 11
499.1393072289
 21
358.9322788826
  0
LINE
  8
0
 62
9
  6
CONTINUOUS
 10
493.3393072289
 20
365.0776182427
 11
484.3393072289
 21
365.0776182427
  0
LINE
  8
0
 62
9
  6
CONTINUOUS
 10
467.9393072289
 20
365.0776182427
 11
458.9393072289
 21
365.0776182427
  0
LINE
  8
0
 62
9
  6
CONTINUOUS
 10
493.3393072289
 20
381.4973423578
 11
484.3393072289
 21
381.4973423578
  0
LINE
  8
0
 62
9
  6
CONTINUOUS
 10
467.9393072289
 20
381.4973423578
 11
458.9393072289
 21
381.4973423578
  0
LINE
  8
0
 62
7
  6
CONTINUOUS
 10
458.9393072289
 20
381.7299216825
 11
467.9393072289
 21
381.7299216825
  0
LINE
  8
0
 62
7
  6
CONTINUOUS
 10
484.3393072289
 20
381.7299216825
 11
493.3393072289
 21
381.7299216825
  0
LINE
  8
0
 62
9
  6
CONTINUOUS
 10
493.3393072289
 20
389.0911175203
 11
484.3393072289
 21
389.0911175203
  0
LINE
  8
0
 62
9
  6
CONTINUOUS
 10
467.9393072289
 20
389.0911175203
 11
458.9393072289
 21
389.0911175203
  0
LINE
  8
0
 62
7
  6
CONTINUOUS
 10
458.9393072289
 20
389.1292671286
 11
467.9393072289
 21
389.1292671286
  0
LINE
  8
0
 62
7
  6
CONTINUOUS
 10
484.3393072289
 20
389.1292671286
 11
493.3393072289
 21
389.1292671286
  0
ARC
  8
0
 62
7
  6
CONTINUOUS
 10
134.0343417483
 20
95.3453599741
 40
16.5
 50
348.0
 51
54.0
  0
ARC
  8
0
 62
7
  6
CONTINUOUS
 10
83.4555912562
 20
132.5648853264
 40
16.5
 50
324.0
 51
30.0
  0
ARC
  8
0
 62
7
  6
CONTINUOUS
 10
52.3881482897
 20
187.1388448337
 40
16.5
 50
300.0
 51
6.0
  0
ARC
  8
0
 62
7
  6
CONTINUOUS
 10
148.6237977199
 20
97.9714271095
 40
14.8
 50
273.8771706091
 51
344.0
  0
ARC
  8
0
 62
7
  6
CONTINUOUS
 10
97.8518402197
 20
129.0298506832
 40
14.8
 50
249.8771706091
 51
320.0
  0
ARC
  8
0
 62
7
  6
CONTINUOUS
 10
64.1019480135
 20
178.0539480165
 40
14.8
 50
225.8771706091
 51
296.0
  0
ARC
  8
0
 62
7
  6
CONTINUOUS
 10
170.2435925598
 20
186.8608109604
 40
6.0
 50
45.0
 51
78.1598440864
  0
ARC
  8
0
 62
7
  6
CONTINUOUS
 10
172.7057770832
 20
198.605496881
 40
6.0
 50
225.0
 51
258.1598440864
  0
ARC
  8
0
 62
7
  6
CONTINUOUS
 10
161.9702343172
 20
209.3410396471
 40
6.0
 50
191.8401559136
 51
225.0
  0
ARC
  8
0
 62
7
  6
CONTINUOUS
 10
150.2255483966
 20
206.8788551237
 40
6.0
 50
11.8401559136
 51
45.0
  0
ARC
  8
0
 62
7
  6
CONTINUOUS
 10
137.689773422
 20
232.9322788826
 40
6.0
 50
85.4216527464
 51
274.5783472535
  0
ARC
  8
0
 62
7
  6
CONTINUOUS
 10
168.9519045987
 20
103.379367877
 40
3.25
 50
22.849904579
 51
164.0
  0
ARC
  8
0
 62
7
  6
CONTINUOUS
 10
118.6220975951
 20
125.7020644546
 40
3.25
 50
358.8499045789
 51
140.0
  0
ARC
  8
0
 62
7
  6
CONTINUOUS
 10
81.7229896933
 20
166.5658392627
 40
3.25
 50
334.8499045791
 51
116.0
  0
ARC
  8
0
 62
7
  6
CONTINUOUS
 10
64.6347718674
 20
218.9049744012
 40
3.25
 50
310.849904579
 51
92.0
  0
ARC
  8
0
 62
7
  6
CONTINUOUS
 10
173.7899122987
 20
105.4180393796
 40
2.0
 50
202.849904579
 51
258.0
  0
ARC
  8
0
 62
7
  6
CONTINUOUS
 10
123.8710399567
 20
125.5966885344
 40
2.0
 50
178.8499045792
 51
234.0
  0
ARC
  8
0
 62
7
  6
CONTINUOUS
 10
86.4752768971
 20
164.3346363735
 40
2.0
 50
154.849904579
 51
210.0
  0
ARC
  8
0
 62
7
  6
CONTINUOUS
 10
68.0686902827
 20
214.9337397925
 40
2.0
 50
130.849904579
 51
186.0
  0
ARC
  8
0
 62
7
  6
CONTINUOUS
 10
149.556922807
 20
84.2030111668
 40
1.0
 50
168.0
 51
273.8771706091
  0
ARC
  8
0
 62
7
  6
CONTINUOUS
 10
93.1041731235
 20
116.0722406743
 40
1.0
 50
144.0
 51
249.8771706091
  0
ARC
  8
0
 62
7
  6
CONTINUOUS
 10
54.4944035059
 20
168.1476324282
 40
1.0
 50
120.0
 51
225.8771706091
  0
ARC
  8
0
 62
7
  6
CONTINUOUS
 10
40.40359388
 20
231.424878104
 40
1.0
 50
96.0
 51
201.8771706091
  0
ARC
  8
0
 62
7
  6
CONTINUOUS
 10
189.3748290878
 20
174.8793491162
 40
0.9443458372
 50
355.4216527464
 51
45.0
  0
ARC
  8
0
 62
7
  6
CONTINUOUS
 10
138.2440865523
 20
226.0100916516
 40
0.9443458372
 50
45.0
 51
94.5783472535
  0
ARC
  8
0
 62
7
  6
CONTINUOUS
 10
165.7970163187
 20
380.839516364
 40
16.5
 50
204.0
 51
270.0
  0
ARC
  8
0
 62
7
  6
CONTINUOUS
 10
46.2038559764
 20
249.6309051084
 40
16.5
 50
276.0
 51
342.0
  0
ARC
  8
0
 62
7
  6
CONTINUOUS
 10
65.9720346398
 20
309.2356212063
 40
16.5
 50
252.0
 51
318.0
  0
ARC
  8
0
 62
7
  6
CONTINUOUS
 10
108.2745866008
 20
355.6467962224
 40
16.5
 50
228.0
 51
294.0
  0
ARC
  8
0
 62
7
  6
CONTINUOUS
 10
155.5374620327
 20
370.139516364
 40
14.8
 50
129.8771706091
 51
200.0
  0
ARC
  8
0
 62
7
  6
CONTINUOUS
 10
53.2097840716
 20
236.5670073105
 40
14.8
 50
201.8771706091
 51
272.0
  0
ARC
  8
0
 62
7
  6
CONTINUOUS
 10
67.058702492
 20
294.4515890389
 40
14.8
 50
177.8771706091
 51
248.0
  0
ARC
  8
0
 62
7
  6
CONTINUOUS
 10
103.2540994663
 20
341.6989231558
 40
14.8
 50
153.8771706091
 51
224.0
  0
ARC
  8
0
 62
7
  6
CONTINUOUS
 10
150.2255483966
 20
258.9857026414
 40
6.0
 50
315.0
 51
348.1598440864
  0
ARC
  8
0
 62
7
  6
CONTINUOUS
 10
161.9702343172
 20
256.523518118
 40
6.0
 50
135.0
 51
168.1598440864
  0
ARC
  8
0
 62
7
  6
CONTINUOUS
 10
172.7057770832
 20
267.2590608841
 40
6.0
 50
101.8401559136
 51
135.0
  0
ARC
  8
0
 62
7
  6
CONTINUOUS
 10
170.2435925598
 20
279.0037468047
 40
6.0
 50
281.8401559136
 51
315.0
  0
ARC
  8
0
 62
7
  6
CONTINUOUS
 10
142.2703859327
 20
353.815838948
 40
3.25
 50
238.849904579
 51
20.0
  0
ARC
  8
0
 62
7
  6
CONTINUOUS
 10
70.312152221
 20
273.6695579186
 40
3.25
 50
286.849904579
 51
68.0
  0
ARC
  8
0
 62
7
  6
CONTINUOUS
 10
97.7734601137
 20
321.3902958041
 40
3.25
 50
262.849904579
 51
44.0
  0
ARC
  8
0
 62
7
  6
CONTINUOUS
 10
139.554656528
 20
349.32280948
 40
2.0
 50
58.849904579
 51
114.0
  0
ARC
  8
0
 62
7
  6
CONTINUOUS
 10
191.800584977
 20
362.339516364
 40
2.0
 50
34.8499045791
 51
90.0
  0
ARC
  8
0
 62
7
  6
CONTINUOUS
 10
71.8339461576
 20
268.6449541318
 40
2.0
 50
106.8499045791
 51
162.0
  0
ARC
  8
0
 62
7
  6
CONTINUOUS
 10
97.1199975749
 20
316.181122481
 40
2.0
 50
82.849904579
 51
138.0
  0
ARC
  8
0
 62
7
  6
CONTINUOUS
 10
146.6896761408
 20
380.7299216825
 40
1.0
 50
24.0
 51
129.8771706091
  0
ARC
  8
0
 62
7
  6
CONTINUOUS
 10
53.2681732411
 20
294.9627670688
 40
1.0
 50
72.0
 51
177.8771706091
  0
ARC
  8
0
 62
7
  6
CONTINUOUS
 10
90.8637389465
 20
347.7750210969
 40
1.0
 50
48.0
 51
153.8771706091
  0
ARC
  8
0
 62
7
  6
CONTINUOUS
 10
138.2440865523
 20
239.8544661135
 40
0.9443458372
 50
265.4216527464
 51
315.0
  0
ARC
  8
0
 62
7
  6
CONTINUOUS
 10
189.3748290878
 20
290.9852086489
 40
0.9443458372
 50
315.0
 51
4.5783472536
  0
CIRCLE
  8
0
 62
7
  6
CONTINUOUS
 10
196.2970163187
 20
232.9322788826
 40
126.0
  0
CIRCLE
  8
0
 62
9
  6
CONTINUOUS
 10
196.2970163187
 20
232.9322788826
 40
124.0
  0
ARC
  8
0
 62
7
  6
CONTINUOUS
 10
339.6384413812
 20
185.3924349573
 40
16.5
 50
84.0
 51
150.0
  0
ARC
  8
0
 62
7
  6
CONTINUOUS
 10
307.9097275461
 20
131.200260364
 40
16.5
 50
60.0
 51
126.0
  0
ARC
  8
0
 62
7
  6
CONTINUOUS
 10
256.88216197
 20
94.5984759789
 40
16.5
 50
36.0
 51
102.0
  0
ARC
  8
0
 62
7
  6
CONTINUOUS
 10
195.3788743122
 20
81.915862839
 40
16.5
 50
12.0
 51
78.0
  0
ARC
  8
0
 62
7
  6
CONTINUOUS
 10
335.5017467037
 20
199.6274696005
 40
14.8
 50
9.8771706091
 51
80.0
  0
ARC
  8
0
 62
7
  6
CONTINUOUS
 10
309.9205791186
 20
145.8871569082
 40
14.8
 50
345.8771706091
 51
56.0
  0
ARC
  8
0
 62
7
  6
CONTINUOUS
 10
264.6928652878
 20
107.1977365854
 40
14.8
 50
321.8771706091
 51
32.0
  0
ARC
  8
0
 62
7
  6
CONTINUOUS
 10
207.6388878134
 20
90.2489608882
 40
14.8
 50
297.8771706091
 51
8.0
  0
ARC
  8
0
 62
7
  6
CONTINUOUS
 10
254.9042592154
 20
232.9322788826
 40
6.0
 50
265.4216527464
 51
94.5783472536
  0
ARC
  8
0
 62
7
  6
CONTINUOUS
 10
242.3684842409
 20
206.8788551237
 40
6.0
 50
135.0
 51
168.1598440864
  0
ARC
  8
0
 62
7
  6
CONTINUOUS
 10
230.6237983203
 20
209.3410396471
 40
6.0
 50
315.0
 51
348.1598440864
  0
ARC
  8
0
 62
7
  6
CONTINUOUS
 10
219.8882555542
 20
198.605496881
 40
6.0
 50
281.8401559136
 51
315.0
  0
ARC
  8
0
 62
7
  6
CONTINUOUS
 10
222.3504400776
 20
186.8608109604
 40
6.0
 50
101.8401559136
 51
135.0
  0
ARC
  8
0
 62
7
  6
CONTINUOUS
 10
196.2970163187
 20
174.3250359859
 40
6.0
 50
175.4216527464
 51
4.5783472536
  0
ARC
  8
0
 62
7
  6
CONTINUOUS
 10
327.9985654284
 20
219.278933245
 40
3.25
 50
118.8499045791
 51
260.0
  0
ARC
  8
0
 62
7
  6
CONTINUOUS
 10
311.059052301
 20
166.891481021
 40
3.25
 50
94.849904579
 51
236.0
  0
ARC
  8
0
 62
7
  6
CONTINUOUS
 10
274.2761405719
 20
125.9230827091
 40
3.25
 50
70.849904579
 51
212.0
  0
ARC
  8
0
 62
7
  6
CONTINUOUS
 10
224.0099298413
 20
103.4575465636
 40
3.25
 50
46.8499045791
 51
188.0
  0
ARC
  8
0
 62
7
  6
CONTINUOUS
 10
325.4653524714
 20
223.8773386333
 40
2.0
 50
298.8499045789
 51
354.0
  0
ARC
  8
0
 62
7
  6
CONTINUOUS
 10
310.6151870821
 20
172.1226839102
 40
2.0
 50
274.849904579
 51
330.0
  0
ARC
  8
0
 62
7
  6
CONTINUOUS
 10
275.9983714197
 20
130.8825605956
 40
2.0
 50
250.849904579
 51
306.0
  0
ARC
  8
0
 62
7
  6
CONTINUOUS
 10
227.6004673963
 20
107.2877606654
 40
2.0
 50
226.8499045789
 51
282.0
  0
ARC
  8
0
 62
7
  6
CONTINUOUS
 10
349.0971996919
 20
201.9946742908
 40
1.0
 50
264.0
 51
9.8771706091
  0
ARC
  8
0
 62
7
  6
CONTINUOUS
 10
323.3034723298
 20
142.5199370909
 40
1.0
 50
240.0
 51
345.8771706091
  0
ARC
  8
0
 62
7
  6
CONTINUOUS
 10
275.549174906
 20
98.678315157
 40
1.0
 50
216.0
 51
321.8771706091
  0
ARC
  8
0
 62
7
  6
CONTINUOUS
 10
214.0914592791
 20
78.0504232103
 40
1.0
 50
192.0
 51
297.8771706091
  0
ARC
  8
0
 62
7
  6
CONTINUOUS
 10
254.3499460851
 20
226.0100916516
 40
0.9443458372
 50
85.4216527464
 51
135.0
  0
ARC
  8
0
 62
7
  6
CONTINUOUS
 10
203.2192035497
 20
174.8793491162
 40
0.9443458372
 50
135.0
 51
184.5783472536
  0
ARC
  8
0
 62
7
  6
CONTINUOUS
 10
228.5931731204
 20
380.45773145
 40
16.5
 50
180.0
 51
246.0
  0
ARC
  8
0
 62
7
  6
CONTINUOUS
 10
285.8050310097
 20
354.5674555604
 40
16.5
 50
156.0
 51
222.0
  0
ARC
  8
0
 62
7
  6
CONTINUOUS
 10
327.5401400042
 20
307.6453526024
 40
16.5
 50
132.0
 51
198.0
  0
ARC
  8
0
 62
7
  6
CONTINUOUS
 10
346.5821206071
 20
247.8046804512
 40
16.5
 50
108.0
 51
174.0
  0
ARC
  8
0
 62
7
  6
CONTINUOUS
 10
214.8685218241
 20
374.8557317229
 40
14.8
 50
105.8771706091
 51
176.0
  0
ARC
  8
0
 62
7
  6
CONTINUOUS
 10
270.9883995968
 20
355.0320927517
 40
14.8
 50
81.8771706091
 51
152.0
  0
ARC
  8
0
 62
7
  6
CONTINUOUS
 10
314.1934586508
 20
314.0962867206
 40
14.8
 50
57.8771706091
 51
128.0
  0
ARC
  8
0
 62
7
  6
CONTINUOUS
 10
337.01315177
 20
259.1264863823
 40
14.8
 50
33.8771706091
 51
104.0
  0
ARC
  8
0
 62
7
  6
CONTINUOUS
 10
222.3504400776
 20
279.0037468047
 40
6.0
 50
225.0
 51
258.1598440864
  0
ARC
  8
0
 62
7
  6
CONTINUOUS
 10
219.8882555542
 20
267.2590608841
 40
6.0
 50
45.0
 51
78.1598440864
  0
ARC
  8
0
 62
7
  6
CONTINUOUS
 10
230.6237983203
 20
256.523518118
 40
6.0
 50
11.8401559136
 51
45.0
  0
ARC
  8
0
 62
7
  6
CONTINUOUS
 10
242.3684842409
 20
258.9857026414
 40
6.0
 50
191.8401559136
 51
225.0
  0
ARC
  8
0
 62
7
  6
CONTINUOUS
 10
196.2970163187
 20
291.5395217792
 40
6.0
 50
355.4216527464
 51
184.5783472536
  0
CIRCLE
  8
0
 62
7
  6
CONTINUOUS
 10
196.2970163187
 20
352.4322788826
 40
4.0
  0
ARC
  8
0
 62
7
  6
CONTINUOUS
 10
196.1090069619
 20
365.339516364
 40
3.25
 50
214.849904579
 51
356.0
  0
ARC
  8
0
 62
7
  6
CONTINUOUS
 10
249.9801365169
 20
353.9687795374
 40
3.25
 50
190.849904579
 51
332.0
  0
ARC
  8
0
 62
7
  6
CONTINUOUS
 10
294.5689668939
 20
321.6697321655
 40
3.25
 50
166.849904579
 51
308.0
  0
ARC
  8
0
 62
7
  6
CONTINUOUS
 10
322.1656842437
 20
274.0271729665
 40
3.25
 50
142.849904579
 51
284.0
  0
ARC
  8
0
 62
7
  6
CONTINUOUS
 10
244.8239872538
 20
352.9805362595
 40
2.0
 50
10.849904579
 51
66.0
  0
ARC
  8
0
 62
7
  6
CONTINUOUS
 10
289.4566354022
 20
322.8641218504
 40
2.0
 50
346.849904579
 51
42.0
  0
ARC
  8
0
 62
7
  6
CONTINUOUS
 10
317.9811390825
 20
277.197674787
 40
2.0
 50
322.849904579
 51
18.0
  0
ARC
  8
0
 62
7
  6
CONTINUOUS
 10
211.0931731204
 20
388.1292671286
 40
1.0
 50
0.0
 51
105.8771706091
  0
ARC
  8
0
 62
7
  6
CONTINUOUS
 10
272.9382801702
 20
368.6936433866
 40
1.0
 50
336.0
 51
81.8771706091
  0
ARC
  8
0
 62
7
  6
CONTINUOUS
 10
321.531416436
 20
325.7836463686
 40
1.0
 50
312.0
 51
57.8771706091
  0
ARC
  8
0
 62
7
  6
CONTINUOUS
 10
348.4703872027
 20
266.818804384
 40
1.0
 50
288.0
 51
33.8771706091
  0
ARC
  8
0
 62
7
  6
CONTINUOUS
 10
203.2192035497
 20
290.9852086489
 40
0.9443458372
 50
175.4216527464
 51
225.0
  0
ARC
  8
0
 62
7
  6
CONTINUOUS
 10
254.3499460851
 20
239.8544661135
 40
0.9443458372
 50
225.0
 51
274.5783472536
  0
ARC
  8
0
 62
7
  6
CONTINUOUS
 10
453.1393072289
 20
108.9322788826
 40
2.0
 50
180.0
 51
270.0
  0
ARC
  8
0
 62
7
  6
CONTINUOUS
 10
453.1393072289
 20
356.9322788826
 40
2.0
 50
90.0
 51
180.0
  0
ARC
  8
0
 62
7
  6
CONTINUOUS
 10
499.1393072289
 20
108.9322788826
 40
2.0
 50
270.0
 51
360.0
  0
ARC
  8
0
 62
7
  6
CONTINUOUS
 10
499.1393072289
 20
356.9322788826
 40
2.0
 50
0.0
 51
90.0
  0
ENDSEC
  0
EOF
