  0
SECTION
  2
HEADER
  9
$EXTMAX
 10
594.0
 20
420.0
 30
0.0
  9
$EXTMIN
 10
0.0
 20
0.0
 30
0.0
  9
$LIMMIN
 10
0.0
 20
0.0
  9
$LIMMAX
 10
594.0
 20
420.0
  9
$VIEWCTR
 10
297.0
 20
210.0
  9
$VIEWSIZE
 40
420.0
  9
$CLAYER
  8
0
  9
$LTSCALE
 40
32.67
  9
$CELTYPE
  6
BYLAYER
  9
$DIMSCALE
 40
1.0
  9
$DIMASZ
 40
3.5
  9
$DIMEXO
 40
0.0
  9
$DIMDLI
 40
22.572
  9
$DIMEXE
 40
2.0
  9
$DIMCEN
 40
5.346
  9
$DIMLFAC
 40
1.0
  9
$DIMBLK
  1
_FILLED
  9
$DIMALT
 70
0
  9
$DIMALTF
 40
0.0393700787
  9
$DIMTXT
 40
3.5
  9
$AUNITS
 70
0
  9
$PDMODE
 70
3
  9
$PDSIZE
 40
0.3125
  9
$TILEMODE
 70
1
  0
ENDSEC
  0
SECTION
  2
TABLES
  0
TABLE
  2
LTYPE
 70
6
  0
LTYPE
  2
BYBLOCK
 70
0
  3

 72
65
 73
0
 40
0.0
  0
LTYPE
  2
BYLAYER
 70
0
  3

 72
65
 73
0
 40
0.0
  0
LTYPE
  2
CONTINUOUS
 70
64
  3
Solid line
 72
65
 73
0
 40
0.0
  0
LTYPE
  2
CENTER
 70
64
  3
____ _ ____ _ ____ _ ____ _ ____ _ ____ _ ____
 72
65
 73
4
 40
0.6
 49
0.375
 49
-0.075
 49
0.075
 49
-0.075
  0
LTYPE
  2
HIDDEN
 70
64
  3
- - - - - - - - - - - - - - - - - - - -
 72
65
 73
2
 40
0.2
 49
0.1
 49
-0.1
  0
LTYPE
  2
PHANTOM
 70
64
  3
_____ _ _ _____ _ _ _____ _ _ _____
 72
65
 73
6
 40
0.8
 49
0.45
 49
-0.05
 49
0.1
 49
-0.05
 49
0.1
 49
-0.05
  0
LTYPE
  2
DOT
 70
64
  3
. . . . . . . . . . . . . . . . . . . .
 72
65
 73
2
 40
0.2
 49
0.1
 49
-0.1
  0
LTYPE
  2
DASHED
 70
64
  3
- - - - - - - - - - - - - - - - - - - -
 72
65
 73
2
 40
0.2
 49
0.1
 49
-0.1
  0
ENDTAB
  0
TABLE
  2
LAYER
 70
36
  0
LAYER
  2
0
 70
0
 62
7
  6
CONTINUOUS
  0
LAYER
  2
DEFAULT_1
 70
0
 62
7
  6
CENTER
  0
LAYER
  2
DEFAULT_2
 70
0
 62
8
  6
HIDDEN
  0
LAYER
  2
DEFAULT_3
 70
0
 62
7
  6
PHANTOM
  0
LAYER
  2
1_CSYS
 70
0
 62
7
  6
CONTINUOUS
  0
LAYER
  2
1_DATUM_PLANE
 70
0
 62
7
  6
CONTINUOUS
  0
LAYER
  2
2_FEATURE
 70
0
 62
7
  6
CONTINUOUS
  0
LAYER
  2
6_DIM
 70
0
 62
7
  6
CONTINUOUS
  0
LAYER
  2
AXES
 70
0
 62
7
  6
CONTINUOUS
  0
LAYER
  2
BLANK_BELT
 70
0
 62
7
  6
CONTINUOUS
  0
LAYER
  2
BLANK_CURVE_BORE
 70
0
 62
7
  6
CONTINUOUS
  0
LAYER
  2
BLANK_PLAN
 70
0
 62
7
  6
CONTINUOUS
  0
LAYER
  2
BLANK_SQ
 70
0
 62
7
  6
CONTINUOUS
  0
LAYER
  2
CSYS
 70
0
 62
7
  6
CONTINUOUS
  0
LAYER
  2
DTM_AXES
 70
0
 62
7
  6
CONTINUOUS
  0
LAYER
  2
DTM_CRV
 70
0
 62
7
  6
CONTINUOUS
  0
LAYER
  2
NOTES
 70
0
 62
7
  6
CONTINUOUS
  0
LAYER
  2
OUTERLINE
 70
0
 62
7
  6
CONTINUOUS
  0
LAYER
  2
PITCH_LINE
 70
0
 62
7
  6
CONTINUOUS
  0
LAYER
  2
PLANES
 70
0
 62
7
  6
CONTINUOUS
  0
LAYER
  2
QUILTS
 70
0
 62
7
  6
CONTINUOUS
  0
ENDTAB
  0
TABLE
  2
STYLE
 70
1
  0
STYLE
  2
STANDARD
 70
0
 40
0.0
 41
0.8
 50
0.0
 71
0
 42
0.2
  3
txt
  4

  0
STYLE
  2
TEXTSTYLE_1
 70
0
 40
0.0
 41
0.8
 50
0.0
 71
0
 42
0.2
  3
gdt
  4

  0
STYLE
  2
TEXTSTYLE_2
 70
0
 40
0.0
 41
0.6
 50
0.0
 71
0
 42
0.2
  3
txt
  4

  0
STYLE
  2
TEXTSTYLE_3
 70
0
 40
0.0
 41
1.0
 50
0.0
 71
0
 42
0.2
  3
ftb_____.ttf
  4

  0
STYLE
  2
TEXTSTYLE_4
 70
0
 40
0.0
 41
1.0
 50
0.0
 71
0
 42
0.2
  3
fti_____.ttf
  4

  0
STYLE
  2
TEXTSTYLE_5
 70
0
 40
0.0
 41
1.0
 50
0.0
 71
0
 42
0.2
  3
frutiger light.ttf
  4

  0
STYLE
  2
TEXTSTYLE_6
 70
0
 40
0.0
 41
0.7
 50
0.0
 71
0
 42
0.2
  3
txt
  4

  0
STYLE
  2
TEXTSTYLE_7
 70
0
 40
0.0
 41
0.8
 50
0.0
 71
0
 42
0.2
  3
txt
  4

  0
ENDTAB
  0
ENDSEC
  0
SECTION
  2
BLOCKS
  0
BLOCK
  8
0
 62
2
  6
CONTINUOUS
  2
UNI_LOGO2_BL1
 70
64
 10
557.4079930916
 20
35.8092573885
  0
TEXT
  8
0
 62
7
  6
CONTINUOUS
 10
548.4662781001
 20
30.9020137655
  7
TEXTSTYLE_4
 40
1.0655737705
  1
The brand for plastic modular belts and chains
 41
1.0
 72
0
  0
LINE
  8
0
 62
7
  6
CONTINUOUS
 10
533.3860614807
 20
36.3830278803
 11
533.3860614807
 21
34.2518803393
  0
LINE
  8
0
 62
7
  6
CONTINUOUS
 10
533.6751239738
 20
31.2609490436
 11
533.6751239738
 21
31.3577401029
  0
LINE
  8
0
 62
7
  6
CONTINUOUS
 10
533.3860614807
 20
31.3254764164
 11
533.4438739824
 21
31.1318942979
  0
LINE
  8
0
 62
7
  6
CONTINUOUS
 10
534.7795041036
 20
34.1699131262
 11
534.7795041036
 21
36.3830278803
  0
LINE
  8
0
 62
7
  6
CONTINUOUS
 10
535.6985614255
 20
32.3256508311
 11
535.6985614255
 21
30.8092573885
  0
LINE
  8
0
 62
7
  6
CONTINUOUS
 10
535.9876239807
 20
30.8092573885
 11
535.9876239807
 21
31.5513222666
  0
LINE
  8
0
 62
7
  6
CONTINUOUS
 10
535.9876239807
 20
31.6803770123
 11
535.9876239807
 21
32.3256508311
  0
LINE
  8
0
 62
7
  6
CONTINUOUS
 10
533.4438739824
 20
31.5190585802
 11
533.3860614807
 21
31.3254764164
  0
LINE
  8
0
 62
7
  6
CONTINUOUS
 10
533.7907489669
 20
31.0996306115
 11
533.6751239738
 21
31.2609490436
  0
LINE
  8
0
 62
7
  6
CONTINUOUS
 10
534.8891865358
 20
31.6158496394
 11
534.9469989807
 21
31.5190585802
  0
LINE
  8
0
 62
7
  6
CONTINUOUS
 10
535.2360615358
 20
31.5190585802
 11
535.1782489255
 21
31.6481133259
  0
LINE
  8
0
 62
7
  6
CONTINUOUS
 10
536.6647500053
 20
36.3830278803
 11
536.6647500053
 21
34.5797491918
  0
LINE
  8
0
 62
7
  6
CONTINUOUS
 10
536.6647500053
 20
33.2682737819
 11
536.6647500053
 21
32.612536077
  0
LINE
  8
0
 62
7
  6
CONTINUOUS
 10
537.0282489807
 20
31.4545312073
 11
537.0282489807
 21
30.8092573885
  0
LINE
  8
0
 62
7
  6
CONTINUOUS
 10
537.3173113704
 20
30.8092573885
 11
537.3173113704
 21
31.4545312073
  0
LINE
  8
0
 62
7
  6
CONTINUOUS
 10
533.6751239738
 20
31.3577401029
 11
533.7329364807
 21
31.4867948937
  0
LINE
  8
0
 62
7
  6
CONTINUOUS
 10
533.4438739824
 20
31.1318942979
 11
533.5594989807
 21
31.0028395296
  0
LINE
  8
0
 62
7
  6
CONTINUOUS
 10
536.9704363704
 20
31.583585953
 11
537.0282489807
 21
31.4545312073
  0
LINE
  8
0
 62
7
  6
CONTINUOUS
 10
537.7798115909
 20
31.0996306115
 11
537.8376238704
 21
30.9705758432
  0
LINE
  8
0
 62
7
  6
CONTINUOUS
 10
537.3173113704
 20
31.4545312073
 11
537.2594990909
 21
31.6158496394
  0
LINE
  8
0
 62
7
  6
CONTINUOUS
 10
537.7798115909
 20
31.6481133259
 11
537.7798115909
 21
31.583585953
  0
LINE
  8
0
 62
7
  6
CONTINUOUS
 10
537.7798115909
 20
31.1964216708
 11
537.7798115909
 21
31.0996306115
  0
LINE
  8
0
 62
7
  6
CONTINUOUS
 10
538.0581926282
 20
32.612536077
 11
538.0581926282
 21
36.3830278803
  0
LINE
  8
0
 62
7
  6
CONTINUOUS
 10
538.0688739807
 20
31.0673669025
 11
538.0688739807
 21
31.1318942979
  0
LINE
  8
0
 62
7
  6
CONTINUOUS
 10
538.3860614807
 20
36.3830278803
 11
538.3860614807
 21
32.612536077
  0
LINE
  8
0
 62
7
  6
CONTINUOUS
 10
535.1782489255
 20
31.0028395296
 11
535.2360615358
 21
31.1318942979
  0
LINE
  8
0
 62
7
  6
CONTINUOUS
 10
539.5719992012
 20
30.9060484591
 11
539.5141862601
 21
31.0673669025
  0
LINE
  8
0
 62
7
  6
CONTINUOUS
 10
539.2251242012
 20
31.583585953
 11
539.2251242012
 21
31.4867948937
  0
LINE
  8
0
 62
7
  6
CONTINUOUS
 10
539.2251242012
 20
31.3577401029
 11
539.2251242012
 21
31.1641579843
  0
LINE
  8
0
 62
7
  6
CONTINUOUS
 10
539.5141862601
 20
31.0673669025
 11
539.5141862601
 21
31.583585953
  0
LINE
  8
0
 62
7
  6
CONTINUOUS
 10
539.7795041036
 20
32.612536077
 11
539.7795041036
 21
34.4158147655
  0
LINE
  8
0
 62
7
  6
CONTINUOUS
 10
539.7795041036
 20
35.7272901754
 11
539.7795041036
 21
36.3830278803
  0
LINE
  8
0
 62
7
  6
CONTINUOUS
 10
540.0923117012
 20
32.3256508311
 11
540.0923117012
 21
32.164332399
  0
LINE
  8
0
 62
7
  6
CONTINUOUS
 10
540.0923117012
 20
31.8416954444
 11
540.0923117012
 21
30.8092573885
  0
LINE
  8
0
 62
7
  6
CONTINUOUS
 10
540.3813737601
 20
30.8092573885
 11
540.3813737601
 21
31.8416954444
  0
LINE
  8
0
 62
7
  6
CONTINUOUS
 10
540.3813737601
 20
32.164332399
 11
540.3813737601
 21
32.3256508311
  0
LINE
  8
0
 62
7
  6
CONTINUOUS
 10
534.9469989807
 20
31.1318942979
 11
534.8891865358
 21
31.035103216
  0
LINE
  8
0
 62
7
  6
CONTINUOUS
 10
537.2594990909
 20
31.6158496394
 11
537.2016864807
 21
31.6803770123
  0
LINE
  8
0
 62
7
  6
CONTINUOUS
 10
538.1266865909
 20
31.0028395296
 11
538.0688739807
 21
31.0673669025
  0
LINE
  8
0
 62
7
  6
CONTINUOUS
 10
539.2829364807
 20
30.873784767
 11
539.3407487601
 21
30.8092573885
  0
LINE
  8
0
 62
7
  6
CONTINUOUS
 10
539.2251242012
 20
30.9705758432
 11
539.2829364807
 21
30.873784767
  0
LINE
  8
0
 62
7
  6
CONTINUOUS
 10
539.6298114807
 20
30.8092573885
 11
539.5719992012
 21
30.9060484591
  0
LINE
  8
0
 62
7
  6
CONTINUOUS
 10
539.5141862601
 20
31.583585953
 11
539.4563739807
 21
31.6803770123
  0
LINE
  8
0
 62
7
  6
CONTINUOUS
 10
540.8438739807
 20
31.8416954444
 11
540.8438739807
 21
30.8092573885
  0
LINE
  8
0
 62
7
  6
CONTINUOUS
 10
541.1329367012
 20
30.8092573885
 11
541.1329367012
 21
31.5513222666
  0
LINE
  8
0
 62
7
  6
CONTINUOUS
 10
541.1329367012
 20
31.6803770123
 11
541.1329367012
 21
31.8416954444
  0
LINE
  8
0
 62
7
  6
CONTINUOUS
 10
541.6647500053
 20
34.8256508311
 11
541.6647500053
 21
32.612536077
  0
LINE
  8
0
 62
7
  6
CONTINUOUS
 10
533.5594989807
 20
31.6481133259
 11
533.4438739824
 21
31.5190585802
  0
LINE
  8
0
 62
7
  6
CONTINUOUS
 10
533.7329364807
 20
31.4867948937
 11
533.7907489669
 21
31.5513222666
  0
LINE
  8
0
 62
7
  6
CONTINUOUS
 10
533.5594989807
 20
31.0028395296
 11
533.6751239738
 21
30.9383121455
  0
LINE
  8
0
 62
7
  6
CONTINUOUS
 10
533.9641864669
 20
31.0028395296
 11
533.7907489669
 21
31.0996306115
  0
LINE
  8
0
 62
7
  6
CONTINUOUS
 10
539.1673112601
 20
31.6481133259
 11
539.2251242012
 21
31.583585953
  0
LINE
  8
0
 62
7
  6
CONTINUOUS
 10
542.1157487601
 20
31.583585953
 11
542.1735617012
 21
31.4222675209
  0
LINE
  8
0
 62
7
  6
CONTINUOUS
 10
542.4626237601
 20
31.4222675209
 11
542.4048114807
 21
31.583585953
  0
LINE
  8
0
 62
7
  6
CONTINUOUS
 10
542.1735617012
 20
31.4222675209
 11
542.1735617012
 21
30.8092573885
  0
LINE
  8
0
 62
7
  6
CONTINUOUS
 10
542.4626237601
 20
30.8092573885
 11
542.4626237601
 21
31.4222675209
  0
LINE
  8
0
 62
7
  6
CONTINUOUS
 10
542.9251239807
 20
31.6481133259
 11
542.9251239807
 21
31.583585953
  0
LINE
  8
0
 62
7
  6
CONTINUOUS
 10
543.0581926282
 20
32.612536077
 11
543.0581926282
 21
34.743683618
  0
LINE
  8
0
 62
7
  6
CONTINUOUS
 10
543.3860614807
 20
36.3830278803
 11
543.3860614807
 21
32.612536077
  0
LINE
  8
0
 62
7
  6
CONTINUOUS
 10
538.0688739807
 20
31.1318942979
 11
538.1266865909
 21
31.2286853572
  0
LINE
  8
0
 62
7
  6
CONTINUOUS
 10
533.6751239738
 20
30.9383121455
 11
533.8485614944
 21
30.873784767
  0
LINE
  8
0
 62
7
  6
CONTINUOUS
 10
535.1782489255
 20
31.6481133259
 11
535.0048114255
 21
31.7449043851
  0
LINE
  8
0
 62
7
  6
CONTINUOUS
 10
537.8376238704
 20
30.9705758432
 11
538.0110613704
 21
30.873784767
  0
LINE
  8
0
 62
7
  6
CONTINUOUS
 10
536.8548114807
 20
31.6481133259
 11
536.9704363704
 21
31.583585953
  0
LINE
  8
0
 62
7
  6
CONTINUOUS
 10
537.2016864807
 20
31.6803770123
 11
537.0860615909
 21
31.7449043851
  0
LINE
  8
0
 62
7
  6
CONTINUOUS
 10
542.9251239807
 20
31.0673669025
 11
543.0407492012
 21
30.9383121455
  0
LINE
  8
0
 62
7
  6
CONTINUOUS
 10
543.2719989807
 20
31.0028395296
 11
543.2141867012
 21
31.0673669025
  0
LINE
  8
0
 62
7
  6
CONTINUOUS
 10
542.9251239807
 20
31.583585953
 11
543.0407492012
 21
31.4545312073
  0
LINE
  8
0
 62
7
  6
CONTINUOUS
 10
542.4048114807
 20
31.583585953
 11
542.3469992012
 21
31.6803770123
  0
LINE
  8
0
 62
7
  6
CONTINUOUS
 10
544.7751235396
 20
31.0028395296
 11
544.7751235396
 21
31.0673669025
  0
LINE
  8
0
 62
7
  6
CONTINUOUS
 10
544.7795041036
 20
32.612536077
 11
544.7795041036
 21
36.3830278803
  0
LINE
  8
0
 62
7
  6
CONTINUOUS
 10
537.8376238704
 20
31.7126406987
 11
537.7798115909
 21
31.6481133259
  0
LINE
  8
0
 62
7
  6
CONTINUOUS
 10
534.7157489531
 20
31.6803770123
 11
534.8891865358
 21
31.6158496394
  0
LINE
  8
0
 62
7
  6
CONTINUOUS
 10
539.4563739807
 20
31.6803770123
 11
539.3407487601
 21
31.7449043851
  0
LINE
  8
0
 62
7
  6
CONTINUOUS
 10
543.2719989807
 20
31.5190585802
 11
543.2141867012
 21
31.583585953
  0
LINE
  8
0
 62
7
  6
CONTINUOUS
 10
544.4282492012
 20
31.1318942979
 11
544.4860614807
 21
31.0673669025
  0
LINE
  8
0
 62
7
  6
CONTINUOUS
 10
544.7751235396
 20
31.0673669025
 11
544.6594989807
 21
31.1964216708
  0
LINE
  8
0
 62
7
  6
CONTINUOUS
 10
544.4282492012
 20
31.6481133259
 11
544.4860614807
 21
31.583585953
  0
LINE
  8
0
 62
7
  6
CONTINUOUS
 10
544.7751235396
 20
31.583585953
 11
544.6594989807
 21
31.7126406987
  0
LINE
  8
0
 62
7
  6
CONTINUOUS
 10
538.0688739807
 20
31.583585953
 11
538.1266865909
 21
31.6481133259
  0
LINE
  8
0
 62
7
  6
CONTINUOUS
 10
537.8954364807
 20
31.3254764164
 11
537.7798115909
 21
31.1964216708
  0
LINE
  8
0
 62
7
  6
CONTINUOUS
 10
539.2251242012
 20
31.1641579843
 11
539.1673112601
 21
31.0996306115
  0
LINE
  8
0
 62
7
  6
CONTINUOUS
 10
539.1673112601
 20
30.9060484591
 11
539.2251242012
 21
30.9705758432
  0
LINE
  8
0
 62
7
  6
CONTINUOUS
 10
538.0110613704
 20
30.873784767
 11
538.1266865909
 21
30.8415210777
  0
LINE
  8
0
 62
7
  6
CONTINUOUS
 10
535.0048114255
 20
31.7449043851
 11
534.7735614807
 21
31.809431758
  0
LINE
  8
0
 62
7
  6
CONTINUOUS
 10
538.3579363704
 20
30.9383121455
 11
538.1266865909
 21
31.0028395296
  0
LINE
  8
0
 62
7
  6
CONTINUOUS
 10
537.0860615909
 20
31.7449043851
 11
536.9126240909
 21
31.809431758
  0
LINE
  8
0
 62
7
  6
CONTINUOUS
 10
539.3407487601
 20
31.7449043851
 11
539.1673112601
 21
31.809431758
  0
LINE
  8
0
 62
7
  6
CONTINUOUS
 10
542.0001242012
 20
31.6481133259
 11
542.1157487601
 21
31.583585953
  0
LINE
  8
0
 62
7
  6
CONTINUOUS
 10
542.3469992012
 20
31.6803770123
 11
542.2313739807
 21
31.7449043851
  0
LINE
  8
0
 62
7
  6
CONTINUOUS
 10
533.8485614944
 20
30.873784767
 11
534.0219989944
 21
30.8415210777
  0
LINE
  8
0
 62
7
  6
CONTINUOUS
 10
534.3110615082
 20
30.9383121455
 11
533.9641864669
 21
31.0028395296
  0
LINE
  8
0
 62
7
  6
CONTINUOUS
 10
536.7391865909
 20
31.6803770123
 11
536.8548114807
 21
31.6481133259
  0
LINE
  8
0
 62
7
  6
CONTINUOUS
 10
539.0516867012
 20
31.6803770123
 11
539.1673112601
 21
31.6481133259
  0
LINE
  8
0
 62
7
  6
CONTINUOUS
 10
543.3876242012
 20
30.9705758432
 11
543.2719989807
 21
31.0028395296
  0
LINE
  8
0
 62
7
  6
CONTINUOUS
 10
541.8844989807
 20
31.6803770123
 11
542.0001242012
 21
31.6481133259
  0
LINE
  8
0
 62
7
  6
CONTINUOUS
 10
543.0407492012
 20
30.9383121455
 11
543.2141867012
 21
30.873784767
  0
LINE
  8
0
 62
7
  6
CONTINUOUS
 10
542.2313739807
 20
31.7449043851
 11
542.0579364807
 21
31.809431758
  0
LINE
  8
0
 62
7
  6
CONTINUOUS
 10
543.4454364807
 20
31.4545312073
 11
543.2719989807
 21
31.5190585802
  0
LINE
  8
0
 62
7
  6
CONTINUOUS
 10
544.2548117012
 20
31.1964216708
 11
544.4282492012
 21
31.1318942979
  0
LINE
  8
0
 62
7
  6
CONTINUOUS
 10
544.6594989807
 20
31.7126406987
 11
544.4860614807
 21
31.7771680715
  0
LINE
  8
0
 62
7
  6
CONTINUOUS
 10
543.0407492012
 20
31.4545312073
 11
543.2719989807
 21
31.3577401029
  0
LINE
  8
0
 62
7
  6
CONTINUOUS
 10
544.6594989807
 20
31.1964216708
 11
544.4282492012
 21
31.29321273
  0
LINE
  8
0
 62
7
  6
CONTINUOUS
 10
543.2141867012
 20
31.583585953
 11
543.2719989807
 21
31.6481133259
  0
LINE
  8
0
 62
7
  6
CONTINUOUS
 10
533.6751239738
 20
31.7126406987
 11
533.5594989807
 21
31.6481133259
  0
LINE
  8
0
 62
7
  6
CONTINUOUS
 10
533.7907489669
 20
31.5513222666
 11
533.9641864669
 21
31.6481133259
  0
LINE
  8
0
 62
7
  6
CONTINUOUS
 10
536.1032490358
 20
31.7449043851
 11
535.9876239807
 21
31.6803770123
  0
LINE
  8
0
 62
7
  6
CONTINUOUS
 10
535.9876239807
 20
31.5513222666
 11
536.1032490358
 21
31.6158496394
  0
LINE
  8
0
 62
7
  6
CONTINUOUS
 10
535.0048114255
 20
30.9060484591
 11
535.1782489255
 21
31.0028395296
  0
LINE
  8
0
 62
7
  6
CONTINUOUS
 10
534.0219989944
 20
30.8415210777
 11
534.3688739531
 21
30.8092573885
  0
LINE
  8
0
 62
7
  6
CONTINUOUS
 10
538.1266865909
 20
30.8415210777
 11
538.3579363704
 21
30.8092573885
  0
LINE
  8
0
 62
7
  6
CONTINUOUS
 10
536.5079364807
 20
31.7126406987
 11
536.7391865909
 21
31.6803770123
  0
LINE
  8
0
 62
7
  6
CONTINUOUS
 10
538.8204365909
 20
31.7126406987
 11
539.0516867012
 21
31.6803770123
  0
LINE
  8
0
 62
7
  6
CONTINUOUS
 10
543.2719989807
 20
31.3577401029
 11
544.2548117012
 21
31.1964216708
  0
LINE
  8
0
 62
7
  6
CONTINUOUS
 10
544.4282492012
 20
31.29321273
 11
543.4454364807
 21
31.4545312073
  0
LINE
  8
0
 62
7
  6
CONTINUOUS
 10
536.9126240909
 20
31.809431758
 11
536.7391865909
 21
31.8416954444
  0
LINE
  8
0
 62
7
  6
CONTINUOUS
 10
543.2141867012
 20
30.873784767
 11
543.3876242012
 21
30.8415210777
  0
LINE
  8
0
 62
7
  6
CONTINUOUS
 10
542.0579364807
 20
31.809431758
 11
541.8844989807
 21
31.8416954444
  0
LINE
  8
0
 62
7
  6
CONTINUOUS
 10
544.3126239807
 20
31.6803770123
 11
544.4282492012
 21
31.6481133259
  0
LINE
  8
0
 62
7
  6
CONTINUOUS
 10
544.4860614807
 20
31.0673669025
 11
544.4282492012
 21
31.0028395296
  0
LINE
  8
0
 62
7
  6
CONTINUOUS
 10
543.0407492012
 20
31.7449043851
 11
542.9251239807
 21
31.6481133259
  0
LINE
  8
0
 62
7
  6
CONTINUOUS
 10
537.9532490909
 20
31.7771680715
 11
537.8376238704
 21
31.7126406987
  0
LINE
  8
0
 62
7
  6
CONTINUOUS
 10
538.0110613704
 20
31.3900038345
 11
537.8954364807
 21
31.3254764164
  0
LINE
  8
0
 62
7
  6
CONTINUOUS
 10
538.1266865909
 20
31.2286853572
 11
538.2423114807
 21
31.29321273
  0
LINE
  8
0
 62
7
  6
CONTINUOUS
 10
535.6985614255
 20
30.8092573885
 11
535.9876239807
 21
30.8092573885
  0
LINE
  8
0
 62
7
  6
CONTINUOUS
 10
537.0282489807
 20
30.8092573885
 11
537.3173113704
 21
30.8092573885
  0
LINE
  8
0
 62
7
  6
CONTINUOUS
 10
538.3579363704
 20
30.8092573885
 11
538.7048113704
 21
30.8092573885
  0
LINE
  8
0
 62
7
  6
CONTINUOUS
 10
539.3407487601
 20
30.8092573885
 11
539.6298114807
 21
30.8092573885
  0
LINE
  8
0
 62
7
  6
CONTINUOUS
 10
540.0923117012
 20
30.8092573885
 11
540.3813737601
 21
30.8092573885
  0
LINE
  8
0
 62
7
  6
CONTINUOUS
 10
540.8438739807
 20
30.8092573885
 11
541.1329367012
 21
30.8092573885
  0
LINE
  8
0
 62
7
  6
CONTINUOUS
 10
542.1735617012
 20
30.8092573885
 11
542.4626237601
 21
30.8092573885
  0
LINE
  8
0
 62
7
  6
CONTINUOUS
 10
543.7344992012
 20
30.8092573885
 11
544.0813742012
 21
30.8092573885
  0
LINE
  8
0
 62
7
  6
CONTINUOUS
 10
544.0813742012
 20
30.9383121455
 11
543.7344992012
 21
30.9383121455
  0
LINE
  8
0
 62
7
  6
CONTINUOUS
 10
538.7048113704
 20
30.9383121455
 11
538.3579363704
 21
30.9383121455
  0
LINE
  8
0
 62
7
  6
CONTINUOUS
 10
543.2141867012
 20
31.0673669025
 11
542.9251239807
 21
31.0673669025
  0
LINE
  8
0
 62
7
  6
CONTINUOUS
 10
535.2360615358
 20
31.1318942979
 11
534.9469989807
 21
31.1318942979
  0
LINE
  8
0
 62
7
  6
CONTINUOUS
 10
534.3110615082
 20
31.7126406987
 11
534.7157489531
 21
31.6803770123
  0
LINE
  8
0
 62
7
  6
CONTINUOUS
 10
534.7735614807
 20
31.809431758
 11
534.3688739531
 21
31.8416954444
  0
LINE
  8
0
 62
7
  6
CONTINUOUS
 10
543.3876242012
 20
30.8415210777
 11
543.7344992012
 21
30.8092573885
  0
LINE
  8
0
 62
7
  6
CONTINUOUS
 10
543.7344992012
 20
30.9383121455
 11
543.3876242012
 21
30.9705758432
  0
LINE
  8
0
 62
7
  6
CONTINUOUS
 10
539.1673112601
 20
31.809431758
 11
538.8204365909
 21
31.8416954444
  0
LINE
  8
0
 62
7
  6
CONTINUOUS
 10
543.9657489807
 20
31.7126406987
 11
544.3126239807
 21
31.6803770123
  0
LINE
  8
0
 62
7
  6
CONTINUOUS
 10
544.3126239807
 20
31.809431758
 11
543.9657489807
 21
31.8416954444
  0
LINE
  8
0
 62
7
  6
CONTINUOUS
 10
541.6532492012
 20
31.7126406987
 11
541.8844989807
 21
31.6803770123
  0
LINE
  8
0
 62
7
  6
CONTINUOUS
 10
544.4860614807
 20
31.7771680715
 11
544.3126239807
 21
31.809431758
  0
LINE
  8
0
 62
7
  6
CONTINUOUS
 10
544.6594989807
 20
30.9060484591
 11
544.7751235396
 21
31.0028395296
  0
LINE
  8
0
 62
7
  6
CONTINUOUS
 10
539.1673112601
 20
31.0996306115
 11
538.9938737601
 21
31.0028395296
  0
LINE
  8
0
 62
7
  6
CONTINUOUS
 10
541.2485612601
 20
31.7449043851
 11
541.1329367012
 21
31.6803770123
  0
LINE
  8
0
 62
7
  6
CONTINUOUS
 10
541.1329367012
 20
31.5513222666
 11
541.2485612601
 21
31.6158496394
  0
LINE
  8
0
 62
7
  6
CONTINUOUS
 10
533.8485614944
 20
31.7771680715
 11
533.6751239738
 21
31.7126406987
  0
LINE
  8
0
 62
7
  6
CONTINUOUS
 10
536.2766863704
 20
31.809431758
 11
536.1032490358
 21
31.7449043851
  0
LINE
  8
0
 62
7
  6
CONTINUOUS
 10
536.1032490358
 20
31.6158496394
 11
536.2766863704
 21
31.6803770123
  0
LINE
  8
0
 62
7
  6
CONTINUOUS
 10
534.8891865358
 20
31.035103216
 11
534.7157489531
 21
30.9705758432
  0
LINE
  8
0
 62
7
  6
CONTINUOUS
 10
544.3126239807
 20
30.9705758432
 11
544.0813742012
 21
30.9383121455
  0
LINE
  8
0
 62
7
  6
CONTINUOUS
 10
538.7048113704
 20
30.8092573885
 11
538.9938737601
 21
30.8415210777
  0
LINE
  8
0
 62
7
  6
CONTINUOUS
 10
544.0813742012
 20
30.8092573885
 11
544.4282492012
 21
30.8415210777
  0
LINE
  8
0
 62
7
  6
CONTINUOUS
 10
534.3688739531
 20
30.8092573885
 11
534.7735614807
 21
30.8415210777
  0
LINE
  8
0
 62
7
  6
CONTINUOUS
 10
534.7157489531
 20
30.9705758432
 11
534.3110615082
 21
30.9383121455
  0
LINE
  8
0
 62
7
  6
CONTINUOUS
 10
538.5891864807
 20
31.3577401029
 11
539.2251242012
 21
31.3577401029
  0
LINE
  8
0
 62
7
  6
CONTINUOUS
 10
539.2251242012
 20
31.4867948937
 11
538.5891864807
 21
31.4867948937
  0
LINE
  8
0
 62
7
  6
CONTINUOUS
 10
534.9469989807
 20
31.5190585802
 11
535.2360615358
 21
31.5190585802
  0
LINE
  8
0
 62
7
  6
CONTINUOUS
 10
537.7798115909
 20
31.583585953
 11
538.0688739807
 21
31.583585953
  0
LINE
  8
0
 62
7
  6
CONTINUOUS
 10
544.4860614807
 20
31.583585953
 11
544.7751235396
 21
31.583585953
  0
LINE
  8
0
 62
7
  6
CONTINUOUS
 10
538.4735615909
 20
31.7126406987
 11
538.8204365909
 21
31.7126406987
  0
LINE
  8
0
 62
7
  6
CONTINUOUS
 10
543.6188739807
 20
31.7126406987
 11
543.9657489807
 21
31.7126406987
  0
LINE
  8
0
 62
7
  6
CONTINUOUS
 10
543.9657489807
 20
31.8416954444
 11
543.6188739807
 21
31.8416954444
  0
LINE
  8
0
 62
7
  6
CONTINUOUS
 10
541.8844989807
 20
31.8416954444
 11
541.6532492012
 21
31.8416954444
  0
LINE
  8
0
 62
7
  6
CONTINUOUS
 10
541.1329367012
 20
31.8416954444
 11
540.8438739807
 21
31.8416954444
  0
LINE
  8
0
 62
7
  6
CONTINUOUS
 10
540.3813737601
 20
31.8416954444
 11
540.0923117012
 21
31.8416954444
  0
LINE
  8
0
 62
7
  6
CONTINUOUS
 10
538.8204365909
 20
31.8416954444
 11
538.4735615909
 21
31.8416954444
  0
LINE
  8
0
 62
7
  6
CONTINUOUS
 10
536.7391865909
 20
31.8416954444
 11
536.5079364807
 21
31.8416954444
  0
LINE
  8
0
 62
7
  6
CONTINUOUS
 10
540.0923117012
 20
32.164332399
 11
540.3813737601
 21
32.164332399
  0
LINE
  8
0
 62
7
  6
CONTINUOUS
 10
540.3813737601
 20
32.3256508311
 11
540.0923117012
 21
32.3256508311
  0
LINE
  8
0
 62
7
  6
CONTINUOUS
 10
535.9876239807
 20
32.3256508311
 11
535.6985614255
 21
32.3256508311
  0
LINE
  8
0
 62
7
  6
CONTINUOUS
 10
535.025405743
 20
32.612536077
 11
535.4379770916
 21
32.612536077
  0
LINE
  8
0
 62
7
  6
CONTINUOUS
 10
536.6647500053
 20
32.612536077
 11
538.0581926282
 21
32.612536077
  0
LINE
  8
0
 62
7
  6
CONTINUOUS
 10
538.3860614807
 20
32.612536077
 11
539.7795041036
 21
32.612536077
  0
LINE
  8
0
 62
7
  6
CONTINUOUS
 10
541.6647500053
 20
32.612536077
 11
543.0581926282
 21
32.612536077
  0
LINE
  8
0
 62
7
  6
CONTINUOUS
 10
543.3860614807
 20
32.612536077
 11
544.7795041036
 21
32.612536077
  0
LINE
  8
0
 62
7
  6
CONTINUOUS
 10
541.4219987601
 20
31.809431758
 11
541.2485612601
 21
31.7449043851
  0
LINE
  8
0
 62
7
  6
CONTINUOUS
 10
538.9938737601
 20
30.8415210777
 11
539.1673112601
 21
30.9060484591
  0
LINE
  8
0
 62
7
  6
CONTINUOUS
 10
544.4282492012
 20
30.8415210777
 11
544.6594989807
 21
30.9060484591
  0
LINE
  8
0
 62
7
  6
CONTINUOUS
 10
544.4282492012
 20
31.0028395296
 11
544.3126239807
 21
30.9705758432
  0
LINE
  8
0
 62
7
  6
CONTINUOUS
 10
543.3876242012
 20
31.6803770123
 11
543.6188739807
 21
31.7126406987
  0
LINE
  8
0
 62
7
  6
CONTINUOUS
 10
541.4219987601
 20
31.6803770123
 11
541.6532492012
 21
31.7126406987
  0
LINE
  8
0
 62
7
  6
CONTINUOUS
 10
538.3579363704
 20
31.3254764164
 11
538.5891864807
 21
31.3577401029
  0
LINE
  8
0
 62
7
  6
CONTINUOUS
 10
541.6532492012
 20
31.8416954444
 11
541.4219987601
 21
31.809431758
  0
LINE
  8
0
 62
7
  6
CONTINUOUS
 10
538.2423114807
 20
31.6803770123
 11
538.4735615909
 21
31.7126406987
  0
LINE
  8
0
 62
7
  6
CONTINUOUS
 10
543.6188739807
 20
31.8416954444
 11
543.2719989807
 21
31.809431758
  0
LINE
  8
0
 62
7
  6
CONTINUOUS
 10
538.5891864807
 20
31.4867948937
 11
538.2423114807
 21
31.4545312073
  0
LINE
  8
0
 62
7
  6
CONTINUOUS
 10
534.3688739531
 20
31.8416954444
 11
534.0219989944
 21
31.809431758
  0
LINE
  8
0
 62
7
  6
CONTINUOUS
 10
538.4735615909
 20
31.8416954444
 11
538.0688739807
 21
31.809431758
  0
LINE
  8
0
 62
7
  6
CONTINUOUS
 10
535.8450778741
 20
33.7600770606
 11
535.1893401692
 21
33.7600770606
  0
LINE
  8
0
 62
7
  6
CONTINUOUS
 10
541.2485612601
 20
31.6158496394
 11
541.4219987601
 21
31.6803770123
  0
LINE
  8
0
 62
7
  6
CONTINUOUS
 10
543.2719989807
 20
31.6481133259
 11
543.3876242012
 21
31.6803770123
  0
LINE
  8
0
 62
7
  6
CONTINUOUS
 10
543.2719989807
 20
31.809431758
 11
543.0407492012
 21
31.7449043851
  0
LINE
  8
0
 62
7
  6
CONTINUOUS
 10
538.9938737601
 20
31.0028395296
 11
538.7048113704
 21
30.9383121455
  0
LINE
  8
0
 62
7
  6
CONTINUOUS
 10
536.2766863704
 20
31.6803770123
 11
536.5079364807
 21
31.7126406987
  0
LINE
  8
0
 62
7
  6
CONTINUOUS
 10
536.5079364807
 20
31.8416954444
 11
536.2766863704
 21
31.809431758
  0
LINE
  8
0
 62
7
  6
CONTINUOUS
 10
534.0798114807
 20
31.6803770123
 11
534.3110615082
 21
31.7126406987
  0
LINE
  8
0
 62
7
  6
CONTINUOUS
 10
540.5991762348
 20
35.2354868967
 11
541.2549139397
 21
35.2354868967
  0
LINE
  8
0
 62
7
  6
CONTINUOUS
 10
538.2423114807
 20
31.29321273
 11
538.3579363704
 21
31.3254764164
  0
LINE
  8
0
 62
7
  6
CONTINUOUS
 10
538.2423114807
 20
31.4545312073
 11
538.0110613704
 21
31.3900038345
  0
LINE
  8
0
 62
7
  6
CONTINUOUS
 10
538.1266865909
 20
31.6481133259
 11
538.2423114807
 21
31.6803770123
  0
LINE
  8
0
 62
7
  6
CONTINUOUS
 10
534.7735614807
 20
30.8415210777
 11
535.0048114255
 21
30.9060484591
  0
LINE
  8
0
 62
7
  6
CONTINUOUS
 10
538.0688739807
 20
31.809431758
 11
537.9532490909
 21
31.7771680715
  0
LINE
  8
0
 62
7
  6
CONTINUOUS
 10
534.0219989944
 20
31.809431758
 11
533.8485614944
 21
31.7771680715
  0
LINE
  8
0
 62
7
  6
CONTINUOUS
 10
544.7795041036
 20
36.3830278803
 11
543.3860614807
 21
36.3830278803
  0
LINE
  8
0
 62
7
  6
CONTINUOUS
 10
541.4188483659
 20
36.3830278803
 11
541.0062770173
 21
36.3830278803
  0
LINE
  8
0
 62
7
  6
CONTINUOUS
 10
539.7795041036
 20
36.3830278803
 11
538.3860614807
 21
36.3830278803
  0
LINE
  8
0
 62
7
  6
CONTINUOUS
 10
538.0581926282
 20
36.3830278803
 11
536.6647500053
 21
36.3830278803
  0
LINE
  8
0
 62
7
  6
CONTINUOUS
 10
534.7795041036
 20
36.3830278803
 11
533.3860614807
 21
36.3830278803
  0
LINE
  8
0
 62
7
  6
CONTINUOUS
 10
533.9641864669
 20
31.6481133259
 11
534.0798114807
 21
31.6803770123
  0
CIRCLE
  8
0
 62
7
  6
CONTINUOUS
 10
544.0827827921
 20
38.7190934541
 40
2.0901639344
  0
ARC
  8
0
 62
7
  6
CONTINUOUS
 10
535.025405743
 20
34.2518803393
 40
1.6393442623
 50
180.0
 51
270.0
  0
ARC
  8
0
 62
7
  6
CONTINUOUS
 10
541.4188483659
 20
34.743683618
 40
1.6393442623
 50
0.0
 51
90.0
  0
ARC
  8
0
 62
7
  6
CONTINUOUS
 10
535.4379770916
 20
34.0879459131
 40
1.4754098361
 50
270.0
 51
326.2510114041
  0
ARC
  8
0
 62
7
  6
CONTINUOUS
 10
541.0062770173
 20
34.9076180442
 40
1.4754098361
 50
90.0
 51
146.2510114041
  0
ARC
  8
0
 62
7
  6
CONTINUOUS
 10
535.8450778741
 20
34.5797491918
 40
0.8196721311
 50
270.0
 51
360.0
  0
ARC
  8
0
 62
7
  6
CONTINUOUS
 10
540.5991762348
 20
34.4158147655
 40
0.8196721311
 50
90.0
 51
180.0
  0
ARC
  8
0
 62
7
  6
CONTINUOUS
 10
535.1893401692
 20
34.1699131262
 40
0.4098360656
 50
180.0
 51
270.0
  0
ARC
  8
0
 62
7
  6
CONTINUOUS
 10
541.2549139397
 20
34.8256508311
 40
0.4098360656
 50
0.0
 51
90.0
  0
SOLID
  8
0
 62
7
  6
CONTINUOUS
 10
540.0923117012
 20
32.1643327593
 11
540.0923117012
 21
32.3256512429
 12
540.3813737601
 22
32.1643327593
 13
540.3813737601
 23
32.3256512429
  0
SOLID
  8
0
 62
7
  6
CONTINUOUS
 10
534.3688739531
 20
31.841695792
 11
534.7735614807
 21
31.8094316148
 12
534.0219989944
 22
31.8094316148
 13
534.0219989944
 23
31.8094316148
  0
SOLID
  8
0
 62
7
  6
CONTINUOUS
 10
533.8485614944
 20
31.7771687019
 11
534.0219989944
 21
31.8094316148
 12
534.7735614807
 22
31.8094316148
 13
534.7735614807
 23
31.8094316148
  0
SOLID
  8
0
 62
7
  6
CONTINUOUS
 10
534.7735614807
 20
31.8094316148
 11
535.0048114255
 21
31.7449043986
 12
533.8485614944
 22
31.7771687019
 13
533.8485614944
 23
31.7771687019
  0
SOLID
  8
0
 62
7
  6
CONTINUOUS
 10
533.6751239738
 20
31.712640202
 11
533.8485614944
 21
31.7771687019
 12
535.0048114255
 22
31.7449043986
 13
535.0048114255
 23
31.7449043986
  0
SOLID
  8
0
 62
7
  6
CONTINUOUS
 10
533.6751239738
 20
31.712640202
 11
535.0048114255
 21
31.7449043986
 12
534.3110615082
 22
31.712640202
 13
534.3110615082
 23
31.712640202
  0
SOLID
  8
0
 62
7
  6
CONTINUOUS
 10
534.3110615082
 20
31.712640202
 11
535.0048114255
 21
31.7449043986
 12
534.7157489531
 22
31.6803773084
 13
534.7157489531
 23
31.6803773084
  0
SOLID
  8
0
 62
7
  6
CONTINUOUS
 10
535.0048114255
 20
31.7449043986
 11
535.1782489255
 21
31.6481130052
 12
534.7157489531
 22
31.6803773084
 13
534.7157489531
 23
31.6803773084
  0
SOLID
  8
0
 62
7
  6
CONTINUOUS
 10
534.8891865358
 20
31.6158502183
 11
534.7157489531
 21
31.6803773084
 12
535.1782489255
 22
31.6481130052
 13
535.1782489255
 23
31.6481130052
  0
SOLID
  8
0
 62
7
  6
CONTINUOUS
 10
534.8891865358
 20
31.6158502183
 11
535.1782489255
 21
31.6481130052
 12
534.9469989807
 22
31.5190586669
 13
534.9469989807
 23
31.5190586669
  0
SOLID
  8
0
 62
7
  6
CONTINUOUS
 10
535.1782489255
 20
31.6481130052
 11
535.2360615358
 21
31.5190586669
 12
534.9469989807
 22
31.5190586669
 13
534.9469989807
 23
31.5190586669
  0
SOLID
  8
0
 62
7
  6
CONTINUOUS
 10
536.2766863704
 20
31.8094307377
 11
536.5079364807
 21
31.841695041
 12
536.7391865909
 22
31.841695041
 13
536.7391865909
 23
31.841695041
  0
SOLID
  8
0
 62
7
  6
CONTINUOUS
 10
536.7391865909
 20
31.841695041
 11
536.9126240909
 21
31.8094307377
 12
536.2766863704
 22
31.8094307377
 13
536.2766863704
 23
31.8094307377
  0
SOLID
  8
0
 62
7
  6
CONTINUOUS
 10
536.1032490358
 20
31.7449036475
 11
536.2766863704
 21
31.8094307377
 12
536.9126240909
 22
31.8094307377
 13
536.9126240909
 23
31.8094307377
  0
SOLID
  8
0
 62
7
  6
CONTINUOUS
 10
536.9126240909
 20
31.8094307377
 11
537.0860615909
 21
31.7449036475
 12
536.1032490358
 22
31.7449036475
 13
536.1032490358
 23
31.7449036475
  0
SOLID
  8
0
 62
7
  6
CONTINUOUS
 10
537.0860615909
 20
31.7449036475
 11
536.5079364807
 21
31.7126400953
 12
536.1032490358
 22
31.7449036475
 13
536.1032490358
 23
31.7449036475
  0
SOLID
  8
0
 62
7
  6
CONTINUOUS
 10
535.9876239807
 20
31.6803765574
 11
536.1032490358
 21
31.7449036475
 12
536.5079364807
 22
31.7126400953
 13
536.5079364807
 23
31.7126400953
  0
SOLID
  8
0
 62
7
  6
CONTINUOUS
 10
536.5079364807
 20
31.7126400953
 11
536.2766863704
 21
31.6803765574
 12
535.9876239807
 22
31.6803765574
 13
535.9876239807
 23
31.6803765574
  0
SOLID
  8
0
 62
7
  6
CONTINUOUS
 10
536.5079364807
 20
31.7126400953
 11
537.0860615909
 21
31.7449036475
 12
536.7391865909
 22
31.6803765574
 13
536.7391865909
 23
31.6803765574
  0
SOLID
  8
0
 62
7
  6
CONTINUOUS
 10
537.0860615909
 20
31.7449036475
 11
537.2016864807
 21
31.6803765574
 12
536.7391865909
 22
31.6803765574
 13
536.7391865909
 23
31.6803765574
  0
SOLID
  8
0
 62
7
  6
CONTINUOUS
 10
536.8548114807
 20
31.6481130052
 11
536.7391865909
 21
31.6803765574
 12
537.2016864807
 22
31.6803765574
 13
537.2016864807
 23
31.6803765574
  0
SOLID
  8
0
 62
7
  6
CONTINUOUS
 10
537.2016864807
 20
31.6803765574
 11
537.2594990909
 21
31.6158494672
 12
536.8548114807
 22
31.6481130052
 13
536.8548114807
 23
31.6481130052
  0
SOLID
  8
0
 62
7
  6
CONTINUOUS
 10
536.9704363704
 20
31.583585915
 11
536.8548114807
 21
31.6481130052
 12
537.2594990909
 22
31.6158494672
 13
537.2594990909
 23
31.6158494672
  0
SOLID
  8
0
 62
7
  6
CONTINUOUS
 10
536.9704363704
 20
31.583585915
 11
537.2594990909
 21
31.6158494672
 12
537.0282489807
 22
31.4545309836
 13
537.0282489807
 23
31.4545309836
  0
SOLID
  8
0
 62
7
  6
CONTINUOUS
 10
537.2594990909
 20
31.6158494672
 11
537.3173113704
 21
31.4545309836
 12
537.0282489807
 22
31.4545309836
 13
537.0282489807
 23
31.4545309836
  0
SOLID
  8
0
 62
7
  6
CONTINUOUS
 10
536.2766863704
 20
31.6803765574
 11
536.1032490358
 21
31.6158494672
 12
535.9876239807
 22
31.6803765574
 13
535.9876239807
 23
31.6803765574
  0
SOLID
  8
0
 62
7
  6
CONTINUOUS
 10
536.1032490358
 20
31.6158494672
 11
535.9876239807
 21
31.5513216117
 12
535.9876239807
 22
31.6803765574
 13
535.9876239807
 23
31.6803765574
  0
SOLID
  8
0
 62
7
  6
CONTINUOUS
 10
535.9876239807
 20
31.5513216117
 11
535.6985614255
 21
30.8092570492
 12
535.9876239807
 22
31.6803765574
 13
535.9876239807
 23
31.6803765574
  0
SOLID
  8
0
 62
7
  6
CONTINUOUS
 10
535.9876239807
 20
31.6803765574
 11
535.6985614255
 21
30.8092570492
 12
535.9876239807
 22
32.3256504918
 13
535.9876239807
 23
32.3256504918
  0
SOLID
  8
0
 62
7
  6
CONTINUOUS
 10
535.6985614255
 20
30.8092570492
 11
535.6985614255
 21
32.3256504918
 12
535.9876239807
 22
32.3256504918
 13
535.9876239807
 23
32.3256504918
  0
SOLID
  8
0
 62
7
  6
CONTINUOUS
 10
535.9876239807
 20
31.5513216117
 11
535.9876239807
 21
30.8092570492
 12
535.6985614255
 22
30.8092570492
 13
535.6985614255
 23
30.8092570492
  0
SOLID
  8
0
 62
7
  6
CONTINUOUS
 10
537.0282489807
 20
30.8092570492
 11
537.0282489807
 21
31.4545309836
 12
537.3173113704
 22
31.4545309836
 13
537.3173113704
 23
31.4545309836
  0
SOLID
  8
0
 62
7
  6
CONTINUOUS
 10
537.3173113704
 20
31.4545309836
 11
537.3173113704
 21
30.8092570492
 12
537.0282489807
 22
30.8092570492
 13
537.0282489807
 23
30.8092570492
  0
SOLID
  8
0
 62
7
  6
CONTINUOUS
 10
538.0688739807
 20
31.809431823
 11
538.4735615909
 21
31.8416958158
 12
538.8204365909
 22
31.8416958158
 13
538.8204365909
 23
31.8416958158
  0
SOLID
  8
0
 62
7
  6
CONTINUOUS
 10
538.8204365909
 20
31.8416958158
 11
539.1673112601
 21
31.809431823
 12
538.0688739807
 22
31.809431823
 13
538.0688739807
 23
31.809431823
  0
SOLID
  8
0
 62
7
  6
CONTINUOUS
 10
537.9532490909
 20
31.7771687019
 11
538.0688739807
 21
31.809431823
 12
539.1673112601
 22
31.809431823
 13
539.1673112601
 23
31.809431823
  0
SOLID
  8
0
 62
7
  6
CONTINUOUS
 10
539.1673112601
 20
31.809431823
 11
539.3407487601
 21
31.7449043986
 12
537.9532490909
 22
31.7771687019
 13
537.9532490909
 23
31.7771687019
  0
SOLID
  8
0
 62
7
  6
CONTINUOUS
 10
537.8376238704
 20
31.7126398448
 11
537.9532490909
 21
31.7771687019
 12
539.3407487601
 22
31.7449043986
 13
539.3407487601
 23
31.7449043986
  0
SOLID
  8
0
 62
7
  6
CONTINUOUS
 10
537.8376238704
 20
31.7126398448
 11
539.3407487601
 21
31.7449043986
 12
538.4735615909
 22
31.7126398448
 13
538.4735615909
 23
31.7126398448
  0
SOLID
  8
0
 62
7
  6
CONTINUOUS
 10
538.4735615909
 20
31.7126398448
 11
539.3407487601
 21
31.7449043986
 12
538.8204365909
 22
31.7126398448
 13
538.8204365909
 23
31.7126398448
  0
SOLID
  8
0
 62
7
  6
CONTINUOUS
 10
538.8204365909
 20
31.7126398448
 11
539.3407487601
 21
31.7449043986
 12
539.0516867012
 22
31.6803774007
 13
539.0516867012
 23
31.6803774007
  0
SOLID
  8
0
 62
7
  6
CONTINUOUS
 10
539.3407487601
 20
31.7449043986
 11
539.4563739807
 21
31.6803774007
 12
539.0516867012
 22
31.6803774007
 13
539.0516867012
 23
31.6803774007
  0
SOLID
  8
0
 62
7
  6
CONTINUOUS
 10
537.7798115909
 20
31.6481126336
 11
537.8376238704
 21
31.7126398448
 12
538.4735615909
 22
31.7126398448
 13
538.4735615909
 23
31.7126398448
  0
SOLID
  8
0
 62
7
  6
CONTINUOUS
 10
539.1673112601
 20
31.6481126336
 11
539.0516867012
 21
31.6803774007
 12
539.4563739807
 22
31.6803774007
 13
539.4563739807
 23
31.6803774007
  0
SOLID
  8
0
 62
7
  6
CONTINUOUS
 10
539.1673112601
 20
31.6481126336
 11
539.4563739807
 21
31.6803774007
 12
539.2251242012
 22
31.5835861968
 13
539.2251242012
 23
31.5835861968
  0
SOLID
  8
0
 62
7
  6
CONTINUOUS
 10
539.4563739807
 20
31.6803774007
 11
539.5141862601
 21
31.5835861968
 12
539.2251242012
 22
31.5835861968
 13
539.2251242012
 23
31.5835861968
  0
SOLID
  8
0
 62
7
  6
CONTINUOUS
 10
539.2251242012
 20
31.4867945216
 11
539.2251242012
 21
31.5835861968
 12
539.5141862601
 22
31.5835861968
 13
539.5141862601
 23
31.5835861968
  0
SOLID
  8
0
 62
7
  6
CONTINUOUS
 10
539.2251242012
 20
31.4867945216
 11
539.5141862601
 21
31.5835861968
 12
539.2251242012
 22
31.3577403412
 13
539.2251242012
 23
31.3577403412
  0
SOLID
  8
0
 62
7
  6
CONTINUOUS
 10
539.2251242012
 20
31.3577403412
 11
539.5141862601
 21
31.5835861968
 12
539.2251242012
 22
31.1641579843
 13
539.2251242012
 23
31.1641579843
  0
SOLID
  8
0
 62
7
  6
CONTINUOUS
 10
539.5141862601
 20
31.5835861968
 11
539.5141862601
 21
31.0673661609
 12
539.2251242012
 22
31.1641579843
 13
539.2251242012
 23
31.1641579843
  0
SOLID
  8
0
 62
7
  6
CONTINUOUS
 10
541.4219987601
 20
31.8094310465
 11
541.6532492012
 21
31.8416957661
 12
541.8844989807
 22
31.8416957661
 13
541.8844989807
 23
31.8416957661
  0
SOLID
  8
0
 62
7
  6
CONTINUOUS
 10
541.8844989807
 20
31.8416957661
 11
542.0579364807
 21
31.8094310465
 12
541.4219987601
 22
31.8094310465
 13
541.4219987601
 23
31.8094310465
  0
SOLID
  8
0
 62
7
  6
CONTINUOUS
 10
541.2485612601
 20
31.7449047044
 11
541.4219987601
 21
31.8094310465
 12
542.0579364807
 22
31.8094310465
 13
542.0579364807
 23
31.8094310465
  0
SOLID
  8
0
 62
7
  6
CONTINUOUS
 10
542.0579364807
 20
31.8094310465
 11
542.2313739807
 21
31.7449047044
 12
541.2485612601
 22
31.7449047044
 13
541.2485612601
 23
31.7449047044
  0
SOLID
  8
0
 62
7
  6
CONTINUOUS
 10
542.2313739807
 20
31.7449047044
 11
541.6532492012
 21
31.7126400953
 12
541.2485612601
 22
31.7449047044
 13
541.2485612601
 23
31.7449047044
  0
SOLID
  8
0
 62
7
  6
CONTINUOUS
 10
541.1329367012
 20
31.6803773299
 11
541.2485612601
 21
31.7449047044
 12
541.6532492012
 22
31.7126400953
 13
541.6532492012
 23
31.7126400953
  0
SOLID
  8
0
 62
7
  6
CONTINUOUS
 10
541.6532492012
 20
31.7126400953
 11
541.4219987601
 21
31.6803773299
 12
541.1329367012
 22
31.6803773299
 13
541.1329367012
 23
31.6803773299
  0
SOLID
  8
0
 62
7
  6
CONTINUOUS
 10
541.6532492012
 20
31.7126400953
 11
542.2313739807
 21
31.7449047044
 12
541.8844989807
 22
31.6803773299
 13
541.8844989807
 23
31.6803773299
  0
SOLID
  8
0
 62
7
  6
CONTINUOUS
 10
542.2313739807
 20
31.7449047044
 11
542.3469992012
 21
31.6803773299
 12
541.8844989807
 22
31.6803773299
 13
541.8844989807
 23
31.6803773299
  0
SOLID
  8
0
 62
7
  6
CONTINUOUS
 10
542.0001242012
 20
31.6481130052
 11
541.8844989807
 21
31.6803773299
 12
542.3469992012
 22
31.6803773299
 13
542.3469992012
 23
31.6803773299
  0
SOLID
  8
0
 62
7
  6
CONTINUOUS
 10
542.0001242012
 20
31.6481130052
 11
542.3469992012
 21
31.6803773299
 12
542.1157487601
 22
31.5835862682
 13
542.1157487601
 23
31.5835862682
  0
SOLID
  8
0
 62
7
  6
CONTINUOUS
 10
542.3469992012
 20
31.6803773299
 11
542.4048114807
 21
31.5835862682
 12
542.1157487601
 22
31.5835862682
 13
542.1157487601
 23
31.5835862682
  0
SOLID
  8
0
 62
7
  6
CONTINUOUS
 10
542.1735617012
 20
31.422267832
 11
542.1157487601
 21
31.5835862682
 12
542.4048114807
 22
31.5835862682
 13
542.4048114807
 23
31.5835862682
  0
SOLID
  8
0
 62
7
  6
CONTINUOUS
 10
542.4048114807
 20
31.5835862682
 11
542.4626237601
 21
31.422267832
 12
542.1735617012
 22
31.422267832
 13
542.1735617012
 23
31.422267832
  0
SOLID
  8
0
 62
7
  6
CONTINUOUS
 10
541.4219987601
 20
31.6803773299
 11
541.2485612601
 21
31.6158502183
 12
541.1329367012
 22
31.6803773299
 13
541.1329367012
 23
31.6803773299
  0
SOLID
  8
0
 62
7
  6
CONTINUOUS
 10
541.2485612601
 20
31.6158502183
 11
541.1329367012
 21
31.5513216117
 12
541.1329367012
 22
31.6803773299
 13
541.1329367012
 23
31.6803773299
  0
SOLID
  8
0
 62
7
  6
CONTINUOUS
 10
541.1329367012
 20
31.5513216117
 11
540.8438739807
 21
30.8092577743
 12
541.1329367012
 22
31.6803773299
 13
541.1329367012
 23
31.6803773299
  0
SOLID
  8
0
 62
7
  6
CONTINUOUS
 10
541.1329367012
 20
31.6803773299
 11
540.8438739807
 21
30.8092577743
 12
541.1329367012
 22
31.8416957661
 13
541.1329367012
 23
31.8416957661
  0
SOLID
  8
0
 62
7
  6
CONTINUOUS
 10
540.8438739807
 20
30.8092577743
 11
540.8438739807
 21
31.8416957661
 12
541.1329367012
 22
31.8416957661
 13
541.1329367012
 23
31.8416957661
  0
SOLID
  8
0
 62
7
  6
CONTINUOUS
 10
541.1329367012
 20
31.5513216117
 11
541.1329367012
 21
30.8092577743
 12
540.8438739807
 22
30.8092577743
 13
540.8438739807
 23
30.8092577743
  0
SOLID
  8
0
 62
7
  6
CONTINUOUS
 10
542.1735617012
 20
30.8092577743
 11
542.1735617012
 21
31.422267832
 12
542.4626237601
 22
31.422267832
 13
542.4626237601
 23
31.422267832
  0
SOLID
  8
0
 62
7
  6
CONTINUOUS
 10
542.4626237601
 20
31.422267832
 11
542.4626237601
 21
30.8092577743
 12
542.1735617012
 22
30.8092577743
 13
542.1735617012
 23
30.8092577743
  0
SOLID
  8
0
 62
7
  6
CONTINUOUS
 10
543.2719989807
 20
31.8094314924
 11
543.6188739807
 21
31.8416958387
 12
543.9657489807
 22
31.8416958387
 13
543.9657489807
 23
31.8416958387
  0
SOLID
  8
0
 62
7
  6
CONTINUOUS
 10
543.9657489807
 20
31.8416958387
 11
544.3126239807
 21
31.8094314924
 12
543.2719989807
 22
31.8094314924
 13
543.2719989807
 23
31.8094314924
  0
SOLID
  8
0
 62
7
  6
CONTINUOUS
 10
543.0407492012
 20
31.7449043986
 11
543.2719989807
 21
31.8094314924
 12
544.3126239807
 22
31.8094314924
 13
544.3126239807
 23
31.8094314924
  0
SOLID
  8
0
 62
7
  6
CONTINUOUS
 10
543.0407492012
 20
31.7449043986
 11
544.3126239807
 21
31.8094314888
 12
544.4860614807
 22
31.7771687019
 13
544.4860614807
 23
31.7771687019
  0
SOLID
  8
0
 62
7
  6
CONTINUOUS
 10
543.0407492012
 20
31.7449043986
 11
544.4860614807
 21
31.7771687019
 12
543.6188739807
 22
31.7126401399
 13
543.6188739807
 23
31.7126401399
  0
SOLID
  8
0
 62
7
  6
CONTINUOUS
 10
543.6188739807
 20
31.7126401399
 11
544.4860614807
 21
31.7771687019
 12
543.9657489807
 22
31.7126401399
 13
543.9657489807
 23
31.7126401399
  0
SOLID
  8
0
 62
7
  6
CONTINUOUS
 10
544.4860614807
 20
31.7771687019
 11
544.6594989807
 21
31.7126401399
 12
543.9657489807
 22
31.7126401399
 13
543.9657489807
 23
31.7126401399
  0
SOLID
  8
0
 62
7
  6
CONTINUOUS
 10
544.3126239807
 20
31.6803773084
 11
543.9657489807
 21
31.7126401399
 12
544.6594989807
 22
31.7126401399
 13
544.6594989807
 23
31.7126401399
  0
SOLID
  8
0
 62
7
  6
CONTINUOUS
 10
542.9251239807
 20
31.6481128977
 11
543.0407492012
 21
31.7449043986
 12
543.6188739807
 22
31.7126401399
 13
543.6188739807
 23
31.7126401399
  0
SOLID
  8
0
 62
7
  6
CONTINUOUS
 10
544.3126239807
 20
31.6803773084
 11
544.6594989807
 21
31.7126401399
 12
544.4282492012
 22
31.6481128977
 13
544.4282492012
 23
31.6481128977
  0
SOLID
  8
0
 62
7
  6
CONTINUOUS
 10
544.4282492012
 20
31.6481128977
 11
544.6594989807
 21
31.7126401399
 12
544.4860614807
 22
31.5835858812
 13
544.4860614807
 23
31.5835858812
  0
SOLID
  8
0
 62
7
  6
CONTINUOUS
 10
544.6594989807
 20
31.7126401399
 11
544.7751235396
 21
31.5835858812
 12
544.4860614807
 22
31.5835858812
 13
544.4860614807
 23
31.5835858812
  0
SOLID
  8
0
 62
7
  6
CONTINUOUS
 10
534.0798114807
 20
31.6803773084
 11
533.5594989807
 21
31.6481129264
 12
534.3110615082
 22
31.7126401456
 13
534.3110615082
 23
31.7126401456
  0
SOLID
  8
0
 62
7
  6
CONTINUOUS
 10
533.5594989807
 20
31.6481129264
 11
533.6751239738
 21
31.7126401456
 12
534.3110615082
 22
31.7126401456
 13
534.3110615082
 23
31.7126401456
  0
SOLID
  8
0
 62
7
  6
CONTINUOUS
 10
534.0798114807
 20
31.6803773084
 11
533.9641864669
 21
31.6481129264
 12
533.5594989807
 22
31.6481129264
 13
533.5594989807
 23
31.6481129264
  0
SOLID
  8
0
 62
7
  6
CONTINUOUS
 10
533.4438739824
 20
31.5190588248
 11
533.5594989807
 21
31.6481129264
 12
533.9641864669
 22
31.6481129264
 13
533.9641864669
 23
31.6481129264
  0
SOLID
  8
0
 62
7
  6
CONTINUOUS
 10
537.7798115909
 20
31.6481130555
 11
538.4735615909
 21
31.7126400953
 12
538.2423114807
 22
31.6803773084
 13
538.2423114807
 23
31.6803773084
  0
SOLID
  8
0
 62
7
  6
CONTINUOUS
 10
538.2423114807
 20
31.6803773084
 11
538.1266865909
 21
31.6481130555
 12
537.7798115909
 22
31.6481130555
 13
537.7798115909
 23
31.6481130555
  0
SOLID
  8
0
 62
7
  6
CONTINUOUS
 10
537.7798115909
 20
31.5835859653
 11
537.7798115909
 21
31.6481130555
 12
538.1266865909
 22
31.6481130555
 13
538.1266865909
 23
31.6481130555
  0
SOLID
  8
0
 62
7
  6
CONTINUOUS
 10
538.1266865909
 20
31.6481130555
 11
538.0688739807
 21
31.5835859653
 12
537.7798115909
 22
31.5835859653
 13
537.7798115909
 23
31.5835859653
  0
SOLID
  8
0
 62
7
  6
CONTINUOUS
 10
542.9251239807
 20
31.6481130555
 11
543.6188739807
 21
31.7126400953
 12
543.3876242012
 22
31.6803773084
 13
543.3876242012
 23
31.6803773084
  0
SOLID
  8
0
 62
7
  6
CONTINUOUS
 10
543.3876242012
 20
31.6803773084
 11
543.2719989807
 21
31.6481130555
 12
542.9251239807
 22
31.6481130555
 13
542.9251239807
 23
31.6481130555
  0
SOLID
  8
0
 62
7
  6
CONTINUOUS
 10
542.9251239807
 20
31.5835859653
 11
542.9251239807
 21
31.6481130555
 12
543.2719989807
 22
31.6481130555
 13
543.2719989807
 23
31.6481130555
  0
SOLID
  8
0
 62
7
  6
CONTINUOUS
 10
543.2719989807
 20
31.6481130555
 11
543.2141867012
 21
31.5835859653
 12
542.9251239807
 22
31.5835859653
 13
542.9251239807
 23
31.5835859653
  0
SOLID
  8
0
 62
7
  6
CONTINUOUS
 10
543.0407492012
 20
31.4545317347
 11
542.9251239807
 21
31.5835859653
 12
543.2141867012
 22
31.5835859653
 13
543.2141867012
 23
31.5835859653
  0
SOLID
  8
0
 62
7
  6
CONTINUOUS
 10
533.4438739824
 20
31.5190588248
 11
533.9641864669
 21
31.6481130052
 12
533.7907489669
 22
31.5513216117
 13
533.7907489669
 23
31.5513216117
  0
SOLID
  8
0
 62
7
  6
CONTINUOUS
 10
533.7907489669
 20
31.5513216117
 11
533.7329364807
 21
31.4867945216
 12
533.4438739824
 22
31.5190588248
 13
533.4438739824
 23
31.5190588248
  0
SOLID
  8
0
 62
7
  6
CONTINUOUS
 10
533.3860614807
 20
31.325476038
 11
533.4438739824
 21
31.5190588248
 12
533.7329364807
 22
31.4867945216
 13
533.7329364807
 23
31.4867945216
  0
SOLID
  8
0
 62
7
  6
CONTINUOUS
 10
538.2423114807
 20
31.4545317347
 11
538.5891864807
 21
31.4867945557
 12
539.2251242012
 22
31.4867945557
 13
539.2251242012
 23
31.4867945557
  0
SOLID
  8
0
 62
7
  6
CONTINUOUS
 10
538.2423114807
 20
31.4545317347
 11
539.2251242012
 21
31.4867945557
 12
538.0110613704
 22
31.3900038345
 13
538.0110613704
 23
31.3900038345
  0
SOLID
  8
0
 62
7
  6
CONTINUOUS
 10
538.0110613704
 20
31.3900038345
 11
539.2251242012
 21
31.4867945557
 12
538.5891864807
 22
31.3577403754
 13
538.5891864807
 23
31.3577403754
  0
SOLID
  8
0
 62
7
  6
CONTINUOUS
 10
539.2251242012
 20
31.4867945557
 11
539.2251242012
 21
31.3577403754
 12
538.5891864807
 22
31.3577403754
 13
538.5891864807
 23
31.3577403754
  0
SOLID
  8
0
 62
7
  6
CONTINUOUS
 10
543.0407492012
 20
31.4545313481
 11
543.2141867012
 21
31.583585915
 12
543.2719989807
 22
31.5190588248
 13
543.2719989807
 23
31.5190588248
  0
SOLID
  8
0
 62
7
  6
CONTINUOUS
 10
543.2719989807
 20
31.5190588248
 11
543.4454364807
 21
31.4545313481
 12
543.0407492012
 22
31.4545313481
 13
543.0407492012
 23
31.4545313481
  0
SOLID
  8
0
 62
7
  6
CONTINUOUS
 10
543.2719989807
 20
31.3577403412
 11
543.0407492012
 21
31.4545313481
 12
543.4454364807
 22
31.4545313481
 13
543.4454364807
 23
31.4545313481
  0
SOLID
  8
0
 62
7
  6
CONTINUOUS
 10
543.4454364807
 20
31.4545313481
 11
544.4282492012
 21
31.2932132511
 12
543.2719989807
 22
31.3577403412
 13
543.2719989807
 23
31.3577403412
  0
SOLID
  8
0
 62
7
  6
CONTINUOUS
 10
544.2548117012
 20
31.1964222346
 11
543.2719989807
 21
31.3577403412
 12
544.4282492012
 22
31.2932132511
 13
544.4282492012
 23
31.2932132511
  0
SOLID
  8
0
 62
7
  6
CONTINUOUS
 10
544.4282492012
 20
31.2932132511
 11
544.6594989807
 21
31.1964222346
 12
544.2548117012
 22
31.1964222346
 13
544.2548117012
 23
31.1964222346
  0
SOLID
  8
0
 62
7
  6
CONTINUOUS
 10
544.4282492012
 20
31.1318947675
 11
544.2548117012
 21
31.1964222346
 12
544.6594989807
 22
31.1964222346
 13
544.6594989807
 23
31.1964222346
  0
SOLID
  8
0
 62
7
  6
CONTINUOUS
 10
544.4282492012
 20
31.1318947675
 11
544.6594989807
 21
31.1964222346
 12
544.4860614807
 22
31.0673665164
 13
544.4860614807
 23
31.0673665164
  0
SOLID
  8
0
 62
7
  6
CONTINUOUS
 10
544.6594989807
 20
31.1964222346
 11
544.7751235396
 21
31.0673665164
 12
544.4860614807
 22
31.0673665164
 13
544.4860614807
 23
31.0673665164
  0
SOLID
  8
0
 62
7
  6
CONTINUOUS
 10
544.4282492012
 20
31.0028394316
 11
544.4860614807
 21
31.0673665164
 12
544.7751235396
 22
31.0673665164
 13
544.7751235396
 23
31.0673665164
  0
SOLID
  8
0
 62
7
  6
CONTINUOUS
 10
544.7751235396
 20
31.0673665164
 11
544.7751235396
 21
31.0028394316
 12
544.4282492012
 22
31.0028394316
 13
544.4282492012
 23
31.0028394316
  0
SOLID
  8
0
 62
7
  6
CONTINUOUS
 10
544.3126239807
 20
30.9705762839
 11
544.4282492012
 21
31.0028394316
 12
544.7751235396
 22
31.0028394316
 13
544.7751235396
 23
31.0028394316
  0
SOLID
  8
0
 62
7
  6
CONTINUOUS
 10
544.3126239807
 20
30.9705762839
 11
544.7751235396
 21
31.0028394316
 12
544.0813742012
 22
30.9383123468
 13
544.0813742012
 23
30.9383123468
  0
SOLID
  8
0
 62
7
  6
CONTINUOUS
 10
544.7751235396
 20
31.0028394316
 11
544.6594989807
 21
30.9060491937
 12
544.0813742012
 22
30.9383123468
 13
544.0813742012
 23
30.9383123468
  0
SOLID
  8
0
 62
7
  6
CONTINUOUS
 10
544.6594989807
 20
30.9060491937
 11
543.2141867012
 21
30.8737848904
 12
544.0813742012
 22
30.9383123468
 13
544.0813742012
 23
30.9383123468
  0
SOLID
  8
0
 62
7
  6
CONTINUOUS
 10
544.0813742012
 20
30.9383123468
 11
543.2141867012
 21
30.8737848904
 12
543.7344992012
 22
30.9383123468
 13
543.7344992012
 23
30.9383123468
  0
SOLID
  8
0
 62
7
  6
CONTINUOUS
 10
543.2141867012
 20
30.8737848904
 11
543.0407492012
 21
30.9383123468
 12
543.7344992012
 22
30.9383123468
 13
543.7344992012
 23
30.9383123468
  0
SOLID
  8
0
 62
7
  6
CONTINUOUS
 10
543.2141867012
 20
30.8737848904
 11
544.6594989807
 21
30.9060491937
 12
543.3876242012
 22
30.8415205581
 13
543.3876242012
 23
30.8415205581
  0
SOLID
  8
0
 62
7
  6
CONTINUOUS
 10
544.6594989807
 20
30.9060491937
 11
544.4282492012
 21
30.8415205581
 12
543.3876242012
 22
30.8415205581
 13
543.3876242012
 23
30.8415205581
  0
SOLID
  8
0
 62
7
  6
CONTINUOUS
 10
543.7344992012
 20
30.8092581772
 11
543.3876242012
 21
30.8415205581
 12
544.4282492012
 22
30.8415205581
 13
544.4282492012
 23
30.8415205581
  0
SOLID
  8
0
 62
7
  6
CONTINUOUS
 10
544.4282492012
 20
30.8415205581
 11
544.0813742012
 21
30.8092581772
 12
543.7344992012
 22
30.8092581772
 13
543.7344992012
 23
30.8092581772
  0
SOLID
  8
0
 62
7
  6
CONTINUOUS
 10
533.3860614807
 20
31.325476038
 11
533.7329364807
 21
31.4867945216
 12
533.6751239738
 22
31.3577403412
 13
533.6751239738
 23
31.3577403412
  0
SOLID
  8
0
 62
7
  6
CONTINUOUS
 10
533.6751239738
 20
31.3577403412
 11
533.6751239738
 21
31.2609490436
 12
533.3860614807
 22
31.325476038
 13
533.3860614807
 23
31.325476038
  0
SOLID
  8
0
 62
7
  6
CONTINUOUS
 10
533.4438739824
 20
31.1318947675
 11
533.3860614807
 21
31.325476038
 12
533.6751239738
 22
31.2609490436
 13
533.6751239738
 23
31.2609490436
  0
SOLID
  8
0
 62
7
  6
CONTINUOUS
 10
533.6751239738
 20
31.2609490436
 11
533.7907489669
 21
31.0996304642
 12
533.4438739824
 22
31.1318947675
 13
533.4438739824
 23
31.1318947675
  0
SOLID
  8
0
 62
7
  6
CONTINUOUS
 10
533.5594989807
 20
31.0028388804
 11
533.4438739824
 21
31.1318947675
 12
533.7907489669
 22
31.0996304642
 13
533.7907489669
 23
31.0996304642
  0
SOLID
  8
0
 62
7
  6
CONTINUOUS
 10
533.7907489669
 20
31.0996304642
 11
533.9641864669
 21
31.0028388804
 12
533.5594989807
 22
31.0028388804
 13
533.5594989807
 23
31.0028388804
  0
SOLID
  8
0
 62
7
  6
CONTINUOUS
 10
533.6751239738
 20
30.9383122606
 11
533.5594989807
 21
31.0028388804
 12
533.9641864669
 22
31.0028388804
 13
533.9641864669
 23
31.0028388804
  0
SOLID
  8
0
 62
7
  6
CONTINUOUS
 10
533.9641864669
 20
31.0028388804
 11
534.3110615082
 21
30.9383122606
 12
533.6751239738
 22
30.9383122606
 13
533.6751239738
 23
30.9383122606
  0
SOLID
  8
0
 62
7
  6
CONTINUOUS
 10
533.8485614944
 20
30.8737848904
 11
533.6751239738
 21
30.9383122606
 12
534.3110615082
 22
30.9383122606
 13
534.3110615082
 23
30.9383122606
  0
SOLID
  8
0
 62
7
  6
CONTINUOUS
 10
537.8954364807
 20
31.3254759532
 11
538.0110613704
 21
31.3900038345
 12
538.5891864807
 22
31.3577403412
 13
538.5891864807
 23
31.3577403412
  0
SOLID
  8
0
 62
7
  6
CONTINUOUS
 10
538.5891864807
 20
31.3577403412
 11
538.3579363704
 21
31.3254759532
 12
537.8954364807
 22
31.3254759532
 13
537.8954364807
 23
31.3254759532
  0
SOLID
  8
0
 62
7
  6
CONTINUOUS
 10
537.7798115909
 20
31.1964218576
 11
537.8954364807
 21
31.3254759532
 12
538.3579363704
 22
31.3254759532
 13
538.3579363704
 23
31.3254759532
  0
SOLID
  8
0
 62
7
  6
CONTINUOUS
 10
538.1266865909
 20
31.2286853572
 11
537.7798115909
 21
31.1964218576
 12
538.2423114807
 22
31.2932132511
 13
538.2423114807
 23
31.2932132511
  0
SOLID
  8
0
 62
7
  6
CONTINUOUS
 10
537.7798115909
 20
31.1964218576
 11
538.3579363704
 21
31.325476038
 12
538.2423114807
 22
31.2932132511
 13
538.2423114807
 23
31.2932132511
  0
SOLID
  8
0
 62
7
  6
CONTINUOUS
 10
538.1266865909
 20
31.2286853572
 11
538.0688739807
 21
31.1318947675
 12
537.7798115909
 22
31.1964218576
 13
537.7798115909
 23
31.1964218576
  0
SOLID
  8
0
 62
7
  6
CONTINUOUS
 10
537.7798115909
 20
31.0996304642
 11
537.7798115909
 21
31.1964218576
 12
538.0688739807
 22
31.1318947675
 13
538.0688739807
 23
31.1318947675
  0
SOLID
  8
0
 62
7
  6
CONTINUOUS
 10
538.0688739807
 20
31.1318947675
 11
538.0688739807
 21
31.0673661609
 12
537.7798115909
 22
31.0996304642
 13
537.7798115909
 23
31.0996304642
  0
SOLID
  8
0
 62
7
  6
CONTINUOUS
 10
537.8376238704
 20
30.9705762839
 11
537.7798115909
 21
31.0996304642
 12
538.0688739807
 22
31.0673661609
 13
538.0688739807
 23
31.0673661609
  0
SOLID
  8
0
 62
7
  6
CONTINUOUS
 10
539.2251242012
 20
31.1641579843
 11
539.5141862601
 21
31.0673661609
 12
539.1673112601
 22
31.0996304642
 13
539.1673112601
 23
31.0996304642
  0
SOLID
  8
0
 62
7
  6
CONTINUOUS
 10
538.9938737601
 20
31.0028390707
 11
539.1673112601
 21
31.0996304642
 12
539.5141862601
 22
31.0673661609
 13
539.5141862601
 23
31.0673661609
  0
SOLID
  8
0
 62
7
  6
CONTINUOUS
 10
538.9938737601
 20
31.0028390707
 11
539.5141862601
 21
31.0673661609
 12
539.2251242012
 22
30.9705762839
 13
539.2251242012
 23
30.9705762839
  0
SOLID
  8
0
 62
7
  6
CONTINUOUS
 10
539.5141862601
 20
31.0673661609
 11
539.5719992012
 21
30.9060491937
 12
539.2251242012
 22
30.9705762839
 13
539.2251242012
 23
30.9705762839
  0
SOLID
  8
0
 62
7
  6
CONTINUOUS
 10
539.2829364807
 20
30.8737848904
 11
539.2251242012
 21
30.9705762839
 12
539.5719992012
 22
30.9060491937
 13
539.5719992012
 23
30.9060491937
  0
SOLID
  8
0
 62
7
  6
CONTINUOUS
 10
539.2829364807
 20
30.8737848904
 11
539.5719992012
 21
30.9060491937
 12
539.3407487601
 22
30.8092576254
 13
539.3407487601
 23
30.8092576254
  0
SOLID
  8
0
 62
7
  6
CONTINUOUS
 10
539.5719992012
 20
30.9060491937
 11
539.6298114807
 21
30.8092576254
 12
539.3407487601
 22
30.8092576254
 13
539.3407487601
 23
30.8092576254
  0
SOLID
  8
0
 62
7
  6
CONTINUOUS
 10
534.8891865358
 20
31.035103216
 11
534.9469989807
 21
31.1318946289
 12
535.2360615358
 22
31.1318946289
 13
535.2360615358
 23
31.1318946289
  0
SOLID
  8
0
 62
7
  6
CONTINUOUS
 10
535.2360615358
 20
31.1318946289
 11
535.1782489255
 21
31.0028390707
 12
534.8891865358
 22
31.035103216
 13
534.8891865358
 23
31.035103216
  0
SOLID
  8
0
 62
7
  6
CONTINUOUS
 10
534.7157489531
 20
30.9705762839
 11
534.8891865358
 21
31.035103216
 12
535.1782489255
 22
31.0028390707
 13
535.1782489255
 23
31.0028390707
  0
SOLID
  8
0
 62
7
  6
CONTINUOUS
 10
534.7157489531
 20
30.9705762839
 11
535.1782489255
 21
31.0028390707
 12
534.3110615082
 22
30.9383119806
 13
534.3110615082
 23
30.9383119806
  0
SOLID
  8
0
 62
7
  6
CONTINUOUS
 10
535.1782489255
 20
31.0028390707
 11
535.0048114255
 21
30.9060491937
 12
534.3110615082
 22
30.9383119806
 13
534.3110615082
 23
30.9383119806
  0
SOLID
  8
0
 62
7
  6
CONTINUOUS
 10
533.8485614944
 20
30.8737848904
 11
534.3110615082
 21
30.9383119806
 12
535.0048114255
 22
30.9060491937
 13
535.0048114255
 23
30.9060491937
  0
SOLID
  8
0
 62
7
  6
CONTINUOUS
 10
533.8485614944
 20
30.8737848904
 11
535.0048114255
 21
30.9060491937
 12
534.0219989944
 22
30.8415207131
 13
534.0219989944
 23
30.8415207131
  0
SOLID
  8
0
 62
7
  6
CONTINUOUS
 10
535.0048114255
 20
30.9060491937
 11
534.7735614807
 21
30.8415207131
 12
534.0219989944
 22
30.8415207131
 13
534.0219989944
 23
30.8415207131
  0
SOLID
  8
0
 62
7
  6
CONTINUOUS
 10
534.3688739531
 20
30.8092578002
 11
534.0219989944
 21
30.8415207131
 12
534.7735614807
 22
30.8415207131
 13
534.7735614807
 23
30.8415207131
  0
SOLID
  8
0
 62
7
  6
CONTINUOUS
 10
537.8376238704
 20
30.9705762839
 11
538.0688739807
 21
31.0673661609
 12
538.1266865909
 22
31.0028390707
 13
538.1266865909
 23
31.0028390707
  0
SOLID
  8
0
 62
7
  6
CONTINUOUS
 10
538.1266865909
 20
31.0028390707
 11
538.3579363704
 21
30.9383119806
 12
537.8376238704
 22
30.9705762839
 13
537.8376238704
 23
30.9705762839
  0
SOLID
  8
0
 62
7
  6
CONTINUOUS
 10
538.0110613704
 20
30.8737848904
 11
537.8376238704
 21
30.9705762839
 12
538.3579363704
 22
30.9383119806
 13
538.3579363704
 23
30.9383119806
  0
SOLID
  8
0
 62
7
  6
CONTINUOUS
 10
538.7048113704
 20
30.9383119664
 11
538.9938737601
 21
31.0028390707
 12
539.2251242012
 22
30.9705762839
 13
539.2251242012
 23
30.9705762839
  0
SOLID
  8
0
 62
7
  6
CONTINUOUS
 10
539.2251242012
 20
30.9705762839
 11
539.1673112601
 21
30.9060491937
 12
538.7048113704
 22
30.9383119664
 13
538.7048113704
 23
30.9383119664
  0
SOLID
  8
0
 62
7
  6
CONTINUOUS
 10
539.1673112601
 20
30.9060491937
 11
538.0110613704
 21
30.8737848904
 12
538.7048113704
 22
30.9383119664
 13
538.7048113704
 23
30.9383119664
  0
SOLID
  8
0
 62
7
  6
CONTINUOUS
 10
538.0110613704
 20
30.8737848904
 11
538.3579363704
 21
30.9383119664
 12
538.7048113704
 22
30.9383119664
 13
538.7048113704
 23
30.9383119664
  0
SOLID
  8
0
 62
7
  6
CONTINUOUS
 10
538.0110613704
 20
30.8737848904
 11
539.1673112601
 21
30.9060491937
 12
538.1266865909
 22
30.8415205568
 13
538.1266865909
 23
30.8415205568
  0
SOLID
  8
0
 62
7
  6
CONTINUOUS
 10
539.1673112601
 20
30.9060491937
 11
538.9938737601
 21
30.8415205568
 12
538.1266865909
 22
30.8415205568
 13
538.1266865909
 23
30.8415205568
  0
SOLID
  8
0
 62
7
  6
CONTINUOUS
 10
538.3579363704
 20
30.8092577215
 11
538.1266865909
 21
30.8415205568
 12
538.9938737601
 22
30.8415205568
 13
538.9938737601
 23
30.8415205568
  0
SOLID
  8
0
 62
7
  6
CONTINUOUS
 10
538.9938737601
 20
30.8415205568
 11
538.7048113704
 21
30.8092577215
 12
538.3579363704
 22
30.8092577215
 13
538.3579363704
 23
30.8092577215
  0
SOLID
  8
0
 62
7
  6
CONTINUOUS
 10
543.3876242012
 20
30.9705762839
 11
543.0407492012
 21
30.9383119664
 12
543.2719989807
 22
31.0028390707
 13
543.2719989807
 23
31.0028390707
  0
SOLID
  8
0
 62
7
  6
CONTINUOUS
 10
543.2719989807
 20
31.0028390707
 11
543.0407492012
 21
30.9383119664
 12
543.2141867012
 22
31.0673661467
 13
543.2141867012
 23
31.0673661467
  0
SOLID
  8
0
 62
7
  6
CONTINUOUS
 10
543.0407492012
 20
30.9383119664
 11
542.9251239807
 21
31.0673661467
 12
543.2141867012
 22
31.0673661467
 13
543.2141867012
 23
31.0673661467
  0
SOLID
  8
0
 62
7
  6
CONTINUOUS
 10
543.3876242012
 20
30.9705762839
 11
543.7344992012
 21
30.9383119664
 12
543.0407492012
 22
30.9383119664
 13
543.0407492012
 23
30.9383119664
  0
SOLID
  8
0
 62
7
  6
CONTINUOUS
 10
540.0923117012
 20
30.8092578002
 11
540.0923117012
 21
31.841695792
 12
540.3813737601
 22
30.8092578002
 13
540.3813737601
 23
31.841695792
  0
ENDBLK
  8
0
  6
BYBLOCK
 62
0
  0
BLOCK
  8
0
 62
2
  6
CONTINUOUS
  2
AMMEAAL_LOGO_BL0
 70
64
 10
416.1419631151
 20
19.7009994242
  0
TEXT
  8
0
 62
7
  6
CONTINUOUS
 10
402.4066669574
 20
19.0744135318
  7
TEXTSTYLE_3
 40
2.7338706658
  1
Ammeraal Beltech
 41
1.0
 51
15.0
 72
0
  0
TEXT
  8
0
 62
7
  6
CONTINUOUS
 10
413.2074677831
 20
16.800876859
  7
TEXTSTYLE_4
 40
1.0935482663
  1
Innovation & Service in Belting
 41
1.0
 72
0
  0
LINE
  8
0
 62
7
  6
CONTINUOUS
 10
396.382126306
 20
19.8410068404
 11
397.1602782994
 21
23.5019241381
  0
LINE
  8
0
 62
7
  6
CONTINUOUS
 10
407.2554465892
 20
27.1653180497
 11
397.6480960424
 21
24.0437006284
  0
LINE
  8
0
 62
7
  6
CONTINUOUS
 10
396.6074096383
 20
19.1476560374
 11
404.1144848995
 21
12.3882551114
  0
LINE
  8
0
 62
7
  6
CONTINUOUS
 10
396.869944049
 20
20.3827833308
 11
407.6782134142
 21
23.8946029297
  0
LINE
  8
0
 62
7
  6
CONTINUOUS
 10
407.674008277
 20
13.544814366
 11
399.2285486083
 21
21.1491404077
  0
LINE
  8
0
 62
7
  6
CONTINUOUS
 10
408.1938309968
 20
26.320392934
 11
407.2172714596
 21
21.7260415315
  0
LINE
  8
0
 62
7
  6
CONTINUOUS
 10
406.5174695119
 20
18.4337322177
 11
405.8310213004
 21
15.2042472933
  0
LINE
  8
0
 62
7
  6
CONTINUOUS
 10
408.8749270954
 20
13.9350165436
 11
409.831158631
 21
18.4337322177
  0
LINE
  8
0
 62
7
  6
CONTINUOUS
 10
410.5309605787
 20
21.7260415315
 11
410.9752023811
 21
23.8160348909
  0
LINE
  8
0
 62
7
  6
CONTINUOUS
 10
404.8275859748
 20
12.2366807987
 11
408.3871093524
 21
13.3932400533
  0
LINE
  8
0
 62
7
  6
CONTINUOUS
 10
407.9685476645
 20
27.013743737
 11
410.7499190488
 21
24.5093856939
  0
ARC
  8
0
 62
7
  6
CONTINUOUS
 10
397.8733793747
 20
23.3503498254
 40
0.7290321776
 50
108.0
 51
168.0
  0
ARC
  8
0
 62
7
  6
CONTINUOUS
 10
407.4807299215
 20
26.4719672466
 40
0.7290321776
 50
348.0
 51
108.0
  0
ARC
  8
0
 62
7
  6
CONTINUOUS
 10
410.2621013058
 20
23.9676092036
 40
0.7290321776
 50
348.0
 51
48.0
  0
ARC
  8
0
 62
7
  6
CONTINUOUS
 10
404.6023026425
 20
12.9300316018
 40
0.7290321776
 50
228.0
 51
288.0
  0
ARC
  8
0
 62
7
  6
CONTINUOUS
 10
397.0952273813
 20
19.6894325277
 40
0.7290321776
 50
108.0
 51
228.0
  0
ARC
  8
0
 62
7
  6
CONTINUOUS
 10
408.1618260201
 20
14.0865908563
 40
0.7290321776
 50
228.0
 51
348.0
  0
ENDBLK
  8
0
  6
BYBLOCK
 62
0
  0
BLOCK
  8
0
  2
_FILLED
 70
64
 10
0.0
 20
0.0
  0
SOLID
  8
0
  6
BYBLOCK
 62
0
 10
0.0
 20
0.0
 11
-1.0
 21
0.2142857143
 12
-1.0
 22
-0.2142857143
 13
-1.0
 23
-0.2142857143
  0
ENDBLK
  8
0
  6
BYBLOCK
 62
0
  0
ENDSEC
  0
SECTION
  2
ENTITIES
  0
TEXT
  8
0
 62
5
  6
CONTINUOUS
 10
480.0
 20
25.636
  7
TEXTSTYLE_2
 40
2.8
  1
Scale :
 41
0.6
 51
0.000019
 72
0
  0
TEXT
  8
0
 62
5
  6
CONTINUOUS
 10
500.0
 20
25.636
  7
TEXTSTYLE_2
 40
2.8
  1
Chain type:
 41
0.6
 51
0.000019
 72
0
  0
INSERT
  8
0
 62
2
  6
CONTINUOUS
  2
AMMEAAL_LOGO_BL0
 10
416.1419631151
 20
19.7009994242
  0
INSERT
  8
0
 62
2
  6
CONTINUOUS
  2
UNI_LOGO2_BL1
 10
557.4079930916
 20
35.8092573885
  0
LINE
  8
0
 62
2
  6
CONTINUOUS
 10
394.0
 20
30.0
 11
584.0
 21
30.0
  0
LINE
  8
0
 62
2
  6
CONTINUOUS
 10
394.0
 20
30.0
 11
394.0
 21
10.0
  0
LINE
  8
0
 62
2
  6
CONTINUOUS
 10
394.0
 20
10.0
 11
584.0
 21
10.0
  0
LINE
  8
0
 62
2
  6
CONTINUOUS
 10
479.0
 20
30.0
 11
479.0
 21
10.0
  0
LINE
  8
0
 62
2
  6
CONTINUOUS
 10
499.0
 20
30.0
 11
499.0
 21
10.0
  0
LINE
  8
0
 62
2
  6
CONTINUOUS
 10
584.0
 20
30.0
 11
584.0
 21
10.0
  0
TEXT
  8
0
 62
5
  6
CONTINUOUS
 10
397.0
 20
23.303
  7
TEXTSTYLE_5
 40
1.52
  1
                                                                     Ammeraal Beltech Modular A/S
 41
1.0
 72
0
  0
TEXT
  8
0
 62
5
  6
CONTINUOUS
 10
397.0
 20
20.595
  7
TEXTSTYLE_5
 40
1.5
  1
                                                                      Hjulmagervej 21, 7100 Vejle,  DK
 41
1.0
 72
0
  0
TEXT
  8
0
 62
5
  6
CONTINUOUS
 10
397.0
 20
17.881
  7
TEXTSTYLE_5
 40
1.495
  1
                                                                      tel: 
 41
1.0
 72
0
  0
TEXT
  8
0
 62
5
  6
CONTINUOUS
 10
441.9869465649
 20
17.881
  7
TEXTSTYLE_5
 40
1.51
  1
+45 75723100     fax: +45 75723348
 41
1.0
 72
0
  0
TEXT
  8
0
 62
5
  6
CONTINUOUS
 10
397.0
 20
15.177
  7
TEXTSTYLE_5
 40
1.5
  1
                                                                      admin@unichains.dk  www.unichains.com
 41
1.0
 72
0
  0
TEXT
  8
0
 62
5
  6
CONTINUOUS
 10
483.75
 20
13.75
  7
TEXTSTYLE_6
 40
5.0
  1
1:1
 41
0.7
 72
1
 11
489.0
 21
13.75
  0
TEXT
  8
0
 62
5
  6
CONTINUOUS
 10
502.0
 20
13.75
  7
TEXTSTYLE_7
 40
7.5
  1
Z15 Bore 60SQ
 41
0.6897435897
 72
0
  0
LINE
  8
0
 62
7
  6
CONTINUOUS
 10
-0.0
 20
-0.0
 11
-0.0
 21
420.0
  0
LINE
  8
0
 62
7
  6
CONTINUOUS
 10
10.0
 20
10.0
 11
10.0
 21
410.0
  0
LINE
  8
0
 62
7
  6
CONTINUOUS
 10
-0.0
 20
-0.0
 11
594.0
 21
-0.0
  0
LINE
  8
0
 62
7
  6
CONTINUOUS
 10
10.0
 20
10.0
 11
584.0
 21
10.0
  0
LINE
  8
0
 62
7
  6
CONTINUOUS
 10
394.0
 20
30.0
 11
584.0
 21
30.0
  0
LINE
  8
0
 62
7
  6
CONTINUOUS
 10
179.0
 20
5.0
 11
179.0
 21
10.0
  0
LINE
  8
0
 62
7
  6
CONTINUOUS
 10
179.0
 20
410.0
 11
179.0
 21
415.0
  0
LINE
  8
0
 62
7
  6
CONTINUOUS
 10
384.0
 20
410.0
 11
384.0
 21
415.0
  0
LINE
  8
0
 62
7
  6
CONTINUOUS
 10
5.0
 20
297.0
 11
10.0
 21
297.0
  0
LINE
  8
0
 62
7
  6
CONTINUOUS
 10
584.0
 20
297.0
 11
589.0
 21
297.0
  0
LINE
  8
0
 62
7
  6
CONTINUOUS
 10
10.0
 20
410.0
 11
584.0
 21
410.0
  0
LINE
  8
0
 62
7
  6
CONTINUOUS
 10
-0.0
 20
420.0
 11
594.0
 21
420.0
  0
LINE
  8
0
 62
7
  6
CONTINUOUS
 10
584.0
 20
10.0
 11
584.0
 21
410.0
  0
LINE
  8
0
 62
7
  6
CONTINUOUS
 10
594.0
 20
-0.0
 11
594.0
 21
420.0
  0
LINE
  8
0
 62
7
  6
CONTINUOUS
 10
132.0318458924
 20
344.4405630459
 11
108.2764038622
 21
333.8639588219
  0
LINE
  8
0
 62
7
  6
CONTINUOUS
 10
221.3069534285
 20
98.6221281146
 11
246.7422817222
 21
104.0285740416
  0
LINE
  8
0
 62
7
  6
CONTINUOUS
 10
166.6647515676
 20
96.7524068287
 11
192.1000798613
 21
91.3459609017
  0
LINE
  8
0
 62
7
  6
CONTINUOUS
 10
115.9861321027
 20
117.2693171962
 11
137.0234610617
 21
101.9848030319
  0
LINE
  8
0
 62
7
  6
CONTINUOUS
 10
78.0338887401
 20
156.6252990241
 11
91.0356730693
 21
134.105547977
  0
LINE
  8
0
 62
7
  6
CONTINUOUS
 10
59.3703091425
 20
208.0153455166
 11
62.0884222139
 21
182.1542271282
  0
LINE
  8
0
 62
7
  6
CONTINUOUS
 10
63.2224957756
 20
262.5536507712
 11
55.1869511458
 21
237.8227873518
  0
LINE
  8
0
 62
7
  6
CONTINUOUS
 10
88.9243705746
 20
310.8100463443
 11
71.5245869108
 21
291.485628852
  0
LINE
  8
0
 62
7
  6
CONTINUOUS
 10
198.0171339508
 20
338.8048169563
 11
197.6258854021
 21
338.5751706512
  0
LINE
  8
0
 62
7
  6
CONTINUOUS
 10
201.7505186054
 20
341.5418245312
 11
201.3498856787
 21
341.3289728408
  0
LINE
  8
0
 62
7
  6
CONTINUOUS
 10
201.2941358833
 20
340.8213870161
 11
201.6947688099
 21
341.0342387066
  0
LINE
  8
0
 62
7
  6
CONTINUOUS
 10
197.5917063552
 20
338.0656774896
 11
197.8496905872
 21
338.1763172725
  0
LINE
  8
0
 62
7
  6
CONTINUOUS
 10
228.0862825714
 20
331.5424184483
 11
228.6851354033
 21
331.7374798047
  0
LINE
  8
0
 62
7
  6
CONTINUOUS
 10
197.8496905872
 20
338.1763172725
 11
198.2494837224
 21
338.5333369273
  0
LINE
  8
0
 62
7
  6
CONTINUOUS
 10
201.3498856787
 20
341.3289728408
 11
201.0735050729
 21
341.1024741154
  0
LINE
  8
0
 62
7
  6
CONTINUOUS
 10
201.0177552775
 20
340.5948882907
 11
201.2941358833
 21
340.8213870161
  0
LINE
  8
0
 62
7
  6
CONTINUOUS
 10
229.4344190222
 20
334.9926216096
 11
229.1137802457
 21
334.8348889846
  0
LINE
  8
0
 62
7
  6
CONTINUOUS
 10
228.5435562522
 20
332.4641190494
 11
228.222917446
 21
332.3063863401
  0
LINE
  8
0
 62
7
  6
CONTINUOUS
 10
249.9727202357
 20
327.6016710145
 11
248.8710664952
 21
327.2177306203
  0
LINE
  8
0
 62
7
  6
CONTINUOUS
 10
248.3484407018
 20
326.3403090302
 11
249.4500946253
 21
326.7242497316
  0
LINE
  8
0
 62
7
  6
CONTINUOUS
 10
241.8938624295
 20
326.1393407976
 11
247.7005690848
 21
327.9237132319
  0
LINE
  8
0
 62
7
  6
CONTINUOUS
 10
247.2733272282
 20
328.4464747765
 11
241.3567946276
 21
326.7217854189
  0
LINE
  8
0
 62
7
  6
CONTINUOUS
 10
198.2922075305
 20
339.170203371
 11
198.0171339508
 21
338.8048169563
  0
LINE
  8
0
 62
7
  6
CONTINUOUS
 10
229.5759982178
 20
334.2659824914
 11
230.0993757179
 21
334.6229872553
  0
LINE
  8
0
 62
7
  6
CONTINUOUS
 10
228.6851354033
 20
331.7374798047
 11
229.2085129182
 21
332.0944846108
  0
LINE
  8
0
 62
7
  6
CONTINUOUS
 10
252.3232947235
 20
320.705837566
 11
251.9056062056
 21
320.5195342678
  0
LINE
  8
0
 62
7
  6
CONTINUOUS
 10
251.9439156509
 20
319.8871508073
 11
252.5358472954
 21
320.1129679524
  0
LINE
  8
0
 62
7
  6
CONTINUOUS
 10
213.8622396938
 20
337.6577442293
 11
215.7258671653
 21
340.7678901137
  0
LINE
  8
0
 62
7
  6
CONTINUOUS
 10
212.7984912735
 20
335.8054250392
 11
213.6267696716
 21
337.1877121469
  0
LINE
  8
0
 62
7
  6
CONTINUOUS
 10
215.3520013085
 20
341.3769674925
 11
212.0672871029
 21
335.9722796495
  0
LINE
  8
0
 62
7
  6
CONTINUOUS
 10
224.2688530189
 20
339.0268944287
 11
220.9740891045
 21
334.4000158576
  0
LINE
  8
0
 62
7
  6
CONTINUOUS
 10
221.2764264196
 20
333.6476746502
 11
224.2732800129
 21
337.696367575
  0
LINE
  8
0
 62
7
  6
CONTINUOUS
 10
229.6795797796
 20
335.3122986243
 11
229.4344190222
 21
334.9926216096
  0
LINE
  8
0
 62
7
  6
CONTINUOUS
 10
230.0993757179
 20
334.6229872553
 11
230.3445364754
 21
334.94266427
  0
LINE
  8
0
 62
7
  6
CONTINUOUS
 10
228.7887170097
 20
332.7837960642
 11
228.5435562522
 21
332.4641190494
  0
LINE
  8
0
 62
7
  6
CONTINUOUS
 10
229.2085129182
 20
332.0944846108
 11
229.4536737054
 21
332.4141617099
  0
LINE
  8
0
 62
7
  6
CONTINUOUS
 10
183.3332450837
 20
262.3949145187
 11
153.4157059838
 21
232.4773754188
  0
LINE
  8
0
 62
7
  6
CONTINUOUS
 10
252.635943412
 20
320.9599015831
 11
252.3232947235
 21
320.705837566
  0
LINE
  8
0
 62
7
  6
CONTINUOUS
 10
252.5358472954
 20
320.1129679524
 11
253.0919413509
 21
320.5138213833
  0
LINE
  8
0
 62
7
  6
CONTINUOUS
 10
153.4157059838
 20
219.9685076475
 11
183.3332450837
 21
190.0509685476
  0
LINE
  8
0
 62
7
  6
CONTINUOUS
 10
143.464439811
 20
85.2054797262
 11
141.8694378569
 21
77.7015855082
  0
LINE
  8
0
 62
7
  6
CONTINUOUS
 10
90.095034314
 20
116.1570913142
 11
85.5858187797
 21
109.9506885772
  0
LINE
  8
0
 62
7
  6
CONTINUOUS
 10
53.9288109403
 20
166.1400883219
 11
47.2850661565
 21
162.3043204826
  0
LINE
  8
0
 62
7
  6
CONTINUOUS
 10
334.6538236757
 20
195.0927088814
 11
342.2833338792
 21
194.2908150461
  0
LINE
  8
0
 62
7
  6
CONTINUOUS
 10
309.4503901967
 20
138.780342177
 11
316.0941349804
 21
134.9445743377
  0
LINE
  8
0
 62
7
  6
CONTINUOUS
 10
263.5216050278
 20
97.5875952923
 11
268.0308205622
 21
91.3811925553
  0
LINE
  8
0
 62
7
  6
CONTINUOUS
 10
204.8089723749
 20
78.6370683881
 11
206.403974329
 21
71.1331741701
  0
LINE
  8
DEFAULT_1
 62
2
  6
CENTER
 10
189.5876789693
 20
226.2229415332
 11
189.5876789693
 21
81.9092650808
  0
LINE
  8
DEFAULT_1
 62
2
  6
CENTER
 10
189.5876789693
 20
226.2229415332
 11
189.5876789693
 21
370.5366179855
  0
LINE
  8
0
 62
7
  6
CONTINUOUS
 10
195.3622004921
 20
342.1815841405
 11
195.1913052716
 21
339.6341185443
  0
LINE
  8
0
 62
7
  6
CONTINUOUS
 10
195.8149036365
 20
339.5922848174
 11
195.9857988569
 21
342.1397504136
  0
LINE
  8
0
 62
7
  6
CONTINUOUS
 10
193.3952365308
 20
369.178790185
 11
192.6417527758
 21
358.4034704749
  0
LINE
  8
0
 62
7
  6
CONTINUOUS
 10
200.5219282246
 20
341.805191844
 11
200.0759298222
 21
337.7445048913
  0
LINE
  8
0
 62
7
  6
CONTINUOUS
 10
200.6971939147
 20
337.6762694434
 11
201.0177552775
 21
340.5948882907
  0
LINE
  8
0
 62
7
  6
CONTINUOUS
 10
201.0735050729
 20
341.1024741154
 11
201.1431923172
 21
341.7369563962
  0
LINE
  8
0
 62
7
  6
CONTINUOUS
 10
205.3630061988
 20
343.16410925
 11
205.2759980401
 21
342.5317694228
  0
LINE
  8
0
 62
7
  6
CONTINUOUS
 10
205.101981674
 20
341.2670894142
 11
204.5451294096
 21
337.2201141661
  0
LINE
  8
0
 62
7
  6
CONTINUOUS
 10
205.164295328
 20
337.1349186997
 11
205.7211475924
 21
341.1818939478
  0
LINE
  8
0
 62
7
  6
CONTINUOUS
 10
205.8951639585
 20
342.4465739564
 11
205.9821721172
 21
343.0789137836
  0
LINE
  8
0
 62
7
  6
CONTINUOUS
 10
219.5869367301
 20
340.3853019218
 11
217.9150500941
 21
334.6229417217
  0
LINE
  8
0
 62
7
  6
CONTINUOUS
 10
218.6353451191
 20
334.4139558922
 11
219.9515112367
 21
338.9502821533
  0
LINE
  8
0
 62
7
  6
CONTINUOUS
 10
226.6187000683
 20
338.2856522277
 11
224.6248642404
 21
332.6266223911
  0
LINE
  8
0
 62
7
  6
CONTINUOUS
 10
225.5867752027
 20
333.0998222517
 11
226.2231057994
 21
334.9058956414
  0
LINE
  8
0
 62
7
  6
CONTINUOUS
 10
226.4776380024
 20
335.6283248962
 11
227.0715465949
 21
337.3139934945
  0
LINE
  8
0
 62
7
  6
CONTINUOUS
 10
251.2114378731
 20
355.2709345316
 11
246.1403788443
 21
345.7336596089
  0
LINE
  8
0
 62
7
  6
CONTINUOUS
 10
243.7340495749
 20
331.09629636
 11
243.4292733379
 21
330.5354616944
  0
LINE
  8
0
 62
7
  6
CONTINUOUS
 10
241.3567946276
 20
326.7217854189
 11
240.8691526057
 21
325.8244498755
  0
LINE
  8
0
 62
7
  6
CONTINUOUS
 10
248.8710664952
 20
327.2177306203
 11
248.3484407018
 21
326.3403090302
  0
LINE
  8
0
 62
7
  6
CONTINUOUS
 10
249.4500946253
 20
326.7242497316
 11
246.9022944086
 21
322.4468203629
  0
LINE
  8
0
 62
7
  6
CONTINUOUS
 10
251.6633893939
 20
326.6005718841
 11
249.8641172103
 21
323.8114198594
  0
LINE
  8
0
 62
7
  6
CONTINUOUS
 10
250.7353319125
 20
324.0089899605
 11
251.8425764078
 21
325.7253913221
  0
LINE
  8
0
 62
7
  6
CONTINUOUS
 10
298.3723314665
 20
319.0495085245
 11
289.8605293393
 21
312.3993598668
  0
LINE
  8
0
 62
7
  6
CONTINUOUS
 10
47.0169592734
 20
215.0666857213
 11
57.8120111537
 21
215.4436572396
  0
LINE
  8
DEFAULT_1
 62
2
  6
CENTER
 10
189.5876789693
 20
226.2229415332
 11
45.274002517
 21
226.2229415332
  0
LINE
  8
DEFAULT_1
 62
2
  6
CENTER
 10
189.5876789693
 20
226.2229415332
 11
333.9013554217
 21
226.2229415332
  0
LINE
  8
0
 62
7
  6
CONTINUOUS
 10
54.8051875601
 20
274.0199306419
 11
64.8202863002
 21
269.9735680966
  0
LINE
  8
0
 62
7
  6
CONTINUOUS
 10
85.8985330719
 20
324.7086419236
 11
93.4019771154
 21
316.9385981587
  0
LINE
  8
0
 62
7
  6
CONTINUOUS
 10
134.9206738957
 20
358.3682808933
 11
138.6150496008
 21
348.2180670645
  0
LINE
  8
0
 62
7
  6
CONTINUOUS
 10
198.4801922718
 20
341.972415509
 11
198.2922075305
 21
339.170203371
  0
LINE
  8
0
 62
7
  6
CONTINUOUS
 10
198.8816269815
 20
338.6188764623
 11
199.1037907705
 21
341.9305817731
  0
LINE
  8
0
 62
7
  6
CONTINUOUS
 10
203.1985557886
 20
339.8416549007
 11
202.9337442212
 21
337.4306218781
  0
LINE
  8
0
 62
7
  6
CONTINUOUS
 10
203.5550079583
 20
337.3623864693
 11
203.8198195256
 21
339.7734194919
  0
LINE
  8
0
 62
7
  6
CONTINUOUS
 10
156.1411334704
 20
87.182656894
 11
159.1184667375
 21
97.5658519341
  0
LINE
  8
0
 62
7
  6
CONTINUOUS
 10
224.2732800129
 20
337.696367575
 11
222.9571138954
 21
333.1600413138
  0
LINE
  8
0
 62
7
  6
CONTINUOUS
 10
223.6774089204
 20
332.9510554843
 11
225.3492955564
 21
338.7134156845
  0
LINE
  8
0
 62
7
  6
CONTINUOUS
 10
229.7644238473
 20
335.5531083759
 11
229.6795797796
 21
335.3122986243
  0
LINE
  8
0
 62
7
  6
CONTINUOUS
 10
228.9159831112
 20
333.1450106915
 11
228.7887170097
 21
332.7837960642
  0
LINE
  8
0
 62
7
  6
CONTINUOUS
 10
229.4536737054
 20
332.4141617099
 11
229.6657838746
 21
333.0161860888
  0
LINE
  8
0
 62
7
  6
CONTINUOUS
 10
230.3445364754
 20
334.94266427
 11
230.5142247295
 21
335.4242841105
  0
LINE
  8
0
 62
7
  6
CONTINUOUS
 10
245.2623588474
 20
323.4370352792
 11
245.6280903745
 21
324.1100369564
  0
LINE
  8
0
 62
7
  6
CONTINUOUS
 10
247.7005690848
 20
327.9237132319
 11
248.1272558165
 21
328.7088817637
  0
LINE
  8
0
 62
7
  6
CONTINUOUS
 10
247.5466507401
 20
322.0630171345
 11
250.6170765672
 21
327.2178677861
  0
LINE
  8
0
 62
7
  6
CONTINUOUS
 10
252.7743489497
 20
321.1744517158
 11
252.635943412
 21
320.9599015831
  0
LINE
  8
0
 62
7
  6
CONTINUOUS
 10
254.888741775
 20
323.7603207331
 11
255.2347556192
 21
324.2966960647
  0
LINE
  8
0
 62
7
  6
CONTINUOUS
 10
253.0919413509
 20
320.5138213833
 11
253.3687524263
 21
320.9429216485
  0
LINE
  8
0
 62
7
  6
CONTINUOUS
 10
102.4799606285
 20
112.8072567105
 11
109.4231158056
 21
121.0817868367
  0
LINE
  8
0
 62
7
  6
CONTINUOUS
 10
63.8805036365
 20
158.0424587819
 11
73.5889461168
 21
162.7775825638
  0
LINE
  8
0
 62
7
  6
CONTINUOUS
 10
326.7233703657
 20
266.7775257818
 11
316.242593055
 21
264.1643745067
  0
LINE
  8
0
 62
7
  6
CONTINUOUS
 10
41.2192382709
 20
226.5119564854
 11
33.5897280674
 21
225.71006265
  0
LINE
  8
0
 62
7
  6
CONTINUOUS
 10
331.3624023838
 20
207.4932869957
 11
320.7248715015
 21
209.3689706983
  0
LINE
  8
0
 62
7
  6
CONTINUOUS
 10
54.1639168832
 20
286.833851338
 11
46.8678528861
 21
289.2044862357
  0
LINE
  8
0
 62
7
  6
CONTINUOUS
 10
311.4872967406
 20
151.4475756326
 11
302.5323380153
 21
157.4877715608
  0
LINE
  8
0
 62
7
  6
CONTINUOUS
 10
90.5245942465
 20
336.6755692526
 11
84.8235322034
 21
341.8088285729
  0
LINE
  8
0
 62
7
  6
CONTINUOUS
 10
270.5346397615
 20
108.3312043466
 11
264.8106469099
 21
117.4915077509
  0
LINE
  8
0
 62
7
  6
CONTINUOUS
 10
215.5855178814
 20
85.599385433
 11
214.0822212685
 21
96.2958966361
  0
LINE
  8
0
 62
7
  6
CONTINUOUS
 10
203.143990001
 20
340.4897842945
 11
203.1985557886
 21
339.8416549007
  0
LINE
  8
0
 62
7
  6
CONTINUOUS
 10
203.8198195256
 20
339.7734194919
 11
203.7652544491
 21
340.4215488076
  0
LINE
  8
0
 62
7
  6
CONTINUOUS
 10
205.383835771
 20
373.7483941006
 11
205.383835771
 21
381.4199297792
  0
LINE
  8
0
 62
7
  6
CONTINUOUS
 10
264.0221936092
 20
354.5692728218
 11
267.1424882784
 21
361.5775693941
  0
LINE
  8
0
 62
7
  6
CONTINUOUS
 10
309.7901476499
 20
313.1979048733
 11
315.4912096929
 21
318.3311641937
  0
LINE
  8
0
 62
7
  6
CONTINUOUS
 10
334.7740028505
 20
256.7877756207
 11
342.0700668477
 21
259.1584105183
  0
LINE
  8
0
 62
7
  6
CONTINUOUS
 10
225.7596519548
 20
232.4773754188
 11
195.842112855
 21
262.3949145187
  0
LINE
  8
0
 62
7
  6
CONTINUOUS
 10
144.0141789182
 20
367.4190244038
 11
140.8938842491
 21
374.4273209762
  0
LINE
  8
0
 62
7
  6
CONTINUOUS
 10
195.1913052716
 20
339.6341185443
 11
195.2818459036
 21
339.1162586257
  0
LINE
  8
0
 62
7
  6
CONTINUOUS
 10
198.9721674923
 20
338.1010165743
 11
198.8816269815
 21
338.6188764623
  0
LINE
  8
0
 62
7
  6
CONTINUOUS
 10
216.9419811084
 20
334.859915687
 11
216.3269406674
 21
341.1544945727
  0
LINE
  8
0
 62
7
  6
CONTINUOUS
 10
216.0641173716
 20
336.6315300065
 11
216.2107769378
 21
335.0267702972
  0
LINE
  8
0
 62
7
  6
CONTINUOUS
 10
215.7258671653
 20
340.7678901137
 11
216.0558522054
 21
337.1571803984
  0
LINE
  8
0
 62
7
  6
CONTINUOUS
 10
219.9515112367
 20
338.9502821533
 11
220.3160339688
 21
333.9263221571
  0
LINE
  8
0
 62
7
  6
CONTINUOUS
 10
220.9740891045
 20
334.4000158576
 11
220.6673778937
 21
340.0718235762
  0
LINE
  8
0
 62
7
  6
CONTINUOUS
 10
228.9253546161
 20
333.5477631001
 11
228.9159831112
 21
333.1450106915
  0
LINE
  8
0
 62
7
  6
CONTINUOUS
 10
229.6657838746
 20
333.0161860888
 11
229.6751553795
 21
333.4189384974
  0
LINE
  8
0
 62
7
  6
CONTINUOUS
 10
229.7737954117
 20
335.9558609532
 11
229.7644238473
 21
335.5531083759
  0
LINE
  8
0
 62
7
  6
CONTINUOUS
 10
230.5142247295
 20
335.4242841105
 11
230.5235961751
 21
335.8270363504
  0
LINE
  8
0
 62
7
  6
CONTINUOUS
 10
253.3687524263
 20
320.9429216485
 11
253.5046862045
 21
321.6148191063
  0
LINE
  8
0
 62
7
  6
CONTINUOUS
 10
252.8769169711
 20
321.5640382468
 11
252.7743489497
 21
321.1744517158
  0
LINE
  8
0
 62
7
  6
CONTINUOUS
 10
195.842112855
 20
190.0509685476
 11
225.7596519548
 21
219.9685076475
  0
LINE
  8
0
 62
7
  6
CONTINUOUS
 10
198.2494837224
 20
338.5333369273
 11
198.4561993851
 21
337.8797369845
  0
LINE
  8
0
 62
7
  6
CONTINUOUS
 10
195.913989046
 20
339.2017982581
 11
195.8149036365
 21
339.5922848174
  0
LINE
  8
0
 62
7
  6
CONTINUOUS
 10
203.7652544491
 20
340.4215488076
 11
203.6828137638
 21
340.8158852891
  0
LINE
  8
0
 62
7
  6
CONTINUOUS
 10
249.2412921939
 20
322.8459441123
 11
249.1745615335
 21
322.2813216021
  0
LINE
  8
0
 62
7
  6
CONTINUOUS
 10
249.804802473
 20
321.8747553837
 11
249.8715334339
 21
322.4393776999
  0
LINE
  8
0
 62
7
  6
CONTINUOUS
 10
195.2818459036
 20
339.1162586257
 11
195.3894760624
 21
338.8531453381
  0
LINE
  8
0
 62
7
  6
CONTINUOUS
 10
199.0797978838
 20
337.8379032487
 11
198.9721674923
 21
338.1010165743
  0
LINE
  8
0
 62
7
  6
CONTINUOUS
 10
249.1745615335
 20
322.2813216021
 11
249.2128708285
 21
321.6489382385
  0
LINE
  8
0
 62
7
  6
CONTINUOUS
 10
253.5046862045
 20
321.6148191063
 11
253.4663767349
 21
322.2472025292
  0
LINE
  8
0
 62
7
  6
CONTINUOUS
 10
252.8744451147
 20
322.0213854216
 11
252.8769169711
 21
321.5640382468
  0
LINE
  8
0
 62
7
  6
CONTINUOUS
 10
196.1377941404
 20
338.8029448631
 11
195.913989046
 21
339.2017982581
  0
LINE
  8
0
 62
7
  6
CONTINUOUS
 10
229.6751553795
 20
333.4189384974
 11
229.4911541501
 21
334.0251727398
  0
LINE
  8
0
 62
7
  6
CONTINUOUS
 10
230.5235961751
 20
335.8270363504
 11
230.3395949456
 21
336.4332705928
  0
LINE
  8
0
 62
7
  6
CONTINUOUS
 10
195.3894760624
 20
338.8531453381
 11
195.7380007837
 21
338.4459252456
  0
LINE
  8
0
 62
7
  6
CONTINUOUS
 10
202.9233595461
 20
340.7708713547
 11
203.143990001
 21
340.4897842945
  0
LINE
  8
0
 62
7
  6
CONTINUOUS
 10
203.6828137638
 20
340.8158852891
 11
203.4621833089
 21
341.0969723493
  0
LINE
  8
0
 62
7
  6
CONTINUOUS
 10
228.774403975
 20
333.8716499783
 11
228.9253546161
 21
333.5477631001
  0
LINE
  8
0
 62
7
  6
CONTINUOUS
 10
229.6228447705
 20
336.2797478314
 11
229.7737954117
 21
335.9558609532
  0
LINE
  8
0
 62
7
  6
CONTINUOUS
 10
229.2977814751
 20
334.2286547422
 11
229.5759982178
 21
334.2659824914
  0
LINE
  8
0
 62
7
  6
CONTINUOUS
 10
250.5993985318
 20
323.3370924591
 11
251.2271674646
 21
323.3878735125
  0
LINE
  8
0
 62
7
  6
CONTINUOUS
 10
251.9056062056
 20
320.5195342678
 11
251.4520801231
 21
320.5082672929
  0
LINE
  8
0
 62
7
  6
CONTINUOUS
 10
251.211106318
 20
319.9041309076
 11
251.9439156509
 21
319.8871508073
  0
LINE
  8
0
 62
7
  6
CONTINUOUS
 10
251.4681412273
 20
323.992009832
 11
250.7353319125
 21
324.0089899605
  0
LINE
  8
0
 62
7
  6
CONTINUOUS
 10
196.6195832906
 20
338.5147312964
 11
196.1377941404
 21
338.8029448631
  0
LINE
  8
0
 62
7
  6
CONTINUOUS
 10
202.6887916424
 20
340.9250619588
 11
202.9233595461
 21
340.7708713547
  0
LINE
  8
0
 62
7
  6
CONTINUOUS
 10
195.7380007837
 20
338.4459252456
 11
196.095070333
 21
338.1660784306
  0
LINE
  8
0
 62
7
  6
CONTINUOUS
 10
203.4621833089
 20
341.0969723493
 11
203.1172998222
 21
341.3917065226
  0
LINE
  8
0
 62
7
  6
CONTINUOUS
 10
229.4911541501
 20
334.0251727398
 11
229.2977814751
 21
334.2286547422
  0
LINE
  8
0
 62
7
  6
CONTINUOUS
 10
230.3395949456
 20
336.4332705928
 11
229.9952743279
 21
336.9606385228
  0
LINE
  8
0
 62
7
  6
CONTINUOUS
 10
249.2128708285
 20
321.6489382385
 11
249.5304635121
 21
320.988307684
  0
LINE
  8
0
 62
7
  6
CONTINUOUS
 10
253.4663767349
 20
322.2472025292
 11
253.1487840332
 21
322.9078330556
  0
LINE
  8
0
 62
7
  6
CONTINUOUS
 10
249.9815174802
 20
321.4569220933
 11
249.804802473
 21
321.8747553837
  0
LINE
  8
0
 62
7
  6
CONTINUOUS
 10
252.6977301075
 20
322.439218712
 11
252.8744451147
 21
322.0213854216
  0
LINE
  8
0
 62
7
  6
CONTINUOUS
 10
197.0842830092
 20
337.9717711819
 11
197.5917063552
 21
338.0656774896
  0
LINE
  8
0
 62
7
  6
CONTINUOUS
 10
197.6258854021
 20
338.5751706512
 11
197.1184620539
 21
338.4812643101
  0
LINE
  8
0
 62
7
  6
CONTINUOUS
 10
201.6947688099
 20
341.0342387066
 11
202.205717675
 21
341.1065467889
  0
LINE
  8
0
 62
7
  6
CONTINUOUS
 10
202.2614674704
 20
341.6141326135
 11
201.7505186054
 21
341.5418245312
  0
LINE
  8
0
 62
7
  6
CONTINUOUS
 10
228.222917446
 20
332.3063863401
 11
227.8268060474
 21
332.3105962036
  0
LINE
  8
0
 62
7
  6
CONTINUOUS
 10
229.1137802457
 20
334.8348889846
 11
228.717668847
 21
334.8390988481
  0
LINE
  8
0
 62
7
  6
CONTINUOUS
 10
196.5854042459
 20
338.0052381682
 11
197.0842830092
 21
337.9717711819
  0
LINE
  8
0
 62
7
  6
CONTINUOUS
 10
198.4561993851
 20
337.8797369845
 11
199.0797978838
 21
337.8379032487
  0
LINE
  8
0
 62
7
  6
CONTINUOUS
 10
197.1184620539
 20
338.4812643101
 11
196.6195832906
 21
338.5147312964
  0
LINE
  8
0
 62
7
  6
CONTINUOUS
 10
199.1037907705
 20
341.9305817731
 11
198.4801922718
 21
341.972415509
  0
LINE
  8
0
 62
7
  6
CONTINUOUS
 10
195.9857988569
 20
342.1397504136
 11
195.3622004921
 21
342.1815841405
  0
LINE
  8
0
 62
7
  6
CONTINUOUS
 10
200.0759298222
 20
337.7445048913
 11
200.6971939147
 21
337.6762694434
  0
LINE
  8
0
 62
7
  6
CONTINUOUS
 10
202.9337442212
 20
337.4306218781
 11
203.5550079583
 21
337.3623864693
  0
LINE
  8
0
 62
7
  6
CONTINUOUS
 10
202.7584788867
 20
341.5595442396
 11
202.2614674704
 21
341.6141326135
  0
LINE
  8
0
 62
7
  6
CONTINUOUS
 10
201.1431923172
 20
341.7369563962
 11
200.5219282246
 21
341.805191844
  0
LINE
  8
0
 62
7
  6
CONTINUOUS
 10
204.5451294096
 20
337.2201141661
 11
205.164295328
 21
337.1349186997
  0
LINE
  8
0
 62
7
  6
CONTINUOUS
 10
205.7211475924
 20
341.1818939478
 11
205.101981674
 21
341.2670894142
  0
LINE
  8
0
 62
7
  6
CONTINUOUS
 10
205.2759980401
 20
342.5317694228
 11
205.8951639585
 21
342.4465739564
  0
LINE
  8
0
 62
7
  6
CONTINUOUS
 10
205.9821721172
 20
343.0789137836
 11
205.3630061988
 21
343.16410925
  0
LINE
  8
0
 62
7
  6
CONTINUOUS
 10
227.4543791587
 20
331.6297044771
 11
228.0862825714
 21
331.5424184483
  0
LINE
  8
0
 62
7
  6
CONTINUOUS
 10
212.0672871029
 20
335.9722796495
 11
212.7984912735
 21
335.8054250392
  0
LINE
  8
0
 62
7
  6
CONTINUOUS
 10
216.2107769378
 20
335.0267702972
 11
216.9419811084
 21
334.859915687
  0
LINE
  8
0
 62
7
  6
CONTINUOUS
 10
213.6267696716
 20
337.1877121469
 11
216.0641173716
 21
336.6315300065
  0
LINE
  8
0
 62
7
  6
CONTINUOUS
 10
216.0558522054
 20
337.1571803984
 11
213.8622396938
 21
337.6577442293
  0
LINE
  8
0
 62
7
  6
CONTINUOUS
 10
216.3269406674
 20
341.1544945727
 11
215.3520013085
 21
341.3769674925
  0
LINE
  8
0
 62
7
  6
CONTINUOUS
 10
217.9150500941
 20
334.6229417217
 11
218.6353451191
 21
334.4139558922
  0
LINE
  8
0
 62
7
  6
CONTINUOUS
 10
220.3160339688
 20
333.9263221571
 11
221.2764264196
 21
333.6476746502
  0
LINE
  8
0
 62
7
  6
CONTINUOUS
 10
222.9571138954
 20
333.1600413138
 11
223.6774089204
 21
332.9510554843
  0
LINE
  8
0
 62
7
  6
CONTINUOUS
 10
225.3492955564
 20
338.7134156845
 11
224.2688530189
 21
339.0268944287
  0
LINE
  8
0
 62
7
  6
CONTINUOUS
 10
220.6673778937
 20
340.0718235762
 11
219.5869367301
 21
340.3853019218
  0
LINE
  8
0
 62
7
  6
CONTINUOUS
 10
196.095070333
 20
338.1660784306
 11
196.5854042459
 21
338.0052381682
  0
LINE
  8
0
 62
7
  6
CONTINUOUS
 10
251.4520801231
 20
320.5082672929
 11
250.9627167279
 21
320.6720363722
  0
LINE
  8
0
 62
7
  6
CONTINUOUS
 10
251.2271674646
 20
323.3878735125
 11
251.7165311603
 21
323.2241042393
  0
LINE
  8
0
 62
7
  6
CONTINUOUS
 10
224.6248642404
 20
332.6266223911
 11
227.4543791587
 21
331.6297044771
  0
LINE
  8
0
 62
7
  6
CONTINUOUS
 10
227.8268060474
 20
332.3105962036
 11
225.5867752027
 21
333.0998222517
  0
LINE
  8
0
 62
7
  6
CONTINUOUS
 10
226.2231057994
 20
334.9058956414
 11
228.463136644
 21
334.1166695934
  0
LINE
  8
0
 62
7
  6
CONTINUOUS
 10
228.717668847
 20
334.8390988481
 11
226.4776380024
 21
335.6283248962
  0
LINE
  8
0
 62
7
  6
CONTINUOUS
 10
227.0715465949
 20
337.3139934945
 11
229.3115774396
 21
336.5247674464
  0
LINE
  8
0
 62
7
  6
CONTINUOUS
 10
229.4482149866
 20
337.2887343137
 11
226.6187000683
 21
338.2856522277
  0
LINE
  8
0
 62
7
  6
CONTINUOUS
 10
202.205717675
 20
341.1065467889
 11
202.6887916424
 21
340.9250619588
  0
LINE
  8
0
 62
7
  6
CONTINUOUS
 10
250.6167028353
 20
320.1356609654
 11
251.211106318
 21
319.9041309076
  0
LINE
  8
0
 62
7
  6
CONTINUOUS
 10
252.0625450045
 20
323.7604795709
 11
251.4681412273
 21
323.992009832
  0
LINE
  8
0
 62
7
  6
CONTINUOUS
 10
203.1172998222
 20
341.3917065226
 11
202.7584788867
 21
341.5595442396
  0
LINE
  8
0
 62
7
  6
CONTINUOUS
 10
240.8691526057
 20
325.8244498755
 11
245.2623588474
 21
323.4370352792
  0
LINE
  8
0
 62
7
  6
CONTINUOUS
 10
245.6280903745
 20
324.1100369564
 11
241.8938624295
 21
326.1393407976
  0
LINE
  8
0
 62
7
  6
CONTINUOUS
 10
243.4292733379
 20
330.5354616944
 11
247.2733272282
 21
328.4464747765
  0
LINE
  8
0
 62
7
  6
CONTINUOUS
 10
248.1272558165
 20
328.7088817637
 11
243.7340495749
 21
331.09629636
  0
LINE
  8
0
 62
7
  6
CONTINUOUS
 10
246.9022944086
 20
322.4468203629
 11
247.5466507401
 21
322.0630171345
  0
LINE
  8
0
 62
7
  6
CONTINUOUS
 10
250.6170765672
 20
327.2178677861
 11
249.9727202357
 21
327.6016710145
  0
LINE
  8
0
 62
7
  6
CONTINUOUS
 10
229.9952743279
 20
336.9606385228
 11
229.4482149866
 21
337.2887343137
  0
LINE
  8
0
 62
7
  6
CONTINUOUS
 10
249.9864617456
 20
320.5422272808
 11
250.6167028353
 21
320.1356609654
  0
LINE
  8
0
 62
7
  6
CONTINUOUS
 10
250.9627167279
 20
320.6720363722
 11
250.3324756382
 21
321.0786026875
  0
LINE
  8
0
 62
7
  6
CONTINUOUS
 10
249.8715334339
 20
322.4393776999
 11
249.2412921939
 21
322.8459441123
  0
LINE
  8
0
 62
7
  6
CONTINUOUS
 10
249.8641172103
 20
323.8114198594
 11
250.5993985318
 21
323.3370924591
  0
LINE
  8
0
 62
7
  6
CONTINUOUS
 10
251.7165311603
 20
323.2241042393
 11
252.34677225
 21
322.8175379239
  0
LINE
  8
0
 62
7
  6
CONTINUOUS
 10
252.6927860942
 20
323.3539132555
 11
252.0625450045
 21
323.7604795709
  0
LINE
  8
0
 62
7
  6
CONTINUOUS
 10
251.8425764078
 20
325.7253913221
 11
254.888741775
 21
323.7603207331
  0
LINE
  8
0
 62
7
  6
CONTINUOUS
 10
255.2347556192
 20
324.2966960647
 11
251.6633893939
 21
326.6005718841
  0
LINE
  8
0
 62
7
  6
CONTINUOUS
 10
228.463136644
 20
334.1166695934
 11
228.774403975
 21
333.8716499783
  0
LINE
  8
0
 62
7
  6
CONTINUOUS
 10
229.3115774396
 20
336.5247674464
 11
229.6228447705
 21
336.2797478314
  0
LINE
  8
0
 62
7
  6
CONTINUOUS
 10
249.5304635121
 20
320.988307684
 11
249.9864617456
 21
320.5422272808
  0
LINE
  8
0
 62
7
  6
CONTINUOUS
 10
253.1487840332
 20
322.9078330556
 11
252.6927860942
 21
323.3539132555
  0
LINE
  8
0
 62
7
  6
CONTINUOUS
 10
250.3324756382
 20
321.0786026875
 11
249.9815174802
 21
321.4569220933
  0
LINE
  8
0
 62
7
  6
CONTINUOUS
 10
252.34677225
 20
322.8175379239
 11
252.6977301075
 21
322.439218712
  0
LINE
  8
0
 62
7
  6
CONTINUOUS
 10
320.7450589128
 20
216.9589443573
 11
323.4631719841
 21
242.8200627457
  0
LINE
  8
0
 62
7
  6
CONTINUOUS
 10
305.6379005402
 20
164.4133465608
 11
318.6396848694
 21
186.9330976079
  0
LINE
  8
0
 62
7
  6
CONTINUOUS
 10
270.4646045749
 20
122.5551892574
 11
291.5019335338
 21
137.8397034217
  0
LINE
  8
0
 62
7
  6
CONTINUOUS
 10
185.0912476276
 20
357.6301790146
 11
159.0876789693
 21
357.6301790146
  0
LINE
  8
0
 62
7
  6
CONTINUOUS
 10
238.9281231905
 20
348.0982898254
 11
215.1726811603
 21
358.6748940495
  0
LINE
  8
0
 62
7
  6
CONTINUOUS
 10
284.2335877038
 20
317.4930457138
 11
266.83380404
 21
336.8174632061
  0
LINE
  8
0
 62
7
  6
CONTINUOUS
 10
313.1739147657
 20
271.1063714264
 11
305.1383701359
 21
295.8372348458
  0
LINE
  8
0
 62
7
  6
CONTINUOUS
 10
453.5718373494
 20
70.3410858609
 11
462.5718373494
 21
70.3410858609
  0
LINE
  8
0
 62
7
  6
CONTINUOUS
 10
478.9718373494
 20
70.3410858609
 11
487.9718373494
 21
70.3410858609
  0
LINE
  8
0
 62
9
  6
CONTINUOUS
 10
487.9718373494
 20
71.1331741701
 11
478.9718373494
 21
71.1331741701
  0
LINE
  8
0
 62
9
  6
CONTINUOUS
 10
462.5718373494
 20
71.1331741701
 11
453.5718373494
 21
71.1331741701
  0
LINE
  8
0
 62
7
  6
CONTINUOUS
 10
453.5718373494
 20
76.4936738174
 11
462.5718373494
 21
76.4936738174
  0
LINE
  8
0
 62
7
  6
CONTINUOUS
 10
478.9718373494
 20
76.4936738174
 11
487.9718373494
 21
76.4936738174
  0
LINE
  8
0
 62
9
  6
CONTINUOUS
 10
487.9718373494
 20
77.7015855082
 11
478.9718373494
 21
77.7015855082
  0
LINE
  8
0
 62
9
  6
CONTINUOUS
 10
462.5718373494
 20
77.7015855082
 11
453.5718373494
 21
77.7015855082
  0
LINE
  8
0
 62
9
  6
CONTINUOUS
 10
487.9718373494
 20
85.2054797262
 11
478.9718373494
 21
85.2054797262
  0
LINE
  8
0
 62
9
  6
CONTINUOUS
 10
462.5718373494
 20
85.2054797262
 11
453.5718373494
 21
85.2054797262
  0
LINE
  8
0
 62
7
  6
CONTINUOUS
 10
478.9718373494
 20
100.2229415332
 11
462.5718373494
 21
100.2229415332
  0
LINE
  8
0
 62
7
  6
CONTINUOUS
 10
447.7718373494
 20
100.2229415332
 11
453.5718373494
 21
100.2229415332
  0
LINE
  8
0
 62
7
  6
CONTINUOUS
 10
487.9718373494
 20
100.2229415332
 11
493.7718373494
 21
100.2229415332
  0
LINE
  8
0
 62
9
  6
CONTINUOUS
 10
487.9718373494
 20
101.9848030319
 11
478.9718373494
 21
101.9848030319
  0
LINE
  8
0
 62
9
  6
CONTINUOUS
 10
462.5718373494
 20
101.9848030319
 11
453.5718373494
 21
101.9848030319
  0
LINE
  8
0
 62
7
  6
CONTINUOUS
 10
453.5718373494
 20
107.5205133338
 11
462.5718373494
 21
107.5205133338
  0
LINE
  8
0
 62
7
  6
CONTINUOUS
 10
478.9718373494
 20
107.5205133338
 11
487.9718373494
 21
107.5205133338
  0
LINE
  8
0
 62
9
  6
CONTINUOUS
 10
487.9718373494
 20
108.4239460779
 11
478.9718373494
 21
108.4239460779
  0
LINE
  8
0
 62
9
  6
CONTINUOUS
 10
462.5718373494
 20
108.4239460779
 11
453.5718373494
 21
108.4239460779
  0
LINE
  8
0
 62
9
  6
CONTINUOUS
 10
487.9718373494
 20
109.9506885772
 11
478.9718373494
 21
109.9506885772
  0
LINE
  8
0
 62
9
  6
CONTINUOUS
 10
462.5718373494
 20
109.9506885772
 11
453.5718373494
 21
109.9506885772
  0
LINE
  8
0
 62
9
  6
CONTINUOUS
 10
487.9718373494
 20
116.1570913142
 11
478.9718373494
 21
116.1570913142
  0
LINE
  8
0
 62
9
  6
CONTINUOUS
 10
462.5718373494
 20
116.1570913142
 11
453.5718373494
 21
116.1570913142
  0
LINE
  8
0
 62
9
  6
CONTINUOUS
 10
487.9718373494
 20
134.105547977
 11
478.9718373494
 21
134.105547977
  0
LINE
  8
0
 62
9
  6
CONTINUOUS
 10
462.5718373494
 20
134.105547977
 11
453.5718373494
 21
134.105547977
  0
LINE
  8
0
 62
7
  6
CONTINUOUS
 10
453.5718373494
 20
156.5446106671
 11
462.5718373494
 21
156.5446106671
  0
LINE
  8
0
 62
7
  6
CONTINUOUS
 10
478.9718373494
 20
156.5446106671
 11
487.9718373494
 21
156.5446106671
  0
LINE
  8
0
 62
9
  6
CONTINUOUS
 10
487.9718373494
 20
160.7204461231
 11
478.9718373494
 21
160.7204461231
  0
LINE
  8
0
 62
9
  6
CONTINUOUS
 10
462.5718373494
 20
160.7204461231
 11
453.5718373494
 21
160.7204461231
  0
LINE
  8
0
 62
9
  6
CONTINUOUS
 10
487.9718373494
 20
162.3043204826
 11
478.9718373494
 21
162.3043204826
  0
LINE
  8
0
 62
9
  6
CONTINUOUS
 10
462.5718373494
 20
162.3043204826
 11
453.5718373494
 21
162.3043204826
  0
LINE
  8
0
 62
9
  6
CONTINUOUS
 10
487.9718373494
 20
166.1400883219
 11
478.9718373494
 21
166.1400883219
  0
LINE
  8
0
 62
9
  6
CONTINUOUS
 10
462.5718373494
 20
166.1400883219
 11
453.5718373494
 21
166.1400883219
  0
LINE
  8
0
 62
9
  6
CONTINUOUS
 10
487.9718373494
 20
182.1542271282
 11
478.9718373494
 21
182.1542271282
  0
LINE
  8
0
 62
9
  6
CONTINUOUS
 10
462.5718373494
 20
182.1542271282
 11
453.5718373494
 21
182.1542271282
  0
LINE
  8
0
 62
7
  6
CONTINUOUS
 10
445.7718373494
 20
350.2229415332
 11
445.7718373494
 21
102.2229415332
  0
LINE
  8
0
 62
9
  6
CONTINUOUS
 10
447.7718373494
 20
352.2229415332
 11
447.7718373494
 21
100.2229415332
  0
LINE
  8
0
 62
7
  6
CONTINUOUS
 10
453.5718373494
 20
70.3410949654
 11
453.5718373494
 21
382.4199143296
  0
LINE
  8
0
 62
9
  6
CONTINUOUS
 10
453.5718373494
 20
208.0153455166
 11
462.5718373494
 21
208.0153455166
  0
LINE
  8
0
 62
9
  6
CONTINUOUS
 10
478.9718373494
 20
208.0153455166
 11
487.9718373494
 21
208.0153455166
  0
LINE
  8
0
 62
9
  6
CONTINUOUS
 10
453.5718373494
 20
209.7372537226
 11
462.5718373494
 21
209.7372537226
  0
LINE
  8
0
 62
9
  6
CONTINUOUS
 10
478.9718373494
 20
209.7372537226
 11
487.9718373494
 21
209.7372537226
  0
LINE
  8
0
 62
7
  6
CONTINUOUS
 10
453.5718373494
 20
215.0576699611
 11
462.5718373494
 21
215.0576699611
  0
LINE
  8
0
 62
7
  6
CONTINUOUS
 10
478.9718373494
 20
215.0576699611
 11
487.9718373494
 21
215.0576699611
  0
LINE
  8
0
 62
7
  6
CONTINUOUS
 10
462.5718373494
 20
70.3410860602
 11
462.5718373494
 21
382.4199267537
  0
LINE
  8
0
 62
9
  6
CONTINUOUS
 10
487.9718373494
 20
224.3429226962
 11
478.9718373494
 21
224.3429226962
  0
LINE
  8
0
 62
9
  6
CONTINUOUS
 10
462.5718373494
 20
224.3429226962
 11
453.5718373494
 21
224.3429226962
  0
LINE
  8
0
 62
9
  6
CONTINUOUS
 10
487.9718373494
 20
225.71006265
 11
478.9718373494
 21
225.71006265
  0
LINE
  8
0
 62
9
  6
CONTINUOUS
 10
462.5718373494
 20
225.71006265
 11
453.5718373494
 21
225.71006265
  0
LINE
  8
DEFAULT_1
 62
2
  6
CENTER
 10
440.7718373494
 20
226.2229415332
 11
500.7718373494
 21
226.2229415332
  0
LINE
  8
0
 62
9
  6
CONTINUOUS
 10
487.9718373494
 20
226.5119564854
 11
478.9718373494
 21
226.5119564854
  0
LINE
  8
0
 62
9
  6
CONTINUOUS
 10
462.5718373494
 20
226.5119564854
 11
453.5718373494
 21
226.5119564854
  0
LINE
  8
0
 62
7
  6
CONTINUOUS
 10
478.9718373494
 20
70.3410860602
 11
478.9718373494
 21
382.4199267537
  0
LINE
  8
0
 62
9
  6
CONTINUOUS
 10
487.9718373494
 20
237.8227873518
 11
478.9718373494
 21
237.8227873518
  0
LINE
  8
0
 62
9
  6
CONTINUOUS
 10
462.5718373494
 20
237.8227873518
 11
453.5718373494
 21
237.8227873518
  0
LINE
  8
0
 62
7
  6
CONTINUOUS
 10
487.9718373494
 20
70.3410949654
 11
487.9718373494
 21
382.4199143296
  0
LINE
  8
0
 62
9
  6
CONTINUOUS
 10
493.7718373494
 20
352.2229415332
 11
493.7718373494
 21
100.2229415332
  0
LINE
  8
0
 62
7
  6
CONTINUOUS
 10
495.7718373494
 20
350.2229415332
 11
495.7718373494
 21
102.2229415332
  0
LINE
  8
0
 62
9
  6
CONTINUOUS
 10
453.5718373494
 20
262.5536507712
 11
462.5718373494
 21
262.5536507712
  0
LINE
  8
0
 62
9
  6
CONTINUOUS
 10
478.9718373494
 20
262.5536507712
 11
487.9718373494
 21
262.5536507712
  0
LINE
  8
0
 62
9
  6
CONTINUOUS
 10
453.5718373494
 20
263.8497515583
 11
462.5718373494
 21
263.8497515583
  0
LINE
  8
0
 62
9
  6
CONTINUOUS
 10
478.9718373494
 20
263.8497515583
 11
487.9718373494
 21
263.8497515583
  0
LINE
  8
0
 62
9
  6
CONTINUOUS
 10
453.5718373494
 20
269.9735680966
 11
462.5718373494
 21
269.9735680966
  0
LINE
  8
0
 62
9
  6
CONTINUOUS
 10
478.9718373494
 20
269.9735680966
 11
487.9718373494
 21
269.9735680966
  0
LINE
  8
0
 62
9
  6
CONTINUOUS
 10
487.9718373494
 20
274.0199306419
 11
478.9718373494
 21
274.0199306419
  0
LINE
  8
0
 62
9
  6
CONTINUOUS
 10
462.5718373494
 20
274.0199306419
 11
453.5718373494
 21
274.0199306419
  0
LINE
  8
0
 62
9
  6
CONTINUOUS
 10
487.9718373494
 20
288.2904716056
 11
478.9718373494
 21
288.2904716056
  0
LINE
  8
0
 62
9
  6
CONTINUOUS
 10
462.5718373494
 20
288.2904716056
 11
453.5718373494
 21
288.2904716056
  0
LINE
  8
0
 62
7
  6
CONTINUOUS
 10
453.5718373494
 20
289.2534297194
 11
462.5718373494
 21
289.2534297194
  0
LINE
  8
0
 62
7
  6
CONTINUOUS
 10
478.9718373494
 20
289.2534297194
 11
487.9718373494
 21
289.2534297194
  0
LINE
  8
0
 62
9
  6
CONTINUOUS
 10
487.9718373494
 20
291.485628852
 11
478.9718373494
 21
291.485628852
  0
LINE
  8
0
 62
9
  6
CONTINUOUS
 10
462.5718373494
 20
291.485628852
 11
453.5718373494
 21
291.485628852
  0
LINE
  8
0
 62
9
  6
CONTINUOUS
 10
453.5718373494
 20
310.8100463443
 11
462.5718373494
 21
310.8100463443
  0
LINE
  8
0
 62
9
  6
CONTINUOUS
 10
478.9718373494
 20
310.8100463443
 11
487.9718373494
 21
310.8100463443
  0
LINE
  8
0
 62
7
  6
CONTINUOUS
 10
453.5718373494
 20
311.4717851316
 11
462.5718373494
 21
311.4717851316
  0
LINE
  8
0
 62
7
  6
CONTINUOUS
 10
478.9718373494
 20
311.4717851316
 11
487.9718373494
 21
311.4717851316
  0
LINE
  8
0
 62
9
  6
CONTINUOUS
 10
453.5718373494
 20
316.9385981587
 11
462.5718373494
 21
316.9385981587
  0
LINE
  8
0
 62
9
  6
CONTINUOUS
 10
478.9718373494
 20
316.9385981587
 11
487.9718373494
 21
316.9385981587
  0
LINE
  8
0
 62
9
  6
CONTINUOUS
 10
487.9718373494
 20
324.7086419236
 11
478.9718373494
 21
324.7086419236
  0
LINE
  8
0
 62
9
  6
CONTINUOUS
 10
462.5718373494
 20
324.7086419236
 11
453.5718373494
 21
324.7086419236
  0
LINE
  8
0
 62
9
  6
CONTINUOUS
 10
487.9718373494
 20
341.5059806997
 11
478.9718373494
 21
341.5059806997
  0
LINE
  8
0
 62
9
  6
CONTINUOUS
 10
462.5718373494
 20
341.5059806997
 11
453.5718373494
 21
341.5059806997
  0
LINE
  8
0
 62
7
  6
CONTINUOUS
 10
453.5718373494
 20
342.0656837475
 11
462.5718373494
 21
342.0656837475
  0
LINE
  8
0
 62
7
  6
CONTINUOUS
 10
478.9718373494
 20
342.0656837475
 11
487.9718373494
 21
342.0656837475
  0
LINE
  8
0
 62
9
  6
CONTINUOUS
 10
453.5718373494
 20
344.4405630459
 11
462.5718373494
 21
344.4405630459
  0
LINE
  8
0
 62
9
  6
CONTINUOUS
 10
478.9718373494
 20
344.4405630459
 11
487.9718373494
 21
344.4405630459
  0
LINE
  8
0
 62
7
  6
CONTINUOUS
 10
453.5718373494
 20
344.6134721306
 11
462.5718373494
 21
344.6134721306
  0
LINE
  8
0
 62
7
  6
CONTINUOUS
 10
478.9718373494
 20
344.6134721306
 11
487.9718373494
 21
344.6134721306
  0
LINE
  8
0
 62
9
  6
CONTINUOUS
 10
453.5718373494
 20
348.2180670645
 11
462.5718373494
 21
348.2180670645
  0
LINE
  8
0
 62
9
  6
CONTINUOUS
 10
478.9718373494
 20
348.2180670645
 11
487.9718373494
 21
348.2180670645
  0
LINE
  8
0
 62
7
  6
CONTINUOUS
 10
478.9718373494
 20
352.2229415332
 11
462.5718373494
 21
352.2229415332
  0
LINE
  8
0
 62
7
  6
CONTINUOUS
 10
447.7718373494
 20
352.2229415332
 11
453.5718373494
 21
352.2229415332
  0
LINE
  8
0
 62
7
  6
CONTINUOUS
 10
487.9718373494
 20
352.2229415332
 11
493.7718373494
 21
352.2229415332
  0
LINE
  8
0
 62
9
  6
CONTINUOUS
 10
487.9718373494
 20
358.3682808933
 11
478.9718373494
 21
358.3682808933
  0
LINE
  8
0
 62
9
  6
CONTINUOUS
 10
462.5718373494
 20
358.3682808933
 11
453.5718373494
 21
358.3682808933
  0
LINE
  8
0
 62
9
  6
CONTINUOUS
 10
487.9718373494
 20
374.7880050084
 11
478.9718373494
 21
374.7880050084
  0
LINE
  8
0
 62
9
  6
CONTINUOUS
 10
462.5718373494
 20
374.7880050084
 11
453.5718373494
 21
374.7880050084
  0
LINE
  8
0
 62
7
  6
CONTINUOUS
 10
453.5718373494
 20
375.0205843331
 11
462.5718373494
 21
375.0205843331
  0
LINE
  8
0
 62
7
  6
CONTINUOUS
 10
478.9718373494
 20
375.0205843331
 11
487.9718373494
 21
375.0205843331
  0
LINE
  8
0
 62
9
  6
CONTINUOUS
 10
487.9718373494
 20
382.3817801709
 11
478.9718373494
 21
382.3817801709
  0
LINE
  8
0
 62
9
  6
CONTINUOUS
 10
462.5718373494
 20
382.3817801709
 11
453.5718373494
 21
382.3817801709
  0
LINE
  8
0
 62
7
  6
CONTINUOUS
 10
453.5718373494
 20
382.4199297792
 11
462.5718373494
 21
382.4199297792
  0
LINE
  8
0
 62
7
  6
CONTINUOUS
 10
478.9718373494
 20
382.4199297792
 11
487.9718373494
 21
382.4199297792
  0
ARC
  8
0
 62
7
  6
CONTINUOUS
 10
127.3250043989
 20
88.6360226247
 40
16.5
 50
348.0
 51
54.0
  0
ARC
  8
0
 62
7
  6
CONTINUOUS
 10
76.7462539068
 20
125.855547977
 40
16.5
 50
324.0
 51
30.0
  0
ARC
  8
0
 62
7
  6
CONTINUOUS
 10
45.6788109403
 20
180.4295074843
 40
16.5
 50
300.0
 51
6.0
  0
ARC
  8
0
 62
7
  6
CONTINUOUS
 10
141.9144603705
 20
91.2620897601
 40
14.8
 50
273.8771706091
 51
344.0
  0
ARC
  8
0
 62
7
  6
CONTINUOUS
 10
91.1425028703
 20
122.3205133338
 40
14.8
 50
249.8771706091
 51
320.0
  0
ARC
  8
0
 62
7
  6
CONTINUOUS
 10
57.3926106641
 20
171.3446106671
 40
14.8
 50
225.8771706091
 51
296.0
  0
ARC
  8
0
 62
7
  6
CONTINUOUS
 10
152.1936395082
 20
226.2229415332
 40
6.0
 50
85.4216527464
 51
274.5783472536
  0
ARC
  8
0
 62
7
  6
CONTINUOUS
 10
162.2425672493
 20
96.6700305277
 40
3.25
 50
22.849904579
 51
164.0
  0
ARC
  8
0
 62
7
  6
CONTINUOUS
 10
111.9127602457
 20
118.9927271052
 40
3.25
 50
358.8499045789
 51
140.0
  0
ARC
  8
0
 62
7
  6
CONTINUOUS
 10
75.0136523439
 20
159.8565019133
 40
3.25
 50
334.8499045791
 51
116.0
  0
ARC
  8
0
 62
7
  6
CONTINUOUS
 10
57.925434518
 20
212.1956370518
 40
3.25
 50
310.849904579
 51
92.0
  0
ARC
  8
0
 62
7
  6
CONTINUOUS
 10
167.0805749493
 20
98.7087020302
 40
2.0
 50
202.849904579
 51
258.0
  0
ARC
  8
0
 62
7
  6
CONTINUOUS
 10
117.1617026073
 20
118.887351185
 40
2.0
 50
178.8499045792
 51
234.0
  0
ARC
  8
0
 62
7
  6
CONTINUOUS
 10
79.7659395477
 20
157.6252990241
 40
2.0
 50
154.849904579
 51
210.0
  0
ARC
  8
0
 62
7
  6
CONTINUOUS
 10
61.3593529333
 20
208.2244024431
 40
2.0
 50
130.849904579
 51
186.0
  0
ARC
  8
0
 62
7
  6
CONTINUOUS
 10
142.8475854576
 20
77.4936738174
 40
1.0
 50
168.0
 51
273.8771706091
  0
ARC
  8
0
 62
7
  6
CONTINUOUS
 10
86.3948357741
 20
109.3629033249
 40
1.0
 50
144.0
 51
249.8771706091
  0
ARC
  8
0
 62
7
  6
CONTINUOUS
 10
47.7850661565
 20
161.4382950788
 40
1.0
 50
120.0
 51
225.8771706091
  0
ARC
  8
0
 62
7
  6
CONTINUOUS
 10
33.6942565306
 20
224.7155407546
 40
1.0
 50
96.0
 51
201.8771706091
  0
ARC
  8
0
 62
7
  6
CONTINUOUS
 10
182.6654917384
 20
189.3832152024
 40
0.9443458372
 50
355.4216527464
 51
45.0
  0
ARC
  8
0
 62
7
  6
CONTINUOUS
 10
152.7479526385
 20
219.3007543022
 40
0.9443458372
 50
45.0
 51
94.5783472536
  0
ARC
  8
0
 62
7
  6
CONTINUOUS
 10
159.0876789693
 20
374.1301790146
 40
16.5
 50
204.0
 51
270.0
  0
ARC
  8
0
 62
7
  6
CONTINUOUS
 10
39.494518627
 20
242.921567759
 40
16.5
 50
276.0
 51
342.0
  0
ARC
  8
0
 62
7
  6
CONTINUOUS
 10
59.2626972904
 20
302.5262838569
 40
16.5
 50
252.0
 51
318.0
  0
ARC
  8
0
 62
7
  6
CONTINUOUS
 10
101.5652492514
 20
348.937458873
 40
16.5
 50
228.0
 51
294.0
  0
ARC
  8
0
 62
7
  6
CONTINUOUS
 10
148.8281246833
 20
363.4301790146
 40
14.8
 50
129.8771706091
 51
200.0
  0
ARC
  8
0
 62
7
  6
CONTINUOUS
 10
46.5004467222
 20
229.8576699611
 40
14.8
 50
201.8771706091
 51
272.0
  0
ARC
  8
0
 62
7
  6
CONTINUOUS
 10
60.3493651426
 20
287.7422516895
 40
14.8
 50
177.8771706091
 51
248.0
  0
ARC
  8
0
 62
7
  6
CONTINUOUS
 10
96.5447621169
 20
334.9895858064
 40
14.8
 50
153.8771706091
 51
224.0
  0
ARC
  8
0
 62
7
  6
CONTINUOUS
 10
135.5610485833
 20
347.1065015986
 40
3.25
 50
238.849904579
 51
20.0
  0
ARC
  8
0
 62
7
  6
CONTINUOUS
 10
63.6028148716
 20
266.9602205692
 40
3.25
 50
286.849904579
 51
68.0
  0
ARC
  8
0
 62
7
  6
CONTINUOUS
 10
91.0641227643
 20
314.6809584547
 40
3.25
 50
262.849904579
 51
44.0
  0
ARC
  8
0
 62
7
  6
CONTINUOUS
 10
132.8453191786
 20
342.6134721306
 40
2.0
 50
58.849904579
 51
114.0
  0
ARC
  8
0
 62
7
  6
CONTINUOUS
 10
185.0912476276
 20
355.6301790146
 40
2.0
 50
34.8499045791
 51
90.0
  0
ARC
  8
0
 62
7
  6
CONTINUOUS
 10
65.1246088082
 20
261.9356167824
 40
2.0
 50
106.8499045791
 51
162.0
  0
ARC
  8
0
 62
7
  6
CONTINUOUS
 10
90.4106602255
 20
309.4717851316
 40
2.0
 50
82.849904579
 51
138.0
  0
ARC
  8
0
 62
7
  6
CONTINUOUS
 10
139.9803387914
 20
374.0205843331
 40
1.0
 50
24.0
 51
129.8771706091
  0
ARC
  8
0
 62
7
  6
CONTINUOUS
 10
46.5588358917
 20
288.2534297194
 40
1.0
 50
72.0
 51
177.8771706091
  0
ARC
  8
0
 62
7
  6
CONTINUOUS
 10
84.1544015971
 20
341.0656837475
 40
1.0
 50
48.0
 51
153.8771706091
  0
ARC
  8
0
 62
7
  6
CONTINUOUS
 10
182.6654917384
 20
263.0626678639
 40
0.9443458372
 50
315.0
 51
4.5783472536
  0
ARC
  8
0
 62
7
  6
CONTINUOUS
 10
152.7479526385
 20
233.1451287641
 40
0.9443458372
 50
265.4216527464
 51
315.0
  0
CIRCLE
  8
0
 62
7
  6
CONTINUOUS
 10
189.5876789693
 20
226.2229415332
 40
126.0
  0
CIRCLE
  8
0
 62
9
  6
CONTINUOUS
 10
189.5876789693
 20
226.2229415332
 40
124.0
  0
ARC
  8
0
 62
7
  6
CONTINUOUS
 10
332.9291040318
 20
178.6830976079
 40
16.5
 50
84.0
 51
150.0
  0
ARC
  8
0
 62
7
  6
CONTINUOUS
 10
301.2003901967
 20
124.4909230146
 40
16.5
 50
60.0
 51
126.0
  0
ARC
  8
0
 62
7
  6
CONTINUOUS
 10
250.1728246206
 20
87.8891386295
 40
16.5
 50
36.0
 51
102.0
  0
ARC
  8
0
 62
7
  6
CONTINUOUS
 10
188.6695369628
 20
75.2065254896
 40
16.5
 50
12.0
 51
78.0
  0
ARC
  8
0
 62
7
  6
CONTINUOUS
 10
328.7924093543
 20
192.9181322511
 40
14.8
 50
9.8771706091
 51
80.0
  0
ARC
  8
0
 62
7
  6
CONTINUOUS
 10
303.2112417692
 20
139.1778195588
 40
14.8
 50
345.8771706091
 51
56.0
  0
ARC
  8
0
 62
7
  6
CONTINUOUS
 10
257.9835279384
 20
100.488399236
 40
14.8
 50
321.8771706091
 51
32.0
  0
ARC
  8
0
 62
7
  6
CONTINUOUS
 10
200.929550464
 20
83.5396235388
 40
14.8
 50
297.8771706091
 51
8.0
  0
ARC
  8
0
 62
7
  6
CONTINUOUS
 10
226.9817184304
 20
226.2229415332
 40
6.0
 50
265.4216527464
 51
94.5783472536
  0
ARC
  8
0
 62
7
  6
CONTINUOUS
 10
189.5876789693
 20
188.8289020721
 40
6.0
 50
175.4216527464
 51
4.5783472536
  0
ARC
  8
0
 62
7
  6
CONTINUOUS
 10
321.289228079
 20
212.5695958956
 40
3.25
 50
118.8499045791
 51
260.0
  0
ARC
  8
0
 62
7
  6
CONTINUOUS
 10
304.3497149516
 20
160.1821436716
 40
3.25
 50
94.849904579
 51
236.0
  0
ARC
  8
0
 62
7
  6
CONTINUOUS
 10
267.5668032225
 20
119.2137453597
 40
3.25
 50
70.849904579
 51
212.0
  0
ARC
  8
0
 62
7
  6
CONTINUOUS
 10
217.3005924919
 20
96.7482092142
 40
3.25
 50
46.8499045791
 51
188.0
  0
ARC
  8
0
 62
7
  6
CONTINUOUS
 10
318.7560151221
 20
217.1680012839
 40
2.0
 50
298.8499045789
 51
354.0
  0
ARC
  8
0
 62
7
  6
CONTINUOUS
 10
303.9058497327
 20
165.4133465608
 40
2.0
 50
274.849904579
 51
330.0
  0
ARC
  8
0
 62
7
  6
CONTINUOUS
 10
269.2890340703
 20
124.1732232462
 40
2.0
 50
250.849904579
 51
306.0
  0
ARC
  8
0
 62
7
  6
CONTINUOUS
 10
220.8911300469
 20
100.578423316
 40
2.0
 50
226.8499045789
 51
282.0
  0
ARC
  8
0
 62
7
  6
CONTINUOUS
 10
342.3878623425
 20
195.2853369414
 40
1.0
 50
264.0
 51
9.8771706091
  0
ARC
  8
0
 62
7
  6
CONTINUOUS
 10
316.5941349804
 20
135.8105997415
 40
1.0
 50
240.0
 51
345.8771706091
  0
ARC
  8
0
 62
7
  6
CONTINUOUS
 10
268.8398375566
 20
91.9689778076
 40
1.0
 50
216.0
 51
321.8771706091
  0
ARC
  8
0
 62
7
  6
CONTINUOUS
 10
207.3821219297
 20
71.3410858609
 40
1.0
 50
192.0
 51
297.8771706091
  0
ARC
  8
0
 62
7
  6
CONTINUOUS
 10
226.4274053001
 20
219.3007543022
 40
0.9443458372
 50
85.4216527464
 51
135.0
  0
ARC
  8
0
 62
7
  6
CONTINUOUS
 10
196.5098662003
 20
189.3832152024
 40
0.9443458372
 50
135.0
 51
184.5783472536
  0
ARC
  8
0
 62
7
  6
CONTINUOUS
 10
221.883835771
 20
373.7483941006
 40
16.5
 50
180.0
 51
246.0
  0
ARC
  8
0
 62
7
  6
CONTINUOUS
 10
279.0956936603
 20
347.858118211
 40
16.5
 50
156.0
 51
222.0
  0
ARC
  8
0
 62
7
  6
CONTINUOUS
 10
320.8308026548
 20
300.936015253
 40
16.5
 50
132.0
 51
198.0
  0
ARC
  8
0
 62
7
  6
CONTINUOUS
 10
339.8727832577
 20
241.0953431018
 40
16.5
 50
108.0
 51
174.0
  0
ARC
  8
0
 62
7
  6
CONTINUOUS
 10
208.1591844747
 20
368.1463943736
 40
14.8
 50
105.8771706091
 51
176.0
  0
ARC
  8
0
 62
7
  6
CONTINUOUS
 10
264.2790622474
 20
348.3227554023
 40
14.8
 50
81.8771706091
 51
152.0
  0
ARC
  8
0
 62
7
  6
CONTINUOUS
 10
307.4841213014
 20
307.3869493712
 40
14.8
 50
57.8771706091
 51
128.0
  0
ARC
  8
0
 62
7
  6
CONTINUOUS
 10
330.3038144206
 20
252.4171490329
 40
14.8
 50
33.8771706091
 51
104.0
  0
ARC
  8
0
 62
7
  6
CONTINUOUS
 10
189.5876789693
 20
263.6169809942
 40
6.0
 50
355.4216527464
 51
184.5783472536
  0
CIRCLE
  8
0
 62
7
  6
CONTINUOUS
 10
189.5876789693
 20
345.7229415332
 40
4.0
  0
ARC
  8
0
 62
7
  6
CONTINUOUS
 10
189.3996696125
 20
358.6301790146
 40
3.25
 50
214.849904579
 51
356.0
  0
ARC
  8
0
 62
7
  6
CONTINUOUS
 10
243.2707991675
 20
347.259442188
 40
3.25
 50
190.849904579
 51
332.0
  0
ARC
  8
0
 62
7
  6
CONTINUOUS
 10
287.8596295445
 20
314.9603948161
 40
3.25
 50
166.849904579
 51
308.0
  0
ARC
  8
0
 62
7
  6
CONTINUOUS
 10
315.4563468943
 20
267.3178356171
 40
3.25
 50
142.849904579
 51
284.0
  0
ARC
  8
0
 62
7
  6
CONTINUOUS
 10
238.1146499044
 20
346.2711989101
 40
2.0
 50
10.849904579
 51
66.0
  0
ARC
  8
0
 62
7
  6
CONTINUOUS
 10
282.7472980528
 20
316.154784501
 40
2.0
 50
346.849904579
 51
42.0
  0
ARC
  8
0
 62
7
  6
CONTINUOUS
 10
311.2718017331
 20
270.4883374376
 40
2.0
 50
322.849904579
 51
18.0
  0
ARC
  8
0
 62
7
  6
CONTINUOUS
 10
204.383835771
 20
381.4199297792
 40
1.0
 50
0.0
 51
105.8771706091
  0
ARC
  8
0
 62
7
  6
CONTINUOUS
 10
266.2289428208
 20
361.9843060372
 40
1.0
 50
336.0
 51
81.8771706091
  0
ARC
  8
0
 62
7
  6
CONTINUOUS
 10
314.8220790866
 20
319.0743090192
 40
1.0
 50
312.0
 51
57.8771706091
  0
ARC
  8
0
 62
7
  6
CONTINUOUS
 10
341.7610498533
 20
260.1094670346
 40
1.0
 50
288.0
 51
33.8771706091
  0
ARC
  8
0
 62
7
  6
CONTINUOUS
 10
196.5098662003
 20
263.0626678639
 40
0.9443458372
 50
175.4216527464
 51
225.0
  0
ARC
  8
0
 62
7
  6
CONTINUOUS
 10
226.4274053001
 20
233.1451287641
 40
0.9443458372
 50
225.0
 51
274.5783472536
  0
ARC
  8
0
 62
7
  6
CONTINUOUS
 10
447.7718373494
 20
102.2229415332
 40
2.0
 50
180.0
 51
270.0
  0
ARC
  8
0
 62
7
  6
CONTINUOUS
 10
447.7718373494
 20
350.2229415332
 40
2.0
 50
90.0
 51
180.0
  0
ARC
  8
0
 62
7
  6
CONTINUOUS
 10
493.7718373494
 20
102.2229415332
 40
2.0
 50
270.0
 51
360.0
  0
ARC
  8
0
 62
7
  6
CONTINUOUS
 10
493.7718373494
 20
350.2229415332
 40
2.0
 50
0.0
 51
90.0
  0
ENDSEC
  0
EOF
