  0
SECTION
  2
HEADER
  9
$EXTMAX
 10
594.0
 20
420.0
 30
0.0
  9
$EXTMIN
 10
0.0
 20
0.0
 30
0.0
  9
$LIMMIN
 10
0.0
 20
0.0
  9
$LIMMAX
 10
594.0
 20
420.0
  9
$VIEWCTR
 10
297.0
 20
210.0
  9
$VIEWSIZE
 40
420.0
  9
$CLAYER
  8
0
  9
$LTSCALE
 40
32.67
  9
$CELTYPE
  6
BYLAYER
  9
$DIMSCALE
 40
1.0
  9
$DIMASZ
 40
3.5
  9
$DIMEXO
 40
0.0
  9
$DIMDLI
 40
22.572
  9
$DIMEXE
 40
2.0
  9
$DIMCEN
 40
5.346
  9
$DIMLFAC
 40
1.0
  9
$DIMBLK
  1
_FILLED
  9
$DIMALT
 70
0
  9
$DIMALTF
 40
0.0393700787
  9
$DIMTXT
 40
3.5
  9
$AUNITS
 70
0
  9
$PDMODE
 70
3
  9
$PDSIZE
 40
0.3125
  9
$TILEMODE
 70
1
  0
ENDSEC
  0
SECTION
  2
TABLES
  0
TABLE
  2
LTYPE
 70
6
  0
LTYPE
  2
BYBLOCK
 70
0
  3

 72
65
 73
0
 40
0.0
  0
LTYPE
  2
BYLAYER
 70
0
  3

 72
65
 73
0
 40
0.0
  0
LTYPE
  2
CONTINUOUS
 70
64
  3
Solid line
 72
65
 73
0
 40
0.0
  0
LTYPE
  2
CENTER
 70
64
  3
____ _ ____ _ ____ _ ____ _ ____ _ ____ _ ____
 72
65
 73
4
 40
0.6
 49
0.375
 49
-0.075
 49
0.075
 49
-0.075
  0
LTYPE
  2
HIDDEN
 70
64
  3
- - - - - - - - - - - - - - - - - - - -
 72
65
 73
2
 40
0.2
 49
0.1
 49
-0.1
  0
LTYPE
  2
PHANTOM
 70
64
  3
_____ _ _ _____ _ _ _____ _ _ _____
 72
65
 73
6
 40
0.8
 49
0.45
 49
-0.05
 49
0.1
 49
-0.05
 49
0.1
 49
-0.05
  0
LTYPE
  2
DOT
 70
64
  3
. . . . . . . . . . . . . . . . . . . .
 72
65
 73
2
 40
0.2
 49
0.1
 49
-0.1
  0
LTYPE
  2
DASHED
 70
64
  3
- - - - - - - - - - - - - - - - - - - -
 72
65
 73
2
 40
0.2
 49
0.1
 49
-0.1
  0
ENDTAB
  0
TABLE
  2
LAYER
 70
36
  0
LAYER
  2
0
 70
0
 62
7
  6
CONTINUOUS
  0
LAYER
  2
DEFAULT_1
 70
0
 62
7
  6
CENTER
  0
LAYER
  2
DEFAULT_2
 70
0
 62
8
  6
HIDDEN
  0
LAYER
  2
DEFAULT_3
 70
0
 62
7
  6
PHANTOM
  0
LAYER
  2
1_CSYS
 70
0
 62
7
  6
CONTINUOUS
  0
LAYER
  2
1_DATUM_PLANE
 70
0
 62
7
  6
CONTINUOUS
  0
LAYER
  2
2_FEATURE
 70
0
 62
7
  6
CONTINUOUS
  0
LAYER
  2
6_DIM
 70
0
 62
7
  6
CONTINUOUS
  0
LAYER
  2
AXES
 70
0
 62
7
  6
CONTINUOUS
  0
LAYER
  2
BLANK_BELT
 70
0
 62
7
  6
CONTINUOUS
  0
LAYER
  2
BLANK_CURVE_BORE
 70
0
 62
7
  6
CONTINUOUS
  0
LAYER
  2
BLANK_PLAN
 70
0
 62
7
  6
CONTINUOUS
  0
LAYER
  2
BLANK_SQ
 70
0
 62
7
  6
CONTINUOUS
  0
LAYER
  2
CSYS
 70
0
 62
7
  6
CONTINUOUS
  0
LAYER
  2
DTM_AXES
 70
0
 62
7
  6
CONTINUOUS
  0
LAYER
  2
DTM_CRV
 70
0
 62
7
  6
CONTINUOUS
  0
LAYER
  2
NOTES
 70
0
 62
7
  6
CONTINUOUS
  0
LAYER
  2
OUTERLINE
 70
0
 62
7
  6
CONTINUOUS
  0
LAYER
  2
PITCH_LINE
 70
0
 62
7
  6
CONTINUOUS
  0
LAYER
  2
PLANES
 70
0
 62
7
  6
CONTINUOUS
  0
LAYER
  2
QUILTS
 70
0
 62
7
  6
CONTINUOUS
  0
ENDTAB
  0
TABLE
  2
STYLE
 70
1
  0
STYLE
  2
STANDARD
 70
0
 40
0.0
 41
0.8
 50
0.0
 71
0
 42
0.2
  3
txt
  4

  0
STYLE
  2
TEXTSTYLE_1
 70
0
 40
0.0
 41
0.8
 50
0.0
 71
0
 42
0.2
  3
gdt
  4

  0
STYLE
  2
TEXTSTYLE_2
 70
0
 40
0.0
 41
0.6
 50
0.0
 71
0
 42
0.2
  3
txt
  4

  0
STYLE
  2
TEXTSTYLE_3
 70
0
 40
0.0
 41
1.0
 50
0.0
 71
0
 42
0.2
  3
ftb_____.ttf
  4

  0
STYLE
  2
TEXTSTYLE_4
 70
0
 40
0.0
 41
1.0
 50
0.0
 71
0
 42
0.2
  3
fti_____.ttf
  4

  0
STYLE
  2
TEXTSTYLE_5
 70
0
 40
0.0
 41
1.0
 50
0.0
 71
0
 42
0.2
  3
frutiger light.ttf
  4

  0
STYLE
  2
TEXTSTYLE_6
 70
0
 40
0.0
 41
0.7
 50
0.0
 71
0
 42
0.2
  3
txt
  4

  0
STYLE
  2
TEXTSTYLE_7
 70
0
 40
0.0
 41
0.8
 50
0.0
 71
0
 42
0.2
  3
txt
  4

  0
ENDTAB
  0
ENDSEC
  0
SECTION
  2
BLOCKS
  0
BLOCK
  8
0
 62
2
  6
CONTINUOUS
  2
UNI_LOGO2_BL1
 70
64
 10
557.4079930916
 20
35.8092573885
  0
TEXT
  8
0
 62
7
  6
CONTINUOUS
 10
548.4662781001
 20
30.9020137655
  7
TEXTSTYLE_4
 40
1.0655737705
  1
The brand for plastic modular belts and chains
 41
1.0
 72
0
  0
LINE
  8
0
 62
7
  6
CONTINUOUS
 10
533.3860614807
 20
36.3830278803
 11
533.3860614807
 21
34.2518803393
  0
LINE
  8
0
 62
7
  6
CONTINUOUS
 10
533.6751239738
 20
31.2609490436
 11
533.6751239738
 21
31.3577401029
  0
LINE
  8
0
 62
7
  6
CONTINUOUS
 10
533.3860614807
 20
31.3254764164
 11
533.4438739824
 21
31.1318942979
  0
LINE
  8
0
 62
7
  6
CONTINUOUS
 10
534.7795041036
 20
34.1699131262
 11
534.7795041036
 21
36.3830278803
  0
LINE
  8
0
 62
7
  6
CONTINUOUS
 10
535.6985614255
 20
32.3256508311
 11
535.6985614255
 21
30.8092573885
  0
LINE
  8
0
 62
7
  6
CONTINUOUS
 10
535.9876239807
 20
30.8092573885
 11
535.9876239807
 21
31.5513222666
  0
LINE
  8
0
 62
7
  6
CONTINUOUS
 10
535.9876239807
 20
31.6803770123
 11
535.9876239807
 21
32.3256508311
  0
LINE
  8
0
 62
7
  6
CONTINUOUS
 10
533.4438739824
 20
31.5190585802
 11
533.3860614807
 21
31.3254764164
  0
LINE
  8
0
 62
7
  6
CONTINUOUS
 10
533.7907489669
 20
31.0996306115
 11
533.6751239738
 21
31.2609490436
  0
LINE
  8
0
 62
7
  6
CONTINUOUS
 10
534.8891865358
 20
31.6158496394
 11
534.9469989807
 21
31.5190585802
  0
LINE
  8
0
 62
7
  6
CONTINUOUS
 10
535.2360615358
 20
31.5190585802
 11
535.1782489255
 21
31.6481133259
  0
LINE
  8
0
 62
7
  6
CONTINUOUS
 10
536.6647500053
 20
36.3830278803
 11
536.6647500053
 21
34.5797491918
  0
LINE
  8
0
 62
7
  6
CONTINUOUS
 10
536.6647500053
 20
33.2682737819
 11
536.6647500053
 21
32.612536077
  0
LINE
  8
0
 62
7
  6
CONTINUOUS
 10
537.0282489807
 20
31.4545312073
 11
537.0282489807
 21
30.8092573885
  0
LINE
  8
0
 62
7
  6
CONTINUOUS
 10
537.3173113704
 20
30.8092573885
 11
537.3173113704
 21
31.4545312073
  0
LINE
  8
0
 62
7
  6
CONTINUOUS
 10
533.6751239738
 20
31.3577401029
 11
533.7329364807
 21
31.4867948937
  0
LINE
  8
0
 62
7
  6
CONTINUOUS
 10
533.4438739824
 20
31.1318942979
 11
533.5594989807
 21
31.0028395296
  0
LINE
  8
0
 62
7
  6
CONTINUOUS
 10
536.9704363704
 20
31.583585953
 11
537.0282489807
 21
31.4545312073
  0
LINE
  8
0
 62
7
  6
CONTINUOUS
 10
537.7798115909
 20
31.0996306115
 11
537.8376238704
 21
30.9705758432
  0
LINE
  8
0
 62
7
  6
CONTINUOUS
 10
537.3173113704
 20
31.4545312073
 11
537.2594990909
 21
31.6158496394
  0
LINE
  8
0
 62
7
  6
CONTINUOUS
 10
537.7798115909
 20
31.6481133259
 11
537.7798115909
 21
31.583585953
  0
LINE
  8
0
 62
7
  6
CONTINUOUS
 10
537.7798115909
 20
31.1964216708
 11
537.7798115909
 21
31.0996306115
  0
LINE
  8
0
 62
7
  6
CONTINUOUS
 10
538.0581926282
 20
32.612536077
 11
538.0581926282
 21
36.3830278803
  0
LINE
  8
0
 62
7
  6
CONTINUOUS
 10
538.0688739807
 20
31.0673669025
 11
538.0688739807
 21
31.1318942979
  0
LINE
  8
0
 62
7
  6
CONTINUOUS
 10
538.3860614807
 20
36.3830278803
 11
538.3860614807
 21
32.612536077
  0
LINE
  8
0
 62
7
  6
CONTINUOUS
 10
535.1782489255
 20
31.0028395296
 11
535.2360615358
 21
31.1318942979
  0
LINE
  8
0
 62
7
  6
CONTINUOUS
 10
539.5719992012
 20
30.9060484591
 11
539.5141862601
 21
31.0673669025
  0
LINE
  8
0
 62
7
  6
CONTINUOUS
 10
539.2251242012
 20
31.583585953
 11
539.2251242012
 21
31.4867948937
  0
LINE
  8
0
 62
7
  6
CONTINUOUS
 10
539.2251242012
 20
31.3577401029
 11
539.2251242012
 21
31.1641579843
  0
LINE
  8
0
 62
7
  6
CONTINUOUS
 10
539.5141862601
 20
31.0673669025
 11
539.5141862601
 21
31.583585953
  0
LINE
  8
0
 62
7
  6
CONTINUOUS
 10
539.7795041036
 20
32.612536077
 11
539.7795041036
 21
34.4158147655
  0
LINE
  8
0
 62
7
  6
CONTINUOUS
 10
539.7795041036
 20
35.7272901754
 11
539.7795041036
 21
36.3830278803
  0
LINE
  8
0
 62
7
  6
CONTINUOUS
 10
540.0923117012
 20
32.3256508311
 11
540.0923117012
 21
32.164332399
  0
LINE
  8
0
 62
7
  6
CONTINUOUS
 10
540.0923117012
 20
31.8416954444
 11
540.0923117012
 21
30.8092573885
  0
LINE
  8
0
 62
7
  6
CONTINUOUS
 10
540.3813737601
 20
30.8092573885
 11
540.3813737601
 21
31.8416954444
  0
LINE
  8
0
 62
7
  6
CONTINUOUS
 10
540.3813737601
 20
32.164332399
 11
540.3813737601
 21
32.3256508311
  0
LINE
  8
0
 62
7
  6
CONTINUOUS
 10
534.9469989807
 20
31.1318942979
 11
534.8891865358
 21
31.035103216
  0
LINE
  8
0
 62
7
  6
CONTINUOUS
 10
537.2594990909
 20
31.6158496394
 11
537.2016864807
 21
31.6803770123
  0
LINE
  8
0
 62
7
  6
CONTINUOUS
 10
538.1266865909
 20
31.0028395296
 11
538.0688739807
 21
31.0673669025
  0
LINE
  8
0
 62
7
  6
CONTINUOUS
 10
539.2829364807
 20
30.873784767
 11
539.3407487601
 21
30.8092573885
  0
LINE
  8
0
 62
7
  6
CONTINUOUS
 10
539.2251242012
 20
30.9705758432
 11
539.2829364807
 21
30.873784767
  0
LINE
  8
0
 62
7
  6
CONTINUOUS
 10
539.6298114807
 20
30.8092573885
 11
539.5719992012
 21
30.9060484591
  0
LINE
  8
0
 62
7
  6
CONTINUOUS
 10
539.5141862601
 20
31.583585953
 11
539.4563739807
 21
31.6803770123
  0
LINE
  8
0
 62
7
  6
CONTINUOUS
 10
540.8438739807
 20
31.8416954444
 11
540.8438739807
 21
30.8092573885
  0
LINE
  8
0
 62
7
  6
CONTINUOUS
 10
541.1329367012
 20
30.8092573885
 11
541.1329367012
 21
31.5513222666
  0
LINE
  8
0
 62
7
  6
CONTINUOUS
 10
541.1329367012
 20
31.6803770123
 11
541.1329367012
 21
31.8416954444
  0
LINE
  8
0
 62
7
  6
CONTINUOUS
 10
541.6647500053
 20
34.8256508311
 11
541.6647500053
 21
32.612536077
  0
LINE
  8
0
 62
7
  6
CONTINUOUS
 10
533.5594989807
 20
31.6481133259
 11
533.4438739824
 21
31.5190585802
  0
LINE
  8
0
 62
7
  6
CONTINUOUS
 10
533.7329364807
 20
31.4867948937
 11
533.7907489669
 21
31.5513222666
  0
LINE
  8
0
 62
7
  6
CONTINUOUS
 10
533.5594989807
 20
31.0028395296
 11
533.6751239738
 21
30.9383121455
  0
LINE
  8
0
 62
7
  6
CONTINUOUS
 10
533.9641864669
 20
31.0028395296
 11
533.7907489669
 21
31.0996306115
  0
LINE
  8
0
 62
7
  6
CONTINUOUS
 10
539.1673112601
 20
31.6481133259
 11
539.2251242012
 21
31.583585953
  0
LINE
  8
0
 62
7
  6
CONTINUOUS
 10
542.1157487601
 20
31.583585953
 11
542.1735617012
 21
31.4222675209
  0
LINE
  8
0
 62
7
  6
CONTINUOUS
 10
542.4626237601
 20
31.4222675209
 11
542.4048114807
 21
31.583585953
  0
LINE
  8
0
 62
7
  6
CONTINUOUS
 10
542.1735617012
 20
31.4222675209
 11
542.1735617012
 21
30.8092573885
  0
LINE
  8
0
 62
7
  6
CONTINUOUS
 10
542.4626237601
 20
30.8092573885
 11
542.4626237601
 21
31.4222675209
  0
LINE
  8
0
 62
7
  6
CONTINUOUS
 10
542.9251239807
 20
31.6481133259
 11
542.9251239807
 21
31.583585953
  0
LINE
  8
0
 62
7
  6
CONTINUOUS
 10
543.0581926282
 20
32.612536077
 11
543.0581926282
 21
34.743683618
  0
LINE
  8
0
 62
7
  6
CONTINUOUS
 10
543.3860614807
 20
36.3830278803
 11
543.3860614807
 21
32.612536077
  0
LINE
  8
0
 62
7
  6
CONTINUOUS
 10
538.0688739807
 20
31.1318942979
 11
538.1266865909
 21
31.2286853572
  0
LINE
  8
0
 62
7
  6
CONTINUOUS
 10
533.6751239738
 20
30.9383121455
 11
533.8485614944
 21
30.873784767
  0
LINE
  8
0
 62
7
  6
CONTINUOUS
 10
535.1782489255
 20
31.6481133259
 11
535.0048114255
 21
31.7449043851
  0
LINE
  8
0
 62
7
  6
CONTINUOUS
 10
537.8376238704
 20
30.9705758432
 11
538.0110613704
 21
30.873784767
  0
LINE
  8
0
 62
7
  6
CONTINUOUS
 10
536.8548114807
 20
31.6481133259
 11
536.9704363704
 21
31.583585953
  0
LINE
  8
0
 62
7
  6
CONTINUOUS
 10
537.2016864807
 20
31.6803770123
 11
537.0860615909
 21
31.7449043851
  0
LINE
  8
0
 62
7
  6
CONTINUOUS
 10
542.9251239807
 20
31.0673669025
 11
543.0407492012
 21
30.9383121455
  0
LINE
  8
0
 62
7
  6
CONTINUOUS
 10
543.2719989807
 20
31.0028395296
 11
543.2141867012
 21
31.0673669025
  0
LINE
  8
0
 62
7
  6
CONTINUOUS
 10
542.9251239807
 20
31.583585953
 11
543.0407492012
 21
31.4545312073
  0
LINE
  8
0
 62
7
  6
CONTINUOUS
 10
542.4048114807
 20
31.583585953
 11
542.3469992012
 21
31.6803770123
  0
LINE
  8
0
 62
7
  6
CONTINUOUS
 10
544.7751235396
 20
31.0028395296
 11
544.7751235396
 21
31.0673669025
  0
LINE
  8
0
 62
7
  6
CONTINUOUS
 10
544.7795041036
 20
32.612536077
 11
544.7795041036
 21
36.3830278803
  0
LINE
  8
0
 62
7
  6
CONTINUOUS
 10
537.8376238704
 20
31.7126406987
 11
537.7798115909
 21
31.6481133259
  0
LINE
  8
0
 62
7
  6
CONTINUOUS
 10
534.7157489531
 20
31.6803770123
 11
534.8891865358
 21
31.6158496394
  0
LINE
  8
0
 62
7
  6
CONTINUOUS
 10
539.4563739807
 20
31.6803770123
 11
539.3407487601
 21
31.7449043851
  0
LINE
  8
0
 62
7
  6
CONTINUOUS
 10
543.2719989807
 20
31.5190585802
 11
543.2141867012
 21
31.583585953
  0
LINE
  8
0
 62
7
  6
CONTINUOUS
 10
544.4282492012
 20
31.1318942979
 11
544.4860614807
 21
31.0673669025
  0
LINE
  8
0
 62
7
  6
CONTINUOUS
 10
544.7751235396
 20
31.0673669025
 11
544.6594989807
 21
31.1964216708
  0
LINE
  8
0
 62
7
  6
CONTINUOUS
 10
544.4282492012
 20
31.6481133259
 11
544.4860614807
 21
31.583585953
  0
LINE
  8
0
 62
7
  6
CONTINUOUS
 10
544.7751235396
 20
31.583585953
 11
544.6594989807
 21
31.7126406987
  0
LINE
  8
0
 62
7
  6
CONTINUOUS
 10
538.0688739807
 20
31.583585953
 11
538.1266865909
 21
31.6481133259
  0
LINE
  8
0
 62
7
  6
CONTINUOUS
 10
537.8954364807
 20
31.3254764164
 11
537.7798115909
 21
31.1964216708
  0
LINE
  8
0
 62
7
  6
CONTINUOUS
 10
539.2251242012
 20
31.1641579843
 11
539.1673112601
 21
31.0996306115
  0
LINE
  8
0
 62
7
  6
CONTINUOUS
 10
539.1673112601
 20
30.9060484591
 11
539.2251242012
 21
30.9705758432
  0
LINE
  8
0
 62
7
  6
CONTINUOUS
 10
538.0110613704
 20
30.873784767
 11
538.1266865909
 21
30.8415210777
  0
LINE
  8
0
 62
7
  6
CONTINUOUS
 10
535.0048114255
 20
31.7449043851
 11
534.7735614807
 21
31.809431758
  0
LINE
  8
0
 62
7
  6
CONTINUOUS
 10
538.3579363704
 20
30.9383121455
 11
538.1266865909
 21
31.0028395296
  0
LINE
  8
0
 62
7
  6
CONTINUOUS
 10
537.0860615909
 20
31.7449043851
 11
536.9126240909
 21
31.809431758
  0
LINE
  8
0
 62
7
  6
CONTINUOUS
 10
539.3407487601
 20
31.7449043851
 11
539.1673112601
 21
31.809431758
  0
LINE
  8
0
 62
7
  6
CONTINUOUS
 10
542.0001242012
 20
31.6481133259
 11
542.1157487601
 21
31.583585953
  0
LINE
  8
0
 62
7
  6
CONTINUOUS
 10
542.3469992012
 20
31.6803770123
 11
542.2313739807
 21
31.7449043851
  0
LINE
  8
0
 62
7
  6
CONTINUOUS
 10
533.8485614944
 20
30.873784767
 11
534.0219989944
 21
30.8415210777
  0
LINE
  8
0
 62
7
  6
CONTINUOUS
 10
534.3110615082
 20
30.9383121455
 11
533.9641864669
 21
31.0028395296
  0
LINE
  8
0
 62
7
  6
CONTINUOUS
 10
536.7391865909
 20
31.6803770123
 11
536.8548114807
 21
31.6481133259
  0
LINE
  8
0
 62
7
  6
CONTINUOUS
 10
539.0516867012
 20
31.6803770123
 11
539.1673112601
 21
31.6481133259
  0
LINE
  8
0
 62
7
  6
CONTINUOUS
 10
543.3876242012
 20
30.9705758432
 11
543.2719989807
 21
31.0028395296
  0
LINE
  8
0
 62
7
  6
CONTINUOUS
 10
541.8844989807
 20
31.6803770123
 11
542.0001242012
 21
31.6481133259
  0
LINE
  8
0
 62
7
  6
CONTINUOUS
 10
543.0407492012
 20
30.9383121455
 11
543.2141867012
 21
30.873784767
  0
LINE
  8
0
 62
7
  6
CONTINUOUS
 10
542.2313739807
 20
31.7449043851
 11
542.0579364807
 21
31.809431758
  0
LINE
  8
0
 62
7
  6
CONTINUOUS
 10
543.4454364807
 20
31.4545312073
 11
543.2719989807
 21
31.5190585802
  0
LINE
  8
0
 62
7
  6
CONTINUOUS
 10
544.2548117012
 20
31.1964216708
 11
544.4282492012
 21
31.1318942979
  0
LINE
  8
0
 62
7
  6
CONTINUOUS
 10
544.6594989807
 20
31.7126406987
 11
544.4860614807
 21
31.7771680715
  0
LINE
  8
0
 62
7
  6
CONTINUOUS
 10
543.0407492012
 20
31.4545312073
 11
543.2719989807
 21
31.3577401029
  0
LINE
  8
0
 62
7
  6
CONTINUOUS
 10
544.6594989807
 20
31.1964216708
 11
544.4282492012
 21
31.29321273
  0
LINE
  8
0
 62
7
  6
CONTINUOUS
 10
543.2141867012
 20
31.583585953
 11
543.2719989807
 21
31.6481133259
  0
LINE
  8
0
 62
7
  6
CONTINUOUS
 10
533.6751239738
 20
31.7126406987
 11
533.5594989807
 21
31.6481133259
  0
LINE
  8
0
 62
7
  6
CONTINUOUS
 10
533.7907489669
 20
31.5513222666
 11
533.9641864669
 21
31.6481133259
  0
LINE
  8
0
 62
7
  6
CONTINUOUS
 10
536.1032490358
 20
31.7449043851
 11
535.9876239807
 21
31.6803770123
  0
LINE
  8
0
 62
7
  6
CONTINUOUS
 10
535.9876239807
 20
31.5513222666
 11
536.1032490358
 21
31.6158496394
  0
LINE
  8
0
 62
7
  6
CONTINUOUS
 10
535.0048114255
 20
30.9060484591
 11
535.1782489255
 21
31.0028395296
  0
LINE
  8
0
 62
7
  6
CONTINUOUS
 10
534.0219989944
 20
30.8415210777
 11
534.3688739531
 21
30.8092573885
  0
LINE
  8
0
 62
7
  6
CONTINUOUS
 10
538.1266865909
 20
30.8415210777
 11
538.3579363704
 21
30.8092573885
  0
LINE
  8
0
 62
7
  6
CONTINUOUS
 10
536.5079364807
 20
31.7126406987
 11
536.7391865909
 21
31.6803770123
  0
LINE
  8
0
 62
7
  6
CONTINUOUS
 10
538.8204365909
 20
31.7126406987
 11
539.0516867012
 21
31.6803770123
  0
LINE
  8
0
 62
7
  6
CONTINUOUS
 10
543.2719989807
 20
31.3577401029
 11
544.2548117012
 21
31.1964216708
  0
LINE
  8
0
 62
7
  6
CONTINUOUS
 10
544.4282492012
 20
31.29321273
 11
543.4454364807
 21
31.4545312073
  0
LINE
  8
0
 62
7
  6
CONTINUOUS
 10
536.9126240909
 20
31.809431758
 11
536.7391865909
 21
31.8416954444
  0
LINE
  8
0
 62
7
  6
CONTINUOUS
 10
543.2141867012
 20
30.873784767
 11
543.3876242012
 21
30.8415210777
  0
LINE
  8
0
 62
7
  6
CONTINUOUS
 10
542.0579364807
 20
31.809431758
 11
541.8844989807
 21
31.8416954444
  0
LINE
  8
0
 62
7
  6
CONTINUOUS
 10
544.3126239807
 20
31.6803770123
 11
544.4282492012
 21
31.6481133259
  0
LINE
  8
0
 62
7
  6
CONTINUOUS
 10
544.4860614807
 20
31.0673669025
 11
544.4282492012
 21
31.0028395296
  0
LINE
  8
0
 62
7
  6
CONTINUOUS
 10
543.0407492012
 20
31.7449043851
 11
542.9251239807
 21
31.6481133259
  0
LINE
  8
0
 62
7
  6
CONTINUOUS
 10
537.9532490909
 20
31.7771680715
 11
537.8376238704
 21
31.7126406987
  0
LINE
  8
0
 62
7
  6
CONTINUOUS
 10
538.0110613704
 20
31.3900038345
 11
537.8954364807
 21
31.3254764164
  0
LINE
  8
0
 62
7
  6
CONTINUOUS
 10
538.1266865909
 20
31.2286853572
 11
538.2423114807
 21
31.29321273
  0
LINE
  8
0
 62
7
  6
CONTINUOUS
 10
535.6985614255
 20
30.8092573885
 11
535.9876239807
 21
30.8092573885
  0
LINE
  8
0
 62
7
  6
CONTINUOUS
 10
537.0282489807
 20
30.8092573885
 11
537.3173113704
 21
30.8092573885
  0
LINE
  8
0
 62
7
  6
CONTINUOUS
 10
538.3579363704
 20
30.8092573885
 11
538.7048113704
 21
30.8092573885
  0
LINE
  8
0
 62
7
  6
CONTINUOUS
 10
539.3407487601
 20
30.8092573885
 11
539.6298114807
 21
30.8092573885
  0
LINE
  8
0
 62
7
  6
CONTINUOUS
 10
540.0923117012
 20
30.8092573885
 11
540.3813737601
 21
30.8092573885
  0
LINE
  8
0
 62
7
  6
CONTINUOUS
 10
540.8438739807
 20
30.8092573885
 11
541.1329367012
 21
30.8092573885
  0
LINE
  8
0
 62
7
  6
CONTINUOUS
 10
542.1735617012
 20
30.8092573885
 11
542.4626237601
 21
30.8092573885
  0
LINE
  8
0
 62
7
  6
CONTINUOUS
 10
543.7344992012
 20
30.8092573885
 11
544.0813742012
 21
30.8092573885
  0
LINE
  8
0
 62
7
  6
CONTINUOUS
 10
544.0813742012
 20
30.9383121455
 11
543.7344992012
 21
30.9383121455
  0
LINE
  8
0
 62
7
  6
CONTINUOUS
 10
538.7048113704
 20
30.9383121455
 11
538.3579363704
 21
30.9383121455
  0
LINE
  8
0
 62
7
  6
CONTINUOUS
 10
543.2141867012
 20
31.0673669025
 11
542.9251239807
 21
31.0673669025
  0
LINE
  8
0
 62
7
  6
CONTINUOUS
 10
535.2360615358
 20
31.1318942979
 11
534.9469989807
 21
31.1318942979
  0
LINE
  8
0
 62
7
  6
CONTINUOUS
 10
534.3110615082
 20
31.7126406987
 11
534.7157489531
 21
31.6803770123
  0
LINE
  8
0
 62
7
  6
CONTINUOUS
 10
534.7735614807
 20
31.809431758
 11
534.3688739531
 21
31.8416954444
  0
LINE
  8
0
 62
7
  6
CONTINUOUS
 10
543.3876242012
 20
30.8415210777
 11
543.7344992012
 21
30.8092573885
  0
LINE
  8
0
 62
7
  6
CONTINUOUS
 10
543.7344992012
 20
30.9383121455
 11
543.3876242012
 21
30.9705758432
  0
LINE
  8
0
 62
7
  6
CONTINUOUS
 10
539.1673112601
 20
31.809431758
 11
538.8204365909
 21
31.8416954444
  0
LINE
  8
0
 62
7
  6
CONTINUOUS
 10
543.9657489807
 20
31.7126406987
 11
544.3126239807
 21
31.6803770123
  0
LINE
  8
0
 62
7
  6
CONTINUOUS
 10
544.3126239807
 20
31.809431758
 11
543.9657489807
 21
31.8416954444
  0
LINE
  8
0
 62
7
  6
CONTINUOUS
 10
541.6532492012
 20
31.7126406987
 11
541.8844989807
 21
31.6803770123
  0
LINE
  8
0
 62
7
  6
CONTINUOUS
 10
544.4860614807
 20
31.7771680715
 11
544.3126239807
 21
31.809431758
  0
LINE
  8
0
 62
7
  6
CONTINUOUS
 10
544.6594989807
 20
30.9060484591
 11
544.7751235396
 21
31.0028395296
  0
LINE
  8
0
 62
7
  6
CONTINUOUS
 10
539.1673112601
 20
31.0996306115
 11
538.9938737601
 21
31.0028395296
  0
LINE
  8
0
 62
7
  6
CONTINUOUS
 10
541.2485612601
 20
31.7449043851
 11
541.1329367012
 21
31.6803770123
  0
LINE
  8
0
 62
7
  6
CONTINUOUS
 10
541.1329367012
 20
31.5513222666
 11
541.2485612601
 21
31.6158496394
  0
LINE
  8
0
 62
7
  6
CONTINUOUS
 10
533.8485614944
 20
31.7771680715
 11
533.6751239738
 21
31.7126406987
  0
LINE
  8
0
 62
7
  6
CONTINUOUS
 10
536.2766863704
 20
31.809431758
 11
536.1032490358
 21
31.7449043851
  0
LINE
  8
0
 62
7
  6
CONTINUOUS
 10
536.1032490358
 20
31.6158496394
 11
536.2766863704
 21
31.6803770123
  0
LINE
  8
0
 62
7
  6
CONTINUOUS
 10
534.8891865358
 20
31.035103216
 11
534.7157489531
 21
30.9705758432
  0
LINE
  8
0
 62
7
  6
CONTINUOUS
 10
544.3126239807
 20
30.9705758432
 11
544.0813742012
 21
30.9383121455
  0
LINE
  8
0
 62
7
  6
CONTINUOUS
 10
538.7048113704
 20
30.8092573885
 11
538.9938737601
 21
30.8415210777
  0
LINE
  8
0
 62
7
  6
CONTINUOUS
 10
544.0813742012
 20
30.8092573885
 11
544.4282492012
 21
30.8415210777
  0
LINE
  8
0
 62
7
  6
CONTINUOUS
 10
534.3688739531
 20
30.8092573885
 11
534.7735614807
 21
30.8415210777
  0
LINE
  8
0
 62
7
  6
CONTINUOUS
 10
534.7157489531
 20
30.9705758432
 11
534.3110615082
 21
30.9383121455
  0
LINE
  8
0
 62
7
  6
CONTINUOUS
 10
538.5891864807
 20
31.3577401029
 11
539.2251242012
 21
31.3577401029
  0
LINE
  8
0
 62
7
  6
CONTINUOUS
 10
539.2251242012
 20
31.4867948937
 11
538.5891864807
 21
31.4867948937
  0
LINE
  8
0
 62
7
  6
CONTINUOUS
 10
534.9469989807
 20
31.5190585802
 11
535.2360615358
 21
31.5190585802
  0
LINE
  8
0
 62
7
  6
CONTINUOUS
 10
537.7798115909
 20
31.583585953
 11
538.0688739807
 21
31.583585953
  0
LINE
  8
0
 62
7
  6
CONTINUOUS
 10
544.4860614807
 20
31.583585953
 11
544.7751235396
 21
31.583585953
  0
LINE
  8
0
 62
7
  6
CONTINUOUS
 10
538.4735615909
 20
31.7126406987
 11
538.8204365909
 21
31.7126406987
  0
LINE
  8
0
 62
7
  6
CONTINUOUS
 10
543.6188739807
 20
31.7126406987
 11
543.9657489807
 21
31.7126406987
  0
LINE
  8
0
 62
7
  6
CONTINUOUS
 10
543.9657489807
 20
31.8416954444
 11
543.6188739807
 21
31.8416954444
  0
LINE
  8
0
 62
7
  6
CONTINUOUS
 10
541.8844989807
 20
31.8416954444
 11
541.6532492012
 21
31.8416954444
  0
LINE
  8
0
 62
7
  6
CONTINUOUS
 10
541.1329367012
 20
31.8416954444
 11
540.8438739807
 21
31.8416954444
  0
LINE
  8
0
 62
7
  6
CONTINUOUS
 10
540.3813737601
 20
31.8416954444
 11
540.0923117012
 21
31.8416954444
  0
LINE
  8
0
 62
7
  6
CONTINUOUS
 10
538.8204365909
 20
31.8416954444
 11
538.4735615909
 21
31.8416954444
  0
LINE
  8
0
 62
7
  6
CONTINUOUS
 10
536.7391865909
 20
31.8416954444
 11
536.5079364807
 21
31.8416954444
  0
LINE
  8
0
 62
7
  6
CONTINUOUS
 10
540.0923117012
 20
32.164332399
 11
540.3813737601
 21
32.164332399
  0
LINE
  8
0
 62
7
  6
CONTINUOUS
 10
540.3813737601
 20
32.3256508311
 11
540.0923117012
 21
32.3256508311
  0
LINE
  8
0
 62
7
  6
CONTINUOUS
 10
535.9876239807
 20
32.3256508311
 11
535.6985614255
 21
32.3256508311
  0
LINE
  8
0
 62
7
  6
CONTINUOUS
 10
535.025405743
 20
32.612536077
 11
535.4379770916
 21
32.612536077
  0
LINE
  8
0
 62
7
  6
CONTINUOUS
 10
536.6647500053
 20
32.612536077
 11
538.0581926282
 21
32.612536077
  0
LINE
  8
0
 62
7
  6
CONTINUOUS
 10
538.3860614807
 20
32.612536077
 11
539.7795041036
 21
32.612536077
  0
LINE
  8
0
 62
7
  6
CONTINUOUS
 10
541.6647500053
 20
32.612536077
 11
543.0581926282
 21
32.612536077
  0
LINE
  8
0
 62
7
  6
CONTINUOUS
 10
543.3860614807
 20
32.612536077
 11
544.7795041036
 21
32.612536077
  0
LINE
  8
0
 62
7
  6
CONTINUOUS
 10
541.4219987601
 20
31.809431758
 11
541.2485612601
 21
31.7449043851
  0
LINE
  8
0
 62
7
  6
CONTINUOUS
 10
538.9938737601
 20
30.8415210777
 11
539.1673112601
 21
30.9060484591
  0
LINE
  8
0
 62
7
  6
CONTINUOUS
 10
544.4282492012
 20
30.8415210777
 11
544.6594989807
 21
30.9060484591
  0
LINE
  8
0
 62
7
  6
CONTINUOUS
 10
544.4282492012
 20
31.0028395296
 11
544.3126239807
 21
30.9705758432
  0
LINE
  8
0
 62
7
  6
CONTINUOUS
 10
543.3876242012
 20
31.6803770123
 11
543.6188739807
 21
31.7126406987
  0
LINE
  8
0
 62
7
  6
CONTINUOUS
 10
541.4219987601
 20
31.6803770123
 11
541.6532492012
 21
31.7126406987
  0
LINE
  8
0
 62
7
  6
CONTINUOUS
 10
538.3579363704
 20
31.3254764164
 11
538.5891864807
 21
31.3577401029
  0
LINE
  8
0
 62
7
  6
CONTINUOUS
 10
541.6532492012
 20
31.8416954444
 11
541.4219987601
 21
31.809431758
  0
LINE
  8
0
 62
7
  6
CONTINUOUS
 10
538.2423114807
 20
31.6803770123
 11
538.4735615909
 21
31.7126406987
  0
LINE
  8
0
 62
7
  6
CONTINUOUS
 10
543.6188739807
 20
31.8416954444
 11
543.2719989807
 21
31.809431758
  0
LINE
  8
0
 62
7
  6
CONTINUOUS
 10
538.5891864807
 20
31.4867948937
 11
538.2423114807
 21
31.4545312073
  0
LINE
  8
0
 62
7
  6
CONTINUOUS
 10
534.3688739531
 20
31.8416954444
 11
534.0219989944
 21
31.809431758
  0
LINE
  8
0
 62
7
  6
CONTINUOUS
 10
538.4735615909
 20
31.8416954444
 11
538.0688739807
 21
31.809431758
  0
LINE
  8
0
 62
7
  6
CONTINUOUS
 10
535.8450778741
 20
33.7600770606
 11
535.1893401692
 21
33.7600770606
  0
LINE
  8
0
 62
7
  6
CONTINUOUS
 10
541.2485612601
 20
31.6158496394
 11
541.4219987601
 21
31.6803770123
  0
LINE
  8
0
 62
7
  6
CONTINUOUS
 10
543.2719989807
 20
31.6481133259
 11
543.3876242012
 21
31.6803770123
  0
LINE
  8
0
 62
7
  6
CONTINUOUS
 10
543.2719989807
 20
31.809431758
 11
543.0407492012
 21
31.7449043851
  0
LINE
  8
0
 62
7
  6
CONTINUOUS
 10
538.9938737601
 20
31.0028395296
 11
538.7048113704
 21
30.9383121455
  0
LINE
  8
0
 62
7
  6
CONTINUOUS
 10
536.2766863704
 20
31.6803770123
 11
536.5079364807
 21
31.7126406987
  0
LINE
  8
0
 62
7
  6
CONTINUOUS
 10
536.5079364807
 20
31.8416954444
 11
536.2766863704
 21
31.809431758
  0
LINE
  8
0
 62
7
  6
CONTINUOUS
 10
534.0798114807
 20
31.6803770123
 11
534.3110615082
 21
31.7126406987
  0
LINE
  8
0
 62
7
  6
CONTINUOUS
 10
540.5991762348
 20
35.2354868967
 11
541.2549139397
 21
35.2354868967
  0
LINE
  8
0
 62
7
  6
CONTINUOUS
 10
538.2423114807
 20
31.29321273
 11
538.3579363704
 21
31.3254764164
  0
LINE
  8
0
 62
7
  6
CONTINUOUS
 10
538.2423114807
 20
31.4545312073
 11
538.0110613704
 21
31.3900038345
  0
LINE
  8
0
 62
7
  6
CONTINUOUS
 10
538.1266865909
 20
31.6481133259
 11
538.2423114807
 21
31.6803770123
  0
LINE
  8
0
 62
7
  6
CONTINUOUS
 10
534.7735614807
 20
30.8415210777
 11
535.0048114255
 21
30.9060484591
  0
LINE
  8
0
 62
7
  6
CONTINUOUS
 10
538.0688739807
 20
31.809431758
 11
537.9532490909
 21
31.7771680715
  0
LINE
  8
0
 62
7
  6
CONTINUOUS
 10
534.0219989944
 20
31.809431758
 11
533.8485614944
 21
31.7771680715
  0
LINE
  8
0
 62
7
  6
CONTINUOUS
 10
544.7795041036
 20
36.3830278803
 11
543.3860614807
 21
36.3830278803
  0
LINE
  8
0
 62
7
  6
CONTINUOUS
 10
541.4188483659
 20
36.3830278803
 11
541.0062770173
 21
36.3830278803
  0
LINE
  8
0
 62
7
  6
CONTINUOUS
 10
539.7795041036
 20
36.3830278803
 11
538.3860614807
 21
36.3830278803
  0
LINE
  8
0
 62
7
  6
CONTINUOUS
 10
538.0581926282
 20
36.3830278803
 11
536.6647500053
 21
36.3830278803
  0
LINE
  8
0
 62
7
  6
CONTINUOUS
 10
534.7795041036
 20
36.3830278803
 11
533.3860614807
 21
36.3830278803
  0
LINE
  8
0
 62
7
  6
CONTINUOUS
 10
533.9641864669
 20
31.6481133259
 11
534.0798114807
 21
31.6803770123
  0
CIRCLE
  8
0
 62
7
  6
CONTINUOUS
 10
544.0827827921
 20
38.7190934541
 40
2.0901639344
  0
ARC
  8
0
 62
7
  6
CONTINUOUS
 10
535.025405743
 20
34.2518803393
 40
1.6393442623
 50
180.0
 51
270.0
  0
ARC
  8
0
 62
7
  6
CONTINUOUS
 10
541.4188483659
 20
34.743683618
 40
1.6393442623
 50
0.0
 51
90.0
  0
ARC
  8
0
 62
7
  6
CONTINUOUS
 10
535.4379770916
 20
34.0879459131
 40
1.4754098361
 50
270.0
 51
326.2510114041
  0
ARC
  8
0
 62
7
  6
CONTINUOUS
 10
541.0062770173
 20
34.9076180442
 40
1.4754098361
 50
90.0
 51
146.2510114041
  0
ARC
  8
0
 62
7
  6
CONTINUOUS
 10
535.8450778741
 20
34.5797491918
 40
0.8196721311
 50
270.0
 51
360.0
  0
ARC
  8
0
 62
7
  6
CONTINUOUS
 10
540.5991762348
 20
34.4158147655
 40
0.8196721311
 50
90.0
 51
180.0
  0
ARC
  8
0
 62
7
  6
CONTINUOUS
 10
535.1893401692
 20
34.1699131262
 40
0.4098360656
 50
180.0
 51
270.0
  0
ARC
  8
0
 62
7
  6
CONTINUOUS
 10
541.2549139397
 20
34.8256508311
 40
0.4098360656
 50
0.0
 51
90.0
  0
SOLID
  8
0
 62
7
  6
CONTINUOUS
 10
540.0923117012
 20
32.1643327593
 11
540.0923117012
 21
32.3256512429
 12
540.3813737601
 22
32.1643327593
 13
540.3813737601
 23
32.3256512429
  0
SOLID
  8
0
 62
7
  6
CONTINUOUS
 10
534.3688739531
 20
31.841695792
 11
534.7735614807
 21
31.8094316148
 12
534.0219989944
 22
31.8094316148
 13
534.0219989944
 23
31.8094316148
  0
SOLID
  8
0
 62
7
  6
CONTINUOUS
 10
533.8485614944
 20
31.7771687019
 11
534.0219989944
 21
31.8094316148
 12
534.7735614807
 22
31.8094316148
 13
534.7735614807
 23
31.8094316148
  0
SOLID
  8
0
 62
7
  6
CONTINUOUS
 10
534.7735614807
 20
31.8094316148
 11
535.0048114255
 21
31.7449043986
 12
533.8485614944
 22
31.7771687019
 13
533.8485614944
 23
31.7771687019
  0
SOLID
  8
0
 62
7
  6
CONTINUOUS
 10
533.6751239738
 20
31.712640202
 11
533.8485614944
 21
31.7771687019
 12
535.0048114255
 22
31.7449043986
 13
535.0048114255
 23
31.7449043986
  0
SOLID
  8
0
 62
7
  6
CONTINUOUS
 10
533.6751239738
 20
31.712640202
 11
535.0048114255
 21
31.7449043986
 12
534.3110615082
 22
31.712640202
 13
534.3110615082
 23
31.712640202
  0
SOLID
  8
0
 62
7
  6
CONTINUOUS
 10
534.3110615082
 20
31.712640202
 11
535.0048114255
 21
31.7449043986
 12
534.7157489531
 22
31.6803773084
 13
534.7157489531
 23
31.6803773084
  0
SOLID
  8
0
 62
7
  6
CONTINUOUS
 10
535.0048114255
 20
31.7449043986
 11
535.1782489255
 21
31.6481130052
 12
534.7157489531
 22
31.6803773084
 13
534.7157489531
 23
31.6803773084
  0
SOLID
  8
0
 62
7
  6
CONTINUOUS
 10
534.8891865358
 20
31.6158502183
 11
534.7157489531
 21
31.6803773084
 12
535.1782489255
 22
31.6481130052
 13
535.1782489255
 23
31.6481130052
  0
SOLID
  8
0
 62
7
  6
CONTINUOUS
 10
534.8891865358
 20
31.6158502183
 11
535.1782489255
 21
31.6481130052
 12
534.9469989807
 22
31.5190586669
 13
534.9469989807
 23
31.5190586669
  0
SOLID
  8
0
 62
7
  6
CONTINUOUS
 10
535.1782489255
 20
31.6481130052
 11
535.2360615358
 21
31.5190586669
 12
534.9469989807
 22
31.5190586669
 13
534.9469989807
 23
31.5190586669
  0
SOLID
  8
0
 62
7
  6
CONTINUOUS
 10
536.2766863704
 20
31.8094307377
 11
536.5079364807
 21
31.841695041
 12
536.7391865909
 22
31.841695041
 13
536.7391865909
 23
31.841695041
  0
SOLID
  8
0
 62
7
  6
CONTINUOUS
 10
536.7391865909
 20
31.841695041
 11
536.9126240909
 21
31.8094307377
 12
536.2766863704
 22
31.8094307377
 13
536.2766863704
 23
31.8094307377
  0
SOLID
  8
0
 62
7
  6
CONTINUOUS
 10
536.1032490358
 20
31.7449036475
 11
536.2766863704
 21
31.8094307377
 12
536.9126240909
 22
31.8094307377
 13
536.9126240909
 23
31.8094307377
  0
SOLID
  8
0
 62
7
  6
CONTINUOUS
 10
536.9126240909
 20
31.8094307377
 11
537.0860615909
 21
31.7449036475
 12
536.1032490358
 22
31.7449036475
 13
536.1032490358
 23
31.7449036475
  0
SOLID
  8
0
 62
7
  6
CONTINUOUS
 10
537.0860615909
 20
31.7449036475
 11
536.5079364807
 21
31.7126400953
 12
536.1032490358
 22
31.7449036475
 13
536.1032490358
 23
31.7449036475
  0
SOLID
  8
0
 62
7
  6
CONTINUOUS
 10
535.9876239807
 20
31.6803765574
 11
536.1032490358
 21
31.7449036475
 12
536.5079364807
 22
31.7126400953
 13
536.5079364807
 23
31.7126400953
  0
SOLID
  8
0
 62
7
  6
CONTINUOUS
 10
536.5079364807
 20
31.7126400953
 11
536.2766863704
 21
31.6803765574
 12
535.9876239807
 22
31.6803765574
 13
535.9876239807
 23
31.6803765574
  0
SOLID
  8
0
 62
7
  6
CONTINUOUS
 10
536.5079364807
 20
31.7126400953
 11
537.0860615909
 21
31.7449036475
 12
536.7391865909
 22
31.6803765574
 13
536.7391865909
 23
31.6803765574
  0
SOLID
  8
0
 62
7
  6
CONTINUOUS
 10
537.0860615909
 20
31.7449036475
 11
537.2016864807
 21
31.6803765574
 12
536.7391865909
 22
31.6803765574
 13
536.7391865909
 23
31.6803765574
  0
SOLID
  8
0
 62
7
  6
CONTINUOUS
 10
536.8548114807
 20
31.6481130052
 11
536.7391865909
 21
31.6803765574
 12
537.2016864807
 22
31.6803765574
 13
537.2016864807
 23
31.6803765574
  0
SOLID
  8
0
 62
7
  6
CONTINUOUS
 10
537.2016864807
 20
31.6803765574
 11
537.2594990909
 21
31.6158494672
 12
536.8548114807
 22
31.6481130052
 13
536.8548114807
 23
31.6481130052
  0
SOLID
  8
0
 62
7
  6
CONTINUOUS
 10
536.9704363704
 20
31.583585915
 11
536.8548114807
 21
31.6481130052
 12
537.2594990909
 22
31.6158494672
 13
537.2594990909
 23
31.6158494672
  0
SOLID
  8
0
 62
7
  6
CONTINUOUS
 10
536.9704363704
 20
31.583585915
 11
537.2594990909
 21
31.6158494672
 12
537.0282489807
 22
31.4545309836
 13
537.0282489807
 23
31.4545309836
  0
SOLID
  8
0
 62
7
  6
CONTINUOUS
 10
537.2594990909
 20
31.6158494672
 11
537.3173113704
 21
31.4545309836
 12
537.0282489807
 22
31.4545309836
 13
537.0282489807
 23
31.4545309836
  0
SOLID
  8
0
 62
7
  6
CONTINUOUS
 10
536.2766863704
 20
31.6803765574
 11
536.1032490358
 21
31.6158494672
 12
535.9876239807
 22
31.6803765574
 13
535.9876239807
 23
31.6803765574
  0
SOLID
  8
0
 62
7
  6
CONTINUOUS
 10
536.1032490358
 20
31.6158494672
 11
535.9876239807
 21
31.5513216117
 12
535.9876239807
 22
31.6803765574
 13
535.9876239807
 23
31.6803765574
  0
SOLID
  8
0
 62
7
  6
CONTINUOUS
 10
535.9876239807
 20
31.5513216117
 11
535.6985614255
 21
30.8092570492
 12
535.9876239807
 22
31.6803765574
 13
535.9876239807
 23
31.6803765574
  0
SOLID
  8
0
 62
7
  6
CONTINUOUS
 10
535.9876239807
 20
31.6803765574
 11
535.6985614255
 21
30.8092570492
 12
535.9876239807
 22
32.3256504918
 13
535.9876239807
 23
32.3256504918
  0
SOLID
  8
0
 62
7
  6
CONTINUOUS
 10
535.6985614255
 20
30.8092570492
 11
535.6985614255
 21
32.3256504918
 12
535.9876239807
 22
32.3256504918
 13
535.9876239807
 23
32.3256504918
  0
SOLID
  8
0
 62
7
  6
CONTINUOUS
 10
535.9876239807
 20
31.5513216117
 11
535.9876239807
 21
30.8092570492
 12
535.6985614255
 22
30.8092570492
 13
535.6985614255
 23
30.8092570492
  0
SOLID
  8
0
 62
7
  6
CONTINUOUS
 10
537.0282489807
 20
30.8092570492
 11
537.0282489807
 21
31.4545309836
 12
537.3173113704
 22
31.4545309836
 13
537.3173113704
 23
31.4545309836
  0
SOLID
  8
0
 62
7
  6
CONTINUOUS
 10
537.3173113704
 20
31.4545309836
 11
537.3173113704
 21
30.8092570492
 12
537.0282489807
 22
30.8092570492
 13
537.0282489807
 23
30.8092570492
  0
SOLID
  8
0
 62
7
  6
CONTINUOUS
 10
538.0688739807
 20
31.809431823
 11
538.4735615909
 21
31.8416958158
 12
538.8204365909
 22
31.8416958158
 13
538.8204365909
 23
31.8416958158
  0
SOLID
  8
0
 62
7
  6
CONTINUOUS
 10
538.8204365909
 20
31.8416958158
 11
539.1673112601
 21
31.809431823
 12
538.0688739807
 22
31.809431823
 13
538.0688739807
 23
31.809431823
  0
SOLID
  8
0
 62
7
  6
CONTINUOUS
 10
537.9532490909
 20
31.7771687019
 11
538.0688739807
 21
31.809431823
 12
539.1673112601
 22
31.809431823
 13
539.1673112601
 23
31.809431823
  0
SOLID
  8
0
 62
7
  6
CONTINUOUS
 10
539.1673112601
 20
31.809431823
 11
539.3407487601
 21
31.7449043986
 12
537.9532490909
 22
31.7771687019
 13
537.9532490909
 23
31.7771687019
  0
SOLID
  8
0
 62
7
  6
CONTINUOUS
 10
537.8376238704
 20
31.7126398448
 11
537.9532490909
 21
31.7771687019
 12
539.3407487601
 22
31.7449043986
 13
539.3407487601
 23
31.7449043986
  0
SOLID
  8
0
 62
7
  6
CONTINUOUS
 10
537.8376238704
 20
31.7126398448
 11
539.3407487601
 21
31.7449043986
 12
538.4735615909
 22
31.7126398448
 13
538.4735615909
 23
31.7126398448
  0
SOLID
  8
0
 62
7
  6
CONTINUOUS
 10
538.4735615909
 20
31.7126398448
 11
539.3407487601
 21
31.7449043986
 12
538.8204365909
 22
31.7126398448
 13
538.8204365909
 23
31.7126398448
  0
SOLID
  8
0
 62
7
  6
CONTINUOUS
 10
538.8204365909
 20
31.7126398448
 11
539.3407487601
 21
31.7449043986
 12
539.0516867012
 22
31.6803774007
 13
539.0516867012
 23
31.6803774007
  0
SOLID
  8
0
 62
7
  6
CONTINUOUS
 10
539.3407487601
 20
31.7449043986
 11
539.4563739807
 21
31.6803774007
 12
539.0516867012
 22
31.6803774007
 13
539.0516867012
 23
31.6803774007
  0
SOLID
  8
0
 62
7
  6
CONTINUOUS
 10
537.7798115909
 20
31.6481126336
 11
537.8376238704
 21
31.7126398448
 12
538.4735615909
 22
31.7126398448
 13
538.4735615909
 23
31.7126398448
  0
SOLID
  8
0
 62
7
  6
CONTINUOUS
 10
539.1673112601
 20
31.6481126336
 11
539.0516867012
 21
31.6803774007
 12
539.4563739807
 22
31.6803774007
 13
539.4563739807
 23
31.6803774007
  0
SOLID
  8
0
 62
7
  6
CONTINUOUS
 10
539.1673112601
 20
31.6481126336
 11
539.4563739807
 21
31.6803774007
 12
539.2251242012
 22
31.5835861968
 13
539.2251242012
 23
31.5835861968
  0
SOLID
  8
0
 62
7
  6
CONTINUOUS
 10
539.4563739807
 20
31.6803774007
 11
539.5141862601
 21
31.5835861968
 12
539.2251242012
 22
31.5835861968
 13
539.2251242012
 23
31.5835861968
  0
SOLID
  8
0
 62
7
  6
CONTINUOUS
 10
539.2251242012
 20
31.4867945216
 11
539.2251242012
 21
31.5835861968
 12
539.5141862601
 22
31.5835861968
 13
539.5141862601
 23
31.5835861968
  0
SOLID
  8
0
 62
7
  6
CONTINUOUS
 10
539.2251242012
 20
31.4867945216
 11
539.5141862601
 21
31.5835861968
 12
539.2251242012
 22
31.3577403412
 13
539.2251242012
 23
31.3577403412
  0
SOLID
  8
0
 62
7
  6
CONTINUOUS
 10
539.2251242012
 20
31.3577403412
 11
539.5141862601
 21
31.5835861968
 12
539.2251242012
 22
31.1641579843
 13
539.2251242012
 23
31.1641579843
  0
SOLID
  8
0
 62
7
  6
CONTINUOUS
 10
539.5141862601
 20
31.5835861968
 11
539.5141862601
 21
31.0673661609
 12
539.2251242012
 22
31.1641579843
 13
539.2251242012
 23
31.1641579843
  0
SOLID
  8
0
 62
7
  6
CONTINUOUS
 10
541.4219987601
 20
31.8094310465
 11
541.6532492012
 21
31.8416957661
 12
541.8844989807
 22
31.8416957661
 13
541.8844989807
 23
31.8416957661
  0
SOLID
  8
0
 62
7
  6
CONTINUOUS
 10
541.8844989807
 20
31.8416957661
 11
542.0579364807
 21
31.8094310465
 12
541.4219987601
 22
31.8094310465
 13
541.4219987601
 23
31.8094310465
  0
SOLID
  8
0
 62
7
  6
CONTINUOUS
 10
541.2485612601
 20
31.7449047044
 11
541.4219987601
 21
31.8094310465
 12
542.0579364807
 22
31.8094310465
 13
542.0579364807
 23
31.8094310465
  0
SOLID
  8
0
 62
7
  6
CONTINUOUS
 10
542.0579364807
 20
31.8094310465
 11
542.2313739807
 21
31.7449047044
 12
541.2485612601
 22
31.7449047044
 13
541.2485612601
 23
31.7449047044
  0
SOLID
  8
0
 62
7
  6
CONTINUOUS
 10
542.2313739807
 20
31.7449047044
 11
541.6532492012
 21
31.7126400953
 12
541.2485612601
 22
31.7449047044
 13
541.2485612601
 23
31.7449047044
  0
SOLID
  8
0
 62
7
  6
CONTINUOUS
 10
541.1329367012
 20
31.6803773299
 11
541.2485612601
 21
31.7449047044
 12
541.6532492012
 22
31.7126400953
 13
541.6532492012
 23
31.7126400953
  0
SOLID
  8
0
 62
7
  6
CONTINUOUS
 10
541.6532492012
 20
31.7126400953
 11
541.4219987601
 21
31.6803773299
 12
541.1329367012
 22
31.6803773299
 13
541.1329367012
 23
31.6803773299
  0
SOLID
  8
0
 62
7
  6
CONTINUOUS
 10
541.6532492012
 20
31.7126400953
 11
542.2313739807
 21
31.7449047044
 12
541.8844989807
 22
31.6803773299
 13
541.8844989807
 23
31.6803773299
  0
SOLID
  8
0
 62
7
  6
CONTINUOUS
 10
542.2313739807
 20
31.7449047044
 11
542.3469992012
 21
31.6803773299
 12
541.8844989807
 22
31.6803773299
 13
541.8844989807
 23
31.6803773299
  0
SOLID
  8
0
 62
7
  6
CONTINUOUS
 10
542.0001242012
 20
31.6481130052
 11
541.8844989807
 21
31.6803773299
 12
542.3469992012
 22
31.6803773299
 13
542.3469992012
 23
31.6803773299
  0
SOLID
  8
0
 62
7
  6
CONTINUOUS
 10
542.0001242012
 20
31.6481130052
 11
542.3469992012
 21
31.6803773299
 12
542.1157487601
 22
31.5835862682
 13
542.1157487601
 23
31.5835862682
  0
SOLID
  8
0
 62
7
  6
CONTINUOUS
 10
542.3469992012
 20
31.6803773299
 11
542.4048114807
 21
31.5835862682
 12
542.1157487601
 22
31.5835862682
 13
542.1157487601
 23
31.5835862682
  0
SOLID
  8
0
 62
7
  6
CONTINUOUS
 10
542.1735617012
 20
31.422267832
 11
542.1157487601
 21
31.5835862682
 12
542.4048114807
 22
31.5835862682
 13
542.4048114807
 23
31.5835862682
  0
SOLID
  8
0
 62
7
  6
CONTINUOUS
 10
542.4048114807
 20
31.5835862682
 11
542.4626237601
 21
31.422267832
 12
542.1735617012
 22
31.422267832
 13
542.1735617012
 23
31.422267832
  0
SOLID
  8
0
 62
7
  6
CONTINUOUS
 10
541.4219987601
 20
31.6803773299
 11
541.2485612601
 21
31.6158502183
 12
541.1329367012
 22
31.6803773299
 13
541.1329367012
 23
31.6803773299
  0
SOLID
  8
0
 62
7
  6
CONTINUOUS
 10
541.2485612601
 20
31.6158502183
 11
541.1329367012
 21
31.5513216117
 12
541.1329367012
 22
31.6803773299
 13
541.1329367012
 23
31.6803773299
  0
SOLID
  8
0
 62
7
  6
CONTINUOUS
 10
541.1329367012
 20
31.5513216117
 11
540.8438739807
 21
30.8092577743
 12
541.1329367012
 22
31.6803773299
 13
541.1329367012
 23
31.6803773299
  0
SOLID
  8
0
 62
7
  6
CONTINUOUS
 10
541.1329367012
 20
31.6803773299
 11
540.8438739807
 21
30.8092577743
 12
541.1329367012
 22
31.8416957661
 13
541.1329367012
 23
31.8416957661
  0
SOLID
  8
0
 62
7
  6
CONTINUOUS
 10
540.8438739807
 20
30.8092577743
 11
540.8438739807
 21
31.8416957661
 12
541.1329367012
 22
31.8416957661
 13
541.1329367012
 23
31.8416957661
  0
SOLID
  8
0
 62
7
  6
CONTINUOUS
 10
541.1329367012
 20
31.5513216117
 11
541.1329367012
 21
30.8092577743
 12
540.8438739807
 22
30.8092577743
 13
540.8438739807
 23
30.8092577743
  0
SOLID
  8
0
 62
7
  6
CONTINUOUS
 10
542.1735617012
 20
30.8092577743
 11
542.1735617012
 21
31.422267832
 12
542.4626237601
 22
31.422267832
 13
542.4626237601
 23
31.422267832
  0
SOLID
  8
0
 62
7
  6
CONTINUOUS
 10
542.4626237601
 20
31.422267832
 11
542.4626237601
 21
30.8092577743
 12
542.1735617012
 22
30.8092577743
 13
542.1735617012
 23
30.8092577743
  0
SOLID
  8
0
 62
7
  6
CONTINUOUS
 10
543.2719989807
 20
31.8094314924
 11
543.6188739807
 21
31.8416958387
 12
543.9657489807
 22
31.8416958387
 13
543.9657489807
 23
31.8416958387
  0
SOLID
  8
0
 62
7
  6
CONTINUOUS
 10
543.9657489807
 20
31.8416958387
 11
544.3126239807
 21
31.8094314924
 12
543.2719989807
 22
31.8094314924
 13
543.2719989807
 23
31.8094314924
  0
SOLID
  8
0
 62
7
  6
CONTINUOUS
 10
543.0407492012
 20
31.7449043986
 11
543.2719989807
 21
31.8094314924
 12
544.3126239807
 22
31.8094314924
 13
544.3126239807
 23
31.8094314924
  0
SOLID
  8
0
 62
7
  6
CONTINUOUS
 10
543.0407492012
 20
31.7449043986
 11
544.3126239807
 21
31.8094314888
 12
544.4860614807
 22
31.7771687019
 13
544.4860614807
 23
31.7771687019
  0
SOLID
  8
0
 62
7
  6
CONTINUOUS
 10
543.0407492012
 20
31.7449043986
 11
544.4860614807
 21
31.7771687019
 12
543.6188739807
 22
31.7126401399
 13
543.6188739807
 23
31.7126401399
  0
SOLID
  8
0
 62
7
  6
CONTINUOUS
 10
543.6188739807
 20
31.7126401399
 11
544.4860614807
 21
31.7771687019
 12
543.9657489807
 22
31.7126401399
 13
543.9657489807
 23
31.7126401399
  0
SOLID
  8
0
 62
7
  6
CONTINUOUS
 10
544.4860614807
 20
31.7771687019
 11
544.6594989807
 21
31.7126401399
 12
543.9657489807
 22
31.7126401399
 13
543.9657489807
 23
31.7126401399
  0
SOLID
  8
0
 62
7
  6
CONTINUOUS
 10
544.3126239807
 20
31.6803773084
 11
543.9657489807
 21
31.7126401399
 12
544.6594989807
 22
31.7126401399
 13
544.6594989807
 23
31.7126401399
  0
SOLID
  8
0
 62
7
  6
CONTINUOUS
 10
542.9251239807
 20
31.6481128977
 11
543.0407492012
 21
31.7449043986
 12
543.6188739807
 22
31.7126401399
 13
543.6188739807
 23
31.7126401399
  0
SOLID
  8
0
 62
7
  6
CONTINUOUS
 10
544.3126239807
 20
31.6803773084
 11
544.6594989807
 21
31.7126401399
 12
544.4282492012
 22
31.6481128977
 13
544.4282492012
 23
31.6481128977
  0
SOLID
  8
0
 62
7
  6
CONTINUOUS
 10
544.4282492012
 20
31.6481128977
 11
544.6594989807
 21
31.7126401399
 12
544.4860614807
 22
31.5835858812
 13
544.4860614807
 23
31.5835858812
  0
SOLID
  8
0
 62
7
  6
CONTINUOUS
 10
544.6594989807
 20
31.7126401399
 11
544.7751235396
 21
31.5835858812
 12
544.4860614807
 22
31.5835858812
 13
544.4860614807
 23
31.5835858812
  0
SOLID
  8
0
 62
7
  6
CONTINUOUS
 10
534.0798114807
 20
31.6803773084
 11
533.5594989807
 21
31.6481129264
 12
534.3110615082
 22
31.7126401456
 13
534.3110615082
 23
31.7126401456
  0
SOLID
  8
0
 62
7
  6
CONTINUOUS
 10
533.5594989807
 20
31.6481129264
 11
533.6751239738
 21
31.7126401456
 12
534.3110615082
 22
31.7126401456
 13
534.3110615082
 23
31.7126401456
  0
SOLID
  8
0
 62
7
  6
CONTINUOUS
 10
534.0798114807
 20
31.6803773084
 11
533.9641864669
 21
31.6481129264
 12
533.5594989807
 22
31.6481129264
 13
533.5594989807
 23
31.6481129264
  0
SOLID
  8
0
 62
7
  6
CONTINUOUS
 10
533.4438739824
 20
31.5190588248
 11
533.5594989807
 21
31.6481129264
 12
533.9641864669
 22
31.6481129264
 13
533.9641864669
 23
31.6481129264
  0
SOLID
  8
0
 62
7
  6
CONTINUOUS
 10
537.7798115909
 20
31.6481130555
 11
538.4735615909
 21
31.7126400953
 12
538.2423114807
 22
31.6803773084
 13
538.2423114807
 23
31.6803773084
  0
SOLID
  8
0
 62
7
  6
CONTINUOUS
 10
538.2423114807
 20
31.6803773084
 11
538.1266865909
 21
31.6481130555
 12
537.7798115909
 22
31.6481130555
 13
537.7798115909
 23
31.6481130555
  0
SOLID
  8
0
 62
7
  6
CONTINUOUS
 10
537.7798115909
 20
31.5835859653
 11
537.7798115909
 21
31.6481130555
 12
538.1266865909
 22
31.6481130555
 13
538.1266865909
 23
31.6481130555
  0
SOLID
  8
0
 62
7
  6
CONTINUOUS
 10
538.1266865909
 20
31.6481130555
 11
538.0688739807
 21
31.5835859653
 12
537.7798115909
 22
31.5835859653
 13
537.7798115909
 23
31.5835859653
  0
SOLID
  8
0
 62
7
  6
CONTINUOUS
 10
542.9251239807
 20
31.6481130555
 11
543.6188739807
 21
31.7126400953
 12
543.3876242012
 22
31.6803773084
 13
543.3876242012
 23
31.6803773084
  0
SOLID
  8
0
 62
7
  6
CONTINUOUS
 10
543.3876242012
 20
31.6803773084
 11
543.2719989807
 21
31.6481130555
 12
542.9251239807
 22
31.6481130555
 13
542.9251239807
 23
31.6481130555
  0
SOLID
  8
0
 62
7
  6
CONTINUOUS
 10
542.9251239807
 20
31.5835859653
 11
542.9251239807
 21
31.6481130555
 12
543.2719989807
 22
31.6481130555
 13
543.2719989807
 23
31.6481130555
  0
SOLID
  8
0
 62
7
  6
CONTINUOUS
 10
543.2719989807
 20
31.6481130555
 11
543.2141867012
 21
31.5835859653
 12
542.9251239807
 22
31.5835859653
 13
542.9251239807
 23
31.5835859653
  0
SOLID
  8
0
 62
7
  6
CONTINUOUS
 10
543.0407492012
 20
31.4545317347
 11
542.9251239807
 21
31.5835859653
 12
543.2141867012
 22
31.5835859653
 13
543.2141867012
 23
31.5835859653
  0
SOLID
  8
0
 62
7
  6
CONTINUOUS
 10
533.4438739824
 20
31.5190588248
 11
533.9641864669
 21
31.6481130052
 12
533.7907489669
 22
31.5513216117
 13
533.7907489669
 23
31.5513216117
  0
SOLID
  8
0
 62
7
  6
CONTINUOUS
 10
533.7907489669
 20
31.5513216117
 11
533.7329364807
 21
31.4867945216
 12
533.4438739824
 22
31.5190588248
 13
533.4438739824
 23
31.5190588248
  0
SOLID
  8
0
 62
7
  6
CONTINUOUS
 10
533.3860614807
 20
31.325476038
 11
533.4438739824
 21
31.5190588248
 12
533.7329364807
 22
31.4867945216
 13
533.7329364807
 23
31.4867945216
  0
SOLID
  8
0
 62
7
  6
CONTINUOUS
 10
538.2423114807
 20
31.4545317347
 11
538.5891864807
 21
31.4867945557
 12
539.2251242012
 22
31.4867945557
 13
539.2251242012
 23
31.4867945557
  0
SOLID
  8
0
 62
7
  6
CONTINUOUS
 10
538.2423114807
 20
31.4545317347
 11
539.2251242012
 21
31.4867945557
 12
538.0110613704
 22
31.3900038345
 13
538.0110613704
 23
31.3900038345
  0
SOLID
  8
0
 62
7
  6
CONTINUOUS
 10
538.0110613704
 20
31.3900038345
 11
539.2251242012
 21
31.4867945557
 12
538.5891864807
 22
31.3577403754
 13
538.5891864807
 23
31.3577403754
  0
SOLID
  8
0
 62
7
  6
CONTINUOUS
 10
539.2251242012
 20
31.4867945557
 11
539.2251242012
 21
31.3577403754
 12
538.5891864807
 22
31.3577403754
 13
538.5891864807
 23
31.3577403754
  0
SOLID
  8
0
 62
7
  6
CONTINUOUS
 10
543.0407492012
 20
31.4545313481
 11
543.2141867012
 21
31.583585915
 12
543.2719989807
 22
31.5190588248
 13
543.2719989807
 23
31.5190588248
  0
SOLID
  8
0
 62
7
  6
CONTINUOUS
 10
543.2719989807
 20
31.5190588248
 11
543.4454364807
 21
31.4545313481
 12
543.0407492012
 22
31.4545313481
 13
543.0407492012
 23
31.4545313481
  0
SOLID
  8
0
 62
7
  6
CONTINUOUS
 10
543.2719989807
 20
31.3577403412
 11
543.0407492012
 21
31.4545313481
 12
543.4454364807
 22
31.4545313481
 13
543.4454364807
 23
31.4545313481
  0
SOLID
  8
0
 62
7
  6
CONTINUOUS
 10
543.4454364807
 20
31.4545313481
 11
544.4282492012
 21
31.2932132511
 12
543.2719989807
 22
31.3577403412
 13
543.2719989807
 23
31.3577403412
  0
SOLID
  8
0
 62
7
  6
CONTINUOUS
 10
544.2548117012
 20
31.1964222346
 11
543.2719989807
 21
31.3577403412
 12
544.4282492012
 22
31.2932132511
 13
544.4282492012
 23
31.2932132511
  0
SOLID
  8
0
 62
7
  6
CONTINUOUS
 10
544.4282492012
 20
31.2932132511
 11
544.6594989807
 21
31.1964222346
 12
544.2548117012
 22
31.1964222346
 13
544.2548117012
 23
31.1964222346
  0
SOLID
  8
0
 62
7
  6
CONTINUOUS
 10
544.4282492012
 20
31.1318947675
 11
544.2548117012
 21
31.1964222346
 12
544.6594989807
 22
31.1964222346
 13
544.6594989807
 23
31.1964222346
  0
SOLID
  8
0
 62
7
  6
CONTINUOUS
 10
544.4282492012
 20
31.1318947675
 11
544.6594989807
 21
31.1964222346
 12
544.4860614807
 22
31.0673665164
 13
544.4860614807
 23
31.0673665164
  0
SOLID
  8
0
 62
7
  6
CONTINUOUS
 10
544.6594989807
 20
31.1964222346
 11
544.7751235396
 21
31.0673665164
 12
544.4860614807
 22
31.0673665164
 13
544.4860614807
 23
31.0673665164
  0
SOLID
  8
0
 62
7
  6
CONTINUOUS
 10
544.4282492012
 20
31.0028394316
 11
544.4860614807
 21
31.0673665164
 12
544.7751235396
 22
31.0673665164
 13
544.7751235396
 23
31.0673665164
  0
SOLID
  8
0
 62
7
  6
CONTINUOUS
 10
544.7751235396
 20
31.0673665164
 11
544.7751235396
 21
31.0028394316
 12
544.4282492012
 22
31.0028394316
 13
544.4282492012
 23
31.0028394316
  0
SOLID
  8
0
 62
7
  6
CONTINUOUS
 10
544.3126239807
 20
30.9705762839
 11
544.4282492012
 21
31.0028394316
 12
544.7751235396
 22
31.0028394316
 13
544.7751235396
 23
31.0028394316
  0
SOLID
  8
0
 62
7
  6
CONTINUOUS
 10
544.3126239807
 20
30.9705762839
 11
544.7751235396
 21
31.0028394316
 12
544.0813742012
 22
30.9383123468
 13
544.0813742012
 23
30.9383123468
  0
SOLID
  8
0
 62
7
  6
CONTINUOUS
 10
544.7751235396
 20
31.0028394316
 11
544.6594989807
 21
30.9060491937
 12
544.0813742012
 22
30.9383123468
 13
544.0813742012
 23
30.9383123468
  0
SOLID
  8
0
 62
7
  6
CONTINUOUS
 10
544.6594989807
 20
30.9060491937
 11
543.2141867012
 21
30.8737848904
 12
544.0813742012
 22
30.9383123468
 13
544.0813742012
 23
30.9383123468
  0
SOLID
  8
0
 62
7
  6
CONTINUOUS
 10
544.0813742012
 20
30.9383123468
 11
543.2141867012
 21
30.8737848904
 12
543.7344992012
 22
30.9383123468
 13
543.7344992012
 23
30.9383123468
  0
SOLID
  8
0
 62
7
  6
CONTINUOUS
 10
543.2141867012
 20
30.8737848904
 11
543.0407492012
 21
30.9383123468
 12
543.7344992012
 22
30.9383123468
 13
543.7344992012
 23
30.9383123468
  0
SOLID
  8
0
 62
7
  6
CONTINUOUS
 10
543.2141867012
 20
30.8737848904
 11
544.6594989807
 21
30.9060491937
 12
543.3876242012
 22
30.8415205581
 13
543.3876242012
 23
30.8415205581
  0
SOLID
  8
0
 62
7
  6
CONTINUOUS
 10
544.6594989807
 20
30.9060491937
 11
544.4282492012
 21
30.8415205581
 12
543.3876242012
 22
30.8415205581
 13
543.3876242012
 23
30.8415205581
  0
SOLID
  8
0
 62
7
  6
CONTINUOUS
 10
543.7344992012
 20
30.8092581772
 11
543.3876242012
 21
30.8415205581
 12
544.4282492012
 22
30.8415205581
 13
544.4282492012
 23
30.8415205581
  0
SOLID
  8
0
 62
7
  6
CONTINUOUS
 10
544.4282492012
 20
30.8415205581
 11
544.0813742012
 21
30.8092581772
 12
543.7344992012
 22
30.8092581772
 13
543.7344992012
 23
30.8092581772
  0
SOLID
  8
0
 62
7
  6
CONTINUOUS
 10
533.3860614807
 20
31.325476038
 11
533.7329364807
 21
31.4867945216
 12
533.6751239738
 22
31.3577403412
 13
533.6751239738
 23
31.3577403412
  0
SOLID
  8
0
 62
7
  6
CONTINUOUS
 10
533.6751239738
 20
31.3577403412
 11
533.6751239738
 21
31.2609490436
 12
533.3860614807
 22
31.325476038
 13
533.3860614807
 23
31.325476038
  0
SOLID
  8
0
 62
7
  6
CONTINUOUS
 10
533.4438739824
 20
31.1318947675
 11
533.3860614807
 21
31.325476038
 12
533.6751239738
 22
31.2609490436
 13
533.6751239738
 23
31.2609490436
  0
SOLID
  8
0
 62
7
  6
CONTINUOUS
 10
533.6751239738
 20
31.2609490436
 11
533.7907489669
 21
31.0996304642
 12
533.4438739824
 22
31.1318947675
 13
533.4438739824
 23
31.1318947675
  0
SOLID
  8
0
 62
7
  6
CONTINUOUS
 10
533.5594989807
 20
31.0028388804
 11
533.4438739824
 21
31.1318947675
 12
533.7907489669
 22
31.0996304642
 13
533.7907489669
 23
31.0996304642
  0
SOLID
  8
0
 62
7
  6
CONTINUOUS
 10
533.7907489669
 20
31.0996304642
 11
533.9641864669
 21
31.0028388804
 12
533.5594989807
 22
31.0028388804
 13
533.5594989807
 23
31.0028388804
  0
SOLID
  8
0
 62
7
  6
CONTINUOUS
 10
533.6751239738
 20
30.9383122606
 11
533.5594989807
 21
31.0028388804
 12
533.9641864669
 22
31.0028388804
 13
533.9641864669
 23
31.0028388804
  0
SOLID
  8
0
 62
7
  6
CONTINUOUS
 10
533.9641864669
 20
31.0028388804
 11
534.3110615082
 21
30.9383122606
 12
533.6751239738
 22
30.9383122606
 13
533.6751239738
 23
30.9383122606
  0
SOLID
  8
0
 62
7
  6
CONTINUOUS
 10
533.8485614944
 20
30.8737848904
 11
533.6751239738
 21
30.9383122606
 12
534.3110615082
 22
30.9383122606
 13
534.3110615082
 23
30.9383122606
  0
SOLID
  8
0
 62
7
  6
CONTINUOUS
 10
537.8954364807
 20
31.3254759532
 11
538.0110613704
 21
31.3900038345
 12
538.5891864807
 22
31.3577403412
 13
538.5891864807
 23
31.3577403412
  0
SOLID
  8
0
 62
7
  6
CONTINUOUS
 10
538.5891864807
 20
31.3577403412
 11
538.3579363704
 21
31.3254759532
 12
537.8954364807
 22
31.3254759532
 13
537.8954364807
 23
31.3254759532
  0
SOLID
  8
0
 62
7
  6
CONTINUOUS
 10
537.7798115909
 20
31.1964218576
 11
537.8954364807
 21
31.3254759532
 12
538.3579363704
 22
31.3254759532
 13
538.3579363704
 23
31.3254759532
  0
SOLID
  8
0
 62
7
  6
CONTINUOUS
 10
538.1266865909
 20
31.2286853572
 11
537.7798115909
 21
31.1964218576
 12
538.2423114807
 22
31.2932132511
 13
538.2423114807
 23
31.2932132511
  0
SOLID
  8
0
 62
7
  6
CONTINUOUS
 10
537.7798115909
 20
31.1964218576
 11
538.3579363704
 21
31.325476038
 12
538.2423114807
 22
31.2932132511
 13
538.2423114807
 23
31.2932132511
  0
SOLID
  8
0
 62
7
  6
CONTINUOUS
 10
538.1266865909
 20
31.2286853572
 11
538.0688739807
 21
31.1318947675
 12
537.7798115909
 22
31.1964218576
 13
537.7798115909
 23
31.1964218576
  0
SOLID
  8
0
 62
7
  6
CONTINUOUS
 10
537.7798115909
 20
31.0996304642
 11
537.7798115909
 21
31.1964218576
 12
538.0688739807
 22
31.1318947675
 13
538.0688739807
 23
31.1318947675
  0
SOLID
  8
0
 62
7
  6
CONTINUOUS
 10
538.0688739807
 20
31.1318947675
 11
538.0688739807
 21
31.0673661609
 12
537.7798115909
 22
31.0996304642
 13
537.7798115909
 23
31.0996304642
  0
SOLID
  8
0
 62
7
  6
CONTINUOUS
 10
537.8376238704
 20
30.9705762839
 11
537.7798115909
 21
31.0996304642
 12
538.0688739807
 22
31.0673661609
 13
538.0688739807
 23
31.0673661609
  0
SOLID
  8
0
 62
7
  6
CONTINUOUS
 10
539.2251242012
 20
31.1641579843
 11
539.5141862601
 21
31.0673661609
 12
539.1673112601
 22
31.0996304642
 13
539.1673112601
 23
31.0996304642
  0
SOLID
  8
0
 62
7
  6
CONTINUOUS
 10
538.9938737601
 20
31.0028390707
 11
539.1673112601
 21
31.0996304642
 12
539.5141862601
 22
31.0673661609
 13
539.5141862601
 23
31.0673661609
  0
SOLID
  8
0
 62
7
  6
CONTINUOUS
 10
538.9938737601
 20
31.0028390707
 11
539.5141862601
 21
31.0673661609
 12
539.2251242012
 22
30.9705762839
 13
539.2251242012
 23
30.9705762839
  0
SOLID
  8
0
 62
7
  6
CONTINUOUS
 10
539.5141862601
 20
31.0673661609
 11
539.5719992012
 21
30.9060491937
 12
539.2251242012
 22
30.9705762839
 13
539.2251242012
 23
30.9705762839
  0
SOLID
  8
0
 62
7
  6
CONTINUOUS
 10
539.2829364807
 20
30.8737848904
 11
539.2251242012
 21
30.9705762839
 12
539.5719992012
 22
30.9060491937
 13
539.5719992012
 23
30.9060491937
  0
SOLID
  8
0
 62
7
  6
CONTINUOUS
 10
539.2829364807
 20
30.8737848904
 11
539.5719992012
 21
30.9060491937
 12
539.3407487601
 22
30.8092576254
 13
539.3407487601
 23
30.8092576254
  0
SOLID
  8
0
 62
7
  6
CONTINUOUS
 10
539.5719992012
 20
30.9060491937
 11
539.6298114807
 21
30.8092576254
 12
539.3407487601
 22
30.8092576254
 13
539.3407487601
 23
30.8092576254
  0
SOLID
  8
0
 62
7
  6
CONTINUOUS
 10
534.8891865358
 20
31.035103216
 11
534.9469989807
 21
31.1318946289
 12
535.2360615358
 22
31.1318946289
 13
535.2360615358
 23
31.1318946289
  0
SOLID
  8
0
 62
7
  6
CONTINUOUS
 10
535.2360615358
 20
31.1318946289
 11
535.1782489255
 21
31.0028390707
 12
534.8891865358
 22
31.035103216
 13
534.8891865358
 23
31.035103216
  0
SOLID
  8
0
 62
7
  6
CONTINUOUS
 10
534.7157489531
 20
30.9705762839
 11
534.8891865358
 21
31.035103216
 12
535.1782489255
 22
31.0028390707
 13
535.1782489255
 23
31.0028390707
  0
SOLID
  8
0
 62
7
  6
CONTINUOUS
 10
534.7157489531
 20
30.9705762839
 11
535.1782489255
 21
31.0028390707
 12
534.3110615082
 22
30.9383119806
 13
534.3110615082
 23
30.9383119806
  0
SOLID
  8
0
 62
7
  6
CONTINUOUS
 10
535.1782489255
 20
31.0028390707
 11
535.0048114255
 21
30.9060491937
 12
534.3110615082
 22
30.9383119806
 13
534.3110615082
 23
30.9383119806
  0
SOLID
  8
0
 62
7
  6
CONTINUOUS
 10
533.8485614944
 20
30.8737848904
 11
534.3110615082
 21
30.9383119806
 12
535.0048114255
 22
30.9060491937
 13
535.0048114255
 23
30.9060491937
  0
SOLID
  8
0
 62
7
  6
CONTINUOUS
 10
533.8485614944
 20
30.8737848904
 11
535.0048114255
 21
30.9060491937
 12
534.0219989944
 22
30.8415207131
 13
534.0219989944
 23
30.8415207131
  0
SOLID
  8
0
 62
7
  6
CONTINUOUS
 10
535.0048114255
 20
30.9060491937
 11
534.7735614807
 21
30.8415207131
 12
534.0219989944
 22
30.8415207131
 13
534.0219989944
 23
30.8415207131
  0
SOLID
  8
0
 62
7
  6
CONTINUOUS
 10
534.3688739531
 20
30.8092578002
 11
534.0219989944
 21
30.8415207131
 12
534.7735614807
 22
30.8415207131
 13
534.7735614807
 23
30.8415207131
  0
SOLID
  8
0
 62
7
  6
CONTINUOUS
 10
537.8376238704
 20
30.9705762839
 11
538.0688739807
 21
31.0673661609
 12
538.1266865909
 22
31.0028390707
 13
538.1266865909
 23
31.0028390707
  0
SOLID
  8
0
 62
7
  6
CONTINUOUS
 10
538.1266865909
 20
31.0028390707
 11
538.3579363704
 21
30.9383119806
 12
537.8376238704
 22
30.9705762839
 13
537.8376238704
 23
30.9705762839
  0
SOLID
  8
0
 62
7
  6
CONTINUOUS
 10
538.0110613704
 20
30.8737848904
 11
537.8376238704
 21
30.9705762839
 12
538.3579363704
 22
30.9383119806
 13
538.3579363704
 23
30.9383119806
  0
SOLID
  8
0
 62
7
  6
CONTINUOUS
 10
538.7048113704
 20
30.9383119664
 11
538.9938737601
 21
31.0028390707
 12
539.2251242012
 22
30.9705762839
 13
539.2251242012
 23
30.9705762839
  0
SOLID
  8
0
 62
7
  6
CONTINUOUS
 10
539.2251242012
 20
30.9705762839
 11
539.1673112601
 21
30.9060491937
 12
538.7048113704
 22
30.9383119664
 13
538.7048113704
 23
30.9383119664
  0
SOLID
  8
0
 62
7
  6
CONTINUOUS
 10
539.1673112601
 20
30.9060491937
 11
538.0110613704
 21
30.8737848904
 12
538.7048113704
 22
30.9383119664
 13
538.7048113704
 23
30.9383119664
  0
SOLID
  8
0
 62
7
  6
CONTINUOUS
 10
538.0110613704
 20
30.8737848904
 11
538.3579363704
 21
30.9383119664
 12
538.7048113704
 22
30.9383119664
 13
538.7048113704
 23
30.9383119664
  0
SOLID
  8
0
 62
7
  6
CONTINUOUS
 10
538.0110613704
 20
30.8737848904
 11
539.1673112601
 21
30.9060491937
 12
538.1266865909
 22
30.8415205568
 13
538.1266865909
 23
30.8415205568
  0
SOLID
  8
0
 62
7
  6
CONTINUOUS
 10
539.1673112601
 20
30.9060491937
 11
538.9938737601
 21
30.8415205568
 12
538.1266865909
 22
30.8415205568
 13
538.1266865909
 23
30.8415205568
  0
SOLID
  8
0
 62
7
  6
CONTINUOUS
 10
538.3579363704
 20
30.8092577215
 11
538.1266865909
 21
30.8415205568
 12
538.9938737601
 22
30.8415205568
 13
538.9938737601
 23
30.8415205568
  0
SOLID
  8
0
 62
7
  6
CONTINUOUS
 10
538.9938737601
 20
30.8415205568
 11
538.7048113704
 21
30.8092577215
 12
538.3579363704
 22
30.8092577215
 13
538.3579363704
 23
30.8092577215
  0
SOLID
  8
0
 62
7
  6
CONTINUOUS
 10
543.3876242012
 20
30.9705762839
 11
543.0407492012
 21
30.9383119664
 12
543.2719989807
 22
31.0028390707
 13
543.2719989807
 23
31.0028390707
  0
SOLID
  8
0
 62
7
  6
CONTINUOUS
 10
543.2719989807
 20
31.0028390707
 11
543.0407492012
 21
30.9383119664
 12
543.2141867012
 22
31.0673661467
 13
543.2141867012
 23
31.0673661467
  0
SOLID
  8
0
 62
7
  6
CONTINUOUS
 10
543.0407492012
 20
30.9383119664
 11
542.9251239807
 21
31.0673661467
 12
543.2141867012
 22
31.0673661467
 13
543.2141867012
 23
31.0673661467
  0
SOLID
  8
0
 62
7
  6
CONTINUOUS
 10
543.3876242012
 20
30.9705762839
 11
543.7344992012
 21
30.9383119664
 12
543.0407492012
 22
30.9383119664
 13
543.0407492012
 23
30.9383119664
  0
SOLID
  8
0
 62
7
  6
CONTINUOUS
 10
540.0923117012
 20
30.8092578002
 11
540.0923117012
 21
31.841695792
 12
540.3813737601
 22
30.8092578002
 13
540.3813737601
 23
31.841695792
  0
ENDBLK
  8
0
  6
BYBLOCK
 62
0
  0
BLOCK
  8
0
 62
2
  6
CONTINUOUS
  2
AMMEAAL_LOGO_BL0
 70
64
 10
416.1419631151
 20
19.7009994242
  0
TEXT
  8
0
 62
7
  6
CONTINUOUS
 10
402.4066669574
 20
19.0744135318
  7
TEXTSTYLE_3
 40
2.7338706658
  1
Ammeraal Beltech
 41
1.0
 51
15.0
 72
0
  0
TEXT
  8
0
 62
7
  6
CONTINUOUS
 10
413.2074677831
 20
16.800876859
  7
TEXTSTYLE_4
 40
1.0935482663
  1
Innovation & Service in Belting
 41
1.0
 72
0
  0
LINE
  8
0
 62
7
  6
CONTINUOUS
 10
396.382126306
 20
19.8410068404
 11
397.1602782994
 21
23.5019241381
  0
LINE
  8
0
 62
7
  6
CONTINUOUS
 10
407.2554465892
 20
27.1653180497
 11
397.6480960424
 21
24.0437006284
  0
LINE
  8
0
 62
7
  6
CONTINUOUS
 10
396.6074096383
 20
19.1476560374
 11
404.1144848995
 21
12.3882551114
  0
LINE
  8
0
 62
7
  6
CONTINUOUS
 10
396.869944049
 20
20.3827833308
 11
407.6782134142
 21
23.8946029297
  0
LINE
  8
0
 62
7
  6
CONTINUOUS
 10
407.674008277
 20
13.544814366
 11
399.2285486083
 21
21.1491404077
  0
LINE
  8
0
 62
7
  6
CONTINUOUS
 10
408.1938309968
 20
26.320392934
 11
407.2172714596
 21
21.7260415315
  0
LINE
  8
0
 62
7
  6
CONTINUOUS
 10
406.5174695119
 20
18.4337322177
 11
405.8310213004
 21
15.2042472933
  0
LINE
  8
0
 62
7
  6
CONTINUOUS
 10
408.8749270954
 20
13.9350165436
 11
409.831158631
 21
18.4337322177
  0
LINE
  8
0
 62
7
  6
CONTINUOUS
 10
410.5309605787
 20
21.7260415315
 11
410.9752023811
 21
23.8160348909
  0
LINE
  8
0
 62
7
  6
CONTINUOUS
 10
404.8275859748
 20
12.2366807987
 11
408.3871093524
 21
13.3932400533
  0
LINE
  8
0
 62
7
  6
CONTINUOUS
 10
407.9685476645
 20
27.013743737
 11
410.7499190488
 21
24.5093856939
  0
ARC
  8
0
 62
7
  6
CONTINUOUS
 10
397.8733793747
 20
23.3503498254
 40
0.7290321776
 50
108.0
 51
168.0
  0
ARC
  8
0
 62
7
  6
CONTINUOUS
 10
407.4807299215
 20
26.4719672466
 40
0.7290321776
 50
348.0
 51
108.0
  0
ARC
  8
0
 62
7
  6
CONTINUOUS
 10
410.2621013058
 20
23.9676092036
 40
0.7290321776
 50
348.0
 51
48.0
  0
ARC
  8
0
 62
7
  6
CONTINUOUS
 10
404.6023026425
 20
12.9300316018
 40
0.7290321776
 50
228.0
 51
288.0
  0
ARC
  8
0
 62
7
  6
CONTINUOUS
 10
397.0952273813
 20
19.6894325277
 40
0.7290321776
 50
108.0
 51
228.0
  0
ARC
  8
0
 62
7
  6
CONTINUOUS
 10
408.1618260201
 20
14.0865908563
 40
0.7290321776
 50
228.0
 51
348.0
  0
ENDBLK
  8
0
  6
BYBLOCK
 62
0
  0
BLOCK
  8
0
  2
_FILLED
 70
64
 10
0.0
 20
0.0
  0
SOLID
  8
0
  6
BYBLOCK
 62
0
 10
0.0
 20
0.0
 11
-1.0
 21
0.2142857143
 12
-1.0
 22
-0.2142857143
 13
-1.0
 23
-0.2142857143
  0
ENDBLK
  8
0
  6
BYBLOCK
 62
0
  0
ENDSEC
  0
SECTION
  2
ENTITIES
  0
TEXT
  8
0
 62
5
  6
CONTINUOUS
 10
480.0
 20
25.636
  7
TEXTSTYLE_2
 40
2.8
  1
Scale :
 41
0.6
 51
0.000019
 72
0
  0
TEXT
  8
0
 62
5
  6
CONTINUOUS
 10
500.0
 20
25.636
  7
TEXTSTYLE_2
 40
2.8
  1
Chain type:
 41
0.6
 51
0.000019
 72
0
  0
INSERT
  8
0
 62
2
  6
CONTINUOUS
  2
AMMEAAL_LOGO_BL0
 10
416.1419631151
 20
19.7009994242
  0
INSERT
  8
0
 62
2
  6
CONTINUOUS
  2
UNI_LOGO2_BL1
 10
557.4079930916
 20
35.8092573885
  0
LINE
  8
0
 62
2
  6
CONTINUOUS
 10
394.0
 20
30.0
 11
584.0
 21
30.0
  0
LINE
  8
0
 62
2
  6
CONTINUOUS
 10
394.0
 20
30.0
 11
394.0
 21
10.0
  0
LINE
  8
0
 62
2
  6
CONTINUOUS
 10
394.0
 20
10.0
 11
584.0
 21
10.0
  0
LINE
  8
0
 62
2
  6
CONTINUOUS
 10
479.0
 20
30.0
 11
479.0
 21
10.0
  0
LINE
  8
0
 62
2
  6
CONTINUOUS
 10
499.0
 20
30.0
 11
499.0
 21
10.0
  0
LINE
  8
0
 62
2
  6
CONTINUOUS
 10
584.0
 20
30.0
 11
584.0
 21
10.0
  0
TEXT
  8
0
 62
5
  6
CONTINUOUS
 10
397.0
 20
23.303
  7
TEXTSTYLE_5
 40
1.52
  1
                                                                     Ammeraal Beltech Modular A/S
 41
1.0
 72
0
  0
TEXT
  8
0
 62
5
  6
CONTINUOUS
 10
397.0
 20
20.595
  7
TEXTSTYLE_5
 40
1.5
  1
                                                                      Hjulmagervej 21, 7100 Vejle,  DK
 41
1.0
 72
0
  0
TEXT
  8
0
 62
5
  6
CONTINUOUS
 10
397.0
 20
17.881
  7
TEXTSTYLE_5
 40
1.495
  1
                                                                      tel: 
 41
1.0
 72
0
  0
TEXT
  8
0
 62
5
  6
CONTINUOUS
 10
441.9869465649
 20
17.881
  7
TEXTSTYLE_5
 40
1.51
  1
+45 75723100     fax: +45 75723348
 41
1.0
 72
0
  0
TEXT
  8
0
 62
5
  6
CONTINUOUS
 10
397.0
 20
15.177
  7
TEXTSTYLE_5
 40
1.5
  1
                                                                      admin@unichains.dk  www.unichains.com
 41
1.0
 72
0
  0
TEXT
  8
0
 62
5
  6
CONTINUOUS
 10
483.75
 20
13.75
  7
TEXTSTYLE_6
 40
5.0
  1
1:1
 41
0.7
 72
1
 11
489.0
 21
13.75
  0
TEXT
  8
0
 62
5
  6
CONTINUOUS
 10
502.0
 20
13.75
  7
TEXTSTYLE_7
 40
7.5
  1
Z15 Bore 120SQ
 41
0.6642857143
 72
0
  0
LINE
  8
0
 62
7
  6
CONTINUOUS
 10
-0.0
 20
-0.0
 11
-0.0
 21
420.0
  0
LINE
  8
0
 62
7
  6
CONTINUOUS
 10
10.0
 20
10.0
 11
10.0
 21
410.0
  0
LINE
  8
0
 62
7
  6
CONTINUOUS
 10
-0.0
 20
-0.0
 11
594.0
 21
-0.0
  0
LINE
  8
0
 62
7
  6
CONTINUOUS
 10
10.0
 20
10.0
 11
584.0
 21
10.0
  0
LINE
  8
0
 62
7
  6
CONTINUOUS
 10
394.0
 20
30.0
 11
584.0
 21
30.0
  0
LINE
  8
0
 62
7
  6
CONTINUOUS
 10
179.0
 20
5.0
 11
179.0
 21
10.0
  0
LINE
  8
0
 62
7
  6
CONTINUOUS
 10
179.0
 20
410.0
 11
179.0
 21
415.0
  0
LINE
  8
0
 62
7
  6
CONTINUOUS
 10
384.0
 20
410.0
 11
384.0
 21
415.0
  0
LINE
  8
0
 62
7
  6
CONTINUOUS
 10
5.0
 20
297.0
 11
10.0
 21
297.0
  0
LINE
  8
0
 62
7
  6
CONTINUOUS
 10
584.0
 20
297.0
 11
589.0
 21
297.0
  0
LINE
  8
0
 62
7
  6
CONTINUOUS
 10
10.0
 20
410.0
 11
584.0
 21
410.0
  0
LINE
  8
0
 62
7
  6
CONTINUOUS
 10
-0.0
 20
420.0
 11
594.0
 21
420.0
  0
LINE
  8
0
 62
7
  6
CONTINUOUS
 10
584.0
 20
10.0
 11
584.0
 21
410.0
  0
LINE
  8
0
 62
7
  6
CONTINUOUS
 10
594.0
 20
-0.0
 11
594.0
 21
420.0
  0
LINE
  8
0
 62
7
  6
CONTINUOUS
 10
134.0451674174
 20
349.1370996113
 11
110.2897253871
 21
338.5604953872
  0
LINE
  8
0
 62
7
  6
CONTINUOUS
 10
223.3202749535
 20
103.31866468
 11
248.7556032471
 21
108.725110607
  0
LINE
  8
0
 62
7
  6
CONTINUOUS
 10
168.6780730926
 20
101.4489433941
 11
194.1134013862
 21
96.0424974671
  0
LINE
  8
0
 62
7
  6
CONTINUOUS
 10
117.9994536277
 20
121.9658537616
 11
139.0367825866
 21
106.6813395973
  0
LINE
  8
0
 62
7
  6
CONTINUOUS
 10
80.0472102651
 20
161.3218355895
 11
93.0489945942
 21
138.8020845424
  0
LINE
  8
0
 62
7
  6
CONTINUOUS
 10
61.3836306675
 20
212.711882082
 11
64.1017437388
 21
186.8507636936
  0
LINE
  8
0
 62
7
  6
CONTINUOUS
 10
65.2358173006
 20
267.2501873366
 11
57.2002726708
 21
242.5193239172
  0
LINE
  8
0
 62
7
  6
CONTINUOUS
 10
90.9376920995
 20
315.5065829097
 11
73.5379084357
 21
296.1821654174
  0
LINE
  8
0
 62
7
  6
CONTINUOUS
 10
200.0304554758
 20
343.5013535217
 11
199.6392069271
 21
343.2717072166
  0
LINE
  8
0
 62
7
  6
CONTINUOUS
 10
203.7638401303
 20
346.2383610966
 11
203.3632072037
 21
346.0255094062
  0
LINE
  8
0
 62
7
  6
CONTINUOUS
 10
203.3074574082
 20
345.5179235815
 11
203.7080903349
 21
345.730775272
  0
LINE
  8
0
 62
7
  6
CONTINUOUS
 10
199.6050278801
 20
342.762214055
 11
199.8630121121
 21
342.8728538379
  0
LINE
  8
0
 62
7
  6
CONTINUOUS
 10
230.0996040964
 20
336.2389550137
 11
230.6984569282
 21
336.4340163701
  0
LINE
  8
0
 62
7
  6
CONTINUOUS
 10
199.8630121121
 20
342.8728538379
 11
200.2628052473
 21
343.2298734927
  0
LINE
  8
0
 62
7
  6
CONTINUOUS
 10
203.3632072037
 20
346.0255094062
 11
203.0868265978
 21
345.7990106808
  0
LINE
  8
0
 62
7
  6
CONTINUOUS
 10
203.0310768024
 20
345.2914248561
 11
203.3074574082
 21
345.5179235815
  0
LINE
  8
0
 62
7
  6
CONTINUOUS
 10
231.4477405471
 20
339.689158175
 11
231.1271017706
 21
339.53142555
  0
LINE
  8
0
 62
7
  6
CONTINUOUS
 10
230.5568777772
 20
337.1606556148
 11
230.236238971
 21
337.0029229055
  0
LINE
  8
0
 62
7
  6
CONTINUOUS
 10
251.9860417607
 20
332.2982075799
 11
250.8843880202
 21
331.9142671857
  0
LINE
  8
0
 62
7
  6
CONTINUOUS
 10
250.3617622267
 20
331.0368455956
 11
251.4634161503
 21
331.420786297
  0
LINE
  8
0
 62
7
  6
CONTINUOUS
 10
243.9071839545
 20
330.835877363
 11
249.7138906097
 21
332.6202497973
  0
LINE
  8
0
 62
7
  6
CONTINUOUS
 10
249.2866487532
 20
333.1430113419
 11
243.3701161525
 21
331.4183219843
  0
LINE
  8
0
 62
7
  6
CONTINUOUS
 10
200.3055290555
 20
343.8667399364
 11
200.0304554758
 21
343.5013535217
  0
LINE
  8
0
 62
7
  6
CONTINUOUS
 10
160.9386934469
 20
287.8736770981
 11
134.6468014947
 21
261.5817851459
  0
LINE
  8
0
 62
7
  6
CONTINUOUS
 10
185.3465666086
 20
309.5178579553
 11
166.9617902978
 21
291.1330816444
  0
LINE
  8
0
 62
7
  6
CONTINUOUS
 10
131.3873969484
 20
255.5586882951
 11
113.0026206376
 21
237.1739119842
  0
LINE
  8
0
 62
7
  6
CONTINUOUS
 10
231.5893197427
 20
338.9625190568
 11
232.1126972428
 21
339.3195238207
  0
LINE
  8
0
 62
7
  6
CONTINUOUS
 10
230.6984569282
 20
336.4340163701
 11
231.2218344432
 21
336.7910211762
  0
LINE
  8
0
 62
7
  6
CONTINUOUS
 10
254.3366162485
 20
325.4023741314
 11
253.9189277306
 21
325.2160708332
  0
LINE
  8
0
 62
7
  6
CONTINUOUS
 10
253.9572371759
 20
324.5836873727
 11
254.5491688203
 21
324.8095045178
  0
LINE
  8
0
 62
7
  6
CONTINUOUS
 10
134.6468014947
 20
200.2571710512
 11
160.9386934469
 21
173.965279099
  0
LINE
  8
0
 62
7
  6
CONTINUOUS
 10
113.0026206376
 20
224.6650442129
 11
131.3873969484
 21
206.280267902
  0
LINE
  8
0
 62
7
  6
CONTINUOUS
 10
166.9617902978
 20
170.7058745527
 11
185.3465666086
 21
152.3210982418
  0
LINE
  8
0
 62
7
  6
CONTINUOUS
 10
215.8755612188
 20
342.3542807947
 11
217.7391886902
 21
345.4644266791
  0
LINE
  8
0
 62
7
  6
CONTINUOUS
 10
214.8118127984
 20
340.5019616046
 11
215.6400911965
 21
341.8842487123
  0
LINE
  8
0
 62
7
  6
CONTINUOUS
 10
217.3653228334
 20
346.0735040579
 11
214.0806086279
 21
340.6688162149
  0
LINE
  8
0
 62
7
  6
CONTINUOUS
 10
226.2821745438
 20
343.7234309941
 11
222.9874106294
 21
339.096552423
  0
LINE
  8
0
 62
7
  6
CONTINUOUS
 10
223.2897479445
 20
338.3442112156
 11
226.2866015379
 21
342.3929041404
  0
LINE
  8
0
 62
7
  6
CONTINUOUS
 10
231.6929013046
 20
340.0088351897
 11
231.4477405471
 21
339.689158175
  0
LINE
  8
0
 62
7
  6
CONTINUOUS
 10
232.1126972428
 20
339.3195238207
 11
232.3578580003
 21
339.6392008354
  0
LINE
  8
0
 62
7
  6
CONTINUOUS
 10
230.8020385346
 20
337.4803326295
 11
230.5568777772
 21
337.1606556148
  0
LINE
  8
0
 62
7
  6
CONTINUOUS
 10
231.2218344432
 20
336.7910211762
 11
231.4669952304
 21
337.1106982753
  0
LINE
  8
0
 62
7
  6
CONTINUOUS
 10
254.6492649369
 20
325.6564381485
 11
254.3366162485
 21
325.4023741314
  0
LINE
  8
0
 62
7
  6
CONTINUOUS
 10
254.5491688203
 20
324.8095045178
 11
255.1052628759
 21
325.2103579487
  0
LINE
  8
0
 62
7
  6
CONTINUOUS
 10
145.4777613359
 20
89.9020162916
 11
143.8827593818
 21
82.3981220736
  0
LINE
  8
0
 62
7
  6
CONTINUOUS
 10
87.5991403046
 20
114.6472251426
 11
92.108355839
 21
120.8536278796
  0
LINE
  8
0
 62
7
  6
CONTINUOUS
 10
49.2983876815
 20
167.000857048
 11
55.9421324652
 21
170.8366248873
  0
LINE
  8
0
 62
7
  6
CONTINUOUS
 10
336.6671452007
 20
199.7892454468
 11
344.2966554042
 21
198.9873516115
  0
LINE
  8
0
 62
7
  6
CONTINUOUS
 10
318.1074565054
 20
139.6411109031
 11
311.4637117216
 21
143.4768787424
  0
LINE
  8
0
 62
7
  6
CONTINUOUS
 10
270.0441420871
 20
96.0777291207
 11
265.5349265528
 21
102.2841318577
  0
LINE
  8
0
 62
7
  6
CONTINUOUS
 10
208.4172958539
 20
75.8297107355
 11
206.8222938998
 21
83.3336049535
  0
LINE
  8
DEFAULT_1
 62
2
  6
CENTER
 10
191.6010004943
 20
230.9194780986
 11
191.6010004943
 21
82.8172792628
  0
LINE
  8
DEFAULT_1
 62
2
  6
CENTER
 10
191.6010004943
 20
230.9194780986
 11
191.6010004943
 21
379.0216769343
  0
LINE
  8
0
 62
7
  6
CONTINUOUS
 10
197.375522017
 20
346.8781207059
 11
197.2046267966
 21
344.3306551097
  0
LINE
  8
0
 62
7
  6
CONTINUOUS
 10
197.8282251614
 20
344.2888213828
 11
197.9991203819
 21
346.836286979
  0
LINE
  8
0
 62
7
  6
CONTINUOUS
 10
195.4085580558
 20
373.8753267504
 11
194.6550743008
 21
363.1000070403
  0
LINE
  8
0
 62
7
  6
CONTINUOUS
 10
202.5352497496
 20
346.5017284094
 11
202.0892513471
 21
342.4410414567
  0
LINE
  8
0
 62
7
  6
CONTINUOUS
 10
202.7105154397
 20
342.3728060088
 11
203.0310768024
 21
345.2914248561
  0
LINE
  8
0
 62
7
  6
CONTINUOUS
 10
203.0868265978
 20
345.7990106808
 11
203.1565138421
 21
346.4334929616
  0
LINE
  8
0
 62
7
  6
CONTINUOUS
 10
207.3763277238
 20
347.8606458154
 11
207.2893195651
 21
347.2283059882
  0
LINE
  8
0
 62
7
  6
CONTINUOUS
 10
207.1153031989
 20
345.9636259796
 11
206.5584509345
 21
341.9166507315
  0
LINE
  8
0
 62
7
  6
CONTINUOUS
 10
207.1776168529
 20
341.8314552651
 11
207.7344691173
 21
345.8784305132
  0
LINE
  8
0
 62
7
  6
CONTINUOUS
 10
207.9084854835
 20
347.1431105218
 11
207.9954936422
 21
347.775450349
  0
LINE
  8
0
 62
7
  6
CONTINUOUS
 10
221.600258255
 20
345.0818384872
 11
219.9283716191
 21
339.3194782871
  0
LINE
  8
0
 62
7
  6
CONTINUOUS
 10
220.6486666441
 20
339.1104924576
 11
221.9648327616
 21
343.6468187187
  0
LINE
  8
0
 62
7
  6
CONTINUOUS
 10
228.6320215933
 20
342.9821887931
 11
226.6381857654
 21
337.3231589565
  0
LINE
  8
0
 62
7
  6
CONTINUOUS
 10
227.6000967277
 20
337.7963588171
 11
228.2364273243
 21
339.6024322068
  0
LINE
  8
0
 62
7
  6
CONTINUOUS
 10
228.4909595273
 20
340.3248614615
 11
229.0848681198
 21
342.0105300599
  0
LINE
  8
0
 62
7
  6
CONTINUOUS
 10
253.224759398
 20
359.967471097
 11
248.1537003693
 21
350.4301961743
  0
LINE
  8
0
 62
7
  6
CONTINUOUS
 10
245.7473710998
 20
335.7928329254
 11
245.4425948628
 21
335.2319982598
  0
LINE
  8
0
 62
7
  6
CONTINUOUS
 10
243.3701161525
 20
331.4183219843
 11
242.8824741307
 21
330.5209864409
  0
LINE
  8
0
 62
7
  6
CONTINUOUS
 10
250.8843880202
 20
331.9142671857
 11
250.3617622267
 21
331.0368455956
  0
LINE
  8
0
 62
7
  6
CONTINUOUS
 10
251.4634161503
 20
331.420786297
 11
248.9156159336
 21
327.1433569283
  0
LINE
  8
0
 62
7
  6
CONTINUOUS
 10
253.6767109189
 20
331.2971084495
 11
251.8774387353
 21
328.5079564248
  0
LINE
  8
0
 62
7
  6
CONTINUOUS
 10
252.7486534375
 20
328.7055265259
 11
253.8558979327
 21
330.4219278875
  0
LINE
  8
0
 62
7
  6
CONTINUOUS
 10
300.3856529915
 20
323.7460450899
 11
291.8738508642
 21
317.0958964322
  0
LINE
  8
0
 62
7
  6
CONTINUOUS
 10
49.0302807984
 20
219.7632222867
 11
59.8253326786
 21
220.140193805
  0
LINE
  8
DEFAULT_1
 62
2
  6
CENTER
 10
191.6010004943
 20
230.9194780986
 11
43.4988016585
 21
230.9194780986
  0
LINE
  8
DEFAULT_1
 62
2
  6
CENTER
 10
191.6010004943
 20
230.9194780986
 11
339.70319933
 21
230.9194780986
  0
LINE
  8
0
 62
7
  6
CONTINUOUS
 10
56.818509085
 20
278.7164672073
 11
66.8336078252
 21
274.670104662
  0
LINE
  8
0
 62
7
  6
CONTINUOUS
 10
87.9118545968
 20
329.405178489
 11
95.4152986404
 21
321.6351347241
  0
LINE
  8
0
 62
7
  6
CONTINUOUS
 10
136.9339954206
 20
363.0648174587
 11
140.6283711258
 21
352.9146036299
  0
LINE
  8
0
 62
7
  6
CONTINUOUS
 10
200.4935137968
 20
346.6689520744
 11
200.3055290555
 21
343.8667399364
  0
LINE
  8
0
 62
7
  6
CONTINUOUS
 10
200.8949485064
 20
343.3154130277
 11
201.1171122954
 21
346.6271183385
  0
LINE
  8
0
 62
7
  6
CONTINUOUS
 10
205.2118773135
 20
344.5381914661
 11
204.9470657462
 21
342.1271584435
  0
LINE
  8
0
 62
7
  6
CONTINUOUS
 10
205.5683294832
 20
342.0589230347
 11
205.8331410506
 21
344.4699560573
  0
LINE
  8
0
 62
7
  6
CONTINUOUS
 10
158.1544549953
 20
91.8791934594
 11
161.1317882625
 21
102.2623884995
  0
LINE
  8
0
 62
7
  6
CONTINUOUS
 10
226.2866015379
 20
342.3929041404
 11
224.9704354204
 21
337.8565778792
  0
LINE
  8
0
 62
7
  6
CONTINUOUS
 10
225.6907304454
 20
337.6475920497
 11
227.3626170813
 21
343.4099522499
  0
LINE
  8
0
 62
7
  6
CONTINUOUS
 10
231.7777453723
 20
340.2496449413
 11
231.6929013046
 21
340.0088351897
  0
LINE
  8
0
 62
7
  6
CONTINUOUS
 10
230.9293046361
 20
337.8415472569
 11
230.8020385346
 21
337.4803326295
  0
LINE
  8
0
 62
7
  6
CONTINUOUS
 10
231.4669952304
 20
337.1106982753
 11
231.6791053995
 21
337.7127226542
  0
LINE
  8
0
 62
7
  6
CONTINUOUS
 10
232.3578580003
 20
339.6392008354
 11
232.5275462545
 21
340.1208206759
  0
LINE
  8
0
 62
7
  6
CONTINUOUS
 10
247.2756803724
 20
328.1335718446
 11
247.6414118994
 21
328.8065735218
  0
LINE
  8
0
 62
7
  6
CONTINUOUS
 10
249.7138906097
 20
332.6202497973
 11
250.1405773415
 21
333.4054183291
  0
LINE
  8
0
 62
7
  6
CONTINUOUS
 10
249.559972265
 20
326.7595536999
 11
252.6303980921
 21
331.9144043515
  0
LINE
  8
0
 62
7
  6
CONTINUOUS
 10
254.7876704746
 20
325.8709882812
 11
254.6492649369
 21
325.6564381485
  0
LINE
  8
0
 62
7
  6
CONTINUOUS
 10
256.9020633
 20
328.4568572985
 11
257.2480771442
 21
328.9932326301
  0
LINE
  8
0
 62
7
  6
CONTINUOUS
 10
255.1052628759
 20
325.2103579487
 11
255.3820739512
 21
325.6394582139
  0
LINE
  8
0
 62
7
  6
CONTINUOUS
 10
104.4932821535
 20
117.5037932759
 11
111.4364373305
 21
125.7783234021
  0
LINE
  8
0
 62
7
  6
CONTINUOUS
 10
65.8938251615
 20
162.7389953473
 11
75.6022676418
 21
167.4741191292
  0
LINE
  8
0
 62
7
  6
CONTINUOUS
 10
328.7366918907
 20
271.4740623472
 11
318.25591458
 21
268.8609110721
  0
LINE
  8
0
 62
7
  6
CONTINUOUS
 10
35.6030495923
 20
230.4065992154
 11
43.2325597958
 21
231.2084930508
  0
LINE
  8
0
 62
7
  6
CONTINUOUS
 10
333.3757239087
 20
212.189823561
 11
322.7381930265
 21
214.0655072637
  0
LINE
  8
0
 62
7
  6
CONTINUOUS
 10
48.881174411
 20
293.9010228011
 11
56.1772384082
 21
291.5303879034
  0
LINE
  8
0
 62
7
  6
CONTINUOUS
 10
313.5006182655
 20
156.144112198
 11
304.5456595402
 21
162.1843081262
  0
LINE
  8
0
 62
7
  6
CONTINUOUS
 10
86.8368537284
 20
346.5053651383
 11
92.5379157715
 21
341.372105818
  0
LINE
  8
0
 62
7
  6
CONTINUOUS
 10
272.5479612864
 20
113.027740912
 11
266.8239684349
 21
122.1880443163
  0
LINE
  8
0
 62
7
  6
CONTINUOUS
 10
217.5988394063
 20
90.2959219984
 11
216.0955427934
 21
100.9924332015
  0
LINE
  8
0
 62
7
  6
CONTINUOUS
 10
205.157311526
 20
345.1863208599
 11
205.2118773135
 21
344.5381914661
  0
LINE
  8
0
 62
7
  6
CONTINUOUS
 10
205.8331410506
 20
344.4699560573
 11
205.778575974
 21
345.118085373
  0
LINE
  8
0
 62
7
  6
CONTINUOUS
 10
207.397157296
 20
378.444930666
 11
207.397157296
 21
386.1164663446
  0
LINE
  8
0
 62
7
  6
CONTINUOUS
 10
266.0355151342
 20
359.2658093872
 11
269.1558098034
 21
366.2741059595
  0
LINE
  8
0
 62
7
  6
CONTINUOUS
 10
311.8034691748
 20
317.8944414387
 11
317.5045312179
 21
323.0277007591
  0
LINE
  8
0
 62
7
  6
CONTINUOUS
 10
336.7873243755
 20
261.4843121861
 11
344.0833883726
 21
263.8549470837
  0
LINE
  8
0
 62
7
  6
CONTINUOUS
 10
146.0275004432
 20
372.1155609692
 11
142.907205774
 21
379.1238575416
  0
LINE
  8
0
 62
7
  6
CONTINUOUS
 10
197.2046267966
 20
344.3306551097
 11
197.2951674285
 21
343.8127951911
  0
LINE
  8
0
 62
7
  6
CONTINUOUS
 10
200.9854890173
 20
342.7975531397
 11
200.8949485064
 21
343.3154130277
  0
LINE
  8
0
 62
7
  6
CONTINUOUS
 10
218.9553026333
 20
339.5564522524
 11
218.3402621924
 21
345.8510311381
  0
LINE
  8
0
 62
7
  6
CONTINUOUS
 10
218.0774388966
 20
341.3280665719
 11
218.2240984628
 21
339.7233068626
  0
LINE
  8
0
 62
7
  6
CONTINUOUS
 10
217.7391886902
 20
345.4644266791
 11
218.0691737304
 21
341.8537169638
  0
LINE
  8
0
 62
7
  6
CONTINUOUS
 10
221.9648327616
 20
343.6468187187
 11
222.3293554937
 21
338.6228587225
  0
LINE
  8
0
 62
7
  6
CONTINUOUS
 10
222.9874106294
 20
339.096552423
 11
222.6806994187
 21
344.7683601416
  0
LINE
  8
0
 62
7
  6
CONTINUOUS
 10
230.9386761411
 20
338.2442996655
 11
230.9293046361
 21
337.8415472569
  0
LINE
  8
0
 62
7
  6
CONTINUOUS
 10
231.6791053995
 20
337.7127226542
 11
231.6884769045
 21
338.1154750628
  0
LINE
  8
0
 62
7
  6
CONTINUOUS
 10
231.7871169366
 20
340.6523975185
 11
231.7777453723
 21
340.2496449413
  0
LINE
  8
0
 62
7
  6
CONTINUOUS
 10
232.5275462545
 20
340.1208206759
 11
232.5369177
 21
340.5235729158
  0
LINE
  8
0
 62
7
  6
CONTINUOUS
 10
255.3820739512
 20
325.6394582139
 11
255.5180077294
 21
326.3113556717
  0
LINE
  8
0
 62
7
  6
CONTINUOUS
 10
254.8902384961
 20
326.2605748122
 11
254.7876704746
 21
325.8709882812
  0
LINE
  8
0
 62
7
  6
CONTINUOUS
 10
200.2628052473
 20
343.2298734927
 11
200.4695209101
 21
342.5762735499
  0
LINE
  8
0
 62
7
  6
CONTINUOUS
 10
197.927310571
 20
343.8983348235
 11
197.8282251614
 21
344.2888213828
  0
LINE
  8
0
 62
7
  6
CONTINUOUS
 10
205.778575974
 20
345.118085373
 11
205.6961352888
 21
345.5124218545
  0
LINE
  8
0
 62
7
  6
CONTINUOUS
 10
251.2546137188
 20
327.5424806776
 11
251.1878830585
 21
326.9778581675
  0
LINE
  8
0
 62
7
  6
CONTINUOUS
 10
251.8181239979
 20
326.5712919491
 11
251.8848549588
 21
327.1359142653
  0
LINE
  8
0
 62
7
  6
CONTINUOUS
 10
270.199380351
 20
237.1739119842
 11
251.8146040401
 21
255.5586882951
  0
LINE
  8
0
 62
7
  6
CONTINUOUS
 10
216.2402106908
 20
291.1330816444
 11
197.8554343799
 21
309.5178579553
  0
LINE
  8
0
 62
7
  6
CONTINUOUS
 10
197.2951674285
 20
343.8127951911
 11
197.4027975874
 21
343.5496819035
  0
LINE
  8
0
 62
7
  6
CONTINUOUS
 10
201.0931194087
 20
342.534439814
 11
200.9854890173
 21
342.7975531397
  0
LINE
  8
0
 62
7
  6
CONTINUOUS
 10
251.1878830585
 20
326.9778581675
 11
251.2261923535
 21
326.3454748039
  0
LINE
  8
0
 62
7
  6
CONTINUOUS
 10
255.5180077294
 20
326.3113556717
 11
255.4796982599
 21
326.9437390946
  0
LINE
  8
0
 62
7
  6
CONTINUOUS
 10
254.8877666397
 20
326.717921987
 11
254.8902384961
 21
326.2605748122
  0
LINE
  8
0
 62
7
  6
CONTINUOUS
 10
197.8554343799
 20
152.3210982418
 11
216.2402106908
 21
170.7058745527
  0
LINE
  8
0
 62
7
  6
CONTINUOUS
 10
251.8146040401
 20
206.280267902
 11
270.199380351
 21
224.6650442129
  0
LINE
  8
0
 62
7
  6
CONTINUOUS
 10
222.2633075416
 20
173.965279099
 11
248.5551994938
 21
200.2571710512
  0
LINE
  8
0
 62
7
  6
CONTINUOUS
 10
248.5551994938
 20
261.5817851459
 11
222.2633075416
 21
287.8736770981
  0
LINE
  8
0
 62
7
  6
CONTINUOUS
 10
198.1511156653
 20
343.4994814285
 11
197.927310571
 21
343.8983348235
  0
LINE
  8
0
 62
7
  6
CONTINUOUS
 10
231.6884769045
 20
338.1154750628
 11
231.5044756751
 21
338.7217093052
  0
LINE
  8
0
 62
7
  6
CONTINUOUS
 10
232.5369177
 20
340.5235729158
 11
232.3529164706
 21
341.1298071582
  0
LINE
  8
0
 62
7
  6
CONTINUOUS
 10
197.4027975874
 20
343.5496819035
 11
197.7513223086
 21
343.142461811
  0
LINE
  8
0
 62
7
  6
CONTINUOUS
 10
204.9366810711
 20
345.4674079201
 11
205.157311526
 21
345.1863208599
  0
LINE
  8
0
 62
7
  6
CONTINUOUS
 10
205.6961352888
 20
345.5124218545
 11
205.4755048339
 21
345.7935089147
  0
LINE
  8
0
 62
7
  6
CONTINUOUS
 10
230.7877254999
 20
338.5681865437
 11
230.9386761411
 21
338.2442996655
  0
LINE
  8
0
 62
7
  6
CONTINUOUS
 10
231.6361662955
 20
340.9762843968
 11
231.7871169366
 21
340.6523975185
  0
LINE
  8
0
 62
7
  6
CONTINUOUS
 10
231.3111030001
 20
338.9251913076
 11
231.5893197427
 21
338.9625190568
  0
LINE
  8
0
 62
7
  6
CONTINUOUS
 10
252.6127200567
 20
328.0336290245
 11
253.2404889896
 21
328.0844100778
  0
LINE
  8
0
 62
7
  6
CONTINUOUS
 10
253.9189277306
 20
325.2160708332
 11
253.4654016481
 21
325.2048038582
  0
LINE
  8
0
 62
7
  6
CONTINUOUS
 10
253.2244278429
 20
324.600667473
 11
253.9572371759
 21
324.5836873727
  0
LINE
  8
0
 62
7
  6
CONTINUOUS
 10
253.4814627523
 20
328.6885463974
 11
252.7486534375
 21
328.7055265259
  0
LINE
  8
0
 62
7
  6
CONTINUOUS
 10
198.6329048156
 20
343.2112678618
 11
198.1511156653
 21
343.4994814285
  0
LINE
  8
0
 62
7
  6
CONTINUOUS
 10
204.7021131673
 20
345.6215985242
 11
204.9366810711
 21
345.4674079201
  0
LINE
  8
0
 62
7
  6
CONTINUOUS
 10
197.7513223086
 20
343.142461811
 11
198.108391858
 21
342.862614996
  0
LINE
  8
0
 62
7
  6
CONTINUOUS
 10
205.4755048339
 20
345.7935089147
 11
205.1306213472
 21
346.088243088
  0
LINE
  8
0
 62
7
  6
CONTINUOUS
 10
231.5044756751
 20
338.7217093052
 11
231.3111030001
 21
338.9251913076
  0
LINE
  8
0
 62
7
  6
CONTINUOUS
 10
232.3529164706
 20
341.1298071582
 11
232.0085958529
 21
341.6571750882
  0
LINE
  8
0
 62
7
  6
CONTINUOUS
 10
251.2261923535
 20
326.3454748039
 11
251.5437850371
 21
325.6848442494
  0
LINE
  8
0
 62
7
  6
CONTINUOUS
 10
255.4796982599
 20
326.9437390946
 11
255.1621055581
 21
327.604369621
  0
LINE
  8
0
 62
7
  6
CONTINUOUS
 10
251.9948390051
 20
326.1534586587
 11
251.8181239979
 21
326.5712919491
  0
LINE
  8
0
 62
7
  6
CONTINUOUS
 10
254.7110516325
 20
327.1357552774
 11
254.8877666397
 21
326.717921987
  0
LINE
  8
0
 62
7
  6
CONTINUOUS
 10
199.0976045341
 20
342.6683077473
 11
199.6050278801
 21
342.762214055
  0
LINE
  8
0
 62
7
  6
CONTINUOUS
 10
199.6392069271
 20
343.2717072166
 11
199.1317835788
 21
343.1778008755
  0
LINE
  8
0
 62
7
  6
CONTINUOUS
 10
203.7080903349
 20
345.730775272
 11
204.2190392
 21
345.8030833543
  0
LINE
  8
0
 62
7
  6
CONTINUOUS
 10
204.2747889954
 20
346.3106691789
 11
203.7638401303
 21
346.2383610966
  0
LINE
  8
0
 62
7
  6
CONTINUOUS
 10
230.236238971
 20
337.0029229055
 11
229.8401275723
 21
337.007132769
  0
LINE
  8
0
 62
7
  6
CONTINUOUS
 10
231.1271017706
 20
339.53142555
 11
230.730990372
 21
339.5356354135
  0
LINE
  8
0
 62
7
  6
CONTINUOUS
 10
198.5987257709
 20
342.7017747336
 11
199.0976045341
 21
342.6683077473
  0
LINE
  8
0
 62
7
  6
CONTINUOUS
 10
200.4695209101
 20
342.5762735499
 11
201.0931194087
 21
342.534439814
  0
LINE
  8
0
 62
7
  6
CONTINUOUS
 10
199.1317835788
 20
343.1778008755
 11
198.6329048156
 21
343.2112678618
  0
LINE
  8
0
 62
7
  6
CONTINUOUS
 10
201.1171122954
 20
346.6271183385
 11
200.4935137968
 21
346.6689520744
  0
LINE
  8
0
 62
7
  6
CONTINUOUS
 10
197.9991203819
 20
346.836286979
 11
197.375522017
 21
346.8781207059
  0
LINE
  8
0
 62
7
  6
CONTINUOUS
 10
202.0892513471
 20
342.4410414567
 11
202.7105154397
 21
342.3728060088
  0
LINE
  8
0
 62
7
  6
CONTINUOUS
 10
204.9470657462
 20
342.1271584435
 11
205.5683294832
 21
342.0589230347
  0
LINE
  8
0
 62
7
  6
CONTINUOUS
 10
204.7718004116
 20
346.256080805
 11
204.2747889954
 21
346.3106691789
  0
LINE
  8
0
 62
7
  6
CONTINUOUS
 10
203.1565138421
 20
346.4334929616
 11
202.5352497496
 21
346.5017284094
  0
LINE
  8
0
 62
7
  6
CONTINUOUS
 10
206.5584509345
 20
341.9166507315
 11
207.1776168529
 21
341.8314552651
  0
LINE
  8
0
 62
7
  6
CONTINUOUS
 10
207.7344691173
 20
345.8784305132
 11
207.1153031989
 21
345.9636259796
  0
LINE
  8
0
 62
7
  6
CONTINUOUS
 10
207.2893195651
 20
347.2283059882
 11
207.9084854835
 21
347.1431105218
  0
LINE
  8
0
 62
7
  6
CONTINUOUS
 10
207.9954936422
 20
347.775450349
 11
207.3763277238
 21
347.8606458154
  0
LINE
  8
0
 62
7
  6
CONTINUOUS
 10
229.4677006837
 20
336.3262410425
 11
230.0996040964
 21
336.2389550137
  0
LINE
  8
0
 62
7
  6
CONTINUOUS
 10
214.0806086279
 20
340.6688162149
 11
214.8118127984
 21
340.5019616046
  0
LINE
  8
0
 62
7
  6
CONTINUOUS
 10
218.2240984628
 20
339.7233068626
 11
218.9553026333
 21
339.5564522524
  0
LINE
  8
0
 62
7
  6
CONTINUOUS
 10
215.6400911965
 20
341.8842487123
 11
218.0774388966
 21
341.3280665719
  0
LINE
  8
0
 62
7
  6
CONTINUOUS
 10
218.0691737304
 20
341.8537169638
 11
215.8755612188
 21
342.3542807947
  0
LINE
  8
0
 62
7
  6
CONTINUOUS
 10
218.3402621924
 20
345.8510311381
 11
217.3653228334
 21
346.0735040579
  0
LINE
  8
0
 62
7
  6
CONTINUOUS
 10
219.9283716191
 20
339.3194782871
 11
220.6486666441
 21
339.1104924576
  0
LINE
  8
0
 62
7
  6
CONTINUOUS
 10
222.3293554937
 20
338.6228587225
 11
223.2897479445
 21
338.3442112156
  0
LINE
  8
0
 62
7
  6
CONTINUOUS
 10
224.9704354204
 20
337.8565778792
 11
225.6907304454
 21
337.6475920497
  0
LINE
  8
0
 62
7
  6
CONTINUOUS
 10
227.3626170813
 20
343.4099522499
 11
226.2821745438
 21
343.7234309941
  0
LINE
  8
0
 62
7
  6
CONTINUOUS
 10
222.6806994187
 20
344.7683601416
 11
221.600258255
 21
345.0818384872
  0
LINE
  8
0
 62
7
  6
CONTINUOUS
 10
198.108391858
 20
342.862614996
 11
198.5987257709
 21
342.7017747336
  0
LINE
  8
0
 62
7
  6
CONTINUOUS
 10
253.4654016481
 20
325.2048038582
 11
252.9760382529
 21
325.3685729376
  0
LINE
  8
0
 62
7
  6
CONTINUOUS
 10
253.2404889896
 20
328.0844100778
 11
253.7298526853
 21
327.9206408047
  0
LINE
  8
0
 62
7
  6
CONTINUOUS
 10
226.6381857654
 20
337.3231589565
 11
229.4677006837
 21
336.3262410425
  0
LINE
  8
0
 62
7
  6
CONTINUOUS
 10
229.8401275723
 20
337.007132769
 11
227.6000967277
 21
337.7963588171
  0
LINE
  8
0
 62
7
  6
CONTINUOUS
 10
228.2364273243
 20
339.6024322068
 11
230.476458169
 21
338.8132061588
  0
LINE
  8
0
 62
7
  6
CONTINUOUS
 10
230.730990372
 20
339.5356354135
 11
228.4909595273
 21
340.3248614615
  0
LINE
  8
0
 62
7
  6
CONTINUOUS
 10
229.0848681198
 20
342.0105300599
 11
231.3248989645
 21
341.2213040118
  0
LINE
  8
0
 62
7
  6
CONTINUOUS
 10
231.4615365116
 20
341.9852708791
 11
228.6320215933
 21
342.9821887931
  0
LINE
  8
0
 62
7
  6
CONTINUOUS
 10
204.2190392
 20
345.8030833543
 11
204.7021131673
 21
345.6215985242
  0
LINE
  8
0
 62
7
  6
CONTINUOUS
 10
252.6300243603
 20
324.8321975308
 11
253.2244278429
 21
324.600667473
  0
LINE
  8
0
 62
7
  6
CONTINUOUS
 10
254.0758665294
 20
328.4570161363
 11
253.4814627523
 21
328.6885463974
  0
LINE
  8
0
 62
7
  6
CONTINUOUS
 10
205.1306213472
 20
346.088243088
 11
204.7718004116
 21
346.256080805
  0
LINE
  8
0
 62
7
  6
CONTINUOUS
 10
242.8824741307
 20
330.5209864409
 11
247.2756803724
 21
328.1335718446
  0
LINE
  8
0
 62
7
  6
CONTINUOUS
 10
247.6414118994
 20
328.8065735218
 11
243.9071839545
 21
330.835877363
  0
LINE
  8
0
 62
7
  6
CONTINUOUS
 10
245.4425948628
 20
335.2319982598
 11
249.2866487532
 21
333.1430113419
  0
LINE
  8
0
 62
7
  6
CONTINUOUS
 10
250.1405773415
 20
333.4054183291
 11
245.7473710998
 21
335.7928329254
  0
LINE
  8
0
 62
7
  6
CONTINUOUS
 10
248.9156159336
 20
327.1433569283
 11
249.559972265
 21
326.7595536999
  0
LINE
  8
0
 62
7
  6
CONTINUOUS
 10
252.6303980921
 20
331.9144043515
 11
251.9860417607
 21
332.2982075799
  0
LINE
  8
0
 62
7
  6
CONTINUOUS
 10
232.0085958529
 20
341.6571750882
 11
231.4615365116
 21
341.9852708791
  0
LINE
  8
0
 62
7
  6
CONTINUOUS
 10
251.9997832705
 20
325.2387638462
 11
252.6300243603
 21
324.8321975308
  0
LINE
  8
0
 62
7
  6
CONTINUOUS
 10
252.9760382529
 20
325.3685729376
 11
252.3457971631
 21
325.7751392529
  0
LINE
  8
0
 62
7
  6
CONTINUOUS
 10
251.8848549588
 20
327.1359142653
 11
251.2546137188
 21
327.5424806776
  0
LINE
  8
0
 62
7
  6
CONTINUOUS
 10
251.8774387353
 20
328.5079564248
 11
252.6127200567
 21
328.0336290245
  0
LINE
  8
0
 62
7
  6
CONTINUOUS
 10
253.7298526853
 20
327.9206408047
 11
254.360093775
 21
327.5140744893
  0
LINE
  8
0
 62
7
  6
CONTINUOUS
 10
254.7061076192
 20
328.0504498209
 11
254.0758665294
 21
328.4570161363
  0
LINE
  8
0
 62
7
  6
CONTINUOUS
 10
253.8558979327
 20
330.4219278875
 11
256.9020633
 21
328.4568572985
  0
LINE
  8
0
 62
7
  6
CONTINUOUS
 10
257.2480771442
 20
328.9932326301
 11
253.6767109189
 21
331.2971084495
  0
LINE
  8
0
 62
7
  6
CONTINUOUS
 10
230.476458169
 20
338.8132061588
 11
230.7877254999
 21
338.5681865437
  0
LINE
  8
0
 62
7
  6
CONTINUOUS
 10
231.3248989645
 20
341.2213040118
 11
231.6361662955
 21
340.9762843968
  0
LINE
  8
0
 62
7
  6
CONTINUOUS
 10
251.5437850371
 20
325.6848442494
 11
251.9997832705
 21
325.2387638462
  0
LINE
  8
0
 62
7
  6
CONTINUOUS
 10
255.1621055581
 20
327.604369621
 11
254.7061076192
 21
328.0504498209
  0
LINE
  8
0
 62
7
  6
CONTINUOUS
 10
252.3457971631
 20
325.7751392529
 11
251.9948390051
 21
326.1534586587
  0
LINE
  8
0
 62
7
  6
CONTINUOUS
 10
254.360093775
 20
327.5140744893
 11
254.7110516325
 21
327.1357552774
  0
LINE
  8
0
 62
7
  6
CONTINUOUS
 10
322.7583804377
 20
221.6554809227
 11
325.4764935091
 21
247.5165993111
  0
LINE
  8
0
 62
7
  6
CONTINUOUS
 10
307.6512220652
 20
169.1098831261
 11
320.6530063943
 21
191.6296341733
  0
LINE
  8
0
 62
7
  6
CONTINUOUS
 10
272.4779260998
 20
127.2517258228
 11
293.5152550588
 21
142.5362399871
  0
LINE
  8
0
 62
7
  6
CONTINUOUS
 10
187.1045691526
 20
362.32671558
 11
161.1010004943
 21
362.32671558
  0
LINE
  8
0
 62
7
  6
CONTINUOUS
 10
240.9414447155
 20
352.7948263908
 11
217.1860026852
 21
363.3714306149
  0
LINE
  8
0
 62
7
  6
CONTINUOUS
 10
286.2469092287
 20
322.1895822791
 11
268.8471255649
 21
341.5139997715
  0
LINE
  8
0
 62
7
  6
CONTINUOUS
 10
315.1872362907
 20
275.8029079918
 11
307.1516916609
 21
300.5337714112
  0
LINE
  8
0
 62
7
  6
CONTINUOUS
 10
481.3500307247
 20
75.0376224263
 11
489.4773789139
 21
75.0376224263
  0
LINE
  8
0
 62
7
  6
CONTINUOUS
 10
506.7500307247
 20
75.0376224263
 11
514.8773789139
 21
75.0376224263
  0
LINE
  8
0
 62
9
  6
CONTINUOUS
 10
514.9164738984
 20
75.8297107355
 11
506.7109357401
 21
75.8297107355
  0
LINE
  8
0
 62
9
  6
CONTINUOUS
 10
489.5164738984
 20
75.8297107355
 11
481.3109357401
 21
75.8297107355
  0
LINE
  8
0
 62
7
  6
CONTINUOUS
 10
481.348318352
 20
81.1902103828
 11
489.4790912866
 21
81.1902103828
  0
LINE
  8
0
 62
7
  6
CONTINUOUS
 10
506.748318352
 20
81.1902103828
 11
514.8790912866
 21
81.1902103828
  0
LINE
  8
0
 62
9
  6
CONTINUOUS
 10
514.9164738984
 20
82.3981220736
 11
506.7109357401
 21
82.3981220736
  0
LINE
  8
0
 62
9
  6
CONTINUOUS
 10
489.5164738984
 20
82.3981220736
 11
481.3109357401
 21
82.3981220736
  0
LINE
  8
0
 62
9
  6
CONTINUOUS
 10
515.2496100281
 20
83.3336049535
 11
515.0517092587
 21
83.3336049535
  0
LINE
  8
0
 62
9
  6
CONTINUOUS
 10
506.5757003799
 20
83.3336049535
 11
506.3777996104
 21
83.3336049535
  0
LINE
  8
0
 62
9
  6
CONTINUOUS
 10
489.8496100281
 20
83.3336049535
 11
489.6517092587
 21
83.3336049535
  0
LINE
  8
0
 62
9
  6
CONTINUOUS
 10
481.1757003799
 20
83.3336049535
 11
480.9777996104
 21
83.3336049535
  0
LINE
  8
0
 62
9
  6
CONTINUOUS
 10
515.2496100281
 20
89.9020162916
 11
506.3777996104
 21
89.9020162916
  0
LINE
  8
0
 62
9
  6
CONTINUOUS
 10
489.8496100281
 20
89.9020162916
 11
480.9777996104
 21
89.9020162916
  0
LINE
  8
0
 62
7
  6
CONTINUOUS
 10
506.3137048193
 20
104.9194780986
 11
489.9137048193
 21
104.9194780986
  0
LINE
  8
0
 62
7
  6
CONTINUOUS
 10
475.1137048193
 20
104.9194780986
 11
480.9137048193
 21
104.9194780986
  0
LINE
  8
0
 62
7
  6
CONTINUOUS
 10
515.3137048193
 20
104.9194780986
 11
521.1137048193
 21
104.9194780986
  0
LINE
  8
0
 62
9
  6
CONTINUOUS
 10
515.3137048193
 20
106.6813395973
 11
506.3137048193
 21
106.6813395973
  0
LINE
  8
0
 62
9
  6
CONTINUOUS
 10
489.9137048193
 20
106.6813395973
 11
480.9137048193
 21
106.6813395973
  0
LINE
  8
0
 62
7
  6
CONTINUOUS
 10
481.2329761694
 20
112.2170498992
 11
489.5944334691
 21
112.2170498992
  0
LINE
  8
0
 62
7
  6
CONTINUOUS
 10
506.6329761694
 20
112.2170498992
 11
514.9944334691
 21
112.2170498992
  0
LINE
  8
0
 62
9
  6
CONTINUOUS
 10
514.8800658274
 20
113.1204826433
 11
506.7473438112
 21
113.1204826433
  0
LINE
  8
0
 62
9
  6
CONTINUOUS
 10
489.4800658274
 20
113.1204826433
 11
481.3473438112
 21
113.1204826433
  0
LINE
  8
0
 62
9
  6
CONTINUOUS
 10
514.9164738984
 20
114.6472251426
 11
506.7109357401
 21
114.6472251426
  0
LINE
  8
0
 62
9
  6
CONTINUOUS
 10
489.5164738984
 20
114.6472251426
 11
481.3109357401
 21
114.6472251426
  0
LINE
  8
0
 62
9
  6
CONTINUOUS
 10
515.2496100281
 20
120.8536278796
 11
506.3777996104
 21
120.8536278796
  0
LINE
  8
0
 62
9
  6
CONTINUOUS
 10
489.8496100281
 20
120.8536278796
 11
480.9777996104
 21
120.8536278796
  0
LINE
  8
0
 62
9
  6
CONTINUOUS
 10
515.3137048193
 20
138.8020845424
 11
506.3137048193
 21
138.8020845424
  0
LINE
  8
0
 62
9
  6
CONTINUOUS
 10
489.9137048193
 20
138.8020845424
 11
480.9137048193
 21
138.8020845424
  0
POLYLINE
  8
0
 62
7
  6
CONTINUOUS
 66
1
 70
0
  0
VERTEX
  8
0
 62
7
  6
CONTINUOUS
 10
481.2329758905
 20
112.2170498992
  0
VERTEX
  8
0
 62
7
  6
CONTINUOUS
 10
481.1918626692
 20
112.2834617692
  0
VERTEX
  8
0
 62
7
  6
CONTINUOUS
 10
481.1620397688
 20
112.4025511086
  0
VERTEX
  8
0
 62
7
  6
CONTINUOUS
 10
481.0975797086
 20
112.8180335062
  0
VERTEX
  8
0
 62
7
  6
CONTINUOUS
 10
481.0274322259
 20
113.4639920688
  0
VERTEX
  8
0
 62
7
  6
CONTINUOUS
 10
480.9525736725
 20
114.3299663065
  0
VERTEX
  8
0
 62
7
  6
CONTINUOUS
 10
480.9137048193
 20
114.8412660678
  0
SEQEND
  0
LINE
  8
0
 62
7
  6
CONTINUOUS
 10
481.3483195809
 20
81.1902103828
 11
481.3473438112
 21
81.1924990826
  0
POLYLINE
  8
0
 62
7
  6
CONTINUOUS
 66
1
 70
0
  0
VERTEX
  8
0
 62
7
  6
CONTINUOUS
 10
481.3388798427
 20
346.7622203129
  0
VERTEX
  8
0
 62
7
  6
CONTINUOUS
 10
481.3352323928
 20
346.755395402
  0
VERTEX
  8
0
 62
7
  6
CONTINUOUS
 10
481.3263312244
 20
346.6969132101
  0
VERTEX
  8
0
 62
7
  6
CONTINUOUS
 10
481.3162363169
 20
346.5819095101
  0
VERTEX
  8
0
 62
7
  6
CONTINUOUS
 10
480.9563376628
 20
341.0462905927
  0
SEQEND
  0
LINE
  8
0
 62
7
  6
CONTINUOUS
 10
481.0243231375
 20
161.2411472325
 11
489.8030865011
 21
161.2411472325
  0
LINE
  8
0
 62
7
  6
CONTINUOUS
 10
506.4243231375
 20
161.2411472325
 11
515.2030865011
 21
161.2411472325
  0
LINE
  8
0
 62
9
  6
CONTINUOUS
 10
480.9137048193
 20
161.3218355895
 11
480.9717306864
 21
161.3218355895
  0
LINE
  8
0
 62
9
  6
CONTINUOUS
 10
489.8556789522
 20
161.3218355895
 11
489.9137048193
 21
161.3218355895
  0
LINE
  8
0
 62
9
  6
CONTINUOUS
 10
506.3137048193
 20
161.3218355895
 11
506.3717306864
 21
161.3218355895
  0
LINE
  8
0
 62
9
  6
CONTINUOUS
 10
515.2556789522
 20
161.3218355895
 11
515.3137048193
 21
161.3218355895
  0
LINE
  8
0
 62
9
  6
CONTINUOUS
 10
514.8800658274
 20
165.4169826885
 11
506.7473438112
 21
165.4169826885
  0
LINE
  8
0
 62
9
  6
CONTINUOUS
 10
489.4800658274
 20
165.4169826885
 11
481.3473438112
 21
165.4169826885
  0
LINE
  8
0
 62
9
  6
CONTINUOUS
 10
514.9164738984
 20
167.000857048
 11
506.7109357401
 21
167.000857048
  0
LINE
  8
0
 62
9
  6
CONTINUOUS
 10
489.5164738984
 20
167.000857048
 11
481.3109357401
 21
167.000857048
  0
POLYLINE
  8
0
 62
7
  6
CONTINUOUS
 66
1
 70
0
  0
VERTEX
  8
0
 62
7
  6
CONTINUOUS
 10
489.4885297974
 20
346.7622203129
  0
VERTEX
  8
0
 62
7
  6
CONTINUOUS
 10
489.4850038221
 20
346.7538459738
  0
VERTEX
  8
0
 62
7
  6
CONTINUOUS
 10
489.4822021027
 20
346.7304605117
  0
VERTEX
  8
0
 62
7
  6
CONTINUOUS
 10
489.4783769075
 20
346.6402563122
  0
VERTEX
  8
0
 62
7
  6
CONTINUOUS
 10
489.4770955442
 20
346.4970560619
  0
VERTEX
  8
0
 62
7
  6
CONTINUOUS
 10
489.4784333373
 20
346.3094924006
  0
VERTEX
  8
0
 62
7
  6
CONTINUOUS
 10
489.4960525172
 20
345.343353739
  0
SEQEND
  0
POLYLINE
  8
0
 62
7
  6
CONTINUOUS
 66
1
 70
0
  0
VERTEX
  8
0
 62
7
  6
CONTINUOUS
 10
489.5032665553
 20
293.9499662848
  0
VERTEX
  8
0
 62
7
  6
CONTINUOUS
 10
489.5010800724
 20
293.948430203
  0
VERTEX
  8
0
 62
7
  6
CONTINUOUS
 10
489.4921784151
 20
293.9047263239
  0
VERTEX
  8
0
 62
7
  6
CONTINUOUS
 10
489.4850038221
 20
293.8033332143
  0
VERTEX
  8
0
 62
7
  6
CONTINUOUS
 10
489.4822021027
 20
293.7328046791
  0
VERTEX
  8
0
 62
7
  6
CONTINUOUS
 10
489.4783769075
 20
293.5574301257
  0
VERTEX
  8
0
 62
7
  6
CONTINUOUS
 10
489.4770955442
 20
293.3454050084
  0
VERTEX
  8
0
 62
7
  6
CONTINUOUS
 10
489.4784333373
 20
293.1095040471
  0
VERTEX
  8
0
 62
7
  6
CONTINUOUS
 10
489.4960525172
 20
292.0443549409
  0
SEQEND
  0
LINE
  8
0
 62
9
  6
CONTINUOUS
 10
515.2496100281
 20
170.8366248873
 11
506.3777996104
 21
170.8366248873
  0
LINE
  8
0
 62
9
  6
CONTINUOUS
 10
489.8496100281
 20
170.8366248873
 11
480.9777996104
 21
170.8366248873
  0
POLYLINE
  8
0
 62
7
  6
CONTINUOUS
 66
1
 70
0
  0
VERTEX
  8
0
 62
7
  6
CONTINUOUS
 10
481.0243245111
 20
161.2411472325
  0
VERTEX
  8
0
 62
7
  6
CONTINUOUS
 10
480.9525736725
 20
161.3512258837
  0
VERTEX
  8
0
 62
7
  6
CONTINUOUS
 10
480.9137048193
 20
161.4958565668
  0
SEQEND
  0
POLYLINE
  8
0
 62
7
  6
CONTINUOUS
 66
1
 70
0
  0
VERTEX
  8
0
 62
7
  6
CONTINUOUS
 10
506.6329758905
 20
112.2170498992
  0
VERTEX
  8
0
 62
7
  6
CONTINUOUS
 10
506.5918626692
 20
112.2834617692
  0
VERTEX
  8
0
 62
7
  6
CONTINUOUS
 10
506.5620397688
 20
112.4025511086
  0
VERTEX
  8
0
 62
7
  6
CONTINUOUS
 10
506.4975797086
 20
112.8180335062
  0
VERTEX
  8
0
 62
7
  6
CONTINUOUS
 10
506.4274322259
 20
113.4639920688
  0
VERTEX
  8
0
 62
7
  6
CONTINUOUS
 10
506.3525736725
 20
114.3299663065
  0
VERTEX
  8
0
 62
7
  6
CONTINUOUS
 10
506.3137048193
 20
114.8412660678
  0
SEQEND
  0
POLYLINE
  8
0
 62
7
  6
CONTINUOUS
 66
1
 70
0
  0
VERTEX
  8
0
 62
7
  6
CONTINUOUS
 10
489.4793510786
 20
379.7171208985
  0
VERTEX
  8
0
 62
7
  6
CONTINUOUS
 10
489.4783769075
 20
379.7139086553
  0
VERTEX
  8
0
 62
7
  6
CONTINUOUS
 10
489.4770955442
 20
379.6642938962
  0
VERTEX
  8
0
 62
7
  6
CONTINUOUS
 10
489.4784333373
 20
379.5574989958
  0
VERTEX
  8
0
 62
7
  6
CONTINUOUS
 10
489.4960525172
 20
378.8574249305
  0
SEQEND
  0
POLYLINE
  8
0
 62
7
  6
CONTINUOUS
 66
1
 70
0
  0
VERTEX
  8
0
 62
7
  6
CONTINUOUS
 10
506.7388798427
 20
346.7622203129
  0
VERTEX
  8
0
 62
7
  6
CONTINUOUS
 10
506.7352323928
 20
346.755395402
  0
VERTEX
  8
0
 62
7
  6
CONTINUOUS
 10
506.7263312244
 20
346.6969132101
  0
VERTEX
  8
0
 62
7
  6
CONTINUOUS
 10
506.7162363169
 20
346.5819095101
  0
VERTEX
  8
0
 62
7
  6
CONTINUOUS
 10
506.3563376628
 20
341.0462905927
  0
SEQEND
  0
POLYLINE
  8
0
 62
7
  6
CONTINUOUS
 66
1
 70
0
  0
VERTEX
  8
0
 62
7
  6
CONTINUOUS
 10
514.9032665553
 20
293.9499662848
  0
VERTEX
  8
0
 62
7
  6
CONTINUOUS
 10
514.9010800724
 20
293.948430203
  0
VERTEX
  8
0
 62
7
  6
CONTINUOUS
 10
514.8921784151
 20
293.9047263239
  0
VERTEX
  8
0
 62
7
  6
CONTINUOUS
 10
514.8850038221
 20
293.8033332143
  0
VERTEX
  8
0
 62
7
  6
CONTINUOUS
 10
514.8822021027
 20
293.7328046791
  0
VERTEX
  8
0
 62
7
  6
CONTINUOUS
 10
514.8783769075
 20
293.5574301257
  0
VERTEX
  8
0
 62
7
  6
CONTINUOUS
 10
514.8770955442
 20
293.3454050084
  0
VERTEX
  8
0
 62
7
  6
CONTINUOUS
 10
514.8784333373
 20
293.1095040471
  0
VERTEX
  8
0
 62
7
  6
CONTINUOUS
 10
514.8960525172
 20
292.0443549409
  0
SEQEND
  0
LINE
  8
0
 62
9
  6
CONTINUOUS
 10
515.3137048193
 20
186.8507636936
 11
506.3137048193
 21
186.8507636936
  0
LINE
  8
0
 62
9
  6
CONTINUOUS
 10
489.9137048193
 20
186.8507636936
 11
480.9137048193
 21
186.8507636936
  0
LINE
  8
0
 62
7
  6
CONTINUOUS
 10
506.7483195809
 20
81.1902103828
 11
506.7473438112
 21
81.1924990826
  0
POLYLINE
  8
0
 62
7
  6
CONTINUOUS
 66
1
 70
0
  0
VERTEX
  8
0
 62
7
  6
CONTINUOUS
 10
481.3473438112
 20
81.1924990826
  0
VERTEX
  8
0
 62
7
  6
CONTINUOUS
 10
481.3313571213
 20
81.2861599191
  0
VERTEX
  8
0
 62
7
  6
CONTINUOUS
 10
481.2928971142
 20
81.6514720233
  0
VERTEX
  8
0
 62
7
  6
CONTINUOUS
 10
481.2462034887
 20
82.2487600523
  0
VERTEX
  8
0
 62
7
  6
CONTINUOUS
 10
481.1918626692
 20
83.0684556611
  0
VERTEX
  8
0
 62
7
  6
CONTINUOUS
 10
481.1620397688
 20
83.5577131412
  0
VERTEX
  8
0
 62
7
  6
CONTINUOUS
 10
481.0975797086
 20
84.6851737693
  0
VERTEX
  8
0
 62
7
  6
CONTINUOUS
 10
481.0274322259
 20
85.9957379809
  0
VERTEX
  8
0
 62
7
  6
CONTINUOUS
 10
480.9525736725
 20
87.4680925006
  0
VERTEX
  8
0
 62
7
  6
CONTINUOUS
 10
480.9137048193
 20
88.2576529664
  0
SEQEND
  0
POLYLINE
  8
0
 62
7
  6
CONTINUOUS
 66
1
 70
0
  0
VERTEX
  8
0
 62
7
  6
CONTINUOUS
 10
481.3501181753
 20
387.1164663446
  0
VERTEX
  8
0
 62
7
  6
CONTINUOUS
 10
481.3489762633
 20
387.1046408999
  0
VERTEX
  8
0
 62
7
  6
CONTINUOUS
 10
481.3473438112
 20
387.0783167363
  0
SEQEND
  0
POLYLINE
  8
0
 62
7
  6
CONTINUOUS
 66
1
 70
0
  0
VERTEX
  8
0
 62
7
  6
CONTINUOUS
 10
481.3241430836
 20
293.9499662848
  0
VERTEX
  8
0
 62
7
  6
CONTINUOUS
 10
481.3162363169
 20
293.931771849
  0
VERTEX
  8
0
 62
7
  6
CONTINUOUS
 10
481.3109357401
 20
293.9010228011
  0
SEQEND
  0
POLYLINE
  8
0
 62
7
  6
CONTINUOUS
 66
1
 70
0
  0
VERTEX
  8
0
 62
7
  6
CONTINUOUS
 10
506.4243245111
 20
161.2411472325
  0
VERTEX
  8
0
 62
7
  6
CONTINUOUS
 10
506.3525736725
 20
161.3512258837
  0
VERTEX
  8
0
 62
7
  6
CONTINUOUS
 10
506.3137048193
 20
161.4958565668
  0
SEQEND
  0
POLYLINE
  8
0
 62
7
  6
CONTINUOUS
 66
1
 70
0
  0
VERTEX
  8
0
 62
7
  6
CONTINUOUS
 10
481.3500306531
 20
75.0376224263
  0
VERTEX
  8
0
 62
7
  6
CONTINUOUS
 10
481.3490329168
 20
75.0459632511
  0
VERTEX
  8
0
 62
7
  6
CONTINUOUS
 10
481.3452080434
 20
75.1073313912
  0
SEQEND
  0
POLYLINE
  8
0
 62
7
  6
CONTINUOUS
 66
1
 70
0
  0
VERTEX
  8
0
 62
7
  6
CONTINUOUS
 10
481.3109357401
 20
167.000857048
  0
VERTEX
  8
0
 62
7
  6
CONTINUOUS
 10
480.9563376628
 20
171.0906498212
  0
VERTEX
  8
0
 62
7
  6
CONTINUOUS
 10
480.9349659575
 20
171.3573161518
  0
VERTEX
  8
0
 62
7
  6
CONTINUOUS
 10
480.9137048193
 20
171.6363822725
  0
SEQEND
  0
LINE
  8
0
 62
7
  6
CONTINUOUS
 10
480.9563376628
 20
121.2586031289
 11
480.9137048193
 21
122.0932847066
  0
LINE
  8
0
 62
7
  6
CONTINUOUS
 10
481.3452080434
 20
75.1073313912
 11
481.3352323928
 21
75.3026820217
  0
LINE
  8
0
 62
7
  6
CONTINUOUS
 10
480.9777996104
 20
83.3336049535
 11
480.9137048193
 21
84.7710169762
  0
LINE
  8
0
 62
7
  6
CONTINUOUS
 10
481.3352323928
 20
75.3026820217
 11
480.9777996104
 21
83.3336049535
  0
LINE
  8
0
 62
7
  6
CONTINUOUS
 10
480.9137048193
 20
91.3672246331
 11
481.3263312244
 21
82.030698128
  0
POLYLINE
  8
0
 62
7
  6
CONTINUOUS
 66
1
 70
0
  0
VERTEX
  8
0
 62
7
  6
CONTINUOUS
 10
481.3263312244
 20
82.030698128
  0
VERTEX
  8
0
 62
7
  6
CONTINUOUS
 10
481.3424065262
 20
81.5825317569
  0
VERTEX
  8
0
 62
7
  6
CONTINUOUS
 10
481.3452080434
 20
81.4895472988
  0
VERTEX
  8
0
 62
7
  6
CONTINUOUS
 10
481.3490329168
 20
81.336708063
  0
VERTEX
  8
0
 62
7
  6
CONTINUOUS
 10
481.3503140931
 20
81.2354118536
  0
VERTEX
  8
0
 62
7
  6
CONTINUOUS
 10
481.3489762633
 20
81.1917500624
  0
VERTEX
  8
0
 62
7
  6
CONTINUOUS
 10
481.3483195809
 20
81.1902103828
  0
SEQEND
  0
LINE
  8
0
 62
7
  6
CONTINUOUS
 10
473.1137048193
 20
354.9194780986
 11
473.1137048193
 21
106.9194780986
  0
LINE
  8
0
 62
9
  6
CONTINUOUS
 10
475.1137048193
 20
356.9194780986
 11
475.1137048193
 21
104.9194780986
  0
POLYLINE
  8
0
 62
7
  6
CONTINUOUS
 66
1
 70
0
  0
VERTEX
  8
0
 62
7
  6
CONTINUOUS
 10
481.3489762633
 20
379.5574970727
  0
VERTEX
  8
0
 62
7
  6
CONTINUOUS
 10
481.3313571213
 20
378.8574249305
  0
VERTEX
  8
0
 62
7
  6
CONTINUOUS
 10
481.2928971142
 20
377.4751959786
  0
VERTEX
  8
0
 62
7
  6
CONTINUOUS
 10
481.2462034887
 20
375.9413833904
  0
VERTEX
  8
0
 62
7
  6
CONTINUOUS
 10
481.1918626692
 20
374.2806470759
  0
VERTEX
  8
0
 62
7
  6
CONTINUOUS
 10
481.1620397688
 20
373.4110169224
  0
VERTEX
  8
0
 62
7
  6
CONTINUOUS
 10
481.0975797086
 20
371.6108468802
  0
VERTEX
  8
0
 62
7
  6
CONTINUOUS
 10
481.0274322259
 20
369.7538787495
  0
VERTEX
  8
0
 62
7
  6
CONTINUOUS
 10
480.9525736725
 20
367.8703761325
  0
VERTEX
  8
0
 62
7
  6
CONTINUOUS
 10
480.9137048193
 20
366.9281326231
  0
SEQEND
  0
LINE
  8
0
 62
7
  6
CONTINUOUS
 10
481.0274322259
 20
380.3126283996
 11
480.9137048193
 21
377.7479002829
  0
LINE
  8
0
 62
7
  6
CONTINUOUS
 10
481.3162363169
 20
379.2329620199
 11
480.9137048193
 21
370.7872920416
  0
POLYLINE
  8
0
 62
7
  6
CONTINUOUS
 66
1
 70
0
  0
VERTEX
  8
0
 62
7
  6
CONTINUOUS
 10
481.3162363169
 20
379.2329620199
  0
VERTEX
  8
0
 62
7
  6
CONTINUOUS
 10
481.3263312244
 20
379.426428243
  0
VERTEX
  8
0
 62
7
  6
CONTINUOUS
 10
481.3352323928
 20
379.5769926002
  0
VERTEX
  8
0
 62
7
  6
CONTINUOUS
 10
481.3424065262
 20
379.6755523075
  0
VERTEX
  8
0
 62
7
  6
CONTINUOUS
 10
481.3452080434
 20
379.7033494843
  0
VERTEX
  8
0
 62
7
  6
CONTINUOUS
 10
481.3480585598
 20
379.7171208985
  0
SEQEND
  0
POLYLINE
  8
0
 62
7
  6
CONTINUOUS
 66
1
 70
0
  0
VERTEX
  8
0
 62
7
  6
CONTINUOUS
 10
481.3473438112
 20
387.0783167363
  0
VERTEX
  8
0
 62
7
  6
CONTINUOUS
 10
481.3313571213
 20
386.7916811407
  0
VERTEX
  8
0
 62
7
  6
CONTINUOUS
 10
481.2928971142
 20
386.0499691367
  0
VERTEX
  8
0
 62
7
  6
CONTINUOUS
 10
481.2462034887
 20
385.094115797
  0
VERTEX
  8
0
 62
7
  6
CONTINUOUS
 10
481.1918626692
 20
383.9394649568
  0
VERTEX
  8
0
 62
7
  6
CONTINUOUS
 10
481.0274322259
 20
380.3126283996
  0
SEQEND
  0
LINE
  8
0
 62
7
  6
CONTINUOUS
 10
480.9563376628
 20
341.0462905927
 11
480.9137048193
 21
340.4289710421
  0
LINE
  8
0
 62
7
  6
CONTINUOUS
 10
481.3109357401
 20
293.9010228011
 11
480.9777996104
 21
291.5303879034
  0
POLYLINE
  8
0
 62
7
  6
CONTINUOUS
 66
1
 70
0
  0
VERTEX
  8
0
 62
7
  6
CONTINUOUS
 10
480.9777996104
 20
291.5303879034
  0
VERTEX
  8
0
 62
7
  6
CONTINUOUS
 10
480.9563376628
 20
291.3844379547
  0
VERTEX
  8
0
 62
7
  6
CONTINUOUS
 10
480.9349659575
 20
291.2527570499
  0
VERTEX
  8
0
 62
7
  6
CONTINUOUS
 10
480.9137048193
 20
291.1354638501
  0
SEQEND
  0
POLYLINE
  8
0
 62
7
  6
CONTINUOUS
 66
1
 70
0
  0
VERTEX
  8
0
 62
7
  6
CONTINUOUS
 10
514.8793510786
 20
379.7171208985
  0
VERTEX
  8
0
 62
7
  6
CONTINUOUS
 10
514.8783769075
 20
379.7139086553
  0
VERTEX
  8
0
 62
7
  6
CONTINUOUS
 10
514.8770955442
 20
379.6642938962
  0
VERTEX
  8
0
 62
7
  6
CONTINUOUS
 10
514.8784333373
 20
379.5574989958
  0
VERTEX
  8
0
 62
7
  6
CONTINUOUS
 10
514.8960525172
 20
378.8574249305
  0
SEQEND
  0
POLYLINE
  8
0
 62
7
  6
CONTINUOUS
 66
1
 70
0
  0
VERTEX
  8
0
 62
7
  6
CONTINUOUS
 10
514.8885297974
 20
346.7622203129
  0
VERTEX
  8
0
 62
7
  6
CONTINUOUS
 10
514.8850038221
 20
346.7538459738
  0
VERTEX
  8
0
 62
7
  6
CONTINUOUS
 10
514.8822021027
 20
346.7304605117
  0
VERTEX
  8
0
 62
7
  6
CONTINUOUS
 10
514.8783769075
 20
346.6402563122
  0
VERTEX
  8
0
 62
7
  6
CONTINUOUS
 10
514.8770955442
 20
346.4970560619
  0
VERTEX
  8
0
 62
7
  6
CONTINUOUS
 10
514.8784333373
 20
346.3094924006
  0
VERTEX
  8
0
 62
7
  6
CONTINUOUS
 10
514.8960525172
 20
345.343353739
  0
SEQEND
  0
POLYLINE
  8
0
 62
7
  6
CONTINUOUS
 66
1
 70
0
  0
VERTEX
  8
0
 62
7
  6
CONTINUOUS
 10
489.4800658274
 20
113.1204826433
  0
VERTEX
  8
0
 62
7
  6
CONTINUOUS
 10
489.4960525172
 20
112.8245265031
  0
VERTEX
  8
0
 62
7
  6
CONTINUOUS
 10
489.5345125243
 20
112.4062893996
  0
VERTEX
  8
0
 62
7
  6
CONTINUOUS
 10
489.5812061499
 20
112.2249456584
  0
VERTEX
  8
0
 62
7
  6
CONTINUOUS
 10
489.594433748
 20
112.2170498992
  0
SEQEND
  0
POLYLINE
  8
0
 62
7
  6
CONTINUOUS
 66
1
 70
0
  0
VERTEX
  8
0
 62
7
  6
CONTINUOUS
 10
489.4800658274
 20
165.4169826885
  0
VERTEX
  8
0
 62
7
  6
CONTINUOUS
 10
489.4960525172
 20
164.7825830769
  0
VERTEX
  8
0
 62
7
  6
CONTINUOUS
 10
489.5345125243
 20
163.6531137606
  0
VERTEX
  8
0
 62
7
  6
CONTINUOUS
 10
489.5812061499
 20
162.7244942294
  0
VERTEX
  8
0
 62
7
  6
CONTINUOUS
 10
489.6355469693
 20
162.0117128751
  0
VERTEX
  8
0
 62
7
  6
CONTINUOUS
 10
489.6653698698
 20
161.7400424451
  0
VERTEX
  8
0
 62
7
  6
CONTINUOUS
 10
489.72982993
 20
161.3717059309
  0
VERTEX
  8
0
 62
7
  6
CONTINUOUS
 10
489.7999774126
 20
161.2413667408
  0
VERTEX
  8
0
 62
7
  6
CONTINUOUS
 10
489.8030851275
 20
161.2411472325
  0
SEQEND
  0
LINE
  8
0
 62
7
  6
CONTINUOUS
 10
480.9137048193
 20
84.7710169762
 11
480.9137048193
 21
377.7479002829
  0
POLYLINE
  8
0
 62
7
  6
CONTINUOUS
 66
1
 70
0
  0
VERTEX
  8
0
 62
7
  6
CONTINUOUS
 10
481.3489762633
 20
293.1095005444
  0
VERTEX
  8
0
 62
7
  6
CONTINUOUS
 10
481.3503140931
 20
293.3453952316
  0
VERTEX
  8
0
 62
7
  6
CONTINUOUS
 10
481.3490329168
 20
293.5574160327
  0
VERTEX
  8
0
 62
7
  6
CONTINUOUS
 10
481.3452080434
 20
293.7327892212
  0
VERTEX
  8
0
 62
7
  6
CONTINUOUS
 10
481.3424065262
 20
293.8033184116
  0
VERTEX
  8
0
 62
7
  6
CONTINUOUS
 10
481.3352323928
 20
293.9047157658
  0
VERTEX
  8
0
 62
7
  6
CONTINUOUS
 10
481.3263312244
 20
293.9484278414
  0
VERTEX
  8
0
 62
7
  6
CONTINUOUS
 10
481.3241430836
 20
293.9499662848
  0
SEQEND
  0
POLYLINE
  8
0
 62
7
  6
CONTINUOUS
 66
1
 70
0
  0
VERTEX
  8
0
 62
7
  6
CONTINUOUS
 10
481.3489762633
 20
346.3094894309
  0
VERTEX
  8
0
 62
7
  6
CONTINUOUS
 10
481.3503140931
 20
346.4970488424
  0
VERTEX
  8
0
 62
7
  6
CONTINUOUS
 10
481.3490329168
 20
346.6402478211
  0
VERTEX
  8
0
 62
7
  6
CONTINUOUS
 10
481.3452080434
 20
346.7304543003
  0
VERTEX
  8
0
 62
7
  6
CONTINUOUS
 10
481.3424065262
 20
346.7538423064
  0
VERTEX
  8
0
 62
7
  6
CONTINUOUS
 10
481.3388798427
 20
346.7622203129
  0
SEQEND
  0
POLYLINE
  8
0
 62
7
  6
CONTINUOUS
 66
1
 70
0
  0
VERTEX
  8
0
 62
7
  6
CONTINUOUS
 10
481.3473438112
 20
229.0394592616
  0
VERTEX
  8
0
 62
7
  6
CONTINUOUS
 10
481.3489762633
 20
229.1562917984
  0
VERTEX
  8
0
 62
7
  6
CONTINUOUS
 10
481.3503140931
 20
229.3997334269
  0
VERTEX
  8
0
 62
7
  6
CONTINUOUS
 10
481.3490329168
 20
229.6439157277
  0
VERTEX
  8
0
 62
7
  6
CONTINUOUS
 10
481.3452080434
 20
229.8741320081
  0
VERTEX
  8
0
 62
7
  6
CONTINUOUS
 10
481.3424065262
 20
229.9796072448
  0
VERTEX
  8
0
 62
7
  6
CONTINUOUS
 10
481.3352323928
 20
230.1633163341
  0
VERTEX
  8
0
 62
7
  6
CONTINUOUS
 10
481.3263312244
 20
230.3016644621
  0
VERTEX
  8
0
 62
7
  6
CONTINUOUS
 10
481.3162363169
 20
230.3862361498
  0
VERTEX
  8
0
 62
7
  6
CONTINUOUS
 10
481.3109357401
 20
230.4065992154
  0
SEQEND
  0
POLYLINE
  8
0
 62
7
  6
CONTINUOUS
 66
1
 70
0
  0
VERTEX
  8
0
 62
7
  6
CONTINUOUS
 10
481.3489762633
 20
293.1095005444
  0
VERTEX
  8
0
 62
7
  6
CONTINUOUS
 10
481.3313571213
 20
292.0443549409
  0
VERTEX
  8
0
 62
7
  6
CONTINUOUS
 10
481.2928971142
 20
290.1675178598
  0
VERTEX
  8
0
 62
7
  6
CONTINUOUS
 10
481.2462034887
 20
288.3274943308
  0
VERTEX
  8
0
 62
7
  6
CONTINUOUS
 10
481.1918626692
 20
286.5539110824
  0
VERTEX
  8
0
 62
7
  6
CONTINUOUS
 10
481.1620397688
 20
285.7010876033
  0
VERTEX
  8
0
 62
7
  6
CONTINUOUS
 10
481.0975797086
 20
284.0806965049
  0
VERTEX
  8
0
 62
7
  6
CONTINUOUS
 10
481.0274322259
 20
282.5957044107
  0
VERTEX
  8
0
 62
7
  6
CONTINUOUS
 10
480.9525736725
 20
281.2703701207
  0
VERTEX
  8
0
 62
7
  6
CONTINUOUS
 10
480.9137048193
 20
280.6743632884
  0
SEQEND
  0
POLYLINE
  8
0
 62
7
  6
CONTINUOUS
 66
1
 70
0
  0
VERTEX
  8
0
 62
7
  6
CONTINUOUS
 10
481.3473438112
 20
165.4169826885
  0
VERTEX
  8
0
 62
7
  6
CONTINUOUS
 10
481.3489762633
 20
165.5079539817
  0
VERTEX
  8
0
 62
7
  6
CONTINUOUS
 10
481.3503140931
 20
165.7168492824
  0
VERTEX
  8
0
 62
7
  6
CONTINUOUS
 10
481.3490329168
 20
165.9509717448
  0
VERTEX
  8
0
 62
7
  6
CONTINUOUS
 10
481.3452080434
 20
166.1962246306
  0
VERTEX
  8
0
 62
7
  6
CONTINUOUS
 10
481.3424065262
 20
166.3184082872
  0
VERTEX
  8
0
 62
7
  6
CONTINUOUS
 10
481.3352323928
 20
166.5526641409
  0
VERTEX
  8
0
 62
7
  6
CONTINUOUS
 10
481.3263312244
 20
166.7617266732
  0
VERTEX
  8
0
 62
7
  6
CONTINUOUS
 10
481.3162363169
 20
166.9329028278
  0
VERTEX
  8
0
 62
7
  6
CONTINUOUS
 10
481.3109357401
 20
167.000857048
  0
SEQEND
  0
POLYLINE
  8
0
 62
7
  6
CONTINUOUS
 66
1
 70
0
  0
VERTEX
  8
0
 62
7
  6
CONTINUOUS
 10
481.3473438112
 20
229.0394592616
  0
VERTEX
  8
0
 62
7
  6
CONTINUOUS
 10
481.3313571213
 20
228.1763096348
  0
VERTEX
  8
0
 62
7
  6
CONTINUOUS
 10
481.2928971142
 20
226.5309036113
  0
VERTEX
  8
0
 62
7
  6
CONTINUOUS
 10
481.2462034887
 20
225.0155750433
  0
VERTEX
  8
0
 62
7
  6
CONTINUOUS
 10
481.1918626692
 20
223.6547425955
  0
VERTEX
  8
0
 62
7
  6
CONTINUOUS
 10
481.1620397688
 20
223.0392866815
  0
VERTEX
  8
0
 62
7
  6
CONTINUOUS
 10
481.0975797086
 20
221.9508199852
  0
VERTEX
  8
0
 62
7
  6
CONTINUOUS
 10
481.0274322259
 20
221.0667198723
  0
VERTEX
  8
0
 62
7
  6
CONTINUOUS
 10
480.9525736725
 20
220.4014682765
  0
VERTEX
  8
0
 62
7
  6
CONTINUOUS
 10
480.9137048193
 20
220.1544219225
  0
SEQEND
  0
POLYLINE
  8
0
 62
7
  6
CONTINUOUS
 66
1
 70
0
  0
VERTEX
  8
0
 62
7
  6
CONTINUOUS
 10
481.3489762633
 20
346.3094894309
  0
VERTEX
  8
0
 62
7
  6
CONTINUOUS
 10
481.3313571213
 20
345.343353739
  0
VERTEX
  8
0
 62
7
  6
CONTINUOUS
 10
481.2928971142
 20
343.5596077821
  0
VERTEX
  8
0
 62
7
  6
CONTINUOUS
 10
481.2462034887
 20
341.7130460763
  0
VERTEX
  8
0
 62
7
  6
CONTINUOUS
 10
481.1918626692
 20
339.8333806835
  0
VERTEX
  8
0
 62
7
  6
CONTINUOUS
 10
481.1620397688
 20
338.8906505663
  0
VERTEX
  8
0
 62
7
  6
CONTINUOUS
 10
481.0975797086
 20
337.0185154077
  0
VERTEX
  8
0
 62
7
  6
CONTINUOUS
 10
481.0274322259
 20
335.1893999559
  0
VERTEX
  8
0
 62
7
  6
CONTINUOUS
 10
480.9525736725
 20
333.4331453108
  0
VERTEX
  8
0
 62
7
  6
CONTINUOUS
 10
480.9137048193
 20
332.5912329961
  0
SEQEND
  0
POLYLINE
  8
0
 62
7
  6
CONTINUOUS
 66
1
 70
0
  0
VERTEX
  8
0
 62
7
  6
CONTINUOUS
 10
481.3473438112
 20
165.4169826885
  0
VERTEX
  8
0
 62
7
  6
CONTINUOUS
 10
481.3313571213
 20
164.7825830769
  0
VERTEX
  8
0
 62
7
  6
CONTINUOUS
 10
481.2928971142
 20
163.6531137606
  0
VERTEX
  8
0
 62
7
  6
CONTINUOUS
 10
481.2462034887
 20
162.7244942294
  0
VERTEX
  8
0
 62
7
  6
CONTINUOUS
 10
481.1918626692
 20
162.0117128751
  0
VERTEX
  8
0
 62
7
  6
CONTINUOUS
 10
481.1620397688
 20
161.7400424451
  0
VERTEX
  8
0
 62
7
  6
CONTINUOUS
 10
481.0975797086
 20
161.3717059309
  0
VERTEX
  8
0
 62
7
  6
CONTINUOUS
 10
481.0274322259
 20
161.2413667408
  0
VERTEX
  8
0
 62
7
  6
CONTINUOUS
 10
481.0243245111
 20
161.2411472325
  0
SEQEND
  0
POLYLINE
  8
0
 62
7
  6
CONTINUOUS
 66
1
 70
0
  0
VERTEX
  8
0
 62
7
  6
CONTINUOUS
 10
481.3473438112
 20
113.1204826433
  0
VERTEX
  8
0
 62
7
  6
CONTINUOUS
 10
481.3489762633
 20
113.1698629299
  0
VERTEX
  8
0
 62
7
  6
CONTINUOUS
 10
481.3503140931
 20
113.3080920074
  0
VERTEX
  8
0
 62
7
  6
CONTINUOUS
 10
481.3490329168
 20
113.4916727308
  0
VERTEX
  8
0
 62
7
  6
CONTINUOUS
 10
481.3452080434
 20
113.7095557701
  0
VERTEX
  8
0
 62
7
  6
CONTINUOUS
 10
481.3424065262
 20
113.8273211822
  0
VERTEX
  8
0
 62
7
  6
CONTINUOUS
 10
481.3352323928
 20
114.0716188351
  0
VERTEX
  8
0
 62
7
  6
CONTINUOUS
 10
481.3263312244
 20
114.3152469607
  0
VERTEX
  8
0
 62
7
  6
CONTINUOUS
 10
481.3162363169
 20
114.54342967
  0
VERTEX
  8
0
 62
7
  6
CONTINUOUS
 10
480.9563376628
 20
121.2586031289
  0
SEQEND
  0
POLYLINE
  8
0
 62
7
  6
CONTINUOUS
 66
1
 70
0
  0
VERTEX
  8
0
 62
7
  6
CONTINUOUS
 10
481.3473438112
 20
113.1204826433
  0
VERTEX
  8
0
 62
7
  6
CONTINUOUS
 10
481.3313571213
 20
112.8245265031
  0
VERTEX
  8
0
 62
7
  6
CONTINUOUS
 10
481.2928971142
 20
112.4062893996
  0
VERTEX
  8
0
 62
7
  6
CONTINUOUS
 10
481.2462034887
 20
112.2249456584
  0
VERTEX
  8
0
 62
7
  6
CONTINUOUS
 10
481.2329758905
 20
112.2170498992
  0
SEQEND
  0
POLYLINE
  8
0
 62
7
  6
CONTINUOUS
 66
1
 70
0
  0
VERTEX
  8
0
 62
7
  6
CONTINUOUS
 10
506.7241430836
 20
293.9499662848
  0
VERTEX
  8
0
 62
7
  6
CONTINUOUS
 10
506.7162363169
 20
293.931771849
  0
VERTEX
  8
0
 62
7
  6
CONTINUOUS
 10
506.7109357401
 20
293.9010228011
  0
SEQEND
  0
LINE
  8
0
 62
9
  6
CONTINUOUS
 10
480.9137048193
 20
212.711882082
 11
489.9137048193
 21
212.711882082
  0
LINE
  8
0
 62
9
  6
CONTINUOUS
 10
506.3137048193
 20
212.711882082
 11
515.3137048193
 21
212.711882082
  0
LINE
  8
0
 62
9
  6
CONTINUOUS
 10
480.9137048193
 20
214.433790288
 11
489.9137048193
 21
214.433790288
  0
LINE
  8
0
 62
9
  6
CONTINUOUS
 10
506.3137048193
 20
214.433790288
 11
515.3137048193
 21
214.433790288
  0
LINE
  8
0
 62
7
  6
CONTINUOUS
 10
480.9137048193
 20
219.7542065265
 11
489.9137048193
 21
219.7542065265
  0
LINE
  8
0
 62
7
  6
CONTINUOUS
 10
506.3137048193
 20
219.7542065265
 11
515.3137048193
 21
219.7542065265
  0
LINE
  8
0
 62
7
  6
CONTINUOUS
 10
481.3109357401
 20
230.4065992154
 11
480.9777996104
 21
231.2084930508
  0
POLYLINE
  8
0
 62
7
  6
CONTINUOUS
 66
1
 70
0
  0
VERTEX
  8
0
 62
7
  6
CONTINUOUS
 10
480.9777996104
 20
231.2084930508
  0
VERTEX
  8
0
 62
7
  6
CONTINUOUS
 10
480.9563376628
 20
231.2676444506
  0
VERTEX
  8
0
 62
7
  6
CONTINUOUS
 10
480.9349659575
 20
231.3415244227
  0
VERTEX
  8
0
 62
7
  6
CONTINUOUS
 10
480.9137048193
 20
231.4300656767
  0
SEQEND
  0
POLYLINE
  8
0
 62
7
  6
CONTINUOUS
 66
1
 70
0
  0
VERTEX
  8
0
 62
7
  6
CONTINUOUS
 10
506.7473438112
 20
81.1924990826
  0
VERTEX
  8
0
 62
7
  6
CONTINUOUS
 10
506.7313571213
 20
81.2861599191
  0
VERTEX
  8
0
 62
7
  6
CONTINUOUS
 10
506.6928971142
 20
81.6514720233
  0
VERTEX
  8
0
 62
7
  6
CONTINUOUS
 10
506.6462034887
 20
82.2487600523
  0
VERTEX
  8
0
 62
7
  6
CONTINUOUS
 10
506.5918626692
 20
83.0684556611
  0
VERTEX
  8
0
 62
7
  6
CONTINUOUS
 10
506.5620397688
 20
83.5577131412
  0
VERTEX
  8
0
 62
7
  6
CONTINUOUS
 10
506.4975797086
 20
84.6851737693
  0
VERTEX
  8
0
 62
7
  6
CONTINUOUS
 10
506.4274322259
 20
85.9957379809
  0
VERTEX
  8
0
 62
7
  6
CONTINUOUS
 10
506.3525736725
 20
87.4680925006
  0
VERTEX
  8
0
 62
7
  6
CONTINUOUS
 10
506.3137048193
 20
88.2576529664
  0
SEQEND
  0
POLYLINE
  8
0
 62
7
  6
CONTINUOUS
 66
1
 70
0
  0
VERTEX
  8
0
 62
7
  6
CONTINUOUS
 10
506.7500306531
 20
75.0376224263
  0
VERTEX
  8
0
 62
7
  6
CONTINUOUS
 10
506.7490329168
 20
75.0459632511
  0
VERTEX
  8
0
 62
7
  6
CONTINUOUS
 10
506.7452080434
 20
75.1073313912
  0
SEQEND
  0
POLYLINE
  8
0
 62
7
  6
CONTINUOUS
 66
1
 70
0
  0
VERTEX
  8
0
 62
7
  6
CONTINUOUS
 10
489.8496100281
 20
341.372105818
  0
VERTEX
  8
0
 62
7
  6
CONTINUOUS
 10
489.8710719758
 20
341.0462905927
  0
VERTEX
  8
0
 62
7
  6
CONTINUOUS
 10
489.9137048193
 20
340.4289710421
  0
SEQEND
  0
LINE
  8
0
 62
7
  6
CONTINUOUS
 10
489.8496100281
 20
341.372105818
 11
489.5111746999
 21
346.5818909629
  0
POLYLINE
  8
0
 62
7
  6
CONTINUOUS
 66
1
 70
0
  0
VERTEX
  8
0
 62
7
  6
CONTINUOUS
 10
489.5010800724
 20
379.4263982083
  0
VERTEX
  8
0
 62
7
  6
CONTINUOUS
 10
489.4921784151
 20
379.5769744755
  0
VERTEX
  8
0
 62
7
  6
CONTINUOUS
 10
489.4850038221
 20
379.6755442055
  0
VERTEX
  8
0
 62
7
  6
CONTINUOUS
 10
489.4822021027
 20
379.7033453754
  0
VERTEX
  8
0
 62
7
  6
CONTINUOUS
 10
489.4793510786
 20
379.7171208985
  0
SEQEND
  0
POLYLINE
  8
0
 62
7
  6
CONTINUOUS
 66
1
 70
0
  0
VERTEX
  8
0
 62
7
  6
CONTINUOUS
 10
489.4800658274
 20
387.0783167363
  0
VERTEX
  8
0
 62
7
  6
CONTINUOUS
 10
489.4960525172
 20
386.7916811407
  0
VERTEX
  8
0
 62
7
  6
CONTINUOUS
 10
489.5345125243
 20
386.0499691367
  0
VERTEX
  8
0
 62
7
  6
CONTINUOUS
 10
489.5812061499
 20
385.094115797
  0
SEQEND
  0
POLYLINE
  8
0
 62
7
  6
CONTINUOUS
 66
1
 70
0
  0
VERTEX
  8
0
 62
7
  6
CONTINUOUS
 10
506.7452080434
 20
75.1073313912
  0
VERTEX
  8
0
 62
7
  6
CONTINUOUS
 10
506.7352323928
 20
75.3026820217
  0
VERTEX
  8
0
 62
7
  6
CONTINUOUS
 10
506.7263312244
 20
75.4903719644
  0
SEQEND
  0
LINE
  8
0
 62
7
  6
CONTINUOUS
 10
489.5164738984
 20
379.1238575416
 11
489.5010800724
 21
379.4263982083
  0
LINE
  8
0
 62
7
  6
CONTINUOUS
 10
489.5164738984
 20
379.1238575416
 11
489.9137048193
 21
370.7872920416
  0
LINE
  8
0
 62
7
  6
CONTINUOUS
 10
489.5812061499
 20
385.094115797
 11
489.6653698698
 21
383.2933017208
  0
LINE
  8
0
 62
7
  6
CONTINUOUS
 10
489.6653698698
 20
383.2933017208
 11
489.7999774126
 21
380.3126283996
  0
LINE
  8
0
 62
7
  6
CONTINUOUS
 10
489.7999774126
 20
380.3126283996
 11
489.9137048193
 21
377.7479002829
  0
POLYLINE
  8
0
 62
7
  6
CONTINUOUS
 66
1
 70
0
  0
VERTEX
  8
0
 62
7
  6
CONTINUOUS
 10
489.4960525172
 20
378.8574249305
  0
VERTEX
  8
0
 62
7
  6
CONTINUOUS
 10
489.5345125243
 20
377.4751959786
  0
VERTEX
  8
0
 62
7
  6
CONTINUOUS
 10
489.5812061499
 20
375.9413833904
  0
VERTEX
  8
0
 62
7
  6
CONTINUOUS
 10
489.6355469693
 20
374.2806470759
  0
VERTEX
  8
0
 62
7
  6
CONTINUOUS
 10
489.6653698698
 20
373.4110169224
  0
VERTEX
  8
0
 62
7
  6
CONTINUOUS
 10
489.72982993
 20
371.6108468802
  0
VERTEX
  8
0
 62
7
  6
CONTINUOUS
 10
489.7999774126
 20
369.7538787495
  0
VERTEX
  8
0
 62
7
  6
CONTINUOUS
 10
489.8748359661
 20
367.8703761325
  0
VERTEX
  8
0
 62
7
  6
CONTINUOUS
 10
489.9137048193
 20
366.9281326231
  0
SEQEND
  0
POLYLINE
  8
0
 62
7
  6
CONTINUOUS
 66
1
 70
0
  0
VERTEX
  8
0
 62
7
  6
CONTINUOUS
 10
489.4960525172
 20
345.343353739
  0
VERTEX
  8
0
 62
7
  6
CONTINUOUS
 10
489.5345125243
 20
343.5596077821
  0
VERTEX
  8
0
 62
7
  6
CONTINUOUS
 10
489.5812061499
 20
341.7130460763
  0
VERTEX
  8
0
 62
7
  6
CONTINUOUS
 10
489.6355469693
 20
339.8333806835
  0
VERTEX
  8
0
 62
7
  6
CONTINUOUS
 10
489.6653698698
 20
338.8906505663
  0
VERTEX
  8
0
 62
7
  6
CONTINUOUS
 10
489.72982993
 20
337.0185154077
  0
VERTEX
  8
0
 62
7
  6
CONTINUOUS
 10
489.7999774126
 20
335.1893999559
  0
VERTEX
  8
0
 62
7
  6
CONTINUOUS
 10
489.8748359661
 20
333.4331453108
  0
VERTEX
  8
0
 62
7
  6
CONTINUOUS
 10
489.9137048193
 20
332.5912329961
  0
SEQEND
  0
POLYLINE
  8
0
 62
7
  6
CONTINUOUS
 66
1
 70
0
  0
VERTEX
  8
0
 62
7
  6
CONTINUOUS
 10
489.4960525172
 20
292.0443549409
  0
VERTEX
  8
0
 62
7
  6
CONTINUOUS
 10
489.5345125243
 20
290.1675178598
  0
VERTEX
  8
0
 62
7
  6
CONTINUOUS
 10
489.5812061499
 20
288.3274943308
  0
VERTEX
  8
0
 62
7
  6
CONTINUOUS
 10
489.6355469693
 20
286.5539110824
  0
VERTEX
  8
0
 62
7
  6
CONTINUOUS
 10
489.6653698698
 20
285.7010876033
  0
VERTEX
  8
0
 62
7
  6
CONTINUOUS
 10
489.72982993
 20
284.0806965049
  0
VERTEX
  8
0
 62
7
  6
CONTINUOUS
 10
489.7999774126
 20
282.5957044107
  0
VERTEX
  8
0
 62
7
  6
CONTINUOUS
 10
489.8748359661
 20
281.2703701207
  0
VERTEX
  8
0
 62
7
  6
CONTINUOUS
 10
489.9137048193
 20
280.6743632884
  0
SEQEND
  0
POLYLINE
  8
0
 62
7
  6
CONTINUOUS
 66
1
 70
0
  0
VERTEX
  8
0
 62
7
  6
CONTINUOUS
 10
489.4800658274
 20
229.0394592616
  0
VERTEX
  8
0
 62
7
  6
CONTINUOUS
 10
489.4960525172
 20
228.1763096348
  0
VERTEX
  8
0
 62
7
  6
CONTINUOUS
 10
489.5345125243
 20
226.5309036113
  0
VERTEX
  8
0
 62
7
  6
CONTINUOUS
 10
489.5812061499
 20
225.0155750433
  0
VERTEX
  8
0
 62
7
  6
CONTINUOUS
 10
489.6355469693
 20
223.6547425955
  0
VERTEX
  8
0
 62
7
  6
CONTINUOUS
 10
489.6653698698
 20
223.0392866815
  0
VERTEX
  8
0
 62
7
  6
CONTINUOUS
 10
489.72982993
 20
221.9508199852
  0
VERTEX
  8
0
 62
7
  6
CONTINUOUS
 10
489.7999774126
 20
221.0667198723
  0
VERTEX
  8
0
 62
7
  6
CONTINUOUS
 10
489.8748359661
 20
220.4014682765
  0
VERTEX
  8
0
 62
7
  6
CONTINUOUS
 10
489.9137048193
 20
220.1544219225
  0
SEQEND
  0
LINE
  8
0
 62
7
  6
CONTINUOUS
 10
489.9137048193
 20
84.7710169762
 11
489.9137048193
 21
377.7479002829
  0
POLYLINE
  8
0
 62
7
  6
CONTINUOUS
 66
1
 70
0
  0
VERTEX
  8
0
 62
7
  6
CONTINUOUS
 10
489.4822021027
 20
81.489565024
  0
VERTEX
  8
0
 62
7
  6
CONTINUOUS
 10
489.4783769075
 20
81.336717308
  0
VERTEX
  8
0
 62
7
  6
CONTINUOUS
 10
489.4770955442
 20
81.2354150177
  0
VERTEX
  8
0
 62
7
  6
CONTINUOUS
 10
489.4784333373
 20
81.1917502592
  0
VERTEX
  8
0
 62
7
  6
CONTINUOUS
 10
489.4790900575
 20
81.1902103828
  0
SEQEND
  0
LINE
  8
0
 62
7
  6
CONTINUOUS
 10
489.4921784151
 20
81.7946625319
 11
489.4822021027
 21
81.489565024
  0
LINE
  8
0
 62
7
  6
CONTINUOUS
 10
489.5111746999
 20
82.2764647866
 11
489.4921784151
 21
81.7946625319
  0
LINE
  8
0
 62
7
  6
CONTINUOUS
 10
489.8496100281
 20
89.9020162916
 11
489.9137048193
 21
91.3672246331
  0
POLYLINE
  8
0
 62
7
  6
CONTINUOUS
 66
1
 70
0
  0
VERTEX
  8
0
 62
7
  6
CONTINUOUS
 10
489.5111746999
 20
114.5434580034
  0
VERTEX
  8
0
 62
7
  6
CONTINUOUS
 10
489.5010800724
 20
114.3152881504
  0
VERTEX
  8
0
 62
7
  6
CONTINUOUS
 10
489.4921784151
 20
114.0716543345
  0
VERTEX
  8
0
 62
7
  6
CONTINUOUS
 10
489.4850038221
 20
113.8273488014
  0
VERTEX
  8
0
 62
7
  6
CONTINUOUS
 10
489.4822021027
 20
113.7095790424
  0
VERTEX
  8
0
 62
7
  6
CONTINUOUS
 10
489.4783769075
 20
113.4916873355
  0
VERTEX
  8
0
 62
7
  6
CONTINUOUS
 10
489.4770955442
 20
113.3080990318
  0
VERTEX
  8
0
 62
7
  6
CONTINUOUS
 10
489.4784333373
 20
113.1698645507
  0
VERTEX
  8
0
 62
7
  6
CONTINUOUS
 10
489.4800658274
 20
113.1204826433
  0
SEQEND
  0
LINE
  8
0
 62
7
  6
CONTINUOUS
 10
489.5111746999
 20
82.2764647866
 11
489.8496100281
 21
89.9020162916
  0
POLYLINE
  8
0
 62
7
  6
CONTINUOUS
 66
1
 70
0
  0
VERTEX
  8
0
 62
7
  6
CONTINUOUS
 10
489.5164738984
 20
75.8297107355
  0
VERTEX
  8
0
 62
7
  6
CONTINUOUS
 10
489.8924436811
 20
84.2956980347
  0
VERTEX
  8
0
 62
7
  6
CONTINUOUS
 10
489.9137048193
 20
84.7710169762
  0
SEQEND
  0
LINE
  8
0
 62
7
  6
CONTINUOUS
 10
489.5164738984
 20
75.8297107355
 11
489.4921784151
 21
75.3027060972
  0
LINE
  8
0
 62
7
  6
CONTINUOUS
 10
506.3349659575
 20
371.223327102
 11
506.3137048193
 21
370.7872920416
  0
LINE
  8
0
 62
7
  6
CONTINUOUS
 10
489.8710719758
 20
121.2586031289
 11
489.9137048193
 21
122.0932847066
  0
LINE
  8
0
 62
7
  6
CONTINUOUS
 10
489.8710719758
 20
121.2586031289
 11
489.5111746999
 21
114.5434580034
  0
POLYLINE
  8
0
 62
7
  6
CONTINUOUS
 66
1
 70
0
  0
VERTEX
  8
0
 62
7
  6
CONTINUOUS
 10
489.4921784151
 20
75.3027060972
  0
VERTEX
  8
0
 62
7
  6
CONTINUOUS
 10
489.4822021027
 20
75.1073405042
  0
VERTEX
  8
0
 62
7
  6
CONTINUOUS
 10
489.4783769075
 20
75.0459655379
  0
VERTEX
  8
0
 62
7
  6
CONTINUOUS
 10
489.4773789856
 20
75.0376224263
  0
SEQEND
  0
POLYLINE
  8
0
 62
7
  6
CONTINUOUS
 66
1
 70
0
  0
VERTEX
  8
0
 62
7
  6
CONTINUOUS
 10
506.7473438112
 20
387.0783167363
  0
VERTEX
  8
0
 62
7
  6
CONTINUOUS
 10
506.7313571213
 20
386.7916811407
  0
VERTEX
  8
0
 62
7
  6
CONTINUOUS
 10
506.6928971142
 20
386.0499691367
  0
VERTEX
  8
0
 62
7
  6
CONTINUOUS
 10
506.6462034887
 20
385.094115797
  0
VERTEX
  8
0
 62
7
  6
CONTINUOUS
 10
506.5918626692
 20
383.9394649568
  0
VERTEX
  8
0
 62
7
  6
CONTINUOUS
 10
506.4274322259
 20
380.3126283996
  0
SEQEND
  0
LINE
  8
0
 62
7
  6
CONTINUOUS
 10
506.3563376628
 20
341.0462905927
 11
506.3137048193
 21
340.4289710421
  0
POLYLINE
  8
0
 62
7
  6
CONTINUOUS
 66
1
 70
0
  0
VERTEX
  8
0
 62
7
  6
CONTINUOUS
 10
489.5164738984
 20
167.000857048
  0
VERTEX
  8
0
 62
7
  6
CONTINUOUS
 10
489.5111746999
 20
166.9329223376
  0
VERTEX
  8
0
 62
7
  6
CONTINUOUS
 10
489.5010800724
 20
166.7617598684
  0
VERTEX
  8
0
 62
7
  6
CONTINUOUS
 10
489.4921784151
 20
166.552696395
  0
VERTEX
  8
0
 62
7
  6
CONTINUOUS
 10
489.4850038221
 20
166.3184361992
  0
VERTEX
  8
0
 62
7
  6
CONTINUOUS
 10
489.4822021027
 20
166.1962494262
  0
VERTEX
  8
0
 62
7
  6
CONTINUOUS
 10
489.4783769075
 20
165.9509891839
  0
VERTEX
  8
0
 62
7
  6
CONTINUOUS
 10
489.4770955442
 20
165.7168589523
  0
VERTEX
  8
0
 62
7
  6
CONTINUOUS
 10
489.4784333373
 20
165.5079567462
  0
VERTEX
  8
0
 62
7
  6
CONTINUOUS
 10
489.4800658274
 20
165.4169826885
  0
SEQEND
  0
POLYLINE
  8
0
 62
7
  6
CONTINUOUS
 66
1
 70
0
  0
VERTEX
  8
0
 62
7
  6
CONTINUOUS
 10
489.8710719758
 20
171.0906498212
  0
VERTEX
  8
0
 62
7
  6
CONTINUOUS
 10
489.8924436811
 20
171.3573161518
  0
VERTEX
  8
0
 62
7
  6
CONTINUOUS
 10
489.9137048193
 20
171.6363822725
  0
SEQEND
  0
LINE
  8
0
 62
7
  6
CONTINUOUS
 10
489.8710719758
 20
171.0906498212
 11
489.5164738984
 21
167.000857048
  0
POLYLINE
  8
0
 62
7
  6
CONTINUOUS
 66
1
 70
0
  0
VERTEX
  8
0
 62
7
  6
CONTINUOUS
 10
506.7501181753
 20
387.1164663446
  0
VERTEX
  8
0
 62
7
  6
CONTINUOUS
 10
506.7489762633
 20
387.1046408999
  0
VERTEX
  8
0
 62
7
  6
CONTINUOUS
 10
506.7473438112
 20
387.0783167363
  0
SEQEND
  0
LINE
  8
0
 62
7
  6
CONTINUOUS
 10
506.3777996104
 20
291.5303879034
 11
506.7109357401
 21
293.9010228011
  0
POLYLINE
  8
0
 62
7
  6
CONTINUOUS
 66
1
 70
0
  0
VERTEX
  8
0
 62
7
  6
CONTINUOUS
 10
506.3777996104
 20
291.5303879034
  0
VERTEX
  8
0
 62
7
  6
CONTINUOUS
 10
506.3563376628
 20
291.3844379547
  0
VERTEX
  8
0
 62
7
  6
CONTINUOUS
 10
506.3349659575
 20
291.2527570499
  0
VERTEX
  8
0
 62
7
  6
CONTINUOUS
 10
506.3137048193
 20
291.1354638501
  0
SEQEND
  0
POLYLINE
  8
0
 62
7
  6
CONTINUOUS
 66
1
 70
0
  0
VERTEX
  8
0
 62
7
  6
CONTINUOUS
 10
489.5164738984
 20
230.4065992154
  0
VERTEX
  8
0
 62
7
  6
CONTINUOUS
 10
489.5111746999
 20
230.3862434624
  0
VERTEX
  8
0
 62
7
  6
CONTINUOUS
 10
489.5010800724
 20
230.301683923
  0
VERTEX
  8
0
 62
7
  6
CONTINUOUS
 10
489.4921784151
 20
230.163339766
  0
VERTEX
  8
0
 62
7
  6
CONTINUOUS
 10
489.4850038221
 20
229.9796306234
  0
VERTEX
  8
0
 62
7
  6
CONTINUOUS
 10
489.4822021027
 20
229.8741540395
  0
VERTEX
  8
0
 62
7
  6
CONTINUOUS
 10
489.4783769075
 20
229.6439329858
  0
VERTEX
  8
0
 62
7
  6
CONTINUOUS
 10
489.4770955442
 20
229.3997440705
  0
VERTEX
  8
0
 62
7
  6
CONTINUOUS
 10
489.4784333373
 20
229.1562952285
  0
VERTEX
  8
0
 62
7
  6
CONTINUOUS
 10
489.4800658274
 20
229.0394592616
  0
SEQEND
  0
POLYLINE
  8
0
 62
7
  6
CONTINUOUS
 66
1
 70
0
  0
VERTEX
  8
0
 62
7
  6
CONTINUOUS
 10
489.8496100281
 20
231.2084930508
  0
VERTEX
  8
0
 62
7
  6
CONTINUOUS
 10
489.8710719758
 20
231.2676444506
  0
VERTEX
  8
0
 62
7
  6
CONTINUOUS
 10
489.8924436811
 20
231.3415244227
  0
VERTEX
  8
0
 62
7
  6
CONTINUOUS
 10
489.9137048193
 20
231.4300656767
  0
SEQEND
  0
LINE
  8
0
 62
7
  6
CONTINUOUS
 10
489.8496100281
 20
231.2084930508
 11
489.5164738984
 21
230.4065992154
  0
LINE
  8
0
 62
9
  6
CONTINUOUS
 10
514.8800658274
 20
229.0394592616
 11
506.7473438112
 21
229.0394592616
  0
LINE
  8
0
 62
9
  6
CONTINUOUS
 10
489.4800658274
 20
229.0394592616
 11
481.3473438112
 21
229.0394592616
  0
LINE
  8
0
 62
9
  6
CONTINUOUS
 10
514.9164738984
 20
230.4065992154
 11
506.7109357401
 21
230.4065992154
  0
LINE
  8
0
 62
9
  6
CONTINUOUS
 10
489.5164738984
 20
230.4065992154
 11
481.3109357401
 21
230.4065992154
  0
LINE
  8
DEFAULT_1
 62
2
  6
CENTER
 10
468.1137048193
 20
230.9194780986
 11
528.1137048193
 21
230.9194780986
  0
LINE
  8
0
 62
9
  6
CONTINUOUS
 10
515.2496100281
 20
231.2084930508
 11
506.3777996104
 21
231.2084930508
  0
LINE
  8
0
 62
9
  6
CONTINUOUS
 10
489.8496100281
 20
231.2084930508
 11
480.9777996104
 21
231.2084930508
  0
POLYLINE
  8
0
 62
7
  6
CONTINUOUS
 66
1
 70
0
  0
VERTEX
  8
0
 62
7
  6
CONTINUOUS
 10
489.8496100281
 20
291.5303879034
  0
VERTEX
  8
0
 62
7
  6
CONTINUOUS
 10
489.8710719758
 20
291.3844379547
  0
VERTEX
  8
0
 62
7
  6
CONTINUOUS
 10
489.8924436811
 20
291.2527570499
  0
VERTEX
  8
0
 62
7
  6
CONTINUOUS
 10
489.9137048193
 20
291.1354638501
  0
SEQEND
  0
LINE
  8
0
 62
7
  6
CONTINUOUS
 10
489.8496100281
 20
291.5303879034
 11
489.5164738984
 21
293.9010228011
  0
POLYLINE
  8
0
 62
7
  6
CONTINUOUS
 66
1
 70
0
  0
VERTEX
  8
0
 62
7
  6
CONTINUOUS
 10
489.4772914633
 20
387.1164663446
  0
VERTEX
  8
0
 62
7
  6
CONTINUOUS
 10
489.4784333373
 20
387.1046414439
  0
VERTEX
  8
0
 62
7
  6
CONTINUOUS
 10
489.4800658274
 20
387.0783167363
  0
SEQEND
  0
POLYLINE
  8
0
 62
7
  6
CONTINUOUS
 66
1
 70
0
  0
VERTEX
  8
0
 62
7
  6
CONTINUOUS
 10
489.5111746999
 20
346.5818909629
  0
VERTEX
  8
0
 62
7
  6
CONTINUOUS
 10
489.5010800724
 20
346.6968980641
  0
VERTEX
  8
0
 62
7
  6
CONTINUOUS
 10
489.4921784151
 20
346.7553912607
  0
VERTEX
  8
0
 62
7
  6
CONTINUOUS
 10
489.4885297974
 20
346.7622203129
  0
SEQEND
  0
POLYLINE
  8
0
 62
7
  6
CONTINUOUS
 66
1
 70
0
  0
VERTEX
  8
0
 62
7
  6
CONTINUOUS
 10
506.7109357401
 20
167.000857048
  0
VERTEX
  8
0
 62
7
  6
CONTINUOUS
 10
506.3563376628
 20
171.0906498212
  0
VERTEX
  8
0
 62
7
  6
CONTINUOUS
 10
506.3349659575
 20
171.3573161518
  0
VERTEX
  8
0
 62
7
  6
CONTINUOUS
 10
506.3137048193
 20
171.6363822725
  0
SEQEND
  0
POLYLINE
  8
0
 62
7
  6
CONTINUOUS
 66
1
 70
0
  0
VERTEX
  8
0
 62
7
  6
CONTINUOUS
 10
514.8800658274
 20
113.1204826433
  0
VERTEX
  8
0
 62
7
  6
CONTINUOUS
 10
514.8960525172
 20
112.8245265031
  0
VERTEX
  8
0
 62
7
  6
CONTINUOUS
 10
514.9345125243
 20
112.4062893996
  0
VERTEX
  8
0
 62
7
  6
CONTINUOUS
 10
514.9812061499
 20
112.2249456584
  0
VERTEX
  8
0
 62
7
  6
CONTINUOUS
 10
514.994433748
 20
112.2170498992
  0
SEQEND
  0
LINE
  8
0
 62
7
  6
CONTINUOUS
 10
506.3563376628
 20
121.2586031289
 11
506.3137048193
 21
122.0932847066
  0
LINE
  8
0
 62
7
  6
CONTINUOUS
 10
506.3777996104
 20
83.3336049535
 11
506.3137048193
 21
84.7710169762
  0
LINE
  8
0
 62
7
  6
CONTINUOUS
 10
506.3777996104
 20
83.3336049535
 11
506.7263312244
 21
75.4903719644
  0
LINE
  8
0
 62
7
  6
CONTINUOUS
 10
506.3137048193
 20
91.3672246331
 11
506.7263312244
 21
82.030698128
  0
POLYLINE
  8
0
 62
7
  6
CONTINUOUS
 66
1
 70
0
  0
VERTEX
  8
0
 62
7
  6
CONTINUOUS
 10
506.7263312244
 20
82.030698128
  0
VERTEX
  8
0
 62
7
  6
CONTINUOUS
 10
506.7424065262
 20
81.5825317569
  0
VERTEX
  8
0
 62
7
  6
CONTINUOUS
 10
506.7452080434
 20
81.4895472988
  0
VERTEX
  8
0
 62
7
  6
CONTINUOUS
 10
506.7490329168
 20
81.336708063
  0
VERTEX
  8
0
 62
7
  6
CONTINUOUS
 10
506.7503140931
 20
81.2354118536
  0
VERTEX
  8
0
 62
7
  6
CONTINUOUS
 10
506.7489762633
 20
81.1917500624
  0
VERTEX
  8
0
 62
7
  6
CONTINUOUS
 10
506.7483195809
 20
81.1902103828
  0
SEQEND
  0
LINE
  8
0
 62
7
  6
CONTINUOUS
 10
506.3137048193
 20
84.7710169762
 11
506.3137048193
 21
377.7479002829
  0
POLYLINE
  8
0
 62
7
  6
CONTINUOUS
 66
1
 70
0
  0
VERTEX
  8
0
 62
7
  6
CONTINUOUS
 10
506.7489762633
 20
293.1095005444
  0
VERTEX
  8
0
 62
7
  6
CONTINUOUS
 10
506.7503140931
 20
293.3453952316
  0
VERTEX
  8
0
 62
7
  6
CONTINUOUS
 10
506.7490329168
 20
293.5574160327
  0
VERTEX
  8
0
 62
7
  6
CONTINUOUS
 10
506.7452080434
 20
293.7327892212
  0
VERTEX
  8
0
 62
7
  6
CONTINUOUS
 10
506.7424065262
 20
293.8033184116
  0
VERTEX
  8
0
 62
7
  6
CONTINUOUS
 10
506.7352323928
 20
293.9047157658
  0
VERTEX
  8
0
 62
7
  6
CONTINUOUS
 10
506.7263312244
 20
293.9484278414
  0
VERTEX
  8
0
 62
7
  6
CONTINUOUS
 10
506.7241430836
 20
293.9499662848
  0
SEQEND
  0
POLYLINE
  8
0
 62
7
  6
CONTINUOUS
 66
1
 70
0
  0
VERTEX
  8
0
 62
7
  6
CONTINUOUS
 10
506.7489762633
 20
346.3094894309
  0
VERTEX
  8
0
 62
7
  6
CONTINUOUS
 10
506.7503140931
 20
346.4970488424
  0
VERTEX
  8
0
 62
7
  6
CONTINUOUS
 10
506.7490329168
 20
346.6402478211
  0
VERTEX
  8
0
 62
7
  6
CONTINUOUS
 10
506.7452080434
 20
346.7304543003
  0
VERTEX
  8
0
 62
7
  6
CONTINUOUS
 10
506.7424065262
 20
346.7538423064
  0
VERTEX
  8
0
 62
7
  6
CONTINUOUS
 10
506.7388798427
 20
346.7622203129
  0
SEQEND
  0
POLYLINE
  8
0
 62
7
  6
CONTINUOUS
 66
1
 70
0
  0
VERTEX
  8
0
 62
7
  6
CONTINUOUS
 10
506.7473438112
 20
229.0394592616
  0
VERTEX
  8
0
 62
7
  6
CONTINUOUS
 10
506.7489762633
 20
229.1562917984
  0
VERTEX
  8
0
 62
7
  6
CONTINUOUS
 10
506.7503140931
 20
229.3997334269
  0
VERTEX
  8
0
 62
7
  6
CONTINUOUS
 10
506.7490329168
 20
229.6439157277
  0
VERTEX
  8
0
 62
7
  6
CONTINUOUS
 10
506.7452080434
 20
229.8741320081
  0
VERTEX
  8
0
 62
7
  6
CONTINUOUS
 10
506.7424065262
 20
229.9796072448
  0
VERTEX
  8
0
 62
7
  6
CONTINUOUS
 10
506.7352323928
 20
230.1633163341
  0
VERTEX
  8
0
 62
7
  6
CONTINUOUS
 10
506.7263312244
 20
230.3016644621
  0
VERTEX
  8
0
 62
7
  6
CONTINUOUS
 10
506.7162363169
 20
230.3862361498
  0
VERTEX
  8
0
 62
7
  6
CONTINUOUS
 10
506.7109357401
 20
230.4065992154
  0
SEQEND
  0
POLYLINE
  8
0
 62
7
  6
CONTINUOUS
 66
1
 70
0
  0
VERTEX
  8
0
 62
7
  6
CONTINUOUS
 10
506.7489762633
 20
293.1095005444
  0
VERTEX
  8
0
 62
7
  6
CONTINUOUS
 10
506.7313571213
 20
292.0443549409
  0
VERTEX
  8
0
 62
7
  6
CONTINUOUS
 10
506.6928971142
 20
290.1675178598
  0
VERTEX
  8
0
 62
7
  6
CONTINUOUS
 10
506.6462034887
 20
288.3274943308
  0
VERTEX
  8
0
 62
7
  6
CONTINUOUS
 10
506.5918626692
 20
286.5539110824
  0
VERTEX
  8
0
 62
7
  6
CONTINUOUS
 10
506.5620397688
 20
285.7010876033
  0
VERTEX
  8
0
 62
7
  6
CONTINUOUS
 10
506.4975797086
 20
284.0806965049
  0
VERTEX
  8
0
 62
7
  6
CONTINUOUS
 10
506.4274322259
 20
282.5957044107
  0
VERTEX
  8
0
 62
7
  6
CONTINUOUS
 10
506.3525736725
 20
281.2703701207
  0
VERTEX
  8
0
 62
7
  6
CONTINUOUS
 10
506.3137048193
 20
280.6743632884
  0
SEQEND
  0
POLYLINE
  8
0
 62
7
  6
CONTINUOUS
 66
1
 70
0
  0
VERTEX
  8
0
 62
7
  6
CONTINUOUS
 10
506.7473438112
 20
165.4169826885
  0
VERTEX
  8
0
 62
7
  6
CONTINUOUS
 10
506.7489762633
 20
165.5079539817
  0
VERTEX
  8
0
 62
7
  6
CONTINUOUS
 10
506.7503140931
 20
165.7168492824
  0
VERTEX
  8
0
 62
7
  6
CONTINUOUS
 10
506.7490329168
 20
165.9509717448
  0
VERTEX
  8
0
 62
7
  6
CONTINUOUS
 10
506.7452080434
 20
166.1962246306
  0
VERTEX
  8
0
 62
7
  6
CONTINUOUS
 10
506.7424065262
 20
166.3184082872
  0
VERTEX
  8
0
 62
7
  6
CONTINUOUS
 10
506.7352323928
 20
166.5526641409
  0
VERTEX
  8
0
 62
7
  6
CONTINUOUS
 10
506.7263312244
 20
166.7617266732
  0
VERTEX
  8
0
 62
7
  6
CONTINUOUS
 10
506.7162363169
 20
166.9329028278
  0
VERTEX
  8
0
 62
7
  6
CONTINUOUS
 10
506.7109357401
 20
167.000857048
  0
SEQEND
  0
POLYLINE
  8
0
 62
7
  6
CONTINUOUS
 66
1
 70
0
  0
VERTEX
  8
0
 62
7
  6
CONTINUOUS
 10
506.7473438112
 20
229.0394592616
  0
VERTEX
  8
0
 62
7
  6
CONTINUOUS
 10
506.7313571213
 20
228.1763096348
  0
VERTEX
  8
0
 62
7
  6
CONTINUOUS
 10
506.6928971142
 20
226.5309036113
  0
VERTEX
  8
0
 62
7
  6
CONTINUOUS
 10
506.6462034887
 20
225.0155750433
  0
VERTEX
  8
0
 62
7
  6
CONTINUOUS
 10
506.5918626692
 20
223.6547425955
  0
VERTEX
  8
0
 62
7
  6
CONTINUOUS
 10
506.5620397688
 20
223.0392866815
  0
VERTEX
  8
0
 62
7
  6
CONTINUOUS
 10
506.4975797086
 20
221.9508199852
  0
VERTEX
  8
0
 62
7
  6
CONTINUOUS
 10
506.4274322259
 20
221.0667198723
  0
VERTEX
  8
0
 62
7
  6
CONTINUOUS
 10
506.3525736725
 20
220.4014682765
  0
VERTEX
  8
0
 62
7
  6
CONTINUOUS
 10
506.3137048193
 20
220.1544219225
  0
SEQEND
  0
POLYLINE
  8
0
 62
7
  6
CONTINUOUS
 66
1
 70
0
  0
VERTEX
  8
0
 62
7
  6
CONTINUOUS
 10
506.7489762633
 20
346.3094894309
  0
VERTEX
  8
0
 62
7
  6
CONTINUOUS
 10
506.7313571213
 20
345.343353739
  0
VERTEX
  8
0
 62
7
  6
CONTINUOUS
 10
506.6928971142
 20
343.5596077821
  0
VERTEX
  8
0
 62
7
  6
CONTINUOUS
 10
506.6462034887
 20
341.7130460763
  0
VERTEX
  8
0
 62
7
  6
CONTINUOUS
 10
506.5918626692
 20
339.8333806835
  0
VERTEX
  8
0
 62
7
  6
CONTINUOUS
 10
506.5620397688
 20
338.8906505663
  0
VERTEX
  8
0
 62
7
  6
CONTINUOUS
 10
506.4975797086
 20
337.0185154077
  0
VERTEX
  8
0
 62
7
  6
CONTINUOUS
 10
506.4274322259
 20
335.1893999559
  0
VERTEX
  8
0
 62
7
  6
CONTINUOUS
 10
506.3525736725
 20
333.4331453108
  0
VERTEX
  8
0
 62
7
  6
CONTINUOUS
 10
506.3137048193
 20
332.5912329961
  0
SEQEND
  0
POLYLINE
  8
0
 62
7
  6
CONTINUOUS
 66
1
 70
0
  0
VERTEX
  8
0
 62
7
  6
CONTINUOUS
 10
506.7473438112
 20
165.4169826885
  0
VERTEX
  8
0
 62
7
  6
CONTINUOUS
 10
506.7313571213
 20
164.7825830769
  0
VERTEX
  8
0
 62
7
  6
CONTINUOUS
 10
506.6928971142
 20
163.6531137606
  0
VERTEX
  8
0
 62
7
  6
CONTINUOUS
 10
506.6462034887
 20
162.7244942294
  0
VERTEX
  8
0
 62
7
  6
CONTINUOUS
 10
506.5918626692
 20
162.0117128751
  0
VERTEX
  8
0
 62
7
  6
CONTINUOUS
 10
506.5620397688
 20
161.7400424451
  0
VERTEX
  8
0
 62
7
  6
CONTINUOUS
 10
506.4975797086
 20
161.3717059309
  0
VERTEX
  8
0
 62
7
  6
CONTINUOUS
 10
506.4274322259
 20
161.2413667408
  0
VERTEX
  8
0
 62
7
  6
CONTINUOUS
 10
506.4243245111
 20
161.2411472325
  0
SEQEND
  0
POLYLINE
  8
0
 62
7
  6
CONTINUOUS
 66
1
 70
0
  0
VERTEX
  8
0
 62
7
  6
CONTINUOUS
 10
506.7489762633
 20
379.5574970727
  0
VERTEX
  8
0
 62
7
  6
CONTINUOUS
 10
506.7313571213
 20
378.8574249305
  0
VERTEX
  8
0
 62
7
  6
CONTINUOUS
 10
506.6928971142
 20
377.4751959786
  0
VERTEX
  8
0
 62
7
  6
CONTINUOUS
 10
506.6462034887
 20
375.9413833904
  0
VERTEX
  8
0
 62
7
  6
CONTINUOUS
 10
506.5918626692
 20
374.2806470759
  0
VERTEX
  8
0
 62
7
  6
CONTINUOUS
 10
506.5620397688
 20
373.4110169224
  0
VERTEX
  8
0
 62
7
  6
CONTINUOUS
 10
506.4975797086
 20
371.6108468802
  0
VERTEX
  8
0
 62
7
  6
CONTINUOUS
 10
506.4274322259
 20
369.7538787495
  0
VERTEX
  8
0
 62
7
  6
CONTINUOUS
 10
506.3525736725
 20
367.8703761325
  0
VERTEX
  8
0
 62
7
  6
CONTINUOUS
 10
506.3137048193
 20
366.9281326231
  0
SEQEND
  0
LINE
  8
0
 62
7
  6
CONTINUOUS
 10
506.4274322259
 20
380.3126283996
 11
506.3137048193
 21
377.7479002829
  0
POLYLINE
  8
0
 62
7
  6
CONTINUOUS
 66
1
 70
0
  0
VERTEX
  8
0
 62
7
  6
CONTINUOUS
 10
506.3349659575
 20
371.223327102
  0
VERTEX
  8
0
 62
7
  6
CONTINUOUS
 10
506.7162363169
 20
379.2329620199
  0
VERTEX
  8
0
 62
7
  6
CONTINUOUS
 10
506.7263312244
 20
379.426428243
  0
VERTEX
  8
0
 62
7
  6
CONTINUOUS
 10
506.7352323928
 20
379.5769926002
  0
VERTEX
  8
0
 62
7
  6
CONTINUOUS
 10
506.7424065262
 20
379.6755523075
  0
VERTEX
  8
0
 62
7
  6
CONTINUOUS
 10
506.7452080434
 20
379.7033494843
  0
VERTEX
  8
0
 62
7
  6
CONTINUOUS
 10
506.7480585598
 20
379.7171208985
  0
SEQEND
  0
LINE
  8
0
 62
9
  6
CONTINUOUS
 10
515.3137048193
 20
242.5193239172
 11
506.3137048193
 21
242.5193239172
  0
LINE
  8
0
 62
9
  6
CONTINUOUS
 10
489.9137048193
 20
242.5193239172
 11
480.9137048193
 21
242.5193239172
  0
LINE
  8
0
 62
7
  6
CONTINUOUS
 10
506.3777996104
 20
231.2084930508
 11
506.7109357401
 21
230.4065992154
  0
POLYLINE
  8
0
 62
7
  6
CONTINUOUS
 66
1
 70
0
  0
VERTEX
  8
0
 62
7
  6
CONTINUOUS
 10
506.3777996104
 20
231.2084930508
  0
VERTEX
  8
0
 62
7
  6
CONTINUOUS
 10
506.3563376628
 20
231.2676444506
  0
VERTEX
  8
0
 62
7
  6
CONTINUOUS
 10
506.3349659575
 20
231.3415244227
  0
VERTEX
  8
0
 62
7
  6
CONTINUOUS
 10
506.3137048193
 20
231.4300656767
  0
SEQEND
  0
POLYLINE
  8
0
 62
7
  6
CONTINUOUS
 66
1
 70
0
  0
VERTEX
  8
0
 62
7
  6
CONTINUOUS
 10
489.5164738984
 20
293.9010228011
  0
VERTEX
  8
0
 62
7
  6
CONTINUOUS
 10
489.5111746999
 20
293.9317657002
  0
VERTEX
  8
0
 62
7
  6
CONTINUOUS
 10
489.5032665553
 20
293.9499662848
  0
SEQEND
  0
POLYLINE
  8
0
 62
7
  6
CONTINUOUS
 66
1
 70
0
  0
VERTEX
  8
0
 62
7
  6
CONTINUOUS
 10
514.8960525172
 20
378.8574249305
  0
VERTEX
  8
0
 62
7
  6
CONTINUOUS
 10
514.9345125243
 20
377.4751959786
  0
VERTEX
  8
0
 62
7
  6
CONTINUOUS
 10
514.9812061499
 20
375.9413833904
  0
VERTEX
  8
0
 62
7
  6
CONTINUOUS
 10
515.0355469693
 20
374.2806470759
  0
VERTEX
  8
0
 62
7
  6
CONTINUOUS
 10
515.0653698698
 20
373.4110169224
  0
VERTEX
  8
0
 62
7
  6
CONTINUOUS
 10
515.12982993
 20
371.6108468802
  0
VERTEX
  8
0
 62
7
  6
CONTINUOUS
 10
515.1999774126
 20
369.7538787495
  0
VERTEX
  8
0
 62
7
  6
CONTINUOUS
 10
515.2748359661
 20
367.8703761325
  0
VERTEX
  8
0
 62
7
  6
CONTINUOUS
 10
515.3137048193
 20
366.9281326231
  0
SEQEND
  0
POLYLINE
  8
0
 62
7
  6
CONTINUOUS
 66
1
 70
0
  0
VERTEX
  8
0
 62
7
  6
CONTINUOUS
 10
514.8800658274
 20
165.4169826885
  0
VERTEX
  8
0
 62
7
  6
CONTINUOUS
 10
514.8960525172
 20
164.7825830769
  0
VERTEX
  8
0
 62
7
  6
CONTINUOUS
 10
514.9345125243
 20
163.6531137606
  0
VERTEX
  8
0
 62
7
  6
CONTINUOUS
 10
514.9812061499
 20
162.7244942294
  0
VERTEX
  8
0
 62
7
  6
CONTINUOUS
 10
515.0355469693
 20
162.0117128751
  0
VERTEX
  8
0
 62
7
  6
CONTINUOUS
 10
515.0653698698
 20
161.7400424451
  0
VERTEX
  8
0
 62
7
  6
CONTINUOUS
 10
515.12982993
 20
161.3717059309
  0
VERTEX
  8
0
 62
7
  6
CONTINUOUS
 10
515.1999774126
 20
161.2413667408
  0
VERTEX
  8
0
 62
7
  6
CONTINUOUS
 10
515.2030851275
 20
161.2411472325
  0
SEQEND
  0
POLYLINE
  8
0
 62
7
  6
CONTINUOUS
 66
1
 70
0
  0
VERTEX
  8
0
 62
7
  6
CONTINUOUS
 10
514.8960525172
 20
345.343353739
  0
VERTEX
  8
0
 62
7
  6
CONTINUOUS
 10
514.9345125243
 20
343.5596077821
  0
VERTEX
  8
0
 62
7
  6
CONTINUOUS
 10
514.9812061499
 20
341.7130460763
  0
VERTEX
  8
0
 62
7
  6
CONTINUOUS
 10
515.0355469693
 20
339.8333806835
  0
VERTEX
  8
0
 62
7
  6
CONTINUOUS
 10
515.0653698698
 20
338.8906505663
  0
VERTEX
  8
0
 62
7
  6
CONTINUOUS
 10
515.12982993
 20
337.0185154077
  0
VERTEX
  8
0
 62
7
  6
CONTINUOUS
 10
515.1999774126
 20
335.1893999559
  0
VERTEX
  8
0
 62
7
  6
CONTINUOUS
 10
515.2748359661
 20
333.4331453108
  0
VERTEX
  8
0
 62
7
  6
CONTINUOUS
 10
515.3137048193
 20
332.5912329961
  0
SEQEND
  0
POLYLINE
  8
0
 62
7
  6
CONTINUOUS
 66
1
 70
0
  0
VERTEX
  8
0
 62
7
  6
CONTINUOUS
 10
514.8960525172
 20
292.0443549409
  0
VERTEX
  8
0
 62
7
  6
CONTINUOUS
 10
514.9345125243
 20
290.1675178598
  0
VERTEX
  8
0
 62
7
  6
CONTINUOUS
 10
514.9812061499
 20
288.3274943308
  0
VERTEX
  8
0
 62
7
  6
CONTINUOUS
 10
515.0355469693
 20
286.5539110824
  0
VERTEX
  8
0
 62
7
  6
CONTINUOUS
 10
515.0653698698
 20
285.7010876033
  0
VERTEX
  8
0
 62
7
  6
CONTINUOUS
 10
515.12982993
 20
284.0806965049
  0
VERTEX
  8
0
 62
7
  6
CONTINUOUS
 10
515.1999774126
 20
282.5957044107
  0
VERTEX
  8
0
 62
7
  6
CONTINUOUS
 10
515.2748359661
 20
281.2703701207
  0
VERTEX
  8
0
 62
7
  6
CONTINUOUS
 10
515.3137048193
 20
280.6743632884
  0
SEQEND
  0
POLYLINE
  8
0
 62
7
  6
CONTINUOUS
 66
1
 70
0
  0
VERTEX
  8
0
 62
7
  6
CONTINUOUS
 10
514.8800658274
 20
229.0394592616
  0
VERTEX
  8
0
 62
7
  6
CONTINUOUS
 10
514.8960525172
 20
228.1763096348
  0
VERTEX
  8
0
 62
7
  6
CONTINUOUS
 10
514.9345125243
 20
226.5309036113
  0
VERTEX
  8
0
 62
7
  6
CONTINUOUS
 10
514.9812061499
 20
225.0155750433
  0
VERTEX
  8
0
 62
7
  6
CONTINUOUS
 10
515.0355469693
 20
223.6547425955
  0
VERTEX
  8
0
 62
7
  6
CONTINUOUS
 10
515.0653698698
 20
223.0392866815
  0
VERTEX
  8
0
 62
7
  6
CONTINUOUS
 10
515.12982993
 20
221.9508199852
  0
VERTEX
  8
0
 62
7
  6
CONTINUOUS
 10
515.1999774126
 20
221.0667198723
  0
VERTEX
  8
0
 62
7
  6
CONTINUOUS
 10
515.2748359661
 20
220.4014682765
  0
VERTEX
  8
0
 62
7
  6
CONTINUOUS
 10
515.3137048193
 20
220.1544219225
  0
SEQEND
  0
LINE
  8
0
 62
7
  6
CONTINUOUS
 10
515.3137048193
 20
84.7710169762
 11
515.3137048193
 21
377.7479002829
  0
POLYLINE
  8
0
 62
7
  6
CONTINUOUS
 66
1
 70
0
  0
VERTEX
  8
0
 62
7
  6
CONTINUOUS
 10
514.8822021027
 20
81.489565024
  0
VERTEX
  8
0
 62
7
  6
CONTINUOUS
 10
514.8783769075
 20
81.336717308
  0
VERTEX
  8
0
 62
7
  6
CONTINUOUS
 10
514.8770955442
 20
81.2354150177
  0
VERTEX
  8
0
 62
7
  6
CONTINUOUS
 10
514.8784333373
 20
81.1917502592
  0
VERTEX
  8
0
 62
7
  6
CONTINUOUS
 10
514.8790900575
 20
81.1902103828
  0
SEQEND
  0
POLYLINE
  8
0
 62
7
  6
CONTINUOUS
 66
1
 70
0
  0
VERTEX
  8
0
 62
7
  6
CONTINUOUS
 10
506.7473438112
 20
113.1204826433
  0
VERTEX
  8
0
 62
7
  6
CONTINUOUS
 10
506.7489762633
 20
113.1698629299
  0
VERTEX
  8
0
 62
7
  6
CONTINUOUS
 10
506.7503140931
 20
113.3080920074
  0
VERTEX
  8
0
 62
7
  6
CONTINUOUS
 10
506.7490329168
 20
113.4916727308
  0
VERTEX
  8
0
 62
7
  6
CONTINUOUS
 10
506.7452080434
 20
113.7095557701
  0
VERTEX
  8
0
 62
7
  6
CONTINUOUS
 10
506.7424065262
 20
113.8273211822
  0
VERTEX
  8
0
 62
7
  6
CONTINUOUS
 10
506.7352323928
 20
114.0716188351
  0
VERTEX
  8
0
 62
7
  6
CONTINUOUS
 10
506.7263312244
 20
114.3152469607
  0
VERTEX
  8
0
 62
7
  6
CONTINUOUS
 10
506.7162363169
 20
114.54342967
  0
VERTEX
  8
0
 62
7
  6
CONTINUOUS
 10
506.3563376628
 20
121.2586031289
  0
SEQEND
  0
POLYLINE
  8
0
 62
7
  6
CONTINUOUS
 66
1
 70
0
  0
VERTEX
  8
0
 62
7
  6
CONTINUOUS
 10
514.9010800724
 20
82.0307401902
  0
VERTEX
  8
0
 62
7
  6
CONTINUOUS
 10
514.8921784151
 20
81.7946625319
  0
VERTEX
  8
0
 62
7
  6
CONTINUOUS
 10
514.8822021027
 20
81.489565024
  0
SEQEND
  0
POLYLINE
  8
0
 62
7
  6
CONTINUOUS
 66
1
 70
0
  0
VERTEX
  8
0
 62
7
  6
CONTINUOUS
 10
514.9111746999
 20
114.5434580034
  0
VERTEX
  8
0
 62
7
  6
CONTINUOUS
 10
514.9010800724
 20
114.3152881504
  0
VERTEX
  8
0
 62
7
  6
CONTINUOUS
 10
514.8921784151
 20
114.0716543345
  0
VERTEX
  8
0
 62
7
  6
CONTINUOUS
 10
514.8850038221
 20
113.8273488014
  0
VERTEX
  8
0
 62
7
  6
CONTINUOUS
 10
514.8822021027
 20
113.7095790424
  0
VERTEX
  8
0
 62
7
  6
CONTINUOUS
 10
514.8783769075
 20
113.4916873355
  0
VERTEX
  8
0
 62
7
  6
CONTINUOUS
 10
514.8770955442
 20
113.3080990318
  0
VERTEX
  8
0
 62
7
  6
CONTINUOUS
 10
514.8784333373
 20
113.1698645507
  0
VERTEX
  8
0
 62
7
  6
CONTINUOUS
 10
514.8800658274
 20
113.1204826433
  0
SEQEND
  0
POLYLINE
  8
0
 62
7
  6
CONTINUOUS
 66
1
 70
0
  0
VERTEX
  8
0
 62
7
  6
CONTINUOUS
 10
506.7473438112
 20
113.1204826433
  0
VERTEX
  8
0
 62
7
  6
CONTINUOUS
 10
506.7313571213
 20
112.8245265031
  0
VERTEX
  8
0
 62
7
  6
CONTINUOUS
 10
506.6928971142
 20
112.4062893996
  0
VERTEX
  8
0
 62
7
  6
CONTINUOUS
 10
506.6462034887
 20
112.2249456584
  0
VERTEX
  8
0
 62
7
  6
CONTINUOUS
 10
506.6329758905
 20
112.2170498992
  0
SEQEND
  0
POLYLINE
  8
0
 62
7
  6
CONTINUOUS
 66
1
 70
0
  0
VERTEX
  8
0
 62
7
  6
CONTINUOUS
 10
514.9164738984
 20
167.000857048
  0
VERTEX
  8
0
 62
7
  6
CONTINUOUS
 10
514.9111746999
 20
166.9329223376
  0
VERTEX
  8
0
 62
7
  6
CONTINUOUS
 10
514.9010800724
 20
166.7617598684
  0
VERTEX
  8
0
 62
7
  6
CONTINUOUS
 10
514.8921784151
 20
166.552696395
  0
VERTEX
  8
0
 62
7
  6
CONTINUOUS
 10
514.8850038221
 20
166.3184361992
  0
VERTEX
  8
0
 62
7
  6
CONTINUOUS
 10
514.8822021027
 20
166.1962494262
  0
VERTEX
  8
0
 62
7
  6
CONTINUOUS
 10
514.8783769075
 20
165.9509891839
  0
VERTEX
  8
0
 62
7
  6
CONTINUOUS
 10
514.8770955442
 20
165.7168589523
  0
VERTEX
  8
0
 62
7
  6
CONTINUOUS
 10
514.8784333373
 20
165.5079567462
  0
VERTEX
  8
0
 62
7
  6
CONTINUOUS
 10
514.8800658274
 20
165.4169826885
  0
SEQEND
  0
POLYLINE
  8
0
 62
7
  6
CONTINUOUS
 66
1
 70
0
  0
VERTEX
  8
0
 62
7
  6
CONTINUOUS
 10
515.2710719758
 20
171.0906498212
  0
VERTEX
  8
0
 62
7
  6
CONTINUOUS
 10
515.2924436811
 20
171.3573161518
  0
VERTEX
  8
0
 62
7
  6
CONTINUOUS
 10
515.3137048193
 20
171.6363822725
  0
SEQEND
  0
LINE
  8
0
 62
7
  6
CONTINUOUS
 10
514.9164738984
 20
167.000857048
 11
515.2710719758
 21
171.0906498212
  0
POLYLINE
  8
0
 62
7
  6
CONTINUOUS
 66
1
 70
0
  0
VERTEX
  8
0
 62
7
  6
CONTINUOUS
 10
489.4800658274
 20
81.1924990826
  0
VERTEX
  8
0
 62
7
  6
CONTINUOUS
 10
489.4960525172
 20
81.2861599191
  0
VERTEX
  8
0
 62
7
  6
CONTINUOUS
 10
489.5345125243
 20
81.6514720233
  0
VERTEX
  8
0
 62
7
  6
CONTINUOUS
 10
489.5812061499
 20
82.2487600523
  0
VERTEX
  8
0
 62
7
  6
CONTINUOUS
 10
489.6355469693
 20
83.0684556611
  0
VERTEX
  8
0
 62
7
  6
CONTINUOUS
 10
489.6653698698
 20
83.5577131412
  0
VERTEX
  8
0
 62
7
  6
CONTINUOUS
 10
489.72982993
 20
84.6851737693
  0
VERTEX
  8
0
 62
7
  6
CONTINUOUS
 10
489.7999774126
 20
85.9957379809
  0
VERTEX
  8
0
 62
7
  6
CONTINUOUS
 10
489.8748359661
 20
87.4680925006
  0
VERTEX
  8
0
 62
7
  6
CONTINUOUS
 10
489.9137048193
 20
88.2576529664
  0
SEQEND
  0
POLYLINE
  8
0
 62
7
  6
CONTINUOUS
 66
1
 70
0
  0
VERTEX
  8
0
 62
7
  6
CONTINUOUS
 10
514.9164738984
 20
230.4065992154
  0
VERTEX
  8
0
 62
7
  6
CONTINUOUS
 10
514.9111746999
 20
230.3862434624
  0
VERTEX
  8
0
 62
7
  6
CONTINUOUS
 10
514.9010800724
 20
230.301683923
  0
VERTEX
  8
0
 62
7
  6
CONTINUOUS
 10
514.8921784151
 20
230.163339766
  0
VERTEX
  8
0
 62
7
  6
CONTINUOUS
 10
514.8850038221
 20
229.9796306234
  0
VERTEX
  8
0
 62
7
  6
CONTINUOUS
 10
514.8822021027
 20
229.8741540395
  0
VERTEX
  8
0
 62
7
  6
CONTINUOUS
 10
514.8783769075
 20
229.6439329858
  0
VERTEX
  8
0
 62
7
  6
CONTINUOUS
 10
514.8770955442
 20
229.3997440705
  0
VERTEX
  8
0
 62
7
  6
CONTINUOUS
 10
514.8784333373
 20
229.1562952285
  0
VERTEX
  8
0
 62
7
  6
CONTINUOUS
 10
514.8800658274
 20
229.0394592616
  0
SEQEND
  0
POLYLINE
  8
0
 62
7
  6
CONTINUOUS
 66
1
 70
0
  0
VERTEX
  8
0
 62
7
  6
CONTINUOUS
 10
515.2496100281
 20
231.2084930508
  0
VERTEX
  8
0
 62
7
  6
CONTINUOUS
 10
515.2710719758
 20
231.2676444506
  0
VERTEX
  8
0
 62
7
  6
CONTINUOUS
 10
515.2924436811
 20
231.3415244227
  0
VERTEX
  8
0
 62
7
  6
CONTINUOUS
 10
515.3137048193
 20
231.4300656767
  0
SEQEND
  0
LINE
  8
0
 62
7
  6
CONTINUOUS
 10
514.9164738984
 20
230.4065992154
 11
515.2496100281
 21
231.2084930508
  0
POLYLINE
  8
0
 62
7
  6
CONTINUOUS
 66
1
 70
0
  0
VERTEX
  8
0
 62
7
  6
CONTINUOUS
 10
514.8772914633
 20
387.1164663446
  0
VERTEX
  8
0
 62
7
  6
CONTINUOUS
 10
514.8784333373
 20
387.1046414439
  0
VERTEX
  8
0
 62
7
  6
CONTINUOUS
 10
514.8800658274
 20
387.0783167363
  0
SEQEND
  0
POLYLINE
  8
0
 62
7
  6
CONTINUOUS
 66
1
 70
0
  0
VERTEX
  8
0
 62
7
  6
CONTINUOUS
 10
514.9111746999
 20
346.5818909629
  0
VERTEX
  8
0
 62
7
  6
CONTINUOUS
 10
514.9010800724
 20
346.6968980641
  0
VERTEX
  8
0
 62
7
  6
CONTINUOUS
 10
514.8921784151
 20
346.7553912607
  0
VERTEX
  8
0
 62
7
  6
CONTINUOUS
 10
514.8885297974
 20
346.7622203129
  0
SEQEND
  0
POLYLINE
  8
0
 62
7
  6
CONTINUOUS
 66
1
 70
0
  0
VERTEX
  8
0
 62
7
  6
CONTINUOUS
 10
515.2496100281
 20
341.372105818
  0
VERTEX
  8
0
 62
7
  6
CONTINUOUS
 10
515.2710719758
 20
341.0462905927
  0
VERTEX
  8
0
 62
7
  6
CONTINUOUS
 10
515.3137048193
 20
340.4289710421
  0
SEQEND
  0
LINE
  8
0
 62
7
  6
CONTINUOUS
 10
514.9111746999
 20
346.5818909629
 11
515.2496100281
 21
341.372105818
  0
POLYLINE
  8
0
 62
7
  6
CONTINUOUS
 66
1
 70
0
  0
VERTEX
  8
0
 62
7
  6
CONTINUOUS
 10
514.9010800724
 20
379.4263982083
  0
VERTEX
  8
0
 62
7
  6
CONTINUOUS
 10
514.8921784151
 20
379.5769744755
  0
VERTEX
  8
0
 62
7
  6
CONTINUOUS
 10
514.8850038221
 20
379.6755442055
  0
VERTEX
  8
0
 62
7
  6
CONTINUOUS
 10
514.8822021027
 20
379.7033453754
  0
VERTEX
  8
0
 62
7
  6
CONTINUOUS
 10
514.8793510786
 20
379.7171208985
  0
SEQEND
  0
POLYLINE
  8
0
 62
7
  6
CONTINUOUS
 66
1
 70
0
  0
VERTEX
  8
0
 62
7
  6
CONTINUOUS
 10
514.8800658274
 20
387.0783167363
  0
VERTEX
  8
0
 62
7
  6
CONTINUOUS
 10
514.8960525172
 20
386.7916811407
  0
VERTEX
  8
0
 62
7
  6
CONTINUOUS
 10
514.9345125243
 20
386.0499691367
  0
VERTEX
  8
0
 62
7
  6
CONTINUOUS
 10
514.9812061499
 20
385.094115797
  0
SEQEND
  0
LINE
  8
0
 62
7
  6
CONTINUOUS
 10
514.9164738984
 20
379.1238575416
 11
514.9010800724
 21
379.4263982083
  0
LINE
  8
0
 62
7
  6
CONTINUOUS
 10
515.3137048193
 20
370.7872920416
 11
514.9164738984
 21
379.1238575416
  0
LINE
  8
0
 62
7
  6
CONTINUOUS
 10
514.9812061499
 20
385.094115797
 11
515.0653698698
 21
383.2933017208
  0
LINE
  8
0
 62
7
  6
CONTINUOUS
 10
515.0653698698
 20
383.2933017208
 11
515.1999774126
 21
380.3126283996
  0
LINE
  8
0
 62
7
  6
CONTINUOUS
 10
515.1999774126
 20
380.3126283996
 11
515.3137048193
 21
377.7479002829
  0
LINE
  8
0
 62
9
  6
CONTINUOUS
 10
521.1137048193
 20
356.9194780986
 11
521.1137048193
 21
104.9194780986
  0
LINE
  8
0
 62
7
  6
CONTINUOUS
 10
523.1137048193
 20
354.9194780986
 11
523.1137048193
 21
106.9194780986
  0
LINE
  8
0
 62
7
  6
CONTINUOUS
 10
515.2496100281
 20
89.9020162916
 11
515.3137048193
 21
91.3672246331
  0
LINE
  8
0
 62
7
  6
CONTINUOUS
 10
515.2496100281
 20
89.9020162916
 11
514.9010800724
 21
82.0307401902
  0
POLYLINE
  8
0
 62
7
  6
CONTINUOUS
 66
1
 70
0
  0
VERTEX
  8
0
 62
7
  6
CONTINUOUS
 10
514.9164738984
 20
75.8297107355
  0
VERTEX
  8
0
 62
7
  6
CONTINUOUS
 10
515.2924436811
 20
84.2956980347
  0
VERTEX
  8
0
 62
7
  6
CONTINUOUS
 10
515.3137048193
 20
84.7710169762
  0
SEQEND
  0
LINE
  8
0
 62
7
  6
CONTINUOUS
 10
514.9164738984
 20
75.8297107355
 11
514.8921784151
 21
75.3027060972
  0
POLYLINE
  8
0
 62
7
  6
CONTINUOUS
 66
1
 70
0
  0
VERTEX
  8
0
 62
7
  6
CONTINUOUS
 10
515.2496100281
 20
120.8536278796
  0
VERTEX
  8
0
 62
7
  6
CONTINUOUS
 10
515.2710719758
 20
121.2586031289
  0
VERTEX
  8
0
 62
7
  6
CONTINUOUS
 10
515.3137048193
 20
122.0932847066
  0
SEQEND
  0
LINE
  8
0
 62
7
  6
CONTINUOUS
 10
514.9111746999
 20
114.5434580034
 11
515.2496100281
 21
120.8536278796
  0
POLYLINE
  8
0
 62
7
  6
CONTINUOUS
 66
1
 70
0
  0
VERTEX
  8
0
 62
7
  6
CONTINUOUS
 10
514.8921784151
 20
75.3027060972
  0
VERTEX
  8
0
 62
7
  6
CONTINUOUS
 10
514.8822021027
 20
75.1073405042
  0
VERTEX
  8
0
 62
7
  6
CONTINUOUS
 10
514.8783769075
 20
75.0459655379
  0
VERTEX
  8
0
 62
7
  6
CONTINUOUS
 10
514.8773789856
 20
75.0376224263
  0
SEQEND
  0
POLYLINE
  8
0
 62
7
  6
CONTINUOUS
 66
1
 70
0
  0
VERTEX
  8
0
 62
7
  6
CONTINUOUS
 10
489.8030851275
 20
161.2411472325
  0
VERTEX
  8
0
 62
7
  6
CONTINUOUS
 10
489.8748359661
 20
161.3512258837
  0
VERTEX
  8
0
 62
7
  6
CONTINUOUS
 10
489.9137048193
 20
161.4958565668
  0
SEQEND
  0
POLYLINE
  8
0
 62
7
  6
CONTINUOUS
 66
1
 70
0
  0
VERTEX
  8
0
 62
7
  6
CONTINUOUS
 10
481.3480585598
 20
379.7171208985
  0
VERTEX
  8
0
 62
7
  6
CONTINUOUS
 10
481.3490329168
 20
379.7139072342
  0
VERTEX
  8
0
 62
7
  6
CONTINUOUS
 10
481.3503140931
 20
379.6642904823
  0
VERTEX
  8
0
 62
7
  6
CONTINUOUS
 10
481.3489762633
 20
379.5574970727
  0
SEQEND
  0
POLYLINE
  8
0
 62
7
  6
CONTINUOUS
 66
1
 70
0
  0
VERTEX
  8
0
 62
7
  6
CONTINUOUS
 10
514.9164738984
 20
293.9010228011
  0
VERTEX
  8
0
 62
7
  6
CONTINUOUS
 10
514.9111746999
 20
293.9317657002
  0
VERTEX
  8
0
 62
7
  6
CONTINUOUS
 10
514.9032665553
 20
293.9499662848
  0
SEQEND
  0
POLYLINE
  8
0
 62
7
  6
CONTINUOUS
 66
1
 70
0
  0
VERTEX
  8
0
 62
7
  6
CONTINUOUS
 10
515.2496100281
 20
291.5303879034
  0
VERTEX
  8
0
 62
7
  6
CONTINUOUS
 10
515.2710719758
 20
291.3844379547
  0
VERTEX
  8
0
 62
7
  6
CONTINUOUS
 10
515.2924436811
 20
291.2527570499
  0
VERTEX
  8
0
 62
7
  6
CONTINUOUS
 10
515.3137048193
 20
291.1354638501
  0
SEQEND
  0
LINE
  8
0
 62
7
  6
CONTINUOUS
 10
514.9164738984
 20
293.9010228011
 11
515.2496100281
 21
291.5303879034
  0
POLYLINE
  8
0
 62
7
  6
CONTINUOUS
 66
1
 70
0
  0
VERTEX
  8
0
 62
7
  6
CONTINUOUS
 10
514.8800658274
 20
81.1924990826
  0
VERTEX
  8
0
 62
7
  6
CONTINUOUS
 10
514.8960525172
 20
81.2861599191
  0
VERTEX
  8
0
 62
7
  6
CONTINUOUS
 10
514.9345125243
 20
81.6514720233
  0
VERTEX
  8
0
 62
7
  6
CONTINUOUS
 10
514.9812061499
 20
82.2487600523
  0
VERTEX
  8
0
 62
7
  6
CONTINUOUS
 10
515.0355469693
 20
83.0684556611
  0
VERTEX
  8
0
 62
7
  6
CONTINUOUS
 10
515.0653698698
 20
83.5577131412
  0
VERTEX
  8
0
 62
7
  6
CONTINUOUS
 10
515.12982993
 20
84.6851737693
  0
VERTEX
  8
0
 62
7
  6
CONTINUOUS
 10
515.1999774126
 20
85.9957379809
  0
VERTEX
  8
0
 62
7
  6
CONTINUOUS
 10
515.2748359661
 20
87.4680925006
  0
VERTEX
  8
0
 62
7
  6
CONTINUOUS
 10
515.3137048193
 20
88.2576529664
  0
SEQEND
  0
LINE
  8
0
 62
9
  6
CONTINUOUS
 10
480.9137048193
 20
267.2501873366
 11
489.9137048193
 21
267.2501873366
  0
LINE
  8
0
 62
9
  6
CONTINUOUS
 10
506.3137048193
 20
267.2501873366
 11
515.3137048193
 21
267.2501873366
  0
LINE
  8
0
 62
9
  6
CONTINUOUS
 10
480.9137048193
 20
268.5462881237
 11
489.9137048193
 21
268.5462881237
  0
LINE
  8
0
 62
9
  6
CONTINUOUS
 10
506.3137048193
 20
268.5462881237
 11
515.3137048193
 21
268.5462881237
  0
LINE
  8
0
 62
9
  6
CONTINUOUS
 10
480.9137048193
 20
274.670104662
 11
489.9137048193
 21
274.670104662
  0
LINE
  8
0
 62
9
  6
CONTINUOUS
 10
506.3137048193
 20
274.670104662
 11
515.3137048193
 21
274.670104662
  0
LINE
  8
0
 62
7
  6
CONTINUOUS
 10
489.4790900575
 20
81.1902103828
 11
489.4800658274
 21
81.1924990826
  0
POLYLINE
  8
0
 62
7
  6
CONTINUOUS
 66
1
 70
0
  0
VERTEX
  8
0
 62
7
  6
CONTINUOUS
 10
515.2030851275
 20
161.2411472325
  0
VERTEX
  8
0
 62
7
  6
CONTINUOUS
 10
515.2748359661
 20
161.3512258837
  0
VERTEX
  8
0
 62
7
  6
CONTINUOUS
 10
515.3137048193
 20
161.4958565668
  0
SEQEND
  0
LINE
  8
0
 62
9
  6
CONTINUOUS
 10
515.3137048193
 20
278.7164672073
 11
506.3137048193
 21
278.7164672073
  0
LINE
  8
0
 62
9
  6
CONTINUOUS
 10
489.9137048193
 20
278.7164672073
 11
480.9137048193
 21
278.7164672073
  0
POLYLINE
  8
0
 62
7
  6
CONTINUOUS
 66
1
 70
0
  0
VERTEX
  8
0
 62
7
  6
CONTINUOUS
 10
506.7480585598
 20
379.7171208985
  0
VERTEX
  8
0
 62
7
  6
CONTINUOUS
 10
506.7490329168
 20
379.7139072342
  0
VERTEX
  8
0
 62
7
  6
CONTINUOUS
 10
506.7503140931
 20
379.6642904823
  0
VERTEX
  8
0
 62
7
  6
CONTINUOUS
 10
506.7489762633
 20
379.5574970727
  0
SEQEND
  0
POLYLINE
  8
0
 62
7
  6
CONTINUOUS
 66
1
 70
0
  0
VERTEX
  8
0
 62
7
  6
CONTINUOUS
 10
489.594433748
 20
112.2170498992
  0
VERTEX
  8
0
 62
7
  6
CONTINUOUS
 10
489.6355469693
 20
112.2834617692
  0
VERTEX
  8
0
 62
7
  6
CONTINUOUS
 10
489.6653698698
 20
112.4025511086
  0
VERTEX
  8
0
 62
7
  6
CONTINUOUS
 10
489.72982993
 20
112.8180335062
  0
VERTEX
  8
0
 62
7
  6
CONTINUOUS
 10
489.7999774126
 20
113.4639920688
  0
VERTEX
  8
0
 62
7
  6
CONTINUOUS
 10
489.8748359661
 20
114.3299663065
  0
VERTEX
  8
0
 62
7
  6
CONTINUOUS
 10
489.9137048193
 20
114.8412660678
  0
SEQEND
  0
LINE
  8
0
 62
9
  6
CONTINUOUS
 10
514.8800658274
 20
292.987008171
 11
506.7473438112
 21
292.987008171
  0
LINE
  8
0
 62
9
  6
CONTINUOUS
 10
489.4800658274
 20
292.987008171
 11
481.3473438112
 21
292.987008171
  0
LINE
  8
0
 62
7
  6
CONTINUOUS
 10
481.3241428801
 20
293.9499662848
 11
489.5032667584
 21
293.9499662848
  0
LINE
  8
0
 62
7
  6
CONTINUOUS
 10
506.7241428801
 20
293.9499662848
 11
514.9032667584
 21
293.9499662848
  0
LINE
  8
0
 62
9
  6
CONTINUOUS
 10
515.3137048193
 20
296.1821654174
 11
506.3137048193
 21
296.1821654174
  0
LINE
  8
0
 62
9
  6
CONTINUOUS
 10
489.9137048193
 20
296.1821654174
 11
480.9137048193
 21
296.1821654174
  0
LINE
  8
0
 62
7
  6
CONTINUOUS
 10
514.8790900575
 20
81.1902103828
 11
514.8800658274
 21
81.1924990826
  0
POLYLINE
  8
0
 62
7
  6
CONTINUOUS
 66
1
 70
0
  0
VERTEX
  8
0
 62
7
  6
CONTINUOUS
 10
514.994433748
 20
112.2170498992
  0
VERTEX
  8
0
 62
7
  6
CONTINUOUS
 10
515.0355469693
 20
112.2834617692
  0
VERTEX
  8
0
 62
7
  6
CONTINUOUS
 10
515.0653698698
 20
112.4025511086
  0
VERTEX
  8
0
 62
7
  6
CONTINUOUS
 10
515.12982993
 20
112.8180335062
  0
VERTEX
  8
0
 62
7
  6
CONTINUOUS
 10
515.1999774126
 20
113.4639920688
  0
VERTEX
  8
0
 62
7
  6
CONTINUOUS
 10
515.2748359661
 20
114.3299663065
  0
VERTEX
  8
0
 62
7
  6
CONTINUOUS
 10
515.3137048193
 20
114.8412660678
  0
SEQEND
  0
LINE
  8
0
 62
9
  6
CONTINUOUS
 10
480.9137048193
 20
315.5065829097
 11
489.9137048193
 21
315.5065829097
  0
LINE
  8
0
 62
9
  6
CONTINUOUS
 10
506.3137048193
 20
315.5065829097
 11
515.3137048193
 21
315.5065829097
  0
LINE
  8
0
 62
7
  6
CONTINUOUS
 10
480.9137048193
 20
316.168321697
 11
489.9137048193
 21
316.168321697
  0
LINE
  8
0
 62
7
  6
CONTINUOUS
 10
506.3137048193
 20
316.168321697
 11
515.3137048193
 21
316.168321697
  0
LINE
  8
0
 62
9
  6
CONTINUOUS
 10
480.9137048193
 20
321.6351347241
 11
489.9137048193
 21
321.6351347241
  0
LINE
  8
0
 62
9
  6
CONTINUOUS
 10
506.3137048193
 20
321.6351347241
 11
515.3137048193
 21
321.6351347241
  0
LINE
  8
0
 62
9
  6
CONTINUOUS
 10
515.3137048193
 20
329.405178489
 11
506.3137048193
 21
329.405178489
  0
LINE
  8
0
 62
9
  6
CONTINUOUS
 10
489.9137048193
 20
329.405178489
 11
480.9137048193
 21
329.405178489
  0
LINE
  8
0
 62
9
  6
CONTINUOUS
 10
514.8800658274
 20
346.2025172651
 11
506.7473438112
 21
346.2025172651
  0
LINE
  8
0
 62
9
  6
CONTINUOUS
 10
489.4800658274
 20
346.2025172651
 11
481.3473438112
 21
346.2025172651
  0
LINE
  8
0
 62
7
  6
CONTINUOUS
 10
481.3388794564
 20
346.7622203129
 11
489.4885301821
 21
346.7622203129
  0
LINE
  8
0
 62
7
  6
CONTINUOUS
 10
506.7388794564
 20
346.7622203129
 11
514.8885301821
 21
346.7622203129
  0
LINE
  8
0
 62
9
  6
CONTINUOUS
 10
480.9137048193
 20
349.1370996113
 11
489.9137048193
 21
349.1370996113
  0
LINE
  8
0
 62
9
  6
CONTINUOUS
 10
506.3137048193
 20
349.1370996113
 11
515.3137048193
 21
349.1370996113
  0
LINE
  8
0
 62
7
  6
CONTINUOUS
 10
480.9137048193
 20
349.310008696
 11
489.9137048193
 21
349.310008696
  0
LINE
  8
0
 62
7
  6
CONTINUOUS
 10
506.3137048193
 20
349.310008696
 11
515.3137048193
 21
349.310008696
  0
LINE
  8
0
 62
9
  6
CONTINUOUS
 10
480.9137048193
 20
352.9146036299
 11
489.9137048193
 21
352.9146036299
  0
LINE
  8
0
 62
9
  6
CONTINUOUS
 10
506.3137048193
 20
352.9146036299
 11
515.3137048193
 21
352.9146036299
  0
LINE
  8
0
 62
7
  6
CONTINUOUS
 10
506.3137048193
 20
356.9194780986
 11
489.9137048193
 21
356.9194780986
  0
LINE
  8
0
 62
7
  6
CONTINUOUS
 10
475.1137048193
 20
356.9194780986
 11
480.9137048193
 21
356.9194780986
  0
LINE
  8
0
 62
7
  6
CONTINUOUS
 10
515.3137048193
 20
356.9194780986
 11
521.1137048193
 21
356.9194780986
  0
LINE
  8
0
 62
9
  6
CONTINUOUS
 10
515.3137048193
 20
363.0648174587
 11
506.3137048193
 21
363.0648174587
  0
LINE
  8
0
 62
9
  6
CONTINUOUS
 10
489.9137048193
 20
363.0648174587
 11
480.9137048193
 21
363.0648174587
  0
LINE
  8
0
 62
9
  6
CONTINUOUS
 10
515.3137048193
 20
373.8753267504
 11
515.1659759375
 21
373.8753267504
  0
LINE
  8
0
 62
9
  6
CONTINUOUS
 10
506.4614337011
 20
373.8753267504
 11
506.3137048193
 21
373.8753267504
  0
LINE
  8
0
 62
9
  6
CONTINUOUS
 10
489.9137048193
 20
373.8753267504
 11
489.7659759375
 21
373.8753267504
  0
LINE
  8
0
 62
9
  6
CONTINUOUS
 10
481.061433701
 20
373.8753267504
 11
480.9137048193
 21
373.8753267504
  0
LINE
  8
0
 62
9
  6
CONTINUOUS
 10
514.8800658274
 20
379.4845415738
 11
506.7473438112
 21
379.4845415738
  0
LINE
  8
0
 62
9
  6
CONTINUOUS
 10
489.4800658274
 20
379.4845415738
 11
481.3473438112
 21
379.4845415738
  0
LINE
  8
0
 62
7
  6
CONTINUOUS
 10
481.3480590272
 20
379.7171208985
 11
489.4793506114
 21
379.7171208985
  0
LINE
  8
0
 62
7
  6
CONTINUOUS
 10
506.7480590272
 20
379.7171208985
 11
514.8793506114
 21
379.7171208985
  0
LINE
  8
0
 62
9
  6
CONTINUOUS
 10
514.8800658274
 20
387.0783167363
 11
506.7473438112
 21
387.0783167363
  0
LINE
  8
0
 62
9
  6
CONTINUOUS
 10
489.4800658274
 20
387.0783167363
 11
481.3473438112
 21
387.0783167363
  0
LINE
  8
0
 62
7
  6
CONTINUOUS
 10
481.3501184201
 20
387.1164663446
 11
489.4772912185
 21
387.1164663446
  0
LINE
  8
0
 62
7
  6
CONTINUOUS
 10
506.7501184201
 20
387.1164663446
 11
514.8772912185
 21
387.1164663446
  0
ARC
  8
0
 62
7
  6
CONTINUOUS
 10
129.3383259238
 20
93.3325591901
 40
16.5
 50
348.0
 51
54.0
  0
ARC
  8
0
 62
7
  6
CONTINUOUS
 10
47.6921324652
 20
185.1260440497
 40
16.5
 50
300.0
 51
6.0
  0
ARC
  8
0
 62
7
  6
CONTINUOUS
 10
78.7595754318
 20
130.5520845424
 40
16.5
 50
324.0
 51
30.0
  0
ARC
  8
0
 62
7
  6
CONTINUOUS
 10
59.405932189
 20
176.0411472325
 40
14.8
 50
225.8771706091
 51
296.0
  0
ARC
  8
0
 62
7
  6
CONTINUOUS
 10
93.1558243953
 20
127.0170498992
 40
14.8
 50
249.8771706091
 51
320.0
  0
ARC
  8
0
 62
7
  6
CONTINUOUS
 10
143.9277818954
 20
95.9586263255
 40
14.8
 50
273.8771706091
 51
344.0
  0
ARC
  8
0
 62
7
  6
CONTINUOUS
 10
162.7191496106
 20
166.4632338656
 40
6.0
 50
45.0
 51
78.1598440864
  0
ARC
  8
0
 62
7
  6
CONTINUOUS
 10
165.181334134
 20
178.2079197861
 40
6.0
 50
225.0
 51
258.1598440864
  0
ARC
  8
0
 62
7
  6
CONTINUOUS
 10
138.8894421819
 20
204.4998117383
 40
6.0
 50
191.8401559136
 51
225.0
  0
ARC
  8
0
 62
7
  6
CONTINUOUS
 10
127.1447562613
 20
202.0376272149
 40
6.0
 50
11.8401559136
 51
45.0
  0
ARC
  8
0
 62
7
  6
CONTINUOUS
 10
111.780554162
 20
230.9194780986
 40
6.0
 50
85.4216527464
 51
274.5783472536
  0
ARC
  8
0
 62
7
  6
CONTINUOUS
 10
164.2558887743
 20
101.366567093
 40
3.25
 50
22.849904579
 51
164.0
  0
ARC
  8
0
 62
7
  6
CONTINUOUS
 10
113.9260817707
 20
123.6892636706
 40
3.25
 50
358.8499045789
 51
140.0
  0
ARC
  8
0
 62
7
  6
CONTINUOUS
 10
77.0269738689
 20
164.5530384787
 40
3.25
 50
334.8499045791
 51
116.0
  0
ARC
  8
0
 62
7
  6
CONTINUOUS
 10
59.9387560429
 20
216.8921736172
 40
3.25
 50
310.849904579
 51
92.0
  0
ARC
  8
0
 62
7
  6
CONTINUOUS
 10
169.0938964742
 20
103.4052385956
 40
2.0
 50
202.849904579
 51
258.0
  0
ARC
  8
0
 62
7
  6
CONTINUOUS
 10
119.1750241323
 20
123.5838877504
 40
2.0
 50
178.8499045792
 51
234.0
  0
ARC
  8
0
 62
7
  6
CONTINUOUS
 10
81.7792610727
 20
162.3218355895
 40
2.0
 50
154.849904579
 51
210.0
  0
ARC
  8
0
 62
7
  6
CONTINUOUS
 10
63.3726744582
 20
212.9209390085
 40
2.0
 50
130.849904579
 51
186.0
  0
ARC
  8
0
 62
7
  6
CONTINUOUS
 10
35.7075780556
 20
229.41207732
 40
1.0
 50
96.0
 51
201.8771706091
  0
ARC
  8
0
 62
7
  6
CONTINUOUS
 10
49.7983876815
 20
166.1348316442
 40
1.0
 50
120.0
 51
225.8771706091
  0
ARC
  8
0
 62
7
  6
CONTINUOUS
 10
144.8609069825
 20
82.1902103828
 40
1.0
 50
168.0
 51
273.8771706091
  0
ARC
  8
0
 62
7
  6
CONTINUOUS
 10
88.408157299
 20
114.0594398903
 40
1.0
 50
144.0
 51
249.8771706091
  0
ARC
  8
0
 62
7
  6
CONTINUOUS
 10
184.6788132633
 20
151.6533448966
 40
0.9443458372
 50
355.4216527464
 51
45.0
  0
ARC
  8
0
 62
7
  6
CONTINUOUS
 10
112.3348672923
 20
223.9972908676
 40
0.9443458372
 50
45.0
 51
94.5783472536
  0
ARC
  8
0
 62
7
  6
CONTINUOUS
 10
161.1010004943
 20
378.82671558
 40
16.5
 50
204.0
 51
270.0
  0
ARC
  8
0
 62
7
  6
CONTINUOUS
 10
103.5785707764
 20
353.6339954384
 40
16.5
 50
228.0
 51
294.0
  0
ARC
  8
0
 62
7
  6
CONTINUOUS
 10
61.2760188154
 20
307.2228204223
 40
16.5
 50
252.0
 51
318.0
  0
ARC
  8
0
 62
7
  6
CONTINUOUS
 10
41.5078401519
 20
247.6181043244
 40
16.5
 50
276.0
 51
342.0
  0
ARC
  8
0
 62
7
  6
CONTINUOUS
 10
150.8414462083
 20
368.12671558
 40
14.8
 50
129.8771706091
 51
200.0
  0
ARC
  8
0
 62
7
  6
CONTINUOUS
 10
98.5580836419
 20
339.6861223718
 40
14.8
 50
153.8771706091
 51
224.0
  0
ARC
  8
0
 62
7
  6
CONTINUOUS
 10
62.3626866676
 20
292.4387882549
 40
14.8
 50
177.8771706091
 51
248.0
  0
ARC
  8
0
 62
7
  6
CONTINUOUS
 10
48.5137682472
 20
234.5542065265
 40
14.8
 50
201.8771706091
 51
272.0
  0
ARC
  8
0
 62
7
  6
CONTINUOUS
 10
127.1447562613
 20
259.8013289822
 40
6.0
 50
315.0
 51
348.1598440864
  0
ARC
  8
0
 62
7
  6
CONTINUOUS
 10
138.8894421819
 20
257.3391444588
 40
6.0
 50
135.0
 51
168.1598440864
  0
ARC
  8
0
 62
7
  6
CONTINUOUS
 10
165.181334134
 20
283.631036411
 40
6.0
 50
101.8401559136
 51
135.0
  0
ARC
  8
0
 62
7
  6
CONTINUOUS
 10
162.7191496106
 20
295.3757223315
 40
6.0
 50
281.8401559136
 51
315.0
  0
ARC
  8
0
 62
7
  6
CONTINUOUS
 10
65.6161363966
 20
271.6567571346
 40
3.25
 50
286.849904579
 51
68.0
  0
ARC
  8
0
 62
7
  6
CONTINUOUS
 10
93.0774442893
 20
319.3774950201
 40
3.25
 50
262.849904579
 51
44.0
  0
ARC
  8
0
 62
7
  6
CONTINUOUS
 10
137.5743701082
 20
351.803038164
 40
3.25
 50
238.849904579
 51
20.0
  0
ARC
  8
0
 62
7
  6
CONTINUOUS
 10
67.1379303332
 20
266.6321533478
 40
2.0
 50
106.8499045791
 51
162.0
  0
ARC
  8
0
 62
7
  6
CONTINUOUS
 10
92.4239817505
 20
314.168321697
 40
2.0
 50
82.849904579
 51
138.0
  0
ARC
  8
0
 62
7
  6
CONTINUOUS
 10
134.8586407035
 20
347.310008696
 40
2.0
 50
58.849904579
 51
114.0
  0
ARC
  8
0
 62
7
  6
CONTINUOUS
 10
187.1045691526
 20
360.32671558
 40
2.0
 50
34.8499045791
 51
90.0
  0
ARC
  8
0
 62
7
  6
CONTINUOUS
 10
141.9936603164
 20
378.7171208985
 40
1.0
 50
24.0
 51
129.8771706091
  0
ARC
  8
0
 62
7
  6
CONTINUOUS
 10
86.167723122
 20
345.7622203129
 40
1.0
 50
48.0
 51
153.8771706091
  0
ARC
  8
0
 62
7
  6
CONTINUOUS
 10
48.5721574166
 20
292.9499662848
 40
1.0
 50
72.0
 51
177.8771706091
  0
ARC
  8
0
 62
7
  6
CONTINUOUS
 10
112.3348672923
 20
237.8416653295
 40
0.9443458372
 50
265.4216527464
 51
315.0
  0
ARC
  8
0
 62
7
  6
CONTINUOUS
 10
184.6788132633
 20
310.1856113005
 40
0.9443458372
 50
315.0
 51
4.5783472536
  0
ARC
  8
0
 62
7
  6
CONTINUOUS
 10
252.1861461456
 20
92.5856751949
 40
16.5
 50
36.0
 51
102.0
  0
ARC
  8
0
 62
7
  6
CONTINUOUS
 10
190.6828584877
 20
79.903062055
 40
16.5
 50
12.0
 51
78.0
  0
ARC
  8
0
 62
7
  6
CONTINUOUS
 10
259.9968494633
 20
105.1849358014
 40
14.8
 50
321.8771706091
 51
32.0
  0
ARC
  8
0
 62
7
  6
CONTINUOUS
 10
202.9428719889
 20
88.2361601042
 40
14.8
 50
297.8771706091
 51
8.0
  0
ARC
  8
0
 62
7
  6
CONTINUOUS
 10
191.6010004943
 20
151.0990317663
 40
6.0
 50
175.4216527464
 51
4.5783472536
  0
ARC
  8
0
 62
7
  6
CONTINUOUS
 10
219.3139140168
 20
101.4447457796
 40
3.25
 50
46.8499045791
 51
188.0
  0
ARC
  8
0
 62
7
  6
CONTINUOUS
 10
222.9044515719
 20
105.2749598814
 40
2.0
 50
226.8499045789
 51
282.0
  0
ARC
  8
0
 62
7
  6
CONTINUOUS
 10
209.3954434547
 20
76.0376224263
 40
1.0
 50
192.0
 51
297.8771706091
  0
ARC
  8
0
 62
7
  6
CONTINUOUS
 10
198.5231877252
 20
151.6533448966
 40
0.9443458372
 50
135.0
 51
184.5783472536
  0
ARC
  8
0
 62
7
  6
CONTINUOUS
 10
191.6010004943
 20
230.9194780986
 40
146.9007101227
 50
179.8008547938
 51
184.2024689016
  0
ARC
  8
0
 62
7
  6
CONTINUOUS
 10
191.6010004943
 20
230.9194780986
 40
146.9007101227
 50
11.8008547938
 51
16.2024689016
  0
ARC
  8
0
 62
7
  6
CONTINUOUS
 10
191.6010004943
 20
230.9194780986
 40
146.9007101227
 50
35.8008547938
 51
40.2024689016
  0
ARC
  8
0
 62
7
  6
CONTINUOUS
 10
191.6010004943
 20
230.9194780986
 40
146.9007101227
 50
227.8008547938
 51
232.2024689016
  0
ARC
  8
0
 62
7
  6
CONTINUOUS
 10
191.6010004943
 20
230.9194780986
 40
146.9007101227
 50
155.8008547938
 51
160.2024689016
  0
ARC
  8
0
 62
7
  6
CONTINUOUS
 10
191.6010004943
 20
230.9194780986
 40
146.9007101227
 50
323.8008547938
 51
328.2024689016
  0
ARC
  8
0
 62
7
  6
CONTINUOUS
 10
191.6010004943
 20
230.9194780986
 40
146.9007101227
 50
275.8008547938
 51
280.2024689016
  0
ARC
  8
0
 62
7
  6
CONTINUOUS
 10
191.6010004943
 20
230.9194780986
 40
146.9007101227
 50
83.8008547938
 51
88.2024689016
  0
ARC
  8
0
 62
7
  6
CONTINUOUS
 10
191.6010004943
 20
230.9194780986
 40
146.9007101227
 50
131.8008547938
 51
136.2024689016
  0
ARC
  8
0
 62
7
  6
CONTINUOUS
 10
191.6010004943
 20
230.9194780986
 40
146.9007101227
 50
203.8008547938
 51
208.2024689016
  0
ARC
  8
0
 62
7
  6
CONTINUOUS
 10
191.6010004943
 20
230.9194780986
 40
146.9007101227
 50
347.8008547938
 51
352.2024689016
  0
ARC
  8
0
 62
7
  6
CONTINUOUS
 10
191.6010004943
 20
230.9194780986
 40
146.9007101227
 50
59.8008547938
 51
64.2024689016
  0
ARC
  8
0
 62
7
  6
CONTINUOUS
 10
191.6010004943
 20
230.9194780986
 40
146.9007101227
 50
251.8008547938
 51
256.2024689016
  0
ARC
  8
0
 62
7
  6
CONTINUOUS
 10
191.6010004943
 20
230.9194780986
 40
146.9007101227
 50
107.8008547938
 51
112.2024689016
  0
ARC
  8
0
 62
7
  6
CONTINUOUS
 10
191.6010004943
 20
230.9194780986
 40
146.9007101227
 50
299.8008547938
 51
304.2024689016
  0
CIRCLE
  8
0
 62
7
  6
CONTINUOUS
 10
191.6010004943
 20
230.9194780986
 40
126.0
  0
CIRCLE
  8
0
 62
9
  6
CONTINUOUS
 10
191.6010004943
 20
230.9194780986
 40
124.0
  0
ARC
  8
0
 62
7
  6
CONTINUOUS
 10
256.0572447273
 20
202.0376272149
 40
6.0
 50
135.0
 51
168.1598440864
  0
ARC
  8
0
 62
7
  6
CONTINUOUS
 10
244.3125588067
 20
204.4998117383
 40
6.0
 50
315.0
 51
348.1598440864
  0
ARC
  8
0
 62
7
  6
CONTINUOUS
 10
218.0206668545
 20
178.2079197861
 40
6.0
 50
281.8401559136
 51
315.0
  0
ARC
  8
0
 62
7
  6
CONTINUOUS
 10
220.4828513779
 20
166.4632338656
 40
6.0
 50
101.8401559136
 51
135.0
  0
ARC
  8
0
 62
7
  6
CONTINUOUS
 10
303.2137117216
 20
129.18745958
 40
16.5
 50
60.0
 51
126.0
  0
ARC
  8
0
 62
7
  6
CONTINUOUS
 10
305.2245632942
 20
143.8743561242
 40
14.8
 50
345.8771706091
 51
56.0
  0
ARC
  8
0
 62
7
  6
CONTINUOUS
 10
269.5801247474
 20
123.9102819251
 40
3.25
 50
70.849904579
 51
212.0
  0
ARC
  8
0
 62
7
  6
CONTINUOUS
 10
271.3023555953
 20
128.8697598116
 40
2.0
 50
250.849904579
 51
306.0
  0
ARC
  8
0
 62
7
  6
CONTINUOUS
 10
318.6074565054
 20
140.5071363069
 40
1.0
 50
240.0
 51
345.8771706091
  0
ARC
  8
0
 62
7
  6
CONTINUOUS
 10
270.8531590815
 20
96.665514373
 40
1.0
 50
216.0
 51
321.8771706091
  0
ARC
  8
0
 62
7
  6
CONTINUOUS
 10
334.9424255568
 20
183.3796341733
 40
16.5
 50
84.0
 51
150.0
  0
ARC
  8
0
 62
7
  6
CONTINUOUS
 10
330.8057308793
 20
197.6146688165
 40
14.8
 50
9.8771706091
 51
80.0
  0
ARC
  8
0
 62
7
  6
CONTINUOUS
 10
271.4214468265
 20
230.9194780986
 40
6.0
 50
265.4216527464
 51
94.5783472536
  0
ARC
  8
0
 62
7
  6
CONTINUOUS
 10
323.3025496039
 20
217.266132461
 40
3.25
 50
118.8499045791
 51
260.0
  0
ARC
  8
0
 62
7
  6
CONTINUOUS
 10
306.3630364765
 20
164.878680237
 40
3.25
 50
94.849904579
 51
236.0
  0
ARC
  8
0
 62
7
  6
CONTINUOUS
 10
320.769336647
 20
221.8645378493
 40
2.0
 50
298.8499045789
 51
354.0
  0
ARC
  8
0
 62
7
  6
CONTINUOUS
 10
305.9191712576
 20
170.1098831261
 40
2.0
 50
274.849904579
 51
330.0
  0
ARC
  8
0
 62
7
  6
CONTINUOUS
 10
344.4011838675
 20
199.9818735068
 40
1.0
 50
264.0
 51
9.8771706091
  0
ARC
  8
0
 62
7
  6
CONTINUOUS
 10
270.8671336963
 20
223.9972908676
 40
0.9443458372
 50
85.4216527464
 51
135.0
  0
ARC
  8
0
 62
7
  6
CONTINUOUS
 10
223.897157296
 20
378.444930666
 40
16.5
 50
180.0
 51
246.0
  0
ARC
  8
0
 62
7
  6
CONTINUOUS
 10
281.1090151853
 20
352.5546547764
 40
16.5
 50
156.0
 51
222.0
  0
ARC
  8
0
 62
7
  6
CONTINUOUS
 10
322.8441241798
 20
305.6325518184
 40
16.5
 50
132.0
 51
198.0
  0
ARC
  8
0
 62
7
  6
CONTINUOUS
 10
341.8861047826
 20
245.7918796672
 40
16.5
 50
108.0
 51
174.0
  0
ARC
  8
0
 62
7
  6
CONTINUOUS
 10
210.1725059996
 20
372.8429309389
 40
14.8
 50
105.8771706091
 51
176.0
  0
ARC
  8
0
 62
7
  6
CONTINUOUS
 10
266.2923837723
 20
353.0192919677
 40
14.8
 50
81.8771706091
 51
152.0
  0
ARC
  8
0
 62
7
  6
CONTINUOUS
 10
309.4974428263
 20
312.0834859366
 40
14.8
 50
57.8771706091
 51
128.0
  0
ARC
  8
0
 62
7
  6
CONTINUOUS
 10
332.3171359455
 20
257.1136855983
 40
14.8
 50
33.8771706091
 51
104.0
  0
ARC
  8
0
 62
7
  6
CONTINUOUS
 10
220.4828513779
 20
295.3757223315
 40
6.0
 50
225.0
 51
258.1598440864
  0
ARC
  8
0
 62
7
  6
CONTINUOUS
 10
218.0206668545
 20
283.631036411
 40
6.0
 50
45.0
 51
78.1598440864
  0
ARC
  8
0
 62
7
  6
CONTINUOUS
 10
244.3125588067
 20
257.3391444588
 40
6.0
 50
11.8401559136
 51
45.0
  0
ARC
  8
0
 62
7
  6
CONTINUOUS
 10
256.0572447273
 20
259.8013289822
 40
6.0
 50
191.8401559136
 51
225.0
  0
ARC
  8
0
 62
7
  6
CONTINUOUS
 10
191.6010004943
 20
310.7399244308
 40
6.0
 50
355.4216527464
 51
184.5783472536
  0
CIRCLE
  8
0
 62
7
  6
CONTINUOUS
 10
191.6010004943
 20
350.4194780986
 40
4.0
  0
ARC
  8
0
 62
7
  6
CONTINUOUS
 10
245.2841206925
 20
351.9559787534
 40
3.25
 50
190.849904579
 51
332.0
  0
ARC
  8
0
 62
7
  6
CONTINUOUS
 10
289.8729510694
 20
319.6569313815
 40
3.25
 50
166.849904579
 51
308.0
  0
ARC
  8
0
 62
7
  6
CONTINUOUS
 10
317.4696684193
 20
272.0143721825
 40
3.25
 50
142.849904579
 51
284.0
  0
ARC
  8
0
 62
7
  6
CONTINUOUS
 10
191.4129911375
 20
363.32671558
 40
3.25
 50
214.849904579
 51
356.0
  0
ARC
  8
0
 62
7
  6
CONTINUOUS
 10
240.1279714293
 20
350.9677354755
 40
2.0
 50
10.849904579
 51
66.0
  0
ARC
  8
0
 62
7
  6
CONTINUOUS
 10
284.7606195778
 20
320.8513210664
 40
2.0
 50
346.849904579
 51
42.0
  0
ARC
  8
0
 62
7
  6
CONTINUOUS
 10
313.2851232581
 20
275.184874003
 40
2.0
 50
322.849904579
 51
18.0
  0
ARC
  8
0
 62
7
  6
CONTINUOUS
 10
206.397157296
 20
386.1164663446
 40
1.0
 50
0.0
 51
105.8771706091
  0
ARC
  8
0
 62
7
  6
CONTINUOUS
 10
268.2422643457
 20
366.6808426026
 40
1.0
 50
336.0
 51
81.8771706091
  0
ARC
  8
0
 62
7
  6
CONTINUOUS
 10
316.8354006115
 20
323.7708455846
 40
1.0
 50
312.0
 51
57.8771706091
  0
ARC
  8
0
 62
7
  6
CONTINUOUS
 10
343.7743713783
 20
264.8060036
 40
1.0
 50
288.0
 51
33.8771706091
  0
ARC
  8
0
 62
7
  6
CONTINUOUS
 10
198.5231877252
 20
310.1856113005
 40
0.9443458372
 50
175.4216527464
 51
225.0
  0
ARC
  8
0
 62
7
  6
CONTINUOUS
 10
270.8671336963
 20
237.8416653295
 40
0.9443458372
 50
225.0
 51
274.5783472536
  0
ARC
  8
0
 62
7
  6
CONTINUOUS
 10
475.1137048193
 20
106.9194780986
 40
2.0
 50
180.0
 51
270.0
  0
ARC
  8
0
 62
7
  6
CONTINUOUS
 10
475.1137048193
 20
354.9194780986
 40
2.0
 50
90.0
 51
180.0
  0
ARC
  8
0
 62
7
  6
CONTINUOUS
 10
521.1137048193
 20
106.9194780986
 40
2.0
 50
270.0
 51
360.0
  0
ARC
  8
0
 62
7
  6
CONTINUOUS
 10
521.1137048193
 20
354.9194780986
 40
2.0
 50
0.0
 51
90.0
  0
ENDSEC
  0
EOF
