  0
SECTION
  2
HEADER
  9
$EXTMAX
 10
594.0
 20
420.0
 30
0.0
  9
$EXTMIN
 10
0.0
 20
0.0
 30
0.0
  9
$LIMMIN
 10
0.0
 20
0.0
  9
$LIMMAX
 10
594.0
 20
420.0
  9
$VIEWCTR
 10
297.0
 20
210.0
  9
$VIEWSIZE
 40
420.0
  9
$CLAYER
  8
0
  9
$LTSCALE
 40
32.67
  9
$CELTYPE
  6
BYLAYER
  9
$DIMSCALE
 40
1.0
  9
$DIMASZ
 40
3.5
  9
$DIMEXO
 40
0.0
  9
$DIMDLI
 40
22.572
  9
$DIMEXE
 40
2.0
  9
$DIMCEN
 40
5.346
  9
$DIMLFAC
 40
1.0
  9
$DIMBLK
  1
_FILLED
  9
$DIMALT
 70
0
  9
$DIMALTF
 40
0.0393700787
  9
$DIMTXT
 40
3.5
  9
$AUNITS
 70
0
  9
$PDMODE
 70
3
  9
$PDSIZE
 40
0.3125
  9
$TILEMODE
 70
1
  0
ENDSEC
  0
SECTION
  2
TABLES
  0
TABLE
  2
LTYPE
 70
6
  0
LTYPE
  2
BYBLOCK
 70
0
  3

 72
65
 73
0
 40
0.0
  0
LTYPE
  2
BYLAYER
 70
0
  3

 72
65
 73
0
 40
0.0
  0
LTYPE
  2
CONTINUOUS
 70
64
  3
Solid line
 72
65
 73
0
 40
0.0
  0
LTYPE
  2
CENTER
 70
64
  3
____ _ ____ _ ____ _ ____ _ ____ _ ____ _ ____
 72
65
 73
4
 40
0.6
 49
0.375
 49
-0.075
 49
0.075
 49
-0.075
  0
LTYPE
  2
HIDDEN
 70
64
  3
- - - - - - - - - - - - - - - - - - - -
 72
65
 73
2
 40
0.2
 49
0.1
 49
-0.1
  0
LTYPE
  2
PHANTOM
 70
64
  3
_____ _ _ _____ _ _ _____ _ _ _____
 72
65
 73
6
 40
0.8
 49
0.45
 49
-0.05
 49
0.1
 49
-0.05
 49
0.1
 49
-0.05
  0
LTYPE
  2
DOT
 70
64
  3
. . . . . . . . . . . . . . . . . . . .
 72
65
 73
2
 40
0.2
 49
0.1
 49
-0.1
  0
LTYPE
  2
DASHED
 70
64
  3
- - - - - - - - - - - - - - - - - - - -
 72
65
 73
2
 40
0.2
 49
0.1
 49
-0.1
  0
ENDTAB
  0
TABLE
  2
LAYER
 70
36
  0
LAYER
  2
0
 70
0
 62
7
  6
CONTINUOUS
  0
LAYER
  2
DEFAULT_1
 70
0
 62
7
  6
CENTER
  0
LAYER
  2
DEFAULT_2
 70
0
 62
8
  6
HIDDEN
  0
LAYER
  2
DEFAULT_3
 70
0
 62
7
  6
PHANTOM
  0
LAYER
  2
1_CSYS
 70
0
 62
7
  6
CONTINUOUS
  0
LAYER
  2
1_DATUM_PLANE
 70
0
 62
7
  6
CONTINUOUS
  0
LAYER
  2
2_FEATURE
 70
0
 62
7
  6
CONTINUOUS
  0
LAYER
  2
6_DIM
 70
0
 62
7
  6
CONTINUOUS
  0
LAYER
  2
AXES
 70
0
 62
7
  6
CONTINUOUS
  0
LAYER
  2
BLANK_BELT
 70
0
 62
7
  6
CONTINUOUS
  0
LAYER
  2
BLANK_CURVE_BORE
 70
0
 62
7
  6
CONTINUOUS
  0
LAYER
  2
BLANK_PLAN
 70
0
 62
7
  6
CONTINUOUS
  0
LAYER
  2
BLANK_SQ
 70
0
 62
7
  6
CONTINUOUS
  0
LAYER
  2
CSYS
 70
0
 62
7
  6
CONTINUOUS
  0
LAYER
  2
DTM_AXES
 70
0
 62
7
  6
CONTINUOUS
  0
LAYER
  2
DTM_CRV
 70
0
 62
7
  6
CONTINUOUS
  0
LAYER
  2
NOTES
 70
0
 62
7
  6
CONTINUOUS
  0
LAYER
  2
OUTERLINE
 70
0
 62
7
  6
CONTINUOUS
  0
LAYER
  2
PITCH_LINE
 70
0
 62
7
  6
CONTINUOUS
  0
LAYER
  2
PLANES
 70
0
 62
7
  6
CONTINUOUS
  0
LAYER
  2
QUILTS
 70
0
 62
7
  6
CONTINUOUS
  0
ENDTAB
  0
TABLE
  2
STYLE
 70
1
  0
STYLE
  2
STANDARD
 70
0
 40
0.0
 41
0.8
 50
0.0
 71
0
 42
0.2
  3
txt
  4

  0
STYLE
  2
TEXTSTYLE_1
 70
0
 40
0.0
 41
0.8
 50
0.0
 71
0
 42
0.2
  3
gdt
  4

  0
STYLE
  2
TEXTSTYLE_2
 70
0
 40
0.0
 41
0.6
 50
0.0
 71
0
 42
0.2
  3
txt
  4

  0
STYLE
  2
TEXTSTYLE_3
 70
0
 40
0.0
 41
1.0
 50
0.0
 71
0
 42
0.2
  3
ftb_____.ttf
  4

  0
STYLE
  2
TEXTSTYLE_4
 70
0
 40
0.0
 41
1.0
 50
0.0
 71
0
 42
0.2
  3
fti_____.ttf
  4

  0
STYLE
  2
TEXTSTYLE_5
 70
0
 40
0.0
 41
1.0
 50
0.0
 71
0
 42
0.2
  3
frutiger light.ttf
  4

  0
STYLE
  2
TEXTSTYLE_6
 70
0
 40
0.0
 41
0.7
 50
0.0
 71
0
 42
0.2
  3
txt
  4

  0
STYLE
  2
TEXTSTYLE_7
 70
0
 40
0.0
 41
0.8
 50
0.0
 71
0
 42
0.2
  3
txt
  4

  0
ENDTAB
  0
ENDSEC
  0
SECTION
  2
BLOCKS
  0
BLOCK
  8
0
 62
2
  6
CONTINUOUS
  2
UNI_LOGO2_BL1
 70
64
 10
557.4079930916
 20
35.8092573885
  0
TEXT
  8
0
 62
7
  6
CONTINUOUS
 10
548.4662781001
 20
30.9020137655
  7
TEXTSTYLE_4
 40
1.0655737705
  1
The brand for plastic modular belts and chains
 41
1.0
 72
0
  0
LINE
  8
0
 62
7
  6
CONTINUOUS
 10
533.3860614807
 20
36.3830278803
 11
533.3860614807
 21
34.2518803393
  0
LINE
  8
0
 62
7
  6
CONTINUOUS
 10
533.6751239738
 20
31.2609490436
 11
533.6751239738
 21
31.3577401029
  0
LINE
  8
0
 62
7
  6
CONTINUOUS
 10
533.3860614807
 20
31.3254764164
 11
533.4438739824
 21
31.1318942979
  0
LINE
  8
0
 62
7
  6
CONTINUOUS
 10
534.7795041036
 20
34.1699131262
 11
534.7795041036
 21
36.3830278803
  0
LINE
  8
0
 62
7
  6
CONTINUOUS
 10
535.6985614255
 20
32.3256508311
 11
535.6985614255
 21
30.8092573885
  0
LINE
  8
0
 62
7
  6
CONTINUOUS
 10
535.9876239807
 20
30.8092573885
 11
535.9876239807
 21
31.5513222666
  0
LINE
  8
0
 62
7
  6
CONTINUOUS
 10
535.9876239807
 20
31.6803770123
 11
535.9876239807
 21
32.3256508311
  0
LINE
  8
0
 62
7
  6
CONTINUOUS
 10
533.4438739824
 20
31.5190585802
 11
533.3860614807
 21
31.3254764164
  0
LINE
  8
0
 62
7
  6
CONTINUOUS
 10
533.7907489669
 20
31.0996306115
 11
533.6751239738
 21
31.2609490436
  0
LINE
  8
0
 62
7
  6
CONTINUOUS
 10
534.8891865358
 20
31.6158496394
 11
534.9469989807
 21
31.5190585802
  0
LINE
  8
0
 62
7
  6
CONTINUOUS
 10
535.2360615358
 20
31.5190585802
 11
535.1782489255
 21
31.6481133259
  0
LINE
  8
0
 62
7
  6
CONTINUOUS
 10
536.6647500053
 20
36.3830278803
 11
536.6647500053
 21
34.5797491918
  0
LINE
  8
0
 62
7
  6
CONTINUOUS
 10
536.6647500053
 20
33.2682737819
 11
536.6647500053
 21
32.612536077
  0
LINE
  8
0
 62
7
  6
CONTINUOUS
 10
537.0282489807
 20
31.4545312073
 11
537.0282489807
 21
30.8092573885
  0
LINE
  8
0
 62
7
  6
CONTINUOUS
 10
537.3173113704
 20
30.8092573885
 11
537.3173113704
 21
31.4545312073
  0
LINE
  8
0
 62
7
  6
CONTINUOUS
 10
533.6751239738
 20
31.3577401029
 11
533.7329364807
 21
31.4867948937
  0
LINE
  8
0
 62
7
  6
CONTINUOUS
 10
533.4438739824
 20
31.1318942979
 11
533.5594989807
 21
31.0028395296
  0
LINE
  8
0
 62
7
  6
CONTINUOUS
 10
536.9704363704
 20
31.583585953
 11
537.0282489807
 21
31.4545312073
  0
LINE
  8
0
 62
7
  6
CONTINUOUS
 10
537.7798115909
 20
31.0996306115
 11
537.8376238704
 21
30.9705758432
  0
LINE
  8
0
 62
7
  6
CONTINUOUS
 10
537.3173113704
 20
31.4545312073
 11
537.2594990909
 21
31.6158496394
  0
LINE
  8
0
 62
7
  6
CONTINUOUS
 10
537.7798115909
 20
31.6481133259
 11
537.7798115909
 21
31.583585953
  0
LINE
  8
0
 62
7
  6
CONTINUOUS
 10
537.7798115909
 20
31.1964216708
 11
537.7798115909
 21
31.0996306115
  0
LINE
  8
0
 62
7
  6
CONTINUOUS
 10
538.0581926282
 20
32.612536077
 11
538.0581926282
 21
36.3830278803
  0
LINE
  8
0
 62
7
  6
CONTINUOUS
 10
538.0688739807
 20
31.0673669025
 11
538.0688739807
 21
31.1318942979
  0
LINE
  8
0
 62
7
  6
CONTINUOUS
 10
538.3860614807
 20
36.3830278803
 11
538.3860614807
 21
32.612536077
  0
LINE
  8
0
 62
7
  6
CONTINUOUS
 10
535.1782489255
 20
31.0028395296
 11
535.2360615358
 21
31.1318942979
  0
LINE
  8
0
 62
7
  6
CONTINUOUS
 10
539.5719992012
 20
30.9060484591
 11
539.5141862601
 21
31.0673669025
  0
LINE
  8
0
 62
7
  6
CONTINUOUS
 10
539.2251242012
 20
31.583585953
 11
539.2251242012
 21
31.4867948937
  0
LINE
  8
0
 62
7
  6
CONTINUOUS
 10
539.2251242012
 20
31.3577401029
 11
539.2251242012
 21
31.1641579843
  0
LINE
  8
0
 62
7
  6
CONTINUOUS
 10
539.5141862601
 20
31.0673669025
 11
539.5141862601
 21
31.583585953
  0
LINE
  8
0
 62
7
  6
CONTINUOUS
 10
539.7795041036
 20
32.612536077
 11
539.7795041036
 21
34.4158147655
  0
LINE
  8
0
 62
7
  6
CONTINUOUS
 10
539.7795041036
 20
35.7272901754
 11
539.7795041036
 21
36.3830278803
  0
LINE
  8
0
 62
7
  6
CONTINUOUS
 10
540.0923117012
 20
32.3256508311
 11
540.0923117012
 21
32.164332399
  0
LINE
  8
0
 62
7
  6
CONTINUOUS
 10
540.0923117012
 20
31.8416954444
 11
540.0923117012
 21
30.8092573885
  0
LINE
  8
0
 62
7
  6
CONTINUOUS
 10
540.3813737601
 20
30.8092573885
 11
540.3813737601
 21
31.8416954444
  0
LINE
  8
0
 62
7
  6
CONTINUOUS
 10
540.3813737601
 20
32.164332399
 11
540.3813737601
 21
32.3256508311
  0
LINE
  8
0
 62
7
  6
CONTINUOUS
 10
534.9469989807
 20
31.1318942979
 11
534.8891865358
 21
31.035103216
  0
LINE
  8
0
 62
7
  6
CONTINUOUS
 10
537.2594990909
 20
31.6158496394
 11
537.2016864807
 21
31.6803770123
  0
LINE
  8
0
 62
7
  6
CONTINUOUS
 10
538.1266865909
 20
31.0028395296
 11
538.0688739807
 21
31.0673669025
  0
LINE
  8
0
 62
7
  6
CONTINUOUS
 10
539.2829364807
 20
30.873784767
 11
539.3407487601
 21
30.8092573885
  0
LINE
  8
0
 62
7
  6
CONTINUOUS
 10
539.2251242012
 20
30.9705758432
 11
539.2829364807
 21
30.873784767
  0
LINE
  8
0
 62
7
  6
CONTINUOUS
 10
539.6298114807
 20
30.8092573885
 11
539.5719992012
 21
30.9060484591
  0
LINE
  8
0
 62
7
  6
CONTINUOUS
 10
539.5141862601
 20
31.583585953
 11
539.4563739807
 21
31.6803770123
  0
LINE
  8
0
 62
7
  6
CONTINUOUS
 10
540.8438739807
 20
31.8416954444
 11
540.8438739807
 21
30.8092573885
  0
LINE
  8
0
 62
7
  6
CONTINUOUS
 10
541.1329367012
 20
30.8092573885
 11
541.1329367012
 21
31.5513222666
  0
LINE
  8
0
 62
7
  6
CONTINUOUS
 10
541.1329367012
 20
31.6803770123
 11
541.1329367012
 21
31.8416954444
  0
LINE
  8
0
 62
7
  6
CONTINUOUS
 10
541.6647500053
 20
34.8256508311
 11
541.6647500053
 21
32.612536077
  0
LINE
  8
0
 62
7
  6
CONTINUOUS
 10
533.5594989807
 20
31.6481133259
 11
533.4438739824
 21
31.5190585802
  0
LINE
  8
0
 62
7
  6
CONTINUOUS
 10
533.7329364807
 20
31.4867948937
 11
533.7907489669
 21
31.5513222666
  0
LINE
  8
0
 62
7
  6
CONTINUOUS
 10
533.5594989807
 20
31.0028395296
 11
533.6751239738
 21
30.9383121455
  0
LINE
  8
0
 62
7
  6
CONTINUOUS
 10
533.9641864669
 20
31.0028395296
 11
533.7907489669
 21
31.0996306115
  0
LINE
  8
0
 62
7
  6
CONTINUOUS
 10
539.1673112601
 20
31.6481133259
 11
539.2251242012
 21
31.583585953
  0
LINE
  8
0
 62
7
  6
CONTINUOUS
 10
542.1157487601
 20
31.583585953
 11
542.1735617012
 21
31.4222675209
  0
LINE
  8
0
 62
7
  6
CONTINUOUS
 10
542.4626237601
 20
31.4222675209
 11
542.4048114807
 21
31.583585953
  0
LINE
  8
0
 62
7
  6
CONTINUOUS
 10
542.1735617012
 20
31.4222675209
 11
542.1735617012
 21
30.8092573885
  0
LINE
  8
0
 62
7
  6
CONTINUOUS
 10
542.4626237601
 20
30.8092573885
 11
542.4626237601
 21
31.4222675209
  0
LINE
  8
0
 62
7
  6
CONTINUOUS
 10
542.9251239807
 20
31.6481133259
 11
542.9251239807
 21
31.583585953
  0
LINE
  8
0
 62
7
  6
CONTINUOUS
 10
543.0581926282
 20
32.612536077
 11
543.0581926282
 21
34.743683618
  0
LINE
  8
0
 62
7
  6
CONTINUOUS
 10
543.3860614807
 20
36.3830278803
 11
543.3860614807
 21
32.612536077
  0
LINE
  8
0
 62
7
  6
CONTINUOUS
 10
538.0688739807
 20
31.1318942979
 11
538.1266865909
 21
31.2286853572
  0
LINE
  8
0
 62
7
  6
CONTINUOUS
 10
533.6751239738
 20
30.9383121455
 11
533.8485614944
 21
30.873784767
  0
LINE
  8
0
 62
7
  6
CONTINUOUS
 10
535.1782489255
 20
31.6481133259
 11
535.0048114255
 21
31.7449043851
  0
LINE
  8
0
 62
7
  6
CONTINUOUS
 10
537.8376238704
 20
30.9705758432
 11
538.0110613704
 21
30.873784767
  0
LINE
  8
0
 62
7
  6
CONTINUOUS
 10
536.8548114807
 20
31.6481133259
 11
536.9704363704
 21
31.583585953
  0
LINE
  8
0
 62
7
  6
CONTINUOUS
 10
537.2016864807
 20
31.6803770123
 11
537.0860615909
 21
31.7449043851
  0
LINE
  8
0
 62
7
  6
CONTINUOUS
 10
542.9251239807
 20
31.0673669025
 11
543.0407492012
 21
30.9383121455
  0
LINE
  8
0
 62
7
  6
CONTINUOUS
 10
543.2719989807
 20
31.0028395296
 11
543.2141867012
 21
31.0673669025
  0
LINE
  8
0
 62
7
  6
CONTINUOUS
 10
542.9251239807
 20
31.583585953
 11
543.0407492012
 21
31.4545312073
  0
LINE
  8
0
 62
7
  6
CONTINUOUS
 10
542.4048114807
 20
31.583585953
 11
542.3469992012
 21
31.6803770123
  0
LINE
  8
0
 62
7
  6
CONTINUOUS
 10
544.7751235396
 20
31.0028395296
 11
544.7751235396
 21
31.0673669025
  0
LINE
  8
0
 62
7
  6
CONTINUOUS
 10
544.7795041036
 20
32.612536077
 11
544.7795041036
 21
36.3830278803
  0
LINE
  8
0
 62
7
  6
CONTINUOUS
 10
537.8376238704
 20
31.7126406987
 11
537.7798115909
 21
31.6481133259
  0
LINE
  8
0
 62
7
  6
CONTINUOUS
 10
534.7157489531
 20
31.6803770123
 11
534.8891865358
 21
31.6158496394
  0
LINE
  8
0
 62
7
  6
CONTINUOUS
 10
539.4563739807
 20
31.6803770123
 11
539.3407487601
 21
31.7449043851
  0
LINE
  8
0
 62
7
  6
CONTINUOUS
 10
543.2719989807
 20
31.5190585802
 11
543.2141867012
 21
31.583585953
  0
LINE
  8
0
 62
7
  6
CONTINUOUS
 10
544.4282492012
 20
31.1318942979
 11
544.4860614807
 21
31.0673669025
  0
LINE
  8
0
 62
7
  6
CONTINUOUS
 10
544.7751235396
 20
31.0673669025
 11
544.6594989807
 21
31.1964216708
  0
LINE
  8
0
 62
7
  6
CONTINUOUS
 10
544.4282492012
 20
31.6481133259
 11
544.4860614807
 21
31.583585953
  0
LINE
  8
0
 62
7
  6
CONTINUOUS
 10
544.7751235396
 20
31.583585953
 11
544.6594989807
 21
31.7126406987
  0
LINE
  8
0
 62
7
  6
CONTINUOUS
 10
538.0688739807
 20
31.583585953
 11
538.1266865909
 21
31.6481133259
  0
LINE
  8
0
 62
7
  6
CONTINUOUS
 10
537.8954364807
 20
31.3254764164
 11
537.7798115909
 21
31.1964216708
  0
LINE
  8
0
 62
7
  6
CONTINUOUS
 10
539.2251242012
 20
31.1641579843
 11
539.1673112601
 21
31.0996306115
  0
LINE
  8
0
 62
7
  6
CONTINUOUS
 10
539.1673112601
 20
30.9060484591
 11
539.2251242012
 21
30.9705758432
  0
LINE
  8
0
 62
7
  6
CONTINUOUS
 10
538.0110613704
 20
30.873784767
 11
538.1266865909
 21
30.8415210777
  0
LINE
  8
0
 62
7
  6
CONTINUOUS
 10
535.0048114255
 20
31.7449043851
 11
534.7735614807
 21
31.809431758
  0
LINE
  8
0
 62
7
  6
CONTINUOUS
 10
538.3579363704
 20
30.9383121455
 11
538.1266865909
 21
31.0028395296
  0
LINE
  8
0
 62
7
  6
CONTINUOUS
 10
537.0860615909
 20
31.7449043851
 11
536.9126240909
 21
31.809431758
  0
LINE
  8
0
 62
7
  6
CONTINUOUS
 10
539.3407487601
 20
31.7449043851
 11
539.1673112601
 21
31.809431758
  0
LINE
  8
0
 62
7
  6
CONTINUOUS
 10
542.0001242012
 20
31.6481133259
 11
542.1157487601
 21
31.583585953
  0
LINE
  8
0
 62
7
  6
CONTINUOUS
 10
542.3469992012
 20
31.6803770123
 11
542.2313739807
 21
31.7449043851
  0
LINE
  8
0
 62
7
  6
CONTINUOUS
 10
533.8485614944
 20
30.873784767
 11
534.0219989944
 21
30.8415210777
  0
LINE
  8
0
 62
7
  6
CONTINUOUS
 10
534.3110615082
 20
30.9383121455
 11
533.9641864669
 21
31.0028395296
  0
LINE
  8
0
 62
7
  6
CONTINUOUS
 10
536.7391865909
 20
31.6803770123
 11
536.8548114807
 21
31.6481133259
  0
LINE
  8
0
 62
7
  6
CONTINUOUS
 10
539.0516867012
 20
31.6803770123
 11
539.1673112601
 21
31.6481133259
  0
LINE
  8
0
 62
7
  6
CONTINUOUS
 10
543.3876242012
 20
30.9705758432
 11
543.2719989807
 21
31.0028395296
  0
LINE
  8
0
 62
7
  6
CONTINUOUS
 10
541.8844989807
 20
31.6803770123
 11
542.0001242012
 21
31.6481133259
  0
LINE
  8
0
 62
7
  6
CONTINUOUS
 10
543.0407492012
 20
30.9383121455
 11
543.2141867012
 21
30.873784767
  0
LINE
  8
0
 62
7
  6
CONTINUOUS
 10
542.2313739807
 20
31.7449043851
 11
542.0579364807
 21
31.809431758
  0
LINE
  8
0
 62
7
  6
CONTINUOUS
 10
543.4454364807
 20
31.4545312073
 11
543.2719989807
 21
31.5190585802
  0
LINE
  8
0
 62
7
  6
CONTINUOUS
 10
544.2548117012
 20
31.1964216708
 11
544.4282492012
 21
31.1318942979
  0
LINE
  8
0
 62
7
  6
CONTINUOUS
 10
544.6594989807
 20
31.7126406987
 11
544.4860614807
 21
31.7771680715
  0
LINE
  8
0
 62
7
  6
CONTINUOUS
 10
543.0407492012
 20
31.4545312073
 11
543.2719989807
 21
31.3577401029
  0
LINE
  8
0
 62
7
  6
CONTINUOUS
 10
544.6594989807
 20
31.1964216708
 11
544.4282492012
 21
31.29321273
  0
LINE
  8
0
 62
7
  6
CONTINUOUS
 10
543.2141867012
 20
31.583585953
 11
543.2719989807
 21
31.6481133259
  0
LINE
  8
0
 62
7
  6
CONTINUOUS
 10
533.6751239738
 20
31.7126406987
 11
533.5594989807
 21
31.6481133259
  0
LINE
  8
0
 62
7
  6
CONTINUOUS
 10
533.7907489669
 20
31.5513222666
 11
533.9641864669
 21
31.6481133259
  0
LINE
  8
0
 62
7
  6
CONTINUOUS
 10
536.1032490358
 20
31.7449043851
 11
535.9876239807
 21
31.6803770123
  0
LINE
  8
0
 62
7
  6
CONTINUOUS
 10
535.9876239807
 20
31.5513222666
 11
536.1032490358
 21
31.6158496394
  0
LINE
  8
0
 62
7
  6
CONTINUOUS
 10
535.0048114255
 20
30.9060484591
 11
535.1782489255
 21
31.0028395296
  0
LINE
  8
0
 62
7
  6
CONTINUOUS
 10
534.0219989944
 20
30.8415210777
 11
534.3688739531
 21
30.8092573885
  0
LINE
  8
0
 62
7
  6
CONTINUOUS
 10
538.1266865909
 20
30.8415210777
 11
538.3579363704
 21
30.8092573885
  0
LINE
  8
0
 62
7
  6
CONTINUOUS
 10
536.5079364807
 20
31.7126406987
 11
536.7391865909
 21
31.6803770123
  0
LINE
  8
0
 62
7
  6
CONTINUOUS
 10
538.8204365909
 20
31.7126406987
 11
539.0516867012
 21
31.6803770123
  0
LINE
  8
0
 62
7
  6
CONTINUOUS
 10
543.2719989807
 20
31.3577401029
 11
544.2548117012
 21
31.1964216708
  0
LINE
  8
0
 62
7
  6
CONTINUOUS
 10
544.4282492012
 20
31.29321273
 11
543.4454364807
 21
31.4545312073
  0
LINE
  8
0
 62
7
  6
CONTINUOUS
 10
536.9126240909
 20
31.809431758
 11
536.7391865909
 21
31.8416954444
  0
LINE
  8
0
 62
7
  6
CONTINUOUS
 10
543.2141867012
 20
30.873784767
 11
543.3876242012
 21
30.8415210777
  0
LINE
  8
0
 62
7
  6
CONTINUOUS
 10
542.0579364807
 20
31.809431758
 11
541.8844989807
 21
31.8416954444
  0
LINE
  8
0
 62
7
  6
CONTINUOUS
 10
544.3126239807
 20
31.6803770123
 11
544.4282492012
 21
31.6481133259
  0
LINE
  8
0
 62
7
  6
CONTINUOUS
 10
544.4860614807
 20
31.0673669025
 11
544.4282492012
 21
31.0028395296
  0
LINE
  8
0
 62
7
  6
CONTINUOUS
 10
543.0407492012
 20
31.7449043851
 11
542.9251239807
 21
31.6481133259
  0
LINE
  8
0
 62
7
  6
CONTINUOUS
 10
537.9532490909
 20
31.7771680715
 11
537.8376238704
 21
31.7126406987
  0
LINE
  8
0
 62
7
  6
CONTINUOUS
 10
538.0110613704
 20
31.3900038345
 11
537.8954364807
 21
31.3254764164
  0
LINE
  8
0
 62
7
  6
CONTINUOUS
 10
538.1266865909
 20
31.2286853572
 11
538.2423114807
 21
31.29321273
  0
LINE
  8
0
 62
7
  6
CONTINUOUS
 10
535.6985614255
 20
30.8092573885
 11
535.9876239807
 21
30.8092573885
  0
LINE
  8
0
 62
7
  6
CONTINUOUS
 10
537.0282489807
 20
30.8092573885
 11
537.3173113704
 21
30.8092573885
  0
LINE
  8
0
 62
7
  6
CONTINUOUS
 10
538.3579363704
 20
30.8092573885
 11
538.7048113704
 21
30.8092573885
  0
LINE
  8
0
 62
7
  6
CONTINUOUS
 10
539.3407487601
 20
30.8092573885
 11
539.6298114807
 21
30.8092573885
  0
LINE
  8
0
 62
7
  6
CONTINUOUS
 10
540.0923117012
 20
30.8092573885
 11
540.3813737601
 21
30.8092573885
  0
LINE
  8
0
 62
7
  6
CONTINUOUS
 10
540.8438739807
 20
30.8092573885
 11
541.1329367012
 21
30.8092573885
  0
LINE
  8
0
 62
7
  6
CONTINUOUS
 10
542.1735617012
 20
30.8092573885
 11
542.4626237601
 21
30.8092573885
  0
LINE
  8
0
 62
7
  6
CONTINUOUS
 10
543.7344992012
 20
30.8092573885
 11
544.0813742012
 21
30.8092573885
  0
LINE
  8
0
 62
7
  6
CONTINUOUS
 10
544.0813742012
 20
30.9383121455
 11
543.7344992012
 21
30.9383121455
  0
LINE
  8
0
 62
7
  6
CONTINUOUS
 10
538.7048113704
 20
30.9383121455
 11
538.3579363704
 21
30.9383121455
  0
LINE
  8
0
 62
7
  6
CONTINUOUS
 10
543.2141867012
 20
31.0673669025
 11
542.9251239807
 21
31.0673669025
  0
LINE
  8
0
 62
7
  6
CONTINUOUS
 10
535.2360615358
 20
31.1318942979
 11
534.9469989807
 21
31.1318942979
  0
LINE
  8
0
 62
7
  6
CONTINUOUS
 10
534.3110615082
 20
31.7126406987
 11
534.7157489531
 21
31.6803770123
  0
LINE
  8
0
 62
7
  6
CONTINUOUS
 10
534.7735614807
 20
31.809431758
 11
534.3688739531
 21
31.8416954444
  0
LINE
  8
0
 62
7
  6
CONTINUOUS
 10
543.3876242012
 20
30.8415210777
 11
543.7344992012
 21
30.8092573885
  0
LINE
  8
0
 62
7
  6
CONTINUOUS
 10
543.7344992012
 20
30.9383121455
 11
543.3876242012
 21
30.9705758432
  0
LINE
  8
0
 62
7
  6
CONTINUOUS
 10
539.1673112601
 20
31.809431758
 11
538.8204365909
 21
31.8416954444
  0
LINE
  8
0
 62
7
  6
CONTINUOUS
 10
543.9657489807
 20
31.7126406987
 11
544.3126239807
 21
31.6803770123
  0
LINE
  8
0
 62
7
  6
CONTINUOUS
 10
544.3126239807
 20
31.809431758
 11
543.9657489807
 21
31.8416954444
  0
LINE
  8
0
 62
7
  6
CONTINUOUS
 10
541.6532492012
 20
31.7126406987
 11
541.8844989807
 21
31.6803770123
  0
LINE
  8
0
 62
7
  6
CONTINUOUS
 10
544.4860614807
 20
31.7771680715
 11
544.3126239807
 21
31.809431758
  0
LINE
  8
0
 62
7
  6
CONTINUOUS
 10
544.6594989807
 20
30.9060484591
 11
544.7751235396
 21
31.0028395296
  0
LINE
  8
0
 62
7
  6
CONTINUOUS
 10
539.1673112601
 20
31.0996306115
 11
538.9938737601
 21
31.0028395296
  0
LINE
  8
0
 62
7
  6
CONTINUOUS
 10
541.2485612601
 20
31.7449043851
 11
541.1329367012
 21
31.6803770123
  0
LINE
  8
0
 62
7
  6
CONTINUOUS
 10
541.1329367012
 20
31.5513222666
 11
541.2485612601
 21
31.6158496394
  0
LINE
  8
0
 62
7
  6
CONTINUOUS
 10
533.8485614944
 20
31.7771680715
 11
533.6751239738
 21
31.7126406987
  0
LINE
  8
0
 62
7
  6
CONTINUOUS
 10
536.2766863704
 20
31.809431758
 11
536.1032490358
 21
31.7449043851
  0
LINE
  8
0
 62
7
  6
CONTINUOUS
 10
536.1032490358
 20
31.6158496394
 11
536.2766863704
 21
31.6803770123
  0
LINE
  8
0
 62
7
  6
CONTINUOUS
 10
534.8891865358
 20
31.035103216
 11
534.7157489531
 21
30.9705758432
  0
LINE
  8
0
 62
7
  6
CONTINUOUS
 10
544.3126239807
 20
30.9705758432
 11
544.0813742012
 21
30.9383121455
  0
LINE
  8
0
 62
7
  6
CONTINUOUS
 10
538.7048113704
 20
30.8092573885
 11
538.9938737601
 21
30.8415210777
  0
LINE
  8
0
 62
7
  6
CONTINUOUS
 10
544.0813742012
 20
30.8092573885
 11
544.4282492012
 21
30.8415210777
  0
LINE
  8
0
 62
7
  6
CONTINUOUS
 10
534.3688739531
 20
30.8092573885
 11
534.7735614807
 21
30.8415210777
  0
LINE
  8
0
 62
7
  6
CONTINUOUS
 10
534.7157489531
 20
30.9705758432
 11
534.3110615082
 21
30.9383121455
  0
LINE
  8
0
 62
7
  6
CONTINUOUS
 10
538.5891864807
 20
31.3577401029
 11
539.2251242012
 21
31.3577401029
  0
LINE
  8
0
 62
7
  6
CONTINUOUS
 10
539.2251242012
 20
31.4867948937
 11
538.5891864807
 21
31.4867948937
  0
LINE
  8
0
 62
7
  6
CONTINUOUS
 10
534.9469989807
 20
31.5190585802
 11
535.2360615358
 21
31.5190585802
  0
LINE
  8
0
 62
7
  6
CONTINUOUS
 10
537.7798115909
 20
31.583585953
 11
538.0688739807
 21
31.583585953
  0
LINE
  8
0
 62
7
  6
CONTINUOUS
 10
544.4860614807
 20
31.583585953
 11
544.7751235396
 21
31.583585953
  0
LINE
  8
0
 62
7
  6
CONTINUOUS
 10
538.4735615909
 20
31.7126406987
 11
538.8204365909
 21
31.7126406987
  0
LINE
  8
0
 62
7
  6
CONTINUOUS
 10
543.6188739807
 20
31.7126406987
 11
543.9657489807
 21
31.7126406987
  0
LINE
  8
0
 62
7
  6
CONTINUOUS
 10
543.9657489807
 20
31.8416954444
 11
543.6188739807
 21
31.8416954444
  0
LINE
  8
0
 62
7
  6
CONTINUOUS
 10
541.8844989807
 20
31.8416954444
 11
541.6532492012
 21
31.8416954444
  0
LINE
  8
0
 62
7
  6
CONTINUOUS
 10
541.1329367012
 20
31.8416954444
 11
540.8438739807
 21
31.8416954444
  0
LINE
  8
0
 62
7
  6
CONTINUOUS
 10
540.3813737601
 20
31.8416954444
 11
540.0923117012
 21
31.8416954444
  0
LINE
  8
0
 62
7
  6
CONTINUOUS
 10
538.8204365909
 20
31.8416954444
 11
538.4735615909
 21
31.8416954444
  0
LINE
  8
0
 62
7
  6
CONTINUOUS
 10
536.7391865909
 20
31.8416954444
 11
536.5079364807
 21
31.8416954444
  0
LINE
  8
0
 62
7
  6
CONTINUOUS
 10
540.0923117012
 20
32.164332399
 11
540.3813737601
 21
32.164332399
  0
LINE
  8
0
 62
7
  6
CONTINUOUS
 10
540.3813737601
 20
32.3256508311
 11
540.0923117012
 21
32.3256508311
  0
LINE
  8
0
 62
7
  6
CONTINUOUS
 10
535.9876239807
 20
32.3256508311
 11
535.6985614255
 21
32.3256508311
  0
LINE
  8
0
 62
7
  6
CONTINUOUS
 10
535.025405743
 20
32.612536077
 11
535.4379770916
 21
32.612536077
  0
LINE
  8
0
 62
7
  6
CONTINUOUS
 10
536.6647500053
 20
32.612536077
 11
538.0581926282
 21
32.612536077
  0
LINE
  8
0
 62
7
  6
CONTINUOUS
 10
538.3860614807
 20
32.612536077
 11
539.7795041036
 21
32.612536077
  0
LINE
  8
0
 62
7
  6
CONTINUOUS
 10
541.6647500053
 20
32.612536077
 11
543.0581926282
 21
32.612536077
  0
LINE
  8
0
 62
7
  6
CONTINUOUS
 10
543.3860614807
 20
32.612536077
 11
544.7795041036
 21
32.612536077
  0
LINE
  8
0
 62
7
  6
CONTINUOUS
 10
541.4219987601
 20
31.809431758
 11
541.2485612601
 21
31.7449043851
  0
LINE
  8
0
 62
7
  6
CONTINUOUS
 10
538.9938737601
 20
30.8415210777
 11
539.1673112601
 21
30.9060484591
  0
LINE
  8
0
 62
7
  6
CONTINUOUS
 10
544.4282492012
 20
30.8415210777
 11
544.6594989807
 21
30.9060484591
  0
LINE
  8
0
 62
7
  6
CONTINUOUS
 10
544.4282492012
 20
31.0028395296
 11
544.3126239807
 21
30.9705758432
  0
LINE
  8
0
 62
7
  6
CONTINUOUS
 10
543.3876242012
 20
31.6803770123
 11
543.6188739807
 21
31.7126406987
  0
LINE
  8
0
 62
7
  6
CONTINUOUS
 10
541.4219987601
 20
31.6803770123
 11
541.6532492012
 21
31.7126406987
  0
LINE
  8
0
 62
7
  6
CONTINUOUS
 10
538.3579363704
 20
31.3254764164
 11
538.5891864807
 21
31.3577401029
  0
LINE
  8
0
 62
7
  6
CONTINUOUS
 10
541.6532492012
 20
31.8416954444
 11
541.4219987601
 21
31.809431758
  0
LINE
  8
0
 62
7
  6
CONTINUOUS
 10
538.2423114807
 20
31.6803770123
 11
538.4735615909
 21
31.7126406987
  0
LINE
  8
0
 62
7
  6
CONTINUOUS
 10
543.6188739807
 20
31.8416954444
 11
543.2719989807
 21
31.809431758
  0
LINE
  8
0
 62
7
  6
CONTINUOUS
 10
538.5891864807
 20
31.4867948937
 11
538.2423114807
 21
31.4545312073
  0
LINE
  8
0
 62
7
  6
CONTINUOUS
 10
534.3688739531
 20
31.8416954444
 11
534.0219989944
 21
31.809431758
  0
LINE
  8
0
 62
7
  6
CONTINUOUS
 10
538.4735615909
 20
31.8416954444
 11
538.0688739807
 21
31.809431758
  0
LINE
  8
0
 62
7
  6
CONTINUOUS
 10
535.8450778741
 20
33.7600770606
 11
535.1893401692
 21
33.7600770606
  0
LINE
  8
0
 62
7
  6
CONTINUOUS
 10
541.2485612601
 20
31.6158496394
 11
541.4219987601
 21
31.6803770123
  0
LINE
  8
0
 62
7
  6
CONTINUOUS
 10
543.2719989807
 20
31.6481133259
 11
543.3876242012
 21
31.6803770123
  0
LINE
  8
0
 62
7
  6
CONTINUOUS
 10
543.2719989807
 20
31.809431758
 11
543.0407492012
 21
31.7449043851
  0
LINE
  8
0
 62
7
  6
CONTINUOUS
 10
538.9938737601
 20
31.0028395296
 11
538.7048113704
 21
30.9383121455
  0
LINE
  8
0
 62
7
  6
CONTINUOUS
 10
536.2766863704
 20
31.6803770123
 11
536.5079364807
 21
31.7126406987
  0
LINE
  8
0
 62
7
  6
CONTINUOUS
 10
536.5079364807
 20
31.8416954444
 11
536.2766863704
 21
31.809431758
  0
LINE
  8
0
 62
7
  6
CONTINUOUS
 10
534.0798114807
 20
31.6803770123
 11
534.3110615082
 21
31.7126406987
  0
LINE
  8
0
 62
7
  6
CONTINUOUS
 10
540.5991762348
 20
35.2354868967
 11
541.2549139397
 21
35.2354868967
  0
LINE
  8
0
 62
7
  6
CONTINUOUS
 10
538.2423114807
 20
31.29321273
 11
538.3579363704
 21
31.3254764164
  0
LINE
  8
0
 62
7
  6
CONTINUOUS
 10
538.2423114807
 20
31.4545312073
 11
538.0110613704
 21
31.3900038345
  0
LINE
  8
0
 62
7
  6
CONTINUOUS
 10
538.1266865909
 20
31.6481133259
 11
538.2423114807
 21
31.6803770123
  0
LINE
  8
0
 62
7
  6
CONTINUOUS
 10
534.7735614807
 20
30.8415210777
 11
535.0048114255
 21
30.9060484591
  0
LINE
  8
0
 62
7
  6
CONTINUOUS
 10
538.0688739807
 20
31.809431758
 11
537.9532490909
 21
31.7771680715
  0
LINE
  8
0
 62
7
  6
CONTINUOUS
 10
534.0219989944
 20
31.809431758
 11
533.8485614944
 21
31.7771680715
  0
LINE
  8
0
 62
7
  6
CONTINUOUS
 10
544.7795041036
 20
36.3830278803
 11
543.3860614807
 21
36.3830278803
  0
LINE
  8
0
 62
7
  6
CONTINUOUS
 10
541.4188483659
 20
36.3830278803
 11
541.0062770173
 21
36.3830278803
  0
LINE
  8
0
 62
7
  6
CONTINUOUS
 10
539.7795041036
 20
36.3830278803
 11
538.3860614807
 21
36.3830278803
  0
LINE
  8
0
 62
7
  6
CONTINUOUS
 10
538.0581926282
 20
36.3830278803
 11
536.6647500053
 21
36.3830278803
  0
LINE
  8
0
 62
7
  6
CONTINUOUS
 10
534.7795041036
 20
36.3830278803
 11
533.3860614807
 21
36.3830278803
  0
LINE
  8
0
 62
7
  6
CONTINUOUS
 10
533.9641864669
 20
31.6481133259
 11
534.0798114807
 21
31.6803770123
  0
CIRCLE
  8
0
 62
7
  6
CONTINUOUS
 10
544.0827827921
 20
38.7190934541
 40
2.0901639344
  0
ARC
  8
0
 62
7
  6
CONTINUOUS
 10
535.025405743
 20
34.2518803393
 40
1.6393442623
 50
180.0
 51
270.0
  0
ARC
  8
0
 62
7
  6
CONTINUOUS
 10
541.4188483659
 20
34.743683618
 40
1.6393442623
 50
0.0
 51
90.0
  0
ARC
  8
0
 62
7
  6
CONTINUOUS
 10
535.4379770916
 20
34.0879459131
 40
1.4754098361
 50
270.0
 51
326.2510114041
  0
ARC
  8
0
 62
7
  6
CONTINUOUS
 10
541.0062770173
 20
34.9076180442
 40
1.4754098361
 50
90.0
 51
146.2510114041
  0
ARC
  8
0
 62
7
  6
CONTINUOUS
 10
535.8450778741
 20
34.5797491918
 40
0.8196721311
 50
270.0
 51
360.0
  0
ARC
  8
0
 62
7
  6
CONTINUOUS
 10
540.5991762348
 20
34.4158147655
 40
0.8196721311
 50
90.0
 51
180.0
  0
ARC
  8
0
 62
7
  6
CONTINUOUS
 10
535.1893401692
 20
34.1699131262
 40
0.4098360656
 50
180.0
 51
270.0
  0
ARC
  8
0
 62
7
  6
CONTINUOUS
 10
541.2549139397
 20
34.8256508311
 40
0.4098360656
 50
0.0
 51
90.0
  0
SOLID
  8
0
 62
7
  6
CONTINUOUS
 10
540.0923117012
 20
32.1643327593
 11
540.0923117012
 21
32.3256512429
 12
540.3813737601
 22
32.1643327593
 13
540.3813737601
 23
32.3256512429
  0
SOLID
  8
0
 62
7
  6
CONTINUOUS
 10
534.3688739531
 20
31.841695792
 11
534.7735614807
 21
31.8094316148
 12
534.0219989944
 22
31.8094316148
 13
534.0219989944
 23
31.8094316148
  0
SOLID
  8
0
 62
7
  6
CONTINUOUS
 10
533.8485614944
 20
31.7771687019
 11
534.0219989944
 21
31.8094316148
 12
534.7735614807
 22
31.8094316148
 13
534.7735614807
 23
31.8094316148
  0
SOLID
  8
0
 62
7
  6
CONTINUOUS
 10
534.7735614807
 20
31.8094316148
 11
535.0048114255
 21
31.7449043986
 12
533.8485614944
 22
31.7771687019
 13
533.8485614944
 23
31.7771687019
  0
SOLID
  8
0
 62
7
  6
CONTINUOUS
 10
533.6751239738
 20
31.712640202
 11
533.8485614944
 21
31.7771687019
 12
535.0048114255
 22
31.7449043986
 13
535.0048114255
 23
31.7449043986
  0
SOLID
  8
0
 62
7
  6
CONTINUOUS
 10
533.6751239738
 20
31.712640202
 11
535.0048114255
 21
31.7449043986
 12
534.3110615082
 22
31.712640202
 13
534.3110615082
 23
31.712640202
  0
SOLID
  8
0
 62
7
  6
CONTINUOUS
 10
534.3110615082
 20
31.712640202
 11
535.0048114255
 21
31.7449043986
 12
534.7157489531
 22
31.6803773084
 13
534.7157489531
 23
31.6803773084
  0
SOLID
  8
0
 62
7
  6
CONTINUOUS
 10
535.0048114255
 20
31.7449043986
 11
535.1782489255
 21
31.6481130052
 12
534.7157489531
 22
31.6803773084
 13
534.7157489531
 23
31.6803773084
  0
SOLID
  8
0
 62
7
  6
CONTINUOUS
 10
534.8891865358
 20
31.6158502183
 11
534.7157489531
 21
31.6803773084
 12
535.1782489255
 22
31.6481130052
 13
535.1782489255
 23
31.6481130052
  0
SOLID
  8
0
 62
7
  6
CONTINUOUS
 10
534.8891865358
 20
31.6158502183
 11
535.1782489255
 21
31.6481130052
 12
534.9469989807
 22
31.5190586669
 13
534.9469989807
 23
31.5190586669
  0
SOLID
  8
0
 62
7
  6
CONTINUOUS
 10
535.1782489255
 20
31.6481130052
 11
535.2360615358
 21
31.5190586669
 12
534.9469989807
 22
31.5190586669
 13
534.9469989807
 23
31.5190586669
  0
SOLID
  8
0
 62
7
  6
CONTINUOUS
 10
536.2766863704
 20
31.8094307377
 11
536.5079364807
 21
31.841695041
 12
536.7391865909
 22
31.841695041
 13
536.7391865909
 23
31.841695041
  0
SOLID
  8
0
 62
7
  6
CONTINUOUS
 10
536.7391865909
 20
31.841695041
 11
536.9126240909
 21
31.8094307377
 12
536.2766863704
 22
31.8094307377
 13
536.2766863704
 23
31.8094307377
  0
SOLID
  8
0
 62
7
  6
CONTINUOUS
 10
536.1032490358
 20
31.7449036475
 11
536.2766863704
 21
31.8094307377
 12
536.9126240909
 22
31.8094307377
 13
536.9126240909
 23
31.8094307377
  0
SOLID
  8
0
 62
7
  6
CONTINUOUS
 10
536.9126240909
 20
31.8094307377
 11
537.0860615909
 21
31.7449036475
 12
536.1032490358
 22
31.7449036475
 13
536.1032490358
 23
31.7449036475
  0
SOLID
  8
0
 62
7
  6
CONTINUOUS
 10
537.0860615909
 20
31.7449036475
 11
536.5079364807
 21
31.7126400953
 12
536.1032490358
 22
31.7449036475
 13
536.1032490358
 23
31.7449036475
  0
SOLID
  8
0
 62
7
  6
CONTINUOUS
 10
535.9876239807
 20
31.6803765574
 11
536.1032490358
 21
31.7449036475
 12
536.5079364807
 22
31.7126400953
 13
536.5079364807
 23
31.7126400953
  0
SOLID
  8
0
 62
7
  6
CONTINUOUS
 10
536.5079364807
 20
31.7126400953
 11
536.2766863704
 21
31.6803765574
 12
535.9876239807
 22
31.6803765574
 13
535.9876239807
 23
31.6803765574
  0
SOLID
  8
0
 62
7
  6
CONTINUOUS
 10
536.5079364807
 20
31.7126400953
 11
537.0860615909
 21
31.7449036475
 12
536.7391865909
 22
31.6803765574
 13
536.7391865909
 23
31.6803765574
  0
SOLID
  8
0
 62
7
  6
CONTINUOUS
 10
537.0860615909
 20
31.7449036475
 11
537.2016864807
 21
31.6803765574
 12
536.7391865909
 22
31.6803765574
 13
536.7391865909
 23
31.6803765574
  0
SOLID
  8
0
 62
7
  6
CONTINUOUS
 10
536.8548114807
 20
31.6481130052
 11
536.7391865909
 21
31.6803765574
 12
537.2016864807
 22
31.6803765574
 13
537.2016864807
 23
31.6803765574
  0
SOLID
  8
0
 62
7
  6
CONTINUOUS
 10
537.2016864807
 20
31.6803765574
 11
537.2594990909
 21
31.6158494672
 12
536.8548114807
 22
31.6481130052
 13
536.8548114807
 23
31.6481130052
  0
SOLID
  8
0
 62
7
  6
CONTINUOUS
 10
536.9704363704
 20
31.583585915
 11
536.8548114807
 21
31.6481130052
 12
537.2594990909
 22
31.6158494672
 13
537.2594990909
 23
31.6158494672
  0
SOLID
  8
0
 62
7
  6
CONTINUOUS
 10
536.9704363704
 20
31.583585915
 11
537.2594990909
 21
31.6158494672
 12
537.0282489807
 22
31.4545309836
 13
537.0282489807
 23
31.4545309836
  0
SOLID
  8
0
 62
7
  6
CONTINUOUS
 10
537.2594990909
 20
31.6158494672
 11
537.3173113704
 21
31.4545309836
 12
537.0282489807
 22
31.4545309836
 13
537.0282489807
 23
31.4545309836
  0
SOLID
  8
0
 62
7
  6
CONTINUOUS
 10
536.2766863704
 20
31.6803765574
 11
536.1032490358
 21
31.6158494672
 12
535.9876239807
 22
31.6803765574
 13
535.9876239807
 23
31.6803765574
  0
SOLID
  8
0
 62
7
  6
CONTINUOUS
 10
536.1032490358
 20
31.6158494672
 11
535.9876239807
 21
31.5513216117
 12
535.9876239807
 22
31.6803765574
 13
535.9876239807
 23
31.6803765574
  0
SOLID
  8
0
 62
7
  6
CONTINUOUS
 10
535.9876239807
 20
31.5513216117
 11
535.6985614255
 21
30.8092570492
 12
535.9876239807
 22
31.6803765574
 13
535.9876239807
 23
31.6803765574
  0
SOLID
  8
0
 62
7
  6
CONTINUOUS
 10
535.9876239807
 20
31.6803765574
 11
535.6985614255
 21
30.8092570492
 12
535.9876239807
 22
32.3256504918
 13
535.9876239807
 23
32.3256504918
  0
SOLID
  8
0
 62
7
  6
CONTINUOUS
 10
535.6985614255
 20
30.8092570492
 11
535.6985614255
 21
32.3256504918
 12
535.9876239807
 22
32.3256504918
 13
535.9876239807
 23
32.3256504918
  0
SOLID
  8
0
 62
7
  6
CONTINUOUS
 10
535.9876239807
 20
31.5513216117
 11
535.9876239807
 21
30.8092570492
 12
535.6985614255
 22
30.8092570492
 13
535.6985614255
 23
30.8092570492
  0
SOLID
  8
0
 62
7
  6
CONTINUOUS
 10
537.0282489807
 20
30.8092570492
 11
537.0282489807
 21
31.4545309836
 12
537.3173113704
 22
31.4545309836
 13
537.3173113704
 23
31.4545309836
  0
SOLID
  8
0
 62
7
  6
CONTINUOUS
 10
537.3173113704
 20
31.4545309836
 11
537.3173113704
 21
30.8092570492
 12
537.0282489807
 22
30.8092570492
 13
537.0282489807
 23
30.8092570492
  0
SOLID
  8
0
 62
7
  6
CONTINUOUS
 10
538.0688739807
 20
31.809431823
 11
538.4735615909
 21
31.8416958158
 12
538.8204365909
 22
31.8416958158
 13
538.8204365909
 23
31.8416958158
  0
SOLID
  8
0
 62
7
  6
CONTINUOUS
 10
538.8204365909
 20
31.8416958158
 11
539.1673112601
 21
31.809431823
 12
538.0688739807
 22
31.809431823
 13
538.0688739807
 23
31.809431823
  0
SOLID
  8
0
 62
7
  6
CONTINUOUS
 10
537.9532490909
 20
31.7771687019
 11
538.0688739807
 21
31.809431823
 12
539.1673112601
 22
31.809431823
 13
539.1673112601
 23
31.809431823
  0
SOLID
  8
0
 62
7
  6
CONTINUOUS
 10
539.1673112601
 20
31.809431823
 11
539.3407487601
 21
31.7449043986
 12
537.9532490909
 22
31.7771687019
 13
537.9532490909
 23
31.7771687019
  0
SOLID
  8
0
 62
7
  6
CONTINUOUS
 10
537.8376238704
 20
31.7126398448
 11
537.9532490909
 21
31.7771687019
 12
539.3407487601
 22
31.7449043986
 13
539.3407487601
 23
31.7449043986
  0
SOLID
  8
0
 62
7
  6
CONTINUOUS
 10
537.8376238704
 20
31.7126398448
 11
539.3407487601
 21
31.7449043986
 12
538.4735615909
 22
31.7126398448
 13
538.4735615909
 23
31.7126398448
  0
SOLID
  8
0
 62
7
  6
CONTINUOUS
 10
538.4735615909
 20
31.7126398448
 11
539.3407487601
 21
31.7449043986
 12
538.8204365909
 22
31.7126398448
 13
538.8204365909
 23
31.7126398448
  0
SOLID
  8
0
 62
7
  6
CONTINUOUS
 10
538.8204365909
 20
31.7126398448
 11
539.3407487601
 21
31.7449043986
 12
539.0516867012
 22
31.6803774007
 13
539.0516867012
 23
31.6803774007
  0
SOLID
  8
0
 62
7
  6
CONTINUOUS
 10
539.3407487601
 20
31.7449043986
 11
539.4563739807
 21
31.6803774007
 12
539.0516867012
 22
31.6803774007
 13
539.0516867012
 23
31.6803774007
  0
SOLID
  8
0
 62
7
  6
CONTINUOUS
 10
537.7798115909
 20
31.6481126336
 11
537.8376238704
 21
31.7126398448
 12
538.4735615909
 22
31.7126398448
 13
538.4735615909
 23
31.7126398448
  0
SOLID
  8
0
 62
7
  6
CONTINUOUS
 10
539.1673112601
 20
31.6481126336
 11
539.0516867012
 21
31.6803774007
 12
539.4563739807
 22
31.6803774007
 13
539.4563739807
 23
31.6803774007
  0
SOLID
  8
0
 62
7
  6
CONTINUOUS
 10
539.1673112601
 20
31.6481126336
 11
539.4563739807
 21
31.6803774007
 12
539.2251242012
 22
31.5835861968
 13
539.2251242012
 23
31.5835861968
  0
SOLID
  8
0
 62
7
  6
CONTINUOUS
 10
539.4563739807
 20
31.6803774007
 11
539.5141862601
 21
31.5835861968
 12
539.2251242012
 22
31.5835861968
 13
539.2251242012
 23
31.5835861968
  0
SOLID
  8
0
 62
7
  6
CONTINUOUS
 10
539.2251242012
 20
31.4867945216
 11
539.2251242012
 21
31.5835861968
 12
539.5141862601
 22
31.5835861968
 13
539.5141862601
 23
31.5835861968
  0
SOLID
  8
0
 62
7
  6
CONTINUOUS
 10
539.2251242012
 20
31.4867945216
 11
539.5141862601
 21
31.5835861968
 12
539.2251242012
 22
31.3577403412
 13
539.2251242012
 23
31.3577403412
  0
SOLID
  8
0
 62
7
  6
CONTINUOUS
 10
539.2251242012
 20
31.3577403412
 11
539.5141862601
 21
31.5835861968
 12
539.2251242012
 22
31.1641579843
 13
539.2251242012
 23
31.1641579843
  0
SOLID
  8
0
 62
7
  6
CONTINUOUS
 10
539.5141862601
 20
31.5835861968
 11
539.5141862601
 21
31.0673661609
 12
539.2251242012
 22
31.1641579843
 13
539.2251242012
 23
31.1641579843
  0
SOLID
  8
0
 62
7
  6
CONTINUOUS
 10
541.4219987601
 20
31.8094310465
 11
541.6532492012
 21
31.8416957661
 12
541.8844989807
 22
31.8416957661
 13
541.8844989807
 23
31.8416957661
  0
SOLID
  8
0
 62
7
  6
CONTINUOUS
 10
541.8844989807
 20
31.8416957661
 11
542.0579364807
 21
31.8094310465
 12
541.4219987601
 22
31.8094310465
 13
541.4219987601
 23
31.8094310465
  0
SOLID
  8
0
 62
7
  6
CONTINUOUS
 10
541.2485612601
 20
31.7449047044
 11
541.4219987601
 21
31.8094310465
 12
542.0579364807
 22
31.8094310465
 13
542.0579364807
 23
31.8094310465
  0
SOLID
  8
0
 62
7
  6
CONTINUOUS
 10
542.0579364807
 20
31.8094310465
 11
542.2313739807
 21
31.7449047044
 12
541.2485612601
 22
31.7449047044
 13
541.2485612601
 23
31.7449047044
  0
SOLID
  8
0
 62
7
  6
CONTINUOUS
 10
542.2313739807
 20
31.7449047044
 11
541.6532492012
 21
31.7126400953
 12
541.2485612601
 22
31.7449047044
 13
541.2485612601
 23
31.7449047044
  0
SOLID
  8
0
 62
7
  6
CONTINUOUS
 10
541.1329367012
 20
31.6803773299
 11
541.2485612601
 21
31.7449047044
 12
541.6532492012
 22
31.7126400953
 13
541.6532492012
 23
31.7126400953
  0
SOLID
  8
0
 62
7
  6
CONTINUOUS
 10
541.6532492012
 20
31.7126400953
 11
541.4219987601
 21
31.6803773299
 12
541.1329367012
 22
31.6803773299
 13
541.1329367012
 23
31.6803773299
  0
SOLID
  8
0
 62
7
  6
CONTINUOUS
 10
541.6532492012
 20
31.7126400953
 11
542.2313739807
 21
31.7449047044
 12
541.8844989807
 22
31.6803773299
 13
541.8844989807
 23
31.6803773299
  0
SOLID
  8
0
 62
7
  6
CONTINUOUS
 10
542.2313739807
 20
31.7449047044
 11
542.3469992012
 21
31.6803773299
 12
541.8844989807
 22
31.6803773299
 13
541.8844989807
 23
31.6803773299
  0
SOLID
  8
0
 62
7
  6
CONTINUOUS
 10
542.0001242012
 20
31.6481130052
 11
541.8844989807
 21
31.6803773299
 12
542.3469992012
 22
31.6803773299
 13
542.3469992012
 23
31.6803773299
  0
SOLID
  8
0
 62
7
  6
CONTINUOUS
 10
542.0001242012
 20
31.6481130052
 11
542.3469992012
 21
31.6803773299
 12
542.1157487601
 22
31.5835862682
 13
542.1157487601
 23
31.5835862682
  0
SOLID
  8
0
 62
7
  6
CONTINUOUS
 10
542.3469992012
 20
31.6803773299
 11
542.4048114807
 21
31.5835862682
 12
542.1157487601
 22
31.5835862682
 13
542.1157487601
 23
31.5835862682
  0
SOLID
  8
0
 62
7
  6
CONTINUOUS
 10
542.1735617012
 20
31.422267832
 11
542.1157487601
 21
31.5835862682
 12
542.4048114807
 22
31.5835862682
 13
542.4048114807
 23
31.5835862682
  0
SOLID
  8
0
 62
7
  6
CONTINUOUS
 10
542.4048114807
 20
31.5835862682
 11
542.4626237601
 21
31.422267832
 12
542.1735617012
 22
31.422267832
 13
542.1735617012
 23
31.422267832
  0
SOLID
  8
0
 62
7
  6
CONTINUOUS
 10
541.4219987601
 20
31.6803773299
 11
541.2485612601
 21
31.6158502183
 12
541.1329367012
 22
31.6803773299
 13
541.1329367012
 23
31.6803773299
  0
SOLID
  8
0
 62
7
  6
CONTINUOUS
 10
541.2485612601
 20
31.6158502183
 11
541.1329367012
 21
31.5513216117
 12
541.1329367012
 22
31.6803773299
 13
541.1329367012
 23
31.6803773299
  0
SOLID
  8
0
 62
7
  6
CONTINUOUS
 10
541.1329367012
 20
31.5513216117
 11
540.8438739807
 21
30.8092577743
 12
541.1329367012
 22
31.6803773299
 13
541.1329367012
 23
31.6803773299
  0
SOLID
  8
0
 62
7
  6
CONTINUOUS
 10
541.1329367012
 20
31.6803773299
 11
540.8438739807
 21
30.8092577743
 12
541.1329367012
 22
31.8416957661
 13
541.1329367012
 23
31.8416957661
  0
SOLID
  8
0
 62
7
  6
CONTINUOUS
 10
540.8438739807
 20
30.8092577743
 11
540.8438739807
 21
31.8416957661
 12
541.1329367012
 22
31.8416957661
 13
541.1329367012
 23
31.8416957661
  0
SOLID
  8
0
 62
7
  6
CONTINUOUS
 10
541.1329367012
 20
31.5513216117
 11
541.1329367012
 21
30.8092577743
 12
540.8438739807
 22
30.8092577743
 13
540.8438739807
 23
30.8092577743
  0
SOLID
  8
0
 62
7
  6
CONTINUOUS
 10
542.1735617012
 20
30.8092577743
 11
542.1735617012
 21
31.422267832
 12
542.4626237601
 22
31.422267832
 13
542.4626237601
 23
31.422267832
  0
SOLID
  8
0
 62
7
  6
CONTINUOUS
 10
542.4626237601
 20
31.422267832
 11
542.4626237601
 21
30.8092577743
 12
542.1735617012
 22
30.8092577743
 13
542.1735617012
 23
30.8092577743
  0
SOLID
  8
0
 62
7
  6
CONTINUOUS
 10
543.2719989807
 20
31.8094314924
 11
543.6188739807
 21
31.8416958387
 12
543.9657489807
 22
31.8416958387
 13
543.9657489807
 23
31.8416958387
  0
SOLID
  8
0
 62
7
  6
CONTINUOUS
 10
543.9657489807
 20
31.8416958387
 11
544.3126239807
 21
31.8094314924
 12
543.2719989807
 22
31.8094314924
 13
543.2719989807
 23
31.8094314924
  0
SOLID
  8
0
 62
7
  6
CONTINUOUS
 10
543.0407492012
 20
31.7449043986
 11
543.2719989807
 21
31.8094314924
 12
544.3126239807
 22
31.8094314924
 13
544.3126239807
 23
31.8094314924
  0
SOLID
  8
0
 62
7
  6
CONTINUOUS
 10
543.0407492012
 20
31.7449043986
 11
544.3126239807
 21
31.8094314888
 12
544.4860614807
 22
31.7771687019
 13
544.4860614807
 23
31.7771687019
  0
SOLID
  8
0
 62
7
  6
CONTINUOUS
 10
543.0407492012
 20
31.7449043986
 11
544.4860614807
 21
31.7771687019
 12
543.6188739807
 22
31.7126401399
 13
543.6188739807
 23
31.7126401399
  0
SOLID
  8
0
 62
7
  6
CONTINUOUS
 10
543.6188739807
 20
31.7126401399
 11
544.4860614807
 21
31.7771687019
 12
543.9657489807
 22
31.7126401399
 13
543.9657489807
 23
31.7126401399
  0
SOLID
  8
0
 62
7
  6
CONTINUOUS
 10
544.4860614807
 20
31.7771687019
 11
544.6594989807
 21
31.7126401399
 12
543.9657489807
 22
31.7126401399
 13
543.9657489807
 23
31.7126401399
  0
SOLID
  8
0
 62
7
  6
CONTINUOUS
 10
544.3126239807
 20
31.6803773084
 11
543.9657489807
 21
31.7126401399
 12
544.6594989807
 22
31.7126401399
 13
544.6594989807
 23
31.7126401399
  0
SOLID
  8
0
 62
7
  6
CONTINUOUS
 10
542.9251239807
 20
31.6481128977
 11
543.0407492012
 21
31.7449043986
 12
543.6188739807
 22
31.7126401399
 13
543.6188739807
 23
31.7126401399
  0
SOLID
  8
0
 62
7
  6
CONTINUOUS
 10
544.3126239807
 20
31.6803773084
 11
544.6594989807
 21
31.7126401399
 12
544.4282492012
 22
31.6481128977
 13
544.4282492012
 23
31.6481128977
  0
SOLID
  8
0
 62
7
  6
CONTINUOUS
 10
544.4282492012
 20
31.6481128977
 11
544.6594989807
 21
31.7126401399
 12
544.4860614807
 22
31.5835858812
 13
544.4860614807
 23
31.5835858812
  0
SOLID
  8
0
 62
7
  6
CONTINUOUS
 10
544.6594989807
 20
31.7126401399
 11
544.7751235396
 21
31.5835858812
 12
544.4860614807
 22
31.5835858812
 13
544.4860614807
 23
31.5835858812
  0
SOLID
  8
0
 62
7
  6
CONTINUOUS
 10
534.0798114807
 20
31.6803773084
 11
533.5594989807
 21
31.6481129264
 12
534.3110615082
 22
31.7126401456
 13
534.3110615082
 23
31.7126401456
  0
SOLID
  8
0
 62
7
  6
CONTINUOUS
 10
533.5594989807
 20
31.6481129264
 11
533.6751239738
 21
31.7126401456
 12
534.3110615082
 22
31.7126401456
 13
534.3110615082
 23
31.7126401456
  0
SOLID
  8
0
 62
7
  6
CONTINUOUS
 10
534.0798114807
 20
31.6803773084
 11
533.9641864669
 21
31.6481129264
 12
533.5594989807
 22
31.6481129264
 13
533.5594989807
 23
31.6481129264
  0
SOLID
  8
0
 62
7
  6
CONTINUOUS
 10
533.4438739824
 20
31.5190588248
 11
533.5594989807
 21
31.6481129264
 12
533.9641864669
 22
31.6481129264
 13
533.9641864669
 23
31.6481129264
  0
SOLID
  8
0
 62
7
  6
CONTINUOUS
 10
537.7798115909
 20
31.6481130555
 11
538.4735615909
 21
31.7126400953
 12
538.2423114807
 22
31.6803773084
 13
538.2423114807
 23
31.6803773084
  0
SOLID
  8
0
 62
7
  6
CONTINUOUS
 10
538.2423114807
 20
31.6803773084
 11
538.1266865909
 21
31.6481130555
 12
537.7798115909
 22
31.6481130555
 13
537.7798115909
 23
31.6481130555
  0
SOLID
  8
0
 62
7
  6
CONTINUOUS
 10
537.7798115909
 20
31.5835859653
 11
537.7798115909
 21
31.6481130555
 12
538.1266865909
 22
31.6481130555
 13
538.1266865909
 23
31.6481130555
  0
SOLID
  8
0
 62
7
  6
CONTINUOUS
 10
538.1266865909
 20
31.6481130555
 11
538.0688739807
 21
31.5835859653
 12
537.7798115909
 22
31.5835859653
 13
537.7798115909
 23
31.5835859653
  0
SOLID
  8
0
 62
7
  6
CONTINUOUS
 10
542.9251239807
 20
31.6481130555
 11
543.6188739807
 21
31.7126400953
 12
543.3876242012
 22
31.6803773084
 13
543.3876242012
 23
31.6803773084
  0
SOLID
  8
0
 62
7
  6
CONTINUOUS
 10
543.3876242012
 20
31.6803773084
 11
543.2719989807
 21
31.6481130555
 12
542.9251239807
 22
31.6481130555
 13
542.9251239807
 23
31.6481130555
  0
SOLID
  8
0
 62
7
  6
CONTINUOUS
 10
542.9251239807
 20
31.5835859653
 11
542.9251239807
 21
31.6481130555
 12
543.2719989807
 22
31.6481130555
 13
543.2719989807
 23
31.6481130555
  0
SOLID
  8
0
 62
7
  6
CONTINUOUS
 10
543.2719989807
 20
31.6481130555
 11
543.2141867012
 21
31.5835859653
 12
542.9251239807
 22
31.5835859653
 13
542.9251239807
 23
31.5835859653
  0
SOLID
  8
0
 62
7
  6
CONTINUOUS
 10
543.0407492012
 20
31.4545317347
 11
542.9251239807
 21
31.5835859653
 12
543.2141867012
 22
31.5835859653
 13
543.2141867012
 23
31.5835859653
  0
SOLID
  8
0
 62
7
  6
CONTINUOUS
 10
533.4438739824
 20
31.5190588248
 11
533.9641864669
 21
31.6481130052
 12
533.7907489669
 22
31.5513216117
 13
533.7907489669
 23
31.5513216117
  0
SOLID
  8
0
 62
7
  6
CONTINUOUS
 10
533.7907489669
 20
31.5513216117
 11
533.7329364807
 21
31.4867945216
 12
533.4438739824
 22
31.5190588248
 13
533.4438739824
 23
31.5190588248
  0
SOLID
  8
0
 62
7
  6
CONTINUOUS
 10
533.3860614807
 20
31.325476038
 11
533.4438739824
 21
31.5190588248
 12
533.7329364807
 22
31.4867945216
 13
533.7329364807
 23
31.4867945216
  0
SOLID
  8
0
 62
7
  6
CONTINUOUS
 10
538.2423114807
 20
31.4545317347
 11
538.5891864807
 21
31.4867945557
 12
539.2251242012
 22
31.4867945557
 13
539.2251242012
 23
31.4867945557
  0
SOLID
  8
0
 62
7
  6
CONTINUOUS
 10
538.2423114807
 20
31.4545317347
 11
539.2251242012
 21
31.4867945557
 12
538.0110613704
 22
31.3900038345
 13
538.0110613704
 23
31.3900038345
  0
SOLID
  8
0
 62
7
  6
CONTINUOUS
 10
538.0110613704
 20
31.3900038345
 11
539.2251242012
 21
31.4867945557
 12
538.5891864807
 22
31.3577403754
 13
538.5891864807
 23
31.3577403754
  0
SOLID
  8
0
 62
7
  6
CONTINUOUS
 10
539.2251242012
 20
31.4867945557
 11
539.2251242012
 21
31.3577403754
 12
538.5891864807
 22
31.3577403754
 13
538.5891864807
 23
31.3577403754
  0
SOLID
  8
0
 62
7
  6
CONTINUOUS
 10
543.0407492012
 20
31.4545313481
 11
543.2141867012
 21
31.583585915
 12
543.2719989807
 22
31.5190588248
 13
543.2719989807
 23
31.5190588248
  0
SOLID
  8
0
 62
7
  6
CONTINUOUS
 10
543.2719989807
 20
31.5190588248
 11
543.4454364807
 21
31.4545313481
 12
543.0407492012
 22
31.4545313481
 13
543.0407492012
 23
31.4545313481
  0
SOLID
  8
0
 62
7
  6
CONTINUOUS
 10
543.2719989807
 20
31.3577403412
 11
543.0407492012
 21
31.4545313481
 12
543.4454364807
 22
31.4545313481
 13
543.4454364807
 23
31.4545313481
  0
SOLID
  8
0
 62
7
  6
CONTINUOUS
 10
543.4454364807
 20
31.4545313481
 11
544.4282492012
 21
31.2932132511
 12
543.2719989807
 22
31.3577403412
 13
543.2719989807
 23
31.3577403412
  0
SOLID
  8
0
 62
7
  6
CONTINUOUS
 10
544.2548117012
 20
31.1964222346
 11
543.2719989807
 21
31.3577403412
 12
544.4282492012
 22
31.2932132511
 13
544.4282492012
 23
31.2932132511
  0
SOLID
  8
0
 62
7
  6
CONTINUOUS
 10
544.4282492012
 20
31.2932132511
 11
544.6594989807
 21
31.1964222346
 12
544.2548117012
 22
31.1964222346
 13
544.2548117012
 23
31.1964222346
  0
SOLID
  8
0
 62
7
  6
CONTINUOUS
 10
544.4282492012
 20
31.1318947675
 11
544.2548117012
 21
31.1964222346
 12
544.6594989807
 22
31.1964222346
 13
544.6594989807
 23
31.1964222346
  0
SOLID
  8
0
 62
7
  6
CONTINUOUS
 10
544.4282492012
 20
31.1318947675
 11
544.6594989807
 21
31.1964222346
 12
544.4860614807
 22
31.0673665164
 13
544.4860614807
 23
31.0673665164
  0
SOLID
  8
0
 62
7
  6
CONTINUOUS
 10
544.6594989807
 20
31.1964222346
 11
544.7751235396
 21
31.0673665164
 12
544.4860614807
 22
31.0673665164
 13
544.4860614807
 23
31.0673665164
  0
SOLID
  8
0
 62
7
  6
CONTINUOUS
 10
544.4282492012
 20
31.0028394316
 11
544.4860614807
 21
31.0673665164
 12
544.7751235396
 22
31.0673665164
 13
544.7751235396
 23
31.0673665164
  0
SOLID
  8
0
 62
7
  6
CONTINUOUS
 10
544.7751235396
 20
31.0673665164
 11
544.7751235396
 21
31.0028394316
 12
544.4282492012
 22
31.0028394316
 13
544.4282492012
 23
31.0028394316
  0
SOLID
  8
0
 62
7
  6
CONTINUOUS
 10
544.3126239807
 20
30.9705762839
 11
544.4282492012
 21
31.0028394316
 12
544.7751235396
 22
31.0028394316
 13
544.7751235396
 23
31.0028394316
  0
SOLID
  8
0
 62
7
  6
CONTINUOUS
 10
544.3126239807
 20
30.9705762839
 11
544.7751235396
 21
31.0028394316
 12
544.0813742012
 22
30.9383123468
 13
544.0813742012
 23
30.9383123468
  0
SOLID
  8
0
 62
7
  6
CONTINUOUS
 10
544.7751235396
 20
31.0028394316
 11
544.6594989807
 21
30.9060491937
 12
544.0813742012
 22
30.9383123468
 13
544.0813742012
 23
30.9383123468
  0
SOLID
  8
0
 62
7
  6
CONTINUOUS
 10
544.6594989807
 20
30.9060491937
 11
543.2141867012
 21
30.8737848904
 12
544.0813742012
 22
30.9383123468
 13
544.0813742012
 23
30.9383123468
  0
SOLID
  8
0
 62
7
  6
CONTINUOUS
 10
544.0813742012
 20
30.9383123468
 11
543.2141867012
 21
30.8737848904
 12
543.7344992012
 22
30.9383123468
 13
543.7344992012
 23
30.9383123468
  0
SOLID
  8
0
 62
7
  6
CONTINUOUS
 10
543.2141867012
 20
30.8737848904
 11
543.0407492012
 21
30.9383123468
 12
543.7344992012
 22
30.9383123468
 13
543.7344992012
 23
30.9383123468
  0
SOLID
  8
0
 62
7
  6
CONTINUOUS
 10
543.2141867012
 20
30.8737848904
 11
544.6594989807
 21
30.9060491937
 12
543.3876242012
 22
30.8415205581
 13
543.3876242012
 23
30.8415205581
  0
SOLID
  8
0
 62
7
  6
CONTINUOUS
 10
544.6594989807
 20
30.9060491937
 11
544.4282492012
 21
30.8415205581
 12
543.3876242012
 22
30.8415205581
 13
543.3876242012
 23
30.8415205581
  0
SOLID
  8
0
 62
7
  6
CONTINUOUS
 10
543.7344992012
 20
30.8092581772
 11
543.3876242012
 21
30.8415205581
 12
544.4282492012
 22
30.8415205581
 13
544.4282492012
 23
30.8415205581
  0
SOLID
  8
0
 62
7
  6
CONTINUOUS
 10
544.4282492012
 20
30.8415205581
 11
544.0813742012
 21
30.8092581772
 12
543.7344992012
 22
30.8092581772
 13
543.7344992012
 23
30.8092581772
  0
SOLID
  8
0
 62
7
  6
CONTINUOUS
 10
533.3860614807
 20
31.325476038
 11
533.7329364807
 21
31.4867945216
 12
533.6751239738
 22
31.3577403412
 13
533.6751239738
 23
31.3577403412
  0
SOLID
  8
0
 62
7
  6
CONTINUOUS
 10
533.6751239738
 20
31.3577403412
 11
533.6751239738
 21
31.2609490436
 12
533.3860614807
 22
31.325476038
 13
533.3860614807
 23
31.325476038
  0
SOLID
  8
0
 62
7
  6
CONTINUOUS
 10
533.4438739824
 20
31.1318947675
 11
533.3860614807
 21
31.325476038
 12
533.6751239738
 22
31.2609490436
 13
533.6751239738
 23
31.2609490436
  0
SOLID
  8
0
 62
7
  6
CONTINUOUS
 10
533.6751239738
 20
31.2609490436
 11
533.7907489669
 21
31.0996304642
 12
533.4438739824
 22
31.1318947675
 13
533.4438739824
 23
31.1318947675
  0
SOLID
  8
0
 62
7
  6
CONTINUOUS
 10
533.5594989807
 20
31.0028388804
 11
533.4438739824
 21
31.1318947675
 12
533.7907489669
 22
31.0996304642
 13
533.7907489669
 23
31.0996304642
  0
SOLID
  8
0
 62
7
  6
CONTINUOUS
 10
533.7907489669
 20
31.0996304642
 11
533.9641864669
 21
31.0028388804
 12
533.5594989807
 22
31.0028388804
 13
533.5594989807
 23
31.0028388804
  0
SOLID
  8
0
 62
7
  6
CONTINUOUS
 10
533.6751239738
 20
30.9383122606
 11
533.5594989807
 21
31.0028388804
 12
533.9641864669
 22
31.0028388804
 13
533.9641864669
 23
31.0028388804
  0
SOLID
  8
0
 62
7
  6
CONTINUOUS
 10
533.9641864669
 20
31.0028388804
 11
534.3110615082
 21
30.9383122606
 12
533.6751239738
 22
30.9383122606
 13
533.6751239738
 23
30.9383122606
  0
SOLID
  8
0
 62
7
  6
CONTINUOUS
 10
533.8485614944
 20
30.8737848904
 11
533.6751239738
 21
30.9383122606
 12
534.3110615082
 22
30.9383122606
 13
534.3110615082
 23
30.9383122606
  0
SOLID
  8
0
 62
7
  6
CONTINUOUS
 10
537.8954364807
 20
31.3254759532
 11
538.0110613704
 21
31.3900038345
 12
538.5891864807
 22
31.3577403412
 13
538.5891864807
 23
31.3577403412
  0
SOLID
  8
0
 62
7
  6
CONTINUOUS
 10
538.5891864807
 20
31.3577403412
 11
538.3579363704
 21
31.3254759532
 12
537.8954364807
 22
31.3254759532
 13
537.8954364807
 23
31.3254759532
  0
SOLID
  8
0
 62
7
  6
CONTINUOUS
 10
537.7798115909
 20
31.1964218576
 11
537.8954364807
 21
31.3254759532
 12
538.3579363704
 22
31.3254759532
 13
538.3579363704
 23
31.3254759532
  0
SOLID
  8
0
 62
7
  6
CONTINUOUS
 10
538.1266865909
 20
31.2286853572
 11
537.7798115909
 21
31.1964218576
 12
538.2423114807
 22
31.2932132511
 13
538.2423114807
 23
31.2932132511
  0
SOLID
  8
0
 62
7
  6
CONTINUOUS
 10
537.7798115909
 20
31.1964218576
 11
538.3579363704
 21
31.325476038
 12
538.2423114807
 22
31.2932132511
 13
538.2423114807
 23
31.2932132511
  0
SOLID
  8
0
 62
7
  6
CONTINUOUS
 10
538.1266865909
 20
31.2286853572
 11
538.0688739807
 21
31.1318947675
 12
537.7798115909
 22
31.1964218576
 13
537.7798115909
 23
31.1964218576
  0
SOLID
  8
0
 62
7
  6
CONTINUOUS
 10
537.7798115909
 20
31.0996304642
 11
537.7798115909
 21
31.1964218576
 12
538.0688739807
 22
31.1318947675
 13
538.0688739807
 23
31.1318947675
  0
SOLID
  8
0
 62
7
  6
CONTINUOUS
 10
538.0688739807
 20
31.1318947675
 11
538.0688739807
 21
31.0673661609
 12
537.7798115909
 22
31.0996304642
 13
537.7798115909
 23
31.0996304642
  0
SOLID
  8
0
 62
7
  6
CONTINUOUS
 10
537.8376238704
 20
30.9705762839
 11
537.7798115909
 21
31.0996304642
 12
538.0688739807
 22
31.0673661609
 13
538.0688739807
 23
31.0673661609
  0
SOLID
  8
0
 62
7
  6
CONTINUOUS
 10
539.2251242012
 20
31.1641579843
 11
539.5141862601
 21
31.0673661609
 12
539.1673112601
 22
31.0996304642
 13
539.1673112601
 23
31.0996304642
  0
SOLID
  8
0
 62
7
  6
CONTINUOUS
 10
538.9938737601
 20
31.0028390707
 11
539.1673112601
 21
31.0996304642
 12
539.5141862601
 22
31.0673661609
 13
539.5141862601
 23
31.0673661609
  0
SOLID
  8
0
 62
7
  6
CONTINUOUS
 10
538.9938737601
 20
31.0028390707
 11
539.5141862601
 21
31.0673661609
 12
539.2251242012
 22
30.9705762839
 13
539.2251242012
 23
30.9705762839
  0
SOLID
  8
0
 62
7
  6
CONTINUOUS
 10
539.5141862601
 20
31.0673661609
 11
539.5719992012
 21
30.9060491937
 12
539.2251242012
 22
30.9705762839
 13
539.2251242012
 23
30.9705762839
  0
SOLID
  8
0
 62
7
  6
CONTINUOUS
 10
539.2829364807
 20
30.8737848904
 11
539.2251242012
 21
30.9705762839
 12
539.5719992012
 22
30.9060491937
 13
539.5719992012
 23
30.9060491937
  0
SOLID
  8
0
 62
7
  6
CONTINUOUS
 10
539.2829364807
 20
30.8737848904
 11
539.5719992012
 21
30.9060491937
 12
539.3407487601
 22
30.8092576254
 13
539.3407487601
 23
30.8092576254
  0
SOLID
  8
0
 62
7
  6
CONTINUOUS
 10
539.5719992012
 20
30.9060491937
 11
539.6298114807
 21
30.8092576254
 12
539.3407487601
 22
30.8092576254
 13
539.3407487601
 23
30.8092576254
  0
SOLID
  8
0
 62
7
  6
CONTINUOUS
 10
534.8891865358
 20
31.035103216
 11
534.9469989807
 21
31.1318946289
 12
535.2360615358
 22
31.1318946289
 13
535.2360615358
 23
31.1318946289
  0
SOLID
  8
0
 62
7
  6
CONTINUOUS
 10
535.2360615358
 20
31.1318946289
 11
535.1782489255
 21
31.0028390707
 12
534.8891865358
 22
31.035103216
 13
534.8891865358
 23
31.035103216
  0
SOLID
  8
0
 62
7
  6
CONTINUOUS
 10
534.7157489531
 20
30.9705762839
 11
534.8891865358
 21
31.035103216
 12
535.1782489255
 22
31.0028390707
 13
535.1782489255
 23
31.0028390707
  0
SOLID
  8
0
 62
7
  6
CONTINUOUS
 10
534.7157489531
 20
30.9705762839
 11
535.1782489255
 21
31.0028390707
 12
534.3110615082
 22
30.9383119806
 13
534.3110615082
 23
30.9383119806
  0
SOLID
  8
0
 62
7
  6
CONTINUOUS
 10
535.1782489255
 20
31.0028390707
 11
535.0048114255
 21
30.9060491937
 12
534.3110615082
 22
30.9383119806
 13
534.3110615082
 23
30.9383119806
  0
SOLID
  8
0
 62
7
  6
CONTINUOUS
 10
533.8485614944
 20
30.8737848904
 11
534.3110615082
 21
30.9383119806
 12
535.0048114255
 22
30.9060491937
 13
535.0048114255
 23
30.9060491937
  0
SOLID
  8
0
 62
7
  6
CONTINUOUS
 10
533.8485614944
 20
30.8737848904
 11
535.0048114255
 21
30.9060491937
 12
534.0219989944
 22
30.8415207131
 13
534.0219989944
 23
30.8415207131
  0
SOLID
  8
0
 62
7
  6
CONTINUOUS
 10
535.0048114255
 20
30.9060491937
 11
534.7735614807
 21
30.8415207131
 12
534.0219989944
 22
30.8415207131
 13
534.0219989944
 23
30.8415207131
  0
SOLID
  8
0
 62
7
  6
CONTINUOUS
 10
534.3688739531
 20
30.8092578002
 11
534.0219989944
 21
30.8415207131
 12
534.7735614807
 22
30.8415207131
 13
534.7735614807
 23
30.8415207131
  0
SOLID
  8
0
 62
7
  6
CONTINUOUS
 10
537.8376238704
 20
30.9705762839
 11
538.0688739807
 21
31.0673661609
 12
538.1266865909
 22
31.0028390707
 13
538.1266865909
 23
31.0028390707
  0
SOLID
  8
0
 62
7
  6
CONTINUOUS
 10
538.1266865909
 20
31.0028390707
 11
538.3579363704
 21
30.9383119806
 12
537.8376238704
 22
30.9705762839
 13
537.8376238704
 23
30.9705762839
  0
SOLID
  8
0
 62
7
  6
CONTINUOUS
 10
538.0110613704
 20
30.8737848904
 11
537.8376238704
 21
30.9705762839
 12
538.3579363704
 22
30.9383119806
 13
538.3579363704
 23
30.9383119806
  0
SOLID
  8
0
 62
7
  6
CONTINUOUS
 10
538.7048113704
 20
30.9383119664
 11
538.9938737601
 21
31.0028390707
 12
539.2251242012
 22
30.9705762839
 13
539.2251242012
 23
30.9705762839
  0
SOLID
  8
0
 62
7
  6
CONTINUOUS
 10
539.2251242012
 20
30.9705762839
 11
539.1673112601
 21
30.9060491937
 12
538.7048113704
 22
30.9383119664
 13
538.7048113704
 23
30.9383119664
  0
SOLID
  8
0
 62
7
  6
CONTINUOUS
 10
539.1673112601
 20
30.9060491937
 11
538.0110613704
 21
30.8737848904
 12
538.7048113704
 22
30.9383119664
 13
538.7048113704
 23
30.9383119664
  0
SOLID
  8
0
 62
7
  6
CONTINUOUS
 10
538.0110613704
 20
30.8737848904
 11
538.3579363704
 21
30.9383119664
 12
538.7048113704
 22
30.9383119664
 13
538.7048113704
 23
30.9383119664
  0
SOLID
  8
0
 62
7
  6
CONTINUOUS
 10
538.0110613704
 20
30.8737848904
 11
539.1673112601
 21
30.9060491937
 12
538.1266865909
 22
30.8415205568
 13
538.1266865909
 23
30.8415205568
  0
SOLID
  8
0
 62
7
  6
CONTINUOUS
 10
539.1673112601
 20
30.9060491937
 11
538.9938737601
 21
30.8415205568
 12
538.1266865909
 22
30.8415205568
 13
538.1266865909
 23
30.8415205568
  0
SOLID
  8
0
 62
7
  6
CONTINUOUS
 10
538.3579363704
 20
30.8092577215
 11
538.1266865909
 21
30.8415205568
 12
538.9938737601
 22
30.8415205568
 13
538.9938737601
 23
30.8415205568
  0
SOLID
  8
0
 62
7
  6
CONTINUOUS
 10
538.9938737601
 20
30.8415205568
 11
538.7048113704
 21
30.8092577215
 12
538.3579363704
 22
30.8092577215
 13
538.3579363704
 23
30.8092577215
  0
SOLID
  8
0
 62
7
  6
CONTINUOUS
 10
543.3876242012
 20
30.9705762839
 11
543.0407492012
 21
30.9383119664
 12
543.2719989807
 22
31.0028390707
 13
543.2719989807
 23
31.0028390707
  0
SOLID
  8
0
 62
7
  6
CONTINUOUS
 10
543.2719989807
 20
31.0028390707
 11
543.0407492012
 21
30.9383119664
 12
543.2141867012
 22
31.0673661467
 13
543.2141867012
 23
31.0673661467
  0
SOLID
  8
0
 62
7
  6
CONTINUOUS
 10
543.0407492012
 20
30.9383119664
 11
542.9251239807
 21
31.0673661467
 12
543.2141867012
 22
31.0673661467
 13
543.2141867012
 23
31.0673661467
  0
SOLID
  8
0
 62
7
  6
CONTINUOUS
 10
543.3876242012
 20
30.9705762839
 11
543.7344992012
 21
30.9383119664
 12
543.0407492012
 22
30.9383119664
 13
543.0407492012
 23
30.9383119664
  0
SOLID
  8
0
 62
7
  6
CONTINUOUS
 10
540.0923117012
 20
30.8092578002
 11
540.0923117012
 21
31.841695792
 12
540.3813737601
 22
30.8092578002
 13
540.3813737601
 23
31.841695792
  0
ENDBLK
  8
0
  6
BYBLOCK
 62
0
  0
BLOCK
  8
0
 62
2
  6
CONTINUOUS
  2
AMMEAAL_LOGO_BL0
 70
64
 10
416.1419631151
 20
19.7009994242
  0
TEXT
  8
0
 62
7
  6
CONTINUOUS
 10
402.4066669574
 20
19.0744135318
  7
TEXTSTYLE_3
 40
2.7338706658
  1
Ammeraal Beltech
 41
1.0
 51
15.0
 72
0
  0
TEXT
  8
0
 62
7
  6
CONTINUOUS
 10
413.2074677831
 20
16.800876859
  7
TEXTSTYLE_4
 40
1.0935482663
  1
Innovation & Service in Belting
 41
1.0
 72
0
  0
LINE
  8
0
 62
7
  6
CONTINUOUS
 10
396.382126306
 20
19.8410068404
 11
397.1602782994
 21
23.5019241381
  0
LINE
  8
0
 62
7
  6
CONTINUOUS
 10
407.2554465892
 20
27.1653180497
 11
397.6480960424
 21
24.0437006284
  0
LINE
  8
0
 62
7
  6
CONTINUOUS
 10
396.6074096383
 20
19.1476560374
 11
404.1144848995
 21
12.3882551114
  0
LINE
  8
0
 62
7
  6
CONTINUOUS
 10
396.869944049
 20
20.3827833308
 11
407.6782134142
 21
23.8946029297
  0
LINE
  8
0
 62
7
  6
CONTINUOUS
 10
407.674008277
 20
13.544814366
 11
399.2285486083
 21
21.1491404077
  0
LINE
  8
0
 62
7
  6
CONTINUOUS
 10
408.1938309968
 20
26.320392934
 11
407.2172714596
 21
21.7260415315
  0
LINE
  8
0
 62
7
  6
CONTINUOUS
 10
406.5174695119
 20
18.4337322177
 11
405.8310213004
 21
15.2042472933
  0
LINE
  8
0
 62
7
  6
CONTINUOUS
 10
408.8749270954
 20
13.9350165436
 11
409.831158631
 21
18.4337322177
  0
LINE
  8
0
 62
7
  6
CONTINUOUS
 10
410.5309605787
 20
21.7260415315
 11
410.9752023811
 21
23.8160348909
  0
LINE
  8
0
 62
7
  6
CONTINUOUS
 10
404.8275859748
 20
12.2366807987
 11
408.3871093524
 21
13.3932400533
  0
LINE
  8
0
 62
7
  6
CONTINUOUS
 10
407.9685476645
 20
27.013743737
 11
410.7499190488
 21
24.5093856939
  0
ARC
  8
0
 62
7
  6
CONTINUOUS
 10
397.8733793747
 20
23.3503498254
 40
0.7290321776
 50
108.0
 51
168.0
  0
ARC
  8
0
 62
7
  6
CONTINUOUS
 10
407.4807299215
 20
26.4719672466
 40
0.7290321776
 50
348.0
 51
108.0
  0
ARC
  8
0
 62
7
  6
CONTINUOUS
 10
410.2621013058
 20
23.9676092036
 40
0.7290321776
 50
348.0
 51
48.0
  0
ARC
  8
0
 62
7
  6
CONTINUOUS
 10
404.6023026425
 20
12.9300316018
 40
0.7290321776
 50
228.0
 51
288.0
  0
ARC
  8
0
 62
7
  6
CONTINUOUS
 10
397.0952273813
 20
19.6894325277
 40
0.7290321776
 50
108.0
 51
228.0
  0
ARC
  8
0
 62
7
  6
CONTINUOUS
 10
408.1618260201
 20
14.0865908563
 40
0.7290321776
 50
228.0
 51
348.0
  0
ENDBLK
  8
0
  6
BYBLOCK
 62
0
  0
BLOCK
  8
0
  2
_FILLED
 70
64
 10
0.0
 20
0.0
  0
SOLID
  8
0
  6
BYBLOCK
 62
0
 10
0.0
 20
0.0
 11
-1.0
 21
0.2142857143
 12
-1.0
 22
-0.2142857143
 13
-1.0
 23
-0.2142857143
  0
ENDBLK
  8
0
  6
BYBLOCK
 62
0
  0
ENDSEC
  0
SECTION
  2
ENTITIES
  0
TEXT
  8
0
 62
5
  6
CONTINUOUS
 10
480.0
 20
25.636
  7
TEXTSTYLE_2
 40
2.8
  1
Scale :
 41
0.6
 51
0.000019
 72
0
  0
TEXT
  8
0
 62
5
  6
CONTINUOUS
 10
500.0
 20
25.636
  7
TEXTSTYLE_2
 40
2.8
  1
Chain type:
 41
0.6
 51
0.000019
 72
0
  0
INSERT
  8
0
 62
2
  6
CONTINUOUS
  2
AMMEAAL_LOGO_BL0
 10
416.1419631151
 20
19.7009994242
  0
INSERT
  8
0
 62
2
  6
CONTINUOUS
  2
UNI_LOGO2_BL1
 10
557.4079930916
 20
35.8092573885
  0
LINE
  8
0
 62
2
  6
CONTINUOUS
 10
394.0
 20
30.0
 11
584.0
 21
30.0
  0
LINE
  8
0
 62
2
  6
CONTINUOUS
 10
394.0
 20
30.0
 11
394.0
 21
10.0
  0
LINE
  8
0
 62
2
  6
CONTINUOUS
 10
394.0
 20
10.0
 11
584.0
 21
10.0
  0
LINE
  8
0
 62
2
  6
CONTINUOUS
 10
479.0
 20
30.0
 11
479.0
 21
10.0
  0
LINE
  8
0
 62
2
  6
CONTINUOUS
 10
499.0
 20
30.0
 11
499.0
 21
10.0
  0
LINE
  8
0
 62
2
  6
CONTINUOUS
 10
584.0
 20
30.0
 11
584.0
 21
10.0
  0
TEXT
  8
0
 62
5
  6
CONTINUOUS
 10
397.0
 20
23.303
  7
TEXTSTYLE_5
 40
1.52
  1
                                                                     Ammeraal Beltech Modular A/S
 41
1.0
 72
0
  0
TEXT
  8
0
 62
5
  6
CONTINUOUS
 10
397.0
 20
20.595
  7
TEXTSTYLE_5
 40
1.5
  1
                                                                      Hjulmagervej 21, 7100 Vejle,  DK
 41
1.0
 72
0
  0
TEXT
  8
0
 62
5
  6
CONTINUOUS
 10
397.0
 20
17.881
  7
TEXTSTYLE_5
 40
1.495
  1
                                                                      tel: 
 41
1.0
 72
0
  0
TEXT
  8
0
 62
5
  6
CONTINUOUS
 10
441.9869465649
 20
17.881
  7
TEXTSTYLE_5
 40
1.51
  1
+45 75723100     fax: +45 75723348
 41
1.0
 72
0
  0
TEXT
  8
0
 62
5
  6
CONTINUOUS
 10
397.0
 20
15.177
  7
TEXTSTYLE_5
 40
1.5
  1
                                                                      admin@unichains.dk  www.unichains.com
 41
1.0
 72
0
  0
TEXT
  8
0
 62
5
  6
CONTINUOUS
 10
483.75
 20
13.75
  7
TEXTSTYLE_6
 40
5.0
  1
1:1
 41
0.7
 72
1
 11
489.0
 21
13.75
  0
TEXT
  8
0
 62
5
  6
CONTINUOUS
 10
502.0
 20
13.75
  7
TEXTSTYLE_7
 40
7.5
  1
Z13 Bore 60SQ
 41
0.6897435897
 72
0
  0
LINE
  8
0
 62
7
  6
CONTINUOUS
 10
-0.0
 20
-0.0
 11
-0.0
 21
420.0
  0
LINE
  8
0
 62
7
  6
CONTINUOUS
 10
10.0
 20
10.0
 11
10.0
 21
410.0
  0
LINE
  8
0
 62
7
  6
CONTINUOUS
 10
-0.0
 20
-0.0
 11
594.0
 21
-0.0
  0
LINE
  8
0
 62
7
  6
CONTINUOUS
 10
10.0
 20
10.0
 11
584.0
 21
10.0
  0
LINE
  8
0
 62
7
  6
CONTINUOUS
 10
394.0
 20
30.0
 11
584.0
 21
30.0
  0
LINE
  8
0
 62
7
  6
CONTINUOUS
 10
179.0
 20
5.0
 11
179.0
 21
10.0
  0
LINE
  8
0
 62
7
  6
CONTINUOUS
 10
179.0
 20
410.0
 11
179.0
 21
415.0
  0
LINE
  8
0
 62
7
  6
CONTINUOUS
 10
384.0
 20
410.0
 11
384.0
 21
415.0
  0
LINE
  8
0
 62
7
  6
CONTINUOUS
 10
5.0
 20
297.0
 11
10.0
 21
297.0
  0
LINE
  8
0
 62
7
  6
CONTINUOUS
 10
584.0
 20
297.0
 11
589.0
 21
297.0
  0
LINE
  8
0
 62
7
  6
CONTINUOUS
 10
10.0
 20
410.0
 11
584.0
 21
410.0
  0
LINE
  8
0
 62
7
  6
CONTINUOUS
 10
-0.0
 20
420.0
 11
594.0
 21
420.0
  0
LINE
  8
0
 62
7
  6
CONTINUOUS
 10
584.0
 20
10.0
 11
584.0
 21
410.0
  0
LINE
  8
0
 62
7
  6
CONTINUOUS
 10
594.0
 20
-0.0
 11
594.0
 21
420.0
  0
LINE
  8
0
 62
7
  6
CONTINUOUS
 10
68.2879078969
 20
241.1050837818
 11
65.153524056
 21
215.2911104165
  0
LINE
  8
0
 62
7
  6
CONTINUOUS
 10
85.0841589013
 20
291.4622589501
 11
70.3124482574
 21
270.0617414886
  0
LINE
  8
0
 62
7
  6
CONTINUOUS
 10
123.3586467409
 20
328.2457160924
 11
100.333630184
 21
316.1612551811
  0
LINE
  8
0
 62
7
  6
CONTINUOUS
 10
209.725756774
 20
125.6896917682
 11
234.9737089866
 21
131.9127530755
  0
LINE
  8
0
 62
7
  6
CONTINUOUS
 10
156.6849473657
 20
123.5375588613
 11
181.9328995784
 21
117.314497554
  0
LINE
  8
0
 62
7
  6
CONTINUOUS
 10
108.7194970385
 20
146.2812330068
 11
128.18344767
 21
129.0376774344
  0
LINE
  8
0
 62
7
  6
CONTINUOUS
 10
76.817712416
 20
188.710412549
 11
86.0387049427
 21
164.3966534857
  0
LINE
  8
0
 62
7
  6
CONTINUOUS
 10
187.2785231901
 20
326.2308410044
 11
186.8842631553
 21
326.0064042043
  0
LINE
  8
0
 62
7
  6
CONTINUOUS
 10
191.079140265
 20
328.8982458533
 11
190.6739922746
 21
328.6941192016
  0
LINE
  8
0
 62
7
  6
CONTINUOUS
 10
190.6072645064
 20
328.1878595706
 11
191.0124124968
 21
328.3919862223
  0
LINE
  8
0
 62
7
  6
CONTINUOUS
 10
186.8433294792
 20
325.4974091914
 11
187.102758483
 21
325.6046174819
  0
LINE
  8
0
 62
7
  6
CONTINUOUS
 10
187.102758483
 20
325.6046174819
 11
187.5072517624
 21
325.9563030968
  0
LINE
  8
0
 62
7
  6
CONTINUOUS
 10
190.6739922746
 20
328.6941192016
 11
190.3927719651
 21
328.4736582087
  0
LINE
  8
0
 62
7
  6
CONTINUOUS
 10
190.3260441969
 20
327.9673985777
 11
190.6072645064
 21
328.1878595706
  0
LINE
  8
0
 62
7
  6
CONTINUOUS
 10
218.580107895
 20
321.0696998547
 11
218.2496235579
 21
320.933799491
  0
LINE
  8
0
 62
7
  6
CONTINUOUS
 10
217.5218742556
 20
318.606550806
 11
217.1913898832
 21
318.4706503602
  0
LINE
  8
0
 62
7
  6
CONTINUOUS
 10
187.5584188568
 20
326.5925468546
 11
187.2785231901
 21
326.2308410044
  0
LINE
  8
0
 62
7
  6
CONTINUOUS
 10
218.6726951744
 20
320.3352090975
 11
219.2188111261
 21
320.6563535765
  0
LINE
  8
0
 62
7
  6
CONTINUOUS
 10
217.614461482
 20
317.8720599256
 11
218.1605774513
 21
318.1932044457
  0
LINE
  8
0
 62
7
  6
CONTINUOUS
 10
240.3378401627
 20
308.6505835254
 11
240.7748101149
 21
308.7856013365
  0
LINE
  8
0
 62
7
  6
CONTINUOUS
 10
242.1047967267
 20
305.6907828385
 11
242.5417666789
 21
305.8258006496
  0
LINE
  8
0
 62
7
  6
CONTINUOUS
 10
240.4072209655
 20
303.4498917106
 11
240.844191468
 21
303.5849090649
  0
LINE
  8
0
 62
7
  6
CONTINUOUS
 10
242.4831710288
 20
306.5380633802
 11
241.9646665962
 21
306.3048157794
  0
LINE
  8
0
 62
7
  6
CONTINUOUS
 10
240.7040613946
 20
304.1989420747
 11
240.4448089031
 21
304.0823185027
  0
LINE
  8
0
 62
7
  6
CONTINUOUS
 10
203.1240942635
 20
324.6227561995
 11
205.1239315343
 21
327.6471182255
  0
LINE
  8
0
 62
7
  6
CONTINUOUS
 10
201.9791774422
 20
322.8194779192
 11
202.8679935315
 21
324.1636388888
  0
LINE
  8
0
 62
7
  6
CONTINUOUS
 10
204.7774685547
 20
328.2721896902
 11
201.2560998849
 21
323.0186232079
  0
LINE
  8
0
 62
7
  6
CONTINUOUS
 10
213.6278890551
 20
325.4502868377
 11
210.0798371766
 21
321.0146580852
  0
LINE
  8
0
 62
7
  6
CONTINUOUS
 10
210.339680986
 20
320.2466044808
 11
213.5579934153
 21
324.1215897667
  0
LINE
  8
0
 62
7
  6
CONTINUOUS
 10
218.8461315843
 20
321.372236774
 11
218.580107895
 21
321.0696998547
  0
LINE
  8
0
 62
7
  6
CONTINUOUS
 10
219.2188111261
 20
320.6563535765
 11
219.4848348153
 21
320.9588904958
  0
LINE
  8
0
 62
7
  6
CONTINUOUS
 10
217.7878979449
 20
318.9090877253
 11
217.5218742556
 21
318.606550806
  0
LINE
  8
0
 62
7
  6
CONTINUOUS
 10
218.1605774513
 20
318.1932044457
 11
218.4266011759
 21
318.4957414471
  0
LINE
  8
0
 62
7
  6
CONTINUOUS
 10
172.5851449653
 20
268.3831098085
 11
142.6676058655
 21
238.4655707087
  0
LINE
  8
0
 62
7
  6
CONTINUOUS
 10
240.2792446503
 20
309.3628461417
 11
239.8569233354
 21
309.0497628764
  0
LINE
  8
0
 62
7
  6
CONTINUOUS
 10
240.844191468
 20
303.5849090649
 11
241.1849779467
 21
303.7997629521
  0
LINE
  8
0
 62
7
  6
CONTINUOUS
 10
142.6676058655
 20
225.9567029373
 11
172.5851449653
 21
196.0391638375
  0
LINE
  8
0
 62
7
  6
CONTINUOUS
 10
242.5417666789
 20
305.8258006496
 11
242.9640881313
 21
306.1388838008
  0
LINE
  8
DEFAULT_1
 62
2
  6
CENTER
 10
178.839578851
 20
232.211136823
 11
178.839578851
 21
126.2724194334
  0
LINE
  8
DEFAULT_1
 62
2
  6
CENTER
 10
178.839578851
 20
232.211136823
 11
178.839578851
 21
338.1498542127
  0
LINE
  8
0
 62
7
  6
CONTINUOUS
 10
182.5520098133
 20
353.2170458891
 11
181.8936526575
 21
343.8020999266
  0
LINE
  8
0
 62
7
  6
CONTINUOUS
 10
184.6686108417
 20
329.6425247266
 11
184.4639424782
 21
327.0975498738
  0
LINE
  8
0
 62
7
  6
CONTINUOUS
 10
185.0869311299
 20
327.0474487628
 11
185.2915994933
 21
329.5924236155
  0
LINE
  8
0
 62
7
  6
CONTINUOUS
 10
187.7835540552
 20
329.3920191748
 11
187.5584188568
 21
326.5925468546
  0
LINE
  8
0
 62
7
  6
CONTINUOUS
 10
188.1404739651
 20
326.0334507087
 11
188.4065428405
 21
329.341918053
  0
LINE
  8
0
 62
7
  6
CONTINUOUS
 10
189.8565407889
 20
329.1881547808
 11
189.322718597
 21
325.1380773777
  0
LINE
  8
0
 62
7
  6
CONTINUOUS
 10
189.9423594833
 20
325.0564053445
 11
190.3260441969
 21
327.9673985777
  0
LINE
  8
0
 62
7
  6
CONTINUOUS
 10
190.3927719651
 20
328.4736582087
 11
190.4761816752
 21
329.1064827476
  0
LINE
  8
0
 62
7
  6
CONTINUOUS
 10
192.490023194
 20
327.1671196831
 11
192.1730662486
 21
324.762386081
  0
LINE
  8
0
 62
7
  6
CONTINUOUS
 10
192.7927067803
 20
324.6807140946
 11
193.1096637258
 21
327.0854476967
  0
LINE
  8
0
 62
7
  6
CONTINUOUS
 10
194.7569746523
 20
330.4301989601
 11
194.6528858424
 21
329.8004453603
  0
LINE
  8
0
 62
7
  6
CONTINUOUS
 10
194.4447081642
 20
328.5409378081
 11
193.7785397225
 21
324.5105144171
  0
LINE
  8
0
 62
7
  6
CONTINUOUS
 10
194.3951732938
 20
324.4085941508
 11
195.0613417356
 21
328.4390175418
  0
LINE
  8
0
 62
7
  6
CONTINUOUS
 10
195.2695194137
 20
329.698525094
 11
195.3736082237
 21
330.3282786937
  0
LINE
  8
0
 62
7
  6
CONTINUOUS
 10
132.9749192952
 20
111.7150420255
 11
131.3734084468
 21
106.647562422
  0
LINE
  8
0
 62
7
  6
CONTINUOUS
 10
209.0291545583
 20
327.0680791853
 11
207.0380249308
 21
321.4080966052
  0
LINE
  8
0
 62
7
  6
CONTINUOUS
 10
207.7455227533
 20
321.1592054018
 11
209.3130078297
 21
325.6149365126
  0
LINE
  8
0
 62
7
  6
CONTINUOUS
 10
213.5579934153
 20
324.1215897667
 11
211.9905083389
 21
319.6658586559
  0
LINE
  8
0
 62
7
  6
CONTINUOUS
 10
215.9912967774
 20
324.5439452226
 11
213.6228689838
 21
319.0311827765
  0
LINE
  8
0
 62
7
  6
CONTINUOUS
 10
214.6143167731
 20
319.4388862086
 11
215.3701979996
 21
321.1982785153
  0
LINE
  8
0
 62
7
  6
CONTINUOUS
 10
215.6725504479
 20
321.9020353395
 11
216.3780396349
 21
323.5441349243
  0
LINE
  8
0
 62
7
  6
CONTINUOUS
 10
218.9469157337
 20
321.606822382
 11
218.8461315843
 21
321.372236774
  0
LINE
  8
0
 62
7
  6
CONTINUOUS
 10
217.939074169
 20
319.2609661374
 11
217.7878979449
 21
318.9090877253
  0
LINE
  8
0
 62
7
  6
CONTINUOUS
 10
218.4266011759
 20
318.4957414471
 11
218.6785615495
 21
319.0822054672
  0
LINE
  8
0
 62
7
  6
CONTINUOUS
 10
219.4848348153
 20
320.9588904958
 11
219.6864032553
 21
321.4280620404
  0
LINE
  8
0
 62
7
  6
CONTINUOUS
 10
238.3610231136
 20
337.6312954524
 11
233.4027332507
 21
329.6007286445
  0
LINE
  8
0
 62
7
  6
CONTINUOUS
 10
232.6479448427
 20
315.943805189
 11
232.2894913796
 21
315.4156620346
  0
LINE
  8
0
 62
7
  6
CONTINUOUS
 10
229.8520074797
 20
311.8242880668
 11
229.2784818886
 21
310.9792589458
  0
LINE
  8
0
 62
7
  6
CONTINUOUS
 10
237.9185261862
 20
311.1633962392
 11
237.3004554266
 21
310.3503803089
  0
LINE
  8
0
 62
7
  6
CONTINUOUS
 10
238.4383258042
 20
310.6078736742
 11
235.4252314733
 21
306.6444218325
  0
LINE
  8
0
 62
7
  6
CONTINUOUS
 10
236.0222899092
 20
306.1905262233
 11
239.6534547833
 21
310.9669937105
  0
LINE
  8
0
 62
7
  6
CONTINUOUS
 10
240.4843285091
 20
306.8699268807
 11
240.1581905872
 21
306.4770077223
  0
LINE
  8
0
 62
7
  6
CONTINUOUS
 10
242.6462402182
 20
306.7345232345
 11
242.4831710288
 21
306.5380633802
  0
LINE
  8
0
 62
7
  6
CONTINUOUS
 10
241.0301993164
 20
304.591861233
 11
240.7040613946
 21
304.1989420747
  0
LINE
  8
0
 62
7
  6
CONTINUOUS
 10
242.9640881313
 20
306.1388838008
 11
243.1271573206
 21
306.3353436551
  0
LINE
  8
0
 62
7
  6
CONTINUOUS
 10
82.2311122896
 20
146.8315136903
 11
78.4580696631
 21
143.0887425421
  0
LINE
  8
0
 62
7
  6
CONTINUOUS
 10
280.5343908445
 20
297.8950571244
 11
272.4120527282
 21
293.0885755479
  0
LINE
  8
0
 62
7
  6
CONTINUOUS
 10
53.6191407149
 20
201.5074280788
 11
48.538924906
 21
199.9467891506
  0
LINE
  8
0
 62
7
  6
CONTINUOUS
 10
307.7692170879
 20
232.0554392579
 11
313.0752964001
 21
232.3549536342
  0
LINE
  8
DEFAULT_1
 62
2
  6
CENTER
 10
178.839578851
 20
232.211136823
 11
72.9008614613
 21
232.211136823
  0
LINE
  8
DEFAULT_1
 62
2
  6
CENTER
 10
178.839578851
 20
232.211136823
 11
284.7782962406
 21
232.211136823
  0
LINE
  8
0
 62
7
  6
CONTINUOUS
 10
59.1634232066
 20
250.4821505539
 11
68.4303674268
 21
248.6937472319
  0
LINE
  8
0
 62
7
  6
CONTINUOUS
 10
292.9287476468
 20
172.1566830239
 11
297.7662388174
 21
169.9560318241
  0
LINE
  8
0
 62
7
  6
CONTINUOUS
 10
81.3625691661
 20
304.0055986948
 11
88.7369283006
 21
298.115482484
  0
LINE
  8
0
 62
7
  6
CONTINUOUS
 10
251.9518245581
 20
126.0156784207
 11
255.212516658
 21
121.8190043138
  0
LINE
  8
0
 62
7
  6
CONTINUOUS
 10
125.8925233191
 20
341.081800838
 11
129.6849205608
 21
332.4393263786
  0
LINE
  8
0
 62
7
  6
CONTINUOUS
 10
194.225767076
 20
104.2027735434
 11
195.1626748407
 21
98.9714839921
  0
LINE
  8
0
 62
7
  6
CONTINUOUS
 10
194.5348917851
 20
360.1819655674
 11
194.8771383914
 21
365.4854600559
  0
LINE
  8
0
 62
7
  6
CONTINUOUS
 10
146.2764148745
 20
115.609882437
 11
149.1687854151
 21
124.5936920007
  0
LINE
  8
0
 62
7
  6
CONTINUOUS
 10
212.6980061614
 20
319.4169674525
 11
214.6891357889
 21
325.0769500325
  0
LINE
  8
0
 62
7
  6
CONTINUOUS
 10
252.2080977262
 20
338.2297026296
 11
254.9757988276
 21
342.766663853
  0
LINE
  8
0
 62
7
  6
CONTINUOUS
 10
233.4156045471
 20
308.1713726152
 11
233.8457487529
 21
308.8051444744
  0
LINE
  8
0
 62
7
  6
CONTINUOUS
 10
236.2832326529
 20
312.3965184423
 11
236.7850675011
 21
313.1359188584
  0
LINE
  8
0
 62
7
  6
CONTINUOUS
 10
241.1849779467
 20
303.7997629521
 11
241.5111158685
 21
304.1926821105
  0
LINE
  8
0
 62
7
  6
CONTINUOUS
 10
95.8190242911
 20
144.0987103831
 11
102.5550756922
 21
150.7093270822
  0
LINE
  8
0
 62
7
  6
CONTINUOUS
 10
293.0734601795
 20
291.9898639277
 11
297.6325688081
 21
294.7209287461
  0
LINE
  8
0
 62
7
  6
CONTINUOUS
 10
64.3806422512
 20
192.7730333568
 11
73.417226315
 21
195.4960445722
  0
LINE
  8
0
 62
7
  6
CONTINUOUS
 10
299.4107027031
 20
243.1114242324
 11
289.985046111
 21
242.6301348921
  0
LINE
  8
0
 62
7
  6
CONTINUOUS
 10
53.6936624474
 20
263.2171921209
 11
48.4700896746
 21
264.1962089834
  0
LINE
  8
0
 62
7
  6
CONTINUOUS
 10
290.6656231267
 20
185.8306668576
 11
282.0959523926
 21
189.7848273412
  0
LINE
  8
0
 62
7
  6
CONTINUOUS
 10
82.4376054561
 20
317.8238425576
 11
78.2673332909
 21
321.1182342461
  0
LINE
  8
0
 62
7
  6
CONTINUOUS
 10
256.3025444566
 20
139.1751162066
 11
250.55206787
 21
146.6588760001
  0
LINE
  8
0
 62
7
  6
CONTINUOUS
 10
133.2660787999
 20
352.8176538556
 11
131.104466338
 21
357.6727149359
  0
LINE
  8
0
 62
7
  6
CONTINUOUS
 10
204.1936338963
 20
113.8329966732
 11
202.5797163424
 21
123.1319165971
  0
LINE
  8
0
 62
7
  6
CONTINUOUS
 10
192.4495045142
 20
327.8162786567
 11
192.490023194
 21
327.1671196831
  0
LINE
  8
0
 62
7
  6
CONTINUOUS
 10
193.1096637258
 20
327.0854476967
 11
193.0691457551
 21
327.7346065767
  0
LINE
  8
0
 62
7
  6
CONTINUOUS
 10
237.7223775883
 20
306.6738536168
 11
237.5739574828
 21
306.2993282862
  0
LINE
  8
0
 62
7
  6
CONTINUOUS
 10
241.5111158685
 20
304.1926821105
 11
241.7410709244
 21
304.6654369568
  0
LINE
  8
0
 62
7
  6
CONTINUOUS
 10
243.1271573206
 20
306.3353436551
 11
243.3571117119
 21
306.8080988207
  0
LINE
  8
0
 62
7
  6
CONTINUOUS
 10
185.1808286256
 20
326.6556823379
 11
185.0869311299
 21
327.0474487628
  0
LINE
  8
0
 62
7
  6
CONTINUOUS
 10
184.4639424782
 20
327.0975498738
 11
184.5476065382
 21
326.5785346271
  0
LINE
  8
0
 62
7
  6
CONTINUOUS
 10
188.2241379044
 20
325.5144354941
 11
188.1404739651
 21
326.0334507087
  0
LINE
  8
0
 62
7
  6
CONTINUOUS
 10
206.0766164743
 20
321.6909880763
 11
205.7415724242
 21
328.006662512
  0
LINE
  8
0
 62
7
  6
CONTINUOUS
 10
205.2782525158
 20
323.4998211331
 11
205.3535389169
 21
321.8901333651
  0
LINE
  8
0
 62
7
  6
CONTINUOUS
 10
205.1239315343
 20
327.6471182255
 11
205.2933269356
 21
324.0253203333
  0
LINE
  8
0
 62
7
  6
CONTINUOUS
 10
209.3130078297
 20
325.6149365126
 11
209.3963514556
 21
320.5784591022
  0
LINE
  8
0
 62
7
  6
CONTINUOUS
 10
210.0798371766
 20
321.0146580852
 11
210.0903999426
 21
326.6947428549
  0
LINE
  8
0
 62
7
  6
CONTINUOUS
 10
217.9754029985
 20
319.6621862065
 11
217.939074169
 21
319.2609661374
  0
LINE
  8
0
 62
7
  6
CONTINUOUS
 10
218.6785615495
 20
319.0822054672
 11
218.714890379
 21
319.4834255363
  0
LINE
  8
0
 62
7
  6
CONTINUOUS
 10
218.9832446338
 20
322.0080426155
 11
218.9469157337
 21
321.606822382
  0
LINE
  8
0
 62
7
  6
CONTINUOUS
 10
219.6864032553
 20
321.4280620404
 11
219.7227320143
 21
321.8292819453
  0
LINE
  8
0
 62
7
  6
CONTINUOUS
 10
238.1364088476
 20
305.9983787936
 11
238.203294278
 21
306.27467438
  0
LINE
  8
0
 62
7
  6
CONTINUOUS
 10
185.0940127367
 20
196.0391638375
 11
215.0115518365
 21
225.9567029373
  0
LINE
  8
0
 62
7
  6
CONTINUOUS
 10
215.0115518365
 20
238.4655707087
 11
185.0940127367
 21
268.3831098085
  0
LINE
  8
0
 62
7
  6
CONTINUOUS
 10
184.5476065382
 20
326.5785346271
 11
184.6517374403
 21
326.3140169369
  0
LINE
  8
0
 62
7
  6
CONTINUOUS
 10
187.5072517624
 20
325.9563030968
 11
187.7052802534
 21
325.3000188846
  0
LINE
  8
0
 62
7
  6
CONTINUOUS
 10
193.0691457551
 20
327.7346065767
 11
192.9952631912
 21
328.1306357347
  0
LINE
  8
0
 62
7
  6
CONTINUOUS
 10
237.5739574828
 20
306.2993282862
 11
237.5217206897
 21
305.8449672455
  0
LINE
  8
0
 62
7
  6
CONTINUOUS
 10
241.1639708417
 20
305.1444520867
 11
241.0301993164
 21
304.591861233
  0
LINE
  8
0
 62
7
  6
CONTINUOUS
 10
185.3993238624
 20
326.2538956003
 11
185.1808286256
 21
326.6556823379
  0
LINE
  8
0
 62
7
  6
CONTINUOUS
 10
188.3282690387
 20
325.2499177628
 11
188.2241379044
 21
325.5144354941
  0
LINE
  8
0
 62
7
  6
CONTINUOUS
 10
238.1657063404
 20
305.6422475879
 11
238.1364088476
 21
305.9983787936
  0
LINE
  8
0
 62
7
  6
CONTINUOUS
 10
241.7410709244
 20
304.6654369568
 11
241.7933073046
 21
305.1197983401
  0
LINE
  8
0
 62
7
  6
CONTINUOUS
 10
242.6984771488
 20
307.188884161
 11
242.6462402182
 21
306.7345232345
  0
LINE
  8
0
 62
7
  6
CONTINUOUS
 10
237.3004554266
 20
310.3503803089
 11
238.4383258042
 21
310.6078736742
  0
LINE
  8
0
 62
7
  6
CONTINUOUS
 10
239.0563963474
 20
311.4208893198
 11
237.9185261862
 21
311.1633962392
  0
LINE
  8
0
 62
7
  6
CONTINUOUS
 10
240.4448089031
 20
304.0823185027
 11
240.0893733743
 21
304.0455304124
  0
LINE
  8
0
 62
7
  6
CONTINUOUS
 10
184.6517374403
 20
326.3140169369
 11
184.994830362
 21
325.9022100255
  0
LINE
  8
0
 62
7
  6
CONTINUOUS
 10
218.714890379
 20
319.4834255363
 11
218.5719110249
 21
320.1006234895
  0
LINE
  8
0
 62
7
  6
CONTINUOUS
 10
219.7227320143
 20
321.8292819453
 11
219.5797526602
 21
322.4464798985
  0
LINE
  8
0
 62
7
  6
CONTINUOUS
 10
243.3571117119
 20
306.8080988207
 11
243.2985160619
 21
307.5203615513
  0
LINE
  8
0
 62
7
  6
CONTINUOUS
 10
217.0038874979
 20
317.717550842
 11
217.614461482
 21
317.8720599256
  0
LINE
  8
0
 62
7
  6
CONTINUOUS
 10
230.3291920076
 20
311.1918495425
 11
236.2832326529
 21
312.3965184423
  0
LINE
  8
0
 62
7
  6
CONTINUOUS
 10
235.9094722263
 20
312.9587624995
 11
229.8520074797
 21
311.8242880668
  0
LINE
  8
0
 62
7
  6
CONTINUOUS
 10
241.9646665962
 20
306.3048157794
 11
241.6092308493
 21
306.2680279863
  0
LINE
  8
0
 62
7
  6
CONTINUOUS
 10
240.9901160064
 20
309.4364218421
 11
240.2792446503
 21
309.3628461417
  0
LINE
  8
0
 62
7
  6
CONTINUOUS
 10
241.4754597134
 20
305.7154370419
 11
242.1047967267
 21
305.6907828385
  0
LINE
  8
0
 62
7
  6
CONTINUOUS
 10
239.9556019347
 20
303.492939662
 11
240.4072209655
 21
303.4498917106
  0
LINE
  8
0
 62
7
  6
CONTINUOUS
 10
184.994830362
 20
325.9022100255
 11
185.3481567688
 21
325.6176518537
  0
LINE
  8
0
 62
7
  6
CONTINUOUS
 10
192.2350123274
 20
328.1020772481
 11
192.4495045142
 21
327.8162786567
  0
LINE
  8
0
 62
7
  6
CONTINUOUS
 10
192.9952631912
 20
328.1306357347
 11
192.7807710044
 21
328.4164343261
  0
LINE
  8
0
 62
7
  6
CONTINUOUS
 10
217.8464869602
 20
319.9954570588
 11
217.9754029985
 21
319.6621862065
  0
LINE
  8
0
 62
7
  6
CONTINUOUS
 10
218.8543285955
 20
322.3413134678
 11
218.9832446338
 21
322.0080426155
  0
LINE
  8
0
 62
7
  6
CONTINUOUS
 10
237.5217206897
 20
305.8449672455
 11
237.6472018792
 21
305.4089999528
  0
LINE
  8
0
 62
7
  6
CONTINUOUS
 10
186.3347052465
 20
325.4102413268
 11
186.8433294792
 21
325.4974091914
  0
LINE
  8
0
 62
7
  6
CONTINUOUS
 10
218.3926029119
 20
320.3166015378
 11
218.6726951744
 21
320.3352090975
  0
LINE
  8
0
 62
7
  6
CONTINUOUS
 10
217.1913898832
 20
318.4706503602
 11
216.7964501556
 21
318.5013842932
  0
LINE
  8
0
 62
7
  6
CONTINUOUS
 10
240.7748101149
 20
308.7856013365
 11
241.2264291171
 21
308.7425533508
  0
LINE
  8
0
 62
7
  6
CONTINUOUS
 10
239.4077996556
 20
303.6158234007
 11
239.9556019347
 21
303.492939662
  0
LINE
  8
0
 62
7
  6
CONTINUOUS
 10
240.0893733743
 20
304.0455304124
 11
239.8154721079
 21
304.1069724089
  0
LINE
  8
0
 62
7
  6
CONTINUOUS
 10
241.537918264
 20
309.3135380776
 11
240.9901160064
 21
309.4364218421
  0
LINE
  8
0
 62
7
  6
CONTINUOUS
 10
185.3481567688
 20
325.6176518537
 11
185.836314254
 21
325.4503222214
  0
LINE
  8
0
 62
7
  6
CONTINUOUS
 10
238.9415318713
 20
303.8369369463
 11
239.4077996556
 21
303.6158234007
  0
LINE
  8
0
 62
7
  6
CONTINUOUS
 10
185.8772479274
 20
325.9593172009
 11
185.3993238624
 21
326.2538956003
  0
LINE
  8
0
 62
7
  6
CONTINUOUS
 10
192.0038381986
 20
328.2613109317
 11
192.2350123274
 21
328.1020772481
  0
LINE
  8
0
 62
7
  6
CONTINUOUS
 10
192.7807710044
 20
328.4164343261
 11
192.4423504276
 21
328.7185673522
  0
LINE
  8
0
 62
7
  6
CONTINUOUS
 10
217.5523313821
 20
320.2607766
 11
217.8464869602
 21
319.9954570588
  0
LINE
  8
0
 62
7
  6
CONTINUOUS
 10
218.5719110249
 20
320.1006234895
 11
218.3926029119
 21
320.3166015378
  0
LINE
  8
0
 62
7
  6
CONTINUOUS
 10
237.8688661936
 20
304.8931970041
 11
238.1720650027
 21
304.4756238621
  0
LINE
  8
0
 62
7
  6
CONTINUOUS
 10
219.5797526602
 20
322.4464798985
 11
219.2715311376
 21
322.9957276698
  0
LINE
  8
0
 62
7
  6
CONTINUOUS
 10
241.7933073046
 20
305.1197983401
 11
241.4754597134
 21
305.7154370419
  0
LINE
  8
0
 62
7
  6
CONTINUOUS
 10
237.6472018792
 20
305.4089999528
 11
237.8688661936
 21
304.8931970041
  0
LINE
  8
0
 62
7
  6
CONTINUOUS
 10
238.2765386458
 20
305.3843460122
 11
238.1657063404
 21
305.6422475879
  0
LINE
  8
0
 62
7
  6
CONTINUOUS
 10
243.2985160619
 20
307.5203615513
 11
243.0768517261
 21
308.0361644742
  0
LINE
  8
0
 62
7
  6
CONTINUOUS
 10
241.0384894861
 20
305.5804194592
 11
241.1639708417
 21
305.1444520867
  0
LINE
  8
0
 62
7
  6
CONTINUOUS
 10
242.5729960684
 20
307.6248513051
 11
242.6984771488
 21
307.188884161
  0
LINE
  8
0
 62
7
  6
CONTINUOUS
 10
186.8842631553
 20
326.0064042043
 11
186.3756389199
 21
325.9192363063
  0
LINE
  8
0
 62
7
  6
CONTINUOUS
 10
191.0124124968
 20
328.3919862223
 11
191.5248072897
 21
328.4532134848
  0
LINE
  8
0
 62
7
  6
CONTINUOUS
 10
191.5915350579
 20
328.9594731158
 11
191.079140265
 21
328.8982458533
  0
LINE
  8
0
 62
7
  6
CONTINUOUS
 10
218.2496235579
 20
320.933799491
 11
217.8546838303
 21
320.9645334241
  0
LINE
  8
0
 62
7
  6
CONTINUOUS
 10
185.836314254
 20
325.4503222214
 11
186.3347052465
 21
325.4102413268
  0
LINE
  8
0
 62
7
  6
CONTINUOUS
 10
187.7052802534
 20
325.3000188846
 11
188.3282690387
 21
325.2499177628
  0
LINE
  8
0
 62
7
  6
CONTINUOUS
 10
186.3756389199
 20
325.9192363063
 11
185.8772479274
 21
325.9593172009
  0
LINE
  8
0
 62
7
  6
CONTINUOUS
 10
188.4065428405
 20
329.341918053
 11
187.7835540552
 21
329.3920191748
  0
LINE
  8
0
 62
7
  6
CONTINUOUS
 10
185.2915994933
 20
329.5924236155
 11
184.6686108417
 21
329.6425247266
  0
LINE
  8
0
 62
7
  6
CONTINUOUS
 10
189.322718597
 20
325.1380773777
 11
189.9423594833
 21
325.0564053445
  0
LINE
  8
0
 62
7
  6
CONTINUOUS
 10
192.1730662486
 20
324.762386081
 11
192.7927067803
 21
324.6807140946
  0
LINE
  8
0
 62
7
  6
CONTINUOUS
 10
192.0872479088
 20
328.8941354706
 11
191.5915350579
 21
328.9594731158
  0
LINE
  8
0
 62
7
  6
CONTINUOUS
 10
190.4761816752
 20
329.1064827476
 11
189.8565407889
 21
329.1881547808
  0
LINE
  8
0
 62
7
  6
CONTINUOUS
 10
193.7785397225
 20
324.5105144171
 11
194.3951732938
 21
324.4085941508
  0
LINE
  8
0
 62
7
  6
CONTINUOUS
 10
195.0613417356
 20
328.4390175418
 11
194.4447081642
 21
328.5409378081
  0
LINE
  8
0
 62
7
  6
CONTINUOUS
 10
194.6528858424
 20
329.8004453603
 11
195.2695194137
 21
329.698525094
  0
LINE
  8
0
 62
7
  6
CONTINUOUS
 10
195.3736082237
 20
330.3282786937
 11
194.7569746523
 21
330.4301989601
  0
LINE
  8
0
 62
7
  6
CONTINUOUS
 10
216.3792502069
 20
317.8469688798
 11
217.0038874979
 21
317.717550842
  0
LINE
  8
0
 62
7
  6
CONTINUOUS
 10
201.2560998849
 20
323.0186232079
 11
201.9791774422
 21
322.8194779192
  0
LINE
  8
0
 62
7
  6
CONTINUOUS
 10
205.3535389169
 20
321.8901333651
 11
206.0766164743
 21
321.6909880763
  0
LINE
  8
0
 62
7
  6
CONTINUOUS
 10
202.8679935315
 20
324.1636388888
 11
205.2782525158
 21
323.4998211331
  0
LINE
  8
0
 62
7
  6
CONTINUOUS
 10
205.2933269356
 20
324.0253203333
 11
203.1240942635
 21
324.6227561995
  0
LINE
  8
0
 62
7
  6
CONTINUOUS
 10
205.7415724242
 20
328.006662512
 11
204.7774685547
 21
328.2721896902
  0
LINE
  8
0
 62
7
  6
CONTINUOUS
 10
207.0380249308
 20
321.4080966052
 11
207.7455227533
 21
321.1592054018
  0
LINE
  8
0
 62
7
  6
CONTINUOUS
 10
209.3963514556
 20
320.5784591022
 11
210.339680986
 21
320.2466044808
  0
LINE
  8
0
 62
7
  6
CONTINUOUS
 10
211.9905083389
 20
319.6658586559
 11
212.6980061614
 21
319.4169674525
  0
LINE
  8
0
 62
7
  6
CONTINUOUS
 10
214.6891357889
 20
325.0769500325
 11
213.6278890551
 21
325.4502868377
  0
LINE
  8
0
 62
7
  6
CONTINUOUS
 10
210.0903999426
 20
326.6947428549
 11
209.0291545583
 21
327.0680791853
  0
LINE
  8
0
 62
7
  6
CONTINUOUS
 10
241.6092308493
 20
306.2680279863
 11
240.8690618058
 21
306.550583537
  0
LINE
  8
0
 62
7
  6
CONTINUOUS
 10
191.5248072897
 20
328.4532134848
 11
192.0038381986
 21
328.2613109317
  0
LINE
  8
0
 62
7
  6
CONTINUOUS
 10
213.6228689838
 20
319.0311827765
 11
216.3792502069
 21
317.8469688798
  0
LINE
  8
0
 62
7
  6
CONTINUOUS
 10
216.7964501556
 20
318.5013842932
 11
214.6143167731
 21
319.4388862086
  0
LINE
  8
0
 62
7
  6
CONTINUOUS
 10
215.3701979996
 20
321.1982785153
 11
217.5523313821
 21
320.2607766
  0
LINE
  8
0
 62
7
  6
CONTINUOUS
 10
217.8546838303
 20
320.9645334241
 11
215.6725504479
 21
321.9020353395
  0
LINE
  8
0
 62
7
  6
CONTINUOUS
 10
216.3780396349
 20
323.5441349243
 11
218.5601730174
 21
322.6066330089
  0
LINE
  8
0
 62
7
  6
CONTINUOUS
 10
218.7476780004
 20
323.3597313258
 11
215.9912967774
 21
324.5439452226
  0
LINE
  8
0
 62
7
  6
CONTINUOUS
 10
192.4423504276
 20
328.7185673522
 11
192.0872479088
 21
328.8941354706
  0
LINE
  8
0
 62
7
  6
CONTINUOUS
 10
239.8154721079
 20
304.1069724089
 11
239.2530210753
 21
304.4079217419
  0
LINE
  8
0
 62
7
  6
CONTINUOUS
 10
241.2264291171
 20
308.7425533508
 11
241.7888804249
 21
308.4416037894
  0
LINE
  8
0
 62
7
  6
CONTINUOUS
 10
242.2927360825
 20
308.8529169585
 11
241.537918264
 21
309.3135380776
  0
LINE
  8
0
 62
7
  6
CONTINUOUS
 10
229.2784818886
 20
310.9792589458
 11
233.4156045471
 21
308.1713726152
  0
LINE
  8
0
 62
7
  6
CONTINUOUS
 10
233.8457487529
 20
308.8051444744
 11
230.3291920076
 21
311.1918495425
  0
LINE
  8
0
 62
7
  6
CONTINUOUS
 10
232.2894913796
 20
315.4156620346
 11
235.9094722263
 21
312.9587624995
  0
LINE
  8
0
 62
7
  6
CONTINUOUS
 10
236.7850675011
 20
313.1359188584
 11
232.6479448427
 21
315.943805189
  0
LINE
  8
0
 62
7
  6
CONTINUOUS
 10
219.2715311376
 20
322.9957276698
 11
218.7476780004
 21
323.3597313258
  0
LINE
  8
0
 62
7
  6
CONTINUOUS
 10
235.4252314733
 20
306.6444218325
 11
236.0222899092
 21
306.1905262233
  0
LINE
  8
0
 62
7
  6
CONTINUOUS
 10
239.6534547833
 20
310.9669937105
 11
239.0563963474
 21
311.4208893198
  0
LINE
  8
0
 62
7
  6
CONTINUOUS
 10
238.1720650027
 20
304.4756238621
 11
238.9415318713
 21
303.8369369463
  0
LINE
  8
0
 62
7
  6
CONTINUOUS
 10
239.2530210753
 20
304.4079217419
 11
238.6759209927
 21
304.8869368717
  0
LINE
  8
0
 62
7
  6
CONTINUOUS
 10
238.203294278
 20
306.27467438
 11
237.7223775883
 21
306.6738536168
  0
LINE
  8
0
 62
7
  6
CONTINUOUS
 10
240.1581905872
 20
306.4770077223
 11
240.5429238839
 21
306.1576643786
  0
LINE
  8
0
 62
7
  6
CONTINUOUS
 10
240.8690618058
 20
306.550583537
 11
240.4843285091
 21
306.8699268807
  0
LINE
  8
0
 62
7
  6
CONTINUOUS
 10
239.8569233354
 20
309.0497628764
 11
240.3378401627
 21
308.6505835254
  0
LINE
  8
0
 62
7
  6
CONTINUOUS
 10
241.7888804249
 20
308.4416037894
 11
242.1736137216
 21
308.1222604456
  0
LINE
  8
0
 62
7
  6
CONTINUOUS
 10
242.4851028685
 20
308.6932451724
 11
242.2927360825
 21
308.8529169585
  0
LINE
  8
0
 62
7
  6
CONTINUOUS
 10
218.5601730174
 20
322.6066330089
 11
218.8543285955
 21
322.3413134678
  0
LINE
  8
0
 62
7
  6
CONTINUOUS
 10
243.0768517261
 20
308.0361644742
 11
242.4851028685
 21
308.6932451724
  0
LINE
  8
0
 62
7
  6
CONTINUOUS
 10
240.5429238839
 20
306.1576643786
 11
241.0384894861
 21
305.5804194592
  0
LINE
  8
0
 62
7
  6
CONTINUOUS
 10
238.6759209927
 20
304.8869368717
 11
238.2765386458
 21
305.3843460122
  0
LINE
  8
0
 62
7
  6
CONTINUOUS
 10
242.1736137216
 20
308.1222604456
 11
242.5729960684
 21
307.6248513051
  0
LINE
  8
0
 62
7
  6
CONTINUOUS
 10
284.0503583421
 20
197.1188852263
 11
293.2713508688
 21
221.4326442895
  0
LINE
  8
0
 62
7
  6
CONTINUOUS
 10
255.6909150388
 20
152.2446040146
 11
275.1548656704
 21
169.4881595871
  0
LINE
  8
0
 62
7
  6
CONTINUOUS
 10
174.3431475093
 20
343.0288084663
 11
148.339578851
 21
343.0288084663
  0
LINE
  8
0
 62
7
  6
CONTINUOUS
 10
226.3577265101
 20
332.4249077644
 11
203.3327099531
 21
344.5093686758
  0
LINE
  8
0
 62
7
  6
CONTINUOUS
 10
267.486470538
 20
298.8632398467
 11
252.714759894
 21
320.2637573082
  0
LINE
  8
0
 62
7
  6
CONTINUOUS
 10
288.3072799912
 20
250.0323783712
 11
285.1728961504
 21
275.8463517365
  0
LINE
  8
0
 62
7
  6
CONTINUOUS
 10
446.8625
 20
98.1477758695
 11
455.8625
 21
98.1477758695
  0
LINE
  8
0
 62
7
  6
CONTINUOUS
 10
472.2625
 20
98.1477758695
 11
481.2625
 21
98.1477758695
  0
LINE
  8
0
 62
9
  6
CONTINUOUS
 10
481.2625
 20
98.9714839921
 11
472.2625
 21
98.9714839921
  0
LINE
  8
0
 62
9
  6
CONTINUOUS
 10
455.8625
 20
98.9714839921
 11
446.8625
 21
98.9714839921
  0
LINE
  8
0
 62
9
  6
CONTINUOUS
 10
481.2625
 20
104.2027735434
 11
472.2625
 21
104.2027735434
  0
LINE
  8
0
 62
9
  6
CONTINUOUS
 10
455.8625
 20
104.2027735434
 11
446.8625
 21
104.2027735434
  0
LINE
  8
0
 62
7
  6
CONTINUOUS
 10
446.8625
 20
105.3462164787
 11
455.8625
 21
105.3462164787
  0
LINE
  8
0
 62
7
  6
CONTINUOUS
 10
472.2625
 20
105.3462164787
 11
481.2625
 21
105.3462164787
  0
LINE
  8
0
 62
9
  6
CONTINUOUS
 10
481.2625
 20
106.647562422
 11
472.2625
 21
106.647562422
  0
LINE
  8
0
 62
9
  6
CONTINUOUS
 10
455.8625
 20
106.647562422
 11
446.8625
 21
106.647562422
  0
LINE
  8
0
 62
9
  6
CONTINUOUS
 10
481.2625
 20
111.7150420255
 11
472.2625
 21
111.7150420255
  0
LINE
  8
0
 62
9
  6
CONTINUOUS
 10
455.8625
 20
111.7150420255
 11
446.8625
 21
111.7150420255
  0
LINE
  8
0
 62
7
  6
CONTINUOUS
 10
472.2625
 20
124.711136823
 11
455.8625
 21
124.711136823
  0
LINE
  8
0
 62
7
  6
CONTINUOUS
 10
441.0625
 20
124.711136823
 11
446.8625
 21
124.711136823
  0
LINE
  8
0
 62
7
  6
CONTINUOUS
 10
481.2625
 20
124.711136823
 11
487.0625
 21
124.711136823
  0
LINE
  8
0
 62
9
  6
CONTINUOUS
 10
481.2625
 20
129.0376774344
 11
472.2625
 21
129.0376774344
  0
LINE
  8
0
 62
9
  6
CONTINUOUS
 10
455.8625
 20
129.0376774344
 11
446.8625
 21
129.0376774344
  0
LINE
  8
0
 62
7
  6
CONTINUOUS
 10
446.8625
 20
139.8617781509
 11
455.8625
 21
139.8617781509
  0
LINE
  8
0
 62
7
  6
CONTINUOUS
 10
472.2625
 20
139.8617781509
 11
481.2625
 21
139.8617781509
  0
LINE
  8
0
 62
9
  6
CONTINUOUS
 10
481.2625
 20
141.4887221507
 11
472.2625
 21
141.4887221507
  0
LINE
  8
0
 62
9
  6
CONTINUOUS
 10
455.8625
 20
141.4887221507
 11
446.8625
 21
141.4887221507
  0
LINE
  8
0
 62
9
  6
CONTINUOUS
 10
481.2625
 20
143.0887425421
 11
472.2625
 21
143.0887425421
  0
LINE
  8
0
 62
9
  6
CONTINUOUS
 10
455.8625
 20
143.0887425421
 11
446.8625
 21
143.0887425421
  0
LINE
  8
0
 62
9
  6
CONTINUOUS
 10
481.2625
 20
146.8315136903
 11
472.2625
 21
146.8315136903
  0
LINE
  8
0
 62
9
  6
CONTINUOUS
 10
455.8625
 20
146.8315136903
 11
446.8625
 21
146.8315136903
  0
LINE
  8
0
 62
9
  6
CONTINUOUS
 10
481.2625
 20
164.3966534857
 11
472.2625
 21
164.3966534857
  0
LINE
  8
0
 62
9
  6
CONTINUOUS
 10
455.8625
 20
164.3966534857
 11
446.8625
 21
164.3966534857
  0
LINE
  8
0
 62
9
  6
CONTINUOUS
 10
446.8625
 20
188.710412549
 11
455.8625
 21
188.710412549
  0
LINE
  8
0
 62
9
  6
CONTINUOUS
 10
472.2625
 20
188.710412549
 11
481.2625
 21
188.710412549
  0
LINE
  8
0
 62
9
  6
CONTINUOUS
 10
446.8625
 20
190.5490051326
 11
455.8625
 21
190.5490051326
  0
LINE
  8
0
 62
9
  6
CONTINUOUS
 10
472.2625
 20
190.5490051326
 11
481.2625
 21
190.5490051326
  0
LINE
  8
0
 62
7
  6
CONTINUOUS
 10
446.8625
 20
192.1436570905
 11
455.8625
 21
192.1436570905
  0
LINE
  8
0
 62
7
  6
CONTINUOUS
 10
472.2625
 20
192.1436570905
 11
481.2625
 21
192.1436570905
  0
LINE
  8
0
 62
9
  6
CONTINUOUS
 10
481.2625
 20
198.4145894276
 11
472.2625
 21
198.4145894276
  0
LINE
  8
0
 62
9
  6
CONTINUOUS
 10
455.8625
 20
198.4145894276
 11
446.8625
 21
198.4145894276
  0
LINE
  8
0
 62
9
  6
CONTINUOUS
 10
481.2625
 20
199.9467891506
 11
472.2625
 21
199.9467891506
  0
LINE
  8
0
 62
9
  6
CONTINUOUS
 10
455.8625
 20
199.9467891506
 11
446.8625
 21
199.9467891506
  0
LINE
  8
0
 62
9
  6
CONTINUOUS
 10
481.2625
 20
201.5074280788
 11
472.2625
 21
201.5074280788
  0
LINE
  8
0
 62
9
  6
CONTINUOUS
 10
455.8625
 20
201.5074280788
 11
446.8625
 21
201.5074280788
  0
LINE
  8
0
 62
7
  6
CONTINUOUS
 10
439.0625
 20
337.711136823
 11
439.0625
 21
126.711136823
  0
LINE
  8
0
 62
9
  6
CONTINUOUS
 10
441.0625
 20
339.711136823
 11
441.0625
 21
124.711136823
  0
LINE
  8
0
 62
7
  6
CONTINUOUS
 10
446.8625
 20
98.147785425
 11
446.8625
 21
366.5498383162
  0
LINE
  8
0
 62
9
  6
CONTINUOUS
 10
481.2625
 20
215.2911104165
 11
472.2625
 21
215.2911104165
  0
LINE
  8
0
 62
9
  6
CONTINUOUS
 10
455.8625
 20
215.2911104165
 11
446.8625
 21
215.2911104165
  0
LINE
  8
0
 62
7
  6
CONTINUOUS
 10
455.8625
 20
98.1477763576
 11
455.8625
 21
366.5498583873
  0
LINE
  8
DEFAULT_1
 62
2
  6
CENTER
 10
434.0625
 20
232.211136823
 11
494.0625
 21
232.211136823
  0
LINE
  8
0
 62
7
  6
CONTINUOUS
 10
472.2625
 20
98.1477763576
 11
472.2625
 21
366.5498583873
  0
LINE
  8
0
 62
9
  6
CONTINUOUS
 10
446.8625
 20
241.1050837818
 11
455.8625
 21
241.1050837818
  0
LINE
  8
0
 62
9
  6
CONTINUOUS
 10
472.2625
 20
241.1050837818
 11
481.2625
 21
241.1050837818
  0
LINE
  8
0
 62
9
  6
CONTINUOUS
 10
446.8625
 20
242.6311032893
 11
455.8625
 21
242.6311032893
  0
LINE
  8
0
 62
9
  6
CONTINUOUS
 10
472.2625
 20
242.6311032893
 11
481.2625
 21
242.6311032893
  0
LINE
  8
0
 62
7
  6
CONTINUOUS
 10
481.2625
 20
98.147785425
 11
481.2625
 21
366.5498383162
  0
LINE
  8
0
 62
9
  6
CONTINUOUS
 10
446.8625
 20
248.6937472319
 11
455.8625
 21
248.6937472319
  0
LINE
  8
0
 62
9
  6
CONTINUOUS
 10
472.2625
 20
248.6937472319
 11
481.2625
 21
248.6937472319
  0
LINE
  8
0
 62
9
  6
CONTINUOUS
 10
481.2625
 20
250.4821505539
 11
472.2625
 21
250.4821505539
  0
LINE
  8
0
 62
9
  6
CONTINUOUS
 10
455.8625
 20
250.4821505539
 11
446.8625
 21
250.4821505539
  0
LINE
  8
0
 62
9
  6
CONTINUOUS
 10
487.0625
 20
339.711136823
 11
487.0625
 21
124.711136823
  0
LINE
  8
0
 62
7
  6
CONTINUOUS
 10
489.0625
 20
337.711136823
 11
489.0625
 21
126.711136823
  0
LINE
  8
0
 62
9
  6
CONTINUOUS
 10
481.2625
 20
263.0828384203
 11
472.2625
 21
263.0828384203
  0
LINE
  8
0
 62
9
  6
CONTINUOUS
 10
455.8625
 20
263.0828384203
 11
446.8625
 21
263.0828384203
  0
LINE
  8
0
 62
7
  6
CONTINUOUS
 10
446.8625
 20
264.2133230629
 11
455.8625
 21
264.2133230629
  0
LINE
  8
0
 62
7
  6
CONTINUOUS
 10
472.2625
 20
264.2133230629
 11
481.2625
 21
264.2133230629
  0
LINE
  8
0
 62
9
  6
CONTINUOUS
 10
481.2625
 20
270.0617414886
 11
472.2625
 21
270.0617414886
  0
LINE
  8
0
 62
9
  6
CONTINUOUS
 10
455.8625
 20
270.0617414886
 11
446.8625
 21
270.0617414886
  0
LINE
  8
0
 62
9
  6
CONTINUOUS
 10
446.8625
 20
291.4622589501
 11
455.8625
 21
291.4622589501
  0
LINE
  8
0
 62
9
  6
CONTINUOUS
 10
472.2625
 20
291.4622589501
 11
481.2625
 21
291.4622589501
  0
LINE
  8
0
 62
9
  6
CONTINUOUS
 10
446.8625
 20
292.3261127028
 11
455.8625
 21
292.3261127028
  0
LINE
  8
0
 62
9
  6
CONTINUOUS
 10
472.2625
 20
292.3261127028
 11
481.2625
 21
292.3261127028
  0
LINE
  8
0
 62
9
  6
CONTINUOUS
 10
446.8625
 20
298.115482484
 11
455.8625
 21
298.115482484
  0
LINE
  8
0
 62
9
  6
CONTINUOUS
 10
472.2625
 20
298.115482484
 11
481.2625
 21
298.115482484
  0
LINE
  8
0
 62
9
  6
CONTINUOUS
 10
481.2625
 20
304.0055986948
 11
472.2625
 21
304.0055986948
  0
LINE
  8
0
 62
9
  6
CONTINUOUS
 10
455.8625
 20
304.0055986948
 11
446.8625
 21
304.0055986948
  0
LINE
  8
0
 62
9
  6
CONTINUOUS
 10
481.2625
 20
320.6787526213
 11
472.2625
 21
320.6787526213
  0
LINE
  8
0
 62
9
  6
CONTINUOUS
 10
455.8625
 20
320.6787526213
 11
446.8625
 21
320.6787526213
  0
LINE
  8
0
 62
7
  6
CONTINUOUS
 10
446.8625
 20
321.3335410918
 11
455.8625
 21
321.3335410918
  0
LINE
  8
0
 62
7
  6
CONTINUOUS
 10
472.2625
 20
321.3335410918
 11
481.2625
 21
321.3335410918
  0
LINE
  8
0
 62
9
  6
CONTINUOUS
 10
446.8625
 20
328.2457160924
 11
455.8625
 21
328.2457160924
  0
LINE
  8
0
 62
9
  6
CONTINUOUS
 10
472.2625
 20
328.2457160924
 11
481.2625
 21
328.2457160924
  0
LINE
  8
0
 62
7
  6
CONTINUOUS
 10
446.8625
 20
328.4748040411
 11
455.8625
 21
328.4748040411
  0
LINE
  8
0
 62
7
  6
CONTINUOUS
 10
472.2625
 20
328.4748040411
 11
481.2625
 21
328.4748040411
  0
LINE
  8
0
 62
9
  6
CONTINUOUS
 10
446.8625
 20
332.4393263786
 11
455.8625
 21
332.4393263786
  0
LINE
  8
0
 62
9
  6
CONTINUOUS
 10
472.2625
 20
332.4393263786
 11
481.2625
 21
332.4393263786
  0
LINE
  8
0
 62
7
  6
CONTINUOUS
 10
472.2625
 20
339.711136823
 11
455.8625
 21
339.711136823
  0
LINE
  8
0
 62
7
  6
CONTINUOUS
 10
441.0625
 20
339.711136823
 11
446.8625
 21
339.711136823
  0
LINE
  8
0
 62
7
  6
CONTINUOUS
 10
481.2625
 20
339.711136823
 11
487.0625
 21
339.711136823
  0
LINE
  8
0
 62
9
  6
CONTINUOUS
 10
481.2625
 20
341.081800838
 11
472.2625
 21
341.081800838
  0
LINE
  8
0
 62
9
  6
CONTINUOUS
 10
455.8625
 20
341.081800838
 11
446.8625
 21
341.081800838
  0
LINE
  8
0
 62
9
  6
CONTINUOUS
 10
481.2625
 20
358.0078021933
 11
472.2625
 21
358.0078021933
  0
LINE
  8
0
 62
9
  6
CONTINUOUS
 10
455.8625
 20
358.0078021933
 11
446.8625
 21
358.0078021933
  0
LINE
  8
0
 62
7
  6
CONTINUOUS
 10
446.8625
 20
358.2659782928
 11
455.8625
 21
358.2659782928
  0
LINE
  8
0
 62
7
  6
CONTINUOUS
 10
472.2625
 20
358.2659782928
 11
481.2625
 21
358.2659782928
  0
LINE
  8
0
 62
9
  6
CONTINUOUS
 10
481.2625
 20
366.5183517431
 11
472.2625
 21
366.5183517431
  0
LINE
  8
0
 62
9
  6
CONTINUOUS
 10
455.8625
 20
366.5183517431
 11
446.8625
 21
366.5183517431
  0
LINE
  8
0
 62
7
  6
CONTINUOUS
 10
446.8625
 20
366.5498583874
 11
455.8625
 21
366.5498583874
  0
LINE
  8
0
 62
7
  6
CONTINUOUS
 10
472.2625
 20
366.5498583874
 11
481.2625
 21
366.5498583874
  0
CIRCLE
  8
0
 62
7
  6
CONTINUOUS
 10
178.839578851
 20
232.211136823
 40
107.5
  0
CIRCLE
  8
0
 62
9
  6
CONTINUOUS
 10
178.839578851
 20
232.211136823
 40
105.5
  0
ARC
  8
0
 62
7
  6
CONTINUOUS
 10
177.9841911176
 20
101.2939575665
 40
16.5
 50
10.1538461538
 51
76.1538461538
  0
ARC
  8
0
 62
7
  6
CONTINUOUS
 10
117.2419238091
 20
116.6872500896
 40
16.5
 50
342.4615384615
 51
48.4615384615
  0
ARC
  8
0
 62
7
  6
CONTINUOUS
 10
70.6109369384
 20
158.5456728495
 40
16.5
 50
314.7692307692
 51
20.7692307692
  0
ARC
  8
0
 62
7
  6
CONTINUOUS
 10
48.7738276334
 20
217.2799656407
 40
16.5
 50
287.0769230769
 51
353.0769230769
  0
ARC
  8
0
 62
7
  6
CONTINUOUS
 10
132.1885489149
 20
120.1455227121
 40
14.8
 50
270.574521923
 51
342.1538461538
  0
ARC
  8
0
 62
7
  6
CONTINUOUS
 10
85.4526556245
 20
154.6617781509
 40
14.8
 50
242.8822142307
 51
314.4615384615
  0
ARC
  8
0
 62
7
  6
CONTINUOUS
 10
60.1105810109
 20
206.9436570905
 40
14.8
 50
215.1899065384
 51
286.7692307692
  0
ARC
  8
0
 62
7
  6
CONTINUOUS
 10
178.839578851
 20
194.8170973619
 40
6.0
 50
175.4216527464
 51
4.5783472536
  0
ARC
  8
0
 62
7
  6
CONTINUOUS
 10
141.4455393899
 20
232.211136823
 40
6.0
 50
85.4216527464
 51
274.5783472536
  0
ARC
  8
0
 62
7
  6
CONTINUOUS
 10
152.2624046292
 20
123.5976899132
 40
3.25
 50
21.0037507329
 51
162.1538461538
  0
ARC
  8
0
 62
7
  6
CONTINUOUS
 10
104.8314742169
 20
148.3897344981
 40
3.25
 50
353.3114430405
 51
134.4615384615
  0
ARC
  8
0
 62
7
  6
CONTINUOUS
 10
74.354908682
 20
192.3842521982
 40
3.25
 50
325.6191353483
 51
106.7692307692
  0
ARC
  8
0
 62
7
  6
CONTINUOUS
 10
157.1635786943
 20
125.4794424961
 40
2.0
 50
201.0037507329
 51
256.1538461538
  0
ARC
  8
0
 62
7
  6
CONTINUOUS
 10
110.045742355
 20
147.7782545031
 40
2.0
 50
173.3114430407
 51
228.4615384615
  0
ARC
  8
0
 62
7
  6
CONTINUOUS
 10
78.6877449013
 20
189.4196223231
 40
2.0
 50
145.6191353482
 51
200.7692307692
  0
ARC
  8
0
 62
7
  6
CONTINUOUS
 10
132.3269233248
 20
106.3462164787
 40
1.0
 50
162.4615384615
 51
270.574521923
  0
ARC
  8
0
 62
7
  6
CONTINUOUS
 10
79.1623227147
 20
142.3787935021
 40
1.0
 50
134.7692307692
 51
242.8822142307
  0
ARC
  8
0
 62
7
  6
CONTINUOUS
 10
48.8325802443
 20
198.9908777832
 40
1.0
 50
107.0769230769
 51
215.1899065384
  0
ARC
  8
0
 62
7
  6
CONTINUOUS
 10
171.9173916201
 20
195.3714104922
 40
0.9443458372
 50
355.4216527464
 51
45.0
  0
ARC
  8
0
 62
7
  6
CONTINUOUS
 10
141.9998525202
 20
225.2889495921
 40
0.9443458372
 50
45.0
 51
94.5783472536
  0
ARC
  8
0
 62
7
  6
CONTINUOUS
 10
148.339578851
 20
359.5288084663
 40
16.5
 50
204.0
 51
270.0
  0
ARC
  8
0
 62
7
  6
CONTINUOUS
 10
56.7332144701
 20
279.4348098097
 40
16.5
 50
259.3846153846
 51
325.3846153846
  0
ARC
  8
0
 62
7
  6
CONTINUOUS
 10
92.6656978453
 20
330.7712796044
 40
16.5
 50
231.6923076923
 51
297.6923076923
  0
ARC
  8
0
 62
7
  6
CONTINUOUS
 10
139.4451282447
 20
347.0288084663
 40
14.8
 50
132.1129834615
 51
203.6923076923
  0
ARC
  8
0
 62
7
  6
CONTINUOUS
 10
61.9678889628
 20
265.0140111306
 40
14.8
 50
187.4975988461
 51
259.0769230769
  0
ARC
  8
0
 62
7
  6
CONTINUOUS
 10
90.5990926116
 20
315.5696219844
 40
14.8
 50
159.8052911538
 51
231.3846153846
  0
ARC
  8
0
 62
7
  6
CONTINUOUS
 10
178.839578851
 20
269.6051762841
 40
6.0
 50
355.4216527464
 51
184.5783472536
  0
CIRCLE
  8
0
 62
7
  6
CONTINUOUS
 10
178.839578851
 20
333.211136823
 40
4.0
  0
ARC
  8
0
 62
7
  6
CONTINUOUS
 10
126.7088417765
 20
331.1333956494
 40
3.25
 50
242.5422122714
 51
23.6923076923
  0
ARC
  8
0
 62
7
  6
CONTINUOUS
 10
178.6515694942
 20
344.0288084663
 40
3.25
 50
214.849904579
 51
356.0
  0
ARC
  8
0
 62
7
  6
CONTINUOUS
 10
67.814521906
 20
245.5026291999
 40
3.25
 50
297.9268276559
 51
79.0769230769
  0
ARC
  8
0
 62
7
  6
CONTINUOUS
 10
86.7086376791
 20
295.5760854778
 40
3.25
 50
270.2345199637
 51
51.3846153846
  0
ARC
  8
0
 62
7
  6
CONTINUOUS
 10
124.288093085
 20
326.4748040411
 40
2.0
 50
62.5422122714
 51
117.6923076923
  0
ARC
  8
0
 62
7
  6
CONTINUOUS
 10
174.3431475093
 20
341.0288084663
 40
2.0
 50
34.849904579
 51
90.0
  0
ARC
  8
0
 62
7
  6
CONTINUOUS
 10
70.2733256451
 20
240.8640104213
 40
2.0
 50
117.926827656
 51
173.0769230769
  0
ARC
  8
0
 62
7
  6
CONTINUOUS
 10
86.7301266331
 20
290.3261294566
 40
2.0
 50
90.2345199636
 51
145.3846153846
  0
ARC
  8
0
 62
7
  6
CONTINUOUS
 10
130.1909208803
 20
357.2659782928
 40
1.0
 50
24.0
 51
132.1129834615
  0
ARC
  8
0
 62
7
  6
CONTINUOUS
 10
48.2858744005
 20
263.2133230629
 40
1.0
 50
79.3846153846
 51
187.4975988461
  0
ARC
  8
0
 62
7
  6
CONTINUOUS
 10
77.6474489037
 20
320.3335410918
 40
1.0
 50
51.6923076923
 51
159.8052911538
  0
ARC
  8
0
 62
7
  6
CONTINUOUS
 10
171.9173916201
 20
269.0508631538
 40
0.9443458372
 50
315.0
 51
4.5783472536
  0
ARC
  8
0
 62
7
  6
CONTINUOUS
 10
141.9998525202
 20
239.1333240539
 40
0.9443458372
 50
265.4216527464
 51
315.0
  0
ARC
  8
0
 62
7
  6
CONTINUOUS
 10
308.6991188731
 20
215.5816636533
 40
16.5
 50
93.2307692308
 51
159.2307692308
  0
ARC
  8
0
 62
7
  6
CONTINUOUS
 10
286.0963895313
 20
157.1377322422
 40
16.5
 50
65.5384615385
 51
131.5384615385
  0
ARC
  8
0
 62
7
  6
CONTINUOUS
 10
238.9224174473
 20
115.892213088
 40
16.5
 50
37.8461538462
 51
103.8461538462
  0
ARC
  8
0
 62
7
  6
CONTINUOUS
 10
300.1654314921
 20
228.330680528
 40
14.8
 50
21.3437526922
 51
92.9230769231
  0
ARC
  8
0
 62
7
  6
CONTINUOUS
 10
284.4649481812
 20
172.392228324
 40
14.8
 50
353.6514449999
 51
65.2307692308
  0
ARC
  8
0
 62
7
  6
CONTINUOUS
 10
244.5669656804
 20
130.1575671611
 40
14.8
 50
325.9591373076
 51
37.5384615385
  0
ARC
  8
0
 62
7
  6
CONTINUOUS
 10
189.6116309579
 20
111.302148929
 40
14.8
 50
298.2668296153
 51
9.8461538462
  0
ARC
  8
0
 62
7
  6
CONTINUOUS
 10
216.2336183121
 20
232.211136823
 40
6.0
 50
265.4216527464
 51
94.5783472536
  0
ARC
  8
0
 62
7
  6
CONTINUOUS
 10
283.4575870935
 20
192.735835803
 40
3.25
 50
104.0806738098
 51
245.2307692308
  0
ARC
  8
0
 62
7
  6
CONTINUOUS
 10
253.1291375337
 20
148.639081027
 40
3.25
 50
76.3883661175
 51
217.5384615385
  0
ARC
  8
0
 62
7
  6
CONTINUOUS
 10
205.781845366
 20
123.6876770815
 40
3.25
 50
48.6960584252
 51
189.8461538462
  0
ARC
  8
0
 62
7
  6
CONTINUOUS
 10
282.1803258567
 20
197.8280950003
 40
2.0
 50
284.0806738098
 51
339.2307692308
  0
ARC
  8
0
 62
7
  6
CONTINUOUS
 10
254.3646697224
 20
153.741625511
 40
2.0
 50
256.3883661175
 51
311.5384615385
  0
ARC
  8
0
 62
7
  6
CONTINUOUS
 10
209.2471254454
 20
127.6315754031
 40
2.0
 50
228.6960584252
 51
283.8461538462
  0
ARC
  8
0
 62
7
  6
CONTINUOUS
 10
298.1803211274
 20
170.8662712654
 40
1.0
 50
245.5384615385
 51
353.6514449999
  0
ARC
  8
0
 62
7
  6
CONTINUOUS
 10
256.0021776951
 20
122.4325476673
 40
1.0
 50
217.8461538461
 51
325.9591373076
  0
ARC
  8
0
 62
7
  6
CONTINUOUS
 10
196.1470127776
 20
99.1477758695
 40
1.0
 50
190.1538461538
 51
298.2668296153
  0
ARC
  8
0
 62
7
  6
CONTINUOUS
 10
215.6793051818
 20
225.2889495921
 40
0.9443458372
 50
85.4216527464
 51
135.0
  0
ARC
  8
0
 62
7
  6
CONTINUOUS
 10
185.7617660819
 20
195.3714104922
 40
0.9443458372
 50
135.0
 51
184.5783472536
  0
ARC
  8
0
 62
7
  6
CONTINUOUS
 10
211.0006422919
 20
359.119393099
 40
16.5
 50
176.3076923077
 51
242.3076923077
  0
ARC
  8
0
 62
7
  6
CONTINUOUS
 10
266.2939936813
 20
329.6368256292
 40
16.5
 50
148.6153846154
 51
214.6153846154
  0
ARC
  8
0
 62
7
  6
CONTINUOUS
 10
301.552592573
 20
277.8352069607
 40
16.5
 50
120.9230769231
 51
186.9230769231
  0
ARC
  8
0
 62
7
  6
CONTINUOUS
 10
197.3159577571
 20
352.1846500777
 40
14.8
 50
104.4206757692
 51
176.0
  0
ARC
  8
0
 62
7
  6
CONTINUOUS
 10
250.9540715266
 20
329.85600564
 40
14.8
 50
76.7283680768
 51
148.3076923077
  0
ARC
  8
0
 62
7
  6
CONTINUOUS
 10
288.071624098
 20
285.1580985046
 40
14.8
 50
49.0360603845
 51
120.6153846154
  0
ARC
  8
0
 62
7
  6
CONTINUOUS
 10
230.6373678897
 20
331.3081402588
 40
3.25
 50
187.1575968867
 51
328.3076923077
  0
ARC
  8
0
 62
7
  6
CONTINUOUS
 10
270.7569170475
 20
295.8855428124
 40
3.25
 50
159.4652891944
 51
300.6153846154
  0
ARC
  8
0
 62
7
  6
CONTINUOUS
 10
289.8193117485
 20
245.8759063137
 40
3.25
 50
131.7729815021
 51
272.9230769231
  0
ARC
  8
0
 62
7
  6
CONTINUOUS
 10
225.428280166
 20
330.6539957131
 40
2.0
 50
7.1575968867
 51
62.3076923077
  0
ARC
  8
0
 62
7
  6
CONTINUOUS
 10
265.8405028062
 20
297.7271103533
 40
2.0
 50
339.4652891944
 51
34.6153846154
  0
ARC
  8
0
 62
7
  6
CONTINUOUS
 10
286.321862243
 20
249.7913050107
 40
2.0
 50
311.7729815022
 51
6.9230769231
  0
ARC
  8
0
 62
7
  6
CONTINUOUS
 10
193.8792141182
 20
365.5498583874
 40
1.0
 50
356.3076923077
 51
104.4206757692
  0
ARC
  8
0
 62
7
  6
CONTINUOUS
 10
254.1221081636
 20
343.2874442773
 40
1.0
 50
328.6153846154
 51
76.7283680768
  0
ARC
  8
0
 62
7
  6
CONTINUOUS
 10
297.1186819963
 20
295.5787867441
 40
1.0
 50
300.9230769231
 51
49.0360603845
  0
ARC
  8
0
 62
7
  6
CONTINUOUS
 10
313.0189387162
 20
233.3533642769
 40
1.0
 50
273.2307692308
 51
21.3437526922
  0
ARC
  8
0
 62
7
  6
CONTINUOUS
 10
185.7617660819
 20
269.0508631538
 40
0.9443458372
 50
175.4216527464
 51
225.0
  0
ARC
  8
0
 62
7
  6
CONTINUOUS
 10
215.6793051818
 20
239.1333240539
 40
0.9443458372
 50
225.0
 51
274.5783472536
  0
ARC
  8
0
 62
7
  6
CONTINUOUS
 10
441.0625
 20
126.711136823
 40
2.0
 50
180.0
 51
270.0
  0
ARC
  8
0
 62
7
  6
CONTINUOUS
 10
441.0625
 20
337.711136823
 40
2.0
 50
90.0
 51
180.0
  0
ARC
  8
0
 62
7
  6
CONTINUOUS
 10
487.0625
 20
126.711136823
 40
2.0
 50
270.0
 51
360.0
  0
ARC
  8
0
 62
7
  6
CONTINUOUS
 10
487.0625
 20
337.711136823
 40
2.0
 50
0.0
 51
90.0
  0
ENDSEC
  0
EOF
