  0
SECTION
  2
HEADER
  9
$EXTMAX
 10
594.0
 20
420.0
 30
0.0
  9
$EXTMIN
 10
0.0
 20
0.0
 30
0.0
  9
$LIMMIN
 10
0.0
 20
0.0
  9
$LIMMAX
 10
594.0
 20
420.0
  9
$VIEWCTR
 10
297.0
 20
210.0
  9
$VIEWSIZE
 40
420.0
  9
$CLAYER
  8
0
  9
$LTSCALE
 40
32.67
  9
$CELTYPE
  6
BYLAYER
  9
$DIMSCALE
 40
1.0
  9
$DIMASZ
 40
3.5
  9
$DIMEXO
 40
0.0
  9
$DIMDLI
 40
22.572
  9
$DIMEXE
 40
2.0
  9
$DIMCEN
 40
5.346
  9
$DIMLFAC
 40
1.0
  9
$DIMBLK
  1
_FILLED
  9
$DIMALT
 70
0
  9
$DIMALTF
 40
0.0393700787
  9
$DIMTXT
 40
3.5
  9
$AUNITS
 70
0
  9
$PDMODE
 70
3
  9
$PDSIZE
 40
0.3125
  9
$TILEMODE
 70
1
  0
ENDSEC
  0
SECTION
  2
TABLES
  0
TABLE
  2
LTYPE
 70
6
  0
LTYPE
  2
BYBLOCK
 70
0
  3

 72
65
 73
0
 40
0.0
  0
LTYPE
  2
BYLAYER
 70
0
  3

 72
65
 73
0
 40
0.0
  0
LTYPE
  2
CONTINUOUS
 70
64
  3
Solid line
 72
65
 73
0
 40
0.0
  0
LTYPE
  2
CENTER
 70
64
  3
____ _ ____ _ ____ _ ____ _ ____ _ ____ _ ____
 72
65
 73
4
 40
0.6
 49
0.375
 49
-0.075
 49
0.075
 49
-0.075
  0
LTYPE
  2
HIDDEN
 70
64
  3
- - - - - - - - - - - - - - - - - - - -
 72
65
 73
2
 40
0.2
 49
0.1
 49
-0.1
  0
LTYPE
  2
PHANTOM
 70
64
  3
_____ _ _ _____ _ _ _____ _ _ _____
 72
65
 73
6
 40
0.8
 49
0.45
 49
-0.05
 49
0.1
 49
-0.05
 49
0.1
 49
-0.05
  0
LTYPE
  2
DOT
 70
64
  3
. . . . . . . . . . . . . . . . . . . .
 72
65
 73
2
 40
0.2
 49
0.1
 49
-0.1
  0
LTYPE
  2
DASHED
 70
64
  3
- - - - - - - - - - - - - - - - - - - -
 72
65
 73
2
 40
0.2
 49
0.1
 49
-0.1
  0
ENDTAB
  0
TABLE
  2
LAYER
 70
36
  0
LAYER
  2
0
 70
0
 62
7
  6
CONTINUOUS
  0
LAYER
  2
DEFAULT_1
 70
0
 62
7
  6
CENTER
  0
LAYER
  2
DEFAULT_2
 70
0
 62
8
  6
HIDDEN
  0
LAYER
  2
DEFAULT_3
 70
0
 62
7
  6
PHANTOM
  0
LAYER
  2
1_CSYS
 70
0
 62
7
  6
CONTINUOUS
  0
LAYER
  2
1_DATUM_PLANE
 70
0
 62
7
  6
CONTINUOUS
  0
LAYER
  2
2_FEATURE
 70
0
 62
7
  6
CONTINUOUS
  0
LAYER
  2
6_DIM
 70
0
 62
7
  6
CONTINUOUS
  0
LAYER
  2
AXES
 70
0
 62
7
  6
CONTINUOUS
  0
LAYER
  2
BLANK_BELT
 70
0
 62
7
  6
CONTINUOUS
  0
LAYER
  2
BLANK_CURVE_BORE
 70
0
 62
7
  6
CONTINUOUS
  0
LAYER
  2
BLANK_PLAN
 70
0
 62
7
  6
CONTINUOUS
  0
LAYER
  2
BLANK_SQ
 70
0
 62
7
  6
CONTINUOUS
  0
LAYER
  2
CSYS
 70
0
 62
7
  6
CONTINUOUS
  0
LAYER
  2
DTM_AXES
 70
0
 62
7
  6
CONTINUOUS
  0
LAYER
  2
DTM_CRV
 70
0
 62
7
  6
CONTINUOUS
  0
LAYER
  2
NOTES
 70
0
 62
7
  6
CONTINUOUS
  0
LAYER
  2
OUTERLINE
 70
0
 62
7
  6
CONTINUOUS
  0
LAYER
  2
PITCH_LINE
 70
0
 62
7
  6
CONTINUOUS
  0
LAYER
  2
PLANES
 70
0
 62
7
  6
CONTINUOUS
  0
LAYER
  2
QUILTS
 70
0
 62
7
  6
CONTINUOUS
  0
ENDTAB
  0
TABLE
  2
STYLE
 70
1
  0
STYLE
  2
STANDARD
 70
0
 40
0.0
 41
0.8
 50
0.0
 71
0
 42
0.2
  3
txt
  4

  0
STYLE
  2
TEXTSTYLE_1
 70
0
 40
0.0
 41
0.8
 50
0.0
 71
0
 42
0.2
  3
gdt
  4

  0
STYLE
  2
TEXTSTYLE_2
 70
0
 40
0.0
 41
0.6
 50
0.0
 71
0
 42
0.2
  3
txt
  4

  0
STYLE
  2
TEXTSTYLE_3
 70
0
 40
0.0
 41
1.0
 50
0.0
 71
0
 42
0.2
  3
ftb_____.ttf
  4

  0
STYLE
  2
TEXTSTYLE_4
 70
0
 40
0.0
 41
1.0
 50
0.0
 71
0
 42
0.2
  3
fti_____.ttf
  4

  0
STYLE
  2
TEXTSTYLE_5
 70
0
 40
0.0
 41
1.0
 50
0.0
 71
0
 42
0.2
  3
frutiger light.ttf
  4

  0
STYLE
  2
TEXTSTYLE_6
 70
0
 40
0.0
 41
0.7
 50
0.0
 71
0
 42
0.2
  3
txt
  4

  0
STYLE
  2
TEXTSTYLE_7
 70
0
 40
0.0
 41
0.8
 50
0.0
 71
0
 42
0.2
  3
txt
  4

  0
ENDTAB
  0
ENDSEC
  0
SECTION
  2
BLOCKS
  0
BLOCK
  8
0
 62
2
  6
CONTINUOUS
  2
UNI_LOGO2_BL1
 70
64
 10
557.4079930916
 20
35.8092573885
  0
TEXT
  8
0
 62
7
  6
CONTINUOUS
 10
548.4662781001
 20
30.9020137655
  7
TEXTSTYLE_4
 40
1.0655737705
  1
The brand for plastic modular belts and chains
 41
1.0
 72
0
  0
LINE
  8
0
 62
7
  6
CONTINUOUS
 10
533.3860614807
 20
36.3830278803
 11
533.3860614807
 21
34.2518803393
  0
LINE
  8
0
 62
7
  6
CONTINUOUS
 10
533.6751239738
 20
31.2609490436
 11
533.6751239738
 21
31.3577401029
  0
LINE
  8
0
 62
7
  6
CONTINUOUS
 10
533.3860614807
 20
31.3254764164
 11
533.4438739824
 21
31.1318942979
  0
LINE
  8
0
 62
7
  6
CONTINUOUS
 10
534.7795041036
 20
34.1699131262
 11
534.7795041036
 21
36.3830278803
  0
LINE
  8
0
 62
7
  6
CONTINUOUS
 10
535.6985614255
 20
32.3256508311
 11
535.6985614255
 21
30.8092573885
  0
LINE
  8
0
 62
7
  6
CONTINUOUS
 10
535.9876239807
 20
30.8092573885
 11
535.9876239807
 21
31.5513222666
  0
LINE
  8
0
 62
7
  6
CONTINUOUS
 10
535.9876239807
 20
31.6803770123
 11
535.9876239807
 21
32.3256508311
  0
LINE
  8
0
 62
7
  6
CONTINUOUS
 10
533.4438739824
 20
31.5190585802
 11
533.3860614807
 21
31.3254764164
  0
LINE
  8
0
 62
7
  6
CONTINUOUS
 10
533.7907489669
 20
31.0996306115
 11
533.6751239738
 21
31.2609490436
  0
LINE
  8
0
 62
7
  6
CONTINUOUS
 10
534.8891865358
 20
31.6158496394
 11
534.9469989807
 21
31.5190585802
  0
LINE
  8
0
 62
7
  6
CONTINUOUS
 10
535.2360615358
 20
31.5190585802
 11
535.1782489255
 21
31.6481133259
  0
LINE
  8
0
 62
7
  6
CONTINUOUS
 10
536.6647500053
 20
36.3830278803
 11
536.6647500053
 21
34.5797491918
  0
LINE
  8
0
 62
7
  6
CONTINUOUS
 10
536.6647500053
 20
33.2682737819
 11
536.6647500053
 21
32.612536077
  0
LINE
  8
0
 62
7
  6
CONTINUOUS
 10
537.0282489807
 20
31.4545312073
 11
537.0282489807
 21
30.8092573885
  0
LINE
  8
0
 62
7
  6
CONTINUOUS
 10
537.3173113704
 20
30.8092573885
 11
537.3173113704
 21
31.4545312073
  0
LINE
  8
0
 62
7
  6
CONTINUOUS
 10
533.6751239738
 20
31.3577401029
 11
533.7329364807
 21
31.4867948937
  0
LINE
  8
0
 62
7
  6
CONTINUOUS
 10
533.4438739824
 20
31.1318942979
 11
533.5594989807
 21
31.0028395296
  0
LINE
  8
0
 62
7
  6
CONTINUOUS
 10
536.9704363704
 20
31.583585953
 11
537.0282489807
 21
31.4545312073
  0
LINE
  8
0
 62
7
  6
CONTINUOUS
 10
537.7798115909
 20
31.0996306115
 11
537.8376238704
 21
30.9705758432
  0
LINE
  8
0
 62
7
  6
CONTINUOUS
 10
537.3173113704
 20
31.4545312073
 11
537.2594990909
 21
31.6158496394
  0
LINE
  8
0
 62
7
  6
CONTINUOUS
 10
537.7798115909
 20
31.6481133259
 11
537.7798115909
 21
31.583585953
  0
LINE
  8
0
 62
7
  6
CONTINUOUS
 10
537.7798115909
 20
31.1964216708
 11
537.7798115909
 21
31.0996306115
  0
LINE
  8
0
 62
7
  6
CONTINUOUS
 10
538.0581926282
 20
32.612536077
 11
538.0581926282
 21
36.3830278803
  0
LINE
  8
0
 62
7
  6
CONTINUOUS
 10
538.0688739807
 20
31.0673669025
 11
538.0688739807
 21
31.1318942979
  0
LINE
  8
0
 62
7
  6
CONTINUOUS
 10
538.3860614807
 20
36.3830278803
 11
538.3860614807
 21
32.612536077
  0
LINE
  8
0
 62
7
  6
CONTINUOUS
 10
535.1782489255
 20
31.0028395296
 11
535.2360615358
 21
31.1318942979
  0
LINE
  8
0
 62
7
  6
CONTINUOUS
 10
539.5719992012
 20
30.9060484591
 11
539.5141862601
 21
31.0673669025
  0
LINE
  8
0
 62
7
  6
CONTINUOUS
 10
539.2251242012
 20
31.583585953
 11
539.2251242012
 21
31.4867948937
  0
LINE
  8
0
 62
7
  6
CONTINUOUS
 10
539.2251242012
 20
31.3577401029
 11
539.2251242012
 21
31.1641579843
  0
LINE
  8
0
 62
7
  6
CONTINUOUS
 10
539.5141862601
 20
31.0673669025
 11
539.5141862601
 21
31.583585953
  0
LINE
  8
0
 62
7
  6
CONTINUOUS
 10
539.7795041036
 20
32.612536077
 11
539.7795041036
 21
34.4158147655
  0
LINE
  8
0
 62
7
  6
CONTINUOUS
 10
539.7795041036
 20
35.7272901754
 11
539.7795041036
 21
36.3830278803
  0
LINE
  8
0
 62
7
  6
CONTINUOUS
 10
540.0923117012
 20
32.3256508311
 11
540.0923117012
 21
32.164332399
  0
LINE
  8
0
 62
7
  6
CONTINUOUS
 10
540.0923117012
 20
31.8416954444
 11
540.0923117012
 21
30.8092573885
  0
LINE
  8
0
 62
7
  6
CONTINUOUS
 10
540.3813737601
 20
30.8092573885
 11
540.3813737601
 21
31.8416954444
  0
LINE
  8
0
 62
7
  6
CONTINUOUS
 10
540.3813737601
 20
32.164332399
 11
540.3813737601
 21
32.3256508311
  0
LINE
  8
0
 62
7
  6
CONTINUOUS
 10
534.9469989807
 20
31.1318942979
 11
534.8891865358
 21
31.035103216
  0
LINE
  8
0
 62
7
  6
CONTINUOUS
 10
537.2594990909
 20
31.6158496394
 11
537.2016864807
 21
31.6803770123
  0
LINE
  8
0
 62
7
  6
CONTINUOUS
 10
538.1266865909
 20
31.0028395296
 11
538.0688739807
 21
31.0673669025
  0
LINE
  8
0
 62
7
  6
CONTINUOUS
 10
539.2829364807
 20
30.873784767
 11
539.3407487601
 21
30.8092573885
  0
LINE
  8
0
 62
7
  6
CONTINUOUS
 10
539.2251242012
 20
30.9705758432
 11
539.2829364807
 21
30.873784767
  0
LINE
  8
0
 62
7
  6
CONTINUOUS
 10
539.6298114807
 20
30.8092573885
 11
539.5719992012
 21
30.9060484591
  0
LINE
  8
0
 62
7
  6
CONTINUOUS
 10
539.5141862601
 20
31.583585953
 11
539.4563739807
 21
31.6803770123
  0
LINE
  8
0
 62
7
  6
CONTINUOUS
 10
540.8438739807
 20
31.8416954444
 11
540.8438739807
 21
30.8092573885
  0
LINE
  8
0
 62
7
  6
CONTINUOUS
 10
541.1329367012
 20
30.8092573885
 11
541.1329367012
 21
31.5513222666
  0
LINE
  8
0
 62
7
  6
CONTINUOUS
 10
541.1329367012
 20
31.6803770123
 11
541.1329367012
 21
31.8416954444
  0
LINE
  8
0
 62
7
  6
CONTINUOUS
 10
541.6647500053
 20
34.8256508311
 11
541.6647500053
 21
32.612536077
  0
LINE
  8
0
 62
7
  6
CONTINUOUS
 10
533.5594989807
 20
31.6481133259
 11
533.4438739824
 21
31.5190585802
  0
LINE
  8
0
 62
7
  6
CONTINUOUS
 10
533.7329364807
 20
31.4867948937
 11
533.7907489669
 21
31.5513222666
  0
LINE
  8
0
 62
7
  6
CONTINUOUS
 10
533.5594989807
 20
31.0028395296
 11
533.6751239738
 21
30.9383121455
  0
LINE
  8
0
 62
7
  6
CONTINUOUS
 10
533.9641864669
 20
31.0028395296
 11
533.7907489669
 21
31.0996306115
  0
LINE
  8
0
 62
7
  6
CONTINUOUS
 10
539.1673112601
 20
31.6481133259
 11
539.2251242012
 21
31.583585953
  0
LINE
  8
0
 62
7
  6
CONTINUOUS
 10
542.1157487601
 20
31.583585953
 11
542.1735617012
 21
31.4222675209
  0
LINE
  8
0
 62
7
  6
CONTINUOUS
 10
542.4626237601
 20
31.4222675209
 11
542.4048114807
 21
31.583585953
  0
LINE
  8
0
 62
7
  6
CONTINUOUS
 10
542.1735617012
 20
31.4222675209
 11
542.1735617012
 21
30.8092573885
  0
LINE
  8
0
 62
7
  6
CONTINUOUS
 10
542.4626237601
 20
30.8092573885
 11
542.4626237601
 21
31.4222675209
  0
LINE
  8
0
 62
7
  6
CONTINUOUS
 10
542.9251239807
 20
31.6481133259
 11
542.9251239807
 21
31.583585953
  0
LINE
  8
0
 62
7
  6
CONTINUOUS
 10
543.0581926282
 20
32.612536077
 11
543.0581926282
 21
34.743683618
  0
LINE
  8
0
 62
7
  6
CONTINUOUS
 10
543.3860614807
 20
36.3830278803
 11
543.3860614807
 21
32.612536077
  0
LINE
  8
0
 62
7
  6
CONTINUOUS
 10
538.0688739807
 20
31.1318942979
 11
538.1266865909
 21
31.2286853572
  0
LINE
  8
0
 62
7
  6
CONTINUOUS
 10
533.6751239738
 20
30.9383121455
 11
533.8485614944
 21
30.873784767
  0
LINE
  8
0
 62
7
  6
CONTINUOUS
 10
535.1782489255
 20
31.6481133259
 11
535.0048114255
 21
31.7449043851
  0
LINE
  8
0
 62
7
  6
CONTINUOUS
 10
537.8376238704
 20
30.9705758432
 11
538.0110613704
 21
30.873784767
  0
LINE
  8
0
 62
7
  6
CONTINUOUS
 10
536.8548114807
 20
31.6481133259
 11
536.9704363704
 21
31.583585953
  0
LINE
  8
0
 62
7
  6
CONTINUOUS
 10
537.2016864807
 20
31.6803770123
 11
537.0860615909
 21
31.7449043851
  0
LINE
  8
0
 62
7
  6
CONTINUOUS
 10
542.9251239807
 20
31.0673669025
 11
543.0407492012
 21
30.9383121455
  0
LINE
  8
0
 62
7
  6
CONTINUOUS
 10
543.2719989807
 20
31.0028395296
 11
543.2141867012
 21
31.0673669025
  0
LINE
  8
0
 62
7
  6
CONTINUOUS
 10
542.9251239807
 20
31.583585953
 11
543.0407492012
 21
31.4545312073
  0
LINE
  8
0
 62
7
  6
CONTINUOUS
 10
542.4048114807
 20
31.583585953
 11
542.3469992012
 21
31.6803770123
  0
LINE
  8
0
 62
7
  6
CONTINUOUS
 10
544.7751235396
 20
31.0028395296
 11
544.7751235396
 21
31.0673669025
  0
LINE
  8
0
 62
7
  6
CONTINUOUS
 10
544.7795041036
 20
32.612536077
 11
544.7795041036
 21
36.3830278803
  0
LINE
  8
0
 62
7
  6
CONTINUOUS
 10
537.8376238704
 20
31.7126406987
 11
537.7798115909
 21
31.6481133259
  0
LINE
  8
0
 62
7
  6
CONTINUOUS
 10
534.7157489531
 20
31.6803770123
 11
534.8891865358
 21
31.6158496394
  0
LINE
  8
0
 62
7
  6
CONTINUOUS
 10
539.4563739807
 20
31.6803770123
 11
539.3407487601
 21
31.7449043851
  0
LINE
  8
0
 62
7
  6
CONTINUOUS
 10
543.2719989807
 20
31.5190585802
 11
543.2141867012
 21
31.583585953
  0
LINE
  8
0
 62
7
  6
CONTINUOUS
 10
544.4282492012
 20
31.1318942979
 11
544.4860614807
 21
31.0673669025
  0
LINE
  8
0
 62
7
  6
CONTINUOUS
 10
544.7751235396
 20
31.0673669025
 11
544.6594989807
 21
31.1964216708
  0
LINE
  8
0
 62
7
  6
CONTINUOUS
 10
544.4282492012
 20
31.6481133259
 11
544.4860614807
 21
31.583585953
  0
LINE
  8
0
 62
7
  6
CONTINUOUS
 10
544.7751235396
 20
31.583585953
 11
544.6594989807
 21
31.7126406987
  0
LINE
  8
0
 62
7
  6
CONTINUOUS
 10
538.0688739807
 20
31.583585953
 11
538.1266865909
 21
31.6481133259
  0
LINE
  8
0
 62
7
  6
CONTINUOUS
 10
537.8954364807
 20
31.3254764164
 11
537.7798115909
 21
31.1964216708
  0
LINE
  8
0
 62
7
  6
CONTINUOUS
 10
539.2251242012
 20
31.1641579843
 11
539.1673112601
 21
31.0996306115
  0
LINE
  8
0
 62
7
  6
CONTINUOUS
 10
539.1673112601
 20
30.9060484591
 11
539.2251242012
 21
30.9705758432
  0
LINE
  8
0
 62
7
  6
CONTINUOUS
 10
538.0110613704
 20
30.873784767
 11
538.1266865909
 21
30.8415210777
  0
LINE
  8
0
 62
7
  6
CONTINUOUS
 10
535.0048114255
 20
31.7449043851
 11
534.7735614807
 21
31.809431758
  0
LINE
  8
0
 62
7
  6
CONTINUOUS
 10
538.3579363704
 20
30.9383121455
 11
538.1266865909
 21
31.0028395296
  0
LINE
  8
0
 62
7
  6
CONTINUOUS
 10
537.0860615909
 20
31.7449043851
 11
536.9126240909
 21
31.809431758
  0
LINE
  8
0
 62
7
  6
CONTINUOUS
 10
539.3407487601
 20
31.7449043851
 11
539.1673112601
 21
31.809431758
  0
LINE
  8
0
 62
7
  6
CONTINUOUS
 10
542.0001242012
 20
31.6481133259
 11
542.1157487601
 21
31.583585953
  0
LINE
  8
0
 62
7
  6
CONTINUOUS
 10
542.3469992012
 20
31.6803770123
 11
542.2313739807
 21
31.7449043851
  0
LINE
  8
0
 62
7
  6
CONTINUOUS
 10
533.8485614944
 20
30.873784767
 11
534.0219989944
 21
30.8415210777
  0
LINE
  8
0
 62
7
  6
CONTINUOUS
 10
534.3110615082
 20
30.9383121455
 11
533.9641864669
 21
31.0028395296
  0
LINE
  8
0
 62
7
  6
CONTINUOUS
 10
536.7391865909
 20
31.6803770123
 11
536.8548114807
 21
31.6481133259
  0
LINE
  8
0
 62
7
  6
CONTINUOUS
 10
539.0516867012
 20
31.6803770123
 11
539.1673112601
 21
31.6481133259
  0
LINE
  8
0
 62
7
  6
CONTINUOUS
 10
543.3876242012
 20
30.9705758432
 11
543.2719989807
 21
31.0028395296
  0
LINE
  8
0
 62
7
  6
CONTINUOUS
 10
541.8844989807
 20
31.6803770123
 11
542.0001242012
 21
31.6481133259
  0
LINE
  8
0
 62
7
  6
CONTINUOUS
 10
543.0407492012
 20
30.9383121455
 11
543.2141867012
 21
30.873784767
  0
LINE
  8
0
 62
7
  6
CONTINUOUS
 10
542.2313739807
 20
31.7449043851
 11
542.0579364807
 21
31.809431758
  0
LINE
  8
0
 62
7
  6
CONTINUOUS
 10
543.4454364807
 20
31.4545312073
 11
543.2719989807
 21
31.5190585802
  0
LINE
  8
0
 62
7
  6
CONTINUOUS
 10
544.2548117012
 20
31.1964216708
 11
544.4282492012
 21
31.1318942979
  0
LINE
  8
0
 62
7
  6
CONTINUOUS
 10
544.6594989807
 20
31.7126406987
 11
544.4860614807
 21
31.7771680715
  0
LINE
  8
0
 62
7
  6
CONTINUOUS
 10
543.0407492012
 20
31.4545312073
 11
543.2719989807
 21
31.3577401029
  0
LINE
  8
0
 62
7
  6
CONTINUOUS
 10
544.6594989807
 20
31.1964216708
 11
544.4282492012
 21
31.29321273
  0
LINE
  8
0
 62
7
  6
CONTINUOUS
 10
543.2141867012
 20
31.583585953
 11
543.2719989807
 21
31.6481133259
  0
LINE
  8
0
 62
7
  6
CONTINUOUS
 10
533.6751239738
 20
31.7126406987
 11
533.5594989807
 21
31.6481133259
  0
LINE
  8
0
 62
7
  6
CONTINUOUS
 10
533.7907489669
 20
31.5513222666
 11
533.9641864669
 21
31.6481133259
  0
LINE
  8
0
 62
7
  6
CONTINUOUS
 10
536.1032490358
 20
31.7449043851
 11
535.9876239807
 21
31.6803770123
  0
LINE
  8
0
 62
7
  6
CONTINUOUS
 10
535.9876239807
 20
31.5513222666
 11
536.1032490358
 21
31.6158496394
  0
LINE
  8
0
 62
7
  6
CONTINUOUS
 10
535.0048114255
 20
30.9060484591
 11
535.1782489255
 21
31.0028395296
  0
LINE
  8
0
 62
7
  6
CONTINUOUS
 10
534.0219989944
 20
30.8415210777
 11
534.3688739531
 21
30.8092573885
  0
LINE
  8
0
 62
7
  6
CONTINUOUS
 10
538.1266865909
 20
30.8415210777
 11
538.3579363704
 21
30.8092573885
  0
LINE
  8
0
 62
7
  6
CONTINUOUS
 10
536.5079364807
 20
31.7126406987
 11
536.7391865909
 21
31.6803770123
  0
LINE
  8
0
 62
7
  6
CONTINUOUS
 10
538.8204365909
 20
31.7126406987
 11
539.0516867012
 21
31.6803770123
  0
LINE
  8
0
 62
7
  6
CONTINUOUS
 10
543.2719989807
 20
31.3577401029
 11
544.2548117012
 21
31.1964216708
  0
LINE
  8
0
 62
7
  6
CONTINUOUS
 10
544.4282492012
 20
31.29321273
 11
543.4454364807
 21
31.4545312073
  0
LINE
  8
0
 62
7
  6
CONTINUOUS
 10
536.9126240909
 20
31.809431758
 11
536.7391865909
 21
31.8416954444
  0
LINE
  8
0
 62
7
  6
CONTINUOUS
 10
543.2141867012
 20
30.873784767
 11
543.3876242012
 21
30.8415210777
  0
LINE
  8
0
 62
7
  6
CONTINUOUS
 10
542.0579364807
 20
31.809431758
 11
541.8844989807
 21
31.8416954444
  0
LINE
  8
0
 62
7
  6
CONTINUOUS
 10
544.3126239807
 20
31.6803770123
 11
544.4282492012
 21
31.6481133259
  0
LINE
  8
0
 62
7
  6
CONTINUOUS
 10
544.4860614807
 20
31.0673669025
 11
544.4282492012
 21
31.0028395296
  0
LINE
  8
0
 62
7
  6
CONTINUOUS
 10
543.0407492012
 20
31.7449043851
 11
542.9251239807
 21
31.6481133259
  0
LINE
  8
0
 62
7
  6
CONTINUOUS
 10
537.9532490909
 20
31.7771680715
 11
537.8376238704
 21
31.7126406987
  0
LINE
  8
0
 62
7
  6
CONTINUOUS
 10
538.0110613704
 20
31.3900038345
 11
537.8954364807
 21
31.3254764164
  0
LINE
  8
0
 62
7
  6
CONTINUOUS
 10
538.1266865909
 20
31.2286853572
 11
538.2423114807
 21
31.29321273
  0
LINE
  8
0
 62
7
  6
CONTINUOUS
 10
535.6985614255
 20
30.8092573885
 11
535.9876239807
 21
30.8092573885
  0
LINE
  8
0
 62
7
  6
CONTINUOUS
 10
537.0282489807
 20
30.8092573885
 11
537.3173113704
 21
30.8092573885
  0
LINE
  8
0
 62
7
  6
CONTINUOUS
 10
538.3579363704
 20
30.8092573885
 11
538.7048113704
 21
30.8092573885
  0
LINE
  8
0
 62
7
  6
CONTINUOUS
 10
539.3407487601
 20
30.8092573885
 11
539.6298114807
 21
30.8092573885
  0
LINE
  8
0
 62
7
  6
CONTINUOUS
 10
540.0923117012
 20
30.8092573885
 11
540.3813737601
 21
30.8092573885
  0
LINE
  8
0
 62
7
  6
CONTINUOUS
 10
540.8438739807
 20
30.8092573885
 11
541.1329367012
 21
30.8092573885
  0
LINE
  8
0
 62
7
  6
CONTINUOUS
 10
542.1735617012
 20
30.8092573885
 11
542.4626237601
 21
30.8092573885
  0
LINE
  8
0
 62
7
  6
CONTINUOUS
 10
543.7344992012
 20
30.8092573885
 11
544.0813742012
 21
30.8092573885
  0
LINE
  8
0
 62
7
  6
CONTINUOUS
 10
544.0813742012
 20
30.9383121455
 11
543.7344992012
 21
30.9383121455
  0
LINE
  8
0
 62
7
  6
CONTINUOUS
 10
538.7048113704
 20
30.9383121455
 11
538.3579363704
 21
30.9383121455
  0
LINE
  8
0
 62
7
  6
CONTINUOUS
 10
543.2141867012
 20
31.0673669025
 11
542.9251239807
 21
31.0673669025
  0
LINE
  8
0
 62
7
  6
CONTINUOUS
 10
535.2360615358
 20
31.1318942979
 11
534.9469989807
 21
31.1318942979
  0
LINE
  8
0
 62
7
  6
CONTINUOUS
 10
534.3110615082
 20
31.7126406987
 11
534.7157489531
 21
31.6803770123
  0
LINE
  8
0
 62
7
  6
CONTINUOUS
 10
534.7735614807
 20
31.809431758
 11
534.3688739531
 21
31.8416954444
  0
LINE
  8
0
 62
7
  6
CONTINUOUS
 10
543.3876242012
 20
30.8415210777
 11
543.7344992012
 21
30.8092573885
  0
LINE
  8
0
 62
7
  6
CONTINUOUS
 10
543.7344992012
 20
30.9383121455
 11
543.3876242012
 21
30.9705758432
  0
LINE
  8
0
 62
7
  6
CONTINUOUS
 10
539.1673112601
 20
31.809431758
 11
538.8204365909
 21
31.8416954444
  0
LINE
  8
0
 62
7
  6
CONTINUOUS
 10
543.9657489807
 20
31.7126406987
 11
544.3126239807
 21
31.6803770123
  0
LINE
  8
0
 62
7
  6
CONTINUOUS
 10
544.3126239807
 20
31.809431758
 11
543.9657489807
 21
31.8416954444
  0
LINE
  8
0
 62
7
  6
CONTINUOUS
 10
541.6532492012
 20
31.7126406987
 11
541.8844989807
 21
31.6803770123
  0
LINE
  8
0
 62
7
  6
CONTINUOUS
 10
544.4860614807
 20
31.7771680715
 11
544.3126239807
 21
31.809431758
  0
LINE
  8
0
 62
7
  6
CONTINUOUS
 10
544.6594989807
 20
30.9060484591
 11
544.7751235396
 21
31.0028395296
  0
LINE
  8
0
 62
7
  6
CONTINUOUS
 10
539.1673112601
 20
31.0996306115
 11
538.9938737601
 21
31.0028395296
  0
LINE
  8
0
 62
7
  6
CONTINUOUS
 10
541.2485612601
 20
31.7449043851
 11
541.1329367012
 21
31.6803770123
  0
LINE
  8
0
 62
7
  6
CONTINUOUS
 10
541.1329367012
 20
31.5513222666
 11
541.2485612601
 21
31.6158496394
  0
LINE
  8
0
 62
7
  6
CONTINUOUS
 10
533.8485614944
 20
31.7771680715
 11
533.6751239738
 21
31.7126406987
  0
LINE
  8
0
 62
7
  6
CONTINUOUS
 10
536.2766863704
 20
31.809431758
 11
536.1032490358
 21
31.7449043851
  0
LINE
  8
0
 62
7
  6
CONTINUOUS
 10
536.1032490358
 20
31.6158496394
 11
536.2766863704
 21
31.6803770123
  0
LINE
  8
0
 62
7
  6
CONTINUOUS
 10
534.8891865358
 20
31.035103216
 11
534.7157489531
 21
30.9705758432
  0
LINE
  8
0
 62
7
  6
CONTINUOUS
 10
544.3126239807
 20
30.9705758432
 11
544.0813742012
 21
30.9383121455
  0
LINE
  8
0
 62
7
  6
CONTINUOUS
 10
538.7048113704
 20
30.8092573885
 11
538.9938737601
 21
30.8415210777
  0
LINE
  8
0
 62
7
  6
CONTINUOUS
 10
544.0813742012
 20
30.8092573885
 11
544.4282492012
 21
30.8415210777
  0
LINE
  8
0
 62
7
  6
CONTINUOUS
 10
534.3688739531
 20
30.8092573885
 11
534.7735614807
 21
30.8415210777
  0
LINE
  8
0
 62
7
  6
CONTINUOUS
 10
534.7157489531
 20
30.9705758432
 11
534.3110615082
 21
30.9383121455
  0
LINE
  8
0
 62
7
  6
CONTINUOUS
 10
538.5891864807
 20
31.3577401029
 11
539.2251242012
 21
31.3577401029
  0
LINE
  8
0
 62
7
  6
CONTINUOUS
 10
539.2251242012
 20
31.4867948937
 11
538.5891864807
 21
31.4867948937
  0
LINE
  8
0
 62
7
  6
CONTINUOUS
 10
534.9469989807
 20
31.5190585802
 11
535.2360615358
 21
31.5190585802
  0
LINE
  8
0
 62
7
  6
CONTINUOUS
 10
537.7798115909
 20
31.583585953
 11
538.0688739807
 21
31.583585953
  0
LINE
  8
0
 62
7
  6
CONTINUOUS
 10
544.4860614807
 20
31.583585953
 11
544.7751235396
 21
31.583585953
  0
LINE
  8
0
 62
7
  6
CONTINUOUS
 10
538.4735615909
 20
31.7126406987
 11
538.8204365909
 21
31.7126406987
  0
LINE
  8
0
 62
7
  6
CONTINUOUS
 10
543.6188739807
 20
31.7126406987
 11
543.9657489807
 21
31.7126406987
  0
LINE
  8
0
 62
7
  6
CONTINUOUS
 10
543.9657489807
 20
31.8416954444
 11
543.6188739807
 21
31.8416954444
  0
LINE
  8
0
 62
7
  6
CONTINUOUS
 10
541.8844989807
 20
31.8416954444
 11
541.6532492012
 21
31.8416954444
  0
LINE
  8
0
 62
7
  6
CONTINUOUS
 10
541.1329367012
 20
31.8416954444
 11
540.8438739807
 21
31.8416954444
  0
LINE
  8
0
 62
7
  6
CONTINUOUS
 10
540.3813737601
 20
31.8416954444
 11
540.0923117012
 21
31.8416954444
  0
LINE
  8
0
 62
7
  6
CONTINUOUS
 10
538.8204365909
 20
31.8416954444
 11
538.4735615909
 21
31.8416954444
  0
LINE
  8
0
 62
7
  6
CONTINUOUS
 10
536.7391865909
 20
31.8416954444
 11
536.5079364807
 21
31.8416954444
  0
LINE
  8
0
 62
7
  6
CONTINUOUS
 10
540.0923117012
 20
32.164332399
 11
540.3813737601
 21
32.164332399
  0
LINE
  8
0
 62
7
  6
CONTINUOUS
 10
540.3813737601
 20
32.3256508311
 11
540.0923117012
 21
32.3256508311
  0
LINE
  8
0
 62
7
  6
CONTINUOUS
 10
535.9876239807
 20
32.3256508311
 11
535.6985614255
 21
32.3256508311
  0
LINE
  8
0
 62
7
  6
CONTINUOUS
 10
535.025405743
 20
32.612536077
 11
535.4379770916
 21
32.612536077
  0
LINE
  8
0
 62
7
  6
CONTINUOUS
 10
536.6647500053
 20
32.612536077
 11
538.0581926282
 21
32.612536077
  0
LINE
  8
0
 62
7
  6
CONTINUOUS
 10
538.3860614807
 20
32.612536077
 11
539.7795041036
 21
32.612536077
  0
LINE
  8
0
 62
7
  6
CONTINUOUS
 10
541.6647500053
 20
32.612536077
 11
543.0581926282
 21
32.612536077
  0
LINE
  8
0
 62
7
  6
CONTINUOUS
 10
543.3860614807
 20
32.612536077
 11
544.7795041036
 21
32.612536077
  0
LINE
  8
0
 62
7
  6
CONTINUOUS
 10
541.4219987601
 20
31.809431758
 11
541.2485612601
 21
31.7449043851
  0
LINE
  8
0
 62
7
  6
CONTINUOUS
 10
538.9938737601
 20
30.8415210777
 11
539.1673112601
 21
30.9060484591
  0
LINE
  8
0
 62
7
  6
CONTINUOUS
 10
544.4282492012
 20
30.8415210777
 11
544.6594989807
 21
30.9060484591
  0
LINE
  8
0
 62
7
  6
CONTINUOUS
 10
544.4282492012
 20
31.0028395296
 11
544.3126239807
 21
30.9705758432
  0
LINE
  8
0
 62
7
  6
CONTINUOUS
 10
543.3876242012
 20
31.6803770123
 11
543.6188739807
 21
31.7126406987
  0
LINE
  8
0
 62
7
  6
CONTINUOUS
 10
541.4219987601
 20
31.6803770123
 11
541.6532492012
 21
31.7126406987
  0
LINE
  8
0
 62
7
  6
CONTINUOUS
 10
538.3579363704
 20
31.3254764164
 11
538.5891864807
 21
31.3577401029
  0
LINE
  8
0
 62
7
  6
CONTINUOUS
 10
541.6532492012
 20
31.8416954444
 11
541.4219987601
 21
31.809431758
  0
LINE
  8
0
 62
7
  6
CONTINUOUS
 10
538.2423114807
 20
31.6803770123
 11
538.4735615909
 21
31.7126406987
  0
LINE
  8
0
 62
7
  6
CONTINUOUS
 10
543.6188739807
 20
31.8416954444
 11
543.2719989807
 21
31.809431758
  0
LINE
  8
0
 62
7
  6
CONTINUOUS
 10
538.5891864807
 20
31.4867948937
 11
538.2423114807
 21
31.4545312073
  0
LINE
  8
0
 62
7
  6
CONTINUOUS
 10
534.3688739531
 20
31.8416954444
 11
534.0219989944
 21
31.809431758
  0
LINE
  8
0
 62
7
  6
CONTINUOUS
 10
538.4735615909
 20
31.8416954444
 11
538.0688739807
 21
31.809431758
  0
LINE
  8
0
 62
7
  6
CONTINUOUS
 10
535.8450778741
 20
33.7600770606
 11
535.1893401692
 21
33.7600770606
  0
LINE
  8
0
 62
7
  6
CONTINUOUS
 10
541.2485612601
 20
31.6158496394
 11
541.4219987601
 21
31.6803770123
  0
LINE
  8
0
 62
7
  6
CONTINUOUS
 10
543.2719989807
 20
31.6481133259
 11
543.3876242012
 21
31.6803770123
  0
LINE
  8
0
 62
7
  6
CONTINUOUS
 10
543.2719989807
 20
31.809431758
 11
543.0407492012
 21
31.7449043851
  0
LINE
  8
0
 62
7
  6
CONTINUOUS
 10
538.9938737601
 20
31.0028395296
 11
538.7048113704
 21
30.9383121455
  0
LINE
  8
0
 62
7
  6
CONTINUOUS
 10
536.2766863704
 20
31.6803770123
 11
536.5079364807
 21
31.7126406987
  0
LINE
  8
0
 62
7
  6
CONTINUOUS
 10
536.5079364807
 20
31.8416954444
 11
536.2766863704
 21
31.809431758
  0
LINE
  8
0
 62
7
  6
CONTINUOUS
 10
534.0798114807
 20
31.6803770123
 11
534.3110615082
 21
31.7126406987
  0
LINE
  8
0
 62
7
  6
CONTINUOUS
 10
540.5991762348
 20
35.2354868967
 11
541.2549139397
 21
35.2354868967
  0
LINE
  8
0
 62
7
  6
CONTINUOUS
 10
538.2423114807
 20
31.29321273
 11
538.3579363704
 21
31.3254764164
  0
LINE
  8
0
 62
7
  6
CONTINUOUS
 10
538.2423114807
 20
31.4545312073
 11
538.0110613704
 21
31.3900038345
  0
LINE
  8
0
 62
7
  6
CONTINUOUS
 10
538.1266865909
 20
31.6481133259
 11
538.2423114807
 21
31.6803770123
  0
LINE
  8
0
 62
7
  6
CONTINUOUS
 10
534.7735614807
 20
30.8415210777
 11
535.0048114255
 21
30.9060484591
  0
LINE
  8
0
 62
7
  6
CONTINUOUS
 10
538.0688739807
 20
31.809431758
 11
537.9532490909
 21
31.7771680715
  0
LINE
  8
0
 62
7
  6
CONTINUOUS
 10
534.0219989944
 20
31.809431758
 11
533.8485614944
 21
31.7771680715
  0
LINE
  8
0
 62
7
  6
CONTINUOUS
 10
544.7795041036
 20
36.3830278803
 11
543.3860614807
 21
36.3830278803
  0
LINE
  8
0
 62
7
  6
CONTINUOUS
 10
541.4188483659
 20
36.3830278803
 11
541.0062770173
 21
36.3830278803
  0
LINE
  8
0
 62
7
  6
CONTINUOUS
 10
539.7795041036
 20
36.3830278803
 11
538.3860614807
 21
36.3830278803
  0
LINE
  8
0
 62
7
  6
CONTINUOUS
 10
538.0581926282
 20
36.3830278803
 11
536.6647500053
 21
36.3830278803
  0
LINE
  8
0
 62
7
  6
CONTINUOUS
 10
534.7795041036
 20
36.3830278803
 11
533.3860614807
 21
36.3830278803
  0
LINE
  8
0
 62
7
  6
CONTINUOUS
 10
533.9641864669
 20
31.6481133259
 11
534.0798114807
 21
31.6803770123
  0
CIRCLE
  8
0
 62
7
  6
CONTINUOUS
 10
544.0827827921
 20
38.7190934541
 40
2.0901639344
  0
ARC
  8
0
 62
7
  6
CONTINUOUS
 10
535.025405743
 20
34.2518803393
 40
1.6393442623
 50
180.0
 51
270.0
  0
ARC
  8
0
 62
7
  6
CONTINUOUS
 10
541.4188483659
 20
34.743683618
 40
1.6393442623
 50
0.0
 51
90.0
  0
ARC
  8
0
 62
7
  6
CONTINUOUS
 10
535.4379770916
 20
34.0879459131
 40
1.4754098361
 50
270.0
 51
326.2510114041
  0
ARC
  8
0
 62
7
  6
CONTINUOUS
 10
541.0062770173
 20
34.9076180442
 40
1.4754098361
 50
90.0
 51
146.2510114041
  0
ARC
  8
0
 62
7
  6
CONTINUOUS
 10
535.8450778741
 20
34.5797491918
 40
0.8196721311
 50
270.0
 51
360.0
  0
ARC
  8
0
 62
7
  6
CONTINUOUS
 10
540.5991762348
 20
34.4158147655
 40
0.8196721311
 50
90.0
 51
180.0
  0
ARC
  8
0
 62
7
  6
CONTINUOUS
 10
535.1893401692
 20
34.1699131262
 40
0.4098360656
 50
180.0
 51
270.0
  0
ARC
  8
0
 62
7
  6
CONTINUOUS
 10
541.2549139397
 20
34.8256508311
 40
0.4098360656
 50
0.0
 51
90.0
  0
SOLID
  8
0
 62
7
  6
CONTINUOUS
 10
540.0923117012
 20
32.1643327593
 11
540.0923117012
 21
32.3256512429
 12
540.3813737601
 22
32.1643327593
 13
540.3813737601
 23
32.3256512429
  0
SOLID
  8
0
 62
7
  6
CONTINUOUS
 10
534.3688739531
 20
31.841695792
 11
534.7735614807
 21
31.8094316148
 12
534.0219989944
 22
31.8094316148
 13
534.0219989944
 23
31.8094316148
  0
SOLID
  8
0
 62
7
  6
CONTINUOUS
 10
533.8485614944
 20
31.7771687019
 11
534.0219989944
 21
31.8094316148
 12
534.7735614807
 22
31.8094316148
 13
534.7735614807
 23
31.8094316148
  0
SOLID
  8
0
 62
7
  6
CONTINUOUS
 10
534.7735614807
 20
31.8094316148
 11
535.0048114255
 21
31.7449043986
 12
533.8485614944
 22
31.7771687019
 13
533.8485614944
 23
31.7771687019
  0
SOLID
  8
0
 62
7
  6
CONTINUOUS
 10
533.6751239738
 20
31.712640202
 11
533.8485614944
 21
31.7771687019
 12
535.0048114255
 22
31.7449043986
 13
535.0048114255
 23
31.7449043986
  0
SOLID
  8
0
 62
7
  6
CONTINUOUS
 10
533.6751239738
 20
31.712640202
 11
535.0048114255
 21
31.7449043986
 12
534.3110615082
 22
31.712640202
 13
534.3110615082
 23
31.712640202
  0
SOLID
  8
0
 62
7
  6
CONTINUOUS
 10
534.3110615082
 20
31.712640202
 11
535.0048114255
 21
31.7449043986
 12
534.7157489531
 22
31.6803773084
 13
534.7157489531
 23
31.6803773084
  0
SOLID
  8
0
 62
7
  6
CONTINUOUS
 10
535.0048114255
 20
31.7449043986
 11
535.1782489255
 21
31.6481130052
 12
534.7157489531
 22
31.6803773084
 13
534.7157489531
 23
31.6803773084
  0
SOLID
  8
0
 62
7
  6
CONTINUOUS
 10
534.8891865358
 20
31.6158502183
 11
534.7157489531
 21
31.6803773084
 12
535.1782489255
 22
31.6481130052
 13
535.1782489255
 23
31.6481130052
  0
SOLID
  8
0
 62
7
  6
CONTINUOUS
 10
534.8891865358
 20
31.6158502183
 11
535.1782489255
 21
31.6481130052
 12
534.9469989807
 22
31.5190586669
 13
534.9469989807
 23
31.5190586669
  0
SOLID
  8
0
 62
7
  6
CONTINUOUS
 10
535.1782489255
 20
31.6481130052
 11
535.2360615358
 21
31.5190586669
 12
534.9469989807
 22
31.5190586669
 13
534.9469989807
 23
31.5190586669
  0
SOLID
  8
0
 62
7
  6
CONTINUOUS
 10
536.2766863704
 20
31.8094307377
 11
536.5079364807
 21
31.841695041
 12
536.7391865909
 22
31.841695041
 13
536.7391865909
 23
31.841695041
  0
SOLID
  8
0
 62
7
  6
CONTINUOUS
 10
536.7391865909
 20
31.841695041
 11
536.9126240909
 21
31.8094307377
 12
536.2766863704
 22
31.8094307377
 13
536.2766863704
 23
31.8094307377
  0
SOLID
  8
0
 62
7
  6
CONTINUOUS
 10
536.1032490358
 20
31.7449036475
 11
536.2766863704
 21
31.8094307377
 12
536.9126240909
 22
31.8094307377
 13
536.9126240909
 23
31.8094307377
  0
SOLID
  8
0
 62
7
  6
CONTINUOUS
 10
536.9126240909
 20
31.8094307377
 11
537.0860615909
 21
31.7449036475
 12
536.1032490358
 22
31.7449036475
 13
536.1032490358
 23
31.7449036475
  0
SOLID
  8
0
 62
7
  6
CONTINUOUS
 10
537.0860615909
 20
31.7449036475
 11
536.5079364807
 21
31.7126400953
 12
536.1032490358
 22
31.7449036475
 13
536.1032490358
 23
31.7449036475
  0
SOLID
  8
0
 62
7
  6
CONTINUOUS
 10
535.9876239807
 20
31.6803765574
 11
536.1032490358
 21
31.7449036475
 12
536.5079364807
 22
31.7126400953
 13
536.5079364807
 23
31.7126400953
  0
SOLID
  8
0
 62
7
  6
CONTINUOUS
 10
536.5079364807
 20
31.7126400953
 11
536.2766863704
 21
31.6803765574
 12
535.9876239807
 22
31.6803765574
 13
535.9876239807
 23
31.6803765574
  0
SOLID
  8
0
 62
7
  6
CONTINUOUS
 10
536.5079364807
 20
31.7126400953
 11
537.0860615909
 21
31.7449036475
 12
536.7391865909
 22
31.6803765574
 13
536.7391865909
 23
31.6803765574
  0
SOLID
  8
0
 62
7
  6
CONTINUOUS
 10
537.0860615909
 20
31.7449036475
 11
537.2016864807
 21
31.6803765574
 12
536.7391865909
 22
31.6803765574
 13
536.7391865909
 23
31.6803765574
  0
SOLID
  8
0
 62
7
  6
CONTINUOUS
 10
536.8548114807
 20
31.6481130052
 11
536.7391865909
 21
31.6803765574
 12
537.2016864807
 22
31.6803765574
 13
537.2016864807
 23
31.6803765574
  0
SOLID
  8
0
 62
7
  6
CONTINUOUS
 10
537.2016864807
 20
31.6803765574
 11
537.2594990909
 21
31.6158494672
 12
536.8548114807
 22
31.6481130052
 13
536.8548114807
 23
31.6481130052
  0
SOLID
  8
0
 62
7
  6
CONTINUOUS
 10
536.9704363704
 20
31.583585915
 11
536.8548114807
 21
31.6481130052
 12
537.2594990909
 22
31.6158494672
 13
537.2594990909
 23
31.6158494672
  0
SOLID
  8
0
 62
7
  6
CONTINUOUS
 10
536.9704363704
 20
31.583585915
 11
537.2594990909
 21
31.6158494672
 12
537.0282489807
 22
31.4545309836
 13
537.0282489807
 23
31.4545309836
  0
SOLID
  8
0
 62
7
  6
CONTINUOUS
 10
537.2594990909
 20
31.6158494672
 11
537.3173113704
 21
31.4545309836
 12
537.0282489807
 22
31.4545309836
 13
537.0282489807
 23
31.4545309836
  0
SOLID
  8
0
 62
7
  6
CONTINUOUS
 10
536.2766863704
 20
31.6803765574
 11
536.1032490358
 21
31.6158494672
 12
535.9876239807
 22
31.6803765574
 13
535.9876239807
 23
31.6803765574
  0
SOLID
  8
0
 62
7
  6
CONTINUOUS
 10
536.1032490358
 20
31.6158494672
 11
535.9876239807
 21
31.5513216117
 12
535.9876239807
 22
31.6803765574
 13
535.9876239807
 23
31.6803765574
  0
SOLID
  8
0
 62
7
  6
CONTINUOUS
 10
535.9876239807
 20
31.5513216117
 11
535.6985614255
 21
30.8092570492
 12
535.9876239807
 22
31.6803765574
 13
535.9876239807
 23
31.6803765574
  0
SOLID
  8
0
 62
7
  6
CONTINUOUS
 10
535.9876239807
 20
31.6803765574
 11
535.6985614255
 21
30.8092570492
 12
535.9876239807
 22
32.3256504918
 13
535.9876239807
 23
32.3256504918
  0
SOLID
  8
0
 62
7
  6
CONTINUOUS
 10
535.6985614255
 20
30.8092570492
 11
535.6985614255
 21
32.3256504918
 12
535.9876239807
 22
32.3256504918
 13
535.9876239807
 23
32.3256504918
  0
SOLID
  8
0
 62
7
  6
CONTINUOUS
 10
535.9876239807
 20
31.5513216117
 11
535.9876239807
 21
30.8092570492
 12
535.6985614255
 22
30.8092570492
 13
535.6985614255
 23
30.8092570492
  0
SOLID
  8
0
 62
7
  6
CONTINUOUS
 10
537.0282489807
 20
30.8092570492
 11
537.0282489807
 21
31.4545309836
 12
537.3173113704
 22
31.4545309836
 13
537.3173113704
 23
31.4545309836
  0
SOLID
  8
0
 62
7
  6
CONTINUOUS
 10
537.3173113704
 20
31.4545309836
 11
537.3173113704
 21
30.8092570492
 12
537.0282489807
 22
30.8092570492
 13
537.0282489807
 23
30.8092570492
  0
SOLID
  8
0
 62
7
  6
CONTINUOUS
 10
538.0688739807
 20
31.809431823
 11
538.4735615909
 21
31.8416958158
 12
538.8204365909
 22
31.8416958158
 13
538.8204365909
 23
31.8416958158
  0
SOLID
  8
0
 62
7
  6
CONTINUOUS
 10
538.8204365909
 20
31.8416958158
 11
539.1673112601
 21
31.809431823
 12
538.0688739807
 22
31.809431823
 13
538.0688739807
 23
31.809431823
  0
SOLID
  8
0
 62
7
  6
CONTINUOUS
 10
537.9532490909
 20
31.7771687019
 11
538.0688739807
 21
31.809431823
 12
539.1673112601
 22
31.809431823
 13
539.1673112601
 23
31.809431823
  0
SOLID
  8
0
 62
7
  6
CONTINUOUS
 10
539.1673112601
 20
31.809431823
 11
539.3407487601
 21
31.7449043986
 12
537.9532490909
 22
31.7771687019
 13
537.9532490909
 23
31.7771687019
  0
SOLID
  8
0
 62
7
  6
CONTINUOUS
 10
537.8376238704
 20
31.7126398448
 11
537.9532490909
 21
31.7771687019
 12
539.3407487601
 22
31.7449043986
 13
539.3407487601
 23
31.7449043986
  0
SOLID
  8
0
 62
7
  6
CONTINUOUS
 10
537.8376238704
 20
31.7126398448
 11
539.3407487601
 21
31.7449043986
 12
538.4735615909
 22
31.7126398448
 13
538.4735615909
 23
31.7126398448
  0
SOLID
  8
0
 62
7
  6
CONTINUOUS
 10
538.4735615909
 20
31.7126398448
 11
539.3407487601
 21
31.7449043986
 12
538.8204365909
 22
31.7126398448
 13
538.8204365909
 23
31.7126398448
  0
SOLID
  8
0
 62
7
  6
CONTINUOUS
 10
538.8204365909
 20
31.7126398448
 11
539.3407487601
 21
31.7449043986
 12
539.0516867012
 22
31.6803774007
 13
539.0516867012
 23
31.6803774007
  0
SOLID
  8
0
 62
7
  6
CONTINUOUS
 10
539.3407487601
 20
31.7449043986
 11
539.4563739807
 21
31.6803774007
 12
539.0516867012
 22
31.6803774007
 13
539.0516867012
 23
31.6803774007
  0
SOLID
  8
0
 62
7
  6
CONTINUOUS
 10
537.7798115909
 20
31.6481126336
 11
537.8376238704
 21
31.7126398448
 12
538.4735615909
 22
31.7126398448
 13
538.4735615909
 23
31.7126398448
  0
SOLID
  8
0
 62
7
  6
CONTINUOUS
 10
539.1673112601
 20
31.6481126336
 11
539.0516867012
 21
31.6803774007
 12
539.4563739807
 22
31.6803774007
 13
539.4563739807
 23
31.6803774007
  0
SOLID
  8
0
 62
7
  6
CONTINUOUS
 10
539.1673112601
 20
31.6481126336
 11
539.4563739807
 21
31.6803774007
 12
539.2251242012
 22
31.5835861968
 13
539.2251242012
 23
31.5835861968
  0
SOLID
  8
0
 62
7
  6
CONTINUOUS
 10
539.4563739807
 20
31.6803774007
 11
539.5141862601
 21
31.5835861968
 12
539.2251242012
 22
31.5835861968
 13
539.2251242012
 23
31.5835861968
  0
SOLID
  8
0
 62
7
  6
CONTINUOUS
 10
539.2251242012
 20
31.4867945216
 11
539.2251242012
 21
31.5835861968
 12
539.5141862601
 22
31.5835861968
 13
539.5141862601
 23
31.5835861968
  0
SOLID
  8
0
 62
7
  6
CONTINUOUS
 10
539.2251242012
 20
31.4867945216
 11
539.5141862601
 21
31.5835861968
 12
539.2251242012
 22
31.3577403412
 13
539.2251242012
 23
31.3577403412
  0
SOLID
  8
0
 62
7
  6
CONTINUOUS
 10
539.2251242012
 20
31.3577403412
 11
539.5141862601
 21
31.5835861968
 12
539.2251242012
 22
31.1641579843
 13
539.2251242012
 23
31.1641579843
  0
SOLID
  8
0
 62
7
  6
CONTINUOUS
 10
539.5141862601
 20
31.5835861968
 11
539.5141862601
 21
31.0673661609
 12
539.2251242012
 22
31.1641579843
 13
539.2251242012
 23
31.1641579843
  0
SOLID
  8
0
 62
7
  6
CONTINUOUS
 10
541.4219987601
 20
31.8094310465
 11
541.6532492012
 21
31.8416957661
 12
541.8844989807
 22
31.8416957661
 13
541.8844989807
 23
31.8416957661
  0
SOLID
  8
0
 62
7
  6
CONTINUOUS
 10
541.8844989807
 20
31.8416957661
 11
542.0579364807
 21
31.8094310465
 12
541.4219987601
 22
31.8094310465
 13
541.4219987601
 23
31.8094310465
  0
SOLID
  8
0
 62
7
  6
CONTINUOUS
 10
541.2485612601
 20
31.7449047044
 11
541.4219987601
 21
31.8094310465
 12
542.0579364807
 22
31.8094310465
 13
542.0579364807
 23
31.8094310465
  0
SOLID
  8
0
 62
7
  6
CONTINUOUS
 10
542.0579364807
 20
31.8094310465
 11
542.2313739807
 21
31.7449047044
 12
541.2485612601
 22
31.7449047044
 13
541.2485612601
 23
31.7449047044
  0
SOLID
  8
0
 62
7
  6
CONTINUOUS
 10
542.2313739807
 20
31.7449047044
 11
541.6532492012
 21
31.7126400953
 12
541.2485612601
 22
31.7449047044
 13
541.2485612601
 23
31.7449047044
  0
SOLID
  8
0
 62
7
  6
CONTINUOUS
 10
541.1329367012
 20
31.6803773299
 11
541.2485612601
 21
31.7449047044
 12
541.6532492012
 22
31.7126400953
 13
541.6532492012
 23
31.7126400953
  0
SOLID
  8
0
 62
7
  6
CONTINUOUS
 10
541.6532492012
 20
31.7126400953
 11
541.4219987601
 21
31.6803773299
 12
541.1329367012
 22
31.6803773299
 13
541.1329367012
 23
31.6803773299
  0
SOLID
  8
0
 62
7
  6
CONTINUOUS
 10
541.6532492012
 20
31.7126400953
 11
542.2313739807
 21
31.7449047044
 12
541.8844989807
 22
31.6803773299
 13
541.8844989807
 23
31.6803773299
  0
SOLID
  8
0
 62
7
  6
CONTINUOUS
 10
542.2313739807
 20
31.7449047044
 11
542.3469992012
 21
31.6803773299
 12
541.8844989807
 22
31.6803773299
 13
541.8844989807
 23
31.6803773299
  0
SOLID
  8
0
 62
7
  6
CONTINUOUS
 10
542.0001242012
 20
31.6481130052
 11
541.8844989807
 21
31.6803773299
 12
542.3469992012
 22
31.6803773299
 13
542.3469992012
 23
31.6803773299
  0
SOLID
  8
0
 62
7
  6
CONTINUOUS
 10
542.0001242012
 20
31.6481130052
 11
542.3469992012
 21
31.6803773299
 12
542.1157487601
 22
31.5835862682
 13
542.1157487601
 23
31.5835862682
  0
SOLID
  8
0
 62
7
  6
CONTINUOUS
 10
542.3469992012
 20
31.6803773299
 11
542.4048114807
 21
31.5835862682
 12
542.1157487601
 22
31.5835862682
 13
542.1157487601
 23
31.5835862682
  0
SOLID
  8
0
 62
7
  6
CONTINUOUS
 10
542.1735617012
 20
31.422267832
 11
542.1157487601
 21
31.5835862682
 12
542.4048114807
 22
31.5835862682
 13
542.4048114807
 23
31.5835862682
  0
SOLID
  8
0
 62
7
  6
CONTINUOUS
 10
542.4048114807
 20
31.5835862682
 11
542.4626237601
 21
31.422267832
 12
542.1735617012
 22
31.422267832
 13
542.1735617012
 23
31.422267832
  0
SOLID
  8
0
 62
7
  6
CONTINUOUS
 10
541.4219987601
 20
31.6803773299
 11
541.2485612601
 21
31.6158502183
 12
541.1329367012
 22
31.6803773299
 13
541.1329367012
 23
31.6803773299
  0
SOLID
  8
0
 62
7
  6
CONTINUOUS
 10
541.2485612601
 20
31.6158502183
 11
541.1329367012
 21
31.5513216117
 12
541.1329367012
 22
31.6803773299
 13
541.1329367012
 23
31.6803773299
  0
SOLID
  8
0
 62
7
  6
CONTINUOUS
 10
541.1329367012
 20
31.5513216117
 11
540.8438739807
 21
30.8092577743
 12
541.1329367012
 22
31.6803773299
 13
541.1329367012
 23
31.6803773299
  0
SOLID
  8
0
 62
7
  6
CONTINUOUS
 10
541.1329367012
 20
31.6803773299
 11
540.8438739807
 21
30.8092577743
 12
541.1329367012
 22
31.8416957661
 13
541.1329367012
 23
31.8416957661
  0
SOLID
  8
0
 62
7
  6
CONTINUOUS
 10
540.8438739807
 20
30.8092577743
 11
540.8438739807
 21
31.8416957661
 12
541.1329367012
 22
31.8416957661
 13
541.1329367012
 23
31.8416957661
  0
SOLID
  8
0
 62
7
  6
CONTINUOUS
 10
541.1329367012
 20
31.5513216117
 11
541.1329367012
 21
30.8092577743
 12
540.8438739807
 22
30.8092577743
 13
540.8438739807
 23
30.8092577743
  0
SOLID
  8
0
 62
7
  6
CONTINUOUS
 10
542.1735617012
 20
30.8092577743
 11
542.1735617012
 21
31.422267832
 12
542.4626237601
 22
31.422267832
 13
542.4626237601
 23
31.422267832
  0
SOLID
  8
0
 62
7
  6
CONTINUOUS
 10
542.4626237601
 20
31.422267832
 11
542.4626237601
 21
30.8092577743
 12
542.1735617012
 22
30.8092577743
 13
542.1735617012
 23
30.8092577743
  0
SOLID
  8
0
 62
7
  6
CONTINUOUS
 10
543.2719989807
 20
31.8094314924
 11
543.6188739807
 21
31.8416958387
 12
543.9657489807
 22
31.8416958387
 13
543.9657489807
 23
31.8416958387
  0
SOLID
  8
0
 62
7
  6
CONTINUOUS
 10
543.9657489807
 20
31.8416958387
 11
544.3126239807
 21
31.8094314924
 12
543.2719989807
 22
31.8094314924
 13
543.2719989807
 23
31.8094314924
  0
SOLID
  8
0
 62
7
  6
CONTINUOUS
 10
543.0407492012
 20
31.7449043986
 11
543.2719989807
 21
31.8094314924
 12
544.3126239807
 22
31.8094314924
 13
544.3126239807
 23
31.8094314924
  0
SOLID
  8
0
 62
7
  6
CONTINUOUS
 10
543.0407492012
 20
31.7449043986
 11
544.3126239807
 21
31.8094314888
 12
544.4860614807
 22
31.7771687019
 13
544.4860614807
 23
31.7771687019
  0
SOLID
  8
0
 62
7
  6
CONTINUOUS
 10
543.0407492012
 20
31.7449043986
 11
544.4860614807
 21
31.7771687019
 12
543.6188739807
 22
31.7126401399
 13
543.6188739807
 23
31.7126401399
  0
SOLID
  8
0
 62
7
  6
CONTINUOUS
 10
543.6188739807
 20
31.7126401399
 11
544.4860614807
 21
31.7771687019
 12
543.9657489807
 22
31.7126401399
 13
543.9657489807
 23
31.7126401399
  0
SOLID
  8
0
 62
7
  6
CONTINUOUS
 10
544.4860614807
 20
31.7771687019
 11
544.6594989807
 21
31.7126401399
 12
543.9657489807
 22
31.7126401399
 13
543.9657489807
 23
31.7126401399
  0
SOLID
  8
0
 62
7
  6
CONTINUOUS
 10
544.3126239807
 20
31.6803773084
 11
543.9657489807
 21
31.7126401399
 12
544.6594989807
 22
31.7126401399
 13
544.6594989807
 23
31.7126401399
  0
SOLID
  8
0
 62
7
  6
CONTINUOUS
 10
542.9251239807
 20
31.6481128977
 11
543.0407492012
 21
31.7449043986
 12
543.6188739807
 22
31.7126401399
 13
543.6188739807
 23
31.7126401399
  0
SOLID
  8
0
 62
7
  6
CONTINUOUS
 10
544.3126239807
 20
31.6803773084
 11
544.6594989807
 21
31.7126401399
 12
544.4282492012
 22
31.6481128977
 13
544.4282492012
 23
31.6481128977
  0
SOLID
  8
0
 62
7
  6
CONTINUOUS
 10
544.4282492012
 20
31.6481128977
 11
544.6594989807
 21
31.7126401399
 12
544.4860614807
 22
31.5835858812
 13
544.4860614807
 23
31.5835858812
  0
SOLID
  8
0
 62
7
  6
CONTINUOUS
 10
544.6594989807
 20
31.7126401399
 11
544.7751235396
 21
31.5835858812
 12
544.4860614807
 22
31.5835858812
 13
544.4860614807
 23
31.5835858812
  0
SOLID
  8
0
 62
7
  6
CONTINUOUS
 10
534.0798114807
 20
31.6803773084
 11
533.5594989807
 21
31.6481129264
 12
534.3110615082
 22
31.7126401456
 13
534.3110615082
 23
31.7126401456
  0
SOLID
  8
0
 62
7
  6
CONTINUOUS
 10
533.5594989807
 20
31.6481129264
 11
533.6751239738
 21
31.7126401456
 12
534.3110615082
 22
31.7126401456
 13
534.3110615082
 23
31.7126401456
  0
SOLID
  8
0
 62
7
  6
CONTINUOUS
 10
534.0798114807
 20
31.6803773084
 11
533.9641864669
 21
31.6481129264
 12
533.5594989807
 22
31.6481129264
 13
533.5594989807
 23
31.6481129264
  0
SOLID
  8
0
 62
7
  6
CONTINUOUS
 10
533.4438739824
 20
31.5190588248
 11
533.5594989807
 21
31.6481129264
 12
533.9641864669
 22
31.6481129264
 13
533.9641864669
 23
31.6481129264
  0
SOLID
  8
0
 62
7
  6
CONTINUOUS
 10
537.7798115909
 20
31.6481130555
 11
538.4735615909
 21
31.7126400953
 12
538.2423114807
 22
31.6803773084
 13
538.2423114807
 23
31.6803773084
  0
SOLID
  8
0
 62
7
  6
CONTINUOUS
 10
538.2423114807
 20
31.6803773084
 11
538.1266865909
 21
31.6481130555
 12
537.7798115909
 22
31.6481130555
 13
537.7798115909
 23
31.6481130555
  0
SOLID
  8
0
 62
7
  6
CONTINUOUS
 10
537.7798115909
 20
31.5835859653
 11
537.7798115909
 21
31.6481130555
 12
538.1266865909
 22
31.6481130555
 13
538.1266865909
 23
31.6481130555
  0
SOLID
  8
0
 62
7
  6
CONTINUOUS
 10
538.1266865909
 20
31.6481130555
 11
538.0688739807
 21
31.5835859653
 12
537.7798115909
 22
31.5835859653
 13
537.7798115909
 23
31.5835859653
  0
SOLID
  8
0
 62
7
  6
CONTINUOUS
 10
542.9251239807
 20
31.6481130555
 11
543.6188739807
 21
31.7126400953
 12
543.3876242012
 22
31.6803773084
 13
543.3876242012
 23
31.6803773084
  0
SOLID
  8
0
 62
7
  6
CONTINUOUS
 10
543.3876242012
 20
31.6803773084
 11
543.2719989807
 21
31.6481130555
 12
542.9251239807
 22
31.6481130555
 13
542.9251239807
 23
31.6481130555
  0
SOLID
  8
0
 62
7
  6
CONTINUOUS
 10
542.9251239807
 20
31.5835859653
 11
542.9251239807
 21
31.6481130555
 12
543.2719989807
 22
31.6481130555
 13
543.2719989807
 23
31.6481130555
  0
SOLID
  8
0
 62
7
  6
CONTINUOUS
 10
543.2719989807
 20
31.6481130555
 11
543.2141867012
 21
31.5835859653
 12
542.9251239807
 22
31.5835859653
 13
542.9251239807
 23
31.5835859653
  0
SOLID
  8
0
 62
7
  6
CONTINUOUS
 10
543.0407492012
 20
31.4545317347
 11
542.9251239807
 21
31.5835859653
 12
543.2141867012
 22
31.5835859653
 13
543.2141867012
 23
31.5835859653
  0
SOLID
  8
0
 62
7
  6
CONTINUOUS
 10
533.4438739824
 20
31.5190588248
 11
533.9641864669
 21
31.6481130052
 12
533.7907489669
 22
31.5513216117
 13
533.7907489669
 23
31.5513216117
  0
SOLID
  8
0
 62
7
  6
CONTINUOUS
 10
533.7907489669
 20
31.5513216117
 11
533.7329364807
 21
31.4867945216
 12
533.4438739824
 22
31.5190588248
 13
533.4438739824
 23
31.5190588248
  0
SOLID
  8
0
 62
7
  6
CONTINUOUS
 10
533.3860614807
 20
31.325476038
 11
533.4438739824
 21
31.5190588248
 12
533.7329364807
 22
31.4867945216
 13
533.7329364807
 23
31.4867945216
  0
SOLID
  8
0
 62
7
  6
CONTINUOUS
 10
538.2423114807
 20
31.4545317347
 11
538.5891864807
 21
31.4867945557
 12
539.2251242012
 22
31.4867945557
 13
539.2251242012
 23
31.4867945557
  0
SOLID
  8
0
 62
7
  6
CONTINUOUS
 10
538.2423114807
 20
31.4545317347
 11
539.2251242012
 21
31.4867945557
 12
538.0110613704
 22
31.3900038345
 13
538.0110613704
 23
31.3900038345
  0
SOLID
  8
0
 62
7
  6
CONTINUOUS
 10
538.0110613704
 20
31.3900038345
 11
539.2251242012
 21
31.4867945557
 12
538.5891864807
 22
31.3577403754
 13
538.5891864807
 23
31.3577403754
  0
SOLID
  8
0
 62
7
  6
CONTINUOUS
 10
539.2251242012
 20
31.4867945557
 11
539.2251242012
 21
31.3577403754
 12
538.5891864807
 22
31.3577403754
 13
538.5891864807
 23
31.3577403754
  0
SOLID
  8
0
 62
7
  6
CONTINUOUS
 10
543.0407492012
 20
31.4545313481
 11
543.2141867012
 21
31.583585915
 12
543.2719989807
 22
31.5190588248
 13
543.2719989807
 23
31.5190588248
  0
SOLID
  8
0
 62
7
  6
CONTINUOUS
 10
543.2719989807
 20
31.5190588248
 11
543.4454364807
 21
31.4545313481
 12
543.0407492012
 22
31.4545313481
 13
543.0407492012
 23
31.4545313481
  0
SOLID
  8
0
 62
7
  6
CONTINUOUS
 10
543.2719989807
 20
31.3577403412
 11
543.0407492012
 21
31.4545313481
 12
543.4454364807
 22
31.4545313481
 13
543.4454364807
 23
31.4545313481
  0
SOLID
  8
0
 62
7
  6
CONTINUOUS
 10
543.4454364807
 20
31.4545313481
 11
544.4282492012
 21
31.2932132511
 12
543.2719989807
 22
31.3577403412
 13
543.2719989807
 23
31.3577403412
  0
SOLID
  8
0
 62
7
  6
CONTINUOUS
 10
544.2548117012
 20
31.1964222346
 11
543.2719989807
 21
31.3577403412
 12
544.4282492012
 22
31.2932132511
 13
544.4282492012
 23
31.2932132511
  0
SOLID
  8
0
 62
7
  6
CONTINUOUS
 10
544.4282492012
 20
31.2932132511
 11
544.6594989807
 21
31.1964222346
 12
544.2548117012
 22
31.1964222346
 13
544.2548117012
 23
31.1964222346
  0
SOLID
  8
0
 62
7
  6
CONTINUOUS
 10
544.4282492012
 20
31.1318947675
 11
544.2548117012
 21
31.1964222346
 12
544.6594989807
 22
31.1964222346
 13
544.6594989807
 23
31.1964222346
  0
SOLID
  8
0
 62
7
  6
CONTINUOUS
 10
544.4282492012
 20
31.1318947675
 11
544.6594989807
 21
31.1964222346
 12
544.4860614807
 22
31.0673665164
 13
544.4860614807
 23
31.0673665164
  0
SOLID
  8
0
 62
7
  6
CONTINUOUS
 10
544.6594989807
 20
31.1964222346
 11
544.7751235396
 21
31.0673665164
 12
544.4860614807
 22
31.0673665164
 13
544.4860614807
 23
31.0673665164
  0
SOLID
  8
0
 62
7
  6
CONTINUOUS
 10
544.4282492012
 20
31.0028394316
 11
544.4860614807
 21
31.0673665164
 12
544.7751235396
 22
31.0673665164
 13
544.7751235396
 23
31.0673665164
  0
SOLID
  8
0
 62
7
  6
CONTINUOUS
 10
544.7751235396
 20
31.0673665164
 11
544.7751235396
 21
31.0028394316
 12
544.4282492012
 22
31.0028394316
 13
544.4282492012
 23
31.0028394316
  0
SOLID
  8
0
 62
7
  6
CONTINUOUS
 10
544.3126239807
 20
30.9705762839
 11
544.4282492012
 21
31.0028394316
 12
544.7751235396
 22
31.0028394316
 13
544.7751235396
 23
31.0028394316
  0
SOLID
  8
0
 62
7
  6
CONTINUOUS
 10
544.3126239807
 20
30.9705762839
 11
544.7751235396
 21
31.0028394316
 12
544.0813742012
 22
30.9383123468
 13
544.0813742012
 23
30.9383123468
  0
SOLID
  8
0
 62
7
  6
CONTINUOUS
 10
544.7751235396
 20
31.0028394316
 11
544.6594989807
 21
30.9060491937
 12
544.0813742012
 22
30.9383123468
 13
544.0813742012
 23
30.9383123468
  0
SOLID
  8
0
 62
7
  6
CONTINUOUS
 10
544.6594989807
 20
30.9060491937
 11
543.2141867012
 21
30.8737848904
 12
544.0813742012
 22
30.9383123468
 13
544.0813742012
 23
30.9383123468
  0
SOLID
  8
0
 62
7
  6
CONTINUOUS
 10
544.0813742012
 20
30.9383123468
 11
543.2141867012
 21
30.8737848904
 12
543.7344992012
 22
30.9383123468
 13
543.7344992012
 23
30.9383123468
  0
SOLID
  8
0
 62
7
  6
CONTINUOUS
 10
543.2141867012
 20
30.8737848904
 11
543.0407492012
 21
30.9383123468
 12
543.7344992012
 22
30.9383123468
 13
543.7344992012
 23
30.9383123468
  0
SOLID
  8
0
 62
7
  6
CONTINUOUS
 10
543.2141867012
 20
30.8737848904
 11
544.6594989807
 21
30.9060491937
 12
543.3876242012
 22
30.8415205581
 13
543.3876242012
 23
30.8415205581
  0
SOLID
  8
0
 62
7
  6
CONTINUOUS
 10
544.6594989807
 20
30.9060491937
 11
544.4282492012
 21
30.8415205581
 12
543.3876242012
 22
30.8415205581
 13
543.3876242012
 23
30.8415205581
  0
SOLID
  8
0
 62
7
  6
CONTINUOUS
 10
543.7344992012
 20
30.8092581772
 11
543.3876242012
 21
30.8415205581
 12
544.4282492012
 22
30.8415205581
 13
544.4282492012
 23
30.8415205581
  0
SOLID
  8
0
 62
7
  6
CONTINUOUS
 10
544.4282492012
 20
30.8415205581
 11
544.0813742012
 21
30.8092581772
 12
543.7344992012
 22
30.8092581772
 13
543.7344992012
 23
30.8092581772
  0
SOLID
  8
0
 62
7
  6
CONTINUOUS
 10
533.3860614807
 20
31.325476038
 11
533.7329364807
 21
31.4867945216
 12
533.6751239738
 22
31.3577403412
 13
533.6751239738
 23
31.3577403412
  0
SOLID
  8
0
 62
7
  6
CONTINUOUS
 10
533.6751239738
 20
31.3577403412
 11
533.6751239738
 21
31.2609490436
 12
533.3860614807
 22
31.325476038
 13
533.3860614807
 23
31.325476038
  0
SOLID
  8
0
 62
7
  6
CONTINUOUS
 10
533.4438739824
 20
31.1318947675
 11
533.3860614807
 21
31.325476038
 12
533.6751239738
 22
31.2609490436
 13
533.6751239738
 23
31.2609490436
  0
SOLID
  8
0
 62
7
  6
CONTINUOUS
 10
533.6751239738
 20
31.2609490436
 11
533.7907489669
 21
31.0996304642
 12
533.4438739824
 22
31.1318947675
 13
533.4438739824
 23
31.1318947675
  0
SOLID
  8
0
 62
7
  6
CONTINUOUS
 10
533.5594989807
 20
31.0028388804
 11
533.4438739824
 21
31.1318947675
 12
533.7907489669
 22
31.0996304642
 13
533.7907489669
 23
31.0996304642
  0
SOLID
  8
0
 62
7
  6
CONTINUOUS
 10
533.7907489669
 20
31.0996304642
 11
533.9641864669
 21
31.0028388804
 12
533.5594989807
 22
31.0028388804
 13
533.5594989807
 23
31.0028388804
  0
SOLID
  8
0
 62
7
  6
CONTINUOUS
 10
533.6751239738
 20
30.9383122606
 11
533.5594989807
 21
31.0028388804
 12
533.9641864669
 22
31.0028388804
 13
533.9641864669
 23
31.0028388804
  0
SOLID
  8
0
 62
7
  6
CONTINUOUS
 10
533.9641864669
 20
31.0028388804
 11
534.3110615082
 21
30.9383122606
 12
533.6751239738
 22
30.9383122606
 13
533.6751239738
 23
30.9383122606
  0
SOLID
  8
0
 62
7
  6
CONTINUOUS
 10
533.8485614944
 20
30.8737848904
 11
533.6751239738
 21
30.9383122606
 12
534.3110615082
 22
30.9383122606
 13
534.3110615082
 23
30.9383122606
  0
SOLID
  8
0
 62
7
  6
CONTINUOUS
 10
537.8954364807
 20
31.3254759532
 11
538.0110613704
 21
31.3900038345
 12
538.5891864807
 22
31.3577403412
 13
538.5891864807
 23
31.3577403412
  0
SOLID
  8
0
 62
7
  6
CONTINUOUS
 10
538.5891864807
 20
31.3577403412
 11
538.3579363704
 21
31.3254759532
 12
537.8954364807
 22
31.3254759532
 13
537.8954364807
 23
31.3254759532
  0
SOLID
  8
0
 62
7
  6
CONTINUOUS
 10
537.7798115909
 20
31.1964218576
 11
537.8954364807
 21
31.3254759532
 12
538.3579363704
 22
31.3254759532
 13
538.3579363704
 23
31.3254759532
  0
SOLID
  8
0
 62
7
  6
CONTINUOUS
 10
538.1266865909
 20
31.2286853572
 11
537.7798115909
 21
31.1964218576
 12
538.2423114807
 22
31.2932132511
 13
538.2423114807
 23
31.2932132511
  0
SOLID
  8
0
 62
7
  6
CONTINUOUS
 10
537.7798115909
 20
31.1964218576
 11
538.3579363704
 21
31.325476038
 12
538.2423114807
 22
31.2932132511
 13
538.2423114807
 23
31.2932132511
  0
SOLID
  8
0
 62
7
  6
CONTINUOUS
 10
538.1266865909
 20
31.2286853572
 11
538.0688739807
 21
31.1318947675
 12
537.7798115909
 22
31.1964218576
 13
537.7798115909
 23
31.1964218576
  0
SOLID
  8
0
 62
7
  6
CONTINUOUS
 10
537.7798115909
 20
31.0996304642
 11
537.7798115909
 21
31.1964218576
 12
538.0688739807
 22
31.1318947675
 13
538.0688739807
 23
31.1318947675
  0
SOLID
  8
0
 62
7
  6
CONTINUOUS
 10
538.0688739807
 20
31.1318947675
 11
538.0688739807
 21
31.0673661609
 12
537.7798115909
 22
31.0996304642
 13
537.7798115909
 23
31.0996304642
  0
SOLID
  8
0
 62
7
  6
CONTINUOUS
 10
537.8376238704
 20
30.9705762839
 11
537.7798115909
 21
31.0996304642
 12
538.0688739807
 22
31.0673661609
 13
538.0688739807
 23
31.0673661609
  0
SOLID
  8
0
 62
7
  6
CONTINUOUS
 10
539.2251242012
 20
31.1641579843
 11
539.5141862601
 21
31.0673661609
 12
539.1673112601
 22
31.0996304642
 13
539.1673112601
 23
31.0996304642
  0
SOLID
  8
0
 62
7
  6
CONTINUOUS
 10
538.9938737601
 20
31.0028390707
 11
539.1673112601
 21
31.0996304642
 12
539.5141862601
 22
31.0673661609
 13
539.5141862601
 23
31.0673661609
  0
SOLID
  8
0
 62
7
  6
CONTINUOUS
 10
538.9938737601
 20
31.0028390707
 11
539.5141862601
 21
31.0673661609
 12
539.2251242012
 22
30.9705762839
 13
539.2251242012
 23
30.9705762839
  0
SOLID
  8
0
 62
7
  6
CONTINUOUS
 10
539.5141862601
 20
31.0673661609
 11
539.5719992012
 21
30.9060491937
 12
539.2251242012
 22
30.9705762839
 13
539.2251242012
 23
30.9705762839
  0
SOLID
  8
0
 62
7
  6
CONTINUOUS
 10
539.2829364807
 20
30.8737848904
 11
539.2251242012
 21
30.9705762839
 12
539.5719992012
 22
30.9060491937
 13
539.5719992012
 23
30.9060491937
  0
SOLID
  8
0
 62
7
  6
CONTINUOUS
 10
539.2829364807
 20
30.8737848904
 11
539.5719992012
 21
30.9060491937
 12
539.3407487601
 22
30.8092576254
 13
539.3407487601
 23
30.8092576254
  0
SOLID
  8
0
 62
7
  6
CONTINUOUS
 10
539.5719992012
 20
30.9060491937
 11
539.6298114807
 21
30.8092576254
 12
539.3407487601
 22
30.8092576254
 13
539.3407487601
 23
30.8092576254
  0
SOLID
  8
0
 62
7
  6
CONTINUOUS
 10
534.8891865358
 20
31.035103216
 11
534.9469989807
 21
31.1318946289
 12
535.2360615358
 22
31.1318946289
 13
535.2360615358
 23
31.1318946289
  0
SOLID
  8
0
 62
7
  6
CONTINUOUS
 10
535.2360615358
 20
31.1318946289
 11
535.1782489255
 21
31.0028390707
 12
534.8891865358
 22
31.035103216
 13
534.8891865358
 23
31.035103216
  0
SOLID
  8
0
 62
7
  6
CONTINUOUS
 10
534.7157489531
 20
30.9705762839
 11
534.8891865358
 21
31.035103216
 12
535.1782489255
 22
31.0028390707
 13
535.1782489255
 23
31.0028390707
  0
SOLID
  8
0
 62
7
  6
CONTINUOUS
 10
534.7157489531
 20
30.9705762839
 11
535.1782489255
 21
31.0028390707
 12
534.3110615082
 22
30.9383119806
 13
534.3110615082
 23
30.9383119806
  0
SOLID
  8
0
 62
7
  6
CONTINUOUS
 10
535.1782489255
 20
31.0028390707
 11
535.0048114255
 21
30.9060491937
 12
534.3110615082
 22
30.9383119806
 13
534.3110615082
 23
30.9383119806
  0
SOLID
  8
0
 62
7
  6
CONTINUOUS
 10
533.8485614944
 20
30.8737848904
 11
534.3110615082
 21
30.9383119806
 12
535.0048114255
 22
30.9060491937
 13
535.0048114255
 23
30.9060491937
  0
SOLID
  8
0
 62
7
  6
CONTINUOUS
 10
533.8485614944
 20
30.8737848904
 11
535.0048114255
 21
30.9060491937
 12
534.0219989944
 22
30.8415207131
 13
534.0219989944
 23
30.8415207131
  0
SOLID
  8
0
 62
7
  6
CONTINUOUS
 10
535.0048114255
 20
30.9060491937
 11
534.7735614807
 21
30.8415207131
 12
534.0219989944
 22
30.8415207131
 13
534.0219989944
 23
30.8415207131
  0
SOLID
  8
0
 62
7
  6
CONTINUOUS
 10
534.3688739531
 20
30.8092578002
 11
534.0219989944
 21
30.8415207131
 12
534.7735614807
 22
30.8415207131
 13
534.7735614807
 23
30.8415207131
  0
SOLID
  8
0
 62
7
  6
CONTINUOUS
 10
537.8376238704
 20
30.9705762839
 11
538.0688739807
 21
31.0673661609
 12
538.1266865909
 22
31.0028390707
 13
538.1266865909
 23
31.0028390707
  0
SOLID
  8
0
 62
7
  6
CONTINUOUS
 10
538.1266865909
 20
31.0028390707
 11
538.3579363704
 21
30.9383119806
 12
537.8376238704
 22
30.9705762839
 13
537.8376238704
 23
30.9705762839
  0
SOLID
  8
0
 62
7
  6
CONTINUOUS
 10
538.0110613704
 20
30.8737848904
 11
537.8376238704
 21
30.9705762839
 12
538.3579363704
 22
30.9383119806
 13
538.3579363704
 23
30.9383119806
  0
SOLID
  8
0
 62
7
  6
CONTINUOUS
 10
538.7048113704
 20
30.9383119664
 11
538.9938737601
 21
31.0028390707
 12
539.2251242012
 22
30.9705762839
 13
539.2251242012
 23
30.9705762839
  0
SOLID
  8
0
 62
7
  6
CONTINUOUS
 10
539.2251242012
 20
30.9705762839
 11
539.1673112601
 21
30.9060491937
 12
538.7048113704
 22
30.9383119664
 13
538.7048113704
 23
30.9383119664
  0
SOLID
  8
0
 62
7
  6
CONTINUOUS
 10
539.1673112601
 20
30.9060491937
 11
538.0110613704
 21
30.8737848904
 12
538.7048113704
 22
30.9383119664
 13
538.7048113704
 23
30.9383119664
  0
SOLID
  8
0
 62
7
  6
CONTINUOUS
 10
538.0110613704
 20
30.8737848904
 11
538.3579363704
 21
30.9383119664
 12
538.7048113704
 22
30.9383119664
 13
538.7048113704
 23
30.9383119664
  0
SOLID
  8
0
 62
7
  6
CONTINUOUS
 10
538.0110613704
 20
30.8737848904
 11
539.1673112601
 21
30.9060491937
 12
538.1266865909
 22
30.8415205568
 13
538.1266865909
 23
30.8415205568
  0
SOLID
  8
0
 62
7
  6
CONTINUOUS
 10
539.1673112601
 20
30.9060491937
 11
538.9938737601
 21
30.8415205568
 12
538.1266865909
 22
30.8415205568
 13
538.1266865909
 23
30.8415205568
  0
SOLID
  8
0
 62
7
  6
CONTINUOUS
 10
538.3579363704
 20
30.8092577215
 11
538.1266865909
 21
30.8415205568
 12
538.9938737601
 22
30.8415205568
 13
538.9938737601
 23
30.8415205568
  0
SOLID
  8
0
 62
7
  6
CONTINUOUS
 10
538.9938737601
 20
30.8415205568
 11
538.7048113704
 21
30.8092577215
 12
538.3579363704
 22
30.8092577215
 13
538.3579363704
 23
30.8092577215
  0
SOLID
  8
0
 62
7
  6
CONTINUOUS
 10
543.3876242012
 20
30.9705762839
 11
543.0407492012
 21
30.9383119664
 12
543.2719989807
 22
31.0028390707
 13
543.2719989807
 23
31.0028390707
  0
SOLID
  8
0
 62
7
  6
CONTINUOUS
 10
543.2719989807
 20
31.0028390707
 11
543.0407492012
 21
30.9383119664
 12
543.2141867012
 22
31.0673661467
 13
543.2141867012
 23
31.0673661467
  0
SOLID
  8
0
 62
7
  6
CONTINUOUS
 10
543.0407492012
 20
30.9383119664
 11
542.9251239807
 21
31.0673661467
 12
543.2141867012
 22
31.0673661467
 13
543.2141867012
 23
31.0673661467
  0
SOLID
  8
0
 62
7
  6
CONTINUOUS
 10
543.3876242012
 20
30.9705762839
 11
543.7344992012
 21
30.9383119664
 12
543.0407492012
 22
30.9383119664
 13
543.0407492012
 23
30.9383119664
  0
SOLID
  8
0
 62
7
  6
CONTINUOUS
 10
540.0923117012
 20
30.8092578002
 11
540.0923117012
 21
31.841695792
 12
540.3813737601
 22
30.8092578002
 13
540.3813737601
 23
31.841695792
  0
ENDBLK
  8
0
  6
BYBLOCK
 62
0
  0
BLOCK
  8
0
 62
2
  6
CONTINUOUS
  2
AMMEAAL_LOGO_BL0
 70
64
 10
416.1419631151
 20
19.7009994242
  0
TEXT
  8
0
 62
7
  6
CONTINUOUS
 10
402.4066669574
 20
19.0744135318
  7
TEXTSTYLE_3
 40
2.7338706658
  1
Ammeraal Beltech
 41
1.0
 51
15.0
 72
0
  0
TEXT
  8
0
 62
7
  6
CONTINUOUS
 10
413.2074677831
 20
16.800876859
  7
TEXTSTYLE_4
 40
1.0935482663
  1
Innovation & Service in Belting
 41
1.0
 72
0
  0
LINE
  8
0
 62
7
  6
CONTINUOUS
 10
396.382126306
 20
19.8410068404
 11
397.1602782994
 21
23.5019241381
  0
LINE
  8
0
 62
7
  6
CONTINUOUS
 10
407.2554465892
 20
27.1653180497
 11
397.6480960424
 21
24.0437006284
  0
LINE
  8
0
 62
7
  6
CONTINUOUS
 10
396.6074096383
 20
19.1476560374
 11
404.1144848995
 21
12.3882551114
  0
LINE
  8
0
 62
7
  6
CONTINUOUS
 10
396.869944049
 20
20.3827833308
 11
407.6782134142
 21
23.8946029297
  0
LINE
  8
0
 62
7
  6
CONTINUOUS
 10
407.674008277
 20
13.544814366
 11
399.2285486083
 21
21.1491404077
  0
LINE
  8
0
 62
7
  6
CONTINUOUS
 10
408.1938309968
 20
26.320392934
 11
407.2172714596
 21
21.7260415315
  0
LINE
  8
0
 62
7
  6
CONTINUOUS
 10
406.5174695119
 20
18.4337322177
 11
405.8310213004
 21
15.2042472933
  0
LINE
  8
0
 62
7
  6
CONTINUOUS
 10
408.8749270954
 20
13.9350165436
 11
409.831158631
 21
18.4337322177
  0
LINE
  8
0
 62
7
  6
CONTINUOUS
 10
410.5309605787
 20
21.7260415315
 11
410.9752023811
 21
23.8160348909
  0
LINE
  8
0
 62
7
  6
CONTINUOUS
 10
404.8275859748
 20
12.2366807987
 11
408.3871093524
 21
13.3932400533
  0
LINE
  8
0
 62
7
  6
CONTINUOUS
 10
407.9685476645
 20
27.013743737
 11
410.7499190488
 21
24.5093856939
  0
ARC
  8
0
 62
7
  6
CONTINUOUS
 10
397.8733793747
 20
23.3503498254
 40
0.7290321776
 50
108.0
 51
168.0
  0
ARC
  8
0
 62
7
  6
CONTINUOUS
 10
407.4807299215
 20
26.4719672466
 40
0.7290321776
 50
348.0
 51
108.0
  0
ARC
  8
0
 62
7
  6
CONTINUOUS
 10
410.2621013058
 20
23.9676092036
 40
0.7290321776
 50
348.0
 51
48.0
  0
ARC
  8
0
 62
7
  6
CONTINUOUS
 10
404.6023026425
 20
12.9300316018
 40
0.7290321776
 50
228.0
 51
288.0
  0
ARC
  8
0
 62
7
  6
CONTINUOUS
 10
397.0952273813
 20
19.6894325277
 40
0.7290321776
 50
108.0
 51
228.0
  0
ARC
  8
0
 62
7
  6
CONTINUOUS
 10
408.1618260201
 20
14.0865908563
 40
0.7290321776
 50
228.0
 51
348.0
  0
ENDBLK
  8
0
  6
BYBLOCK
 62
0
  0
BLOCK
  8
0
  2
_FILLED
 70
64
 10
0.0
 20
0.0
  0
SOLID
  8
0
  6
BYBLOCK
 62
0
 10
0.0
 20
0.0
 11
-1.0
 21
0.2142857143
 12
-1.0
 22
-0.2142857143
 13
-1.0
 23
-0.2142857143
  0
ENDBLK
  8
0
  6
BYBLOCK
 62
0
  0
ENDSEC
  0
SECTION
  2
ENTITIES
  0
TEXT
  8
0
 62
5
  6
CONTINUOUS
 10
480.0
 20
25.636
  7
TEXTSTYLE_2
 40
2.8
  1
Scale :
 41
0.6
 51
0.000019
 72
0
  0
TEXT
  8
0
 62
5
  6
CONTINUOUS
 10
500.0
 20
25.636
  7
TEXTSTYLE_2
 40
2.8
  1
Belt type:
 41
0.6
 51
0.000019
 72
0
  0
INSERT
  8
0
 62
2
  6
CONTINUOUS
  2
AMMEAAL_LOGO_BL0
 10
416.1419631151
 20
19.7009994242
  0
INSERT
  8
0
 62
2
  6
CONTINUOUS
  2
UNI_LOGO2_BL1
 10
557.4079930916
 20
35.8092573885
  0
LINE
  8
0
 62
2
  6
CONTINUOUS
 10
394.0
 20
30.0
 11
584.0
 21
30.0
  0
LINE
  8
0
 62
2
  6
CONTINUOUS
 10
394.0
 20
30.0
 11
394.0
 21
10.0
  0
LINE
  8
0
 62
2
  6
CONTINUOUS
 10
394.0
 20
10.0
 11
584.0
 21
10.0
  0
LINE
  8
0
 62
2
  6
CONTINUOUS
 10
479.0
 20
30.0
 11
479.0
 21
10.0
  0
LINE
  8
0
 62
2
  6
CONTINUOUS
 10
499.0
 20
30.0
 11
499.0
 21
10.0
  0
LINE
  8
0
 62
2
  6
CONTINUOUS
 10
584.0
 20
30.0
 11
584.0
 21
10.0
  0
TEXT
  8
0
 62
5
  6
CONTINUOUS
 10
397.0
 20
23.303
  7
TEXTSTYLE_5
 40
1.52
  1
                                                                     Ammeraal Beltech Modular A/S
 41
1.0
 72
0
  0
TEXT
  8
0
 62
5
  6
CONTINUOUS
 10
397.0
 20
20.595
  7
TEXTSTYLE_5
 40
1.5
  1
                                                                      Hjulmagervej 21, 7100 Vejle,  DK
 41
1.0
 72
0
  0
TEXT
  8
0
 62
5
  6
CONTINUOUS
 10
397.0
 20
17.881
  7
TEXTSTYLE_5
 40
1.495
  1
                                                                      tel: 
 41
1.0
 72
0
  0
TEXT
  8
0
 62
5
  6
CONTINUOUS
 10
441.9869465649
 20
17.881
  7
TEXTSTYLE_5
 40
1.51
  1
+45 75723100     fax: +45 75723348
 41
1.0
 72
0
  0
TEXT
  8
0
 62
5
  6
CONTINUOUS
 10
397.0
 20
15.177
  7
TEXTSTYLE_5
 40
1.5
  1
                                                                      admin@unichains.dk  www.unichains.com
 41
1.0
 72
0
  0
TEXT
  8
0
 62
5
  6
CONTINUOUS
 10
483.75
 20
13.75
  7
TEXTSTYLE_6
 40
5.0
  1
1:1
 41
0.7
 72
1
 11
489.0
 21
13.75
  0
TEXT
  8
0
 62
5
  6
CONTINUOUS
 10
502.0
 20
13.75
  7
TEXTSTYLE_7
 40
7.5
  1
Z13 Bore 120SQ
 41
0.6642857143
 72
0
  0
LINE
  8
0
 62
7
  6
CONTINUOUS
 10
0.0
 20
0.0
 11
0.0
 21
420.0
  0
LINE
  8
0
 62
7
  6
CONTINUOUS
 10
10.0
 20
10.0
 11
10.0
 21
410.0
  0
LINE
  8
0
 62
7
  6
CONTINUOUS
 10
0.0
 20
0.0
 11
594.0
 21
0.0
  0
LINE
  8
0
 62
7
  6
CONTINUOUS
 10
10.0
 20
10.0
 11
584.0
 21
10.0
  0
LINE
  8
0
 62
7
  6
CONTINUOUS
 10
394.0
 20
30.0
 11
584.0
 21
30.0
  0
LINE
  8
0
 62
7
  6
CONTINUOUS
 10
179.0
 20
5.0
 11
179.0
 21
10.0
  0
LINE
  8
0
 62
7
  6
CONTINUOUS
 10
179.0
 20
410.0
 11
179.0
 21
415.0
  0
LINE
  8
0
 62
7
  6
CONTINUOUS
 10
594.0
 20
420.0
 11
584.0
 21
410.0
  0
LINE
  8
0
 62
7
  6
CONTINUOUS
 10
384.0
 20
410.0
 11
384.0
 21
415.0
  0
LINE
  8
0
 62
7
  6
CONTINUOUS
 10
584.0
 20
297.0
 11
589.0
 21
297.0
  0
LINE
  8
0
 62
7
  6
CONTINUOUS
 10
10.0
 20
410.0
 11
584.0
 21
410.0
  0
LINE
  8
0
 62
7
  6
CONTINUOUS
 10
0.0
 20
420.0
 11
594.0
 21
420.0
  0
LINE
  8
0
 62
7
  6
CONTINUOUS
 10
584.0
 20
10.0
 11
584.0
 21
410.0
  0
LINE
  8
0
 62
7
  6
CONTINUOUS
 10
594.0
 20
0.0
 11
594.0
 21
420.0
  0
LINE
  8
0
 62
7
  6
CONTINUOUS
 10
64.2623054872
 20
251.1690898059
 11
61.1279216464
 21
225.3551164406
  0
LINE
  8
0
 62
7
  6
CONTINUOUS
 10
81.0585564917
 20
301.5262649742
 11
66.2868458477
 21
280.1257475127
  0
LINE
  8
0
 62
7
  6
CONTINUOUS
 10
119.3330443313
 20
338.3097221165
 11
96.3080277743
 21
326.2252612052
  0
LINE
  8
0
 62
7
  6
CONTINUOUS
 10
205.7001543643
 20
135.7536977923
 11
230.948106577
 21
141.9767590996
  0
LINE
  8
0
 62
7
  6
CONTINUOUS
 10
152.6593449561
 20
133.6015648854
 11
177.9072971687
 21
127.3785035781
  0
LINE
  8
0
 62
7
  6
CONTINUOUS
 10
104.6938946289
 20
156.3452390309
 11
124.1578452604
 21
139.1016834585
  0
LINE
  8
0
 62
7
  6
CONTINUOUS
 10
72.7921100063
 20
198.7744185731
 11
82.0131025331
 21
174.4606595098
  0
LINE
  8
0
 62
7
  6
CONTINUOUS
 10
183.2529207805
 20
336.2948470285
 11
182.8586607457
 21
336.0704102284
  0
LINE
  8
0
 62
7
  6
CONTINUOUS
 10
187.0535378553
 20
338.9622518774
 11
186.6483898649
 21
338.7581252257
  0
LINE
  8
0
 62
7
  6
CONTINUOUS
 10
186.5816620968
 20
338.2518655947
 11
186.9868100872
 21
338.4559922464
  0
LINE
  8
0
 62
7
  6
CONTINUOUS
 10
182.8177270696
 20
335.5614152155
 11
183.0771560734
 21
335.6686235059
  0
LINE
  8
0
 62
7
  6
CONTINUOUS
 10
144.151669394
 20
299.2293418467
 11
117.8597774418
 21
272.9374498945
  0
LINE
  8
0
 62
7
  6
CONTINUOUS
 10
183.0771560734
 20
335.6686235059
 11
183.4816493528
 21
336.0203091209
  0
LINE
  8
0
 62
7
  6
CONTINUOUS
 10
186.6483898649
 20
338.7581252257
 11
186.3671695554
 21
338.5376642328
  0
LINE
  8
0
 62
7
  6
CONTINUOUS
 10
186.3004417873
 20
338.0314046018
 11
186.5816620968
 21
338.2518655947
  0
LINE
  8
0
 62
7
  6
CONTINUOUS
 10
214.5545054854
 20
331.1337058788
 11
214.2240211482
 21
330.9978055151
  0
LINE
  8
0
 62
7
  6
CONTINUOUS
 10
213.4962718459
 20
328.6705568301
 11
213.1657874735
 21
328.5346563843
  0
LINE
  8
0
 62
7
  6
CONTINUOUS
 10
117.8597774418
 20
211.6128357998
 11
144.151669394
 21
185.3209438476
  0
LINE
  8
0
 62
7
  6
CONTINUOUS
 10
183.5328164472
 20
336.6565528787
 11
183.2529207805
 21
336.2948470285
  0
LINE
  8
0
 62
7
  6
CONTINUOUS
 10
168.5595425557
 20
320.8735227038
 11
150.1747662448
 21
302.488746393
  0
LINE
  8
0
 62
7
  6
CONTINUOUS
 10
114.6003728955
 20
266.9143530436
 11
96.2155965846
 21
248.5295767328
  0
LINE
  8
0
 62
7
  6
CONTINUOUS
 10
214.6470927647
 20
330.3992151216
 11
215.1932087164
 21
330.7203596006
  0
LINE
  8
0
 62
7
  6
CONTINUOUS
 10
213.5888590724
 20
327.9360659497
 11
214.1349750417
 21
328.2572104698
  0
LINE
  8
0
 62
7
  6
CONTINUOUS
 10
236.3122377531
 20
318.7145895495
 11
236.7492077052
 21
318.8496073606
  0
LINE
  8
0
 62
7
  6
CONTINUOUS
 10
238.0791943171
 20
315.7547888626
 11
238.5161642692
 21
315.8898066737
  0
LINE
  8
0
 62
7
  6
CONTINUOUS
 10
236.3816185558
 20
313.5138977347
 11
236.8185890583
 21
313.648915089
  0
LINE
  8
0
 62
7
  6
CONTINUOUS
 10
96.2155965846
 20
236.0207089614
 11
114.6003728955
 21
217.6359326506
  0
LINE
  8
0
 62
7
  6
CONTINUOUS
 10
150.1747662448
 20
182.0615393012
 11
168.5595425557
 21
163.6767629904
  0
LINE
  8
0
 62
7
  6
CONTINUOUS
 10
238.4575686192
 20
316.6020694042
 11
237.9390641866
 21
316.3688218035
  0
LINE
  8
0
 62
7
  6
CONTINUOUS
 10
236.6784589849
 20
314.2629480988
 11
236.4192064934
 21
314.1463245268
  0
LINE
  8
0
 62
7
  6
CONTINUOUS
 10
199.0984918539
 20
334.6867622236
 11
201.0983291247
 21
337.7111242496
  0
LINE
  8
0
 62
7
  6
CONTINUOUS
 10
197.9535750326
 20
332.8834839433
 11
198.8423911218
 21
334.2276449129
  0
LINE
  8
0
 62
7
  6
CONTINUOUS
 10
200.751866145
 20
338.3361957143
 11
197.2304974752
 21
333.082629232
  0
LINE
  8
0
 62
7
  6
CONTINUOUS
 10
209.6022866455
 20
335.5142928618
 11
206.054234767
 21
331.0786641093
  0
LINE
  8
0
 62
7
  6
CONTINUOUS
 10
206.3140785764
 20
330.3106105049
 11
209.5323910057
 21
334.1855957908
  0
LINE
  8
0
 62
7
  6
CONTINUOUS
 10
214.8205291747
 20
331.4362427981
 11
214.5545054854
 21
331.1337058788
  0
LINE
  8
0
 62
7
  6
CONTINUOUS
 10
215.1932087164
 20
330.7203596006
 11
215.4592324057
 21
331.0228965199
  0
LINE
  8
0
 62
7
  6
CONTINUOUS
 10
213.7622955352
 20
328.9730937494
 11
213.4962718459
 21
328.6705568301
  0
LINE
  8
0
 62
7
  6
CONTINUOUS
 10
214.1349750417
 20
328.2572104698
 11
214.4009987663
 21
328.5597474712
  0
LINE
  8
0
 62
7
  6
CONTINUOUS
 10
236.2536422406
 20
319.4268521658
 11
235.8313209258
 21
319.1137689005
  0
LINE
  8
0
 62
7
  6
CONTINUOUS
 10
236.8185890583
 20
313.648915089
 11
237.159375537
 21
313.8637689762
  0
LINE
  8
0
 62
7
  6
CONTINUOUS
 10
238.5161642692
 20
315.8898066737
 11
238.9384857217
 21
316.2028898248
  0
LINE
  8
DEFAULT_1
 62
2
  6
CENTER
 10
174.8139764413
 20
242.2751428471
 11
174.8139764413
 21
136.3364254575
  0
LINE
  8
DEFAULT_1
 62
2
  6
CENTER
 10
174.8139764413
 20
242.2751428471
 11
174.8139764413
 21
348.2138602368
  0
LINE
  8
0
 62
7
  6
CONTINUOUS
 10
178.5264074036
 20
363.2810519132
 11
177.8680502479
 21
353.8661059507
  0
LINE
  8
0
 62
7
  6
CONTINUOUS
 10
180.6430084321
 20
339.7065307507
 11
180.4383400686
 21
337.1615558979
  0
LINE
  8
0
 62
7
  6
CONTINUOUS
 10
181.0613287202
 20
337.1114547869
 11
181.2659970837
 21
339.6564296396
  0
LINE
  8
0
 62
7
  6
CONTINUOUS
 10
183.7579516456
 20
339.4560251989
 11
183.5328164472
 21
336.6565528787
  0
LINE
  8
0
 62
7
  6
CONTINUOUS
 10
184.1148715555
 20
336.0974567328
 11
184.3809404309
 21
339.4059240771
  0
LINE
  8
0
 62
7
  6
CONTINUOUS
 10
185.8309383793
 20
339.2521608049
 11
185.2971161873
 21
335.2020834018
  0
LINE
  8
0
 62
7
  6
CONTINUOUS
 10
185.9167570736
 20
335.1204113686
 11
186.3004417873
 21
338.0314046018
  0
LINE
  8
0
 62
7
  6
CONTINUOUS
 10
186.3671695554
 20
338.5376642328
 11
186.4505792656
 21
339.1704887717
  0
LINE
  8
0
 62
7
  6
CONTINUOUS
 10
188.4644207844
 20
337.2311257072
 11
188.1474638389
 21
334.8263921051
  0
LINE
  8
0
 62
7
  6
CONTINUOUS
 10
188.7671043707
 20
334.7447201187
 11
189.0840613162
 21
337.1494537208
  0
LINE
  8
0
 62
7
  6
CONTINUOUS
 10
190.7313722427
 20
340.4942049842
 11
190.6272834328
 21
339.8644513844
  0
LINE
  8
0
 62
7
  6
CONTINUOUS
 10
190.4191057546
 20
338.6049438322
 11
189.7529373128
 21
334.5745204412
  0
LINE
  8
0
 62
7
  6
CONTINUOUS
 10
190.3695708841
 20
334.4726001749
 11
191.0357393259
 21
338.5030235659
  0
LINE
  8
0
 62
7
  6
CONTINUOUS
 10
191.2439170041
 20
339.7625311181
 11
191.348005814
 21
340.3922847178
  0
LINE
  8
0
 62
7
  6
CONTINUOUS
 10
128.9493168856
 20
121.7790480496
 11
127.3478060372
 21
116.7115684461
  0
LINE
  8
0
 62
7
  6
CONTINUOUS
 10
205.0035521487
 20
337.1320852094
 11
203.0124225212
 21
331.4721026293
  0
LINE
  8
0
 62
7
  6
CONTINUOUS
 10
203.7199203437
 20
331.2232114259
 11
205.2874054201
 21
335.6789425367
  0
LINE
  8
0
 62
7
  6
CONTINUOUS
 10
209.5323910057
 20
334.1855957908
 11
207.9649059293
 21
329.72986468
  0
LINE
  8
0
 62
7
  6
CONTINUOUS
 10
211.9656943678
 20
334.6079512467
 11
209.5972665742
 21
329.0951888006
  0
LINE
  8
0
 62
7
  6
CONTINUOUS
 10
210.5887143635
 20
329.5028922327
 11
211.34459559
 21
331.2622845394
  0
LINE
  8
0
 62
7
  6
CONTINUOUS
 10
211.6469480382
 20
331.9660413635
 11
212.3524372253
 21
333.6081409484
  0
LINE
  8
0
 62
7
  6
CONTINUOUS
 10
214.9213133241
 20
331.6708284061
 11
214.8205291747
 21
331.4362427981
  0
LINE
  8
0
 62
7
  6
CONTINUOUS
 10
213.9134717594
 20
329.3249721615
 11
213.7622955352
 21
328.9730937494
  0
LINE
  8
0
 62
7
  6
CONTINUOUS
 10
214.4009987663
 20
328.5597474712
 11
214.6529591398
 21
329.1462114913
  0
LINE
  8
0
 62
7
  6
CONTINUOUS
 10
215.4592324057
 20
331.0228965199
 11
215.6608008457
 21
331.4920680645
  0
LINE
  8
0
 62
7
  6
CONTINUOUS
 10
234.335420704
 20
347.6953014765
 11
229.3771308411
 21
339.6647346686
  0
LINE
  8
0
 62
7
  6
CONTINUOUS
 10
228.622342433
 20
326.0078112131
 11
228.26388897
 21
325.4796680587
  0
LINE
  8
0
 62
7
  6
CONTINUOUS
 10
225.82640507
 20
321.8882940909
 11
225.252879479
 21
321.0432649699
  0
LINE
  8
0
 62
7
  6
CONTINUOUS
 10
233.8929237766
 20
321.2274022633
 11
233.274853017
 21
320.414386333
  0
LINE
  8
0
 62
7
  6
CONTINUOUS
 10
234.4127233946
 20
320.6718796983
 11
231.3996290636
 21
316.7084278566
  0
LINE
  8
0
 62
7
  6
CONTINUOUS
 10
231.9966874995
 20
316.2545322474
 11
235.6278523737
 21
321.0309997346
  0
LINE
  8
0
 62
7
  6
CONTINUOUS
 10
236.4587260994
 20
316.9339329048
 11
236.1325881776
 21
316.5410137464
  0
LINE
  8
0
 62
7
  6
CONTINUOUS
 10
238.6206378085
 20
316.7985292586
 11
238.4575686192
 21
316.6020694042
  0
LINE
  8
0
 62
7
  6
CONTINUOUS
 10
237.0045969068
 20
314.6558672571
 11
236.6784589849
 21
314.2629480988
  0
LINE
  8
0
 62
7
  6
CONTINUOUS
 10
238.9384857217
 20
316.2028898248
 11
239.101554911
 21
316.3993496792
  0
LINE
  8
0
 62
7
  6
CONTINUOUS
 10
78.20550988
 20
156.8955197144
 11
74.4324672535
 21
153.1527485661
  0
LINE
  8
0
 62
7
  6
CONTINUOUS
 10
276.5087884349
 20
307.9590631485
 11
268.3864503186
 21
303.152581572
  0
LINE
  8
0
 62
7
  6
CONTINUOUS
 10
49.5935383053
 20
211.5714341029
 11
44.5133224964
 21
210.0107951747
  0
LINE
  8
0
 62
7
  6
CONTINUOUS
 10
303.7436146782
 20
242.119445282
 11
309.0496939905
 21
242.4189596583
  0
LINE
  8
DEFAULT_1
 62
2
  6
CENTER
 10
174.8139764413
 20
242.2751428471
 11
68.8752590517
 21
242.2751428471
  0
LINE
  8
DEFAULT_1
 62
2
  6
CENTER
 10
174.8139764413
 20
242.2751428471
 11
280.752693831
 21
242.2751428471
  0
LINE
  8
0
 62
7
  6
CONTINUOUS
 10
55.137820797
 20
260.546156578
 11
64.4047650171
 21
258.757753256
  0
LINE
  8
0
 62
7
  6
CONTINUOUS
 10
288.9031452372
 20
182.220689048
 11
293.7406364078
 21
180.0200378482
  0
LINE
  8
0
 62
7
  6
CONTINUOUS
 10
77.3369667565
 20
314.0696047189
 11
84.7113258909
 21
308.1794885081
  0
LINE
  8
0
 62
7
  6
CONTINUOUS
 10
247.9262221485
 20
136.0796844448
 11
251.1869142484
 21
131.8830103379
  0
LINE
  8
0
 62
7
  6
CONTINUOUS
 10
121.8669209095
 20
351.1458068621
 11
125.6593181512
 21
342.5033324027
  0
LINE
  8
0
 62
7
  6
CONTINUOUS
 10
190.2001646664
 20
114.2667795675
 11
191.1370724311
 21
109.0354900162
  0
LINE
  8
0
 62
7
  6
CONTINUOUS
 10
190.5092893755
 20
370.2459715915
 11
190.8515359817
 21
375.54946608
  0
LINE
  8
0
 62
7
  6
CONTINUOUS
 10
142.2508124649
 20
125.6738884611
 11
145.1431830055
 21
134.6576980248
  0
LINE
  8
0
 62
7
  6
CONTINUOUS
 10
208.6724037518
 20
329.4809734766
 11
210.6635333793
 21
335.1409560566
  0
LINE
  8
0
 62
7
  6
CONTINUOUS
 10
248.1824953166
 20
348.2937086537
 11
250.9501964179
 21
352.8306698771
  0
LINE
  8
0
 62
7
  6
CONTINUOUS
 10
229.3900021375
 20
318.2353786393
 11
229.8201463433
 21
318.8691504985
  0
LINE
  8
0
 62
7
  6
CONTINUOUS
 10
232.2576302433
 20
322.4605244664
 11
232.7594650915
 21
323.1999248825
  0
LINE
  8
0
 62
7
  6
CONTINUOUS
 10
237.159375537
 20
313.8637689762
 11
237.4855134589
 21
314.2566881346
  0
LINE
  8
0
 62
7
  6
CONTINUOUS
 10
91.7934218815
 20
154.1627164072
 11
98.5294732825
 21
160.7733331063
  0
LINE
  8
0
 62
7
  6
CONTINUOUS
 10
289.0478577698
 20
302.0538699518
 11
293.6069663984
 21
304.7849347702
  0
LINE
  8
0
 62
7
  6
CONTINUOUS
 10
60.3550398416
 20
202.8370393809
 11
69.3916239054
 21
205.5600505962
  0
LINE
  8
0
 62
7
  6
CONTINUOUS
 10
295.3851002934
 20
253.1754302565
 11
285.9594437014
 21
252.6941409162
  0
LINE
  8
0
 62
7
  6
CONTINUOUS
 10
49.6680600378
 20
273.281198145
 11
44.444487265
 21
274.2602150075
  0
LINE
  8
0
 62
7
  6
CONTINUOUS
 10
286.640020717
 20
195.8946728817
 11
278.070349983
 21
199.8488333653
  0
LINE
  8
0
 62
7
  6
CONTINUOUS
 10
78.4120030465
 20
327.8878485817
 11
74.2417308812
 21
331.1822402702
  0
LINE
  8
0
 62
7
  6
CONTINUOUS
 10
252.276942047
 20
149.2391222307
 11
246.5264654604
 21
156.7228820242
  0
LINE
  8
0
 62
7
  6
CONTINUOUS
 10
129.2404763902
 20
362.8816598797
 11
127.0788639283
 21
367.73672096
  0
LINE
  8
0
 62
7
  6
CONTINUOUS
 10
200.1680314866
 20
123.8970026973
 11
198.5541139327
 21
133.1959226212
  0
LINE
  8
0
 62
7
  6
CONTINUOUS
 10
188.4239021046
 20
337.8802846808
 11
188.4644207844
 21
337.2311257072
  0
LINE
  8
0
 62
7
  6
CONTINUOUS
 10
189.0840613162
 20
337.1494537208
 11
189.0435433455
 21
337.7986126008
  0
LINE
  8
0
 62
7
  6
CONTINUOUS
 10
233.6967751787
 20
316.7378596409
 11
233.5483550731
 21
316.3633343103
  0
LINE
  8
0
 62
7
  6
CONTINUOUS
 10
237.4855134589
 20
314.2566881346
 11
237.7154685147
 21
314.7294429809
  0
LINE
  8
0
 62
7
  6
CONTINUOUS
 10
239.101554911
 20
316.3993496792
 11
239.3315093023
 21
316.8721048448
  0
LINE
  8
0
 62
7
  6
CONTINUOUS
 10
181.155226216
 20
336.719688362
 11
181.0613287202
 21
337.1114547869
  0
LINE
  8
0
 62
7
  6
CONTINUOUS
 10
180.4383400686
 20
337.1615558979
 11
180.5220041286
 21
336.6425406512
  0
LINE
  8
0
 62
7
  6
CONTINUOUS
 10
184.1985354948
 20
335.5784415182
 11
184.1148715555
 21
336.0974567328
  0
LINE
  8
0
 62
7
  6
CONTINUOUS
 10
202.0510140646
 20
331.7549941004
 11
201.7159700146
 21
338.0706685361
  0
LINE
  8
0
 62
7
  6
CONTINUOUS
 10
201.2526501061
 20
333.5638271572
 11
201.3279365073
 21
331.9541393892
  0
LINE
  8
0
 62
7
  6
CONTINUOUS
 10
201.0983291247
 20
337.7111242496
 11
201.267724526
 21
334.0893263574
  0
LINE
  8
0
 62
7
  6
CONTINUOUS
 10
205.2874054201
 20
335.6789425367
 11
205.370749046
 21
330.6424651263
  0
LINE
  8
0
 62
7
  6
CONTINUOUS
 10
206.054234767
 20
331.0786641093
 11
206.064797533
 21
336.758748879
  0
LINE
  8
0
 62
7
  6
CONTINUOUS
 10
213.9498005889
 20
329.7261922306
 11
213.9134717594
 21
329.3249721615
  0
LINE
  8
0
 62
7
  6
CONTINUOUS
 10
214.6529591398
 20
329.1462114913
 11
214.6892879694
 21
329.5474315604
  0
LINE
  8
0
 62
7
  6
CONTINUOUS
 10
214.9576422242
 20
332.0720486396
 11
214.9213133241
 21
331.6708284061
  0
LINE
  8
0
 62
7
  6
CONTINUOUS
 10
215.6608008457
 20
331.4920680645
 11
215.6971296047
 21
331.8932879694
  0
LINE
  8
0
 62
7
  6
CONTINUOUS
 10
234.110806438
 20
316.0623848177
 11
234.1776918683
 21
316.3386804041
  0
LINE
  8
0
 62
7
  6
CONTINUOUS
 10
180.5220041286
 20
336.6425406512
 11
180.6261350307
 21
336.378022961
  0
LINE
  8
0
 62
7
  6
CONTINUOUS
 10
183.4816493528
 20
336.0203091209
 11
183.6796778437
 21
335.3640249087
  0
LINE
  8
0
 62
7
  6
CONTINUOUS
 10
189.0435433455
 20
337.7986126008
 11
188.9696607816
 21
338.1946417588
  0
LINE
  8
0
 62
7
  6
CONTINUOUS
 10
233.5483550731
 20
316.3633343103
 11
233.4961182801
 21
315.9089732696
  0
LINE
  8
0
 62
7
  6
CONTINUOUS
 10
237.1383684321
 20
315.2084581108
 11
237.0045969068
 21
314.6558672571
  0
LINE
  8
0
 62
7
  6
CONTINUOUS
 10
181.3737214527
 20
336.3179016244
 11
181.155226216
 21
336.719688362
  0
LINE
  8
0
 62
7
  6
CONTINUOUS
 10
184.302666629
 20
335.3139237869
 11
184.1985354948
 21
335.5784415182
  0
LINE
  8
0
 62
7
  6
CONTINUOUS
 10
234.1401039307
 20
315.706253612
 11
234.110806438
 21
316.0623848177
  0
LINE
  8
0
 62
7
  6
CONTINUOUS
 10
237.7154685147
 20
314.7294429809
 11
237.767704895
 21
315.1838043642
  0
LINE
  8
0
 62
7
  6
CONTINUOUS
 10
238.6728747392
 20
317.2528901851
 11
238.6206378085
 21
316.7985292586
  0
LINE
  8
0
 62
7
  6
CONTINUOUS
 10
181.068410327
 20
163.6767629904
 11
199.4531866379
 21
182.0615393012
  0
LINE
  8
0
 62
7
  6
CONTINUOUS
 10
235.0275799872
 20
217.6359326506
 11
253.4123562981
 21
236.0207089614
  0
LINE
  8
0
 62
7
  6
CONTINUOUS
 10
205.4762834887
 20
185.3209438476
 11
231.7681754409
 21
211.6128357998
  0
LINE
  8
0
 62
7
  6
CONTINUOUS
 10
233.274853017
 20
320.414386333
 11
234.4127233946
 21
320.6718796983
  0
LINE
  8
0
 62
7
  6
CONTINUOUS
 10
235.0307939378
 20
321.4848953439
 11
233.8929237766
 21
321.2274022633
  0
LINE
  8
0
 62
7
  6
CONTINUOUS
 10
236.4192064934
 20
314.1463245268
 11
236.0637709646
 21
314.1095364365
  0
LINE
  8
0
 62
7
  6
CONTINUOUS
 10
253.4123562981
 20
248.5295767328
 11
235.0275799872
 21
266.9143530436
  0
LINE
  8
0
 62
7
  6
CONTINUOUS
 10
199.4531866379
 20
302.488746393
 11
181.068410327
 21
320.8735227038
  0
LINE
  8
0
 62
7
  6
CONTINUOUS
 10
231.7681754409
 20
272.9374498945
 11
205.4762834887
 21
299.2293418467
  0
LINE
  8
0
 62
7
  6
CONTINUOUS
 10
180.6261350307
 20
336.378022961
 11
180.9692279524
 21
335.9662160496
  0
LINE
  8
0
 62
7
  6
CONTINUOUS
 10
214.6892879694
 20
329.5474315604
 11
214.5463086153
 21
330.1646295136
  0
LINE
  8
0
 62
7
  6
CONTINUOUS
 10
215.6971296047
 20
331.8932879694
 11
215.5541502506
 21
332.5104859226
  0
LINE
  8
0
 62
7
  6
CONTINUOUS
 10
239.3315093023
 20
316.8721048448
 11
239.2729136522
 21
317.5843675754
  0
LINE
  8
0
 62
7
  6
CONTINUOUS
 10
212.9782850883
 20
327.7815568661
 11
213.5888590724
 21
327.9360659497
  0
LINE
  8
0
 62
7
  6
CONTINUOUS
 10
226.303589598
 20
321.2558555666
 11
232.2576302433
 21
322.4605244664
  0
LINE
  8
0
 62
7
  6
CONTINUOUS
 10
231.8838698166
 20
323.0227685236
 11
225.82640507
 21
321.8882940909
  0
LINE
  8
0
 62
7
  6
CONTINUOUS
 10
237.9390641866
 20
316.3688218035
 11
237.5836284397
 21
316.3320340104
  0
LINE
  8
0
 62
7
  6
CONTINUOUS
 10
236.9645135968
 20
319.5004278662
 11
236.2536422406
 21
319.4268521658
  0
LINE
  8
0
 62
7
  6
CONTINUOUS
 10
237.4498573038
 20
315.779443066
 11
238.0791943171
 21
315.7547888626
  0
LINE
  8
0
 62
7
  6
CONTINUOUS
 10
235.929999525
 20
313.556945686
 11
236.3816185558
 21
313.5138977347
  0
LINE
  8
0
 62
7
  6
CONTINUOUS
 10
180.9692279524
 20
335.9662160496
 11
181.3225543592
 21
335.6816578778
  0
LINE
  8
0
 62
7
  6
CONTINUOUS
 10
188.2094099178
 20
338.1660832722
 11
188.4239021046
 21
337.8802846808
  0
LINE
  8
0
 62
7
  6
CONTINUOUS
 10
188.9696607816
 20
338.1946417588
 11
188.7551685948
 21
338.4804403502
  0
LINE
  8
0
 62
7
  6
CONTINUOUS
 10
213.8208845506
 20
330.0594630829
 11
213.9498005889
 21
329.7261922306
  0
LINE
  8
0
 62
7
  6
CONTINUOUS
 10
214.8287261859
 20
332.4053194919
 11
214.9576422242
 21
332.0720486396
  0
LINE
  8
0
 62
7
  6
CONTINUOUS
 10
233.4961182801
 20
315.9089732696
 11
233.6215994696
 21
315.4730059769
  0
LINE
  8
0
 62
7
  6
CONTINUOUS
 10
182.3091028369
 20
335.4742473509
 11
182.8177270696
 21
335.5614152155
  0
LINE
  8
0
 62
7
  6
CONTINUOUS
 10
214.3670005023
 20
330.3806075619
 11
214.6470927647
 21
330.3992151216
  0
LINE
  8
0
 62
7
  6
CONTINUOUS
 10
213.1657874735
 20
328.5346563843
 11
212.7708477459
 21
328.5653903173
  0
LINE
  8
0
 62
7
  6
CONTINUOUS
 10
236.7492077052
 20
318.8496073606
 11
237.2008267075
 21
318.8065593749
  0
LINE
  8
0
 62
7
  6
CONTINUOUS
 10
235.382197246
 20
313.6798294248
 11
235.929999525
 21
313.556945686
  0
LINE
  8
0
 62
7
  6
CONTINUOUS
 10
236.0637709646
 20
314.1095364365
 11
235.7898696982
 21
314.170978433
  0
LINE
  8
0
 62
7
  6
CONTINUOUS
 10
237.5123158544
 20
319.3775441017
 11
236.9645135968
 21
319.5004278662
  0
LINE
  8
0
 62
7
  6
CONTINUOUS
 10
181.3225543592
 20
335.6816578778
 11
181.8107118443
 21
335.5143282455
  0
LINE
  8
0
 62
7
  6
CONTINUOUS
 10
234.9159294617
 20
313.9009429704
 11
235.382197246
 21
313.6798294248
  0
LINE
  8
0
 62
7
  6
CONTINUOUS
 10
181.8516455177
 20
336.023323225
 11
181.3737214527
 21
336.3179016244
  0
LINE
  8
0
 62
7
  6
CONTINUOUS
 10
187.9782357889
 20
338.3253169558
 11
188.2094099178
 21
338.1660832722
  0
LINE
  8
0
 62
7
  6
CONTINUOUS
 10
188.7551685948
 20
338.4804403502
 11
188.416748018
 21
338.7825733763
  0
LINE
  8
0
 62
7
  6
CONTINUOUS
 10
213.5267289724
 20
330.3247826241
 11
213.8208845506
 21
330.0594630829
  0
LINE
  8
0
 62
7
  6
CONTINUOUS
 10
214.5463086153
 20
330.1646295136
 11
214.3670005023
 21
330.3806075619
  0
LINE
  8
0
 62
7
  6
CONTINUOUS
 10
233.8432637839
 20
314.9572030282
 11
234.146462593
 21
314.5396298862
  0
LINE
  8
0
 62
7
  6
CONTINUOUS
 10
215.5541502506
 20
332.5104859226
 11
215.245928728
 21
333.0597336939
  0
LINE
  8
0
 62
7
  6
CONTINUOUS
 10
237.767704895
 20
315.1838043642
 11
237.4498573038
 21
315.779443066
  0
LINE
  8
0
 62
7
  6
CONTINUOUS
 10
233.6215994696
 20
315.4730059769
 11
233.8432637839
 21
314.9572030282
  0
LINE
  8
0
 62
7
  6
CONTINUOUS
 10
234.2509362362
 20
315.4483520363
 11
234.1401039307
 21
315.706253612
  0
LINE
  8
0
 62
7
  6
CONTINUOUS
 10
239.2729136522
 20
317.5843675754
 11
239.0512493164
 21
318.1001704983
  0
LINE
  8
0
 62
7
  6
CONTINUOUS
 10
237.0128870765
 20
315.6444254833
 11
237.1383684321
 21
315.2084581108
  0
LINE
  8
0
 62
7
  6
CONTINUOUS
 10
238.5473936587
 20
317.6888573292
 11
238.6728747392
 21
317.2528901851
  0
LINE
  8
0
 62
7
  6
CONTINUOUS
 10
182.8586607457
 20
336.0704102284
 11
182.3500365103
 21
335.9832423304
  0
LINE
  8
0
 62
7
  6
CONTINUOUS
 10
186.9868100872
 20
338.4559922464
 11
187.4992048801
 21
338.5172195089
  0
LINE
  8
0
 62
7
  6
CONTINUOUS
 10
187.5659326482
 20
339.0234791399
 11
187.0535378553
 21
338.9622518774
  0
LINE
  8
0
 62
7
  6
CONTINUOUS
 10
214.2240211482
 20
330.9978055151
 11
213.8290814207
 21
331.0285394482
  0
LINE
  8
0
 62
7
  6
CONTINUOUS
 10
181.8107118443
 20
335.5143282455
 11
182.3091028369
 21
335.4742473509
  0
LINE
  8
0
 62
7
  6
CONTINUOUS
 10
183.6796778437
 20
335.3640249087
 11
184.302666629
 21
335.3139237869
  0
LINE
  8
0
 62
7
  6
CONTINUOUS
 10
182.3500365103
 20
335.9832423304
 11
181.8516455177
 21
336.023323225
  0
LINE
  8
0
 62
7
  6
CONTINUOUS
 10
184.3809404309
 20
339.4059240771
 11
183.7579516456
 21
339.4560251989
  0
LINE
  8
0
 62
7
  6
CONTINUOUS
 10
181.2659970837
 20
339.6564296396
 11
180.6430084321
 21
339.7065307507
  0
LINE
  8
0
 62
7
  6
CONTINUOUS
 10
185.2971161873
 20
335.2020834018
 11
185.9167570736
 21
335.1204113686
  0
LINE
  8
0
 62
7
  6
CONTINUOUS
 10
188.1474638389
 20
334.8263921051
 11
188.7671043707
 21
334.7447201187
  0
LINE
  8
0
 62
7
  6
CONTINUOUS
 10
188.0616454991
 20
338.9581414947
 11
187.5659326482
 21
339.0234791399
  0
LINE
  8
0
 62
7
  6
CONTINUOUS
 10
186.4505792656
 20
339.1704887717
 11
185.8309383793
 21
339.2521608049
  0
LINE
  8
0
 62
7
  6
CONTINUOUS
 10
189.7529373128
 20
334.5745204412
 11
190.3695708841
 21
334.4726001749
  0
LINE
  8
0
 62
7
  6
CONTINUOUS
 10
191.0357393259
 20
338.5030235659
 11
190.4191057546
 21
338.6049438322
  0
LINE
  8
0
 62
7
  6
CONTINUOUS
 10
190.6272834328
 20
339.8644513844
 11
191.2439170041
 21
339.7625311181
  0
LINE
  8
0
 62
7
  6
CONTINUOUS
 10
191.348005814
 20
340.3922847178
 11
190.7313722427
 21
340.4942049842
  0
LINE
  8
0
 62
7
  6
CONTINUOUS
 10
212.3536477972
 20
327.9109749039
 11
212.9782850883
 21
327.7815568661
  0
LINE
  8
0
 62
7
  6
CONTINUOUS
 10
197.2304974752
 20
333.082629232
 11
197.9535750326
 21
332.8834839433
  0
LINE
  8
0
 62
7
  6
CONTINUOUS
 10
201.3279365073
 20
331.9541393892
 11
202.0510140646
 21
331.7549941004
  0
LINE
  8
0
 62
7
  6
CONTINUOUS
 10
198.8423911218
 20
334.2276449129
 11
201.2526501061
 21
333.5638271572
  0
LINE
  8
0
 62
7
  6
CONTINUOUS
 10
201.267724526
 20
334.0893263574
 11
199.0984918539
 21
334.6867622236
  0
LINE
  8
0
 62
7
  6
CONTINUOUS
 10
201.7159700146
 20
338.0706685361
 11
200.751866145
 21
338.3361957143
  0
LINE
  8
0
 62
7
  6
CONTINUOUS
 10
203.0124225212
 20
331.4721026293
 11
203.7199203437
 21
331.2232114259
  0
LINE
  8
0
 62
7
  6
CONTINUOUS
 10
205.370749046
 20
330.6424651263
 11
206.3140785764
 21
330.3106105049
  0
LINE
  8
0
 62
7
  6
CONTINUOUS
 10
207.9649059293
 20
329.72986468
 11
208.6724037518
 21
329.4809734766
  0
LINE
  8
0
 62
7
  6
CONTINUOUS
 10
210.6635333793
 20
335.1409560566
 11
209.6022866455
 21
335.5142928618
  0
LINE
  8
0
 62
7
  6
CONTINUOUS
 10
206.064797533
 20
336.758748879
 11
205.0035521487
 21
337.1320852094
  0
LINE
  8
0
 62
7
  6
CONTINUOUS
 10
237.5836284397
 20
316.3320340104
 11
236.8434593961
 21
316.6145895611
  0
LINE
  8
0
 62
7
  6
CONTINUOUS
 10
187.4992048801
 20
338.5172195089
 11
187.9782357889
 21
338.3253169558
  0
LINE
  8
0
 62
7
  6
CONTINUOUS
 10
209.5972665742
 20
329.0951888006
 11
212.3536477972
 21
327.9109749039
  0
LINE
  8
0
 62
7
  6
CONTINUOUS
 10
212.7708477459
 20
328.5653903173
 11
210.5887143635
 21
329.5028922327
  0
LINE
  8
0
 62
7
  6
CONTINUOUS
 10
211.34459559
 20
331.2622845394
 11
213.5267289724
 21
330.3247826241
  0
LINE
  8
0
 62
7
  6
CONTINUOUS
 10
213.8290814207
 20
331.0285394482
 11
211.6469480382
 21
331.9660413635
  0
LINE
  8
0
 62
7
  6
CONTINUOUS
 10
212.3524372253
 20
333.6081409484
 11
214.5345706077
 21
332.670639033
  0
LINE
  8
0
 62
7
  6
CONTINUOUS
 10
214.7220755908
 20
333.4237373499
 11
211.9656943678
 21
334.6079512467
  0
LINE
  8
0
 62
7
  6
CONTINUOUS
 10
188.416748018
 20
338.7825733763
 11
188.0616454991
 21
338.9581414947
  0
LINE
  8
0
 62
7
  6
CONTINUOUS
 10
235.7898696982
 20
314.170978433
 11
235.2274186657
 21
314.4719277659
  0
LINE
  8
0
 62
7
  6
CONTINUOUS
 10
237.2008267075
 20
318.8065593749
 11
237.7632780152
 21
318.5056098135
  0
LINE
  8
0
 62
7
  6
CONTINUOUS
 10
238.2671336729
 20
318.9169229826
 11
237.5123158544
 21
319.3775441017
  0
LINE
  8
0
 62
7
  6
CONTINUOUS
 10
225.252879479
 20
321.0432649699
 11
229.3900021375
 21
318.2353786393
  0
LINE
  8
0
 62
7
  6
CONTINUOUS
 10
229.8201463433
 20
318.8691504985
 11
226.303589598
 21
321.2558555666
  0
LINE
  8
0
 62
7
  6
CONTINUOUS
 10
228.26388897
 20
325.4796680587
 11
231.8838698166
 21
323.0227685236
  0
LINE
  8
0
 62
7
  6
CONTINUOUS
 10
232.7594650915
 20
323.1999248825
 11
228.622342433
 21
326.0078112131
  0
LINE
  8
0
 62
7
  6
CONTINUOUS
 10
215.245928728
 20
333.0597336939
 11
214.7220755908
 21
333.4237373499
  0
LINE
  8
0
 62
7
  6
CONTINUOUS
 10
231.3996290636
 20
316.7084278566
 11
231.9966874995
 21
316.2545322474
  0
LINE
  8
0
 62
7
  6
CONTINUOUS
 10
235.6278523737
 20
321.0309997346
 11
235.0307939378
 21
321.4848953439
  0
LINE
  8
0
 62
7
  6
CONTINUOUS
 10
234.146462593
 20
314.5396298862
 11
234.9159294617
 21
313.9009429704
  0
LINE
  8
0
 62
7
  6
CONTINUOUS
 10
235.2274186657
 20
314.4719277659
 11
234.650318583
 21
314.9509428958
  0
LINE
  8
0
 62
7
  6
CONTINUOUS
 10
234.1776918683
 20
316.3386804041
 11
233.6967751787
 21
316.7378596409
  0
LINE
  8
0
 62
7
  6
CONTINUOUS
 10
236.1325881776
 20
316.5410137464
 11
236.5173214743
 21
316.2216704027
  0
LINE
  8
0
 62
7
  6
CONTINUOUS
 10
236.8434593961
 20
316.6145895611
 11
236.4587260994
 21
316.9339329048
  0
LINE
  8
0
 62
7
  6
CONTINUOUS
 10
235.8313209258
 20
319.1137689005
 11
236.3122377531
 21
318.7145895495
  0
LINE
  8
0
 62
7
  6
CONTINUOUS
 10
237.7632780152
 20
318.5056098135
 11
238.1480113119
 21
318.1862664697
  0
LINE
  8
0
 62
7
  6
CONTINUOUS
 10
238.4595004589
 20
318.7572511965
 11
238.2671336729
 21
318.9169229826
  0
LINE
  8
0
 62
7
  6
CONTINUOUS
 10
214.5345706077
 20
332.670639033
 11
214.8287261859
 21
332.4053194919
  0
LINE
  8
0
 62
7
  6
CONTINUOUS
 10
239.0512493164
 20
318.1001704983
 11
238.4595004589
 21
318.7572511965
  0
LINE
  8
0
 62
7
  6
CONTINUOUS
 10
236.5173214743
 20
316.2216704027
 11
237.0128870765
 21
315.6444254833
  0
LINE
  8
0
 62
7
  6
CONTINUOUS
 10
234.650318583
 20
314.9509428958
 11
234.2509362362
 21
315.4483520363
  0
LINE
  8
0
 62
7
  6
CONTINUOUS
 10
238.1480113119
 20
318.1862664697
 11
238.5473936587
 21
317.6888573292
  0
LINE
  8
0
 62
7
  6
CONTINUOUS
 10
280.0247559324
 20
207.1828912504
 11
289.2457484592
 21
231.4966503136
  0
LINE
  8
0
 62
7
  6
CONTINUOUS
 10
251.6653126292
 20
162.3086100387
 11
271.1292632607
 21
179.5521656112
  0
LINE
  8
0
 62
7
  6
CONTINUOUS
 10
170.3175450996
 20
353.0928144904
 11
144.3139764413
 21
353.0928144904
  0
LINE
  8
0
 62
7
  6
CONTINUOUS
 10
222.3321241005
 20
342.4889137885
 11
199.3071075435
 21
354.5733746999
  0
LINE
  8
0
 62
7
  6
CONTINUOUS
 10
263.4608681283
 20
308.9272458708
 11
248.6891574844
 21
330.3277633323
  0
LINE
  8
0
 62
7
  6
CONTINUOUS
 10
284.2816775816
 20
260.0963843953
 11
281.1472937407
 21
285.9103577606
  0
LINE
  8
0
 62
7
  6
CONTINUOUS
 10
444.0990986446
 20
108.2117818935
 11
453.0990986446
 21
108.2117818935
  0
LINE
  8
0
 62
7
  6
CONTINUOUS
 10
469.4990986446
 20
108.2117818935
 11
478.4990986446
 21
108.2117818935
  0
LINE
  8
0
 62
9
  6
CONTINUOUS
 10
478.4990986446
 20
109.0354900162
 11
469.4990986446
 21
109.0354900162
  0
LINE
  8
0
 62
9
  6
CONTINUOUS
 10
453.0990986446
 20
109.0354900162
 11
444.0990986446
 21
109.0354900162
  0
LINE
  8
0
 62
9
  6
CONTINUOUS
 10
478.4990986446
 20
114.2667795675
 11
469.4990986446
 21
114.2667795675
  0
LINE
  8
0
 62
9
  6
CONTINUOUS
 10
453.0990986446
 20
114.2667795675
 11
444.0990986446
 21
114.2667795675
  0
LINE
  8
0
 62
7
  6
CONTINUOUS
 10
444.0990986446
 20
115.4102225028
 11
453.0990986446
 21
115.4102225028
  0
LINE
  8
0
 62
7
  6
CONTINUOUS
 10
469.4990986446
 20
115.4102225028
 11
478.4990986446
 21
115.4102225028
  0
LINE
  8
0
 62
9
  6
CONTINUOUS
 10
478.4990986446
 20
116.7115684461
 11
469.4990986446
 21
116.7115684461
  0
LINE
  8
0
 62
9
  6
CONTINUOUS
 10
453.0990986446
 20
116.7115684461
 11
444.0990986446
 21
116.7115684461
  0
LINE
  8
0
 62
9
  6
CONTINUOUS
 10
478.4990986446
 20
121.7790480496
 11
469.4990986446
 21
121.7790480496
  0
LINE
  8
0
 62
9
  6
CONTINUOUS
 10
453.0990986446
 20
121.7790480496
 11
444.0990986446
 21
121.7790480496
  0
LINE
  8
0
 62
7
  6
CONTINUOUS
 10
469.4990986446
 20
134.7751428471
 11
453.0990986446
 21
134.7751428471
  0
LINE
  8
0
 62
7
  6
CONTINUOUS
 10
438.2990986446
 20
134.7751428471
 11
444.0990986446
 21
134.7751428471
  0
LINE
  8
0
 62
7
  6
CONTINUOUS
 10
478.4990986446
 20
134.7751428471
 11
484.2990986446
 21
134.7751428471
  0
LINE
  8
0
 62
9
  6
CONTINUOUS
 10
478.4990986446
 20
139.1016834585
 11
469.4990986446
 21
139.1016834585
  0
LINE
  8
0
 62
9
  6
CONTINUOUS
 10
453.0990986446
 20
139.1016834585
 11
444.0990986446
 21
139.1016834585
  0
LINE
  8
0
 62
7
  6
CONTINUOUS
 10
444.0990986446
 20
149.925784175
 11
453.0990986446
 21
149.925784175
  0
LINE
  8
0
 62
7
  6
CONTINUOUS
 10
469.4990986446
 20
149.925784175
 11
478.4990986446
 21
149.925784175
  0
LINE
  8
0
 62
9
  6
CONTINUOUS
 10
478.4990986446
 20
151.5527281748
 11
469.4990986446
 21
151.5527281748
  0
LINE
  8
0
 62
9
  6
CONTINUOUS
 10
453.0990986446
 20
151.5527281748
 11
444.0990986446
 21
151.5527281748
  0
LINE
  8
0
 62
9
  6
CONTINUOUS
 10
478.4990986446
 20
153.1527485661
 11
469.4990986446
 21
153.1527485661
  0
LINE
  8
0
 62
9
  6
CONTINUOUS
 10
453.0990986446
 20
153.1527485661
 11
444.0990986446
 21
153.1527485661
  0
LINE
  8
0
 62
9
  6
CONTINUOUS
 10
478.4990986446
 20
156.8955197144
 11
469.4990986446
 21
156.8955197144
  0
LINE
  8
0
 62
9
  6
CONTINUOUS
 10
453.0990986446
 20
156.8955197144
 11
444.0990986446
 21
156.8955197144
  0
LINE
  8
0
 62
9
  6
CONTINUOUS
 10
478.4990986446
 20
174.4606595098
 11
469.4990986446
 21
174.4606595098
  0
LINE
  8
0
 62
9
  6
CONTINUOUS
 10
453.0990986446
 20
174.4606595098
 11
444.0990986446
 21
174.4606595098
  0
LINE
  8
0
 62
9
  6
CONTINUOUS
 10
444.0990986446
 20
198.7744185731
 11
453.0990986446
 21
198.7744185731
  0
LINE
  8
0
 62
9
  6
CONTINUOUS
 10
469.4990986446
 20
198.7744185731
 11
478.4990986446
 21
198.7744185731
  0
LINE
  8
0
 62
9
  6
CONTINUOUS
 10
444.0990986446
 20
200.6130111567
 11
453.0990986446
 21
200.6130111567
  0
LINE
  8
0
 62
9
  6
CONTINUOUS
 10
469.4990986446
 20
200.6130111567
 11
478.4990986446
 21
200.6130111567
  0
LINE
  8
0
 62
7
  6
CONTINUOUS
 10
444.0990986446
 20
202.2076631146
 11
453.0990986446
 21
202.2076631146
  0
LINE
  8
0
 62
7
  6
CONTINUOUS
 10
469.4990986446
 20
202.2076631146
 11
478.4990986446
 21
202.2076631146
  0
LINE
  8
0
 62
9
  6
CONTINUOUS
 10
478.4990986446
 20
208.4785954517
 11
469.4990986446
 21
208.4785954517
  0
LINE
  8
0
 62
9
  6
CONTINUOUS
 10
453.0990986446
 20
208.4785954517
 11
444.0990986446
 21
208.4785954517
  0
LINE
  8
0
 62
9
  6
CONTINUOUS
 10
478.4990986446
 20
210.0107951747
 11
469.4990986446
 21
210.0107951747
  0
LINE
  8
0
 62
9
  6
CONTINUOUS
 10
453.0990986446
 20
210.0107951747
 11
444.0990986446
 21
210.0107951747
  0
LINE
  8
0
 62
9
  6
CONTINUOUS
 10
478.4990986446
 20
211.5714341029
 11
469.4990986446
 21
211.5714341029
  0
LINE
  8
0
 62
9
  6
CONTINUOUS
 10
453.0990986446
 20
211.5714341029
 11
444.0990986446
 21
211.5714341029
  0
LINE
  8
0
 62
7
  6
CONTINUOUS
 10
436.2990986446
 20
347.7751428471
 11
436.2990986446
 21
136.7751428471
  0
LINE
  8
0
 62
9
  6
CONTINUOUS
 10
438.2990986446
 20
349.7751428471
 11
438.2990986446
 21
134.7751428471
  0
LINE
  8
0
 62
7
  6
CONTINUOUS
 10
444.0990986446
 20
108.2117914491
 11
444.0990986446
 21
376.6138443403
  0
LINE
  8
0
 62
9
  6
CONTINUOUS
 10
478.4990986446
 20
225.3551164406
 11
469.4990986446
 21
225.3551164406
  0
LINE
  8
0
 62
9
  6
CONTINUOUS
 10
453.0990986446
 20
225.3551164406
 11
444.0990986446
 21
225.3551164406
  0
LINE
  8
0
 62
7
  6
CONTINUOUS
 10
453.0990986446
 20
108.2117823817
 11
453.0990986446
 21
376.6138644114
  0
LINE
  8
DEFAULT_1
 62
2
  6
CENTER
 10
431.2990986446
 20
242.2751428471
 11
491.2990986446
 21
242.2751428471
  0
LINE
  8
0
 62
7
  6
CONTINUOUS
 10
469.4990986446
 20
108.2117823817
 11
469.4990986446
 21
376.6138644114
  0
LINE
  8
0
 62
9
  6
CONTINUOUS
 10
444.0990986446
 20
251.1690898059
 11
453.0990986446
 21
251.1690898059
  0
LINE
  8
0
 62
9
  6
CONTINUOUS
 10
469.4990986446
 20
251.1690898059
 11
478.4990986446
 21
251.1690898059
  0
LINE
  8
0
 62
9
  6
CONTINUOUS
 10
444.0990986446
 20
252.6951093134
 11
453.0990986446
 21
252.6951093134
  0
LINE
  8
0
 62
9
  6
CONTINUOUS
 10
469.4990986446
 20
252.6951093134
 11
478.4990986446
 21
252.6951093134
  0
LINE
  8
0
 62
7
  6
CONTINUOUS
 10
478.4990986446
 20
108.2117914491
 11
478.4990986446
 21
376.6138443403
  0
LINE
  8
0
 62
9
  6
CONTINUOUS
 10
444.0990986446
 20
258.757753256
 11
453.0990986446
 21
258.757753256
  0
LINE
  8
0
 62
9
  6
CONTINUOUS
 10
469.4990986446
 20
258.757753256
 11
478.4990986446
 21
258.757753256
  0
LINE
  8
0
 62
9
  6
CONTINUOUS
 10
478.4990986446
 20
260.546156578
 11
469.4990986446
 21
260.546156578
  0
LINE
  8
0
 62
9
  6
CONTINUOUS
 10
453.0990986446
 20
260.546156578
 11
444.0990986446
 21
260.546156578
  0
LINE
  8
0
 62
9
  6
CONTINUOUS
 10
484.2990986446
 20
349.7751428471
 11
484.2990986446
 21
134.7751428471
  0
LINE
  8
0
 62
7
  6
CONTINUOUS
 10
486.2990986446
 20
347.7751428471
 11
486.2990986446
 21
136.7751428471
  0
LINE
  8
0
 62
9
  6
CONTINUOUS
 10
478.4990986446
 20
273.1468444444
 11
469.4990986446
 21
273.1468444444
  0
LINE
  8
0
 62
9
  6
CONTINUOUS
 10
453.0990986446
 20
273.1468444444
 11
444.0990986446
 21
273.1468444444
  0
LINE
  8
0
 62
7
  6
CONTINUOUS
 10
444.0990986446
 20
274.277329087
 11
453.0990986446
 21
274.277329087
  0
LINE
  8
0
 62
7
  6
CONTINUOUS
 10
469.4990986446
 20
274.277329087
 11
478.4990986446
 21
274.277329087
  0
LINE
  8
0
 62
9
  6
CONTINUOUS
 10
478.4990986446
 20
280.1257475127
 11
469.4990986446
 21
280.1257475127
  0
LINE
  8
0
 62
9
  6
CONTINUOUS
 10
453.0990986446
 20
280.1257475127
 11
444.0990986446
 21
280.1257475127
  0
LINE
  8
0
 62
9
  6
CONTINUOUS
 10
444.0990986446
 20
301.5262649742
 11
453.0990986446
 21
301.5262649742
  0
LINE
  8
0
 62
9
  6
CONTINUOUS
 10
469.4990986446
 20
301.5262649742
 11
478.4990986446
 21
301.5262649742
  0
LINE
  8
0
 62
9
  6
CONTINUOUS
 10
444.0990986446
 20
302.3901187269
 11
453.0990986446
 21
302.3901187269
  0
LINE
  8
0
 62
9
  6
CONTINUOUS
 10
469.4990986446
 20
302.3901187269
 11
478.4990986446
 21
302.3901187269
  0
LINE
  8
0
 62
9
  6
CONTINUOUS
 10
444.0990986446
 20
308.1794885081
 11
453.0990986446
 21
308.1794885081
  0
LINE
  8
0
 62
9
  6
CONTINUOUS
 10
469.4990986446
 20
308.1794885081
 11
478.4990986446
 21
308.1794885081
  0
LINE
  8
0
 62
9
  6
CONTINUOUS
 10
478.4990986446
 20
314.0696047189
 11
469.4990986446
 21
314.0696047189
  0
LINE
  8
0
 62
9
  6
CONTINUOUS
 10
453.0990986446
 20
314.0696047189
 11
444.0990986446
 21
314.0696047189
  0
LINE
  8
0
 62
9
  6
CONTINUOUS
 10
478.4990986446
 20
330.7427586454
 11
469.4990986446
 21
330.7427586454
  0
LINE
  8
0
 62
9
  6
CONTINUOUS
 10
453.0990986446
 20
330.7427586454
 11
444.0990986446
 21
330.7427586454
  0
LINE
  8
0
 62
7
  6
CONTINUOUS
 10
444.0990986446
 20
331.3975471159
 11
453.0990986446
 21
331.3975471159
  0
LINE
  8
0
 62
7
  6
CONTINUOUS
 10
469.4990986446
 20
331.3975471159
 11
478.4990986446
 21
331.3975471159
  0
LINE
  8
0
 62
9
  6
CONTINUOUS
 10
444.0990986446
 20
338.3097221165
 11
453.0990986446
 21
338.3097221165
  0
LINE
  8
0
 62
9
  6
CONTINUOUS
 10
469.4990986446
 20
338.3097221165
 11
478.4990986446
 21
338.3097221165
  0
LINE
  8
0
 62
7
  6
CONTINUOUS
 10
444.0990986446
 20
338.5388100652
 11
453.0990986446
 21
338.5388100652
  0
LINE
  8
0
 62
7
  6
CONTINUOUS
 10
469.4990986446
 20
338.5388100652
 11
478.4990986446
 21
338.5388100652
  0
LINE
  8
0
 62
9
  6
CONTINUOUS
 10
444.0990986446
 20
342.5033324027
 11
453.0990986446
 21
342.5033324027
  0
LINE
  8
0
 62
9
  6
CONTINUOUS
 10
469.4990986446
 20
342.5033324027
 11
478.4990986446
 21
342.5033324027
  0
LINE
  8
0
 62
7
  6
CONTINUOUS
 10
469.4990986446
 20
349.7751428471
 11
453.0990986446
 21
349.7751428471
  0
LINE
  8
0
 62
7
  6
CONTINUOUS
 10
438.2990986446
 20
349.7751428471
 11
444.0990986446
 21
349.7751428471
  0
LINE
  8
0
 62
7
  6
CONTINUOUS
 10
478.4990986446
 20
349.7751428471
 11
484.2990986446
 21
349.7751428471
  0
LINE
  8
0
 62
9
  6
CONTINUOUS
 10
478.4990986446
 20
351.1458068621
 11
469.4990986446
 21
351.1458068621
  0
LINE
  8
0
 62
9
  6
CONTINUOUS
 10
453.0990986446
 20
351.1458068621
 11
444.0990986446
 21
351.1458068621
  0
LINE
  8
0
 62
9
  6
CONTINUOUS
 10
478.4990986446
 20
368.0718082174
 11
469.4990986446
 21
368.0718082174
  0
LINE
  8
0
 62
9
  6
CONTINUOUS
 10
453.0990986446
 20
368.0718082174
 11
444.0990986446
 21
368.0718082174
  0
LINE
  8
0
 62
7
  6
CONTINUOUS
 10
444.0990986446
 20
368.3299843169
 11
453.0990986446
 21
368.3299843169
  0
LINE
  8
0
 62
7
  6
CONTINUOUS
 10
469.4990986446
 20
368.3299843169
 11
478.4990986446
 21
368.3299843169
  0
LINE
  8
0
 62
9
  6
CONTINUOUS
 10
478.4990986446
 20
376.5823577672
 11
469.4990986446
 21
376.5823577672
  0
LINE
  8
0
 62
9
  6
CONTINUOUS
 10
453.0990986446
 20
376.5823577672
 11
444.0990986446
 21
376.5823577672
  0
LINE
  8
0
 62
7
  6
CONTINUOUS
 10
444.0990986446
 20
376.6138644115
 11
453.0990986446
 21
376.6138644115
  0
LINE
  8
0
 62
7
  6
CONTINUOUS
 10
469.4990986446
 20
376.6138644115
 11
478.4990986446
 21
376.6138644115
  0
CIRCLE
  8
0
 62
7
  6
CONTINUOUS
 10
174.8139764413
 20
242.2751428471
 40
107.5
  0
CIRCLE
  8
0
 62
9
  6
CONTINUOUS
 10
174.8139764413
 20
242.2751428471
 40
105.5
  0
ARC
  8
0
 62
7
  6
CONTINUOUS
 10
173.958588708
 20
111.3579635906
 40
16.5
 50
10.1538461538
 51
76.1538461538
  0
ARC
  8
0
 62
7
  6
CONTINUOUS
 10
113.2163213994
 20
126.7512561136
 40
16.5
 50
342.4615384615
 51
48.4615384615
  0
ARC
  8
0
 62
7
  6
CONTINUOUS
 10
66.5853345288
 20
168.6096788736
 40
16.5
 50
314.7692307692
 51
20.7692307692
  0
ARC
  8
0
 62
7
  6
CONTINUOUS
 10
44.7482252238
 20
227.3439716648
 40
16.5
 50
287.0769230769
 51
353.0769230769
  0
ARC
  8
0
 62
7
  6
CONTINUOUS
 10
128.1629465053
 20
130.2095287362
 40
14.8
 50
270.574521923
 51
342.1538461538
  0
ARC
  8
0
 62
7
  6
CONTINUOUS
 10
81.4270532149
 20
164.725784175
 40
14.8
 50
242.8822142307
 51
314.4615384615
  0
ARC
  8
0
 62
7
  6
CONTINUOUS
 10
56.0849786012
 20
217.0076631146
 40
14.8
 50
215.1899065384
 51
286.7692307692
  0
ARC
  8
0
 62
7
  6
CONTINUOUS
 10
174.8139764413
 20
162.4546965148
 40
6.0
 50
175.4216527464
 51
4.5783472536
  0
ARC
  8
0
 62
7
  6
CONTINUOUS
 10
145.9321255577
 20
177.8188986141
 40
6.0
 50
45.0
 51
78.1598440864
  0
ARC
  8
0
 62
7
  6
CONTINUOUS
 10
148.3943100811
 20
189.5635845347
 40
6.0
 50
225.0
 51
258.1598440864
  0
ARC
  8
0
 62
7
  6
CONTINUOUS
 10
122.1024181289
 20
215.8554764869
 40
6.0
 50
191.8401559136
 51
225.0
  0
ARC
  8
0
 62
7
  6
CONTINUOUS
 10
110.3577322084
 20
213.3932919635
 40
6.0
 50
11.8401559136
 51
45.0
  0
ARC
  8
0
 62
7
  6
CONTINUOUS
 10
94.9935301091
 20
242.2751428471
 40
6.0
 50
85.4216527464
 51
274.5783472536
  0
ARC
  8
0
 62
7
  6
CONTINUOUS
 10
148.2368022195
 20
133.6616959373
 40
3.25
 50
21.0037507329
 51
162.1538461538
  0
ARC
  8
0
 62
7
  6
CONTINUOUS
 10
100.8058718073
 20
158.4537405222
 40
3.25
 50
353.3114430405
 51
134.4615384615
  0
ARC
  8
0
 62
7
  6
CONTINUOUS
 10
70.3293062723
 20
202.4482582223
 40
3.25
 50
325.6191353483
 51
106.7692307692
  0
ARC
  8
0
 62
7
  6
CONTINUOUS
 10
153.1379762847
 20
135.5434485202
 40
2.0
 50
201.0037507329
 51
256.1538461538
  0
ARC
  8
0
 62
7
  6
CONTINUOUS
 10
106.0201399454
 20
157.8422605272
 40
2.0
 50
173.3114430407
 51
228.4615384615
  0
ARC
  8
0
 62
7
  6
CONTINUOUS
 10
74.6621424917
 20
199.4836283472
 40
2.0
 50
145.6191353482
 51
200.7692307692
  0
ARC
  8
0
 62
7
  6
CONTINUOUS
 10
128.3013209151
 20
116.4102225028
 40
1.0
 50
162.4615384615
 51
270.574521923
  0
ARC
  8
0
 62
7
  6
CONTINUOUS
 10
75.1367203051
 20
152.4427995262
 40
1.0
 50
134.7692307692
 51
242.8822142307
  0
ARC
  8
0
 62
7
  6
CONTINUOUS
 10
44.8069778347
 20
209.0548838073
 40
1.0
 50
107.0769230769
 51
215.1899065384
  0
ARC
  8
0
 62
7
  6
CONTINUOUS
 10
167.8917892104
 20
163.0090096451
 40
0.9443458372
 50
355.4216527464
 51
45.0
  0
ARC
  8
0
 62
7
  6
CONTINUOUS
 10
95.5478432394
 20
235.3529556162
 40
0.9443458372
 50
45.0
 51
94.5783472536
  0
ARC
  8
0
 62
7
  6
CONTINUOUS
 10
144.3139764413
 20
369.5928144904
 40
16.5
 50
204.0
 51
270.0
  0
ARC
  8
0
 62
7
  6
CONTINUOUS
 10
52.7076120605
 20
289.4988158338
 40
16.5
 50
259.3846153846
 51
325.3846153846
  0
ARC
  8
0
 62
7
  6
CONTINUOUS
 10
88.6400954356
 20
340.8352856285
 40
16.5
 50
231.6923076923
 51
297.6923076923
  0
ARC
  8
0
 62
7
  6
CONTINUOUS
 10
135.4195258351
 20
357.0928144904
 40
14.8
 50
132.1129834615
 51
203.6923076923
  0
ARC
  8
0
 62
7
  6
CONTINUOUS
 10
57.9422865532
 20
275.0780171547
 40
14.8
 50
187.4975988461
 51
259.0769230769
  0
ARC
  8
0
 62
7
  6
CONTINUOUS
 10
86.573490202
 20
325.6336280085
 40
14.8
 50
159.8052911538
 51
231.3846153846
  0
ARC
  8
0
 62
7
  6
CONTINUOUS
 10
110.3577322084
 20
271.1569937308
 40
6.0
 50
315.0
 51
348.1598440864
  0
ARC
  8
0
 62
7
  6
CONTINUOUS
 10
122.1024181289
 20
268.6948092074
 40
6.0
 50
135.0
 51
168.1598440864
  0
ARC
  8
0
 62
7
  6
CONTINUOUS
 10
148.3943100811
 20
294.9867011595
 40
6.0
 50
101.8401559136
 51
135.0
  0
ARC
  8
0
 62
7
  6
CONTINUOUS
 10
145.9321255577
 20
306.7313870801
 40
6.0
 50
281.8401559136
 51
315.0
  0
ARC
  8
0
 62
7
  6
CONTINUOUS
 10
174.8139764413
 20
322.0955891794
 40
6.0
 50
355.4216527464
 51
184.5783472536
  0
CIRCLE
  8
0
 62
7
  6
CONTINUOUS
 10
174.8139764413
 20
343.2751428471
 40
4.0
  0
ARC
  8
0
 62
7
  6
CONTINUOUS
 10
122.6832393668
 20
341.1974016735
 40
3.25
 50
242.5422122714
 51
23.6923076923
  0
ARC
  8
0
 62
7
  6
CONTINUOUS
 10
174.6259670845
 20
354.0928144904
 40
3.25
 50
214.849904579
 51
356.0
  0
ARC
  8
0
 62
7
  6
CONTINUOUS
 10
63.7889194963
 20
255.5666352239
 40
3.25
 50
297.9268276559
 51
79.0769230769
  0
ARC
  8
0
 62
7
  6
CONTINUOUS
 10
82.6830352695
 20
305.6400915019
 40
3.25
 50
270.2345199637
 51
51.3846153846
  0
ARC
  8
0
 62
7
  6
CONTINUOUS
 10
120.2624906754
 20
336.5388100652
 40
2.0
 50
62.5422122714
 51
117.6923076923
  0
ARC
  8
0
 62
7
  6
CONTINUOUS
 10
170.3175450996
 20
351.0928144904
 40
2.0
 50
34.849904579
 51
90.0
  0
ARC
  8
0
 62
7
  6
CONTINUOUS
 10
66.2477232354
 20
250.9280164454
 40
2.0
 50
117.926827656
 51
173.0769230769
  0
ARC
  8
0
 62
7
  6
CONTINUOUS
 10
82.7045242235
 20
300.3901354807
 40
2.0
 50
90.2345199636
 51
145.3846153846
  0
ARC
  8
0
 62
7
  6
CONTINUOUS
 10
126.1653184707
 20
367.3299843169
 40
1.0
 50
24.0
 51
132.1129834615
  0
ARC
  8
0
 62
7
  6
CONTINUOUS
 10
44.2602719909
 20
273.277329087
 40
1.0
 50
79.3846153846
 51
187.4975988461
  0
ARC
  8
0
 62
7
  6
CONTINUOUS
 10
73.621846494
 20
330.3975471159
 40
1.0
 50
51.6923076923
 51
159.8052911538
  0
ARC
  8
0
 62
7
  6
CONTINUOUS
 10
95.5478432394
 20
249.197330078
 40
0.9443458372
 50
265.4216527464
 51
315.0
  0
ARC
  8
0
 62
7
  6
CONTINUOUS
 10
167.8917892104
 20
321.5412760491
 40
0.9443458372
 50
315.0
 51
4.5783472536
  0
ARC
  8
0
 62
7
  6
CONTINUOUS
 10
304.6735164635
 20
225.6456696774
 40
16.5
 50
93.2307692308
 51
159.2307692308
  0
ARC
  8
0
 62
7
  6
CONTINUOUS
 10
282.0707871217
 20
167.2017382663
 40
16.5
 50
65.5384615385
 51
131.5384615385
  0
ARC
  8
0
 62
7
  6
CONTINUOUS
 10
234.8968150377
 20
125.9562191121
 40
16.5
 50
37.8461538462
 51
103.8461538462
  0
ARC
  8
0
 62
7
  6
CONTINUOUS
 10
296.1398290825
 20
238.3946865521
 40
14.8
 50
21.3437526922
 51
92.9230769231
  0
ARC
  8
0
 62
7
  6
CONTINUOUS
 10
280.4393457715
 20
182.4562343481
 40
14.8
 50
353.6514449999
 51
65.2307692308
  0
ARC
  8
0
 62
7
  6
CONTINUOUS
 10
240.5413632707
 20
140.2215731852
 40
14.8
 50
325.9591373076
 51
37.5384615385
  0
ARC
  8
0
 62
7
  6
CONTINUOUS
 10
185.5860285482
 20
121.3661549531
 40
14.8
 50
298.2668296153
 51
9.8461538462
  0
ARC
  8
0
 62
7
  6
CONTINUOUS
 10
254.6344227736
 20
242.2751428471
 40
6.0
 50
265.4216527464
 51
94.5783472536
  0
ARC
  8
0
 62
7
  6
CONTINUOUS
 10
239.2702206743
 20
213.3932919635
 40
6.0
 50
135.0
 51
168.1598440864
  0
ARC
  8
0
 62
7
  6
CONTINUOUS
 10
227.5255347538
 20
215.8554764869
 40
6.0
 50
315.0
 51
348.1598440864
  0
ARC
  8
0
 62
7
  6
CONTINUOUS
 10
201.2336428016
 20
189.5635845347
 40
6.0
 50
281.8401559136
 51
315.0
  0
ARC
  8
0
 62
7
  6
CONTINUOUS
 10
203.695827325
 20
177.8188986141
 40
6.0
 50
101.8401559136
 51
135.0
  0
ARC
  8
0
 62
7
  6
CONTINUOUS
 10
279.4319846838
 20
202.7998418271
 40
3.25
 50
104.0806738098
 51
245.2307692308
  0
ARC
  8
0
 62
7
  6
CONTINUOUS
 10
249.1035351241
 20
158.7030870511
 40
3.25
 50
76.3883661175
 51
217.5384615385
  0
ARC
  8
0
 62
7
  6
CONTINUOUS
 10
201.7562429564
 20
133.7516831055
 40
3.25
 50
48.6960584252
 51
189.8461538462
  0
ARC
  8
0
 62
7
  6
CONTINUOUS
 10
278.1547234471
 20
207.8921010244
 40
2.0
 50
284.0806738098
 51
339.2307692308
  0
ARC
  8
0
 62
7
  6
CONTINUOUS
 10
250.3390673127
 20
163.8056315351
 40
2.0
 50
256.3883661175
 51
311.5384615385
  0
ARC
  8
0
 62
7
  6
CONTINUOUS
 10
205.2215230357
 20
137.6955814272
 40
2.0
 50
228.6960584252
 51
283.8461538462
  0
ARC
  8
0
 62
7
  6
CONTINUOUS
 10
294.1547187178
 20
180.9302772895
 40
1.0
 50
245.5384615385
 51
353.6514449999
  0
ARC
  8
0
 62
7
  6
CONTINUOUS
 10
251.9765752854
 20
132.4965536914
 40
1.0
 50
217.8461538461
 51
325.9591373076
  0
ARC
  8
0
 62
7
  6
CONTINUOUS
 10
192.121410368
 20
109.2117818935
 40
1.0
 50
190.1538461538
 51
298.2668296153
  0
ARC
  8
0
 62
7
  6
CONTINUOUS
 10
254.0801096433
 20
235.3529556162
 40
0.9443458372
 50
85.4216527464
 51
135.0
  0
ARC
  8
0
 62
7
  6
CONTINUOUS
 10
181.7361636723
 20
163.0090096451
 40
0.9443458372
 50
135.0
 51
184.5783472536
  0
ARC
  8
0
 62
7
  6
CONTINUOUS
 10
206.9750398822
 20
369.1833991231
 40
16.5
 50
176.3076923077
 51
242.3076923077
  0
ARC
  8
0
 62
7
  6
CONTINUOUS
 10
262.2683912716
 20
339.7008316533
 40
16.5
 50
148.6153846154
 51
214.6153846154
  0
ARC
  8
0
 62
7
  6
CONTINUOUS
 10
297.5269901634
 20
287.8992129848
 40
16.5
 50
120.9230769231
 51
186.9230769231
  0
ARC
  8
0
 62
7
  6
CONTINUOUS
 10
193.2903553475
 20
362.2486561018
 40
14.8
 50
104.4206757692
 51
176.0
  0
ARC
  8
0
 62
7
  6
CONTINUOUS
 10
246.928469117
 20
339.9200116641
 40
14.8
 50
76.7283680768
 51
148.3076923077
  0
ARC
  8
0
 62
7
  6
CONTINUOUS
 10
284.0460216884
 20
295.2221045287
 40
14.8
 50
49.0360603845
 51
120.6153846154
  0
ARC
  8
0
 62
7
  6
CONTINUOUS
 10
203.695827325
 20
306.7313870801
 40
6.0
 50
225.0
 51
258.1598440864
  0
ARC
  8
0
 62
7
  6
CONTINUOUS
 10
201.2336428016
 20
294.9867011595
 40
6.0
 50
45.0
 51
78.1598440864
  0
ARC
  8
0
 62
7
  6
CONTINUOUS
 10
227.5255347538
 20
268.6948092074
 40
6.0
 50
11.8401559136
 51
45.0
  0
ARC
  8
0
 62
7
  6
CONTINUOUS
 10
239.2702206743
 20
271.1569937308
 40
6.0
 50
191.8401559136
 51
225.0
  0
ARC
  8
0
 62
7
  6
CONTINUOUS
 10
226.6117654801
 20
341.3721462829
 40
3.25
 50
187.1575968867
 51
328.3076923077
  0
ARC
  8
0
 62
7
  6
CONTINUOUS
 10
266.7313146379
 20
305.9495488365
 40
3.25
 50
159.4652891944
 51
300.6153846154
  0
ARC
  8
0
 62
7
  6
CONTINUOUS
 10
285.7937093389
 20
255.9399123378
 40
3.25
 50
131.7729815021
 51
272.9230769231
  0
ARC
  8
0
 62
7
  6
CONTINUOUS
 10
221.4026777564
 20
340.7180017372
 40
2.0
 50
7.1575968868
 51
62.3076923077
  0
ARC
  8
0
 62
7
  6
CONTINUOUS
 10
261.8149003966
 20
307.7911163774
 40
2.0
 50
339.4652891944
 51
34.6153846154
  0
ARC
  8
0
 62
7
  6
CONTINUOUS
 10
282.2962598334
 20
259.8553110348
 40
2.0
 50
311.7729815022
 51
6.9230769231
  0
ARC
  8
0
 62
7
  6
CONTINUOUS
 10
189.8536117086
 20
375.6138644115
 40
1.0
 50
356.3076923077
 51
104.4206757692
  0
ARC
  8
0
 62
7
  6
CONTINUOUS
 10
250.096505754
 20
353.3514503014
 40
1.0
 50
328.6153846154
 51
76.7283680768
  0
ARC
  8
0
 62
7
  6
CONTINUOUS
 10
293.0930795867
 20
305.6427927682
 40
1.0
 50
300.9230769231
 51
49.0360603845
  0
ARC
  8
0
 62
7
  6
CONTINUOUS
 10
308.9933363065
 20
243.417370301
 40
1.0
 50
273.2307692308
 51
21.3437526922
  0
ARC
  8
0
 62
7
  6
CONTINUOUS
 10
181.7361636723
 20
321.5412760491
 40
0.9443458372
 50
175.4216527464
 51
225.0
  0
ARC
  8
0
 62
7
  6
CONTINUOUS
 10
254.0801096433
 20
249.197330078
 40
0.9443458372
 50
225.0
 51
274.5783472536
  0
ARC
  8
0
 62
7
  6
CONTINUOUS
 10
438.2990986446
 20
136.7751428471
 40
2.0
 50
180.0
 51
270.0
  0
ARC
  8
0
 62
7
  6
CONTINUOUS
 10
438.2990986446
 20
347.7751428471
 40
2.0
 50
90.0
 51
180.0
  0
ARC
  8
0
 62
7
  6
CONTINUOUS
 10
484.2990986446
 20
136.7751428471
 40
2.0
 50
270.0
 51
360.0
  0
ARC
  8
0
 62
7
  6
CONTINUOUS
 10
484.2990986446
 20
347.7751428471
 40
2.0
 50
0.0
 51
90.0
  0
ENDSEC
  0
EOF
