  0
SECTION
  2
HEADER
  9
$EXTMAX
 10
420.0
 20
297.0
 30
0.0
  9
$EXTMIN
 10
0.0
 20
0.0
 30
0.0
  9
$LIMMIN
 10
0.0
 20
0.0
  9
$LIMMAX
 10
420.0
 20
297.0
  9
$VIEWCTR
 10
210.0
 20
148.5
  9
$VIEWSIZE
 40
297.0
  9
$CLAYER
  8
0
  9
$LTSCALE
 40
23.1
  9
$CELTYPE
  6
BYLAYER
  9
$DIMSCALE
 40
1.0
  9
$DIMASZ
 40
3.5
  9
$DIMEXO
 40
0.0
  9
$DIMDLI
 40
15.96
  9
$DIMEXE
 40
2.0
  9
$DIMCEN
 40
3.78
  9
$DIMLFAC
 40
1.0
  9
$DIMBLK
  1
_FILLED
  9
$DIMALT
 70
0
  9
$DIMALTF
 40
0.0393700787
  9
$DIMTXT
 40
3.5
  9
$AUNITS
 70
0
  9
$PDMODE
 70
3
  9
$PDSIZE
 40
0.3125
  9
$TILEMODE
 70
1
  0
ENDSEC
  0
SECTION
  2
TABLES
  0
TABLE
  2
LTYPE
 70
6
  0
LTYPE
  2
BYBLOCK
 70
0
  3

 72
65
 73
0
 40
0.0
  0
LTYPE
  2
BYLAYER
 70
0
  3

 72
65
 73
0
 40
0.0
  0
LTYPE
  2
CONTINUOUS
 70
64
  3
Solid line
 72
65
 73
0
 40
0.0
  0
LTYPE
  2
CENTER
 70
64
  3
____ _ ____ _ ____ _ ____ _ ____ _ ____ _ ____
 72
65
 73
4
 40
0.6
 49
0.375
 49
-0.075
 49
0.075
 49
-0.075
  0
LTYPE
  2
HIDDEN
 70
64
  3
- - - - - - - - - - - - - - - - - - - -
 72
65
 73
2
 40
0.2
 49
0.1
 49
-0.1
  0
LTYPE
  2
PHANTOM
 70
64
  3
_____ _ _ _____ _ _ _____ _ _ _____
 72
65
 73
6
 40
0.8
 49
0.45
 49
-0.05
 49
0.1
 49
-0.05
 49
0.1
 49
-0.05
  0
LTYPE
  2
DOT
 70
64
  3
. . . . . . . . . . . . . . . . . . . .
 72
65
 73
2
 40
0.2
 49
0.1
 49
-0.1
  0
LTYPE
  2
DASHED
 70
64
  3
- - - - - - - - - - - - - - - - - - - -
 72
65
 73
2
 40
0.2
 49
0.1
 49
-0.1
  0
ENDTAB
  0
TABLE
  2
LAYER
 70
36
  0
LAYER
  2
0
 70
0
 62
7
  6
CONTINUOUS
  0
LAYER
  2
DEFAULT_1
 70
0
 62
7
  6
CENTER
  0
LAYER
  2
DEFAULT_2
 70
0
 62
8
  6
HIDDEN
  0
LAYER
  2
DEFAULT_3
 70
0
 62
7
  6
PHANTOM
  0
LAYER
  2
1_CSYS
 70
0
 62
7
  6
CONTINUOUS
  0
LAYER
  2
1_DATUM_PLANE
 70
0
 62
7
  6
CONTINUOUS
  0
LAYER
  2
2_FEATURE
 70
0
 62
7
  6
CONTINUOUS
  0
LAYER
  2
6_DIM
 70
0
 62
7
  6
CONTINUOUS
  0
LAYER
  2
AXES
 70
0
 62
7
  6
CONTINUOUS
  0
LAYER
  2
BLANK_BELT
 70
0
 62
7
  6
CONTINUOUS
  0
LAYER
  2
BLANK_CURVE_BORE
 70
0
 62
7
  6
CONTINUOUS
  0
LAYER
  2
BLANK_PLAN
 70
0
 62
7
  6
CONTINUOUS
  0
LAYER
  2
BLANK_SQ
 70
0
 62
7
  6
CONTINUOUS
  0
LAYER
  2
CSYS
 70
0
 62
7
  6
CONTINUOUS
  0
LAYER
  2
DTM_AXES
 70
0
 62
7
  6
CONTINUOUS
  0
LAYER
  2
DTM_CRV
 70
0
 62
7
  6
CONTINUOUS
  0
LAYER
  2
NOTES
 70
0
 62
7
  6
CONTINUOUS
  0
LAYER
  2
OUTERLINE
 70
0
 62
7
  6
CONTINUOUS
  0
LAYER
  2
PITCH_LINE
 70
0
 62
7
  6
CONTINUOUS
  0
LAYER
  2
PLANES
 70
0
 62
7
  6
CONTINUOUS
  0
LAYER
  2
QUILTS
 70
0
 62
7
  6
CONTINUOUS
  0
ENDTAB
  0
TABLE
  2
STYLE
 70
1
  0
STYLE
  2
STANDARD
 70
0
 40
0.0
 41
0.8
 50
0.0
 71
0
 42
0.2
  3
txt
  4

  0
STYLE
  2
TEXTSTYLE_1
 70
0
 40
0.0
 41
0.8
 50
0.0
 71
0
 42
0.2
  3
gdt
  4

  0
STYLE
  2
TEXTSTYLE_2
 70
0
 40
0.0
 41
0.6
 50
0.0
 71
0
 42
0.2
  3
txt
  4

  0
STYLE
  2
TEXTSTYLE_3
 70
0
 40
0.0
 41
1.0
 50
0.0
 71
0
 42
0.2
  3
ftb_____.ttf
  4

  0
STYLE
  2
TEXTSTYLE_4
 70
0
 40
0.0
 41
1.0
 50
0.0
 71
0
 42
0.2
  3
fti_____.ttf
  4

  0
STYLE
  2
TEXTSTYLE_5
 70
0
 40
0.0
 41
1.0
 50
0.0
 71
0
 42
0.2
  3
frutiger light.ttf
  4

  0
STYLE
  2
TEXTSTYLE_6
 70
0
 40
0.0
 41
0.7
 50
0.0
 71
0
 42
0.2
  3
txt
  4

  0
STYLE
  2
TEXTSTYLE_7
 70
0
 40
0.0
 41
0.8
 50
0.0
 71
0
 42
0.2
  3
txt
  4

  0
ENDTAB
  0
ENDSEC
  0
SECTION
  2
BLOCKS
  0
BLOCK
  8
0
 62
2
  6
CONTINUOUS
  2
UNI_LOGO2_BL1
 70
64
 10
382.7840918555
 20
35.5067593403
  0
TEXT
  8
0
 62
7
  6
CONTINUOUS
 10
373.842376864
 20
30.5995157174
  7
TEXTSTYLE_4
 40
1.0655737705
  1
The brand for plastic modular belts and chains
 41
1.0
 72
0
  0
LINE
  8
0
 62
7
  6
CONTINUOUS
 10
358.7621602445
 20
36.0805298321
 11
358.7621602445
 21
33.9493822911
  0
LINE
  8
0
 62
7
  6
CONTINUOUS
 10
359.0512227376
 20
30.9584509954
 11
359.0512227376
 21
31.0552420547
  0
LINE
  8
0
 62
7
  6
CONTINUOUS
 10
358.7621602445
 20
31.0229783683
 11
358.8199727462
 21
30.8293962497
  0
LINE
  8
0
 62
7
  6
CONTINUOUS
 10
360.1556028675
 20
33.867415078
 11
360.1556028675
 21
36.0805298321
  0
LINE
  8
0
 62
7
  6
CONTINUOUS
 10
361.0746601894
 20
32.0231527829
 11
361.0746601894
 21
30.5067593403
  0
LINE
  8
0
 62
7
  6
CONTINUOUS
 10
361.3637227445
 20
30.5067593403
 11
361.3637227445
 21
31.2488242184
  0
LINE
  8
0
 62
7
  6
CONTINUOUS
 10
361.3637227445
 20
31.3778789641
 11
361.3637227445
 21
32.0231527829
  0
LINE
  8
0
 62
7
  6
CONTINUOUS
 10
358.8199727462
 20
31.216560532
 11
358.7621602445
 21
31.0229783683
  0
LINE
  8
0
 62
7
  6
CONTINUOUS
 10
359.1668477307
 20
30.7971325633
 11
359.0512227376
 21
30.9584509954
  0
LINE
  8
0
 62
7
  6
CONTINUOUS
 10
360.2652852997
 20
31.3133515913
 11
360.3230977445
 21
31.216560532
  0
LINE
  8
0
 62
7
  6
CONTINUOUS
 10
360.6121602997
 20
31.216560532
 11
360.5543476894
 21
31.3456152777
  0
LINE
  8
0
 62
7
  6
CONTINUOUS
 10
362.0408487691
 20
36.0805298321
 11
362.0408487691
 21
34.2772511436
  0
LINE
  8
0
 62
7
  6
CONTINUOUS
 10
362.0408487691
 20
32.9657757338
 11
362.0408487691
 21
32.3100380288
  0
LINE
  8
0
 62
7
  6
CONTINUOUS
 10
362.4043477445
 20
31.1520331591
 11
362.4043477445
 21
30.5067593403
  0
LINE
  8
0
 62
7
  6
CONTINUOUS
 10
362.6934101343
 20
30.5067593403
 11
362.6934101343
 21
31.1520331591
  0
LINE
  8
0
 62
7
  6
CONTINUOUS
 10
359.0512227376
 20
31.0552420547
 11
359.1090352445
 21
31.1842968456
  0
LINE
  8
0
 62
7
  6
CONTINUOUS
 10
358.8199727462
 20
30.8293962497
 11
358.9355977445
 21
30.7003414814
  0
LINE
  8
0
 62
7
  6
CONTINUOUS
 10
362.3465351343
 20
31.2810879048
 11
362.4043477445
 21
31.1520331591
  0
LINE
  8
0
 62
7
  6
CONTINUOUS
 10
363.1559103548
 20
30.7971325633
 11
363.2137226343
 21
30.668077795
  0
LINE
  8
0
 62
7
  6
CONTINUOUS
 10
362.6934101343
 20
31.1520331591
 11
362.6355978548
 21
31.3133515913
  0
LINE
  8
0
 62
7
  6
CONTINUOUS
 10
363.1559103548
 20
31.3456152777
 11
363.1559103548
 21
31.2810879048
  0
LINE
  8
0
 62
7
  6
CONTINUOUS
 10
363.1559103548
 20
30.8939236226
 11
363.1559103548
 21
30.7971325633
  0
LINE
  8
0
 62
7
  6
CONTINUOUS
 10
363.4342913921
 20
32.3100380288
 11
363.4342913921
 21
36.0805298321
  0
LINE
  8
0
 62
7
  6
CONTINUOUS
 10
363.4449727445
 20
30.7648688543
 11
363.4449727445
 21
30.8293962497
  0
LINE
  8
0
 62
7
  6
CONTINUOUS
 10
363.7621602445
 20
36.0805298321
 11
363.7621602445
 21
32.3100380288
  0
LINE
  8
0
 62
7
  6
CONTINUOUS
 10
360.5543476894
 20
30.7003414814
 11
360.6121602997
 21
30.8293962497
  0
LINE
  8
0
 62
7
  6
CONTINUOUS
 10
364.9480979651
 20
30.6035504109
 11
364.890285024
 21
30.7648688543
  0
LINE
  8
0
 62
7
  6
CONTINUOUS
 10
364.6012229651
 20
31.2810879048
 11
364.6012229651
 21
31.1842968456
  0
LINE
  8
0
 62
7
  6
CONTINUOUS
 10
364.6012229651
 20
31.0552420547
 11
364.6012229651
 21
30.8616599362
  0
LINE
  8
0
 62
7
  6
CONTINUOUS
 10
364.890285024
 20
30.7648688543
 11
364.890285024
 21
31.2810879048
  0
LINE
  8
0
 62
7
  6
CONTINUOUS
 10
365.1556028675
 20
32.3100380288
 11
365.1556028675
 21
34.1133167174
  0
LINE
  8
0
 62
7
  6
CONTINUOUS
 10
365.1556028675
 20
35.4247921272
 11
365.1556028675
 21
36.0805298321
  0
LINE
  8
0
 62
7
  6
CONTINUOUS
 10
365.4684104651
 20
32.0231527829
 11
365.4684104651
 21
31.8618343508
  0
LINE
  8
0
 62
7
  6
CONTINUOUS
 10
365.4684104651
 20
31.5391973962
 11
365.4684104651
 21
30.5067593403
  0
LINE
  8
0
 62
7
  6
CONTINUOUS
 10
365.757472524
 20
30.5067593403
 11
365.757472524
 21
31.5391973962
  0
LINE
  8
0
 62
7
  6
CONTINUOUS
 10
365.757472524
 20
31.8618343508
 11
365.757472524
 21
32.0231527829
  0
LINE
  8
0
 62
7
  6
CONTINUOUS
 10
360.3230977445
 20
30.8293962497
 11
360.2652852997
 21
30.7326051679
  0
LINE
  8
0
 62
7
  6
CONTINUOUS
 10
362.6355978548
 20
31.3133515913
 11
362.5777852445
 21
31.3778789641
  0
LINE
  8
0
 62
7
  6
CONTINUOUS
 10
363.5027853548
 20
30.7003414814
 11
363.4449727445
 21
30.7648688543
  0
LINE
  8
0
 62
7
  6
CONTINUOUS
 10
364.6590352445
 20
30.5712867188
 11
364.716847524
 21
30.5067593403
  0
LINE
  8
0
 62
7
  6
CONTINUOUS
 10
364.6012229651
 20
30.668077795
 11
364.6590352445
 21
30.5712867188
  0
LINE
  8
0
 62
7
  6
CONTINUOUS
 10
365.0059102445
 20
30.5067593403
 11
364.9480979651
 21
30.6035504109
  0
LINE
  8
0
 62
7
  6
CONTINUOUS
 10
364.890285024
 20
31.2810879048
 11
364.8324727445
 21
31.3778789641
  0
LINE
  8
0
 62
7
  6
CONTINUOUS
 10
366.2199727445
 20
31.5391973962
 11
366.2199727445
 21
30.5067593403
  0
LINE
  8
0
 62
7
  6
CONTINUOUS
 10
366.5090354651
 20
30.5067593403
 11
366.5090354651
 21
31.2488242184
  0
LINE
  8
0
 62
7
  6
CONTINUOUS
 10
366.5090354651
 20
31.3778789641
 11
366.5090354651
 21
31.5391973962
  0
LINE
  8
0
 62
7
  6
CONTINUOUS
 10
367.0408487691
 20
34.5231527829
 11
367.0408487691
 21
32.3100380288
  0
LINE
  8
0
 62
7
  6
CONTINUOUS
 10
358.9355977445
 20
31.3456152777
 11
358.8199727462
 21
31.216560532
  0
LINE
  8
0
 62
7
  6
CONTINUOUS
 10
359.1090352445
 20
31.1842968456
 11
359.1668477307
 21
31.2488242184
  0
LINE
  8
0
 62
7
  6
CONTINUOUS
 10
358.9355977445
 20
30.7003414814
 11
359.0512227376
 21
30.6358140973
  0
LINE
  8
0
 62
7
  6
CONTINUOUS
 10
359.3402852307
 20
30.7003414814
 11
359.1668477307
 21
30.7971325633
  0
LINE
  8
0
 62
7
  6
CONTINUOUS
 10
364.543410024
 20
31.3456152777
 11
364.6012229651
 21
31.2810879048
  0
LINE
  8
0
 62
7
  6
CONTINUOUS
 10
367.491847524
 20
31.2810879048
 11
367.5496604651
 21
31.1197694727
  0
LINE
  8
0
 62
7
  6
CONTINUOUS
 10
367.838722524
 20
31.1197694727
 11
367.7809102445
 21
31.2810879048
  0
LINE
  8
0
 62
7
  6
CONTINUOUS
 10
367.5496604651
 20
31.1197694727
 11
367.5496604651
 21
30.5067593403
  0
LINE
  8
0
 62
7
  6
CONTINUOUS
 10
367.838722524
 20
30.5067593403
 11
367.838722524
 21
31.1197694727
  0
LINE
  8
0
 62
7
  6
CONTINUOUS
 10
368.3012227445
 20
31.3456152777
 11
368.3012227445
 21
31.2810879048
  0
LINE
  8
0
 62
7
  6
CONTINUOUS
 10
368.4342913921
 20
32.3100380288
 11
368.4342913921
 21
34.4411855698
  0
LINE
  8
0
 62
7
  6
CONTINUOUS
 10
368.7621602445
 20
36.0805298321
 11
368.7621602445
 21
32.3100380288
  0
LINE
  8
0
 62
7
  6
CONTINUOUS
 10
363.4449727445
 20
30.8293962497
 11
363.5027853548
 21
30.926187309
  0
LINE
  8
0
 62
7
  6
CONTINUOUS
 10
359.0512227376
 20
30.6358140973
 11
359.2246602583
 21
30.5712867188
  0
LINE
  8
0
 62
7
  6
CONTINUOUS
 10
360.5543476894
 20
31.3456152777
 11
360.3809101894
 21
31.4424063369
  0
LINE
  8
0
 62
7
  6
CONTINUOUS
 10
363.2137226343
 20
30.668077795
 11
363.3871601343
 21
30.5712867188
  0
LINE
  8
0
 62
7
  6
CONTINUOUS
 10
362.2309102445
 20
31.3456152777
 11
362.3465351343
 21
31.2810879048
  0
LINE
  8
0
 62
7
  6
CONTINUOUS
 10
362.5777852445
 20
31.3778789641
 11
362.4621603548
 21
31.4424063369
  0
LINE
  8
0
 62
7
  6
CONTINUOUS
 10
368.3012227445
 20
30.7648688543
 11
368.4168479651
 21
30.6358140973
  0
LINE
  8
0
 62
7
  6
CONTINUOUS
 10
368.6480977445
 20
30.7003414814
 11
368.5902854651
 21
30.7648688543
  0
LINE
  8
0
 62
7
  6
CONTINUOUS
 10
368.3012227445
 20
31.2810879048
 11
368.4168479651
 21
31.1520331591
  0
LINE
  8
0
 62
7
  6
CONTINUOUS
 10
367.7809102445
 20
31.2810879048
 11
367.7230979651
 21
31.3778789641
  0
LINE
  8
0
 62
7
  6
CONTINUOUS
 10
370.1512223035
 20
30.7003414814
 11
370.1512223035
 21
30.7648688543
  0
LINE
  8
0
 62
7
  6
CONTINUOUS
 10
370.1556028675
 20
32.3100380288
 11
370.1556028675
 21
36.0805298321
  0
LINE
  8
0
 62
7
  6
CONTINUOUS
 10
363.2137226343
 20
31.4101426505
 11
363.1559103548
 21
31.3456152777
  0
LINE
  8
0
 62
7
  6
CONTINUOUS
 10
360.091847717
 20
31.3778789641
 11
360.2652852997
 21
31.3133515913
  0
LINE
  8
0
 62
7
  6
CONTINUOUS
 10
364.8324727445
 20
31.3778789641
 11
364.716847524
 21
31.4424063369
  0
LINE
  8
0
 62
7
  6
CONTINUOUS
 10
368.6480977445
 20
31.216560532
 11
368.5902854651
 21
31.2810879048
  0
LINE
  8
0
 62
7
  6
CONTINUOUS
 10
369.8043479651
 20
30.8293962497
 11
369.8621602445
 21
30.7648688543
  0
LINE
  8
0
 62
7
  6
CONTINUOUS
 10
370.1512223035
 20
30.7648688543
 11
370.0355977445
 21
30.8939236226
  0
LINE
  8
0
 62
7
  6
CONTINUOUS
 10
369.8043479651
 20
31.3456152777
 11
369.8621602445
 21
31.2810879048
  0
LINE
  8
0
 62
7
  6
CONTINUOUS
 10
370.1512223035
 20
31.2810879048
 11
370.0355977445
 21
31.4101426505
  0
LINE
  8
0
 62
7
  6
CONTINUOUS
 10
363.4449727445
 20
31.2810879048
 11
363.5027853548
 21
31.3456152777
  0
LINE
  8
0
 62
7
  6
CONTINUOUS
 10
363.2715352445
 20
31.0229783683
 11
363.1559103548
 21
30.8939236226
  0
LINE
  8
0
 62
7
  6
CONTINUOUS
 10
364.6012229651
 20
30.8616599362
 11
364.543410024
 21
30.7971325633
  0
LINE
  8
0
 62
7
  6
CONTINUOUS
 10
364.543410024
 20
30.6035504109
 11
364.6012229651
 21
30.668077795
  0
LINE
  8
0
 62
7
  6
CONTINUOUS
 10
363.3871601343
 20
30.5712867188
 11
363.5027853548
 21
30.5390230296
  0
LINE
  8
0
 62
7
  6
CONTINUOUS
 10
360.3809101894
 20
31.4424063369
 11
360.1496602445
 21
31.5069337098
  0
LINE
  8
0
 62
7
  6
CONTINUOUS
 10
363.7340351343
 20
30.6358140973
 11
363.5027853548
 21
30.7003414814
  0
LINE
  8
0
 62
7
  6
CONTINUOUS
 10
362.4621603548
 20
31.4424063369
 11
362.2887228548
 21
31.5069337098
  0
LINE
  8
0
 62
7
  6
CONTINUOUS
 10
364.716847524
 20
31.4424063369
 11
364.543410024
 21
31.5069337098
  0
LINE
  8
0
 62
7
  6
CONTINUOUS
 10
367.3762229651
 20
31.3456152777
 11
367.491847524
 21
31.2810879048
  0
LINE
  8
0
 62
7
  6
CONTINUOUS
 10
367.7230979651
 20
31.3778789641
 11
367.6074727445
 21
31.4424063369
  0
LINE
  8
0
 62
7
  6
CONTINUOUS
 10
359.2246602583
 20
30.5712867188
 11
359.3980977583
 21
30.5390230296
  0
LINE
  8
0
 62
7
  6
CONTINUOUS
 10
359.6871602721
 20
30.6358140973
 11
359.3402852307
 21
30.7003414814
  0
LINE
  8
0
 62
7
  6
CONTINUOUS
 10
362.1152853548
 20
31.3778789641
 11
362.2309102445
 21
31.3456152777
  0
LINE
  8
0
 62
7
  6
CONTINUOUS
 10
364.4277854651
 20
31.3778789641
 11
364.543410024
 21
31.3456152777
  0
LINE
  8
0
 62
7
  6
CONTINUOUS
 10
368.7637229651
 20
30.668077795
 11
368.6480977445
 21
30.7003414814
  0
LINE
  8
0
 62
7
  6
CONTINUOUS
 10
367.2605977445
 20
31.3778789641
 11
367.3762229651
 21
31.3456152777
  0
LINE
  8
0
 62
7
  6
CONTINUOUS
 10
368.4168479651
 20
30.6358140973
 11
368.5902854651
 21
30.5712867188
  0
LINE
  8
0
 62
7
  6
CONTINUOUS
 10
367.6074727445
 20
31.4424063369
 11
367.4340352445
 21
31.5069337098
  0
LINE
  8
0
 62
7
  6
CONTINUOUS
 10
368.8215352445
 20
31.1520331591
 11
368.6480977445
 21
31.216560532
  0
LINE
  8
0
 62
7
  6
CONTINUOUS
 10
369.6309104651
 20
30.8939236226
 11
369.8043479651
 21
30.8293962497
  0
LINE
  8
0
 62
7
  6
CONTINUOUS
 10
370.0355977445
 20
31.4101426505
 11
369.8621602445
 21
31.4746700234
  0
LINE
  8
0
 62
7
  6
CONTINUOUS
 10
368.4168479651
 20
31.1520331591
 11
368.6480977445
 21
31.0552420547
  0
LINE
  8
0
 62
7
  6
CONTINUOUS
 10
370.0355977445
 20
30.8939236226
 11
369.8043479651
 21
30.9907146818
  0
LINE
  8
0
 62
7
  6
CONTINUOUS
 10
368.5902854651
 20
31.2810879048
 11
368.6480977445
 21
31.3456152777
  0
LINE
  8
0
 62
7
  6
CONTINUOUS
 10
359.0512227376
 20
31.4101426505
 11
358.9355977445
 21
31.3456152777
  0
LINE
  8
0
 62
7
  6
CONTINUOUS
 10
359.1668477307
 20
31.2488242184
 11
359.3402852307
 21
31.3456152777
  0
LINE
  8
0
 62
7
  6
CONTINUOUS
 10
361.4793477997
 20
31.4424063369
 11
361.3637227445
 21
31.3778789641
  0
LINE
  8
0
 62
7
  6
CONTINUOUS
 10
361.3637227445
 20
31.2488242184
 11
361.4793477997
 21
31.3133515913
  0
LINE
  8
0
 62
7
  6
CONTINUOUS
 10
360.3809101894
 20
30.6035504109
 11
360.5543476894
 21
30.7003414814
  0
LINE
  8
0
 62
7
  6
CONTINUOUS
 10
359.3980977583
 20
30.5390230296
 11
359.744972717
 21
30.5067593403
  0
LINE
  8
0
 62
7
  6
CONTINUOUS
 10
363.5027853548
 20
30.5390230296
 11
363.7340351343
 21
30.5067593403
  0
LINE
  8
0
 62
7
  6
CONTINUOUS
 10
361.8840352445
 20
31.4101426505
 11
362.1152853548
 21
31.3778789641
  0
LINE
  8
0
 62
7
  6
CONTINUOUS
 10
364.1965353548
 20
31.4101426505
 11
364.4277854651
 21
31.3778789641
  0
LINE
  8
0
 62
7
  6
CONTINUOUS
 10
368.6480977445
 20
31.0552420547
 11
369.6309104651
 21
30.8939236226
  0
LINE
  8
0
 62
7
  6
CONTINUOUS
 10
369.8043479651
 20
30.9907146818
 11
368.8215352445
 21
31.1520331591
  0
LINE
  8
0
 62
7
  6
CONTINUOUS
 10
362.2887228548
 20
31.5069337098
 11
362.1152853548
 21
31.5391973962
  0
LINE
  8
0
 62
7
  6
CONTINUOUS
 10
368.5902854651
 20
30.5712867188
 11
368.7637229651
 21
30.5390230296
  0
LINE
  8
0
 62
7
  6
CONTINUOUS
 10
367.4340352445
 20
31.5069337098
 11
367.2605977445
 21
31.5391973962
  0
LINE
  8
0
 62
7
  6
CONTINUOUS
 10
369.6887227445
 20
31.3778789641
 11
369.8043479651
 21
31.3456152777
  0
LINE
  8
0
 62
7
  6
CONTINUOUS
 10
369.8621602445
 20
30.7648688543
 11
369.8043479651
 21
30.7003414814
  0
LINE
  8
0
 62
7
  6
CONTINUOUS
 10
368.4168479651
 20
31.4424063369
 11
368.3012227445
 21
31.3456152777
  0
LINE
  8
0
 62
7
  6
CONTINUOUS
 10
363.3293478548
 20
31.4746700234
 11
363.2137226343
 21
31.4101426505
  0
LINE
  8
0
 62
7
  6
CONTINUOUS
 10
363.3871601343
 20
31.0875057863
 11
363.2715352445
 21
31.0229783683
  0
LINE
  8
0
 62
7
  6
CONTINUOUS
 10
363.5027853548
 20
30.926187309
 11
363.6184102445
 21
30.9907146818
  0
LINE
  8
0
 62
7
  6
CONTINUOUS
 10
361.0746601894
 20
30.5067593403
 11
361.3637227445
 21
30.5067593403
  0
LINE
  8
0
 62
7
  6
CONTINUOUS
 10
362.4043477445
 20
30.5067593403
 11
362.6934101343
 21
30.5067593403
  0
LINE
  8
0
 62
7
  6
CONTINUOUS
 10
363.7340351343
 20
30.5067593403
 11
364.0809101343
 21
30.5067593403
  0
LINE
  8
0
 62
7
  6
CONTINUOUS
 10
364.716847524
 20
30.5067593403
 11
365.0059102445
 21
30.5067593403
  0
LINE
  8
0
 62
7
  6
CONTINUOUS
 10
365.4684104651
 20
30.5067593403
 11
365.757472524
 21
30.5067593403
  0
LINE
  8
0
 62
7
  6
CONTINUOUS
 10
366.2199727445
 20
30.5067593403
 11
366.5090354651
 21
30.5067593403
  0
LINE
  8
0
 62
7
  6
CONTINUOUS
 10
367.5496604651
 20
30.5067593403
 11
367.838722524
 21
30.5067593403
  0
LINE
  8
0
 62
7
  6
CONTINUOUS
 10
369.1105979651
 20
30.5067593403
 11
369.4574729651
 21
30.5067593403
  0
LINE
  8
0
 62
7
  6
CONTINUOUS
 10
369.4574729651
 20
30.6358140973
 11
369.1105979651
 21
30.6358140973
  0
LINE
  8
0
 62
7
  6
CONTINUOUS
 10
364.0809101343
 20
30.6358140973
 11
363.7340351343
 21
30.6358140973
  0
LINE
  8
0
 62
7
  6
CONTINUOUS
 10
368.5902854651
 20
30.7648688543
 11
368.3012227445
 21
30.7648688543
  0
LINE
  8
0
 62
7
  6
CONTINUOUS
 10
360.6121602997
 20
30.8293962497
 11
360.3230977445
 21
30.8293962497
  0
LINE
  8
0
 62
7
  6
CONTINUOUS
 10
359.6871602721
 20
31.4101426505
 11
360.091847717
 21
31.3778789641
  0
LINE
  8
0
 62
7
  6
CONTINUOUS
 10
360.1496602445
 20
31.5069337098
 11
359.744972717
 21
31.5391973962
  0
LINE
  8
0
 62
7
  6
CONTINUOUS
 10
368.7637229651
 20
30.5390230296
 11
369.1105979651
 21
30.5067593403
  0
LINE
  8
0
 62
7
  6
CONTINUOUS
 10
369.1105979651
 20
30.6358140973
 11
368.7637229651
 21
30.668077795
  0
LINE
  8
0
 62
7
  6
CONTINUOUS
 10
364.543410024
 20
31.5069337098
 11
364.1965353548
 21
31.5391973962
  0
LINE
  8
0
 62
7
  6
CONTINUOUS
 10
369.3418477445
 20
31.4101426505
 11
369.6887227445
 21
31.3778789641
  0
LINE
  8
0
 62
7
  6
CONTINUOUS
 10
369.6887227445
 20
31.5069337098
 11
369.3418477445
 21
31.5391973962
  0
LINE
  8
0
 62
7
  6
CONTINUOUS
 10
367.0293479651
 20
31.4101426505
 11
367.2605977445
 21
31.3778789641
  0
LINE
  8
0
 62
7
  6
CONTINUOUS
 10
369.8621602445
 20
31.4746700234
 11
369.6887227445
 21
31.5069337098
  0
LINE
  8
0
 62
7
  6
CONTINUOUS
 10
370.0355977445
 20
30.6035504109
 11
370.1512223035
 21
30.7003414814
  0
LINE
  8
0
 62
7
  6
CONTINUOUS
 10
364.543410024
 20
30.7971325633
 11
364.369972524
 21
30.7003414814
  0
LINE
  8
0
 62
7
  6
CONTINUOUS
 10
366.624660024
 20
31.4424063369
 11
366.5090354651
 21
31.3778789641
  0
LINE
  8
0
 62
7
  6
CONTINUOUS
 10
366.5090354651
 20
31.2488242184
 11
366.624660024
 21
31.3133515913
  0
LINE
  8
0
 62
7
  6
CONTINUOUS
 10
359.2246602583
 20
31.4746700234
 11
359.0512227376
 21
31.4101426505
  0
LINE
  8
0
 62
7
  6
CONTINUOUS
 10
361.6527851343
 20
31.5069337098
 11
361.4793477997
 21
31.4424063369
  0
LINE
  8
0
 62
7
  6
CONTINUOUS
 10
361.4793477997
 20
31.3133515913
 11
361.6527851343
 21
31.3778789641
  0
LINE
  8
0
 62
7
  6
CONTINUOUS
 10
360.2652852997
 20
30.7326051679
 11
360.091847717
 21
30.668077795
  0
LINE
  8
0
 62
7
  6
CONTINUOUS
 10
369.6887227445
 20
30.668077795
 11
369.4574729651
 21
30.6358140973
  0
LINE
  8
0
 62
7
  6
CONTINUOUS
 10
364.0809101343
 20
30.5067593403
 11
364.369972524
 21
30.5390230296
  0
LINE
  8
0
 62
7
  6
CONTINUOUS
 10
369.4574729651
 20
30.5067593403
 11
369.8043479651
 21
30.5390230296
  0
LINE
  8
0
 62
7
  6
CONTINUOUS
 10
359.744972717
 20
30.5067593403
 11
360.1496602445
 21
30.5390230296
  0
LINE
  8
0
 62
7
  6
CONTINUOUS
 10
360.091847717
 20
30.668077795
 11
359.6871602721
 21
30.6358140973
  0
LINE
  8
0
 62
7
  6
CONTINUOUS
 10
363.9652852445
 20
31.0552420547
 11
364.6012229651
 21
31.0552420547
  0
LINE
  8
0
 62
7
  6
CONTINUOUS
 10
364.6012229651
 20
31.1842968456
 11
363.9652852445
 21
31.1842968456
  0
LINE
  8
0
 62
7
  6
CONTINUOUS
 10
360.3230977445
 20
31.216560532
 11
360.6121602997
 21
31.216560532
  0
LINE
  8
0
 62
7
  6
CONTINUOUS
 10
363.1559103548
 20
31.2810879048
 11
363.4449727445
 21
31.2810879048
  0
LINE
  8
0
 62
7
  6
CONTINUOUS
 10
369.8621602445
 20
31.2810879048
 11
370.1512223035
 21
31.2810879048
  0
LINE
  8
0
 62
7
  6
CONTINUOUS
 10
363.8496603548
 20
31.4101426505
 11
364.1965353548
 21
31.4101426505
  0
LINE
  8
0
 62
7
  6
CONTINUOUS
 10
368.9949727445
 20
31.4101426505
 11
369.3418477445
 21
31.4101426505
  0
LINE
  8
0
 62
7
  6
CONTINUOUS
 10
369.3418477445
 20
31.5391973962
 11
368.9949727445
 21
31.5391973962
  0
LINE
  8
0
 62
7
  6
CONTINUOUS
 10
367.2605977445
 20
31.5391973962
 11
367.0293479651
 21
31.5391973962
  0
LINE
  8
0
 62
7
  6
CONTINUOUS
 10
366.5090354651
 20
31.5391973962
 11
366.2199727445
 21
31.5391973962
  0
LINE
  8
0
 62
7
  6
CONTINUOUS
 10
365.757472524
 20
31.5391973962
 11
365.4684104651
 21
31.5391973962
  0
LINE
  8
0
 62
7
  6
CONTINUOUS
 10
364.1965353548
 20
31.5391973962
 11
363.8496603548
 21
31.5391973962
  0
LINE
  8
0
 62
7
  6
CONTINUOUS
 10
362.1152853548
 20
31.5391973962
 11
361.8840352445
 21
31.5391973962
  0
LINE
  8
0
 62
7
  6
CONTINUOUS
 10
365.4684104651
 20
31.8618343508
 11
365.757472524
 21
31.8618343508
  0
LINE
  8
0
 62
7
  6
CONTINUOUS
 10
365.757472524
 20
32.0231527829
 11
365.4684104651
 21
32.0231527829
  0
LINE
  8
0
 62
7
  6
CONTINUOUS
 10
361.3637227445
 20
32.0231527829
 11
361.0746601894
 21
32.0231527829
  0
LINE
  8
0
 62
7
  6
CONTINUOUS
 10
360.4015045068
 20
32.3100380288
 11
360.8140758554
 21
32.3100380288
  0
LINE
  8
0
 62
7
  6
CONTINUOUS
 10
362.0408487691
 20
32.3100380288
 11
363.4342913921
 21
32.3100380288
  0
LINE
  8
0
 62
7
  6
CONTINUOUS
 10
363.7621602445
 20
32.3100380288
 11
365.1556028675
 21
32.3100380288
  0
LINE
  8
0
 62
7
  6
CONTINUOUS
 10
367.0408487691
 20
32.3100380288
 11
368.4342913921
 21
32.3100380288
  0
LINE
  8
0
 62
7
  6
CONTINUOUS
 10
368.7621602445
 20
32.3100380288
 11
370.1556028675
 21
32.3100380288
  0
LINE
  8
0
 62
7
  6
CONTINUOUS
 10
366.798097524
 20
31.5069337098
 11
366.624660024
 21
31.4424063369
  0
LINE
  8
0
 62
7
  6
CONTINUOUS
 10
364.369972524
 20
30.5390230296
 11
364.543410024
 21
30.6035504109
  0
LINE
  8
0
 62
7
  6
CONTINUOUS
 10
369.8043479651
 20
30.5390230296
 11
370.0355977445
 21
30.6035504109
  0
LINE
  8
0
 62
7
  6
CONTINUOUS
 10
369.8043479651
 20
30.7003414814
 11
369.6887227445
 21
30.668077795
  0
LINE
  8
0
 62
7
  6
CONTINUOUS
 10
368.7637229651
 20
31.3778789641
 11
368.9949727445
 21
31.4101426505
  0
LINE
  8
0
 62
7
  6
CONTINUOUS
 10
366.798097524
 20
31.3778789641
 11
367.0293479651
 21
31.4101426505
  0
LINE
  8
0
 62
7
  6
CONTINUOUS
 10
363.7340351343
 20
31.0229783683
 11
363.9652852445
 21
31.0552420547
  0
LINE
  8
0
 62
7
  6
CONTINUOUS
 10
367.0293479651
 20
31.5391973962
 11
366.798097524
 21
31.5069337098
  0
LINE
  8
0
 62
7
  6
CONTINUOUS
 10
363.6184102445
 20
31.3778789641
 11
363.8496603548
 21
31.4101426505
  0
LINE
  8
0
 62
7
  6
CONTINUOUS
 10
368.9949727445
 20
31.5391973962
 11
368.6480977445
 21
31.5069337098
  0
LINE
  8
0
 62
7
  6
CONTINUOUS
 10
363.9652852445
 20
31.1842968456
 11
363.6184102445
 21
31.1520331591
  0
LINE
  8
0
 62
7
  6
CONTINUOUS
 10
359.744972717
 20
31.5391973962
 11
359.3980977583
 21
31.5069337098
  0
LINE
  8
0
 62
7
  6
CONTINUOUS
 10
363.8496603548
 20
31.5391973962
 11
363.4449727445
 21
31.5069337098
  0
LINE
  8
0
 62
7
  6
CONTINUOUS
 10
361.221176638
 20
33.4575790124
 11
360.565438933
 21
33.4575790124
  0
LINE
  8
0
 62
7
  6
CONTINUOUS
 10
366.624660024
 20
31.3133515913
 11
366.798097524
 21
31.3778789641
  0
LINE
  8
0
 62
7
  6
CONTINUOUS
 10
368.6480977445
 20
31.3456152777
 11
368.7637229651
 21
31.3778789641
  0
LINE
  8
0
 62
7
  6
CONTINUOUS
 10
368.6480977445
 20
31.5069337098
 11
368.4168479651
 21
31.4424063369
  0
LINE
  8
0
 62
7
  6
CONTINUOUS
 10
364.369972524
 20
30.7003414814
 11
364.0809101343
 21
30.6358140973
  0
LINE
  8
0
 62
7
  6
CONTINUOUS
 10
361.6527851343
 20
31.3778789641
 11
361.8840352445
 21
31.4101426505
  0
LINE
  8
0
 62
7
  6
CONTINUOUS
 10
361.8840352445
 20
31.5391973962
 11
361.6527851343
 21
31.5069337098
  0
LINE
  8
0
 62
7
  6
CONTINUOUS
 10
359.4559102445
 20
31.3778789641
 11
359.6871602721
 21
31.4101426505
  0
LINE
  8
0
 62
7
  6
CONTINUOUS
 10
365.9752749986
 20
34.9329888485
 11
366.6310127035
 21
34.9329888485
  0
LINE
  8
0
 62
7
  6
CONTINUOUS
 10
363.6184102445
 20
30.9907146818
 11
363.7340351343
 21
31.0229783683
  0
LINE
  8
0
 62
7
  6
CONTINUOUS
 10
363.6184102445
 20
31.1520331591
 11
363.3871601343
 21
31.0875057863
  0
LINE
  8
0
 62
7
  6
CONTINUOUS
 10
363.5027853548
 20
31.3456152777
 11
363.6184102445
 21
31.3778789641
  0
LINE
  8
0
 62
7
  6
CONTINUOUS
 10
360.1496602445
 20
30.5390230296
 11
360.3809101894
 21
30.6035504109
  0
LINE
  8
0
 62
7
  6
CONTINUOUS
 10
363.4449727445
 20
31.5069337098
 11
363.3293478548
 21
31.4746700234
  0
LINE
  8
0
 62
7
  6
CONTINUOUS
 10
359.3980977583
 20
31.5069337098
 11
359.2246602583
 21
31.4746700234
  0
LINE
  8
0
 62
7
  6
CONTINUOUS
 10
370.1556028675
 20
36.0805298321
 11
368.7621602445
 21
36.0805298321
  0
LINE
  8
0
 62
7
  6
CONTINUOUS
 10
366.7949471298
 20
36.0805298321
 11
366.3823757812
 21
36.0805298321
  0
LINE
  8
0
 62
7
  6
CONTINUOUS
 10
365.1556028675
 20
36.0805298321
 11
363.7621602445
 21
36.0805298321
  0
LINE
  8
0
 62
7
  6
CONTINUOUS
 10
363.4342913921
 20
36.0805298321
 11
362.0408487691
 21
36.0805298321
  0
LINE
  8
0
 62
7
  6
CONTINUOUS
 10
360.1556028675
 20
36.0805298321
 11
358.7621602445
 21
36.0805298321
  0
LINE
  8
0
 62
7
  6
CONTINUOUS
 10
359.3402852307
 20
31.3456152777
 11
359.4559102445
 21
31.3778789641
  0
CIRCLE
  8
0
 62
7
  6
CONTINUOUS
 10
369.458881556
 20
38.4165954059
 40
2.0901639344
  0
ARC
  8
0
 62
7
  6
CONTINUOUS
 10
360.4015045068
 20
33.9493822911
 40
1.6393442623
 50
180.0
 51
270.0
  0
ARC
  8
0
 62
7
  6
CONTINUOUS
 10
366.7949471298
 20
34.4411855698
 40
1.6393442623
 50
0.0
 51
90.0
  0
ARC
  8
0
 62
7
  6
CONTINUOUS
 10
360.8140758554
 20
33.7854478649
 40
1.4754098361
 50
270.0
 51
326.2510114041
  0
ARC
  8
0
 62
7
  6
CONTINUOUS
 10
366.3823757812
 20
34.6051199961
 40
1.4754098361
 50
90.0
 51
146.2510114041
  0
ARC
  8
0
 62
7
  6
CONTINUOUS
 10
361.221176638
 20
34.2772511436
 40
0.8196721311
 50
270.0
 51
360.0
  0
ARC
  8
0
 62
7
  6
CONTINUOUS
 10
365.9752749986
 20
34.1133167174
 40
0.8196721311
 50
90.0
 51
180.0
  0
ARC
  8
0
 62
7
  6
CONTINUOUS
 10
360.565438933
 20
33.867415078
 40
0.4098360656
 50
180.0
 51
270.0
  0
ARC
  8
0
 62
7
  6
CONTINUOUS
 10
366.6310127035
 20
34.5231527829
 40
0.4098360656
 50
0.0
 51
90.0
  0
SOLID
  8
0
 62
7
  6
CONTINUOUS
 10
365.4684104651
 20
31.8618347111
 11
365.4684104651
 21
32.0231531947
 12
365.757472524
 22
31.8618347111
 13
365.757472524
 23
32.0231531947
  0
SOLID
  8
0
 62
7
  6
CONTINUOUS
 10
359.744972717
 20
31.5391977439
 11
360.1496602445
 21
31.5069333244
 12
359.3980977583
 22
31.5069333244
 13
359.3980977583
 23
31.5069333244
  0
SOLID
  8
0
 62
7
  6
CONTINUOUS
 10
359.2246602583
 20
31.4746706537
 11
359.3980977583
 21
31.5069333244
 12
360.1496602445
 22
31.5069333244
 13
360.1496602445
 23
31.5069333244
  0
SOLID
  8
0
 62
7
  6
CONTINUOUS
 10
360.1496602445
 20
31.5069333244
 11
360.3809101894
 21
31.4424063504
 12
359.2246602583
 22
31.4746706537
 13
359.2246602583
 23
31.4746706537
  0
SOLID
  8
0
 62
7
  6
CONTINUOUS
 10
359.0512227376
 20
31.4101419116
 11
359.2246602583
 21
31.4746706537
 12
360.3809101894
 22
31.4424063504
 13
360.3809101894
 23
31.4424063504
  0
SOLID
  8
0
 62
7
  6
CONTINUOUS
 10
359.0512227376
 20
31.4101419116
 11
360.3809101894
 21
31.4424063504
 12
359.6871602721
 22
31.4101419116
 13
359.6871602721
 23
31.4101419116
  0
SOLID
  8
0
 62
7
  6
CONTINUOUS
 10
359.6871602721
 20
31.4101419116
 11
360.3809101894
 21
31.4424063504
 12
360.091847717
 22
31.3778792603
 13
360.091847717
 23
31.3778792603
  0
SOLID
  8
0
 62
7
  6
CONTINUOUS
 10
360.3809101894
 20
31.4424063504
 11
360.5543476894
 21
31.345614957
 12
360.091847717
 22
31.3778792603
 13
360.091847717
 23
31.3778792603
  0
SOLID
  8
0
 62
7
  6
CONTINUOUS
 10
360.2652852997
 20
31.3133521701
 11
360.091847717
 21
31.3778792603
 12
360.5543476894
 22
31.345614957
 13
360.5543476894
 23
31.345614957
  0
SOLID
  8
0
 62
7
  6
CONTINUOUS
 10
360.2652852997
 20
31.3133521701
 11
360.5543476894
 21
31.345614957
 12
360.3230977445
 22
31.2165606992
 13
360.3230977445
 23
31.2165606992
  0
SOLID
  8
0
 62
7
  6
CONTINUOUS
 10
360.5543476894
 20
31.345614957
 11
360.6121602997
 21
31.2165606992
 12
360.3230977445
 22
31.2165606992
 13
360.3230977445
 23
31.2165606992
  0
SOLID
  8
0
 62
7
  6
CONTINUOUS
 10
361.6527851343
 20
31.5069329918
 11
361.8840352445
 21
31.5391972951
 12
362.1152853548
 22
31.5391972951
 13
362.1152853548
 23
31.5391972951
  0
SOLID
  8
0
 62
7
  6
CONTINUOUS
 10
362.1152853548
 20
31.5391972951
 11
362.2887228548
 21
31.5069329918
 12
361.6527851343
 22
31.5069329918
 13
361.6527851343
 23
31.5069329918
  0
SOLID
  8
0
 62
7
  6
CONTINUOUS
 10
361.4793477997
 20
31.4424059016
 11
361.6527851343
 21
31.5069329918
 12
362.2887228548
 22
31.5069329918
 13
362.2887228548
 23
31.5069329918
  0
SOLID
  8
0
 62
7
  6
CONTINUOUS
 10
362.2887228548
 20
31.5069329918
 11
362.4621603548
 21
31.4424059016
 12
361.4793477997
 22
31.4424059016
 13
361.4793477997
 23
31.4424059016
  0
SOLID
  8
0
 62
7
  6
CONTINUOUS
 10
362.4621603548
 20
31.4424059016
 11
361.8840352445
 21
31.4101420472
 12
361.4793477997
 22
31.4424059016
 13
361.4793477997
 23
31.4424059016
  0
SOLID
  8
0
 62
7
  6
CONTINUOUS
 10
361.3637227445
 20
31.3778788115
 11
361.4793477997
 21
31.4424059016
 12
361.8840352445
 22
31.4101420472
 13
361.8840352445
 23
31.4101420472
  0
SOLID
  8
0
 62
7
  6
CONTINUOUS
 10
361.8840352445
 20
31.4101420472
 11
361.6527851343
 21
31.3778788115
 12
361.3637227445
 22
31.3778788115
 13
361.3637227445
 23
31.3778788115
  0
SOLID
  8
0
 62
7
  6
CONTINUOUS
 10
361.8840352445
 20
31.4101420472
 11
362.4621603548
 21
31.4424059016
 12
362.1152853548
 22
31.3778788115
 13
362.1152853548
 23
31.3778788115
  0
SOLID
  8
0
 62
7
  6
CONTINUOUS
 10
362.4621603548
 20
31.4424059016
 11
362.5777852445
 21
31.3778788115
 12
362.1152853548
 22
31.3778788115
 13
362.1152853548
 23
31.3778788115
  0
SOLID
  8
0
 62
7
  6
CONTINUOUS
 10
362.2309102445
 20
31.345614957
 11
362.1152853548
 21
31.3778788115
 12
362.5777852445
 22
31.3778788115
 13
362.5777852445
 23
31.3778788115
  0
SOLID
  8
0
 62
7
  6
CONTINUOUS
 10
362.5777852445
 20
31.3778788115
 11
362.6355978548
 21
31.3133517213
 12
362.2309102445
 22
31.345614957
 13
362.2309102445
 23
31.345614957
  0
SOLID
  8
0
 62
7
  6
CONTINUOUS
 10
362.3465351343
 20
31.2810878668
 11
362.2309102445
 21
31.345614957
 12
362.6355978548
 22
31.3133517213
 13
362.6355978548
 23
31.3133517213
  0
SOLID
  8
0
 62
7
  6
CONTINUOUS
 10
362.3465351343
 20
31.2810878668
 11
362.6355978548
 21
31.3133517213
 12
362.4043477445
 22
31.1520332377
 13
362.4043477445
 23
31.1520332377
  0
SOLID
  8
0
 62
7
  6
CONTINUOUS
 10
362.6355978548
 20
31.3133517213
 11
362.6934101343
 21
31.1520332377
 12
362.4043477445
 22
31.1520332377
 13
362.4043477445
 23
31.1520332377
  0
SOLID
  8
0
 62
7
  6
CONTINUOUS
 10
361.6527851343
 20
31.3778788115
 11
361.4793477997
 21
31.3133517213
 12
361.3637227445
 22
31.3778788115
 13
361.3637227445
 23
31.3778788115
  0
SOLID
  8
0
 62
7
  6
CONTINUOUS
 10
361.4793477997
 20
31.3133517213
 11
361.3637227445
 21
31.2488235635
 12
361.3637227445
 22
31.3778788115
 13
361.3637227445
 23
31.3778788115
  0
SOLID
  8
0
 62
7
  6
CONTINUOUS
 10
361.3637227445
 20
31.2488235635
 11
361.0746601894
 21
30.5067593033
 12
361.3637227445
 22
31.3778788115
 13
361.3637227445
 23
31.3778788115
  0
SOLID
  8
0
 62
7
  6
CONTINUOUS
 10
361.3637227445
 20
31.3778788115
 11
361.0746601894
 21
30.5067593033
 12
361.3637227445
 22
32.0231527459
 13
361.3637227445
 23
32.0231527459
  0
SOLID
  8
0
 62
7
  6
CONTINUOUS
 10
361.0746601894
 20
30.5067593033
 11
361.0746601894
 21
32.0231527459
 12
361.3637227445
 22
32.0231527459
 13
361.3637227445
 23
32.0231527459
  0
SOLID
  8
0
 62
7
  6
CONTINUOUS
 10
361.3637227445
 20
31.2488235635
 11
361.3637227445
 21
30.5067593033
 12
361.0746601894
 22
30.5067593033
 13
361.0746601894
 23
30.5067593033
  0
SOLID
  8
0
 62
7
  6
CONTINUOUS
 10
362.4043477445
 20
30.5067593033
 11
362.4043477445
 21
31.1520332377
 12
362.6934101343
 22
31.1520332377
 13
362.6934101343
 23
31.1520332377
  0
SOLID
  8
0
 62
7
  6
CONTINUOUS
 10
362.6934101343
 20
31.1520332377
 11
362.6934101343
 21
30.5067593033
 12
362.4043477445
 22
30.5067593033
 13
362.4043477445
 23
30.5067593033
  0
SOLID
  8
0
 62
7
  6
CONTINUOUS
 10
363.4449727445
 20
31.506933758
 11
363.8496603548
 21
31.5391977507
 12
364.1965353548
 22
31.5391977507
 13
364.1965353548
 23
31.5391977507
  0
SOLID
  8
0
 62
7
  6
CONTINUOUS
 10
364.1965353548
 20
31.5391977507
 11
364.543410024
 21
31.506933758
 12
363.4449727445
 22
31.506933758
 13
363.4449727445
 23
31.506933758
  0
SOLID
  8
0
 62
7
  6
CONTINUOUS
 10
363.3293478548
 20
31.4746706537
 11
363.4449727445
 21
31.506933758
 12
364.543410024
 22
31.506933758
 13
364.543410024
 23
31.506933758
  0
SOLID
  8
0
 62
7
  6
CONTINUOUS
 10
364.543410024
 20
31.506933758
 11
364.716847524
 21
31.4424063504
 12
363.3293478548
 22
31.4746706537
 13
363.3293478548
 23
31.4746706537
  0
SOLID
  8
0
 62
7
  6
CONTINUOUS
 10
363.2137226343
 20
31.4101417797
 11
363.3293478548
 21
31.4746706537
 12
364.716847524
 22
31.4424063504
 13
364.716847524
 23
31.4424063504
  0
SOLID
  8
0
 62
7
  6
CONTINUOUS
 10
363.2137226343
 20
31.4101417797
 11
364.716847524
 21
31.4424063504
 12
363.8496603548
 22
31.4101417797
 13
363.8496603548
 23
31.4101417797
  0
SOLID
  8
0
 62
7
  6
CONTINUOUS
 10
363.8496603548
 20
31.4101417797
 11
364.716847524
 21
31.4424063504
 12
364.1965353548
 22
31.4101417797
 13
364.1965353548
 23
31.4101417797
  0
SOLID
  8
0
 62
7
  6
CONTINUOUS
 10
364.1965353548
 20
31.4101417797
 11
364.716847524
 21
31.4424063504
 12
364.4277854651
 22
31.3778793357
 13
364.4277854651
 23
31.3778793357
  0
SOLID
  8
0
 62
7
  6
CONTINUOUS
 10
364.716847524
 20
31.4424063504
 11
364.8324727445
 21
31.3778793357
 12
364.4277854651
 22
31.3778793357
 13
364.4277854651
 23
31.3778793357
  0
SOLID
  8
0
 62
7
  6
CONTINUOUS
 10
363.1559103548
 20
31.3456153429
 11
363.2137226343
 21
31.4101417797
 12
363.8496603548
 22
31.4101417797
 13
363.8496603548
 23
31.4101417797
  0
SOLID
  8
0
 62
7
  6
CONTINUOUS
 10
364.543410024
 20
31.3456153429
 11
364.4277854651
 21
31.3778793357
 12
364.8324727445
 22
31.3778793357
 13
364.8324727445
 23
31.3778793357
  0
SOLID
  8
0
 62
7
  6
CONTINUOUS
 10
364.543410024
 20
31.3456153429
 11
364.8324727445
 21
31.3778793357
 12
364.6012229651
 22
31.2810881318
 13
364.6012229651
 23
31.2810881318
  0
SOLID
  8
0
 62
7
  6
CONTINUOUS
 10
364.8324727445
 20
31.3778793357
 11
364.890285024
 21
31.2810881318
 12
364.6012229651
 22
31.2810881318
 13
364.6012229651
 23
31.2810881318
  0
SOLID
  8
0
 62
7
  6
CONTINUOUS
 10
364.6012229651
 20
31.1842964734
 11
364.6012229651
 21
31.2810881318
 12
364.890285024
 22
31.2810881318
 13
364.890285024
 23
31.2810881318
  0
SOLID
  8
0
 62
7
  6
CONTINUOUS
 10
364.6012229651
 20
31.1842964734
 11
364.890285024
 21
31.2810881318
 12
364.6012229651
 22
31.0552422931
 13
364.6012229651
 23
31.0552422931
  0
SOLID
  8
0
 62
7
  6
CONTINUOUS
 10
364.6012229651
 20
31.0552422931
 11
364.890285024
 21
31.2810881318
 12
364.6012229651
 22
30.8616599362
 13
364.6012229651
 23
30.8616599362
  0
SOLID
  8
0
 62
7
  6
CONTINUOUS
 10
364.890285024
 20
31.2810881318
 11
364.890285024
 21
30.7648681127
 12
364.6012229651
 22
30.8616599362
 13
364.6012229651
 23
30.8616599362
  0
SOLID
  8
0
 62
7
  6
CONTINUOUS
 10
366.798097524
 20
31.5069339419
 11
367.0293479651
 21
31.5391976292
 12
367.2605977445
 22
31.5391976292
 13
367.2605977445
 23
31.5391976292
  0
SOLID
  8
0
 62
7
  6
CONTINUOUS
 10
367.2605977445
 20
31.5391976292
 11
367.4340352445
 21
31.5069339419
 12
366.798097524
 22
31.5069339419
 13
366.798097524
 23
31.5069339419
  0
SOLID
  8
0
 62
7
  6
CONTINUOUS
 10
366.624660024
 20
31.4424065674
 11
366.798097524
 21
31.5069339419
 12
367.4340352445
 22
31.5069339419
 13
367.4340352445
 23
31.5069339419
  0
SOLID
  8
0
 62
7
  6
CONTINUOUS
 10
367.4340352445
 20
31.5069339419
 11
367.6074727445
 21
31.4424065674
 12
366.624660024
 22
31.4424065674
 13
366.624660024
 23
31.4424065674
  0
SOLID
  8
0
 62
7
  6
CONTINUOUS
 10
367.6074727445
 20
31.4424065674
 11
367.0293479651
 21
31.4101420472
 12
366.624660024
 22
31.4424065674
 13
366.624660024
 23
31.4424065674
  0
SOLID
  8
0
 62
7
  6
CONTINUOUS
 10
366.5090354651
 20
31.377879193
 11
366.624660024
 21
31.4424065674
 12
367.0293479651
 22
31.4101420472
 13
367.0293479651
 23
31.4101420472
  0
SOLID
  8
0
 62
7
  6
CONTINUOUS
 10
367.0293479651
 20
31.4101420472
 11
366.798097524
 21
31.377879193
 12
366.5090354651
 22
31.377879193
 13
366.5090354651
 23
31.377879193
  0
SOLID
  8
0
 62
7
  6
CONTINUOUS
 10
367.0293479651
 20
31.4101420472
 11
367.6074727445
 21
31.4424065674
 12
367.2605977445
 22
31.377879193
 13
367.2605977445
 23
31.377879193
  0
SOLID
  8
0
 62
7
  6
CONTINUOUS
 10
367.6074727445
 20
31.4424065674
 11
367.7230979651
 21
31.377879193
 12
367.2605977445
 22
31.377879193
 13
367.2605977445
 23
31.377879193
  0
SOLID
  8
0
 62
7
  6
CONTINUOUS
 10
367.3762229651
 20
31.345614957
 11
367.2605977445
 21
31.377879193
 12
367.7230979651
 22
31.377879193
 13
367.7230979651
 23
31.377879193
  0
SOLID
  8
0
 62
7
  6
CONTINUOUS
 10
367.3762229651
 20
31.345614957
 11
367.7230979651
 21
31.377879193
 12
367.491847524
 22
31.2810881312
 13
367.491847524
 23
31.2810881312
  0
SOLID
  8
0
 62
7
  6
CONTINUOUS
 10
367.7230979651
 20
31.377879193
 11
367.7809102445
 21
31.2810881312
 12
367.491847524
 22
31.2810881312
 13
367.491847524
 23
31.2810881312
  0
SOLID
  8
0
 62
7
  6
CONTINUOUS
 10
367.5496604651
 20
31.119769695
 11
367.491847524
 21
31.2810881312
 12
367.7809102445
 22
31.2810881312
 13
367.7809102445
 23
31.2810881312
  0
SOLID
  8
0
 62
7
  6
CONTINUOUS
 10
367.7809102445
 20
31.2810881312
 11
367.838722524
 21
31.119769695
 12
367.5496604651
 22
31.119769695
 13
367.5496604651
 23
31.119769695
  0
SOLID
  8
0
 62
7
  6
CONTINUOUS
 10
366.798097524
 20
31.377879193
 11
366.624660024
 21
31.3133521701
 12
366.5090354651
 22
31.377879193
 13
366.5090354651
 23
31.377879193
  0
SOLID
  8
0
 62
7
  6
CONTINUOUS
 10
366.624660024
 20
31.3133521701
 11
366.5090354651
 21
31.2488235635
 12
366.5090354651
 22
31.377879193
 13
366.5090354651
 23
31.377879193
  0
SOLID
  8
0
 62
7
  6
CONTINUOUS
 10
366.5090354651
 20
31.2488235635
 11
366.2199727445
 21
30.5067596374
 12
366.5090354651
 22
31.377879193
 13
366.5090354651
 23
31.377879193
  0
SOLID
  8
0
 62
7
  6
CONTINUOUS
 10
366.5090354651
 20
31.377879193
 11
366.2199727445
 21
30.5067596374
 12
366.5090354651
 22
31.5391976292
 13
366.5090354651
 23
31.5391976292
  0
SOLID
  8
0
 62
7
  6
CONTINUOUS
 10
366.2199727445
 20
30.5067596374
 11
366.2199727445
 21
31.5391976292
 12
366.5090354651
 22
31.5391976292
 13
366.5090354651
 23
31.5391976292
  0
SOLID
  8
0
 62
7
  6
CONTINUOUS
 10
366.5090354651
 20
31.2488235635
 11
366.5090354651
 21
30.5067596374
 12
366.2199727445
 22
30.5067596374
 13
366.2199727445
 23
30.5067596374
  0
SOLID
  8
0
 62
7
  6
CONTINUOUS
 10
367.5496604651
 20
30.5067596374
 11
367.5496604651
 21
31.119769695
 12
367.838722524
 22
31.119769695
 13
367.838722524
 23
31.119769695
  0
SOLID
  8
0
 62
7
  6
CONTINUOUS
 10
367.838722524
 20
31.119769695
 11
367.838722524
 21
30.5067596374
 12
367.5496604651
 22
30.5067596374
 13
367.5496604651
 23
30.5067596374
  0
SOLID
  8
0
 62
7
  6
CONTINUOUS
 10
368.6480977445
 20
31.5069334157
 11
368.9949727445
 21
31.539197762
 12
369.3418477445
 22
31.539197762
 13
369.3418477445
 23
31.539197762
  0
SOLID
  8
0
 62
7
  6
CONTINUOUS
 10
369.3418477445
 20
31.539197762
 11
369.6887227445
 21
31.5069334157
 12
368.6480977445
 22
31.5069334157
 13
368.6480977445
 23
31.5069334157
  0
SOLID
  8
0
 62
7
  6
CONTINUOUS
 10
368.4168479651
 20
31.4424063504
 11
368.6480977445
 21
31.5069334157
 12
369.6887227445
 22
31.5069334157
 13
369.6887227445
 23
31.5069334157
  0
SOLID
  8
0
 62
7
  6
CONTINUOUS
 10
368.4168479651
 20
31.4424063504
 11
369.6887227445
 21
31.5069334406
 12
369.8621602445
 22
31.4746706537
 13
369.8621602445
 23
31.4746706537
  0
SOLID
  8
0
 62
7
  6
CONTINUOUS
 10
368.4168479651
 20
31.4424063504
 11
369.8621602445
 21
31.4746706537
 12
368.9949727445
 22
31.4101421267
 13
368.9949727445
 23
31.4101421267
  0
SOLID
  8
0
 62
7
  6
CONTINUOUS
 10
368.9949727445
 20
31.4101421267
 11
369.8621602445
 21
31.4746706537
 12
369.3418477445
 22
31.4101421267
 13
369.3418477445
 23
31.4101421267
  0
SOLID
  8
0
 62
7
  6
CONTINUOUS
 10
369.8621602445
 20
31.4746706537
 11
370.0355977445
 21
31.4101421267
 12
369.3418477445
 22
31.4101421267
 13
369.3418477445
 23
31.4101421267
  0
SOLID
  8
0
 62
7
  6
CONTINUOUS
 10
369.6887227445
 20
31.3778792603
 11
369.3418477445
 21
31.4101421267
 12
370.0355977445
 22
31.4101421267
 13
370.0355977445
 23
31.4101421267
  0
SOLID
  8
0
 62
7
  6
CONTINUOUS
 10
368.3012227445
 20
31.3456148845
 11
368.4168479651
 21
31.4424063504
 12
368.9949727445
 22
31.4101421267
 13
368.9949727445
 23
31.4101421267
  0
SOLID
  8
0
 62
7
  6
CONTINUOUS
 10
369.6887227445
 20
31.3778792603
 11
370.0355977445
 21
31.4101421267
 12
369.8043479651
 22
31.3456148845
 13
369.8043479651
 23
31.3456148845
  0
SOLID
  8
0
 62
7
  6
CONTINUOUS
 10
369.8043479651
 20
31.3456148845
 11
370.0355977445
 21
31.4101421267
 12
369.8621602445
 22
31.281087868
 13
369.8621602445
 23
31.281087868
  0
SOLID
  8
0
 62
7
  6
CONTINUOUS
 10
370.0355977445
 20
31.4101421267
 11
370.1512223035
 21
31.281087868
 12
369.8621602445
 22
31.281087868
 13
369.8621602445
 23
31.281087868
  0
SOLID
  8
0
 62
7
  6
CONTINUOUS
 10
359.4559102445
 20
31.3778792603
 11
358.9355977445
 21
31.3456148963
 12
359.6871602721
 22
31.4101421155
 13
359.6871602721
 23
31.4101421155
  0
SOLID
  8
0
 62
7
  6
CONTINUOUS
 10
358.9355977445
 20
31.3456148963
 11
359.0512227376
 21
31.4101421155
 12
359.6871602721
 22
31.4101421155
 13
359.6871602721
 23
31.4101421155
  0
SOLID
  8
0
 62
7
  6
CONTINUOUS
 10
359.4559102445
 20
31.3778792603
 11
359.3402852307
 21
31.3456148963
 12
358.9355977445
 22
31.3456148963
 13
358.9355977445
 23
31.3456148963
  0
SOLID
  8
0
 62
7
  6
CONTINUOUS
 10
358.8199727462
 20
31.2165607767
 11
358.9355977445
 21
31.3456148963
 12
359.3402852307
 22
31.3456148963
 13
359.3402852307
 23
31.3456148963
  0
SOLID
  8
0
 62
7
  6
CONTINUOUS
 10
363.1559103548
 20
31.3456149608
 11
363.8496603548
 21
31.4101420472
 12
363.6184102445
 22
31.3778792603
 13
363.6184102445
 23
31.3778792603
  0
SOLID
  8
0
 62
7
  6
CONTINUOUS
 10
363.6184102445
 20
31.3778792603
 11
363.5027853548
 21
31.3456149608
 12
363.1559103548
 22
31.3456149608
 13
363.1559103548
 23
31.3456149608
  0
SOLID
  8
0
 62
7
  6
CONTINUOUS
 10
363.1559103548
 20
31.2810878707
 11
363.1559103548
 21
31.3456149608
 12
363.5027853548
 22
31.3456149608
 13
363.5027853548
 23
31.3456149608
  0
SOLID
  8
0
 62
7
  6
CONTINUOUS
 10
363.5027853548
 20
31.3456149608
 11
363.4449727445
 21
31.2810878707
 12
363.1559103548
 22
31.2810878707
 13
363.1559103548
 23
31.2810878707
  0
SOLID
  8
0
 62
7
  6
CONTINUOUS
 10
368.3012227445
 20
31.3456149608
 11
368.9949727445
 21
31.4101420472
 12
368.7637229651
 22
31.3778792603
 13
368.7637229651
 23
31.3778792603
  0
SOLID
  8
0
 62
7
  6
CONTINUOUS
 10
368.7637229651
 20
31.3778792603
 11
368.6480977445
 21
31.3456149608
 12
368.3012227445
 22
31.3456149608
 13
368.3012227445
 23
31.3456149608
  0
SOLID
  8
0
 62
7
  6
CONTINUOUS
 10
368.3012227445
 20
31.2810878707
 11
368.3012227445
 21
31.3456149608
 12
368.6480977445
 22
31.3456149608
 13
368.6480977445
 23
31.3456149608
  0
SOLID
  8
0
 62
7
  6
CONTINUOUS
 10
368.6480977445
 20
31.3456149608
 11
368.5902854651
 21
31.2810878707
 12
368.3012227445
 22
31.2810878707
 13
368.3012227445
 23
31.2810878707
  0
SOLID
  8
0
 62
7
  6
CONTINUOUS
 10
368.4168479651
 20
31.1520336865
 11
368.3012227445
 21
31.2810878707
 12
368.5902854651
 22
31.2810878707
 13
368.5902854651
 23
31.2810878707
  0
SOLID
  8
0
 62
7
  6
CONTINUOUS
 10
358.8199727462
 20
31.2165607767
 11
359.3402852307
 21
31.345614957
 12
359.1668477307
 22
31.2488235635
 13
359.1668477307
 23
31.2488235635
  0
SOLID
  8
0
 62
7
  6
CONTINUOUS
 10
359.1668477307
 20
31.2488235635
 11
359.1090352445
 21
31.1842964734
 12
358.8199727462
 22
31.2165607767
 13
358.8199727462
 23
31.2165607767
  0
SOLID
  8
0
 62
7
  6
CONTINUOUS
 10
358.7621602445
 20
31.0229779898
 11
358.8199727462
 21
31.2165607767
 12
359.1090352445
 22
31.1842964734
 13
359.1090352445
 23
31.1842964734
  0
SOLID
  8
0
 62
7
  6
CONTINUOUS
 10
363.6184102445
 20
31.1520336865
 11
363.9652852445
 21
31.1842964611
 12
364.6012229651
 22
31.1842964611
 13
364.6012229651
 23
31.1842964611
  0
SOLID
  8
0
 62
7
  6
CONTINUOUS
 10
363.6184102445
 20
31.1520336865
 11
364.6012229651
 21
31.1842964611
 12
363.3871601343
 22
31.0875057863
 13
363.3871601343
 23
31.0875057863
  0
SOLID
  8
0
 62
7
  6
CONTINUOUS
 10
363.3871601343
 20
31.0875057863
 11
364.6012229651
 21
31.1842964611
 12
363.9652852445
 22
31.0552422808
 13
363.9652852445
 23
31.0552422808
  0
SOLID
  8
0
 62
7
  6
CONTINUOUS
 10
364.6012229651
 20
31.1842964611
 11
364.6012229651
 21
31.0552422808
 12
363.9652852445
 22
31.0552422808
 13
363.9652852445
 23
31.0552422808
  0
SOLID
  8
0
 62
7
  6
CONTINUOUS
 10
368.4168479651
 20
31.1520338754
 11
368.5902854651
 21
31.2810878668
 12
368.6480977445
 22
31.2165607767
 13
368.6480977445
 23
31.2165607767
  0
SOLID
  8
0
 62
7
  6
CONTINUOUS
 10
368.6480977445
 20
31.2165607767
 11
368.8215352445
 21
31.1520338754
 12
368.4168479651
 22
31.1520338754
 13
368.4168479651
 23
31.1520338754
  0
SOLID
  8
0
 62
7
  6
CONTINUOUS
 10
368.6480977445
 20
31.0552422931
 11
368.4168479651
 21
31.1520338754
 12
368.8215352445
 22
31.1520338754
 13
368.8215352445
 23
31.1520338754
  0
SOLID
  8
0
 62
7
  6
CONTINUOUS
 10
368.8215352445
 20
31.1520338754
 11
369.8043479651
 21
30.9907152029
 12
368.6480977445
 22
31.0552422931
 13
368.6480977445
 23
31.0552422931
  0
SOLID
  8
0
 62
7
  6
CONTINUOUS
 10
369.6309104651
 20
30.8939239876
 11
368.6480977445
 21
31.0552422931
 12
369.8043479651
 22
30.9907152029
 13
369.8043479651
 23
30.9907152029
  0
SOLID
  8
0
 62
7
  6
CONTINUOUS
 10
369.8043479651
 20
30.9907152029
 11
370.0355977445
 21
30.8939239876
 12
369.6309104651
 22
30.8939239876
 13
369.6309104651
 23
30.8939239876
  0
SOLID
  8
0
 62
7
  6
CONTINUOUS
 10
369.8043479651
 20
30.8293967193
 11
369.6309104651
 21
30.8939239876
 12
370.0355977445
 22
30.8939239876
 13
370.0355977445
 23
30.8939239876
  0
SOLID
  8
0
 62
7
  6
CONTINUOUS
 10
369.8043479651
 20
30.8293967193
 11
370.0355977445
 21
30.8939239876
 12
369.8621602445
 22
30.7648682694
 13
369.8621602445
 23
30.7648682694
  0
SOLID
  8
0
 62
7
  6
CONTINUOUS
 10
370.0355977445
 20
30.8939239876
 11
370.1512223035
 21
30.7648682694
 12
369.8621602445
 22
30.7648682694
 13
369.8621602445
 23
30.7648682694
  0
SOLID
  8
0
 62
7
  6
CONTINUOUS
 10
369.8043479651
 20
30.7003411846
 11
369.8621602445
 21
30.7648682694
 12
370.1512223035
 22
30.7648682694
 13
370.1512223035
 23
30.7648682694
  0
SOLID
  8
0
 62
7
  6
CONTINUOUS
 10
370.1512223035
 20
30.7648682694
 11
370.1512223035
 21
30.7003411846
 12
369.8043479651
 22
30.7003411846
 13
369.8043479651
 23
30.7003411846
  0
SOLID
  8
0
 62
7
  6
CONTINUOUS
 10
369.6887227445
 20
30.6680782357
 11
369.8043479651
 21
30.7003411846
 12
370.1512223035
 22
30.7003411846
 13
370.1512223035
 23
30.7003411846
  0
SOLID
  8
0
 62
7
  6
CONTINUOUS
 10
369.6887227445
 20
30.6680782357
 11
370.1512223035
 21
30.7003411846
 12
369.4574729651
 22
30.6358140998
 13
369.4574729651
 23
30.6358140998
  0
SOLID
  8
0
 62
7
  6
CONTINUOUS
 10
370.1512223035
 20
30.7003411846
 11
370.0355977445
 21
30.6035511455
 12
369.4574729651
 22
30.6358140998
 13
369.4574729651
 23
30.6358140998
  0
SOLID
  8
0
 62
7
  6
CONTINUOUS
 10
370.0355977445
 20
30.6035511455
 11
368.5902854651
 21
30.5712868422
 12
369.4574729651
 22
30.6358140998
 13
369.4574729651
 23
30.6358140998
  0
SOLID
  8
0
 62
7
  6
CONTINUOUS
 10
369.4574729651
 20
30.6358140998
 11
368.5902854651
 21
30.5712868422
 12
369.1105979651
 22
30.6358140998
 13
369.1105979651
 23
30.6358140998
  0
SOLID
  8
0
 62
7
  6
CONTINUOUS
 10
368.5902854651
 20
30.5712868422
 11
368.4168479651
 21
30.6358140998
 12
369.1105979651
 22
30.6358140998
 13
369.1105979651
 23
30.6358140998
  0
SOLID
  8
0
 62
7
  6
CONTINUOUS
 10
368.5902854651
 20
30.5712868422
 11
370.0355977445
 21
30.6035511455
 12
368.7637229651
 22
30.5390223111
 13
368.7637229651
 23
30.5390223111
  0
SOLID
  8
0
 62
7
  6
CONTINUOUS
 10
370.0355977445
 20
30.6035511455
 11
369.8043479651
 21
30.5390223111
 12
368.7637229651
 22
30.5390223111
 13
368.7637229651
 23
30.5390223111
  0
SOLID
  8
0
 62
7
  6
CONTINUOUS
 10
369.1105979651
 20
30.5067599302
 11
368.7637229651
 21
30.5390223111
 12
369.8043479651
 22
30.5390223111
 13
369.8043479651
 23
30.5390223111
  0
SOLID
  8
0
 62
7
  6
CONTINUOUS
 10
369.8043479651
 20
30.5390223111
 11
369.4574729651
 21
30.5067599302
 12
369.1105979651
 22
30.5067599302
 13
369.1105979651
 23
30.5067599302
  0
SOLID
  8
0
 62
7
  6
CONTINUOUS
 10
358.7621602445
 20
31.0229779898
 11
359.1090352445
 21
31.1842964734
 12
359.0512227376
 22
31.0552422931
 13
359.0512227376
 23
31.0552422931
  0
SOLID
  8
0
 62
7
  6
CONTINUOUS
 10
359.0512227376
 20
31.0552422931
 11
359.0512227376
 21
30.9584509954
 12
358.7621602445
 22
31.0229779898
 13
358.7621602445
 23
31.0229779898
  0
SOLID
  8
0
 62
7
  6
CONTINUOUS
 10
358.8199727462
 20
30.8293967193
 11
358.7621602445
 21
31.0229779898
 12
359.0512227376
 22
30.9584509954
 13
359.0512227376
 23
30.9584509954
  0
SOLID
  8
0
 62
7
  6
CONTINUOUS
 10
359.0512227376
 20
30.9584509954
 11
359.1668477307
 21
30.797132416
 12
358.8199727462
 22
30.8293967193
 13
358.8199727462
 23
30.8293967193
  0
SOLID
  8
0
 62
7
  6
CONTINUOUS
 10
358.9355977445
 20
30.7003413087
 11
358.8199727462
 21
30.8293967193
 12
359.1668477307
 22
30.797132416
 13
359.1668477307
 23
30.797132416
  0
SOLID
  8
0
 62
7
  6
CONTINUOUS
 10
359.1668477307
 20
30.797132416
 11
359.3402852307
 21
30.7003413087
 12
358.9355977445
 22
30.7003413087
 13
358.9355977445
 23
30.7003413087
  0
SOLID
  8
0
 62
7
  6
CONTINUOUS
 10
359.0512227376
 20
30.6358140759
 11
358.9355977445
 21
30.7003413087
 12
359.3402852307
 22
30.7003413087
 13
359.3402852307
 23
30.7003413087
  0
SOLID
  8
0
 62
7
  6
CONTINUOUS
 10
359.3402852307
 20
30.7003413087
 11
359.6871602721
 21
30.6358140759
 12
359.0512227376
 22
30.6358140759
 13
359.0512227376
 23
30.6358140759
  0
SOLID
  8
0
 62
7
  6
CONTINUOUS
 10
359.2246602583
 20
30.5712868422
 11
359.0512227376
 21
30.6358140759
 12
359.6871602721
 22
30.6358140759
 13
359.6871602721
 23
30.6358140759
  0
SOLID
  8
0
 62
7
  6
CONTINUOUS
 10
363.2715352445
 20
31.0229779808
 11
363.3871601343
 21
31.0875057863
 12
363.9652852445
 22
31.0552422931
 13
363.9652852445
 23
31.0552422931
  0
SOLID
  8
0
 62
7
  6
CONTINUOUS
 10
363.9652852445
 20
31.0552422931
 11
363.7340351343
 21
31.0229779808
 12
363.2715352445
 22
31.0229779808
 13
363.2715352445
 23
31.0229779808
  0
SOLID
  8
0
 62
7
  6
CONTINUOUS
 10
363.1559103548
 20
30.8939238094
 11
363.2715352445
 21
31.0229779808
 12
363.7340351343
 22
31.0229779808
 13
363.7340351343
 23
31.0229779808
  0
SOLID
  8
0
 62
7
  6
CONTINUOUS
 10
363.5027853548
 20
30.926187309
 11
363.1559103548
 21
30.8939238094
 12
363.6184102445
 22
30.9907152029
 13
363.6184102445
 23
30.9907152029
  0
SOLID
  8
0
 62
7
  6
CONTINUOUS
 10
363.1559103548
 20
30.8939238094
 11
363.7340351343
 21
31.0229779898
 12
363.6184102445
 22
30.9907152029
 13
363.6184102445
 23
30.9907152029
  0
SOLID
  8
0
 62
7
  6
CONTINUOUS
 10
363.5027853548
 20
30.926187309
 11
363.4449727445
 21
30.8293967193
 12
363.1559103548
 22
30.8939238094
 13
363.1559103548
 23
30.8939238094
  0
SOLID
  8
0
 62
7
  6
CONTINUOUS
 10
363.1559103548
 20
30.797132416
 11
363.1559103548
 21
30.8939238094
 12
363.4449727445
 22
30.8293967193
 13
363.4449727445
 23
30.8293967193
  0
SOLID
  8
0
 62
7
  6
CONTINUOUS
 10
363.4449727445
 20
30.8293967193
 11
363.4449727445
 21
30.7648681127
 12
363.1559103548
 22
30.797132416
 13
363.1559103548
 23
30.797132416
  0
SOLID
  8
0
 62
7
  6
CONTINUOUS
 10
363.2137226343
 20
30.6680782357
 11
363.1559103548
 21
30.797132416
 12
363.4449727445
 22
30.7648681127
 13
363.4449727445
 23
30.7648681127
  0
SOLID
  8
0
 62
7
  6
CONTINUOUS
 10
364.6012229651
 20
30.8616599362
 11
364.890285024
 21
30.7648681127
 12
364.543410024
 22
30.797132416
 13
364.543410024
 23
30.797132416
  0
SOLID
  8
0
 62
7
  6
CONTINUOUS
 10
364.369972524
 20
30.7003410226
 11
364.543410024
 21
30.797132416
 12
364.890285024
 22
30.7648681127
 13
364.890285024
 23
30.7648681127
  0
SOLID
  8
0
 62
7
  6
CONTINUOUS
 10
364.369972524
 20
30.7003410226
 11
364.890285024
 21
30.7648681127
 12
364.6012229651
 22
30.6680782357
 13
364.6012229651
 23
30.6680782357
  0
SOLID
  8
0
 62
7
  6
CONTINUOUS
 10
364.890285024
 20
30.7648681127
 11
364.9480979651
 21
30.6035511455
 12
364.6012229651
 22
30.6680782357
 13
364.6012229651
 23
30.6680782357
  0
SOLID
  8
0
 62
7
  6
CONTINUOUS
 10
364.6590352445
 20
30.5712868422
 11
364.6012229651
 21
30.6680782357
 12
364.9480979651
 22
30.6035511455
 13
364.9480979651
 23
30.6035511455
  0
SOLID
  8
0
 62
7
  6
CONTINUOUS
 10
364.6590352445
 20
30.5712868422
 11
364.9480979651
 21
30.6035511455
 12
364.716847524
 22
30.5067598731
 13
364.716847524
 23
30.5067598731
  0
SOLID
  8
0
 62
7
  6
CONTINUOUS
 10
364.9480979651
 20
30.6035511455
 11
365.0059102445
 21
30.5067598731
 12
364.716847524
 22
30.5067598731
 13
364.716847524
 23
30.5067598731
  0
SOLID
  8
0
 62
7
  6
CONTINUOUS
 10
360.2652852997
 20
30.7326051679
 11
360.3230977445
 21
30.8293966612
 12
360.6121602997
 22
30.8293966612
 13
360.6121602997
 23
30.8293966612
  0
SOLID
  8
0
 62
7
  6
CONTINUOUS
 10
360.6121602997
 20
30.8293966612
 11
360.5543476894
 21
30.7003410226
 12
360.2652852997
 22
30.7326051679
 13
360.2652852997
 23
30.7326051679
  0
SOLID
  8
0
 62
7
  6
CONTINUOUS
 10
360.091847717
 20
30.6680782357
 11
360.2652852997
 21
30.7326051679
 12
360.5543476894
 22
30.7003410226
 13
360.5543476894
 23
30.7003410226
  0
SOLID
  8
0
 62
7
  6
CONTINUOUS
 10
360.091847717
 20
30.6680782357
 11
360.5543476894
 21
30.7003410226
 12
359.6871602721
 22
30.6358139324
 13
359.6871602721
 23
30.6358139324
  0
SOLID
  8
0
 62
7
  6
CONTINUOUS
 10
360.5543476894
 20
30.7003410226
 11
360.3809101894
 21
30.6035511455
 12
359.6871602721
 22
30.6358139324
 13
359.6871602721
 23
30.6358139324
  0
SOLID
  8
0
 62
7
  6
CONTINUOUS
 10
359.2246602583
 20
30.5712868422
 11
359.6871602721
 21
30.6358139324
 12
360.3809101894
 22
30.6035511455
 13
360.3809101894
 23
30.6035511455
  0
SOLID
  8
0
 62
7
  6
CONTINUOUS
 10
359.2246602583
 20
30.5712868422
 11
360.3809101894
 21
30.6035511455
 12
359.3980977583
 22
30.5390224228
 13
359.3980977583
 23
30.5390224228
  0
SOLID
  8
0
 62
7
  6
CONTINUOUS
 10
360.3809101894
 20
30.6035511455
 11
360.1496602445
 21
30.5390224228
 12
359.3980977583
 22
30.5390224228
 13
359.3980977583
 23
30.5390224228
  0
SOLID
  8
0
 62
7
  6
CONTINUOUS
 10
359.744972717
 20
30.5067597521
 11
359.3980977583
 21
30.5390224228
 12
360.1496602445
 22
30.5390224228
 13
360.1496602445
 23
30.5390224228
  0
SOLID
  8
0
 62
7
  6
CONTINUOUS
 10
363.2137226343
 20
30.6680782357
 11
363.4449727445
 21
30.7648681127
 12
363.5027853548
 22
30.7003410226
 13
363.5027853548
 23
30.7003410226
  0
SOLID
  8
0
 62
7
  6
CONTINUOUS
 10
363.5027853548
 20
30.7003410226
 11
363.7340351343
 21
30.6358139324
 12
363.2137226343
 22
30.6680782357
 13
363.2137226343
 23
30.6680782357
  0
SOLID
  8
0
 62
7
  6
CONTINUOUS
 10
363.3871601343
 20
30.5712868422
 11
363.2137226343
 21
30.6680782357
 12
363.7340351343
 22
30.6358139324
 13
363.7340351343
 23
30.6358139324
  0
SOLID
  8
0
 62
7
  6
CONTINUOUS
 10
364.0809101343
 20
30.6358139363
 11
364.369972524
 21
30.7003410226
 12
364.6012229651
 22
30.6680782357
 13
364.6012229651
 23
30.6680782357
  0
SOLID
  8
0
 62
7
  6
CONTINUOUS
 10
364.6012229651
 20
30.6680782357
 11
364.543410024
 21
30.6035511455
 12
364.0809101343
 22
30.6358139363
 13
364.0809101343
 23
30.6358139363
  0
SOLID
  8
0
 62
7
  6
CONTINUOUS
 10
364.543410024
 20
30.6035511455
 11
363.3871601343
 21
30.5712868422
 12
364.0809101343
 22
30.6358139363
 13
364.0809101343
 23
30.6358139363
  0
SOLID
  8
0
 62
7
  6
CONTINUOUS
 10
363.3871601343
 20
30.5712868422
 11
363.7340351343
 21
30.6358139363
 12
364.0809101343
 22
30.6358139363
 13
364.0809101343
 23
30.6358139363
  0
SOLID
  8
0
 62
7
  6
CONTINUOUS
 10
363.3871601343
 20
30.5712868422
 11
364.543410024
 21
30.6035511455
 12
363.5027853548
 22
30.5390225267
 13
363.5027853548
 23
30.5390225267
  0
SOLID
  8
0
 62
7
  6
CONTINUOUS
 10
364.543410024
 20
30.6035511455
 11
364.369972524
 21
30.5390225267
 12
363.5027853548
 22
30.5390225267
 13
363.5027853548
 23
30.5390225267
  0
SOLID
  8
0
 62
7
  6
CONTINUOUS
 10
363.7340351343
 20
30.5067596914
 11
363.5027853548
 21
30.5390225267
 12
364.369972524
 22
30.5390225267
 13
364.369972524
 23
30.5390225267
  0
SOLID
  8
0
 62
7
  6
CONTINUOUS
 10
364.369972524
 20
30.5390225267
 11
364.0809101343
 21
30.5067596914
 12
363.7340351343
 22
30.5067596914
 13
363.7340351343
 23
30.5067596914
  0
SOLID
  8
0
 62
7
  6
CONTINUOUS
 10
368.7637229651
 20
30.6680782357
 11
368.4168479651
 21
30.6358138717
 12
368.6480977445
 22
30.7003410226
 13
368.6480977445
 23
30.7003410226
  0
SOLID
  8
0
 62
7
  6
CONTINUOUS
 10
368.6480977445
 20
30.7003410226
 11
368.4168479651
 21
30.6358138717
 12
368.5902854651
 22
30.7648680521
 13
368.5902854651
 23
30.7648680521
  0
SOLID
  8
0
 62
7
  6
CONTINUOUS
 10
368.4168479651
 20
30.6358138717
 11
368.3012227445
 21
30.7648680521
 12
368.5902854651
 22
30.7648680521
 13
368.5902854651
 23
30.7648680521
  0
SOLID
  8
0
 62
7
  6
CONTINUOUS
 10
368.7637229651
 20
30.6680782357
 11
369.1105979651
 21
30.6358138717
 12
368.4168479651
 22
30.6358138717
 13
368.4168479651
 23
30.6358138717
  0
SOLID
  8
0
 62
7
  6
CONTINUOUS
 10
365.4684104651
 20
30.5067597521
 11
365.4684104651
 21
31.5391977439
 12
365.757472524
 22
30.5067597521
 13
365.757472524
 23
31.5391977439
  0
ENDBLK
  8
0
  6
BYBLOCK
 62
0
  0
BLOCK
  8
0
 62
2
  6
CONTINUOUS
  2
AMMEAAL_LOGO_BL0
 70
64
 10
240.8592468615
 20
19.762288695
  0
TEXT
  8
0
 62
7
  6
CONTINUOUS
 10
227.1239507038
 20
19.1357028027
  7
TEXTSTYLE_3
 40
2.7338706658
  1
Ammeraal Beltech
 41
1.0
 51
15.0
 72
0
  0
TEXT
  8
0
 62
7
  6
CONTINUOUS
 10
237.9247515296
 20
16.8621661299
  7
TEXTSTYLE_4
 40
1.0935482663
  1
Innovation & Service in Belting
 41
1.0
 72
0
  0
LINE
  8
0
 62
7
  6
CONTINUOUS
 10
221.0994100525
 20
19.9022961113
 11
221.8775620458
 21
23.5632134089
  0
LINE
  8
0
 62
7
  6
CONTINUOUS
 10
231.9727303357
 20
27.2266073205
 11
222.3653797889
 21
24.1049898993
  0
LINE
  8
0
 62
7
  6
CONTINUOUS
 10
221.3246933848
 20
19.2089453082
 11
228.8317686459
 21
12.4495443822
  0
LINE
  8
0
 62
7
  6
CONTINUOUS
 10
221.5872277955
 20
20.4440726016
 11
232.3954971607
 21
23.9558922005
  0
LINE
  8
0
 62
7
  6
CONTINUOUS
 10
232.3912920235
 20
13.6061036368
 11
223.9458323548
 21
21.2104296785
  0
LINE
  8
0
 62
7
  6
CONTINUOUS
 10
232.9111147433
 20
26.3816822048
 11
231.9345552061
 21
21.7873308023
  0
LINE
  8
0
 62
7
  6
CONTINUOUS
 10
231.2347532584
 20
18.4950214885
 11
230.5483050469
 21
15.2655365641
  0
LINE
  8
0
 62
7
  6
CONTINUOUS
 10
233.5922108419
 20
13.9963058145
 11
234.5484423775
 21
18.4950214885
  0
LINE
  8
0
 62
7
  6
CONTINUOUS
 10
235.2482443252
 20
21.7873308023
 11
235.6924861276
 21
23.8773241617
  0
LINE
  8
0
 62
7
  6
CONTINUOUS
 10
229.5448697213
 20
12.2979700695
 11
233.1043930989
 21
13.4545293241
  0
LINE
  8
0
 62
7
  6
CONTINUOUS
 10
232.685831411
 20
27.0750330078
 11
235.4672027953
 21
24.5706749648
  0
ARC
  8
0
 62
7
  6
CONTINUOUS
 10
222.5906631212
 20
23.4116390962
 40
0.7290321776
 50
108.0
 51
168.0
  0
ARC
  8
0
 62
7
  6
CONTINUOUS
 10
232.198013668
 20
26.5332565175
 40
0.7290321776
 50
348.0
 51
108.0
  0
ARC
  8
0
 62
7
  6
CONTINUOUS
 10
234.9793850522
 20
24.0288984744
 40
0.7290321776
 50
348.0
 51
48.0
  0
ARC
  8
0
 62
7
  6
CONTINUOUS
 10
229.319586389
 20
12.9913208726
 40
0.7290321776
 50
228.0
 51
288.0
  0
ARC
  8
0
 62
7
  6
CONTINUOUS
 10
221.8125111278
 20
19.7507217986
 40
0.7290321776
 50
108.0
 51
228.0
  0
ARC
  8
0
 62
7
  6
CONTINUOUS
 10
232.8791097665
 20
14.1478801272
 40
0.7290321776
 50
228.0
 51
348.0
  0
ENDBLK
  8
0
  6
BYBLOCK
 62
0
  0
BLOCK
  8
0
  2
_FILLED
 70
64
 10
0.0
 20
0.0
  0
SOLID
  8
0
  6
BYBLOCK
 62
0
 10
0.0
 20
0.0
 11
-1.0
 21
0.2142857143
 12
-1.0
 22
-0.2142857143
 13
-1.0
 23
-0.2142857143
  0
ENDBLK
  8
0
  6
BYBLOCK
 62
0
  0
ENDSEC
  0
SECTION
  2
ENTITIES
  0
TEXT
  8
0
 62
5
  6
CONTINUOUS
 10
304.937007874
 20
25.636
  7
TEXTSTYLE_2
 40
2.8
  1
Scale :
 41
0.6
 51
0.000019
 72
0
  0
TEXT
  8
0
 62
5
  6
CONTINUOUS
 10
324.937007874
 20
25.636
  7
TEXTSTYLE_2
 40
2.8
  1
Belt type:
 41
0.6
 51
0.000019
 72
0
  0
INSERT
  8
0
 62
2
  6
CONTINUOUS
  2
AMMEAAL_LOGO_BL0
 10
240.8592468615
 20
19.762288695
  0
INSERT
  8
0
 62
2
  6
CONTINUOUS
  2
UNI_LOGO2_BL1
 10
382.7840918555
 20
35.5067593403
  0
LINE
  8
0
 62
2
  6
CONTINUOUS
 10
218.937007874
 20
30.0
 11
408.937007874
 21
30.0
  0
LINE
  8
0
 62
2
  6
CONTINUOUS
 10
218.937007874
 20
30.0
 11
218.937007874
 21
10.0
  0
LINE
  8
0
 62
2
  6
CONTINUOUS
 10
218.937007874
 20
10.0
 11
408.937007874
 21
10.0
  0
LINE
  8
0
 62
2
  6
CONTINUOUS
 10
303.937007874
 20
30.0
 11
303.937007874
 21
10.0
  0
LINE
  8
0
 62
2
  6
CONTINUOUS
 10
323.937007874
 20
30.0
 11
323.937007874
 21
10.0
  0
LINE
  8
0
 62
2
  6
CONTINUOUS
 10
408.937007874
 20
30.0
 11
408.937007874
 21
10.0
  0
TEXT
  8
0
 62
5
  6
CONTINUOUS
 10
221.937007874
 20
23.303
  7
TEXTSTYLE_5
 40
1.52
  1
                                                                     Ammeraal Beltech Modular A/S
 41
1.0
 72
0
  0
TEXT
  8
0
 62
5
  6
CONTINUOUS
 10
221.937007874
 20
20.595
  7
TEXTSTYLE_5
 40
1.5
  1
                                                                      Hjulmagervej 21, 7100 Vejle,  DK
 41
1.0
 72
0
  0
TEXT
  8
0
 62
5
  6
CONTINUOUS
 10
221.937007874
 20
17.881
  7
TEXTSTYLE_5
 40
1.495
  1
                                                                      tel: 
 41
1.0
 72
0
  0
TEXT
  8
0
 62
5
  6
CONTINUOUS
 10
266.9239544389
 20
17.881
  7
TEXTSTYLE_5
 40
1.51
  1
+45 75723100     fax: +45 75723348
 41
1.0
 72
0
  0
TEXT
  8
0
 62
5
  6
CONTINUOUS
 10
221.937007874
 20
15.177
  7
TEXTSTYLE_5
 40
1.5
  1
                                                                      admin@unichains.dk  www.unichains.com
 41
1.0
 72
0
  0
TEXT
  8
0
 62
5
  6
CONTINUOUS
 10
308.687007874
 20
13.75
  7
TEXTSTYLE_6
 40
5.0
  1
1:1
 41
0.7
 72
1
 11
313.937007874
 21
13.75
  0
TEXT
  8
0
 62
5
  6
CONTINUOUS
 10
326.937007874
 20
13.75
  7
TEXTSTYLE_7
 40
7.5
  1
Z10 Bore 60SQ
 41
0.6897435897
 72
0
  0
LINE
  8
0
 62
7
  6
CONTINUOUS
 10
0.0
 20
0.0
 11
0.0
 21
297.0
  0
LINE
  8
0
 62
7
  6
CONTINUOUS
 10
8.937007874
 20
10.0
 11
8.937007874
 21
287.0
  0
LINE
  8
0
 62
7
  6
CONTINUOUS
 10
0.0
 20
0.0
 11
420.0
 21
0.0
  0
LINE
  8
0
 62
7
  6
CONTINUOUS
 10
408.937007874
 20
10.0
 11
8.937007874
 21
10.0
  0
LINE
  8
0
 62
7
  6
CONTINUOUS
 10
218.937007874
 20
30.0
 11
408.937007874
 21
30.0
  0
LINE
  8
0
 62
7
  6
CONTINUOUS
 10
210.0
 20
297.0
 11
210.0
 21
292.0
  0
LINE
  8
0
 62
7
  6
CONTINUOUS
 10
210.0
 20
0.0
 11
210.0
 21
5.0
  0
LINE
  8
0
 62
7
  6
CONTINUOUS
 10
8.937007874
 20
287.0
 11
408.937007874
 21
287.0
  0
LINE
  8
0
 62
7
  6
CONTINUOUS
 10
0.0
 20
297.0
 11
420.0
 21
297.0
  0
LINE
  8
0
 62
7
  6
CONTINUOUS
 10
408.937007874
 20
287.0
 11
408.937007874
 21
10.0
  0
LINE
  8
0
 62
7
  6
CONTINUOUS
 10
420.0
 20
0.0
 11
420.0
 21
297.0
  0
LINE
  8
0
 62
7
  6
CONTINUOUS
 10
34.8455629957
 20
218.223724586
 11
34.8159466221
 21
217.8066530904
  0
LINE
  8
0
 62
7
  6
CONTINUOUS
 10
34.8159466221
 20
217.8066530904
 11
35.437619651
 21
219.0534219481
  0
LINE
  8
0
 62
7
  6
CONTINUOUS
 10
79.6134609671
 20
264.0037918853
 11
80.8492373601
 21
264.6470388411
  0
LINE
  8
0
 62
7
  6
CONTINUOUS
 10
113.1943623367
 20
68.7904132441
 11
113.6001728631
 21
68.891128579
  0
LINE
  8
0
 62
7
  6
CONTINUOUS
 10
113.6001728631
 20
68.891128579
 11
112.2223176858
 21
69.0971019992
  0
LINE
  8
0
 62
7
  6
CONTINUOUS
 10
55.4333831387
 20
97.3774445567
 11
55.8208897396
 21
97.2203955316
  0
LINE
  8
0
 62
7
  6
CONTINUOUS
 10
55.8208897396
 20
97.2203955316
 11
54.8272496241
 21
98.1969144819
  0
LINE
  8
0
 62
7
  6
CONTINUOUS
 10
25.5068047682
 20
154.4558904379
 11
25.7279930929
 21
154.1010644425
  0
LINE
  8
0
 62
7
  6
CONTINUOUS
 10
25.7279930929
 20
154.1010644425
 11
25.4981047907
 21
155.4751318745
  0
LINE
  8
0
 62
7
  6
CONTINUOUS
 10
79.8825695909
 20
264.3238017455
 11
79.6134609671
 21
264.0037918853
  0
LINE
  8
0
 62
7
  6
CONTINUOUS
 10
51.144324196
 20
192.3120638777
 11
43.1087795662
 21
167.5812004583
  0
LINE
  8
0
 62
7
  6
CONTINUOUS
 10
77.8380523625
 20
233.7806564158
 11
56.8007234036
 21
218.4961422515
  0
LINE
  8
0
 62
7
  6
CONTINUOUS
 10
132.8012219032
 20
92.2985998026
 11
158.8047905614
 21
92.2985998026
  0
LINE
  8
0
 62
7
  6
CONTINUOUS
 10
85.1134311015
 20
104.8713440925
 11
106.1507600605
 21
89.5868299282
  0
LINE
  8
0
 62
7
  6
CONTINUOUS
 10
53.9232715933
 20
143.0730880366
 11
61.9588162231
 21
118.3422246172
  0
LINE
  8
0
 62
7
  6
CONTINUOUS
 10
136.7720196502
 20
232.782157423
 11
136.3683012872
 21
232.5752170072
  0
LINE
  8
0
 62
7
  6
CONTINUOUS
 10
140.7852578572
 20
235.2085628689
 11
140.3665528046
 21
235.0339242047
  0
LINE
  8
0
 62
7
  6
CONTINUOUS
 10
140.2638012851
 20
234.5337307078
 11
140.6825063376
 21
234.708369372
  0
LINE
  8
0
 62
7
  6
CONTINUOUS
 10
136.3050973402
 20
232.0685053041
 11
136.5689760404
 21
232.1642396088
  0
LINE
  8
0
 62
7
  6
CONTINUOUS
 10
136.5689760404
 20
232.1642396088
 11
136.9884952186
 21
232.4978580196
  0
LINE
  8
0
 62
7
  6
CONTINUOUS
 10
140.3665528046
 20
235.0339242047
 11
140.0702904994
 21
234.8341329177
  0
LINE
  8
0
 62
7
  6
CONTINUOUS
 10
139.9675389798
 20
234.3339394208
 11
140.2638012851
 21
234.5337307078
  0
LINE
  8
0
 62
7
  6
CONTINUOUS
 10
137.0675001513
 20
233.1312476402
 11
136.7720196502
 21
232.782157423
  0
LINE
  8
0
 62
7
  6
CONTINUOUS
 10
122.0503566758
 20
208.1409092703
 11
92.1328175759
 21
178.2233701704
  0
LINE
  8
0
 62
7
  6
CONTINUOUS
 10
167.1511709873
 20
222.4748735766
 11
167.7544804867
 21
222.6682490069
  0
LINE
  8
0
 62
7
  6
CONTINUOUS
 10
165.5778509804
 20
220.3042454309
 11
166.181160506
 21
220.4976208975
  0
LINE
  8
0
 62
7
  6
CONTINUOUS
 10
92.1328175759
 20
165.7145023991
 11
122.0503566758
 21
135.7969632993
  0
LINE
  8
0
 62
7
  6
CONTINUOUS
 10
152.5157467922
 20
229.6461950322
 11
154.9360916027
 21
232.3458331141
  0
LINE
  8
0
 62
7
  6
CONTINUOUS
 10
151.1195921872
 20
228.0295938437
 11
152.1953005315
 21
229.2294331291
  0
LINE
  8
0
 62
7
  6
CONTINUOUS
 10
154.684695649
 20
233.0148256453
 11
150.4333804829
 21
228.3322710592
  0
LINE
  8
0
 62
7
  6
CONTINUOUS
 10
163.1363248148
 20
228.6481197993
 11
158.8344412334
 21
224.9390401
  0
LINE
  8
0
 62
7
  6
CONTINUOUS
 10
158.9489045178
 20
224.1363425848
 11
162.8237510248
 21
227.3548221025
  0
LINE
  8
0
 62
7
  6
CONTINUOUS
 10
167.5481096869
 20
223.448498894
 11
167.2221414122
 21
223.2117672429
  0
LINE
  8
0
 62
7
  6
CONTINUOUS
 10
167.7544804867
 20
222.6682490069
 11
168.0804487614
 21
222.904980658
  0
LINE
  8
0
 62
7
  6
CONTINUOUS
 10
165.9747897587
 20
221.277870857
 11
165.648821484
 21
221.0411392059
  0
LINE
  8
0
 62
7
  6
CONTINUOUS
 10
166.181160506
 20
220.4976208975
 11
166.5071288332
 21
220.734352621
  0
LINE
  8
0
 62
7
  6
CONTINUOUS
 10
184.9298413445
 20
201.7252559598
 11
185.6720299331
 21
201.9521299977
  0
LINE
  8
DEFAULT_1
 62
2
  6
CENTER
 10
128.3047905614
 20
171.9689362848
 11
128.3047905614
 21
66.0302188951
  0
LINE
  8
DEFAULT_1
 62
2
  6
CENTER
 10
128.3047905614
 20
171.9689362848
 11
128.3047905614
 21
277.9076536744
  0
LINE
  8
0
 62
7
  6
CONTINUOUS
 10
132.0129694022
 20
261.7667020192
 11
131.358864368
 21
252.4125642273
  0
LINE
  8
0
 62
7
  6
CONTINUOUS
 10
134.3141519945
 20
236.3049567181
 11
133.9981322857
 21
233.7713984133
  0
LINE
  8
0
 62
7
  6
CONTINUOUS
 10
134.6183262614
 20
233.6940394201
 11
134.9343459702
 21
236.2275977249
  0
LINE
  8
0
 62
7
  6
CONTINUOUS
 10
137.4151218289
 20
235.9181617577
 11
137.0675001513
 21
233.1312476402
  0
LINE
  8
0
 62
7
  6
CONTINUOUS
 10
139.5865137103
 20
235.5851384064
 11
138.7645014818
 21
231.5835900811
  0
LINE
  8
0
 62
7
  6
CONTINUOUS
 10
139.3767176704
 20
231.4578264635
 11
139.9675389798
 21
234.3339394208
  0
LINE
  8
0
 62
7
  6
CONTINUOUS
 10
140.0702904994
 20
234.8341329177
 11
140.1987298988
 21
235.4593747888
  0
LINE
  8
0
 62
7
  6
CONTINUOUS
 10
142.0687653186
 20
233.3809969869
 11
141.5806955287
 21
231.0050775264
  0
LINE
  8
0
 62
7
  6
CONTINUOUS
 10
144.0178423131
 20
271.130365947
 11
144.6205081815
 21
273.9656859375
  0
LINE
  8
0
 62
7
  6
CONTINUOUS
 10
144.662320356
 20
236.4265105115
 11
144.5024093473
 21
235.8085683249
  0
LINE
  8
0
 62
7
  6
CONTINUOUS
 10
144.1825872403
 20
234.5726836055
 11
143.1591566949
 21
230.617853265
  0
LINE
  8
0
 62
7
  6
CONTINUOUS
 10
143.7642249273
 20
230.4612737767
 11
144.7876554726
 21
234.4161041172
  0
LINE
  8
0
 62
7
  6
CONTINUOUS
 10
145.1074775797
 20
235.6519888366
 11
145.2673885884
 21
236.2699310232
  0
LINE
  8
0
 62
7
  6
CONTINUOUS
 10
158.9126354496
 20
231.0824696507
 11
155.9165116764
 21
225.8840812144
  0
LINE
  8
0
 62
7
  6
CONTINUOUS
 10
156.5663102309
 20
225.5095657427
 11
158.9249609369
 21
229.6019142181
  0
LINE
  8
0
 62
7
  6
CONTINUOUS
 10
165.4594861487
 20
227.169717508
 11
161.9382461245
 21
222.3116449796
  0
LINE
  8
0
 62
7
  6
CONTINUOUS
 10
162.9950251925
 20
222.4916694467
 11
164.1188252237
 21
224.0421181583
  0
LINE
  8
0
 62
7
  6
CONTINUOUS
 10
164.5683451732
 20
224.6622975561
 11
165.6172252653
 21
226.1093831072
  0
LINE
  8
0
 62
7
  6
CONTINUOUS
 10
184.0865726493
 20
242.4372419853
 11
178.0591663185
 21
235.2540588366
  0
LINE
  8
0
 62
7
  6
CONTINUOUS
 10
199.3025424137
 20
242.9563179799
 11
201.4566686191
 21
244.8959019272
  0
LINE
  8
0
 62
7
  6
CONTINUOUS
 10
179.7658852398
 20
214.1620131682
 11
179.2574312819
 21
213.7761392907
  0
LINE
  8
0
 62
7
  6
CONTINUOUS
 10
175.7999438693
 20
211.1521965453
 11
174.9864174653
 21
210.5347982872
  0
LINE
  8
0
 62
7
  6
CONTINUOUS
 10
184.7148620723
 20
205.4751123373
 11
183.8308946357
 21
204.9636361034
  0
LINE
  8
0
 62
7
  6
CONTINUOUS
 10
184.979981454
 20
204.7620143942
 11
180.6706410905
 21
202.2685682688
  0
LINE
  8
0
 62
7
  6
CONTINUOUS
 10
181.0462563631
 20
201.6194048324
 11
186.2395638535
 21
204.6243270127
  0
LINE
  8
0
 62
7
  6
CONTINUOUS
 10
184.7677315259
 20
202.3422181104
 11
183.7374252958
 21
201.83376646
  0
LINE
  8
0
 62
7
  6
CONTINUOUS
 10
184.1284920545
 20
201.329793565
 11
184.9298413445
 21
201.7252559598
  0
LINE
  8
0
 62
7
  6
CONTINUOUS
 10
185.5667513453
 20
198.4153620618
 11
184.8245625964
 21
198.1884879448
  0
LINE
  8
0
 62
7
  6
CONTINUOUS
 10
41.756150031
 20
147.7465882661
 11
50.854593304
 21
150.0150849563
  0
LINE
  8
0
 62
7
  6
CONTINUOUS
 10
29.1410666912
 20
156.2703695919
 11
26.2582831433
 21
155.9673768317
  0
LINE
  8
DEFAULT_1
 62
2
  6
CENTER
 10
128.3047905614
 20
171.9689362848
 11
22.3660731718
 21
171.9689362848
  0
LINE
  8
DEFAULT_1
 62
2
  6
CENTER
 10
128.3047905614
 20
171.9689362848
 11
234.2435079511
 21
171.9689362848
  0
LINE
  8
0
 62
7
  6
CONTINUOUS
 10
44.047930591
 20
203.2446596037
 11
52.7421147206
 21
199.7319812031
  0
LINE
  8
0
 62
7
  6
CONTINUOUS
 10
38.8522667408
 20
217.5555034962
 11
36.3419511834
 21
219.0048348591
  0
LINE
  8
0
 62
7
  6
CONTINUOUS
 10
78.5229678743
 20
246.7964676563
 11
83.4920100275
 21
238.8443379223
  0
LINE
  8
0
 62
7
  6
CONTINUOUS
 10
82.7312905103
 20
261.4281181562
 11
81.5522981639
 21
264.0761783225
  0
LINE
  8
0
 62
7
  6
CONTINUOUS
 10
124.5966117206
 20
82.1711705504
 11
125.2507167549
 21
91.5253083423
  0
LINE
  8
0
 62
7
  6
CONTINUOUS
 10
137.6244903118
 20
232.5471769162
 11
138.0353159377
 21
235.8408027479
  0
LINE
  8
0
 62
7
  6
CONTINUOUS
 10
142.1929113669
 20
230.8793139808
 11
142.6809811568
 21
233.2552334412
  0
LINE
  8
0
 62
7
  6
CONTINUOUS
 10
112.5917388098
 20
72.8075066225
 11
111.9890729414
 21
69.9721866321
  0
LINE
  8
0
 62
7
  6
CONTINUOUS
 10
162.8237510248
 20
227.3548221025
 11
160.4651003188
 21
223.2624736271
  0
LINE
  8
0
 62
7
  6
CONTINUOUS
 10
161.1148988734
 20
222.8879581555
 11
164.1110226466
 21
228.0863465918
  0
LINE
  8
0
 62
7
  6
CONTINUOUS
 10
167.6979496701
 20
223.6552253599
 11
167.5481096869
 21
223.448498894
  0
LINE
  8
0
 62
7
  6
CONTINUOUS
 10
166.1995497335
 20
221.5879605559
 11
165.9747897587
 21
221.277870857
  0
LINE
  8
0
 62
7
  6
CONTINUOUS
 10
166.5071288332
 20
220.734352621
 11
166.8817287911
 21
221.2511687858
  0
LINE
  8
0
 62
7
  6
CONTINUOUS
 10
168.0804487614
 20
222.904980658
 11
168.3801289376
 21
223.3184338794
  0
LINE
  8
0
 62
7
  6
CONTINUOUS
 10
72.5230084736
 20
101.5006305842
 11
78.5504148044
 21
108.683813733
  0
LINE
  8
0
 62
7
  6
CONTINUOUS
 10
57.3070387091
 20
100.9815545896
 11
55.1529125037
 21
99.0419706424
  0
LINE
  8
0
 62
7
  6
CONTINUOUS
 10
183.7374252958
 20
201.83376646
 11
183.2203504748
 21
201.439199673
  0
LINE
  8
0
 62
7
  6
CONTINUOUS
 10
178.0090971094
 20
206.5519077155
 11
178.6192419301
 21
207.0149564225
  0
LINE
  8
0
 62
7
  6
CONTINUOUS
 10
182.0767293427
 20
209.6388991679
 11
182.7885648838
 21
210.1791225964
  0
LINE
  8
0
 62
7
  6
CONTINUOUS
 10
183.4969388426
 20
200.8787319899
 11
184.1284920545
 21
201.329793565
  0
LINE
  8
0
 62
7
  6
CONTINUOUS
 10
186.3681006354
 20
198.8108244565
 11
185.5667513453
 21
198.4153620618
  0
LINE
  8
0
 62
7
  6
CONTINUOUS
 10
185.7288610848
 20
197.7984000715
 11
186.7591673149
 21
198.3068517219
  0
LINE
  8
0
 62
7
  6
CONTINUOUS
 10
185.1011511225
 20
197.6280199409
 11
185.7288610848
 21
197.7984000715
  0
LINE
  8
0
 62
7
  6
CONTINUOUS
 10
214.8534310919
 20
196.1912843035
 11
205.7549878189
 21
193.9227876132
  0
LINE
  8
0
 62
7
  6
CONTINUOUS
 10
227.4685144316
 20
187.6675029776
 11
230.3512979796
 21
187.9704957379
  0
LINE
  8
0
 62
7
  6
CONTINUOUS
 10
212.5616505319
 20
140.6932129658
 11
203.8674664023
 21
144.2058913664
  0
LINE
  8
0
 62
7
  6
CONTINUOUS
 10
217.7573143821
 20
126.3823690733
 11
220.2676299395
 21
124.9330377105
  0
LINE
  8
0
 62
7
  6
CONTINUOUS
 10
178.0866132486
 20
97.1414049133
 11
173.1175710954
 21
105.0935346472
  0
LINE
  8
0
 62
7
  6
CONTINUOUS
 10
173.8782906125
 20
82.5097544134
 11
175.057282959
 21
79.8616942471
  0
LINE
  8
0
 62
7
  6
CONTINUOUS
 10
142.0747612701
 20
234.0313916247
 11
142.0687653186
 21
233.3809969869
  0
LINE
  8
0
 62
7
  6
CONTINUOUS
 10
142.6809811568
 20
233.2552334412
 11
142.686977809
 21
233.9056279351
  0
LINE
  8
0
 62
7
  6
CONTINUOUS
 10
154.4826733157
 20
228.220508885
 11
154.321913038
 21
226.6171003638
  0
LINE
  8
0
 62
7
  6
CONTINUOUS
 10
154.9360916027
 20
232.3458331141
 11
154.5743819053
 21
228.7381633857
  0
LINE
  8
0
 62
7
  6
CONTINUOUS
 10
158.9249609369
 20
229.6019142181
 11
158.0825072713
 21
224.6356960707
  0
LINE
  8
0
 62
7
  6
CONTINUOUS
 10
158.8344412334
 20
224.9390401
 11
159.887332042
 21
230.5206971576
  0
LINE
  8
0
 62
7
  6
CONTINUOUS
 10
183.2203504748
 20
201.439199673
 11
182.9322327542
 21
201.1576222209
  0
LINE
  8
0
 62
7
  6
CONTINUOUS
 10
186.7591673149
 20
198.3068517219
 11
187.2762422129
 21
198.7014179487
  0
LINE
  8
0
 62
7
  6
CONTINUOUS
 10
186.9996536869
 20
199.2618859525
 11
186.3681006354
 21
198.8108244565
  0
LINE
  8
0
 62
7
  6
CONTINUOUS
 10
185.3954415653
 20
202.5125976808
 11
184.7677315259
 21
202.3422181104
  0
LINE
  8
0
 62
7
  6
CONTINUOUS
 10
184.7023979439
 20
197.5706297865
 11
185.1011511225
 21
197.6280199409
  0
LINE
  8
0
 62
7
  6
CONTINUOUS
 10
134.6949621213
 20
233.2985339002
 11
134.6183262614
 21
233.6940394201
  0
LINE
  8
0
 62
7
  6
CONTINUOUS
 10
133.9981322857
 20
233.7713984133
 11
134.0589671391
 21
233.2492148996
  0
LINE
  8
0
 62
7
  6
CONTINUOUS
 10
137.6853250459
 20
232.0249934399
 11
137.6244903118
 21
232.5471769162
  0
LINE
  8
0
 62
7
  6
CONTINUOUS
 10
155.0081247424
 20
226.3144231483
 11
155.5996450244
 21
232.6112558321
  0
LINE
  8
0
 62
7
  6
CONTINUOUS
 10
166.3231015132
 20
221.9714084473
 11
166.1995497335
 21
221.5879605559
  0
LINE
  8
0
 62
7
  6
CONTINUOUS
 10
166.8817287911
 20
221.2511687858
 11
167.0052805708
 21
221.6346166773
  0
LINE
  8
0
 62
7
  6
CONTINUOUS
 10
167.8215015547
 20
224.0386733962
 11
167.6979496701
 21
223.6552253599
  0
LINE
  8
0
 62
7
  6
CONTINUOUS
 10
168.3801289376
 20
223.3184338794
 11
168.5036806124
 21
223.7018816261
  0
LINE
  8
0
 62
7
  6
CONTINUOUS
 10
182.9322327542
 20
201.1576222209
 11
182.5849540936
 21
200.707456693
  0
LINE
  8
0
 62
7
  6
CONTINUOUS
 10
134.5592244471
 20
135.7969632993
 11
164.476763547
 21
165.7145023991
  0
LINE
  8
0
 62
7
  6
CONTINUOUS
 10
187.2762422129
 20
198.7014179487
 11
187.5643601752
 21
198.9829957195
  0
LINE
  8
0
 62
7
  6
CONTINUOUS
 10
185.7941949854
 20
202.5699881538
 11
185.3954415653
 21
202.5125976808
  0
LINE
  8
0
 62
7
  6
CONTINUOUS
 10
184.1338487632
 20
197.5688380523
 11
184.7023979439
 21
197.5706297865
  0
LINE
  8
0
 62
7
  6
CONTINUOUS
 10
186.362744165
 20
202.5717796881
 11
185.7941949854
 21
202.5699881538
  0
LINE
  8
0
 62
7
  6
CONTINUOUS
 10
164.476763547
 20
178.2233701704
 11
134.5592244471
 21
208.1409092703
  0
LINE
  8
0
 62
7
  6
CONTINUOUS
 10
134.0589671391
 20
233.2492148996
 11
134.1514039722
 21
232.9803872874
  0
LINE
  8
0
 62
7
  6
CONTINUOUS
 10
137.7777621092
 20
231.7561657765
 11
137.6853250459
 21
232.0249934399
  0
LINE
  8
0
 62
7
  6
CONTINUOUS
 10
136.9884952186
 20
232.4978580196
 11
137.1575680004
 21
231.8335247863
  0
LINE
  8
0
 62
7
  6
CONTINUOUS
 10
142.686977809
 20
233.9056279351
 11
142.6415980008
 21
234.3059258244
  0
LINE
  8
0
 62
7
  6
CONTINUOUS
 10
167.0052805708
 20
221.6346166773
 11
167.0013310041
 21
222.2681471106
  0
LINE
  8
0
 62
7
  6
CONTINUOUS
 10
183.0313385416
 20
200.0913902293
 11
183.4969388426
 21
200.8787319899
  0
LINE
  8
0
 62
7
  6
CONTINUOUS
 10
187.4652542284
 20
200.0492278318
 11
186.9996536869
 21
199.2618859525
  0
LINE
  8
0
 62
7
  6
CONTINUOUS
 10
187.5643601752
 20
198.9829957195
 11
187.9116388347
 21
199.4331610475
  0
LINE
  8
0
 62
7
  6
CONTINUOUS
 10
184.8245625964
 20
198.1884879448
 11
183.916421097
 21
198.2978940923
  0
LINE
  8
0
 62
7
  6
CONTINUOUS
 10
185.6720299331
 20
201.9521299977
 11
186.5801716731
 21
201.8427239688
  0
LINE
  8
0
 62
7
  6
CONTINUOUS
 10
134.895636783
 20
232.8875564906
 11
134.6949621213
 21
233.2985339002
  0
LINE
  8
0
 62
7
  6
CONTINUOUS
 10
168.5036806124
 20
223.7018816261
 11
168.4997310457
 21
224.3354120595
  0
LINE
  8
0
 62
7
  6
CONTINUOUS
 10
182.5849540936
 20
200.707456693
 11
182.4074716325
 21
200.201692244
  0
LINE
  8
0
 62
7
  6
CONTINUOUS
 10
187.9116388347
 20
199.4331610475
 11
188.0891212557
 21
199.9389254767
  0
LINE
  8
0
 62
7
  6
CONTINUOUS
 10
165.648821484
 20
221.0411392059
 11
165.2965602153
 21
220.9811321213
  0
LINE
  8
0
 62
7
  6
CONTINUOUS
 10
167.2221414122
 20
223.2117672429
 11
166.869880196
 21
223.1517602307
  0
LINE
  8
0
 62
7
  6
CONTINUOUS
 10
164.9482508364
 20
220.2875929333
 11
165.5778509804
 21
220.3042454309
  0
LINE
  8
0
 62
7
  6
CONTINUOUS
 10
176.0499624166
 20
210.4004158015
 11
182.0767293427
 21
209.6388991679
  0
LINE
  8
0
 62
7
  6
CONTINUOUS
 10
181.9022748894
 20
210.2911114648
 11
175.7999438693
 21
211.1521965453
  0
LINE
  8
0
 62
7
  6
CONTINUOUS
 10
183.8308946357
 20
204.9636361034
 11
184.979981454
 21
204.7620143942
  0
LINE
  8
0
 62
7
  6
CONTINUOUS
 10
185.863948581
 20
205.273490449
 11
184.7148620723
 21
205.4751123373
  0
LINE
  8
0
 62
7
  6
CONTINUOUS
 10
183.6244603241
 20
197.7356346948
 11
184.1338487632
 21
197.5688380523
  0
LINE
  8
0
 62
7
  6
CONTINUOUS
 10
186.8721325641
 20
202.4049830258
 11
186.362744165
 21
202.5717796881
  0
LINE
  8
0
 62
7
  6
CONTINUOUS
 10
183.916421097
 20
198.2978940923
 11
183.5215111679
 21
198.5211853824
  0
LINE
  8
0
 62
7
  6
CONTINUOUS
 10
134.4761173858
 20
232.5539381297
 11
134.8166318516
 21
232.2541668812
  0
LINE
  8
0
 62
7
  6
CONTINUOUS
 10
134.1514039722
 20
232.9803872874
 11
134.4761173858
 21
232.5539381297
  0
LINE
  8
0
 62
7
  6
CONTINUOUS
 10
141.8812508348
 20
234.3317937626
 11
142.0747612701
 21
234.0313916247
  0
LINE
  8
0
 62
7
  6
CONTINUOUS
 10
142.6415980008
 20
234.3059258244
 11
142.4480875654
 21
234.6063279624
  0
LINE
  8
0
 62
7
  6
CONTINUOUS
 10
166.2705202633
 20
222.324854367
 11
166.3231015132
 21
221.9714084473
  0
LINE
  8
0
 62
7
  6
CONTINUOUS
 10
167.7689203049
 20
224.3921193158
 11
167.8215015547
 21
224.0386733962
  0
LINE
  8
0
 62
7
  6
CONTINUOUS
 10
182.4074716325
 20
200.201692244
 11
182.3406245602
 21
199.4717406626
  0
LINE
  8
0
 62
7
  6
CONTINUOUS
 10
188.0891212557
 20
199.9389254767
 11
188.1559682979
 21
200.6688770432
  0
LINE
  8
0
 62
7
  6
CONTINUOUS
 10
182.9683345906
 20
199.642120428
 11
183.0313385416
 21
200.0913902293
  0
LINE
  8
0
 62
7
  6
CONTINUOUS
 10
187.5282581794
 20
200.4984976332
 11
187.4652542284
 21
200.0492278318
  0
LINE
  8
0
 62
7
  6
CONTINUOUS
 10
135.7931412803
 20
232.003714568
 11
136.3050973402
 21
232.0685053041
  0
LINE
  8
0
 62
7
  6
CONTINUOUS
 10
136.3683012872
 20
232.5752170072
 11
135.8563452232
 21
232.5104262378
  0
LINE
  8
0
 62
7
  6
CONTINUOUS
 10
166.8738297627
 20
222.5182297973
 11
167.1511709873
 21
222.4748735766
  0
LINE
  8
0
 62
7
  6
CONTINUOUS
 10
165.2965602153
 20
220.9811321213
 11
164.9180106907
 21
221.0978463898
  0
LINE
  8
0
 62
7
  6
CONTINUOUS
 10
166.869880196
 20
223.1517602307
 11
166.4913306714
 21
223.2684744992
  0
LINE
  8
0
 62
7
  6
CONTINUOUS
 10
134.8166318516
 20
232.2541668812
 11
135.2969860288
 21
232.0656017714
  0
LINE
  8
0
 62
7
  6
CONTINUOUS
 10
164.3672823887
 20
220.5510249674
 11
164.9482508364
 21
220.2875929333
  0
LINE
  8
0
 62
7
  6
CONTINUOUS
 10
186.5801716731
 20
201.8427239688
 11
186.9750816021
 21
201.6194326787
  0
LINE
  8
0
 62
7
  6
CONTINUOUS
 10
183.0044365163
 20
198.1266184796
 11
183.6244603241
 21
197.7356346948
  0
LINE
  8
0
 62
7
  6
CONTINUOUS
 10
187.4921563419
 20
202.0139992262
 11
186.8721325641
 21
202.4049830258
  0
LINE
  8
0
 62
7
  6
CONTINUOUS
 10
135.3601899717
 20
232.5723134412
 11
134.895636783
 21
232.8875564906
  0
LINE
  8
0
 62
7
  6
CONTINUOUS
 10
141.6620525195
 20
234.5071475263
 11
141.8812508348
 21
234.3317937626
  0
LINE
  8
0
 62
7
  6
CONTINUOUS
 10
142.4480875654
 20
234.6063279624
 11
142.1321336821
 21
234.931882867
  0
LINE
  8
0
 62
7
  6
CONTINUOUS
 10
183.5215111679
 20
198.5211853824
 11
183.1304444884
 21
199.025158117
  0
LINE
  8
0
 62
7
  6
CONTINUOUS
 10
182.5580520582
 20
198.7426849383
 11
183.0044365163
 21
198.1266184796
  0
LINE
  8
0
 62
7
  6
CONTINUOUS
 10
166.0418107219
 20
222.6482951014
 11
166.2705202633
 21
222.324854367
  0
LINE
  8
0
 62
7
  6
CONTINUOUS
 10
167.0013310041
 20
222.2681471106
 11
166.8738297627
 21
222.5182297973
  0
LINE
  8
0
 62
7
  6
CONTINUOUS
 10
168.4997310457
 20
224.3354120595
 11
168.3196508709
 21
224.9389389867
  0
LINE
  8
0
 62
7
  6
CONTINUOUS
 10
182.3406245602
 20
199.4717406626
 11
182.5580520582
 21
198.7426849383
  0
LINE
  8
0
 62
7
  6
CONTINUOUS
 10
183.1304444884
 20
199.025158117
 11
182.9683345906
 21
199.642120428
  0
LINE
  8
0
 62
7
  6
CONTINUOUS
 10
140.6825063376
 20
234.708369372
 11
141.1979673084
 21
234.7328068234
  0
LINE
  8
0
 62
7
  6
CONTINUOUS
 10
141.300718828
 20
235.2330003202
 11
140.7852578572
 21
235.2085628689
  0
LINE
  8
0
 62
7
  6
CONTINUOUS
 10
135.2969860288
 20
232.0656017714
 11
135.7931412803
 21
232.003714568
  0
LINE
  8
0
 62
7
  6
CONTINUOUS
 10
137.1575680004
 20
231.8335247863
 11
137.7777621092
 21
231.7561657765
  0
LINE
  8
0
 62
7
  6
CONTINUOUS
 10
135.8563452232
 20
232.5104262378
 11
135.3601899717
 21
232.5723134412
  0
LINE
  8
0
 62
7
  6
CONTINUOUS
 10
138.0353159377
 20
235.8408027479
 11
137.4151218289
 21
235.9181617577
  0
LINE
  8
0
 62
7
  6
CONTINUOUS
 10
134.9343459702
 20
236.2275977249
 11
134.3141519945
 21
236.3049567181
  0
LINE
  8
0
 62
7
  6
CONTINUOUS
 10
138.7645014818
 20
231.5835900811
 11
139.3767176704
 21
231.4578264635
  0
LINE
  8
0
 62
7
  6
CONTINUOUS
 10
141.5806955287
 20
231.0050775264
 11
142.1929113669
 21
230.8793139808
  0
LINE
  8
0
 62
7
  6
CONTINUOUS
 10
141.790491919
 20
235.1323893974
 11
141.300718828
 21
235.2330003202
  0
LINE
  8
0
 62
7
  6
CONTINUOUS
 10
140.1987298988
 20
235.4593747888
 11
139.5865137103
 21
235.5851384064
  0
LINE
  8
0
 62
7
  6
CONTINUOUS
 10
143.1591566949
 20
230.617853265
 11
143.7642249273
 21
230.4612737767
  0
LINE
  8
0
 62
7
  6
CONTINUOUS
 10
144.7876554726
 20
234.4161041172
 11
144.1825872403
 21
234.5726836055
  0
LINE
  8
0
 62
7
  6
CONTINUOUS
 10
144.5024093473
 20
235.8085683249
 11
145.1074775797
 21
235.6519888366
  0
LINE
  8
0
 62
7
  6
CONTINUOUS
 10
145.2673885884
 20
236.2699310232
 11
144.662320356
 21
236.4265105115
  0
LINE
  8
0
 62
7
  6
CONTINUOUS
 10
150.4333804829
 20
228.3322710592
 11
151.1195921872
 21
228.0295938437
  0
LINE
  8
0
 62
7
  6
CONTINUOUS
 10
154.321913038
 20
226.6171003638
 11
155.0081247424
 21
226.3144231483
  0
LINE
  8
0
 62
7
  6
CONTINUOUS
 10
152.1953005315
 20
229.2294331291
 11
154.4826733157
 21
228.220508885
  0
LINE
  8
0
 62
7
  6
CONTINUOUS
 10
154.5743819053
 20
228.7381633857
 11
152.5157467922
 21
229.6461950322
  0
LINE
  8
0
 62
7
  6
CONTINUOUS
 10
155.5996450244
 20
232.6112558321
 11
154.684695649
 21
233.0148256453
  0
LINE
  8
0
 62
7
  6
CONTINUOUS
 10
141.1979673084
 20
234.7328068234
 11
141.6620525195
 21
234.5071475263
  0
LINE
  8
0
 62
7
  6
CONTINUOUS
 10
155.9165116764
 20
225.8840812144
 11
156.5663102309
 21
225.5095657427
  0
LINE
  8
0
 62
7
  6
CONTINUOUS
 10
158.0825072713
 20
224.6356960707
 11
158.9489045178
 21
224.1363425848
  0
LINE
  8
0
 62
7
  6
CONTINUOUS
 10
160.4651003188
 20
223.2624736271
 11
161.1148988734
 21
222.8879581555
  0
LINE
  8
0
 62
7
  6
CONTINUOUS
 10
164.1110226466
 20
228.0863465918
 11
163.1363248148
 21
228.6481197993
  0
LINE
  8
0
 62
7
  6
CONTINUOUS
 10
159.887332042
 20
230.5206971576
 11
158.9126354496
 21
231.0824696507
  0
LINE
  8
0
 62
7
  6
CONTINUOUS
 10
142.1321336821
 20
234.931882867
 11
141.790491919
 21
235.1323893974
  0
LINE
  8
0
 62
7
  6
CONTINUOUS
 10
161.9382461245
 20
222.3116449796
 11
164.3672823887
 21
220.5510249674
  0
LINE
  8
0
 62
7
  6
CONTINUOUS
 10
164.9180106907
 20
221.0978463898
 11
162.9950251925
 21
222.4916694467
  0
LINE
  8
0
 62
7
  6
CONTINUOUS
 10
164.1188252237
 20
224.0421181583
 11
166.0418107219
 21
222.6482951014
  0
LINE
  8
0
 62
7
  6
CONTINUOUS
 10
166.4913306714
 20
223.2684744992
 11
164.5683451732
 21
224.6622975561
  0
LINE
  8
0
 62
7
  6
CONTINUOUS
 10
165.6172252653
 20
226.1093831072
 11
167.5402107634
 21
224.7155600503
  0
LINE
  8
0
 62
7
  6
CONTINUOUS
 10
167.8885224129
 20
225.4090974959
 11
165.4594861487
 21
227.169717508
  0
LINE
  8
0
 62
7
  6
CONTINUOUS
 10
168.3196508709
 20
224.9389389867
 11
167.8885224129
 21
225.4090974959
  0
LINE
  8
0
 62
7
  6
CONTINUOUS
 10
186.9750816021
 20
201.6194326787
 11
187.3661484399
 21
201.1154596234
  0
LINE
  8
0
 62
7
  6
CONTINUOUS
 10
174.9864174653
 20
210.5347982872
 11
178.0090971094
 21
206.5519077155
  0
LINE
  8
0
 62
7
  6
CONTINUOUS
 10
178.6192419301
 20
207.0149564225
 11
176.0499624166
 21
210.4004158015
  0
LINE
  8
0
 62
7
  6
CONTINUOUS
 10
179.2574312819
 20
213.7761392907
 11
181.9022748894
 21
210.2911114648
  0
LINE
  8
0
 62
7
  6
CONTINUOUS
 10
182.7885648838
 20
210.1791225964
 11
179.7658852398
 21
214.1620131682
  0
LINE
  8
0
 62
7
  6
CONTINUOUS
 10
187.9385407899
 20
201.3979327625
 11
187.4921563419
 21
202.0139992262
  0
LINE
  8
0
 62
7
  6
CONTINUOUS
 10
167.5402107634
 20
224.7155600503
 11
167.7689203049
 21
224.3921193158
  0
LINE
  8
0
 62
7
  6
CONTINUOUS
 10
180.6706410905
 20
202.2685682688
 11
181.0462563631
 21
201.6194048324
  0
LINE
  8
0
 62
7
  6
CONTINUOUS
 10
186.2395638535
 20
204.6243270127
 11
185.863948581
 21
205.273490449
  0
LINE
  8
0
 62
7
  6
CONTINUOUS
 10
188.1559682979
 20
200.6688770432
 11
187.9385407899
 21
201.3979327625
  0
LINE
  8
0
 62
7
  6
CONTINUOUS
 10
187.3661484399
 20
201.1154596234
 11
187.5282581794
 21
200.4984976332
  0
LINE
  8
0
 62
7
  6
CONTINUOUS
 10
123.8083592197
 20
251.6392727669
 11
97.8047905614
 21
251.6392727669
  0
LINE
  8
0
 62
7
  6
CONTINUOUS
 10
171.4961500213
 20
239.066528477
 11
150.4588210624
 21
254.3510426413
  0
LINE
  8
0
 62
7
  6
CONTINUOUS
 10
205.4652569269
 20
151.6258086918
 11
213.5008015567
 21
176.3566721112
  0
LINE
  8
0
 62
7
  6
CONTINUOUS
 10
178.7715287603
 20
110.1572161537
 11
199.8088577193
 21
125.441730318
  0
LINE
  8
0
 62
7
  6
CONTINUOUS
 10
202.6863095296
 20
200.864784533
 11
194.6507648998
 21
225.5956479523
  0
LINE
  8
0
 62
7
  6
CONTINUOUS
 10
221.7640181272
 20
125.7141479835
 11
221.7936345008
 21
126.1312194791
  0
LINE
  8
0
 62
7
  6
CONTINUOUS
 10
176.7270115319
 20
79.6140708241
 11
176.9961201557
 21
79.9340806842
  0
LINE
  8
0
 62
7
  6
CONTINUOUS
 10
143.4152187862
 20
275.1474593254
 11
143.0094082598
 21
275.0467439905
  0
LINE
  8
0
 62
7
  6
CONTINUOUS
 10
201.1761979842
 20
246.5604280128
 11
200.7886913833
 21
246.7174770379
  0
LINE
  8
0
 62
7
  6
CONTINUOUS
 10
231.1027763547
 20
189.4819821317
 11
230.88158803
 21
189.8368081271
  0
LINE
  8
0
 62
7
  6
CONTINUOUS
 10
221.7936345008
 20
126.1312194791
 11
221.1719614718
 21
124.8844506215
  0
LINE
  8
0
 62
7
  6
CONTINUOUS
 10
176.9961201557
 20
79.9340806842
 11
175.7603437628
 21
79.2908337285
  0
LINE
  8
0
 62
7
  6
CONTINUOUS
 10
143.0094082598
 20
275.0467439905
 11
144.3872634371
 21
274.8407705704
  0
LINE
  8
0
 62
7
  6
CONTINUOUS
 10
200.7886913833
 20
246.7174770379
 11
201.7823314988
 21
245.7409580876
  0
LINE
  8
0
 62
7
  6
CONTINUOUS
 10
230.88158803
 20
189.8368081271
 11
231.1114763321
 21
188.462740695
  0
LINE
  8
0
 62
7
  6
CONTINUOUS
 10
292.0733433735
 20
68.7642749413
 11
301.0733433735
 21
68.7642749413
  0
LINE
  8
0
 62
7
  6
CONTINUOUS
 10
317.4733433735
 20
68.7642749413
 11
326.4733433735
 21
68.7642749413
  0
LINE
  8
0
 62
7
  6
CONTINUOUS
 10
292.0733433735
 20
69.0971019992
 11
292.5099528026
 21
69.0971019992
  0
LINE
  8
0
 62
7
  6
CONTINUOUS
 10
300.6367339444
 20
69.0971019992
 11
301.0733433735
 21
69.0971019992
  0
LINE
  8
0
 62
7
  6
CONTINUOUS
 10
317.4733433735
 20
69.0971019992
 11
317.9099528026
 21
69.0971019992
  0
LINE
  8
0
 62
7
  6
CONTINUOUS
 10
326.0367339444
 20
69.0971019992
 11
326.4733433735
 21
69.0971019992
  0
LINE
  8
0
 62
9
  6
CONTINUOUS
 10
326.0728812388
 20
69.9721866321
 11
317.8738055082
 21
69.9721866321
  0
LINE
  8
0
 62
9
  6
CONTINUOUS
 10
300.6728812388
 20
69.9721866321
 11
292.4738055082
 21
69.9721866321
  0
LINE
  8
0
 62
9
  6
CONTINUOUS
 10
326.1992714766
 20
72.8075066225
 11
317.7474152704
 21
72.8075066225
  0
LINE
  8
0
 62
9
  6
CONTINUOUS
 10
300.7992714766
 20
72.8075066225
 11
292.3474152704
 21
72.8075066225
  0
LINE
  8
0
 62
9
  6
CONTINUOUS
 10
326.4733433735
 20
89.5868299282
 11
317.4733433735
 21
89.5868299282
  0
LINE
  8
0
 62
9
  6
CONTINUOUS
 10
301.0733433735
 20
89.5868299282
 11
292.0733433735
 21
89.5868299282
  0
LINE
  8
0
 62
7
  6
CONTINUOUS
 10
292.3829162575
 20
96.2138872076
 11
300.7637704895
 21
96.2138872076
  0
LINE
  8
0
 62
7
  6
CONTINUOUS
 10
317.7829162575
 20
96.2138872076
 11
326.1637704895
 21
96.2138872076
  0
LINE
  8
0
 62
7
  6
CONTINUOUS
 10
292.0733433735
 20
97.2203955316
 11
292.5099528026
 21
97.2203955316
  0
LINE
  8
0
 62
7
  6
CONTINUOUS
 10
300.6367339444
 20
97.2203955316
 11
301.0733433735
 21
97.2203955316
  0
LINE
  8
0
 62
7
  6
CONTINUOUS
 10
317.4733433735
 20
97.2203955316
 11
317.9099528026
 21
97.2203955316
  0
LINE
  8
0
 62
7
  6
CONTINUOUS
 10
326.0367339444
 20
97.2203955316
 11
326.4733433735
 21
97.2203955316
  0
LINE
  8
0
 62
9
  6
CONTINUOUS
 10
326.4733433735
 20
97.3774445567
 11
317.4733433735
 21
97.3774445567
  0
LINE
  8
0
 62
9
  6
CONTINUOUS
 10
301.0733433735
 20
97.3774445567
 11
292.0733433735
 21
97.3774445567
  0
LINE
  8
0
 62
7
  6
CONTINUOUS
 10
317.4733433735
 20
97.4689362848
 11
301.0733433735
 21
97.4689362848
  0
LINE
  8
0
 62
7
  6
CONTINUOUS
 10
286.2733433735
 20
97.4689362848
 11
292.0733433735
 21
97.4689362848
  0
LINE
  8
0
 62
7
  6
CONTINUOUS
 10
326.4733433735
 20
97.4689362848
 11
332.2733433735
 21
97.4689362848
  0
LINE
  8
0
 62
7
  6
CONTINUOUS
 10
292.0733433735
 20
98.1969144819
 11
292.5099528026
 21
98.1969144819
  0
LINE
  8
0
 62
7
  6
CONTINUOUS
 10
300.6367339444
 20
98.1969144819
 11
301.0733433735
 21
98.1969144819
  0
LINE
  8
0
 62
7
  6
CONTINUOUS
 10
317.4733433735
 20
98.1969144819
 11
317.9099528026
 21
98.1969144819
  0
LINE
  8
0
 62
7
  6
CONTINUOUS
 10
326.0367339444
 20
98.1969144819
 11
326.4733433735
 21
98.1969144819
  0
LINE
  8
0
 62
9
  6
CONTINUOUS
 10
326.0728812388
 20
99.0419706424
 11
317.8738055082
 21
99.0419706424
  0
LINE
  8
0
 62
9
  6
CONTINUOUS
 10
300.6728812388
 20
99.0419706424
 11
292.4738055082
 21
99.0419706424
  0
LINE
  8
0
 62
9
  6
CONTINUOUS
 10
326.1992714766
 20
100.9815545896
 11
317.7474152704
 21
100.9815545896
  0
LINE
  8
0
 62
9
  6
CONTINUOUS
 10
300.7992714766
 20
100.9815545896
 11
292.3474152704
 21
100.9815545896
  0
POLYLINE
  8
0
 62
7
  6
CONTINUOUS
 66
1
 70
0
  0
VERTEX
  8
0
 62
7
  6
CONTINUOUS
 10
292.3829163817
 20
96.2138872076
  0
VERTEX
  8
0
 62
7
  6
CONTINUOUS
 10
292.366895644
 20
96.2238608995
  0
VERTEX
  8
0
 62
7
  6
CONTINUOUS
 10
292.3028023185
 20
96.4338415677
  0
VERTEX
  8
0
 62
7
  6
CONTINUOUS
 10
292.2318289297
 20
96.9127701832
  0
VERTEX
  8
0
 62
7
  6
CONTINUOUS
 10
292.1998397418
 20
97.2203955316
  0
SEQEND
  0
POLYLINE
  8
0
 62
7
  6
CONTINUOUS
 66
1
 70
0
  0
VERTEX
  8
0
 62
7
  6
CONTINUOUS
 10
317.7829163817
 20
96.2138872076
  0
VERTEX
  8
0
 62
7
  6
CONTINUOUS
 10
317.766895644
 20
96.2238608995
  0
VERTEX
  8
0
 62
7
  6
CONTINUOUS
 10
317.7028023185
 20
96.4338415677
  0
VERTEX
  8
0
 62
7
  6
CONTINUOUS
 10
317.6318289297
 20
96.9127701832
  0
VERTEX
  8
0
 62
7
  6
CONTINUOUS
 10
317.5998397418
 20
97.2203955316
  0
SEQEND
  0
LINE
  8
0
 62
9
  6
CONTINUOUS
 10
326.4733433735
 20
118.3422246172
 11
317.4733433735
 21
118.3422246172
  0
LINE
  8
0
 62
9
  6
CONTINUOUS
 10
301.0733433735
 20
118.3422246172
 11
292.0733433735
 21
118.3422246172
  0
LINE
  8
0
 62
9
  6
CONTINUOUS
 10
292.0733433735
 20
143.0730880366
 11
301.0733433735
 21
143.0730880366
  0
LINE
  8
0
 62
9
  6
CONTINUOUS
 10
317.4733433735
 20
143.0730880366
 11
326.4733433735
 21
143.0730880366
  0
LINE
  8
0
 62
9
  6
CONTINUOUS
 10
292.0733433735
 20
144.8989322427
 11
301.0733433735
 21
144.8989322427
  0
LINE
  8
0
 62
9
  6
CONTINUOUS
 10
317.4733433735
 20
144.8989322427
 11
326.4733433735
 21
144.8989322427
  0
LINE
  8
0
 62
7
  6
CONTINUOUS
 10
292.1095943958
 20
98.1999159406
 11
292.0733433735
 21
98.6377485956
  0
POLYLINE
  8
0
 62
7
  6
CONTINUOUS
 66
1
 70
0
  0
VERTEX
  8
0
 62
7
  6
CONTINUOUS
 10
292.3474152704
 20
100.9815545896
  0
VERTEX
  8
0
 62
7
  6
CONTINUOUS
 10
292.254567577
 20
102.5035070013
  0
VERTEX
  8
0
 62
7
  6
CONTINUOUS
 10
292.1626621368
 20
104.203854407
  0
VERTEX
  8
0
 62
7
  6
CONTINUOUS
 10
292.0733433735
 20
106.0542532099
  0
SEQEND
  0
POLYLINE
  8
0
 62
7
  6
CONTINUOUS
 66
1
 70
0
  0
VERTEX
  8
0
 62
7
  6
CONTINUOUS
 10
292.3474152704
 20
100.9815545896
  0
VERTEX
  8
0
 62
7
  6
CONTINUOUS
 10
292.4796635649
 20
98.9456918999
  0
VERTEX
  8
0
 62
7
  6
CONTINUOUS
 10
292.4910791242
 20
98.7201419002
  0
VERTEX
  8
0
 62
7
  6
CONTINUOUS
 10
292.4964319947
 20
98.5949422804
  0
VERTEX
  8
0
 62
7
  6
CONTINUOUS
 10
292.505953087
 20
98.3309470158
  0
VERTEX
  8
0
 62
7
  6
CONTINUOUS
 10
292.5099528026
 20
98.1969144819
  0
SEQEND
  0
POLYLINE
  8
0
 62
7
  6
CONTINUOUS
 66
1
 70
0
  0
VERTEX
  8
0
 62
7
  6
CONTINUOUS
 10
292.4975484436
 20
69.096352241
  0
VERTEX
  8
0
 62
7
  6
CONTINUOUS
 10
292.4711344308
 20
69.5333583312
  0
VERTEX
  8
0
 62
7
  6
CONTINUOUS
 10
292.4232492295
 20
70.427608781
  0
VERTEX
  8
0
 62
7
  6
CONTINUOUS
 10
292.366895644
 20
71.5574987426
  0
VERTEX
  8
0
 62
7
  6
CONTINUOUS
 10
292.3028023185
 20
72.9022701721
  0
VERTEX
  8
0
 62
7
  6
CONTINUOUS
 10
292.2318289297
 20
74.4371910183
  0
VERTEX
  8
0
 62
7
  6
CONTINUOUS
 10
292.1549663982
 20
76.1340540218
  0
VERTEX
  8
0
 62
7
  6
CONTINUOUS
 10
292.0733433735
 20
77.9615879086
  0
SEQEND
  0
POLYLINE
  8
0
 62
7
  6
CONTINUOUS
 66
1
 70
0
  0
VERTEX
  8
0
 62
7
  6
CONTINUOUS
 10
292.4738055082
 20
69.9721866321
  0
VERTEX
  8
0
 62
7
  6
CONTINUOUS
 10
292.254567577
 20
74.9119279652
  0
VERTEX
  8
0
 62
7
  6
CONTINUOUS
 10
292.1626621368
 20
77.0383445292
  0
VERTEX
  8
0
 62
7
  6
CONTINUOUS
 10
292.0733433735
 20
79.1513344317
  0
SEQEND
  0
LINE
  8
0
 62
7
  6
CONTINUOUS
 10
292.4738055082
 20
69.9721866321
 11
292.4964319947
 21
69.4424140265
  0
LINE
  8
0
 62
7
  6
CONTINUOUS
 10
292.4964319947
 20
69.4424140265
 11
292.5099528026
 21
69.0971019992
  0
LINE
  8
0
 62
7
  6
CONTINUOUS
 10
284.2733433735
 20
244.4689362848
 11
284.2733433735
 21
99.4689362848
  0
LINE
  8
0
 62
9
  6
CONTINUOUS
 10
286.2733433735
 20
246.4689362848
 11
286.2733433735
 21
97.4689362848
  0
LINE
  8
0
 62
7
  6
CONTINUOUS
 10
292.3474152704
 20
261.4281181562
 11
292.470350463
 21
264.0037918853
  0
POLYLINE
  8
0
 62
7
  6
CONTINUOUS
 66
1
 70
0
  0
VERTEX
  8
0
 62
7
  6
CONTINUOUS
 10
292.3474152704
 20
261.4281181562
  0
VERTEX
  8
0
 62
7
  6
CONTINUOUS
 10
292.254567577
 20
259.5450453087
  0
VERTEX
  8
0
 62
7
  6
CONTINUOUS
 10
292.1626621368
 20
257.8047784396
  0
VERTEX
  8
0
 62
7
  6
CONTINUOUS
 10
292.0733433735
 20
256.2362877624
  0
SEQEND
  0
POLYLINE
  8
0
 62
7
  6
CONTINUOUS
 66
1
 70
0
  0
VERTEX
  8
0
 62
7
  6
CONTINUOUS
 10
292.5099528026
 20
275.0467439905
  0
VERTEX
  8
0
 62
7
  6
CONTINUOUS
 10
292.4711344308
 20
274.4045142383
  0
VERTEX
  8
0
 62
7
  6
CONTINUOUS
 10
292.4232492295
 20
273.5102637886
  0
VERTEX
  8
0
 62
7
  6
CONTINUOUS
 10
292.366895644
 20
272.380373827
  0
VERTEX
  8
0
 62
7
  6
CONTINUOUS
 10
292.3028023185
 20
271.0356023975
  0
VERTEX
  8
0
 62
7
  6
CONTINUOUS
 10
292.2318289297
 20
269.5006815512
  0
VERTEX
  8
0
 62
7
  6
CONTINUOUS
 10
292.1549663982
 20
267.8038185478
  0
VERTEX
  8
0
 62
7
  6
CONTINUOUS
 10
292.0733433735
 20
265.976284661
  0
SEQEND
  0
LINE
  8
0
 62
7
  6
CONTINUOUS
 10
292.3474152704
 20
217.5555034962
 11
292.3693164377
 21
217.8066530904
  0
POLYLINE
  8
0
 62
7
  6
CONTINUOUS
 66
1
 70
0
  0
VERTEX
  8
0
 62
7
  6
CONTINUOUS
 10
292.3474152704
 20
217.5555034962
  0
VERTEX
  8
0
 62
7
  6
CONTINUOUS
 10
292.254567577
 20
216.6130489683
  0
VERTEX
  8
0
 62
7
  6
CONTINUOUS
 10
292.1626621368
 20
215.9236545887
  0
VERTEX
  8
0
 62
7
  6
CONTINUOUS
 10
292.0733433735
 20
215.4987732644
  0
SEQEND
  0
LINE
  8
0
 62
7
  6
CONTINUOUS
 10
292.47861774
 20
219.0534219481
 11
292.4796635649
 21
219.0639812036
  0
POLYLINE
  8
0
 62
7
  6
CONTINUOUS
 66
1
 70
0
  0
VERTEX
  8
0
 62
7
  6
CONTINUOUS
 10
292.4796635649
 20
219.0639812036
  0
VERTEX
  8
0
 62
7
  6
CONTINUOUS
 10
292.4910791242
 20
219.1315296258
  0
VERTEX
  8
0
 62
7
  6
CONTINUOUS
 10
292.4959085062
 20
219.1388094553
  0
SEQEND
  0
LINE
  8
0
 62
7
  6
CONTINUOUS
 10
292.0733433735
 20
147.306965015
 11
301.0733433735
 21
147.306965015
  0
LINE
  8
0
 62
7
  6
CONTINUOUS
 10
317.4733433735
 20
147.306965015
 11
326.4733433735
 21
147.306965015
  0
LINE
  8
0
 62
7
  6
CONTINUOUS
 10
292.3474152704
 20
156.2703695919
 11
292.4738055082
 21
155.9673768317
  0
POLYLINE
  8
0
 62
7
  6
CONTINUOUS
 66
1
 70
0
  0
VERTEX
  8
0
 62
7
  6
CONTINUOUS
 10
292.3474152704
 20
156.2703695919
  0
VERTEX
  8
0
 62
7
  6
CONTINUOUS
 10
292.254567577
 20
156.6285189805
  0
VERTEX
  8
0
 62
7
  6
CONTINUOUS
 10
292.1626621368
 20
157.2533223117
  0
VERTEX
  8
0
 62
7
  6
CONTINUOUS
 10
292.0733433735
 20
158.134340565
  0
SEQEND
  0
POLYLINE
  8
0
 62
7
  6
CONTINUOUS
 66
1
 70
0
  0
VERTEX
  8
0
 62
7
  6
CONTINUOUS
 10
300.6367339444
 20
97.2203955316
  0
VERTEX
  8
0
 62
7
  6
CONTINUOUS
 10
300.6755523162
 20
96.6208584377
  0
VERTEX
  8
0
 62
7
  6
CONTINUOUS
 10
300.7234375175
 20
96.2866134919
  0
VERTEX
  8
0
 62
7
  6
CONTINUOUS
 10
300.7637703653
 20
96.2138872076
  0
SEQEND
  0
LINE
  8
0
 62
7
  6
CONTINUOUS
 10
292.0733433735
 20
275.1735819976
 11
292.0733433735
 21
274.8407705704
  0
LINE
  8
0
 62
7
  6
CONTINUOUS
 10
292.0733433735
 20
69.0971019992
 11
292.0733433735
 21
68.7642876792
  0
LINE
  8
0
 62
7
  6
CONTINUOUS
 10
292.0733433735
 20
77.9615879086
 11
292.0733433735
 21
265.976284661
  0
POLYLINE
  8
0
 62
7
  6
CONTINUOUS
 66
1
 70
0
  0
VERTEX
  8
0
 62
7
  6
CONTINUOUS
 10
292.5099528026
 20
217.8066530904
  0
VERTEX
  8
0
 62
7
  6
CONTINUOUS
 10
292.4711344308
 20
215.7974321273
  0
VERTEX
  8
0
 62
7
  6
CONTINUOUS
 10
292.4232492295
 20
213.8096848223
  0
VERTEX
  8
0
 62
7
  6
CONTINUOUS
 10
292.366895644
 20
211.8799486335
  0
VERTEX
  8
0
 62
7
  6
CONTINUOUS
 10
292.3028023185
 20
210.0438186116
  0
VERTEX
  8
0
 62
7
  6
CONTINUOUS
 10
292.2318289297
 20
208.3351872904
  0
VERTEX
  8
0
 62
7
  6
CONTINUOUS
 10
292.1549663982
 20
206.7855778713
  0
VERTEX
  8
0
 62
7
  6
CONTINUOUS
 10
292.0733433735
 20
205.4236670332
  0
SEQEND
  0
POLYLINE
  8
0
 62
7
  6
CONTINUOUS
 66
1
 70
0
  0
VERTEX
  8
0
 62
7
  6
CONTINUOUS
 10
292.5099528026
 20
264.0037918853
  0
VERTEX
  8
0
 62
7
  6
CONTINUOUS
 10
292.4711344308
 20
262.3651052237
  0
VERTEX
  8
0
 62
7
  6
CONTINUOUS
 10
292.4232492295
 20
260.5839326559
  0
VERTEX
  8
0
 62
7
  6
CONTINUOUS
 10
292.366895644
 20
258.692979702
  0
VERTEX
  8
0
 62
7
  6
CONTINUOUS
 10
292.3028023185
 20
256.7270744902
  0
VERTEX
  8
0
 62
7
  6
CONTINUOUS
 10
292.2318289297
 20
254.7224490064
  0
VERTEX
  8
0
 62
7
  6
CONTINUOUS
 10
292.1549663982
 20
252.7160187057
  0
VERTEX
  8
0
 62
7
  6
CONTINUOUS
 10
292.0733433735
 20
250.7448334605
  0
SEQEND
  0
POLYLINE
  8
0
 62
7
  6
CONTINUOUS
 66
1
 70
0
  0
VERTEX
  8
0
 62
7
  6
CONTINUOUS
 10
292.5099528026
 20
154.1010644425
  0
VERTEX
  8
0
 62
7
  6
CONTINUOUS
 10
292.4711344308
 20
152.4887632947
  0
VERTEX
  8
0
 62
7
  6
CONTINUOUS
 10
292.4232492295
 20
151.0536931622
  0
VERTEX
  8
0
 62
7
  6
CONTINUOUS
 10
292.366895644
 20
149.8222673732
  0
VERTEX
  8
0
 62
7
  6
CONTINUOUS
 10
292.3028023185
 20
148.8172518018
  0
VERTEX
  8
0
 62
7
  6
CONTINUOUS
 10
292.2318289297
 20
148.0572537336
  0
VERTEX
  8
0
 62
7
  6
CONTINUOUS
 10
292.1549663982
 20
147.5563633249
  0
VERTEX
  8
0
 62
7
  6
CONTINUOUS
 10
292.0733433735
 20
147.3239305445
  0
SEQEND
  0
LINE
  8
0
 62
7
  6
CONTINUOUS
 10
292.0733433735
 20
154.1010644425
 11
292.5099528026
 21
154.1010644425
  0
LINE
  8
0
 62
7
  6
CONTINUOUS
 10
300.6367339444
 20
154.1010644425
 11
301.0733433735
 21
154.1010644425
  0
LINE
  8
0
 62
7
  6
CONTINUOUS
 10
317.4733433735
 20
154.1010644425
 11
317.9099528026
 21
154.1010644425
  0
LINE
  8
0
 62
7
  6
CONTINUOUS
 10
326.0367339444
 20
154.1010644425
 11
326.4733433735
 21
154.1010644425
  0
LINE
  8
0
 62
9
  6
CONTINUOUS
 10
326.4733433735
 20
154.4558904379
 11
317.4733433735
 21
154.4558904379
  0
LINE
  8
0
 62
9
  6
CONTINUOUS
 10
301.0733433735
 20
154.4558904379
 11
292.0733433735
 21
154.4558904379
  0
LINE
  8
0
 62
7
  6
CONTINUOUS
 10
292.0733433735
 20
155.4751318745
 11
292.5099528026
 21
155.4751318745
  0
LINE
  8
0
 62
7
  6
CONTINUOUS
 10
300.6367339444
 20
155.4751318745
 11
301.0733433735
 21
155.4751318745
  0
LINE
  8
0
 62
7
  6
CONTINUOUS
 10
317.4733433735
 20
155.4751318745
 11
317.9099528026
 21
155.4751318745
  0
LINE
  8
0
 62
7
  6
CONTINUOUS
 10
326.0367339444
 20
155.4751318745
 11
326.4733433735
 21
155.4751318745
  0
LINE
  8
0
 62
9
  6
CONTINUOUS
 10
326.0728812388
 20
155.9673768317
 11
317.8738055082
 21
155.9673768317
  0
LINE
  8
0
 62
9
  6
CONTINUOUS
 10
300.6728812388
 20
155.9673768317
 11
292.4738055082
 21
155.9673768317
  0
LINE
  8
0
 62
9
  6
CONTINUOUS
 10
326.1992714766
 20
156.2703695919
 11
317.7474152704
 21
156.2703695919
  0
LINE
  8
0
 62
9
  6
CONTINUOUS
 10
300.7992714766
 20
156.2703695919
 11
292.3474152704
 21
156.2703695919
  0
POLYLINE
  8
0
 62
7
  6
CONTINUOUS
 66
1
 70
0
  0
VERTEX
  8
0
 62
7
  6
CONTINUOUS
 10
292.4738055082
 20
155.9673768317
  0
VERTEX
  8
0
 62
7
  6
CONTINUOUS
 10
292.4796635649
 20
155.9444277477
  0
VERTEX
  8
0
 62
7
  6
CONTINUOUS
 10
292.4910791242
 20
155.8467774025
  0
VERTEX
  8
0
 62
7
  6
CONTINUOUS
 10
292.4964319947
 20
155.7738423536
  0
VERTEX
  8
0
 62
7
  6
CONTINUOUS
 10
292.505953087
 20
155.5863234761
  0
VERTEX
  8
0
 62
7
  6
CONTINUOUS
 10
292.5099528026
 20
155.4751318745
  0
SEQEND
  0
POLYLINE
  8
0
 62
7
  6
CONTINUOUS
 66
1
 70
0
  0
VERTEX
  8
0
 62
7
  6
CONTINUOUS
 10
300.6367339444
 20
154.1010644425
  0
VERTEX
  8
0
 62
7
  6
CONTINUOUS
 10
300.6755523162
 20
152.4887632947
  0
VERTEX
  8
0
 62
7
  6
CONTINUOUS
 10
300.7234375175
 20
151.0536931622
  0
VERTEX
  8
0
 62
7
  6
CONTINUOUS
 10
300.7797911029
 20
149.8222673732
  0
VERTEX
  8
0
 62
7
  6
CONTINUOUS
 10
300.8438844285
 20
148.8172518018
  0
VERTEX
  8
0
 62
7
  6
CONTINUOUS
 10
300.9148578173
 20
148.0572537336
  0
VERTEX
  8
0
 62
7
  6
CONTINUOUS
 10
300.9917203487
 20
147.5563633249
  0
VERTEX
  8
0
 62
7
  6
CONTINUOUS
 10
301.0733433735
 20
147.3239305445
  0
SEQEND
  0
POLYLINE
  8
0
 62
7
  6
CONTINUOUS
 66
1
 70
0
  0
VERTEX
  8
0
 62
7
  6
CONTINUOUS
 10
300.6367339444
 20
264.0037918853
  0
VERTEX
  8
0
 62
7
  6
CONTINUOUS
 10
300.6755523162
 20
262.3651052237
  0
VERTEX
  8
0
 62
7
  6
CONTINUOUS
 10
300.7234375175
 20
260.5839326559
  0
VERTEX
  8
0
 62
7
  6
CONTINUOUS
 10
300.7797911029
 20
258.692979702
  0
VERTEX
  8
0
 62
7
  6
CONTINUOUS
 10
300.8438844285
 20
256.7270744902
  0
VERTEX
  8
0
 62
7
  6
CONTINUOUS
 10
300.9148578173
 20
254.7224490064
  0
VERTEX
  8
0
 62
7
  6
CONTINUOUS
 10
300.9917203487
 20
252.7160187057
  0
VERTEX
  8
0
 62
7
  6
CONTINUOUS
 10
301.0733433735
 20
250.7448334605
  0
SEQEND
  0
POLYLINE
  8
0
 62
7
  6
CONTINUOUS
 66
1
 70
0
  0
VERTEX
  8
0
 62
7
  6
CONTINUOUS
 10
300.6367339444
 20
217.8066530904
  0
VERTEX
  8
0
 62
7
  6
CONTINUOUS
 10
300.6755523162
 20
215.7974321273
  0
VERTEX
  8
0
 62
7
  6
CONTINUOUS
 10
300.7234375175
 20
213.8096848223
  0
VERTEX
  8
0
 62
7
  6
CONTINUOUS
 10
300.7797911029
 20
211.8799486335
  0
VERTEX
  8
0
 62
7
  6
CONTINUOUS
 10
300.8438844285
 20
210.0438186116
  0
VERTEX
  8
0
 62
7
  6
CONTINUOUS
 10
300.9148578173
 20
208.3351872904
  0
VERTEX
  8
0
 62
7
  6
CONTINUOUS
 10
300.9917203487
 20
206.7855778713
  0
VERTEX
  8
0
 62
7
  6
CONTINUOUS
 10
301.0733433735
 20
205.4236670332
  0
SEQEND
  0
LINE
  8
0
 62
7
  6
CONTINUOUS
 10
301.0733433735
 20
69.0971019992
 11
301.0733433735
 21
68.7642799341
  0
LINE
  8
0
 62
7
  6
CONTINUOUS
 10
301.0733433735
 20
77.9615879086
 11
301.0733433735
 21
265.976284661
  0
LINE
  8
0
 62
7
  6
CONTINUOUS
 10
301.0733433735
 20
274.8407705704
 11
301.0733433735
 21
275.1735926354
  0
POLYLINE
  8
0
 62
7
  6
CONTINUOUS
 66
1
 70
0
  0
VERTEX
  8
0
 62
7
  6
CONTINUOUS
 10
292.5099528026
 20
97.2203955316
  0
VERTEX
  8
0
 62
7
  6
CONTINUOUS
 10
292.4711344308
 20
96.6208584377
  0
VERTEX
  8
0
 62
7
  6
CONTINUOUS
 10
292.4232492295
 20
96.2866134919
  0
VERTEX
  8
0
 62
7
  6
CONTINUOUS
 10
292.3829163817
 20
96.2138872076
  0
SEQEND
  0
LINE
  8
0
 62
7
  6
CONTINUOUS
 10
300.668069007
 20
219.0534219481
 11
300.6670231821
 21
219.0639812036
  0
POLYLINE
  8
0
 62
7
  6
CONTINUOUS
 66
1
 70
0
  0
VERTEX
  8
0
 62
7
  6
CONTINUOUS
 10
300.7992714766
 20
217.5555034962
  0
VERTEX
  8
0
 62
7
  6
CONTINUOUS
 10
300.89211917
 20
216.6130489683
  0
VERTEX
  8
0
 62
7
  6
CONTINUOUS
 10
300.9840246102
 20
215.9236545887
  0
VERTEX
  8
0
 62
7
  6
CONTINUOUS
 10
301.0733433735
 20
215.4987732644
  0
SEQEND
  0
LINE
  8
0
 62
7
  6
CONTINUOUS
 10
300.7773703092
 20
217.8066530904
 11
300.7992714766
 21
217.5555034962
  0
POLYLINE
  8
0
 62
7
  6
CONTINUOUS
 66
1
 70
0
  0
VERTEX
  8
0
 62
7
  6
CONTINUOUS
 10
300.6367339444
 20
275.0467439905
  0
VERTEX
  8
0
 62
7
  6
CONTINUOUS
 10
300.6755523162
 20
274.4045142383
  0
VERTEX
  8
0
 62
7
  6
CONTINUOUS
 10
300.7234375175
 20
273.5102637886
  0
VERTEX
  8
0
 62
7
  6
CONTINUOUS
 10
300.7797911029
 20
272.380373827
  0
VERTEX
  8
0
 62
7
  6
CONTINUOUS
 10
300.8438844285
 20
271.0356023975
  0
VERTEX
  8
0
 62
7
  6
CONTINUOUS
 10
300.9148578173
 20
269.5006815512
  0
VERTEX
  8
0
 62
7
  6
CONTINUOUS
 10
300.9917203487
 20
267.8038185478
  0
VERTEX
  8
0
 62
7
  6
CONTINUOUS
 10
301.0733433735
 20
265.976284661
  0
SEQEND
  0
POLYLINE
  8
0
 62
7
  6
CONTINUOUS
 66
1
 70
0
  0
VERTEX
  8
0
 62
7
  6
CONTINUOUS
 10
300.7992714766
 20
261.4281181562
  0
VERTEX
  8
0
 62
7
  6
CONTINUOUS
 10
300.89211917
 20
259.5450453087
  0
VERTEX
  8
0
 62
7
  6
CONTINUOUS
 10
300.9840246102
 20
257.8047784396
  0
VERTEX
  8
0
 62
7
  6
CONTINUOUS
 10
301.0733433735
 20
256.2362877624
  0
SEQEND
  0
LINE
  8
0
 62
7
  6
CONTINUOUS
 10
300.676336284
 20
264.0037918853
 11
300.7992714766
 21
261.4281181562
  0
LINE
  8
OUTERLINE
 62
40
  6
CONTINUOUS
 10
309.2733433735
 20
274.0201699131
 11
309.2733433735
 21
276.3028762753
  0
LINE
  8
0
 62
7
  6
CONTINUOUS
 10
300.6556076228
 20
69.5720562179
 11
300.6367339444
 21
69.0971019992
  0
POLYLINE
  8
0
 62
7
  6
CONTINUOUS
 66
1
 70
0
  0
VERTEX
  8
0
 62
7
  6
CONTINUOUS
 10
300.89211917
 20
74.9119279652
  0
VERTEX
  8
0
 62
7
  6
CONTINUOUS
 10
300.9840246102
 20
77.0383445292
  0
VERTEX
  8
0
 62
7
  6
CONTINUOUS
 10
301.0733433735
 20
79.1513344317
  0
SEQEND
  0
LINE
  8
0
 62
7
  6
CONTINUOUS
 10
300.6556076228
 20
69.5720562179
 11
300.89211917
 21
74.9119279652
  0
POLYLINE
  8
0
 62
7
  6
CONTINUOUS
 66
1
 70
0
  0
VERTEX
  8
0
 62
7
  6
CONTINUOUS
 10
300.6670231821
 20
98.9456918999
  0
VERTEX
  8
0
 62
7
  6
CONTINUOUS
 10
300.6556076228
 20
98.7201419002
  0
VERTEX
  8
0
 62
7
  6
CONTINUOUS
 10
300.6502547522
 20
98.5949422804
  0
VERTEX
  8
0
 62
7
  6
CONTINUOUS
 10
300.64073366
 20
98.3309470158
  0
VERTEX
  8
0
 62
7
  6
CONTINUOUS
 10
300.6367339444
 20
98.1969144819
  0
SEQEND
  0
POLYLINE
  8
0
 62
7
  6
CONTINUOUS
 66
1
 70
0
  0
VERTEX
  8
0
 62
7
  6
CONTINUOUS
 10
300.6491383034
 20
69.096352241
  0
VERTEX
  8
0
 62
7
  6
CONTINUOUS
 10
300.6755523162
 20
69.5333583312
  0
VERTEX
  8
0
 62
7
  6
CONTINUOUS
 10
300.7234375175
 20
70.427608781
  0
VERTEX
  8
0
 62
7
  6
CONTINUOUS
 10
300.7797911029
 20
71.5574987426
  0
VERTEX
  8
0
 62
7
  6
CONTINUOUS
 10
300.8438844285
 20
72.9022701721
  0
VERTEX
  8
0
 62
7
  6
CONTINUOUS
 10
300.9148578173
 20
74.4371910183
  0
VERTEX
  8
0
 62
7
  6
CONTINUOUS
 10
300.9917203487
 20
76.1340540218
  0
VERTEX
  8
0
 62
7
  6
CONTINUOUS
 10
301.0733433735
 20
77.9615879086
  0
SEQEND
  0
POLYLINE
  8
0
 62
7
  6
CONTINUOUS
 66
1
 70
0
  0
VERTEX
  8
0
 62
7
  6
CONTINUOUS
 10
300.7992714766
 20
100.9815545896
  0
VERTEX
  8
0
 62
7
  6
CONTINUOUS
 10
300.89211917
 20
102.5035070013
  0
VERTEX
  8
0
 62
7
  6
CONTINUOUS
 10
300.9840246102
 20
104.203854407
  0
VERTEX
  8
0
 62
7
  6
CONTINUOUS
 10
301.0733433735
 20
106.0542532099
  0
SEQEND
  0
LINE
  8
0
 62
7
  6
CONTINUOUS
 10
300.6670231821
 20
98.9456918999
 11
300.7992714766
 21
100.9815545896
  0
LINE
  8
0
 62
7
  6
CONTINUOUS
 10
301.0370923512
 20
98.1999159406
 11
301.0733433735
 21
98.6377485956
  0
POLYLINE
  8
0
 62
7
  6
CONTINUOUS
 66
1
 70
0
  0
VERTEX
  8
0
 62
7
  6
CONTINUOUS
 10
317.8796635649
 20
219.0639812036
  0
VERTEX
  8
0
 62
7
  6
CONTINUOUS
 10
317.8910791242
 20
219.1315296258
  0
VERTEX
  8
0
 62
7
  6
CONTINUOUS
 10
317.8959085062
 20
219.1388094553
  0
SEQEND
  0
POLYLINE
  8
0
 62
7
  6
CONTINUOUS
 66
1
 70
0
  0
VERTEX
  8
0
 62
7
  6
CONTINUOUS
 10
300.6728812388
 20
155.9673768317
  0
VERTEX
  8
0
 62
7
  6
CONTINUOUS
 10
300.6670231821
 20
155.9444277477
  0
VERTEX
  8
0
 62
7
  6
CONTINUOUS
 10
300.6556076228
 20
155.8467774025
  0
VERTEX
  8
0
 62
7
  6
CONTINUOUS
 10
300.6502547522
 20
155.7738423536
  0
VERTEX
  8
0
 62
7
  6
CONTINUOUS
 10
300.64073366
 20
155.5863234761
  0
VERTEX
  8
0
 62
7
  6
CONTINUOUS
 10
300.6367339444
 20
155.4751318745
  0
SEQEND
  0
POLYLINE
  8
0
 62
7
  6
CONTINUOUS
 66
1
 70
0
  0
VERTEX
  8
0
 62
7
  6
CONTINUOUS
 10
300.7992714766
 20
156.2703695919
  0
VERTEX
  8
0
 62
7
  6
CONTINUOUS
 10
300.89211917
 20
156.6285189805
  0
VERTEX
  8
0
 62
7
  6
CONTINUOUS
 10
300.9840246102
 20
157.2533223117
  0
VERTEX
  8
0
 62
7
  6
CONTINUOUS
 10
301.0733433735
 20
158.134340565
  0
SEQEND
  0
LINE
  8
0
 62
7
  6
CONTINUOUS
 10
300.6728812388
 20
155.9673768317
 11
300.7992714766
 21
156.2703695919
  0
LINE
  8
0
 62
9
  6
CONTINUOUS
 10
326.4733433735
 20
167.5812004583
 11
317.4733433735
 21
167.5812004583
  0
LINE
  8
0
 62
9
  6
CONTINUOUS
 10
301.0733433735
 20
167.5812004583
 11
292.0733433735
 21
167.5812004583
  0
LINE
  8
DEFAULT_1
 62
2
  6
CENTER
 10
279.2733433735
 20
171.9689362848
 11
339.2733433735
 21
171.9689362848
  0
POLYLINE
  8
0
 62
7
  6
CONTINUOUS
 66
1
 70
0
  0
VERTEX
  8
0
 62
7
  6
CONTINUOUS
 10
300.6670231821
 20
219.0639812036
  0
VERTEX
  8
0
 62
7
  6
CONTINUOUS
 10
300.6556076228
 20
219.1315296258
  0
VERTEX
  8
0
 62
7
  6
CONTINUOUS
 10
300.6507782407
 20
219.1388094553
  0
SEQEND
  0
LINE
  8
0
 62
7
  6
CONTINUOUS
 10
317.5095943958
 20
98.1999159406
 11
317.4733433735
 21
98.6377485956
  0
POLYLINE
  8
0
 62
7
  6
CONTINUOUS
 66
1
 70
0
  0
VERTEX
  8
0
 62
7
  6
CONTINUOUS
 10
317.7474152704
 20
100.9815545896
  0
VERTEX
  8
0
 62
7
  6
CONTINUOUS
 10
317.654567577
 20
102.5035070013
  0
VERTEX
  8
0
 62
7
  6
CONTINUOUS
 10
317.5626621368
 20
104.203854407
  0
VERTEX
  8
0
 62
7
  6
CONTINUOUS
 10
317.4733433735
 20
106.0542532099
  0
SEQEND
  0
POLYLINE
  8
0
 62
7
  6
CONTINUOUS
 66
1
 70
0
  0
VERTEX
  8
0
 62
7
  6
CONTINUOUS
 10
317.7474152704
 20
100.9815545896
  0
VERTEX
  8
0
 62
7
  6
CONTINUOUS
 10
317.8796635649
 20
98.9456918999
  0
VERTEX
  8
0
 62
7
  6
CONTINUOUS
 10
317.8910791242
 20
98.7201419002
  0
VERTEX
  8
0
 62
7
  6
CONTINUOUS
 10
317.8964319947
 20
98.5949422804
  0
VERTEX
  8
0
 62
7
  6
CONTINUOUS
 10
317.905953087
 20
98.3309470158
  0
VERTEX
  8
0
 62
7
  6
CONTINUOUS
 10
317.9099528026
 20
98.1969144819
  0
SEQEND
  0
POLYLINE
  8
0
 62
7
  6
CONTINUOUS
 66
1
 70
0
  0
VERTEX
  8
0
 62
7
  6
CONTINUOUS
 10
317.8975484436
 20
69.096352241
  0
VERTEX
  8
0
 62
7
  6
CONTINUOUS
 10
317.8711344308
 20
69.5333583312
  0
VERTEX
  8
0
 62
7
  6
CONTINUOUS
 10
317.8232492295
 20
70.427608781
  0
VERTEX
  8
0
 62
7
  6
CONTINUOUS
 10
317.766895644
 20
71.5574987426
  0
VERTEX
  8
0
 62
7
  6
CONTINUOUS
 10
317.7028023185
 20
72.9022701721
  0
VERTEX
  8
0
 62
7
  6
CONTINUOUS
 10
317.6318289297
 20
74.4371910183
  0
VERTEX
  8
0
 62
7
  6
CONTINUOUS
 10
317.5549663982
 20
76.1340540218
  0
VERTEX
  8
0
 62
7
  6
CONTINUOUS
 10
317.4733433735
 20
77.9615879086
  0
SEQEND
  0
POLYLINE
  8
0
 62
7
  6
CONTINUOUS
 66
1
 70
0
  0
VERTEX
  8
0
 62
7
  6
CONTINUOUS
 10
317.8738055082
 20
69.9721866321
  0
VERTEX
  8
0
 62
7
  6
CONTINUOUS
 10
317.654567577
 20
74.9119279652
  0
VERTEX
  8
0
 62
7
  6
CONTINUOUS
 10
317.5626621368
 20
77.0383445292
  0
VERTEX
  8
0
 62
7
  6
CONTINUOUS
 10
317.4733433735
 20
79.1513344317
  0
SEQEND
  0
LINE
  8
0
 62
7
  6
CONTINUOUS
 10
317.8738055082
 20
69.9721866321
 11
317.8964319947
 21
69.4424140265
  0
LINE
  8
0
 62
7
  6
CONTINUOUS
 10
317.8964319947
 20
69.4424140265
 11
317.9099528026
 21
69.0971019992
  0
POLYLINE
  8
0
 62
7
  6
CONTINUOUS
 66
1
 70
0
  0
VERTEX
  8
0
 62
7
  6
CONTINUOUS
 10
317.9099528026
 20
217.8066530904
  0
VERTEX
  8
0
 62
7
  6
CONTINUOUS
 10
317.8711344308
 20
215.7974321273
  0
VERTEX
  8
0
 62
7
  6
CONTINUOUS
 10
317.8232492295
 20
213.8096848223
  0
VERTEX
  8
0
 62
7
  6
CONTINUOUS
 10
317.766895644
 20
211.8799486335
  0
VERTEX
  8
0
 62
7
  6
CONTINUOUS
 10
317.7028023185
 20
210.0438186116
  0
VERTEX
  8
0
 62
7
  6
CONTINUOUS
 10
317.6318289297
 20
208.3351872904
  0
VERTEX
  8
0
 62
7
  6
CONTINUOUS
 10
317.5549663982
 20
206.7855778713
  0
VERTEX
  8
0
 62
7
  6
CONTINUOUS
 10
317.4733433735
 20
205.4236670332
  0
SEQEND
  0
POLYLINE
  8
0
 62
7
  6
CONTINUOUS
 66
1
 70
0
  0
VERTEX
  8
0
 62
7
  6
CONTINUOUS
 10
317.9099528026
 20
264.0037918853
  0
VERTEX
  8
0
 62
7
  6
CONTINUOUS
 10
317.8711344308
 20
262.3651052237
  0
VERTEX
  8
0
 62
7
  6
CONTINUOUS
 10
317.8232492295
 20
260.5839326559
  0
VERTEX
  8
0
 62
7
  6
CONTINUOUS
 10
317.766895644
 20
258.692979702
  0
VERTEX
  8
0
 62
7
  6
CONTINUOUS
 10
317.7028023185
 20
256.7270744902
  0
VERTEX
  8
0
 62
7
  6
CONTINUOUS
 10
317.6318289297
 20
254.7224490064
  0
VERTEX
  8
0
 62
7
  6
CONTINUOUS
 10
317.5549663982
 20
252.7160187057
  0
VERTEX
  8
0
 62
7
  6
CONTINUOUS
 10
317.4733433735
 20
250.7448334605
  0
SEQEND
  0
LINE
  8
0
 62
7
  6
CONTINUOUS
 10
317.8703504629
 20
264.0037918853
 11
317.7474152704
 21
261.4281181562
  0
POLYLINE
  8
0
 62
7
  6
CONTINUOUS
 66
1
 70
0
  0
VERTEX
  8
0
 62
7
  6
CONTINUOUS
 10
317.7474152704
 20
261.4281181562
  0
VERTEX
  8
0
 62
7
  6
CONTINUOUS
 10
317.654567577
 20
259.5450453087
  0
VERTEX
  8
0
 62
7
  6
CONTINUOUS
 10
317.5626621368
 20
257.8047784396
  0
VERTEX
  8
0
 62
7
  6
CONTINUOUS
 10
317.4733433735
 20
256.2362877624
  0
SEQEND
  0
POLYLINE
  8
0
 62
7
  6
CONTINUOUS
 66
1
 70
0
  0
VERTEX
  8
0
 62
7
  6
CONTINUOUS
 10
317.9099528026
 20
275.0467439905
  0
VERTEX
  8
0
 62
7
  6
CONTINUOUS
 10
317.8711344308
 20
274.4045142383
  0
VERTEX
  8
0
 62
7
  6
CONTINUOUS
 10
317.8232492295
 20
273.5102637886
  0
VERTEX
  8
0
 62
7
  6
CONTINUOUS
 10
317.766895644
 20
272.380373827
  0
VERTEX
  8
0
 62
7
  6
CONTINUOUS
 10
317.7028023185
 20
271.0356023975
  0
VERTEX
  8
0
 62
7
  6
CONTINUOUS
 10
317.6318289297
 20
269.5006815512
  0
VERTEX
  8
0
 62
7
  6
CONTINUOUS
 10
317.5549663982
 20
267.8038185478
  0
VERTEX
  8
0
 62
7
  6
CONTINUOUS
 10
317.4733433735
 20
265.976284661
  0
SEQEND
  0
LINE
  8
0
 62
7
  6
CONTINUOUS
 10
317.7693164377
 20
217.8066530904
 11
317.7474152704
 21
217.5555034962
  0
POLYLINE
  8
0
 62
7
  6
CONTINUOUS
 66
1
 70
0
  0
VERTEX
  8
0
 62
7
  6
CONTINUOUS
 10
317.7474152704
 20
217.5555034962
  0
VERTEX
  8
0
 62
7
  6
CONTINUOUS
 10
317.654567577
 20
216.6130489683
  0
VERTEX
  8
0
 62
7
  6
CONTINUOUS
 10
317.5626621368
 20
215.9236545887
  0
VERTEX
  8
0
 62
7
  6
CONTINUOUS
 10
317.4733433735
 20
215.4987732644
  0
SEQEND
  0
LINE
  8
0
 62
7
  6
CONTINUOUS
 10
317.87861774
 20
219.0534219481
 11
317.8796635649
 21
219.0639812036
  0
LINE
  8
0
 62
7
  6
CONTINUOUS
 10
317.8738055082
 20
155.9673768317
 11
317.7474152704
 21
156.2703695919
  0
POLYLINE
  8
0
 62
7
  6
CONTINUOUS
 66
1
 70
0
  0
VERTEX
  8
0
 62
7
  6
CONTINUOUS
 10
317.7474152704
 20
156.2703695919
  0
VERTEX
  8
0
 62
7
  6
CONTINUOUS
 10
317.654567577
 20
156.6285189805
  0
VERTEX
  8
0
 62
7
  6
CONTINUOUS
 10
317.5626621368
 20
157.2533223117
  0
VERTEX
  8
0
 62
7
  6
CONTINUOUS
 10
317.4733433735
 20
158.134340565
  0
SEQEND
  0
POLYLINE
  8
0
 62
7
  6
CONTINUOUS
 66
1
 70
0
  0
VERTEX
  8
0
 62
7
  6
CONTINUOUS
 10
317.8738055082
 20
155.9673768317
  0
VERTEX
  8
0
 62
7
  6
CONTINUOUS
 10
317.8796635649
 20
155.9444277477
  0
VERTEX
  8
0
 62
7
  6
CONTINUOUS
 10
317.8910791242
 20
155.8467774025
  0
VERTEX
  8
0
 62
7
  6
CONTINUOUS
 10
317.8964319947
 20
155.7738423536
  0
VERTEX
  8
0
 62
7
  6
CONTINUOUS
 10
317.905953087
 20
155.5863234761
  0
VERTEX
  8
0
 62
7
  6
CONTINUOUS
 10
317.9099528026
 20
155.4751318745
  0
SEQEND
  0
POLYLINE
  8
0
 62
7
  6
CONTINUOUS
 66
1
 70
0
  0
VERTEX
  8
0
 62
7
  6
CONTINUOUS
 10
326.0367339444
 20
97.2203955316
  0
VERTEX
  8
0
 62
7
  6
CONTINUOUS
 10
326.0755523162
 20
96.6208584377
  0
VERTEX
  8
0
 62
7
  6
CONTINUOUS
 10
326.1234375175
 20
96.2866134919
  0
VERTEX
  8
0
 62
7
  6
CONTINUOUS
 10
326.1637703653
 20
96.2138872076
  0
SEQEND
  0
LINE
  8
0
 62
7
  6
CONTINUOUS
 10
317.4733433735
 20
69.0971019992
 11
317.4733433735
 21
68.7642799341
  0
LINE
  8
0
 62
7
  6
CONTINUOUS
 10
317.4733433735
 20
77.9615879086
 11
317.4733433735
 21
265.976284661
  0
LINE
  8
0
 62
7
  6
CONTINUOUS
 10
317.4733433735
 20
274.8407705704
 11
317.4733433735
 21
275.1735926354
  0
POLYLINE
  8
0
 62
7
  6
CONTINUOUS
 66
1
 70
0
  0
VERTEX
  8
0
 62
7
  6
CONTINUOUS
 10
317.9099528026
 20
154.1010644425
  0
VERTEX
  8
0
 62
7
  6
CONTINUOUS
 10
317.8711344308
 20
152.4887632947
  0
VERTEX
  8
0
 62
7
  6
CONTINUOUS
 10
317.8232492295
 20
151.0536931622
  0
VERTEX
  8
0
 62
7
  6
CONTINUOUS
 10
317.766895644
 20
149.8222673732
  0
VERTEX
  8
0
 62
7
  6
CONTINUOUS
 10
317.7028023185
 20
148.8172518018
  0
VERTEX
  8
0
 62
7
  6
CONTINUOUS
 10
317.6318289297
 20
148.0572537336
  0
VERTEX
  8
0
 62
7
  6
CONTINUOUS
 10
317.5549663982
 20
147.5563633249
  0
VERTEX
  8
0
 62
7
  6
CONTINUOUS
 10
317.4733433735
 20
147.3239305445
  0
SEQEND
  0
POLYLINE
  8
0
 62
7
  6
CONTINUOUS
 66
1
 70
0
  0
VERTEX
  8
0
 62
7
  6
CONTINUOUS
 10
317.9099528026
 20
97.2203955316
  0
VERTEX
  8
0
 62
7
  6
CONTINUOUS
 10
317.8711344308
 20
96.6208584377
  0
VERTEX
  8
0
 62
7
  6
CONTINUOUS
 10
317.8232492295
 20
96.2866134919
  0
VERTEX
  8
0
 62
7
  6
CONTINUOUS
 10
317.7829163817
 20
96.2138872076
  0
SEQEND
  0
LINE
  8
0
 62
7
  6
CONTINUOUS
 10
326.068069007
 20
219.0534219481
 11
326.0670231821
 21
219.0639812036
  0
POLYLINE
  8
0
 62
7
  6
CONTINUOUS
 66
1
 70
0
  0
VERTEX
  8
0
 62
7
  6
CONTINUOUS
 10
326.1992714766
 20
217.5555034962
  0
VERTEX
  8
0
 62
7
  6
CONTINUOUS
 10
326.29211917
 20
216.6130489683
  0
VERTEX
  8
0
 62
7
  6
CONTINUOUS
 10
326.3840246102
 20
215.9236545887
  0
VERTEX
  8
0
 62
7
  6
CONTINUOUS
 10
326.4733433735
 20
215.4987732644
  0
SEQEND
  0
LINE
  8
0
 62
7
  6
CONTINUOUS
 10
326.1992714766
 20
217.5555034962
 11
326.1773703093
 21
217.8066530904
  0
POLYLINE
  8
0
 62
7
  6
CONTINUOUS
 66
1
 70
0
  0
VERTEX
  8
0
 62
7
  6
CONTINUOUS
 10
326.1992714766
 20
261.4281181562
  0
VERTEX
  8
0
 62
7
  6
CONTINUOUS
 10
326.29211917
 20
259.5450453087
  0
VERTEX
  8
0
 62
7
  6
CONTINUOUS
 10
326.3840246102
 20
257.8047784396
  0
VERTEX
  8
0
 62
7
  6
CONTINUOUS
 10
326.4733433735
 20
256.2362877624
  0
SEQEND
  0
LINE
  8
0
 62
7
  6
CONTINUOUS
 10
326.1992714766
 20
261.4281181562
 11
326.076336284
 21
264.0037918853
  0
POLYLINE
  8
0
 62
7
  6
CONTINUOUS
 66
1
 70
0
  0
VERTEX
  8
0
 62
7
  6
CONTINUOUS
 10
326.0367339444
 20
154.1010644425
  0
VERTEX
  8
0
 62
7
  6
CONTINUOUS
 10
326.0755523162
 20
152.4887632947
  0
VERTEX
  8
0
 62
7
  6
CONTINUOUS
 10
326.1234375175
 20
151.0536931622
  0
VERTEX
  8
0
 62
7
  6
CONTINUOUS
 10
326.1797911029
 20
149.8222673732
  0
VERTEX
  8
0
 62
7
  6
CONTINUOUS
 10
326.2438844285
 20
148.8172518018
  0
VERTEX
  8
0
 62
7
  6
CONTINUOUS
 10
326.3148578173
 20
148.0572537336
  0
VERTEX
  8
0
 62
7
  6
CONTINUOUS
 10
326.3917203487
 20
147.5563633249
  0
VERTEX
  8
0
 62
7
  6
CONTINUOUS
 10
326.4733433735
 20
147.3239305445
  0
SEQEND
  0
POLYLINE
  8
0
 62
7
  6
CONTINUOUS
 66
1
 70
0
  0
VERTEX
  8
0
 62
7
  6
CONTINUOUS
 10
326.0367339444
 20
264.0037918853
  0
VERTEX
  8
0
 62
7
  6
CONTINUOUS
 10
326.0755523162
 20
262.3651052237
  0
VERTEX
  8
0
 62
7
  6
CONTINUOUS
 10
326.1234375175
 20
260.5839326559
  0
VERTEX
  8
0
 62
7
  6
CONTINUOUS
 10
326.1797911029
 20
258.692979702
  0
VERTEX
  8
0
 62
7
  6
CONTINUOUS
 10
326.2438844285
 20
256.7270744902
  0
VERTEX
  8
0
 62
7
  6
CONTINUOUS
 10
326.3148578173
 20
254.7224490064
  0
VERTEX
  8
0
 62
7
  6
CONTINUOUS
 10
326.3917203487
 20
252.7160187057
  0
VERTEX
  8
0
 62
7
  6
CONTINUOUS
 10
326.4733433735
 20
250.7448334605
  0
SEQEND
  0
POLYLINE
  8
0
 62
7
  6
CONTINUOUS
 66
1
 70
0
  0
VERTEX
  8
0
 62
7
  6
CONTINUOUS
 10
326.0367339444
 20
217.8066530904
  0
VERTEX
  8
0
 62
7
  6
CONTINUOUS
 10
326.0755523162
 20
215.7974321273
  0
VERTEX
  8
0
 62
7
  6
CONTINUOUS
 10
326.1234375175
 20
213.8096848223
  0
VERTEX
  8
0
 62
7
  6
CONTINUOUS
 10
326.1797911029
 20
211.8799486335
  0
VERTEX
  8
0
 62
7
  6
CONTINUOUS
 10
326.2438844285
 20
210.0438186116
  0
VERTEX
  8
0
 62
7
  6
CONTINUOUS
 10
326.3148578173
 20
208.3351872904
  0
VERTEX
  8
0
 62
7
  6
CONTINUOUS
 10
326.3917203487
 20
206.7855778713
  0
VERTEX
  8
0
 62
7
  6
CONTINUOUS
 10
326.4733433735
 20
205.4236670332
  0
SEQEND
  0
LINE
  8
0
 62
7
  6
CONTINUOUS
 10
326.4733433735
 20
275.1735819976
 11
326.4733433735
 21
274.8407705704
  0
LINE
  8
0
 62
7
  6
CONTINUOUS
 10
326.4733433735
 20
69.0971019992
 11
326.4733433735
 21
68.7642876792
  0
LINE
  8
0
 62
7
  6
CONTINUOUS
 10
326.4733433735
 20
77.9615879086
 11
326.4733433735
 21
265.976284661
  0
LINE
  8
0
 62
7
  6
CONTINUOUS
 10
326.0556076228
 20
69.5720562179
 11
326.0367339444
 21
69.0971019992
  0
POLYLINE
  8
0
 62
7
  6
CONTINUOUS
 66
1
 70
0
  0
VERTEX
  8
0
 62
7
  6
CONTINUOUS
 10
326.29211917
 20
74.9119279652
  0
VERTEX
  8
0
 62
7
  6
CONTINUOUS
 10
326.3840246102
 20
77.0383445292
  0
VERTEX
  8
0
 62
7
  6
CONTINUOUS
 10
326.4733433735
 20
79.1513344317
  0
SEQEND
  0
LINE
  8
0
 62
7
  6
CONTINUOUS
 10
326.29211917
 20
74.9119279652
 11
326.0556076228
 21
69.5720562179
  0
POLYLINE
  8
0
 62
7
  6
CONTINUOUS
 66
1
 70
0
  0
VERTEX
  8
0
 62
7
  6
CONTINUOUS
 10
326.0670231821
 20
98.9456918999
  0
VERTEX
  8
0
 62
7
  6
CONTINUOUS
 10
326.0556076228
 20
98.7201419002
  0
VERTEX
  8
0
 62
7
  6
CONTINUOUS
 10
326.0502547522
 20
98.5949422804
  0
VERTEX
  8
0
 62
7
  6
CONTINUOUS
 10
326.04073366
 20
98.3309470158
  0
VERTEX
  8
0
 62
7
  6
CONTINUOUS
 10
326.0367339444
 20
98.1969144819
  0
SEQEND
  0
POLYLINE
  8
0
 62
7
  6
CONTINUOUS
 66
1
 70
0
  0
VERTEX
  8
0
 62
7
  6
CONTINUOUS
 10
326.29211917
 20
102.5035070013
  0
VERTEX
  8
0
 62
7
  6
CONTINUOUS
 10
326.3840246102
 20
104.203854407
  0
VERTEX
  8
0
 62
7
  6
CONTINUOUS
 10
326.4733433735
 20
106.0542532099
  0
SEQEND
  0
LINE
  8
0
 62
7
  6
CONTINUOUS
 10
326.29211917
 20
102.5035070013
 11
326.0670231821
 21
98.9456918999
  0
POLYLINE
  8
0
 62
7
  6
CONTINUOUS
 66
1
 70
0
  0
VERTEX
  8
0
 62
7
  6
CONTINUOUS
 10
326.0728812388
 20
155.9673768317
  0
VERTEX
  8
0
 62
7
  6
CONTINUOUS
 10
326.0670231821
 20
155.9444277477
  0
VERTEX
  8
0
 62
7
  6
CONTINUOUS
 10
326.0556076228
 20
155.8467774025
  0
VERTEX
  8
0
 62
7
  6
CONTINUOUS
 10
326.0502547522
 20
155.7738423536
  0
VERTEX
  8
0
 62
7
  6
CONTINUOUS
 10
326.04073366
 20
155.5863234761
  0
VERTEX
  8
0
 62
7
  6
CONTINUOUS
 10
326.0367339444
 20
155.4751318745
  0
SEQEND
  0
POLYLINE
  8
0
 62
7
  6
CONTINUOUS
 66
1
 70
0
  0
VERTEX
  8
0
 62
7
  6
CONTINUOUS
 10
326.1992714766
 20
156.2703695919
  0
VERTEX
  8
0
 62
7
  6
CONTINUOUS
 10
326.29211917
 20
156.6285189805
  0
VERTEX
  8
0
 62
7
  6
CONTINUOUS
 10
326.3840246102
 20
157.2533223117
  0
VERTEX
  8
0
 62
7
  6
CONTINUOUS
 10
326.4733433735
 20
158.134340565
  0
SEQEND
  0
LINE
  8
0
 62
7
  6
CONTINUOUS
 10
326.1992714766
 20
156.2703695919
 11
326.0728812388
 21
155.9673768317
  0
LINE
  8
0
 62
9
  6
CONTINUOUS
 10
292.0733433735
 20
192.3120638777
 11
301.0733433735
 21
192.3120638777
  0
LINE
  8
0
 62
9
  6
CONTINUOUS
 10
317.4733433735
 20
192.3120638777
 11
326.4733433735
 21
192.3120638777
  0
LINE
  8
0
 62
9
  6
CONTINUOUS
 10
292.0733433735
 20
193.6081646649
 11
301.0733433735
 21
193.6081646649
  0
LINE
  8
0
 62
9
  6
CONTINUOUS
 10
317.4733433735
 20
193.6081646649
 11
326.4733433735
 21
193.6081646649
  0
POLYLINE
  8
0
 62
7
  6
CONTINUOUS
 66
1
 70
0
  0
VERTEX
  8
0
 62
7
  6
CONTINUOUS
 10
326.0367339444
 20
275.0467439905
  0
VERTEX
  8
0
 62
7
  6
CONTINUOUS
 10
326.0755523162
 20
274.4045142383
  0
VERTEX
  8
0
 62
7
  6
CONTINUOUS
 10
326.1234375175
 20
273.5102637886
  0
VERTEX
  8
0
 62
7
  6
CONTINUOUS
 10
326.1797911029
 20
272.380373827
  0
VERTEX
  8
0
 62
7
  6
CONTINUOUS
 10
326.2438844285
 20
271.0356023975
  0
VERTEX
  8
0
 62
7
  6
CONTINUOUS
 10
326.3148578173
 20
269.5006815512
  0
VERTEX
  8
0
 62
7
  6
CONTINUOUS
 10
326.3917203487
 20
267.8038185478
  0
VERTEX
  8
0
 62
7
  6
CONTINUOUS
 10
326.4733433735
 20
265.976284661
  0
SEQEND
  0
LINE
  8
0
 62
9
  6
CONTINUOUS
 10
332.2733433735
 20
246.4689362848
 11
332.2733433735
 21
97.4689362848
  0
LINE
  8
0
 62
7
  6
CONTINUOUS
 10
334.2733433735
 20
244.4689362848
 11
334.2733433735
 21
99.4689362848
  0
POLYLINE
  8
0
 62
7
  6
CONTINUOUS
 66
1
 70
0
  0
VERTEX
  8
0
 62
7
  6
CONTINUOUS
 10
326.0491383034
 20
69.096352241
  0
VERTEX
  8
0
 62
7
  6
CONTINUOUS
 10
326.0755523162
 20
69.5333583312
  0
VERTEX
  8
0
 62
7
  6
CONTINUOUS
 10
326.1234375175
 20
70.427608781
  0
VERTEX
  8
0
 62
7
  6
CONTINUOUS
 10
326.1797911029
 20
71.5574987426
  0
VERTEX
  8
0
 62
7
  6
CONTINUOUS
 10
326.2438844285
 20
72.9022701721
  0
VERTEX
  8
0
 62
7
  6
CONTINUOUS
 10
326.3148578173
 20
74.4371910183
  0
VERTEX
  8
0
 62
7
  6
CONTINUOUS
 10
326.3917203487
 20
76.1340540218
  0
VERTEX
  8
0
 62
7
  6
CONTINUOUS
 10
326.4733433735
 20
77.9615879086
  0
SEQEND
  0
LINE
  8
0
 62
7
  6
CONTINUOUS
 10
326.4370923512
 20
98.1999159406
 11
326.4733433735
 21
98.6377485956
  0
LINE
  8
0
 62
9
  6
CONTINUOUS
 10
292.0733433735
 20
199.7319812031
 11
301.0733433735
 21
199.7319812031
  0
LINE
  8
0
 62
9
  6
CONTINUOUS
 10
317.4733433735
 20
199.7319812031
 11
326.4733433735
 21
199.7319812031
  0
POLYLINE
  8
0
 62
7
  6
CONTINUOUS
 66
1
 70
0
  0
VERTEX
  8
0
 62
7
  6
CONTINUOUS
 10
326.0670231821
 20
219.0639812036
  0
VERTEX
  8
0
 62
7
  6
CONTINUOUS
 10
326.0556076228
 20
219.1315296258
  0
VERTEX
  8
0
 62
7
  6
CONTINUOUS
 10
326.0507782407
 20
219.1388094553
  0
SEQEND
  0
LINE
  8
0
 62
9
  6
CONTINUOUS
 10
326.4733433735
 20
203.2446596037
 11
317.4733433735
 21
203.2446596037
  0
LINE
  8
0
 62
9
  6
CONTINUOUS
 10
301.0733433735
 20
203.2446596037
 11
292.0733433735
 21
203.2446596037
  0
POLYLINE
  8
0
 62
7
  6
CONTINUOUS
 66
1
 70
0
  0
VERTEX
  8
0
 62
7
  6
CONTINUOUS
 10
326.0507782407
 20
219.1388094553
  0
VERTEX
  8
0
 62
7
  6
CONTINUOUS
 10
326.0502547522
 20
219.1387178576
  0
VERTEX
  8
0
 62
7
  6
CONTINUOUS
 10
326.04073366
 20
219.0993012048
  0
VERTEX
  8
0
 62
7
  6
CONTINUOUS
 10
326.0367339444
 20
219.0534219481
  0
SEQEND
  0
POLYLINE
  8
0
 62
7
  6
CONTINUOUS
 66
1
 70
0
  0
VERTEX
  8
0
 62
7
  6
CONTINUOUS
 10
292.4959085062
 20
219.1388094553
  0
VERTEX
  8
0
 62
7
  6
CONTINUOUS
 10
292.4964319947
 20
219.1387178576
  0
VERTEX
  8
0
 62
7
  6
CONTINUOUS
 10
292.505953087
 20
219.0993012048
  0
VERTEX
  8
0
 62
7
  6
CONTINUOUS
 10
292.5099528026
 20
219.0534219481
  0
SEQEND
  0
POLYLINE
  8
0
 62
7
  6
CONTINUOUS
 66
1
 70
0
  0
VERTEX
  8
0
 62
7
  6
CONTINUOUS
 10
300.6507782407
 20
219.1388094553
  0
VERTEX
  8
0
 62
7
  6
CONTINUOUS
 10
300.6502547522
 20
219.1387178576
  0
VERTEX
  8
0
 62
7
  6
CONTINUOUS
 10
300.64073366
 20
219.0993012048
  0
VERTEX
  8
0
 62
7
  6
CONTINUOUS
 10
300.6367339444
 20
219.0534219481
  0
SEQEND
  0
LINE
  8
0
 62
7
  6
CONTINUOUS
 10
292.0733433735
 20
217.8066530904
 11
292.5099528026
 21
217.8066530904
  0
LINE
  8
0
 62
7
  6
CONTINUOUS
 10
300.6367339444
 20
217.8066530904
 11
301.0733433735
 21
217.8066530904
  0
LINE
  8
0
 62
7
  6
CONTINUOUS
 10
317.4733433735
 20
217.8066530904
 11
317.9099528026
 21
217.8066530904
  0
LINE
  8
0
 62
7
  6
CONTINUOUS
 10
326.0367339444
 20
217.8066530904
 11
326.4733433735
 21
217.8066530904
  0
LINE
  8
0
 62
9
  6
CONTINUOUS
 10
326.4733433735
 20
218.223724586
 11
317.4733433735
 21
218.223724586
  0
LINE
  8
0
 62
9
  6
CONTINUOUS
 10
301.0733433735
 20
218.223724586
 11
292.0733433735
 21
218.223724586
  0
LINE
  8
0
 62
7
  6
CONTINUOUS
 10
292.0733433735
 20
219.0534219481
 11
292.5099528026
 21
219.0534219481
  0
LINE
  8
0
 62
7
  6
CONTINUOUS
 10
300.6367339444
 20
219.0534219481
 11
301.0733433735
 21
219.0534219481
  0
LINE
  8
0
 62
7
  6
CONTINUOUS
 10
317.4733433735
 20
219.0534219481
 11
317.9099528026
 21
219.0534219481
  0
LINE
  8
0
 62
7
  6
CONTINUOUS
 10
326.0367339444
 20
219.0534219481
 11
326.4733433735
 21
219.0534219481
  0
LINE
  8
0
 62
7
  6
CONTINUOUS
 10
292.4959074091
 20
219.1388094553
 11
300.6507793379
 21
219.1388094553
  0
LINE
  8
0
 62
7
  6
CONTINUOUS
 10
317.8959074091
 20
219.1388094553
 11
326.0507793379
 21
219.1388094553
  0
POLYLINE
  8
0
 62
7
  6
CONTINUOUS
 66
1
 70
0
  0
VERTEX
  8
0
 62
7
  6
CONTINUOUS
 10
317.8959085062
 20
219.1388094553
  0
VERTEX
  8
0
 62
7
  6
CONTINUOUS
 10
317.8964319947
 20
219.1387178576
  0
VERTEX
  8
0
 62
7
  6
CONTINUOUS
 10
317.905953087
 20
219.0993012048
  0
VERTEX
  8
0
 62
7
  6
CONTINUOUS
 10
317.9099528026
 20
219.0534219481
  0
SEQEND
  0
POLYLINE
  8
0
 62
7
  6
CONTINUOUS
 66
1
 70
0
  0
VERTEX
  8
0
 62
7
  6
CONTINUOUS
 10
300.7637703653
 20
96.2138872076
  0
VERTEX
  8
0
 62
7
  6
CONTINUOUS
 10
300.7797911029
 20
96.2238608995
  0
VERTEX
  8
0
 62
7
  6
CONTINUOUS
 10
300.8438844285
 20
96.4338415677
  0
VERTEX
  8
0
 62
7
  6
CONTINUOUS
 10
300.9148578173
 20
96.9127701832
  0
VERTEX
  8
0
 62
7
  6
CONTINUOUS
 10
300.9468470052
 20
97.2203955316
  0
SEQEND
  0
LINE
  8
0
 62
9
  6
CONTINUOUS
 10
292.0733433735
 20
233.7806564158
 11
301.0733433735
 21
233.7806564158
  0
LINE
  8
0
 62
9
  6
CONTINUOUS
 10
317.4733433735
 20
233.7806564158
 11
326.4733433735
 21
233.7806564158
  0
LINE
  8
0
 62
7
  6
CONTINUOUS
 10
292.0733433735
 20
234.1626224271
 11
301.0733433735
 21
234.1626224271
  0
LINE
  8
0
 62
7
  6
CONTINUOUS
 10
317.4733433735
 20
234.1626224271
 11
326.4733433735
 21
234.1626224271
  0
LINE
  8
0
 62
9
  6
CONTINUOUS
 10
292.0733433735
 20
238.8443379223
 11
301.0733433735
 21
238.8443379223
  0
LINE
  8
0
 62
9
  6
CONTINUOUS
 10
317.4733433735
 20
238.8443379223
 11
326.4733433735
 21
238.8443379223
  0
POLYLINE
  8
0
 62
7
  6
CONTINUOUS
 66
1
 70
0
  0
VERTEX
  8
0
 62
7
  6
CONTINUOUS
 10
326.1637703653
 20
96.2138872076
  0
VERTEX
  8
0
 62
7
  6
CONTINUOUS
 10
326.1797911029
 20
96.2238608995
  0
VERTEX
  8
0
 62
7
  6
CONTINUOUS
 10
326.2438844285
 20
96.4338415677
  0
VERTEX
  8
0
 62
7
  6
CONTINUOUS
 10
326.3148578173
 20
96.9127701832
  0
VERTEX
  8
0
 62
7
  6
CONTINUOUS
 10
326.3468470052
 20
97.2203955316
  0
SEQEND
  0
LINE
  8
0
 62
7
  6
CONTINUOUS
 10
317.4733433735
 20
246.4689362848
 11
301.0733433735
 21
246.4689362848
  0
LINE
  8
0
 62
7
  6
CONTINUOUS
 10
286.2733433735
 20
246.4689362848
 11
292.0733433735
 21
246.4689362848
  0
LINE
  8
0
 62
7
  6
CONTINUOUS
 10
326.4733433735
 20
246.4689362848
 11
332.2733433735
 21
246.4689362848
  0
LINE
  8
0
 62
9
  6
CONTINUOUS
 10
326.4733433735
 20
246.7964676563
 11
317.4733433735
 21
246.7964676563
  0
LINE
  8
0
 62
9
  6
CONTINUOUS
 10
301.0733433735
 20
246.7964676563
 11
292.0733433735
 21
246.7964676563
  0
LINE
  8
0
 62
9
  6
CONTINUOUS
 10
326.4733433735
 20
261.7667020192
 11
326.1831114943
 21
261.7667020192
  0
LINE
  8
0
 62
9
  6
CONTINUOUS
 10
317.7635752527
 20
261.7667020192
 11
317.4733433735
 21
261.7667020192
  0
LINE
  8
0
 62
9
  6
CONTINUOUS
 10
301.0733433735
 20
261.7667020192
 11
300.7831114943
 21
261.7667020192
  0
LINE
  8
0
 62
9
  6
CONTINUOUS
 10
292.3635752527
 20
261.7667020192
 11
292.0733433735
 21
261.7667020192
  0
LINE
  8
0
 62
7
  6
CONTINUOUS
 10
292.0733433735
 20
264.0037918853
 11
292.5099528026
 21
264.0037918853
  0
LINE
  8
0
 62
7
  6
CONTINUOUS
 10
300.6367339444
 20
264.0037918853
 11
301.0733433735
 21
264.0037918853
  0
LINE
  8
0
 62
7
  6
CONTINUOUS
 10
317.4733433735
 20
264.0037918853
 11
317.9099528026
 21
264.0037918853
  0
LINE
  8
0
 62
7
  6
CONTINUOUS
 10
326.0367339444
 20
264.0037918853
 11
326.4733433735
 21
264.0037918853
  0
LINE
  8
0
 62
9
  6
CONTINUOUS
 10
326.4733433735
 20
264.3238017455
 11
317.4733433735
 21
264.3238017455
  0
LINE
  8
0
 62
9
  6
CONTINUOUS
 10
301.0733433735
 20
264.3238017455
 11
292.0733433735
 21
264.3238017455
  0
LINE
  8
0
 62
7
  6
CONTINUOUS
 10
292.0733433735
 20
264.6694416794
 11
301.0733433735
 21
264.6694416794
  0
LINE
  8
0
 62
7
  6
CONTINUOUS
 10
317.4733433735
 20
264.6694416794
 11
326.4733433735
 21
264.6694416794
  0
LINE
  8
0
 62
7
  6
CONTINUOUS
 10
292.0733433735
 20
274.8407705704
 11
292.4975031259
 21
274.8407705704
  0
LINE
  8
0
 62
7
  6
CONTINUOUS
 10
300.6491836211
 20
274.8407705704
 11
301.0733433735
 21
274.8407705704
  0
LINE
  8
0
 62
7
  6
CONTINUOUS
 10
317.4733433735
 20
274.8407705704
 11
317.8975031259
 21
274.8407705704
  0
LINE
  8
0
 62
7
  6
CONTINUOUS
 10
326.0491836211
 20
274.8407705704
 11
326.4733433735
 21
274.8407705704
  0
LINE
  8
0
 62
7
  6
CONTINUOUS
 10
292.0733433735
 20
275.0467439905
 11
292.5099528026
 21
275.0467439905
  0
LINE
  8
0
 62
7
  6
CONTINUOUS
 10
300.6367339444
 20
275.0467439905
 11
301.0733433735
 21
275.0467439905
  0
LINE
  8
0
 62
7
  6
CONTINUOUS
 10
317.4733433735
 20
275.0467439905
 11
317.9099528026
 21
275.0467439905
  0
LINE
  8
0
 62
7
  6
CONTINUOUS
 10
326.0367339444
 20
275.0467439905
 11
326.4733433735
 21
275.0467439905
  0
LINE
  8
0
 62
9
  6
CONTINUOUS
 10
326.4733433735
 20
275.1474593254
 11
317.4733433735
 21
275.1474593254
  0
LINE
  8
0
 62
9
  6
CONTINUOUS
 10
301.0733433735
 20
275.1474593254
 11
292.0733433735
 21
275.1474593254
  0
LINE
  8
0
 62
7
  6
CONTINUOUS
 10
292.0733433735
 20
275.1735976283
 11
301.0733433735
 21
275.1735976283
  0
LINE
  8
0
 62
7
  6
CONTINUOUS
 10
317.4733433735
 20
275.1735976283
 11
326.4733433735
 21
275.1735976283
  0
ARC
  8
0
 62
7
  6
CONTINUOUS
 10
46.2663837042
 20
113.24344421
 40
16.5
 50
312.0
 51
18.0
  0
ARC
  8
0
 62
7
  6
CONTINUOUS
 10
96.4523033976
 20
76.238049521
 40
16.5
 50
348.0
 51
54.0
  0
ARC
  8
0
 62
7
  6
CONTINUOUS
 10
38.1757059761
 20
162.106965015
 40
14.8
 50
212.7475990692
 51
284.0
  0
ARC
  8
0
 62
7
  6
CONTINUOUS
 10
61.1855507154
 20
111.0138872076
 40
14.8
 50
248.7475990692
 51
320.0
  0
ARC
  8
0
 62
7
  6
CONTINUOUS
 10
109.8326637768
 20
83.2035663618
 40
14.8
 50
284.7475990692
 51
356.0
  0
ARC
  8
0
 62
7
  6
CONTINUOUS
 10
81.0400592445
 20
106.5947540015
 40
3.25
 50
358.8499045791
 51
140.0
  0
ARC
  8
0
 62
7
  6
CONTINUOUS
 10
51.6408394647
 20
146.8616238459
 40
3.25
 50
322.8499045791
 51
104.0
  0
ARC
  8
0
 62
7
  6
CONTINUOUS
 10
86.2890016061
 20
106.4893780813
 40
2.0
 50
178.8499045789
 51
234.0
  0
ARC
  8
0
 62
7
  6
CONTINUOUS
 10
55.8253846259
 20
143.6911220253
 40
2.0
 50
142.8499045789
 51
198.0
  0
ARC
  8
0
 62
7
  6
CONTINUOUS
 10
26.3628116066
 20
154.9728549363
 40
1.0
 50
96.0
 51
211.1288554262
  0
ARC
  8
0
 62
7
  6
CONTINUOUS
 10
55.8220431101
 20
98.2988258169
 40
1.0
 50
132.0
 51
247.1288554262
  0
ARC
  8
0
 62
7
  6
CONTINUOUS
 10
112.9672205421
 20
69.7642749413
 40
1.0
 50
168.0
 51
283.1288554262
  0
ARC
  8
0
 62
7
  6
CONTINUOUS
 10
121.3826033305
 20
135.129209954
 40
0.9443458372
 50
355.4216527464
 51
45.0
  0
ARC
  8
0
 62
7
  6
CONTINUOUS
 10
91.4650642307
 20
165.0467490538
 40
0.9443458372
 50
45.0
 51
94.5783472536
  0
ARC
  8
0
 62
7
  6
CONTINUOUS
 10
97.8047905614
 20
268.1392727669
 40
16.5
 50
204.0
 51
270.0
  0
ARC
  8
0
 62
7
  6
CONTINUOUS
 10
47.1022667408
 20
231.8449226587
 40
16.5
 50
240.0
 51
306.0
  0
ARC
  8
0
 62
7
  6
CONTINUOUS
 10
27.4163470473
 20
172.6799808655
 40
16.5
 50
276.0
 51
342.0
  0
ARC
  8
0
 62
7
  6
CONTINUOUS
 10
91.0740796974
 20
254.6392727669
 40
14.8
 50
140.7475990692
 51
212.0
  0
ARC
  8
0
 62
7
  6
CONTINUOUS
 10
49.5921081735
 20
216.9669806513
 40
14.8
 50
176.7475990692
 51
248.0
  0
ARC
  8
0
 62
7
  6
CONTINUOUS
 10
90.9107511004
 20
171.9689362848
 40
6.0
 50
85.4216527464
 51
274.5783472536
  0
ARC
  8
0
 62
7
  6
CONTINUOUS
 10
51.524643292
 20
196.7186336758
 40
3.25
 50
286.8499045791
 51
68.0
  0
ARC
  8
0
 62
7
  6
CONTINUOUS
 10
80.735853715
 20
237.1221003136
 40
3.25
 50
250.849904579
 51
32.0
  0
ARC
  8
0
 62
7
  6
CONTINUOUS
 10
128.1167812046
 20
252.6392727669
 40
3.25
 50
214.849904579
 51
356.0
  0
ARC
  8
0
 62
7
  6
CONTINUOUS
 10
53.0464372286
 20
191.694029889
 40
2.0
 50
106.849904579
 51
162.0
  0
ARC
  8
0
 62
7
  6
CONTINUOUS
 10
79.0136228671
 20
232.1626224271
 40
2.0
 50
70.8499045791
 51
126.0
  0
ARC
  8
0
 62
7
  6
CONTINUOUS
 10
123.8083592197
 20
249.6392727669
 40
2.0
 50
34.8499045791
 51
90.0
  0
ARC
  8
0
 62
7
  6
CONTINUOUS
 10
80.6387527062
 20
263.6694416794
 40
1.0
 50
24.0
 51
139.1288554262
  0
ARC
  8
0
 62
7
  6
CONTINUOUS
 10
35.8419511834
 20
218.1388094553
 40
1.0
 50
60.0
 51
175.1288554262
  0
ARC
  8
0
 62
7
  6
CONTINUOUS
 10
121.3826033305
 20
208.8086626156
 40
0.9443458372
 50
315.0
 51
4.5783472536
  0
ARC
  8
0
 62
7
  6
CONTINUOUS
 10
91.4650642307
 20
178.8911235157
 40
0.9443458372
 50
265.4216527464
 51
315.0
  0
ARC
  8
0
 62
7
  6
CONTINUOUS
 10
229.1932340755
 20
171.257891704
 40
16.5
 50
96.0
 51
162.0
  0
ARC
  8
0
 62
7
  6
CONTINUOUS
 10
209.5073143821
 20
112.0929499109
 40
16.5
 50
60.0
 51
126.0
  0
ARC
  8
0
 62
7
  6
CONTINUOUS
 10
158.8047905614
 20
75.7985998026
 40
16.5
 50
24.0
 51
90.0
  0
ARC
  8
0
 62
7
  6
CONTINUOUS
 10
207.0174729494
 20
126.9708919182
 40
14.8
 50
356.7475990692
 51
68.0
  0
ARC
  8
0
 62
7
  6
CONTINUOUS
 10
165.5355014254
 20
89.2985998026
 40
14.8
 50
320.7475990692
 51
32.0
  0
ARC
  8
0
 62
7
  6
CONTINUOUS
 10
128.3047905614
 20
134.5748968237
 40
6.0
 50
175.4216527464
 51
4.5783472536
  0
ARC
  8
0
 62
7
  6
CONTINUOUS
 10
205.0849378309
 20
147.2192388938
 40
3.25
 50
106.8499045791
 51
248.0
  0
ARC
  8
0
 62
7
  6
CONTINUOUS
 10
175.8737274079
 20
106.815772256
 40
3.25
 50
70.849904579
 51
212.0
  0
ARC
  8
0
 62
7
  6
CONTINUOUS
 10
128.4927999183
 20
91.2985998026
 40
3.25
 50
34.849904579
 51
176.0
  0
ARC
  8
0
 62
7
  6
CONTINUOUS
 10
203.5631438943
 20
152.2438426806
 40
2.0
 50
286.849904579
 51
342.0
  0
ARC
  8
0
 62
7
  6
CONTINUOUS
 10
177.5959582557
 20
111.7752501425
 40
2.0
 50
250.8499045791
 51
306.0
  0
ARC
  8
0
 62
7
  6
CONTINUOUS
 10
132.8012219032
 20
94.2985998026
 40
2.0
 50
214.849904579
 51
270.0
  0
ARC
  8
0
 62
7
  6
CONTINUOUS
 10
220.7676299395
 20
125.7990631143
 40
1.0
 50
240.0
 51
355.1288554262
  0
ARC
  8
0
 62
7
  6
CONTINUOUS
 10
175.9708284166
 20
80.2684308902
 40
1.0
 50
204.0
 51
319.1288554262
  0
ARC
  8
0
 62
7
  6
CONTINUOUS
 10
165.1445168922
 20
165.0467490538
 40
0.9443458372
 50
85.4216527464
 51
135.0
  0
ARC
  8
0
 62
7
  6
CONTINUOUS
 10
135.2269777924
 20
135.129209954
 40
0.9443458372
 50
135.0
 51
184.5783472536
  0
ARC
  8
0
 62
7
  6
CONTINUOUS
 10
128.3047905614
 20
171.9689362848
 40
94.1213725566
 50
224.452345112
 51
231.1794367831
  0
ARC
  8
0
 62
7
  6
CONTINUOUS
 10
128.3047905614
 20
171.9689362848
 40
94.1213725566
 50
332.452345112
 51
339.1794367831
  0
ARC
  8
0
 62
7
  6
CONTINUOUS
 10
128.3047905614
 20
171.9689362848
 40
94.1213725566
 50
152.452345112
 51
159.1794367831
  0
ARC
  8
0
 62
7
  6
CONTINUOUS
 10
128.3047905614
 20
171.9689362848
 40
94.1213725566
 50
260.452345112
 51
267.1794367831
  0
ARC
  8
0
 62
7
  6
CONTINUOUS
 10
128.3047905614
 20
171.9689362848
 40
94.1213725566
 50
296.452345112
 51
303.1794367831
  0
ARC
  8
0
 62
7
  6
CONTINUOUS
 10
128.3047905614
 20
171.9689362848
 40
94.1213725566
 50
44.452345112
 51
51.1794367831
  0
ARC
  8
0
 62
7
  6
CONTINUOUS
 10
128.3047905614
 20
171.9689362848
 40
94.1213725566
 50
188.452345112
 51
195.1794367831
  0
ARC
  8
0
 62
7
  6
CONTINUOUS
 10
128.3047905614
 20
171.9689362848
 40
94.1213725566
 50
116.452345112
 51
123.1794367831
  0
ARC
  8
0
 62
7
  6
CONTINUOUS
 10
128.3047905614
 20
171.9689362848
 40
94.1213725566
 50
8.452345112
 51
15.1794367831
  0
ARC
  8
0
 62
7
  6
CONTINUOUS
 10
128.3047905614
 20
171.9689362848
 40
94.1213725566
 50
80.452345112
 51
87.1794367831
  0
CIRCLE
  8
0
 62
7
  6
CONTINUOUS
 10
128.3047905614
 20
171.9689362848
 40
74.5
  0
CIRCLE
  8
0
 62
9
  6
CONTINUOUS
 10
128.3047905614
 20
171.9689362848
 40
72.5
  0
ARC
  8
0
 62
7
  6
CONTINUOUS
 10
128.3047905614
 20
209.3629757459
 40
6.0
 50
355.4216527464
 51
184.5783472536
  0
ARC
  8
0
 62
7
  6
CONTINUOUS
 10
165.6988300225
 20
171.9689362848
 40
6.0
 50
265.4216527464
 51
94.5783472536
  0
ARC
  8
0
 62
7
  6
CONTINUOUS
 10
135.2269777924
 20
208.8086626156
 40
0.9443458372
 50
175.4216527464
 51
225.0
  0
ARC
  8
0
 62
7
  6
CONTINUOUS
 10
165.1445168922
 20
178.8911235157
 40
0.9443458372
 50
225.0
 51
274.5783472536
  0
ARC
  8
0
 62
7
  6
CONTINUOUS
 10
160.1572777252
 20
267.6998230485
 40
16.5
 50
168.0
 51
234.0
  0
ARC
  8
0
 62
7
  6
CONTINUOUS
 10
146.7769173461
 20
260.7343062078
 40
14.8
 50
104.7475990692
 51
176.0
  0
CIRCLE
  8
0
 62
7
  6
CONTINUOUS
 10
128.3047905614
 20
239.9689362848
 40
4.0
  0
ARC
  8
0
 62
7
  6
CONTINUOUS
 10
175.5695218784
 20
237.343118568
 40
3.25
 50
178.8499045791
 51
320.0
  0
ARC
  8
0
 62
7
  6
CONTINUOUS
 10
170.3205795168
 20
237.4484944883
 40
2.0
 50
358.8499045789
 51
54.0
  0
ARC
  8
0
 62
7
  6
CONTINUOUS
 10
143.6423605808
 20
274.1735976283
 40
1.0
 50
348.0
 51
103.1288554262
  0
ARC
  8
0
 62
7
  6
CONTINUOUS
 10
218.4338751468
 20
181.8309075546
 40
14.8
 50
32.7475990692
 51
104.0
  0
ARC
  8
0
 62
7
  6
CONTINUOUS
 10
204.9687416582
 20
197.0762487236
 40
3.25
 50
142.849904579
 51
284.0
  0
ARC
  8
0
 62
7
  6
CONTINUOUS
 10
200.784196497
 20
200.2467505442
 40
2.0
 50
322.849904579
 51
18.0
  0
ARC
  8
0
 62
7
  6
CONTINUOUS
 10
230.2467695163
 20
188.9650176332
 40
1.0
 50
276.0
 51
31.1288554262
  0
ARC
  8
0
 62
7
  6
CONTINUOUS
 10
210.3431974187
 20
230.6944283595
 40
16.5
 50
132.0
 51
198.0
  0
ARC
  8
0
 62
7
  6
CONTINUOUS
 10
195.4240304075
 20
232.923985362
 40
14.8
 50
68.7475990692
 51
140.0
  0
ARC
  8
0
 62
7
  6
CONTINUOUS
 10
200.7875380128
 20
245.6390467526
 40
1.0
 50
312.0
 51
67.1288554262
  0
ARC
  8
0
 62
7
  6
CONTINUOUS
 10
286.2733433735
 20
99.4689362848
 40
2.0
 50
180.0
 51
270.0
  0
ARC
  8
0
 62
7
  6
CONTINUOUS
 10
286.2733433735
 20
244.4689362848
 40
2.0
 50
90.0
 51
180.0
  0
ARC
  8
0
 62
7
  6
CONTINUOUS
 10
332.2733433735
 20
99.4689362848
 40
2.0
 50
270.0
 51
360.0
  0
ARC
  8
0
 62
7
  6
CONTINUOUS
 10
332.2733433735
 20
244.4689362848
 40
2.0
 50
0.0
 51
90.0
  0
ENDSEC
  0
EOF
