  0
SECTION
  2
HEADER
  9
$EXTMAX
 10
210.0
 20
297.0
 30
0.0
  9
$EXTMIN
 10
0.0
 20
0.0
 30
0.0
  9
$LIMMIN
 10
0.0
 20
0.0
  9
$LIMMAX
 10
210.0
 20
297.0
  9
$VIEWCTR
 10
105.0
 20
148.5
  9
$VIEWSIZE
 40
297.0
  9
$CLAYER
  8
0
  9
$LTSCALE
 40
19.36
  9
$CELTYPE
  6
BYLAYER
  9
$DIMSCALE
 40
1.0
  9
$DIMASZ
 40
3.5
  9
$DIMEXO
 40
1.0
  9
$DIMDLI
 40
13.376
  9
$DIMEXE
 40
2.0
  9
$DIMCEN
 40
3.168
  9
$DIMLFAC
 40
1.0
  9
$DIMBLK
  1
_FILLED
  9
$DIMALT
 70
0
  9
$DIMALTF
 40
0.0393700787
  9
$DIMTXT
 40
3.5
  9
$AUNITS
 70
0
  9
$PDMODE
 70
3
  9
$PDSIZE
 40
0.3125
  9
$TILEMODE
 70
1
  0
ENDSEC
  0
SECTION
  2
TABLES
  0
TABLE
  2
LTYPE
 70
6
  0
LTYPE
  2
BYBLOCK
 70
0
  3

 72
65
 73
0
 40
0.0
  0
LTYPE
  2
BYLAYER
 70
0
  3

 72
65
 73
0
 40
0.0
  0
LTYPE
  2
CONTINUOUS
 70
64
  3
Solid line
 72
65
 73
0
 40
0.0
  0
LTYPE
  2
CENTER
 70
64
  3
____ _ ____ _ ____ _ ____ _ ____ _ ____ _ ____
 72
65
 73
4
 40
0.6
 49
0.375
 49
-0.075
 49
0.075
 49
-0.075
  0
LTYPE
  2
HIDDEN
 70
64
  3
- - - - - - - - - - - - - - - - - - - -
 72
65
 73
2
 40
0.2
 49
0.1
 49
-0.1
  0
LTYPE
  2
PHANTOM
 70
64
  3
_____ _ _ _____ _ _ _____ _ _ _____
 72
65
 73
6
 40
0.8
 49
0.45
 49
-0.05
 49
0.1
 49
-0.05
 49
0.1
 49
-0.05
  0
LTYPE
  2
DOT
 70
64
  3
. . . . . . . . . . . . . . . . . . . .
 72
65
 73
2
 40
0.2
 49
0.1
 49
-0.1
  0
LTYPE
  2
DASHED
 70
64
  3
- - - - - - - - - - - - - - - - - - - -
 72
65
 73
2
 40
0.2
 49
0.1
 49
-0.1
  0
ENDTAB
  0
TABLE
  2
LAYER
 70
36
  0
LAYER
  2
0
 70
0
 62
7
  6
CONTINUOUS
  0
LAYER
  2
DEFAULT_1
 70
0
 62
7
  6
CENTER
  0
LAYER
  2
DEFAULT_2
 70
0
 62
8
  6
HIDDEN
  0
LAYER
  2
DEFAULT_3
 70
0
 62
7
  6
PHANTOM
  0
LAYER
  2
CSYS
 70
0
 62
7
  6
CONTINUOUS
  0
LAYER
  2
CURVE
 70
0
 62
7
  6
CONTINUOUS
  0
LAYER
  2
SURFACE
 70
0
 62
7
  6
CONTINUOUS
  0
ENDTAB
  0
TABLE
  2
STYLE
 70
1
  0
STYLE
  2
STANDARD
 70
0
 40
0.0
 41
0.8
 50
0.0
 71
0
 42
0.2
  3
txt
  4

  0
STYLE
  2
TEXTSTYLE_1
 70
0
 40
0.0
 41
0.8
 50
0.0
 71
0
 42
0.2
  3
gdt
  4

  0
STYLE
  2
TEXTSTYLE_2
 70
0
 40
0.0
 41
0.6
 50
0.0
 71
0
 42
0.2
  3
txt
  4

  0
STYLE
  2
TEXTSTYLE_3
 70
0
 40
0.0
 41
1.0
 50
0.0
 71
0
 42
0.2
  3
ftb_____.ttf
  4

  0
STYLE
  2
TEXTSTYLE_4
 70
0
 40
0.0
 41
1.0
 50
0.0
 71
0
 42
0.2
  3
fti_____.ttf
  4

  0
STYLE
  2
TEXTSTYLE_5
 70
0
 40
0.0
 41
1.0
 50
0.0
 71
0
 42
0.2
  3
frutiger light.ttf
  4

  0
STYLE
  2
TEXTSTYLE_6
 70
0
 40
0.0
 41
0.7
 50
0.0
 71
0
 42
0.2
  3
txt
  4

  0
STYLE
  2
TEXTSTYLE_7
 70
0
 40
0.0
 41
0.5
 50
0.0
 71
0
 42
0.2
  3
txt
  4

  0
ENDTAB
  0
ENDSEC
  0
SECTION
  2
BLOCKS
  0
BLOCK
  8
0
 62
2
  6
CONTINUOUS
  2
UNI_LOGO2_BL1
 70
64
 10
173.5956734183
 20
35.5937998301
  0
TEXT
  8
0
 62
7
  6
CONTINUOUS
 10
164.6539584268
 20
30.6865562072
  7
TEXTSTYLE_4
 40
1.0655737705
  1
The brand for plastic modular belts and chains
 41
1.0
 72
0
  0
LINE
  8
0
 62
7
  6
CONTINUOUS
 10
149.5737418074
 20
36.1675703219
 11
149.5737418074
 21
34.0364227809
  0
LINE
  8
0
 62
7
  6
CONTINUOUS
 10
149.8628043005
 20
31.0454914852
 11
149.8628043005
 21
31.1422825445
  0
LINE
  8
0
 62
7
  6
CONTINUOUS
 10
149.5737418074
 20
31.1100188581
 11
149.6315543091
 21
30.9164367395
  0
LINE
  8
0
 62
7
  6
CONTINUOUS
 10
150.9671844304
 20
33.9544555678
 11
150.9671844304
 21
36.1675703219
  0
LINE
  8
0
 62
7
  6
CONTINUOUS
 10
151.8862417523
 20
32.1101932727
 11
151.8862417523
 21
30.5937998301
  0
LINE
  8
0
 62
7
  6
CONTINUOUS
 10
152.1753043074
 20
30.5937998301
 11
152.1753043074
 21
31.3358647082
  0
LINE
  8
0
 62
7
  6
CONTINUOUS
 10
152.1753043074
 20
31.4649194539
 11
152.1753043074
 21
32.1101932727
  0
LINE
  8
0
 62
7
  6
CONTINUOUS
 10
149.6315543091
 20
31.3036010218
 11
149.5737418074
 21
31.1100188581
  0
LINE
  8
0
 62
7
  6
CONTINUOUS
 10
149.9784292936
 20
30.8841730531
 11
149.8628043005
 21
31.0454914852
  0
LINE
  8
0
 62
7
  6
CONTINUOUS
 10
151.0768668626
 20
31.400392081
 11
151.1346793074
 21
31.3036010218
  0
LINE
  8
0
 62
7
  6
CONTINUOUS
 10
151.4237418626
 20
31.3036010218
 11
151.3659292523
 21
31.4326557675
  0
LINE
  8
0
 62
7
  6
CONTINUOUS
 10
152.852430332
 20
36.1675703219
 11
152.852430332
 21
34.3642916334
  0
LINE
  8
0
 62
7
  6
CONTINUOUS
 10
152.852430332
 20
33.0528162235
 11
152.852430332
 21
32.3970785186
  0
LINE
  8
0
 62
7
  6
CONTINUOUS
 10
153.2159293074
 20
31.2390736489
 11
153.2159293074
 21
30.5937998301
  0
LINE
  8
0
 62
7
  6
CONTINUOUS
 10
153.5049916972
 20
30.5937998301
 11
153.5049916972
 21
31.2390736489
  0
LINE
  8
0
 62
7
  6
CONTINUOUS
 10
149.8628043005
 20
31.1422825445
 11
149.9206168074
 21
31.2713373354
  0
LINE
  8
0
 62
7
  6
CONTINUOUS
 10
149.6315543091
 20
30.9164367395
 11
149.7471793074
 21
30.7873819712
  0
LINE
  8
0
 62
7
  6
CONTINUOUS
 10
153.1581166972
 20
31.3681283946
 11
153.2159293074
 21
31.2390736489
  0
LINE
  8
0
 62
7
  6
CONTINUOUS
 10
153.9674919177
 20
30.8841730531
 11
154.0253041972
 21
30.7551182848
  0
LINE
  8
0
 62
7
  6
CONTINUOUS
 10
153.5049916972
 20
31.2390736489
 11
153.4471794177
 21
31.400392081
  0
LINE
  8
0
 62
7
  6
CONTINUOUS
 10
153.9674919177
 20
31.4326557675
 11
153.9674919177
 21
31.3681283946
  0
LINE
  8
0
 62
7
  6
CONTINUOUS
 10
153.9674919177
 20
30.9809641124
 11
153.9674919177
 21
30.8841730531
  0
LINE
  8
0
 62
7
  6
CONTINUOUS
 10
154.245872955
 20
32.3970785186
 11
154.245872955
 21
36.1675703219
  0
LINE
  8
0
 62
7
  6
CONTINUOUS
 10
154.2565543074
 20
30.8519093441
 11
154.2565543074
 21
30.9164367395
  0
LINE
  8
0
 62
7
  6
CONTINUOUS
 10
154.5737418074
 20
36.1675703219
 11
154.5737418074
 21
32.3970785186
  0
LINE
  8
0
 62
7
  6
CONTINUOUS
 10
151.3659292523
 20
30.7873819712
 11
151.4237418626
 21
30.9164367395
  0
LINE
  8
0
 62
7
  6
CONTINUOUS
 10
155.759679528
 20
30.6905909007
 11
155.7018665869
 21
30.8519093441
  0
LINE
  8
0
 62
7
  6
CONTINUOUS
 10
155.412804528
 20
31.3681283946
 11
155.412804528
 21
31.2713373354
  0
LINE
  8
0
 62
7
  6
CONTINUOUS
 10
155.412804528
 20
31.1422825445
 11
155.412804528
 21
30.9487004259
  0
LINE
  8
0
 62
7
  6
CONTINUOUS
 10
155.7018665869
 20
30.8519093441
 11
155.7018665869
 21
31.3681283946
  0
LINE
  8
0
 62
7
  6
CONTINUOUS
 10
155.9671844304
 20
32.3970785186
 11
155.9671844304
 21
34.2003572071
  0
LINE
  8
0
 62
7
  6
CONTINUOUS
 10
155.9671844304
 20
35.511832617
 11
155.9671844304
 21
36.1675703219
  0
LINE
  8
0
 62
7
  6
CONTINUOUS
 10
156.279992028
 20
32.1101932727
 11
156.279992028
 21
31.9488748406
  0
LINE
  8
0
 62
7
  6
CONTINUOUS
 10
156.279992028
 20
31.626237886
 11
156.279992028
 21
30.5937998301
  0
LINE
  8
0
 62
7
  6
CONTINUOUS
 10
156.5690540869
 20
30.5937998301
 11
156.5690540869
 21
31.626237886
  0
LINE
  8
0
 62
7
  6
CONTINUOUS
 10
156.5690540869
 20
31.9488748406
 11
156.5690540869
 21
32.1101932727
  0
LINE
  8
0
 62
7
  6
CONTINUOUS
 10
151.1346793074
 20
30.9164367395
 11
151.0768668626
 21
30.8196456577
  0
LINE
  8
0
 62
7
  6
CONTINUOUS
 10
153.4471794177
 20
31.400392081
 11
153.3893668074
 21
31.4649194539
  0
LINE
  8
0
 62
7
  6
CONTINUOUS
 10
154.3143669177
 20
30.7873819712
 11
154.2565543074
 21
30.8519093441
  0
LINE
  8
0
 62
7
  6
CONTINUOUS
 10
155.4706168074
 20
30.6583272086
 11
155.5284290869
 21
30.5937998301
  0
LINE
  8
0
 62
7
  6
CONTINUOUS
 10
155.412804528
 20
30.7551182848
 11
155.4706168074
 21
30.6583272086
  0
LINE
  8
0
 62
7
  6
CONTINUOUS
 10
155.8174918074
 20
30.5937998301
 11
155.759679528
 21
30.6905909007
  0
LINE
  8
0
 62
7
  6
CONTINUOUS
 10
155.7018665869
 20
31.3681283946
 11
155.6440543074
 21
31.4649194539
  0
LINE
  8
0
 62
7
  6
CONTINUOUS
 10
157.0315543074
 20
31.626237886
 11
157.0315543074
 21
30.5937998301
  0
LINE
  8
0
 62
7
  6
CONTINUOUS
 10
157.320617028
 20
30.5937998301
 11
157.320617028
 21
31.3358647082
  0
LINE
  8
0
 62
7
  6
CONTINUOUS
 10
157.320617028
 20
31.4649194539
 11
157.320617028
 21
31.626237886
  0
LINE
  8
0
 62
7
  6
CONTINUOUS
 10
157.852430332
 20
34.6101932727
 11
157.852430332
 21
32.3970785186
  0
LINE
  8
0
 62
7
  6
CONTINUOUS
 10
149.7471793074
 20
31.4326557675
 11
149.6315543091
 21
31.3036010218
  0
LINE
  8
0
 62
7
  6
CONTINUOUS
 10
149.9206168074
 20
31.2713373354
 11
149.9784292936
 21
31.3358647082
  0
LINE
  8
0
 62
7
  6
CONTINUOUS
 10
149.7471793074
 20
30.7873819712
 11
149.8628043005
 21
30.7228545871
  0
LINE
  8
0
 62
7
  6
CONTINUOUS
 10
150.1518667936
 20
30.7873819712
 11
149.9784292936
 21
30.8841730531
  0
LINE
  8
0
 62
7
  6
CONTINUOUS
 10
155.3549915869
 20
31.4326557675
 11
155.412804528
 21
31.3681283946
  0
LINE
  8
0
 62
7
  6
CONTINUOUS
 10
158.3034290869
 20
31.3681283946
 11
158.361242028
 21
31.2068099625
  0
LINE
  8
0
 62
7
  6
CONTINUOUS
 10
158.6503040869
 20
31.2068099625
 11
158.5924918074
 21
31.3681283946
  0
LINE
  8
0
 62
7
  6
CONTINUOUS
 10
158.361242028
 20
31.2068099625
 11
158.361242028
 21
30.5937998301
  0
LINE
  8
0
 62
7
  6
CONTINUOUS
 10
158.6503040869
 20
30.5937998301
 11
158.6503040869
 21
31.2068099625
  0
LINE
  8
0
 62
7
  6
CONTINUOUS
 10
159.1128043074
 20
31.4326557675
 11
159.1128043074
 21
31.3681283946
  0
LINE
  8
0
 62
7
  6
CONTINUOUS
 10
159.245872955
 20
32.3970785186
 11
159.245872955
 21
34.5282260596
  0
LINE
  8
0
 62
7
  6
CONTINUOUS
 10
159.5737418074
 20
36.1675703219
 11
159.5737418074
 21
32.3970785186
  0
LINE
  8
0
 62
7
  6
CONTINUOUS
 10
154.2565543074
 20
30.9164367395
 11
154.3143669177
 21
31.0132277988
  0
LINE
  8
0
 62
7
  6
CONTINUOUS
 10
149.8628043005
 20
30.7228545871
 11
150.0362418212
 21
30.6583272086
  0
LINE
  8
0
 62
7
  6
CONTINUOUS
 10
151.3659292523
 20
31.4326557675
 11
151.1924917523
 21
31.5294468267
  0
LINE
  8
0
 62
7
  6
CONTINUOUS
 10
154.0253041972
 20
30.7551182848
 11
154.1987416972
 21
30.6583272086
  0
LINE
  8
0
 62
7
  6
CONTINUOUS
 10
153.0424918074
 20
31.4326557675
 11
153.1581166972
 21
31.3681283946
  0
LINE
  8
0
 62
7
  6
CONTINUOUS
 10
153.3893668074
 20
31.4649194539
 11
153.2737419177
 21
31.5294468267
  0
LINE
  8
0
 62
7
  6
CONTINUOUS
 10
159.1128043074
 20
30.8519093441
 11
159.228429528
 21
30.7228545871
  0
LINE
  8
0
 62
7
  6
CONTINUOUS
 10
159.4596793074
 20
30.7873819712
 11
159.401867028
 21
30.8519093441
  0
LINE
  8
0
 62
7
  6
CONTINUOUS
 10
159.1128043074
 20
31.3681283946
 11
159.228429528
 21
31.2390736489
  0
LINE
  8
0
 62
7
  6
CONTINUOUS
 10
158.5924918074
 20
31.3681283946
 11
158.534679528
 21
31.4649194539
  0
LINE
  8
0
 62
7
  6
CONTINUOUS
 10
160.9628038663
 20
30.7873819712
 11
160.9628038663
 21
30.8519093441
  0
LINE
  8
0
 62
7
  6
CONTINUOUS
 10
160.9671844304
 20
32.3970785186
 11
160.9671844304
 21
36.1675703219
  0
LINE
  8
0
 62
7
  6
CONTINUOUS
 10
154.0253041972
 20
31.4971831403
 11
153.9674919177
 21
31.4326557675
  0
LINE
  8
0
 62
7
  6
CONTINUOUS
 10
150.9034292799
 20
31.4649194539
 11
151.0768668626
 21
31.400392081
  0
LINE
  8
0
 62
7
  6
CONTINUOUS
 10
155.6440543074
 20
31.4649194539
 11
155.5284290869
 21
31.5294468267
  0
LINE
  8
0
 62
7
  6
CONTINUOUS
 10
159.4596793074
 20
31.3036010218
 11
159.401867028
 21
31.3681283946
  0
LINE
  8
0
 62
7
  6
CONTINUOUS
 10
160.615929528
 20
30.9164367395
 11
160.6737418074
 21
30.8519093441
  0
LINE
  8
0
 62
7
  6
CONTINUOUS
 10
160.9628038663
 20
30.8519093441
 11
160.8471793074
 21
30.9809641124
  0
LINE
  8
0
 62
7
  6
CONTINUOUS
 10
160.615929528
 20
31.4326557675
 11
160.6737418074
 21
31.3681283946
  0
LINE
  8
0
 62
7
  6
CONTINUOUS
 10
160.9628038663
 20
31.3681283946
 11
160.8471793074
 21
31.4971831403
  0
LINE
  8
0
 62
7
  6
CONTINUOUS
 10
154.2565543074
 20
31.3681283946
 11
154.3143669177
 21
31.4326557675
  0
LINE
  8
0
 62
7
  6
CONTINUOUS
 10
154.0831168074
 20
31.1100188581
 11
153.9674919177
 21
30.9809641124
  0
LINE
  8
0
 62
7
  6
CONTINUOUS
 10
155.412804528
 20
30.9487004259
 11
155.3549915869
 21
30.8841730531
  0
LINE
  8
0
 62
7
  6
CONTINUOUS
 10
155.3549915869
 20
30.6905909007
 11
155.412804528
 21
30.7551182848
  0
LINE
  8
0
 62
7
  6
CONTINUOUS
 10
154.1987416972
 20
30.6583272086
 11
154.3143669177
 21
30.6260635193
  0
LINE
  8
0
 62
7
  6
CONTINUOUS
 10
151.1924917523
 20
31.5294468267
 11
150.9612418074
 21
31.5939741996
  0
LINE
  8
0
 62
7
  6
CONTINUOUS
 10
154.5456166972
 20
30.7228545871
 11
154.3143669177
 21
30.7873819712
  0
LINE
  8
0
 62
7
  6
CONTINUOUS
 10
153.2737419177
 20
31.5294468267
 11
153.1003044177
 21
31.5939741996
  0
LINE
  8
0
 62
7
  6
CONTINUOUS
 10
155.5284290869
 20
31.5294468267
 11
155.3549915869
 21
31.5939741996
  0
LINE
  8
0
 62
7
  6
CONTINUOUS
 10
158.187804528
 20
31.4326557675
 11
158.3034290869
 21
31.3681283946
  0
LINE
  8
0
 62
7
  6
CONTINUOUS
 10
158.534679528
 20
31.4649194539
 11
158.4190543074
 21
31.5294468267
  0
LINE
  8
0
 62
7
  6
CONTINUOUS
 10
150.0362418212
 20
30.6583272086
 11
150.2096793212
 21
30.6260635193
  0
LINE
  8
0
 62
7
  6
CONTINUOUS
 10
150.498741835
 20
30.7228545871
 11
150.1518667936
 21
30.7873819712
  0
LINE
  8
0
 62
7
  6
CONTINUOUS
 10
152.9268669177
 20
31.4649194539
 11
153.0424918074
 21
31.4326557675
  0
LINE
  8
0
 62
7
  6
CONTINUOUS
 10
155.239367028
 20
31.4649194539
 11
155.3549915869
 21
31.4326557675
  0
LINE
  8
0
 62
7
  6
CONTINUOUS
 10
159.575304528
 20
30.7551182848
 11
159.4596793074
 21
30.7873819712
  0
LINE
  8
0
 62
7
  6
CONTINUOUS
 10
158.0721793074
 20
31.4649194539
 11
158.187804528
 21
31.4326557675
  0
LINE
  8
0
 62
7
  6
CONTINUOUS
 10
159.228429528
 20
30.7228545871
 11
159.401867028
 21
30.6583272086
  0
LINE
  8
0
 62
7
  6
CONTINUOUS
 10
158.4190543074
 20
31.5294468267
 11
158.2456168074
 21
31.5939741996
  0
LINE
  8
0
 62
7
  6
CONTINUOUS
 10
159.6331168074
 20
31.2390736489
 11
159.4596793074
 21
31.3036010218
  0
LINE
  8
0
 62
7
  6
CONTINUOUS
 10
160.442492028
 20
30.9809641124
 11
160.615929528
 21
30.9164367395
  0
LINE
  8
0
 62
7
  6
CONTINUOUS
 10
160.8471793074
 20
31.4971831403
 11
160.6737418074
 21
31.5617105132
  0
LINE
  8
0
 62
7
  6
CONTINUOUS
 10
159.228429528
 20
31.2390736489
 11
159.4596793074
 21
31.1422825445
  0
LINE
  8
0
 62
7
  6
CONTINUOUS
 10
160.8471793074
 20
30.9809641124
 11
160.615929528
 21
31.0777551716
  0
LINE
  8
0
 62
7
  6
CONTINUOUS
 10
159.401867028
 20
31.3681283946
 11
159.4596793074
 21
31.4326557675
  0
LINE
  8
0
 62
7
  6
CONTINUOUS
 10
149.8628043005
 20
31.4971831403
 11
149.7471793074
 21
31.4326557675
  0
LINE
  8
0
 62
7
  6
CONTINUOUS
 10
149.9784292936
 20
31.3358647082
 11
150.1518667936
 21
31.4326557675
  0
LINE
  8
0
 62
7
  6
CONTINUOUS
 10
152.2909293626
 20
31.5294468267
 11
152.1753043074
 21
31.4649194539
  0
LINE
  8
0
 62
7
  6
CONTINUOUS
 10
152.1753043074
 20
31.3358647082
 11
152.2909293626
 21
31.400392081
  0
LINE
  8
0
 62
7
  6
CONTINUOUS
 10
151.1924917523
 20
30.6905909007
 11
151.3659292523
 21
30.7873819712
  0
LINE
  8
0
 62
7
  6
CONTINUOUS
 10
150.2096793212
 20
30.6260635193
 11
150.5565542799
 21
30.5937998301
  0
LINE
  8
0
 62
7
  6
CONTINUOUS
 10
154.3143669177
 20
30.6260635193
 11
154.5456166972
 21
30.5937998301
  0
LINE
  8
0
 62
7
  6
CONTINUOUS
 10
152.6956168074
 20
31.4971831403
 11
152.9268669177
 21
31.4649194539
  0
LINE
  8
0
 62
7
  6
CONTINUOUS
 10
155.0081169177
 20
31.4971831403
 11
155.239367028
 21
31.4649194539
  0
LINE
  8
0
 62
7
  6
CONTINUOUS
 10
159.4596793074
 20
31.1422825445
 11
160.442492028
 21
30.9809641124
  0
LINE
  8
0
 62
7
  6
CONTINUOUS
 10
160.615929528
 20
31.0777551716
 11
159.6331168074
 21
31.2390736489
  0
LINE
  8
0
 62
7
  6
CONTINUOUS
 10
153.1003044177
 20
31.5939741996
 11
152.9268669177
 21
31.626237886
  0
LINE
  8
0
 62
7
  6
CONTINUOUS
 10
159.401867028
 20
30.6583272086
 11
159.575304528
 21
30.6260635193
  0
LINE
  8
0
 62
7
  6
CONTINUOUS
 10
158.2456168074
 20
31.5939741996
 11
158.0721793074
 21
31.626237886
  0
LINE
  8
0
 62
7
  6
CONTINUOUS
 10
160.5003043074
 20
31.4649194539
 11
160.615929528
 21
31.4326557675
  0
LINE
  8
0
 62
7
  6
CONTINUOUS
 10
160.6737418074
 20
30.8519093441
 11
160.615929528
 21
30.7873819712
  0
LINE
  8
0
 62
7
  6
CONTINUOUS
 10
159.228429528
 20
31.5294468267
 11
159.1128043074
 21
31.4326557675
  0
LINE
  8
0
 62
7
  6
CONTINUOUS
 10
154.1409294177
 20
31.5617105132
 11
154.0253041972
 21
31.4971831403
  0
LINE
  8
0
 62
7
  6
CONTINUOUS
 10
154.1987416972
 20
31.1745462761
 11
154.0831168074
 21
31.1100188581
  0
LINE
  8
0
 62
7
  6
CONTINUOUS
 10
154.3143669177
 20
31.0132277988
 11
154.4299918074
 21
31.0777551716
  0
LINE
  8
0
 62
7
  6
CONTINUOUS
 10
151.8862417523
 20
30.5937998301
 11
152.1753043074
 21
30.5937998301
  0
LINE
  8
0
 62
7
  6
CONTINUOUS
 10
153.2159293074
 20
30.5937998301
 11
153.5049916972
 21
30.5937998301
  0
LINE
  8
0
 62
7
  6
CONTINUOUS
 10
154.5456166972
 20
30.5937998301
 11
154.8924916972
 21
30.5937998301
  0
LINE
  8
0
 62
7
  6
CONTINUOUS
 10
155.5284290869
 20
30.5937998301
 11
155.8174918074
 21
30.5937998301
  0
LINE
  8
0
 62
7
  6
CONTINUOUS
 10
156.279992028
 20
30.5937998301
 11
156.5690540869
 21
30.5937998301
  0
LINE
  8
0
 62
7
  6
CONTINUOUS
 10
157.0315543074
 20
30.5937998301
 11
157.320617028
 21
30.5937998301
  0
LINE
  8
0
 62
7
  6
CONTINUOUS
 10
158.361242028
 20
30.5937998301
 11
158.6503040869
 21
30.5937998301
  0
LINE
  8
0
 62
7
  6
CONTINUOUS
 10
159.922179528
 20
30.5937998301
 11
160.269054528
 21
30.5937998301
  0
LINE
  8
0
 62
7
  6
CONTINUOUS
 10
160.269054528
 20
30.7228545871
 11
159.922179528
 21
30.7228545871
  0
LINE
  8
0
 62
7
  6
CONTINUOUS
 10
154.8924916972
 20
30.7228545871
 11
154.5456166972
 21
30.7228545871
  0
LINE
  8
0
 62
7
  6
CONTINUOUS
 10
159.401867028
 20
30.8519093441
 11
159.1128043074
 21
30.8519093441
  0
LINE
  8
0
 62
7
  6
CONTINUOUS
 10
151.4237418626
 20
30.9164367395
 11
151.1346793074
 21
30.9164367395
  0
LINE
  8
0
 62
7
  6
CONTINUOUS
 10
150.498741835
 20
31.4971831403
 11
150.9034292799
 21
31.4649194539
  0
LINE
  8
0
 62
7
  6
CONTINUOUS
 10
150.9612418074
 20
31.5939741996
 11
150.5565542799
 21
31.626237886
  0
LINE
  8
0
 62
7
  6
CONTINUOUS
 10
159.575304528
 20
30.6260635193
 11
159.922179528
 21
30.5937998301
  0
LINE
  8
0
 62
7
  6
CONTINUOUS
 10
159.922179528
 20
30.7228545871
 11
159.575304528
 21
30.7551182848
  0
LINE
  8
0
 62
7
  6
CONTINUOUS
 10
155.3549915869
 20
31.5939741996
 11
155.0081169177
 21
31.626237886
  0
LINE
  8
0
 62
7
  6
CONTINUOUS
 10
160.1534293074
 20
31.4971831403
 11
160.5003043074
 21
31.4649194539
  0
LINE
  8
0
 62
7
  6
CONTINUOUS
 10
160.5003043074
 20
31.5939741996
 11
160.1534293074
 21
31.626237886
  0
LINE
  8
0
 62
7
  6
CONTINUOUS
 10
157.840929528
 20
31.4971831403
 11
158.0721793074
 21
31.4649194539
  0
LINE
  8
0
 62
7
  6
CONTINUOUS
 10
160.6737418074
 20
31.5617105132
 11
160.5003043074
 21
31.5939741996
  0
LINE
  8
0
 62
7
  6
CONTINUOUS
 10
160.8471793074
 20
30.6905909007
 11
160.9628038663
 21
30.7873819712
  0
LINE
  8
0
 62
7
  6
CONTINUOUS
 10
155.3549915869
 20
30.8841730531
 11
155.1815540869
 21
30.7873819712
  0
LINE
  8
0
 62
7
  6
CONTINUOUS
 10
157.4362415869
 20
31.5294468267
 11
157.320617028
 21
31.4649194539
  0
LINE
  8
0
 62
7
  6
CONTINUOUS
 10
157.320617028
 20
31.3358647082
 11
157.4362415869
 21
31.400392081
  0
LINE
  8
0
 62
7
  6
CONTINUOUS
 10
150.0362418212
 20
31.5617105132
 11
149.8628043005
 21
31.4971831403
  0
LINE
  8
0
 62
7
  6
CONTINUOUS
 10
152.4643666972
 20
31.5939741996
 11
152.2909293626
 21
31.5294468267
  0
LINE
  8
0
 62
7
  6
CONTINUOUS
 10
152.2909293626
 20
31.400392081
 11
152.4643666972
 21
31.4649194539
  0
LINE
  8
0
 62
7
  6
CONTINUOUS
 10
151.0768668626
 20
30.8196456577
 11
150.9034292799
 21
30.7551182848
  0
LINE
  8
0
 62
7
  6
CONTINUOUS
 10
160.5003043074
 20
30.7551182848
 11
160.269054528
 21
30.7228545871
  0
LINE
  8
0
 62
7
  6
CONTINUOUS
 10
154.8924916972
 20
30.5937998301
 11
155.1815540869
 21
30.6260635193
  0
LINE
  8
0
 62
7
  6
CONTINUOUS
 10
160.269054528
 20
30.5937998301
 11
160.615929528
 21
30.6260635193
  0
LINE
  8
0
 62
7
  6
CONTINUOUS
 10
150.5565542799
 20
30.5937998301
 11
150.9612418074
 21
30.6260635193
  0
LINE
  8
0
 62
7
  6
CONTINUOUS
 10
150.9034292799
 20
30.7551182848
 11
150.498741835
 21
30.7228545871
  0
LINE
  8
0
 62
7
  6
CONTINUOUS
 10
154.7768668074
 20
31.1422825445
 11
155.412804528
 21
31.1422825445
  0
LINE
  8
0
 62
7
  6
CONTINUOUS
 10
155.412804528
 20
31.2713373354
 11
154.7768668074
 21
31.2713373354
  0
LINE
  8
0
 62
7
  6
CONTINUOUS
 10
151.1346793074
 20
31.3036010218
 11
151.4237418626
 21
31.3036010218
  0
LINE
  8
0
 62
7
  6
CONTINUOUS
 10
153.9674919177
 20
31.3681283946
 11
154.2565543074
 21
31.3681283946
  0
LINE
  8
0
 62
7
  6
CONTINUOUS
 10
160.6737418074
 20
31.3681283946
 11
160.9628038663
 21
31.3681283946
  0
LINE
  8
0
 62
7
  6
CONTINUOUS
 10
154.6612419177
 20
31.4971831403
 11
155.0081169177
 21
31.4971831403
  0
LINE
  8
0
 62
7
  6
CONTINUOUS
 10
159.8065543074
 20
31.4971831403
 11
160.1534293074
 21
31.4971831403
  0
LINE
  8
0
 62
7
  6
CONTINUOUS
 10
160.1534293074
 20
31.626237886
 11
159.8065543074
 21
31.626237886
  0
LINE
  8
0
 62
7
  6
CONTINUOUS
 10
158.0721793074
 20
31.626237886
 11
157.840929528
 21
31.626237886
  0
LINE
  8
0
 62
7
  6
CONTINUOUS
 10
157.320617028
 20
31.626237886
 11
157.0315543074
 21
31.626237886
  0
LINE
  8
0
 62
7
  6
CONTINUOUS
 10
156.5690540869
 20
31.626237886
 11
156.279992028
 21
31.626237886
  0
LINE
  8
0
 62
7
  6
CONTINUOUS
 10
155.0081169177
 20
31.626237886
 11
154.6612419177
 21
31.626237886
  0
LINE
  8
0
 62
7
  6
CONTINUOUS
 10
152.9268669177
 20
31.626237886
 11
152.6956168074
 21
31.626237886
  0
LINE
  8
0
 62
7
  6
CONTINUOUS
 10
156.279992028
 20
31.9488748406
 11
156.5690540869
 21
31.9488748406
  0
LINE
  8
0
 62
7
  6
CONTINUOUS
 10
156.5690540869
 20
32.1101932727
 11
156.279992028
 21
32.1101932727
  0
LINE
  8
0
 62
7
  6
CONTINUOUS
 10
152.1753043074
 20
32.1101932727
 11
151.8862417523
 21
32.1101932727
  0
LINE
  8
0
 62
7
  6
CONTINUOUS
 10
151.2130860697
 20
32.3970785186
 11
151.6256574183
 21
32.3970785186
  0
LINE
  8
0
 62
7
  6
CONTINUOUS
 10
152.852430332
 20
32.3970785186
 11
154.245872955
 21
32.3970785186
  0
LINE
  8
0
 62
7
  6
CONTINUOUS
 10
154.5737418074
 20
32.3970785186
 11
155.9671844304
 21
32.3970785186
  0
LINE
  8
0
 62
7
  6
CONTINUOUS
 10
157.852430332
 20
32.3970785186
 11
159.245872955
 21
32.3970785186
  0
LINE
  8
0
 62
7
  6
CONTINUOUS
 10
159.5737418074
 20
32.3970785186
 11
160.9671844304
 21
32.3970785186
  0
LINE
  8
0
 62
7
  6
CONTINUOUS
 10
157.6096790869
 20
31.5939741996
 11
157.4362415869
 21
31.5294468267
  0
LINE
  8
0
 62
7
  6
CONTINUOUS
 10
155.1815540869
 20
30.6260635193
 11
155.3549915869
 21
30.6905909007
  0
LINE
  8
0
 62
7
  6
CONTINUOUS
 10
160.615929528
 20
30.6260635193
 11
160.8471793074
 21
30.6905909007
  0
LINE
  8
0
 62
7
  6
CONTINUOUS
 10
160.615929528
 20
30.7873819712
 11
160.5003043074
 21
30.7551182848
  0
LINE
  8
0
 62
7
  6
CONTINUOUS
 10
159.575304528
 20
31.4649194539
 11
159.8065543074
 21
31.4971831403
  0
LINE
  8
0
 62
7
  6
CONTINUOUS
 10
157.6096790869
 20
31.4649194539
 11
157.840929528
 21
31.4971831403
  0
LINE
  8
0
 62
7
  6
CONTINUOUS
 10
154.5456166972
 20
31.1100188581
 11
154.7768668074
 21
31.1422825445
  0
LINE
  8
0
 62
7
  6
CONTINUOUS
 10
157.840929528
 20
31.626237886
 11
157.6096790869
 21
31.5939741996
  0
LINE
  8
0
 62
7
  6
CONTINUOUS
 10
154.4299918074
 20
31.4649194539
 11
154.6612419177
 21
31.4971831403
  0
LINE
  8
0
 62
7
  6
CONTINUOUS
 10
159.8065543074
 20
31.626237886
 11
159.4596793074
 21
31.5939741996
  0
LINE
  8
0
 62
7
  6
CONTINUOUS
 10
154.7768668074
 20
31.2713373354
 11
154.4299918074
 21
31.2390736489
  0
LINE
  8
0
 62
7
  6
CONTINUOUS
 10
150.5565542799
 20
31.626237886
 11
150.2096793212
 21
31.5939741996
  0
LINE
  8
0
 62
7
  6
CONTINUOUS
 10
154.6612419177
 20
31.626237886
 11
154.2565543074
 21
31.5939741996
  0
LINE
  8
0
 62
7
  6
CONTINUOUS
 10
152.0327582009
 20
33.5446195022
 11
151.3770204959
 21
33.5446195022
  0
LINE
  8
0
 62
7
  6
CONTINUOUS
 10
157.4362415869
 20
31.400392081
 11
157.6096790869
 21
31.4649194539
  0
LINE
  8
0
 62
7
  6
CONTINUOUS
 10
159.4596793074
 20
31.4326557675
 11
159.575304528
 21
31.4649194539
  0
LINE
  8
0
 62
7
  6
CONTINUOUS
 10
159.4596793074
 20
31.5939741996
 11
159.228429528
 21
31.5294468267
  0
LINE
  8
0
 62
7
  6
CONTINUOUS
 10
155.1815540869
 20
30.7873819712
 11
154.8924916972
 21
30.7228545871
  0
LINE
  8
0
 62
7
  6
CONTINUOUS
 10
152.4643666972
 20
31.4649194539
 11
152.6956168074
 21
31.4971831403
  0
LINE
  8
0
 62
7
  6
CONTINUOUS
 10
152.6956168074
 20
31.626237886
 11
152.4643666972
 21
31.5939741996
  0
LINE
  8
0
 62
7
  6
CONTINUOUS
 10
150.2674918074
 20
31.4649194539
 11
150.498741835
 21
31.4971831403
  0
LINE
  8
0
 62
7
  6
CONTINUOUS
 10
156.7868565615
 20
35.0200293383
 11
157.4425942664
 21
35.0200293383
  0
LINE
  8
0
 62
7
  6
CONTINUOUS
 10
154.4299918074
 20
31.0777551716
 11
154.5456166972
 21
31.1100188581
  0
LINE
  8
0
 62
7
  6
CONTINUOUS
 10
154.4299918074
 20
31.2390736489
 11
154.1987416972
 21
31.1745462761
  0
LINE
  8
0
 62
7
  6
CONTINUOUS
 10
154.3143669177
 20
31.4326557675
 11
154.4299918074
 21
31.4649194539
  0
LINE
  8
0
 62
7
  6
CONTINUOUS
 10
150.9612418074
 20
30.6260635193
 11
151.1924917523
 21
30.6905909007
  0
LINE
  8
0
 62
7
  6
CONTINUOUS
 10
154.2565543074
 20
31.5939741996
 11
154.1409294177
 21
31.5617105132
  0
LINE
  8
0
 62
7
  6
CONTINUOUS
 10
150.2096793212
 20
31.5939741996
 11
150.0362418212
 21
31.5617105132
  0
LINE
  8
0
 62
7
  6
CONTINUOUS
 10
160.9671844304
 20
36.1675703219
 11
159.5737418074
 21
36.1675703219
  0
LINE
  8
0
 62
7
  6
CONTINUOUS
 10
157.6065286927
 20
36.1675703219
 11
157.1939573441
 21
36.1675703219
  0
LINE
  8
0
 62
7
  6
CONTINUOUS
 10
155.9671844304
 20
36.1675703219
 11
154.5737418074
 21
36.1675703219
  0
LINE
  8
0
 62
7
  6
CONTINUOUS
 10
154.245872955
 20
36.1675703219
 11
152.852430332
 21
36.1675703219
  0
LINE
  8
0
 62
7
  6
CONTINUOUS
 10
150.9671844304
 20
36.1675703219
 11
149.5737418074
 21
36.1675703219
  0
LINE
  8
0
 62
7
  6
CONTINUOUS
 10
150.1518667936
 20
31.4326557675
 11
150.2674918074
 21
31.4649194539
  0
CIRCLE
  8
0
 62
7
  6
CONTINUOUS
 10
160.2704631189
 20
38.5036358957
 40
2.0901639344
  0
ARC
  8
0
 62
7
  6
CONTINUOUS
 10
151.2130860697
 20
34.0364227809
 40
1.6393442623
 50
180.0
 51
270.0
  0
ARC
  8
0
 62
7
  6
CONTINUOUS
 10
157.6065286927
 20
34.5282260596
 40
1.6393442623
 50
0.0
 51
90.0
  0
ARC
  8
0
 62
7
  6
CONTINUOUS
 10
151.6256574183
 20
33.8724883547
 40
1.4754098361
 50
270.0
 51
326.2510114041
  0
ARC
  8
0
 62
7
  6
CONTINUOUS
 10
157.1939573441
 20
34.6921604858
 40
1.4754098361
 50
90.0
 51
146.2510114041
  0
ARC
  8
0
 62
7
  6
CONTINUOUS
 10
152.0327582009
 20
34.3642916334
 40
0.8196721311
 50
270.0
 51
360.0
  0
ARC
  8
0
 62
7
  6
CONTINUOUS
 10
156.7868565615
 20
34.2003572071
 40
0.8196721311
 50
90.0
 51
180.0
  0
ARC
  8
0
 62
7
  6
CONTINUOUS
 10
151.3770204959
 20
33.9544555678
 40
0.4098360656
 50
180.0
 51
270.0
  0
ARC
  8
0
 62
7
  6
CONTINUOUS
 10
157.4425942664
 20
34.6101932727
 40
0.4098360656
 50
0.0
 51
90.0
  0
SOLID
  8
0
 62
7
  6
CONTINUOUS
 10
156.279992028
 20
31.9488752009
 11
156.279992028
 21
32.1101936845
 12
156.5690540869
 22
31.9488752009
 13
156.5690540869
 23
32.1101936845
  0
SOLID
  8
0
 62
7
  6
CONTINUOUS
 10
150.5565542799
 20
31.6262382337
 11
150.9612418074
 21
31.5939740028
 12
150.2096793212
 22
31.5939740028
 13
150.2096793212
 23
31.5939740028
  0
SOLID
  8
0
 62
7
  6
CONTINUOUS
 10
150.0362418212
 20
31.5617111435
 11
150.2096793212
 21
31.5939740028
 12
150.9612418074
 22
31.5939740028
 13
150.9612418074
 23
31.5939740028
  0
SOLID
  8
0
 62
7
  6
CONTINUOUS
 10
150.9612418074
 20
31.5939740028
 11
151.1924917523
 21
31.5294468402
 12
150.0362418212
 22
31.5617111435
 13
150.0362418212
 23
31.5617111435
  0
SOLID
  8
0
 62
7
  6
CONTINUOUS
 10
149.8628043005
 20
31.49718259
 11
150.0362418212
 21
31.5617111435
 12
151.1924917523
 22
31.5294468402
 13
151.1924917523
 23
31.5294468402
  0
SOLID
  8
0
 62
7
  6
CONTINUOUS
 10
149.8628043005
 20
31.49718259
 11
151.1924917523
 21
31.5294468402
 12
150.498741835
 22
31.49718259
 13
150.498741835
 23
31.49718259
  0
SOLID
  8
0
 62
7
  6
CONTINUOUS
 10
150.498741835
 20
31.49718259
 11
151.1924917523
 21
31.5294468402
 12
150.9034292799
 22
31.4649197501
 13
150.9034292799
 23
31.4649197501
  0
SOLID
  8
0
 62
7
  6
CONTINUOUS
 10
151.1924917523
 20
31.5294468402
 11
151.3659292523
 21
31.4326554468
 12
150.9034292799
 22
31.4649197501
 13
150.9034292799
 23
31.4649197501
  0
SOLID
  8
0
 62
7
  6
CONTINUOUS
 10
151.0768668626
 20
31.4003926599
 11
150.9034292799
 21
31.4649197501
 12
151.3659292523
 22
31.4326554468
 13
151.3659292523
 23
31.4326554468
  0
SOLID
  8
0
 62
7
  6
CONTINUOUS
 10
151.0768668626
 20
31.4003926599
 11
151.3659292523
 21
31.4326554468
 12
151.1346793074
 22
31.3036013776
 13
151.1346793074
 23
31.3036013776
  0
SOLID
  8
0
 62
7
  6
CONTINUOUS
 10
151.3659292523
 20
31.4326554468
 11
151.4237418626
 21
31.3036013776
 12
151.1346793074
 22
31.3036013776
 13
151.1346793074
 23
31.3036013776
  0
SOLID
  8
0
 62
7
  6
CONTINUOUS
 10
152.4643666972
 20
31.5939739754
 11
152.6956168074
 21
31.6262382787
 12
152.9268669177
 22
31.6262382787
 13
152.9268669177
 23
31.6262382787
  0
SOLID
  8
0
 62
7
  6
CONTINUOUS
 10
152.9268669177
 20
31.6262382787
 11
153.1003044177
 21
31.5939739754
 12
152.4643666972
 22
31.5939739754
 13
152.4643666972
 23
31.5939739754
  0
SOLID
  8
0
 62
7
  6
CONTINUOUS
 10
152.2909293626
 20
31.5294468852
 11
152.4643666972
 21
31.5939739754
 12
153.1003044177
 22
31.5939739754
 13
153.1003044177
 23
31.5939739754
  0
SOLID
  8
0
 62
7
  6
CONTINUOUS
 10
153.1003044177
 20
31.5939739754
 11
153.2737419177
 21
31.5294468852
 12
152.2909293626
 22
31.5294468852
 13
152.2909293626
 23
31.5294468852
  0
SOLID
  8
0
 62
7
  6
CONTINUOUS
 10
153.2737419177
 20
31.5294468852
 11
152.6956168074
 21
31.4971825369
 12
152.2909293626
 22
31.5294468852
 13
152.2909293626
 23
31.5294468852
  0
SOLID
  8
0
 62
7
  6
CONTINUOUS
 10
152.1753043074
 20
31.4649197951
 11
152.2909293626
 21
31.5294468852
 12
152.6956168074
 22
31.4971825369
 13
152.6956168074
 23
31.4971825369
  0
SOLID
  8
0
 62
7
  6
CONTINUOUS
 10
152.6956168074
 20
31.4971825369
 11
152.4643666972
 21
31.4649197951
 12
152.1753043074
 22
31.4649197951
 13
152.1753043074
 23
31.4649197951
  0
SOLID
  8
0
 62
7
  6
CONTINUOUS
 10
152.6956168074
 20
31.4971825369
 11
153.2737419177
 21
31.5294468852
 12
152.9268669177
 22
31.4649197951
 13
152.9268669177
 23
31.4649197951
  0
SOLID
  8
0
 62
7
  6
CONTINUOUS
 10
153.2737419177
 20
31.5294468852
 11
153.3893668074
 21
31.4649197951
 12
152.9268669177
 22
31.4649197951
 13
152.9268669177
 23
31.4649197951
  0
SOLID
  8
0
 62
7
  6
CONTINUOUS
 10
153.0424918074
 20
31.4326554468
 11
152.9268669177
 21
31.4649197951
 12
153.3893668074
 22
31.4649197951
 13
153.3893668074
 23
31.4649197951
  0
SOLID
  8
0
 62
7
  6
CONTINUOUS
 10
153.3893668074
 20
31.4649197951
 11
153.4471794177
 21
31.4003927049
 12
153.0424918074
 22
31.4326554468
 13
153.0424918074
 23
31.4326554468
  0
SOLID
  8
0
 62
7
  6
CONTINUOUS
 10
153.1581166972
 20
31.3681283566
 11
153.0424918074
 21
31.4326554468
 12
153.4471794177
 22
31.4003927049
 13
153.4471794177
 23
31.4003927049
  0
SOLID
  8
0
 62
7
  6
CONTINUOUS
 10
153.1581166972
 20
31.3681283566
 11
153.4471794177
 21
31.4003927049
 12
153.2159293074
 22
31.2390742213
 13
153.2159293074
 23
31.2390742213
  0
SOLID
  8
0
 62
7
  6
CONTINUOUS
 10
153.4471794177
 20
31.4003927049
 11
153.5049916972
 21
31.2390742213
 12
153.2159293074
 22
31.2390742213
 13
153.2159293074
 23
31.2390742213
  0
SOLID
  8
0
 62
7
  6
CONTINUOUS
 10
152.4643666972
 20
31.4649197951
 11
152.2909293626
 21
31.4003927049
 12
152.1753043074
 22
31.4649197951
 13
152.1753043074
 23
31.4649197951
  0
SOLID
  8
0
 62
7
  6
CONTINUOUS
 10
152.2909293626
 20
31.4003927049
 11
152.1753043074
 21
31.3358640533
 12
152.1753043074
 22
31.4649197951
 13
152.1753043074
 23
31.4649197951
  0
SOLID
  8
0
 62
7
  6
CONTINUOUS
 10
152.1753043074
 20
31.3358640533
 11
151.8862417523
 21
30.5938002869
 12
152.1753043074
 22
31.4649197951
 13
152.1753043074
 23
31.4649197951
  0
SOLID
  8
0
 62
7
  6
CONTINUOUS
 10
152.1753043074
 20
31.4649197951
 11
151.8862417523
 21
30.5938002869
 12
152.1753043074
 22
32.1101937295
 13
152.1753043074
 23
32.1101937295
  0
SOLID
  8
0
 62
7
  6
CONTINUOUS
 10
151.8862417523
 20
30.5938002869
 11
151.8862417523
 21
32.1101937295
 12
152.1753043074
 22
32.1101937295
 13
152.1753043074
 23
32.1101937295
  0
SOLID
  8
0
 62
7
  6
CONTINUOUS
 10
152.1753043074
 20
31.3358640533
 11
152.1753043074
 21
30.5938002869
 12
151.8862417523
 22
30.5938002869
 13
151.8862417523
 23
30.5938002869
  0
SOLID
  8
0
 62
7
  6
CONTINUOUS
 10
153.2159293074
 20
30.5938002869
 11
153.2159293074
 21
31.2390742213
 12
153.5049916972
 22
31.2390742213
 13
153.5049916972
 23
31.2390742213
  0
SOLID
  8
0
 62
7
  6
CONTINUOUS
 10
153.5049916972
 20
31.2390742213
 11
153.5049916972
 21
30.5938002869
 12
153.2159293074
 22
30.5938002869
 13
153.2159293074
 23
30.5938002869
  0
SOLID
  8
0
 62
7
  6
CONTINUOUS
 10
154.2565543074
 20
31.5939738288
 11
154.6612419177
 21
31.6262385959
 12
155.0081169177
 22
31.6262385959
 13
155.0081169177
 23
31.6262385959
  0
SOLID
  8
0
 62
7
  6
CONTINUOUS
 10
155.0081169177
 20
31.6262385959
 11
155.3549915869
 21
31.5939738288
 12
154.2565543074
 22
31.5939738288
 13
154.2565543074
 23
31.5939738288
  0
SOLID
  8
0
 62
7
  6
CONTINUOUS
 10
154.1409294177
 20
31.5617111435
 11
154.2565543074
 21
31.5939738288
 12
155.3549915869
 22
31.5939738288
 13
155.3549915869
 23
31.5939738288
  0
SOLID
  8
0
 62
7
  6
CONTINUOUS
 10
155.3549915869
 20
31.5939738288
 11
155.5284290869
 21
31.5294468402
 12
154.1409294177
 22
31.5617111435
 13
154.1409294177
 23
31.5617111435
  0
SOLID
  8
0
 62
7
  6
CONTINUOUS
 10
154.0253041972
 20
31.4971826249
 11
154.1409294177
 21
31.5617111435
 12
155.5284290869
 22
31.5294468402
 13
155.5284290869
 23
31.5294468402
  0
SOLID
  8
0
 62
7
  6
CONTINUOUS
 10
154.0253041972
 20
31.4971826249
 11
155.5284290869
 21
31.5294468402
 12
154.6612419177
 22
31.4971826249
 13
154.6612419177
 23
31.4971826249
  0
SOLID
  8
0
 62
7
  6
CONTINUOUS
 10
154.6612419177
 20
31.4971826249
 11
155.5284290869
 21
31.5294468402
 12
155.0081169177
 22
31.4971826249
 13
155.0081169177
 23
31.4971826249
  0
SOLID
  8
0
 62
7
  6
CONTINUOUS
 10
155.0081169177
 20
31.4971826249
 11
155.5284290869
 21
31.5294468402
 12
155.239367028
 22
31.4649194065
 13
155.239367028
 23
31.4649194065
  0
SOLID
  8
0
 62
7
  6
CONTINUOUS
 10
155.5284290869
 20
31.5294468402
 11
155.6440543074
 21
31.4649194065
 12
155.239367028
 22
31.4649194065
 13
155.239367028
 23
31.4649194065
  0
SOLID
  8
0
 62
7
  6
CONTINUOUS
 10
153.9674919177
 20
31.4326554138
 11
154.0253041972
 21
31.4971826249
 12
154.6612419177
 22
31.4971826249
 13
154.6612419177
 23
31.4971826249
  0
SOLID
  8
0
 62
7
  6
CONTINUOUS
 10
155.3549915869
 20
31.4326554138
 11
155.239367028
 21
31.4649194065
 12
155.6440543074
 22
31.4649194065
 13
155.6440543074
 23
31.4649194065
  0
SOLID
  8
0
 62
7
  6
CONTINUOUS
 10
155.3549915869
 20
31.4326554138
 11
155.6440543074
 21
31.4649194065
 12
155.412804528
 22
31.3681282026
 13
155.412804528
 23
31.3681282026
  0
SOLID
  8
0
 62
7
  6
CONTINUOUS
 10
155.6440543074
 20
31.4649194065
 11
155.7018665869
 21
31.3681282026
 12
155.412804528
 22
31.3681282026
 13
155.412804528
 23
31.3681282026
  0
SOLID
  8
0
 62
7
  6
CONTINUOUS
 10
155.412804528
 20
31.2713369632
 11
155.412804528
 21
31.3681282026
 12
155.7018665869
 22
31.3681282026
 13
155.7018665869
 23
31.3681282026
  0
SOLID
  8
0
 62
7
  6
CONTINUOUS
 10
155.412804528
 20
31.2713369632
 11
155.7018665869
 21
31.3681282026
 12
155.412804528
 22
31.1422827828
 13
155.412804528
 23
31.1422827828
  0
SOLID
  8
0
 62
7
  6
CONTINUOUS
 10
155.412804528
 20
31.1422827828
 11
155.7018665869
 21
31.3681282026
 12
155.412804528
 22
30.9487004259
 13
155.412804528
 23
30.9487004259
  0
SOLID
  8
0
 62
7
  6
CONTINUOUS
 10
155.7018665869
 20
31.3681282026
 11
155.7018665869
 21
30.8519086025
 12
155.412804528
 22
30.9487004259
 13
155.412804528
 23
30.9487004259
  0
SOLID
  8
0
 62
7
  6
CONTINUOUS
 10
157.6096790869
 20
31.5939736268
 11
157.840929528
 21
31.6262383465
 12
158.0721793074
 22
31.6262383465
 13
158.0721793074
 23
31.6262383465
  0
SOLID
  8
0
 62
7
  6
CONTINUOUS
 10
158.0721793074
 20
31.6262383465
 11
158.2456168074
 21
31.5939736268
 12
157.6096790869
 22
31.5939736268
 13
157.6096790869
 23
31.5939736268
  0
SOLID
  8
0
 62
7
  6
CONTINUOUS
 10
157.4362415869
 20
31.5294472848
 11
157.6096790869
 21
31.5939736268
 12
158.2456168074
 22
31.5939736268
 13
158.2456168074
 23
31.5939736268
  0
SOLID
  8
0
 62
7
  6
CONTINUOUS
 10
158.2456168074
 20
31.5939736268
 11
158.4190543074
 21
31.5294472848
 12
157.4362415869
 22
31.5294472848
 13
157.4362415869
 23
31.5294472848
  0
SOLID
  8
0
 62
7
  6
CONTINUOUS
 10
158.4190543074
 20
31.5294472848
 11
157.840929528
 21
31.4971825369
 12
157.4362415869
 22
31.5294472848
 13
157.4362415869
 23
31.5294472848
  0
SOLID
  8
0
 62
7
  6
CONTINUOUS
 10
157.320617028
 20
31.4649199103
 11
157.4362415869
 21
31.5294472848
 12
157.840929528
 22
31.4971825369
 13
157.840929528
 23
31.4971825369
  0
SOLID
  8
0
 62
7
  6
CONTINUOUS
 10
157.840929528
 20
31.4971825369
 11
157.6096790869
 21
31.4649199103
 12
157.320617028
 22
31.4649199103
 13
157.320617028
 23
31.4649199103
  0
SOLID
  8
0
 62
7
  6
CONTINUOUS
 10
157.840929528
 20
31.4971825369
 11
158.4190543074
 21
31.5294472848
 12
158.0721793074
 22
31.4649199103
 13
158.0721793074
 23
31.4649199103
  0
SOLID
  8
0
 62
7
  6
CONTINUOUS
 10
158.4190543074
 20
31.5294472848
 11
158.534679528
 21
31.4649199103
 12
158.0721793074
 22
31.4649199103
 13
158.0721793074
 23
31.4649199103
  0
SOLID
  8
0
 62
7
  6
CONTINUOUS
 10
158.187804528
 20
31.4326554468
 11
158.0721793074
 21
31.4649199103
 12
158.534679528
 22
31.4649199103
 13
158.534679528
 23
31.4649199103
  0
SOLID
  8
0
 62
7
  6
CONTINUOUS
 10
158.187804528
 20
31.4326554468
 11
158.534679528
 21
31.4649199103
 12
158.3034290869
 22
31.3681288486
 13
158.3034290869
 23
31.3681288486
  0
SOLID
  8
0
 62
7
  6
CONTINUOUS
 10
158.534679528
 20
31.4649199103
 11
158.5924918074
 21
31.3681288486
 12
158.3034290869
 22
31.3681288486
 13
158.3034290869
 23
31.3681288486
  0
SOLID
  8
0
 62
7
  6
CONTINUOUS
 10
158.361242028
 20
31.2068093799
 11
158.3034290869
 21
31.3681288486
 12
158.5924918074
 22
31.3681288486
 13
158.5924918074
 23
31.3681288486
  0
SOLID
  8
0
 62
7
  6
CONTINUOUS
 10
158.5924918074
 20
31.3681288486
 11
158.6503040869
 21
31.2068093799
 12
158.361242028
 22
31.2068093799
 13
158.361242028
 23
31.2068093799
  0
SOLID
  8
0
 62
7
  6
CONTINUOUS
 10
157.6096790869
 20
31.4649199103
 11
157.4362415869
 21
31.4003926599
 12
157.320617028
 22
31.4649199103
 13
157.320617028
 23
31.4649199103
  0
SOLID
  8
0
 62
7
  6
CONTINUOUS
 10
157.4362415869
 20
31.4003926599
 11
157.320617028
 21
31.3358640533
 12
157.320617028
 22
31.4649199103
 13
157.320617028
 23
31.4649199103
  0
SOLID
  8
0
 62
7
  6
CONTINUOUS
 10
157.320617028
 20
31.3358640533
 11
157.0315543074
 21
30.5938003547
 12
157.320617028
 22
31.4649199103
 13
157.320617028
 23
31.4649199103
  0
SOLID
  8
0
 62
7
  6
CONTINUOUS
 10
157.320617028
 20
31.4649199103
 11
157.0315543074
 21
30.5938003547
 12
157.320617028
 22
31.6262383465
 13
157.320617028
 23
31.6262383465
  0
SOLID
  8
0
 62
7
  6
CONTINUOUS
 10
157.0315543074
 20
30.5938003547
 11
157.0315543074
 21
31.6262383465
 12
157.320617028
 22
31.6262383465
 13
157.320617028
 23
31.6262383465
  0
SOLID
  8
0
 62
7
  6
CONTINUOUS
 10
157.320617028
 20
31.3358640533
 11
157.320617028
 21
30.5938003547
 12
157.0315543074
 22
30.5938003547
 13
157.0315543074
 23
30.5938003547
  0
SOLID
  8
0
 62
7
  6
CONTINUOUS
 10
158.361242028
 20
30.5938003547
 11
158.361242028
 21
31.2068093799
 12
158.6503040869
 22
31.2068093799
 13
158.6503040869
 23
31.2068093799
  0
SOLID
  8
0
 62
7
  6
CONTINUOUS
 10
158.6503040869
 20
31.2068093799
 11
158.6503040869
 21
30.5938003547
 12
158.361242028
 22
30.5938003547
 13
158.361242028
 23
30.5938003547
  0
SOLID
  8
0
 62
7
  6
CONTINUOUS
 10
159.4596793074
 20
31.5939739474
 11
159.8065543074
 21
31.6262381969
 12
160.1534293074
 22
31.6262381969
 13
160.1534293074
 23
31.6262381969
  0
SOLID
  8
0
 62
7
  6
CONTINUOUS
 10
160.1534293074
 20
31.6262381969
 11
160.5003043074
 21
31.5939739474
 12
159.4596793074
 22
31.5939739474
 13
159.4596793074
 23
31.5939739474
  0
SOLID
  8
0
 62
7
  6
CONTINUOUS
 10
159.228429528
 20
31.5294468402
 11
159.4596793074
 21
31.5939739474
 12
160.5003043074
 22
31.5939739474
 13
160.5003043074
 23
31.5939739474
  0
SOLID
  8
0
 62
7
  6
CONTINUOUS
 10
159.228429528
 20
31.5294468402
 11
160.5003043074
 21
31.5939739304
 12
160.6737418074
 22
31.5617111435
 13
160.6737418074
 23
31.5617111435
  0
SOLID
  8
0
 62
7
  6
CONTINUOUS
 10
159.228429528
 20
31.5294468402
 11
160.6737418074
 21
31.5617111435
 12
159.8065543074
 22
31.4971825592
 13
159.8065543074
 23
31.4971825592
  0
SOLID
  8
0
 62
7
  6
CONTINUOUS
 10
159.8065543074
 20
31.4971825592
 11
160.6737418074
 21
31.5617111435
 12
160.1534293074
 22
31.4971825592
 13
160.1534293074
 23
31.4971825592
  0
SOLID
  8
0
 62
7
  6
CONTINUOUS
 10
160.6737418074
 20
31.5617111435
 11
160.8471793074
 21
31.4971825592
 12
160.1534293074
 22
31.4971825592
 13
160.1534293074
 23
31.4971825592
  0
SOLID
  8
0
 62
7
  6
CONTINUOUS
 10
160.5003043074
 20
31.4649197501
 11
160.1534293074
 21
31.4971825592
 12
160.8471793074
 22
31.4971825592
 13
160.8471793074
 23
31.4971825592
  0
SOLID
  8
0
 62
7
  6
CONTINUOUS
 10
159.1128043074
 20
31.4326555427
 11
159.228429528
 21
31.5294468402
 12
159.8065543074
 22
31.4971825592
 13
159.8065543074
 23
31.4971825592
  0
SOLID
  8
0
 62
7
  6
CONTINUOUS
 10
160.5003043074
 20
31.4649197501
 11
160.8471793074
 21
31.4971825592
 12
160.615929528
 22
31.4326555427
 13
160.615929528
 23
31.4326555427
  0
SOLID
  8
0
 62
7
  6
CONTINUOUS
 10
160.615929528
 20
31.4326555427
 11
160.8471793074
 21
31.4971825592
 12
160.6737418074
 22
31.3681283005
 13
160.6737418074
 23
31.3681283005
  0
SOLID
  8
0
 62
7
  6
CONTINUOUS
 10
160.8471793074
 20
31.4971825592
 11
160.9628038663
 21
31.3681283005
 12
160.6737418074
 22
31.3681283005
 13
160.6737418074
 23
31.3681283005
  0
SOLID
  8
0
 62
7
  6
CONTINUOUS
 10
150.2674918074
 20
31.4649197501
 11
149.7471793074
 21
31.4326554237
 12
150.498741835
 22
31.4971824493
 13
150.498741835
 23
31.4971824493
  0
SOLID
  8
0
 62
7
  6
CONTINUOUS
 10
149.7471793074
 20
31.4326554237
 11
149.8628043005
 21
31.4971824493
 12
150.498741835
 22
31.4971824493
 13
150.498741835
 23
31.4971824493
  0
SOLID
  8
0
 62
7
  6
CONTINUOUS
 10
150.2674918074
 20
31.4649197501
 11
150.1518667936
 21
31.4326554237
 12
149.7471793074
 22
31.4326554237
 13
149.7471793074
 23
31.4326554237
  0
SOLID
  8
0
 62
7
  6
CONTINUOUS
 10
149.6315543091
 20
31.3036012664
 11
149.7471793074
 21
31.4326554237
 12
150.1518667936
 22
31.4326554237
 13
150.1518667936
 23
31.4326554237
  0
SOLID
  8
0
 62
7
  6
CONTINUOUS
 10
153.9674919177
 20
31.4326554237
 11
154.6612419177
 21
31.4971825369
 12
154.4299918074
 22
31.4649197501
 13
154.4299918074
 23
31.4649197501
  0
SOLID
  8
0
 62
7
  6
CONTINUOUS
 10
154.4299918074
 20
31.4649197501
 11
154.3143669177
 21
31.4326554237
 12
153.9674919177
 22
31.4326554237
 13
153.9674919177
 23
31.4326554237
  0
SOLID
  8
0
 62
7
  6
CONTINUOUS
 10
153.9674919177
 20
31.3681283335
 11
153.9674919177
 21
31.4326554237
 12
154.3143669177
 22
31.4326554237
 13
154.3143669177
 23
31.4326554237
  0
SOLID
  8
0
 62
7
  6
CONTINUOUS
 10
154.3143669177
 20
31.4326554237
 11
154.2565543074
 21
31.3681283335
 12
153.9674919177
 22
31.3681283335
 13
153.9674919177
 23
31.3681283335
  0
SOLID
  8
0
 62
7
  6
CONTINUOUS
 10
159.1128043074
 20
31.4326555528
 11
159.8065543074
 21
31.4971825369
 12
159.575304528
 22
31.4649197501
 13
159.575304528
 23
31.4649197501
  0
SOLID
  8
0
 62
7
  6
CONTINUOUS
 10
159.575304528
 20
31.4649197501
 11
159.4596793074
 21
31.4326555528
 12
159.1128043074
 22
31.4326555528
 13
159.1128043074
 23
31.4326555528
  0
SOLID
  8
0
 62
7
  6
CONTINUOUS
 10
159.1128043074
 20
31.3681284626
 11
159.1128043074
 21
31.4326555528
 12
159.4596793074
 22
31.4326555528
 13
159.4596793074
 23
31.4326555528
  0
SOLID
  8
0
 62
7
  6
CONTINUOUS
 10
159.4596793074
 20
31.4326555528
 11
159.401867028
 21
31.3681284626
 12
159.1128043074
 22
31.3681284626
 13
159.1128043074
 23
31.3681284626
  0
SOLID
  8
0
 62
7
  6
CONTINUOUS
 10
159.228429528
 20
31.2390741763
 11
159.1128043074
 21
31.3681284626
 12
159.401867028
 22
31.3681284626
 13
159.401867028
 23
31.3681284626
  0
SOLID
  8
0
 62
7
  6
CONTINUOUS
 10
149.6315543091
 20
31.3036012664
 11
150.1518667936
 21
31.4326554468
 12
149.9784292936
 22
31.3358640533
 13
149.9784292936
 23
31.3358640533
  0
SOLID
  8
0
 62
7
  6
CONTINUOUS
 10
149.9784292936
 20
31.3358640533
 11
149.9206168074
 21
31.2713369632
 12
149.6315543091
 22
31.3036012664
 13
149.6315543091
 23
31.3036012664
  0
SOLID
  8
0
 62
7
  6
CONTINUOUS
 10
149.5737418074
 20
31.1100184796
 11
149.6315543091
 21
31.3036012664
 12
149.9206168074
 22
31.2713369632
 13
149.9206168074
 23
31.2713369632
  0
SOLID
  8
0
 62
7
  6
CONTINUOUS
 10
154.4299918074
 20
31.2390741763
 11
154.7768668074
 21
31.271336924
 12
155.412804528
 22
31.271336924
 13
155.412804528
 23
31.271336924
  0
SOLID
  8
0
 62
7
  6
CONTINUOUS
 10
154.4299918074
 20
31.2390741763
 11
155.412804528
 21
31.271336924
 12
154.1987416972
 22
31.1745462761
 13
154.1987416972
 23
31.1745462761
  0
SOLID
  8
0
 62
7
  6
CONTINUOUS
 10
154.1987416972
 20
31.1745462761
 11
155.412804528
 21
31.271336924
 12
154.7768668074
 22
31.1422827436
 13
154.7768668074
 23
31.1422827436
  0
SOLID
  8
0
 62
7
  6
CONTINUOUS
 10
155.412804528
 20
31.271336924
 11
155.412804528
 21
31.1422827436
 12
154.7768668074
 22
31.1422827436
 13
154.7768668074
 23
31.1422827436
  0
SOLID
  8
0
 62
7
  6
CONTINUOUS
 10
159.228429528
 20
31.2390745501
 11
159.401867028
 21
31.3681283566
 12
159.4596793074
 22
31.3036012664
 13
159.4596793074
 23
31.3036012664
  0
SOLID
  8
0
 62
7
  6
CONTINUOUS
 10
159.4596793074
 20
31.3036012664
 11
159.6331168074
 21
31.2390745501
 12
159.228429528
 22
31.2390745501
 13
159.228429528
 23
31.2390745501
  0
SOLID
  8
0
 62
7
  6
CONTINUOUS
 10
159.4596793074
 20
31.1422827828
 11
159.228429528
 21
31.2390745501
 12
159.6331168074
 22
31.2390745501
 13
159.6331168074
 23
31.2390745501
  0
SOLID
  8
0
 62
7
  6
CONTINUOUS
 10
159.6331168074
 20
31.2390745501
 11
160.615929528
 21
31.0777556927
 12
159.4596793074
 22
31.1422827828
 13
159.4596793074
 23
31.1422827828
  0
SOLID
  8
0
 62
7
  6
CONTINUOUS
 10
160.442492028
 20
30.9809646623
 11
159.4596793074
 21
31.1422827828
 12
160.615929528
 22
31.0777556927
 13
160.615929528
 23
31.0777556927
  0
SOLID
  8
0
 62
7
  6
CONTINUOUS
 10
160.615929528
 20
31.0777556927
 11
160.8471793074
 21
30.9809646623
 12
160.442492028
 22
30.9809646623
 13
160.442492028
 23
30.9809646623
  0
SOLID
  8
0
 62
7
  6
CONTINUOUS
 10
160.615929528
 20
30.9164372091
 11
160.442492028
 21
30.9809646623
 12
160.8471793074
 22
30.9809646623
 13
160.8471793074
 23
30.9809646623
  0
SOLID
  8
0
 62
7
  6
CONTINUOUS
 10
160.615929528
 20
30.9164372091
 11
160.8471793074
 21
30.9809646623
 12
160.6737418074
 22
30.8519089441
 13
160.6737418074
 23
30.8519089441
  0
SOLID
  8
0
 62
7
  6
CONTINUOUS
 10
160.8471793074
 20
30.9809646623
 11
160.9628038663
 21
30.8519089441
 12
160.6737418074
 22
30.8519089441
 13
160.6737418074
 23
30.8519089441
  0
SOLID
  8
0
 62
7
  6
CONTINUOUS
 10
160.615929528
 20
30.7873818593
 11
160.6737418074
 21
30.8519089441
 12
160.9628038663
 22
30.8519089441
 13
160.9628038663
 23
30.8519089441
  0
SOLID
  8
0
 62
7
  6
CONTINUOUS
 10
160.9628038663
 20
30.8519089441
 11
160.9628038663
 21
30.7873818593
 12
160.615929528
 22
30.7873818593
 13
160.615929528
 23
30.7873818593
  0
SOLID
  8
0
 62
7
  6
CONTINUOUS
 10
160.5003043074
 20
30.7551187255
 11
160.615929528
 21
30.7873818593
 12
160.9628038663
 22
30.7873818593
 13
160.9628038663
 23
30.7873818593
  0
SOLID
  8
0
 62
7
  6
CONTINUOUS
 10
160.5003043074
 20
30.7551187255
 11
160.9628038663
 21
30.7873818593
 12
160.269054528
 22
30.7228547745
 13
160.269054528
 23
30.7228547745
  0
SOLID
  8
0
 62
7
  6
CONTINUOUS
 10
160.9628038663
 20
30.7873818593
 11
160.8471793074
 21
30.6905916353
 12
160.269054528
 22
30.7228547745
 13
160.269054528
 23
30.7228547745
  0
SOLID
  8
0
 62
7
  6
CONTINUOUS
 10
160.8471793074
 20
30.6905916353
 11
159.401867028
 21
30.658327332
 12
160.269054528
 22
30.7228547745
 13
160.269054528
 23
30.7228547745
  0
SOLID
  8
0
 62
7
  6
CONTINUOUS
 10
160.269054528
 20
30.7228547745
 11
159.401867028
 21
30.658327332
 12
159.922179528
 22
30.7228547745
 13
159.922179528
 23
30.7228547745
  0
SOLID
  8
0
 62
7
  6
CONTINUOUS
 10
159.401867028
 20
30.658327332
 11
159.228429528
 21
30.7228547745
 12
159.922179528
 22
30.7228547745
 13
159.922179528
 23
30.7228547745
  0
SOLID
  8
0
 62
7
  6
CONTINUOUS
 10
159.401867028
 20
30.658327332
 11
160.8471793074
 21
30.6905916353
 12
159.575304528
 22
30.6260629858
 13
159.575304528
 23
30.6260629858
  0
SOLID
  8
0
 62
7
  6
CONTINUOUS
 10
160.8471793074
 20
30.6905916353
 11
160.615929528
 21
30.6260629858
 12
159.575304528
 22
30.6260629858
 13
159.575304528
 23
30.6260629858
  0
SOLID
  8
0
 62
7
  6
CONTINUOUS
 10
159.922179528
 20
30.5938006049
 11
159.575304528
 21
30.6260629858
 12
160.615929528
 22
30.6260629858
 13
160.615929528
 23
30.6260629858
  0
SOLID
  8
0
 62
7
  6
CONTINUOUS
 10
160.615929528
 20
30.6260629858
 11
160.269054528
 21
30.5938006049
 12
159.922179528
 22
30.5938006049
 13
159.922179528
 23
30.5938006049
  0
SOLID
  8
0
 62
7
  6
CONTINUOUS
 10
149.5737418074
 20
31.1100184796
 11
149.9206168074
 21
31.2713369632
 12
149.8628043005
 22
31.1422827828
 13
149.8628043005
 23
31.1422827828
  0
SOLID
  8
0
 62
7
  6
CONTINUOUS
 10
149.8628043005
 20
31.1422827828
 11
149.8628043005
 21
31.0454914852
 12
149.5737418074
 22
31.1100184796
 13
149.5737418074
 23
31.1100184796
  0
SOLID
  8
0
 62
7
  6
CONTINUOUS
 10
149.6315543091
 20
30.9164372091
 11
149.5737418074
 21
31.1100184796
 12
149.8628043005
 22
31.0454914852
 13
149.8628043005
 23
31.0454914852
  0
SOLID
  8
0
 62
7
  6
CONTINUOUS
 10
149.8628043005
 20
31.0454914852
 11
149.9784292936
 21
30.8841729058
 12
149.6315543091
 22
30.9164372091
 13
149.6315543091
 23
30.9164372091
  0
SOLID
  8
0
 62
7
  6
CONTINUOUS
 10
149.7471793074
 20
30.7873813202
 11
149.6315543091
 21
30.9164372091
 12
149.9784292936
 22
30.8841729058
 13
149.9784292936
 23
30.8841729058
  0
SOLID
  8
0
 62
7
  6
CONTINUOUS
 10
149.9784292936
 20
30.8841729058
 11
150.1518667936
 21
30.7873813202
 12
149.7471793074
 22
30.7873813202
 13
149.7471793074
 23
30.7873813202
  0
SOLID
  8
0
 62
7
  6
CONTINUOUS
 10
149.8628043005
 20
30.7228547004
 11
149.7471793074
 21
30.7873813202
 12
150.1518667936
 22
30.7873813202
 13
150.1518667936
 23
30.7873813202
  0
SOLID
  8
0
 62
7
  6
CONTINUOUS
 10
150.1518667936
 20
30.7873813202
 11
150.498741835
 21
30.7228547004
 12
149.8628043005
 22
30.7228547004
 13
149.8628043005
 23
30.7228547004
  0
SOLID
  8
0
 62
7
  6
CONTINUOUS
 10
150.0362418212
 20
30.658327332
 11
149.8628043005
 21
30.7228547004
 12
150.498741835
 22
30.7228547004
 13
150.498741835
 23
30.7228547004
  0
SOLID
  8
0
 62
7
  6
CONTINUOUS
 10
154.0831168074
 20
31.1100184386
 11
154.1987416972
 21
31.1745462761
 12
154.7768668074
 22
31.1422827828
 13
154.7768668074
 23
31.1422827828
  0
SOLID
  8
0
 62
7
  6
CONTINUOUS
 10
154.7768668074
 20
31.1422827828
 11
154.5456166972
 21
31.1100184386
 12
154.0831168074
 22
31.1100184386
 13
154.0831168074
 23
31.1100184386
  0
SOLID
  8
0
 62
7
  6
CONTINUOUS
 10
153.9674919177
 20
30.9809642992
 11
154.0831168074
 21
31.1100184386
 12
154.5456166972
 22
31.1100184386
 13
154.5456166972
 23
31.1100184386
  0
SOLID
  8
0
 62
7
  6
CONTINUOUS
 10
154.3143669177
 20
31.0132277988
 11
153.9674919177
 21
30.9809642992
 12
154.4299918074
 22
31.0777556927
 13
154.4299918074
 23
31.0777556927
  0
SOLID
  8
0
 62
7
  6
CONTINUOUS
 10
153.9674919177
 20
30.9809642992
 11
154.5456166972
 21
31.1100184796
 12
154.4299918074
 22
31.0777556927
 13
154.4299918074
 23
31.0777556927
  0
SOLID
  8
0
 62
7
  6
CONTINUOUS
 10
154.3143669177
 20
31.0132277988
 11
154.2565543074
 21
30.9164372091
 12
153.9674919177
 22
30.9809642992
 13
153.9674919177
 23
30.9809642992
  0
SOLID
  8
0
 62
7
  6
CONTINUOUS
 10
153.9674919177
 20
30.8841729058
 11
153.9674919177
 21
30.9809642992
 12
154.2565543074
 22
30.9164372091
 13
154.2565543074
 23
30.9164372091
  0
SOLID
  8
0
 62
7
  6
CONTINUOUS
 10
154.2565543074
 20
30.9164372091
 11
154.2565543074
 21
30.8519086025
 12
153.9674919177
 22
30.8841729058
 13
153.9674919177
 23
30.8841729058
  0
SOLID
  8
0
 62
7
  6
CONTINUOUS
 10
154.0253041972
 20
30.7551187255
 11
153.9674919177
 21
30.8841729058
 12
154.2565543074
 22
30.8519086025
 13
154.2565543074
 23
30.8519086025
  0
SOLID
  8
0
 62
7
  6
CONTINUOUS
 10
155.412804528
 20
30.9487004259
 11
155.7018665869
 21
30.8519086025
 12
155.3549915869
 22
30.8841729058
 13
155.3549915869
 23
30.8841729058
  0
SOLID
  8
0
 62
7
  6
CONTINUOUS
 10
155.1815540869
 20
30.7873815123
 11
155.3549915869
 21
30.8841729058
 12
155.7018665869
 22
30.8519086025
 13
155.7018665869
 23
30.8519086025
  0
SOLID
  8
0
 62
7
  6
CONTINUOUS
 10
155.1815540869
 20
30.7873815123
 11
155.7018665869
 21
30.8519086025
 12
155.412804528
 22
30.7551187255
 13
155.412804528
 23
30.7551187255
  0
SOLID
  8
0
 62
7
  6
CONTINUOUS
 10
155.7018665869
 20
30.8519086025
 11
155.759679528
 21
30.6905916353
 12
155.412804528
 22
30.7551187255
 13
155.412804528
 23
30.7551187255
  0
SOLID
  8
0
 62
7
  6
CONTINUOUS
 10
155.4706168074
 20
30.658327332
 11
155.412804528
 21
30.7551187255
 12
155.759679528
 22
30.6905916353
 13
155.759679528
 23
30.6905916353
  0
SOLID
  8
0
 62
7
  6
CONTINUOUS
 10
155.4706168074
 20
30.658327332
 11
155.759679528
 21
30.6905916353
 12
155.5284290869
 22
30.5938002079
 13
155.5284290869
 23
30.5938002079
  0
SOLID
  8
0
 62
7
  6
CONTINUOUS
 10
155.759679528
 20
30.6905916353
 11
155.8174918074
 21
30.5938002079
 12
155.5284290869
 22
30.5938002079
 13
155.5284290869
 23
30.5938002079
  0
SOLID
  8
0
 62
7
  6
CONTINUOUS
 10
151.0768668626
 20
30.8196456577
 11
151.1346793074
 21
30.9164373395
 12
151.4237418626
 22
30.9164373395
 13
151.4237418626
 23
30.9164373395
  0
SOLID
  8
0
 62
7
  6
CONTINUOUS
 10
151.4237418626
 20
30.9164373395
 11
151.3659292523
 21
30.7873815123
 12
151.0768668626
 22
30.8196456577
 13
151.0768668626
 23
30.8196456577
  0
SOLID
  8
0
 62
7
  6
CONTINUOUS
 10
150.9034292799
 20
30.7551187255
 11
151.0768668626
 21
30.8196456577
 12
151.3659292523
 22
30.7873815123
 13
151.3659292523
 23
30.7873815123
  0
SOLID
  8
0
 62
7
  6
CONTINUOUS
 10
150.9034292799
 20
30.7551187255
 11
151.3659292523
 21
30.7873815123
 12
150.498741835
 22
30.7228544222
 13
150.498741835
 23
30.7228544222
  0
SOLID
  8
0
 62
7
  6
CONTINUOUS
 10
151.3659292523
 20
30.7873815123
 11
151.1924917523
 21
30.6905916353
 12
150.498741835
 22
30.7228544222
 13
150.498741835
 23
30.7228544222
  0
SOLID
  8
0
 62
7
  6
CONTINUOUS
 10
150.0362418212
 20
30.658327332
 11
150.498741835
 21
30.7228544222
 12
151.1924917523
 22
30.6905916353
 13
151.1924917523
 23
30.6905916353
  0
SOLID
  8
0
 62
7
  6
CONTINUOUS
 10
150.0362418212
 20
30.658327332
 11
151.1924917523
 21
30.6905916353
 12
150.2096793212
 22
30.6260631011
 13
150.2096793212
 23
30.6260631011
  0
SOLID
  8
0
 62
7
  6
CONTINUOUS
 10
151.1924917523
 20
30.6905916353
 11
150.9612418074
 21
30.6260631011
 12
150.2096793212
 22
30.6260631011
 13
150.2096793212
 23
30.6260631011
  0
SOLID
  8
0
 62
7
  6
CONTINUOUS
 10
150.5565542799
 20
30.5938002419
 11
150.2096793212
 21
30.6260631011
 12
150.9612418074
 22
30.6260631011
 13
150.9612418074
 23
30.6260631011
  0
SOLID
  8
0
 62
7
  6
CONTINUOUS
 10
154.0253041972
 20
30.7551187255
 11
154.2565543074
 21
30.8519086025
 12
154.3143669177
 22
30.7873815123
 13
154.3143669177
 23
30.7873815123
  0
SOLID
  8
0
 62
7
  6
CONTINUOUS
 10
154.3143669177
 20
30.7873815123
 11
154.5456166972
 21
30.7228544222
 12
154.0253041972
 22
30.7551187255
 13
154.0253041972
 23
30.7551187255
  0
SOLID
  8
0
 62
7
  6
CONTINUOUS
 10
154.1987416972
 20
30.658327332
 11
154.0253041972
 21
30.7551187255
 12
154.5456166972
 22
30.7228544222
 13
154.5456166972
 23
30.7228544222
  0
SOLID
  8
0
 62
7
  6
CONTINUOUS
 10
154.8924916972
 20
30.7228544637
 11
155.1815540869
 21
30.7873815123
 12
155.412804528
 22
30.7551187255
 13
155.412804528
 23
30.7551187255
  0
SOLID
  8
0
 62
7
  6
CONTINUOUS
 10
155.412804528
 20
30.7551187255
 11
155.3549915869
 21
30.6905916353
 12
154.8924916972
 22
30.7228544637
 13
154.8924916972
 23
30.7228544637
  0
SOLID
  8
0
 62
7
  6
CONTINUOUS
 10
155.3549915869
 20
30.6905916353
 11
154.1987416972
 21
30.658327332
 12
154.8924916972
 22
30.7228544637
 13
154.8924916972
 23
30.7228544637
  0
SOLID
  8
0
 62
7
  6
CONTINUOUS
 10
154.1987416972
 20
30.658327332
 11
154.5456166972
 21
30.7228544637
 12
154.8924916972
 22
30.7228544637
 13
154.8924916972
 23
30.7228544637
  0
SOLID
  8
0
 62
7
  6
CONTINUOUS
 10
154.1987416972
 20
30.658327332
 11
155.3549915869
 21
30.6905916353
 12
154.3143669177
 22
30.6260630541
 13
154.3143669177
 23
30.6260630541
  0
SOLID
  8
0
 62
7
  6
CONTINUOUS
 10
155.3549915869
 20
30.6905916353
 11
155.1815540869
 21
30.6260630541
 12
154.3143669177
 22
30.6260630541
 13
154.3143669177
 23
30.6260630541
  0
SOLID
  8
0
 62
7
  6
CONTINUOUS
 10
154.5456166972
 20
30.5938002188
 11
154.3143669177
 21
30.6260630541
 12
155.1815540869
 22
30.6260630541
 13
155.1815540869
 23
30.6260630541
  0
SOLID
  8
0
 62
7
  6
CONTINUOUS
 10
155.1815540869
 20
30.6260630541
 11
154.8924916972
 21
30.5938002188
 12
154.5456166972
 22
30.5938002188
 13
154.5456166972
 23
30.5938002188
  0
SOLID
  8
0
 62
7
  6
CONTINUOUS
 10
159.575304528
 20
30.7551187255
 11
159.228429528
 21
30.7228544637
 12
159.4596793074
 22
30.7873815123
 13
159.4596793074
 23
30.7873815123
  0
SOLID
  8
0
 62
7
  6
CONTINUOUS
 10
159.4596793074
 20
30.7873815123
 11
159.228429528
 21
30.7228544637
 12
159.401867028
 22
30.851908644
 13
159.401867028
 23
30.851908644
  0
SOLID
  8
0
 62
7
  6
CONTINUOUS
 10
159.228429528
 20
30.7228544637
 11
159.1128043074
 21
30.851908644
 12
159.401867028
 22
30.851908644
 13
159.401867028
 23
30.851908644
  0
SOLID
  8
0
 62
7
  6
CONTINUOUS
 10
159.575304528
 20
30.7551187255
 11
159.922179528
 21
30.7228544637
 12
159.228429528
 22
30.7228544637
 13
159.228429528
 23
30.7228544637
  0
SOLID
  8
0
 62
7
  6
CONTINUOUS
 10
156.279992028
 20
30.5938002419
 11
156.279992028
 21
31.6262382337
 12
156.5690540869
 22
30.5938002419
 13
156.5690540869
 23
31.6262382337
  0
ENDBLK
  8
0
  6
BYBLOCK
 62
0
  0
BLOCK
  8
0
 62
2
  6
CONTINUOUS
  2
AMMEAAL_LOGO_BL0
 70
64
 10
32.1213064866
 20
19.8534310916
  0
TEXT
  8
0
 62
7
  6
CONTINUOUS
 10
18.3860103289
 20
19.2268451992
  7
TEXTSTYLE_3
 40
2.7338706658
  1
Ammeraal Beltech
 41
1.0
 51
15.0
 72
0
  0
TEXT
  8
0
 62
7
  6
CONTINUOUS
 10
29.1868111546
 20
16.9533085264
  7
TEXTSTYLE_4
 40
1.0935482663
  1
Innovation & Service in Belting
 41
1.0
 72
0
  0
LINE
  8
0
 62
7
  6
CONTINUOUS
 10
12.3614696776
 20
19.9934385078
 11
13.1396216709
 21
23.6543558055
  0
LINE
  8
0
 62
7
  6
CONTINUOUS
 10
23.2347899607
 20
27.3177497171
 11
13.6274394139
 21
24.1961322958
  0
LINE
  8
0
 62
7
  6
CONTINUOUS
 10
12.5867530099
 20
19.3000877048
 11
20.093828271
 21
12.5406867788
  0
LINE
  8
0
 62
7
  6
CONTINUOUS
 10
12.8492874206
 20
20.5352149982
 11
23.6575567857
 21
24.0470345971
  0
LINE
  8
0
 62
7
  6
CONTINUOUS
 10
23.6533516486
 20
13.6972460334
 11
15.2078919798
 21
21.3015720751
  0
LINE
  8
0
 62
7
  6
CONTINUOUS
 10
24.1731743684
 20
26.4728246013
 11
23.1966148312
 21
21.8784731989
  0
LINE
  8
0
 62
7
  6
CONTINUOUS
 10
22.4968128835
 20
18.5861638851
 11
21.810364672
 21
15.3566789607
  0
LINE
  8
0
 62
7
  6
CONTINUOUS
 10
24.8542704669
 20
14.087448211
 11
25.8105020025
 21
18.5861638851
  0
LINE
  8
0
 62
7
  6
CONTINUOUS
 10
26.5103039502
 20
21.8784731989
 11
26.9545457526
 21
23.9684665583
  0
LINE
  8
0
 62
7
  6
CONTINUOUS
 10
20.8069293463
 20
12.3891124661
 11
24.3664527239
 21
13.5456717207
  0
LINE
  8
0
 62
7
  6
CONTINUOUS
 10
23.9478910361
 20
27.1661754044
 11
26.7292624203
 21
24.6618173613
  0
ARC
  8
0
 62
7
  6
CONTINUOUS
 10
13.8527227462
 20
23.5027814928
 40
0.7290321776
 50
108.0
 51
168.0
  0
ARC
  8
0
 62
7
  6
CONTINUOUS
 10
23.4600732931
 20
26.624398914
 40
0.7290321776
 50
348.0
 51
108.0
  0
ARC
  8
0
 62
7
  6
CONTINUOUS
 10
26.2414446773
 20
24.120040871
 40
0.7290321776
 50
348.0
 51
48.0
  0
ARC
  8
0
 62
7
  6
CONTINUOUS
 10
20.581646014
 20
13.0824632691
 40
0.7290321776
 50
228.0
 51
288.0
  0
ARC
  8
0
 62
7
  6
CONTINUOUS
 10
13.0745707529
 20
19.8418641951
 40
0.7290321776
 50
108.0
 51
228.0
  0
ARC
  8
0
 62
7
  6
CONTINUOUS
 10
24.1411693916
 20
14.2390225237
 40
0.7290321776
 50
228.0
 51
348.0
  0
ENDBLK
  8
0
  6
BYBLOCK
 62
0
  0
BLOCK
  8
0
  2
_FILLED
 70
64
 10
0.0
 20
0.0
  0
SOLID
  8
0
  6
BYBLOCK
 62
0
 10
0.0
 20
0.0
 11
-1.0
 21
0.2142857143
 12
-1.0
 22
-0.2142857143
 13
-1.0
 23
-0.2142857143
  0
ENDBLK
  8
0
  6
BYBLOCK
 62
0
  0
ENDSEC
  0
SECTION
  2
ENTITIES
  0
TEXT
  8
0
 62
5
  6
CONTINUOUS
 10
96.0
 20
25.636
  7
TEXTSTYLE_2
 40
2.8
  1
Scale :
 41
0.6
 51
0.000019
 72
0
  0
TEXT
  8
0
 62
5
  6
CONTINUOUS
 10
116.0
 20
25.636
  7
TEXTSTYLE_2
 40
2.8
  1
Belt type:
 41
0.6
 51
0.000019
 72
0
  0
INSERT
  8
0
 62
2
  6
CONTINUOUS
  2
AMMEAAL_LOGO_BL0
 10
32.1213064866
 20
19.8534310916
  0
INSERT
  8
0
 62
2
  6
CONTINUOUS
  2
UNI_LOGO2_BL1
 10
173.5956734183
 20
35.5937998301
  0
LINE
  8
0
 62
2
  6
CONTINUOUS
 10
10.0
 20
30.0
 11
200.0
 21
30.0
  0
LINE
  8
0
 62
2
  6
CONTINUOUS
 10
10.0
 20
30.0
 11
10.0
 21
10.0
  0
LINE
  8
0
 62
2
  6
CONTINUOUS
 10
10.0
 20
10.0
 11
200.0
 21
10.0
  0
LINE
  8
0
 62
2
  6
CONTINUOUS
 10
95.0
 20
30.0
 11
95.0
 21
10.0
  0
LINE
  8
0
 62
2
  6
CONTINUOUS
 10
115.0
 20
30.0
 11
115.0
 21
10.0
  0
LINE
  8
0
 62
2
  6
CONTINUOUS
 10
200.0
 20
30.0
 11
200.0
 21
10.0
  0
TEXT
  8
0
 62
5
  6
CONTINUOUS
 10
13.0
 20
23.303
  7
TEXTSTYLE_5
 40
1.52
  1
                                                                     Ammeraal Beltech Modular A/S
 41
1.0
 72
0
  0
TEXT
  8
0
 62
5
  6
CONTINUOUS
 10
13.0
 20
20.595
  7
TEXTSTYLE_5
 40
1.5
  1
                                                                      Hjulmagervej 21,  7100 Vejle,  DK
 41
1.0
 72
0
  0
TEXT
  8
0
 62
5
  6
CONTINUOUS
 10
13.0
 20
17.881
  7
TEXTSTYLE_5
 40
1.495
  1
                                                                      tel: 
 41
1.0
 72
0
  0
TEXT
  8
0
 62
5
  6
CONTINUOUS
 10
57.9869465649
 20
17.881
  7
TEXTSTYLE_5
 40
1.51
  1
+45 75723100     fax: +45 75723348
 41
1.0
 72
0
  0
TEXT
  8
0
 62
5
  6
CONTINUOUS
 10
13.0
 20
15.177
  7
TEXTSTYLE_5
 40
1.5
  1
                                                                      admin@unichains.dk  www.unichains.com
 41
1.0
 72
0
  0
TEXT
  8
0
 62
5
  6
CONTINUOUS
 10
99.75
 20
13.75
  7
TEXTSTYLE_6
 40
5.0
  1
1:1
 41
0.7
 72
1
 11
105.0
 21
13.75
  0
TEXT
  8
0
 62
5
  6
CONTINUOUS
 10
118.0
 20
13.75
  7
TEXTSTYLE_7
 40
7.5
  1
uni AMB Locking Plate
 41
0.3963293651
 72
0
  0
LINE
  8
0
 62
7
  6
CONTINUOUS
 10
210.0
 20
0.0
 11
0.0
 21
0.0
  0
LINE
  8
0
 62
7
  6
CONTINUOUS
 10
10.0
 20
10.0
 11
200.0
 21
10.0
  0
LINE
  8
0
 62
7
  6
CONTINUOUS
 10
10.0
 20
30.0
 11
200.0
 21
30.0
  0
LINE
  8
0
 62
7
  6
CONTINUOUS
 10
0.0
 20
0.0
 11
0.0
 21
297.0
  0
LINE
  8
0
 62
7
  6
CONTINUOUS
 10
10.0
 20
10.0
 11
10.0
 21
287.0
  0
LINE
  8
0
 62
7
  6
CONTINUOUS
 10
200.0
 20
287.0
 11
200.0
 21
10.0
  0
LINE
  8
0
 62
7
  6
CONTINUOUS
 10
210.0
 20
0.0
 11
210.0
 21
297.0
  0
LINE
  8
0
 62
7
  6
CONTINUOUS
 10
10.0
 20
287.0
 11
200.0
 21
287.0
  0
LINE
  8
0
 62
7
  6
CONTINUOUS
 10
0.0
 20
297.0
 11
210.0
 21
297.0
  0
LINE
  8
0
 62
7
  6
CONTINUOUS
 10
132.0133348577
 20
145.9160127558
 11
131.6329535274
 21
160.4421897041
  0
LINE
  8
0
 62
7
  6
CONTINUOUS
 10
131.5020239196
 20
165.4421897041
 11
131.3972802333
 21
169.4421897041
  0
LINE
  8
0
 62
9
  6
CONTINUOUS
 10
133.3365926876
 20
145.9269184332
 11
132.9563827025
 21
160.4465519751
  0
LINE
  8
0
 62
9
  6
CONTINUOUS
 10
132.8254530946
 20
165.4465519751
 11
132.7207094083
 21
169.4465519751
  0
POLYLINE
  8
0
 62
9
  6
CONTINUOUS
 66
1
 70
0
  0
VERTEX
  8
0
 62
9
  6
CONTINUOUS
 10
132.9563827025
 20
160.4465519751
  0
VERTEX
  8
0
 62
9
  6
CONTINUOUS
 10
132.9557430026
 20
160.5592341395
  0
VERTEX
  8
0
 62
9
  6
CONTINUOUS
 10
132.9501379551
 20
160.7631091354
  0
VERTEX
  8
0
 62
9
  6
CONTINUOUS
 10
132.9454599249
 20
160.8438513453
  0
VERTEX
  8
0
 62
9
  6
CONTINUOUS
 10
132.9335395444
 20
160.942463247
  0
VERTEX
  8
0
 62
9
  6
CONTINUOUS
 10
132.926908233
 20
160.9552781783
  0
SEQEND
  0
POLYLINE
  8
0
 62
9
  6
CONTINUOUS
 66
1
 70
0
  0
VERTEX
  8
0
 62
9
  6
CONTINUOUS
 10
132.8254530946
 20
165.4465519751
  0
VERTEX
  8
0
 62
9
  6
CONTINUOUS
 10
132.8246171404
 20
165.3367379894
  0
VERTEX
  8
0
 62
9
  6
CONTINUOUS
 10
132.8188417526
 20
165.1396501221
  0
VERTEX
  8
0
 62
9
  6
CONTINUOUS
 10
132.8141855476
 20
165.0620415482
  0
VERTEX
  8
0
 62
9
  6
CONTINUOUS
 10
132.8024666325
 20
164.9675383289
  0
VERTEX
  8
0
 62
9
  6
CONTINUOUS
 10
132.7959786251
 20
164.9552781783
  0
SEQEND
  0
LINE
  8
0
 62
7
  6
CONTINUOUS
 10
135.9020376947
 20
144.4552781783
 11
133.5128208451
 21
144.4552781783
  0
POLYLINE
  8
0
 62
9
  6
CONTINUOUS
 66
1
 70
0
  0
VERTEX
  8
0
 62
9
  6
CONTINUOUS
 10
132.0133348577
 20
145.9160127558
  0
VERTEX
  8
0
 62
9
  6
CONTINUOUS
 10
132.079291985
 20
145.9101255175
  0
VERTEX
  8
0
 62
9
  6
CONTINUOUS
 10
132.2698229616
 20
145.9083017642
  0
VERTEX
  8
0
 62
9
  6
CONTINUOUS
 10
132.5648746543
 20
145.9107334435
  0
VERTEX
  8
0
 62
9
  6
CONTINUOUS
 10
132.9333932621
 20
145.9171646243
  0
VERTEX
  8
0
 62
9
  6
CONTINUOUS
 10
133.3365926876
 20
145.9269184332
  0
SEQEND
  0
POLYLINE
  8
0
 62
9
  6
CONTINUOUS
 66
1
 70
0
  0
VERTEX
  8
0
 62
9
  6
CONTINUOUS
 10
134.7371895082
 20
160.4465519751
  0
VERTEX
  8
0
 62
9
  6
CONTINUOUS
 10
134.736549812
 20
160.5592340237
  0
VERTEX
  8
0
 62
9
  6
CONTINUOUS
 10
134.7309447757
 20
160.763108916
  0
VERTEX
  8
0
 62
9
  6
CONTINUOUS
 10
134.7262667489
 20
160.843851159
  0
VERTEX
  8
0
 62
9
  6
CONTINUOUS
 10
134.7143463617
 20
160.9424632107
  0
VERTEX
  8
0
 62
9
  6
CONTINUOUS
 10
134.7077150388
 20
160.9552781783
  0
SEQEND
  0
POLYLINE
  8
0
 62
9
  6
CONTINUOUS
 66
1
 70
0
  0
VERTEX
  8
0
 62
9
  6
CONTINUOUS
 10
134.7371895082
 20
165.4465519751
  0
VERTEX
  8
0
 62
9
  6
CONTINUOUS
 10
134.7363535527
 20
165.3367378982
  0
VERTEX
  8
0
 62
9
  6
CONTINUOUS
 10
134.7305781599
 20
165.13964999
  0
VERTEX
  8
0
 62
9
  6
CONTINUOUS
 10
134.7259219538
 20
165.0620414498
  0
VERTEX
  8
0
 62
9
  6
CONTINUOUS
 10
134.7142030423
 20
164.9675383142
  0
VERTEX
  8
0
 62
9
  6
CONTINUOUS
 10
134.7077150388
 20
164.9552781783
  0
SEQEND
  0
LINE
  8
0
 62
9
  6
CONTINUOUS
 10
136.0377909517
 20
145.6837885529
 11
133.5865070188
 21
145.6834626702
  0
POLYLINE
  8
0
 62
9
  6
CONTINUOUS
 66
1
 70
0
  0
VERTEX
  8
0
 62
9
  6
CONTINUOUS
 10
133.5865070188
 20
145.6834626702
  0
VERTEX
  8
0
 62
9
  6
CONTINUOUS
 10
133.5631403802
 20
145.6845570697
  0
VERTEX
  8
0
 62
9
  6
CONTINUOUS
 10
133.5399682615
 20
145.6878325773
  0
VERTEX
  8
0
 62
9
  6
CONTINUOUS
 10
133.5172177784
 20
145.6932565088
  0
VERTEX
  8
0
 62
9
  6
CONTINUOUS
 10
133.495073986
 20
145.7007826333
  0
VERTEX
  8
0
 62
9
  6
CONTINUOUS
 10
133.4737243455
 20
145.7103481975
  0
VERTEX
  8
0
 62
9
  6
CONTINUOUS
 10
133.4533564599
 20
145.721871252
  0
VERTEX
  8
0
 62
9
  6
CONTINUOUS
 10
133.4341611794
 20
145.7352437381
  0
VERTEX
  8
0
 62
9
  6
CONTINUOUS
 10
133.416295893
 20
145.7503556725
  0
VERTEX
  8
0
 62
9
  6
CONTINUOUS
 10
133.4079135973
 20
145.7585215665
  0
VERTEX
  8
0
 62
9
  6
CONTINUOUS
 10
133.3923453073
 20
145.7759786085
  0
VERTEX
  8
0
 62
9
  6
CONTINUOUS
 10
133.3784783708
 20
145.7948117366
  0
VERTEX
  8
0
 62
9
  6
CONTINUOUS
 10
133.3664301529
 20
145.8148617739
  0
VERTEX
  8
0
 62
9
  6
CONTINUOUS
 10
133.3563054025
 20
145.8359577211
  0
VERTEX
  8
0
 62
9
  6
CONTINUOUS
 10
133.3481983077
 20
145.8579050288
  0
VERTEX
  8
0
 62
9
  6
CONTINUOUS
 10
133.3421787927
 20
145.8805125374
  0
VERTEX
  8
0
 62
9
  6
CONTINUOUS
 10
133.3382985222
 20
145.9035872609
  0
VERTEX
  8
0
 62
9
  6
CONTINUOUS
 10
133.3365926876
 20
145.9269184332
  0
SEQEND
  0
LINE
  8
0
 62
7
  6
CONTINUOUS
 10
136.2144193267
 20
150.1941727643
 11
136.5290903811
 21
149.5061872047
  0
LINE
  8
0
 62
9
  6
CONTINUOUS
 10
136.3143909892
 20
150.2166547854
 11
136.6220690495
 21
149.5439578569
  0
POLYLINE
  8
0
 62
9
  6
CONTINUOUS
 66
1
 70
0
  0
VERTEX
  8
0
 62
9
  6
CONTINUOUS
 10
136.174847063
 20
150.6954088221
  0
VERTEX
  8
0
 62
9
  6
CONTINUOUS
 10
136.2345922633
 20
150.4661326607
  0
VERTEX
  8
0
 62
9
  6
CONTINUOUS
 10
136.3143909892
 20
150.2166547854
  0
SEQEND
  0
LINE
  8
0
 62
9
  6
CONTINUOUS
 10
135.931512734
 20
148.8965519751
 11
135.931512734
 21
145.683475401
  0
LINE
  8
0
 62
7
  6
CONTINUOUS
 10
136.4020382645
 20
148.9052781783
 11
136.4020382645
 21
144.9552766652
  0
POLYLINE
  8
0
 62
9
  6
CONTINUOUS
 66
1
 70
0
  0
VERTEX
  8
0
 62
9
  6
CONTINUOUS
 10
135.931512734
 20
145.683475401
  0
VERTEX
  8
0
 62
9
  6
CONTINUOUS
 10
135.9299728282
 20
145.3047356865
  0
VERTEX
  8
0
 62
9
  6
CONTINUOUS
 10
135.9258580328
 20
144.9681221055
  0
VERTEX
  8
0
 62
9
  6
CONTINUOUS
 10
135.9195446755
 20
144.6993034004
  0
VERTEX
  8
0
 62
9
  6
CONTINUOUS
 10
135.9115021692
 20
144.5214150868
  0
VERTEX
  8
0
 62
9
  6
CONTINUOUS
 10
135.9020371248
 20
144.455275152
  0
SEQEND
  0
POLYLINE
  8
0
 62
9
  6
CONTINUOUS
 66
1
 70
0
  0
VERTEX
  8
0
 62
9
  6
CONTINUOUS
 10
136.4020382645
 20
145.6922016042
  0
VERTEX
  8
0
 62
9
  6
CONTINUOUS
 10
136.3904224532
 20
145.6903283397
  0
VERTEX
  8
0
 62
9
  6
CONTINUOUS
 10
136.300708978
 20
145.6869259155
  0
VERTEX
  8
0
 62
9
  6
CONTINUOUS
 10
136.2267796107
 20
145.6855548448
  0
VERTEX
  8
0
 62
9
  6
CONTINUOUS
 10
136.0377909517
 20
145.6837885529
  0
SEQEND
  0
POLYLINE
  8
0
 62
9
  6
CONTINUOUS
 66
1
 70
0
  0
VERTEX
  8
0
 62
9
  6
CONTINUOUS
 10
136.6162111566
 20
149.4552781783
  0
VERTEX
  8
0
 62
9
  6
CONTINUOUS
 10
136.6194604597
 20
149.4718357077
  0
VERTEX
  8
0
 62
9
  6
CONTINUOUS
 10
136.6207392531
 20
149.4912357498
  0
VERTEX
  8
0
 62
9
  6
CONTINUOUS
 10
136.6220690494
 20
149.5439578569
  0
SEQEND
  0
POLYLINE
  8
0
 62
9
  6
CONTINUOUS
 66
1
 70
0
  0
VERTEX
  8
0
 62
9
  6
CONTINUOUS
 10
133.5128208451
 20
144.455278215
  0
VERTEX
  8
0
 62
9
  6
CONTINUOUS
 10
133.5377580527
 20
144.5290131136
  0
VERTEX
  8
0
 62
9
  6
CONTINUOUS
 10
133.5597532724
 20
144.7415188762
  0
VERTEX
  8
0
 62
9
  6
CONTINUOUS
 10
133.568814351
 20
144.8925468831
  0
VERTEX
  8
0
 62
9
  6
CONTINUOUS
 10
133.5817252104
 20
145.2618477394
  0
VERTEX
  8
0
 62
9
  6
CONTINUOUS
 10
133.5865070189
 20
145.6834626781
  0
SEQEND
  0
POLYLINE
  8
0
 62
9
  6
CONTINUOUS
 66
1
 70
0
  0
VERTEX
  8
0
 62
9
  6
CONTINUOUS
 10
144.3699866022
 20
149.5061872638
  0
VERTEX
  8
0
 62
9
  6
CONTINUOUS
 10
144.3517070568
 20
149.5100285121
  0
VERTEX
  8
0
 62
9
  6
CONTINUOUS
 10
144.3325706871
 20
149.5183250009
  0
VERTEX
  8
0
 62
9
  6
CONTINUOUS
 10
144.2828655513
 20
149.5439578577
  0
SEQEND
  0
POLYLINE
  8
0
 62
9
  6
CONTINUOUS
 66
1
 70
0
  0
VERTEX
  8
0
 62
9
  6
CONTINUOUS
 10
136.4020382645
 20
148.9052781783
  0
VERTEX
  8
0
 62
9
  6
CONTINUOUS
 10
136.3904224033
 20
148.9034049108
  0
VERTEX
  8
0
 62
9
  6
CONTINUOUS
 10
136.3007087143
 20
148.9000024854
  0
VERTEX
  8
0
 62
9
  6
CONTINUOUS
 10
136.2267792935
 20
148.8986314161
  0
VERTEX
  8
0
 62
9
  6
CONTINUOUS
 10
136.0377907745
 20
148.8968651269
  0
VERTEX
  8
0
 62
9
  6
CONTINUOUS
 10
135.931512734
 20
148.8965519751
  0
SEQEND
  0
LINE
  8
0
 62
7
  6
CONTINUOUS
 10
147.7017967001
 20
149.4552781783
 11
136.6162111566
 21
149.4552781783
  0
LINE
  8
0
 62
9
  6
CONTINUOUS
 10
144.282865551
 20
149.5439578569
 11
136.6220690495
 21
149.5439578569
  0
LINE
  8
0
 62
9
  6
CONTINUOUS
 10
147.2563492173
 20
149.9465519751
 11
144.5873653978
 21
149.9465519751
  0
LINE
  8
0
 62
9
  6
CONTINUOUS
 10
136.3143909892
 20
150.2166547854
 11
144.5905448263
 21
150.2166547854
  0
LINE
  8
0
 62
9
  6
CONTINUOUS
 10
136.174847063
 20
150.6954088221
 11
144.7301257535
 21
150.6954088221
  0
POLYLINE
  8
0
 62
9
  6
CONTINUOUS
 66
1
 70
0
  0
VERTEX
  8
0
 62
9
  6
CONTINUOUS
 10
148.1496999268
 20
149.7330560123
  0
VERTEX
  8
0
 62
9
  6
CONTINUOUS
 10
148.0966993678
 20
149.7430966376
  0
VERTEX
  8
0
 62
9
  6
CONTINUOUS
 10
147.9447769986
 20
149.7771896183
  0
VERTEX
  8
0
 62
9
  6
CONTINUOUS
 10
147.8360600568
 20
149.8026053658
  0
VERTEX
  8
0
 62
9
  6
CONTINUOUS
 10
147.5676183055
 20
149.8676296399
  0
VERTEX
  8
0
 62
9
  6
CONTINUOUS
 10
147.2563492297
 20
149.9465519751
  0
SEQEND
  0
POLYLINE
  8
0
 62
9
  6
CONTINUOUS
 66
1
 70
0
  0
VERTEX
  8
0
 62
9
  6
CONTINUOUS
 10
144.7301257535
 20
150.6954088221
  0
VERTEX
  8
0
 62
9
  6
CONTINUOUS
 10
144.7871823
 20
150.6821738911
  0
VERTEX
  8
0
 62
9
  6
CONTINUOUS
 10
144.8086936727
 20
150.6774433768
  0
VERTEX
  8
0
 62
9
  6
CONTINUOUS
 10
144.827411817
 20
150.6740148783
  0
SEQEND
  0
POLYLINE
  8
0
 62
9
  6
CONTINUOUS
 66
1
 70
0
  0
VERTEX
  8
0
 62
9
  6
CONTINUOUS
 10
144.5905448263
 20
150.2166547854
  0
VERTEX
  8
0
 62
9
  6
CONTINUOUS
 10
144.644731071
 20
150.1995035978
  0
VERTEX
  8
0
 62
9
  6
CONTINUOUS
 10
144.6654489761
 20
150.1945544773
  0
VERTEX
  8
0
 62
9
  6
CONTINUOUS
 10
144.6846585959
 20
150.1941727643
  0
SEQEND
  0
LINE
  8
SURFACE
 62
2
  6
CONTINUOUS
 10
140.4495389613
 20
152.5952781783
 11
140.4495389613
 21
150.8352781783
  0
LINE
  8
SURFACE
 62
2
  6
CENTER
 10
140.4495389613
 20
147.3152781783
 11
140.4495389613
 21
145.2152781783
  0
LINE
  8
SURFACE
 62
2
  6
CENTER
 10
140.4495389613
 20
156.1152781783
 11
140.4495389613
 21
158.2152781783
  0
POLYLINE
  8
0
 62
9
  6
CONTINUOUS
 66
1
 70
0
  0
VERTEX
  8
0
 62
9
  6
CONTINUOUS
 10
143.7011206267
 20
169.3293375996
  0
VERTEX
  8
0
 62
9
  6
CONTINUOUS
 10
143.6981423964
 20
169.3168729374
  0
VERTEX
  8
0
 62
9
  6
CONTINUOUS
 10
143.6721861973
 20
169.2218148449
  0
SEQEND
  0
POLYLINE
  8
0
 62
9
  6
CONTINUOUS
 66
1
 70
0
  0
VERTEX
  8
0
 62
9
  6
CONTINUOUS
 10
143.6721861973
 20
169.2218148449
  0
VERTEX
  8
0
 62
9
  6
CONTINUOUS
 10
143.5953867284
 20
168.9479493667
  0
VERTEX
  8
0
 62
9
  6
CONTINUOUS
 10
143.5647090611
 20
168.8395792927
  0
SEQEND
  0
LINE
  8
SURFACE
 62
2
  6
CONTINUOUS
 10
141.3295389613
 20
151.7152781783
 11
139.5695389613
 21
151.7152781783
  0
LINE
  8
SURFACE
 62
2
  6
CENTER
 10
136.0495389613
 20
151.7152781783
 11
133.9495389613
 21
151.7152781783
  0
LINE
  8
SURFACE
 62
2
  6
CENTER
 10
144.8495389613
 20
151.7152781783
 11
146.9495389613
 21
151.7152781783
  0
POLYLINE
  8
0
 62
9
  6
CONTINUOUS
 66
1
 70
0
  0
VERTEX
  8
0
 62
9
  6
CONTINUOUS
 10
132.6912349389
 20
169.9552781783
  0
VERTEX
  8
0
 62
9
  6
CONTINUOUS
 10
132.6978662618
 20
169.9424632107
  0
VERTEX
  8
0
 62
9
  6
CONTINUOUS
 10
132.709786649
 20
169.843851159
  0
VERTEX
  8
0
 62
9
  6
CONTINUOUS
 10
132.7144646758
 20
169.763108916
  0
VERTEX
  8
0
 62
9
  6
CONTINUOUS
 10
132.7200697121
 20
169.5592340237
  0
VERTEX
  8
0
 62
9
  6
CONTINUOUS
 10
132.7207094083
 20
169.4465519751
  0
SEQEND
  0
LINE
  8
0
 62
9
  6
CONTINUOUS
 10
142.4968728357
 20
155.7225745246
 11
142.5037663163
 21
169.1078416263
  0
LINE
  8
0
 62
9
  6
CONTINUOUS
 10
142.5144981225
 20
155.6020100616
 11
142.5116968372
 21
150.5355166363
  0
LINE
  8
0
 62
9
  6
CONTINUOUS
 10
142.5116968372
 20
150.5355166363
 11
142.5102445991
 21
150.2166547854
  0
LINE
  8
0
 62
9
  6
CONTINUOUS
 10
142.5057258206
 20
149.5439578569
 11
142.5102445991
 21
150.2166547854
  0
LINE
  8
0
 62
9
  6
CONTINUOUS
 10
148.6418189915
 20
166.7523582483
 11
148.4599927705
 21
166.4943102211
  0
POLYLINE
  8
0
 62
9
  6
CONTINUOUS
 66
1
 70
0
  0
VERTEX
  8
0
 62
9
  6
CONTINUOUS
 10
136.174847063
 20
150.6954088221
  0
VERTEX
  8
0
 62
9
  6
CONTINUOUS
 10
136.1149034839
 20
150.6816909197
  0
VERTEX
  8
0
 62
9
  6
CONTINUOUS
 10
136.0919130712
 20
150.6769239974
  0
VERTEX
  8
0
 62
9
  6
CONTINUOUS
 10
136.0716661057
 20
150.6740148783
  0
SEQEND
  0
POLYLINE
  8
0
 62
9
  6
CONTINUOUS
 66
1
 70
0
  0
VERTEX
  8
0
 62
9
  6
CONTINUOUS
 10
149.1380920653
 20
153.7894803171
  0
VERTEX
  8
0
 62
9
  6
CONTINUOUS
 10
149.0837507943
 20
153.7850576792
  0
VERTEX
  8
0
 62
9
  6
CONTINUOUS
 10
148.9274662757
 20
153.7830620608
  0
VERTEX
  8
0
 62
9
  6
CONTINUOUS
 10
148.81655658
 20
153.7830620609
  0
VERTEX
  8
0
 62
9
  6
CONTINUOUS
 10
148.5459431599
 20
153.7850576793
  0
VERTEX
  8
0
 62
9
  6
CONTINUOUS
 10
148.2382291397
 20
153.7894803171
  0
SEQEND
  0
POLYLINE
  8
0
 62
9
  6
CONTINUOUS
 66
1
 70
0
  0
VERTEX
  8
0
 62
9
  6
CONTINUOUS
 10
143.5574957808
 20
154.8281122685
  0
VERTEX
  8
0
 62
9
  6
CONTINUOUS
 10
143.2533839886
 20
155.1058898197
  0
VERTEX
  8
0
 62
9
  6
CONTINUOUS
 10
142.9200757853
 20
155.3569147694
  0
VERTEX
  8
0
 62
9
  6
CONTINUOUS
 10
142.5144981225
 20
155.6020100616
  0
SEQEND
  0
LINE
  8
0
 62
9
  6
CONTINUOUS
 10
144.2828655513
 20
149.4552781783
 11
144.2828655513
 21
149.5439578569
  0
LINE
  8
0
 62
9
  6
CONTINUOUS
 10
143.5575659163
 20
154.9695320785
 11
143.5647090611
 21
168.8395792927
  0
LINE
  8
0
 62
9
  6
CONTINUOUS
 10
143.555243749
 20
149.4552781783
 11
143.5574957808
 21
154.8281122685
  0
POLYLINE
  8
0
 62
9
  6
CONTINUOUS
 66
1
 70
0
  0
VERTEX
  8
0
 62
9
  6
CONTINUOUS
 10
142.4998679277
 20
149.4552781783
  0
VERTEX
  8
0
 62
9
  6
CONTINUOUS
 10
142.5037938274
 20
149.4806724408
  0
VERTEX
  8
0
 62
9
  6
CONTINUOUS
 10
142.5057258206
 20
149.5439578569
  0
SEQEND
  0
POLYLINE
  8
0
 62
9
  6
CONTINUOUS
 66
1
 70
0
  0
VERTEX
  8
0
 62
9
  6
CONTINUOUS
 10
142.5144981225
 20
155.6020100616
  0
VERTEX
  8
0
 62
9
  6
CONTINUOUS
 10
142.5406712462
 20
155.6539513089
  0
VERTEX
  8
0
 62
9
  6
CONTINUOUS
 10
142.5497056953
 20
155.6738569716
  0
VERTEX
  8
0
 62
9
  6
CONTINUOUS
 10
142.5554001438
 20
155.6921297823
  0
SEQEND
  0
POLYLINE
  8
0
 62
9
  6
CONTINUOUS
 66
1
 70
0
  0
VERTEX
  8
0
 62
9
  6
CONTINUOUS
 10
148.7493819521
 20
166.9107788695
  0
VERTEX
  8
0
 62
9
  6
CONTINUOUS
 10
148.7429195479
 20
166.8997143196
  0
VERTEX
  8
0
 62
9
  6
CONTINUOUS
 10
148.687729248
 20
166.8184290747
  0
VERTEX
  8
0
 62
9
  6
CONTINUOUS
 10
148.6418189915
 20
166.7523582483
  0
SEQEND
  0
POLYLINE
  8
0
 62
9
  6
CONTINUOUS
 66
1
 70
0
  0
VERTEX
  8
0
 62
9
  6
CONTINUOUS
 10
136.3934387773
 20
149.7664192193
  0
VERTEX
  8
0
 62
9
  6
CONTINUOUS
 10
136.1487939392
 20
149.5361441281
  0
VERTEX
  8
0
 62
9
  6
CONTINUOUS
 10
135.9890525642
 20
149.2393601344
  0
VERTEX
  8
0
 62
9
  6
CONTINUOUS
 10
135.931512734
 20
148.8965519751
  0
SEQEND
  0
POLYLINE
  8
0
 62
9
  6
CONTINUOUS
 66
1
 70
0
  0
VERTEX
  8
0
 62
9
  6
CONTINUOUS
 10
142.5144981225
 20
155.6020100616
  0
VERTEX
  8
0
 62
9
  6
CONTINUOUS
 10
141.7710647852
 20
155.9122369348
  0
VERTEX
  8
0
 62
9
  6
CONTINUOUS
 10
141.3728943358
 20
156.0168184576
  0
VERTEX
  8
0
 62
9
  6
CONTINUOUS
 10
140.4554338552
 20
156.1135329376
  0
SEQEND
  0
POLYLINE
  8
0
 62
9
  6
CONTINUOUS
 66
1
 70
0
  0
VERTEX
  8
0
 62
9
  6
CONTINUOUS
 10
144.7301257535
 20
150.6954088221
  0
VERTEX
  8
0
 62
9
  6
CONTINUOUS
 10
144.8270046922
 20
151.2687928166
  0
VERTEX
  8
0
 62
9
  6
CONTINUOUS
 10
144.8480342742
 20
151.828593714
  0
VERTEX
  8
0
 62
9
  6
CONTINUOUS
 10
144.7979433396
 20
152.385380661
  0
VERTEX
  8
0
 62
9
  6
CONTINUOUS
 10
144.6782606566
 20
152.929227317
  0
VERTEX
  8
0
 62
9
  6
CONTINUOUS
 10
144.4779408553
 20
153.4832725174
  0
VERTEX
  8
0
 62
9
  6
CONTINUOUS
 10
144.1352513228
 20
154.116765009
  0
VERTEX
  8
0
 62
9
  6
CONTINUOUS
 10
143.5574957808
 20
154.8281122685
  0
SEQEND
  0
POLYLINE
  8
0
 62
9
  6
CONTINUOUS
 66
1
 70
0
  0
VERTEX
  8
0
 62
9
  6
CONTINUOUS
 10
143.5574957808
 20
154.8281122685
  0
VERTEX
  8
0
 62
9
  6
CONTINUOUS
 10
143.5992992152
 20
154.8703304153
  0
VERTEX
  8
0
 62
9
  6
CONTINUOUS
 10
143.6149515217
 20
154.8864028063
  0
VERTEX
  8
0
 62
9
  6
CONTINUOUS
 10
143.628131163
 20
154.9006434031
  0
SEQEND
  0
POLYLINE
  8
0
 62
9
  6
CONTINUOUS
 66
1
 70
0
  0
VERTEX
  8
0
 62
9
  6
CONTINUOUS
 10
140.4554338552
 20
156.1135329376
  0
VERTEX
  8
0
 62
9
  6
CONTINUOUS
 10
139.8362006299
 20
156.0697411756
  0
VERTEX
  8
0
 62
9
  6
CONTINUOUS
 10
139.2416730679
 20
155.9428100332
  0
VERTEX
  8
0
 62
9
  6
CONTINUOUS
 10
138.6695137013
 20
155.734787618
  0
VERTEX
  8
0
 62
9
  6
CONTINUOUS
 10
138.1301975963
 20
155.4489413946
  0
VERTEX
  8
0
 62
9
  6
CONTINUOUS
 10
137.5937705364
 20
155.0558200363
  0
VERTEX
  8
0
 62
9
  6
CONTINUOUS
 10
137.0423529383
 20
154.4903798284
  0
VERTEX
  8
0
 62
9
  6
CONTINUOUS
 10
136.6107150789
 20
153.853191212
  0
VERTEX
  8
0
 62
9
  6
CONTINUOUS
 10
136.3364508465
 20
153.260781778
  0
VERTEX
  8
0
 62
9
  6
CONTINUOUS
 10
136.1620620681
 20
152.6763198808
  0
VERTEX
  8
0
 62
9
  6
CONTINUOUS
 10
136.0703295342
 20
152.0752788344
  0
VERTEX
  8
0
 62
9
  6
CONTINUOUS
 10
136.0635531557
 20
151.4463552409
  0
VERTEX
  8
0
 62
9
  6
CONTINUOUS
 10
136.174847063
 20
150.6954088221
  0
SEQEND
  0
POLYLINE
  8
0
 62
9
  6
CONTINUOUS
 66
1
 70
0
  0
VERTEX
  8
0
 62
9
  6
CONTINUOUS
 10
139.1995389613
 20
169.9552781783
  0
VERTEX
  8
0
 62
9
  6
CONTINUOUS
 10
139.2061702845
 20
169.94246321
  0
VERTEX
  8
0
 62
9
  6
CONTINUOUS
 10
139.2180906719
 20
169.8438511544
  0
VERTEX
  8
0
 62
9
  6
CONTINUOUS
 10
139.2227686985
 20
169.7631089096
  0
VERTEX
  8
0
 62
9
  6
CONTINUOUS
 10
139.2283737347
 20
169.5592340193
  0
VERTEX
  8
0
 62
9
  6
CONTINUOUS
 10
139.2290134308
 20
169.4465519751
  0
SEQEND
  0
LINE
  8
0
 62
9
  6
CONTINUOUS
 10
147.2563492297
 20
149.4552781783
 11
147.2563492297
 21
149.9465519751
  0
POLYLINE
  8
0
 62
9
  6
CONTINUOUS
 66
1
 70
0
  0
VERTEX
  8
0
 62
9
  6
CONTINUOUS
 10
144.5905448263
 20
150.2166547854
  0
VERTEX
  8
0
 62
9
  6
CONTINUOUS
 10
144.6620326189
 20
150.4375905217
  0
VERTEX
  8
0
 62
9
  6
CONTINUOUS
 10
144.7301257535
 20
150.6954088221
  0
SEQEND
  0
LINE
  8
0
 62
9
  6
CONTINUOUS
 10
144.282865551
 20
149.5439578569
 11
144.5905448263
 21
150.2166547854
  0
LINE
  8
0
 62
7
  6
CONTINUOUS
 10
144.3699873985
 20
149.5061869509
 11
144.6846585959
 21
150.1941727643
  0
POLYLINE
  8
0
 62
9
  6
CONTINUOUS
 66
1
 70
0
  0
VERTEX
  8
0
 62
9
  6
CONTINUOUS
 10
142.5766278745
 20
169.6059831311
  0
VERTEX
  8
0
 62
9
  6
CONTINUOUS
 10
142.5807397374
 20
169.5922345749
  0
VERTEX
  8
0
 62
9
  6
CONTINUOUS
 10
142.5729117803
 20
169.4946308866
  0
VERTEX
  8
0
 62
9
  6
CONTINUOUS
 10
142.5613669882
 20
169.4157011985
  0
VERTEX
  8
0
 62
9
  6
CONTINUOUS
 10
142.5258993419
 20
169.2173005536
  0
VERTEX
  8
0
 62
9
  6
CONTINUOUS
 10
142.5037663163
 20
169.1078416263
  0
SEQEND
  0
LINE
  8
0
 62
9
  6
CONTINUOUS
 10
148.4599927705
 20
166.4943102211
 11
148.2382291397
 21
153.7894803171
  0
POLYLINE
  8
0
 62
9
  6
CONTINUOUS
 66
1
 70
0
  0
VERTEX
  8
0
 62
9
  6
CONTINUOUS
 10
148.2382291397
 20
153.7894803171
  0
VERTEX
  8
0
 62
9
  6
CONTINUOUS
 10
148.2149563461
 20
153.2897889964
  0
VERTEX
  8
0
 62
9
  6
CONTINUOUS
 10
148.1626644026
 20
152.7922555836
  0
VERTEX
  8
0
 62
9
  6
CONTINUOUS
 10
148.0815424067
 20
152.2986634188
  0
VERTEX
  8
0
 62
9
  6
CONTINUOUS
 10
147.9718626977
 20
151.8106320833
  0
VERTEX
  8
0
 62
9
  6
CONTINUOUS
 10
147.8339721683
 20
151.329731142
  0
VERTEX
  8
0
 62
9
  6
CONTINUOUS
 10
147.6683723588
 20
150.8577154094
  0
VERTEX
  8
0
 62
9
  6
CONTINUOUS
 10
147.4756328824
 20
150.3961783259
  0
VERTEX
  8
0
 62
9
  6
CONTINUOUS
 10
147.2563492173
 20
149.9465519751
  0
SEQEND
  0
POLYLINE
  8
0
 62
9
  6
CONTINUOUS
 66
1
 70
0
  0
VERTEX
  8
0
 62
9
  6
CONTINUOUS
 10
136.6220690495
 20
149.543957857
  0
VERTEX
  8
0
 62
9
  6
CONTINUOUS
 10
136.5698613205
 20
149.5173551738
  0
VERTEX
  8
0
 62
9
  6
CONTINUOUS
 10
136.5493025227
 20
149.5090034777
  0
VERTEX
  8
0
 62
9
  6
CONTINUOUS
 10
136.5290902465
 20
149.5061869719
  0
SEQEND
  0
LINE
  8
0
 62
7
  6
CONTINUOUS
 10
149.3548033075
 20
166.2048590672
 11
149.1380920653
 21
153.7894803171
  0
POLYLINE
  8
0
 62
9
  6
CONTINUOUS
 66
1
 70
0
  0
VERTEX
  8
0
 62
9
  6
CONTINUOUS
 10
136.3143909892
 20
150.2166547854
  0
VERTEX
  8
0
 62
9
  6
CONTINUOUS
 10
136.2574687503
 20
150.1986932577
  0
VERTEX
  8
0
 62
9
  6
CONTINUOUS
 10
136.2353024031
 20
150.193708383
  0
VERTEX
  8
0
 62
9
  6
CONTINUOUS
 10
136.2144193267
 20
150.1941727642
  0
SEQEND
  0
POLYLINE
  8
0
 62
9
  6
CONTINUOUS
 66
1
 70
0
  0
VERTEX
  8
0
 62
9
  6
CONTINUOUS
 10
132.9563827025
 20
160.4465519751
  0
VERTEX
  8
0
 62
9
  6
CONTINUOUS
 10
132.5542899453
 20
160.4426609359
  0
VERTEX
  8
0
 62
9
  6
CONTINUOUS
 10
132.1884381095
 20
160.4400995737
  0
VERTEX
  8
0
 62
9
  6
CONTINUOUS
 10
131.8944445716
 20
160.4391082288
  0
VERTEX
  8
0
 62
9
  6
CONTINUOUS
 10
131.7018450363
 20
160.4397991842
  0
VERTEX
  8
0
 62
9
  6
CONTINUOUS
 10
131.6329535274
 20
160.4421897041
  0
SEQEND
  0
LINE
  8
0
 62
9
  6
CONTINUOUS
 10
134.7371895082
 20
160.4465519751
 11
132.9563827025
 21
160.4465519751
  0
LINE
  8
0
 62
7
  6
CONTINUOUS
 10
134.7077150388
 20
160.9552781783
 11
132.1327821899
 21
160.9552781783
  0
LINE
  8
0
 62
7
  6
CONTINUOUS
 10
132.0018525821
 20
164.9552781783
 11
134.7077150388
 21
164.9552781783
  0
LINE
  8
0
 62
9
  6
CONTINUOUS
 10
132.8254530946
 20
165.4465519751
 11
134.7371895082
 21
165.4465519751
  0
POLYLINE
  8
0
 62
9
  6
CONTINUOUS
 66
1
 70
0
  0
VERTEX
  8
0
 62
9
  6
CONTINUOUS
 10
131.5020239196
 20
165.4421897041
  0
VERTEX
  8
0
 62
9
  6
CONTINUOUS
 10
131.5675959529
 20
165.439838296
  0
VERTEX
  8
0
 62
9
  6
CONTINUOUS
 10
131.7556038316
 20
165.4391040185
  0
VERTEX
  8
0
 62
9
  6
CONTINUOUS
 10
132.0466256047
 20
165.4400416069
  0
VERTEX
  8
0
 62
9
  6
CONTINUOUS
 10
132.4131744405
 20
165.4425757861
  0
VERTEX
  8
0
 62
9
  6
CONTINUOUS
 10
132.8254530946
 20
165.4465519751
  0
SEQEND
  0
POLYLINE
  8
0
 62
9
  6
CONTINUOUS
 66
1
 70
0
  0
VERTEX
  8
0
 62
9
  6
CONTINUOUS
 10
134.7371895082
 20
165.4465519751
  0
VERTEX
  8
0
 62
9
  6
CONTINUOUS
 10
134.971041675
 20
165.4355905747
  0
VERTEX
  8
0
 62
9
  6
CONTINUOUS
 10
135.3940774916
 20
165.3587083084
  0
VERTEX
  8
0
 62
9
  6
CONTINUOUS
 10
135.7840243653
 20
165.2168243777
  0
VERTEX
  8
0
 62
9
  6
CONTINUOUS
 10
136.1440992559
 20
165.0130961827
  0
VERTEX
  8
0
 62
9
  6
CONTINUOUS
 10
136.4768647533
 20
164.741971157
  0
VERTEX
  8
0
 62
9
  6
CONTINUOUS
 10
136.8140584887
 20
164.3381752103
  0
VERTEX
  8
0
 62
9
  6
CONTINUOUS
 10
137.0997366529
 20
163.7640915692
  0
VERTEX
  8
0
 62
9
  6
CONTINUOUS
 10
137.2331118637
 20
163.0892810738
  0
VERTEX
  8
0
 62
9
  6
CONTINUOUS
 10
137.2288774193
 20
162.74285771
  0
VERTEX
  8
0
 62
9
  6
CONTINUOUS
 10
137.0863034756
 20
162.091178627
  0
VERTEX
  8
0
 62
9
  6
CONTINUOUS
 10
136.8220909692
 20
161.5669919397
  0
VERTEX
  8
0
 62
9
  6
CONTINUOUS
 10
136.5244624615
 20
161.1985086719
  0
VERTEX
  8
0
 62
9
  6
CONTINUOUS
 10
136.2089947016
 20
160.9257131708
  0
VERTEX
  8
0
 62
9
  6
CONTINUOUS
 10
135.8549526619
 20
160.7103486005
  0
VERTEX
  8
0
 62
9
  6
CONTINUOUS
 10
135.4674452517
 20
160.5555842743
  0
VERTEX
  8
0
 62
9
  6
CONTINUOUS
 10
135.0137781768
 20
160.4618993528
  0
VERTEX
  8
0
 62
9
  6
CONTINUOUS
 10
134.7371895082
 20
160.4465519751
  0
SEQEND
  0
LINE
  8
0
 62
9
  6
CONTINUOUS
 10
149.3015314497
 20
166.2201581865
 11
149.3548033075
 21
166.2048590672
  0
LINE
  8
0
 62
9
  6
CONTINUOUS
 10
148.4599927705
 20
166.4943102211
 11
148.7737657819
 21
166.3923890933
  0
LINE
  8
0
 62
9
  6
CONTINUOUS
 10
148.7737657819
 20
166.3923890933
 11
149.3015314497
 21
166.2201581865
  0
POLYLINE
  8
0
 62
9
  6
CONTINUOUS
 66
1
 70
0
  0
VERTEX
  8
0
 62
9
  6
CONTINUOUS
 10
143.5647090611
 20
168.8395792927
  0
VERTEX
  8
0
 62
9
  6
CONTINUOUS
 10
146.0865957331
 20
167.8884510546
  0
VERTEX
  8
0
 62
9
  6
CONTINUOUS
 10
148.4599927705
 20
166.4943102211
  0
SEQEND
  0
POLYLINE
  8
0
 62
9
  6
CONTINUOUS
 66
1
 70
0
  0
VERTEX
  8
0
 62
9
  6
CONTINUOUS
 10
131.3972802333
 20
169.4421897041
  0
VERTEX
  8
0
 62
9
  6
CONTINUOUS
 10
131.4629329447
 20
169.4398373222
  0
VERTEX
  8
0
 62
9
  6
CONTINUOUS
 10
131.6514502514
 20
169.4391042736
  0
VERTEX
  8
0
 62
9
  6
CONTINUOUS
 10
131.943295075
 20
169.4400490623
  0
VERTEX
  8
0
 62
9
  6
CONTINUOUS
 10
132.3101414465
 20
169.4425900391
  0
VERTEX
  8
0
 62
9
  6
CONTINUOUS
 10
132.7207094083
 20
169.4465519751
  0
SEQEND
  0
POLYLINE
  8
0
 62
9
  6
CONTINUOUS
 66
1
 70
0
  0
VERTEX
  8
0
 62
9
  6
CONTINUOUS
 10
142.5037663163
 20
169.1078416263
  0
VERTEX
  8
0
 62
9
  6
CONTINUOUS
 10
142.8581316215
 20
169.0272401574
  0
VERTEX
  8
0
 62
9
  6
CONTINUOUS
 10
143.2118231887
 20
168.9378413326
  0
VERTEX
  8
0
 62
9
  6
CONTINUOUS
 10
143.5647090611
 20
168.8395792927
  0
SEQEND
  0
LINE
  8
0
 62
9
  6
CONTINUOUS
 10
132.7207094083
 20
169.4465519751
 11
139.2290134308
 21
169.4465519751
  0
LINE
  8
0
 62
7
  6
CONTINUOUS
 10
131.8971088958
 20
169.9552781783
 11
139.1995389613
 21
169.9552781783
  0
POLYLINE
  8
0
 62
9
  6
CONTINUOUS
 66
1
 70
0
  0
VERTEX
  8
0
 62
9
  6
CONTINUOUS
 10
139.2290134308
 20
169.4465519751
  0
VERTEX
  8
0
 62
9
  6
CONTINUOUS
 10
140.2871323859
 20
169.4115256449
  0
VERTEX
  8
0
 62
9
  6
CONTINUOUS
 10
141.3352373813
 20
169.3073155339
  0
VERTEX
  8
0
 62
9
  6
CONTINUOUS
 10
142.5037663163
 20
169.1078416263
  0
SEQEND
  0
LINE
  8
0
 62
9
  6
CONTINUOUS
 10
67.3145940631
 20
169.4457695016
 11
67.3167548055
 21
169.4465519751
  0
POLYLINE
  8
0
 62
9
  6
CONTINUOUS
 66
1
 70
0
  0
VERTEX
  8
0
 62
9
  6
CONTINUOUS
 10
69.3069155582
 20
144.4552781783
  0
VERTEX
  8
0
 62
9
  6
CONTINUOUS
 10
69.6871530149
 20
144.514470239
  0
VERTEX
  8
0
 62
9
  6
CONTINUOUS
 10
70.0269432935
 20
144.6833027664
  0
VERTEX
  8
0
 62
9
  6
CONTINUOUS
 10
70.3003772811
 20
144.9461687334
  0
VERTEX
  8
0
 62
9
  6
CONTINUOUS
 10
70.48409587
 20
145.283670534
  0
VERTEX
  8
0
 62
9
  6
CONTINUOUS
 10
70.5571834723
 20
145.6834768904
  0
SEQEND
  0
POLYLINE
  8
0
 62
9
  6
CONTINUOUS
 66
1
 70
0
  0
VERTEX
  8
0
 62
9
  6
CONTINUOUS
 10
69.3069155582
 20
144.9552781783
  0
VERTEX
  8
0
 62
9
  6
CONTINUOUS
 10
69.5353790929
 20
144.9907938635
  0
VERTEX
  8
0
 62
9
  6
CONTINUOUS
 10
69.7395398147
 20
145.0920944868
  0
VERTEX
  8
0
 62
9
  6
CONTINUOUS
 10
69.9038302024
 20
145.2498154238
  0
VERTEX
  8
0
 62
9
  6
CONTINUOUS
 10
70.0142153362
 20
145.4523178625
  0
VERTEX
  8
0
 62
9
  6
CONTINUOUS
 10
70.0581272973
 20
145.692203123
  0
SEQEND
  0
POLYLINE
  8
0
 62
7
  6
CONTINUOUS
 66
1
 70
0
  0
VERTEX
  8
0
 62
7
  6
CONTINUOUS
 10
69.4480415983
 20
144.4552782146
  0
VERTEX
  8
0
 62
7
  6
CONTINUOUS
 10
69.5493073204
 20
144.4593839693
  0
VERTEX
  8
0
 62
7
  6
CONTINUOUS
 10
69.808459481
 20
144.5083261703
  0
VERTEX
  8
0
 62
7
  6
CONTINUOUS
 10
70.0366831879
 20
144.6024284232
  0
VERTEX
  8
0
 62
7
  6
CONTINUOUS
 10
70.2281016683
 20
144.7282641009
  0
VERTEX
  8
0
 62
7
  6
CONTINUOUS
 10
70.3810792976
 20
144.8728907012
  0
VERTEX
  8
0
 62
7
  6
CONTINUOUS
 10
70.498544399
 20
145.0267535468
  0
VERTEX
  8
0
 62
7
  6
CONTINUOUS
 10
70.5454542466
 20
145.1052919882
  0
VERTEX
  8
0
 62
7
  6
CONTINUOUS
 10
70.6176494608
 20
145.2610952177
  0
VERTEX
  8
0
 62
7
  6
CONTINUOUS
 10
70.6643083034
 20
145.409079305
  0
VERTEX
  8
0
 62
7
  6
CONTINUOUS
 10
70.6913871064
 20
145.5468045837
  0
VERTEX
  8
0
 62
7
  6
CONTINUOUS
 10
70.7059376479
 20
145.6807724892
  0
SEQEND
  0
LINE
  8
0
 62
7
  6
CONTINUOUS
 10
69.0310339746
 20
144.4552781783
 11
69.4480418044
 21
144.4552781783
  0
LINE
  8
0
 62
9
  6
CONTINUOUS
 10
69.1721580287
 20
144.9552766652
 11
69.3069155582
 21
144.9552781783
  0
LINE
  8
0
 62
9
  6
CONTINUOUS
 10
69.0310339746
 20
144.455278215
 11
68.608803526
 21
144.5290131136
  0
LINE
  8
0
 62
9
  6
CONTINUOUS
 10
68.420950007
 20
145.6922016042
 11
67.9218957925
 21
145.683475401
  0
LINE
  8
0
 62
9
  6
CONTINUOUS
 10
67.9218957925
 20
145.683475401
 11
67.7833984383
 21
145.6834626702
  0
LINE
  8
0
 62
9
  6
CONTINUOUS
 10
70.5571802524
 20
145.683476943
 11
70.6956773406
 21
145.6834626702
  0
LINE
  8
0
 62
9
  6
CONTINUOUS
 10
70.0581272973
 20
145.692203123
 11
70.5571802524
 21
145.683476946
  0
POLYLINE
  8
0
 62
9
  6
CONTINUOUS
 66
1
 70
0
  0
VERTEX
  8
0
 62
9
  6
CONTINUOUS
 10
68.608803526
 20
144.5290131136
  0
VERTEX
  8
0
 62
9
  6
CONTINUOUS
 10
68.2363860661
 20
144.7415188762
  0
VERTEX
  8
0
 62
9
  6
CONTINUOUS
 10
68.0829661884
 20
144.8925468831
  0
VERTEX
  8
0
 62
9
  6
CONTINUOUS
 10
67.8643628044
 20
145.2618477394
  0
VERTEX
  8
0
 62
9
  6
CONTINUOUS
 10
67.7833984382
 20
145.6834626781
  0
SEQEND
  0
POLYLINE
  8
0
 62
9
  6
CONTINUOUS
 66
1
 70
0
  0
VERTEX
  8
0
 62
9
  6
CONTINUOUS
 10
67.7833984383
 20
145.6834626702
  0
VERTEX
  8
0
 62
9
  6
CONTINUOUS
 10
67.7819992532
 20
145.6845570697
  0
VERTEX
  8
0
 62
9
  6
CONTINUOUS
 10
67.7805734188
 20
145.6878325773
  0
VERTEX
  8
0
 62
9
  6
CONTINUOUS
 10
67.7791349203
 20
145.6932565088
  0
VERTEX
  8
0
 62
9
  6
CONTINUOUS
 10
67.7776954955
 20
145.7007826333
  0
VERTEX
  8
0
 62
9
  6
CONTINUOUS
 10
67.7762673132
 20
145.7103481975
  0
VERTEX
  8
0
 62
9
  6
CONTINUOUS
 10
67.7748628864
 20
145.721871252
  0
VERTEX
  8
0
 62
9
  6
CONTINUOUS
 10
67.7734953761
 20
145.7352437381
  0
VERTEX
  8
0
 62
9
  6
CONTINUOUS
 10
67.7721760011
 20
145.7503556725
  0
VERTEX
  8
0
 62
9
  6
CONTINUOUS
 10
67.7715381527
 20
145.7585215665
  0
VERTEX
  8
0
 62
9
  6
CONTINUOUS
 10
67.7703134345
 20
145.7759786085
  0
VERTEX
  8
0
 62
9
  6
CONTINUOUS
 10
67.7691651378
 20
145.7948117366
  0
VERTEX
  8
0
 62
9
  6
CONTINUOUS
 10
67.7681029776
 20
145.8148617739
  0
VERTEX
  8
0
 62
9
  6
CONTINUOUS
 10
67.7671361304
 20
145.8359577211
  0
VERTEX
  8
0
 62
9
  6
CONTINUOUS
 10
67.7662735608
 20
145.8579050288
  0
VERTEX
  8
0
 62
9
  6
CONTINUOUS
 10
67.7655227411
 20
145.8805125374
  0
VERTEX
  8
0
 62
9
  6
CONTINUOUS
 10
67.7648900971
 20
145.9035872609
  0
SEQEND
  0
LINE
  8
0
 62
9
  6
CONTINUOUS
 10
67.39072222
 20
165.4457695014
 11
67.3928829622
 21
165.4465519751
  0
POLYLINE
  8
0
 62
9
  6
CONTINUOUS
 66
1
 70
0
  0
VERTEX
  8
0
 62
9
  6
CONTINUOUS
 10
70.3185728811
 20
149.5061872651
  0
VERTEX
  8
0
 62
9
  6
CONTINUOUS
 10
70.3752590469
 20
149.5100285371
  0
VERTEX
  8
0
 62
9
  6
CONTINUOUS
 10
70.3970831313
 20
149.5183250047
  0
VERTEX
  8
0
 62
9
  6
CONTINUOUS
 10
70.417930059
 20
149.5439578575
  0
SEQEND
  0
LINE
  8
0
 62
9
  6
CONTINUOUS
 10
68.3647678161
 20
148.9052781783
 11
67.8657136016
 21
148.8965519751
  0
LINE
  8
0
 62
9
  6
CONTINUOUS
 10
68.3647678161
 20
148.9052781783
 11
70.1143079629
 21
148.9052781783
  0
LINE
  8
0
 62
7
  6
CONTINUOUS
 10
67.7818718052
 20
149.4552781783
 11
70.6972039659
 21
149.4552781783
  0
LINE
  8
0
 62
9
  6
CONTINUOUS
 10
68.5463511832
 20
149.5061872692
 11
68.1605028861
 21
149.5061869509
  0
LINE
  8
0
 62
9
  6
CONTINUOUS
 10
69.9327245958
 20
149.5061872692
 11
70.3185728928
 21
149.5061869509
  0
LINE
  8
0
 62
9
  6
CONTINUOUS
 10
68.0611457145
 20
149.5439578569
 11
67.6829409548
 21
149.5439578569
  0
LINE
  8
0
 62
9
  6
CONTINUOUS
 10
70.4179300645
 20
149.5439578569
 11
70.7961156669
 21
149.5439578569
  0
LINE
  8
0
 62
9
  6
CONTINUOUS
 10
69.3159546965
 20
149.7330559846
 11
69.1631210825
 21
149.7330559798
  0
LINE
  8
0
 62
9
  6
CONTINUOUS
 10
70.1143079629
 20
148.9052781783
 11
70.6133621774
 21
148.8965519751
  0
POLYLINE
  8
0
 62
9
  6
CONTINUOUS
 66
1
 70
0
  0
VERTEX
  8
0
 62
9
  6
CONTINUOUS
 10
69.1631210821
 20
149.7330560123
  0
VERTEX
  8
0
 62
9
  6
CONTINUOUS
 10
68.8620034427
 20
149.7430966376
  0
VERTEX
  8
0
 62
9
  6
CONTINUOUS
 10
68.5943707105
 20
149.7771896183
  0
VERTEX
  8
0
 62
9
  6
CONTINUOUS
 10
68.4831966409
 20
149.8026053658
  0
VERTEX
  8
0
 62
9
  6
CONTINUOUS
 10
68.3238426771
 20
149.8676296399
  0
VERTEX
  8
0
 62
9
  6
CONTINUOUS
 10
68.2662394267
 20
149.9465519751
  0
SEQEND
  0
POLYLINE
  8
0
 62
9
  6
CONTINUOUS
 66
1
 70
0
  0
VERTEX
  8
0
 62
9
  6
CONTINUOUS
 10
68.1605029041
 20
149.5061872638
  0
VERTEX
  8
0
 62
9
  6
CONTINUOUS
 10
68.1038168313
 20
149.5100285121
  0
VERTEX
  8
0
 62
9
  6
CONTINUOUS
 10
68.081992656
 20
149.5183250009
  0
VERTEX
  8
0
 62
9
  6
CONTINUOUS
 10
68.0611457215
 20
149.5439578577
  0
SEQEND
  0
LINE
  8
0
 62
9
  6
CONTINUOUS
 10
68.1293644361
 20
149.4552781783
 11
68.0628921016
 21
149.4806724408
  0
LINE
  8
0
 62
9
  6
CONTINUOUS
 10
70.7146943863
 20
145.9269184332
 11
70.7168325264
 21
145.9249482753
  0
LINE
  8
SURFACE
 62
9
  6
CONTINUOUS
 10
70.8913376835
 20
150.2166547854
 11
70.4945741985
 21
150.2166547878
  0
LINE
  8
0
 62
9
  6
CONTINUOUS
 10
67.5877380955
 20
150.2166547854
 11
67.9845015805
 21
150.2166547878
  0
LINE
  8
SURFACE
 62
9
  6
CONTINUOUS
 10
70.931013117
 20
150.6954088221
 11
70.5259533954
 21
150.6954088092
  0
LINE
  8
0
 62
9
  6
CONTINUOUS
 10
67.548062662
 20
150.6954088221
 11
67.9531223836
 21
150.6954088092
  0
POLYLINE
  8
0
 62
9
  6
CONTINUOUS
 66
1
 70
0
  0
VERTEX
  8
0
 62
9
  6
CONTINUOUS
 10
67.9531223834
 20
150.6954088221
  0
VERTEX
  8
0
 62
9
  6
CONTINUOUS
 10
67.9723597383
 20
150.6821738911
  0
VERTEX
  8
0
 62
9
  6
CONTINUOUS
 10
67.9944678236
 20
150.6774433768
  0
VERTEX
  8
0
 62
9
  6
CONTINUOUS
 10
68.0531071529
 20
150.6740148783
  0
SEQEND
  0
POLYLINE
  8
0
 62
9
  6
CONTINUOUS
 66
1
 70
0
  0
VERTEX
  8
0
 62
9
  6
CONTINUOUS
 10
67.9845015808
 20
150.2166547854
  0
VERTEX
  8
0
 62
9
  6
CONTINUOUS
 10
68.0047814367
 20
150.1995035978
  0
VERTEX
  8
0
 62
9
  6
CONTINUOUS
 10
68.0266536105
 20
150.1945544773
  0
VERTEX
  8
0
 62
9
  6
CONTINUOUS
 10
68.0838587663
 20
150.1941727643
  0
SEQEND
  0
LINE
  8
0
 62
9
  6
CONTINUOUS
 10
67.7054112887
 20
149.4910493717
 11
67.705203274
 21
149.4912357498
  0
LINE
  8
SURFACE
 62
2
  6
CENTER
 10
65.611868567
 20
151.7152781783
 11
73.116100527
 21
151.7152781783
  0
POLYLINE
  8
0
 62
9
  6
CONTINUOUS
 66
1
 70
0
  0
VERTEX
  8
0
 62
9
  6
CONTINUOUS
 10
70.079550483
 20
169.6059831311
  0
VERTEX
  8
0
 62
9
  6
CONTINUOUS
 10
70.1442069102
 20
169.793667819
  0
VERTEX
  8
0
 62
9
  6
CONTINUOUS
 10
70.208068536
 20
169.9098886304
  0
VERTEX
  8
0
 62
9
  6
CONTINUOUS
 10
70.2788820514
 20
169.9552781783
  0
SEQEND
  0
LINE
  8
0
 62
9
  6
CONTINUOUS
 10
67.4880431582
 20
160.4465519751
 11
67.4858824353
 21
160.4457684678
  0
LINE
  8
0
 62
9
  6
CONTINUOUS
 10
68.0628921016
 20
149.4806724408
 11
68.0301800854
 21
149.5439578569
  0
POLYLINE
  8
0
 62
7
  6
CONTINUOUS
 66
1
 70
0
  0
VERTEX
  8
0
 62
7
  6
CONTINUOUS
 10
67.6829409547
 20
149.5406943956
  0
VERTEX
  8
0
 62
7
  6
CONTINUOUS
 10
67.7056265659
 20
149.4905737472
  0
VERTEX
  8
0
 62
7
  6
CONTINUOUS
 10
67.7266129105
 20
149.4719327855
  0
VERTEX
  8
0
 62
7
  6
CONTINUOUS
 10
67.7818717962
 20
149.4552781783
  0
SEQEND
  0
LINE
  8
0
 62
9
  6
CONTINUOUS
 10
67.705203274
 20
149.4912357498
 11
67.6826874546
 21
149.5439578569
  0
POLYLINE
  8
0
 62
7
  6
CONTINUOUS
 66
1
 70
0
  0
VERTEX
  8
0
 62
7
  6
CONTINUOUS
 10
67.7731429477
 20
145.6807102681
  0
VERTEX
  8
0
 62
7
  6
CONTINUOUS
 10
67.7877059744
 20
145.5466864986
  0
VERTEX
  8
0
 62
7
  6
CONTINUOUS
 10
67.8148178584
 20
145.4088783235
  0
VERTEX
  8
0
 62
7
  6
CONTINUOUS
 10
67.8615017144
 20
145.2608985588
  0
VERTEX
  8
0
 62
7
  6
CONTINUOUS
 10
67.9336973491
 20
145.105153895
  0
VERTEX
  8
0
 62
7
  6
CONTINUOUS
 10
67.9806014801
 20
145.0266453475
  0
VERTEX
  8
0
 62
7
  6
CONTINUOUS
 10
68.0980287739
 20
144.8728545684
  0
VERTEX
  8
0
 62
7
  6
CONTINUOUS
 10
68.2509254367
 20
144.7283029185
  0
VERTEX
  8
0
 62
7
  6
CONTINUOUS
 10
68.4422689899
 20
144.6024943431
  0
VERTEX
  8
0
 62
7
  6
CONTINUOUS
 10
68.6704707388
 20
144.5083699728
  0
VERTEX
  8
0
 62
7
  6
CONTINUOUS
 10
68.929693442
 20
144.4593900637
  0
VERTEX
  8
0
 62
7
  6
CONTINUOUS
 10
69.031034163
 20
144.4552782151
  0
SEQEND
  0
LINE
  8
0
 62
9
  6
CONTINUOUS
 10
67.5608755812
 20
150.4661326607
 11
67.5877380955
 21
150.2166547854
  0
POLYLINE
  8
0
 62
9
  6
CONTINUOUS
 66
1
 70
0
  0
VERTEX
  8
0
 62
9
  6
CONTINUOUS
 10
70.5786046975
 20
169.1078416263
  0
VERTEX
  8
0
 62
9
  6
CONTINUOUS
 10
70.6432611201
 20
169.2898388994
  0
VERTEX
  8
0
 62
9
  6
CONTINUOUS
 10
70.7071227568
 20
169.402537868
  0
VERTEX
  8
0
 62
9
  6
CONTINUOUS
 10
70.7779362659
 20
169.4465519751
  0
SEQEND
  0
POLYLINE
  8
0
 62
9
  6
CONTINUOUS
 66
1
 70
0
  0
VERTEX
  8
0
 62
9
  6
CONTINUOUS
 10
70.279914916
 20
153.7894803171
  0
VERTEX
  8
0
 62
9
  6
CONTINUOUS
 10
70.2255736489
 20
153.7850576793
  0
VERTEX
  8
0
 62
9
  6
CONTINUOUS
 10
70.0692891343
 20
153.7830620609
  0
VERTEX
  8
0
 62
9
  6
CONTINUOUS
 10
69.9583794396
 20
153.7830620608
  0
VERTEX
  8
0
 62
9
  6
CONTINUOUS
 10
69.6877660188
 20
153.7850576792
  0
VERTEX
  8
0
 62
9
  6
CONTINUOUS
 10
69.3800519904
 20
153.7894803171
  0
SEQEND
  0
POLYLINE
  8
0
 62
9
  6
CONTINUOUS
 66
1
 70
0
  0
VERTEX
  8
0
 62
9
  6
CONTINUOUS
 10
69.0990237886
 20
153.7894803171
  0
VERTEX
  8
0
 62
9
  6
CONTINUOUS
 10
68.7913097613
 20
153.7850576792
  0
VERTEX
  8
0
 62
9
  6
CONTINUOUS
 10
68.5206963415
 20
153.7830620608
  0
VERTEX
  8
0
 62
9
  6
CONTINUOUS
 10
68.4097866469
 20
153.7830620609
  0
VERTEX
  8
0
 62
9
  6
CONTINUOUS
 10
68.2535021314
 20
153.7850576793
  0
VERTEX
  8
0
 62
9
  6
CONTINUOUS
 10
68.1991608629
 20
153.7894803171
  0
SEQEND
  0
LINE
  8
0
 62
9
  6
CONTINUOUS
 10
69.0990237886
 20
153.7894803171
 11
69.3800519904
 21
153.7894803171
  0
POLYLINE
  8
0
 62
9
  6
CONTINUOUS
 66
1
 70
0
  0
VERTEX
  8
0
 62
9
  6
CONTINUOUS
 10
68.420950007
 20
145.6922016042
  0
VERTEX
  8
0
 62
9
  6
CONTINUOUS
 10
68.4604538172
 20
145.4649556724
  0
VERTEX
  8
0
 62
9
  6
CONTINUOUS
 10
68.5653885911
 20
145.2629857621
  0
VERTEX
  8
0
 62
9
  6
CONTINUOUS
 10
68.7261934339
 20
145.1016932202
  0
VERTEX
  8
0
 62
9
  6
CONTINUOUS
 10
68.9310050786
 20
144.9949594133
  0
VERTEX
  8
0
 62
9
  6
CONTINUOUS
 10
69.1721580287
 20
144.9552766652
  0
SEQEND
  0
POLYLINE
  8
0
 62
9
  6
CONTINUOUS
 66
1
 70
0
  0
VERTEX
  8
0
 62
9
  6
CONTINUOUS
 10
67.9218957925
 20
145.683475401
  0
VERTEX
  8
0
 62
9
  6
CONTINUOUS
 10
67.9876439016
 20
145.3047356865
  0
VERTEX
  8
0
 62
9
  6
CONTINUOUS
 10
68.1622905352
 20
144.9681221055
  0
VERTEX
  8
0
 62
9
  6
CONTINUOUS
 10
68.4299233571
 20
144.6993034004
  0
VERTEX
  8
0
 62
9
  6
CONTINUOUS
 10
68.7707983206
 20
144.5214150868
  0
VERTEX
  8
0
 62
9
  6
CONTINUOUS
 10
69.1721579615
 20
144.455275152
  0
SEQEND
  0
LINE
  8
0
 62
7
  6
CONTINUOUS
 10
67.6522576695
 20
149.7518125809
 11
67.6829409636
 21
149.5406943321
  0
LINE
  8
0
 62
9
  6
CONTINUOUS
 10
67.5877380955
 20
150.2166547854
 11
67.6826874546
 21
149.5439578569
  0
POLYLINE
  8
0
 62
7
  6
CONTINUOUS
 66
1
 70
0
  0
VERTEX
  8
0
 62
7
  6
CONTINUOUS
 10
67.587825982
 20
150.214562769
  0
VERTEX
  8
0
 62
7
  6
CONTINUOUS
 10
67.6179364024
 20
149.9950168964
  0
VERTEX
  8
0
 62
7
  6
CONTINUOUS
 10
67.6522576695
 20
149.7518125809
  0
SEQEND
  0
LINE
  8
0
 62
7
  6
CONTINUOUS
 10
67.5697972791
 20
150.3664107104
 11
67.5878259905
 21
150.2145627064
  0
POLYLINE
  8
0
 62
9
  6
CONTINUOUS
 66
1
 70
0
  0
VERTEX
  8
0
 62
9
  6
CONTINUOUS
 10
68.0838587663
 20
150.1941727643
  0
VERTEX
  8
0
 62
9
  6
CONTINUOUS
 10
68.0640446716
 20
150.4156106272
  0
VERTEX
  8
0
 62
9
  6
CONTINUOUS
 10
68.0531071529
 20
150.6740148783
  0
SEQEND
  0
LINE
  8
0
 62
9
  6
CONTINUOUS
 10
67.6826874549
 20
149.543957857
 11
67.6829409548
 21
149.5406943953
  0
LINE
  8
0
 62
9
  6
CONTINUOUS
 10
67.548062662
 20
150.6954088221
 11
67.5608755812
 21
150.4661326607
  0
LINE
  8
0
 62
7
  6
CONTINUOUS
 10
67.7645725904
 20
145.8388258282
 11
67.7731429477
 21
145.6807102681
  0
POLYLINE
  8
0
 62
7
  6
CONTINUOUS
 66
1
 70
0
  0
VERTEX
  8
0
 62
7
  6
CONTINUOUS
 10
67.5479231835
 20
150.6940023543
  0
VERTEX
  8
0
 62
7
  6
CONTINUOUS
 10
67.5549464171
 20
150.5459213274
  0
VERTEX
  8
0
 62
7
  6
CONTINUOUS
 10
67.5697972791
 20
150.3664107104
  0
SEQEND
  0
POLYLINE
  8
0
 62
9
  6
CONTINUOUS
 66
1
 70
0
  0
VERTEX
  8
0
 62
9
  6
CONTINUOUS
 10
67.6478331162
 20
164.3381752103
  0
VERTEX
  8
0
 62
9
  6
CONTINUOUS
 10
67.674743585
 20
163.7640915692
  0
VERTEX
  8
0
 62
9
  6
CONTINUOUS
 10
67.6826713528
 20
163.4922083609
  0
SEQEND
  0
LINE
  8
0
 62
9
  6
CONTINUOUS
 10
67.5877380955
 20
150.2166547854
 11
67.587825982
 21
150.214562769
  0
POLYLINE
  8
0
 62
9
  6
CONTINUOUS
 66
1
 70
0
  0
VERTEX
  8
0
 62
9
  6
CONTINUOUS
 10
67.922337373
 20
150.6954088221
  0
VERTEX
  8
0
 62
9
  6
CONTINUOUS
 10
67.9276812255
 20
150.5355166363
  0
VERTEX
  8
0
 62
9
  6
CONTINUOUS
 10
67.9381287585
 20
150.3758774821
  0
VERTEX
  8
0
 62
9
  6
CONTINUOUS
 10
67.9536692765
 20
150.2166547854
  0
SEQEND
  0
POLYLINE
  8
0
 62
7
  6
CONTINUOUS
 66
1
 70
0
  0
VERTEX
  8
0
 62
7
  6
CONTINUOUS
 10
68.1785629828
 20
154.9695320785
  0
VERTEX
  8
0
 62
7
  6
CONTINUOUS
 10
68.1681256113
 20
155.310478989
  0
VERTEX
  8
0
 62
7
  6
CONTINUOUS
 10
68.1592702917
 20
155.4642520943
  0
VERTEX
  8
0
 62
7
  6
CONTINUOUS
 10
68.1341117878
 20
155.7225745246
  0
SEQEND
  0
POLYLINE
  8
0
 62
9
  6
CONTINUOUS
 66
1
 70
0
  0
VERTEX
  8
0
 62
9
  6
CONTINUOUS
 10
67.6873497391
 20
163.3472174635
  0
VERTEX
  8
0
 62
9
  6
CONTINUOUS
 10
67.6944201989
 20
163.0892810738
  0
VERTEX
  8
0
 62
9
  6
CONTINUOUS
 10
67.7002274892
 20
162.74285771
  0
SEQEND
  0
LINE
  8
0
 62
7
  6
CONTINUOUS
 10
67.7622432531
 20
145.9249482745
 11
67.7645725904
 21
145.8388258282
  0
POLYLINE
  8
0
 62
9
  6
CONTINUOUS
 66
1
 70
0
  0
VERTEX
  8
0
 62
9
  6
CONTINUOUS
 10
67.8809857764
 20
154.8281122685
  0
VERTEX
  8
0
 62
9
  6
CONTINUOUS
 10
67.8735215595
 20
155.1058898197
  0
VERTEX
  8
0
 62
9
  6
CONTINUOUS
 10
67.8602626824
 20
155.3569147694
  0
VERTEX
  8
0
 62
9
  6
CONTINUOUS
 10
67.8366923297
 20
155.6020100616
  0
SEQEND
  0
POLYLINE
  8
0
 62
9
  6
CONTINUOUS
 66
1
 70
0
  0
VERTEX
  8
0
 62
9
  6
CONTINUOUS
 10
67.9809705459
 20
154.9006434031
  0
VERTEX
  8
0
 62
9
  6
CONTINUOUS
 10
67.9734915404
 20
155.1847347215
  0
VERTEX
  8
0
 62
9
  6
CONTINUOUS
 10
67.9601825084
 20
155.4414648805
  0
VERTEX
  8
0
 62
9
  6
CONTINUOUS
 10
67.9365031726
 20
155.6921297823
  0
SEQEND
  0
LINE
  8
0
 62
9
  6
CONTINUOUS
 10
67.5283589111
 20
151.4463552409
 11
67.548062662
 21
150.6954088221
  0
LINE
  8
0
 62
7
  6
CONTINUOUS
 10
67.762243254
 20
145.9249481997
 11
67.6938885623
 21
149.5165072056
  0
LINE
  8
0
 62
7
  6
CONTINUOUS
 10
67.5808801429
 20
155.454306003
 11
67.4858833751
 21
160.4457190047
  0
LINE
  8
0
 62
7
  6
CONTINUOUS
 10
67.3907232096
 20
165.445717406
 11
67.3145950461
 21
169.4457177605
  0
LINE
  8
0
 62
9
  6
CONTINUOUS
 10
67.7648900971
 20
145.9035872609
 11
67.6961596965
 21
149.5114894559
  0
LINE
  8
0
 62
9
  6
CONTINUOUS
 10
67.5826246331
 20
155.4769596997
 11
67.4880431582
 21
160.4465519751
  0
LINE
  8
0
 62
9
  6
CONTINUOUS
 10
67.3928829622
 20
165.4465519751
 11
67.3167548055
 21
169.4465519751
  0
LINE
  8
0
 62
9
  6
CONTINUOUS
 10
67.8657136016
 20
148.8965519751
 11
67.9218957925
 21
145.683475401
  0
LINE
  8
0
 62
9
  6
CONTINUOUS
 10
67.922337373
 20
150.6954088221
 11
67.8366923297
 21
155.6020100616
  0
LINE
  8
0
 62
7
  6
CONTINUOUS
 10
67.9531223834
 20
150.6954088221
 11
67.8809857764
 21
154.8281122685
  0
LINE
  8
0
 62
9
  6
CONTINUOUS
 10
68.1341117878
 20
155.7225745246
 11
67.9004710814
 21
169.1078416263
  0
LINE
  8
0
 62
7
  6
CONTINUOUS
 10
67.9364604081
 20
168.8395792927
 11
68.2662394267
 21
149.9465519751
  0
LINE
  8
0
 62
9
  6
CONTINUOUS
 10
68.3647678161
 20
148.9052781783
 11
68.420950007
 21
145.6922016042
  0
LINE
  8
0
 62
9
  6
CONTINUOUS
 10
68.0531071529
 20
150.6740148783
 11
67.9809705459
 21
154.9006434031
  0
LINE
  8
0
 62
9
  6
CONTINUOUS
 10
67.5177620966
 20
152.0752788344
 11
67.5193801272
 21
151.9426134493
  0
LINE
  8
0
 62
9
  6
CONTINUOUS
 10
67.5126703882
 20
152.6763198808
 11
67.5132020847
 21
152.5399262759
  0
LINE
  8
0
 62
9
  6
CONTINUOUS
 10
67.7002274892
 20
162.74285771
 11
67.7016008722
 21
162.5134613119
  0
POLYLINE
  8
0
 62
9
  6
CONTINUOUS
 66
1
 70
0
  0
VERTEX
  8
0
 62
9
  6
CONTINUOUS
 10
67.7023671028
 20
162.131656522
  0
VERTEX
  8
0
 62
9
  6
CONTINUOUS
 10
67.703201901
 20
162.091178627
  0
VERTEX
  8
0
 62
9
  6
CONTINUOUS
 10
67.6996701753
 20
161.8036634564
  0
SEQEND
  0
LINE
  8
0
 62
9
  6
CONTINUOUS
 10
68.1605028749
 20
149.4552781783
 11
68.1605029041
 21
149.5061868477
  0
LINE
  8
0
 62
9
  6
CONTINUOUS
 10
67.5127503062
 20
153.260781778
 11
67.5126848022
 21
152.7817335611
  0
LINE
  8
0
 62
9
  6
CONTINUOUS
 10
67.5185899676
 20
153.853191212
 11
67.5135176493
 21
153.3386255522
  0
POLYLINE
  8
0
 62
9
  6
CONTINUOUS
 66
1
 70
0
  0
VERTEX
  8
0
 62
9
  6
CONTINUOUS
 10
67.69961597
 20
161.7970711545
  0
VERTEX
  8
0
 62
9
  6
CONTINUOUS
 10
67.6967629935
 20
161.5669919397
  0
VERTEX
  8
0
 62
9
  6
CONTINUOUS
 10
67.6856279659
 20
161.1985086719
  0
VERTEX
  8
0
 62
9
  6
CONTINUOUS
 10
67.6717661936
 20
160.9257131708
  0
VERTEX
  8
0
 62
9
  6
CONTINUOUS
 10
67.6546219915
 20
160.7103486005
  0
SEQEND
  0
POLYLINE
  8
0
 62
9
  6
CONTINUOUS
 66
1
 70
0
  0
VERTEX
  8
0
 62
9
  6
CONTINUOUS
 10
67.8662061376
 20
149.4552781783
  0
VERTEX
  8
0
 62
9
  6
CONTINUOUS
 10
67.863117776
 20
149.2393601344
  0
VERTEX
  8
0
 62
9
  6
CONTINUOUS
 10
67.8657136016
 20
148.8965519751
  0
SEQEND
  0
LINE
  8
0
 62
9
  6
CONTINUOUS
 10
67.5329412332
 20
154.4903798284
 11
67.5185899676
 21
153.853191212
  0
POLYLINE
  8
0
 62
9
  6
CONTINUOUS
 66
1
 70
0
  0
VERTEX
  8
0
 62
9
  6
CONTINUOUS
 10
67.5804291422
 20
155.4489413946
  0
VERTEX
  8
0
 62
9
  6
CONTINUOUS
 10
67.5556213242
 20
155.0558200363
  0
VERTEX
  8
0
 62
9
  6
CONTINUOUS
 10
67.5329412332
 20
154.4903798284
  0
SEQEND
  0
LINE
  8
0
 62
9
  6
CONTINUOUS
 10
67.6072833465
 20
155.734787618
 11
67.5804291422
 21
155.4489413946
  0
POLYLINE
  8
0
 62
9
  6
CONTINUOUS
 66
1
 70
0
  0
VERTEX
  8
0
 62
9
  6
CONTINUOUS
 10
67.4880431582
 20
160.4465519751
  0
VERTEX
  8
0
 62
9
  6
CONTINUOUS
 10
67.4988743558
 20
160.5592341395
  0
VERTEX
  8
0
 62
9
  6
CONTINUOUS
 10
67.5937775514
 20
160.7631091354
  0
VERTEX
  8
0
 62
9
  6
CONTINUOUS
 10
67.6615846047
 20
160.8322302533
  0
SEQEND
  0
POLYLINE
  8
0
 62
9
  6
CONTINUOUS
 66
1
 70
0
  0
VERTEX
  8
0
 62
9
  6
CONTINUOUS
 10
67.593218777
 20
160.4465519751
  0
VERTEX
  8
0
 62
9
  6
CONTINUOUS
 10
67.6040499502
 20
160.5592340237
  0
VERTEX
  8
0
 62
9
  6
CONTINUOUS
 10
67.6398447911
 20
160.6361300707
  0
SEQEND
  0
LINE
  8
0
 62
9
  6
CONTINUOUS
 10
67.548062662
 20
150.6954088221
 11
67.5479231835
 21
150.6940023543
  0
POLYLINE
  8
0
 62
9
  6
CONTINUOUS
 66
1
 70
0
  0
VERTEX
  8
0
 62
9
  6
CONTINUOUS
 10
67.6546219915
 20
160.7103486005
  0
VERTEX
  8
0
 62
9
  6
CONTINUOUS
 10
67.6344416783
 20
160.5555842743
  0
VERTEX
  8
0
 62
9
  6
CONTINUOUS
 10
67.609285929
 20
160.4618993528
  0
VERTEX
  8
0
 62
9
  6
CONTINUOUS
 10
67.593218777
 20
160.4465519751
  0
SEQEND
  0
POLYLINE
  8
0
 62
7
  6
CONTINUOUS
 66
1
 70
0
  0
VERTEX
  8
0
 62
7
  6
CONTINUOUS
 10
67.6768377853
 20
156.1074728364
  0
VERTEX
  8
0
 62
7
  6
CONTINUOUS
 10
67.652515164
 20
156.0270571894
  0
VERTEX
  8
0
 62
7
  6
CONTINUOUS
 10
67.6306601326
 20
155.9156862281
  0
VERTEX
  8
0
 62
7
  6
CONTINUOUS
 10
67.6097760458
 20
155.7652496478
  0
VERTEX
  8
0
 62
7
  6
CONTINUOUS
 10
67.5898265126
 20
155.5704822664
  0
VERTEX
  8
0
 62
7
  6
CONTINUOUS
 10
67.5711367377
 20
155.3277795513
  0
VERTEX
  8
0
 62
7
  6
CONTINUOUS
 10
67.5541487022
 20
155.0348520057
  0
VERTEX
  8
0
 62
7
  6
CONTINUOUS
 10
67.5464461906
 20
154.8692282169
  0
VERTEX
  8
0
 62
7
  6
CONTINUOUS
 10
67.5329421991
 20
154.499862839
  0
VERTEX
  8
0
 62
7
  6
CONTINUOUS
 10
67.5223873954
 20
154.0808622978
  0
VERTEX
  8
0
 62
7
  6
CONTINUOUS
 10
67.5152454298
 20
153.6132299489
  0
VERTEX
  8
0
 62
7
  6
CONTINUOUS
 10
67.5120070735
 20
153.0985425424
  0
VERTEX
  8
0
 62
7
  6
CONTINUOUS
 10
67.5132020847
 20
152.5399262759
  0
VERTEX
  8
0
 62
7
  6
CONTINUOUS
 10
67.5193801272
 20
151.9426134493
  0
VERTEX
  8
0
 62
7
  6
CONTINUOUS
 10
67.5310849262
 20
151.3143014121
  0
VERTEX
  8
0
 62
7
  6
CONTINUOUS
 10
67.5479231849
 20
150.6940023118
  0
SEQEND
  0
LINE
  8
0
 62
7
  6
CONTINUOUS
 10
67.7137196299
 20
156.1715479655
 11
67.6768377853
 21
156.1074728364
  0
POLYLINE
  8
0
 62
7
  6
CONTINUOUS
 66
1
 70
0
  0
VERTEX
  8
0
 62
7
  6
CONTINUOUS
 10
68.004578174
 20
156.2152780481
  0
VERTEX
  8
0
 62
7
  6
CONTINUOUS
 10
68.0685661176
 20
156.091818591
  0
VERTEX
  8
0
 62
7
  6
CONTINUOUS
 10
68.1341117878
 20
155.7225745246
  0
SEQEND
  0
POLYLINE
  8
0
 62
9
  6
CONTINUOUS
 66
1
 70
0
  0
VERTEX
  8
0
 62
9
  6
CONTINUOUS
 10
67.8366923297
 20
155.6020100616
  0
VERTEX
  8
0
 62
9
  6
CONTINUOUS
 10
67.7873602026
 20
155.9122369348
  0
VERTEX
  8
0
 62
9
  6
CONTINUOUS
 10
67.7620153363
 20
156.0168184576
  0
VERTEX
  8
0
 62
9
  6
CONTINUOUS
 10
67.7061384188
 20
156.1135329376
  0
SEQEND
  0
POLYLINE
  8
0
 62
9
  6
CONTINUOUS
 66
1
 70
0
  0
VERTEX
  8
0
 62
9
  6
CONTINUOUS
 10
67.9365031726
 20
155.6921297823
  0
VERTEX
  8
0
 62
9
  6
CONTINUOUS
 10
67.8871710466
 20
156.0094072664
  0
VERTEX
  8
0
 62
9
  6
CONTINUOUS
 10
67.8618261781
 20
156.1163656419
  0
VERTEX
  8
0
 62
9
  6
CONTINUOUS
 10
67.8059492617
 20
156.2152781783
  0
SEQEND
  0
LINE
  8
0
 62
7
  6
CONTINUOUS
 10
68.0611457145
 20
149.5439578569
 11
67.9845015808
 21
150.2166547854
  0
LINE
  8
0
 62
9
  6
CONTINUOUS
 10
68.0301800854
 20
149.5439578569
 11
67.9536692765
 21
150.2166547854
  0
LINE
  8
0
 62
9
  6
CONTINUOUS
 10
68.1605028861
 20
149.5061869509
 11
68.0838587663
 21
150.1941727643
  0
LINE
  8
0
 62
9
  6
CONTINUOUS
 10
68.8823125464
 20
166.2048590672
 11
69.0990237886
 21
153.7894803171
  0
LINE
  8
0
 62
9
  6
CONTINUOUS
 10
68.4363842557
 20
169.3293375996
 11
68.4773210796
 21
166.9107788695
  0
LINE
  8
0
 62
9
  6
CONTINUOUS
 10
69.0990237886
 20
153.7894803171
 11
69.1631210825
 21
149.7330559798
  0
LINE
  8
0
 62
9
  6
CONTINUOUS
 10
68.8823125464
 20
166.612282367
 11
68.8823125464
 21
166.2048590672
  0
LINE
  8
0
 62
9
  6
CONTINUOUS
 10
69.1631210829
 20
149.4552781783
 11
69.1631210825
 21
149.7330559798
  0
LINE
  8
0
 62
9
  6
CONTINUOUS
 10
69.1721580287
 20
144.9552766652
 11
69.172157995
 21
144.4552781783
  0
LINE
  8
0
 62
9
  6
CONTINUOUS
 10
69.3069155582
 20
144.9552781783
 11
69.3069155582
 21
144.4552781783
  0
LINE
  8
0
 62
9
  6
CONTINUOUS
 10
69.315954696
 20
149.4552781783
 11
69.3159546965
 21
149.7330559846
  0
POLYLINE
  8
0
 62
9
  6
CONTINUOUS
 66
1
 70
0
  0
VERTEX
  8
0
 62
9
  6
CONTINUOUS
 10
70.0426915232
 20
169.3293375996
  0
VERTEX
  8
0
 62
9
  6
CONTINUOUS
 10
70.0479642403
 20
169.4306779412
  0
VERTEX
  8
0
 62
9
  6
CONTINUOUS
 10
70.0602328342
 20
169.522870355
  0
VERTEX
  8
0
 62
9
  6
CONTINUOUS
 10
70.079550483
 20
169.6059831311
  0
SEQEND
  0
POLYLINE
  8
0
 62
9
  6
CONTINUOUS
 66
1
 70
0
  0
VERTEX
  8
0
 62
9
  6
CONTINUOUS
 10
67.8366923297
 20
155.6020100616
  0
VERTEX
  8
0
 62
9
  6
CONTINUOUS
 10
67.8561788104
 20
155.6539513089
  0
VERTEX
  8
0
 62
9
  6
CONTINUOUS
 10
67.8782250192
 20
155.6738569716
  0
VERTEX
  8
0
 62
9
  6
CONTINUOUS
 10
67.9365031726
 20
155.6921297823
  0
SEQEND
  0
POLYLINE
  8
0
 62
9
  6
CONTINUOUS
 66
1
 70
0
  0
VERTEX
  8
0
 62
9
  6
CONTINUOUS
 10
67.8809857764
 20
154.8281122685
  0
VERTEX
  8
0
 62
9
  6
CONTINUOUS
 10
67.8996414813
 20
154.8703304153
  0
VERTEX
  8
0
 62
9
  6
CONTINUOUS
 10
67.9217973492
 20
154.8864028063
  0
VERTEX
  8
0
 62
9
  6
CONTINUOUS
 10
67.9809705459
 20
154.9006434031
  0
SEQEND
  0
POLYLINE
  8
0
 62
9
  6
CONTINUOUS
 66
1
 70
0
  0
VERTEX
  8
0
 62
9
  6
CONTINUOUS
 10
67.7061384188
 20
156.1135329376
  0
VERTEX
  8
0
 62
9
  6
CONTINUOUS
 10
67.6703318181
 20
156.0697411756
  0
VERTEX
  8
0
 62
9
  6
CONTINUOUS
 10
67.6374380822
 20
155.9428100332
  0
VERTEX
  8
0
 62
9
  6
CONTINUOUS
 10
67.6072833465
 20
155.734787618
  0
SEQEND
  0
LINE
  8
0
 62
7
  6
CONTINUOUS
 10
67.8057882724
 20
156.2152780483
 11
67.7137196299
 21
156.1715479655
  0
LINE
  8
SURFACE
 62
7
  6
CONTINUOUS
 10
70.6731265172
 20
156.2152781783
 11
70.474485172
 21
156.2152781783
  0
LINE
  8
SURFACE
 62
7
  6
CONTINUOUS
 10
68.0045906069
 20
156.2152781783
 11
67.8059492617
 21
156.2152781783
  0
POLYLINE
  8
0
 62
7
  6
CONTINUOUS
 66
1
 70
0
  0
VERTEX
  8
0
 62
7
  6
CONTINUOUS
 10
67.557341089
 20
165.2578187671
  0
VERTEX
  8
0
 62
7
  6
CONTINUOUS
 10
67.566042476
 20
165.2150828663
  0
VERTEX
  8
0
 62
7
  6
CONTINUOUS
 10
67.5792052276
 20
165.1301787372
  0
VERTEX
  8
0
 62
7
  6
CONTINUOUS
 10
67.5945743435
 20
165.0040611424
  0
VERTEX
  8
0
 62
7
  6
CONTINUOUS
 10
67.6109792076
 20
164.8370493541
  0
VERTEX
  8
0
 62
7
  6
CONTINUOUS
 10
67.6277081571
 20
164.6287006476
  0
VERTEX
  8
0
 62
7
  6
CONTINUOUS
 10
67.6442082659
 20
164.3782558456
  0
VERTEX
  8
0
 62
7
  6
CONTINUOUS
 10
67.659992069
 20
164.0841452325
  0
VERTEX
  8
0
 62
7
  6
CONTINUOUS
 10
67.6746495066
 20
163.7408185866
  0
VERTEX
  8
0
 62
7
  6
CONTINUOUS
 10
67.6873497391
 20
163.3472174635
  0
VERTEX
  8
0
 62
7
  6
CONTINUOUS
 10
67.6966217559
 20
162.9272055356
  0
VERTEX
  8
0
 62
7
  6
CONTINUOUS
 10
67.7016008722
 20
162.5134613119
  0
VERTEX
  8
0
 62
7
  6
CONTINUOUS
 10
67.7023671028
 20
162.131656522
  0
VERTEX
  8
0
 62
7
  6
CONTINUOUS
 10
67.69961597
 20
161.7970711545
  0
VERTEX
  8
0
 62
7
  6
CONTINUOUS
 10
67.6941275224
 20
161.5088278
  0
VERTEX
  8
0
 62
7
  6
CONTINUOUS
 10
67.686489362
 20
161.2632099062
  0
VERTEX
  8
0
 62
7
  6
CONTINUOUS
 10
67.6772156717
 20
161.0583772806
  0
VERTEX
  8
0
 62
7
  6
CONTINUOUS
 10
67.6668156596
 20
160.8929841538
  0
VERTEX
  8
0
 62
7
  6
CONTINUOUS
 10
67.6559412304
 20
160.7666876402
  0
VERTEX
  8
0
 62
7
  6
CONTINUOUS
 10
67.6457016287
 20
160.6805140326
  0
VERTEX
  8
0
 62
7
  6
CONTINUOUS
 10
67.6383416675
 20
160.6368297695
  0
SEQEND
  0
POLYLINE
  8
0
 62
9
  6
CONTINUOUS
 66
1
 70
0
  0
VERTEX
  8
0
 62
9
  6
CONTINUOUS
 10
67.5461235939
 20
165.3587083084
  0
VERTEX
  8
0
 62
9
  6
CONTINUOUS
 10
67.5716350211
 20
165.2168243777
  0
VERTEX
  8
0
 62
9
  6
CONTINUOUS
 10
67.5964635661
 20
165.0130961827
  0
VERTEX
  8
0
 62
9
  6
CONTINUOUS
 10
67.6208576664
 20
164.741971157
  0
VERTEX
  8
0
 62
9
  6
CONTINUOUS
 10
67.6478331162
 20
164.3381752103
  0
SEQEND
  0
POLYLINE
  8
0
 62
9
  6
CONTINUOUS
 66
1
 70
0
  0
VERTEX
  8
0
 62
9
  6
CONTINUOUS
 10
67.3928829622
 20
165.4465519751
  0
VERTEX
  8
0
 62
9
  6
CONTINUOUS
 10
67.4070371262
 20
165.3367379894
  0
VERTEX
  8
0
 62
9
  6
CONTINUOUS
 10
67.5048245219
 20
165.1396501221
  0
VERTEX
  8
0
 62
9
  6
CONTINUOUS
 10
67.5836622009
 20
165.0620415482
  0
VERTEX
  8
0
 62
9
  6
CONTINUOUS
 10
67.5877456613
 20
165.0600966995
  0
SEQEND
  0
POLYLINE
  8
0
 62
9
  6
CONTINUOUS
 66
1
 70
0
  0
VERTEX
  8
0
 62
9
  6
CONTINUOUS
 10
67.5057913697
 20
165.4465519751
  0
VERTEX
  8
0
 62
9
  6
CONTINUOUS
 10
67.5199455558
 20
165.3367378982
  0
VERTEX
  8
0
 62
9
  6
CONTINUOUS
 10
67.5587543084
 20
165.2585199525
  0
SEQEND
  0
LINE
  8
SURFACE
 62
9
  6
CONTINUOUS
 10
70.931013117
 20
150.6954088221
 11
70.9311525954
 21
150.6940023543
  0
POLYLINE
  8
0
 62
9
  6
CONTINUOUS
 66
1
 70
0
  0
VERTEX
  8
0
 62
9
  6
CONTINUOUS
 10
70.1169431635
 20
149.0761359209
  0
VERTEX
  8
0
 62
9
  6
CONTINUOUS
 10
70.1132113718
 20
149.229480588
  0
VERTEX
  8
0
 62
9
  6
CONTINUOUS
 10
70.1035350031
 20
149.3507530079
  0
VERTEX
  8
0
 62
9
  6
CONTINUOUS
 10
70.0887923396
 20
149.4287573926
  0
VERTEX
  8
0
 62
9
  6
CONTINUOUS
 10
70.0706540292
 20
149.4552781783
  0
SEQEND
  0
LINE
  8
0
 62
9
  6
CONTINUOUS
 10
69.5967632326
 20
166.612282367
 11
69.5967632326
 21
166.2048590672
  0
LINE
  8
0
 62
9
  6
CONTINUOUS
 10
70.3185728926
 20
149.5061869509
 11
70.3185728801
 21
149.4552781783
  0
LINE
  8
0
 62
9
  6
CONTINUOUS
 10
69.3800519904
 20
153.7894803171
 11
69.3159546965
 21
149.7330559846
  0
LINE
  8
0
 62
9
  6
CONTINUOUS
 10
70.0017546993
 20
166.9107788695
 11
70.0426915232
 21
169.3293375996
  0
LINE
  8
SURFACE
 62
9
  6
CONTINUOUS
 10
70.4259686261
 20
150.6740148783
 11
70.4981052331
 21
154.9006434031
  0
LINE
  8
0
 62
9
  6
CONTINUOUS
 10
69.5967632326
 20
166.2048590672
 11
69.3800519904
 21
153.7894803171
  0
LINE
  8
0
 62
9
  6
CONTINUOUS
 10
70.0581272973
 20
145.692203123
 11
70.1169431635
 21
149.0761359209
  0
LINE
  8
0
 62
7
  6
CONTINUOUS
 10
70.2128363523
 20
149.9465519751
 11
70.5426153708
 21
168.8395792927
  0
LINE
  8
0
 62
9
  6
CONTINUOUS
 10
70.3449639912
 20
155.7225745246
 11
70.5786046975
 21
169.1078416263
  0
POLYLINE
  8
SURFACE
 62
9
  6
CONTINUOUS
 66
1
 70
0
  0
VERTEX
  8
SURFACE
 62
9
  6
CONTINUOUS
 10
70.4981052331
 20
154.9006434031
  0
VERTEX
  8
SURFACE
 62
9
  6
CONTINUOUS
 10
70.5055842386
 20
155.1847347215
  0
VERTEX
  8
SURFACE
 62
9
  6
CONTINUOUS
 10
70.5188932705
 20
155.4414648805
  0
VERTEX
  8
SURFACE
 62
9
  6
CONTINUOUS
 10
70.5425726063
 20
155.6921297823
  0
SEQEND
  0
POLYLINE
  8
0
 62
9
  6
CONTINUOUS
 66
1
 70
0
  0
VERTEX
  8
0
 62
9
  6
CONTINUOUS
 10
70.8262055504
 20
164.2246557706
  0
VERTEX
  8
0
 62
9
  6
CONTINUOUS
 10
70.8305766004
 20
164.3264526746
  0
VERTEX
  8
0
 62
9
  6
CONTINUOUS
 10
70.8547577551
 20
164.6969740388
  0
VERTEX
  8
0
 62
9
  6
CONTINUOUS
 10
70.8782058342
 20
164.9696759485
  0
VERTEX
  8
0
 62
9
  6
CONTINUOUS
 10
70.9028930051
 20
165.1844998526
  0
SEQEND
  0
POLYLINE
  8
0
 62
9
  6
CONTINUOUS
 66
1
 70
0
  0
VERTEX
  8
0
 62
9
  6
CONTINUOUS
 10
70.5426153708
 20
168.8395792927
  0
VERTEX
  8
0
 62
9
  6
CONTINUOUS
 10
70.5477918826
 20
168.9378453457
  0
VERTEX
  8
0
 62
9
  6
CONTINUOUS
 10
70.5597710675
 20
169.0272440396
  0
VERTEX
  8
0
 62
9
  6
CONTINUOUS
 10
70.5786046975
 20
169.1078416263
  0
SEQEND
  0
POLYLINE
  8
0
 62
7
  6
CONTINUOUS
 66
1
 70
0
  0
VERTEX
  8
0
 62
7
  6
CONTINUOUS
 10
70.3449639912
 20
155.7225745246
  0
VERTEX
  8
0
 62
7
  6
CONTINUOUS
 10
70.319797178
 20
155.4641322264
  0
VERTEX
  8
0
 62
7
  6
CONTINUOUS
 10
70.3109459421
 20
155.3103893265
  0
VERTEX
  8
0
 62
7
  6
CONTINUOUS
 10
70.3005127961
 20
154.9695320785
  0
SEQEND
  0
POLYLINE
  8
0
 62
9
  6
CONTINUOUS
 66
1
 70
0
  0
VERTEX
  8
0
 62
9
  6
CONTINUOUS
 10
70.9732844093
 20
165.4465519751
  0
VERTEX
  8
0
 62
9
  6
CONTINUOUS
 10
70.9591302454
 20
165.3367379894
  0
VERTEX
  8
0
 62
9
  6
CONTINUOUS
 10
70.9205912428
 20
165.2590636658
  0
SEQEND
  0
POLYLINE
  8
0
 62
9
  6
CONTINUOUS
 66
1
 70
0
  0
VERTEX
  8
0
 62
9
  6
CONTINUOUS
 10
71.0861928167
 20
165.4465519751
  0
VERTEX
  8
0
 62
9
  6
CONTINUOUS
 10
71.0720386213
 20
165.3367378598
  0
VERTEX
  8
0
 62
9
  6
CONTINUOUS
 10
70.9742510624
 20
165.1396498822
  0
VERTEX
  8
0
 62
9
  6
CONTINUOUS
 10
70.8954133217
 20
165.0620413464
  0
VERTEX
  8
0
 62
9
  6
CONTINUOUS
 10
70.8912263398
 20
165.0600471956
  0
SEQEND
  0
POLYLINE
  8
0
 62
9
  6
CONTINUOUS
 66
1
 70
0
  0
VERTEX
  8
0
 62
9
  6
CONTINUOUS
 10
70.9028930051
 20
165.1844998526
  0
VERTEX
  8
0
 62
9
  6
CONTINUOUS
 10
70.9284788012
 20
165.3386089943
  0
VERTEX
  8
0
 62
9
  6
CONTINUOUS
 10
70.9567761664
 20
165.4313785926
  0
VERTEX
  8
0
 62
9
  6
CONTINUOUS
 10
70.9732844093
 20
165.4465519751
  0
SEQEND
  0
POLYLINE
  8
0
 62
7
  6
CONTINUOUS
 66
1
 70
0
  0
VERTEX
  8
0
 62
7
  6
CONTINUOUS
 10
70.3449639912
 20
155.7225745246
  0
VERTEX
  8
0
 62
7
  6
CONTINUOUS
 10
70.4105096631
 20
156.0918185975
  0
VERTEX
  8
0
 62
7
  6
CONTINUOUS
 10
70.474497605
 20
156.2152780481
  0
SEQEND
  0
POLYLINE
  8
SURFACE
 62
9
  6
CONTINUOUS
 66
1
 70
0
  0
VERTEX
  8
SURFACE
 62
9
  6
CONTINUOUS
 10
70.7729373601
 20
156.1135329376
  0
VERTEX
  8
SURFACE
 62
9
  6
CONTINUOUS
 10
70.8087439608
 20
156.0697411756
  0
VERTEX
  8
SURFACE
 62
9
  6
CONTINUOUS
 10
70.8416376968
 20
155.9428100332
  0
VERTEX
  8
SURFACE
 62
9
  6
CONTINUOUS
 10
70.8717924324
 20
155.734787618
  0
SEQEND
  0
POLYLINE
  8
SURFACE
 62
7
  6
CONTINUOUS
 66
1
 70
0
  0
VERTEX
  8
SURFACE
 62
7
  6
CONTINUOUS
 10
70.8023267029
 20
156.1072477966
  0
VERTEX
  8
SURFACE
 62
7
  6
CONTINUOUS
 10
70.7654384944
 20
156.171453818
  0
VERTEX
  8
SURFACE
 62
7
  6
CONTINUOUS
 10
70.673287921
 20
156.2152780476
  0
SEQEND
  0
POLYLINE
  8
SURFACE
 62
9
  6
CONTINUOUS
 66
1
 70
0
  0
VERTEX
  8
SURFACE
 62
9
  6
CONTINUOUS
 10
70.5980900026
 20
154.8281122685
  0
VERTEX
  8
SURFACE
 62
9
  6
CONTINUOUS
 10
70.5794342976
 20
154.8703304153
  0
VERTEX
  8
SURFACE
 62
9
  6
CONTINUOUS
 10
70.5572784297
 20
154.8864028063
  0
VERTEX
  8
SURFACE
 62
9
  6
CONTINUOUS
 10
70.4981052331
 20
154.9006434031
  0
SEQEND
  0
POLYLINE
  8
SURFACE
 62
9
  6
CONTINUOUS
 66
1
 70
0
  0
VERTEX
  8
SURFACE
 62
9
  6
CONTINUOUS
 10
70.6423834492
 20
155.6020100616
  0
VERTEX
  8
SURFACE
 62
9
  6
CONTINUOUS
 10
70.6228969685
 20
155.6539513089
  0
VERTEX
  8
SURFACE
 62
9
  6
CONTINUOUS
 10
70.6008507598
 20
155.6738569716
  0
VERTEX
  8
SURFACE
 62
9
  6
CONTINUOUS
 10
70.5425726063
 20
155.6921297823
  0
SEQEND
  0
POLYLINE
  8
0
 62
9
  6
CONTINUOUS
 66
1
 70
0
  0
VERTEX
  8
0
 62
9
  6
CONTINUOUS
 10
70.885857002
 20
160.4465519751
  0
VERTEX
  8
0
 62
9
  6
CONTINUOUS
 10
70.8750258161
 20
160.5592340834
  0
VERTEX
  8
0
 62
9
  6
CONTINUOUS
 10
70.8390094
 20
160.6366060936
  0
SEQEND
  0
POLYLINE
  8
0
 62
9
  6
CONTINUOUS
 66
1
 70
0
  0
VERTEX
  8
0
 62
9
  6
CONTINUOUS
 10
70.9910326208
 20
160.4465519751
  0
VERTEX
  8
0
 62
9
  6
CONTINUOUS
 10
70.9802014476
 20
160.5592340237
  0
VERTEX
  8
0
 62
9
  6
CONTINUOUS
 10
70.8852983985
 20
160.763108916
  0
VERTEX
  8
0
 62
9
  6
CONTINUOUS
 10
70.8171308738
 20
160.8325975708
  0
SEQEND
  0
LINE
  8
SURFACE
 62
9
  6
CONTINUOUS
 10
70.8717924324
 20
155.734787618
 11
70.8986466367
 21
155.4489413946
  0
POLYLINE
  8
SURFACE
 62
9
  6
CONTINUOUS
 66
1
 70
0
  0
VERTEX
  8
SURFACE
 62
9
  6
CONTINUOUS
 10
70.8986466367
 20
155.4489413946
  0
VERTEX
  8
SURFACE
 62
9
  6
CONTINUOUS
 10
70.9234544548
 20
155.0558200363
  0
VERTEX
  8
SURFACE
 62
9
  6
CONTINUOUS
 10
70.9461345458
 20
154.4903798284
  0
SEQEND
  0
LINE
  8
SURFACE
 62
9
  6
CONTINUOUS
 10
70.9461345458
 20
154.4903798284
 11
70.9604858113
 21
153.853191212
  0
LINE
  8
0
 62
9
  6
CONTINUOUS
 10
70.7777476223
 20
161.952350128
 11
70.7757565466
 21
162.1242099858
  0
LINE
  8
SURFACE
 62
9
  6
CONTINUOUS
 10
70.9604858113
 20
153.853191212
 11
70.9663254727
 21
153.260781778
  0
LINE
  8
SURFACE
 62
9
  6
CONTINUOUS
 10
70.9663254727
 20
153.260781778
 11
70.9664053908
 21
152.6763198808
  0
LINE
  8
0
 62
9
  6
CONTINUOUS
 10
70.7757565466
 20
162.1242099858
 11
70.7765951753
 21
162.3156721428
  0
POLYLINE
  8
0
 62
9
  6
CONTINUOUS
 66
1
 70
0
  0
VERTEX
  8
0
 62
9
  6
CONTINUOUS
 10
70.7794425679
 20
162.7200788135
  0
VERTEX
  8
0
 62
9
  6
CONTINUOUS
 10
70.7795849677
 20
162.7981795668
  0
VERTEX
  8
0
 62
9
  6
CONTINUOUS
 10
70.7858560282
 20
163.1450490471
  0
SEQEND
  0
POLYLINE
  8
0
 62
9
  6
CONTINUOUS
 66
1
 70
0
  0
VERTEX
  8
0
 62
9
  6
CONTINUOUS
 10
70.6133621774
 20
148.8965519751
  0
VERTEX
  8
0
 62
9
  6
CONTINUOUS
 10
70.6159747229
 20
149.2331741856
  0
VERTEX
  8
0
 62
9
  6
CONTINUOUS
 10
70.6128784151
 20
149.4552781783
  0
SEQEND
  0
LINE
  8
SURFACE
 62
9
  6
CONTINUOUS
 10
70.9664053908
 20
152.6763198808
 11
70.9658684521
 21
152.5390826464
  0
LINE
  8
SURFACE
 62
9
  6
CONTINUOUS
 10
70.9613136824
 20
152.0752788344
 11
70.9596870089
 21
151.9420138575
  0
LINE
  8
SURFACE
 62
7
  6
CONTINUOUS
 10
70.5259533956
 20
150.6954088221
 11
70.5980900026
 21
154.8281122685
  0
LINE
  8
SURFACE
 62
9
  6
CONTINUOUS
 10
70.556738406
 20
150.6954088221
 11
70.6423834492
 21
155.6020100616
  0
LINE
  8
0
 62
9
  6
CONTINUOUS
 10
70.5571802524
 20
145.683476943
 11
70.6133621774
 21
148.8965519751
  0
LINE
  8
0
 62
9
  6
CONTINUOUS
 10
70.8964518149
 20
155.4769948517
 11
70.9910326208
 21
160.4465519751
  0
LINE
  8
0
 62
9
  6
CONTINUOUS
 10
71.0861928167
 20
165.4465519751
 11
71.1623209734
 21
169.4465519751
  0
LINE
  8
0
 62
7
  6
CONTINUOUS
 10
70.7168325249
 20
145.9249481997
 11
70.7851392885
 21
149.5139889174
  0
LINE
  8
0
 62
7
  6
CONTINUOUS
 10
70.8981958293
 20
155.4543161594
 11
70.9931923734
 21
160.4457174036
  0
LINE
  8
0
 62
7
  6
CONTINUOUS
 10
71.0883526
 20
165.445719016
 11
71.1644807578
 21
169.4457190721
  0
LINE
  8
0
 62
9
  6
CONTINUOUS
 10
70.7141677478
 20
145.9028606588
 11
70.7828585473
 21
149.5084663878
  0
LINE
  8
SURFACE
 62
9
  6
CONTINUOUS
 10
70.9507168679
 20
151.4463552409
 11
70.931013117
 21
150.6954088221
  0
POLYLINE
  8
SURFACE
 62
9
  6
CONTINUOUS
 66
1
 70
0
  0
VERTEX
  8
SURFACE
 62
9
  6
CONTINUOUS
 10
70.5980900026
 20
154.8281122685
  0
VERTEX
  8
SURFACE
 62
9
  6
CONTINUOUS
 10
70.6055542194
 20
155.1058898197
  0
VERTEX
  8
SURFACE
 62
9
  6
CONTINUOUS
 10
70.6188130965
 20
155.3569147694
  0
VERTEX
  8
SURFACE
 62
9
  6
CONTINUOUS
 10
70.6423834492
 20
155.6020100616
  0
SEQEND
  0
POLYLINE
  8
SURFACE
 62
7
  6
CONTINUOUS
 66
1
 70
0
  0
VERTEX
  8
SURFACE
 62
7
  6
CONTINUOUS
 10
70.9311525941
 20
150.6940023119
  0
VERTEX
  8
SURFACE
 62
7
  6
CONTINUOUS
 10
70.9479836621
 20
151.3139868774
  0
VERTEX
  8
SURFACE
 62
7
  6
CONTINUOUS
 10
70.9596870089
 20
151.9420138575
  0
VERTEX
  8
SURFACE
 62
7
  6
CONTINUOUS
 10
70.9658684521
 20
152.5390826464
  0
VERTEX
  8
SURFACE
 62
7
  6
CONTINUOUS
 10
70.9670708513
 20
153.0975020107
  0
VERTEX
  8
SURFACE
 62
7
  6
CONTINUOUS
 10
70.9638430916
 20
153.6120415586
  0
VERTEX
  8
SURFACE
 62
7
  6
CONTINUOUS
 10
70.9567142885
 20
154.0795743479
  0
VERTEX
  8
SURFACE
 62
7
  6
CONTINUOUS
 10
70.9461747259
 20
154.498521745
  0
VERTEX
  8
SURFACE
 62
7
  6
CONTINUOUS
 10
70.9326874054
 20
154.8678847022
  0
VERTEX
  8
SURFACE
 62
7
  6
CONTINUOUS
 10
70.9249934577
 20
155.0335278999
  0
VERTEX
  8
SURFACE
 62
7
  6
CONTINUOUS
 10
70.9080223882
 20
155.3265342435
  0
VERTEX
  8
SURFACE
 62
7
  6
CONTINUOUS
 10
70.8893485569
 20
155.569363699
  0
VERTEX
  8
SURFACE
 62
7
  6
CONTINUOUS
 10
70.869413062
 20
155.764296535
  0
VERTEX
  8
SURFACE
 62
7
  6
CONTINUOUS
 10
70.8485367917
 20
155.9149472117
  0
VERTEX
  8
SURFACE
 62
7
  6
CONTINUOUS
 10
70.8266752018
 20
156.0265788248
  0
VERTEX
  8
SURFACE
 62
7
  6
CONTINUOUS
 10
70.8023267029
 20
156.1072477966
  0
SEQEND
  0
LINE
  8
0
 62
9
  6
CONTINUOUS
 10
70.7858560282
 20
163.1450490471
 11
70.7904701664
 21
163.3000326904
  0
LINE
  8
0
 62
9
  6
CONTINUOUS
 10
70.8008030216
 20
163.6406355225
 11
70.8011162658
 21
163.6486366854
  0
POLYLINE
  8
0
 62
9
  6
CONTINUOUS
 66
1
 70
0
  0
VERTEX
  8
0
 62
9
  6
CONTINUOUS
 10
70.8011162658
 20
163.6486366854
  0
VERTEX
  8
0
 62
9
  6
CONTINUOUS
 10
70.8056711948
 20
163.7989492813
  0
VERTEX
  8
0
 62
9
  6
CONTINUOUS
 10
70.8128687548
 20
163.9488291957
  0
SEQEND
  0
POLYLINE
  8
SURFACE
 62
9
  6
CONTINUOUS
 66
1
 70
0
  0
VERTEX
  8
SURFACE
 62
9
  6
CONTINUOUS
 10
70.556738406
 20
150.6954088221
  0
VERTEX
  8
SURFACE
 62
9
  6
CONTINUOUS
 10
70.5513945535
 20
150.5355166363
  0
VERTEX
  8
SURFACE
 62
9
  6
CONTINUOUS
 10
70.5409470205
 20
150.3758774821
  0
VERTEX
  8
SURFACE
 62
9
  6
CONTINUOUS
 10
70.5254065025
 20
150.2166547854
  0
SEQEND
  0
LINE
  8
SURFACE
 62
9
  6
CONTINUOUS
 10
70.8913376835
 20
150.2166547854
 11
70.8912497969
 21
150.214562769
  0
POLYLINE
  8
0
 62
7
  6
CONTINUOUS
 66
1
 70
0
  0
VERTEX
  8
0
 62
7
  6
CONTINUOUS
 10
70.7059376479
 20
145.6807724892
  0
VERTEX
  8
0
 62
7
  6
CONTINUOUS
 10
70.7145043806
 20
145.8388595724
  0
VERTEX
  8
0
 62
7
  6
CONTINUOUS
 10
70.7168325258
 20
145.9249482755
  0
SEQEND
  0
LINE
  8
SURFACE
 62
9
  6
CONTINUOUS
 10
70.931013117
 20
150.6954088221
 11
70.9182001978
 21
150.4661326607
  0
LINE
  8
0
 62
9
  6
CONTINUOUS
 10
70.796388324
 20
149.543957857
 11
70.7961348151
 21
149.5406943334
  0
POLYLINE
  8
SURFACE
 62
9
  6
CONTINUOUS
 66
1
 70
0
  0
VERTEX
  8
SURFACE
 62
9
  6
CONTINUOUS
 10
70.3952170126
 20
150.1941727643
  0
VERTEX
  8
SURFACE
 62
9
  6
CONTINUOUS
 10
70.4150311074
 20
150.4156106272
  0
VERTEX
  8
SURFACE
 62
9
  6
CONTINUOUS
 10
70.4259686261
 20
150.6740148783
  0
SEQEND
  0
LINE
  8
SURFACE
 62
9
  6
CONTINUOUS
 10
70.9182001978
 20
150.4661326607
 11
70.8913376835
 21
150.2166547854
  0
LINE
  8
0
 62
9
  6
CONTINUOUS
 10
70.3185728928
 20
149.5061869509
 11
70.3952170126
 21
150.1941727643
  0
LINE
  8
0
 62
9
  6
CONTINUOUS
 10
70.4488956936
 20
149.5439578569
 11
70.5254065025
 21
150.2166547854
  0
LINE
  8
0
 62
7
  6
CONTINUOUS
 10
70.4179300645
 20
149.5439578569
 11
70.4945741982
 21
150.2166547854
  0
POLYLINE
  8
SURFACE
 62
7
  6
CONTINUOUS
 66
1
 70
0
  0
VERTEX
  8
SURFACE
 62
7
  6
CONTINUOUS
 10
70.8912497885
 20
150.2145627064
  0
VERTEX
  8
SURFACE
 62
7
  6
CONTINUOUS
 10
70.9092784998
 20
150.3664107104
  0
VERTEX
  8
SURFACE
 62
7
  6
CONTINUOUS
 10
70.9241293619
 20
150.5459213274
  0
VERTEX
  8
SURFACE
 62
7
  6
CONTINUOUS
 10
70.9311525954
 20
150.6940023543
  0
SEQEND
  0
POLYLINE
  8
SURFACE
 62
9
  6
CONTINUOUS
 66
1
 70
0
  0
VERTEX
  8
SURFACE
 62
9
  6
CONTINUOUS
 10
70.5425726063
 20
155.6921297823
  0
VERTEX
  8
SURFACE
 62
9
  6
CONTINUOUS
 10
70.5919047323
 20
156.0094072664
  0
VERTEX
  8
SURFACE
 62
9
  6
CONTINUOUS
 10
70.6172496008
 20
156.1163656419
  0
VERTEX
  8
SURFACE
 62
9
  6
CONTINUOUS
 10
70.6731265172
 20
156.2152781783
  0
SEQEND
  0
POLYLINE
  8
SURFACE
 62
9
  6
CONTINUOUS
 66
1
 70
0
  0
VERTEX
  8
SURFACE
 62
9
  6
CONTINUOUS
 10
70.6423834492
 20
155.6020100616
  0
VERTEX
  8
SURFACE
 62
9
  6
CONTINUOUS
 10
70.6917155763
 20
155.9122369348
  0
VERTEX
  8
SURFACE
 62
9
  6
CONTINUOUS
 10
70.7170604427
 20
156.0168184576
  0
VERTEX
  8
SURFACE
 62
9
  6
CONTINUOUS
 10
70.7729373601
 20
156.1135329376
  0
SEQEND
  0
POLYLINE
  8
0
 62
9
  6
CONTINUOUS
 66
1
 70
0
  0
VERTEX
  8
0
 62
9
  6
CONTINUOUS
 10
68.4773210796
 20
166.9107788695
  0
VERTEX
  8
0
 62
9
  6
CONTINUOUS
 10
68.5044469836
 20
166.8082528678
  0
VERTEX
  8
0
 62
9
  6
CONTINUOUS
 10
68.5767995763
 20
166.7187129419
  0
VERTEX
  8
0
 62
9
  6
CONTINUOUS
 10
68.6265689349
 20
166.6822229106
  0
VERTEX
  8
0
 62
9
  6
CONTINUOUS
 10
68.7460954591
 20
166.6305763404
  0
VERTEX
  8
0
 62
9
  6
CONTINUOUS
 10
68.8823125464
 20
166.612282367
  0
SEQEND
  0
POLYLINE
  8
0
 62
9
  6
CONTINUOUS
 66
1
 70
0
  0
VERTEX
  8
0
 62
9
  6
CONTINUOUS
 10
67.9004710814
 20
169.1078416263
  0
VERTEX
  8
0
 62
9
  6
CONTINUOUS
 10
67.9193054148
 20
169.0272401574
  0
VERTEX
  8
0
 62
9
  6
CONTINUOUS
 10
67.9312842629
 20
168.9378413326
  0
VERTEX
  8
0
 62
9
  6
CONTINUOUS
 10
67.9364604081
 20
168.8395792927
  0
SEQEND
  0
POLYLINE
  8
0
 62
9
  6
CONTINUOUS
 66
1
 70
0
  0
VERTEX
  8
0
 62
9
  6
CONTINUOUS
 10
68.399525296
 20
169.6059831311
  0
VERTEX
  8
0
 62
9
  6
CONTINUOUS
 10
68.4188436658
 20
169.5228663516
  0
VERTEX
  8
0
 62
9
  6
CONTINUOUS
 10
68.4311119134
 20
169.4306738027
  0
VERTEX
  8
0
 62
9
  6
CONTINUOUS
 10
68.4363842557
 20
169.3293375996
  0
SEQEND
  0
POLYLINE
  8
0
 62
9
  6
CONTINUOUS
 66
1
 70
0
  0
VERTEX
  8
0
 62
9
  6
CONTINUOUS
 10
70.8484758667
 20
160.5350031322
  0
VERTEX
  8
0
 62
9
  6
CONTINUOUS
 10
70.8279317808
 20
160.6773242452
  0
VERTEX
  8
0
 62
9
  6
CONTINUOUS
 10
70.8102368158
 20
160.8815455019
  0
VERTEX
  8
0
 62
9
  6
CONTINUOUS
 10
70.7953872538
 20
161.1521302255
  0
VERTEX
  8
0
 62
9
  6
CONTINUOUS
 10
70.7826227897
 20
161.5528262787
  0
VERTEX
  8
0
 62
9
  6
CONTINUOUS
 10
70.7819755847
 20
161.6435904465
  0
SEQEND
  0
LINE
  8
0
 62
9
  6
CONTINUOUS
 10
70.8913376835
 20
150.2166547854
 11
70.7963883244
 21
149.5439578569
  0
POLYLINE
  8
SURFACE
 62
7
  6
CONTINUOUS
 66
1
 70
0
  0
VERTEX
  8
SURFACE
 62
7
  6
CONTINUOUS
 10
70.7961348154
 20
149.5406943321
  0
VERTEX
  8
SURFACE
 62
7
  6
CONTINUOUS
 10
70.8268181095
 20
149.7518125809
  0
VERTEX
  8
SURFACE
 62
7
  6
CONTINUOUS
 10
70.8611393766
 20
149.9950168964
  0
VERTEX
  8
SURFACE
 62
7
  6
CONTINUOUS
 10
70.8912497969
 20
150.214562769
  0
SEQEND
  0
LINE
  8
0
 62
7
  6
CONTINUOUS
 10
70.7961348151
 20
149.5406943334
 11
70.7961156669
 21
149.5405668452
  0
POLYLINE
  8
0
 62
9
  6
CONTINUOUS
 66
1
 70
0
  0
VERTEX
  8
0
 62
9
  6
CONTINUOUS
 10
70.6956773408
 20
145.6834626781
  0
VERTEX
  8
0
 62
9
  6
CONTINUOUS
 10
70.6147129748
 20
145.2618477398
  0
VERTEX
  8
0
 62
9
  6
CONTINUOUS
 10
70.3961095914
 20
144.8925468837
  0
VERTEX
  8
0
 62
9
  6
CONTINUOUS
 10
70.2426897139
 20
144.7415188768
  0
VERTEX
  8
0
 62
9
  6
CONTINUOUS
 10
69.8702722541
 20
144.5290131136
  0
VERTEX
  8
0
 62
9
  6
CONTINUOUS
 10
69.4480418044
 20
144.4552782146
  0
SEQEND
  0
POLYLINE
  8
0
 62
9
  6
CONTINUOUS
 66
1
 70
0
  0
VERTEX
  8
0
 62
9
  6
CONTINUOUS
 10
68.4084217498
 20
149.4552781783
  0
VERTEX
  8
0
 62
9
  6
CONTINUOUS
 10
68.3903388254
 20
149.4289323136
  0
VERTEX
  8
0
 62
9
  6
CONTINUOUS
 10
68.3756602342
 20
149.3517244419
  0
VERTEX
  8
0
 62
9
  6
CONTINUOUS
 10
68.3659752346
 20
149.2317249275
  0
VERTEX
  8
0
 62
9
  6
CONTINUOUS
 10
68.362147061
 20
149.0798391549
  0
VERTEX
  8
0
 62
9
  6
CONTINUOUS
 10
68.3647678161
 20
148.9052781783
  0
SEQEND
  0
POLYLINE
  8
0
 62
7
  6
CONTINUOUS
 66
1
 70
0
  0
VERTEX
  8
0
 62
7
  6
CONTINUOUS
 10
70.8405443441
 20
160.637320605
  0
VERTEX
  8
0
 62
7
  6
CONTINUOUS
 10
70.8408179857
 20
160.6363087631
  0
VERTEX
  8
0
 62
7
  6
CONTINUOUS
 10
70.8376180751
 20
160.6532391832
  0
VERTEX
  8
0
 62
7
  6
CONTINUOUS
 10
70.8284637095
 20
160.7182297038
  0
VERTEX
  8
0
 62
7
  6
CONTINUOUS
 10
70.8177275486
 20
160.8244986268
  0
VERTEX
  8
0
 62
7
  6
CONTINUOUS
 10
70.8069850678
 20
160.9703113036
  0
VERTEX
  8
0
 62
7
  6
CONTINUOUS
 10
70.7970728141
 20
161.1552849844
  0
VERTEX
  8
0
 62
7
  6
CONTINUOUS
 10
70.7885688515
 20
161.3796315263
  0
VERTEX
  8
0
 62
7
  6
CONTINUOUS
 10
70.7819755847
 20
161.6435904465
  0
VERTEX
  8
0
 62
7
  6
CONTINUOUS
 10
70.7777476223
 20
161.952350128
  0
VERTEX
  8
0
 62
7
  6
CONTINUOUS
 10
70.7765951753
 20
162.3156721428
  0
VERTEX
  8
0
 62
7
  6
CONTINUOUS
 10
70.7794425679
 20
162.7200788135
  0
VERTEX
  8
0
 62
7
  6
CONTINUOUS
 10
70.7860962011
 20
163.116047319
  0
VERTEX
  8
0
 62
7
  6
CONTINUOUS
 10
70.7904701664
 20
163.3000326904
  0
VERTEX
  8
0
 62
7
  6
CONTINUOUS
 10
70.8008030216
 20
163.6406355225
  0
VERTEX
  8
0
 62
7
  6
CONTINUOUS
 10
70.8128687548
 20
163.9488291957
  0
VERTEX
  8
0
 62
7
  6
CONTINUOUS
 10
70.8262055504
 20
164.2246557706
  0
VERTEX
  8
0
 62
7
  6
CONTINUOUS
 10
70.8403156464
 20
164.4665511256
  0
VERTEX
  8
0
 62
7
  6
CONTINUOUS
 10
70.8547742825
 20
164.6745338142
  0
VERTEX
  8
0
 62
7
  6
CONTINUOUS
 10
70.8692548673
 20
164.8499948522
  0
VERTEX
  8
0
 62
7
  6
CONTINUOUS
 10
70.8834563807
 20
164.9944403097
  0
VERTEX
  8
0
 62
7
  6
CONTINUOUS
 10
70.8969985643
 20
165.1087858912
  0
VERTEX
  8
0
 62
7
  6
CONTINUOUS
 10
70.9092580601
 20
165.1930118967
  0
VERTEX
  8
0
 62
7
  6
CONTINUOUS
 10
70.9188905023
 20
165.2452194647
  0
VERTEX
  8
0
 62
7
  6
CONTINUOUS
 10
70.9219434036
 20
165.2583927758
  0
SEQEND
  0
LINE
  8
0
 62
9
  6
CONTINUOUS
 10
70.7963883244
 20
149.5439578569
 11
70.7738725053
 21
149.4912357501
  0
POLYLINE
  8
0
 62
9
  6
CONTINUOUS
 66
1
 70
0
  0
VERTEX
  8
0
 62
9
  6
CONTINUOUS
 10
70.4488956936
 20
149.5439578569
  0
VERTEX
  8
0
 62
9
  6
CONTINUOUS
 10
70.4161836773
 20
149.4806724408
  0
VERTEX
  8
0
 62
9
  6
CONTINUOUS
 10
70.3497113429
 20
149.4552781783
  0
SEQEND
  0
POLYLINE
  8
0
 62
9
  6
CONTINUOUS
 66
1
 70
0
  0
VERTEX
  8
0
 62
9
  6
CONTINUOUS
 10
70.2128363523
 20
149.9465519751
  0
VERTEX
  8
0
 62
9
  6
CONTINUOUS
 10
70.1563168683
 20
149.8683443301
  0
VERTEX
  8
0
 62
9
  6
CONTINUOUS
 10
69.9996320397
 20
149.8036449121
  0
VERTEX
  8
0
 62
9
  6
CONTINUOUS
 10
69.8899642523
 20
149.7781954584
  0
VERTEX
  8
0
 62
9
  6
CONTINUOUS
 10
69.623404944
 20
149.7435897164
  0
VERTEX
  8
0
 62
9
  6
CONTINUOUS
 10
69.3159546969
 20
149.7330560201
  0
SEQEND
  0
LINE
  8
0
 62
9
  6
CONTINUOUS
 10
70.9910326208
 20
160.4465519751
 11
70.885857002
 21
160.4465519751
  0
LINE
  8
0
 62
9
  6
CONTINUOUS
 10
67.593218777
 20
160.4465519751
 11
67.4880431582
 21
160.4465519751
  0
LINE
  8
0
 62
9
  6
CONTINUOUS
 10
70.9931933629
 20
160.4457694907
 11
70.9910326208
 21
160.4465519751
  0
POLYLINE
  8
0
 62
9
  6
CONTINUOUS
 66
1
 70
0
  0
VERTEX
  8
0
 62
9
  6
CONTINUOUS
 10
70.885857002
 20
160.4465519751
  0
VERTEX
  8
0
 62
9
  6
CONTINUOUS
 10
70.8721575422
 20
160.4576441291
  0
VERTEX
  8
0
 62
9
  6
CONTINUOUS
 10
70.8484758667
 20
160.5350031322
  0
SEQEND
  0
POLYLINE
  8
0
 62
9
  6
CONTINUOUS
 66
1
 70
0
  0
VERTEX
  8
0
 62
9
  6
CONTINUOUS
 10
67.9773972321
 20
166.4943102211
  0
VERTEX
  8
0
 62
9
  6
CONTINUOUS
 10
68.0363052403
 20
166.3923890933
  0
VERTEX
  8
0
 62
9
  6
CONTINUOUS
 10
68.1972229171
 20
166.3044905844
  0
VERTEX
  8
0
 62
9
  6
CONTINUOUS
 10
68.3084317014
 20
166.2691267838
  0
VERTEX
  8
0
 62
9
  6
CONTINUOUS
 10
68.5762542106
 20
166.2201581865
  0
VERTEX
  8
0
 62
9
  6
CONTINUOUS
 10
68.8823125464
 20
166.2048590672
  0
SEQEND
  0
POLYLINE
  8
SURFACE
 62
9
  6
CONTINUOUS
 66
1
 70
0
  0
VERTEX
  8
SURFACE
 62
9
  6
CONTINUOUS
 10
70.4945741982
 20
150.2166547854
  0
VERTEX
  8
SURFACE
 62
9
  6
CONTINUOUS
 10
70.4742943422
 20
150.1995035978
  0
VERTEX
  8
SURFACE
 62
9
  6
CONTINUOUS
 10
70.4524221685
 20
150.1945544773
  0
VERTEX
  8
SURFACE
 62
9
  6
CONTINUOUS
 10
70.3952170126
 20
150.1941727643
  0
SEQEND
  0
POLYLINE
  8
SURFACE
 62
9
  6
CONTINUOUS
 66
1
 70
0
  0
VERTEX
  8
SURFACE
 62
9
  6
CONTINUOUS
 10
70.5259533956
 20
150.6954088221
  0
VERTEX
  8
SURFACE
 62
9
  6
CONTINUOUS
 10
70.5067160407
 20
150.6821738911
  0
VERTEX
  8
SURFACE
 62
9
  6
CONTINUOUS
 10
70.4846079554
 20
150.6774433768
  0
VERTEX
  8
SURFACE
 62
9
  6
CONTINUOUS
 10
70.4259686261
 20
150.6740148783
  0
SEQEND
  0
POLYLINE
  8
0
 62
9
  6
CONTINUOUS
 66
1
 70
0
  0
VERTEX
  8
0
 62
9
  6
CONTINUOUS
 10
67.5057913697
 20
165.4465519751
  0
VERTEX
  8
0
 62
9
  6
CONTINUOUS
 10
67.5197944975
 20
165.4355905747
  0
VERTEX
  8
0
 62
9
  6
CONTINUOUS
 10
67.5461235939
 20
165.3587083084
  0
SEQEND
  0
LINE
  8
0
 62
9
  6
CONTINUOUS
 10
67.7622432526
 20
145.9249482743
 11
67.7643813926
 21
145.9269184332
  0
POLYLINE
  8
0
 62
9
  6
CONTINUOUS
 66
1
 70
0
  0
VERTEX
  8
0
 62
9
  6
CONTINUOUS
 10
70.7738725053
 20
149.4912357501
  0
VERTEX
  8
0
 62
9
  6
CONTINUOUS
 10
70.7522203
 20
149.4718357078
  0
VERTEX
  8
0
 62
9
  6
CONTINUOUS
 10
70.6972039737
 20
149.4552781783
  0
SEQEND
  0
POLYLINE
  8
0
 62
7
  6
CONTINUOUS
 66
1
 70
0
  0
VERTEX
  8
0
 62
7
  6
CONTINUOUS
 10
70.6972039826
 20
149.4552781783
  0
VERTEX
  8
0
 62
7
  6
CONTINUOUS
 10
70.7548427875
 20
149.4735605725
  0
VERTEX
  8
0
 62
7
  6
CONTINUOUS
 10
70.7776715555
 20
149.4959067356
  0
VERTEX
  8
0
 62
7
  6
CONTINUOUS
 10
70.7961156669
 20
149.5405668455
  0
SEQEND
  0
LINE
  8
0
 62
9
  6
CONTINUOUS
 10
67.3928829622
 20
165.4465519751
 11
67.5057913697
 21
165.4465519751
  0
LINE
  8
0
 62
9
  6
CONTINUOUS
 10
70.9732844093
 20
165.4465519751
 11
71.0861928167
 21
165.4465519751
  0
LINE
  8
0
 62
9
  6
CONTINUOUS
 10
71.0861928167
 20
165.4465519751
 11
71.0883535397
 21
165.4457684749
  0
POLYLINE
  8
0
 62
9
  6
CONTINUOUS
 66
1
 70
0
  0
VERTEX
  8
0
 62
9
  6
CONTINUOUS
 10
70.6956773406
 20
145.6834626702
  0
VERTEX
  8
0
 62
9
  6
CONTINUOUS
 10
70.6971207515
 20
145.6846265122
  0
VERTEX
  8
0
 62
9
  6
CONTINUOUS
 10
70.6985920309
 20
145.6881090871
  0
VERTEX
  8
0
 62
9
  6
CONTINUOUS
 10
70.7000759576
 20
145.6938736544
  0
VERTEX
  8
0
 62
9
  6
CONTINUOUS
 10
70.701559656
 20
145.7018681687
  0
VERTEX
  8
0
 62
9
  6
CONTINUOUS
 10
70.7030297563
 20
145.7120217118
  0
VERTEX
  8
0
 62
9
  6
CONTINUOUS
 10
70.7044724574
 20
145.7242409002
  0
VERTEX
  8
0
 62
9
  6
CONTINUOUS
 10
70.7058735093
 20
145.7384048438
  0
VERTEX
  8
0
 62
9
  6
CONTINUOUS
 10
70.7072206693
 20
145.7543896044
  0
VERTEX
  8
0
 62
9
  6
CONTINUOUS
 10
70.7085006182
 20
145.7720369584
  0
VERTEX
  8
0
 62
9
  6
CONTINUOUS
 10
70.7097015826
 20
145.7911823928
  0
VERTEX
  8
0
 62
9
  6
CONTINUOUS
 10
70.710812826
 20
145.8116541543
  0
VERTEX
  8
0
 62
9
  6
CONTINUOUS
 10
70.7118242257
 20
145.8332678668
  0
VERTEX
  8
0
 62
9
  6
CONTINUOUS
 10
70.7127259764
 20
145.8558160332
  0
VERTEX
  8
0
 62
9
  6
CONTINUOUS
 10
70.7135094888
 20
145.8790831111
  0
VERTEX
  8
0
 62
9
  6
CONTINUOUS
 10
70.7141677478
 20
145.9028606588
  0
SEQEND
  0
POLYLINE
  8
0
 62
9
  6
CONTINUOUS
 66
1
 70
0
  0
VERTEX
  8
0
 62
9
  6
CONTINUOUS
 10
69.5967632326
 20
166.612282367
  0
VERTEX
  8
0
 62
9
  6
CONTINUOUS
 10
69.7299728026
 20
166.6297566878
  0
VERTEX
  8
0
 62
9
  6
CONTINUOUS
 10
69.8506577113
 20
166.6810833524
  0
VERTEX
  8
0
 62
9
  6
CONTINUOUS
 10
69.9013210552
 20
166.7178883004
  0
VERTEX
  8
0
 62
9
  6
CONTINUOUS
 10
69.9746020166
 20
166.8082017182
  0
VERTEX
  8
0
 62
9
  6
CONTINUOUS
 10
70.0017546993
 20
166.9107788695
  0
SEQEND
  0
POLYLINE
  8
0
 62
9
  6
CONTINUOUS
 66
1
 70
0
  0
VERTEX
  8
0
 62
9
  6
CONTINUOUS
 10
68.4773210796
 20
166.9107788695
  0
VERTEX
  8
0
 62
9
  6
CONTINUOUS
 10
68.3650754292
 20
166.8997143196
  0
VERTEX
  8
0
 62
9
  6
CONTINUOUS
 10
68.1632134979
 20
166.8184290747
  0
VERTEX
  8
0
 62
9
  6
CONTINUOUS
 10
68.0839029134
 20
166.7523582483
  0
VERTEX
  8
0
 62
9
  6
CONTINUOUS
 10
67.9885610457
 20
166.5860536292
  0
VERTEX
  8
0
 62
9
  6
CONTINUOUS
 10
67.9773972321
 20
166.4943102211
  0
SEQEND
  0
POLYLINE
  8
0
 62
9
  6
CONTINUOUS
 66
1
 70
0
  0
VERTEX
  8
0
 62
9
  6
CONTINUOUS
 10
69.5967632326
 20
166.2048590672
  0
VERTEX
  8
0
 62
9
  6
CONTINUOUS
 10
69.8960727888
 20
166.2194047899
  0
VERTEX
  8
0
 62
9
  6
CONTINUOUS
 10
70.1665077008
 20
166.2680293847
  0
VERTEX
  8
0
 62
9
  6
CONTINUOUS
 10
70.279721171
 20
166.3036875765
  0
VERTEX
  8
0
 62
9
  6
CONTINUOUS
 10
70.4427113651
 20
166.3923384064
  0
VERTEX
  8
0
 62
9
  6
CONTINUOUS
 10
70.5016785469
 20
166.4943102211
  0
SEQEND
  0
LINE
  8
0
 62
9
  6
CONTINUOUS
 10
68.8823125464
 20
166.2048590672
 11
69.5967632326
 21
166.2048590672
  0
LINE
  8
0
 62
9
  6
CONTINUOUS
 10
68.8823125464
 20
166.612282367
 11
69.5967632326
 21
166.612282367
  0
POLYLINE
  8
0
 62
9
  6
CONTINUOUS
 66
1
 70
0
  0
VERTEX
  8
0
 62
9
  6
CONTINUOUS
 10
70.0017546993
 20
166.9107788695
  0
VERTEX
  8
0
 62
9
  6
CONTINUOUS
 10
70.1140003642
 20
166.8997142905
  0
VERTEX
  8
0
 62
9
  6
CONTINUOUS
 10
70.3158622825
 20
166.8184290193
  0
VERTEX
  8
0
 62
9
  6
CONTINUOUS
 10
70.3951728578
 20
166.7523582015
  0
VERTEX
  8
0
 62
9
  6
CONTINUOUS
 10
70.4905147288
 20
166.5860536183
  0
VERTEX
  8
0
 62
9
  6
CONTINUOUS
 10
70.5016785469
 20
166.4943102211
  0
SEQEND
  0
POLYLINE
  8
0
 62
9
  6
CONTINUOUS
 66
1
 70
0
  0
VERTEX
  8
0
 62
9
  6
CONTINUOUS
 10
67.701139513
 20
169.4465519751
  0
VERTEX
  8
0
 62
9
  6
CONTINUOUS
 10
67.7642451653
 20
169.4115256449
  0
VERTEX
  8
0
 62
9
  6
CONTINUOUS
 10
67.8279690982
 20
169.3073155339
  0
VERTEX
  8
0
 62
9
  6
CONTINUOUS
 10
67.9004710814
 20
169.1078416263
  0
SEQEND
  0
POLYLINE
  8
0
 62
9
  6
CONTINUOUS
 66
1
 70
0
  0
VERTEX
  8
0
 62
9
  6
CONTINUOUS
 10
68.2001937275
 20
169.9552781783
  0
VERTEX
  8
0
 62
9
  6
CONTINUOUS
 10
68.2632993844
 20
169.9191572753
  0
VERTEX
  8
0
 62
9
  6
CONTINUOUS
 10
68.3270233066
 20
169.8116905983
  0
VERTEX
  8
0
 62
9
  6
CONTINUOUS
 10
68.399525296
 20
169.6059831311
  0
SEQEND
  0
POLYLINE
  8
0
 62
9
  6
CONTINUOUS
 66
1
 70
0
  0
VERTEX
  8
0
 62
9
  6
CONTINUOUS
 10
68.399525296
 20
169.6059831311
  0
VERTEX
  8
0
 62
9
  6
CONTINUOUS
 10
68.288125144
 20
169.5922345749
  0
VERTEX
  8
0
 62
9
  6
CONTINUOUS
 10
68.0875278063
 20
169.4946308866
  0
VERTEX
  8
0
 62
9
  6
CONTINUOUS
 10
68.0084535029
 20
169.4157011985
  0
VERTEX
  8
0
 62
9
  6
CONTINUOUS
 10
67.9125041622
 20
169.2173005536
  0
VERTEX
  8
0
 62
9
  6
CONTINUOUS
 10
67.9004710814
 20
169.1078416263
  0
SEQEND
  0
POLYLINE
  8
0
 62
9
  6
CONTINUOUS
 66
1
 70
0
  0
VERTEX
  8
0
 62
9
  6
CONTINUOUS
 10
68.4363842557
 20
169.3293375996
  0
VERTEX
  8
0
 62
9
  6
CONTINUOUS
 10
68.3239560662
 20
169.3168729374
  0
VERTEX
  8
0
 62
9
  6
CONTINUOUS
 10
68.1218378658
 20
169.2218148449
  0
VERTEX
  8
0
 62
9
  6
CONTINUOUS
 10
68.042499812
 20
169.1440900464
  0
VERTEX
  8
0
 62
9
  6
CONTINUOUS
 10
67.9473750741
 20
168.9479493667
  0
VERTEX
  8
0
 62
9
  6
CONTINUOUS
 10
67.9364604081
 20
168.8395792927
  0
SEQEND
  0
LINE
  8
0
 62
9
  6
CONTINUOUS
 10
67.3167548055
 20
169.4465519751
 11
67.701139513
 21
169.4465519751
  0
LINE
  8
0
 62
9
  6
CONTINUOUS
 10
70.7779362659
 20
169.4465519751
 11
71.1623209734
 21
169.4465519751
  0
POLYLINE
  8
0
 62
9
  6
CONTINUOUS
 66
1
 70
0
  0
VERTEX
  8
0
 62
9
  6
CONTINUOUS
 10
70.0426915232
 20
169.3293375996
  0
VERTEX
  8
0
 62
9
  6
CONTINUOUS
 10
70.1551196927
 20
169.3168729419
  0
VERTEX
  8
0
 62
9
  6
CONTINUOUS
 10
70.3572378729
 20
169.2218148763
  0
VERTEX
  8
0
 62
9
  6
CONTINUOUS
 10
70.4365759322
 20
169.1440900893
  0
VERTEX
  8
0
 62
9
  6
CONTINUOUS
 10
70.5317006982
 20
168.947949397
  0
VERTEX
  8
0
 62
9
  6
CONTINUOUS
 10
70.5426153708
 20
168.8395792927
  0
SEQEND
  0
POLYLINE
  8
0
 62
9
  6
CONTINUOUS
 66
1
 70
0
  0
VERTEX
  8
0
 62
9
  6
CONTINUOUS
 10
70.079550483
 20
169.6059831311
  0
VERTEX
  8
0
 62
9
  6
CONTINUOUS
 10
70.1909506373
 20
169.5922345744
  0
VERTEX
  8
0
 62
9
  6
CONTINUOUS
 10
70.3915479782
 20
169.4946308822
  0
VERTEX
  8
0
 62
9
  6
CONTINUOUS
 10
70.4706222811
 20
169.4157011921
  0
VERTEX
  8
0
 62
9
  6
CONTINUOUS
 10
70.5665716179
 20
169.2173005487
  0
VERTEX
  8
0
 62
9
  6
CONTINUOUS
 10
70.5786046975
 20
169.1078416263
  0
SEQEND
  0
LINE
  8
0
 62
9
  6
CONTINUOUS
 10
71.1623209734
 20
169.4465519751
 11
71.1644817005
 21
169.4457686836
  0
POLYLINE
  8
0
 62
9
  6
CONTINUOUS
 66
1
 70
0
  0
VERTEX
  8
0
 62
9
  6
CONTINUOUS
 10
68.2001937275
 20
169.9552781783
  0
VERTEX
  8
0
 62
9
  6
CONTINUOUS
 10
68.0879138521
 20
169.94246321
  0
VERTEX
  8
0
 62
9
  6
CONTINUOUS
 10
67.8860808875
 20
169.8438511544
  0
VERTEX
  8
0
 62
9
  6
CONTINUOUS
 10
67.8068737304
 20
169.7631089096
  0
VERTEX
  8
0
 62
9
  6
CONTINUOUS
 10
67.7119706853
 20
169.5592340193
  0
VERTEX
  8
0
 62
9
  6
CONTINUOUS
 10
67.701139513
 20
169.4465519751
  0
SEQEND
  0
POLYLINE
  8
0
 62
9
  6
CONTINUOUS
 66
1
 70
0
  0
VERTEX
  8
0
 62
9
  6
CONTINUOUS
 10
67.81580902
 20
169.9552781783
  0
VERTEX
  8
0
 62
9
  6
CONTINUOUS
 10
67.7035291475
 20
169.9424632107
  0
VERTEX
  8
0
 62
9
  6
CONTINUOUS
 10
67.5016961857
 20
169.843851159
  0
VERTEX
  8
0
 62
9
  6
CONTINUOUS
 10
67.4224890278
 20
169.763108916
  0
VERTEX
  8
0
 62
9
  6
CONTINUOUS
 10
67.3275859787
 20
169.5592340237
  0
VERTEX
  8
0
 62
9
  6
CONTINUOUS
 10
67.3167548055
 20
169.4465519751
  0
SEQEND
  0
LINE
  8
0
 62
7
  6
CONTINUOUS
 10
67.8145434807
 20
169.9552781783
 11
70.6645100274
 21
169.9552781783
  0
POLYLINE
  8
0
 62
9
  6
CONTINUOUS
 66
1
 70
0
  0
VERTEX
  8
0
 62
9
  6
CONTINUOUS
 10
70.2788820514
 20
169.9552781783
  0
VERTEX
  8
0
 62
9
  6
CONTINUOUS
 10
70.3911619239
 20
169.9424632107
  0
VERTEX
  8
0
 62
9
  6
CONTINUOUS
 10
70.5929948858
 20
169.843851159
  0
VERTEX
  8
0
 62
9
  6
CONTINUOUS
 10
70.6722020436
 20
169.763108916
  0
VERTEX
  8
0
 62
9
  6
CONTINUOUS
 10
70.7671050927
 20
169.5592340237
  0
VERTEX
  8
0
 62
9
  6
CONTINUOUS
 10
70.7779362659
 20
169.4465519751
  0
SEQEND
  0
POLYLINE
  8
0
 62
9
  6
CONTINUOUS
 66
1
 70
0
  0
VERTEX
  8
0
 62
9
  6
CONTINUOUS
 10
70.6632667589
 20
169.9552781783
  0
VERTEX
  8
0
 62
9
  6
CONTINUOUS
 10
70.7755464629
 20
169.9424632497
  0
VERTEX
  8
0
 62
9
  6
CONTINUOUS
 10
70.9773793466
 20
169.8438513594
  0
VERTEX
  8
0
 62
9
  6
CONTINUOUS
 10
71.0565865672
 20
169.7631091521
  0
VERTEX
  8
0
 62
9
  6
CONTINUOUS
 10
71.1514897739
 20
169.5592341484
  0
VERTEX
  8
0
 62
9
  6
CONTINUOUS
 10
71.1623209734
 20
169.4465519751
  0
SEQEND
  0
ARC
  8
0
 62
7
  6
CONTINUOUS
 10
139.1995389613
 20
153.4552781783
 40
16.5
 50
52.8819816911
 51
90.0
  0
ARC
  8
0
 62
7
  6
CONTINUOUS
 10
139.6395389613
 20
153.9552781783
 40
9.5
 50
333.6122001987
 51
359.0
  0
ARC
  8
0
 62
7
  6
CONTINUOUS
 10
133.5128208451
 20
145.9552781783
 40
1.5
 50
181.5
 51
270.0
  0
ARC
  8
0
 62
7
  6
CONTINUOUS
 10
136.9520382645
 20
148.9052781783
 40
0.55
 50
90.0
 51
180.0
  0
ARC
  8
0
 62
7
  6
CONTINUOUS
 10
135.9020382645
 20
144.9552781783
 40
0.5
 50
269.9999347025
 51
360.0
  0
ARC
  8
0
 62
7
  6
CONTINUOUS
 10
136.6162114251
 20
149.5552781783
 40
0.1
 50
209.4003934118
 51
269.9999217183
  0
ARC
  8
0
 62
7
  6
CONTINUOUS
 10
134.7077150388
 20
162.9552781783
 40
2.0
 50
270.0
 51
90.0
  0
ARC
  8
0
 62
7
  6
CONTINUOUS
 10
132.0018525821
 20
165.4552781783
 40
0.5
 50
181.5
 51
270.0
  0
ARC
  8
0
 62
7
  6
CONTINUOUS
 10
132.1327821899
 20
160.4552781783
 40
0.5
 50
90.0
 51
181.5
  0
ARC
  8
0
 62
7
  6
CONTINUOUS
 10
131.8971088958
 20
169.4552781783
 40
0.5
 50
90.0
 51
181.5
  0
ARC
  8
0
 62
7
  6
CONTINUOUS
 10
140.4495389613
 20
151.7152781783
 40
4.5
 50
340.2435038673
 51
199.7564961327
  0
ARC
  8
0
 62
7
  6
CONTINUOUS
 10
147.7017967001
 20
149.9552781783
 40
0.5
 50
270.0
 51
333.6122035606
  0
ARC
  8
0
 62
7
  6
CONTINUOUS
 10
144.2828664975
 20
149.5552781783
 40
0.1
 50
269.9997219173
 51
330.5993717882
  0
ARC
  8
0
 62
7
  6
CONTINUOUS
 10
148.8548794599
 20
166.2135852704
 40
0.5
 50
359.0000000003
 51
52.8819816917
  0
ARC
  8
0
 62
7
  6
CONTINUOUS
 10
72.9523608591
 20
150.7826708543
 40
5.0
 50
181.0
 51
186.5
  0
ARC
  8
SURFACE
 62
7
  6
CONTINUOUS
 10
65.5267149198
 20
150.7826708543
 40
5.0
 50
353.5
 51
359.0
  0
ARC
  8
0
 62
7
  6
CONTINUOUS
 10
67.9857948111
 20
160.4552781783
 40
0.5
 50
131.3198823291
 51
181.0902550711
  0
ARC
  8
0
 62
7
  6
CONTINUOUS
 10
67.8906347887
 20
165.4552781783
 40
0.5
 50
181.0902492487
 51
231.7500734818
  0
ARC
  8
0
 62
7
  6
CONTINUOUS
 10
70.5884411655
 20
165.4552781783
 40
0.5
 50
308.2296513505
 51
358.9097447958
  0
ARC
  8
0
 62
7
  6
CONTINUOUS
 10
70.4932807937
 20
160.4552781783
 40
0.5
 50
358.9097507722
 51
48.7449774126
  0
ARC
  8
0
 62
7
  6
CONTINUOUS
 10
70.6645693354
 20
169.4552781783
 40
0.5
 50
358.9097442271
 51
89.9999999967
  0
ARC
  8
0
 62
7
  6
CONTINUOUS
 10
67.8145065859
 20
169.4552781783
 40
0.5
 50
90.0000000029
 51
181.0902509857
  0
ARC
  8
0
 62
7
  6
CONTINUOUS
 10
68.7661632742
 20
149.9552781783
 40
0.5
 50
181.0
 51
270.0
  0
ARC
  8
0
 62
7
  6
CONTINUOUS
 10
69.7129125047
 20
149.9552781783
 40
0.5
 50
270.0000000001
 51
359.0
  0
ARC
  8
0
 62
7
  6
CONTINUOUS
 10
68.1605029001
 20
149.5552781783
 40
0.1
 50
186.5
 51
270.0
  0
ARC
  8
0
 62
7
  6
CONTINUOUS
 10
70.3185728789
 20
149.5552781783
 40
0.1
 50
270.0
 51
353.5
  0
ENDSEC
  0
EOF
