  0
SECTION
  2
HEADER
  9
$EXTMAX
 10
594.0
 20
420.0
 30
0.0
  9
$EXTMIN
 10
0.0
 20
0.0
 30
0.0
  9
$LIMMIN
 10
0.0
 20
0.0
  9
$LIMMAX
 10
594.0
 20
420.0
  9
$VIEWCTR
 10
297.0
 20
210.0
  9
$VIEWSIZE
 40
420.0
  9
$CLAYER
  8
0
  9
$LTSCALE
 40
32.67
  9
$CELTYPE
  6
BYLAYER
  9
$DIMSCALE
 40
1.0
  9
$DIMASZ
 40
3.5
  9
$DIMEXO
 40
1.0
  9
$DIMDLI
 40
22.572
  9
$DIMEXE
 40
2.0
  9
$DIMCEN
 40
5.346
  9
$DIMLFAC
 40
1.0
  9
$DIMBLK
  1
_FILLED
  9
$DIMALT
 70
0
  9
$DIMALTF
 40
0.0393700787
  9
$DIMTXT
 40
3.5
  9
$AUNITS
 70
0
  9
$PDMODE
 70
3
  9
$PDSIZE
 40
0.3125
  9
$TILEMODE
 70
1
  0
ENDSEC
  0
SECTION
  2
TABLES
  0
TABLE
  2
LTYPE
 70
6
  0
LTYPE
  2
BYBLOCK
 70
0
  3

 72
65
 73
0
 40
0.0
  0
LTYPE
  2
BYLAYER
 70
0
  3

 72
65
 73
0
 40
0.0
  0
LTYPE
  2
CONTINUOUS
 70
64
  3
Solid line
 72
65
 73
0
 40
0.0
  0
LTYPE
  2
CENTER
 70
64
  3
____ _ ____ _ ____ _ ____ _ ____ _ ____ _ ____
 72
65
 73
4
 40
0.6
 49
0.375
 49
-0.075
 49
0.075
 49
-0.075
  0
LTYPE
  2
HIDDEN
 70
64
  3
- - - - - - - - - - - - - - - - - - - -
 72
65
 73
2
 40
0.2
 49
0.1
 49
-0.1
  0
LTYPE
  2
PHANTOM
 70
64
  3
_____ _ _ _____ _ _ _____ _ _ _____
 72
65
 73
6
 40
0.8
 49
0.45
 49
-0.05
 49
0.1
 49
-0.05
 49
0.1
 49
-0.05
  0
LTYPE
  2
DOT
 70
64
  3
. . . . . . . . . . . . . . . . . . . .
 72
65
 73
2
 40
0.2
 49
0.1
 49
-0.1
  0
LTYPE
  2
DASHED
 70
64
  3
- - - - - - - - - - - - - - - - - - - -
 72
65
 73
2
 40
0.2
 49
0.1
 49
-0.1
  0
ENDTAB
  0
TABLE
  2
LAYER
 70
36
  0
LAYER
  2
0
 70
0
 62
7
  6
CONTINUOUS
  0
LAYER
  2
DEFAULT_1
 70
0
 62
7
  6
CENTER
  0
LAYER
  2
DEFAULT_2
 70
0
 62
8
  6
HIDDEN
  0
LAYER
  2
DEFAULT_3
 70
0
 62
7
  6
PHANTOM
  0
LAYER
  2
1_CSYS
 70
0
 62
7
  6
CONTINUOUS
  0
LAYER
  2
1_DATUM_PLANE
 70
0
 62
7
  6
CONTINUOUS
  0
LAYER
  2
2_FEATURE
 70
0
 62
7
  6
CONTINUOUS
  0
LAYER
  2
6_DIM
 70
0
 62
7
  6
CONTINUOUS
  0
LAYER
  2
AXES
 70
0
 62
7
  6
CONTINUOUS
  0
LAYER
  2
BLANK_CURVE
 70
0
 62
7
  6
CONTINUOUS
  0
LAYER
  2
CSYS
 70
0
 62
7
  6
CONTINUOUS
  0
LAYER
  2
NOTES
 70
0
 62
7
  6
CONTINUOUS
  0
LAYER
  2
PITCH_DIAMETER
 70
0
 62
7
  6
CONTINUOUS
  0
LAYER
  2
PITCH_LINE
 70
0
 62
7
  6
CONTINUOUS
  0
LAYER
  2
PLANES
 70
0
 62
7
  6
CONTINUOUS
  0
LAYER
  2
QUILTS
 70
0
 62
7
  6
CONTINUOUS
  0
ENDTAB
  0
TABLE
  2
STYLE
 70
1
  0
STYLE
  2
STANDARD
 70
0
 40
0.0
 41
0.8
 50
0.0
 71
0
 42
0.2
  3
txt
  4

  0
STYLE
  2
TEXTSTYLE_1
 70
0
 40
0.0
 41
0.8
 50
0.0
 71
0
 42
0.2
  3
gdt
  4

  0
STYLE
  2
TEXTSTYLE_2
 70
0
 40
0.0
 41
0.6
 50
0.0
 71
0
 42
0.2
  3
txt
  4

  0
STYLE
  2
TEXTSTYLE_3
 70
0
 40
0.0
 41
1.0
 50
0.0
 71
0
 42
0.2
  3
ftb_____.ttf
  4

  0
STYLE
  2
TEXTSTYLE_4
 70
0
 40
0.0
 41
1.0
 50
0.0
 71
0
 42
0.2
  3
fti_____.ttf
  4

  0
STYLE
  2
TEXTSTYLE_5
 70
0
 40
0.0
 41
1.0
 50
0.0
 71
0
 42
0.2
  3
frutiger light.ttf
  4

  0
STYLE
  2
TEXTSTYLE_6
 70
0
 40
0.0
 41
0.7
 50
0.0
 71
0
 42
0.2
  3
txt
  4

  0
STYLE
  2
TEXTSTYLE_7
 70
0
 40
0.0
 41
0.6
 50
0.0
 71
0
 42
0.2
  3
txt
  4

  0
ENDTAB
  0
ENDSEC
  0
SECTION
  2
BLOCKS
  0
BLOCK
  8
0
 62
2
  6
CONTINUOUS
  2
UNI_LOGO2_BL1
 70
64
 10
557.4079930916
 20
35.8092573885
  0
TEXT
  8
0
 62
7
  6
CONTINUOUS
 10
548.4662781001
 20
30.9020137655
  7
TEXTSTYLE_4
 40
1.0655737705
  1
The brand for plastic modular belts and chains
 41
1.0
 72
0
  0
LINE
  8
0
 62
7
  6
CONTINUOUS
 10
533.3860614807
 20
36.3830278803
 11
533.3860614807
 21
34.2518803393
  0
LINE
  8
0
 62
7
  6
CONTINUOUS
 10
533.6751239738
 20
31.2609490436
 11
533.6751239738
 21
31.3577401029
  0
LINE
  8
0
 62
7
  6
CONTINUOUS
 10
533.3860614807
 20
31.3254764164
 11
533.4438739824
 21
31.1318942979
  0
LINE
  8
0
 62
7
  6
CONTINUOUS
 10
534.7795041036
 20
34.1699131262
 11
534.7795041036
 21
36.3830278803
  0
LINE
  8
0
 62
7
  6
CONTINUOUS
 10
535.6985614255
 20
32.3256508311
 11
535.6985614255
 21
30.8092573885
  0
LINE
  8
0
 62
7
  6
CONTINUOUS
 10
535.9876239807
 20
30.8092573885
 11
535.9876239807
 21
31.5513222666
  0
LINE
  8
0
 62
7
  6
CONTINUOUS
 10
535.9876239807
 20
31.6803770123
 11
535.9876239807
 21
32.3256508311
  0
LINE
  8
0
 62
7
  6
CONTINUOUS
 10
533.4438739824
 20
31.5190585802
 11
533.3860614807
 21
31.3254764164
  0
LINE
  8
0
 62
7
  6
CONTINUOUS
 10
533.7907489669
 20
31.0996306115
 11
533.6751239738
 21
31.2609490436
  0
LINE
  8
0
 62
7
  6
CONTINUOUS
 10
534.8891865358
 20
31.6158496394
 11
534.9469989807
 21
31.5190585802
  0
LINE
  8
0
 62
7
  6
CONTINUOUS
 10
535.2360615358
 20
31.5190585802
 11
535.1782489255
 21
31.6481133259
  0
LINE
  8
0
 62
7
  6
CONTINUOUS
 10
536.6647500053
 20
36.3830278803
 11
536.6647500053
 21
34.5797491918
  0
LINE
  8
0
 62
7
  6
CONTINUOUS
 10
536.6647500053
 20
33.2682737819
 11
536.6647500053
 21
32.612536077
  0
LINE
  8
0
 62
7
  6
CONTINUOUS
 10
537.0282489807
 20
31.4545312073
 11
537.0282489807
 21
30.8092573885
  0
LINE
  8
0
 62
7
  6
CONTINUOUS
 10
537.3173113704
 20
30.8092573885
 11
537.3173113704
 21
31.4545312073
  0
LINE
  8
0
 62
7
  6
CONTINUOUS
 10
533.6751239738
 20
31.3577401029
 11
533.7329364807
 21
31.4867948937
  0
LINE
  8
0
 62
7
  6
CONTINUOUS
 10
533.4438739824
 20
31.1318942979
 11
533.5594989807
 21
31.0028395296
  0
LINE
  8
0
 62
7
  6
CONTINUOUS
 10
536.9704363704
 20
31.583585953
 11
537.0282489807
 21
31.4545312073
  0
LINE
  8
0
 62
7
  6
CONTINUOUS
 10
537.7798115909
 20
31.0996306115
 11
537.8376238704
 21
30.9705758432
  0
LINE
  8
0
 62
7
  6
CONTINUOUS
 10
537.3173113704
 20
31.4545312073
 11
537.2594990909
 21
31.6158496394
  0
LINE
  8
0
 62
7
  6
CONTINUOUS
 10
537.7798115909
 20
31.6481133259
 11
537.7798115909
 21
31.583585953
  0
LINE
  8
0
 62
7
  6
CONTINUOUS
 10
537.7798115909
 20
31.1964216708
 11
537.7798115909
 21
31.0996306115
  0
LINE
  8
0
 62
7
  6
CONTINUOUS
 10
538.0581926282
 20
32.612536077
 11
538.0581926282
 21
36.3830278803
  0
LINE
  8
0
 62
7
  6
CONTINUOUS
 10
538.0688739807
 20
31.0673669025
 11
538.0688739807
 21
31.1318942979
  0
LINE
  8
0
 62
7
  6
CONTINUOUS
 10
538.3860614807
 20
36.3830278803
 11
538.3860614807
 21
32.612536077
  0
LINE
  8
0
 62
7
  6
CONTINUOUS
 10
535.1782489255
 20
31.0028395296
 11
535.2360615358
 21
31.1318942979
  0
LINE
  8
0
 62
7
  6
CONTINUOUS
 10
539.5719992012
 20
30.9060484591
 11
539.5141862601
 21
31.0673669025
  0
LINE
  8
0
 62
7
  6
CONTINUOUS
 10
539.2251242012
 20
31.583585953
 11
539.2251242012
 21
31.4867948937
  0
LINE
  8
0
 62
7
  6
CONTINUOUS
 10
539.2251242012
 20
31.3577401029
 11
539.2251242012
 21
31.1641579843
  0
LINE
  8
0
 62
7
  6
CONTINUOUS
 10
539.5141862601
 20
31.0673669025
 11
539.5141862601
 21
31.583585953
  0
LINE
  8
0
 62
7
  6
CONTINUOUS
 10
539.7795041036
 20
32.612536077
 11
539.7795041036
 21
34.4158147655
  0
LINE
  8
0
 62
7
  6
CONTINUOUS
 10
539.7795041036
 20
35.7272901754
 11
539.7795041036
 21
36.3830278803
  0
LINE
  8
0
 62
7
  6
CONTINUOUS
 10
540.0923117012
 20
32.3256508311
 11
540.0923117012
 21
32.164332399
  0
LINE
  8
0
 62
7
  6
CONTINUOUS
 10
540.0923117012
 20
31.8416954444
 11
540.0923117012
 21
30.8092573885
  0
LINE
  8
0
 62
7
  6
CONTINUOUS
 10
540.3813737601
 20
30.8092573885
 11
540.3813737601
 21
31.8416954444
  0
LINE
  8
0
 62
7
  6
CONTINUOUS
 10
540.3813737601
 20
32.164332399
 11
540.3813737601
 21
32.3256508311
  0
LINE
  8
0
 62
7
  6
CONTINUOUS
 10
534.9469989807
 20
31.1318942979
 11
534.8891865358
 21
31.035103216
  0
LINE
  8
0
 62
7
  6
CONTINUOUS
 10
537.2594990909
 20
31.6158496394
 11
537.2016864807
 21
31.6803770123
  0
LINE
  8
0
 62
7
  6
CONTINUOUS
 10
538.1266865909
 20
31.0028395296
 11
538.0688739807
 21
31.0673669025
  0
LINE
  8
0
 62
7
  6
CONTINUOUS
 10
539.2829364807
 20
30.873784767
 11
539.3407487601
 21
30.8092573885
  0
LINE
  8
0
 62
7
  6
CONTINUOUS
 10
539.2251242012
 20
30.9705758432
 11
539.2829364807
 21
30.873784767
  0
LINE
  8
0
 62
7
  6
CONTINUOUS
 10
539.6298114807
 20
30.8092573885
 11
539.5719992012
 21
30.9060484591
  0
LINE
  8
0
 62
7
  6
CONTINUOUS
 10
539.5141862601
 20
31.583585953
 11
539.4563739807
 21
31.6803770123
  0
LINE
  8
0
 62
7
  6
CONTINUOUS
 10
540.8438739807
 20
31.8416954444
 11
540.8438739807
 21
30.8092573885
  0
LINE
  8
0
 62
7
  6
CONTINUOUS
 10
541.1329367012
 20
30.8092573885
 11
541.1329367012
 21
31.5513222666
  0
LINE
  8
0
 62
7
  6
CONTINUOUS
 10
541.1329367012
 20
31.6803770123
 11
541.1329367012
 21
31.8416954444
  0
LINE
  8
0
 62
7
  6
CONTINUOUS
 10
541.6647500053
 20
34.8256508311
 11
541.6647500053
 21
32.612536077
  0
LINE
  8
0
 62
7
  6
CONTINUOUS
 10
533.5594989807
 20
31.6481133259
 11
533.4438739824
 21
31.5190585802
  0
LINE
  8
0
 62
7
  6
CONTINUOUS
 10
533.7329364807
 20
31.4867948937
 11
533.7907489669
 21
31.5513222666
  0
LINE
  8
0
 62
7
  6
CONTINUOUS
 10
533.5594989807
 20
31.0028395296
 11
533.6751239738
 21
30.9383121455
  0
LINE
  8
0
 62
7
  6
CONTINUOUS
 10
533.9641864669
 20
31.0028395296
 11
533.7907489669
 21
31.0996306115
  0
LINE
  8
0
 62
7
  6
CONTINUOUS
 10
539.1673112601
 20
31.6481133259
 11
539.2251242012
 21
31.583585953
  0
LINE
  8
0
 62
7
  6
CONTINUOUS
 10
542.1157487601
 20
31.583585953
 11
542.1735617012
 21
31.4222675209
  0
LINE
  8
0
 62
7
  6
CONTINUOUS
 10
542.4626237601
 20
31.4222675209
 11
542.4048114807
 21
31.583585953
  0
LINE
  8
0
 62
7
  6
CONTINUOUS
 10
542.1735617012
 20
31.4222675209
 11
542.1735617012
 21
30.8092573885
  0
LINE
  8
0
 62
7
  6
CONTINUOUS
 10
542.4626237601
 20
30.8092573885
 11
542.4626237601
 21
31.4222675209
  0
LINE
  8
0
 62
7
  6
CONTINUOUS
 10
542.9251239807
 20
31.6481133259
 11
542.9251239807
 21
31.583585953
  0
LINE
  8
0
 62
7
  6
CONTINUOUS
 10
543.0581926282
 20
32.612536077
 11
543.0581926282
 21
34.743683618
  0
LINE
  8
0
 62
7
  6
CONTINUOUS
 10
543.3860614807
 20
36.3830278803
 11
543.3860614807
 21
32.612536077
  0
LINE
  8
0
 62
7
  6
CONTINUOUS
 10
538.0688739807
 20
31.1318942979
 11
538.1266865909
 21
31.2286853572
  0
LINE
  8
0
 62
7
  6
CONTINUOUS
 10
533.6751239738
 20
30.9383121455
 11
533.8485614944
 21
30.873784767
  0
LINE
  8
0
 62
7
  6
CONTINUOUS
 10
535.1782489255
 20
31.6481133259
 11
535.0048114255
 21
31.7449043851
  0
LINE
  8
0
 62
7
  6
CONTINUOUS
 10
537.8376238704
 20
30.9705758432
 11
538.0110613704
 21
30.873784767
  0
LINE
  8
0
 62
7
  6
CONTINUOUS
 10
536.8548114807
 20
31.6481133259
 11
536.9704363704
 21
31.583585953
  0
LINE
  8
0
 62
7
  6
CONTINUOUS
 10
537.2016864807
 20
31.6803770123
 11
537.0860615909
 21
31.7449043851
  0
LINE
  8
0
 62
7
  6
CONTINUOUS
 10
542.9251239807
 20
31.0673669025
 11
543.0407492012
 21
30.9383121455
  0
LINE
  8
0
 62
7
  6
CONTINUOUS
 10
543.2719989807
 20
31.0028395296
 11
543.2141867012
 21
31.0673669025
  0
LINE
  8
0
 62
7
  6
CONTINUOUS
 10
542.9251239807
 20
31.583585953
 11
543.0407492012
 21
31.4545312073
  0
LINE
  8
0
 62
7
  6
CONTINUOUS
 10
542.4048114807
 20
31.583585953
 11
542.3469992012
 21
31.6803770123
  0
LINE
  8
0
 62
7
  6
CONTINUOUS
 10
544.7751235396
 20
31.0028395296
 11
544.7751235396
 21
31.0673669025
  0
LINE
  8
0
 62
7
  6
CONTINUOUS
 10
544.7795041036
 20
32.612536077
 11
544.7795041036
 21
36.3830278803
  0
LINE
  8
0
 62
7
  6
CONTINUOUS
 10
537.8376238704
 20
31.7126406987
 11
537.7798115909
 21
31.6481133259
  0
LINE
  8
0
 62
7
  6
CONTINUOUS
 10
534.7157489531
 20
31.6803770123
 11
534.8891865358
 21
31.6158496394
  0
LINE
  8
0
 62
7
  6
CONTINUOUS
 10
539.4563739807
 20
31.6803770123
 11
539.3407487601
 21
31.7449043851
  0
LINE
  8
0
 62
7
  6
CONTINUOUS
 10
543.2719989807
 20
31.5190585802
 11
543.2141867012
 21
31.583585953
  0
LINE
  8
0
 62
7
  6
CONTINUOUS
 10
544.4282492012
 20
31.1318942979
 11
544.4860614807
 21
31.0673669025
  0
LINE
  8
0
 62
7
  6
CONTINUOUS
 10
544.7751235396
 20
31.0673669025
 11
544.6594989807
 21
31.1964216708
  0
LINE
  8
0
 62
7
  6
CONTINUOUS
 10
544.4282492012
 20
31.6481133259
 11
544.4860614807
 21
31.583585953
  0
LINE
  8
0
 62
7
  6
CONTINUOUS
 10
544.7751235396
 20
31.583585953
 11
544.6594989807
 21
31.7126406987
  0
LINE
  8
0
 62
7
  6
CONTINUOUS
 10
538.0688739807
 20
31.583585953
 11
538.1266865909
 21
31.6481133259
  0
LINE
  8
0
 62
7
  6
CONTINUOUS
 10
537.8954364807
 20
31.3254764164
 11
537.7798115909
 21
31.1964216708
  0
LINE
  8
0
 62
7
  6
CONTINUOUS
 10
539.2251242012
 20
31.1641579843
 11
539.1673112601
 21
31.0996306115
  0
LINE
  8
0
 62
7
  6
CONTINUOUS
 10
539.1673112601
 20
30.9060484591
 11
539.2251242012
 21
30.9705758432
  0
LINE
  8
0
 62
7
  6
CONTINUOUS
 10
538.0110613704
 20
30.873784767
 11
538.1266865909
 21
30.8415210777
  0
LINE
  8
0
 62
7
  6
CONTINUOUS
 10
535.0048114255
 20
31.7449043851
 11
534.7735614807
 21
31.809431758
  0
LINE
  8
0
 62
7
  6
CONTINUOUS
 10
538.3579363704
 20
30.9383121455
 11
538.1266865909
 21
31.0028395296
  0
LINE
  8
0
 62
7
  6
CONTINUOUS
 10
537.0860615909
 20
31.7449043851
 11
536.9126240909
 21
31.809431758
  0
LINE
  8
0
 62
7
  6
CONTINUOUS
 10
539.3407487601
 20
31.7449043851
 11
539.1673112601
 21
31.809431758
  0
LINE
  8
0
 62
7
  6
CONTINUOUS
 10
542.0001242012
 20
31.6481133259
 11
542.1157487601
 21
31.583585953
  0
LINE
  8
0
 62
7
  6
CONTINUOUS
 10
542.3469992012
 20
31.6803770123
 11
542.2313739807
 21
31.7449043851
  0
LINE
  8
0
 62
7
  6
CONTINUOUS
 10
533.8485614944
 20
30.873784767
 11
534.0219989944
 21
30.8415210777
  0
LINE
  8
0
 62
7
  6
CONTINUOUS
 10
534.3110615082
 20
30.9383121455
 11
533.9641864669
 21
31.0028395296
  0
LINE
  8
0
 62
7
  6
CONTINUOUS
 10
536.7391865909
 20
31.6803770123
 11
536.8548114807
 21
31.6481133259
  0
LINE
  8
0
 62
7
  6
CONTINUOUS
 10
539.0516867012
 20
31.6803770123
 11
539.1673112601
 21
31.6481133259
  0
LINE
  8
0
 62
7
  6
CONTINUOUS
 10
543.3876242012
 20
30.9705758432
 11
543.2719989807
 21
31.0028395296
  0
LINE
  8
0
 62
7
  6
CONTINUOUS
 10
541.8844989807
 20
31.6803770123
 11
542.0001242012
 21
31.6481133259
  0
LINE
  8
0
 62
7
  6
CONTINUOUS
 10
543.0407492012
 20
30.9383121455
 11
543.2141867012
 21
30.873784767
  0
LINE
  8
0
 62
7
  6
CONTINUOUS
 10
542.2313739807
 20
31.7449043851
 11
542.0579364807
 21
31.809431758
  0
LINE
  8
0
 62
7
  6
CONTINUOUS
 10
543.4454364807
 20
31.4545312073
 11
543.2719989807
 21
31.5190585802
  0
LINE
  8
0
 62
7
  6
CONTINUOUS
 10
544.2548117012
 20
31.1964216708
 11
544.4282492012
 21
31.1318942979
  0
LINE
  8
0
 62
7
  6
CONTINUOUS
 10
544.6594989807
 20
31.7126406987
 11
544.4860614807
 21
31.7771680715
  0
LINE
  8
0
 62
7
  6
CONTINUOUS
 10
543.0407492012
 20
31.4545312073
 11
543.2719989807
 21
31.3577401029
  0
LINE
  8
0
 62
7
  6
CONTINUOUS
 10
544.6594989807
 20
31.1964216708
 11
544.4282492012
 21
31.29321273
  0
LINE
  8
0
 62
7
  6
CONTINUOUS
 10
543.2141867012
 20
31.583585953
 11
543.2719989807
 21
31.6481133259
  0
LINE
  8
0
 62
7
  6
CONTINUOUS
 10
533.6751239738
 20
31.7126406987
 11
533.5594989807
 21
31.6481133259
  0
LINE
  8
0
 62
7
  6
CONTINUOUS
 10
533.7907489669
 20
31.5513222666
 11
533.9641864669
 21
31.6481133259
  0
LINE
  8
0
 62
7
  6
CONTINUOUS
 10
536.1032490358
 20
31.7449043851
 11
535.9876239807
 21
31.6803770123
  0
LINE
  8
0
 62
7
  6
CONTINUOUS
 10
535.9876239807
 20
31.5513222666
 11
536.1032490358
 21
31.6158496394
  0
LINE
  8
0
 62
7
  6
CONTINUOUS
 10
535.0048114255
 20
30.9060484591
 11
535.1782489255
 21
31.0028395296
  0
LINE
  8
0
 62
7
  6
CONTINUOUS
 10
534.0219989944
 20
30.8415210777
 11
534.3688739531
 21
30.8092573885
  0
LINE
  8
0
 62
7
  6
CONTINUOUS
 10
538.1266865909
 20
30.8415210777
 11
538.3579363704
 21
30.8092573885
  0
LINE
  8
0
 62
7
  6
CONTINUOUS
 10
536.5079364807
 20
31.7126406987
 11
536.7391865909
 21
31.6803770123
  0
LINE
  8
0
 62
7
  6
CONTINUOUS
 10
538.8204365909
 20
31.7126406987
 11
539.0516867012
 21
31.6803770123
  0
LINE
  8
0
 62
7
  6
CONTINUOUS
 10
543.2719989807
 20
31.3577401029
 11
544.2548117012
 21
31.1964216708
  0
LINE
  8
0
 62
7
  6
CONTINUOUS
 10
544.4282492012
 20
31.29321273
 11
543.4454364807
 21
31.4545312073
  0
LINE
  8
0
 62
7
  6
CONTINUOUS
 10
536.9126240909
 20
31.809431758
 11
536.7391865909
 21
31.8416954444
  0
LINE
  8
0
 62
7
  6
CONTINUOUS
 10
543.2141867012
 20
30.873784767
 11
543.3876242012
 21
30.8415210777
  0
LINE
  8
0
 62
7
  6
CONTINUOUS
 10
542.0579364807
 20
31.809431758
 11
541.8844989807
 21
31.8416954444
  0
LINE
  8
0
 62
7
  6
CONTINUOUS
 10
544.3126239807
 20
31.6803770123
 11
544.4282492012
 21
31.6481133259
  0
LINE
  8
0
 62
7
  6
CONTINUOUS
 10
544.4860614807
 20
31.0673669025
 11
544.4282492012
 21
31.0028395296
  0
LINE
  8
0
 62
7
  6
CONTINUOUS
 10
543.0407492012
 20
31.7449043851
 11
542.9251239807
 21
31.6481133259
  0
LINE
  8
0
 62
7
  6
CONTINUOUS
 10
537.9532490909
 20
31.7771680715
 11
537.8376238704
 21
31.7126406987
  0
LINE
  8
0
 62
7
  6
CONTINUOUS
 10
538.0110613704
 20
31.3900038345
 11
537.8954364807
 21
31.3254764164
  0
LINE
  8
0
 62
7
  6
CONTINUOUS
 10
538.1266865909
 20
31.2286853572
 11
538.2423114807
 21
31.29321273
  0
LINE
  8
0
 62
7
  6
CONTINUOUS
 10
535.6985614255
 20
30.8092573885
 11
535.9876239807
 21
30.8092573885
  0
LINE
  8
0
 62
7
  6
CONTINUOUS
 10
537.0282489807
 20
30.8092573885
 11
537.3173113704
 21
30.8092573885
  0
LINE
  8
0
 62
7
  6
CONTINUOUS
 10
538.3579363704
 20
30.8092573885
 11
538.7048113704
 21
30.8092573885
  0
LINE
  8
0
 62
7
  6
CONTINUOUS
 10
539.3407487601
 20
30.8092573885
 11
539.6298114807
 21
30.8092573885
  0
LINE
  8
0
 62
7
  6
CONTINUOUS
 10
540.0923117012
 20
30.8092573885
 11
540.3813737601
 21
30.8092573885
  0
LINE
  8
0
 62
7
  6
CONTINUOUS
 10
540.8438739807
 20
30.8092573885
 11
541.1329367012
 21
30.8092573885
  0
LINE
  8
0
 62
7
  6
CONTINUOUS
 10
542.1735617012
 20
30.8092573885
 11
542.4626237601
 21
30.8092573885
  0
LINE
  8
0
 62
7
  6
CONTINUOUS
 10
543.7344992012
 20
30.8092573885
 11
544.0813742012
 21
30.8092573885
  0
LINE
  8
0
 62
7
  6
CONTINUOUS
 10
544.0813742012
 20
30.9383121455
 11
543.7344992012
 21
30.9383121455
  0
LINE
  8
0
 62
7
  6
CONTINUOUS
 10
538.7048113704
 20
30.9383121455
 11
538.3579363704
 21
30.9383121455
  0
LINE
  8
0
 62
7
  6
CONTINUOUS
 10
543.2141867012
 20
31.0673669025
 11
542.9251239807
 21
31.0673669025
  0
LINE
  8
0
 62
7
  6
CONTINUOUS
 10
535.2360615358
 20
31.1318942979
 11
534.9469989807
 21
31.1318942979
  0
LINE
  8
0
 62
7
  6
CONTINUOUS
 10
534.3110615082
 20
31.7126406987
 11
534.7157489531
 21
31.6803770123
  0
LINE
  8
0
 62
7
  6
CONTINUOUS
 10
534.7735614807
 20
31.809431758
 11
534.3688739531
 21
31.8416954444
  0
LINE
  8
0
 62
7
  6
CONTINUOUS
 10
543.3876242012
 20
30.8415210777
 11
543.7344992012
 21
30.8092573885
  0
LINE
  8
0
 62
7
  6
CONTINUOUS
 10
543.7344992012
 20
30.9383121455
 11
543.3876242012
 21
30.9705758432
  0
LINE
  8
0
 62
7
  6
CONTINUOUS
 10
539.1673112601
 20
31.809431758
 11
538.8204365909
 21
31.8416954444
  0
LINE
  8
0
 62
7
  6
CONTINUOUS
 10
543.9657489807
 20
31.7126406987
 11
544.3126239807
 21
31.6803770123
  0
LINE
  8
0
 62
7
  6
CONTINUOUS
 10
544.3126239807
 20
31.809431758
 11
543.9657489807
 21
31.8416954444
  0
LINE
  8
0
 62
7
  6
CONTINUOUS
 10
541.6532492012
 20
31.7126406987
 11
541.8844989807
 21
31.6803770123
  0
LINE
  8
0
 62
7
  6
CONTINUOUS
 10
544.4860614807
 20
31.7771680715
 11
544.3126239807
 21
31.809431758
  0
LINE
  8
0
 62
7
  6
CONTINUOUS
 10
544.6594989807
 20
30.9060484591
 11
544.7751235396
 21
31.0028395296
  0
LINE
  8
0
 62
7
  6
CONTINUOUS
 10
539.1673112601
 20
31.0996306115
 11
538.9938737601
 21
31.0028395296
  0
LINE
  8
0
 62
7
  6
CONTINUOUS
 10
541.2485612601
 20
31.7449043851
 11
541.1329367012
 21
31.6803770123
  0
LINE
  8
0
 62
7
  6
CONTINUOUS
 10
541.1329367012
 20
31.5513222666
 11
541.2485612601
 21
31.6158496394
  0
LINE
  8
0
 62
7
  6
CONTINUOUS
 10
533.8485614944
 20
31.7771680715
 11
533.6751239738
 21
31.7126406987
  0
LINE
  8
0
 62
7
  6
CONTINUOUS
 10
536.2766863704
 20
31.809431758
 11
536.1032490358
 21
31.7449043851
  0
LINE
  8
0
 62
7
  6
CONTINUOUS
 10
536.1032490358
 20
31.6158496394
 11
536.2766863704
 21
31.6803770123
  0
LINE
  8
0
 62
7
  6
CONTINUOUS
 10
534.8891865358
 20
31.035103216
 11
534.7157489531
 21
30.9705758432
  0
LINE
  8
0
 62
7
  6
CONTINUOUS
 10
544.3126239807
 20
30.9705758432
 11
544.0813742012
 21
30.9383121455
  0
LINE
  8
0
 62
7
  6
CONTINUOUS
 10
538.7048113704
 20
30.8092573885
 11
538.9938737601
 21
30.8415210777
  0
LINE
  8
0
 62
7
  6
CONTINUOUS
 10
544.0813742012
 20
30.8092573885
 11
544.4282492012
 21
30.8415210777
  0
LINE
  8
0
 62
7
  6
CONTINUOUS
 10
534.3688739531
 20
30.8092573885
 11
534.7735614807
 21
30.8415210777
  0
LINE
  8
0
 62
7
  6
CONTINUOUS
 10
534.7157489531
 20
30.9705758432
 11
534.3110615082
 21
30.9383121455
  0
LINE
  8
0
 62
7
  6
CONTINUOUS
 10
538.5891864807
 20
31.3577401029
 11
539.2251242012
 21
31.3577401029
  0
LINE
  8
0
 62
7
  6
CONTINUOUS
 10
539.2251242012
 20
31.4867948937
 11
538.5891864807
 21
31.4867948937
  0
LINE
  8
0
 62
7
  6
CONTINUOUS
 10
534.9469989807
 20
31.5190585802
 11
535.2360615358
 21
31.5190585802
  0
LINE
  8
0
 62
7
  6
CONTINUOUS
 10
537.7798115909
 20
31.583585953
 11
538.0688739807
 21
31.583585953
  0
LINE
  8
0
 62
7
  6
CONTINUOUS
 10
544.4860614807
 20
31.583585953
 11
544.7751235396
 21
31.583585953
  0
LINE
  8
0
 62
7
  6
CONTINUOUS
 10
538.4735615909
 20
31.7126406987
 11
538.8204365909
 21
31.7126406987
  0
LINE
  8
0
 62
7
  6
CONTINUOUS
 10
543.6188739807
 20
31.7126406987
 11
543.9657489807
 21
31.7126406987
  0
LINE
  8
0
 62
7
  6
CONTINUOUS
 10
543.9657489807
 20
31.8416954444
 11
543.6188739807
 21
31.8416954444
  0
LINE
  8
0
 62
7
  6
CONTINUOUS
 10
541.8844989807
 20
31.8416954444
 11
541.6532492012
 21
31.8416954444
  0
LINE
  8
0
 62
7
  6
CONTINUOUS
 10
541.1329367012
 20
31.8416954444
 11
540.8438739807
 21
31.8416954444
  0
LINE
  8
0
 62
7
  6
CONTINUOUS
 10
540.3813737601
 20
31.8416954444
 11
540.0923117012
 21
31.8416954444
  0
LINE
  8
0
 62
7
  6
CONTINUOUS
 10
538.8204365909
 20
31.8416954444
 11
538.4735615909
 21
31.8416954444
  0
LINE
  8
0
 62
7
  6
CONTINUOUS
 10
536.7391865909
 20
31.8416954444
 11
536.5079364807
 21
31.8416954444
  0
LINE
  8
0
 62
7
  6
CONTINUOUS
 10
540.0923117012
 20
32.164332399
 11
540.3813737601
 21
32.164332399
  0
LINE
  8
0
 62
7
  6
CONTINUOUS
 10
540.3813737601
 20
32.3256508311
 11
540.0923117012
 21
32.3256508311
  0
LINE
  8
0
 62
7
  6
CONTINUOUS
 10
535.9876239807
 20
32.3256508311
 11
535.6985614255
 21
32.3256508311
  0
LINE
  8
0
 62
7
  6
CONTINUOUS
 10
535.025405743
 20
32.612536077
 11
535.4379770916
 21
32.612536077
  0
LINE
  8
0
 62
7
  6
CONTINUOUS
 10
536.6647500053
 20
32.612536077
 11
538.0581926282
 21
32.612536077
  0
LINE
  8
0
 62
7
  6
CONTINUOUS
 10
538.3860614807
 20
32.612536077
 11
539.7795041036
 21
32.612536077
  0
LINE
  8
0
 62
7
  6
CONTINUOUS
 10
541.6647500053
 20
32.612536077
 11
543.0581926282
 21
32.612536077
  0
LINE
  8
0
 62
7
  6
CONTINUOUS
 10
543.3860614807
 20
32.612536077
 11
544.7795041036
 21
32.612536077
  0
LINE
  8
0
 62
7
  6
CONTINUOUS
 10
541.4219987601
 20
31.809431758
 11
541.2485612601
 21
31.7449043851
  0
LINE
  8
0
 62
7
  6
CONTINUOUS
 10
538.9938737601
 20
30.8415210777
 11
539.1673112601
 21
30.9060484591
  0
LINE
  8
0
 62
7
  6
CONTINUOUS
 10
544.4282492012
 20
30.8415210777
 11
544.6594989807
 21
30.9060484591
  0
LINE
  8
0
 62
7
  6
CONTINUOUS
 10
544.4282492012
 20
31.0028395296
 11
544.3126239807
 21
30.9705758432
  0
LINE
  8
0
 62
7
  6
CONTINUOUS
 10
543.3876242012
 20
31.6803770123
 11
543.6188739807
 21
31.7126406987
  0
LINE
  8
0
 62
7
  6
CONTINUOUS
 10
541.4219987601
 20
31.6803770123
 11
541.6532492012
 21
31.7126406987
  0
LINE
  8
0
 62
7
  6
CONTINUOUS
 10
538.3579363704
 20
31.3254764164
 11
538.5891864807
 21
31.3577401029
  0
LINE
  8
0
 62
7
  6
CONTINUOUS
 10
541.6532492012
 20
31.8416954444
 11
541.4219987601
 21
31.809431758
  0
LINE
  8
0
 62
7
  6
CONTINUOUS
 10
538.2423114807
 20
31.6803770123
 11
538.4735615909
 21
31.7126406987
  0
LINE
  8
0
 62
7
  6
CONTINUOUS
 10
543.6188739807
 20
31.8416954444
 11
543.2719989807
 21
31.809431758
  0
LINE
  8
0
 62
7
  6
CONTINUOUS
 10
538.5891864807
 20
31.4867948937
 11
538.2423114807
 21
31.4545312073
  0
LINE
  8
0
 62
7
  6
CONTINUOUS
 10
534.3688739531
 20
31.8416954444
 11
534.0219989944
 21
31.809431758
  0
LINE
  8
0
 62
7
  6
CONTINUOUS
 10
538.4735615909
 20
31.8416954444
 11
538.0688739807
 21
31.809431758
  0
LINE
  8
0
 62
7
  6
CONTINUOUS
 10
535.8450778741
 20
33.7600770606
 11
535.1893401692
 21
33.7600770606
  0
LINE
  8
0
 62
7
  6
CONTINUOUS
 10
541.2485612601
 20
31.6158496394
 11
541.4219987601
 21
31.6803770123
  0
LINE
  8
0
 62
7
  6
CONTINUOUS
 10
543.2719989807
 20
31.6481133259
 11
543.3876242012
 21
31.6803770123
  0
LINE
  8
0
 62
7
  6
CONTINUOUS
 10
543.2719989807
 20
31.809431758
 11
543.0407492012
 21
31.7449043851
  0
LINE
  8
0
 62
7
  6
CONTINUOUS
 10
538.9938737601
 20
31.0028395296
 11
538.7048113704
 21
30.9383121455
  0
LINE
  8
0
 62
7
  6
CONTINUOUS
 10
536.2766863704
 20
31.6803770123
 11
536.5079364807
 21
31.7126406987
  0
LINE
  8
0
 62
7
  6
CONTINUOUS
 10
536.5079364807
 20
31.8416954444
 11
536.2766863704
 21
31.809431758
  0
LINE
  8
0
 62
7
  6
CONTINUOUS
 10
534.0798114807
 20
31.6803770123
 11
534.3110615082
 21
31.7126406987
  0
LINE
  8
0
 62
7
  6
CONTINUOUS
 10
540.5991762348
 20
35.2354868967
 11
541.2549139397
 21
35.2354868967
  0
LINE
  8
0
 62
7
  6
CONTINUOUS
 10
538.2423114807
 20
31.29321273
 11
538.3579363704
 21
31.3254764164
  0
LINE
  8
0
 62
7
  6
CONTINUOUS
 10
538.2423114807
 20
31.4545312073
 11
538.0110613704
 21
31.3900038345
  0
LINE
  8
0
 62
7
  6
CONTINUOUS
 10
538.1266865909
 20
31.6481133259
 11
538.2423114807
 21
31.6803770123
  0
LINE
  8
0
 62
7
  6
CONTINUOUS
 10
534.7735614807
 20
30.8415210777
 11
535.0048114255
 21
30.9060484591
  0
LINE
  8
0
 62
7
  6
CONTINUOUS
 10
538.0688739807
 20
31.809431758
 11
537.9532490909
 21
31.7771680715
  0
LINE
  8
0
 62
7
  6
CONTINUOUS
 10
534.0219989944
 20
31.809431758
 11
533.8485614944
 21
31.7771680715
  0
LINE
  8
0
 62
7
  6
CONTINUOUS
 10
544.7795041036
 20
36.3830278803
 11
543.3860614807
 21
36.3830278803
  0
LINE
  8
0
 62
7
  6
CONTINUOUS
 10
541.4188483659
 20
36.3830278803
 11
541.0062770173
 21
36.3830278803
  0
LINE
  8
0
 62
7
  6
CONTINUOUS
 10
539.7795041036
 20
36.3830278803
 11
538.3860614807
 21
36.3830278803
  0
LINE
  8
0
 62
7
  6
CONTINUOUS
 10
538.0581926282
 20
36.3830278803
 11
536.6647500053
 21
36.3830278803
  0
LINE
  8
0
 62
7
  6
CONTINUOUS
 10
534.7795041036
 20
36.3830278803
 11
533.3860614807
 21
36.3830278803
  0
LINE
  8
0
 62
7
  6
CONTINUOUS
 10
533.9641864669
 20
31.6481133259
 11
534.0798114807
 21
31.6803770123
  0
CIRCLE
  8
0
 62
7
  6
CONTINUOUS
 10
544.0827827921
 20
38.7190934541
 40
2.0901639344
  0
ARC
  8
0
 62
7
  6
CONTINUOUS
 10
535.025405743
 20
34.2518803393
 40
1.6393442623
 50
180.0
 51
270.0
  0
ARC
  8
0
 62
7
  6
CONTINUOUS
 10
541.4188483659
 20
34.743683618
 40
1.6393442623
 50
0.0
 51
90.0
  0
ARC
  8
0
 62
7
  6
CONTINUOUS
 10
535.4379770916
 20
34.0879459131
 40
1.4754098361
 50
270.0
 51
326.2510114041
  0
ARC
  8
0
 62
7
  6
CONTINUOUS
 10
541.0062770173
 20
34.9076180442
 40
1.4754098361
 50
90.0
 51
146.2510114041
  0
ARC
  8
0
 62
7
  6
CONTINUOUS
 10
535.8450778741
 20
34.5797491918
 40
0.8196721311
 50
270.0
 51
360.0
  0
ARC
  8
0
 62
7
  6
CONTINUOUS
 10
540.5991762348
 20
34.4158147655
 40
0.8196721311
 50
90.0
 51
180.0
  0
ARC
  8
0
 62
7
  6
CONTINUOUS
 10
535.1893401692
 20
34.1699131262
 40
0.4098360656
 50
180.0
 51
270.0
  0
ARC
  8
0
 62
7
  6
CONTINUOUS
 10
541.2549139397
 20
34.8256508311
 40
0.4098360656
 50
0.0
 51
90.0
  0
SOLID
  8
0
 62
7
  6
CONTINUOUS
 10
540.0923117012
 20
32.1643327593
 11
540.0923117012
 21
32.3256512429
 12
540.3813737601
 22
32.1643327593
 13
540.3813737601
 23
32.3256512429
  0
SOLID
  8
0
 62
7
  6
CONTINUOUS
 10
534.3688739531
 20
31.841695792
 11
534.7735614807
 21
31.8094316148
 12
534.0219989944
 22
31.8094316148
 13
534.0219989944
 23
31.8094316148
  0
SOLID
  8
0
 62
7
  6
CONTINUOUS
 10
533.8485614944
 20
31.7771687019
 11
534.0219989944
 21
31.8094316148
 12
534.7735614807
 22
31.8094316148
 13
534.7735614807
 23
31.8094316148
  0
SOLID
  8
0
 62
7
  6
CONTINUOUS
 10
534.7735614807
 20
31.8094316148
 11
535.0048114255
 21
31.7449043986
 12
533.8485614944
 22
31.7771687019
 13
533.8485614944
 23
31.7771687019
  0
SOLID
  8
0
 62
7
  6
CONTINUOUS
 10
533.6751239738
 20
31.712640202
 11
533.8485614944
 21
31.7771687019
 12
535.0048114255
 22
31.7449043986
 13
535.0048114255
 23
31.7449043986
  0
SOLID
  8
0
 62
7
  6
CONTINUOUS
 10
533.6751239738
 20
31.712640202
 11
535.0048114255
 21
31.7449043986
 12
534.3110615082
 22
31.712640202
 13
534.3110615082
 23
31.712640202
  0
SOLID
  8
0
 62
7
  6
CONTINUOUS
 10
534.3110615082
 20
31.712640202
 11
535.0048114255
 21
31.7449043986
 12
534.7157489531
 22
31.6803773084
 13
534.7157489531
 23
31.6803773084
  0
SOLID
  8
0
 62
7
  6
CONTINUOUS
 10
535.0048114255
 20
31.7449043986
 11
535.1782489255
 21
31.6481130052
 12
534.7157489531
 22
31.6803773084
 13
534.7157489531
 23
31.6803773084
  0
SOLID
  8
0
 62
7
  6
CONTINUOUS
 10
534.8891865358
 20
31.6158502183
 11
534.7157489531
 21
31.6803773084
 12
535.1782489255
 22
31.6481130052
 13
535.1782489255
 23
31.6481130052
  0
SOLID
  8
0
 62
7
  6
CONTINUOUS
 10
534.8891865358
 20
31.6158502183
 11
535.1782489255
 21
31.6481130052
 12
534.9469989807
 22
31.5190586669
 13
534.9469989807
 23
31.5190586669
  0
SOLID
  8
0
 62
7
  6
CONTINUOUS
 10
535.1782489255
 20
31.6481130052
 11
535.2360615358
 21
31.5190586669
 12
534.9469989807
 22
31.5190586669
 13
534.9469989807
 23
31.5190586669
  0
SOLID
  8
0
 62
7
  6
CONTINUOUS
 10
536.2766863704
 20
31.8094307377
 11
536.5079364807
 21
31.841695041
 12
536.7391865909
 22
31.841695041
 13
536.7391865909
 23
31.841695041
  0
SOLID
  8
0
 62
7
  6
CONTINUOUS
 10
536.7391865909
 20
31.841695041
 11
536.9126240909
 21
31.8094307377
 12
536.2766863704
 22
31.8094307377
 13
536.2766863704
 23
31.8094307377
  0
SOLID
  8
0
 62
7
  6
CONTINUOUS
 10
536.1032490358
 20
31.7449036475
 11
536.2766863704
 21
31.8094307377
 12
536.9126240909
 22
31.8094307377
 13
536.9126240909
 23
31.8094307377
  0
SOLID
  8
0
 62
7
  6
CONTINUOUS
 10
536.9126240909
 20
31.8094307377
 11
537.0860615909
 21
31.7449036475
 12
536.1032490358
 22
31.7449036475
 13
536.1032490358
 23
31.7449036475
  0
SOLID
  8
0
 62
7
  6
CONTINUOUS
 10
537.0860615909
 20
31.7449036475
 11
536.5079364807
 21
31.7126400953
 12
536.1032490358
 22
31.7449036475
 13
536.1032490358
 23
31.7449036475
  0
SOLID
  8
0
 62
7
  6
CONTINUOUS
 10
535.9876239807
 20
31.6803765574
 11
536.1032490358
 21
31.7449036475
 12
536.5079364807
 22
31.7126400953
 13
536.5079364807
 23
31.7126400953
  0
SOLID
  8
0
 62
7
  6
CONTINUOUS
 10
536.5079364807
 20
31.7126400953
 11
536.2766863704
 21
31.6803765574
 12
535.9876239807
 22
31.6803765574
 13
535.9876239807
 23
31.6803765574
  0
SOLID
  8
0
 62
7
  6
CONTINUOUS
 10
536.5079364807
 20
31.7126400953
 11
537.0860615909
 21
31.7449036475
 12
536.7391865909
 22
31.6803765574
 13
536.7391865909
 23
31.6803765574
  0
SOLID
  8
0
 62
7
  6
CONTINUOUS
 10
537.0860615909
 20
31.7449036475
 11
537.2016864807
 21
31.6803765574
 12
536.7391865909
 22
31.6803765574
 13
536.7391865909
 23
31.6803765574
  0
SOLID
  8
0
 62
7
  6
CONTINUOUS
 10
536.8548114807
 20
31.6481130052
 11
536.7391865909
 21
31.6803765574
 12
537.2016864807
 22
31.6803765574
 13
537.2016864807
 23
31.6803765574
  0
SOLID
  8
0
 62
7
  6
CONTINUOUS
 10
537.2016864807
 20
31.6803765574
 11
537.2594990909
 21
31.6158494672
 12
536.8548114807
 22
31.6481130052
 13
536.8548114807
 23
31.6481130052
  0
SOLID
  8
0
 62
7
  6
CONTINUOUS
 10
536.9704363704
 20
31.583585915
 11
536.8548114807
 21
31.6481130052
 12
537.2594990909
 22
31.6158494672
 13
537.2594990909
 23
31.6158494672
  0
SOLID
  8
0
 62
7
  6
CONTINUOUS
 10
536.9704363704
 20
31.583585915
 11
537.2594990909
 21
31.6158494672
 12
537.0282489807
 22
31.4545309836
 13
537.0282489807
 23
31.4545309836
  0
SOLID
  8
0
 62
7
  6
CONTINUOUS
 10
537.2594990909
 20
31.6158494672
 11
537.3173113704
 21
31.4545309836
 12
537.0282489807
 22
31.4545309836
 13
537.0282489807
 23
31.4545309836
  0
SOLID
  8
0
 62
7
  6
CONTINUOUS
 10
536.2766863704
 20
31.6803765574
 11
536.1032490358
 21
31.6158494672
 12
535.9876239807
 22
31.6803765574
 13
535.9876239807
 23
31.6803765574
  0
SOLID
  8
0
 62
7
  6
CONTINUOUS
 10
536.1032490358
 20
31.6158494672
 11
535.9876239807
 21
31.5513216117
 12
535.9876239807
 22
31.6803765574
 13
535.9876239807
 23
31.6803765574
  0
SOLID
  8
0
 62
7
  6
CONTINUOUS
 10
535.9876239807
 20
31.5513216117
 11
535.6985614255
 21
30.8092570492
 12
535.9876239807
 22
31.6803765574
 13
535.9876239807
 23
31.6803765574
  0
SOLID
  8
0
 62
7
  6
CONTINUOUS
 10
535.9876239807
 20
31.6803765574
 11
535.6985614255
 21
30.8092570492
 12
535.9876239807
 22
32.3256504918
 13
535.9876239807
 23
32.3256504918
  0
SOLID
  8
0
 62
7
  6
CONTINUOUS
 10
535.6985614255
 20
30.8092570492
 11
535.6985614255
 21
32.3256504918
 12
535.9876239807
 22
32.3256504918
 13
535.9876239807
 23
32.3256504918
  0
SOLID
  8
0
 62
7
  6
CONTINUOUS
 10
535.9876239807
 20
31.5513216117
 11
535.9876239807
 21
30.8092570492
 12
535.6985614255
 22
30.8092570492
 13
535.6985614255
 23
30.8092570492
  0
SOLID
  8
0
 62
7
  6
CONTINUOUS
 10
537.0282489807
 20
30.8092570492
 11
537.0282489807
 21
31.4545309836
 12
537.3173113704
 22
31.4545309836
 13
537.3173113704
 23
31.4545309836
  0
SOLID
  8
0
 62
7
  6
CONTINUOUS
 10
537.3173113704
 20
31.4545309836
 11
537.3173113704
 21
30.8092570492
 12
537.0282489807
 22
30.8092570492
 13
537.0282489807
 23
30.8092570492
  0
SOLID
  8
0
 62
7
  6
CONTINUOUS
 10
538.0688739807
 20
31.809431823
 11
538.4735615909
 21
31.8416958158
 12
538.8204365909
 22
31.8416958158
 13
538.8204365909
 23
31.8416958158
  0
SOLID
  8
0
 62
7
  6
CONTINUOUS
 10
538.8204365909
 20
31.8416958158
 11
539.1673112601
 21
31.809431823
 12
538.0688739807
 22
31.809431823
 13
538.0688739807
 23
31.809431823
  0
SOLID
  8
0
 62
7
  6
CONTINUOUS
 10
537.9532490909
 20
31.7771687019
 11
538.0688739807
 21
31.809431823
 12
539.1673112601
 22
31.809431823
 13
539.1673112601
 23
31.809431823
  0
SOLID
  8
0
 62
7
  6
CONTINUOUS
 10
539.1673112601
 20
31.809431823
 11
539.3407487601
 21
31.7449043986
 12
537.9532490909
 22
31.7771687019
 13
537.9532490909
 23
31.7771687019
  0
SOLID
  8
0
 62
7
  6
CONTINUOUS
 10
537.8376238704
 20
31.7126398448
 11
537.9532490909
 21
31.7771687019
 12
539.3407487601
 22
31.7449043986
 13
539.3407487601
 23
31.7449043986
  0
SOLID
  8
0
 62
7
  6
CONTINUOUS
 10
537.8376238704
 20
31.7126398448
 11
539.3407487601
 21
31.7449043986
 12
538.4735615909
 22
31.7126398448
 13
538.4735615909
 23
31.7126398448
  0
SOLID
  8
0
 62
7
  6
CONTINUOUS
 10
538.4735615909
 20
31.7126398448
 11
539.3407487601
 21
31.7449043986
 12
538.8204365909
 22
31.7126398448
 13
538.8204365909
 23
31.7126398448
  0
SOLID
  8
0
 62
7
  6
CONTINUOUS
 10
538.8204365909
 20
31.7126398448
 11
539.3407487601
 21
31.7449043986
 12
539.0516867012
 22
31.6803774007
 13
539.0516867012
 23
31.6803774007
  0
SOLID
  8
0
 62
7
  6
CONTINUOUS
 10
539.3407487601
 20
31.7449043986
 11
539.4563739807
 21
31.6803774007
 12
539.0516867012
 22
31.6803774007
 13
539.0516867012
 23
31.6803774007
  0
SOLID
  8
0
 62
7
  6
CONTINUOUS
 10
537.7798115909
 20
31.6481126336
 11
537.8376238704
 21
31.7126398448
 12
538.4735615909
 22
31.7126398448
 13
538.4735615909
 23
31.7126398448
  0
SOLID
  8
0
 62
7
  6
CONTINUOUS
 10
539.1673112601
 20
31.6481126336
 11
539.0516867012
 21
31.6803774007
 12
539.4563739807
 22
31.6803774007
 13
539.4563739807
 23
31.6803774007
  0
SOLID
  8
0
 62
7
  6
CONTINUOUS
 10
539.1673112601
 20
31.6481126336
 11
539.4563739807
 21
31.6803774007
 12
539.2251242012
 22
31.5835861968
 13
539.2251242012
 23
31.5835861968
  0
SOLID
  8
0
 62
7
  6
CONTINUOUS
 10
539.4563739807
 20
31.6803774007
 11
539.5141862601
 21
31.5835861968
 12
539.2251242012
 22
31.5835861968
 13
539.2251242012
 23
31.5835861968
  0
SOLID
  8
0
 62
7
  6
CONTINUOUS
 10
539.2251242012
 20
31.4867945216
 11
539.2251242012
 21
31.5835861968
 12
539.5141862601
 22
31.5835861968
 13
539.5141862601
 23
31.5835861968
  0
SOLID
  8
0
 62
7
  6
CONTINUOUS
 10
539.2251242012
 20
31.4867945216
 11
539.5141862601
 21
31.5835861968
 12
539.2251242012
 22
31.3577403412
 13
539.2251242012
 23
31.3577403412
  0
SOLID
  8
0
 62
7
  6
CONTINUOUS
 10
539.2251242012
 20
31.3577403412
 11
539.5141862601
 21
31.5835861968
 12
539.2251242012
 22
31.1641579843
 13
539.2251242012
 23
31.1641579843
  0
SOLID
  8
0
 62
7
  6
CONTINUOUS
 10
539.5141862601
 20
31.5835861968
 11
539.5141862601
 21
31.0673661609
 12
539.2251242012
 22
31.1641579843
 13
539.2251242012
 23
31.1641579843
  0
SOLID
  8
0
 62
7
  6
CONTINUOUS
 10
541.4219987601
 20
31.8094310465
 11
541.6532492012
 21
31.8416957661
 12
541.8844989807
 22
31.8416957661
 13
541.8844989807
 23
31.8416957661
  0
SOLID
  8
0
 62
7
  6
CONTINUOUS
 10
541.8844989807
 20
31.8416957661
 11
542.0579364807
 21
31.8094310465
 12
541.4219987601
 22
31.8094310465
 13
541.4219987601
 23
31.8094310465
  0
SOLID
  8
0
 62
7
  6
CONTINUOUS
 10
541.2485612601
 20
31.7449047044
 11
541.4219987601
 21
31.8094310465
 12
542.0579364807
 22
31.8094310465
 13
542.0579364807
 23
31.8094310465
  0
SOLID
  8
0
 62
7
  6
CONTINUOUS
 10
542.0579364807
 20
31.8094310465
 11
542.2313739807
 21
31.7449047044
 12
541.2485612601
 22
31.7449047044
 13
541.2485612601
 23
31.7449047044
  0
SOLID
  8
0
 62
7
  6
CONTINUOUS
 10
542.2313739807
 20
31.7449047044
 11
541.6532492012
 21
31.7126400953
 12
541.2485612601
 22
31.7449047044
 13
541.2485612601
 23
31.7449047044
  0
SOLID
  8
0
 62
7
  6
CONTINUOUS
 10
541.1329367012
 20
31.6803773299
 11
541.2485612601
 21
31.7449047044
 12
541.6532492012
 22
31.7126400953
 13
541.6532492012
 23
31.7126400953
  0
SOLID
  8
0
 62
7
  6
CONTINUOUS
 10
541.6532492012
 20
31.7126400953
 11
541.4219987601
 21
31.6803773299
 12
541.1329367012
 22
31.6803773299
 13
541.1329367012
 23
31.6803773299
  0
SOLID
  8
0
 62
7
  6
CONTINUOUS
 10
541.6532492012
 20
31.7126400953
 11
542.2313739807
 21
31.7449047044
 12
541.8844989807
 22
31.6803773299
 13
541.8844989807
 23
31.6803773299
  0
SOLID
  8
0
 62
7
  6
CONTINUOUS
 10
542.2313739807
 20
31.7449047044
 11
542.3469992012
 21
31.6803773299
 12
541.8844989807
 22
31.6803773299
 13
541.8844989807
 23
31.6803773299
  0
SOLID
  8
0
 62
7
  6
CONTINUOUS
 10
542.0001242012
 20
31.6481130052
 11
541.8844989807
 21
31.6803773299
 12
542.3469992012
 22
31.6803773299
 13
542.3469992012
 23
31.6803773299
  0
SOLID
  8
0
 62
7
  6
CONTINUOUS
 10
542.0001242012
 20
31.6481130052
 11
542.3469992012
 21
31.6803773299
 12
542.1157487601
 22
31.5835862682
 13
542.1157487601
 23
31.5835862682
  0
SOLID
  8
0
 62
7
  6
CONTINUOUS
 10
542.3469992012
 20
31.6803773299
 11
542.4048114807
 21
31.5835862682
 12
542.1157487601
 22
31.5835862682
 13
542.1157487601
 23
31.5835862682
  0
SOLID
  8
0
 62
7
  6
CONTINUOUS
 10
542.1735617012
 20
31.422267832
 11
542.1157487601
 21
31.5835862682
 12
542.4048114807
 22
31.5835862682
 13
542.4048114807
 23
31.5835862682
  0
SOLID
  8
0
 62
7
  6
CONTINUOUS
 10
542.4048114807
 20
31.5835862682
 11
542.4626237601
 21
31.422267832
 12
542.1735617012
 22
31.422267832
 13
542.1735617012
 23
31.422267832
  0
SOLID
  8
0
 62
7
  6
CONTINUOUS
 10
541.4219987601
 20
31.6803773299
 11
541.2485612601
 21
31.6158502183
 12
541.1329367012
 22
31.6803773299
 13
541.1329367012
 23
31.6803773299
  0
SOLID
  8
0
 62
7
  6
CONTINUOUS
 10
541.2485612601
 20
31.6158502183
 11
541.1329367012
 21
31.5513216117
 12
541.1329367012
 22
31.6803773299
 13
541.1329367012
 23
31.6803773299
  0
SOLID
  8
0
 62
7
  6
CONTINUOUS
 10
541.1329367012
 20
31.5513216117
 11
540.8438739807
 21
30.8092577743
 12
541.1329367012
 22
31.6803773299
 13
541.1329367012
 23
31.6803773299
  0
SOLID
  8
0
 62
7
  6
CONTINUOUS
 10
541.1329367012
 20
31.6803773299
 11
540.8438739807
 21
30.8092577743
 12
541.1329367012
 22
31.8416957661
 13
541.1329367012
 23
31.8416957661
  0
SOLID
  8
0
 62
7
  6
CONTINUOUS
 10
540.8438739807
 20
30.8092577743
 11
540.8438739807
 21
31.8416957661
 12
541.1329367012
 22
31.8416957661
 13
541.1329367012
 23
31.8416957661
  0
SOLID
  8
0
 62
7
  6
CONTINUOUS
 10
541.1329367012
 20
31.5513216117
 11
541.1329367012
 21
30.8092577743
 12
540.8438739807
 22
30.8092577743
 13
540.8438739807
 23
30.8092577743
  0
SOLID
  8
0
 62
7
  6
CONTINUOUS
 10
542.1735617012
 20
30.8092577743
 11
542.1735617012
 21
31.422267832
 12
542.4626237601
 22
31.422267832
 13
542.4626237601
 23
31.422267832
  0
SOLID
  8
0
 62
7
  6
CONTINUOUS
 10
542.4626237601
 20
31.422267832
 11
542.4626237601
 21
30.8092577743
 12
542.1735617012
 22
30.8092577743
 13
542.1735617012
 23
30.8092577743
  0
SOLID
  8
0
 62
7
  6
CONTINUOUS
 10
543.2719989807
 20
31.8094314924
 11
543.6188739807
 21
31.8416958387
 12
543.9657489807
 22
31.8416958387
 13
543.9657489807
 23
31.8416958387
  0
SOLID
  8
0
 62
7
  6
CONTINUOUS
 10
543.9657489807
 20
31.8416958387
 11
544.3126239807
 21
31.8094314924
 12
543.2719989807
 22
31.8094314924
 13
543.2719989807
 23
31.8094314924
  0
SOLID
  8
0
 62
7
  6
CONTINUOUS
 10
543.0407492012
 20
31.7449043986
 11
543.2719989807
 21
31.8094314924
 12
544.3126239807
 22
31.8094314924
 13
544.3126239807
 23
31.8094314924
  0
SOLID
  8
0
 62
7
  6
CONTINUOUS
 10
543.0407492012
 20
31.7449043986
 11
544.3126239807
 21
31.8094314888
 12
544.4860614807
 22
31.7771687019
 13
544.4860614807
 23
31.7771687019
  0
SOLID
  8
0
 62
7
  6
CONTINUOUS
 10
543.0407492012
 20
31.7449043986
 11
544.4860614807
 21
31.7771687019
 12
543.6188739807
 22
31.7126401399
 13
543.6188739807
 23
31.7126401399
  0
SOLID
  8
0
 62
7
  6
CONTINUOUS
 10
543.6188739807
 20
31.7126401399
 11
544.4860614807
 21
31.7771687019
 12
543.9657489807
 22
31.7126401399
 13
543.9657489807
 23
31.7126401399
  0
SOLID
  8
0
 62
7
  6
CONTINUOUS
 10
544.4860614807
 20
31.7771687019
 11
544.6594989807
 21
31.7126401399
 12
543.9657489807
 22
31.7126401399
 13
543.9657489807
 23
31.7126401399
  0
SOLID
  8
0
 62
7
  6
CONTINUOUS
 10
544.3126239807
 20
31.6803773084
 11
543.9657489807
 21
31.7126401399
 12
544.6594989807
 22
31.7126401399
 13
544.6594989807
 23
31.7126401399
  0
SOLID
  8
0
 62
7
  6
CONTINUOUS
 10
542.9251239807
 20
31.6481128977
 11
543.0407492012
 21
31.7449043986
 12
543.6188739807
 22
31.7126401399
 13
543.6188739807
 23
31.7126401399
  0
SOLID
  8
0
 62
7
  6
CONTINUOUS
 10
544.3126239807
 20
31.6803773084
 11
544.6594989807
 21
31.7126401399
 12
544.4282492012
 22
31.6481128977
 13
544.4282492012
 23
31.6481128977
  0
SOLID
  8
0
 62
7
  6
CONTINUOUS
 10
544.4282492012
 20
31.6481128977
 11
544.6594989807
 21
31.7126401399
 12
544.4860614807
 22
31.5835858812
 13
544.4860614807
 23
31.5835858812
  0
SOLID
  8
0
 62
7
  6
CONTINUOUS
 10
544.6594989807
 20
31.7126401399
 11
544.7751235396
 21
31.5835858812
 12
544.4860614807
 22
31.5835858812
 13
544.4860614807
 23
31.5835858812
  0
SOLID
  8
0
 62
7
  6
CONTINUOUS
 10
534.0798114807
 20
31.6803773084
 11
533.5594989807
 21
31.6481129264
 12
534.3110615082
 22
31.7126401456
 13
534.3110615082
 23
31.7126401456
  0
SOLID
  8
0
 62
7
  6
CONTINUOUS
 10
533.5594989807
 20
31.6481129264
 11
533.6751239738
 21
31.7126401456
 12
534.3110615082
 22
31.7126401456
 13
534.3110615082
 23
31.7126401456
  0
SOLID
  8
0
 62
7
  6
CONTINUOUS
 10
534.0798114807
 20
31.6803773084
 11
533.9641864669
 21
31.6481129264
 12
533.5594989807
 22
31.6481129264
 13
533.5594989807
 23
31.6481129264
  0
SOLID
  8
0
 62
7
  6
CONTINUOUS
 10
533.4438739824
 20
31.5190588248
 11
533.5594989807
 21
31.6481129264
 12
533.9641864669
 22
31.6481129264
 13
533.9641864669
 23
31.6481129264
  0
SOLID
  8
0
 62
7
  6
CONTINUOUS
 10
537.7798115909
 20
31.6481130555
 11
538.4735615909
 21
31.7126400953
 12
538.2423114807
 22
31.6803773084
 13
538.2423114807
 23
31.6803773084
  0
SOLID
  8
0
 62
7
  6
CONTINUOUS
 10
538.2423114807
 20
31.6803773084
 11
538.1266865909
 21
31.6481130555
 12
537.7798115909
 22
31.6481130555
 13
537.7798115909
 23
31.6481130555
  0
SOLID
  8
0
 62
7
  6
CONTINUOUS
 10
537.7798115909
 20
31.5835859653
 11
537.7798115909
 21
31.6481130555
 12
538.1266865909
 22
31.6481130555
 13
538.1266865909
 23
31.6481130555
  0
SOLID
  8
0
 62
7
  6
CONTINUOUS
 10
538.1266865909
 20
31.6481130555
 11
538.0688739807
 21
31.5835859653
 12
537.7798115909
 22
31.5835859653
 13
537.7798115909
 23
31.5835859653
  0
SOLID
  8
0
 62
7
  6
CONTINUOUS
 10
542.9251239807
 20
31.6481130555
 11
543.6188739807
 21
31.7126400953
 12
543.3876242012
 22
31.6803773084
 13
543.3876242012
 23
31.6803773084
  0
SOLID
  8
0
 62
7
  6
CONTINUOUS
 10
543.3876242012
 20
31.6803773084
 11
543.2719989807
 21
31.6481130555
 12
542.9251239807
 22
31.6481130555
 13
542.9251239807
 23
31.6481130555
  0
SOLID
  8
0
 62
7
  6
CONTINUOUS
 10
542.9251239807
 20
31.5835859653
 11
542.9251239807
 21
31.6481130555
 12
543.2719989807
 22
31.6481130555
 13
543.2719989807
 23
31.6481130555
  0
SOLID
  8
0
 62
7
  6
CONTINUOUS
 10
543.2719989807
 20
31.6481130555
 11
543.2141867012
 21
31.5835859653
 12
542.9251239807
 22
31.5835859653
 13
542.9251239807
 23
31.5835859653
  0
SOLID
  8
0
 62
7
  6
CONTINUOUS
 10
543.0407492012
 20
31.4545317347
 11
542.9251239807
 21
31.5835859653
 12
543.2141867012
 22
31.5835859653
 13
543.2141867012
 23
31.5835859653
  0
SOLID
  8
0
 62
7
  6
CONTINUOUS
 10
533.4438739824
 20
31.5190588248
 11
533.9641864669
 21
31.6481130052
 12
533.7907489669
 22
31.5513216117
 13
533.7907489669
 23
31.5513216117
  0
SOLID
  8
0
 62
7
  6
CONTINUOUS
 10
533.7907489669
 20
31.5513216117
 11
533.7329364807
 21
31.4867945216
 12
533.4438739824
 22
31.5190588248
 13
533.4438739824
 23
31.5190588248
  0
SOLID
  8
0
 62
7
  6
CONTINUOUS
 10
533.3860614807
 20
31.325476038
 11
533.4438739824
 21
31.5190588248
 12
533.7329364807
 22
31.4867945216
 13
533.7329364807
 23
31.4867945216
  0
SOLID
  8
0
 62
7
  6
CONTINUOUS
 10
538.2423114807
 20
31.4545317347
 11
538.5891864807
 21
31.4867945557
 12
539.2251242012
 22
31.4867945557
 13
539.2251242012
 23
31.4867945557
  0
SOLID
  8
0
 62
7
  6
CONTINUOUS
 10
538.2423114807
 20
31.4545317347
 11
539.2251242012
 21
31.4867945557
 12
538.0110613704
 22
31.3900038345
 13
538.0110613704
 23
31.3900038345
  0
SOLID
  8
0
 62
7
  6
CONTINUOUS
 10
538.0110613704
 20
31.3900038345
 11
539.2251242012
 21
31.4867945557
 12
538.5891864807
 22
31.3577403754
 13
538.5891864807
 23
31.3577403754
  0
SOLID
  8
0
 62
7
  6
CONTINUOUS
 10
539.2251242012
 20
31.4867945557
 11
539.2251242012
 21
31.3577403754
 12
538.5891864807
 22
31.3577403754
 13
538.5891864807
 23
31.3577403754
  0
SOLID
  8
0
 62
7
  6
CONTINUOUS
 10
543.0407492012
 20
31.4545313481
 11
543.2141867012
 21
31.583585915
 12
543.2719989807
 22
31.5190588248
 13
543.2719989807
 23
31.5190588248
  0
SOLID
  8
0
 62
7
  6
CONTINUOUS
 10
543.2719989807
 20
31.5190588248
 11
543.4454364807
 21
31.4545313481
 12
543.0407492012
 22
31.4545313481
 13
543.0407492012
 23
31.4545313481
  0
SOLID
  8
0
 62
7
  6
CONTINUOUS
 10
543.2719989807
 20
31.3577403412
 11
543.0407492012
 21
31.4545313481
 12
543.4454364807
 22
31.4545313481
 13
543.4454364807
 23
31.4545313481
  0
SOLID
  8
0
 62
7
  6
CONTINUOUS
 10
543.4454364807
 20
31.4545313481
 11
544.4282492012
 21
31.2932132511
 12
543.2719989807
 22
31.3577403412
 13
543.2719989807
 23
31.3577403412
  0
SOLID
  8
0
 62
7
  6
CONTINUOUS
 10
544.2548117012
 20
31.1964222346
 11
543.2719989807
 21
31.3577403412
 12
544.4282492012
 22
31.2932132511
 13
544.4282492012
 23
31.2932132511
  0
SOLID
  8
0
 62
7
  6
CONTINUOUS
 10
544.4282492012
 20
31.2932132511
 11
544.6594989807
 21
31.1964222346
 12
544.2548117012
 22
31.1964222346
 13
544.2548117012
 23
31.1964222346
  0
SOLID
  8
0
 62
7
  6
CONTINUOUS
 10
544.4282492012
 20
31.1318947675
 11
544.2548117012
 21
31.1964222346
 12
544.6594989807
 22
31.1964222346
 13
544.6594989807
 23
31.1964222346
  0
SOLID
  8
0
 62
7
  6
CONTINUOUS
 10
544.4282492012
 20
31.1318947675
 11
544.6594989807
 21
31.1964222346
 12
544.4860614807
 22
31.0673665164
 13
544.4860614807
 23
31.0673665164
  0
SOLID
  8
0
 62
7
  6
CONTINUOUS
 10
544.6594989807
 20
31.1964222346
 11
544.7751235396
 21
31.0673665164
 12
544.4860614807
 22
31.0673665164
 13
544.4860614807
 23
31.0673665164
  0
SOLID
  8
0
 62
7
  6
CONTINUOUS
 10
544.4282492012
 20
31.0028394316
 11
544.4860614807
 21
31.0673665164
 12
544.7751235396
 22
31.0673665164
 13
544.7751235396
 23
31.0673665164
  0
SOLID
  8
0
 62
7
  6
CONTINUOUS
 10
544.7751235396
 20
31.0673665164
 11
544.7751235396
 21
31.0028394316
 12
544.4282492012
 22
31.0028394316
 13
544.4282492012
 23
31.0028394316
  0
SOLID
  8
0
 62
7
  6
CONTINUOUS
 10
544.3126239807
 20
30.9705762839
 11
544.4282492012
 21
31.0028394316
 12
544.7751235396
 22
31.0028394316
 13
544.7751235396
 23
31.0028394316
  0
SOLID
  8
0
 62
7
  6
CONTINUOUS
 10
544.3126239807
 20
30.9705762839
 11
544.7751235396
 21
31.0028394316
 12
544.0813742012
 22
30.9383123468
 13
544.0813742012
 23
30.9383123468
  0
SOLID
  8
0
 62
7
  6
CONTINUOUS
 10
544.7751235396
 20
31.0028394316
 11
544.6594989807
 21
30.9060491937
 12
544.0813742012
 22
30.9383123468
 13
544.0813742012
 23
30.9383123468
  0
SOLID
  8
0
 62
7
  6
CONTINUOUS
 10
544.6594989807
 20
30.9060491937
 11
543.2141867012
 21
30.8737848904
 12
544.0813742012
 22
30.9383123468
 13
544.0813742012
 23
30.9383123468
  0
SOLID
  8
0
 62
7
  6
CONTINUOUS
 10
544.0813742012
 20
30.9383123468
 11
543.2141867012
 21
30.8737848904
 12
543.7344992012
 22
30.9383123468
 13
543.7344992012
 23
30.9383123468
  0
SOLID
  8
0
 62
7
  6
CONTINUOUS
 10
543.2141867012
 20
30.8737848904
 11
543.0407492012
 21
30.9383123468
 12
543.7344992012
 22
30.9383123468
 13
543.7344992012
 23
30.9383123468
  0
SOLID
  8
0
 62
7
  6
CONTINUOUS
 10
543.2141867012
 20
30.8737848904
 11
544.6594989807
 21
30.9060491937
 12
543.3876242012
 22
30.8415205581
 13
543.3876242012
 23
30.8415205581
  0
SOLID
  8
0
 62
7
  6
CONTINUOUS
 10
544.6594989807
 20
30.9060491937
 11
544.4282492012
 21
30.8415205581
 12
543.3876242012
 22
30.8415205581
 13
543.3876242012
 23
30.8415205581
  0
SOLID
  8
0
 62
7
  6
CONTINUOUS
 10
543.7344992012
 20
30.8092581772
 11
543.3876242012
 21
30.8415205581
 12
544.4282492012
 22
30.8415205581
 13
544.4282492012
 23
30.8415205581
  0
SOLID
  8
0
 62
7
  6
CONTINUOUS
 10
544.4282492012
 20
30.8415205581
 11
544.0813742012
 21
30.8092581772
 12
543.7344992012
 22
30.8092581772
 13
543.7344992012
 23
30.8092581772
  0
SOLID
  8
0
 62
7
  6
CONTINUOUS
 10
533.3860614807
 20
31.325476038
 11
533.7329364807
 21
31.4867945216
 12
533.6751239738
 22
31.3577403412
 13
533.6751239738
 23
31.3577403412
  0
SOLID
  8
0
 62
7
  6
CONTINUOUS
 10
533.6751239738
 20
31.3577403412
 11
533.6751239738
 21
31.2609490436
 12
533.3860614807
 22
31.325476038
 13
533.3860614807
 23
31.325476038
  0
SOLID
  8
0
 62
7
  6
CONTINUOUS
 10
533.4438739824
 20
31.1318947675
 11
533.3860614807
 21
31.325476038
 12
533.6751239738
 22
31.2609490436
 13
533.6751239738
 23
31.2609490436
  0
SOLID
  8
0
 62
7
  6
CONTINUOUS
 10
533.6751239738
 20
31.2609490436
 11
533.7907489669
 21
31.0996304642
 12
533.4438739824
 22
31.1318947675
 13
533.4438739824
 23
31.1318947675
  0
SOLID
  8
0
 62
7
  6
CONTINUOUS
 10
533.5594989807
 20
31.0028388804
 11
533.4438739824
 21
31.1318947675
 12
533.7907489669
 22
31.0996304642
 13
533.7907489669
 23
31.0996304642
  0
SOLID
  8
0
 62
7
  6
CONTINUOUS
 10
533.7907489669
 20
31.0996304642
 11
533.9641864669
 21
31.0028388804
 12
533.5594989807
 22
31.0028388804
 13
533.5594989807
 23
31.0028388804
  0
SOLID
  8
0
 62
7
  6
CONTINUOUS
 10
533.6751239738
 20
30.9383122606
 11
533.5594989807
 21
31.0028388804
 12
533.9641864669
 22
31.0028388804
 13
533.9641864669
 23
31.0028388804
  0
SOLID
  8
0
 62
7
  6
CONTINUOUS
 10
533.9641864669
 20
31.0028388804
 11
534.3110615082
 21
30.9383122606
 12
533.6751239738
 22
30.9383122606
 13
533.6751239738
 23
30.9383122606
  0
SOLID
  8
0
 62
7
  6
CONTINUOUS
 10
533.8485614944
 20
30.8737848904
 11
533.6751239738
 21
30.9383122606
 12
534.3110615082
 22
30.9383122606
 13
534.3110615082
 23
30.9383122606
  0
SOLID
  8
0
 62
7
  6
CONTINUOUS
 10
537.8954364807
 20
31.3254759532
 11
538.0110613704
 21
31.3900038345
 12
538.5891864807
 22
31.3577403412
 13
538.5891864807
 23
31.3577403412
  0
SOLID
  8
0
 62
7
  6
CONTINUOUS
 10
538.5891864807
 20
31.3577403412
 11
538.3579363704
 21
31.3254759532
 12
537.8954364807
 22
31.3254759532
 13
537.8954364807
 23
31.3254759532
  0
SOLID
  8
0
 62
7
  6
CONTINUOUS
 10
537.7798115909
 20
31.1964218576
 11
537.8954364807
 21
31.3254759532
 12
538.3579363704
 22
31.3254759532
 13
538.3579363704
 23
31.3254759532
  0
SOLID
  8
0
 62
7
  6
CONTINUOUS
 10
538.1266865909
 20
31.2286853572
 11
537.7798115909
 21
31.1964218576
 12
538.2423114807
 22
31.2932132511
 13
538.2423114807
 23
31.2932132511
  0
SOLID
  8
0
 62
7
  6
CONTINUOUS
 10
537.7798115909
 20
31.1964218576
 11
538.3579363704
 21
31.325476038
 12
538.2423114807
 22
31.2932132511
 13
538.2423114807
 23
31.2932132511
  0
SOLID
  8
0
 62
7
  6
CONTINUOUS
 10
538.1266865909
 20
31.2286853572
 11
538.0688739807
 21
31.1318947675
 12
537.7798115909
 22
31.1964218576
 13
537.7798115909
 23
31.1964218576
  0
SOLID
  8
0
 62
7
  6
CONTINUOUS
 10
537.7798115909
 20
31.0996304642
 11
537.7798115909
 21
31.1964218576
 12
538.0688739807
 22
31.1318947675
 13
538.0688739807
 23
31.1318947675
  0
SOLID
  8
0
 62
7
  6
CONTINUOUS
 10
538.0688739807
 20
31.1318947675
 11
538.0688739807
 21
31.0673661609
 12
537.7798115909
 22
31.0996304642
 13
537.7798115909
 23
31.0996304642
  0
SOLID
  8
0
 62
7
  6
CONTINUOUS
 10
537.8376238704
 20
30.9705762839
 11
537.7798115909
 21
31.0996304642
 12
538.0688739807
 22
31.0673661609
 13
538.0688739807
 23
31.0673661609
  0
SOLID
  8
0
 62
7
  6
CONTINUOUS
 10
539.2251242012
 20
31.1641579843
 11
539.5141862601
 21
31.0673661609
 12
539.1673112601
 22
31.0996304642
 13
539.1673112601
 23
31.0996304642
  0
SOLID
  8
0
 62
7
  6
CONTINUOUS
 10
538.9938737601
 20
31.0028390707
 11
539.1673112601
 21
31.0996304642
 12
539.5141862601
 22
31.0673661609
 13
539.5141862601
 23
31.0673661609
  0
SOLID
  8
0
 62
7
  6
CONTINUOUS
 10
538.9938737601
 20
31.0028390707
 11
539.5141862601
 21
31.0673661609
 12
539.2251242012
 22
30.9705762839
 13
539.2251242012
 23
30.9705762839
  0
SOLID
  8
0
 62
7
  6
CONTINUOUS
 10
539.5141862601
 20
31.0673661609
 11
539.5719992012
 21
30.9060491937
 12
539.2251242012
 22
30.9705762839
 13
539.2251242012
 23
30.9705762839
  0
SOLID
  8
0
 62
7
  6
CONTINUOUS
 10
539.2829364807
 20
30.8737848904
 11
539.2251242012
 21
30.9705762839
 12
539.5719992012
 22
30.9060491937
 13
539.5719992012
 23
30.9060491937
  0
SOLID
  8
0
 62
7
  6
CONTINUOUS
 10
539.2829364807
 20
30.8737848904
 11
539.5719992012
 21
30.9060491937
 12
539.3407487601
 22
30.8092576254
 13
539.3407487601
 23
30.8092576254
  0
SOLID
  8
0
 62
7
  6
CONTINUOUS
 10
539.5719992012
 20
30.9060491937
 11
539.6298114807
 21
30.8092576254
 12
539.3407487601
 22
30.8092576254
 13
539.3407487601
 23
30.8092576254
  0
SOLID
  8
0
 62
7
  6
CONTINUOUS
 10
534.8891865358
 20
31.035103216
 11
534.9469989807
 21
31.1318946289
 12
535.2360615358
 22
31.1318946289
 13
535.2360615358
 23
31.1318946289
  0
SOLID
  8
0
 62
7
  6
CONTINUOUS
 10
535.2360615358
 20
31.1318946289
 11
535.1782489255
 21
31.0028390707
 12
534.8891865358
 22
31.035103216
 13
534.8891865358
 23
31.035103216
  0
SOLID
  8
0
 62
7
  6
CONTINUOUS
 10
534.7157489531
 20
30.9705762839
 11
534.8891865358
 21
31.035103216
 12
535.1782489255
 22
31.0028390707
 13
535.1782489255
 23
31.0028390707
  0
SOLID
  8
0
 62
7
  6
CONTINUOUS
 10
534.7157489531
 20
30.9705762839
 11
535.1782489255
 21
31.0028390707
 12
534.3110615082
 22
30.9383119806
 13
534.3110615082
 23
30.9383119806
  0
SOLID
  8
0
 62
7
  6
CONTINUOUS
 10
535.1782489255
 20
31.0028390707
 11
535.0048114255
 21
30.9060491937
 12
534.3110615082
 22
30.9383119806
 13
534.3110615082
 23
30.9383119806
  0
SOLID
  8
0
 62
7
  6
CONTINUOUS
 10
533.8485614944
 20
30.8737848904
 11
534.3110615082
 21
30.9383119806
 12
535.0048114255
 22
30.9060491937
 13
535.0048114255
 23
30.9060491937
  0
SOLID
  8
0
 62
7
  6
CONTINUOUS
 10
533.8485614944
 20
30.8737848904
 11
535.0048114255
 21
30.9060491937
 12
534.0219989944
 22
30.8415207131
 13
534.0219989944
 23
30.8415207131
  0
SOLID
  8
0
 62
7
  6
CONTINUOUS
 10
535.0048114255
 20
30.9060491937
 11
534.7735614807
 21
30.8415207131
 12
534.0219989944
 22
30.8415207131
 13
534.0219989944
 23
30.8415207131
  0
SOLID
  8
0
 62
7
  6
CONTINUOUS
 10
534.3688739531
 20
30.8092578002
 11
534.0219989944
 21
30.8415207131
 12
534.7735614807
 22
30.8415207131
 13
534.7735614807
 23
30.8415207131
  0
SOLID
  8
0
 62
7
  6
CONTINUOUS
 10
537.8376238704
 20
30.9705762839
 11
538.0688739807
 21
31.0673661609
 12
538.1266865909
 22
31.0028390707
 13
538.1266865909
 23
31.0028390707
  0
SOLID
  8
0
 62
7
  6
CONTINUOUS
 10
538.1266865909
 20
31.0028390707
 11
538.3579363704
 21
30.9383119806
 12
537.8376238704
 22
30.9705762839
 13
537.8376238704
 23
30.9705762839
  0
SOLID
  8
0
 62
7
  6
CONTINUOUS
 10
538.0110613704
 20
30.8737848904
 11
537.8376238704
 21
30.9705762839
 12
538.3579363704
 22
30.9383119806
 13
538.3579363704
 23
30.9383119806
  0
SOLID
  8
0
 62
7
  6
CONTINUOUS
 10
538.7048113704
 20
30.9383119664
 11
538.9938737601
 21
31.0028390707
 12
539.2251242012
 22
30.9705762839
 13
539.2251242012
 23
30.9705762839
  0
SOLID
  8
0
 62
7
  6
CONTINUOUS
 10
539.2251242012
 20
30.9705762839
 11
539.1673112601
 21
30.9060491937
 12
538.7048113704
 22
30.9383119664
 13
538.7048113704
 23
30.9383119664
  0
SOLID
  8
0
 62
7
  6
CONTINUOUS
 10
539.1673112601
 20
30.9060491937
 11
538.0110613704
 21
30.8737848904
 12
538.7048113704
 22
30.9383119664
 13
538.7048113704
 23
30.9383119664
  0
SOLID
  8
0
 62
7
  6
CONTINUOUS
 10
538.0110613704
 20
30.8737848904
 11
538.3579363704
 21
30.9383119664
 12
538.7048113704
 22
30.9383119664
 13
538.7048113704
 23
30.9383119664
  0
SOLID
  8
0
 62
7
  6
CONTINUOUS
 10
538.0110613704
 20
30.8737848904
 11
539.1673112601
 21
30.9060491937
 12
538.1266865909
 22
30.8415205568
 13
538.1266865909
 23
30.8415205568
  0
SOLID
  8
0
 62
7
  6
CONTINUOUS
 10
539.1673112601
 20
30.9060491937
 11
538.9938737601
 21
30.8415205568
 12
538.1266865909
 22
30.8415205568
 13
538.1266865909
 23
30.8415205568
  0
SOLID
  8
0
 62
7
  6
CONTINUOUS
 10
538.3579363704
 20
30.8092577215
 11
538.1266865909
 21
30.8415205568
 12
538.9938737601
 22
30.8415205568
 13
538.9938737601
 23
30.8415205568
  0
SOLID
  8
0
 62
7
  6
CONTINUOUS
 10
538.9938737601
 20
30.8415205568
 11
538.7048113704
 21
30.8092577215
 12
538.3579363704
 22
30.8092577215
 13
538.3579363704
 23
30.8092577215
  0
SOLID
  8
0
 62
7
  6
CONTINUOUS
 10
543.3876242012
 20
30.9705762839
 11
543.0407492012
 21
30.9383119664
 12
543.2719989807
 22
31.0028390707
 13
543.2719989807
 23
31.0028390707
  0
SOLID
  8
0
 62
7
  6
CONTINUOUS
 10
543.2719989807
 20
31.0028390707
 11
543.0407492012
 21
30.9383119664
 12
543.2141867012
 22
31.0673661467
 13
543.2141867012
 23
31.0673661467
  0
SOLID
  8
0
 62
7
  6
CONTINUOUS
 10
543.0407492012
 20
30.9383119664
 11
542.9251239807
 21
31.0673661467
 12
543.2141867012
 22
31.0673661467
 13
543.2141867012
 23
31.0673661467
  0
SOLID
  8
0
 62
7
  6
CONTINUOUS
 10
543.3876242012
 20
30.9705762839
 11
543.7344992012
 21
30.9383119664
 12
543.0407492012
 22
30.9383119664
 13
543.0407492012
 23
30.9383119664
  0
SOLID
  8
0
 62
7
  6
CONTINUOUS
 10
540.0923117012
 20
30.8092578002
 11
540.0923117012
 21
31.841695792
 12
540.3813737601
 22
30.8092578002
 13
540.3813737601
 23
31.841695792
  0
ENDBLK
  8
0
  6
BYBLOCK
 62
0
  0
BLOCK
  8
0
 62
2
  6
CONTINUOUS
  2
AMMEAAL_LOGO_BL0
 70
64
 10
416.1419631151
 20
19.7009994242
  0
TEXT
  8
0
 62
7
  6
CONTINUOUS
 10
402.4066669574
 20
19.0744135318
  7
TEXTSTYLE_3
 40
2.7338706658
  1
Ammeraal Beltech
 41
1.0
 51
15.0
 72
0
  0
TEXT
  8
0
 62
7
  6
CONTINUOUS
 10
413.2074677831
 20
16.800876859
  7
TEXTSTYLE_4
 40
1.0935482663
  1
Innovation & Service in Belting
 41
1.0
 72
0
  0
LINE
  8
0
 62
7
  6
CONTINUOUS
 10
396.382126306
 20
19.8410068404
 11
397.1602782994
 21
23.5019241381
  0
LINE
  8
0
 62
7
  6
CONTINUOUS
 10
407.2554465892
 20
27.1653180497
 11
397.6480960424
 21
24.0437006284
  0
LINE
  8
0
 62
7
  6
CONTINUOUS
 10
396.6074096383
 20
19.1476560374
 11
404.1144848995
 21
12.3882551114
  0
LINE
  8
0
 62
7
  6
CONTINUOUS
 10
396.869944049
 20
20.3827833308
 11
407.6782134142
 21
23.8946029297
  0
LINE
  8
0
 62
7
  6
CONTINUOUS
 10
407.674008277
 20
13.544814366
 11
399.2285486083
 21
21.1491404077
  0
LINE
  8
0
 62
7
  6
CONTINUOUS
 10
408.1938309968
 20
26.320392934
 11
407.2172714596
 21
21.7260415315
  0
LINE
  8
0
 62
7
  6
CONTINUOUS
 10
406.5174695119
 20
18.4337322177
 11
405.8310213004
 21
15.2042472933
  0
LINE
  8
0
 62
7
  6
CONTINUOUS
 10
408.8749270954
 20
13.9350165436
 11
409.831158631
 21
18.4337322177
  0
LINE
  8
0
 62
7
  6
CONTINUOUS
 10
410.5309605787
 20
21.7260415315
 11
410.9752023811
 21
23.8160348909
  0
LINE
  8
0
 62
7
  6
CONTINUOUS
 10
404.8275859748
 20
12.2366807987
 11
408.3871093524
 21
13.3932400533
  0
LINE
  8
0
 62
7
  6
CONTINUOUS
 10
407.9685476645
 20
27.013743737
 11
410.7499190488
 21
24.5093856939
  0
ARC
  8
0
 62
7
  6
CONTINUOUS
 10
397.8733793747
 20
23.3503498254
 40
0.7290321776
 50
108.0
 51
168.0
  0
ARC
  8
0
 62
7
  6
CONTINUOUS
 10
407.4807299215
 20
26.4719672466
 40
0.7290321776
 50
348.0
 51
108.0
  0
ARC
  8
0
 62
7
  6
CONTINUOUS
 10
410.2621013058
 20
23.9676092036
 40
0.7290321776
 50
348.0
 51
48.0
  0
ARC
  8
0
 62
7
  6
CONTINUOUS
 10
404.6023026425
 20
12.9300316018
 40
0.7290321776
 50
228.0
 51
288.0
  0
ARC
  8
0
 62
7
  6
CONTINUOUS
 10
397.0952273813
 20
19.6894325277
 40
0.7290321776
 50
108.0
 51
228.0
  0
ARC
  8
0
 62
7
  6
CONTINUOUS
 10
408.1618260201
 20
14.0865908563
 40
0.7290321776
 50
228.0
 51
348.0
  0
ENDBLK
  8
0
  6
BYBLOCK
 62
0
  0
ENDSEC
  0
SECTION
  2
ENTITIES
  0
TEXT
  8
0
 62
5
  6
CONTINUOUS
 10
480.0
 20
25.636
  7
TEXTSTYLE_2
 40
2.8
  1
Scale :
 41
0.6
 51
0.000019
 72
0
  0
TEXT
  8
0
 62
5
  6
CONTINUOUS
 10
500.0
 20
25.636
  7
TEXTSTYLE_2
 40
2.8
  1
Belt type:
 41
0.6
 51
0.000019
 72
0
  0
INSERT
  8
0
 62
2
  6
CONTINUOUS
  2
AMMEAAL_LOGO_BL0
 10
416.1419631151
 20
19.7009994242
  0
INSERT
  8
0
 62
2
  6
CONTINUOUS
  2
UNI_LOGO2_BL1
 10
557.4079930916
 20
35.8092573885
  0
LINE
  8
0
 62
2
  6
CONTINUOUS
 10
394.0
 20
30.0
 11
584.0
 21
30.0
  0
LINE
  8
0
 62
2
  6
CONTINUOUS
 10
394.0
 20
30.0
 11
394.0
 21
10.0
  0
LINE
  8
0
 62
2
  6
CONTINUOUS
 10
394.0
 20
10.0
 11
584.0
 21
10.0
  0
LINE
  8
0
 62
2
  6
CONTINUOUS
 10
479.0
 20
30.0
 11
479.0
 21
10.0
  0
LINE
  8
0
 62
2
  6
CONTINUOUS
 10
499.0
 20
30.0
 11
499.0
 21
10.0
  0
LINE
  8
0
 62
2
  6
CONTINUOUS
 10
584.0
 20
30.0
 11
584.0
 21
10.0
  0
TEXT
  8
0
 62
5
  6
CONTINUOUS
 10
397.0
 20
23.303
  7
TEXTSTYLE_5
 40
1.52
  1
                                                                     Ammeraal Beltech Modular A/S
 41
1.0
 72
0
  0
TEXT
  8
0
 62
5
  6
CONTINUOUS
 10
397.0
 20
20.595
  7
TEXTSTYLE_5
 40
1.5
  1
                                                                      Hjulmagervej 21, 7100 Vejle,  DK
 41
1.0
 72
0
  0
TEXT
  8
0
 62
5
  6
CONTINUOUS
 10
397.0
 20
17.881
  7
TEXTSTYLE_5
 40
1.495
  1
                                                                      tel: 
 41
1.0
 72
0
  0
TEXT
  8
0
 62
5
  6
CONTINUOUS
 10
441.9869465649
 20
17.881
  7
TEXTSTYLE_5
 40
1.51
  1
+45 75723100     fax: +45 75723348
 41
1.0
 72
0
  0
TEXT
  8
0
 62
5
  6
CONTINUOUS
 10
397.0
 20
15.177
  7
TEXTSTYLE_5
 40
1.5
  1
                                                                      admin@unichains.dk  www.unichains.com
 41
1.0
 72
0
  0
TEXT
  8
0
 62
5
  6
CONTINUOUS
 10
483.75
 20
13.75
  7
TEXTSTYLE_6
 40
5.0
  1
1:1
 41
0.7
 72
1
 11
489.0
 21
13.75
  0
TEXT
  8
0
 62
5
  6
CONTINUOUS
 10
502.0
 20
13.75
  7
TEXTSTYLE_7
 40
7.5
  1
Sprocket Z20 90X90SQ
 41
0.52875
 72
0
  0
LINE
  8
0
 62
7
  6
CONTINUOUS
 10
0.0
 20
0.0
 11
0.0
 21
420.0
  0
LINE
  8
0
 62
7
  6
CONTINUOUS
 10
10.0
 20
10.0
 11
10.0
 21
410.0
  0
LINE
  8
0
 62
7
  6
CONTINUOUS
 10
0.0
 20
0.0
 11
594.0
 21
0.0
  0
LINE
  8
0
 62
7
  6
CONTINUOUS
 10
10.0
 20
10.0
 11
584.0
 21
10.0
  0
LINE
  8
0
 62
7
  6
CONTINUOUS
 10
394.0
 20
30.0
 11
584.0
 21
30.0
  0
LINE
  8
0
 62
7
  6
CONTINUOUS
 10
179.0
 20
5.0
 11
179.0
 21
10.0
  0
LINE
  8
0
 62
7
  6
CONTINUOUS
 10
179.0
 20
410.0
 11
179.0
 21
415.0
  0
LINE
  8
0
 62
7
  6
CONTINUOUS
 10
594.0
 20
420.0
 11
584.0
 21
410.0
  0
LINE
  8
0
 62
7
  6
CONTINUOUS
 10
384.0
 20
410.0
 11
384.0
 21
415.0
  0
LINE
  8
0
 62
7
  6
CONTINUOUS
 10
584.0
 20
297.0
 11
589.0
 21
297.0
  0
LINE
  8
0
 62
7
  6
CONTINUOUS
 10
10.0
 20
410.0
 11
584.0
 21
410.0
  0
LINE
  8
0
 62
7
  6
CONTINUOUS
 10
0.0
 20
420.0
 11
594.0
 21
420.0
  0
LINE
  8
0
 62
7
  6
CONTINUOUS
 10
584.0
 20
10.0
 11
584.0
 21
410.0
  0
LINE
  8
0
 62
7
  6
CONTINUOUS
 10
594.0
 20
0.0
 11
594.0
 21
420.0
  0
LINE
  8
0
 62
7
  6
CONTINUOUS
 10
68.1207721324
 20
200.4728481867
 11
68.1207721324
 21
181.9569259836
  0
LINE
  8
0
 62
7
  6
CONTINUOUS
 10
73.2796566971
 20
236.5429190148
 11
67.5579220697
 21
218.9332305483
  0
LINE
  8
0
 62
7
  6
CONTINUOUS
 10
89.3323123533
 20
269.2534119165
 11
78.4489263497
 21
254.2737161876
  0
LINE
  8
0
 62
7
  6
CONTINUOUS
 10
114.70739332
 20
295.4023959393
 11
99.7276975911
 21
284.5190099357
  0
LINE
  8
0
 62
7
  6
CONTINUOUS
 10
146.9210098736
 20
312.4302263364
 11
129.3113214071
 21
306.708491709
  0
LINE
  8
0
 62
7
  6
CONTINUOUS
 10
186.3180243741
 20
85.7737515387
 11
204.8339465772
 21
85.7737515387
  0
LINE
  8
0
 62
7
  6
CONTINUOUS
 10
150.247953546
 20
90.9326361034
 11
167.8576420126
 21
85.2109014761
  0
LINE
  8
0
 62
7
  6
CONTINUOUS
 10
117.5374606443
 20
106.9852917596
 11
132.5171563732
 21
96.101905756
  0
LINE
  8
0
 62
7
  6
CONTINUOUS
 10
91.3884766215
 20
132.3603727264
 11
102.2718626251
 21
117.3806769975
  0
LINE
  8
0
 62
7
  6
CONTINUOUS
 10
74.3606462245
 20
164.57398928
 11
80.0823808518
 21
146.9643008134
  0
LINE
  8
DEFAULT_2
 62
8
  6
HIDDEN
 10
151.357770213
 20
306.5028193764
 11
151.0917302345
 21
306.3073806
  0
LINE
  8
DEFAULT_2
 62
8
  6
HIDDEN
 10
151.8023151251
 20
304.7467040011
 11
151.5362751466
 21
304.5512652247
  0
LINE
  8
DEFAULT_2
 62
8
  6
HIDDEN
 10
153.1375928476
 20
302.9368282455
 11
153.4036328261
 21
303.1322670219
  0
LINE
  8
DEFAULT_2
 62
8
  6
HIDDEN
 10
174.6498969753
 20
311.4347986056
 11
175.04866581
 21
311.6794749603
  0
LINE
  8
DEFAULT_2
 62
8
  6
HIDDEN
 10
160.6997257893
 20
309.0306711583
 11
160.4168917403
 21
308.8604404731
  0
LINE
  8
DEFAULT_2
 62
8
  6
HIDDEN
 10
150.8324203017
 20
306.7833449986
 11
151.2971507138
 21
307.0414379981
  0
LINE
  8
DEFAULT_2
 62
8
  6
HIDDEN
 10
151.2769652138
 20
305.0272296232
 11
151.7416910782
 21
305.2853211887
  0
LINE
  8
DEFAULT_2
 62
8
  6
HIDDEN
 10
153.6629473261
 20
302.6563039952
 11
153.1982169169
 21
302.3982109868
  0
LINE
  8
DEFAULT_2
 62
8
  6
HIDDEN
 10
160.202300552
 20
309.3581696884
 11
160.6887268678
 21
309.5725777679
  0
LINE
  8
DEFAULT_2
 62
8
  6
HIDDEN
 10
194.7604530122
 20
311.4117600997
 11
195.1974335703
 21
311.5788801376
  0
LINE
  8
DEFAULT_2
 62
8
  6
HIDDEN
 10
171.2624091423
 20
310.8512285107
 11
170.7583730441
 21
310.6823085178
  0
LINE
  8
DEFAULT_2
 62
8
  6
HIDDEN
 10
171.7409927876
 20
306.9442611382
 11
172.2450288858
 21
307.1131811311
  0
LINE
  8
DEFAULT_2
 62
8
  6
HIDDEN
 10
151.2971507138
 20
307.0414379981
 11
151.6945270332
 21
307.1667450104
  0
LINE
  8
DEFAULT_2
 62
8
  6
HIDDEN
 10
151.953836966
 20
306.6907806118
 11
151.357770213
 21
306.5028193764
  0
LINE
  8
DEFAULT_2
 62
8
  6
HIDDEN
 10
150.754977962
 20
305.6434564001
 11
150.258254152
 21
305.4868215592
  0
LINE
  8
DEFAULT_2
 62
8
  6
HIDDEN
 10
151.7416910782
 20
305.2853211887
 11
152.2384148882
 21
305.4419560296
  0
LINE
  8
DEFAULT_2
 62
8
  6
HIDDEN
 10
152.497724821
 20
304.9659916311
 11
151.8023151251
 21
304.7467040011
  0
LINE
  8
DEFAULT_2
 62
8
  6
HIDDEN
 10
152.4421831517
 20
302.7175406155
 11
153.1375928476
 21
302.9368282455
  0
LINE
  8
DEFAULT_2
 62
8
  6
HIDDEN
 10
153.1982169169
 20
302.3982109868
 11
152.7014931069
 21
302.2415761459
  0
LINE
  8
DEFAULT_2
 62
8
  6
HIDDEN
 10
170.5903073223
 20
311.1976119848
 11
171.1977356852
 21
311.3791970046
  0
LINE
  8
DEFAULT_2
 62
8
  6
HIDDEN
 10
172.4130946155
 20
306.5978775994
 11
171.8056662537
 21
306.4162925703
  0
LINE
  8
DEFAULT_2
 62
8
  6
HIDDEN
 10
175.8088546544
 20
311.3122257288
 11
175.2979258851
 21
311.1654669304
  0
LINE
  8
DEFAULT_2
 62
8
  6
HIDDEN
 10
151.0917302345
 20
306.3073806
 11
150.857683654
 21
306.0104836651
  0
LINE
  8
DEFAULT_2
 62
8
  6
HIDDEN
 10
151.5362751466
 20
304.5512652247
 11
151.3022285661
 21
304.2543682897
  0
LINE
  8
DEFAULT_2
 62
8
  6
HIDDEN
 10
153.4036328261
 20
303.1322670219
 11
153.6376794066
 21
303.4291639569
  0
LINE
  8
DEFAULT_2
 62
8
  6
HIDDEN
 10
159.8627837317
 20
308.9579221299
 11
160.202300552
 21
309.3581696884
  0
LINE
  8
DEFAULT_2
 62
8
  6
HIDDEN
 10
150.4316766856
 20
306.3223356818
 11
150.8324203017
 21
306.7833449986
  0
LINE
  8
DEFAULT_2
 62
8
  6
HIDDEN
 10
150.8762215977
 20
304.5662203065
 11
151.2769652138
 21
305.0272296232
  0
LINE
  8
DEFAULT_2
 62
8
  6
HIDDEN
 10
154.0636863861
 20
303.1173119046
 11
153.6629473261
 21
302.6563039952
  0
LINE
  8
DEFAULT_2
 62
8
  6
HIDDEN
 10
170.7583730441
 20
310.6823085178
 11
170.4740608998
 21
310.4331254597
  0
LINE
  8
DEFAULT_2
 62
8
  6
HIDDEN
 10
172.2450288858
 20
307.1131811311
 11
172.5293410301
 21
307.3623641892
  0
LINE
  8
DEFAULT_2
 62
8
  6
HIDDEN
 10
175.2979258851
 20
311.1654669304
 11
175.0030083369
 21
310.9289310311
  0
LINE
  8
DEFAULT_2
 62
8
  6
HIDDEN
 10
170.112140607
 20
310.8175045943
 11
170.5903073223
 21
311.1976119848
  0
LINE
  8
DEFAULT_2
 62
8
  6
HIDDEN
 10
172.8912613274
 20
306.9779850177
 11
172.4130946155
 21
306.5978775994
  0
LINE
  8
DEFAULT_2
 62
8
  6
HIDDEN
 10
189.7609183522
 20
311.6568874218
 11
190.1963239518
 21
311.9499569638
  0
LINE
  8
DEFAULT_2
 62
8
  6
HIDDEN
 10
195.232937742
 20
310.9331140083
 11
194.8995306707
 21
310.7548857371
  0
LINE
  8
DEFAULT_2
 62
8
  6
HIDDEN
 10
196.6193069142
 20
307.2536549687
 11
196.9527139934
 21
307.431883314
  0
LINE
  8
DEFAULT_2
 62
8
  6
HIDDEN
 10
189.6307979113
 20
309.5332103926
 11
189.8452488904
 21
309.6266531724
  0
LINE
  8
DEFAULT_2
 62
8
  6
HIDDEN
 10
197.09179164
 20
306.7750088403
 11
196.6548110789
 21
306.6078887745
  0
LINE
  8
DEFAULT_2
 62
8
  6
HIDDEN
 10
210.9423791834
 20
307.0175325858
 11
211.2985935188
 21
307.1441696229
  0
LINE
  8
DEFAULT_2
 62
8
  6
HIDDEN
 10
216.1667957687
 20
302.6677433353
 11
215.8060605062
 21
302.5546252671
  0
LINE
  8
DEFAULT_2
 62
8
  6
HIDDEN
 10
150.6741684152
 20
304.1678652129
 11
150.8762215977
 21
304.5662203065
  0
LINE
  8
DEFAULT_2
 62
8
  6
HIDDEN
 10
151.3022285661
 20
304.2543682897
 11
151.1675249285
 21
303.9887977493
  0
LINE
  8
DEFAULT_2
 62
8
  6
HIDDEN
 10
160.4168917403
 20
308.8604404731
 11
160.2584128356
 21
308.6083349026
  0
LINE
  8
DEFAULT_2
 62
8
  6
HIDDEN
 10
169.8407631541
 20
310.4627278374
 11
170.112140607
 21
310.8175045943
  0
LINE
  8
DEFAULT_2
 62
8
  6
HIDDEN
 10
174.2677596982
 20
310.9780073453
 11
174.6498969753
 21
311.4347986056
  0
LINE
  8
DEFAULT_2
 62
8
  6
HIDDEN
 10
190.2612603039
 20
311.3064834159
 11
190.0403033037
 21
311.1068567995
  0
LINE
  8
DEFAULT_2
 62
8
  6
HIDDEN
 10
190.131139863
 20
309.1828063866
 11
189.9101828628
 21
308.9831797703
  0
LINE
  8
DEFAULT_2
 62
8
  6
HIDDEN
 10
194.3007834726
 20
311.033087345
 11
194.7604530122
 21
311.4117600997
  0
LINE
  8
DEFAULT_2
 62
8
  6
HIDDEN
 10
210.6869320907
 20
306.8645004988
 11
210.9423791834
 21
307.0175325858
  0
LINE
  8
DEFAULT_2
 62
8
  6
HIDDEN
 10
211.2645778008
 20
306.6032194834
 11
211.009130708
 21
306.4501873965
  0
LINE
  8
DEFAULT_2
 62
8
  6
HIDDEN
 10
150.261616901
 20
305.8225224296
 11
150.4316766856
 21
306.3223356818
  0
LINE
  8
DEFAULT_2
 62
8
  6
HIDDEN
 10
154.2337461596
 20
303.6171251923
 11
154.0636863861
 21
303.1173119046
  0
LINE
  8
DEFAULT_2
 62
8
  6
HIDDEN
 10
159.6476267156
 20
308.4758006972
 11
159.8627837317
 21
308.9579221299
  0
LINE
  8
DEFAULT_2
 62
8
  6
HIDDEN
 10
173.1626387758
 20
307.3327618115
 11
172.8912613274
 21
306.9779850177
  0
LINE
  8
DEFAULT_2
 62
8
  6
HIDDEN
 10
189.4229792105
 20
311.2512635148
 11
189.7609183522
 21
311.6568874218
  0
LINE
  8
DEFAULT_2
 62
8
  6
HIDDEN
 10
189.2928587696
 20
309.1275864856
 11
189.6307979113
 21
309.5332103926
  0
LINE
  8
DEFAULT_2
 62
8
  6
HIDDEN
 10
197.5514599983
 20
307.1536817591
 11
197.09179164
 21
306.7750088403
  0
LINE
  8
DEFAULT_2
 62
8
  6
HIDDEN
 10
216.5583480639
 20
302.8826830513
 11
216.1667957687
 21
302.6677433353
  0
LINE
  8
DEFAULT_2
 62
8
  6
HIDDEN
 10
150.857683654
 20
306.0104836651
 11
150.754977962
 21
305.6434564001
  0
LINE
  8
DEFAULT_2
 62
8
  6
HIDDEN
 10
153.6376794066
 20
303.4291639569
 11
153.7403896238
 21
303.7961927269
  0
LINE
  8
DEFAULT_2
 62
8
  6
HIDDEN
 10
169.6857173903
 20
310.0150229885
 11
169.8407631541
 21
310.4627278374
  0
LINE
  8
DEFAULT_2
 62
8
  6
HIDDEN
 10
170.4740608998
 20
310.4331254597
 11
170.1380952926
 21
309.7489022838
  0
LINE
  8
DEFAULT_2
 62
8
  6
HIDDEN
 10
172.5293410301
 20
307.3623641892
 11
172.8653066645
 21
308.0465871433
  0
LINE
  8
DEFAULT_2
 62
8
  6
HIDDEN
 10
175.0030083369
 20
310.9289310311
 11
174.8202554772
 21
310.5944779482
  0
LINE
  8
DEFAULT_2
 62
8
  6
HIDDEN
 10
196.9527139934
 20
307.431883314
 11
197.1938920687
 21
307.7269961769
  0
LINE
  8
DEFAULT_2
 62
8
  6
HIDDEN
 10
215.9601459416
 20
303.0637334427
 11
216.2519979384
 21
303.3088482461
  0
LINE
  8
DEFAULT_2
 62
8
  6
HIDDEN
 10
150.6354449715
 20
303.5979201966
 11
150.6741684152
 21
304.1678652129
  0
LINE
  8
DEFAULT_2
 62
8
  6
HIDDEN
 10
154.2724695808
 20
304.1870702796
 11
154.2337461596
 21
303.6171251923
  0
LINE
  8
DEFAULT_2
 62
8
  6
HIDDEN
 10
173.3176845306
 20
307.7804667344
 11
173.1626387758
 21
307.3327618115
  0
LINE
  8
DEFAULT_2
 62
8
  6
HIDDEN
 10
197.8039837575
 20
307.5545709274
 11
197.5514599983
 21
307.1536817591
  0
LINE
  8
DEFAULT_2
 62
8
  6
HIDDEN
 10
214.2344230147
 20
303.4748878779
 11
213.88093678
 21
303.0261298508
  0
LINE
  8
DEFAULT_2
 62
8
  6
HIDDEN
 10
213.3824349312
 20
303.1770052013
 11
213.5437696442
 21
303.3504733425
  0
LINE
  8
DEFAULT_2
 62
8
  6
HIDDEN
 10
216.7196825842
 20
303.0561512313
 11
216.5583480639
 21
302.8826830513
  0
LINE
  8
0
 62
7
  6
CONTINUOUS
 10
177.7878447642
 20
260.2364885019
 11
126.3101304784
 21
206.4151529937
  0
LINE
  8
0
 62
7
  6
CONTINUOUS
 10
126.5543840589
 20
195.4408241706
 11
180.3757195671
 21
143.9631098848
  0
LINE
  8
DEFAULT_2
 62
8
  6
HIDDEN
 10
150.258254152
 20
305.4868215592
 11
150.261616901
 21
305.8225224296
  0
LINE
  8
DEFAULT_2
 62
8
  6
HIDDEN
 10
151.1675249285
 20
303.9887977493
 11
151.1641622243
 21
303.6530967368
  0
LINE
  8
DEFAULT_2
 62
8
  6
HIDDEN
 10
153.7403896238
 20
303.7961927269
 11
153.7437523729
 21
304.1318935974
  0
LINE
  8
DEFAULT_2
 62
8
  6
HIDDEN
 10
156.4254613225
 20
308.0927445915
 11
156.257349883
 21
305.075960722
  0
LINE
  8
DEFAULT_2
 62
8
  6
HIDDEN
 10
156.2659982111
 20
304.6379493859
 11
156.1912835391
 21
303.2971570114
  0
LINE
  8
DEFAULT_2
 62
8
  6
HIDDEN
 10
155.5872608538
 20
303.1365905281
 11
155.9134546121
 21
308.3969488915
  0
LINE
  8
DEFAULT_2
 62
8
  6
HIDDEN
 10
159.6135076152
 20
308.1418212525
 11
159.6476267156
 21
308.4758006972
  0
LINE
  8
DEFAULT_2
 62
8
  6
HIDDEN
 10
160.2584128356
 20
308.6083349026
 11
160.2242937352
 21
308.2743554579
  0
LINE
  8
DEFAULT_2
 62
8
  6
HIDDEN
 10
174.1971667732
 20
310.5456367061
 11
174.2677596982
 21
310.9780073453
  0
LINE
  8
0
 62
7
  6
CONTINUOUS
 10
136.4555756847
 20
86.1036458585
 11
135.3715758149
 21
80.526949975
  0
LINE
  8
DEFAULT_2
 62
8
  6
HIDDEN
 10
169.621124503
 20
309.6855759896
 11
169.6857173903
 21
310.0150229885
  0
LINE
  8
DEFAULT_2
 62
8
  6
HIDDEN
 10
173.3822774541
 20
308.1099134374
 11
173.3176845306
 21
307.7804667344
  0
LINE
  8
DEFAULT_2
 62
8
  6
HIDDEN
 10
197.1938920687
 20
307.7269961769
 11
197.3428423332
 21
308.1389935043
  0
LINE
  8
DEFAULT_2
 62
8
  6
HIDDEN
 10
189.2994910479
 20
310.9390823876
 11
189.4229792105
 21
311.2512635148
  0
LINE
  8
DEFAULT_2
 62
8
  6
HIDDEN
 10
190.0403033037
 20
311.1068567995
 11
189.9168151229
 21
310.7946753748
  0
LINE
  8
DEFAULT_2
 62
8
  6
HIDDEN
 10
189.1693705979
 20
308.8154052096
 11
189.2928587696
 21
309.1275864856
  0
LINE
  8
DEFAULT_2
 62
8
  6
HIDDEN
 10
189.9101828628
 20
308.9831797703
 11
189.7866946911
 21
308.6709984943
  0
LINE
  8
DEFAULT_2
 62
8
  6
HIDDEN
 10
194.8995306707
 20
310.7548857371
 11
194.7619260505
 21
310.4486643446
  0
LINE
  8
DEFAULT_2
 62
8
  6
HIDDEN
 10
201.3701289724
 20
310.4735138016
 11
200.0031933124
 21
307.7789390165
  0
LINE
  8
DEFAULT_2
 62
8
  6
HIDDEN
 10
199.8349949752
 20
307.3744176366
 11
199.2274684155
 21
306.1768288313
  0
LINE
  8
DEFAULT_2
 62
8
  6
HIDDEN
 10
198.6098627706
 20
306.2726842818
 11
201.0236543682
 21
310.9579149673
  0
LINE
  8
0
 62
7
  6
CONTINUOUS
 10
102.9278897527
 20
106.6547282721
 11
100.1736508125
 21
101.6859496944
  0
LINE
  8
DEFAULT_2
 62
8
  6
HIDDEN
 10
213.5437696442
 20
303.3504733425
 11
213.7667382493
 21
303.7275848511
  0
LINE
  8
DEFAULT_2
 62
8
  6
HIDDEN
 10
216.9426512927
 20
303.433262728
 11
216.7196825842
 21
303.0561512313
  0
LINE
  8
DEFAULT_2
 62
8
  6
HIDDEN
 10
210.5052950718
 20
306.5821624951
 11
210.6869320907
 21
306.8645004988
  0
LINE
  8
DEFAULT_2
 62
8
  6
HIDDEN
 10
216.2519979384
 20
303.3088482461
 11
216.4441495509
 21
303.5841380461
  0
LINE
  8
0
 62
7
  6
CONTINUOUS
 10
77.3917992894
 20
136.5605938535
 11
73.236925376
 21
132.6861112483
  0
LINE
  8
0
 62
7
  6
CONTINUOUS
 10
62.3469547498
 20
172.8938481132
 11
57.1981538706
 21
170.4929228329
  0
LINE
  8
0
 62
7
  6
CONTINUOUS
 10
309.8718428136
 20
192.3459129915
 11
315.5105701547
 21
193.0382616522
  0
LINE
  8
0
 62
7
  6
CONTINUOUS
 10
300.6872267023
 20
154.108555091
 11
306.2639225858
 21
153.0245552212
  0
LINE
  8
0
 62
7
  6
CONTINUOUS
 10
280.1361442887
 20
120.5808691591
 11
285.1049228664
 21
117.8266302188
  0
LINE
  8
0
 62
7
  6
CONTINUOUS
 10
250.2302787073
 20
95.0447786958
 11
254.1047613126
 21
90.8899047824
  0
LINE
  8
0
 62
7
  6
CONTINUOUS
 10
213.8970244476
 20
79.9999341561
 11
216.2979497279
 21
74.8511332769
  0
LINE
  8
0
 62
7
  6
CONTINUOUS
 10
174.6929335852
 20
76.9190297472
 11
175.3852822458
 21
71.2803024061
  0
LINE
  8
DEFAULT_2
 62
8
  6
HIDDEN
 10
170.1380952926
 20
309.7489022838
 11
170.1123111763
 21
309.1026750642
  0
LINE
  8
DEFAULT_2
 62
8
  6
HIDDEN
 10
172.8653066645
 20
308.0465871433
 11
172.8910907627
 21
308.6928145108
  0
LINE
  8
DEFAULT_2
 62
8
  6
HIDDEN
 10
169.5824056953
 20
309.1449424688
 11
169.621124503
 21
309.6855759896
  0
LINE
  8
DEFAULT_2
 62
8
  6
HIDDEN
 10
173.4209962437
 20
308.6505471062
 11
173.3822774541
 21
308.1099134374
  0
LINE
  8
DEFAULT_2
 62
8
  6
HIDDEN
 10
194.1404898709
 20
310.5153132357
 11
194.3007834726
 21
311.033087345
  0
LINE
  8
DEFAULT_2
 62
8
  6
HIDDEN
 10
197.9642785128
 20
308.0723446131
 11
197.8039837575
 21
307.5545709274
  0
LINE
  8
DEFAULT_2
 62
8
  6
HIDDEN
 10
210.2697454453
 20
306.0940023045
 11
210.5052950718
 21
306.5821624951
  0
LINE
  8
DEFAULT_2
 62
8
  6
HIDDEN
 10
211.009130708
 20
306.4501873965
 11
210.7735805049
 21
305.9620273569
  0
LINE
  8
DEFAULT_2
 62
8
  6
HIDDEN
 10
154.1478586932
 20
304.9286039266
 11
154.2724695808
 21
304.1870702796
  0
LINE
  8
DEFAULT_2
 62
8
  6
HIDDEN
 10
174.4964492889
 20
306.7275611041
 11
174.4548822735
 21
307.2578493739
  0
LINE
  8
DEFAULT_2
 62
8
  6
HIDDEN
 10
174.2137936003
 20
310.3335211307
 11
174.1971667732
 21
310.5456367061
  0
LINE
  8
DEFAULT_2
 62
8
  6
HIDDEN
 10
174.8202554772
 20
310.5944779482
 11
174.8368823043
 21
310.3823623728
  0
LINE
  8
DEFAULT_2
 62
8
  6
HIDDEN
 10
179.0673861567
 20
307.0715347594
 11
179.0465946236
 21
307.7094939148
  0
LINE
  8
DEFAULT_2
 62
8
  6
HIDDEN
 10
178.9287759325
 20
311.3245958947
 11
178.9045191467
 21
312.0688814891
  0
LINE
  8
0
 62
2
  6
CONTINUOUS
 10
184.5689465772
 20
203.7069259836
 11
184.5689465772
 21
200.7369259836
  0
LINE
  8
DEFAULT_1
 62
2
  6
CENTER
 10
184.5689465772
 20
194.7969259836
 11
184.5689465772
 21
86.2487515387
  0
LINE
  8
DEFAULT_1
 62
2
  6
CENTER
 10
184.5689465772
 20
209.6469259836
 11
184.5689465772
 21
318.1951004285
  0
LINE
  8
DEFAULT_2
 62
8
  6
HIDDEN
 10
189.1368404922
 20
308.2844860267
 11
189.1693705979
 21
308.8154052096
  0
LINE
  8
DEFAULT_2
 62
8
  6
HIDDEN
 10
189.2734669451
 20
310.5143467438
 11
189.2994910479
 21
310.9390823876
  0
LINE
  8
DEFAULT_2
 62
8
  6
HIDDEN
 10
189.9168151229
 20
310.7946753748
 11
189.9038030806
 21
310.5823077017
  0
LINE
  8
DEFAULT_2
 62
8
  6
HIDDEN
 10
189.7866946911
 20
308.6709984943
 11
189.7671766276
 21
308.3524469846
  0
LINE
  8
DEFAULT_2
 62
8
  6
HIDDEN
 10
192.3274310528
 20
307.5560819932
 11
192.4250213835
 21
309.1488397651
  0
LINE
  8
DEFAULT_2
 62
8
  6
HIDDEN
 10
192.4640575103
 20
309.7859427847
 11
192.5551418245
 21
311.2725167944
  0
LINE
  8
DEFAULT_2
 62
8
  6
HIDDEN
 10
197.3428423332
 20
308.1389935043
 11
197.5130097104
 21
309.7256390282
  0
LINE
  8
DEFAULT_2
 62
8
  6
HIDDEN
 10
208.4384512482
 20
304.4456116762
 11
209.22075287
 21
307.7587608906
  0
LINE
  8
DEFAULT_2
 62
8
  6
HIDDEN
 10
209.4652221739
 20
308.7941202195
 11
209.5874567916
 21
309.3117997389
  0
LINE
  8
DEFAULT_2
 62
8
  6
HIDDEN
 10
210.0943511881
 20
309.1921117071
 11
209.9721165704
 21
308.6744321877
  0
LINE
  8
DEFAULT_2
 62
8
  6
HIDDEN
 10
209.7276472665
 20
307.6390728588
 11
208.9453456447
 21
304.3259236444
  0
LINE
  8
DEFAULT_2
 62
8
  6
HIDDEN
 10
209.7575701197
 20
304.138692676
 11
210.2697454453
 21
306.0940023045
  0
LINE
  8
DEFAULT_2
 62
8
  6
HIDDEN
 10
210.7735805049
 20
305.9620273569
 11
210.2614051794
 21
304.0067177284
  0
LINE
  8
DEFAULT_2
 62
8
  6
HIDDEN
 10
212.0752120862
 20
303.5316077359
 11
212.6952137801
 21
305.898561436
  0
LINE
  8
DEFAULT_2
 62
8
  6
HIDDEN
 10
212.8030401485
 20
306.3102055076
 11
212.9378231091
 21
306.8247605971
  0
LINE
  8
DEFAULT_2
 62
8
  6
HIDDEN
 10
213.4416584571
 20
306.692785574
 11
212.5790474341
 21
303.3996327128
  0
LINE
  8
DEFAULT_2
 62
8
  6
HIDDEN
 10
213.7667382493
 20
303.7275848511
 11
214.5679824802
 21
306.374947254
  0
LINE
  8
DEFAULT_2
 62
8
  6
HIDDEN
 10
215.0664843289
 20
306.2240719035
 11
214.3885084528
 21
303.9839960625
  0
LINE
  8
DEFAULT_2
 62
8
  6
HIDDEN
 10
216.4441495509
 20
303.5841380461
 11
217.0604912604
 21
305.6205706418
  0
LINE
  8
0
 62
2
  6
CONTINUOUS
 10
186.0539465772
 20
202.2219259836
 11
183.0839465772
 21
202.2219259836
  0
LINE
  8
DEFAULT_1
 62
2
  6
CENTER
 10
177.1439465772
 20
202.2219259836
 11
68.5957721324
 21
202.2219259836
  0
LINE
  8
DEFAULT_1
 62
2
  6
CENTER
 10
191.9939465772
 20
202.2219259836
 11
300.5421210221
 21
202.2219259836
  0
LINE
  8
DEFAULT_2
 62
8
  6
HIDDEN
 10
150.7954120061
 20
303.0906292614
 11
150.6354449715
 21
303.5979201966
  0
LINE
  8
DEFAULT_2
 62
8
  6
HIDDEN
 10
151.1641622243
 20
303.6530967368
 11
151.2601424182
 21
303.3487222609
  0
LINE
  8
DEFAULT_2
 62
8
  6
HIDDEN
 10
153.7437523729
 20
304.1318935974
 11
153.647772179
 21
304.4362680732
  0
LINE
  8
DEFAULT_2
 62
8
  6
HIDDEN
 10
153.491172441
 20
305.2792613129
 11
153.4271856451
 21
305.4821776301
  0
LINE
  8
DEFAULT_2
 62
8
  6
HIDDEN
 10
159.7037437224
 20
307.7259666313
 11
159.6135076152
 21
308.1418212525
  0
LINE
  8
DEFAULT_2
 62
8
  6
HIDDEN
 10
160.2242937352
 20
308.2743554579
 11
160.2919708314
 21
307.9624644191
  0
LINE
  8
DEFAULT_2
 62
8
  6
HIDDEN
 10
163.5813588706
 20
305.0838914238
 11
163.1076195767
 21
307.2671269477
  0
LINE
  8
DEFAULT_2
 62
8
  6
HIDDEN
 10
162.9722655108
 20
307.8909084427
 11
162.6338802828
 21
309.4503624715
  0
LINE
  8
DEFAULT_2
 62
8
  6
HIDDEN
 10
169.6988179179
 20
308.1945991798
 11
169.5824056953
 21
309.1449424688
  0
LINE
  8
DEFAULT_2
 62
8
  6
HIDDEN
 10
170.1123111763
 20
309.1026750642
 11
170.2028540161
 21
308.3635191727
  0
LINE
  8
DEFAULT_2
 62
8
  6
HIDDEN
 10
172.8910907627
 20
308.6928145108
 11
172.8005479229
 21
309.4319704023
  0
LINE
  8
DEFAULT_2
 62
8
  6
HIDDEN
 10
178.1934121207
 20
307.5508966402
 11
178.2349791361
 21
307.0206083704
  0
LINE
  8
DEFAULT_2
 62
8
  6
HIDDEN
 10
183.0689731662
 20
312.2046039457
 11
183.0862994418
 21
311.6729713782
  0
LINE
  8
DEFAULT_2
 62
8
  6
HIDDEN
 10
183.2041181328
 20
308.0578693983
 11
183.2318401762
 21
307.207257216
  0
LINE
  8
DEFAULT_2
 62
8
  6
HIDDEN
 10
193.2180080656
 20
311.8713969352
 11
192.9122250358
 21
306.8807560206
  0
LINE
  8
DEFAULT_2
 62
8
  6
HIDDEN
 10
198.13444589
 20
309.6589901371
 11
197.9642785128
 21
308.0723446131
  0
LINE
  8
DEFAULT_2
 62
8
  6
HIDDEN
 10
217.5589930022
 20
305.4696953237
 11
216.9426512927
 21
303.433262728
  0
LINE
  8
DEFAULT_2
 62
8
  6
HIDDEN
 10
153.9239049074
 20
305.638811037
 11
154.1478586932
 21
304.9286039266
  0
LINE
  8
DEFAULT_2
 62
8
  6
HIDDEN
 10
163.1318713479
 20
310.1027145894
 11
164.1921449907
 21
305.2164256292
  0
LINE
  8
DEFAULT_2
 62
8
  6
HIDDEN
 10
173.304584021
 20
309.6008903952
 11
173.4209962437
 21
308.6505471062
  0
LINE
  8
DEFAULT_2
 62
8
  6
HIDDEN
 10
193.9264152222
 20
307.5424669997
 11
193.8795665677
 21
308.0824568447
  0
LINE
  8
DEFAULT_2
 62
8
  6
HIDDEN
 10
198.087596074
 20
310.1989803315
 11
198.13444589
 21
309.6589901371
  0
LINE
  8
0
 62
7
  6
CONTINUOUS
 10
232.6823174698
 20
318.3402061086
 11
233.7663173396
 21
323.9169019921
  0
LINE
  8
0
 62
7
  6
CONTINUOUS
 10
266.2100034017
 20
297.7891236951
 11
268.964242342
 21
302.7579022728
  0
LINE
  8
0
 62
7
  6
CONTINUOUS
 10
291.746093865
 20
267.8832581136
 11
295.9009677784
 21
271.7577407189
  0
LINE
  8
0
 62
7
  6
CONTINUOUS
 10
306.7909384047
 20
231.5500038539
 11
311.9397392839
 21
233.9509291342
  0
LINE
  8
0
 62
7
  6
CONTINUOUS
 10
59.2660503408
 20
212.0979389756
 11
53.6273229998
 21
211.405590315
  0
LINE
  8
0
 62
7
  6
CONTINUOUS
 10
68.4506664522
 20
250.3352968761
 11
62.8739705687
 21
251.4192967459
  0
LINE
  8
0
 62
7
  6
CONTINUOUS
 10
89.0017488658
 20
283.8629828081
 11
84.032970288
 21
286.6172217484
  0
LINE
  8
0
 62
7
  6
CONTINUOUS
 10
118.9076144472
 20
309.3990732714
 11
115.0331318419
 21
313.5539471848
  0
LINE
  8
DEFAULT_2
 62
8
  6
HIDDEN
 10
153.4271856451
 20
305.4821776301
 11
153.1358777667
 21
306.0595987532
  0
LINE
  8
DEFAULT_2
 62
8
  6
HIDDEN
 10
153.6006081787
 20
306.3176917527
 11
153.9239049074
 21
305.638811037
  0
LINE
  8
0
 62
7
  6
CONTINUOUS
 10
155.2408687069
 20
324.4439178111
 11
152.8399434266
 21
329.5927186902
  0
LINE
  8
DEFAULT_2
 62
8
  6
HIDDEN
 10
174.3508937407
 20
309.9174306571
 11
174.2137936003
 21
310.3335211307
  0
LINE
  8
DEFAULT_2
 62
8
  6
HIDDEN
 10
169.8668836578
 20
307.6792955649
 11
169.6988179179
 21
308.1945991798
  0
LINE
  8
DEFAULT_2
 62
8
  6
HIDDEN
 10
173.1365182993
 20
310.1161938622
 11
173.304584021
 21
309.6008903952
  0
LINE
  8
DEFAULT_2
 62
8
  6
HIDDEN
 10
170.2028540161
 20
308.3635191727
 11
170.3838544474
 21
307.7426218591
  0
LINE
  8
DEFAULT_2
 62
8
  6
HIDDEN
 10
172.8005479229
 20
309.4319704023
 11
172.6195475097
 21
310.052867568
  0
LINE
  8
0
 62
7
  6
CONTINUOUS
 10
194.4449595693
 20
327.52482222
 11
193.7526109086
 21
333.163549561
  0
LINE
  8
DEFAULT_2
 62
8
  6
HIDDEN
 10
151.1540694519
 20
302.6459926204
 11
150.7954120061
 21
303.0906292614
  0
LINE
  8
DEFAULT_2
 62
8
  6
HIDDEN
 10
151.2601424182
 20
303.3487222609
 11
151.455465555
 21
303.0756741797
  0
LINE
  8
DEFAULT_2
 62
8
  6
HIDDEN
 10
153.647772179
 20
304.4362680732
 11
153.4524489973
 21
304.7093162966
  0
LINE
  8
DEFAULT_2
 62
8
  6
HIDDEN
 10
153.1358777667
 20
306.0595987532
 11
152.9405545402
 21
306.3326471187
  0
LINE
  8
DEFAULT_2
 62
8
  6
HIDDEN
 10
156.7188197287
 20
308.6110379442
 11
159.6140772201
 21
304.2070333418
  0
LINE
  8
DEFAULT_2
 62
8
  6
HIDDEN
 10
159.0100545347
 20
304.0464668585
 11
158.2794086985
 21
305.1731714053
  0
LINE
  8
DEFAULT_2
 62
8
  6
HIDDEN
 10
158.0694179391
 20
305.557660172
 11
156.4254613225
 21
308.0927445915
  0
LINE
  8
DEFAULT_2
 62
8
  6
HIDDEN
 10
159.8732168887
 20
307.4361645809
 11
159.7037437224
 21
307.7259666313
  0
LINE
  8
DEFAULT_2
 62
8
  6
HIDDEN
 10
160.2919708314
 20
307.9624644191
 11
160.4614439977
 21
307.6726623688
  0
LINE
  8
DEFAULT_2
 62
8
  6
HIDDEN
 10
170.0090847297
 20
307.3751800753
 11
169.8668836578
 21
307.6792955649
  0
LINE
  8
DEFAULT_2
 62
8
  6
HIDDEN
 10
172.9943171911
 20
310.4203096476
 11
173.1365182993
 21
310.1161938622
  0
LINE
  8
DEFAULT_2
 62
8
  6
HIDDEN
 10
177.6947475703
 20
311.2466341769
 11
177.8318500876
 21
310.8305438896
  0
LINE
  8
DEFAULT_2
 62
8
  6
HIDDEN
 10
189.2212925235
 20
307.95956406
 11
189.1368404922
 21
308.2844860267
  0
LINE
  8
DEFAULT_2
 62
8
  6
HIDDEN
 10
189.7671766276
 20
308.3524469846
 11
189.8516286635
 21
308.0275250922
  0
LINE
  8
DEFAULT_2
 62
8
  6
HIDDEN
 10
189.357918981
 20
310.1894248515
 11
189.2734669451
 21
310.5143467438
  0
LINE
  8
DEFAULT_2
 62
8
  6
HIDDEN
 10
189.9038030806
 20
310.5823077017
 11
189.9882551164
 21
310.2573858093
  0
LINE
  8
DEFAULT_2
 62
8
  6
HIDDEN
 10
194.5010027473
 20
308.0158079536
 11
194.5705403912
 21
307.6873708994
  0
LINE
  8
DEFAULT_2
 62
8
  6
HIDDEN
 10
201.847128954
 20
310.8301076391
 11
202.7272333439
 21
305.6336480062
  0
LINE
  8
DEFAULT_2
 62
8
  6
HIDDEN
 10
202.109627699
 20
305.7295034567
 11
201.8936808509
 21
307.0548994073
  0
LINE
  8
DEFAULT_2
 62
8
  6
HIDDEN
 10
201.8560102471
 20
307.491372665
 11
201.3701289724
 21
310.4735138016
  0
LINE
  8
DEFAULT_2
 62
8
  6
HIDDEN
 10
197.5130097104
 20
309.7256390282
 11
197.4548153719
 21
310.1598525679
  0
LINE
  8
0
 62
7
  6
CONTINUOUS
 10
191.3500483903
 20
144.2073634652
 11
242.8277626761
 21
198.0286989734
  0
LINE
  8
0
 62
7
  6
CONTINUOUS
 10
242.5835090956
 20
209.0030277966
 11
188.7621735874
 21
260.4807420824
  0
LINE
  8
DEFAULT_2
 62
8
  6
HIDDEN
 10
153.2419506657
 20
306.7623286069
 11
153.6006081787
 21
306.3176917527
  0
LINE
  8
DEFAULT_2
 62
8
  6
HIDDEN
 10
170.2676080338
 20
306.97813526
 11
170.0090847297
 21
307.3751800753
  0
LINE
  8
DEFAULT_2
 62
8
  6
HIDDEN
 10
172.7357938961
 20
310.8173543889
 11
172.9943171911
 21
310.4203096476
  0
LINE
  8
DEFAULT_2
 62
8
  6
HIDDEN
 10
174.8368823043
 20
310.3823623728
 11
175.0778289775
 21
309.974411982
  0
LINE
  8
DEFAULT_2
 62
8
  6
HIDDEN
 10
197.9258282487
 20
310.6443021044
 11
198.087596074
 21
310.1989803315
  0
LINE
  8
DEFAULT_2
 62
8
  6
HIDDEN
 10
151.5800764314
 20
302.3341405682
 11
151.1540694519
 21
302.6459926204
  0
LINE
  8
DEFAULT_2
 62
8
  6
HIDDEN
 10
151.455465555
 20
303.0756741797
 11
151.7501362048
 21
302.8339538559
  0
LINE
  8
DEFAULT_2
 62
8
  6
HIDDEN
 10
152.9405545402
 20
306.3326471187
 11
152.6458839128
 21
306.5743673714
  0
LINE
  8
DEFAULT_2
 62
8
  6
HIDDEN
 10
160.2688459927
 20
307.0865773536
 11
159.8732168887
 21
307.4361645809
  0
LINE
  8
DEFAULT_2
 62
8
  6
HIDDEN
 10
170.3838544474
 20
307.7426218591
 11
170.8750363967
 21
307.1597202799
  0
LINE
  8
DEFAULT_2
 62
8
  6
HIDDEN
 10
172.6195475097
 20
310.052867568
 11
172.1283655332
 21
310.6357693691
  0
LINE
  8
DEFAULT_2
 62
8
  6
HIDDEN
 10
174.5835317658
 20
309.6155382781
 11
174.3508937407
 21
309.9174306571
  0
LINE
  8
DEFAULT_2
 62
8
  6
HIDDEN
 10
177.3126079164
 20
310.7898427303
 11
177.0799722682
 21
311.0917352957
  0
LINE
  8
DEFAULT_2
 62
8
  6
HIDDEN
 10
189.5071834938
 20
307.5157172371
 11
189.2212925235
 21
307.95956406
  0
LINE
  8
DEFAULT_2
 62
8
  6
HIDDEN
 10
189.6438099536
 20
309.7455780657
 11
189.357918981
 21
310.1894248515
  0
LINE
  8
DEFAULT_2
 62
8
  6
HIDDEN
 10
197.4548153719
 20
310.1598525679
 11
197.2817042729
 21
310.4993981517
  0
LINE
  8
DEFAULT_2
 62
8
  6
HIDDEN
 10
214.3885084528
 20
303.9839960625
 11
214.4954578352
 21
303.6181810089
  0
LINE
  8
DEFAULT_2
 62
8
  6
HIDDEN
 10
153.4524489973
 20
304.7093162966
 11
153.1897717679
 21
304.8495783907
  0
LINE
  8
DEFAULT_2
 62
8
  6
HIDDEN
 10
160.4614439977
 20
307.6726623688
 11
160.7101589464
 21
307.5089136093
  0
LINE
  8
DEFAULT_2
 62
8
  6
HIDDEN
 10
152.8159436974
 20
307.0741806236
 11
153.2419506657
 21
306.7623286069
  0
LINE
  8
DEFAULT_2
 62
8
  6
HIDDEN
 10
170.6165936397
 20
306.6993497872
 11
170.2676080338
 21
306.97813526
  0
LINE
  8
DEFAULT_2
 62
8
  6
HIDDEN
 10
182.5863803018
 20
307.8248579951
 11
178.9287759325
 21
311.3245958947
  0
LINE
  8
DEFAULT_2
 62
8
  6
HIDDEN
 10
189.8516286635
 20
308.0275250922
 11
190.0465615746
 21
307.8024162879
  0
LINE
  8
DEFAULT_2
 62
8
  6
HIDDEN
 10
189.9882551164
 20
310.2573858093
 11
190.1831880321
 21
310.0322770794
  0
LINE
  8
DEFAULT_2
 62
8
  6
HIDDEN
 10
194.2953288318
 20
307.0749288502
 11
193.9264152222
 21
307.5424669997
  0
LINE
  8
DEFAULT_2
 62
8
  6
HIDDEN
 10
212.6952137801
 20
305.898561436
 11
212.5475927675
 21
306.1571734961
  0
LINE
  8
DEFAULT_2
 62
8
  6
HIDDEN
 10
212.6554191359
 20
306.5688175677
 11
212.8030401485
 21
306.3102055076
  0
LINE
  8
DEFAULT_2
 62
8
  6
HIDDEN
 10
214.4410726581
 20
303.0788978066
 11
214.2344230147
 21
303.4748878779
  0
LINE
  8
DEFAULT_2
 62
8
  6
HIDDEN
 10
151.7501362048
 20
302.8339538559
 11
152.1121563772
 21
302.7250181564
  0
LINE
  8
DEFAULT_2
 62
8
  6
HIDDEN
 10
160.7437168789
 20
306.8630434171
 11
160.2688459927
 21
307.0865773536
  0
LINE
  8
DEFAULT_2
 62
8
  6
HIDDEN
 10
170.8750363967
 20
307.1597202799
 11
171.2110873067
 21
306.9865285428
  0
LINE
  8
DEFAULT_2
 62
8
  6
HIDDEN
 10
177.3626279743
 20
307.4857750462
 11
174.5835317658
 21
309.6155382781
  0
LINE
  8
DEFAULT_2
 62
8
  6
HIDDEN
 10
175.0778289775
 20
309.974411982
 11
178.1934121207
 21
307.5508966402
  0
LINE
  8
DEFAULT_2
 62
8
  6
HIDDEN
 10
172.3868082947
 20
311.0961398247
 11
172.7357938961
 21
310.8173543889
  0
LINE
  8
DEFAULT_2
 62
8
  6
HIDDEN
 10
194.5705403912
 20
307.6873708994
 11
194.8585694916
 21
307.442493663
  0
LINE
  8
DEFAULT_2
 62
8
  6
HIDDEN
 10
189.9035529648
 20
307.1716837317
 11
189.5071834938
 21
307.5157172371
  0
LINE
  8
DEFAULT_2
 62
8
  6
HIDDEN
 10
177.246100701
 20
311.6383038431
 11
177.6947475703
 21
311.2466341769
  0
LINE
  8
DEFAULT_2
 62
8
  6
HIDDEN
 10
179.442401579
 20
311.5542142093
 11
183.2041181328
 21
308.0578693983
  0
LINE
  8
DEFAULT_2
 62
8
  6
HIDDEN
 10
214.4954578352
 20
303.6181810089
 11
214.7329247208
 21
303.3240125706
  0
LINE
  8
DEFAULT_2
 62
8
  6
HIDDEN
 10
197.5569158204
 20
311.1118400897
 11
197.9258282487
 21
310.6443021044
  0
LINE
  8
DEFAULT_2
 62
8
  6
HIDDEN
 10
211.4930683015
 20
306.6533405525
 11
211.2645778008
 21
306.6032194834
  0
LINE
  8
DEFAULT_2
 62
8
  6
HIDDEN
 10
215.499710385
 20
302.9807904119
 11
215.9601459416
 21
303.0637334427
  0
LINE
  8
DEFAULT_2
 62
8
  6
HIDDEN
 10
152.1121563772
 20
302.7250181564
 11
152.4421831517
 21
302.7175406155
  0
LINE
  8
DEFAULT_2
 62
8
  6
HIDDEN
 10
152.1727804437
 20
302.1864009066
 11
151.5800764314
 21
302.3341405682
  0
LINE
  8
DEFAULT_2
 62
8
  6
HIDDEN
 10
152.2232442411
 20
307.2219216926
 11
152.8159436974
 21
307.0741806236
  0
LINE
  8
DEFAULT_2
 62
8
  6
HIDDEN
 10
153.1897717679
 20
304.8495783907
 11
152.8277515955
 21
304.9585140902
  0
LINE
  8
DEFAULT_2
 62
8
  6
HIDDEN
 10
152.7671320962
 20
305.4971327119
 11
153.491172441
 21
305.2792613129
  0
LINE
  8
DEFAULT_2
 62
8
  6
HIDDEN
 10
152.6458839128
 20
306.5743673714
 11
152.2838637404
 21
306.6833030709
  0
LINE
  8
DEFAULT_2
 62
8
  6
HIDDEN
 10
190.0465615746
 20
307.8024162879
 11
190.3519706106
 21
307.6771210119
  0
LINE
  8
DEFAULT_2
 62
8
  6
HIDDEN
 10
176.8140830124
 20
311.8178584175
 11
177.246100701
 21
311.6383038431
  0
LINE
  8
DEFAULT_2
 62
8
  6
HIDDEN
 10
171.1723685069
 20
306.4458949573
 11
170.6165936397
 21
306.6993497872
  0
LINE
  8
DEFAULT_2
 62
8
  6
HIDDEN
 10
171.8310334309
 20
311.3495946269
 11
172.3868082947
 21
311.0961398247
  0
LINE
  8
DEFAULT_2
 62
8
  6
HIDDEN
 10
172.1283655332
 20
310.6357693691
 11
171.7923146232
 21
310.8089611061
  0
LINE
  8
DEFAULT_2
 62
8
  6
HIDDEN
 10
177.0799722682
 20
311.0917352957
 11
176.7518011124
 21
311.2794299528
  0
LINE
  8
DEFAULT_2
 62
8
  6
HIDDEN
 10
189.8452488904
 20
309.6266531724
 11
189.6438099536
 21
309.7455780657
  0
LINE
  8
DEFAULT_2
 62
8
  6
HIDDEN
 10
194.6869314239
 20
306.8189434269
 11
194.2953288318
 21
307.0749288502
  0
LINE
  8
DEFAULT_2
 62
8
  6
HIDDEN
 10
197.1653132253
 20
311.3678254853
 11
197.5569158204
 21
311.1118400897
  0
LINE
  8
DEFAULT_2
 62
8
  6
HIDDEN
 10
197.2817042729
 20
310.4993981517
 11
196.9936751646
 21
310.744275314
  0
LINE
  8
DEFAULT_2
 62
8
  6
HIDDEN
 10
214.6096563687
 20
302.9167260176
 11
214.4410726581
 21
303.0788978066
  0
LINE
  8
DEFAULT_2
 62
8
  6
HIDDEN
 10
212.5475927675
 20
306.1571734961
 11
212.2992050889
 21
306.4421804552
  0
LINE
  8
DEFAULT_2
 62
8
  6
HIDDEN
 10
212.4070314573
 20
306.8538245268
 11
212.6554191359
 21
306.5688175677
  0
LINE
  8
DEFAULT_2
 62
8
  6
HIDDEN
 10
190.4495609413
 20
309.2698787839
 11
190.131139863
 21
309.1828063866
  0
LINE
  8
DEFAULT_2
 62
8
  6
HIDDEN
 10
190.5796813822
 20
311.3935558131
 11
190.2612603039
 21
311.3064834159
  0
LINE
  8
DEFAULT_2
 62
8
  6
HIDDEN
 10
159.6140772201
 20
304.2070333418
 11
159.0100545347
 21
304.0464668585
  0
LINE
  8
DEFAULT_2
 62
8
  6
HIDDEN
 10
156.1912835391
 20
303.2971570114
 11
155.5872608538
 21
303.1365905281
  0
LINE
  8
DEFAULT_2
 62
8
  6
HIDDEN
 10
158.2794086985
 20
305.1731714053
 11
156.2659982111
 21
304.6379493859
  0
LINE
  8
DEFAULT_2
 62
8
  6
HIDDEN
 10
156.257349883
 20
305.075960722
 11
158.0694179391
 21
305.557660172
  0
LINE
  8
DEFAULT_2
 62
8
  6
HIDDEN
 10
155.9134546121
 20
308.3969488915
 11
156.7188197287
 21
308.6110379442
  0
LINE
  8
DEFAULT_2
 62
8
  6
HIDDEN
 10
175.04866581
 20
311.6794749603
 11
175.6634411121
 21
311.8343738415
  0
LINE
  8
DEFAULT_2
 62
8
  6
HIDDEN
 10
164.1921449907
 20
305.2164256292
 11
163.5813588706
 21
305.0838914238
  0
LINE
  8
DEFAULT_2
 62
8
  6
HIDDEN
 10
163.1076195767
 20
307.2671269477
 11
161.2752612166
 21
306.8695243316
  0
LINE
  8
DEFAULT_2
 62
8
  6
HIDDEN
 10
161.0381110174
 20
307.4712171294
 11
162.9722655108
 21
307.8909084427
  0
LINE
  8
DEFAULT_2
 62
8
  6
HIDDEN
 10
162.6338802828
 20
309.4503624715
 11
160.6997257893
 21
309.0306711583
  0
LINE
  8
DEFAULT_2
 62
8
  6
HIDDEN
 10
160.6887268678
 20
309.5725777679
 11
163.1318713479
 21
310.1027145894
  0
LINE
  8
DEFAULT_2
 62
8
  6
HIDDEN
 10
196.1936708468
 20
307.1923112891
 11
196.6193069142
 21
307.2536549687
  0
LINE
  8
DEFAULT_2
 62
8
  6
HIDDEN
 10
195.6585738094
 20
310.9944576879
 11
195.232937742
 21
310.9331140083
  0
LINE
  8
DEFAULT_2
 62
8
  6
HIDDEN
 10
190.1963239518
 20
311.9499569638
 11
190.7226876083
 21
312.0242884501
  0
LINE
  8
DEFAULT_2
 62
8
  6
HIDDEN
 10
152.7014931069
 20
302.2415761459
 11
152.1727804437
 21
302.1864009066
  0
LINE
  8
DEFAULT_2
 62
8
  6
HIDDEN
 10
152.2384148882
 20
305.4419560296
 11
152.7671320962
 21
305.4971327119
  0
LINE
  8
DEFAULT_2
 62
8
  6
HIDDEN
 10
151.6945270332
 20
307.1667450104
 11
152.2232442411
 21
307.2219216926
  0
LINE
  8
DEFAULT_2
 62
8
  6
HIDDEN
 10
196.6548110789
 20
306.6078887745
 11
196.1256038944
 21
306.5576530647
  0
LINE
  8
DEFAULT_2
 62
8
  6
HIDDEN
 10
195.1974335703
 20
311.5788801376
 11
195.7266407539
 21
311.6291158382
  0
LINE
  8
DEFAULT_2
 62
8
  6
HIDDEN
 10
178.2349791361
 20
307.0206083704
 11
174.4964492889
 21
306.7275611041
  0
LINE
  8
DEFAULT_2
 62
8
  6
HIDDEN
 10
174.4548822735
 20
307.2578493739
 11
177.3626279743
 21
307.4857750462
  0
LINE
  8
DEFAULT_2
 62
8
  6
HIDDEN
 10
177.8318500876
 20
310.8305438896
 11
177.3126079164
 21
310.7898427303
  0
LINE
  8
DEFAULT_2
 62
8
  6
HIDDEN
 10
176.2242455392
 20
311.3447864326
 11
175.8088546544
 21
311.3122257288
  0
LINE
  8
DEFAULT_2
 62
8
  6
HIDDEN
 10
175.6634411121
 20
311.8343738415
 11
176.0788319968
 21
311.8669345453
  0
LINE
  8
DEFAULT_2
 62
8
  6
HIDDEN
 10
211.2985935188
 20
307.1441696229
 11
211.627851262
 21
307.167895642
  0
LINE
  8
DEFAULT_2
 62
8
  6
HIDDEN
 10
183.2318401762
 20
307.207257216
 11
179.0673861567
 21
307.0715347594
  0
LINE
  8
DEFAULT_2
 62
8
  6
HIDDEN
 10
179.0465946236
 20
307.7094939148
 11
182.5863803018
 21
307.8248579951
  0
LINE
  8
DEFAULT_2
 62
8
  6
HIDDEN
 10
183.0862994418
 20
311.6729713782
 11
179.442401579
 21
311.5542142093
  0
LINE
  8
DEFAULT_2
 62
8
  6
HIDDEN
 10
178.9045191467
 20
312.0688814891
 11
183.0689731662
 21
312.2046039457
  0
LINE
  8
DEFAULT_2
 62
8
  6
HIDDEN
 10
161.2752612166
 20
306.8695243316
 11
160.7437168789
 21
306.8630434171
  0
LINE
  8
DEFAULT_2
 62
8
  6
HIDDEN
 10
211.9230932873
 20
306.6506715217
 11
211.4930683015
 21
306.6533405525
  0
LINE
  8
DEFAULT_2
 62
8
  6
HIDDEN
 10
152.8277515955
 20
304.9585140902
 11
152.497724821
 21
304.9659916311
  0
LINE
  8
DEFAULT_2
 62
8
  6
HIDDEN
 10
152.2838637404
 20
306.6833030709
 11
151.953836966
 21
306.6907806118
  0
LINE
  8
DEFAULT_2
 62
8
  6
HIDDEN
 10
215.8060605062
 20
302.5546252671
 11
215.376442041
 21
302.5735038857
  0
LINE
  8
DEFAULT_2
 62
8
  6
HIDDEN
 10
171.8056662537
 20
306.4162925703
 11
171.1723685069
 21
306.4458949573
  0
LINE
  8
DEFAULT_2
 62
8
  6
HIDDEN
 10
171.1977356852
 20
311.3791970046
 11
171.8310334309
 21
311.3495946269
  0
LINE
  8
DEFAULT_2
 62
8
  6
HIDDEN
 10
192.9122250358
 20
306.8807560206
 11
190.4169045785
 21
307.0336475355
  0
LINE
  8
DEFAULT_2
 62
8
  6
HIDDEN
 10
190.3519706106
 20
307.6771210119
 11
192.3274310528
 21
307.5560819932
  0
LINE
  8
DEFAULT_2
 62
8
  6
HIDDEN
 10
192.4250213835
 20
309.1488397651
 11
190.4495609413
 21
309.2698787839
  0
LINE
  8
DEFAULT_2
 62
8
  6
HIDDEN
 10
190.4885970681
 20
309.9069818034
 11
192.4640575103
 21
309.7859427847
  0
LINE
  8
DEFAULT_2
 62
8
  6
HIDDEN
 10
192.5551418245
 20
311.2725167944
 11
190.5796813822
 21
311.3935558131
  0
LINE
  8
DEFAULT_2
 62
8
  6
HIDDEN
 10
190.7226876083
 20
312.0242884501
 11
193.2180080656
 21
311.8713969352
  0
LINE
  8
DEFAULT_2
 62
8
  6
HIDDEN
 10
176.0788319968
 20
311.8669345453
 11
176.8140830124
 21
311.8178584175
  0
LINE
  8
DEFAULT_2
 62
8
  6
HIDDEN
 10
171.2110873067
 20
306.9865285428
 11
171.7409927876
 21
306.9442611382
  0
LINE
  8
DEFAULT_2
 62
8
  6
HIDDEN
 10
171.7923146232
 20
310.8089611061
 11
171.2624091423
 21
310.8512285107
  0
LINE
  8
DEFAULT_2
 62
8
  6
HIDDEN
 10
196.1256038944
 20
306.5576530647
 11
195.193449625
 21
306.6576264014
  0
LINE
  8
DEFAULT_2
 62
8
  6
HIDDEN
 10
195.2615165774
 20
307.2922846258
 11
196.1936708468
 21
307.1923112891
  0
LINE
  8
DEFAULT_2
 62
8
  6
HIDDEN
 10
193.8795665677
 20
308.0824568447
 11
194.5010027473
 21
308.0158079536
  0
LINE
  8
DEFAULT_2
 62
8
  6
HIDDEN
 10
194.7619260505
 20
310.4486643446
 11
194.1404898709
 21
310.5153132357
  0
LINE
  8
DEFAULT_2
 62
8
  6
HIDDEN
 10
196.5907280787
 20
310.8944843512
 11
195.6585738094
 21
310.9944576879
  0
LINE
  8
DEFAULT_2
 62
8
  6
HIDDEN
 10
195.7266407539
 20
311.6291158382
 11
196.6587950233
 21
311.5291425015
  0
LINE
  8
DEFAULT_2
 62
8
  6
HIDDEN
 10
160.7101589464
 20
307.5089136093
 11
161.0381110174
 21
307.4712171294
  0
LINE
  8
DEFAULT_2
 62
8
  6
HIDDEN
 10
176.7518011124
 20
311.2794299528
 11
176.2242455392
 21
311.3447864326
  0
LINE
  8
DEFAULT_2
 62
8
  6
HIDDEN
 10
202.7272333439
 20
305.6336480062
 11
202.109627699
 21
305.7295034567
  0
LINE
  8
DEFAULT_2
 62
8
  6
HIDDEN
 10
199.2274684155
 20
306.1768288313
 11
198.6098627706
 21
306.2726842818
  0
LINE
  8
DEFAULT_2
 62
8
  6
HIDDEN
 10
201.8936808509
 20
307.0548994073
 11
199.8349949752
 21
307.3744176366
  0
LINE
  8
DEFAULT_2
 62
8
  6
HIDDEN
 10
200.0031933124
 20
307.7789390165
 11
201.8560102471
 21
307.491372665
  0
LINE
  8
DEFAULT_2
 62
8
  6
HIDDEN
 10
201.0236543682
 20
310.9579149673
 11
201.847128954
 21
310.8301076391
  0
LINE
  8
DEFAULT_2
 62
8
  6
HIDDEN
 10
208.9453456447
 20
304.3259236444
 11
208.4384512482
 21
304.4456116762
  0
LINE
  8
DEFAULT_2
 62
8
  6
HIDDEN
 10
209.22075287
 20
307.7587608906
 11
209.7276472665
 21
307.6390728588
  0
LINE
  8
DEFAULT_2
 62
8
  6
HIDDEN
 10
209.9721165704
 20
308.6744321877
 11
209.4652221739
 21
308.7941202195
  0
LINE
  8
DEFAULT_2
 62
8
  6
HIDDEN
 10
209.5874567916
 20
309.3117997389
 11
210.0943511881
 21
309.1921117071
  0
LINE
  8
DEFAULT_2
 62
8
  6
HIDDEN
 10
212.5790474341
 20
303.3996327128
 11
212.0752120862
 21
303.5316077359
  0
LINE
  8
DEFAULT_2
 62
8
  6
HIDDEN
 10
210.2614051794
 20
304.0067177284
 11
209.7575701197
 21
304.138692676
  0
LINE
  8
DEFAULT_2
 62
8
  6
HIDDEN
 10
211.627851262
 20
307.167895642
 11
212.0309196557
 21
307.0623155934
  0
LINE
  8
DEFAULT_2
 62
8
  6
HIDDEN
 10
212.9378231091
 20
306.8247605971
 11
213.4416584571
 21
306.692785574
  0
LINE
  8
DEFAULT_2
 62
8
  6
HIDDEN
 10
190.4169045785
 20
307.0336475355
 11
189.9035529648
 21
307.1716837317
  0
LINE
  8
DEFAULT_2
 62
8
  6
HIDDEN
 10
215.376442041
 20
302.5735038857
 11
214.9776405905
 21
302.6942041574
  0
LINE
  8
DEFAULT_2
 62
8
  6
HIDDEN
 10
213.88093678
 20
303.0261298508
 11
213.3824349312
 21
303.1770052013
  0
LINE
  8
DEFAULT_2
 62
8
  6
HIDDEN
 10
215.1009089346
 20
303.1014906837
 11
215.499710385
 21
302.9807904119
  0
LINE
  8
DEFAULT_2
 62
8
  6
HIDDEN
 10
214.5679824802
 20
306.374947254
 11
215.0664843289
 21
306.2240719035
  0
LINE
  8
DEFAULT_2
 62
8
  6
HIDDEN
 10
217.0604912604
 20
305.6205706418
 11
217.5589930022
 21
305.4696953237
  0
LINE
  8
DEFAULT_2
 62
8
  6
HIDDEN
 10
195.193449625
 20
306.6576264014
 11
194.6869314239
 21
306.8189434269
  0
LINE
  8
DEFAULT_2
 62
8
  6
HIDDEN
 10
196.6587950233
 20
311.5291425015
 11
197.1653132253
 21
311.3678254853
  0
LINE
  8
DEFAULT_2
 62
8
  6
HIDDEN
 10
194.8585694916
 20
307.442493663
 11
195.2615165774
 21
307.2922846258
  0
LINE
  8
DEFAULT_2
 62
8
  6
HIDDEN
 10
196.9936751646
 20
310.744275314
 11
196.5907280787
 21
310.8944843512
  0
LINE
  8
DEFAULT_2
 62
8
  6
HIDDEN
 10
190.1831880321
 20
310.0322770794
 11
190.4885970681
 21
309.9069818034
  0
LINE
  8
DEFAULT_2
 62
8
  6
HIDDEN
 10
212.2992050889
 20
306.4421804552
 11
211.9230932873
 21
306.6506715217
  0
LINE
  8
DEFAULT_2
 62
8
  6
HIDDEN
 10
212.0309196557
 20
307.0623155934
 11
212.4070314573
 21
306.8538245268
  0
LINE
  8
DEFAULT_2
 62
8
  6
HIDDEN
 10
214.9776405905
 20
302.6942041574
 11
214.6096563687
 21
302.9167260176
  0
LINE
  8
DEFAULT_2
 62
8
  6
HIDDEN
 10
214.7329247208
 20
303.3240125706
 11
215.1009089346
 21
303.1014906837
  0
LINE
  8
0
 62
7
  6
CONTINUOUS
 10
301.0171210221
 20
203.9710037804
 11
301.0171210221
 21
222.4869259836
  0
LINE
  8
0
 62
7
  6
CONTINUOUS
 10
295.8582364574
 20
167.9009329523
 11
301.5799710847
 21
185.5106214189
  0
LINE
  8
0
 62
7
  6
CONTINUOUS
 10
279.8055808012
 20
135.1904400506
 11
290.6889668048
 21
150.1701357795
  0
LINE
  8
0
 62
7
  6
CONTINUOUS
 10
254.4304998345
 20
109.0414560278
 11
269.4101955633
 21
119.9248420314
  0
LINE
  8
0
 62
7
  6
CONTINUOUS
 10
222.2168832808
 20
92.0136256308
 11
239.8265717474
 21
97.7353602581
  0
LINE
  8
0
 62
7
  6
CONTINUOUS
 10
182.8198687804
 20
318.6701004285
 11
164.3039465772
 21
318.6701004285
  0
LINE
  8
0
 62
7
  6
CONTINUOUS
 10
218.8899396085
 20
313.5112158638
 11
201.2802511419
 21
319.2329504911
  0
LINE
  8
0
 62
7
  6
CONTINUOUS
 10
251.6004325102
 20
297.4585602075
 11
236.6207367813
 21
308.3419462111
  0
LINE
  8
0
 62
7
  6
CONTINUOUS
 10
277.749416533
 20
272.0834792408
 11
266.8660305294
 21
287.0631749697
  0
LINE
  8
0
 62
7
  6
CONTINUOUS
 10
294.77724693
 20
239.8698626872
 11
289.0555123027
 21
257.4795511537
  0
LINE
  8
0
 62
7
  6
CONTINUOUS
 10
401.5401191027
 20
70.4021717495
 11
407.9901191027
 21
70.4021717495
  0
LINE
  8
0
 62
7
  6
CONTINUOUS
 10
418.2901191027
 20
70.4021717495
 11
424.7401191027
 21
70.4021717495
  0
LINE
  8
DEFAULT_2
 62
8
  6
HIDDEN
 10
401.5401191027
 20
70.6012348165
 11
407.9901191027
 21
70.6012348165
  0
LINE
  8
DEFAULT_2
 62
8
  6
HIDDEN
 10
418.2901191027
 20
70.6012348165
 11
424.7401191027
 21
70.6012348165
  0
LINE
  8
0
 62
9
  6
CONTINUOUS
 10
401.5401191027
 20
71.2803024061
 11
407.9901191027
 21
71.2803024061
  0
LINE
  8
0
 62
9
  6
CONTINUOUS
 10
418.2901191027
 20
71.2803024061
 11
424.7401191027
 21
71.2803024061
  0
LINE
  8
DEFAULT_2
 62
8
  6
HIDDEN
 10
401.5401191027
 20
74.2737515387
 11
407.9901191027
 21
74.2737515387
  0
LINE
  8
DEFAULT_2
 62
8
  6
HIDDEN
 10
418.2901191027
 20
74.2737515387
 11
424.7401191027
 21
74.2737515387
  0
LINE
  8
DEFAULT_2
 62
8
  6
HIDDEN
 10
401.5401191027
 20
74.6970387791
 11
407.9901191027
 21
74.6970387791
  0
LINE
  8
DEFAULT_2
 62
8
  6
HIDDEN
 10
418.2901191027
 20
74.6970387791
 11
424.7401191027
 21
74.6970387791
  0
LINE
  8
DEFAULT_2
 62
8
  6
HIDDEN
 10
401.5401191027
 20
74.8511332769
 11
407.9901191027
 21
74.8511332769
  0
LINE
  8
DEFAULT_2
 62
8
  6
HIDDEN
 10
418.2901191027
 20
74.8511332769
 11
424.7401191027
 21
74.8511332769
  0
LINE
  8
0
 62
9
  6
CONTINUOUS
 10
401.5401191027
 20
76.9190297472
 11
407.9901191027
 21
76.9190297472
  0
LINE
  8
0
 62
9
  6
CONTINUOUS
 10
418.2901191027
 20
76.9190297472
 11
424.7401191027
 21
76.9190297472
  0
LINE
  8
0
 62
7
  6
CONTINUOUS
 10
401.5401191027
 20
79.3361409796
 11
407.9901191027
 21
79.3361409796
  0
LINE
  8
0
 62
7
  6
CONTINUOUS
 10
418.2901191027
 20
79.3361409796
 11
424.7401191027
 21
79.3361409796
  0
LINE
  8
DEFAULT_2
 62
8
  6
HIDDEN
 10
401.5401191027
 20
79.3893811606
 11
407.9901191027
 21
79.3893811606
  0
LINE
  8
DEFAULT_2
 62
8
  6
HIDDEN
 10
418.2901191027
 20
79.3893811606
 11
424.7401191027
 21
79.3893811606
  0
LINE
  8
DEFAULT_2
 62
8
  6
HIDDEN
 10
401.5401191027
 20
79.9999341561
 11
407.9901191027
 21
79.9999341561
  0
LINE
  8
DEFAULT_2
 62
8
  6
HIDDEN
 10
418.2901191027
 20
79.9999341561
 11
424.7401191027
 21
79.9999341561
  0
LINE
  8
0
 62
9
  6
CONTINUOUS
 10
401.5401191027
 20
80.526949975
 11
407.9901191027
 21
80.526949975
  0
LINE
  8
0
 62
9
  6
CONTINUOUS
 10
418.2901191027
 20
80.526949975
 11
424.7401191027
 21
80.526949975
  0
LINE
  8
DEFAULT_2
 62
8
  6
HIDDEN
 10
401.5401191027
 20
84.4038265812
 11
407.9901191027
 21
84.4038265812
  0
LINE
  8
DEFAULT_2
 62
8
  6
HIDDEN
 10
418.2901191027
 20
84.4038265812
 11
424.7401191027
 21
84.4038265812
  0
LINE
  8
DEFAULT_2
 62
8
  6
HIDDEN
 10
401.5401191027
 20
85.2109014761
 11
407.9901191027
 21
85.2109014761
  0
LINE
  8
DEFAULT_2
 62
8
  6
HIDDEN
 10
418.2901191027
 20
85.2109014761
 11
424.7401191027
 21
85.2109014761
  0
LINE
  8
DEFAULT_2
 62
8
  6
HIDDEN
 10
424.7401191027
 20
85.7737515387
 11
418.2901191027
 21
85.7737515387
  0
LINE
  8
DEFAULT_2
 62
8
  6
HIDDEN
 10
407.9901191027
 20
85.7737515387
 11
401.5401191027
 21
85.7737515387
  0
LINE
  8
DEFAULT_2
 62
8
  6
HIDDEN
 10
424.7401191027
 20
85.9737515387
 11
418.2901191027
 21
85.9737515387
  0
LINE
  8
DEFAULT_2
 62
8
  6
HIDDEN
 10
407.9901191027
 20
85.9737515387
 11
401.5401191027
 21
85.9737515387
  0
LINE
  8
0
 62
9
  6
CONTINUOUS
 10
401.5401191027
 20
86.1036458585
 11
407.9901191027
 21
86.1036458585
  0
LINE
  8
0
 62
9
  6
CONTINUOUS
 10
418.2901191027
 20
86.1036458585
 11
424.7401191027
 21
86.1036458585
  0
LINE
  8
DEFAULT_2
 62
8
  6
HIDDEN
 10
401.5401191027
 20
86.7737515387
 11
407.9901191027
 21
86.7737515387
  0
LINE
  8
DEFAULT_2
 62
8
  6
HIDDEN
 10
418.2901191027
 20
86.7737515387
 11
424.7401191027
 21
86.7737515387
  0
LINE
  8
0
 62
7
  6
CONTINUOUS
 10
418.2901191027
 20
88.2487515387
 11
407.9901191027
 21
88.2487515387
  0
LINE
  8
0
 62
7
  6
CONTINUOUS
 10
398.5401191027
 20
88.2487515387
 11
401.5401191027
 21
88.2487515387
  0
LINE
  8
0
 62
7
  6
CONTINUOUS
 10
424.7401191027
 20
88.2487515387
 11
427.7401191027
 21
88.2487515387
  0
LINE
  8
DEFAULT_2
 62
8
  6
HIDDEN
 10
401.5401191027
 20
89.4853454116
 11
407.9901191027
 21
89.4853454116
  0
LINE
  8
DEFAULT_2
 62
8
  6
HIDDEN
 10
418.2901191027
 20
89.4853454116
 11
424.7401191027
 21
89.4853454116
  0
LINE
  8
DEFAULT_2
 62
8
  6
HIDDEN
 10
401.5401191027
 20
90.5719031424
 11
407.9901191027
 21
90.5719031424
  0
LINE
  8
DEFAULT_2
 62
8
  6
HIDDEN
 10
418.2901191027
 20
90.5719031424
 11
424.7401191027
 21
90.5719031424
  0
LINE
  8
DEFAULT_2
 62
8
  6
HIDDEN
 10
401.5401191027
 20
90.8551642072
 11
407.9901191027
 21
90.8551642072
  0
LINE
  8
DEFAULT_2
 62
8
  6
HIDDEN
 10
418.2901191027
 20
90.8551642072
 11
424.7401191027
 21
90.8551642072
  0
LINE
  8
DEFAULT_2
 62
8
  6
HIDDEN
 10
401.5401191027
 20
90.8899047824
 11
407.9901191027
 21
90.8899047824
  0
LINE
  8
DEFAULT_2
 62
8
  6
HIDDEN
 10
418.2901191027
 20
90.8899047824
 11
424.7401191027
 21
90.8899047824
  0
LINE
  8
DEFAULT_2
 62
8
  6
HIDDEN
 10
424.7401191027
 20
90.9326361034
 11
418.2901191027
 21
90.9326361034
  0
LINE
  8
DEFAULT_2
 62
8
  6
HIDDEN
 10
407.9901191027
 20
90.9326361034
 11
401.5401191027
 21
90.9326361034
  0
LINE
  8
DEFAULT_2
 62
8
  6
HIDDEN
 10
424.7401191027
 20
91.2464542044
 11
418.2901191027
 21
91.2464542044
  0
LINE
  8
DEFAULT_2
 62
8
  6
HIDDEN
 10
407.9901191027
 20
91.2464542044
 11
401.5401191027
 21
91.2464542044
  0
LINE
  8
DEFAULT_2
 62
8
  6
HIDDEN
 10
401.5401191027
 20
91.2758672195
 11
407.9901191027
 21
91.2758672195
  0
LINE
  8
DEFAULT_2
 62
8
  6
HIDDEN
 10
418.2901191027
 20
91.2758672195
 11
424.7401191027
 21
91.2758672195
  0
LINE
  8
DEFAULT_2
 62
8
  6
HIDDEN
 10
424.7401191027
 20
91.9891538889
 11
418.2901191027
 21
91.9891538889
  0
LINE
  8
DEFAULT_2
 62
8
  6
HIDDEN
 10
407.9901191027
 20
91.9891538889
 11
401.5401191027
 21
91.9891538889
  0
LINE
  8
DEFAULT_2
 62
8
  6
HIDDEN
 10
424.7401191027
 20
92.0136256308
 11
418.2901191027
 21
92.0136256308
  0
LINE
  8
DEFAULT_2
 62
8
  6
HIDDEN
 10
407.9901191027
 20
92.0136256308
 11
401.5401191027
 21
92.0136256308
  0
LINE
  8
DEFAULT_2
 62
8
  6
HIDDEN
 10
424.7401191027
 20
92.0802301363
 11
418.2901191027
 21
92.0802301363
  0
LINE
  8
DEFAULT_2
 62
8
  6
HIDDEN
 10
407.9901191027
 20
92.0802301363
 11
401.5401191027
 21
92.0802301363
  0
LINE
  8
DEFAULT_2
 62
8
  6
HIDDEN
 10
401.5401191027
 20
92.4445351257
 11
407.9901191027
 21
92.4445351257
  0
LINE
  8
DEFAULT_2
 62
8
  6
HIDDEN
 10
418.2901191027
 20
92.4445351257
 11
424.7401191027
 21
92.4445351257
  0
LINE
  8
DEFAULT_2
 62
8
  6
HIDDEN
 10
401.5401191027
 20
92.5996135758
 11
407.9901191027
 21
92.5996135758
  0
LINE
  8
DEFAULT_2
 62
8
  6
HIDDEN
 10
418.2901191027
 20
92.5996135758
 11
424.7401191027
 21
92.5996135758
  0
LINE
  8
DEFAULT_2
 62
8
  6
HIDDEN
 10
401.5401191027
 20
95.0447786958
 11
407.9901191027
 21
95.0447786958
  0
LINE
  8
DEFAULT_2
 62
8
  6
HIDDEN
 10
418.2901191027
 20
95.0447786958
 11
424.7401191027
 21
95.0447786958
  0
LINE
  8
0
 62
9
  6
CONTINUOUS
 10
401.5401191027
 20
96.101905756
 11
407.9901191027
 21
96.101905756
  0
LINE
  8
0
 62
9
  6
CONTINUOUS
 10
418.2901191027
 20
96.101905756
 11
424.7401191027
 21
96.101905756
  0
LINE
  8
DEFAULT_2
 62
8
  6
HIDDEN
 10
401.5401191027
 20
97.7353602581
 11
407.9901191027
 21
97.7353602581
  0
LINE
  8
DEFAULT_2
 62
8
  6
HIDDEN
 10
418.2901191027
 20
97.7353602581
 11
424.7401191027
 21
97.7353602581
  0
LINE
  8
DEFAULT_2
 62
8
  6
HIDDEN
 10
401.5401191027
 20
98.2247950951
 11
407.9901191027
 21
98.2247950951
  0
LINE
  8
DEFAULT_2
 62
8
  6
HIDDEN
 10
418.2901191027
 20
98.2247950951
 11
424.7401191027
 21
98.2247950951
  0
LINE
  8
0
 62
7
  6
CONTINUOUS
 10
401.5401191027
 20
100.2011400741
 11
407.9901191027
 21
100.2011400741
  0
LINE
  8
0
 62
7
  6
CONTINUOUS
 10
418.2901191027
 20
100.2011400741
 11
424.7401191027
 21
100.2011400741
  0
LINE
  8
0
 62
9
  6
CONTINUOUS
 10
401.5401191027
 20
101.6859496944
 11
407.9901191027
 21
101.6859496944
  0
LINE
  8
0
 62
9
  6
CONTINUOUS
 10
418.2901191027
 20
101.6859496944
 11
424.7401191027
 21
101.6859496944
  0
LINE
  8
DEFAULT_2
 62
8
  6
HIDDEN
 10
401.5401191027
 20
105.6023062304
 11
407.9901191027
 21
105.6023062304
  0
LINE
  8
DEFAULT_2
 62
8
  6
HIDDEN
 10
418.2901191027
 20
105.6023062304
 11
424.7401191027
 21
105.6023062304
  0
LINE
  8
0
 62
9
  6
CONTINUOUS
 10
401.5401191027
 20
106.6547282721
 11
407.9901191027
 21
106.6547282721
  0
LINE
  8
0
 62
9
  6
CONTINUOUS
 10
418.2901191027
 20
106.6547282721
 11
424.7401191027
 21
106.6547282721
  0
LINE
  8
DEFAULT_2
 62
8
  6
HIDDEN
 10
424.7401191027
 20
106.9852917596
 11
418.2901191027
 21
106.9852917596
  0
LINE
  8
DEFAULT_2
 62
8
  6
HIDDEN
 10
407.9901191027
 20
106.9852917596
 11
401.5401191027
 21
106.9852917596
  0
LINE
  8
DEFAULT_2
 62
8
  6
HIDDEN
 10
424.7401191027
 20
107.3822092594
 11
418.2901191027
 21
107.3822092594
  0
LINE
  8
DEFAULT_2
 62
8
  6
HIDDEN
 10
407.9901191027
 20
107.3822092594
 11
401.5401191027
 21
107.3822092594
  0
LINE
  8
DEFAULT_2
 62
8
  6
HIDDEN
 10
401.5401191027
 20
108.2078564138
 11
407.9901191027
 21
108.2078564138
  0
LINE
  8
DEFAULT_2
 62
8
  6
HIDDEN
 10
418.2901191027
 20
108.2078564138
 11
424.7401191027
 21
108.2078564138
  0
LINE
  8
DEFAULT_2
 62
8
  6
HIDDEN
 10
424.7401191027
 20
108.945964525
 11
418.2901191027
 21
108.945964525
  0
LINE
  8
DEFAULT_2
 62
8
  6
HIDDEN
 10
407.9901191027
 20
108.945964525
 11
401.5401191027
 21
108.945964525
  0
LINE
  8
DEFAULT_2
 62
8
  6
HIDDEN
 10
424.7401191027
 20
108.9681453258
 11
418.2901191027
 21
108.9681453258
  0
LINE
  8
DEFAULT_2
 62
8
  6
HIDDEN
 10
407.9901191027
 20
108.9681453258
 11
401.5401191027
 21
108.9681453258
  0
LINE
  8
DEFAULT_2
 62
8
  6
HIDDEN
 10
424.7401191027
 20
109.0414560278
 11
418.2901191027
 21
109.0414560278
  0
LINE
  8
DEFAULT_2
 62
8
  6
HIDDEN
 10
407.9901191027
 20
109.0414560278
 11
401.5401191027
 21
109.0414560278
  0
LINE
  8
DEFAULT_2
 62
8
  6
HIDDEN
 10
401.5401191027
 20
109.0568685288
 11
407.9901191027
 21
109.0568685288
  0
LINE
  8
DEFAULT_2
 62
8
  6
HIDDEN
 10
418.2901191027
 20
109.0568685288
 11
424.7401191027
 21
109.0568685288
  0
LINE
  8
DEFAULT_2
 62
8
  6
HIDDEN
 10
401.5401191027
 20
109.3518452698
 11
407.9901191027
 21
109.3518452698
  0
LINE
  8
DEFAULT_2
 62
8
  6
HIDDEN
 10
418.2901191027
 20
109.3518452698
 11
424.7401191027
 21
109.3518452698
  0
LINE
  8
0
 62
9
  6
CONTINUOUS
 10
401.5401191027
 20
117.3806769975
 11
407.9901191027
 21
117.3806769975
  0
LINE
  8
0
 62
9
  6
CONTINUOUS
 10
418.2901191027
 20
117.3806769975
 11
424.7401191027
 21
117.3806769975
  0
LINE
  8
DEFAULT_2
 62
8
  6
HIDDEN
 10
401.5401191027
 20
117.7012499259
 11
407.9901191027
 21
117.7012499259
  0
LINE
  8
DEFAULT_2
 62
8
  6
HIDDEN
 10
418.2901191027
 20
117.7012499259
 11
424.7401191027
 21
117.7012499259
  0
LINE
  8
DEFAULT_2
 62
8
  6
HIDDEN
 10
401.5401191027
 20
117.8266302188
 11
407.9901191027
 21
117.8266302188
  0
LINE
  8
DEFAULT_2
 62
8
  6
HIDDEN
 10
418.2901191027
 20
117.8266302188
 11
424.7401191027
 21
117.8266302188
  0
LINE
  8
DEFAULT_2
 62
8
  6
HIDDEN
 10
401.5401191027
 20
118.7148688983
 11
407.9901191027
 21
118.7148688983
  0
LINE
  8
DEFAULT_2
 62
8
  6
HIDDEN
 10
418.2901191027
 20
118.7148688983
 11
424.7401191027
 21
118.7148688983
  0
LINE
  8
DEFAULT_2
 62
8
  6
HIDDEN
 10
401.5401191027
 20
119.9248420314
 11
407.9901191027
 21
119.9248420314
  0
LINE
  8
DEFAULT_2
 62
8
  6
HIDDEN
 10
418.2901191027
 20
119.9248420314
 11
424.7401191027
 21
119.9248420314
  0
LINE
  8
DEFAULT_2
 62
8
  6
HIDDEN
 10
401.5401191027
 20
120.5808691591
 11
407.9901191027
 21
120.5808691591
  0
LINE
  8
DEFAULT_2
 62
8
  6
HIDDEN
 10
418.2901191027
 20
120.5808691591
 11
424.7401191027
 21
120.5808691591
  0
LINE
  8
DEFAULT_2
 62
8
  6
HIDDEN
 10
401.5401191027
 20
121.8346720877
 11
407.9901191027
 21
121.8346720877
  0
LINE
  8
DEFAULT_2
 62
8
  6
HIDDEN
 10
418.2901191027
 20
121.8346720877
 11
424.7401191027
 21
121.8346720877
  0
LINE
  8
0
 62
7
  6
CONTINUOUS
 10
401.5401191027
 20
130.3720560354
 11
407.9901191027
 21
130.3720560354
  0
LINE
  8
0
 62
7
  6
CONTINUOUS
 10
418.2901191027
 20
130.3720560354
 11
424.7401191027
 21
130.3720560354
  0
LINE
  8
0
 62
9
  6
CONTINUOUS
 10
401.5401191027
 20
130.9995807398
 11
407.9901191027
 21
130.9995807398
  0
LINE
  8
0
 62
9
  6
CONTINUOUS
 10
418.2901191027
 20
130.9995807398
 11
424.7401191027
 21
130.9995807398
  0
LINE
  8
DEFAULT_2
 62
8
  6
HIDDEN
 10
401.5401191027
 20
131.1770686191
 11
407.9901191027
 21
131.1770686191
  0
LINE
  8
DEFAULT_2
 62
8
  6
HIDDEN
 10
418.2901191027
 20
131.1770686191
 11
424.7401191027
 21
131.1770686191
  0
LINE
  8
DEFAULT_2
 62
8
  6
HIDDEN
 10
424.7401191027
 20
132.3603727264
 11
418.2901191027
 21
132.3603727264
  0
LINE
  8
DEFAULT_2
 62
8
  6
HIDDEN
 10
407.9901191027
 20
132.3603727264
 11
401.5401191027
 21
132.3603727264
  0
LINE
  8
0
 62
9
  6
CONTINUOUS
 10
401.5401191027
 20
132.6861112483
 11
407.9901191027
 21
132.6861112483
  0
LINE
  8
0
 62
9
  6
CONTINUOUS
 10
418.2901191027
 20
132.6861112483
 11
424.7401191027
 21
132.6861112483
  0
LINE
  8
DEFAULT_2
 62
8
  6
HIDDEN
 10
424.7401191027
 20
132.8015365746
 11
418.2901191027
 21
132.8015365746
  0
LINE
  8
DEFAULT_2
 62
8
  6
HIDDEN
 10
407.9901191027
 20
132.8015365746
 11
401.5401191027
 21
132.8015365746
  0
LINE
  8
DEFAULT_2
 62
8
  6
HIDDEN
 10
401.5401191027
 20
134.7633007844
 11
407.9901191027
 21
134.7633007844
  0
LINE
  8
DEFAULT_2
 62
8
  6
HIDDEN
 10
418.2901191027
 20
134.7633007844
 11
424.7401191027
 21
134.7633007844
  0
LINE
  8
DEFAULT_2
 62
8
  6
HIDDEN
 10
424.7401191027
 20
134.9843903033
 11
418.2901191027
 21
134.9843903033
  0
LINE
  8
DEFAULT_2
 62
8
  6
HIDDEN
 10
407.9901191027
 20
134.9843903033
 11
401.5401191027
 21
134.9843903033
  0
LINE
  8
DEFAULT_2
 62
8
  6
HIDDEN
 10
424.7401191027
 20
135.1904400506
 11
418.2901191027
 21
135.1904400506
  0
LINE
  8
DEFAULT_2
 62
8
  6
HIDDEN
 10
407.9901191027
 20
135.1904400506
 11
401.5401191027
 21
135.1904400506
  0
LINE
  8
DEFAULT_2
 62
8
  6
HIDDEN
 10
401.5401191027
 20
135.3906214628
 11
407.9901191027
 21
135.3906214628
  0
LINE
  8
DEFAULT_2
 62
8
  6
HIDDEN
 10
418.2901191027
 20
135.3906214628
 11
424.7401191027
 21
135.3906214628
  0
LINE
  8
0
 62
9
  6
CONTINUOUS
 10
401.5401191027
 20
136.5605938535
 11
407.9901191027
 21
136.5605938535
  0
LINE
  8
0
 62
9
  6
CONTINUOUS
 10
418.2901191027
 20
136.5605938535
 11
424.7401191027
 21
136.5605938535
  0
LINE
  8
DEFAULT_2
 62
8
  6
HIDDEN
 10
396.5401191027
 20
137.4257990954
 11
429.7401191027
 21
137.4257990954
  0
LINE
  8
DEFAULT_2
 62
8
  6
HIDDEN
 10
396.5401191027
 20
140.8697484675
 11
429.7401191027
 21
140.8697484675
  0
LINE
  8
DEFAULT_2
 62
8
  6
HIDDEN
 10
396.5401191027
 20
141.0465374886
 11
429.7401191027
 21
141.0465374886
  0
LINE
  8
DEFAULT_2
 62
8
  6
HIDDEN
 10
396.5401191027
 20
143.9631098848
 11
429.7401191027
 21
143.9631098848
  0
LINE
  8
DEFAULT_2
 62
8
  6
HIDDEN
 10
396.5401191027
 20
144.2073634652
 11
429.7401191027
 21
144.2073634652
  0
LINE
  8
0
 62
9
  6
CONTINUOUS
 10
401.5401191027
 20
146.9643008134
 11
407.9901191027
 21
146.9643008134
  0
LINE
  8
0
 62
9
  6
CONTINUOUS
 10
418.2901191027
 20
146.9643008134
 11
424.7401191027
 21
146.9643008134
  0
LINE
  8
DEFAULT_2
 62
8
  6
HIDDEN
 10
401.5401191027
 20
150.1701357795
 11
407.9901191027
 21
150.1701357795
  0
LINE
  8
DEFAULT_2
 62
8
  6
HIDDEN
 10
418.2901191027
 20
150.1701357795
 11
424.7401191027
 21
150.1701357795
  0
LINE
  8
DEFAULT_2
 62
8
  6
HIDDEN
 10
401.5401191027
 20
153.0061824047
 11
407.9901191027
 21
153.0061824047
  0
LINE
  8
DEFAULT_2
 62
8
  6
HIDDEN
 10
418.2901191027
 20
153.0061824047
 11
424.7401191027
 21
153.0061824047
  0
LINE
  8
DEFAULT_2
 62
8
  6
HIDDEN
 10
401.5401191027
 20
153.0245552212
 11
407.9901191027
 21
153.0245552212
  0
LINE
  8
DEFAULT_2
 62
8
  6
HIDDEN
 10
418.2901191027
 20
153.0245552212
 11
424.7401191027
 21
153.0245552212
  0
LINE
  8
DEFAULT_2
 62
8
  6
HIDDEN
 10
401.5401191027
 20
154.108555091
 11
407.9901191027
 21
154.108555091
  0
LINE
  8
DEFAULT_2
 62
8
  6
HIDDEN
 10
418.2901191027
 20
154.108555091
 11
424.7401191027
 21
154.108555091
  0
LINE
  8
DEFAULT_2
 62
8
  6
HIDDEN
 10
401.5401191027
 20
154.2922832566
 11
407.9901191027
 21
154.2922832566
  0
LINE
  8
DEFAULT_2
 62
8
  6
HIDDEN
 10
418.2901191027
 20
154.2922832566
 11
424.7401191027
 21
154.2922832566
  0
LINE
  8
DEFAULT_2
 62
8
  6
HIDDEN
 10
401.5401191027
 20
154.3281231524
 11
407.9901191027
 21
154.3281231524
  0
LINE
  8
DEFAULT_2
 62
8
  6
HIDDEN
 10
418.2901191027
 20
154.3281231524
 11
424.7401191027
 21
154.3281231524
  0
LINE
  8
DEFAULT_2
 62
8
  6
HIDDEN
 10
401.5401191027
 20
163.7061966452
 11
407.9901191027
 21
163.7061966452
  0
LINE
  8
DEFAULT_2
 62
8
  6
HIDDEN
 10
418.2901191027
 20
163.7061966452
 11
424.7401191027
 21
163.7061966452
  0
LINE
  8
0
 62
9
  6
CONTINUOUS
 10
424.7401191027
 20
164.57398928
 11
418.2901191027
 21
164.57398928
  0
LINE
  8
0
 62
9
  6
CONTINUOUS
 10
407.9901191027
 20
164.57398928
 11
401.5401191027
 21
164.57398928
  0
LINE
  8
0
 62
9
  6
CONTINUOUS
 10
424.7401191027
 20
165.0162152854
 11
418.2901191027
 21
165.0162152854
  0
LINE
  8
0
 62
9
  6
CONTINUOUS
 10
407.9901191027
 20
165.0162152854
 11
401.5401191027
 21
165.0162152854
  0
LINE
  8
0
 62
7
  6
CONTINUOUS
 10
401.5401191027
 20
166.2069259836
 11
407.9901191027
 21
166.2069259836
  0
LINE
  8
0
 62
7
  6
CONTINUOUS
 10
418.2901191027
 20
166.2069259836
 11
424.7401191027
 21
166.2069259836
  0
LINE
  8
DEFAULT_2
 62
8
  6
HIDDEN
 10
424.7401191027
 20
167.5823137447
 11
418.2901191027
 21
167.5823137447
  0
LINE
  8
DEFAULT_2
 62
8
  6
HIDDEN
 10
407.9901191027
 20
167.5823137447
 11
401.5401191027
 21
167.5823137447
  0
LINE
  8
DEFAULT_2
 62
8
  6
HIDDEN
 10
424.7401191027
 20
167.9009329523
 11
418.2901191027
 21
167.9009329523
  0
LINE
  8
DEFAULT_2
 62
8
  6
HIDDEN
 10
407.9901191027
 20
167.9009329523
 11
401.5401191027
 21
167.9009329523
  0
LINE
  8
DEFAULT_2
 62
8
  6
HIDDEN
 10
401.5401191027
 20
167.9220654014
 11
407.9901191027
 21
167.9220654014
  0
LINE
  8
DEFAULT_2
 62
8
  6
HIDDEN
 10
418.2901191027
 20
167.9220654014
 11
424.7401191027
 21
167.9220654014
  0
LINE
  8
DEFAULT_2
 62
8
  6
HIDDEN
 10
401.5401191027
 20
168.1670853182
 11
407.9901191027
 21
168.1670853182
  0
LINE
  8
DEFAULT_2
 62
8
  6
HIDDEN
 10
418.2901191027
 20
168.1670853182
 11
424.7401191027
 21
168.1670853182
  0
LINE
  8
0
 62
9
  6
CONTINUOUS
 10
401.5401191027
 20
168.7696680507
 11
407.9901191027
 21
168.7696680507
  0
LINE
  8
0
 62
9
  6
CONTINUOUS
 10
418.2901191027
 20
168.7696680507
 11
424.7401191027
 21
168.7696680507
  0
LINE
  8
0
 62
9
  6
CONTINUOUS
 10
401.5401191027
 20
170.4929228329
 11
407.9901191027
 21
170.4929228329
  0
LINE
  8
0
 62
9
  6
CONTINUOUS
 10
418.2901191027
 20
170.4929228329
 11
424.7401191027
 21
170.4929228329
  0
LINE
  8
0
 62
9
  6
CONTINUOUS
 10
401.5401191027
 20
172.8938481132
 11
407.9901191027
 21
172.8938481132
  0
LINE
  8
0
 62
9
  6
CONTINUOUS
 10
418.2901191027
 20
172.8938481132
 11
424.7401191027
 21
172.8938481132
  0
LINE
  8
0
 62
7
  6
CONTINUOUS
 10
396.5401191027
 20
314.1951004285
 11
396.5401191027
 21
90.2487515387
  0
LINE
  8
0
 62
9
  6
CONTINUOUS
 10
401.5401191027
 20
181.9569259836
 11
407.9901191027
 21
181.9569259836
  0
LINE
  8
0
 62
9
  6
CONTINUOUS
 10
418.2901191027
 20
181.9569259836
 11
424.7401191027
 21
181.9569259836
  0
LINE
  8
DEFAULT_2
 62
8
  6
HIDDEN
 10
401.5401191027
 20
185.5106214189
 11
407.9901191027
 21
185.5106214189
  0
LINE
  8
DEFAULT_2
 62
8
  6
HIDDEN
 10
418.2901191027
 20
185.5106214189
 11
424.7401191027
 21
185.5106214189
  0
LINE
  8
DEFAULT_2
 62
8
  6
HIDDEN
 10
396.7401191027
 20
302.1864009066
 11
396.7401191027
 21
312.2046039457
  0
LINE
  8
0
 62
9
  6
CONTINUOUS
 10
398.5401191027
 20
316.1951004285
 11
398.5401191027
 21
88.2487515387
  0
LINE
  8
DEFAULT_2
 62
8
  6
HIDDEN
 10
401.5401191027
 20
295.4978870404
 11
401.5401191027
 21
295.5049591514
  0
LINE
  8
0
 62
7
  6
CONTINUOUS
 10
401.5401191027
 20
70.4021798046
 11
401.5401191027
 21
295.4978870404
  0
LINE
  8
0
 62
7
  6
CONTINUOUS
 10
401.5401191027
 20
295.5049591514
 11
401.5401191027
 21
334.0416721626
  0
LINE
  8
DEFAULT_2
 62
8
  6
HIDDEN
 10
401.5401191027
 20
192.3459129915
 11
407.9901191027
 21
192.3459129915
  0
LINE
  8
DEFAULT_2
 62
8
  6
HIDDEN
 10
418.2901191027
 20
192.3459129915
 11
424.7401191027
 21
192.3459129915
  0
LINE
  8
DEFAULT_2
 62
8
  6
HIDDEN
 10
401.5401191027
 20
193.0382616522
 11
407.9901191027
 21
193.0382616522
  0
LINE
  8
DEFAULT_2
 62
8
  6
HIDDEN
 10
418.2901191027
 20
193.0382616522
 11
424.7401191027
 21
193.0382616522
  0
LINE
  8
DEFAULT_2
 62
8
  6
HIDDEN
 10
401.5401191027
 20
194.6295565235
 11
407.9901191027
 21
194.6295565235
  0
LINE
  8
DEFAULT_2
 62
8
  6
HIDDEN
 10
418.2901191027
 20
194.6295565235
 11
424.7401191027
 21
194.6295565235
  0
LINE
  8
DEFAULT_2
 62
8
  6
HIDDEN
 10
407.9901191027
 20
295.4978870404
 11
407.9901191027
 21
295.5049768961
  0
LINE
  8
0
 62
7
  6
CONTINUOUS
 10
407.9901191027
 20
70.4021724396
 11
407.9901191027
 21
295.4978870404
  0
LINE
  8
0
 62
7
  6
CONTINUOUS
 10
407.9901191027
 20
295.5049768961
 11
407.9901191027
 21
334.0416795275
  0
LINE
  8
0
 62
40
  6
CONTINUOUS
 10
413.1401191027
 20
202.2219259836
 11
413.1401191027
 21
86.0297665425
  0
LINE
  8
PITCH_DIAMETER
 62
40
  6
CONTINUOUS
 10
413.1401191027
 20
331.6728993234
 11
413.1401191027
 21
72.7577755847
  0
LINE
  8
DEFAULT_2
 62
8
  6
HIDDEN
 10
413.1401191027
 20
313.9920396791
 11
413.1401191027
 21
316.1981048216
  0
LINE
  8
0
 62
40
  6
CONTINUOUS
 10
413.1401191027
 20
316.1981047771
 11
413.1401191027
 21
318.6514022871
  0
LINE
  8
0
 62
40
  6
CONTINUOUS
 10
413.1401191027
 20
332.5329658777
 11
413.1401191027
 21
334.2978677688
  0
LINE
  8
DEFAULT_2
 62
8
  6
HIDDEN
 10
396.5401191027
 20
195.4408241706
 11
429.7401191027
 21
195.4408241706
  0
LINE
  8
DEFAULT_2
 62
8
  6
HIDDEN
 10
396.5401191027
 20
196.8868184914
 11
429.7401191027
 21
196.8868184914
  0
LINE
  8
DEFAULT_2
 62
8
  6
HIDDEN
 10
396.5401191027
 20
198.0286989734
 11
429.7401191027
 21
198.0286989734
  0
LINE
  8
DEFAULT_2
 62
8
  6
HIDDEN
 10
396.5401191027
 20
199.6138915713
 11
429.7401191027
 21
199.6138915713
  0
LINE
  8
DEFAULT_2
 62
8
  6
HIDDEN
 10
401.5401191027
 20
199.9710037804
 11
407.9901191027
 21
199.9710037804
  0
LINE
  8
DEFAULT_2
 62
8
  6
HIDDEN
 10
418.2901191027
 20
199.9710037804
 11
424.7401191027
 21
199.9710037804
  0
LINE
  8
DEFAULT_2
 62
8
  6
HIDDEN
 10
401.5401191027
 20
200.0055126138
 11
407.9901191027
 21
200.0055126138
  0
LINE
  8
DEFAULT_2
 62
8
  6
HIDDEN
 10
418.2901191027
 20
200.0055126138
 11
424.7401191027
 21
200.0055126138
  0
LINE
  8
DEFAULT_2
 62
8
  6
HIDDEN
 10
401.5401191027
 20
200.2470744479
 11
407.9901191027
 21
200.2470744479
  0
LINE
  8
DEFAULT_2
 62
8
  6
HIDDEN
 10
418.2901191027
 20
200.2470744479
 11
424.7401191027
 21
200.2470744479
  0
LINE
  8
0
 62
9
  6
CONTINUOUS
 10
424.7401191027
 20
200.4728481867
 11
418.2901191027
 21
200.4728481867
  0
LINE
  8
0
 62
9
  6
CONTINUOUS
 10
407.9901191027
 20
200.4728481867
 11
401.5401191027
 21
200.4728481867
  0
LINE
  8
0
 62
9
  6
CONTINUOUS
 10
424.7401191027
 20
200.8728481867
 11
418.2901191027
 21
200.8728481867
  0
LINE
  8
0
 62
9
  6
CONTINUOUS
 10
407.9901191027
 20
200.8728481867
 11
401.5401191027
 21
200.8728481867
  0
LINE
  8
DEFAULT_1
 62
2
  6
CENTER
 10
394.5401191027
 20
202.2219259836
 11
431.7401191027
 21
202.2219259836
  0
LINE
  8
DEFAULT_2
 62
8
  6
HIDDEN
 10
418.2901191027
 20
295.4978870404
 11
418.2901191027
 21
295.5049768961
  0
LINE
  8
0
 62
7
  6
CONTINUOUS
 10
418.2901191027
 20
70.4021724396
 11
418.2901191027
 21
295.4978870404
  0
LINE
  8
0
 62
7
  6
CONTINUOUS
 10
418.2901191027
 20
295.5049768961
 11
418.2901191027
 21
334.0416795275
  0
LINE
  8
DEFAULT_2
 62
8
  6
HIDDEN
 10
424.7401191027
 20
203.5710037804
 11
418.2901191027
 21
203.5710037804
  0
LINE
  8
DEFAULT_2
 62
8
  6
HIDDEN
 10
407.9901191027
 20
203.5710037804
 11
401.5401191027
 21
203.5710037804
  0
LINE
  8
DEFAULT_2
 62
8
  6
HIDDEN
 10
424.7401191027
 20
203.9710037804
 11
418.2901191027
 21
203.9710037804
  0
LINE
  8
DEFAULT_2
 62
8
  6
HIDDEN
 10
407.9901191027
 20
203.9710037804
 11
401.5401191027
 21
203.9710037804
  0
LINE
  8
0
 62
7
  6
CONTINUOUS
 10
401.5401191027
 20
204.1967775192
 11
407.9901191027
 21
204.1967775192
  0
LINE
  8
0
 62
7
  6
CONTINUOUS
 10
418.2901191027
 20
204.1967775192
 11
424.7401191027
 21
204.1967775192
  0
LINE
  8
DEFAULT_2
 62
8
  6
HIDDEN
 10
401.5401191027
 20
204.4383393533
 11
407.9901191027
 21
204.4383393533
  0
LINE
  8
DEFAULT_2
 62
8
  6
HIDDEN
 10
418.2901191027
 20
204.4383393533
 11
424.7401191027
 21
204.4383393533
  0
LINE
  8
DEFAULT_2
 62
8
  6
HIDDEN
 10
401.5401191027
 20
204.4728481867
 11
407.9901191027
 21
204.4728481867
  0
LINE
  8
DEFAULT_2
 62
8
  6
HIDDEN
 10
418.2901191027
 20
204.4728481867
 11
424.7401191027
 21
204.4728481867
  0
LINE
  8
DEFAULT_2
 62
8
  6
HIDDEN
 10
396.5401191027
 20
204.8299603959
 11
429.7401191027
 21
204.8299603959
  0
LINE
  8
DEFAULT_2
 62
8
  6
HIDDEN
 10
396.5401191027
 20
206.4151529937
 11
429.7401191027
 21
206.4151529937
  0
LINE
  8
DEFAULT_2
 62
8
  6
HIDDEN
 10
396.5401191027
 20
207.5570334758
 11
429.7401191027
 21
207.5570334758
  0
LINE
  8
DEFAULT_2
 62
8
  6
HIDDEN
 10
396.5401191027
 20
209.0030277966
 11
429.7401191027
 21
209.0030277966
  0
LINE
  8
0
 62
9
  6
CONTINUOUS
 10
401.5401191027
 20
209.8142954436
 11
407.9901191027
 21
209.8142954436
  0
LINE
  8
0
 62
9
  6
CONTINUOUS
 10
418.2901191027
 20
209.8142954436
 11
424.7401191027
 21
209.8142954436
  0
LINE
  8
0
 62
9
  6
CONTINUOUS
 10
401.5401191027
 20
211.405590315
 11
407.9901191027
 21
211.405590315
  0
LINE
  8
0
 62
9
  6
CONTINUOUS
 10
418.2901191027
 20
211.405590315
 11
424.7401191027
 21
211.405590315
  0
LINE
  8
0
 62
9
  6
CONTINUOUS
 10
401.5401191027
 20
212.0979389756
 11
407.9901191027
 21
212.0979389756
  0
LINE
  8
0
 62
9
  6
CONTINUOUS
 10
418.2901191027
 20
212.0979389756
 11
424.7401191027
 21
212.0979389756
  0
LINE
  8
0
 62
7
  6
CONTINUOUS
 10
424.7401191027
 20
334.0416721626
 11
424.7401191027
 21
295.5049591514
  0
LINE
  8
0
 62
7
  6
CONTINUOUS
 10
424.7401191027
 20
295.4978870404
 11
424.7401191027
 21
70.4021798046
  0
LINE
  8
DEFAULT_2
 62
8
  6
HIDDEN
 10
424.7401191027
 20
295.4978870404
 11
424.7401191027
 21
295.5049591514
  0
LINE
  8
0
 62
9
  6
CONTINUOUS
 10
427.7401191027
 20
316.1951004285
 11
427.7401191027
 21
88.2487515387
  0
LINE
  8
0
 62
7
  6
CONTINUOUS
 10
429.7401191027
 20
314.1951004285
 11
429.7401191027
 21
90.2487515387
  0
LINE
  8
0
 62
9
  6
CONTINUOUS
 10
401.5401191027
 20
218.9332305483
 11
407.9901191027
 21
218.9332305483
  0
LINE
  8
0
 62
9
  6
CONTINUOUS
 10
418.2901191027
 20
218.9332305483
 11
424.7401191027
 21
218.9332305483
  0
LINE
  8
DEFAULT_2
 62
8
  6
HIDDEN
 10
401.5401191027
 20
222.4869259836
 11
407.9901191027
 21
222.4869259836
  0
LINE
  8
DEFAULT_2
 62
8
  6
HIDDEN
 10
418.2901191027
 20
222.4869259836
 11
424.7401191027
 21
222.4869259836
  0
LINE
  8
DEFAULT_2
 62
8
  6
HIDDEN
 10
401.5401191027
 20
231.5500038539
 11
407.9901191027
 21
231.5500038539
  0
LINE
  8
DEFAULT_2
 62
8
  6
HIDDEN
 10
418.2901191027
 20
231.5500038539
 11
424.7401191027
 21
231.5500038539
  0
LINE
  8
DEFAULT_2
 62
8
  6
HIDDEN
 10
401.5401191027
 20
233.9509291342
 11
407.9901191027
 21
233.9509291342
  0
LINE
  8
DEFAULT_2
 62
8
  6
HIDDEN
 10
418.2901191027
 20
233.9509291342
 11
424.7401191027
 21
233.9509291342
  0
LINE
  8
DEFAULT_2
 62
8
  6
HIDDEN
 10
401.5401191027
 20
235.6741839164
 11
407.9901191027
 21
235.6741839164
  0
LINE
  8
DEFAULT_2
 62
8
  6
HIDDEN
 10
418.2901191027
 20
235.6741839164
 11
424.7401191027
 21
235.6741839164
  0
LINE
  8
DEFAULT_2
 62
8
  6
HIDDEN
 10
401.5401191027
 20
236.2767666489
 11
407.9901191027
 21
236.2767666489
  0
LINE
  8
DEFAULT_2
 62
8
  6
HIDDEN
 10
418.2901191027
 20
236.2767666489
 11
424.7401191027
 21
236.2767666489
  0
LINE
  8
DEFAULT_2
 62
8
  6
HIDDEN
 10
401.5401191027
 20
236.5217865658
 11
407.9901191027
 21
236.5217865658
  0
LINE
  8
DEFAULT_2
 62
8
  6
HIDDEN
 10
418.2901191027
 20
236.5217865658
 11
424.7401191027
 21
236.5217865658
  0
LINE
  8
0
 62
9
  6
CONTINUOUS
 10
424.7401191027
 20
236.5429190148
 11
418.2901191027
 21
236.5429190148
  0
LINE
  8
0
 62
9
  6
CONTINUOUS
 10
407.9901191027
 20
236.5429190148
 11
401.5401191027
 21
236.5429190148
  0
LINE
  8
0
 62
9
  6
CONTINUOUS
 10
424.7401191027
 20
236.8615382224
 11
418.2901191027
 21
236.8615382224
  0
LINE
  8
0
 62
9
  6
CONTINUOUS
 10
407.9901191027
 20
236.8615382224
 11
401.5401191027
 21
236.8615382224
  0
LINE
  8
DEFAULT_2
 62
8
  6
HIDDEN
 10
401.5401191027
 20
238.2369259836
 11
407.9901191027
 21
238.2369259836
  0
LINE
  8
DEFAULT_2
 62
8
  6
HIDDEN
 10
418.2901191027
 20
238.2369259836
 11
424.7401191027
 21
238.2369259836
  0
LINE
  8
DEFAULT_2
 62
8
  6
HIDDEN
 10
424.7401191027
 20
239.4276366818
 11
418.2901191027
 21
239.4276366818
  0
LINE
  8
DEFAULT_2
 62
8
  6
HIDDEN
 10
407.9901191027
 20
239.4276366818
 11
401.5401191027
 21
239.4276366818
  0
LINE
  8
DEFAULT_2
 62
8
  6
HIDDEN
 10
424.7401191027
 20
239.8698626872
 11
418.2901191027
 21
239.8698626872
  0
LINE
  8
DEFAULT_2
 62
8
  6
HIDDEN
 10
407.9901191027
 20
239.8698626872
 11
401.5401191027
 21
239.8698626872
  0
LINE
  8
0
 62
9
  6
CONTINUOUS
 10
401.5401191027
 20
240.7376553219
 11
407.9901191027
 21
240.7376553219
  0
LINE
  8
0
 62
9
  6
CONTINUOUS
 10
418.2901191027
 20
240.7376553219
 11
424.7401191027
 21
240.7376553219
  0
LINE
  8
0
 62
9
  6
CONTINUOUS
 10
401.5401191027
 20
250.1157288147
 11
407.9901191027
 21
250.1157288147
  0
LINE
  8
0
 62
9
  6
CONTINUOUS
 10
418.2901191027
 20
250.1157288147
 11
424.7401191027
 21
250.1157288147
  0
LINE
  8
DEFAULT_2
 62
8
  6
HIDDEN
 10
401.5401191027
 20
250.1515687106
 11
407.9901191027
 21
250.1515687106
  0
LINE
  8
DEFAULT_2
 62
8
  6
HIDDEN
 10
418.2901191027
 20
250.1515687106
 11
424.7401191027
 21
250.1515687106
  0
LINE
  8
DEFAULT_2
 62
8
  6
HIDDEN
 10
401.5401191027
 20
250.3352968761
 11
407.9901191027
 21
250.3352968761
  0
LINE
  8
DEFAULT_2
 62
8
  6
HIDDEN
 10
418.2901191027
 20
250.3352968761
 11
424.7401191027
 21
250.3352968761
  0
LINE
  8
DEFAULT_2
 62
8
  6
HIDDEN
 10
401.5401191027
 20
251.4192967459
 11
407.9901191027
 21
251.4192967459
  0
LINE
  8
DEFAULT_2
 62
8
  6
HIDDEN
 10
418.2901191027
 20
251.4192967459
 11
424.7401191027
 21
251.4192967459
  0
LINE
  8
0
 62
7
  6
CONTINUOUS
 10
401.5401191027
 20
251.4376695624
 11
407.9901191027
 21
251.4376695624
  0
LINE
  8
0
 62
7
  6
CONTINUOUS
 10
418.2901191027
 20
251.4376695624
 11
424.7401191027
 21
251.4376695624
  0
LINE
  8
0
 62
9
  6
CONTINUOUS
 10
401.5401191027
 20
254.2737161876
 11
407.9901191027
 21
254.2737161876
  0
LINE
  8
0
 62
9
  6
CONTINUOUS
 10
418.2901191027
 20
254.2737161876
 11
424.7401191027
 21
254.2737161876
  0
LINE
  8
DEFAULT_2
 62
8
  6
HIDDEN
 10
401.5401191027
 20
257.4795511537
 11
407.9901191027
 21
257.4795511537
  0
LINE
  8
DEFAULT_2
 62
8
  6
HIDDEN
 10
418.2901191027
 20
257.4795511537
 11
424.7401191027
 21
257.4795511537
  0
LINE
  8
DEFAULT_2
 62
8
  6
HIDDEN
 10
396.5401191027
 20
260.2364885019
 11
429.7401191027
 21
260.2364885019
  0
LINE
  8
DEFAULT_2
 62
8
  6
HIDDEN
 10
396.5401191027
 20
260.4807420824
 11
429.7401191027
 21
260.4807420824
  0
LINE
  8
DEFAULT_2
 62
8
  6
HIDDEN
 10
396.5401191027
 20
263.3973144785
 11
429.7401191027
 21
263.3973144785
  0
LINE
  8
DEFAULT_2
 62
8
  6
HIDDEN
 10
396.5401191027
 20
263.5741034996
 11
429.7401191027
 21
263.5741034996
  0
LINE
  8
DEFAULT_2
 62
8
  6
HIDDEN
 10
396.5401191027
 20
267.0180528717
 11
429.7401191027
 21
267.0180528717
  0
LINE
  8
DEFAULT_2
 62
8
  6
HIDDEN
 10
401.5401191027
 20
267.8832581136
 11
407.9901191027
 21
267.8832581136
  0
LINE
  8
DEFAULT_2
 62
8
  6
HIDDEN
 10
418.2901191027
 20
267.8832581136
 11
424.7401191027
 21
267.8832581136
  0
LINE
  8
DEFAULT_2
 62
8
  6
HIDDEN
 10
401.5401191027
 20
269.0532305043
 11
407.9901191027
 21
269.0532305043
  0
LINE
  8
DEFAULT_2
 62
8
  6
HIDDEN
 10
418.2901191027
 20
269.0532305043
 11
424.7401191027
 21
269.0532305043
  0
LINE
  8
0
 62
9
  6
CONTINUOUS
 10
424.7401191027
 20
269.2534119165
 11
418.2901191027
 21
269.2534119165
  0
LINE
  8
0
 62
9
  6
CONTINUOUS
 10
407.9901191027
 20
269.2534119165
 11
401.5401191027
 21
269.2534119165
  0
LINE
  8
0
 62
9
  6
CONTINUOUS
 10
424.7401191027
 20
269.4594616638
 11
418.2901191027
 21
269.4594616638
  0
LINE
  8
0
 62
9
  6
CONTINUOUS
 10
407.9901191027
 20
269.4594616638
 11
401.5401191027
 21
269.4594616638
  0
LINE
  8
DEFAULT_2
 62
8
  6
HIDDEN
 10
401.5401191027
 20
269.6805511827
 11
407.9901191027
 21
269.6805511827
  0
LINE
  8
DEFAULT_2
 62
8
  6
HIDDEN
 10
418.2901191027
 20
269.6805511827
 11
424.7401191027
 21
269.6805511827
  0
LINE
  8
DEFAULT_2
 62
8
  6
HIDDEN
 10
424.7401191027
 20
271.6423153926
 11
418.2901191027
 21
271.6423153926
  0
LINE
  8
DEFAULT_2
 62
8
  6
HIDDEN
 10
407.9901191027
 20
271.6423153926
 11
401.5401191027
 21
271.6423153926
  0
LINE
  8
DEFAULT_2
 62
8
  6
HIDDEN
 10
401.5401191027
 20
271.7577407189
 11
407.9901191027
 21
271.7577407189
  0
LINE
  8
DEFAULT_2
 62
8
  6
HIDDEN
 10
418.2901191027
 20
271.7577407189
 11
424.7401191027
 21
271.7577407189
  0
LINE
  8
DEFAULT_2
 62
8
  6
HIDDEN
 10
424.7401191027
 20
272.0834792408
 11
418.2901191027
 21
272.0834792408
  0
LINE
  8
DEFAULT_2
 62
8
  6
HIDDEN
 10
407.9901191027
 20
272.0834792408
 11
401.5401191027
 21
272.0834792408
  0
LINE
  8
0
 62
9
  6
CONTINUOUS
 10
401.5401191027
 20
273.2667833481
 11
407.9901191027
 21
273.2667833481
  0
LINE
  8
0
 62
9
  6
CONTINUOUS
 10
418.2901191027
 20
273.2667833481
 11
424.7401191027
 21
273.2667833481
  0
LINE
  8
DEFAULT_2
 62
8
  6
HIDDEN
 10
401.5401191027
 20
273.4442712273
 11
407.9901191027
 21
273.4442712273
  0
LINE
  8
DEFAULT_2
 62
8
  6
HIDDEN
 10
418.2901191027
 20
273.4442712273
 11
424.7401191027
 21
273.4442712273
  0
LINE
  8
DEFAULT_2
 62
8
  6
HIDDEN
 10
401.5401191027
 20
274.0717959317
 11
407.9901191027
 21
274.0717959317
  0
LINE
  8
DEFAULT_2
 62
8
  6
HIDDEN
 10
418.2901191027
 20
274.0717959317
 11
424.7401191027
 21
274.0717959317
  0
LINE
  8
DEFAULT_2
 62
8
  6
HIDDEN
 10
401.5401191027
 20
282.6091798795
 11
407.9901191027
 21
282.6091798795
  0
LINE
  8
DEFAULT_2
 62
8
  6
HIDDEN
 10
418.2901191027
 20
282.6091798795
 11
424.7401191027
 21
282.6091798795
  0
LINE
  8
DEFAULT_2
 62
8
  6
HIDDEN
 10
401.5401191027
 20
283.8629828081
 11
407.9901191027
 21
283.8629828081
  0
LINE
  8
DEFAULT_2
 62
8
  6
HIDDEN
 10
418.2901191027
 20
283.8629828081
 11
424.7401191027
 21
283.8629828081
  0
LINE
  8
DEFAULT_2
 62
8
  6
HIDDEN
 10
401.5401191027
 20
284.5190099357
 11
407.9901191027
 21
284.5190099357
  0
LINE
  8
DEFAULT_2
 62
8
  6
HIDDEN
 10
418.2901191027
 20
284.5190099357
 11
424.7401191027
 21
284.5190099357
  0
LINE
  8
0
 62
9
  6
CONTINUOUS
 10
401.5401191027
 20
285.7289830689
 11
407.9901191027
 21
285.7289830689
  0
LINE
  8
0
 62
9
  6
CONTINUOUS
 10
418.2901191027
 20
285.7289830689
 11
424.7401191027
 21
285.7289830689
  0
LINE
  8
DEFAULT_2
 62
8
  6
HIDDEN
 10
401.5401191027
 20
286.6172217484
 11
407.9901191027
 21
286.6172217484
  0
LINE
  8
DEFAULT_2
 62
8
  6
HIDDEN
 10
418.2901191027
 20
286.6172217484
 11
424.7401191027
 21
286.6172217484
  0
LINE
  8
0
 62
7
  6
CONTINUOUS
 10
401.5401191027
 20
286.7426020412
 11
407.9901191027
 21
286.7426020412
  0
LINE
  8
0
 62
7
  6
CONTINUOUS
 10
418.2901191027
 20
286.7426020412
 11
424.7401191027
 21
286.7426020412
  0
LINE
  8
DEFAULT_2
 62
8
  6
HIDDEN
 10
401.5401191027
 20
287.0631749697
 11
407.9901191027
 21
287.0631749697
  0
LINE
  8
DEFAULT_2
 62
8
  6
HIDDEN
 10
418.2901191027
 20
287.0631749697
 11
424.7401191027
 21
287.0631749697
  0
LINE
  8
DEFAULT_2
 62
8
  6
HIDDEN
 10
401.5401191027
 20
295.0920066973
 11
407.9901191027
 21
295.0920066973
  0
LINE
  8
DEFAULT_2
 62
8
  6
HIDDEN
 10
418.2901191027
 20
295.0920066973
 11
424.7401191027
 21
295.0920066973
  0
LINE
  8
DEFAULT_2
 62
8
  6
HIDDEN
 10
401.5401191027
 20
295.3869834383
 11
407.9901191027
 21
295.3869834383
  0
LINE
  8
DEFAULT_2
 62
8
  6
HIDDEN
 10
418.2901191027
 20
295.3869834383
 11
424.7401191027
 21
295.3869834383
  0
LINE
  8
0
 62
9
  6
CONTINUOUS
 10
424.7401191027
 20
295.4023959393
 11
418.2901191027
 21
295.4023959393
  0
LINE
  8
0
 62
9
  6
CONTINUOUS
 10
407.9901191027
 20
295.4023959393
 11
401.5401191027
 21
295.4023959393
  0
LINE
  8
DEFAULT_2
 62
8
  6
HIDDEN
 10
424.7401191027
 20
295.4757066414
 11
418.2901191027
 21
295.4757066414
  0
LINE
  8
DEFAULT_2
 62
8
  6
HIDDEN
 10
407.9901191027
 20
295.4757066414
 11
401.5401191027
 21
295.4757066414
  0
LINE
  8
0
 62
7
  6
CONTINUOUS
 10
424.7401191027
 20
295.4978874421
 11
418.2901191027
 21
295.4978874421
  0
LINE
  8
0
 62
7
  6
CONTINUOUS
 10
407.9901191027
 20
295.4978874421
 11
401.5401191027
 21
295.4978874421
  0
LINE
  8
DEFAULT_2
 62
8
  6
HIDDEN
 10
401.5401191027
 20
296.2359955533
 11
407.9901191027
 21
296.2359955533
  0
LINE
  8
DEFAULT_2
 62
8
  6
HIDDEN
 10
418.2901191027
 20
296.2359955533
 11
424.7401191027
 21
296.2359955533
  0
LINE
  8
DEFAULT_2
 62
8
  6
HIDDEN
 10
424.7401191027
 20
297.0616427077
 11
418.2901191027
 21
297.0616427077
  0
LINE
  8
DEFAULT_2
 62
8
  6
HIDDEN
 10
407.9901191027
 20
297.0616427077
 11
401.5401191027
 21
297.0616427077
  0
LINE
  8
DEFAULT_2
 62
8
  6
HIDDEN
 10
424.7401191027
 20
297.4585602075
 11
418.2901191027
 21
297.4585602075
  0
LINE
  8
DEFAULT_2
 62
8
  6
HIDDEN
 10
407.9901191027
 20
297.4585602075
 11
401.5401191027
 21
297.4585602075
  0
LINE
  8
DEFAULT_2
 62
8
  6
HIDDEN
 10
401.5401191027
 20
297.7891236951
 11
407.9901191027
 21
297.7891236951
  0
LINE
  8
DEFAULT_2
 62
8
  6
HIDDEN
 10
418.2901191027
 20
297.7891236951
 11
424.7401191027
 21
297.7891236951
  0
LINE
  8
0
 62
9
  6
CONTINUOUS
 10
401.5401191027
 20
298.8415457368
 11
407.9901191027
 21
298.8415457368
  0
LINE
  8
0
 62
9
  6
CONTINUOUS
 10
418.2901191027
 20
298.8415457368
 11
424.7401191027
 21
298.8415457368
  0
LINE
  8
DEFAULT_2
 62
8
  6
HIDDEN
 10
396.5401191027
 20
302.1864009066
 11
396.7401191027
 21
302.1864009066
  0
LINE
  8
DEFAULT_2
 62
8
  6
HIDDEN
 10
396.5401191027
 20
302.2415761459
 11
396.7401191027
 21
302.2415761459
  0
LINE
  8
DEFAULT_2
 62
8
  6
HIDDEN
 10
396.5401191027
 20
302.3341405682
 11
396.7401191027
 21
302.3341405682
  0
LINE
  8
DEFAULT_2
 62
8
  6
HIDDEN
 10
396.5401191027
 20
302.3982109868
 11
396.7401191027
 21
302.3982109868
  0
LINE
  8
DEFAULT_2
 62
8
  6
HIDDEN
 10
396.5401191027
 20
302.5546252671
 11
396.7401191027
 21
302.5546252671
  0
LINE
  8
DEFAULT_2
 62
8
  6
HIDDEN
 10
396.5401191027
 20
302.5735038857
 11
396.7401191027
 21
302.5735038857
  0
LINE
  8
DEFAULT_2
 62
8
  6
HIDDEN
 10
396.5401191027
 20
302.6459926204
 11
396.7401191027
 21
302.6459926204
  0
LINE
  8
DEFAULT_2
 62
8
  6
HIDDEN
 10
396.5401191027
 20
302.6563039952
 11
396.7401191027
 21
302.6563039952
  0
LINE
  8
DEFAULT_2
 62
8
  6
HIDDEN
 10
396.5401191027
 20
302.6677433353
 11
396.7401191027
 21
302.6677433353
  0
LINE
  8
DEFAULT_2
 62
8
  6
HIDDEN
 10
396.5401191027
 20
302.6942041574
 11
396.7401191027
 21
302.6942041574
  0
LINE
  8
DEFAULT_2
 62
8
  6
HIDDEN
 10
396.5401191027
 20
302.7175406155
 11
396.7401191027
 21
302.7175406155
  0
LINE
  8
DEFAULT_2
 62
8
  6
HIDDEN
 10
396.5401191027
 20
302.7250181564
 11
396.7401191027
 21
302.7250181564
  0
LINE
  8
DEFAULT_2
 62
8
  6
HIDDEN
 10
401.5401191027
 20
302.7579022728
 11
407.9901191027
 21
302.7579022728
  0
LINE
  8
DEFAULT_2
 62
8
  6
HIDDEN
 10
418.2901191027
 20
302.7579022728
 11
424.7401191027
 21
302.7579022728
  0
LINE
  8
DEFAULT_2
 62
8
  6
HIDDEN
 10
396.5401191027
 20
302.8339538559
 11
396.7401191027
 21
302.8339538559
  0
LINE
  8
DEFAULT_2
 62
8
  6
HIDDEN
 10
396.5401191027
 20
302.8826830513
 11
396.7401191027
 21
302.8826830513
  0
LINE
  8
DEFAULT_2
 62
8
  6
HIDDEN
 10
396.5401191027
 20
302.9167260176
 11
396.7401191027
 21
302.9167260176
  0
LINE
  8
DEFAULT_2
 62
8
  6
HIDDEN
 10
396.5401191027
 20
302.9368282455
 11
396.7401191027
 21
302.9368282455
  0
LINE
  8
DEFAULT_2
 62
8
  6
HIDDEN
 10
396.5401191027
 20
302.9807904119
 11
396.7401191027
 21
302.9807904119
  0
LINE
  8
DEFAULT_2
 62
8
  6
HIDDEN
 10
396.5401191027
 20
303.0261298508
 11
396.7401191027
 21
303.0261298508
  0
LINE
  8
DEFAULT_2
 62
8
  6
HIDDEN
 10
396.5401191027
 20
303.0561512313
 11
396.7401191027
 21
303.0561512313
  0
LINE
  8
DEFAULT_2
 62
8
  6
HIDDEN
 10
396.5401191027
 20
303.0637334427
 11
396.7401191027
 21
303.0637334427
  0
LINE
  8
DEFAULT_2
 62
8
  6
HIDDEN
 10
396.5401191027
 20
303.0756741797
 11
396.7401191027
 21
303.0756741797
  0
LINE
  8
DEFAULT_2
 62
8
  6
HIDDEN
 10
396.5401191027
 20
303.0788978066
 11
396.7401191027
 21
303.0788978066
  0
LINE
  8
DEFAULT_2
 62
8
  6
HIDDEN
 10
396.5401191027
 20
303.0906292614
 11
396.7401191027
 21
303.0906292614
  0
LINE
  8
DEFAULT_2
 62
8
  6
HIDDEN
 10
396.5401191027
 20
303.1014906837
 11
396.7401191027
 21
303.1014906837
  0
LINE
  8
DEFAULT_2
 62
8
  6
HIDDEN
 10
396.5401191027
 20
303.1173119046
 11
396.7401191027
 21
303.1173119046
  0
LINE
  8
DEFAULT_2
 62
8
  6
HIDDEN
 10
396.5401191027
 20
303.1322670219
 11
396.7401191027
 21
303.1322670219
  0
LINE
  8
DEFAULT_2
 62
8
  6
HIDDEN
 10
396.5401191027
 20
303.1365905281
 11
396.7401191027
 21
303.1365905281
  0
LINE
  8
DEFAULT_2
 62
8
  6
HIDDEN
 10
396.5401191027
 20
303.1770052013
 11
396.7401191027
 21
303.1770052013
  0
LINE
  8
DEFAULT_2
 62
8
  6
HIDDEN
 10
396.5401191027
 20
303.2971570114
 11
396.7401191027
 21
303.2971570114
  0
LINE
  8
DEFAULT_2
 62
8
  6
HIDDEN
 10
396.5401191027
 20
303.3088482461
 11
396.7401191027
 21
303.3088482461
  0
LINE
  8
DEFAULT_2
 62
8
  6
HIDDEN
 10
396.5401191027
 20
303.3240125706
 11
396.7401191027
 21
303.3240125706
  0
LINE
  8
DEFAULT_2
 62
8
  6
HIDDEN
 10
396.5401191027
 20
303.3487222609
 11
396.7401191027
 21
303.3487222609
  0
LINE
  8
DEFAULT_2
 62
8
  6
HIDDEN
 10
396.5401191027
 20
303.3504733425
 11
396.7401191027
 21
303.3504733425
  0
LINE
  8
DEFAULT_2
 62
8
  6
HIDDEN
 10
396.5401191027
 20
303.3996327128
 11
396.7401191027
 21
303.3996327128
  0
LINE
  8
DEFAULT_2
 62
8
  6
HIDDEN
 10
396.5401191027
 20
303.4291639569
 11
396.7401191027
 21
303.4291639569
  0
LINE
  8
DEFAULT_2
 62
8
  6
HIDDEN
 10
396.5401191027
 20
303.433262728
 11
396.7401191027
 21
303.433262728
  0
LINE
  8
DEFAULT_2
 62
8
  6
HIDDEN
 10
396.5401191027
 20
303.4748878779
 11
396.7401191027
 21
303.4748878779
  0
LINE
  8
DEFAULT_2
 62
8
  6
HIDDEN
 10
396.5401191027
 20
303.5316077359
 11
396.7401191027
 21
303.5316077359
  0
LINE
  8
DEFAULT_2
 62
8
  6
HIDDEN
 10
396.5401191027
 20
303.5841380461
 11
396.7401191027
 21
303.5841380461
  0
LINE
  8
DEFAULT_2
 62
8
  6
HIDDEN
 10
396.5401191027
 20
303.5979201966
 11
396.7401191027
 21
303.5979201966
  0
LINE
  8
DEFAULT_2
 62
8
  6
HIDDEN
 10
396.5401191027
 20
303.6171251923
 11
396.7401191027
 21
303.6171251923
  0
LINE
  8
DEFAULT_2
 62
8
  6
HIDDEN
 10
396.5401191027
 20
303.6181810089
 11
396.7401191027
 21
303.6181810089
  0
LINE
  8
DEFAULT_2
 62
8
  6
HIDDEN
 10
396.5401191027
 20
303.6530967368
 11
396.7401191027
 21
303.6530967368
  0
LINE
  8
DEFAULT_2
 62
8
  6
HIDDEN
 10
396.5401191027
 20
303.7275848511
 11
396.7401191027
 21
303.7275848511
  0
LINE
  8
DEFAULT_2
 62
8
  6
HIDDEN
 10
396.5401191027
 20
303.7961927269
 11
396.7401191027
 21
303.7961927269
  0
LINE
  8
DEFAULT_2
 62
8
  6
HIDDEN
 10
396.5401191027
 20
303.9839960625
 11
396.7401191027
 21
303.9839960625
  0
LINE
  8
DEFAULT_2
 62
8
  6
HIDDEN
 10
396.5401191027
 20
303.9887977493
 11
396.7401191027
 21
303.9887977493
  0
LINE
  8
DEFAULT_2
 62
8
  6
HIDDEN
 10
396.5401191027
 20
304.0067177284
 11
396.7401191027
 21
304.0067177284
  0
LINE
  8
DEFAULT_2
 62
8
  6
HIDDEN
 10
396.5401191027
 20
304.0464668585
 11
396.7401191027
 21
304.0464668585
  0
LINE
  8
DEFAULT_2
 62
8
  6
HIDDEN
 10
396.5401191027
 20
304.1318935974
 11
396.7401191027
 21
304.1318935974
  0
LINE
  8
DEFAULT_2
 62
8
  6
HIDDEN
 10
396.5401191027
 20
304.138692676
 11
396.7401191027
 21
304.138692676
  0
LINE
  8
DEFAULT_2
 62
8
  6
HIDDEN
 10
396.5401191027
 20
304.1678652129
 11
396.7401191027
 21
304.1678652129
  0
LINE
  8
DEFAULT_2
 62
8
  6
HIDDEN
 10
396.5401191027
 20
304.1870702796
 11
396.7401191027
 21
304.1870702796
  0
LINE
  8
DEFAULT_2
 62
8
  6
HIDDEN
 10
396.5401191027
 20
304.2070333418
 11
396.7401191027
 21
304.2070333418
  0
LINE
  8
DEFAULT_2
 62
8
  6
HIDDEN
 10
401.5401191027
 20
304.242711893
 11
407.9901191027
 21
304.242711893
  0
LINE
  8
DEFAULT_2
 62
8
  6
HIDDEN
 10
418.2901191027
 20
304.242711893
 11
424.7401191027
 21
304.242711893
  0
LINE
  8
DEFAULT_2
 62
8
  6
HIDDEN
 10
396.5401191027
 20
304.2543682897
 11
396.7401191027
 21
304.2543682897
  0
LINE
  8
DEFAULT_2
 62
8
  6
HIDDEN
 10
396.5401191027
 20
304.3259236444
 11
396.7401191027
 21
304.3259236444
  0
LINE
  8
DEFAULT_2
 62
8
  6
HIDDEN
 10
396.5401191027
 20
304.4362680732
 11
396.7401191027
 21
304.4362680732
  0
LINE
  8
DEFAULT_2
 62
8
  6
HIDDEN
 10
396.5401191027
 20
304.4456116762
 11
396.7401191027
 21
304.4456116762
  0
LINE
  8
DEFAULT_2
 62
8
  6
HIDDEN
 10
396.5401191027
 20
304.5512652247
 11
396.7401191027
 21
304.5512652247
  0
LINE
  8
DEFAULT_2
 62
8
  6
HIDDEN
 10
396.5401191027
 20
304.5662203065
 11
396.7401191027
 21
304.5662203065
  0
LINE
  8
DEFAULT_2
 62
8
  6
HIDDEN
 10
396.5401191027
 20
304.6379493859
 11
396.7401191027
 21
304.6379493859
  0
LINE
  8
DEFAULT_2
 62
8
  6
HIDDEN
 10
396.5401191027
 20
304.7093162966
 11
396.7401191027
 21
304.7093162966
  0
LINE
  8
DEFAULT_2
 62
8
  6
HIDDEN
 10
396.5401191027
 20
304.7467040011
 11
396.7401191027
 21
304.7467040011
  0
LINE
  8
DEFAULT_2
 62
8
  6
HIDDEN
 10
396.5401191027
 20
304.8495783907
 11
396.7401191027
 21
304.8495783907
  0
LINE
  8
DEFAULT_2
 62
8
  6
HIDDEN
 10
396.5401191027
 20
304.9286039266
 11
396.7401191027
 21
304.9286039266
  0
LINE
  8
DEFAULT_2
 62
8
  6
HIDDEN
 10
396.5401191027
 20
304.9585140902
 11
396.7401191027
 21
304.9585140902
  0
LINE
  8
DEFAULT_2
 62
8
  6
HIDDEN
 10
396.5401191027
 20
304.9659916311
 11
396.7401191027
 21
304.9659916311
  0
LINE
  8
DEFAULT_2
 62
8
  6
HIDDEN
 10
396.5401191027
 20
305.0272296232
 11
396.7401191027
 21
305.0272296232
  0
LINE
  8
DEFAULT_2
 62
8
  6
HIDDEN
 10
396.5401191027
 20
305.075960722
 11
396.7401191027
 21
305.075960722
  0
LINE
  8
DEFAULT_2
 62
8
  6
HIDDEN
 10
396.5401191027
 20
305.0838914238
 11
396.7401191027
 21
305.0838914238
  0
LINE
  8
DEFAULT_2
 62
8
  6
HIDDEN
 10
396.5401191027
 20
305.1731714053
 11
396.7401191027
 21
305.1731714053
  0
LINE
  8
DEFAULT_2
 62
8
  6
HIDDEN
 10
396.5401191027
 20
305.2164256292
 11
396.7401191027
 21
305.2164256292
  0
LINE
  8
DEFAULT_2
 62
8
  6
HIDDEN
 10
396.5401191027
 20
305.2792613129
 11
396.7401191027
 21
305.2792613129
  0
LINE
  8
DEFAULT_2
 62
8
  6
HIDDEN
 10
396.5401191027
 20
305.2853211887
 11
396.7401191027
 21
305.2853211887
  0
LINE
  8
DEFAULT_2
 62
8
  6
HIDDEN
 10
396.5401191027
 20
305.4419560296
 11
396.7401191027
 21
305.4419560296
  0
LINE
  8
DEFAULT_2
 62
8
  6
HIDDEN
 10
396.5401191027
 20
305.4696953237
 11
396.7401191027
 21
305.4696953237
  0
LINE
  8
DEFAULT_2
 62
8
  6
HIDDEN
 10
396.5401191027
 20
305.4821776301
 11
396.7401191027
 21
305.4821776301
  0
LINE
  8
DEFAULT_2
 62
8
  6
HIDDEN
 10
396.5401191027
 20
305.4868215592
 11
396.7401191027
 21
305.4868215592
  0
LINE
  8
DEFAULT_2
 62
8
  6
HIDDEN
 10
396.5401191027
 20
305.4971327119
 11
396.7401191027
 21
305.4971327119
  0
LINE
  8
DEFAULT_2
 62
8
  6
HIDDEN
 10
396.5401191027
 20
305.557660172
 11
396.7401191027
 21
305.557660172
  0
LINE
  8
DEFAULT_2
 62
8
  6
HIDDEN
 10
396.5401191027
 20
305.6205706418
 11
396.7401191027
 21
305.6205706418
  0
LINE
  8
DEFAULT_2
 62
8
  6
HIDDEN
 10
396.5401191027
 20
305.6336480062
 11
396.7401191027
 21
305.6336480062
  0
LINE
  8
DEFAULT_2
 62
8
  6
HIDDEN
 10
396.5401191027
 20
305.638811037
 11
396.7401191027
 21
305.638811037
  0
LINE
  8
DEFAULT_2
 62
8
  6
HIDDEN
 10
396.5401191027
 20
305.6434564001
 11
396.7401191027
 21
305.6434564001
  0
LINE
  8
DEFAULT_2
 62
8
  6
HIDDEN
 10
396.5401191027
 20
305.7295034567
 11
396.7401191027
 21
305.7295034567
  0
LINE
  8
DEFAULT_2
 62
8
  6
HIDDEN
 10
396.5401191027
 20
305.8225224296
 11
396.7401191027
 21
305.8225224296
  0
LINE
  8
DEFAULT_2
 62
8
  6
HIDDEN
 10
396.5401191027
 20
305.898561436
 11
396.7401191027
 21
305.898561436
  0
LINE
  8
DEFAULT_2
 62
8
  6
HIDDEN
 10
396.5401191027
 20
305.9620273569
 11
396.7401191027
 21
305.9620273569
  0
LINE
  8
DEFAULT_2
 62
8
  6
HIDDEN
 10
396.5401191027
 20
306.0104836651
 11
396.7401191027
 21
306.0104836651
  0
LINE
  8
DEFAULT_2
 62
8
  6
HIDDEN
 10
396.5401191027
 20
306.0595987532
 11
396.7401191027
 21
306.0595987532
  0
LINE
  8
DEFAULT_2
 62
8
  6
HIDDEN
 10
396.5401191027
 20
306.0940023045
 11
396.7401191027
 21
306.0940023045
  0
LINE
  8
DEFAULT_2
 62
8
  6
HIDDEN
 10
396.5401191027
 20
306.1571734961
 11
396.7401191027
 21
306.1571734961
  0
LINE
  8
DEFAULT_2
 62
8
  6
HIDDEN
 10
396.5401191027
 20
306.1768288313
 11
396.7401191027
 21
306.1768288313
  0
LINE
  8
DEFAULT_2
 62
8
  6
HIDDEN
 10
401.5401191027
 20
306.219056872
 11
407.9901191027
 21
306.219056872
  0
LINE
  8
DEFAULT_2
 62
8
  6
HIDDEN
 10
418.2901191027
 20
306.219056872
 11
424.7401191027
 21
306.219056872
  0
LINE
  8
DEFAULT_2
 62
8
  6
HIDDEN
 10
396.5401191027
 20
306.2240719035
 11
396.7401191027
 21
306.2240719035
  0
LINE
  8
DEFAULT_2
 62
8
  6
HIDDEN
 10
396.5401191027
 20
306.2726842818
 11
396.7401191027
 21
306.2726842818
  0
LINE
  8
DEFAULT_2
 62
8
  6
HIDDEN
 10
396.5401191027
 20
306.3073806
 11
396.7401191027
 21
306.3073806
  0
LINE
  8
DEFAULT_2
 62
8
  6
HIDDEN
 10
396.5401191027
 20
306.3102055076
 11
396.7401191027
 21
306.3102055076
  0
LINE
  8
DEFAULT_2
 62
8
  6
HIDDEN
 10
396.5401191027
 20
306.3176917527
 11
396.7401191027
 21
306.3176917527
  0
LINE
  8
DEFAULT_2
 62
8
  6
HIDDEN
 10
396.5401191027
 20
306.3223356818
 11
396.7401191027
 21
306.3223356818
  0
LINE
  8
DEFAULT_2
 62
8
  6
HIDDEN
 10
396.5401191027
 20
306.3326471187
 11
396.7401191027
 21
306.3326471187
  0
LINE
  8
DEFAULT_2
 62
8
  6
HIDDEN
 10
396.5401191027
 20
306.374947254
 11
396.7401191027
 21
306.374947254
  0
LINE
  8
DEFAULT_2
 62
8
  6
HIDDEN
 10
396.5401191027
 20
306.4162925703
 11
396.7401191027
 21
306.4162925703
  0
LINE
  8
DEFAULT_2
 62
8
  6
HIDDEN
 10
396.5401191027
 20
306.4421804552
 11
396.7401191027
 21
306.4421804552
  0
LINE
  8
DEFAULT_2
 62
8
  6
HIDDEN
 10
396.5401191027
 20
306.4458949573
 11
396.7401191027
 21
306.4458949573
  0
LINE
  8
DEFAULT_2
 62
8
  6
HIDDEN
 10
396.5401191027
 20
306.4501873965
 11
396.7401191027
 21
306.4501873965
  0
LINE
  8
DEFAULT_2
 62
8
  6
HIDDEN
 10
396.5401191027
 20
306.5028193764
 11
396.7401191027
 21
306.5028193764
  0
LINE
  8
DEFAULT_2
 62
8
  6
HIDDEN
 10
396.5401191027
 20
306.5576530647
 11
396.7401191027
 21
306.5576530647
  0
LINE
  8
DEFAULT_2
 62
8
  6
HIDDEN
 10
396.5401191027
 20
306.5688175677
 11
396.7401191027
 21
306.5688175677
  0
LINE
  8
DEFAULT_2
 62
8
  6
HIDDEN
 10
396.5401191027
 20
306.5743673714
 11
396.7401191027
 21
306.5743673714
  0
LINE
  8
DEFAULT_2
 62
8
  6
HIDDEN
 10
396.5401191027
 20
306.5821624951
 11
396.7401191027
 21
306.5821624951
  0
LINE
  8
DEFAULT_2
 62
8
  6
HIDDEN
 10
396.5401191027
 20
306.5978775994
 11
396.7401191027
 21
306.5978775994
  0
LINE
  8
DEFAULT_2
 62
8
  6
HIDDEN
 10
396.5401191027
 20
306.6032194834
 11
396.7401191027
 21
306.6032194834
  0
LINE
  8
DEFAULT_2
 62
8
  6
HIDDEN
 10
396.5401191027
 20
306.6078887745
 11
396.7401191027
 21
306.6078887745
  0
LINE
  8
DEFAULT_2
 62
8
  6
HIDDEN
 10
396.5401191027
 20
306.6506715217
 11
396.7401191027
 21
306.6506715217
  0
LINE
  8
DEFAULT_2
 62
8
  6
HIDDEN
 10
396.5401191027
 20
306.6533405525
 11
396.7401191027
 21
306.6533405525
  0
LINE
  8
DEFAULT_2
 62
8
  6
HIDDEN
 10
396.5401191027
 20
306.6576264014
 11
396.7401191027
 21
306.6576264014
  0
LINE
  8
DEFAULT_2
 62
8
  6
HIDDEN
 10
396.5401191027
 20
306.6833030709
 11
396.7401191027
 21
306.6833030709
  0
LINE
  8
DEFAULT_2
 62
8
  6
HIDDEN
 10
396.5401191027
 20
306.6907806118
 11
396.7401191027
 21
306.6907806118
  0
LINE
  8
DEFAULT_2
 62
8
  6
HIDDEN
 10
396.5401191027
 20
306.692785574
 11
396.7401191027
 21
306.692785574
  0
LINE
  8
DEFAULT_2
 62
8
  6
HIDDEN
 10
396.5401191027
 20
306.6993497872
 11
396.7401191027
 21
306.6993497872
  0
LINE
  8
DEFAULT_2
 62
8
  6
HIDDEN
 10
401.5401191027
 20
306.708491709
 11
407.9901191027
 21
306.708491709
  0
LINE
  8
DEFAULT_2
 62
8
  6
HIDDEN
 10
418.2901191027
 20
306.708491709
 11
424.7401191027
 21
306.708491709
  0
LINE
  8
DEFAULT_2
 62
8
  6
HIDDEN
 10
396.5401191027
 20
306.7275611041
 11
396.7401191027
 21
306.7275611041
  0
LINE
  8
DEFAULT_2
 62
8
  6
HIDDEN
 10
396.5401191027
 20
306.7623286069
 11
396.7401191027
 21
306.7623286069
  0
LINE
  8
DEFAULT_2
 62
8
  6
HIDDEN
 10
396.5401191027
 20
306.7750088403
 11
396.7401191027
 21
306.7750088403
  0
LINE
  8
DEFAULT_2
 62
8
  6
HIDDEN
 10
396.5401191027
 20
306.7833449986
 11
396.7401191027
 21
306.7833449986
  0
LINE
  8
DEFAULT_2
 62
8
  6
HIDDEN
 10
396.5401191027
 20
306.8189434269
 11
396.7401191027
 21
306.8189434269
  0
LINE
  8
DEFAULT_2
 62
8
  6
HIDDEN
 10
396.5401191027
 20
306.8247605971
 11
396.7401191027
 21
306.8247605971
  0
LINE
  8
DEFAULT_2
 62
8
  6
HIDDEN
 10
396.5401191027
 20
306.8538245268
 11
396.7401191027
 21
306.8538245268
  0
LINE
  8
DEFAULT_2
 62
8
  6
HIDDEN
 10
396.5401191027
 20
306.8630434171
 11
396.7401191027
 21
306.8630434171
  0
LINE
  8
DEFAULT_2
 62
8
  6
HIDDEN
 10
396.5401191027
 20
306.8645004988
 11
396.7401191027
 21
306.8645004988
  0
LINE
  8
DEFAULT_2
 62
8
  6
HIDDEN
 10
396.5401191027
 20
306.8695243316
 11
396.7401191027
 21
306.8695243316
  0
LINE
  8
DEFAULT_2
 62
8
  6
HIDDEN
 10
396.5401191027
 20
306.8807560206
 11
396.7401191027
 21
306.8807560206
  0
LINE
  8
DEFAULT_2
 62
8
  6
HIDDEN
 10
396.5401191027
 20
306.9442611382
 11
396.7401191027
 21
306.9442611382
  0
LINE
  8
DEFAULT_2
 62
8
  6
HIDDEN
 10
396.5401191027
 20
306.9779850177
 11
396.7401191027
 21
306.9779850177
  0
LINE
  8
DEFAULT_2
 62
8
  6
HIDDEN
 10
396.5401191027
 20
306.9865285428
 11
396.7401191027
 21
306.9865285428
  0
LINE
  8
DEFAULT_2
 62
8
  6
HIDDEN
 10
396.5401191027
 20
307.0175325858
 11
396.7401191027
 21
307.0175325858
  0
LINE
  8
DEFAULT_2
 62
8
  6
HIDDEN
 10
396.5401191027
 20
307.0206083704
 11
396.7401191027
 21
307.0206083704
  0
LINE
  8
DEFAULT_2
 62
8
  6
HIDDEN
 10
396.5401191027
 20
307.0336475355
 11
396.7401191027
 21
307.0336475355
  0
LINE
  8
DEFAULT_2
 62
8
  6
HIDDEN
 10
396.5401191027
 20
307.0414379981
 11
396.7401191027
 21
307.0414379981
  0
LINE
  8
DEFAULT_2
 62
8
  6
HIDDEN
 10
396.5401191027
 20
307.0548994073
 11
396.7401191027
 21
307.0548994073
  0
LINE
  8
DEFAULT_2
 62
8
  6
HIDDEN
 10
396.5401191027
 20
307.0623155934
 11
396.7401191027
 21
307.0623155934
  0
LINE
  8
DEFAULT_2
 62
8
  6
HIDDEN
 10
396.5401191027
 20
307.0715347594
 11
396.7401191027
 21
307.0715347594
  0
LINE
  8
DEFAULT_2
 62
8
  6
HIDDEN
 10
396.5401191027
 20
307.0741806236
 11
396.7401191027
 21
307.0741806236
  0
LINE
  8
DEFAULT_2
 62
8
  6
HIDDEN
 10
396.5401191027
 20
307.0865773536
 11
396.7401191027
 21
307.0865773536
  0
LINE
  8
DEFAULT_2
 62
8
  6
HIDDEN
 10
396.5401191027
 20
307.1131811311
 11
396.7401191027
 21
307.1131811311
  0
LINE
  8
DEFAULT_2
 62
8
  6
HIDDEN
 10
396.5401191027
 20
307.1441696229
 11
396.7401191027
 21
307.1441696229
  0
LINE
  8
DEFAULT_2
 62
8
  6
HIDDEN
 10
396.5401191027
 20
307.1536817591
 11
396.7401191027
 21
307.1536817591
  0
LINE
  8
DEFAULT_2
 62
8
  6
HIDDEN
 10
396.5401191027
 20
307.1597202799
 11
396.7401191027
 21
307.1597202799
  0
LINE
  8
DEFAULT_2
 62
8
  6
HIDDEN
 10
396.5401191027
 20
307.1667450104
 11
396.7401191027
 21
307.1667450104
  0
LINE
  8
DEFAULT_2
 62
8
  6
HIDDEN
 10
396.5401191027
 20
307.167895642
 11
396.7401191027
 21
307.167895642
  0
LINE
  8
DEFAULT_2
 62
8
  6
HIDDEN
 10
396.5401191027
 20
307.1716837317
 11
396.7401191027
 21
307.1716837317
  0
LINE
  8
DEFAULT_2
 62
8
  6
HIDDEN
 10
396.5401191027
 20
307.1923112891
 11
396.7401191027
 21
307.1923112891
  0
LINE
  8
DEFAULT_2
 62
8
  6
HIDDEN
 10
396.5401191027
 20
307.207257216
 11
396.7401191027
 21
307.207257216
  0
LINE
  8
DEFAULT_2
 62
8
  6
HIDDEN
 10
396.5401191027
 20
307.2219216926
 11
396.7401191027
 21
307.2219216926
  0
LINE
  8
DEFAULT_2
 62
8
  6
HIDDEN
 10
396.5401191027
 20
307.2536549687
 11
396.7401191027
 21
307.2536549687
  0
LINE
  8
DEFAULT_2
 62
8
  6
HIDDEN
 10
396.5401191027
 20
307.2578493739
 11
396.7401191027
 21
307.2578493739
  0
LINE
  8
DEFAULT_2
 62
8
  6
HIDDEN
 10
396.5401191027
 20
307.2671269477
 11
396.7401191027
 21
307.2671269477
  0
LINE
  8
DEFAULT_2
 62
8
  6
HIDDEN
 10
396.5401191027
 20
307.2922846258
 11
396.7401191027
 21
307.2922846258
  0
LINE
  8
DEFAULT_2
 62
8
  6
HIDDEN
 10
396.5401191027
 20
307.3327618115
 11
396.7401191027
 21
307.3327618115
  0
LINE
  8
DEFAULT_2
 62
8
  6
HIDDEN
 10
396.5401191027
 20
307.3623641892
 11
396.7401191027
 21
307.3623641892
  0
LINE
  8
DEFAULT_2
 62
8
  6
HIDDEN
 10
396.5401191027
 20
307.3744176366
 11
396.7401191027
 21
307.3744176366
  0
LINE
  8
DEFAULT_2
 62
8
  6
HIDDEN
 10
396.5401191027
 20
307.431883314
 11
396.7401191027
 21
307.431883314
  0
LINE
  8
DEFAULT_2
 62
8
  6
HIDDEN
 10
396.5401191027
 20
307.4361645809
 11
396.7401191027
 21
307.4361645809
  0
LINE
  8
DEFAULT_2
 62
8
  6
HIDDEN
 10
396.5401191027
 20
307.442493663
 11
396.7401191027
 21
307.442493663
  0
LINE
  8
DEFAULT_2
 62
8
  6
HIDDEN
 10
396.5401191027
 20
307.4712171294
 11
396.7401191027
 21
307.4712171294
  0
LINE
  8
DEFAULT_2
 62
8
  6
HIDDEN
 10
396.5401191027
 20
307.4857750462
 11
396.7401191027
 21
307.4857750462
  0
LINE
  8
DEFAULT_2
 62
8
  6
HIDDEN
 10
396.5401191027
 20
307.491372665
 11
396.7401191027
 21
307.491372665
  0
LINE
  8
DEFAULT_2
 62
8
  6
HIDDEN
 10
396.5401191027
 20
307.5089136093
 11
396.7401191027
 21
307.5089136093
  0
LINE
  8
DEFAULT_2
 62
8
  6
HIDDEN
 10
396.5401191027
 20
307.5157172371
 11
396.7401191027
 21
307.5157172371
  0
LINE
  8
DEFAULT_2
 62
8
  6
HIDDEN
 10
396.5401191027
 20
307.5424669997
 11
396.7401191027
 21
307.5424669997
  0
LINE
  8
DEFAULT_2
 62
8
  6
HIDDEN
 10
396.5401191027
 20
307.5508966402
 11
396.7401191027
 21
307.5508966402
  0
LINE
  8
DEFAULT_2
 62
8
  6
HIDDEN
 10
396.5401191027
 20
307.5545709274
 11
396.7401191027
 21
307.5545709274
  0
LINE
  8
DEFAULT_2
 62
8
  6
HIDDEN
 10
396.5401191027
 20
307.5560819932
 11
396.7401191027
 21
307.5560819932
  0
LINE
  8
DEFAULT_2
 62
8
  6
HIDDEN
 10
396.5401191027
 20
307.6390728588
 11
396.7401191027
 21
307.6390728588
  0
LINE
  8
DEFAULT_2
 62
8
  6
HIDDEN
 10
396.5401191027
 20
307.6726623688
 11
396.7401191027
 21
307.6726623688
  0
LINE
  8
DEFAULT_2
 62
8
  6
HIDDEN
 10
396.5401191027
 20
307.6771210119
 11
396.7401191027
 21
307.6771210119
  0
LINE
  8
DEFAULT_2
 62
8
  6
HIDDEN
 10
396.5401191027
 20
307.6792955649
 11
396.7401191027
 21
307.6792955649
  0
LINE
  8
DEFAULT_2
 62
8
  6
HIDDEN
 10
396.5401191027
 20
307.6873708994
 11
396.7401191027
 21
307.6873708994
  0
LINE
  8
DEFAULT_2
 62
8
  6
HIDDEN
 10
396.5401191027
 20
307.7094939148
 11
396.7401191027
 21
307.7094939148
  0
LINE
  8
DEFAULT_2
 62
8
  6
HIDDEN
 10
396.5401191027
 20
307.7259666313
 11
396.7401191027
 21
307.7259666313
  0
LINE
  8
DEFAULT_2
 62
8
  6
HIDDEN
 10
396.5401191027
 20
307.7269961769
 11
396.7401191027
 21
307.7269961769
  0
LINE
  8
DEFAULT_2
 62
8
  6
HIDDEN
 10
396.5401191027
 20
307.7426218591
 11
396.7401191027
 21
307.7426218591
  0
LINE
  8
DEFAULT_2
 62
8
  6
HIDDEN
 10
396.5401191027
 20
307.7587608906
 11
396.7401191027
 21
307.7587608906
  0
LINE
  8
DEFAULT_2
 62
8
  6
HIDDEN
 10
396.5401191027
 20
307.7789390165
 11
396.7401191027
 21
307.7789390165
  0
LINE
  8
DEFAULT_2
 62
8
  6
HIDDEN
 10
396.5401191027
 20
307.7804667344
 11
396.7401191027
 21
307.7804667344
  0
LINE
  8
DEFAULT_2
 62
8
  6
HIDDEN
 10
396.5401191027
 20
307.8024162879
 11
396.7401191027
 21
307.8024162879
  0
LINE
  8
DEFAULT_2
 62
8
  6
HIDDEN
 10
396.5401191027
 20
307.8248579951
 11
396.7401191027
 21
307.8248579951
  0
LINE
  8
DEFAULT_2
 62
8
  6
HIDDEN
 10
396.5401191027
 20
307.8909084427
 11
396.7401191027
 21
307.8909084427
  0
LINE
  8
DEFAULT_2
 62
8
  6
HIDDEN
 10
396.5401191027
 20
307.95956406
 11
396.7401191027
 21
307.95956406
  0
LINE
  8
DEFAULT_2
 62
8
  6
HIDDEN
 10
396.5401191027
 20
307.9624644191
 11
396.7401191027
 21
307.9624644191
  0
LINE
  8
DEFAULT_2
 62
8
  6
HIDDEN
 10
396.5401191027
 20
308.0158079536
 11
396.7401191027
 21
308.0158079536
  0
LINE
  8
DEFAULT_2
 62
8
  6
HIDDEN
 10
396.5401191027
 20
308.0275250922
 11
396.7401191027
 21
308.0275250922
  0
LINE
  8
DEFAULT_2
 62
8
  6
HIDDEN
 10
396.5401191027
 20
308.0465871433
 11
396.7401191027
 21
308.0465871433
  0
LINE
  8
DEFAULT_2
 62
8
  6
HIDDEN
 10
396.5401191027
 20
308.0578693983
 11
396.7401191027
 21
308.0578693983
  0
LINE
  8
DEFAULT_2
 62
8
  6
HIDDEN
 10
396.5401191027
 20
308.0723446131
 11
396.7401191027
 21
308.0723446131
  0
LINE
  8
DEFAULT_2
 62
8
  6
HIDDEN
 10
396.5401191027
 20
308.0824568447
 11
396.7401191027
 21
308.0824568447
  0
LINE
  8
DEFAULT_2
 62
8
  6
HIDDEN
 10
396.5401191027
 20
308.0927445915
 11
396.7401191027
 21
308.0927445915
  0
LINE
  8
DEFAULT_2
 62
8
  6
HIDDEN
 10
396.5401191027
 20
308.1099134374
 11
396.7401191027
 21
308.1099134374
  0
LINE
  8
DEFAULT_2
 62
8
  6
HIDDEN
 10
396.5401191027
 20
308.1389935043
 11
396.7401191027
 21
308.1389935043
  0
LINE
  8
DEFAULT_2
 62
8
  6
HIDDEN
 10
396.5401191027
 20
308.1418212525
 11
396.7401191027
 21
308.1418212525
  0
LINE
  8
DEFAULT_2
 62
8
  6
HIDDEN
 10
396.5401191027
 20
308.1945991798
 11
396.7401191027
 21
308.1945991798
  0
LINE
  8
DEFAULT_2
 62
8
  6
HIDDEN
 10
396.5401191027
 20
308.2743554579
 11
396.7401191027
 21
308.2743554579
  0
LINE
  8
DEFAULT_2
 62
8
  6
HIDDEN
 10
396.5401191027
 20
308.2844860267
 11
396.7401191027
 21
308.2844860267
  0
LINE
  8
DEFAULT_2
 62
8
  6
HIDDEN
 10
401.5401191027
 20
308.3419462111
 11
407.9901191027
 21
308.3419462111
  0
LINE
  8
DEFAULT_2
 62
8
  6
HIDDEN
 10
418.2901191027
 20
308.3419462111
 11
424.7401191027
 21
308.3419462111
  0
LINE
  8
DEFAULT_2
 62
8
  6
HIDDEN
 10
396.5401191027
 20
308.3524469846
 11
396.7401191027
 21
308.3524469846
  0
LINE
  8
DEFAULT_2
 62
8
  6
HIDDEN
 10
396.5401191027
 20
308.3635191727
 11
396.7401191027
 21
308.3635191727
  0
LINE
  8
DEFAULT_2
 62
8
  6
HIDDEN
 10
396.5401191027
 20
308.3969488915
 11
396.7401191027
 21
308.3969488915
  0
LINE
  8
DEFAULT_2
 62
8
  6
HIDDEN
 10
396.5401191027
 20
308.4758006972
 11
396.7401191027
 21
308.4758006972
  0
LINE
  8
DEFAULT_2
 62
8
  6
HIDDEN
 10
396.5401191027
 20
308.6083349026
 11
396.7401191027
 21
308.6083349026
  0
LINE
  8
DEFAULT_2
 62
8
  6
HIDDEN
 10
396.5401191027
 20
308.6110379442
 11
396.7401191027
 21
308.6110379442
  0
LINE
  8
DEFAULT_2
 62
8
  6
HIDDEN
 10
396.5401191027
 20
308.6505471062
 11
396.7401191027
 21
308.6505471062
  0
LINE
  8
DEFAULT_2
 62
8
  6
HIDDEN
 10
396.5401191027
 20
308.6709984943
 11
396.7401191027
 21
308.6709984943
  0
LINE
  8
DEFAULT_2
 62
8
  6
HIDDEN
 10
396.5401191027
 20
308.6744321877
 11
396.7401191027
 21
308.6744321877
  0
LINE
  8
DEFAULT_2
 62
8
  6
HIDDEN
 10
396.5401191027
 20
308.6928145108
 11
396.7401191027
 21
308.6928145108
  0
LINE
  8
DEFAULT_2
 62
8
  6
HIDDEN
 10
396.5401191027
 20
308.7941202195
 11
396.7401191027
 21
308.7941202195
  0
LINE
  8
DEFAULT_2
 62
8
  6
HIDDEN
 10
396.5401191027
 20
308.8154052096
 11
396.7401191027
 21
308.8154052096
  0
LINE
  8
DEFAULT_2
 62
8
  6
HIDDEN
 10
396.5401191027
 20
308.8604404731
 11
396.7401191027
 21
308.8604404731
  0
LINE
  8
DEFAULT_2
 62
8
  6
HIDDEN
 10
396.5401191027
 20
308.9579221299
 11
396.7401191027
 21
308.9579221299
  0
LINE
  8
DEFAULT_2
 62
8
  6
HIDDEN
 10
396.5401191027
 20
308.9831797703
 11
396.7401191027
 21
308.9831797703
  0
LINE
  8
DEFAULT_2
 62
8
  6
HIDDEN
 10
396.5401191027
 20
309.0306711583
 11
396.7401191027
 21
309.0306711583
  0
LINE
  8
DEFAULT_2
 62
8
  6
HIDDEN
 10
396.5401191027
 20
309.1026750642
 11
396.7401191027
 21
309.1026750642
  0
LINE
  8
DEFAULT_2
 62
8
  6
HIDDEN
 10
396.5401191027
 20
309.1275864856
 11
396.7401191027
 21
309.1275864856
  0
LINE
  8
DEFAULT_2
 62
8
  6
HIDDEN
 10
396.5401191027
 20
309.1449424688
 11
396.7401191027
 21
309.1449424688
  0
LINE
  8
DEFAULT_2
 62
8
  6
HIDDEN
 10
396.5401191027
 20
309.1488397651
 11
396.7401191027
 21
309.1488397651
  0
LINE
  8
DEFAULT_2
 62
8
  6
HIDDEN
 10
396.5401191027
 20
309.1828063866
 11
396.7401191027
 21
309.1828063866
  0
LINE
  8
DEFAULT_2
 62
8
  6
HIDDEN
 10
396.5401191027
 20
309.1921117071
 11
396.7401191027
 21
309.1921117071
  0
LINE
  8
DEFAULT_2
 62
8
  6
HIDDEN
 10
396.5401191027
 20
309.2698787839
 11
396.7401191027
 21
309.2698787839
  0
LINE
  8
DEFAULT_2
 62
8
  6
HIDDEN
 10
396.5401191027
 20
309.3117997389
 11
396.7401191027
 21
309.3117997389
  0
LINE
  8
DEFAULT_2
 62
8
  6
HIDDEN
 10
396.5401191027
 20
309.3581696884
 11
396.7401191027
 21
309.3581696884
  0
LINE
  8
DEFAULT_2
 62
8
  6
HIDDEN
 10
401.5401191027
 20
309.3990732714
 11
407.9901191027
 21
309.3990732714
  0
LINE
  8
DEFAULT_2
 62
8
  6
HIDDEN
 10
418.2901191027
 20
309.3990732714
 11
424.7401191027
 21
309.3990732714
  0
LINE
  8
DEFAULT_2
 62
8
  6
HIDDEN
 10
396.5401191027
 20
309.4319704023
 11
396.7401191027
 21
309.4319704023
  0
LINE
  8
DEFAULT_2
 62
8
  6
HIDDEN
 10
396.5401191027
 20
309.4503624715
 11
396.7401191027
 21
309.4503624715
  0
LINE
  8
DEFAULT_2
 62
8
  6
HIDDEN
 10
396.5401191027
 20
309.5332103926
 11
396.7401191027
 21
309.5332103926
  0
LINE
  8
DEFAULT_2
 62
8
  6
HIDDEN
 10
396.5401191027
 20
309.5725777679
 11
396.7401191027
 21
309.5725777679
  0
LINE
  8
DEFAULT_2
 62
8
  6
HIDDEN
 10
396.5401191027
 20
309.6008903952
 11
396.7401191027
 21
309.6008903952
  0
LINE
  8
DEFAULT_2
 62
8
  6
HIDDEN
 10
396.5401191027
 20
309.6155382781
 11
396.7401191027
 21
309.6155382781
  0
LINE
  8
DEFAULT_2
 62
8
  6
HIDDEN
 10
396.5401191027
 20
309.6266531724
 11
396.7401191027
 21
309.6266531724
  0
LINE
  8
DEFAULT_2
 62
8
  6
HIDDEN
 10
396.5401191027
 20
309.6589901371
 11
396.7401191027
 21
309.6589901371
  0
LINE
  8
DEFAULT_2
 62
8
  6
HIDDEN
 10
396.5401191027
 20
309.6855759896
 11
396.7401191027
 21
309.6855759896
  0
LINE
  8
DEFAULT_2
 62
8
  6
HIDDEN
 10
396.5401191027
 20
309.7256390282
 11
396.7401191027
 21
309.7256390282
  0
LINE
  8
DEFAULT_2
 62
8
  6
HIDDEN
 10
396.5401191027
 20
309.7455780657
 11
396.7401191027
 21
309.7455780657
  0
LINE
  8
DEFAULT_2
 62
8
  6
HIDDEN
 10
396.5401191027
 20
309.7489022838
 11
396.7401191027
 21
309.7489022838
  0
LINE
  8
DEFAULT_2
 62
8
  6
HIDDEN
 10
396.5401191027
 20
309.7859427847
 11
396.7401191027
 21
309.7859427847
  0
LINE
  8
DEFAULT_2
 62
8
  6
HIDDEN
 10
396.5401191027
 20
309.9069818034
 11
396.7401191027
 21
309.9069818034
  0
LINE
  8
DEFAULT_2
 62
8
  6
HIDDEN
 10
396.5401191027
 20
309.9174306571
 11
396.7401191027
 21
309.9174306571
  0
LINE
  8
DEFAULT_2
 62
8
  6
HIDDEN
 10
396.5401191027
 20
309.974411982
 11
396.7401191027
 21
309.974411982
  0
LINE
  8
DEFAULT_2
 62
8
  6
HIDDEN
 10
396.5401191027
 20
310.0150229885
 11
396.7401191027
 21
310.0150229885
  0
LINE
  8
DEFAULT_2
 62
8
  6
HIDDEN
 10
396.5401191027
 20
310.0322770794
 11
396.7401191027
 21
310.0322770794
  0
LINE
  8
DEFAULT_2
 62
8
  6
HIDDEN
 10
396.5401191027
 20
310.052867568
 11
396.7401191027
 21
310.052867568
  0
LINE
  8
DEFAULT_2
 62
8
  6
HIDDEN
 10
396.5401191027
 20
310.1027145894
 11
396.7401191027
 21
310.1027145894
  0
LINE
  8
DEFAULT_2
 62
8
  6
HIDDEN
 10
396.5401191027
 20
310.1161938622
 11
396.7401191027
 21
310.1161938622
  0
LINE
  8
DEFAULT_2
 62
8
  6
HIDDEN
 10
396.5401191027
 20
310.1598525679
 11
396.7401191027
 21
310.1598525679
  0
LINE
  8
DEFAULT_2
 62
8
  6
HIDDEN
 10
396.5401191027
 20
310.1894248515
 11
396.7401191027
 21
310.1894248515
  0
LINE
  8
DEFAULT_2
 62
8
  6
HIDDEN
 10
396.5401191027
 20
310.1989803315
 11
396.7401191027
 21
310.1989803315
  0
LINE
  8
DEFAULT_2
 62
8
  6
HIDDEN
 10
396.5401191027
 20
310.2573858093
 11
396.7401191027
 21
310.2573858093
  0
LINE
  8
DEFAULT_2
 62
8
  6
HIDDEN
 10
396.5401191027
 20
310.3335211307
 11
396.7401191027
 21
310.3335211307
  0
LINE
  8
DEFAULT_2
 62
8
  6
HIDDEN
 10
396.5401191027
 20
310.3823623728
 11
396.7401191027
 21
310.3823623728
  0
LINE
  8
DEFAULT_2
 62
8
  6
HIDDEN
 10
396.5401191027
 20
310.4203096476
 11
396.7401191027
 21
310.4203096476
  0
LINE
  8
DEFAULT_2
 62
8
  6
HIDDEN
 10
396.5401191027
 20
310.4331254597
 11
396.7401191027
 21
310.4331254597
  0
LINE
  8
DEFAULT_2
 62
8
  6
HIDDEN
 10
396.5401191027
 20
310.4486643446
 11
396.7401191027
 21
310.4486643446
  0
LINE
  8
DEFAULT_2
 62
8
  6
HIDDEN
 10
396.5401191027
 20
310.4627278374
 11
396.7401191027
 21
310.4627278374
  0
LINE
  8
DEFAULT_2
 62
8
  6
HIDDEN
 10
396.5401191027
 20
310.4735138016
 11
396.7401191027
 21
310.4735138016
  0
LINE
  8
DEFAULT_2
 62
8
  6
HIDDEN
 10
396.5401191027
 20
310.4993981517
 11
396.7401191027
 21
310.4993981517
  0
LINE
  8
DEFAULT_2
 62
8
  6
HIDDEN
 10
396.5401191027
 20
310.5143467438
 11
396.7401191027
 21
310.5143467438
  0
LINE
  8
DEFAULT_2
 62
8
  6
HIDDEN
 10
396.5401191027
 20
310.5456367061
 11
396.7401191027
 21
310.5456367061
  0
LINE
  8
DEFAULT_2
 62
8
  6
HIDDEN
 10
396.5401191027
 20
310.5823077017
 11
396.7401191027
 21
310.5823077017
  0
LINE
  8
DEFAULT_2
 62
8
  6
HIDDEN
 10
396.5401191027
 20
310.5944779482
 11
396.7401191027
 21
310.5944779482
  0
LINE
  8
DEFAULT_2
 62
8
  6
HIDDEN
 10
396.5401191027
 20
310.6357693691
 11
396.7401191027
 21
310.6357693691
  0
LINE
  8
DEFAULT_2
 62
8
  6
HIDDEN
 10
396.5401191027
 20
310.6443021044
 11
396.7401191027
 21
310.6443021044
  0
LINE
  8
DEFAULT_2
 62
8
  6
HIDDEN
 10
396.5401191027
 20
310.6823085178
 11
396.7401191027
 21
310.6823085178
  0
LINE
  8
DEFAULT_2
 62
8
  6
HIDDEN
 10
396.5401191027
 20
310.744275314
 11
396.7401191027
 21
310.744275314
  0
LINE
  8
DEFAULT_2
 62
8
  6
HIDDEN
 10
396.5401191027
 20
310.7548857371
 11
396.7401191027
 21
310.7548857371
  0
LINE
  8
DEFAULT_2
 62
8
  6
HIDDEN
 10
396.5401191027
 20
310.7898427303
 11
396.7401191027
 21
310.7898427303
  0
LINE
  8
DEFAULT_2
 62
8
  6
HIDDEN
 10
396.5401191027
 20
310.7946753748
 11
396.7401191027
 21
310.7946753748
  0
LINE
  8
DEFAULT_2
 62
8
  6
HIDDEN
 10
396.5401191027
 20
310.8089611061
 11
396.7401191027
 21
310.8089611061
  0
LINE
  8
DEFAULT_2
 62
8
  6
HIDDEN
 10
396.5401191027
 20
310.8173543889
 11
396.7401191027
 21
310.8173543889
  0
LINE
  8
DEFAULT_2
 62
8
  6
HIDDEN
 10
396.5401191027
 20
310.8301076391
 11
396.7401191027
 21
310.8301076391
  0
LINE
  8
DEFAULT_2
 62
8
  6
HIDDEN
 10
396.5401191027
 20
310.8512285107
 11
396.7401191027
 21
310.8512285107
  0
LINE
  8
DEFAULT_2
 62
8
  6
HIDDEN
 10
396.5401191027
 20
310.8944843512
 11
396.7401191027
 21
310.8944843512
  0
LINE
  8
DEFAULT_2
 62
8
  6
HIDDEN
 10
396.5401191027
 20
310.9289310311
 11
396.7401191027
 21
310.9289310311
  0
LINE
  8
DEFAULT_2
 62
8
  6
HIDDEN
 10
396.5401191027
 20
310.9331140083
 11
396.7401191027
 21
310.9331140083
  0
LINE
  8
DEFAULT_2
 62
8
  6
HIDDEN
 10
396.5401191027
 20
310.9390823876
 11
396.7401191027
 21
310.9390823876
  0
LINE
  8
DEFAULT_2
 62
8
  6
HIDDEN
 10
396.5401191027
 20
310.9579149673
 11
396.7401191027
 21
310.9579149673
  0
LINE
  8
DEFAULT_2
 62
8
  6
HIDDEN
 10
396.5401191027
 20
310.9780073453
 11
396.7401191027
 21
310.9780073453
  0
LINE
  8
DEFAULT_2
 62
8
  6
HIDDEN
 10
396.5401191027
 20
310.9944576879
 11
396.7401191027
 21
310.9944576879
  0
LINE
  8
DEFAULT_2
 62
8
  6
HIDDEN
 10
396.5401191027
 20
311.033087345
 11
396.7401191027
 21
311.033087345
  0
LINE
  8
DEFAULT_2
 62
8
  6
HIDDEN
 10
396.5401191027
 20
311.0917352957
 11
396.7401191027
 21
311.0917352957
  0
LINE
  8
DEFAULT_2
 62
8
  6
HIDDEN
 10
396.5401191027
 20
311.0961398247
 11
396.7401191027
 21
311.0961398247
  0
LINE
  8
DEFAULT_2
 62
8
  6
HIDDEN
 10
396.5401191027
 20
311.1068567995
 11
396.7401191027
 21
311.1068567995
  0
LINE
  8
DEFAULT_2
 62
8
  6
HIDDEN
 10
396.5401191027
 20
311.1118400897
 11
396.7401191027
 21
311.1118400897
  0
LINE
  8
DEFAULT_2
 62
8
  6
HIDDEN
 10
396.5401191027
 20
311.1654669304
 11
396.7401191027
 21
311.1654669304
  0
LINE
  8
DEFAULT_2
 62
8
  6
HIDDEN
 10
396.5401191027
 20
311.1976119848
 11
396.7401191027
 21
311.1976119848
  0
LINE
  8
DEFAULT_2
 62
8
  6
HIDDEN
 10
396.5401191027
 20
311.2466341769
 11
396.7401191027
 21
311.2466341769
  0
LINE
  8
DEFAULT_2
 62
8
  6
HIDDEN
 10
396.5401191027
 20
311.2512635148
 11
396.7401191027
 21
311.2512635148
  0
LINE
  8
DEFAULT_2
 62
8
  6
HIDDEN
 10
396.5401191027
 20
311.2725167944
 11
396.7401191027
 21
311.2725167944
  0
LINE
  8
DEFAULT_2
 62
8
  6
HIDDEN
 10
396.5401191027
 20
311.2794299528
 11
396.7401191027
 21
311.2794299528
  0
LINE
  8
DEFAULT_2
 62
8
  6
HIDDEN
 10
396.5401191027
 20
311.3064834159
 11
396.7401191027
 21
311.3064834159
  0
LINE
  8
DEFAULT_2
 62
8
  6
HIDDEN
 10
396.5401191027
 20
311.3122257288
 11
396.7401191027
 21
311.3122257288
  0
LINE
  8
DEFAULT_2
 62
8
  6
HIDDEN
 10
396.5401191027
 20
311.3245958947
 11
396.7401191027
 21
311.3245958947
  0
LINE
  8
DEFAULT_2
 62
8
  6
HIDDEN
 10
396.5401191027
 20
311.3447864326
 11
396.7401191027
 21
311.3447864326
  0
LINE
  8
DEFAULT_2
 62
8
  6
HIDDEN
 10
396.5401191027
 20
311.3495946269
 11
396.7401191027
 21
311.3495946269
  0
LINE
  8
DEFAULT_2
 62
8
  6
HIDDEN
 10
396.5401191027
 20
311.3678254853
 11
396.7401191027
 21
311.3678254853
  0
LINE
  8
DEFAULT_2
 62
8
  6
HIDDEN
 10
396.5401191027
 20
311.3791970046
 11
396.7401191027
 21
311.3791970046
  0
LINE
  8
DEFAULT_2
 62
8
  6
HIDDEN
 10
396.5401191027
 20
311.3935558131
 11
396.7401191027
 21
311.3935558131
  0
LINE
  8
DEFAULT_2
 62
8
  6
HIDDEN
 10
396.5401191027
 20
311.4117600997
 11
396.7401191027
 21
311.4117600997
  0
LINE
  8
DEFAULT_2
 62
8
  6
HIDDEN
 10
396.5401191027
 20
311.4347986056
 11
396.7401191027
 21
311.4347986056
  0
LINE
  8
DEFAULT_2
 62
8
  6
HIDDEN
 10
396.5401191027
 20
311.5291425015
 11
396.7401191027
 21
311.5291425015
  0
LINE
  8
DEFAULT_2
 62
8
  6
HIDDEN
 10
396.5401191027
 20
311.5542142093
 11
396.7401191027
 21
311.5542142093
  0
LINE
  8
DEFAULT_2
 62
8
  6
HIDDEN
 10
396.5401191027
 20
311.5788801376
 11
396.7401191027
 21
311.5788801376
  0
LINE
  8
DEFAULT_2
 62
8
  6
HIDDEN
 10
396.5401191027
 20
311.6291158382
 11
396.7401191027
 21
311.6291158382
  0
LINE
  8
DEFAULT_2
 62
8
  6
HIDDEN
 10
396.5401191027
 20
311.6383038431
 11
396.7401191027
 21
311.6383038431
  0
LINE
  8
DEFAULT_2
 62
8
  6
HIDDEN
 10
396.5401191027
 20
311.6568874218
 11
396.7401191027
 21
311.6568874218
  0
LINE
  8
DEFAULT_2
 62
8
  6
HIDDEN
 10
396.5401191027
 20
311.6729713782
 11
396.7401191027
 21
311.6729713782
  0
LINE
  8
DEFAULT_2
 62
8
  6
HIDDEN
 10
396.5401191027
 20
311.6794749603
 11
396.7401191027
 21
311.6794749603
  0
LINE
  8
DEFAULT_2
 62
8
  6
HIDDEN
 10
396.5401191027
 20
311.8178584175
 11
396.7401191027
 21
311.8178584175
  0
LINE
  8
DEFAULT_2
 62
8
  6
HIDDEN
 10
396.5401191027
 20
311.8343738415
 11
396.7401191027
 21
311.8343738415
  0
LINE
  8
DEFAULT_2
 62
8
  6
HIDDEN
 10
401.5401191027
 20
311.8442383913
 11
407.9901191027
 21
311.8442383913
  0
LINE
  8
DEFAULT_2
 62
8
  6
HIDDEN
 10
418.2901191027
 20
311.8442383913
 11
424.7401191027
 21
311.8442383913
  0
LINE
  8
DEFAULT_2
 62
8
  6
HIDDEN
 10
396.5401191027
 20
311.8669345453
 11
396.7401191027
 21
311.8669345453
  0
LINE
  8
DEFAULT_2
 62
8
  6
HIDDEN
 10
396.5401191027
 20
311.8713969352
 11
396.7401191027
 21
311.8713969352
  0
LINE
  8
DEFAULT_2
 62
8
  6
HIDDEN
 10
396.5401191027
 20
311.9499569638
 11
396.7401191027
 21
311.9499569638
  0
LINE
  8
DEFAULT_2
 62
8
  6
HIDDEN
 10
401.5401191027
 20
311.9993168414
 11
407.9901191027
 21
311.9993168414
  0
LINE
  8
DEFAULT_2
 62
8
  6
HIDDEN
 10
418.2901191027
 20
311.9993168414
 11
424.7401191027
 21
311.9993168414
  0
LINE
  8
DEFAULT_2
 62
8
  6
HIDDEN
 10
396.5401191027
 20
312.0242884501
 11
396.7401191027
 21
312.0242884501
  0
LINE
  8
DEFAULT_2
 62
8
  6
HIDDEN
 10
396.5401191027
 20
312.0688814891
 11
396.7401191027
 21
312.0688814891
  0
LINE
  8
DEFAULT_2
 62
8
  6
HIDDEN
 10
396.5401191027
 20
312.2046039457
 11
396.7401191027
 21
312.2046039457
  0
LINE
  8
DEFAULT_2
 62
8
  6
HIDDEN
 10
424.7401191027
 20
312.3636218308
 11
418.2901191027
 21
312.3636218308
  0
LINE
  8
DEFAULT_2
 62
8
  6
HIDDEN
 10
407.9901191027
 20
312.3636218308
 11
401.5401191027
 21
312.3636218308
  0
LINE
  8
DEFAULT_2
 62
8
  6
HIDDEN
 10
424.7401191027
 20
312.4302263364
 11
418.2901191027
 21
312.4302263364
  0
LINE
  8
DEFAULT_2
 62
8
  6
HIDDEN
 10
407.9901191027
 20
312.4302263364
 11
401.5401191027
 21
312.4302263364
  0
LINE
  8
DEFAULT_2
 62
8
  6
HIDDEN
 10
424.7401191027
 20
312.4546980782
 11
418.2901191027
 21
312.4546980782
  0
LINE
  8
DEFAULT_2
 62
8
  6
HIDDEN
 10
407.9901191027
 20
312.4546980782
 11
401.5401191027
 21
312.4546980782
  0
LINE
  8
0
 62
9
  6
CONTINUOUS
 10
401.5401191027
 20
313.1679847477
 11
407.9901191027
 21
313.1679847477
  0
LINE
  8
0
 62
9
  6
CONTINUOUS
 10
418.2901191027
 20
313.1679847477
 11
424.7401191027
 21
313.1679847477
  0
LINE
  8
DEFAULT_2
 62
8
  6
HIDDEN
 10
424.7401191027
 20
313.1973977628
 11
418.2901191027
 21
313.1973977628
  0
LINE
  8
DEFAULT_2
 62
8
  6
HIDDEN
 10
407.9901191027
 20
313.1973977628
 11
401.5401191027
 21
313.1973977628
  0
LINE
  8
DEFAULT_2
 62
8
  6
HIDDEN
 10
424.7401191027
 20
313.5112158638
 11
418.2901191027
 21
313.5112158638
  0
LINE
  8
DEFAULT_2
 62
8
  6
HIDDEN
 10
407.9901191027
 20
313.5112158638
 11
401.5401191027
 21
313.5112158638
  0
LINE
  8
DEFAULT_2
 62
8
  6
HIDDEN
 10
401.5401191027
 20
313.5539471848
 11
407.9901191027
 21
313.5539471848
  0
LINE
  8
DEFAULT_2
 62
8
  6
HIDDEN
 10
418.2901191027
 20
313.5539471848
 11
424.7401191027
 21
313.5539471848
  0
LINE
  8
DEFAULT_2
 62
8
  6
HIDDEN
 10
401.5401191027
 20
313.5886877599
 11
407.9901191027
 21
313.5886877599
  0
LINE
  8
DEFAULT_2
 62
8
  6
HIDDEN
 10
418.2901191027
 20
313.5886877599
 11
424.7401191027
 21
313.5886877599
  0
LINE
  8
0
 62
7
  6
CONTINUOUS
 10
401.5401191027
 20
313.8719488247
 11
407.9901191027
 21
313.8719488247
  0
LINE
  8
0
 62
7
  6
CONTINUOUS
 10
418.2901191027
 20
313.8719488247
 11
424.7401191027
 21
313.8719488247
  0
LINE
  8
0
 62
9
  6
CONTINUOUS
 10
401.5401191027
 20
314.9585065555
 11
407.9901191027
 21
314.9585065555
  0
LINE
  8
0
 62
9
  6
CONTINUOUS
 10
418.2901191027
 20
314.9585065555
 11
424.7401191027
 21
314.9585065555
  0
LINE
  8
0
 62
7
  6
CONTINUOUS
 10
418.2901191027
 20
316.1951004285
 11
407.9901191027
 21
316.1951004285
  0
LINE
  8
0
 62
7
  6
CONTINUOUS
 10
398.5401191027
 20
316.1951004285
 11
401.5401191027
 21
316.1951004285
  0
LINE
  8
0
 62
7
  6
CONTINUOUS
 10
424.7401191027
 20
316.1951004285
 11
427.7401191027
 21
316.1951004285
  0
LINE
  8
DEFAULT_2
 62
8
  6
HIDDEN
 10
401.5401191027
 20
317.6701004285
 11
407.9901191027
 21
317.6701004285
  0
LINE
  8
DEFAULT_2
 62
8
  6
HIDDEN
 10
418.2901191027
 20
317.6701004285
 11
424.7401191027
 21
317.6701004285
  0
LINE
  8
DEFAULT_2
 62
8
  6
HIDDEN
 10
401.5401191027
 20
318.3402061086
 11
407.9901191027
 21
318.3402061086
  0
LINE
  8
DEFAULT_2
 62
8
  6
HIDDEN
 10
418.2901191027
 20
318.3402061086
 11
424.7401191027
 21
318.3402061086
  0
LINE
  8
DEFAULT_2
 62
8
  6
HIDDEN
 10
424.7401191027
 20
318.4701004285
 11
418.2901191027
 21
318.4701004285
  0
LINE
  8
DEFAULT_2
 62
8
  6
HIDDEN
 10
407.9901191027
 20
318.4701004285
 11
401.5401191027
 21
318.4701004285
  0
LINE
  8
DEFAULT_2
 62
8
  6
HIDDEN
 10
424.7401191027
 20
318.6701004285
 11
418.2901191027
 21
318.6701004285
  0
LINE
  8
DEFAULT_2
 62
8
  6
HIDDEN
 10
407.9901191027
 20
318.6701004285
 11
401.5401191027
 21
318.6701004285
  0
LINE
  8
DEFAULT_2
 62
8
  6
HIDDEN
 10
401.5401191027
 20
319.2329504911
 11
407.9901191027
 21
319.2329504911
  0
LINE
  8
DEFAULT_2
 62
8
  6
HIDDEN
 10
418.2901191027
 20
319.2329504911
 11
424.7401191027
 21
319.2329504911
  0
LINE
  8
DEFAULT_2
 62
8
  6
HIDDEN
 10
401.5401191027
 20
320.0400253859
 11
407.9901191027
 21
320.0400253859
  0
LINE
  8
DEFAULT_2
 62
8
  6
HIDDEN
 10
418.2901191027
 20
320.0400253859
 11
424.7401191027
 21
320.0400253859
  0
LINE
  8
DEFAULT_2
 62
8
  6
HIDDEN
 10
401.5401191027
 20
323.9169019921
 11
407.9901191027
 21
323.9169019921
  0
LINE
  8
DEFAULT_2
 62
8
  6
HIDDEN
 10
418.2901191027
 20
323.9169019921
 11
424.7401191027
 21
323.9169019921
  0
LINE
  8
DEFAULT_2
 62
8
  6
HIDDEN
 10
401.5401191027
 20
324.4439178111
 11
407.9901191027
 21
324.4439178111
  0
LINE
  8
DEFAULT_2
 62
8
  6
HIDDEN
 10
418.2901191027
 20
324.4439178111
 11
424.7401191027
 21
324.4439178111
  0
LINE
  8
DEFAULT_2
 62
8
  6
HIDDEN
 10
401.5401191027
 20
325.0544708065
 11
407.9901191027
 21
325.0544708065
  0
LINE
  8
DEFAULT_2
 62
8
  6
HIDDEN
 10
418.2901191027
 20
325.0544708065
 11
424.7401191027
 21
325.0544708065
  0
LINE
  8
DEFAULT_2
 62
8
  6
HIDDEN
 10
401.5401191027
 20
325.1077109875
 11
407.9901191027
 21
325.1077109875
  0
LINE
  8
DEFAULT_2
 62
8
  6
HIDDEN
 10
418.2901191027
 20
325.1077109875
 11
424.7401191027
 21
325.1077109875
  0
LINE
  8
DEFAULT_2
 62
8
  6
HIDDEN
 10
401.5401191027
 20
327.52482222
 11
407.9901191027
 21
327.52482222
  0
LINE
  8
DEFAULT_2
 62
8
  6
HIDDEN
 10
418.2901191027
 20
327.52482222
 11
424.7401191027
 21
327.52482222
  0
LINE
  8
DEFAULT_2
 62
8
  6
HIDDEN
 10
401.5401191027
 20
329.5927186902
 11
407.9901191027
 21
329.5927186902
  0
LINE
  8
DEFAULT_2
 62
8
  6
HIDDEN
 10
418.2901191027
 20
329.5927186902
 11
424.7401191027
 21
329.5927186902
  0
LINE
  8
0
 62
9
  6
CONTINUOUS
 10
401.5401191027
 20
329.746813188
 11
407.9901191027
 21
329.746813188
  0
LINE
  8
0
 62
9
  6
CONTINUOUS
 10
418.2901191027
 20
329.746813188
 11
424.7401191027
 21
329.746813188
  0
LINE
  8
0
 62
7
  6
CONTINUOUS
 10
401.5401191027
 20
330.1701004285
 11
407.9901191027
 21
330.1701004285
  0
LINE
  8
0
 62
7
  6
CONTINUOUS
 10
418.2901191027
 20
330.1701004285
 11
424.7401191027
 21
330.1701004285
  0
LINE
  8
DEFAULT_2
 62
8
  6
HIDDEN
 10
401.5401191027
 20
333.163549561
 11
407.9901191027
 21
333.163549561
  0
LINE
  8
DEFAULT_2
 62
8
  6
HIDDEN
 10
418.2901191027
 20
333.163549561
 11
424.7401191027
 21
333.163549561
  0
LINE
  8
0
 62
9
  6
CONTINUOUS
 10
401.5401191027
 20
333.8426171506
 11
407.9901191027
 21
333.8426171506
  0
LINE
  8
0
 62
9
  6
CONTINUOUS
 10
418.2901191027
 20
333.8426171506
 11
424.7401191027
 21
333.8426171506
  0
LINE
  8
0
 62
7
  6
CONTINUOUS
 10
401.5401191027
 20
334.0416802176
 11
407.9901191027
 21
334.0416802176
  0
LINE
  8
0
 62
7
  6
CONTINUOUS
 10
418.2901191027
 20
334.0416802176
 11
424.7401191027
 21
334.0416802176
  0
ARC
  8
0
 62
7
  6
CONTINUOUS
 10
100.8712238792
 20
114.1999344216
 40
14.0
 50
270.7803337598
 51
334.6589448352
  0
ARC
  8
0
 62
7
  6
CONTINUOUS
 10
94.1816926813
 20
111.5028244745
 40
10.0
 50
331.0
 51
36.0
  0
ARC
  8
0
 62
7
  6
CONTINUOUS
 10
89.4038891225
 20
133.3906214628
 40
2.0
 50
342.8698976458
 51
136.6589448352
  0
ARC
  8
0
 62
7
  6
CONTINUOUS
 10
115.3316414032
 20
107.3518452698
 40
2.0
 50
0.8698976458
 51
154.6589448352
  0
ARC
  8
0
 62
7
  6
CONTINUOUS
 10
73.9189237361
 20
131.9547575466
 40
1.0
 50
133.0
 51
252.7803337598
  0
ARC
  8
0
 62
7
  6
CONTINUOUS
 10
101.0482705196
 20
101.2011400741
 40
1.0
 50
151.0
 51
270.7803337598
  0
ARC
  8
0
 62
7
  6
CONTINUOUS
 10
91.7929851187
 20
132.6542653525
 40
0.5
 50
162.8698976458
 51
216.0
  0
ARC
  8
0
 62
7
  6
CONTINUOUS
 10
117.8313532704
 20
107.3898002568
 40
0.5
 50
180.8698976458
 51
234.0
  0
ARC
  8
0
 62
7
  6
CONTINUOUS
 10
65.1180380065
 20
180.2069259836
 40
14.0
 50
234.7803337598
 51
298.6589448352
  0
ARC
  8
0
 62
7
  6
CONTINUOUS
 10
77.7673907348
 20
144.3720560354
 40
14.0
 50
252.7803337598
 51
316.6589448352
  0
ARC
  8
0
 62
7
  6
CONTINUOUS
 10
58.1207721324
 20
181.9569259836
 40
10.0
 50
295.0
 51
360.0
  0
ARC
  8
0
 62
7
  6
CONTINUOUS
 10
70.5718156888
 20
143.8741308697
 40
10.0
 50
313.0
 51
18.0
  0
ARC
  8
0
 62
7
  6
CONTINUOUS
 10
72.7915557194
 20
166.1670853182
 40
2.0
 50
324.8698976459
 51
118.6589448352
  0
ARC
  8
0
 62
7
  6
CONTINUOUS
 10
57.6207721324
 20
169.5866150459
 40
1.0
 50
115.0
 51
234.7803337598
  0
ARC
  8
0
 62
7
  6
CONTINUOUS
 10
68.6207721324
 20
200.4728481867
 40
0.5
 50
126.8698976458
 51
180.0
  0
ARC
  8
0
 62
7
  6
CONTINUOUS
 10
74.8361744826
 20
164.7284977772
 40
0.5
 50
144.8698976458
 51
198.0
  0
ARC
  8
0
 62
7
  6
CONTINUOUS
 10
132.1679732776
 20
92.6440186271
 40
14.0
 50
288.7803337598
 51
352.6589448352
  0
ARC
  8
0
 62
7
  6
CONTINUOUS
 10
168.5940950416
 20
81.8143518788
 40
14.0
 50
306.7803337598
 51
10.6589448352
  0
ARC
  8
0
 62
7
  6
CONTINUOUS
 10
126.6393038502
 20
88.0117358123
 40
10.0
 50
349.0
 51
54.0
  0
ARC
  8
0
 62
7
  6
CONTINUOUS
 10
164.7674720688
 20
75.7003363131
 40
10.0
 50
7.0
 51
72.0
  0
ARC
  8
0
 62
7
  6
CONTINUOUS
 10
148.0368235191
 20
90.5996135758
 40
2.0
 50
18.8698976458
 51
172.6589448352
  0
ARC
  8
0
 62
7
  6
CONTINUOUS
 10
184.3180243741
 20
84.7737515387
 40
2.0
 50
36.8698976458
 51
190.6589448352
  0
ARC
  8
0
 62
7
  6
CONTINUOUS
 10
136.3532029984
 20
80.3361409796
 40
1.0
 50
169.0
 51
288.7803337598
  0
ARC
  8
0
 62
7
  6
CONTINUOUS
 10
176.3778283975
 20
71.4021717495
 40
1.0
 50
187.0
 51
306.7803337598
  0
ARC
  8
0
 62
7
  6
CONTINUOUS
 10
150.4024620432
 20
91.4081643615
 40
0.5
 50
198.8698976458
 51
252.0
  0
ARC
  8
0
 62
7
  6
CONTINUOUS
 10
176.7123719615
 20
140.1329813855
 40
5.3
 50
7.9907170002
 51
46.2750109252
  0
ARC
  8
0
 62
7
  6
CONTINUOUS
 10
122.8910364533
 20
191.6106956713
 40
5.3
 50
46.2750109252
 51
84.5593048503
  0
ARC
  8
0
 62
7
  6
CONTINUOUS
 10
123.7728196891
 20
200.8687979782
 40
4.0
 50
97.990717
 51
264.5593048505
  0
ARC
  8
0
 62
7
  6
CONTINUOUS
 10
74.9910392207
 20
254.6228992832
 40
14.0
 50
198.7803337598
 51
262.6589448352
  0
ARC
  8
0
 62
7
  6
CONTINUOUS
 10
64.1613724725
 20
218.1967775192
 40
14.0
 50
216.7803337598
 51
280.6589448352
  0
ARC
  8
0
 62
7
  6
CONTINUOUS
 10
70.3587564059
 20
260.1515687106
 40
10.0
 50
259.0
 51
324.0
  0
ARC
  8
0
 62
7
  6
CONTINUOUS
 10
58.0473569068
 20
222.023400492
 40
10.0
 50
277.0
 51
342.0
  0
ARC
  8
0
 62
7
  6
CONTINUOUS
 10
72.9466341695
 20
238.7540490418
 40
2.0
 50
288.8698976458
 51
82.6589448352
  0
ARC
  8
0
 62
7
  6
CONTINUOUS
 10
67.1207721324
 20
202.4728481867
 40
2.0
 50
306.8698976458
 51
100.6589448352
  0
ARC
  8
0
 62
7
  6
CONTINUOUS
 10
62.6831615733
 20
250.4376695624
 40
1.0
 50
79.0
 51
198.7803337598
  0
ARC
  8
0
 62
7
  6
CONTINUOUS
 10
53.7491923432
 20
210.4130441633
 40
1.0
 50
97.0
 51
216.7803337598
  0
ARC
  8
0
 62
7
  6
CONTINUOUS
 10
73.7551849552
 20
236.3884105176
 40
0.5
 50
108.8698976458
 51
162.0
  0
ARC
  8
0
 62
7
  6
CONTINUOUS
 10
96.5469550152
 20
285.9196486816
 40
14.0
 50
180.7803337598
 51
244.6589448352
  0
ARC
  8
0
 62
7
  6
CONTINUOUS
 10
93.8498450682
 20
292.6091798795
 40
10.0
 50
241.0
 51
306.0
  0
ARC
  8
0
 62
7
  6
CONTINUOUS
 10
115.7376420565
 20
297.3869834383
 40
2.0
 50
252.8698976458
 51
46.6589448352
  0
ARC
  8
0
 62
7
  6
CONTINUOUS
 10
89.6988658635
 20
271.4592311576
 40
2.0
 50
270.8698976458
 51
64.6589448352
  0
ARC
  8
0
 62
7
  6
CONTINUOUS
 10
83.5481606678
 20
285.7426020412
 40
1.0
 50
61.0
 51
180.7803337598
  0
ARC
  8
0
 62
7
  6
CONTINUOUS
 10
114.3017781403
 20
312.8719488247
 40
1.0
 50
43.0
 51
162.7803337598
  0
ARC
  8
0
 62
7
  6
CONTINUOUS
 10
89.7368208505
 20
268.9595192904
 40
0.5
 50
90.8698976458
 51
144.0
  0
ARC
  8
0
 62
7
  6
CONTINUOUS
 10
115.0012859462
 20
294.9978874421
 40
0.5
 50
72.8698976458
 51
126.0
  0
ARC
  8
0
 62
7
  6
CONTINUOUS
 10
122.4800019792
 20
210.0785005993
 40
5.3
 50
277.9907170002
 51
316.2750109252
  0
ARC
  8
0
 62
7
  6
CONTINUOUS
 10
173.957716265
 20
263.8998361075
 40
5.3
 50
316.2750109252
 51
354.5593048503
  0
ARC
  8
0
 62
7
  6
CONTINUOUS
 10
183.2158185719
 20
263.0180528717
 40
4.0
 50
7.990717
 51
174.5593048505
  0
ARC
  8
0
 62
7
  6
CONTINUOUS
 10
162.5539465772
 20
321.6728345543
 40
14.0
 50
144.7803337598
 51
208.6589448352
  0
ARC
  8
0
 62
7
  6
CONTINUOUS
 10
126.7190766291
 20
309.023481826
 40
14.0
 50
162.7803337598
 51
226.6589448352
  0
ARC
  8
0
 62
7
  6
CONTINUOUS
 10
164.3039465772
 20
328.6701004285
 40
10.0
 50
205.0
 51
270.0
  0
ARC
  8
0
 62
7
  6
CONTINUOUS
 10
126.2211514634
 20
316.219056872
 40
10.0
 50
223.0
 51
288.0
  0
ARC
  8
0
 62
7
  6
CONTINUOUS
 10
148.5141059119
 20
313.9993168414
 40
2.0
 50
234.8698976458
 51
28.6589448352
  0
ARC
  8
0
 62
7
  6
CONTINUOUS
 10
151.9336356396
 20
329.1701004285
 40
1.0
 50
25.0
 51
144.7803337598
  0
ARC
  8
0
 62
7
  6
CONTINUOUS
 10
182.8198687804
 20
318.1701004285
 40
0.5
 50
36.8698976459
 51
90.0
  0
ARC
  8
0
 62
7
  6
CONTINUOUS
 10
147.0755183708
 20
311.9546980782
 40
0.5
 50
54.8698976458
 51
108.0
  0
ARC
  8
0
 62
7
  6
CONTINUOUS
 10
206.5839465772
 20
82.7710174128
 40
14.0
 50
324.7803337598
 51
28.6589448352
  0
ARC
  8
0
 62
7
  6
CONTINUOUS
 10
242.4188165254
 20
95.4203701411
 40
14.0
 50
342.7803337598
 51
46.6589448352
  0
ARC
  8
0
 62
7
  6
CONTINUOUS
 10
204.8339465772
 20
75.7737515387
 40
10.0
 50
25.0
 51
90.0
  0
ARC
  8
0
 62
7
  6
CONTINUOUS
 10
242.9167416911
 20
88.2247950951
 40
10.0
 50
43.0
 51
108.0
  0
ARC
  8
0
 62
7
  6
CONTINUOUS
 10
220.6237872426
 20
90.4445351257
 40
2.0
 50
54.8698976458
 51
208.6589448352
  0
ARC
  8
0
 62
7
  6
CONTINUOUS
 10
217.2042575149
 20
75.2737515387
 40
1.0
 50
205.0
 51
324.7803337598
  0
ARC
  8
0
 62
7
  6
CONTINUOUS
 10
186.3180243741
 20
86.2737515387
 40
0.5
 50
216.8698976458
 51
270.0
  0
ARC
  8
0
 62
7
  6
CONTINUOUS
 10
222.0623747837
 20
92.4891538889
 40
0.5
 50
234.8698976459
 51
288.0
  0
ARC
  8
0
 62
7
  6
CONTINUOUS
 10
246.6578911753
 20
194.3653513678
 40
5.3
 50
97.9907170002
 51
136.2750109252
  0
ARC
  8
0
 62
7
  6
CONTINUOUS
 10
195.1801768895
 20
140.5440158597
 40
5.3
 50
136.2750109252
 51
174.5593048502
  0
ARC
  8
0
 62
7
  6
CONTINUOUS
 10
185.9220745826
 20
141.4257990954
 40
4.0
 50
187.990717
 51
354.5593048505
  0
ARC
  8
0
 62
7
  6
CONTINUOUS
 10
272.5909381392
 20
118.5242032855
 40
14.0
 50
0.7803337598
 51
64.6589448352
  0
ARC
  8
0
 62
7
  6
CONTINUOUS
 10
275.2880480863
 20
111.8346720877
 40
10.0
 50
61.0
 51
126.0
  0
ARC
  8
0
 62
7
  6
CONTINUOUS
 10
253.400251098
 20
107.0568685288
 40
2.0
 50
72.8698976458
 51
226.6589448352
  0
ARC
  8
0
 62
7
  6
CONTINUOUS
 10
279.439027291
 20
132.9846208096
 40
2.0
 50
90.8698976458
 51
244.6589448352
  0
ARC
  8
0
 62
7
  6
CONTINUOUS
 10
254.8361150142
 20
91.5719031424
 40
1.0
 50
223.0
 51
342.7803337598
  0
ARC
  8
0
 62
7
  6
CONTINUOUS
 10
285.5897324867
 20
118.7012499259
 40
1.0
 50
241.0
 51
0.7803337598
  0
ARC
  8
0
 62
7
  6
CONTINUOUS
 10
254.1366072083
 20
109.445964525
 40
0.5
 50
252.8698976458
 51
306.0
  0
ARC
  8
0
 62
7
  6
CONTINUOUS
 10
279.401072304
 20
135.4843326767
 40
0.5
 50
270.8698976458
 51
324.0
  0
ARC
  8
0
 62
7
  6
CONTINUOUS
 10
294.1468539337
 20
149.8209526839
 40
14.0
 50
18.7803337598
 51
82.6589448352
  0
ARC
  8
0
 62
7
  6
CONTINUOUS
 10
304.976520682
 20
186.2470744479
 40
14.0
 50
36.7803337598
 51
100.6589448352
  0
ARC
  8
0
 62
7
  6
CONTINUOUS
 10
298.7791367486
 20
144.2922832566
 40
10.0
 50
79.0
 51
144.0
  0
ARC
  8
0
 62
7
  6
CONTINUOUS
 10
311.0905362477
 20
182.4204514751
 40
10.0
 50
97.0
 51
162.0
  0
ARC
  8
0
 62
7
  6
CONTINUOUS
 10
296.191258985
 20
165.6898029254
 40
2.0
 50
108.8698976458
 51
262.6589448352
  0
ARC
  8
0
 62
7
  6
CONTINUOUS
 10
302.0171210221
 20
201.9710037804
 40
2.0
 50
126.8698976458
 51
280.6589448352
  0
ARC
  8
0
 62
7
  6
CONTINUOUS
 10
306.4547315812
 20
154.0061824047
 40
1.0
 50
259.0
 51
18.7803337598
  0
ARC
  8
0
 62
7
  6
CONTINUOUS
 10
315.3887008113
 20
194.0308078038
 40
1.0
 50
277.0
 51
36.7803337598
  0
ARC
  8
0
 62
7
  6
CONTINUOUS
 10
295.3827081993
 20
168.0554414495
 40
0.5
 50
288.8698976458
 51
342.0
  0
ARC
  8
DEFAULT_2
 62
8
  6
HIDDEN
 10
184.5689465772
 20
202.2219259836
 40
132.0759417852
 50
86.4155455287
 51
86.425054205
  0
ARC
  8
0
 62
40
  6
CONTINUOUS
 10
184.5689465772
 20
202.2219259836
 40
132.0759417852
 50
80.6228500531
 51
86.4155455287
  0
ARC
  8
0
 62
40
  6
CONTINUOUS
 10
184.5689465772
 20
202.2219259836
 40
132.0759417852
 50
86.425054205
 51
90.0
  0
ARC
  8
PITCH_DIAMETER
 62
8
  6
HIDDEN
 10
184.5689465772
 20
202.2219259836
 40
129.5430645337
 50
193.8381598223
 51
195.6586490931
  0
ARC
  8
PITCH_DIAMETER
 62
8
  6
HIDDEN
 10
184.5689465772
 20
202.2219259836
 40
129.5430645337
 50
211.8381332266
 51
213.6493732149
  0
ARC
  8
PITCH_DIAMETER
 62
8
  6
HIDDEN
 10
184.5689465772
 20
202.2219259836
 40
129.5430645337
 50
229.8381598223
 51
231.6586490931
  0
ARC
  8
PITCH_DIAMETER
 62
8
  6
HIDDEN
 10
184.5689465772
 20
202.2219259836
 40
129.5430645337
 50
247.8381332266
 51
249.6493732149
  0
ARC
  8
PITCH_DIAMETER
 62
8
  6
HIDDEN
 10
184.5689465772
 20
202.2219259836
 40
129.5430645337
 50
265.8381598223
 51
267.6586490931
  0
ARC
  8
PITCH_DIAMETER
 62
8
  6
HIDDEN
 10
184.5689465772
 20
202.2219259836
 40
129.5430645337
 50
283.8381332266
 51
285.6493732149
  0
ARC
  8
PITCH_DIAMETER
 62
8
  6
HIDDEN
 10
184.5689465772
 20
202.2219259836
 40
129.5430645337
 50
301.8381598223
 51
303.6586490931
  0
ARC
  8
PITCH_DIAMETER
 62
8
  6
HIDDEN
 10
184.5689465772
 20
202.2219259836
 40
129.5430645337
 50
319.8381332266
 51
321.6493732149
  0
ARC
  8
PITCH_DIAMETER
 62
8
  6
HIDDEN
 10
184.5689465772
 20
202.2219259836
 40
129.5430645337
 50
337.8381598223
 51
339.6586490931
  0
ARC
  8
PITCH_DIAMETER
 62
8
  6
HIDDEN
 10
184.5689465772
 20
202.2219259836
 40
129.5430645337
 50
355.8381332266
 51
357.6493732149
  0
ARC
  8
PITCH_DIAMETER
 62
8
  6
HIDDEN
 10
184.5689465772
 20
202.2219259836
 40
129.5430645337
 50
13.8381598223
 51
15.6586490931
  0
ARC
  8
PITCH_DIAMETER
 62
8
  6
HIDDEN
 10
184.5689465772
 20
202.2219259836
 40
129.5430645337
 50
31.8381332266
 51
33.6493732149
  0
ARC
  8
PITCH_DIAMETER
 62
8
  6
HIDDEN
 10
184.5689465772
 20
202.2219259836
 40
129.5430645337
 50
49.8381598223
 51
51.6586490931
  0
ARC
  8
PITCH_DIAMETER
 62
8
  6
HIDDEN
 10
184.5689465772
 20
202.2219259836
 40
129.5430645337
 50
67.8381332266
 51
69.6493732149
  0
ARC
  8
PITCH_DIAMETER
 62
8
  6
HIDDEN
 10
184.5689465772
 20
202.2219259836
 40
129.5430645337
 50
85.8381598223
 51
87.6586490931
  0
ARC
  8
PITCH_DIAMETER
 62
8
  6
HIDDEN
 10
184.5689465772
 20
202.2219259836
 40
129.5430645337
 50
103.8381332266
 51
105.6493732149
  0
ARC
  8
PITCH_DIAMETER
 62
8
  6
HIDDEN
 10
184.5689465772
 20
202.2219259836
 40
129.5430645337
 50
121.8381598223
 51
123.6586490931
  0
ARC
  8
PITCH_DIAMETER
 62
8
  6
HIDDEN
 10
184.5689465772
 20
202.2219259836
 40
129.5430645337
 50
139.8381332266
 51
141.6493732149
  0
ARC
  8
PITCH_DIAMETER
 62
8
  6
HIDDEN
 10
184.5689465772
 20
202.2219259836
 40
129.5430645337
 50
157.8381598223
 51
159.6586490931
  0
ARC
  8
PITCH_DIAMETER
 62
8
  6
HIDDEN
 10
184.5689465772
 20
202.2219259836
 40
129.5430645337
 50
175.8381332266
 51
177.6493732149
  0
ARC
  8
PITCH_DIAMETER
 62
40
  6
CONTINUOUS
 10
184.5689465772
 20
202.2219259836
 40
129.5430645337
 50
195.6586490931
 51
211.8381332266
  0
ARC
  8
PITCH_DIAMETER
 62
40
  6
CONTINUOUS
 10
184.5689465772
 20
202.2219259836
 40
129.5430645337
 50
213.6493732149
 51
229.8381598223
  0
ARC
  8
PITCH_DIAMETER
 62
40
  6
CONTINUOUS
 10
184.5689465772
 20
202.2219259836
 40
129.5430645337
 50
231.6586490931
 51
247.8381332266
  0
ARC
  8
PITCH_DIAMETER
 62
40
  6
CONTINUOUS
 10
184.5689465772
 20
202.2219259836
 40
129.5430645337
 50
249.6493732149
 51
265.8381598223
  0
ARC
  8
PITCH_DIAMETER
 62
40
  6
CONTINUOUS
 10
184.5689465772
 20
202.2219259836
 40
129.5430645337
 50
267.6586490931
 51
283.8381332266
  0
ARC
  8
PITCH_DIAMETER
 62
40
  6
CONTINUOUS
 10
184.5689465772
 20
202.2219259836
 40
129.5430645337
 50
285.6493732149
 51
301.8381598223
  0
ARC
  8
PITCH_DIAMETER
 62
40
  6
CONTINUOUS
 10
184.5689465772
 20
202.2219259836
 40
129.5430645337
 50
303.6586490931
 51
319.8381332266
  0
ARC
  8
PITCH_DIAMETER
 62
40
  6
CONTINUOUS
 10
184.5689465772
 20
202.2219259836
 40
129.5430645337
 50
321.6493732149
 51
337.8381598223
  0
ARC
  8
PITCH_DIAMETER
 62
40
  6
CONTINUOUS
 10
184.5689465772
 20
202.2219259836
 40
129.5430645337
 50
339.6586490931
 51
355.8381332266
  0
ARC
  8
PITCH_DIAMETER
 62
40
  6
CONTINUOUS
 10
184.5689465772
 20
202.2219259836
 40
129.5430645337
 50
357.6493732149
 51
13.8381598223
  0
ARC
  8
PITCH_DIAMETER
 62
40
  6
CONTINUOUS
 10
184.5689465772
 20
202.2219259836
 40
129.5430645337
 50
15.6586490931
 51
31.8381332266
  0
ARC
  8
PITCH_DIAMETER
 62
40
  6
CONTINUOUS
 10
184.5689465772
 20
202.2219259836
 40
129.5430645337
 50
33.6493732149
 51
49.8381598223
  0
ARC
  8
PITCH_DIAMETER
 62
40
  6
CONTINUOUS
 10
184.5689465772
 20
202.2219259836
 40
129.5430645337
 50
51.6586490931
 51
67.8381332266
  0
ARC
  8
PITCH_DIAMETER
 62
40
  6
CONTINUOUS
 10
184.5689465772
 20
202.2219259836
 40
129.5430645337
 50
69.6493732149
 51
85.8381598223
  0
ARC
  8
PITCH_DIAMETER
 62
40
  6
CONTINUOUS
 10
184.5689465772
 20
202.2219259836
 40
129.5430645337
 50
87.6586490931
 51
103.8381332266
  0
ARC
  8
PITCH_DIAMETER
 62
40
  6
CONTINUOUS
 10
184.5689465772
 20
202.2219259836
 40
129.5430645337
 50
105.6493732149
 51
121.8381598223
  0
ARC
  8
PITCH_DIAMETER
 62
40
  6
CONTINUOUS
 10
184.5689465772
 20
202.2219259836
 40
129.5430645337
 50
123.6586490931
 51
139.8381332266
  0
ARC
  8
PITCH_DIAMETER
 62
40
  6
CONTINUOUS
 10
184.5689465772
 20
202.2219259836
 40
129.5430645337
 50
141.6493732149
 51
157.8381598223
  0
ARC
  8
PITCH_DIAMETER
 62
40
  6
CONTINUOUS
 10
184.5689465772
 20
202.2219259836
 40
129.5430645337
 50
159.6586490931
 51
175.8381332266
  0
ARC
  8
PITCH_DIAMETER
 62
40
  6
CONTINUOUS
 10
184.5689465772
 20
202.2219259836
 40
129.5430645337
 50
177.6493732149
 51
193.8381598223
  0
ARC
  8
DEFAULT_2
 62
8
  6
HIDDEN
 10
184.5689465772
 20
202.2219259836
 40
116.4481744449
 50
180.7767707352
 51
197.0379118092
  0
ARC
  8
DEFAULT_2
 62
8
  6
HIDDEN
 10
184.5689465772
 20
202.2219259836
 40
116.4481744449
 50
198.7840016344
 51
215.0424538812
  0
ARC
  8
DEFAULT_2
 62
8
  6
HIDDEN
 10
184.5689465772
 20
202.2219259836
 40
116.4481744449
 50
216.7767707352
 51
233.0379118092
  0
ARC
  8
DEFAULT_2
 62
8
  6
HIDDEN
 10
184.5689465772
 20
202.2219259836
 40
116.4481744449
 50
234.7840016344
 51
251.0424538812
  0
ARC
  8
DEFAULT_2
 62
8
  6
HIDDEN
 10
184.5689465772
 20
202.2219259836
 40
116.4481744449
 50
252.7767707352
 51
269.0379118092
  0
ARC
  8
DEFAULT_2
 62
8
  6
HIDDEN
 10
184.5689465772
 20
202.2219259836
 40
116.4481744449
 50
270.7840016344
 51
287.0424538812
  0
ARC
  8
DEFAULT_2
 62
8
  6
HIDDEN
 10
184.5689465772
 20
202.2219259836
 40
116.4481744449
 50
288.7767707352
 51
305.0379118092
  0
ARC
  8
DEFAULT_2
 62
8
  6
HIDDEN
 10
184.5689465772
 20
202.2219259836
 40
116.4481744449
 50
306.7840016344
 51
323.0424538812
  0
ARC
  8
DEFAULT_2
 62
8
  6
HIDDEN
 10
184.5689465772
 20
202.2219259836
 40
116.4481744449
 50
324.7767707352
 51
341.0379118092
  0
ARC
  8
DEFAULT_2
 62
8
  6
HIDDEN
 10
184.5689465772
 20
202.2219259836
 40
116.4481744449
 50
342.7840016344
 51
359.0424538812
  0
ARC
  8
DEFAULT_2
 62
8
  6
HIDDEN
 10
184.5689465772
 20
202.2219259836
 40
116.4481744449
 50
73.7044527255
 51
89.0360053794
  0
ARC
  8
DEFAULT_2
 62
8
  6
HIDDEN
 10
184.5689465772
 20
202.2219259836
 40
116.4481744449
 50
90.8173918451
 51
94.4645725384
  0
ARC
  8
0
 62
40
  6
CONTINUOUS
 10
184.5689465772
 20
202.2219259836
 40
116.4481744449
 50
180.0
 51
180.7767707352
  0
ARC
  8
0
 62
40
  6
CONTINUOUS
 10
184.5689465772
 20
202.2219259836
 40
116.4481744449
 50
197.0379118092
 51
198.7840016344
  0
ARC
  8
0
 62
40
  6
CONTINUOUS
 10
184.5689465772
 20
202.2219259836
 40
116.4481744449
 50
215.0424538812
 51
216.7767707352
  0
ARC
  8
0
 62
40
  6
CONTINUOUS
 10
184.5689465772
 20
202.2219259836
 40
116.4481744449
 50
233.0379118092
 51
234.7840016344
  0
ARC
  8
0
 62
40
  6
CONTINUOUS
 10
184.5689465772
 20
202.2219259836
 40
116.4481744449
 50
251.0424538812
 51
252.7767707352
  0
ARC
  8
0
 62
40
  6
CONTINUOUS
 10
184.5689465772
 20
202.2219259836
 40
116.4481744449
 50
269.0379118092
 51
270.7840016344
  0
ARC
  8
0
 62
40
  6
CONTINUOUS
 10
184.5689465772
 20
202.2219259836
 40
116.4481744449
 50
287.0424538812
 51
288.7767707352
  0
ARC
  8
0
 62
40
  6
CONTINUOUS
 10
184.5689465772
 20
202.2219259836
 40
116.4481744449
 50
305.0379118092
 51
306.7840016344
  0
ARC
  8
0
 62
40
  6
CONTINUOUS
 10
184.5689465772
 20
202.2219259836
 40
116.4481744449
 50
323.0424538812
 51
324.7767707352
  0
ARC
  8
0
 62
40
  6
CONTINUOUS
 10
184.5689465772
 20
202.2219259836
 40
116.4481744449
 50
341.0379118092
 51
342.7840016344
  0
ARC
  8
0
 62
40
  6
CONTINUOUS
 10
184.5689465772
 20
202.2219259836
 40
116.4481744449
 50
359.0424538812
 51
360.0
  0
ARC
  8
0
 62
40
  6
CONTINUOUS
 10
184.5689465772
 20
202.2219259836
 40
116.4481744449
 50
89.0360053794
 51
90.8173918451
  0
CIRCLE
  8
0
 62
7
  6
CONTINUOUS
 10
184.5689465772
 20
202.2219259836
 40
113.9731744449
  0
CIRCLE
  8
0
 62
9
  6
CONTINUOUS
 10
184.5689465772
 20
202.2219259836
 40
111.9731744449
  0
ARC
  8
0
 62
7
  6
CONTINUOUS
 10
192.425521193
 20
264.3108705816
 40
5.3
 50
187.9907170002
 51
226.2750109252
  0
ARC
  8
0
 62
7
  6
CONTINUOUS
 10
246.2468567012
 20
212.8331562958
 40
5.3
 50
226.2750109252
 51
264.5593048502
  0
ARC
  8
0
 62
7
  6
CONTINUOUS
 10
245.3650734654
 20
203.5750539889
 40
4.0
 50
277.990717
 51
84.5593048505
  0
ARC
  8
0
 62
7
  6
CONTINUOUS
 10
236.9699198769
 20
311.7998333401
 40
14.0
 50
108.7803337598
 51
172.6589448352
  0
ARC
  8
0
 62
7
  6
CONTINUOUS
 10
200.5437981129
 20
322.6295000883
 40
14.0
 50
126.7803337598
 51
190.6589448352
  0
ARC
  8
0
 62
7
  6
CONTINUOUS
 10
242.4985893042
 20
316.4321161549
 40
10.0
 50
169.0
 51
234.0
  0
ARC
  8
0
 62
7
  6
CONTINUOUS
 10
204.3704210857
 20
328.743515654
 40
10.0
 50
187.0
 51
252.0
  0
ARC
  8
0
 62
7
  6
CONTINUOUS
 10
221.1010696354
 20
313.8442383913
 40
2.0
 50
198.8698976458
 51
352.6589448352
  0
ARC
  8
0
 62
7
  6
CONTINUOUS
 10
184.8198687804
 20
319.6701004285
 40
2.0
 50
216.8698976458
 51
10.6589448352
  0
ARC
  8
0
 62
7
  6
CONTINUOUS
 10
232.7846901561
 20
324.1077109875
 40
1.0
 50
349.0
 51
108.7803337598
  0
ARC
  8
0
 62
7
  6
CONTINUOUS
 10
192.760064757
 20
333.0416802176
 40
1.0
 50
7.0
 51
126.7803337598
  0
ARC
  8
0
 62
7
  6
CONTINUOUS
 10
218.7354311113
 20
313.0356876056
 40
0.5
 50
18.8698976459
 51
72.0
  0
ARC
  8
0
 62
7
  6
CONTINUOUS
 10
304.019855148
 20
224.2369259836
 40
14.0
 50
54.7803337598
 51
118.6589448352
  0
ARC
  8
0
 62
7
  6
CONTINUOUS
 10
291.3705024197
 20
260.0717959317
 40
14.0
 50
72.7803337598
 51
136.6589448352
  0
ARC
  8
0
 62
7
  6
CONTINUOUS
 10
311.0171210221
 20
222.4869259836
 40
10.0
 50
115.0
 51
180.0
  0
ARC
  8
0
 62
7
  6
CONTINUOUS
 10
298.5660774657
 20
260.5697210974
 40
10.0
 50
133.0
 51
198.0
  0
ARC
  8
0
 62
7
  6
CONTINUOUS
 10
296.3463374351
 20
238.2767666489
 40
2.0
 50
144.8698976458
 51
298.6589448352
  0
ARC
  8
0
 62
7
  6
CONTINUOUS
 10
311.5171210221
 20
234.8572369212
 40
1.0
 50
295.0
 51
54.7803337598
  0
ARC
  8
0
 62
7
  6
CONTINUOUS
 10
300.5171210221
 20
203.9710037804
 40
0.5
 50
306.8698976458
 51
360.0
  0
ARC
  8
0
 62
7
  6
CONTINUOUS
 10
294.3017186719
 20
239.71535419
 40
0.5
 50
324.8698976458
 51
18.0
  0
ARC
  8
0
 62
7
  6
CONTINUOUS
 10
268.2666692753
 20
290.2439175456
 40
14.0
 50
90.7803337598
 51
154.6589448352
  0
ARC
  8
0
 62
7
  6
CONTINUOUS
 10
274.9562004731
 20
292.9410274926
 40
10.0
 50
151.0
 51
216.0
  0
ARC
  8
0
 62
7
  6
CONTINUOUS
 10
279.734004032
 20
271.0532305043
 40
2.0
 50
162.8698976458
 51
316.6589448352
  0
ARC
  8
0
 62
7
  6
CONTINUOUS
 10
253.8062517513
 20
297.0920066973
 40
2.0
 50
180.8698976458
 51
334.6589448352
  0
ARC
  8
0
 62
7
  6
CONTINUOUS
 10
295.2189694184
 20
272.4890944205
 40
1.0
 50
313.0
 51
72.7803337598
  0
ARC
  8
0
 62
7
  6
CONTINUOUS
 10
268.0896226349
 20
303.242711893
 40
1.0
 50
331.0
 51
90.7803337598
  0
ARC
  8
0
 62
7
  6
CONTINUOUS
 10
277.3449080358
 20
271.7895866146
 40
0.5
 50
342.8698976458
 51
36.0
  0
ARC
  8
0
 62
7
  6
CONTINUOUS
 10
251.3065398841
 20
297.0540517103
 40
0.5
 50
0.8698976459
 51
54.0
  0
ARC
  8
0
 62
7
  6
CONTINUOUS
 10
398.5401191027
 20
314.1951004285
 40
2.0
 50
90.0
 51
180.0
  0
ARC
  8
0
 62
7
  6
CONTINUOUS
 10
398.5401191027
 20
90.2487515387
 40
2.0
 50
180.0
 51
270.0
  0
ARC
  8
0
 62
7
  6
CONTINUOUS
 10
427.7401191027
 20
314.1951004285
 40
2.0
 50
0.0
 51
90.0
  0
ARC
  8
0
 62
7
  6
CONTINUOUS
 10
427.7401191027
 20
90.2487515387
 40
2.0
 50
270.0
 51
360.0
  0
ENDSEC
  0
EOF
