  0
SECTION
  2
HEADER
  9
$EXTMAX
 10
594.0
 20
420.0
 30
0.0
  9
$EXTMIN
 10
0.0
 20
0.0
 30
0.0
  9
$LIMMIN
 10
0.0
 20
0.0
  9
$LIMMAX
 10
594.0
 20
420.0
  9
$VIEWCTR
 10
297.0
 20
210.0
  9
$VIEWSIZE
 40
420.0
  9
$CLAYER
  8
0
  9
$LTSCALE
 40
32.67
  9
$CELTYPE
  6
BYLAYER
  9
$DIMSCALE
 40
1.0
  9
$DIMASZ
 40
3.5
  9
$DIMEXO
 40
1.0
  9
$DIMDLI
 40
22.572
  9
$DIMEXE
 40
2.0
  9
$DIMCEN
 40
5.346
  9
$DIMLFAC
 40
1.0
  9
$DIMBLK
  1
_FILLED
  9
$DIMALT
 70
0
  9
$DIMALTF
 40
0.0393700787
  9
$DIMTXT
 40
3.5
  9
$AUNITS
 70
0
  9
$PDMODE
 70
3
  9
$PDSIZE
 40
0.3125
  9
$TILEMODE
 70
1
  0
ENDSEC
  0
SECTION
  2
TABLES
  0
TABLE
  2
LTYPE
 70
6
  0
LTYPE
  2
BYBLOCK
 70
0
  3

 72
65
 73
0
 40
0.0
  0
LTYPE
  2
BYLAYER
 70
0
  3

 72
65
 73
0
 40
0.0
  0
LTYPE
  2
CONTINUOUS
 70
64
  3
Solid line
 72
65
 73
0
 40
0.0
  0
LTYPE
  2
CENTER
 70
64
  3
____ _ ____ _ ____ _ ____ _ ____ _ ____ _ ____
 72
65
 73
4
 40
0.6
 49
0.375
 49
-0.075
 49
0.075
 49
-0.075
  0
LTYPE
  2
HIDDEN
 70
64
  3
- - - - - - - - - - - - - - - - - - - -
 72
65
 73
2
 40
0.2
 49
0.1
 49
-0.1
  0
LTYPE
  2
PHANTOM
 70
64
  3
_____ _ _ _____ _ _ _____ _ _ _____
 72
65
 73
6
 40
0.8
 49
0.45
 49
-0.05
 49
0.1
 49
-0.05
 49
0.1
 49
-0.05
  0
LTYPE
  2
DOT
 70
64
  3
. . . . . . . . . . . . . . . . . . . .
 72
65
 73
2
 40
0.2
 49
0.1
 49
-0.1
  0
LTYPE
  2
DASHED
 70
64
  3
- - - - - - - - - - - - - - - - - - - -
 72
65
 73
2
 40
0.2
 49
0.1
 49
-0.1
  0
ENDTAB
  0
TABLE
  2
LAYER
 70
36
  0
LAYER
  2
0
 70
0
 62
7
  6
CONTINUOUS
  0
LAYER
  2
DEFAULT_1
 70
0
 62
7
  6
CENTER
  0
LAYER
  2
DEFAULT_2
 70
0
 62
8
  6
HIDDEN
  0
LAYER
  2
DEFAULT_3
 70
0
 62
7
  6
PHANTOM
  0
LAYER
  2
1_CSYS
 70
0
 62
7
  6
CONTINUOUS
  0
LAYER
  2
1_DATUM_PLANE
 70
0
 62
7
  6
CONTINUOUS
  0
LAYER
  2
2_FEATURE
 70
0
 62
7
  6
CONTINUOUS
  0
LAYER
  2
6_DIM
 70
0
 62
7
  6
CONTINUOUS
  0
LAYER
  2
AXES
 70
0
 62
7
  6
CONTINUOUS
  0
LAYER
  2
BLANK_CURVE
 70
0
 62
7
  6
CONTINUOUS
  0
LAYER
  2
CSYS
 70
0
 62
7
  6
CONTINUOUS
  0
LAYER
  2
NOTES
 70
0
 62
7
  6
CONTINUOUS
  0
LAYER
  2
PITCH_DIAMETER
 70
0
 62
7
  6
CONTINUOUS
  0
LAYER
  2
PITCH_LINE
 70
0
 62
7
  6
CONTINUOUS
  0
LAYER
  2
PLANES
 70
0
 62
7
  6
CONTINUOUS
  0
LAYER
  2
QUILTS
 70
0
 62
7
  6
CONTINUOUS
  0
ENDTAB
  0
TABLE
  2
STYLE
 70
1
  0
STYLE
  2
STANDARD
 70
0
 40
0.0
 41
0.8
 50
0.0
 71
0
 42
0.2
  3
txt
  4

  0
STYLE
  2
TEXTSTYLE_1
 70
0
 40
0.0
 41
0.8
 50
0.0
 71
0
 42
0.2
  3
gdt
  4

  0
STYLE
  2
TEXTSTYLE_2
 70
0
 40
0.0
 41
0.6
 50
0.0
 71
0
 42
0.2
  3
txt
  4

  0
STYLE
  2
TEXTSTYLE_3
 70
0
 40
0.0
 41
1.0
 50
0.0
 71
0
 42
0.2
  3
ftb_____.ttf
  4

  0
STYLE
  2
TEXTSTYLE_4
 70
0
 40
0.0
 41
1.0
 50
0.0
 71
0
 42
0.2
  3
fti_____.ttf
  4

  0
STYLE
  2
TEXTSTYLE_5
 70
0
 40
0.0
 41
1.0
 50
0.0
 71
0
 42
0.2
  3
frutiger light.ttf
  4

  0
STYLE
  2
TEXTSTYLE_6
 70
0
 40
0.0
 41
0.7
 50
0.0
 71
0
 42
0.2
  3
txt
  4

  0
STYLE
  2
TEXTSTYLE_7
 70
0
 40
0.0
 41
0.6
 50
0.0
 71
0
 42
0.2
  3
txt
  4

  0
ENDTAB
  0
ENDSEC
  0
SECTION
  2
BLOCKS
  0
BLOCK
  8
0
 62
2
  6
CONTINUOUS
  2
UNI_LOGO2_BL1
 70
64
 10
557.4079930916
 20
35.8092573885
  0
TEXT
  8
0
 62
7
  6
CONTINUOUS
 10
548.4662781001
 20
30.9020137655
  7
TEXTSTYLE_4
 40
1.0655737705
  1
The brand for plastic modular belts and chains
 41
1.0
 72
0
  0
LINE
  8
0
 62
7
  6
CONTINUOUS
 10
533.3860614807
 20
36.3830278803
 11
533.3860614807
 21
34.2518803393
  0
LINE
  8
0
 62
7
  6
CONTINUOUS
 10
533.6751239738
 20
31.2609490436
 11
533.6751239738
 21
31.3577401029
  0
LINE
  8
0
 62
7
  6
CONTINUOUS
 10
533.3860614807
 20
31.3254764164
 11
533.4438739824
 21
31.1318942979
  0
LINE
  8
0
 62
7
  6
CONTINUOUS
 10
534.7795041036
 20
34.1699131262
 11
534.7795041036
 21
36.3830278803
  0
LINE
  8
0
 62
7
  6
CONTINUOUS
 10
535.6985614255
 20
32.3256508311
 11
535.6985614255
 21
30.8092573885
  0
LINE
  8
0
 62
7
  6
CONTINUOUS
 10
535.9876239807
 20
30.8092573885
 11
535.9876239807
 21
31.5513222666
  0
LINE
  8
0
 62
7
  6
CONTINUOUS
 10
535.9876239807
 20
31.6803770123
 11
535.9876239807
 21
32.3256508311
  0
LINE
  8
0
 62
7
  6
CONTINUOUS
 10
533.4438739824
 20
31.5190585802
 11
533.3860614807
 21
31.3254764164
  0
LINE
  8
0
 62
7
  6
CONTINUOUS
 10
533.7907489669
 20
31.0996306115
 11
533.6751239738
 21
31.2609490436
  0
LINE
  8
0
 62
7
  6
CONTINUOUS
 10
534.8891865358
 20
31.6158496394
 11
534.9469989807
 21
31.5190585802
  0
LINE
  8
0
 62
7
  6
CONTINUOUS
 10
535.2360615358
 20
31.5190585802
 11
535.1782489255
 21
31.6481133259
  0
LINE
  8
0
 62
7
  6
CONTINUOUS
 10
536.6647500053
 20
36.3830278803
 11
536.6647500053
 21
34.5797491918
  0
LINE
  8
0
 62
7
  6
CONTINUOUS
 10
536.6647500053
 20
33.2682737819
 11
536.6647500053
 21
32.612536077
  0
LINE
  8
0
 62
7
  6
CONTINUOUS
 10
537.0282489807
 20
31.4545312073
 11
537.0282489807
 21
30.8092573885
  0
LINE
  8
0
 62
7
  6
CONTINUOUS
 10
537.3173113704
 20
30.8092573885
 11
537.3173113704
 21
31.4545312073
  0
LINE
  8
0
 62
7
  6
CONTINUOUS
 10
533.6751239738
 20
31.3577401029
 11
533.7329364807
 21
31.4867948937
  0
LINE
  8
0
 62
7
  6
CONTINUOUS
 10
533.4438739824
 20
31.1318942979
 11
533.5594989807
 21
31.0028395296
  0
LINE
  8
0
 62
7
  6
CONTINUOUS
 10
536.9704363704
 20
31.583585953
 11
537.0282489807
 21
31.4545312073
  0
LINE
  8
0
 62
7
  6
CONTINUOUS
 10
537.7798115909
 20
31.0996306115
 11
537.8376238704
 21
30.9705758432
  0
LINE
  8
0
 62
7
  6
CONTINUOUS
 10
537.3173113704
 20
31.4545312073
 11
537.2594990909
 21
31.6158496394
  0
LINE
  8
0
 62
7
  6
CONTINUOUS
 10
537.7798115909
 20
31.6481133259
 11
537.7798115909
 21
31.583585953
  0
LINE
  8
0
 62
7
  6
CONTINUOUS
 10
537.7798115909
 20
31.1964216708
 11
537.7798115909
 21
31.0996306115
  0
LINE
  8
0
 62
7
  6
CONTINUOUS
 10
538.0581926282
 20
32.612536077
 11
538.0581926282
 21
36.3830278803
  0
LINE
  8
0
 62
7
  6
CONTINUOUS
 10
538.0688739807
 20
31.0673669025
 11
538.0688739807
 21
31.1318942979
  0
LINE
  8
0
 62
7
  6
CONTINUOUS
 10
538.3860614807
 20
36.3830278803
 11
538.3860614807
 21
32.612536077
  0
LINE
  8
0
 62
7
  6
CONTINUOUS
 10
535.1782489255
 20
31.0028395296
 11
535.2360615358
 21
31.1318942979
  0
LINE
  8
0
 62
7
  6
CONTINUOUS
 10
539.5719992012
 20
30.9060484591
 11
539.5141862601
 21
31.0673669025
  0
LINE
  8
0
 62
7
  6
CONTINUOUS
 10
539.2251242012
 20
31.583585953
 11
539.2251242012
 21
31.4867948937
  0
LINE
  8
0
 62
7
  6
CONTINUOUS
 10
539.2251242012
 20
31.3577401029
 11
539.2251242012
 21
31.1641579843
  0
LINE
  8
0
 62
7
  6
CONTINUOUS
 10
539.5141862601
 20
31.0673669025
 11
539.5141862601
 21
31.583585953
  0
LINE
  8
0
 62
7
  6
CONTINUOUS
 10
539.7795041036
 20
32.612536077
 11
539.7795041036
 21
34.4158147655
  0
LINE
  8
0
 62
7
  6
CONTINUOUS
 10
539.7795041036
 20
35.7272901754
 11
539.7795041036
 21
36.3830278803
  0
LINE
  8
0
 62
7
  6
CONTINUOUS
 10
540.0923117012
 20
32.3256508311
 11
540.0923117012
 21
32.164332399
  0
LINE
  8
0
 62
7
  6
CONTINUOUS
 10
540.0923117012
 20
31.8416954444
 11
540.0923117012
 21
30.8092573885
  0
LINE
  8
0
 62
7
  6
CONTINUOUS
 10
540.3813737601
 20
30.8092573885
 11
540.3813737601
 21
31.8416954444
  0
LINE
  8
0
 62
7
  6
CONTINUOUS
 10
540.3813737601
 20
32.164332399
 11
540.3813737601
 21
32.3256508311
  0
LINE
  8
0
 62
7
  6
CONTINUOUS
 10
534.9469989807
 20
31.1318942979
 11
534.8891865358
 21
31.035103216
  0
LINE
  8
0
 62
7
  6
CONTINUOUS
 10
537.2594990909
 20
31.6158496394
 11
537.2016864807
 21
31.6803770123
  0
LINE
  8
0
 62
7
  6
CONTINUOUS
 10
538.1266865909
 20
31.0028395296
 11
538.0688739807
 21
31.0673669025
  0
LINE
  8
0
 62
7
  6
CONTINUOUS
 10
539.2829364807
 20
30.873784767
 11
539.3407487601
 21
30.8092573885
  0
LINE
  8
0
 62
7
  6
CONTINUOUS
 10
539.2251242012
 20
30.9705758432
 11
539.2829364807
 21
30.873784767
  0
LINE
  8
0
 62
7
  6
CONTINUOUS
 10
539.6298114807
 20
30.8092573885
 11
539.5719992012
 21
30.9060484591
  0
LINE
  8
0
 62
7
  6
CONTINUOUS
 10
539.5141862601
 20
31.583585953
 11
539.4563739807
 21
31.6803770123
  0
LINE
  8
0
 62
7
  6
CONTINUOUS
 10
540.8438739807
 20
31.8416954444
 11
540.8438739807
 21
30.8092573885
  0
LINE
  8
0
 62
7
  6
CONTINUOUS
 10
541.1329367012
 20
30.8092573885
 11
541.1329367012
 21
31.5513222666
  0
LINE
  8
0
 62
7
  6
CONTINUOUS
 10
541.1329367012
 20
31.6803770123
 11
541.1329367012
 21
31.8416954444
  0
LINE
  8
0
 62
7
  6
CONTINUOUS
 10
541.6647500053
 20
34.8256508311
 11
541.6647500053
 21
32.612536077
  0
LINE
  8
0
 62
7
  6
CONTINUOUS
 10
533.5594989807
 20
31.6481133259
 11
533.4438739824
 21
31.5190585802
  0
LINE
  8
0
 62
7
  6
CONTINUOUS
 10
533.7329364807
 20
31.4867948937
 11
533.7907489669
 21
31.5513222666
  0
LINE
  8
0
 62
7
  6
CONTINUOUS
 10
533.5594989807
 20
31.0028395296
 11
533.6751239738
 21
30.9383121455
  0
LINE
  8
0
 62
7
  6
CONTINUOUS
 10
533.9641864669
 20
31.0028395296
 11
533.7907489669
 21
31.0996306115
  0
LINE
  8
0
 62
7
  6
CONTINUOUS
 10
539.1673112601
 20
31.6481133259
 11
539.2251242012
 21
31.583585953
  0
LINE
  8
0
 62
7
  6
CONTINUOUS
 10
542.1157487601
 20
31.583585953
 11
542.1735617012
 21
31.4222675209
  0
LINE
  8
0
 62
7
  6
CONTINUOUS
 10
542.4626237601
 20
31.4222675209
 11
542.4048114807
 21
31.583585953
  0
LINE
  8
0
 62
7
  6
CONTINUOUS
 10
542.1735617012
 20
31.4222675209
 11
542.1735617012
 21
30.8092573885
  0
LINE
  8
0
 62
7
  6
CONTINUOUS
 10
542.4626237601
 20
30.8092573885
 11
542.4626237601
 21
31.4222675209
  0
LINE
  8
0
 62
7
  6
CONTINUOUS
 10
542.9251239807
 20
31.6481133259
 11
542.9251239807
 21
31.583585953
  0
LINE
  8
0
 62
7
  6
CONTINUOUS
 10
543.0581926282
 20
32.612536077
 11
543.0581926282
 21
34.743683618
  0
LINE
  8
0
 62
7
  6
CONTINUOUS
 10
543.3860614807
 20
36.3830278803
 11
543.3860614807
 21
32.612536077
  0
LINE
  8
0
 62
7
  6
CONTINUOUS
 10
538.0688739807
 20
31.1318942979
 11
538.1266865909
 21
31.2286853572
  0
LINE
  8
0
 62
7
  6
CONTINUOUS
 10
533.6751239738
 20
30.9383121455
 11
533.8485614944
 21
30.873784767
  0
LINE
  8
0
 62
7
  6
CONTINUOUS
 10
535.1782489255
 20
31.6481133259
 11
535.0048114255
 21
31.7449043851
  0
LINE
  8
0
 62
7
  6
CONTINUOUS
 10
537.8376238704
 20
30.9705758432
 11
538.0110613704
 21
30.873784767
  0
LINE
  8
0
 62
7
  6
CONTINUOUS
 10
536.8548114807
 20
31.6481133259
 11
536.9704363704
 21
31.583585953
  0
LINE
  8
0
 62
7
  6
CONTINUOUS
 10
537.2016864807
 20
31.6803770123
 11
537.0860615909
 21
31.7449043851
  0
LINE
  8
0
 62
7
  6
CONTINUOUS
 10
542.9251239807
 20
31.0673669025
 11
543.0407492012
 21
30.9383121455
  0
LINE
  8
0
 62
7
  6
CONTINUOUS
 10
543.2719989807
 20
31.0028395296
 11
543.2141867012
 21
31.0673669025
  0
LINE
  8
0
 62
7
  6
CONTINUOUS
 10
542.9251239807
 20
31.583585953
 11
543.0407492012
 21
31.4545312073
  0
LINE
  8
0
 62
7
  6
CONTINUOUS
 10
542.4048114807
 20
31.583585953
 11
542.3469992012
 21
31.6803770123
  0
LINE
  8
0
 62
7
  6
CONTINUOUS
 10
544.7751235396
 20
31.0028395296
 11
544.7751235396
 21
31.0673669025
  0
LINE
  8
0
 62
7
  6
CONTINUOUS
 10
544.7795041036
 20
32.612536077
 11
544.7795041036
 21
36.3830278803
  0
LINE
  8
0
 62
7
  6
CONTINUOUS
 10
537.8376238704
 20
31.7126406987
 11
537.7798115909
 21
31.6481133259
  0
LINE
  8
0
 62
7
  6
CONTINUOUS
 10
534.7157489531
 20
31.6803770123
 11
534.8891865358
 21
31.6158496394
  0
LINE
  8
0
 62
7
  6
CONTINUOUS
 10
539.4563739807
 20
31.6803770123
 11
539.3407487601
 21
31.7449043851
  0
LINE
  8
0
 62
7
  6
CONTINUOUS
 10
543.2719989807
 20
31.5190585802
 11
543.2141867012
 21
31.583585953
  0
LINE
  8
0
 62
7
  6
CONTINUOUS
 10
544.4282492012
 20
31.1318942979
 11
544.4860614807
 21
31.0673669025
  0
LINE
  8
0
 62
7
  6
CONTINUOUS
 10
544.7751235396
 20
31.0673669025
 11
544.6594989807
 21
31.1964216708
  0
LINE
  8
0
 62
7
  6
CONTINUOUS
 10
544.4282492012
 20
31.6481133259
 11
544.4860614807
 21
31.583585953
  0
LINE
  8
0
 62
7
  6
CONTINUOUS
 10
544.7751235396
 20
31.583585953
 11
544.6594989807
 21
31.7126406987
  0
LINE
  8
0
 62
7
  6
CONTINUOUS
 10
538.0688739807
 20
31.583585953
 11
538.1266865909
 21
31.6481133259
  0
LINE
  8
0
 62
7
  6
CONTINUOUS
 10
537.8954364807
 20
31.3254764164
 11
537.7798115909
 21
31.1964216708
  0
LINE
  8
0
 62
7
  6
CONTINUOUS
 10
539.2251242012
 20
31.1641579843
 11
539.1673112601
 21
31.0996306115
  0
LINE
  8
0
 62
7
  6
CONTINUOUS
 10
539.1673112601
 20
30.9060484591
 11
539.2251242012
 21
30.9705758432
  0
LINE
  8
0
 62
7
  6
CONTINUOUS
 10
538.0110613704
 20
30.873784767
 11
538.1266865909
 21
30.8415210777
  0
LINE
  8
0
 62
7
  6
CONTINUOUS
 10
535.0048114255
 20
31.7449043851
 11
534.7735614807
 21
31.809431758
  0
LINE
  8
0
 62
7
  6
CONTINUOUS
 10
538.3579363704
 20
30.9383121455
 11
538.1266865909
 21
31.0028395296
  0
LINE
  8
0
 62
7
  6
CONTINUOUS
 10
537.0860615909
 20
31.7449043851
 11
536.9126240909
 21
31.809431758
  0
LINE
  8
0
 62
7
  6
CONTINUOUS
 10
539.3407487601
 20
31.7449043851
 11
539.1673112601
 21
31.809431758
  0
LINE
  8
0
 62
7
  6
CONTINUOUS
 10
542.0001242012
 20
31.6481133259
 11
542.1157487601
 21
31.583585953
  0
LINE
  8
0
 62
7
  6
CONTINUOUS
 10
542.3469992012
 20
31.6803770123
 11
542.2313739807
 21
31.7449043851
  0
LINE
  8
0
 62
7
  6
CONTINUOUS
 10
533.8485614944
 20
30.873784767
 11
534.0219989944
 21
30.8415210777
  0
LINE
  8
0
 62
7
  6
CONTINUOUS
 10
534.3110615082
 20
30.9383121455
 11
533.9641864669
 21
31.0028395296
  0
LINE
  8
0
 62
7
  6
CONTINUOUS
 10
536.7391865909
 20
31.6803770123
 11
536.8548114807
 21
31.6481133259
  0
LINE
  8
0
 62
7
  6
CONTINUOUS
 10
539.0516867012
 20
31.6803770123
 11
539.1673112601
 21
31.6481133259
  0
LINE
  8
0
 62
7
  6
CONTINUOUS
 10
543.3876242012
 20
30.9705758432
 11
543.2719989807
 21
31.0028395296
  0
LINE
  8
0
 62
7
  6
CONTINUOUS
 10
541.8844989807
 20
31.6803770123
 11
542.0001242012
 21
31.6481133259
  0
LINE
  8
0
 62
7
  6
CONTINUOUS
 10
543.0407492012
 20
30.9383121455
 11
543.2141867012
 21
30.873784767
  0
LINE
  8
0
 62
7
  6
CONTINUOUS
 10
542.2313739807
 20
31.7449043851
 11
542.0579364807
 21
31.809431758
  0
LINE
  8
0
 62
7
  6
CONTINUOUS
 10
543.4454364807
 20
31.4545312073
 11
543.2719989807
 21
31.5190585802
  0
LINE
  8
0
 62
7
  6
CONTINUOUS
 10
544.2548117012
 20
31.1964216708
 11
544.4282492012
 21
31.1318942979
  0
LINE
  8
0
 62
7
  6
CONTINUOUS
 10
544.6594989807
 20
31.7126406987
 11
544.4860614807
 21
31.7771680715
  0
LINE
  8
0
 62
7
  6
CONTINUOUS
 10
543.0407492012
 20
31.4545312073
 11
543.2719989807
 21
31.3577401029
  0
LINE
  8
0
 62
7
  6
CONTINUOUS
 10
544.6594989807
 20
31.1964216708
 11
544.4282492012
 21
31.29321273
  0
LINE
  8
0
 62
7
  6
CONTINUOUS
 10
543.2141867012
 20
31.583585953
 11
543.2719989807
 21
31.6481133259
  0
LINE
  8
0
 62
7
  6
CONTINUOUS
 10
533.6751239738
 20
31.7126406987
 11
533.5594989807
 21
31.6481133259
  0
LINE
  8
0
 62
7
  6
CONTINUOUS
 10
533.7907489669
 20
31.5513222666
 11
533.9641864669
 21
31.6481133259
  0
LINE
  8
0
 62
7
  6
CONTINUOUS
 10
536.1032490358
 20
31.7449043851
 11
535.9876239807
 21
31.6803770123
  0
LINE
  8
0
 62
7
  6
CONTINUOUS
 10
535.9876239807
 20
31.5513222666
 11
536.1032490358
 21
31.6158496394
  0
LINE
  8
0
 62
7
  6
CONTINUOUS
 10
535.0048114255
 20
30.9060484591
 11
535.1782489255
 21
31.0028395296
  0
LINE
  8
0
 62
7
  6
CONTINUOUS
 10
534.0219989944
 20
30.8415210777
 11
534.3688739531
 21
30.8092573885
  0
LINE
  8
0
 62
7
  6
CONTINUOUS
 10
538.1266865909
 20
30.8415210777
 11
538.3579363704
 21
30.8092573885
  0
LINE
  8
0
 62
7
  6
CONTINUOUS
 10
536.5079364807
 20
31.7126406987
 11
536.7391865909
 21
31.6803770123
  0
LINE
  8
0
 62
7
  6
CONTINUOUS
 10
538.8204365909
 20
31.7126406987
 11
539.0516867012
 21
31.6803770123
  0
LINE
  8
0
 62
7
  6
CONTINUOUS
 10
543.2719989807
 20
31.3577401029
 11
544.2548117012
 21
31.1964216708
  0
LINE
  8
0
 62
7
  6
CONTINUOUS
 10
544.4282492012
 20
31.29321273
 11
543.4454364807
 21
31.4545312073
  0
LINE
  8
0
 62
7
  6
CONTINUOUS
 10
536.9126240909
 20
31.809431758
 11
536.7391865909
 21
31.8416954444
  0
LINE
  8
0
 62
7
  6
CONTINUOUS
 10
543.2141867012
 20
30.873784767
 11
543.3876242012
 21
30.8415210777
  0
LINE
  8
0
 62
7
  6
CONTINUOUS
 10
542.0579364807
 20
31.809431758
 11
541.8844989807
 21
31.8416954444
  0
LINE
  8
0
 62
7
  6
CONTINUOUS
 10
544.3126239807
 20
31.6803770123
 11
544.4282492012
 21
31.6481133259
  0
LINE
  8
0
 62
7
  6
CONTINUOUS
 10
544.4860614807
 20
31.0673669025
 11
544.4282492012
 21
31.0028395296
  0
LINE
  8
0
 62
7
  6
CONTINUOUS
 10
543.0407492012
 20
31.7449043851
 11
542.9251239807
 21
31.6481133259
  0
LINE
  8
0
 62
7
  6
CONTINUOUS
 10
537.9532490909
 20
31.7771680715
 11
537.8376238704
 21
31.7126406987
  0
LINE
  8
0
 62
7
  6
CONTINUOUS
 10
538.0110613704
 20
31.3900038345
 11
537.8954364807
 21
31.3254764164
  0
LINE
  8
0
 62
7
  6
CONTINUOUS
 10
538.1266865909
 20
31.2286853572
 11
538.2423114807
 21
31.29321273
  0
LINE
  8
0
 62
7
  6
CONTINUOUS
 10
535.6985614255
 20
30.8092573885
 11
535.9876239807
 21
30.8092573885
  0
LINE
  8
0
 62
7
  6
CONTINUOUS
 10
537.0282489807
 20
30.8092573885
 11
537.3173113704
 21
30.8092573885
  0
LINE
  8
0
 62
7
  6
CONTINUOUS
 10
538.3579363704
 20
30.8092573885
 11
538.7048113704
 21
30.8092573885
  0
LINE
  8
0
 62
7
  6
CONTINUOUS
 10
539.3407487601
 20
30.8092573885
 11
539.6298114807
 21
30.8092573885
  0
LINE
  8
0
 62
7
  6
CONTINUOUS
 10
540.0923117012
 20
30.8092573885
 11
540.3813737601
 21
30.8092573885
  0
LINE
  8
0
 62
7
  6
CONTINUOUS
 10
540.8438739807
 20
30.8092573885
 11
541.1329367012
 21
30.8092573885
  0
LINE
  8
0
 62
7
  6
CONTINUOUS
 10
542.1735617012
 20
30.8092573885
 11
542.4626237601
 21
30.8092573885
  0
LINE
  8
0
 62
7
  6
CONTINUOUS
 10
543.7344992012
 20
30.8092573885
 11
544.0813742012
 21
30.8092573885
  0
LINE
  8
0
 62
7
  6
CONTINUOUS
 10
544.0813742012
 20
30.9383121455
 11
543.7344992012
 21
30.9383121455
  0
LINE
  8
0
 62
7
  6
CONTINUOUS
 10
538.7048113704
 20
30.9383121455
 11
538.3579363704
 21
30.9383121455
  0
LINE
  8
0
 62
7
  6
CONTINUOUS
 10
543.2141867012
 20
31.0673669025
 11
542.9251239807
 21
31.0673669025
  0
LINE
  8
0
 62
7
  6
CONTINUOUS
 10
535.2360615358
 20
31.1318942979
 11
534.9469989807
 21
31.1318942979
  0
LINE
  8
0
 62
7
  6
CONTINUOUS
 10
534.3110615082
 20
31.7126406987
 11
534.7157489531
 21
31.6803770123
  0
LINE
  8
0
 62
7
  6
CONTINUOUS
 10
534.7735614807
 20
31.809431758
 11
534.3688739531
 21
31.8416954444
  0
LINE
  8
0
 62
7
  6
CONTINUOUS
 10
543.3876242012
 20
30.8415210777
 11
543.7344992012
 21
30.8092573885
  0
LINE
  8
0
 62
7
  6
CONTINUOUS
 10
543.7344992012
 20
30.9383121455
 11
543.3876242012
 21
30.9705758432
  0
LINE
  8
0
 62
7
  6
CONTINUOUS
 10
539.1673112601
 20
31.809431758
 11
538.8204365909
 21
31.8416954444
  0
LINE
  8
0
 62
7
  6
CONTINUOUS
 10
543.9657489807
 20
31.7126406987
 11
544.3126239807
 21
31.6803770123
  0
LINE
  8
0
 62
7
  6
CONTINUOUS
 10
544.3126239807
 20
31.809431758
 11
543.9657489807
 21
31.8416954444
  0
LINE
  8
0
 62
7
  6
CONTINUOUS
 10
541.6532492012
 20
31.7126406987
 11
541.8844989807
 21
31.6803770123
  0
LINE
  8
0
 62
7
  6
CONTINUOUS
 10
544.4860614807
 20
31.7771680715
 11
544.3126239807
 21
31.809431758
  0
LINE
  8
0
 62
7
  6
CONTINUOUS
 10
544.6594989807
 20
30.9060484591
 11
544.7751235396
 21
31.0028395296
  0
LINE
  8
0
 62
7
  6
CONTINUOUS
 10
539.1673112601
 20
31.0996306115
 11
538.9938737601
 21
31.0028395296
  0
LINE
  8
0
 62
7
  6
CONTINUOUS
 10
541.2485612601
 20
31.7449043851
 11
541.1329367012
 21
31.6803770123
  0
LINE
  8
0
 62
7
  6
CONTINUOUS
 10
541.1329367012
 20
31.5513222666
 11
541.2485612601
 21
31.6158496394
  0
LINE
  8
0
 62
7
  6
CONTINUOUS
 10
533.8485614944
 20
31.7771680715
 11
533.6751239738
 21
31.7126406987
  0
LINE
  8
0
 62
7
  6
CONTINUOUS
 10
536.2766863704
 20
31.809431758
 11
536.1032490358
 21
31.7449043851
  0
LINE
  8
0
 62
7
  6
CONTINUOUS
 10
536.1032490358
 20
31.6158496394
 11
536.2766863704
 21
31.6803770123
  0
LINE
  8
0
 62
7
  6
CONTINUOUS
 10
534.8891865358
 20
31.035103216
 11
534.7157489531
 21
30.9705758432
  0
LINE
  8
0
 62
7
  6
CONTINUOUS
 10
544.3126239807
 20
30.9705758432
 11
544.0813742012
 21
30.9383121455
  0
LINE
  8
0
 62
7
  6
CONTINUOUS
 10
538.7048113704
 20
30.8092573885
 11
538.9938737601
 21
30.8415210777
  0
LINE
  8
0
 62
7
  6
CONTINUOUS
 10
544.0813742012
 20
30.8092573885
 11
544.4282492012
 21
30.8415210777
  0
LINE
  8
0
 62
7
  6
CONTINUOUS
 10
534.3688739531
 20
30.8092573885
 11
534.7735614807
 21
30.8415210777
  0
LINE
  8
0
 62
7
  6
CONTINUOUS
 10
534.7157489531
 20
30.9705758432
 11
534.3110615082
 21
30.9383121455
  0
LINE
  8
0
 62
7
  6
CONTINUOUS
 10
538.5891864807
 20
31.3577401029
 11
539.2251242012
 21
31.3577401029
  0
LINE
  8
0
 62
7
  6
CONTINUOUS
 10
539.2251242012
 20
31.4867948937
 11
538.5891864807
 21
31.4867948937
  0
LINE
  8
0
 62
7
  6
CONTINUOUS
 10
534.9469989807
 20
31.5190585802
 11
535.2360615358
 21
31.5190585802
  0
LINE
  8
0
 62
7
  6
CONTINUOUS
 10
537.7798115909
 20
31.583585953
 11
538.0688739807
 21
31.583585953
  0
LINE
  8
0
 62
7
  6
CONTINUOUS
 10
544.4860614807
 20
31.583585953
 11
544.7751235396
 21
31.583585953
  0
LINE
  8
0
 62
7
  6
CONTINUOUS
 10
538.4735615909
 20
31.7126406987
 11
538.8204365909
 21
31.7126406987
  0
LINE
  8
0
 62
7
  6
CONTINUOUS
 10
543.6188739807
 20
31.7126406987
 11
543.9657489807
 21
31.7126406987
  0
LINE
  8
0
 62
7
  6
CONTINUOUS
 10
543.9657489807
 20
31.8416954444
 11
543.6188739807
 21
31.8416954444
  0
LINE
  8
0
 62
7
  6
CONTINUOUS
 10
541.8844989807
 20
31.8416954444
 11
541.6532492012
 21
31.8416954444
  0
LINE
  8
0
 62
7
  6
CONTINUOUS
 10
541.1329367012
 20
31.8416954444
 11
540.8438739807
 21
31.8416954444
  0
LINE
  8
0
 62
7
  6
CONTINUOUS
 10
540.3813737601
 20
31.8416954444
 11
540.0923117012
 21
31.8416954444
  0
LINE
  8
0
 62
7
  6
CONTINUOUS
 10
538.8204365909
 20
31.8416954444
 11
538.4735615909
 21
31.8416954444
  0
LINE
  8
0
 62
7
  6
CONTINUOUS
 10
536.7391865909
 20
31.8416954444
 11
536.5079364807
 21
31.8416954444
  0
LINE
  8
0
 62
7
  6
CONTINUOUS
 10
540.0923117012
 20
32.164332399
 11
540.3813737601
 21
32.164332399
  0
LINE
  8
0
 62
7
  6
CONTINUOUS
 10
540.3813737601
 20
32.3256508311
 11
540.0923117012
 21
32.3256508311
  0
LINE
  8
0
 62
7
  6
CONTINUOUS
 10
535.9876239807
 20
32.3256508311
 11
535.6985614255
 21
32.3256508311
  0
LINE
  8
0
 62
7
  6
CONTINUOUS
 10
535.025405743
 20
32.612536077
 11
535.4379770916
 21
32.612536077
  0
LINE
  8
0
 62
7
  6
CONTINUOUS
 10
536.6647500053
 20
32.612536077
 11
538.0581926282
 21
32.612536077
  0
LINE
  8
0
 62
7
  6
CONTINUOUS
 10
538.3860614807
 20
32.612536077
 11
539.7795041036
 21
32.612536077
  0
LINE
  8
0
 62
7
  6
CONTINUOUS
 10
541.6647500053
 20
32.612536077
 11
543.0581926282
 21
32.612536077
  0
LINE
  8
0
 62
7
  6
CONTINUOUS
 10
543.3860614807
 20
32.612536077
 11
544.7795041036
 21
32.612536077
  0
LINE
  8
0
 62
7
  6
CONTINUOUS
 10
541.4219987601
 20
31.809431758
 11
541.2485612601
 21
31.7449043851
  0
LINE
  8
0
 62
7
  6
CONTINUOUS
 10
538.9938737601
 20
30.8415210777
 11
539.1673112601
 21
30.9060484591
  0
LINE
  8
0
 62
7
  6
CONTINUOUS
 10
544.4282492012
 20
30.8415210777
 11
544.6594989807
 21
30.9060484591
  0
LINE
  8
0
 62
7
  6
CONTINUOUS
 10
544.4282492012
 20
31.0028395296
 11
544.3126239807
 21
30.9705758432
  0
LINE
  8
0
 62
7
  6
CONTINUOUS
 10
543.3876242012
 20
31.6803770123
 11
543.6188739807
 21
31.7126406987
  0
LINE
  8
0
 62
7
  6
CONTINUOUS
 10
541.4219987601
 20
31.6803770123
 11
541.6532492012
 21
31.7126406987
  0
LINE
  8
0
 62
7
  6
CONTINUOUS
 10
538.3579363704
 20
31.3254764164
 11
538.5891864807
 21
31.3577401029
  0
LINE
  8
0
 62
7
  6
CONTINUOUS
 10
541.6532492012
 20
31.8416954444
 11
541.4219987601
 21
31.809431758
  0
LINE
  8
0
 62
7
  6
CONTINUOUS
 10
538.2423114807
 20
31.6803770123
 11
538.4735615909
 21
31.7126406987
  0
LINE
  8
0
 62
7
  6
CONTINUOUS
 10
543.6188739807
 20
31.8416954444
 11
543.2719989807
 21
31.809431758
  0
LINE
  8
0
 62
7
  6
CONTINUOUS
 10
538.5891864807
 20
31.4867948937
 11
538.2423114807
 21
31.4545312073
  0
LINE
  8
0
 62
7
  6
CONTINUOUS
 10
534.3688739531
 20
31.8416954444
 11
534.0219989944
 21
31.809431758
  0
LINE
  8
0
 62
7
  6
CONTINUOUS
 10
538.4735615909
 20
31.8416954444
 11
538.0688739807
 21
31.809431758
  0
LINE
  8
0
 62
7
  6
CONTINUOUS
 10
535.8450778741
 20
33.7600770606
 11
535.1893401692
 21
33.7600770606
  0
LINE
  8
0
 62
7
  6
CONTINUOUS
 10
541.2485612601
 20
31.6158496394
 11
541.4219987601
 21
31.6803770123
  0
LINE
  8
0
 62
7
  6
CONTINUOUS
 10
543.2719989807
 20
31.6481133259
 11
543.3876242012
 21
31.6803770123
  0
LINE
  8
0
 62
7
  6
CONTINUOUS
 10
543.2719989807
 20
31.809431758
 11
543.0407492012
 21
31.7449043851
  0
LINE
  8
0
 62
7
  6
CONTINUOUS
 10
538.9938737601
 20
31.0028395296
 11
538.7048113704
 21
30.9383121455
  0
LINE
  8
0
 62
7
  6
CONTINUOUS
 10
536.2766863704
 20
31.6803770123
 11
536.5079364807
 21
31.7126406987
  0
LINE
  8
0
 62
7
  6
CONTINUOUS
 10
536.5079364807
 20
31.8416954444
 11
536.2766863704
 21
31.809431758
  0
LINE
  8
0
 62
7
  6
CONTINUOUS
 10
534.0798114807
 20
31.6803770123
 11
534.3110615082
 21
31.7126406987
  0
LINE
  8
0
 62
7
  6
CONTINUOUS
 10
540.5991762348
 20
35.2354868967
 11
541.2549139397
 21
35.2354868967
  0
LINE
  8
0
 62
7
  6
CONTINUOUS
 10
538.2423114807
 20
31.29321273
 11
538.3579363704
 21
31.3254764164
  0
LINE
  8
0
 62
7
  6
CONTINUOUS
 10
538.2423114807
 20
31.4545312073
 11
538.0110613704
 21
31.3900038345
  0
LINE
  8
0
 62
7
  6
CONTINUOUS
 10
538.1266865909
 20
31.6481133259
 11
538.2423114807
 21
31.6803770123
  0
LINE
  8
0
 62
7
  6
CONTINUOUS
 10
534.7735614807
 20
30.8415210777
 11
535.0048114255
 21
30.9060484591
  0
LINE
  8
0
 62
7
  6
CONTINUOUS
 10
538.0688739807
 20
31.809431758
 11
537.9532490909
 21
31.7771680715
  0
LINE
  8
0
 62
7
  6
CONTINUOUS
 10
534.0219989944
 20
31.809431758
 11
533.8485614944
 21
31.7771680715
  0
LINE
  8
0
 62
7
  6
CONTINUOUS
 10
544.7795041036
 20
36.3830278803
 11
543.3860614807
 21
36.3830278803
  0
LINE
  8
0
 62
7
  6
CONTINUOUS
 10
541.4188483659
 20
36.3830278803
 11
541.0062770173
 21
36.3830278803
  0
LINE
  8
0
 62
7
  6
CONTINUOUS
 10
539.7795041036
 20
36.3830278803
 11
538.3860614807
 21
36.3830278803
  0
LINE
  8
0
 62
7
  6
CONTINUOUS
 10
538.0581926282
 20
36.3830278803
 11
536.6647500053
 21
36.3830278803
  0
LINE
  8
0
 62
7
  6
CONTINUOUS
 10
534.7795041036
 20
36.3830278803
 11
533.3860614807
 21
36.3830278803
  0
LINE
  8
0
 62
7
  6
CONTINUOUS
 10
533.9641864669
 20
31.6481133259
 11
534.0798114807
 21
31.6803770123
  0
CIRCLE
  8
0
 62
7
  6
CONTINUOUS
 10
544.0827827921
 20
38.7190934541
 40
2.0901639344
  0
ARC
  8
0
 62
7
  6
CONTINUOUS
 10
535.025405743
 20
34.2518803393
 40
1.6393442623
 50
180.0
 51
270.0
  0
ARC
  8
0
 62
7
  6
CONTINUOUS
 10
541.4188483659
 20
34.743683618
 40
1.6393442623
 50
0.0
 51
90.0
  0
ARC
  8
0
 62
7
  6
CONTINUOUS
 10
535.4379770916
 20
34.0879459131
 40
1.4754098361
 50
270.0
 51
326.2510114041
  0
ARC
  8
0
 62
7
  6
CONTINUOUS
 10
541.0062770173
 20
34.9076180442
 40
1.4754098361
 50
90.0
 51
146.2510114041
  0
ARC
  8
0
 62
7
  6
CONTINUOUS
 10
535.8450778741
 20
34.5797491918
 40
0.8196721311
 50
270.0
 51
360.0
  0
ARC
  8
0
 62
7
  6
CONTINUOUS
 10
540.5991762348
 20
34.4158147655
 40
0.8196721311
 50
90.0
 51
180.0
  0
ARC
  8
0
 62
7
  6
CONTINUOUS
 10
535.1893401692
 20
34.1699131262
 40
0.4098360656
 50
180.0
 51
270.0
  0
ARC
  8
0
 62
7
  6
CONTINUOUS
 10
541.2549139397
 20
34.8256508311
 40
0.4098360656
 50
0.0
 51
90.0
  0
SOLID
  8
0
 62
7
  6
CONTINUOUS
 10
540.0923117012
 20
32.1643327593
 11
540.0923117012
 21
32.3256512429
 12
540.3813737601
 22
32.1643327593
 13
540.3813737601
 23
32.3256512429
  0
SOLID
  8
0
 62
7
  6
CONTINUOUS
 10
534.3688739531
 20
31.841695792
 11
534.7735614807
 21
31.8094316148
 12
534.0219989944
 22
31.8094316148
 13
534.0219989944
 23
31.8094316148
  0
SOLID
  8
0
 62
7
  6
CONTINUOUS
 10
533.8485614944
 20
31.7771687019
 11
534.0219989944
 21
31.8094316148
 12
534.7735614807
 22
31.8094316148
 13
534.7735614807
 23
31.8094316148
  0
SOLID
  8
0
 62
7
  6
CONTINUOUS
 10
534.7735614807
 20
31.8094316148
 11
535.0048114255
 21
31.7449043986
 12
533.8485614944
 22
31.7771687019
 13
533.8485614944
 23
31.7771687019
  0
SOLID
  8
0
 62
7
  6
CONTINUOUS
 10
533.6751239738
 20
31.712640202
 11
533.8485614944
 21
31.7771687019
 12
535.0048114255
 22
31.7449043986
 13
535.0048114255
 23
31.7449043986
  0
SOLID
  8
0
 62
7
  6
CONTINUOUS
 10
533.6751239738
 20
31.712640202
 11
535.0048114255
 21
31.7449043986
 12
534.3110615082
 22
31.712640202
 13
534.3110615082
 23
31.712640202
  0
SOLID
  8
0
 62
7
  6
CONTINUOUS
 10
534.3110615082
 20
31.712640202
 11
535.0048114255
 21
31.7449043986
 12
534.7157489531
 22
31.6803773084
 13
534.7157489531
 23
31.6803773084
  0
SOLID
  8
0
 62
7
  6
CONTINUOUS
 10
535.0048114255
 20
31.7449043986
 11
535.1782489255
 21
31.6481130052
 12
534.7157489531
 22
31.6803773084
 13
534.7157489531
 23
31.6803773084
  0
SOLID
  8
0
 62
7
  6
CONTINUOUS
 10
534.8891865358
 20
31.6158502183
 11
534.7157489531
 21
31.6803773084
 12
535.1782489255
 22
31.6481130052
 13
535.1782489255
 23
31.6481130052
  0
SOLID
  8
0
 62
7
  6
CONTINUOUS
 10
534.8891865358
 20
31.6158502183
 11
535.1782489255
 21
31.6481130052
 12
534.9469989807
 22
31.5190586669
 13
534.9469989807
 23
31.5190586669
  0
SOLID
  8
0
 62
7
  6
CONTINUOUS
 10
535.1782489255
 20
31.6481130052
 11
535.2360615358
 21
31.5190586669
 12
534.9469989807
 22
31.5190586669
 13
534.9469989807
 23
31.5190586669
  0
SOLID
  8
0
 62
7
  6
CONTINUOUS
 10
536.2766863704
 20
31.8094307377
 11
536.5079364807
 21
31.841695041
 12
536.7391865909
 22
31.841695041
 13
536.7391865909
 23
31.841695041
  0
SOLID
  8
0
 62
7
  6
CONTINUOUS
 10
536.7391865909
 20
31.841695041
 11
536.9126240909
 21
31.8094307377
 12
536.2766863704
 22
31.8094307377
 13
536.2766863704
 23
31.8094307377
  0
SOLID
  8
0
 62
7
  6
CONTINUOUS
 10
536.1032490358
 20
31.7449036475
 11
536.2766863704
 21
31.8094307377
 12
536.9126240909
 22
31.8094307377
 13
536.9126240909
 23
31.8094307377
  0
SOLID
  8
0
 62
7
  6
CONTINUOUS
 10
536.9126240909
 20
31.8094307377
 11
537.0860615909
 21
31.7449036475
 12
536.1032490358
 22
31.7449036475
 13
536.1032490358
 23
31.7449036475
  0
SOLID
  8
0
 62
7
  6
CONTINUOUS
 10
537.0860615909
 20
31.7449036475
 11
536.5079364807
 21
31.7126400953
 12
536.1032490358
 22
31.7449036475
 13
536.1032490358
 23
31.7449036475
  0
SOLID
  8
0
 62
7
  6
CONTINUOUS
 10
535.9876239807
 20
31.6803765574
 11
536.1032490358
 21
31.7449036475
 12
536.5079364807
 22
31.7126400953
 13
536.5079364807
 23
31.7126400953
  0
SOLID
  8
0
 62
7
  6
CONTINUOUS
 10
536.5079364807
 20
31.7126400953
 11
536.2766863704
 21
31.6803765574
 12
535.9876239807
 22
31.6803765574
 13
535.9876239807
 23
31.6803765574
  0
SOLID
  8
0
 62
7
  6
CONTINUOUS
 10
536.5079364807
 20
31.7126400953
 11
537.0860615909
 21
31.7449036475
 12
536.7391865909
 22
31.6803765574
 13
536.7391865909
 23
31.6803765574
  0
SOLID
  8
0
 62
7
  6
CONTINUOUS
 10
537.0860615909
 20
31.7449036475
 11
537.2016864807
 21
31.6803765574
 12
536.7391865909
 22
31.6803765574
 13
536.7391865909
 23
31.6803765574
  0
SOLID
  8
0
 62
7
  6
CONTINUOUS
 10
536.8548114807
 20
31.6481130052
 11
536.7391865909
 21
31.6803765574
 12
537.2016864807
 22
31.6803765574
 13
537.2016864807
 23
31.6803765574
  0
SOLID
  8
0
 62
7
  6
CONTINUOUS
 10
537.2016864807
 20
31.6803765574
 11
537.2594990909
 21
31.6158494672
 12
536.8548114807
 22
31.6481130052
 13
536.8548114807
 23
31.6481130052
  0
SOLID
  8
0
 62
7
  6
CONTINUOUS
 10
536.9704363704
 20
31.583585915
 11
536.8548114807
 21
31.6481130052
 12
537.2594990909
 22
31.6158494672
 13
537.2594990909
 23
31.6158494672
  0
SOLID
  8
0
 62
7
  6
CONTINUOUS
 10
536.9704363704
 20
31.583585915
 11
537.2594990909
 21
31.6158494672
 12
537.0282489807
 22
31.4545309836
 13
537.0282489807
 23
31.4545309836
  0
SOLID
  8
0
 62
7
  6
CONTINUOUS
 10
537.2594990909
 20
31.6158494672
 11
537.3173113704
 21
31.4545309836
 12
537.0282489807
 22
31.4545309836
 13
537.0282489807
 23
31.4545309836
  0
SOLID
  8
0
 62
7
  6
CONTINUOUS
 10
536.2766863704
 20
31.6803765574
 11
536.1032490358
 21
31.6158494672
 12
535.9876239807
 22
31.6803765574
 13
535.9876239807
 23
31.6803765574
  0
SOLID
  8
0
 62
7
  6
CONTINUOUS
 10
536.1032490358
 20
31.6158494672
 11
535.9876239807
 21
31.5513216117
 12
535.9876239807
 22
31.6803765574
 13
535.9876239807
 23
31.6803765574
  0
SOLID
  8
0
 62
7
  6
CONTINUOUS
 10
535.9876239807
 20
31.5513216117
 11
535.6985614255
 21
30.8092570492
 12
535.9876239807
 22
31.6803765574
 13
535.9876239807
 23
31.6803765574
  0
SOLID
  8
0
 62
7
  6
CONTINUOUS
 10
535.9876239807
 20
31.6803765574
 11
535.6985614255
 21
30.8092570492
 12
535.9876239807
 22
32.3256504918
 13
535.9876239807
 23
32.3256504918
  0
SOLID
  8
0
 62
7
  6
CONTINUOUS
 10
535.6985614255
 20
30.8092570492
 11
535.6985614255
 21
32.3256504918
 12
535.9876239807
 22
32.3256504918
 13
535.9876239807
 23
32.3256504918
  0
SOLID
  8
0
 62
7
  6
CONTINUOUS
 10
535.9876239807
 20
31.5513216117
 11
535.9876239807
 21
30.8092570492
 12
535.6985614255
 22
30.8092570492
 13
535.6985614255
 23
30.8092570492
  0
SOLID
  8
0
 62
7
  6
CONTINUOUS
 10
537.0282489807
 20
30.8092570492
 11
537.0282489807
 21
31.4545309836
 12
537.3173113704
 22
31.4545309836
 13
537.3173113704
 23
31.4545309836
  0
SOLID
  8
0
 62
7
  6
CONTINUOUS
 10
537.3173113704
 20
31.4545309836
 11
537.3173113704
 21
30.8092570492
 12
537.0282489807
 22
30.8092570492
 13
537.0282489807
 23
30.8092570492
  0
SOLID
  8
0
 62
7
  6
CONTINUOUS
 10
538.0688739807
 20
31.809431823
 11
538.4735615909
 21
31.8416958158
 12
538.8204365909
 22
31.8416958158
 13
538.8204365909
 23
31.8416958158
  0
SOLID
  8
0
 62
7
  6
CONTINUOUS
 10
538.8204365909
 20
31.8416958158
 11
539.1673112601
 21
31.809431823
 12
538.0688739807
 22
31.809431823
 13
538.0688739807
 23
31.809431823
  0
SOLID
  8
0
 62
7
  6
CONTINUOUS
 10
537.9532490909
 20
31.7771687019
 11
538.0688739807
 21
31.809431823
 12
539.1673112601
 22
31.809431823
 13
539.1673112601
 23
31.809431823
  0
SOLID
  8
0
 62
7
  6
CONTINUOUS
 10
539.1673112601
 20
31.809431823
 11
539.3407487601
 21
31.7449043986
 12
537.9532490909
 22
31.7771687019
 13
537.9532490909
 23
31.7771687019
  0
SOLID
  8
0
 62
7
  6
CONTINUOUS
 10
537.8376238704
 20
31.7126398448
 11
537.9532490909
 21
31.7771687019
 12
539.3407487601
 22
31.7449043986
 13
539.3407487601
 23
31.7449043986
  0
SOLID
  8
0
 62
7
  6
CONTINUOUS
 10
537.8376238704
 20
31.7126398448
 11
539.3407487601
 21
31.7449043986
 12
538.4735615909
 22
31.7126398448
 13
538.4735615909
 23
31.7126398448
  0
SOLID
  8
0
 62
7
  6
CONTINUOUS
 10
538.4735615909
 20
31.7126398448
 11
539.3407487601
 21
31.7449043986
 12
538.8204365909
 22
31.7126398448
 13
538.8204365909
 23
31.7126398448
  0
SOLID
  8
0
 62
7
  6
CONTINUOUS
 10
538.8204365909
 20
31.7126398448
 11
539.3407487601
 21
31.7449043986
 12
539.0516867012
 22
31.6803774007
 13
539.0516867012
 23
31.6803774007
  0
SOLID
  8
0
 62
7
  6
CONTINUOUS
 10
539.3407487601
 20
31.7449043986
 11
539.4563739807
 21
31.6803774007
 12
539.0516867012
 22
31.6803774007
 13
539.0516867012
 23
31.6803774007
  0
SOLID
  8
0
 62
7
  6
CONTINUOUS
 10
537.7798115909
 20
31.6481126336
 11
537.8376238704
 21
31.7126398448
 12
538.4735615909
 22
31.7126398448
 13
538.4735615909
 23
31.7126398448
  0
SOLID
  8
0
 62
7
  6
CONTINUOUS
 10
539.1673112601
 20
31.6481126336
 11
539.0516867012
 21
31.6803774007
 12
539.4563739807
 22
31.6803774007
 13
539.4563739807
 23
31.6803774007
  0
SOLID
  8
0
 62
7
  6
CONTINUOUS
 10
539.1673112601
 20
31.6481126336
 11
539.4563739807
 21
31.6803774007
 12
539.2251242012
 22
31.5835861968
 13
539.2251242012
 23
31.5835861968
  0
SOLID
  8
0
 62
7
  6
CONTINUOUS
 10
539.4563739807
 20
31.6803774007
 11
539.5141862601
 21
31.5835861968
 12
539.2251242012
 22
31.5835861968
 13
539.2251242012
 23
31.5835861968
  0
SOLID
  8
0
 62
7
  6
CONTINUOUS
 10
539.2251242012
 20
31.4867945216
 11
539.2251242012
 21
31.5835861968
 12
539.5141862601
 22
31.5835861968
 13
539.5141862601
 23
31.5835861968
  0
SOLID
  8
0
 62
7
  6
CONTINUOUS
 10
539.2251242012
 20
31.4867945216
 11
539.5141862601
 21
31.5835861968
 12
539.2251242012
 22
31.3577403412
 13
539.2251242012
 23
31.3577403412
  0
SOLID
  8
0
 62
7
  6
CONTINUOUS
 10
539.2251242012
 20
31.3577403412
 11
539.5141862601
 21
31.5835861968
 12
539.2251242012
 22
31.1641579843
 13
539.2251242012
 23
31.1641579843
  0
SOLID
  8
0
 62
7
  6
CONTINUOUS
 10
539.5141862601
 20
31.5835861968
 11
539.5141862601
 21
31.0673661609
 12
539.2251242012
 22
31.1641579843
 13
539.2251242012
 23
31.1641579843
  0
SOLID
  8
0
 62
7
  6
CONTINUOUS
 10
541.4219987601
 20
31.8094310465
 11
541.6532492012
 21
31.8416957661
 12
541.8844989807
 22
31.8416957661
 13
541.8844989807
 23
31.8416957661
  0
SOLID
  8
0
 62
7
  6
CONTINUOUS
 10
541.8844989807
 20
31.8416957661
 11
542.0579364807
 21
31.8094310465
 12
541.4219987601
 22
31.8094310465
 13
541.4219987601
 23
31.8094310465
  0
SOLID
  8
0
 62
7
  6
CONTINUOUS
 10
541.2485612601
 20
31.7449047044
 11
541.4219987601
 21
31.8094310465
 12
542.0579364807
 22
31.8094310465
 13
542.0579364807
 23
31.8094310465
  0
SOLID
  8
0
 62
7
  6
CONTINUOUS
 10
542.0579364807
 20
31.8094310465
 11
542.2313739807
 21
31.7449047044
 12
541.2485612601
 22
31.7449047044
 13
541.2485612601
 23
31.7449047044
  0
SOLID
  8
0
 62
7
  6
CONTINUOUS
 10
542.2313739807
 20
31.7449047044
 11
541.6532492012
 21
31.7126400953
 12
541.2485612601
 22
31.7449047044
 13
541.2485612601
 23
31.7449047044
  0
SOLID
  8
0
 62
7
  6
CONTINUOUS
 10
541.1329367012
 20
31.6803773299
 11
541.2485612601
 21
31.7449047044
 12
541.6532492012
 22
31.7126400953
 13
541.6532492012
 23
31.7126400953
  0
SOLID
  8
0
 62
7
  6
CONTINUOUS
 10
541.6532492012
 20
31.7126400953
 11
541.4219987601
 21
31.6803773299
 12
541.1329367012
 22
31.6803773299
 13
541.1329367012
 23
31.6803773299
  0
SOLID
  8
0
 62
7
  6
CONTINUOUS
 10
541.6532492012
 20
31.7126400953
 11
542.2313739807
 21
31.7449047044
 12
541.8844989807
 22
31.6803773299
 13
541.8844989807
 23
31.6803773299
  0
SOLID
  8
0
 62
7
  6
CONTINUOUS
 10
542.2313739807
 20
31.7449047044
 11
542.3469992012
 21
31.6803773299
 12
541.8844989807
 22
31.6803773299
 13
541.8844989807
 23
31.6803773299
  0
SOLID
  8
0
 62
7
  6
CONTINUOUS
 10
542.0001242012
 20
31.6481130052
 11
541.8844989807
 21
31.6803773299
 12
542.3469992012
 22
31.6803773299
 13
542.3469992012
 23
31.6803773299
  0
SOLID
  8
0
 62
7
  6
CONTINUOUS
 10
542.0001242012
 20
31.6481130052
 11
542.3469992012
 21
31.6803773299
 12
542.1157487601
 22
31.5835862682
 13
542.1157487601
 23
31.5835862682
  0
SOLID
  8
0
 62
7
  6
CONTINUOUS
 10
542.3469992012
 20
31.6803773299
 11
542.4048114807
 21
31.5835862682
 12
542.1157487601
 22
31.5835862682
 13
542.1157487601
 23
31.5835862682
  0
SOLID
  8
0
 62
7
  6
CONTINUOUS
 10
542.1735617012
 20
31.422267832
 11
542.1157487601
 21
31.5835862682
 12
542.4048114807
 22
31.5835862682
 13
542.4048114807
 23
31.5835862682
  0
SOLID
  8
0
 62
7
  6
CONTINUOUS
 10
542.4048114807
 20
31.5835862682
 11
542.4626237601
 21
31.422267832
 12
542.1735617012
 22
31.422267832
 13
542.1735617012
 23
31.422267832
  0
SOLID
  8
0
 62
7
  6
CONTINUOUS
 10
541.4219987601
 20
31.6803773299
 11
541.2485612601
 21
31.6158502183
 12
541.1329367012
 22
31.6803773299
 13
541.1329367012
 23
31.6803773299
  0
SOLID
  8
0
 62
7
  6
CONTINUOUS
 10
541.2485612601
 20
31.6158502183
 11
541.1329367012
 21
31.5513216117
 12
541.1329367012
 22
31.6803773299
 13
541.1329367012
 23
31.6803773299
  0
SOLID
  8
0
 62
7
  6
CONTINUOUS
 10
541.1329367012
 20
31.5513216117
 11
540.8438739807
 21
30.8092577743
 12
541.1329367012
 22
31.6803773299
 13
541.1329367012
 23
31.6803773299
  0
SOLID
  8
0
 62
7
  6
CONTINUOUS
 10
541.1329367012
 20
31.6803773299
 11
540.8438739807
 21
30.8092577743
 12
541.1329367012
 22
31.8416957661
 13
541.1329367012
 23
31.8416957661
  0
SOLID
  8
0
 62
7
  6
CONTINUOUS
 10
540.8438739807
 20
30.8092577743
 11
540.8438739807
 21
31.8416957661
 12
541.1329367012
 22
31.8416957661
 13
541.1329367012
 23
31.8416957661
  0
SOLID
  8
0
 62
7
  6
CONTINUOUS
 10
541.1329367012
 20
31.5513216117
 11
541.1329367012
 21
30.8092577743
 12
540.8438739807
 22
30.8092577743
 13
540.8438739807
 23
30.8092577743
  0
SOLID
  8
0
 62
7
  6
CONTINUOUS
 10
542.1735617012
 20
30.8092577743
 11
542.1735617012
 21
31.422267832
 12
542.4626237601
 22
31.422267832
 13
542.4626237601
 23
31.422267832
  0
SOLID
  8
0
 62
7
  6
CONTINUOUS
 10
542.4626237601
 20
31.422267832
 11
542.4626237601
 21
30.8092577743
 12
542.1735617012
 22
30.8092577743
 13
542.1735617012
 23
30.8092577743
  0
SOLID
  8
0
 62
7
  6
CONTINUOUS
 10
543.2719989807
 20
31.8094314924
 11
543.6188739807
 21
31.8416958387
 12
543.9657489807
 22
31.8416958387
 13
543.9657489807
 23
31.8416958387
  0
SOLID
  8
0
 62
7
  6
CONTINUOUS
 10
543.9657489807
 20
31.8416958387
 11
544.3126239807
 21
31.8094314924
 12
543.2719989807
 22
31.8094314924
 13
543.2719989807
 23
31.8094314924
  0
SOLID
  8
0
 62
7
  6
CONTINUOUS
 10
543.0407492012
 20
31.7449043986
 11
543.2719989807
 21
31.8094314924
 12
544.3126239807
 22
31.8094314924
 13
544.3126239807
 23
31.8094314924
  0
SOLID
  8
0
 62
7
  6
CONTINUOUS
 10
543.0407492012
 20
31.7449043986
 11
544.3126239807
 21
31.8094314888
 12
544.4860614807
 22
31.7771687019
 13
544.4860614807
 23
31.7771687019
  0
SOLID
  8
0
 62
7
  6
CONTINUOUS
 10
543.0407492012
 20
31.7449043986
 11
544.4860614807
 21
31.7771687019
 12
543.6188739807
 22
31.7126401399
 13
543.6188739807
 23
31.7126401399
  0
SOLID
  8
0
 62
7
  6
CONTINUOUS
 10
543.6188739807
 20
31.7126401399
 11
544.4860614807
 21
31.7771687019
 12
543.9657489807
 22
31.7126401399
 13
543.9657489807
 23
31.7126401399
  0
SOLID
  8
0
 62
7
  6
CONTINUOUS
 10
544.4860614807
 20
31.7771687019
 11
544.6594989807
 21
31.7126401399
 12
543.9657489807
 22
31.7126401399
 13
543.9657489807
 23
31.7126401399
  0
SOLID
  8
0
 62
7
  6
CONTINUOUS
 10
544.3126239807
 20
31.6803773084
 11
543.9657489807
 21
31.7126401399
 12
544.6594989807
 22
31.7126401399
 13
544.6594989807
 23
31.7126401399
  0
SOLID
  8
0
 62
7
  6
CONTINUOUS
 10
542.9251239807
 20
31.6481128977
 11
543.0407492012
 21
31.7449043986
 12
543.6188739807
 22
31.7126401399
 13
543.6188739807
 23
31.7126401399
  0
SOLID
  8
0
 62
7
  6
CONTINUOUS
 10
544.3126239807
 20
31.6803773084
 11
544.6594989807
 21
31.7126401399
 12
544.4282492012
 22
31.6481128977
 13
544.4282492012
 23
31.6481128977
  0
SOLID
  8
0
 62
7
  6
CONTINUOUS
 10
544.4282492012
 20
31.6481128977
 11
544.6594989807
 21
31.7126401399
 12
544.4860614807
 22
31.5835858812
 13
544.4860614807
 23
31.5835858812
  0
SOLID
  8
0
 62
7
  6
CONTINUOUS
 10
544.6594989807
 20
31.7126401399
 11
544.7751235396
 21
31.5835858812
 12
544.4860614807
 22
31.5835858812
 13
544.4860614807
 23
31.5835858812
  0
SOLID
  8
0
 62
7
  6
CONTINUOUS
 10
534.0798114807
 20
31.6803773084
 11
533.5594989807
 21
31.6481129264
 12
534.3110615082
 22
31.7126401456
 13
534.3110615082
 23
31.7126401456
  0
SOLID
  8
0
 62
7
  6
CONTINUOUS
 10
533.5594989807
 20
31.6481129264
 11
533.6751239738
 21
31.7126401456
 12
534.3110615082
 22
31.7126401456
 13
534.3110615082
 23
31.7126401456
  0
SOLID
  8
0
 62
7
  6
CONTINUOUS
 10
534.0798114807
 20
31.6803773084
 11
533.9641864669
 21
31.6481129264
 12
533.5594989807
 22
31.6481129264
 13
533.5594989807
 23
31.6481129264
  0
SOLID
  8
0
 62
7
  6
CONTINUOUS
 10
533.4438739824
 20
31.5190588248
 11
533.5594989807
 21
31.6481129264
 12
533.9641864669
 22
31.6481129264
 13
533.9641864669
 23
31.6481129264
  0
SOLID
  8
0
 62
7
  6
CONTINUOUS
 10
537.7798115909
 20
31.6481130555
 11
538.4735615909
 21
31.7126400953
 12
538.2423114807
 22
31.6803773084
 13
538.2423114807
 23
31.6803773084
  0
SOLID
  8
0
 62
7
  6
CONTINUOUS
 10
538.2423114807
 20
31.6803773084
 11
538.1266865909
 21
31.6481130555
 12
537.7798115909
 22
31.6481130555
 13
537.7798115909
 23
31.6481130555
  0
SOLID
  8
0
 62
7
  6
CONTINUOUS
 10
537.7798115909
 20
31.5835859653
 11
537.7798115909
 21
31.6481130555
 12
538.1266865909
 22
31.6481130555
 13
538.1266865909
 23
31.6481130555
  0
SOLID
  8
0
 62
7
  6
CONTINUOUS
 10
538.1266865909
 20
31.6481130555
 11
538.0688739807
 21
31.5835859653
 12
537.7798115909
 22
31.5835859653
 13
537.7798115909
 23
31.5835859653
  0
SOLID
  8
0
 62
7
  6
CONTINUOUS
 10
542.9251239807
 20
31.6481130555
 11
543.6188739807
 21
31.7126400953
 12
543.3876242012
 22
31.6803773084
 13
543.3876242012
 23
31.6803773084
  0
SOLID
  8
0
 62
7
  6
CONTINUOUS
 10
543.3876242012
 20
31.6803773084
 11
543.2719989807
 21
31.6481130555
 12
542.9251239807
 22
31.6481130555
 13
542.9251239807
 23
31.6481130555
  0
SOLID
  8
0
 62
7
  6
CONTINUOUS
 10
542.9251239807
 20
31.5835859653
 11
542.9251239807
 21
31.6481130555
 12
543.2719989807
 22
31.6481130555
 13
543.2719989807
 23
31.6481130555
  0
SOLID
  8
0
 62
7
  6
CONTINUOUS
 10
543.2719989807
 20
31.6481130555
 11
543.2141867012
 21
31.5835859653
 12
542.9251239807
 22
31.5835859653
 13
542.9251239807
 23
31.5835859653
  0
SOLID
  8
0
 62
7
  6
CONTINUOUS
 10
543.0407492012
 20
31.4545317347
 11
542.9251239807
 21
31.5835859653
 12
543.2141867012
 22
31.5835859653
 13
543.2141867012
 23
31.5835859653
  0
SOLID
  8
0
 62
7
  6
CONTINUOUS
 10
533.4438739824
 20
31.5190588248
 11
533.9641864669
 21
31.6481130052
 12
533.7907489669
 22
31.5513216117
 13
533.7907489669
 23
31.5513216117
  0
SOLID
  8
0
 62
7
  6
CONTINUOUS
 10
533.7907489669
 20
31.5513216117
 11
533.7329364807
 21
31.4867945216
 12
533.4438739824
 22
31.5190588248
 13
533.4438739824
 23
31.5190588248
  0
SOLID
  8
0
 62
7
  6
CONTINUOUS
 10
533.3860614807
 20
31.325476038
 11
533.4438739824
 21
31.5190588248
 12
533.7329364807
 22
31.4867945216
 13
533.7329364807
 23
31.4867945216
  0
SOLID
  8
0
 62
7
  6
CONTINUOUS
 10
538.2423114807
 20
31.4545317347
 11
538.5891864807
 21
31.4867945557
 12
539.2251242012
 22
31.4867945557
 13
539.2251242012
 23
31.4867945557
  0
SOLID
  8
0
 62
7
  6
CONTINUOUS
 10
538.2423114807
 20
31.4545317347
 11
539.2251242012
 21
31.4867945557
 12
538.0110613704
 22
31.3900038345
 13
538.0110613704
 23
31.3900038345
  0
SOLID
  8
0
 62
7
  6
CONTINUOUS
 10
538.0110613704
 20
31.3900038345
 11
539.2251242012
 21
31.4867945557
 12
538.5891864807
 22
31.3577403754
 13
538.5891864807
 23
31.3577403754
  0
SOLID
  8
0
 62
7
  6
CONTINUOUS
 10
539.2251242012
 20
31.4867945557
 11
539.2251242012
 21
31.3577403754
 12
538.5891864807
 22
31.3577403754
 13
538.5891864807
 23
31.3577403754
  0
SOLID
  8
0
 62
7
  6
CONTINUOUS
 10
543.0407492012
 20
31.4545313481
 11
543.2141867012
 21
31.583585915
 12
543.2719989807
 22
31.5190588248
 13
543.2719989807
 23
31.5190588248
  0
SOLID
  8
0
 62
7
  6
CONTINUOUS
 10
543.2719989807
 20
31.5190588248
 11
543.4454364807
 21
31.4545313481
 12
543.0407492012
 22
31.4545313481
 13
543.0407492012
 23
31.4545313481
  0
SOLID
  8
0
 62
7
  6
CONTINUOUS
 10
543.2719989807
 20
31.3577403412
 11
543.0407492012
 21
31.4545313481
 12
543.4454364807
 22
31.4545313481
 13
543.4454364807
 23
31.4545313481
  0
SOLID
  8
0
 62
7
  6
CONTINUOUS
 10
543.4454364807
 20
31.4545313481
 11
544.4282492012
 21
31.2932132511
 12
543.2719989807
 22
31.3577403412
 13
543.2719989807
 23
31.3577403412
  0
SOLID
  8
0
 62
7
  6
CONTINUOUS
 10
544.2548117012
 20
31.1964222346
 11
543.2719989807
 21
31.3577403412
 12
544.4282492012
 22
31.2932132511
 13
544.4282492012
 23
31.2932132511
  0
SOLID
  8
0
 62
7
  6
CONTINUOUS
 10
544.4282492012
 20
31.2932132511
 11
544.6594989807
 21
31.1964222346
 12
544.2548117012
 22
31.1964222346
 13
544.2548117012
 23
31.1964222346
  0
SOLID
  8
0
 62
7
  6
CONTINUOUS
 10
544.4282492012
 20
31.1318947675
 11
544.2548117012
 21
31.1964222346
 12
544.6594989807
 22
31.1964222346
 13
544.6594989807
 23
31.1964222346
  0
SOLID
  8
0
 62
7
  6
CONTINUOUS
 10
544.4282492012
 20
31.1318947675
 11
544.6594989807
 21
31.1964222346
 12
544.4860614807
 22
31.0673665164
 13
544.4860614807
 23
31.0673665164
  0
SOLID
  8
0
 62
7
  6
CONTINUOUS
 10
544.6594989807
 20
31.1964222346
 11
544.7751235396
 21
31.0673665164
 12
544.4860614807
 22
31.0673665164
 13
544.4860614807
 23
31.0673665164
  0
SOLID
  8
0
 62
7
  6
CONTINUOUS
 10
544.4282492012
 20
31.0028394316
 11
544.4860614807
 21
31.0673665164
 12
544.7751235396
 22
31.0673665164
 13
544.7751235396
 23
31.0673665164
  0
SOLID
  8
0
 62
7
  6
CONTINUOUS
 10
544.7751235396
 20
31.0673665164
 11
544.7751235396
 21
31.0028394316
 12
544.4282492012
 22
31.0028394316
 13
544.4282492012
 23
31.0028394316
  0
SOLID
  8
0
 62
7
  6
CONTINUOUS
 10
544.3126239807
 20
30.9705762839
 11
544.4282492012
 21
31.0028394316
 12
544.7751235396
 22
31.0028394316
 13
544.7751235396
 23
31.0028394316
  0
SOLID
  8
0
 62
7
  6
CONTINUOUS
 10
544.3126239807
 20
30.9705762839
 11
544.7751235396
 21
31.0028394316
 12
544.0813742012
 22
30.9383123468
 13
544.0813742012
 23
30.9383123468
  0
SOLID
  8
0
 62
7
  6
CONTINUOUS
 10
544.7751235396
 20
31.0028394316
 11
544.6594989807
 21
30.9060491937
 12
544.0813742012
 22
30.9383123468
 13
544.0813742012
 23
30.9383123468
  0
SOLID
  8
0
 62
7
  6
CONTINUOUS
 10
544.6594989807
 20
30.9060491937
 11
543.2141867012
 21
30.8737848904
 12
544.0813742012
 22
30.9383123468
 13
544.0813742012
 23
30.9383123468
  0
SOLID
  8
0
 62
7
  6
CONTINUOUS
 10
544.0813742012
 20
30.9383123468
 11
543.2141867012
 21
30.8737848904
 12
543.7344992012
 22
30.9383123468
 13
543.7344992012
 23
30.9383123468
  0
SOLID
  8
0
 62
7
  6
CONTINUOUS
 10
543.2141867012
 20
30.8737848904
 11
543.0407492012
 21
30.9383123468
 12
543.7344992012
 22
30.9383123468
 13
543.7344992012
 23
30.9383123468
  0
SOLID
  8
0
 62
7
  6
CONTINUOUS
 10
543.2141867012
 20
30.8737848904
 11
544.6594989807
 21
30.9060491937
 12
543.3876242012
 22
30.8415205581
 13
543.3876242012
 23
30.8415205581
  0
SOLID
  8
0
 62
7
  6
CONTINUOUS
 10
544.6594989807
 20
30.9060491937
 11
544.4282492012
 21
30.8415205581
 12
543.3876242012
 22
30.8415205581
 13
543.3876242012
 23
30.8415205581
  0
SOLID
  8
0
 62
7
  6
CONTINUOUS
 10
543.7344992012
 20
30.8092581772
 11
543.3876242012
 21
30.8415205581
 12
544.4282492012
 22
30.8415205581
 13
544.4282492012
 23
30.8415205581
  0
SOLID
  8
0
 62
7
  6
CONTINUOUS
 10
544.4282492012
 20
30.8415205581
 11
544.0813742012
 21
30.8092581772
 12
543.7344992012
 22
30.8092581772
 13
543.7344992012
 23
30.8092581772
  0
SOLID
  8
0
 62
7
  6
CONTINUOUS
 10
533.3860614807
 20
31.325476038
 11
533.7329364807
 21
31.4867945216
 12
533.6751239738
 22
31.3577403412
 13
533.6751239738
 23
31.3577403412
  0
SOLID
  8
0
 62
7
  6
CONTINUOUS
 10
533.6751239738
 20
31.3577403412
 11
533.6751239738
 21
31.2609490436
 12
533.3860614807
 22
31.325476038
 13
533.3860614807
 23
31.325476038
  0
SOLID
  8
0
 62
7
  6
CONTINUOUS
 10
533.4438739824
 20
31.1318947675
 11
533.3860614807
 21
31.325476038
 12
533.6751239738
 22
31.2609490436
 13
533.6751239738
 23
31.2609490436
  0
SOLID
  8
0
 62
7
  6
CONTINUOUS
 10
533.6751239738
 20
31.2609490436
 11
533.7907489669
 21
31.0996304642
 12
533.4438739824
 22
31.1318947675
 13
533.4438739824
 23
31.1318947675
  0
SOLID
  8
0
 62
7
  6
CONTINUOUS
 10
533.5594989807
 20
31.0028388804
 11
533.4438739824
 21
31.1318947675
 12
533.7907489669
 22
31.0996304642
 13
533.7907489669
 23
31.0996304642
  0
SOLID
  8
0
 62
7
  6
CONTINUOUS
 10
533.7907489669
 20
31.0996304642
 11
533.9641864669
 21
31.0028388804
 12
533.5594989807
 22
31.0028388804
 13
533.5594989807
 23
31.0028388804
  0
SOLID
  8
0
 62
7
  6
CONTINUOUS
 10
533.6751239738
 20
30.9383122606
 11
533.5594989807
 21
31.0028388804
 12
533.9641864669
 22
31.0028388804
 13
533.9641864669
 23
31.0028388804
  0
SOLID
  8
0
 62
7
  6
CONTINUOUS
 10
533.9641864669
 20
31.0028388804
 11
534.3110615082
 21
30.9383122606
 12
533.6751239738
 22
30.9383122606
 13
533.6751239738
 23
30.9383122606
  0
SOLID
  8
0
 62
7
  6
CONTINUOUS
 10
533.8485614944
 20
30.8737848904
 11
533.6751239738
 21
30.9383122606
 12
534.3110615082
 22
30.9383122606
 13
534.3110615082
 23
30.9383122606
  0
SOLID
  8
0
 62
7
  6
CONTINUOUS
 10
537.8954364807
 20
31.3254759532
 11
538.0110613704
 21
31.3900038345
 12
538.5891864807
 22
31.3577403412
 13
538.5891864807
 23
31.3577403412
  0
SOLID
  8
0
 62
7
  6
CONTINUOUS
 10
538.5891864807
 20
31.3577403412
 11
538.3579363704
 21
31.3254759532
 12
537.8954364807
 22
31.3254759532
 13
537.8954364807
 23
31.3254759532
  0
SOLID
  8
0
 62
7
  6
CONTINUOUS
 10
537.7798115909
 20
31.1964218576
 11
537.8954364807
 21
31.3254759532
 12
538.3579363704
 22
31.3254759532
 13
538.3579363704
 23
31.3254759532
  0
SOLID
  8
0
 62
7
  6
CONTINUOUS
 10
538.1266865909
 20
31.2286853572
 11
537.7798115909
 21
31.1964218576
 12
538.2423114807
 22
31.2932132511
 13
538.2423114807
 23
31.2932132511
  0
SOLID
  8
0
 62
7
  6
CONTINUOUS
 10
537.7798115909
 20
31.1964218576
 11
538.3579363704
 21
31.325476038
 12
538.2423114807
 22
31.2932132511
 13
538.2423114807
 23
31.2932132511
  0
SOLID
  8
0
 62
7
  6
CONTINUOUS
 10
538.1266865909
 20
31.2286853572
 11
538.0688739807
 21
31.1318947675
 12
537.7798115909
 22
31.1964218576
 13
537.7798115909
 23
31.1964218576
  0
SOLID
  8
0
 62
7
  6
CONTINUOUS
 10
537.7798115909
 20
31.0996304642
 11
537.7798115909
 21
31.1964218576
 12
538.0688739807
 22
31.1318947675
 13
538.0688739807
 23
31.1318947675
  0
SOLID
  8
0
 62
7
  6
CONTINUOUS
 10
538.0688739807
 20
31.1318947675
 11
538.0688739807
 21
31.0673661609
 12
537.7798115909
 22
31.0996304642
 13
537.7798115909
 23
31.0996304642
  0
SOLID
  8
0
 62
7
  6
CONTINUOUS
 10
537.8376238704
 20
30.9705762839
 11
537.7798115909
 21
31.0996304642
 12
538.0688739807
 22
31.0673661609
 13
538.0688739807
 23
31.0673661609
  0
SOLID
  8
0
 62
7
  6
CONTINUOUS
 10
539.2251242012
 20
31.1641579843
 11
539.5141862601
 21
31.0673661609
 12
539.1673112601
 22
31.0996304642
 13
539.1673112601
 23
31.0996304642
  0
SOLID
  8
0
 62
7
  6
CONTINUOUS
 10
538.9938737601
 20
31.0028390707
 11
539.1673112601
 21
31.0996304642
 12
539.5141862601
 22
31.0673661609
 13
539.5141862601
 23
31.0673661609
  0
SOLID
  8
0
 62
7
  6
CONTINUOUS
 10
538.9938737601
 20
31.0028390707
 11
539.5141862601
 21
31.0673661609
 12
539.2251242012
 22
30.9705762839
 13
539.2251242012
 23
30.9705762839
  0
SOLID
  8
0
 62
7
  6
CONTINUOUS
 10
539.5141862601
 20
31.0673661609
 11
539.5719992012
 21
30.9060491937
 12
539.2251242012
 22
30.9705762839
 13
539.2251242012
 23
30.9705762839
  0
SOLID
  8
0
 62
7
  6
CONTINUOUS
 10
539.2829364807
 20
30.8737848904
 11
539.2251242012
 21
30.9705762839
 12
539.5719992012
 22
30.9060491937
 13
539.5719992012
 23
30.9060491937
  0
SOLID
  8
0
 62
7
  6
CONTINUOUS
 10
539.2829364807
 20
30.8737848904
 11
539.5719992012
 21
30.9060491937
 12
539.3407487601
 22
30.8092576254
 13
539.3407487601
 23
30.8092576254
  0
SOLID
  8
0
 62
7
  6
CONTINUOUS
 10
539.5719992012
 20
30.9060491937
 11
539.6298114807
 21
30.8092576254
 12
539.3407487601
 22
30.8092576254
 13
539.3407487601
 23
30.8092576254
  0
SOLID
  8
0
 62
7
  6
CONTINUOUS
 10
534.8891865358
 20
31.035103216
 11
534.9469989807
 21
31.1318946289
 12
535.2360615358
 22
31.1318946289
 13
535.2360615358
 23
31.1318946289
  0
SOLID
  8
0
 62
7
  6
CONTINUOUS
 10
535.2360615358
 20
31.1318946289
 11
535.1782489255
 21
31.0028390707
 12
534.8891865358
 22
31.035103216
 13
534.8891865358
 23
31.035103216
  0
SOLID
  8
0
 62
7
  6
CONTINUOUS
 10
534.7157489531
 20
30.9705762839
 11
534.8891865358
 21
31.035103216
 12
535.1782489255
 22
31.0028390707
 13
535.1782489255
 23
31.0028390707
  0
SOLID
  8
0
 62
7
  6
CONTINUOUS
 10
534.7157489531
 20
30.9705762839
 11
535.1782489255
 21
31.0028390707
 12
534.3110615082
 22
30.9383119806
 13
534.3110615082
 23
30.9383119806
  0
SOLID
  8
0
 62
7
  6
CONTINUOUS
 10
535.1782489255
 20
31.0028390707
 11
535.0048114255
 21
30.9060491937
 12
534.3110615082
 22
30.9383119806
 13
534.3110615082
 23
30.9383119806
  0
SOLID
  8
0
 62
7
  6
CONTINUOUS
 10
533.8485614944
 20
30.8737848904
 11
534.3110615082
 21
30.9383119806
 12
535.0048114255
 22
30.9060491937
 13
535.0048114255
 23
30.9060491937
  0
SOLID
  8
0
 62
7
  6
CONTINUOUS
 10
533.8485614944
 20
30.8737848904
 11
535.0048114255
 21
30.9060491937
 12
534.0219989944
 22
30.8415207131
 13
534.0219989944
 23
30.8415207131
  0
SOLID
  8
0
 62
7
  6
CONTINUOUS
 10
535.0048114255
 20
30.9060491937
 11
534.7735614807
 21
30.8415207131
 12
534.0219989944
 22
30.8415207131
 13
534.0219989944
 23
30.8415207131
  0
SOLID
  8
0
 62
7
  6
CONTINUOUS
 10
534.3688739531
 20
30.8092578002
 11
534.0219989944
 21
30.8415207131
 12
534.7735614807
 22
30.8415207131
 13
534.7735614807
 23
30.8415207131
  0
SOLID
  8
0
 62
7
  6
CONTINUOUS
 10
537.8376238704
 20
30.9705762839
 11
538.0688739807
 21
31.0673661609
 12
538.1266865909
 22
31.0028390707
 13
538.1266865909
 23
31.0028390707
  0
SOLID
  8
0
 62
7
  6
CONTINUOUS
 10
538.1266865909
 20
31.0028390707
 11
538.3579363704
 21
30.9383119806
 12
537.8376238704
 22
30.9705762839
 13
537.8376238704
 23
30.9705762839
  0
SOLID
  8
0
 62
7
  6
CONTINUOUS
 10
538.0110613704
 20
30.8737848904
 11
537.8376238704
 21
30.9705762839
 12
538.3579363704
 22
30.9383119806
 13
538.3579363704
 23
30.9383119806
  0
SOLID
  8
0
 62
7
  6
CONTINUOUS
 10
538.7048113704
 20
30.9383119664
 11
538.9938737601
 21
31.0028390707
 12
539.2251242012
 22
30.9705762839
 13
539.2251242012
 23
30.9705762839
  0
SOLID
  8
0
 62
7
  6
CONTINUOUS
 10
539.2251242012
 20
30.9705762839
 11
539.1673112601
 21
30.9060491937
 12
538.7048113704
 22
30.9383119664
 13
538.7048113704
 23
30.9383119664
  0
SOLID
  8
0
 62
7
  6
CONTINUOUS
 10
539.1673112601
 20
30.9060491937
 11
538.0110613704
 21
30.8737848904
 12
538.7048113704
 22
30.9383119664
 13
538.7048113704
 23
30.9383119664
  0
SOLID
  8
0
 62
7
  6
CONTINUOUS
 10
538.0110613704
 20
30.8737848904
 11
538.3579363704
 21
30.9383119664
 12
538.7048113704
 22
30.9383119664
 13
538.7048113704
 23
30.9383119664
  0
SOLID
  8
0
 62
7
  6
CONTINUOUS
 10
538.0110613704
 20
30.8737848904
 11
539.1673112601
 21
30.9060491937
 12
538.1266865909
 22
30.8415205568
 13
538.1266865909
 23
30.8415205568
  0
SOLID
  8
0
 62
7
  6
CONTINUOUS
 10
539.1673112601
 20
30.9060491937
 11
538.9938737601
 21
30.8415205568
 12
538.1266865909
 22
30.8415205568
 13
538.1266865909
 23
30.8415205568
  0
SOLID
  8
0
 62
7
  6
CONTINUOUS
 10
538.3579363704
 20
30.8092577215
 11
538.1266865909
 21
30.8415205568
 12
538.9938737601
 22
30.8415205568
 13
538.9938737601
 23
30.8415205568
  0
SOLID
  8
0
 62
7
  6
CONTINUOUS
 10
538.9938737601
 20
30.8415205568
 11
538.7048113704
 21
30.8092577215
 12
538.3579363704
 22
30.8092577215
 13
538.3579363704
 23
30.8092577215
  0
SOLID
  8
0
 62
7
  6
CONTINUOUS
 10
543.3876242012
 20
30.9705762839
 11
543.0407492012
 21
30.9383119664
 12
543.2719989807
 22
31.0028390707
 13
543.2719989807
 23
31.0028390707
  0
SOLID
  8
0
 62
7
  6
CONTINUOUS
 10
543.2719989807
 20
31.0028390707
 11
543.0407492012
 21
30.9383119664
 12
543.2141867012
 22
31.0673661467
 13
543.2141867012
 23
31.0673661467
  0
SOLID
  8
0
 62
7
  6
CONTINUOUS
 10
543.0407492012
 20
30.9383119664
 11
542.9251239807
 21
31.0673661467
 12
543.2141867012
 22
31.0673661467
 13
543.2141867012
 23
31.0673661467
  0
SOLID
  8
0
 62
7
  6
CONTINUOUS
 10
543.3876242012
 20
30.9705762839
 11
543.7344992012
 21
30.9383119664
 12
543.0407492012
 22
30.9383119664
 13
543.0407492012
 23
30.9383119664
  0
SOLID
  8
0
 62
7
  6
CONTINUOUS
 10
540.0923117012
 20
30.8092578002
 11
540.0923117012
 21
31.841695792
 12
540.3813737601
 22
30.8092578002
 13
540.3813737601
 23
31.841695792
  0
ENDBLK
  8
0
  6
BYBLOCK
 62
0
  0
BLOCK
  8
0
 62
2
  6
CONTINUOUS
  2
AMMEAAL_LOGO_BL0
 70
64
 10
416.1419631151
 20
19.7009994242
  0
TEXT
  8
0
 62
7
  6
CONTINUOUS
 10
402.4066669574
 20
19.0744135318
  7
TEXTSTYLE_3
 40
2.7338706658
  1
Ammeraal Beltech
 41
1.0
 51
15.0
 72
0
  0
TEXT
  8
0
 62
7
  6
CONTINUOUS
 10
413.2074677831
 20
16.800876859
  7
TEXTSTYLE_4
 40
1.0935482663
  1
Innovation & Service in Belting
 41
1.0
 72
0
  0
LINE
  8
0
 62
7
  6
CONTINUOUS
 10
396.382126306
 20
19.8410068404
 11
397.1602782994
 21
23.5019241381
  0
LINE
  8
0
 62
7
  6
CONTINUOUS
 10
407.2554465892
 20
27.1653180497
 11
397.6480960424
 21
24.0437006284
  0
LINE
  8
0
 62
7
  6
CONTINUOUS
 10
396.6074096383
 20
19.1476560374
 11
404.1144848995
 21
12.3882551114
  0
LINE
  8
0
 62
7
  6
CONTINUOUS
 10
396.869944049
 20
20.3827833308
 11
407.6782134142
 21
23.8946029297
  0
LINE
  8
0
 62
7
  6
CONTINUOUS
 10
407.674008277
 20
13.544814366
 11
399.2285486083
 21
21.1491404077
  0
LINE
  8
0
 62
7
  6
CONTINUOUS
 10
408.1938309968
 20
26.320392934
 11
407.2172714596
 21
21.7260415315
  0
LINE
  8
0
 62
7
  6
CONTINUOUS
 10
406.5174695119
 20
18.4337322177
 11
405.8310213004
 21
15.2042472933
  0
LINE
  8
0
 62
7
  6
CONTINUOUS
 10
408.8749270954
 20
13.9350165436
 11
409.831158631
 21
18.4337322177
  0
LINE
  8
0
 62
7
  6
CONTINUOUS
 10
410.5309605787
 20
21.7260415315
 11
410.9752023811
 21
23.8160348909
  0
LINE
  8
0
 62
7
  6
CONTINUOUS
 10
404.8275859748
 20
12.2366807987
 11
408.3871093524
 21
13.3932400533
  0
LINE
  8
0
 62
7
  6
CONTINUOUS
 10
407.9685476645
 20
27.013743737
 11
410.7499190488
 21
24.5093856939
  0
ARC
  8
0
 62
7
  6
CONTINUOUS
 10
397.8733793747
 20
23.3503498254
 40
0.7290321776
 50
108.0
 51
168.0
  0
ARC
  8
0
 62
7
  6
CONTINUOUS
 10
407.4807299215
 20
26.4719672466
 40
0.7290321776
 50
348.0
 51
108.0
  0
ARC
  8
0
 62
7
  6
CONTINUOUS
 10
410.2621013058
 20
23.9676092036
 40
0.7290321776
 50
348.0
 51
48.0
  0
ARC
  8
0
 62
7
  6
CONTINUOUS
 10
404.6023026425
 20
12.9300316018
 40
0.7290321776
 50
228.0
 51
288.0
  0
ARC
  8
0
 62
7
  6
CONTINUOUS
 10
397.0952273813
 20
19.6894325277
 40
0.7290321776
 50
108.0
 51
228.0
  0
ARC
  8
0
 62
7
  6
CONTINUOUS
 10
408.1618260201
 20
14.0865908563
 40
0.7290321776
 50
228.0
 51
348.0
  0
ENDBLK
  8
0
  6
BYBLOCK
 62
0
  0
ENDSEC
  0
SECTION
  2
ENTITIES
  0
TEXT
  8
0
 62
5
  6
CONTINUOUS
 10
480.0
 20
25.636
  7
TEXTSTYLE_2
 40
2.8
  1
Scale :
 41
0.6
 51
0.000019
 72
0
  0
TEXT
  8
0
 62
5
  6
CONTINUOUS
 10
500.0
 20
25.636
  7
TEXTSTYLE_2
 40
2.8
  1
Belt type:
 41
0.6
 51
0.000019
 72
0
  0
INSERT
  8
0
 62
2
  6
CONTINUOUS
  2
AMMEAAL_LOGO_BL0
 10
416.1419631151
 20
19.7009994242
  0
INSERT
  8
0
 62
2
  6
CONTINUOUS
  2
UNI_LOGO2_BL1
 10
557.4079930916
 20
35.8092573885
  0
LINE
  8
0
 62
2
  6
CONTINUOUS
 10
394.0
 20
30.0
 11
584.0
 21
30.0
  0
LINE
  8
0
 62
2
  6
CONTINUOUS
 10
394.0
 20
30.0
 11
394.0
 21
10.0
  0
LINE
  8
0
 62
2
  6
CONTINUOUS
 10
394.0
 20
10.0
 11
584.0
 21
10.0
  0
LINE
  8
0
 62
2
  6
CONTINUOUS
 10
479.0
 20
30.0
 11
479.0
 21
10.0
  0
LINE
  8
0
 62
2
  6
CONTINUOUS
 10
499.0
 20
30.0
 11
499.0
 21
10.0
  0
LINE
  8
0
 62
2
  6
CONTINUOUS
 10
584.0
 20
30.0
 11
584.0
 21
10.0
  0
TEXT
  8
0
 62
5
  6
CONTINUOUS
 10
397.0
 20
23.303
  7
TEXTSTYLE_5
 40
1.52
  1
                                                                     Ammeraal Beltech Modular A/S
 41
1.0
 72
0
  0
TEXT
  8
0
 62
5
  6
CONTINUOUS
 10
397.0
 20
20.595
  7
TEXTSTYLE_5
 40
1.5
  1
                                                                      Hjulmagervej 21, 7100 Vejle,  DK
 41
1.0
 72
0
  0
TEXT
  8
0
 62
5
  6
CONTINUOUS
 10
397.0
 20
17.881
  7
TEXTSTYLE_5
 40
1.495
  1
                                                                      tel: 
 41
1.0
 72
0
  0
TEXT
  8
0
 62
5
  6
CONTINUOUS
 10
441.9869465649
 20
17.881
  7
TEXTSTYLE_5
 40
1.51
  1
+45 75723100     fax: +45 75723348
 41
1.0
 72
0
  0
TEXT
  8
0
 62
5
  6
CONTINUOUS
 10
397.0
 20
15.177
  7
TEXTSTYLE_5
 40
1.5
  1
                                                                      admin@unichains.dk  www.unichains.com
 41
1.0
 72
0
  0
TEXT
  8
0
 62
5
  6
CONTINUOUS
 10
483.75
 20
13.75
  7
TEXTSTYLE_6
 40
5.0
  1
1:1
 41
0.7
 72
1
 11
489.0
 21
13.75
  0
TEXT
  8
0
 62
5
  6
CONTINUOUS
 10
502.0
 20
13.75
  7
TEXTSTYLE_7
 40
7.5
  1
Sprocket Z20 Pilot Bore
 41
0.472826087
 72
0
  0
LINE
  8
0
 62
7
  6
CONTINUOUS
 10
0.0
 20
0.0
 11
0.0
 21
420.0
  0
LINE
  8
0
 62
7
  6
CONTINUOUS
 10
10.0
 20
10.0
 11
10.0
 21
410.0
  0
LINE
  8
0
 62
7
  6
CONTINUOUS
 10
0.0
 20
0.0
 11
594.0
 21
0.0
  0
LINE
  8
0
 62
7
  6
CONTINUOUS
 10
10.0
 20
10.0
 11
584.0
 21
10.0
  0
LINE
  8
0
 62
7
  6
CONTINUOUS
 10
394.0
 20
30.0
 11
584.0
 21
30.0
  0
LINE
  8
0
 62
7
  6
CONTINUOUS
 10
179.0
 20
5.0
 11
179.0
 21
10.0
  0
LINE
  8
0
 62
7
  6
CONTINUOUS
 10
179.0
 20
410.0
 11
179.0
 21
415.0
  0
LINE
  8
0
 62
7
  6
CONTINUOUS
 10
594.0
 20
420.0
 11
584.0
 21
410.0
  0
LINE
  8
0
 62
7
  6
CONTINUOUS
 10
384.0
 20
410.0
 11
384.0
 21
415.0
  0
LINE
  8
0
 62
7
  6
CONTINUOUS
 10
584.0
 20
297.0
 11
589.0
 21
297.0
  0
LINE
  8
0
 62
7
  6
CONTINUOUS
 10
10.0
 20
410.0
 11
584.0
 21
410.0
  0
LINE
  8
0
 62
7
  6
CONTINUOUS
 10
0.0
 20
420.0
 11
594.0
 21
420.0
  0
LINE
  8
0
 62
7
  6
CONTINUOUS
 10
584.0
 20
10.0
 11
584.0
 21
410.0
  0
LINE
  8
0
 62
7
  6
CONTINUOUS
 10
594.0
 20
0.0
 11
594.0
 21
420.0
  0
LINE
  8
0
 62
7
  6
CONTINUOUS
 10
94.0842318918
 20
239.418037826
 11
94.0842318918
 21
220.9021156228
  0
LINE
  8
0
 62
7
  6
CONTINUOUS
 10
99.2431164565
 20
275.488108654
 11
93.5213818292
 21
257.8784201875
  0
LINE
  8
0
 62
7
  6
CONTINUOUS
 10
115.2957721128
 20
308.1986015558
 11
104.4123861092
 21
293.2189058269
  0
LINE
  8
0
 62
7
  6
CONTINUOUS
 10
140.6708530795
 20
334.3475855786
 11
125.6911573506
 21
323.4641995749
  0
LINE
  8
0
 62
7
  6
CONTINUOUS
 10
172.8844696331
 20
351.3754159756
 11
155.2747811666
 21
345.6536813483
  0
LINE
  8
0
 62
7
  6
CONTINUOUS
 10
212.2814841336
 20
124.7189411779
 11
230.7974063367
 21
124.7189411779
  0
LINE
  8
0
 62
7
  6
CONTINUOUS
 10
176.2114133055
 20
129.8778257426
 11
193.821101772
 21
124.1560911153
  0
LINE
  8
0
 62
7
  6
CONTINUOUS
 10
143.5009204038
 20
145.9304813988
 11
158.4806161326
 21
135.0470953952
  0
LINE
  8
0
 62
7
  6
CONTINUOUS
 10
117.351936381
 20
171.3055623656
 11
128.2353223846
 21
156.3258666367
  0
LINE
  8
0
 62
7
  6
CONTINUOUS
 10
100.3241059839
 20
203.5191789192
 11
106.0458406112
 21
185.9094904527
  0
LINE
  8
DEFAULT_2
 62
8
  6
HIDDEN
 10
177.3212299725
 20
345.4480090156
 11
177.055189994
 21
345.2525702393
  0
LINE
  8
DEFAULT_2
 62
8
  6
HIDDEN
 10
177.7657748846
 20
343.6918936403
 11
177.4997349061
 21
343.4964548639
  0
LINE
  8
DEFAULT_2
 62
8
  6
HIDDEN
 10
179.101052607
 20
341.8820178848
 11
179.3670925856
 21
342.0774566611
  0
LINE
  8
DEFAULT_2
 62
8
  6
HIDDEN
 10
200.6133567348
 20
350.3799882448
 11
201.0121255695
 21
350.6246645995
  0
LINE
  8
DEFAULT_2
 62
8
  6
HIDDEN
 10
186.6631855488
 20
347.9758607975
 11
186.3803514998
 21
347.8056301123
  0
LINE
  8
DEFAULT_2
 62
8
  6
HIDDEN
 10
176.7958800612
 20
345.7285346378
 11
177.2606104732
 21
345.9866276373
  0
LINE
  8
DEFAULT_2
 62
8
  6
HIDDEN
 10
177.2404249733
 20
343.9724192625
 11
177.7051508377
 21
344.2305108279
  0
LINE
  8
DEFAULT_2
 62
8
  6
HIDDEN
 10
179.6264070856
 20
341.6014936344
 11
179.1616766763
 21
341.343400626
  0
LINE
  8
DEFAULT_2
 62
8
  6
HIDDEN
 10
186.1657603115
 20
348.3033593276
 11
186.6521866272
 21
348.5177674072
  0
LINE
  8
DEFAULT_2
 62
8
  6
HIDDEN
 10
220.7239127717
 20
350.3569497389
 11
221.1608933298
 21
350.5240697769
  0
LINE
  8
DEFAULT_2
 62
8
  6
HIDDEN
 10
197.2258689017
 20
349.79641815
 11
196.7218328036
 21
349.627498157
  0
LINE
  8
DEFAULT_2
 62
8
  6
HIDDEN
 10
197.7044525471
 20
345.8894507774
 11
198.2084886453
 21
346.0583707703
  0
LINE
  8
DEFAULT_2
 62
8
  6
HIDDEN
 10
177.2606104732
 20
345.9866276373
 11
177.6579867927
 21
346.1119346496
  0
LINE
  8
DEFAULT_2
 62
8
  6
HIDDEN
 10
177.9172967254
 20
345.6359702511
 11
177.3212299725
 21
345.4480090156
  0
LINE
  8
DEFAULT_2
 62
8
  6
HIDDEN
 10
176.7184377215
 20
344.5886460393
 11
176.2217139115
 21
344.4320111984
  0
LINE
  8
DEFAULT_2
 62
8
  6
HIDDEN
 10
177.7051508377
 20
344.2305108279
 11
178.2018746477
 21
344.3871456688
  0
LINE
  8
DEFAULT_2
 62
8
  6
HIDDEN
 10
178.4611845805
 20
343.9111812703
 11
177.7657748846
 21
343.6918936403
  0
LINE
  8
DEFAULT_2
 62
8
  6
HIDDEN
 10
178.4056429112
 20
341.6627302547
 11
179.101052607
 21
341.8820178848
  0
LINE
  8
DEFAULT_2
 62
8
  6
HIDDEN
 10
179.1616766763
 20
341.343400626
 11
178.6649528663
 21
341.1867657851
  0
LINE
  8
DEFAULT_2
 62
8
  6
HIDDEN
 10
196.5537670818
 20
350.142801624
 11
197.1611954447
 21
350.3243866439
  0
LINE
  8
DEFAULT_2
 62
8
  6
HIDDEN
 10
198.376554375
 20
345.5430672387
 11
197.7691260132
 21
345.3614822096
  0
LINE
  8
DEFAULT_2
 62
8
  6
HIDDEN
 10
201.7723144139
 20
350.257415368
 11
201.2613856446
 21
350.1106565696
  0
LINE
  8
DEFAULT_2
 62
8
  6
HIDDEN
 10
177.055189994
 20
345.2525702393
 11
176.8211434135
 21
344.9556733043
  0
LINE
  8
DEFAULT_2
 62
8
  6
HIDDEN
 10
177.4997349061
 20
343.4964548639
 11
177.2656883256
 21
343.199557929
  0
LINE
  8
DEFAULT_2
 62
8
  6
HIDDEN
 10
179.3670925856
 20
342.0774566611
 11
179.6011391661
 21
342.3743535961
  0
LINE
  8
DEFAULT_2
 62
8
  6
HIDDEN
 10
185.8262434912
 20
347.9031117691
 11
186.1657603115
 21
348.3033593276
  0
LINE
  8
DEFAULT_2
 62
8
  6
HIDDEN
 10
176.3951364451
 20
345.267525321
 11
176.7958800612
 21
345.7285346378
  0
LINE
  8
DEFAULT_2
 62
8
  6
HIDDEN
 10
176.8396813572
 20
343.5114099457
 11
177.2404249733
 21
343.9724192625
  0
LINE
  8
DEFAULT_2
 62
8
  6
HIDDEN
 10
180.0271461456
 20
342.0625015438
 11
179.6264070856
 21
341.6014936344
  0
LINE
  8
DEFAULT_2
 62
8
  6
HIDDEN
 10
196.7218328036
 20
349.627498157
 11
196.4375206592
 21
349.3783150989
  0
LINE
  8
DEFAULT_2
 62
8
  6
HIDDEN
 10
198.2084886453
 20
346.0583707703
 11
198.4928007896
 21
346.3075538284
  0
LINE
  8
DEFAULT_2
 62
8
  6
HIDDEN
 10
201.2613856446
 20
350.1106565696
 11
200.9664680964
 21
349.8741206703
  0
LINE
  8
DEFAULT_2
 62
8
  6
HIDDEN
 10
196.0756003665
 20
349.7626942335
 11
196.5537670818
 21
350.142801624
  0
LINE
  8
DEFAULT_2
 62
8
  6
HIDDEN
 10
198.8547210869
 20
345.9231746569
 11
198.376554375
 21
345.5430672387
  0
LINE
  8
DEFAULT_2
 62
8
  6
HIDDEN
 10
215.7243781117
 20
350.602077061
 11
216.1597837113
 21
350.895146603
  0
LINE
  8
DEFAULT_2
 62
8
  6
HIDDEN
 10
221.1963975015
 20
349.8783036475
 11
220.8629904302
 21
349.7000753763
  0
LINE
  8
DEFAULT_2
 62
8
  6
HIDDEN
 10
222.5827666737
 20
346.1988446079
 11
222.9161737529
 21
346.3770729532
  0
LINE
  8
DEFAULT_2
 62
8
  6
HIDDEN
 10
215.5942576708
 20
348.4784000318
 11
215.8087086499
 21
348.5718428116
  0
LINE
  8
DEFAULT_2
 62
8
  6
HIDDEN
 10
223.0552513995
 20
345.7201984795
 11
222.6182708384
 21
345.5530784138
  0
LINE
  8
DEFAULT_2
 62
8
  6
HIDDEN
 10
236.9058389429
 20
345.9627222251
 11
237.2620532782
 21
346.0893592621
  0
LINE
  8
DEFAULT_2
 62
8
  6
HIDDEN
 10
242.1302555282
 20
341.6129329745
 11
241.7695202657
 21
341.4998149063
  0
LINE
  8
DEFAULT_2
 62
8
  6
HIDDEN
 10
176.6376281747
 20
343.1130548521
 11
176.8396813572
 21
343.5114099457
  0
LINE
  8
DEFAULT_2
 62
8
  6
HIDDEN
 10
177.2656883256
 20
343.199557929
 11
177.130984688
 21
342.9339873886
  0
LINE
  8
DEFAULT_2
 62
8
  6
HIDDEN
 10
186.3803514998
 20
347.8056301123
 11
186.2218725951
 21
347.5535245418
  0
LINE
  8
DEFAULT_2
 62
8
  6
HIDDEN
 10
195.8042229135
 20
349.4079174767
 11
196.0756003665
 21
349.7626942335
  0
LINE
  8
DEFAULT_2
 62
8
  6
HIDDEN
 10
200.2312194577
 20
349.9231969845
 11
200.6133567348
 21
350.3799882448
  0
LINE
  8
DEFAULT_2
 62
8
  6
HIDDEN
 10
216.2247200634
 20
350.2516730551
 11
216.0037630632
 21
350.0520464387
  0
LINE
  8
DEFAULT_2
 62
8
  6
HIDDEN
 10
216.0945996225
 20
348.1279960259
 11
215.8736426223
 21
347.9283694095
  0
LINE
  8
DEFAULT_2
 62
8
  6
HIDDEN
 10
220.2642432321
 20
349.9782769842
 11
220.7239127717
 21
350.3569497389
  0
LINE
  8
DEFAULT_2
 62
8
  6
HIDDEN
 10
236.6503918501
 20
345.8096901381
 11
236.9058389429
 21
345.9627222251
  0
LINE
  8
DEFAULT_2
 62
8
  6
HIDDEN
 10
237.2280375603
 20
345.5484091227
 11
236.9725904675
 21
345.3953770357
  0
LINE
  8
DEFAULT_2
 62
8
  6
HIDDEN
 10
176.2250766605
 20
344.7677120688
 11
176.3951364451
 21
345.267525321
  0
LINE
  8
DEFAULT_2
 62
8
  6
HIDDEN
 10
180.197205919
 20
342.5623148315
 11
180.0271461456
 21
342.0625015438
  0
LINE
  8
DEFAULT_2
 62
8
  6
HIDDEN
 10
185.6110864751
 20
347.4209903364
 11
185.8262434912
 21
347.9031117691
  0
LINE
  8
DEFAULT_2
 62
8
  6
HIDDEN
 10
199.1260985353
 20
346.2779514507
 11
198.8547210869
 21
345.9231746569
  0
LINE
  8
DEFAULT_2
 62
8
  6
HIDDEN
 10
215.38643897
 20
350.196453154
 11
215.7243781117
 21
350.602077061
  0
LINE
  8
DEFAULT_2
 62
8
  6
HIDDEN
 10
215.2563185291
 20
348.0727761248
 11
215.5942576708
 21
348.4784000318
  0
LINE
  8
DEFAULT_2
 62
8
  6
HIDDEN
 10
223.5149197578
 20
346.0988713984
 11
223.0552513995
 21
345.7201984795
  0
LINE
  8
DEFAULT_2
 62
8
  6
HIDDEN
 10
242.5218078233
 20
341.8278726905
 11
242.1302555282
 21
341.6129329745
  0
LINE
  8
DEFAULT_2
 62
8
  6
HIDDEN
 10
176.8211434135
 20
344.9556733043
 11
176.7184377215
 21
344.5886460393
  0
LINE
  8
DEFAULT_2
 62
8
  6
HIDDEN
 10
179.6011391661
 20
342.3743535961
 11
179.7038493833
 21
342.7413823662
  0
LINE
  8
DEFAULT_2
 62
8
  6
HIDDEN
 10
195.6491771497
 20
348.9602126277
 11
195.8042229135
 21
349.4079174767
  0
LINE
  8
DEFAULT_2
 62
8
  6
HIDDEN
 10
196.4375206592
 20
349.3783150989
 11
196.101555052
 21
348.694091923
  0
LINE
  8
DEFAULT_2
 62
8
  6
HIDDEN
 10
198.4928007896
 20
346.3075538284
 11
198.828766424
 21
346.9917767825
  0
LINE
  8
DEFAULT_2
 62
8
  6
HIDDEN
 10
200.9664680964
 20
349.8741206703
 11
200.7837152367
 21
349.5396675874
  0
LINE
  8
DEFAULT_2
 62
8
  6
HIDDEN
 10
222.9161737529
 20
346.3770729532
 11
223.1573518282
 21
346.6721858161
  0
LINE
  8
DEFAULT_2
 62
8
  6
HIDDEN
 10
241.9236057011
 20
342.0089230819
 11
242.2154576979
 21
342.2540378853
  0
LINE
  8
DEFAULT_2
 62
8
  6
HIDDEN
 10
176.598904731
 20
342.5431098359
 11
176.6376281747
 21
343.1130548521
  0
LINE
  8
DEFAULT_2
 62
8
  6
HIDDEN
 10
180.2359293403
 20
343.1322599188
 11
180.197205919
 21
342.5623148315
  0
LINE
  8
DEFAULT_2
 62
8
  6
HIDDEN
 10
199.2811442901
 20
346.7256563736
 11
199.1260985353
 21
346.2779514507
  0
LINE
  8
DEFAULT_2
 62
8
  6
HIDDEN
 10
223.767443517
 20
346.4997605666
 11
223.5149197578
 21
346.0988713984
  0
LINE
  8
DEFAULT_2
 62
8
  6
HIDDEN
 10
240.1978827742
 20
342.4200775171
 11
239.8443965395
 21
341.97131949
  0
LINE
  8
DEFAULT_2
 62
8
  6
HIDDEN
 10
239.3458946907
 20
342.1221948405
 11
239.5072294036
 21
342.2956629817
  0
LINE
  8
DEFAULT_2
 62
8
  6
HIDDEN
 10
242.6831423437
 20
342.0013408706
 11
242.5218078233
 21
341.8278726905
  0
LINE
  8
DEFAULT_2
 62
8
  6
HIDDEN
 10
176.2217139115
 20
344.4320111984
 11
176.2250766605
 21
344.7677120688
  0
LINE
  8
DEFAULT_2
 62
8
  6
HIDDEN
 10
177.130984688
 20
342.9339873886
 11
177.1276219837
 21
342.598286376
  0
LINE
  8
DEFAULT_2
 62
8
  6
HIDDEN
 10
179.7038493833
 20
342.7413823662
 11
179.7072121324
 21
343.0770832366
  0
LINE
  8
DEFAULT_2
 62
8
  6
HIDDEN
 10
182.388921082
 20
347.0379342307
 11
182.2208096425
 21
344.0211503613
  0
LINE
  8
DEFAULT_2
 62
8
  6
HIDDEN
 10
182.2294579706
 20
343.5831390251
 11
182.1547432986
 21
342.2423466506
  0
LINE
  8
DEFAULT_2
 62
8
  6
HIDDEN
 10
181.5507206132
 20
342.0817801673
 11
181.8769143716
 21
347.3421385307
  0
LINE
  8
DEFAULT_2
 62
8
  6
HIDDEN
 10
185.5769673747
 20
347.0870108917
 11
185.6110864751
 21
347.4209903364
  0
LINE
  8
DEFAULT_2
 62
8
  6
HIDDEN
 10
186.2218725951
 20
347.5535245418
 11
186.1877534947
 21
347.2195450971
  0
LINE
  8
DEFAULT_2
 62
8
  6
HIDDEN
 10
200.1606265327
 20
349.4908263453
 11
200.2312194577
 21
349.9231969845
  0
LINE
  8
0
 62
7
  6
CONTINUOUS
 10
162.4190354442
 20
125.0488354977
 11
161.3350355744
 21
119.4721396142
  0
LINE
  8
DEFAULT_2
 62
8
  6
HIDDEN
 10
195.5845842625
 20
348.6307656289
 11
195.6491771497
 21
348.9602126277
  0
LINE
  8
DEFAULT_2
 62
8
  6
HIDDEN
 10
199.3457372136
 20
347.0551030767
 11
199.2811442901
 21
346.7256563736
  0
LINE
  8
DEFAULT_2
 62
8
  6
HIDDEN
 10
223.1573518282
 20
346.6721858161
 11
223.3063020927
 21
347.0841831435
  0
LINE
  8
DEFAULT_2
 62
8
  6
HIDDEN
 10
215.2629508074
 20
349.8842720269
 11
215.38643897
 21
350.196453154
  0
LINE
  8
DEFAULT_2
 62
8
  6
HIDDEN
 10
216.0037630632
 20
350.0520464387
 11
215.8802748823
 21
349.7398650141
  0
LINE
  8
DEFAULT_2
 62
8
  6
HIDDEN
 10
215.1328303573
 20
347.7605948489
 11
215.2563185291
 21
348.0727761248
  0
LINE
  8
DEFAULT_2
 62
8
  6
HIDDEN
 10
215.8736426223
 20
347.9283694095
 11
215.7501544505
 21
347.6161881336
  0
LINE
  8
DEFAULT_2
 62
8
  6
HIDDEN
 10
220.8629904302
 20
349.7000753763
 11
220.7253858099
 21
349.3938539838
  0
LINE
  8
DEFAULT_2
 62
8
  6
HIDDEN
 10
227.3335887319
 20
349.4187034408
 11
225.9666530718
 21
346.7241286557
  0
LINE
  8
DEFAULT_2
 62
8
  6
HIDDEN
 10
225.7984547347
 20
346.3196072758
 11
225.190928175
 21
345.1220184705
  0
LINE
  8
DEFAULT_2
 62
8
  6
HIDDEN
 10
224.5733225301
 20
345.217873921
 11
226.9871141277
 21
349.9031046066
  0
LINE
  8
0
 62
7
  6
CONTINUOUS
 10
128.8913495122
 20
145.5999179113
 11
126.1371105719
 21
140.6311393336
  0
LINE
  8
DEFAULT_2
 62
8
  6
HIDDEN
 10
239.5072294036
 20
342.2956629817
 11
239.7301980087
 21
342.6727744903
  0
LINE
  8
DEFAULT_2
 62
8
  6
HIDDEN
 10
242.9061110522
 20
342.3784523673
 11
242.6831423437
 21
342.0013408706
  0
LINE
  8
DEFAULT_2
 62
8
  6
HIDDEN
 10
236.4687548312
 20
345.5273521343
 11
236.6503918501
 21
345.8096901381
  0
LINE
  8
DEFAULT_2
 62
8
  6
HIDDEN
 10
242.2154576979
 20
342.2540378853
 11
242.4076093104
 21
342.5293276854
  0
LINE
  8
0
 62
7
  6
CONTINUOUS
 10
103.3552590489
 20
175.5057834927
 11
99.2003851355
 21
171.6313008875
  0
LINE
  8
0
 62
7
  6
CONTINUOUS
 10
88.3104145092
 20
211.8390377524
 11
83.1616136301
 21
209.4381124722
  0
LINE
  8
0
 62
7
  6
CONTINUOUS
 10
335.8353025731
 20
231.2911026308
 11
341.4740299142
 21
231.9834512914
  0
LINE
  8
0
 62
7
  6
CONTINUOUS
 10
326.6506864618
 20
193.0537447303
 11
332.2273823453
 21
191.9697448605
  0
LINE
  8
0
 62
7
  6
CONTINUOUS
 10
306.0996040482
 20
159.5260587983
 11
311.0683826259
 21
156.771819858
  0
LINE
  8
0
 62
7
  6
CONTINUOUS
 10
276.1937384668
 20
133.989968335
 11
280.068221072
 21
129.8350944216
  0
LINE
  8
0
 62
7
  6
CONTINUOUS
 10
239.8604842071
 20
118.9451237953
 11
242.2614094874
 21
113.7963229162
  0
LINE
  8
0
 62
7
  6
CONTINUOUS
 10
200.6563933447
 20
115.8642193864
 11
201.3487420053
 21
110.2254920454
  0
LINE
  8
DEFAULT_2
 62
8
  6
HIDDEN
 10
196.101555052
 20
348.694091923
 11
196.0757709358
 21
348.0478647034
  0
LINE
  8
DEFAULT_2
 62
8
  6
HIDDEN
 10
198.828766424
 20
346.9917767825
 11
198.8545505222
 21
347.63800415
  0
LINE
  8
DEFAULT_2
 62
8
  6
HIDDEN
 10
195.5458654548
 20
348.090132108
 11
195.5845842625
 21
348.6307656289
  0
LINE
  8
DEFAULT_2
 62
8
  6
HIDDEN
 10
199.3844560031
 20
347.5957367454
 11
199.3457372136
 21
347.0551030767
  0
LINE
  8
DEFAULT_2
 62
8
  6
HIDDEN
 10
220.1039496303
 20
349.4605028749
 11
220.2642432321
 21
349.9782769842
  0
LINE
  8
DEFAULT_2
 62
8
  6
HIDDEN
 10
223.9277382723
 20
347.0175342524
 11
223.767443517
 21
346.4997605666
  0
LINE
  8
DEFAULT_2
 62
8
  6
HIDDEN
 10
236.2332052047
 20
345.0391919437
 11
236.4687548312
 21
345.5273521343
  0
LINE
  8
DEFAULT_2
 62
8
  6
HIDDEN
 10
236.9725904675
 20
345.3953770357
 11
236.7370402644
 21
344.9072169961
  0
LINE
  8
DEFAULT_2
 62
8
  6
HIDDEN
 10
180.1113184527
 20
343.8737935659
 11
180.2359293403
 21
343.1322599188
  0
LINE
  8
DEFAULT_2
 62
8
  6
HIDDEN
 10
200.4599090484
 20
345.6727507433
 11
200.418342033
 21
346.2030390131
  0
LINE
  8
DEFAULT_2
 62
8
  6
HIDDEN
 10
200.1772533598
 20
349.27871077
 11
200.1606265327
 21
349.4908263453
  0
LINE
  8
DEFAULT_2
 62
8
  6
HIDDEN
 10
200.7837152367
 20
349.5396675874
 11
200.8003420638
 21
349.3275520121
  0
LINE
  8
DEFAULT_2
 62
8
  6
HIDDEN
 10
205.0308459162
 20
346.0167243986
 11
205.0100543831
 21
346.654683554
  0
LINE
  8
DEFAULT_2
 62
8
  6
HIDDEN
 10
204.892235692
 20
350.2697855339
 11
204.8679789062
 21
351.0140711283
  0
LINE
  8
0
 62
2
  6
CONTINUOUS
 10
210.5324063367
 20
242.6521156228
 11
210.5324063367
 21
239.6821156228
  0
LINE
  8
DEFAULT_1
 62
2
  6
CENTER
 10
210.5324063367
 20
233.7421156228
 11
210.5324063367
 21
125.1939411779
  0
LINE
  8
DEFAULT_1
 62
2
  6
CENTER
 10
210.5324063367
 20
248.5921156228
 11
210.5324063367
 21
357.1402900677
  0
LINE
  8
DEFAULT_2
 62
8
  6
HIDDEN
 10
215.1003002517
 20
347.2296756659
 11
215.1328303573
 21
347.7605948489
  0
LINE
  8
DEFAULT_2
 62
8
  6
HIDDEN
 10
215.2369267046
 20
349.459536383
 11
215.2629508074
 21
349.8842720269
  0
LINE
  8
DEFAULT_2
 62
8
  6
HIDDEN
 10
215.8802748823
 20
349.7398650141
 11
215.8672628401
 21
349.5274973409
  0
LINE
  8
DEFAULT_2
 62
8
  6
HIDDEN
 10
215.7501544505
 20
347.6161881336
 11
215.7306363871
 21
347.2976366238
  0
LINE
  8
DEFAULT_2
 62
8
  6
HIDDEN
 10
218.2908908123
 20
346.5012716324
 11
218.388481143
 21
348.0940294043
  0
LINE
  8
DEFAULT_2
 62
8
  6
HIDDEN
 10
218.4275172698
 20
348.7311324239
 11
218.5186015839
 21
350.2177064336
  0
LINE
  8
DEFAULT_2
 62
8
  6
HIDDEN
 10
223.3063020927
 20
347.0841831435
 11
223.4764694698
 21
348.6708286674
  0
LINE
  8
DEFAULT_2
 62
8
  6
HIDDEN
 10
234.4019110077
 20
343.3908013154
 11
235.1842126295
 21
346.7039505298
  0
LINE
  8
DEFAULT_2
 62
8
  6
HIDDEN
 10
235.4286819334
 20
347.7393098587
 11
235.5509165511
 21
348.2569893781
  0
LINE
  8
DEFAULT_2
 62
8
  6
HIDDEN
 10
236.0578109476
 20
348.1373013463
 11
235.9355763299
 21
347.6196218269
  0
LINE
  8
DEFAULT_2
 62
8
  6
HIDDEN
 10
235.691107026
 20
346.584262498
 11
234.9088054042
 21
343.2711132837
  0
LINE
  8
DEFAULT_2
 62
8
  6
HIDDEN
 10
235.7210298792
 20
343.0838823152
 11
236.2332052047
 21
345.0391919437
  0
LINE
  8
DEFAULT_2
 62
8
  6
HIDDEN
 10
236.7370402644
 20
344.9072169961
 11
236.2248649389
 21
342.9519073676
  0
LINE
  8
DEFAULT_2
 62
8
  6
HIDDEN
 10
238.0386718456
 20
342.4767973751
 11
238.6586735396
 21
344.8437510752
  0
LINE
  8
DEFAULT_2
 62
8
  6
HIDDEN
 10
238.766499908
 20
345.2553951468
 11
238.9012828686
 21
345.7699502363
  0
LINE
  8
DEFAULT_2
 62
8
  6
HIDDEN
 10
239.4051182165
 20
345.6379752132
 11
238.5425071936
 21
342.344822352
  0
LINE
  8
DEFAULT_2
 62
8
  6
HIDDEN
 10
239.7301980087
 20
342.6727744903
 11
240.5314422396
 21
345.3201368932
  0
LINE
  8
DEFAULT_2
 62
8
  6
HIDDEN
 10
241.0299440884
 20
345.1692615427
 11
240.3519682123
 21
342.9291857017
  0
LINE
  8
DEFAULT_2
 62
8
  6
HIDDEN
 10
242.4076093104
 20
342.5293276854
 11
243.0239510199
 21
344.5657602811
  0
LINE
  8
0
 62
2
  6
CONTINUOUS
 10
212.0174063367
 20
241.1671156228
 11
209.0474063367
 21
241.1671156228
  0
LINE
  8
DEFAULT_1
 62
2
  6
CENTER
 10
203.1074063367
 20
241.1671156228
 11
94.5592318918
 21
241.1671156228
  0
LINE
  8
DEFAULT_1
 62
2
  6
CENTER
 10
217.9574063367
 20
241.1671156228
 11
326.5055807816
 21
241.1671156228
  0
LINE
  8
DEFAULT_2
 62
8
  6
HIDDEN
 10
176.7588717656
 20
342.0358189007
 11
176.598904731
 21
342.5431098359
  0
LINE
  8
DEFAULT_2
 62
8
  6
HIDDEN
 10
177.1276219837
 20
342.598286376
 11
177.2236021776
 21
342.2939119002
  0
LINE
  8
DEFAULT_2
 62
8
  6
HIDDEN
 10
179.7072121324
 20
343.0770832366
 11
179.6112319385
 21
343.3814577124
  0
LINE
  8
DEFAULT_2
 62
8
  6
HIDDEN
 10
179.4546322005
 20
344.2244509521
 11
179.3906454046
 21
344.4273672693
  0
LINE
  8
DEFAULT_2
 62
8
  6
HIDDEN
 10
185.6672034819
 20
346.6711562705
 11
185.5769673747
 21
347.0870108917
  0
LINE
  8
DEFAULT_2
 62
8
  6
HIDDEN
 10
186.1877534947
 20
347.2195450971
 11
186.2554305909
 21
346.9076540583
  0
LINE
  8
DEFAULT_2
 62
8
  6
HIDDEN
 10
189.5448186301
 20
344.029081063
 11
189.0710793362
 21
346.2123165869
  0
LINE
  8
DEFAULT_2
 62
8
  6
HIDDEN
 10
188.9357252703
 20
346.8360980819
 11
188.5973400423
 21
348.3955521107
  0
LINE
  8
DEFAULT_2
 62
8
  6
HIDDEN
 10
195.6622776774
 20
347.139788819
 11
195.5458654548
 21
348.090132108
  0
LINE
  8
DEFAULT_2
 62
8
  6
HIDDEN
 10
196.0757709358
 20
348.0478647034
 11
196.1663137756
 21
347.3087088119
  0
LINE
  8
DEFAULT_2
 62
8
  6
HIDDEN
 10
198.8545505222
 20
347.63800415
 11
198.7640076823
 21
348.3771600415
  0
LINE
  8
DEFAULT_2
 62
8
  6
HIDDEN
 10
204.1568718802
 20
346.4960862794
 11
204.1984388956
 21
345.9657980096
  0
LINE
  8
DEFAULT_2
 62
8
  6
HIDDEN
 10
209.0324329257
 20
351.1497935849
 11
209.0497592013
 21
350.6181610175
  0
LINE
  8
DEFAULT_2
 62
8
  6
HIDDEN
 10
209.1675778923
 20
347.0030590376
 11
209.1952999357
 21
346.1524468552
  0
LINE
  8
DEFAULT_2
 62
8
  6
HIDDEN
 10
219.1814678251
 20
350.8165865744
 11
218.8756847953
 21
345.8259456598
  0
LINE
  8
DEFAULT_2
 62
8
  6
HIDDEN
 10
224.0979056494
 20
348.6041797763
 11
223.9277382723
 21
347.0175342524
  0
LINE
  8
DEFAULT_2
 62
8
  6
HIDDEN
 10
243.5224527617
 20
344.4148849629
 11
242.9061110522
 21
342.3784523673
  0
LINE
  8
DEFAULT_2
 62
8
  6
HIDDEN
 10
179.8873646669
 20
344.5840006762
 11
180.1113184527
 21
343.8737935659
  0
LINE
  8
DEFAULT_2
 62
8
  6
HIDDEN
 10
189.0953311073
 20
349.0479042286
 11
190.1556047502
 21
344.1616152684
  0
LINE
  8
DEFAULT_2
 62
8
  6
HIDDEN
 10
199.2680437805
 20
348.5460800344
 11
199.3844560031
 21
347.5957367454
  0
LINE
  8
DEFAULT_2
 62
8
  6
HIDDEN
 10
219.8898749817
 20
346.4876566389
 11
219.8430263272
 21
347.0276464839
  0
LINE
  8
DEFAULT_2
 62
8
  6
HIDDEN
 10
224.0510558335
 20
349.1441699707
 11
224.0979056494
 21
348.6041797763
  0
LINE
  8
0
 62
7
  6
CONTINUOUS
 10
258.6457772293
 20
357.2853957479
 11
259.729777099
 21
362.8620916313
  0
LINE
  8
0
 62
7
  6
CONTINUOUS
 10
292.1734631612
 20
336.7343133343
 11
294.9277021015
 21
341.703091912
  0
LINE
  8
0
 62
7
  6
CONTINUOUS
 10
317.7095536245
 20
306.8284477529
 11
321.8644275379
 21
310.7029303581
  0
LINE
  8
0
 62
7
  6
CONTINUOUS
 10
332.7543981642
 20
270.4951934932
 11
337.9031990434
 21
272.8961187734
  0
LINE
  8
0
 62
7
  6
CONTINUOUS
 10
85.2295101003
 20
251.0431286148
 11
79.5907827593
 21
250.3507799542
  0
LINE
  8
0
 62
7
  6
CONTINUOUS
 10
94.4141262116
 20
289.2804865153
 11
88.8374303282
 21
290.3644863851
  0
LINE
  8
0
 62
7
  6
CONTINUOUS
 10
114.9652086252
 20
322.8081724473
 11
109.9964300475
 21
325.5624113876
  0
LINE
  8
0
 62
7
  6
CONTINUOUS
 10
144.8710742067
 20
348.3442629106
 11
140.9965916014
 21
352.499136824
  0
LINE
  8
DEFAULT_2
 62
8
  6
HIDDEN
 10
179.3906454046
 20
344.4273672693
 11
179.0993375262
 21
345.0047883924
  0
LINE
  8
DEFAULT_2
 62
8
  6
HIDDEN
 10
179.5640679382
 20
345.262881392
 11
179.8873646669
 21
344.5840006762
  0
LINE
  8
0
 62
7
  6
CONTINUOUS
 10
181.2043284664
 20
363.3891074503
 11
178.8034031861
 21
368.5379083294
  0
LINE
  8
DEFAULT_2
 62
8
  6
HIDDEN
 10
200.3143535002
 20
348.8626202964
 11
200.1772533598
 21
349.27871077
  0
LINE
  8
DEFAULT_2
 62
8
  6
HIDDEN
 10
195.8303434173
 20
346.6244852041
 11
195.6622776774
 21
347.139788819
  0
LINE
  8
DEFAULT_2
 62
8
  6
HIDDEN
 10
199.0999780588
 20
349.0613835014
 11
199.2680437805
 21
348.5460800344
  0
LINE
  8
DEFAULT_2
 62
8
  6
HIDDEN
 10
196.1663137756
 20
347.3087088119
 11
196.3473142069
 21
346.6878114983
  0
LINE
  8
DEFAULT_2
 62
8
  6
HIDDEN
 10
198.7640076823
 20
348.3771600415
 11
198.5830072692
 21
348.9980572073
  0
LINE
  8
0
 62
7
  6
CONTINUOUS
 10
220.4084193287
 20
366.4700118592
 11
219.7160706681
 21
372.1087392002
  0
LINE
  8
DEFAULT_2
 62
8
  6
HIDDEN
 10
177.1175292114
 20
341.5911822597
 11
176.7588717656
 21
342.0358189007
  0
LINE
  8
DEFAULT_2
 62
8
  6
HIDDEN
 10
177.2236021776
 20
342.2939119002
 11
177.4189253145
 21
342.0208638189
  0
LINE
  8
DEFAULT_2
 62
8
  6
HIDDEN
 10
179.6112319385
 20
343.3814577124
 11
179.4159087568
 21
343.6545059358
  0
LINE
  8
DEFAULT_2
 62
8
  6
HIDDEN
 10
179.0993375262
 20
345.0047883924
 11
178.9040142997
 21
345.277836758
  0
LINE
  8
DEFAULT_2
 62
8
  6
HIDDEN
 10
182.6822794882
 20
347.5562275835
 11
185.5775369796
 21
343.152222981
  0
LINE
  8
DEFAULT_2
 62
8
  6
HIDDEN
 10
184.9735142942
 20
342.9916564977
 11
184.242868458
 21
344.1183610445
  0
LINE
  8
DEFAULT_2
 62
8
  6
HIDDEN
 10
184.0328776986
 20
344.5028498112
 11
182.388921082
 21
347.0379342307
  0
LINE
  8
DEFAULT_2
 62
8
  6
HIDDEN
 10
185.8366766482
 20
346.3813542201
 11
185.6672034819
 21
346.6711562705
  0
LINE
  8
DEFAULT_2
 62
8
  6
HIDDEN
 10
186.2554305909
 20
346.9076540583
 11
186.4249037572
 21
346.617852008
  0
LINE
  8
DEFAULT_2
 62
8
  6
HIDDEN
 10
195.9725444892
 20
346.3203697145
 11
195.8303434173
 21
346.6244852041
  0
LINE
  8
DEFAULT_2
 62
8
  6
HIDDEN
 10
198.9577769506
 20
349.3654992869
 11
199.0999780588
 21
349.0613835014
  0
LINE
  8
DEFAULT_2
 62
8
  6
HIDDEN
 10
203.6582073298
 20
350.1918238161
 11
203.7953098471
 21
349.7757335288
  0
LINE
  8
DEFAULT_2
 62
8
  6
HIDDEN
 10
215.1847522829
 20
346.9047536992
 11
215.1003002517
 21
347.2296756659
  0
LINE
  8
DEFAULT_2
 62
8
  6
HIDDEN
 10
215.7306363871
 20
347.2976366238
 11
215.815088423
 21
346.9727147314
  0
LINE
  8
DEFAULT_2
 62
8
  6
HIDDEN
 10
215.3213787405
 20
349.1346144907
 11
215.2369267046
 21
349.459536383
  0
LINE
  8
DEFAULT_2
 62
8
  6
HIDDEN
 10
215.8672628401
 20
349.5274973409
 11
215.9517148759
 21
349.2025754485
  0
LINE
  8
DEFAULT_2
 62
8
  6
HIDDEN
 10
220.4644625068
 20
346.9609975928
 11
220.5340001507
 21
346.6325605386
  0
LINE
  8
DEFAULT_2
 62
8
  6
HIDDEN
 10
227.8105887135
 20
349.7752972783
 11
228.6906931034
 21
344.5788376454
  0
LINE
  8
DEFAULT_2
 62
8
  6
HIDDEN
 10
228.0730874585
 20
344.6746930959
 11
227.8571406104
 21
346.0000890466
  0
LINE
  8
DEFAULT_2
 62
8
  6
HIDDEN
 10
227.8194700065
 20
346.4365623043
 11
227.3335887319
 21
349.4187034408
  0
LINE
  8
DEFAULT_2
 62
8
  6
HIDDEN
 10
223.4764694698
 20
348.6708286674
 11
223.4182751313
 21
349.1050422071
  0
LINE
  8
DEFAULT_2
 62
8
  6
HIDDEN
 10
179.2054104252
 20
345.7075182461
 11
179.5640679382
 21
345.262881392
  0
LINE
  8
DEFAULT_2
 62
8
  6
HIDDEN
 10
196.2310677933
 20
345.9233248993
 11
195.9725444892
 21
346.3203697145
  0
LINE
  8
DEFAULT_2
 62
8
  6
HIDDEN
 10
198.6992536555
 20
349.7625440281
 11
198.9577769506
 21
349.3654992869
  0
LINE
  8
DEFAULT_2
 62
8
  6
HIDDEN
 10
200.8003420638
 20
349.3275520121
 11
201.041288737
 21
348.9196016213
  0
LINE
  8
DEFAULT_2
 62
8
  6
HIDDEN
 10
223.8892880082
 20
349.5894917437
 11
224.0510558335
 21
349.1441699707
  0
LINE
  8
DEFAULT_2
 62
8
  6
HIDDEN
 10
177.5435361909
 20
341.2793302074
 11
177.1175292114
 21
341.5911822597
  0
LINE
  8
DEFAULT_2
 62
8
  6
HIDDEN
 10
177.4189253145
 20
342.0208638189
 11
177.7135959643
 21
341.7791434951
  0
LINE
  8
DEFAULT_2
 62
8
  6
HIDDEN
 10
178.9040142997
 20
345.277836758
 11
178.6093436723
 21
345.5195570107
  0
LINE
  8
DEFAULT_2
 62
8
  6
HIDDEN
 10
186.2323057521
 20
346.0317669928
 11
185.8366766482
 21
346.3813542201
  0
LINE
  8
DEFAULT_2
 62
8
  6
HIDDEN
 10
196.3473142069
 20
346.6878114983
 11
196.8384961562
 21
346.1049099191
  0
LINE
  8
DEFAULT_2
 62
8
  6
HIDDEN
 10
198.5830072692
 20
348.9980572073
 11
198.0918252927
 21
349.5809590083
  0
LINE
  8
DEFAULT_2
 62
8
  6
HIDDEN
 10
200.5469915253
 20
348.5607279173
 11
200.3143535002
 21
348.8626202964
  0
LINE
  8
DEFAULT_2
 62
8
  6
HIDDEN
 10
203.2760676758
 20
349.7350323695
 11
203.0434320277
 21
350.0369249349
  0
LINE
  8
DEFAULT_2
 62
8
  6
HIDDEN
 10
215.4706432533
 20
346.4609068763
 11
215.1847522829
 21
346.9047536992
  0
LINE
  8
DEFAULT_2
 62
8
  6
HIDDEN
 10
215.6072697131
 20
348.690767705
 11
215.3213787405
 21
349.1346144907
  0
LINE
  8
DEFAULT_2
 62
8
  6
HIDDEN
 10
223.4182751313
 20
349.1050422071
 11
223.2451640324
 21
349.4445877909
  0
LINE
  8
DEFAULT_2
 62
8
  6
HIDDEN
 10
240.3519682123
 20
342.9291857017
 11
240.4589175947
 21
342.5633706481
  0
LINE
  8
DEFAULT_2
 62
8
  6
HIDDEN
 10
179.4159087568
 20
343.6545059358
 11
179.1532315273
 21
343.7947680299
  0
LINE
  8
DEFAULT_2
 62
8
  6
HIDDEN
 10
186.4249037572
 20
346.617852008
 11
186.6736187058
 21
346.4541032485
  0
LINE
  8
DEFAULT_2
 62
8
  6
HIDDEN
 10
178.7794034569
 20
346.0193702629
 11
179.2054104252
 21
345.7075182461
  0
LINE
  8
DEFAULT_2
 62
8
  6
HIDDEN
 10
196.5800533992
 20
345.6445394265
 11
196.2310677933
 21
345.9233248993
  0
LINE
  8
DEFAULT_2
 62
8
  6
HIDDEN
 10
208.5498400613
 20
346.7700476343
 11
204.892235692
 21
350.2697855339
  0
LINE
  8
DEFAULT_2
 62
8
  6
HIDDEN
 10
215.815088423
 20
346.9727147314
 11
216.0100213341
 21
346.7476059271
  0
LINE
  8
DEFAULT_2
 62
8
  6
HIDDEN
 10
215.9517148759
 20
349.2025754485
 11
216.1466477916
 21
348.9774667186
  0
LINE
  8
DEFAULT_2
 62
8
  6
HIDDEN
 10
220.2587885913
 20
346.0201184895
 11
219.8898749817
 21
346.4876566389
  0
LINE
  8
DEFAULT_2
 62
8
  6
HIDDEN
 10
238.6586735396
 20
344.8437510752
 11
238.511052527
 21
345.1023631353
  0
LINE
  8
DEFAULT_2
 62
8
  6
HIDDEN
 10
238.6188788954
 20
345.514007207
 11
238.766499908
 21
345.2553951468
  0
LINE
  8
DEFAULT_2
 62
8
  6
HIDDEN
 10
240.4045324176
 20
342.0240874458
 11
240.1978827742
 21
342.4200775171
  0
LINE
  8
DEFAULT_2
 62
8
  6
HIDDEN
 10
177.7135959643
 20
341.7791434951
 11
178.0756161367
 21
341.6702077956
  0
LINE
  8
DEFAULT_2
 62
8
  6
HIDDEN
 10
186.7071766384
 20
345.8082330563
 11
186.2323057521
 21
346.0317669928
  0
LINE
  8
DEFAULT_2
 62
8
  6
HIDDEN
 10
196.8384961562
 20
346.1049099191
 11
197.1745470662
 21
345.9317181821
  0
LINE
  8
DEFAULT_2
 62
8
  6
HIDDEN
 10
203.3260877338
 20
346.4309646854
 11
200.5469915253
 21
348.5607279173
  0
LINE
  8
DEFAULT_2
 62
8
  6
HIDDEN
 10
201.041288737
 20
348.9196016213
 11
204.1568718802
 21
346.4960862794
  0
LINE
  8
DEFAULT_2
 62
8
  6
HIDDEN
 10
198.3502680542
 20
350.0413294639
 11
198.6992536555
 21
349.7625440281
  0
LINE
  8
DEFAULT_2
 62
8
  6
HIDDEN
 10
220.5340001507
 20
346.6325605386
 11
220.8220292511
 21
346.3876833022
  0
LINE
  8
DEFAULT_2
 62
8
  6
HIDDEN
 10
215.8670127243
 20
346.1168733709
 11
215.4706432533
 21
346.4609068763
  0
LINE
  8
DEFAULT_2
 62
8
  6
HIDDEN
 10
203.2095604605
 20
350.5834934823
 11
203.6582073298
 21
350.1918238161
  0
LINE
  8
DEFAULT_2
 62
8
  6
HIDDEN
 10
205.4058613385
 20
350.4994038485
 11
209.1675778923
 21
347.0030590376
  0
LINE
  8
DEFAULT_2
 62
8
  6
HIDDEN
 10
240.4589175947
 20
342.5633706481
 11
240.6963844803
 21
342.2692022098
  0
LINE
  8
DEFAULT_2
 62
8
  6
HIDDEN
 10
223.5203755799
 20
350.0570297289
 11
223.8892880082
 21
349.5894917437
  0
LINE
  8
DEFAULT_2
 62
8
  6
HIDDEN
 10
237.4565280609
 20
345.5985301917
 11
237.2280375603
 21
345.5484091227
  0
LINE
  8
DEFAULT_2
 62
8
  6
HIDDEN
 10
241.4631701445
 20
341.9259800512
 11
241.9236057011
 21
342.0089230819
  0
LINE
  8
DEFAULT_2
 62
8
  6
HIDDEN
 10
178.0756161367
 20
341.6702077956
 11
178.4056429112
 21
341.6627302547
  0
LINE
  8
DEFAULT_2
 62
8
  6
HIDDEN
 10
178.1362402032
 20
341.1315905458
 11
177.5435361909
 21
341.2793302074
  0
LINE
  8
DEFAULT_2
 62
8
  6
HIDDEN
 10
178.1867040006
 20
346.1671113319
 11
178.7794034569
 21
346.0193702629
  0
LINE
  8
DEFAULT_2
 62
8
  6
HIDDEN
 10
179.1532315273
 20
343.7947680299
 11
178.7912113549
 21
343.9037037294
  0
LINE
  8
DEFAULT_2
 62
8
  6
HIDDEN
 10
178.7305918557
 20
344.4423223511
 11
179.4546322005
 21
344.2244509521
  0
LINE
  8
DEFAULT_2
 62
8
  6
HIDDEN
 10
178.6093436723
 20
345.5195570107
 11
178.2473234999
 21
345.6284927102
  0
LINE
  8
DEFAULT_2
 62
8
  6
HIDDEN
 10
216.0100213341
 20
346.7476059271
 11
216.3154303701
 21
346.6223106512
  0
LINE
  8
DEFAULT_2
 62
8
  6
HIDDEN
 10
202.7775427719
 20
350.7630480567
 11
203.2095604605
 21
350.5834934823
  0
LINE
  8
DEFAULT_2
 62
8
  6
HIDDEN
 10
197.1358282664
 20
345.3910845965
 11
196.5800533992
 21
345.6445394265
  0
LINE
  8
DEFAULT_2
 62
8
  6
HIDDEN
 10
197.7944931904
 20
350.2947842661
 11
198.3502680542
 21
350.0413294639
  0
LINE
  8
DEFAULT_2
 62
8
  6
HIDDEN
 10
198.0918252927
 20
349.5809590083
 11
197.7557743827
 21
349.7541507453
  0
LINE
  8
DEFAULT_2
 62
8
  6
HIDDEN
 10
203.0434320277
 20
350.0369249349
 11
202.7152608719
 21
350.224619592
  0
LINE
  8
DEFAULT_2
 62
8
  6
HIDDEN
 10
215.8087086499
 20
348.5718428116
 11
215.6072697131
 21
348.690767705
  0
LINE
  8
DEFAULT_2
 62
8
  6
HIDDEN
 10
220.6503911834
 20
345.7641330661
 11
220.2587885913
 21
346.0201184895
  0
LINE
  8
DEFAULT_2
 62
8
  6
HIDDEN
 10
223.1287729848
 20
350.3130151245
 11
223.5203755799
 21
350.0570297289
  0
LINE
  8
DEFAULT_2
 62
8
  6
HIDDEN
 10
223.2451640324
 20
349.4445877909
 11
222.9571349241
 21
349.6894649532
  0
LINE
  8
DEFAULT_2
 62
8
  6
HIDDEN
 10
240.5731161282
 20
341.8619156568
 11
240.4045324176
 21
342.0240874458
  0
LINE
  8
DEFAULT_2
 62
8
  6
HIDDEN
 10
238.511052527
 20
345.1023631353
 11
238.2626648483
 21
345.3873700944
  0
LINE
  8
DEFAULT_2
 62
8
  6
HIDDEN
 10
238.3704912168
 20
345.799014166
 11
238.6188788954
 21
345.514007207
  0
LINE
  8
DEFAULT_2
 62
8
  6
HIDDEN
 10
216.4130207008
 20
348.2150684231
 11
216.0945996225
 21
348.1279960259
  0
LINE
  8
DEFAULT_2
 62
8
  6
HIDDEN
 10
216.5431411417
 20
350.3387454523
 11
216.2247200634
 21
350.2516730551
  0
LINE
  8
DEFAULT_2
 62
8
  6
HIDDEN
 10
185.5775369796
 20
343.152222981
 11
184.9735142942
 21
342.9916564977
  0
LINE
  8
DEFAULT_2
 62
8
  6
HIDDEN
 10
182.1547432986
 20
342.2423466506
 11
181.5507206132
 21
342.0817801673
  0
LINE
  8
DEFAULT_2
 62
8
  6
HIDDEN
 10
184.242868458
 20
344.1183610445
 11
182.2294579706
 21
343.5831390251
  0
LINE
  8
DEFAULT_2
 62
8
  6
HIDDEN
 10
182.2208096425
 20
344.0211503613
 11
184.0328776986
 21
344.5028498112
  0
LINE
  8
DEFAULT_2
 62
8
  6
HIDDEN
 10
181.8769143716
 20
347.3421385307
 11
182.6822794882
 21
347.5562275835
  0
LINE
  8
DEFAULT_2
 62
8
  6
HIDDEN
 10
201.0121255695
 20
350.6246645995
 11
201.6269008716
 21
350.7795634807
  0
LINE
  8
DEFAULT_2
 62
8
  6
HIDDEN
 10
190.1556047502
 20
344.1616152684
 11
189.5448186301
 21
344.029081063
  0
LINE
  8
DEFAULT_2
 62
8
  6
HIDDEN
 10
189.0710793362
 20
346.2123165869
 11
187.2387209761
 21
345.8147139708
  0
LINE
  8
DEFAULT_2
 62
8
  6
HIDDEN
 10
187.0015707768
 20
346.4164067687
 11
188.9357252703
 21
346.8360980819
  0
LINE
  8
DEFAULT_2
 62
8
  6
HIDDEN
 10
188.5973400423
 20
348.3955521107
 11
186.6631855488
 21
347.9758607975
  0
LINE
  8
DEFAULT_2
 62
8
  6
HIDDEN
 10
186.6521866272
 20
348.5177674072
 11
189.0953311073
 21
349.0479042286
  0
LINE
  8
DEFAULT_2
 62
8
  6
HIDDEN
 10
222.1571306063
 20
346.1375009283
 11
222.5827666737
 21
346.1988446079
  0
LINE
  8
DEFAULT_2
 62
8
  6
HIDDEN
 10
221.6220335688
 20
349.9396473271
 11
221.1963975015
 21
349.8783036475
  0
LINE
  8
DEFAULT_2
 62
8
  6
HIDDEN
 10
216.1597837113
 20
350.895146603
 11
216.6861473678
 21
350.9694780893
  0
LINE
  8
DEFAULT_2
 62
8
  6
HIDDEN
 10
178.6649528663
 20
341.1867657851
 11
178.1362402032
 21
341.1315905458
  0
LINE
  8
DEFAULT_2
 62
8
  6
HIDDEN
 10
178.2018746477
 20
344.3871456688
 11
178.7305918557
 21
344.4423223511
  0
LINE
  8
DEFAULT_2
 62
8
  6
HIDDEN
 10
177.6579867927
 20
346.1119346496
 11
178.1867040006
 21
346.1671113319
  0
LINE
  8
DEFAULT_2
 62
8
  6
HIDDEN
 10
222.6182708384
 20
345.5530784138
 11
222.0890636539
 21
345.5028427039
  0
LINE
  8
DEFAULT_2
 62
8
  6
HIDDEN
 10
221.1608933298
 20
350.5240697769
 11
221.6901005133
 21
350.5743054774
  0
LINE
  8
DEFAULT_2
 62
8
  6
HIDDEN
 10
204.1984388956
 20
345.9657980096
 11
200.4599090484
 21
345.6727507433
  0
LINE
  8
DEFAULT_2
 62
8
  6
HIDDEN
 10
200.418342033
 20
346.2030390131
 11
203.3260877338
 21
346.4309646854
  0
LINE
  8
DEFAULT_2
 62
8
  6
HIDDEN
 10
203.7953098471
 20
349.7757335288
 11
203.2760676758
 21
349.7350323695
  0
LINE
  8
DEFAULT_2
 62
8
  6
HIDDEN
 10
202.1877052987
 20
350.2899760718
 11
201.7723144139
 21
350.257415368
  0
LINE
  8
DEFAULT_2
 62
8
  6
HIDDEN
 10
201.6269008716
 20
350.7795634807
 11
202.0422917563
 21
350.8121241846
  0
LINE
  8
DEFAULT_2
 62
8
  6
HIDDEN
 10
237.2620532782
 20
346.0893592621
 11
237.5913110215
 21
346.1130852813
  0
LINE
  8
DEFAULT_2
 62
8
  6
HIDDEN
 10
209.1952999357
 20
346.1524468552
 11
205.0308459162
 21
346.0167243986
  0
LINE
  8
DEFAULT_2
 62
8
  6
HIDDEN
 10
205.0100543831
 20
346.654683554
 11
208.5498400613
 21
346.7700476343
  0
LINE
  8
DEFAULT_2
 62
8
  6
HIDDEN
 10
209.0497592013
 20
350.6181610175
 11
205.4058613385
 21
350.4994038485
  0
LINE
  8
DEFAULT_2
 62
8
  6
HIDDEN
 10
204.8679789062
 20
351.0140711283
 11
209.0324329257
 21
351.1497935849
  0
LINE
  8
DEFAULT_2
 62
8
  6
HIDDEN
 10
187.2387209761
 20
345.8147139708
 11
186.7071766384
 21
345.8082330563
  0
LINE
  8
DEFAULT_2
 62
8
  6
HIDDEN
 10
237.8865530468
 20
345.595861161
 11
237.4565280609
 21
345.5985301917
  0
LINE
  8
DEFAULT_2
 62
8
  6
HIDDEN
 10
178.7912113549
 20
343.9037037294
 11
178.4611845805
 21
343.9111812703
  0
LINE
  8
DEFAULT_2
 62
8
  6
HIDDEN
 10
178.2473234999
 20
345.6284927102
 11
177.9172967254
 21
345.6359702511
  0
LINE
  8
DEFAULT_2
 62
8
  6
HIDDEN
 10
241.7695202657
 20
341.4998149063
 11
241.3399018005
 21
341.5186935249
  0
LINE
  8
DEFAULT_2
 62
8
  6
HIDDEN
 10
197.7691260132
 20
345.3614822096
 11
197.1358282664
 21
345.3910845965
  0
LINE
  8
DEFAULT_2
 62
8
  6
HIDDEN
 10
197.1611954447
 20
350.3243866439
 11
197.7944931904
 21
350.2947842661
  0
LINE
  8
DEFAULT_2
 62
8
  6
HIDDEN
 10
218.8756847953
 20
345.8259456598
 11
216.380364338
 21
345.9788371747
  0
LINE
  8
DEFAULT_2
 62
8
  6
HIDDEN
 10
216.3154303701
 20
346.6223106512
 11
218.2908908123
 21
346.5012716324
  0
LINE
  8
DEFAULT_2
 62
8
  6
HIDDEN
 10
218.388481143
 20
348.0940294043
 11
216.4130207008
 21
348.2150684231
  0
LINE
  8
DEFAULT_2
 62
8
  6
HIDDEN
 10
216.4520568276
 20
348.8521714426
 11
218.4275172698
 21
348.7311324239
  0
LINE
  8
DEFAULT_2
 62
8
  6
HIDDEN
 10
218.5186015839
 20
350.2177064336
 11
216.5431411417
 21
350.3387454523
  0
LINE
  8
DEFAULT_2
 62
8
  6
HIDDEN
 10
216.6861473678
 20
350.9694780893
 11
219.1814678251
 21
350.8165865744
  0
LINE
  8
DEFAULT_2
 62
8
  6
HIDDEN
 10
202.0422917563
 20
350.8121241846
 11
202.7775427719
 21
350.7630480567
  0
LINE
  8
DEFAULT_2
 62
8
  6
HIDDEN
 10
197.1745470662
 20
345.9317181821
 11
197.7044525471
 21
345.8894507774
  0
LINE
  8
DEFAULT_2
 62
8
  6
HIDDEN
 10
197.7557743827
 20
349.7541507453
 11
197.2258689017
 21
349.79641815
  0
LINE
  8
DEFAULT_2
 62
8
  6
HIDDEN
 10
222.0890636539
 20
345.5028427039
 11
221.1569093845
 21
345.6028160406
  0
LINE
  8
DEFAULT_2
 62
8
  6
HIDDEN
 10
221.2249763369
 20
346.237474265
 11
222.1571306063
 21
346.1375009283
  0
LINE
  8
DEFAULT_2
 62
8
  6
HIDDEN
 10
219.8430263272
 20
347.0276464839
 11
220.4644625068
 21
346.9609975928
  0
LINE
  8
DEFAULT_2
 62
8
  6
HIDDEN
 10
220.7253858099
 20
349.3938539838
 11
220.1039496303
 21
349.4605028749
  0
LINE
  8
DEFAULT_2
 62
8
  6
HIDDEN
 10
222.5541878382
 20
349.8396739904
 11
221.6220335688
 21
349.9396473271
  0
LINE
  8
DEFAULT_2
 62
8
  6
HIDDEN
 10
221.6901005133
 20
350.5743054774
 11
222.6222547827
 21
350.4743321407
  0
LINE
  8
DEFAULT_2
 62
8
  6
HIDDEN
 10
186.6736187058
 20
346.4541032485
 11
187.0015707768
 21
346.4164067687
  0
LINE
  8
DEFAULT_2
 62
8
  6
HIDDEN
 10
202.7152608719
 20
350.224619592
 11
202.1877052987
 21
350.2899760718
  0
LINE
  8
DEFAULT_2
 62
8
  6
HIDDEN
 10
228.6906931034
 20
344.5788376454
 11
228.0730874585
 21
344.6746930959
  0
LINE
  8
DEFAULT_2
 62
8
  6
HIDDEN
 10
225.190928175
 20
345.1220184705
 11
224.5733225301
 21
345.217873921
  0
LINE
  8
DEFAULT_2
 62
8
  6
HIDDEN
 10
227.8571406104
 20
346.0000890466
 11
225.7984547347
 21
346.3196072758
  0
LINE
  8
DEFAULT_2
 62
8
  6
HIDDEN
 10
225.9666530718
 20
346.7241286557
 11
227.8194700065
 21
346.4365623043
  0
LINE
  8
DEFAULT_2
 62
8
  6
HIDDEN
 10
226.9871141277
 20
349.9031046066
 11
227.8105887135
 21
349.7752972783
  0
LINE
  8
DEFAULT_2
 62
8
  6
HIDDEN
 10
234.9088054042
 20
343.2711132837
 11
234.4019110077
 21
343.3908013154
  0
LINE
  8
DEFAULT_2
 62
8
  6
HIDDEN
 10
235.1842126295
 20
346.7039505298
 11
235.691107026
 21
346.584262498
  0
LINE
  8
DEFAULT_2
 62
8
  6
HIDDEN
 10
235.9355763299
 20
347.6196218269
 11
235.4286819334
 21
347.7393098587
  0
LINE
  8
DEFAULT_2
 62
8
  6
HIDDEN
 10
235.5509165511
 20
348.2569893781
 11
236.0578109476
 21
348.1373013463
  0
LINE
  8
DEFAULT_2
 62
8
  6
HIDDEN
 10
238.5425071936
 20
342.344822352
 11
238.0386718456
 21
342.4767973751
  0
LINE
  8
DEFAULT_2
 62
8
  6
HIDDEN
 10
236.2248649389
 20
342.9519073676
 11
235.7210298792
 21
343.0838823152
  0
LINE
  8
DEFAULT_2
 62
8
  6
HIDDEN
 10
237.5913110215
 20
346.1130852813
 11
237.9943794152
 21
346.0075052326
  0
LINE
  8
DEFAULT_2
 62
8
  6
HIDDEN
 10
238.9012828686
 20
345.7699502363
 11
239.4051182165
 21
345.6379752132
  0
LINE
  8
DEFAULT_2
 62
8
  6
HIDDEN
 10
216.380364338
 20
345.9788371747
 11
215.8670127243
 21
346.1168733709
  0
LINE
  8
DEFAULT_2
 62
8
  6
HIDDEN
 10
241.3399018005
 20
341.5186935249
 11
240.94110035
 21
341.6393937966
  0
LINE
  8
DEFAULT_2
 62
8
  6
HIDDEN
 10
239.8443965395
 20
341.97131949
 11
239.3458946907
 21
342.1221948405
  0
LINE
  8
DEFAULT_2
 62
8
  6
HIDDEN
 10
241.064368694
 20
342.0466803229
 11
241.4631701445
 21
341.9259800512
  0
LINE
  8
DEFAULT_2
 62
8
  6
HIDDEN
 10
240.5314422396
 20
345.3201368932
 11
241.0299440884
 21
345.1692615427
  0
LINE
  8
DEFAULT_2
 62
8
  6
HIDDEN
 10
243.0239510199
 20
344.5657602811
 11
243.5224527617
 21
344.4148849629
  0
LINE
  8
DEFAULT_2
 62
8
  6
HIDDEN
 10
221.1569093845
 20
345.6028160406
 11
220.6503911834
 21
345.7641330661
  0
LINE
  8
DEFAULT_2
 62
8
  6
HIDDEN
 10
222.6222547827
 20
350.4743321407
 11
223.1287729848
 21
350.3130151245
  0
LINE
  8
DEFAULT_2
 62
8
  6
HIDDEN
 10
220.8220292511
 20
346.3876833022
 11
221.2249763369
 21
346.237474265
  0
LINE
  8
DEFAULT_2
 62
8
  6
HIDDEN
 10
222.9571349241
 20
349.6894649532
 11
222.5541878382
 21
349.8396739904
  0
LINE
  8
DEFAULT_2
 62
8
  6
HIDDEN
 10
216.1466477916
 20
348.9774667186
 11
216.4520568276
 21
348.8521714426
  0
LINE
  8
DEFAULT_2
 62
8
  6
HIDDEN
 10
238.2626648483
 20
345.3873700944
 11
237.8865530468
 21
345.595861161
  0
LINE
  8
DEFAULT_2
 62
8
  6
HIDDEN
 10
237.9943794152
 20
346.0075052326
 11
238.3704912168
 21
345.799014166
  0
LINE
  8
DEFAULT_2
 62
8
  6
HIDDEN
 10
240.94110035
 20
341.6393937966
 11
240.5731161282
 21
341.8619156568
  0
LINE
  8
DEFAULT_2
 62
8
  6
HIDDEN
 10
240.6963844803
 20
342.2692022098
 11
241.064368694
 21
342.0466803229
  0
LINE
  8
0
 62
7
  6
CONTINUOUS
 10
326.9805807816
 20
242.9161934196
 11
326.9805807816
 21
261.4321156228
  0
LINE
  8
0
 62
7
  6
CONTINUOUS
 10
321.8216962169
 20
206.8461225916
 11
327.5434308442
 21
224.4558110581
  0
LINE
  8
0
 62
7
  6
CONTINUOUS
 10
305.7690405607
 20
174.1356296898
 11
316.6524265643
 21
189.1153254187
  0
LINE
  8
0
 62
7
  6
CONTINUOUS
 10
280.3939595939
 20
147.986645667
 11
295.3736553228
 21
158.8700316706
  0
LINE
  8
0
 62
7
  6
CONTINUOUS
 10
248.1803430403
 20
130.95881527
 11
265.7900315069
 21
136.6805498973
  0
LINE
  8
0
 62
7
  6
CONTINUOUS
 10
208.7833285399
 20
357.6152900677
 11
190.2674063367
 21
357.6152900677
  0
LINE
  8
0
 62
7
  6
CONTINUOUS
 10
244.8533993679
 20
352.456405503
 11
227.2437109014
 21
358.1781401303
  0
LINE
  8
0
 62
7
  6
CONTINUOUS
 10
277.5638922697
 20
336.4037498467
 11
262.5841965408
 21
347.2871358504
  0
LINE
  8
0
 62
7
  6
CONTINUOUS
 10
303.7128762925
 20
311.02866888
 11
292.8294902889
 21
326.0083646089
  0
LINE
  8
0
 62
7
  6
CONTINUOUS
 10
320.7407066895
 20
278.8150523264
 11
315.0189720622
 21
296.4247407929
  0
LINE
  8
0
 62
7
  6
CONTINUOUS
 10
465.5215020814
 20
109.3473613888
 11
471.9715020814
 21
109.3473613888
  0
LINE
  8
0
 62
7
  6
CONTINUOUS
 10
482.2715020814
 20
109.3473613888
 11
488.7215020814
 21
109.3473613888
  0
LINE
  8
DEFAULT_2
 62
8
  6
HIDDEN
 10
465.5215020814
 20
109.5464244557
 11
471.9715020814
 21
109.5464244557
  0
LINE
  8
DEFAULT_2
 62
8
  6
HIDDEN
 10
482.2715020814
 20
109.5464244557
 11
488.7215020814
 21
109.5464244557
  0
LINE
  8
0
 62
9
  6
CONTINUOUS
 10
465.5215020814
 20
110.2254920454
 11
471.9715020814
 21
110.2254920454
  0
LINE
  8
0
 62
9
  6
CONTINUOUS
 10
482.2715020814
 20
110.2254920454
 11
488.7215020814
 21
110.2254920454
  0
LINE
  8
DEFAULT_2
 62
8
  6
HIDDEN
 10
465.5215020814
 20
113.2189411779
 11
471.9715020814
 21
113.2189411779
  0
LINE
  8
DEFAULT_2
 62
8
  6
HIDDEN
 10
482.2715020814
 20
113.2189411779
 11
488.7215020814
 21
113.2189411779
  0
LINE
  8
DEFAULT_2
 62
8
  6
HIDDEN
 10
465.5215020814
 20
113.6422284184
 11
471.9715020814
 21
113.6422284184
  0
LINE
  8
DEFAULT_2
 62
8
  6
HIDDEN
 10
482.2715020814
 20
113.6422284184
 11
488.7215020814
 21
113.6422284184
  0
LINE
  8
DEFAULT_2
 62
8
  6
HIDDEN
 10
465.5215020814
 20
113.7963229162
 11
471.9715020814
 21
113.7963229162
  0
LINE
  8
DEFAULT_2
 62
8
  6
HIDDEN
 10
482.2715020814
 20
113.7963229162
 11
488.7215020814
 21
113.7963229162
  0
LINE
  8
0
 62
9
  6
CONTINUOUS
 10
465.5215020814
 20
115.8642193864
 11
471.9715020814
 21
115.8642193864
  0
LINE
  8
0
 62
9
  6
CONTINUOUS
 10
482.2715020814
 20
115.8642193864
 11
488.7215020814
 21
115.8642193864
  0
LINE
  8
0
 62
7
  6
CONTINUOUS
 10
465.5215020814
 20
118.2813306189
 11
471.9715020814
 21
118.2813306189
  0
LINE
  8
0
 62
7
  6
CONTINUOUS
 10
482.2715020814
 20
118.2813306189
 11
488.7215020814
 21
118.2813306189
  0
LINE
  8
DEFAULT_2
 62
8
  6
HIDDEN
 10
465.5215020814
 20
118.3345707998
 11
471.9715020814
 21
118.3345707998
  0
LINE
  8
DEFAULT_2
 62
8
  6
HIDDEN
 10
482.2715020814
 20
118.3345707998
 11
488.7215020814
 21
118.3345707998
  0
LINE
  8
DEFAULT_2
 62
8
  6
HIDDEN
 10
465.5215020814
 20
118.9451237953
 11
471.9715020814
 21
118.9451237953
  0
LINE
  8
DEFAULT_2
 62
8
  6
HIDDEN
 10
482.2715020814
 20
118.9451237953
 11
488.7215020814
 21
118.9451237953
  0
LINE
  8
0
 62
9
  6
CONTINUOUS
 10
465.5215020814
 20
119.4721396142
 11
471.9715020814
 21
119.4721396142
  0
LINE
  8
0
 62
9
  6
CONTINUOUS
 10
482.2715020814
 20
119.4721396142
 11
488.7215020814
 21
119.4721396142
  0
LINE
  8
DEFAULT_2
 62
8
  6
HIDDEN
 10
465.5215020814
 20
123.3490162204
 11
471.9715020814
 21
123.3490162204
  0
LINE
  8
DEFAULT_2
 62
8
  6
HIDDEN
 10
482.2715020814
 20
123.3490162204
 11
488.7215020814
 21
123.3490162204
  0
LINE
  8
DEFAULT_2
 62
8
  6
HIDDEN
 10
465.5215020814
 20
124.1560911153
 11
471.9715020814
 21
124.1560911153
  0
LINE
  8
DEFAULT_2
 62
8
  6
HIDDEN
 10
482.2715020814
 20
124.1560911153
 11
488.7215020814
 21
124.1560911153
  0
LINE
  8
DEFAULT_2
 62
8
  6
HIDDEN
 10
488.7215020814
 20
124.7189411779
 11
482.2715020814
 21
124.7189411779
  0
LINE
  8
DEFAULT_2
 62
8
  6
HIDDEN
 10
471.9715020814
 20
124.7189411779
 11
465.5215020814
 21
124.7189411779
  0
LINE
  8
DEFAULT_2
 62
8
  6
HIDDEN
 10
488.7215020814
 20
124.9189411779
 11
482.2715020814
 21
124.9189411779
  0
LINE
  8
DEFAULT_2
 62
8
  6
HIDDEN
 10
471.9715020814
 20
124.9189411779
 11
465.5215020814
 21
124.9189411779
  0
LINE
  8
0
 62
9
  6
CONTINUOUS
 10
465.5215020814
 20
125.0488354977
 11
471.9715020814
 21
125.0488354977
  0
LINE
  8
0
 62
9
  6
CONTINUOUS
 10
482.2715020814
 20
125.0488354977
 11
488.7215020814
 21
125.0488354977
  0
LINE
  8
DEFAULT_2
 62
8
  6
HIDDEN
 10
465.5215020814
 20
125.7189411779
 11
471.9715020814
 21
125.7189411779
  0
LINE
  8
DEFAULT_2
 62
8
  6
HIDDEN
 10
482.2715020814
 20
125.7189411779
 11
488.7215020814
 21
125.7189411779
  0
LINE
  8
0
 62
7
  6
CONTINUOUS
 10
482.2715020814
 20
127.1939411779
 11
471.9715020814
 21
127.1939411779
  0
LINE
  8
0
 62
7
  6
CONTINUOUS
 10
462.5215020814
 20
127.1939411779
 11
465.5215020814
 21
127.1939411779
  0
LINE
  8
0
 62
7
  6
CONTINUOUS
 10
488.7215020814
 20
127.1939411779
 11
491.7215020814
 21
127.1939411779
  0
LINE
  8
DEFAULT_2
 62
8
  6
HIDDEN
 10
465.5215020814
 20
128.4305350508
 11
471.9715020814
 21
128.4305350508
  0
LINE
  8
DEFAULT_2
 62
8
  6
HIDDEN
 10
482.2715020814
 20
128.4305350508
 11
488.7215020814
 21
128.4305350508
  0
LINE
  8
DEFAULT_2
 62
8
  6
HIDDEN
 10
465.5215020814
 20
129.5170927817
 11
471.9715020814
 21
129.5170927817
  0
LINE
  8
DEFAULT_2
 62
8
  6
HIDDEN
 10
482.2715020814
 20
129.5170927817
 11
488.7215020814
 21
129.5170927817
  0
LINE
  8
DEFAULT_2
 62
8
  6
HIDDEN
 10
465.5215020814
 20
129.8003538465
 11
471.9715020814
 21
129.8003538465
  0
LINE
  8
DEFAULT_2
 62
8
  6
HIDDEN
 10
482.2715020814
 20
129.8003538465
 11
488.7215020814
 21
129.8003538465
  0
LINE
  8
DEFAULT_2
 62
8
  6
HIDDEN
 10
465.5215020814
 20
129.8350944216
 11
471.9715020814
 21
129.8350944216
  0
LINE
  8
DEFAULT_2
 62
8
  6
HIDDEN
 10
482.2715020814
 20
129.8350944216
 11
488.7215020814
 21
129.8350944216
  0
LINE
  8
DEFAULT_2
 62
8
  6
HIDDEN
 10
488.7215020814
 20
129.8778257426
 11
482.2715020814
 21
129.8778257426
  0
LINE
  8
DEFAULT_2
 62
8
  6
HIDDEN
 10
471.9715020814
 20
129.8778257426
 11
465.5215020814
 21
129.8778257426
  0
LINE
  8
DEFAULT_2
 62
8
  6
HIDDEN
 10
488.7215020814
 20
130.1916438436
 11
482.2715020814
 21
130.1916438436
  0
LINE
  8
DEFAULT_2
 62
8
  6
HIDDEN
 10
471.9715020814
 20
130.1916438436
 11
465.5215020814
 21
130.1916438436
  0
LINE
  8
DEFAULT_2
 62
8
  6
HIDDEN
 10
465.5215020814
 20
130.2210568587
 11
471.9715020814
 21
130.2210568587
  0
LINE
  8
DEFAULT_2
 62
8
  6
HIDDEN
 10
482.2715020814
 20
130.2210568587
 11
488.7215020814
 21
130.2210568587
  0
LINE
  8
DEFAULT_2
 62
8
  6
HIDDEN
 10
488.7215020814
 20
130.9343435282
 11
482.2715020814
 21
130.9343435282
  0
LINE
  8
DEFAULT_2
 62
8
  6
HIDDEN
 10
471.9715020814
 20
130.9343435282
 11
465.5215020814
 21
130.9343435282
  0
LINE
  8
DEFAULT_2
 62
8
  6
HIDDEN
 10
488.7215020814
 20
130.95881527
 11
482.2715020814
 21
130.95881527
  0
LINE
  8
DEFAULT_2
 62
8
  6
HIDDEN
 10
471.9715020814
 20
130.95881527
 11
465.5215020814
 21
130.95881527
  0
LINE
  8
DEFAULT_2
 62
8
  6
HIDDEN
 10
488.7215020814
 20
131.0254197755
 11
482.2715020814
 21
131.0254197755
  0
LINE
  8
DEFAULT_2
 62
8
  6
HIDDEN
 10
471.9715020814
 20
131.0254197755
 11
465.5215020814
 21
131.0254197755
  0
LINE
  8
DEFAULT_2
 62
8
  6
HIDDEN
 10
465.5215020814
 20
131.389724765
 11
471.9715020814
 21
131.389724765
  0
LINE
  8
DEFAULT_2
 62
8
  6
HIDDEN
 10
482.2715020814
 20
131.389724765
 11
488.7215020814
 21
131.389724765
  0
LINE
  8
DEFAULT_2
 62
8
  6
HIDDEN
 10
465.5215020814
 20
131.5448032151
 11
471.9715020814
 21
131.5448032151
  0
LINE
  8
DEFAULT_2
 62
8
  6
HIDDEN
 10
482.2715020814
 20
131.5448032151
 11
488.7215020814
 21
131.5448032151
  0
LINE
  8
DEFAULT_2
 62
8
  6
HIDDEN
 10
465.5215020814
 20
133.989968335
 11
471.9715020814
 21
133.989968335
  0
LINE
  8
DEFAULT_2
 62
8
  6
HIDDEN
 10
482.2715020814
 20
133.989968335
 11
488.7215020814
 21
133.989968335
  0
LINE
  8
0
 62
9
  6
CONTINUOUS
 10
465.5215020814
 20
135.0470953952
 11
471.9715020814
 21
135.0470953952
  0
LINE
  8
0
 62
9
  6
CONTINUOUS
 10
482.2715020814
 20
135.0470953952
 11
488.7215020814
 21
135.0470953952
  0
LINE
  8
DEFAULT_2
 62
8
  6
HIDDEN
 10
465.5215020814
 20
136.6805498973
 11
471.9715020814
 21
136.6805498973
  0
LINE
  8
DEFAULT_2
 62
8
  6
HIDDEN
 10
482.2715020814
 20
136.6805498973
 11
488.7215020814
 21
136.6805498973
  0
LINE
  8
DEFAULT_2
 62
8
  6
HIDDEN
 10
465.5215020814
 20
137.1699847344
 11
471.9715020814
 21
137.1699847344
  0
LINE
  8
DEFAULT_2
 62
8
  6
HIDDEN
 10
482.2715020814
 20
137.1699847344
 11
488.7215020814
 21
137.1699847344
  0
LINE
  8
0
 62
7
  6
CONTINUOUS
 10
465.5215020814
 20
139.1463297134
 11
471.9715020814
 21
139.1463297134
  0
LINE
  8
0
 62
7
  6
CONTINUOUS
 10
482.2715020814
 20
139.1463297134
 11
488.7215020814
 21
139.1463297134
  0
LINE
  8
0
 62
9
  6
CONTINUOUS
 10
465.5215020814
 20
140.6311393336
 11
471.9715020814
 21
140.6311393336
  0
LINE
  8
0
 62
9
  6
CONTINUOUS
 10
482.2715020814
 20
140.6311393336
 11
488.7215020814
 21
140.6311393336
  0
LINE
  8
DEFAULT_2
 62
8
  6
HIDDEN
 10
465.5215020814
 20
144.5474958696
 11
471.9715020814
 21
144.5474958696
  0
LINE
  8
DEFAULT_2
 62
8
  6
HIDDEN
 10
482.2715020814
 20
144.5474958696
 11
488.7215020814
 21
144.5474958696
  0
LINE
  8
0
 62
9
  6
CONTINUOUS
 10
465.5215020814
 20
145.5999179113
 11
471.9715020814
 21
145.5999179113
  0
LINE
  8
0
 62
9
  6
CONTINUOUS
 10
482.2715020814
 20
145.5999179113
 11
488.7215020814
 21
145.5999179113
  0
LINE
  8
DEFAULT_2
 62
8
  6
HIDDEN
 10
488.7215020814
 20
145.9304813988
 11
482.2715020814
 21
145.9304813988
  0
LINE
  8
DEFAULT_2
 62
8
  6
HIDDEN
 10
471.9715020814
 20
145.9304813988
 11
465.5215020814
 21
145.9304813988
  0
LINE
  8
DEFAULT_2
 62
8
  6
HIDDEN
 10
488.7215020814
 20
146.3273988986
 11
482.2715020814
 21
146.3273988986
  0
LINE
  8
DEFAULT_2
 62
8
  6
HIDDEN
 10
471.9715020814
 20
146.3273988986
 11
465.5215020814
 21
146.3273988986
  0
LINE
  8
DEFAULT_2
 62
8
  6
HIDDEN
 10
465.5215020814
 20
147.153046053
 11
471.9715020814
 21
147.153046053
  0
LINE
  8
DEFAULT_2
 62
8
  6
HIDDEN
 10
482.2715020814
 20
147.153046053
 11
488.7215020814
 21
147.153046053
  0
LINE
  8
DEFAULT_2
 62
8
  6
HIDDEN
 10
488.7215020814
 20
147.8911541642
 11
482.2715020814
 21
147.8911541642
  0
LINE
  8
DEFAULT_2
 62
8
  6
HIDDEN
 10
471.9715020814
 20
147.8911541642
 11
465.5215020814
 21
147.8911541642
  0
LINE
  8
DEFAULT_2
 62
8
  6
HIDDEN
 10
488.7215020814
 20
147.913334965
 11
482.2715020814
 21
147.913334965
  0
LINE
  8
DEFAULT_2
 62
8
  6
HIDDEN
 10
471.9715020814
 20
147.913334965
 11
465.5215020814
 21
147.913334965
  0
LINE
  8
DEFAULT_2
 62
8
  6
HIDDEN
 10
488.7215020814
 20
147.986645667
 11
482.2715020814
 21
147.986645667
  0
LINE
  8
DEFAULT_2
 62
8
  6
HIDDEN
 10
471.9715020814
 20
147.986645667
 11
465.5215020814
 21
147.986645667
  0
LINE
  8
DEFAULT_2
 62
8
  6
HIDDEN
 10
465.5215020814
 20
148.0020581681
 11
471.9715020814
 21
148.0020581681
  0
LINE
  8
DEFAULT_2
 62
8
  6
HIDDEN
 10
482.2715020814
 20
148.0020581681
 11
488.7215020814
 21
148.0020581681
  0
LINE
  8
DEFAULT_2
 62
8
  6
HIDDEN
 10
465.5215020814
 20
148.2970349091
 11
471.9715020814
 21
148.2970349091
  0
LINE
  8
DEFAULT_2
 62
8
  6
HIDDEN
 10
482.2715020814
 20
148.2970349091
 11
488.7215020814
 21
148.2970349091
  0
LINE
  8
0
 62
9
  6
CONTINUOUS
 10
465.5215020814
 20
156.3258666367
 11
471.9715020814
 21
156.3258666367
  0
LINE
  8
0
 62
9
  6
CONTINUOUS
 10
482.2715020814
 20
156.3258666367
 11
488.7215020814
 21
156.3258666367
  0
LINE
  8
DEFAULT_2
 62
8
  6
HIDDEN
 10
465.5215020814
 20
156.6464395651
 11
471.9715020814
 21
156.6464395651
  0
LINE
  8
DEFAULT_2
 62
8
  6
HIDDEN
 10
482.2715020814
 20
156.6464395651
 11
488.7215020814
 21
156.6464395651
  0
LINE
  8
DEFAULT_2
 62
8
  6
HIDDEN
 10
465.5215020814
 20
156.771819858
 11
471.9715020814
 21
156.771819858
  0
LINE
  8
DEFAULT_2
 62
8
  6
HIDDEN
 10
482.2715020814
 20
156.771819858
 11
488.7215020814
 21
156.771819858
  0
LINE
  8
DEFAULT_2
 62
8
  6
HIDDEN
 10
465.5215020814
 20
157.6600585375
 11
471.9715020814
 21
157.6600585375
  0
LINE
  8
DEFAULT_2
 62
8
  6
HIDDEN
 10
482.2715020814
 20
157.6600585375
 11
488.7215020814
 21
157.6600585375
  0
LINE
  8
DEFAULT_2
 62
8
  6
HIDDEN
 10
465.5215020814
 20
158.8700316706
 11
471.9715020814
 21
158.8700316706
  0
LINE
  8
DEFAULT_2
 62
8
  6
HIDDEN
 10
482.2715020814
 20
158.8700316706
 11
488.7215020814
 21
158.8700316706
  0
LINE
  8
DEFAULT_2
 62
8
  6
HIDDEN
 10
465.5215020814
 20
159.5260587983
 11
471.9715020814
 21
159.5260587983
  0
LINE
  8
DEFAULT_2
 62
8
  6
HIDDEN
 10
482.2715020814
 20
159.5260587983
 11
488.7215020814
 21
159.5260587983
  0
LINE
  8
DEFAULT_2
 62
8
  6
HIDDEN
 10
465.5215020814
 20
160.7798617269
 11
471.9715020814
 21
160.7798617269
  0
LINE
  8
DEFAULT_2
 62
8
  6
HIDDEN
 10
482.2715020814
 20
160.7798617269
 11
488.7215020814
 21
160.7798617269
  0
LINE
  8
0
 62
7
  6
CONTINUOUS
 10
465.5215020814
 20
169.3172456747
 11
471.9715020814
 21
169.3172456747
  0
LINE
  8
0
 62
7
  6
CONTINUOUS
 10
482.2715020814
 20
169.3172456747
 11
488.7215020814
 21
169.3172456747
  0
LINE
  8
0
 62
9
  6
CONTINUOUS
 10
465.5215020814
 20
169.944770379
 11
471.9715020814
 21
169.944770379
  0
LINE
  8
0
 62
9
  6
CONTINUOUS
 10
482.2715020814
 20
169.944770379
 11
488.7215020814
 21
169.944770379
  0
LINE
  8
DEFAULT_2
 62
8
  6
HIDDEN
 10
465.5215020814
 20
170.1222582583
 11
471.9715020814
 21
170.1222582583
  0
LINE
  8
DEFAULT_2
 62
8
  6
HIDDEN
 10
482.2715020814
 20
170.1222582583
 11
488.7215020814
 21
170.1222582583
  0
LINE
  8
DEFAULT_2
 62
8
  6
HIDDEN
 10
488.7215020814
 20
171.3055623656
 11
482.2715020814
 21
171.3055623656
  0
LINE
  8
DEFAULT_2
 62
8
  6
HIDDEN
 10
471.9715020814
 20
171.3055623656
 11
465.5215020814
 21
171.3055623656
  0
LINE
  8
0
 62
9
  6
CONTINUOUS
 10
465.5215020814
 20
171.6313008875
 11
471.9715020814
 21
171.6313008875
  0
LINE
  8
0
 62
9
  6
CONTINUOUS
 10
482.2715020814
 20
171.6313008875
 11
488.7215020814
 21
171.6313008875
  0
LINE
  8
DEFAULT_2
 62
8
  6
HIDDEN
 10
488.7215020814
 20
171.7467262138
 11
482.2715020814
 21
171.7467262138
  0
LINE
  8
DEFAULT_2
 62
8
  6
HIDDEN
 10
471.9715020814
 20
171.7467262138
 11
465.5215020814
 21
171.7467262138
  0
LINE
  8
DEFAULT_2
 62
8
  6
HIDDEN
 10
465.5215020814
 20
173.7084904236
 11
471.9715020814
 21
173.7084904236
  0
LINE
  8
DEFAULT_2
 62
8
  6
HIDDEN
 10
482.2715020814
 20
173.7084904236
 11
488.7215020814
 21
173.7084904236
  0
LINE
  8
DEFAULT_2
 62
8
  6
HIDDEN
 10
488.7215020814
 20
173.9295799425
 11
482.2715020814
 21
173.9295799425
  0
LINE
  8
DEFAULT_2
 62
8
  6
HIDDEN
 10
471.9715020814
 20
173.9295799425
 11
465.5215020814
 21
173.9295799425
  0
LINE
  8
DEFAULT_2
 62
8
  6
HIDDEN
 10
488.7215020814
 20
174.1356296898
 11
482.2715020814
 21
174.1356296898
  0
LINE
  8
DEFAULT_2
 62
8
  6
HIDDEN
 10
471.9715020814
 20
174.1356296898
 11
465.5215020814
 21
174.1356296898
  0
LINE
  8
DEFAULT_2
 62
8
  6
HIDDEN
 10
465.5215020814
 20
174.335811102
 11
471.9715020814
 21
174.335811102
  0
LINE
  8
DEFAULT_2
 62
8
  6
HIDDEN
 10
482.2715020814
 20
174.335811102
 11
488.7215020814
 21
174.335811102
  0
LINE
  8
0
 62
9
  6
CONTINUOUS
 10
465.5215020814
 20
175.5057834927
 11
471.9715020814
 21
175.5057834927
  0
LINE
  8
0
 62
9
  6
CONTINUOUS
 10
482.2715020814
 20
175.5057834927
 11
488.7215020814
 21
175.5057834927
  0
LINE
  8
0
 62
9
  6
CONTINUOUS
 10
465.5215020814
 20
185.9094904527
 11
471.9715020814
 21
185.9094904527
  0
LINE
  8
0
 62
9
  6
CONTINUOUS
 10
482.2715020814
 20
185.9094904527
 11
488.7215020814
 21
185.9094904527
  0
LINE
  8
DEFAULT_2
 62
8
  6
HIDDEN
 10
465.5215020814
 20
189.1153254187
 11
471.9715020814
 21
189.1153254187
  0
LINE
  8
DEFAULT_2
 62
8
  6
HIDDEN
 10
482.2715020814
 20
189.1153254187
 11
488.7215020814
 21
189.1153254187
  0
LINE
  8
DEFAULT_2
 62
8
  6
HIDDEN
 10
465.5215020814
 20
191.9513720439
 11
471.9715020814
 21
191.9513720439
  0
LINE
  8
DEFAULT_2
 62
8
  6
HIDDEN
 10
482.2715020814
 20
191.9513720439
 11
488.7215020814
 21
191.9513720439
  0
LINE
  8
DEFAULT_2
 62
8
  6
HIDDEN
 10
465.5215020814
 20
191.9697448605
 11
471.9715020814
 21
191.9697448605
  0
LINE
  8
DEFAULT_2
 62
8
  6
HIDDEN
 10
482.2715020814
 20
191.9697448605
 11
488.7215020814
 21
191.9697448605
  0
LINE
  8
DEFAULT_2
 62
8
  6
HIDDEN
 10
465.5215020814
 20
193.0537447303
 11
471.9715020814
 21
193.0537447303
  0
LINE
  8
DEFAULT_2
 62
8
  6
HIDDEN
 10
482.2715020814
 20
193.0537447303
 11
488.7215020814
 21
193.0537447303
  0
LINE
  8
DEFAULT_2
 62
8
  6
HIDDEN
 10
465.5215020814
 20
193.2374728958
 11
471.9715020814
 21
193.2374728958
  0
LINE
  8
DEFAULT_2
 62
8
  6
HIDDEN
 10
482.2715020814
 20
193.2374728958
 11
488.7215020814
 21
193.2374728958
  0
LINE
  8
DEFAULT_2
 62
8
  6
HIDDEN
 10
465.5215020814
 20
193.2733127917
 11
471.9715020814
 21
193.2733127917
  0
LINE
  8
DEFAULT_2
 62
8
  6
HIDDEN
 10
482.2715020814
 20
193.2733127917
 11
488.7215020814
 21
193.2733127917
  0
LINE
  8
DEFAULT_2
 62
8
  6
HIDDEN
 10
465.5215020814
 20
202.6513862844
 11
471.9715020814
 21
202.6513862844
  0
LINE
  8
DEFAULT_2
 62
8
  6
HIDDEN
 10
482.2715020814
 20
202.6513862844
 11
488.7215020814
 21
202.6513862844
  0
LINE
  8
0
 62
9
  6
CONTINUOUS
 10
488.7215020814
 20
203.5191789192
 11
482.2715020814
 21
203.5191789192
  0
LINE
  8
0
 62
9
  6
CONTINUOUS
 10
471.9715020814
 20
203.5191789192
 11
465.5215020814
 21
203.5191789192
  0
LINE
  8
0
 62
9
  6
CONTINUOUS
 10
488.7215020814
 20
203.9614049246
 11
482.2715020814
 21
203.9614049246
  0
LINE
  8
0
 62
9
  6
CONTINUOUS
 10
471.9715020814
 20
203.9614049246
 11
465.5215020814
 21
203.9614049246
  0
LINE
  8
0
 62
7
  6
CONTINUOUS
 10
465.5215020814
 20
205.1521156228
 11
471.9715020814
 21
205.1521156228
  0
LINE
  8
0
 62
7
  6
CONTINUOUS
 10
482.2715020814
 20
205.1521156228
 11
488.7215020814
 21
205.1521156228
  0
LINE
  8
DEFAULT_2
 62
8
  6
HIDDEN
 10
488.7215020814
 20
206.5275033839
 11
482.2715020814
 21
206.5275033839
  0
LINE
  8
DEFAULT_2
 62
8
  6
HIDDEN
 10
471.9715020814
 20
206.5275033839
 11
465.5215020814
 21
206.5275033839
  0
LINE
  8
DEFAULT_2
 62
8
  6
HIDDEN
 10
488.7215020814
 20
206.8461225916
 11
482.2715020814
 21
206.8461225916
  0
LINE
  8
DEFAULT_2
 62
8
  6
HIDDEN
 10
471.9715020814
 20
206.8461225916
 11
465.5215020814
 21
206.8461225916
  0
LINE
  8
DEFAULT_2
 62
8
  6
HIDDEN
 10
465.5215020814
 20
206.8672550406
 11
471.9715020814
 21
206.8672550406
  0
LINE
  8
DEFAULT_2
 62
8
  6
HIDDEN
 10
482.2715020814
 20
206.8672550406
 11
488.7215020814
 21
206.8672550406
  0
LINE
  8
DEFAULT_2
 62
8
  6
HIDDEN
 10
465.5215020814
 20
207.1122749574
 11
471.9715020814
 21
207.1122749574
  0
LINE
  8
DEFAULT_2
 62
8
  6
HIDDEN
 10
482.2715020814
 20
207.1122749574
 11
488.7215020814
 21
207.1122749574
  0
LINE
  8
0
 62
9
  6
CONTINUOUS
 10
465.5215020814
 20
207.7148576899
 11
471.9715020814
 21
207.7148576899
  0
LINE
  8
0
 62
9
  6
CONTINUOUS
 10
482.2715020814
 20
207.7148576899
 11
488.7215020814
 21
207.7148576899
  0
LINE
  8
0
 62
9
  6
CONTINUOUS
 10
465.5215020814
 20
209.4381124722
 11
471.9715020814
 21
209.4381124722
  0
LINE
  8
0
 62
9
  6
CONTINUOUS
 10
482.2715020814
 20
209.4381124722
 11
488.7215020814
 21
209.4381124722
  0
LINE
  8
0
 62
9
  6
CONTINUOUS
 10
465.5215020814
 20
211.8390377524
 11
471.9715020814
 21
211.8390377524
  0
LINE
  8
0
 62
9
  6
CONTINUOUS
 10
482.2715020814
 20
211.8390377524
 11
488.7215020814
 21
211.8390377524
  0
LINE
  8
0
 62
7
  6
CONTINUOUS
 10
460.5215020814
 20
353.1402900677
 11
460.5215020814
 21
129.1939411779
  0
LINE
  8
0
 62
9
  6
CONTINUOUS
 10
465.5215020814
 20
220.9021156228
 11
471.9715020814
 21
220.9021156228
  0
LINE
  8
0
 62
9
  6
CONTINUOUS
 10
482.2715020814
 20
220.9021156228
 11
488.7215020814
 21
220.9021156228
  0
LINE
  8
DEFAULT_2
 62
8
  6
HIDDEN
 10
465.5215020814
 20
224.4558110581
 11
471.9715020814
 21
224.4558110581
  0
LINE
  8
DEFAULT_2
 62
8
  6
HIDDEN
 10
482.2715020814
 20
224.4558110581
 11
488.7215020814
 21
224.4558110581
  0
LINE
  8
DEFAULT_2
 62
8
  6
HIDDEN
 10
460.7215020814
 20
341.1315905458
 11
460.7215020814
 21
351.1497935849
  0
LINE
  8
0
 62
9
  6
CONTINUOUS
 10
462.5215020814
 20
355.1402900677
 11
462.5215020814
 21
127.1939411779
  0
LINE
  8
DEFAULT_2
 62
8
  6
HIDDEN
 10
465.5215020814
 20
334.4430766797
 11
465.5215020814
 21
334.4501487906
  0
LINE
  8
0
 62
7
  6
CONTINUOUS
 10
465.5215020814
 20
109.3473694438
 11
465.5215020814
 21
334.4430766797
  0
LINE
  8
0
 62
7
  6
CONTINUOUS
 10
465.5215020814
 20
334.4501487906
 11
465.5215020814
 21
372.9868618018
  0
LINE
  8
DEFAULT_2
 62
8
  6
HIDDEN
 10
465.5215020814
 20
231.2911026308
 11
471.9715020814
 21
231.2911026308
  0
LINE
  8
DEFAULT_2
 62
8
  6
HIDDEN
 10
482.2715020814
 20
231.2911026308
 11
488.7215020814
 21
231.2911026308
  0
LINE
  8
DEFAULT_2
 62
8
  6
HIDDEN
 10
465.5215020814
 20
231.9834512914
 11
471.9715020814
 21
231.9834512914
  0
LINE
  8
DEFAULT_2
 62
8
  6
HIDDEN
 10
482.2715020814
 20
231.9834512914
 11
488.7215020814
 21
231.9834512914
  0
LINE
  8
DEFAULT_2
 62
8
  6
HIDDEN
 10
465.5215020814
 20
233.5747461627
 11
471.9715020814
 21
233.5747461627
  0
LINE
  8
DEFAULT_2
 62
8
  6
HIDDEN
 10
482.2715020814
 20
233.5747461627
 11
488.7215020814
 21
233.5747461627
  0
LINE
  8
DEFAULT_2
 62
8
  6
HIDDEN
 10
471.9715020814
 20
334.4430766797
 11
471.9715020814
 21
334.4501665353
  0
LINE
  8
0
 62
7
  6
CONTINUOUS
 10
471.9715020814
 20
109.3473620788
 11
471.9715020814
 21
334.4430766797
  0
LINE
  8
0
 62
7
  6
CONTINUOUS
 10
471.9715020814
 20
334.4501665353
 11
471.9715020814
 21
372.9868691668
  0
LINE
  8
PITCH_DIAMETER
 62
40
  6
CONTINUOUS
 10
477.1215020814
 20
370.6180889627
 11
477.1215020814
 21
111.7029652239
  0
LINE
  8
0
 62
40
  6
CONTINUOUS
 10
477.1215020814
 20
241.1671156228
 11
477.1215020814
 21
124.9749561818
  0
LINE
  8
DEFAULT_2
 62
8
  6
HIDDEN
 10
477.1215020814
 20
352.9372293183
 11
477.1215020814
 21
355.1432944609
  0
LINE
  8
0
 62
40
  6
CONTINUOUS
 10
477.1215020814
 20
355.1432944163
 11
477.1215020814
 21
357.5965919263
  0
LINE
  8
0
 62
40
  6
CONTINUOUS
 10
477.1215020814
 20
371.4781555169
 11
477.1215020814
 21
373.243057408
  0
LINE
  8
DEFAULT_2
 62
8
  6
HIDDEN
 10
465.5215020814
 20
238.9161934196
 11
471.9715020814
 21
238.9161934196
  0
LINE
  8
DEFAULT_2
 62
8
  6
HIDDEN
 10
482.2715020814
 20
238.9161934196
 11
488.7215020814
 21
238.9161934196
  0
LINE
  8
DEFAULT_2
 62
8
  6
HIDDEN
 10
465.5215020814
 20
238.9507022531
 11
471.9715020814
 21
238.9507022531
  0
LINE
  8
DEFAULT_2
 62
8
  6
HIDDEN
 10
482.2715020814
 20
238.9507022531
 11
488.7215020814
 21
238.9507022531
  0
LINE
  8
DEFAULT_2
 62
8
  6
HIDDEN
 10
465.5215020814
 20
239.1922640871
 11
471.9715020814
 21
239.1922640871
  0
LINE
  8
DEFAULT_2
 62
8
  6
HIDDEN
 10
482.2715020814
 20
239.1922640871
 11
488.7215020814
 21
239.1922640871
  0
LINE
  8
0
 62
9
  6
CONTINUOUS
 10
488.7215020814
 20
239.418037826
 11
482.2715020814
 21
239.418037826
  0
LINE
  8
0
 62
9
  6
CONTINUOUS
 10
471.9715020814
 20
239.418037826
 11
465.5215020814
 21
239.418037826
  0
LINE
  8
0
 62
9
  6
CONTINUOUS
 10
488.7215020814
 20
239.818037826
 11
482.2715020814
 21
239.818037826
  0
LINE
  8
0
 62
9
  6
CONTINUOUS
 10
471.9715020814
 20
239.818037826
 11
465.5215020814
 21
239.818037826
  0
LINE
  8
DEFAULT_1
 62
2
  6
CENTER
 10
458.5215020814
 20
241.1671156228
 11
495.7215020814
 21
241.1671156228
  0
LINE
  8
DEFAULT_2
 62
8
  6
HIDDEN
 10
482.2715020814
 20
334.4430766797
 11
482.2715020814
 21
334.4501665353
  0
LINE
  8
0
 62
7
  6
CONTINUOUS
 10
482.2715020814
 20
109.3473620788
 11
482.2715020814
 21
334.4430766797
  0
LINE
  8
0
 62
7
  6
CONTINUOUS
 10
482.2715020814
 20
334.4501665353
 11
482.2715020814
 21
372.9868691668
  0
LINE
  8
DEFAULT_2
 62
8
  6
HIDDEN
 10
488.7215020814
 20
242.5161934196
 11
482.2715020814
 21
242.5161934196
  0
LINE
  8
DEFAULT_2
 62
8
  6
HIDDEN
 10
471.9715020814
 20
242.5161934196
 11
465.5215020814
 21
242.5161934196
  0
LINE
  8
DEFAULT_2
 62
8
  6
HIDDEN
 10
488.7215020814
 20
242.9161934196
 11
482.2715020814
 21
242.9161934196
  0
LINE
  8
DEFAULT_2
 62
8
  6
HIDDEN
 10
471.9715020814
 20
242.9161934196
 11
465.5215020814
 21
242.9161934196
  0
LINE
  8
0
 62
7
  6
CONTINUOUS
 10
465.5215020814
 20
243.1419671584
 11
471.9715020814
 21
243.1419671584
  0
LINE
  8
0
 62
7
  6
CONTINUOUS
 10
482.2715020814
 20
243.1419671584
 11
488.7215020814
 21
243.1419671584
  0
LINE
  8
DEFAULT_2
 62
8
  6
HIDDEN
 10
465.5215020814
 20
243.3835289925
 11
471.9715020814
 21
243.3835289925
  0
LINE
  8
DEFAULT_2
 62
8
  6
HIDDEN
 10
482.2715020814
 20
243.3835289925
 11
488.7215020814
 21
243.3835289925
  0
LINE
  8
DEFAULT_2
 62
8
  6
HIDDEN
 10
465.5215020814
 20
243.418037826
 11
471.9715020814
 21
243.418037826
  0
LINE
  8
DEFAULT_2
 62
8
  6
HIDDEN
 10
482.2715020814
 20
243.418037826
 11
488.7215020814
 21
243.418037826
  0
LINE
  8
0
 62
9
  6
CONTINUOUS
 10
465.5215020814
 20
248.7594850829
 11
471.9715020814
 21
248.7594850829
  0
LINE
  8
0
 62
9
  6
CONTINUOUS
 10
482.2715020814
 20
248.7594850829
 11
488.7215020814
 21
248.7594850829
  0
LINE
  8
0
 62
9
  6
CONTINUOUS
 10
465.5215020814
 20
250.3507799542
 11
471.9715020814
 21
250.3507799542
  0
LINE
  8
0
 62
9
  6
CONTINUOUS
 10
482.2715020814
 20
250.3507799542
 11
488.7215020814
 21
250.3507799542
  0
LINE
  8
0
 62
9
  6
CONTINUOUS
 10
465.5215020814
 20
251.0431286148
 11
471.9715020814
 21
251.0431286148
  0
LINE
  8
0
 62
9
  6
CONTINUOUS
 10
482.2715020814
 20
251.0431286148
 11
488.7215020814
 21
251.0431286148
  0
LINE
  8
0
 62
7
  6
CONTINUOUS
 10
488.7215020814
 20
372.9868618018
 11
488.7215020814
 21
334.4501487906
  0
LINE
  8
0
 62
7
  6
CONTINUOUS
 10
488.7215020814
 20
334.4430766797
 11
488.7215020814
 21
109.3473694438
  0
LINE
  8
DEFAULT_2
 62
8
  6
HIDDEN
 10
488.7215020814
 20
334.4430766797
 11
488.7215020814
 21
334.4501487906
  0
LINE
  8
0
 62
9
  6
CONTINUOUS
 10
491.7215020814
 20
355.1402900677
 11
491.7215020814
 21
127.1939411779
  0
LINE
  8
0
 62
7
  6
CONTINUOUS
 10
493.7215020814
 20
353.1402900677
 11
493.7215020814
 21
129.1939411779
  0
LINE
  8
0
 62
9
  6
CONTINUOUS
 10
465.5215020814
 20
257.8784201875
 11
471.9715020814
 21
257.8784201875
  0
LINE
  8
0
 62
9
  6
CONTINUOUS
 10
482.2715020814
 20
257.8784201875
 11
488.7215020814
 21
257.8784201875
  0
LINE
  8
DEFAULT_2
 62
8
  6
HIDDEN
 10
465.5215020814
 20
261.4321156228
 11
471.9715020814
 21
261.4321156228
  0
LINE
  8
DEFAULT_2
 62
8
  6
HIDDEN
 10
482.2715020814
 20
261.4321156228
 11
488.7215020814
 21
261.4321156228
  0
LINE
  8
DEFAULT_2
 62
8
  6
HIDDEN
 10
465.5215020814
 20
270.4951934932
 11
471.9715020814
 21
270.4951934932
  0
LINE
  8
DEFAULT_2
 62
8
  6
HIDDEN
 10
482.2715020814
 20
270.4951934932
 11
488.7215020814
 21
270.4951934932
  0
LINE
  8
DEFAULT_2
 62
8
  6
HIDDEN
 10
465.5215020814
 20
272.8961187734
 11
471.9715020814
 21
272.8961187734
  0
LINE
  8
DEFAULT_2
 62
8
  6
HIDDEN
 10
482.2715020814
 20
272.8961187734
 11
488.7215020814
 21
272.8961187734
  0
LINE
  8
DEFAULT_2
 62
8
  6
HIDDEN
 10
465.5215020814
 20
274.6193735557
 11
471.9715020814
 21
274.6193735557
  0
LINE
  8
DEFAULT_2
 62
8
  6
HIDDEN
 10
482.2715020814
 20
274.6193735557
 11
488.7215020814
 21
274.6193735557
  0
LINE
  8
DEFAULT_2
 62
8
  6
HIDDEN
 10
465.5215020814
 20
275.2219562882
 11
471.9715020814
 21
275.2219562882
  0
LINE
  8
DEFAULT_2
 62
8
  6
HIDDEN
 10
482.2715020814
 20
275.2219562882
 11
488.7215020814
 21
275.2219562882
  0
LINE
  8
DEFAULT_2
 62
8
  6
HIDDEN
 10
465.5215020814
 20
275.466976205
 11
471.9715020814
 21
275.466976205
  0
LINE
  8
DEFAULT_2
 62
8
  6
HIDDEN
 10
482.2715020814
 20
275.466976205
 11
488.7215020814
 21
275.466976205
  0
LINE
  8
0
 62
9
  6
CONTINUOUS
 10
488.7215020814
 20
275.488108654
 11
482.2715020814
 21
275.488108654
  0
LINE
  8
0
 62
9
  6
CONTINUOUS
 10
471.9715020814
 20
275.488108654
 11
465.5215020814
 21
275.488108654
  0
LINE
  8
0
 62
9
  6
CONTINUOUS
 10
488.7215020814
 20
275.8067278617
 11
482.2715020814
 21
275.8067278617
  0
LINE
  8
0
 62
9
  6
CONTINUOUS
 10
471.9715020814
 20
275.8067278617
 11
465.5215020814
 21
275.8067278617
  0
LINE
  8
DEFAULT_2
 62
8
  6
HIDDEN
 10
465.5215020814
 20
277.1821156228
 11
471.9715020814
 21
277.1821156228
  0
LINE
  8
DEFAULT_2
 62
8
  6
HIDDEN
 10
482.2715020814
 20
277.1821156228
 11
488.7215020814
 21
277.1821156228
  0
LINE
  8
DEFAULT_2
 62
8
  6
HIDDEN
 10
488.7215020814
 20
278.372826321
 11
482.2715020814
 21
278.372826321
  0
LINE
  8
DEFAULT_2
 62
8
  6
HIDDEN
 10
471.9715020814
 20
278.372826321
 11
465.5215020814
 21
278.372826321
  0
LINE
  8
DEFAULT_2
 62
8
  6
HIDDEN
 10
488.7215020814
 20
278.8150523264
 11
482.2715020814
 21
278.8150523264
  0
LINE
  8
DEFAULT_2
 62
8
  6
HIDDEN
 10
471.9715020814
 20
278.8150523264
 11
465.5215020814
 21
278.8150523264
  0
LINE
  8
0
 62
9
  6
CONTINUOUS
 10
465.5215020814
 20
279.6828449612
 11
471.9715020814
 21
279.6828449612
  0
LINE
  8
0
 62
9
  6
CONTINUOUS
 10
482.2715020814
 20
279.6828449612
 11
488.7215020814
 21
279.6828449612
  0
LINE
  8
0
 62
9
  6
CONTINUOUS
 10
465.5215020814
 20
289.0609184539
 11
471.9715020814
 21
289.0609184539
  0
LINE
  8
0
 62
9
  6
CONTINUOUS
 10
482.2715020814
 20
289.0609184539
 11
488.7215020814
 21
289.0609184539
  0
LINE
  8
DEFAULT_2
 62
8
  6
HIDDEN
 10
465.5215020814
 20
289.0967583498
 11
471.9715020814
 21
289.0967583498
  0
LINE
  8
DEFAULT_2
 62
8
  6
HIDDEN
 10
482.2715020814
 20
289.0967583498
 11
488.7215020814
 21
289.0967583498
  0
LINE
  8
DEFAULT_2
 62
8
  6
HIDDEN
 10
465.5215020814
 20
289.2804865153
 11
471.9715020814
 21
289.2804865153
  0
LINE
  8
DEFAULT_2
 62
8
  6
HIDDEN
 10
482.2715020814
 20
289.2804865153
 11
488.7215020814
 21
289.2804865153
  0
LINE
  8
DEFAULT_2
 62
8
  6
HIDDEN
 10
465.5215020814
 20
290.3644863851
 11
471.9715020814
 21
290.3644863851
  0
LINE
  8
DEFAULT_2
 62
8
  6
HIDDEN
 10
482.2715020814
 20
290.3644863851
 11
488.7215020814
 21
290.3644863851
  0
LINE
  8
0
 62
7
  6
CONTINUOUS
 10
465.5215020814
 20
290.3828592017
 11
471.9715020814
 21
290.3828592017
  0
LINE
  8
0
 62
7
  6
CONTINUOUS
 10
482.2715020814
 20
290.3828592017
 11
488.7215020814
 21
290.3828592017
  0
LINE
  8
0
 62
9
  6
CONTINUOUS
 10
465.5215020814
 20
293.2189058269
 11
471.9715020814
 21
293.2189058269
  0
LINE
  8
0
 62
9
  6
CONTINUOUS
 10
482.2715020814
 20
293.2189058269
 11
488.7215020814
 21
293.2189058269
  0
LINE
  8
DEFAULT_2
 62
8
  6
HIDDEN
 10
465.5215020814
 20
296.4247407929
 11
471.9715020814
 21
296.4247407929
  0
LINE
  8
DEFAULT_2
 62
8
  6
HIDDEN
 10
482.2715020814
 20
296.4247407929
 11
488.7215020814
 21
296.4247407929
  0
LINE
  8
DEFAULT_2
 62
8
  6
HIDDEN
 10
465.5215020814
 20
306.8284477529
 11
471.9715020814
 21
306.8284477529
  0
LINE
  8
DEFAULT_2
 62
8
  6
HIDDEN
 10
482.2715020814
 20
306.8284477529
 11
488.7215020814
 21
306.8284477529
  0
LINE
  8
DEFAULT_2
 62
8
  6
HIDDEN
 10
465.5215020814
 20
307.9984201435
 11
471.9715020814
 21
307.9984201435
  0
LINE
  8
DEFAULT_2
 62
8
  6
HIDDEN
 10
482.2715020814
 20
307.9984201435
 11
488.7215020814
 21
307.9984201435
  0
LINE
  8
0
 62
9
  6
CONTINUOUS
 10
488.7215020814
 20
308.1986015558
 11
482.2715020814
 21
308.1986015558
  0
LINE
  8
0
 62
9
  6
CONTINUOUS
 10
471.9715020814
 20
308.1986015558
 11
465.5215020814
 21
308.1986015558
  0
LINE
  8
0
 62
9
  6
CONTINUOUS
 10
488.7215020814
 20
308.404651303
 11
482.2715020814
 21
308.404651303
  0
LINE
  8
0
 62
9
  6
CONTINUOUS
 10
471.9715020814
 20
308.404651303
 11
465.5215020814
 21
308.404651303
  0
LINE
  8
DEFAULT_2
 62
8
  6
HIDDEN
 10
465.5215020814
 20
308.625740822
 11
471.9715020814
 21
308.625740822
  0
LINE
  8
DEFAULT_2
 62
8
  6
HIDDEN
 10
482.2715020814
 20
308.625740822
 11
488.7215020814
 21
308.625740822
  0
LINE
  8
DEFAULT_2
 62
8
  6
HIDDEN
 10
488.7215020814
 20
310.5875050318
 11
482.2715020814
 21
310.5875050318
  0
LINE
  8
DEFAULT_2
 62
8
  6
HIDDEN
 10
471.9715020814
 20
310.5875050318
 11
465.5215020814
 21
310.5875050318
  0
LINE
  8
DEFAULT_2
 62
8
  6
HIDDEN
 10
465.5215020814
 20
310.7029303581
 11
471.9715020814
 21
310.7029303581
  0
LINE
  8
DEFAULT_2
 62
8
  6
HIDDEN
 10
482.2715020814
 20
310.7029303581
 11
488.7215020814
 21
310.7029303581
  0
LINE
  8
DEFAULT_2
 62
8
  6
HIDDEN
 10
488.7215020814
 20
311.02866888
 11
482.2715020814
 21
311.02866888
  0
LINE
  8
DEFAULT_2
 62
8
  6
HIDDEN
 10
471.9715020814
 20
311.02866888
 11
465.5215020814
 21
311.02866888
  0
LINE
  8
0
 62
9
  6
CONTINUOUS
 10
465.5215020814
 20
312.2119729873
 11
471.9715020814
 21
312.2119729873
  0
LINE
  8
0
 62
9
  6
CONTINUOUS
 10
482.2715020814
 20
312.2119729873
 11
488.7215020814
 21
312.2119729873
  0
LINE
  8
DEFAULT_2
 62
8
  6
HIDDEN
 10
465.5215020814
 20
312.3894608666
 11
471.9715020814
 21
312.3894608666
  0
LINE
  8
DEFAULT_2
 62
8
  6
HIDDEN
 10
482.2715020814
 20
312.3894608666
 11
488.7215020814
 21
312.3894608666
  0
LINE
  8
DEFAULT_2
 62
8
  6
HIDDEN
 10
465.5215020814
 20
313.0169855709
 11
471.9715020814
 21
313.0169855709
  0
LINE
  8
DEFAULT_2
 62
8
  6
HIDDEN
 10
482.2715020814
 20
313.0169855709
 11
488.7215020814
 21
313.0169855709
  0
LINE
  8
DEFAULT_2
 62
8
  6
HIDDEN
 10
465.5215020814
 20
321.5543695187
 11
471.9715020814
 21
321.5543695187
  0
LINE
  8
DEFAULT_2
 62
8
  6
HIDDEN
 10
482.2715020814
 20
321.5543695187
 11
488.7215020814
 21
321.5543695187
  0
LINE
  8
DEFAULT_2
 62
8
  6
HIDDEN
 10
465.5215020814
 20
322.8081724473
 11
471.9715020814
 21
322.8081724473
  0
LINE
  8
DEFAULT_2
 62
8
  6
HIDDEN
 10
482.2715020814
 20
322.8081724473
 11
488.7215020814
 21
322.8081724473
  0
LINE
  8
DEFAULT_2
 62
8
  6
HIDDEN
 10
465.5215020814
 20
323.4641995749
 11
471.9715020814
 21
323.4641995749
  0
LINE
  8
DEFAULT_2
 62
8
  6
HIDDEN
 10
482.2715020814
 20
323.4641995749
 11
488.7215020814
 21
323.4641995749
  0
LINE
  8
0
 62
9
  6
CONTINUOUS
 10
465.5215020814
 20
324.6741727081
 11
471.9715020814
 21
324.6741727081
  0
LINE
  8
0
 62
9
  6
CONTINUOUS
 10
482.2715020814
 20
324.6741727081
 11
488.7215020814
 21
324.6741727081
  0
LINE
  8
DEFAULT_2
 62
8
  6
HIDDEN
 10
465.5215020814
 20
325.5624113876
 11
471.9715020814
 21
325.5624113876
  0
LINE
  8
DEFAULT_2
 62
8
  6
HIDDEN
 10
482.2715020814
 20
325.5624113876
 11
488.7215020814
 21
325.5624113876
  0
LINE
  8
0
 62
7
  6
CONTINUOUS
 10
465.5215020814
 20
325.6877916804
 11
471.9715020814
 21
325.6877916804
  0
LINE
  8
0
 62
7
  6
CONTINUOUS
 10
482.2715020814
 20
325.6877916804
 11
488.7215020814
 21
325.6877916804
  0
LINE
  8
DEFAULT_2
 62
8
  6
HIDDEN
 10
465.5215020814
 20
326.0083646089
 11
471.9715020814
 21
326.0083646089
  0
LINE
  8
DEFAULT_2
 62
8
  6
HIDDEN
 10
482.2715020814
 20
326.0083646089
 11
488.7215020814
 21
326.0083646089
  0
LINE
  8
DEFAULT_2
 62
8
  6
HIDDEN
 10
465.5215020814
 20
334.0371963365
 11
471.9715020814
 21
334.0371963365
  0
LINE
  8
DEFAULT_2
 62
8
  6
HIDDEN
 10
482.2715020814
 20
334.0371963365
 11
488.7215020814
 21
334.0371963365
  0
LINE
  8
DEFAULT_2
 62
8
  6
HIDDEN
 10
465.5215020814
 20
334.3321730775
 11
471.9715020814
 21
334.3321730775
  0
LINE
  8
DEFAULT_2
 62
8
  6
HIDDEN
 10
482.2715020814
 20
334.3321730775
 11
488.7215020814
 21
334.3321730775
  0
LINE
  8
0
 62
9
  6
CONTINUOUS
 10
488.7215020814
 20
334.3475855786
 11
482.2715020814
 21
334.3475855786
  0
LINE
  8
0
 62
9
  6
CONTINUOUS
 10
471.9715020814
 20
334.3475855786
 11
465.5215020814
 21
334.3475855786
  0
LINE
  8
DEFAULT_2
 62
8
  6
HIDDEN
 10
488.7215020814
 20
334.4208962806
 11
482.2715020814
 21
334.4208962806
  0
LINE
  8
DEFAULT_2
 62
8
  6
HIDDEN
 10
471.9715020814
 20
334.4208962806
 11
465.5215020814
 21
334.4208962806
  0
LINE
  8
0
 62
7
  6
CONTINUOUS
 10
488.7215020814
 20
334.4430770814
 11
482.2715020814
 21
334.4430770814
  0
LINE
  8
0
 62
7
  6
CONTINUOUS
 10
471.9715020814
 20
334.4430770814
 11
465.5215020814
 21
334.4430770814
  0
LINE
  8
DEFAULT_2
 62
8
  6
HIDDEN
 10
465.5215020814
 20
335.1811851926
 11
471.9715020814
 21
335.1811851926
  0
LINE
  8
DEFAULT_2
 62
8
  6
HIDDEN
 10
482.2715020814
 20
335.1811851926
 11
488.7215020814
 21
335.1811851926
  0
LINE
  8
DEFAULT_2
 62
8
  6
HIDDEN
 10
488.7215020814
 20
336.0068323469
 11
482.2715020814
 21
336.0068323469
  0
LINE
  8
DEFAULT_2
 62
8
  6
HIDDEN
 10
471.9715020814
 20
336.0068323469
 11
465.5215020814
 21
336.0068323469
  0
LINE
  8
DEFAULT_2
 62
8
  6
HIDDEN
 10
488.7215020814
 20
336.4037498467
 11
482.2715020814
 21
336.4037498467
  0
LINE
  8
DEFAULT_2
 62
8
  6
HIDDEN
 10
471.9715020814
 20
336.4037498467
 11
465.5215020814
 21
336.4037498467
  0
LINE
  8
DEFAULT_2
 62
8
  6
HIDDEN
 10
465.5215020814
 20
336.7343133343
 11
471.9715020814
 21
336.7343133343
  0
LINE
  8
DEFAULT_2
 62
8
  6
HIDDEN
 10
482.2715020814
 20
336.7343133343
 11
488.7215020814
 21
336.7343133343
  0
LINE
  8
0
 62
9
  6
CONTINUOUS
 10
465.5215020814
 20
337.786735376
 11
471.9715020814
 21
337.786735376
  0
LINE
  8
0
 62
9
  6
CONTINUOUS
 10
482.2715020814
 20
337.786735376
 11
488.7215020814
 21
337.786735376
  0
LINE
  8
DEFAULT_2
 62
8
  6
HIDDEN
 10
460.5215020814
 20
341.1315905458
 11
460.7215020814
 21
341.1315905458
  0
LINE
  8
DEFAULT_2
 62
8
  6
HIDDEN
 10
460.5215020814
 20
341.1867657851
 11
460.7215020814
 21
341.1867657851
  0
LINE
  8
DEFAULT_2
 62
8
  6
HIDDEN
 10
460.5215020814
 20
341.2793302074
 11
460.7215020814
 21
341.2793302074
  0
LINE
  8
DEFAULT_2
 62
8
  6
HIDDEN
 10
460.5215020814
 20
341.343400626
 11
460.7215020814
 21
341.343400626
  0
LINE
  8
DEFAULT_2
 62
8
  6
HIDDEN
 10
460.5215020814
 20
341.4998149063
 11
460.7215020814
 21
341.4998149063
  0
LINE
  8
DEFAULT_2
 62
8
  6
HIDDEN
 10
460.5215020814
 20
341.5186935249
 11
460.7215020814
 21
341.5186935249
  0
LINE
  8
DEFAULT_2
 62
8
  6
HIDDEN
 10
460.5215020814
 20
341.5911822597
 11
460.7215020814
 21
341.5911822597
  0
LINE
  8
DEFAULT_2
 62
8
  6
HIDDEN
 10
460.5215020814
 20
341.6014936344
 11
460.7215020814
 21
341.6014936344
  0
LINE
  8
DEFAULT_2
 62
8
  6
HIDDEN
 10
460.5215020814
 20
341.6129329745
 11
460.7215020814
 21
341.6129329745
  0
LINE
  8
DEFAULT_2
 62
8
  6
HIDDEN
 10
460.5215020814
 20
341.6393937966
 11
460.7215020814
 21
341.6393937966
  0
LINE
  8
DEFAULT_2
 62
8
  6
HIDDEN
 10
460.5215020814
 20
341.6627302547
 11
460.7215020814
 21
341.6627302547
  0
LINE
  8
DEFAULT_2
 62
8
  6
HIDDEN
 10
460.5215020814
 20
341.6702077956
 11
460.7215020814
 21
341.6702077956
  0
LINE
  8
DEFAULT_2
 62
8
  6
HIDDEN
 10
465.5215020814
 20
341.703091912
 11
471.9715020814
 21
341.703091912
  0
LINE
  8
DEFAULT_2
 62
8
  6
HIDDEN
 10
482.2715020814
 20
341.703091912
 11
488.7215020814
 21
341.703091912
  0
LINE
  8
DEFAULT_2
 62
8
  6
HIDDEN
 10
460.5215020814
 20
341.7791434951
 11
460.7215020814
 21
341.7791434951
  0
LINE
  8
DEFAULT_2
 62
8
  6
HIDDEN
 10
460.5215020814
 20
341.8278726905
 11
460.7215020814
 21
341.8278726905
  0
LINE
  8
DEFAULT_2
 62
8
  6
HIDDEN
 10
460.5215020814
 20
341.8619156568
 11
460.7215020814
 21
341.8619156568
  0
LINE
  8
DEFAULT_2
 62
8
  6
HIDDEN
 10
460.5215020814
 20
341.8820178848
 11
460.7215020814
 21
341.8820178848
  0
LINE
  8
DEFAULT_2
 62
8
  6
HIDDEN
 10
460.5215020814
 20
341.9259800512
 11
460.7215020814
 21
341.9259800512
  0
LINE
  8
DEFAULT_2
 62
8
  6
HIDDEN
 10
460.5215020814
 20
341.97131949
 11
460.7215020814
 21
341.97131949
  0
LINE
  8
DEFAULT_2
 62
8
  6
HIDDEN
 10
460.5215020814
 20
342.0013408706
 11
460.7215020814
 21
342.0013408706
  0
LINE
  8
DEFAULT_2
 62
8
  6
HIDDEN
 10
460.5215020814
 20
342.0089230819
 11
460.7215020814
 21
342.0089230819
  0
LINE
  8
DEFAULT_2
 62
8
  6
HIDDEN
 10
460.5215020814
 20
342.0208638189
 11
460.7215020814
 21
342.0208638189
  0
LINE
  8
DEFAULT_2
 62
8
  6
HIDDEN
 10
460.5215020814
 20
342.0240874458
 11
460.7215020814
 21
342.0240874458
  0
LINE
  8
DEFAULT_2
 62
8
  6
HIDDEN
 10
460.5215020814
 20
342.0358189007
 11
460.7215020814
 21
342.0358189007
  0
LINE
  8
DEFAULT_2
 62
8
  6
HIDDEN
 10
460.5215020814
 20
342.0466803229
 11
460.7215020814
 21
342.0466803229
  0
LINE
  8
DEFAULT_2
 62
8
  6
HIDDEN
 10
460.5215020814
 20
342.0625015438
 11
460.7215020814
 21
342.0625015438
  0
LINE
  8
DEFAULT_2
 62
8
  6
HIDDEN
 10
460.5215020814
 20
342.0774566611
 11
460.7215020814
 21
342.0774566611
  0
LINE
  8
DEFAULT_2
 62
8
  6
HIDDEN
 10
460.5215020814
 20
342.0817801673
 11
460.7215020814
 21
342.0817801673
  0
LINE
  8
DEFAULT_2
 62
8
  6
HIDDEN
 10
460.5215020814
 20
342.1221948405
 11
460.7215020814
 21
342.1221948405
  0
LINE
  8
DEFAULT_2
 62
8
  6
HIDDEN
 10
460.5215020814
 20
342.2423466506
 11
460.7215020814
 21
342.2423466506
  0
LINE
  8
DEFAULT_2
 62
8
  6
HIDDEN
 10
460.5215020814
 20
342.2540378853
 11
460.7215020814
 21
342.2540378853
  0
LINE
  8
DEFAULT_2
 62
8
  6
HIDDEN
 10
460.5215020814
 20
342.2692022098
 11
460.7215020814
 21
342.2692022098
  0
LINE
  8
DEFAULT_2
 62
8
  6
HIDDEN
 10
460.5215020814
 20
342.2939119002
 11
460.7215020814
 21
342.2939119002
  0
LINE
  8
DEFAULT_2
 62
8
  6
HIDDEN
 10
460.5215020814
 20
342.2956629817
 11
460.7215020814
 21
342.2956629817
  0
LINE
  8
DEFAULT_2
 62
8
  6
HIDDEN
 10
460.5215020814
 20
342.344822352
 11
460.7215020814
 21
342.344822352
  0
LINE
  8
DEFAULT_2
 62
8
  6
HIDDEN
 10
460.5215020814
 20
342.3743535961
 11
460.7215020814
 21
342.3743535961
  0
LINE
  8
DEFAULT_2
 62
8
  6
HIDDEN
 10
460.5215020814
 20
342.3784523673
 11
460.7215020814
 21
342.3784523673
  0
LINE
  8
DEFAULT_2
 62
8
  6
HIDDEN
 10
460.5215020814
 20
342.4200775171
 11
460.7215020814
 21
342.4200775171
  0
LINE
  8
DEFAULT_2
 62
8
  6
HIDDEN
 10
460.5215020814
 20
342.4767973751
 11
460.7215020814
 21
342.4767973751
  0
LINE
  8
DEFAULT_2
 62
8
  6
HIDDEN
 10
460.5215020814
 20
342.5293276854
 11
460.7215020814
 21
342.5293276854
  0
LINE
  8
DEFAULT_2
 62
8
  6
HIDDEN
 10
460.5215020814
 20
342.5431098359
 11
460.7215020814
 21
342.5431098359
  0
LINE
  8
DEFAULT_2
 62
8
  6
HIDDEN
 10
460.5215020814
 20
342.5623148315
 11
460.7215020814
 21
342.5623148315
  0
LINE
  8
DEFAULT_2
 62
8
  6
HIDDEN
 10
460.5215020814
 20
342.5633706481
 11
460.7215020814
 21
342.5633706481
  0
LINE
  8
DEFAULT_2
 62
8
  6
HIDDEN
 10
460.5215020814
 20
342.598286376
 11
460.7215020814
 21
342.598286376
  0
LINE
  8
DEFAULT_2
 62
8
  6
HIDDEN
 10
460.5215020814
 20
342.6727744903
 11
460.7215020814
 21
342.6727744903
  0
LINE
  8
DEFAULT_2
 62
8
  6
HIDDEN
 10
460.5215020814
 20
342.7413823662
 11
460.7215020814
 21
342.7413823662
  0
LINE
  8
DEFAULT_2
 62
8
  6
HIDDEN
 10
460.5215020814
 20
342.9291857017
 11
460.7215020814
 21
342.9291857017
  0
LINE
  8
DEFAULT_2
 62
8
  6
HIDDEN
 10
460.5215020814
 20
342.9339873886
 11
460.7215020814
 21
342.9339873886
  0
LINE
  8
DEFAULT_2
 62
8
  6
HIDDEN
 10
460.5215020814
 20
342.9519073676
 11
460.7215020814
 21
342.9519073676
  0
LINE
  8
DEFAULT_2
 62
8
  6
HIDDEN
 10
460.5215020814
 20
342.9916564977
 11
460.7215020814
 21
342.9916564977
  0
LINE
  8
DEFAULT_2
 62
8
  6
HIDDEN
 10
460.5215020814
 20
343.0770832366
 11
460.7215020814
 21
343.0770832366
  0
LINE
  8
DEFAULT_2
 62
8
  6
HIDDEN
 10
460.5215020814
 20
343.0838823152
 11
460.7215020814
 21
343.0838823152
  0
LINE
  8
DEFAULT_2
 62
8
  6
HIDDEN
 10
460.5215020814
 20
343.1130548521
 11
460.7215020814
 21
343.1130548521
  0
LINE
  8
DEFAULT_2
 62
8
  6
HIDDEN
 10
460.5215020814
 20
343.1322599188
 11
460.7215020814
 21
343.1322599188
  0
LINE
  8
DEFAULT_2
 62
8
  6
HIDDEN
 10
460.5215020814
 20
343.152222981
 11
460.7215020814
 21
343.152222981
  0
LINE
  8
DEFAULT_2
 62
8
  6
HIDDEN
 10
465.5215020814
 20
343.1879015322
 11
471.9715020814
 21
343.1879015322
  0
LINE
  8
DEFAULT_2
 62
8
  6
HIDDEN
 10
482.2715020814
 20
343.1879015322
 11
488.7215020814
 21
343.1879015322
  0
LINE
  8
DEFAULT_2
 62
8
  6
HIDDEN
 10
460.5215020814
 20
343.199557929
 11
460.7215020814
 21
343.199557929
  0
LINE
  8
DEFAULT_2
 62
8
  6
HIDDEN
 10
460.5215020814
 20
343.2711132837
 11
460.7215020814
 21
343.2711132837
  0
LINE
  8
DEFAULT_2
 62
8
  6
HIDDEN
 10
460.5215020814
 20
343.3814577124
 11
460.7215020814
 21
343.3814577124
  0
LINE
  8
DEFAULT_2
 62
8
  6
HIDDEN
 10
460.5215020814
 20
343.3908013154
 11
460.7215020814
 21
343.3908013154
  0
LINE
  8
DEFAULT_2
 62
8
  6
HIDDEN
 10
460.5215020814
 20
343.4964548639
 11
460.7215020814
 21
343.4964548639
  0
LINE
  8
DEFAULT_2
 62
8
  6
HIDDEN
 10
460.5215020814
 20
343.5114099457
 11
460.7215020814
 21
343.5114099457
  0
LINE
  8
DEFAULT_2
 62
8
  6
HIDDEN
 10
460.5215020814
 20
343.5831390251
 11
460.7215020814
 21
343.5831390251
  0
LINE
  8
DEFAULT_2
 62
8
  6
HIDDEN
 10
460.5215020814
 20
343.6545059358
 11
460.7215020814
 21
343.6545059358
  0
LINE
  8
DEFAULT_2
 62
8
  6
HIDDEN
 10
460.5215020814
 20
343.6918936403
 11
460.7215020814
 21
343.6918936403
  0
LINE
  8
DEFAULT_2
 62
8
  6
HIDDEN
 10
460.5215020814
 20
343.7947680299
 11
460.7215020814
 21
343.7947680299
  0
LINE
  8
DEFAULT_2
 62
8
  6
HIDDEN
 10
460.5215020814
 20
343.8737935659
 11
460.7215020814
 21
343.8737935659
  0
LINE
  8
DEFAULT_2
 62
8
  6
HIDDEN
 10
460.5215020814
 20
343.9037037294
 11
460.7215020814
 21
343.9037037294
  0
LINE
  8
DEFAULT_2
 62
8
  6
HIDDEN
 10
460.5215020814
 20
343.9111812703
 11
460.7215020814
 21
343.9111812703
  0
LINE
  8
DEFAULT_2
 62
8
  6
HIDDEN
 10
460.5215020814
 20
343.9724192625
 11
460.7215020814
 21
343.9724192625
  0
LINE
  8
DEFAULT_2
 62
8
  6
HIDDEN
 10
460.5215020814
 20
344.0211503613
 11
460.7215020814
 21
344.0211503613
  0
LINE
  8
DEFAULT_2
 62
8
  6
HIDDEN
 10
460.5215020814
 20
344.029081063
 11
460.7215020814
 21
344.029081063
  0
LINE
  8
DEFAULT_2
 62
8
  6
HIDDEN
 10
460.5215020814
 20
344.1183610445
 11
460.7215020814
 21
344.1183610445
  0
LINE
  8
DEFAULT_2
 62
8
  6
HIDDEN
 10
460.5215020814
 20
344.1616152684
 11
460.7215020814
 21
344.1616152684
  0
LINE
  8
DEFAULT_2
 62
8
  6
HIDDEN
 10
460.5215020814
 20
344.2244509521
 11
460.7215020814
 21
344.2244509521
  0
LINE
  8
DEFAULT_2
 62
8
  6
HIDDEN
 10
460.5215020814
 20
344.2305108279
 11
460.7215020814
 21
344.2305108279
  0
LINE
  8
DEFAULT_2
 62
8
  6
HIDDEN
 10
460.5215020814
 20
344.3871456688
 11
460.7215020814
 21
344.3871456688
  0
LINE
  8
DEFAULT_2
 62
8
  6
HIDDEN
 10
460.5215020814
 20
344.4148849629
 11
460.7215020814
 21
344.4148849629
  0
LINE
  8
DEFAULT_2
 62
8
  6
HIDDEN
 10
460.5215020814
 20
344.4273672693
 11
460.7215020814
 21
344.4273672693
  0
LINE
  8
DEFAULT_2
 62
8
  6
HIDDEN
 10
460.5215020814
 20
344.4320111984
 11
460.7215020814
 21
344.4320111984
  0
LINE
  8
DEFAULT_2
 62
8
  6
HIDDEN
 10
460.5215020814
 20
344.4423223511
 11
460.7215020814
 21
344.4423223511
  0
LINE
  8
DEFAULT_2
 62
8
  6
HIDDEN
 10
460.5215020814
 20
344.5028498112
 11
460.7215020814
 21
344.5028498112
  0
LINE
  8
DEFAULT_2
 62
8
  6
HIDDEN
 10
460.5215020814
 20
344.5657602811
 11
460.7215020814
 21
344.5657602811
  0
LINE
  8
DEFAULT_2
 62
8
  6
HIDDEN
 10
460.5215020814
 20
344.5788376454
 11
460.7215020814
 21
344.5788376454
  0
LINE
  8
DEFAULT_2
 62
8
  6
HIDDEN
 10
460.5215020814
 20
344.5840006762
 11
460.7215020814
 21
344.5840006762
  0
LINE
  8
DEFAULT_2
 62
8
  6
HIDDEN
 10
460.5215020814
 20
344.5886460393
 11
460.7215020814
 21
344.5886460393
  0
LINE
  8
DEFAULT_2
 62
8
  6
HIDDEN
 10
460.5215020814
 20
344.6746930959
 11
460.7215020814
 21
344.6746930959
  0
LINE
  8
DEFAULT_2
 62
8
  6
HIDDEN
 10
460.5215020814
 20
344.7677120688
 11
460.7215020814
 21
344.7677120688
  0
LINE
  8
DEFAULT_2
 62
8
  6
HIDDEN
 10
460.5215020814
 20
344.8437510752
 11
460.7215020814
 21
344.8437510752
  0
LINE
  8
DEFAULT_2
 62
8
  6
HIDDEN
 10
460.5215020814
 20
344.9072169961
 11
460.7215020814
 21
344.9072169961
  0
LINE
  8
DEFAULT_2
 62
8
  6
HIDDEN
 10
460.5215020814
 20
344.9556733043
 11
460.7215020814
 21
344.9556733043
  0
LINE
  8
DEFAULT_2
 62
8
  6
HIDDEN
 10
460.5215020814
 20
345.0047883924
 11
460.7215020814
 21
345.0047883924
  0
LINE
  8
DEFAULT_2
 62
8
  6
HIDDEN
 10
460.5215020814
 20
345.0391919437
 11
460.7215020814
 21
345.0391919437
  0
LINE
  8
DEFAULT_2
 62
8
  6
HIDDEN
 10
460.5215020814
 20
345.1023631353
 11
460.7215020814
 21
345.1023631353
  0
LINE
  8
DEFAULT_2
 62
8
  6
HIDDEN
 10
460.5215020814
 20
345.1220184705
 11
460.7215020814
 21
345.1220184705
  0
LINE
  8
DEFAULT_2
 62
8
  6
HIDDEN
 10
465.5215020814
 20
345.1642465112
 11
471.9715020814
 21
345.1642465112
  0
LINE
  8
DEFAULT_2
 62
8
  6
HIDDEN
 10
482.2715020814
 20
345.1642465112
 11
488.7215020814
 21
345.1642465112
  0
LINE
  8
DEFAULT_2
 62
8
  6
HIDDEN
 10
460.5215020814
 20
345.1692615427
 11
460.7215020814
 21
345.1692615427
  0
LINE
  8
DEFAULT_2
 62
8
  6
HIDDEN
 10
460.5215020814
 20
345.217873921
 11
460.7215020814
 21
345.217873921
  0
LINE
  8
DEFAULT_2
 62
8
  6
HIDDEN
 10
460.5215020814
 20
345.2525702393
 11
460.7215020814
 21
345.2525702393
  0
LINE
  8
DEFAULT_2
 62
8
  6
HIDDEN
 10
460.5215020814
 20
345.2553951468
 11
460.7215020814
 21
345.2553951468
  0
LINE
  8
DEFAULT_2
 62
8
  6
HIDDEN
 10
460.5215020814
 20
345.262881392
 11
460.7215020814
 21
345.262881392
  0
LINE
  8
DEFAULT_2
 62
8
  6
HIDDEN
 10
460.5215020814
 20
345.267525321
 11
460.7215020814
 21
345.267525321
  0
LINE
  8
DEFAULT_2
 62
8
  6
HIDDEN
 10
460.5215020814
 20
345.277836758
 11
460.7215020814
 21
345.277836758
  0
LINE
  8
DEFAULT_2
 62
8
  6
HIDDEN
 10
460.5215020814
 20
345.3201368932
 11
460.7215020814
 21
345.3201368932
  0
LINE
  8
DEFAULT_2
 62
8
  6
HIDDEN
 10
460.5215020814
 20
345.3614822096
 11
460.7215020814
 21
345.3614822096
  0
LINE
  8
DEFAULT_2
 62
8
  6
HIDDEN
 10
460.5215020814
 20
345.3873700944
 11
460.7215020814
 21
345.3873700944
  0
LINE
  8
DEFAULT_2
 62
8
  6
HIDDEN
 10
460.5215020814
 20
345.3910845965
 11
460.7215020814
 21
345.3910845965
  0
LINE
  8
DEFAULT_2
 62
8
  6
HIDDEN
 10
460.5215020814
 20
345.3953770357
 11
460.7215020814
 21
345.3953770357
  0
LINE
  8
DEFAULT_2
 62
8
  6
HIDDEN
 10
460.5215020814
 20
345.4480090156
 11
460.7215020814
 21
345.4480090156
  0
LINE
  8
DEFAULT_2
 62
8
  6
HIDDEN
 10
460.5215020814
 20
345.5028427039
 11
460.7215020814
 21
345.5028427039
  0
LINE
  8
DEFAULT_2
 62
8
  6
HIDDEN
 10
460.5215020814
 20
345.514007207
 11
460.7215020814
 21
345.514007207
  0
LINE
  8
DEFAULT_2
 62
8
  6
HIDDEN
 10
460.5215020814
 20
345.5195570107
 11
460.7215020814
 21
345.5195570107
  0
LINE
  8
DEFAULT_2
 62
8
  6
HIDDEN
 10
460.5215020814
 20
345.5273521343
 11
460.7215020814
 21
345.5273521343
  0
LINE
  8
DEFAULT_2
 62
8
  6
HIDDEN
 10
460.5215020814
 20
345.5430672387
 11
460.7215020814
 21
345.5430672387
  0
LINE
  8
DEFAULT_2
 62
8
  6
HIDDEN
 10
460.5215020814
 20
345.5484091227
 11
460.7215020814
 21
345.5484091227
  0
LINE
  8
DEFAULT_2
 62
8
  6
HIDDEN
 10
460.5215020814
 20
345.5530784138
 11
460.7215020814
 21
345.5530784138
  0
LINE
  8
DEFAULT_2
 62
8
  6
HIDDEN
 10
460.5215020814
 20
345.595861161
 11
460.7215020814
 21
345.595861161
  0
LINE
  8
DEFAULT_2
 62
8
  6
HIDDEN
 10
460.5215020814
 20
345.5985301917
 11
460.7215020814
 21
345.5985301917
  0
LINE
  8
DEFAULT_2
 62
8
  6
HIDDEN
 10
460.5215020814
 20
345.6028160406
 11
460.7215020814
 21
345.6028160406
  0
LINE
  8
DEFAULT_2
 62
8
  6
HIDDEN
 10
460.5215020814
 20
345.6284927102
 11
460.7215020814
 21
345.6284927102
  0
LINE
  8
DEFAULT_2
 62
8
  6
HIDDEN
 10
460.5215020814
 20
345.6359702511
 11
460.7215020814
 21
345.6359702511
  0
LINE
  8
DEFAULT_2
 62
8
  6
HIDDEN
 10
460.5215020814
 20
345.6379752132
 11
460.7215020814
 21
345.6379752132
  0
LINE
  8
DEFAULT_2
 62
8
  6
HIDDEN
 10
460.5215020814
 20
345.6445394265
 11
460.7215020814
 21
345.6445394265
  0
LINE
  8
DEFAULT_2
 62
8
  6
HIDDEN
 10
465.5215020814
 20
345.6536813483
 11
471.9715020814
 21
345.6536813483
  0
LINE
  8
DEFAULT_2
 62
8
  6
HIDDEN
 10
482.2715020814
 20
345.6536813483
 11
488.7215020814
 21
345.6536813483
  0
LINE
  8
DEFAULT_2
 62
8
  6
HIDDEN
 10
460.5215020814
 20
345.6727507433
 11
460.7215020814
 21
345.6727507433
  0
LINE
  8
DEFAULT_2
 62
8
  6
HIDDEN
 10
460.5215020814
 20
345.7075182461
 11
460.7215020814
 21
345.7075182461
  0
LINE
  8
DEFAULT_2
 62
8
  6
HIDDEN
 10
460.5215020814
 20
345.7201984795
 11
460.7215020814
 21
345.7201984795
  0
LINE
  8
DEFAULT_2
 62
8
  6
HIDDEN
 10
460.5215020814
 20
345.7285346378
 11
460.7215020814
 21
345.7285346378
  0
LINE
  8
DEFAULT_2
 62
8
  6
HIDDEN
 10
460.5215020814
 20
345.7641330661
 11
460.7215020814
 21
345.7641330661
  0
LINE
  8
DEFAULT_2
 62
8
  6
HIDDEN
 10
460.5215020814
 20
345.7699502363
 11
460.7215020814
 21
345.7699502363
  0
LINE
  8
DEFAULT_2
 62
8
  6
HIDDEN
 10
460.5215020814
 20
345.799014166
 11
460.7215020814
 21
345.799014166
  0
LINE
  8
DEFAULT_2
 62
8
  6
HIDDEN
 10
460.5215020814
 20
345.8082330563
 11
460.7215020814
 21
345.8082330563
  0
LINE
  8
DEFAULT_2
 62
8
  6
HIDDEN
 10
460.5215020814
 20
345.8096901381
 11
460.7215020814
 21
345.8096901381
  0
LINE
  8
DEFAULT_2
 62
8
  6
HIDDEN
 10
460.5215020814
 20
345.8147139708
 11
460.7215020814
 21
345.8147139708
  0
LINE
  8
DEFAULT_2
 62
8
  6
HIDDEN
 10
460.5215020814
 20
345.8259456598
 11
460.7215020814
 21
345.8259456598
  0
LINE
  8
DEFAULT_2
 62
8
  6
HIDDEN
 10
460.5215020814
 20
345.8894507774
 11
460.7215020814
 21
345.8894507774
  0
LINE
  8
DEFAULT_2
 62
8
  6
HIDDEN
 10
460.5215020814
 20
345.9231746569
 11
460.7215020814
 21
345.9231746569
  0
LINE
  8
DEFAULT_2
 62
8
  6
HIDDEN
 10
460.5215020814
 20
345.9317181821
 11
460.7215020814
 21
345.9317181821
  0
LINE
  8
DEFAULT_2
 62
8
  6
HIDDEN
 10
460.5215020814
 20
345.9627222251
 11
460.7215020814
 21
345.9627222251
  0
LINE
  8
DEFAULT_2
 62
8
  6
HIDDEN
 10
460.5215020814
 20
345.9657980096
 11
460.7215020814
 21
345.9657980096
  0
LINE
  8
DEFAULT_2
 62
8
  6
HIDDEN
 10
460.5215020814
 20
345.9788371747
 11
460.7215020814
 21
345.9788371747
  0
LINE
  8
DEFAULT_2
 62
8
  6
HIDDEN
 10
460.5215020814
 20
345.9866276373
 11
460.7215020814
 21
345.9866276373
  0
LINE
  8
DEFAULT_2
 62
8
  6
HIDDEN
 10
460.5215020814
 20
346.0000890466
 11
460.7215020814
 21
346.0000890466
  0
LINE
  8
DEFAULT_2
 62
8
  6
HIDDEN
 10
460.5215020814
 20
346.0075052326
 11
460.7215020814
 21
346.0075052326
  0
LINE
  8
DEFAULT_2
 62
8
  6
HIDDEN
 10
460.5215020814
 20
346.0167243986
 11
460.7215020814
 21
346.0167243986
  0
LINE
  8
DEFAULT_2
 62
8
  6
HIDDEN
 10
460.5215020814
 20
346.0193702629
 11
460.7215020814
 21
346.0193702629
  0
LINE
  8
DEFAULT_2
 62
8
  6
HIDDEN
 10
460.5215020814
 20
346.0317669928
 11
460.7215020814
 21
346.0317669928
  0
LINE
  8
DEFAULT_2
 62
8
  6
HIDDEN
 10
460.5215020814
 20
346.0583707703
 11
460.7215020814
 21
346.0583707703
  0
LINE
  8
DEFAULT_2
 62
8
  6
HIDDEN
 10
460.5215020814
 20
346.0893592621
 11
460.7215020814
 21
346.0893592621
  0
LINE
  8
DEFAULT_2
 62
8
  6
HIDDEN
 10
460.5215020814
 20
346.0988713984
 11
460.7215020814
 21
346.0988713984
  0
LINE
  8
DEFAULT_2
 62
8
  6
HIDDEN
 10
460.5215020814
 20
346.1049099191
 11
460.7215020814
 21
346.1049099191
  0
LINE
  8
DEFAULT_2
 62
8
  6
HIDDEN
 10
460.5215020814
 20
346.1119346496
 11
460.7215020814
 21
346.1119346496
  0
LINE
  8
DEFAULT_2
 62
8
  6
HIDDEN
 10
460.5215020814
 20
346.1130852813
 11
460.7215020814
 21
346.1130852813
  0
LINE
  8
DEFAULT_2
 62
8
  6
HIDDEN
 10
460.5215020814
 20
346.1168733709
 11
460.7215020814
 21
346.1168733709
  0
LINE
  8
DEFAULT_2
 62
8
  6
HIDDEN
 10
460.5215020814
 20
346.1375009283
 11
460.7215020814
 21
346.1375009283
  0
LINE
  8
DEFAULT_2
 62
8
  6
HIDDEN
 10
460.5215020814
 20
346.1524468552
 11
460.7215020814
 21
346.1524468552
  0
LINE
  8
DEFAULT_2
 62
8
  6
HIDDEN
 10
460.5215020814
 20
346.1671113319
 11
460.7215020814
 21
346.1671113319
  0
LINE
  8
DEFAULT_2
 62
8
  6
HIDDEN
 10
460.5215020814
 20
346.1988446079
 11
460.7215020814
 21
346.1988446079
  0
LINE
  8
DEFAULT_2
 62
8
  6
HIDDEN
 10
460.5215020814
 20
346.2030390131
 11
460.7215020814
 21
346.2030390131
  0
LINE
  8
DEFAULT_2
 62
8
  6
HIDDEN
 10
460.5215020814
 20
346.2123165869
 11
460.7215020814
 21
346.2123165869
  0
LINE
  8
DEFAULT_2
 62
8
  6
HIDDEN
 10
460.5215020814
 20
346.237474265
 11
460.7215020814
 21
346.237474265
  0
LINE
  8
DEFAULT_2
 62
8
  6
HIDDEN
 10
460.5215020814
 20
346.2779514507
 11
460.7215020814
 21
346.2779514507
  0
LINE
  8
DEFAULT_2
 62
8
  6
HIDDEN
 10
460.5215020814
 20
346.3075538284
 11
460.7215020814
 21
346.3075538284
  0
LINE
  8
DEFAULT_2
 62
8
  6
HIDDEN
 10
460.5215020814
 20
346.3196072758
 11
460.7215020814
 21
346.3196072758
  0
LINE
  8
DEFAULT_2
 62
8
  6
HIDDEN
 10
460.5215020814
 20
346.3770729532
 11
460.7215020814
 21
346.3770729532
  0
LINE
  8
DEFAULT_2
 62
8
  6
HIDDEN
 10
460.5215020814
 20
346.3813542201
 11
460.7215020814
 21
346.3813542201
  0
LINE
  8
DEFAULT_2
 62
8
  6
HIDDEN
 10
460.5215020814
 20
346.3876833022
 11
460.7215020814
 21
346.3876833022
  0
LINE
  8
DEFAULT_2
 62
8
  6
HIDDEN
 10
460.5215020814
 20
346.4164067687
 11
460.7215020814
 21
346.4164067687
  0
LINE
  8
DEFAULT_2
 62
8
  6
HIDDEN
 10
460.5215020814
 20
346.4309646854
 11
460.7215020814
 21
346.4309646854
  0
LINE
  8
DEFAULT_2
 62
8
  6
HIDDEN
 10
460.5215020814
 20
346.4365623043
 11
460.7215020814
 21
346.4365623043
  0
LINE
  8
DEFAULT_2
 62
8
  6
HIDDEN
 10
460.5215020814
 20
346.4541032485
 11
460.7215020814
 21
346.4541032485
  0
LINE
  8
DEFAULT_2
 62
8
  6
HIDDEN
 10
460.5215020814
 20
346.4609068763
 11
460.7215020814
 21
346.4609068763
  0
LINE
  8
DEFAULT_2
 62
8
  6
HIDDEN
 10
460.5215020814
 20
346.4876566389
 11
460.7215020814
 21
346.4876566389
  0
LINE
  8
DEFAULT_2
 62
8
  6
HIDDEN
 10
460.5215020814
 20
346.4960862794
 11
460.7215020814
 21
346.4960862794
  0
LINE
  8
DEFAULT_2
 62
8
  6
HIDDEN
 10
460.5215020814
 20
346.4997605666
 11
460.7215020814
 21
346.4997605666
  0
LINE
  8
DEFAULT_2
 62
8
  6
HIDDEN
 10
460.5215020814
 20
346.5012716324
 11
460.7215020814
 21
346.5012716324
  0
LINE
  8
DEFAULT_2
 62
8
  6
HIDDEN
 10
460.5215020814
 20
346.584262498
 11
460.7215020814
 21
346.584262498
  0
LINE
  8
DEFAULT_2
 62
8
  6
HIDDEN
 10
460.5215020814
 20
346.617852008
 11
460.7215020814
 21
346.617852008
  0
LINE
  8
DEFAULT_2
 62
8
  6
HIDDEN
 10
460.5215020814
 20
346.6223106512
 11
460.7215020814
 21
346.6223106512
  0
LINE
  8
DEFAULT_2
 62
8
  6
HIDDEN
 10
460.5215020814
 20
346.6244852041
 11
460.7215020814
 21
346.6244852041
  0
LINE
  8
DEFAULT_2
 62
8
  6
HIDDEN
 10
460.5215020814
 20
346.6325605386
 11
460.7215020814
 21
346.6325605386
  0
LINE
  8
DEFAULT_2
 62
8
  6
HIDDEN
 10
460.5215020814
 20
346.654683554
 11
460.7215020814
 21
346.654683554
  0
LINE
  8
DEFAULT_2
 62
8
  6
HIDDEN
 10
460.5215020814
 20
346.6711562705
 11
460.7215020814
 21
346.6711562705
  0
LINE
  8
DEFAULT_2
 62
8
  6
HIDDEN
 10
460.5215020814
 20
346.6721858161
 11
460.7215020814
 21
346.6721858161
  0
LINE
  8
DEFAULT_2
 62
8
  6
HIDDEN
 10
460.5215020814
 20
346.6878114983
 11
460.7215020814
 21
346.6878114983
  0
LINE
  8
DEFAULT_2
 62
8
  6
HIDDEN
 10
460.5215020814
 20
346.7039505298
 11
460.7215020814
 21
346.7039505298
  0
LINE
  8
DEFAULT_2
 62
8
  6
HIDDEN
 10
460.5215020814
 20
346.7241286557
 11
460.7215020814
 21
346.7241286557
  0
LINE
  8
DEFAULT_2
 62
8
  6
HIDDEN
 10
460.5215020814
 20
346.7256563736
 11
460.7215020814
 21
346.7256563736
  0
LINE
  8
DEFAULT_2
 62
8
  6
HIDDEN
 10
460.5215020814
 20
346.7476059271
 11
460.7215020814
 21
346.7476059271
  0
LINE
  8
DEFAULT_2
 62
8
  6
HIDDEN
 10
460.5215020814
 20
346.7700476343
 11
460.7215020814
 21
346.7700476343
  0
LINE
  8
DEFAULT_2
 62
8
  6
HIDDEN
 10
460.5215020814
 20
346.8360980819
 11
460.7215020814
 21
346.8360980819
  0
LINE
  8
DEFAULT_2
 62
8
  6
HIDDEN
 10
460.5215020814
 20
346.9047536992
 11
460.7215020814
 21
346.9047536992
  0
LINE
  8
DEFAULT_2
 62
8
  6
HIDDEN
 10
460.5215020814
 20
346.9076540583
 11
460.7215020814
 21
346.9076540583
  0
LINE
  8
DEFAULT_2
 62
8
  6
HIDDEN
 10
460.5215020814
 20
346.9609975928
 11
460.7215020814
 21
346.9609975928
  0
LINE
  8
DEFAULT_2
 62
8
  6
HIDDEN
 10
460.5215020814
 20
346.9727147314
 11
460.7215020814
 21
346.9727147314
  0
LINE
  8
DEFAULT_2
 62
8
  6
HIDDEN
 10
460.5215020814
 20
346.9917767825
 11
460.7215020814
 21
346.9917767825
  0
LINE
  8
DEFAULT_2
 62
8
  6
HIDDEN
 10
460.5215020814
 20
347.0030590376
 11
460.7215020814
 21
347.0030590376
  0
LINE
  8
DEFAULT_2
 62
8
  6
HIDDEN
 10
460.5215020814
 20
347.0175342524
 11
460.7215020814
 21
347.0175342524
  0
LINE
  8
DEFAULT_2
 62
8
  6
HIDDEN
 10
460.5215020814
 20
347.0276464839
 11
460.7215020814
 21
347.0276464839
  0
LINE
  8
DEFAULT_2
 62
8
  6
HIDDEN
 10
460.5215020814
 20
347.0379342307
 11
460.7215020814
 21
347.0379342307
  0
LINE
  8
DEFAULT_2
 62
8
  6
HIDDEN
 10
460.5215020814
 20
347.0551030767
 11
460.7215020814
 21
347.0551030767
  0
LINE
  8
DEFAULT_2
 62
8
  6
HIDDEN
 10
460.5215020814
 20
347.0841831435
 11
460.7215020814
 21
347.0841831435
  0
LINE
  8
DEFAULT_2
 62
8
  6
HIDDEN
 10
460.5215020814
 20
347.0870108917
 11
460.7215020814
 21
347.0870108917
  0
LINE
  8
DEFAULT_2
 62
8
  6
HIDDEN
 10
460.5215020814
 20
347.139788819
 11
460.7215020814
 21
347.139788819
  0
LINE
  8
DEFAULT_2
 62
8
  6
HIDDEN
 10
460.5215020814
 20
347.2195450971
 11
460.7215020814
 21
347.2195450971
  0
LINE
  8
DEFAULT_2
 62
8
  6
HIDDEN
 10
460.5215020814
 20
347.2296756659
 11
460.7215020814
 21
347.2296756659
  0
LINE
  8
DEFAULT_2
 62
8
  6
HIDDEN
 10
465.5215020814
 20
347.2871358504
 11
471.9715020814
 21
347.2871358504
  0
LINE
  8
DEFAULT_2
 62
8
  6
HIDDEN
 10
482.2715020814
 20
347.2871358504
 11
488.7215020814
 21
347.2871358504
  0
LINE
  8
DEFAULT_2
 62
8
  6
HIDDEN
 10
460.5215020814
 20
347.2976366238
 11
460.7215020814
 21
347.2976366238
  0
LINE
  8
DEFAULT_2
 62
8
  6
HIDDEN
 10
460.5215020814
 20
347.3087088119
 11
460.7215020814
 21
347.3087088119
  0
LINE
  8
DEFAULT_2
 62
8
  6
HIDDEN
 10
460.5215020814
 20
347.3421385307
 11
460.7215020814
 21
347.3421385307
  0
LINE
  8
DEFAULT_2
 62
8
  6
HIDDEN
 10
460.5215020814
 20
347.4209903364
 11
460.7215020814
 21
347.4209903364
  0
LINE
  8
DEFAULT_2
 62
8
  6
HIDDEN
 10
460.5215020814
 20
347.5535245418
 11
460.7215020814
 21
347.5535245418
  0
LINE
  8
DEFAULT_2
 62
8
  6
HIDDEN
 10
460.5215020814
 20
347.5562275835
 11
460.7215020814
 21
347.5562275835
  0
LINE
  8
DEFAULT_2
 62
8
  6
HIDDEN
 10
460.5215020814
 20
347.5957367454
 11
460.7215020814
 21
347.5957367454
  0
LINE
  8
DEFAULT_2
 62
8
  6
HIDDEN
 10
460.5215020814
 20
347.6161881336
 11
460.7215020814
 21
347.6161881336
  0
LINE
  8
DEFAULT_2
 62
8
  6
HIDDEN
 10
460.5215020814
 20
347.6196218269
 11
460.7215020814
 21
347.6196218269
  0
LINE
  8
DEFAULT_2
 62
8
  6
HIDDEN
 10
460.5215020814
 20
347.63800415
 11
460.7215020814
 21
347.63800415
  0
LINE
  8
DEFAULT_2
 62
8
  6
HIDDEN
 10
460.5215020814
 20
347.7393098587
 11
460.7215020814
 21
347.7393098587
  0
LINE
  8
DEFAULT_2
 62
8
  6
HIDDEN
 10
460.5215020814
 20
347.7605948489
 11
460.7215020814
 21
347.7605948489
  0
LINE
  8
DEFAULT_2
 62
8
  6
HIDDEN
 10
460.5215020814
 20
347.8056301123
 11
460.7215020814
 21
347.8056301123
  0
LINE
  8
DEFAULT_2
 62
8
  6
HIDDEN
 10
460.5215020814
 20
347.9031117691
 11
460.7215020814
 21
347.9031117691
  0
LINE
  8
DEFAULT_2
 62
8
  6
HIDDEN
 10
460.5215020814
 20
347.9283694095
 11
460.7215020814
 21
347.9283694095
  0
LINE
  8
DEFAULT_2
 62
8
  6
HIDDEN
 10
460.5215020814
 20
347.9758607975
 11
460.7215020814
 21
347.9758607975
  0
LINE
  8
DEFAULT_2
 62
8
  6
HIDDEN
 10
460.5215020814
 20
348.0478647034
 11
460.7215020814
 21
348.0478647034
  0
LINE
  8
DEFAULT_2
 62
8
  6
HIDDEN
 10
460.5215020814
 20
348.0727761248
 11
460.7215020814
 21
348.0727761248
  0
LINE
  8
DEFAULT_2
 62
8
  6
HIDDEN
 10
460.5215020814
 20
348.090132108
 11
460.7215020814
 21
348.090132108
  0
LINE
  8
DEFAULT_2
 62
8
  6
HIDDEN
 10
460.5215020814
 20
348.0940294043
 11
460.7215020814
 21
348.0940294043
  0
LINE
  8
DEFAULT_2
 62
8
  6
HIDDEN
 10
460.5215020814
 20
348.1279960259
 11
460.7215020814
 21
348.1279960259
  0
LINE
  8
DEFAULT_2
 62
8
  6
HIDDEN
 10
460.5215020814
 20
348.1373013463
 11
460.7215020814
 21
348.1373013463
  0
LINE
  8
DEFAULT_2
 62
8
  6
HIDDEN
 10
460.5215020814
 20
348.2150684231
 11
460.7215020814
 21
348.2150684231
  0
LINE
  8
DEFAULT_2
 62
8
  6
HIDDEN
 10
460.5215020814
 20
348.2569893781
 11
460.7215020814
 21
348.2569893781
  0
LINE
  8
DEFAULT_2
 62
8
  6
HIDDEN
 10
460.5215020814
 20
348.3033593276
 11
460.7215020814
 21
348.3033593276
  0
LINE
  8
DEFAULT_2
 62
8
  6
HIDDEN
 10
465.5215020814
 20
348.3442629106
 11
471.9715020814
 21
348.3442629106
  0
LINE
  8
DEFAULT_2
 62
8
  6
HIDDEN
 10
482.2715020814
 20
348.3442629106
 11
488.7215020814
 21
348.3442629106
  0
LINE
  8
DEFAULT_2
 62
8
  6
HIDDEN
 10
460.5215020814
 20
348.3771600415
 11
460.7215020814
 21
348.3771600415
  0
LINE
  8
DEFAULT_2
 62
8
  6
HIDDEN
 10
460.5215020814
 20
348.3955521107
 11
460.7215020814
 21
348.3955521107
  0
LINE
  8
DEFAULT_2
 62
8
  6
HIDDEN
 10
460.5215020814
 20
348.4784000318
 11
460.7215020814
 21
348.4784000318
  0
LINE
  8
DEFAULT_2
 62
8
  6
HIDDEN
 10
460.5215020814
 20
348.5177674072
 11
460.7215020814
 21
348.5177674072
  0
LINE
  8
DEFAULT_2
 62
8
  6
HIDDEN
 10
460.5215020814
 20
348.5460800344
 11
460.7215020814
 21
348.5460800344
  0
LINE
  8
DEFAULT_2
 62
8
  6
HIDDEN
 10
460.5215020814
 20
348.5607279173
 11
460.7215020814
 21
348.5607279173
  0
LINE
  8
DEFAULT_2
 62
8
  6
HIDDEN
 10
460.5215020814
 20
348.5718428116
 11
460.7215020814
 21
348.5718428116
  0
LINE
  8
DEFAULT_2
 62
8
  6
HIDDEN
 10
460.5215020814
 20
348.6041797763
 11
460.7215020814
 21
348.6041797763
  0
LINE
  8
DEFAULT_2
 62
8
  6
HIDDEN
 10
460.5215020814
 20
348.6307656289
 11
460.7215020814
 21
348.6307656289
  0
LINE
  8
DEFAULT_2
 62
8
  6
HIDDEN
 10
460.5215020814
 20
348.6708286674
 11
460.7215020814
 21
348.6708286674
  0
LINE
  8
DEFAULT_2
 62
8
  6
HIDDEN
 10
460.5215020814
 20
348.690767705
 11
460.7215020814
 21
348.690767705
  0
LINE
  8
DEFAULT_2
 62
8
  6
HIDDEN
 10
460.5215020814
 20
348.694091923
 11
460.7215020814
 21
348.694091923
  0
LINE
  8
DEFAULT_2
 62
8
  6
HIDDEN
 10
460.5215020814
 20
348.7311324239
 11
460.7215020814
 21
348.7311324239
  0
LINE
  8
DEFAULT_2
 62
8
  6
HIDDEN
 10
460.5215020814
 20
348.8521714426
 11
460.7215020814
 21
348.8521714426
  0
LINE
  8
DEFAULT_2
 62
8
  6
HIDDEN
 10
460.5215020814
 20
348.8626202964
 11
460.7215020814
 21
348.8626202964
  0
LINE
  8
DEFAULT_2
 62
8
  6
HIDDEN
 10
460.5215020814
 20
348.9196016213
 11
460.7215020814
 21
348.9196016213
  0
LINE
  8
DEFAULT_2
 62
8
  6
HIDDEN
 10
460.5215020814
 20
348.9602126277
 11
460.7215020814
 21
348.9602126277
  0
LINE
  8
DEFAULT_2
 62
8
  6
HIDDEN
 10
460.5215020814
 20
348.9774667186
 11
460.7215020814
 21
348.9774667186
  0
LINE
  8
DEFAULT_2
 62
8
  6
HIDDEN
 10
460.5215020814
 20
348.9980572073
 11
460.7215020814
 21
348.9980572073
  0
LINE
  8
DEFAULT_2
 62
8
  6
HIDDEN
 10
460.5215020814
 20
349.0479042286
 11
460.7215020814
 21
349.0479042286
  0
LINE
  8
DEFAULT_2
 62
8
  6
HIDDEN
 10
460.5215020814
 20
349.0613835014
 11
460.7215020814
 21
349.0613835014
  0
LINE
  8
DEFAULT_2
 62
8
  6
HIDDEN
 10
460.5215020814
 20
349.1050422071
 11
460.7215020814
 21
349.1050422071
  0
LINE
  8
DEFAULT_2
 62
8
  6
HIDDEN
 10
460.5215020814
 20
349.1346144907
 11
460.7215020814
 21
349.1346144907
  0
LINE
  8
DEFAULT_2
 62
8
  6
HIDDEN
 10
460.5215020814
 20
349.1441699707
 11
460.7215020814
 21
349.1441699707
  0
LINE
  8
DEFAULT_2
 62
8
  6
HIDDEN
 10
460.5215020814
 20
349.2025754485
 11
460.7215020814
 21
349.2025754485
  0
LINE
  8
DEFAULT_2
 62
8
  6
HIDDEN
 10
460.5215020814
 20
349.27871077
 11
460.7215020814
 21
349.27871077
  0
LINE
  8
DEFAULT_2
 62
8
  6
HIDDEN
 10
460.5215020814
 20
349.3275520121
 11
460.7215020814
 21
349.3275520121
  0
LINE
  8
DEFAULT_2
 62
8
  6
HIDDEN
 10
460.5215020814
 20
349.3654992869
 11
460.7215020814
 21
349.3654992869
  0
LINE
  8
DEFAULT_2
 62
8
  6
HIDDEN
 10
460.5215020814
 20
349.3783150989
 11
460.7215020814
 21
349.3783150989
  0
LINE
  8
DEFAULT_2
 62
8
  6
HIDDEN
 10
460.5215020814
 20
349.3938539838
 11
460.7215020814
 21
349.3938539838
  0
LINE
  8
DEFAULT_2
 62
8
  6
HIDDEN
 10
460.5215020814
 20
349.4079174767
 11
460.7215020814
 21
349.4079174767
  0
LINE
  8
DEFAULT_2
 62
8
  6
HIDDEN
 10
460.5215020814
 20
349.4187034408
 11
460.7215020814
 21
349.4187034408
  0
LINE
  8
DEFAULT_2
 62
8
  6
HIDDEN
 10
460.5215020814
 20
349.4445877909
 11
460.7215020814
 21
349.4445877909
  0
LINE
  8
DEFAULT_2
 62
8
  6
HIDDEN
 10
460.5215020814
 20
349.459536383
 11
460.7215020814
 21
349.459536383
  0
LINE
  8
DEFAULT_2
 62
8
  6
HIDDEN
 10
460.5215020814
 20
349.4908263453
 11
460.7215020814
 21
349.4908263453
  0
LINE
  8
DEFAULT_2
 62
8
  6
HIDDEN
 10
460.5215020814
 20
349.5274973409
 11
460.7215020814
 21
349.5274973409
  0
LINE
  8
DEFAULT_2
 62
8
  6
HIDDEN
 10
460.5215020814
 20
349.5396675874
 11
460.7215020814
 21
349.5396675874
  0
LINE
  8
DEFAULT_2
 62
8
  6
HIDDEN
 10
460.5215020814
 20
349.5809590083
 11
460.7215020814
 21
349.5809590083
  0
LINE
  8
DEFAULT_2
 62
8
  6
HIDDEN
 10
460.5215020814
 20
349.5894917437
 11
460.7215020814
 21
349.5894917437
  0
LINE
  8
DEFAULT_2
 62
8
  6
HIDDEN
 10
460.5215020814
 20
349.627498157
 11
460.7215020814
 21
349.627498157
  0
LINE
  8
DEFAULT_2
 62
8
  6
HIDDEN
 10
460.5215020814
 20
349.6894649532
 11
460.7215020814
 21
349.6894649532
  0
LINE
  8
DEFAULT_2
 62
8
  6
HIDDEN
 10
460.5215020814
 20
349.7000753763
 11
460.7215020814
 21
349.7000753763
  0
LINE
  8
DEFAULT_2
 62
8
  6
HIDDEN
 10
460.5215020814
 20
349.7350323695
 11
460.7215020814
 21
349.7350323695
  0
LINE
  8
DEFAULT_2
 62
8
  6
HIDDEN
 10
460.5215020814
 20
349.7398650141
 11
460.7215020814
 21
349.7398650141
  0
LINE
  8
DEFAULT_2
 62
8
  6
HIDDEN
 10
460.5215020814
 20
349.7541507453
 11
460.7215020814
 21
349.7541507453
  0
LINE
  8
DEFAULT_2
 62
8
  6
HIDDEN
 10
460.5215020814
 20
349.7625440281
 11
460.7215020814
 21
349.7625440281
  0
LINE
  8
DEFAULT_2
 62
8
  6
HIDDEN
 10
460.5215020814
 20
349.7752972783
 11
460.7215020814
 21
349.7752972783
  0
LINE
  8
DEFAULT_2
 62
8
  6
HIDDEN
 10
460.5215020814
 20
349.79641815
 11
460.7215020814
 21
349.79641815
  0
LINE
  8
DEFAULT_2
 62
8
  6
HIDDEN
 10
460.5215020814
 20
349.8396739904
 11
460.7215020814
 21
349.8396739904
  0
LINE
  8
DEFAULT_2
 62
8
  6
HIDDEN
 10
460.5215020814
 20
349.8741206703
 11
460.7215020814
 21
349.8741206703
  0
LINE
  8
DEFAULT_2
 62
8
  6
HIDDEN
 10
460.5215020814
 20
349.8783036475
 11
460.7215020814
 21
349.8783036475
  0
LINE
  8
DEFAULT_2
 62
8
  6
HIDDEN
 10
460.5215020814
 20
349.8842720269
 11
460.7215020814
 21
349.8842720269
  0
LINE
  8
DEFAULT_2
 62
8
  6
HIDDEN
 10
460.5215020814
 20
349.9031046066
 11
460.7215020814
 21
349.9031046066
  0
LINE
  8
DEFAULT_2
 62
8
  6
HIDDEN
 10
460.5215020814
 20
349.9231969845
 11
460.7215020814
 21
349.9231969845
  0
LINE
  8
DEFAULT_2
 62
8
  6
HIDDEN
 10
460.5215020814
 20
349.9396473271
 11
460.7215020814
 21
349.9396473271
  0
LINE
  8
DEFAULT_2
 62
8
  6
HIDDEN
 10
460.5215020814
 20
349.9782769842
 11
460.7215020814
 21
349.9782769842
  0
LINE
  8
DEFAULT_2
 62
8
  6
HIDDEN
 10
460.5215020814
 20
350.0369249349
 11
460.7215020814
 21
350.0369249349
  0
LINE
  8
DEFAULT_2
 62
8
  6
HIDDEN
 10
460.5215020814
 20
350.0413294639
 11
460.7215020814
 21
350.0413294639
  0
LINE
  8
DEFAULT_2
 62
8
  6
HIDDEN
 10
460.5215020814
 20
350.0520464387
 11
460.7215020814
 21
350.0520464387
  0
LINE
  8
DEFAULT_2
 62
8
  6
HIDDEN
 10
460.5215020814
 20
350.0570297289
 11
460.7215020814
 21
350.0570297289
  0
LINE
  8
DEFAULT_2
 62
8
  6
HIDDEN
 10
460.5215020814
 20
350.1106565696
 11
460.7215020814
 21
350.1106565696
  0
LINE
  8
DEFAULT_2
 62
8
  6
HIDDEN
 10
460.5215020814
 20
350.142801624
 11
460.7215020814
 21
350.142801624
  0
LINE
  8
DEFAULT_2
 62
8
  6
HIDDEN
 10
460.5215020814
 20
350.1918238161
 11
460.7215020814
 21
350.1918238161
  0
LINE
  8
DEFAULT_2
 62
8
  6
HIDDEN
 10
460.5215020814
 20
350.196453154
 11
460.7215020814
 21
350.196453154
  0
LINE
  8
DEFAULT_2
 62
8
  6
HIDDEN
 10
460.5215020814
 20
350.2177064336
 11
460.7215020814
 21
350.2177064336
  0
LINE
  8
DEFAULT_2
 62
8
  6
HIDDEN
 10
460.5215020814
 20
350.224619592
 11
460.7215020814
 21
350.224619592
  0
LINE
  8
DEFAULT_2
 62
8
  6
HIDDEN
 10
460.5215020814
 20
350.2516730551
 11
460.7215020814
 21
350.2516730551
  0
LINE
  8
DEFAULT_2
 62
8
  6
HIDDEN
 10
460.5215020814
 20
350.257415368
 11
460.7215020814
 21
350.257415368
  0
LINE
  8
DEFAULT_2
 62
8
  6
HIDDEN
 10
460.5215020814
 20
350.2697855339
 11
460.7215020814
 21
350.2697855339
  0
LINE
  8
DEFAULT_2
 62
8
  6
HIDDEN
 10
460.5215020814
 20
350.2899760718
 11
460.7215020814
 21
350.2899760718
  0
LINE
  8
DEFAULT_2
 62
8
  6
HIDDEN
 10
460.5215020814
 20
350.2947842661
 11
460.7215020814
 21
350.2947842661
  0
LINE
  8
DEFAULT_2
 62
8
  6
HIDDEN
 10
460.5215020814
 20
350.3130151245
 11
460.7215020814
 21
350.3130151245
  0
LINE
  8
DEFAULT_2
 62
8
  6
HIDDEN
 10
460.5215020814
 20
350.3243866439
 11
460.7215020814
 21
350.3243866439
  0
LINE
  8
DEFAULT_2
 62
8
  6
HIDDEN
 10
460.5215020814
 20
350.3387454523
 11
460.7215020814
 21
350.3387454523
  0
LINE
  8
DEFAULT_2
 62
8
  6
HIDDEN
 10
460.5215020814
 20
350.3569497389
 11
460.7215020814
 21
350.3569497389
  0
LINE
  8
DEFAULT_2
 62
8
  6
HIDDEN
 10
460.5215020814
 20
350.3799882448
 11
460.7215020814
 21
350.3799882448
  0
LINE
  8
DEFAULT_2
 62
8
  6
HIDDEN
 10
460.5215020814
 20
350.4743321407
 11
460.7215020814
 21
350.4743321407
  0
LINE
  8
DEFAULT_2
 62
8
  6
HIDDEN
 10
460.5215020814
 20
350.4994038485
 11
460.7215020814
 21
350.4994038485
  0
LINE
  8
DEFAULT_2
 62
8
  6
HIDDEN
 10
460.5215020814
 20
350.5240697769
 11
460.7215020814
 21
350.5240697769
  0
LINE
  8
DEFAULT_2
 62
8
  6
HIDDEN
 10
460.5215020814
 20
350.5743054774
 11
460.7215020814
 21
350.5743054774
  0
LINE
  8
DEFAULT_2
 62
8
  6
HIDDEN
 10
460.5215020814
 20
350.5834934823
 11
460.7215020814
 21
350.5834934823
  0
LINE
  8
DEFAULT_2
 62
8
  6
HIDDEN
 10
460.5215020814
 20
350.602077061
 11
460.7215020814
 21
350.602077061
  0
LINE
  8
DEFAULT_2
 62
8
  6
HIDDEN
 10
460.5215020814
 20
350.6181610175
 11
460.7215020814
 21
350.6181610175
  0
LINE
  8
DEFAULT_2
 62
8
  6
HIDDEN
 10
460.5215020814
 20
350.6246645995
 11
460.7215020814
 21
350.6246645995
  0
LINE
  8
DEFAULT_2
 62
8
  6
HIDDEN
 10
460.5215020814
 20
350.7630480567
 11
460.7215020814
 21
350.7630480567
  0
LINE
  8
DEFAULT_2
 62
8
  6
HIDDEN
 10
460.5215020814
 20
350.7795634807
 11
460.7215020814
 21
350.7795634807
  0
LINE
  8
DEFAULT_2
 62
8
  6
HIDDEN
 10
465.5215020814
 20
350.7894280305
 11
471.9715020814
 21
350.7894280305
  0
LINE
  8
DEFAULT_2
 62
8
  6
HIDDEN
 10
482.2715020814
 20
350.7894280305
 11
488.7215020814
 21
350.7894280305
  0
LINE
  8
DEFAULT_2
 62
8
  6
HIDDEN
 10
460.5215020814
 20
350.8121241846
 11
460.7215020814
 21
350.8121241846
  0
LINE
  8
DEFAULT_2
 62
8
  6
HIDDEN
 10
460.5215020814
 20
350.8165865744
 11
460.7215020814
 21
350.8165865744
  0
LINE
  8
DEFAULT_2
 62
8
  6
HIDDEN
 10
460.5215020814
 20
350.895146603
 11
460.7215020814
 21
350.895146603
  0
LINE
  8
DEFAULT_2
 62
8
  6
HIDDEN
 10
465.5215020814
 20
350.9445064806
 11
471.9715020814
 21
350.9445064806
  0
LINE
  8
DEFAULT_2
 62
8
  6
HIDDEN
 10
482.2715020814
 20
350.9445064806
 11
488.7215020814
 21
350.9445064806
  0
LINE
  8
DEFAULT_2
 62
8
  6
HIDDEN
 10
460.5215020814
 20
350.9694780893
 11
460.7215020814
 21
350.9694780893
  0
LINE
  8
DEFAULT_2
 62
8
  6
HIDDEN
 10
460.5215020814
 20
351.0140711283
 11
460.7215020814
 21
351.0140711283
  0
LINE
  8
DEFAULT_2
 62
8
  6
HIDDEN
 10
460.5215020814
 20
351.1497935849
 11
460.7215020814
 21
351.1497935849
  0
LINE
  8
DEFAULT_2
 62
8
  6
HIDDEN
 10
488.7215020814
 20
351.3088114701
 11
482.2715020814
 21
351.3088114701
  0
LINE
  8
DEFAULT_2
 62
8
  6
HIDDEN
 10
471.9715020814
 20
351.3088114701
 11
465.5215020814
 21
351.3088114701
  0
LINE
  8
DEFAULT_2
 62
8
  6
HIDDEN
 10
488.7215020814
 20
351.3754159756
 11
482.2715020814
 21
351.3754159756
  0
LINE
  8
DEFAULT_2
 62
8
  6
HIDDEN
 10
471.9715020814
 20
351.3754159756
 11
465.5215020814
 21
351.3754159756
  0
LINE
  8
DEFAULT_2
 62
8
  6
HIDDEN
 10
488.7215020814
 20
351.3998877174
 11
482.2715020814
 21
351.3998877174
  0
LINE
  8
DEFAULT_2
 62
8
  6
HIDDEN
 10
471.9715020814
 20
351.3998877174
 11
465.5215020814
 21
351.3998877174
  0
LINE
  8
0
 62
9
  6
CONTINUOUS
 10
465.5215020814
 20
352.1131743869
 11
471.9715020814
 21
352.1131743869
  0
LINE
  8
0
 62
9
  6
CONTINUOUS
 10
482.2715020814
 20
352.1131743869
 11
488.7215020814
 21
352.1131743869
  0
LINE
  8
DEFAULT_2
 62
8
  6
HIDDEN
 10
488.7215020814
 20
352.142587402
 11
482.2715020814
 21
352.142587402
  0
LINE
  8
DEFAULT_2
 62
8
  6
HIDDEN
 10
471.9715020814
 20
352.142587402
 11
465.5215020814
 21
352.142587402
  0
LINE
  8
DEFAULT_2
 62
8
  6
HIDDEN
 10
488.7215020814
 20
352.456405503
 11
482.2715020814
 21
352.456405503
  0
LINE
  8
DEFAULT_2
 62
8
  6
HIDDEN
 10
471.9715020814
 20
352.456405503
 11
465.5215020814
 21
352.456405503
  0
LINE
  8
DEFAULT_2
 62
8
  6
HIDDEN
 10
465.5215020814
 20
352.499136824
 11
471.9715020814
 21
352.499136824
  0
LINE
  8
DEFAULT_2
 62
8
  6
HIDDEN
 10
482.2715020814
 20
352.499136824
 11
488.7215020814
 21
352.499136824
  0
LINE
  8
DEFAULT_2
 62
8
  6
HIDDEN
 10
465.5215020814
 20
352.5338773991
 11
471.9715020814
 21
352.5338773991
  0
LINE
  8
DEFAULT_2
 62
8
  6
HIDDEN
 10
482.2715020814
 20
352.5338773991
 11
488.7215020814
 21
352.5338773991
  0
LINE
  8
0
 62
7
  6
CONTINUOUS
 10
465.5215020814
 20
352.8171384639
 11
471.9715020814
 21
352.8171384639
  0
LINE
  8
0
 62
7
  6
CONTINUOUS
 10
482.2715020814
 20
352.8171384639
 11
488.7215020814
 21
352.8171384639
  0
LINE
  8
0
 62
9
  6
CONTINUOUS
 10
465.5215020814
 20
353.9036961947
 11
471.9715020814
 21
353.9036961947
  0
LINE
  8
0
 62
9
  6
CONTINUOUS
 10
482.2715020814
 20
353.9036961947
 11
488.7215020814
 21
353.9036961947
  0
LINE
  8
0
 62
7
  6
CONTINUOUS
 10
482.2715020814
 20
355.1402900677
 11
471.9715020814
 21
355.1402900677
  0
LINE
  8
0
 62
7
  6
CONTINUOUS
 10
462.5215020814
 20
355.1402900677
 11
465.5215020814
 21
355.1402900677
  0
LINE
  8
0
 62
7
  6
CONTINUOUS
 10
488.7215020814
 20
355.1402900677
 11
491.7215020814
 21
355.1402900677
  0
LINE
  8
DEFAULT_2
 62
8
  6
HIDDEN
 10
465.5215020814
 20
356.6152900677
 11
471.9715020814
 21
356.6152900677
  0
LINE
  8
DEFAULT_2
 62
8
  6
HIDDEN
 10
482.2715020814
 20
356.6152900677
 11
488.7215020814
 21
356.6152900677
  0
LINE
  8
DEFAULT_2
 62
8
  6
HIDDEN
 10
465.5215020814
 20
357.2853957479
 11
471.9715020814
 21
357.2853957479
  0
LINE
  8
DEFAULT_2
 62
8
  6
HIDDEN
 10
482.2715020814
 20
357.2853957479
 11
488.7215020814
 21
357.2853957479
  0
LINE
  8
DEFAULT_2
 62
8
  6
HIDDEN
 10
488.7215020814
 20
357.4152900677
 11
482.2715020814
 21
357.4152900677
  0
LINE
  8
DEFAULT_2
 62
8
  6
HIDDEN
 10
471.9715020814
 20
357.4152900677
 11
465.5215020814
 21
357.4152900677
  0
LINE
  8
DEFAULT_2
 62
8
  6
HIDDEN
 10
488.7215020814
 20
357.6152900677
 11
482.2715020814
 21
357.6152900677
  0
LINE
  8
DEFAULT_2
 62
8
  6
HIDDEN
 10
471.9715020814
 20
357.6152900677
 11
465.5215020814
 21
357.6152900677
  0
LINE
  8
DEFAULT_2
 62
8
  6
HIDDEN
 10
465.5215020814
 20
358.1781401303
 11
471.9715020814
 21
358.1781401303
  0
LINE
  8
DEFAULT_2
 62
8
  6
HIDDEN
 10
482.2715020814
 20
358.1781401303
 11
488.7215020814
 21
358.1781401303
  0
LINE
  8
DEFAULT_2
 62
8
  6
HIDDEN
 10
465.5215020814
 20
358.9852150252
 11
471.9715020814
 21
358.9852150252
  0
LINE
  8
DEFAULT_2
 62
8
  6
HIDDEN
 10
482.2715020814
 20
358.9852150252
 11
488.7215020814
 21
358.9852150252
  0
LINE
  8
DEFAULT_2
 62
8
  6
HIDDEN
 10
465.5215020814
 20
362.8620916313
 11
471.9715020814
 21
362.8620916313
  0
LINE
  8
DEFAULT_2
 62
8
  6
HIDDEN
 10
482.2715020814
 20
362.8620916313
 11
488.7215020814
 21
362.8620916313
  0
LINE
  8
DEFAULT_2
 62
8
  6
HIDDEN
 10
465.5215020814
 20
363.3891074503
 11
471.9715020814
 21
363.3891074503
  0
LINE
  8
DEFAULT_2
 62
8
  6
HIDDEN
 10
482.2715020814
 20
363.3891074503
 11
488.7215020814
 21
363.3891074503
  0
LINE
  8
DEFAULT_2
 62
8
  6
HIDDEN
 10
465.5215020814
 20
363.9996604458
 11
471.9715020814
 21
363.9996604458
  0
LINE
  8
DEFAULT_2
 62
8
  6
HIDDEN
 10
482.2715020814
 20
363.9996604458
 11
488.7215020814
 21
363.9996604458
  0
LINE
  8
DEFAULT_2
 62
8
  6
HIDDEN
 10
465.5215020814
 20
364.0529006267
 11
471.9715020814
 21
364.0529006267
  0
LINE
  8
DEFAULT_2
 62
8
  6
HIDDEN
 10
482.2715020814
 20
364.0529006267
 11
488.7215020814
 21
364.0529006267
  0
LINE
  8
DEFAULT_2
 62
8
  6
HIDDEN
 10
465.5215020814
 20
366.4700118592
 11
471.9715020814
 21
366.4700118592
  0
LINE
  8
DEFAULT_2
 62
8
  6
HIDDEN
 10
482.2715020814
 20
366.4700118592
 11
488.7215020814
 21
366.4700118592
  0
LINE
  8
DEFAULT_2
 62
8
  6
HIDDEN
 10
465.5215020814
 20
368.5379083294
 11
471.9715020814
 21
368.5379083294
  0
LINE
  8
DEFAULT_2
 62
8
  6
HIDDEN
 10
482.2715020814
 20
368.5379083294
 11
488.7215020814
 21
368.5379083294
  0
LINE
  8
0
 62
9
  6
CONTINUOUS
 10
465.5215020814
 20
368.6920028272
 11
471.9715020814
 21
368.6920028272
  0
LINE
  8
0
 62
9
  6
CONTINUOUS
 10
482.2715020814
 20
368.6920028272
 11
488.7215020814
 21
368.6920028272
  0
LINE
  8
0
 62
7
  6
CONTINUOUS
 10
465.5215020814
 20
369.1152900677
 11
471.9715020814
 21
369.1152900677
  0
LINE
  8
0
 62
7
  6
CONTINUOUS
 10
482.2715020814
 20
369.1152900677
 11
488.7215020814
 21
369.1152900677
  0
LINE
  8
DEFAULT_2
 62
8
  6
HIDDEN
 10
465.5215020814
 20
372.1087392002
 11
471.9715020814
 21
372.1087392002
  0
LINE
  8
DEFAULT_2
 62
8
  6
HIDDEN
 10
482.2715020814
 20
372.1087392002
 11
488.7215020814
 21
372.1087392002
  0
LINE
  8
0
 62
9
  6
CONTINUOUS
 10
465.5215020814
 20
372.7878067898
 11
471.9715020814
 21
372.7878067898
  0
LINE
  8
0
 62
9
  6
CONTINUOUS
 10
482.2715020814
 20
372.7878067898
 11
488.7215020814
 21
372.7878067898
  0
LINE
  8
0
 62
7
  6
CONTINUOUS
 10
465.5215020814
 20
372.9868698568
 11
471.9715020814
 21
372.9868698568
  0
LINE
  8
0
 62
7
  6
CONTINUOUS
 10
482.2715020814
 20
372.9868698568
 11
488.7215020814
 21
372.9868698568
  0
ARC
  8
0
 62
7
  6
CONTINUOUS
 10
126.8346836387
 20
153.1451240608
 40
14.0
 50
270.7803337598
 51
334.6589448352
  0
ARC
  8
0
 62
7
  6
CONTINUOUS
 10
120.1451524408
 20
150.4480141138
 40
10.0
 50
331.0
 51
36.0
  0
ARC
  8
0
 62
7
  6
CONTINUOUS
 10
115.367348882
 20
172.335811102
 40
2.0
 50
342.8698976458
 51
136.6589448352
  0
ARC
  8
0
 62
7
  6
CONTINUOUS
 10
141.2951011627
 20
146.2970349091
 40
2.0
 50
0.8698976458
 51
154.6589448352
  0
ARC
  8
0
 62
7
  6
CONTINUOUS
 10
99.8823834956
 20
170.8999471859
 40
1.0
 50
133.0
 51
252.7803337598
  0
ARC
  8
0
 62
7
  6
CONTINUOUS
 10
127.0117302791
 20
140.1463297134
 40
1.0
 50
151.0
 51
270.7803337598
  0
ARC
  8
0
 62
7
  6
CONTINUOUS
 10
117.7564448781
 20
171.5994549917
 40
0.5
 50
162.8698976458
 51
216.0
  0
ARC
  8
0
 62
7
  6
CONTINUOUS
 10
143.7948130299
 20
146.334989896
 40
0.5
 50
180.8698976458
 51
234.0
  0
ARC
  8
0
 62
7
  6
CONTINUOUS
 10
91.081497766
 20
219.1521156228
 40
14.0
 50
234.7803337598
 51
298.6589448352
  0
ARC
  8
0
 62
7
  6
CONTINUOUS
 10
103.7308504943
 20
183.3172456747
 40
14.0
 50
252.7803337598
 51
316.6589448352
  0
ARC
  8
0
 62
7
  6
CONTINUOUS
 10
84.0842318918
 20
220.9021156228
 40
10.0
 50
295.0
 51
360.0
  0
ARC
  8
0
 62
7
  6
CONTINUOUS
 10
96.5352754483
 20
182.8193205089
 40
10.0
 50
313.0
 51
18.0
  0
ARC
  8
0
 62
7
  6
CONTINUOUS
 10
98.7550154789
 20
205.1122749574
 40
2.0
 50
324.8698976459
 51
118.6589448352
  0
ARC
  8
0
 62
7
  6
CONTINUOUS
 10
83.5842318918
 20
208.5318046851
 40
1.0
 50
115.0
 51
234.7803337598
  0
ARC
  8
0
 62
7
  6
CONTINUOUS
 10
94.5842318918
 20
239.418037826
 40
0.5
 50
126.8698976458
 51
180.0
  0
ARC
  8
0
 62
7
  6
CONTINUOUS
 10
100.7996342421
 20
203.6736874164
 40
0.5
 50
144.8698976458
 51
198.0
  0
ARC
  8
0
 62
7
  6
CONTINUOUS
 10
158.1314330371
 20
131.5892082663
 40
14.0
 50
288.7803337598
 51
352.6589448352
  0
ARC
  8
0
 62
7
  6
CONTINUOUS
 10
194.5575548011
 20
120.759541518
 40
14.0
 50
306.7803337598
 51
10.6589448352
  0
ARC
  8
0
 62
7
  6
CONTINUOUS
 10
152.6027636097
 20
126.9569254515
 40
10.0
 50
349.0
 51
54.0
  0
ARC
  8
0
 62
7
  6
CONTINUOUS
 10
190.7309318283
 20
114.6455259523
 40
10.0
 50
7.0
 51
72.0
  0
ARC
  8
0
 62
7
  6
CONTINUOUS
 10
174.0002832785
 20
129.5448032151
 40
2.0
 50
18.8698976458
 51
172.6589448352
  0
ARC
  8
0
 62
7
  6
CONTINUOUS
 10
210.2814841336
 20
123.7189411779
 40
2.0
 50
36.8698976458
 51
190.6589448352
  0
ARC
  8
0
 62
7
  6
CONTINUOUS
 10
162.3166627578
 20
119.2813306189
 40
1.0
 50
169.0
 51
288.7803337598
  0
ARC
  8
0
 62
7
  6
CONTINUOUS
 10
202.341288157
 20
110.3473613888
 40
1.0
 50
187.0
 51
306.7803337598
  0
ARC
  8
0
 62
7
  6
CONTINUOUS
 10
176.3659218027
 20
130.3533540007
 40
0.5
 50
198.8698976458
 51
252.0
  0
ARC
  8
0
 62
7
  6
CONTINUOUS
 10
100.9544989802
 20
293.5680889225
 40
14.0
 50
198.7803337598
 51
262.6589448352
  0
ARC
  8
0
 62
7
  6
CONTINUOUS
 10
90.124832232
 20
257.1419671584
 40
14.0
 50
216.7803337598
 51
280.6589448352
  0
ARC
  8
0
 62
7
  6
CONTINUOUS
 10
96.3222161654
 20
299.0967583498
 40
10.0
 50
259.0
 51
324.0
  0
ARC
  8
0
 62
7
  6
CONTINUOUS
 10
84.0108166663
 20
260.9685901312
 40
10.0
 50
277.0
 51
342.0
  0
ARC
  8
0
 62
7
  6
CONTINUOUS
 10
98.910093929
 20
277.699238681
 40
2.0
 50
288.8698976458
 51
82.6589448352
  0
ARC
  8
0
 62
7
  6
CONTINUOUS
 10
93.0842318918
 20
241.418037826
 40
2.0
 50
306.8698976458
 51
100.6589448352
  0
ARC
  8
0
 62
7
  6
CONTINUOUS
 10
88.6466213328
 20
289.3828592017
 40
1.0
 50
79.0
 51
198.7803337598
  0
ARC
  8
0
 62
7
  6
CONTINUOUS
 10
79.7126521027
 20
249.3582338026
 40
1.0
 50
97.0
 51
216.7803337598
  0
ARC
  8
0
 62
7
  6
CONTINUOUS
 10
99.7186447147
 20
275.3336001568
 40
0.5
 50
108.8698976458
 51
162.0
  0
ARC
  8
0
 62
7
  6
CONTINUOUS
 10
122.5104147747
 20
324.8648383208
 40
14.0
 50
180.7803337598
 51
244.6589448352
  0
ARC
  8
0
 62
7
  6
CONTINUOUS
 10
119.8133048277
 20
331.5543695187
 40
10.0
 50
241.0
 51
306.0
  0
ARC
  8
0
 62
7
  6
CONTINUOUS
 10
141.701101816
 20
336.3321730775
 40
2.0
 50
252.8698976458
 51
46.6589448352
  0
ARC
  8
0
 62
7
  6
CONTINUOUS
 10
115.662325623
 20
310.4044207968
 40
2.0
 50
270.8698976458
 51
64.6589448352
  0
ARC
  8
0
 62
7
  6
CONTINUOUS
 10
109.5116204273
 20
324.6877916804
 40
1.0
 50
61.0
 51
180.7803337598
  0
ARC
  8
0
 62
7
  6
CONTINUOUS
 10
140.2652378998
 20
351.8171384639
 40
1.0
 50
43.0
 51
162.7803337598
  0
ARC
  8
0
 62
7
  6
CONTINUOUS
 10
115.70028061
 20
307.9047089296
 40
0.5
 50
90.8698976458
 51
144.0
  0
ARC
  8
0
 62
7
  6
CONTINUOUS
 10
140.9647457057
 20
333.9430770814
 40
0.5
 50
72.8698976458
 51
126.0
  0
ARC
  8
0
 62
7
  6
CONTINUOUS
 10
188.5174063367
 20
360.6180241936
 40
14.0
 50
144.7803337598
 51
208.6589448352
  0
ARC
  8
0
 62
7
  6
CONTINUOUS
 10
152.6825363886
 20
347.9686714652
 40
14.0
 50
162.7803337598
 51
226.6589448352
  0
ARC
  8
0
 62
7
  6
CONTINUOUS
 10
190.2674063367
 20
367.6152900677
 40
10.0
 50
205.0
 51
270.0
  0
ARC
  8
0
 62
7
  6
CONTINUOUS
 10
152.1846112228
 20
355.1642465112
 40
10.0
 50
223.0
 51
288.0
  0
ARC
  8
0
 62
7
  6
CONTINUOUS
 10
174.4775656713
 20
352.9445064806
 40
2.0
 50
234.8698976458
 51
28.6589448352
  0
ARC
  8
0
 62
7
  6
CONTINUOUS
 10
177.8970953991
 20
368.1152900677
 40
1.0
 50
25.0
 51
144.7803337598
  0
ARC
  8
0
 62
7
  6
CONTINUOUS
 10
208.7833285399
 20
357.1152900677
 40
0.5
 50
36.8698976459
 51
90.0
  0
ARC
  8
0
 62
7
  6
CONTINUOUS
 10
173.0389781303
 20
350.8998877174
 40
0.5
 50
54.8698976458
 51
108.0
  0
ARC
  8
0
 62
7
  6
CONTINUOUS
 10
232.5474063367
 20
121.716207052
 40
14.0
 50
324.7803337598
 51
28.6589448352
  0
ARC
  8
0
 62
7
  6
CONTINUOUS
 10
268.3822762849
 20
134.3655597804
 40
14.0
 50
342.7803337598
 51
46.6589448352
  0
ARC
  8
0
 62
7
  6
CONTINUOUS
 10
230.7974063367
 20
114.7189411779
 40
10.0
 50
25.0
 51
90.0
  0
ARC
  8
0
 62
7
  6
CONTINUOUS
 10
268.8802014506
 20
127.1699847344
 40
10.0
 50
43.0
 51
108.0
  0
ARC
  8
0
 62
7
  6
CONTINUOUS
 10
246.5872470021
 20
129.389724765
 40
2.0
 50
54.8698976458
 51
208.6589448352
  0
ARC
  8
0
 62
7
  6
CONTINUOUS
 10
243.1677172744
 20
114.2189411779
 40
1.0
 50
205.0
 51
324.7803337598
  0
ARC
  8
0
 62
7
  6
CONTINUOUS
 10
212.2814841336
 20
125.2189411779
 40
0.5
 50
216.8698976458
 51
270.0
  0
ARC
  8
0
 62
7
  6
CONTINUOUS
 10
248.0258345431
 20
131.4343435282
 40
0.5
 50
234.8698976459
 51
288.0
  0
ARC
  8
0
 62
7
  6
CONTINUOUS
 10
298.5543978987
 20
157.4693929247
 40
14.0
 50
0.7803337598
 51
64.6589448352
  0
ARC
  8
0
 62
7
  6
CONTINUOUS
 10
301.2515078457
 20
150.7798617269
 40
10.0
 50
61.0
 51
126.0
  0
ARC
  8
0
 62
7
  6
CONTINUOUS
 10
279.3637108575
 20
146.0020581681
 40
2.0
 50
72.8698976458
 51
226.6589448352
  0
ARC
  8
0
 62
7
  6
CONTINUOUS
 10
305.4024870505
 20
171.9298104488
 40
2.0
 50
90.8698976458
 51
244.6589448352
  0
ARC
  8
0
 62
7
  6
CONTINUOUS
 10
280.7995747737
 20
130.5170927817
 40
1.0
 50
223.0
 51
342.7803337598
  0
ARC
  8
0
 62
7
  6
CONTINUOUS
 10
311.5531922462
 20
157.6464395651
 40
1.0
 50
241.0
 51
0.7803337598
  0
ARC
  8
0
 62
7
  6
CONTINUOUS
 10
280.1000669678
 20
148.3911541642
 40
0.5
 50
252.8698976458
 51
306.0
  0
ARC
  8
0
 62
7
  6
CONTINUOUS
 10
305.3645320635
 20
174.429522316
 40
0.5
 50
270.8698976458
 51
324.0
  0
ARC
  8
0
 62
7
  6
CONTINUOUS
 10
320.1103136932
 20
188.7661423231
 40
14.0
 50
18.7803337598
 51
82.6589448352
  0
ARC
  8
0
 62
7
  6
CONTINUOUS
 10
330.9399804415
 20
225.1922640871
 40
14.0
 50
36.7803337598
 51
100.6589448352
  0
ARC
  8
0
 62
7
  6
CONTINUOUS
 10
324.742596508
 20
183.2374728958
 40
10.0
 50
79.0
 51
144.0
  0
ARC
  8
0
 62
7
  6
CONTINUOUS
 10
337.0539960072
 20
221.3656411144
 40
10.0
 50
97.0
 51
162.0
  0
ARC
  8
0
 62
7
  6
CONTINUOUS
 10
322.1547187445
 20
204.6349925646
 40
2.0
 50
108.8698976458
 51
262.6589448352
  0
ARC
  8
0
 62
7
  6
CONTINUOUS
 10
327.9805807816
 20
240.9161934196
 40
2.0
 50
126.8698976458
 51
280.6589448352
  0
ARC
  8
0
 62
7
  6
CONTINUOUS
 10
332.4181913407
 20
192.9513720439
 40
1.0
 50
259.0
 51
18.7803337598
  0
ARC
  8
0
 62
7
  6
CONTINUOUS
 10
341.3521605708
 20
232.975997443
 40
1.0
 50
277.0
 51
36.7803337598
  0
ARC
  8
0
 62
7
  6
CONTINUOUS
 10
321.3461679588
 20
207.0006310888
 40
0.5
 50
288.8698976458
 51
342.0
  0
ARC
  8
DEFAULT_2
 62
8
  6
HIDDEN
 10
210.5324063367
 20
241.1671156228
 40
132.0759417852
 50
86.4155455287
 51
86.425054205
  0
ARC
  8
0
 62
40
  6
CONTINUOUS
 10
210.5324063367
 20
241.1671156228
 40
132.0759417852
 50
80.6228500531
 51
86.4155455287
  0
ARC
  8
0
 62
40
  6
CONTINUOUS
 10
210.5324063367
 20
241.1671156228
 40
132.0759417852
 50
86.425054205
 51
90.0
  0
ARC
  8
PITCH_DIAMETER
 62
8
  6
HIDDEN
 10
210.5324063367
 20
241.1671156228
 40
129.5430645337
 50
13.8381598223
 51
15.6586490931
  0
ARC
  8
PITCH_DIAMETER
 62
8
  6
HIDDEN
 10
210.5324063367
 20
241.1671156228
 40
129.5430645337
 50
31.8381332266
 51
33.6493732149
  0
ARC
  8
PITCH_DIAMETER
 62
8
  6
HIDDEN
 10
210.5324063367
 20
241.1671156228
 40
129.5430645337
 50
49.8381598223
 51
51.6586490931
  0
ARC
  8
PITCH_DIAMETER
 62
8
  6
HIDDEN
 10
210.5324063367
 20
241.1671156228
 40
129.5430645337
 50
67.8381332266
 51
69.6493732149
  0
ARC
  8
PITCH_DIAMETER
 62
8
  6
HIDDEN
 10
210.5324063367
 20
241.1671156228
 40
129.5430645337
 50
85.8381598223
 51
87.6586490931
  0
ARC
  8
PITCH_DIAMETER
 62
8
  6
HIDDEN
 10
210.5324063367
 20
241.1671156228
 40
129.5430645337
 50
103.8381332266
 51
105.6493732149
  0
ARC
  8
PITCH_DIAMETER
 62
8
  6
HIDDEN
 10
210.5324063367
 20
241.1671156228
 40
129.5430645337
 50
121.8381598223
 51
123.6586490931
  0
ARC
  8
PITCH_DIAMETER
 62
8
  6
HIDDEN
 10
210.5324063367
 20
241.1671156228
 40
129.5430645337
 50
139.8381332266
 51
141.6493732149
  0
ARC
  8
PITCH_DIAMETER
 62
8
  6
HIDDEN
 10
210.5324063367
 20
241.1671156228
 40
129.5430645337
 50
157.8381598223
 51
159.6586490931
  0
ARC
  8
PITCH_DIAMETER
 62
8
  6
HIDDEN
 10
210.5324063367
 20
241.1671156228
 40
129.5430645337
 50
175.8381332266
 51
177.6493732149
  0
ARC
  8
PITCH_DIAMETER
 62
8
  6
HIDDEN
 10
210.5324063367
 20
241.1671156228
 40
129.5430645337
 50
193.8381598223
 51
195.6586490931
  0
ARC
  8
PITCH_DIAMETER
 62
8
  6
HIDDEN
 10
210.5324063367
 20
241.1671156228
 40
129.5430645337
 50
211.8381332266
 51
213.6493732149
  0
ARC
  8
PITCH_DIAMETER
 62
8
  6
HIDDEN
 10
210.5324063367
 20
241.1671156228
 40
129.5430645337
 50
229.8381598223
 51
231.6586490931
  0
ARC
  8
PITCH_DIAMETER
 62
8
  6
HIDDEN
 10
210.5324063367
 20
241.1671156228
 40
129.5430645337
 50
247.8381332266
 51
249.6493732149
  0
ARC
  8
PITCH_DIAMETER
 62
8
  6
HIDDEN
 10
210.5324063367
 20
241.1671156228
 40
129.5430645337
 50
265.8381598223
 51
267.6586490931
  0
ARC
  8
PITCH_DIAMETER
 62
8
  6
HIDDEN
 10
210.5324063367
 20
241.1671156228
 40
129.5430645337
 50
283.8381332266
 51
285.6493732149
  0
ARC
  8
PITCH_DIAMETER
 62
8
  6
HIDDEN
 10
210.5324063367
 20
241.1671156228
 40
129.5430645337
 50
301.8381598223
 51
303.6586490931
  0
ARC
  8
PITCH_DIAMETER
 62
8
  6
HIDDEN
 10
210.5324063367
 20
241.1671156228
 40
129.5430645337
 50
319.8381332266
 51
321.6493732149
  0
ARC
  8
PITCH_DIAMETER
 62
8
  6
HIDDEN
 10
210.5324063367
 20
241.1671156228
 40
129.5430645337
 50
337.8381598223
 51
339.6586490931
  0
ARC
  8
PITCH_DIAMETER
 62
8
  6
HIDDEN
 10
210.5324063367
 20
241.1671156228
 40
129.5430645337
 50
355.8381332266
 51
357.6493732149
  0
ARC
  8
PITCH_DIAMETER
 62
40
  6
CONTINUOUS
 10
210.5324063367
 20
241.1671156228
 40
129.5430645337
 50
15.6586490931
 51
31.8381332266
  0
ARC
  8
PITCH_DIAMETER
 62
40
  6
CONTINUOUS
 10
210.5324063367
 20
241.1671156228
 40
129.5430645337
 50
33.6493732149
 51
49.8381598223
  0
ARC
  8
PITCH_DIAMETER
 62
40
  6
CONTINUOUS
 10
210.5324063367
 20
241.1671156228
 40
129.5430645337
 50
51.6586490931
 51
67.8381332266
  0
ARC
  8
PITCH_DIAMETER
 62
40
  6
CONTINUOUS
 10
210.5324063367
 20
241.1671156228
 40
129.5430645337
 50
69.6493732149
 51
85.8381598223
  0
ARC
  8
PITCH_DIAMETER
 62
40
  6
CONTINUOUS
 10
210.5324063367
 20
241.1671156228
 40
129.5430645337
 50
87.6586490931
 51
103.8381332266
  0
ARC
  8
PITCH_DIAMETER
 62
40
  6
CONTINUOUS
 10
210.5324063367
 20
241.1671156228
 40
129.5430645337
 50
105.6493732149
 51
121.8381598223
  0
ARC
  8
PITCH_DIAMETER
 62
40
  6
CONTINUOUS
 10
210.5324063367
 20
241.1671156228
 40
129.5430645337
 50
123.6586490931
 51
139.8381332266
  0
ARC
  8
PITCH_DIAMETER
 62
40
  6
CONTINUOUS
 10
210.5324063367
 20
241.1671156228
 40
129.5430645337
 50
141.6493732149
 51
157.8381598223
  0
ARC
  8
PITCH_DIAMETER
 62
40
  6
CONTINUOUS
 10
210.5324063367
 20
241.1671156228
 40
129.5430645337
 50
159.6586490931
 51
175.8381332266
  0
ARC
  8
PITCH_DIAMETER
 62
40
  6
CONTINUOUS
 10
210.5324063367
 20
241.1671156228
 40
129.5430645337
 50
177.6493732149
 51
193.8381598223
  0
ARC
  8
PITCH_DIAMETER
 62
40
  6
CONTINUOUS
 10
210.5324063367
 20
241.1671156228
 40
129.5430645337
 50
195.6586490931
 51
211.8381332266
  0
ARC
  8
PITCH_DIAMETER
 62
40
  6
CONTINUOUS
 10
210.5324063367
 20
241.1671156228
 40
129.5430645337
 50
213.6493732149
 51
229.8381598223
  0
ARC
  8
PITCH_DIAMETER
 62
40
  6
CONTINUOUS
 10
210.5324063367
 20
241.1671156228
 40
129.5430645337
 50
231.6586490931
 51
247.8381332266
  0
ARC
  8
PITCH_DIAMETER
 62
40
  6
CONTINUOUS
 10
210.5324063367
 20
241.1671156228
 40
129.5430645337
 50
249.6493732149
 51
265.8381598223
  0
ARC
  8
PITCH_DIAMETER
 62
40
  6
CONTINUOUS
 10
210.5324063367
 20
241.1671156228
 40
129.5430645337
 50
267.6586490931
 51
283.8381332266
  0
ARC
  8
PITCH_DIAMETER
 62
40
  6
CONTINUOUS
 10
210.5324063367
 20
241.1671156228
 40
129.5430645337
 50
285.6493732149
 51
301.8381598223
  0
ARC
  8
PITCH_DIAMETER
 62
40
  6
CONTINUOUS
 10
210.5324063367
 20
241.1671156228
 40
129.5430645337
 50
303.6586490931
 51
319.8381332266
  0
ARC
  8
PITCH_DIAMETER
 62
40
  6
CONTINUOUS
 10
210.5324063367
 20
241.1671156228
 40
129.5430645337
 50
321.6493732149
 51
337.8381598223
  0
ARC
  8
PITCH_DIAMETER
 62
40
  6
CONTINUOUS
 10
210.5324063367
 20
241.1671156228
 40
129.5430645337
 50
339.6586490931
 51
355.8381332266
  0
ARC
  8
PITCH_DIAMETER
 62
40
  6
CONTINUOUS
 10
210.5324063367
 20
241.1671156228
 40
129.5430645337
 50
357.6493732149
 51
13.8381598223
  0
ARC
  8
DEFAULT_2
 62
8
  6
HIDDEN
 10
210.5324063367
 20
241.1671156228
 40
116.4481744449
 50
180.7767707352
 51
197.0379118092
  0
ARC
  8
DEFAULT_2
 62
8
  6
HIDDEN
 10
210.5324063367
 20
241.1671156228
 40
116.4481744449
 50
198.7840016344
 51
215.0424538812
  0
ARC
  8
DEFAULT_2
 62
8
  6
HIDDEN
 10
210.5324063367
 20
241.1671156228
 40
116.4481744449
 50
216.7767707352
 51
233.0379118092
  0
ARC
  8
DEFAULT_2
 62
8
  6
HIDDEN
 10
210.5324063367
 20
241.1671156228
 40
116.4481744449
 50
234.7840016344
 51
251.0424538812
  0
ARC
  8
DEFAULT_2
 62
8
  6
HIDDEN
 10
210.5324063367
 20
241.1671156228
 40
116.4481744449
 50
252.7767707352
 51
269.0379118092
  0
ARC
  8
DEFAULT_2
 62
8
  6
HIDDEN
 10
210.5324063367
 20
241.1671156228
 40
116.4481744449
 50
270.7840016344
 51
287.0424538812
  0
ARC
  8
DEFAULT_2
 62
8
  6
HIDDEN
 10
210.5324063367
 20
241.1671156228
 40
116.4481744449
 50
288.7767707352
 51
305.0379118092
  0
ARC
  8
DEFAULT_2
 62
8
  6
HIDDEN
 10
210.5324063367
 20
241.1671156228
 40
116.4481744449
 50
306.7840016344
 51
323.0424538812
  0
ARC
  8
DEFAULT_2
 62
8
  6
HIDDEN
 10
210.5324063367
 20
241.1671156228
 40
116.4481744449
 50
324.7767707352
 51
341.0379118092
  0
ARC
  8
DEFAULT_2
 62
8
  6
HIDDEN
 10
210.5324063367
 20
241.1671156228
 40
116.4481744449
 50
342.7840016344
 51
359.0424538812
  0
ARC
  8
DEFAULT_2
 62
8
  6
HIDDEN
 10
210.5324063367
 20
241.1671156228
 40
116.4481744449
 50
73.7044527255
 51
89.0360053794
  0
ARC
  8
DEFAULT_2
 62
8
  6
HIDDEN
 10
210.5324063367
 20
241.1671156228
 40
116.4481744449
 50
90.8173918451
 51
94.4645725384
  0
ARC
  8
0
 62
40
  6
CONTINUOUS
 10
210.5324063367
 20
241.1671156228
 40
116.4481744449
 50
180.0
 51
180.7767707352
  0
ARC
  8
0
 62
40
  6
CONTINUOUS
 10
210.5324063367
 20
241.1671156228
 40
116.4481744449
 50
197.0379118092
 51
198.7840016344
  0
ARC
  8
0
 62
40
  6
CONTINUOUS
 10
210.5324063367
 20
241.1671156228
 40
116.4481744449
 50
215.0424538812
 51
216.7767707352
  0
ARC
  8
0
 62
40
  6
CONTINUOUS
 10
210.5324063367
 20
241.1671156228
 40
116.4481744449
 50
233.0379118092
 51
234.7840016344
  0
ARC
  8
0
 62
40
  6
CONTINUOUS
 10
210.5324063367
 20
241.1671156228
 40
116.4481744449
 50
251.0424538812
 51
252.7767707352
  0
ARC
  8
0
 62
40
  6
CONTINUOUS
 10
210.5324063367
 20
241.1671156228
 40
116.4481744449
 50
269.0379118092
 51
270.7840016344
  0
ARC
  8
0
 62
40
  6
CONTINUOUS
 10
210.5324063367
 20
241.1671156228
 40
116.4481744449
 50
287.0424538812
 51
288.7767707352
  0
ARC
  8
0
 62
40
  6
CONTINUOUS
 10
210.5324063367
 20
241.1671156228
 40
116.4481744449
 50
305.0379118092
 51
306.7840016344
  0
ARC
  8
0
 62
40
  6
CONTINUOUS
 10
210.5324063367
 20
241.1671156228
 40
116.4481744449
 50
323.0424538812
 51
324.7767707352
  0
ARC
  8
0
 62
40
  6
CONTINUOUS
 10
210.5324063367
 20
241.1671156228
 40
116.4481744449
 50
341.0379118092
 51
342.7840016344
  0
ARC
  8
0
 62
40
  6
CONTINUOUS
 10
210.5324063367
 20
241.1671156228
 40
116.4481744449
 50
359.0424538812
 51
360.0
  0
ARC
  8
0
 62
40
  6
CONTINUOUS
 10
210.5324063367
 20
241.1671156228
 40
116.4481744449
 50
89.0360053794
 51
90.8173918451
  0
CIRCLE
  8
0
 62
7
  6
CONTINUOUS
 10
210.5324063367
 20
241.1671156228
 40
113.9731744449
  0
CIRCLE
  8
0
 62
9
  6
CONTINUOUS
 10
210.5324063367
 20
241.1671156228
 40
111.9731744449
  0
ARC
  8
0
 62
7
  6
CONTINUOUS
 10
262.9333796364
 20
350.7450229793
 40
14.0
 50
108.7803337598
 51
172.6589448352
  0
ARC
  8
0
 62
7
  6
CONTINUOUS
 10
226.5072578724
 20
361.5746897276
 40
14.0
 50
126.7803337598
 51
190.6589448352
  0
ARC
  8
0
 62
7
  6
CONTINUOUS
 10
268.4620490637
 20
355.3773057941
 40
10.0
 50
169.0
 51
234.0
  0
ARC
  8
0
 62
7
  6
CONTINUOUS
 10
230.3338808452
 20
367.6887052932
 40
10.0
 50
187.0
 51
252.0
  0
ARC
  8
0
 62
7
  6
CONTINUOUS
 10
247.0645293949
 20
352.7894280305
 40
2.0
 50
198.8698976458
 51
352.6589448352
  0
ARC
  8
0
 62
7
  6
CONTINUOUS
 10
210.7833285399
 20
358.6152900677
 40
2.0
 50
216.8698976458
 51
10.6589448352
  0
ARC
  8
0
 62
7
  6
CONTINUOUS
 10
258.7481499156
 20
363.0529006267
 40
1.0
 50
349.0
 51
108.7803337598
  0
ARC
  8
0
 62
7
  6
CONTINUOUS
 10
218.7235245165
 20
371.9868698568
 40
1.0
 50
7.0
 51
126.7803337598
  0
ARC
  8
0
 62
7
  6
CONTINUOUS
 10
244.6988908708
 20
351.9808772448
 40
0.5
 50
18.8698976459
 51
72.0
  0
ARC
  8
0
 62
7
  6
CONTINUOUS
 10
329.9833149075
 20
263.1821156228
 40
14.0
 50
54.7803337598
 51
118.6589448352
  0
ARC
  8
0
 62
7
  6
CONTINUOUS
 10
317.3339621792
 20
299.0169855709
 40
14.0
 50
72.7803337598
 51
136.6589448352
  0
ARC
  8
0
 62
7
  6
CONTINUOUS
 10
336.9805807816
 20
261.4321156228
 40
10.0
 50
115.0
 51
180.0
  0
ARC
  8
0
 62
7
  6
CONTINUOUS
 10
324.5295372252
 20
299.5149107367
 40
10.0
 50
133.0
 51
198.0
  0
ARC
  8
0
 62
7
  6
CONTINUOUS
 10
322.3097971946
 20
277.2219562882
 40
2.0
 50
144.8698976458
 51
298.6589448352
  0
ARC
  8
0
 62
7
  6
CONTINUOUS
 10
337.4805807816
 20
273.8024265605
 40
1.0
 50
295.0
 51
54.7803337598
  0
ARC
  8
0
 62
7
  6
CONTINUOUS
 10
326.4805807816
 20
242.9161934196
 40
0.5
 50
306.8698976458
 51
360.0
  0
ARC
  8
0
 62
7
  6
CONTINUOUS
 10
320.2651784314
 20
278.6605438292
 40
0.5
 50
324.8698976458
 51
18.0
  0
ARC
  8
0
 62
7
  6
CONTINUOUS
 10
294.2301290348
 20
329.1891071848
 40
14.0
 50
90.7803337598
 51
154.6589448352
  0
ARC
  8
0
 62
7
  6
CONTINUOUS
 10
300.9196602326
 20
331.8862171318
 40
10.0
 50
151.0
 51
216.0
  0
ARC
  8
0
 62
7
  6
CONTINUOUS
 10
305.6974637914
 20
309.9984201435
 40
2.0
 50
162.8698976458
 51
316.6589448352
  0
ARC
  8
0
 62
7
  6
CONTINUOUS
 10
279.7697115107
 20
336.0371963365
 40
2.0
 50
180.8698976458
 51
334.6589448352
  0
ARC
  8
0
 62
7
  6
CONTINUOUS
 10
321.1824291779
 20
311.4342840597
 40
1.0
 50
313.0
 51
72.7803337598
  0
ARC
  8
0
 62
7
  6
CONTINUOUS
 10
294.0530823944
 20
342.1879015322
 40
1.0
 50
331.0
 51
90.7803337598
  0
ARC
  8
0
 62
7
  6
CONTINUOUS
 10
303.3083677953
 20
310.7347762539
 40
0.5
 50
342.8698976458
 51
36.0
  0
ARC
  8
0
 62
7
  6
CONTINUOUS
 10
277.2699996435
 20
335.9992413495
 40
0.5
 50
0.8698976459
 51
54.0
  0
ARC
  8
0
 62
7
  6
CONTINUOUS
 10
462.5215020814
 20
353.1402900677
 40
2.0
 50
90.0
 51
180.0
  0
ARC
  8
0
 62
7
  6
CONTINUOUS
 10
462.5215020814
 20
129.1939411779
 40
2.0
 50
180.0
 51
270.0
  0
ARC
  8
0
 62
7
  6
CONTINUOUS
 10
491.7215020814
 20
353.1402900677
 40
2.0
 50
0.0
 51
90.0
  0
ARC
  8
0
 62
7
  6
CONTINUOUS
 10
491.7215020814
 20
129.1939411779
 40
2.0
 50
270.0
 51
360.0
  0
ENDSEC
  0
EOF
