  0
SECTION
  2
HEADER
  9
$EXTMAX
 10
594.0
 20
420.0
 30
0.0
  9
$EXTMIN
 10
0.0
 20
0.0
 30
0.0
  9
$LIMMIN
 10
0.0
 20
0.0
  9
$LIMMAX
 10
594.0
 20
420.0
  9
$VIEWCTR
 10
297.0
 20
210.0
  9
$VIEWSIZE
 40
420.0
  9
$CLAYER
  8
0
  9
$LTSCALE
 40
32.67
  9
$CELTYPE
  6
BYLAYER
  9
$DIMSCALE
 40
1.0
  9
$DIMASZ
 40
3.5
  9
$DIMEXO
 40
1.0
  9
$DIMDLI
 40
22.572
  9
$DIMEXE
 40
2.0
  9
$DIMCEN
 40
5.346
  9
$DIMLFAC
 40
1.0
  9
$DIMBLK
  1
_FILLED
  9
$DIMALT
 70
0
  9
$DIMALTF
 40
0.0393700787
  9
$DIMTXT
 40
3.5
  9
$AUNITS
 70
0
  9
$PDMODE
 70
3
  9
$PDSIZE
 40
0.3125
  9
$TILEMODE
 70
1
  0
ENDSEC
  0
SECTION
  2
TABLES
  0
TABLE
  2
LTYPE
 70
6
  0
LTYPE
  2
BYBLOCK
 70
0
  3

 72
65
 73
0
 40
0.0
  0
LTYPE
  2
BYLAYER
 70
0
  3

 72
65
 73
0
 40
0.0
  0
LTYPE
  2
CONTINUOUS
 70
64
  3
Solid line
 72
65
 73
0
 40
0.0
  0
LTYPE
  2
CENTER
 70
64
  3
____ _ ____ _ ____ _ ____ _ ____ _ ____ _ ____
 72
65
 73
4
 40
0.6
 49
0.375
 49
-0.075
 49
0.075
 49
-0.075
  0
LTYPE
  2
HIDDEN
 70
64
  3
- - - - - - - - - - - - - - - - - - - -
 72
65
 73
2
 40
0.2
 49
0.1
 49
-0.1
  0
LTYPE
  2
PHANTOM
 70
64
  3
_____ _ _ _____ _ _ _____ _ _ _____
 72
65
 73
6
 40
0.8
 49
0.45
 49
-0.05
 49
0.1
 49
-0.05
 49
0.1
 49
-0.05
  0
LTYPE
  2
DOT
 70
64
  3
. . . . . . . . . . . . . . . . . . . .
 72
65
 73
2
 40
0.2
 49
0.1
 49
-0.1
  0
LTYPE
  2
DASHED
 70
64
  3
- - - - - - - - - - - - - - - - - - - -
 72
65
 73
2
 40
0.2
 49
0.1
 49
-0.1
  0
ENDTAB
  0
TABLE
  2
LAYER
 70
36
  0
LAYER
  2
0
 70
0
 62
7
  6
CONTINUOUS
  0
LAYER
  2
DEFAULT_1
 70
0
 62
7
  6
CENTER
  0
LAYER
  2
DEFAULT_2
 70
0
 62
8
  6
HIDDEN
  0
LAYER
  2
DEFAULT_3
 70
0
 62
7
  6
PHANTOM
  0
LAYER
  2
1_CSYS
 70
0
 62
7
  6
CONTINUOUS
  0
LAYER
  2
1_DATUM_PLANE
 70
0
 62
7
  6
CONTINUOUS
  0
LAYER
  2
2_FEATURE
 70
0
 62
7
  6
CONTINUOUS
  0
LAYER
  2
6_DIM
 70
0
 62
7
  6
CONTINUOUS
  0
LAYER
  2
AXES
 70
0
 62
7
  6
CONTINUOUS
  0
LAYER
  2
BLANK_CURVE
 70
0
 62
7
  6
CONTINUOUS
  0
LAYER
  2
CSYS
 70
0
 62
7
  6
CONTINUOUS
  0
LAYER
  2
NOTES
 70
0
 62
7
  6
CONTINUOUS
  0
LAYER
  2
PITCH_DIAMETER
 70
0
 62
7
  6
CONTINUOUS
  0
LAYER
  2
PITCH_LINE
 70
0
 62
7
  6
CONTINUOUS
  0
LAYER
  2
PLANES
 70
0
 62
7
  6
CONTINUOUS
  0
LAYER
  2
QUILTS
 70
0
 62
7
  6
CONTINUOUS
  0
ENDTAB
  0
TABLE
  2
STYLE
 70
1
  0
STYLE
  2
STANDARD
 70
0
 40
0.0
 41
0.8
 50
0.0
 71
0
 42
0.2
  3
txt
  4

  0
STYLE
  2
TEXTSTYLE_1
 70
0
 40
0.0
 41
0.8
 50
0.0
 71
0
 42
0.2
  3
gdt
  4

  0
STYLE
  2
TEXTSTYLE_2
 70
0
 40
0.0
 41
0.6
 50
0.0
 71
0
 42
0.2
  3
txt
  4

  0
STYLE
  2
TEXTSTYLE_3
 70
0
 40
0.0
 41
1.0
 50
0.0
 71
0
 42
0.2
  3
ftb_____.ttf
  4

  0
STYLE
  2
TEXTSTYLE_4
 70
0
 40
0.0
 41
1.0
 50
0.0
 71
0
 42
0.2
  3
fti_____.ttf
  4

  0
STYLE
  2
TEXTSTYLE_5
 70
0
 40
0.0
 41
1.0
 50
0.0
 71
0
 42
0.2
  3
frutiger light.ttf
  4

  0
STYLE
  2
TEXTSTYLE_6
 70
0
 40
0.0
 41
0.7
 50
0.0
 71
0
 42
0.2
  3
txt
  4

  0
STYLE
  2
TEXTSTYLE_7
 70
0
 40
0.0
 41
0.6
 50
0.0
 71
0
 42
0.2
  3
txt
  4

  0
ENDTAB
  0
ENDSEC
  0
SECTION
  2
BLOCKS
  0
BLOCK
  8
0
 62
2
  6
CONTINUOUS
  2
UNI_LOGO2_BL1
 70
64
 10
557.4079930916
 20
35.8092573885
  0
TEXT
  8
0
 62
7
  6
CONTINUOUS
 10
548.4662781001
 20
30.9020137655
  7
TEXTSTYLE_4
 40
1.0655737705
  1
The brand for plastic modular belts and chains
 41
1.0
 72
0
  0
LINE
  8
0
 62
7
  6
CONTINUOUS
 10
533.3860614807
 20
36.3830278803
 11
533.3860614807
 21
34.2518803393
  0
LINE
  8
0
 62
7
  6
CONTINUOUS
 10
533.6751239738
 20
31.2609490436
 11
533.6751239738
 21
31.3577401029
  0
LINE
  8
0
 62
7
  6
CONTINUOUS
 10
533.3860614807
 20
31.3254764164
 11
533.4438739824
 21
31.1318942979
  0
LINE
  8
0
 62
7
  6
CONTINUOUS
 10
534.7795041036
 20
34.1699131262
 11
534.7795041036
 21
36.3830278803
  0
LINE
  8
0
 62
7
  6
CONTINUOUS
 10
535.6985614255
 20
32.3256508311
 11
535.6985614255
 21
30.8092573885
  0
LINE
  8
0
 62
7
  6
CONTINUOUS
 10
535.9876239807
 20
30.8092573885
 11
535.9876239807
 21
31.5513222666
  0
LINE
  8
0
 62
7
  6
CONTINUOUS
 10
535.9876239807
 20
31.6803770123
 11
535.9876239807
 21
32.3256508311
  0
LINE
  8
0
 62
7
  6
CONTINUOUS
 10
533.4438739824
 20
31.5190585802
 11
533.3860614807
 21
31.3254764164
  0
LINE
  8
0
 62
7
  6
CONTINUOUS
 10
533.7907489669
 20
31.0996306115
 11
533.6751239738
 21
31.2609490436
  0
LINE
  8
0
 62
7
  6
CONTINUOUS
 10
534.8891865358
 20
31.6158496394
 11
534.9469989807
 21
31.5190585802
  0
LINE
  8
0
 62
7
  6
CONTINUOUS
 10
535.2360615358
 20
31.5190585802
 11
535.1782489255
 21
31.6481133259
  0
LINE
  8
0
 62
7
  6
CONTINUOUS
 10
536.6647500053
 20
36.3830278803
 11
536.6647500053
 21
34.5797491918
  0
LINE
  8
0
 62
7
  6
CONTINUOUS
 10
536.6647500053
 20
33.2682737819
 11
536.6647500053
 21
32.612536077
  0
LINE
  8
0
 62
7
  6
CONTINUOUS
 10
537.0282489807
 20
31.4545312073
 11
537.0282489807
 21
30.8092573885
  0
LINE
  8
0
 62
7
  6
CONTINUOUS
 10
537.3173113704
 20
30.8092573885
 11
537.3173113704
 21
31.4545312073
  0
LINE
  8
0
 62
7
  6
CONTINUOUS
 10
533.6751239738
 20
31.3577401029
 11
533.7329364807
 21
31.4867948937
  0
LINE
  8
0
 62
7
  6
CONTINUOUS
 10
533.4438739824
 20
31.1318942979
 11
533.5594989807
 21
31.0028395296
  0
LINE
  8
0
 62
7
  6
CONTINUOUS
 10
536.9704363704
 20
31.583585953
 11
537.0282489807
 21
31.4545312073
  0
LINE
  8
0
 62
7
  6
CONTINUOUS
 10
537.7798115909
 20
31.0996306115
 11
537.8376238704
 21
30.9705758432
  0
LINE
  8
0
 62
7
  6
CONTINUOUS
 10
537.3173113704
 20
31.4545312073
 11
537.2594990909
 21
31.6158496394
  0
LINE
  8
0
 62
7
  6
CONTINUOUS
 10
537.7798115909
 20
31.6481133259
 11
537.7798115909
 21
31.583585953
  0
LINE
  8
0
 62
7
  6
CONTINUOUS
 10
537.7798115909
 20
31.1964216708
 11
537.7798115909
 21
31.0996306115
  0
LINE
  8
0
 62
7
  6
CONTINUOUS
 10
538.0581926282
 20
32.612536077
 11
538.0581926282
 21
36.3830278803
  0
LINE
  8
0
 62
7
  6
CONTINUOUS
 10
538.0688739807
 20
31.0673669025
 11
538.0688739807
 21
31.1318942979
  0
LINE
  8
0
 62
7
  6
CONTINUOUS
 10
538.3860614807
 20
36.3830278803
 11
538.3860614807
 21
32.612536077
  0
LINE
  8
0
 62
7
  6
CONTINUOUS
 10
535.1782489255
 20
31.0028395296
 11
535.2360615358
 21
31.1318942979
  0
LINE
  8
0
 62
7
  6
CONTINUOUS
 10
539.5719992012
 20
30.9060484591
 11
539.5141862601
 21
31.0673669025
  0
LINE
  8
0
 62
7
  6
CONTINUOUS
 10
539.2251242012
 20
31.583585953
 11
539.2251242012
 21
31.4867948937
  0
LINE
  8
0
 62
7
  6
CONTINUOUS
 10
539.2251242012
 20
31.3577401029
 11
539.2251242012
 21
31.1641579843
  0
LINE
  8
0
 62
7
  6
CONTINUOUS
 10
539.5141862601
 20
31.0673669025
 11
539.5141862601
 21
31.583585953
  0
LINE
  8
0
 62
7
  6
CONTINUOUS
 10
539.7795041036
 20
32.612536077
 11
539.7795041036
 21
34.4158147655
  0
LINE
  8
0
 62
7
  6
CONTINUOUS
 10
539.7795041036
 20
35.7272901754
 11
539.7795041036
 21
36.3830278803
  0
LINE
  8
0
 62
7
  6
CONTINUOUS
 10
540.0923117012
 20
32.3256508311
 11
540.0923117012
 21
32.164332399
  0
LINE
  8
0
 62
7
  6
CONTINUOUS
 10
540.0923117012
 20
31.8416954444
 11
540.0923117012
 21
30.8092573885
  0
LINE
  8
0
 62
7
  6
CONTINUOUS
 10
540.3813737601
 20
30.8092573885
 11
540.3813737601
 21
31.8416954444
  0
LINE
  8
0
 62
7
  6
CONTINUOUS
 10
540.3813737601
 20
32.164332399
 11
540.3813737601
 21
32.3256508311
  0
LINE
  8
0
 62
7
  6
CONTINUOUS
 10
534.9469989807
 20
31.1318942979
 11
534.8891865358
 21
31.035103216
  0
LINE
  8
0
 62
7
  6
CONTINUOUS
 10
537.2594990909
 20
31.6158496394
 11
537.2016864807
 21
31.6803770123
  0
LINE
  8
0
 62
7
  6
CONTINUOUS
 10
538.1266865909
 20
31.0028395296
 11
538.0688739807
 21
31.0673669025
  0
LINE
  8
0
 62
7
  6
CONTINUOUS
 10
539.2829364807
 20
30.873784767
 11
539.3407487601
 21
30.8092573885
  0
LINE
  8
0
 62
7
  6
CONTINUOUS
 10
539.2251242012
 20
30.9705758432
 11
539.2829364807
 21
30.873784767
  0
LINE
  8
0
 62
7
  6
CONTINUOUS
 10
539.6298114807
 20
30.8092573885
 11
539.5719992012
 21
30.9060484591
  0
LINE
  8
0
 62
7
  6
CONTINUOUS
 10
539.5141862601
 20
31.583585953
 11
539.4563739807
 21
31.6803770123
  0
LINE
  8
0
 62
7
  6
CONTINUOUS
 10
540.8438739807
 20
31.8416954444
 11
540.8438739807
 21
30.8092573885
  0
LINE
  8
0
 62
7
  6
CONTINUOUS
 10
541.1329367012
 20
30.8092573885
 11
541.1329367012
 21
31.5513222666
  0
LINE
  8
0
 62
7
  6
CONTINUOUS
 10
541.1329367012
 20
31.6803770123
 11
541.1329367012
 21
31.8416954444
  0
LINE
  8
0
 62
7
  6
CONTINUOUS
 10
541.6647500053
 20
34.8256508311
 11
541.6647500053
 21
32.612536077
  0
LINE
  8
0
 62
7
  6
CONTINUOUS
 10
533.5594989807
 20
31.6481133259
 11
533.4438739824
 21
31.5190585802
  0
LINE
  8
0
 62
7
  6
CONTINUOUS
 10
533.7329364807
 20
31.4867948937
 11
533.7907489669
 21
31.5513222666
  0
LINE
  8
0
 62
7
  6
CONTINUOUS
 10
533.5594989807
 20
31.0028395296
 11
533.6751239738
 21
30.9383121455
  0
LINE
  8
0
 62
7
  6
CONTINUOUS
 10
533.9641864669
 20
31.0028395296
 11
533.7907489669
 21
31.0996306115
  0
LINE
  8
0
 62
7
  6
CONTINUOUS
 10
539.1673112601
 20
31.6481133259
 11
539.2251242012
 21
31.583585953
  0
LINE
  8
0
 62
7
  6
CONTINUOUS
 10
542.1157487601
 20
31.583585953
 11
542.1735617012
 21
31.4222675209
  0
LINE
  8
0
 62
7
  6
CONTINUOUS
 10
542.4626237601
 20
31.4222675209
 11
542.4048114807
 21
31.583585953
  0
LINE
  8
0
 62
7
  6
CONTINUOUS
 10
542.1735617012
 20
31.4222675209
 11
542.1735617012
 21
30.8092573885
  0
LINE
  8
0
 62
7
  6
CONTINUOUS
 10
542.4626237601
 20
30.8092573885
 11
542.4626237601
 21
31.4222675209
  0
LINE
  8
0
 62
7
  6
CONTINUOUS
 10
542.9251239807
 20
31.6481133259
 11
542.9251239807
 21
31.583585953
  0
LINE
  8
0
 62
7
  6
CONTINUOUS
 10
543.0581926282
 20
32.612536077
 11
543.0581926282
 21
34.743683618
  0
LINE
  8
0
 62
7
  6
CONTINUOUS
 10
543.3860614807
 20
36.3830278803
 11
543.3860614807
 21
32.612536077
  0
LINE
  8
0
 62
7
  6
CONTINUOUS
 10
538.0688739807
 20
31.1318942979
 11
538.1266865909
 21
31.2286853572
  0
LINE
  8
0
 62
7
  6
CONTINUOUS
 10
533.6751239738
 20
30.9383121455
 11
533.8485614944
 21
30.873784767
  0
LINE
  8
0
 62
7
  6
CONTINUOUS
 10
535.1782489255
 20
31.6481133259
 11
535.0048114255
 21
31.7449043851
  0
LINE
  8
0
 62
7
  6
CONTINUOUS
 10
537.8376238704
 20
30.9705758432
 11
538.0110613704
 21
30.873784767
  0
LINE
  8
0
 62
7
  6
CONTINUOUS
 10
536.8548114807
 20
31.6481133259
 11
536.9704363704
 21
31.583585953
  0
LINE
  8
0
 62
7
  6
CONTINUOUS
 10
537.2016864807
 20
31.6803770123
 11
537.0860615909
 21
31.7449043851
  0
LINE
  8
0
 62
7
  6
CONTINUOUS
 10
542.9251239807
 20
31.0673669025
 11
543.0407492012
 21
30.9383121455
  0
LINE
  8
0
 62
7
  6
CONTINUOUS
 10
543.2719989807
 20
31.0028395296
 11
543.2141867012
 21
31.0673669025
  0
LINE
  8
0
 62
7
  6
CONTINUOUS
 10
542.9251239807
 20
31.583585953
 11
543.0407492012
 21
31.4545312073
  0
LINE
  8
0
 62
7
  6
CONTINUOUS
 10
542.4048114807
 20
31.583585953
 11
542.3469992012
 21
31.6803770123
  0
LINE
  8
0
 62
7
  6
CONTINUOUS
 10
544.7751235396
 20
31.0028395296
 11
544.7751235396
 21
31.0673669025
  0
LINE
  8
0
 62
7
  6
CONTINUOUS
 10
544.7795041036
 20
32.612536077
 11
544.7795041036
 21
36.3830278803
  0
LINE
  8
0
 62
7
  6
CONTINUOUS
 10
537.8376238704
 20
31.7126406987
 11
537.7798115909
 21
31.6481133259
  0
LINE
  8
0
 62
7
  6
CONTINUOUS
 10
534.7157489531
 20
31.6803770123
 11
534.8891865358
 21
31.6158496394
  0
LINE
  8
0
 62
7
  6
CONTINUOUS
 10
539.4563739807
 20
31.6803770123
 11
539.3407487601
 21
31.7449043851
  0
LINE
  8
0
 62
7
  6
CONTINUOUS
 10
543.2719989807
 20
31.5190585802
 11
543.2141867012
 21
31.583585953
  0
LINE
  8
0
 62
7
  6
CONTINUOUS
 10
544.4282492012
 20
31.1318942979
 11
544.4860614807
 21
31.0673669025
  0
LINE
  8
0
 62
7
  6
CONTINUOUS
 10
544.7751235396
 20
31.0673669025
 11
544.6594989807
 21
31.1964216708
  0
LINE
  8
0
 62
7
  6
CONTINUOUS
 10
544.4282492012
 20
31.6481133259
 11
544.4860614807
 21
31.583585953
  0
LINE
  8
0
 62
7
  6
CONTINUOUS
 10
544.7751235396
 20
31.583585953
 11
544.6594989807
 21
31.7126406987
  0
LINE
  8
0
 62
7
  6
CONTINUOUS
 10
538.0688739807
 20
31.583585953
 11
538.1266865909
 21
31.6481133259
  0
LINE
  8
0
 62
7
  6
CONTINUOUS
 10
537.8954364807
 20
31.3254764164
 11
537.7798115909
 21
31.1964216708
  0
LINE
  8
0
 62
7
  6
CONTINUOUS
 10
539.2251242012
 20
31.1641579843
 11
539.1673112601
 21
31.0996306115
  0
LINE
  8
0
 62
7
  6
CONTINUOUS
 10
539.1673112601
 20
30.9060484591
 11
539.2251242012
 21
30.9705758432
  0
LINE
  8
0
 62
7
  6
CONTINUOUS
 10
538.0110613704
 20
30.873784767
 11
538.1266865909
 21
30.8415210777
  0
LINE
  8
0
 62
7
  6
CONTINUOUS
 10
535.0048114255
 20
31.7449043851
 11
534.7735614807
 21
31.809431758
  0
LINE
  8
0
 62
7
  6
CONTINUOUS
 10
538.3579363704
 20
30.9383121455
 11
538.1266865909
 21
31.0028395296
  0
LINE
  8
0
 62
7
  6
CONTINUOUS
 10
537.0860615909
 20
31.7449043851
 11
536.9126240909
 21
31.809431758
  0
LINE
  8
0
 62
7
  6
CONTINUOUS
 10
539.3407487601
 20
31.7449043851
 11
539.1673112601
 21
31.809431758
  0
LINE
  8
0
 62
7
  6
CONTINUOUS
 10
542.0001242012
 20
31.6481133259
 11
542.1157487601
 21
31.583585953
  0
LINE
  8
0
 62
7
  6
CONTINUOUS
 10
542.3469992012
 20
31.6803770123
 11
542.2313739807
 21
31.7449043851
  0
LINE
  8
0
 62
7
  6
CONTINUOUS
 10
533.8485614944
 20
30.873784767
 11
534.0219989944
 21
30.8415210777
  0
LINE
  8
0
 62
7
  6
CONTINUOUS
 10
534.3110615082
 20
30.9383121455
 11
533.9641864669
 21
31.0028395296
  0
LINE
  8
0
 62
7
  6
CONTINUOUS
 10
536.7391865909
 20
31.6803770123
 11
536.8548114807
 21
31.6481133259
  0
LINE
  8
0
 62
7
  6
CONTINUOUS
 10
539.0516867012
 20
31.6803770123
 11
539.1673112601
 21
31.6481133259
  0
LINE
  8
0
 62
7
  6
CONTINUOUS
 10
543.3876242012
 20
30.9705758432
 11
543.2719989807
 21
31.0028395296
  0
LINE
  8
0
 62
7
  6
CONTINUOUS
 10
541.8844989807
 20
31.6803770123
 11
542.0001242012
 21
31.6481133259
  0
LINE
  8
0
 62
7
  6
CONTINUOUS
 10
543.0407492012
 20
30.9383121455
 11
543.2141867012
 21
30.873784767
  0
LINE
  8
0
 62
7
  6
CONTINUOUS
 10
542.2313739807
 20
31.7449043851
 11
542.0579364807
 21
31.809431758
  0
LINE
  8
0
 62
7
  6
CONTINUOUS
 10
543.4454364807
 20
31.4545312073
 11
543.2719989807
 21
31.5190585802
  0
LINE
  8
0
 62
7
  6
CONTINUOUS
 10
544.2548117012
 20
31.1964216708
 11
544.4282492012
 21
31.1318942979
  0
LINE
  8
0
 62
7
  6
CONTINUOUS
 10
544.6594989807
 20
31.7126406987
 11
544.4860614807
 21
31.7771680715
  0
LINE
  8
0
 62
7
  6
CONTINUOUS
 10
543.0407492012
 20
31.4545312073
 11
543.2719989807
 21
31.3577401029
  0
LINE
  8
0
 62
7
  6
CONTINUOUS
 10
544.6594989807
 20
31.1964216708
 11
544.4282492012
 21
31.29321273
  0
LINE
  8
0
 62
7
  6
CONTINUOUS
 10
543.2141867012
 20
31.583585953
 11
543.2719989807
 21
31.6481133259
  0
LINE
  8
0
 62
7
  6
CONTINUOUS
 10
533.6751239738
 20
31.7126406987
 11
533.5594989807
 21
31.6481133259
  0
LINE
  8
0
 62
7
  6
CONTINUOUS
 10
533.7907489669
 20
31.5513222666
 11
533.9641864669
 21
31.6481133259
  0
LINE
  8
0
 62
7
  6
CONTINUOUS
 10
536.1032490358
 20
31.7449043851
 11
535.9876239807
 21
31.6803770123
  0
LINE
  8
0
 62
7
  6
CONTINUOUS
 10
535.9876239807
 20
31.5513222666
 11
536.1032490358
 21
31.6158496394
  0
LINE
  8
0
 62
7
  6
CONTINUOUS
 10
535.0048114255
 20
30.9060484591
 11
535.1782489255
 21
31.0028395296
  0
LINE
  8
0
 62
7
  6
CONTINUOUS
 10
534.0219989944
 20
30.8415210777
 11
534.3688739531
 21
30.8092573885
  0
LINE
  8
0
 62
7
  6
CONTINUOUS
 10
538.1266865909
 20
30.8415210777
 11
538.3579363704
 21
30.8092573885
  0
LINE
  8
0
 62
7
  6
CONTINUOUS
 10
536.5079364807
 20
31.7126406987
 11
536.7391865909
 21
31.6803770123
  0
LINE
  8
0
 62
7
  6
CONTINUOUS
 10
538.8204365909
 20
31.7126406987
 11
539.0516867012
 21
31.6803770123
  0
LINE
  8
0
 62
7
  6
CONTINUOUS
 10
543.2719989807
 20
31.3577401029
 11
544.2548117012
 21
31.1964216708
  0
LINE
  8
0
 62
7
  6
CONTINUOUS
 10
544.4282492012
 20
31.29321273
 11
543.4454364807
 21
31.4545312073
  0
LINE
  8
0
 62
7
  6
CONTINUOUS
 10
536.9126240909
 20
31.809431758
 11
536.7391865909
 21
31.8416954444
  0
LINE
  8
0
 62
7
  6
CONTINUOUS
 10
543.2141867012
 20
30.873784767
 11
543.3876242012
 21
30.8415210777
  0
LINE
  8
0
 62
7
  6
CONTINUOUS
 10
542.0579364807
 20
31.809431758
 11
541.8844989807
 21
31.8416954444
  0
LINE
  8
0
 62
7
  6
CONTINUOUS
 10
544.3126239807
 20
31.6803770123
 11
544.4282492012
 21
31.6481133259
  0
LINE
  8
0
 62
7
  6
CONTINUOUS
 10
544.4860614807
 20
31.0673669025
 11
544.4282492012
 21
31.0028395296
  0
LINE
  8
0
 62
7
  6
CONTINUOUS
 10
543.0407492012
 20
31.7449043851
 11
542.9251239807
 21
31.6481133259
  0
LINE
  8
0
 62
7
  6
CONTINUOUS
 10
537.9532490909
 20
31.7771680715
 11
537.8376238704
 21
31.7126406987
  0
LINE
  8
0
 62
7
  6
CONTINUOUS
 10
538.0110613704
 20
31.3900038345
 11
537.8954364807
 21
31.3254764164
  0
LINE
  8
0
 62
7
  6
CONTINUOUS
 10
538.1266865909
 20
31.2286853572
 11
538.2423114807
 21
31.29321273
  0
LINE
  8
0
 62
7
  6
CONTINUOUS
 10
535.6985614255
 20
30.8092573885
 11
535.9876239807
 21
30.8092573885
  0
LINE
  8
0
 62
7
  6
CONTINUOUS
 10
537.0282489807
 20
30.8092573885
 11
537.3173113704
 21
30.8092573885
  0
LINE
  8
0
 62
7
  6
CONTINUOUS
 10
538.3579363704
 20
30.8092573885
 11
538.7048113704
 21
30.8092573885
  0
LINE
  8
0
 62
7
  6
CONTINUOUS
 10
539.3407487601
 20
30.8092573885
 11
539.6298114807
 21
30.8092573885
  0
LINE
  8
0
 62
7
  6
CONTINUOUS
 10
540.0923117012
 20
30.8092573885
 11
540.3813737601
 21
30.8092573885
  0
LINE
  8
0
 62
7
  6
CONTINUOUS
 10
540.8438739807
 20
30.8092573885
 11
541.1329367012
 21
30.8092573885
  0
LINE
  8
0
 62
7
  6
CONTINUOUS
 10
542.1735617012
 20
30.8092573885
 11
542.4626237601
 21
30.8092573885
  0
LINE
  8
0
 62
7
  6
CONTINUOUS
 10
543.7344992012
 20
30.8092573885
 11
544.0813742012
 21
30.8092573885
  0
LINE
  8
0
 62
7
  6
CONTINUOUS
 10
544.0813742012
 20
30.9383121455
 11
543.7344992012
 21
30.9383121455
  0
LINE
  8
0
 62
7
  6
CONTINUOUS
 10
538.7048113704
 20
30.9383121455
 11
538.3579363704
 21
30.9383121455
  0
LINE
  8
0
 62
7
  6
CONTINUOUS
 10
543.2141867012
 20
31.0673669025
 11
542.9251239807
 21
31.0673669025
  0
LINE
  8
0
 62
7
  6
CONTINUOUS
 10
535.2360615358
 20
31.1318942979
 11
534.9469989807
 21
31.1318942979
  0
LINE
  8
0
 62
7
  6
CONTINUOUS
 10
534.3110615082
 20
31.7126406987
 11
534.7157489531
 21
31.6803770123
  0
LINE
  8
0
 62
7
  6
CONTINUOUS
 10
534.7735614807
 20
31.809431758
 11
534.3688739531
 21
31.8416954444
  0
LINE
  8
0
 62
7
  6
CONTINUOUS
 10
543.3876242012
 20
30.8415210777
 11
543.7344992012
 21
30.8092573885
  0
LINE
  8
0
 62
7
  6
CONTINUOUS
 10
543.7344992012
 20
30.9383121455
 11
543.3876242012
 21
30.9705758432
  0
LINE
  8
0
 62
7
  6
CONTINUOUS
 10
539.1673112601
 20
31.809431758
 11
538.8204365909
 21
31.8416954444
  0
LINE
  8
0
 62
7
  6
CONTINUOUS
 10
543.9657489807
 20
31.7126406987
 11
544.3126239807
 21
31.6803770123
  0
LINE
  8
0
 62
7
  6
CONTINUOUS
 10
544.3126239807
 20
31.809431758
 11
543.9657489807
 21
31.8416954444
  0
LINE
  8
0
 62
7
  6
CONTINUOUS
 10
541.6532492012
 20
31.7126406987
 11
541.8844989807
 21
31.6803770123
  0
LINE
  8
0
 62
7
  6
CONTINUOUS
 10
544.4860614807
 20
31.7771680715
 11
544.3126239807
 21
31.809431758
  0
LINE
  8
0
 62
7
  6
CONTINUOUS
 10
544.6594989807
 20
30.9060484591
 11
544.7751235396
 21
31.0028395296
  0
LINE
  8
0
 62
7
  6
CONTINUOUS
 10
539.1673112601
 20
31.0996306115
 11
538.9938737601
 21
31.0028395296
  0
LINE
  8
0
 62
7
  6
CONTINUOUS
 10
541.2485612601
 20
31.7449043851
 11
541.1329367012
 21
31.6803770123
  0
LINE
  8
0
 62
7
  6
CONTINUOUS
 10
541.1329367012
 20
31.5513222666
 11
541.2485612601
 21
31.6158496394
  0
LINE
  8
0
 62
7
  6
CONTINUOUS
 10
533.8485614944
 20
31.7771680715
 11
533.6751239738
 21
31.7126406987
  0
LINE
  8
0
 62
7
  6
CONTINUOUS
 10
536.2766863704
 20
31.809431758
 11
536.1032490358
 21
31.7449043851
  0
LINE
  8
0
 62
7
  6
CONTINUOUS
 10
536.1032490358
 20
31.6158496394
 11
536.2766863704
 21
31.6803770123
  0
LINE
  8
0
 62
7
  6
CONTINUOUS
 10
534.8891865358
 20
31.035103216
 11
534.7157489531
 21
30.9705758432
  0
LINE
  8
0
 62
7
  6
CONTINUOUS
 10
544.3126239807
 20
30.9705758432
 11
544.0813742012
 21
30.9383121455
  0
LINE
  8
0
 62
7
  6
CONTINUOUS
 10
538.7048113704
 20
30.8092573885
 11
538.9938737601
 21
30.8415210777
  0
LINE
  8
0
 62
7
  6
CONTINUOUS
 10
544.0813742012
 20
30.8092573885
 11
544.4282492012
 21
30.8415210777
  0
LINE
  8
0
 62
7
  6
CONTINUOUS
 10
534.3688739531
 20
30.8092573885
 11
534.7735614807
 21
30.8415210777
  0
LINE
  8
0
 62
7
  6
CONTINUOUS
 10
534.7157489531
 20
30.9705758432
 11
534.3110615082
 21
30.9383121455
  0
LINE
  8
0
 62
7
  6
CONTINUOUS
 10
538.5891864807
 20
31.3577401029
 11
539.2251242012
 21
31.3577401029
  0
LINE
  8
0
 62
7
  6
CONTINUOUS
 10
539.2251242012
 20
31.4867948937
 11
538.5891864807
 21
31.4867948937
  0
LINE
  8
0
 62
7
  6
CONTINUOUS
 10
534.9469989807
 20
31.5190585802
 11
535.2360615358
 21
31.5190585802
  0
LINE
  8
0
 62
7
  6
CONTINUOUS
 10
537.7798115909
 20
31.583585953
 11
538.0688739807
 21
31.583585953
  0
LINE
  8
0
 62
7
  6
CONTINUOUS
 10
544.4860614807
 20
31.583585953
 11
544.7751235396
 21
31.583585953
  0
LINE
  8
0
 62
7
  6
CONTINUOUS
 10
538.4735615909
 20
31.7126406987
 11
538.8204365909
 21
31.7126406987
  0
LINE
  8
0
 62
7
  6
CONTINUOUS
 10
543.6188739807
 20
31.7126406987
 11
543.9657489807
 21
31.7126406987
  0
LINE
  8
0
 62
7
  6
CONTINUOUS
 10
543.9657489807
 20
31.8416954444
 11
543.6188739807
 21
31.8416954444
  0
LINE
  8
0
 62
7
  6
CONTINUOUS
 10
541.8844989807
 20
31.8416954444
 11
541.6532492012
 21
31.8416954444
  0
LINE
  8
0
 62
7
  6
CONTINUOUS
 10
541.1329367012
 20
31.8416954444
 11
540.8438739807
 21
31.8416954444
  0
LINE
  8
0
 62
7
  6
CONTINUOUS
 10
540.3813737601
 20
31.8416954444
 11
540.0923117012
 21
31.8416954444
  0
LINE
  8
0
 62
7
  6
CONTINUOUS
 10
538.8204365909
 20
31.8416954444
 11
538.4735615909
 21
31.8416954444
  0
LINE
  8
0
 62
7
  6
CONTINUOUS
 10
536.7391865909
 20
31.8416954444
 11
536.5079364807
 21
31.8416954444
  0
LINE
  8
0
 62
7
  6
CONTINUOUS
 10
540.0923117012
 20
32.164332399
 11
540.3813737601
 21
32.164332399
  0
LINE
  8
0
 62
7
  6
CONTINUOUS
 10
540.3813737601
 20
32.3256508311
 11
540.0923117012
 21
32.3256508311
  0
LINE
  8
0
 62
7
  6
CONTINUOUS
 10
535.9876239807
 20
32.3256508311
 11
535.6985614255
 21
32.3256508311
  0
LINE
  8
0
 62
7
  6
CONTINUOUS
 10
535.025405743
 20
32.612536077
 11
535.4379770916
 21
32.612536077
  0
LINE
  8
0
 62
7
  6
CONTINUOUS
 10
536.6647500053
 20
32.612536077
 11
538.0581926282
 21
32.612536077
  0
LINE
  8
0
 62
7
  6
CONTINUOUS
 10
538.3860614807
 20
32.612536077
 11
539.7795041036
 21
32.612536077
  0
LINE
  8
0
 62
7
  6
CONTINUOUS
 10
541.6647500053
 20
32.612536077
 11
543.0581926282
 21
32.612536077
  0
LINE
  8
0
 62
7
  6
CONTINUOUS
 10
543.3860614807
 20
32.612536077
 11
544.7795041036
 21
32.612536077
  0
LINE
  8
0
 62
7
  6
CONTINUOUS
 10
541.4219987601
 20
31.809431758
 11
541.2485612601
 21
31.7449043851
  0
LINE
  8
0
 62
7
  6
CONTINUOUS
 10
538.9938737601
 20
30.8415210777
 11
539.1673112601
 21
30.9060484591
  0
LINE
  8
0
 62
7
  6
CONTINUOUS
 10
544.4282492012
 20
30.8415210777
 11
544.6594989807
 21
30.9060484591
  0
LINE
  8
0
 62
7
  6
CONTINUOUS
 10
544.4282492012
 20
31.0028395296
 11
544.3126239807
 21
30.9705758432
  0
LINE
  8
0
 62
7
  6
CONTINUOUS
 10
543.3876242012
 20
31.6803770123
 11
543.6188739807
 21
31.7126406987
  0
LINE
  8
0
 62
7
  6
CONTINUOUS
 10
541.4219987601
 20
31.6803770123
 11
541.6532492012
 21
31.7126406987
  0
LINE
  8
0
 62
7
  6
CONTINUOUS
 10
538.3579363704
 20
31.3254764164
 11
538.5891864807
 21
31.3577401029
  0
LINE
  8
0
 62
7
  6
CONTINUOUS
 10
541.6532492012
 20
31.8416954444
 11
541.4219987601
 21
31.809431758
  0
LINE
  8
0
 62
7
  6
CONTINUOUS
 10
538.2423114807
 20
31.6803770123
 11
538.4735615909
 21
31.7126406987
  0
LINE
  8
0
 62
7
  6
CONTINUOUS
 10
543.6188739807
 20
31.8416954444
 11
543.2719989807
 21
31.809431758
  0
LINE
  8
0
 62
7
  6
CONTINUOUS
 10
538.5891864807
 20
31.4867948937
 11
538.2423114807
 21
31.4545312073
  0
LINE
  8
0
 62
7
  6
CONTINUOUS
 10
534.3688739531
 20
31.8416954444
 11
534.0219989944
 21
31.809431758
  0
LINE
  8
0
 62
7
  6
CONTINUOUS
 10
538.4735615909
 20
31.8416954444
 11
538.0688739807
 21
31.809431758
  0
LINE
  8
0
 62
7
  6
CONTINUOUS
 10
535.8450778741
 20
33.7600770606
 11
535.1893401692
 21
33.7600770606
  0
LINE
  8
0
 62
7
  6
CONTINUOUS
 10
541.2485612601
 20
31.6158496394
 11
541.4219987601
 21
31.6803770123
  0
LINE
  8
0
 62
7
  6
CONTINUOUS
 10
543.2719989807
 20
31.6481133259
 11
543.3876242012
 21
31.6803770123
  0
LINE
  8
0
 62
7
  6
CONTINUOUS
 10
543.2719989807
 20
31.809431758
 11
543.0407492012
 21
31.7449043851
  0
LINE
  8
0
 62
7
  6
CONTINUOUS
 10
538.9938737601
 20
31.0028395296
 11
538.7048113704
 21
30.9383121455
  0
LINE
  8
0
 62
7
  6
CONTINUOUS
 10
536.2766863704
 20
31.6803770123
 11
536.5079364807
 21
31.7126406987
  0
LINE
  8
0
 62
7
  6
CONTINUOUS
 10
536.5079364807
 20
31.8416954444
 11
536.2766863704
 21
31.809431758
  0
LINE
  8
0
 62
7
  6
CONTINUOUS
 10
534.0798114807
 20
31.6803770123
 11
534.3110615082
 21
31.7126406987
  0
LINE
  8
0
 62
7
  6
CONTINUOUS
 10
540.5991762348
 20
35.2354868967
 11
541.2549139397
 21
35.2354868967
  0
LINE
  8
0
 62
7
  6
CONTINUOUS
 10
538.2423114807
 20
31.29321273
 11
538.3579363704
 21
31.3254764164
  0
LINE
  8
0
 62
7
  6
CONTINUOUS
 10
538.2423114807
 20
31.4545312073
 11
538.0110613704
 21
31.3900038345
  0
LINE
  8
0
 62
7
  6
CONTINUOUS
 10
538.1266865909
 20
31.6481133259
 11
538.2423114807
 21
31.6803770123
  0
LINE
  8
0
 62
7
  6
CONTINUOUS
 10
534.7735614807
 20
30.8415210777
 11
535.0048114255
 21
30.9060484591
  0
LINE
  8
0
 62
7
  6
CONTINUOUS
 10
538.0688739807
 20
31.809431758
 11
537.9532490909
 21
31.7771680715
  0
LINE
  8
0
 62
7
  6
CONTINUOUS
 10
534.0219989944
 20
31.809431758
 11
533.8485614944
 21
31.7771680715
  0
LINE
  8
0
 62
7
  6
CONTINUOUS
 10
544.7795041036
 20
36.3830278803
 11
543.3860614807
 21
36.3830278803
  0
LINE
  8
0
 62
7
  6
CONTINUOUS
 10
541.4188483659
 20
36.3830278803
 11
541.0062770173
 21
36.3830278803
  0
LINE
  8
0
 62
7
  6
CONTINUOUS
 10
539.7795041036
 20
36.3830278803
 11
538.3860614807
 21
36.3830278803
  0
LINE
  8
0
 62
7
  6
CONTINUOUS
 10
538.0581926282
 20
36.3830278803
 11
536.6647500053
 21
36.3830278803
  0
LINE
  8
0
 62
7
  6
CONTINUOUS
 10
534.7795041036
 20
36.3830278803
 11
533.3860614807
 21
36.3830278803
  0
LINE
  8
0
 62
7
  6
CONTINUOUS
 10
533.9641864669
 20
31.6481133259
 11
534.0798114807
 21
31.6803770123
  0
CIRCLE
  8
0
 62
7
  6
CONTINUOUS
 10
544.0827827921
 20
38.7190934541
 40
2.0901639344
  0
ARC
  8
0
 62
7
  6
CONTINUOUS
 10
535.025405743
 20
34.2518803393
 40
1.6393442623
 50
180.0
 51
270.0
  0
ARC
  8
0
 62
7
  6
CONTINUOUS
 10
541.4188483659
 20
34.743683618
 40
1.6393442623
 50
0.0
 51
90.0
  0
ARC
  8
0
 62
7
  6
CONTINUOUS
 10
535.4379770916
 20
34.0879459131
 40
1.4754098361
 50
270.0
 51
326.2510114041
  0
ARC
  8
0
 62
7
  6
CONTINUOUS
 10
541.0062770173
 20
34.9076180442
 40
1.4754098361
 50
90.0
 51
146.2510114041
  0
ARC
  8
0
 62
7
  6
CONTINUOUS
 10
535.8450778741
 20
34.5797491918
 40
0.8196721311
 50
270.0
 51
360.0
  0
ARC
  8
0
 62
7
  6
CONTINUOUS
 10
540.5991762348
 20
34.4158147655
 40
0.8196721311
 50
90.0
 51
180.0
  0
ARC
  8
0
 62
7
  6
CONTINUOUS
 10
535.1893401692
 20
34.1699131262
 40
0.4098360656
 50
180.0
 51
270.0
  0
ARC
  8
0
 62
7
  6
CONTINUOUS
 10
541.2549139397
 20
34.8256508311
 40
0.4098360656
 50
0.0
 51
90.0
  0
SOLID
  8
0
 62
7
  6
CONTINUOUS
 10
540.0923117012
 20
32.1643327593
 11
540.0923117012
 21
32.3256512429
 12
540.3813737601
 22
32.1643327593
 13
540.3813737601
 23
32.3256512429
  0
SOLID
  8
0
 62
7
  6
CONTINUOUS
 10
534.3688739531
 20
31.841695792
 11
534.7735614807
 21
31.8094316148
 12
534.0219989944
 22
31.8094316148
 13
534.0219989944
 23
31.8094316148
  0
SOLID
  8
0
 62
7
  6
CONTINUOUS
 10
533.8485614944
 20
31.7771687019
 11
534.0219989944
 21
31.8094316148
 12
534.7735614807
 22
31.8094316148
 13
534.7735614807
 23
31.8094316148
  0
SOLID
  8
0
 62
7
  6
CONTINUOUS
 10
534.7735614807
 20
31.8094316148
 11
535.0048114255
 21
31.7449043986
 12
533.8485614944
 22
31.7771687019
 13
533.8485614944
 23
31.7771687019
  0
SOLID
  8
0
 62
7
  6
CONTINUOUS
 10
533.6751239738
 20
31.712640202
 11
533.8485614944
 21
31.7771687019
 12
535.0048114255
 22
31.7449043986
 13
535.0048114255
 23
31.7449043986
  0
SOLID
  8
0
 62
7
  6
CONTINUOUS
 10
533.6751239738
 20
31.712640202
 11
535.0048114255
 21
31.7449043986
 12
534.3110615082
 22
31.712640202
 13
534.3110615082
 23
31.712640202
  0
SOLID
  8
0
 62
7
  6
CONTINUOUS
 10
534.3110615082
 20
31.712640202
 11
535.0048114255
 21
31.7449043986
 12
534.7157489531
 22
31.6803773084
 13
534.7157489531
 23
31.6803773084
  0
SOLID
  8
0
 62
7
  6
CONTINUOUS
 10
535.0048114255
 20
31.7449043986
 11
535.1782489255
 21
31.6481130052
 12
534.7157489531
 22
31.6803773084
 13
534.7157489531
 23
31.6803773084
  0
SOLID
  8
0
 62
7
  6
CONTINUOUS
 10
534.8891865358
 20
31.6158502183
 11
534.7157489531
 21
31.6803773084
 12
535.1782489255
 22
31.6481130052
 13
535.1782489255
 23
31.6481130052
  0
SOLID
  8
0
 62
7
  6
CONTINUOUS
 10
534.8891865358
 20
31.6158502183
 11
535.1782489255
 21
31.6481130052
 12
534.9469989807
 22
31.5190586669
 13
534.9469989807
 23
31.5190586669
  0
SOLID
  8
0
 62
7
  6
CONTINUOUS
 10
535.1782489255
 20
31.6481130052
 11
535.2360615358
 21
31.5190586669
 12
534.9469989807
 22
31.5190586669
 13
534.9469989807
 23
31.5190586669
  0
SOLID
  8
0
 62
7
  6
CONTINUOUS
 10
536.2766863704
 20
31.8094307377
 11
536.5079364807
 21
31.841695041
 12
536.7391865909
 22
31.841695041
 13
536.7391865909
 23
31.841695041
  0
SOLID
  8
0
 62
7
  6
CONTINUOUS
 10
536.7391865909
 20
31.841695041
 11
536.9126240909
 21
31.8094307377
 12
536.2766863704
 22
31.8094307377
 13
536.2766863704
 23
31.8094307377
  0
SOLID
  8
0
 62
7
  6
CONTINUOUS
 10
536.1032490358
 20
31.7449036475
 11
536.2766863704
 21
31.8094307377
 12
536.9126240909
 22
31.8094307377
 13
536.9126240909
 23
31.8094307377
  0
SOLID
  8
0
 62
7
  6
CONTINUOUS
 10
536.9126240909
 20
31.8094307377
 11
537.0860615909
 21
31.7449036475
 12
536.1032490358
 22
31.7449036475
 13
536.1032490358
 23
31.7449036475
  0
SOLID
  8
0
 62
7
  6
CONTINUOUS
 10
537.0860615909
 20
31.7449036475
 11
536.5079364807
 21
31.7126400953
 12
536.1032490358
 22
31.7449036475
 13
536.1032490358
 23
31.7449036475
  0
SOLID
  8
0
 62
7
  6
CONTINUOUS
 10
535.9876239807
 20
31.6803765574
 11
536.1032490358
 21
31.7449036475
 12
536.5079364807
 22
31.7126400953
 13
536.5079364807
 23
31.7126400953
  0
SOLID
  8
0
 62
7
  6
CONTINUOUS
 10
536.5079364807
 20
31.7126400953
 11
536.2766863704
 21
31.6803765574
 12
535.9876239807
 22
31.6803765574
 13
535.9876239807
 23
31.6803765574
  0
SOLID
  8
0
 62
7
  6
CONTINUOUS
 10
536.5079364807
 20
31.7126400953
 11
537.0860615909
 21
31.7449036475
 12
536.7391865909
 22
31.6803765574
 13
536.7391865909
 23
31.6803765574
  0
SOLID
  8
0
 62
7
  6
CONTINUOUS
 10
537.0860615909
 20
31.7449036475
 11
537.2016864807
 21
31.6803765574
 12
536.7391865909
 22
31.6803765574
 13
536.7391865909
 23
31.6803765574
  0
SOLID
  8
0
 62
7
  6
CONTINUOUS
 10
536.8548114807
 20
31.6481130052
 11
536.7391865909
 21
31.6803765574
 12
537.2016864807
 22
31.6803765574
 13
537.2016864807
 23
31.6803765574
  0
SOLID
  8
0
 62
7
  6
CONTINUOUS
 10
537.2016864807
 20
31.6803765574
 11
537.2594990909
 21
31.6158494672
 12
536.8548114807
 22
31.6481130052
 13
536.8548114807
 23
31.6481130052
  0
SOLID
  8
0
 62
7
  6
CONTINUOUS
 10
536.9704363704
 20
31.583585915
 11
536.8548114807
 21
31.6481130052
 12
537.2594990909
 22
31.6158494672
 13
537.2594990909
 23
31.6158494672
  0
SOLID
  8
0
 62
7
  6
CONTINUOUS
 10
536.9704363704
 20
31.583585915
 11
537.2594990909
 21
31.6158494672
 12
537.0282489807
 22
31.4545309836
 13
537.0282489807
 23
31.4545309836
  0
SOLID
  8
0
 62
7
  6
CONTINUOUS
 10
537.2594990909
 20
31.6158494672
 11
537.3173113704
 21
31.4545309836
 12
537.0282489807
 22
31.4545309836
 13
537.0282489807
 23
31.4545309836
  0
SOLID
  8
0
 62
7
  6
CONTINUOUS
 10
536.2766863704
 20
31.6803765574
 11
536.1032490358
 21
31.6158494672
 12
535.9876239807
 22
31.6803765574
 13
535.9876239807
 23
31.6803765574
  0
SOLID
  8
0
 62
7
  6
CONTINUOUS
 10
536.1032490358
 20
31.6158494672
 11
535.9876239807
 21
31.5513216117
 12
535.9876239807
 22
31.6803765574
 13
535.9876239807
 23
31.6803765574
  0
SOLID
  8
0
 62
7
  6
CONTINUOUS
 10
535.9876239807
 20
31.5513216117
 11
535.6985614255
 21
30.8092570492
 12
535.9876239807
 22
31.6803765574
 13
535.9876239807
 23
31.6803765574
  0
SOLID
  8
0
 62
7
  6
CONTINUOUS
 10
535.9876239807
 20
31.6803765574
 11
535.6985614255
 21
30.8092570492
 12
535.9876239807
 22
32.3256504918
 13
535.9876239807
 23
32.3256504918
  0
SOLID
  8
0
 62
7
  6
CONTINUOUS
 10
535.6985614255
 20
30.8092570492
 11
535.6985614255
 21
32.3256504918
 12
535.9876239807
 22
32.3256504918
 13
535.9876239807
 23
32.3256504918
  0
SOLID
  8
0
 62
7
  6
CONTINUOUS
 10
535.9876239807
 20
31.5513216117
 11
535.9876239807
 21
30.8092570492
 12
535.6985614255
 22
30.8092570492
 13
535.6985614255
 23
30.8092570492
  0
SOLID
  8
0
 62
7
  6
CONTINUOUS
 10
537.0282489807
 20
30.8092570492
 11
537.0282489807
 21
31.4545309836
 12
537.3173113704
 22
31.4545309836
 13
537.3173113704
 23
31.4545309836
  0
SOLID
  8
0
 62
7
  6
CONTINUOUS
 10
537.3173113704
 20
31.4545309836
 11
537.3173113704
 21
30.8092570492
 12
537.0282489807
 22
30.8092570492
 13
537.0282489807
 23
30.8092570492
  0
SOLID
  8
0
 62
7
  6
CONTINUOUS
 10
538.0688739807
 20
31.809431823
 11
538.4735615909
 21
31.8416958158
 12
538.8204365909
 22
31.8416958158
 13
538.8204365909
 23
31.8416958158
  0
SOLID
  8
0
 62
7
  6
CONTINUOUS
 10
538.8204365909
 20
31.8416958158
 11
539.1673112601
 21
31.809431823
 12
538.0688739807
 22
31.809431823
 13
538.0688739807
 23
31.809431823
  0
SOLID
  8
0
 62
7
  6
CONTINUOUS
 10
537.9532490909
 20
31.7771687019
 11
538.0688739807
 21
31.809431823
 12
539.1673112601
 22
31.809431823
 13
539.1673112601
 23
31.809431823
  0
SOLID
  8
0
 62
7
  6
CONTINUOUS
 10
539.1673112601
 20
31.809431823
 11
539.3407487601
 21
31.7449043986
 12
537.9532490909
 22
31.7771687019
 13
537.9532490909
 23
31.7771687019
  0
SOLID
  8
0
 62
7
  6
CONTINUOUS
 10
537.8376238704
 20
31.7126398448
 11
537.9532490909
 21
31.7771687019
 12
539.3407487601
 22
31.7449043986
 13
539.3407487601
 23
31.7449043986
  0
SOLID
  8
0
 62
7
  6
CONTINUOUS
 10
537.8376238704
 20
31.7126398448
 11
539.3407487601
 21
31.7449043986
 12
538.4735615909
 22
31.7126398448
 13
538.4735615909
 23
31.7126398448
  0
SOLID
  8
0
 62
7
  6
CONTINUOUS
 10
538.4735615909
 20
31.7126398448
 11
539.3407487601
 21
31.7449043986
 12
538.8204365909
 22
31.7126398448
 13
538.8204365909
 23
31.7126398448
  0
SOLID
  8
0
 62
7
  6
CONTINUOUS
 10
538.8204365909
 20
31.7126398448
 11
539.3407487601
 21
31.7449043986
 12
539.0516867012
 22
31.6803774007
 13
539.0516867012
 23
31.6803774007
  0
SOLID
  8
0
 62
7
  6
CONTINUOUS
 10
539.3407487601
 20
31.7449043986
 11
539.4563739807
 21
31.6803774007
 12
539.0516867012
 22
31.6803774007
 13
539.0516867012
 23
31.6803774007
  0
SOLID
  8
0
 62
7
  6
CONTINUOUS
 10
537.7798115909
 20
31.6481126336
 11
537.8376238704
 21
31.7126398448
 12
538.4735615909
 22
31.7126398448
 13
538.4735615909
 23
31.7126398448
  0
SOLID
  8
0
 62
7
  6
CONTINUOUS
 10
539.1673112601
 20
31.6481126336
 11
539.0516867012
 21
31.6803774007
 12
539.4563739807
 22
31.6803774007
 13
539.4563739807
 23
31.6803774007
  0
SOLID
  8
0
 62
7
  6
CONTINUOUS
 10
539.1673112601
 20
31.6481126336
 11
539.4563739807
 21
31.6803774007
 12
539.2251242012
 22
31.5835861968
 13
539.2251242012
 23
31.5835861968
  0
SOLID
  8
0
 62
7
  6
CONTINUOUS
 10
539.4563739807
 20
31.6803774007
 11
539.5141862601
 21
31.5835861968
 12
539.2251242012
 22
31.5835861968
 13
539.2251242012
 23
31.5835861968
  0
SOLID
  8
0
 62
7
  6
CONTINUOUS
 10
539.2251242012
 20
31.4867945216
 11
539.2251242012
 21
31.5835861968
 12
539.5141862601
 22
31.5835861968
 13
539.5141862601
 23
31.5835861968
  0
SOLID
  8
0
 62
7
  6
CONTINUOUS
 10
539.2251242012
 20
31.4867945216
 11
539.5141862601
 21
31.5835861968
 12
539.2251242012
 22
31.3577403412
 13
539.2251242012
 23
31.3577403412
  0
SOLID
  8
0
 62
7
  6
CONTINUOUS
 10
539.2251242012
 20
31.3577403412
 11
539.5141862601
 21
31.5835861968
 12
539.2251242012
 22
31.1641579843
 13
539.2251242012
 23
31.1641579843
  0
SOLID
  8
0
 62
7
  6
CONTINUOUS
 10
539.5141862601
 20
31.5835861968
 11
539.5141862601
 21
31.0673661609
 12
539.2251242012
 22
31.1641579843
 13
539.2251242012
 23
31.1641579843
  0
SOLID
  8
0
 62
7
  6
CONTINUOUS
 10
541.4219987601
 20
31.8094310465
 11
541.6532492012
 21
31.8416957661
 12
541.8844989807
 22
31.8416957661
 13
541.8844989807
 23
31.8416957661
  0
SOLID
  8
0
 62
7
  6
CONTINUOUS
 10
541.8844989807
 20
31.8416957661
 11
542.0579364807
 21
31.8094310465
 12
541.4219987601
 22
31.8094310465
 13
541.4219987601
 23
31.8094310465
  0
SOLID
  8
0
 62
7
  6
CONTINUOUS
 10
541.2485612601
 20
31.7449047044
 11
541.4219987601
 21
31.8094310465
 12
542.0579364807
 22
31.8094310465
 13
542.0579364807
 23
31.8094310465
  0
SOLID
  8
0
 62
7
  6
CONTINUOUS
 10
542.0579364807
 20
31.8094310465
 11
542.2313739807
 21
31.7449047044
 12
541.2485612601
 22
31.7449047044
 13
541.2485612601
 23
31.7449047044
  0
SOLID
  8
0
 62
7
  6
CONTINUOUS
 10
542.2313739807
 20
31.7449047044
 11
541.6532492012
 21
31.7126400953
 12
541.2485612601
 22
31.7449047044
 13
541.2485612601
 23
31.7449047044
  0
SOLID
  8
0
 62
7
  6
CONTINUOUS
 10
541.1329367012
 20
31.6803773299
 11
541.2485612601
 21
31.7449047044
 12
541.6532492012
 22
31.7126400953
 13
541.6532492012
 23
31.7126400953
  0
SOLID
  8
0
 62
7
  6
CONTINUOUS
 10
541.6532492012
 20
31.7126400953
 11
541.4219987601
 21
31.6803773299
 12
541.1329367012
 22
31.6803773299
 13
541.1329367012
 23
31.6803773299
  0
SOLID
  8
0
 62
7
  6
CONTINUOUS
 10
541.6532492012
 20
31.7126400953
 11
542.2313739807
 21
31.7449047044
 12
541.8844989807
 22
31.6803773299
 13
541.8844989807
 23
31.6803773299
  0
SOLID
  8
0
 62
7
  6
CONTINUOUS
 10
542.2313739807
 20
31.7449047044
 11
542.3469992012
 21
31.6803773299
 12
541.8844989807
 22
31.6803773299
 13
541.8844989807
 23
31.6803773299
  0
SOLID
  8
0
 62
7
  6
CONTINUOUS
 10
542.0001242012
 20
31.6481130052
 11
541.8844989807
 21
31.6803773299
 12
542.3469992012
 22
31.6803773299
 13
542.3469992012
 23
31.6803773299
  0
SOLID
  8
0
 62
7
  6
CONTINUOUS
 10
542.0001242012
 20
31.6481130052
 11
542.3469992012
 21
31.6803773299
 12
542.1157487601
 22
31.5835862682
 13
542.1157487601
 23
31.5835862682
  0
SOLID
  8
0
 62
7
  6
CONTINUOUS
 10
542.3469992012
 20
31.6803773299
 11
542.4048114807
 21
31.5835862682
 12
542.1157487601
 22
31.5835862682
 13
542.1157487601
 23
31.5835862682
  0
SOLID
  8
0
 62
7
  6
CONTINUOUS
 10
542.1735617012
 20
31.422267832
 11
542.1157487601
 21
31.5835862682
 12
542.4048114807
 22
31.5835862682
 13
542.4048114807
 23
31.5835862682
  0
SOLID
  8
0
 62
7
  6
CONTINUOUS
 10
542.4048114807
 20
31.5835862682
 11
542.4626237601
 21
31.422267832
 12
542.1735617012
 22
31.422267832
 13
542.1735617012
 23
31.422267832
  0
SOLID
  8
0
 62
7
  6
CONTINUOUS
 10
541.4219987601
 20
31.6803773299
 11
541.2485612601
 21
31.6158502183
 12
541.1329367012
 22
31.6803773299
 13
541.1329367012
 23
31.6803773299
  0
SOLID
  8
0
 62
7
  6
CONTINUOUS
 10
541.2485612601
 20
31.6158502183
 11
541.1329367012
 21
31.5513216117
 12
541.1329367012
 22
31.6803773299
 13
541.1329367012
 23
31.6803773299
  0
SOLID
  8
0
 62
7
  6
CONTINUOUS
 10
541.1329367012
 20
31.5513216117
 11
540.8438739807
 21
30.8092577743
 12
541.1329367012
 22
31.6803773299
 13
541.1329367012
 23
31.6803773299
  0
SOLID
  8
0
 62
7
  6
CONTINUOUS
 10
541.1329367012
 20
31.6803773299
 11
540.8438739807
 21
30.8092577743
 12
541.1329367012
 22
31.8416957661
 13
541.1329367012
 23
31.8416957661
  0
SOLID
  8
0
 62
7
  6
CONTINUOUS
 10
540.8438739807
 20
30.8092577743
 11
540.8438739807
 21
31.8416957661
 12
541.1329367012
 22
31.8416957661
 13
541.1329367012
 23
31.8416957661
  0
SOLID
  8
0
 62
7
  6
CONTINUOUS
 10
541.1329367012
 20
31.5513216117
 11
541.1329367012
 21
30.8092577743
 12
540.8438739807
 22
30.8092577743
 13
540.8438739807
 23
30.8092577743
  0
SOLID
  8
0
 62
7
  6
CONTINUOUS
 10
542.1735617012
 20
30.8092577743
 11
542.1735617012
 21
31.422267832
 12
542.4626237601
 22
31.422267832
 13
542.4626237601
 23
31.422267832
  0
SOLID
  8
0
 62
7
  6
CONTINUOUS
 10
542.4626237601
 20
31.422267832
 11
542.4626237601
 21
30.8092577743
 12
542.1735617012
 22
30.8092577743
 13
542.1735617012
 23
30.8092577743
  0
SOLID
  8
0
 62
7
  6
CONTINUOUS
 10
543.2719989807
 20
31.8094314924
 11
543.6188739807
 21
31.8416958387
 12
543.9657489807
 22
31.8416958387
 13
543.9657489807
 23
31.8416958387
  0
SOLID
  8
0
 62
7
  6
CONTINUOUS
 10
543.9657489807
 20
31.8416958387
 11
544.3126239807
 21
31.8094314924
 12
543.2719989807
 22
31.8094314924
 13
543.2719989807
 23
31.8094314924
  0
SOLID
  8
0
 62
7
  6
CONTINUOUS
 10
543.0407492012
 20
31.7449043986
 11
543.2719989807
 21
31.8094314924
 12
544.3126239807
 22
31.8094314924
 13
544.3126239807
 23
31.8094314924
  0
SOLID
  8
0
 62
7
  6
CONTINUOUS
 10
543.0407492012
 20
31.7449043986
 11
544.3126239807
 21
31.8094314888
 12
544.4860614807
 22
31.7771687019
 13
544.4860614807
 23
31.7771687019
  0
SOLID
  8
0
 62
7
  6
CONTINUOUS
 10
543.0407492012
 20
31.7449043986
 11
544.4860614807
 21
31.7771687019
 12
543.6188739807
 22
31.7126401399
 13
543.6188739807
 23
31.7126401399
  0
SOLID
  8
0
 62
7
  6
CONTINUOUS
 10
543.6188739807
 20
31.7126401399
 11
544.4860614807
 21
31.7771687019
 12
543.9657489807
 22
31.7126401399
 13
543.9657489807
 23
31.7126401399
  0
SOLID
  8
0
 62
7
  6
CONTINUOUS
 10
544.4860614807
 20
31.7771687019
 11
544.6594989807
 21
31.7126401399
 12
543.9657489807
 22
31.7126401399
 13
543.9657489807
 23
31.7126401399
  0
SOLID
  8
0
 62
7
  6
CONTINUOUS
 10
544.3126239807
 20
31.6803773084
 11
543.9657489807
 21
31.7126401399
 12
544.6594989807
 22
31.7126401399
 13
544.6594989807
 23
31.7126401399
  0
SOLID
  8
0
 62
7
  6
CONTINUOUS
 10
542.9251239807
 20
31.6481128977
 11
543.0407492012
 21
31.7449043986
 12
543.6188739807
 22
31.7126401399
 13
543.6188739807
 23
31.7126401399
  0
SOLID
  8
0
 62
7
  6
CONTINUOUS
 10
544.3126239807
 20
31.6803773084
 11
544.6594989807
 21
31.7126401399
 12
544.4282492012
 22
31.6481128977
 13
544.4282492012
 23
31.6481128977
  0
SOLID
  8
0
 62
7
  6
CONTINUOUS
 10
544.4282492012
 20
31.6481128977
 11
544.6594989807
 21
31.7126401399
 12
544.4860614807
 22
31.5835858812
 13
544.4860614807
 23
31.5835858812
  0
SOLID
  8
0
 62
7
  6
CONTINUOUS
 10
544.6594989807
 20
31.7126401399
 11
544.7751235396
 21
31.5835858812
 12
544.4860614807
 22
31.5835858812
 13
544.4860614807
 23
31.5835858812
  0
SOLID
  8
0
 62
7
  6
CONTINUOUS
 10
534.0798114807
 20
31.6803773084
 11
533.5594989807
 21
31.6481129264
 12
534.3110615082
 22
31.7126401456
 13
534.3110615082
 23
31.7126401456
  0
SOLID
  8
0
 62
7
  6
CONTINUOUS
 10
533.5594989807
 20
31.6481129264
 11
533.6751239738
 21
31.7126401456
 12
534.3110615082
 22
31.7126401456
 13
534.3110615082
 23
31.7126401456
  0
SOLID
  8
0
 62
7
  6
CONTINUOUS
 10
534.0798114807
 20
31.6803773084
 11
533.9641864669
 21
31.6481129264
 12
533.5594989807
 22
31.6481129264
 13
533.5594989807
 23
31.6481129264
  0
SOLID
  8
0
 62
7
  6
CONTINUOUS
 10
533.4438739824
 20
31.5190588248
 11
533.5594989807
 21
31.6481129264
 12
533.9641864669
 22
31.6481129264
 13
533.9641864669
 23
31.6481129264
  0
SOLID
  8
0
 62
7
  6
CONTINUOUS
 10
537.7798115909
 20
31.6481130555
 11
538.4735615909
 21
31.7126400953
 12
538.2423114807
 22
31.6803773084
 13
538.2423114807
 23
31.6803773084
  0
SOLID
  8
0
 62
7
  6
CONTINUOUS
 10
538.2423114807
 20
31.6803773084
 11
538.1266865909
 21
31.6481130555
 12
537.7798115909
 22
31.6481130555
 13
537.7798115909
 23
31.6481130555
  0
SOLID
  8
0
 62
7
  6
CONTINUOUS
 10
537.7798115909
 20
31.5835859653
 11
537.7798115909
 21
31.6481130555
 12
538.1266865909
 22
31.6481130555
 13
538.1266865909
 23
31.6481130555
  0
SOLID
  8
0
 62
7
  6
CONTINUOUS
 10
538.1266865909
 20
31.6481130555
 11
538.0688739807
 21
31.5835859653
 12
537.7798115909
 22
31.5835859653
 13
537.7798115909
 23
31.5835859653
  0
SOLID
  8
0
 62
7
  6
CONTINUOUS
 10
542.9251239807
 20
31.6481130555
 11
543.6188739807
 21
31.7126400953
 12
543.3876242012
 22
31.6803773084
 13
543.3876242012
 23
31.6803773084
  0
SOLID
  8
0
 62
7
  6
CONTINUOUS
 10
543.3876242012
 20
31.6803773084
 11
543.2719989807
 21
31.6481130555
 12
542.9251239807
 22
31.6481130555
 13
542.9251239807
 23
31.6481130555
  0
SOLID
  8
0
 62
7
  6
CONTINUOUS
 10
542.9251239807
 20
31.5835859653
 11
542.9251239807
 21
31.6481130555
 12
543.2719989807
 22
31.6481130555
 13
543.2719989807
 23
31.6481130555
  0
SOLID
  8
0
 62
7
  6
CONTINUOUS
 10
543.2719989807
 20
31.6481130555
 11
543.2141867012
 21
31.5835859653
 12
542.9251239807
 22
31.5835859653
 13
542.9251239807
 23
31.5835859653
  0
SOLID
  8
0
 62
7
  6
CONTINUOUS
 10
543.0407492012
 20
31.4545317347
 11
542.9251239807
 21
31.5835859653
 12
543.2141867012
 22
31.5835859653
 13
543.2141867012
 23
31.5835859653
  0
SOLID
  8
0
 62
7
  6
CONTINUOUS
 10
533.4438739824
 20
31.5190588248
 11
533.9641864669
 21
31.6481130052
 12
533.7907489669
 22
31.5513216117
 13
533.7907489669
 23
31.5513216117
  0
SOLID
  8
0
 62
7
  6
CONTINUOUS
 10
533.7907489669
 20
31.5513216117
 11
533.7329364807
 21
31.4867945216
 12
533.4438739824
 22
31.5190588248
 13
533.4438739824
 23
31.5190588248
  0
SOLID
  8
0
 62
7
  6
CONTINUOUS
 10
533.3860614807
 20
31.325476038
 11
533.4438739824
 21
31.5190588248
 12
533.7329364807
 22
31.4867945216
 13
533.7329364807
 23
31.4867945216
  0
SOLID
  8
0
 62
7
  6
CONTINUOUS
 10
538.2423114807
 20
31.4545317347
 11
538.5891864807
 21
31.4867945557
 12
539.2251242012
 22
31.4867945557
 13
539.2251242012
 23
31.4867945557
  0
SOLID
  8
0
 62
7
  6
CONTINUOUS
 10
538.2423114807
 20
31.4545317347
 11
539.2251242012
 21
31.4867945557
 12
538.0110613704
 22
31.3900038345
 13
538.0110613704
 23
31.3900038345
  0
SOLID
  8
0
 62
7
  6
CONTINUOUS
 10
538.0110613704
 20
31.3900038345
 11
539.2251242012
 21
31.4867945557
 12
538.5891864807
 22
31.3577403754
 13
538.5891864807
 23
31.3577403754
  0
SOLID
  8
0
 62
7
  6
CONTINUOUS
 10
539.2251242012
 20
31.4867945557
 11
539.2251242012
 21
31.3577403754
 12
538.5891864807
 22
31.3577403754
 13
538.5891864807
 23
31.3577403754
  0
SOLID
  8
0
 62
7
  6
CONTINUOUS
 10
543.0407492012
 20
31.4545313481
 11
543.2141867012
 21
31.583585915
 12
543.2719989807
 22
31.5190588248
 13
543.2719989807
 23
31.5190588248
  0
SOLID
  8
0
 62
7
  6
CONTINUOUS
 10
543.2719989807
 20
31.5190588248
 11
543.4454364807
 21
31.4545313481
 12
543.0407492012
 22
31.4545313481
 13
543.0407492012
 23
31.4545313481
  0
SOLID
  8
0
 62
7
  6
CONTINUOUS
 10
543.2719989807
 20
31.3577403412
 11
543.0407492012
 21
31.4545313481
 12
543.4454364807
 22
31.4545313481
 13
543.4454364807
 23
31.4545313481
  0
SOLID
  8
0
 62
7
  6
CONTINUOUS
 10
543.4454364807
 20
31.4545313481
 11
544.4282492012
 21
31.2932132511
 12
543.2719989807
 22
31.3577403412
 13
543.2719989807
 23
31.3577403412
  0
SOLID
  8
0
 62
7
  6
CONTINUOUS
 10
544.2548117012
 20
31.1964222346
 11
543.2719989807
 21
31.3577403412
 12
544.4282492012
 22
31.2932132511
 13
544.4282492012
 23
31.2932132511
  0
SOLID
  8
0
 62
7
  6
CONTINUOUS
 10
544.4282492012
 20
31.2932132511
 11
544.6594989807
 21
31.1964222346
 12
544.2548117012
 22
31.1964222346
 13
544.2548117012
 23
31.1964222346
  0
SOLID
  8
0
 62
7
  6
CONTINUOUS
 10
544.4282492012
 20
31.1318947675
 11
544.2548117012
 21
31.1964222346
 12
544.6594989807
 22
31.1964222346
 13
544.6594989807
 23
31.1964222346
  0
SOLID
  8
0
 62
7
  6
CONTINUOUS
 10
544.4282492012
 20
31.1318947675
 11
544.6594989807
 21
31.1964222346
 12
544.4860614807
 22
31.0673665164
 13
544.4860614807
 23
31.0673665164
  0
SOLID
  8
0
 62
7
  6
CONTINUOUS
 10
544.6594989807
 20
31.1964222346
 11
544.7751235396
 21
31.0673665164
 12
544.4860614807
 22
31.0673665164
 13
544.4860614807
 23
31.0673665164
  0
SOLID
  8
0
 62
7
  6
CONTINUOUS
 10
544.4282492012
 20
31.0028394316
 11
544.4860614807
 21
31.0673665164
 12
544.7751235396
 22
31.0673665164
 13
544.7751235396
 23
31.0673665164
  0
SOLID
  8
0
 62
7
  6
CONTINUOUS
 10
544.7751235396
 20
31.0673665164
 11
544.7751235396
 21
31.0028394316
 12
544.4282492012
 22
31.0028394316
 13
544.4282492012
 23
31.0028394316
  0
SOLID
  8
0
 62
7
  6
CONTINUOUS
 10
544.3126239807
 20
30.9705762839
 11
544.4282492012
 21
31.0028394316
 12
544.7751235396
 22
31.0028394316
 13
544.7751235396
 23
31.0028394316
  0
SOLID
  8
0
 62
7
  6
CONTINUOUS
 10
544.3126239807
 20
30.9705762839
 11
544.7751235396
 21
31.0028394316
 12
544.0813742012
 22
30.9383123468
 13
544.0813742012
 23
30.9383123468
  0
SOLID
  8
0
 62
7
  6
CONTINUOUS
 10
544.7751235396
 20
31.0028394316
 11
544.6594989807
 21
30.9060491937
 12
544.0813742012
 22
30.9383123468
 13
544.0813742012
 23
30.9383123468
  0
SOLID
  8
0
 62
7
  6
CONTINUOUS
 10
544.6594989807
 20
30.9060491937
 11
543.2141867012
 21
30.8737848904
 12
544.0813742012
 22
30.9383123468
 13
544.0813742012
 23
30.9383123468
  0
SOLID
  8
0
 62
7
  6
CONTINUOUS
 10
544.0813742012
 20
30.9383123468
 11
543.2141867012
 21
30.8737848904
 12
543.7344992012
 22
30.9383123468
 13
543.7344992012
 23
30.9383123468
  0
SOLID
  8
0
 62
7
  6
CONTINUOUS
 10
543.2141867012
 20
30.8737848904
 11
543.0407492012
 21
30.9383123468
 12
543.7344992012
 22
30.9383123468
 13
543.7344992012
 23
30.9383123468
  0
SOLID
  8
0
 62
7
  6
CONTINUOUS
 10
543.2141867012
 20
30.8737848904
 11
544.6594989807
 21
30.9060491937
 12
543.3876242012
 22
30.8415205581
 13
543.3876242012
 23
30.8415205581
  0
SOLID
  8
0
 62
7
  6
CONTINUOUS
 10
544.6594989807
 20
30.9060491937
 11
544.4282492012
 21
30.8415205581
 12
543.3876242012
 22
30.8415205581
 13
543.3876242012
 23
30.8415205581
  0
SOLID
  8
0
 62
7
  6
CONTINUOUS
 10
543.7344992012
 20
30.8092581772
 11
543.3876242012
 21
30.8415205581
 12
544.4282492012
 22
30.8415205581
 13
544.4282492012
 23
30.8415205581
  0
SOLID
  8
0
 62
7
  6
CONTINUOUS
 10
544.4282492012
 20
30.8415205581
 11
544.0813742012
 21
30.8092581772
 12
543.7344992012
 22
30.8092581772
 13
543.7344992012
 23
30.8092581772
  0
SOLID
  8
0
 62
7
  6
CONTINUOUS
 10
533.3860614807
 20
31.325476038
 11
533.7329364807
 21
31.4867945216
 12
533.6751239738
 22
31.3577403412
 13
533.6751239738
 23
31.3577403412
  0
SOLID
  8
0
 62
7
  6
CONTINUOUS
 10
533.6751239738
 20
31.3577403412
 11
533.6751239738
 21
31.2609490436
 12
533.3860614807
 22
31.325476038
 13
533.3860614807
 23
31.325476038
  0
SOLID
  8
0
 62
7
  6
CONTINUOUS
 10
533.4438739824
 20
31.1318947675
 11
533.3860614807
 21
31.325476038
 12
533.6751239738
 22
31.2609490436
 13
533.6751239738
 23
31.2609490436
  0
SOLID
  8
0
 62
7
  6
CONTINUOUS
 10
533.6751239738
 20
31.2609490436
 11
533.7907489669
 21
31.0996304642
 12
533.4438739824
 22
31.1318947675
 13
533.4438739824
 23
31.1318947675
  0
SOLID
  8
0
 62
7
  6
CONTINUOUS
 10
533.5594989807
 20
31.0028388804
 11
533.4438739824
 21
31.1318947675
 12
533.7907489669
 22
31.0996304642
 13
533.7907489669
 23
31.0996304642
  0
SOLID
  8
0
 62
7
  6
CONTINUOUS
 10
533.7907489669
 20
31.0996304642
 11
533.9641864669
 21
31.0028388804
 12
533.5594989807
 22
31.0028388804
 13
533.5594989807
 23
31.0028388804
  0
SOLID
  8
0
 62
7
  6
CONTINUOUS
 10
533.6751239738
 20
30.9383122606
 11
533.5594989807
 21
31.0028388804
 12
533.9641864669
 22
31.0028388804
 13
533.9641864669
 23
31.0028388804
  0
SOLID
  8
0
 62
7
  6
CONTINUOUS
 10
533.9641864669
 20
31.0028388804
 11
534.3110615082
 21
30.9383122606
 12
533.6751239738
 22
30.9383122606
 13
533.6751239738
 23
30.9383122606
  0
SOLID
  8
0
 62
7
  6
CONTINUOUS
 10
533.8485614944
 20
30.8737848904
 11
533.6751239738
 21
30.9383122606
 12
534.3110615082
 22
30.9383122606
 13
534.3110615082
 23
30.9383122606
  0
SOLID
  8
0
 62
7
  6
CONTINUOUS
 10
537.8954364807
 20
31.3254759532
 11
538.0110613704
 21
31.3900038345
 12
538.5891864807
 22
31.3577403412
 13
538.5891864807
 23
31.3577403412
  0
SOLID
  8
0
 62
7
  6
CONTINUOUS
 10
538.5891864807
 20
31.3577403412
 11
538.3579363704
 21
31.3254759532
 12
537.8954364807
 22
31.3254759532
 13
537.8954364807
 23
31.3254759532
  0
SOLID
  8
0
 62
7
  6
CONTINUOUS
 10
537.7798115909
 20
31.1964218576
 11
537.8954364807
 21
31.3254759532
 12
538.3579363704
 22
31.3254759532
 13
538.3579363704
 23
31.3254759532
  0
SOLID
  8
0
 62
7
  6
CONTINUOUS
 10
538.1266865909
 20
31.2286853572
 11
537.7798115909
 21
31.1964218576
 12
538.2423114807
 22
31.2932132511
 13
538.2423114807
 23
31.2932132511
  0
SOLID
  8
0
 62
7
  6
CONTINUOUS
 10
537.7798115909
 20
31.1964218576
 11
538.3579363704
 21
31.325476038
 12
538.2423114807
 22
31.2932132511
 13
538.2423114807
 23
31.2932132511
  0
SOLID
  8
0
 62
7
  6
CONTINUOUS
 10
538.1266865909
 20
31.2286853572
 11
538.0688739807
 21
31.1318947675
 12
537.7798115909
 22
31.1964218576
 13
537.7798115909
 23
31.1964218576
  0
SOLID
  8
0
 62
7
  6
CONTINUOUS
 10
537.7798115909
 20
31.0996304642
 11
537.7798115909
 21
31.1964218576
 12
538.0688739807
 22
31.1318947675
 13
538.0688739807
 23
31.1318947675
  0
SOLID
  8
0
 62
7
  6
CONTINUOUS
 10
538.0688739807
 20
31.1318947675
 11
538.0688739807
 21
31.0673661609
 12
537.7798115909
 22
31.0996304642
 13
537.7798115909
 23
31.0996304642
  0
SOLID
  8
0
 62
7
  6
CONTINUOUS
 10
537.8376238704
 20
30.9705762839
 11
537.7798115909
 21
31.0996304642
 12
538.0688739807
 22
31.0673661609
 13
538.0688739807
 23
31.0673661609
  0
SOLID
  8
0
 62
7
  6
CONTINUOUS
 10
539.2251242012
 20
31.1641579843
 11
539.5141862601
 21
31.0673661609
 12
539.1673112601
 22
31.0996304642
 13
539.1673112601
 23
31.0996304642
  0
SOLID
  8
0
 62
7
  6
CONTINUOUS
 10
538.9938737601
 20
31.0028390707
 11
539.1673112601
 21
31.0996304642
 12
539.5141862601
 22
31.0673661609
 13
539.5141862601
 23
31.0673661609
  0
SOLID
  8
0
 62
7
  6
CONTINUOUS
 10
538.9938737601
 20
31.0028390707
 11
539.5141862601
 21
31.0673661609
 12
539.2251242012
 22
30.9705762839
 13
539.2251242012
 23
30.9705762839
  0
SOLID
  8
0
 62
7
  6
CONTINUOUS
 10
539.5141862601
 20
31.0673661609
 11
539.5719992012
 21
30.9060491937
 12
539.2251242012
 22
30.9705762839
 13
539.2251242012
 23
30.9705762839
  0
SOLID
  8
0
 62
7
  6
CONTINUOUS
 10
539.2829364807
 20
30.8737848904
 11
539.2251242012
 21
30.9705762839
 12
539.5719992012
 22
30.9060491937
 13
539.5719992012
 23
30.9060491937
  0
SOLID
  8
0
 62
7
  6
CONTINUOUS
 10
539.2829364807
 20
30.8737848904
 11
539.5719992012
 21
30.9060491937
 12
539.3407487601
 22
30.8092576254
 13
539.3407487601
 23
30.8092576254
  0
SOLID
  8
0
 62
7
  6
CONTINUOUS
 10
539.5719992012
 20
30.9060491937
 11
539.6298114807
 21
30.8092576254
 12
539.3407487601
 22
30.8092576254
 13
539.3407487601
 23
30.8092576254
  0
SOLID
  8
0
 62
7
  6
CONTINUOUS
 10
534.8891865358
 20
31.035103216
 11
534.9469989807
 21
31.1318946289
 12
535.2360615358
 22
31.1318946289
 13
535.2360615358
 23
31.1318946289
  0
SOLID
  8
0
 62
7
  6
CONTINUOUS
 10
535.2360615358
 20
31.1318946289
 11
535.1782489255
 21
31.0028390707
 12
534.8891865358
 22
31.035103216
 13
534.8891865358
 23
31.035103216
  0
SOLID
  8
0
 62
7
  6
CONTINUOUS
 10
534.7157489531
 20
30.9705762839
 11
534.8891865358
 21
31.035103216
 12
535.1782489255
 22
31.0028390707
 13
535.1782489255
 23
31.0028390707
  0
SOLID
  8
0
 62
7
  6
CONTINUOUS
 10
534.7157489531
 20
30.9705762839
 11
535.1782489255
 21
31.0028390707
 12
534.3110615082
 22
30.9383119806
 13
534.3110615082
 23
30.9383119806
  0
SOLID
  8
0
 62
7
  6
CONTINUOUS
 10
535.1782489255
 20
31.0028390707
 11
535.0048114255
 21
30.9060491937
 12
534.3110615082
 22
30.9383119806
 13
534.3110615082
 23
30.9383119806
  0
SOLID
  8
0
 62
7
  6
CONTINUOUS
 10
533.8485614944
 20
30.8737848904
 11
534.3110615082
 21
30.9383119806
 12
535.0048114255
 22
30.9060491937
 13
535.0048114255
 23
30.9060491937
  0
SOLID
  8
0
 62
7
  6
CONTINUOUS
 10
533.8485614944
 20
30.8737848904
 11
535.0048114255
 21
30.9060491937
 12
534.0219989944
 22
30.8415207131
 13
534.0219989944
 23
30.8415207131
  0
SOLID
  8
0
 62
7
  6
CONTINUOUS
 10
535.0048114255
 20
30.9060491937
 11
534.7735614807
 21
30.8415207131
 12
534.0219989944
 22
30.8415207131
 13
534.0219989944
 23
30.8415207131
  0
SOLID
  8
0
 62
7
  6
CONTINUOUS
 10
534.3688739531
 20
30.8092578002
 11
534.0219989944
 21
30.8415207131
 12
534.7735614807
 22
30.8415207131
 13
534.7735614807
 23
30.8415207131
  0
SOLID
  8
0
 62
7
  6
CONTINUOUS
 10
537.8376238704
 20
30.9705762839
 11
538.0688739807
 21
31.0673661609
 12
538.1266865909
 22
31.0028390707
 13
538.1266865909
 23
31.0028390707
  0
SOLID
  8
0
 62
7
  6
CONTINUOUS
 10
538.1266865909
 20
31.0028390707
 11
538.3579363704
 21
30.9383119806
 12
537.8376238704
 22
30.9705762839
 13
537.8376238704
 23
30.9705762839
  0
SOLID
  8
0
 62
7
  6
CONTINUOUS
 10
538.0110613704
 20
30.8737848904
 11
537.8376238704
 21
30.9705762839
 12
538.3579363704
 22
30.9383119806
 13
538.3579363704
 23
30.9383119806
  0
SOLID
  8
0
 62
7
  6
CONTINUOUS
 10
538.7048113704
 20
30.9383119664
 11
538.9938737601
 21
31.0028390707
 12
539.2251242012
 22
30.9705762839
 13
539.2251242012
 23
30.9705762839
  0
SOLID
  8
0
 62
7
  6
CONTINUOUS
 10
539.2251242012
 20
30.9705762839
 11
539.1673112601
 21
30.9060491937
 12
538.7048113704
 22
30.9383119664
 13
538.7048113704
 23
30.9383119664
  0
SOLID
  8
0
 62
7
  6
CONTINUOUS
 10
539.1673112601
 20
30.9060491937
 11
538.0110613704
 21
30.8737848904
 12
538.7048113704
 22
30.9383119664
 13
538.7048113704
 23
30.9383119664
  0
SOLID
  8
0
 62
7
  6
CONTINUOUS
 10
538.0110613704
 20
30.8737848904
 11
538.3579363704
 21
30.9383119664
 12
538.7048113704
 22
30.9383119664
 13
538.7048113704
 23
30.9383119664
  0
SOLID
  8
0
 62
7
  6
CONTINUOUS
 10
538.0110613704
 20
30.8737848904
 11
539.1673112601
 21
30.9060491937
 12
538.1266865909
 22
30.8415205568
 13
538.1266865909
 23
30.8415205568
  0
SOLID
  8
0
 62
7
  6
CONTINUOUS
 10
539.1673112601
 20
30.9060491937
 11
538.9938737601
 21
30.8415205568
 12
538.1266865909
 22
30.8415205568
 13
538.1266865909
 23
30.8415205568
  0
SOLID
  8
0
 62
7
  6
CONTINUOUS
 10
538.3579363704
 20
30.8092577215
 11
538.1266865909
 21
30.8415205568
 12
538.9938737601
 22
30.8415205568
 13
538.9938737601
 23
30.8415205568
  0
SOLID
  8
0
 62
7
  6
CONTINUOUS
 10
538.9938737601
 20
30.8415205568
 11
538.7048113704
 21
30.8092577215
 12
538.3579363704
 22
30.8092577215
 13
538.3579363704
 23
30.8092577215
  0
SOLID
  8
0
 62
7
  6
CONTINUOUS
 10
543.3876242012
 20
30.9705762839
 11
543.0407492012
 21
30.9383119664
 12
543.2719989807
 22
31.0028390707
 13
543.2719989807
 23
31.0028390707
  0
SOLID
  8
0
 62
7
  6
CONTINUOUS
 10
543.2719989807
 20
31.0028390707
 11
543.0407492012
 21
30.9383119664
 12
543.2141867012
 22
31.0673661467
 13
543.2141867012
 23
31.0673661467
  0
SOLID
  8
0
 62
7
  6
CONTINUOUS
 10
543.0407492012
 20
30.9383119664
 11
542.9251239807
 21
31.0673661467
 12
543.2141867012
 22
31.0673661467
 13
543.2141867012
 23
31.0673661467
  0
SOLID
  8
0
 62
7
  6
CONTINUOUS
 10
543.3876242012
 20
30.9705762839
 11
543.7344992012
 21
30.9383119664
 12
543.0407492012
 22
30.9383119664
 13
543.0407492012
 23
30.9383119664
  0
SOLID
  8
0
 62
7
  6
CONTINUOUS
 10
540.0923117012
 20
30.8092578002
 11
540.0923117012
 21
31.841695792
 12
540.3813737601
 22
30.8092578002
 13
540.3813737601
 23
31.841695792
  0
ENDBLK
  8
0
  6
BYBLOCK
 62
0
  0
BLOCK
  8
0
 62
2
  6
CONTINUOUS
  2
AMMEAAL_LOGO_BL0
 70
64
 10
416.1419631151
 20
19.7009994242
  0
TEXT
  8
0
 62
7
  6
CONTINUOUS
 10
402.4066669574
 20
19.0744135318
  7
TEXTSTYLE_3
 40
2.7338706658
  1
Ammeraal Beltech
 41
1.0
 51
15.0
 72
0
  0
TEXT
  8
0
 62
7
  6
CONTINUOUS
 10
413.2074677831
 20
16.800876859
  7
TEXTSTYLE_4
 40
1.0935482663
  1
Innovation & Service in Belting
 41
1.0
 72
0
  0
LINE
  8
0
 62
7
  6
CONTINUOUS
 10
396.382126306
 20
19.8410068404
 11
397.1602782994
 21
23.5019241381
  0
LINE
  8
0
 62
7
  6
CONTINUOUS
 10
407.2554465892
 20
27.1653180497
 11
397.6480960424
 21
24.0437006284
  0
LINE
  8
0
 62
7
  6
CONTINUOUS
 10
396.6074096383
 20
19.1476560374
 11
404.1144848995
 21
12.3882551114
  0
LINE
  8
0
 62
7
  6
CONTINUOUS
 10
396.869944049
 20
20.3827833308
 11
407.6782134142
 21
23.8946029297
  0
LINE
  8
0
 62
7
  6
CONTINUOUS
 10
407.674008277
 20
13.544814366
 11
399.2285486083
 21
21.1491404077
  0
LINE
  8
0
 62
7
  6
CONTINUOUS
 10
408.1938309968
 20
26.320392934
 11
407.2172714596
 21
21.7260415315
  0
LINE
  8
0
 62
7
  6
CONTINUOUS
 10
406.5174695119
 20
18.4337322177
 11
405.8310213004
 21
15.2042472933
  0
LINE
  8
0
 62
7
  6
CONTINUOUS
 10
408.8749270954
 20
13.9350165436
 11
409.831158631
 21
18.4337322177
  0
LINE
  8
0
 62
7
  6
CONTINUOUS
 10
410.5309605787
 20
21.7260415315
 11
410.9752023811
 21
23.8160348909
  0
LINE
  8
0
 62
7
  6
CONTINUOUS
 10
404.8275859748
 20
12.2366807987
 11
408.3871093524
 21
13.3932400533
  0
LINE
  8
0
 62
7
  6
CONTINUOUS
 10
407.9685476645
 20
27.013743737
 11
410.7499190488
 21
24.5093856939
  0
ARC
  8
0
 62
7
  6
CONTINUOUS
 10
397.8733793747
 20
23.3503498254
 40
0.7290321776
 50
108.0
 51
168.0
  0
ARC
  8
0
 62
7
  6
CONTINUOUS
 10
407.4807299215
 20
26.4719672466
 40
0.7290321776
 50
348.0
 51
108.0
  0
ARC
  8
0
 62
7
  6
CONTINUOUS
 10
410.2621013058
 20
23.9676092036
 40
0.7290321776
 50
348.0
 51
48.0
  0
ARC
  8
0
 62
7
  6
CONTINUOUS
 10
404.6023026425
 20
12.9300316018
 40
0.7290321776
 50
228.0
 51
288.0
  0
ARC
  8
0
 62
7
  6
CONTINUOUS
 10
397.0952273813
 20
19.6894325277
 40
0.7290321776
 50
108.0
 51
228.0
  0
ARC
  8
0
 62
7
  6
CONTINUOUS
 10
408.1618260201
 20
14.0865908563
 40
0.7290321776
 50
228.0
 51
348.0
  0
ENDBLK
  8
0
  6
BYBLOCK
 62
0
  0
ENDSEC
  0
SECTION
  2
ENTITIES
  0
TEXT
  8
0
 62
5
  6
CONTINUOUS
 10
480.0
 20
25.636
  7
TEXTSTYLE_2
 40
2.8
  1
Scale :
 41
0.6
 51
0.000019
 72
0
  0
TEXT
  8
0
 62
5
  6
CONTINUOUS
 10
500.0
 20
25.636
  7
TEXTSTYLE_2
 40
2.8
  1
Belt type:
 41
0.6
 51
0.000019
 72
0
  0
INSERT
  8
0
 62
2
  6
CONTINUOUS
  2
AMMEAAL_LOGO_BL0
 10
416.1419631151
 20
19.7009994242
  0
INSERT
  8
0
 62
2
  6
CONTINUOUS
  2
UNI_LOGO2_BL1
 10
557.4079930916
 20
35.8092573885
  0
LINE
  8
0
 62
2
  6
CONTINUOUS
 10
394.0
 20
30.0
 11
584.0
 21
30.0
  0
LINE
  8
0
 62
2
  6
CONTINUOUS
 10
394.0
 20
30.0
 11
394.0
 21
10.0
  0
LINE
  8
0
 62
2
  6
CONTINUOUS
 10
394.0
 20
10.0
 11
584.0
 21
10.0
  0
LINE
  8
0
 62
2
  6
CONTINUOUS
 10
479.0
 20
30.0
 11
479.0
 21
10.0
  0
LINE
  8
0
 62
2
  6
CONTINUOUS
 10
499.0
 20
30.0
 11
499.0
 21
10.0
  0
LINE
  8
0
 62
2
  6
CONTINUOUS
 10
584.0
 20
30.0
 11
584.0
 21
10.0
  0
TEXT
  8
0
 62
5
  6
CONTINUOUS
 10
397.0
 20
23.303
  7
TEXTSTYLE_5
 40
1.52
  1
                                                                     Ammeraal Beltech Modular A/S
 41
1.0
 72
0
  0
TEXT
  8
0
 62
5
  6
CONTINUOUS
 10
397.0
 20
20.595
  7
TEXTSTYLE_5
 40
1.5
  1
                                                                      Hjulmagervej 21, 7100 Vejle,  DK
 41
1.0
 72
0
  0
TEXT
  8
0
 62
5
  6
CONTINUOUS
 10
397.0
 20
17.881
  7
TEXTSTYLE_5
 40
1.495
  1
                                                                      tel: 
 41
1.0
 72
0
  0
TEXT
  8
0
 62
5
  6
CONTINUOUS
 10
441.9869465649
 20
17.881
  7
TEXTSTYLE_5
 40
1.51
  1
+45 75723100     fax: +45 75723348
 41
1.0
 72
0
  0
TEXT
  8
0
 62
5
  6
CONTINUOUS
 10
397.0
 20
15.177
  7
TEXTSTYLE_5
 40
1.5
  1
                                                                      admin@unichains.dk  www.unichains.com
 41
1.0
 72
0
  0
TEXT
  8
0
 62
5
  6
CONTINUOUS
 10
483.75
 20
13.75
  7
TEXTSTYLE_6
 40
5.0
  1
1:1
 41
0.7
 72
1
 11
489.0
 21
13.75
  0
TEXT
  8
0
 62
5
  6
CONTINUOUS
 10
502.0
 20
13.75
  7
TEXTSTYLE_7
 40
7.5
  1
Sprocket Z16 90X90SQ 
 41
0.5178571429
 72
0
  0
LINE
  8
0
 62
7
  6
CONTINUOUS
 10
0.0
 20
0.0
 11
0.0
 21
420.0
  0
LINE
  8
0
 62
7
  6
CONTINUOUS
 10
10.0
 20
10.0
 11
10.0
 21
410.0
  0
LINE
  8
0
 62
7
  6
CONTINUOUS
 10
0.0
 20
0.0
 11
594.0
 21
0.0
  0
LINE
  8
0
 62
7
  6
CONTINUOUS
 10
10.0
 20
10.0
 11
584.0
 21
10.0
  0
LINE
  8
0
 62
7
  6
CONTINUOUS
 10
394.0
 20
30.0
 11
584.0
 21
30.0
  0
LINE
  8
0
 62
7
  6
CONTINUOUS
 10
179.0
 20
5.0
 11
179.0
 21
10.0
  0
LINE
  8
0
 62
7
  6
CONTINUOUS
 10
179.0
 20
410.0
 11
179.0
 21
415.0
  0
LINE
  8
0
 62
7
  6
CONTINUOUS
 10
594.0
 20
420.0
 11
584.0
 21
410.0
  0
LINE
  8
0
 62
7
  6
CONTINUOUS
 10
384.0
 20
410.0
 11
384.0
 21
415.0
  0
LINE
  8
0
 62
7
  6
CONTINUOUS
 10
584.0
 20
297.0
 11
589.0
 21
297.0
  0
LINE
  8
0
 62
7
  6
CONTINUOUS
 10
10.0
 20
410.0
 11
584.0
 21
410.0
  0
LINE
  8
0
 62
7
  6
CONTINUOUS
 10
0.0
 20
420.0
 11
594.0
 21
420.0
  0
LINE
  8
0
 62
7
  6
CONTINUOUS
 10
584.0
 20
10.0
 11
584.0
 21
410.0
  0
LINE
  8
0
 62
7
  6
CONTINUOUS
 10
594.0
 20
0.0
 11
594.0
 21
420.0
  0
LINE
  8
0
 62
7
  6
CONTINUOUS
 10
103.4625759691
 20
212.913863068
 11
103.4625759691
 21
195.3597265986
  0
LINE
  8
0
 62
7
  6
CONTINUOUS
 10
109.3048677893
 20
247.7067745214
 11
102.587190593
 21
231.4888671264
  0
LINE
  8
0
 62
7
  6
CONTINUOUS
 10
128.0171124019
 20
277.6154850031
 11
115.6044634665
 21
265.2028360677
  0
LINE
  8
0
 62
7
  6
CONTINUOUS
 10
156.7505401916
 20
298.0866644652
 11
140.5326327966
 21
291.3689872689
  0
LINE
  8
0
 62
7
  6
CONTINUOUS
 10
196.5524743076
 20
125.2456917907
 11
214.1066107771
 21
125.2456917907
  0
LINE
  8
0
 62
7
  6
CONTINUOUS
 10
161.7595628543
 20
131.0879836109
 11
177.9774702493
 21
124.3703064146
  0
LINE
  8
0
 62
7
  6
CONTINUOUS
 10
131.8508523726
 20
149.8002282235
 11
144.263501308
 21
137.3875792881
  0
LINE
  8
0
 62
7
  6
CONTINUOUS
 10
111.3796729104
 20
178.5336560131
 11
118.0973501068
 21
162.3157486181
  0
LINE
  8
DEFAULT_2
 62
8
  6
HIDDEN
 10
163.4610895245
 20
293.2651282865
 11
163.2080444546
 21
293.053133527
  0
LINE
  8
DEFAULT_2
 62
8
  6
HIDDEN
 10
172.7913834038
 20
296.2984940691
 11
172.5143991391
 21
296.1189020242
  0
LINE
  8
DEFAULT_2
 62
8
  6
HIDDEN
 10
162.9189310731
 20
293.5116062116
 11
163.3662701521
 21
293.7987892556
  0
LINE
  8
DEFAULT_2
 62
8
  6
HIDDEN
 10
163.4744796412
 20
291.7873883661
 11
163.9218142732
 21
292.0745696892
  0
LINE
  8
DEFAULT_2
 62
8
  6
HIDDEN
 10
183.1369422713
 20
298.3073615228
 11
182.8401441351
 21
298.1628469845
  0
LINE
  8
DEFAULT_2
 62
8
  6
HIDDEN
 10
172.2832863887
 20
296.6091781164
 11
172.762272023
 21
296.8397299487
  0
LINE
  8
DEFAULT_2
 62
8
  6
HIDDEN
 10
163.3662701521
 20
293.7987892556
 11
163.7548537231
 21
293.9491641036
  0
LINE
  8
DEFAULT_2
 62
8
  6
HIDDEN
 10
164.0439671045
 20
293.4906914189
 11
163.4610895245
 21
293.2651282865
  0
LINE
  8
DEFAULT_2
 62
8
  6
HIDDEN
 10
162.914284703
 20
292.3690994308
 11
162.428551904
 21
292.1811295802
  0
LINE
  8
DEFAULT_2
 62
8
  6
HIDDEN
 10
163.9218142732
 20
292.0745696892
 11
164.4075470722
 21
292.2625395398
  0
LINE
  8
DEFAULT_2
 62
8
  6
HIDDEN
 10
164.6966604536
 20
291.8040668552
 11
164.0166380926
 21
291.540910441
  0
LINE
  8
DEFAULT_2
 62
8
  6
HIDDEN
 10
164.7845125751
 20
289.5566463669
 11
165.4645349361
 21
289.8198027811
  0
LINE
  8
DEFAULT_2
 62
8
  6
HIDDEN
 10
182.670474142
 20
298.6776244542
 11
183.1739769055
 21
298.8481130238
  0
LINE
  8
DEFAULT_2
 62
8
  6
HIDDEN
 10
182.7925972445
 20
296.8702372982
 11
183.2961047392
 21
297.0407264623
  0
LINE
  8
DEFAULT_2
 62
8
  6
HIDDEN
 10
167.9683664878
 20
295.4409899713
 11
168.7623582099
 21
295.6940200856
  0
LINE
  8
DEFAULT_2
 62
8
  6
HIDDEN
 10
168.4734769615
 20
292.1406733519
 11
170.2599549288
 21
292.7099900231
  0
LINE
  8
DEFAULT_2
 62
8
  6
HIDDEN
 10
170.4884087954
 20
292.3361764846
 11
168.5034317617
 21
291.7036019228
  0
LINE
  8
DEFAULT_2
 62
8
  6
HIDDEN
 10
163.2080444546
 20
293.053133527
 11
162.9933931048
 21
292.7419255742
  0
LINE
  8
DEFAULT_2
 62
8
  6
HIDDEN
 10
162.5483794344
 20
293.0259967811
 11
162.9189310731
 21
293.5116062116
  0
LINE
  8
DEFAULT_2
 62
8
  6
HIDDEN
 10
163.1039280025
 20
291.3017789356
 11
163.4744796412
 21
291.7873883661
  0
LINE
  8
DEFAULT_2
 62
8
  6
HIDDEN
 10
182.8401441351
 20
298.1628469845
 11
182.5566095348
 21
297.912779549
  0
LINE
  8
DEFAULT_2
 62
8
  6
HIDDEN
 10
164.0166380926
 20
291.540910441
 11
163.7635930227
 21
291.3289156815
  0
LINE
  8
DEFAULT_2
 62
8
  6
HIDDEN
 10
165.4645349361
 20
289.8198027811
 11
165.717580006
 21
290.0317975406
  0
LINE
  8
DEFAULT_2
 62
8
  6
HIDDEN
 10
182.1934937191
 20
298.2960294959
 11
182.670474142
 21
298.6776244542
  0
LINE
  8
DEFAULT_2
 62
8
  6
HIDDEN
 10
182.3156215528
 20
296.4886429345
 11
182.7925972445
 21
296.8702372982
  0
LINE
  8
DEFAULT_2
 62
8
  6
HIDDEN
 10
166.006697858
 20
289.573326516
 11
165.5593587825
 21
289.2861434634
  0
LINE
  8
DEFAULT_2
 62
8
  6
HIDDEN
 10
183.259070105
 20
296.4999749614
 11
182.9622719688
 21
296.355460423
  0
LINE
  8
DEFAULT_2
 62
8
  6
HIDDEN
 10
184.2478165086
 20
294.4798270965
 11
184.5446146448
 21
294.6243416349
  0
LINE
  8
DEFAULT_2
 62
8
  6
HIDDEN
 10
205.0936078745
 20
298.0252727361
 11
204.7532133398
 21
297.8607821508
  0
LINE
  8
DEFAULT_2
 62
8
  6
HIDDEN
 10
199.3961366039
 20
296.7997739557
 11
199.6129170844
 21
296.8876773047
  0
LINE
  8
DEFAULT_2
 62
8
  6
HIDDEN
 10
165.5593587825
 20
289.2861434634
 11
165.0736259835
 21
289.0981736127
  0
LINE
  8
DEFAULT_2
 62
8
  6
HIDDEN
 10
184.714284646
 20
294.1095641005
 11
184.2107818837
 21
293.9390755217
  0
LINE
  8
DEFAULT_2
 62
8
  6
HIDDEN
 10
204.6410252641
 20
298.5227794008
 11
205.0844544454
 21
298.6719493591
  0
LINE
  8
DEFAULT_2
 62
8
  6
HIDDEN
 10
206.7814338777
 20
293.7948567062
 11
206.3380046923
 21
293.6456867204
  0
LINE
  8
DEFAULT_2
 62
8
  6
HIDDEN
 10
171.8685149009
 20
291.43613762
 11
171.2730222452
 21
291.2463653963
  0
LINE
  8
DEFAULT_2
 62
8
  6
HIDDEN
 10
168.4940580326
 20
290.360762168
 11
167.8985653768
 21
290.1709899443
  0
LINE
  8
DEFAULT_2
 62
8
  6
HIDDEN
 10
172.5143991391
 20
296.1189020242
 11
172.3644379723
 21
295.861638676
  0
LINE
  8
DEFAULT_2
 62
8
  6
HIDDEN
 10
163.7635930227
 20
291.3289156815
 11
163.5489416729
 21
291.0177077287
  0
LINE
  8
DEFAULT_2
 62
8
  6
HIDDEN
 10
165.717580006
 20
290.0317975406
 11
165.9322313559
 21
290.3430054933
  0
LINE
  8
DEFAULT_2
 62
8
  6
HIDDEN
 10
166.3772450397
 20
290.0589342517
 11
166.006697858
 21
289.573326516
  0
LINE
  8
DEFAULT_2
 62
8
  6
HIDDEN
 10
171.957341642
 20
296.197802617
 11
172.2832863887
 21
296.6091781164
  0
LINE
  8
DEFAULT_2
 62
8
  6
HIDDEN
 10
182.9622719688
 20
296.355460423
 11
182.6787373685
 21
296.1053929875
  0
LINE
  8
DEFAULT_2
 62
8
  6
HIDDEN
 10
184.5446146448
 20
294.6243416349
 11
184.8281492451
 21
294.8744090704
  0
LINE
  8
DEFAULT_2
 62
8
  6
HIDDEN
 10
200.0719409942
 20
298.5562671865
 11
199.8459290972
 21
298.3623821578
  0
LINE
  8
DEFAULT_2
 62
8
  6
HIDDEN
 10
185.1912650654
 20
294.4911590865
 11
184.714284646
 21
294.1095641005
  0
LINE
  8
DEFAULT_2
 62
8
  6
HIDDEN
 10
204.1663031298
 20
298.1631573271
 11
204.6410252641
 21
298.5227794008
  0
LINE
  8
DEFAULT_2
 62
8
  6
HIDDEN
 10
199.5807649584
 20
298.9194078449
 11
200.0235549607
 21
299.2011964295
  0
LINE
  8
DEFAULT_2
 62
8
  6
HIDDEN
 10
206.3288512728
 20
294.2923634079
 11
206.6692458184
 21
294.4568540668
  0
LINE
  8
DEFAULT_2
 62
8
  6
HIDDEN
 10
162.4105155247
 20
292.5163624418
 11
162.5483794344
 21
293.0259967811
  0
LINE
  8
DEFAULT_2
 62
8
  6
HIDDEN
 10
171.7584246167
 20
295.7087569806
 11
171.957341642
 21
296.197802617
  0
LINE
  8
DEFAULT_2
 62
8
  6
HIDDEN
 10
162.9276703728
 20
290.8913577896
 11
163.1039280025
 21
291.3017789356
  0
LINE
  8
DEFAULT_2
 62
8
  6
HIDDEN
 10
163.5489416729
 20
291.0177077287
 11
163.431435104
 21
290.7440930577
  0
LINE
  8
DEFAULT_2
 62
8
  6
HIDDEN
 10
181.9364861906
 20
297.8348562663
 11
182.1934937191
 21
298.2960294959
  0
LINE
  8
DEFAULT_2
 62
8
  6
HIDDEN
 10
182.0453504884
 20
296.1330226019
 11
182.3156215528
 21
296.4886429345
  0
LINE
  8
DEFAULT_2
 62
8
  6
HIDDEN
 10
182.6787373685
 20
296.1053929875
 11
182.4985550818
 21
295.8683125677
  0
LINE
  8
DEFAULT_2
 62
8
  6
HIDDEN
 10
199.2325180717
 20
298.5225984155
 11
199.5807649584
 21
298.9194078449
  0
LINE
  8
DEFAULT_2
 62
8
  6
HIDDEN
 10
199.0478897172
 20
296.4029645262
 11
199.3961366039
 21
296.7997739557
  0
LINE
  8
DEFAULT_2
 62
8
  6
HIDDEN
 10
199.8873126397
 20
296.4366332972
 11
199.6613007427
 21
296.2427482686
  0
LINE
  8
DEFAULT_2
 62
8
  6
HIDDEN
 10
207.2561548384
 20
294.1544789922
 11
206.7814338777
 21
293.7948567062
  0
LINE
  8
DEFAULT_2
 62
8
  6
HIDDEN
 10
220.4221685377
 20
292.9707800763
 11
220.6903506623
 21
293.1002033544
  0
LINE
  8
DEFAULT_2
 62
8
  6
HIDDEN
 10
220.9739576096
 20
292.6585763678
 11
220.705775485
 21
292.5291530897
  0
LINE
  8
DEFAULT_2
 62
8
  6
HIDDEN
 10
225.9028333932
 20
288.4339803276
 11
225.4913310527
 21
288.2602618625
  0
LINE
  8
DEFAULT_2
 62
8
  6
HIDDEN
 10
162.9933931048
 20
292.7419255742
 11
162.914284703
 21
292.3690994308
  0
LINE
  8
DEFAULT_2
 62
8
  6
HIDDEN
 10
165.9322313559
 20
290.3430054933
 11
166.0113441777
 21
290.7158334271
  0
LINE
  8
DEFAULT_2
 62
8
  6
HIDDEN
 10
166.5151089359
 20
290.5685686258
 11
166.3772450397
 21
290.0589342517
  0
LINE
  8
DEFAULT_2
 62
8
  6
HIDDEN
 10
182.5566095348
 20
297.912779549
 11
182.389690784
 21
297.5701462321
  0
LINE
  8
DEFAULT_2
 62
8
  6
HIDDEN
 10
184.8281492451
 20
294.8744090704
 11
184.9950679866
 21
295.2170424612
  0
LINE
  8
DEFAULT_2
 62
8
  6
HIDDEN
 10
185.4482725893
 20
294.9523323531
 11
185.1912650654
 21
294.4911590865
  0
LINE
  8
DEFAULT_2
 62
8
  6
HIDDEN
 10
206.6692458184
 20
294.4568540668
 11
206.922252183
 21
294.7418913368
  0
LINE
  8
0
 62
7
  6
CONTINUOUS
 10
186.9029618316
 20
273.620657118
 11
135.5716204323
 21
219.6597025849
  0
LINE
  8
DEFAULT_2
 62
8
  6
HIDDEN
 10
225.3263133001
 20
288.6753298781
 11
225.6417290157
 21
288.8892732846
  0
LINE
  8
0
 62
7
  6
CONTINUOUS
 10
135.8456802577
 20
208.6860776532
 11
189.8066347908
 21
157.3547362538
  0
LINE
  8
DEFAULT_2
 62
8
  6
HIDDEN
 10
162.9253449642
 20
290.3201035387
 11
162.9276703728
 21
290.8913577896
  0
LINE
  8
DEFAULT_2
 62
8
  6
HIDDEN
 10
181.9049588094
 20
295.5792834909
 11
182.0453504884
 21
296.1330226019
  0
LINE
  8
DEFAULT_2
 62
8
  6
HIDDEN
 10
207.5248088696
 20
294.5447422183
 11
207.2561548384
 21
294.1544789922
  0
LINE
  8
DEFAULT_2
 62
8
  6
HIDDEN
 10
223.6517590977
 20
289.2610224711
 11
223.2541817765
 21
288.8508169632
  0
LINE
  8
DEFAULT_2
 62
8
  6
HIDDEN
 10
222.7737482883
 20
289.051941621
 11
222.9519966949
 21
289.2079787677
  0
LINE
  8
DEFAULT_2
 62
8
  6
HIDDEN
 10
226.0810816122
 20
288.5900175326
 11
225.9028333932
 21
288.4339803276
  0
LINE
  8
DEFAULT_2
 62
8
  6
HIDDEN
 10
162.428551904
 20
292.1811295802
 11
162.4105155247
 21
292.5163624418
  0
LINE
  8
DEFAULT_2
 62
8
  6
HIDDEN
 10
163.431435104
 20
290.7440930577
 11
163.4494715371
 21
290.4088600571
  0
LINE
  8
DEFAULT_2
 62
8
  6
HIDDEN
 10
166.0113441777
 20
290.7158334271
 11
165.9933077984
 21
291.0510662887
  0
LINE
  8
DEFAULT_2
 62
8
  6
HIDDEN
 10
166.5174343176
 20
291.1398229461
 11
166.5151089359
 21
290.5685686258
  0
LINE
  8
DEFAULT_2
 62
8
  6
HIDDEN
 10
168.4945712255
 20
295.1620639925
 11
168.4734769615
 21
292.1406733519
  0
LINE
  8
DEFAULT_2
 62
8
  6
HIDDEN
 10
168.5034317617
 20
291.7036019228
 11
168.4940580326
 21
290.360762168
  0
LINE
  8
DEFAULT_2
 62
8
  6
HIDDEN
 10
167.8985653768
 20
290.1709899443
 11
167.9683664878
 21
295.4409899713
  0
LINE
  8
DEFAULT_2
 62
8
  6
HIDDEN
 10
171.7354911713
 20
295.3738234953
 11
171.7584246167
 21
295.7087569806
  0
LINE
  8
DEFAULT_2
 62
8
  6
HIDDEN
 10
172.3644379723
 20
295.861638676
 11
172.3415045269
 21
295.5267051907
  0
LINE
  8
DEFAULT_2
 62
8
  6
HIDDEN
 10
181.8729244846
 20
297.5052105595
 11
181.9364861906
 21
297.8348562663
  0
LINE
  8
DEFAULT_2
 62
8
  6
HIDDEN
 10
182.4985550818
 20
295.8683125677
 11
182.4349933944
 21
295.538666713
  0
LINE
  8
DEFAULT_2
 62
8
  6
HIDDEN
 10
184.9950679866
 20
295.2170424612
 11
185.0586296926
 21
295.5466881681
  0
LINE
  8
DEFAULT_2
 62
8
  6
HIDDEN
 10
185.588664259
 20
295.506071538
 11
185.4482725893
 21
294.9523323531
  0
LINE
  8
DEFAULT_2
 62
8
  6
HIDDEN
 10
199.1010516655
 20
298.213692335
 11
199.2325180717
 21
298.5225984155
  0
LINE
  8
DEFAULT_2
 62
8
  6
HIDDEN
 10
199.8459290972
 20
298.3623821578
 11
199.7144626652
 21
298.0534757805
  0
LINE
  8
DEFAULT_2
 62
8
  6
HIDDEN
 10
198.9164232981
 20
296.0940582973
 11
199.0478897172
 21
296.4029645262
  0
LINE
  8
DEFAULT_2
 62
8
  6
HIDDEN
 10
199.6613007427
 20
296.2427482686
 11
199.5298343236
 21
295.9338420397
  0
LINE
  8
DEFAULT_2
 62
8
  6
HIDDEN
 10
204.7532133398
 20
297.8607821508
 11
204.603241578
 21
297.5604239591
  0
LINE
  8
DEFAULT_2
 62
8
  6
HIDDEN
 10
211.2696900651
 20
297.2637032339
 11
209.7531808672
 21
294.6503823153
  0
LINE
  8
DEFAULT_2
 62
8
  6
HIDDEN
 10
209.5624691604
 20
294.25597482
 11
208.8884654714
 21
293.0944988218
  0
LINE
  8
DEFAULT_2
 62
8
  6
HIDDEN
 10
208.2772379257
 20
293.2249821056
 11
210.9510439294
 21
297.7668471309
  0
LINE
  8
DEFAULT_2
 62
8
  6
HIDDEN
 10
222.9519966949
 20
289.2079787677
 11
223.2124063779
 21
289.560278194
  0
LINE
  8
DEFAULT_2
 62
8
  6
HIDDEN
 10
220.215860663
 20
292.7059332983
 11
220.4221685377
 21
292.9707800763
  0
LINE
  8
DEFAULT_2
 62
8
  6
HIDDEN
 10
225.6417290157
 20
288.8892732846
 11
225.8610580118
 21
289.1434415511
  0
LINE
  8
0
 62
7
  6
CONTINUOUS
 10
184.1411181414
 20
115.5677049631
 11
184.3648587395
 21
110.4432027606
  0
LINE
  8
DEFAULT_2
 62
8
  6
HIDDEN
 10
185.5991718028
 20
296.257928981
 11
185.588664259
 21
295.506071538
  0
LINE
  8
DEFAULT_2
 62
8
  6
HIDDEN
 10
203.9850384148
 20
297.6523470197
 11
204.1663031298
 21
298.1631573271
  0
LINE
  8
DEFAULT_2
 62
8
  6
HIDDEN
 10
207.7060747198
 20
295.0555520556
 11
207.5248088696
 21
294.5447422183
  0
LINE
  8
0
 62
7
  6
CONTINUOUS
 10
146.589359704
 20
126.896310043
 11
144.8350069712
 21
122.0762655238
  0
LINE
  8
DEFAULT_2
 62
8
  6
HIDDEN
 10
206.922252183
 20
294.7418913368
 11
207.0878715567
 21
295.1474751162
  0
LINE
  8
DEFAULT_2
 62
8
  6
HIDDEN
 10
219.9373368167
 20
292.2409510778
 11
220.215860663
 21
292.7059332983
  0
LINE
  8
DEFAULT_2
 62
8
  6
HIDDEN
 10
220.705775485
 20
292.5291530897
 11
220.4272510781
 21
292.0641710716
  0
LINE
  8
DEFAULT_2
 62
8
  6
HIDDEN
 10
226.3414913969
 20
288.9423169364
 11
226.0810816122
 21
288.5900175326
  0
LINE
  8
0
 62
7
  6
CONTINUOUS
 10
116.2313281498
 20
151.7330122183
 11
112.7659663863
 21
147.9512334666
  0
LINE
  8
0
 62
7
  6
CONTINUOUS
 10
97.6887585865
 20
186.2966487283
 11
93.0399577074
 21
184.1288772771
  0
LINE
  8
0
 62
7
  6
CONTINUOUS
 10
293.8986324126
 20
205.924233963
 11
299.0231346151
 21
206.1479745611
  0
LINE
  8
0
 62
7
  6
CONTINUOUS
 10
282.5700273327
 20
168.3724755256
 11
287.3900718519
 21
166.6181227927
  0
LINE
  8
0
 62
7
  6
CONTINUOUS
 10
257.7333251573
 20
138.0144439713
 11
261.5151039091
 21
134.5490822079
  0
LINE
  8
0
 62
7
  6
CONTINUOUS
 10
223.1696886474
 20
119.4718744081
 11
225.3374600986
 21
114.823073529
  0
LINE
  8
DEFAULT_2
 62
8
  6
HIDDEN
 10
166.3458230041
 20
291.8719087198
 11
166.5174343176
 21
291.1398229461
  0
LINE
  8
DEFAULT_2
 62
8
  6
HIDDEN
 10
186.6963310575
 20
294.2070548297
 11
186.2830175981
 21
299.1899427457
  0
LINE
  8
DEFAULT_2
 62
8
  6
HIDDEN
 10
186.9762274303
 20
298.3934556976
 11
187.319189671
 21
294.258718815
  0
LINE
  8
DEFAULT_2
 62
8
  6
HIDDEN
 10
187.5902945175
 20
298.5511387592
 11
187.6606457609
 21
297.7029874286
  0
LINE
  8
DEFAULT_2
 62
8
  6
HIDDEN
 10
188.7722816477
 20
294.3933046334
 11
188.7481142046
 21
295.0311448222
  0
LINE
  8
DEFAULT_2
 62
8
  6
HIDDEN
 10
188.6111653567
 20
298.6455726583
 11
188.5829700098
 21
299.3897194584
  0
LINE
  8
0
 62
2
  6
CONTINUOUS
 10
193.8416107771
 20
217.1097265986
 11
193.8416107771
 21
214.1397265986
  0
LINE
  8
DEFAULT_1
 62
2
  6
CENTER
 10
193.8416107771
 20
208.1997265986
 11
193.8416107771
 21
125.7206917907
  0
LINE
  8
DEFAULT_1
 62
2
  6
CENTER
 10
193.8416107771
 20
223.0497265986
 11
193.8416107771
 21
305.5287614066
  0
LINE
  8
DEFAULT_2
 62
8
  6
HIDDEN
 10
198.8702662159
 20
295.5641498992
 11
198.9164232981
 21
296.0940582973
  0
LINE
  8
DEFAULT_2
 62
8
  6
HIDDEN
 10
199.0641259739
 20
297.7897653197
 11
199.1010516655
 21
298.213692335
  0
LINE
  8
DEFAULT_2
 62
8
  6
HIDDEN
 10
199.7144626652
 20
298.0534757805
 11
199.6959998323
 21
297.8415124213
  0
LINE
  8
DEFAULT_2
 62
8
  6
HIDDEN
 10
199.5298343236
 20
295.9338420397
 11
199.5021400743
 21
295.6158970009
  0
LINE
  8
DEFAULT_2
 62
8
  6
HIDDEN
 10
202.041093494
 20
294.7540295785
 11
202.1795647599
 21
296.3437549954
  0
LINE
  8
DEFAULT_2
 62
8
  6
HIDDEN
 10
202.2349532585
 20
296.9796450731
 11
202.3641931144
 21
298.4633888847
  0
LINE
  8
DEFAULT_2
 62
8
  6
HIDDEN
 10
217.9611827718
 20
290.7523564864
 11
219.0124898441
 21
293.9902117926
  0
LINE
  8
DEFAULT_2
 62
8
  6
HIDDEN
 10
219.3410233674
 20
295.0020417706
 11
219.5052900831
 21
295.5079566179
  0
LINE
  8
DEFAULT_2
 62
8
  6
HIDDEN
 10
220.0006649078
 20
295.3471121677
 11
219.8363981922
 21
294.8411973204
  0
LINE
  8
DEFAULT_2
 62
8
  6
HIDDEN
 10
219.5078646688
 20
293.8293673423
 11
218.4565575966
 21
290.5915120361
  0
LINE
  8
DEFAULT_2
 62
8
  6
HIDDEN
 10
219.2512796602
 20
290.3396660163
 11
219.9373368167
 21
292.2409510778
  0
LINE
  8
DEFAULT_2
 62
8
  6
HIDDEN
 10
220.4272510781
 20
292.0641710716
 11
219.7411939216
 21
290.16288601
  0
LINE
  8
DEFAULT_2
 62
8
  6
HIDDEN
 10
221.5048859355
 20
289.5264777447
 11
222.3353761563
 21
291.8280332864
  0
LINE
  8
DEFAULT_2
 62
8
  6
HIDDEN
 10
222.4798092206
 20
292.2283037667
 11
222.6603505509
 21
292.728641867
  0
LINE
  8
DEFAULT_2
 62
8
  6
HIDDEN
 10
223.2124063779
 20
289.560278194
 11
224.2805064435
 21
292.1116860916
  0
LINE
  8
DEFAULT_2
 62
8
  6
HIDDEN
 10
224.7609399317
 20
291.9105614338
 11
223.8571629687
 21
289.7516778651
  0
LINE
  8
DEFAULT_2
 62
8
  6
HIDDEN
 10
225.8610580118
 20
289.1434415511
 11
226.682673438
 21
291.1060629896
  0
LINE
  8
0
 62
2
  6
CONTINUOUS
 10
195.3266107771
 20
215.6247265986
 11
192.3566107771
 21
215.6247265986
  0
LINE
  8
DEFAULT_1
 62
2
  6
CENTER
 10
186.4166107771
 20
215.6247265986
 11
103.9375759691
 21
215.6247265986
  0
LINE
  8
DEFAULT_1
 62
2
  6
CENTER
 10
201.2666107771
 20
215.6247265986
 11
283.745645585
 21
215.6247265986
  0
LINE
  8
DEFAULT_2
 62
8
  6
HIDDEN
 10
163.1173136184
 20
289.8240374333
 11
162.9253449642
 21
290.3201035387
  0
LINE
  8
DEFAULT_2
 62
8
  6
HIDDEN
 10
163.4494715371
 20
290.4088600571
 11
163.5646526974
 21
290.1112204773
  0
LINE
  8
DEFAULT_2
 62
8
  6
HIDDEN
 10
165.9933077984
 20
291.0510662887
 11
165.8781266382
 21
291.3487058686
  0
LINE
  8
DEFAULT_2
 62
8
  6
HIDDEN
 10
165.6681260517
 20
292.1800065565
 11
165.5913386115
 21
292.3784329431
  0
LINE
  8
DEFAULT_2
 62
8
  6
HIDDEN
 10
171.8395808967
 20
294.9612184177
 11
171.7354911713
 21
295.3738234953
  0
LINE
  8
DEFAULT_2
 62
8
  6
HIDDEN
 10
172.3415045269
 20
295.5267051907
 11
172.4195718392
 21
295.2172513102
  0
LINE
  8
DEFAULT_2
 62
8
  6
HIDDEN
 10
175.8033656527
 20
292.4502681896
 11
175.2568949041
 21
294.6164436192
  0
LINE
  8
DEFAULT_2
 62
8
  6
HIDDEN
 10
175.1007604254
 20
295.2353508023
 11
174.7104241556
 21
296.7826190489
  0
LINE
  8
DEFAULT_2
 62
8
  6
HIDDEN
 10
181.9712765075
 20
295.0515188577
 11
181.9049588094
 21
295.5792834909
  0
LINE
  8
DEFAULT_2
 62
8
  6
HIDDEN
 10
182.4349933944
 20
295.538666713
 11
182.4747840021
 21
295.2220080218
  0
LINE
  8
DEFAULT_2
 62
8
  6
HIDDEN
 10
185.0586296926
 20
295.5466881681
 11
185.0188390849
 21
295.8633468593
  0
LINE
  8
DEFAULT_2
 62
8
  6
HIDDEN
 10
185.0160830928
 20
296.7207571993
 11
184.989556021
 21
296.9318629934
  0
LINE
  8
DEFAULT_2
 62
8
  6
HIDDEN
 10
192.7466474423
 20
299.5474790965
 11
192.7667869759
 21
299.0159456678
  0
LINE
  8
DEFAULT_2
 62
8
  6
HIDDEN
 10
192.9037358237
 20
295.4015178317
 11
192.9359590802
 21
294.5510642714
  0
LINE
  8
DEFAULT_2
 62
8
  6
HIDDEN
 10
203.042224055
 20
299.0450443844
 11
202.6083474309
 21
294.0639048486
  0
LINE
  8
DEFAULT_2
 62
8
  6
HIDDEN
 10
207.0878715567
 20
295.1474751162
 11
207.3225687268
 21
296.7258661303
  0
LINE
  8
DEFAULT_2
 62
8
  6
HIDDEN
 10
207.94077189
 20
296.6339430696
 11
207.7060747198
 21
295.0555520556
  0
LINE
  8
DEFAULT_2
 62
8
  6
HIDDEN
 10
223.1502650927
 20
292.5518617596
 11
221.9948004772
 21
289.3496976372
  0
LINE
  8
DEFAULT_2
 62
8
  6
HIDDEN
 10
227.1631068231
 20
290.904938375
 11
226.3414913969
 21
288.9423169364
  0
LINE
  8
DEFAULT_2
 62
8
  6
HIDDEN
 10
166.0770669635
 20
292.5664010728
 11
166.3458230041
 21
291.8719087198
  0
LINE
  8
DEFAULT_2
 62
8
  6
HIDDEN
 10
175.1863254456
 20
297.4512567301
 11
176.4093790084
 21
292.6031498849
  0
LINE
  8
DEFAULT_2
 62
8
  6
HIDDEN
 10
185.5063270516
 20
296.9967992604
 11
185.5991718028
 21
296.257928981
  0
LINE
  8
DEFAULT_2
 62
8
  6
HIDDEN
 10
207.3225687268
 20
296.7258661303
 11
207.2821211655
 21
297.1620908131
  0
LINE
  8
DEFAULT_2
 62
8
  6
HIDDEN
 10
203.649969327
 20
294.6906969045
 11
203.6251694324
 21
295.2321475434
  0
LINE
  8
DEFAULT_2
 62
8
  6
HIDDEN
 10
207.915970849
 20
297.175394105
 11
207.94077189
 21
296.6339430696
  0
LINE
  8
0
 62
7
  6
CONTINUOUS
 10
203.5421034127
 20
315.6817482341
 11
203.3183628146
 21
320.8062504366
  0
LINE
  8
0
 62
7
  6
CONTINUOUS
 10
241.0938618501
 20
304.3531431543
 11
242.8482145829
 21
309.1731876735
  0
LINE
  8
0
 62
7
  6
CONTINUOUS
 10
271.4518934044
 20
279.5164409789
 11
274.9172551678
 21
283.2982197306
  0
LINE
  8
0
 62
7
  6
CONTINUOUS
 10
289.9944629676
 20
244.952804469
 11
294.6432638467
 21
247.1205759202
  0
LINE
  8
0
 62
7
  6
CONTINUOUS
 10
93.7845891415
 20
225.3252192343
 11
88.6600869391
 21
225.1014786362
  0
LINE
  8
0
 62
7
  6
CONTINUOUS
 10
105.1131942214
 20
262.8769776717
 11
100.2931497022
 21
264.6313304045
  0
LINE
  8
0
 62
7
  6
CONTINUOUS
 10
129.9498963968
 20
293.2350092259
 11
126.168117645
 21
296.7003709894
  0
LINE
  8
DEFAULT_2
 62
8
  6
HIDDEN
 10
165.5913386115
 20
292.3784329431
 11
165.2638270629
 21
292.9361171001
  0
LINE
  8
DEFAULT_2
 62
8
  6
HIDDEN
 10
165.7111661419
 20
293.223300144
 11
166.0770669635
 21
292.5664010728
  0
LINE
  8
0
 62
7
  6
CONTINUOUS
 10
164.5135329067
 20
311.7775787892
 11
162.3457614555
 21
316.4263796683
  0
LINE
  8
DEFAULT_2
 62
8
  6
HIDDEN
 10
184.989556021
 20
296.9318629934
 11
184.806622492
 21
297.5521933602
  0
LINE
  8
DEFAULT_2
 62
8
  6
HIDDEN
 10
185.3101299867
 20
297.7226825243
 11
185.5063270516
 21
296.9967992604
  0
LINE
  8
DEFAULT_2
 62
8
  6
HIDDEN
 10
211.7408602962
 20
292.4855769137
 11
211.5998947014
 21
293.8210304577
  0
LINE
  8
DEFAULT_2
 62
8
  6
HIDDEN
 10
211.5868635044
 20
294.2589324639
 11
211.2696900651
 21
297.2637032339
  0
LINE
  8
DEFAULT_2
 62
8
  6
HIDDEN
 10
163.5035762548
 20
289.4031596819
 11
163.1173136184
 21
289.8240374333
  0
LINE
  8
DEFAULT_2
 62
8
  6
HIDDEN
 10
163.5646526974
 20
290.1112204773
 11
163.7769786386
 21
289.8511741792
  0
LINE
  8
DEFAULT_2
 62
8
  6
HIDDEN
 10
165.8781266382
 20
291.3487058686
 11
165.6658006431
 21
291.6087523056
  0
LINE
  8
DEFAULT_2
 62
8
  6
HIDDEN
 10
165.2638270629
 20
292.9361171001
 11
165.0515010141
 21
293.1961636761
  0
LINE
  8
DEFAULT_2
 62
8
  6
HIDDEN
 10
168.7623582099
 20
295.6940200856
 11
171.8685149009
 21
291.43613762
  0
LINE
  8
DEFAULT_2
 62
8
  6
HIDDEN
 10
171.2730222452
 20
291.2463653963
 11
170.4884087954
 21
292.3361764846
  0
LINE
  8
DEFAULT_2
 62
8
  6
HIDDEN
 10
170.2599549288
 20
292.7099900231
 11
168.4945712255
 21
295.1620639925
  0
LINE
  8
DEFAULT_2
 62
8
  6
HIDDEN
 10
172.0186488209
 20
294.6772447199
 11
171.8395808967
 21
294.9612184177
  0
LINE
  8
DEFAULT_2
 62
8
  6
HIDDEN
 10
172.4195718392
 20
295.2172513102
 11
172.5986397634
 21
294.9332776124
  0
LINE
  8
DEFAULT_2
 62
8
  6
HIDDEN
 10
182.2443035547
 20
294.5497289241
 11
181.9712765075
 21
295.0515188577
  0
LINE
  8
DEFAULT_2
 62
8
  6
HIDDEN
 10
182.4747840021
 20
295.2220080218
 11
182.6179269234
 21
294.9183363462
  0
LINE
  8
DEFAULT_2
 62
8
  6
HIDDEN
 10
185.0188390849
 20
295.8633468593
 11
184.875696145
 21
296.1670186827
  0
LINE
  8
DEFAULT_2
 62
8
  6
HIDDEN
 10
184.806622492
 20
297.5521933602
 11
184.6634795335
 21
297.8558653315
  0
LINE
  8
DEFAULT_2
 62
8
  6
HIDDEN
 10
198.946344117
 20
295.2371658278
 11
198.8702662159
 21
295.5641498992
  0
LINE
  8
DEFAULT_2
 62
8
  6
HIDDEN
 10
199.5021400743
 20
295.6158970009
 11
199.5782179819
 21
295.2889130036
  0
LINE
  8
DEFAULT_2
 62
8
  6
HIDDEN
 10
199.1402038815
 20
297.4627813224
 11
199.0641259739
 21
297.7897653197
  0
LINE
  8
DEFAULT_2
 62
8
  6
HIDDEN
 10
199.6959998323
 20
297.8415124213
 11
199.7720777399
 21
297.514528424
  0
LINE
  8
DEFAULT_2
 62
8
  6
HIDDEN
 10
204.2433725955
 20
295.1402244828
 11
204.2994654542
 21
294.8092260331
  0
LINE
  8
DEFAULT_2
 62
8
  6
HIDDEN
 10
211.766014379
 20
297.5928693362
 11
212.3520878419
 21
292.3550936299
  0
LINE
  8
DEFAULT_2
 62
8
  6
HIDDEN
 10
165.3249034248
 20
293.6441781039
 11
165.7111661419
 21
293.223300144
  0
LINE
  8
DEFAULT_2
 62
8
  6
HIDDEN
 10
185.0371029116
 20
298.2244726796
 11
185.3101299867
 21
297.7226825243
  0
LINE
  8
DEFAULT_2
 62
8
  6
HIDDEN
 10
207.7724886411
 20
297.6269394147
 11
207.915970849
 21
297.175394105
  0
LINE
  8
0
 62
7
  6
CONTINUOUS
 10
200.7802597225
 20
157.6287960793
 11
252.1116011219
 21
211.5897506123
  0
LINE
  8
DEFAULT_2
 62
8
  6
HIDDEN
 10
163.9485899386
 20
289.1190884402
 11
163.5035762548
 21
289.4031596819
  0
LINE
  8
DEFAULT_2
 62
8
  6
HIDDEN
 10
164.8798897545
 20
293.9282493108
 11
165.3249034248
 21
293.6441781039
  0
LINE
  8
DEFAULT_2
 62
8
  6
HIDDEN
 10
163.7769786386
 20
289.8511741792
 11
164.0864538348
 21
289.6287228143
  0
LINE
  8
DEFAULT_2
 62
8
  6
HIDDEN
 10
165.0515010141
 20
293.1961636761
 11
164.7420258448
 21
293.4186149715
  0
LINE
  8
DEFAULT_2
 62
8
  6
HIDDEN
 10
172.4257451512
 20
294.3410807789
 11
172.0186488209
 21
294.6772447199
  0
LINE
  8
0
 62
7
  6
CONTINUOUS
 10
251.8375412964
 20
222.5633755441
 11
197.8765867634
 21
273.8947169434
  0
LINE
  8
DEFAULT_2
 62
8
  6
HIDDEN
 10
182.607419375
 20
294.1664789402
 11
182.2443035547
 21
294.5497289241
  0
LINE
  8
DEFAULT_2
 62
8
  6
HIDDEN
 10
184.6739870959
 20
298.6077226266
 11
185.0371029116
 21
298.2244726796
  0
LINE
  8
DEFAULT_2
 62
8
  6
HIDDEN
 10
182.6179269234
 20
294.9183363462
 11
182.8644268989
 21
294.6276522068
  0
LINE
  8
DEFAULT_2
 62
8
  6
HIDDEN
 10
184.6634795335
 20
297.8558653315
 11
184.4169795674
 21
298.146549397
  0
LINE
  8
DEFAULT_2
 62
8
  6
HIDDEN
 10
199.220739669
 20
294.7861217832
 11
198.946344117
 21
295.2371658278
  0
LINE
  8
DEFAULT_2
 62
8
  6
HIDDEN
 10
199.4145994367
 20
297.0117373149
 11
199.1402038815
 21
297.4627813224
  0
LINE
  8
DEFAULT_2
 62
8
  6
HIDDEN
 10
207.2821211655
 20
297.1620908131
 11
207.122993704
 21
297.5084101845
  0
LINE
  8
DEFAULT_2
 62
8
  6
HIDDEN
 10
223.8571629687
 20
289.7516778651
 11
223.9260939474
 21
289.3768347726
  0
LINE
  8
DEFAULT_2
 62
8
  6
HIDDEN
 10
165.6658006431
 20
291.6087523056
 11
165.3947191939
 21
291.7319904078
  0
LINE
  8
DEFAULT_2
 62
8
  6
HIDDEN
 10
172.5986397634
 20
294.9332776124
 11
172.8526905827
 21
294.777936172
  0
LINE
  8
DEFAULT_2
 62
8
  6
HIDDEN
 10
184.875696145
 20
296.1670186827
 11
184.6424597147
 21
296.3521498511
  0
LINE
  8
DEFAULT_2
 62
8
  6
HIDDEN
 10
189.1235686268
 20
298.8779059619
 11
192.9037358237
 21
295.4015178317
  0
LINE
  8
DEFAULT_2
 62
8
  6
HIDDEN
 10
192.287239784
 20
295.1652405055
 11
188.6111653567
 21
298.6455726583
  0
LINE
  8
DEFAULT_2
 62
8
  6
HIDDEN
 10
187.6606457609
 20
297.7029874286
 11
186.9762274303
 21
298.3934556976
  0
LINE
  8
DEFAULT_2
 62
8
  6
HIDDEN
 10
186.9058762116
 20
299.2416067311
 11
187.5902945175
 21
298.5511387592
  0
LINE
  8
DEFAULT_2
 62
8
  6
HIDDEN
 10
199.5782179819
 20
295.2889130036
 11
199.7673042067
 21
295.0588712395
  0
LINE
  8
DEFAULT_2
 62
8
  6
HIDDEN
 10
199.7720777399
 20
297.514528424
 11
199.9611639711
 21
297.2844867342
  0
LINE
  8
DEFAULT_2
 62
8
  6
HIDDEN
 10
203.9995196436
 20
294.2085104792
 11
203.649969327
 21
294.6906969045
  0
LINE
  8
DEFAULT_2
 62
8
  6
HIDDEN
 10
207.4229394983
 20
298.1091256278
 11
207.7724886411
 21
297.6269394147
  0
LINE
  8
DEFAULT_2
 62
8
  6
HIDDEN
 10
222.3353761563
 20
291.8280332864
 11
222.2116268157
 21
292.0988805898
  0
LINE
  8
DEFAULT_2
 62
8
  6
HIDDEN
 10
222.3560598799
 20
292.49915107
 11
222.4798092206
 21
292.2283037667
  0
LINE
  8
DEFAULT_2
 62
8
  6
HIDDEN
 10
223.8167766714
 20
288.8459545103
 11
223.6517590977
 21
289.2610224711
  0
LINE
  8
DEFAULT_2
 62
8
  6
HIDDEN
 10
220.6903506623
 20
293.1002033544
 11
221.0565158634
 21
293.1942705503
  0
LINE
  8
DEFAULT_2
 62
8
  6
HIDDEN
 10
225.4913310527
 20
288.2602618625
 11
225.1209094327
 21
288.1846744927
  0
LINE
  8
DEFAULT_2
 62
8
  6
HIDDEN
 10
224.8598050545
 20
288.6399673995
 11
225.3263133001
 21
288.6753298781
  0
LINE
  8
DEFAULT_2
 62
8
  6
HIDDEN
 10
164.549503908
 20
289.009418685
 11
163.9485899386
 21
289.1190884402
  0
LINE
  8
DEFAULT_2
 62
8
  6
HIDDEN
 10
164.0864538348
 20
289.6287228143
 11
164.454680065
 21
289.5430779939
  0
LINE
  8
DEFAULT_2
 62
8
  6
HIDDEN
 10
165.3947191939
 20
291.7319904078
 11
165.0264929637
 21
291.8176352281
  0
LINE
  8
DEFAULT_2
 62
8
  6
HIDDEN
 10
164.9316735913
 20
292.3512961972
 11
165.6681260517
 21
292.1800065565
  0
LINE
  8
DEFAULT_2
 62
8
  6
HIDDEN
 10
164.7420258448
 20
293.4186149715
 11
164.3737996146
 21
293.5042597918
  0
LINE
  8
DEFAULT_2
 62
8
  6
HIDDEN
 10
172.9078243767
 20
294.1335490952
 11
172.4257451512
 21
294.3410807789
  0
LINE
  8
DEFAULT_2
 62
8
  6
HIDDEN
 10
183.1639762855
 20
293.9147558939
 11
182.607419375
 21
294.1664789402
  0
LINE
  8
DEFAULT_2
 62
8
  6
HIDDEN
 10
182.8644268989
 20
294.6276522068
 11
183.2010156428
 21
294.455508054
  0
LINE
  8
DEFAULT_2
 62
8
  6
HIDDEN
 10
184.6424597147
 20
296.3521498511
 11
184.3058709709
 21
296.5242940039
  0
LINE
  8
DEFAULT_2
 62
8
  6
HIDDEN
 10
184.342905605
 20
297.0650455049
 11
185.0160830928
 21
296.7207571993
  0
LINE
  8
DEFAULT_2
 62
8
  6
HIDDEN
 10
184.4169795674
 20
298.146549397
 11
184.0803908235
 21
298.3186935498
  0
LINE
  8
DEFAULT_2
 62
8
  6
HIDDEN
 10
204.3803629145
 20
293.9367761787
 11
203.9995196436
 21
294.2085104792
  0
LINE
  8
DEFAULT_2
 62
8
  6
HIDDEN
 10
199.6081411703
 20
294.4320202622
 11
199.220739669
 21
294.7861217832
  0
LINE
  8
DEFAULT_2
 62
8
  6
HIDDEN
 10
204.2994654542
 20
294.8092260331
 11
204.5772740717
 21
294.5528123135
  0
LINE
  8
DEFAULT_2
 62
8
  6
HIDDEN
 10
207.122993704
 20
297.5084101845
 11
206.8451850755
 21
297.7648238304
  0
LINE
  8
DEFAULT_2
 62
8
  6
HIDDEN
 10
223.9678693496
 20
288.6673735505
 11
223.8167766714
 21
288.8459545103
  0
LINE
  8
DEFAULT_2
 62
8
  6
HIDDEN
 10
222.2116268157
 20
292.0988805898
 11
221.9898949592
 21
292.405083773
  0
LINE
  8
DEFAULT_2
 62
8
  6
HIDDEN
 10
222.1343280234
 20
292.8053542532
 11
222.3560598799
 21
292.49915107
  0
LINE
  8
DEFAULT_2
 62
8
  6
HIDDEN
 10
223.9260939474
 20
289.3768347726
 11
224.1321924485
 21
289.0598978709
  0
LINE
  8
DEFAULT_2
 62
8
  6
HIDDEN
 10
176.4093790084
 20
292.6031498849
 11
175.8033656527
 21
292.4502681896
  0
LINE
  8
DEFAULT_2
 62
8
  6
HIDDEN
 10
175.2568949041
 20
294.6164436192
 11
173.4388548372
 21
294.1577985332
  0
LINE
  8
DEFAULT_2
 62
8
  6
HIDDEN
 10
200.2078652771
 20
296.5154976879
 11
199.8873126397
 21
296.4366332972
  0
LINE
  8
DEFAULT_2
 62
8
  6
HIDDEN
 10
200.3924936316
 20
298.6351315771
 11
200.0719409942
 21
298.5562671865
  0
LINE
  8
DEFAULT_2
 62
8
  6
HIDDEN
 10
165.0736259835
 20
289.0981736127
 11
164.549503908
 21
289.009418685
  0
LINE
  8
DEFAULT_2
 62
8
  6
HIDDEN
 10
164.4075470722
 20
292.2625395398
 11
164.9316735913
 21
292.3512961972
  0
LINE
  8
DEFAULT_2
 62
8
  6
HIDDEN
 10
221.2060314681
 20
292.6879320258
 11
220.9739576096
 21
292.6585763678
  0
LINE
  8
DEFAULT_2
 62
8
  6
HIDDEN
 10
184.2107818837
 20
293.9390755217
 11
183.6940108531
 21
293.8741392546
  0
LINE
  8
DEFAULT_2
 62
8
  6
HIDDEN
 10
183.5243408507
 20
294.3889167983
 11
184.2478165086
 21
294.4798270965
  0
LINE
  8
DEFAULT_2
 62
8
  6
HIDDEN
 10
183.9825457629
 20
296.5908852597
 11
183.259070105
 21
296.4999749614
  0
LINE
  8
DEFAULT_2
 62
8
  6
HIDDEN
 10
205.9010685681
 20
294.2484195074
 11
206.3288512728
 21
294.2923634079
  0
LINE
  8
DEFAULT_2
 62
8
  6
HIDDEN
 10
205.5213905792
 20
298.0692166365
 11
205.0936078745
 21
298.0252727361
  0
LINE
  8
DEFAULT_2
 62
8
  6
HIDDEN
 10
187.319189671
 20
294.258718815
 11
186.6963310575
 21
294.2070548297
  0
LINE
  8
DEFAULT_2
 62
8
  6
HIDDEN
 10
206.3380046923
 20
293.6456867204
 11
205.8071896979
 21
293.6170630871
  0
LINE
  8
DEFAULT_2
 62
8
  6
HIDDEN
 10
173.4388548372
 20
294.1577985332
 11
172.9078243767
 21
294.1335490952
  0
LINE
  8
DEFAULT_2
 62
8
  6
HIDDEN
 10
164.454680065
 20
289.5430779939
 11
164.7845125751
 21
289.5566463669
  0
LINE
  8
DEFAULT_2
 62
8
  6
HIDDEN
 10
165.0264929637
 20
291.8176352281
 11
164.6966604536
 21
291.8040668552
  0
LINE
  8
DEFAULT_2
 62
8
  6
HIDDEN
 10
164.3737996146
 20
293.5042597918
 11
164.0439671045
 21
293.4906914189
  0
LINE
  8
DEFAULT_2
 62
8
  6
HIDDEN
 10
192.9359590802
 20
294.5510642714
 11
188.7722816477
 21
294.3933046334
  0
LINE
  8
DEFAULT_2
 62
8
  6
HIDDEN
 10
188.7481142046
 20
295.0311448222
 11
192.287239784
 21
295.1652405055
  0
LINE
  8
DEFAULT_2
 62
8
  6
HIDDEN
 10
221.0565158634
 20
293.1942705503
 11
221.3865727985
 21
293.1882701261
  0
LINE
  8
DEFAULT_2
 62
8
  6
HIDDEN
 10
183.6940108531
 20
293.8741392546
 11
183.1639762855
 21
293.9147558939
  0
LINE
  8
DEFAULT_2
 62
8
  6
HIDDEN
 10
183.8128757697
 20
297.1056627294
 11
184.342905605
 21
297.0650455049
  0
LINE
  8
DEFAULT_2
 62
8
  6
HIDDEN
 10
172.8526905827
 20
294.777936172
 11
173.1817196736
 21
294.7512258225
  0
LINE
  8
DEFAULT_2
 62
8
  6
HIDDEN
 10
202.6083474309
 20
294.0639048486
 11
200.117777663
 21
294.2808431606
  0
LINE
  8
DEFAULT_2
 62
8
  6
HIDDEN
 10
200.0693940112
 20
294.9257722709
 11
202.041093494
 21
294.7540295785
  0
LINE
  8
DEFAULT_2
 62
8
  6
HIDDEN
 10
202.1795647599
 20
296.3437549954
 11
200.2078652771
 21
296.5154976879
  0
LINE
  8
DEFAULT_2
 62
8
  6
HIDDEN
 10
221.6340714797
 20
292.6465755194
 11
221.2060314681
 21
292.6879320258
  0
LINE
  8
DEFAULT_2
 62
8
  6
HIDDEN
 10
225.1209094327
 20
288.1846744927
 11
224.6954819663
 21
288.247443105
  0
LINE
  8
DEFAULT_2
 62
8
  6
HIDDEN
 10
205.8071896979
 20
293.6170630871
 11
204.8798849531
 21
293.754947678
  0
LINE
  8
DEFAULT_2
 62
8
  6
HIDDEN
 10
204.9737638234
 20
294.3863040984
 11
205.9010685681
 21
294.2484195074
  0
LINE
  8
DEFAULT_2
 62
8
  6
HIDDEN
 10
203.6251694324
 20
295.2321475434
 11
204.2433725955
 21
295.1402244828
  0
LINE
  8
DEFAULT_2
 62
8
  6
HIDDEN
 10
164.2789802422
 20
294.0379207609
 11
164.8798897545
 21
293.9282493108
  0
LINE
  8
DEFAULT_2
 62
8
  6
HIDDEN
 10
183.2010156428
 20
294.455508054
 11
183.5243408507
 21
294.3889167983
  0
LINE
  8
DEFAULT_2
 62
8
  6
HIDDEN
 10
184.3058709709
 20
296.5242940039
 11
183.9825457629
 21
296.5908852597
  0
LINE
  8
DEFAULT_2
 62
8
  6
HIDDEN
 10
184.0803908235
 20
298.3186935498
 11
183.7570656155
 21
298.3852848055
  0
LINE
  8
DEFAULT_2
 62
8
  6
HIDDEN
 10
212.3520878419
 20
292.3550936299
 11
211.7408602962
 21
292.4855769137
  0
LINE
  8
DEFAULT_2
 62
8
  6
HIDDEN
 10
208.8884654714
 20
293.0944988218
 11
208.2772379257
 21
293.2249821056
  0
LINE
  8
DEFAULT_2
 62
8
  6
HIDDEN
 10
211.5998947014
 20
293.8210304577
 11
209.5624691604
 21
294.25597482
  0
LINE
  8
DEFAULT_2
 62
8
  6
HIDDEN
 10
209.7531808672
 20
294.6503823153
 11
211.5868635044
 21
294.2589324639
  0
LINE
  8
DEFAULT_2
 62
8
  6
HIDDEN
 10
200.117777663
 20
294.2808431606
 11
199.6081411703
 21
294.4320202622
  0
LINE
  8
DEFAULT_2
 62
8
  6
HIDDEN
 10
218.4565575966
 20
290.5915120361
 11
217.9611827718
 21
290.7523564864
  0
LINE
  8
DEFAULT_2
 62
8
  6
HIDDEN
 10
221.9948004772
 20
289.3496976372
 11
221.5048859355
 21
289.5264777447
  0
LINE
  8
DEFAULT_2
 62
8
  6
HIDDEN
 10
219.7411939216
 20
290.16288601
 11
219.2512796602
 21
290.3396660163
  0
LINE
  8
DEFAULT_2
 62
8
  6
HIDDEN
 10
204.8798849531
 20
293.754947678
 11
204.3803629145
 21
293.9367761787
  0
LINE
  8
DEFAULT_2
 62
8
  6
HIDDEN
 10
224.6954819663
 20
288.247443105
 11
224.3111352032
 21
288.4083428197
  0
LINE
  8
DEFAULT_2
 62
8
  6
HIDDEN
 10
223.2541817765
 20
288.8508169632
 11
222.7737482883
 21
289.051941621
  0
LINE
  8
DEFAULT_2
 62
8
  6
HIDDEN
 10
224.4754582914
 20
288.8008671143
 11
224.8598050545
 21
288.6399673995
  0
LINE
  8
DEFAULT_2
 62
8
  6
HIDDEN
 10
204.5772740717
 20
294.5528123135
 11
204.9737638234
 21
294.3863040984
  0
LINE
  8
DEFAULT_2
 62
8
  6
HIDDEN
 10
206.8451850755
 20
297.7648238304
 11
206.4486953239
 21
297.9313320455
  0
LINE
  8
DEFAULT_2
 62
8
  6
HIDDEN
 10
199.7673042067
 20
295.0588712395
 11
200.0693940112
 21
294.9257722709
  0
LINE
  8
DEFAULT_2
 62
8
  6
HIDDEN
 10
199.9611639711
 20
297.2844867342
 11
200.2632537757
 21
297.1513877656
  0
LINE
  8
DEFAULT_2
 62
8
  6
HIDDEN
 10
184.1174254577
 20
298.8594450507
 11
184.6739870959
 21
298.6077226266
  0
LINE
  8
DEFAULT_2
 62
8
  6
HIDDEN
 10
199.6129170844
 20
296.8876773047
 11
199.4145994367
 21
297.0117373149
  0
LINE
  8
DEFAULT_2
 62
8
  6
HIDDEN
 10
221.9898949592
 20
292.405083773
 11
221.6340714797
 21
292.6465755194
  0
LINE
  8
DEFAULT_2
 62
8
  6
HIDDEN
 10
221.778504544
 20
293.0468459997
 11
222.1343280234
 21
292.8053542532
  0
LINE
  8
DEFAULT_2
 62
8
  6
HIDDEN
 10
207.0420962232
 20
298.3808599007
 11
207.4229394983
 21
298.1091256278
  0
LINE
  8
DEFAULT_2
 62
8
  6
HIDDEN
 10
224.3111352032
 20
288.4083428197
 11
223.9678693496
 21
288.6673735505
  0
LINE
  8
DEFAULT_2
 62
8
  6
HIDDEN
 10
224.1321924485
 20
289.0598978709
 11
224.4754582914
 21
288.8008671143
  0
LINE
  8
0
 62
7
  6
CONTINUOUS
 10
284.220645585
 20
218.3355901292
 11
284.220645585
 21
235.8897265986
  0
LINE
  8
0
 62
7
  6
CONTINUOUS
 10
278.3783537648
 20
183.5426786758
 11
285.0960309611
 21
199.7605860708
  0
LINE
  8
0
 62
7
  6
CONTINUOUS
 10
259.6661091522
 20
153.6339681942
 11
272.0787580876
 21
166.0466171296
  0
LINE
  8
0
 62
7
  6
CONTINUOUS
 10
230.9326813625
 20
133.162788732
 11
247.1505887575
 21
139.8804659283
  0
LINE
  8
DEFAULT_2
 62
8
  6
HIDDEN
 10
173.1817196736
 20
294.7512258225
 11
175.1007604254
 21
295.2353508023
  0
LINE
  8
DEFAULT_2
 62
8
  6
HIDDEN
 10
174.7104241556
 20
296.7826190489
 11
172.7913834038
 21
296.2984940691
  0
LINE
  8
DEFAULT_2
 62
8
  6
HIDDEN
 10
172.762272023
 20
296.8397299487
 11
175.1863254456
 21
297.4512567301
  0
LINE
  8
DEFAULT_2
 62
8
  6
HIDDEN
 10
163.7548537231
 20
293.9491641036
 11
164.2789802422
 21
294.0379207609
  0
LINE
  8
DEFAULT_2
 62
8
  6
HIDDEN
 10
183.2961047392
 20
297.0407264623
 11
183.8128757697
 21
297.1056627294
  0
LINE
  8
DEFAULT_2
 62
8
  6
HIDDEN
 10
182.389690784
 20
297.5701462321
 11
181.8729244846
 21
297.5052105595
  0
LINE
  8
DEFAULT_2
 62
8
  6
HIDDEN
 10
183.7570656155
 20
298.3852848055
 11
183.1369422713
 21
298.3073615228
  0
LINE
  8
DEFAULT_2
 62
8
  6
HIDDEN
 10
183.1739769055
 20
298.8481130238
 11
183.5873956224
 21
298.9000622752
  0
LINE
  8
DEFAULT_2
 62
8
  6
HIDDEN
 10
200.0235549607
 20
299.2011964295
 11
200.5516542871
 21
299.2619826964
  0
LINE
  8
DEFAULT_2
 62
8
  6
HIDDEN
 10
186.2830175981
 20
299.1899427457
 11
186.9058762116
 21
299.2416067311
  0
LINE
  8
DEFAULT_2
 62
8
  6
HIDDEN
 10
205.0844544454
 20
298.6719493591
 11
205.6152694385
 21
298.7005729832
  0
LINE
  8
DEFAULT_2
 62
8
  6
HIDDEN
 10
192.7667869759
 20
299.0159456678
 11
189.1235686268
 21
298.8779059619
  0
LINE
  8
DEFAULT_2
 62
8
  6
HIDDEN
 10
188.5829700098
 20
299.3897194584
 11
192.7466474423
 21
299.5474790965
  0
LINE
  8
0
 62
7
  6
CONTINUOUS
 10
191.1307472465
 20
306.0037614066
 11
173.5766107771
 21
306.0037614066
  0
LINE
  8
DEFAULT_2
 62
8
  6
HIDDEN
 10
183.5873956224
 20
298.9000622752
 11
184.1174254577
 21
298.8594450507
  0
LINE
  8
DEFAULT_2
 62
8
  6
HIDDEN
 10
200.2632537757
 20
297.1513877656
 11
202.2349532585
 21
296.9796450731
  0
LINE
  8
DEFAULT_2
 62
8
  6
HIDDEN
 10
202.3641931144
 20
298.4633888847
 11
200.3924936316
 21
298.6351315771
  0
LINE
  8
DEFAULT_2
 62
8
  6
HIDDEN
 10
200.5516542871
 20
299.2619826964
 11
203.042224055
 21
299.0450443844
  0
LINE
  8
DEFAULT_2
 62
8
  6
HIDDEN
 10
204.603241578
 20
297.5604239591
 11
203.9850384148
 21
297.6523470197
  0
LINE
  8
DEFAULT_2
 62
8
  6
HIDDEN
 10
206.4486953239
 20
297.9313320455
 11
205.5213905792
 21
298.0692166365
  0
LINE
  8
DEFAULT_2
 62
8
  6
HIDDEN
 10
205.6152694385
 20
298.7005729832
 11
206.5425741832
 21
298.5626883922
  0
LINE
  8
DEFAULT_2
 62
8
  6
HIDDEN
 10
210.9510439294
 20
297.7668471309
 11
211.766014379
 21
297.5928693362
  0
LINE
  8
DEFAULT_2
 62
8
  6
HIDDEN
 10
219.0124898441
 20
293.9902117926
 11
219.5078646688
 21
293.8293673423
  0
LINE
  8
DEFAULT_2
 62
8
  6
HIDDEN
 10
219.8363981922
 20
294.8411973204
 11
219.3410233674
 21
295.0020417706
  0
LINE
  8
DEFAULT_2
 62
8
  6
HIDDEN
 10
219.5052900831
 20
295.5079566179
 11
220.0006649078
 21
295.3471121677
  0
LINE
  8
DEFAULT_2
 62
8
  6
HIDDEN
 10
221.3865727985
 20
293.1882701261
 11
221.778504544
 21
293.0468459997
  0
LINE
  8
DEFAULT_2
 62
8
  6
HIDDEN
 10
222.6603505509
 20
292.728641867
 11
223.1502650927
 21
292.5518617596
  0
LINE
  8
DEFAULT_2
 62
8
  6
HIDDEN
 10
206.5425741832
 20
298.5626883922
 11
207.0420962232
 21
298.3808599007
  0
LINE
  8
0
 62
7
  6
CONTINUOUS
 10
225.9236586999
 20
300.1614695864
 11
209.7057513049
 21
306.8791467827
  0
LINE
  8
DEFAULT_2
 62
8
  6
HIDDEN
 10
224.2805064435
 20
292.1116860916
 11
224.7609399317
 21
291.9105614338
  0
LINE
  8
DEFAULT_2
 62
8
  6
HIDDEN
 10
226.682673438
 20
291.1060629896
 11
227.1631068231
 21
290.904938375
  0
LINE
  8
0
 62
7
  6
CONTINUOUS
 10
255.8323691815
 20
281.4492249738
 11
243.4197202461
 21
293.8618739092
  0
LINE
  8
0
 62
7
  6
CONTINUOUS
 10
276.3035486437
 20
252.7157971841
 11
269.5858714474
 21
268.9337045791
  0
LINE
  8
0
 62
7
  6
CONTINUOUS
 10
396.4401537928
 20
109.486822148
 11
402.8901537928
 21
109.486822148
  0
LINE
  8
0
 62
7
  6
CONTINUOUS
 10
413.1901537928
 20
109.486822148
 11
419.6401537928
 21
109.486822148
  0
LINE
  8
DEFAULT_2
 62
8
  6
HIDDEN
 10
396.4401537928
 20
109.6255108716
 11
402.8901537928
 21
109.6255108716
  0
LINE
  8
DEFAULT_2
 62
8
  6
HIDDEN
 10
413.1901537928
 20
109.6255108716
 11
419.6401537928
 21
109.6255108716
  0
LINE
  8
0
 62
9
  6
CONTINUOUS
 10
396.4401537928
 20
110.4432027606
 11
402.8901537928
 21
110.4432027606
  0
LINE
  8
0
 62
9
  6
CONTINUOUS
 10
413.1901537928
 20
110.4432027606
 11
419.6401537928
 21
110.4432027606
  0
LINE
  8
DEFAULT_2
 62
8
  6
HIDDEN
 10
396.4401537928
 20
114.2456917907
 11
402.8901537928
 21
114.2456917907
  0
LINE
  8
DEFAULT_2
 62
8
  6
HIDDEN
 10
413.1901537928
 20
114.2456917907
 11
419.6401537928
 21
114.2456917907
  0
LINE
  8
DEFAULT_2
 62
8
  6
HIDDEN
 10
396.4401537928
 20
114.6443768253
 11
402.8901537928
 21
114.6443768253
  0
LINE
  8
DEFAULT_2
 62
8
  6
HIDDEN
 10
413.1901537928
 20
114.6443768253
 11
419.6401537928
 21
114.6443768253
  0
LINE
  8
DEFAULT_2
 62
8
  6
HIDDEN
 10
396.4401537928
 20
114.823073529
 11
402.8901537928
 21
114.823073529
  0
LINE
  8
DEFAULT_2
 62
8
  6
HIDDEN
 10
413.1901537928
 20
114.823073529
 11
419.6401537928
 21
114.823073529
  0
LINE
  8
0
 62
9
  6
CONTINUOUS
 10
396.4401537928
 20
115.5677049631
 11
402.8901537928
 21
115.5677049631
  0
LINE
  8
0
 62
9
  6
CONTINUOUS
 10
413.1901537928
 20
115.5677049631
 11
419.6401537928
 21
115.5677049631
  0
LINE
  8
DEFAULT_2
 62
8
  6
HIDDEN
 10
396.4401537928
 20
119.4718744081
 11
402.8901537928
 21
119.4718744081
  0
LINE
  8
DEFAULT_2
 62
8
  6
HIDDEN
 10
413.1901537928
 20
119.4718744081
 11
419.6401537928
 21
119.4718744081
  0
LINE
  8
0
 62
7
  6
CONTINUOUS
 10
396.4401537928
 20
120.7342453804
 11
402.8901537928
 21
120.7342453804
  0
LINE
  8
0
 62
7
  6
CONTINUOUS
 10
413.1901537928
 20
120.7342453804
 11
419.6401537928
 21
120.7342453804
  0
LINE
  8
DEFAULT_2
 62
8
  6
HIDDEN
 10
396.4401537928
 20
120.744064627
 11
402.8901537928
 21
120.744064627
  0
LINE
  8
DEFAULT_2
 62
8
  6
HIDDEN
 10
413.1901537928
 20
120.744064627
 11
419.6401537928
 21
120.744064627
  0
LINE
  8
0
 62
9
  6
CONTINUOUS
 10
396.4401537928
 20
122.0762655238
 11
402.8901537928
 21
122.0762655238
  0
LINE
  8
0
 62
9
  6
CONTINUOUS
 10
413.1901537928
 20
122.0762655238
 11
419.6401537928
 21
122.0762655238
  0
LINE
  8
DEFAULT_2
 62
8
  6
HIDDEN
 10
396.4401537928
 20
123.9254639095
 11
402.8901537928
 21
123.9254639095
  0
LINE
  8
DEFAULT_2
 62
8
  6
HIDDEN
 10
413.1901537928
 20
123.9254639095
 11
419.6401537928
 21
123.9254639095
  0
LINE
  8
DEFAULT_2
 62
8
  6
HIDDEN
 10
396.4401537928
 20
124.3703064146
 11
402.8901537928
 21
124.3703064146
  0
LINE
  8
DEFAULT_2
 62
8
  6
HIDDEN
 10
413.1901537928
 20
124.3703064146
 11
419.6401537928
 21
124.3703064146
  0
LINE
  8
DEFAULT_2
 62
8
  6
HIDDEN
 10
419.6401537928
 20
125.2456917907
 11
413.1901537928
 21
125.2456917907
  0
LINE
  8
DEFAULT_2
 62
8
  6
HIDDEN
 10
402.8901537928
 20
125.2456917907
 11
396.4401537928
 21
125.2456917907
  0
LINE
  8
DEFAULT_2
 62
8
  6
HIDDEN
 10
419.6401537928
 20
125.4456917907
 11
413.1901537928
 21
125.4456917907
  0
LINE
  8
DEFAULT_2
 62
8
  6
HIDDEN
 10
402.8901537928
 20
125.4456917907
 11
396.4401537928
 21
125.4456917907
  0
LINE
  8
DEFAULT_2
 62
8
  6
HIDDEN
 10
396.4401537928
 20
126.2456917907
 11
402.8901537928
 21
126.2456917907
  0
LINE
  8
DEFAULT_2
 62
8
  6
HIDDEN
 10
413.1901537928
 20
126.2456917907
 11
419.6401537928
 21
126.2456917907
  0
LINE
  8
0
 62
9
  6
CONTINUOUS
 10
396.4401537928
 20
126.896310043
 11
402.8901537928
 21
126.896310043
  0
LINE
  8
0
 62
9
  6
CONTINUOUS
 10
413.1901537928
 20
126.896310043
 11
419.6401537928
 21
126.896310043
  0
LINE
  8
0
 62
7
  6
CONTINUOUS
 10
413.1901537928
 20
127.7206917907
 11
402.8901537928
 21
127.7206917907
  0
LINE
  8
0
 62
7
  6
CONTINUOUS
 10
393.4401537928
 20
127.7206917907
 11
396.4401537928
 21
127.7206917907
  0
LINE
  8
0
 62
7
  6
CONTINUOUS
 10
419.6401537928
 20
127.7206917907
 11
422.6401537928
 21
127.7206917907
  0
LINE
  8
DEFAULT_2
 62
8
  6
HIDDEN
 10
396.4401537928
 20
130.4221978355
 11
402.8901537928
 21
130.4221978355
  0
LINE
  8
DEFAULT_2
 62
8
  6
HIDDEN
 10
413.1901537928
 20
130.4221978355
 11
419.6401537928
 21
130.4221978355
  0
LINE
  8
DEFAULT_2
 62
8
  6
HIDDEN
 10
419.6401537928
 20
131.0879836109
 11
413.1901537928
 21
131.0879836109
  0
LINE
  8
DEFAULT_2
 62
8
  6
HIDDEN
 10
402.8901537928
 20
131.0879836109
 11
396.4401537928
 21
131.0879836109
  0
LINE
  8
DEFAULT_2
 62
8
  6
HIDDEN
 10
396.4401537928
 20
131.389111472
 11
402.8901537928
 21
131.389111472
  0
LINE
  8
DEFAULT_2
 62
8
  6
HIDDEN
 10
413.1901537928
 20
131.389111472
 11
419.6401537928
 21
131.389111472
  0
LINE
  8
DEFAULT_2
 62
8
  6
HIDDEN
 10
419.6401537928
 20
131.4258328903
 11
413.1901537928
 21
131.4258328903
  0
LINE
  8
DEFAULT_2
 62
8
  6
HIDDEN
 10
402.8901537928
 20
131.4258328903
 11
396.4401537928
 21
131.4258328903
  0
LINE
  8
DEFAULT_2
 62
8
  6
HIDDEN
 10
396.4401537928
 20
132.9294709431
 11
402.8901537928
 21
132.9294709431
  0
LINE
  8
DEFAULT_2
 62
8
  6
HIDDEN
 10
413.1901537928
 20
132.9294709431
 11
419.6401537928
 21
132.9294709431
  0
LINE
  8
DEFAULT_2
 62
8
  6
HIDDEN
 10
419.6401537928
 20
133.1247284983
 11
413.1901537928
 21
133.1247284983
  0
LINE
  8
DEFAULT_2
 62
8
  6
HIDDEN
 10
402.8901537928
 20
133.1247284983
 11
396.4401537928
 21
133.1247284983
  0
LINE
  8
DEFAULT_2
 62
8
  6
HIDDEN
 10
419.6401537928
 20
133.162788732
 11
413.1901537928
 21
133.162788732
  0
LINE
  8
DEFAULT_2
 62
8
  6
HIDDEN
 10
402.8901537928
 20
133.162788732
 11
396.4401537928
 21
133.162788732
  0
LINE
  8
DEFAULT_2
 62
8
  6
HIDDEN
 10
419.6401537928
 20
133.1944912656
 11
413.1901537928
 21
133.1944912656
  0
LINE
  8
DEFAULT_2
 62
8
  6
HIDDEN
 10
402.8901537928
 20
133.1944912656
 11
396.4401537928
 21
133.1944912656
  0
LINE
  8
DEFAULT_2
 62
8
  6
HIDDEN
 10
396.4401537928
 20
133.4735423348
 11
402.8901537928
 21
133.4735423348
  0
LINE
  8
DEFAULT_2
 62
8
  6
HIDDEN
 10
413.1901537928
 20
133.4735423348
 11
419.6401537928
 21
133.4735423348
  0
LINE
  8
DEFAULT_2
 62
8
  6
HIDDEN
 10
396.4401537928
 20
134.2863595447
 11
402.8901537928
 21
134.2863595447
  0
LINE
  8
DEFAULT_2
 62
8
  6
HIDDEN
 10
413.1901537928
 20
134.2863595447
 11
419.6401537928
 21
134.2863595447
  0
LINE
  8
DEFAULT_2
 62
8
  6
HIDDEN
 10
396.4401537928
 20
134.5490822079
 11
402.8901537928
 21
134.5490822079
  0
LINE
  8
DEFAULT_2
 62
8
  6
HIDDEN
 10
413.1901537928
 20
134.5490822079
 11
419.6401537928
 21
134.5490822079
  0
LINE
  8
DEFAULT_2
 62
8
  6
HIDDEN
 10
396.4401537928
 20
135.0365856429
 11
402.8901537928
 21
135.0365856429
  0
LINE
  8
DEFAULT_2
 62
8
  6
HIDDEN
 10
413.1901537928
 20
135.0365856429
 11
419.6401537928
 21
135.0365856429
  0
LINE
  8
0
 62
9
  6
CONTINUOUS
 10
396.4401537928
 20
137.3875792881
 11
402.8901537928
 21
137.3875792881
  0
LINE
  8
0
 62
9
  6
CONTINUOUS
 10
413.1901537928
 20
137.3875792881
 11
419.6401537928
 21
137.3875792881
  0
LINE
  8
DEFAULT_2
 62
8
  6
HIDDEN
 10
396.4401537928
 20
138.0144439713
 11
402.8901537928
 21
138.0144439713
  0
LINE
  8
DEFAULT_2
 62
8
  6
HIDDEN
 10
413.1901537928
 20
138.0144439713
 11
419.6401537928
 21
138.0144439713
  0
LINE
  8
DEFAULT_2
 62
8
  6
HIDDEN
 10
396.4401537928
 20
139.8804659283
 11
402.8901537928
 21
139.8804659283
  0
LINE
  8
DEFAULT_2
 62
8
  6
HIDDEN
 10
413.1901537928
 20
139.8804659283
 11
419.6401537928
 21
139.8804659283
  0
LINE
  8
DEFAULT_2
 62
8
  6
HIDDEN
 10
396.4401537928
 20
140.6416706032
 11
402.8901537928
 21
140.6416706032
  0
LINE
  8
DEFAULT_2
 62
8
  6
HIDDEN
 10
413.1901537928
 20
140.6416706032
 11
419.6401537928
 21
140.6416706032
  0
LINE
  8
0
 62
7
  6
CONTINUOUS
 10
396.4401537928
 20
145.8635976861
 11
402.8901537928
 21
145.8635976861
  0
LINE
  8
0
 62
7
  6
CONTINUOUS
 10
413.1901537928
 20
145.8635976861
 11
419.6401537928
 21
145.8635976861
  0
LINE
  8
0
 62
9
  6
CONTINUOUS
 10
396.4401537928
 20
146.3073390723
 11
402.8901537928
 21
146.3073390723
  0
LINE
  8
0
 62
9
  6
CONTINUOUS
 10
413.1901537928
 20
146.3073390723
 11
419.6401537928
 21
146.3073390723
  0
LINE
  8
0
 62
9
  6
CONTINUOUS
 10
396.4401537928
 20
147.9512334666
 11
402.8901537928
 21
147.9512334666
  0
LINE
  8
0
 62
9
  6
CONTINUOUS
 10
413.1901537928
 20
147.9512334666
 11
419.6401537928
 21
147.9512334666
  0
LINE
  8
DEFAULT_2
 62
8
  6
HIDDEN
 10
419.6401537928
 20
149.8002282235
 11
413.1901537928
 21
149.8002282235
  0
LINE
  8
DEFAULT_2
 62
8
  6
HIDDEN
 10
402.8901537928
 20
149.8002282235
 11
396.4401537928
 21
149.8002282235
  0
LINE
  8
DEFAULT_2
 62
8
  6
HIDDEN
 10
396.4401537928
 20
149.8902444028
 11
402.8901537928
 21
149.8902444028
  0
LINE
  8
DEFAULT_2
 62
8
  6
HIDDEN
 10
413.1901537928
 20
149.8902444028
 11
419.6401537928
 21
149.8902444028
  0
LINE
  8
DEFAULT_2
 62
8
  6
HIDDEN
 10
419.6401537928
 20
150.2244922922
 11
413.1901537928
 21
150.2244922922
  0
LINE
  8
DEFAULT_2
 62
8
  6
HIDDEN
 10
402.8901537928
 20
150.2244922922
 11
396.4401537928
 21
150.2244922922
  0
LINE
  8
DEFAULT_2
 62
8
  6
HIDDEN
 10
391.4401537928
 20
150.8324991628
 11
424.6401537928
 21
150.8324991628
  0
LINE
  8
DEFAULT_2
 62
8
  6
HIDDEN
 10
396.4401537928
 20
151.6768678399
 11
402.8901537928
 21
151.6768678399
  0
LINE
  8
DEFAULT_2
 62
8
  6
HIDDEN
 10
413.1901537928
 20
151.6768678399
 11
419.6401537928
 21
151.6768678399
  0
LINE
  8
0
 62
9
  6
CONTINUOUS
 10
396.4401537928
 20
151.7330122183
 11
402.8901537928
 21
151.7330122183
  0
LINE
  8
0
 62
9
  6
CONTINUOUS
 10
413.1901537928
 20
151.7330122183
 11
419.6401537928
 21
151.7330122183
  0
LINE
  8
DEFAULT_2
 62
8
  6
HIDDEN
 10
396.4401537928
 20
152.5073350047
 11
402.8901537928
 21
152.5073350047
  0
LINE
  8
DEFAULT_2
 62
8
  6
HIDDEN
 10
413.1901537928
 20
152.5073350047
 11
419.6401537928
 21
152.5073350047
  0
LINE
  8
DEFAULT_2
 62
8
  6
HIDDEN
 10
419.6401537928
 20
153.4875215848
 11
413.1901537928
 21
153.4875215848
  0
LINE
  8
DEFAULT_2
 62
8
  6
HIDDEN
 10
402.8901537928
 20
153.4875215848
 11
396.4401537928
 21
153.4875215848
  0
LINE
  8
DEFAULT_2
 62
8
  6
HIDDEN
 10
419.6401537928
 20
153.492546838
 11
413.1901537928
 21
153.492546838
  0
LINE
  8
DEFAULT_2
 62
8
  6
HIDDEN
 10
402.8901537928
 20
153.492546838
 11
396.4401537928
 21
153.492546838
  0
LINE
  8
DEFAULT_2
 62
8
  6
HIDDEN
 10
396.4401537928
 20
153.5126478506
 11
402.8901537928
 21
153.5126478506
  0
LINE
  8
DEFAULT_2
 62
8
  6
HIDDEN
 10
413.1901537928
 20
153.5126478506
 11
419.6401537928
 21
153.5126478506
  0
LINE
  8
DEFAULT_2
 62
8
  6
HIDDEN
 10
419.6401537928
 20
153.6339681942
 11
413.1901537928
 21
153.6339681942
  0
LINE
  8
DEFAULT_2
 62
8
  6
HIDDEN
 10
402.8901537928
 20
153.6339681942
 11
396.4401537928
 21
153.6339681942
  0
LINE
  8
DEFAULT_2
 62
8
  6
HIDDEN
 10
391.4401537928
 20
154.2656917552
 11
424.6401537928
 21
154.2656917552
  0
LINE
  8
DEFAULT_2
 62
8
  6
HIDDEN
 10
391.4401537928
 20
154.4640543265
 11
424.6401537928
 21
154.4640543265
  0
LINE
  8
DEFAULT_2
 62
8
  6
HIDDEN
 10
391.4401537928
 20
157.3547362538
 11
424.6401537928
 21
157.3547362538
  0
LINE
  8
DEFAULT_2
 62
8
  6
HIDDEN
 10
391.4401537928
 20
157.6287960793
 11
424.6401537928
 21
157.6287960793
  0
LINE
  8
0
 62
9
  6
CONTINUOUS
 10
396.4401537928
 20
162.3157486181
 11
402.8901537928
 21
162.3157486181
  0
LINE
  8
0
 62
9
  6
CONTINUOUS
 10
413.1901537928
 20
162.3157486181
 11
419.6401537928
 21
162.3157486181
  0
LINE
  8
DEFAULT_2
 62
8
  6
HIDDEN
 10
396.4401537928
 20
166.0466171296
 11
402.8901537928
 21
166.0466171296
  0
LINE
  8
DEFAULT_2
 62
8
  6
HIDDEN
 10
413.1901537928
 20
166.0466171296
 11
419.6401537928
 21
166.0466171296
  0
LINE
  8
DEFAULT_2
 62
8
  6
HIDDEN
 10
396.4401537928
 20
166.5578154135
 11
402.8901537928
 21
166.5578154135
  0
LINE
  8
DEFAULT_2
 62
8
  6
HIDDEN
 10
413.1901537928
 20
166.5578154135
 11
419.6401537928
 21
166.5578154135
  0
LINE
  8
DEFAULT_2
 62
8
  6
HIDDEN
 10
396.4401537928
 20
166.6181227927
 11
402.8901537928
 21
166.6181227927
  0
LINE
  8
DEFAULT_2
 62
8
  6
HIDDEN
 10
413.1901537928
 20
166.6181227927
 11
419.6401537928
 21
166.6181227927
  0
LINE
  8
DEFAULT_2
 62
8
  6
HIDDEN
 10
396.4401537928
 20
167.6976083876
 11
402.8901537928
 21
167.6976083876
  0
LINE
  8
DEFAULT_2
 62
8
  6
HIDDEN
 10
413.1901537928
 20
167.6976083876
 11
419.6401537928
 21
167.6976083876
  0
LINE
  8
DEFAULT_2
 62
8
  6
HIDDEN
 10
396.4401537928
 20
168.3724755256
 11
402.8901537928
 21
168.3724755256
  0
LINE
  8
DEFAULT_2
 62
8
  6
HIDDEN
 10
413.1901537928
 20
168.3724755256
 11
419.6401537928
 21
168.3724755256
  0
LINE
  8
DEFAULT_2
 62
8
  6
HIDDEN
 10
396.4401537928
 20
168.9755493177
 11
402.8901537928
 21
168.9755493177
  0
LINE
  8
DEFAULT_2
 62
8
  6
HIDDEN
 10
413.1901537928
 20
168.9755493177
 11
419.6401537928
 21
168.9755493177
  0
LINE
  8
0
 62
9
  6
CONTINUOUS
 10
419.6401537928
 20
178.5336560131
 11
413.1901537928
 21
178.5336560131
  0
LINE
  8
0
 62
9
  6
CONTINUOUS
 10
402.8901537928
 20
178.5336560131
 11
396.4401537928
 21
178.5336560131
  0
LINE
  8
0
 62
9
  6
CONTINUOUS
 10
419.6401537928
 20
178.9797445126
 11
413.1901537928
 21
178.9797445126
  0
LINE
  8
0
 62
9
  6
CONTINUOUS
 10
402.8901537928
 20
178.9797445126
 11
396.4401537928
 21
178.9797445126
  0
LINE
  8
DEFAULT_2
 62
8
  6
HIDDEN
 10
396.4401537928
 20
179.3657699999
 11
402.8901537928
 21
179.3657699999
  0
LINE
  8
DEFAULT_2
 62
8
  6
HIDDEN
 10
413.1901537928
 20
179.3657699999
 11
419.6401537928
 21
179.3657699999
  0
LINE
  8
0
 62
7
  6
CONTINUOUS
 10
396.4401537928
 20
179.6097265986
 11
402.8901537928
 21
179.6097265986
  0
LINE
  8
0
 62
7
  6
CONTINUOUS
 10
413.1901537928
 20
179.6097265986
 11
419.6401537928
 21
179.6097265986
  0
LINE
  8
DEFAULT_2
 62
8
  6
HIDDEN
 10
396.4401537928
 20
181.7001060149
 11
402.8901537928
 21
181.7001060149
  0
LINE
  8
DEFAULT_2
 62
8
  6
HIDDEN
 10
413.1901537928
 20
181.7001060149
 11
419.6401537928
 21
181.7001060149
  0
LINE
  8
DEFAULT_2
 62
8
  6
HIDDEN
 10
396.4401537928
 20
181.9987316458
 11
402.8901537928
 21
181.9987316458
  0
LINE
  8
DEFAULT_2
 62
8
  6
HIDDEN
 10
413.1901537928
 20
181.9987316458
 11
419.6401537928
 21
181.9987316458
  0
LINE
  8
0
 62
9
  6
CONTINUOUS
 10
396.4401537928
 20
182.4235574048
 11
402.8901537928
 21
182.4235574048
  0
LINE
  8
0
 62
9
  6
CONTINUOUS
 10
413.1901537928
 20
182.4235574048
 11
419.6401537928
 21
182.4235574048
  0
LINE
  8
DEFAULT_2
 62
8
  6
HIDDEN
 10
419.6401537928
 20
183.2496635493
 11
413.1901537928
 21
183.2496635493
  0
LINE
  8
DEFAULT_2
 62
8
  6
HIDDEN
 10
402.8901537928
 20
183.2496635493
 11
396.4401537928
 21
183.2496635493
  0
LINE
  8
DEFAULT_2
 62
8
  6
HIDDEN
 10
419.6401537928
 20
183.5426786758
 11
413.1901537928
 21
183.5426786758
  0
LINE
  8
DEFAULT_2
 62
8
  6
HIDDEN
 10
402.8901537928
 20
183.5426786758
 11
396.4401537928
 21
183.5426786758
  0
LINE
  8
0
 62
9
  6
CONTINUOUS
 10
396.4401537928
 20
184.1288772771
 11
402.8901537928
 21
184.1288772771
  0
LINE
  8
0
 62
9
  6
CONTINUOUS
 10
413.1901537928
 20
184.1288772771
 11
419.6401537928
 21
184.1288772771
  0
LINE
  8
0
 62
9
  6
CONTINUOUS
 10
396.4401537928
 20
186.2966487283
 11
402.8901537928
 21
186.2966487283
  0
LINE
  8
0
 62
9
  6
CONTINUOUS
 10
413.1901537928
 20
186.2966487283
 11
419.6401537928
 21
186.2966487283
  0
LINE
  8
0
 62
7
  6
CONTINUOUS
 10
391.4401537928
 20
301.5287614066
 11
391.4401537928
 21
129.7206917907
  0
LINE
  8
DEFAULT_2
 62
8
  6
HIDDEN
 10
391.6401537928
 20
288.1846744927
 11
391.6401537928
 21
299.5474790965
  0
LINE
  8
0
 62
9
  6
CONTINUOUS
 10
393.4401537928
 20
303.5287614066
 11
393.4401537928
 21
127.7206917907
  0
LINE
  8
0
 62
9
  6
CONTINUOUS
 10
396.4401537928
 20
195.3597265986
 11
402.8901537928
 21
195.3597265986
  0
LINE
  8
0
 62
9
  6
CONTINUOUS
 10
413.1901537928
 20
195.3597265986
 11
419.6401537928
 21
195.3597265986
  0
LINE
  8
DEFAULT_2
 62
8
  6
HIDDEN
 10
396.4401537928
 20
199.7605860708
 11
402.8901537928
 21
199.7605860708
  0
LINE
  8
DEFAULT_2
 62
8
  6
HIDDEN
 10
413.1901537928
 20
199.7605860708
 11
419.6401537928
 21
199.7605860708
  0
LINE
  8
0
 62
7
  6
CONTINUOUS
 10
396.4401537928
 20
109.4868318573
 11
396.4401537928
 21
321.76262134
  0
LINE
  8
DEFAULT_2
 62
8
  6
HIDDEN
 10
396.4401537928
 20
205.924233963
 11
402.8901537928
 21
205.924233963
  0
LINE
  8
DEFAULT_2
 62
8
  6
HIDDEN
 10
413.1901537928
 20
205.924233963
 11
419.6401537928
 21
205.924233963
  0
LINE
  8
DEFAULT_2
 62
8
  6
HIDDEN
 10
396.4401537928
 20
206.1479745611
 11
402.8901537928
 21
206.1479745611
  0
LINE
  8
DEFAULT_2
 62
8
  6
HIDDEN
 10
413.1901537928
 20
206.1479745611
 11
419.6401537928
 21
206.1479745611
  0
LINE
  8
DEFAULT_2
 62
8
  6
HIDDEN
 10
396.4401537928
 20
207.6551004196
 11
402.8901537928
 21
207.6551004196
  0
LINE
  8
DEFAULT_2
 62
8
  6
HIDDEN
 10
413.1901537928
 20
207.6551004196
 11
419.6401537928
 21
207.6551004196
  0
LINE
  8
DEFAULT_2
 62
8
  6
HIDDEN
 10
391.4401537928
 20
208.6860776532
 11
424.6401537928
 21
208.6860776532
  0
LINE
  8
DEFAULT_2
 62
8
  6
HIDDEN
 10
402.8901537928
 20
277.7786490547
 11
402.8901537928
 21
277.7619313742
  0
LINE
  8
0
 62
7
  6
CONTINUOUS
 10
402.8901537928
 20
109.4868236269
 11
402.8901537928
 21
277.7619313742
  0
LINE
  8
0
 62
7
  6
CONTINUOUS
 10
402.8901537928
 20
277.7786490547
 11
402.8901537928
 21
321.7626295704
  0
LINE
  8
0
 62
40
  6
CONTINUOUS
 10
408.0401537928
 20
215.6247265986
 11
408.0401537928
 21
125.3695531168
  0
LINE
  8
PITCH_DIAMETER
 62
40
  6
CONTINUOUS
 10
408.0401537928
 20
319.3917319979
 11
408.0401537928
 21
111.8737759413
  0
LINE
  8
DEFAULT_2
 62
8
  6
HIDDEN
 10
408.0401537928
 20
301.3257006572
 11
408.0401537928
 21
303.5294071054
  0
LINE
  8
0
 62
40
  6
CONTINUOUS
 10
408.0401537928
 20
303.5294071541
 11
408.0401537928
 21
305.9826688975
  0
LINE
  8
0
 62
40
  6
CONTINUOUS
 10
408.0401537928
 20
319.9066590114
 11
408.0401537928
 21
322.1038734205
  0
LINE
  8
DEFAULT_2
 62
8
  6
HIDDEN
 10
391.4401537928
 20
210.1234815868
 11
424.6401537928
 21
210.1234815868
  0
LINE
  8
DEFAULT_2
 62
8
  6
HIDDEN
 10
391.4401537928
 20
211.5897506123
 11
424.6401537928
 21
211.5897506123
  0
LINE
  8
0
 62
9
  6
CONTINUOUS
 10
419.6401537928
 20
212.913863068
 11
413.1901537928
 21
212.913863068
  0
LINE
  8
0
 62
9
  6
CONTINUOUS
 10
402.8901537928
 20
212.913863068
 11
396.4401537928
 21
212.913863068
  0
LINE
  8
DEFAULT_2
 62
8
  6
HIDDEN
 10
391.4401537928
 20
213.1833391776
 11
424.6401537928
 21
213.1833391776
  0
LINE
  8
0
 62
9
  6
CONTINUOUS
 10
419.6401537928
 20
213.313863068
 11
413.1901537928
 21
213.313863068
  0
LINE
  8
0
 62
9
  6
CONTINUOUS
 10
402.8901537928
 20
213.313863068
 11
396.4401537928
 21
213.313863068
  0
LINE
  8
DEFAULT_2
 62
8
  6
HIDDEN
 10
396.4401537928
 20
214.3355901292
 11
402.8901537928
 21
214.3355901292
  0
LINE
  8
DEFAULT_2
 62
8
  6
HIDDEN
 10
413.1901537928
 20
214.3355901292
 11
419.6401537928
 21
214.3355901292
  0
LINE
  8
DEFAULT_2
 62
8
  6
HIDDEN
 10
396.4401537928
 20
214.3613930509
 11
402.8901537928
 21
214.3613930509
  0
LINE
  8
DEFAULT_2
 62
8
  6
HIDDEN
 10
413.1901537928
 20
214.3613930509
 11
419.6401537928
 21
214.3613930509
  0
LINE
  8
DEFAULT_2
 62
8
  6
HIDDEN
 10
396.4401537928
 20
214.5420135025
 11
402.8901537928
 21
214.5420135025
  0
LINE
  8
DEFAULT_2
 62
8
  6
HIDDEN
 10
413.1901537928
 20
214.5420135025
 11
419.6401537928
 21
214.5420135025
  0
LINE
  8
DEFAULT_1
 62
2
  6
CENTER
 10
389.4401537928
 20
215.6247265986
 11
426.6401537928
 21
215.6247265986
  0
LINE
  8
0
 62
7
  6
CONTINUOUS
 10
396.4401537928
 20
216.7074396947
 11
402.8901537928
 21
216.7074396947
  0
LINE
  8
0
 62
7
  6
CONTINUOUS
 10
413.1901537928
 20
216.7074396947
 11
419.6401537928
 21
216.7074396947
  0
LINE
  8
0
 62
7
  6
CONTINUOUS
 10
413.1901537928
 20
109.4868236269
 11
413.1901537928
 21
321.7626295704
  0
LINE
  8
DEFAULT_2
 62
8
  6
HIDDEN
 10
396.4401537928
 20
216.8880601464
 11
402.8901537928
 21
216.8880601464
  0
LINE
  8
DEFAULT_2
 62
8
  6
HIDDEN
 10
413.1901537928
 20
216.8880601464
 11
419.6401537928
 21
216.8880601464
  0
LINE
  8
DEFAULT_2
 62
8
  6
HIDDEN
 10
396.4401537928
 20
216.913863068
 11
402.8901537928
 21
216.913863068
  0
LINE
  8
DEFAULT_2
 62
8
  6
HIDDEN
 10
413.1901537928
 20
216.913863068
 11
419.6401537928
 21
216.913863068
  0
LINE
  8
DEFAULT_2
 62
8
  6
HIDDEN
 10
419.6401537928
 20
217.9355901292
 11
413.1901537928
 21
217.9355901292
  0
LINE
  8
DEFAULT_2
 62
8
  6
HIDDEN
 10
402.8901537928
 20
217.9355901292
 11
396.4401537928
 21
217.9355901292
  0
LINE
  8
DEFAULT_2
 62
8
  6
HIDDEN
 10
391.4401537928
 20
218.0661140196
 11
424.6401537928
 21
218.0661140196
  0
LINE
  8
DEFAULT_2
 62
8
  6
HIDDEN
 10
419.6401537928
 20
218.3355901292
 11
413.1901537928
 21
218.3355901292
  0
LINE
  8
DEFAULT_2
 62
8
  6
HIDDEN
 10
402.8901537928
 20
218.3355901292
 11
396.4401537928
 21
218.3355901292
  0
LINE
  8
DEFAULT_2
 62
8
  6
HIDDEN
 10
391.4401537928
 20
219.6597025849
 11
424.6401537928
 21
219.6597025849
  0
LINE
  8
DEFAULT_2
 62
8
  6
HIDDEN
 10
391.4401537928
 20
221.1259716105
 11
424.6401537928
 21
221.1259716105
  0
LINE
  8
DEFAULT_2
 62
8
  6
HIDDEN
 10
391.4401537928
 20
222.5633755441
 11
424.6401537928
 21
222.5633755441
  0
LINE
  8
0
 62
9
  6
CONTINUOUS
 10
396.4401537928
 20
223.5943527776
 11
402.8901537928
 21
223.5943527776
  0
LINE
  8
0
 62
9
  6
CONTINUOUS
 10
413.1901537928
 20
223.5943527776
 11
419.6401537928
 21
223.5943527776
  0
LINE
  8
0
 62
7
  6
CONTINUOUS
 10
419.6401537928
 20
321.76262134
 11
419.6401537928
 21
109.4868318573
  0
LINE
  8
0
 62
9
  6
CONTINUOUS
 10
422.6401537928
 20
303.5287614066
 11
422.6401537928
 21
127.7206917907
  0
LINE
  8
0
 62
9
  6
CONTINUOUS
 10
396.4401537928
 20
225.1014786362
 11
402.8901537928
 21
225.1014786362
  0
LINE
  8
0
 62
9
  6
CONTINUOUS
 10
413.1901537928
 20
225.1014786362
 11
419.6401537928
 21
225.1014786362
  0
LINE
  8
0
 62
9
  6
CONTINUOUS
 10
396.4401537928
 20
225.3252192343
 11
402.8901537928
 21
225.3252192343
  0
LINE
  8
0
 62
9
  6
CONTINUOUS
 10
413.1901537928
 20
225.3252192343
 11
419.6401537928
 21
225.3252192343
  0
LINE
  8
0
 62
7
  6
CONTINUOUS
 10
424.6401537928
 20
301.5287614066
 11
424.6401537928
 21
129.7206917907
  0
LINE
  8
0
 62
9
  6
CONTINUOUS
 10
396.4401537928
 20
231.4888671264
 11
402.8901537928
 21
231.4888671264
  0
LINE
  8
0
 62
9
  6
CONTINUOUS
 10
413.1901537928
 20
231.4888671264
 11
419.6401537928
 21
231.4888671264
  0
LINE
  8
DEFAULT_2
 62
8
  6
HIDDEN
 10
396.4401537928
 20
235.8897265986
 11
402.8901537928
 21
235.8897265986
  0
LINE
  8
DEFAULT_2
 62
8
  6
HIDDEN
 10
413.1901537928
 20
235.8897265986
 11
419.6401537928
 21
235.8897265986
  0
LINE
  8
DEFAULT_2
 62
8
  6
HIDDEN
 10
396.4401537928
 20
244.952804469
 11
402.8901537928
 21
244.952804469
  0
LINE
  8
DEFAULT_2
 62
8
  6
HIDDEN
 10
413.1901537928
 20
244.952804469
 11
419.6401537928
 21
244.952804469
  0
LINE
  8
DEFAULT_2
 62
8
  6
HIDDEN
 10
396.4401537928
 20
247.1205759202
 11
402.8901537928
 21
247.1205759202
  0
LINE
  8
DEFAULT_2
 62
8
  6
HIDDEN
 10
413.1901537928
 20
247.1205759202
 11
419.6401537928
 21
247.1205759202
  0
LINE
  8
0
 62
9
  6
CONTINUOUS
 10
419.6401537928
 20
247.7067745214
 11
413.1901537928
 21
247.7067745214
  0
LINE
  8
0
 62
9
  6
CONTINUOUS
 10
402.8901537928
 20
247.7067745214
 11
396.4401537928
 21
247.7067745214
  0
LINE
  8
0
 62
9
  6
CONTINUOUS
 10
419.6401537928
 20
247.999789648
 11
413.1901537928
 21
247.999789648
  0
LINE
  8
0
 62
9
  6
CONTINUOUS
 10
402.8901537928
 20
247.999789648
 11
396.4401537928
 21
247.999789648
  0
LINE
  8
DEFAULT_2
 62
8
  6
HIDDEN
 10
396.4401537928
 20
248.8258957925
 11
402.8901537928
 21
248.8258957925
  0
LINE
  8
DEFAULT_2
 62
8
  6
HIDDEN
 10
413.1901537928
 20
248.8258957925
 11
419.6401537928
 21
248.8258957925
  0
LINE
  8
DEFAULT_2
 62
8
  6
HIDDEN
 10
396.4401537928
 20
249.2507215515
 11
402.8901537928
 21
249.2507215515
  0
LINE
  8
DEFAULT_2
 62
8
  6
HIDDEN
 10
413.1901537928
 20
249.2507215515
 11
419.6401537928
 21
249.2507215515
  0
LINE
  8
DEFAULT_2
 62
8
  6
HIDDEN
 10
396.4401537928
 20
249.5493471824
 11
402.8901537928
 21
249.5493471824
  0
LINE
  8
DEFAULT_2
 62
8
  6
HIDDEN
 10
413.1901537928
 20
249.5493471824
 11
419.6401537928
 21
249.5493471824
  0
LINE
  8
DEFAULT_2
 62
8
  6
HIDDEN
 10
396.4401537928
 20
251.6397265986
 11
402.8901537928
 21
251.6397265986
  0
LINE
  8
DEFAULT_2
 62
8
  6
HIDDEN
 10
413.1901537928
 20
251.6397265986
 11
419.6401537928
 21
251.6397265986
  0
LINE
  8
0
 62
9
  6
CONTINUOUS
 10
396.4401537928
 20
251.8836831973
 11
402.8901537928
 21
251.8836831973
  0
LINE
  8
0
 62
9
  6
CONTINUOUS
 10
413.1901537928
 20
251.8836831973
 11
419.6401537928
 21
251.8836831973
  0
LINE
  8
DEFAULT_2
 62
8
  6
HIDDEN
 10
419.6401537928
 20
252.2697086846
 11
413.1901537928
 21
252.2697086846
  0
LINE
  8
DEFAULT_2
 62
8
  6
HIDDEN
 10
402.8901537928
 20
252.2697086846
 11
396.4401537928
 21
252.2697086846
  0
LINE
  8
DEFAULT_2
 62
8
  6
HIDDEN
 10
419.6401537928
 20
252.7157971841
 11
413.1901537928
 21
252.7157971841
  0
LINE
  8
DEFAULT_2
 62
8
  6
HIDDEN
 10
402.8901537928
 20
252.7157971841
 11
396.4401537928
 21
252.7157971841
  0
LINE
  8
DEFAULT_2
 62
8
  6
HIDDEN
 10
396.4401537928
 20
262.2739038795
 11
402.8901537928
 21
262.2739038795
  0
LINE
  8
DEFAULT_2
 62
8
  6
HIDDEN
 10
413.1901537928
 20
262.2739038795
 11
419.6401537928
 21
262.2739038795
  0
LINE
  8
DEFAULT_2
 62
8
  6
HIDDEN
 10
396.4401537928
 20
262.8769776717
 11
402.8901537928
 21
262.8769776717
  0
LINE
  8
DEFAULT_2
 62
8
  6
HIDDEN
 10
413.1901537928
 20
262.8769776717
 11
419.6401537928
 21
262.8769776717
  0
LINE
  8
0
 62
9
  6
CONTINUOUS
 10
396.4401537928
 20
263.5518448096
 11
402.8901537928
 21
263.5518448096
  0
LINE
  8
0
 62
9
  6
CONTINUOUS
 10
413.1901537928
 20
263.5518448096
 11
419.6401537928
 21
263.5518448096
  0
LINE
  8
DEFAULT_2
 62
8
  6
HIDDEN
 10
396.4401537928
 20
264.6313304045
 11
402.8901537928
 21
264.6313304045
  0
LINE
  8
DEFAULT_2
 62
8
  6
HIDDEN
 10
413.1901537928
 20
264.6313304045
 11
419.6401537928
 21
264.6313304045
  0
LINE
  8
0
 62
7
  6
CONTINUOUS
 10
396.4401537928
 20
264.6916377837
 11
402.8901537928
 21
264.6916377837
  0
LINE
  8
0
 62
7
  6
CONTINUOUS
 10
413.1901537928
 20
264.6916377837
 11
419.6401537928
 21
264.6916377837
  0
LINE
  8
0
 62
9
  6
CONTINUOUS
 10
396.4401537928
 20
265.2028360677
 11
402.8901537928
 21
265.2028360677
  0
LINE
  8
0
 62
9
  6
CONTINUOUS
 10
413.1901537928
 20
265.2028360677
 11
419.6401537928
 21
265.2028360677
  0
LINE
  8
DEFAULT_2
 62
8
  6
HIDDEN
 10
396.4401537928
 20
268.9337045791
 11
402.8901537928
 21
268.9337045791
  0
LINE
  8
DEFAULT_2
 62
8
  6
HIDDEN
 10
413.1901537928
 20
268.9337045791
 11
419.6401537928
 21
268.9337045791
  0
LINE
  8
DEFAULT_2
 62
8
  6
HIDDEN
 10
391.4401537928
 20
273.620657118
 11
424.6401537928
 21
273.620657118
  0
LINE
  8
DEFAULT_2
 62
8
  6
HIDDEN
 10
391.4401537928
 20
273.8947169434
 11
424.6401537928
 21
273.8947169434
  0
LINE
  8
DEFAULT_2
 62
8
  6
HIDDEN
 10
391.4401537928
 20
276.7853988708
 11
424.6401537928
 21
276.7853988708
  0
LINE
  8
DEFAULT_2
 62
8
  6
HIDDEN
 10
391.4401537928
 20
276.9837614421
 11
424.6401537928
 21
276.9837614421
  0
LINE
  8
0
 62
9
  6
CONTINUOUS
 10
419.6401537928
 20
277.6154850031
 11
413.1901537928
 21
277.6154850031
  0
LINE
  8
0
 62
9
  6
CONTINUOUS
 10
402.8901537928
 20
277.6154850031
 11
396.4401537928
 21
277.6154850031
  0
LINE
  8
DEFAULT_2
 62
8
  6
HIDDEN
 10
396.4401537928
 20
277.7368053466
 11
402.8901537928
 21
277.7368053466
  0
LINE
  8
DEFAULT_2
 62
8
  6
HIDDEN
 10
413.1901537928
 20
277.7368053466
 11
419.6401537928
 21
277.7368053466
  0
LINE
  8
DEFAULT_2
 62
8
  6
HIDDEN
 10
419.6401537928
 20
277.7569063593
 11
413.1901537928
 21
277.7569063593
  0
LINE
  8
DEFAULT_2
 62
8
  6
HIDDEN
 10
402.8901537928
 20
277.7569063593
 11
396.4401537928
 21
277.7569063593
  0
LINE
  8
0
 62
7
  6
CONTINUOUS
 10
419.6401537928
 20
277.7619316125
 11
413.1901537928
 21
277.7619316125
  0
LINE
  8
0
 62
7
  6
CONTINUOUS
 10
402.8901537928
 20
277.7619316125
 11
396.4401537928
 21
277.7619316125
  0
LINE
  8
DEFAULT_2
 62
8
  6
HIDDEN
 10
396.4401537928
 20
278.7421181926
 11
402.8901537928
 21
278.7421181926
  0
LINE
  8
DEFAULT_2
 62
8
  6
HIDDEN
 10
413.1901537928
 20
278.7421181926
 11
419.6401537928
 21
278.7421181926
  0
LINE
  8
DEFAULT_2
 62
8
  6
HIDDEN
 10
396.4401537928
 20
279.5164409789
 11
402.8901537928
 21
279.5164409789
  0
LINE
  8
DEFAULT_2
 62
8
  6
HIDDEN
 10
413.1901537928
 20
279.5164409789
 11
419.6401537928
 21
279.5164409789
  0
LINE
  8
DEFAULT_2
 62
8
  6
HIDDEN
 10
396.4401537928
 20
279.5725853574
 11
402.8901537928
 21
279.5725853574
  0
LINE
  8
DEFAULT_2
 62
8
  6
HIDDEN
 10
413.1901537928
 20
279.5725853574
 11
419.6401537928
 21
279.5725853574
  0
LINE
  8
DEFAULT_2
 62
8
  6
HIDDEN
 10
391.4401537928
 20
280.4169540345
 11
424.6401537928
 21
280.4169540345
  0
LINE
  8
DEFAULT_2
 62
8
  6
HIDDEN
 10
419.6401537928
 20
281.024960905
 11
413.1901537928
 21
281.024960905
  0
LINE
  8
DEFAULT_2
 62
8
  6
HIDDEN
 10
402.8901537928
 20
281.024960905
 11
396.4401537928
 21
281.024960905
  0
LINE
  8
0
 62
9
  6
CONTINUOUS
 10
396.4401537928
 20
281.3592087944
 11
402.8901537928
 21
281.3592087944
  0
LINE
  8
0
 62
9
  6
CONTINUOUS
 10
413.1901537928
 20
281.3592087944
 11
419.6401537928
 21
281.3592087944
  0
LINE
  8
DEFAULT_2
 62
8
  6
HIDDEN
 10
419.6401537928
 20
281.4492249738
 11
413.1901537928
 21
281.4492249738
  0
LINE
  8
DEFAULT_2
 62
8
  6
HIDDEN
 10
402.8901537928
 20
281.4492249738
 11
396.4401537928
 21
281.4492249738
  0
LINE
  8
DEFAULT_2
 62
8
  6
HIDDEN
 10
396.4401537928
 20
283.2982197306
 11
402.8901537928
 21
283.2982197306
  0
LINE
  8
DEFAULT_2
 62
8
  6
HIDDEN
 10
413.1901537928
 20
283.2982197306
 11
419.6401537928
 21
283.2982197306
  0
LINE
  8
DEFAULT_2
 62
8
  6
HIDDEN
 10
396.4401537928
 20
284.942114125
 11
402.8901537928
 21
284.942114125
  0
LINE
  8
DEFAULT_2
 62
8
  6
HIDDEN
 10
413.1901537928
 20
284.942114125
 11
419.6401537928
 21
284.942114125
  0
LINE
  8
DEFAULT_2
 62
8
  6
HIDDEN
 10
396.4401537928
 20
285.3858555112
 11
402.8901537928
 21
285.3858555112
  0
LINE
  8
DEFAULT_2
 62
8
  6
HIDDEN
 10
413.1901537928
 20
285.3858555112
 11
419.6401537928
 21
285.3858555112
  0
LINE
  8
DEFAULT_2
 62
8
  6
HIDDEN
 10
391.4401537928
 20
288.1846744927
 11
391.6401537928
 21
288.1846744927
  0
LINE
  8
DEFAULT_2
 62
8
  6
HIDDEN
 10
391.4401537928
 20
288.247443105
 11
391.6401537928
 21
288.247443105
  0
LINE
  8
DEFAULT_2
 62
8
  6
HIDDEN
 10
391.4401537928
 20
288.2602618625
 11
391.6401537928
 21
288.2602618625
  0
LINE
  8
DEFAULT_2
 62
8
  6
HIDDEN
 10
391.4401537928
 20
288.4083428197
 11
391.6401537928
 21
288.4083428197
  0
LINE
  8
DEFAULT_2
 62
8
  6
HIDDEN
 10
391.4401537928
 20
288.4339803276
 11
391.6401537928
 21
288.4339803276
  0
LINE
  8
DEFAULT_2
 62
8
  6
HIDDEN
 10
391.4401537928
 20
288.5900175326
 11
391.6401537928
 21
288.5900175326
  0
LINE
  8
DEFAULT_2
 62
8
  6
HIDDEN
 10
391.4401537928
 20
288.6399673995
 11
391.6401537928
 21
288.6399673995
  0
LINE
  8
DEFAULT_2
 62
8
  6
HIDDEN
 10
391.4401537928
 20
288.6673735505
 11
391.6401537928
 21
288.6673735505
  0
LINE
  8
DEFAULT_2
 62
8
  6
HIDDEN
 10
391.4401537928
 20
288.6753298781
 11
391.6401537928
 21
288.6753298781
  0
LINE
  8
DEFAULT_2
 62
8
  6
HIDDEN
 10
391.4401537928
 20
288.8008671143
 11
391.6401537928
 21
288.8008671143
  0
LINE
  8
DEFAULT_2
 62
8
  6
HIDDEN
 10
391.4401537928
 20
288.8459545103
 11
391.6401537928
 21
288.8459545103
  0
LINE
  8
DEFAULT_2
 62
8
  6
HIDDEN
 10
391.4401537928
 20
288.8508169632
 11
391.6401537928
 21
288.8508169632
  0
LINE
  8
DEFAULT_2
 62
8
  6
HIDDEN
 10
391.4401537928
 20
288.8892732846
 11
391.6401537928
 21
288.8892732846
  0
LINE
  8
DEFAULT_2
 62
8
  6
HIDDEN
 10
391.4401537928
 20
288.9423169364
 11
391.6401537928
 21
288.9423169364
  0
LINE
  8
DEFAULT_2
 62
8
  6
HIDDEN
 10
391.4401537928
 20
289.009418685
 11
391.6401537928
 21
289.009418685
  0
LINE
  8
DEFAULT_2
 62
8
  6
HIDDEN
 10
391.4401537928
 20
289.051941621
 11
391.6401537928
 21
289.051941621
  0
LINE
  8
DEFAULT_2
 62
8
  6
HIDDEN
 10
391.4401537928
 20
289.0598978709
 11
391.6401537928
 21
289.0598978709
  0
LINE
  8
DEFAULT_2
 62
8
  6
HIDDEN
 10
391.4401537928
 20
289.0981736127
 11
391.6401537928
 21
289.0981736127
  0
LINE
  8
DEFAULT_2
 62
8
  6
HIDDEN
 10
391.4401537928
 20
289.1190884402
 11
391.6401537928
 21
289.1190884402
  0
LINE
  8
DEFAULT_2
 62
8
  6
HIDDEN
 10
391.4401537928
 20
289.1434415511
 11
391.6401537928
 21
289.1434415511
  0
LINE
  8
DEFAULT_2
 62
8
  6
HIDDEN
 10
391.4401537928
 20
289.2079787677
 11
391.6401537928
 21
289.2079787677
  0
LINE
  8
DEFAULT_2
 62
8
  6
HIDDEN
 10
391.4401537928
 20
289.2610224711
 11
391.6401537928
 21
289.2610224711
  0
LINE
  8
DEFAULT_2
 62
8
  6
HIDDEN
 10
391.4401537928
 20
289.2861434634
 11
391.6401537928
 21
289.2861434634
  0
LINE
  8
DEFAULT_2
 62
8
  6
HIDDEN
 10
391.4401537928
 20
289.3496976372
 11
391.6401537928
 21
289.3496976372
  0
LINE
  8
DEFAULT_2
 62
8
  6
HIDDEN
 10
391.4401537928
 20
289.3768347726
 11
391.6401537928
 21
289.3768347726
  0
LINE
  8
DEFAULT_2
 62
8
  6
HIDDEN
 10
391.4401537928
 20
289.4031596819
 11
391.6401537928
 21
289.4031596819
  0
LINE
  8
DEFAULT_2
 62
8
  6
HIDDEN
 10
391.4401537928
 20
289.5264777447
 11
391.6401537928
 21
289.5264777447
  0
LINE
  8
DEFAULT_2
 62
8
  6
HIDDEN
 10
391.4401537928
 20
289.5430779939
 11
391.6401537928
 21
289.5430779939
  0
LINE
  8
DEFAULT_2
 62
8
  6
HIDDEN
 10
391.4401537928
 20
289.5566463669
 11
391.6401537928
 21
289.5566463669
  0
LINE
  8
DEFAULT_2
 62
8
  6
HIDDEN
 10
391.4401537928
 20
289.560278194
 11
391.6401537928
 21
289.560278194
  0
LINE
  8
DEFAULT_2
 62
8
  6
HIDDEN
 10
391.4401537928
 20
289.573326516
 11
391.6401537928
 21
289.573326516
  0
LINE
  8
DEFAULT_2
 62
8
  6
HIDDEN
 10
391.4401537928
 20
289.6287228143
 11
391.6401537928
 21
289.6287228143
  0
LINE
  8
DEFAULT_2
 62
8
  6
HIDDEN
 10
391.4401537928
 20
289.7516778651
 11
391.6401537928
 21
289.7516778651
  0
LINE
  8
DEFAULT_2
 62
8
  6
HIDDEN
 10
391.4401537928
 20
289.8198027811
 11
391.6401537928
 21
289.8198027811
  0
LINE
  8
DEFAULT_2
 62
8
  6
HIDDEN
 10
391.4401537928
 20
289.8240374333
 11
391.6401537928
 21
289.8240374333
  0
LINE
  8
DEFAULT_2
 62
8
  6
HIDDEN
 10
391.4401537928
 20
289.8511741792
 11
391.6401537928
 21
289.8511741792
  0
LINE
  8
DEFAULT_2
 62
8
  6
HIDDEN
 10
391.4401537928
 20
290.0317975406
 11
391.6401537928
 21
290.0317975406
  0
LINE
  8
DEFAULT_2
 62
8
  6
HIDDEN
 10
391.4401537928
 20
290.0589342517
 11
391.6401537928
 21
290.0589342517
  0
LINE
  8
DEFAULT_2
 62
8
  6
HIDDEN
 10
391.4401537928
 20
290.1112204773
 11
391.6401537928
 21
290.1112204773
  0
LINE
  8
DEFAULT_2
 62
8
  6
HIDDEN
 10
391.4401537928
 20
290.16288601
 11
391.6401537928
 21
290.16288601
  0
LINE
  8
DEFAULT_2
 62
8
  6
HIDDEN
 10
391.4401537928
 20
290.1709899443
 11
391.6401537928
 21
290.1709899443
  0
LINE
  8
DEFAULT_2
 62
8
  6
HIDDEN
 10
391.4401537928
 20
290.3201035387
 11
391.6401537928
 21
290.3201035387
  0
LINE
  8
DEFAULT_2
 62
8
  6
HIDDEN
 10
391.4401537928
 20
290.3396660163
 11
391.6401537928
 21
290.3396660163
  0
LINE
  8
DEFAULT_2
 62
8
  6
HIDDEN
 10
391.4401537928
 20
290.3430054933
 11
391.6401537928
 21
290.3430054933
  0
LINE
  8
DEFAULT_2
 62
8
  6
HIDDEN
 10
391.4401537928
 20
290.360762168
 11
391.6401537928
 21
290.360762168
  0
LINE
  8
DEFAULT_2
 62
8
  6
HIDDEN
 10
391.4401537928
 20
290.4088600571
 11
391.6401537928
 21
290.4088600571
  0
LINE
  8
DEFAULT_2
 62
8
  6
HIDDEN
 10
391.4401537928
 20
290.5685686258
 11
391.6401537928
 21
290.5685686258
  0
LINE
  8
DEFAULT_2
 62
8
  6
HIDDEN
 10
391.4401537928
 20
290.5915120361
 11
391.6401537928
 21
290.5915120361
  0
LINE
  8
DEFAULT_2
 62
8
  6
HIDDEN
 10
396.4401537928
 20
290.607782594
 11
402.8901537928
 21
290.607782594
  0
LINE
  8
DEFAULT_2
 62
8
  6
HIDDEN
 10
413.1901537928
 20
290.607782594
 11
419.6401537928
 21
290.607782594
  0
LINE
  8
DEFAULT_2
 62
8
  6
HIDDEN
 10
391.4401537928
 20
290.7158334271
 11
391.6401537928
 21
290.7158334271
  0
LINE
  8
DEFAULT_2
 62
8
  6
HIDDEN
 10
391.4401537928
 20
290.7440930577
 11
391.6401537928
 21
290.7440930577
  0
LINE
  8
DEFAULT_2
 62
8
  6
HIDDEN
 10
391.4401537928
 20
290.7523564864
 11
391.6401537928
 21
290.7523564864
  0
LINE
  8
DEFAULT_2
 62
8
  6
HIDDEN
 10
391.4401537928
 20
290.8913577896
 11
391.6401537928
 21
290.8913577896
  0
LINE
  8
DEFAULT_2
 62
8
  6
HIDDEN
 10
391.4401537928
 20
290.904938375
 11
391.6401537928
 21
290.904938375
  0
LINE
  8
DEFAULT_2
 62
8
  6
HIDDEN
 10
391.4401537928
 20
291.0177077287
 11
391.6401537928
 21
291.0177077287
  0
LINE
  8
DEFAULT_2
 62
8
  6
HIDDEN
 10
391.4401537928
 20
291.0510662887
 11
391.6401537928
 21
291.0510662887
  0
LINE
  8
DEFAULT_2
 62
8
  6
HIDDEN
 10
391.4401537928
 20
291.1060629896
 11
391.6401537928
 21
291.1060629896
  0
LINE
  8
DEFAULT_2
 62
8
  6
HIDDEN
 10
391.4401537928
 20
291.1398229461
 11
391.6401537928
 21
291.1398229461
  0
LINE
  8
DEFAULT_2
 62
8
  6
HIDDEN
 10
391.4401537928
 20
291.2463653963
 11
391.6401537928
 21
291.2463653963
  0
LINE
  8
DEFAULT_2
 62
8
  6
HIDDEN
 10
391.4401537928
 20
291.3017789356
 11
391.6401537928
 21
291.3017789356
  0
LINE
  8
DEFAULT_2
 62
8
  6
HIDDEN
 10
391.4401537928
 20
291.3289156815
 11
391.6401537928
 21
291.3289156815
  0
LINE
  8
DEFAULT_2
 62
8
  6
HIDDEN
 10
391.4401537928
 20
291.3487058686
 11
391.6401537928
 21
291.3487058686
  0
LINE
  8
DEFAULT_2
 62
8
  6
HIDDEN
 10
396.4401537928
 20
291.3689872689
 11
402.8901537928
 21
291.3689872689
  0
LINE
  8
DEFAULT_2
 62
8
  6
HIDDEN
 10
413.1901537928
 20
291.3689872689
 11
419.6401537928
 21
291.3689872689
  0
LINE
  8
DEFAULT_2
 62
8
  6
HIDDEN
 10
391.4401537928
 20
291.43613762
 11
391.6401537928
 21
291.43613762
  0
LINE
  8
DEFAULT_2
 62
8
  6
HIDDEN
 10
391.4401537928
 20
291.540910441
 11
391.6401537928
 21
291.540910441
  0
LINE
  8
DEFAULT_2
 62
8
  6
HIDDEN
 10
391.4401537928
 20
291.6087523056
 11
391.6401537928
 21
291.6087523056
  0
LINE
  8
DEFAULT_2
 62
8
  6
HIDDEN
 10
391.4401537928
 20
291.7036019228
 11
391.6401537928
 21
291.7036019228
  0
LINE
  8
DEFAULT_2
 62
8
  6
HIDDEN
 10
391.4401537928
 20
291.7319904078
 11
391.6401537928
 21
291.7319904078
  0
LINE
  8
DEFAULT_2
 62
8
  6
HIDDEN
 10
391.4401537928
 20
291.7873883661
 11
391.6401537928
 21
291.7873883661
  0
LINE
  8
DEFAULT_2
 62
8
  6
HIDDEN
 10
391.4401537928
 20
291.8040668552
 11
391.6401537928
 21
291.8040668552
  0
LINE
  8
DEFAULT_2
 62
8
  6
HIDDEN
 10
391.4401537928
 20
291.8176352281
 11
391.6401537928
 21
291.8176352281
  0
LINE
  8
DEFAULT_2
 62
8
  6
HIDDEN
 10
391.4401537928
 20
291.8280332864
 11
391.6401537928
 21
291.8280332864
  0
LINE
  8
DEFAULT_2
 62
8
  6
HIDDEN
 10
391.4401537928
 20
291.8719087198
 11
391.6401537928
 21
291.8719087198
  0
LINE
  8
DEFAULT_2
 62
8
  6
HIDDEN
 10
391.4401537928
 20
291.9105614338
 11
391.6401537928
 21
291.9105614338
  0
LINE
  8
DEFAULT_2
 62
8
  6
HIDDEN
 10
391.4401537928
 20
292.0641710716
 11
391.6401537928
 21
292.0641710716
  0
LINE
  8
DEFAULT_2
 62
8
  6
HIDDEN
 10
391.4401537928
 20
292.0745696892
 11
391.6401537928
 21
292.0745696892
  0
LINE
  8
DEFAULT_2
 62
8
  6
HIDDEN
 10
391.4401537928
 20
292.0988805898
 11
391.6401537928
 21
292.0988805898
  0
LINE
  8
DEFAULT_2
 62
8
  6
HIDDEN
 10
391.4401537928
 20
292.1116860916
 11
391.6401537928
 21
292.1116860916
  0
LINE
  8
DEFAULT_2
 62
8
  6
HIDDEN
 10
391.4401537928
 20
292.1406733519
 11
391.6401537928
 21
292.1406733519
  0
LINE
  8
DEFAULT_2
 62
8
  6
HIDDEN
 10
391.4401537928
 20
292.1800065565
 11
391.6401537928
 21
292.1800065565
  0
LINE
  8
DEFAULT_2
 62
8
  6
HIDDEN
 10
391.4401537928
 20
292.1811295802
 11
391.6401537928
 21
292.1811295802
  0
LINE
  8
DEFAULT_2
 62
8
  6
HIDDEN
 10
391.4401537928
 20
292.2283037667
 11
391.6401537928
 21
292.2283037667
  0
LINE
  8
DEFAULT_2
 62
8
  6
HIDDEN
 10
391.4401537928
 20
292.2409510778
 11
391.6401537928
 21
292.2409510778
  0
LINE
  8
DEFAULT_2
 62
8
  6
HIDDEN
 10
391.4401537928
 20
292.2625395398
 11
391.6401537928
 21
292.2625395398
  0
LINE
  8
DEFAULT_2
 62
8
  6
HIDDEN
 10
391.4401537928
 20
292.3361764846
 11
391.6401537928
 21
292.3361764846
  0
LINE
  8
DEFAULT_2
 62
8
  6
HIDDEN
 10
391.4401537928
 20
292.3512961972
 11
391.6401537928
 21
292.3512961972
  0
LINE
  8
DEFAULT_2
 62
8
  6
HIDDEN
 10
391.4401537928
 20
292.3550936299
 11
391.6401537928
 21
292.3550936299
  0
LINE
  8
DEFAULT_2
 62
8
  6
HIDDEN
 10
391.4401537928
 20
292.3690994308
 11
391.6401537928
 21
292.3690994308
  0
LINE
  8
DEFAULT_2
 62
8
  6
HIDDEN
 10
391.4401537928
 20
292.3784329431
 11
391.6401537928
 21
292.3784329431
  0
LINE
  8
DEFAULT_2
 62
8
  6
HIDDEN
 10
391.4401537928
 20
292.405083773
 11
391.6401537928
 21
292.405083773
  0
LINE
  8
DEFAULT_2
 62
8
  6
HIDDEN
 10
391.4401537928
 20
292.4502681896
 11
391.6401537928
 21
292.4502681896
  0
LINE
  8
DEFAULT_2
 62
8
  6
HIDDEN
 10
391.4401537928
 20
292.4855769137
 11
391.6401537928
 21
292.4855769137
  0
LINE
  8
DEFAULT_2
 62
8
  6
HIDDEN
 10
391.4401537928
 20
292.49915107
 11
391.6401537928
 21
292.49915107
  0
LINE
  8
DEFAULT_2
 62
8
  6
HIDDEN
 10
391.4401537928
 20
292.5163624418
 11
391.6401537928
 21
292.5163624418
  0
LINE
  8
DEFAULT_2
 62
8
  6
HIDDEN
 10
391.4401537928
 20
292.5291530897
 11
391.6401537928
 21
292.5291530897
  0
LINE
  8
DEFAULT_2
 62
8
  6
HIDDEN
 10
391.4401537928
 20
292.5518617596
 11
391.6401537928
 21
292.5518617596
  0
LINE
  8
DEFAULT_2
 62
8
  6
HIDDEN
 10
391.4401537928
 20
292.5664010728
 11
391.6401537928
 21
292.5664010728
  0
LINE
  8
DEFAULT_2
 62
8
  6
HIDDEN
 10
391.4401537928
 20
292.6031498849
 11
391.6401537928
 21
292.6031498849
  0
LINE
  8
DEFAULT_2
 62
8
  6
HIDDEN
 10
391.4401537928
 20
292.6465755194
 11
391.6401537928
 21
292.6465755194
  0
LINE
  8
DEFAULT_2
 62
8
  6
HIDDEN
 10
391.4401537928
 20
292.6585763678
 11
391.6401537928
 21
292.6585763678
  0
LINE
  8
DEFAULT_2
 62
8
  6
HIDDEN
 10
391.4401537928
 20
292.6879320258
 11
391.6401537928
 21
292.6879320258
  0
LINE
  8
DEFAULT_2
 62
8
  6
HIDDEN
 10
391.4401537928
 20
292.7059332983
 11
391.6401537928
 21
292.7059332983
  0
LINE
  8
DEFAULT_2
 62
8
  6
HIDDEN
 10
391.4401537928
 20
292.7099900231
 11
391.6401537928
 21
292.7099900231
  0
LINE
  8
DEFAULT_2
 62
8
  6
HIDDEN
 10
391.4401537928
 20
292.728641867
 11
391.6401537928
 21
292.728641867
  0
LINE
  8
DEFAULT_2
 62
8
  6
HIDDEN
 10
391.4401537928
 20
292.7419255742
 11
391.6401537928
 21
292.7419255742
  0
LINE
  8
DEFAULT_2
 62
8
  6
HIDDEN
 10
391.4401537928
 20
292.8053542532
 11
391.6401537928
 21
292.8053542532
  0
LINE
  8
DEFAULT_2
 62
8
  6
HIDDEN
 10
391.4401537928
 20
292.9361171001
 11
391.6401537928
 21
292.9361171001
  0
LINE
  8
DEFAULT_2
 62
8
  6
HIDDEN
 10
391.4401537928
 20
292.9707800763
 11
391.6401537928
 21
292.9707800763
  0
LINE
  8
DEFAULT_2
 62
8
  6
HIDDEN
 10
391.4401537928
 20
293.0259967811
 11
391.6401537928
 21
293.0259967811
  0
LINE
  8
DEFAULT_2
 62
8
  6
HIDDEN
 10
391.4401537928
 20
293.0468459997
 11
391.6401537928
 21
293.0468459997
  0
LINE
  8
DEFAULT_2
 62
8
  6
HIDDEN
 10
391.4401537928
 20
293.053133527
 11
391.6401537928
 21
293.053133527
  0
LINE
  8
DEFAULT_2
 62
8
  6
HIDDEN
 10
391.4401537928
 20
293.0944988218
 11
391.6401537928
 21
293.0944988218
  0
LINE
  8
DEFAULT_2
 62
8
  6
HIDDEN
 10
391.4401537928
 20
293.1002033544
 11
391.6401537928
 21
293.1002033544
  0
LINE
  8
DEFAULT_2
 62
8
  6
HIDDEN
 10
391.4401537928
 20
293.1882701261
 11
391.6401537928
 21
293.1882701261
  0
LINE
  8
DEFAULT_2
 62
8
  6
HIDDEN
 10
391.4401537928
 20
293.1942705503
 11
391.6401537928
 21
293.1942705503
  0
LINE
  8
DEFAULT_2
 62
8
  6
HIDDEN
 10
391.4401537928
 20
293.1961636761
 11
391.6401537928
 21
293.1961636761
  0
LINE
  8
DEFAULT_2
 62
8
  6
HIDDEN
 10
391.4401537928
 20
293.223300144
 11
391.6401537928
 21
293.223300144
  0
LINE
  8
DEFAULT_2
 62
8
  6
HIDDEN
 10
391.4401537928
 20
293.2249821056
 11
391.6401537928
 21
293.2249821056
  0
LINE
  8
DEFAULT_2
 62
8
  6
HIDDEN
 10
396.4401537928
 20
293.2350092259
 11
402.8901537928
 21
293.2350092259
  0
LINE
  8
DEFAULT_2
 62
8
  6
HIDDEN
 10
413.1901537928
 20
293.2350092259
 11
419.6401537928
 21
293.2350092259
  0
LINE
  8
DEFAULT_2
 62
8
  6
HIDDEN
 10
391.4401537928
 20
293.2651282865
 11
391.6401537928
 21
293.2651282865
  0
LINE
  8
DEFAULT_2
 62
8
  6
HIDDEN
 10
391.4401537928
 20
293.4186149715
 11
391.6401537928
 21
293.4186149715
  0
LINE
  8
DEFAULT_2
 62
8
  6
HIDDEN
 10
391.4401537928
 20
293.4906914189
 11
391.6401537928
 21
293.4906914189
  0
LINE
  8
DEFAULT_2
 62
8
  6
HIDDEN
 10
391.4401537928
 20
293.5042597918
 11
391.6401537928
 21
293.5042597918
  0
LINE
  8
DEFAULT_2
 62
8
  6
HIDDEN
 10
391.4401537928
 20
293.5116062116
 11
391.6401537928
 21
293.5116062116
  0
LINE
  8
DEFAULT_2
 62
8
  6
HIDDEN
 10
391.4401537928
 20
293.6170630871
 11
391.6401537928
 21
293.6170630871
  0
LINE
  8
DEFAULT_2
 62
8
  6
HIDDEN
 10
391.4401537928
 20
293.6441781039
 11
391.6401537928
 21
293.6441781039
  0
LINE
  8
DEFAULT_2
 62
8
  6
HIDDEN
 10
391.4401537928
 20
293.6456867204
 11
391.6401537928
 21
293.6456867204
  0
LINE
  8
DEFAULT_2
 62
8
  6
HIDDEN
 10
391.4401537928
 20
293.754947678
 11
391.6401537928
 21
293.754947678
  0
LINE
  8
DEFAULT_2
 62
8
  6
HIDDEN
 10
391.4401537928
 20
293.7948567062
 11
391.6401537928
 21
293.7948567062
  0
LINE
  8
DEFAULT_2
 62
8
  6
HIDDEN
 10
391.4401537928
 20
293.7987892556
 11
391.6401537928
 21
293.7987892556
  0
LINE
  8
DEFAULT_2
 62
8
  6
HIDDEN
 10
391.4401537928
 20
293.8210304577
 11
391.6401537928
 21
293.8210304577
  0
LINE
  8
DEFAULT_2
 62
8
  6
HIDDEN
 10
391.4401537928
 20
293.8293673423
 11
391.6401537928
 21
293.8293673423
  0
LINE
  8
DEFAULT_2
 62
8
  6
HIDDEN
 10
396.4401537928
 20
293.8618739092
 11
402.8901537928
 21
293.8618739092
  0
LINE
  8
DEFAULT_2
 62
8
  6
HIDDEN
 10
413.1901537928
 20
293.8618739092
 11
419.6401537928
 21
293.8618739092
  0
LINE
  8
DEFAULT_2
 62
8
  6
HIDDEN
 10
391.4401537928
 20
293.8741392546
 11
391.6401537928
 21
293.8741392546
  0
LINE
  8
DEFAULT_2
 62
8
  6
HIDDEN
 10
391.4401537928
 20
293.9147558939
 11
391.6401537928
 21
293.9147558939
  0
LINE
  8
DEFAULT_2
 62
8
  6
HIDDEN
 10
391.4401537928
 20
293.9282493108
 11
391.6401537928
 21
293.9282493108
  0
LINE
  8
DEFAULT_2
 62
8
  6
HIDDEN
 10
391.4401537928
 20
293.9367761787
 11
391.6401537928
 21
293.9367761787
  0
LINE
  8
DEFAULT_2
 62
8
  6
HIDDEN
 10
391.4401537928
 20
293.9390755217
 11
391.6401537928
 21
293.9390755217
  0
LINE
  8
DEFAULT_2
 62
8
  6
HIDDEN
 10
391.4401537928
 20
293.9491641036
 11
391.6401537928
 21
293.9491641036
  0
LINE
  8
DEFAULT_2
 62
8
  6
HIDDEN
 10
391.4401537928
 20
293.9902117926
 11
391.6401537928
 21
293.9902117926
  0
LINE
  8
DEFAULT_2
 62
8
  6
HIDDEN
 10
391.4401537928
 20
294.0379207609
 11
391.6401537928
 21
294.0379207609
  0
LINE
  8
DEFAULT_2
 62
8
  6
HIDDEN
 10
391.4401537928
 20
294.0639048486
 11
391.6401537928
 21
294.0639048486
  0
LINE
  8
DEFAULT_2
 62
8
  6
HIDDEN
 10
391.4401537928
 20
294.1095641005
 11
391.6401537928
 21
294.1095641005
  0
LINE
  8
DEFAULT_2
 62
8
  6
HIDDEN
 10
391.4401537928
 20
294.1335490952
 11
391.6401537928
 21
294.1335490952
  0
LINE
  8
DEFAULT_2
 62
8
  6
HIDDEN
 10
391.4401537928
 20
294.1544789922
 11
391.6401537928
 21
294.1544789922
  0
LINE
  8
DEFAULT_2
 62
8
  6
HIDDEN
 10
391.4401537928
 20
294.1577985332
 11
391.6401537928
 21
294.1577985332
  0
LINE
  8
DEFAULT_2
 62
8
  6
HIDDEN
 10
391.4401537928
 20
294.1664789402
 11
391.6401537928
 21
294.1664789402
  0
LINE
  8
DEFAULT_2
 62
8
  6
HIDDEN
 10
391.4401537928
 20
294.2070548297
 11
391.6401537928
 21
294.2070548297
  0
LINE
  8
DEFAULT_2
 62
8
  6
HIDDEN
 10
391.4401537928
 20
294.2085104792
 11
391.6401537928
 21
294.2085104792
  0
LINE
  8
DEFAULT_2
 62
8
  6
HIDDEN
 10
391.4401537928
 20
294.2484195074
 11
391.6401537928
 21
294.2484195074
  0
LINE
  8
DEFAULT_2
 62
8
  6
HIDDEN
 10
391.4401537928
 20
294.25597482
 11
391.6401537928
 21
294.25597482
  0
LINE
  8
DEFAULT_2
 62
8
  6
HIDDEN
 10
391.4401537928
 20
294.258718815
 11
391.6401537928
 21
294.258718815
  0
LINE
  8
DEFAULT_2
 62
8
  6
HIDDEN
 10
391.4401537928
 20
294.2808431606
 11
391.6401537928
 21
294.2808431606
  0
LINE
  8
DEFAULT_2
 62
8
  6
HIDDEN
 10
391.4401537928
 20
294.2923634079
 11
391.6401537928
 21
294.2923634079
  0
LINE
  8
DEFAULT_2
 62
8
  6
HIDDEN
 10
391.4401537928
 20
294.3410807789
 11
391.6401537928
 21
294.3410807789
  0
LINE
  8
DEFAULT_2
 62
8
  6
HIDDEN
 10
391.4401537928
 20
294.3863040984
 11
391.6401537928
 21
294.3863040984
  0
LINE
  8
DEFAULT_2
 62
8
  6
HIDDEN
 10
391.4401537928
 20
294.3889167983
 11
391.6401537928
 21
294.3889167983
  0
LINE
  8
DEFAULT_2
 62
8
  6
HIDDEN
 10
391.4401537928
 20
294.3933046334
 11
391.6401537928
 21
294.3933046334
  0
LINE
  8
DEFAULT_2
 62
8
  6
HIDDEN
 10
391.4401537928
 20
294.4320202622
 11
391.6401537928
 21
294.4320202622
  0
LINE
  8
DEFAULT_2
 62
8
  6
HIDDEN
 10
391.4401537928
 20
294.455508054
 11
391.6401537928
 21
294.455508054
  0
LINE
  8
DEFAULT_2
 62
8
  6
HIDDEN
 10
391.4401537928
 20
294.4568540668
 11
391.6401537928
 21
294.4568540668
  0
LINE
  8
DEFAULT_2
 62
8
  6
HIDDEN
 10
391.4401537928
 20
294.4798270965
 11
391.6401537928
 21
294.4798270965
  0
LINE
  8
DEFAULT_2
 62
8
  6
HIDDEN
 10
391.4401537928
 20
294.4911590865
 11
391.6401537928
 21
294.4911590865
  0
LINE
  8
DEFAULT_2
 62
8
  6
HIDDEN
 10
391.4401537928
 20
294.5447422183
 11
391.6401537928
 21
294.5447422183
  0
LINE
  8
DEFAULT_2
 62
8
  6
HIDDEN
 10
391.4401537928
 20
294.5497289241
 11
391.6401537928
 21
294.5497289241
  0
LINE
  8
DEFAULT_2
 62
8
  6
HIDDEN
 10
391.4401537928
 20
294.5510642714
 11
391.6401537928
 21
294.5510642714
  0
LINE
  8
DEFAULT_2
 62
8
  6
HIDDEN
 10
391.4401537928
 20
294.5528123135
 11
391.6401537928
 21
294.5528123135
  0
LINE
  8
DEFAULT_2
 62
8
  6
HIDDEN
 10
391.4401537928
 20
294.6164436192
 11
391.6401537928
 21
294.6164436192
  0
LINE
  8
DEFAULT_2
 62
8
  6
HIDDEN
 10
391.4401537928
 20
294.6243416349
 11
391.6401537928
 21
294.6243416349
  0
LINE
  8
DEFAULT_2
 62
8
  6
HIDDEN
 10
391.4401537928
 20
294.6276522068
 11
391.6401537928
 21
294.6276522068
  0
LINE
  8
DEFAULT_2
 62
8
  6
HIDDEN
 10
391.4401537928
 20
294.6503823153
 11
391.6401537928
 21
294.6503823153
  0
LINE
  8
DEFAULT_2
 62
8
  6
HIDDEN
 10
391.4401537928
 20
294.6772447199
 11
391.6401537928
 21
294.6772447199
  0
LINE
  8
DEFAULT_2
 62
8
  6
HIDDEN
 10
391.4401537928
 20
294.6906969045
 11
391.6401537928
 21
294.6906969045
  0
LINE
  8
DEFAULT_2
 62
8
  6
HIDDEN
 10
391.4401537928
 20
294.7418913368
 11
391.6401537928
 21
294.7418913368
  0
LINE
  8
DEFAULT_2
 62
8
  6
HIDDEN
 10
391.4401537928
 20
294.7512258225
 11
391.6401537928
 21
294.7512258225
  0
LINE
  8
DEFAULT_2
 62
8
  6
HIDDEN
 10
391.4401537928
 20
294.7540295785
 11
391.6401537928
 21
294.7540295785
  0
LINE
  8
DEFAULT_2
 62
8
  6
HIDDEN
 10
391.4401537928
 20
294.777936172
 11
391.6401537928
 21
294.777936172
  0
LINE
  8
DEFAULT_2
 62
8
  6
HIDDEN
 10
391.4401537928
 20
294.7861217832
 11
391.6401537928
 21
294.7861217832
  0
LINE
  8
DEFAULT_2
 62
8
  6
HIDDEN
 10
391.4401537928
 20
294.8092260331
 11
391.6401537928
 21
294.8092260331
  0
LINE
  8
DEFAULT_2
 62
8
  6
HIDDEN
 10
391.4401537928
 20
294.8411973204
 11
391.6401537928
 21
294.8411973204
  0
LINE
  8
DEFAULT_2
 62
8
  6
HIDDEN
 10
391.4401537928
 20
294.8744090704
 11
391.6401537928
 21
294.8744090704
  0
LINE
  8
DEFAULT_2
 62
8
  6
HIDDEN
 10
391.4401537928
 20
294.9183363462
 11
391.6401537928
 21
294.9183363462
  0
LINE
  8
DEFAULT_2
 62
8
  6
HIDDEN
 10
391.4401537928
 20
294.9257722709
 11
391.6401537928
 21
294.9257722709
  0
LINE
  8
DEFAULT_2
 62
8
  6
HIDDEN
 10
391.4401537928
 20
294.9332776124
 11
391.6401537928
 21
294.9332776124
  0
LINE
  8
DEFAULT_2
 62
8
  6
HIDDEN
 10
391.4401537928
 20
294.9523323531
 11
391.6401537928
 21
294.9523323531
  0
LINE
  8
DEFAULT_2
 62
8
  6
HIDDEN
 10
391.4401537928
 20
294.9612184177
 11
391.6401537928
 21
294.9612184177
  0
LINE
  8
DEFAULT_2
 62
8
  6
HIDDEN
 10
391.4401537928
 20
295.0020417706
 11
391.6401537928
 21
295.0020417706
  0
LINE
  8
DEFAULT_2
 62
8
  6
HIDDEN
 10
391.4401537928
 20
295.0311448222
 11
391.6401537928
 21
295.0311448222
  0
LINE
  8
DEFAULT_2
 62
8
  6
HIDDEN
 10
391.4401537928
 20
295.0515188577
 11
391.6401537928
 21
295.0515188577
  0
LINE
  8
DEFAULT_2
 62
8
  6
HIDDEN
 10
391.4401537928
 20
295.0555520556
 11
391.6401537928
 21
295.0555520556
  0
LINE
  8
DEFAULT_2
 62
8
  6
HIDDEN
 10
391.4401537928
 20
295.0588712395
 11
391.6401537928
 21
295.0588712395
  0
LINE
  8
DEFAULT_2
 62
8
  6
HIDDEN
 10
391.4401537928
 20
295.1402244828
 11
391.6401537928
 21
295.1402244828
  0
LINE
  8
DEFAULT_2
 62
8
  6
HIDDEN
 10
391.4401537928
 20
295.1474751162
 11
391.6401537928
 21
295.1474751162
  0
LINE
  8
DEFAULT_2
 62
8
  6
HIDDEN
 10
391.4401537928
 20
295.1620639925
 11
391.6401537928
 21
295.1620639925
  0
LINE
  8
DEFAULT_2
 62
8
  6
HIDDEN
 10
391.4401537928
 20
295.1652405055
 11
391.6401537928
 21
295.1652405055
  0
LINE
  8
DEFAULT_2
 62
8
  6
HIDDEN
 10
391.4401537928
 20
295.2170424612
 11
391.6401537928
 21
295.2170424612
  0
LINE
  8
DEFAULT_2
 62
8
  6
HIDDEN
 10
391.4401537928
 20
295.2220080218
 11
391.6401537928
 21
295.2220080218
  0
LINE
  8
DEFAULT_2
 62
8
  6
HIDDEN
 10
391.4401537928
 20
295.2321475434
 11
391.6401537928
 21
295.2321475434
  0
LINE
  8
DEFAULT_2
 62
8
  6
HIDDEN
 10
391.4401537928
 20
295.2353508023
 11
391.6401537928
 21
295.2353508023
  0
LINE
  8
DEFAULT_2
 62
8
  6
HIDDEN
 10
391.4401537928
 20
295.2371658278
 11
391.6401537928
 21
295.2371658278
  0
LINE
  8
DEFAULT_2
 62
8
  6
HIDDEN
 10
391.4401537928
 20
295.2889130036
 11
391.6401537928
 21
295.2889130036
  0
LINE
  8
DEFAULT_2
 62
8
  6
HIDDEN
 10
391.4401537928
 20
295.3471121677
 11
391.6401537928
 21
295.3471121677
  0
LINE
  8
DEFAULT_2
 62
8
  6
HIDDEN
 10
391.4401537928
 20
295.3738234953
 11
391.6401537928
 21
295.3738234953
  0
LINE
  8
DEFAULT_2
 62
8
  6
HIDDEN
 10
391.4401537928
 20
295.4015178317
 11
391.6401537928
 21
295.4015178317
  0
LINE
  8
DEFAULT_2
 62
8
  6
HIDDEN
 10
391.4401537928
 20
295.4409899713
 11
391.6401537928
 21
295.4409899713
  0
LINE
  8
DEFAULT_2
 62
8
  6
HIDDEN
 10
391.4401537928
 20
295.506071538
 11
391.6401537928
 21
295.506071538
  0
LINE
  8
DEFAULT_2
 62
8
  6
HIDDEN
 10
391.4401537928
 20
295.5079566179
 11
391.6401537928
 21
295.5079566179
  0
LINE
  8
DEFAULT_2
 62
8
  6
HIDDEN
 10
391.4401537928
 20
295.5267051907
 11
391.6401537928
 21
295.5267051907
  0
LINE
  8
DEFAULT_2
 62
8
  6
HIDDEN
 10
391.4401537928
 20
295.538666713
 11
391.6401537928
 21
295.538666713
  0
LINE
  8
DEFAULT_2
 62
8
  6
HIDDEN
 10
391.4401537928
 20
295.5466881681
 11
391.6401537928
 21
295.5466881681
  0
LINE
  8
DEFAULT_2
 62
8
  6
HIDDEN
 10
391.4401537928
 20
295.5641498992
 11
391.6401537928
 21
295.5641498992
  0
LINE
  8
DEFAULT_2
 62
8
  6
HIDDEN
 10
391.4401537928
 20
295.5792834909
 11
391.6401537928
 21
295.5792834909
  0
LINE
  8
DEFAULT_2
 62
8
  6
HIDDEN
 10
391.4401537928
 20
295.6158970009
 11
391.6401537928
 21
295.6158970009
  0
LINE
  8
DEFAULT_2
 62
8
  6
HIDDEN
 10
391.4401537928
 20
295.6940200856
 11
391.6401537928
 21
295.6940200856
  0
LINE
  8
DEFAULT_2
 62
8
  6
HIDDEN
 10
391.4401537928
 20
295.7087569806
 11
391.6401537928
 21
295.7087569806
  0
LINE
  8
DEFAULT_2
 62
8
  6
HIDDEN
 10
391.4401537928
 20
295.861638676
 11
391.6401537928
 21
295.861638676
  0
LINE
  8
DEFAULT_2
 62
8
  6
HIDDEN
 10
391.4401537928
 20
295.8633468593
 11
391.6401537928
 21
295.8633468593
  0
LINE
  8
DEFAULT_2
 62
8
  6
HIDDEN
 10
391.4401537928
 20
295.8683125677
 11
391.6401537928
 21
295.8683125677
  0
LINE
  8
DEFAULT_2
 62
8
  6
HIDDEN
 10
391.4401537928
 20
295.9338420397
 11
391.6401537928
 21
295.9338420397
  0
LINE
  8
DEFAULT_2
 62
8
  6
HIDDEN
 10
391.4401537928
 20
296.0940582973
 11
391.6401537928
 21
296.0940582973
  0
LINE
  8
DEFAULT_2
 62
8
  6
HIDDEN
 10
391.4401537928
 20
296.1053929875
 11
391.6401537928
 21
296.1053929875
  0
LINE
  8
DEFAULT_2
 62
8
  6
HIDDEN
 10
391.4401537928
 20
296.1189020242
 11
391.6401537928
 21
296.1189020242
  0
LINE
  8
DEFAULT_2
 62
8
  6
HIDDEN
 10
391.4401537928
 20
296.1330226019
 11
391.6401537928
 21
296.1330226019
  0
LINE
  8
DEFAULT_2
 62
8
  6
HIDDEN
 10
391.4401537928
 20
296.1670186827
 11
391.6401537928
 21
296.1670186827
  0
LINE
  8
DEFAULT_2
 62
8
  6
HIDDEN
 10
391.4401537928
 20
296.197802617
 11
391.6401537928
 21
296.197802617
  0
LINE
  8
0
 62
9
  6
CONTINUOUS
 10
396.4401537928
 20
296.2128675544
 11
402.8901537928
 21
296.2128675544
  0
LINE
  8
0
 62
9
  6
CONTINUOUS
 10
413.1901537928
 20
296.2128675544
 11
419.6401537928
 21
296.2128675544
  0
LINE
  8
DEFAULT_2
 62
8
  6
HIDDEN
 10
391.4401537928
 20
296.2427482686
 11
391.6401537928
 21
296.2427482686
  0
LINE
  8
DEFAULT_2
 62
8
  6
HIDDEN
 10
391.4401537928
 20
296.257928981
 11
391.6401537928
 21
296.257928981
  0
LINE
  8
DEFAULT_2
 62
8
  6
HIDDEN
 10
391.4401537928
 20
296.2984940691
 11
391.6401537928
 21
296.2984940691
  0
LINE
  8
DEFAULT_2
 62
8
  6
HIDDEN
 10
391.4401537928
 20
296.3437549954
 11
391.6401537928
 21
296.3437549954
  0
LINE
  8
DEFAULT_2
 62
8
  6
HIDDEN
 10
391.4401537928
 20
296.3521498511
 11
391.6401537928
 21
296.3521498511
  0
LINE
  8
DEFAULT_2
 62
8
  6
HIDDEN
 10
391.4401537928
 20
296.355460423
 11
391.6401537928
 21
296.355460423
  0
LINE
  8
DEFAULT_2
 62
8
  6
HIDDEN
 10
391.4401537928
 20
296.4029645262
 11
391.6401537928
 21
296.4029645262
  0
LINE
  8
DEFAULT_2
 62
8
  6
HIDDEN
 10
391.4401537928
 20
296.4366332972
 11
391.6401537928
 21
296.4366332972
  0
LINE
  8
DEFAULT_2
 62
8
  6
HIDDEN
 10
391.4401537928
 20
296.4886429345
 11
391.6401537928
 21
296.4886429345
  0
LINE
  8
DEFAULT_2
 62
8
  6
HIDDEN
 10
391.4401537928
 20
296.4999749614
 11
391.6401537928
 21
296.4999749614
  0
LINE
  8
DEFAULT_2
 62
8
  6
HIDDEN
 10
391.4401537928
 20
296.5154976879
 11
391.6401537928
 21
296.5154976879
  0
LINE
  8
DEFAULT_2
 62
8
  6
HIDDEN
 10
391.4401537928
 20
296.5242940039
 11
391.6401537928
 21
296.5242940039
  0
LINE
  8
DEFAULT_2
 62
8
  6
HIDDEN
 10
391.4401537928
 20
296.5908852597
 11
391.6401537928
 21
296.5908852597
  0
LINE
  8
DEFAULT_2
 62
8
  6
HIDDEN
 10
391.4401537928
 20
296.6091781164
 11
391.6401537928
 21
296.6091781164
  0
LINE
  8
DEFAULT_2
 62
8
  6
HIDDEN
 10
391.4401537928
 20
296.6339430696
 11
391.6401537928
 21
296.6339430696
  0
LINE
  8
DEFAULT_2
 62
8
  6
HIDDEN
 10
396.4401537928
 20
296.7003709894
 11
402.8901537928
 21
296.7003709894
  0
LINE
  8
DEFAULT_2
 62
8
  6
HIDDEN
 10
413.1901537928
 20
296.7003709894
 11
419.6401537928
 21
296.7003709894
  0
LINE
  8
DEFAULT_2
 62
8
  6
HIDDEN
 10
391.4401537928
 20
296.7207571993
 11
391.6401537928
 21
296.7207571993
  0
LINE
  8
DEFAULT_2
 62
8
  6
HIDDEN
 10
391.4401537928
 20
296.7258661303
 11
391.6401537928
 21
296.7258661303
  0
LINE
  8
DEFAULT_2
 62
8
  6
HIDDEN
 10
391.4401537928
 20
296.7826190489
 11
391.6401537928
 21
296.7826190489
  0
LINE
  8
DEFAULT_2
 62
8
  6
HIDDEN
 10
391.4401537928
 20
296.7997739557
 11
391.6401537928
 21
296.7997739557
  0
LINE
  8
DEFAULT_2
 62
8
  6
HIDDEN
 10
391.4401537928
 20
296.8397299487
 11
391.6401537928
 21
296.8397299487
  0
LINE
  8
DEFAULT_2
 62
8
  6
HIDDEN
 10
391.4401537928
 20
296.8702372982
 11
391.6401537928
 21
296.8702372982
  0
LINE
  8
DEFAULT_2
 62
8
  6
HIDDEN
 10
391.4401537928
 20
296.8876773047
 11
391.6401537928
 21
296.8876773047
  0
LINE
  8
DEFAULT_2
 62
8
  6
HIDDEN
 10
391.4401537928
 20
296.9318629934
 11
391.6401537928
 21
296.9318629934
  0
LINE
  8
0
 62
7
  6
CONTINUOUS
 10
396.4401537928
 20
296.9630936526
 11
402.8901537928
 21
296.9630936526
  0
LINE
  8
0
 62
7
  6
CONTINUOUS
 10
413.1901537928
 20
296.9630936526
 11
419.6401537928
 21
296.9630936526
  0
LINE
  8
DEFAULT_2
 62
8
  6
HIDDEN
 10
391.4401537928
 20
296.9796450731
 11
391.6401537928
 21
296.9796450731
  0
LINE
  8
DEFAULT_2
 62
8
  6
HIDDEN
 10
391.4401537928
 20
296.9967992604
 11
391.6401537928
 21
296.9967992604
  0
LINE
  8
DEFAULT_2
 62
8
  6
HIDDEN
 10
391.4401537928
 20
297.0117373149
 11
391.6401537928
 21
297.0117373149
  0
LINE
  8
DEFAULT_2
 62
8
  6
HIDDEN
 10
391.4401537928
 20
297.0407264623
 11
391.6401537928
 21
297.0407264623
  0
LINE
  8
DEFAULT_2
 62
8
  6
HIDDEN
 10
391.4401537928
 20
297.0650455049
 11
391.6401537928
 21
297.0650455049
  0
LINE
  8
DEFAULT_2
 62
8
  6
HIDDEN
 10
391.4401537928
 20
297.1056627294
 11
391.6401537928
 21
297.1056627294
  0
LINE
  8
DEFAULT_2
 62
8
  6
HIDDEN
 10
391.4401537928
 20
297.1513877656
 11
391.6401537928
 21
297.1513877656
  0
LINE
  8
DEFAULT_2
 62
8
  6
HIDDEN
 10
391.4401537928
 20
297.1620908131
 11
391.6401537928
 21
297.1620908131
  0
LINE
  8
DEFAULT_2
 62
8
  6
HIDDEN
 10
391.4401537928
 20
297.175394105
 11
391.6401537928
 21
297.175394105
  0
LINE
  8
DEFAULT_2
 62
8
  6
HIDDEN
 10
391.4401537928
 20
297.2637032339
 11
391.6401537928
 21
297.2637032339
  0
LINE
  8
DEFAULT_2
 62
8
  6
HIDDEN
 10
391.4401537928
 20
297.2844867342
 11
391.6401537928
 21
297.2844867342
  0
LINE
  8
DEFAULT_2
 62
8
  6
HIDDEN
 10
391.4401537928
 20
297.4512567301
 11
391.6401537928
 21
297.4512567301
  0
LINE
  8
DEFAULT_2
 62
8
  6
HIDDEN
 10
391.4401537928
 20
297.4627813224
 11
391.6401537928
 21
297.4627813224
  0
LINE
  8
DEFAULT_2
 62
8
  6
HIDDEN
 10
391.4401537928
 20
297.5052105595
 11
391.6401537928
 21
297.5052105595
  0
LINE
  8
DEFAULT_2
 62
8
  6
HIDDEN
 10
391.4401537928
 20
297.5084101845
 11
391.6401537928
 21
297.5084101845
  0
LINE
  8
DEFAULT_2
 62
8
  6
HIDDEN
 10
391.4401537928
 20
297.514528424
 11
391.6401537928
 21
297.514528424
  0
LINE
  8
DEFAULT_2
 62
8
  6
HIDDEN
 10
391.4401537928
 20
297.5521933602
 11
391.6401537928
 21
297.5521933602
  0
LINE
  8
DEFAULT_2
 62
8
  6
HIDDEN
 10
391.4401537928
 20
297.5604239591
 11
391.6401537928
 21
297.5604239591
  0
LINE
  8
DEFAULT_2
 62
8
  6
HIDDEN
 10
391.4401537928
 20
297.5701462321
 11
391.6401537928
 21
297.5701462321
  0
LINE
  8
DEFAULT_2
 62
8
  6
HIDDEN
 10
391.4401537928
 20
297.5928693362
 11
391.6401537928
 21
297.5928693362
  0
LINE
  8
DEFAULT_2
 62
8
  6
HIDDEN
 10
391.4401537928
 20
297.6269394147
 11
391.6401537928
 21
297.6269394147
  0
LINE
  8
DEFAULT_2
 62
8
  6
HIDDEN
 10
391.4401537928
 20
297.6523470197
 11
391.6401537928
 21
297.6523470197
  0
LINE
  8
DEFAULT_2
 62
8
  6
HIDDEN
 10
391.4401537928
 20
297.7029874286
 11
391.6401537928
 21
297.7029874286
  0
LINE
  8
DEFAULT_2
 62
8
  6
HIDDEN
 10
391.4401537928
 20
297.7226825243
 11
391.6401537928
 21
297.7226825243
  0
LINE
  8
DEFAULT_2
 62
8
  6
HIDDEN
 10
391.4401537928
 20
297.7648238304
 11
391.6401537928
 21
297.7648238304
  0
LINE
  8
DEFAULT_2
 62
8
  6
HIDDEN
 10
391.4401537928
 20
297.7668471309
 11
391.6401537928
 21
297.7668471309
  0
LINE
  8
DEFAULT_2
 62
8
  6
HIDDEN
 10
396.4401537928
 20
297.7759108625
 11
402.8901537928
 21
297.7759108625
  0
LINE
  8
DEFAULT_2
 62
8
  6
HIDDEN
 10
413.1901537928
 20
297.7759108625
 11
419.6401537928
 21
297.7759108625
  0
LINE
  8
DEFAULT_2
 62
8
  6
HIDDEN
 10
391.4401537928
 20
297.7897653197
 11
391.6401537928
 21
297.7897653197
  0
LINE
  8
DEFAULT_2
 62
8
  6
HIDDEN
 10
391.4401537928
 20
297.8348562663
 11
391.6401537928
 21
297.8348562663
  0
LINE
  8
DEFAULT_2
 62
8
  6
HIDDEN
 10
391.4401537928
 20
297.8415124213
 11
391.6401537928
 21
297.8415124213
  0
LINE
  8
DEFAULT_2
 62
8
  6
HIDDEN
 10
391.4401537928
 20
297.8558653315
 11
391.6401537928
 21
297.8558653315
  0
LINE
  8
DEFAULT_2
 62
8
  6
HIDDEN
 10
391.4401537928
 20
297.8607821508
 11
391.6401537928
 21
297.8607821508
  0
LINE
  8
DEFAULT_2
 62
8
  6
HIDDEN
 10
391.4401537928
 20
297.912779549
 11
391.6401537928
 21
297.912779549
  0
LINE
  8
DEFAULT_2
 62
8
  6
HIDDEN
 10
391.4401537928
 20
297.9313320455
 11
391.6401537928
 21
297.9313320455
  0
LINE
  8
DEFAULT_2
 62
8
  6
HIDDEN
 10
391.4401537928
 20
298.0252727361
 11
391.6401537928
 21
298.0252727361
  0
LINE
  8
DEFAULT_2
 62
8
  6
HIDDEN
 10
391.4401537928
 20
298.0534757805
 11
391.6401537928
 21
298.0534757805
  0
LINE
  8
DEFAULT_2
 62
8
  6
HIDDEN
 10
419.6401537928
 20
298.0549619317
 11
413.1901537928
 21
298.0549619317
  0
LINE
  8
DEFAULT_2
 62
8
  6
HIDDEN
 10
402.8901537928
 20
298.0549619317
 11
396.4401537928
 21
298.0549619317
  0
LINE
  8
DEFAULT_2
 62
8
  6
HIDDEN
 10
391.4401537928
 20
298.0692166365
 11
391.6401537928
 21
298.0692166365
  0
LINE
  8
0
 62
9
  6
CONTINUOUS
 10
419.6401537928
 20
298.0866644652
 11
413.1901537928
 21
298.0866644652
  0
LINE
  8
0
 62
9
  6
CONTINUOUS
 10
402.8901537928
 20
298.0866644652
 11
396.4401537928
 21
298.0866644652
  0
LINE
  8
DEFAULT_2
 62
8
  6
HIDDEN
 10
391.4401537928
 20
298.1091256278
 11
391.6401537928
 21
298.1091256278
  0
LINE
  8
0
 62
7
  6
CONTINUOUS
 10
419.6401537928
 20
298.124724699
 11
413.1901537928
 21
298.124724699
  0
LINE
  8
0
 62
7
  6
CONTINUOUS
 10
402.8901537928
 20
298.124724699
 11
396.4401537928
 21
298.124724699
  0
LINE
  8
DEFAULT_2
 62
8
  6
HIDDEN
 10
391.4401537928
 20
298.146549397
 11
391.6401537928
 21
298.146549397
  0
LINE
  8
DEFAULT_2
 62
8
  6
HIDDEN
 10
391.4401537928
 20
298.1628469845
 11
391.6401537928
 21
298.1628469845
  0
LINE
  8
DEFAULT_2
 62
8
  6
HIDDEN
 10
391.4401537928
 20
298.213692335
 11
391.6401537928
 21
298.213692335
  0
LINE
  8
DEFAULT_2
 62
8
  6
HIDDEN
 10
391.4401537928
 20
298.2244726796
 11
391.6401537928
 21
298.2244726796
  0
LINE
  8
DEFAULT_2
 62
8
  6
HIDDEN
 10
391.4401537928
 20
298.2960294959
 11
391.6401537928
 21
298.2960294959
  0
LINE
  8
DEFAULT_2
 62
8
  6
HIDDEN
 10
391.4401537928
 20
298.3073615228
 11
391.6401537928
 21
298.3073615228
  0
LINE
  8
DEFAULT_2
 62
8
  6
HIDDEN
 10
391.4401537928
 20
298.3186935498
 11
391.6401537928
 21
298.3186935498
  0
LINE
  8
DEFAULT_2
 62
8
  6
HIDDEN
 10
396.4401537928
 20
298.3199822541
 11
402.8901537928
 21
298.3199822541
  0
LINE
  8
DEFAULT_2
 62
8
  6
HIDDEN
 10
413.1901537928
 20
298.3199822541
 11
419.6401537928
 21
298.3199822541
  0
LINE
  8
DEFAULT_2
 62
8
  6
HIDDEN
 10
391.4401537928
 20
298.3623821578
 11
391.6401537928
 21
298.3623821578
  0
LINE
  8
DEFAULT_2
 62
8
  6
HIDDEN
 10
391.4401537928
 20
298.3808599007
 11
391.6401537928
 21
298.3808599007
  0
LINE
  8
DEFAULT_2
 62
8
  6
HIDDEN
 10
391.4401537928
 20
298.3852848055
 11
391.6401537928
 21
298.3852848055
  0
LINE
  8
DEFAULT_2
 62
8
  6
HIDDEN
 10
391.4401537928
 20
298.3934556976
 11
391.6401537928
 21
298.3934556976
  0
LINE
  8
DEFAULT_2
 62
8
  6
HIDDEN
 10
391.4401537928
 20
298.4633888847
 11
391.6401537928
 21
298.4633888847
  0
LINE
  8
DEFAULT_2
 62
8
  6
HIDDEN
 10
391.4401537928
 20
298.5225984155
 11
391.6401537928
 21
298.5225984155
  0
LINE
  8
DEFAULT_2
 62
8
  6
HIDDEN
 10
391.4401537928
 20
298.5511387592
 11
391.6401537928
 21
298.5511387592
  0
LINE
  8
DEFAULT_2
 62
8
  6
HIDDEN
 10
391.4401537928
 20
298.5562671865
 11
391.6401537928
 21
298.5562671865
  0
LINE
  8
DEFAULT_2
 62
8
  6
HIDDEN
 10
391.4401537928
 20
298.5626883922
 11
391.6401537928
 21
298.5626883922
  0
LINE
  8
DEFAULT_2
 62
8
  6
HIDDEN
 10
391.4401537928
 20
298.6077226266
 11
391.6401537928
 21
298.6077226266
  0
LINE
  8
DEFAULT_2
 62
8
  6
HIDDEN
 10
391.4401537928
 20
298.6351315771
 11
391.6401537928
 21
298.6351315771
  0
LINE
  8
DEFAULT_2
 62
8
  6
HIDDEN
 10
391.4401537928
 20
298.6455726583
 11
391.6401537928
 21
298.6455726583
  0
LINE
  8
DEFAULT_2
 62
8
  6
HIDDEN
 10
391.4401537928
 20
298.6719493591
 11
391.6401537928
 21
298.6719493591
  0
LINE
  8
DEFAULT_2
 62
8
  6
HIDDEN
 10
391.4401537928
 20
298.6776244542
 11
391.6401537928
 21
298.6776244542
  0
LINE
  8
DEFAULT_2
 62
8
  6
HIDDEN
 10
391.4401537928
 20
298.7005729832
 11
391.6401537928
 21
298.7005729832
  0
LINE
  8
DEFAULT_2
 62
8
  6
HIDDEN
 10
391.4401537928
 20
298.8481130238
 11
391.6401537928
 21
298.8481130238
  0
LINE
  8
DEFAULT_2
 62
8
  6
HIDDEN
 10
391.4401537928
 20
298.8594450507
 11
391.6401537928
 21
298.8594450507
  0
LINE
  8
DEFAULT_2
 62
8
  6
HIDDEN
 10
391.4401537928
 20
298.8779059619
 11
391.6401537928
 21
298.8779059619
  0
LINE
  8
DEFAULT_2
 62
8
  6
HIDDEN
 10
391.4401537928
 20
298.9000622752
 11
391.6401537928
 21
298.9000622752
  0
LINE
  8
DEFAULT_2
 62
8
  6
HIDDEN
 10
391.4401537928
 20
298.9194078449
 11
391.6401537928
 21
298.9194078449
  0
LINE
  8
DEFAULT_2
 62
8
  6
HIDDEN
 10
391.4401537928
 20
299.0159456678
 11
391.6401537928
 21
299.0159456678
  0
LINE
  8
DEFAULT_2
 62
8
  6
HIDDEN
 10
391.4401537928
 20
299.0450443844
 11
391.6401537928
 21
299.0450443844
  0
LINE
  8
DEFAULT_2
 62
8
  6
HIDDEN
 10
391.4401537928
 20
299.1899427457
 11
391.6401537928
 21
299.1899427457
  0
LINE
  8
DEFAULT_2
 62
8
  6
HIDDEN
 10
391.4401537928
 20
299.2011964295
 11
391.6401537928
 21
299.2011964295
  0
LINE
  8
DEFAULT_2
 62
8
  6
HIDDEN
 10
391.4401537928
 20
299.2416067311
 11
391.6401537928
 21
299.2416067311
  0
LINE
  8
DEFAULT_2
 62
8
  6
HIDDEN
 10
391.4401537928
 20
299.2619826964
 11
391.6401537928
 21
299.2619826964
  0
LINE
  8
DEFAULT_2
 62
8
  6
HIDDEN
 10
391.4401537928
 20
299.3897194584
 11
391.6401537928
 21
299.3897194584
  0
LINE
  8
DEFAULT_2
 62
8
  6
HIDDEN
 10
391.4401537928
 20
299.5474790965
 11
391.6401537928
 21
299.5474790965
  0
LINE
  8
DEFAULT_2
 62
8
  6
HIDDEN
 10
419.6401537928
 20
299.8236203069
 11
413.1901537928
 21
299.8236203069
  0
LINE
  8
DEFAULT_2
 62
8
  6
HIDDEN
 10
402.8901537928
 20
299.8236203069
 11
396.4401537928
 21
299.8236203069
  0
LINE
  8
DEFAULT_2
 62
8
  6
HIDDEN
 10
396.4401537928
 20
299.8603417252
 11
402.8901537928
 21
299.8603417252
  0
LINE
  8
DEFAULT_2
 62
8
  6
HIDDEN
 10
413.1901537928
 20
299.8603417252
 11
419.6401537928
 21
299.8603417252
  0
LINE
  8
DEFAULT_2
 62
8
  6
HIDDEN
 10
419.6401537928
 20
300.1614695864
 11
413.1901537928
 21
300.1614695864
  0
LINE
  8
DEFAULT_2
 62
8
  6
HIDDEN
 10
402.8901537928
 20
300.1614695864
 11
396.4401537928
 21
300.1614695864
  0
LINE
  8
0
 62
9
  6
CONTINUOUS
 10
396.4401537928
 20
300.8272553618
 11
402.8901537928
 21
300.8272553618
  0
LINE
  8
0
 62
9
  6
CONTINUOUS
 10
413.1901537928
 20
300.8272553618
 11
419.6401537928
 21
300.8272553618
  0
LINE
  8
0
 62
7
  6
CONTINUOUS
 10
413.1901537928
 20
303.5287614066
 11
402.8901537928
 21
303.5287614066
  0
LINE
  8
0
 62
7
  6
CONTINUOUS
 10
393.4401537928
 20
303.5287614066
 11
396.4401537928
 21
303.5287614066
  0
LINE
  8
0
 62
7
  6
CONTINUOUS
 10
419.6401537928
 20
303.5287614066
 11
422.6401537928
 21
303.5287614066
  0
LINE
  8
DEFAULT_2
 62
8
  6
HIDDEN
 10
396.4401537928
 20
304.3531431543
 11
402.8901537928
 21
304.3531431543
  0
LINE
  8
DEFAULT_2
 62
8
  6
HIDDEN
 10
413.1901537928
 20
304.3531431543
 11
419.6401537928
 21
304.3531431543
  0
LINE
  8
DEFAULT_2
 62
8
  6
HIDDEN
 10
396.4401537928
 20
305.0037614066
 11
402.8901537928
 21
305.0037614066
  0
LINE
  8
DEFAULT_2
 62
8
  6
HIDDEN
 10
413.1901537928
 20
305.0037614066
 11
419.6401537928
 21
305.0037614066
  0
LINE
  8
DEFAULT_2
 62
8
  6
HIDDEN
 10
419.6401537928
 20
305.8037614066
 11
413.1901537928
 21
305.8037614066
  0
LINE
  8
DEFAULT_2
 62
8
  6
HIDDEN
 10
402.8901537928
 20
305.8037614066
 11
396.4401537928
 21
305.8037614066
  0
LINE
  8
DEFAULT_2
 62
8
  6
HIDDEN
 10
419.6401537928
 20
306.0037614066
 11
413.1901537928
 21
306.0037614066
  0
LINE
  8
DEFAULT_2
 62
8
  6
HIDDEN
 10
402.8901537928
 20
306.0037614066
 11
396.4401537928
 21
306.0037614066
  0
LINE
  8
DEFAULT_2
 62
8
  6
HIDDEN
 10
396.4401537928
 20
306.8791467827
 11
402.8901537928
 21
306.8791467827
  0
LINE
  8
DEFAULT_2
 62
8
  6
HIDDEN
 10
413.1901537928
 20
306.8791467827
 11
419.6401537928
 21
306.8791467827
  0
LINE
  8
DEFAULT_2
 62
8
  6
HIDDEN
 10
396.4401537928
 20
307.3239892878
 11
402.8901537928
 21
307.3239892878
  0
LINE
  8
DEFAULT_2
 62
8
  6
HIDDEN
 10
413.1901537928
 20
307.3239892878
 11
419.6401537928
 21
307.3239892878
  0
LINE
  8
DEFAULT_2
 62
8
  6
HIDDEN
 10
396.4401537928
 20
309.1731876735
 11
402.8901537928
 21
309.1731876735
  0
LINE
  8
DEFAULT_2
 62
8
  6
HIDDEN
 10
413.1901537928
 20
309.1731876735
 11
419.6401537928
 21
309.1731876735
  0
LINE
  8
DEFAULT_2
 62
8
  6
HIDDEN
 10
396.4401537928
 20
310.5053885702
 11
402.8901537928
 21
310.5053885702
  0
LINE
  8
DEFAULT_2
 62
8
  6
HIDDEN
 10
413.1901537928
 20
310.5053885702
 11
419.6401537928
 21
310.5053885702
  0
LINE
  8
DEFAULT_2
 62
8
  6
HIDDEN
 10
396.4401537928
 20
310.5152078168
 11
402.8901537928
 21
310.5152078168
  0
LINE
  8
DEFAULT_2
 62
8
  6
HIDDEN
 10
413.1901537928
 20
310.5152078168
 11
419.6401537928
 21
310.5152078168
  0
LINE
  8
DEFAULT_2
 62
8
  6
HIDDEN
 10
396.4401537928
 20
311.7775787892
 11
402.8901537928
 21
311.7775787892
  0
LINE
  8
DEFAULT_2
 62
8
  6
HIDDEN
 10
413.1901537928
 20
311.7775787892
 11
419.6401537928
 21
311.7775787892
  0
LINE
  8
DEFAULT_2
 62
8
  6
HIDDEN
 10
396.4401537928
 20
315.6817482341
 11
402.8901537928
 21
315.6817482341
  0
LINE
  8
DEFAULT_2
 62
8
  6
HIDDEN
 10
413.1901537928
 20
315.6817482341
 11
419.6401537928
 21
315.6817482341
  0
LINE
  8
DEFAULT_2
 62
8
  6
HIDDEN
 10
396.4401537928
 20
316.4263796683
 11
402.8901537928
 21
316.4263796683
  0
LINE
  8
DEFAULT_2
 62
8
  6
HIDDEN
 10
413.1901537928
 20
316.4263796683
 11
419.6401537928
 21
316.4263796683
  0
LINE
  8
0
 62
9
  6
CONTINUOUS
 10
396.4401537928
 20
316.6050763719
 11
402.8901537928
 21
316.6050763719
  0
LINE
  8
0
 62
9
  6
CONTINUOUS
 10
413.1901537928
 20
316.6050763719
 11
419.6401537928
 21
316.6050763719
  0
LINE
  8
0
 62
7
  6
CONTINUOUS
 10
396.4401537928
 20
317.0037614066
 11
402.8901537928
 21
317.0037614066
  0
LINE
  8
0
 62
7
  6
CONTINUOUS
 10
413.1901537928
 20
317.0037614066
 11
419.6401537928
 21
317.0037614066
  0
LINE
  8
DEFAULT_2
 62
8
  6
HIDDEN
 10
396.4401537928
 20
320.8062504366
 11
402.8901537928
 21
320.8062504366
  0
LINE
  8
DEFAULT_2
 62
8
  6
HIDDEN
 10
413.1901537928
 20
320.8062504366
 11
419.6401537928
 21
320.8062504366
  0
LINE
  8
0
 62
9
  6
CONTINUOUS
 10
396.4401537928
 20
321.6239423257
 11
402.8901537928
 21
321.6239423257
  0
LINE
  8
0
 62
9
  6
CONTINUOUS
 10
413.1901537928
 20
321.6239423257
 11
419.6401537928
 21
321.6239423257
  0
LINE
  8
0
 62
7
  6
CONTINUOUS
 10
396.4401537928
 20
321.7626310493
 11
402.8901537928
 21
321.7626310493
  0
LINE
  8
0
 62
7
  6
CONTINUOUS
 10
413.1901537928
 20
321.7626310493
 11
419.6401537928
 21
321.7626310493
  0
ARC
  8
0
 62
7
  6
CONTINUOUS
 10
116.7503044466
 20
159.8635976861
 40
14.0
 50
255.5358667322
 51
324.2135098004
  0
ARC
  8
0
 62
7
  6
CONTINUOUS
 10
108.8585547817
 20
158.4889142945
 40
10.0
 50
317.5
 51
22.5
  0
ARC
  8
0
 62
7
  6
CONTINUOUS
 10
137.1924334962
 20
130.3165114762
 40
10.0
 50
340.0
 51
45.0
  0
ARC
  8
0
 62
7
  6
CONTINUOUS
 10
129.7295320291
 20
150.5073350047
 40
2.0
 50
351.8698976459
 51
144.2135098004
  0
ARC
  8
0
 62
7
  6
CONTINUOUS
 10
113.5032437231
 20
147.275643259
 40
1.0
 50
137.5
 51
255.5358667322
  0
ARC
  8
0
 62
7
  6
CONTINUOUS
 10
132.2044057632
 20
150.1537816141
 40
0.5
 50
171.8698976458
 51
225.0
  0
ARC
  8
0
 62
7
  6
CONTINUOUS
 10
101.279670519
 20
193.6097265986
 40
14.0
 50
233.0358667322
 51
301.7135098004
  0
ARC
  8
0
 62
7
  6
CONTINUOUS
 10
93.4625759691
 20
195.3597265986
 40
10.0
 50
295.0
 51
360.0
  0
ARC
  8
0
 62
7
  6
CONTINUOUS
 10
132.1927490968
 20
204.8460133394
 40
5.3
 50
46.4306309899
 51
84.714924915
  0
ARC
  8
0
 62
7
  6
CONTINUOUS
 10
133.0493833412
 20
214.1064764904
 40
4.0
 50
98.1463370648
 51
264.714924915
  0
ARC
  8
0
 62
7
  6
CONTINUOUS
 10
102.4625759691
 20
214.913863068
 40
2.0
 50
306.8698976459
 51
99.2135098004
  0
ARC
  8
0
 62
7
  6
CONTINUOUS
 10
109.6904265132
 20
179.9987316458
 40
2.0
 50
329.3698976458
 51
121.7135098004
  0
ARC
  8
0
 62
7
  6
CONTINUOUS
 10
93.4625759691
 20
183.22256949
 40
1.0
 50
115.0
 51
233.0358667322
  0
ARC
  8
0
 62
7
  6
CONTINUOUS
 10
103.9625759691
 20
212.913863068
 40
0.5
 50
126.8698976458
 51
180.0
  0
ARC
  8
0
 62
7
  6
CONTINUOUS
 10
111.8416126767
 20
178.7249977293
 40
0.5
 50
149.3698976458
 51
202.5
  0
ARC
  8
0
 62
7
  6
CONTINUOUS
 10
143.9573909286
 20
134.6065951745
 40
14.0
 50
278.0358667322
 51
346.7135098004
  0
ARC
  8
0
 62
7
  6
CONTINUOUS
 10
178.758897681
 20
121.6838687412
 40
14.0
 50
300.5358667322
 51
9.2135098004
  0
ARC
  8
0
 62
7
  6
CONTINUOUS
 10
174.1506359256
 20
115.1315110895
 40
10.0
 50
2.5
 51
67.5
  0
ARC
  8
0
 62
7
  6
CONTINUOUS
 10
186.1537036299
 20
153.5146719401
 40
5.3
 50
8.1463370648
 51
46.4306309899
  0
ARC
  8
0
 62
7
  6
CONTINUOUS
 10
159.5291203569
 20
130.9294709431
 40
2.0
 50
14.3698976459
 51
166.7135098004
  0
ARC
  8
0
 62
7
  6
CONTINUOUS
 10
145.774699592
 20
121.7342453804
 40
1.0
 50
160.0
 51
278.0358667322
  0
ARC
  8
0
 62
7
  6
CONTINUOUS
 10
185.3639069611
 20
110.486822148
 40
1.0
 50
182.5
 51
300.5358667322
  0
ARC
  8
0
 62
7
  6
CONTINUOUS
 10
161.9509045704
 20
131.5499233772
 40
0.5
 50
194.3698976458
 51
247.5
  0
ARC
  8
0
 62
7
  6
CONTINUOUS
 10
112.823479353
 20
265.5089464471
 40
14.0
 50
188.0358667322
 51
256.7135098004
  0
ARC
  8
0
 62
7
  6
CONTINUOUS
 10
99.9007529196
 20
230.7074396947
 40
14.0
 50
210.5358667322
 51
279.2135098004
  0
ARC
  8
0
 62
7
  6
CONTINUOUS
 10
93.3483952679
 20
235.3157014501
 40
10.0
 50
272.5
 51
337.5
  0
ARC
  8
0
 62
7
  6
CONTINUOUS
 10
131.7315561185
 20
223.3126337458
 40
5.3
 50
278.1463370648
 51
316.4306309899
  0
ARC
  8
0
 62
7
  6
CONTINUOUS
 10
109.1463551215
 20
249.9372170188
 40
2.0
 50
284.3698976458
 51
76.7135098004
  0
ARC
  8
0
 62
7
  6
CONTINUOUS
 10
99.9511295589
 20
263.6916377837
 40
1.0
 50
70.0
 51
188.0358667322
  0
ARC
  8
0
 62
7
  6
CONTINUOUS
 10
88.7037063264
 20
224.1024304146
 40
1.0
 50
92.5
 51
210.5358667322
  0
ARC
  8
0
 62
7
  6
CONTINUOUS
 10
109.7668075556
 20
247.5154328052
 40
0.5
 50
104.3698976458
 51
157.5
  0
ARC
  8
0
 62
7
  6
CONTINUOUS
 10
138.0804818645
 20
292.7160329291
 40
14.0
 50
165.5358667322
 51
234.2135098004
  0
ARC
  8
0
 62
7
  6
CONTINUOUS
 10
108.5333956547
 20
272.2739038795
 40
10.0
 50
250.0
 51
315.0
  0
ARC
  8
0
 62
7
  6
CONTINUOUS
 10
136.7057984729
 20
300.607782594
 40
10.0
 50
227.5
 51
292.5
  0
ARC
  8
0
 62
7
  6
CONTINUOUS
 10
128.7242191831
 20
279.7368053466
 40
2.0
 50
261.8698976458
 51
54.2135098004
  0
ARC
  8
0
 62
7
  6
CONTINUOUS
 10
125.4925274374
 20
295.9630936526
 40
1.0
 50
47.5
 51
165.5358667322
  0
ARC
  8
0
 62
7
  6
CONTINUOUS
 10
128.3706657925
 20
277.2619316125
 40
0.5
 50
81.8698976458
 51
135.0
  0
ARC
  8
0
 62
7
  6
CONTINUOUS
 10
171.8266107771
 20
308.1866668567
 40
14.0
 50
143.0358667322
 51
211.7135098004
  0
ARC
  8
0
 62
7
  6
CONTINUOUS
 10
173.5766107771
 20
316.0037614066
 40
10.0
 50
205.0
 51
270.0
  0
ARC
  8
0
 62
7
  6
CONTINUOUS
 10
183.0628975178
 20
277.2735882789
 40
5.3
 50
316.4306309899
 51
354.714924915
  0
ARC
  8
0
 62
7
  6
CONTINUOUS
 10
192.3233606689
 20
276.4169540345
 40
4.0
 50
8.1463370648
 51
174.714924915
  0
ARC
  8
0
 62
7
  6
CONTINUOUS
 10
193.1307472465
 20
307.0037614066
 40
2.0
 50
216.8698976459
 51
9.2135098004
  0
ARC
  8
0
 62
7
  6
CONTINUOUS
 10
158.2156158242
 20
299.7759108625
 40
2.0
 50
239.3698976458
 51
31.7135098004
  0
ARC
  8
0
 62
7
  6
CONTINUOUS
 10
161.4394536685
 20
316.0037614066
 40
1.0
 50
25.0
 51
143.0358667322
  0
ARC
  8
0
 62
7
  6
CONTINUOUS
 10
191.1307472465
 20
305.5037614066
 40
0.5
 50
36.8698976458
 51
90.0
  0
ARC
  8
0
 62
7
  6
CONTINUOUS
 10
156.9418819078
 20
297.624724699
 40
0.5
 50
59.3698976458
 51
112.5
  0
ARC
  8
0
 62
7
  6
CONTINUOUS
 10
215.8566107771
 20
123.0627863406
 40
14.0
 50
323.0358667322
 51
31.7135098004
  0
ARC
  8
0
 62
7
  6
CONTINUOUS
 10
214.1066107771
 20
115.2456917907
 40
10.0
 50
25.0
 51
90.0
  0
ARC
  8
0
 62
7
  6
CONTINUOUS
 10
204.6203240363
 20
153.9758649184
 40
5.3
 50
136.4306309899
 51
174.714924915
  0
ARC
  8
0
 62
7
  6
CONTINUOUS
 10
195.3598608853
 20
154.8324991628
 40
4.0
 50
188.1463370648
 51
354.714924915
  0
ARC
  8
0
 62
7
  6
CONTINUOUS
 10
194.5524743076
 20
124.2456917907
 40
2.0
 50
36.8698976458
 51
189.2135098004
  0
ARC
  8
0
 62
7
  6
CONTINUOUS
 10
229.4676057299
 20
131.4735423348
 40
2.0
 50
59.3698976458
 51
211.7135098004
  0
ARC
  8
0
 62
7
  6
CONTINUOUS
 10
226.2437678856
 20
115.2456917907
 40
1.0
 50
205.0
 51
323.0358667322
  0
ARC
  8
0
 62
7
  6
CONTINUOUS
 10
196.5524743076
 20
125.7456917907
 40
0.5
 50
216.8698976458
 51
270.0
  0
ARC
  8
0
 62
7
  6
CONTINUOUS
 10
230.7413396464
 20
133.6247284983
 40
0.5
 50
239.3698976458
 51
292.5
  0
ARC
  8
0
 62
7
  6
CONTINUOUS
 10
249.6027396896
 20
138.5334202682
 40
14.0
 50
345.5358667322
 51
54.2135098004
  0
ARC
  8
0
 62
7
  6
CONTINUOUS
 10
250.9774230812
 20
130.6416706032
 40
10.0
 50
47.5
 51
112.5
  0
ARC
  8
0
 62
7
  6
CONTINUOUS
 10
279.1498258995
 20
158.9755493177
 40
10.0
 50
70.0
 51
135.0
  0
ARC
  8
0
 62
7
  6
CONTINUOUS
 10
258.959002371
 20
151.5126478506
 40
2.0
 50
81.8698976459
 51
234.2135098004
  0
ARC
  8
0
 62
7
  6
CONTINUOUS
 10
262.1906941167
 20
135.2863595447
 40
1.0
 50
227.5
 51
345.5358667322
  0
ARC
  8
0
 62
7
  6
CONTINUOUS
 10
259.3125557616
 20
153.9875215848
 40
0.5
 50
261.8698976458
 51
315.0
  0
ARC
  8
0
 62
7
  6
CONTINUOUS
 10
274.8597422011
 20
165.7405067502
 40
14.0
 50
8.0358667322
 51
76.7135098004
  0
ARC
  8
0
 62
7
  6
CONTINUOUS
 10
287.7824686345
 20
200.5420135025
 40
14.0
 50
30.5358667322
 51
99.2135098004
  0
ARC
  8
0
 62
7
  6
CONTINUOUS
 10
294.3348262862
 20
195.9337517472
 40
10.0
 50
92.5
 51
157.5
  0
ARC
  8
0
 62
7
  6
CONTINUOUS
 10
255.9516654356
 20
207.9368194514
 40
5.3
 50
98.1463370648
 51
136.4306309899
  0
ARC
  8
0
 62
7
  6
CONTINUOUS
 10
278.5368664326
 20
181.3122361784
 40
2.0
 50
104.3698976458
 51
256.7135098004
  0
ARC
  8
0
 62
7
  6
CONTINUOUS
 10
287.7320919953
 20
167.5578154135
 40
1.0
 50
250.0
 51
8.0358667322
  0
ARC
  8
0
 62
7
  6
CONTINUOUS
 10
298.9795152277
 20
207.1470227827
 40
1.0
 50
272.5
 51
30.5358667322
  0
ARC
  8
0
 62
7
  6
CONTINUOUS
 10
277.9164139985
 20
183.734020392
 40
0.5
 50
284.3698976459
 51
337.5
  0
ARC
  8
DEFAULT_2
 62
8
  6
HIDDEN
 10
193.8416107771
 20
215.6247265986
 40
106.4791468218
 50
85.3965062961
 51
85.408004951
  0
ARC
  8
0
 62
40
  6
CONTINUOUS
 10
193.8416107771
 20
215.6247265986
 40
106.4791468218
 50
78.3401967803
 51
85.3965062961
  0
ARC
  8
0
 62
40
  6
CONTINUOUS
 10
193.8416107771
 20
215.6247265986
 40
106.4791468218
 50
85.408004951
 51
90.0
  0
ARC
  8
PITCH_DIAMETER
 62
8
  6
HIDDEN
 10
193.8416107771
 20
215.6247265986
 40
103.874963097
 50
197.2223214439
 51
199.674219043
  0
ARC
  8
PITCH_DIAMETER
 62
8
  6
HIDDEN
 10
193.8416107771
 20
215.6247265986
 40
103.874963097
 50
219.7215344588
 51
222.178264057
  0
ARC
  8
PITCH_DIAMETER
 62
8
  6
HIDDEN
 10
193.8416107771
 20
215.6247265986
 40
103.874963097
 50
242.2227404794
 51
244.6689721566
  0
ARC
  8
PITCH_DIAMETER
 62
8
  6
HIDDEN
 10
193.8416107771
 20
215.6247265986
 40
103.874963097
 50
264.7218658423
 51
267.177114276
  0
ARC
  8
PITCH_DIAMETER
 62
8
  6
HIDDEN
 10
193.8416107771
 20
215.6247265986
 40
103.874963097
 50
287.2216924163
 51
289.6765975198
  0
ARC
  8
PITCH_DIAMETER
 62
8
  6
HIDDEN
 10
193.8416107771
 20
215.6247265986
 40
103.874963097
 50
309.7229479282
 51
312.1697227394
  0
ARC
  8
PITCH_DIAMETER
 62
8
  6
HIDDEN
 10
193.8416107771
 20
215.6247265986
 40
103.874963097
 50
332.2215979013
 51
334.6784493081
  0
ARC
  8
PITCH_DIAMETER
 62
8
  6
HIDDEN
 10
193.8416107771
 20
215.6247265986
 40
103.874963097
 50
354.7220887429
 51
357.1734878041
  0
ARC
  8
PITCH_DIAMETER
 62
8
  6
HIDDEN
 10
193.8416107771
 20
215.6247265986
 40
103.874963097
 50
17.2223214439
 51
19.674219043
  0
ARC
  8
PITCH_DIAMETER
 62
8
  6
HIDDEN
 10
193.8416107771
 20
215.6247265986
 40
103.874963097
 50
39.7215344588
 51
42.178264057
  0
ARC
  8
PITCH_DIAMETER
 62
8
  6
HIDDEN
 10
193.8416107771
 20
215.6247265986
 40
103.874963097
 50
62.2227404794
 51
64.6689721566
  0
ARC
  8
PITCH_DIAMETER
 62
8
  6
HIDDEN
 10
193.8416107771
 20
215.6247265986
 40
103.874963097
 50
84.7218658423
 51
87.177114276
  0
ARC
  8
PITCH_DIAMETER
 62
8
  6
HIDDEN
 10
193.8416107771
 20
215.6247265986
 40
103.874963097
 50
107.2216924163
 51
109.6765975198
  0
ARC
  8
PITCH_DIAMETER
 62
8
  6
HIDDEN
 10
193.8416107771
 20
215.6247265986
 40
103.874963097
 50
129.7229479282
 51
132.1697227394
  0
ARC
  8
PITCH_DIAMETER
 62
8
  6
HIDDEN
 10
193.8416107771
 20
215.6247265986
 40
103.874963097
 50
152.2215979013
 51
154.6784493081
  0
ARC
  8
PITCH_DIAMETER
 62
8
  6
HIDDEN
 10
193.8416107771
 20
215.6247265986
 40
103.874963097
 50
174.7220887429
 51
177.1734878041
  0
ARC
  8
PITCH_DIAMETER
 62
40
  6
CONTINUOUS
 10
193.8416107771
 20
215.6247265986
 40
103.874963097
 50
199.674219043
 51
219.7215344588
  0
ARC
  8
PITCH_DIAMETER
 62
40
  6
CONTINUOUS
 10
193.8416107771
 20
215.6247265986
 40
103.874963097
 50
222.178264057
 51
242.2227404794
  0
ARC
  8
PITCH_DIAMETER
 62
40
  6
CONTINUOUS
 10
193.8416107771
 20
215.6247265986
 40
103.874963097
 50
244.6689721566
 51
264.7218658423
  0
ARC
  8
PITCH_DIAMETER
 62
40
  6
CONTINUOUS
 10
193.8416107771
 20
215.6247265986
 40
103.874963097
 50
267.177114276
 51
287.2216924163
  0
ARC
  8
PITCH_DIAMETER
 62
40
  6
CONTINUOUS
 10
193.8416107771
 20
215.6247265986
 40
103.874963097
 50
289.6765975198
 51
309.7229479282
  0
ARC
  8
PITCH_DIAMETER
 62
40
  6
CONTINUOUS
 10
193.8416107771
 20
215.6247265986
 40
103.874963097
 50
312.1697227394
 51
332.2215979013
  0
ARC
  8
PITCH_DIAMETER
 62
40
  6
CONTINUOUS
 10
193.8416107771
 20
215.6247265986
 40
103.874963097
 50
334.6784493081
 51
354.7220887429
  0
ARC
  8
PITCH_DIAMETER
 62
40
  6
CONTINUOUS
 10
193.8416107771
 20
215.6247265986
 40
103.874963097
 50
357.1734878041
 51
17.2223214439
  0
ARC
  8
PITCH_DIAMETER
 62
40
  6
CONTINUOUS
 10
193.8416107771
 20
215.6247265986
 40
103.874963097
 50
19.674219043
 51
39.7215344588
  0
ARC
  8
PITCH_DIAMETER
 62
40
  6
CONTINUOUS
 10
193.8416107771
 20
215.6247265986
 40
103.874963097
 50
42.178264057
 51
62.2227404794
  0
ARC
  8
PITCH_DIAMETER
 62
40
  6
CONTINUOUS
 10
193.8416107771
 20
215.6247265986
 40
103.874963097
 50
64.6689721566
 51
84.7218658423
  0
ARC
  8
PITCH_DIAMETER
 62
40
  6
CONTINUOUS
 10
193.8416107771
 20
215.6247265986
 40
103.874963097
 50
87.177114276
 51
107.2216924163
  0
ARC
  8
PITCH_DIAMETER
 62
40
  6
CONTINUOUS
 10
193.8416107771
 20
215.6247265986
 40
103.874963097
 50
109.6765975198
 51
129.7229479282
  0
ARC
  8
PITCH_DIAMETER
 62
40
  6
CONTINUOUS
 10
193.8416107771
 20
215.6247265986
 40
103.874963097
 50
132.1697227394
 51
152.2215979013
  0
ARC
  8
PITCH_DIAMETER
 62
40
  6
CONTINUOUS
 10
193.8416107771
 20
215.6247265986
 40
103.874963097
 50
154.6784493081
 51
174.7220887429
  0
ARC
  8
PITCH_DIAMETER
 62
40
  6
CONTINUOUS
 10
193.8416107771
 20
215.6247265986
 40
103.874963097
 50
177.1734878041
 51
197.2223214439
  0
ARC
  8
DEFAULT_2
 62
8
  6
HIDDEN
 10
193.8416107771
 20
215.6247265986
 40
90.3790348079
 50
71.4848166431
 51
89.3657481246
  0
ARC
  8
DEFAULT_2
 62
8
  6
HIDDEN
 10
193.8416107771
 20
215.6247265986
 40
90.3790348079
 50
91.6032608227
 51
95.0680873614
  0
ARC
  8
DEFAULT_2
 62
8
  6
HIDDEN
 10
193.8416107771
 20
215.6247265986
 40
90.3790348079
 50
181.5862027409
 51
201.8673623935
  0
ARC
  8
DEFAULT_2
 62
8
  6
HIDDEN
 10
193.8416107771
 20
215.6247265986
 40
90.3790348079
 50
204.1034521733
 51
224.3716744974
  0
ARC
  8
DEFAULT_2
 62
8
  6
HIDDEN
 10
193.8416107771
 20
215.6247265986
 40
90.3790348079
 50
226.5846075254
 51
246.8678334169
  0
ARC
  8
DEFAULT_2
 62
8
  6
HIDDEN
 10
193.8416107771
 20
215.6247265986
 40
90.3790348079
 50
249.0915532647
 51
269.3697470636
  0
ARC
  8
DEFAULT_2
 62
8
  6
HIDDEN
 10
193.8416107771
 20
215.6247265986
 40
90.3790348079
 50
271.594467864
 51
291.8712673063
  0
ARC
  8
DEFAULT_2
 62
8
  6
HIDDEN
 10
193.8416107771
 20
215.6247265986
 40
90.3790348079
 50
294.0839228423
 51
314.3648545642
  0
ARC
  8
DEFAULT_2
 62
8
  6
HIDDEN
 10
193.8416107771
 20
215.6247265986
 40
90.3790348079
 50
316.6000850222
 51
336.8711760269
  0
ARC
  8
DEFAULT_2
 62
8
  6
HIDDEN
 10
193.8416107771
 20
215.6247265986
 40
90.3790348079
 50
339.088155072
 51
359.3699789134
  0
ARC
  8
0
 62
40
  6
CONTINUOUS
 10
193.8416107771
 20
215.6247265986
 40
90.3790348079
 50
89.3657481246
 51
91.6032608227
  0
ARC
  8
0
 62
40
  6
CONTINUOUS
 10
193.8416107771
 20
215.6247265986
 40
90.3790348079
 50
180.0
 51
181.5862027409
  0
ARC
  8
0
 62
40
  6
CONTINUOUS
 10
193.8416107771
 20
215.6247265986
 40
90.3790348079
 50
201.8673623935
 51
204.1034521733
  0
ARC
  8
0
 62
40
  6
CONTINUOUS
 10
193.8416107771
 20
215.6247265986
 40
90.3790348079
 50
224.3716744974
 51
226.5846075254
  0
ARC
  8
0
 62
40
  6
CONTINUOUS
 10
193.8416107771
 20
215.6247265986
 40
90.3790348079
 50
246.8678334169
 51
249.0915532647
  0
ARC
  8
0
 62
40
  6
CONTINUOUS
 10
193.8416107771
 20
215.6247265986
 40
90.3790348079
 50
269.3697470636
 51
271.594467864
  0
ARC
  8
0
 62
40
  6
CONTINUOUS
 10
193.8416107771
 20
215.6247265986
 40
90.3790348079
 50
291.8712673063
 51
294.0839228423
  0
ARC
  8
0
 62
40
  6
CONTINUOUS
 10
193.8416107771
 20
215.6247265986
 40
90.3790348079
 50
314.3648545642
 51
316.6000850222
  0
ARC
  8
0
 62
40
  6
CONTINUOUS
 10
193.8416107771
 20
215.6247265986
 40
90.3790348079
 50
336.8711760269
 51
339.088155072
  0
ARC
  8
0
 62
40
  6
CONTINUOUS
 10
193.8416107771
 20
215.6247265986
 40
90.3790348079
 50
359.3699789134
 51
360.0
  0
CIRCLE
  8
0
 62
7
  6
CONTINUOUS
 10
193.8416107771
 20
215.6247265986
 40
87.9040348079
  0
CIRCLE
  8
0
 62
9
  6
CONTINUOUS
 10
193.8416107771
 20
215.6247265986
 40
85.9040348079
  0
ARC
  8
0
 62
7
  6
CONTINUOUS
 10
243.7258306255
 20
296.6428580227
 40
14.0
 50
98.0358667322
 51
166.7135098004
  0
ARC
  8
0
 62
7
  6
CONTINUOUS
 10
208.9243238732
 20
309.5655844561
 40
14.0
 50
120.5358667322
 51
189.2135098004
  0
ARC
  8
0
 62
7
  6
CONTINUOUS
 10
213.5325856285
 20
316.1179421078
 40
10.0
 50
182.5
 51
247.5
  0
ARC
  8
0
 62
7
  6
CONTINUOUS
 10
201.5295179243
 20
277.7347812572
 40
5.3
 50
188.1463370648
 51
226.4306309899
  0
ARC
  8
0
 62
7
  6
CONTINUOUS
 10
228.1541011972
 20
300.3199822541
 40
2.0
 50
194.3698976458
 51
346.7135098004
  0
ARC
  8
0
 62
7
  6
CONTINUOUS
 10
241.9085219622
 20
309.5152078168
 40
1.0
 50
340.0
 51
98.0358667322
  0
ARC
  8
0
 62
7
  6
CONTINUOUS
 10
202.319314593
 20
320.7626310493
 40
1.0
 50
2.5
 51
120.5358667322
  0
ARC
  8
0
 62
7
  6
CONTINUOUS
 10
225.7323169837
 20
299.6995298201
 40
0.5
 50
14.3698976459
 51
67.5
  0
ARC
  8
0
 62
7
  6
CONTINUOUS
 10
286.4035510351
 20
237.6397265986
 40
14.0
 50
53.0358667322
 51
121.7135098004
  0
ARC
  8
0
 62
7
  6
CONTINUOUS
 10
294.220645585
 20
235.8897265986
 40
10.0
 50
115.0
 51
180.0
  0
ARC
  8
0
 62
7
  6
CONTINUOUS
 10
255.4904724573
 20
226.4034398578
 40
5.3
 50
226.4306309899
 51
264.714924915
  0
ARC
  8
0
 62
7
  6
CONTINUOUS
 10
254.6338382129
 20
217.1429767068
 40
4.0
 50
278.1463370648
 51
84.714924915
  0
ARC
  8
0
 62
7
  6
CONTINUOUS
 10
285.220645585
 20
216.3355901292
 40
2.0
 50
126.8698976458
 51
279.2135098004
  0
ARC
  8
0
 62
7
  6
CONTINUOUS
 10
277.9927950409
 20
251.2507215515
 40
2.0
 50
149.3698976458
 51
301.7135098004
  0
ARC
  8
0
 62
7
  6
CONTINUOUS
 10
294.220645585
 20
248.0268837072
 40
1.0
 50
295.0
 51
53.0358667322
  0
ARC
  8
0
 62
7
  6
CONTINUOUS
 10
283.720645585
 20
218.3355901292
 40
0.5
 50
306.8698976458
 51
360.0
  0
ARC
  8
0
 62
7
  6
CONTINUOUS
 10
275.8416088774
 20
252.5244554679
 40
0.5
 50
329.3698976458
 51
22.5
  0
ARC
  8
0
 62
7
  6
CONTINUOUS
 10
270.9329171075
 20
271.3858555112
 40
14.0
 50
75.5358667322
 51
144.2135098004
  0
ARC
  8
0
 62
7
  6
CONTINUOUS
 10
278.8246667725
 20
272.7605389028
 40
10.0
 50
137.5
 51
202.5
  0
ARC
  8
0
 62
7
  6
CONTINUOUS
 10
250.490788058
 20
300.932941721
 40
10.0
 50
160.0
 51
225.0
  0
ARC
  8
0
 62
7
  6
CONTINUOUS
 10
257.9536895251
 20
280.7421181926
 40
2.0
 50
171.8698976459
 51
324.2135098004
  0
ARC
  8
0
 62
7
  6
CONTINUOUS
 10
274.179977831
 20
283.9738099383
 40
1.0
 50
317.5
 51
75.5358667322
  0
ARC
  8
0
 62
7
  6
CONTINUOUS
 10
255.4788157909
 20
281.0956715832
 40
0.5
 50
351.8698976458
 51
45.0
  0
ARC
  8
0
 62
7
  6
CONTINUOUS
 10
393.4401537928
 20
301.5287614066
 40
2.0
 50
90.0
 51
180.0
  0
ARC
  8
0
 62
7
  6
CONTINUOUS
 10
393.4401537928
 20
129.7206917907
 40
2.0
 50
180.0
 51
270.0
  0
ARC
  8
0
 62
7
  6
CONTINUOUS
 10
422.6401537928
 20
301.5287614066
 40
2.0
 50
0.0
 51
90.0
  0
ARC
  8
0
 62
7
  6
CONTINUOUS
 10
422.6401537928
 20
129.7206917907
 40
2.0
 50
270.0
 51
360.0
  0
ENDSEC
  0
EOF
