  0
SECTION
  2
HEADER
  9
$EXTMAX
 10
594.0
 20
420.0
 30
0.0
  9
$EXTMIN
 10
0.0
 20
0.0
 30
0.0
  9
$LIMMIN
 10
0.0
 20
0.0
  9
$LIMMAX
 10
594.0
 20
420.0
  9
$VIEWCTR
 10
297.0
 20
210.0
  9
$VIEWSIZE
 40
420.0
  9
$CLAYER
  8
0
  9
$LTSCALE
 40
32.67
  9
$CELTYPE
  6
BYLAYER
  9
$DIMSCALE
 40
1.0
  9
$DIMASZ
 40
3.5
  9
$DIMEXO
 40
1.0
  9
$DIMDLI
 40
22.572
  9
$DIMEXE
 40
2.0
  9
$DIMCEN
 40
5.346
  9
$DIMLFAC
 40
1.0
  9
$DIMBLK
  1
_FILLED
  9
$DIMALT
 70
0
  9
$DIMALTF
 40
0.0393700787
  9
$DIMTXT
 40
3.5
  9
$AUNITS
 70
0
  9
$PDMODE
 70
3
  9
$PDSIZE
 40
0.3125
  9
$TILEMODE
 70
1
  0
ENDSEC
  0
SECTION
  2
TABLES
  0
TABLE
  2
LTYPE
 70
6
  0
LTYPE
  2
BYBLOCK
 70
0
  3

 72
65
 73
0
 40
0.0
  0
LTYPE
  2
BYLAYER
 70
0
  3

 72
65
 73
0
 40
0.0
  0
LTYPE
  2
CONTINUOUS
 70
64
  3
Solid line
 72
65
 73
0
 40
0.0
  0
LTYPE
  2
CENTER
 70
64
  3
____ _ ____ _ ____ _ ____ _ ____ _ ____ _ ____
 72
65
 73
4
 40
0.6
 49
0.375
 49
-0.075
 49
0.075
 49
-0.075
  0
LTYPE
  2
HIDDEN
 70
64
  3
- - - - - - - - - - - - - - - - - - - -
 72
65
 73
2
 40
0.2
 49
0.1
 49
-0.1
  0
LTYPE
  2
PHANTOM
 70
64
  3
_____ _ _ _____ _ _ _____ _ _ _____
 72
65
 73
6
 40
0.8
 49
0.45
 49
-0.05
 49
0.1
 49
-0.05
 49
0.1
 49
-0.05
  0
LTYPE
  2
DOT
 70
64
  3
. . . . . . . . . . . . . . . . . . . .
 72
65
 73
2
 40
0.2
 49
0.1
 49
-0.1
  0
LTYPE
  2
DASHED
 70
64
  3
- - - - - - - - - - - - - - - - - - - -
 72
65
 73
2
 40
0.2
 49
0.1
 49
-0.1
  0
ENDTAB
  0
TABLE
  2
LAYER
 70
36
  0
LAYER
  2
0
 70
0
 62
7
  6
CONTINUOUS
  0
LAYER
  2
DEFAULT_1
 70
0
 62
7
  6
CENTER
  0
LAYER
  2
DEFAULT_2
 70
0
 62
8
  6
HIDDEN
  0
LAYER
  2
DEFAULT_3
 70
0
 62
7
  6
PHANTOM
  0
LAYER
  2
1_CSYS
 70
0
 62
7
  6
CONTINUOUS
  0
LAYER
  2
1_DATUM_PLANE
 70
0
 62
7
  6
CONTINUOUS
  0
LAYER
  2
2_FEATURE
 70
0
 62
7
  6
CONTINUOUS
  0
LAYER
  2
6_DIM
 70
0
 62
7
  6
CONTINUOUS
  0
LAYER
  2
AXES
 70
0
 62
7
  6
CONTINUOUS
  0
LAYER
  2
BLANK_CURVE
 70
0
 62
7
  6
CONTINUOUS
  0
LAYER
  2
CSYS
 70
0
 62
7
  6
CONTINUOUS
  0
LAYER
  2
NOTES
 70
0
 62
7
  6
CONTINUOUS
  0
LAYER
  2
PITCH_DIAMETER
 70
0
 62
7
  6
CONTINUOUS
  0
LAYER
  2
PITCH_LINE
 70
0
 62
7
  6
CONTINUOUS
  0
LAYER
  2
PLANES
 70
0
 62
7
  6
CONTINUOUS
  0
LAYER
  2
QUILTS
 70
0
 62
7
  6
CONTINUOUS
  0
ENDTAB
  0
TABLE
  2
STYLE
 70
1
  0
STYLE
  2
STANDARD
 70
0
 40
0.0
 41
0.8
 50
0.0
 71
0
 42
0.2
  3
txt
  4

  0
STYLE
  2
TEXTSTYLE_1
 70
0
 40
0.0
 41
0.8
 50
0.0
 71
0
 42
0.2
  3
gdt
  4

  0
STYLE
  2
TEXTSTYLE_2
 70
0
 40
0.0
 41
0.6
 50
0.0
 71
0
 42
0.2
  3
txt
  4

  0
STYLE
  2
TEXTSTYLE_3
 70
0
 40
0.0
 41
1.0
 50
0.0
 71
0
 42
0.2
  3
ftb_____.ttf
  4

  0
STYLE
  2
TEXTSTYLE_4
 70
0
 40
0.0
 41
1.0
 50
0.0
 71
0
 42
0.2
  3
fti_____.ttf
  4

  0
STYLE
  2
TEXTSTYLE_5
 70
0
 40
0.0
 41
1.0
 50
0.0
 71
0
 42
0.2
  3
frutiger light.ttf
  4

  0
STYLE
  2
TEXTSTYLE_6
 70
0
 40
0.0
 41
0.7
 50
0.0
 71
0
 42
0.2
  3
txt
  4

  0
STYLE
  2
TEXTSTYLE_7
 70
0
 40
0.0
 41
0.6
 50
0.0
 71
0
 42
0.2
  3
txt
  4

  0
ENDTAB
  0
ENDSEC
  0
SECTION
  2
BLOCKS
  0
BLOCK
  8
0
 62
2
  6
CONTINUOUS
  2
UNI_LOGO2_BL1
 70
64
 10
557.4079930916
 20
35.8092573885
  0
TEXT
  8
0
 62
7
  6
CONTINUOUS
 10
548.4662781001
 20
30.9020137655
  7
TEXTSTYLE_4
 40
1.0655737705
  1
The brand for plastic modular belts and chains
 41
1.0
 72
0
  0
LINE
  8
0
 62
7
  6
CONTINUOUS
 10
533.3860614807
 20
36.3830278803
 11
533.3860614807
 21
34.2518803393
  0
LINE
  8
0
 62
7
  6
CONTINUOUS
 10
533.6751239738
 20
31.2609490436
 11
533.6751239738
 21
31.3577401029
  0
LINE
  8
0
 62
7
  6
CONTINUOUS
 10
533.3860614807
 20
31.3254764164
 11
533.4438739824
 21
31.1318942979
  0
LINE
  8
0
 62
7
  6
CONTINUOUS
 10
534.7795041036
 20
34.1699131262
 11
534.7795041036
 21
36.3830278803
  0
LINE
  8
0
 62
7
  6
CONTINUOUS
 10
535.6985614255
 20
32.3256508311
 11
535.6985614255
 21
30.8092573885
  0
LINE
  8
0
 62
7
  6
CONTINUOUS
 10
535.9876239807
 20
30.8092573885
 11
535.9876239807
 21
31.5513222666
  0
LINE
  8
0
 62
7
  6
CONTINUOUS
 10
535.9876239807
 20
31.6803770123
 11
535.9876239807
 21
32.3256508311
  0
LINE
  8
0
 62
7
  6
CONTINUOUS
 10
533.4438739824
 20
31.5190585802
 11
533.3860614807
 21
31.3254764164
  0
LINE
  8
0
 62
7
  6
CONTINUOUS
 10
533.7907489669
 20
31.0996306115
 11
533.6751239738
 21
31.2609490436
  0
LINE
  8
0
 62
7
  6
CONTINUOUS
 10
534.8891865358
 20
31.6158496394
 11
534.9469989807
 21
31.5190585802
  0
LINE
  8
0
 62
7
  6
CONTINUOUS
 10
535.2360615358
 20
31.5190585802
 11
535.1782489255
 21
31.6481133259
  0
LINE
  8
0
 62
7
  6
CONTINUOUS
 10
536.6647500053
 20
36.3830278803
 11
536.6647500053
 21
34.5797491918
  0
LINE
  8
0
 62
7
  6
CONTINUOUS
 10
536.6647500053
 20
33.2682737819
 11
536.6647500053
 21
32.612536077
  0
LINE
  8
0
 62
7
  6
CONTINUOUS
 10
537.0282489807
 20
31.4545312073
 11
537.0282489807
 21
30.8092573885
  0
LINE
  8
0
 62
7
  6
CONTINUOUS
 10
537.3173113704
 20
30.8092573885
 11
537.3173113704
 21
31.4545312073
  0
LINE
  8
0
 62
7
  6
CONTINUOUS
 10
533.6751239738
 20
31.3577401029
 11
533.7329364807
 21
31.4867948937
  0
LINE
  8
0
 62
7
  6
CONTINUOUS
 10
533.4438739824
 20
31.1318942979
 11
533.5594989807
 21
31.0028395296
  0
LINE
  8
0
 62
7
  6
CONTINUOUS
 10
536.9704363704
 20
31.583585953
 11
537.0282489807
 21
31.4545312073
  0
LINE
  8
0
 62
7
  6
CONTINUOUS
 10
537.7798115909
 20
31.0996306115
 11
537.8376238704
 21
30.9705758432
  0
LINE
  8
0
 62
7
  6
CONTINUOUS
 10
537.3173113704
 20
31.4545312073
 11
537.2594990909
 21
31.6158496394
  0
LINE
  8
0
 62
7
  6
CONTINUOUS
 10
537.7798115909
 20
31.6481133259
 11
537.7798115909
 21
31.583585953
  0
LINE
  8
0
 62
7
  6
CONTINUOUS
 10
537.7798115909
 20
31.1964216708
 11
537.7798115909
 21
31.0996306115
  0
LINE
  8
0
 62
7
  6
CONTINUOUS
 10
538.0581926282
 20
32.612536077
 11
538.0581926282
 21
36.3830278803
  0
LINE
  8
0
 62
7
  6
CONTINUOUS
 10
538.0688739807
 20
31.0673669025
 11
538.0688739807
 21
31.1318942979
  0
LINE
  8
0
 62
7
  6
CONTINUOUS
 10
538.3860614807
 20
36.3830278803
 11
538.3860614807
 21
32.612536077
  0
LINE
  8
0
 62
7
  6
CONTINUOUS
 10
535.1782489255
 20
31.0028395296
 11
535.2360615358
 21
31.1318942979
  0
LINE
  8
0
 62
7
  6
CONTINUOUS
 10
539.5719992012
 20
30.9060484591
 11
539.5141862601
 21
31.0673669025
  0
LINE
  8
0
 62
7
  6
CONTINUOUS
 10
539.2251242012
 20
31.583585953
 11
539.2251242012
 21
31.4867948937
  0
LINE
  8
0
 62
7
  6
CONTINUOUS
 10
539.2251242012
 20
31.3577401029
 11
539.2251242012
 21
31.1641579843
  0
LINE
  8
0
 62
7
  6
CONTINUOUS
 10
539.5141862601
 20
31.0673669025
 11
539.5141862601
 21
31.583585953
  0
LINE
  8
0
 62
7
  6
CONTINUOUS
 10
539.7795041036
 20
32.612536077
 11
539.7795041036
 21
34.4158147655
  0
LINE
  8
0
 62
7
  6
CONTINUOUS
 10
539.7795041036
 20
35.7272901754
 11
539.7795041036
 21
36.3830278803
  0
LINE
  8
0
 62
7
  6
CONTINUOUS
 10
540.0923117012
 20
32.3256508311
 11
540.0923117012
 21
32.164332399
  0
LINE
  8
0
 62
7
  6
CONTINUOUS
 10
540.0923117012
 20
31.8416954444
 11
540.0923117012
 21
30.8092573885
  0
LINE
  8
0
 62
7
  6
CONTINUOUS
 10
540.3813737601
 20
30.8092573885
 11
540.3813737601
 21
31.8416954444
  0
LINE
  8
0
 62
7
  6
CONTINUOUS
 10
540.3813737601
 20
32.164332399
 11
540.3813737601
 21
32.3256508311
  0
LINE
  8
0
 62
7
  6
CONTINUOUS
 10
534.9469989807
 20
31.1318942979
 11
534.8891865358
 21
31.035103216
  0
LINE
  8
0
 62
7
  6
CONTINUOUS
 10
537.2594990909
 20
31.6158496394
 11
537.2016864807
 21
31.6803770123
  0
LINE
  8
0
 62
7
  6
CONTINUOUS
 10
538.1266865909
 20
31.0028395296
 11
538.0688739807
 21
31.0673669025
  0
LINE
  8
0
 62
7
  6
CONTINUOUS
 10
539.2829364807
 20
30.873784767
 11
539.3407487601
 21
30.8092573885
  0
LINE
  8
0
 62
7
  6
CONTINUOUS
 10
539.2251242012
 20
30.9705758432
 11
539.2829364807
 21
30.873784767
  0
LINE
  8
0
 62
7
  6
CONTINUOUS
 10
539.6298114807
 20
30.8092573885
 11
539.5719992012
 21
30.9060484591
  0
LINE
  8
0
 62
7
  6
CONTINUOUS
 10
539.5141862601
 20
31.583585953
 11
539.4563739807
 21
31.6803770123
  0
LINE
  8
0
 62
7
  6
CONTINUOUS
 10
540.8438739807
 20
31.8416954444
 11
540.8438739807
 21
30.8092573885
  0
LINE
  8
0
 62
7
  6
CONTINUOUS
 10
541.1329367012
 20
30.8092573885
 11
541.1329367012
 21
31.5513222666
  0
LINE
  8
0
 62
7
  6
CONTINUOUS
 10
541.1329367012
 20
31.6803770123
 11
541.1329367012
 21
31.8416954444
  0
LINE
  8
0
 62
7
  6
CONTINUOUS
 10
541.6647500053
 20
34.8256508311
 11
541.6647500053
 21
32.612536077
  0
LINE
  8
0
 62
7
  6
CONTINUOUS
 10
533.5594989807
 20
31.6481133259
 11
533.4438739824
 21
31.5190585802
  0
LINE
  8
0
 62
7
  6
CONTINUOUS
 10
533.7329364807
 20
31.4867948937
 11
533.7907489669
 21
31.5513222666
  0
LINE
  8
0
 62
7
  6
CONTINUOUS
 10
533.5594989807
 20
31.0028395296
 11
533.6751239738
 21
30.9383121455
  0
LINE
  8
0
 62
7
  6
CONTINUOUS
 10
533.9641864669
 20
31.0028395296
 11
533.7907489669
 21
31.0996306115
  0
LINE
  8
0
 62
7
  6
CONTINUOUS
 10
539.1673112601
 20
31.6481133259
 11
539.2251242012
 21
31.583585953
  0
LINE
  8
0
 62
7
  6
CONTINUOUS
 10
542.1157487601
 20
31.583585953
 11
542.1735617012
 21
31.4222675209
  0
LINE
  8
0
 62
7
  6
CONTINUOUS
 10
542.4626237601
 20
31.4222675209
 11
542.4048114807
 21
31.583585953
  0
LINE
  8
0
 62
7
  6
CONTINUOUS
 10
542.1735617012
 20
31.4222675209
 11
542.1735617012
 21
30.8092573885
  0
LINE
  8
0
 62
7
  6
CONTINUOUS
 10
542.4626237601
 20
30.8092573885
 11
542.4626237601
 21
31.4222675209
  0
LINE
  8
0
 62
7
  6
CONTINUOUS
 10
542.9251239807
 20
31.6481133259
 11
542.9251239807
 21
31.583585953
  0
LINE
  8
0
 62
7
  6
CONTINUOUS
 10
543.0581926282
 20
32.612536077
 11
543.0581926282
 21
34.743683618
  0
LINE
  8
0
 62
7
  6
CONTINUOUS
 10
543.3860614807
 20
36.3830278803
 11
543.3860614807
 21
32.612536077
  0
LINE
  8
0
 62
7
  6
CONTINUOUS
 10
538.0688739807
 20
31.1318942979
 11
538.1266865909
 21
31.2286853572
  0
LINE
  8
0
 62
7
  6
CONTINUOUS
 10
533.6751239738
 20
30.9383121455
 11
533.8485614944
 21
30.873784767
  0
LINE
  8
0
 62
7
  6
CONTINUOUS
 10
535.1782489255
 20
31.6481133259
 11
535.0048114255
 21
31.7449043851
  0
LINE
  8
0
 62
7
  6
CONTINUOUS
 10
537.8376238704
 20
30.9705758432
 11
538.0110613704
 21
30.873784767
  0
LINE
  8
0
 62
7
  6
CONTINUOUS
 10
536.8548114807
 20
31.6481133259
 11
536.9704363704
 21
31.583585953
  0
LINE
  8
0
 62
7
  6
CONTINUOUS
 10
537.2016864807
 20
31.6803770123
 11
537.0860615909
 21
31.7449043851
  0
LINE
  8
0
 62
7
  6
CONTINUOUS
 10
542.9251239807
 20
31.0673669025
 11
543.0407492012
 21
30.9383121455
  0
LINE
  8
0
 62
7
  6
CONTINUOUS
 10
543.2719989807
 20
31.0028395296
 11
543.2141867012
 21
31.0673669025
  0
LINE
  8
0
 62
7
  6
CONTINUOUS
 10
542.9251239807
 20
31.583585953
 11
543.0407492012
 21
31.4545312073
  0
LINE
  8
0
 62
7
  6
CONTINUOUS
 10
542.4048114807
 20
31.583585953
 11
542.3469992012
 21
31.6803770123
  0
LINE
  8
0
 62
7
  6
CONTINUOUS
 10
544.7751235396
 20
31.0028395296
 11
544.7751235396
 21
31.0673669025
  0
LINE
  8
0
 62
7
  6
CONTINUOUS
 10
544.7795041036
 20
32.612536077
 11
544.7795041036
 21
36.3830278803
  0
LINE
  8
0
 62
7
  6
CONTINUOUS
 10
537.8376238704
 20
31.7126406987
 11
537.7798115909
 21
31.6481133259
  0
LINE
  8
0
 62
7
  6
CONTINUOUS
 10
534.7157489531
 20
31.6803770123
 11
534.8891865358
 21
31.6158496394
  0
LINE
  8
0
 62
7
  6
CONTINUOUS
 10
539.4563739807
 20
31.6803770123
 11
539.3407487601
 21
31.7449043851
  0
LINE
  8
0
 62
7
  6
CONTINUOUS
 10
543.2719989807
 20
31.5190585802
 11
543.2141867012
 21
31.583585953
  0
LINE
  8
0
 62
7
  6
CONTINUOUS
 10
544.4282492012
 20
31.1318942979
 11
544.4860614807
 21
31.0673669025
  0
LINE
  8
0
 62
7
  6
CONTINUOUS
 10
544.7751235396
 20
31.0673669025
 11
544.6594989807
 21
31.1964216708
  0
LINE
  8
0
 62
7
  6
CONTINUOUS
 10
544.4282492012
 20
31.6481133259
 11
544.4860614807
 21
31.583585953
  0
LINE
  8
0
 62
7
  6
CONTINUOUS
 10
544.7751235396
 20
31.583585953
 11
544.6594989807
 21
31.7126406987
  0
LINE
  8
0
 62
7
  6
CONTINUOUS
 10
538.0688739807
 20
31.583585953
 11
538.1266865909
 21
31.6481133259
  0
LINE
  8
0
 62
7
  6
CONTINUOUS
 10
537.8954364807
 20
31.3254764164
 11
537.7798115909
 21
31.1964216708
  0
LINE
  8
0
 62
7
  6
CONTINUOUS
 10
539.2251242012
 20
31.1641579843
 11
539.1673112601
 21
31.0996306115
  0
LINE
  8
0
 62
7
  6
CONTINUOUS
 10
539.1673112601
 20
30.9060484591
 11
539.2251242012
 21
30.9705758432
  0
LINE
  8
0
 62
7
  6
CONTINUOUS
 10
538.0110613704
 20
30.873784767
 11
538.1266865909
 21
30.8415210777
  0
LINE
  8
0
 62
7
  6
CONTINUOUS
 10
535.0048114255
 20
31.7449043851
 11
534.7735614807
 21
31.809431758
  0
LINE
  8
0
 62
7
  6
CONTINUOUS
 10
538.3579363704
 20
30.9383121455
 11
538.1266865909
 21
31.0028395296
  0
LINE
  8
0
 62
7
  6
CONTINUOUS
 10
537.0860615909
 20
31.7449043851
 11
536.9126240909
 21
31.809431758
  0
LINE
  8
0
 62
7
  6
CONTINUOUS
 10
539.3407487601
 20
31.7449043851
 11
539.1673112601
 21
31.809431758
  0
LINE
  8
0
 62
7
  6
CONTINUOUS
 10
542.0001242012
 20
31.6481133259
 11
542.1157487601
 21
31.583585953
  0
LINE
  8
0
 62
7
  6
CONTINUOUS
 10
542.3469992012
 20
31.6803770123
 11
542.2313739807
 21
31.7449043851
  0
LINE
  8
0
 62
7
  6
CONTINUOUS
 10
533.8485614944
 20
30.873784767
 11
534.0219989944
 21
30.8415210777
  0
LINE
  8
0
 62
7
  6
CONTINUOUS
 10
534.3110615082
 20
30.9383121455
 11
533.9641864669
 21
31.0028395296
  0
LINE
  8
0
 62
7
  6
CONTINUOUS
 10
536.7391865909
 20
31.6803770123
 11
536.8548114807
 21
31.6481133259
  0
LINE
  8
0
 62
7
  6
CONTINUOUS
 10
539.0516867012
 20
31.6803770123
 11
539.1673112601
 21
31.6481133259
  0
LINE
  8
0
 62
7
  6
CONTINUOUS
 10
543.3876242012
 20
30.9705758432
 11
543.2719989807
 21
31.0028395296
  0
LINE
  8
0
 62
7
  6
CONTINUOUS
 10
541.8844989807
 20
31.6803770123
 11
542.0001242012
 21
31.6481133259
  0
LINE
  8
0
 62
7
  6
CONTINUOUS
 10
543.0407492012
 20
30.9383121455
 11
543.2141867012
 21
30.873784767
  0
LINE
  8
0
 62
7
  6
CONTINUOUS
 10
542.2313739807
 20
31.7449043851
 11
542.0579364807
 21
31.809431758
  0
LINE
  8
0
 62
7
  6
CONTINUOUS
 10
543.4454364807
 20
31.4545312073
 11
543.2719989807
 21
31.5190585802
  0
LINE
  8
0
 62
7
  6
CONTINUOUS
 10
544.2548117012
 20
31.1964216708
 11
544.4282492012
 21
31.1318942979
  0
LINE
  8
0
 62
7
  6
CONTINUOUS
 10
544.6594989807
 20
31.7126406987
 11
544.4860614807
 21
31.7771680715
  0
LINE
  8
0
 62
7
  6
CONTINUOUS
 10
543.0407492012
 20
31.4545312073
 11
543.2719989807
 21
31.3577401029
  0
LINE
  8
0
 62
7
  6
CONTINUOUS
 10
544.6594989807
 20
31.1964216708
 11
544.4282492012
 21
31.29321273
  0
LINE
  8
0
 62
7
  6
CONTINUOUS
 10
543.2141867012
 20
31.583585953
 11
543.2719989807
 21
31.6481133259
  0
LINE
  8
0
 62
7
  6
CONTINUOUS
 10
533.6751239738
 20
31.7126406987
 11
533.5594989807
 21
31.6481133259
  0
LINE
  8
0
 62
7
  6
CONTINUOUS
 10
533.7907489669
 20
31.5513222666
 11
533.9641864669
 21
31.6481133259
  0
LINE
  8
0
 62
7
  6
CONTINUOUS
 10
536.1032490358
 20
31.7449043851
 11
535.9876239807
 21
31.6803770123
  0
LINE
  8
0
 62
7
  6
CONTINUOUS
 10
535.9876239807
 20
31.5513222666
 11
536.1032490358
 21
31.6158496394
  0
LINE
  8
0
 62
7
  6
CONTINUOUS
 10
535.0048114255
 20
30.9060484591
 11
535.1782489255
 21
31.0028395296
  0
LINE
  8
0
 62
7
  6
CONTINUOUS
 10
534.0219989944
 20
30.8415210777
 11
534.3688739531
 21
30.8092573885
  0
LINE
  8
0
 62
7
  6
CONTINUOUS
 10
538.1266865909
 20
30.8415210777
 11
538.3579363704
 21
30.8092573885
  0
LINE
  8
0
 62
7
  6
CONTINUOUS
 10
536.5079364807
 20
31.7126406987
 11
536.7391865909
 21
31.6803770123
  0
LINE
  8
0
 62
7
  6
CONTINUOUS
 10
538.8204365909
 20
31.7126406987
 11
539.0516867012
 21
31.6803770123
  0
LINE
  8
0
 62
7
  6
CONTINUOUS
 10
543.2719989807
 20
31.3577401029
 11
544.2548117012
 21
31.1964216708
  0
LINE
  8
0
 62
7
  6
CONTINUOUS
 10
544.4282492012
 20
31.29321273
 11
543.4454364807
 21
31.4545312073
  0
LINE
  8
0
 62
7
  6
CONTINUOUS
 10
536.9126240909
 20
31.809431758
 11
536.7391865909
 21
31.8416954444
  0
LINE
  8
0
 62
7
  6
CONTINUOUS
 10
543.2141867012
 20
30.873784767
 11
543.3876242012
 21
30.8415210777
  0
LINE
  8
0
 62
7
  6
CONTINUOUS
 10
542.0579364807
 20
31.809431758
 11
541.8844989807
 21
31.8416954444
  0
LINE
  8
0
 62
7
  6
CONTINUOUS
 10
544.3126239807
 20
31.6803770123
 11
544.4282492012
 21
31.6481133259
  0
LINE
  8
0
 62
7
  6
CONTINUOUS
 10
544.4860614807
 20
31.0673669025
 11
544.4282492012
 21
31.0028395296
  0
LINE
  8
0
 62
7
  6
CONTINUOUS
 10
543.0407492012
 20
31.7449043851
 11
542.9251239807
 21
31.6481133259
  0
LINE
  8
0
 62
7
  6
CONTINUOUS
 10
537.9532490909
 20
31.7771680715
 11
537.8376238704
 21
31.7126406987
  0
LINE
  8
0
 62
7
  6
CONTINUOUS
 10
538.0110613704
 20
31.3900038345
 11
537.8954364807
 21
31.3254764164
  0
LINE
  8
0
 62
7
  6
CONTINUOUS
 10
538.1266865909
 20
31.2286853572
 11
538.2423114807
 21
31.29321273
  0
LINE
  8
0
 62
7
  6
CONTINUOUS
 10
535.6985614255
 20
30.8092573885
 11
535.9876239807
 21
30.8092573885
  0
LINE
  8
0
 62
7
  6
CONTINUOUS
 10
537.0282489807
 20
30.8092573885
 11
537.3173113704
 21
30.8092573885
  0
LINE
  8
0
 62
7
  6
CONTINUOUS
 10
538.3579363704
 20
30.8092573885
 11
538.7048113704
 21
30.8092573885
  0
LINE
  8
0
 62
7
  6
CONTINUOUS
 10
539.3407487601
 20
30.8092573885
 11
539.6298114807
 21
30.8092573885
  0
LINE
  8
0
 62
7
  6
CONTINUOUS
 10
540.0923117012
 20
30.8092573885
 11
540.3813737601
 21
30.8092573885
  0
LINE
  8
0
 62
7
  6
CONTINUOUS
 10
540.8438739807
 20
30.8092573885
 11
541.1329367012
 21
30.8092573885
  0
LINE
  8
0
 62
7
  6
CONTINUOUS
 10
542.1735617012
 20
30.8092573885
 11
542.4626237601
 21
30.8092573885
  0
LINE
  8
0
 62
7
  6
CONTINUOUS
 10
543.7344992012
 20
30.8092573885
 11
544.0813742012
 21
30.8092573885
  0
LINE
  8
0
 62
7
  6
CONTINUOUS
 10
544.0813742012
 20
30.9383121455
 11
543.7344992012
 21
30.9383121455
  0
LINE
  8
0
 62
7
  6
CONTINUOUS
 10
538.7048113704
 20
30.9383121455
 11
538.3579363704
 21
30.9383121455
  0
LINE
  8
0
 62
7
  6
CONTINUOUS
 10
543.2141867012
 20
31.0673669025
 11
542.9251239807
 21
31.0673669025
  0
LINE
  8
0
 62
7
  6
CONTINUOUS
 10
535.2360615358
 20
31.1318942979
 11
534.9469989807
 21
31.1318942979
  0
LINE
  8
0
 62
7
  6
CONTINUOUS
 10
534.3110615082
 20
31.7126406987
 11
534.7157489531
 21
31.6803770123
  0
LINE
  8
0
 62
7
  6
CONTINUOUS
 10
534.7735614807
 20
31.809431758
 11
534.3688739531
 21
31.8416954444
  0
LINE
  8
0
 62
7
  6
CONTINUOUS
 10
543.3876242012
 20
30.8415210777
 11
543.7344992012
 21
30.8092573885
  0
LINE
  8
0
 62
7
  6
CONTINUOUS
 10
543.7344992012
 20
30.9383121455
 11
543.3876242012
 21
30.9705758432
  0
LINE
  8
0
 62
7
  6
CONTINUOUS
 10
539.1673112601
 20
31.809431758
 11
538.8204365909
 21
31.8416954444
  0
LINE
  8
0
 62
7
  6
CONTINUOUS
 10
543.9657489807
 20
31.7126406987
 11
544.3126239807
 21
31.6803770123
  0
LINE
  8
0
 62
7
  6
CONTINUOUS
 10
544.3126239807
 20
31.809431758
 11
543.9657489807
 21
31.8416954444
  0
LINE
  8
0
 62
7
  6
CONTINUOUS
 10
541.6532492012
 20
31.7126406987
 11
541.8844989807
 21
31.6803770123
  0
LINE
  8
0
 62
7
  6
CONTINUOUS
 10
544.4860614807
 20
31.7771680715
 11
544.3126239807
 21
31.809431758
  0
LINE
  8
0
 62
7
  6
CONTINUOUS
 10
544.6594989807
 20
30.9060484591
 11
544.7751235396
 21
31.0028395296
  0
LINE
  8
0
 62
7
  6
CONTINUOUS
 10
539.1673112601
 20
31.0996306115
 11
538.9938737601
 21
31.0028395296
  0
LINE
  8
0
 62
7
  6
CONTINUOUS
 10
541.2485612601
 20
31.7449043851
 11
541.1329367012
 21
31.6803770123
  0
LINE
  8
0
 62
7
  6
CONTINUOUS
 10
541.1329367012
 20
31.5513222666
 11
541.2485612601
 21
31.6158496394
  0
LINE
  8
0
 62
7
  6
CONTINUOUS
 10
533.8485614944
 20
31.7771680715
 11
533.6751239738
 21
31.7126406987
  0
LINE
  8
0
 62
7
  6
CONTINUOUS
 10
536.2766863704
 20
31.809431758
 11
536.1032490358
 21
31.7449043851
  0
LINE
  8
0
 62
7
  6
CONTINUOUS
 10
536.1032490358
 20
31.6158496394
 11
536.2766863704
 21
31.6803770123
  0
LINE
  8
0
 62
7
  6
CONTINUOUS
 10
534.8891865358
 20
31.035103216
 11
534.7157489531
 21
30.9705758432
  0
LINE
  8
0
 62
7
  6
CONTINUOUS
 10
544.3126239807
 20
30.9705758432
 11
544.0813742012
 21
30.9383121455
  0
LINE
  8
0
 62
7
  6
CONTINUOUS
 10
538.7048113704
 20
30.8092573885
 11
538.9938737601
 21
30.8415210777
  0
LINE
  8
0
 62
7
  6
CONTINUOUS
 10
544.0813742012
 20
30.8092573885
 11
544.4282492012
 21
30.8415210777
  0
LINE
  8
0
 62
7
  6
CONTINUOUS
 10
534.3688739531
 20
30.8092573885
 11
534.7735614807
 21
30.8415210777
  0
LINE
  8
0
 62
7
  6
CONTINUOUS
 10
534.7157489531
 20
30.9705758432
 11
534.3110615082
 21
30.9383121455
  0
LINE
  8
0
 62
7
  6
CONTINUOUS
 10
538.5891864807
 20
31.3577401029
 11
539.2251242012
 21
31.3577401029
  0
LINE
  8
0
 62
7
  6
CONTINUOUS
 10
539.2251242012
 20
31.4867948937
 11
538.5891864807
 21
31.4867948937
  0
LINE
  8
0
 62
7
  6
CONTINUOUS
 10
534.9469989807
 20
31.5190585802
 11
535.2360615358
 21
31.5190585802
  0
LINE
  8
0
 62
7
  6
CONTINUOUS
 10
537.7798115909
 20
31.583585953
 11
538.0688739807
 21
31.583585953
  0
LINE
  8
0
 62
7
  6
CONTINUOUS
 10
544.4860614807
 20
31.583585953
 11
544.7751235396
 21
31.583585953
  0
LINE
  8
0
 62
7
  6
CONTINUOUS
 10
538.4735615909
 20
31.7126406987
 11
538.8204365909
 21
31.7126406987
  0
LINE
  8
0
 62
7
  6
CONTINUOUS
 10
543.6188739807
 20
31.7126406987
 11
543.9657489807
 21
31.7126406987
  0
LINE
  8
0
 62
7
  6
CONTINUOUS
 10
543.9657489807
 20
31.8416954444
 11
543.6188739807
 21
31.8416954444
  0
LINE
  8
0
 62
7
  6
CONTINUOUS
 10
541.8844989807
 20
31.8416954444
 11
541.6532492012
 21
31.8416954444
  0
LINE
  8
0
 62
7
  6
CONTINUOUS
 10
541.1329367012
 20
31.8416954444
 11
540.8438739807
 21
31.8416954444
  0
LINE
  8
0
 62
7
  6
CONTINUOUS
 10
540.3813737601
 20
31.8416954444
 11
540.0923117012
 21
31.8416954444
  0
LINE
  8
0
 62
7
  6
CONTINUOUS
 10
538.8204365909
 20
31.8416954444
 11
538.4735615909
 21
31.8416954444
  0
LINE
  8
0
 62
7
  6
CONTINUOUS
 10
536.7391865909
 20
31.8416954444
 11
536.5079364807
 21
31.8416954444
  0
LINE
  8
0
 62
7
  6
CONTINUOUS
 10
540.0923117012
 20
32.164332399
 11
540.3813737601
 21
32.164332399
  0
LINE
  8
0
 62
7
  6
CONTINUOUS
 10
540.3813737601
 20
32.3256508311
 11
540.0923117012
 21
32.3256508311
  0
LINE
  8
0
 62
7
  6
CONTINUOUS
 10
535.9876239807
 20
32.3256508311
 11
535.6985614255
 21
32.3256508311
  0
LINE
  8
0
 62
7
  6
CONTINUOUS
 10
535.025405743
 20
32.612536077
 11
535.4379770916
 21
32.612536077
  0
LINE
  8
0
 62
7
  6
CONTINUOUS
 10
536.6647500053
 20
32.612536077
 11
538.0581926282
 21
32.612536077
  0
LINE
  8
0
 62
7
  6
CONTINUOUS
 10
538.3860614807
 20
32.612536077
 11
539.7795041036
 21
32.612536077
  0
LINE
  8
0
 62
7
  6
CONTINUOUS
 10
541.6647500053
 20
32.612536077
 11
543.0581926282
 21
32.612536077
  0
LINE
  8
0
 62
7
  6
CONTINUOUS
 10
543.3860614807
 20
32.612536077
 11
544.7795041036
 21
32.612536077
  0
LINE
  8
0
 62
7
  6
CONTINUOUS
 10
541.4219987601
 20
31.809431758
 11
541.2485612601
 21
31.7449043851
  0
LINE
  8
0
 62
7
  6
CONTINUOUS
 10
538.9938737601
 20
30.8415210777
 11
539.1673112601
 21
30.9060484591
  0
LINE
  8
0
 62
7
  6
CONTINUOUS
 10
544.4282492012
 20
30.8415210777
 11
544.6594989807
 21
30.9060484591
  0
LINE
  8
0
 62
7
  6
CONTINUOUS
 10
544.4282492012
 20
31.0028395296
 11
544.3126239807
 21
30.9705758432
  0
LINE
  8
0
 62
7
  6
CONTINUOUS
 10
543.3876242012
 20
31.6803770123
 11
543.6188739807
 21
31.7126406987
  0
LINE
  8
0
 62
7
  6
CONTINUOUS
 10
541.4219987601
 20
31.6803770123
 11
541.6532492012
 21
31.7126406987
  0
LINE
  8
0
 62
7
  6
CONTINUOUS
 10
538.3579363704
 20
31.3254764164
 11
538.5891864807
 21
31.3577401029
  0
LINE
  8
0
 62
7
  6
CONTINUOUS
 10
541.6532492012
 20
31.8416954444
 11
541.4219987601
 21
31.809431758
  0
LINE
  8
0
 62
7
  6
CONTINUOUS
 10
538.2423114807
 20
31.6803770123
 11
538.4735615909
 21
31.7126406987
  0
LINE
  8
0
 62
7
  6
CONTINUOUS
 10
543.6188739807
 20
31.8416954444
 11
543.2719989807
 21
31.809431758
  0
LINE
  8
0
 62
7
  6
CONTINUOUS
 10
538.5891864807
 20
31.4867948937
 11
538.2423114807
 21
31.4545312073
  0
LINE
  8
0
 62
7
  6
CONTINUOUS
 10
534.3688739531
 20
31.8416954444
 11
534.0219989944
 21
31.809431758
  0
LINE
  8
0
 62
7
  6
CONTINUOUS
 10
538.4735615909
 20
31.8416954444
 11
538.0688739807
 21
31.809431758
  0
LINE
  8
0
 62
7
  6
CONTINUOUS
 10
535.8450778741
 20
33.7600770606
 11
535.1893401692
 21
33.7600770606
  0
LINE
  8
0
 62
7
  6
CONTINUOUS
 10
541.2485612601
 20
31.6158496394
 11
541.4219987601
 21
31.6803770123
  0
LINE
  8
0
 62
7
  6
CONTINUOUS
 10
543.2719989807
 20
31.6481133259
 11
543.3876242012
 21
31.6803770123
  0
LINE
  8
0
 62
7
  6
CONTINUOUS
 10
543.2719989807
 20
31.809431758
 11
543.0407492012
 21
31.7449043851
  0
LINE
  8
0
 62
7
  6
CONTINUOUS
 10
538.9938737601
 20
31.0028395296
 11
538.7048113704
 21
30.9383121455
  0
LINE
  8
0
 62
7
  6
CONTINUOUS
 10
536.2766863704
 20
31.6803770123
 11
536.5079364807
 21
31.7126406987
  0
LINE
  8
0
 62
7
  6
CONTINUOUS
 10
536.5079364807
 20
31.8416954444
 11
536.2766863704
 21
31.809431758
  0
LINE
  8
0
 62
7
  6
CONTINUOUS
 10
534.0798114807
 20
31.6803770123
 11
534.3110615082
 21
31.7126406987
  0
LINE
  8
0
 62
7
  6
CONTINUOUS
 10
540.5991762348
 20
35.2354868967
 11
541.2549139397
 21
35.2354868967
  0
LINE
  8
0
 62
7
  6
CONTINUOUS
 10
538.2423114807
 20
31.29321273
 11
538.3579363704
 21
31.3254764164
  0
LINE
  8
0
 62
7
  6
CONTINUOUS
 10
538.2423114807
 20
31.4545312073
 11
538.0110613704
 21
31.3900038345
  0
LINE
  8
0
 62
7
  6
CONTINUOUS
 10
538.1266865909
 20
31.6481133259
 11
538.2423114807
 21
31.6803770123
  0
LINE
  8
0
 62
7
  6
CONTINUOUS
 10
534.7735614807
 20
30.8415210777
 11
535.0048114255
 21
30.9060484591
  0
LINE
  8
0
 62
7
  6
CONTINUOUS
 10
538.0688739807
 20
31.809431758
 11
537.9532490909
 21
31.7771680715
  0
LINE
  8
0
 62
7
  6
CONTINUOUS
 10
534.0219989944
 20
31.809431758
 11
533.8485614944
 21
31.7771680715
  0
LINE
  8
0
 62
7
  6
CONTINUOUS
 10
544.7795041036
 20
36.3830278803
 11
543.3860614807
 21
36.3830278803
  0
LINE
  8
0
 62
7
  6
CONTINUOUS
 10
541.4188483659
 20
36.3830278803
 11
541.0062770173
 21
36.3830278803
  0
LINE
  8
0
 62
7
  6
CONTINUOUS
 10
539.7795041036
 20
36.3830278803
 11
538.3860614807
 21
36.3830278803
  0
LINE
  8
0
 62
7
  6
CONTINUOUS
 10
538.0581926282
 20
36.3830278803
 11
536.6647500053
 21
36.3830278803
  0
LINE
  8
0
 62
7
  6
CONTINUOUS
 10
534.7795041036
 20
36.3830278803
 11
533.3860614807
 21
36.3830278803
  0
LINE
  8
0
 62
7
  6
CONTINUOUS
 10
533.9641864669
 20
31.6481133259
 11
534.0798114807
 21
31.6803770123
  0
CIRCLE
  8
0
 62
7
  6
CONTINUOUS
 10
544.0827827921
 20
38.7190934541
 40
2.0901639344
  0
ARC
  8
0
 62
7
  6
CONTINUOUS
 10
535.025405743
 20
34.2518803393
 40
1.6393442623
 50
180.0
 51
270.0
  0
ARC
  8
0
 62
7
  6
CONTINUOUS
 10
541.4188483659
 20
34.743683618
 40
1.6393442623
 50
0.0
 51
90.0
  0
ARC
  8
0
 62
7
  6
CONTINUOUS
 10
535.4379770916
 20
34.0879459131
 40
1.4754098361
 50
270.0
 51
326.2510114041
  0
ARC
  8
0
 62
7
  6
CONTINUOUS
 10
541.0062770173
 20
34.9076180442
 40
1.4754098361
 50
90.0
 51
146.2510114041
  0
ARC
  8
0
 62
7
  6
CONTINUOUS
 10
535.8450778741
 20
34.5797491918
 40
0.8196721311
 50
270.0
 51
360.0
  0
ARC
  8
0
 62
7
  6
CONTINUOUS
 10
540.5991762348
 20
34.4158147655
 40
0.8196721311
 50
90.0
 51
180.0
  0
ARC
  8
0
 62
7
  6
CONTINUOUS
 10
535.1893401692
 20
34.1699131262
 40
0.4098360656
 50
180.0
 51
270.0
  0
ARC
  8
0
 62
7
  6
CONTINUOUS
 10
541.2549139397
 20
34.8256508311
 40
0.4098360656
 50
0.0
 51
90.0
  0
SOLID
  8
0
 62
7
  6
CONTINUOUS
 10
540.0923117012
 20
32.1643327593
 11
540.0923117012
 21
32.3256512429
 12
540.3813737601
 22
32.1643327593
 13
540.3813737601
 23
32.3256512429
  0
SOLID
  8
0
 62
7
  6
CONTINUOUS
 10
534.3688739531
 20
31.841695792
 11
534.7735614807
 21
31.8094316148
 12
534.0219989944
 22
31.8094316148
 13
534.0219989944
 23
31.8094316148
  0
SOLID
  8
0
 62
7
  6
CONTINUOUS
 10
533.8485614944
 20
31.7771687019
 11
534.0219989944
 21
31.8094316148
 12
534.7735614807
 22
31.8094316148
 13
534.7735614807
 23
31.8094316148
  0
SOLID
  8
0
 62
7
  6
CONTINUOUS
 10
534.7735614807
 20
31.8094316148
 11
535.0048114255
 21
31.7449043986
 12
533.8485614944
 22
31.7771687019
 13
533.8485614944
 23
31.7771687019
  0
SOLID
  8
0
 62
7
  6
CONTINUOUS
 10
533.6751239738
 20
31.712640202
 11
533.8485614944
 21
31.7771687019
 12
535.0048114255
 22
31.7449043986
 13
535.0048114255
 23
31.7449043986
  0
SOLID
  8
0
 62
7
  6
CONTINUOUS
 10
533.6751239738
 20
31.712640202
 11
535.0048114255
 21
31.7449043986
 12
534.3110615082
 22
31.712640202
 13
534.3110615082
 23
31.712640202
  0
SOLID
  8
0
 62
7
  6
CONTINUOUS
 10
534.3110615082
 20
31.712640202
 11
535.0048114255
 21
31.7449043986
 12
534.7157489531
 22
31.6803773084
 13
534.7157489531
 23
31.6803773084
  0
SOLID
  8
0
 62
7
  6
CONTINUOUS
 10
535.0048114255
 20
31.7449043986
 11
535.1782489255
 21
31.6481130052
 12
534.7157489531
 22
31.6803773084
 13
534.7157489531
 23
31.6803773084
  0
SOLID
  8
0
 62
7
  6
CONTINUOUS
 10
534.8891865358
 20
31.6158502183
 11
534.7157489531
 21
31.6803773084
 12
535.1782489255
 22
31.6481130052
 13
535.1782489255
 23
31.6481130052
  0
SOLID
  8
0
 62
7
  6
CONTINUOUS
 10
534.8891865358
 20
31.6158502183
 11
535.1782489255
 21
31.6481130052
 12
534.9469989807
 22
31.5190586669
 13
534.9469989807
 23
31.5190586669
  0
SOLID
  8
0
 62
7
  6
CONTINUOUS
 10
535.1782489255
 20
31.6481130052
 11
535.2360615358
 21
31.5190586669
 12
534.9469989807
 22
31.5190586669
 13
534.9469989807
 23
31.5190586669
  0
SOLID
  8
0
 62
7
  6
CONTINUOUS
 10
536.2766863704
 20
31.8094307377
 11
536.5079364807
 21
31.841695041
 12
536.7391865909
 22
31.841695041
 13
536.7391865909
 23
31.841695041
  0
SOLID
  8
0
 62
7
  6
CONTINUOUS
 10
536.7391865909
 20
31.841695041
 11
536.9126240909
 21
31.8094307377
 12
536.2766863704
 22
31.8094307377
 13
536.2766863704
 23
31.8094307377
  0
SOLID
  8
0
 62
7
  6
CONTINUOUS
 10
536.1032490358
 20
31.7449036475
 11
536.2766863704
 21
31.8094307377
 12
536.9126240909
 22
31.8094307377
 13
536.9126240909
 23
31.8094307377
  0
SOLID
  8
0
 62
7
  6
CONTINUOUS
 10
536.9126240909
 20
31.8094307377
 11
537.0860615909
 21
31.7449036475
 12
536.1032490358
 22
31.7449036475
 13
536.1032490358
 23
31.7449036475
  0
SOLID
  8
0
 62
7
  6
CONTINUOUS
 10
537.0860615909
 20
31.7449036475
 11
536.5079364807
 21
31.7126400953
 12
536.1032490358
 22
31.7449036475
 13
536.1032490358
 23
31.7449036475
  0
SOLID
  8
0
 62
7
  6
CONTINUOUS
 10
535.9876239807
 20
31.6803765574
 11
536.1032490358
 21
31.7449036475
 12
536.5079364807
 22
31.7126400953
 13
536.5079364807
 23
31.7126400953
  0
SOLID
  8
0
 62
7
  6
CONTINUOUS
 10
536.5079364807
 20
31.7126400953
 11
536.2766863704
 21
31.6803765574
 12
535.9876239807
 22
31.6803765574
 13
535.9876239807
 23
31.6803765574
  0
SOLID
  8
0
 62
7
  6
CONTINUOUS
 10
536.5079364807
 20
31.7126400953
 11
537.0860615909
 21
31.7449036475
 12
536.7391865909
 22
31.6803765574
 13
536.7391865909
 23
31.6803765574
  0
SOLID
  8
0
 62
7
  6
CONTINUOUS
 10
537.0860615909
 20
31.7449036475
 11
537.2016864807
 21
31.6803765574
 12
536.7391865909
 22
31.6803765574
 13
536.7391865909
 23
31.6803765574
  0
SOLID
  8
0
 62
7
  6
CONTINUOUS
 10
536.8548114807
 20
31.6481130052
 11
536.7391865909
 21
31.6803765574
 12
537.2016864807
 22
31.6803765574
 13
537.2016864807
 23
31.6803765574
  0
SOLID
  8
0
 62
7
  6
CONTINUOUS
 10
537.2016864807
 20
31.6803765574
 11
537.2594990909
 21
31.6158494672
 12
536.8548114807
 22
31.6481130052
 13
536.8548114807
 23
31.6481130052
  0
SOLID
  8
0
 62
7
  6
CONTINUOUS
 10
536.9704363704
 20
31.583585915
 11
536.8548114807
 21
31.6481130052
 12
537.2594990909
 22
31.6158494672
 13
537.2594990909
 23
31.6158494672
  0
SOLID
  8
0
 62
7
  6
CONTINUOUS
 10
536.9704363704
 20
31.583585915
 11
537.2594990909
 21
31.6158494672
 12
537.0282489807
 22
31.4545309836
 13
537.0282489807
 23
31.4545309836
  0
SOLID
  8
0
 62
7
  6
CONTINUOUS
 10
537.2594990909
 20
31.6158494672
 11
537.3173113704
 21
31.4545309836
 12
537.0282489807
 22
31.4545309836
 13
537.0282489807
 23
31.4545309836
  0
SOLID
  8
0
 62
7
  6
CONTINUOUS
 10
536.2766863704
 20
31.6803765574
 11
536.1032490358
 21
31.6158494672
 12
535.9876239807
 22
31.6803765574
 13
535.9876239807
 23
31.6803765574
  0
SOLID
  8
0
 62
7
  6
CONTINUOUS
 10
536.1032490358
 20
31.6158494672
 11
535.9876239807
 21
31.5513216117
 12
535.9876239807
 22
31.6803765574
 13
535.9876239807
 23
31.6803765574
  0
SOLID
  8
0
 62
7
  6
CONTINUOUS
 10
535.9876239807
 20
31.5513216117
 11
535.6985614255
 21
30.8092570492
 12
535.9876239807
 22
31.6803765574
 13
535.9876239807
 23
31.6803765574
  0
SOLID
  8
0
 62
7
  6
CONTINUOUS
 10
535.9876239807
 20
31.6803765574
 11
535.6985614255
 21
30.8092570492
 12
535.9876239807
 22
32.3256504918
 13
535.9876239807
 23
32.3256504918
  0
SOLID
  8
0
 62
7
  6
CONTINUOUS
 10
535.6985614255
 20
30.8092570492
 11
535.6985614255
 21
32.3256504918
 12
535.9876239807
 22
32.3256504918
 13
535.9876239807
 23
32.3256504918
  0
SOLID
  8
0
 62
7
  6
CONTINUOUS
 10
535.9876239807
 20
31.5513216117
 11
535.9876239807
 21
30.8092570492
 12
535.6985614255
 22
30.8092570492
 13
535.6985614255
 23
30.8092570492
  0
SOLID
  8
0
 62
7
  6
CONTINUOUS
 10
537.0282489807
 20
30.8092570492
 11
537.0282489807
 21
31.4545309836
 12
537.3173113704
 22
31.4545309836
 13
537.3173113704
 23
31.4545309836
  0
SOLID
  8
0
 62
7
  6
CONTINUOUS
 10
537.3173113704
 20
31.4545309836
 11
537.3173113704
 21
30.8092570492
 12
537.0282489807
 22
30.8092570492
 13
537.0282489807
 23
30.8092570492
  0
SOLID
  8
0
 62
7
  6
CONTINUOUS
 10
538.0688739807
 20
31.809431823
 11
538.4735615909
 21
31.8416958158
 12
538.8204365909
 22
31.8416958158
 13
538.8204365909
 23
31.8416958158
  0
SOLID
  8
0
 62
7
  6
CONTINUOUS
 10
538.8204365909
 20
31.8416958158
 11
539.1673112601
 21
31.809431823
 12
538.0688739807
 22
31.809431823
 13
538.0688739807
 23
31.809431823
  0
SOLID
  8
0
 62
7
  6
CONTINUOUS
 10
537.9532490909
 20
31.7771687019
 11
538.0688739807
 21
31.809431823
 12
539.1673112601
 22
31.809431823
 13
539.1673112601
 23
31.809431823
  0
SOLID
  8
0
 62
7
  6
CONTINUOUS
 10
539.1673112601
 20
31.809431823
 11
539.3407487601
 21
31.7449043986
 12
537.9532490909
 22
31.7771687019
 13
537.9532490909
 23
31.7771687019
  0
SOLID
  8
0
 62
7
  6
CONTINUOUS
 10
537.8376238704
 20
31.7126398448
 11
537.9532490909
 21
31.7771687019
 12
539.3407487601
 22
31.7449043986
 13
539.3407487601
 23
31.7449043986
  0
SOLID
  8
0
 62
7
  6
CONTINUOUS
 10
537.8376238704
 20
31.7126398448
 11
539.3407487601
 21
31.7449043986
 12
538.4735615909
 22
31.7126398448
 13
538.4735615909
 23
31.7126398448
  0
SOLID
  8
0
 62
7
  6
CONTINUOUS
 10
538.4735615909
 20
31.7126398448
 11
539.3407487601
 21
31.7449043986
 12
538.8204365909
 22
31.7126398448
 13
538.8204365909
 23
31.7126398448
  0
SOLID
  8
0
 62
7
  6
CONTINUOUS
 10
538.8204365909
 20
31.7126398448
 11
539.3407487601
 21
31.7449043986
 12
539.0516867012
 22
31.6803774007
 13
539.0516867012
 23
31.6803774007
  0
SOLID
  8
0
 62
7
  6
CONTINUOUS
 10
539.3407487601
 20
31.7449043986
 11
539.4563739807
 21
31.6803774007
 12
539.0516867012
 22
31.6803774007
 13
539.0516867012
 23
31.6803774007
  0
SOLID
  8
0
 62
7
  6
CONTINUOUS
 10
537.7798115909
 20
31.6481126336
 11
537.8376238704
 21
31.7126398448
 12
538.4735615909
 22
31.7126398448
 13
538.4735615909
 23
31.7126398448
  0
SOLID
  8
0
 62
7
  6
CONTINUOUS
 10
539.1673112601
 20
31.6481126336
 11
539.0516867012
 21
31.6803774007
 12
539.4563739807
 22
31.6803774007
 13
539.4563739807
 23
31.6803774007
  0
SOLID
  8
0
 62
7
  6
CONTINUOUS
 10
539.1673112601
 20
31.6481126336
 11
539.4563739807
 21
31.6803774007
 12
539.2251242012
 22
31.5835861968
 13
539.2251242012
 23
31.5835861968
  0
SOLID
  8
0
 62
7
  6
CONTINUOUS
 10
539.4563739807
 20
31.6803774007
 11
539.5141862601
 21
31.5835861968
 12
539.2251242012
 22
31.5835861968
 13
539.2251242012
 23
31.5835861968
  0
SOLID
  8
0
 62
7
  6
CONTINUOUS
 10
539.2251242012
 20
31.4867945216
 11
539.2251242012
 21
31.5835861968
 12
539.5141862601
 22
31.5835861968
 13
539.5141862601
 23
31.5835861968
  0
SOLID
  8
0
 62
7
  6
CONTINUOUS
 10
539.2251242012
 20
31.4867945216
 11
539.5141862601
 21
31.5835861968
 12
539.2251242012
 22
31.3577403412
 13
539.2251242012
 23
31.3577403412
  0
SOLID
  8
0
 62
7
  6
CONTINUOUS
 10
539.2251242012
 20
31.3577403412
 11
539.5141862601
 21
31.5835861968
 12
539.2251242012
 22
31.1641579843
 13
539.2251242012
 23
31.1641579843
  0
SOLID
  8
0
 62
7
  6
CONTINUOUS
 10
539.5141862601
 20
31.5835861968
 11
539.5141862601
 21
31.0673661609
 12
539.2251242012
 22
31.1641579843
 13
539.2251242012
 23
31.1641579843
  0
SOLID
  8
0
 62
7
  6
CONTINUOUS
 10
541.4219987601
 20
31.8094310465
 11
541.6532492012
 21
31.8416957661
 12
541.8844989807
 22
31.8416957661
 13
541.8844989807
 23
31.8416957661
  0
SOLID
  8
0
 62
7
  6
CONTINUOUS
 10
541.8844989807
 20
31.8416957661
 11
542.0579364807
 21
31.8094310465
 12
541.4219987601
 22
31.8094310465
 13
541.4219987601
 23
31.8094310465
  0
SOLID
  8
0
 62
7
  6
CONTINUOUS
 10
541.2485612601
 20
31.7449047044
 11
541.4219987601
 21
31.8094310465
 12
542.0579364807
 22
31.8094310465
 13
542.0579364807
 23
31.8094310465
  0
SOLID
  8
0
 62
7
  6
CONTINUOUS
 10
542.0579364807
 20
31.8094310465
 11
542.2313739807
 21
31.7449047044
 12
541.2485612601
 22
31.7449047044
 13
541.2485612601
 23
31.7449047044
  0
SOLID
  8
0
 62
7
  6
CONTINUOUS
 10
542.2313739807
 20
31.7449047044
 11
541.6532492012
 21
31.7126400953
 12
541.2485612601
 22
31.7449047044
 13
541.2485612601
 23
31.7449047044
  0
SOLID
  8
0
 62
7
  6
CONTINUOUS
 10
541.1329367012
 20
31.6803773299
 11
541.2485612601
 21
31.7449047044
 12
541.6532492012
 22
31.7126400953
 13
541.6532492012
 23
31.7126400953
  0
SOLID
  8
0
 62
7
  6
CONTINUOUS
 10
541.6532492012
 20
31.7126400953
 11
541.4219987601
 21
31.6803773299
 12
541.1329367012
 22
31.6803773299
 13
541.1329367012
 23
31.6803773299
  0
SOLID
  8
0
 62
7
  6
CONTINUOUS
 10
541.6532492012
 20
31.7126400953
 11
542.2313739807
 21
31.7449047044
 12
541.8844989807
 22
31.6803773299
 13
541.8844989807
 23
31.6803773299
  0
SOLID
  8
0
 62
7
  6
CONTINUOUS
 10
542.2313739807
 20
31.7449047044
 11
542.3469992012
 21
31.6803773299
 12
541.8844989807
 22
31.6803773299
 13
541.8844989807
 23
31.6803773299
  0
SOLID
  8
0
 62
7
  6
CONTINUOUS
 10
542.0001242012
 20
31.6481130052
 11
541.8844989807
 21
31.6803773299
 12
542.3469992012
 22
31.6803773299
 13
542.3469992012
 23
31.6803773299
  0
SOLID
  8
0
 62
7
  6
CONTINUOUS
 10
542.0001242012
 20
31.6481130052
 11
542.3469992012
 21
31.6803773299
 12
542.1157487601
 22
31.5835862682
 13
542.1157487601
 23
31.5835862682
  0
SOLID
  8
0
 62
7
  6
CONTINUOUS
 10
542.3469992012
 20
31.6803773299
 11
542.4048114807
 21
31.5835862682
 12
542.1157487601
 22
31.5835862682
 13
542.1157487601
 23
31.5835862682
  0
SOLID
  8
0
 62
7
  6
CONTINUOUS
 10
542.1735617012
 20
31.422267832
 11
542.1157487601
 21
31.5835862682
 12
542.4048114807
 22
31.5835862682
 13
542.4048114807
 23
31.5835862682
  0
SOLID
  8
0
 62
7
  6
CONTINUOUS
 10
542.4048114807
 20
31.5835862682
 11
542.4626237601
 21
31.422267832
 12
542.1735617012
 22
31.422267832
 13
542.1735617012
 23
31.422267832
  0
SOLID
  8
0
 62
7
  6
CONTINUOUS
 10
541.4219987601
 20
31.6803773299
 11
541.2485612601
 21
31.6158502183
 12
541.1329367012
 22
31.6803773299
 13
541.1329367012
 23
31.6803773299
  0
SOLID
  8
0
 62
7
  6
CONTINUOUS
 10
541.2485612601
 20
31.6158502183
 11
541.1329367012
 21
31.5513216117
 12
541.1329367012
 22
31.6803773299
 13
541.1329367012
 23
31.6803773299
  0
SOLID
  8
0
 62
7
  6
CONTINUOUS
 10
541.1329367012
 20
31.5513216117
 11
540.8438739807
 21
30.8092577743
 12
541.1329367012
 22
31.6803773299
 13
541.1329367012
 23
31.6803773299
  0
SOLID
  8
0
 62
7
  6
CONTINUOUS
 10
541.1329367012
 20
31.6803773299
 11
540.8438739807
 21
30.8092577743
 12
541.1329367012
 22
31.8416957661
 13
541.1329367012
 23
31.8416957661
  0
SOLID
  8
0
 62
7
  6
CONTINUOUS
 10
540.8438739807
 20
30.8092577743
 11
540.8438739807
 21
31.8416957661
 12
541.1329367012
 22
31.8416957661
 13
541.1329367012
 23
31.8416957661
  0
SOLID
  8
0
 62
7
  6
CONTINUOUS
 10
541.1329367012
 20
31.5513216117
 11
541.1329367012
 21
30.8092577743
 12
540.8438739807
 22
30.8092577743
 13
540.8438739807
 23
30.8092577743
  0
SOLID
  8
0
 62
7
  6
CONTINUOUS
 10
542.1735617012
 20
30.8092577743
 11
542.1735617012
 21
31.422267832
 12
542.4626237601
 22
31.422267832
 13
542.4626237601
 23
31.422267832
  0
SOLID
  8
0
 62
7
  6
CONTINUOUS
 10
542.4626237601
 20
31.422267832
 11
542.4626237601
 21
30.8092577743
 12
542.1735617012
 22
30.8092577743
 13
542.1735617012
 23
30.8092577743
  0
SOLID
  8
0
 62
7
  6
CONTINUOUS
 10
543.2719989807
 20
31.8094314924
 11
543.6188739807
 21
31.8416958387
 12
543.9657489807
 22
31.8416958387
 13
543.9657489807
 23
31.8416958387
  0
SOLID
  8
0
 62
7
  6
CONTINUOUS
 10
543.9657489807
 20
31.8416958387
 11
544.3126239807
 21
31.8094314924
 12
543.2719989807
 22
31.8094314924
 13
543.2719989807
 23
31.8094314924
  0
SOLID
  8
0
 62
7
  6
CONTINUOUS
 10
543.0407492012
 20
31.7449043986
 11
543.2719989807
 21
31.8094314924
 12
544.3126239807
 22
31.8094314924
 13
544.3126239807
 23
31.8094314924
  0
SOLID
  8
0
 62
7
  6
CONTINUOUS
 10
543.0407492012
 20
31.7449043986
 11
544.3126239807
 21
31.8094314888
 12
544.4860614807
 22
31.7771687019
 13
544.4860614807
 23
31.7771687019
  0
SOLID
  8
0
 62
7
  6
CONTINUOUS
 10
543.0407492012
 20
31.7449043986
 11
544.4860614807
 21
31.7771687019
 12
543.6188739807
 22
31.7126401399
 13
543.6188739807
 23
31.7126401399
  0
SOLID
  8
0
 62
7
  6
CONTINUOUS
 10
543.6188739807
 20
31.7126401399
 11
544.4860614807
 21
31.7771687019
 12
543.9657489807
 22
31.7126401399
 13
543.9657489807
 23
31.7126401399
  0
SOLID
  8
0
 62
7
  6
CONTINUOUS
 10
544.4860614807
 20
31.7771687019
 11
544.6594989807
 21
31.7126401399
 12
543.9657489807
 22
31.7126401399
 13
543.9657489807
 23
31.7126401399
  0
SOLID
  8
0
 62
7
  6
CONTINUOUS
 10
544.3126239807
 20
31.6803773084
 11
543.9657489807
 21
31.7126401399
 12
544.6594989807
 22
31.7126401399
 13
544.6594989807
 23
31.7126401399
  0
SOLID
  8
0
 62
7
  6
CONTINUOUS
 10
542.9251239807
 20
31.6481128977
 11
543.0407492012
 21
31.7449043986
 12
543.6188739807
 22
31.7126401399
 13
543.6188739807
 23
31.7126401399
  0
SOLID
  8
0
 62
7
  6
CONTINUOUS
 10
544.3126239807
 20
31.6803773084
 11
544.6594989807
 21
31.7126401399
 12
544.4282492012
 22
31.6481128977
 13
544.4282492012
 23
31.6481128977
  0
SOLID
  8
0
 62
7
  6
CONTINUOUS
 10
544.4282492012
 20
31.6481128977
 11
544.6594989807
 21
31.7126401399
 12
544.4860614807
 22
31.5835858812
 13
544.4860614807
 23
31.5835858812
  0
SOLID
  8
0
 62
7
  6
CONTINUOUS
 10
544.6594989807
 20
31.7126401399
 11
544.7751235396
 21
31.5835858812
 12
544.4860614807
 22
31.5835858812
 13
544.4860614807
 23
31.5835858812
  0
SOLID
  8
0
 62
7
  6
CONTINUOUS
 10
534.0798114807
 20
31.6803773084
 11
533.5594989807
 21
31.6481129264
 12
534.3110615082
 22
31.7126401456
 13
534.3110615082
 23
31.7126401456
  0
SOLID
  8
0
 62
7
  6
CONTINUOUS
 10
533.5594989807
 20
31.6481129264
 11
533.6751239738
 21
31.7126401456
 12
534.3110615082
 22
31.7126401456
 13
534.3110615082
 23
31.7126401456
  0
SOLID
  8
0
 62
7
  6
CONTINUOUS
 10
534.0798114807
 20
31.6803773084
 11
533.9641864669
 21
31.6481129264
 12
533.5594989807
 22
31.6481129264
 13
533.5594989807
 23
31.6481129264
  0
SOLID
  8
0
 62
7
  6
CONTINUOUS
 10
533.4438739824
 20
31.5190588248
 11
533.5594989807
 21
31.6481129264
 12
533.9641864669
 22
31.6481129264
 13
533.9641864669
 23
31.6481129264
  0
SOLID
  8
0
 62
7
  6
CONTINUOUS
 10
537.7798115909
 20
31.6481130555
 11
538.4735615909
 21
31.7126400953
 12
538.2423114807
 22
31.6803773084
 13
538.2423114807
 23
31.6803773084
  0
SOLID
  8
0
 62
7
  6
CONTINUOUS
 10
538.2423114807
 20
31.6803773084
 11
538.1266865909
 21
31.6481130555
 12
537.7798115909
 22
31.6481130555
 13
537.7798115909
 23
31.6481130555
  0
SOLID
  8
0
 62
7
  6
CONTINUOUS
 10
537.7798115909
 20
31.5835859653
 11
537.7798115909
 21
31.6481130555
 12
538.1266865909
 22
31.6481130555
 13
538.1266865909
 23
31.6481130555
  0
SOLID
  8
0
 62
7
  6
CONTINUOUS
 10
538.1266865909
 20
31.6481130555
 11
538.0688739807
 21
31.5835859653
 12
537.7798115909
 22
31.5835859653
 13
537.7798115909
 23
31.5835859653
  0
SOLID
  8
0
 62
7
  6
CONTINUOUS
 10
542.9251239807
 20
31.6481130555
 11
543.6188739807
 21
31.7126400953
 12
543.3876242012
 22
31.6803773084
 13
543.3876242012
 23
31.6803773084
  0
SOLID
  8
0
 62
7
  6
CONTINUOUS
 10
543.3876242012
 20
31.6803773084
 11
543.2719989807
 21
31.6481130555
 12
542.9251239807
 22
31.6481130555
 13
542.9251239807
 23
31.6481130555
  0
SOLID
  8
0
 62
7
  6
CONTINUOUS
 10
542.9251239807
 20
31.5835859653
 11
542.9251239807
 21
31.6481130555
 12
543.2719989807
 22
31.6481130555
 13
543.2719989807
 23
31.6481130555
  0
SOLID
  8
0
 62
7
  6
CONTINUOUS
 10
543.2719989807
 20
31.6481130555
 11
543.2141867012
 21
31.5835859653
 12
542.9251239807
 22
31.5835859653
 13
542.9251239807
 23
31.5835859653
  0
SOLID
  8
0
 62
7
  6
CONTINUOUS
 10
543.0407492012
 20
31.4545317347
 11
542.9251239807
 21
31.5835859653
 12
543.2141867012
 22
31.5835859653
 13
543.2141867012
 23
31.5835859653
  0
SOLID
  8
0
 62
7
  6
CONTINUOUS
 10
533.4438739824
 20
31.5190588248
 11
533.9641864669
 21
31.6481130052
 12
533.7907489669
 22
31.5513216117
 13
533.7907489669
 23
31.5513216117
  0
SOLID
  8
0
 62
7
  6
CONTINUOUS
 10
533.7907489669
 20
31.5513216117
 11
533.7329364807
 21
31.4867945216
 12
533.4438739824
 22
31.5190588248
 13
533.4438739824
 23
31.5190588248
  0
SOLID
  8
0
 62
7
  6
CONTINUOUS
 10
533.3860614807
 20
31.325476038
 11
533.4438739824
 21
31.5190588248
 12
533.7329364807
 22
31.4867945216
 13
533.7329364807
 23
31.4867945216
  0
SOLID
  8
0
 62
7
  6
CONTINUOUS
 10
538.2423114807
 20
31.4545317347
 11
538.5891864807
 21
31.4867945557
 12
539.2251242012
 22
31.4867945557
 13
539.2251242012
 23
31.4867945557
  0
SOLID
  8
0
 62
7
  6
CONTINUOUS
 10
538.2423114807
 20
31.4545317347
 11
539.2251242012
 21
31.4867945557
 12
538.0110613704
 22
31.3900038345
 13
538.0110613704
 23
31.3900038345
  0
SOLID
  8
0
 62
7
  6
CONTINUOUS
 10
538.0110613704
 20
31.3900038345
 11
539.2251242012
 21
31.4867945557
 12
538.5891864807
 22
31.3577403754
 13
538.5891864807
 23
31.3577403754
  0
SOLID
  8
0
 62
7
  6
CONTINUOUS
 10
539.2251242012
 20
31.4867945557
 11
539.2251242012
 21
31.3577403754
 12
538.5891864807
 22
31.3577403754
 13
538.5891864807
 23
31.3577403754
  0
SOLID
  8
0
 62
7
  6
CONTINUOUS
 10
543.0407492012
 20
31.4545313481
 11
543.2141867012
 21
31.583585915
 12
543.2719989807
 22
31.5190588248
 13
543.2719989807
 23
31.5190588248
  0
SOLID
  8
0
 62
7
  6
CONTINUOUS
 10
543.2719989807
 20
31.5190588248
 11
543.4454364807
 21
31.4545313481
 12
543.0407492012
 22
31.4545313481
 13
543.0407492012
 23
31.4545313481
  0
SOLID
  8
0
 62
7
  6
CONTINUOUS
 10
543.2719989807
 20
31.3577403412
 11
543.0407492012
 21
31.4545313481
 12
543.4454364807
 22
31.4545313481
 13
543.4454364807
 23
31.4545313481
  0
SOLID
  8
0
 62
7
  6
CONTINUOUS
 10
543.4454364807
 20
31.4545313481
 11
544.4282492012
 21
31.2932132511
 12
543.2719989807
 22
31.3577403412
 13
543.2719989807
 23
31.3577403412
  0
SOLID
  8
0
 62
7
  6
CONTINUOUS
 10
544.2548117012
 20
31.1964222346
 11
543.2719989807
 21
31.3577403412
 12
544.4282492012
 22
31.2932132511
 13
544.4282492012
 23
31.2932132511
  0
SOLID
  8
0
 62
7
  6
CONTINUOUS
 10
544.4282492012
 20
31.2932132511
 11
544.6594989807
 21
31.1964222346
 12
544.2548117012
 22
31.1964222346
 13
544.2548117012
 23
31.1964222346
  0
SOLID
  8
0
 62
7
  6
CONTINUOUS
 10
544.4282492012
 20
31.1318947675
 11
544.2548117012
 21
31.1964222346
 12
544.6594989807
 22
31.1964222346
 13
544.6594989807
 23
31.1964222346
  0
SOLID
  8
0
 62
7
  6
CONTINUOUS
 10
544.4282492012
 20
31.1318947675
 11
544.6594989807
 21
31.1964222346
 12
544.4860614807
 22
31.0673665164
 13
544.4860614807
 23
31.0673665164
  0
SOLID
  8
0
 62
7
  6
CONTINUOUS
 10
544.6594989807
 20
31.1964222346
 11
544.7751235396
 21
31.0673665164
 12
544.4860614807
 22
31.0673665164
 13
544.4860614807
 23
31.0673665164
  0
SOLID
  8
0
 62
7
  6
CONTINUOUS
 10
544.4282492012
 20
31.0028394316
 11
544.4860614807
 21
31.0673665164
 12
544.7751235396
 22
31.0673665164
 13
544.7751235396
 23
31.0673665164
  0
SOLID
  8
0
 62
7
  6
CONTINUOUS
 10
544.7751235396
 20
31.0673665164
 11
544.7751235396
 21
31.0028394316
 12
544.4282492012
 22
31.0028394316
 13
544.4282492012
 23
31.0028394316
  0
SOLID
  8
0
 62
7
  6
CONTINUOUS
 10
544.3126239807
 20
30.9705762839
 11
544.4282492012
 21
31.0028394316
 12
544.7751235396
 22
31.0028394316
 13
544.7751235396
 23
31.0028394316
  0
SOLID
  8
0
 62
7
  6
CONTINUOUS
 10
544.3126239807
 20
30.9705762839
 11
544.7751235396
 21
31.0028394316
 12
544.0813742012
 22
30.9383123468
 13
544.0813742012
 23
30.9383123468
  0
SOLID
  8
0
 62
7
  6
CONTINUOUS
 10
544.7751235396
 20
31.0028394316
 11
544.6594989807
 21
30.9060491937
 12
544.0813742012
 22
30.9383123468
 13
544.0813742012
 23
30.9383123468
  0
SOLID
  8
0
 62
7
  6
CONTINUOUS
 10
544.6594989807
 20
30.9060491937
 11
543.2141867012
 21
30.8737848904
 12
544.0813742012
 22
30.9383123468
 13
544.0813742012
 23
30.9383123468
  0
SOLID
  8
0
 62
7
  6
CONTINUOUS
 10
544.0813742012
 20
30.9383123468
 11
543.2141867012
 21
30.8737848904
 12
543.7344992012
 22
30.9383123468
 13
543.7344992012
 23
30.9383123468
  0
SOLID
  8
0
 62
7
  6
CONTINUOUS
 10
543.2141867012
 20
30.8737848904
 11
543.0407492012
 21
30.9383123468
 12
543.7344992012
 22
30.9383123468
 13
543.7344992012
 23
30.9383123468
  0
SOLID
  8
0
 62
7
  6
CONTINUOUS
 10
543.2141867012
 20
30.8737848904
 11
544.6594989807
 21
30.9060491937
 12
543.3876242012
 22
30.8415205581
 13
543.3876242012
 23
30.8415205581
  0
SOLID
  8
0
 62
7
  6
CONTINUOUS
 10
544.6594989807
 20
30.9060491937
 11
544.4282492012
 21
30.8415205581
 12
543.3876242012
 22
30.8415205581
 13
543.3876242012
 23
30.8415205581
  0
SOLID
  8
0
 62
7
  6
CONTINUOUS
 10
543.7344992012
 20
30.8092581772
 11
543.3876242012
 21
30.8415205581
 12
544.4282492012
 22
30.8415205581
 13
544.4282492012
 23
30.8415205581
  0
SOLID
  8
0
 62
7
  6
CONTINUOUS
 10
544.4282492012
 20
30.8415205581
 11
544.0813742012
 21
30.8092581772
 12
543.7344992012
 22
30.8092581772
 13
543.7344992012
 23
30.8092581772
  0
SOLID
  8
0
 62
7
  6
CONTINUOUS
 10
533.3860614807
 20
31.325476038
 11
533.7329364807
 21
31.4867945216
 12
533.6751239738
 22
31.3577403412
 13
533.6751239738
 23
31.3577403412
  0
SOLID
  8
0
 62
7
  6
CONTINUOUS
 10
533.6751239738
 20
31.3577403412
 11
533.6751239738
 21
31.2609490436
 12
533.3860614807
 22
31.325476038
 13
533.3860614807
 23
31.325476038
  0
SOLID
  8
0
 62
7
  6
CONTINUOUS
 10
533.4438739824
 20
31.1318947675
 11
533.3860614807
 21
31.325476038
 12
533.6751239738
 22
31.2609490436
 13
533.6751239738
 23
31.2609490436
  0
SOLID
  8
0
 62
7
  6
CONTINUOUS
 10
533.6751239738
 20
31.2609490436
 11
533.7907489669
 21
31.0996304642
 12
533.4438739824
 22
31.1318947675
 13
533.4438739824
 23
31.1318947675
  0
SOLID
  8
0
 62
7
  6
CONTINUOUS
 10
533.5594989807
 20
31.0028388804
 11
533.4438739824
 21
31.1318947675
 12
533.7907489669
 22
31.0996304642
 13
533.7907489669
 23
31.0996304642
  0
SOLID
  8
0
 62
7
  6
CONTINUOUS
 10
533.7907489669
 20
31.0996304642
 11
533.9641864669
 21
31.0028388804
 12
533.5594989807
 22
31.0028388804
 13
533.5594989807
 23
31.0028388804
  0
SOLID
  8
0
 62
7
  6
CONTINUOUS
 10
533.6751239738
 20
30.9383122606
 11
533.5594989807
 21
31.0028388804
 12
533.9641864669
 22
31.0028388804
 13
533.9641864669
 23
31.0028388804
  0
SOLID
  8
0
 62
7
  6
CONTINUOUS
 10
533.9641864669
 20
31.0028388804
 11
534.3110615082
 21
30.9383122606
 12
533.6751239738
 22
30.9383122606
 13
533.6751239738
 23
30.9383122606
  0
SOLID
  8
0
 62
7
  6
CONTINUOUS
 10
533.8485614944
 20
30.8737848904
 11
533.6751239738
 21
30.9383122606
 12
534.3110615082
 22
30.9383122606
 13
534.3110615082
 23
30.9383122606
  0
SOLID
  8
0
 62
7
  6
CONTINUOUS
 10
537.8954364807
 20
31.3254759532
 11
538.0110613704
 21
31.3900038345
 12
538.5891864807
 22
31.3577403412
 13
538.5891864807
 23
31.3577403412
  0
SOLID
  8
0
 62
7
  6
CONTINUOUS
 10
538.5891864807
 20
31.3577403412
 11
538.3579363704
 21
31.3254759532
 12
537.8954364807
 22
31.3254759532
 13
537.8954364807
 23
31.3254759532
  0
SOLID
  8
0
 62
7
  6
CONTINUOUS
 10
537.7798115909
 20
31.1964218576
 11
537.8954364807
 21
31.3254759532
 12
538.3579363704
 22
31.3254759532
 13
538.3579363704
 23
31.3254759532
  0
SOLID
  8
0
 62
7
  6
CONTINUOUS
 10
538.1266865909
 20
31.2286853572
 11
537.7798115909
 21
31.1964218576
 12
538.2423114807
 22
31.2932132511
 13
538.2423114807
 23
31.2932132511
  0
SOLID
  8
0
 62
7
  6
CONTINUOUS
 10
537.7798115909
 20
31.1964218576
 11
538.3579363704
 21
31.325476038
 12
538.2423114807
 22
31.2932132511
 13
538.2423114807
 23
31.2932132511
  0
SOLID
  8
0
 62
7
  6
CONTINUOUS
 10
538.1266865909
 20
31.2286853572
 11
538.0688739807
 21
31.1318947675
 12
537.7798115909
 22
31.1964218576
 13
537.7798115909
 23
31.1964218576
  0
SOLID
  8
0
 62
7
  6
CONTINUOUS
 10
537.7798115909
 20
31.0996304642
 11
537.7798115909
 21
31.1964218576
 12
538.0688739807
 22
31.1318947675
 13
538.0688739807
 23
31.1318947675
  0
SOLID
  8
0
 62
7
  6
CONTINUOUS
 10
538.0688739807
 20
31.1318947675
 11
538.0688739807
 21
31.0673661609
 12
537.7798115909
 22
31.0996304642
 13
537.7798115909
 23
31.0996304642
  0
SOLID
  8
0
 62
7
  6
CONTINUOUS
 10
537.8376238704
 20
30.9705762839
 11
537.7798115909
 21
31.0996304642
 12
538.0688739807
 22
31.0673661609
 13
538.0688739807
 23
31.0673661609
  0
SOLID
  8
0
 62
7
  6
CONTINUOUS
 10
539.2251242012
 20
31.1641579843
 11
539.5141862601
 21
31.0673661609
 12
539.1673112601
 22
31.0996304642
 13
539.1673112601
 23
31.0996304642
  0
SOLID
  8
0
 62
7
  6
CONTINUOUS
 10
538.9938737601
 20
31.0028390707
 11
539.1673112601
 21
31.0996304642
 12
539.5141862601
 22
31.0673661609
 13
539.5141862601
 23
31.0673661609
  0
SOLID
  8
0
 62
7
  6
CONTINUOUS
 10
538.9938737601
 20
31.0028390707
 11
539.5141862601
 21
31.0673661609
 12
539.2251242012
 22
30.9705762839
 13
539.2251242012
 23
30.9705762839
  0
SOLID
  8
0
 62
7
  6
CONTINUOUS
 10
539.5141862601
 20
31.0673661609
 11
539.5719992012
 21
30.9060491937
 12
539.2251242012
 22
30.9705762839
 13
539.2251242012
 23
30.9705762839
  0
SOLID
  8
0
 62
7
  6
CONTINUOUS
 10
539.2829364807
 20
30.8737848904
 11
539.2251242012
 21
30.9705762839
 12
539.5719992012
 22
30.9060491937
 13
539.5719992012
 23
30.9060491937
  0
SOLID
  8
0
 62
7
  6
CONTINUOUS
 10
539.2829364807
 20
30.8737848904
 11
539.5719992012
 21
30.9060491937
 12
539.3407487601
 22
30.8092576254
 13
539.3407487601
 23
30.8092576254
  0
SOLID
  8
0
 62
7
  6
CONTINUOUS
 10
539.5719992012
 20
30.9060491937
 11
539.6298114807
 21
30.8092576254
 12
539.3407487601
 22
30.8092576254
 13
539.3407487601
 23
30.8092576254
  0
SOLID
  8
0
 62
7
  6
CONTINUOUS
 10
534.8891865358
 20
31.035103216
 11
534.9469989807
 21
31.1318946289
 12
535.2360615358
 22
31.1318946289
 13
535.2360615358
 23
31.1318946289
  0
SOLID
  8
0
 62
7
  6
CONTINUOUS
 10
535.2360615358
 20
31.1318946289
 11
535.1782489255
 21
31.0028390707
 12
534.8891865358
 22
31.035103216
 13
534.8891865358
 23
31.035103216
  0
SOLID
  8
0
 62
7
  6
CONTINUOUS
 10
534.7157489531
 20
30.9705762839
 11
534.8891865358
 21
31.035103216
 12
535.1782489255
 22
31.0028390707
 13
535.1782489255
 23
31.0028390707
  0
SOLID
  8
0
 62
7
  6
CONTINUOUS
 10
534.7157489531
 20
30.9705762839
 11
535.1782489255
 21
31.0028390707
 12
534.3110615082
 22
30.9383119806
 13
534.3110615082
 23
30.9383119806
  0
SOLID
  8
0
 62
7
  6
CONTINUOUS
 10
535.1782489255
 20
31.0028390707
 11
535.0048114255
 21
30.9060491937
 12
534.3110615082
 22
30.9383119806
 13
534.3110615082
 23
30.9383119806
  0
SOLID
  8
0
 62
7
  6
CONTINUOUS
 10
533.8485614944
 20
30.8737848904
 11
534.3110615082
 21
30.9383119806
 12
535.0048114255
 22
30.9060491937
 13
535.0048114255
 23
30.9060491937
  0
SOLID
  8
0
 62
7
  6
CONTINUOUS
 10
533.8485614944
 20
30.8737848904
 11
535.0048114255
 21
30.9060491937
 12
534.0219989944
 22
30.8415207131
 13
534.0219989944
 23
30.8415207131
  0
SOLID
  8
0
 62
7
  6
CONTINUOUS
 10
535.0048114255
 20
30.9060491937
 11
534.7735614807
 21
30.8415207131
 12
534.0219989944
 22
30.8415207131
 13
534.0219989944
 23
30.8415207131
  0
SOLID
  8
0
 62
7
  6
CONTINUOUS
 10
534.3688739531
 20
30.8092578002
 11
534.0219989944
 21
30.8415207131
 12
534.7735614807
 22
30.8415207131
 13
534.7735614807
 23
30.8415207131
  0
SOLID
  8
0
 62
7
  6
CONTINUOUS
 10
537.8376238704
 20
30.9705762839
 11
538.0688739807
 21
31.0673661609
 12
538.1266865909
 22
31.0028390707
 13
538.1266865909
 23
31.0028390707
  0
SOLID
  8
0
 62
7
  6
CONTINUOUS
 10
538.1266865909
 20
31.0028390707
 11
538.3579363704
 21
30.9383119806
 12
537.8376238704
 22
30.9705762839
 13
537.8376238704
 23
30.9705762839
  0
SOLID
  8
0
 62
7
  6
CONTINUOUS
 10
538.0110613704
 20
30.8737848904
 11
537.8376238704
 21
30.9705762839
 12
538.3579363704
 22
30.9383119806
 13
538.3579363704
 23
30.9383119806
  0
SOLID
  8
0
 62
7
  6
CONTINUOUS
 10
538.7048113704
 20
30.9383119664
 11
538.9938737601
 21
31.0028390707
 12
539.2251242012
 22
30.9705762839
 13
539.2251242012
 23
30.9705762839
  0
SOLID
  8
0
 62
7
  6
CONTINUOUS
 10
539.2251242012
 20
30.9705762839
 11
539.1673112601
 21
30.9060491937
 12
538.7048113704
 22
30.9383119664
 13
538.7048113704
 23
30.9383119664
  0
SOLID
  8
0
 62
7
  6
CONTINUOUS
 10
539.1673112601
 20
30.9060491937
 11
538.0110613704
 21
30.8737848904
 12
538.7048113704
 22
30.9383119664
 13
538.7048113704
 23
30.9383119664
  0
SOLID
  8
0
 62
7
  6
CONTINUOUS
 10
538.0110613704
 20
30.8737848904
 11
538.3579363704
 21
30.9383119664
 12
538.7048113704
 22
30.9383119664
 13
538.7048113704
 23
30.9383119664
  0
SOLID
  8
0
 62
7
  6
CONTINUOUS
 10
538.0110613704
 20
30.8737848904
 11
539.1673112601
 21
30.9060491937
 12
538.1266865909
 22
30.8415205568
 13
538.1266865909
 23
30.8415205568
  0
SOLID
  8
0
 62
7
  6
CONTINUOUS
 10
539.1673112601
 20
30.9060491937
 11
538.9938737601
 21
30.8415205568
 12
538.1266865909
 22
30.8415205568
 13
538.1266865909
 23
30.8415205568
  0
SOLID
  8
0
 62
7
  6
CONTINUOUS
 10
538.3579363704
 20
30.8092577215
 11
538.1266865909
 21
30.8415205568
 12
538.9938737601
 22
30.8415205568
 13
538.9938737601
 23
30.8415205568
  0
SOLID
  8
0
 62
7
  6
CONTINUOUS
 10
538.9938737601
 20
30.8415205568
 11
538.7048113704
 21
30.8092577215
 12
538.3579363704
 22
30.8092577215
 13
538.3579363704
 23
30.8092577215
  0
SOLID
  8
0
 62
7
  6
CONTINUOUS
 10
543.3876242012
 20
30.9705762839
 11
543.0407492012
 21
30.9383119664
 12
543.2719989807
 22
31.0028390707
 13
543.2719989807
 23
31.0028390707
  0
SOLID
  8
0
 62
7
  6
CONTINUOUS
 10
543.2719989807
 20
31.0028390707
 11
543.0407492012
 21
30.9383119664
 12
543.2141867012
 22
31.0673661467
 13
543.2141867012
 23
31.0673661467
  0
SOLID
  8
0
 62
7
  6
CONTINUOUS
 10
543.0407492012
 20
30.9383119664
 11
542.9251239807
 21
31.0673661467
 12
543.2141867012
 22
31.0673661467
 13
543.2141867012
 23
31.0673661467
  0
SOLID
  8
0
 62
7
  6
CONTINUOUS
 10
543.3876242012
 20
30.9705762839
 11
543.7344992012
 21
30.9383119664
 12
543.0407492012
 22
30.9383119664
 13
543.0407492012
 23
30.9383119664
  0
SOLID
  8
0
 62
7
  6
CONTINUOUS
 10
540.0923117012
 20
30.8092578002
 11
540.0923117012
 21
31.841695792
 12
540.3813737601
 22
30.8092578002
 13
540.3813737601
 23
31.841695792
  0
ENDBLK
  8
0
  6
BYBLOCK
 62
0
  0
BLOCK
  8
0
 62
2
  6
CONTINUOUS
  2
AMMEAAL_LOGO_BL0
 70
64
 10
416.1419631151
 20
19.7009994242
  0
TEXT
  8
0
 62
7
  6
CONTINUOUS
 10
402.4066669574
 20
19.0744135318
  7
TEXTSTYLE_3
 40
2.7338706658
  1
Ammeraal Beltech
 41
1.0
 51
15.0
 72
0
  0
TEXT
  8
0
 62
7
  6
CONTINUOUS
 10
413.2074677831
 20
16.800876859
  7
TEXTSTYLE_4
 40
1.0935482663
  1
Innovation & Service in Belting
 41
1.0
 72
0
  0
LINE
  8
0
 62
7
  6
CONTINUOUS
 10
396.382126306
 20
19.8410068404
 11
397.1602782994
 21
23.5019241381
  0
LINE
  8
0
 62
7
  6
CONTINUOUS
 10
407.2554465892
 20
27.1653180497
 11
397.6480960424
 21
24.0437006284
  0
LINE
  8
0
 62
7
  6
CONTINUOUS
 10
396.6074096383
 20
19.1476560374
 11
404.1144848995
 21
12.3882551114
  0
LINE
  8
0
 62
7
  6
CONTINUOUS
 10
396.869944049
 20
20.3827833308
 11
407.6782134142
 21
23.8946029297
  0
LINE
  8
0
 62
7
  6
CONTINUOUS
 10
407.674008277
 20
13.544814366
 11
399.2285486083
 21
21.1491404077
  0
LINE
  8
0
 62
7
  6
CONTINUOUS
 10
408.1938309968
 20
26.320392934
 11
407.2172714596
 21
21.7260415315
  0
LINE
  8
0
 62
7
  6
CONTINUOUS
 10
406.5174695119
 20
18.4337322177
 11
405.8310213004
 21
15.2042472933
  0
LINE
  8
0
 62
7
  6
CONTINUOUS
 10
408.8749270954
 20
13.9350165436
 11
409.831158631
 21
18.4337322177
  0
LINE
  8
0
 62
7
  6
CONTINUOUS
 10
410.5309605787
 20
21.7260415315
 11
410.9752023811
 21
23.8160348909
  0
LINE
  8
0
 62
7
  6
CONTINUOUS
 10
404.8275859748
 20
12.2366807987
 11
408.3871093524
 21
13.3932400533
  0
LINE
  8
0
 62
7
  6
CONTINUOUS
 10
407.9685476645
 20
27.013743737
 11
410.7499190488
 21
24.5093856939
  0
ARC
  8
0
 62
7
  6
CONTINUOUS
 10
397.8733793747
 20
23.3503498254
 40
0.7290321776
 50
108.0
 51
168.0
  0
ARC
  8
0
 62
7
  6
CONTINUOUS
 10
407.4807299215
 20
26.4719672466
 40
0.7290321776
 50
348.0
 51
108.0
  0
ARC
  8
0
 62
7
  6
CONTINUOUS
 10
410.2621013058
 20
23.9676092036
 40
0.7290321776
 50
348.0
 51
48.0
  0
ARC
  8
0
 62
7
  6
CONTINUOUS
 10
404.6023026425
 20
12.9300316018
 40
0.7290321776
 50
228.0
 51
288.0
  0
ARC
  8
0
 62
7
  6
CONTINUOUS
 10
397.0952273813
 20
19.6894325277
 40
0.7290321776
 50
108.0
 51
228.0
  0
ARC
  8
0
 62
7
  6
CONTINUOUS
 10
408.1618260201
 20
14.0865908563
 40
0.7290321776
 50
228.0
 51
348.0
  0
ENDBLK
  8
0
  6
BYBLOCK
 62
0
  0
ENDSEC
  0
SECTION
  2
ENTITIES
  0
TEXT
  8
0
 62
5
  6
CONTINUOUS
 10
480.0
 20
25.636
  7
TEXTSTYLE_2
 40
2.8
  1
Scale :
 41
0.6
 51
0.000019
 72
0
  0
TEXT
  8
0
 62
5
  6
CONTINUOUS
 10
500.0
 20
25.636
  7
TEXTSTYLE_2
 40
2.8
  1
Belt type:
 41
0.6
 51
0.000019
 72
0
  0
INSERT
  8
0
 62
2
  6
CONTINUOUS
  2
AMMEAAL_LOGO_BL0
 10
416.1419631151
 20
19.7009994242
  0
INSERT
  8
0
 62
2
  6
CONTINUOUS
  2
UNI_LOGO2_BL1
 10
557.4079930916
 20
35.8092573885
  0
LINE
  8
0
 62
2
  6
CONTINUOUS
 10
394.0
 20
30.0
 11
584.0
 21
30.0
  0
LINE
  8
0
 62
2
  6
CONTINUOUS
 10
394.0
 20
30.0
 11
394.0
 21
10.0
  0
LINE
  8
0
 62
2
  6
CONTINUOUS
 10
394.0
 20
10.0
 11
584.0
 21
10.0
  0
LINE
  8
0
 62
2
  6
CONTINUOUS
 10
479.0
 20
30.0
 11
479.0
 21
10.0
  0
LINE
  8
0
 62
2
  6
CONTINUOUS
 10
499.0
 20
30.0
 11
499.0
 21
10.0
  0
LINE
  8
0
 62
2
  6
CONTINUOUS
 10
584.0
 20
30.0
 11
584.0
 21
10.0
  0
TEXT
  8
0
 62
5
  6
CONTINUOUS
 10
397.0
 20
23.303
  7
TEXTSTYLE_5
 40
1.52
  1
                                                                     Ammeraal Beltech Modular A/S
 41
1.0
 72
0
  0
TEXT
  8
0
 62
5
  6
CONTINUOUS
 10
397.0
 20
20.595
  7
TEXTSTYLE_5
 40
1.5
  1
                                                                      Hjulmagervej 21, 7100 Vejle,  DK
 41
1.0
 72
0
  0
TEXT
  8
0
 62
5
  6
CONTINUOUS
 10
397.0
 20
17.881
  7
TEXTSTYLE_5
 40
1.495
  1
                                                                      tel: 
 41
1.0
 72
0
  0
TEXT
  8
0
 62
5
  6
CONTINUOUS
 10
441.9869465649
 20
17.881
  7
TEXTSTYLE_5
 40
1.51
  1
+45 75723100     fax: +45 75723348
 41
1.0
 72
0
  0
TEXT
  8
0
 62
5
  6
CONTINUOUS
 10
397.0
 20
15.177
  7
TEXTSTYLE_5
 40
1.5
  1
                                                                      admin@unichains.dk  www.unichains.com
 41
1.0
 72
0
  0
TEXT
  8
0
 62
5
  6
CONTINUOUS
 10
483.75
 20
13.75
  7
TEXTSTYLE_6
 40
5.0
  1
1:1
 41
0.7
 72
1
 11
489.0
 21
13.75
  0
TEXT
  8
0
 62
5
  6
CONTINUOUS
 10
502.0
 20
13.75
  7
TEXTSTYLE_7
 40
7.5
  1
Sprocket Z16 60X60SQ 
 41
0.5178571429
 72
0
  0
LINE
  8
0
 62
7
  6
CONTINUOUS
 10
0.0
 20
0.0
 11
0.0
 21
420.0
  0
LINE
  8
0
 62
7
  6
CONTINUOUS
 10
10.0
 20
10.0
 11
10.0
 21
410.0
  0
LINE
  8
0
 62
7
  6
CONTINUOUS
 10
0.0
 20
0.0
 11
594.0
 21
0.0
  0
LINE
  8
0
 62
7
  6
CONTINUOUS
 10
10.0
 20
10.0
 11
584.0
 21
10.0
  0
LINE
  8
0
 62
7
  6
CONTINUOUS
 10
394.0
 20
30.0
 11
584.0
 21
30.0
  0
LINE
  8
0
 62
7
  6
CONTINUOUS
 10
179.0
 20
5.0
 11
179.0
 21
10.0
  0
LINE
  8
0
 62
7
  6
CONTINUOUS
 10
179.0
 20
410.0
 11
179.0
 21
415.0
  0
LINE
  8
0
 62
7
  6
CONTINUOUS
 10
594.0
 20
420.0
 11
584.0
 21
410.0
  0
LINE
  8
0
 62
7
  6
CONTINUOUS
 10
384.0
 20
410.0
 11
384.0
 21
415.0
  0
LINE
  8
0
 62
7
  6
CONTINUOUS
 10
584.0
 20
297.0
 11
589.0
 21
297.0
  0
LINE
  8
0
 62
7
  6
CONTINUOUS
 10
10.0
 20
410.0
 11
584.0
 21
410.0
  0
LINE
  8
0
 62
7
  6
CONTINUOUS
 10
0.0
 20
420.0
 11
594.0
 21
420.0
  0
LINE
  8
0
 62
7
  6
CONTINUOUS
 10
584.0
 20
10.0
 11
584.0
 21
410.0
  0
LINE
  8
0
 62
7
  6
CONTINUOUS
 10
594.0
 20
0.0
 11
594.0
 21
420.0
  0
LINE
  8
0
 62
7
  6
CONTINUOUS
 10
113.1988733789
 20
245.825485257
 11
113.1988733789
 21
227.8159575143
  0
LINE
  8
0
 62
7
  6
CONTINUOUS
 10
119.2154358947
 20
280.5837321138
 11
112.3234880028
 21
263.9450980421
  0
LINE
  8
0
 62
7
  6
CONTINUOUS
 10
138.0754200692
 20
310.3937261762
 11
125.3407608763
 21
297.6590669834
  0
LINE
  8
0
 62
7
  6
CONTINUOUS
 10
166.9075642781
 20
330.7171660765
 11
150.2689302064
 21
323.8252181846
  0
LINE
  8
0
 62
7
  6
CONTINUOUS
 10
205.8333804442
 20
157.7019227064
 11
223.8429081869
 21
157.7019227064
  0
LINE
  8
0
 62
7
  6
CONTINUOUS
 10
171.0751335874
 20
163.7184852221
 11
187.7137676591
 21
156.8265373303
  0
LINE
  8
0
 62
7
  6
CONTINUOUS
 10
141.265139525
 20
182.5784693967
 11
153.9997987178
 21
169.8438102038
  0
LINE
  8
0
 62
7
  6
CONTINUOUS
 10
120.9416996247
 20
211.4106136055
 11
127.8336475166
 21
194.7719795339
  0
LINE
  8
DEFAULT_2
 62
8
  6
HIDDEN
 10
172.6552284829
 20
325.9678371274
 11
173.1025675619
 21
326.2550201713
  0
LINE
  8
DEFAULT_2
 62
8
  6
HIDDEN
 10
173.210777051
 20
324.2436192818
 11
173.658111683
 21
324.5308006049
  0
LINE
  8
DEFAULT_2
 62
8
  6
HIDDEN
 10
182.0195837985
 20
329.0654090321
 11
182.4985694328
 21
329.2959608645
  0
LINE
  8
DEFAULT_2
 62
8
  6
HIDDEN
 10
173.1025675619
 20
326.2550201713
 11
173.4911511329
 21
326.4053950193
  0
LINE
  8
DEFAULT_2
 62
8
  6
HIDDEN
 10
173.7802645143
 20
325.9469223346
 11
173.1973869343
 21
325.7213592022
  0
LINE
  8
DEFAULT_2
 62
8
  6
HIDDEN
 10
172.6505821128
 20
324.8253303466
 11
172.1648493138
 21
324.6373604959
  0
LINE
  8
DEFAULT_2
 62
8
  6
HIDDEN
 10
173.658111683
 20
324.5308006049
 11
174.143844482
 21
324.7187704555
  0
LINE
  8
DEFAULT_2
 62
8
  6
HIDDEN
 10
174.4329578634
 20
324.2602977709
 11
173.7529355024
 21
323.9971413567
  0
LINE
  8
DEFAULT_2
 62
8
  6
HIDDEN
 10
174.5208099849
 20
322.0128772826
 11
175.2008323459
 21
322.2760336968
  0
LINE
  8
DEFAULT_2
 62
8
  6
HIDDEN
 10
192.4067715518
 20
331.1338553699
 11
192.9102743153
 21
331.3043439395
  0
LINE
  8
DEFAULT_2
 62
8
  6
HIDDEN
 10
192.5288946543
 20
329.3264682139
 11
193.032402149
 21
329.4969573781
  0
LINE
  8
DEFAULT_2
 62
8
  6
HIDDEN
 10
177.7046638976
 20
327.897220887
 11
178.4986556197
 21
328.1502510013
  0
LINE
  8
DEFAULT_2
 62
8
  6
HIDDEN
 10
178.2097743713
 20
324.5969042676
 11
179.9962523386
 21
325.1662209388
  0
LINE
  8
DEFAULT_2
 62
8
  6
HIDDEN
 10
180.2247062052
 20
324.7924074003
 11
178.2397291715
 21
324.1598328385
  0
LINE
  8
DEFAULT_2
 62
8
  6
HIDDEN
 10
172.2846768442
 20
325.4822276969
 11
172.6552284829
 21
325.9678371274
  0
LINE
  8
DEFAULT_2
 62
8
  6
HIDDEN
 10
172.8402254123
 20
323.7580098513
 11
173.210777051
 21
324.2436192818
  0
LINE
  8
DEFAULT_2
 62
8
  6
HIDDEN
 10
173.1973869343
 20
325.7213592022
 11
172.9443418644
 21
325.5093644427
  0
LINE
  8
DEFAULT_2
 62
8
  6
HIDDEN
 10
173.7529355024
 20
323.9971413567
 11
173.4998904325
 21
323.7851465972
  0
LINE
  8
DEFAULT_2
 62
8
  6
HIDDEN
 10
175.2008323459
 20
322.2760336968
 11
175.4538774159
 21
322.4880284563
  0
LINE
  8
DEFAULT_2
 62
8
  6
HIDDEN
 10
191.9297911289
 20
330.7522604116
 11
192.4067715518
 21
331.1338553699
  0
LINE
  8
DEFAULT_2
 62
8
  6
HIDDEN
 10
192.0519189626
 20
328.9448738502
 11
192.5288946543
 21
329.3264682139
  0
LINE
  8
DEFAULT_2
 62
8
  6
HIDDEN
 10
182.5276808136
 20
328.7547249848
 11
182.2506965489
 21
328.57513294
  0
LINE
  8
DEFAULT_2
 62
8
  6
HIDDEN
 10
175.7429952678
 20
322.0295574317
 11
175.2956561923
 21
321.7423743791
  0
LINE
  8
DEFAULT_2
 62
8
  6
HIDDEN
 10
192.8732396811
 20
330.7635924386
 11
192.5764415449
 21
330.6190779002
  0
LINE
  8
DEFAULT_2
 62
8
  6
HIDDEN
 10
192.9953675148
 20
328.9562058771
 11
192.6985693786
 21
328.8116913387
  0
LINE
  8
DEFAULT_2
 62
8
  6
HIDDEN
 10
193.9841139184
 20
326.9360580122
 11
194.2809120546
 21
327.0805725506
  0
LINE
  8
DEFAULT_2
 62
8
  6
HIDDEN
 10
214.8299052843
 20
330.4815036518
 11
214.4895107496
 21
330.3170130666
  0
LINE
  8
DEFAULT_2
 62
8
  6
HIDDEN
 10
209.1324340137
 20
329.2560048714
 11
209.3492144942
 21
329.3439082204
  0
LINE
  8
DEFAULT_2
 62
8
  6
HIDDEN
 10
175.2956561923
 20
321.7423743791
 11
174.8099233933
 21
321.5544045285
  0
LINE
  8
DEFAULT_2
 62
8
  6
HIDDEN
 10
194.4505820558
 20
326.5657950162
 11
193.9470792935
 21
326.3953064374
  0
LINE
  8
DEFAULT_2
 62
8
  6
HIDDEN
 10
214.3773226739
 20
330.9790103166
 11
214.8207518552
 21
331.1281802748
  0
LINE
  8
DEFAULT_2
 62
8
  6
HIDDEN
 10
216.5177312875
 20
326.251087622
 11
216.0743021021
 21
326.1019176361
  0
LINE
  8
DEFAULT_2
 62
8
  6
HIDDEN
 10
181.6048123107
 20
323.8923685357
 11
181.009319655
 21
323.702596312
  0
LINE
  8
DEFAULT_2
 62
8
  6
HIDDEN
 10
178.2303554424
 20
322.8169930837
 11
177.6348627866
 21
322.62722086
  0
LINE
  8
DEFAULT_2
 62
8
  6
HIDDEN
 10
172.9443418644
 20
325.5093644427
 11
172.7296905146
 21
325.1981564899
  0
LINE
  8
DEFAULT_2
 62
8
  6
HIDDEN
 10
173.4998904325
 20
323.7851465972
 11
173.2852390827
 21
323.4739386444
  0
LINE
  8
DEFAULT_2
 62
8
  6
HIDDEN
 10
175.4538774159
 20
322.4880284563
 11
175.6685287657
 21
322.7992364091
  0
LINE
  8
DEFAULT_2
 62
8
  6
HIDDEN
 10
176.1135424495
 20
322.5151651674
 11
175.7429952678
 21
322.0295574317
  0
LINE
  8
DEFAULT_2
 62
8
  6
HIDDEN
 10
181.6936390518
 20
328.6540335327
 11
182.0195837985
 21
329.0654090321
  0
LINE
  8
DEFAULT_2
 62
8
  6
HIDDEN
 10
192.5764415449
 20
330.6190779002
 11
192.2929069446
 21
330.3690104647
  0
LINE
  8
DEFAULT_2
 62
8
  6
HIDDEN
 10
192.6985693786
 20
328.8116913387
 11
192.4150347783
 21
328.5616239032
  0
LINE
  8
DEFAULT_2
 62
8
  6
HIDDEN
 10
194.2809120546
 20
327.0805725506
 11
194.5644466549
 21
327.3306399861
  0
LINE
  8
DEFAULT_2
 62
8
  6
HIDDEN
 10
194.9275624752
 20
326.9473900022
 11
194.4505820558
 21
326.5657950162
  0
LINE
  8
DEFAULT_2
 62
8
  6
HIDDEN
 10
213.9026005396
 20
330.6193882428
 11
214.3773226739
 21
330.9790103166
  0
LINE
  8
DEFAULT_2
 62
8
  6
HIDDEN
 10
209.3170623682
 20
331.3756387606
 11
209.7598523705
 21
331.6574273452
  0
LINE
  8
DEFAULT_2
 62
8
  6
HIDDEN
 10
216.0651486826
 20
326.7485943236
 11
216.4055432282
 21
326.9130849825
  0
LINE
  8
DEFAULT_2
 62
8
  6
HIDDEN
 10
172.1468129345
 20
324.9725933575
 11
172.2846768442
 21
325.4822276969
  0
LINE
  8
DEFAULT_2
 62
8
  6
HIDDEN
 10
181.4947220265
 20
328.1649878963
 11
181.6936390518
 21
328.6540335327
  0
LINE
  8
DEFAULT_2
 62
8
  6
HIDDEN
 10
172.6639677826
 20
323.3475887053
 11
172.8402254123
 21
323.7580098513
  0
LINE
  8
DEFAULT_2
 62
8
  6
HIDDEN
 10
173.2852390827
 20
323.4739386444
 11
173.1677325138
 21
323.2003239734
  0
LINE
  8
DEFAULT_2
 62
8
  6
HIDDEN
 10
191.6727836004
 20
330.291087182
 11
191.9297911289
 21
330.7522604116
  0
LINE
  8
DEFAULT_2
 62
8
  6
HIDDEN
 10
182.2506965489
 20
328.57513294
 11
182.1007353821
 21
328.3178695917
  0
LINE
  8
DEFAULT_2
 62
8
  6
HIDDEN
 10
191.7816478982
 20
328.5892535177
 11
192.0519189626
 21
328.9448738502
  0
LINE
  8
DEFAULT_2
 62
8
  6
HIDDEN
 10
192.4150347783
 20
328.5616239032
 11
192.2348524916
 21
328.3245434834
  0
LINE
  8
DEFAULT_2
 62
8
  6
HIDDEN
 10
208.9688154815
 20
330.9788293312
 11
209.3170623682
 21
331.3756387606
  0
LINE
  8
DEFAULT_2
 62
8
  6
HIDDEN
 10
208.784187127
 20
328.8591954419
 11
209.1324340137
 21
329.2560048714
  0
LINE
  8
DEFAULT_2
 62
8
  6
HIDDEN
 10
209.808238404
 20
331.0124981022
 11
209.582226507
 21
330.8186130736
  0
LINE
  8
DEFAULT_2
 62
8
  6
HIDDEN
 10
209.6236100495
 20
328.892864213
 11
209.3975981525
 21
328.6989791843
  0
LINE
  8
DEFAULT_2
 62
8
  6
HIDDEN
 10
216.9924522482
 20
326.6107099079
 11
216.5177312875
 21
326.251087622
  0
LINE
  8
DEFAULT_2
 62
8
  6
HIDDEN
 10
230.1584659475
 20
325.427010992
 11
230.4266480721
 21
325.5564342701
  0
LINE
  8
DEFAULT_2
 62
8
  6
HIDDEN
 10
230.7102550194
 20
325.1148072835
 11
230.4420728948
 21
324.9853840054
  0
LINE
  8
DEFAULT_2
 62
8
  6
HIDDEN
 10
235.639130803
 20
320.8902112433
 11
235.2276284625
 21
320.7164927782
  0
LINE
  8
DEFAULT_2
 62
8
  6
HIDDEN
 10
172.7296905146
 20
325.1981564899
 11
172.6505821128
 21
324.8253303466
  0
LINE
  8
DEFAULT_2
 62
8
  6
HIDDEN
 10
175.6685287657
 20
322.7992364091
 11
175.7476415875
 21
323.1720643428
  0
LINE
  8
DEFAULT_2
 62
8
  6
HIDDEN
 10
176.2514063457
 20
323.0247995415
 11
176.1135424495
 21
322.5151651674
  0
LINE
  8
DEFAULT_2
 62
8
  6
HIDDEN
 10
192.2929069446
 20
330.3690104647
 11
192.1259881938
 21
330.0263771478
  0
LINE
  8
DEFAULT_2
 62
8
  6
HIDDEN
 10
194.5644466549
 20
327.3306399861
 11
194.7313653964
 21
327.673273377
  0
LINE
  8
DEFAULT_2
 62
8
  6
HIDDEN
 10
195.1845699991
 20
327.4085632688
 11
194.9275624752
 21
326.9473900022
  0
LINE
  8
DEFAULT_2
 62
8
  6
HIDDEN
 10
216.4055432282
 20
326.9130849825
 11
216.6585495928
 21
327.1981222525
  0
LINE
  8
DEFAULT_2
 62
8
  6
HIDDEN
 10
235.0626107099
 20
321.1315607938
 11
235.3780264255
 21
321.3455042003
  0
LINE
  8
DEFAULT_2
 62
8
  6
HIDDEN
 10
172.661642374
 20
322.7763344544
 11
172.6639677826
 21
323.3475887053
  0
LINE
  8
DEFAULT_2
 62
8
  6
HIDDEN
 10
191.6412562192
 20
328.0355144066
 11
191.7816478982
 21
328.5892535177
  0
LINE
  8
DEFAULT_2
 62
8
  6
HIDDEN
 10
217.2611062794
 20
327.0009731341
 11
216.9924522482
 21
326.6107099079
  0
LINE
  8
0
 62
7
  6
CONTINUOUS
 10
197.1652891076
 20
284.8696710829
 11
166.5140632746
 21
252.641936554
  0
LINE
  8
DEFAULT_2
 62
8
  6
HIDDEN
 10
233.3880565075
 20
321.7172533868
 11
232.9904791863
 21
321.307047879
  0
LINE
  8
DEFAULT_2
 62
8
  6
HIDDEN
 10
232.5100456981
 20
321.5081725367
 11
232.6882941047
 21
321.6642096834
  0
LINE
  8
DEFAULT_2
 62
8
  6
HIDDEN
 10
235.817379022
 20
321.0462484483
 11
235.639130803
 21
320.8902112433
  0
LINE
  8
0
 62
7
  6
CONTINUOUS
 10
166.7891946183
 20
241.6683384351
 11
199.0169291472
 21
211.017112602
  0
LINE
  8
DEFAULT_2
 62
8
  6
HIDDEN
 10
172.1648493138
 20
324.6373604959
 11
172.1468129345
 21
324.9725933575
  0
LINE
  8
DEFAULT_2
 62
8
  6
HIDDEN
 10
173.1677325138
 20
323.2003239734
 11
173.1857689469
 21
322.8650909728
  0
LINE
  8
DEFAULT_2
 62
8
  6
HIDDEN
 10
175.7476415875
 20
323.1720643428
 11
175.7296052083
 21
323.5072972044
  0
LINE
  8
DEFAULT_2
 62
8
  6
HIDDEN
 10
176.2537317274
 20
323.5960538618
 11
176.2514063457
 21
323.0247995415
  0
LINE
  8
DEFAULT_2
 62
8
  6
HIDDEN
 10
178.2308686353
 20
327.6182949082
 11
178.2097743713
 21
324.5969042676
  0
LINE
  8
DEFAULT_2
 62
8
  6
HIDDEN
 10
178.2397291715
 20
324.1598328385
 11
178.2303554424
 21
322.8169930837
  0
LINE
  8
DEFAULT_2
 62
8
  6
HIDDEN
 10
177.6348627866
 20
322.62722086
 11
177.7046638976
 21
327.897220887
  0
LINE
  8
DEFAULT_2
 62
8
  6
HIDDEN
 10
181.4717885811
 20
327.8300544111
 11
181.4947220265
 21
328.1649878963
  0
LINE
  8
DEFAULT_2
 62
8
  6
HIDDEN
 10
182.1007353821
 20
328.3178695917
 11
182.0778019367
 21
327.9829361064
  0
LINE
  8
DEFAULT_2
 62
8
  6
HIDDEN
 10
191.6092218944
 20
329.9614414752
 11
191.6727836004
 21
330.291087182
  0
LINE
  8
DEFAULT_2
 62
8
  6
HIDDEN
 10
192.2348524916
 20
328.3245434834
 11
192.1712908042
 21
327.9948976287
  0
LINE
  8
DEFAULT_2
 62
8
  6
HIDDEN
 10
194.7313653964
 20
327.673273377
 11
194.7949271024
 21
328.0029190838
  0
LINE
  8
DEFAULT_2
 62
8
  6
HIDDEN
 10
195.3249616688
 20
327.9623024538
 11
195.1845699991
 21
327.4085632688
  0
LINE
  8
DEFAULT_2
 62
8
  6
HIDDEN
 10
208.8373490753
 20
330.6699232507
 11
208.9688154815
 21
330.9788293312
  0
LINE
  8
DEFAULT_2
 62
8
  6
HIDDEN
 10
209.582226507
 20
330.8186130736
 11
209.450760075
 21
330.5097066962
  0
LINE
  8
DEFAULT_2
 62
8
  6
HIDDEN
 10
208.6527207079
 20
328.550289213
 11
208.784187127
 21
328.8591954419
  0
LINE
  8
DEFAULT_2
 62
8
  6
HIDDEN
 10
209.3975981525
 20
328.6989791843
 11
209.2661317334
 21
328.3900729554
  0
LINE
  8
DEFAULT_2
 62
8
  6
HIDDEN
 10
214.4895107496
 20
330.3170130666
 11
214.3395389878
 21
330.0166548748
  0
LINE
  8
DEFAULT_2
 62
8
  6
HIDDEN
 10
221.0059874749
 20
329.7199341497
 11
219.489478277
 21
327.106613231
  0
LINE
  8
DEFAULT_2
 62
8
  6
HIDDEN
 10
219.2987665702
 20
326.7122057357
 11
218.6247628812
 21
325.5507297375
  0
LINE
  8
DEFAULT_2
 62
8
  6
HIDDEN
 10
218.0135353355
 20
325.6812130213
 11
220.6873413392
 21
330.2230780466
  0
LINE
  8
DEFAULT_2
 62
8
  6
HIDDEN
 10
232.6882941047
 20
321.6642096834
 11
232.9487037877
 21
322.0165091097
  0
LINE
  8
DEFAULT_2
 62
8
  6
HIDDEN
 10
229.9521580728
 20
325.162164214
 11
230.1584659475
 21
325.427010992
  0
LINE
  8
DEFAULT_2
 62
8
  6
HIDDEN
 10
235.3780264255
 20
321.3455042003
 11
235.5973554216
 21
321.5996724668
  0
LINE
  8
0
 62
7
  6
CONTINUOUS
 10
193.8774155512
 20
148.0239358788
 11
194.1252204838
 21
142.3482698025
  0
LINE
  8
DEFAULT_2
 62
8
  6
HIDDEN
 10
195.3354692126
 20
328.7141598967
 11
195.3249616688
 21
327.9623024538
  0
LINE
  8
DEFAULT_2
 62
8
  6
HIDDEN
 10
213.7213358247
 20
330.1085779354
 11
213.9026005396
 21
330.6193882428
  0
LINE
  8
DEFAULT_2
 62
8
  6
HIDDEN
 10
217.4423721297
 20
327.5117829713
 11
217.2611062794
 21
327.0009731341
  0
LINE
  8
0
 62
7
  6
CONTINUOUS
 10
156.3256571138
 20
159.3525409587
 11
154.382615644
 21
154.0140783953
  0
LINE
  8
DEFAULT_2
 62
8
  6
HIDDEN
 10
216.6585495928
 20
327.1981222525
 11
216.8241689665
 21
327.6037060319
  0
LINE
  8
DEFAULT_2
 62
8
  6
HIDDEN
 10
229.6736342265
 20
324.6971819935
 11
229.9521580728
 21
325.162164214
  0
LINE
  8
DEFAULT_2
 62
8
  6
HIDDEN
 10
230.4420728948
 20
324.9853840054
 11
230.1635484879
 21
324.5204019873
  0
LINE
  8
DEFAULT_2
 62
8
  6
HIDDEN
 10
236.0777888067
 20
321.3985478522
 11
235.817379022
 21
321.0462484483
  0
LINE
  8
0
 62
7
  6
CONTINUOUS
 10
125.9676255596
 20
184.1892431341
 11
122.1295481374
 21
180.0007166155
  0
LINE
  8
0
 62
7
  6
CONTINUOUS
 10
107.4250559963
 20
218.752879644
 11
102.2762551172
 21
216.3519543637
  0
LINE
  8
0
 62
7
  6
CONTINUOUS
 10
303.6349298224
 20
238.3804648787
 11
309.3105958987
 21
238.6282698112
  0
LINE
  8
0
 62
7
  6
CONTINUOUS
 10
292.3063247425
 20
200.8287064413
 11
297.6447873059
 21
198.8856649715
  0
LINE
  8
0
 62
7
  6
CONTINUOUS
 10
267.4696225672
 20
170.470674887
 11
271.6581490857
 21
166.6325974649
  0
LINE
  8
0
 62
7
  6
CONTINUOUS
 10
232.9059860572
 20
151.9281053238
 11
235.3069113375
 21
146.7793044447
  0
LINE
  8
DEFAULT_2
 62
8
  6
HIDDEN
 10
176.0821204139
 20
324.3281396355
 11
176.2537317274
 21
323.5960538618
  0
LINE
  8
DEFAULT_2
 62
8
  6
HIDDEN
 10
196.4326284673
 20
326.6632857454
 11
196.0193150079
 21
331.6461736615
  0
LINE
  8
DEFAULT_2
 62
8
  6
HIDDEN
 10
196.7125248401
 20
330.8496866133
 11
197.0554870808
 21
326.7149497307
  0
LINE
  8
DEFAULT_2
 62
8
  6
HIDDEN
 10
197.3265919273
 20
331.0073696749
 11
197.3969431707
 21
330.1592183443
  0
LINE
  8
DEFAULT_2
 62
8
  6
HIDDEN
 10
198.5085790575
 20
326.8495355491
 11
198.4844116144
 21
327.4873757379
  0
LINE
  8
DEFAULT_2
 62
8
  6
HIDDEN
 10
198.3474627665
 20
331.101803574
 11
198.3192674196
 21
331.8459503741
  0
LINE
  8
0
 62
2
  6
CONTINUOUS
 10
203.5779081869
 20
249.5659575143
 11
203.5779081869
 21
246.5959575143
  0
LINE
  8
DEFAULT_1
 62
2
  6
CENTER
 10
203.5779081869
 20
240.6559575143
 11
203.5779081869
 21
158.1769227064
  0
LINE
  8
DEFAULT_1
 62
2
  6
CENTER
 10
203.5779081869
 20
255.5059575143
 11
203.5779081869
 21
337.9849923223
  0
LINE
  8
DEFAULT_2
 62
8
  6
HIDDEN
 10
208.6065636257
 20
328.020380815
 11
208.6527207079
 21
328.550289213
  0
LINE
  8
DEFAULT_2
 62
8
  6
HIDDEN
 10
208.8004233837
 20
330.2459962354
 11
208.8373490753
 21
330.6699232507
  0
LINE
  8
DEFAULT_2
 62
8
  6
HIDDEN
 10
209.450760075
 20
330.5097066962
 11
209.4322972421
 21
330.297743337
  0
LINE
  8
DEFAULT_2
 62
8
  6
HIDDEN
 10
209.2661317334
 20
328.3900729554
 11
209.2384374841
 21
328.0721279166
  0
LINE
  8
DEFAULT_2
 62
8
  6
HIDDEN
 10
211.7773909038
 20
327.2102604942
 11
211.9158621697
 21
328.7999859111
  0
LINE
  8
DEFAULT_2
 62
8
  6
HIDDEN
 10
211.9712506683
 20
329.4358759888
 11
212.1004905242
 21
330.9196198004
  0
LINE
  8
DEFAULT_2
 62
8
  6
HIDDEN
 10
227.6974801816
 20
323.2085874021
 11
228.7487872539
 21
326.4464427083
  0
LINE
  8
DEFAULT_2
 62
8
  6
HIDDEN
 10
229.0773207772
 20
327.4582726863
 11
229.2415874929
 21
327.9641875336
  0
LINE
  8
DEFAULT_2
 62
8
  6
HIDDEN
 10
229.7369623176
 20
327.8033430834
 11
229.572695602
 21
327.2974282361
  0
LINE
  8
DEFAULT_2
 62
8
  6
HIDDEN
 10
229.2441620786
 20
326.285598258
 11
228.1928550064
 21
323.0477429518
  0
LINE
  8
DEFAULT_2
 62
8
  6
HIDDEN
 10
228.98757707
 20
322.795896932
 11
229.6736342265
 21
324.6971819935
  0
LINE
  8
DEFAULT_2
 62
8
  6
HIDDEN
 10
230.1635484879
 20
324.5204019873
 11
229.4774913314
 21
322.6191169257
  0
LINE
  8
DEFAULT_2
 62
8
  6
HIDDEN
 10
231.2411833453
 20
321.9827086604
 11
232.0716735661
 21
324.2842642022
  0
LINE
  8
DEFAULT_2
 62
8
  6
HIDDEN
 10
232.2161066304
 20
324.6845346824
 11
232.3966479607
 21
325.1848727827
  0
LINE
  8
DEFAULT_2
 62
8
  6
HIDDEN
 10
232.9487037877
 20
322.0165091097
 11
234.0168038533
 21
324.5679170073
  0
LINE
  8
DEFAULT_2
 62
8
  6
HIDDEN
 10
234.4972373415
 20
324.3667923495
 11
233.5934603785
 21
322.2079087808
  0
LINE
  8
DEFAULT_2
 62
8
  6
HIDDEN
 10
235.5973554216
 20
321.5996724668
 11
236.4189708478
 21
323.5622939053
  0
LINE
  8
0
 62
2
  6
CONTINUOUS
 10
205.0629081869
 20
248.0809575143
 11
202.0929081869
 21
248.0809575143
  0
LINE
  8
DEFAULT_1
 62
2
  6
CENTER
 10
196.1529081869
 20
248.0809575143
 11
113.6738733789
 21
248.0809575143
  0
LINE
  8
DEFAULT_1
 62
2
  6
CENTER
 10
211.0029081869
 20
248.0809575143
 11
293.4819429948
 21
248.0809575143
  0
LINE
  8
DEFAULT_2
 62
8
  6
HIDDEN
 10
172.8536110282
 20
322.280268349
 11
172.661642374
 21
322.7763344544
  0
LINE
  8
DEFAULT_2
 62
8
  6
HIDDEN
 10
173.1857689469
 20
322.8650909728
 11
173.3009501072
 21
322.567451393
  0
LINE
  8
DEFAULT_2
 62
8
  6
HIDDEN
 10
175.7296052083
 20
323.5072972044
 11
175.614424048
 21
323.8049367843
  0
LINE
  8
DEFAULT_2
 62
8
  6
HIDDEN
 10
175.4044234615
 20
324.6362374722
 11
175.3276360213
 21
324.8346638588
  0
LINE
  8
DEFAULT_2
 62
8
  6
HIDDEN
 10
181.5758783065
 20
327.4174493334
 11
181.4717885811
 21
327.8300544111
  0
LINE
  8
DEFAULT_2
 62
8
  6
HIDDEN
 10
182.0778019367
 20
327.9829361064
 11
182.155869249
 21
327.6734822259
  0
LINE
  8
DEFAULT_2
 62
8
  6
HIDDEN
 10
185.5396630625
 20
324.9064991053
 11
184.9931923139
 21
327.072674535
  0
LINE
  8
DEFAULT_2
 62
8
  6
HIDDEN
 10
184.8370578352
 20
327.691581718
 11
184.4467215654
 21
329.2388499646
  0
LINE
  8
DEFAULT_2
 62
8
  6
HIDDEN
 10
191.7075739173
 20
327.5077497734
 11
191.6412562192
 21
328.0355144066
  0
LINE
  8
DEFAULT_2
 62
8
  6
HIDDEN
 10
192.1712908042
 20
327.9948976287
 11
192.2110814119
 21
327.6782389375
  0
LINE
  8
DEFAULT_2
 62
8
  6
HIDDEN
 10
194.7949271024
 20
328.0029190838
 11
194.7551364947
 21
328.319577775
  0
LINE
  8
DEFAULT_2
 62
8
  6
HIDDEN
 10
194.7523805026
 20
329.176988115
 11
194.7258534308
 21
329.3880939091
  0
LINE
  8
DEFAULT_2
 62
8
  6
HIDDEN
 10
202.4829448521
 20
332.0037100122
 11
202.5030843857
 21
331.4721765835
  0
LINE
  8
DEFAULT_2
 62
8
  6
HIDDEN
 10
202.6400332335
 20
327.8577487475
 11
202.67225649
 21
327.0072951871
  0
LINE
  8
DEFAULT_2
 62
8
  6
HIDDEN
 10
212.7785214648
 20
331.5012753001
 11
212.3446448407
 21
326.5201357643
  0
LINE
  8
DEFAULT_2
 62
8
  6
HIDDEN
 10
216.8241689665
 20
327.6037060319
 11
217.0588661366
 21
329.182097046
  0
LINE
  8
DEFAULT_2
 62
8
  6
HIDDEN
 10
217.6770692998
 20
329.0901739853
 11
217.4423721297
 21
327.5117829713
  0
LINE
  8
DEFAULT_2
 62
8
  6
HIDDEN
 10
232.8865625025
 20
325.0080926753
 11
231.7310978871
 21
321.8059285529
  0
LINE
  8
DEFAULT_2
 62
8
  6
HIDDEN
 10
236.8994042329
 20
323.3611692907
 11
236.0777888067
 21
321.3985478522
  0
LINE
  8
DEFAULT_2
 62
8
  6
HIDDEN
 10
175.8133643733
 20
325.0226319885
 11
176.0821204139
 21
324.3281396355
  0
LINE
  8
DEFAULT_2
 62
8
  6
HIDDEN
 10
184.9226228554
 20
329.9074876458
 11
186.1456764182
 21
325.0593808006
  0
LINE
  8
DEFAULT_2
 62
8
  6
HIDDEN
 10
195.2426244614
 20
329.4530301762
 11
195.3354692126
 21
328.7141598967
  0
LINE
  8
DEFAULT_2
 62
8
  6
HIDDEN
 10
217.0588661366
 20
329.182097046
 11
217.0184185753
 21
329.6183217288
  0
LINE
  8
DEFAULT_2
 62
8
  6
HIDDEN
 10
213.3862667368
 20
327.1469278202
 11
213.3614668422
 21
327.6883784592
  0
LINE
  8
DEFAULT_2
 62
8
  6
HIDDEN
 10
217.6522682588
 20
329.6316250207
 11
217.6770692998
 21
329.0901739853
  0
LINE
  8
0
 62
7
  6
CONTINUOUS
 10
213.2784008225
 20
348.1379791499
 11
213.03059589
 21
353.8136452262
  0
LINE
  8
0
 62
7
  6
CONTINUOUS
 10
250.8301592599
 20
336.80937407
 11
252.7732007297
 21
342.1478366334
  0
LINE
  8
0
 62
7
  6
CONTINUOUS
 10
281.1881908142
 20
311.9726718946
 11
285.0262682363
 21
316.1611984132
  0
LINE
  8
0
 62
7
  6
CONTINUOUS
 10
299.7307603774
 20
277.4090353847
 11
304.8795612565
 21
279.809960665
  0
LINE
  8
0
 62
7
  6
CONTINUOUS
 10
103.5208865514
 20
257.78145015
 11
97.845220475
 21
257.5336452175
  0
LINE
  8
0
 62
7
  6
CONTINUOUS
 10
114.8494916312
 20
295.3332085874
 11
109.5110290678
 21
297.2762500572
  0
LINE
  8
0
 62
7
  6
CONTINUOUS
 10
139.6861938066
 20
325.6912401417
 11
135.4976672881
 21
329.5293175638
  0
LINE
  8
DEFAULT_2
 62
8
  6
HIDDEN
 10
175.3276360213
 20
324.8346638588
 11
175.0001244727
 21
325.3923480158
  0
LINE
  8
DEFAULT_2
 62
8
  6
HIDDEN
 10
175.4474635517
 20
325.6795310597
 11
175.8133643733
 21
325.0226319885
  0
LINE
  8
0
 62
7
  6
CONTINUOUS
 10
174.2498303165
 20
344.2338097049
 11
171.8489050362
 21
349.382610584
  0
LINE
  8
DEFAULT_2
 62
8
  6
HIDDEN
 10
194.7258534308
 20
329.3880939091
 11
194.5429199018
 21
330.0084242759
  0
LINE
  8
DEFAULT_2
 62
8
  6
HIDDEN
 10
195.0464273965
 20
330.17891344
 11
195.2426244614
 21
329.4530301762
  0
LINE
  8
DEFAULT_2
 62
8
  6
HIDDEN
 10
221.477157706
 20
324.9418078294
 11
221.3361921112
 21
326.2772613735
  0
LINE
  8
DEFAULT_2
 62
8
  6
HIDDEN
 10
221.3231609142
 20
326.7151633796
 11
221.0059874749
 21
329.7199341497
  0
LINE
  8
0
 62
7
  6
CONTINUOUS
 10
209.9905272661
 20
211.2922439458
 11
240.6417530992
 21
243.5199784747
  0
LINE
  8
0
 62
7
  6
CONTINUOUS
 10
240.3666217554
 20
254.4935765936
 11
208.1388872265
 21
285.1448024267
  0
LINE
  8
DEFAULT_2
 62
8
  6
HIDDEN
 10
173.2398736646
 20
321.8593905976
 11
172.8536110282
 21
322.280268349
  0
LINE
  8
DEFAULT_2
 62
8
  6
HIDDEN
 10
173.3009501072
 20
322.567451393
 11
173.5132760484
 21
322.3074050949
  0
LINE
  8
DEFAULT_2
 62
8
  6
HIDDEN
 10
175.614424048
 20
323.8049367843
 11
175.4020980529
 21
324.0649832213
  0
LINE
  8
DEFAULT_2
 62
8
  6
HIDDEN
 10
175.0001244727
 20
325.3923480158
 11
174.7877984239
 21
325.6523945918
  0
LINE
  8
DEFAULT_2
 62
8
  6
HIDDEN
 10
178.4986556197
 20
328.1502510013
 11
181.6048123107
 21
323.8923685357
  0
LINE
  8
DEFAULT_2
 62
8
  6
HIDDEN
 10
181.009319655
 20
323.702596312
 11
180.2247062052
 21
324.7924074003
  0
LINE
  8
DEFAULT_2
 62
8
  6
HIDDEN
 10
179.9962523386
 20
325.1662209388
 11
178.2308686353
 21
327.6182949082
  0
LINE
  8
DEFAULT_2
 62
8
  6
HIDDEN
 10
181.7549462307
 20
327.1334756356
 11
181.5758783065
 21
327.4174493334
  0
LINE
  8
DEFAULT_2
 62
8
  6
HIDDEN
 10
182.155869249
 20
327.6734822259
 11
182.3349371732
 21
327.3895085281
  0
LINE
  8
DEFAULT_2
 62
8
  6
HIDDEN
 10
191.9806009645
 20
327.0059598399
 11
191.7075739173
 21
327.5077497734
  0
LINE
  8
DEFAULT_2
 62
8
  6
HIDDEN
 10
192.2110814119
 20
327.6782389375
 11
192.3542243332
 21
327.3745672619
  0
LINE
  8
DEFAULT_2
 62
8
  6
HIDDEN
 10
194.7551364947
 20
328.319577775
 11
194.6119935548
 21
328.6232495984
  0
LINE
  8
DEFAULT_2
 62
8
  6
HIDDEN
 10
194.5429199018
 20
330.0084242759
 11
194.3997769433
 21
330.3120962472
  0
LINE
  8
DEFAULT_2
 62
8
  6
HIDDEN
 10
208.6826415268
 20
327.6933967435
 11
208.6065636257
 21
328.020380815
  0
LINE
  8
DEFAULT_2
 62
8
  6
HIDDEN
 10
209.2384374841
 20
328.0721279166
 11
209.3145153917
 21
327.7451439193
  0
LINE
  8
DEFAULT_2
 62
8
  6
HIDDEN
 10
208.8765012913
 20
329.9190122381
 11
208.8004233837
 21
330.2459962354
  0
LINE
  8
DEFAULT_2
 62
8
  6
HIDDEN
 10
209.4322972421
 20
330.297743337
 11
209.5083751497
 21
329.9707593397
  0
LINE
  8
DEFAULT_2
 62
8
  6
HIDDEN
 10
213.9796700053
 20
327.5964553985
 11
214.035762864
 21
327.2654569488
  0
LINE
  8
DEFAULT_2
 62
8
  6
HIDDEN
 10
221.5023117888
 20
330.0491002519
 11
222.0883852517
 21
324.8113245456
  0
LINE
  8
DEFAULT_2
 62
8
  6
HIDDEN
 10
175.0612008346
 20
326.1004090196
 11
175.4474635517
 21
325.6795310597
  0
LINE
  8
DEFAULT_2
 62
8
  6
HIDDEN
 10
194.7734003214
 20
330.6807035953
 11
195.0464273965
 21
330.17891344
  0
LINE
  8
DEFAULT_2
 62
8
  6
HIDDEN
 10
217.5087860509
 20
330.0831703305
 11
217.6522682588
 21
329.6316250207
  0
LINE
  8
DEFAULT_2
 62
8
  6
HIDDEN
 10
173.6848873484
 20
321.5753193559
 11
173.2398736646
 21
321.8593905976
  0
LINE
  8
DEFAULT_2
 62
8
  6
HIDDEN
 10
174.6161871643
 20
326.3844802266
 11
175.0612008346
 21
326.1004090196
  0
LINE
  8
DEFAULT_2
 62
8
  6
HIDDEN
 10
173.5132760484
 20
322.3074050949
 11
173.8227512446
 21
322.08495373
  0
LINE
  8
DEFAULT_2
 62
8
  6
HIDDEN
 10
174.7877984239
 20
325.6523945918
 11
174.4783232546
 21
325.8748458872
  0
LINE
  8
DEFAULT_2
 62
8
  6
HIDDEN
 10
182.162042561
 20
326.7973116946
 11
181.7549462307
 21
327.1334756356
  0
LINE
  8
DEFAULT_2
 62
8
  6
HIDDEN
 10
192.3437167848
 20
326.622709856
 11
191.9806009645
 21
327.0059598399
  0
LINE
  8
DEFAULT_2
 62
8
  6
HIDDEN
 10
194.4102845057
 20
331.0639535423
 11
194.7734003214
 21
330.6807035953
  0
LINE
  8
DEFAULT_2
 62
8
  6
HIDDEN
 10
192.3542243332
 20
327.3745672619
 11
192.6007243087
 21
327.0838831225
  0
LINE
  8
DEFAULT_2
 62
8
  6
HIDDEN
 10
194.3997769433
 20
330.3120962472
 11
194.1532769772
 21
330.6027803127
  0
LINE
  8
DEFAULT_2
 62
8
  6
HIDDEN
 10
208.9570370788
 20
327.2423526989
 11
208.6826415268
 21
327.6933967435
  0
LINE
  8
DEFAULT_2
 62
8
  6
HIDDEN
 10
209.1508968465
 20
329.4679682306
 11
208.8765012913
 21
329.9190122381
  0
LINE
  8
DEFAULT_2
 62
8
  6
HIDDEN
 10
217.0184185753
 20
329.6183217288
 11
216.8592911138
 21
329.9646411002
  0
LINE
  8
DEFAULT_2
 62
8
  6
HIDDEN
 10
233.5934603785
 20
322.2079087808
 11
233.6623913572
 21
321.8330656883
  0
LINE
  8
DEFAULT_2
 62
8
  6
HIDDEN
 10
175.4020980529
 20
324.0649832213
 11
175.1310166037
 21
324.1882213235
  0
LINE
  8
DEFAULT_2
 62
8
  6
HIDDEN
 10
182.3349371732
 20
327.3895085281
 11
182.5889879925
 21
327.2341670877
  0
LINE
  8
DEFAULT_2
 62
8
  6
HIDDEN
 10
194.6119935548
 20
328.6232495984
 11
194.3787571245
 21
328.8083807668
  0
LINE
  8
DEFAULT_2
 62
8
  6
HIDDEN
 10
198.8598660366
 20
331.3341368776
 11
202.6400332335
 21
327.8577487475
  0
LINE
  8
DEFAULT_2
 62
8
  6
HIDDEN
 10
202.0235371938
 20
327.6214714213
 11
198.3474627665
 21
331.101803574
  0
LINE
  8
DEFAULT_2
 62
8
  6
HIDDEN
 10
197.3969431707
 20
330.1592183443
 11
196.7125248401
 21
330.8496866133
  0
LINE
  8
DEFAULT_2
 62
8
  6
HIDDEN
 10
196.6421736214
 20
331.6978376468
 11
197.3265919273
 21
331.0073696749
  0
LINE
  8
DEFAULT_2
 62
8
  6
HIDDEN
 10
209.3145153917
 20
327.7451439193
 11
209.5036016165
 21
327.5151021553
  0
LINE
  8
DEFAULT_2
 62
8
  6
HIDDEN
 10
209.5083751497
 20
329.9707593397
 11
209.697461381
 21
329.7407176499
  0
LINE
  8
DEFAULT_2
 62
8
  6
HIDDEN
 10
213.7358170534
 20
326.6647413949
 11
213.3862667368
 21
327.1469278202
  0
LINE
  8
DEFAULT_2
 62
8
  6
HIDDEN
 10
217.1592369081
 20
330.5653565436
 11
217.5087860509
 21
330.0831703305
  0
LINE
  8
DEFAULT_2
 62
8
  6
HIDDEN
 10
232.0716735661
 20
324.2842642022
 11
231.9479242255
 21
324.5551115055
  0
LINE
  8
DEFAULT_2
 62
8
  6
HIDDEN
 10
232.0923572897
 20
324.9553819858
 11
232.2161066304
 21
324.6845346824
  0
LINE
  8
DEFAULT_2
 62
8
  6
HIDDEN
 10
233.5530740812
 20
321.302185426
 11
233.3880565075
 21
321.7172533868
  0
LINE
  8
DEFAULT_2
 62
8
  6
HIDDEN
 10
230.4266480721
 20
325.5564342701
 11
230.7928132732
 21
325.650501466
  0
LINE
  8
DEFAULT_2
 62
8
  6
HIDDEN
 10
235.2276284625
 20
320.7164927782
 11
234.8572068425
 21
320.6409054084
  0
LINE
  8
DEFAULT_2
 62
8
  6
HIDDEN
 10
234.5961024643
 20
321.0961983153
 11
235.0626107099
 21
321.1315607938
  0
LINE
  8
DEFAULT_2
 62
8
  6
HIDDEN
 10
174.2858013178
 20
321.4656496007
 11
173.6848873484
 21
321.5753193559
  0
LINE
  8
DEFAULT_2
 62
8
  6
HIDDEN
 10
174.015277652
 20
326.4941516767
 11
174.6161871643
 21
326.3844802266
  0
LINE
  8
DEFAULT_2
 62
8
  6
HIDDEN
 10
173.8227512446
 20
322.08495373
 11
174.1909774748
 21
321.9993089097
  0
LINE
  8
DEFAULT_2
 62
8
  6
HIDDEN
 10
175.1310166037
 20
324.1882213235
 11
174.7627903735
 21
324.2738661438
  0
LINE
  8
DEFAULT_2
 62
8
  6
HIDDEN
 10
174.6679710011
 20
324.8075271129
 11
175.4044234615
 21
324.6362374722
  0
LINE
  8
DEFAULT_2
 62
8
  6
HIDDEN
 10
174.4783232546
 20
325.8748458872
 11
174.1100970244
 21
325.9604907076
  0
LINE
  8
DEFAULT_2
 62
8
  6
HIDDEN
 10
182.6441217865
 20
326.5897800109
 11
182.162042561
 21
326.7973116946
  0
LINE
  8
DEFAULT_2
 62
8
  6
HIDDEN
 10
192.9002736953
 20
326.3709868096
 11
192.3437167848
 21
326.622709856
  0
LINE
  8
DEFAULT_2
 62
8
  6
HIDDEN
 10
193.8537228675
 20
331.3156759664
 11
194.4102845057
 21
331.0639535423
  0
LINE
  8
DEFAULT_2
 62
8
  6
HIDDEN
 10
192.6007243087
 20
327.0838831225
 11
192.9373130526
 21
326.9117389697
  0
LINE
  8
DEFAULT_2
 62
8
  6
HIDDEN
 10
194.3787571245
 20
328.8083807668
 11
194.0421683807
 21
328.9805249196
  0
LINE
  8
DEFAULT_2
 62
8
  6
HIDDEN
 10
194.0792030148
 20
329.5212764206
 11
194.7523805026
 21
329.176988115
  0
LINE
  8
DEFAULT_2
 62
8
  6
HIDDEN
 10
194.1532769772
 20
330.6027803127
 11
193.8166882333
 21
330.7749244655
  0
LINE
  8
DEFAULT_2
 62
8
  6
HIDDEN
 10
209.3492144942
 20
329.3439082204
 11
209.1508968465
 21
329.4679682306
  0
LINE
  8
DEFAULT_2
 62
8
  6
HIDDEN
 10
214.1166603243
 20
326.3930070944
 11
213.7358170534
 21
326.6647413949
  0
LINE
  8
DEFAULT_2
 62
8
  6
HIDDEN
 10
209.3444385802
 20
326.8882511779
 11
208.9570370788
 21
327.2423526989
  0
LINE
  8
DEFAULT_2
 62
8
  6
HIDDEN
 10
214.035762864
 20
327.2654569488
 11
214.3135714816
 21
327.0090432292
  0
LINE
  8
DEFAULT_2
 62
8
  6
HIDDEN
 10
216.8592911138
 20
329.9646411002
 11
216.5814824853
 21
330.2210547461
  0
LINE
  8
DEFAULT_2
 62
8
  6
HIDDEN
 10
233.7041667594
 20
321.1236044662
 11
233.5530740812
 21
321.302185426
  0
LINE
  8
DEFAULT_2
 62
8
  6
HIDDEN
 10
231.9479242255
 20
324.5551115055
 11
231.726192369
 21
324.8613146887
  0
LINE
  8
DEFAULT_2
 62
8
  6
HIDDEN
 10
231.8706254332
 20
325.2615851689
 11
232.0923572897
 21
324.9553819858
  0
LINE
  8
DEFAULT_2
 62
8
  6
HIDDEN
 10
233.6623913572
 20
321.8330656883
 11
233.8684898583
 21
321.5161287866
  0
LINE
  8
DEFAULT_2
 62
8
  6
HIDDEN
 10
186.1456764182
 20
325.0593808006
 11
185.5396630625
 21
324.9064991053
  0
LINE
  8
DEFAULT_2
 62
8
  6
HIDDEN
 10
184.9931923139
 20
327.072674535
 11
183.175152247
 21
326.6140294489
  0
LINE
  8
DEFAULT_2
 62
8
  6
HIDDEN
 10
182.9180170834
 20
327.2074567382
 11
184.8370578352
 21
327.691581718
  0
LINE
  8
DEFAULT_2
 62
8
  6
HIDDEN
 10
209.9441626869
 20
328.9717286036
 11
209.6236100495
 21
328.892864213
  0
LINE
  8
DEFAULT_2
 62
8
  6
HIDDEN
 10
210.1287910414
 20
331.0913624928
 11
209.808238404
 21
331.0124981022
  0
LINE
  8
DEFAULT_2
 62
8
  6
HIDDEN
 10
174.8099233933
 20
321.5544045285
 11
174.2858013178
 21
321.4656496007
  0
LINE
  8
DEFAULT_2
 62
8
  6
HIDDEN
 10
174.143844482
 20
324.7187704555
 11
174.6679710011
 21
324.8075271129
  0
LINE
  8
DEFAULT_2
 62
8
  6
HIDDEN
 10
230.9423288779
 20
325.1441629415
 11
230.7102550194
 21
325.1148072835
  0
LINE
  8
DEFAULT_2
 62
8
  6
HIDDEN
 10
193.9470792935
 20
326.3953064374
 11
193.4303082629
 21
326.3303701703
  0
LINE
  8
DEFAULT_2
 62
8
  6
HIDDEN
 10
193.2606382605
 20
326.845147714
 11
193.9841139184
 21
326.9360580122
  0
LINE
  8
DEFAULT_2
 62
8
  6
HIDDEN
 10
193.7188431727
 20
329.0471161754
 11
192.9953675148
 21
328.9562058771
  0
LINE
  8
DEFAULT_2
 62
8
  6
HIDDEN
 10
215.6373659779
 20
326.7046504231
 11
216.0651486826
 21
326.7485943236
  0
LINE
  8
DEFAULT_2
 62
8
  6
HIDDEN
 10
215.257687989
 20
330.5254475522
 11
214.8299052843
 21
330.4815036518
  0
LINE
  8
DEFAULT_2
 62
8
  6
HIDDEN
 10
197.0554870808
 20
326.7149497307
 11
196.4326284673
 21
326.6632857454
  0
LINE
  8
DEFAULT_2
 62
8
  6
HIDDEN
 10
216.0743021021
 20
326.1019176361
 11
215.5434871077
 21
326.0732940028
  0
LINE
  8
DEFAULT_2
 62
8
  6
HIDDEN
 10
183.175152247
 20
326.6140294489
 11
182.6441217865
 21
326.5897800109
  0
LINE
  8
DEFAULT_2
 62
8
  6
HIDDEN
 10
174.1909774748
 20
321.9993089097
 11
174.5208099849
 21
322.0128772826
  0
LINE
  8
DEFAULT_2
 62
8
  6
HIDDEN
 10
174.7627903735
 20
324.2738661438
 11
174.4329578634
 21
324.2602977709
  0
LINE
  8
DEFAULT_2
 62
8
  6
HIDDEN
 10
174.1100970244
 20
325.9604907076
 11
173.7802645143
 21
325.9469223346
  0
LINE
  8
DEFAULT_2
 62
8
  6
HIDDEN
 10
202.67225649
 20
327.0072951871
 11
198.5085790575
 21
326.8495355491
  0
LINE
  8
DEFAULT_2
 62
8
  6
HIDDEN
 10
198.4844116144
 20
327.4873757379
 11
202.0235371938
 21
327.6214714213
  0
LINE
  8
DEFAULT_2
 62
8
  6
HIDDEN
 10
230.7928132732
 20
325.650501466
 11
231.1228702083
 21
325.6445010418
  0
LINE
  8
DEFAULT_2
 62
8
  6
HIDDEN
 10
193.4303082629
 20
326.3303701703
 11
192.9002736953
 21
326.3709868096
  0
LINE
  8
DEFAULT_2
 62
8
  6
HIDDEN
 10
193.5491731796
 20
329.5618936451
 11
194.0792030148
 21
329.5212764206
  0
LINE
  8
DEFAULT_2
 62
8
  6
HIDDEN
 10
182.5889879925
 20
327.2341670877
 11
182.9180170834
 21
327.2074567382
  0
LINE
  8
DEFAULT_2
 62
8
  6
HIDDEN
 10
212.3446448407
 20
326.5201357643
 11
209.8540750728
 21
326.7370740763
  0
LINE
  8
DEFAULT_2
 62
8
  6
HIDDEN
 10
209.805691421
 20
327.3820031866
 11
211.7773909038
 21
327.2102604942
  0
LINE
  8
DEFAULT_2
 62
8
  6
HIDDEN
 10
211.9158621697
 20
328.7999859111
 11
209.9441626869
 21
328.9717286036
  0
LINE
  8
DEFAULT_2
 62
8
  6
HIDDEN
 10
209.9995511855
 20
329.6076186813
 11
211.9712506683
 21
329.4358759888
  0
LINE
  8
DEFAULT_2
 62
8
  6
HIDDEN
 10
231.3703688895
 20
325.1028064352
 11
230.9423288779
 21
325.1441629415
  0
LINE
  8
DEFAULT_2
 62
8
  6
HIDDEN
 10
234.8572068425
 20
320.6409054084
 11
234.4317793761
 21
320.7036740207
  0
LINE
  8
DEFAULT_2
 62
8
  6
HIDDEN
 10
215.5434871077
 20
326.0732940028
 11
214.616182363
 21
326.2111785938
  0
LINE
  8
DEFAULT_2
 62
8
  6
HIDDEN
 10
214.7100612332
 20
326.8425350141
 11
215.6373659779
 21
326.7046504231
  0
LINE
  8
DEFAULT_2
 62
8
  6
HIDDEN
 10
213.3614668422
 20
327.6883784592
 11
213.9796700053
 21
327.5964553985
  0
LINE
  8
DEFAULT_2
 62
8
  6
HIDDEN
 10
192.9373130526
 20
326.9117389697
 11
193.2606382605
 21
326.845147714
  0
LINE
  8
DEFAULT_2
 62
8
  6
HIDDEN
 10
194.0421683807
 20
328.9805249196
 11
193.7188431727
 21
329.0471161754
  0
LINE
  8
DEFAULT_2
 62
8
  6
HIDDEN
 10
193.8166882333
 20
330.7749244655
 11
193.4933630253
 21
330.8415157212
  0
LINE
  8
DEFAULT_2
 62
8
  6
HIDDEN
 10
222.0883852517
 20
324.8113245456
 11
221.477157706
 21
324.9418078294
  0
LINE
  8
DEFAULT_2
 62
8
  6
HIDDEN
 10
218.6247628812
 20
325.5507297375
 11
218.0135353355
 21
325.6812130213
  0
LINE
  8
DEFAULT_2
 62
8
  6
HIDDEN
 10
221.3361921112
 20
326.2772613735
 11
219.2987665702
 21
326.7122057357
  0
LINE
  8
DEFAULT_2
 62
8
  6
HIDDEN
 10
219.489478277
 20
327.106613231
 11
221.3231609142
 21
326.7151633796
  0
LINE
  8
DEFAULT_2
 62
8
  6
HIDDEN
 10
209.8540750728
 20
326.7370740763
 11
209.3444385802
 21
326.8882511779
  0
LINE
  8
DEFAULT_2
 62
8
  6
HIDDEN
 10
228.1928550064
 20
323.0477429518
 11
227.6974801816
 21
323.2085874021
  0
LINE
  8
DEFAULT_2
 62
8
  6
HIDDEN
 10
231.7310978871
 20
321.8059285529
 11
231.2411833453
 21
321.9827086604
  0
LINE
  8
DEFAULT_2
 62
8
  6
HIDDEN
 10
229.4774913314
 20
322.6191169257
 11
228.98757707
 21
322.795896932
  0
LINE
  8
DEFAULT_2
 62
8
  6
HIDDEN
 10
214.616182363
 20
326.2111785938
 11
214.1166603243
 21
326.3930070944
  0
LINE
  8
DEFAULT_2
 62
8
  6
HIDDEN
 10
234.4317793761
 20
320.7036740207
 11
234.047432613
 21
320.8645737354
  0
LINE
  8
DEFAULT_2
 62
8
  6
HIDDEN
 10
232.9904791863
 20
321.307047879
 11
232.5100456981
 21
321.5081725367
  0
LINE
  8
DEFAULT_2
 62
8
  6
HIDDEN
 10
234.2117557012
 20
321.25709803
 11
234.5961024643
 21
321.0961983153
  0
LINE
  8
DEFAULT_2
 62
8
  6
HIDDEN
 10
214.3135714816
 20
327.0090432292
 11
214.7100612332
 21
326.8425350141
  0
LINE
  8
DEFAULT_2
 62
8
  6
HIDDEN
 10
216.5814824853
 20
330.2210547461
 11
216.1849927337
 21
330.3875629612
  0
LINE
  8
DEFAULT_2
 62
8
  6
HIDDEN
 10
209.5036016165
 20
327.5151021553
 11
209.805691421
 21
327.3820031866
  0
LINE
  8
DEFAULT_2
 62
8
  6
HIDDEN
 10
209.697461381
 20
329.7407176499
 11
209.9995511855
 21
329.6076186813
  0
LINE
  8
DEFAULT_2
 62
8
  6
HIDDEN
 10
231.726192369
 20
324.8613146887
 11
231.3703688895
 21
325.1028064352
  0
LINE
  8
DEFAULT_2
 62
8
  6
HIDDEN
 10
231.5148019538
 20
325.5030769154
 11
231.8706254332
 21
325.2615851689
  0
LINE
  8
DEFAULT_2
 62
8
  6
HIDDEN
 10
216.778393633
 20
330.8370908165
 11
217.1592369081
 21
330.5653565436
  0
LINE
  8
DEFAULT_2
 62
8
  6
HIDDEN
 10
234.047432613
 20
320.8645737354
 11
233.7041667594
 21
321.1236044662
  0
LINE
  8
DEFAULT_2
 62
8
  6
HIDDEN
 10
233.8684898583
 20
321.5161287866
 11
234.2117557012
 21
321.25709803
  0
LINE
  8
0
 62
7
  6
CONTINUOUS
 10
293.9569429948
 20
250.3364297716
 11
293.9569429948
 21
268.3459575143
  0
LINE
  8
0
 62
7
  6
CONTINUOUS
 10
287.9403804791
 20
215.5781829149
 11
294.8323283709
 21
232.2168169865
  0
LINE
  8
0
 62
7
  6
CONTINUOUS
 10
269.0803963046
 20
185.7681888525
 11
281.8150554974
 21
198.5028480453
  0
LINE
  8
0
 62
7
  6
CONTINUOUS
 10
240.2482520957
 20
165.4447489522
 11
256.8868861673
 21
172.3366968441
  0
LINE
  8
DEFAULT_2
 62
8
  6
HIDDEN
 10
184.4467215654
 20
329.2388499646
 11
182.5276808136
 21
328.7547249848
  0
LINE
  8
DEFAULT_2
 62
8
  6
HIDDEN
 10
182.4985694328
 20
329.2959608645
 11
184.9226228554
 21
329.9074876458
  0
LINE
  8
DEFAULT_2
 62
8
  6
HIDDEN
 10
173.4911511329
 20
326.4053950193
 11
174.015277652
 21
326.4941516767
  0
LINE
  8
DEFAULT_2
 62
8
  6
HIDDEN
 10
193.032402149
 20
329.4969573781
 11
193.5491731796
 21
329.5618936451
  0
LINE
  8
DEFAULT_2
 62
8
  6
HIDDEN
 10
192.1259881938
 20
330.0263771478
 11
191.6092218944
 21
329.9614414752
  0
LINE
  8
DEFAULT_2
 62
8
  6
HIDDEN
 10
193.4933630253
 20
330.8415157212
 11
192.8732396811
 21
330.7635924386
  0
LINE
  8
DEFAULT_2
 62
8
  6
HIDDEN
 10
192.9102743153
 20
331.3043439395
 11
193.3236930322
 21
331.356293191
  0
LINE
  8
DEFAULT_2
 62
8
  6
HIDDEN
 10
209.7598523705
 20
331.6574273452
 11
210.2879516969
 21
331.7182136121
  0
LINE
  8
DEFAULT_2
 62
8
  6
HIDDEN
 10
196.0193150079
 20
331.6461736615
 11
196.6421736214
 21
331.6978376468
  0
LINE
  8
DEFAULT_2
 62
8
  6
HIDDEN
 10
214.8207518552
 20
331.1281802748
 11
215.3515668483
 21
331.1568038989
  0
LINE
  8
DEFAULT_2
 62
8
  6
HIDDEN
 10
202.5030843857
 20
331.4721765835
 11
198.8598660366
 21
331.3341368776
  0
LINE
  8
DEFAULT_2
 62
8
  6
HIDDEN
 10
198.3192674196
 20
331.8459503741
 11
202.4829448521
 21
332.0037100122
  0
LINE
  8
0
 62
7
  6
CONTINUOUS
 10
201.3224359296
 20
338.4599923223
 11
183.3129081869
 21
338.4599923223
  0
LINE
  8
DEFAULT_2
 62
8
  6
HIDDEN
 10
193.3236930322
 20
331.356293191
 11
193.8537228675
 21
331.3156759664
  0
LINE
  8
DEFAULT_2
 62
8
  6
HIDDEN
 10
212.1004905242
 20
330.9196198004
 11
210.1287910414
 21
331.0913624928
  0
LINE
  8
DEFAULT_2
 62
8
  6
HIDDEN
 10
210.2879516969
 20
331.7182136121
 11
212.7785214648
 21
331.5012753001
  0
LINE
  8
DEFAULT_2
 62
8
  6
HIDDEN
 10
214.3395389878
 20
330.0166548748
 11
213.7213358247
 21
330.1085779354
  0
LINE
  8
DEFAULT_2
 62
8
  6
HIDDEN
 10
216.1849927337
 20
330.3875629612
 11
215.257687989
 21
330.5254475522
  0
LINE
  8
DEFAULT_2
 62
8
  6
HIDDEN
 10
215.3515668483
 20
331.1568038989
 11
216.278871593
 21
331.0189193079
  0
LINE
  8
DEFAULT_2
 62
8
  6
HIDDEN
 10
220.6873413392
 20
330.2230780466
 11
221.5023117888
 21
330.0491002519
  0
LINE
  8
DEFAULT_2
 62
8
  6
HIDDEN
 10
228.7487872539
 20
326.4464427083
 11
229.2441620786
 21
326.285598258
  0
LINE
  8
DEFAULT_2
 62
8
  6
HIDDEN
 10
229.572695602
 20
327.2974282361
 11
229.0773207772
 21
327.4582726863
  0
LINE
  8
DEFAULT_2
 62
8
  6
HIDDEN
 10
229.2415874929
 20
327.9641875336
 11
229.7369623176
 21
327.8033430834
  0
LINE
  8
DEFAULT_2
 62
8
  6
HIDDEN
 10
231.1228702083
 20
325.6445010418
 11
231.5148019538
 21
325.5030769154
  0
LINE
  8
DEFAULT_2
 62
8
  6
HIDDEN
 10
232.3966479607
 20
325.1848727827
 11
232.8865625025
 21
325.0080926753
  0
LINE
  8
DEFAULT_2
 62
8
  6
HIDDEN
 10
216.278871593
 20
331.0189193079
 11
216.778393633
 21
330.8370908165
  0
LINE
  8
0
 62
7
  6
CONTINUOUS
 10
236.0806827863
 20
332.4434298065
 11
219.4420487147
 21
339.3353776984
  0
LINE
  8
DEFAULT_2
 62
8
  6
HIDDEN
 10
234.0168038533
 20
324.5679170073
 11
234.4972373415
 21
324.3667923495
  0
LINE
  8
DEFAULT_2
 62
8
  6
HIDDEN
 10
236.4189708478
 20
323.5622939053
 11
236.8994042329
 21
323.3611692907
  0
LINE
  8
0
 62
7
  6
CONTINUOUS
 10
265.8906768487
 20
313.583445632
 11
253.1560176559
 21
326.3181048249
  0
LINE
  8
0
 62
7
  6
CONTINUOUS
 10
286.214116749
 20
284.7513014232
 11
279.3221688572
 21
301.3899354948
  0
LINE
  8
DEFAULT_2
 62
8
  6
HIDDEN
 10
212.0720352542
 20
354.7699739127
 11
212.0622392586
 21
354.7707533757
  0
LINE
  8
0
 62
7
  6
CONTINUOUS
 10
408.9582504625
 20
141.3918891899
 11
415.4082504625
 21
141.3918891899
  0
LINE
  8
0
 62
7
  6
CONTINUOUS
 10
425.7082504625
 20
141.3918891899
 11
432.1582504625
 21
141.3918891899
  0
LINE
  8
DEFAULT_2
 62
8
  6
HIDDEN
 10
408.9582504625
 20
141.546443995
 11
415.4082504625
 21
141.546443995
  0
LINE
  8
DEFAULT_2
 62
8
  6
HIDDEN
 10
425.7082504625
 20
141.546443995
 11
432.1582504625
 21
141.546443995
  0
LINE
  8
0
 62
9
  6
CONTINUOUS
 10
408.9582504625
 20
142.3482698025
 11
415.4082504625
 21
142.3482698025
  0
LINE
  8
0
 62
9
  6
CONTINUOUS
 10
425.7082504625
 20
142.3482698025
 11
432.1582504625
 21
142.3482698025
  0
LINE
  8
DEFAULT_2
 62
8
  6
HIDDEN
 10
408.9582504625
 20
146.2019227064
 11
415.4082504625
 21
146.2019227064
  0
LINE
  8
DEFAULT_2
 62
8
  6
HIDDEN
 10
425.7082504625
 20
146.2019227064
 11
432.1582504625
 21
146.2019227064
  0
LINE
  8
DEFAULT_2
 62
8
  6
HIDDEN
 10
408.9582504625
 20
146.6252099469
 11
415.4082504625
 21
146.6252099469
  0
LINE
  8
DEFAULT_2
 62
8
  6
HIDDEN
 10
425.7082504625
 20
146.6252099469
 11
432.1582504625
 21
146.6252099469
  0
LINE
  8
DEFAULT_2
 62
8
  6
HIDDEN
 10
408.9582504625
 20
146.7793044447
 11
415.4082504625
 21
146.7793044447
  0
LINE
  8
DEFAULT_2
 62
8
  6
HIDDEN
 10
425.7082504625
 20
146.7793044447
 11
432.1582504625
 21
146.7793044447
  0
LINE
  8
0
 62
9
  6
CONTINUOUS
 10
408.9582504625
 20
148.0239358788
 11
415.4082504625
 21
148.0239358788
  0
LINE
  8
0
 62
9
  6
CONTINUOUS
 10
425.7082504625
 20
148.0239358788
 11
432.1582504625
 21
148.0239358788
  0
LINE
  8
DEFAULT_2
 62
8
  6
HIDDEN
 10
408.9582504625
 20
151.9281053238
 11
415.4082504625
 21
151.9281053238
  0
LINE
  8
DEFAULT_2
 62
8
  6
HIDDEN
 10
425.7082504625
 20
151.9281053238
 11
432.1582504625
 21
151.9281053238
  0
LINE
  8
0
 62
7
  6
CONTINUOUS
 10
408.9582504625
 20
152.6720582519
 11
415.4082504625
 21
152.6720582519
  0
LINE
  8
0
 62
7
  6
CONTINUOUS
 10
425.7082504625
 20
152.6720582519
 11
432.1582504625
 21
152.6720582519
  0
LINE
  8
DEFAULT_2
 62
8
  6
HIDDEN
 10
408.9582504625
 20
152.6865919887
 11
415.4082504625
 21
152.6865919887
  0
LINE
  8
DEFAULT_2
 62
8
  6
HIDDEN
 10
425.7082504625
 20
152.6865919887
 11
432.1582504625
 21
152.6865919887
  0
LINE
  8
0
 62
9
  6
CONTINUOUS
 10
408.9582504625
 20
154.0140783953
 11
415.4082504625
 21
154.0140783953
  0
LINE
  8
0
 62
9
  6
CONTINUOUS
 10
425.7082504625
 20
154.0140783953
 11
432.1582504625
 21
154.0140783953
  0
LINE
  8
DEFAULT_2
 62
8
  6
HIDDEN
 10
408.9582504625
 20
156.2870169585
 11
415.4082504625
 21
156.2870169585
  0
LINE
  8
DEFAULT_2
 62
8
  6
HIDDEN
 10
425.7082504625
 20
156.2870169585
 11
432.1582504625
 21
156.2870169585
  0
LINE
  8
DEFAULT_2
 62
8
  6
HIDDEN
 10
408.9582504625
 20
156.8265373303
 11
415.4082504625
 21
156.8265373303
  0
LINE
  8
DEFAULT_2
 62
8
  6
HIDDEN
 10
425.7082504625
 20
156.8265373303
 11
432.1582504625
 21
156.8265373303
  0
LINE
  8
DEFAULT_2
 62
8
  6
HIDDEN
 10
432.1582504625
 20
157.7019227064
 11
425.7082504625
 21
157.7019227064
  0
LINE
  8
DEFAULT_2
 62
8
  6
HIDDEN
 10
415.4082504625
 20
157.7019227064
 11
408.9582504625
 21
157.7019227064
  0
LINE
  8
DEFAULT_2
 62
8
  6
HIDDEN
 10
432.1582504625
 20
157.9019227064
 11
425.7082504625
 21
157.9019227064
  0
LINE
  8
DEFAULT_2
 62
8
  6
HIDDEN
 10
415.4082504625
 20
157.9019227064
 11
408.9582504625
 21
157.9019227064
  0
LINE
  8
DEFAULT_2
 62
8
  6
HIDDEN
 10
408.9582504625
 20
158.7019227064
 11
415.4082504625
 21
158.7019227064
  0
LINE
  8
DEFAULT_2
 62
8
  6
HIDDEN
 10
425.7082504625
 20
158.7019227064
 11
432.1582504625
 21
158.7019227064
  0
LINE
  8
0
 62
9
  6
CONTINUOUS
 10
408.9582504625
 20
159.3525409587
 11
415.4082504625
 21
159.3525409587
  0
LINE
  8
0
 62
9
  6
CONTINUOUS
 10
425.7082504625
 20
159.3525409587
 11
432.1582504625
 21
159.3525409587
  0
LINE
  8
0
 62
7
  6
CONTINUOUS
 10
425.7082504625
 20
160.1769227064
 11
415.4082504625
 21
160.1769227064
  0
LINE
  8
0
 62
7
  6
CONTINUOUS
 10
405.9582504625
 20
160.1769227064
 11
408.9582504625
 21
160.1769227064
  0
LINE
  8
0
 62
7
  6
CONTINUOUS
 10
432.1582504625
 20
160.1769227064
 11
435.1582504625
 21
160.1769227064
  0
LINE
  8
DEFAULT_2
 62
8
  6
HIDDEN
 10
408.9582504625
 20
162.6234633082
 11
415.4082504625
 21
162.6234633082
  0
LINE
  8
DEFAULT_2
 62
8
  6
HIDDEN
 10
425.7082504625
 20
162.6234633082
 11
432.1582504625
 21
162.6234633082
  0
LINE
  8
DEFAULT_2
 62
8
  6
HIDDEN
 10
432.1582504625
 20
163.7184852221
 11
425.7082504625
 21
163.7184852221
  0
LINE
  8
DEFAULT_2
 62
8
  6
HIDDEN
 10
415.4082504625
 20
163.7184852221
 11
408.9582504625
 21
163.7184852221
  0
LINE
  8
DEFAULT_2
 62
8
  6
HIDDEN
 10
408.9582504625
 20
163.9253659443
 11
415.4082504625
 21
163.9253659443
  0
LINE
  8
DEFAULT_2
 62
8
  6
HIDDEN
 10
425.7082504625
 20
163.9253659443
 11
432.1582504625
 21
163.9253659443
  0
LINE
  8
DEFAULT_2
 62
8
  6
HIDDEN
 10
432.1582504625
 20
164.0563345016
 11
425.7082504625
 21
164.0563345016
  0
LINE
  8
DEFAULT_2
 62
8
  6
HIDDEN
 10
415.4082504625
 20
164.0563345016
 11
408.9582504625
 21
164.0563345016
  0
LINE
  8
DEFAULT_2
 62
8
  6
HIDDEN
 10
432.1582504625
 20
165.4066887185
 11
425.7082504625
 21
165.4066887185
  0
LINE
  8
DEFAULT_2
 62
8
  6
HIDDEN
 10
415.4082504625
 20
165.4066887185
 11
408.9582504625
 21
165.4066887185
  0
LINE
  8
DEFAULT_2
 62
8
  6
HIDDEN
 10
432.1582504625
 20
165.4447489522
 11
425.7082504625
 21
165.4447489522
  0
LINE
  8
DEFAULT_2
 62
8
  6
HIDDEN
 10
415.4082504625
 20
165.4447489522
 11
408.9582504625
 21
165.4447489522
  0
LINE
  8
DEFAULT_2
 62
8
  6
HIDDEN
 10
432.1582504625
 20
165.4764514858
 11
425.7082504625
 21
165.4764514858
  0
LINE
  8
DEFAULT_2
 62
8
  6
HIDDEN
 10
415.4082504625
 20
165.4764514858
 11
408.9582504625
 21
165.4764514858
  0
LINE
  8
DEFAULT_2
 62
8
  6
HIDDEN
 10
408.9582504625
 20
165.5599725544
 11
415.4082504625
 21
165.5599725544
  0
LINE
  8
DEFAULT_2
 62
8
  6
HIDDEN
 10
425.7082504625
 20
165.5599725544
 11
432.1582504625
 21
165.5599725544
  0
LINE
  8
DEFAULT_2
 62
8
  6
HIDDEN
 10
408.9582504625
 20
165.755502555
 11
415.4082504625
 21
165.755502555
  0
LINE
  8
DEFAULT_2
 62
8
  6
HIDDEN
 10
425.7082504625
 20
165.755502555
 11
432.1582504625
 21
165.755502555
  0
LINE
  8
DEFAULT_2
 62
8
  6
HIDDEN
 10
408.9582504625
 20
166.3698748017
 11
415.4082504625
 21
166.3698748017
  0
LINE
  8
DEFAULT_2
 62
8
  6
HIDDEN
 10
425.7082504625
 20
166.3698748017
 11
432.1582504625
 21
166.3698748017
  0
LINE
  8
DEFAULT_2
 62
8
  6
HIDDEN
 10
408.9582504625
 20
166.6325974649
 11
415.4082504625
 21
166.6325974649
  0
LINE
  8
DEFAULT_2
 62
8
  6
HIDDEN
 10
425.7082504625
 20
166.6325974649
 11
432.1582504625
 21
166.6325974649
  0
LINE
  8
DEFAULT_2
 62
8
  6
HIDDEN
 10
408.9582504625
 20
167.1496937672
 11
415.4082504625
 21
167.1496937672
  0
LINE
  8
DEFAULT_2
 62
8
  6
HIDDEN
 10
425.7082504625
 20
167.1496937672
 11
432.1582504625
 21
167.1496937672
  0
LINE
  8
0
 62
9
  6
CONTINUOUS
 10
408.9582504625
 20
169.8438102038
 11
415.4082504625
 21
169.8438102038
  0
LINE
  8
0
 62
9
  6
CONTINUOUS
 10
425.7082504625
 20
169.8438102038
 11
432.1582504625
 21
169.8438102038
  0
LINE
  8
DEFAULT_2
 62
8
  6
HIDDEN
 10
408.9582504625
 20
170.470674887
 11
415.4082504625
 21
170.470674887
  0
LINE
  8
DEFAULT_2
 62
8
  6
HIDDEN
 10
425.7082504625
 20
170.470674887
 11
432.1582504625
 21
170.470674887
  0
LINE
  8
DEFAULT_2
 62
8
  6
HIDDEN
 10
408.9582504625
 20
172.3366968441
 11
415.4082504625
 21
172.3366968441
  0
LINE
  8
DEFAULT_2
 62
8
  6
HIDDEN
 10
425.7082504625
 20
172.3366968441
 11
432.1582504625
 21
172.3366968441
  0
LINE
  8
DEFAULT_2
 62
8
  6
HIDDEN
 10
408.9582504625
 20
173.0979015189
 11
415.4082504625
 21
173.0979015189
  0
LINE
  8
DEFAULT_2
 62
8
  6
HIDDEN
 10
425.7082504625
 20
173.0979015189
 11
432.1582504625
 21
173.0979015189
  0
LINE
  8
0
 62
7
  6
CONTINUOUS
 10
408.9582504625
 20
178.0060937502
 11
415.4082504625
 21
178.0060937502
  0
LINE
  8
0
 62
7
  6
CONTINUOUS
 10
425.7082504625
 20
178.0060937502
 11
432.1582504625
 21
178.0060937502
  0
LINE
  8
0
 62
9
  6
CONTINUOUS
 10
408.9582504625
 20
178.3496673816
 11
415.4082504625
 21
178.3496673816
  0
LINE
  8
0
 62
9
  6
CONTINUOUS
 10
425.7082504625
 20
178.3496673816
 11
432.1582504625
 21
178.3496673816
  0
LINE
  8
0
 62
9
  6
CONTINUOUS
 10
408.9582504625
 20
180.0007166155
 11
415.4082504625
 21
180.0007166155
  0
LINE
  8
0
 62
9
  6
CONTINUOUS
 10
425.7082504625
 20
180.0007166155
 11
432.1582504625
 21
180.0007166155
  0
LINE
  8
DEFAULT_2
 62
8
  6
HIDDEN
 10
408.9582504625
 20
181.9700384766
 11
415.4082504625
 21
181.9700384766
  0
LINE
  8
DEFAULT_2
 62
8
  6
HIDDEN
 10
425.7082504625
 20
181.9700384766
 11
432.1582504625
 21
181.9700384766
  0
LINE
  8
DEFAULT_2
 62
8
  6
HIDDEN
 10
432.1582504625
 20
182.5784693967
 11
425.7082504625
 21
182.5784693967
  0
LINE
  8
DEFAULT_2
 62
8
  6
HIDDEN
 10
415.4082504625
 20
182.5784693967
 11
408.9582504625
 21
182.5784693967
  0
LINE
  8
DEFAULT_2
 62
8
  6
HIDDEN
 10
432.1582504625
 20
183.0027334654
 11
425.7082504625
 21
183.0027334654
  0
LINE
  8
DEFAULT_2
 62
8
  6
HIDDEN
 10
415.4082504625
 20
183.0027334654
 11
408.9582504625
 21
183.0027334654
  0
LINE
  8
0
 62
9
  6
CONTINUOUS
 10
408.9582504625
 20
184.1892431341
 11
415.4082504625
 21
184.1892431341
  0
LINE
  8
0
 62
9
  6
CONTINUOUS
 10
425.7082504625
 20
184.1892431341
 11
432.1582504625
 21
184.1892431341
  0
LINE
  8
DEFAULT_2
 62
8
  6
HIDDEN
 10
408.9582504625
 20
184.3756408744
 11
415.4082504625
 21
184.3756408744
  0
LINE
  8
DEFAULT_2
 62
8
  6
HIDDEN
 10
425.7082504625
 20
184.3756408744
 11
432.1582504625
 21
184.3756408744
  0
LINE
  8
DEFAULT_2
 62
8
  6
HIDDEN
 10
408.9582504625
 20
185.2855761778
 11
415.4082504625
 21
185.2855761778
  0
LINE
  8
DEFAULT_2
 62
8
  6
HIDDEN
 10
425.7082504625
 20
185.2855761778
 11
432.1582504625
 21
185.2855761778
  0
LINE
  8
DEFAULT_2
 62
8
  6
HIDDEN
 10
432.1582504625
 20
185.6217422431
 11
425.7082504625
 21
185.6217422431
  0
LINE
  8
DEFAULT_2
 62
8
  6
HIDDEN
 10
415.4082504625
 20
185.6217422431
 11
408.9582504625
 21
185.6217422431
  0
LINE
  8
DEFAULT_2
 62
8
  6
HIDDEN
 10
432.1582504625
 20
185.6267674962
 11
425.7082504625
 21
185.6267674962
  0
LINE
  8
DEFAULT_2
 62
8
  6
HIDDEN
 10
415.4082504625
 20
185.6267674962
 11
408.9582504625
 21
185.6267674962
  0
LINE
  8
DEFAULT_2
 62
8
  6
HIDDEN
 10
408.9582504625
 20
185.6468685089
 11
415.4082504625
 21
185.6468685089
  0
LINE
  8
DEFAULT_2
 62
8
  6
HIDDEN
 10
425.7082504625
 20
185.6468685089
 11
432.1582504625
 21
185.6468685089
  0
LINE
  8
DEFAULT_2
 62
8
  6
HIDDEN
 10
432.1582504625
 20
185.7681888525
 11
425.7082504625
 21
185.7681888525
  0
LINE
  8
DEFAULT_2
 62
8
  6
HIDDEN
 10
415.4082504625
 20
185.7681888525
 11
408.9582504625
 21
185.7681888525
  0
LINE
  8
0
 62
9
  6
CONTINUOUS
 10
408.9582504625
 20
194.7719795339
 11
415.4082504625
 21
194.7719795339
  0
LINE
  8
0
 62
9
  6
CONTINUOUS
 10
425.7082504625
 20
194.7719795339
 11
432.1582504625
 21
194.7719795339
  0
LINE
  8
DEFAULT_2
 62
8
  6
HIDDEN
 10
408.9582504625
 20
198.5028480453
 11
415.4082504625
 21
198.5028480453
  0
LINE
  8
DEFAULT_2
 62
8
  6
HIDDEN
 10
425.7082504625
 20
198.5028480453
 11
432.1582504625
 21
198.5028480453
  0
LINE
  8
DEFAULT_2
 62
8
  6
HIDDEN
 10
408.9582504625
 20
198.8253575923
 11
415.4082504625
 21
198.8253575923
  0
LINE
  8
DEFAULT_2
 62
8
  6
HIDDEN
 10
425.7082504625
 20
198.8253575923
 11
432.1582504625
 21
198.8253575923
  0
LINE
  8
DEFAULT_2
 62
8
  6
HIDDEN
 10
408.9582504625
 20
198.8856649715
 11
415.4082504625
 21
198.8856649715
  0
LINE
  8
DEFAULT_2
 62
8
  6
HIDDEN
 10
425.7082504625
 20
198.8856649715
 11
432.1582504625
 21
198.8856649715
  0
LINE
  8
DEFAULT_2
 62
8
  6
HIDDEN
 10
408.9582504625
 20
199.9952288494
 11
415.4082504625
 21
199.9952288494
  0
LINE
  8
DEFAULT_2
 62
8
  6
HIDDEN
 10
425.7082504625
 20
199.9952288494
 11
432.1582504625
 21
199.9952288494
  0
LINE
  8
DEFAULT_2
 62
8
  6
HIDDEN
 10
408.9582504625
 20
200.8287064413
 11
415.4082504625
 21
200.8287064413
  0
LINE
  8
DEFAULT_2
 62
8
  6
HIDDEN
 10
425.7082504625
 20
200.8287064413
 11
432.1582504625
 21
200.8287064413
  0
LINE
  8
DEFAULT_2
 62
8
  6
HIDDEN
 10
408.9582504625
 20
201.4317802334
 11
415.4082504625
 21
201.4317802334
  0
LINE
  8
DEFAULT_2
 62
8
  6
HIDDEN
 10
425.7082504625
 20
201.4317802334
 11
432.1582504625
 21
201.4317802334
  0
LINE
  8
DEFAULT_2
 62
8
  6
HIDDEN
 10
403.9582504625
 20
204.4954177678
 11
437.1582504625
 21
204.4954177678
  0
LINE
  8
DEFAULT_2
 62
8
  6
HIDDEN
 10
403.9582504625
 20
207.9282237241
 11
437.1582504625
 21
207.9282237241
  0
LINE
  8
DEFAULT_2
 62
8
  6
HIDDEN
 10
403.9582504625
 20
208.1273618528
 11
437.1582504625
 21
208.1273618528
  0
LINE
  8
DEFAULT_2
 62
8
  6
HIDDEN
 10
403.9582504625
 20
211.017112602
 11
437.1582504625
 21
211.017112602
  0
LINE
  8
DEFAULT_2
 62
8
  6
HIDDEN
 10
403.9582504625
 20
211.2922439458
 11
437.1582504625
 21
211.2922439458
  0
LINE
  8
DEFAULT_2
 62
8
  6
HIDDEN
 10
408.9582504625
 20
211.3814017715
 11
415.4082504625
 21
211.3814017715
  0
LINE
  8
DEFAULT_2
 62
8
  6
HIDDEN
 10
425.7082504625
 20
211.3814017715
 11
432.1582504625
 21
211.3814017715
  0
LINE
  8
0
 62
9
  6
CONTINUOUS
 10
432.1582504625
 20
211.4106136055
 11
425.7082504625
 21
211.4106136055
  0
LINE
  8
0
 62
9
  6
CONTINUOUS
 10
415.4082504625
 20
211.4106136055
 11
408.9582504625
 21
211.4106136055
  0
LINE
  8
0
 62
9
  6
CONTINUOUS
 10
432.1582504625
 20
211.856702105
 11
425.7082504625
 21
211.856702105
  0
LINE
  8
0
 62
9
  6
CONTINUOUS
 10
415.4082504625
 20
211.856702105
 11
408.9582504625
 21
211.856702105
  0
LINE
  8
0
 62
7
  6
CONTINUOUS
 10
408.9582504625
 20
212.0659575143
 11
415.4082504625
 21
212.0659575143
  0
LINE
  8
0
 62
7
  6
CONTINUOUS
 10
425.7082504625
 20
212.0659575143
 11
432.1582504625
 21
212.0659575143
  0
LINE
  8
DEFAULT_2
 62
8
  6
HIDDEN
 10
408.9582504625
 20
214.5244727727
 11
415.4082504625
 21
214.5244727727
  0
LINE
  8
DEFAULT_2
 62
8
  6
HIDDEN
 10
425.7082504625
 20
214.5244727727
 11
432.1582504625
 21
214.5244727727
  0
LINE
  8
0
 62
9
  6
CONTINUOUS
 10
408.9582504625
 20
214.6286995815
 11
415.4082504625
 21
214.6286995815
  0
LINE
  8
0
 62
9
  6
CONTINUOUS
 10
425.7082504625
 20
214.6286995815
 11
432.1582504625
 21
214.6286995815
  0
LINE
  8
DEFAULT_2
 62
8
  6
HIDDEN
 10
408.9582504625
 20
214.8756892382
 11
415.4082504625
 21
214.8756892382
  0
LINE
  8
DEFAULT_2
 62
8
  6
HIDDEN
 10
425.7082504625
 20
214.8756892382
 11
432.1582504625
 21
214.8756892382
  0
LINE
  8
DEFAULT_2
 62
8
  6
HIDDEN
 10
432.1582504625
 20
215.2851677883
 11
425.7082504625
 21
215.2851677883
  0
LINE
  8
DEFAULT_2
 62
8
  6
HIDDEN
 10
415.4082504625
 20
215.2851677883
 11
408.9582504625
 21
215.2851677883
  0
LINE
  8
DEFAULT_2
 62
8
  6
HIDDEN
 10
432.1582504625
 20
215.5781829149
 11
425.7082504625
 21
215.5781829149
  0
LINE
  8
DEFAULT_2
 62
8
  6
HIDDEN
 10
415.4082504625
 20
215.5781829149
 11
408.9582504625
 21
215.5781829149
  0
LINE
  8
0
 62
9
  6
CONTINUOUS
 10
408.9582504625
 20
216.3519543637
 11
415.4082504625
 21
216.3519543637
  0
LINE
  8
0
 62
9
  6
CONTINUOUS
 10
425.7082504625
 20
216.3519543637
 11
432.1582504625
 21
216.3519543637
  0
LINE
  8
0
 62
9
  6
CONTINUOUS
 10
408.9582504625
 20
218.752879644
 11
415.4082504625
 21
218.752879644
  0
LINE
  8
0
 62
9
  6
CONTINUOUS
 10
425.7082504625
 20
218.752879644
 11
432.1582504625
 21
218.752879644
  0
LINE
  8
0
 62
7
  6
CONTINUOUS
 10
403.9582504625
 20
333.9849923223
 11
403.9582504625
 21
162.1769227064
  0
LINE
  8
DEFAULT_2
 62
8
  6
HIDDEN
 10
404.1582504625
 20
320.6409054084
 11
404.1582504625
 21
332.0037100122
  0
LINE
  8
0
 62
9
  6
CONTINUOUS
 10
405.9582504625
 20
335.9849923223
 11
405.9582504625
 21
160.1769227064
  0
LINE
  8
0
 62
9
  6
CONTINUOUS
 10
408.9582504625
 20
227.8159575143
 11
415.4082504625
 21
227.8159575143
  0
LINE
  8
0
 62
9
  6
CONTINUOUS
 10
425.7082504625
 20
227.8159575143
 11
432.1582504625
 21
227.8159575143
  0
LINE
  8
DEFAULT_2
 62
8
  6
HIDDEN
 10
408.9582504625
 20
232.2168169865
 11
415.4082504625
 21
232.2168169865
  0
LINE
  8
DEFAULT_2
 62
8
  6
HIDDEN
 10
425.7082504625
 20
232.2168169865
 11
432.1582504625
 21
232.2168169865
  0
LINE
  8
0
 62
7
  6
CONTINUOUS
 10
408.9582504625
 20
141.3918949316
 11
408.9582504625
 21
354.7700200971
  0
LINE
  8
DEFAULT_2
 62
8
  6
HIDDEN
 10
408.9582504625
 20
238.3804648787
 11
415.4082504625
 21
238.3804648787
  0
LINE
  8
DEFAULT_2
 62
8
  6
HIDDEN
 10
425.7082504625
 20
238.3804648787
 11
432.1582504625
 21
238.3804648787
  0
LINE
  8
DEFAULT_2
 62
8
  6
HIDDEN
 10
408.9582504625
 20
238.6282698112
 11
415.4082504625
 21
238.6282698112
  0
LINE
  8
DEFAULT_2
 62
8
  6
HIDDEN
 10
425.7082504625
 20
238.6282698112
 11
432.1582504625
 21
238.6282698112
  0
LINE
  8
DEFAULT_2
 62
8
  6
HIDDEN
 10
408.9582504625
 20
240.1613802225
 11
415.4082504625
 21
240.1613802225
  0
LINE
  8
DEFAULT_2
 62
8
  6
HIDDEN
 10
425.7082504625
 20
240.1613802225
 11
432.1582504625
 21
240.1613802225
  0
LINE
  8
DEFAULT_2
 62
8
  6
HIDDEN
 10
403.9582504625
 20
241.6683384351
 11
437.1582504625
 21
241.6683384351
  0
LINE
  8
0
 62
7
  6
CONTINUOUS
 10
415.4082504625
 20
141.3918894241
 11
415.4082504625
 21
354.7700256046
  0
LINE
  8
0
 62
40
  6
CONTINUOUS
 10
420.5582504625
 20
248.0809575143
 11
420.5582504625
 21
157.8257840325
  0
LINE
  8
PITCH_DIAMETER
 62
40
  6
CONTINUOUS
 10
420.5582504625
 20
351.8479629137
 11
420.5582504625
 21
144.330006857
  0
LINE
  8
DEFAULT_2
 62
8
  6
HIDDEN
 10
420.5582504625
 20
333.7819315729
 11
420.5582504625
 21
335.9856380211
  0
LINE
  8
0
 62
40
  6
CONTINUOUS
 10
420.5582504625
 20
335.9856380698
 11
420.5582504625
 21
338.4388998132
  0
LINE
  8
0
 62
40
  6
CONTINUOUS
 10
420.5582504625
 20
352.9218328184
 11
420.5582504625
 21
355.1075729643
  0
LINE
  8
DEFAULT_2
 62
8
  6
HIDDEN
 10
403.9582504625
 20
243.1054333407
 11
437.1582504625
 21
243.1054333407
  0
LINE
  8
DEFAULT_2
 62
8
  6
HIDDEN
 10
403.9582504625
 20
243.5199784747
 11
437.1582504625
 21
243.5199784747
  0
LINE
  8
DEFAULT_2
 62
8
  6
HIDDEN
 10
403.9582504625
 20
245.1138686621
 11
437.1582504625
 21
245.1138686621
  0
LINE
  8
0
 62
9
  6
CONTINUOUS
 10
432.1582504625
 20
245.825485257
 11
425.7082504625
 21
245.825485257
  0
LINE
  8
0
 62
9
  6
CONTINUOUS
 10
415.4082504625
 20
245.825485257
 11
408.9582504625
 21
245.825485257
  0
LINE
  8
0
 62
9
  6
CONTINUOUS
 10
432.1582504625
 20
246.225485257
 11
425.7082504625
 21
246.225485257
  0
LINE
  8
0
 62
9
  6
CONTINUOUS
 10
415.4082504625
 20
246.225485257
 11
408.9582504625
 21
246.225485257
  0
LINE
  8
DEFAULT_2
 62
8
  6
HIDDEN
 10
408.9582504625
 20
246.3364297716
 11
415.4082504625
 21
246.3364297716
  0
LINE
  8
DEFAULT_2
 62
8
  6
HIDDEN
 10
425.7082504625
 20
246.3364297716
 11
432.1582504625
 21
246.3364297716
  0
LINE
  8
DEFAULT_2
 62
8
  6
HIDDEN
 10
408.9582504625
 20
246.379939746
 11
415.4082504625
 21
246.379939746
  0
LINE
  8
DEFAULT_2
 62
8
  6
HIDDEN
 10
425.7082504625
 20
246.379939746
 11
432.1582504625
 21
246.379939746
  0
LINE
  8
DEFAULT_2
 62
8
  6
HIDDEN
 10
408.9582504625
 20
246.6845095667
 11
415.4082504625
 21
246.6845095667
  0
LINE
  8
DEFAULT_2
 62
8
  6
HIDDEN
 10
425.7082504625
 20
246.6845095667
 11
432.1582504625
 21
246.6845095667
  0
LINE
  8
DEFAULT_1
 62
2
  6
CENTER
 10
401.9582504625
 20
248.0809575143
 11
439.1582504625
 21
248.0809575143
  0
LINE
  8
0
 62
7
  6
CONTINUOUS
 10
425.7082504625
 20
141.3918894241
 11
425.7082504625
 21
354.7700256046
  0
LINE
  8
0
 62
7
  6
CONTINUOUS
 10
408.9582504625
 20
249.477405462
 11
415.4082504625
 21
249.477405462
  0
LINE
  8
0
 62
7
  6
CONTINUOUS
 10
425.7082504625
 20
249.477405462
 11
432.1582504625
 21
249.477405462
  0
LINE
  8
DEFAULT_2
 62
8
  6
HIDDEN
 10
408.9582504625
 20
249.7819752827
 11
415.4082504625
 21
249.7819752827
  0
LINE
  8
DEFAULT_2
 62
8
  6
HIDDEN
 10
425.7082504625
 20
249.7819752827
 11
432.1582504625
 21
249.7819752827
  0
LINE
  8
DEFAULT_2
 62
8
  6
HIDDEN
 10
408.9582504625
 20
249.825485257
 11
415.4082504625
 21
249.825485257
  0
LINE
  8
DEFAULT_2
 62
8
  6
HIDDEN
 10
425.7082504625
 20
249.825485257
 11
432.1582504625
 21
249.825485257
  0
LINE
  8
DEFAULT_2
 62
8
  6
HIDDEN
 10
432.1582504625
 20
249.9364297716
 11
425.7082504625
 21
249.9364297716
  0
LINE
  8
DEFAULT_2
 62
8
  6
HIDDEN
 10
415.4082504625
 20
249.9364297716
 11
408.9582504625
 21
249.9364297716
  0
LINE
  8
DEFAULT_2
 62
8
  6
HIDDEN
 10
432.1582504625
 20
250.3364297716
 11
425.7082504625
 21
250.3364297716
  0
LINE
  8
DEFAULT_2
 62
8
  6
HIDDEN
 10
415.4082504625
 20
250.3364297716
 11
408.9582504625
 21
250.3364297716
  0
LINE
  8
DEFAULT_2
 62
8
  6
HIDDEN
 10
403.9582504625
 20
251.0480463665
 11
437.1582504625
 21
251.0480463665
  0
LINE
  8
DEFAULT_2
 62
8
  6
HIDDEN
 10
403.9582504625
 20
252.641936554
 11
437.1582504625
 21
252.641936554
  0
LINE
  8
DEFAULT_2
 62
8
  6
HIDDEN
 10
403.9582504625
 20
253.056481688
 11
437.1582504625
 21
253.056481688
  0
LINE
  8
DEFAULT_2
 62
8
  6
HIDDEN
 10
403.9582504625
 20
254.4935765936
 11
437.1582504625
 21
254.4935765936
  0
LINE
  8
0
 62
9
  6
CONTINUOUS
 10
408.9582504625
 20
256.0005348062
 11
415.4082504625
 21
256.0005348062
  0
LINE
  8
0
 62
9
  6
CONTINUOUS
 10
425.7082504625
 20
256.0005348062
 11
432.1582504625
 21
256.0005348062
  0
LINE
  8
0
 62
7
  6
CONTINUOUS
 10
432.1582504625
 20
354.7700200971
 11
432.1582504625
 21
141.3918949316
  0
LINE
  8
0
 62
9
  6
CONTINUOUS
 10
435.1582504625
 20
335.9849923223
 11
435.1582504625
 21
160.1769227064
  0
LINE
  8
0
 62
9
  6
CONTINUOUS
 10
408.9582504625
 20
257.5336452175
 11
415.4082504625
 21
257.5336452175
  0
LINE
  8
0
 62
9
  6
CONTINUOUS
 10
425.7082504625
 20
257.5336452175
 11
432.1582504625
 21
257.5336452175
  0
LINE
  8
0
 62
9
  6
CONTINUOUS
 10
408.9582504625
 20
257.78145015
 11
415.4082504625
 21
257.78145015
  0
LINE
  8
0
 62
9
  6
CONTINUOUS
 10
425.7082504625
 20
257.78145015
 11
432.1582504625
 21
257.78145015
  0
LINE
  8
0
 62
7
  6
CONTINUOUS
 10
437.1582504625
 20
333.9849923223
 11
437.1582504625
 21
162.1769227064
  0
LINE
  8
0
 62
9
  6
CONTINUOUS
 10
408.9582504625
 20
263.9450980421
 11
415.4082504625
 21
263.9450980421
  0
LINE
  8
0
 62
9
  6
CONTINUOUS
 10
425.7082504625
 20
263.9450980421
 11
432.1582504625
 21
263.9450980421
  0
LINE
  8
DEFAULT_2
 62
8
  6
HIDDEN
 10
408.9582504625
 20
268.3459575143
 11
415.4082504625
 21
268.3459575143
  0
LINE
  8
DEFAULT_2
 62
8
  6
HIDDEN
 10
425.7082504625
 20
268.3459575143
 11
432.1582504625
 21
268.3459575143
  0
LINE
  8
DEFAULT_2
 62
8
  6
HIDDEN
 10
408.9582504625
 20
277.4090353847
 11
415.4082504625
 21
277.4090353847
  0
LINE
  8
DEFAULT_2
 62
8
  6
HIDDEN
 10
425.7082504625
 20
277.4090353847
 11
432.1582504625
 21
277.4090353847
  0
LINE
  8
DEFAULT_2
 62
8
  6
HIDDEN
 10
408.9582504625
 20
279.809960665
 11
415.4082504625
 21
279.809960665
  0
LINE
  8
DEFAULT_2
 62
8
  6
HIDDEN
 10
425.7082504625
 20
279.809960665
 11
432.1582504625
 21
279.809960665
  0
LINE
  8
0
 62
9
  6
CONTINUOUS
 10
432.1582504625
 20
280.5837321138
 11
425.7082504625
 21
280.5837321138
  0
LINE
  8
0
 62
9
  6
CONTINUOUS
 10
415.4082504625
 20
280.5837321138
 11
408.9582504625
 21
280.5837321138
  0
LINE
  8
0
 62
9
  6
CONTINUOUS
 10
432.1582504625
 20
280.8767472404
 11
425.7082504625
 21
280.8767472404
  0
LINE
  8
0
 62
9
  6
CONTINUOUS
 10
415.4082504625
 20
280.8767472404
 11
408.9582504625
 21
280.8767472404
  0
LINE
  8
DEFAULT_2
 62
8
  6
HIDDEN
 10
408.9582504625
 20
281.2862257905
 11
415.4082504625
 21
281.2862257905
  0
LINE
  8
DEFAULT_2
 62
8
  6
HIDDEN
 10
425.7082504625
 20
281.2862257905
 11
432.1582504625
 21
281.2862257905
  0
LINE
  8
DEFAULT_2
 62
8
  6
HIDDEN
 10
408.9582504625
 20
281.5332154472
 11
415.4082504625
 21
281.5332154472
  0
LINE
  8
DEFAULT_2
 62
8
  6
HIDDEN
 10
425.7082504625
 20
281.5332154472
 11
432.1582504625
 21
281.5332154472
  0
LINE
  8
DEFAULT_2
 62
8
  6
HIDDEN
 10
408.9582504625
 20
281.637442256
 11
415.4082504625
 21
281.637442256
  0
LINE
  8
DEFAULT_2
 62
8
  6
HIDDEN
 10
425.7082504625
 20
281.637442256
 11
432.1582504625
 21
281.637442256
  0
LINE
  8
DEFAULT_2
 62
8
  6
HIDDEN
 10
408.9582504625
 20
284.0959575143
 11
415.4082504625
 21
284.0959575143
  0
LINE
  8
DEFAULT_2
 62
8
  6
HIDDEN
 10
425.7082504625
 20
284.0959575143
 11
432.1582504625
 21
284.0959575143
  0
LINE
  8
DEFAULT_2
 62
8
  6
HIDDEN
 10
432.1582504625
 20
284.3052129237
 11
425.7082504625
 21
284.3052129237
  0
LINE
  8
DEFAULT_2
 62
8
  6
HIDDEN
 10
415.4082504625
 20
284.3052129237
 11
408.9582504625
 21
284.3052129237
  0
LINE
  8
DEFAULT_2
 62
8
  6
HIDDEN
 10
432.1582504625
 20
284.7513014232
 11
425.7082504625
 21
284.7513014232
  0
LINE
  8
DEFAULT_2
 62
8
  6
HIDDEN
 10
415.4082504625
 20
284.7513014232
 11
408.9582504625
 21
284.7513014232
  0
LINE
  8
0
 62
9
  6
CONTINUOUS
 10
408.9582504625
 20
284.7805132572
 11
415.4082504625
 21
284.7805132572
  0
LINE
  8
0
 62
9
  6
CONTINUOUS
 10
425.7082504625
 20
284.7805132572
 11
432.1582504625
 21
284.7805132572
  0
LINE
  8
DEFAULT_2
 62
8
  6
HIDDEN
 10
403.9582504625
 20
284.8696710829
 11
437.1582504625
 21
284.8696710829
  0
LINE
  8
DEFAULT_2
 62
8
  6
HIDDEN
 10
403.9582504625
 20
285.1448024267
 11
437.1582504625
 21
285.1448024267
  0
LINE
  8
DEFAULT_2
 62
8
  6
HIDDEN
 10
403.9582504625
 20
288.0345531759
 11
437.1582504625
 21
288.0345531759
  0
LINE
  8
DEFAULT_2
 62
8
  6
HIDDEN
 10
403.9582504625
 20
288.2336913046
 11
437.1582504625
 21
288.2336913046
  0
LINE
  8
DEFAULT_2
 62
8
  6
HIDDEN
 10
403.9582504625
 20
291.6664972609
 11
437.1582504625
 21
291.6664972609
  0
LINE
  8
DEFAULT_2
 62
8
  6
HIDDEN
 10
408.9582504625
 20
294.7301347952
 11
415.4082504625
 21
294.7301347952
  0
LINE
  8
DEFAULT_2
 62
8
  6
HIDDEN
 10
425.7082504625
 20
294.7301347952
 11
432.1582504625
 21
294.7301347952
  0
LINE
  8
DEFAULT_2
 62
8
  6
HIDDEN
 10
408.9582504625
 20
295.3332085874
 11
415.4082504625
 21
295.3332085874
  0
LINE
  8
DEFAULT_2
 62
8
  6
HIDDEN
 10
425.7082504625
 20
295.3332085874
 11
432.1582504625
 21
295.3332085874
  0
LINE
  8
0
 62
9
  6
CONTINUOUS
 10
408.9582504625
 20
296.1666861793
 11
415.4082504625
 21
296.1666861793
  0
LINE
  8
0
 62
9
  6
CONTINUOUS
 10
425.7082504625
 20
296.1666861793
 11
432.1582504625
 21
296.1666861793
  0
LINE
  8
DEFAULT_2
 62
8
  6
HIDDEN
 10
408.9582504625
 20
297.2762500572
 11
415.4082504625
 21
297.2762500572
  0
LINE
  8
DEFAULT_2
 62
8
  6
HIDDEN
 10
425.7082504625
 20
297.2762500572
 11
432.1582504625
 21
297.2762500572
  0
LINE
  8
0
 62
7
  6
CONTINUOUS
 10
408.9582504625
 20
297.3365574364
 11
415.4082504625
 21
297.3365574364
  0
LINE
  8
0
 62
7
  6
CONTINUOUS
 10
425.7082504625
 20
297.3365574364
 11
432.1582504625
 21
297.3365574364
  0
LINE
  8
0
 62
9
  6
CONTINUOUS
 10
408.9582504625
 20
297.6590669834
 11
415.4082504625
 21
297.6590669834
  0
LINE
  8
0
 62
9
  6
CONTINUOUS
 10
425.7082504625
 20
297.6590669834
 11
432.1582504625
 21
297.6590669834
  0
LINE
  8
DEFAULT_2
 62
8
  6
HIDDEN
 10
408.9582504625
 20
301.3899354948
 11
415.4082504625
 21
301.3899354948
  0
LINE
  8
DEFAULT_2
 62
8
  6
HIDDEN
 10
425.7082504625
 20
301.3899354948
 11
432.1582504625
 21
301.3899354948
  0
LINE
  8
0
 62
9
  6
CONTINUOUS
 10
432.1582504625
 20
310.3937261762
 11
425.7082504625
 21
310.3937261762
  0
LINE
  8
0
 62
9
  6
CONTINUOUS
 10
415.4082504625
 20
310.3937261762
 11
408.9582504625
 21
310.3937261762
  0
LINE
  8
DEFAULT_2
 62
8
  6
HIDDEN
 10
408.9582504625
 20
310.5150465198
 11
415.4082504625
 21
310.5150465198
  0
LINE
  8
DEFAULT_2
 62
8
  6
HIDDEN
 10
425.7082504625
 20
310.5150465198
 11
432.1582504625
 21
310.5150465198
  0
LINE
  8
DEFAULT_2
 62
8
  6
HIDDEN
 10
432.1582504625
 20
310.5351475325
 11
425.7082504625
 21
310.5351475325
  0
LINE
  8
DEFAULT_2
 62
8
  6
HIDDEN
 10
415.4082504625
 20
310.5351475325
 11
408.9582504625
 21
310.5351475325
  0
LINE
  8
0
 62
7
  6
CONTINUOUS
 10
432.1582504625
 20
310.5401727856
 11
425.7082504625
 21
310.5401727856
  0
LINE
  8
0
 62
7
  6
CONTINUOUS
 10
415.4082504625
 20
310.5401727856
 11
408.9582504625
 21
310.5401727856
  0
LINE
  8
DEFAULT_2
 62
8
  6
HIDDEN
 10
408.9582504625
 20
310.8763388509
 11
415.4082504625
 21
310.8763388509
  0
LINE
  8
DEFAULT_2
 62
8
  6
HIDDEN
 10
425.7082504625
 20
310.8763388509
 11
432.1582504625
 21
310.8763388509
  0
LINE
  8
DEFAULT_2
 62
8
  6
HIDDEN
 10
408.9582504625
 20
311.7862741543
 11
415.4082504625
 21
311.7862741543
  0
LINE
  8
DEFAULT_2
 62
8
  6
HIDDEN
 10
425.7082504625
 20
311.7862741543
 11
432.1582504625
 21
311.7862741543
  0
LINE
  8
DEFAULT_2
 62
8
  6
HIDDEN
 10
408.9582504625
 20
311.9726718946
 11
415.4082504625
 21
311.9726718946
  0
LINE
  8
DEFAULT_2
 62
8
  6
HIDDEN
 10
425.7082504625
 20
311.9726718946
 11
432.1582504625
 21
311.9726718946
  0
LINE
  8
DEFAULT_2
 62
8
  6
HIDDEN
 10
432.1582504625
 20
313.1591815633
 11
425.7082504625
 21
313.1591815633
  0
LINE
  8
DEFAULT_2
 62
8
  6
HIDDEN
 10
415.4082504625
 20
313.1591815633
 11
408.9582504625
 21
313.1591815633
  0
LINE
  8
DEFAULT_2
 62
8
  6
HIDDEN
 10
432.1582504625
 20
313.583445632
 11
425.7082504625
 21
313.583445632
  0
LINE
  8
DEFAULT_2
 62
8
  6
HIDDEN
 10
415.4082504625
 20
313.583445632
 11
408.9582504625
 21
313.583445632
  0
LINE
  8
0
 62
9
  6
CONTINUOUS
 10
408.9582504625
 20
314.1918765521
 11
415.4082504625
 21
314.1918765521
  0
LINE
  8
0
 62
9
  6
CONTINUOUS
 10
425.7082504625
 20
314.1918765521
 11
432.1582504625
 21
314.1918765521
  0
LINE
  8
DEFAULT_2
 62
8
  6
HIDDEN
 10
408.9582504625
 20
316.1611984132
 11
415.4082504625
 21
316.1611984132
  0
LINE
  8
DEFAULT_2
 62
8
  6
HIDDEN
 10
425.7082504625
 20
316.1611984132
 11
432.1582504625
 21
316.1611984132
  0
LINE
  8
DEFAULT_2
 62
8
  6
HIDDEN
 10
408.9582504625
 20
317.8122476471
 11
415.4082504625
 21
317.8122476471
  0
LINE
  8
DEFAULT_2
 62
8
  6
HIDDEN
 10
425.7082504625
 20
317.8122476471
 11
432.1582504625
 21
317.8122476471
  0
LINE
  8
DEFAULT_2
 62
8
  6
HIDDEN
 10
408.9582504625
 20
318.1558212785
 11
415.4082504625
 21
318.1558212785
  0
LINE
  8
DEFAULT_2
 62
8
  6
HIDDEN
 10
425.7082504625
 20
318.1558212785
 11
432.1582504625
 21
318.1558212785
  0
LINE
  8
DEFAULT_2
 62
8
  6
HIDDEN
 10
403.9582504625
 20
320.6409054084
 11
404.1582504625
 21
320.6409054084
  0
LINE
  8
DEFAULT_2
 62
8
  6
HIDDEN
 10
403.9582504625
 20
320.7036740207
 11
404.1582504625
 21
320.7036740207
  0
LINE
  8
DEFAULT_2
 62
8
  6
HIDDEN
 10
403.9582504625
 20
320.7164927782
 11
404.1582504625
 21
320.7164927782
  0
LINE
  8
DEFAULT_2
 62
8
  6
HIDDEN
 10
403.9582504625
 20
320.8645737354
 11
404.1582504625
 21
320.8645737354
  0
LINE
  8
DEFAULT_2
 62
8
  6
HIDDEN
 10
403.9582504625
 20
320.8902112433
 11
404.1582504625
 21
320.8902112433
  0
LINE
  8
DEFAULT_2
 62
8
  6
HIDDEN
 10
403.9582504625
 20
321.0462484483
 11
404.1582504625
 21
321.0462484483
  0
LINE
  8
DEFAULT_2
 62
8
  6
HIDDEN
 10
403.9582504625
 20
321.0961983153
 11
404.1582504625
 21
321.0961983153
  0
LINE
  8
DEFAULT_2
 62
8
  6
HIDDEN
 10
403.9582504625
 20
321.1236044662
 11
404.1582504625
 21
321.1236044662
  0
LINE
  8
DEFAULT_2
 62
8
  6
HIDDEN
 10
403.9582504625
 20
321.1315607938
 11
404.1582504625
 21
321.1315607938
  0
LINE
  8
DEFAULT_2
 62
8
  6
HIDDEN
 10
403.9582504625
 20
321.25709803
 11
404.1582504625
 21
321.25709803
  0
LINE
  8
DEFAULT_2
 62
8
  6
HIDDEN
 10
403.9582504625
 20
321.302185426
 11
404.1582504625
 21
321.302185426
  0
LINE
  8
DEFAULT_2
 62
8
  6
HIDDEN
 10
403.9582504625
 20
321.307047879
 11
404.1582504625
 21
321.307047879
  0
LINE
  8
DEFAULT_2
 62
8
  6
HIDDEN
 10
403.9582504625
 20
321.3455042003
 11
404.1582504625
 21
321.3455042003
  0
LINE
  8
DEFAULT_2
 62
8
  6
HIDDEN
 10
403.9582504625
 20
321.3985478522
 11
404.1582504625
 21
321.3985478522
  0
LINE
  8
DEFAULT_2
 62
8
  6
HIDDEN
 10
403.9582504625
 20
321.4656496007
 11
404.1582504625
 21
321.4656496007
  0
LINE
  8
DEFAULT_2
 62
8
  6
HIDDEN
 10
403.9582504625
 20
321.5081725367
 11
404.1582504625
 21
321.5081725367
  0
LINE
  8
DEFAULT_2
 62
8
  6
HIDDEN
 10
403.9582504625
 20
321.5161287866
 11
404.1582504625
 21
321.5161287866
  0
LINE
  8
DEFAULT_2
 62
8
  6
HIDDEN
 10
403.9582504625
 20
321.5544045285
 11
404.1582504625
 21
321.5544045285
  0
LINE
  8
DEFAULT_2
 62
8
  6
HIDDEN
 10
403.9582504625
 20
321.5753193559
 11
404.1582504625
 21
321.5753193559
  0
LINE
  8
DEFAULT_2
 62
8
  6
HIDDEN
 10
403.9582504625
 20
321.5996724668
 11
404.1582504625
 21
321.5996724668
  0
LINE
  8
DEFAULT_2
 62
8
  6
HIDDEN
 10
403.9582504625
 20
321.6642096834
 11
404.1582504625
 21
321.6642096834
  0
LINE
  8
DEFAULT_2
 62
8
  6
HIDDEN
 10
403.9582504625
 20
321.7172533868
 11
404.1582504625
 21
321.7172533868
  0
LINE
  8
DEFAULT_2
 62
8
  6
HIDDEN
 10
403.9582504625
 20
321.7423743791
 11
404.1582504625
 21
321.7423743791
  0
LINE
  8
DEFAULT_2
 62
8
  6
HIDDEN
 10
403.9582504625
 20
321.8059285529
 11
404.1582504625
 21
321.8059285529
  0
LINE
  8
DEFAULT_2
 62
8
  6
HIDDEN
 10
403.9582504625
 20
321.8330656883
 11
404.1582504625
 21
321.8330656883
  0
LINE
  8
DEFAULT_2
 62
8
  6
HIDDEN
 10
403.9582504625
 20
321.8593905976
 11
404.1582504625
 21
321.8593905976
  0
LINE
  8
DEFAULT_2
 62
8
  6
HIDDEN
 10
403.9582504625
 20
321.9827086604
 11
404.1582504625
 21
321.9827086604
  0
LINE
  8
DEFAULT_2
 62
8
  6
HIDDEN
 10
403.9582504625
 20
321.9993089097
 11
404.1582504625
 21
321.9993089097
  0
LINE
  8
DEFAULT_2
 62
8
  6
HIDDEN
 10
403.9582504625
 20
322.0128772826
 11
404.1582504625
 21
322.0128772826
  0
LINE
  8
DEFAULT_2
 62
8
  6
HIDDEN
 10
403.9582504625
 20
322.0165091097
 11
404.1582504625
 21
322.0165091097
  0
LINE
  8
DEFAULT_2
 62
8
  6
HIDDEN
 10
403.9582504625
 20
322.0295574317
 11
404.1582504625
 21
322.0295574317
  0
LINE
  8
DEFAULT_2
 62
8
  6
HIDDEN
 10
403.9582504625
 20
322.08495373
 11
404.1582504625
 21
322.08495373
  0
LINE
  8
DEFAULT_2
 62
8
  6
HIDDEN
 10
403.9582504625
 20
322.2079087808
 11
404.1582504625
 21
322.2079087808
  0
LINE
  8
DEFAULT_2
 62
8
  6
HIDDEN
 10
403.9582504625
 20
322.2760336968
 11
404.1582504625
 21
322.2760336968
  0
LINE
  8
DEFAULT_2
 62
8
  6
HIDDEN
 10
403.9582504625
 20
322.280268349
 11
404.1582504625
 21
322.280268349
  0
LINE
  8
DEFAULT_2
 62
8
  6
HIDDEN
 10
403.9582504625
 20
322.3074050949
 11
404.1582504625
 21
322.3074050949
  0
LINE
  8
DEFAULT_2
 62
8
  6
HIDDEN
 10
403.9582504625
 20
322.4880284563
 11
404.1582504625
 21
322.4880284563
  0
LINE
  8
DEFAULT_2
 62
8
  6
HIDDEN
 10
403.9582504625
 20
322.5151651674
 11
404.1582504625
 21
322.5151651674
  0
LINE
  8
DEFAULT_2
 62
8
  6
HIDDEN
 10
403.9582504625
 20
322.567451393
 11
404.1582504625
 21
322.567451393
  0
LINE
  8
DEFAULT_2
 62
8
  6
HIDDEN
 10
403.9582504625
 20
322.6191169257
 11
404.1582504625
 21
322.6191169257
  0
LINE
  8
DEFAULT_2
 62
8
  6
HIDDEN
 10
403.9582504625
 20
322.62722086
 11
404.1582504625
 21
322.62722086
  0
LINE
  8
DEFAULT_2
 62
8
  6
HIDDEN
 10
403.9582504625
 20
322.7763344544
 11
404.1582504625
 21
322.7763344544
  0
LINE
  8
DEFAULT_2
 62
8
  6
HIDDEN
 10
403.9582504625
 20
322.795896932
 11
404.1582504625
 21
322.795896932
  0
LINE
  8
DEFAULT_2
 62
8
  6
HIDDEN
 10
403.9582504625
 20
322.7992364091
 11
404.1582504625
 21
322.7992364091
  0
LINE
  8
DEFAULT_2
 62
8
  6
HIDDEN
 10
403.9582504625
 20
322.8169930837
 11
404.1582504625
 21
322.8169930837
  0
LINE
  8
DEFAULT_2
 62
8
  6
HIDDEN
 10
403.9582504625
 20
322.8650909728
 11
404.1582504625
 21
322.8650909728
  0
LINE
  8
DEFAULT_2
 62
8
  6
HIDDEN
 10
403.9582504625
 20
323.0247995415
 11
404.1582504625
 21
323.0247995415
  0
LINE
  8
DEFAULT_2
 62
8
  6
HIDDEN
 10
403.9582504625
 20
323.0477429518
 11
404.1582504625
 21
323.0477429518
  0
LINE
  8
DEFAULT_2
 62
8
  6
HIDDEN
 10
408.9582504625
 20
323.0640135098
 11
415.4082504625
 21
323.0640135098
  0
LINE
  8
DEFAULT_2
 62
8
  6
HIDDEN
 10
425.7082504625
 20
323.0640135098
 11
432.1582504625
 21
323.0640135098
  0
LINE
  8
DEFAULT_2
 62
8
  6
HIDDEN
 10
403.9582504625
 20
323.1720643428
 11
404.1582504625
 21
323.1720643428
  0
LINE
  8
DEFAULT_2
 62
8
  6
HIDDEN
 10
403.9582504625
 20
323.2003239734
 11
404.1582504625
 21
323.2003239734
  0
LINE
  8
DEFAULT_2
 62
8
  6
HIDDEN
 10
403.9582504625
 20
323.2085874021
 11
404.1582504625
 21
323.2085874021
  0
LINE
  8
DEFAULT_2
 62
8
  6
HIDDEN
 10
403.9582504625
 20
323.3475887053
 11
404.1582504625
 21
323.3475887053
  0
LINE
  8
DEFAULT_2
 62
8
  6
HIDDEN
 10
403.9582504625
 20
323.3611692907
 11
404.1582504625
 21
323.3611692907
  0
LINE
  8
DEFAULT_2
 62
8
  6
HIDDEN
 10
403.9582504625
 20
323.4739386444
 11
404.1582504625
 21
323.4739386444
  0
LINE
  8
DEFAULT_2
 62
8
  6
HIDDEN
 10
403.9582504625
 20
323.5072972044
 11
404.1582504625
 21
323.5072972044
  0
LINE
  8
DEFAULT_2
 62
8
  6
HIDDEN
 10
403.9582504625
 20
323.5622939053
 11
404.1582504625
 21
323.5622939053
  0
LINE
  8
DEFAULT_2
 62
8
  6
HIDDEN
 10
403.9582504625
 20
323.5960538618
 11
404.1582504625
 21
323.5960538618
  0
LINE
  8
DEFAULT_2
 62
8
  6
HIDDEN
 10
403.9582504625
 20
323.702596312
 11
404.1582504625
 21
323.702596312
  0
LINE
  8
DEFAULT_2
 62
8
  6
HIDDEN
 10
403.9582504625
 20
323.7580098513
 11
404.1582504625
 21
323.7580098513
  0
LINE
  8
DEFAULT_2
 62
8
  6
HIDDEN
 10
403.9582504625
 20
323.7851465972
 11
404.1582504625
 21
323.7851465972
  0
LINE
  8
DEFAULT_2
 62
8
  6
HIDDEN
 10
403.9582504625
 20
323.8049367843
 11
404.1582504625
 21
323.8049367843
  0
LINE
  8
DEFAULT_2
 62
8
  6
HIDDEN
 10
408.9582504625
 20
323.8252181846
 11
415.4082504625
 21
323.8252181846
  0
LINE
  8
DEFAULT_2
 62
8
  6
HIDDEN
 10
425.7082504625
 20
323.8252181846
 11
432.1582504625
 21
323.8252181846
  0
LINE
  8
DEFAULT_2
 62
8
  6
HIDDEN
 10
403.9582504625
 20
323.8923685357
 11
404.1582504625
 21
323.8923685357
  0
LINE
  8
DEFAULT_2
 62
8
  6
HIDDEN
 10
403.9582504625
 20
323.9971413567
 11
404.1582504625
 21
323.9971413567
  0
LINE
  8
DEFAULT_2
 62
8
  6
HIDDEN
 10
403.9582504625
 20
324.0649832213
 11
404.1582504625
 21
324.0649832213
  0
LINE
  8
DEFAULT_2
 62
8
  6
HIDDEN
 10
403.9582504625
 20
324.1598328385
 11
404.1582504625
 21
324.1598328385
  0
LINE
  8
DEFAULT_2
 62
8
  6
HIDDEN
 10
403.9582504625
 20
324.1882213235
 11
404.1582504625
 21
324.1882213235
  0
LINE
  8
DEFAULT_2
 62
8
  6
HIDDEN
 10
403.9582504625
 20
324.2436192818
 11
404.1582504625
 21
324.2436192818
  0
LINE
  8
DEFAULT_2
 62
8
  6
HIDDEN
 10
403.9582504625
 20
324.2602977709
 11
404.1582504625
 21
324.2602977709
  0
LINE
  8
DEFAULT_2
 62
8
  6
HIDDEN
 10
403.9582504625
 20
324.2738661438
 11
404.1582504625
 21
324.2738661438
  0
LINE
  8
DEFAULT_2
 62
8
  6
HIDDEN
 10
403.9582504625
 20
324.2842642022
 11
404.1582504625
 21
324.2842642022
  0
LINE
  8
DEFAULT_2
 62
8
  6
HIDDEN
 10
403.9582504625
 20
324.3281396355
 11
404.1582504625
 21
324.3281396355
  0
LINE
  8
DEFAULT_2
 62
8
  6
HIDDEN
 10
403.9582504625
 20
324.3667923495
 11
404.1582504625
 21
324.3667923495
  0
LINE
  8
DEFAULT_2
 62
8
  6
HIDDEN
 10
403.9582504625
 20
324.5204019873
 11
404.1582504625
 21
324.5204019873
  0
LINE
  8
DEFAULT_2
 62
8
  6
HIDDEN
 10
403.9582504625
 20
324.5308006049
 11
404.1582504625
 21
324.5308006049
  0
LINE
  8
DEFAULT_2
 62
8
  6
HIDDEN
 10
403.9582504625
 20
324.5551115055
 11
404.1582504625
 21
324.5551115055
  0
LINE
  8
DEFAULT_2
 62
8
  6
HIDDEN
 10
403.9582504625
 20
324.5679170073
 11
404.1582504625
 21
324.5679170073
  0
LINE
  8
DEFAULT_2
 62
8
  6
HIDDEN
 10
403.9582504625
 20
324.5969042676
 11
404.1582504625
 21
324.5969042676
  0
LINE
  8
DEFAULT_2
 62
8
  6
HIDDEN
 10
403.9582504625
 20
324.6362374722
 11
404.1582504625
 21
324.6362374722
  0
LINE
  8
DEFAULT_2
 62
8
  6
HIDDEN
 10
403.9582504625
 20
324.6373604959
 11
404.1582504625
 21
324.6373604959
  0
LINE
  8
DEFAULT_2
 62
8
  6
HIDDEN
 10
403.9582504625
 20
324.6845346824
 11
404.1582504625
 21
324.6845346824
  0
LINE
  8
DEFAULT_2
 62
8
  6
HIDDEN
 10
403.9582504625
 20
324.6971819935
 11
404.1582504625
 21
324.6971819935
  0
LINE
  8
DEFAULT_2
 62
8
  6
HIDDEN
 10
403.9582504625
 20
324.7187704555
 11
404.1582504625
 21
324.7187704555
  0
LINE
  8
DEFAULT_2
 62
8
  6
HIDDEN
 10
403.9582504625
 20
324.7924074003
 11
404.1582504625
 21
324.7924074003
  0
LINE
  8
DEFAULT_2
 62
8
  6
HIDDEN
 10
403.9582504625
 20
324.8075271129
 11
404.1582504625
 21
324.8075271129
  0
LINE
  8
DEFAULT_2
 62
8
  6
HIDDEN
 10
403.9582504625
 20
324.8113245456
 11
404.1582504625
 21
324.8113245456
  0
LINE
  8
DEFAULT_2
 62
8
  6
HIDDEN
 10
403.9582504625
 20
324.8253303466
 11
404.1582504625
 21
324.8253303466
  0
LINE
  8
DEFAULT_2
 62
8
  6
HIDDEN
 10
403.9582504625
 20
324.8346638588
 11
404.1582504625
 21
324.8346638588
  0
LINE
  8
DEFAULT_2
 62
8
  6
HIDDEN
 10
403.9582504625
 20
324.8613146887
 11
404.1582504625
 21
324.8613146887
  0
LINE
  8
DEFAULT_2
 62
8
  6
HIDDEN
 10
403.9582504625
 20
324.9064991053
 11
404.1582504625
 21
324.9064991053
  0
LINE
  8
DEFAULT_2
 62
8
  6
HIDDEN
 10
403.9582504625
 20
324.9418078294
 11
404.1582504625
 21
324.9418078294
  0
LINE
  8
DEFAULT_2
 62
8
  6
HIDDEN
 10
403.9582504625
 20
324.9553819858
 11
404.1582504625
 21
324.9553819858
  0
LINE
  8
DEFAULT_2
 62
8
  6
HIDDEN
 10
403.9582504625
 20
324.9725933575
 11
404.1582504625
 21
324.9725933575
  0
LINE
  8
DEFAULT_2
 62
8
  6
HIDDEN
 10
403.9582504625
 20
324.9853840054
 11
404.1582504625
 21
324.9853840054
  0
LINE
  8
DEFAULT_2
 62
8
  6
HIDDEN
 10
403.9582504625
 20
325.0080926753
 11
404.1582504625
 21
325.0080926753
  0
LINE
  8
DEFAULT_2
 62
8
  6
HIDDEN
 10
403.9582504625
 20
325.0226319885
 11
404.1582504625
 21
325.0226319885
  0
LINE
  8
DEFAULT_2
 62
8
  6
HIDDEN
 10
403.9582504625
 20
325.0593808006
 11
404.1582504625
 21
325.0593808006
  0
LINE
  8
DEFAULT_2
 62
8
  6
HIDDEN
 10
403.9582504625
 20
325.1028064352
 11
404.1582504625
 21
325.1028064352
  0
LINE
  8
DEFAULT_2
 62
8
  6
HIDDEN
 10
403.9582504625
 20
325.1148072835
 11
404.1582504625
 21
325.1148072835
  0
LINE
  8
DEFAULT_2
 62
8
  6
HIDDEN
 10
403.9582504625
 20
325.1441629415
 11
404.1582504625
 21
325.1441629415
  0
LINE
  8
DEFAULT_2
 62
8
  6
HIDDEN
 10
403.9582504625
 20
325.162164214
 11
404.1582504625
 21
325.162164214
  0
LINE
  8
DEFAULT_2
 62
8
  6
HIDDEN
 10
403.9582504625
 20
325.1662209388
 11
404.1582504625
 21
325.1662209388
  0
LINE
  8
DEFAULT_2
 62
8
  6
HIDDEN
 10
403.9582504625
 20
325.1848727827
 11
404.1582504625
 21
325.1848727827
  0
LINE
  8
DEFAULT_2
 62
8
  6
HIDDEN
 10
403.9582504625
 20
325.1981564899
 11
404.1582504625
 21
325.1981564899
  0
LINE
  8
DEFAULT_2
 62
8
  6
HIDDEN
 10
403.9582504625
 20
325.2615851689
 11
404.1582504625
 21
325.2615851689
  0
LINE
  8
DEFAULT_2
 62
8
  6
HIDDEN
 10
403.9582504625
 20
325.3923480158
 11
404.1582504625
 21
325.3923480158
  0
LINE
  8
DEFAULT_2
 62
8
  6
HIDDEN
 10
403.9582504625
 20
325.427010992
 11
404.1582504625
 21
325.427010992
  0
LINE
  8
DEFAULT_2
 62
8
  6
HIDDEN
 10
403.9582504625
 20
325.4822276969
 11
404.1582504625
 21
325.4822276969
  0
LINE
  8
DEFAULT_2
 62
8
  6
HIDDEN
 10
403.9582504625
 20
325.5030769154
 11
404.1582504625
 21
325.5030769154
  0
LINE
  8
DEFAULT_2
 62
8
  6
HIDDEN
 10
403.9582504625
 20
325.5093644427
 11
404.1582504625
 21
325.5093644427
  0
LINE
  8
DEFAULT_2
 62
8
  6
HIDDEN
 10
403.9582504625
 20
325.5507297375
 11
404.1582504625
 21
325.5507297375
  0
LINE
  8
DEFAULT_2
 62
8
  6
HIDDEN
 10
403.9582504625
 20
325.5564342701
 11
404.1582504625
 21
325.5564342701
  0
LINE
  8
DEFAULT_2
 62
8
  6
HIDDEN
 10
403.9582504625
 20
325.6445010418
 11
404.1582504625
 21
325.6445010418
  0
LINE
  8
DEFAULT_2
 62
8
  6
HIDDEN
 10
403.9582504625
 20
325.650501466
 11
404.1582504625
 21
325.650501466
  0
LINE
  8
DEFAULT_2
 62
8
  6
HIDDEN
 10
403.9582504625
 20
325.6523945918
 11
404.1582504625
 21
325.6523945918
  0
LINE
  8
DEFAULT_2
 62
8
  6
HIDDEN
 10
403.9582504625
 20
325.6795310597
 11
404.1582504625
 21
325.6795310597
  0
LINE
  8
DEFAULT_2
 62
8
  6
HIDDEN
 10
403.9582504625
 20
325.6812130213
 11
404.1582504625
 21
325.6812130213
  0
LINE
  8
DEFAULT_2
 62
8
  6
HIDDEN
 10
408.9582504625
 20
325.6912401417
 11
415.4082504625
 21
325.6912401417
  0
LINE
  8
DEFAULT_2
 62
8
  6
HIDDEN
 10
425.7082504625
 20
325.6912401417
 11
432.1582504625
 21
325.6912401417
  0
LINE
  8
DEFAULT_2
 62
8
  6
HIDDEN
 10
403.9582504625
 20
325.7213592022
 11
404.1582504625
 21
325.7213592022
  0
LINE
  8
DEFAULT_2
 62
8
  6
HIDDEN
 10
403.9582504625
 20
325.8748458872
 11
404.1582504625
 21
325.8748458872
  0
LINE
  8
DEFAULT_2
 62
8
  6
HIDDEN
 10
403.9582504625
 20
325.9469223346
 11
404.1582504625
 21
325.9469223346
  0
LINE
  8
DEFAULT_2
 62
8
  6
HIDDEN
 10
403.9582504625
 20
325.9604907076
 11
404.1582504625
 21
325.9604907076
  0
LINE
  8
DEFAULT_2
 62
8
  6
HIDDEN
 10
403.9582504625
 20
325.9678371274
 11
404.1582504625
 21
325.9678371274
  0
LINE
  8
DEFAULT_2
 62
8
  6
HIDDEN
 10
403.9582504625
 20
326.0732940028
 11
404.1582504625
 21
326.0732940028
  0
LINE
  8
DEFAULT_2
 62
8
  6
HIDDEN
 10
403.9582504625
 20
326.1004090196
 11
404.1582504625
 21
326.1004090196
  0
LINE
  8
DEFAULT_2
 62
8
  6
HIDDEN
 10
403.9582504625
 20
326.1019176361
 11
404.1582504625
 21
326.1019176361
  0
LINE
  8
DEFAULT_2
 62
8
  6
HIDDEN
 10
403.9582504625
 20
326.2111785938
 11
404.1582504625
 21
326.2111785938
  0
LINE
  8
DEFAULT_2
 62
8
  6
HIDDEN
 10
403.9582504625
 20
326.251087622
 11
404.1582504625
 21
326.251087622
  0
LINE
  8
DEFAULT_2
 62
8
  6
HIDDEN
 10
403.9582504625
 20
326.2550201713
 11
404.1582504625
 21
326.2550201713
  0
LINE
  8
DEFAULT_2
 62
8
  6
HIDDEN
 10
403.9582504625
 20
326.2772613735
 11
404.1582504625
 21
326.2772613735
  0
LINE
  8
DEFAULT_2
 62
8
  6
HIDDEN
 10
403.9582504625
 20
326.285598258
 11
404.1582504625
 21
326.285598258
  0
LINE
  8
DEFAULT_2
 62
8
  6
HIDDEN
 10
408.9582504625
 20
326.3181048249
 11
415.4082504625
 21
326.3181048249
  0
LINE
  8
DEFAULT_2
 62
8
  6
HIDDEN
 10
425.7082504625
 20
326.3181048249
 11
432.1582504625
 21
326.3181048249
  0
LINE
  8
DEFAULT_2
 62
8
  6
HIDDEN
 10
403.9582504625
 20
326.3303701703
 11
404.1582504625
 21
326.3303701703
  0
LINE
  8
DEFAULT_2
 62
8
  6
HIDDEN
 10
403.9582504625
 20
326.3709868096
 11
404.1582504625
 21
326.3709868096
  0
LINE
  8
DEFAULT_2
 62
8
  6
HIDDEN
 10
403.9582504625
 20
326.3844802266
 11
404.1582504625
 21
326.3844802266
  0
LINE
  8
DEFAULT_2
 62
8
  6
HIDDEN
 10
403.9582504625
 20
326.3930070944
 11
404.1582504625
 21
326.3930070944
  0
LINE
  8
DEFAULT_2
 62
8
  6
HIDDEN
 10
403.9582504625
 20
326.3953064374
 11
404.1582504625
 21
326.3953064374
  0
LINE
  8
DEFAULT_2
 62
8
  6
HIDDEN
 10
403.9582504625
 20
326.4053950193
 11
404.1582504625
 21
326.4053950193
  0
LINE
  8
DEFAULT_2
 62
8
  6
HIDDEN
 10
403.9582504625
 20
326.4464427083
 11
404.1582504625
 21
326.4464427083
  0
LINE
  8
DEFAULT_2
 62
8
  6
HIDDEN
 10
403.9582504625
 20
326.4941516767
 11
404.1582504625
 21
326.4941516767
  0
LINE
  8
DEFAULT_2
 62
8
  6
HIDDEN
 10
403.9582504625
 20
326.5201357643
 11
404.1582504625
 21
326.5201357643
  0
LINE
  8
DEFAULT_2
 62
8
  6
HIDDEN
 10
403.9582504625
 20
326.5657950162
 11
404.1582504625
 21
326.5657950162
  0
LINE
  8
DEFAULT_2
 62
8
  6
HIDDEN
 10
403.9582504625
 20
326.5897800109
 11
404.1582504625
 21
326.5897800109
  0
LINE
  8
DEFAULT_2
 62
8
  6
HIDDEN
 10
403.9582504625
 20
326.6107099079
 11
404.1582504625
 21
326.6107099079
  0
LINE
  8
DEFAULT_2
 62
8
  6
HIDDEN
 10
403.9582504625
 20
326.6140294489
 11
404.1582504625
 21
326.6140294489
  0
LINE
  8
DEFAULT_2
 62
8
  6
HIDDEN
 10
403.9582504625
 20
326.622709856
 11
404.1582504625
 21
326.622709856
  0
LINE
  8
DEFAULT_2
 62
8
  6
HIDDEN
 10
403.9582504625
 20
326.6632857454
 11
404.1582504625
 21
326.6632857454
  0
LINE
  8
DEFAULT_2
 62
8
  6
HIDDEN
 10
403.9582504625
 20
326.6647413949
 11
404.1582504625
 21
326.6647413949
  0
LINE
  8
DEFAULT_2
 62
8
  6
HIDDEN
 10
403.9582504625
 20
326.7046504231
 11
404.1582504625
 21
326.7046504231
  0
LINE
  8
DEFAULT_2
 62
8
  6
HIDDEN
 10
403.9582504625
 20
326.7122057357
 11
404.1582504625
 21
326.7122057357
  0
LINE
  8
DEFAULT_2
 62
8
  6
HIDDEN
 10
403.9582504625
 20
326.7149497307
 11
404.1582504625
 21
326.7149497307
  0
LINE
  8
DEFAULT_2
 62
8
  6
HIDDEN
 10
403.9582504625
 20
326.7370740763
 11
404.1582504625
 21
326.7370740763
  0
LINE
  8
DEFAULT_2
 62
8
  6
HIDDEN
 10
403.9582504625
 20
326.7485943236
 11
404.1582504625
 21
326.7485943236
  0
LINE
  8
DEFAULT_2
 62
8
  6
HIDDEN
 10
403.9582504625
 20
326.7973116946
 11
404.1582504625
 21
326.7973116946
  0
LINE
  8
DEFAULT_2
 62
8
  6
HIDDEN
 10
403.9582504625
 20
326.8425350141
 11
404.1582504625
 21
326.8425350141
  0
LINE
  8
DEFAULT_2
 62
8
  6
HIDDEN
 10
403.9582504625
 20
326.845147714
 11
404.1582504625
 21
326.845147714
  0
LINE
  8
DEFAULT_2
 62
8
  6
HIDDEN
 10
403.9582504625
 20
326.8495355491
 11
404.1582504625
 21
326.8495355491
  0
LINE
  8
DEFAULT_2
 62
8
  6
HIDDEN
 10
403.9582504625
 20
326.8882511779
 11
404.1582504625
 21
326.8882511779
  0
LINE
  8
DEFAULT_2
 62
8
  6
HIDDEN
 10
403.9582504625
 20
326.9117389697
 11
404.1582504625
 21
326.9117389697
  0
LINE
  8
DEFAULT_2
 62
8
  6
HIDDEN
 10
403.9582504625
 20
326.9130849825
 11
404.1582504625
 21
326.9130849825
  0
LINE
  8
DEFAULT_2
 62
8
  6
HIDDEN
 10
403.9582504625
 20
326.9360580122
 11
404.1582504625
 21
326.9360580122
  0
LINE
  8
DEFAULT_2
 62
8
  6
HIDDEN
 10
403.9582504625
 20
326.9473900022
 11
404.1582504625
 21
326.9473900022
  0
LINE
  8
DEFAULT_2
 62
8
  6
HIDDEN
 10
403.9582504625
 20
327.0009731341
 11
404.1582504625
 21
327.0009731341
  0
LINE
  8
DEFAULT_2
 62
8
  6
HIDDEN
 10
403.9582504625
 20
327.0059598399
 11
404.1582504625
 21
327.0059598399
  0
LINE
  8
DEFAULT_2
 62
8
  6
HIDDEN
 10
403.9582504625
 20
327.0072951871
 11
404.1582504625
 21
327.0072951871
  0
LINE
  8
DEFAULT_2
 62
8
  6
HIDDEN
 10
403.9582504625
 20
327.0090432292
 11
404.1582504625
 21
327.0090432292
  0
LINE
  8
DEFAULT_2
 62
8
  6
HIDDEN
 10
403.9582504625
 20
327.072674535
 11
404.1582504625
 21
327.072674535
  0
LINE
  8
DEFAULT_2
 62
8
  6
HIDDEN
 10
403.9582504625
 20
327.0805725506
 11
404.1582504625
 21
327.0805725506
  0
LINE
  8
DEFAULT_2
 62
8
  6
HIDDEN
 10
403.9582504625
 20
327.0838831225
 11
404.1582504625
 21
327.0838831225
  0
LINE
  8
DEFAULT_2
 62
8
  6
HIDDEN
 10
403.9582504625
 20
327.106613231
 11
404.1582504625
 21
327.106613231
  0
LINE
  8
DEFAULT_2
 62
8
  6
HIDDEN
 10
403.9582504625
 20
327.1334756356
 11
404.1582504625
 21
327.1334756356
  0
LINE
  8
DEFAULT_2
 62
8
  6
HIDDEN
 10
403.9582504625
 20
327.1469278202
 11
404.1582504625
 21
327.1469278202
  0
LINE
  8
DEFAULT_2
 62
8
  6
HIDDEN
 10
403.9582504625
 20
327.1981222525
 11
404.1582504625
 21
327.1981222525
  0
LINE
  8
DEFAULT_2
 62
8
  6
HIDDEN
 10
403.9582504625
 20
327.2074567382
 11
404.1582504625
 21
327.2074567382
  0
LINE
  8
DEFAULT_2
 62
8
  6
HIDDEN
 10
403.9582504625
 20
327.2102604942
 11
404.1582504625
 21
327.2102604942
  0
LINE
  8
DEFAULT_2
 62
8
  6
HIDDEN
 10
403.9582504625
 20
327.2341670877
 11
404.1582504625
 21
327.2341670877
  0
LINE
  8
DEFAULT_2
 62
8
  6
HIDDEN
 10
403.9582504625
 20
327.2423526989
 11
404.1582504625
 21
327.2423526989
  0
LINE
  8
DEFAULT_2
 62
8
  6
HIDDEN
 10
403.9582504625
 20
327.2654569488
 11
404.1582504625
 21
327.2654569488
  0
LINE
  8
DEFAULT_2
 62
8
  6
HIDDEN
 10
403.9582504625
 20
327.2974282361
 11
404.1582504625
 21
327.2974282361
  0
LINE
  8
DEFAULT_2
 62
8
  6
HIDDEN
 10
403.9582504625
 20
327.3306399861
 11
404.1582504625
 21
327.3306399861
  0
LINE
  8
DEFAULT_2
 62
8
  6
HIDDEN
 10
403.9582504625
 20
327.3745672619
 11
404.1582504625
 21
327.3745672619
  0
LINE
  8
DEFAULT_2
 62
8
  6
HIDDEN
 10
403.9582504625
 20
327.3820031866
 11
404.1582504625
 21
327.3820031866
  0
LINE
  8
DEFAULT_2
 62
8
  6
HIDDEN
 10
403.9582504625
 20
327.3895085281
 11
404.1582504625
 21
327.3895085281
  0
LINE
  8
DEFAULT_2
 62
8
  6
HIDDEN
 10
403.9582504625
 20
327.4085632688
 11
404.1582504625
 21
327.4085632688
  0
LINE
  8
DEFAULT_2
 62
8
  6
HIDDEN
 10
403.9582504625
 20
327.4174493334
 11
404.1582504625
 21
327.4174493334
  0
LINE
  8
DEFAULT_2
 62
8
  6
HIDDEN
 10
403.9582504625
 20
327.4582726863
 11
404.1582504625
 21
327.4582726863
  0
LINE
  8
DEFAULT_2
 62
8
  6
HIDDEN
 10
403.9582504625
 20
327.4873757379
 11
404.1582504625
 21
327.4873757379
  0
LINE
  8
DEFAULT_2
 62
8
  6
HIDDEN
 10
403.9582504625
 20
327.5077497734
 11
404.1582504625
 21
327.5077497734
  0
LINE
  8
DEFAULT_2
 62
8
  6
HIDDEN
 10
403.9582504625
 20
327.5117829713
 11
404.1582504625
 21
327.5117829713
  0
LINE
  8
DEFAULT_2
 62
8
  6
HIDDEN
 10
403.9582504625
 20
327.5151021553
 11
404.1582504625
 21
327.5151021553
  0
LINE
  8
DEFAULT_2
 62
8
  6
HIDDEN
 10
403.9582504625
 20
327.5964553985
 11
404.1582504625
 21
327.5964553985
  0
LINE
  8
DEFAULT_2
 62
8
  6
HIDDEN
 10
403.9582504625
 20
327.6037060319
 11
404.1582504625
 21
327.6037060319
  0
LINE
  8
DEFAULT_2
 62
8
  6
HIDDEN
 10
403.9582504625
 20
327.6182949082
 11
404.1582504625
 21
327.6182949082
  0
LINE
  8
DEFAULT_2
 62
8
  6
HIDDEN
 10
403.9582504625
 20
327.6214714213
 11
404.1582504625
 21
327.6214714213
  0
LINE
  8
DEFAULT_2
 62
8
  6
HIDDEN
 10
403.9582504625
 20
327.673273377
 11
404.1582504625
 21
327.673273377
  0
LINE
  8
DEFAULT_2
 62
8
  6
HIDDEN
 10
403.9582504625
 20
327.6782389375
 11
404.1582504625
 21
327.6782389375
  0
LINE
  8
DEFAULT_2
 62
8
  6
HIDDEN
 10
403.9582504625
 20
327.6883784592
 11
404.1582504625
 21
327.6883784592
  0
LINE
  8
DEFAULT_2
 62
8
  6
HIDDEN
 10
403.9582504625
 20
327.691581718
 11
404.1582504625
 21
327.691581718
  0
LINE
  8
DEFAULT_2
 62
8
  6
HIDDEN
 10
403.9582504625
 20
327.6933967435
 11
404.1582504625
 21
327.6933967435
  0
LINE
  8
DEFAULT_2
 62
8
  6
HIDDEN
 10
403.9582504625
 20
327.7451439193
 11
404.1582504625
 21
327.7451439193
  0
LINE
  8
DEFAULT_2
 62
8
  6
HIDDEN
 10
403.9582504625
 20
327.8033430834
 11
404.1582504625
 21
327.8033430834
  0
LINE
  8
DEFAULT_2
 62
8
  6
HIDDEN
 10
403.9582504625
 20
327.8300544111
 11
404.1582504625
 21
327.8300544111
  0
LINE
  8
DEFAULT_2
 62
8
  6
HIDDEN
 10
403.9582504625
 20
327.8577487475
 11
404.1582504625
 21
327.8577487475
  0
LINE
  8
DEFAULT_2
 62
8
  6
HIDDEN
 10
403.9582504625
 20
327.897220887
 11
404.1582504625
 21
327.897220887
  0
LINE
  8
DEFAULT_2
 62
8
  6
HIDDEN
 10
403.9582504625
 20
327.9623024538
 11
404.1582504625
 21
327.9623024538
  0
LINE
  8
DEFAULT_2
 62
8
  6
HIDDEN
 10
403.9582504625
 20
327.9641875336
 11
404.1582504625
 21
327.9641875336
  0
LINE
  8
DEFAULT_2
 62
8
  6
HIDDEN
 10
403.9582504625
 20
327.9829361064
 11
404.1582504625
 21
327.9829361064
  0
LINE
  8
DEFAULT_2
 62
8
  6
HIDDEN
 10
403.9582504625
 20
327.9948976287
 11
404.1582504625
 21
327.9948976287
  0
LINE
  8
DEFAULT_2
 62
8
  6
HIDDEN
 10
403.9582504625
 20
328.0029190838
 11
404.1582504625
 21
328.0029190838
  0
LINE
  8
DEFAULT_2
 62
8
  6
HIDDEN
 10
403.9582504625
 20
328.020380815
 11
404.1582504625
 21
328.020380815
  0
LINE
  8
DEFAULT_2
 62
8
  6
HIDDEN
 10
403.9582504625
 20
328.0355144066
 11
404.1582504625
 21
328.0355144066
  0
LINE
  8
DEFAULT_2
 62
8
  6
HIDDEN
 10
403.9582504625
 20
328.0721279166
 11
404.1582504625
 21
328.0721279166
  0
LINE
  8
DEFAULT_2
 62
8
  6
HIDDEN
 10
403.9582504625
 20
328.1502510013
 11
404.1582504625
 21
328.1502510013
  0
LINE
  8
DEFAULT_2
 62
8
  6
HIDDEN
 10
403.9582504625
 20
328.1649878963
 11
404.1582504625
 21
328.1649878963
  0
LINE
  8
DEFAULT_2
 62
8
  6
HIDDEN
 10
403.9582504625
 20
328.3178695917
 11
404.1582504625
 21
328.3178695917
  0
LINE
  8
DEFAULT_2
 62
8
  6
HIDDEN
 10
403.9582504625
 20
328.319577775
 11
404.1582504625
 21
328.319577775
  0
LINE
  8
DEFAULT_2
 62
8
  6
HIDDEN
 10
403.9582504625
 20
328.3245434834
 11
404.1582504625
 21
328.3245434834
  0
LINE
  8
DEFAULT_2
 62
8
  6
HIDDEN
 10
403.9582504625
 20
328.3900729554
 11
404.1582504625
 21
328.3900729554
  0
LINE
  8
DEFAULT_2
 62
8
  6
HIDDEN
 10
403.9582504625
 20
328.550289213
 11
404.1582504625
 21
328.550289213
  0
LINE
  8
DEFAULT_2
 62
8
  6
HIDDEN
 10
403.9582504625
 20
328.5616239032
 11
404.1582504625
 21
328.5616239032
  0
LINE
  8
DEFAULT_2
 62
8
  6
HIDDEN
 10
403.9582504625
 20
328.57513294
 11
404.1582504625
 21
328.57513294
  0
LINE
  8
DEFAULT_2
 62
8
  6
HIDDEN
 10
403.9582504625
 20
328.5892535177
 11
404.1582504625
 21
328.5892535177
  0
LINE
  8
DEFAULT_2
 62
8
  6
HIDDEN
 10
403.9582504625
 20
328.6232495984
 11
404.1582504625
 21
328.6232495984
  0
LINE
  8
DEFAULT_2
 62
8
  6
HIDDEN
 10
403.9582504625
 20
328.6540335327
 11
404.1582504625
 21
328.6540335327
  0
LINE
  8
DEFAULT_2
 62
8
  6
HIDDEN
 10
403.9582504625
 20
328.6989791843
 11
404.1582504625
 21
328.6989791843
  0
LINE
  8
DEFAULT_2
 62
8
  6
HIDDEN
 10
403.9582504625
 20
328.7141598967
 11
404.1582504625
 21
328.7141598967
  0
LINE
  8
DEFAULT_2
 62
8
  6
HIDDEN
 10
403.9582504625
 20
328.7547249848
 11
404.1582504625
 21
328.7547249848
  0
LINE
  8
DEFAULT_2
 62
8
  6
HIDDEN
 10
403.9582504625
 20
328.7999859111
 11
404.1582504625
 21
328.7999859111
  0
LINE
  8
DEFAULT_2
 62
8
  6
HIDDEN
 10
403.9582504625
 20
328.8083807668
 11
404.1582504625
 21
328.8083807668
  0
LINE
  8
DEFAULT_2
 62
8
  6
HIDDEN
 10
403.9582504625
 20
328.8116913387
 11
404.1582504625
 21
328.8116913387
  0
LINE
  8
DEFAULT_2
 62
8
  6
HIDDEN
 10
403.9582504625
 20
328.8591954419
 11
404.1582504625
 21
328.8591954419
  0
LINE
  8
DEFAULT_2
 62
8
  6
HIDDEN
 10
403.9582504625
 20
328.892864213
 11
404.1582504625
 21
328.892864213
  0
LINE
  8
DEFAULT_2
 62
8
  6
HIDDEN
 10
403.9582504625
 20
328.9448738502
 11
404.1582504625
 21
328.9448738502
  0
LINE
  8
DEFAULT_2
 62
8
  6
HIDDEN
 10
403.9582504625
 20
328.9562058771
 11
404.1582504625
 21
328.9562058771
  0
LINE
  8
DEFAULT_2
 62
8
  6
HIDDEN
 10
403.9582504625
 20
328.9717286036
 11
404.1582504625
 21
328.9717286036
  0
LINE
  8
DEFAULT_2
 62
8
  6
HIDDEN
 10
403.9582504625
 20
328.9805249196
 11
404.1582504625
 21
328.9805249196
  0
LINE
  8
0
 62
9
  6
CONTINUOUS
 10
408.9582504625
 20
329.0122212615
 11
415.4082504625
 21
329.0122212615
  0
LINE
  8
0
 62
9
  6
CONTINUOUS
 10
425.7082504625
 20
329.0122212615
 11
432.1582504625
 21
329.0122212615
  0
LINE
  8
DEFAULT_2
 62
8
  6
HIDDEN
 10
403.9582504625
 20
329.0471161754
 11
404.1582504625
 21
329.0471161754
  0
LINE
  8
DEFAULT_2
 62
8
  6
HIDDEN
 10
403.9582504625
 20
329.0654090321
 11
404.1582504625
 21
329.0654090321
  0
LINE
  8
DEFAULT_2
 62
8
  6
HIDDEN
 10
403.9582504625
 20
329.0901739853
 11
404.1582504625
 21
329.0901739853
  0
LINE
  8
DEFAULT_2
 62
8
  6
HIDDEN
 10
403.9582504625
 20
329.176988115
 11
404.1582504625
 21
329.176988115
  0
LINE
  8
DEFAULT_2
 62
8
  6
HIDDEN
 10
403.9582504625
 20
329.182097046
 11
404.1582504625
 21
329.182097046
  0
LINE
  8
DEFAULT_2
 62
8
  6
HIDDEN
 10
403.9582504625
 20
329.2388499646
 11
404.1582504625
 21
329.2388499646
  0
LINE
  8
DEFAULT_2
 62
8
  6
HIDDEN
 10
403.9582504625
 20
329.2560048714
 11
404.1582504625
 21
329.2560048714
  0
LINE
  8
DEFAULT_2
 62
8
  6
HIDDEN
 10
403.9582504625
 20
329.2959608645
 11
404.1582504625
 21
329.2959608645
  0
LINE
  8
DEFAULT_2
 62
8
  6
HIDDEN
 10
403.9582504625
 20
329.3264682139
 11
404.1582504625
 21
329.3264682139
  0
LINE
  8
DEFAULT_2
 62
8
  6
HIDDEN
 10
403.9582504625
 20
329.3439082204
 11
404.1582504625
 21
329.3439082204
  0
LINE
  8
DEFAULT_2
 62
8
  6
HIDDEN
 10
403.9582504625
 20
329.3880939091
 11
404.1582504625
 21
329.3880939091
  0
LINE
  8
DEFAULT_2
 62
8
  6
HIDDEN
 10
403.9582504625
 20
329.4358759888
 11
404.1582504625
 21
329.4358759888
  0
LINE
  8
DEFAULT_2
 62
8
  6
HIDDEN
 10
403.9582504625
 20
329.4530301762
 11
404.1582504625
 21
329.4530301762
  0
LINE
  8
DEFAULT_2
 62
8
  6
HIDDEN
 10
403.9582504625
 20
329.4679682306
 11
404.1582504625
 21
329.4679682306
  0
LINE
  8
DEFAULT_2
 62
8
  6
HIDDEN
 10
403.9582504625
 20
329.4969573781
 11
404.1582504625
 21
329.4969573781
  0
LINE
  8
DEFAULT_2
 62
8
  6
HIDDEN
 10
403.9582504625
 20
329.5212764206
 11
404.1582504625
 21
329.5212764206
  0
LINE
  8
DEFAULT_2
 62
8
  6
HIDDEN
 10
408.9582504625
 20
329.5293175638
 11
415.4082504625
 21
329.5293175638
  0
LINE
  8
DEFAULT_2
 62
8
  6
HIDDEN
 10
425.7082504625
 20
329.5293175638
 11
432.1582504625
 21
329.5293175638
  0
LINE
  8
DEFAULT_2
 62
8
  6
HIDDEN
 10
403.9582504625
 20
329.5618936451
 11
404.1582504625
 21
329.5618936451
  0
LINE
  8
DEFAULT_2
 62
8
  6
HIDDEN
 10
403.9582504625
 20
329.6076186813
 11
404.1582504625
 21
329.6076186813
  0
LINE
  8
DEFAULT_2
 62
8
  6
HIDDEN
 10
403.9582504625
 20
329.6183217288
 11
404.1582504625
 21
329.6183217288
  0
LINE
  8
DEFAULT_2
 62
8
  6
HIDDEN
 10
403.9582504625
 20
329.6316250207
 11
404.1582504625
 21
329.6316250207
  0
LINE
  8
DEFAULT_2
 62
8
  6
HIDDEN
 10
403.9582504625
 20
329.7199341497
 11
404.1582504625
 21
329.7199341497
  0
LINE
  8
DEFAULT_2
 62
8
  6
HIDDEN
 10
403.9582504625
 20
329.7407176499
 11
404.1582504625
 21
329.7407176499
  0
LINE
  8
0
 62
7
  6
CONTINUOUS
 10
408.9582504625
 20
329.792040227
 11
415.4082504625
 21
329.792040227
  0
LINE
  8
0
 62
7
  6
CONTINUOUS
 10
425.7082504625
 20
329.792040227
 11
432.1582504625
 21
329.792040227
  0
LINE
  8
DEFAULT_2
 62
8
  6
HIDDEN
 10
403.9582504625
 20
329.9074876458
 11
404.1582504625
 21
329.9074876458
  0
LINE
  8
DEFAULT_2
 62
8
  6
HIDDEN
 10
403.9582504625
 20
329.9190122381
 11
404.1582504625
 21
329.9190122381
  0
LINE
  8
DEFAULT_2
 62
8
  6
HIDDEN
 10
403.9582504625
 20
329.9614414752
 11
404.1582504625
 21
329.9614414752
  0
LINE
  8
DEFAULT_2
 62
8
  6
HIDDEN
 10
403.9582504625
 20
329.9646411002
 11
404.1582504625
 21
329.9646411002
  0
LINE
  8
DEFAULT_2
 62
8
  6
HIDDEN
 10
403.9582504625
 20
329.9707593397
 11
404.1582504625
 21
329.9707593397
  0
LINE
  8
DEFAULT_2
 62
8
  6
HIDDEN
 10
403.9582504625
 20
330.0084242759
 11
404.1582504625
 21
330.0084242759
  0
LINE
  8
DEFAULT_2
 62
8
  6
HIDDEN
 10
403.9582504625
 20
330.0166548748
 11
404.1582504625
 21
330.0166548748
  0
LINE
  8
DEFAULT_2
 62
8
  6
HIDDEN
 10
403.9582504625
 20
330.0263771478
 11
404.1582504625
 21
330.0263771478
  0
LINE
  8
DEFAULT_2
 62
8
  6
HIDDEN
 10
403.9582504625
 20
330.0491002519
 11
404.1582504625
 21
330.0491002519
  0
LINE
  8
DEFAULT_2
 62
8
  6
HIDDEN
 10
403.9582504625
 20
330.0831703305
 11
404.1582504625
 21
330.0831703305
  0
LINE
  8
DEFAULT_2
 62
8
  6
HIDDEN
 10
403.9582504625
 20
330.1085779354
 11
404.1582504625
 21
330.1085779354
  0
LINE
  8
DEFAULT_2
 62
8
  6
HIDDEN
 10
403.9582504625
 20
330.1592183443
 11
404.1582504625
 21
330.1592183443
  0
LINE
  8
DEFAULT_2
 62
8
  6
HIDDEN
 10
403.9582504625
 20
330.17891344
 11
404.1582504625
 21
330.17891344
  0
LINE
  8
DEFAULT_2
 62
8
  6
HIDDEN
 10
403.9582504625
 20
330.2210547461
 11
404.1582504625
 21
330.2210547461
  0
LINE
  8
DEFAULT_2
 62
8
  6
HIDDEN
 10
403.9582504625
 20
330.2230780466
 11
404.1582504625
 21
330.2230780466
  0
LINE
  8
DEFAULT_2
 62
8
  6
HIDDEN
 10
403.9582504625
 20
330.2459962354
 11
404.1582504625
 21
330.2459962354
  0
LINE
  8
DEFAULT_2
 62
8
  6
HIDDEN
 10
403.9582504625
 20
330.291087182
 11
404.1582504625
 21
330.291087182
  0
LINE
  8
DEFAULT_2
 62
8
  6
HIDDEN
 10
403.9582504625
 20
330.297743337
 11
404.1582504625
 21
330.297743337
  0
LINE
  8
DEFAULT_2
 62
8
  6
HIDDEN
 10
403.9582504625
 20
330.3120962472
 11
404.1582504625
 21
330.3120962472
  0
LINE
  8
DEFAULT_2
 62
8
  6
HIDDEN
 10
403.9582504625
 20
330.3170130666
 11
404.1582504625
 21
330.3170130666
  0
LINE
  8
DEFAULT_2
 62
8
  6
HIDDEN
 10
403.9582504625
 20
330.3690104647
 11
404.1582504625
 21
330.3690104647
  0
LINE
  8
DEFAULT_2
 62
8
  6
HIDDEN
 10
403.9582504625
 20
330.3875629612
 11
404.1582504625
 21
330.3875629612
  0
LINE
  8
DEFAULT_2
 62
8
  6
HIDDEN
 10
408.9582504625
 20
330.4064124737
 11
415.4082504625
 21
330.4064124737
  0
LINE
  8
DEFAULT_2
 62
8
  6
HIDDEN
 10
425.7082504625
 20
330.4064124737
 11
432.1582504625
 21
330.4064124737
  0
LINE
  8
DEFAULT_2
 62
8
  6
HIDDEN
 10
403.9582504625
 20
330.4815036518
 11
404.1582504625
 21
330.4815036518
  0
LINE
  8
DEFAULT_2
 62
8
  6
HIDDEN
 10
403.9582504625
 20
330.5097066962
 11
404.1582504625
 21
330.5097066962
  0
LINE
  8
DEFAULT_2
 62
8
  6
HIDDEN
 10
403.9582504625
 20
330.5254475522
 11
404.1582504625
 21
330.5254475522
  0
LINE
  8
DEFAULT_2
 62
8
  6
HIDDEN
 10
403.9582504625
 20
330.5653565436
 11
404.1582504625
 21
330.5653565436
  0
LINE
  8
DEFAULT_2
 62
8
  6
HIDDEN
 10
408.9582504625
 20
330.6019424743
 11
415.4082504625
 21
330.6019424743
  0
LINE
  8
DEFAULT_2
 62
8
  6
HIDDEN
 10
425.7082504625
 20
330.6019424743
 11
432.1582504625
 21
330.6019424743
  0
LINE
  8
DEFAULT_2
 62
8
  6
HIDDEN
 10
403.9582504625
 20
330.6027803127
 11
404.1582504625
 21
330.6027803127
  0
LINE
  8
DEFAULT_2
 62
8
  6
HIDDEN
 10
403.9582504625
 20
330.6190779002
 11
404.1582504625
 21
330.6190779002
  0
LINE
  8
DEFAULT_2
 62
8
  6
HIDDEN
 10
403.9582504625
 20
330.6699232507
 11
404.1582504625
 21
330.6699232507
  0
LINE
  8
DEFAULT_2
 62
8
  6
HIDDEN
 10
403.9582504625
 20
330.6807035953
 11
404.1582504625
 21
330.6807035953
  0
LINE
  8
DEFAULT_2
 62
8
  6
HIDDEN
 10
432.1582504625
 20
330.6854635429
 11
425.7082504625
 21
330.6854635429
  0
LINE
  8
DEFAULT_2
 62
8
  6
HIDDEN
 10
415.4082504625
 20
330.6854635429
 11
408.9582504625
 21
330.6854635429
  0
LINE
  8
0
 62
9
  6
CONTINUOUS
 10
432.1582504625
 20
330.7171660765
 11
425.7082504625
 21
330.7171660765
  0
LINE
  8
0
 62
9
  6
CONTINUOUS
 10
415.4082504625
 20
330.7171660765
 11
408.9582504625
 21
330.7171660765
  0
LINE
  8
DEFAULT_2
 62
8
  6
HIDDEN
 10
403.9582504625
 20
330.7522604116
 11
404.1582504625
 21
330.7522604116
  0
LINE
  8
0
 62
7
  6
CONTINUOUS
 10
432.1582504625
 20
330.7552263102
 11
425.7082504625
 21
330.7552263102
  0
LINE
  8
0
 62
7
  6
CONTINUOUS
 10
415.4082504625
 20
330.7552263102
 11
408.9582504625
 21
330.7552263102
  0
LINE
  8
DEFAULT_2
 62
8
  6
HIDDEN
 10
403.9582504625
 20
330.7635924386
 11
404.1582504625
 21
330.7635924386
  0
LINE
  8
DEFAULT_2
 62
8
  6
HIDDEN
 10
403.9582504625
 20
330.7749244655
 11
404.1582504625
 21
330.7749244655
  0
LINE
  8
DEFAULT_2
 62
8
  6
HIDDEN
 10
403.9582504625
 20
330.8186130736
 11
404.1582504625
 21
330.8186130736
  0
LINE
  8
DEFAULT_2
 62
8
  6
HIDDEN
 10
403.9582504625
 20
330.8370908165
 11
404.1582504625
 21
330.8370908165
  0
LINE
  8
DEFAULT_2
 62
8
  6
HIDDEN
 10
403.9582504625
 20
330.8415157212
 11
404.1582504625
 21
330.8415157212
  0
LINE
  8
DEFAULT_2
 62
8
  6
HIDDEN
 10
403.9582504625
 20
330.8496866133
 11
404.1582504625
 21
330.8496866133
  0
LINE
  8
DEFAULT_2
 62
8
  6
HIDDEN
 10
403.9582504625
 20
330.9196198004
 11
404.1582504625
 21
330.9196198004
  0
LINE
  8
DEFAULT_2
 62
8
  6
HIDDEN
 10
403.9582504625
 20
330.9788293312
 11
404.1582504625
 21
330.9788293312
  0
LINE
  8
DEFAULT_2
 62
8
  6
HIDDEN
 10
403.9582504625
 20
331.0073696749
 11
404.1582504625
 21
331.0073696749
  0
LINE
  8
DEFAULT_2
 62
8
  6
HIDDEN
 10
403.9582504625
 20
331.0124981022
 11
404.1582504625
 21
331.0124981022
  0
LINE
  8
DEFAULT_2
 62
8
  6
HIDDEN
 10
403.9582504625
 20
331.0189193079
 11
404.1582504625
 21
331.0189193079
  0
LINE
  8
DEFAULT_2
 62
8
  6
HIDDEN
 10
403.9582504625
 20
331.0639535423
 11
404.1582504625
 21
331.0639535423
  0
LINE
  8
DEFAULT_2
 62
8
  6
HIDDEN
 10
403.9582504625
 20
331.0913624928
 11
404.1582504625
 21
331.0913624928
  0
LINE
  8
DEFAULT_2
 62
8
  6
HIDDEN
 10
403.9582504625
 20
331.101803574
 11
404.1582504625
 21
331.101803574
  0
LINE
  8
DEFAULT_2
 62
8
  6
HIDDEN
 10
403.9582504625
 20
331.1281802748
 11
404.1582504625
 21
331.1281802748
  0
LINE
  8
DEFAULT_2
 62
8
  6
HIDDEN
 10
403.9582504625
 20
331.1338553699
 11
404.1582504625
 21
331.1338553699
  0
LINE
  8
DEFAULT_2
 62
8
  6
HIDDEN
 10
403.9582504625
 20
331.1568038989
 11
404.1582504625
 21
331.1568038989
  0
LINE
  8
DEFAULT_2
 62
8
  6
HIDDEN
 10
403.9582504625
 20
331.3043439395
 11
404.1582504625
 21
331.3043439395
  0
LINE
  8
DEFAULT_2
 62
8
  6
HIDDEN
 10
403.9582504625
 20
331.3156759664
 11
404.1582504625
 21
331.3156759664
  0
LINE
  8
DEFAULT_2
 62
8
  6
HIDDEN
 10
403.9582504625
 20
331.3341368776
 11
404.1582504625
 21
331.3341368776
  0
LINE
  8
DEFAULT_2
 62
8
  6
HIDDEN
 10
403.9582504625
 20
331.356293191
 11
404.1582504625
 21
331.356293191
  0
LINE
  8
DEFAULT_2
 62
8
  6
HIDDEN
 10
403.9582504625
 20
331.3756387606
 11
404.1582504625
 21
331.3756387606
  0
LINE
  8
DEFAULT_2
 62
8
  6
HIDDEN
 10
403.9582504625
 20
331.4721765835
 11
404.1582504625
 21
331.4721765835
  0
LINE
  8
DEFAULT_2
 62
8
  6
HIDDEN
 10
403.9582504625
 20
331.5012753001
 11
404.1582504625
 21
331.5012753001
  0
LINE
  8
DEFAULT_2
 62
8
  6
HIDDEN
 10
403.9582504625
 20
331.6461736615
 11
404.1582504625
 21
331.6461736615
  0
LINE
  8
DEFAULT_2
 62
8
  6
HIDDEN
 10
403.9582504625
 20
331.6574273452
 11
404.1582504625
 21
331.6574273452
  0
LINE
  8
DEFAULT_2
 62
8
  6
HIDDEN
 10
403.9582504625
 20
331.6978376468
 11
404.1582504625
 21
331.6978376468
  0
LINE
  8
DEFAULT_2
 62
8
  6
HIDDEN
 10
403.9582504625
 20
331.7182136121
 11
404.1582504625
 21
331.7182136121
  0
LINE
  8
DEFAULT_2
 62
8
  6
HIDDEN
 10
403.9582504625
 20
331.8459503741
 11
404.1582504625
 21
331.8459503741
  0
LINE
  8
DEFAULT_2
 62
8
  6
HIDDEN
 10
403.9582504625
 20
332.0037100122
 11
404.1582504625
 21
332.0037100122
  0
LINE
  8
DEFAULT_2
 62
8
  6
HIDDEN
 10
432.1582504625
 20
332.1055805271
 11
425.7082504625
 21
332.1055805271
  0
LINE
  8
DEFAULT_2
 62
8
  6
HIDDEN
 10
415.4082504625
 20
332.1055805271
 11
408.9582504625
 21
332.1055805271
  0
LINE
  8
DEFAULT_2
 62
8
  6
HIDDEN
 10
408.9582504625
 20
332.2365490843
 11
415.4082504625
 21
332.2365490843
  0
LINE
  8
DEFAULT_2
 62
8
  6
HIDDEN
 10
425.7082504625
 20
332.2365490843
 11
432.1582504625
 21
332.2365490843
  0
LINE
  8
DEFAULT_2
 62
8
  6
HIDDEN
 10
432.1582504625
 20
332.4434298065
 11
425.7082504625
 21
332.4434298065
  0
LINE
  8
DEFAULT_2
 62
8
  6
HIDDEN
 10
415.4082504625
 20
332.4434298065
 11
408.9582504625
 21
332.4434298065
  0
LINE
  8
0
 62
9
  6
CONTINUOUS
 10
408.9582504625
 20
333.5384517205
 11
415.4082504625
 21
333.5384517205
  0
LINE
  8
0
 62
9
  6
CONTINUOUS
 10
425.7082504625
 20
333.5384517205
 11
432.1582504625
 21
333.5384517205
  0
LINE
  8
0
 62
7
  6
CONTINUOUS
 10
425.7082504625
 20
335.9849923223
 11
415.4082504625
 21
335.9849923223
  0
LINE
  8
0
 62
7
  6
CONTINUOUS
 10
405.9582504625
 20
335.9849923223
 11
408.9582504625
 21
335.9849923223
  0
LINE
  8
0
 62
7
  6
CONTINUOUS
 10
432.1582504625
 20
335.9849923223
 11
435.1582504625
 21
335.9849923223
  0
LINE
  8
DEFAULT_2
 62
8
  6
HIDDEN
 10
408.9582504625
 20
336.80937407
 11
415.4082504625
 21
336.80937407
  0
LINE
  8
DEFAULT_2
 62
8
  6
HIDDEN
 10
425.7082504625
 20
336.80937407
 11
432.1582504625
 21
336.80937407
  0
LINE
  8
DEFAULT_2
 62
8
  6
HIDDEN
 10
408.9582504625
 20
337.4599923223
 11
415.4082504625
 21
337.4599923223
  0
LINE
  8
DEFAULT_2
 62
8
  6
HIDDEN
 10
425.7082504625
 20
337.4599923223
 11
432.1582504625
 21
337.4599923223
  0
LINE
  8
DEFAULT_2
 62
8
  6
HIDDEN
 10
432.1582504625
 20
338.2599923223
 11
425.7082504625
 21
338.2599923223
  0
LINE
  8
DEFAULT_2
 62
8
  6
HIDDEN
 10
415.4082504625
 20
338.2599923223
 11
408.9582504625
 21
338.2599923223
  0
LINE
  8
DEFAULT_2
 62
8
  6
HIDDEN
 10
432.1582504625
 20
338.4599923223
 11
425.7082504625
 21
338.4599923223
  0
LINE
  8
DEFAULT_2
 62
8
  6
HIDDEN
 10
415.4082504625
 20
338.4599923223
 11
408.9582504625
 21
338.4599923223
  0
LINE
  8
DEFAULT_2
 62
8
  6
HIDDEN
 10
408.9582504625
 20
339.3353776984
 11
415.4082504625
 21
339.3353776984
  0
LINE
  8
DEFAULT_2
 62
8
  6
HIDDEN
 10
425.7082504625
 20
339.3353776984
 11
432.1582504625
 21
339.3353776984
  0
LINE
  8
DEFAULT_2
 62
8
  6
HIDDEN
 10
408.9582504625
 20
339.8748980702
 11
415.4082504625
 21
339.8748980702
  0
LINE
  8
DEFAULT_2
 62
8
  6
HIDDEN
 10
425.7082504625
 20
339.8748980702
 11
432.1582504625
 21
339.8748980702
  0
LINE
  8
DEFAULT_2
 62
8
  6
HIDDEN
 10
408.9582504625
 20
342.1478366334
 11
415.4082504625
 21
342.1478366334
  0
LINE
  8
DEFAULT_2
 62
8
  6
HIDDEN
 10
425.7082504625
 20
342.1478366334
 11
432.1582504625
 21
342.1478366334
  0
LINE
  8
DEFAULT_2
 62
8
  6
HIDDEN
 10
408.9582504625
 20
343.47532304
 11
415.4082504625
 21
343.47532304
  0
LINE
  8
DEFAULT_2
 62
8
  6
HIDDEN
 10
425.7082504625
 20
343.47532304
 11
432.1582504625
 21
343.47532304
  0
LINE
  8
DEFAULT_2
 62
8
  6
HIDDEN
 10
408.9582504625
 20
343.4898567767
 11
415.4082504625
 21
343.4898567767
  0
LINE
  8
DEFAULT_2
 62
8
  6
HIDDEN
 10
425.7082504625
 20
343.4898567767
 11
432.1582504625
 21
343.4898567767
  0
LINE
  8
DEFAULT_2
 62
8
  6
HIDDEN
 10
408.9582504625
 20
344.2338097049
 11
415.4082504625
 21
344.2338097049
  0
LINE
  8
DEFAULT_2
 62
8
  6
HIDDEN
 10
425.7082504625
 20
344.2338097049
 11
432.1582504625
 21
344.2338097049
  0
LINE
  8
DEFAULT_2
 62
8
  6
HIDDEN
 10
408.9582504625
 20
348.1379791499
 11
415.4082504625
 21
348.1379791499
  0
LINE
  8
DEFAULT_2
 62
8
  6
HIDDEN
 10
425.7082504625
 20
348.1379791499
 11
432.1582504625
 21
348.1379791499
  0
LINE
  8
DEFAULT_2
 62
8
  6
HIDDEN
 10
408.9582504625
 20
349.382610584
 11
415.4082504625
 21
349.382610584
  0
LINE
  8
DEFAULT_2
 62
8
  6
HIDDEN
 10
425.7082504625
 20
349.382610584
 11
432.1582504625
 21
349.382610584
  0
LINE
  8
0
 62
9
  6
CONTINUOUS
 10
408.9582504625
 20
349.5367050818
 11
415.4082504625
 21
349.5367050818
  0
LINE
  8
0
 62
9
  6
CONTINUOUS
 10
425.7082504625
 20
349.5367050818
 11
432.1582504625
 21
349.5367050818
  0
LINE
  8
0
 62
7
  6
CONTINUOUS
 10
408.9582504625
 20
349.9599923223
 11
415.4082504625
 21
349.9599923223
  0
LINE
  8
0
 62
7
  6
CONTINUOUS
 10
425.7082504625
 20
349.9599923223
 11
432.1582504625
 21
349.9599923223
  0
LINE
  8
DEFAULT_2
 62
8
  6
HIDDEN
 10
408.9582504625
 20
353.8136452262
 11
415.4082504625
 21
353.8136452262
  0
LINE
  8
DEFAULT_2
 62
8
  6
HIDDEN
 10
425.7082504625
 20
353.8136452262
 11
432.1582504625
 21
353.8136452262
  0
LINE
  8
0
 62
9
  6
CONTINUOUS
 10
408.9582504625
 20
354.6154710337
 11
415.4082504625
 21
354.6154710337
  0
LINE
  8
0
 62
9
  6
CONTINUOUS
 10
425.7082504625
 20
354.6154710337
 11
432.1582504625
 21
354.6154710337
  0
LINE
  8
0
 62
7
  6
CONTINUOUS
 10
408.9582504625
 20
354.7700258388
 11
415.4082504625
 21
354.7700258388
  0
LINE
  8
0
 62
7
  6
CONTINUOUS
 10
425.7082504625
 20
354.7700258388
 11
432.1582504625
 21
354.7700258388
  0
ARC
  8
0
 62
7
  6
CONTINUOUS
 10
125.7291789227
 20
192.0060937502
 40
14.0
 50
257.2803337598
 51
326.9731257731
  0
ARC
  8
0
 62
7
  6
CONTINUOUS
 10
118.5948521915
 20
190.9451452102
 40
10.0
 50
317.5
 51
22.5
  0
ARC
  8
0
 62
7
  6
CONTINUOUS
 10
146.928730906
 20
162.772742392
 40
10.0
 50
340.0
 51
45.0
  0
ARC
  8
0
 62
7
  6
CONTINUOUS
 10
139.1438191814
 20
183.2855761778
 40
2.0
 50
351.8698976459
 51
146.9731257731
  0
ARC
  8
0
 62
7
  6
CONTINUOUS
 10
122.8668254743
 20
179.3251264079
 40
1.0
 50
137.5
 51
257.2803337598
  0
ARC
  8
0
 62
7
  6
CONTINUOUS
 10
141.6186929156
 20
182.9320227872
 40
0.5
 50
171.8698976456
 51
225.0
  0
ARC
  8
0
 62
7
  6
CONTINUOUS
 10
110.1961392531
 20
226.0659575143
 40
14.0
 50
234.7803337598
 51
304.4731257731
  0
ARC
  8
0
 62
7
  6
CONTINUOUS
 10
103.1988733789
 20
227.8159575143
 40
10.0
 50
295.0
 51
360.0
  0
ARC
  8
0
 62
7
  6
CONTINUOUS
 10
112.1988733789
 20
247.825485257
 40
2.0
 50
306.8698976459
 51
101.9731257731
  0
ARC
  8
0
 62
7
  6
CONTINUOUS
 10
119.2524532275
 20
212.8756892382
 40
2.0
 50
329.3698976459
 51
124.4731257731
  0
ARC
  8
0
 62
7
  6
CONTINUOUS
 10
102.6988733789
 20
215.4456465767
 40
1.0
 50
115.0
 51
234.7803337598
  0
ARC
  8
0
 62
7
  6
CONTINUOUS
 10
113.6988733789
 20
245.825485257
 40
0.5
 50
126.8698976456
 51
180.0
  0
ARC
  8
0
 62
7
  6
CONTINUOUS
 10
121.403639391
 20
211.6019553217
 40
0.5
 50
149.3698976456
 51
202.5
  0
ARC
  8
0
 62
7
  6
CONTINUOUS
 10
153.1139819224
 20
166.4831196742
 40
14.0
 50
279.7803337598
 51
349.4731257731
  0
ARC
  8
0
 62
7
  6
CONTINUOUS
 10
188.1814602392
 20
153.3826767232
 40
14.0
 50
302.2803337598
 51
11.9731257731
  0
ARC
  8
0
 62
7
  6
CONTINUOUS
 10
183.8869333354
 20
147.5877420052
 40
10.0
 50
2.5
 51
67.5
  0
ARC
  8
0
 62
7
  6
CONTINUOUS
 10
168.84469109
 20
163.5599725544
 40
2.0
 50
14.3698976459
 51
169.4731257731
  0
ARC
  8
0
 62
7
  6
CONTINUOUS
 10
155.3223082648
 20
153.6720582519
 40
1.0
 50
160.0
 51
279.7803337598
  0
ARC
  8
0
 62
7
  6
CONTINUOUS
 10
195.1242687053
 20
142.3918891899
 40
1.0
 50
182.5
 51
302.2803337598
  0
ARC
  8
0
 62
7
  6
CONTINUOUS
 10
171.2664753036
 20
164.1804249884
 40
0.5
 50
194.3698976456
 51
247.5
  0
ARC
  8
0
 62
7
  6
CONTINUOUS
 10
195.3643729668
 20
207.1766916161
 40
5.3
 50
8.1519317112
 51
46.4362256363
  0
ARC
  8
0
 62
7
  6
CONTINUOUS
 10
163.1366384379
 20
237.8279174492
 40
5.3
 50
46.4362256363
 51
84.7205195615
  0
ARC
  8
0
 62
7
  6
CONTINUOUS
 10
163.9923684403
 20
247.0884642021
 40
4.0
 50
98.1519317112
 51
264.7205195615
  0
ARC
  8
0
 62
7
  6
CONTINUOUS
 10
121.9800703468
 20
298.5448837788
 40
14.0
 50
189.7803337598
 51
259.4731257731
  0
ARC
  8
0
 62
7
  6
CONTINUOUS
 10
108.8796273957
 20
263.477405462
 40
14.0
 50
212.2803337598
 51
281.9731257731
  0
ARC
  8
0
 62
7
  6
CONTINUOUS
 10
103.0846926777
 20
267.7719323658
 40
10.0
 50
272.5
 51
337.5
  0
ARC
  8
0
 62
7
  6
CONTINUOUS
 10
119.0569232269
 20
282.8141746112
 40
2.0
 50
284.3698976459
 51
79.4731257731
  0
ARC
  8
0
 62
7
  6
CONTINUOUS
 10
109.1690089245
 20
296.3365574364
 40
1.0
 50
70.0
 51
189.7803337598
  0
ARC
  8
0
 62
7
  6
CONTINUOUS
 10
97.8888398624
 20
256.5345969959
 40
1.0
 50
92.5
 51
212.2803337598
  0
ARC
  8
0
 62
7
  6
CONTINUOUS
 10
119.6773756609
 20
280.3923903976
 40
0.5
 50
104.3698976456
 51
157.5
  0
ARC
  8
0
 62
7
  6
CONTINUOUS
 10
147.5030444227
 20
325.9296867785
 40
14.0
 50
167.2803337598
 51
236.9731257731
  0
ARC
  8
0
 62
7
  6
CONTINUOUS
 10
118.2696930645
 20
304.7301347952
 40
10.0
 50
250.0
 51
315.0
  0
ARC
  8
0
 62
7
  6
CONTINUOUS
 10
146.4420958827
 20
333.0640135098
 40
10.0
 50
227.5
 51
292.5
  0
ARC
  8
0
 62
7
  6
CONTINUOUS
 10
138.7825268504
 20
312.5150465198
 40
2.0
 50
261.8698976459
 51
56.9731257731
  0
ARC
  8
0
 62
7
  6
CONTINUOUS
 10
134.8220770804
 20
328.792040227
 40
1.0
 50
47.5
 51
167.2803337598
  0
ARC
  8
0
 62
7
  6
CONTINUOUS
 10
138.4289734598
 20
310.0401727856
 40
0.5
 50
81.8698976456
 51
135.0
  0
ARC
  8
0
 62
7
  6
CONTINUOUS
 10
162.6736422886
 20
256.2944927344
 40
5.3
 50
278.1519317112
 51
316.4362256363
  0
ARC
  8
0
 62
7
  6
CONTINUOUS
 10
193.3248681217
 20
288.5222272633
 40
5.3
 50
316.4362256363
 51
354.7205195615
  0
ARC
  8
0
 62
7
  6
CONTINUOUS
 10
202.5854148746
 20
287.6664972609
 40
4.0
 50
8.1519317112
 51
174.7205195615
  0
ARC
  8
0
 62
7
  6
CONTINUOUS
 10
181.5629081869
 20
341.4627264482
 40
14.0
 50
144.7803337598
 51
214.4731257731
  0
ARC
  8
0
 62
7
  6
CONTINUOUS
 10
183.3129081869
 20
348.4599923223
 40
10.0
 50
205.0
 51
270.0
  0
ARC
  8
0
 62
7
  6
CONTINUOUS
 10
203.3224359296
 20
339.4599923223
 40
2.0
 50
216.8698976459
 51
11.9731257731
  0
ARC
  8
0
 62
7
  6
CONTINUOUS
 10
168.3726399107
 20
332.4064124737
 40
2.0
 50
239.3698976459
 51
34.4731257731
  0
ARC
  8
0
 62
7
  6
CONTINUOUS
 10
170.9425972492
 20
348.9599923223
 40
1.0
 50
25.0
 51
144.7803337598
  0
ARC
  8
0
 62
7
  6
CONTINUOUS
 10
201.3224359296
 20
337.9599923223
 40
0.5
 50
36.8698976456
 51
90.0
  0
ARC
  8
0
 62
7
  6
CONTINUOUS
 10
167.0989059942
 20
330.2552263102
 40
0.5
 50
59.3698976456
 51
112.5
  0
ARC
  8
0
 62
7
  6
CONTINUOUS
 10
225.5929081869
 20
154.6991885805
 40
14.0
 50
324.7803337598
 51
34.4731257731
  0
ARC
  8
0
 62
7
  6
CONTINUOUS
 10
223.8429081869
 20
147.7019227064
 40
10.0
 50
25.0
 51
90.0
  0
ARC
  8
0
 62
7
  6
CONTINUOUS
 10
203.8333804442
 20
156.7019227064
 40
2.0
 50
36.8698976459
 51
191.9731257731
  0
ARC
  8
0
 62
7
  6
CONTINUOUS
 10
238.783176463
 20
163.755502555
 40
2.0
 50
59.3698976459
 51
214.4731257731
  0
ARC
  8
0
 62
7
  6
CONTINUOUS
 10
236.2132191245
 20
147.2019227064
 40
1.0
 50
205.0
 51
324.7803337598
  0
ARC
  8
0
 62
7
  6
CONTINUOUS
 10
205.8333804442
 20
158.2019227064
 40
0.5
 50
216.8698976455
 51
270.0
  0
ARC
  8
0
 62
7
  6
CONTINUOUS
 10
240.0569103795
 20
165.9066887185
 40
0.5
 50
239.3698976456
 51
292.5
  0
ARC
  8
0
 62
7
  6
CONTINUOUS
 10
244.4821740851
 20
239.8674222943
 40
5.3
 50
98.1519317112
 51
136.4362256363
  0
ARC
  8
0
 62
7
  6
CONTINUOUS
 10
213.830948252
 20
207.6396877654
 40
5.3
 50
136.4362256363
 51
174.7205195615
  0
ARC
  8
0
 62
7
  6
CONTINUOUS
 10
204.5704014991
 20
208.4954177678
 40
4.0
 50
188.1519317112
 51
354.7205195615
  0
ARC
  8
0
 62
7
  6
CONTINUOUS
 10
259.652771951
 20
170.2322282502
 40
14.0
 50
347.2803337598
 51
56.9731257731
  0
ARC
  8
0
 62
7
  6
CONTINUOUS
 10
260.713720491
 20
163.0979015189
 40
10.0
 50
47.5
 51
112.5
  0
ARC
  8
0
 62
7
  6
CONTINUOUS
 10
288.8861233093
 20
191.4317802334
 40
10.0
 50
70.0
 51
135.0
  0
ARC
  8
0
 62
7
  6
CONTINUOUS
 10
268.3732895234
 20
183.6468685089
 40
2.0
 50
81.8698976459
 51
236.9731257731
  0
ARC
  8
0
 62
7
  6
CONTINUOUS
 10
272.3337392933
 20
167.3698748017
 40
1.0
 50
227.5
 51
347.2803337598
  0
ARC
  8
0
 62
7
  6
CONTINUOUS
 10
268.726842914
 20
186.1217422431
 40
0.5
 50
261.8698976456
 51
315.0
  0
ARC
  8
0
 62
7
  6
CONTINUOUS
 10
285.175746027
 20
197.6170312499
 40
14.0
 50
9.7803337598
 51
79.4731257731
  0
ARC
  8
0
 62
7
  6
CONTINUOUS
 10
298.276188978
 20
232.6845095667
 40
14.0
 50
32.2803337598
 51
101.9731257731
  0
ARC
  8
0
 62
7
  6
CONTINUOUS
 10
304.071123696
 20
228.3899826629
 40
10.0
 50
92.5
 51
157.5
  0
ARC
  8
0
 62
7
  6
CONTINUOUS
 10
288.0988931468
 20
213.3477404175
 40
2.0
 50
104.3698976459
 51
259.4731257731
  0
ARC
  8
0
 62
7
  6
CONTINUOUS
 10
297.9868074493
 20
199.8253575923
 40
1.0
 50
250.0
 51
9.7803337598
  0
ARC
  8
0
 62
7
  6
CONTINUOUS
 10
309.2669765113
 20
239.6273180328
 40
1.0
 50
272.5
 51
32.2803337598
  0
ARC
  8
0
 62
7
  6
CONTINUOUS
 10
287.4784407128
 20
215.769524631
 40
0.5
 50
284.3698976456
 51
337.5
  0
ARC
  8
0
 62
40
  6
CONTINUOUS
 10
203.5779081869
 20
248.0809575143
 40
107.02661545
 50
78.4006702966
 51
85.4479547658
  0
ARC
  8
0
 62
40
  6
CONTINUOUS
 10
203.5779081869
 20
248.0809575143
 40
107.02661545
 50
85.4532155433
 51
90.0
  0
ARC
  8
PITCH_DIAMETER
 62
8
  6
HIDDEN
 10
203.5779081869
 20
248.0809575143
 40
103.874963097
 50
197.2223214439
 51
199.8974778286
  0
ARC
  8
PITCH_DIAMETER
 62
8
  6
HIDDEN
 10
203.5779081869
 20
248.0809575143
 40
103.874963097
 50
219.7215344588
 51
222.3979063314
  0
ARC
  8
PITCH_DIAMETER
 62
8
  6
HIDDEN
 10
203.5779081869
 20
248.0809575143
 40
103.874963097
 50
242.2227404794
 51
244.8902390524
  0
ARC
  8
PITCH_DIAMETER
 62
8
  6
HIDDEN
 10
203.5779081869
 20
248.0809575143
 40
103.874963097
 50
264.7218658423
 51
267.3986631442
  0
ARC
  8
PITCH_DIAMETER
 62
8
  6
HIDDEN
 10
203.5779081869
 20
248.0809575143
 40
103.874963097
 50
287.2216924163
 51
289.8960181567
  0
ARC
  8
PITCH_DIAMETER
 62
8
  6
HIDDEN
 10
203.5779081869
 20
248.0809575143
 40
103.874963097
 50
309.7229479282
 51
312.3948711097
  0
ARC
  8
PITCH_DIAMETER
 62
8
  6
HIDDEN
 10
203.5779081869
 20
248.0809575143
 40
103.874963097
 50
332.2215979013
 51
334.8987969105
  0
ARC
  8
PITCH_DIAMETER
 62
8
  6
HIDDEN
 10
203.5779081869
 20
248.0809575143
 40
103.874963097
 50
354.7220887429
 51
357.392115512
  0
ARC
  8
PITCH_DIAMETER
 62
8
  6
HIDDEN
 10
203.5779081869
 20
248.0809575143
 40
103.874963097
 50
17.2223214439
 51
19.8974778286
  0
ARC
  8
PITCH_DIAMETER
 62
8
  6
HIDDEN
 10
203.5779081869
 20
248.0809575143
 40
103.874963097
 50
39.7215344588
 51
42.3979063314
  0
ARC
  8
PITCH_DIAMETER
 62
8
  6
HIDDEN
 10
203.5779081869
 20
248.0809575143
 40
103.874963097
 50
62.2227404794
 51
64.8902390524
  0
ARC
  8
PITCH_DIAMETER
 62
8
  6
HIDDEN
 10
203.5779081869
 20
248.0809575143
 40
103.874963097
 50
84.7218658423
 51
87.3986631442
  0
ARC
  8
PITCH_DIAMETER
 62
8
  6
HIDDEN
 10
203.5779081869
 20
248.0809575143
 40
103.874963097
 50
107.2216924163
 51
109.8960181567
  0
ARC
  8
PITCH_DIAMETER
 62
8
  6
HIDDEN
 10
203.5779081869
 20
248.0809575143
 40
103.874963097
 50
129.7229479282
 51
132.3948711097
  0
ARC
  8
PITCH_DIAMETER
 62
8
  6
HIDDEN
 10
203.5779081869
 20
248.0809575143
 40
103.874963097
 50
152.2215979013
 51
154.8987969105
  0
ARC
  8
PITCH_DIAMETER
 62
8
  6
HIDDEN
 10
203.5779081869
 20
248.0809575143
 40
103.874963097
 50
174.7220887429
 51
177.392115512
  0
ARC
  8
PITCH_DIAMETER
 62
40
  6
CONTINUOUS
 10
203.5779081869
 20
248.0809575143
 40
103.874963097
 50
199.8974778286
 51
219.7215344588
  0
ARC
  8
PITCH_DIAMETER
 62
40
  6
CONTINUOUS
 10
203.5779081869
 20
248.0809575143
 40
103.874963097
 50
222.3979063314
 51
242.2227404794
  0
ARC
  8
PITCH_DIAMETER
 62
40
  6
CONTINUOUS
 10
203.5779081869
 20
248.0809575143
 40
103.874963097
 50
244.8902390524
 51
264.7218658423
  0
ARC
  8
PITCH_DIAMETER
 62
40
  6
CONTINUOUS
 10
203.5779081869
 20
248.0809575143
 40
103.874963097
 50
267.3986631442
 51
287.2216924163
  0
ARC
  8
PITCH_DIAMETER
 62
40
  6
CONTINUOUS
 10
203.5779081869
 20
248.0809575143
 40
103.874963097
 50
289.8960181567
 51
309.7229479282
  0
ARC
  8
PITCH_DIAMETER
 62
40
  6
CONTINUOUS
 10
203.5779081869
 20
248.0809575143
 40
103.874963097
 50
312.3948711097
 51
332.2215979013
  0
ARC
  8
PITCH_DIAMETER
 62
40
  6
CONTINUOUS
 10
203.5779081869
 20
248.0809575143
 40
103.874963097
 50
334.8987969105
 51
354.7220887429
  0
ARC
  8
PITCH_DIAMETER
 62
40
  6
CONTINUOUS
 10
203.5779081869
 20
248.0809575143
 40
103.874963097
 50
357.392115512
 51
17.2223214439
  0
ARC
  8
PITCH_DIAMETER
 62
40
  6
CONTINUOUS
 10
203.5779081869
 20
248.0809575143
 40
103.874963097
 50
19.8974778286
 51
39.7215344588
  0
ARC
  8
PITCH_DIAMETER
 62
40
  6
CONTINUOUS
 10
203.5779081869
 20
248.0809575143
 40
103.874963097
 50
42.3979063314
 51
62.2227404794
  0
ARC
  8
PITCH_DIAMETER
 62
40
  6
CONTINUOUS
 10
203.5779081869
 20
248.0809575143
 40
103.874963097
 50
64.8902390524
 51
84.7218658423
  0
ARC
  8
PITCH_DIAMETER
 62
40
  6
CONTINUOUS
 10
203.5779081869
 20
248.0809575143
 40
103.874963097
 50
87.3986631442
 51
107.2216924163
  0
ARC
  8
PITCH_DIAMETER
 62
40
  6
CONTINUOUS
 10
203.5779081869
 20
248.0809575143
 40
103.874963097
 50
109.8960181567
 51
129.7229479282
  0
ARC
  8
PITCH_DIAMETER
 62
40
  6
CONTINUOUS
 10
203.5779081869
 20
248.0809575143
 40
103.874963097
 50
132.3948711097
 51
152.2215979013
  0
ARC
  8
PITCH_DIAMETER
 62
40
  6
CONTINUOUS
 10
203.5779081869
 20
248.0809575143
 40
103.874963097
 50
154.8987969105
 51
174.7220887429
  0
ARC
  8
PITCH_DIAMETER
 62
40
  6
CONTINUOUS
 10
203.5779081869
 20
248.0809575143
 40
103.874963097
 50
177.392115512
 51
197.2223214439
  0
ARC
  8
DEFAULT_2
 62
8
  6
HIDDEN
 10
203.5779081869
 20
248.0809575143
 40
90.3790348079
 50
71.4848166431
 51
89.0767160522
  0
ARC
  8
DEFAULT_2
 62
8
  6
HIDDEN
 10
203.5779081869
 20
248.0809575143
 40
90.3790348079
 50
91.3286491051
 51
95.0680873614
  0
ARC
  8
DEFAULT_2
 62
8
  6
HIDDEN
 10
203.5779081869
 20
248.0809575143
 40
90.3790348079
 50
181.3090347345
 51
201.5762480162
  0
ARC
  8
DEFAULT_2
 62
8
  6
HIDDEN
 10
203.5779081869
 20
248.0809575143
 40
90.3790348079
 50
203.8261852939
 51
224.0833908757
  0
ARC
  8
DEFAULT_2
 62
8
  6
HIDDEN
 10
203.5779081869
 20
248.0809575143
 40
90.3790348079
 50
226.3128305083
 51
246.5819644632
  0
ARC
  8
DEFAULT_2
 62
8
  6
HIDDEN
 10
203.5779081869
 20
248.0809575143
 40
90.3790348079
 50
248.8115970917
 51
269.0792710783
  0
ARC
  8
DEFAULT_2
 62
8
  6
HIDDEN
 10
203.5779081869
 20
248.0809575143
 40
90.3790348079
 50
271.3278474449
 51
291.5839029627
  0
ARC
  8
DEFAULT_2
 62
8
  6
HIDDEN
 10
203.5779081869
 20
248.0809575143
 40
90.3790348079
 50
293.8094805641
 51
314.0795657681
  0
ARC
  8
DEFAULT_2
 62
8
  6
HIDDEN
 10
203.5779081869
 20
248.0809575143
 40
90.3790348079
 50
316.3172761854
 51
336.5818559251
  0
ARC
  8
DEFAULT_2
 62
8
  6
HIDDEN
 10
203.5779081869
 20
248.0809575143
 40
90.3790348079
 50
338.8189847377
 51
359.0834187733
  0
ARC
  8
0
 62
40
  6
CONTINUOUS
 10
203.5779081869
 20
248.0809575143
 40
90.3790348079
 50
89.0767160522
 51
91.3286491051
  0
ARC
  8
0
 62
40
  6
CONTINUOUS
 10
203.5779081869
 20
248.0809575143
 40
90.3790348079
 50
180.0
 51
181.3090347345
  0
ARC
  8
0
 62
40
  6
CONTINUOUS
 10
203.5779081869
 20
248.0809575143
 40
90.3790348079
 50
201.5762480162
 51
203.8261852939
  0
ARC
  8
0
 62
40
  6
CONTINUOUS
 10
203.5779081869
 20
248.0809575143
 40
90.3790348079
 50
224.0833908757
 51
226.3128305083
  0
ARC
  8
0
 62
40
  6
CONTINUOUS
 10
203.5779081869
 20
248.0809575143
 40
90.3790348079
 50
246.5819644632
 51
248.8115970917
  0
ARC
  8
0
 62
40
  6
CONTINUOUS
 10
203.5779081869
 20
248.0809575143
 40
90.3790348079
 50
269.0792710783
 51
271.3278474449
  0
ARC
  8
0
 62
40
  6
CONTINUOUS
 10
203.5779081869
 20
248.0809575143
 40
90.3790348079
 50
291.5839029627
 51
293.8094805641
  0
ARC
  8
0
 62
40
  6
CONTINUOUS
 10
203.5779081869
 20
248.0809575143
 40
90.3790348079
 50
314.0795657681
 51
316.3172761854
  0
ARC
  8
0
 62
40
  6
CONTINUOUS
 10
203.5779081869
 20
248.0809575143
 40
90.3790348079
 50
336.5818559251
 51
338.8189847377
  0
ARC
  8
0
 62
40
  6
CONTINUOUS
 10
203.5779081869
 20
248.0809575143
 40
90.3790348079
 50
359.0834187733
 51
360.0
  0
CIRCLE
  8
0
 62
7
  6
CONTINUOUS
 10
203.5779081869
 20
248.0809575143
 40
87.9040348079
  0
CIRCLE
  8
0
 62
9
  6
CONTINUOUS
 10
203.5779081869
 20
248.0809575143
 40
85.9040348079
  0
ARC
  8
0
 62
7
  6
CONTINUOUS
 10
211.7914434069
 20
288.9852234126
 40
5.3
 50
188.1519317112
 51
226.4362256363
  0
ARC
  8
0
 62
7
  6
CONTINUOUS
 10
244.0191779358
 20
258.3339975795
 40
5.3
 50
226.4362256363
 51
264.7205195615
  0
ARC
  8
0
 62
7
  6
CONTINUOUS
 10
243.1634479334
 20
249.0734508266
 40
4.0
 50
278.1519317112
 51
84.7205195615
  0
ARC
  8
0
 62
7
  6
CONTINUOUS
 10
218.9743561345
 20
342.7792383055
 40
14.0
 50
122.2803337598
 51
191.9731257731
  0
ARC
  8
0
 62
7
  6
CONTINUOUS
 10
223.2688830383
 20
348.5741730235
 40
10.0
 50
182.5
 51
247.5
  0
ARC
  8
0
 62
7
  6
CONTINUOUS
 10
238.3111252837
 20
332.6019424743
 40
2.0
 50
194.3698976459
 51
349.4731257731
  0
ARC
  8
0
 62
7
  6
CONTINUOUS
 10
251.833508109
 20
342.4898567767
 40
1.0
 50
340.0
 51
99.7803337598
  0
ARC
  8
0
 62
7
  6
CONTINUOUS
 10
212.0315476684
 20
353.7700258388
 40
1.0
 50
2.5
 51
122.2803337598
  0
ARC
  8
0
 62
7
  6
CONTINUOUS
 10
235.8893410702
 20
331.9814900403
 40
0.5
 50
14.3698976456
 51
67.5
  0
ARC
  8
0
 62
7
  6
CONTINUOUS
 10
296.9596771207
 20
270.0959575143
 40
14.0
 50
54.7803337598
 51
124.4731257731
  0
ARC
  8
0
 62
7
  6
CONTINUOUS
 10
303.9569429948
 20
268.3459575143
 40
10.0
 50
115.0
 51
180.0
  0
ARC
  8
0
 62
7
  6
CONTINUOUS
 10
294.9569429948
 20
248.3364297716
 40
2.0
 50
126.8698976459
 51
281.9731257731
  0
ARC
  8
0
 62
7
  6
CONTINUOUS
 10
287.9033631463
 20
283.2862257905
 40
2.0
 50
149.3698976459
 51
304.4731257731
  0
ARC
  8
0
 62
7
  6
CONTINUOUS
 10
304.4569429948
 20
280.716268452
 40
1.0
 50
295.0
 51
54.7803337598
  0
ARC
  8
0
 62
7
  6
CONTINUOUS
 10
293.4569429948
 20
250.3364297716
 40
0.5
 50
306.8698976456
 51
360.0
  0
ARC
  8
0
 62
7
  6
CONTINUOUS
 10
285.7521769828
 20
284.559959707
 40
0.5
 50
329.3698976455
 51
22.5
  0
ARC
  8
0
 62
7
  6
CONTINUOUS
 10
268.0119971923
 20
312.8763388509
 40
2.0
 50
171.8698976459
 51
326.9731257731
  0
ARC
  8
0
 62
7
  6
CONTINUOUS
 10
265.5371234581
 20
313.2298922414
 40
0.5
 50
351.8698976456
 51
45.0
  0
ARC
  8
0
 62
7
  6
CONTINUOUS
 10
254.0418344513
 20
329.6787953545
 40
14.0
 50
99.7803337598
 51
169.4731257731
  0
ARC
  8
0
 62
7
  6
CONTINUOUS
 10
260.2270854678
 20
333.3891726367
 40
10.0
 50
160.0
 51
225.0
  0
ARC
  8
0
 62
7
  6
CONTINUOUS
 10
281.426637451
 20
304.1558212785
 40
14.0
 50
77.2803337598
 51
146.9731257731
  0
ARC
  8
0
 62
7
  6
CONTINUOUS
 10
288.5609641823
 20
305.2167698185
 40
10.0
 50
137.5
 51
202.5
  0
ARC
  8
0
 62
7
  6
CONTINUOUS
 10
284.2889908995
 20
316.8367886208
 40
1.0
 50
317.5
 51
77.2803337598
  0
ARC
  8
0
 62
7
  6
CONTINUOUS
 10
405.9582504625
 20
333.9849923223
 40
2.0
 50
90.0
 51
180.0
  0
ARC
  8
0
 62
7
  6
CONTINUOUS
 10
405.9582504625
 20
162.1769227064
 40
2.0
 50
180.0
 51
270.0
  0
ARC
  8
0
 62
7
  6
CONTINUOUS
 10
435.1582504625
 20
333.9849923223
 40
2.0
 50
0.0
 51
90.0
  0
ARC
  8
0
 62
7
  6
CONTINUOUS
 10
435.1582504625
 20
162.1769227064
 40
2.0
 50
270.0
 51
360.0
  0
ENDSEC
  0
EOF
