  0
SECTION
  2
HEADER
  9
$EXTMAX
 10
594.0
 20
420.0
 30
0.0
  9
$EXTMIN
 10
0.0
 20
0.0
 30
0.0
  9
$LIMMIN
 10
0.0
 20
0.0
  9
$LIMMAX
 10
594.0
 20
420.0
  9
$VIEWCTR
 10
297.0
 20
210.0
  9
$VIEWSIZE
 40
420.0
  9
$CLAYER
  8
0
  9
$LTSCALE
 40
32.67
  9
$CELTYPE
  6
BYLAYER
  9
$DIMSCALE
 40
1.0
  9
$DIMASZ
 40
3.5
  9
$DIMEXO
 40
1.0
  9
$DIMDLI
 40
22.572
  9
$DIMEXE
 40
2.0
  9
$DIMCEN
 40
5.346
  9
$DIMLFAC
 40
1.0
  9
$DIMBLK
  1
_FILLED
  9
$DIMALT
 70
0
  9
$DIMALTF
 40
0.0393700787
  9
$DIMTXT
 40
3.5
  9
$AUNITS
 70
0
  9
$PDMODE
 70
3
  9
$PDSIZE
 40
0.3125
  9
$TILEMODE
 70
1
  0
ENDSEC
  0
SECTION
  2
TABLES
  0
TABLE
  2
LTYPE
 70
6
  0
LTYPE
  2
BYBLOCK
 70
0
  3

 72
65
 73
0
 40
0.0
  0
LTYPE
  2
BYLAYER
 70
0
  3

 72
65
 73
0
 40
0.0
  0
LTYPE
  2
CONTINUOUS
 70
64
  3
Solid line
 72
65
 73
0
 40
0.0
  0
LTYPE
  2
CENTER
 70
64
  3
____ _ ____ _ ____ _ ____ _ ____ _ ____ _ ____
 72
65
 73
4
 40
0.6
 49
0.375
 49
-0.075
 49
0.075
 49
-0.075
  0
LTYPE
  2
HIDDEN
 70
64
  3
- - - - - - - - - - - - - - - - - - - -
 72
65
 73
2
 40
0.2
 49
0.1
 49
-0.1
  0
LTYPE
  2
PHANTOM
 70
64
  3
_____ _ _ _____ _ _ _____ _ _ _____
 72
65
 73
6
 40
0.8
 49
0.45
 49
-0.05
 49
0.1
 49
-0.05
 49
0.1
 49
-0.05
  0
LTYPE
  2
DOT
 70
64
  3
. . . . . . . . . . . . . . . . . . . .
 72
65
 73
2
 40
0.2
 49
0.1
 49
-0.1
  0
LTYPE
  2
DASHED
 70
64
  3
- - - - - - - - - - - - - - - - - - - -
 72
65
 73
2
 40
0.2
 49
0.1
 49
-0.1
  0
ENDTAB
  0
TABLE
  2
LAYER
 70
36
  0
LAYER
  2
0
 70
0
 62
7
  6
CONTINUOUS
  0
LAYER
  2
DEFAULT_1
 70
0
 62
7
  6
CENTER
  0
LAYER
  2
DEFAULT_2
 70
0
 62
8
  6
HIDDEN
  0
LAYER
  2
DEFAULT_3
 70
0
 62
7
  6
PHANTOM
  0
LAYER
  2
1_CSYS
 70
0
 62
7
  6
CONTINUOUS
  0
LAYER
  2
1_DATUM_PLANE
 70
0
 62
7
  6
CONTINUOUS
  0
LAYER
  2
2_FEATURE
 70
0
 62
7
  6
CONTINUOUS
  0
LAYER
  2
6_DIM
 70
0
 62
7
  6
CONTINUOUS
  0
LAYER
  2
AXES
 70
0
 62
7
  6
CONTINUOUS
  0
LAYER
  2
BLANK_CURVE
 70
0
 62
7
  6
CONTINUOUS
  0
LAYER
  2
CSYS
 70
0
 62
7
  6
CONTINUOUS
  0
LAYER
  2
NOTES
 70
0
 62
7
  6
CONTINUOUS
  0
LAYER
  2
PITCH_DIAMETER
 70
0
 62
7
  6
CONTINUOUS
  0
LAYER
  2
PITCH_LINE
 70
0
 62
7
  6
CONTINUOUS
  0
LAYER
  2
PLANES
 70
0
 62
7
  6
CONTINUOUS
  0
LAYER
  2
QUILTS
 70
0
 62
7
  6
CONTINUOUS
  0
ENDTAB
  0
TABLE
  2
STYLE
 70
1
  0
STYLE
  2
STANDARD
 70
0
 40
0.0
 41
0.8
 50
0.0
 71
0
 42
0.2
  3
txt
  4

  0
STYLE
  2
TEXTSTYLE_1
 70
0
 40
0.0
 41
0.8
 50
0.0
 71
0
 42
0.2
  3
gdt
  4

  0
STYLE
  2
TEXTSTYLE_2
 70
0
 40
0.0
 41
0.6
 50
0.0
 71
0
 42
0.2
  3
txt
  4

  0
STYLE
  2
TEXTSTYLE_3
 70
0
 40
0.0
 41
1.0
 50
0.0
 71
0
 42
0.2
  3
ftb_____.ttf
  4

  0
STYLE
  2
TEXTSTYLE_4
 70
0
 40
0.0
 41
1.0
 50
0.0
 71
0
 42
0.2
  3
fti_____.ttf
  4

  0
STYLE
  2
TEXTSTYLE_5
 70
0
 40
0.0
 41
1.0
 50
0.0
 71
0
 42
0.2
  3
frutiger light.ttf
  4

  0
STYLE
  2
TEXTSTYLE_6
 70
0
 40
0.0
 41
0.7
 50
0.0
 71
0
 42
0.2
  3
txt
  4

  0
STYLE
  2
TEXTSTYLE_7
 70
0
 40
0.0
 41
0.6
 50
0.0
 71
0
 42
0.2
  3
txt
  4

  0
ENDTAB
  0
ENDSEC
  0
SECTION
  2
BLOCKS
  0
BLOCK
  8
0
 62
2
  6
CONTINUOUS
  2
UNI_LOGO2_BL1
 70
64
 10
557.4079930916
 20
35.8092573885
  0
TEXT
  8
0
 62
7
  6
CONTINUOUS
 10
548.4662781001
 20
30.9020137655
  7
TEXTSTYLE_4
 40
1.0655737705
  1
The brand for plastic modular belts and chains
 41
1.0
 72
0
  0
LINE
  8
0
 62
7
  6
CONTINUOUS
 10
533.3860614807
 20
36.3830278803
 11
533.3860614807
 21
34.2518803393
  0
LINE
  8
0
 62
7
  6
CONTINUOUS
 10
533.6751239738
 20
31.2609490436
 11
533.6751239738
 21
31.3577401029
  0
LINE
  8
0
 62
7
  6
CONTINUOUS
 10
533.3860614807
 20
31.3254764164
 11
533.4438739824
 21
31.1318942979
  0
LINE
  8
0
 62
7
  6
CONTINUOUS
 10
534.7795041036
 20
34.1699131262
 11
534.7795041036
 21
36.3830278803
  0
LINE
  8
0
 62
7
  6
CONTINUOUS
 10
535.6985614255
 20
32.3256508311
 11
535.6985614255
 21
30.8092573885
  0
LINE
  8
0
 62
7
  6
CONTINUOUS
 10
535.9876239807
 20
30.8092573885
 11
535.9876239807
 21
31.5513222666
  0
LINE
  8
0
 62
7
  6
CONTINUOUS
 10
535.9876239807
 20
31.6803770123
 11
535.9876239807
 21
32.3256508311
  0
LINE
  8
0
 62
7
  6
CONTINUOUS
 10
533.4438739824
 20
31.5190585802
 11
533.3860614807
 21
31.3254764164
  0
LINE
  8
0
 62
7
  6
CONTINUOUS
 10
533.7907489669
 20
31.0996306115
 11
533.6751239738
 21
31.2609490436
  0
LINE
  8
0
 62
7
  6
CONTINUOUS
 10
534.8891865358
 20
31.6158496394
 11
534.9469989807
 21
31.5190585802
  0
LINE
  8
0
 62
7
  6
CONTINUOUS
 10
535.2360615358
 20
31.5190585802
 11
535.1782489255
 21
31.6481133259
  0
LINE
  8
0
 62
7
  6
CONTINUOUS
 10
536.6647500053
 20
36.3830278803
 11
536.6647500053
 21
34.5797491918
  0
LINE
  8
0
 62
7
  6
CONTINUOUS
 10
536.6647500053
 20
33.2682737819
 11
536.6647500053
 21
32.612536077
  0
LINE
  8
0
 62
7
  6
CONTINUOUS
 10
537.0282489807
 20
31.4545312073
 11
537.0282489807
 21
30.8092573885
  0
LINE
  8
0
 62
7
  6
CONTINUOUS
 10
537.3173113704
 20
30.8092573885
 11
537.3173113704
 21
31.4545312073
  0
LINE
  8
0
 62
7
  6
CONTINUOUS
 10
533.6751239738
 20
31.3577401029
 11
533.7329364807
 21
31.4867948937
  0
LINE
  8
0
 62
7
  6
CONTINUOUS
 10
533.4438739824
 20
31.1318942979
 11
533.5594989807
 21
31.0028395296
  0
LINE
  8
0
 62
7
  6
CONTINUOUS
 10
536.9704363704
 20
31.583585953
 11
537.0282489807
 21
31.4545312073
  0
LINE
  8
0
 62
7
  6
CONTINUOUS
 10
537.7798115909
 20
31.0996306115
 11
537.8376238704
 21
30.9705758432
  0
LINE
  8
0
 62
7
  6
CONTINUOUS
 10
537.3173113704
 20
31.4545312073
 11
537.2594990909
 21
31.6158496394
  0
LINE
  8
0
 62
7
  6
CONTINUOUS
 10
537.7798115909
 20
31.6481133259
 11
537.7798115909
 21
31.583585953
  0
LINE
  8
0
 62
7
  6
CONTINUOUS
 10
537.7798115909
 20
31.1964216708
 11
537.7798115909
 21
31.0996306115
  0
LINE
  8
0
 62
7
  6
CONTINUOUS
 10
538.0581926282
 20
32.612536077
 11
538.0581926282
 21
36.3830278803
  0
LINE
  8
0
 62
7
  6
CONTINUOUS
 10
538.0688739807
 20
31.0673669025
 11
538.0688739807
 21
31.1318942979
  0
LINE
  8
0
 62
7
  6
CONTINUOUS
 10
538.3860614807
 20
36.3830278803
 11
538.3860614807
 21
32.612536077
  0
LINE
  8
0
 62
7
  6
CONTINUOUS
 10
535.1782489255
 20
31.0028395296
 11
535.2360615358
 21
31.1318942979
  0
LINE
  8
0
 62
7
  6
CONTINUOUS
 10
539.5719992012
 20
30.9060484591
 11
539.5141862601
 21
31.0673669025
  0
LINE
  8
0
 62
7
  6
CONTINUOUS
 10
539.2251242012
 20
31.583585953
 11
539.2251242012
 21
31.4867948937
  0
LINE
  8
0
 62
7
  6
CONTINUOUS
 10
539.2251242012
 20
31.3577401029
 11
539.2251242012
 21
31.1641579843
  0
LINE
  8
0
 62
7
  6
CONTINUOUS
 10
539.5141862601
 20
31.0673669025
 11
539.5141862601
 21
31.583585953
  0
LINE
  8
0
 62
7
  6
CONTINUOUS
 10
539.7795041036
 20
32.612536077
 11
539.7795041036
 21
34.4158147655
  0
LINE
  8
0
 62
7
  6
CONTINUOUS
 10
539.7795041036
 20
35.7272901754
 11
539.7795041036
 21
36.3830278803
  0
LINE
  8
0
 62
7
  6
CONTINUOUS
 10
540.0923117012
 20
32.3256508311
 11
540.0923117012
 21
32.164332399
  0
LINE
  8
0
 62
7
  6
CONTINUOUS
 10
540.0923117012
 20
31.8416954444
 11
540.0923117012
 21
30.8092573885
  0
LINE
  8
0
 62
7
  6
CONTINUOUS
 10
540.3813737601
 20
30.8092573885
 11
540.3813737601
 21
31.8416954444
  0
LINE
  8
0
 62
7
  6
CONTINUOUS
 10
540.3813737601
 20
32.164332399
 11
540.3813737601
 21
32.3256508311
  0
LINE
  8
0
 62
7
  6
CONTINUOUS
 10
534.9469989807
 20
31.1318942979
 11
534.8891865358
 21
31.035103216
  0
LINE
  8
0
 62
7
  6
CONTINUOUS
 10
537.2594990909
 20
31.6158496394
 11
537.2016864807
 21
31.6803770123
  0
LINE
  8
0
 62
7
  6
CONTINUOUS
 10
538.1266865909
 20
31.0028395296
 11
538.0688739807
 21
31.0673669025
  0
LINE
  8
0
 62
7
  6
CONTINUOUS
 10
539.2829364807
 20
30.873784767
 11
539.3407487601
 21
30.8092573885
  0
LINE
  8
0
 62
7
  6
CONTINUOUS
 10
539.2251242012
 20
30.9705758432
 11
539.2829364807
 21
30.873784767
  0
LINE
  8
0
 62
7
  6
CONTINUOUS
 10
539.6298114807
 20
30.8092573885
 11
539.5719992012
 21
30.9060484591
  0
LINE
  8
0
 62
7
  6
CONTINUOUS
 10
539.5141862601
 20
31.583585953
 11
539.4563739807
 21
31.6803770123
  0
LINE
  8
0
 62
7
  6
CONTINUOUS
 10
540.8438739807
 20
31.8416954444
 11
540.8438739807
 21
30.8092573885
  0
LINE
  8
0
 62
7
  6
CONTINUOUS
 10
541.1329367012
 20
30.8092573885
 11
541.1329367012
 21
31.5513222666
  0
LINE
  8
0
 62
7
  6
CONTINUOUS
 10
541.1329367012
 20
31.6803770123
 11
541.1329367012
 21
31.8416954444
  0
LINE
  8
0
 62
7
  6
CONTINUOUS
 10
541.6647500053
 20
34.8256508311
 11
541.6647500053
 21
32.612536077
  0
LINE
  8
0
 62
7
  6
CONTINUOUS
 10
533.5594989807
 20
31.6481133259
 11
533.4438739824
 21
31.5190585802
  0
LINE
  8
0
 62
7
  6
CONTINUOUS
 10
533.7329364807
 20
31.4867948937
 11
533.7907489669
 21
31.5513222666
  0
LINE
  8
0
 62
7
  6
CONTINUOUS
 10
533.5594989807
 20
31.0028395296
 11
533.6751239738
 21
30.9383121455
  0
LINE
  8
0
 62
7
  6
CONTINUOUS
 10
533.9641864669
 20
31.0028395296
 11
533.7907489669
 21
31.0996306115
  0
LINE
  8
0
 62
7
  6
CONTINUOUS
 10
539.1673112601
 20
31.6481133259
 11
539.2251242012
 21
31.583585953
  0
LINE
  8
0
 62
7
  6
CONTINUOUS
 10
542.1157487601
 20
31.583585953
 11
542.1735617012
 21
31.4222675209
  0
LINE
  8
0
 62
7
  6
CONTINUOUS
 10
542.4626237601
 20
31.4222675209
 11
542.4048114807
 21
31.583585953
  0
LINE
  8
0
 62
7
  6
CONTINUOUS
 10
542.1735617012
 20
31.4222675209
 11
542.1735617012
 21
30.8092573885
  0
LINE
  8
0
 62
7
  6
CONTINUOUS
 10
542.4626237601
 20
30.8092573885
 11
542.4626237601
 21
31.4222675209
  0
LINE
  8
0
 62
7
  6
CONTINUOUS
 10
542.9251239807
 20
31.6481133259
 11
542.9251239807
 21
31.583585953
  0
LINE
  8
0
 62
7
  6
CONTINUOUS
 10
543.0581926282
 20
32.612536077
 11
543.0581926282
 21
34.743683618
  0
LINE
  8
0
 62
7
  6
CONTINUOUS
 10
543.3860614807
 20
36.3830278803
 11
543.3860614807
 21
32.612536077
  0
LINE
  8
0
 62
7
  6
CONTINUOUS
 10
538.0688739807
 20
31.1318942979
 11
538.1266865909
 21
31.2286853572
  0
LINE
  8
0
 62
7
  6
CONTINUOUS
 10
533.6751239738
 20
30.9383121455
 11
533.8485614944
 21
30.873784767
  0
LINE
  8
0
 62
7
  6
CONTINUOUS
 10
535.1782489255
 20
31.6481133259
 11
535.0048114255
 21
31.7449043851
  0
LINE
  8
0
 62
7
  6
CONTINUOUS
 10
537.8376238704
 20
30.9705758432
 11
538.0110613704
 21
30.873784767
  0
LINE
  8
0
 62
7
  6
CONTINUOUS
 10
536.8548114807
 20
31.6481133259
 11
536.9704363704
 21
31.583585953
  0
LINE
  8
0
 62
7
  6
CONTINUOUS
 10
537.2016864807
 20
31.6803770123
 11
537.0860615909
 21
31.7449043851
  0
LINE
  8
0
 62
7
  6
CONTINUOUS
 10
542.9251239807
 20
31.0673669025
 11
543.0407492012
 21
30.9383121455
  0
LINE
  8
0
 62
7
  6
CONTINUOUS
 10
543.2719989807
 20
31.0028395296
 11
543.2141867012
 21
31.0673669025
  0
LINE
  8
0
 62
7
  6
CONTINUOUS
 10
542.9251239807
 20
31.583585953
 11
543.0407492012
 21
31.4545312073
  0
LINE
  8
0
 62
7
  6
CONTINUOUS
 10
542.4048114807
 20
31.583585953
 11
542.3469992012
 21
31.6803770123
  0
LINE
  8
0
 62
7
  6
CONTINUOUS
 10
544.7751235396
 20
31.0028395296
 11
544.7751235396
 21
31.0673669025
  0
LINE
  8
0
 62
7
  6
CONTINUOUS
 10
544.7795041036
 20
32.612536077
 11
544.7795041036
 21
36.3830278803
  0
LINE
  8
0
 62
7
  6
CONTINUOUS
 10
537.8376238704
 20
31.7126406987
 11
537.7798115909
 21
31.6481133259
  0
LINE
  8
0
 62
7
  6
CONTINUOUS
 10
534.7157489531
 20
31.6803770123
 11
534.8891865358
 21
31.6158496394
  0
LINE
  8
0
 62
7
  6
CONTINUOUS
 10
539.4563739807
 20
31.6803770123
 11
539.3407487601
 21
31.7449043851
  0
LINE
  8
0
 62
7
  6
CONTINUOUS
 10
543.2719989807
 20
31.5190585802
 11
543.2141867012
 21
31.583585953
  0
LINE
  8
0
 62
7
  6
CONTINUOUS
 10
544.4282492012
 20
31.1318942979
 11
544.4860614807
 21
31.0673669025
  0
LINE
  8
0
 62
7
  6
CONTINUOUS
 10
544.7751235396
 20
31.0673669025
 11
544.6594989807
 21
31.1964216708
  0
LINE
  8
0
 62
7
  6
CONTINUOUS
 10
544.4282492012
 20
31.6481133259
 11
544.4860614807
 21
31.583585953
  0
LINE
  8
0
 62
7
  6
CONTINUOUS
 10
544.7751235396
 20
31.583585953
 11
544.6594989807
 21
31.7126406987
  0
LINE
  8
0
 62
7
  6
CONTINUOUS
 10
538.0688739807
 20
31.583585953
 11
538.1266865909
 21
31.6481133259
  0
LINE
  8
0
 62
7
  6
CONTINUOUS
 10
537.8954364807
 20
31.3254764164
 11
537.7798115909
 21
31.1964216708
  0
LINE
  8
0
 62
7
  6
CONTINUOUS
 10
539.2251242012
 20
31.1641579843
 11
539.1673112601
 21
31.0996306115
  0
LINE
  8
0
 62
7
  6
CONTINUOUS
 10
539.1673112601
 20
30.9060484591
 11
539.2251242012
 21
30.9705758432
  0
LINE
  8
0
 62
7
  6
CONTINUOUS
 10
538.0110613704
 20
30.873784767
 11
538.1266865909
 21
30.8415210777
  0
LINE
  8
0
 62
7
  6
CONTINUOUS
 10
535.0048114255
 20
31.7449043851
 11
534.7735614807
 21
31.809431758
  0
LINE
  8
0
 62
7
  6
CONTINUOUS
 10
538.3579363704
 20
30.9383121455
 11
538.1266865909
 21
31.0028395296
  0
LINE
  8
0
 62
7
  6
CONTINUOUS
 10
537.0860615909
 20
31.7449043851
 11
536.9126240909
 21
31.809431758
  0
LINE
  8
0
 62
7
  6
CONTINUOUS
 10
539.3407487601
 20
31.7449043851
 11
539.1673112601
 21
31.809431758
  0
LINE
  8
0
 62
7
  6
CONTINUOUS
 10
542.0001242012
 20
31.6481133259
 11
542.1157487601
 21
31.583585953
  0
LINE
  8
0
 62
7
  6
CONTINUOUS
 10
542.3469992012
 20
31.6803770123
 11
542.2313739807
 21
31.7449043851
  0
LINE
  8
0
 62
7
  6
CONTINUOUS
 10
533.8485614944
 20
30.873784767
 11
534.0219989944
 21
30.8415210777
  0
LINE
  8
0
 62
7
  6
CONTINUOUS
 10
534.3110615082
 20
30.9383121455
 11
533.9641864669
 21
31.0028395296
  0
LINE
  8
0
 62
7
  6
CONTINUOUS
 10
536.7391865909
 20
31.6803770123
 11
536.8548114807
 21
31.6481133259
  0
LINE
  8
0
 62
7
  6
CONTINUOUS
 10
539.0516867012
 20
31.6803770123
 11
539.1673112601
 21
31.6481133259
  0
LINE
  8
0
 62
7
  6
CONTINUOUS
 10
543.3876242012
 20
30.9705758432
 11
543.2719989807
 21
31.0028395296
  0
LINE
  8
0
 62
7
  6
CONTINUOUS
 10
541.8844989807
 20
31.6803770123
 11
542.0001242012
 21
31.6481133259
  0
LINE
  8
0
 62
7
  6
CONTINUOUS
 10
543.0407492012
 20
30.9383121455
 11
543.2141867012
 21
30.873784767
  0
LINE
  8
0
 62
7
  6
CONTINUOUS
 10
542.2313739807
 20
31.7449043851
 11
542.0579364807
 21
31.809431758
  0
LINE
  8
0
 62
7
  6
CONTINUOUS
 10
543.4454364807
 20
31.4545312073
 11
543.2719989807
 21
31.5190585802
  0
LINE
  8
0
 62
7
  6
CONTINUOUS
 10
544.2548117012
 20
31.1964216708
 11
544.4282492012
 21
31.1318942979
  0
LINE
  8
0
 62
7
  6
CONTINUOUS
 10
544.6594989807
 20
31.7126406987
 11
544.4860614807
 21
31.7771680715
  0
LINE
  8
0
 62
7
  6
CONTINUOUS
 10
543.0407492012
 20
31.4545312073
 11
543.2719989807
 21
31.3577401029
  0
LINE
  8
0
 62
7
  6
CONTINUOUS
 10
544.6594989807
 20
31.1964216708
 11
544.4282492012
 21
31.29321273
  0
LINE
  8
0
 62
7
  6
CONTINUOUS
 10
543.2141867012
 20
31.583585953
 11
543.2719989807
 21
31.6481133259
  0
LINE
  8
0
 62
7
  6
CONTINUOUS
 10
533.6751239738
 20
31.7126406987
 11
533.5594989807
 21
31.6481133259
  0
LINE
  8
0
 62
7
  6
CONTINUOUS
 10
533.7907489669
 20
31.5513222666
 11
533.9641864669
 21
31.6481133259
  0
LINE
  8
0
 62
7
  6
CONTINUOUS
 10
536.1032490358
 20
31.7449043851
 11
535.9876239807
 21
31.6803770123
  0
LINE
  8
0
 62
7
  6
CONTINUOUS
 10
535.9876239807
 20
31.5513222666
 11
536.1032490358
 21
31.6158496394
  0
LINE
  8
0
 62
7
  6
CONTINUOUS
 10
535.0048114255
 20
30.9060484591
 11
535.1782489255
 21
31.0028395296
  0
LINE
  8
0
 62
7
  6
CONTINUOUS
 10
534.0219989944
 20
30.8415210777
 11
534.3688739531
 21
30.8092573885
  0
LINE
  8
0
 62
7
  6
CONTINUOUS
 10
538.1266865909
 20
30.8415210777
 11
538.3579363704
 21
30.8092573885
  0
LINE
  8
0
 62
7
  6
CONTINUOUS
 10
536.5079364807
 20
31.7126406987
 11
536.7391865909
 21
31.6803770123
  0
LINE
  8
0
 62
7
  6
CONTINUOUS
 10
538.8204365909
 20
31.7126406987
 11
539.0516867012
 21
31.6803770123
  0
LINE
  8
0
 62
7
  6
CONTINUOUS
 10
543.2719989807
 20
31.3577401029
 11
544.2548117012
 21
31.1964216708
  0
LINE
  8
0
 62
7
  6
CONTINUOUS
 10
544.4282492012
 20
31.29321273
 11
543.4454364807
 21
31.4545312073
  0
LINE
  8
0
 62
7
  6
CONTINUOUS
 10
536.9126240909
 20
31.809431758
 11
536.7391865909
 21
31.8416954444
  0
LINE
  8
0
 62
7
  6
CONTINUOUS
 10
543.2141867012
 20
30.873784767
 11
543.3876242012
 21
30.8415210777
  0
LINE
  8
0
 62
7
  6
CONTINUOUS
 10
542.0579364807
 20
31.809431758
 11
541.8844989807
 21
31.8416954444
  0
LINE
  8
0
 62
7
  6
CONTINUOUS
 10
544.3126239807
 20
31.6803770123
 11
544.4282492012
 21
31.6481133259
  0
LINE
  8
0
 62
7
  6
CONTINUOUS
 10
544.4860614807
 20
31.0673669025
 11
544.4282492012
 21
31.0028395296
  0
LINE
  8
0
 62
7
  6
CONTINUOUS
 10
543.0407492012
 20
31.7449043851
 11
542.9251239807
 21
31.6481133259
  0
LINE
  8
0
 62
7
  6
CONTINUOUS
 10
537.9532490909
 20
31.7771680715
 11
537.8376238704
 21
31.7126406987
  0
LINE
  8
0
 62
7
  6
CONTINUOUS
 10
538.0110613704
 20
31.3900038345
 11
537.8954364807
 21
31.3254764164
  0
LINE
  8
0
 62
7
  6
CONTINUOUS
 10
538.1266865909
 20
31.2286853572
 11
538.2423114807
 21
31.29321273
  0
LINE
  8
0
 62
7
  6
CONTINUOUS
 10
535.6985614255
 20
30.8092573885
 11
535.9876239807
 21
30.8092573885
  0
LINE
  8
0
 62
7
  6
CONTINUOUS
 10
537.0282489807
 20
30.8092573885
 11
537.3173113704
 21
30.8092573885
  0
LINE
  8
0
 62
7
  6
CONTINUOUS
 10
538.3579363704
 20
30.8092573885
 11
538.7048113704
 21
30.8092573885
  0
LINE
  8
0
 62
7
  6
CONTINUOUS
 10
539.3407487601
 20
30.8092573885
 11
539.6298114807
 21
30.8092573885
  0
LINE
  8
0
 62
7
  6
CONTINUOUS
 10
540.0923117012
 20
30.8092573885
 11
540.3813737601
 21
30.8092573885
  0
LINE
  8
0
 62
7
  6
CONTINUOUS
 10
540.8438739807
 20
30.8092573885
 11
541.1329367012
 21
30.8092573885
  0
LINE
  8
0
 62
7
  6
CONTINUOUS
 10
542.1735617012
 20
30.8092573885
 11
542.4626237601
 21
30.8092573885
  0
LINE
  8
0
 62
7
  6
CONTINUOUS
 10
543.7344992012
 20
30.8092573885
 11
544.0813742012
 21
30.8092573885
  0
LINE
  8
0
 62
7
  6
CONTINUOUS
 10
544.0813742012
 20
30.9383121455
 11
543.7344992012
 21
30.9383121455
  0
LINE
  8
0
 62
7
  6
CONTINUOUS
 10
538.7048113704
 20
30.9383121455
 11
538.3579363704
 21
30.9383121455
  0
LINE
  8
0
 62
7
  6
CONTINUOUS
 10
543.2141867012
 20
31.0673669025
 11
542.9251239807
 21
31.0673669025
  0
LINE
  8
0
 62
7
  6
CONTINUOUS
 10
535.2360615358
 20
31.1318942979
 11
534.9469989807
 21
31.1318942979
  0
LINE
  8
0
 62
7
  6
CONTINUOUS
 10
534.3110615082
 20
31.7126406987
 11
534.7157489531
 21
31.6803770123
  0
LINE
  8
0
 62
7
  6
CONTINUOUS
 10
534.7735614807
 20
31.809431758
 11
534.3688739531
 21
31.8416954444
  0
LINE
  8
0
 62
7
  6
CONTINUOUS
 10
543.3876242012
 20
30.8415210777
 11
543.7344992012
 21
30.8092573885
  0
LINE
  8
0
 62
7
  6
CONTINUOUS
 10
543.7344992012
 20
30.9383121455
 11
543.3876242012
 21
30.9705758432
  0
LINE
  8
0
 62
7
  6
CONTINUOUS
 10
539.1673112601
 20
31.809431758
 11
538.8204365909
 21
31.8416954444
  0
LINE
  8
0
 62
7
  6
CONTINUOUS
 10
543.9657489807
 20
31.7126406987
 11
544.3126239807
 21
31.6803770123
  0
LINE
  8
0
 62
7
  6
CONTINUOUS
 10
544.3126239807
 20
31.809431758
 11
543.9657489807
 21
31.8416954444
  0
LINE
  8
0
 62
7
  6
CONTINUOUS
 10
541.6532492012
 20
31.7126406987
 11
541.8844989807
 21
31.6803770123
  0
LINE
  8
0
 62
7
  6
CONTINUOUS
 10
544.4860614807
 20
31.7771680715
 11
544.3126239807
 21
31.809431758
  0
LINE
  8
0
 62
7
  6
CONTINUOUS
 10
544.6594989807
 20
30.9060484591
 11
544.7751235396
 21
31.0028395296
  0
LINE
  8
0
 62
7
  6
CONTINUOUS
 10
539.1673112601
 20
31.0996306115
 11
538.9938737601
 21
31.0028395296
  0
LINE
  8
0
 62
7
  6
CONTINUOUS
 10
541.2485612601
 20
31.7449043851
 11
541.1329367012
 21
31.6803770123
  0
LINE
  8
0
 62
7
  6
CONTINUOUS
 10
541.1329367012
 20
31.5513222666
 11
541.2485612601
 21
31.6158496394
  0
LINE
  8
0
 62
7
  6
CONTINUOUS
 10
533.8485614944
 20
31.7771680715
 11
533.6751239738
 21
31.7126406987
  0
LINE
  8
0
 62
7
  6
CONTINUOUS
 10
536.2766863704
 20
31.809431758
 11
536.1032490358
 21
31.7449043851
  0
LINE
  8
0
 62
7
  6
CONTINUOUS
 10
536.1032490358
 20
31.6158496394
 11
536.2766863704
 21
31.6803770123
  0
LINE
  8
0
 62
7
  6
CONTINUOUS
 10
534.8891865358
 20
31.035103216
 11
534.7157489531
 21
30.9705758432
  0
LINE
  8
0
 62
7
  6
CONTINUOUS
 10
544.3126239807
 20
30.9705758432
 11
544.0813742012
 21
30.9383121455
  0
LINE
  8
0
 62
7
  6
CONTINUOUS
 10
538.7048113704
 20
30.8092573885
 11
538.9938737601
 21
30.8415210777
  0
LINE
  8
0
 62
7
  6
CONTINUOUS
 10
544.0813742012
 20
30.8092573885
 11
544.4282492012
 21
30.8415210777
  0
LINE
  8
0
 62
7
  6
CONTINUOUS
 10
534.3688739531
 20
30.8092573885
 11
534.7735614807
 21
30.8415210777
  0
LINE
  8
0
 62
7
  6
CONTINUOUS
 10
534.7157489531
 20
30.9705758432
 11
534.3110615082
 21
30.9383121455
  0
LINE
  8
0
 62
7
  6
CONTINUOUS
 10
538.5891864807
 20
31.3577401029
 11
539.2251242012
 21
31.3577401029
  0
LINE
  8
0
 62
7
  6
CONTINUOUS
 10
539.2251242012
 20
31.4867948937
 11
538.5891864807
 21
31.4867948937
  0
LINE
  8
0
 62
7
  6
CONTINUOUS
 10
534.9469989807
 20
31.5190585802
 11
535.2360615358
 21
31.5190585802
  0
LINE
  8
0
 62
7
  6
CONTINUOUS
 10
537.7798115909
 20
31.583585953
 11
538.0688739807
 21
31.583585953
  0
LINE
  8
0
 62
7
  6
CONTINUOUS
 10
544.4860614807
 20
31.583585953
 11
544.7751235396
 21
31.583585953
  0
LINE
  8
0
 62
7
  6
CONTINUOUS
 10
538.4735615909
 20
31.7126406987
 11
538.8204365909
 21
31.7126406987
  0
LINE
  8
0
 62
7
  6
CONTINUOUS
 10
543.6188739807
 20
31.7126406987
 11
543.9657489807
 21
31.7126406987
  0
LINE
  8
0
 62
7
  6
CONTINUOUS
 10
543.9657489807
 20
31.8416954444
 11
543.6188739807
 21
31.8416954444
  0
LINE
  8
0
 62
7
  6
CONTINUOUS
 10
541.8844989807
 20
31.8416954444
 11
541.6532492012
 21
31.8416954444
  0
LINE
  8
0
 62
7
  6
CONTINUOUS
 10
541.1329367012
 20
31.8416954444
 11
540.8438739807
 21
31.8416954444
  0
LINE
  8
0
 62
7
  6
CONTINUOUS
 10
540.3813737601
 20
31.8416954444
 11
540.0923117012
 21
31.8416954444
  0
LINE
  8
0
 62
7
  6
CONTINUOUS
 10
538.8204365909
 20
31.8416954444
 11
538.4735615909
 21
31.8416954444
  0
LINE
  8
0
 62
7
  6
CONTINUOUS
 10
536.7391865909
 20
31.8416954444
 11
536.5079364807
 21
31.8416954444
  0
LINE
  8
0
 62
7
  6
CONTINUOUS
 10
540.0923117012
 20
32.164332399
 11
540.3813737601
 21
32.164332399
  0
LINE
  8
0
 62
7
  6
CONTINUOUS
 10
540.3813737601
 20
32.3256508311
 11
540.0923117012
 21
32.3256508311
  0
LINE
  8
0
 62
7
  6
CONTINUOUS
 10
535.9876239807
 20
32.3256508311
 11
535.6985614255
 21
32.3256508311
  0
LINE
  8
0
 62
7
  6
CONTINUOUS
 10
535.025405743
 20
32.612536077
 11
535.4379770916
 21
32.612536077
  0
LINE
  8
0
 62
7
  6
CONTINUOUS
 10
536.6647500053
 20
32.612536077
 11
538.0581926282
 21
32.612536077
  0
LINE
  8
0
 62
7
  6
CONTINUOUS
 10
538.3860614807
 20
32.612536077
 11
539.7795041036
 21
32.612536077
  0
LINE
  8
0
 62
7
  6
CONTINUOUS
 10
541.6647500053
 20
32.612536077
 11
543.0581926282
 21
32.612536077
  0
LINE
  8
0
 62
7
  6
CONTINUOUS
 10
543.3860614807
 20
32.612536077
 11
544.7795041036
 21
32.612536077
  0
LINE
  8
0
 62
7
  6
CONTINUOUS
 10
541.4219987601
 20
31.809431758
 11
541.2485612601
 21
31.7449043851
  0
LINE
  8
0
 62
7
  6
CONTINUOUS
 10
538.9938737601
 20
30.8415210777
 11
539.1673112601
 21
30.9060484591
  0
LINE
  8
0
 62
7
  6
CONTINUOUS
 10
544.4282492012
 20
30.8415210777
 11
544.6594989807
 21
30.9060484591
  0
LINE
  8
0
 62
7
  6
CONTINUOUS
 10
544.4282492012
 20
31.0028395296
 11
544.3126239807
 21
30.9705758432
  0
LINE
  8
0
 62
7
  6
CONTINUOUS
 10
543.3876242012
 20
31.6803770123
 11
543.6188739807
 21
31.7126406987
  0
LINE
  8
0
 62
7
  6
CONTINUOUS
 10
541.4219987601
 20
31.6803770123
 11
541.6532492012
 21
31.7126406987
  0
LINE
  8
0
 62
7
  6
CONTINUOUS
 10
538.3579363704
 20
31.3254764164
 11
538.5891864807
 21
31.3577401029
  0
LINE
  8
0
 62
7
  6
CONTINUOUS
 10
541.6532492012
 20
31.8416954444
 11
541.4219987601
 21
31.809431758
  0
LINE
  8
0
 62
7
  6
CONTINUOUS
 10
538.2423114807
 20
31.6803770123
 11
538.4735615909
 21
31.7126406987
  0
LINE
  8
0
 62
7
  6
CONTINUOUS
 10
543.6188739807
 20
31.8416954444
 11
543.2719989807
 21
31.809431758
  0
LINE
  8
0
 62
7
  6
CONTINUOUS
 10
538.5891864807
 20
31.4867948937
 11
538.2423114807
 21
31.4545312073
  0
LINE
  8
0
 62
7
  6
CONTINUOUS
 10
534.3688739531
 20
31.8416954444
 11
534.0219989944
 21
31.809431758
  0
LINE
  8
0
 62
7
  6
CONTINUOUS
 10
538.4735615909
 20
31.8416954444
 11
538.0688739807
 21
31.809431758
  0
LINE
  8
0
 62
7
  6
CONTINUOUS
 10
535.8450778741
 20
33.7600770606
 11
535.1893401692
 21
33.7600770606
  0
LINE
  8
0
 62
7
  6
CONTINUOUS
 10
541.2485612601
 20
31.6158496394
 11
541.4219987601
 21
31.6803770123
  0
LINE
  8
0
 62
7
  6
CONTINUOUS
 10
543.2719989807
 20
31.6481133259
 11
543.3876242012
 21
31.6803770123
  0
LINE
  8
0
 62
7
  6
CONTINUOUS
 10
543.2719989807
 20
31.809431758
 11
543.0407492012
 21
31.7449043851
  0
LINE
  8
0
 62
7
  6
CONTINUOUS
 10
538.9938737601
 20
31.0028395296
 11
538.7048113704
 21
30.9383121455
  0
LINE
  8
0
 62
7
  6
CONTINUOUS
 10
536.2766863704
 20
31.6803770123
 11
536.5079364807
 21
31.7126406987
  0
LINE
  8
0
 62
7
  6
CONTINUOUS
 10
536.5079364807
 20
31.8416954444
 11
536.2766863704
 21
31.809431758
  0
LINE
  8
0
 62
7
  6
CONTINUOUS
 10
534.0798114807
 20
31.6803770123
 11
534.3110615082
 21
31.7126406987
  0
LINE
  8
0
 62
7
  6
CONTINUOUS
 10
540.5991762348
 20
35.2354868967
 11
541.2549139397
 21
35.2354868967
  0
LINE
  8
0
 62
7
  6
CONTINUOUS
 10
538.2423114807
 20
31.29321273
 11
538.3579363704
 21
31.3254764164
  0
LINE
  8
0
 62
7
  6
CONTINUOUS
 10
538.2423114807
 20
31.4545312073
 11
538.0110613704
 21
31.3900038345
  0
LINE
  8
0
 62
7
  6
CONTINUOUS
 10
538.1266865909
 20
31.6481133259
 11
538.2423114807
 21
31.6803770123
  0
LINE
  8
0
 62
7
  6
CONTINUOUS
 10
534.7735614807
 20
30.8415210777
 11
535.0048114255
 21
30.9060484591
  0
LINE
  8
0
 62
7
  6
CONTINUOUS
 10
538.0688739807
 20
31.809431758
 11
537.9532490909
 21
31.7771680715
  0
LINE
  8
0
 62
7
  6
CONTINUOUS
 10
534.0219989944
 20
31.809431758
 11
533.8485614944
 21
31.7771680715
  0
LINE
  8
0
 62
7
  6
CONTINUOUS
 10
544.7795041036
 20
36.3830278803
 11
543.3860614807
 21
36.3830278803
  0
LINE
  8
0
 62
7
  6
CONTINUOUS
 10
541.4188483659
 20
36.3830278803
 11
541.0062770173
 21
36.3830278803
  0
LINE
  8
0
 62
7
  6
CONTINUOUS
 10
539.7795041036
 20
36.3830278803
 11
538.3860614807
 21
36.3830278803
  0
LINE
  8
0
 62
7
  6
CONTINUOUS
 10
538.0581926282
 20
36.3830278803
 11
536.6647500053
 21
36.3830278803
  0
LINE
  8
0
 62
7
  6
CONTINUOUS
 10
534.7795041036
 20
36.3830278803
 11
533.3860614807
 21
36.3830278803
  0
LINE
  8
0
 62
7
  6
CONTINUOUS
 10
533.9641864669
 20
31.6481133259
 11
534.0798114807
 21
31.6803770123
  0
CIRCLE
  8
0
 62
7
  6
CONTINUOUS
 10
544.0827827921
 20
38.7190934541
 40
2.0901639344
  0
ARC
  8
0
 62
7
  6
CONTINUOUS
 10
535.025405743
 20
34.2518803393
 40
1.6393442623
 50
180.0
 51
270.0
  0
ARC
  8
0
 62
7
  6
CONTINUOUS
 10
541.4188483659
 20
34.743683618
 40
1.6393442623
 50
0.0
 51
90.0
  0
ARC
  8
0
 62
7
  6
CONTINUOUS
 10
535.4379770916
 20
34.0879459131
 40
1.4754098361
 50
270.0
 51
326.2510114041
  0
ARC
  8
0
 62
7
  6
CONTINUOUS
 10
541.0062770173
 20
34.9076180442
 40
1.4754098361
 50
90.0
 51
146.2510114041
  0
ARC
  8
0
 62
7
  6
CONTINUOUS
 10
535.8450778741
 20
34.5797491918
 40
0.8196721311
 50
270.0
 51
360.0
  0
ARC
  8
0
 62
7
  6
CONTINUOUS
 10
540.5991762348
 20
34.4158147655
 40
0.8196721311
 50
90.0
 51
180.0
  0
ARC
  8
0
 62
7
  6
CONTINUOUS
 10
535.1893401692
 20
34.1699131262
 40
0.4098360656
 50
180.0
 51
270.0
  0
ARC
  8
0
 62
7
  6
CONTINUOUS
 10
541.2549139397
 20
34.8256508311
 40
0.4098360656
 50
0.0
 51
90.0
  0
SOLID
  8
0
 62
7
  6
CONTINUOUS
 10
540.0923117012
 20
32.1643327593
 11
540.0923117012
 21
32.3256512429
 12
540.3813737601
 22
32.1643327593
 13
540.3813737601
 23
32.3256512429
  0
SOLID
  8
0
 62
7
  6
CONTINUOUS
 10
534.3688739531
 20
31.841695792
 11
534.7735614807
 21
31.8094316148
 12
534.0219989944
 22
31.8094316148
 13
534.0219989944
 23
31.8094316148
  0
SOLID
  8
0
 62
7
  6
CONTINUOUS
 10
533.8485614944
 20
31.7771687019
 11
534.0219989944
 21
31.8094316148
 12
534.7735614807
 22
31.8094316148
 13
534.7735614807
 23
31.8094316148
  0
SOLID
  8
0
 62
7
  6
CONTINUOUS
 10
534.7735614807
 20
31.8094316148
 11
535.0048114255
 21
31.7449043986
 12
533.8485614944
 22
31.7771687019
 13
533.8485614944
 23
31.7771687019
  0
SOLID
  8
0
 62
7
  6
CONTINUOUS
 10
533.6751239738
 20
31.712640202
 11
533.8485614944
 21
31.7771687019
 12
535.0048114255
 22
31.7449043986
 13
535.0048114255
 23
31.7449043986
  0
SOLID
  8
0
 62
7
  6
CONTINUOUS
 10
533.6751239738
 20
31.712640202
 11
535.0048114255
 21
31.7449043986
 12
534.3110615082
 22
31.712640202
 13
534.3110615082
 23
31.712640202
  0
SOLID
  8
0
 62
7
  6
CONTINUOUS
 10
534.3110615082
 20
31.712640202
 11
535.0048114255
 21
31.7449043986
 12
534.7157489531
 22
31.6803773084
 13
534.7157489531
 23
31.6803773084
  0
SOLID
  8
0
 62
7
  6
CONTINUOUS
 10
535.0048114255
 20
31.7449043986
 11
535.1782489255
 21
31.6481130052
 12
534.7157489531
 22
31.6803773084
 13
534.7157489531
 23
31.6803773084
  0
SOLID
  8
0
 62
7
  6
CONTINUOUS
 10
534.8891865358
 20
31.6158502183
 11
534.7157489531
 21
31.6803773084
 12
535.1782489255
 22
31.6481130052
 13
535.1782489255
 23
31.6481130052
  0
SOLID
  8
0
 62
7
  6
CONTINUOUS
 10
534.8891865358
 20
31.6158502183
 11
535.1782489255
 21
31.6481130052
 12
534.9469989807
 22
31.5190586669
 13
534.9469989807
 23
31.5190586669
  0
SOLID
  8
0
 62
7
  6
CONTINUOUS
 10
535.1782489255
 20
31.6481130052
 11
535.2360615358
 21
31.5190586669
 12
534.9469989807
 22
31.5190586669
 13
534.9469989807
 23
31.5190586669
  0
SOLID
  8
0
 62
7
  6
CONTINUOUS
 10
536.2766863704
 20
31.8094307377
 11
536.5079364807
 21
31.841695041
 12
536.7391865909
 22
31.841695041
 13
536.7391865909
 23
31.841695041
  0
SOLID
  8
0
 62
7
  6
CONTINUOUS
 10
536.7391865909
 20
31.841695041
 11
536.9126240909
 21
31.8094307377
 12
536.2766863704
 22
31.8094307377
 13
536.2766863704
 23
31.8094307377
  0
SOLID
  8
0
 62
7
  6
CONTINUOUS
 10
536.1032490358
 20
31.7449036475
 11
536.2766863704
 21
31.8094307377
 12
536.9126240909
 22
31.8094307377
 13
536.9126240909
 23
31.8094307377
  0
SOLID
  8
0
 62
7
  6
CONTINUOUS
 10
536.9126240909
 20
31.8094307377
 11
537.0860615909
 21
31.7449036475
 12
536.1032490358
 22
31.7449036475
 13
536.1032490358
 23
31.7449036475
  0
SOLID
  8
0
 62
7
  6
CONTINUOUS
 10
537.0860615909
 20
31.7449036475
 11
536.5079364807
 21
31.7126400953
 12
536.1032490358
 22
31.7449036475
 13
536.1032490358
 23
31.7449036475
  0
SOLID
  8
0
 62
7
  6
CONTINUOUS
 10
535.9876239807
 20
31.6803765574
 11
536.1032490358
 21
31.7449036475
 12
536.5079364807
 22
31.7126400953
 13
536.5079364807
 23
31.7126400953
  0
SOLID
  8
0
 62
7
  6
CONTINUOUS
 10
536.5079364807
 20
31.7126400953
 11
536.2766863704
 21
31.6803765574
 12
535.9876239807
 22
31.6803765574
 13
535.9876239807
 23
31.6803765574
  0
SOLID
  8
0
 62
7
  6
CONTINUOUS
 10
536.5079364807
 20
31.7126400953
 11
537.0860615909
 21
31.7449036475
 12
536.7391865909
 22
31.6803765574
 13
536.7391865909
 23
31.6803765574
  0
SOLID
  8
0
 62
7
  6
CONTINUOUS
 10
537.0860615909
 20
31.7449036475
 11
537.2016864807
 21
31.6803765574
 12
536.7391865909
 22
31.6803765574
 13
536.7391865909
 23
31.6803765574
  0
SOLID
  8
0
 62
7
  6
CONTINUOUS
 10
536.8548114807
 20
31.6481130052
 11
536.7391865909
 21
31.6803765574
 12
537.2016864807
 22
31.6803765574
 13
537.2016864807
 23
31.6803765574
  0
SOLID
  8
0
 62
7
  6
CONTINUOUS
 10
537.2016864807
 20
31.6803765574
 11
537.2594990909
 21
31.6158494672
 12
536.8548114807
 22
31.6481130052
 13
536.8548114807
 23
31.6481130052
  0
SOLID
  8
0
 62
7
  6
CONTINUOUS
 10
536.9704363704
 20
31.583585915
 11
536.8548114807
 21
31.6481130052
 12
537.2594990909
 22
31.6158494672
 13
537.2594990909
 23
31.6158494672
  0
SOLID
  8
0
 62
7
  6
CONTINUOUS
 10
536.9704363704
 20
31.583585915
 11
537.2594990909
 21
31.6158494672
 12
537.0282489807
 22
31.4545309836
 13
537.0282489807
 23
31.4545309836
  0
SOLID
  8
0
 62
7
  6
CONTINUOUS
 10
537.2594990909
 20
31.6158494672
 11
537.3173113704
 21
31.4545309836
 12
537.0282489807
 22
31.4545309836
 13
537.0282489807
 23
31.4545309836
  0
SOLID
  8
0
 62
7
  6
CONTINUOUS
 10
536.2766863704
 20
31.6803765574
 11
536.1032490358
 21
31.6158494672
 12
535.9876239807
 22
31.6803765574
 13
535.9876239807
 23
31.6803765574
  0
SOLID
  8
0
 62
7
  6
CONTINUOUS
 10
536.1032490358
 20
31.6158494672
 11
535.9876239807
 21
31.5513216117
 12
535.9876239807
 22
31.6803765574
 13
535.9876239807
 23
31.6803765574
  0
SOLID
  8
0
 62
7
  6
CONTINUOUS
 10
535.9876239807
 20
31.5513216117
 11
535.6985614255
 21
30.8092570492
 12
535.9876239807
 22
31.6803765574
 13
535.9876239807
 23
31.6803765574
  0
SOLID
  8
0
 62
7
  6
CONTINUOUS
 10
535.9876239807
 20
31.6803765574
 11
535.6985614255
 21
30.8092570492
 12
535.9876239807
 22
32.3256504918
 13
535.9876239807
 23
32.3256504918
  0
SOLID
  8
0
 62
7
  6
CONTINUOUS
 10
535.6985614255
 20
30.8092570492
 11
535.6985614255
 21
32.3256504918
 12
535.9876239807
 22
32.3256504918
 13
535.9876239807
 23
32.3256504918
  0
SOLID
  8
0
 62
7
  6
CONTINUOUS
 10
535.9876239807
 20
31.5513216117
 11
535.9876239807
 21
30.8092570492
 12
535.6985614255
 22
30.8092570492
 13
535.6985614255
 23
30.8092570492
  0
SOLID
  8
0
 62
7
  6
CONTINUOUS
 10
537.0282489807
 20
30.8092570492
 11
537.0282489807
 21
31.4545309836
 12
537.3173113704
 22
31.4545309836
 13
537.3173113704
 23
31.4545309836
  0
SOLID
  8
0
 62
7
  6
CONTINUOUS
 10
537.3173113704
 20
31.4545309836
 11
537.3173113704
 21
30.8092570492
 12
537.0282489807
 22
30.8092570492
 13
537.0282489807
 23
30.8092570492
  0
SOLID
  8
0
 62
7
  6
CONTINUOUS
 10
538.0688739807
 20
31.809431823
 11
538.4735615909
 21
31.8416958158
 12
538.8204365909
 22
31.8416958158
 13
538.8204365909
 23
31.8416958158
  0
SOLID
  8
0
 62
7
  6
CONTINUOUS
 10
538.8204365909
 20
31.8416958158
 11
539.1673112601
 21
31.809431823
 12
538.0688739807
 22
31.809431823
 13
538.0688739807
 23
31.809431823
  0
SOLID
  8
0
 62
7
  6
CONTINUOUS
 10
537.9532490909
 20
31.7771687019
 11
538.0688739807
 21
31.809431823
 12
539.1673112601
 22
31.809431823
 13
539.1673112601
 23
31.809431823
  0
SOLID
  8
0
 62
7
  6
CONTINUOUS
 10
539.1673112601
 20
31.809431823
 11
539.3407487601
 21
31.7449043986
 12
537.9532490909
 22
31.7771687019
 13
537.9532490909
 23
31.7771687019
  0
SOLID
  8
0
 62
7
  6
CONTINUOUS
 10
537.8376238704
 20
31.7126398448
 11
537.9532490909
 21
31.7771687019
 12
539.3407487601
 22
31.7449043986
 13
539.3407487601
 23
31.7449043986
  0
SOLID
  8
0
 62
7
  6
CONTINUOUS
 10
537.8376238704
 20
31.7126398448
 11
539.3407487601
 21
31.7449043986
 12
538.4735615909
 22
31.7126398448
 13
538.4735615909
 23
31.7126398448
  0
SOLID
  8
0
 62
7
  6
CONTINUOUS
 10
538.4735615909
 20
31.7126398448
 11
539.3407487601
 21
31.7449043986
 12
538.8204365909
 22
31.7126398448
 13
538.8204365909
 23
31.7126398448
  0
SOLID
  8
0
 62
7
  6
CONTINUOUS
 10
538.8204365909
 20
31.7126398448
 11
539.3407487601
 21
31.7449043986
 12
539.0516867012
 22
31.6803774007
 13
539.0516867012
 23
31.6803774007
  0
SOLID
  8
0
 62
7
  6
CONTINUOUS
 10
539.3407487601
 20
31.7449043986
 11
539.4563739807
 21
31.6803774007
 12
539.0516867012
 22
31.6803774007
 13
539.0516867012
 23
31.6803774007
  0
SOLID
  8
0
 62
7
  6
CONTINUOUS
 10
537.7798115909
 20
31.6481126336
 11
537.8376238704
 21
31.7126398448
 12
538.4735615909
 22
31.7126398448
 13
538.4735615909
 23
31.7126398448
  0
SOLID
  8
0
 62
7
  6
CONTINUOUS
 10
539.1673112601
 20
31.6481126336
 11
539.0516867012
 21
31.6803774007
 12
539.4563739807
 22
31.6803774007
 13
539.4563739807
 23
31.6803774007
  0
SOLID
  8
0
 62
7
  6
CONTINUOUS
 10
539.1673112601
 20
31.6481126336
 11
539.4563739807
 21
31.6803774007
 12
539.2251242012
 22
31.5835861968
 13
539.2251242012
 23
31.5835861968
  0
SOLID
  8
0
 62
7
  6
CONTINUOUS
 10
539.4563739807
 20
31.6803774007
 11
539.5141862601
 21
31.5835861968
 12
539.2251242012
 22
31.5835861968
 13
539.2251242012
 23
31.5835861968
  0
SOLID
  8
0
 62
7
  6
CONTINUOUS
 10
539.2251242012
 20
31.4867945216
 11
539.2251242012
 21
31.5835861968
 12
539.5141862601
 22
31.5835861968
 13
539.5141862601
 23
31.5835861968
  0
SOLID
  8
0
 62
7
  6
CONTINUOUS
 10
539.2251242012
 20
31.4867945216
 11
539.5141862601
 21
31.5835861968
 12
539.2251242012
 22
31.3577403412
 13
539.2251242012
 23
31.3577403412
  0
SOLID
  8
0
 62
7
  6
CONTINUOUS
 10
539.2251242012
 20
31.3577403412
 11
539.5141862601
 21
31.5835861968
 12
539.2251242012
 22
31.1641579843
 13
539.2251242012
 23
31.1641579843
  0
SOLID
  8
0
 62
7
  6
CONTINUOUS
 10
539.5141862601
 20
31.5835861968
 11
539.5141862601
 21
31.0673661609
 12
539.2251242012
 22
31.1641579843
 13
539.2251242012
 23
31.1641579843
  0
SOLID
  8
0
 62
7
  6
CONTINUOUS
 10
541.4219987601
 20
31.8094310465
 11
541.6532492012
 21
31.8416957661
 12
541.8844989807
 22
31.8416957661
 13
541.8844989807
 23
31.8416957661
  0
SOLID
  8
0
 62
7
  6
CONTINUOUS
 10
541.8844989807
 20
31.8416957661
 11
542.0579364807
 21
31.8094310465
 12
541.4219987601
 22
31.8094310465
 13
541.4219987601
 23
31.8094310465
  0
SOLID
  8
0
 62
7
  6
CONTINUOUS
 10
541.2485612601
 20
31.7449047044
 11
541.4219987601
 21
31.8094310465
 12
542.0579364807
 22
31.8094310465
 13
542.0579364807
 23
31.8094310465
  0
SOLID
  8
0
 62
7
  6
CONTINUOUS
 10
542.0579364807
 20
31.8094310465
 11
542.2313739807
 21
31.7449047044
 12
541.2485612601
 22
31.7449047044
 13
541.2485612601
 23
31.7449047044
  0
SOLID
  8
0
 62
7
  6
CONTINUOUS
 10
542.2313739807
 20
31.7449047044
 11
541.6532492012
 21
31.7126400953
 12
541.2485612601
 22
31.7449047044
 13
541.2485612601
 23
31.7449047044
  0
SOLID
  8
0
 62
7
  6
CONTINUOUS
 10
541.1329367012
 20
31.6803773299
 11
541.2485612601
 21
31.7449047044
 12
541.6532492012
 22
31.7126400953
 13
541.6532492012
 23
31.7126400953
  0
SOLID
  8
0
 62
7
  6
CONTINUOUS
 10
541.6532492012
 20
31.7126400953
 11
541.4219987601
 21
31.6803773299
 12
541.1329367012
 22
31.6803773299
 13
541.1329367012
 23
31.6803773299
  0
SOLID
  8
0
 62
7
  6
CONTINUOUS
 10
541.6532492012
 20
31.7126400953
 11
542.2313739807
 21
31.7449047044
 12
541.8844989807
 22
31.6803773299
 13
541.8844989807
 23
31.6803773299
  0
SOLID
  8
0
 62
7
  6
CONTINUOUS
 10
542.2313739807
 20
31.7449047044
 11
542.3469992012
 21
31.6803773299
 12
541.8844989807
 22
31.6803773299
 13
541.8844989807
 23
31.6803773299
  0
SOLID
  8
0
 62
7
  6
CONTINUOUS
 10
542.0001242012
 20
31.6481130052
 11
541.8844989807
 21
31.6803773299
 12
542.3469992012
 22
31.6803773299
 13
542.3469992012
 23
31.6803773299
  0
SOLID
  8
0
 62
7
  6
CONTINUOUS
 10
542.0001242012
 20
31.6481130052
 11
542.3469992012
 21
31.6803773299
 12
542.1157487601
 22
31.5835862682
 13
542.1157487601
 23
31.5835862682
  0
SOLID
  8
0
 62
7
  6
CONTINUOUS
 10
542.3469992012
 20
31.6803773299
 11
542.4048114807
 21
31.5835862682
 12
542.1157487601
 22
31.5835862682
 13
542.1157487601
 23
31.5835862682
  0
SOLID
  8
0
 62
7
  6
CONTINUOUS
 10
542.1735617012
 20
31.422267832
 11
542.1157487601
 21
31.5835862682
 12
542.4048114807
 22
31.5835862682
 13
542.4048114807
 23
31.5835862682
  0
SOLID
  8
0
 62
7
  6
CONTINUOUS
 10
542.4048114807
 20
31.5835862682
 11
542.4626237601
 21
31.422267832
 12
542.1735617012
 22
31.422267832
 13
542.1735617012
 23
31.422267832
  0
SOLID
  8
0
 62
7
  6
CONTINUOUS
 10
541.4219987601
 20
31.6803773299
 11
541.2485612601
 21
31.6158502183
 12
541.1329367012
 22
31.6803773299
 13
541.1329367012
 23
31.6803773299
  0
SOLID
  8
0
 62
7
  6
CONTINUOUS
 10
541.2485612601
 20
31.6158502183
 11
541.1329367012
 21
31.5513216117
 12
541.1329367012
 22
31.6803773299
 13
541.1329367012
 23
31.6803773299
  0
SOLID
  8
0
 62
7
  6
CONTINUOUS
 10
541.1329367012
 20
31.5513216117
 11
540.8438739807
 21
30.8092577743
 12
541.1329367012
 22
31.6803773299
 13
541.1329367012
 23
31.6803773299
  0
SOLID
  8
0
 62
7
  6
CONTINUOUS
 10
541.1329367012
 20
31.6803773299
 11
540.8438739807
 21
30.8092577743
 12
541.1329367012
 22
31.8416957661
 13
541.1329367012
 23
31.8416957661
  0
SOLID
  8
0
 62
7
  6
CONTINUOUS
 10
540.8438739807
 20
30.8092577743
 11
540.8438739807
 21
31.8416957661
 12
541.1329367012
 22
31.8416957661
 13
541.1329367012
 23
31.8416957661
  0
SOLID
  8
0
 62
7
  6
CONTINUOUS
 10
541.1329367012
 20
31.5513216117
 11
541.1329367012
 21
30.8092577743
 12
540.8438739807
 22
30.8092577743
 13
540.8438739807
 23
30.8092577743
  0
SOLID
  8
0
 62
7
  6
CONTINUOUS
 10
542.1735617012
 20
30.8092577743
 11
542.1735617012
 21
31.422267832
 12
542.4626237601
 22
31.422267832
 13
542.4626237601
 23
31.422267832
  0
SOLID
  8
0
 62
7
  6
CONTINUOUS
 10
542.4626237601
 20
31.422267832
 11
542.4626237601
 21
30.8092577743
 12
542.1735617012
 22
30.8092577743
 13
542.1735617012
 23
30.8092577743
  0
SOLID
  8
0
 62
7
  6
CONTINUOUS
 10
543.2719989807
 20
31.8094314924
 11
543.6188739807
 21
31.8416958387
 12
543.9657489807
 22
31.8416958387
 13
543.9657489807
 23
31.8416958387
  0
SOLID
  8
0
 62
7
  6
CONTINUOUS
 10
543.9657489807
 20
31.8416958387
 11
544.3126239807
 21
31.8094314924
 12
543.2719989807
 22
31.8094314924
 13
543.2719989807
 23
31.8094314924
  0
SOLID
  8
0
 62
7
  6
CONTINUOUS
 10
543.0407492012
 20
31.7449043986
 11
543.2719989807
 21
31.8094314924
 12
544.3126239807
 22
31.8094314924
 13
544.3126239807
 23
31.8094314924
  0
SOLID
  8
0
 62
7
  6
CONTINUOUS
 10
543.0407492012
 20
31.7449043986
 11
544.3126239807
 21
31.8094314888
 12
544.4860614807
 22
31.7771687019
 13
544.4860614807
 23
31.7771687019
  0
SOLID
  8
0
 62
7
  6
CONTINUOUS
 10
543.0407492012
 20
31.7449043986
 11
544.4860614807
 21
31.7771687019
 12
543.6188739807
 22
31.7126401399
 13
543.6188739807
 23
31.7126401399
  0
SOLID
  8
0
 62
7
  6
CONTINUOUS
 10
543.6188739807
 20
31.7126401399
 11
544.4860614807
 21
31.7771687019
 12
543.9657489807
 22
31.7126401399
 13
543.9657489807
 23
31.7126401399
  0
SOLID
  8
0
 62
7
  6
CONTINUOUS
 10
544.4860614807
 20
31.7771687019
 11
544.6594989807
 21
31.7126401399
 12
543.9657489807
 22
31.7126401399
 13
543.9657489807
 23
31.7126401399
  0
SOLID
  8
0
 62
7
  6
CONTINUOUS
 10
544.3126239807
 20
31.6803773084
 11
543.9657489807
 21
31.7126401399
 12
544.6594989807
 22
31.7126401399
 13
544.6594989807
 23
31.7126401399
  0
SOLID
  8
0
 62
7
  6
CONTINUOUS
 10
542.9251239807
 20
31.6481128977
 11
543.0407492012
 21
31.7449043986
 12
543.6188739807
 22
31.7126401399
 13
543.6188739807
 23
31.7126401399
  0
SOLID
  8
0
 62
7
  6
CONTINUOUS
 10
544.3126239807
 20
31.6803773084
 11
544.6594989807
 21
31.7126401399
 12
544.4282492012
 22
31.6481128977
 13
544.4282492012
 23
31.6481128977
  0
SOLID
  8
0
 62
7
  6
CONTINUOUS
 10
544.4282492012
 20
31.6481128977
 11
544.6594989807
 21
31.7126401399
 12
544.4860614807
 22
31.5835858812
 13
544.4860614807
 23
31.5835858812
  0
SOLID
  8
0
 62
7
  6
CONTINUOUS
 10
544.6594989807
 20
31.7126401399
 11
544.7751235396
 21
31.5835858812
 12
544.4860614807
 22
31.5835858812
 13
544.4860614807
 23
31.5835858812
  0
SOLID
  8
0
 62
7
  6
CONTINUOUS
 10
534.0798114807
 20
31.6803773084
 11
533.5594989807
 21
31.6481129264
 12
534.3110615082
 22
31.7126401456
 13
534.3110615082
 23
31.7126401456
  0
SOLID
  8
0
 62
7
  6
CONTINUOUS
 10
533.5594989807
 20
31.6481129264
 11
533.6751239738
 21
31.7126401456
 12
534.3110615082
 22
31.7126401456
 13
534.3110615082
 23
31.7126401456
  0
SOLID
  8
0
 62
7
  6
CONTINUOUS
 10
534.0798114807
 20
31.6803773084
 11
533.9641864669
 21
31.6481129264
 12
533.5594989807
 22
31.6481129264
 13
533.5594989807
 23
31.6481129264
  0
SOLID
  8
0
 62
7
  6
CONTINUOUS
 10
533.4438739824
 20
31.5190588248
 11
533.5594989807
 21
31.6481129264
 12
533.9641864669
 22
31.6481129264
 13
533.9641864669
 23
31.6481129264
  0
SOLID
  8
0
 62
7
  6
CONTINUOUS
 10
537.7798115909
 20
31.6481130555
 11
538.4735615909
 21
31.7126400953
 12
538.2423114807
 22
31.6803773084
 13
538.2423114807
 23
31.6803773084
  0
SOLID
  8
0
 62
7
  6
CONTINUOUS
 10
538.2423114807
 20
31.6803773084
 11
538.1266865909
 21
31.6481130555
 12
537.7798115909
 22
31.6481130555
 13
537.7798115909
 23
31.6481130555
  0
SOLID
  8
0
 62
7
  6
CONTINUOUS
 10
537.7798115909
 20
31.5835859653
 11
537.7798115909
 21
31.6481130555
 12
538.1266865909
 22
31.6481130555
 13
538.1266865909
 23
31.6481130555
  0
SOLID
  8
0
 62
7
  6
CONTINUOUS
 10
538.1266865909
 20
31.6481130555
 11
538.0688739807
 21
31.5835859653
 12
537.7798115909
 22
31.5835859653
 13
537.7798115909
 23
31.5835859653
  0
SOLID
  8
0
 62
7
  6
CONTINUOUS
 10
542.9251239807
 20
31.6481130555
 11
543.6188739807
 21
31.7126400953
 12
543.3876242012
 22
31.6803773084
 13
543.3876242012
 23
31.6803773084
  0
SOLID
  8
0
 62
7
  6
CONTINUOUS
 10
543.3876242012
 20
31.6803773084
 11
543.2719989807
 21
31.6481130555
 12
542.9251239807
 22
31.6481130555
 13
542.9251239807
 23
31.6481130555
  0
SOLID
  8
0
 62
7
  6
CONTINUOUS
 10
542.9251239807
 20
31.5835859653
 11
542.9251239807
 21
31.6481130555
 12
543.2719989807
 22
31.6481130555
 13
543.2719989807
 23
31.6481130555
  0
SOLID
  8
0
 62
7
  6
CONTINUOUS
 10
543.2719989807
 20
31.6481130555
 11
543.2141867012
 21
31.5835859653
 12
542.9251239807
 22
31.5835859653
 13
542.9251239807
 23
31.5835859653
  0
SOLID
  8
0
 62
7
  6
CONTINUOUS
 10
543.0407492012
 20
31.4545317347
 11
542.9251239807
 21
31.5835859653
 12
543.2141867012
 22
31.5835859653
 13
543.2141867012
 23
31.5835859653
  0
SOLID
  8
0
 62
7
  6
CONTINUOUS
 10
533.4438739824
 20
31.5190588248
 11
533.9641864669
 21
31.6481130052
 12
533.7907489669
 22
31.5513216117
 13
533.7907489669
 23
31.5513216117
  0
SOLID
  8
0
 62
7
  6
CONTINUOUS
 10
533.7907489669
 20
31.5513216117
 11
533.7329364807
 21
31.4867945216
 12
533.4438739824
 22
31.5190588248
 13
533.4438739824
 23
31.5190588248
  0
SOLID
  8
0
 62
7
  6
CONTINUOUS
 10
533.3860614807
 20
31.325476038
 11
533.4438739824
 21
31.5190588248
 12
533.7329364807
 22
31.4867945216
 13
533.7329364807
 23
31.4867945216
  0
SOLID
  8
0
 62
7
  6
CONTINUOUS
 10
538.2423114807
 20
31.4545317347
 11
538.5891864807
 21
31.4867945557
 12
539.2251242012
 22
31.4867945557
 13
539.2251242012
 23
31.4867945557
  0
SOLID
  8
0
 62
7
  6
CONTINUOUS
 10
538.2423114807
 20
31.4545317347
 11
539.2251242012
 21
31.4867945557
 12
538.0110613704
 22
31.3900038345
 13
538.0110613704
 23
31.3900038345
  0
SOLID
  8
0
 62
7
  6
CONTINUOUS
 10
538.0110613704
 20
31.3900038345
 11
539.2251242012
 21
31.4867945557
 12
538.5891864807
 22
31.3577403754
 13
538.5891864807
 23
31.3577403754
  0
SOLID
  8
0
 62
7
  6
CONTINUOUS
 10
539.2251242012
 20
31.4867945557
 11
539.2251242012
 21
31.3577403754
 12
538.5891864807
 22
31.3577403754
 13
538.5891864807
 23
31.3577403754
  0
SOLID
  8
0
 62
7
  6
CONTINUOUS
 10
543.0407492012
 20
31.4545313481
 11
543.2141867012
 21
31.583585915
 12
543.2719989807
 22
31.5190588248
 13
543.2719989807
 23
31.5190588248
  0
SOLID
  8
0
 62
7
  6
CONTINUOUS
 10
543.2719989807
 20
31.5190588248
 11
543.4454364807
 21
31.4545313481
 12
543.0407492012
 22
31.4545313481
 13
543.0407492012
 23
31.4545313481
  0
SOLID
  8
0
 62
7
  6
CONTINUOUS
 10
543.2719989807
 20
31.3577403412
 11
543.0407492012
 21
31.4545313481
 12
543.4454364807
 22
31.4545313481
 13
543.4454364807
 23
31.4545313481
  0
SOLID
  8
0
 62
7
  6
CONTINUOUS
 10
543.4454364807
 20
31.4545313481
 11
544.4282492012
 21
31.2932132511
 12
543.2719989807
 22
31.3577403412
 13
543.2719989807
 23
31.3577403412
  0
SOLID
  8
0
 62
7
  6
CONTINUOUS
 10
544.2548117012
 20
31.1964222346
 11
543.2719989807
 21
31.3577403412
 12
544.4282492012
 22
31.2932132511
 13
544.4282492012
 23
31.2932132511
  0
SOLID
  8
0
 62
7
  6
CONTINUOUS
 10
544.4282492012
 20
31.2932132511
 11
544.6594989807
 21
31.1964222346
 12
544.2548117012
 22
31.1964222346
 13
544.2548117012
 23
31.1964222346
  0
SOLID
  8
0
 62
7
  6
CONTINUOUS
 10
544.4282492012
 20
31.1318947675
 11
544.2548117012
 21
31.1964222346
 12
544.6594989807
 22
31.1964222346
 13
544.6594989807
 23
31.1964222346
  0
SOLID
  8
0
 62
7
  6
CONTINUOUS
 10
544.4282492012
 20
31.1318947675
 11
544.6594989807
 21
31.1964222346
 12
544.4860614807
 22
31.0673665164
 13
544.4860614807
 23
31.0673665164
  0
SOLID
  8
0
 62
7
  6
CONTINUOUS
 10
544.6594989807
 20
31.1964222346
 11
544.7751235396
 21
31.0673665164
 12
544.4860614807
 22
31.0673665164
 13
544.4860614807
 23
31.0673665164
  0
SOLID
  8
0
 62
7
  6
CONTINUOUS
 10
544.4282492012
 20
31.0028394316
 11
544.4860614807
 21
31.0673665164
 12
544.7751235396
 22
31.0673665164
 13
544.7751235396
 23
31.0673665164
  0
SOLID
  8
0
 62
7
  6
CONTINUOUS
 10
544.7751235396
 20
31.0673665164
 11
544.7751235396
 21
31.0028394316
 12
544.4282492012
 22
31.0028394316
 13
544.4282492012
 23
31.0028394316
  0
SOLID
  8
0
 62
7
  6
CONTINUOUS
 10
544.3126239807
 20
30.9705762839
 11
544.4282492012
 21
31.0028394316
 12
544.7751235396
 22
31.0028394316
 13
544.7751235396
 23
31.0028394316
  0
SOLID
  8
0
 62
7
  6
CONTINUOUS
 10
544.3126239807
 20
30.9705762839
 11
544.7751235396
 21
31.0028394316
 12
544.0813742012
 22
30.9383123468
 13
544.0813742012
 23
30.9383123468
  0
SOLID
  8
0
 62
7
  6
CONTINUOUS
 10
544.7751235396
 20
31.0028394316
 11
544.6594989807
 21
30.9060491937
 12
544.0813742012
 22
30.9383123468
 13
544.0813742012
 23
30.9383123468
  0
SOLID
  8
0
 62
7
  6
CONTINUOUS
 10
544.6594989807
 20
30.9060491937
 11
543.2141867012
 21
30.8737848904
 12
544.0813742012
 22
30.9383123468
 13
544.0813742012
 23
30.9383123468
  0
SOLID
  8
0
 62
7
  6
CONTINUOUS
 10
544.0813742012
 20
30.9383123468
 11
543.2141867012
 21
30.8737848904
 12
543.7344992012
 22
30.9383123468
 13
543.7344992012
 23
30.9383123468
  0
SOLID
  8
0
 62
7
  6
CONTINUOUS
 10
543.2141867012
 20
30.8737848904
 11
543.0407492012
 21
30.9383123468
 12
543.7344992012
 22
30.9383123468
 13
543.7344992012
 23
30.9383123468
  0
SOLID
  8
0
 62
7
  6
CONTINUOUS
 10
543.2141867012
 20
30.8737848904
 11
544.6594989807
 21
30.9060491937
 12
543.3876242012
 22
30.8415205581
 13
543.3876242012
 23
30.8415205581
  0
SOLID
  8
0
 62
7
  6
CONTINUOUS
 10
544.6594989807
 20
30.9060491937
 11
544.4282492012
 21
30.8415205581
 12
543.3876242012
 22
30.8415205581
 13
543.3876242012
 23
30.8415205581
  0
SOLID
  8
0
 62
7
  6
CONTINUOUS
 10
543.7344992012
 20
30.8092581772
 11
543.3876242012
 21
30.8415205581
 12
544.4282492012
 22
30.8415205581
 13
544.4282492012
 23
30.8415205581
  0
SOLID
  8
0
 62
7
  6
CONTINUOUS
 10
544.4282492012
 20
30.8415205581
 11
544.0813742012
 21
30.8092581772
 12
543.7344992012
 22
30.8092581772
 13
543.7344992012
 23
30.8092581772
  0
SOLID
  8
0
 62
7
  6
CONTINUOUS
 10
533.3860614807
 20
31.325476038
 11
533.7329364807
 21
31.4867945216
 12
533.6751239738
 22
31.3577403412
 13
533.6751239738
 23
31.3577403412
  0
SOLID
  8
0
 62
7
  6
CONTINUOUS
 10
533.6751239738
 20
31.3577403412
 11
533.6751239738
 21
31.2609490436
 12
533.3860614807
 22
31.325476038
 13
533.3860614807
 23
31.325476038
  0
SOLID
  8
0
 62
7
  6
CONTINUOUS
 10
533.4438739824
 20
31.1318947675
 11
533.3860614807
 21
31.325476038
 12
533.6751239738
 22
31.2609490436
 13
533.6751239738
 23
31.2609490436
  0
SOLID
  8
0
 62
7
  6
CONTINUOUS
 10
533.6751239738
 20
31.2609490436
 11
533.7907489669
 21
31.0996304642
 12
533.4438739824
 22
31.1318947675
 13
533.4438739824
 23
31.1318947675
  0
SOLID
  8
0
 62
7
  6
CONTINUOUS
 10
533.5594989807
 20
31.0028388804
 11
533.4438739824
 21
31.1318947675
 12
533.7907489669
 22
31.0996304642
 13
533.7907489669
 23
31.0996304642
  0
SOLID
  8
0
 62
7
  6
CONTINUOUS
 10
533.7907489669
 20
31.0996304642
 11
533.9641864669
 21
31.0028388804
 12
533.5594989807
 22
31.0028388804
 13
533.5594989807
 23
31.0028388804
  0
SOLID
  8
0
 62
7
  6
CONTINUOUS
 10
533.6751239738
 20
30.9383122606
 11
533.5594989807
 21
31.0028388804
 12
533.9641864669
 22
31.0028388804
 13
533.9641864669
 23
31.0028388804
  0
SOLID
  8
0
 62
7
  6
CONTINUOUS
 10
533.9641864669
 20
31.0028388804
 11
534.3110615082
 21
30.9383122606
 12
533.6751239738
 22
30.9383122606
 13
533.6751239738
 23
30.9383122606
  0
SOLID
  8
0
 62
7
  6
CONTINUOUS
 10
533.8485614944
 20
30.8737848904
 11
533.6751239738
 21
30.9383122606
 12
534.3110615082
 22
30.9383122606
 13
534.3110615082
 23
30.9383122606
  0
SOLID
  8
0
 62
7
  6
CONTINUOUS
 10
537.8954364807
 20
31.3254759532
 11
538.0110613704
 21
31.3900038345
 12
538.5891864807
 22
31.3577403412
 13
538.5891864807
 23
31.3577403412
  0
SOLID
  8
0
 62
7
  6
CONTINUOUS
 10
538.5891864807
 20
31.3577403412
 11
538.3579363704
 21
31.3254759532
 12
537.8954364807
 22
31.3254759532
 13
537.8954364807
 23
31.3254759532
  0
SOLID
  8
0
 62
7
  6
CONTINUOUS
 10
537.7798115909
 20
31.1964218576
 11
537.8954364807
 21
31.3254759532
 12
538.3579363704
 22
31.3254759532
 13
538.3579363704
 23
31.3254759532
  0
SOLID
  8
0
 62
7
  6
CONTINUOUS
 10
538.1266865909
 20
31.2286853572
 11
537.7798115909
 21
31.1964218576
 12
538.2423114807
 22
31.2932132511
 13
538.2423114807
 23
31.2932132511
  0
SOLID
  8
0
 62
7
  6
CONTINUOUS
 10
537.7798115909
 20
31.1964218576
 11
538.3579363704
 21
31.325476038
 12
538.2423114807
 22
31.2932132511
 13
538.2423114807
 23
31.2932132511
  0
SOLID
  8
0
 62
7
  6
CONTINUOUS
 10
538.1266865909
 20
31.2286853572
 11
538.0688739807
 21
31.1318947675
 12
537.7798115909
 22
31.1964218576
 13
537.7798115909
 23
31.1964218576
  0
SOLID
  8
0
 62
7
  6
CONTINUOUS
 10
537.7798115909
 20
31.0996304642
 11
537.7798115909
 21
31.1964218576
 12
538.0688739807
 22
31.1318947675
 13
538.0688739807
 23
31.1318947675
  0
SOLID
  8
0
 62
7
  6
CONTINUOUS
 10
538.0688739807
 20
31.1318947675
 11
538.0688739807
 21
31.0673661609
 12
537.7798115909
 22
31.0996304642
 13
537.7798115909
 23
31.0996304642
  0
SOLID
  8
0
 62
7
  6
CONTINUOUS
 10
537.8376238704
 20
30.9705762839
 11
537.7798115909
 21
31.0996304642
 12
538.0688739807
 22
31.0673661609
 13
538.0688739807
 23
31.0673661609
  0
SOLID
  8
0
 62
7
  6
CONTINUOUS
 10
539.2251242012
 20
31.1641579843
 11
539.5141862601
 21
31.0673661609
 12
539.1673112601
 22
31.0996304642
 13
539.1673112601
 23
31.0996304642
  0
SOLID
  8
0
 62
7
  6
CONTINUOUS
 10
538.9938737601
 20
31.0028390707
 11
539.1673112601
 21
31.0996304642
 12
539.5141862601
 22
31.0673661609
 13
539.5141862601
 23
31.0673661609
  0
SOLID
  8
0
 62
7
  6
CONTINUOUS
 10
538.9938737601
 20
31.0028390707
 11
539.5141862601
 21
31.0673661609
 12
539.2251242012
 22
30.9705762839
 13
539.2251242012
 23
30.9705762839
  0
SOLID
  8
0
 62
7
  6
CONTINUOUS
 10
539.5141862601
 20
31.0673661609
 11
539.5719992012
 21
30.9060491937
 12
539.2251242012
 22
30.9705762839
 13
539.2251242012
 23
30.9705762839
  0
SOLID
  8
0
 62
7
  6
CONTINUOUS
 10
539.2829364807
 20
30.8737848904
 11
539.2251242012
 21
30.9705762839
 12
539.5719992012
 22
30.9060491937
 13
539.5719992012
 23
30.9060491937
  0
SOLID
  8
0
 62
7
  6
CONTINUOUS
 10
539.2829364807
 20
30.8737848904
 11
539.5719992012
 21
30.9060491937
 12
539.3407487601
 22
30.8092576254
 13
539.3407487601
 23
30.8092576254
  0
SOLID
  8
0
 62
7
  6
CONTINUOUS
 10
539.5719992012
 20
30.9060491937
 11
539.6298114807
 21
30.8092576254
 12
539.3407487601
 22
30.8092576254
 13
539.3407487601
 23
30.8092576254
  0
SOLID
  8
0
 62
7
  6
CONTINUOUS
 10
534.8891865358
 20
31.035103216
 11
534.9469989807
 21
31.1318946289
 12
535.2360615358
 22
31.1318946289
 13
535.2360615358
 23
31.1318946289
  0
SOLID
  8
0
 62
7
  6
CONTINUOUS
 10
535.2360615358
 20
31.1318946289
 11
535.1782489255
 21
31.0028390707
 12
534.8891865358
 22
31.035103216
 13
534.8891865358
 23
31.035103216
  0
SOLID
  8
0
 62
7
  6
CONTINUOUS
 10
534.7157489531
 20
30.9705762839
 11
534.8891865358
 21
31.035103216
 12
535.1782489255
 22
31.0028390707
 13
535.1782489255
 23
31.0028390707
  0
SOLID
  8
0
 62
7
  6
CONTINUOUS
 10
534.7157489531
 20
30.9705762839
 11
535.1782489255
 21
31.0028390707
 12
534.3110615082
 22
30.9383119806
 13
534.3110615082
 23
30.9383119806
  0
SOLID
  8
0
 62
7
  6
CONTINUOUS
 10
535.1782489255
 20
31.0028390707
 11
535.0048114255
 21
30.9060491937
 12
534.3110615082
 22
30.9383119806
 13
534.3110615082
 23
30.9383119806
  0
SOLID
  8
0
 62
7
  6
CONTINUOUS
 10
533.8485614944
 20
30.8737848904
 11
534.3110615082
 21
30.9383119806
 12
535.0048114255
 22
30.9060491937
 13
535.0048114255
 23
30.9060491937
  0
SOLID
  8
0
 62
7
  6
CONTINUOUS
 10
533.8485614944
 20
30.8737848904
 11
535.0048114255
 21
30.9060491937
 12
534.0219989944
 22
30.8415207131
 13
534.0219989944
 23
30.8415207131
  0
SOLID
  8
0
 62
7
  6
CONTINUOUS
 10
535.0048114255
 20
30.9060491937
 11
534.7735614807
 21
30.8415207131
 12
534.0219989944
 22
30.8415207131
 13
534.0219989944
 23
30.8415207131
  0
SOLID
  8
0
 62
7
  6
CONTINUOUS
 10
534.3688739531
 20
30.8092578002
 11
534.0219989944
 21
30.8415207131
 12
534.7735614807
 22
30.8415207131
 13
534.7735614807
 23
30.8415207131
  0
SOLID
  8
0
 62
7
  6
CONTINUOUS
 10
537.8376238704
 20
30.9705762839
 11
538.0688739807
 21
31.0673661609
 12
538.1266865909
 22
31.0028390707
 13
538.1266865909
 23
31.0028390707
  0
SOLID
  8
0
 62
7
  6
CONTINUOUS
 10
538.1266865909
 20
31.0028390707
 11
538.3579363704
 21
30.9383119806
 12
537.8376238704
 22
30.9705762839
 13
537.8376238704
 23
30.9705762839
  0
SOLID
  8
0
 62
7
  6
CONTINUOUS
 10
538.0110613704
 20
30.8737848904
 11
537.8376238704
 21
30.9705762839
 12
538.3579363704
 22
30.9383119806
 13
538.3579363704
 23
30.9383119806
  0
SOLID
  8
0
 62
7
  6
CONTINUOUS
 10
538.7048113704
 20
30.9383119664
 11
538.9938737601
 21
31.0028390707
 12
539.2251242012
 22
30.9705762839
 13
539.2251242012
 23
30.9705762839
  0
SOLID
  8
0
 62
7
  6
CONTINUOUS
 10
539.2251242012
 20
30.9705762839
 11
539.1673112601
 21
30.9060491937
 12
538.7048113704
 22
30.9383119664
 13
538.7048113704
 23
30.9383119664
  0
SOLID
  8
0
 62
7
  6
CONTINUOUS
 10
539.1673112601
 20
30.9060491937
 11
538.0110613704
 21
30.8737848904
 12
538.7048113704
 22
30.9383119664
 13
538.7048113704
 23
30.9383119664
  0
SOLID
  8
0
 62
7
  6
CONTINUOUS
 10
538.0110613704
 20
30.8737848904
 11
538.3579363704
 21
30.9383119664
 12
538.7048113704
 22
30.9383119664
 13
538.7048113704
 23
30.9383119664
  0
SOLID
  8
0
 62
7
  6
CONTINUOUS
 10
538.0110613704
 20
30.8737848904
 11
539.1673112601
 21
30.9060491937
 12
538.1266865909
 22
30.8415205568
 13
538.1266865909
 23
30.8415205568
  0
SOLID
  8
0
 62
7
  6
CONTINUOUS
 10
539.1673112601
 20
30.9060491937
 11
538.9938737601
 21
30.8415205568
 12
538.1266865909
 22
30.8415205568
 13
538.1266865909
 23
30.8415205568
  0
SOLID
  8
0
 62
7
  6
CONTINUOUS
 10
538.3579363704
 20
30.8092577215
 11
538.1266865909
 21
30.8415205568
 12
538.9938737601
 22
30.8415205568
 13
538.9938737601
 23
30.8415205568
  0
SOLID
  8
0
 62
7
  6
CONTINUOUS
 10
538.9938737601
 20
30.8415205568
 11
538.7048113704
 21
30.8092577215
 12
538.3579363704
 22
30.8092577215
 13
538.3579363704
 23
30.8092577215
  0
SOLID
  8
0
 62
7
  6
CONTINUOUS
 10
543.3876242012
 20
30.9705762839
 11
543.0407492012
 21
30.9383119664
 12
543.2719989807
 22
31.0028390707
 13
543.2719989807
 23
31.0028390707
  0
SOLID
  8
0
 62
7
  6
CONTINUOUS
 10
543.2719989807
 20
31.0028390707
 11
543.0407492012
 21
30.9383119664
 12
543.2141867012
 22
31.0673661467
 13
543.2141867012
 23
31.0673661467
  0
SOLID
  8
0
 62
7
  6
CONTINUOUS
 10
543.0407492012
 20
30.9383119664
 11
542.9251239807
 21
31.0673661467
 12
543.2141867012
 22
31.0673661467
 13
543.2141867012
 23
31.0673661467
  0
SOLID
  8
0
 62
7
  6
CONTINUOUS
 10
543.3876242012
 20
30.9705762839
 11
543.7344992012
 21
30.9383119664
 12
543.0407492012
 22
30.9383119664
 13
543.0407492012
 23
30.9383119664
  0
SOLID
  8
0
 62
7
  6
CONTINUOUS
 10
540.0923117012
 20
30.8092578002
 11
540.0923117012
 21
31.841695792
 12
540.3813737601
 22
30.8092578002
 13
540.3813737601
 23
31.841695792
  0
ENDBLK
  8
0
  6
BYBLOCK
 62
0
  0
BLOCK
  8
0
 62
2
  6
CONTINUOUS
  2
AMMEAAL_LOGO_BL0
 70
64
 10
416.1419631151
 20
19.7009994242
  0
TEXT
  8
0
 62
7
  6
CONTINUOUS
 10
402.4066669574
 20
19.0744135318
  7
TEXTSTYLE_3
 40
2.7338706658
  1
Ammeraal Beltech
 41
1.0
 51
15.0
 72
0
  0
TEXT
  8
0
 62
7
  6
CONTINUOUS
 10
413.2074677831
 20
16.800876859
  7
TEXTSTYLE_4
 40
1.0935482663
  1
Innovation & Service in Belting
 41
1.0
 72
0
  0
LINE
  8
0
 62
7
  6
CONTINUOUS
 10
396.382126306
 20
19.8410068404
 11
397.1602782994
 21
23.5019241381
  0
LINE
  8
0
 62
7
  6
CONTINUOUS
 10
407.2554465892
 20
27.1653180497
 11
397.6480960424
 21
24.0437006284
  0
LINE
  8
0
 62
7
  6
CONTINUOUS
 10
396.6074096383
 20
19.1476560374
 11
404.1144848995
 21
12.3882551114
  0
LINE
  8
0
 62
7
  6
CONTINUOUS
 10
396.869944049
 20
20.3827833308
 11
407.6782134142
 21
23.8946029297
  0
LINE
  8
0
 62
7
  6
CONTINUOUS
 10
407.674008277
 20
13.544814366
 11
399.2285486083
 21
21.1491404077
  0
LINE
  8
0
 62
7
  6
CONTINUOUS
 10
408.1938309968
 20
26.320392934
 11
407.2172714596
 21
21.7260415315
  0
LINE
  8
0
 62
7
  6
CONTINUOUS
 10
406.5174695119
 20
18.4337322177
 11
405.8310213004
 21
15.2042472933
  0
LINE
  8
0
 62
7
  6
CONTINUOUS
 10
408.8749270954
 20
13.9350165436
 11
409.831158631
 21
18.4337322177
  0
LINE
  8
0
 62
7
  6
CONTINUOUS
 10
410.5309605787
 20
21.7260415315
 11
410.9752023811
 21
23.8160348909
  0
LINE
  8
0
 62
7
  6
CONTINUOUS
 10
404.8275859748
 20
12.2366807987
 11
408.3871093524
 21
13.3932400533
  0
LINE
  8
0
 62
7
  6
CONTINUOUS
 10
407.9685476645
 20
27.013743737
 11
410.7499190488
 21
24.5093856939
  0
ARC
  8
0
 62
7
  6
CONTINUOUS
 10
397.8733793747
 20
23.3503498254
 40
0.7290321776
 50
108.0
 51
168.0
  0
ARC
  8
0
 62
7
  6
CONTINUOUS
 10
407.4807299215
 20
26.4719672466
 40
0.7290321776
 50
348.0
 51
108.0
  0
ARC
  8
0
 62
7
  6
CONTINUOUS
 10
410.2621013058
 20
23.9676092036
 40
0.7290321776
 50
348.0
 51
48.0
  0
ARC
  8
0
 62
7
  6
CONTINUOUS
 10
404.6023026425
 20
12.9300316018
 40
0.7290321776
 50
228.0
 51
288.0
  0
ARC
  8
0
 62
7
  6
CONTINUOUS
 10
397.0952273813
 20
19.6894325277
 40
0.7290321776
 50
108.0
 51
228.0
  0
ARC
  8
0
 62
7
  6
CONTINUOUS
 10
408.1618260201
 20
14.0865908563
 40
0.7290321776
 50
228.0
 51
348.0
  0
ENDBLK
  8
0
  6
BYBLOCK
 62
0
  0
ENDSEC
  0
SECTION
  2
ENTITIES
  0
TEXT
  8
0
 62
5
  6
CONTINUOUS
 10
480.0
 20
25.636
  7
TEXTSTYLE_2
 40
2.8
  1
Scale :
 41
0.6
 51
0.000019
 72
0
  0
TEXT
  8
0
 62
5
  6
CONTINUOUS
 10
500.0
 20
25.636
  7
TEXTSTYLE_2
 40
2.8
  1
Belt type:
 41
0.6
 51
0.000019
 72
0
  0
INSERT
  8
0
 62
2
  6
CONTINUOUS
  2
AMMEAAL_LOGO_BL0
 10
416.1419631151
 20
19.7009994242
  0
INSERT
  8
0
 62
2
  6
CONTINUOUS
  2
UNI_LOGO2_BL1
 10
557.4079930916
 20
35.8092573885
  0
LINE
  8
0
 62
2
  6
CONTINUOUS
 10
394.0
 20
30.0
 11
584.0
 21
30.0
  0
LINE
  8
0
 62
2
  6
CONTINUOUS
 10
394.0
 20
30.0
 11
394.0
 21
10.0
  0
LINE
  8
0
 62
2
  6
CONTINUOUS
 10
394.0
 20
10.0
 11
584.0
 21
10.0
  0
LINE
  8
0
 62
2
  6
CONTINUOUS
 10
479.0
 20
30.0
 11
479.0
 21
10.0
  0
LINE
  8
0
 62
2
  6
CONTINUOUS
 10
499.0
 20
30.0
 11
499.0
 21
10.0
  0
LINE
  8
0
 62
2
  6
CONTINUOUS
 10
584.0
 20
30.0
 11
584.0
 21
10.0
  0
TEXT
  8
0
 62
5
  6
CONTINUOUS
 10
397.0
 20
23.303
  7
TEXTSTYLE_5
 40
1.52
  1
                                                                     Ammeraal Beltech Modular A/S
 41
1.0
 72
0
  0
TEXT
  8
0
 62
5
  6
CONTINUOUS
 10
397.0
 20
20.595
  7
TEXTSTYLE_5
 40
1.5
  1
                                                                      Hjulmagervej 21, 7100 Vejle,  DK
 41
1.0
 72
0
  0
TEXT
  8
0
 62
5
  6
CONTINUOUS
 10
397.0
 20
17.881
  7
TEXTSTYLE_5
 40
1.495
  1
                                                                      tel: 
 41
1.0
 72
0
  0
TEXT
  8
0
 62
5
  6
CONTINUOUS
 10
441.9869465649
 20
17.881
  7
TEXTSTYLE_5
 40
1.51
  1
+45 75723100     fax: +45 75723348
 41
1.0
 72
0
  0
TEXT
  8
0
 62
5
  6
CONTINUOUS
 10
397.0
 20
15.177
  7
TEXTSTYLE_5
 40
1.5
  1
                                                                      admin@unichains.dk  www.unichains.com
 41
1.0
 72
0
  0
TEXT
  8
0
 62
5
  6
CONTINUOUS
 10
483.75
 20
13.75
  7
TEXTSTYLE_6
 40
5.0
  1
1:1
 41
0.7
 72
1
 11
489.0
 21
13.75
  0
TEXT
  8
0
 62
5
  6
CONTINUOUS
 10
502.0
 20
13.75
  7
TEXTSTYLE_7
 40
7.5
  1
Sprocket Z16 Pilot Bore
 41
0.4597826087
 72
0
  0
LINE
  8
0
 62
7
  6
CONTINUOUS
 10
0.0
 20
0.0
 11
0.0
 21
420.0
  0
LINE
  8
0
 62
7
  6
CONTINUOUS
 10
10.0
 20
10.0
 11
10.0
 21
410.0
  0
LINE
  8
0
 62
7
  6
CONTINUOUS
 10
0.0
 20
0.0
 11
594.0
 21
0.0
  0
LINE
  8
0
 62
7
  6
CONTINUOUS
 10
10.0
 20
10.0
 11
584.0
 21
10.0
  0
LINE
  8
0
 62
7
  6
CONTINUOUS
 10
394.0
 20
30.0
 11
584.0
 21
30.0
  0
LINE
  8
0
 62
7
  6
CONTINUOUS
 10
179.0
 20
5.0
 11
179.0
 21
10.0
  0
LINE
  8
0
 62
7
  6
CONTINUOUS
 10
179.0
 20
410.0
 11
179.0
 21
415.0
  0
LINE
  8
0
 62
7
  6
CONTINUOUS
 10
594.0
 20
420.0
 11
584.0
 21
410.0
  0
LINE
  8
0
 62
7
  6
CONTINUOUS
 10
384.0
 20
410.0
 11
384.0
 21
415.0
  0
LINE
  8
0
 62
7
  6
CONTINUOUS
 10
584.0
 20
297.0
 11
589.0
 21
297.0
  0
LINE
  8
0
 62
7
  6
CONTINUOUS
 10
10.0
 20
410.0
 11
584.0
 21
410.0
  0
LINE
  8
0
 62
7
  6
CONTINUOUS
 10
0.0
 20
420.0
 11
594.0
 21
420.0
  0
LINE
  8
0
 62
7
  6
CONTINUOUS
 10
584.0
 20
10.0
 11
584.0
 21
410.0
  0
LINE
  8
0
 62
7
  6
CONTINUOUS
 10
594.0
 20
0.0
 11
594.0
 21
420.0
  0
LINE
  8
0
 62
7
  6
CONTINUOUS
 10
117.8352054788
 20
236.0955235676
 11
117.8352054788
 21
218.5413870982
  0
LINE
  8
0
 62
7
  6
CONTINUOUS
 10
123.677497299
 20
270.888435021
 11
116.9598201027
 21
254.670527626
  0
LINE
  8
0
 62
7
  6
CONTINUOUS
 10
142.3897419116
 20
300.7971455026
 11
129.9770929762
 21
288.3844965672
  0
LINE
  8
0
 62
7
  6
CONTINUOUS
 10
171.1231697013
 20
321.2683249648
 11
154.9052623063
 21
314.5506477685
  0
LINE
  8
0
 62
7
  6
CONTINUOUS
 10
210.9251038174
 20
148.4273522902
 11
228.4792402868
 21
148.4273522902
  0
LINE
  8
0
 62
7
  6
CONTINUOUS
 10
176.132192364
 20
154.2696441104
 11
192.350099759
 21
147.5519669141
  0
LINE
  8
0
 62
7
  6
CONTINUOUS
 10
146.2234818823
 20
172.981888723
 11
158.6361308177
 21
160.5692397876
  0
LINE
  8
0
 62
7
  6
CONTINUOUS
 10
125.7523024202
 20
201.7153165127
 11
132.4699796165
 21
185.4974091177
  0
LINE
  8
DEFAULT_2
 62
8
  6
HIDDEN
 10
177.8337190342
 20
316.446788786
 11
177.5806739643
 21
316.2347940265
  0
LINE
  8
DEFAULT_2
 62
8
  6
HIDDEN
 10
187.1640129135
 20
319.4801545686
 11
186.8870286488
 21
319.3005625238
  0
LINE
  8
DEFAULT_2
 62
8
  6
HIDDEN
 10
177.2915605828
 20
316.6932667112
 11
177.7388996618
 21
316.9804497551
  0
LINE
  8
DEFAULT_2
 62
8
  6
HIDDEN
 10
177.8471091509
 20
314.9690488657
 11
178.2944437829
 21
315.2562301887
  0
LINE
  8
DEFAULT_2
 62
8
  6
HIDDEN
 10
197.509571781
 20
321.4890220224
 11
197.2127736448
 21
321.344507484
  0
LINE
  8
DEFAULT_2
 62
8
  6
HIDDEN
 10
186.6559158984
 20
319.7908386159
 11
187.1349015327
 21
320.0213904483
  0
LINE
  8
DEFAULT_2
 62
8
  6
HIDDEN
 10
177.7388996618
 20
316.9804497551
 11
178.1274832328
 21
317.1308246031
  0
LINE
  8
DEFAULT_2
 62
8
  6
HIDDEN
 10
178.4165966142
 20
316.6723519185
 11
177.8337190342
 21
316.446788786
  0
LINE
  8
DEFAULT_2
 62
8
  6
HIDDEN
 10
177.2869142127
 20
315.5507599304
 11
176.8011814137
 21
315.3627900797
  0
LINE
  8
DEFAULT_2
 62
8
  6
HIDDEN
 10
178.2944437829
 20
315.2562301887
 11
178.7801765819
 21
315.4442000394
  0
LINE
  8
DEFAULT_2
 62
8
  6
HIDDEN
 10
179.0692899633
 20
314.9857273547
 11
178.3892676023
 21
314.7225709405
  0
LINE
  8
DEFAULT_2
 62
8
  6
HIDDEN
 10
179.1571420848
 20
312.7383068664
 11
179.8371644458
 21
313.0014632806
  0
LINE
  8
DEFAULT_2
 62
8
  6
HIDDEN
 10
197.0431036517
 20
321.8592849537
 11
197.5466064152
 21
322.0297735233
  0
LINE
  8
DEFAULT_2
 62
8
  6
HIDDEN
 10
197.1652267542
 20
320.0518977978
 11
197.6687342489
 21
320.2223869619
  0
LINE
  8
DEFAULT_2
 62
8
  6
HIDDEN
 10
182.3409959975
 20
318.6226504708
 11
183.1349877196
 21
318.8756805851
  0
LINE
  8
DEFAULT_2
 62
8
  6
HIDDEN
 10
182.8461064712
 20
315.3223338514
 11
184.6325844385
 21
315.8916505227
  0
LINE
  8
DEFAULT_2
 62
8
  6
HIDDEN
 10
184.8610383051
 20
315.5178369841
 11
182.8760612714
 21
314.8852624223
  0
LINE
  8
DEFAULT_2
 62
8
  6
HIDDEN
 10
177.5806739643
 20
316.2347940265
 11
177.3660226145
 21
315.9235860738
  0
LINE
  8
DEFAULT_2
 62
8
  6
HIDDEN
 10
176.9210089441
 20
316.2076572807
 11
177.2915605828
 21
316.6932667112
  0
LINE
  8
DEFAULT_2
 62
8
  6
HIDDEN
 10
177.4765575122
 20
314.4834394352
 11
177.8471091509
 21
314.9690488657
  0
LINE
  8
DEFAULT_2
 62
8
  6
HIDDEN
 10
197.2127736448
 20
321.344507484
 11
196.9292390445
 21
321.0944400485
  0
LINE
  8
DEFAULT_2
 62
8
  6
HIDDEN
 10
178.3892676023
 20
314.7225709405
 11
178.1362225324
 21
314.510576181
  0
LINE
  8
DEFAULT_2
 62
8
  6
HIDDEN
 10
179.8371644458
 20
313.0014632806
 11
180.0902095158
 21
313.2134580401
  0
LINE
  8
DEFAULT_2
 62
8
  6
HIDDEN
 10
196.5661232288
 20
321.4776899955
 11
197.0431036517
 21
321.8592849537
  0
LINE
  8
DEFAULT_2
 62
8
  6
HIDDEN
 10
196.6882510625
 20
319.670303434
 11
197.1652267542
 21
320.0518977978
  0
LINE
  8
DEFAULT_2
 62
8
  6
HIDDEN
 10
180.3793273677
 20
312.7549870156
 11
179.9319882922
 21
312.4678039629
  0
LINE
  8
DEFAULT_2
 62
8
  6
HIDDEN
 10
197.6316996147
 20
319.6816354609
 11
197.3349014785
 21
319.5371209225
  0
LINE
  8
DEFAULT_2
 62
8
  6
HIDDEN
 10
198.6204460183
 20
317.6614875961
 11
198.9172441545
 21
317.8060021345
  0
LINE
  8
DEFAULT_2
 62
8
  6
HIDDEN
 10
219.4662373842
 20
321.2069332356
 11
219.1258428495
 21
321.0424426504
  0
LINE
  8
DEFAULT_2
 62
8
  6
HIDDEN
 10
213.7687661136
 20
319.9814344552
 11
213.9855465941
 21
320.0693378042
  0
LINE
  8
DEFAULT_2
 62
8
  6
HIDDEN
 10
179.9319882922
 20
312.4678039629
 11
179.4462554932
 21
312.2798341123
  0
LINE
  8
DEFAULT_2
 62
8
  6
HIDDEN
 10
199.0869141557
 20
317.2912246
 11
198.5834113934
 21
317.1207360212
  0
LINE
  8
DEFAULT_2
 62
8
  6
HIDDEN
 10
219.0136547738
 20
321.7044399004
 11
219.4570839551
 21
321.8536098586
  0
LINE
  8
DEFAULT_2
 62
8
  6
HIDDEN
 10
221.1540633874
 20
316.9765172058
 11
220.710634202
 21
316.8273472199
  0
LINE
  8
DEFAULT_2
 62
8
  6
HIDDEN
 10
186.2411444106
 20
314.6177981196
 11
185.6456517549
 21
314.4280258958
  0
LINE
  8
DEFAULT_2
 62
8
  6
HIDDEN
 10
182.8666875423
 20
313.5424226676
 11
182.2711948865
 21
313.3526504438
  0
LINE
  8
DEFAULT_2
 62
8
  6
HIDDEN
 10
186.8870286488
 20
319.3005625238
 11
186.737067482
 21
319.0432991755
  0
LINE
  8
DEFAULT_2
 62
8
  6
HIDDEN
 10
178.1362225324
 20
314.510576181
 11
177.9215711826
 21
314.1993682282
  0
LINE
  8
DEFAULT_2
 62
8
  6
HIDDEN
 10
180.0902095158
 20
313.2134580401
 11
180.3048608656
 21
313.5246659929
  0
LINE
  8
DEFAULT_2
 62
8
  6
HIDDEN
 10
180.7498745494
 20
313.2405947512
 11
180.3793273677
 21
312.7549870156
  0
LINE
  8
DEFAULT_2
 62
8
  6
HIDDEN
 10
186.3299711517
 20
319.3794631165
 11
186.6559158984
 21
319.7908386159
  0
LINE
  8
DEFAULT_2
 62
8
  6
HIDDEN
 10
197.3349014785
 20
319.5371209225
 11
197.0513668782
 21
319.2870534871
  0
LINE
  8
DEFAULT_2
 62
8
  6
HIDDEN
 10
198.9172441545
 20
317.8060021345
 11
199.2007787548
 21
318.0560695699
  0
LINE
  8
DEFAULT_2
 62
8
  6
HIDDEN
 10
214.4445705039
 20
321.737927686
 11
214.2185586069
 21
321.5440426574
  0
LINE
  8
DEFAULT_2
 62
8
  6
HIDDEN
 10
199.5638945751
 20
317.672819586
 11
199.0869141557
 21
317.2912246
  0
LINE
  8
DEFAULT_2
 62
8
  6
HIDDEN
 10
218.5389326395
 20
321.3448178266
 11
219.0136547738
 21
321.7044399004
  0
LINE
  8
DEFAULT_2
 62
8
  6
HIDDEN
 10
213.9533944681
 20
322.1010683445
 11
214.3961844705
 21
322.382856929
  0
LINE
  8
DEFAULT_2
 62
8
  6
HIDDEN
 10
220.7014807825
 20
317.4740239074
 11
221.0418753282
 21
317.6385145663
  0
LINE
  8
DEFAULT_2
 62
8
  6
HIDDEN
 10
176.7831450345
 20
315.6980229413
 11
176.9210089441
 21
316.2076572807
  0
LINE
  8
DEFAULT_2
 62
8
  6
HIDDEN
 10
186.1310541264
 20
318.8904174802
 11
186.3299711517
 21
319.3794631165
  0
LINE
  8
DEFAULT_2
 62
8
  6
HIDDEN
 10
177.3002998825
 20
314.0730182891
 11
177.4765575122
 21
314.4834394352
  0
LINE
  8
DEFAULT_2
 62
8
  6
HIDDEN
 10
177.9215711826
 20
314.1993682282
 11
177.8040646138
 21
313.9257535572
  0
LINE
  8
DEFAULT_2
 62
8
  6
HIDDEN
 10
196.3091157003
 20
321.0165167659
 11
196.5661232288
 21
321.4776899955
  0
LINE
  8
DEFAULT_2
 62
8
  6
HIDDEN
 10
196.4179799981
 20
319.3146831015
 11
196.6882510625
 21
319.670303434
  0
LINE
  8
DEFAULT_2
 62
8
  6
HIDDEN
 10
197.0513668782
 20
319.2870534871
 11
196.8711845915
 21
319.0499730672
  0
LINE
  8
DEFAULT_2
 62
8
  6
HIDDEN
 10
213.6051475814
 20
321.704258915
 11
213.9533944681
 21
322.1010683445
  0
LINE
  8
DEFAULT_2
 62
8
  6
HIDDEN
 10
213.4205192269
 20
319.5846250258
 11
213.7687661136
 21
319.9814344552
  0
LINE
  8
DEFAULT_2
 62
8
  6
HIDDEN
 10
214.2599421494
 20
319.6182937968
 11
214.0339302524
 21
319.4244087681
  0
LINE
  8
DEFAULT_2
 62
8
  6
HIDDEN
 10
221.6287843481
 20
317.3361394917
 11
221.1540633874
 21
316.9765172058
  0
LINE
  8
DEFAULT_2
 62
8
  6
HIDDEN
 10
234.7947980474
 20
316.1524405758
 11
235.062980172
 21
316.2818638539
  0
LINE
  8
DEFAULT_2
 62
8
  6
HIDDEN
 10
235.3465871193
 20
315.8402368673
 11
235.0784049947
 21
315.7108135892
  0
LINE
  8
DEFAULT_2
 62
8
  6
HIDDEN
 10
240.2754629029
 20
311.6156408271
 11
239.8639605624
 21
311.441922362
  0
LINE
  8
DEFAULT_2
 62
8
  6
HIDDEN
 10
177.3660226145
 20
315.9235860738
 11
177.2869142127
 21
315.5507599304
  0
LINE
  8
DEFAULT_2
 62
8
  6
HIDDEN
 10
180.3048608656
 20
313.5246659929
 11
180.3839736874
 21
313.8974939267
  0
LINE
  8
DEFAULT_2
 62
8
  6
HIDDEN
 10
180.8877384456
 20
313.7502291253
 11
180.7498745494
 21
313.2405947512
  0
LINE
  8
DEFAULT_2
 62
8
  6
HIDDEN
 10
196.9292390445
 20
321.0944400485
 11
196.7623202937
 21
320.7518067316
  0
LINE
  8
DEFAULT_2
 62
8
  6
HIDDEN
 10
199.2007787548
 20
318.0560695699
 11
199.3676974963
 21
318.3987029608
  0
LINE
  8
DEFAULT_2
 62
8
  6
HIDDEN
 10
199.820902099
 20
318.1339928526
 11
199.5638945751
 21
317.672819586
  0
LINE
  8
DEFAULT_2
 62
8
  6
HIDDEN
 10
221.0418753282
 20
317.6385145663
 11
221.2948816928
 21
317.9235518363
  0
LINE
  8
DEFAULT_2
 62
8
  6
HIDDEN
 10
239.6989428098
 20
311.8569903776
 11
240.0143585254
 21
312.0709337841
  0
LINE
  8
DEFAULT_2
 62
8
  6
HIDDEN
 10
177.2979744739
 20
313.5017640382
 11
177.3002998825
 21
314.0730182891
  0
LINE
  8
DEFAULT_2
 62
8
  6
HIDDEN
 10
196.2775883191
 20
318.7609439904
 11
196.4179799981
 21
319.3146831015
  0
LINE
  8
DEFAULT_2
 62
8
  6
HIDDEN
 10
221.8974383793
 20
317.7264027179
 11
221.6287843481
 21
317.3361394917
  0
LINE
  8
DEFAULT_2
 62
8
  6
HIDDEN
 10
238.0243886074
 20
312.4426829706
 11
237.6268112862
 21
312.0324774628
  0
LINE
  8
DEFAULT_2
 62
8
  6
HIDDEN
 10
237.146377798
 20
312.2336021206
 11
237.3246262046
 21
312.3896392672
  0
LINE
  8
DEFAULT_2
 62
8
  6
HIDDEN
 10
240.4537111219
 20
311.7716780321
 11
240.2754629029
 21
311.6156408271
  0
LINE
  8
DEFAULT_2
 62
8
  6
HIDDEN
 10
176.8011814137
 20
315.3627900797
 11
176.7831450345
 21
315.6980229413
  0
LINE
  8
DEFAULT_2
 62
8
  6
HIDDEN
 10
177.8040646138
 20
313.9257535572
 11
177.8221010468
 21
313.5905205566
  0
LINE
  8
DEFAULT_2
 62
8
  6
HIDDEN
 10
180.3839736874
 20
313.8974939267
 11
180.3659373082
 21
314.2327267883
  0
LINE
  8
DEFAULT_2
 62
8
  6
HIDDEN
 10
180.8900638273
 20
314.3214834456
 11
180.8877384456
 21
313.7502291253
  0
LINE
  8
DEFAULT_2
 62
8
  6
HIDDEN
 10
182.8672007352
 20
318.343724492
 11
182.8461064712
 21
315.3223338514
  0
LINE
  8
DEFAULT_2
 62
8
  6
HIDDEN
 10
182.8760612714
 20
314.8852624223
 11
182.8666875423
 21
313.5424226676
  0
LINE
  8
DEFAULT_2
 62
8
  6
HIDDEN
 10
182.2711948865
 20
313.3526504438
 11
182.3409959975
 21
318.6226504708
  0
LINE
  8
DEFAULT_2
 62
8
  6
HIDDEN
 10
186.108120681
 20
318.5554839949
 11
186.1310541264
 21
318.8904174802
  0
LINE
  8
DEFAULT_2
 62
8
  6
HIDDEN
 10
186.737067482
 20
319.0432991755
 11
186.7141340367
 21
318.7083656902
  0
LINE
  8
DEFAULT_2
 62
8
  6
HIDDEN
 10
196.2455539944
 20
320.6868710591
 11
196.3091157003
 21
321.0165167659
  0
LINE
  8
DEFAULT_2
 62
8
  6
HIDDEN
 10
196.8711845915
 20
319.0499730672
 11
196.8076229042
 21
318.7203272125
  0
LINE
  8
DEFAULT_2
 62
8
  6
HIDDEN
 10
199.3676974963
 20
318.3987029608
 11
199.4312592023
 21
318.7283486676
  0
LINE
  8
DEFAULT_2
 62
8
  6
HIDDEN
 10
199.9612937687
 20
318.6877320376
 11
199.820902099
 21
318.1339928526
  0
LINE
  8
DEFAULT_2
 62
8
  6
HIDDEN
 10
213.4736811752
 20
321.3953528346
 11
213.6051475814
 21
321.704258915
  0
LINE
  8
DEFAULT_2
 62
8
  6
HIDDEN
 10
214.2185586069
 20
321.5440426574
 11
214.0870921749
 21
321.23513628
  0
LINE
  8
DEFAULT_2
 62
8
  6
HIDDEN
 10
213.2890528078
 20
319.2757187969
 11
213.4205192269
 21
319.5846250258
  0
LINE
  8
DEFAULT_2
 62
8
  6
HIDDEN
 10
214.0339302524
 20
319.4244087681
 11
213.9024638333
 21
319.1155025392
  0
LINE
  8
DEFAULT_2
 62
8
  6
HIDDEN
 10
219.1258428495
 20
321.0424426504
 11
218.9758710877
 21
320.7420844586
  0
LINE
  8
DEFAULT_2
 62
8
  6
HIDDEN
 10
225.6423195748
 20
320.4453637335
 11
224.1258103769
 21
317.8320428148
  0
LINE
  8
DEFAULT_2
 62
8
  6
HIDDEN
 10
223.9350986701
 20
317.4376353196
 11
223.2610949811
 21
316.2761593213
  0
LINE
  8
DEFAULT_2
 62
8
  6
HIDDEN
 10
222.6498674354
 20
316.4066426051
 11
225.3236734391
 21
320.9485076304
  0
LINE
  8
DEFAULT_2
 62
8
  6
HIDDEN
 10
237.3246262046
 20
312.3896392672
 11
237.5850358876
 21
312.7419386935
  0
LINE
  8
DEFAULT_2
 62
8
  6
HIDDEN
 10
234.5884901727
 20
315.8875937978
 11
234.7947980474
 21
316.1524405758
  0
LINE
  8
DEFAULT_2
 62
8
  6
HIDDEN
 10
240.0143585254
 20
312.0709337841
 11
240.2336875215
 21
312.3251020506
  0
LINE
  8
0
 62
7
  6
CONTINUOUS
 10
198.5137476511
 20
138.7493654627
 11
198.7374882492
 21
133.6248632602
  0
LINE
  8
DEFAULT_2
 62
8
  6
HIDDEN
 10
199.9718013125
 20
319.4395894805
 11
199.9612937687
 21
318.6877320376
  0
LINE
  8
DEFAULT_2
 62
8
  6
HIDDEN
 10
218.3576679246
 20
320.8340075193
 11
218.5389326395
 21
321.3448178266
  0
LINE
  8
DEFAULT_2
 62
8
  6
HIDDEN
 10
222.0787042296
 20
318.2372125551
 11
221.8974383793
 21
317.7264027179
  0
LINE
  8
0
 62
7
  6
CONTINUOUS
 10
160.9619892137
 20
150.0779705425
 11
159.2076364809
 21
145.2579260233
  0
LINE
  8
DEFAULT_2
 62
8
  6
HIDDEN
 10
221.2948816928
 20
317.9235518363
 11
221.4605010664
 21
318.3291356158
  0
LINE
  8
DEFAULT_2
 62
8
  6
HIDDEN
 10
234.3099663264
 20
315.4226115774
 11
234.5884901727
 21
315.8875937978
  0
LINE
  8
DEFAULT_2
 62
8
  6
HIDDEN
 10
235.0784049947
 20
315.7108135892
 11
234.7998805878
 21
315.2458315711
  0
LINE
  8
DEFAULT_2
 62
8
  6
HIDDEN
 10
240.7141209066
 20
312.123977436
 11
240.4537111219
 21
311.7716780321
  0
LINE
  8
0
 62
7
  6
CONTINUOUS
 10
130.6039576595
 20
174.9146727179
 11
127.138595896
 21
171.1328939661
  0
LINE
  8
0
 62
7
  6
CONTINUOUS
 10
112.0613880962
 20
209.4783092278
 11
107.4125872171
 21
207.3105377766
  0
LINE
  8
0
 62
7
  6
CONTINUOUS
 10
308.2712619223
 20
229.1058944625
 11
313.3957641248
 21
229.3296350606
  0
LINE
  8
0
 62
7
  6
CONTINUOUS
 10
296.9426568424
 20
191.5541360251
 11
301.7627013616
 21
189.7997832923
  0
LINE
  8
0
 62
7
  6
CONTINUOUS
 10
272.1059546671
 20
161.1961044709
 11
275.8877334188
 21
157.7307427074
  0
LINE
  8
0
 62
7
  6
CONTINUOUS
 10
237.5423181571
 20
142.6535349076
 11
239.7100896083
 21
138.0047340285
  0
LINE
  8
DEFAULT_2
 62
8
  6
HIDDEN
 10
180.7184525139
 20
315.0535692194
 11
180.8900638273
 21
314.3214834456
  0
LINE
  8
DEFAULT_2
 62
8
  6
HIDDEN
 10
201.0689605672
 20
317.3887153292
 11
200.6556471078
 21
322.3716032453
  0
LINE
  8
DEFAULT_2
 62
8
  6
HIDDEN
 10
201.34885694
 20
321.5751161971
 11
201.6918191807
 21
317.4403793146
  0
LINE
  8
DEFAULT_2
 62
8
  6
HIDDEN
 10
201.9629240272
 20
321.7327992587
 11
202.0332752706
 21
320.8846479282
  0
LINE
  8
DEFAULT_2
 62
8
  6
HIDDEN
 10
203.1449111574
 20
317.5749651329
 11
203.1207437143
 21
318.2128053218
  0
LINE
  8
DEFAULT_2
 62
8
  6
HIDDEN
 10
202.9837948664
 20
321.8272331578
 11
202.9555995195
 21
322.5713799579
  0
LINE
  8
0
 62
2
  6
CONTINUOUS
 10
208.2142402868
 20
240.2913870982
 11
208.2142402868
 21
237.3213870982
  0
LINE
  8
DEFAULT_1
 62
2
  6
CENTER
 10
208.2142402868
 20
231.3813870982
 11
208.2142402868
 21
148.9023522902
  0
LINE
  8
DEFAULT_1
 62
2
  6
CENTER
 10
208.2142402868
 20
246.2313870982
 11
208.2142402868
 21
328.7104219061
  0
LINE
  8
DEFAULT_2
 62
8
  6
HIDDEN
 10
213.2428957256
 20
318.7458103988
 11
213.2890528078
 21
319.2757187969
  0
LINE
  8
DEFAULT_2
 62
8
  6
HIDDEN
 10
213.4367554836
 20
320.9714258192
 11
213.4736811752
 21
321.3953528346
  0
LINE
  8
DEFAULT_2
 62
8
  6
HIDDEN
 10
214.0870921749
 20
321.23513628
 11
214.068629342
 21
321.0231729208
  0
LINE
  8
DEFAULT_2
 62
8
  6
HIDDEN
 10
213.9024638333
 20
319.1155025392
 11
213.874769584
 21
318.7975575004
  0
LINE
  8
DEFAULT_2
 62
8
  6
HIDDEN
 10
216.4137230037
 20
317.935690078
 11
216.5521942696
 21
319.525415495
  0
LINE
  8
DEFAULT_2
 62
8
  6
HIDDEN
 10
216.6075827682
 20
320.1613055727
 11
216.7368226241
 21
321.6450493842
  0
LINE
  8
DEFAULT_2
 62
8
  6
HIDDEN
 10
232.3338122815
 20
313.9340169859
 11
233.3851193538
 21
317.1718722921
  0
LINE
  8
DEFAULT_2
 62
8
  6
HIDDEN
 10
233.7136528772
 20
318.1837022702
 11
233.8779195928
 21
318.6896171175
  0
LINE
  8
DEFAULT_2
 62
8
  6
HIDDEN
 10
234.3732944175
 20
318.5287726672
 11
234.2090277019
 21
318.0228578199
  0
LINE
  8
DEFAULT_2
 62
8
  6
HIDDEN
 10
233.8804941785
 20
317.0110278419
 11
232.8291871063
 21
313.7731725357
  0
LINE
  8
DEFAULT_2
 62
8
  6
HIDDEN
 10
233.6239091699
 20
313.5213265158
 11
234.3099663264
 21
315.4226115774
  0
LINE
  8
DEFAULT_2
 62
8
  6
HIDDEN
 10
234.7998805878
 20
315.2458315711
 11
234.1138234314
 21
313.3445465096
  0
LINE
  8
DEFAULT_2
 62
8
  6
HIDDEN
 10
235.8775154452
 20
312.7081382442
 11
236.708005666
 21
315.009693786
  0
LINE
  8
DEFAULT_2
 62
8
  6
HIDDEN
 10
236.8524387303
 20
315.4099642662
 11
237.0329800606
 21
315.9103023666
  0
LINE
  8
DEFAULT_2
 62
8
  6
HIDDEN
 10
237.5850358876
 20
312.7419386935
 11
238.6531359532
 21
315.2933465911
  0
LINE
  8
DEFAULT_2
 62
8
  6
HIDDEN
 10
239.1335694414
 20
315.0922219333
 11
238.2297924784
 21
312.9333383646
  0
LINE
  8
DEFAULT_2
 62
8
  6
HIDDEN
 10
240.2336875215
 20
312.3251020506
 11
241.0553029477
 21
314.2877234892
  0
LINE
  8
0
 62
2
  6
CONTINUOUS
 10
209.6992402868
 20
238.8063870982
 11
206.7292402868
 21
238.8063870982
  0
LINE
  8
DEFAULT_1
 62
2
  6
CENTER
 10
200.7892402868
 20
238.8063870982
 11
118.3102054788
 21
238.8063870982
  0
LINE
  8
DEFAULT_1
 62
2
  6
CENTER
 10
215.6392402868
 20
238.8063870982
 11
298.1182750947
 21
238.8063870982
  0
LINE
  8
DEFAULT_2
 62
8
  6
HIDDEN
 10
177.4899431281
 20
313.0056979329
 11
177.2979744739
 21
313.5017640382
  0
LINE
  8
DEFAULT_2
 62
8
  6
HIDDEN
 10
177.8221010468
 20
313.5905205566
 11
177.9372822071
 21
313.2928809768
  0
LINE
  8
DEFAULT_2
 62
8
  6
HIDDEN
 10
180.3659373082
 20
314.2327267883
 11
180.2507561479
 21
314.5303663681
  0
LINE
  8
DEFAULT_2
 62
8
  6
HIDDEN
 10
180.0407555614
 20
315.361667056
 11
179.9639681212
 21
315.5600934426
  0
LINE
  8
DEFAULT_2
 62
8
  6
HIDDEN
 10
186.2122104064
 20
318.1428789172
 11
186.108120681
 21
318.5554839949
  0
LINE
  8
DEFAULT_2
 62
8
  6
HIDDEN
 10
186.7141340367
 20
318.7083656902
 11
186.7922013489
 21
318.3989118097
  0
LINE
  8
DEFAULT_2
 62
8
  6
HIDDEN
 10
190.1759951624
 20
315.6319286891
 11
189.6295244138
 21
317.7981041188
  0
LINE
  8
DEFAULT_2
 62
8
  6
HIDDEN
 10
189.4733899351
 20
318.4170113018
 11
189.0830536653
 21
319.9642795484
  0
LINE
  8
DEFAULT_2
 62
8
  6
HIDDEN
 10
196.3439060172
 20
318.2331793572
 11
196.2775883191
 21
318.7609439904
  0
LINE
  8
DEFAULT_2
 62
8
  6
HIDDEN
 10
196.8076229042
 20
318.7203272125
 11
196.8474135118
 21
318.4036685213
  0
LINE
  8
DEFAULT_2
 62
8
  6
HIDDEN
 10
199.4312592023
 20
318.7283486676
 11
199.3914685946
 21
319.0450073588
  0
LINE
  8
DEFAULT_2
 62
8
  6
HIDDEN
 10
199.3887126025
 20
319.9024176988
 11
199.3621855307
 21
320.1135234929
  0
LINE
  8
DEFAULT_2
 62
8
  6
HIDDEN
 10
207.119276952
 20
322.729139596
 11
207.1394164856
 21
322.1976061673
  0
LINE
  8
DEFAULT_2
 62
8
  6
HIDDEN
 10
207.2763653334
 20
318.5831783313
 11
207.3085885899
 21
317.732724771
  0
LINE
  8
DEFAULT_2
 62
8
  6
HIDDEN
 10
217.4148535647
 20
322.2267048839
 11
216.9809769406
 21
317.2455653481
  0
LINE
  8
DEFAULT_2
 62
8
  6
HIDDEN
 10
221.4605010664
 20
318.3291356158
 11
221.6951982365
 21
319.9075266298
  0
LINE
  8
DEFAULT_2
 62
8
  6
HIDDEN
 10
222.3134013997
 20
319.8156035692
 11
222.0787042296
 21
318.2372125551
  0
LINE
  8
DEFAULT_2
 62
8
  6
HIDDEN
 10
237.5228946024
 20
315.7335222591
 11
236.367429987
 21
312.5313581368
  0
LINE
  8
DEFAULT_2
 62
8
  6
HIDDEN
 10
241.5357363328
 20
314.0865988745
 11
240.7141209066
 21
312.123977436
  0
LINE
  8
DEFAULT_2
 62
8
  6
HIDDEN
 10
180.4496964732
 20
315.7480615723
 11
180.7184525139
 21
315.0535692194
  0
LINE
  8
DEFAULT_2
 62
8
  6
HIDDEN
 10
189.5589549553
 20
320.6329172297
 11
190.7820085181
 21
315.7848103845
  0
LINE
  8
DEFAULT_2
 62
8
  6
HIDDEN
 10
199.8789565613
 20
320.17845976
 11
199.9718013125
 21
319.4395894805
  0
LINE
  8
DEFAULT_2
 62
8
  6
HIDDEN
 10
221.6951982365
 20
319.9075266298
 11
221.6547506752
 21
320.3437513126
  0
LINE
  8
DEFAULT_2
 62
8
  6
HIDDEN
 10
218.0225988367
 20
317.8723574041
 11
217.9977989421
 21
318.413808043
  0
LINE
  8
DEFAULT_2
 62
8
  6
HIDDEN
 10
222.2886003587
 20
320.3570546045
 11
222.3134013997
 21
319.8156035692
  0
LINE
  8
0
 62
7
  6
CONTINUOUS
 10
217.9147329224
 20
338.8634087337
 11
217.6909923243
 21
343.9879109362
  0
LINE
  8
0
 62
7
  6
CONTINUOUS
 10
255.4664913598
 20
327.5348036538
 11
257.2208440927
 21
332.354848173
  0
LINE
  8
0
 62
7
  6
CONTINUOUS
 10
285.8245229141
 20
302.6981014785
 11
289.2898846775
 21
306.4798802302
  0
LINE
  8
0
 62
7
  6
CONTINUOUS
 10
304.3670924773
 20
268.1344649685
 11
309.0158933564
 21
270.3022364197
  0
LINE
  8
0
 62
7
  6
CONTINUOUS
 10
108.1572186513
 20
248.5068797338
 11
103.0327164488
 21
248.2831391357
  0
LINE
  8
0
 62
7
  6
CONTINUOUS
 10
119.4858237311
 20
286.0586381712
 11
114.6657792119
 21
287.812990904
  0
LINE
  8
0
 62
7
  6
CONTINUOUS
 10
144.3225259065
 20
316.4166697255
 11
140.5407471548
 21
319.8820314889
  0
LINE
  8
DEFAULT_2
 62
8
  6
HIDDEN
 10
179.9639681212
 20
315.5600934426
 11
179.6364565726
 21
316.1177775996
  0
LINE
  8
DEFAULT_2
 62
8
  6
HIDDEN
 10
180.0837956516
 20
316.4049606436
 11
180.4496964732
 21
315.7480615723
  0
LINE
  8
0
 62
7
  6
CONTINUOUS
 10
178.8861624164
 20
334.9592392887
 11
176.7183909652
 21
339.6080401678
  0
LINE
  8
DEFAULT_2
 62
8
  6
HIDDEN
 10
199.3621855307
 20
320.1135234929
 11
199.1792520017
 21
320.7338538597
  0
LINE
  8
DEFAULT_2
 62
8
  6
HIDDEN
 10
199.6827594964
 20
320.9043430239
 11
199.8789565613
 21
320.17845976
  0
LINE
  8
DEFAULT_2
 62
8
  6
HIDDEN
 10
226.1134898059
 20
315.6672374132
 11
225.9725242111
 21
317.0026909573
  0
LINE
  8
DEFAULT_2
 62
8
  6
HIDDEN
 10
225.9594930141
 20
317.4405929634
 11
225.6423195748
 21
320.4453637335
  0
LINE
  8
DEFAULT_2
 62
8
  6
HIDDEN
 10
177.8762057645
 20
312.5848201814
 11
177.4899431281
 21
313.0056979329
  0
LINE
  8
DEFAULT_2
 62
8
  6
HIDDEN
 10
177.9372822071
 20
313.2928809768
 11
178.1496081484
 21
313.0328346787
  0
LINE
  8
DEFAULT_2
 62
8
  6
HIDDEN
 10
180.2507561479
 20
314.5303663681
 11
180.0384301528
 21
314.7904128052
  0
LINE
  8
DEFAULT_2
 62
8
  6
HIDDEN
 10
179.6364565726
 20
316.1177775996
 11
179.4241305238
 21
316.3778241756
  0
LINE
  8
DEFAULT_2
 62
8
  6
HIDDEN
 10
183.1349877196
 20
318.8756805851
 11
186.2411444106
 21
314.6177981196
  0
LINE
  8
DEFAULT_2
 62
8
  6
HIDDEN
 10
185.6456517549
 20
314.4280258958
 11
184.8610383051
 21
315.5178369841
  0
LINE
  8
DEFAULT_2
 62
8
  6
HIDDEN
 10
184.6325844385
 20
315.8916505227
 11
182.8672007352
 21
318.343724492
  0
LINE
  8
DEFAULT_2
 62
8
  6
HIDDEN
 10
186.3912783306
 20
317.8589052194
 11
186.2122104064
 21
318.1428789172
  0
LINE
  8
DEFAULT_2
 62
8
  6
HIDDEN
 10
186.7922013489
 20
318.3989118097
 11
186.9712692731
 21
318.114938112
  0
LINE
  8
DEFAULT_2
 62
8
  6
HIDDEN
 10
196.6169330644
 20
317.7313894237
 11
196.3439060172
 21
318.2331793572
  0
LINE
  8
DEFAULT_2
 62
8
  6
HIDDEN
 10
196.8474135118
 20
318.4036685213
 11
196.9905564332
 21
318.0999968457
  0
LINE
  8
DEFAULT_2
 62
8
  6
HIDDEN
 10
199.3914685946
 20
319.0450073588
 11
199.2483256547
 21
319.3486791822
  0
LINE
  8
DEFAULT_2
 62
8
  6
HIDDEN
 10
199.1792520017
 20
320.7338538597
 11
199.0361090432
 21
321.037525831
  0
LINE
  8
DEFAULT_2
 62
8
  6
HIDDEN
 10
213.3189736267
 20
318.4188263273
 11
213.2428957256
 21
318.7458103988
  0
LINE
  8
DEFAULT_2
 62
8
  6
HIDDEN
 10
213.874769584
 20
318.7975575004
 11
213.9508474916
 21
318.4705735031
  0
LINE
  8
DEFAULT_2
 62
8
  6
HIDDEN
 10
213.5128333912
 20
320.6444418219
 11
213.4367554836
 21
320.9714258192
  0
LINE
  8
DEFAULT_2
 62
8
  6
HIDDEN
 10
214.068629342
 20
321.0231729208
 11
214.1447072496
 21
320.6961889235
  0
LINE
  8
DEFAULT_2
 62
8
  6
HIDDEN
 10
218.6160021052
 20
318.3218849823
 11
218.6720949639
 21
317.9908865326
  0
LINE
  8
DEFAULT_2
 62
8
  6
HIDDEN
 10
226.1386438887
 20
320.7745298357
 11
226.7247173516
 21
315.5367541294
  0
LINE
  8
DEFAULT_2
 62
8
  6
HIDDEN
 10
179.6975329346
 20
316.8258386035
 11
180.0837956516
 21
316.4049606436
  0
LINE
  8
DEFAULT_2
 62
8
  6
HIDDEN
 10
199.4097324213
 20
321.4061331792
 11
199.6827594964
 21
320.9043430239
  0
LINE
  8
DEFAULT_2
 62
8
  6
HIDDEN
 10
222.1451181508
 20
320.8085999143
 11
222.2886003587
 21
320.3570546045
  0
LINE
  8
DEFAULT_2
 62
8
  6
HIDDEN
 10
178.3212194483
 20
312.3007489397
 11
177.8762057645
 21
312.5848201814
  0
LINE
  8
DEFAULT_2
 62
8
  6
HIDDEN
 10
179.2525192642
 20
317.1099098104
 11
179.6975329346
 21
316.8258386035
  0
LINE
  8
DEFAULT_2
 62
8
  6
HIDDEN
 10
178.1496081484
 20
313.0328346787
 11
178.4590833445
 21
312.8103833138
  0
LINE
  8
DEFAULT_2
 62
8
  6
HIDDEN
 10
179.4241305238
 20
316.3778241756
 11
179.1146553545
 21
316.600275471
  0
LINE
  8
DEFAULT_2
 62
8
  6
HIDDEN
 10
186.7983746609
 20
317.5227412784
 11
186.3912783306
 21
317.8589052194
  0
LINE
  8
DEFAULT_2
 62
8
  6
HIDDEN
 10
196.9800488847
 20
317.3481394398
 11
196.6169330644
 21
317.7313894237
  0
LINE
  8
DEFAULT_2
 62
8
  6
HIDDEN
 10
199.0466166056
 20
321.7893831261
 11
199.4097324213
 21
321.4061331792
  0
LINE
  8
DEFAULT_2
 62
8
  6
HIDDEN
 10
196.9905564332
 20
318.0999968457
 11
197.2370564086
 21
317.8093127063
  0
LINE
  8
DEFAULT_2
 62
8
  6
HIDDEN
 10
199.0361090432
 20
321.037525831
 11
198.7896090771
 21
321.3282098965
  0
LINE
  8
DEFAULT_2
 62
8
  6
HIDDEN
 10
213.5933691787
 20
317.9677822827
 11
213.3189736267
 21
318.4188263273
  0
LINE
  8
DEFAULT_2
 62
8
  6
HIDDEN
 10
213.7872289465
 20
320.1933978145
 11
213.5128333912
 21
320.6444418219
  0
LINE
  8
DEFAULT_2
 62
8
  6
HIDDEN
 10
221.6547506752
 20
320.3437513126
 11
221.4956232137
 21
320.6900706841
  0
LINE
  8
DEFAULT_2
 62
8
  6
HIDDEN
 10
238.2297924784
 20
312.9333383646
 11
238.2987234571
 21
312.5584952722
  0
LINE
  8
DEFAULT_2
 62
8
  6
HIDDEN
 10
180.0384301528
 20
314.7904128052
 11
179.7673487036
 21
314.9136509073
  0
LINE
  8
DEFAULT_2
 62
8
  6
HIDDEN
 10
186.9712692731
 20
318.114938112
 11
187.2253200924
 21
317.9595966715
  0
LINE
  8
DEFAULT_2
 62
8
  6
HIDDEN
 10
199.2483256547
 20
319.3486791822
 11
199.0150892244
 21
319.5338103507
  0
LINE
  8
DEFAULT_2
 62
8
  6
HIDDEN
 10
203.4961981365
 20
322.0595664615
 11
207.2763653334
 21
318.5831783313
  0
LINE
  8
DEFAULT_2
 62
8
  6
HIDDEN
 10
206.6598692937
 20
318.3469010051
 11
202.9837948664
 21
321.8272331578
  0
LINE
  8
DEFAULT_2
 62
8
  6
HIDDEN
 10
202.0332752706
 20
320.8846479282
 11
201.34885694
 21
321.5751161971
  0
LINE
  8
DEFAULT_2
 62
8
  6
HIDDEN
 10
201.2785057213
 20
322.4232672306
 11
201.9629240272
 21
321.7327992587
  0
LINE
  8
DEFAULT_2
 62
8
  6
HIDDEN
 10
213.9508474916
 20
318.4705735031
 11
214.1399337164
 21
318.2405317391
  0
LINE
  8
DEFAULT_2
 62
8
  6
HIDDEN
 10
214.1447072496
 20
320.6961889235
 11
214.3337934809
 21
320.4661472337
  0
LINE
  8
DEFAULT_2
 62
8
  6
HIDDEN
 10
218.3721491533
 20
317.3901709788
 11
218.0225988367
 21
317.8723574041
  0
LINE
  8
DEFAULT_2
 62
8
  6
HIDDEN
 10
221.795569008
 20
321.2907861274
 11
222.1451181508
 21
320.8085999143
  0
LINE
  8
DEFAULT_2
 62
8
  6
HIDDEN
 10
236.708005666
 20
315.009693786
 11
236.5842563254
 21
315.2805410893
  0
LINE
  8
DEFAULT_2
 62
8
  6
HIDDEN
 10
236.7286893897
 20
315.6808115696
 11
236.8524387303
 21
315.4099642662
  0
LINE
  8
DEFAULT_2
 62
8
  6
HIDDEN
 10
238.1894061811
 20
312.0276150098
 11
238.0243886074
 21
312.4426829706
  0
LINE
  8
DEFAULT_2
 62
8
  6
HIDDEN
 10
235.062980172
 20
316.2818638539
 11
235.4291453731
 21
316.3759310498
  0
LINE
  8
DEFAULT_2
 62
8
  6
HIDDEN
 10
239.8639605624
 20
311.441922362
 11
239.4935389425
 21
311.3663349922
  0
LINE
  8
DEFAULT_2
 62
8
  6
HIDDEN
 10
239.2324345642
 20
311.8216278991
 11
239.6989428098
 21
311.8569903776
  0
LINE
  8
DEFAULT_2
 62
8
  6
HIDDEN
 10
178.9221334177
 20
312.1910791845
 11
178.3212194483
 21
312.3007489397
  0
LINE
  8
DEFAULT_2
 62
8
  6
HIDDEN
 10
178.4590833445
 20
312.8103833138
 11
178.8273095747
 21
312.7247384935
  0
LINE
  8
DEFAULT_2
 62
8
  6
HIDDEN
 10
179.7673487036
 20
314.9136509073
 11
179.3991224734
 21
314.9992957276
  0
LINE
  8
DEFAULT_2
 62
8
  6
HIDDEN
 10
179.304303101
 20
315.5329566967
 11
180.0407555614
 21
315.361667056
  0
LINE
  8
DEFAULT_2
 62
8
  6
HIDDEN
 10
179.1146553545
 20
316.600275471
 11
178.7464291243
 21
316.6859202914
  0
LINE
  8
DEFAULT_2
 62
8
  6
HIDDEN
 10
187.2804538864
 20
317.3152095947
 11
186.7983746609
 21
317.5227412784
  0
LINE
  8
DEFAULT_2
 62
8
  6
HIDDEN
 10
197.5366057952
 20
317.0964163934
 11
196.9800488847
 21
317.3481394398
  0
LINE
  8
DEFAULT_2
 62
8
  6
HIDDEN
 10
197.2370564086
 20
317.8093127063
 11
197.5736451525
 21
317.6371685535
  0
LINE
  8
DEFAULT_2
 62
8
  6
HIDDEN
 10
199.0150892244
 20
319.5338103507
 11
198.6785004806
 21
319.7059545035
  0
LINE
  8
DEFAULT_2
 62
8
  6
HIDDEN
 10
198.7155351147
 20
320.2467060044
 11
199.3887126025
 21
319.9024176988
  0
LINE
  8
DEFAULT_2
 62
8
  6
HIDDEN
 10
198.7896090771
 20
321.3282098965
 11
198.4530203332
 21
321.5003540493
  0
LINE
  8
DEFAULT_2
 62
8
  6
HIDDEN
 10
218.7529924242
 20
317.1184366782
 11
218.3721491533
 21
317.3901709788
  0
LINE
  8
DEFAULT_2
 62
8
  6
HIDDEN
 10
213.9807706801
 20
317.6136807617
 11
213.5933691787
 21
317.9677822827
  0
LINE
  8
DEFAULT_2
 62
8
  6
HIDDEN
 10
218.6720949639
 20
317.9908865326
 11
218.9499035815
 21
317.7344728131
  0
LINE
  8
DEFAULT_2
 62
8
  6
HIDDEN
 10
221.4956232137
 20
320.6900706841
 11
221.2178145853
 21
320.9464843299
  0
LINE
  8
DEFAULT_2
 62
8
  6
HIDDEN
 10
238.3404988593
 20
311.84903405
 11
238.1894061811
 21
312.0276150098
  0
LINE
  8
DEFAULT_2
 62
8
  6
HIDDEN
 10
236.5842563254
 20
315.2805410893
 11
236.3625244689
 21
315.5867442725
  0
LINE
  8
DEFAULT_2
 62
8
  6
HIDDEN
 10
236.5069575332
 20
315.9870147528
 11
236.7286893897
 21
315.6808115696
  0
LINE
  8
DEFAULT_2
 62
8
  6
HIDDEN
 10
238.2987234571
 20
312.5584952722
 11
238.5048219582
 21
312.2415583704
  0
LINE
  8
DEFAULT_2
 62
8
  6
HIDDEN
 10
190.7820085181
 20
315.7848103845
 11
190.1759951624
 21
315.6319286891
  0
LINE
  8
DEFAULT_2
 62
8
  6
HIDDEN
 10
189.6295244138
 20
317.7981041188
 11
187.8114843469
 21
317.3394590327
  0
LINE
  8
DEFAULT_2
 62
8
  6
HIDDEN
 10
214.5804947868
 20
319.6971581874
 11
214.2599421494
 21
319.6182937968
  0
LINE
  8
DEFAULT_2
 62
8
  6
HIDDEN
 10
214.7651231413
 20
321.8167920766
 11
214.4445705039
 21
321.737927686
  0
LINE
  8
DEFAULT_2
 62
8
  6
HIDDEN
 10
179.4462554932
 20
312.2798341123
 11
178.9221334177
 21
312.1910791845
  0
LINE
  8
DEFAULT_2
 62
8
  6
HIDDEN
 10
178.7801765819
 20
315.4442000394
 11
179.304303101
 21
315.5329566967
  0
LINE
  8
DEFAULT_2
 62
8
  6
HIDDEN
 10
235.5786609778
 20
315.8695925253
 11
235.3465871193
 21
315.8402368673
  0
LINE
  8
DEFAULT_2
 62
8
  6
HIDDEN
 10
198.5834113934
 20
317.1207360212
 11
198.0666403629
 21
317.0557997541
  0
LINE
  8
DEFAULT_2
 62
8
  6
HIDDEN
 10
197.8969703605
 20
317.5705772978
 11
198.6204460183
 21
317.6614875961
  0
LINE
  8
DEFAULT_2
 62
8
  6
HIDDEN
 10
198.3551752726
 20
319.7725457592
 11
197.6316996147
 21
319.6816354609
  0
LINE
  8
DEFAULT_2
 62
8
  6
HIDDEN
 10
220.2736980778
 20
317.430080007
 11
220.7014807825
 21
317.4740239074
  0
LINE
  8
DEFAULT_2
 62
8
  6
HIDDEN
 10
219.8940200889
 20
321.250877136
 11
219.4662373842
 21
321.2069332356
  0
LINE
  8
DEFAULT_2
 62
8
  6
HIDDEN
 10
201.6918191807
 20
317.4403793146
 11
201.0689605672
 21
317.3887153292
  0
LINE
  8
DEFAULT_2
 62
8
  6
HIDDEN
 10
220.710634202
 20
316.8273472199
 11
220.1798192076
 21
316.7987235866
  0
LINE
  8
DEFAULT_2
 62
8
  6
HIDDEN
 10
187.8114843469
 20
317.3394590327
 11
187.2804538864
 21
317.3152095947
  0
LINE
  8
DEFAULT_2
 62
8
  6
HIDDEN
 10
178.8273095747
 20
312.7247384935
 11
179.1571420848
 21
312.7383068664
  0
LINE
  8
DEFAULT_2
 62
8
  6
HIDDEN
 10
179.3991224734
 20
314.9992957276
 11
179.0692899633
 21
314.9857273547
  0
LINE
  8
DEFAULT_2
 62
8
  6
HIDDEN
 10
178.7464291243
 20
316.6859202914
 11
178.4165966142
 21
316.6723519185
  0
LINE
  8
DEFAULT_2
 62
8
  6
HIDDEN
 10
207.3085885899
 20
317.732724771
 11
203.1449111574
 21
317.5749651329
  0
LINE
  8
DEFAULT_2
 62
8
  6
HIDDEN
 10
203.1207437143
 20
318.2128053218
 11
206.6598692937
 21
318.3469010051
  0
LINE
  8
DEFAULT_2
 62
8
  6
HIDDEN
 10
235.4291453731
 20
316.3759310498
 11
235.7592023082
 21
316.3699306256
  0
LINE
  8
DEFAULT_2
 62
8
  6
HIDDEN
 10
198.0666403629
 20
317.0557997541
 11
197.5366057952
 21
317.0964163934
  0
LINE
  8
DEFAULT_2
 62
8
  6
HIDDEN
 10
198.1855052795
 20
320.2873232289
 11
198.7155351147
 21
320.2467060044
  0
LINE
  8
DEFAULT_2
 62
8
  6
HIDDEN
 10
187.2253200924
 20
317.9595966715
 11
187.5543491834
 21
317.932886322
  0
LINE
  8
DEFAULT_2
 62
8
  6
HIDDEN
 10
216.9809769406
 20
317.2455653481
 11
214.4904071727
 21
317.4625036601
  0
LINE
  8
DEFAULT_2
 62
8
  6
HIDDEN
 10
214.4420235209
 20
318.1074327705
 11
216.4137230037
 21
317.935690078
  0
LINE
  8
DEFAULT_2
 62
8
  6
HIDDEN
 10
216.5521942696
 20
319.525415495
 11
214.5804947868
 21
319.6971581874
  0
LINE
  8
DEFAULT_2
 62
8
  6
HIDDEN
 10
236.0067009894
 20
315.828236019
 11
235.5786609778
 21
315.8695925253
  0
LINE
  8
DEFAULT_2
 62
8
  6
HIDDEN
 10
239.4935389425
 20
311.3663349922
 11
239.068111476
 21
311.4291036045
  0
LINE
  8
DEFAULT_2
 62
8
  6
HIDDEN
 10
220.1798192076
 20
316.7987235866
 11
219.2525144629
 21
316.9366081776
  0
LINE
  8
DEFAULT_2
 62
8
  6
HIDDEN
 10
219.3463933331
 20
317.5679645979
 11
220.2736980778
 21
317.430080007
  0
LINE
  8
DEFAULT_2
 62
8
  6
HIDDEN
 10
217.9977989421
 20
318.413808043
 11
218.6160021052
 21
318.3218849823
  0
LINE
  8
DEFAULT_2
 62
8
  6
HIDDEN
 10
178.6516097519
 20
317.2195812605
 11
179.2525192642
 21
317.1099098104
  0
LINE
  8
DEFAULT_2
 62
8
  6
HIDDEN
 10
197.5736451525
 20
317.6371685535
 11
197.8969703605
 21
317.5705772978
  0
LINE
  8
DEFAULT_2
 62
8
  6
HIDDEN
 10
198.6785004806
 20
319.7059545035
 11
198.3551752726
 21
319.7725457592
  0
LINE
  8
DEFAULT_2
 62
8
  6
HIDDEN
 10
198.4530203332
 20
321.5003540493
 11
198.1296951252
 21
321.566945305
  0
LINE
  8
DEFAULT_2
 62
8
  6
HIDDEN
 10
226.7247173516
 20
315.5367541294
 11
226.1134898059
 21
315.6672374132
  0
LINE
  8
DEFAULT_2
 62
8
  6
HIDDEN
 10
223.2610949811
 20
316.2761593213
 11
222.6498674354
 21
316.4066426051
  0
LINE
  8
DEFAULT_2
 62
8
  6
HIDDEN
 10
225.9725242111
 20
317.0026909573
 11
223.9350986701
 21
317.4376353196
  0
LINE
  8
DEFAULT_2
 62
8
  6
HIDDEN
 10
224.1258103769
 20
317.8320428148
 11
225.9594930141
 21
317.4405929634
  0
LINE
  8
DEFAULT_2
 62
8
  6
HIDDEN
 10
214.4904071727
 20
317.4625036601
 11
213.9807706801
 21
317.6136807617
  0
LINE
  8
DEFAULT_2
 62
8
  6
HIDDEN
 10
232.8291871063
 20
313.7731725357
 11
232.3338122815
 21
313.9340169859
  0
LINE
  8
DEFAULT_2
 62
8
  6
HIDDEN
 10
236.367429987
 20
312.5313581368
 11
235.8775154452
 21
312.7081382442
  0
LINE
  8
DEFAULT_2
 62
8
  6
HIDDEN
 10
234.1138234314
 20
313.3445465096
 11
233.6239091699
 21
313.5213265158
  0
LINE
  8
DEFAULT_2
 62
8
  6
HIDDEN
 10
219.2525144629
 20
316.9366081776
 11
218.7529924242
 21
317.1184366782
  0
LINE
  8
DEFAULT_2
 62
8
  6
HIDDEN
 10
239.068111476
 20
311.4291036045
 11
238.6837647129
 21
311.5900033192
  0
LINE
  8
DEFAULT_2
 62
8
  6
HIDDEN
 10
237.6268112862
 20
312.0324774628
 11
237.146377798
 21
312.2336021206
  0
LINE
  8
DEFAULT_2
 62
8
  6
HIDDEN
 10
238.8480878011
 20
311.9825276138
 11
239.2324345642
 21
311.8216278991
  0
LINE
  8
DEFAULT_2
 62
8
  6
HIDDEN
 10
218.9499035815
 20
317.7344728131
 11
219.3463933331
 21
317.5679645979
  0
LINE
  8
DEFAULT_2
 62
8
  6
HIDDEN
 10
221.2178145853
 20
320.9464843299
 11
220.8213248336
 21
321.112992545
  0
LINE
  8
DEFAULT_2
 62
8
  6
HIDDEN
 10
214.1399337164
 20
318.2405317391
 11
214.4420235209
 21
318.1074327705
  0
LINE
  8
DEFAULT_2
 62
8
  6
HIDDEN
 10
214.3337934809
 20
320.4661472337
 11
214.6358832854
 21
320.3330482651
  0
LINE
  8
DEFAULT_2
 62
8
  6
HIDDEN
 10
198.4900549674
 20
322.0411055503
 11
199.0466166056
 21
321.7893831261
  0
LINE
  8
DEFAULT_2
 62
8
  6
HIDDEN
 10
213.9855465941
 20
320.0693378042
 11
213.7872289465
 21
320.1933978145
  0
LINE
  8
DEFAULT_2
 62
8
  6
HIDDEN
 10
236.3625244689
 20
315.5867442725
 11
236.0067009894
 21
315.828236019
  0
LINE
  8
DEFAULT_2
 62
8
  6
HIDDEN
 10
236.1511340537
 20
316.2285064992
 11
236.5069575332
 21
315.9870147528
  0
LINE
  8
DEFAULT_2
 62
8
  6
HIDDEN
 10
221.4147257329
 20
321.5625204003
 11
221.795569008
 21
321.2907861274
  0
LINE
  8
DEFAULT_2
 62
8
  6
HIDDEN
 10
238.6837647129
 20
311.5900033192
 11
238.3404988593
 21
311.84903405
  0
LINE
  8
DEFAULT_2
 62
8
  6
HIDDEN
 10
238.5048219582
 20
312.2415583704
 11
238.8480878011
 21
311.9825276138
  0
LINE
  8
0
 62
7
  6
CONTINUOUS
 10
298.5932750947
 20
241.5172506288
 11
298.5932750947
 21
259.0713870982
  0
LINE
  8
0
 62
7
  6
CONTINUOUS
 10
292.7509832745
 20
206.7243391754
 11
299.4686604708
 21
222.9422465704
  0
LINE
  8
0
 62
7
  6
CONTINUOUS
 10
274.0387386619
 20
176.8156286937
 11
286.4513875973
 21
189.2282776291
  0
LINE
  8
0
 62
7
  6
CONTINUOUS
 10
245.3053108723
 20
156.3444492316
 11
261.5232182673
 21
163.0621264279
  0
LINE
  8
DEFAULT_2
 62
8
  6
HIDDEN
 10
187.5543491834
 20
317.932886322
 11
189.4733899351
 21
318.4170113018
  0
LINE
  8
DEFAULT_2
 62
8
  6
HIDDEN
 10
189.0830536653
 20
319.9642795484
 11
187.1640129135
 21
319.4801545686
  0
LINE
  8
DEFAULT_2
 62
8
  6
HIDDEN
 10
187.1349015327
 20
320.0213904483
 11
189.5589549553
 21
320.6329172297
  0
LINE
  8
DEFAULT_2
 62
8
  6
HIDDEN
 10
178.1274832328
 20
317.1308246031
 11
178.6516097519
 21
317.2195812605
  0
LINE
  8
DEFAULT_2
 62
8
  6
HIDDEN
 10
197.6687342489
 20
320.2223869619
 11
198.1855052795
 21
320.2873232289
  0
LINE
  8
DEFAULT_2
 62
8
  6
HIDDEN
 10
196.7623202937
 20
320.7518067316
 11
196.2455539944
 21
320.6868710591
  0
LINE
  8
DEFAULT_2
 62
8
  6
HIDDEN
 10
198.1296951252
 20
321.566945305
 11
197.509571781
 21
321.4890220224
  0
LINE
  8
DEFAULT_2
 62
8
  6
HIDDEN
 10
197.5466064152
 20
322.0297735233
 11
197.9600251321
 21
322.0817227748
  0
LINE
  8
DEFAULT_2
 62
8
  6
HIDDEN
 10
214.3961844705
 20
322.382856929
 11
214.9242837968
 21
322.4436431959
  0
LINE
  8
DEFAULT_2
 62
8
  6
HIDDEN
 10
200.6556471078
 20
322.3716032453
 11
201.2785057213
 21
322.4232672306
  0
LINE
  8
DEFAULT_2
 62
8
  6
HIDDEN
 10
219.4570839551
 20
321.8536098586
 11
219.9878989482
 21
321.8822334827
  0
LINE
  8
DEFAULT_2
 62
8
  6
HIDDEN
 10
207.1394164856
 20
322.1976061673
 11
203.4961981365
 21
322.0595664615
  0
LINE
  8
DEFAULT_2
 62
8
  6
HIDDEN
 10
202.9555995195
 20
322.5713799579
 11
207.119276952
 21
322.729139596
  0
LINE
  8
0
 62
7
  6
CONTINUOUS
 10
205.5033767562
 20
329.1854219061
 11
187.9492402868
 21
329.1854219061
  0
LINE
  8
DEFAULT_2
 62
8
  6
HIDDEN
 10
197.9600251321
 20
322.0817227748
 11
198.4900549674
 21
322.0411055503
  0
LINE
  8
DEFAULT_2
 62
8
  6
HIDDEN
 10
214.6358832854
 20
320.3330482651
 11
216.6075827682
 21
320.1613055727
  0
LINE
  8
DEFAULT_2
 62
8
  6
HIDDEN
 10
216.7368226241
 20
321.6450493842
 11
214.7651231413
 21
321.8167920766
  0
LINE
  8
DEFAULT_2
 62
8
  6
HIDDEN
 10
214.9242837968
 20
322.4436431959
 11
217.4148535647
 21
322.2267048839
  0
LINE
  8
DEFAULT_2
 62
8
  6
HIDDEN
 10
218.9758710877
 20
320.7420844586
 11
218.3576679246
 21
320.8340075193
  0
LINE
  8
DEFAULT_2
 62
8
  6
HIDDEN
 10
220.8213248336
 20
321.112992545
 11
219.8940200889
 21
321.250877136
  0
LINE
  8
DEFAULT_2
 62
8
  6
HIDDEN
 10
219.9878989482
 20
321.8822334827
 11
220.9152036929
 21
321.7443488917
  0
LINE
  8
DEFAULT_2
 62
8
  6
HIDDEN
 10
225.3236734391
 20
320.9485076304
 11
226.1386438887
 21
320.7745298357
  0
LINE
  8
DEFAULT_2
 62
8
  6
HIDDEN
 10
233.3851193538
 20
317.1718722921
 11
233.8804941785
 21
317.0110278419
  0
LINE
  8
DEFAULT_2
 62
8
  6
HIDDEN
 10
234.2090277019
 20
318.0228578199
 11
233.7136528772
 21
318.1837022702
  0
LINE
  8
DEFAULT_2
 62
8
  6
HIDDEN
 10
233.8779195928
 20
318.6896171175
 11
234.3732944175
 21
318.5287726672
  0
LINE
  8
DEFAULT_2
 62
8
  6
HIDDEN
 10
235.7592023082
 20
316.3699306256
 11
236.1511340537
 21
316.2285064992
  0
LINE
  8
DEFAULT_2
 62
8
  6
HIDDEN
 10
237.0329800606
 20
315.9103023666
 11
237.5228946024
 21
315.7335222591
  0
LINE
  8
DEFAULT_2
 62
8
  6
HIDDEN
 10
220.9152036929
 20
321.7443488917
 11
221.4147257329
 21
321.5625204003
  0
LINE
  8
0
 62
7
  6
CONTINUOUS
 10
240.2962882096
 20
323.3431300859
 11
224.0783808146
 21
330.0608072822
  0
LINE
  8
DEFAULT_2
 62
8
  6
HIDDEN
 10
238.6531359532
 20
315.2933465911
 11
239.1335694414
 21
315.0922219333
  0
LINE
  8
DEFAULT_2
 62
8
  6
HIDDEN
 10
241.0553029477
 20
314.2877234892
 11
241.5357363328
 21
314.0865988745
  0
LINE
  8
0
 62
7
  6
CONTINUOUS
 10
270.2049986912
 20
304.6308854733
 11
257.7923497558
 21
317.0435344087
  0
LINE
  8
0
 62
7
  6
CONTINUOUS
 10
290.6761781534
 20
275.8974576836
 11
283.9585009571
 21
292.1153650786
  0
LINE
  8
0
 62
7
  6
CONTINUOUS
 10
426.1126792322
 20
132.6684826475
 11
432.5626792322
 21
132.6684826475
  0
LINE
  8
0
 62
7
  6
CONTINUOUS
 10
442.8626792322
 20
132.6684826475
 11
449.3126792322
 21
132.6684826475
  0
LINE
  8
DEFAULT_2
 62
8
  6
HIDDEN
 10
426.1126792322
 20
132.8071713711
 11
432.5626792322
 21
132.8071713711
  0
LINE
  8
DEFAULT_2
 62
8
  6
HIDDEN
 10
442.8626792322
 20
132.8071713711
 11
449.3126792322
 21
132.8071713711
  0
LINE
  8
0
 62
9
  6
CONTINUOUS
 10
426.1126792322
 20
133.6248632602
 11
432.5626792322
 21
133.6248632602
  0
LINE
  8
0
 62
9
  6
CONTINUOUS
 10
442.8626792322
 20
133.6248632602
 11
449.3126792322
 21
133.6248632602
  0
LINE
  8
DEFAULT_2
 62
8
  6
HIDDEN
 10
426.1126792322
 20
137.4273522902
 11
432.5626792322
 21
137.4273522902
  0
LINE
  8
DEFAULT_2
 62
8
  6
HIDDEN
 10
442.8626792322
 20
137.4273522902
 11
449.3126792322
 21
137.4273522902
  0
LINE
  8
DEFAULT_2
 62
8
  6
HIDDEN
 10
426.1126792322
 20
137.8260373249
 11
432.5626792322
 21
137.8260373249
  0
LINE
  8
DEFAULT_2
 62
8
  6
HIDDEN
 10
442.8626792322
 20
137.8260373249
 11
449.3126792322
 21
137.8260373249
  0
LINE
  8
DEFAULT_2
 62
8
  6
HIDDEN
 10
426.1126792322
 20
138.0047340285
 11
432.5626792322
 21
138.0047340285
  0
LINE
  8
DEFAULT_2
 62
8
  6
HIDDEN
 10
442.8626792322
 20
138.0047340285
 11
449.3126792322
 21
138.0047340285
  0
LINE
  8
0
 62
9
  6
CONTINUOUS
 10
426.1126792322
 20
138.7493654627
 11
432.5626792322
 21
138.7493654627
  0
LINE
  8
0
 62
9
  6
CONTINUOUS
 10
442.8626792322
 20
138.7493654627
 11
449.3126792322
 21
138.7493654627
  0
LINE
  8
DEFAULT_2
 62
8
  6
HIDDEN
 10
426.1126792322
 20
142.6535349076
 11
432.5626792322
 21
142.6535349076
  0
LINE
  8
DEFAULT_2
 62
8
  6
HIDDEN
 10
442.8626792322
 20
142.6535349076
 11
449.3126792322
 21
142.6535349076
  0
LINE
  8
0
 62
7
  6
CONTINUOUS
 10
426.1126792322
 20
143.91590588
 11
432.5626792322
 21
143.91590588
  0
LINE
  8
0
 62
7
  6
CONTINUOUS
 10
442.8626792322
 20
143.91590588
 11
449.3126792322
 21
143.91590588
  0
LINE
  8
DEFAULT_2
 62
8
  6
HIDDEN
 10
426.1126792322
 20
143.9257251266
 11
432.5626792322
 21
143.9257251266
  0
LINE
  8
DEFAULT_2
 62
8
  6
HIDDEN
 10
442.8626792322
 20
143.9257251266
 11
449.3126792322
 21
143.9257251266
  0
LINE
  8
0
 62
9
  6
CONTINUOUS
 10
426.1126792322
 20
145.2579260233
 11
432.5626792322
 21
145.2579260233
  0
LINE
  8
0
 62
9
  6
CONTINUOUS
 10
442.8626792322
 20
145.2579260233
 11
449.3126792322
 21
145.2579260233
  0
LINE
  8
DEFAULT_2
 62
8
  6
HIDDEN
 10
426.1126792322
 20
147.107124409
 11
432.5626792322
 21
147.107124409
  0
LINE
  8
DEFAULT_2
 62
8
  6
HIDDEN
 10
442.8626792322
 20
147.107124409
 11
449.3126792322
 21
147.107124409
  0
LINE
  8
DEFAULT_2
 62
8
  6
HIDDEN
 10
426.1126792322
 20
147.5519669141
 11
432.5626792322
 21
147.5519669141
  0
LINE
  8
DEFAULT_2
 62
8
  6
HIDDEN
 10
442.8626792322
 20
147.5519669141
 11
449.3126792322
 21
147.5519669141
  0
LINE
  8
DEFAULT_2
 62
8
  6
HIDDEN
 10
449.3126792322
 20
148.4273522902
 11
442.8626792322
 21
148.4273522902
  0
LINE
  8
DEFAULT_2
 62
8
  6
HIDDEN
 10
432.5626792322
 20
148.4273522902
 11
426.1126792322
 21
148.4273522902
  0
LINE
  8
DEFAULT_2
 62
8
  6
HIDDEN
 10
449.3126792322
 20
148.6273522902
 11
442.8626792322
 21
148.6273522902
  0
LINE
  8
DEFAULT_2
 62
8
  6
HIDDEN
 10
432.5626792322
 20
148.6273522902
 11
426.1126792322
 21
148.6273522902
  0
LINE
  8
DEFAULT_2
 62
8
  6
HIDDEN
 10
426.1126792322
 20
149.4273522902
 11
432.5626792322
 21
149.4273522902
  0
LINE
  8
DEFAULT_2
 62
8
  6
HIDDEN
 10
442.8626792322
 20
149.4273522902
 11
449.3126792322
 21
149.4273522902
  0
LINE
  8
0
 62
9
  6
CONTINUOUS
 10
426.1126792322
 20
150.0779705425
 11
432.5626792322
 21
150.0779705425
  0
LINE
  8
0
 62
9
  6
CONTINUOUS
 10
442.8626792322
 20
150.0779705425
 11
449.3126792322
 21
150.0779705425
  0
LINE
  8
0
 62
7
  6
CONTINUOUS
 10
442.8626792322
 20
150.9023522902
 11
432.5626792322
 21
150.9023522902
  0
LINE
  8
0
 62
7
  6
CONTINUOUS
 10
423.1126792322
 20
150.9023522902
 11
426.1126792322
 21
150.9023522902
  0
LINE
  8
0
 62
7
  6
CONTINUOUS
 10
449.3126792322
 20
150.9023522902
 11
452.3126792322
 21
150.9023522902
  0
LINE
  8
DEFAULT_2
 62
8
  6
HIDDEN
 10
426.1126792322
 20
153.603858335
 11
432.5626792322
 21
153.603858335
  0
LINE
  8
DEFAULT_2
 62
8
  6
HIDDEN
 10
442.8626792322
 20
153.603858335
 11
449.3126792322
 21
153.603858335
  0
LINE
  8
DEFAULT_2
 62
8
  6
HIDDEN
 10
449.3126792322
 20
154.2696441104
 11
442.8626792322
 21
154.2696441104
  0
LINE
  8
DEFAULT_2
 62
8
  6
HIDDEN
 10
432.5626792322
 20
154.2696441104
 11
426.1126792322
 21
154.2696441104
  0
LINE
  8
DEFAULT_2
 62
8
  6
HIDDEN
 10
426.1126792322
 20
154.5707719716
 11
432.5626792322
 21
154.5707719716
  0
LINE
  8
DEFAULT_2
 62
8
  6
HIDDEN
 10
442.8626792322
 20
154.5707719716
 11
449.3126792322
 21
154.5707719716
  0
LINE
  8
DEFAULT_2
 62
8
  6
HIDDEN
 10
449.3126792322
 20
154.6074933899
 11
442.8626792322
 21
154.6074933899
  0
LINE
  8
DEFAULT_2
 62
8
  6
HIDDEN
 10
432.5626792322
 20
154.6074933899
 11
426.1126792322
 21
154.6074933899
  0
LINE
  8
DEFAULT_2
 62
8
  6
HIDDEN
 10
426.1126792322
 20
156.1111314427
 11
432.5626792322
 21
156.1111314427
  0
LINE
  8
DEFAULT_2
 62
8
  6
HIDDEN
 10
442.8626792322
 20
156.1111314427
 11
449.3126792322
 21
156.1111314427
  0
LINE
  8
DEFAULT_2
 62
8
  6
HIDDEN
 10
449.3126792322
 20
156.3063889978
 11
442.8626792322
 21
156.3063889978
  0
LINE
  8
DEFAULT_2
 62
8
  6
HIDDEN
 10
432.5626792322
 20
156.3063889978
 11
426.1126792322
 21
156.3063889978
  0
LINE
  8
DEFAULT_2
 62
8
  6
HIDDEN
 10
449.3126792322
 20
156.3444492316
 11
442.8626792322
 21
156.3444492316
  0
LINE
  8
DEFAULT_2
 62
8
  6
HIDDEN
 10
432.5626792322
 20
156.3444492316
 11
426.1126792322
 21
156.3444492316
  0
LINE
  8
DEFAULT_2
 62
8
  6
HIDDEN
 10
449.3126792322
 20
156.3761517651
 11
442.8626792322
 21
156.3761517651
  0
LINE
  8
DEFAULT_2
 62
8
  6
HIDDEN
 10
432.5626792322
 20
156.3761517651
 11
426.1126792322
 21
156.3761517651
  0
LINE
  8
DEFAULT_2
 62
8
  6
HIDDEN
 10
426.1126792322
 20
156.6552028343
 11
432.5626792322
 21
156.6552028343
  0
LINE
  8
DEFAULT_2
 62
8
  6
HIDDEN
 10
442.8626792322
 20
156.6552028343
 11
449.3126792322
 21
156.6552028343
  0
LINE
  8
DEFAULT_2
 62
8
  6
HIDDEN
 10
426.1126792322
 20
157.4680200442
 11
432.5626792322
 21
157.4680200442
  0
LINE
  8
DEFAULT_2
 62
8
  6
HIDDEN
 10
442.8626792322
 20
157.4680200442
 11
449.3126792322
 21
157.4680200442
  0
LINE
  8
DEFAULT_2
 62
8
  6
HIDDEN
 10
426.1126792322
 20
157.7307427074
 11
432.5626792322
 21
157.7307427074
  0
LINE
  8
DEFAULT_2
 62
8
  6
HIDDEN
 10
442.8626792322
 20
157.7307427074
 11
449.3126792322
 21
157.7307427074
  0
LINE
  8
DEFAULT_2
 62
8
  6
HIDDEN
 10
426.1126792322
 20
158.2182461424
 11
432.5626792322
 21
158.2182461424
  0
LINE
  8
DEFAULT_2
 62
8
  6
HIDDEN
 10
442.8626792322
 20
158.2182461424
 11
449.3126792322
 21
158.2182461424
  0
LINE
  8
0
 62
9
  6
CONTINUOUS
 10
426.1126792322
 20
160.5692397876
 11
432.5626792322
 21
160.5692397876
  0
LINE
  8
0
 62
9
  6
CONTINUOUS
 10
442.8626792322
 20
160.5692397876
 11
449.3126792322
 21
160.5692397876
  0
LINE
  8
DEFAULT_2
 62
8
  6
HIDDEN
 10
426.1126792322
 20
161.1961044709
 11
432.5626792322
 21
161.1961044709
  0
LINE
  8
DEFAULT_2
 62
8
  6
HIDDEN
 10
442.8626792322
 20
161.1961044709
 11
449.3126792322
 21
161.1961044709
  0
LINE
  8
DEFAULT_2
 62
8
  6
HIDDEN
 10
426.1126792322
 20
163.0621264279
 11
432.5626792322
 21
163.0621264279
  0
LINE
  8
DEFAULT_2
 62
8
  6
HIDDEN
 10
442.8626792322
 20
163.0621264279
 11
449.3126792322
 21
163.0621264279
  0
LINE
  8
DEFAULT_2
 62
8
  6
HIDDEN
 10
426.1126792322
 20
163.8233311028
 11
432.5626792322
 21
163.8233311028
  0
LINE
  8
DEFAULT_2
 62
8
  6
HIDDEN
 10
442.8626792322
 20
163.8233311028
 11
449.3126792322
 21
163.8233311028
  0
LINE
  8
0
 62
7
  6
CONTINUOUS
 10
426.1126792322
 20
169.0452581856
 11
432.5626792322
 21
169.0452581856
  0
LINE
  8
0
 62
7
  6
CONTINUOUS
 10
442.8626792322
 20
169.0452581856
 11
449.3126792322
 21
169.0452581856
  0
LINE
  8
0
 62
9
  6
CONTINUOUS
 10
426.1126792322
 20
169.4889995718
 11
432.5626792322
 21
169.4889995718
  0
LINE
  8
0
 62
9
  6
CONTINUOUS
 10
442.8626792322
 20
169.4889995718
 11
449.3126792322
 21
169.4889995718
  0
LINE
  8
0
 62
9
  6
CONTINUOUS
 10
426.1126792322
 20
171.1328939661
 11
432.5626792322
 21
171.1328939661
  0
LINE
  8
0
 62
9
  6
CONTINUOUS
 10
442.8626792322
 20
171.1328939661
 11
449.3126792322
 21
171.1328939661
  0
LINE
  8
DEFAULT_2
 62
8
  6
HIDDEN
 10
449.3126792322
 20
172.981888723
 11
442.8626792322
 21
172.981888723
  0
LINE
  8
DEFAULT_2
 62
8
  6
HIDDEN
 10
432.5626792322
 20
172.981888723
 11
426.1126792322
 21
172.981888723
  0
LINE
  8
DEFAULT_2
 62
8
  6
HIDDEN
 10
426.1126792322
 20
173.0719049024
 11
432.5626792322
 21
173.0719049024
  0
LINE
  8
DEFAULT_2
 62
8
  6
HIDDEN
 10
442.8626792322
 20
173.0719049024
 11
449.3126792322
 21
173.0719049024
  0
LINE
  8
DEFAULT_2
 62
8
  6
HIDDEN
 10
449.3126792322
 20
173.4061527917
 11
442.8626792322
 21
173.4061527917
  0
LINE
  8
DEFAULT_2
 62
8
  6
HIDDEN
 10
432.5626792322
 20
173.4061527917
 11
426.1126792322
 21
173.4061527917
  0
LINE
  8
DEFAULT_2
 62
8
  6
HIDDEN
 10
426.1126792322
 20
174.8585283394
 11
432.5626792322
 21
174.8585283394
  0
LINE
  8
DEFAULT_2
 62
8
  6
HIDDEN
 10
442.8626792322
 20
174.8585283394
 11
449.3126792322
 21
174.8585283394
  0
LINE
  8
0
 62
9
  6
CONTINUOUS
 10
426.1126792322
 20
174.9146727179
 11
432.5626792322
 21
174.9146727179
  0
LINE
  8
0
 62
9
  6
CONTINUOUS
 10
442.8626792322
 20
174.9146727179
 11
449.3126792322
 21
174.9146727179
  0
LINE
  8
DEFAULT_2
 62
8
  6
HIDDEN
 10
426.1126792322
 20
175.6889955042
 11
432.5626792322
 21
175.6889955042
  0
LINE
  8
DEFAULT_2
 62
8
  6
HIDDEN
 10
442.8626792322
 20
175.6889955042
 11
449.3126792322
 21
175.6889955042
  0
LINE
  8
DEFAULT_2
 62
8
  6
HIDDEN
 10
449.3126792322
 20
176.6691820843
 11
442.8626792322
 21
176.6691820843
  0
LINE
  8
DEFAULT_2
 62
8
  6
HIDDEN
 10
432.5626792322
 20
176.6691820843
 11
426.1126792322
 21
176.6691820843
  0
LINE
  8
DEFAULT_2
 62
8
  6
HIDDEN
 10
449.3126792322
 20
176.6742073375
 11
442.8626792322
 21
176.6742073375
  0
LINE
  8
DEFAULT_2
 62
8
  6
HIDDEN
 10
432.5626792322
 20
176.6742073375
 11
426.1126792322
 21
176.6742073375
  0
LINE
  8
DEFAULT_2
 62
8
  6
HIDDEN
 10
426.1126792322
 20
176.6943083502
 11
432.5626792322
 21
176.6943083502
  0
LINE
  8
DEFAULT_2
 62
8
  6
HIDDEN
 10
442.8626792322
 20
176.6943083502
 11
449.3126792322
 21
176.6943083502
  0
LINE
  8
DEFAULT_2
 62
8
  6
HIDDEN
 10
449.3126792322
 20
176.8156286937
 11
442.8626792322
 21
176.8156286937
  0
LINE
  8
DEFAULT_2
 62
8
  6
HIDDEN
 10
432.5626792322
 20
176.8156286937
 11
426.1126792322
 21
176.8156286937
  0
LINE
  8
0
 62
9
  6
CONTINUOUS
 10
426.1126792322
 20
185.4974091177
 11
432.5626792322
 21
185.4974091177
  0
LINE
  8
0
 62
9
  6
CONTINUOUS
 10
442.8626792322
 20
185.4974091177
 11
449.3126792322
 21
185.4974091177
  0
LINE
  8
DEFAULT_2
 62
8
  6
HIDDEN
 10
426.1126792322
 20
189.2282776291
 11
432.5626792322
 21
189.2282776291
  0
LINE
  8
DEFAULT_2
 62
8
  6
HIDDEN
 10
442.8626792322
 20
189.2282776291
 11
449.3126792322
 21
189.2282776291
  0
LINE
  8
DEFAULT_2
 62
8
  6
HIDDEN
 10
426.1126792322
 20
189.7394759131
 11
432.5626792322
 21
189.7394759131
  0
LINE
  8
DEFAULT_2
 62
8
  6
HIDDEN
 10
442.8626792322
 20
189.7394759131
 11
449.3126792322
 21
189.7394759131
  0
LINE
  8
DEFAULT_2
 62
8
  6
HIDDEN
 10
426.1126792322
 20
189.7997832923
 11
432.5626792322
 21
189.7997832923
  0
LINE
  8
DEFAULT_2
 62
8
  6
HIDDEN
 10
442.8626792322
 20
189.7997832923
 11
449.3126792322
 21
189.7997832923
  0
LINE
  8
DEFAULT_2
 62
8
  6
HIDDEN
 10
426.1126792322
 20
190.8792688872
 11
432.5626792322
 21
190.8792688872
  0
LINE
  8
DEFAULT_2
 62
8
  6
HIDDEN
 10
442.8626792322
 20
190.8792688872
 11
449.3126792322
 21
190.8792688872
  0
LINE
  8
DEFAULT_2
 62
8
  6
HIDDEN
 10
426.1126792322
 20
191.5541360251
 11
432.5626792322
 21
191.5541360251
  0
LINE
  8
DEFAULT_2
 62
8
  6
HIDDEN
 10
442.8626792322
 20
191.5541360251
 11
449.3126792322
 21
191.5541360251
  0
LINE
  8
DEFAULT_2
 62
8
  6
HIDDEN
 10
426.1126792322
 20
192.1572098173
 11
432.5626792322
 21
192.1572098173
  0
LINE
  8
DEFAULT_2
 62
8
  6
HIDDEN
 10
442.8626792322
 20
192.1572098173
 11
449.3126792322
 21
192.1572098173
  0
LINE
  8
0
 62
9
  6
CONTINUOUS
 10
449.3126792322
 20
201.7153165127
 11
442.8626792322
 21
201.7153165127
  0
LINE
  8
0
 62
9
  6
CONTINUOUS
 10
432.5626792322
 20
201.7153165127
 11
426.1126792322
 21
201.7153165127
  0
LINE
  8
0
 62
9
  6
CONTINUOUS
 10
449.3126792322
 20
202.1614050122
 11
442.8626792322
 21
202.1614050122
  0
LINE
  8
0
 62
9
  6
CONTINUOUS
 10
432.5626792322
 20
202.1614050122
 11
426.1126792322
 21
202.1614050122
  0
LINE
  8
DEFAULT_2
 62
8
  6
HIDDEN
 10
426.1126792322
 20
202.5474304994
 11
432.5626792322
 21
202.5474304994
  0
LINE
  8
DEFAULT_2
 62
8
  6
HIDDEN
 10
442.8626792322
 20
202.5474304994
 11
449.3126792322
 21
202.5474304994
  0
LINE
  8
0
 62
7
  6
CONTINUOUS
 10
426.1126792322
 20
202.7913870982
 11
432.5626792322
 21
202.7913870982
  0
LINE
  8
0
 62
7
  6
CONTINUOUS
 10
442.8626792322
 20
202.7913870982
 11
449.3126792322
 21
202.7913870982
  0
LINE
  8
DEFAULT_2
 62
8
  6
HIDDEN
 10
426.1126792322
 20
204.8817665144
 11
432.5626792322
 21
204.8817665144
  0
LINE
  8
DEFAULT_2
 62
8
  6
HIDDEN
 10
442.8626792322
 20
204.8817665144
 11
449.3126792322
 21
204.8817665144
  0
LINE
  8
DEFAULT_2
 62
8
  6
HIDDEN
 10
426.1126792322
 20
205.1803921453
 11
432.5626792322
 21
205.1803921453
  0
LINE
  8
DEFAULT_2
 62
8
  6
HIDDEN
 10
442.8626792322
 20
205.1803921453
 11
449.3126792322
 21
205.1803921453
  0
LINE
  8
0
 62
9
  6
CONTINUOUS
 10
426.1126792322
 20
205.6052179043
 11
432.5626792322
 21
205.6052179043
  0
LINE
  8
0
 62
9
  6
CONTINUOUS
 10
442.8626792322
 20
205.6052179043
 11
449.3126792322
 21
205.6052179043
  0
LINE
  8
DEFAULT_2
 62
8
  6
HIDDEN
 10
449.3126792322
 20
206.4313240488
 11
442.8626792322
 21
206.4313240488
  0
LINE
  8
DEFAULT_2
 62
8
  6
HIDDEN
 10
432.5626792322
 20
206.4313240488
 11
426.1126792322
 21
206.4313240488
  0
LINE
  8
DEFAULT_2
 62
8
  6
HIDDEN
 10
449.3126792322
 20
206.7243391754
 11
442.8626792322
 21
206.7243391754
  0
LINE
  8
DEFAULT_2
 62
8
  6
HIDDEN
 10
432.5626792322
 20
206.7243391754
 11
426.1126792322
 21
206.7243391754
  0
LINE
  8
0
 62
9
  6
CONTINUOUS
 10
426.1126792322
 20
207.3105377766
 11
432.5626792322
 21
207.3105377766
  0
LINE
  8
0
 62
9
  6
CONTINUOUS
 10
442.8626792322
 20
207.3105377766
 11
449.3126792322
 21
207.3105377766
  0
LINE
  8
0
 62
9
  6
CONTINUOUS
 10
426.1126792322
 20
209.4783092278
 11
432.5626792322
 21
209.4783092278
  0
LINE
  8
0
 62
9
  6
CONTINUOUS
 10
442.8626792322
 20
209.4783092278
 11
449.3126792322
 21
209.4783092278
  0
LINE
  8
0
 62
7
  6
CONTINUOUS
 10
421.1126792322
 20
324.7104219061
 11
421.1126792322
 21
152.9023522902
  0
LINE
  8
DEFAULT_2
 62
8
  6
HIDDEN
 10
421.3126792322
 20
311.3663349922
 11
421.3126792322
 21
322.729139596
  0
LINE
  8
0
 62
9
  6
CONTINUOUS
 10
423.1126792322
 20
326.7104219061
 11
423.1126792322
 21
150.9023522902
  0
LINE
  8
0
 62
9
  6
CONTINUOUS
 10
426.1126792322
 20
218.5413870982
 11
432.5626792322
 21
218.5413870982
  0
LINE
  8
0
 62
9
  6
CONTINUOUS
 10
442.8626792322
 20
218.5413870982
 11
449.3126792322
 21
218.5413870982
  0
LINE
  8
DEFAULT_2
 62
8
  6
HIDDEN
 10
426.1126792322
 20
222.9422465704
 11
432.5626792322
 21
222.9422465704
  0
LINE
  8
DEFAULT_2
 62
8
  6
HIDDEN
 10
442.8626792322
 20
222.9422465704
 11
449.3126792322
 21
222.9422465704
  0
LINE
  8
0
 62
7
  6
CONTINUOUS
 10
426.1126792322
 20
132.6684923568
 11
426.1126792322
 21
344.9442818395
  0
LINE
  8
DEFAULT_2
 62
8
  6
HIDDEN
 10
426.1126792322
 20
229.1058944625
 11
432.5626792322
 21
229.1058944625
  0
LINE
  8
DEFAULT_2
 62
8
  6
HIDDEN
 10
442.8626792322
 20
229.1058944625
 11
449.3126792322
 21
229.1058944625
  0
LINE
  8
DEFAULT_2
 62
8
  6
HIDDEN
 10
426.1126792322
 20
229.3296350606
 11
432.5626792322
 21
229.3296350606
  0
LINE
  8
DEFAULT_2
 62
8
  6
HIDDEN
 10
442.8626792322
 20
229.3296350606
 11
449.3126792322
 21
229.3296350606
  0
LINE
  8
DEFAULT_2
 62
8
  6
HIDDEN
 10
426.1126792322
 20
230.8367609191
 11
432.5626792322
 21
230.8367609191
  0
LINE
  8
DEFAULT_2
 62
8
  6
HIDDEN
 10
442.8626792322
 20
230.8367609191
 11
449.3126792322
 21
230.8367609191
  0
LINE
  8
0
 62
7
  6
CONTINUOUS
 10
432.5626792322
 20
132.6684841264
 11
432.5626792322
 21
300.9435918737
  0
LINE
  8
DEFAULT_2
 62
8
  6
HIDDEN
 10
432.5626792322
 20
300.9435918737
 11
432.5626792322
 21
300.9603095542
  0
LINE
  8
0
 62
7
  6
CONTINUOUS
 10
432.5626792322
 20
300.9603095542
 11
432.5626792322
 21
344.9442900699
  0
LINE
  8
PITCH_DIAMETER
 62
40
  6
CONTINUOUS
 10
437.7126792322
 20
342.5733924975
 11
437.7126792322
 21
135.0554364408
  0
LINE
  8
0
 62
40
  6
CONTINUOUS
 10
437.7126792322
 20
238.8063870982
 11
437.7126792322
 21
148.5512136164
  0
LINE
  8
DEFAULT_2
 62
8
  6
HIDDEN
 10
437.7126792322
 20
324.5073611567
 11
437.7126792322
 21
326.711067605
  0
LINE
  8
0
 62
40
  6
CONTINUOUS
 10
437.7126792322
 20
326.7110676536
 11
437.7126792322
 21
329.164329397
  0
LINE
  8
0
 62
40
  6
CONTINUOUS
 10
437.7126792322
 20
343.0883195109
 11
437.7126792322
 21
345.28553392
  0
LINE
  8
0
 62
9
  6
CONTINUOUS
 10
449.3126792322
 20
236.0955235676
 11
442.8626792322
 21
236.0955235676
  0
LINE
  8
0
 62
9
  6
CONTINUOUS
 10
432.5626792322
 20
236.0955235676
 11
426.1126792322
 21
236.0955235676
  0
LINE
  8
0
 62
9
  6
CONTINUOUS
 10
449.3126792322
 20
236.4955235676
 11
442.8626792322
 21
236.4955235676
  0
LINE
  8
0
 62
9
  6
CONTINUOUS
 10
432.5626792322
 20
236.4955235676
 11
426.1126792322
 21
236.4955235676
  0
LINE
  8
DEFAULT_2
 62
8
  6
HIDDEN
 10
426.1126792322
 20
237.5172506288
 11
432.5626792322
 21
237.5172506288
  0
LINE
  8
DEFAULT_2
 62
8
  6
HIDDEN
 10
442.8626792322
 20
237.5172506288
 11
449.3126792322
 21
237.5172506288
  0
LINE
  8
DEFAULT_2
 62
8
  6
HIDDEN
 10
426.1126792322
 20
237.5430535504
 11
432.5626792322
 21
237.5430535504
  0
LINE
  8
DEFAULT_2
 62
8
  6
HIDDEN
 10
442.8626792322
 20
237.5430535504
 11
449.3126792322
 21
237.5430535504
  0
LINE
  8
DEFAULT_2
 62
8
  6
HIDDEN
 10
426.1126792322
 20
237.7236740021
 11
432.5626792322
 21
237.7236740021
  0
LINE
  8
DEFAULT_2
 62
8
  6
HIDDEN
 10
442.8626792322
 20
237.7236740021
 11
449.3126792322
 21
237.7236740021
  0
LINE
  8
DEFAULT_1
 62
2
  6
CENTER
 10
418.0278892229
 20
238.8063870982
 11
456.3126792322
 21
238.8063870982
  0
LINE
  8
0
 62
7
  6
CONTINUOUS
 10
426.1126792322
 20
239.8891001943
 11
432.5626792322
 21
239.8891001943
  0
LINE
  8
0
 62
7
  6
CONTINUOUS
 10
442.8626792322
 20
239.8891001943
 11
449.3126792322
 21
239.8891001943
  0
LINE
  8
0
 62
7
  6
CONTINUOUS
 10
442.8626792322
 20
132.6684841264
 11
442.8626792322
 21
344.9442900699
  0
LINE
  8
DEFAULT_2
 62
8
  6
HIDDEN
 10
426.1126792322
 20
240.0697206459
 11
432.5626792322
 21
240.0697206459
  0
LINE
  8
DEFAULT_2
 62
8
  6
HIDDEN
 10
442.8626792322
 20
240.0697206459
 11
449.3126792322
 21
240.0697206459
  0
LINE
  8
DEFAULT_2
 62
8
  6
HIDDEN
 10
426.1126792322
 20
240.0955235676
 11
432.5626792322
 21
240.0955235676
  0
LINE
  8
DEFAULT_2
 62
8
  6
HIDDEN
 10
442.8626792322
 20
240.0955235676
 11
449.3126792322
 21
240.0955235676
  0
LINE
  8
DEFAULT_2
 62
8
  6
HIDDEN
 10
449.3126792322
 20
241.1172506288
 11
442.8626792322
 21
241.1172506288
  0
LINE
  8
DEFAULT_2
 62
8
  6
HIDDEN
 10
432.5626792322
 20
241.1172506288
 11
426.1126792322
 21
241.1172506288
  0
LINE
  8
DEFAULT_2
 62
8
  6
HIDDEN
 10
449.3126792322
 20
241.5172506288
 11
442.8626792322
 21
241.5172506288
  0
LINE
  8
DEFAULT_2
 62
8
  6
HIDDEN
 10
432.5626792322
 20
241.5172506288
 11
426.1126792322
 21
241.5172506288
  0
LINE
  8
0
 62
9
  6
CONTINUOUS
 10
426.1126792322
 20
246.7760132772
 11
432.5626792322
 21
246.7760132772
  0
LINE
  8
0
 62
9
  6
CONTINUOUS
 10
442.8626792322
 20
246.7760132772
 11
449.3126792322
 21
246.7760132772
  0
LINE
  8
0
 62
7
  6
CONTINUOUS
 10
449.3126792322
 20
344.9442818395
 11
449.3126792322
 21
132.6684923568
  0
LINE
  8
0
 62
9
  6
CONTINUOUS
 10
452.3126792322
 20
326.7104219061
 11
452.3126792322
 21
150.9023522902
  0
LINE
  8
0
 62
9
  6
CONTINUOUS
 10
426.1126792322
 20
248.2831391357
 11
432.5626792322
 21
248.2831391357
  0
LINE
  8
0
 62
9
  6
CONTINUOUS
 10
442.8626792322
 20
248.2831391357
 11
449.3126792322
 21
248.2831391357
  0
LINE
  8
0
 62
9
  6
CONTINUOUS
 10
426.1126792322
 20
248.5068797338
 11
432.5626792322
 21
248.5068797338
  0
LINE
  8
0
 62
9
  6
CONTINUOUS
 10
442.8626792322
 20
248.5068797338
 11
449.3126792322
 21
248.5068797338
  0
LINE
  8
0
 62
7
  6
CONTINUOUS
 10
454.3126792322
 20
324.7104219061
 11
454.3126792322
 21
152.9023522902
  0
LINE
  8
0
 62
9
  6
CONTINUOUS
 10
426.1126792322
 20
254.670527626
 11
432.5626792322
 21
254.670527626
  0
LINE
  8
0
 62
9
  6
CONTINUOUS
 10
442.8626792322
 20
254.670527626
 11
449.3126792322
 21
254.670527626
  0
LINE
  8
DEFAULT_2
 62
8
  6
HIDDEN
 10
426.1126792322
 20
259.0713870982
 11
432.5626792322
 21
259.0713870982
  0
LINE
  8
DEFAULT_2
 62
8
  6
HIDDEN
 10
442.8626792322
 20
259.0713870982
 11
449.3126792322
 21
259.0713870982
  0
LINE
  8
DEFAULT_2
 62
8
  6
HIDDEN
 10
426.1126792322
 20
268.1344649685
 11
432.5626792322
 21
268.1344649685
  0
LINE
  8
DEFAULT_2
 62
8
  6
HIDDEN
 10
442.8626792322
 20
268.1344649685
 11
449.3126792322
 21
268.1344649685
  0
LINE
  8
DEFAULT_2
 62
8
  6
HIDDEN
 10
426.1126792322
 20
270.3022364197
 11
432.5626792322
 21
270.3022364197
  0
LINE
  8
DEFAULT_2
 62
8
  6
HIDDEN
 10
442.8626792322
 20
270.3022364197
 11
449.3126792322
 21
270.3022364197
  0
LINE
  8
0
 62
9
  6
CONTINUOUS
 10
449.3126792322
 20
270.888435021
 11
442.8626792322
 21
270.888435021
  0
LINE
  8
0
 62
9
  6
CONTINUOUS
 10
432.5626792322
 20
270.888435021
 11
426.1126792322
 21
270.888435021
  0
LINE
  8
0
 62
9
  6
CONTINUOUS
 10
449.3126792322
 20
271.1814501475
 11
442.8626792322
 21
271.1814501475
  0
LINE
  8
0
 62
9
  6
CONTINUOUS
 10
432.5626792322
 20
271.1814501475
 11
426.1126792322
 21
271.1814501475
  0
LINE
  8
DEFAULT_2
 62
8
  6
HIDDEN
 10
426.1126792322
 20
272.007556292
 11
432.5626792322
 21
272.007556292
  0
LINE
  8
DEFAULT_2
 62
8
  6
HIDDEN
 10
442.8626792322
 20
272.007556292
 11
449.3126792322
 21
272.007556292
  0
LINE
  8
DEFAULT_2
 62
8
  6
HIDDEN
 10
426.1126792322
 20
272.432382051
 11
432.5626792322
 21
272.432382051
  0
LINE
  8
DEFAULT_2
 62
8
  6
HIDDEN
 10
442.8626792322
 20
272.432382051
 11
449.3126792322
 21
272.432382051
  0
LINE
  8
DEFAULT_2
 62
8
  6
HIDDEN
 10
426.1126792322
 20
272.7310076819
 11
432.5626792322
 21
272.7310076819
  0
LINE
  8
DEFAULT_2
 62
8
  6
HIDDEN
 10
442.8626792322
 20
272.7310076819
 11
449.3126792322
 21
272.7310076819
  0
LINE
  8
DEFAULT_2
 62
8
  6
HIDDEN
 10
426.1126792322
 20
274.8213870982
 11
432.5626792322
 21
274.8213870982
  0
LINE
  8
DEFAULT_2
 62
8
  6
HIDDEN
 10
442.8626792322
 20
274.8213870982
 11
449.3126792322
 21
274.8213870982
  0
LINE
  8
0
 62
9
  6
CONTINUOUS
 10
426.1126792322
 20
275.0653436969
 11
432.5626792322
 21
275.0653436969
  0
LINE
  8
0
 62
9
  6
CONTINUOUS
 10
442.8626792322
 20
275.0653436969
 11
449.3126792322
 21
275.0653436969
  0
LINE
  8
DEFAULT_2
 62
8
  6
HIDDEN
 10
449.3126792322
 20
275.4513691842
 11
442.8626792322
 21
275.4513691842
  0
LINE
  8
DEFAULT_2
 62
8
  6
HIDDEN
 10
432.5626792322
 20
275.4513691842
 11
426.1126792322
 21
275.4513691842
  0
LINE
  8
DEFAULT_2
 62
8
  6
HIDDEN
 10
449.3126792322
 20
275.8974576836
 11
442.8626792322
 21
275.8974576836
  0
LINE
  8
DEFAULT_2
 62
8
  6
HIDDEN
 10
432.5626792322
 20
275.8974576836
 11
426.1126792322
 21
275.8974576836
  0
LINE
  8
DEFAULT_2
 62
8
  6
HIDDEN
 10
426.1126792322
 20
285.4555643791
 11
432.5626792322
 21
285.4555643791
  0
LINE
  8
DEFAULT_2
 62
8
  6
HIDDEN
 10
442.8626792322
 20
285.4555643791
 11
449.3126792322
 21
285.4555643791
  0
LINE
  8
DEFAULT_2
 62
8
  6
HIDDEN
 10
426.1126792322
 20
286.0586381712
 11
432.5626792322
 21
286.0586381712
  0
LINE
  8
DEFAULT_2
 62
8
  6
HIDDEN
 10
442.8626792322
 20
286.0586381712
 11
449.3126792322
 21
286.0586381712
  0
LINE
  8
0
 62
9
  6
CONTINUOUS
 10
426.1126792322
 20
286.7335053092
 11
432.5626792322
 21
286.7335053092
  0
LINE
  8
0
 62
9
  6
CONTINUOUS
 10
442.8626792322
 20
286.7335053092
 11
449.3126792322
 21
286.7335053092
  0
LINE
  8
DEFAULT_2
 62
8
  6
HIDDEN
 10
426.1126792322
 20
287.812990904
 11
432.5626792322
 21
287.812990904
  0
LINE
  8
DEFAULT_2
 62
8
  6
HIDDEN
 10
442.8626792322
 20
287.812990904
 11
449.3126792322
 21
287.812990904
  0
LINE
  8
0
 62
7
  6
CONTINUOUS
 10
426.1126792322
 20
287.8732982833
 11
432.5626792322
 21
287.8732982833
  0
LINE
  8
0
 62
7
  6
CONTINUOUS
 10
442.8626792322
 20
287.8732982833
 11
449.3126792322
 21
287.8732982833
  0
LINE
  8
0
 62
9
  6
CONTINUOUS
 10
426.1126792322
 20
288.3844965672
 11
432.5626792322
 21
288.3844965672
  0
LINE
  8
0
 62
9
  6
CONTINUOUS
 10
442.8626792322
 20
288.3844965672
 11
449.3126792322
 21
288.3844965672
  0
LINE
  8
DEFAULT_2
 62
8
  6
HIDDEN
 10
426.1126792322
 20
292.1153650786
 11
432.5626792322
 21
292.1153650786
  0
LINE
  8
DEFAULT_2
 62
8
  6
HIDDEN
 10
442.8626792322
 20
292.1153650786
 11
449.3126792322
 21
292.1153650786
  0
LINE
  8
0
 62
9
  6
CONTINUOUS
 10
449.3126792322
 20
300.7971455026
 11
442.8626792322
 21
300.7971455026
  0
LINE
  8
0
 62
9
  6
CONTINUOUS
 10
432.5626792322
 20
300.7971455026
 11
426.1126792322
 21
300.7971455026
  0
LINE
  8
DEFAULT_2
 62
8
  6
HIDDEN
 10
426.1126792322
 20
300.9184658462
 11
432.5626792322
 21
300.9184658462
  0
LINE
  8
DEFAULT_2
 62
8
  6
HIDDEN
 10
442.8626792322
 20
300.9184658462
 11
449.3126792322
 21
300.9184658462
  0
LINE
  8
DEFAULT_2
 62
8
  6
HIDDEN
 10
449.3126792322
 20
300.9385668588
 11
442.8626792322
 21
300.9385668588
  0
LINE
  8
DEFAULT_2
 62
8
  6
HIDDEN
 10
432.5626792322
 20
300.9385668588
 11
426.1126792322
 21
300.9385668588
  0
LINE
  8
0
 62
7
  6
CONTINUOUS
 10
449.3126792322
 20
300.943592112
 11
442.8626792322
 21
300.943592112
  0
LINE
  8
0
 62
7
  6
CONTINUOUS
 10
432.5626792322
 20
300.943592112
 11
426.1126792322
 21
300.943592112
  0
LINE
  8
DEFAULT_2
 62
8
  6
HIDDEN
 10
426.1126792322
 20
301.9237786921
 11
432.5626792322
 21
301.9237786921
  0
LINE
  8
DEFAULT_2
 62
8
  6
HIDDEN
 10
442.8626792322
 20
301.9237786921
 11
449.3126792322
 21
301.9237786921
  0
LINE
  8
DEFAULT_2
 62
8
  6
HIDDEN
 10
426.1126792322
 20
302.6981014785
 11
432.5626792322
 21
302.6981014785
  0
LINE
  8
DEFAULT_2
 62
8
  6
HIDDEN
 10
442.8626792322
 20
302.6981014785
 11
449.3126792322
 21
302.6981014785
  0
LINE
  8
DEFAULT_2
 62
8
  6
HIDDEN
 10
426.1126792322
 20
302.7542458569
 11
432.5626792322
 21
302.7542458569
  0
LINE
  8
DEFAULT_2
 62
8
  6
HIDDEN
 10
442.8626792322
 20
302.7542458569
 11
449.3126792322
 21
302.7542458569
  0
LINE
  8
DEFAULT_2
 62
8
  6
HIDDEN
 10
449.3126792322
 20
304.2066214046
 11
442.8626792322
 21
304.2066214046
  0
LINE
  8
DEFAULT_2
 62
8
  6
HIDDEN
 10
432.5626792322
 20
304.2066214046
 11
426.1126792322
 21
304.2066214046
  0
LINE
  8
0
 62
9
  6
CONTINUOUS
 10
426.1126792322
 20
304.540869294
 11
432.5626792322
 21
304.540869294
  0
LINE
  8
0
 62
9
  6
CONTINUOUS
 10
442.8626792322
 20
304.540869294
 11
449.3126792322
 21
304.540869294
  0
LINE
  8
DEFAULT_2
 62
8
  6
HIDDEN
 10
449.3126792322
 20
304.6308854733
 11
442.8626792322
 21
304.6308854733
  0
LINE
  8
DEFAULT_2
 62
8
  6
HIDDEN
 10
432.5626792322
 20
304.6308854733
 11
426.1126792322
 21
304.6308854733
  0
LINE
  8
DEFAULT_2
 62
8
  6
HIDDEN
 10
426.1126792322
 20
306.4798802302
 11
432.5626792322
 21
306.4798802302
  0
LINE
  8
DEFAULT_2
 62
8
  6
HIDDEN
 10
442.8626792322
 20
306.4798802302
 11
449.3126792322
 21
306.4798802302
  0
LINE
  8
DEFAULT_2
 62
8
  6
HIDDEN
 10
426.1126792322
 20
308.1237746245
 11
432.5626792322
 21
308.1237746245
  0
LINE
  8
DEFAULT_2
 62
8
  6
HIDDEN
 10
442.8626792322
 20
308.1237746245
 11
449.3126792322
 21
308.1237746245
  0
LINE
  8
DEFAULT_2
 62
8
  6
HIDDEN
 10
426.1126792322
 20
308.5675160107
 11
432.5626792322
 21
308.5675160107
  0
LINE
  8
DEFAULT_2
 62
8
  6
HIDDEN
 10
442.8626792322
 20
308.5675160107
 11
449.3126792322
 21
308.5675160107
  0
LINE
  8
DEFAULT_2
 62
8
  6
HIDDEN
 10
421.1126792322
 20
311.3663349922
 11
421.3126792322
 21
311.3663349922
  0
LINE
  8
DEFAULT_2
 62
8
  6
HIDDEN
 10
421.1126792322
 20
311.4291036045
 11
421.3126792322
 21
311.4291036045
  0
LINE
  8
DEFAULT_2
 62
8
  6
HIDDEN
 10
421.1126792322
 20
311.441922362
 11
421.3126792322
 21
311.441922362
  0
LINE
  8
DEFAULT_2
 62
8
  6
HIDDEN
 10
421.1126792322
 20
311.5900033192
 11
421.3126792322
 21
311.5900033192
  0
LINE
  8
DEFAULT_2
 62
8
  6
HIDDEN
 10
421.1126792322
 20
311.6156408271
 11
421.3126792322
 21
311.6156408271
  0
LINE
  8
DEFAULT_2
 62
8
  6
HIDDEN
 10
421.1126792322
 20
311.7716780321
 11
421.3126792322
 21
311.7716780321
  0
LINE
  8
DEFAULT_2
 62
8
  6
HIDDEN
 10
421.1126792322
 20
311.8216278991
 11
421.3126792322
 21
311.8216278991
  0
LINE
  8
DEFAULT_2
 62
8
  6
HIDDEN
 10
421.1126792322
 20
311.84903405
 11
421.3126792322
 21
311.84903405
  0
LINE
  8
DEFAULT_2
 62
8
  6
HIDDEN
 10
421.1126792322
 20
311.8569903776
 11
421.3126792322
 21
311.8569903776
  0
LINE
  8
DEFAULT_2
 62
8
  6
HIDDEN
 10
421.1126792322
 20
311.9825276138
 11
421.3126792322
 21
311.9825276138
  0
LINE
  8
DEFAULT_2
 62
8
  6
HIDDEN
 10
421.1126792322
 20
312.0276150098
 11
421.3126792322
 21
312.0276150098
  0
LINE
  8
DEFAULT_2
 62
8
  6
HIDDEN
 10
421.1126792322
 20
312.0324774628
 11
421.3126792322
 21
312.0324774628
  0
LINE
  8
DEFAULT_2
 62
8
  6
HIDDEN
 10
421.1126792322
 20
312.0709337841
 11
421.3126792322
 21
312.0709337841
  0
LINE
  8
DEFAULT_2
 62
8
  6
HIDDEN
 10
421.1126792322
 20
312.123977436
 11
421.3126792322
 21
312.123977436
  0
LINE
  8
DEFAULT_2
 62
8
  6
HIDDEN
 10
421.1126792322
 20
312.1910791845
 11
421.3126792322
 21
312.1910791845
  0
LINE
  8
DEFAULT_2
 62
8
  6
HIDDEN
 10
421.1126792322
 20
312.2336021206
 11
421.3126792322
 21
312.2336021206
  0
LINE
  8
DEFAULT_2
 62
8
  6
HIDDEN
 10
421.1126792322
 20
312.2415583704
 11
421.3126792322
 21
312.2415583704
  0
LINE
  8
DEFAULT_2
 62
8
  6
HIDDEN
 10
421.1126792322
 20
312.2798341123
 11
421.3126792322
 21
312.2798341123
  0
LINE
  8
DEFAULT_2
 62
8
  6
HIDDEN
 10
421.1126792322
 20
312.3007489397
 11
421.3126792322
 21
312.3007489397
  0
LINE
  8
DEFAULT_2
 62
8
  6
HIDDEN
 10
421.1126792322
 20
312.3251020506
 11
421.3126792322
 21
312.3251020506
  0
LINE
  8
DEFAULT_2
 62
8
  6
HIDDEN
 10
421.1126792322
 20
312.3896392672
 11
421.3126792322
 21
312.3896392672
  0
LINE
  8
DEFAULT_2
 62
8
  6
HIDDEN
 10
421.1126792322
 20
312.4426829706
 11
421.3126792322
 21
312.4426829706
  0
LINE
  8
DEFAULT_2
 62
8
  6
HIDDEN
 10
421.1126792322
 20
312.4678039629
 11
421.3126792322
 21
312.4678039629
  0
LINE
  8
DEFAULT_2
 62
8
  6
HIDDEN
 10
421.1126792322
 20
312.5313581368
 11
421.3126792322
 21
312.5313581368
  0
LINE
  8
DEFAULT_2
 62
8
  6
HIDDEN
 10
421.1126792322
 20
312.5584952722
 11
421.3126792322
 21
312.5584952722
  0
LINE
  8
DEFAULT_2
 62
8
  6
HIDDEN
 10
421.1126792322
 20
312.5848201814
 11
421.3126792322
 21
312.5848201814
  0
LINE
  8
DEFAULT_2
 62
8
  6
HIDDEN
 10
421.1126792322
 20
312.7081382442
 11
421.3126792322
 21
312.7081382442
  0
LINE
  8
DEFAULT_2
 62
8
  6
HIDDEN
 10
421.1126792322
 20
312.7247384935
 11
421.3126792322
 21
312.7247384935
  0
LINE
  8
DEFAULT_2
 62
8
  6
HIDDEN
 10
421.1126792322
 20
312.7383068664
 11
421.3126792322
 21
312.7383068664
  0
LINE
  8
DEFAULT_2
 62
8
  6
HIDDEN
 10
421.1126792322
 20
312.7419386935
 11
421.3126792322
 21
312.7419386935
  0
LINE
  8
DEFAULT_2
 62
8
  6
HIDDEN
 10
421.1126792322
 20
312.7549870156
 11
421.3126792322
 21
312.7549870156
  0
LINE
  8
DEFAULT_2
 62
8
  6
HIDDEN
 10
421.1126792322
 20
312.8103833138
 11
421.3126792322
 21
312.8103833138
  0
LINE
  8
DEFAULT_2
 62
8
  6
HIDDEN
 10
421.1126792322
 20
312.9333383646
 11
421.3126792322
 21
312.9333383646
  0
LINE
  8
DEFAULT_2
 62
8
  6
HIDDEN
 10
421.1126792322
 20
313.0014632806
 11
421.3126792322
 21
313.0014632806
  0
LINE
  8
DEFAULT_2
 62
8
  6
HIDDEN
 10
421.1126792322
 20
313.0056979329
 11
421.3126792322
 21
313.0056979329
  0
LINE
  8
DEFAULT_2
 62
8
  6
HIDDEN
 10
421.1126792322
 20
313.0328346787
 11
421.3126792322
 21
313.0328346787
  0
LINE
  8
DEFAULT_2
 62
8
  6
HIDDEN
 10
421.1126792322
 20
313.2134580401
 11
421.3126792322
 21
313.2134580401
  0
LINE
  8
DEFAULT_2
 62
8
  6
HIDDEN
 10
421.1126792322
 20
313.2405947512
 11
421.3126792322
 21
313.2405947512
  0
LINE
  8
DEFAULT_2
 62
8
  6
HIDDEN
 10
421.1126792322
 20
313.2928809768
 11
421.3126792322
 21
313.2928809768
  0
LINE
  8
DEFAULT_2
 62
8
  6
HIDDEN
 10
421.1126792322
 20
313.3445465096
 11
421.3126792322
 21
313.3445465096
  0
LINE
  8
DEFAULT_2
 62
8
  6
HIDDEN
 10
421.1126792322
 20
313.3526504438
 11
421.3126792322
 21
313.3526504438
  0
LINE
  8
DEFAULT_2
 62
8
  6
HIDDEN
 10
421.1126792322
 20
313.5017640382
 11
421.3126792322
 21
313.5017640382
  0
LINE
  8
DEFAULT_2
 62
8
  6
HIDDEN
 10
421.1126792322
 20
313.5213265158
 11
421.3126792322
 21
313.5213265158
  0
LINE
  8
DEFAULT_2
 62
8
  6
HIDDEN
 10
421.1126792322
 20
313.5246659929
 11
421.3126792322
 21
313.5246659929
  0
LINE
  8
DEFAULT_2
 62
8
  6
HIDDEN
 10
421.1126792322
 20
313.5424226676
 11
421.3126792322
 21
313.5424226676
  0
LINE
  8
DEFAULT_2
 62
8
  6
HIDDEN
 10
421.1126792322
 20
313.5905205566
 11
421.3126792322
 21
313.5905205566
  0
LINE
  8
DEFAULT_2
 62
8
  6
HIDDEN
 10
421.1126792322
 20
313.7502291253
 11
421.3126792322
 21
313.7502291253
  0
LINE
  8
DEFAULT_2
 62
8
  6
HIDDEN
 10
421.1126792322
 20
313.7731725357
 11
421.3126792322
 21
313.7731725357
  0
LINE
  8
DEFAULT_2
 62
8
  6
HIDDEN
 10
426.1126792322
 20
313.7894430936
 11
432.5626792322
 21
313.7894430936
  0
LINE
  8
DEFAULT_2
 62
8
  6
HIDDEN
 10
442.8626792322
 20
313.7894430936
 11
449.3126792322
 21
313.7894430936
  0
LINE
  8
DEFAULT_2
 62
8
  6
HIDDEN
 10
421.1126792322
 20
313.8974939267
 11
421.3126792322
 21
313.8974939267
  0
LINE
  8
DEFAULT_2
 62
8
  6
HIDDEN
 10
421.1126792322
 20
313.9257535572
 11
421.3126792322
 21
313.9257535572
  0
LINE
  8
DEFAULT_2
 62
8
  6
HIDDEN
 10
421.1126792322
 20
313.9340169859
 11
421.3126792322
 21
313.9340169859
  0
LINE
  8
DEFAULT_2
 62
8
  6
HIDDEN
 10
421.1126792322
 20
314.0730182891
 11
421.3126792322
 21
314.0730182891
  0
LINE
  8
DEFAULT_2
 62
8
  6
HIDDEN
 10
421.1126792322
 20
314.0865988745
 11
421.3126792322
 21
314.0865988745
  0
LINE
  8
DEFAULT_2
 62
8
  6
HIDDEN
 10
421.1126792322
 20
314.1993682282
 11
421.3126792322
 21
314.1993682282
  0
LINE
  8
DEFAULT_2
 62
8
  6
HIDDEN
 10
421.1126792322
 20
314.2327267883
 11
421.3126792322
 21
314.2327267883
  0
LINE
  8
DEFAULT_2
 62
8
  6
HIDDEN
 10
421.1126792322
 20
314.2877234892
 11
421.3126792322
 21
314.2877234892
  0
LINE
  8
DEFAULT_2
 62
8
  6
HIDDEN
 10
421.1126792322
 20
314.3214834456
 11
421.3126792322
 21
314.3214834456
  0
LINE
  8
DEFAULT_2
 62
8
  6
HIDDEN
 10
421.1126792322
 20
314.4280258958
 11
421.3126792322
 21
314.4280258958
  0
LINE
  8
DEFAULT_2
 62
8
  6
HIDDEN
 10
421.1126792322
 20
314.4834394352
 11
421.3126792322
 21
314.4834394352
  0
LINE
  8
DEFAULT_2
 62
8
  6
HIDDEN
 10
421.1126792322
 20
314.510576181
 11
421.3126792322
 21
314.510576181
  0
LINE
  8
DEFAULT_2
 62
8
  6
HIDDEN
 10
421.1126792322
 20
314.5303663681
 11
421.3126792322
 21
314.5303663681
  0
LINE
  8
DEFAULT_2
 62
8
  6
HIDDEN
 10
426.1126792322
 20
314.5506477685
 11
432.5626792322
 21
314.5506477685
  0
LINE
  8
DEFAULT_2
 62
8
  6
HIDDEN
 10
442.8626792322
 20
314.5506477685
 11
449.3126792322
 21
314.5506477685
  0
LINE
  8
DEFAULT_2
 62
8
  6
HIDDEN
 10
421.1126792322
 20
314.6177981196
 11
421.3126792322
 21
314.6177981196
  0
LINE
  8
DEFAULT_2
 62
8
  6
HIDDEN
 10
421.1126792322
 20
314.7225709405
 11
421.3126792322
 21
314.7225709405
  0
LINE
  8
DEFAULT_2
 62
8
  6
HIDDEN
 10
421.1126792322
 20
314.7904128052
 11
421.3126792322
 21
314.7904128052
  0
LINE
  8
DEFAULT_2
 62
8
  6
HIDDEN
 10
421.1126792322
 20
314.8852624223
 11
421.3126792322
 21
314.8852624223
  0
LINE
  8
DEFAULT_2
 62
8
  6
HIDDEN
 10
421.1126792322
 20
314.9136509073
 11
421.3126792322
 21
314.9136509073
  0
LINE
  8
DEFAULT_2
 62
8
  6
HIDDEN
 10
421.1126792322
 20
314.9690488657
 11
421.3126792322
 21
314.9690488657
  0
LINE
  8
DEFAULT_2
 62
8
  6
HIDDEN
 10
421.1126792322
 20
314.9857273547
 11
421.3126792322
 21
314.9857273547
  0
LINE
  8
DEFAULT_2
 62
8
  6
HIDDEN
 10
421.1126792322
 20
314.9992957276
 11
421.3126792322
 21
314.9992957276
  0
LINE
  8
DEFAULT_2
 62
8
  6
HIDDEN
 10
421.1126792322
 20
315.009693786
 11
421.3126792322
 21
315.009693786
  0
LINE
  8
DEFAULT_2
 62
8
  6
HIDDEN
 10
421.1126792322
 20
315.0535692194
 11
421.3126792322
 21
315.0535692194
  0
LINE
  8
DEFAULT_2
 62
8
  6
HIDDEN
 10
421.1126792322
 20
315.0922219333
 11
421.3126792322
 21
315.0922219333
  0
LINE
  8
DEFAULT_2
 62
8
  6
HIDDEN
 10
421.1126792322
 20
315.2458315711
 11
421.3126792322
 21
315.2458315711
  0
LINE
  8
DEFAULT_2
 62
8
  6
HIDDEN
 10
421.1126792322
 20
315.2562301887
 11
421.3126792322
 21
315.2562301887
  0
LINE
  8
DEFAULT_2
 62
8
  6
HIDDEN
 10
421.1126792322
 20
315.2805410893
 11
421.3126792322
 21
315.2805410893
  0
LINE
  8
DEFAULT_2
 62
8
  6
HIDDEN
 10
421.1126792322
 20
315.2933465911
 11
421.3126792322
 21
315.2933465911
  0
LINE
  8
DEFAULT_2
 62
8
  6
HIDDEN
 10
421.1126792322
 20
315.3223338514
 11
421.3126792322
 21
315.3223338514
  0
LINE
  8
DEFAULT_2
 62
8
  6
HIDDEN
 10
421.1126792322
 20
315.361667056
 11
421.3126792322
 21
315.361667056
  0
LINE
  8
DEFAULT_2
 62
8
  6
HIDDEN
 10
421.1126792322
 20
315.3627900797
 11
421.3126792322
 21
315.3627900797
  0
LINE
  8
DEFAULT_2
 62
8
  6
HIDDEN
 10
421.1126792322
 20
315.4099642662
 11
421.3126792322
 21
315.4099642662
  0
LINE
  8
DEFAULT_2
 62
8
  6
HIDDEN
 10
421.1126792322
 20
315.4226115774
 11
421.3126792322
 21
315.4226115774
  0
LINE
  8
DEFAULT_2
 62
8
  6
HIDDEN
 10
421.1126792322
 20
315.4442000394
 11
421.3126792322
 21
315.4442000394
  0
LINE
  8
DEFAULT_2
 62
8
  6
HIDDEN
 10
421.1126792322
 20
315.5178369841
 11
421.3126792322
 21
315.5178369841
  0
LINE
  8
DEFAULT_2
 62
8
  6
HIDDEN
 10
421.1126792322
 20
315.5329566967
 11
421.3126792322
 21
315.5329566967
  0
LINE
  8
DEFAULT_2
 62
8
  6
HIDDEN
 10
421.1126792322
 20
315.5367541294
 11
421.3126792322
 21
315.5367541294
  0
LINE
  8
DEFAULT_2
 62
8
  6
HIDDEN
 10
421.1126792322
 20
315.5507599304
 11
421.3126792322
 21
315.5507599304
  0
LINE
  8
DEFAULT_2
 62
8
  6
HIDDEN
 10
421.1126792322
 20
315.5600934426
 11
421.3126792322
 21
315.5600934426
  0
LINE
  8
DEFAULT_2
 62
8
  6
HIDDEN
 10
421.1126792322
 20
315.5867442725
 11
421.3126792322
 21
315.5867442725
  0
LINE
  8
DEFAULT_2
 62
8
  6
HIDDEN
 10
421.1126792322
 20
315.6319286891
 11
421.3126792322
 21
315.6319286891
  0
LINE
  8
DEFAULT_2
 62
8
  6
HIDDEN
 10
421.1126792322
 20
315.6672374132
 11
421.3126792322
 21
315.6672374132
  0
LINE
  8
DEFAULT_2
 62
8
  6
HIDDEN
 10
421.1126792322
 20
315.6808115696
 11
421.3126792322
 21
315.6808115696
  0
LINE
  8
DEFAULT_2
 62
8
  6
HIDDEN
 10
421.1126792322
 20
315.6980229413
 11
421.3126792322
 21
315.6980229413
  0
LINE
  8
DEFAULT_2
 62
8
  6
HIDDEN
 10
421.1126792322
 20
315.7108135892
 11
421.3126792322
 21
315.7108135892
  0
LINE
  8
DEFAULT_2
 62
8
  6
HIDDEN
 10
421.1126792322
 20
315.7335222591
 11
421.3126792322
 21
315.7335222591
  0
LINE
  8
DEFAULT_2
 62
8
  6
HIDDEN
 10
421.1126792322
 20
315.7480615723
 11
421.3126792322
 21
315.7480615723
  0
LINE
  8
DEFAULT_2
 62
8
  6
HIDDEN
 10
421.1126792322
 20
315.7848103845
 11
421.3126792322
 21
315.7848103845
  0
LINE
  8
DEFAULT_2
 62
8
  6
HIDDEN
 10
421.1126792322
 20
315.828236019
 11
421.3126792322
 21
315.828236019
  0
LINE
  8
DEFAULT_2
 62
8
  6
HIDDEN
 10
421.1126792322
 20
315.8402368673
 11
421.3126792322
 21
315.8402368673
  0
LINE
  8
DEFAULT_2
 62
8
  6
HIDDEN
 10
421.1126792322
 20
315.8695925253
 11
421.3126792322
 21
315.8695925253
  0
LINE
  8
DEFAULT_2
 62
8
  6
HIDDEN
 10
421.1126792322
 20
315.8875937978
 11
421.3126792322
 21
315.8875937978
  0
LINE
  8
DEFAULT_2
 62
8
  6
HIDDEN
 10
421.1126792322
 20
315.8916505227
 11
421.3126792322
 21
315.8916505227
  0
LINE
  8
DEFAULT_2
 62
8
  6
HIDDEN
 10
421.1126792322
 20
315.9103023666
 11
421.3126792322
 21
315.9103023666
  0
LINE
  8
DEFAULT_2
 62
8
  6
HIDDEN
 10
421.1126792322
 20
315.9235860738
 11
421.3126792322
 21
315.9235860738
  0
LINE
  8
DEFAULT_2
 62
8
  6
HIDDEN
 10
421.1126792322
 20
315.9870147528
 11
421.3126792322
 21
315.9870147528
  0
LINE
  8
DEFAULT_2
 62
8
  6
HIDDEN
 10
421.1126792322
 20
316.1177775996
 11
421.3126792322
 21
316.1177775996
  0
LINE
  8
DEFAULT_2
 62
8
  6
HIDDEN
 10
421.1126792322
 20
316.1524405758
 11
421.3126792322
 21
316.1524405758
  0
LINE
  8
DEFAULT_2
 62
8
  6
HIDDEN
 10
421.1126792322
 20
316.2076572807
 11
421.3126792322
 21
316.2076572807
  0
LINE
  8
DEFAULT_2
 62
8
  6
HIDDEN
 10
421.1126792322
 20
316.2285064992
 11
421.3126792322
 21
316.2285064992
  0
LINE
  8
DEFAULT_2
 62
8
  6
HIDDEN
 10
421.1126792322
 20
316.2347940265
 11
421.3126792322
 21
316.2347940265
  0
LINE
  8
DEFAULT_2
 62
8
  6
HIDDEN
 10
421.1126792322
 20
316.2761593213
 11
421.3126792322
 21
316.2761593213
  0
LINE
  8
DEFAULT_2
 62
8
  6
HIDDEN
 10
421.1126792322
 20
316.2818638539
 11
421.3126792322
 21
316.2818638539
  0
LINE
  8
DEFAULT_2
 62
8
  6
HIDDEN
 10
421.1126792322
 20
316.3699306256
 11
421.3126792322
 21
316.3699306256
  0
LINE
  8
DEFAULT_2
 62
8
  6
HIDDEN
 10
421.1126792322
 20
316.3759310498
 11
421.3126792322
 21
316.3759310498
  0
LINE
  8
DEFAULT_2
 62
8
  6
HIDDEN
 10
421.1126792322
 20
316.3778241756
 11
421.3126792322
 21
316.3778241756
  0
LINE
  8
DEFAULT_2
 62
8
  6
HIDDEN
 10
421.1126792322
 20
316.4049606436
 11
421.3126792322
 21
316.4049606436
  0
LINE
  8
DEFAULT_2
 62
8
  6
HIDDEN
 10
421.1126792322
 20
316.4066426051
 11
421.3126792322
 21
316.4066426051
  0
LINE
  8
DEFAULT_2
 62
8
  6
HIDDEN
 10
426.1126792322
 20
316.4166697255
 11
432.5626792322
 21
316.4166697255
  0
LINE
  8
DEFAULT_2
 62
8
  6
HIDDEN
 10
442.8626792322
 20
316.4166697255
 11
449.3126792322
 21
316.4166697255
  0
LINE
  8
DEFAULT_2
 62
8
  6
HIDDEN
 10
421.1126792322
 20
316.446788786
 11
421.3126792322
 21
316.446788786
  0
LINE
  8
DEFAULT_2
 62
8
  6
HIDDEN
 10
421.1126792322
 20
316.600275471
 11
421.3126792322
 21
316.600275471
  0
LINE
  8
DEFAULT_2
 62
8
  6
HIDDEN
 10
421.1126792322
 20
316.6723519185
 11
421.3126792322
 21
316.6723519185
  0
LINE
  8
DEFAULT_2
 62
8
  6
HIDDEN
 10
421.1126792322
 20
316.6859202914
 11
421.3126792322
 21
316.6859202914
  0
LINE
  8
DEFAULT_2
 62
8
  6
HIDDEN
 10
421.1126792322
 20
316.6932667112
 11
421.3126792322
 21
316.6932667112
  0
LINE
  8
DEFAULT_2
 62
8
  6
HIDDEN
 10
421.1126792322
 20
316.7987235866
 11
421.3126792322
 21
316.7987235866
  0
LINE
  8
DEFAULT_2
 62
8
  6
HIDDEN
 10
421.1126792322
 20
316.8258386035
 11
421.3126792322
 21
316.8258386035
  0
LINE
  8
DEFAULT_2
 62
8
  6
HIDDEN
 10
421.1126792322
 20
316.8273472199
 11
421.3126792322
 21
316.8273472199
  0
LINE
  8
DEFAULT_2
 62
8
  6
HIDDEN
 10
421.1126792322
 20
316.9366081776
 11
421.3126792322
 21
316.9366081776
  0
LINE
  8
DEFAULT_2
 62
8
  6
HIDDEN
 10
421.1126792322
 20
316.9765172058
 11
421.3126792322
 21
316.9765172058
  0
LINE
  8
DEFAULT_2
 62
8
  6
HIDDEN
 10
421.1126792322
 20
316.9804497551
 11
421.3126792322
 21
316.9804497551
  0
LINE
  8
DEFAULT_2
 62
8
  6
HIDDEN
 10
421.1126792322
 20
317.0026909573
 11
421.3126792322
 21
317.0026909573
  0
LINE
  8
DEFAULT_2
 62
8
  6
HIDDEN
 10
421.1126792322
 20
317.0110278419
 11
421.3126792322
 21
317.0110278419
  0
LINE
  8
DEFAULT_2
 62
8
  6
HIDDEN
 10
426.1126792322
 20
317.0435344087
 11
432.5626792322
 21
317.0435344087
  0
LINE
  8
DEFAULT_2
 62
8
  6
HIDDEN
 10
442.8626792322
 20
317.0435344087
 11
449.3126792322
 21
317.0435344087
  0
LINE
  8
DEFAULT_2
 62
8
  6
HIDDEN
 10
421.1126792322
 20
317.0557997541
 11
421.3126792322
 21
317.0557997541
  0
LINE
  8
DEFAULT_2
 62
8
  6
HIDDEN
 10
421.1126792322
 20
317.0964163934
 11
421.3126792322
 21
317.0964163934
  0
LINE
  8
DEFAULT_2
 62
8
  6
HIDDEN
 10
421.1126792322
 20
317.1099098104
 11
421.3126792322
 21
317.1099098104
  0
LINE
  8
DEFAULT_2
 62
8
  6
HIDDEN
 10
421.1126792322
 20
317.1184366782
 11
421.3126792322
 21
317.1184366782
  0
LINE
  8
DEFAULT_2
 62
8
  6
HIDDEN
 10
421.1126792322
 20
317.1207360212
 11
421.3126792322
 21
317.1207360212
  0
LINE
  8
DEFAULT_2
 62
8
  6
HIDDEN
 10
421.1126792322
 20
317.1308246031
 11
421.3126792322
 21
317.1308246031
  0
LINE
  8
DEFAULT_2
 62
8
  6
HIDDEN
 10
421.1126792322
 20
317.1718722921
 11
421.3126792322
 21
317.1718722921
  0
LINE
  8
DEFAULT_2
 62
8
  6
HIDDEN
 10
421.1126792322
 20
317.2195812605
 11
421.3126792322
 21
317.2195812605
  0
LINE
  8
DEFAULT_2
 62
8
  6
HIDDEN
 10
421.1126792322
 20
317.2455653481
 11
421.3126792322
 21
317.2455653481
  0
LINE
  8
DEFAULT_2
 62
8
  6
HIDDEN
 10
421.1126792322
 20
317.2912246
 11
421.3126792322
 21
317.2912246
  0
LINE
  8
DEFAULT_2
 62
8
  6
HIDDEN
 10
421.1126792322
 20
317.3152095947
 11
421.3126792322
 21
317.3152095947
  0
LINE
  8
DEFAULT_2
 62
8
  6
HIDDEN
 10
421.1126792322
 20
317.3361394917
 11
421.3126792322
 21
317.3361394917
  0
LINE
  8
DEFAULT_2
 62
8
  6
HIDDEN
 10
421.1126792322
 20
317.3394590327
 11
421.3126792322
 21
317.3394590327
  0
LINE
  8
DEFAULT_2
 62
8
  6
HIDDEN
 10
421.1126792322
 20
317.3481394398
 11
421.3126792322
 21
317.3481394398
  0
LINE
  8
DEFAULT_2
 62
8
  6
HIDDEN
 10
421.1126792322
 20
317.3887153292
 11
421.3126792322
 21
317.3887153292
  0
LINE
  8
DEFAULT_2
 62
8
  6
HIDDEN
 10
421.1126792322
 20
317.3901709788
 11
421.3126792322
 21
317.3901709788
  0
LINE
  8
DEFAULT_2
 62
8
  6
HIDDEN
 10
421.1126792322
 20
317.430080007
 11
421.3126792322
 21
317.430080007
  0
LINE
  8
DEFAULT_2
 62
8
  6
HIDDEN
 10
421.1126792322
 20
317.4376353196
 11
421.3126792322
 21
317.4376353196
  0
LINE
  8
DEFAULT_2
 62
8
  6
HIDDEN
 10
421.1126792322
 20
317.4403793146
 11
421.3126792322
 21
317.4403793146
  0
LINE
  8
DEFAULT_2
 62
8
  6
HIDDEN
 10
421.1126792322
 20
317.4625036601
 11
421.3126792322
 21
317.4625036601
  0
LINE
  8
DEFAULT_2
 62
8
  6
HIDDEN
 10
421.1126792322
 20
317.4740239074
 11
421.3126792322
 21
317.4740239074
  0
LINE
  8
DEFAULT_2
 62
8
  6
HIDDEN
 10
421.1126792322
 20
317.5227412784
 11
421.3126792322
 21
317.5227412784
  0
LINE
  8
DEFAULT_2
 62
8
  6
HIDDEN
 10
421.1126792322
 20
317.5679645979
 11
421.3126792322
 21
317.5679645979
  0
LINE
  8
DEFAULT_2
 62
8
  6
HIDDEN
 10
421.1126792322
 20
317.5705772978
 11
421.3126792322
 21
317.5705772978
  0
LINE
  8
DEFAULT_2
 62
8
  6
HIDDEN
 10
421.1126792322
 20
317.5749651329
 11
421.3126792322
 21
317.5749651329
  0
LINE
  8
DEFAULT_2
 62
8
  6
HIDDEN
 10
421.1126792322
 20
317.6136807617
 11
421.3126792322
 21
317.6136807617
  0
LINE
  8
DEFAULT_2
 62
8
  6
HIDDEN
 10
421.1126792322
 20
317.6371685535
 11
421.3126792322
 21
317.6371685535
  0
LINE
  8
DEFAULT_2
 62
8
  6
HIDDEN
 10
421.1126792322
 20
317.6385145663
 11
421.3126792322
 21
317.6385145663
  0
LINE
  8
DEFAULT_2
 62
8
  6
HIDDEN
 10
421.1126792322
 20
317.6614875961
 11
421.3126792322
 21
317.6614875961
  0
LINE
  8
DEFAULT_2
 62
8
  6
HIDDEN
 10
421.1126792322
 20
317.672819586
 11
421.3126792322
 21
317.672819586
  0
LINE
  8
DEFAULT_2
 62
8
  6
HIDDEN
 10
421.1126792322
 20
317.7264027179
 11
421.3126792322
 21
317.7264027179
  0
LINE
  8
DEFAULT_2
 62
8
  6
HIDDEN
 10
421.1126792322
 20
317.7313894237
 11
421.3126792322
 21
317.7313894237
  0
LINE
  8
DEFAULT_2
 62
8
  6
HIDDEN
 10
421.1126792322
 20
317.732724771
 11
421.3126792322
 21
317.732724771
  0
LINE
  8
DEFAULT_2
 62
8
  6
HIDDEN
 10
421.1126792322
 20
317.7344728131
 11
421.3126792322
 21
317.7344728131
  0
LINE
  8
DEFAULT_2
 62
8
  6
HIDDEN
 10
421.1126792322
 20
317.7981041188
 11
421.3126792322
 21
317.7981041188
  0
LINE
  8
DEFAULT_2
 62
8
  6
HIDDEN
 10
421.1126792322
 20
317.8060021345
 11
421.3126792322
 21
317.8060021345
  0
LINE
  8
DEFAULT_2
 62
8
  6
HIDDEN
 10
421.1126792322
 20
317.8093127063
 11
421.3126792322
 21
317.8093127063
  0
LINE
  8
DEFAULT_2
 62
8
  6
HIDDEN
 10
421.1126792322
 20
317.8320428148
 11
421.3126792322
 21
317.8320428148
  0
LINE
  8
DEFAULT_2
 62
8
  6
HIDDEN
 10
421.1126792322
 20
317.8589052194
 11
421.3126792322
 21
317.8589052194
  0
LINE
  8
DEFAULT_2
 62
8
  6
HIDDEN
 10
421.1126792322
 20
317.8723574041
 11
421.3126792322
 21
317.8723574041
  0
LINE
  8
DEFAULT_2
 62
8
  6
HIDDEN
 10
421.1126792322
 20
317.9235518363
 11
421.3126792322
 21
317.9235518363
  0
LINE
  8
DEFAULT_2
 62
8
  6
HIDDEN
 10
421.1126792322
 20
317.932886322
 11
421.3126792322
 21
317.932886322
  0
LINE
  8
DEFAULT_2
 62
8
  6
HIDDEN
 10
421.1126792322
 20
317.935690078
 11
421.3126792322
 21
317.935690078
  0
LINE
  8
DEFAULT_2
 62
8
  6
HIDDEN
 10
421.1126792322
 20
317.9595966715
 11
421.3126792322
 21
317.9595966715
  0
LINE
  8
DEFAULT_2
 62
8
  6
HIDDEN
 10
421.1126792322
 20
317.9677822827
 11
421.3126792322
 21
317.9677822827
  0
LINE
  8
DEFAULT_2
 62
8
  6
HIDDEN
 10
421.1126792322
 20
317.9908865326
 11
421.3126792322
 21
317.9908865326
  0
LINE
  8
DEFAULT_2
 62
8
  6
HIDDEN
 10
421.1126792322
 20
318.0228578199
 11
421.3126792322
 21
318.0228578199
  0
LINE
  8
DEFAULT_2
 62
8
  6
HIDDEN
 10
421.1126792322
 20
318.0560695699
 11
421.3126792322
 21
318.0560695699
  0
LINE
  8
DEFAULT_2
 62
8
  6
HIDDEN
 10
421.1126792322
 20
318.0999968457
 11
421.3126792322
 21
318.0999968457
  0
LINE
  8
DEFAULT_2
 62
8
  6
HIDDEN
 10
421.1126792322
 20
318.1074327705
 11
421.3126792322
 21
318.1074327705
  0
LINE
  8
DEFAULT_2
 62
8
  6
HIDDEN
 10
421.1126792322
 20
318.114938112
 11
421.3126792322
 21
318.114938112
  0
LINE
  8
DEFAULT_2
 62
8
  6
HIDDEN
 10
421.1126792322
 20
318.1339928526
 11
421.3126792322
 21
318.1339928526
  0
LINE
  8
DEFAULT_2
 62
8
  6
HIDDEN
 10
421.1126792322
 20
318.1428789172
 11
421.3126792322
 21
318.1428789172
  0
LINE
  8
DEFAULT_2
 62
8
  6
HIDDEN
 10
421.1126792322
 20
318.1837022702
 11
421.3126792322
 21
318.1837022702
  0
LINE
  8
DEFAULT_2
 62
8
  6
HIDDEN
 10
421.1126792322
 20
318.2128053218
 11
421.3126792322
 21
318.2128053218
  0
LINE
  8
DEFAULT_2
 62
8
  6
HIDDEN
 10
421.1126792322
 20
318.2331793572
 11
421.3126792322
 21
318.2331793572
  0
LINE
  8
DEFAULT_2
 62
8
  6
HIDDEN
 10
421.1126792322
 20
318.2372125551
 11
421.3126792322
 21
318.2372125551
  0
LINE
  8
DEFAULT_2
 62
8
  6
HIDDEN
 10
421.1126792322
 20
318.2405317391
 11
421.3126792322
 21
318.2405317391
  0
LINE
  8
DEFAULT_2
 62
8
  6
HIDDEN
 10
421.1126792322
 20
318.3218849823
 11
421.3126792322
 21
318.3218849823
  0
LINE
  8
DEFAULT_2
 62
8
  6
HIDDEN
 10
421.1126792322
 20
318.3291356158
 11
421.3126792322
 21
318.3291356158
  0
LINE
  8
DEFAULT_2
 62
8
  6
HIDDEN
 10
421.1126792322
 20
318.343724492
 11
421.3126792322
 21
318.343724492
  0
LINE
  8
DEFAULT_2
 62
8
  6
HIDDEN
 10
421.1126792322
 20
318.3469010051
 11
421.3126792322
 21
318.3469010051
  0
LINE
  8
DEFAULT_2
 62
8
  6
HIDDEN
 10
421.1126792322
 20
318.3987029608
 11
421.3126792322
 21
318.3987029608
  0
LINE
  8
DEFAULT_2
 62
8
  6
HIDDEN
 10
421.1126792322
 20
318.4036685213
 11
421.3126792322
 21
318.4036685213
  0
LINE
  8
DEFAULT_2
 62
8
  6
HIDDEN
 10
421.1126792322
 20
318.413808043
 11
421.3126792322
 21
318.413808043
  0
LINE
  8
DEFAULT_2
 62
8
  6
HIDDEN
 10
421.1126792322
 20
318.4170113018
 11
421.3126792322
 21
318.4170113018
  0
LINE
  8
DEFAULT_2
 62
8
  6
HIDDEN
 10
421.1126792322
 20
318.4188263273
 11
421.3126792322
 21
318.4188263273
  0
LINE
  8
DEFAULT_2
 62
8
  6
HIDDEN
 10
421.1126792322
 20
318.4705735031
 11
421.3126792322
 21
318.4705735031
  0
LINE
  8
DEFAULT_2
 62
8
  6
HIDDEN
 10
421.1126792322
 20
318.5287726672
 11
421.3126792322
 21
318.5287726672
  0
LINE
  8
DEFAULT_2
 62
8
  6
HIDDEN
 10
421.1126792322
 20
318.5554839949
 11
421.3126792322
 21
318.5554839949
  0
LINE
  8
DEFAULT_2
 62
8
  6
HIDDEN
 10
421.1126792322
 20
318.5831783313
 11
421.3126792322
 21
318.5831783313
  0
LINE
  8
DEFAULT_2
 62
8
  6
HIDDEN
 10
421.1126792322
 20
318.6226504708
 11
421.3126792322
 21
318.6226504708
  0
LINE
  8
DEFAULT_2
 62
8
  6
HIDDEN
 10
421.1126792322
 20
318.6877320376
 11
421.3126792322
 21
318.6877320376
  0
LINE
  8
DEFAULT_2
 62
8
  6
HIDDEN
 10
421.1126792322
 20
318.6896171175
 11
421.3126792322
 21
318.6896171175
  0
LINE
  8
DEFAULT_2
 62
8
  6
HIDDEN
 10
421.1126792322
 20
318.7083656902
 11
421.3126792322
 21
318.7083656902
  0
LINE
  8
DEFAULT_2
 62
8
  6
HIDDEN
 10
421.1126792322
 20
318.7203272125
 11
421.3126792322
 21
318.7203272125
  0
LINE
  8
DEFAULT_2
 62
8
  6
HIDDEN
 10
421.1126792322
 20
318.7283486676
 11
421.3126792322
 21
318.7283486676
  0
LINE
  8
DEFAULT_2
 62
8
  6
HIDDEN
 10
421.1126792322
 20
318.7458103988
 11
421.3126792322
 21
318.7458103988
  0
LINE
  8
DEFAULT_2
 62
8
  6
HIDDEN
 10
421.1126792322
 20
318.7609439904
 11
421.3126792322
 21
318.7609439904
  0
LINE
  8
DEFAULT_2
 62
8
  6
HIDDEN
 10
421.1126792322
 20
318.7975575004
 11
421.3126792322
 21
318.7975575004
  0
LINE
  8
DEFAULT_2
 62
8
  6
HIDDEN
 10
421.1126792322
 20
318.8756805851
 11
421.3126792322
 21
318.8756805851
  0
LINE
  8
DEFAULT_2
 62
8
  6
HIDDEN
 10
421.1126792322
 20
318.8904174802
 11
421.3126792322
 21
318.8904174802
  0
LINE
  8
DEFAULT_2
 62
8
  6
HIDDEN
 10
421.1126792322
 20
319.0432991755
 11
421.3126792322
 21
319.0432991755
  0
LINE
  8
DEFAULT_2
 62
8
  6
HIDDEN
 10
421.1126792322
 20
319.0450073588
 11
421.3126792322
 21
319.0450073588
  0
LINE
  8
DEFAULT_2
 62
8
  6
HIDDEN
 10
421.1126792322
 20
319.0499730672
 11
421.3126792322
 21
319.0499730672
  0
LINE
  8
DEFAULT_2
 62
8
  6
HIDDEN
 10
421.1126792322
 20
319.1155025392
 11
421.3126792322
 21
319.1155025392
  0
LINE
  8
DEFAULT_2
 62
8
  6
HIDDEN
 10
421.1126792322
 20
319.2757187969
 11
421.3126792322
 21
319.2757187969
  0
LINE
  8
DEFAULT_2
 62
8
  6
HIDDEN
 10
421.1126792322
 20
319.2870534871
 11
421.3126792322
 21
319.2870534871
  0
LINE
  8
DEFAULT_2
 62
8
  6
HIDDEN
 10
421.1126792322
 20
319.3005625238
 11
421.3126792322
 21
319.3005625238
  0
LINE
  8
DEFAULT_2
 62
8
  6
HIDDEN
 10
421.1126792322
 20
319.3146831015
 11
421.3126792322
 21
319.3146831015
  0
LINE
  8
DEFAULT_2
 62
8
  6
HIDDEN
 10
421.1126792322
 20
319.3486791822
 11
421.3126792322
 21
319.3486791822
  0
LINE
  8
DEFAULT_2
 62
8
  6
HIDDEN
 10
421.1126792322
 20
319.3794631165
 11
421.3126792322
 21
319.3794631165
  0
LINE
  8
0
 62
9
  6
CONTINUOUS
 10
426.1126792322
 20
319.3945280539
 11
432.5626792322
 21
319.3945280539
  0
LINE
  8
0
 62
9
  6
CONTINUOUS
 10
442.8626792322
 20
319.3945280539
 11
449.3126792322
 21
319.3945280539
  0
LINE
  8
DEFAULT_2
 62
8
  6
HIDDEN
 10
421.1126792322
 20
319.4244087681
 11
421.3126792322
 21
319.4244087681
  0
LINE
  8
DEFAULT_2
 62
8
  6
HIDDEN
 10
421.1126792322
 20
319.4395894805
 11
421.3126792322
 21
319.4395894805
  0
LINE
  8
DEFAULT_2
 62
8
  6
HIDDEN
 10
421.1126792322
 20
319.4801545686
 11
421.3126792322
 21
319.4801545686
  0
LINE
  8
DEFAULT_2
 62
8
  6
HIDDEN
 10
421.1126792322
 20
319.525415495
 11
421.3126792322
 21
319.525415495
  0
LINE
  8
DEFAULT_2
 62
8
  6
HIDDEN
 10
421.1126792322
 20
319.5338103507
 11
421.3126792322
 21
319.5338103507
  0
LINE
  8
DEFAULT_2
 62
8
  6
HIDDEN
 10
421.1126792322
 20
319.5371209225
 11
421.3126792322
 21
319.5371209225
  0
LINE
  8
DEFAULT_2
 62
8
  6
HIDDEN
 10
421.1126792322
 20
319.5846250258
 11
421.3126792322
 21
319.5846250258
  0
LINE
  8
DEFAULT_2
 62
8
  6
HIDDEN
 10
421.1126792322
 20
319.6182937968
 11
421.3126792322
 21
319.6182937968
  0
LINE
  8
DEFAULT_2
 62
8
  6
HIDDEN
 10
421.1126792322
 20
319.670303434
 11
421.3126792322
 21
319.670303434
  0
LINE
  8
DEFAULT_2
 62
8
  6
HIDDEN
 10
421.1126792322
 20
319.6816354609
 11
421.3126792322
 21
319.6816354609
  0
LINE
  8
DEFAULT_2
 62
8
  6
HIDDEN
 10
421.1126792322
 20
319.6971581874
 11
421.3126792322
 21
319.6971581874
  0
LINE
  8
DEFAULT_2
 62
8
  6
HIDDEN
 10
421.1126792322
 20
319.7059545035
 11
421.3126792322
 21
319.7059545035
  0
LINE
  8
DEFAULT_2
 62
8
  6
HIDDEN
 10
421.1126792322
 20
319.7725457592
 11
421.3126792322
 21
319.7725457592
  0
LINE
  8
DEFAULT_2
 62
8
  6
HIDDEN
 10
421.1126792322
 20
319.7908386159
 11
421.3126792322
 21
319.7908386159
  0
LINE
  8
DEFAULT_2
 62
8
  6
HIDDEN
 10
421.1126792322
 20
319.8156035692
 11
421.3126792322
 21
319.8156035692
  0
LINE
  8
DEFAULT_2
 62
8
  6
HIDDEN
 10
426.1126792322
 20
319.8820314889
 11
432.5626792322
 21
319.8820314889
  0
LINE
  8
DEFAULT_2
 62
8
  6
HIDDEN
 10
442.8626792322
 20
319.8820314889
 11
449.3126792322
 21
319.8820314889
  0
LINE
  8
DEFAULT_2
 62
8
  6
HIDDEN
 10
421.1126792322
 20
319.9024176988
 11
421.3126792322
 21
319.9024176988
  0
LINE
  8
DEFAULT_2
 62
8
  6
HIDDEN
 10
421.1126792322
 20
319.9075266298
 11
421.3126792322
 21
319.9075266298
  0
LINE
  8
DEFAULT_2
 62
8
  6
HIDDEN
 10
421.1126792322
 20
319.9642795484
 11
421.3126792322
 21
319.9642795484
  0
LINE
  8
DEFAULT_2
 62
8
  6
HIDDEN
 10
421.1126792322
 20
319.9814344552
 11
421.3126792322
 21
319.9814344552
  0
LINE
  8
DEFAULT_2
 62
8
  6
HIDDEN
 10
421.1126792322
 20
320.0213904483
 11
421.3126792322
 21
320.0213904483
  0
LINE
  8
DEFAULT_2
 62
8
  6
HIDDEN
 10
421.1126792322
 20
320.0518977978
 11
421.3126792322
 21
320.0518977978
  0
LINE
  8
DEFAULT_2
 62
8
  6
HIDDEN
 10
421.1126792322
 20
320.0693378042
 11
421.3126792322
 21
320.0693378042
  0
LINE
  8
DEFAULT_2
 62
8
  6
HIDDEN
 10
421.1126792322
 20
320.1135234929
 11
421.3126792322
 21
320.1135234929
  0
LINE
  8
0
 62
7
  6
CONTINUOUS
 10
426.1126792322
 20
320.1447541521
 11
432.5626792322
 21
320.1447541521
  0
LINE
  8
0
 62
7
  6
CONTINUOUS
 10
442.8626792322
 20
320.1447541521
 11
449.3126792322
 21
320.1447541521
  0
LINE
  8
DEFAULT_2
 62
8
  6
HIDDEN
 10
421.1126792322
 20
320.1613055727
 11
421.3126792322
 21
320.1613055727
  0
LINE
  8
DEFAULT_2
 62
8
  6
HIDDEN
 10
421.1126792322
 20
320.17845976
 11
421.3126792322
 21
320.17845976
  0
LINE
  8
DEFAULT_2
 62
8
  6
HIDDEN
 10
421.1126792322
 20
320.1933978145
 11
421.3126792322
 21
320.1933978145
  0
LINE
  8
DEFAULT_2
 62
8
  6
HIDDEN
 10
421.1126792322
 20
320.2223869619
 11
421.3126792322
 21
320.2223869619
  0
LINE
  8
DEFAULT_2
 62
8
  6
HIDDEN
 10
421.1126792322
 20
320.2467060044
 11
421.3126792322
 21
320.2467060044
  0
LINE
  8
DEFAULT_2
 62
8
  6
HIDDEN
 10
421.1126792322
 20
320.2873232289
 11
421.3126792322
 21
320.2873232289
  0
LINE
  8
DEFAULT_2
 62
8
  6
HIDDEN
 10
421.1126792322
 20
320.3330482651
 11
421.3126792322
 21
320.3330482651
  0
LINE
  8
DEFAULT_2
 62
8
  6
HIDDEN
 10
421.1126792322
 20
320.3437513126
 11
421.3126792322
 21
320.3437513126
  0
LINE
  8
DEFAULT_2
 62
8
  6
HIDDEN
 10
421.1126792322
 20
320.3570546045
 11
421.3126792322
 21
320.3570546045
  0
LINE
  8
DEFAULT_2
 62
8
  6
HIDDEN
 10
421.1126792322
 20
320.4453637335
 11
421.3126792322
 21
320.4453637335
  0
LINE
  8
DEFAULT_2
 62
8
  6
HIDDEN
 10
421.1126792322
 20
320.4661472337
 11
421.3126792322
 21
320.4661472337
  0
LINE
  8
DEFAULT_2
 62
8
  6
HIDDEN
 10
421.1126792322
 20
320.6329172297
 11
421.3126792322
 21
320.6329172297
  0
LINE
  8
DEFAULT_2
 62
8
  6
HIDDEN
 10
421.1126792322
 20
320.6444418219
 11
421.3126792322
 21
320.6444418219
  0
LINE
  8
DEFAULT_2
 62
8
  6
HIDDEN
 10
421.1126792322
 20
320.6868710591
 11
421.3126792322
 21
320.6868710591
  0
LINE
  8
DEFAULT_2
 62
8
  6
HIDDEN
 10
421.1126792322
 20
320.6900706841
 11
421.3126792322
 21
320.6900706841
  0
LINE
  8
DEFAULT_2
 62
8
  6
HIDDEN
 10
421.1126792322
 20
320.6961889235
 11
421.3126792322
 21
320.6961889235
  0
LINE
  8
DEFAULT_2
 62
8
  6
HIDDEN
 10
421.1126792322
 20
320.7338538597
 11
421.3126792322
 21
320.7338538597
  0
LINE
  8
DEFAULT_2
 62
8
  6
HIDDEN
 10
421.1126792322
 20
320.7420844586
 11
421.3126792322
 21
320.7420844586
  0
LINE
  8
DEFAULT_2
 62
8
  6
HIDDEN
 10
421.1126792322
 20
320.7518067316
 11
421.3126792322
 21
320.7518067316
  0
LINE
  8
DEFAULT_2
 62
8
  6
HIDDEN
 10
421.1126792322
 20
320.7745298357
 11
421.3126792322
 21
320.7745298357
  0
LINE
  8
DEFAULT_2
 62
8
  6
HIDDEN
 10
421.1126792322
 20
320.8085999143
 11
421.3126792322
 21
320.8085999143
  0
LINE
  8
DEFAULT_2
 62
8
  6
HIDDEN
 10
421.1126792322
 20
320.8340075193
 11
421.3126792322
 21
320.8340075193
  0
LINE
  8
DEFAULT_2
 62
8
  6
HIDDEN
 10
421.1126792322
 20
320.8846479282
 11
421.3126792322
 21
320.8846479282
  0
LINE
  8
DEFAULT_2
 62
8
  6
HIDDEN
 10
421.1126792322
 20
320.9043430239
 11
421.3126792322
 21
320.9043430239
  0
LINE
  8
DEFAULT_2
 62
8
  6
HIDDEN
 10
421.1126792322
 20
320.9464843299
 11
421.3126792322
 21
320.9464843299
  0
LINE
  8
DEFAULT_2
 62
8
  6
HIDDEN
 10
421.1126792322
 20
320.9485076304
 11
421.3126792322
 21
320.9485076304
  0
LINE
  8
DEFAULT_2
 62
8
  6
HIDDEN
 10
426.1126792322
 20
320.957571362
 11
432.5626792322
 21
320.957571362
  0
LINE
  8
DEFAULT_2
 62
8
  6
HIDDEN
 10
442.8626792322
 20
320.957571362
 11
449.3126792322
 21
320.957571362
  0
LINE
  8
DEFAULT_2
 62
8
  6
HIDDEN
 10
421.1126792322
 20
320.9714258192
 11
421.3126792322
 21
320.9714258192
  0
LINE
  8
DEFAULT_2
 62
8
  6
HIDDEN
 10
421.1126792322
 20
321.0165167659
 11
421.3126792322
 21
321.0165167659
  0
LINE
  8
DEFAULT_2
 62
8
  6
HIDDEN
 10
421.1126792322
 20
321.0231729208
 11
421.3126792322
 21
321.0231729208
  0
LINE
  8
DEFAULT_2
 62
8
  6
HIDDEN
 10
421.1126792322
 20
321.037525831
 11
421.3126792322
 21
321.037525831
  0
LINE
  8
DEFAULT_2
 62
8
  6
HIDDEN
 10
421.1126792322
 20
321.0424426504
 11
421.3126792322
 21
321.0424426504
  0
LINE
  8
DEFAULT_2
 62
8
  6
HIDDEN
 10
421.1126792322
 20
321.0944400485
 11
421.3126792322
 21
321.0944400485
  0
LINE
  8
DEFAULT_2
 62
8
  6
HIDDEN
 10
421.1126792322
 20
321.112992545
 11
421.3126792322
 21
321.112992545
  0
LINE
  8
DEFAULT_2
 62
8
  6
HIDDEN
 10
421.1126792322
 20
321.2069332356
 11
421.3126792322
 21
321.2069332356
  0
LINE
  8
DEFAULT_2
 62
8
  6
HIDDEN
 10
421.1126792322
 20
321.23513628
 11
421.3126792322
 21
321.23513628
  0
LINE
  8
DEFAULT_2
 62
8
  6
HIDDEN
 10
449.3126792322
 20
321.2366224312
 11
442.8626792322
 21
321.2366224312
  0
LINE
  8
DEFAULT_2
 62
8
  6
HIDDEN
 10
432.5626792322
 20
321.2366224312
 11
426.1126792322
 21
321.2366224312
  0
LINE
  8
DEFAULT_2
 62
8
  6
HIDDEN
 10
421.1126792322
 20
321.250877136
 11
421.3126792322
 21
321.250877136
  0
LINE
  8
0
 62
9
  6
CONTINUOUS
 10
449.3126792322
 20
321.2683249648
 11
442.8626792322
 21
321.2683249648
  0
LINE
  8
0
 62
9
  6
CONTINUOUS
 10
432.5626792322
 20
321.2683249648
 11
426.1126792322
 21
321.2683249648
  0
LINE
  8
DEFAULT_2
 62
8
  6
HIDDEN
 10
421.1126792322
 20
321.2907861274
 11
421.3126792322
 21
321.2907861274
  0
LINE
  8
0
 62
7
  6
CONTINUOUS
 10
449.3126792322
 20
321.3063851985
 11
442.8626792322
 21
321.3063851985
  0
LINE
  8
0
 62
7
  6
CONTINUOUS
 10
432.5626792322
 20
321.3063851985
 11
426.1126792322
 21
321.3063851985
  0
LINE
  8
DEFAULT_2
 62
8
  6
HIDDEN
 10
421.1126792322
 20
321.3282098965
 11
421.3126792322
 21
321.3282098965
  0
LINE
  8
DEFAULT_2
 62
8
  6
HIDDEN
 10
421.1126792322
 20
321.344507484
 11
421.3126792322
 21
321.344507484
  0
LINE
  8
DEFAULT_2
 62
8
  6
HIDDEN
 10
421.1126792322
 20
321.3953528346
 11
421.3126792322
 21
321.3953528346
  0
LINE
  8
DEFAULT_2
 62
8
  6
HIDDEN
 10
421.1126792322
 20
321.4061331792
 11
421.3126792322
 21
321.4061331792
  0
LINE
  8
DEFAULT_2
 62
8
  6
HIDDEN
 10
421.1126792322
 20
321.4776899955
 11
421.3126792322
 21
321.4776899955
  0
LINE
  8
DEFAULT_2
 62
8
  6
HIDDEN
 10
421.1126792322
 20
321.4890220224
 11
421.3126792322
 21
321.4890220224
  0
LINE
  8
DEFAULT_2
 62
8
  6
HIDDEN
 10
421.1126792322
 20
321.5003540493
 11
421.3126792322
 21
321.5003540493
  0
LINE
  8
DEFAULT_2
 62
8
  6
HIDDEN
 10
426.1126792322
 20
321.5016427537
 11
432.5626792322
 21
321.5016427537
  0
LINE
  8
DEFAULT_2
 62
8
  6
HIDDEN
 10
442.8626792322
 20
321.5016427537
 11
449.3126792322
 21
321.5016427537
  0
LINE
  8
DEFAULT_2
 62
8
  6
HIDDEN
 10
421.1126792322
 20
321.5440426574
 11
421.3126792322
 21
321.5440426574
  0
LINE
  8
DEFAULT_2
 62
8
  6
HIDDEN
 10
421.1126792322
 20
321.5625204003
 11
421.3126792322
 21
321.5625204003
  0
LINE
  8
DEFAULT_2
 62
8
  6
HIDDEN
 10
421.1126792322
 20
321.566945305
 11
421.3126792322
 21
321.566945305
  0
LINE
  8
DEFAULT_2
 62
8
  6
HIDDEN
 10
421.1126792322
 20
321.5751161971
 11
421.3126792322
 21
321.5751161971
  0
LINE
  8
DEFAULT_2
 62
8
  6
HIDDEN
 10
421.1126792322
 20
321.6450493842
 11
421.3126792322
 21
321.6450493842
  0
LINE
  8
DEFAULT_2
 62
8
  6
HIDDEN
 10
421.1126792322
 20
321.704258915
 11
421.3126792322
 21
321.704258915
  0
LINE
  8
DEFAULT_2
 62
8
  6
HIDDEN
 10
421.1126792322
 20
321.7327992587
 11
421.3126792322
 21
321.7327992587
  0
LINE
  8
DEFAULT_2
 62
8
  6
HIDDEN
 10
421.1126792322
 20
321.737927686
 11
421.3126792322
 21
321.737927686
  0
LINE
  8
DEFAULT_2
 62
8
  6
HIDDEN
 10
421.1126792322
 20
321.7443488917
 11
421.3126792322
 21
321.7443488917
  0
LINE
  8
DEFAULT_2
 62
8
  6
HIDDEN
 10
421.1126792322
 20
321.7893831261
 11
421.3126792322
 21
321.7893831261
  0
LINE
  8
DEFAULT_2
 62
8
  6
HIDDEN
 10
421.1126792322
 20
321.8167920766
 11
421.3126792322
 21
321.8167920766
  0
LINE
  8
DEFAULT_2
 62
8
  6
HIDDEN
 10
421.1126792322
 20
321.8272331578
 11
421.3126792322
 21
321.8272331578
  0
LINE
  8
DEFAULT_2
 62
8
  6
HIDDEN
 10
421.1126792322
 20
321.8536098586
 11
421.3126792322
 21
321.8536098586
  0
LINE
  8
DEFAULT_2
 62
8
  6
HIDDEN
 10
421.1126792322
 20
321.8592849537
 11
421.3126792322
 21
321.8592849537
  0
LINE
  8
DEFAULT_2
 62
8
  6
HIDDEN
 10
421.1126792322
 20
321.8822334827
 11
421.3126792322
 21
321.8822334827
  0
LINE
  8
DEFAULT_2
 62
8
  6
HIDDEN
 10
421.1126792322
 20
322.0297735233
 11
421.3126792322
 21
322.0297735233
  0
LINE
  8
DEFAULT_2
 62
8
  6
HIDDEN
 10
421.1126792322
 20
322.0411055503
 11
421.3126792322
 21
322.0411055503
  0
LINE
  8
DEFAULT_2
 62
8
  6
HIDDEN
 10
421.1126792322
 20
322.0595664615
 11
421.3126792322
 21
322.0595664615
  0
LINE
  8
DEFAULT_2
 62
8
  6
HIDDEN
 10
421.1126792322
 20
322.0817227748
 11
421.3126792322
 21
322.0817227748
  0
LINE
  8
DEFAULT_2
 62
8
  6
HIDDEN
 10
421.1126792322
 20
322.1010683445
 11
421.3126792322
 21
322.1010683445
  0
LINE
  8
DEFAULT_2
 62
8
  6
HIDDEN
 10
421.1126792322
 20
322.1976061673
 11
421.3126792322
 21
322.1976061673
  0
LINE
  8
DEFAULT_2
 62
8
  6
HIDDEN
 10
421.1126792322
 20
322.2267048839
 11
421.3126792322
 21
322.2267048839
  0
LINE
  8
DEFAULT_2
 62
8
  6
HIDDEN
 10
421.1126792322
 20
322.3716032453
 11
421.3126792322
 21
322.3716032453
  0
LINE
  8
DEFAULT_2
 62
8
  6
HIDDEN
 10
421.1126792322
 20
322.382856929
 11
421.3126792322
 21
322.382856929
  0
LINE
  8
DEFAULT_2
 62
8
  6
HIDDEN
 10
421.1126792322
 20
322.4232672306
 11
421.3126792322
 21
322.4232672306
  0
LINE
  8
DEFAULT_2
 62
8
  6
HIDDEN
 10
421.1126792322
 20
322.4436431959
 11
421.3126792322
 21
322.4436431959
  0
LINE
  8
DEFAULT_2
 62
8
  6
HIDDEN
 10
421.1126792322
 20
322.5713799579
 11
421.3126792322
 21
322.5713799579
  0
LINE
  8
DEFAULT_2
 62
8
  6
HIDDEN
 10
421.1126792322
 20
322.729139596
 11
421.3126792322
 21
322.729139596
  0
LINE
  8
DEFAULT_2
 62
8
  6
HIDDEN
 10
449.3126792322
 20
323.0052808064
 11
442.8626792322
 21
323.0052808064
  0
LINE
  8
DEFAULT_2
 62
8
  6
HIDDEN
 10
432.5626792322
 20
323.0052808064
 11
426.1126792322
 21
323.0052808064
  0
LINE
  8
DEFAULT_2
 62
8
  6
HIDDEN
 10
426.1126792322
 20
323.0420022247
 11
432.5626792322
 21
323.0420022247
  0
LINE
  8
DEFAULT_2
 62
8
  6
HIDDEN
 10
442.8626792322
 20
323.0420022247
 11
449.3126792322
 21
323.0420022247
  0
LINE
  8
DEFAULT_2
 62
8
  6
HIDDEN
 10
449.3126792322
 20
323.3431300859
 11
442.8626792322
 21
323.3431300859
  0
LINE
  8
DEFAULT_2
 62
8
  6
HIDDEN
 10
432.5626792322
 20
323.3431300859
 11
426.1126792322
 21
323.3431300859
  0
LINE
  8
0
 62
9
  6
CONTINUOUS
 10
426.1126792322
 20
324.0089158613
 11
432.5626792322
 21
324.0089158613
  0
LINE
  8
0
 62
9
  6
CONTINUOUS
 10
442.8626792322
 20
324.0089158613
 11
449.3126792322
 21
324.0089158613
  0
LINE
  8
0
 62
7
  6
CONTINUOUS
 10
442.8626792322
 20
326.7104219061
 11
432.5626792322
 21
326.7104219061
  0
LINE
  8
0
 62
7
  6
CONTINUOUS
 10
423.1126792322
 20
326.7104219061
 11
426.1126792322
 21
326.7104219061
  0
LINE
  8
0
 62
7
  6
CONTINUOUS
 10
449.3126792322
 20
326.7104219061
 11
452.3126792322
 21
326.7104219061
  0
LINE
  8
DEFAULT_2
 62
8
  6
HIDDEN
 10
426.1126792322
 20
327.5348036538
 11
432.5626792322
 21
327.5348036538
  0
LINE
  8
DEFAULT_2
 62
8
  6
HIDDEN
 10
442.8626792322
 20
327.5348036538
 11
449.3126792322
 21
327.5348036538
  0
LINE
  8
DEFAULT_2
 62
8
  6
HIDDEN
 10
426.1126792322
 20
328.1854219061
 11
432.5626792322
 21
328.1854219061
  0
LINE
  8
DEFAULT_2
 62
8
  6
HIDDEN
 10
442.8626792322
 20
328.1854219061
 11
449.3126792322
 21
328.1854219061
  0
LINE
  8
DEFAULT_2
 62
8
  6
HIDDEN
 10
449.3126792322
 20
328.9854219061
 11
442.8626792322
 21
328.9854219061
  0
LINE
  8
DEFAULT_2
 62
8
  6
HIDDEN
 10
432.5626792322
 20
328.9854219061
 11
426.1126792322
 21
328.9854219061
  0
LINE
  8
DEFAULT_2
 62
8
  6
HIDDEN
 10
449.3126792322
 20
329.1854219061
 11
442.8626792322
 21
329.1854219061
  0
LINE
  8
DEFAULT_2
 62
8
  6
HIDDEN
 10
432.5626792322
 20
329.1854219061
 11
426.1126792322
 21
329.1854219061
  0
LINE
  8
DEFAULT_2
 62
8
  6
HIDDEN
 10
426.1126792322
 20
330.0608072822
 11
432.5626792322
 21
330.0608072822
  0
LINE
  8
DEFAULT_2
 62
8
  6
HIDDEN
 10
442.8626792322
 20
330.0608072822
 11
449.3126792322
 21
330.0608072822
  0
LINE
  8
DEFAULT_2
 62
8
  6
HIDDEN
 10
426.1126792322
 20
330.5056497873
 11
432.5626792322
 21
330.5056497873
  0
LINE
  8
DEFAULT_2
 62
8
  6
HIDDEN
 10
442.8626792322
 20
330.5056497873
 11
449.3126792322
 21
330.5056497873
  0
LINE
  8
DEFAULT_2
 62
8
  6
HIDDEN
 10
426.1126792322
 20
332.354848173
 11
432.5626792322
 21
332.354848173
  0
LINE
  8
DEFAULT_2
 62
8
  6
HIDDEN
 10
442.8626792322
 20
332.354848173
 11
449.3126792322
 21
332.354848173
  0
LINE
  8
DEFAULT_2
 62
8
  6
HIDDEN
 10
426.1126792322
 20
333.6870490698
 11
432.5626792322
 21
333.6870490698
  0
LINE
  8
DEFAULT_2
 62
8
  6
HIDDEN
 10
442.8626792322
 20
333.6870490698
 11
449.3126792322
 21
333.6870490698
  0
LINE
  8
DEFAULT_2
 62
8
  6
HIDDEN
 10
426.1126792322
 20
333.6968683164
 11
432.5626792322
 21
333.6968683164
  0
LINE
  8
DEFAULT_2
 62
8
  6
HIDDEN
 10
442.8626792322
 20
333.6968683164
 11
449.3126792322
 21
333.6968683164
  0
LINE
  8
DEFAULT_2
 62
8
  6
HIDDEN
 10
426.1126792322
 20
334.9592392887
 11
432.5626792322
 21
334.9592392887
  0
LINE
  8
DEFAULT_2
 62
8
  6
HIDDEN
 10
442.8626792322
 20
334.9592392887
 11
449.3126792322
 21
334.9592392887
  0
LINE
  8
DEFAULT_2
 62
8
  6
HIDDEN
 10
426.1126792322
 20
338.8634087337
 11
432.5626792322
 21
338.8634087337
  0
LINE
  8
DEFAULT_2
 62
8
  6
HIDDEN
 10
442.8626792322
 20
338.8634087337
 11
449.3126792322
 21
338.8634087337
  0
LINE
  8
DEFAULT_2
 62
8
  6
HIDDEN
 10
426.1126792322
 20
339.6080401678
 11
432.5626792322
 21
339.6080401678
  0
LINE
  8
DEFAULT_2
 62
8
  6
HIDDEN
 10
442.8626792322
 20
339.6080401678
 11
449.3126792322
 21
339.6080401678
  0
LINE
  8
0
 62
9
  6
CONTINUOUS
 10
426.1126792322
 20
339.7867368715
 11
432.5626792322
 21
339.7867368715
  0
LINE
  8
0
 62
9
  6
CONTINUOUS
 10
442.8626792322
 20
339.7867368715
 11
449.3126792322
 21
339.7867368715
  0
LINE
  8
0
 62
7
  6
CONTINUOUS
 10
426.1126792322
 20
340.1854219061
 11
432.5626792322
 21
340.1854219061
  0
LINE
  8
0
 62
7
  6
CONTINUOUS
 10
442.8626792322
 20
340.1854219061
 11
449.3126792322
 21
340.1854219061
  0
LINE
  8
DEFAULT_2
 62
8
  6
HIDDEN
 10
426.1126792322
 20
343.9879109362
 11
432.5626792322
 21
343.9879109362
  0
LINE
  8
DEFAULT_2
 62
8
  6
HIDDEN
 10
442.8626792322
 20
343.9879109362
 11
449.3126792322
 21
343.9879109362
  0
LINE
  8
0
 62
9
  6
CONTINUOUS
 10
426.1126792322
 20
344.8056028252
 11
432.5626792322
 21
344.8056028252
  0
LINE
  8
0
 62
9
  6
CONTINUOUS
 10
442.8626792322
 20
344.8056028252
 11
449.3126792322
 21
344.8056028252
  0
LINE
  8
0
 62
7
  6
CONTINUOUS
 10
426.1126792322
 20
344.9442915488
 11
432.5626792322
 21
344.9442915488
  0
LINE
  8
0
 62
7
  6
CONTINUOUS
 10
442.8626792322
 20
344.9442915488
 11
449.3126792322
 21
344.9442915488
  0
ARC
  8
0
 62
7
  6
CONTINUOUS
 10
131.1229339563
 20
183.0452581856
 40
14.0
 50
255.5358667322
 51
324.2135098004
  0
ARC
  8
0
 62
7
  6
CONTINUOUS
 10
123.2311842914
 20
181.670574794
 40
10.0
 50
317.5
 51
22.5
  0
ARC
  8
0
 62
7
  6
CONTINUOUS
 10
151.5650630059
 20
153.4981719758
 40
10.0
 50
340.0
 51
45.0
  0
ARC
  8
0
 62
7
  6
CONTINUOUS
 10
144.1021615388
 20
173.6889955042
 40
2.0
 50
351.8698976459
 51
144.2135098004
  0
ARC
  8
0
 62
7
  6
CONTINUOUS
 10
127.8758732328
 20
170.4573037585
 40
1.0
 50
137.5
 51
255.5358667322
  0
ARC
  8
0
 62
7
  6
CONTINUOUS
 10
146.5770352729
 20
173.3354421136
 40
0.5
 50
171.8698976458
 51
225.0
  0
ARC
  8
0
 62
7
  6
CONTINUOUS
 10
115.6523000287
 20
216.7913870982
 40
14.0
 50
233.0358667322
 51
301.7135098004
  0
ARC
  8
0
 62
7
  6
CONTINUOUS
 10
107.8352054788
 20
218.5413870982
 40
10.0
 50
295.0
 51
360.0
  0
ARC
  8
0
 62
7
  6
CONTINUOUS
 10
116.8352054788
 20
238.0955235676
 40
2.0
 50
306.8698976459
 51
99.2135098004
  0
ARC
  8
0
 62
7
  6
CONTINUOUS
 10
124.0630560229
 20
203.1803921453
 40
2.0
 50
329.3698976458
 51
121.7135098004
  0
ARC
  8
0
 62
7
  6
CONTINUOUS
 10
107.8352054788
 20
206.4042299896
 40
1.0
 50
115.0
 51
233.0358667322
  0
ARC
  8
0
 62
7
  6
CONTINUOUS
 10
118.3352054788
 20
236.0955235676
 40
0.5
 50
126.8698976458
 51
180.0
  0
ARC
  8
0
 62
7
  6
CONTINUOUS
 10
126.2142421864
 20
201.9066582289
 40
0.5
 50
149.3698976458
 51
202.5
  0
ARC
  8
0
 62
7
  6
CONTINUOUS
 10
158.3300204383
 20
157.7882556741
 40
14.0
 50
278.0358667322
 51
346.7135098004
  0
ARC
  8
0
 62
7
  6
CONTINUOUS
 10
193.1315271907
 20
144.8655292407
 40
14.0
 50
300.5358667322
 51
9.2135098004
  0
ARC
  8
0
 62
7
  6
CONTINUOUS
 10
188.5232654353
 20
138.313171589
 40
10.0
 50
2.5
 51
67.5
  0
ARC
  8
0
 62
7
  6
CONTINUOUS
 10
173.9017498666
 20
154.1111314427
 40
2.0
 50
14.3698976459
 51
166.7135098004
  0
ARC
  8
0
 62
7
  6
CONTINUOUS
 10
160.1473291017
 20
144.91590588
 40
1.0
 50
160.0
 51
278.0358667322
  0
ARC
  8
0
 62
7
  6
CONTINUOUS
 10
199.7365364708
 20
133.6684826475
 40
1.0
 50
182.5
 51
300.5358667322
  0
ARC
  8
0
 62
7
  6
CONTINUOUS
 10
176.3235340802
 20
154.7315838767
 40
0.5
 50
194.3698976458
 51
247.5
  0
ARC
  8
0
 62
7
  6
CONTINUOUS
 10
127.1961088627
 20
288.6906069466
 40
14.0
 50
188.0358667322
 51
256.7135098004
  0
ARC
  8
0
 62
7
  6
CONTINUOUS
 10
114.2733824293
 20
253.8891001943
 40
14.0
 50
210.5358667322
 51
279.2135098004
  0
ARC
  8
0
 62
7
  6
CONTINUOUS
 10
107.7210247776
 20
258.4973619496
 40
10.0
 50
272.5
 51
337.5
  0
ARC
  8
0
 62
7
  6
CONTINUOUS
 10
123.5189846313
 20
273.1188775184
 40
2.0
 50
284.3698976458
 51
76.7135098004
  0
ARC
  8
0
 62
7
  6
CONTINUOUS
 10
114.3237590686
 20
286.8732982833
 40
1.0
 50
70.0
 51
188.0358667322
  0
ARC
  8
0
 62
7
  6
CONTINUOUS
 10
103.0763358361
 20
247.2840909141
 40
1.0
 50
92.5
 51
210.5358667322
  0
ARC
  8
0
 62
7
  6
CONTINUOUS
 10
124.1394370653
 20
270.6970933048
 40
0.5
 50
104.3698976458
 51
157.5
  0
ARC
  8
0
 62
7
  6
CONTINUOUS
 10
152.4531113742
 20
315.8976934286
 40
14.0
 50
165.5358667322
 51
234.2135098004
  0
ARC
  8
0
 62
7
  6
CONTINUOUS
 10
122.9060251644
 20
295.4555643791
 40
10.0
 50
250.0
 51
315.0
  0
ARC
  8
0
 62
7
  6
CONTINUOUS
 10
151.0784279826
 20
323.7894430936
 40
10.0
 50
227.5
 51
292.5
  0
ARC
  8
0
 62
7
  6
CONTINUOUS
 10
143.0968486928
 20
302.9184658462
 40
2.0
 50
261.8698976458
 51
54.2135098004
  0
ARC
  8
0
 62
7
  6
CONTINUOUS
 10
139.8651569471
 20
319.1447541521
 40
1.0
 50
47.5
 51
165.5358667322
  0
ARC
  8
0
 62
7
  6
CONTINUOUS
 10
142.7432953022
 20
300.443592112
 40
0.5
 50
81.8698976458
 51
135.0
  0
ARC
  8
0
 62
7
  6
CONTINUOUS
 10
186.1992402868
 20
331.3683273562
 40
14.0
 50
143.0358667322
 51
211.7135098004
  0
ARC
  8
0
 62
7
  6
CONTINUOUS
 10
187.9492402868
 20
339.1854219061
 40
10.0
 50
205.0
 51
270.0
  0
ARC
  8
0
 62
7
  6
CONTINUOUS
 10
207.5033767562
 20
330.1854219061
 40
2.0
 50
216.8698976459
 51
9.2135098004
  0
ARC
  8
0
 62
7
  6
CONTINUOUS
 10
172.5882453339
 20
322.957571362
 40
2.0
 50
239.3698976458
 51
31.7135098004
  0
ARC
  8
0
 62
7
  6
CONTINUOUS
 10
175.8120831782
 20
339.1854219061
 40
1.0
 50
25.0
 51
143.0358667322
  0
ARC
  8
0
 62
7
  6
CONTINUOUS
 10
205.5033767562
 20
328.6854219061
 40
0.5
 50
36.8698976458
 51
90.0
  0
ARC
  8
0
 62
7
  6
CONTINUOUS
 10
171.3145114175
 20
320.8063851985
 40
0.5
 50
59.3698976458
 51
112.5
  0
ARC
  8
0
 62
7
  6
CONTINUOUS
 10
230.2292402868
 20
146.2444468401
 40
14.0
 50
323.0358667322
 51
31.7135098004
  0
ARC
  8
0
 62
7
  6
CONTINUOUS
 10
228.4792402868
 20
138.4273522902
 40
10.0
 50
25.0
 51
90.0
  0
ARC
  8
0
 62
7
  6
CONTINUOUS
 10
208.9251038174
 20
147.4273522902
 40
2.0
 50
36.8698976458
 51
189.2135098004
  0
ARC
  8
0
 62
7
  6
CONTINUOUS
 10
243.8402352396
 20
154.6552028343
 40
2.0
 50
59.3698976458
 51
211.7135098004
  0
ARC
  8
0
 62
7
  6
CONTINUOUS
 10
240.6163973954
 20
138.4273522902
 40
1.0
 50
205.0
 51
323.0358667322
  0
ARC
  8
0
 62
7
  6
CONTINUOUS
 10
210.9251038174
 20
148.9273522902
 40
0.5
 50
216.8698976458
 51
270.0
  0
ARC
  8
0
 62
7
  6
CONTINUOUS
 10
245.1139691561
 20
156.8063889978
 40
0.5
 50
239.3698976458
 51
292.5
  0
ARC
  8
0
 62
7
  6
CONTINUOUS
 10
263.9753691993
 20
161.7150807677
 40
14.0
 50
345.5358667322
 51
54.2135098004
  0
ARC
  8
0
 62
7
  6
CONTINUOUS
 10
265.3500525909
 20
153.8233311028
 40
10.0
 50
47.5
 51
112.5
  0
ARC
  8
0
 62
7
  6
CONTINUOUS
 10
293.5224554092
 20
182.1572098173
 40
10.0
 50
70.0
 51
135.0
  0
ARC
  8
0
 62
7
  6
CONTINUOUS
 10
273.3316318807
 20
174.6943083502
 40
2.0
 50
81.8698976459
 51
234.2135098004
  0
ARC
  8
0
 62
7
  6
CONTINUOUS
 10
276.5633236264
 20
158.4680200442
 40
1.0
 50
227.5
 51
345.5358667322
  0
ARC
  8
0
 62
7
  6
CONTINUOUS
 10
273.6851852713
 20
177.1691820843
 40
0.5
 50
261.8698976458
 51
315.0
  0
ARC
  8
0
 62
7
  6
CONTINUOUS
 10
289.2323717109
 20
188.9221672497
 40
14.0
 50
8.0358667322
 51
76.7135098004
  0
ARC
  8
0
 62
7
  6
CONTINUOUS
 10
302.1550981442
 20
223.7236740021
 40
14.0
 50
30.5358667322
 51
99.2135098004
  0
ARC
  8
0
 62
7
  6
CONTINUOUS
 10
308.7074557959
 20
219.1154122467
 40
10.0
 50
92.5
 51
157.5
  0
ARC
  8
0
 62
7
  6
CONTINUOUS
 10
292.9094959423
 20
204.493896678
 40
2.0
 50
104.3698976458
 51
256.7135098004
  0
ARC
  8
0
 62
7
  6
CONTINUOUS
 10
302.104721505
 20
190.7394759131
 40
1.0
 50
250.0
 51
8.0358667322
  0
ARC
  8
0
 62
7
  6
CONTINUOUS
 10
313.3521447374
 20
230.3286832822
 40
1.0
 50
272.5
 51
30.5358667322
  0
ARC
  8
0
 62
7
  6
CONTINUOUS
 10
292.2890435082
 20
206.9156808915
 40
0.5
 50
284.3698976459
 51
337.5
  0
ARC
  8
DEFAULT_2
 62
8
  6
HIDDEN
 10
208.2142402868
 20
238.8063870982
 40
106.4791468218
 50
85.3965062961
 51
85.408004951
  0
ARC
  8
0
 62
40
  6
CONTINUOUS
 10
208.2142402868
 20
238.8063870982
 40
106.4791468218
 50
78.3401967803
 51
85.3965062961
  0
ARC
  8
0
 62
40
  6
CONTINUOUS
 10
208.2142402868
 20
238.8063870982
 40
106.4791468218
 50
85.408004951
 51
90.0
  0
ARC
  8
PITCH_DIAMETER
 62
8
  6
HIDDEN
 10
208.2142402868
 20
238.8063870982
 40
103.874963097
 50
197.2223214439
 51
199.674219043
  0
ARC
  8
PITCH_DIAMETER
 62
8
  6
HIDDEN
 10
208.2142402868
 20
238.8063870982
 40
103.874963097
 50
219.7215344588
 51
222.178264057
  0
ARC
  8
PITCH_DIAMETER
 62
8
  6
HIDDEN
 10
208.2142402868
 20
238.8063870982
 40
103.874963097
 50
242.2227404794
 51
244.6689721566
  0
ARC
  8
PITCH_DIAMETER
 62
8
  6
HIDDEN
 10
208.2142402868
 20
238.8063870982
 40
103.874963097
 50
264.7218658423
 51
267.177114276
  0
ARC
  8
PITCH_DIAMETER
 62
8
  6
HIDDEN
 10
208.2142402868
 20
238.8063870982
 40
103.874963097
 50
287.2216924163
 51
289.6765975198
  0
ARC
  8
PITCH_DIAMETER
 62
8
  6
HIDDEN
 10
208.2142402868
 20
238.8063870982
 40
103.874963097
 50
309.7229479282
 51
312.1697227394
  0
ARC
  8
PITCH_DIAMETER
 62
8
  6
HIDDEN
 10
208.2142402868
 20
238.8063870982
 40
103.874963097
 50
332.2215979013
 51
334.6784493081
  0
ARC
  8
PITCH_DIAMETER
 62
8
  6
HIDDEN
 10
208.2142402868
 20
238.8063870982
 40
103.874963097
 50
354.7220887429
 51
357.1734878041
  0
ARC
  8
PITCH_DIAMETER
 62
8
  6
HIDDEN
 10
208.2142402868
 20
238.8063870982
 40
103.874963097
 50
17.2223214439
 51
19.674219043
  0
ARC
  8
PITCH_DIAMETER
 62
8
  6
HIDDEN
 10
208.2142402868
 20
238.8063870982
 40
103.874963097
 50
39.7215344588
 51
42.178264057
  0
ARC
  8
PITCH_DIAMETER
 62
8
  6
HIDDEN
 10
208.2142402868
 20
238.8063870982
 40
103.874963097
 50
62.2227404794
 51
64.6689721566
  0
ARC
  8
PITCH_DIAMETER
 62
8
  6
HIDDEN
 10
208.2142402868
 20
238.8063870982
 40
103.874963097
 50
84.7218658423
 51
87.177114276
  0
ARC
  8
PITCH_DIAMETER
 62
8
  6
HIDDEN
 10
208.2142402868
 20
238.8063870982
 40
103.874963097
 50
107.2216924163
 51
109.6765975198
  0
ARC
  8
PITCH_DIAMETER
 62
8
  6
HIDDEN
 10
208.2142402868
 20
238.8063870982
 40
103.874963097
 50
129.7229479282
 51
132.1697227394
  0
ARC
  8
PITCH_DIAMETER
 62
8
  6
HIDDEN
 10
208.2142402868
 20
238.8063870982
 40
103.874963097
 50
152.2215979013
 51
154.6784493081
  0
ARC
  8
PITCH_DIAMETER
 62
8
  6
HIDDEN
 10
208.2142402868
 20
238.8063870982
 40
103.874963097
 50
174.7220887429
 51
177.1734878041
  0
ARC
  8
PITCH_DIAMETER
 62
40
  6
CONTINUOUS
 10
208.2142402868
 20
238.8063870982
 40
103.874963097
 50
199.674219043
 51
219.7215344588
  0
ARC
  8
PITCH_DIAMETER
 62
40
  6
CONTINUOUS
 10
208.2142402868
 20
238.8063870982
 40
103.874963097
 50
222.178264057
 51
242.2227404794
  0
ARC
  8
PITCH_DIAMETER
 62
40
  6
CONTINUOUS
 10
208.2142402868
 20
238.8063870982
 40
103.874963097
 50
244.6689721566
 51
264.7218658423
  0
ARC
  8
PITCH_DIAMETER
 62
40
  6
CONTINUOUS
 10
208.2142402868
 20
238.8063870982
 40
103.874963097
 50
267.177114276
 51
287.2216924163
  0
ARC
  8
PITCH_DIAMETER
 62
40
  6
CONTINUOUS
 10
208.2142402868
 20
238.8063870982
 40
103.874963097
 50
289.6765975198
 51
309.7229479282
  0
ARC
  8
PITCH_DIAMETER
 62
40
  6
CONTINUOUS
 10
208.2142402868
 20
238.8063870982
 40
103.874963097
 50
312.1697227394
 51
332.2215979013
  0
ARC
  8
PITCH_DIAMETER
 62
40
  6
CONTINUOUS
 10
208.2142402868
 20
238.8063870982
 40
103.874963097
 50
334.6784493081
 51
354.7220887429
  0
ARC
  8
PITCH_DIAMETER
 62
40
  6
CONTINUOUS
 10
208.2142402868
 20
238.8063870982
 40
103.874963097
 50
357.1734878041
 51
17.2223214439
  0
ARC
  8
PITCH_DIAMETER
 62
40
  6
CONTINUOUS
 10
208.2142402868
 20
238.8063870982
 40
103.874963097
 50
19.674219043
 51
39.7215344588
  0
ARC
  8
PITCH_DIAMETER
 62
40
  6
CONTINUOUS
 10
208.2142402868
 20
238.8063870982
 40
103.874963097
 50
42.178264057
 51
62.2227404794
  0
ARC
  8
PITCH_DIAMETER
 62
40
  6
CONTINUOUS
 10
208.2142402868
 20
238.8063870982
 40
103.874963097
 50
64.6689721566
 51
84.7218658423
  0
ARC
  8
PITCH_DIAMETER
 62
40
  6
CONTINUOUS
 10
208.2142402868
 20
238.8063870982
 40
103.874963097
 50
87.177114276
 51
107.2216924163
  0
ARC
  8
PITCH_DIAMETER
 62
40
  6
CONTINUOUS
 10
208.2142402868
 20
238.8063870982
 40
103.874963097
 50
109.6765975198
 51
129.7229479282
  0
ARC
  8
PITCH_DIAMETER
 62
40
  6
CONTINUOUS
 10
208.2142402868
 20
238.8063870982
 40
103.874963097
 50
132.1697227394
 51
152.2215979013
  0
ARC
  8
PITCH_DIAMETER
 62
40
  6
CONTINUOUS
 10
208.2142402868
 20
238.8063870982
 40
103.874963097
 50
154.6784493081
 51
174.7220887429
  0
ARC
  8
PITCH_DIAMETER
 62
40
  6
CONTINUOUS
 10
208.2142402868
 20
238.8063870982
 40
103.874963097
 50
177.1734878041
 51
197.2223214439
  0
ARC
  8
DEFAULT_2
 62
8
  6
HIDDEN
 10
208.2142402868
 20
238.8063870982
 40
90.3790348079
 50
181.5862027409
 51
201.8673623935
  0
ARC
  8
DEFAULT_2
 62
8
  6
HIDDEN
 10
208.2142402868
 20
238.8063870982
 40
90.3790348079
 50
204.1034521733
 51
224.3716744974
  0
ARC
  8
DEFAULT_2
 62
8
  6
HIDDEN
 10
208.2142402868
 20
238.8063870982
 40
90.3790348079
 50
226.5846075254
 51
246.8678334169
  0
ARC
  8
DEFAULT_2
 62
8
  6
HIDDEN
 10
208.2142402868
 20
238.8063870982
 40
90.3790348079
 50
249.0915532647
 51
269.3697470636
  0
ARC
  8
DEFAULT_2
 62
8
  6
HIDDEN
 10
208.2142402868
 20
238.8063870982
 40
90.3790348079
 50
271.594467864
 51
291.8712673063
  0
ARC
  8
DEFAULT_2
 62
8
  6
HIDDEN
 10
208.2142402868
 20
238.8063870982
 40
90.3790348079
 50
294.0839228423
 51
314.3648545642
  0
ARC
  8
DEFAULT_2
 62
8
  6
HIDDEN
 10
208.2142402868
 20
238.8063870982
 40
90.3790348079
 50
316.6000850222
 51
336.8711760269
  0
ARC
  8
DEFAULT_2
 62
8
  6
HIDDEN
 10
208.2142402868
 20
238.8063870982
 40
90.3790348079
 50
339.088155072
 51
359.3699789134
  0
ARC
  8
DEFAULT_2
 62
8
  6
HIDDEN
 10
208.2142402868
 20
238.8063870982
 40
90.3790348079
 50
71.4848166431
 51
89.3657481246
  0
ARC
  8
DEFAULT_2
 62
8
  6
HIDDEN
 10
208.2142402868
 20
238.8063870982
 40
90.3790348079
 50
91.6032608227
 51
95.0680873614
  0
ARC
  8
0
 62
40
  6
CONTINUOUS
 10
208.2142402868
 20
238.8063870982
 40
90.3790348079
 50
180.0
 51
181.5862027409
  0
ARC
  8
0
 62
40
  6
CONTINUOUS
 10
208.2142402868
 20
238.8063870982
 40
90.3790348079
 50
201.8673623935
 51
204.1034521733
  0
ARC
  8
0
 62
40
  6
CONTINUOUS
 10
208.2142402868
 20
238.8063870982
 40
90.3790348079
 50
224.3716744974
 51
226.5846075254
  0
ARC
  8
0
 62
40
  6
CONTINUOUS
 10
208.2142402868
 20
238.8063870982
 40
90.3790348079
 50
246.8678334169
 51
249.0915532647
  0
ARC
  8
0
 62
40
  6
CONTINUOUS
 10
208.2142402868
 20
238.8063870982
 40
90.3790348079
 50
269.3697470636
 51
271.594467864
  0
ARC
  8
0
 62
40
  6
CONTINUOUS
 10
208.2142402868
 20
238.8063870982
 40
90.3790348079
 50
291.8712673063
 51
294.0839228423
  0
ARC
  8
0
 62
40
  6
CONTINUOUS
 10
208.2142402868
 20
238.8063870982
 40
90.3790348079
 50
314.3648545642
 51
316.6000850222
  0
ARC
  8
0
 62
40
  6
CONTINUOUS
 10
208.2142402868
 20
238.8063870982
 40
90.3790348079
 50
336.8711760269
 51
339.088155072
  0
ARC
  8
0
 62
40
  6
CONTINUOUS
 10
208.2142402868
 20
238.8063870982
 40
90.3790348079
 50
359.3699789134
 51
360.0
  0
ARC
  8
0
 62
40
  6
CONTINUOUS
 10
208.2142402868
 20
238.8063870982
 40
90.3790348079
 50
89.3657481246
 51
91.6032608227
  0
CIRCLE
  8
0
 62
7
  6
CONTINUOUS
 10
208.2142402868
 20
238.8063870982
 40
87.9040348079
  0
CIRCLE
  8
0
 62
9
  6
CONTINUOUS
 10
208.2142402868
 20
238.8063870982
 40
85.9040348079
  0
ARC
  8
0
 62
7
  6
CONTINUOUS
 10
258.0984601352
 20
319.8245185222
 40
14.0
 50
98.0358667322
 51
166.7135098004
  0
ARC
  8
0
 62
7
  6
CONTINUOUS
 10
223.2969533829
 20
332.7472449556
 40
14.0
 50
120.5358667322
 51
189.2135098004
  0
ARC
  8
0
 62
7
  6
CONTINUOUS
 10
227.9052151382
 20
339.2996026073
 40
10.0
 50
182.5
 51
247.5
  0
ARC
  8
0
 62
7
  6
CONTINUOUS
 10
242.526730707
 20
323.5016427537
 40
2.0
 50
194.3698976458
 51
346.7135098004
  0
ARC
  8
0
 62
7
  6
CONTINUOUS
 10
256.2811514719
 20
332.6968683164
 40
1.0
 50
340.0
 51
98.0358667322
  0
ARC
  8
0
 62
7
  6
CONTINUOUS
 10
216.6919441027
 20
343.9442915488
 40
1.0
 50
2.5
 51
120.5358667322
  0
ARC
  8
0
 62
7
  6
CONTINUOUS
 10
240.1049464934
 20
322.8811903196
 40
0.5
 50
14.3698976459
 51
67.5
  0
ARC
  8
0
 62
7
  6
CONTINUOUS
 10
300.7761805448
 20
260.8213870982
 40
14.0
 50
53.0358667322
 51
121.7135098004
  0
ARC
  8
0
 62
7
  6
CONTINUOUS
 10
308.5932750947
 20
259.0713870982
 40
10.0
 50
115.0
 51
180.0
  0
ARC
  8
0
 62
7
  6
CONTINUOUS
 10
299.5932750947
 20
239.5172506288
 40
2.0
 50
126.8698976458
 51
279.2135098004
  0
ARC
  8
0
 62
7
  6
CONTINUOUS
 10
292.3654245506
 20
274.432382051
 40
2.0
 50
149.3698976458
 51
301.7135098004
  0
ARC
  8
0
 62
7
  6
CONTINUOUS
 10
308.5932750947
 20
271.2085442068
 40
1.0
 50
295.0
 51
53.0358667322
  0
ARC
  8
0
 62
7
  6
CONTINUOUS
 10
298.0932750947
 20
241.5172506288
 40
0.5
 50
306.8698976458
 51
360.0
  0
ARC
  8
0
 62
7
  6
CONTINUOUS
 10
290.2142383871
 20
275.7061159675
 40
0.5
 50
329.3698976458
 51
22.5
  0
ARC
  8
0
 62
7
  6
CONTINUOUS
 10
285.3055466172
 20
294.5675160107
 40
14.0
 50
75.5358667322
 51
144.2135098004
  0
ARC
  8
0
 62
7
  6
CONTINUOUS
 10
293.1972962822
 20
295.9421994023
 40
10.0
 50
137.5
 51
202.5
  0
ARC
  8
0
 62
7
  6
CONTINUOUS
 10
264.8634175677
 20
324.1146022206
 40
10.0
 50
160.0
 51
225.0
  0
ARC
  8
0
 62
7
  6
CONTINUOUS
 10
272.3263190348
 20
303.9237786921
 40
2.0
 50
171.8698976459
 51
324.2135098004
  0
ARC
  8
0
 62
7
  6
CONTINUOUS
 10
288.5526073407
 20
307.1554704378
 40
1.0
 50
317.5
 51
75.5358667322
  0
ARC
  8
0
 62
7
  6
CONTINUOUS
 10
269.8514453006
 20
304.2773320827
 40
0.5
 50
351.8698976458
 51
45.0
  0
ARC
  8
0
 62
7
  6
CONTINUOUS
 10
423.1126792322
 20
324.7104219061
 40
2.0
 50
90.0
 51
180.0
  0
ARC
  8
0
 62
7
  6
CONTINUOUS
 10
423.1126792322
 20
152.9023522902
 40
2.0
 50
180.0
 51
270.0
  0
ARC
  8
0
 62
7
  6
CONTINUOUS
 10
452.3126792322
 20
324.7104219061
 40
2.0
 50
0.0
 51
90.0
  0
ARC
  8
0
 62
7
  6
CONTINUOUS
 10
452.3126792322
 20
152.9023522902
 40
2.0
 50
270.0
 51
360.0
  0
ENDSEC
  0
EOF
