  0
SECTION
  2
HEADER
  9
$EXTMAX
 10
210.0
 20
297.0
 30
0.0
  9
$EXTMIN
 10
0.0
 20
0.0
 30
0.0
  9
$LIMMIN
 10
0.0
 20
0.0
  9
$LIMMAX
 10
210.0
 20
297.0
  9
$VIEWCTR
 10
105.0
 20
148.5
  9
$VIEWSIZE
 40
297.0
  9
$CLAYER
  8
0
  9
$LTSCALE
 40
19.36
  9
$CELTYPE
  6
BYLAYER
  9
$DIMSCALE
 40
1.0
  9
$DIMASZ
 40
3.5
  9
$DIMEXO
 40
1.0
  9
$DIMDLI
 40
13.376
  9
$DIMEXE
 40
2.0
  9
$DIMCEN
 40
3.168
  9
$DIMLFAC
 40
1.0
  9
$DIMBLK
  1
_FILLED
  9
$DIMTXT
 40
3.5
  9
$PDMODE
 70
3
  9
$PDSIZE
 40
0.3125
  9
$TILEMODE
 70
1
  0
ENDSEC
  0
SECTION
  2
TABLES
  0
TABLE
  2
LTYPE
 70
6
  0
LTYPE
  2
BYBLOCK
 70
0
  3

 72
65
 73
0
 40
0.0
  0
LTYPE
  2
BYLAYER
 70
0
  3

 72
65
 73
0
 40
0.0
  0
LTYPE
  2
CONTINUOUS
 70
64
  3
Solid line
 72
65
 73
0
 40
0.0
  0
LTYPE
  2
CENTER
 70
64
  3
____ _ ____ _ ____ _ ____ _ ____ _ ____ _ ____
 72
65
 73
4
 40
0.6
 49
0.375
 49
-0.075
 49
0.075
 49
-0.075
  0
LTYPE
  2
HIDDEN
 70
64
  3
- - - - - - - - - - - - - - - - - - - -
 72
65
 73
2
 40
0.2
 49
0.1
 49
-0.1
  0
LTYPE
  2
PHANTOM
 70
64
  3
_____ _ _ _____ _ _ _____ _ _ _____
 72
65
 73
6
 40
0.8
 49
0.45
 49
-0.05
 49
0.1
 49
-0.05
 49
0.1
 49
-0.05
  0
LTYPE
  2
DOT
 70
64
  3
. . . . . . . . . . . . . . . . . . . .
 72
65
 73
2
 40
0.2
 49
0.1
 49
-0.1
  0
LTYPE
  2
DASHED
 70
64
  3
- - - - - - - - - - - - - - - - - - - -
 72
65
 73
2
 40
0.2
 49
0.1
 49
-0.1
  0
ENDTAB
  0
TABLE
  2
LAYER
 70
36
  0
LAYER
  2
0
 70
0
 62
7
  6
CONTINUOUS
  0
LAYER
  2
DEFAULT_1
 70
0
 62
7
  6
CENTER
  0
LAYER
  2
DEFAULT_2
 70
0
 62
8
  6
HIDDEN
  0
LAYER
  2
DEFAULT_3
 70
0
 62
7
  6
PHANTOM
  0
LAYER
  2
CURVE
 70
0
 62
7
  6
CONTINUOUS
  0
LAYER
  2
NOTES
 70
0
 62
7
  6
CONTINUOUS
  0
LAYER
  2
PLANES
 70
0
 62
7
  6
CONTINUOUS
  0
LAYER
  2
QUILT
 70
0
 62
7
  6
CONTINUOUS
  0
LAYER
  2
SURFACE
 70
0
 62
7
  6
CONTINUOUS
  0
ENDTAB
  0
TABLE
  2
STYLE
 70
1
  0
STYLE
  2
STANDARD
 70
0
 40
0.0
 41
0.8
 50
0.0
 71
0
 42
0.2
  3
txt
  4

  0
STYLE
  2
TEXTSTYLE_1
 70
0
 40
0.0
 41
0.8
 50
0.0
 71
0
 42
0.2
  3
gdt
  4

  0
STYLE
  2
TEXTSTYLE_2
 70
0
 40
0.0
 41
0.6
 50
0.0
 71
0
 42
0.2
  3
txt
  4

  0
STYLE
  2
TEXTSTYLE_3
 70
0
 40
0.0
 41
1.0
 50
0.0
 71
0
 42
0.2
  3
ftb_____.ttf
  4

  0
STYLE
  2
TEXTSTYLE_4
 70
0
 40
0.0
 41
1.0
 50
0.0
 71
0
 42
0.2
  3
fti_____.ttf
  4

  0
STYLE
  2
TEXTSTYLE_5
 70
0
 40
0.0
 41
0.8
 50
0.0
 71
0
 42
0.2
  3
txt
  4

  0
ENDTAB
  0
ENDSEC
  0
SECTION
  2
BLOCKS
  0
BLOCK
  8
0
 62
2
  6
CONTINUOUS
  2
SYMBOL_11_BL1
 70
64
 10
173.3924355793
 20
35.4837666925
  0
TEXT
  8
0
 62
7
  6
CONTINUOUS
 10
164.4507205878
 20
30.5765230696
  7
TEXTSTYLE_4
 40
1.0655737705
  1
The brand for plastic modular belts and chains
 41
1.0
 72
0
  0
LINE
  8
0
 62
7
  6
CONTINUOUS
 10
149.3705039683
 20
36.0575371843
 11
149.3705039683
 21
33.9263896433
  0
LINE
  8
0
 62
7
  6
CONTINUOUS
 10
149.6595664615
 20
30.9354583476
 11
149.6595664615
 21
31.0322494069
  0
LINE
  8
0
 62
7
  6
CONTINUOUS
 10
149.3705039683
 20
30.9999857205
 11
149.4283164701
 21
30.8064036019
  0
LINE
  8
0
 62
7
  6
CONTINUOUS
 10
150.7639465913
 20
33.8444224302
 11
150.7639465913
 21
36.0575371843
  0
LINE
  8
0
 62
7
  6
CONTINUOUS
 10
151.6830039132
 20
32.0001601351
 11
151.6830039132
 21
30.4837666925
  0
LINE
  8
0
 62
7
  6
CONTINUOUS
 10
151.9720664683
 20
30.4837666925
 11
151.9720664683
 21
31.2258315706
  0
LINE
  8
0
 62
7
  6
CONTINUOUS
 10
151.9720664683
 20
31.3548863163
 11
151.9720664683
 21
32.0001601351
  0
LINE
  8
0
 62
7
  6
CONTINUOUS
 10
149.4283164701
 20
31.1935678842
 11
149.3705039683
 21
30.9999857205
  0
LINE
  8
0
 62
7
  6
CONTINUOUS
 10
149.7751914546
 20
30.7741399155
 11
149.6595664615
 21
30.9354583476
  0
LINE
  8
0
 62
7
  6
CONTINUOUS
 10
150.8736290235
 20
31.2903589434
 11
150.9314414683
 21
31.1935678842
  0
LINE
  8
0
 62
7
  6
CONTINUOUS
 10
151.2205040235
 20
31.1935678842
 11
151.1626914132
 21
31.3226226299
  0
LINE
  8
0
 62
7
  6
CONTINUOUS
 10
152.6491924929
 20
36.0575371843
 11
152.6491924929
 21
34.2542584958
  0
LINE
  8
0
 62
7
  6
CONTINUOUS
 10
152.6491924929
 20
32.9427830859
 11
152.6491924929
 21
32.287045381
  0
LINE
  8
0
 62
7
  6
CONTINUOUS
 10
153.0126914683
 20
31.1290405113
 11
153.0126914683
 21
30.4837666925
  0
LINE
  8
0
 62
7
  6
CONTINUOUS
 10
153.3017538581
 20
30.4837666925
 11
153.3017538581
 21
31.1290405113
  0
LINE
  8
0
 62
7
  6
CONTINUOUS
 10
149.6595664615
 20
31.0322494069
 11
149.7173789683
 21
31.1613041978
  0
LINE
  8
0
 62
7
  6
CONTINUOUS
 10
149.4283164701
 20
30.8064036019
 11
149.5439414683
 21
30.6773488336
  0
LINE
  8
0
 62
7
  6
CONTINUOUS
 10
152.9548788581
 20
31.258095257
 11
153.0126914683
 21
31.1290405113
  0
LINE
  8
0
 62
7
  6
CONTINUOUS
 10
153.7642540786
 20
30.7741399155
 11
153.8220663581
 21
30.6450851472
  0
LINE
  8
0
 62
7
  6
CONTINUOUS
 10
153.3017538581
 20
31.1290405113
 11
153.2439415786
 21
31.2903589434
  0
LINE
  8
0
 62
7
  6
CONTINUOUS
 10
153.7642540786
 20
31.3226226299
 11
153.7642540786
 21
31.258095257
  0
LINE
  8
0
 62
7
  6
CONTINUOUS
 10
153.7642540786
 20
30.8709309748
 11
153.7642540786
 21
30.7741399155
  0
LINE
  8
0
 62
7
  6
CONTINUOUS
 10
154.0426351159
 20
32.287045381
 11
154.0426351159
 21
36.0575371843
  0
LINE
  8
0
 62
7
  6
CONTINUOUS
 10
154.0533164683
 20
30.7418762065
 11
154.0533164683
 21
30.8064036019
  0
LINE
  8
0
 62
7
  6
CONTINUOUS
 10
154.3705039683
 20
36.0575371843
 11
154.3705039683
 21
32.287045381
  0
LINE
  8
0
 62
7
  6
CONTINUOUS
 10
151.1626914132
 20
30.6773488336
 11
151.2205040235
 21
30.8064036019
  0
LINE
  8
0
 62
7
  6
CONTINUOUS
 10
155.5564416889
 20
30.5805577631
 11
155.4986287478
 21
30.7418762065
  0
LINE
  8
0
 62
7
  6
CONTINUOUS
 10
155.2095666889
 20
31.258095257
 11
155.2095666889
 21
31.1613041978
  0
LINE
  8
0
 62
7
  6
CONTINUOUS
 10
155.2095666889
 20
31.0322494069
 11
155.2095666889
 21
30.8386672883
  0
LINE
  8
0
 62
7
  6
CONTINUOUS
 10
155.4986287478
 20
30.7418762065
 11
155.4986287478
 21
31.258095257
  0
LINE
  8
0
 62
7
  6
CONTINUOUS
 10
155.7639465913
 20
32.287045381
 11
155.7639465913
 21
34.0903240696
  0
LINE
  8
0
 62
7
  6
CONTINUOUS
 10
155.7639465913
 20
35.4017994794
 11
155.7639465913
 21
36.0575371843
  0
LINE
  8
0
 62
7
  6
CONTINUOUS
 10
156.0767541889
 20
32.0001601351
 11
156.0767541889
 21
31.838841703
  0
LINE
  8
0
 62
7
  6
CONTINUOUS
 10
156.0767541889
 20
31.5162047484
 11
156.0767541889
 21
30.4837666925
  0
LINE
  8
0
 62
7
  6
CONTINUOUS
 10
156.3658162478
 20
30.4837666925
 11
156.3658162478
 21
31.5162047484
  0
LINE
  8
0
 62
7
  6
CONTINUOUS
 10
156.3658162478
 20
31.838841703
 11
156.3658162478
 21
32.0001601351
  0
LINE
  8
0
 62
7
  6
CONTINUOUS
 10
150.9314414683
 20
30.8064036019
 11
150.8736290235
 21
30.7096125201
  0
LINE
  8
0
 62
7
  6
CONTINUOUS
 10
153.2439415786
 20
31.2903589434
 11
153.1861289683
 21
31.3548863163
  0
LINE
  8
0
 62
7
  6
CONTINUOUS
 10
154.1111290786
 20
30.6773488336
 11
154.0533164683
 21
30.7418762065
  0
LINE
  8
0
 62
7
  6
CONTINUOUS
 10
155.2673789683
 20
30.548294071
 11
155.3251912478
 21
30.4837666925
  0
LINE
  8
0
 62
7
  6
CONTINUOUS
 10
155.2095666889
 20
30.6450851472
 11
155.2673789683
 21
30.548294071
  0
LINE
  8
0
 62
7
  6
CONTINUOUS
 10
155.6142539683
 20
30.4837666925
 11
155.5564416889
 21
30.5805577631
  0
LINE
  8
0
 62
7
  6
CONTINUOUS
 10
155.4986287478
 20
31.258095257
 11
155.4408164683
 21
31.3548863163
  0
LINE
  8
0
 62
7
  6
CONTINUOUS
 10
156.8283164683
 20
31.5162047484
 11
156.8283164683
 21
30.4837666925
  0
LINE
  8
0
 62
7
  6
CONTINUOUS
 10
157.1173791889
 20
30.4837666925
 11
157.1173791889
 21
31.2258315706
  0
LINE
  8
0
 62
7
  6
CONTINUOUS
 10
157.1173791889
 20
31.3548863163
 11
157.1173791889
 21
31.5162047484
  0
LINE
  8
0
 62
7
  6
CONTINUOUS
 10
157.6491924929
 20
34.5001601351
 11
157.6491924929
 21
32.287045381
  0
LINE
  8
0
 62
7
  6
CONTINUOUS
 10
149.5439414683
 20
31.3226226299
 11
149.4283164701
 21
31.1935678842
  0
LINE
  8
0
 62
7
  6
CONTINUOUS
 10
149.7173789683
 20
31.1613041978
 11
149.7751914546
 21
31.2258315706
  0
LINE
  8
0
 62
7
  6
CONTINUOUS
 10
149.5439414683
 20
30.6773488336
 11
149.6595664615
 21
30.6128214495
  0
LINE
  8
0
 62
7
  6
CONTINUOUS
 10
149.9486289546
 20
30.6773488336
 11
149.7751914546
 21
30.7741399155
  0
LINE
  8
0
 62
7
  6
CONTINUOUS
 10
155.1517537478
 20
31.3226226299
 11
155.2095666889
 21
31.258095257
  0
LINE
  8
0
 62
7
  6
CONTINUOUS
 10
158.1001912478
 20
31.258095257
 11
158.1580041889
 21
31.0967768249
  0
LINE
  8
0
 62
7
  6
CONTINUOUS
 10
158.4470662478
 20
31.0967768249
 11
158.3892539683
 21
31.258095257
  0
LINE
  8
0
 62
7
  6
CONTINUOUS
 10
158.1580041889
 20
31.0967768249
 11
158.1580041889
 21
30.4837666925
  0
LINE
  8
0
 62
7
  6
CONTINUOUS
 10
158.4470662478
 20
30.4837666925
 11
158.4470662478
 21
31.0967768249
  0
LINE
  8
0
 62
7
  6
CONTINUOUS
 10
158.9095664683
 20
31.3226226299
 11
158.9095664683
 21
31.258095257
  0
LINE
  8
0
 62
7
  6
CONTINUOUS
 10
159.0426351159
 20
32.287045381
 11
159.0426351159
 21
34.418192922
  0
LINE
  8
0
 62
7
  6
CONTINUOUS
 10
159.3705039683
 20
36.0575371843
 11
159.3705039683
 21
32.287045381
  0
LINE
  8
0
 62
7
  6
CONTINUOUS
 10
154.0533164683
 20
30.8064036019
 11
154.1111290786
 21
30.9031946612
  0
LINE
  8
0
 62
7
  6
CONTINUOUS
 10
149.6595664615
 20
30.6128214495
 11
149.8330039821
 21
30.548294071
  0
LINE
  8
0
 62
7
  6
CONTINUOUS
 10
151.1626914132
 20
31.3226226299
 11
150.9892539132
 21
31.4194136891
  0
LINE
  8
0
 62
7
  6
CONTINUOUS
 10
153.8220663581
 20
30.6450851472
 11
153.9955038581
 21
30.548294071
  0
LINE
  8
0
 62
7
  6
CONTINUOUS
 10
152.8392539683
 20
31.3226226299
 11
152.9548788581
 21
31.258095257
  0
LINE
  8
0
 62
7
  6
CONTINUOUS
 10
153.1861289683
 20
31.3548863163
 11
153.0705040786
 21
31.4194136891
  0
LINE
  8
0
 62
7
  6
CONTINUOUS
 10
158.9095664683
 20
30.7418762065
 11
159.0251916889
 21
30.6128214495
  0
LINE
  8
0
 62
7
  6
CONTINUOUS
 10
159.2564414683
 20
30.6773488336
 11
159.1986291889
 21
30.7418762065
  0
LINE
  8
0
 62
7
  6
CONTINUOUS
 10
158.9095664683
 20
31.258095257
 11
159.0251916889
 21
31.1290405113
  0
LINE
  8
0
 62
7
  6
CONTINUOUS
 10
158.3892539683
 20
31.258095257
 11
158.3314416889
 21
31.3548863163
  0
LINE
  8
0
 62
7
  6
CONTINUOUS
 10
160.7595660273
 20
30.6773488336
 11
160.7595660273
 21
30.7418762065
  0
LINE
  8
0
 62
7
  6
CONTINUOUS
 10
160.7639465913
 20
32.287045381
 11
160.7639465913
 21
36.0575371843
  0
LINE
  8
0
 62
7
  6
CONTINUOUS
 10
153.8220663581
 20
31.3871500027
 11
153.7642540786
 21
31.3226226299
  0
LINE
  8
0
 62
7
  6
CONTINUOUS
 10
150.7001914408
 20
31.3548863163
 11
150.8736290235
 21
31.2903589434
  0
LINE
  8
0
 62
7
  6
CONTINUOUS
 10
155.4408164683
 20
31.3548863163
 11
155.3251912478
 21
31.4194136891
  0
LINE
  8
0
 62
7
  6
CONTINUOUS
 10
159.2564414683
 20
31.1935678842
 11
159.1986291889
 21
31.258095257
  0
LINE
  8
0
 62
7
  6
CONTINUOUS
 10
160.4126916889
 20
30.8064036019
 11
160.4705039683
 21
30.7418762065
  0
LINE
  8
0
 62
7
  6
CONTINUOUS
 10
160.7595660273
 20
30.7418762065
 11
160.6439414683
 21
30.8709309748
  0
LINE
  8
0
 62
7
  6
CONTINUOUS
 10
160.4126916889
 20
31.3226226299
 11
160.4705039683
 21
31.258095257
  0
LINE
  8
0
 62
7
  6
CONTINUOUS
 10
160.7595660273
 20
31.258095257
 11
160.6439414683
 21
31.3871500027
  0
LINE
  8
0
 62
7
  6
CONTINUOUS
 10
154.0533164683
 20
31.258095257
 11
154.1111290786
 21
31.3226226299
  0
LINE
  8
0
 62
7
  6
CONTINUOUS
 10
153.8798789683
 20
30.9999857205
 11
153.7642540786
 21
30.8709309748
  0
LINE
  8
0
 62
7
  6
CONTINUOUS
 10
155.2095666889
 20
30.8386672883
 11
155.1517537478
 21
30.7741399155
  0
LINE
  8
0
 62
7
  6
CONTINUOUS
 10
155.1517537478
 20
30.5805577631
 11
155.2095666889
 21
30.6450851472
  0
LINE
  8
0
 62
7
  6
CONTINUOUS
 10
153.9955038581
 20
30.548294071
 11
154.1111290786
 21
30.5160303817
  0
LINE
  8
0
 62
7
  6
CONTINUOUS
 10
150.9892539132
 20
31.4194136891
 11
150.7580039683
 21
31.483941062
  0
LINE
  8
0
 62
7
  6
CONTINUOUS
 10
154.3423788581
 20
30.6128214495
 11
154.1111290786
 21
30.6773488336
  0
LINE
  8
0
 62
7
  6
CONTINUOUS
 10
153.0705040786
 20
31.4194136891
 11
152.8970665786
 21
31.483941062
  0
LINE
  8
0
 62
7
  6
CONTINUOUS
 10
155.3251912478
 20
31.4194136891
 11
155.1517537478
 21
31.483941062
  0
LINE
  8
0
 62
7
  6
CONTINUOUS
 10
157.9845666889
 20
31.3226226299
 11
158.1001912478
 21
31.258095257
  0
LINE
  8
0
 62
7
  6
CONTINUOUS
 10
158.3314416889
 20
31.3548863163
 11
158.2158164683
 21
31.4194136891
  0
LINE
  8
0
 62
7
  6
CONTINUOUS
 10
149.8330039821
 20
30.548294071
 11
150.0064414821
 21
30.5160303817
  0
LINE
  8
0
 62
7
  6
CONTINUOUS
 10
150.2955039959
 20
30.6128214495
 11
149.9486289546
 21
30.6773488336
  0
LINE
  8
0
 62
7
  6
CONTINUOUS
 10
152.7236290786
 20
31.3548863163
 11
152.8392539683
 21
31.3226226299
  0
LINE
  8
0
 62
7
  6
CONTINUOUS
 10
155.0361291889
 20
31.3548863163
 11
155.1517537478
 21
31.3226226299
  0
LINE
  8
0
 62
7
  6
CONTINUOUS
 10
159.3720666889
 20
30.6450851472
 11
159.2564414683
 21
30.6773488336
  0
LINE
  8
0
 62
7
  6
CONTINUOUS
 10
157.8689414683
 20
31.3548863163
 11
157.9845666889
 21
31.3226226299
  0
LINE
  8
0
 62
7
  6
CONTINUOUS
 10
159.0251916889
 20
30.6128214495
 11
159.1986291889
 21
30.548294071
  0
LINE
  8
0
 62
7
  6
CONTINUOUS
 10
158.2158164683
 20
31.4194136891
 11
158.0423789683
 21
31.483941062
  0
LINE
  8
0
 62
7
  6
CONTINUOUS
 10
159.4298789683
 20
31.1290405113
 11
159.2564414683
 21
31.1935678842
  0
LINE
  8
0
 62
7
  6
CONTINUOUS
 10
160.2392541889
 20
30.8709309748
 11
160.4126916889
 21
30.8064036019
  0
LINE
  8
0
 62
7
  6
CONTINUOUS
 10
160.6439414683
 20
31.3871500027
 11
160.4705039683
 21
31.4516773756
  0
LINE
  8
0
 62
7
  6
CONTINUOUS
 10
159.0251916889
 20
31.1290405113
 11
159.2564414683
 21
31.0322494069
  0
LINE
  8
0
 62
7
  6
CONTINUOUS
 10
160.6439414683
 20
30.8709309748
 11
160.4126916889
 21
30.967722034
  0
LINE
  8
0
 62
7
  6
CONTINUOUS
 10
159.1986291889
 20
31.258095257
 11
159.2564414683
 21
31.3226226299
  0
LINE
  8
0
 62
7
  6
CONTINUOUS
 10
149.6595664615
 20
31.3871500027
 11
149.5439414683
 21
31.3226226299
  0
LINE
  8
0
 62
7
  6
CONTINUOUS
 10
149.7751914546
 20
31.2258315706
 11
149.9486289546
 21
31.3226226299
  0
LINE
  8
0
 62
7
  6
CONTINUOUS
 10
152.0876915235
 20
31.4194136891
 11
151.9720664683
 21
31.3548863163
  0
LINE
  8
0
 62
7
  6
CONTINUOUS
 10
151.9720664683
 20
31.2258315706
 11
152.0876915235
 21
31.2903589434
  0
LINE
  8
0
 62
7
  6
CONTINUOUS
 10
150.9892539132
 20
30.5805577631
 11
151.1626914132
 21
30.6773488336
  0
LINE
  8
0
 62
7
  6
CONTINUOUS
 10
150.0064414821
 20
30.5160303817
 11
150.3533164408
 21
30.4837666925
  0
LINE
  8
0
 62
7
  6
CONTINUOUS
 10
154.1111290786
 20
30.5160303817
 11
154.3423788581
 21
30.4837666925
  0
LINE
  8
0
 62
7
  6
CONTINUOUS
 10
152.4923789683
 20
31.3871500027
 11
152.7236290786
 21
31.3548863163
  0
LINE
  8
0
 62
7
  6
CONTINUOUS
 10
154.8048790786
 20
31.3871500027
 11
155.0361291889
 21
31.3548863163
  0
LINE
  8
0
 62
7
  6
CONTINUOUS
 10
159.2564414683
 20
31.0322494069
 11
160.2392541889
 21
30.8709309748
  0
LINE
  8
0
 62
7
  6
CONTINUOUS
 10
160.4126916889
 20
30.967722034
 11
159.4298789683
 21
31.1290405113
  0
LINE
  8
0
 62
7
  6
CONTINUOUS
 10
152.8970665786
 20
31.483941062
 11
152.7236290786
 21
31.5162047484
  0
LINE
  8
0
 62
7
  6
CONTINUOUS
 10
159.1986291889
 20
30.548294071
 11
159.3720666889
 21
30.5160303817
  0
LINE
  8
0
 62
7
  6
CONTINUOUS
 10
158.0423789683
 20
31.483941062
 11
157.8689414683
 21
31.5162047484
  0
LINE
  8
0
 62
7
  6
CONTINUOUS
 10
160.2970664683
 20
31.3548863163
 11
160.4126916889
 21
31.3226226299
  0
LINE
  8
0
 62
7
  6
CONTINUOUS
 10
160.4705039683
 20
30.7418762065
 11
160.4126916889
 21
30.6773488336
  0
LINE
  8
0
 62
7
  6
CONTINUOUS
 10
159.0251916889
 20
31.4194136891
 11
158.9095664683
 21
31.3226226299
  0
LINE
  8
0
 62
7
  6
CONTINUOUS
 10
153.9376915786
 20
31.4516773756
 11
153.8220663581
 21
31.3871500027
  0
LINE
  8
0
 62
7
  6
CONTINUOUS
 10
153.9955038581
 20
31.0645131385
 11
153.8798789683
 21
30.9999857205
  0
LINE
  8
0
 62
7
  6
CONTINUOUS
 10
154.1111290786
 20
30.9031946612
 11
154.2267539683
 21
30.967722034
  0
LINE
  8
0
 62
7
  6
CONTINUOUS
 10
151.6830039132
 20
30.4837666925
 11
151.9720664683
 21
30.4837666925
  0
LINE
  8
0
 62
7
  6
CONTINUOUS
 10
153.0126914683
 20
30.4837666925
 11
153.3017538581
 21
30.4837666925
  0
LINE
  8
0
 62
7
  6
CONTINUOUS
 10
154.3423788581
 20
30.4837666925
 11
154.6892538581
 21
30.4837666925
  0
LINE
  8
0
 62
7
  6
CONTINUOUS
 10
155.3251912478
 20
30.4837666925
 11
155.6142539683
 21
30.4837666925
  0
LINE
  8
0
 62
7
  6
CONTINUOUS
 10
156.0767541889
 20
30.4837666925
 11
156.3658162478
 21
30.4837666925
  0
LINE
  8
0
 62
7
  6
CONTINUOUS
 10
156.8283164683
 20
30.4837666925
 11
157.1173791889
 21
30.4837666925
  0
LINE
  8
0
 62
7
  6
CONTINUOUS
 10
158.1580041889
 20
30.4837666925
 11
158.4470662478
 21
30.4837666925
  0
LINE
  8
0
 62
7
  6
CONTINUOUS
 10
159.7189416889
 20
30.4837666925
 11
160.0658166889
 21
30.4837666925
  0
LINE
  8
0
 62
7
  6
CONTINUOUS
 10
160.0658166889
 20
30.6128214495
 11
159.7189416889
 21
30.6128214495
  0
LINE
  8
0
 62
7
  6
CONTINUOUS
 10
154.6892538581
 20
30.6128214495
 11
154.3423788581
 21
30.6128214495
  0
LINE
  8
0
 62
7
  6
CONTINUOUS
 10
159.1986291889
 20
30.7418762065
 11
158.9095664683
 21
30.7418762065
  0
LINE
  8
0
 62
7
  6
CONTINUOUS
 10
151.2205040235
 20
30.8064036019
 11
150.9314414683
 21
30.8064036019
  0
LINE
  8
0
 62
7
  6
CONTINUOUS
 10
150.2955039959
 20
31.3871500027
 11
150.7001914408
 21
31.3548863163
  0
LINE
  8
0
 62
7
  6
CONTINUOUS
 10
150.7580039683
 20
31.483941062
 11
150.3533164408
 21
31.5162047484
  0
LINE
  8
0
 62
7
  6
CONTINUOUS
 10
159.3720666889
 20
30.5160303817
 11
159.7189416889
 21
30.4837666925
  0
LINE
  8
0
 62
7
  6
CONTINUOUS
 10
159.7189416889
 20
30.6128214495
 11
159.3720666889
 21
30.6450851472
  0
LINE
  8
0
 62
7
  6
CONTINUOUS
 10
155.1517537478
 20
31.483941062
 11
154.8048790786
 21
31.5162047484
  0
LINE
  8
0
 62
7
  6
CONTINUOUS
 10
159.9501914683
 20
31.3871500027
 11
160.2970664683
 21
31.3548863163
  0
LINE
  8
0
 62
7
  6
CONTINUOUS
 10
160.2970664683
 20
31.483941062
 11
159.9501914683
 21
31.5162047484
  0
LINE
  8
0
 62
7
  6
CONTINUOUS
 10
157.6376916889
 20
31.3871500027
 11
157.8689414683
 21
31.3548863163
  0
LINE
  8
0
 62
7
  6
CONTINUOUS
 10
160.4705039683
 20
31.4516773756
 11
160.2970664683
 21
31.483941062
  0
LINE
  8
0
 62
7
  6
CONTINUOUS
 10
160.6439414683
 20
30.5805577631
 11
160.7595660273
 21
30.6773488336
  0
LINE
  8
0
 62
7
  6
CONTINUOUS
 10
155.1517537478
 20
30.7741399155
 11
154.9783162478
 21
30.6773488336
  0
LINE
  8
0
 62
7
  6
CONTINUOUS
 10
157.2330037478
 20
31.4194136891
 11
157.1173791889
 21
31.3548863163
  0
LINE
  8
0
 62
7
  6
CONTINUOUS
 10
157.1173791889
 20
31.2258315706
 11
157.2330037478
 21
31.2903589434
  0
LINE
  8
0
 62
7
  6
CONTINUOUS
 10
149.8330039821
 20
31.4516773756
 11
149.6595664615
 21
31.3871500027
  0
LINE
  8
0
 62
7
  6
CONTINUOUS
 10
152.2611288581
 20
31.483941062
 11
152.0876915235
 21
31.4194136891
  0
LINE
  8
0
 62
7
  6
CONTINUOUS
 10
152.0876915235
 20
31.2903589434
 11
152.2611288581
 21
31.3548863163
  0
LINE
  8
0
 62
7
  6
CONTINUOUS
 10
150.8736290235
 20
30.7096125201
 11
150.7001914408
 21
30.6450851472
  0
LINE
  8
0
 62
7
  6
CONTINUOUS
 10
160.2970664683
 20
30.6450851472
 11
160.0658166889
 21
30.6128214495
  0
LINE
  8
0
 62
7
  6
CONTINUOUS
 10
154.6892538581
 20
30.4837666925
 11
154.9783162478
 21
30.5160303817
  0
LINE
  8
0
 62
7
  6
CONTINUOUS
 10
160.0658166889
 20
30.4837666925
 11
160.4126916889
 21
30.5160303817
  0
LINE
  8
0
 62
7
  6
CONTINUOUS
 10
150.3533164408
 20
30.4837666925
 11
150.7580039683
 21
30.5160303817
  0
LINE
  8
0
 62
7
  6
CONTINUOUS
 10
150.7001914408
 20
30.6450851472
 11
150.2955039959
 21
30.6128214495
  0
LINE
  8
0
 62
7
  6
CONTINUOUS
 10
154.5736289683
 20
31.0322494069
 11
155.2095666889
 21
31.0322494069
  0
LINE
  8
0
 62
7
  6
CONTINUOUS
 10
155.2095666889
 20
31.1613041978
 11
154.5736289683
 21
31.1613041978
  0
LINE
  8
0
 62
7
  6
CONTINUOUS
 10
150.9314414683
 20
31.1935678842
 11
151.2205040235
 21
31.1935678842
  0
LINE
  8
0
 62
7
  6
CONTINUOUS
 10
153.7642540786
 20
31.258095257
 11
154.0533164683
 21
31.258095257
  0
LINE
  8
0
 62
7
  6
CONTINUOUS
 10
160.4705039683
 20
31.258095257
 11
160.7595660273
 21
31.258095257
  0
LINE
  8
0
 62
7
  6
CONTINUOUS
 10
154.4580040786
 20
31.3871500027
 11
154.8048790786
 21
31.3871500027
  0
LINE
  8
0
 62
7
  6
CONTINUOUS
 10
159.6033164683
 20
31.3871500027
 11
159.9501914683
 21
31.3871500027
  0
LINE
  8
0
 62
7
  6
CONTINUOUS
 10
159.9501914683
 20
31.5162047484
 11
159.6033164683
 21
31.5162047484
  0
LINE
  8
0
 62
7
  6
CONTINUOUS
 10
157.8689414683
 20
31.5162047484
 11
157.6376916889
 21
31.5162047484
  0
LINE
  8
0
 62
7
  6
CONTINUOUS
 10
157.1173791889
 20
31.5162047484
 11
156.8283164683
 21
31.5162047484
  0
LINE
  8
0
 62
7
  6
CONTINUOUS
 10
156.3658162478
 20
31.5162047484
 11
156.0767541889
 21
31.5162047484
  0
LINE
  8
0
 62
7
  6
CONTINUOUS
 10
154.8048790786
 20
31.5162047484
 11
154.4580040786
 21
31.5162047484
  0
LINE
  8
0
 62
7
  6
CONTINUOUS
 10
152.7236290786
 20
31.5162047484
 11
152.4923789683
 21
31.5162047484
  0
LINE
  8
0
 62
7
  6
CONTINUOUS
 10
156.0767541889
 20
31.838841703
 11
156.3658162478
 21
31.838841703
  0
LINE
  8
0
 62
7
  6
CONTINUOUS
 10
156.3658162478
 20
32.0001601351
 11
156.0767541889
 21
32.0001601351
  0
LINE
  8
0
 62
7
  6
CONTINUOUS
 10
151.9720664683
 20
32.0001601351
 11
151.6830039132
 21
32.0001601351
  0
LINE
  8
0
 62
7
  6
CONTINUOUS
 10
151.0098482306
 20
32.287045381
 11
151.4224195792
 21
32.287045381
  0
LINE
  8
0
 62
7
  6
CONTINUOUS
 10
152.6491924929
 20
32.287045381
 11
154.0426351159
 21
32.287045381
  0
LINE
  8
0
 62
7
  6
CONTINUOUS
 10
154.3705039683
 20
32.287045381
 11
155.7639465913
 21
32.287045381
  0
LINE
  8
0
 62
7
  6
CONTINUOUS
 10
157.6491924929
 20
32.287045381
 11
159.0426351159
 21
32.287045381
  0
LINE
  8
0
 62
7
  6
CONTINUOUS
 10
159.3705039683
 20
32.287045381
 11
160.7639465913
 21
32.287045381
  0
LINE
  8
0
 62
7
  6
CONTINUOUS
 10
157.4064412478
 20
31.483941062
 11
157.2330037478
 21
31.4194136891
  0
LINE
  8
0
 62
7
  6
CONTINUOUS
 10
154.9783162478
 20
30.5160303817
 11
155.1517537478
 21
30.5805577631
  0
LINE
  8
0
 62
7
  6
CONTINUOUS
 10
160.4126916889
 20
30.5160303817
 11
160.6439414683
 21
30.5805577631
  0
LINE
  8
0
 62
7
  6
CONTINUOUS
 10
160.4126916889
 20
30.6773488336
 11
160.2970664683
 21
30.6450851472
  0
LINE
  8
0
 62
7
  6
CONTINUOUS
 10
159.3720666889
 20
31.3548863163
 11
159.6033164683
 21
31.3871500027
  0
LINE
  8
0
 62
7
  6
CONTINUOUS
 10
157.4064412478
 20
31.3548863163
 11
157.6376916889
 21
31.3871500027
  0
LINE
  8
0
 62
7
  6
CONTINUOUS
 10
154.3423788581
 20
30.9999857205
 11
154.5736289683
 21
31.0322494069
  0
LINE
  8
0
 62
7
  6
CONTINUOUS
 10
157.6376916889
 20
31.5162047484
 11
157.4064412478
 21
31.483941062
  0
LINE
  8
0
 62
7
  6
CONTINUOUS
 10
154.2267539683
 20
31.3548863163
 11
154.4580040786
 21
31.3871500027
  0
LINE
  8
0
 62
7
  6
CONTINUOUS
 10
159.6033164683
 20
31.5162047484
 11
159.2564414683
 21
31.483941062
  0
LINE
  8
0
 62
7
  6
CONTINUOUS
 10
154.5736289683
 20
31.1613041978
 11
154.2267539683
 21
31.1290405113
  0
LINE
  8
0
 62
7
  6
CONTINUOUS
 10
150.3533164408
 20
31.5162047484
 11
150.0064414821
 21
31.483941062
  0
LINE
  8
0
 62
7
  6
CONTINUOUS
 10
154.4580040786
 20
31.5162047484
 11
154.0533164683
 21
31.483941062
  0
LINE
  8
0
 62
7
  6
CONTINUOUS
 10
151.8295203618
 20
33.4345863646
 11
151.1737826569
 21
33.4345863646
  0
LINE
  8
0
 62
7
  6
CONTINUOUS
 10
157.2330037478
 20
31.2903589434
 11
157.4064412478
 21
31.3548863163
  0
LINE
  8
0
 62
7
  6
CONTINUOUS
 10
159.2564414683
 20
31.3226226299
 11
159.3720666889
 21
31.3548863163
  0
LINE
  8
0
 62
7
  6
CONTINUOUS
 10
159.2564414683
 20
31.483941062
 11
159.0251916889
 21
31.4194136891
  0
LINE
  8
0
 62
7
  6
CONTINUOUS
 10
154.9783162478
 20
30.6773488336
 11
154.6892538581
 21
30.6128214495
  0
LINE
  8
0
 62
7
  6
CONTINUOUS
 10
152.2611288581
 20
31.3548863163
 11
152.4923789683
 21
31.3871500027
  0
LINE
  8
0
 62
7
  6
CONTINUOUS
 10
152.4923789683
 20
31.5162047484
 11
152.2611288581
 21
31.483941062
  0
LINE
  8
0
 62
7
  6
CONTINUOUS
 10
150.0642539683
 20
31.3548863163
 11
150.2955039959
 21
31.3871500027
  0
LINE
  8
0
 62
7
  6
CONTINUOUS
 10
156.5836187224
 20
34.9099962007
 11
157.2393564274
 21
34.9099962007
  0
LINE
  8
0
 62
7
  6
CONTINUOUS
 10
154.2267539683
 20
30.967722034
 11
154.3423788581
 21
30.9999857205
  0
LINE
  8
0
 62
7
  6
CONTINUOUS
 10
154.2267539683
 20
31.1290405113
 11
153.9955038581
 21
31.0645131385
  0
LINE
  8
0
 62
7
  6
CONTINUOUS
 10
154.1111290786
 20
31.3226226299
 11
154.2267539683
 21
31.3548863163
  0
LINE
  8
0
 62
7
  6
CONTINUOUS
 10
150.7580039683
 20
30.5160303817
 11
150.9892539132
 21
30.5805577631
  0
LINE
  8
0
 62
7
  6
CONTINUOUS
 10
154.0533164683
 20
31.483941062
 11
153.9376915786
 21
31.4516773756
  0
LINE
  8
0
 62
7
  6
CONTINUOUS
 10
150.0064414821
 20
31.483941062
 11
149.8330039821
 21
31.4516773756
  0
LINE
  8
0
 62
7
  6
CONTINUOUS
 10
160.7639465913
 20
36.0575371843
 11
159.3705039683
 21
36.0575371843
  0
LINE
  8
0
 62
7
  6
CONTINUOUS
 10
157.4032908536
 20
36.0575371843
 11
156.990719505
 21
36.0575371843
  0
LINE
  8
0
 62
7
  6
CONTINUOUS
 10
155.7639465913
 20
36.0575371843
 11
154.3705039683
 21
36.0575371843
  0
LINE
  8
0
 62
7
  6
CONTINUOUS
 10
154.0426351159
 20
36.0575371843
 11
152.6491924929
 21
36.0575371843
  0
LINE
  8
0
 62
7
  6
CONTINUOUS
 10
150.7639465913
 20
36.0575371843
 11
149.3705039683
 21
36.0575371843
  0
LINE
  8
0
 62
7
  6
CONTINUOUS
 10
149.9486289546
 20
31.3226226299
 11
150.0642539683
 21
31.3548863163
  0
CIRCLE
  8
0
 62
7
  6
CONTINUOUS
 10
160.0672252798
 20
38.3936027581
 40
2.0901639344
  0
ARC
  8
0
 62
7
  6
CONTINUOUS
 10
151.0098482306
 20
33.9263896433
 40
1.6393442623
 50
180.0
 51
270.0
  0
ARC
  8
0
 62
7
  6
CONTINUOUS
 10
157.4032908536
 20
34.418192922
 40
1.6393442623
 50
0.0
 51
90.0
  0
ARC
  8
0
 62
7
  6
CONTINUOUS
 10
151.4224195792
 20
33.7624552171
 40
1.4754098361
 50
270.0
 51
326.2510114041
  0
ARC
  8
0
 62
7
  6
CONTINUOUS
 10
156.990719505
 20
34.5821273482
 40
1.4754098361
 50
90.0
 51
146.2510114041
  0
ARC
  8
0
 62
7
  6
CONTINUOUS
 10
151.8295203618
 20
34.2542584958
 40
0.8196721311
 50
270.0
 51
360.0
  0
ARC
  8
0
 62
7
  6
CONTINUOUS
 10
156.5836187224
 20
34.0903240696
 40
0.8196721311
 50
90.0
 51
180.0
  0
ARC
  8
0
 62
7
  6
CONTINUOUS
 10
151.1737826569
 20
33.8444224302
 40
0.4098360656
 50
180.0
 51
270.0
  0
ARC
  8
0
 62
7
  6
CONTINUOUS
 10
157.2393564274
 20
34.5001601351
 40
0.4098360656
 50
0.0
 51
90.0
  0
SOLID
  8
0
 62
7
  6
CONTINUOUS
 10
156.0767541889
 20
31.8388420633
 11
156.0767541889
 21
32.0001605469
 12
156.3658162478
 22
31.8388420633
 13
156.3658162478
 23
32.0001605469
  0
SOLID
  8
0
 62
7
  6
CONTINUOUS
 10
150.3533164408
 20
31.5162050961
 11
150.7580039683
 21
31.4839409236
 12
150.0064414821
 22
31.4839409236
 13
150.0064414821
 23
31.4839409236
  0
SOLID
  8
0
 62
7
  6
CONTINUOUS
 10
149.8330039821
 20
31.4516780059
 11
150.0064414821
 21
31.4839409236
 12
150.7580039683
 22
31.4839409236
 13
150.7580039683
 23
31.4839409236
  0
SOLID
  8
0
 62
7
  6
CONTINUOUS
 10
150.7580039683
 20
31.4839409236
 11
150.9892539132
 21
31.4194137026
 12
149.8330039821
 22
31.4516780059
 13
149.8330039821
 23
31.4516780059
  0
SOLID
  8
0
 62
7
  6
CONTINUOUS
 10
149.6595664615
 20
31.3871495108
 11
149.8330039821
 21
31.4516780059
 12
150.9892539132
 22
31.4194137026
 13
150.9892539132
 23
31.4194137026
  0
SOLID
  8
0
 62
7
  6
CONTINUOUS
 10
149.6595664615
 20
31.3871495108
 11
150.9892539132
 21
31.4194137026
 12
150.2955039959
 22
31.3871495108
 13
150.2955039959
 23
31.3871495108
  0
SOLID
  8
0
 62
7
  6
CONTINUOUS
 10
150.2955039959
 20
31.3871495108
 11
150.9892539132
 21
31.4194137026
 12
150.7001914408
 22
31.3548866125
 13
150.7001914408
 23
31.3548866125
  0
SOLID
  8
0
 62
7
  6
CONTINUOUS
 10
150.9892539132
 20
31.4194137026
 11
151.1626914132
 21
31.3226223092
 12
150.7001914408
 22
31.3548866125
 13
150.7001914408
 23
31.3548866125
  0
SOLID
  8
0
 62
7
  6
CONTINUOUS
 10
150.8736290235
 20
31.2903595223
 11
150.7001914408
 21
31.3548866125
 12
151.1626914132
 22
31.3226223092
 13
151.1626914132
 23
31.3226223092
  0
SOLID
  8
0
 62
7
  6
CONTINUOUS
 10
150.8736290235
 20
31.2903595223
 11
151.1626914132
 21
31.3226223092
 12
150.9314414683
 22
31.1935679757
 13
150.9314414683
 23
31.1935679757
  0
SOLID
  8
0
 62
7
  6
CONTINUOUS
 10
151.1626914132
 20
31.3226223092
 11
151.2205040235
 21
31.1935679757
 12
150.9314414683
 22
31.1935679757
 13
150.9314414683
 23
31.1935679757
  0
SOLID
  8
0
 62
7
  6
CONTINUOUS
 10
152.2611288581
 20
31.4839414344
 11
152.4923789683
 21
31.5162057377
 12
152.7236290786
 22
31.5162057377
 13
152.7236290786
 23
31.5162057377
  0
SOLID
  8
0
 62
7
  6
CONTINUOUS
 10
152.7236290786
 20
31.5162057377
 11
152.8970665786
 21
31.4839414344
 12
152.2611288581
 22
31.4839414344
 13
152.2611288581
 23
31.4839414344
  0
SOLID
  8
0
 62
7
  6
CONTINUOUS
 10
152.0876915235
 20
31.4194143443
 11
152.2611288581
 21
31.4839414344
 12
152.8970665786
 22
31.4839414344
 13
152.8970665786
 23
31.4839414344
  0
SOLID
  8
0
 62
7
  6
CONTINUOUS
 10
152.8970665786
 20
31.4839414344
 11
153.0705040786
 21
31.4194143443
 12
152.0876915235
 22
31.4194143443
 13
152.0876915235
 23
31.4194143443
  0
SOLID
  8
0
 62
7
  6
CONTINUOUS
 10
153.0705040786
 20
31.4194143443
 11
152.4923789683
 21
31.3871493993
 12
152.0876915235
 22
31.4194143443
 13
152.0876915235
 23
31.4194143443
  0
SOLID
  8
0
 62
7
  6
CONTINUOUS
 10
151.9720664683
 20
31.3548872541
 11
152.0876915235
 21
31.4194143443
 12
152.4923789683
 22
31.3871493993
 13
152.4923789683
 23
31.3871493993
  0
SOLID
  8
0
 62
7
  6
CONTINUOUS
 10
152.4923789683
 20
31.3871493993
 11
152.2611288581
 21
31.3548872541
 12
151.9720664683
 22
31.3548872541
 13
151.9720664683
 23
31.3548872541
  0
SOLID
  8
0
 62
7
  6
CONTINUOUS
 10
152.4923789683
 20
31.3871493993
 11
153.0705040786
 21
31.4194143443
 12
152.7236290786
 22
31.3548872541
 13
152.7236290786
 23
31.3548872541
  0
SOLID
  8
0
 62
7
  6
CONTINUOUS
 10
153.0705040786
 20
31.4194143443
 11
153.1861289683
 21
31.3548872541
 12
152.7236290786
 22
31.3548872541
 13
152.7236290786
 23
31.3548872541
  0
SOLID
  8
0
 62
7
  6
CONTINUOUS
 10
152.8392539683
 20
31.3226223092
 11
152.7236290786
 21
31.3548872541
 12
153.1861289683
 22
31.3548872541
 13
153.1861289683
 23
31.3548872541
  0
SOLID
  8
0
 62
7
  6
CONTINUOUS
 10
153.1861289683
 20
31.3548872541
 11
153.2439415786
 21
31.2903601639
 12
152.8392539683
 22
31.3226223092
 13
152.8392539683
 23
31.3226223092
  0
SOLID
  8
0
 62
7
  6
CONTINUOUS
 10
152.9548788581
 20
31.258095219
 11
152.8392539683
 21
31.3226223092
 12
153.2439415786
 22
31.2903601639
 13
153.2439415786
 23
31.2903601639
  0
SOLID
  8
0
 62
7
  6
CONTINUOUS
 10
152.9548788581
 20
31.258095219
 11
153.2439415786
 21
31.2903601639
 12
153.0126914683
 22
31.1290416803
 13
153.0126914683
 23
31.1290416803
  0
SOLID
  8
0
 62
7
  6
CONTINUOUS
 10
153.2439415786
 20
31.2903601639
 11
153.3017538581
 21
31.1290416803
 12
153.0126914683
 22
31.1290416803
 13
153.0126914683
 23
31.1290416803
  0
SOLID
  8
0
 62
7
  6
CONTINUOUS
 10
152.2611288581
 20
31.3548872541
 11
152.0876915235
 21
31.2903601639
 12
151.9720664683
 22
31.3548872541
 13
151.9720664683
 23
31.3548872541
  0
SOLID
  8
0
 62
7
  6
CONTINUOUS
 10
152.0876915235
 20
31.2903601639
 11
151.9720664683
 21
31.2258309157
 12
151.9720664683
 22
31.3548872541
 13
151.9720664683
 23
31.3548872541
  0
SOLID
  8
0
 62
7
  6
CONTINUOUS
 10
151.9720664683
 20
31.2258309157
 11
151.6830039132
 21
30.4837677459
 12
151.9720664683
 22
31.3548872541
 13
151.9720664683
 23
31.3548872541
  0
SOLID
  8
0
 62
7
  6
CONTINUOUS
 10
151.9720664683
 20
31.3548872541
 11
151.6830039132
 21
30.4837677459
 12
151.9720664683
 22
32.0001611885
 13
151.9720664683
 23
32.0001611885
  0
SOLID
  8
0
 62
7
  6
CONTINUOUS
 10
151.6830039132
 20
30.4837677459
 11
151.6830039132
 21
32.0001611885
 12
151.9720664683
 22
32.0001611885
 13
151.9720664683
 23
32.0001611885
  0
SOLID
  8
0
 62
7
  6
CONTINUOUS
 10
151.9720664683
 20
31.2258309157
 11
151.9720664683
 21
30.4837677459
 12
151.6830039132
 22
30.4837677459
 13
151.6830039132
 23
30.4837677459
  0
SOLID
  8
0
 62
7
  6
CONTINUOUS
 10
153.0126914683
 20
30.4837677459
 11
153.0126914683
 21
31.1290416803
 12
153.3017538581
 22
31.1290416803
 13
153.3017538581
 23
31.1290416803
  0
SOLID
  8
0
 62
7
  6
CONTINUOUS
 10
153.3017538581
 20
31.1290416803
 11
153.3017538581
 21
30.4837677459
 12
153.0126914683
 22
30.4837677459
 13
153.0126914683
 23
30.4837677459
  0
SOLID
  8
0
 62
7
  6
CONTINUOUS
 10
154.0533164683
 20
31.4839408139
 11
154.4580040786
 21
31.5162048066
 12
154.8048790786
 22
31.5162048066
 13
154.8048790786
 23
31.5162048066
  0
SOLID
  8
0
 62
7
  6
CONTINUOUS
 10
154.8048790786
 20
31.5162048066
 11
155.1517537478
 21
31.4839408139
 12
154.0533164683
 22
31.4839408139
 13
154.0533164683
 23
31.4839408139
  0
SOLID
  8
0
 62
7
  6
CONTINUOUS
 10
153.9376915786
 20
31.4516780059
 11
154.0533164683
 21
31.4839408139
 12
155.1517537478
 22
31.4839408139
 13
155.1517537478
 23
31.4839408139
  0
SOLID
  8
0
 62
7
  6
CONTINUOUS
 10
155.1517537478
 20
31.4839408139
 11
155.3251912478
 21
31.4194137026
 12
153.9376915786
 22
31.4516780059
 13
153.9376915786
 23
31.4516780059
  0
SOLID
  8
0
 62
7
  6
CONTINUOUS
 10
153.8220663581
 20
31.38714961
 11
153.9376915786
 21
31.4516780059
 12
155.3251912478
 22
31.4194137026
 13
155.3251912478
 23
31.4194137026
  0
SOLID
  8
0
 62
7
  6
CONTINUOUS
 10
153.8220663581
 20
31.38714961
 11
155.3251912478
 21
31.4194137026
 12
154.4580040786
 22
31.38714961
 13
154.4580040786
 23
31.38714961
  0
SOLID
  8
0
 62
7
  6
CONTINUOUS
 10
154.4580040786
 20
31.38714961
 11
155.3251912478
 21
31.4194137026
 12
154.8048790786
 22
31.38714961
 13
154.8048790786
 23
31.38714961
  0
SOLID
  8
0
 62
7
  6
CONTINUOUS
 10
154.8048790786
 20
31.38714961
 11
155.3251912478
 21
31.4194137026
 12
155.0361291889
 22
31.3548863916
 13
155.0361291889
 23
31.3548863916
  0
SOLID
  8
0
 62
7
  6
CONTINUOUS
 10
155.3251912478
 20
31.4194137026
 11
155.4408164683
 21
31.3548863916
 12
155.0361291889
 22
31.3548863916
 13
155.0361291889
 23
31.3548863916
  0
SOLID
  8
0
 62
7
  6
CONTINUOUS
 10
153.7642540786
 20
31.3226223989
 11
153.8220663581
 21
31.38714961
 12
154.4580040786
 22
31.38714961
 13
154.4580040786
 23
31.38714961
  0
SOLID
  8
0
 62
7
  6
CONTINUOUS
 10
155.1517537478
 20
31.3226223989
 11
155.0361291889
 21
31.3548863916
 12
155.4408164683
 22
31.3548863916
 13
155.4408164683
 23
31.3548863916
  0
SOLID
  8
0
 62
7
  6
CONTINUOUS
 10
155.1517537478
 20
31.3226223989
 11
155.4408164683
 21
31.3548863916
 12
155.2095666889
 22
31.2580951877
 13
155.2095666889
 23
31.2580951877
  0
SOLID
  8
0
 62
7
  6
CONTINUOUS
 10
155.4408164683
 20
31.3548863916
 11
155.4986287478
 21
31.2580951877
 12
155.2095666889
 22
31.2580951877
 13
155.2095666889
 23
31.2580951877
  0
SOLID
  8
0
 62
7
  6
CONTINUOUS
 10
155.2095666889
 20
31.1613038256
 11
155.2095666889
 21
31.2580951877
 12
155.4986287478
 22
31.2580951877
 13
155.4986287478
 23
31.2580951877
  0
SOLID
  8
0
 62
7
  6
CONTINUOUS
 10
155.2095666889
 20
31.1613038256
 11
155.4986287478
 21
31.2580951877
 12
155.2095666889
 22
31.0322496452
 13
155.2095666889
 23
31.0322496452
  0
SOLID
  8
0
 62
7
  6
CONTINUOUS
 10
155.2095666889
 20
31.0322496452
 11
155.4986287478
 21
31.2580951877
 12
155.2095666889
 22
30.8386672883
 13
155.2095666889
 23
30.8386672883
  0
SOLID
  8
0
 62
7
  6
CONTINUOUS
 10
155.4986287478
 20
31.2580951877
 11
155.4986287478
 21
30.7418754649
 12
155.2095666889
 22
30.8386672883
 13
155.2095666889
 23
30.8386672883
  0
SOLID
  8
0
 62
7
  6
CONTINUOUS
 10
157.4064412478
 20
31.4839405154
 11
157.6376916889
 21
31.5162052351
 12
157.8689414683
 22
31.5162052351
 13
157.8689414683
 23
31.5162052351
  0
SOLID
  8
0
 62
7
  6
CONTINUOUS
 10
157.8689414683
 20
31.5162052351
 11
158.0423789683
 21
31.4839405154
 12
157.4064412478
 22
31.4839405154
 13
157.4064412478
 23
31.4839405154
  0
SOLID
  8
0
 62
7
  6
CONTINUOUS
 10
157.2330037478
 20
31.4194141734
 11
157.4064412478
 21
31.4839405154
 12
158.0423789683
 22
31.4839405154
 13
158.0423789683
 23
31.4839405154
  0
SOLID
  8
0
 62
7
  6
CONTINUOUS
 10
158.0423789683
 20
31.4839405154
 11
158.2158164683
 21
31.4194141734
 12
157.2330037478
 22
31.4194141734
 13
157.2330037478
 23
31.4194141734
  0
SOLID
  8
0
 62
7
  6
CONTINUOUS
 10
158.2158164683
 20
31.4194141734
 11
157.6376916889
 21
31.3871493993
 12
157.2330037478
 22
31.4194141734
 13
157.2330037478
 23
31.4194141734
  0
SOLID
  8
0
 62
7
  6
CONTINUOUS
 10
157.1173791889
 20
31.3548867989
 11
157.2330037478
 21
31.4194141734
 12
157.6376916889
 22
31.3871493993
 13
157.6376916889
 23
31.3871493993
  0
SOLID
  8
0
 62
7
  6
CONTINUOUS
 10
157.6376916889
 20
31.3871493993
 11
157.4064412478
 21
31.3548867989
 12
157.1173791889
 22
31.3548867989
 13
157.1173791889
 23
31.3548867989
  0
SOLID
  8
0
 62
7
  6
CONTINUOUS
 10
157.6376916889
 20
31.3871493993
 11
158.2158164683
 21
31.4194141734
 12
157.8689414683
 22
31.3548867989
 13
157.8689414683
 23
31.3548867989
  0
SOLID
  8
0
 62
7
  6
CONTINUOUS
 10
158.2158164683
 20
31.4194141734
 11
158.3314416889
 21
31.3548867989
 12
157.8689414683
 22
31.3548867989
 13
157.8689414683
 23
31.3548867989
  0
SOLID
  8
0
 62
7
  6
CONTINUOUS
 10
157.9845666889
 20
31.3226223092
 11
157.8689414683
 21
31.3548867989
 12
158.3314416889
 22
31.3548867989
 13
158.3314416889
 23
31.3548867989
  0
SOLID
  8
0
 62
7
  6
CONTINUOUS
 10
157.9845666889
 20
31.3226223092
 11
158.3314416889
 21
31.3548867989
 12
158.1001912478
 22
31.2580947047
 13
158.1001912478
 23
31.2580947047
  0
SOLID
  8
0
 62
7
  6
CONTINUOUS
 10
158.3314416889
 20
31.3548867989
 11
158.3892539683
 21
31.2580947047
 12
158.1001912478
 22
31.2580947047
 13
158.1001912478
 23
31.2580947047
  0
SOLID
  8
0
 62
7
  6
CONTINUOUS
 10
158.1580041889
 20
31.0967762685
 11
158.1001912478
 21
31.2580947047
 12
158.3892539683
 22
31.2580947047
 13
158.3892539683
 23
31.2580947047
  0
SOLID
  8
0
 62
7
  6
CONTINUOUS
 10
158.3892539683
 20
31.2580947047
 11
158.4470662478
 21
31.0967762685
 12
158.1580041889
 22
31.0967762685
 13
158.1580041889
 23
31.0967762685
  0
SOLID
  8
0
 62
7
  6
CONTINUOUS
 10
157.4064412478
 20
31.3548867989
 11
157.2330037478
 21
31.2903595223
 12
157.1173791889
 22
31.3548867989
 13
157.1173791889
 23
31.3548867989
  0
SOLID
  8
0
 62
7
  6
CONTINUOUS
 10
157.2330037478
 20
31.2903595223
 11
157.1173791889
 21
31.2258309157
 12
157.1173791889
 22
31.3548867989
 13
157.1173791889
 23
31.3548867989
  0
SOLID
  8
0
 62
7
  6
CONTINUOUS
 10
157.1173791889
 20
31.2258309157
 11
156.8283164683
 21
30.4837672433
 12
157.1173791889
 22
31.3548867989
 13
157.1173791889
 23
31.3548867989
  0
SOLID
  8
0
 62
7
  6
CONTINUOUS
 10
157.1173791889
 20
31.3548867989
 11
156.8283164683
 21
30.4837672433
 12
157.1173791889
 22
31.5162052351
 13
157.1173791889
 23
31.5162052351
  0
SOLID
  8
0
 62
7
  6
CONTINUOUS
 10
156.8283164683
 20
30.4837672433
 11
156.8283164683
 21
31.5162052351
 12
157.1173791889
 22
31.5162052351
 13
157.1173791889
 23
31.5162052351
  0
SOLID
  8
0
 62
7
  6
CONTINUOUS
 10
157.1173791889
 20
31.2258309157
 11
157.1173791889
 21
30.4837672433
 12
156.8283164683
 22
30.4837672433
 13
156.8283164683
 23
30.4837672433
  0
SOLID
  8
0
 62
7
  6
CONTINUOUS
 10
158.1580041889
 20
30.4837672433
 11
158.1580041889
 21
31.0967762685
 12
158.4470662478
 22
31.0967762685
 13
158.4470662478
 23
31.0967762685
  0
SOLID
  8
0
 62
7
  6
CONTINUOUS
 10
158.4470662478
 20
31.0967762685
 11
158.4470662478
 21
30.4837672433
 12
158.1580041889
 22
30.4837672433
 13
158.1580041889
 23
30.4837672433
  0
SOLID
  8
0
 62
7
  6
CONTINUOUS
 10
159.2564414683
 20
31.4839408138
 11
159.6033164683
 21
31.5162050633
 12
159.9501914683
 22
31.5162050633
 13
159.9501914683
 23
31.5162050633
  0
SOLID
  8
0
 62
7
  6
CONTINUOUS
 10
159.9501914683
 20
31.5162050633
 11
160.2970664683
 21
31.4839408138
 12
159.2564414683
 22
31.4839408138
 13
159.2564414683
 23
31.4839408138
  0
SOLID
  8
0
 62
7
  6
CONTINUOUS
 10
159.0251916889
 20
31.4194137026
 11
159.2564414683
 21
31.4839408138
 12
160.2970664683
 22
31.4839408138
 13
160.2970664683
 23
31.4839408138
  0
SOLID
  8
0
 62
7
  6
CONTINUOUS
 10
159.0251916889
 20
31.4194137026
 11
160.2970664683
 21
31.4839407928
 12
160.4705039683
 22
31.4516780059
 13
160.4705039683
 23
31.4516780059
  0
SOLID
  8
0
 62
7
  6
CONTINUOUS
 10
159.0251916889
 20
31.4194137026
 11
160.4705039683
 21
31.4516780059
 12
159.6033164683
 22
31.3871494664
 13
159.6033164683
 23
31.3871494664
  0
SOLID
  8
0
 62
7
  6
CONTINUOUS
 10
159.6033164683
 20
31.3871494664
 11
160.4705039683
 21
31.4516780059
 12
159.9501914683
 22
31.3871494664
 13
159.9501914683
 23
31.3871494664
  0
SOLID
  8
0
 62
7
  6
CONTINUOUS
 10
160.4705039683
 20
31.4516780059
 11
160.6439414683
 21
31.3871494664
 12
159.9501914683
 22
31.3871494664
 13
159.9501914683
 23
31.3871494664
  0
SOLID
  8
0
 62
7
  6
CONTINUOUS
 10
160.2970664683
 20
31.3548866125
 11
159.9501914683
 21
31.3871494664
 12
160.6439414683
 22
31.3871494664
 13
160.6439414683
 23
31.3871494664
  0
SOLID
  8
0
 62
7
  6
CONTINUOUS
 10
158.9095664683
 20
31.3226222241
 11
159.0251916889
 21
31.4194137026
 12
159.6033164683
 22
31.3871494664
 13
159.6033164683
 23
31.3871494664
  0
SOLID
  8
0
 62
7
  6
CONTINUOUS
 10
160.2970664683
 20
31.3548866125
 11
160.6439414683
 21
31.3871494664
 12
160.4126916889
 22
31.3226222241
 13
160.4126916889
 23
31.3226222241
  0
SOLID
  8
0
 62
7
  6
CONTINUOUS
 10
160.4126916889
 20
31.3226222241
 11
160.6439414683
 21
31.3871494664
 12
160.4705039683
 22
31.2580952077
 13
160.4705039683
 23
31.2580952077
  0
SOLID
  8
0
 62
7
  6
CONTINUOUS
 10
160.6439414683
 20
31.3871494664
 11
160.7595660273
 21
31.2580952077
 12
160.4705039683
 22
31.2580952077
 13
160.4705039683
 23
31.2580952077
  0
SOLID
  8
0
 62
7
  6
CONTINUOUS
 10
150.0642539683
 20
31.3548866125
 11
149.5439414683
 21
31.3226222809
 12
150.2955039959
 22
31.3871493065
 13
150.2955039959
 23
31.3871493065
  0
SOLID
  8
0
 62
7
  6
CONTINUOUS
 10
149.5439414683
 20
31.3226222809
 11
149.6595664615
 21
31.3871493065
 12
150.2955039959
 22
31.3871493065
 13
150.2955039959
 23
31.3871493065
  0
SOLID
  8
0
 62
7
  6
CONTINUOUS
 10
150.0642539683
 20
31.3548866125
 11
149.9486289546
 21
31.3226222809
 12
149.5439414683
 22
31.3226222809
 13
149.5439414683
 23
31.3226222809
  0
SOLID
  8
0
 62
7
  6
CONTINUOUS
 10
149.4283164701
 20
31.1935681288
 11
149.5439414683
 21
31.3226222809
 12
149.9486289546
 22
31.3226222809
 13
149.9486289546
 23
31.3226222809
  0
SOLID
  8
0
 62
7
  6
CONTINUOUS
 10
153.7642540786
 20
31.3226222809
 11
154.4580040786
 21
31.3871493993
 12
154.2267539683
 22
31.3548866125
 13
154.2267539683
 23
31.3548866125
  0
SOLID
  8
0
 62
7
  6
CONTINUOUS
 10
154.2267539683
 20
31.3548866125
 11
154.1111290786
 21
31.3226222809
 12
153.7642540786
 22
31.3226222809
 13
153.7642540786
 23
31.3226222809
  0
SOLID
  8
0
 62
7
  6
CONTINUOUS
 10
153.7642540786
 20
31.2580951907
 11
153.7642540786
 21
31.3226222809
 12
154.1111290786
 22
31.3226222809
 13
154.1111290786
 23
31.3226222809
  0
SOLID
  8
0
 62
7
  6
CONTINUOUS
 10
154.1111290786
 20
31.3226222809
 11
154.0533164683
 21
31.2580951907
 12
153.7642540786
 22
31.2580951907
 13
153.7642540786
 23
31.2580951907
  0
SOLID
  8
0
 62
7
  6
CONTINUOUS
 10
158.9095664683
 20
31.32262241
 11
159.6033164683
 21
31.3871493993
 12
159.3720666889
 22
31.3548866125
 13
159.3720666889
 23
31.3548866125
  0
SOLID
  8
0
 62
7
  6
CONTINUOUS
 10
159.3720666889
 20
31.3548866125
 11
159.2564414683
 21
31.32262241
 12
158.9095664683
 22
31.32262241
 13
158.9095664683
 23
31.32262241
  0
SOLID
  8
0
 62
7
  6
CONTINUOUS
 10
158.9095664683
 20
31.2580953198
 11
158.9095664683
 21
31.32262241
 12
159.2564414683
 22
31.32262241
 13
159.2564414683
 23
31.32262241
  0
SOLID
  8
0
 62
7
  6
CONTINUOUS
 10
159.2564414683
 20
31.32262241
 11
159.1986291889
 21
31.2580953198
 12
158.9095664683
 22
31.2580953198
 13
158.9095664683
 23
31.2580953198
  0
SOLID
  8
0
 62
7
  6
CONTINUOUS
 10
159.0251916889
 20
31.1290410387
 11
158.9095664683
 21
31.2580953198
 12
159.1986291889
 22
31.2580953198
 13
159.1986291889
 23
31.2580953198
  0
SOLID
  8
0
 62
7
  6
CONTINUOUS
 10
149.4283164701
 20
31.1935681288
 11
149.9486289546
 21
31.3226223092
 12
149.7751914546
 22
31.2258309157
 13
149.7751914546
 23
31.2258309157
  0
SOLID
  8
0
 62
7
  6
CONTINUOUS
 10
149.7751914546
 20
31.2258309157
 11
149.7173789683
 21
31.1613038256
 12
149.4283164701
 22
31.1935681288
 13
149.4283164701
 23
31.1935681288
  0
SOLID
  8
0
 62
7
  6
CONTINUOUS
 10
149.3705039683
 20
30.999985342
 11
149.4283164701
 21
31.1935681288
 12
149.7173789683
 22
31.1613038256
 13
149.7173789683
 23
31.1613038256
  0
SOLID
  8
0
 62
7
  6
CONTINUOUS
 10
154.2267539683
 20
31.1290410387
 11
154.5736289683
 21
31.1613037812
 12
155.2095666889
 22
31.1613037812
 13
155.2095666889
 23
31.1613037812
  0
SOLID
  8
0
 62
7
  6
CONTINUOUS
 10
154.2267539683
 20
31.1290410387
 11
155.2095666889
 21
31.1613037812
 12
153.9955038581
 22
31.0645131385
 13
153.9955038581
 23
31.0645131385
  0
SOLID
  8
0
 62
7
  6
CONTINUOUS
 10
153.9955038581
 20
31.0645131385
 11
155.2095666889
 21
31.1613037812
 12
154.5736289683
 22
31.0322496008
 13
154.5736289683
 23
31.0322496008
  0
SOLID
  8
0
 62
7
  6
CONTINUOUS
 10
155.2095666889
 20
31.1613037812
 11
155.2095666889
 21
31.0322496008
 12
154.5736289683
 22
31.0322496008
 13
154.5736289683
 23
31.0322496008
  0
SOLID
  8
0
 62
7
  6
CONTINUOUS
 10
159.0251916889
 20
31.1290409764
 11
159.1986291889
 21
31.258095219
 12
159.2564414683
 22
31.1935681288
 13
159.2564414683
 23
31.1935681288
  0
SOLID
  8
0
 62
7
  6
CONTINUOUS
 10
159.2564414683
 20
31.1935681288
 11
159.4298789683
 21
31.1290409764
 12
159.0251916889
 22
31.1290409764
 13
159.0251916889
 23
31.1290409764
  0
SOLID
  8
0
 62
7
  6
CONTINUOUS
 10
159.2564414683
 20
31.0322496452
 11
159.0251916889
 21
31.1290409764
 12
159.4298789683
 22
31.1290409764
 13
159.4298789683
 23
31.1290409764
  0
SOLID
  8
0
 62
7
  6
CONTINUOUS
 10
159.4298789683
 20
31.1290409764
 11
160.4126916889
 21
30.9677225551
 12
159.2564414683
 22
31.0322496452
 13
159.2564414683
 23
31.0322496452
  0
SOLID
  8
0
 62
7
  6
CONTINUOUS
 10
160.2392541889
 20
30.8709310886
 11
159.2564414683
 21
31.0322496452
 12
160.4126916889
 22
30.9677225551
 13
160.4126916889
 23
30.9677225551
  0
SOLID
  8
0
 62
7
  6
CONTINUOUS
 10
160.4126916889
 20
30.9677225551
 11
160.6439414683
 21
30.8709310886
 12
160.2392541889
 22
30.8709310886
 13
160.2392541889
 23
30.8709310886
  0
SOLID
  8
0
 62
7
  6
CONTINUOUS
 10
160.4126916889
 20
30.8064040715
 11
160.2392541889
 21
30.8709310886
 12
160.6439414683
 22
30.8709310886
 13
160.6439414683
 23
30.8709310886
  0
SOLID
  8
0
 62
7
  6
CONTINUOUS
 10
160.4126916889
 20
30.8064040715
 11
160.6439414683
 21
30.8709310886
 12
160.4705039683
 22
30.7418753703
 13
160.4705039683
 23
30.7418753703
  0
SOLID
  8
0
 62
7
  6
CONTINUOUS
 10
160.6439414683
 20
30.8709310886
 11
160.7595660273
 21
30.7418753703
 12
160.4705039683
 22
30.7418753703
 13
160.4705039683
 23
30.7418753703
  0
SOLID
  8
0
 62
7
  6
CONTINUOUS
 10
160.4126916889
 20
30.6773482855
 11
160.4705039683
 21
30.7418753703
 12
160.7595660273
 22
30.7418753703
 13
160.7595660273
 23
30.7418753703
  0
SOLID
  8
0
 62
7
  6
CONTINUOUS
 10
160.7595660273
 20
30.7418753703
 11
160.7595660273
 21
30.6773482855
 12
160.4126916889
 22
30.6773482855
 13
160.4126916889
 23
30.6773482855
  0
SOLID
  8
0
 62
7
  6
CONTINUOUS
 10
160.2970664683
 20
30.6450855879
 11
160.4126916889
 21
30.6773482855
 12
160.7595660273
 22
30.6773482855
 13
160.7595660273
 23
30.6773482855
  0
SOLID
  8
0
 62
7
  6
CONTINUOUS
 10
160.2970664683
 20
30.6450855879
 11
160.7595660273
 21
30.6773482855
 12
160.0658166889
 22
30.6128212008
 13
160.0658166889
 23
30.6128212008
  0
SOLID
  8
0
 62
7
  6
CONTINUOUS
 10
160.7595660273
 20
30.6773482855
 11
160.6439414683
 21
30.5805584977
 12
160.0658166889
 22
30.6128212008
 13
160.0658166889
 23
30.6128212008
  0
SOLID
  8
0
 62
7
  6
CONTINUOUS
 10
160.6439414683
 20
30.5805584977
 11
159.1986291889
 21
30.5482941944
 12
160.0658166889
 22
30.6128212008
 13
160.0658166889
 23
30.6128212008
  0
SOLID
  8
0
 62
7
  6
CONTINUOUS
 10
160.0658166889
 20
30.6128212008
 11
159.1986291889
 21
30.5482941944
 12
159.7189416889
 22
30.6128212008
 13
159.7189416889
 23
30.6128212008
  0
SOLID
  8
0
 62
7
  6
CONTINUOUS
 10
159.1986291889
 20
30.5482941944
 11
159.0251916889
 21
30.6128212008
 12
159.7189416889
 22
30.6128212008
 13
159.7189416889
 23
30.6128212008
  0
SOLID
  8
0
 62
7
  6
CONTINUOUS
 10
159.1986291889
 20
30.5482941944
 11
160.6439414683
 21
30.5805584977
 12
159.3720666889
 22
30.5160301864
 13
159.3720666889
 23
30.5160301864
  0
SOLID
  8
0
 62
7
  6
CONTINUOUS
 10
160.6439414683
 20
30.5805584977
 11
160.4126916889
 21
30.5160301864
 12
159.3720666889
 22
30.5160301864
 13
159.3720666889
 23
30.5160301864
  0
SOLID
  8
0
 62
7
  6
CONTINUOUS
 10
159.7189416889
 20
30.4837670312
 11
159.3720666889
 21
30.5160301864
 12
160.4126916889
 22
30.5160301864
 13
160.4126916889
 23
30.5160301864
  0
SOLID
  8
0
 62
7
  6
CONTINUOUS
 10
160.4126916889
 20
30.5160301864
 11
160.0658166889
 21
30.4837670312
 12
159.7189416889
 22
30.4837670312
 13
159.7189416889
 23
30.4837670312
  0
SOLID
  8
0
 62
7
  6
CONTINUOUS
 10
149.3705039683
 20
30.999985342
 11
149.7173789683
 21
31.1613038256
 12
149.6595664615
 22
31.0322496452
 13
149.6595664615
 23
31.0322496452
  0
SOLID
  8
0
 62
7
  6
CONTINUOUS
 10
149.6595664615
 20
31.0322496452
 11
149.6595664615
 21
30.9354583476
 12
149.3705039683
 22
30.999985342
 13
149.3705039683
 23
30.999985342
  0
SOLID
  8
0
 62
7
  6
CONTINUOUS
 10
149.4283164701
 20
30.8064040715
 11
149.3705039683
 21
30.999985342
 12
149.6595664615
 22
30.9354583476
 13
149.6595664615
 23
30.9354583476
  0
SOLID
  8
0
 62
7
  6
CONTINUOUS
 10
149.6595664615
 20
30.9354583476
 11
149.7751914546
 21
30.7741397682
 12
149.4283164701
 22
30.8064040715
 13
149.4283164701
 23
30.8064040715
  0
SOLID
  8
0
 62
7
  6
CONTINUOUS
 10
149.5439414683
 20
30.6773485435
 11
149.4283164701
 21
30.8064040715
 12
149.7751914546
 22
30.7741397682
 13
149.7751914546
 23
30.7741397682
  0
SOLID
  8
0
 62
7
  6
CONTINUOUS
 10
149.7751914546
 20
30.7741397682
 11
149.9486289546
 21
30.6773485435
 12
149.5439414683
 22
30.6773485435
 13
149.5439414683
 23
30.6773485435
  0
SOLID
  8
0
 62
7
  6
CONTINUOUS
 10
149.6595664615
 20
30.6128213107
 11
149.5439414683
 21
30.6773485435
 12
149.9486289546
 22
30.6773485435
 13
149.9486289546
 23
30.6773485435
  0
SOLID
  8
0
 62
7
  6
CONTINUOUS
 10
149.9486289546
 20
30.6773485435
 11
150.2955039959
 21
30.6128213107
 12
149.6595664615
 22
30.6128213107
 13
149.6595664615
 23
30.6128213107
  0
SOLID
  8
0
 62
7
  6
CONTINUOUS
 10
149.8330039821
 20
30.5482941944
 11
149.6595664615
 21
30.6128213107
 12
150.2955039959
 22
30.6128213107
 13
150.2955039959
 23
30.6128213107
  0
SOLID
  8
0
 62
7
  6
CONTINUOUS
 10
153.8798789683
 20
30.9999852815
 11
153.9955038581
 21
31.0645131385
 12
154.5736289683
 22
31.0322496452
 13
154.5736289683
 23
31.0322496452
  0
SOLID
  8
0
 62
7
  6
CONTINUOUS
 10
154.5736289683
 20
31.0322496452
 11
154.3423788581
 21
30.9999852815
 12
153.8798789683
 22
30.9999852815
 13
153.8798789683
 23
30.9999852815
  0
SOLID
  8
0
 62
7
  6
CONTINUOUS
 10
153.7642540786
 20
30.8709311616
 11
153.8798789683
 21
30.9999852815
 12
154.3423788581
 22
30.9999852815
 13
154.3423788581
 23
30.9999852815
  0
SOLID
  8
0
 62
7
  6
CONTINUOUS
 10
154.1111290786
 20
30.9031946612
 11
153.7642540786
 21
30.8709311616
 12
154.2267539683
 22
30.9677225551
 13
154.2267539683
 23
30.9677225551
  0
SOLID
  8
0
 62
7
  6
CONTINUOUS
 10
153.7642540786
 20
30.8709311616
 11
154.3423788581
 21
30.999985342
 12
154.2267539683
 22
30.9677225551
 13
154.2267539683
 23
30.9677225551
  0
SOLID
  8
0
 62
7
  6
CONTINUOUS
 10
154.1111290786
 20
30.9031946612
 11
154.0533164683
 21
30.8064040715
 12
153.7642540786
 22
30.8709311616
 13
153.7642540786
 23
30.8709311616
  0
SOLID
  8
0
 62
7
  6
CONTINUOUS
 10
153.7642540786
 20
30.7741397682
 11
153.7642540786
 21
30.8709311616
 12
154.0533164683
 22
30.8064040715
 13
154.0533164683
 23
30.8064040715
  0
SOLID
  8
0
 62
7
  6
CONTINUOUS
 10
154.0533164683
 20
30.8064040715
 11
154.0533164683
 21
30.7418754649
 12
153.7642540786
 22
30.7741397682
 13
153.7642540786
 23
30.7741397682
  0
SOLID
  8
0
 62
7
  6
CONTINUOUS
 10
153.8220663581
 20
30.6450855879
 11
153.7642540786
 21
30.7741397682
 12
154.0533164683
 22
30.7418754649
 13
154.0533164683
 23
30.7418754649
  0
SOLID
  8
0
 62
7
  6
CONTINUOUS
 10
155.2095666889
 20
30.8386672883
 11
155.4986287478
 21
30.7418754649
 12
155.1517537478
 22
30.7741397682
 13
155.1517537478
 23
30.7741397682
  0
SOLID
  8
0
 62
7
  6
CONTINUOUS
 10
154.9783162478
 20
30.6773483748
 11
155.1517537478
 21
30.7741397682
 12
155.4986287478
 22
30.7418754649
 13
155.4986287478
 23
30.7418754649
  0
SOLID
  8
0
 62
7
  6
CONTINUOUS
 10
154.9783162478
 20
30.6773483748
 11
155.4986287478
 21
30.7418754649
 12
155.2095666889
 22
30.6450855879
 13
155.2095666889
 23
30.6450855879
  0
SOLID
  8
0
 62
7
  6
CONTINUOUS
 10
155.4986287478
 20
30.7418754649
 11
155.5564416889
 21
30.5805584977
 12
155.2095666889
 22
30.6450855879
 13
155.2095666889
 23
30.6450855879
  0
SOLID
  8
0
 62
7
  6
CONTINUOUS
 10
155.2673789683
 20
30.5482941944
 11
155.2095666889
 21
30.6450855879
 12
155.5564416889
 22
30.5805584977
 13
155.5564416889
 23
30.5805584977
  0
SOLID
  8
0
 62
7
  6
CONTINUOUS
 10
155.2673789683
 20
30.5482941944
 11
155.5564416889
 21
30.5805584977
 12
155.3251912478
 22
30.4837669548
 13
155.3251912478
 23
30.4837669548
  0
SOLID
  8
0
 62
7
  6
CONTINUOUS
 10
155.5564416889
 20
30.5805584977
 11
155.6142539683
 21
30.4837669548
 12
155.3251912478
 22
30.4837669548
 13
155.3251912478
 23
30.4837669548
  0
SOLID
  8
0
 62
7
  6
CONTINUOUS
 10
150.8736290235
 20
30.7096125201
 11
150.9314414683
 21
30.8064039377
 12
151.2205040235
 22
30.8064039377
 13
151.2205040235
 23
30.8064039377
  0
SOLID
  8
0
 62
7
  6
CONTINUOUS
 10
151.2205040235
 20
30.8064039377
 11
151.1626914132
 21
30.6773483748
 12
150.8736290235
 22
30.7096125201
 13
150.8736290235
 23
30.7096125201
  0
SOLID
  8
0
 62
7
  6
CONTINUOUS
 10
150.7001914408
 20
30.6450855879
 11
150.8736290235
 21
30.7096125201
 12
151.1626914132
 22
30.6773483748
 13
151.1626914132
 23
30.6773483748
  0
SOLID
  8
0
 62
7
  6
CONTINUOUS
 10
150.7001914408
 20
30.6450855879
 11
151.1626914132
 21
30.6773483748
 12
150.2955039959
 22
30.6128212846
 13
150.2955039959
 23
30.6128212846
  0
SOLID
  8
0
 62
7
  6
CONTINUOUS
 10
151.1626914132
 20
30.6773483748
 11
150.9892539132
 21
30.5805584977
 12
150.2955039959
 22
30.6128212846
 13
150.2955039959
 23
30.6128212846
  0
SOLID
  8
0
 62
7
  6
CONTINUOUS
 10
149.8330039821
 20
30.5482941944
 11
150.2955039959
 21
30.6128212846
 12
150.9892539132
 22
30.5805584977
 13
150.9892539132
 23
30.5805584977
  0
SOLID
  8
0
 62
7
  6
CONTINUOUS
 10
149.8330039821
 20
30.5482941944
 11
150.9892539132
 21
30.5805584977
 12
150.0064414821
 22
30.5160300219
 13
150.0064414821
 23
30.5160300219
  0
SOLID
  8
0
 62
7
  6
CONTINUOUS
 10
150.9892539132
 20
30.5805584977
 11
150.7580039683
 21
30.5160300219
 12
150.0064414821
 22
30.5160300219
 13
150.0064414821
 23
30.5160300219
  0
SOLID
  8
0
 62
7
  6
CONTINUOUS
 10
150.3533164408
 20
30.4837671043
 11
150.0064414821
 21
30.5160300219
 12
150.7580039683
 22
30.5160300219
 13
150.7580039683
 23
30.5160300219
  0
SOLID
  8
0
 62
7
  6
CONTINUOUS
 10
153.8220663581
 20
30.6450855879
 11
154.0533164683
 21
30.7418754649
 12
154.1111290786
 22
30.6773483748
 13
154.1111290786
 23
30.6773483748
  0
SOLID
  8
0
 62
7
  6
CONTINUOUS
 10
154.1111290786
 20
30.6773483748
 11
154.3423788581
 21
30.6128212846
 12
153.8220663581
 22
30.6450855879
 13
153.8220663581
 23
30.6450855879
  0
SOLID
  8
0
 62
7
  6
CONTINUOUS
 10
153.9955038581
 20
30.5482941944
 11
153.8220663581
 21
30.6450855879
 12
154.3423788581
 22
30.6128212846
 13
154.3423788581
 23
30.6128212846
  0
SOLID
  8
0
 62
7
  6
CONTINUOUS
 10
154.6892538581
 20
30.6128213209
 11
154.9783162478
 21
30.6773483748
 12
155.2095666889
 22
30.6450855879
 13
155.2095666889
 23
30.6450855879
  0
SOLID
  8
0
 62
7
  6
CONTINUOUS
 10
155.2095666889
 20
30.6450855879
 11
155.1517537478
 21
30.5805584977
 12
154.6892538581
 22
30.6128213209
 13
154.6892538581
 23
30.6128213209
  0
SOLID
  8
0
 62
7
  6
CONTINUOUS
 10
155.1517537478
 20
30.5805584977
 11
153.9955038581
 21
30.5482941944
 12
154.6892538581
 22
30.6128213209
 13
154.6892538581
 23
30.6128213209
  0
SOLID
  8
0
 62
7
  6
CONTINUOUS
 10
153.9955038581
 20
30.5482941944
 11
154.3423788581
 21
30.6128213209
 12
154.6892538581
 22
30.6128213209
 13
154.6892538581
 23
30.6128213209
  0
SOLID
  8
0
 62
7
  6
CONTINUOUS
 10
153.9955038581
 20
30.5482941944
 11
155.1517537478
 21
30.5805584977
 12
154.1111290786
 22
30.5160299113
 13
154.1111290786
 23
30.5160299113
  0
SOLID
  8
0
 62
7
  6
CONTINUOUS
 10
155.1517537478
 20
30.5805584977
 11
154.9783162478
 21
30.5160299113
 12
154.1111290786
 22
30.5160299113
 13
154.1111290786
 23
30.5160299113
  0
SOLID
  8
0
 62
7
  6
CONTINUOUS
 10
154.3423788581
 20
30.483767076
 11
154.1111290786
 21
30.5160299113
 12
154.9783162478
 22
30.5160299113
 13
154.9783162478
 23
30.5160299113
  0
SOLID
  8
0
 62
7
  6
CONTINUOUS
 10
154.9783162478
 20
30.5160299113
 11
154.6892538581
 21
30.483767076
 12
154.3423788581
 22
30.483767076
 13
154.3423788581
 23
30.483767076
  0
SOLID
  8
0
 62
7
  6
CONTINUOUS
 10
159.3720666889
 20
30.6450855879
 11
159.0251916889
 21
30.6128213209
 12
159.2564414683
 22
30.6773483748
 13
159.2564414683
 23
30.6773483748
  0
SOLID
  8
0
 62
7
  6
CONTINUOUS
 10
159.2564414683
 20
30.6773483748
 11
159.0251916889
 21
30.6128213209
 12
159.1986291889
 22
30.7418755012
 13
159.1986291889
 23
30.7418755012
  0
SOLID
  8
0
 62
7
  6
CONTINUOUS
 10
159.0251916889
 20
30.6128213209
 11
158.9095664683
 21
30.7418755012
 12
159.1986291889
 22
30.7418755012
 13
159.1986291889
 23
30.7418755012
  0
SOLID
  8
0
 62
7
  6
CONTINUOUS
 10
159.3720666889
 20
30.6450855879
 11
159.7189416889
 21
30.6128213209
 12
159.0251916889
 22
30.6128213209
 13
159.0251916889
 23
30.6128213209
  0
SOLID
  8
0
 62
7
  6
CONTINUOUS
 10
156.0767541889
 20
30.4837671043
 11
156.0767541889
 21
31.5162050961
 12
156.3658162478
 22
30.4837671043
 13
156.3658162478
 23
31.5162050961
  0
ENDBLK
  8
0
  6
BYBLOCK
 62
0
  0
BLOCK
  8
0
 62
2
  6
CONTINUOUS
  2
SYMBOL_3_BL0
 70
64
 10
31.7740840678
 20
19.9150776578
  0
TEXT
  8
0
 62
7
  6
CONTINUOUS
 10
18.0387879101
 20
19.2884917655
  7
TEXTSTYLE_3
 40
2.7338706658
  1
Ammeraal Beltech
 41
1.0
 51
15.0
 72
0
  0
TEXT
  8
0
 62
7
  6
CONTINUOUS
 10
28.8395887358
 20
17.0149550926
  7
TEXTSTYLE_4
 40
1.0935482663
  1
Innovation & Service in Belting
 41
1.0
 72
0
  0
LINE
  8
0
 62
7
  6
CONTINUOUS
 10
12.0142472588
 20
20.055085074
 11
12.7923992521
 21
23.7160023717
  0
LINE
  8
0
 62
7
  6
CONTINUOUS
 10
22.8875675419
 20
27.3793962833
 11
13.2802169951
 21
24.257778862
  0
LINE
  8
0
 62
7
  6
CONTINUOUS
 10
12.2395305911
 20
19.361734271
 11
19.7466058522
 21
12.602333345
  0
LINE
  8
0
 62
7
  6
CONTINUOUS
 10
12.5020650018
 20
20.5968615644
 11
23.310334367
 21
24.1086811633
  0
LINE
  8
0
 62
7
  6
CONTINUOUS
 10
23.3061292298
 20
13.7588925996
 11
14.860669561
 21
21.3632186413
  0
LINE
  8
0
 62
7
  6
CONTINUOUS
 10
23.8259519496
 20
26.5344711676
 11
22.8493924124
 21
21.9401197651
  0
LINE
  8
0
 62
7
  6
CONTINUOUS
 10
22.1495904647
 20
18.6478104513
 11
21.4631422532
 21
15.4183255269
  0
LINE
  8
0
 62
7
  6
CONTINUOUS
 10
24.5070480481
 20
14.1490947773
 11
25.4632795838
 21
18.6478104513
  0
LINE
  8
0
 62
7
  6
CONTINUOUS
 10
26.1630815315
 20
21.9401197651
 11
26.6073233338
 21
24.0301131245
  0
LINE
  8
0
 62
7
  6
CONTINUOUS
 10
20.4597069275
 20
12.4507590323
 11
24.0192303051
 21
13.6073182869
  0
LINE
  8
0
 62
7
  6
CONTINUOUS
 10
23.6006686173
 20
27.2278219706
 11
26.3820400015
 21
24.7234639276
  0
ARC
  8
0
 62
7
  6
CONTINUOUS
 10
13.5055003274
 20
23.564428059
 40
0.7290321776
 50
108.0
 51
168.0
  0
ARC
  8
0
 62
7
  6
CONTINUOUS
 10
23.1128508743
 20
26.6860454803
 40
0.7290321776
 50
348.0
 51
108.0
  0
ARC
  8
0
 62
7
  6
CONTINUOUS
 10
25.8942222585
 20
24.1816874372
 40
0.7290321776
 50
348.0
 51
48.0
  0
ARC
  8
0
 62
7
  6
CONTINUOUS
 10
20.2344235952
 20
13.1441098354
 40
0.7290321776
 50
228.0
 51
288.0
  0
ARC
  8
0
 62
7
  6
CONTINUOUS
 10
12.7273483341
 20
19.9035107613
 40
0.7290321776
 50
108.0
 51
228.0
  0
ARC
  8
0
 62
7
  6
CONTINUOUS
 10
23.7939469728
 20
14.30066909
 40
0.7290321776
 50
228.0
 51
348.0
  0
ENDBLK
  8
0
  6
BYBLOCK
 62
0
  0
ENDSEC
  0
SECTION
  2
ENTITIES
  0
TEXT
  8
0
 62
5
  6
CONTINUOUS
 10
96.0
 20
25.636
  7
TEXTSTYLE_2
 40
2.8
  1
Scale :
 41
0.6
 51
0.000019
 72
0
  0
TEXT
  8
0
 62
5
  6
CONTINUOUS
 10
116.0
 20
25.636
  7
TEXTSTYLE_2
 40
2.8
  1
Chain type:
 41
0.6
 51
0.000019
 72
0
  0
INSERT
  8
0
 62
2
  6
CONTINUOUS
  2
SYMBOL_3_BL0
 10
31.7740840678
 20
19.9150776578
  0
INSERT
  8
0
 62
2
  6
CONTINUOUS
  2
SYMBOL_11_BL1
 10
173.3924355793
 20
35.4837666925
  0
LINE
  8
0
 62
2
  6
CONTINUOUS
 10
10.0
 20
30.0
 11
200.0
 21
30.0
  0
LINE
  8
0
 62
2
  6
CONTINUOUS
 10
10.0
 20
30.0
 11
10.0
 21
10.0
  0
LINE
  8
0
 62
2
  6
CONTINUOUS
 10
10.0
 20
10.0
 11
200.0
 21
10.0
  0
LINE
  8
0
 62
2
  6
CONTINUOUS
 10
95.0
 20
30.0
 11
95.0
 21
10.0
  0
LINE
  8
0
 62
2
  6
CONTINUOUS
 10
115.0
 20
30.0
 11
115.0
 21
10.0
  0
LINE
  8
0
 62
2
  6
CONTINUOUS
 10
200.0
 20
30.0
 11
200.0
 21
10.0
  0
TEXT
  8
NOTES
 62
5
  6
CONTINUOUS
 10
98.0
 20
13.75
  7
STANDARD
 40
5.0
  1
1:1
 41
0.8
 72
0
  0
TEXT
  8
NOTES
 62
5
  6
CONTINUOUS
 10
118.0
 20
13.75
  7
TEXTSTYLE_5
 40
7.0
  1
uni 880 K250 TAB
 41
0.7072916667
 72
0
  0
LINE
  8
0
 62
7
  6
CONTINUOUS
 10
210.0
 20
0.0
 11
0.0
 21
0.0
  0
LINE
  8
0
 62
7
  6
CONTINUOUS
 10
10.0
 20
10.0
 11
200.0
 21
10.0
  0
LINE
  8
0
 62
7
  6
CONTINUOUS
 10
10.0
 20
30.0
 11
200.0
 21
30.0
  0
LINE
  8
0
 62
7
  6
CONTINUOUS
 10
0.0
 20
0.0
 11
0.0
 21
297.0
  0
LINE
  8
0
 62
7
  6
CONTINUOUS
 10
10.0
 20
10.0
 11
10.0
 21
287.0
  0
LINE
  8
0
 62
7
  6
CONTINUOUS
 10
200.0
 20
287.0
 11
200.0
 21
10.0
  0
LINE
  8
0
 62
7
  6
CONTINUOUS
 10
210.0
 20
0.0
 11
210.0
 21
297.0
  0
LINE
  8
0
 62
7
  6
CONTINUOUS
 10
10.0
 20
287.0
 11
200.0
 21
287.0
  0
LINE
  8
0
 62
7
  6
CONTINUOUS
 10
0.0
 20
297.0
 11
210.0
 21
297.0
  0
LINE
  8
SURFACE
 62
7
  6
CONTINUOUS
 10
62.2319389975
 20
100.7002069622
 11
92.636116591
 21
100.7002069622
  0
POLYLINE
  8
SURFACE
 62
7
  6
CONTINUOUS
 66
1
 70
0
  0
VERTEX
  8
SURFACE
 62
7
  6
CONTINUOUS
 10
44.8161165988
 20
121.0392309786
  0
VERTEX
  8
SURFACE
 62
7
  6
CONTINUOUS
 10
44.8165149735
 20
121.0146670956
  0
VERTEX
  8
SURFACE
 62
7
  6
CONTINUOUS
 10
44.8205488824
 20
120.9574374554
  0
VERTEX
  8
SURFACE
 62
7
  6
CONTINUOUS
 10
44.828923864
 20
120.9006238915
  0
VERTEX
  8
SURFACE
 62
7
  6
CONTINUOUS
 10
44.8416016991
 20
120.8445935292
  0
VERTEX
  8
SURFACE
 62
7
  6
CONTINUOUS
 10
44.8585104519
 20
120.7896994451
  0
VERTEX
  8
SURFACE
 62
7
  6
CONTINUOUS
 10
44.8795496529
 20
120.7362759467
  0
VERTEX
  8
SURFACE
 62
7
  6
CONTINUOUS
 10
44.9045844319
 20
120.6846578276
  0
VERTEX
  8
SURFACE
 62
7
  6
CONTINUOUS
 10
44.9334642982
 20
120.6351416558
  0
VERTEX
  8
SURFACE
 62
7
  6
CONTINUOUS
 10
44.9660096031
 20
120.5880211705
  0
VERTEX
  8
SURFACE
 62
7
  6
CONTINUOUS
 10
45.0020268842
 20
120.5435624528
  0
VERTEX
  8
SURFACE
 62
7
  6
CONTINUOUS
 10
45.0413002531
 20
120.5020200096
  0
VERTEX
  8
SURFACE
 62
7
  6
CONTINUOUS
 10
45.0835967779
 20
120.4636294503
  0
VERTEX
  8
SURFACE
 62
7
  6
CONTINUOUS
 10
45.1286650206
 20
120.4286092343
  0
VERTEX
  8
SURFACE
 62
7
  6
CONTINUOUS
 10
45.176241106
 20
120.3971557792
  0
VERTEX
  8
SURFACE
 62
7
  6
CONTINUOUS
 10
45.226044829
 20
120.369446797
  0
VERTEX
  8
SURFACE
 62
7
  6
CONTINUOUS
 10
45.2777898324
 20
120.3456355223
  0
VERTEX
  8
SURFACE
 62
7
  6
CONTINUOUS
 10
45.331180939
 20
120.3258540439
  0
VERTEX
  8
SURFACE
 62
7
  6
CONTINUOUS
 10
45.38590133
 20
120.3102166931
  0
VERTEX
  8
SURFACE
 62
7
  6
CONTINUOUS
 10
45.4416282006
 20
120.2988119648
  0
VERTEX
  8
SURFACE
 62
7
  6
CONTINUOUS
 10
45.4979271737
 20
120.2917121735
  0
SEQEND
  0
LINE
  8
0
 62
7
  6
CONTINUOUS
 10
44.816116591
 20
143.6112459722
 11
44.816116591
 21
121.0391679522
  0
LINE
  8
SURFACE
 62
7
  6
CONTINUOUS
 10
96.136116591
 20
110.8752069622
 11
96.9161164734
 21
110.8752069622
  0
LINE
  8
DEFAULT_1
 62
7
  6
CENTER
 10
52.316116591
 20
98.3719878465
 11
52.316116591
 21
166.2784260779
  0
LINE
  8
SURFACE
 62
7
  6
CONTINUOUS
 10
57.8671543798
 20
119.1687848336
 11
59.2433549956
 21
103.4387398161
  0
LINE
  8
0
 62
7
  6
CONTINUOUS
 10
57.8671543798
 20
145.4816290908
 11
59.2433549956
 21
161.2116741083
  0
LINE
  8
SURFACE
 62
7
  6
CONTINUOUS
 10
45.4979271893
 20
120.2917121714
 11
53.0943693752
 21
119.627109597
  0
LINE
  8
SURFACE
 62
7
  6
CONTINUOUS
 10
89.5636984689
 20
119.1252069622
 11
86.2235368741
 21
119.1252069622
  0
LINE
  8
SURFACE
 62
7
  6
CONTINUOUS
 10
57.3690570308
 20
119.6252069622
 11
53.1379470625
 21
119.6252069622
  0
LINE
  8
SURFACE
 62
7
  6
CONTINUOUS
 10
97.0032722694
 20
118.4789145846
 11
89.6683103508
 21
119.1206405999
  0
LINE
  8
DEFAULT_1
 62
7
  6
CENTER
 10
71.366116591
 20
136.7252069622
 11
71.366116591
 21
134.3253069622
  0
LINE
  8
0
 62
2
  6
CONTINUOUS
 10
71.366116591
 20
133.2052069622
 11
71.366116591
 21
131.4452069622
  0
LINE
  8
DEFAULT_1
 62
7
  6
CENTER
 10
71.366116591
 20
127.9252069622
 11
71.366116591
 21
130.3251069622
  0
LINE
  8
DEFAULT_1
 62
7
  6
CENTER
 10
75.766116591
 20
132.3252069622
 11
73.366216591
 21
132.3252069622
  0
LINE
  8
0
 62
2
  6
CONTINUOUS
 10
72.246116591
 20
132.3252069622
 11
70.486116591
 21
132.3252069622
  0
LINE
  8
DEFAULT_1
 62
7
  6
CENTER
 10
66.966116591
 20
132.3252069622
 11
69.366016591
 21
132.3252069622
  0
LINE
  8
0
 62
7
  6
CONTINUOUS
 10
97.0032722694
 20
146.1714993397
 11
89.6683103508
 21
145.5297733245
  0
LINE
  8
SURFACE
 62
7
  6
CONTINUOUS
 10
85.7235341875
 20
145.0252069622
 11
85.7235341875
 21
119.6252069622
  0
LINE
  8
0
 62
7
  6
CONTINUOUS
 10
85.7235341875
 20
145.0252069622
 11
85.7235341875
 21
119.6252069622
  0
LINE
  8
0
 62
7
  6
CONTINUOUS
 10
45.4979271899
 20
144.358701753
 11
53.0943693752
 21
145.0233043273
  0
LINE
  8
0
 62
7
  6
CONTINUOUS
 10
53.1379470625
 20
145.0252069622
 11
57.3690570308
 21
145.0252069622
  0
LINE
  8
0
 62
7
  6
CONTINUOUS
 10
89.5636984689
 20
145.5252069622
 11
86.2235368741
 21
145.5252069622
  0
POLYLINE
  8
0
 62
7
  6
CONTINUOUS
 66
1
 70
0
  0
VERTEX
  8
0
 62
7
  6
CONTINUOUS
 10
45.4979271746
 20
144.3587017509
  0
VERTEX
  8
0
 62
7
  6
CONTINUOUS
 10
45.4416699372
 20
144.3516088489
  0
VERTEX
  8
0
 62
7
  6
CONTINUOUS
 10
45.3860795114
 20
144.3402408321
  0
VERTEX
  8
0
 62
7
  6
CONTINUOUS
 10
45.3314883301
 20
144.3246605088
  0
VERTEX
  8
0
 62
7
  6
CONTINUOUS
 10
45.2782175829
 20
144.3049556017
  0
VERTEX
  8
0
 62
7
  6
CONTINUOUS
 10
45.2265824739
 20
144.2812396169
  0
VERTEX
  8
0
 62
7
  6
CONTINUOUS
 10
45.1768759463
 20
144.2536433899
  0
VERTEX
  8
0
 62
7
  6
CONTINUOUS
 10
45.1293824327
 20
144.2223187815
  0
VERTEX
  8
0
 62
7
  6
CONTINUOUS
 10
45.0843803043
 20
144.1874419122
  0
VERTEX
  8
0
 62
7
  6
CONTINUOUS
 10
45.0421317911
 20
144.1492074649
  0
VERTEX
  8
0
 62
7
  6
CONTINUOUS
 10
45.0028867728
 20
144.1078319151
  0
VERTEX
  8
0
 62
7
  6
CONTINUOUS
 10
44.9668768543
 20
144.0635487646
  0
VERTEX
  8
0
 62
7
  6
CONTINUOUS
 10
44.9343167829
 20
144.0166102313
  0
VERTEX
  8
0
 62
7
  6
CONTINUOUS
 10
44.9053991203
 20
143.9672800151
  0
VERTEX
  8
0
 62
7
  6
CONTINUOUS
 10
44.880302874
 20
143.9158493324
  0
VERTEX
  8
0
 62
7
  6
CONTINUOUS
 10
44.8591781971
 20
143.8626123426
  0
VERTEX
  8
0
 62
7
  6
CONTINUOUS
 10
44.8421597437
 20
143.8079007423
  0
VERTEX
  8
0
 62
7
  6
CONTINUOUS
 10
44.8293482191
 20
143.7520459543
  0
VERTEX
  8
0
 62
7
  6
CONTINUOUS
 10
44.8208161647
 20
143.6953979337
  0
VERTEX
  8
0
 62
7
  6
CONTINUOUS
 10
44.8166028794
 20
143.6383205939
  0
VERTEX
  8
0
 62
7
  6
CONTINUOUS
 10
44.8161165988
 20
143.6111830436
  0
SEQEND
  0
LINE
  8
DEFAULT_1
 62
7
  6
CENTER
 10
90.416116591
 20
98.3719878465
 11
90.416116591
 21
166.2784260779
  0
LINE
  8
0
 62
7
  6
CONTINUOUS
 10
96.136116591
 20
153.7752069622
 11
96.9161164734
 21
153.7752069622
  0
LINE
  8
0
 62
7
  6
CONTINUOUS
 10
95.636116591
 20
160.9502069622
 11
95.636116591
 21
154.2752069628
  0
LINE
  8
SURFACE
 62
7
  6
CONTINUOUS
 10
95.636116591
 20
103.7002069622
 11
95.636116591
 21
110.3752069616
  0
LINE
  8
SURFACE
 62
7
  6
CONTINUOUS
 10
97.916116591
 20
111.8752069622
 11
97.916116591
 21
117.4827659098
  0
LINE
  8
0
 62
7
  6
CONTINUOUS
 10
97.916116591
 20
147.1676480146
 11
97.916116591
 21
152.7752069622
  0
LINE
  8
0
 62
7
  6
CONTINUOUS
 10
62.2319389975
 20
163.9502069622
 11
92.636116591
 21
163.9502069622
  0
LINE
  8
SURFACE
 62
7
  6
CONTINUOUS
 10
165.0478609839
 20
100.7002069622
 11
168.0278939904
 21
100.7002069622
  0
LINE
  8
SURFACE
 62
7
  6
CONTINUOUS
 10
150.1478609839
 20
101.5752069622
 11
152.1478609839
 21
101.5752069622
  0
LINE
  8
SURFACE
 62
7
  6
CONTINUOUS
 10
153.5605691317
 20
110.8752069622
 11
164.5478609839
 21
110.8752069622
  0
LINE
  8
SURFACE
 62
7
  6
CONTINUOUS
 10
153.5501213659
 20
116.5241280543
 11
150.1216840356
 21
116.4343512633
  0
LINE
  8
SURFACE
 62
7
  6
CONTINUOUS
 10
158.915811403
 20
120.0294567548
 11
159.1175197502
 21
120.0428282034
  0
LINE
  8
SURFACE
 62
7
  6
CONTINUOUS
 10
159.1175197502
 20
120.0428282034
 11
159.335982777
 21
120.0555034658
  0
LINE
  8
SURFACE
 62
7
  6
CONTINUOUS
 10
159.335982777
 20
120.0555034658
 11
159.5717687559
 21
120.0673320364
  0
LINE
  8
SURFACE
 62
7
  6
CONTINUOUS
 10
159.5717687559
 20
120.0673320364
 11
159.8254091523
 21
120.0781452916
  0
LINE
  8
SURFACE
 62
7
  6
CONTINUOUS
 10
159.8254091523
 20
120.0781452916
 11
160.0973589885
 21
120.0877524049
  0
LINE
  8
SURFACE
 62
7
  6
CONTINUOUS
 10
160.0973589885
 20
120.0877524049
 11
160.3878907739
 21
120.095934437
  0
LINE
  8
SURFACE
 62
7
  6
CONTINUOUS
 10
160.3878907739
 20
120.095934437
 11
160.696988557
 21
120.1024433395
  0
LINE
  8
SURFACE
 62
7
  6
CONTINUOUS
 10
160.696988557
 20
120.1024433395
 11
161.0243011483
 21
120.1070029726
  0
LINE
  8
SURFACE
 62
7
  6
CONTINUOUS
 10
161.0243011483
 20
120.1070029726
 11
161.3691823959
 21
120.1093094406
  0
LINE
  8
SURFACE
 62
7
  6
CONTINUOUS
 10
155.0278674022
 20
119.6252069622
 11
168.5278609839
 21
119.6252069622
  0
LINE
  8
SURFACE
 62
7
  6
CONTINUOUS
 10
161.3691823959
 20
120.1093094406
 11
161.671312979
 21
120.1093531009
  0
LINE
  8
SURFACE
 62
7
  6
CONTINUOUS
 10
161.671312979
 20
120.1093531009
 11
161.9823012214
 21
120.1074862818
  0
LINE
  8
SURFACE
 62
7
  6
CONTINUOUS
 10
161.9823012214
 20
120.1074862818
 11
162.2791648803
 21
120.1037683885
  0
LINE
  8
SURFACE
 62
7
  6
CONTINUOUS
 10
162.2791648803
 20
120.1037683885
 11
162.5614157752
 21
120.0984239392
  0
LINE
  8
SURFACE
 62
7
  6
CONTINUOUS
 10
162.5614157752
 20
120.0984239392
 11
162.828773577
 21
120.0916576522
  0
LINE
  8
SURFACE
 62
7
  6
CONTINUOUS
 10
162.828773577
 20
120.0916576522
 11
163.0811644108
 21
120.0836570335
  0
POLYLINE
  8
SURFACE
 62
7
  6
CONTINUOUS
 66
1
 70
0
  0
VERTEX
  8
SURFACE
 62
7
  6
CONTINUOUS
 10
155.0278864479
 20
119.6252087824
  0
VERTEX
  8
SURFACE
 62
7
  6
CONTINUOUS
 10
154.9500858416
 20
119.6282410108
  0
VERTEX
  8
SURFACE
 62
7
  6
CONTINUOUS
 10
154.8725294793
 20
119.6373479211
  0
VERTEX
  8
SURFACE
 62
7
  6
CONTINUOUS
 10
154.7957132245
 20
119.6525320195
  0
VERTEX
  8
SURFACE
 62
7
  6
CONTINUOUS
 10
154.7201437287
 20
119.673737029
  0
VERTEX
  8
SURFACE
 62
7
  6
CONTINUOUS
 10
154.6462750984
 20
119.7008840981
  0
VERTEX
  8
SURFACE
 62
7
  6
CONTINUOUS
 10
154.574724975
 20
119.7337756709
  0
VERTEX
  8
SURFACE
 62
7
  6
CONTINUOUS
 10
154.506117597
 20
119.7721171278
  0
VERTEX
  8
SURFACE
 62
7
  6
CONTINUOUS
 10
154.4407356746
 20
119.8157237909
  0
VERTEX
  8
SURFACE
 62
7
  6
CONTINUOUS
 10
154.3788979847
 20
119.8644028938
  0
VERTEX
  8
SURFACE
 62
7
  6
CONTINUOUS
 10
154.3210664256
 20
119.91780312
  0
VERTEX
  8
SURFACE
 62
7
  6
CONTINUOUS
 10
154.2676460448
 20
119.9755533385
  0
VERTEX
  8
SURFACE
 62
7
  6
CONTINUOUS
 10
154.2189419042
 20
120.0373044045
  0
VERTEX
  8
SURFACE
 62
7
  6
CONTINUOUS
 10
154.1752501175
 20
120.1026830457
  0
VERTEX
  8
SURFACE
 62
7
  6
CONTINUOUS
 10
154.1368442275
 20
120.1712553356
  0
VERTEX
  8
SURFACE
 62
7
  6
CONTINUOUS
 10
154.1039740291
 20
120.2425620388
  0
VERTEX
  8
SURFACE
 62
7
  6
CONTINUOUS
 10
154.0768011302
 20
120.3162222661
  0
VERTEX
  8
SURFACE
 62
7
  6
CONTINUOUS
 10
154.0554810169
 20
120.3918423442
  0
VERTEX
  8
SURFACE
 62
7
  6
CONTINUOUS
 10
154.040163334
 20
120.4688537207
  0
VERTEX
  8
SURFACE
 62
7
  6
CONTINUOUS
 10
154.0309513666
 20
120.5467417846
  0
VERTEX
  8
SURFACE
 62
7
  6
CONTINUOUS
 10
154.0278609839
 20
120.6252317504
  0
SEQEND
  0
LINE
  8
SURFACE
 62
7
  6
CONTINUOUS
 10
163.0811644108
 20
120.0836570335
 11
163.3187276738
 21
120.0745881935
  0
LINE
  8
SURFACE
 62
7
  6
CONTINUOUS
 10
163.3187276738
 20
120.0745881935
 11
163.5417561012
 21
120.0645980099
  0
LINE
  8
SURFACE
 62
7
  6
CONTINUOUS
 10
163.5417561012
 20
120.0645980099
 11
163.7506063479
 21
120.0538175753
  0
LINE
  8
SURFACE
 62
7
  6
CONTINUOUS
 10
163.7506063479
 20
120.0538175753
 11
163.9455864513
 21
120.0423683296
  0
LINE
  8
SURFACE
 62
7
  6
CONTINUOUS
 10
163.9455864513
 20
120.0423683296
 11
164.1269785714
 21
120.0303667019
  0
LINE
  8
SURFACE
 62
7
  6
CONTINUOUS
 10
164.1269785714
 20
120.0303667019
 11
164.2951306424
 21
120.0179174436
  0
POLYLINE
  8
SURFACE
 62
7
  6
CONTINUOUS
 66
1
 70
0
  0
VERTEX
  8
SURFACE
 62
7
  6
CONTINUOUS
 10
164.2951306424
 20
120.0179174436
  0
VERTEX
  8
SURFACE
 62
7
  6
CONTINUOUS
 10
164.4504242066
 20
120.005118366
  0
VERTEX
  8
SURFACE
 62
7
  6
CONTINUOUS
 10
164.5233801037
 20
119.9986152193
  0
VERTEX
  8
SURFACE
 62
7
  6
CONTINUOUS
 10
164.593281305
 20
119.9920569804
  0
VERTEX
  8
SURFACE
 62
7
  6
CONTINUOUS
 10
164.6601846186
 20
119.9854535766
  0
VERTEX
  8
SURFACE
 62
7
  6
CONTINUOUS
 10
164.7241484109
 20
119.9788140661
  0
VERTEX
  8
SURFACE
 62
7
  6
CONTINUOUS
 10
164.7852279056
 20
119.9721475089
  0
VERTEX
  8
SURFACE
 62
7
  6
CONTINUOUS
 10
164.8434786693
 20
119.9654627658
  0
VERTEX
  8
SURFACE
 62
7
  6
CONTINUOUS
 10
164.8989463688
 20
119.9587696871
  0
VERTEX
  8
SURFACE
 62
7
  6
CONTINUOUS
 10
164.9516803496
 20
119.9520773704
  0
VERTEX
  8
SURFACE
 62
7
  6
CONTINUOUS
 10
165.001721907
 20
119.9453957695
  0
VERTEX
  8
SURFACE
 62
7
  6
CONTINUOUS
 10
165.0491173877
 20
119.9387342933
  0
VERTEX
  8
SURFACE
 62
7
  6
CONTINUOUS
 10
165.0938850063
 20
119.932106636
  0
VERTEX
  8
SURFACE
 62
7
  6
CONTINUOUS
 10
165.1360639072
 20
119.9255239607
  0
VERTEX
  8
SURFACE
 62
7
  6
CONTINUOUS
 10
165.1756305859
 20
119.91900812
  0
VERTEX
  8
SURFACE
 62
7
  6
CONTINUOUS
 10
165.2125887486
 20
119.9125788076
  0
VERTEX
  8
SURFACE
 62
7
  6
CONTINUOUS
 10
165.2469133154
 20
119.9062632309
  0
VERTEX
  8
SURFACE
 62
7
  6
CONTINUOUS
 10
165.2785976444
 20
119.9000885485
  0
VERTEX
  8
SURFACE
 62
7
  6
CONTINUOUS
 10
165.3076107919
 20
119.8940904495
  0
VERTEX
  8
SURFACE
 62
7
  6
CONTINUOUS
 10
165.3339455688
 20
119.8883045419
  0
VERTEX
  8
SURFACE
 62
7
  6
CONTINUOUS
 10
165.3575551621
 20
119.8827810103
  0
VERTEX
  8
SURFACE
 62
7
  6
CONTINUOUS
 10
165.3784244964
 20
119.8775703263
  0
VERTEX
  8
SURFACE
 62
7
  6
CONTINUOUS
 10
165.3964755566
 20
119.8727482604
  0
VERTEX
  8
SURFACE
 62
7
  6
CONTINUOUS
 10
165.4116804802
 20
119.8683902839
  0
VERTEX
  8
SURFACE
 62
7
  6
CONTINUOUS
 10
165.423917251
 20
119.864615626
  0
VERTEX
  8
SURFACE
 62
7
  6
CONTINUOUS
 10
165.4331402329
 20
119.8615433182
  0
VERTEX
  8
SURFACE
 62
7
  6
CONTINUOUS
 10
165.4391685462
 20
119.8593675732
  0
VERTEX
  8
SURFACE
 62
7
  6
CONTINUOUS
 10
165.4409684218
 20
119.858673714
  0
SEQEND
  0
LINE
  8
SURFACE
 62
7
  6
CONTINUOUS
 10
149.1478609839
 20
115.4346939383
 11
149.1478609839
 21
102.5752069622
  0
LINE
  8
0
 62
7
  6
CONTINUOUS
 10
149.1478609839
 20
149.2157199861
 11
149.1478609839
 21
162.0752069622
  0
POLYLINE
  8
0
 62
7
  6
CONTINUOUS
 66
1
 70
0
  0
VERTEX
  8
0
 62
7
  6
CONTINUOUS
 10
165.4417082037
 20
144.7920363461
  0
VERTEX
  8
0
 62
7
  6
CONTINUOUS
 10
165.4404187806
 20
144.7915250211
  0
VERTEX
  8
0
 62
7
  6
CONTINUOUS
 10
165.435473958
 20
144.7896922039
  0
VERTEX
  8
0
 62
7
  6
CONTINUOUS
 10
165.4272711075
 20
144.7868880012
  0
VERTEX
  8
0
 62
7
  6
CONTINUOUS
 10
165.4159170537
 20
144.7832989497
  0
VERTEX
  8
0
 62
7
  6
CONTINUOUS
 10
165.4014023974
 20
144.7790440041
  0
VERTEX
  8
0
 62
7
  6
CONTINUOUS
 10
165.383779465
 20
144.7742400236
  0
VERTEX
  8
0
 62
7
  6
CONTINUOUS
 10
165.3630188652
 20
144.7689643171
  0
VERTEX
  8
0
 62
7
  6
CONTINUOUS
 10
165.3391326269
 20
144.7632932407
  0
VERTEX
  8
0
 62
7
  6
CONTINUOUS
 10
165.3120776991
 20
144.7572802194
  0
VERTEX
  8
0
 62
7
  6
CONTINUOUS
 10
165.281834957
 20
144.7509772414
  0
VERTEX
  8
0
 62
7
  6
CONTINUOUS
 10
165.2483552542
 20
144.7444240822
  0
VERTEX
  8
0
 62
7
  6
CONTINUOUS
 10
165.2116089638
 20
144.7376599606
  0
VERTEX
  8
0
 62
7
  6
CONTINUOUS
 10
165.1715448277
 20
144.7307162817
  0
VERTEX
  8
0
 62
7
  6
CONTINUOUS
 10
165.1281258382
 20
144.7236239625
  0
VERTEX
  8
0
 62
7
  6
CONTINUOUS
 10
165.0812975099
 20
144.7164083974
  0
VERTEX
  8
0
 62
7
  6
CONTINUOUS
 10
165.0310184019
 20
144.709095036
  0
VERTEX
  8
0
 62
7
  6
CONTINUOUS
 10
164.9772388402
 20
144.7017065324
  0
VERTEX
  8
0
 62
7
  6
CONTINUOUS
 10
164.9199192467
 20
144.6942654439
  0
VERTEX
  8
0
 62
7
  6
CONTINUOUS
 10
164.859013029
 20
144.6867919642
  0
VERTEX
  8
0
 62
7
  6
CONTINUOUS
 10
164.7944834917
 20
144.6793064165
  0
VERTEX
  8
0
 62
7
  6
CONTINUOUS
 10
164.7262933589
 20
144.6718283878
  0
VERTEX
  8
0
 62
7
  6
CONTINUOUS
 10
164.6544142036
 20
144.6643774967
  0
VERTEX
  8
0
 62
7
  6
CONTINUOUS
 10
164.5788159331
 20
144.6569721496
  0
VERTEX
  8
0
 62
7
  6
CONTINUOUS
 10
164.4994883128
 20
144.6496319755
  0
VERTEX
  8
0
 62
7
  6
CONTINUOUS
 10
164.4163850206
 20
144.6423730977
  0
VERTEX
  8
0
 62
7
  6
CONTINUOUS
 10
164.3294979297
 20
144.6352145246
  0
VERTEX
  8
0
 62
7
  6
CONTINUOUS
 10
164.2387270017
 20
144.6281674249
  0
VERTEX
  8
0
 62
7
  6
CONTINUOUS
 10
164.1440017517
 20
144.6212466231
  0
SEQEND
  0
LINE
  8
0
 62
7
  6
CONTINUOUS
 10
153.1478609839
 20
162.0752069622
 11
153.1478609839
 21
154.2752069622
  0
LINE
  8
SURFACE
 62
7
  6
CONTINUOUS
 10
153.1478609839
 20
110.3752069622
 11
153.1478609839
 21
102.5752069622
  0
LINE
  8
SURFACE
 62
7
  6
CONTINUOUS
 10
154.0278579926
 20
116.8948396449
 11
154.0278457575
 21
116.8953904743
  0
LINE
  8
SURFACE
 62
7
  6
CONTINUOUS
 10
154.0278609839
 20
113.5606642342
 11
154.0278609839
 21
124.310743676
  0
LINE
  8
0
 62
7
  6
CONTINUOUS
 10
154.0278609839
 20
120.6990047648
 11
154.0278609839
 21
151.0897496902
  0
POLYLINE
  8
SURFACE
 62
7
  6
CONTINUOUS
 66
1
 70
0
  0
VERTEX
  8
SURFACE
 62
7
  6
CONTINUOUS
 10
154.0278457575
 20
116.8953904743
  0
VERTEX
  8
SURFACE
 62
7
  6
CONTINUOUS
 10
154.0278300785
 20
116.8951060932
  0
VERTEX
  8
SURFACE
 62
7
  6
CONTINUOUS
 10
154.0274552013
 20
116.8908612125
  0
VERTEX
  8
SURFACE
 62
7
  6
CONTINUOUS
 10
154.0263557936
 20
116.8828921085
  0
VERTEX
  8
SURFACE
 62
7
  6
CONTINUOUS
 10
154.0241973792
 20
116.8715682098
  0
VERTEX
  8
SURFACE
 62
7
  6
CONTINUOUS
 10
154.020617292
 20
116.8570883815
  0
VERTEX
  8
SURFACE
 62
7
  6
CONTINUOUS
 10
154.0152778929
 20
116.8397374309
  0
VERTEX
  8
SURFACE
 62
7
  6
CONTINUOUS
 10
154.0078260922
 20
116.8197461224
  0
VERTEX
  8
SURFACE
 62
7
  6
CONTINUOUS
 10
153.9978754219
 20
116.7973290431
  0
VERTEX
  8
SURFACE
 62
7
  6
CONTINUOUS
 10
153.9851728767
 20
116.7730246486
  0
VERTEX
  8
SURFACE
 62
7
  6
CONTINUOUS
 10
153.9694220024
 20
116.7472263431
  0
VERTEX
  8
SURFACE
 62
7
  6
CONTINUOUS
 10
153.9507112763
 20
116.7208389235
  0
VERTEX
  8
SURFACE
 62
7
  6
CONTINUOUS
 10
153.9293253006
 20
116.6947605444
  0
VERTEX
  8
SURFACE
 62
7
  6
CONTINUOUS
 10
153.9051444753
 20
116.6692307442
  0
VERTEX
  8
SURFACE
 62
7
  6
CONTINUOUS
 10
153.8781742155
 20
116.6446261157
  0
VERTEX
  8
SURFACE
 62
7
  6
CONTINUOUS
 10
153.8485198101
 20
116.6213858217
  0
VERTEX
  8
SURFACE
 62
7
  6
CONTINUOUS
 10
153.8162533536
 20
116.5998853398
  0
VERTEX
  8
SURFACE
 62
7
  6
CONTINUOUS
 10
153.7815251177
 20
116.5805067083
  0
VERTEX
  8
SURFACE
 62
7
  6
CONTINUOUS
 10
153.7443348726
 20
116.5635267558
  0
VERTEX
  8
SURFACE
 62
7
  6
CONTINUOUS
 10
153.7049732181
 20
116.5493171655
  0
VERTEX
  8
SURFACE
 62
7
  6
CONTINUOUS
 10
153.6637843129
 20
116.5381466629
  0
VERTEX
  8
SURFACE
 62
7
  6
CONTINUOUS
 10
153.6208227331
 20
116.5301308869
  0
VERTEX
  8
SURFACE
 62
7
  6
CONTINUOUS
 10
153.5765826424
 20
116.5253903047
  0
VERTEX
  8
SURFACE
 62
7
  6
CONTINUOUS
 10
153.549978541
 20
116.5241274452
  0
SEQEND
  0
LINE
  8
DEFAULT_1
 62
7
  6
CENTER
 10
143.1478609839
 20
132.3252069622
 11
172.0278609839
 21
132.3252069622
  0
POLYLINE
  8
0
 62
7
  6
CONTINUOUS
 66
1
 70
0
  0
VERTEX
  8
0
 62
7
  6
CONTINUOUS
 10
154.0206812498
 20
147.7930933956
  0
VERTEX
  8
0
 62
7
  6
CONTINUOUS
 10
154.0242305505
 20
147.7786926585
  0
VERTEX
  8
0
 62
7
  6
CONTINUOUS
 10
154.0263700342
 20
147.7674338811
  0
VERTEX
  8
0
 62
7
  6
CONTINUOUS
 10
154.0267994777
 20
147.7646417482
  0
SEQEND
  0
POLYLINE
  8
0
 62
7
  6
CONTINUOUS
 66
1
 70
0
  0
VERTEX
  8
0
 62
7
  6
CONTINUOUS
 10
154.0267994777
 20
147.7646417482
  0
VERTEX
  8
0
 62
7
  6
CONTINUOUS
 10
154.0274595266
 20
147.7595134017
  0
VERTEX
  8
0
 62
7
  6
CONTINUOUS
 10
154.0278305674
 20
147.7552994493
  0
VERTEX
  8
0
 62
7
  6
CONTINUOUS
 10
154.0278573402
 20
147.7551875314
  0
SEQEND
  0
LINE
  8
DEFAULT_1
 62
7
  6
CENTER
 10
161.5278609839
 20
98.3719878465
 11
161.5278609839
 21
166.2784260779
  0
LINE
  8
SURFACE
 62
7
  6
CONTINUOUS
 10
151.9544400089
 20
116.7880505111
 11
153.7311424867
 21
118.7269810289
  0
POLYLINE
  8
SURFACE
 62
7
  6
CONTINUOUS
 66
1
 70
0
  0
VERTEX
  8
SURFACE
 62
7
  6
CONTINUOUS
 10
151.954196408
 20
116.7877836191
  0
VERTEX
  8
SURFACE
 62
7
  6
CONTINUOUS
 10
151.9284244148
 20
116.7606931413
  0
VERTEX
  8
SURFACE
 62
7
  6
CONTINUOUS
 10
151.8778092805
 20
116.7128912298
  0
VERTEX
  8
SURFACE
 62
7
  6
CONTINUOUS
 10
151.8239909589
 20
116.6687269144
  0
VERTEX
  8
SURFACE
 62
7
  6
CONTINUOUS
 10
151.7672303174
 20
116.6284142367
  0
VERTEX
  8
SURFACE
 62
7
  6
CONTINUOUS
 10
151.707802482
 20
116.5921485677
  0
VERTEX
  8
SURFACE
 62
7
  6
CONTINUOUS
 10
151.6459955052
 20
116.5601056622
  0
VERTEX
  8
SURFACE
 62
7
  6
CONTINUOUS
 10
151.5821089703
 20
116.5324408069
  0
VERTEX
  8
SURFACE
 62
7
  6
CONTINUOUS
 10
151.5164525292
 20
116.5092880643
  0
VERTEX
  8
SURFACE
 62
7
  6
CONTINUOUS
 10
151.4493444052
 20
116.4907596267
  0
VERTEX
  8
SURFACE
 62
7
  6
CONTINUOUS
 10
151.3811098796
 20
116.4769452796
  0
VERTEX
  8
SURFACE
 62
7
  6
CONTINUOUS
 10
151.3120796897
 20
116.4679119549
  0
VERTEX
  8
SURFACE
 62
7
  6
CONTINUOUS
 10
151.2430961561
 20
116.463716574
  0
SEQEND
  0
POLYLINE
  8
0
 62
7
  6
CONTINUOUS
 66
1
 70
0
  0
VERTEX
  8
0
 62
7
  6
CONTINUOUS
 10
153.7311521467
 20
145.9234223569
  0
VERTEX
  8
0
 62
7
  6
CONTINUOUS
 10
153.7575740849
 20
145.8955466638
  0
VERTEX
  8
0
 62
7
  6
CONTINUOUS
 10
153.8063475413
 20
145.8486182699
  0
SEQEND
  0
LINE
  8
0
 62
7
  6
CONTINUOUS
 10
153.7311424867
 20
145.9234328955
 11
151.9544400089
 21
147.8623634133
  0
LINE
  8
SURFACE
 62
7
  6
CONTINUOUS
 10
165.0478609839
 20
118.4314459929
 11
165.0478609839
 21
100.7002069622
  0
LINE
  8
0
 62
7
  6
CONTINUOUS
 10
165.0478609839
 20
146.2189679315
 11
165.0478609839
 21
163.9502069622
  0
POLYLINE
  8
SURFACE
 62
7
  6
CONTINUOUS
 66
1
 70
0
  0
VERTEX
  8
SURFACE
 62
7
  6
CONTINUOUS
 10
153.852647243
 20
118.8417027279
  0
VERTEX
  8
SURFACE
 62
7
  6
CONTINUOUS
 10
153.8043483838
 20
118.7999766067
  0
VERTEX
  8
SURFACE
 62
7
  6
CONTINUOUS
 10
153.7555578395
 20
118.7528052165
  0
VERTEX
  8
SURFACE
 62
7
  6
CONTINUOUS
 10
153.7311508182
 20
118.7269901178
  0
SEQEND
  0
POLYLINE
  8
0
 62
7
  6
CONTINUOUS
 66
1
 70
0
  0
VERTEX
  8
0
 62
7
  6
CONTINUOUS
 10
153.8063475413
 20
145.8486182699
  0
VERTEX
  8
0
 62
7
  6
CONTINUOUS
 10
153.8545181249
 20
145.8071830949
  0
VERTEX
  8
0
 62
7
  6
CONTINUOUS
 10
153.9023404704
 20
145.7701276294
  0
VERTEX
  8
0
 62
7
  6
CONTINUOUS
 10
153.9500836448
 20
145.7366223586
  0
VERTEX
  8
0
 62
7
  6
CONTINUOUS
 10
153.9979549589
 20
145.706074719
  0
VERTEX
  8
0
 62
7
  6
CONTINUOUS
 10
154.0278609839
 20
145.6886732245
  0
SEQEND
  0
POLYLINE
  8
SURFACE
 62
7
  6
CONTINUOUS
 66
1
 70
0
  0
VERTEX
  8
SURFACE
 62
7
  6
CONTINUOUS
 10
168.5170294657
 20
119.1687848336
  0
VERTEX
  8
SURFACE
 62
7
  6
CONTINUOUS
 10
168.5131366308
 20
119.211254458
  0
VERTEX
  8
SURFACE
 62
7
  6
CONTINUOUS
 10
168.5070637541
 20
119.2523549306
  0
VERTEX
  8
SURFACE
 62
7
  6
CONTINUOUS
 10
168.4987286277
 20
119.2918229129
  0
VERTEX
  8
SURFACE
 62
7
  6
CONTINUOUS
 10
168.4883778751
 20
119.3294839583
  0
VERTEX
  8
SURFACE
 62
7
  6
CONTINUOUS
 10
168.4761797519
 20
119.3651781766
  0
VERTEX
  8
SURFACE
 62
7
  6
CONTINUOUS
 10
168.4622871535
 20
119.398785586
  0
VERTEX
  8
SURFACE
 62
7
  6
CONTINUOUS
 10
168.4468625849
 20
119.4302075555
  0
VERTEX
  8
SURFACE
 62
7
  6
CONTINUOUS
 10
168.4300454731
 20
119.4593699397
  0
VERTEX
  8
SURFACE
 62
7
  6
CONTINUOUS
 10
168.411986625
 20
119.4862179902
  0
VERTEX
  8
SURFACE
 62
7
  6
CONTINUOUS
 10
168.3928144068
 20
119.5107100769
  0
VERTEX
  8
SURFACE
 62
7
  6
CONTINUOUS
 10
168.3726674909
 20
119.5328216222
  0
VERTEX
  8
SURFACE
 62
7
  6
CONTINUOUS
 10
168.351665765
 20
119.5525355048
  0
VERTEX
  8
SURFACE
 62
7
  6
CONTINUOUS
 10
168.3299374458
 20
119.5698491163
  0
VERTEX
  8
SURFACE
 62
7
  6
CONTINUOUS
 10
168.3075962177
 20
119.584764899
  0
VERTEX
  8
SURFACE
 62
7
  6
CONTINUOUS
 10
168.2847622598
 20
119.5972976162
  0
VERTEX
  8
SURFACE
 62
7
  6
CONTINUOUS
 10
168.2615443044
 20
119.6074668333
  0
VERTEX
  8
SURFACE
 62
7
  6
CONTINUOUS
 10
168.238056228
 20
119.6153026384
  0
VERTEX
  8
SURFACE
 62
7
  6
CONTINUOUS
 10
168.2144027783
 20
119.6208404622
  0
VERTEX
  8
SURFACE
 62
7
  6
CONTINUOUS
 10
168.1907445
 20
119.6241251314
  0
VERTEX
  8
SURFACE
 62
7
  6
CONTINUOUS
 10
168.1670278783
 20
119.6252069622
  0
SEQEND
  0
POLYLINE
  8
0
 62
7
  6
CONTINUOUS
 66
1
 70
0
  0
VERTEX
  8
0
 62
7
  6
CONTINUOUS
 10
168.5178609839
 20
161.2116741904
  0
VERTEX
  8
0
 62
7
  6
CONTINUOUS
 10
168.5158803407
 20
161.3850599721
  0
VERTEX
  8
0
 62
7
  6
CONTINUOUS
 10
168.5099649178
 20
161.556284081
  0
VERTEX
  8
0
 62
7
  6
CONTINUOUS
 10
168.5000222127
 20
161.7257194561
  0
VERTEX
  8
0
 62
7
  6
CONTINUOUS
 10
168.4860257406
 20
161.8922577476
  0
VERTEX
  8
0
 62
7
  6
CONTINUOUS
 10
168.4678837917
 20
162.0550177863
  0
VERTEX
  8
0
 62
7
  6
CONTINUOUS
 10
168.4454641987
 20
162.2136998224
  0
VERTEX
  8
0
 62
7
  6
CONTINUOUS
 10
168.4185721856
 20
162.367950199
  0
VERTEX
  8
0
 62
7
  6
CONTINUOUS
 10
168.3870962753
 20
162.5170587011
  0
VERTEX
  8
0
 62
7
  6
CONTINUOUS
 10
168.3509098339
 20
162.6602197537
  0
VERTEX
  8
0
 62
7
  6
CONTINUOUS
 10
168.3097237127
 20
162.7973743068
  0
VERTEX
  8
0
 62
7
  6
CONTINUOUS
 10
168.2632048637
 20
162.9284074302
  0
VERTEX
  8
0
 62
7
  6
CONTINUOUS
 10
168.2112157328
 20
163.0526919339
  0
VERTEX
  8
0
 62
7
  6
CONTINUOUS
 10
168.1536627768
 20
163.1695200425
  0
VERTEX
  8
0
 62
7
  6
CONTINUOUS
 10
168.0900555997
 20
163.2790266433
  0
VERTEX
  8
0
 62
7
  6
CONTINUOUS
 10
168.0199295755
 20
163.3812476805
  0
VERTEX
  8
0
 62
7
  6
CONTINUOUS
 10
167.9429778556
 20
163.4757877294
  0
VERTEX
  8
0
 62
7
  6
CONTINUOUS
 10
167.8589765635
 20
163.5622718818
  0
VERTEX
  8
0
 62
7
  6
CONTINUOUS
 10
167.7671698954
 20
163.6406886881
  0
VERTEX
  8
0
 62
7
  6
CONTINUOUS
 10
167.6668487797
 20
163.7110419186
  0
VERTEX
  8
0
 62
7
  6
CONTINUOUS
 10
167.5574140652
 20
163.7729399821
  0
VERTEX
  8
0
 62
7
  6
CONTINUOUS
 10
167.4381051965
 20
163.8261279595
  0
VERTEX
  8
0
 62
7
  6
CONTINUOUS
 10
167.3085325214
 20
163.8702314473
  0
VERTEX
  8
0
 62
7
  6
CONTINUOUS
 10
167.1685246194
 20
163.9048435563
  0
VERTEX
  8
0
 62
7
  6
CONTINUOUS
 10
167.0167027421
 20
163.9298323809
  0
VERTEX
  8
0
 62
7
  6
CONTINUOUS
 10
166.8516067844
 20
163.9448836581
  0
VERTEX
  8
0
 62
7
  6
CONTINUOUS
 10
166.6729052358
 20
163.9502069622
  0
SEQEND
  0
POLYLINE
  8
SURFACE
 62
7
  6
CONTINUOUS
 66
1
 70
0
  0
VERTEX
  8
SURFACE
 62
7
  6
CONTINUOUS
 10
168.5178609759
 20
119.1410029295
  0
VERTEX
  8
SURFACE
 62
7
  6
CONTINUOUS
 10
168.5178377448
 20
119.1456421359
  0
VERTEX
  8
SURFACE
 62
7
  6
CONTINUOUS
 10
168.5177683525
 20
119.1502780173
  0
VERTEX
  8
SURFACE
 62
7
  6
CONTINUOUS
 10
168.5176527804
 20
119.1549107901
  0
VERTEX
  8
SURFACE
 62
7
  6
CONTINUOUS
 10
168.5174910839
 20
119.1595398054
  0
VERTEX
  8
SURFACE
 62
7
  6
CONTINUOUS
 10
168.5172833185
 20
119.1641644144
  0
VERTEX
  8
SURFACE
 62
7
  6
CONTINUOUS
 10
168.5170294657
 20
119.1687848336
  0
SEQEND
  0
LINE
  8
SURFACE
 62
7
  6
CONTINUOUS
 10
168.5178609759
 20
119.1410029295
 11
168.5178609839
 21
103.4387397339
  0
LINE
  8
0
 62
7
  6
CONTINUOUS
 10
168.5178609759
 20
145.5094109949
 11
168.5178609839
 21
161.2116741904
  0
LINE
  8
SURFACE
 62
7
  6
CONTINUOUS
 10
169.0278609839
 20
120.197121489
 11
169.0278609839
 21
101.7001739558
  0
LINE
  8
0
 62
7
  6
CONTINUOUS
 10
169.0278609839
 20
120.1971216137
 11
169.0278609839
 21
162.9502399686
  0
POLYLINE
  8
0
 62
7
  6
CONTINUOUS
 66
1
 70
0
  0
VERTEX
  8
0
 62
7
  6
CONTINUOUS
 10
168.5178609759
 20
145.5094109949
  0
VERTEX
  8
0
 62
7
  6
CONTINUOUS
 10
168.5178377448
 20
145.5047717885
  0
VERTEX
  8
0
 62
7
  6
CONTINUOUS
 10
168.5177683525
 20
145.5001359071
  0
VERTEX
  8
0
 62
7
  6
CONTINUOUS
 10
168.5176527804
 20
145.4955031343
  0
VERTEX
  8
0
 62
7
  6
CONTINUOUS
 10
168.5174910839
 20
145.490874119
  0
VERTEX
  8
0
 62
7
  6
CONTINUOUS
 10
168.5172833185
 20
145.4862495099
  0
VERTEX
  8
0
 62
7
  6
CONTINUOUS
 10
168.5170294657
 20
145.4816290908
  0
SEQEND
  0
POLYLINE
  8
SURFACE
 62
7
  6
CONTINUOUS
 66
1
 70
0
  0
VERTEX
  8
SURFACE
 62
7
  6
CONTINUOUS
 10
168.5178609839
 20
103.4387397339
  0
VERTEX
  8
SURFACE
 62
7
  6
CONTINUOUS
 10
168.5158803407
 20
103.2653539523
  0
VERTEX
  8
SURFACE
 62
7
  6
CONTINUOUS
 10
168.5099649178
 20
103.0941298434
  0
VERTEX
  8
SURFACE
 62
7
  6
CONTINUOUS
 10
168.5000222127
 20
102.9246944683
  0
VERTEX
  8
SURFACE
 62
7
  6
CONTINUOUS
 10
168.4860257406
 20
102.7581561768
  0
VERTEX
  8
SURFACE
 62
7
  6
CONTINUOUS
 10
168.4678837917
 20
102.5953961381
  0
VERTEX
  8
SURFACE
 62
7
  6
CONTINUOUS
 10
168.4454641987
 20
102.436714102
  0
VERTEX
  8
SURFACE
 62
7
  6
CONTINUOUS
 10
168.4185721856
 20
102.2824637254
  0
VERTEX
  8
SURFACE
 62
7
  6
CONTINUOUS
 10
168.3870962753
 20
102.1333552233
  0
VERTEX
  8
SURFACE
 62
7
  6
CONTINUOUS
 10
168.3509098339
 20
101.9901941707
  0
VERTEX
  8
SURFACE
 62
7
  6
CONTINUOUS
 10
168.3097237127
 20
101.8530396176
  0
VERTEX
  8
SURFACE
 62
7
  6
CONTINUOUS
 10
168.2632048637
 20
101.7220064942
  0
VERTEX
  8
SURFACE
 62
7
  6
CONTINUOUS
 10
168.2112157328
 20
101.5977219904
  0
VERTEX
  8
SURFACE
 62
7
  6
CONTINUOUS
 10
168.1536627768
 20
101.4808938819
  0
VERTEX
  8
SURFACE
 62
7
  6
CONTINUOUS
 10
168.0900555997
 20
101.3713872811
  0
VERTEX
  8
SURFACE
 62
7
  6
CONTINUOUS
 10
168.0199295755
 20
101.2691662438
  0
VERTEX
  8
SURFACE
 62
7
  6
CONTINUOUS
 10
167.9429778556
 20
101.174626195
  0
VERTEX
  8
SURFACE
 62
7
  6
CONTINUOUS
 10
167.8589765635
 20
101.0881420425
  0
VERTEX
  8
SURFACE
 62
7
  6
CONTINUOUS
 10
167.7671698954
 20
101.0097252363
  0
VERTEX
  8
SURFACE
 62
7
  6
CONTINUOUS
 10
167.6668487797
 20
100.9393720058
  0
VERTEX
  8
SURFACE
 62
7
  6
CONTINUOUS
 10
167.5574140652
 20
100.8774739423
  0
VERTEX
  8
SURFACE
 62
7
  6
CONTINUOUS
 10
167.4381051965
 20
100.8242859649
  0
VERTEX
  8
SURFACE
 62
7
  6
CONTINUOUS
 10
167.3085325214
 20
100.7801824771
  0
VERTEX
  8
SURFACE
 62
7
  6
CONTINUOUS
 10
167.1685246194
 20
100.7455703681
  0
VERTEX
  8
SURFACE
 62
7
  6
CONTINUOUS
 10
167.0167027421
 20
100.7205815435
  0
VERTEX
  8
SURFACE
 62
7
  6
CONTINUOUS
 10
166.8516067844
 20
100.7055302663
  0
VERTEX
  8
SURFACE
 62
7
  6
CONTINUOUS
 10
166.6729052358
 20
100.7002069622
  0
SEQEND
  0
POLYLINE
  8
0
 62
7
  6
CONTINUOUS
 66
1
 70
0
  0
VERTEX
  8
0
 62
7
  6
CONTINUOUS
 10
168.5170294657
 20
145.4816290908
  0
VERTEX
  8
0
 62
7
  6
CONTINUOUS
 10
168.5131366308
 20
145.4391594664
  0
VERTEX
  8
0
 62
7
  6
CONTINUOUS
 10
168.5070637541
 20
145.3980589938
  0
VERTEX
  8
0
 62
7
  6
CONTINUOUS
 10
168.4987286277
 20
145.3585910115
  0
VERTEX
  8
0
 62
7
  6
CONTINUOUS
 10
168.4883778751
 20
145.3209299661
  0
VERTEX
  8
0
 62
7
  6
CONTINUOUS
 10
168.4761797519
 20
145.2852357478
  0
VERTEX
  8
0
 62
7
  6
CONTINUOUS
 10
168.4622871535
 20
145.2516283384
  0
VERTEX
  8
0
 62
7
  6
CONTINUOUS
 10
168.4468625849
 20
145.2202063689
  0
VERTEX
  8
0
 62
7
  6
CONTINUOUS
 10
168.4300454731
 20
145.1910439847
  0
VERTEX
  8
0
 62
7
  6
CONTINUOUS
 10
168.411986625
 20
145.1641959342
  0
VERTEX
  8
0
 62
7
  6
CONTINUOUS
 10
168.3928144068
 20
145.1397038475
  0
VERTEX
  8
0
 62
7
  6
CONTINUOUS
 10
168.3726674909
 20
145.1175923021
  0
VERTEX
  8
0
 62
7
  6
CONTINUOUS
 10
168.351665765
 20
145.0978784196
  0
VERTEX
  8
0
 62
7
  6
CONTINUOUS
 10
168.3299374458
 20
145.0805648081
  0
VERTEX
  8
0
 62
7
  6
CONTINUOUS
 10
168.3075962177
 20
145.0656490253
  0
VERTEX
  8
0
 62
7
  6
CONTINUOUS
 10
168.2847622598
 20
145.0531163082
  0
VERTEX
  8
0
 62
7
  6
CONTINUOUS
 10
168.2615443044
 20
145.042947091
  0
VERTEX
  8
0
 62
7
  6
CONTINUOUS
 10
168.238056228
 20
145.0351112859
  0
VERTEX
  8
0
 62
7
  6
CONTINUOUS
 10
168.2144027783
 20
145.0295734622
  0
VERTEX
  8
0
 62
7
  6
CONTINUOUS
 10
168.1907445
 20
145.0262887929
  0
VERTEX
  8
0
 62
7
  6
CONTINUOUS
 10
168.1670278783
 20
145.0252069622
  0
SEQEND
  0
POLYLINE
  8
SURFACE
 62
7
  6
CONTINUOUS
 66
1
 70
0
  0
VERTEX
  8
SURFACE
 62
7
  6
CONTINUOUS
 10
154.0278609839
 20
118.961742847
  0
VERTEX
  8
SURFACE
 62
7
  6
CONTINUOUS
 10
153.9968293109
 20
118.943652991
  0
VERTEX
  8
SURFACE
 62
7
  6
CONTINUOUS
 10
153.9486718313
 20
118.9128463363
  0
VERTEX
  8
SURFACE
 62
7
  6
CONTINUOUS
 10
153.9006754433
 20
118.8790578071
  0
VERTEX
  8
SURFACE
 62
7
  6
CONTINUOUS
 10
153.852647243
 20
118.8417027279
  0
SEQEND
  0
POLYLINE
  8
SURFACE
 62
7
  6
CONTINUOUS
 66
1
 70
0
  0
VERTEX
  8
SURFACE
 62
7
  6
CONTINUOUS
 10
157.6172725367
 20
119.8599146423
  0
VERTEX
  8
SURFACE
 62
7
  6
CONTINUOUS
 10
157.6152369409
 20
119.8589432141
  0
VERTEX
  8
SURFACE
 62
7
  6
CONTINUOUS
 10
157.6136485678
 20
119.8582267979
  0
VERTEX
  8
SURFACE
 62
7
  6
CONTINUOUS
 10
157.6154633362
 20
119.8589509957
  0
VERTEX
  8
SURFACE
 62
7
  6
CONTINUOUS
 10
157.620586585
 20
119.8608423224
  0
VERTEX
  8
SURFACE
 62
7
  6
CONTINUOUS
 10
157.6289853063
 20
119.8637014651
  0
VERTEX
  8
SURFACE
 62
7
  6
CONTINUOUS
 10
157.6405481396
 20
119.8673409202
  0
VERTEX
  8
SURFACE
 62
7
  6
CONTINUOUS
 10
157.6552818952
 20
119.8716415028
  0
VERTEX
  8
SURFACE
 62
7
  6
CONTINUOUS
 10
157.6731307374
 20
119.8764860781
  0
VERTEX
  8
SURFACE
 62
7
  6
CONTINUOUS
 10
157.6941201056
 20
119.8817970017
  0
VERTEX
  8
SURFACE
 62
7
  6
CONTINUOUS
 10
157.7182331043
 20
119.8874975482
  0
VERTEX
  8
SURFACE
 62
7
  6
CONTINUOUS
 10
157.7455096818
 20
119.8935344046
  0
VERTEX
  8
SURFACE
 62
7
  6
CONTINUOUS
 10
157.7759639535
 20
119.8998553712
  0
VERTEX
  8
SURFACE
 62
7
  6
CONTINUOUS
 10
157.8096444919
 20
119.9064213901
  0
VERTEX
  8
SURFACE
 62
7
  6
CONTINUOUS
 10
157.8465789979
 20
119.9131936209
  0
VERTEX
  8
SURFACE
 62
7
  6
CONTINUOUS
 10
157.8868191389
 20
119.9201413858
  0
VERTEX
  8
SURFACE
 62
7
  6
CONTINUOUS
 10
157.930402606
 20
119.9272344392
  0
VERTEX
  8
SURFACE
 62
7
  6
CONTINUOUS
 10
157.9773842258
 20
119.9344478949
  0
VERTEX
  8
SURFACE
 62
7
  6
CONTINUOUS
 10
158.0278066965
 20
119.9417568553
  0
VERTEX
  8
SURFACE
 62
7
  6
CONTINUOUS
 10
158.0817191452
 20
119.9491388888
  0
VERTEX
  8
SURFACE
 62
7
  6
CONTINUOUS
 10
158.1391615598
 20
119.9565717727
  0
VERTEX
  8
SURFACE
 62
7
  6
CONTINUOUS
 10
158.2001804615
 20
119.964035544
  0
VERTEX
  8
SURFACE
 62
7
  6
CONTINUOUS
 10
158.2648125158
 20
119.9715100667
  0
VERTEX
  8
SURFACE
 62
7
  6
CONTINUOUS
 10
158.3330952984
 20
119.9789759585
  0
VERTEX
  8
SURFACE
 62
7
  6
CONTINUOUS
 10
158.4050578282
 20
119.9864138277
  0
VERTEX
  8
SURFACE
 62
7
  6
CONTINUOUS
 10
158.4807307309
 20
119.9938054586
  0
VERTEX
  8
SURFACE
 62
7
  6
CONTINUOUS
 10
158.5601246491
 20
120.001131345
  0
VERTEX
  8
SURFACE
 62
7
  6
CONTINUOUS
 10
158.6432868911
 20
120.0083755288
  0
VERTEX
  8
SURFACE
 62
7
  6
CONTINUOUS
 10
158.7302273589
 20
120.0155192279
  0
VERTEX
  8
SURFACE
 62
7
  6
CONTINUOUS
 10
158.8210454036
 20
120.022551246
  0
VERTEX
  8
SURFACE
 62
7
  6
CONTINUOUS
 10
158.915811403
 20
120.0294567548
  0
SEQEND
  0
LINE
  8
0
 62
7
  6
CONTINUOUS
 10
164.1440017517
 20
144.6212466231
 11
163.9423531879
 21
144.6078439696
  0
LINE
  8
0
 62
7
  6
CONTINUOUS
 10
163.9423531879
 20
144.6078439696
 11
163.7239162721
 21
144.5951366603
  0
LINE
  8
0
 62
7
  6
CONTINUOUS
 10
163.7239162721
 20
144.5951366603
 11
163.4881167548
 21
144.5832753504
  0
LINE
  8
0
 62
7
  6
CONTINUOUS
 10
163.4881167548
 20
144.5832753504
 11
163.2344184287
 21
144.5724289452
  0
POLYLINE
  8
0
 62
7
  6
CONTINUOUS
 66
1
 70
0
  0
VERTEX
  8
0
 62
7
  6
CONTINUOUS
 10
155.0278864479
 20
145.0252051419
  0
VERTEX
  8
0
 62
7
  6
CONTINUOUS
 10
154.9500858416
 20
145.0221729136
  0
VERTEX
  8
0
 62
7
  6
CONTINUOUS
 10
154.8725294793
 20
145.0130660032
  0
VERTEX
  8
0
 62
7
  6
CONTINUOUS
 10
154.7957132245
 20
144.9978819049
  0
VERTEX
  8
0
 62
7
  6
CONTINUOUS
 10
154.7201437287
 20
144.9766768954
  0
VERTEX
  8
0
 62
7
  6
CONTINUOUS
 10
154.6462750984
 20
144.9495298263
  0
VERTEX
  8
0
 62
7
  6
CONTINUOUS
 10
154.574724975
 20
144.9166382535
  0
VERTEX
  8
0
 62
7
  6
CONTINUOUS
 10
154.506117597
 20
144.8782967966
  0
VERTEX
  8
0
 62
7
  6
CONTINUOUS
 10
154.4407356746
 20
144.8346901334
  0
VERTEX
  8
0
 62
7
  6
CONTINUOUS
 10
154.3788979847
 20
144.7860110306
  0
VERTEX
  8
0
 62
7
  6
CONTINUOUS
 10
154.3210664256
 20
144.7326108044
  0
VERTEX
  8
0
 62
7
  6
CONTINUOUS
 10
154.2676460448
 20
144.6748605859
  0
VERTEX
  8
0
 62
7
  6
CONTINUOUS
 10
154.2189419042
 20
144.6131095199
  0
VERTEX
  8
0
 62
7
  6
CONTINUOUS
 10
154.1752501175
 20
144.5477308787
  0
VERTEX
  8
0
 62
7
  6
CONTINUOUS
 10
154.1368442275
 20
144.4791585888
  0
VERTEX
  8
0
 62
7
  6
CONTINUOUS
 10
154.1039740291
 20
144.4078518856
  0
VERTEX
  8
0
 62
7
  6
CONTINUOUS
 10
154.0768011302
 20
144.3341916583
  0
VERTEX
  8
0
 62
7
  6
CONTINUOUS
 10
154.0554810169
 20
144.2585715802
  0
VERTEX
  8
0
 62
7
  6
CONTINUOUS
 10
154.040163334
 20
144.1815602036
  0
VERTEX
  8
0
 62
7
  6
CONTINUOUS
 10
154.0309513666
 20
144.1036721398
  0
VERTEX
  8
0
 62
7
  6
CONTINUOUS
 10
154.0278609839
 20
144.025182174
  0
SEQEND
  0
LINE
  8
0
 62
7
  6
CONTINUOUS
 10
163.2344184287
 20
144.5724289452
 11
162.9623633132
 21
144.5627887988
  0
LINE
  8
0
 62
7
  6
CONTINUOUS
 10
162.9623633132
 20
144.5627887988
 11
162.6716759589
 21
144.554574419
  0
LINE
  8
0
 62
7
  6
CONTINUOUS
 10
162.6716759589
 20
144.554574419
 11
162.3623694454
 21
144.5480345048
  0
LINE
  8
0
 62
7
  6
CONTINUOUS
 10
162.3623694454
 20
144.5480345048
 11
162.0347942089
 21
144.5434460462
  0
LINE
  8
0
 62
7
  6
CONTINUOUS
 10
162.0347942089
 20
144.5434460462
 11
161.6895972173
 21
144.5411138425
  0
LINE
  8
0
 62
7
  6
CONTINUOUS
 10
155.0278674022
 20
145.0252069622
 11
168.5278609839
 21
145.0252069622
  0
LINE
  8
0
 62
7
  6
CONTINUOUS
 10
161.6895972173
 20
144.5411138425
 11
161.3872917087
 21
144.5410531086
  0
LINE
  8
0
 62
7
  6
CONTINUOUS
 10
161.3872917087
 20
144.5410531086
 11
161.076295699
 21
144.5429009581
  0
LINE
  8
0
 62
7
  6
CONTINUOUS
 10
161.076295699
 20
144.5429009581
 11
160.7794091771
 21
144.5466006488
  0
LINE
  8
0
 62
7
  6
CONTINUOUS
 10
160.7794091771
 20
144.5466006488
 11
160.4971215593
 21
144.5519277118
  0
LINE
  8
0
 62
7
  6
CONTINUOUS
 10
160.4971215593
 20
144.5519277118
 11
160.2297140508
 21
144.5586774772
  0
LINE
  8
0
 62
7
  6
CONTINUOUS
 10
160.2297140508
 20
144.5586774772
 11
159.9772623926
 21
144.5666624472
  0
LINE
  8
0
 62
7
  6
CONTINUOUS
 10
159.9772623926
 20
144.5666624472
 11
159.7396285018
 21
144.5757165425
  0
LINE
  8
0
 62
7
  6
CONTINUOUS
 10
159.7396285018
 20
144.5757165425
 11
159.5165208047
 21
144.5856928585
  0
LINE
  8
0
 62
7
  6
CONTINUOUS
 10
159.5165208047
 20
144.5856928585
 11
159.3075835394
 21
144.5964603318
  0
LINE
  8
0
 62
7
  6
CONTINUOUS
 10
159.3075835394
 20
144.5964603318
 11
159.1125096329
 21
144.6078975055
  0
LINE
  8
0
 62
7
  6
CONTINUOUS
 10
159.1125096329
 20
144.6078975055
 11
158.931017775
 21
144.6198879694
  0
LINE
  8
0
 62
7
  6
CONTINUOUS
 10
158.931017775
 20
144.6198879694
 11
158.7627607819
 21
144.6323269765
  0
POLYLINE
  8
0
 62
7
  6
CONTINUOUS
 66
1
 70
0
  0
VERTEX
  8
0
 62
7
  6
CONTINUOUS
 10
158.7627607819
 20
144.6323269765
  0
VERTEX
  8
0
 62
7
  6
CONTINUOUS
 10
158.6073577291
 20
144.6451167317
  0
VERTEX
  8
0
 62
7
  6
CONTINUOUS
 10
158.5343455287
 20
144.6516155704
  0
VERTEX
  8
0
 62
7
  6
CONTINUOUS
 10
158.4643869949
 20
144.6581697554
  0
VERTEX
  8
0
 62
7
  6
CONTINUOUS
 10
158.3974253452
 20
144.6647693627
  0
VERTEX
  8
0
 62
7
  6
CONTINUOUS
 10
158.3334022698
 20
144.6714053322
  0
VERTEX
  8
0
 62
7
  6
CONTINUOUS
 10
158.2722625029
 20
144.6780686259
  0
VERTEX
  8
0
 62
7
  6
CONTINUOUS
 10
158.2139504516
 20
144.6847504047
  0
VERTEX
  8
0
 62
7
  6
CONTINUOUS
 10
158.1584203789
 20
144.6914408451
  0
VERTEX
  8
0
 62
7
  6
CONTINUOUS
 10
158.1056229644
 20
144.6981308591
  0
VERTEX
  8
0
 62
7
  6
CONTINUOUS
 10
158.0555168349
 20
144.704810531
  0
VERTEX
  8
0
 62
7
  6
CONTINUOUS
 10
158.0080555797
 20
144.7114704925
  0
VERTEX
  8
0
 62
7
  6
CONTINUOUS
 10
157.9632208137
 20
144.7180971166
  0
VERTEX
  8
0
 62
7
  6
CONTINUOUS
 10
157.9209733076
 20
144.7246792932
  0
VERTEX
  8
0
 62
7
  6
CONTINUOUS
 10
157.8813365093
 20
144.7311952475
  0
VERTEX
  8
0
 62
7
  6
CONTINUOUS
 10
157.8443066369
 20
144.7376253767
  0
VERTEX
  8
0
 62
7
  6
CONTINUOUS
 10
157.809908477
 20
144.7439426303
  0
VERTEX
  8
0
 62
7
  6
CONTINUOUS
 10
157.7781484933
 20
144.7501200053
  0
VERTEX
  8
0
 62
7
  6
CONTINUOUS
 10
157.7490573393
 20
144.7561220312
  0
VERTEX
  8
0
 62
7
  6
CONTINUOUS
 10
157.7226420332
 20
144.7619133297
  0
VERTEX
  8
0
 62
7
  6
CONTINUOUS
 10
157.6989487278
 20
144.7674441307
  0
VERTEX
  8
0
 62
7
  6
CONTINUOUS
 10
157.6779921341
 20
144.772664376
  0
VERTEX
  8
0
 62
7
  6
CONTINUOUS
 10
157.6598493046
 20
144.7774990055
  0
VERTEX
  8
0
 62
7
  6
CONTINUOUS
 10
157.6445477353
 20
144.7818732292
  0
VERTEX
  8
0
 62
7
  6
CONTINUOUS
 10
157.6322079221
 20
144.7856691156
  0
VERTEX
  8
0
 62
7
  6
CONTINUOUS
 10
157.6228746869
 20
144.7887689767
  0
VERTEX
  8
0
 62
7
  6
CONTINUOUS
 10
157.6167271221
 20
144.7909808395
  0
VERTEX
  8
0
 62
7
  6
CONTINUOUS
 10
157.6148618679
 20
144.7916975234
  0
SEQEND
  0
LINE
  8
0
 62
7
  6
CONTINUOUS
 10
154.0278609839
 20
148.1137758179
 11
150.1216840356
 21
148.2160626611
  0
POLYLINE
  8
0
 62
7
  6
CONTINUOUS
 66
1
 70
0
  0
VERTEX
  8
0
 62
7
  6
CONTINUOUS
 10
153.5499770626
 20
148.126286518
  0
VERTEX
  8
0
 62
7
  6
CONTINUOUS
 10
153.5783337672
 20
148.1248997515
  0
VERTEX
  8
0
 62
7
  6
CONTINUOUS
 10
153.6226243061
 20
148.1200167399
  0
VERTEX
  8
0
 62
7
  6
CONTINUOUS
 10
153.6655285546
 20
148.111865863
  0
VERTEX
  8
0
 62
7
  6
CONTINUOUS
 10
153.7066044444
 20
148.1005791282
  0
VERTEX
  8
0
 62
7
  6
CONTINUOUS
 10
153.7458298163
 20
148.086274056
  0
VERTEX
  8
0
 62
7
  6
CONTINUOUS
 10
153.7828710499
 20
148.0692224163
  0
VERTEX
  8
0
 62
7
  6
CONTINUOUS
 10
153.8174482306
 20
148.0497956109
  0
VERTEX
  8
0
 62
7
  6
CONTINUOUS
 10
153.8495663057
 20
148.0282681755
  0
VERTEX
  8
0
 62
7
  6
CONTINUOUS
 10
153.879086159
 20
148.0050135732
  0
VERTEX
  8
0
 62
7
  6
CONTINUOUS
 10
153.9059285827
 20
147.9804111111
  0
VERTEX
  8
0
 62
7
  6
CONTINUOUS
 10
153.929985723
 20
147.9549019467
  0
VERTEX
  8
0
 62
7
  6
CONTINUOUS
 10
153.9512546009
 20
147.928860937
  0
VERTEX
  8
0
 62
7
  6
CONTINUOUS
 10
153.9698563476
 20
147.9025259874
  0
VERTEX
  8
0
 62
7
  6
CONTINUOUS
 10
153.9855076392
 20
147.8767951183
  0
VERTEX
  8
0
 62
7
  6
CONTINUOUS
 10
153.9981209872
 20
147.8525738323
  0
VERTEX
  8
0
 62
7
  6
CONTINUOUS
 10
154.0079962009
 20
147.8302485823
  0
VERTEX
  8
0
 62
7
  6
CONTINUOUS
 10
154.015387304
 20
147.8103528279
  0
VERTEX
  8
0
 62
7
  6
CONTINUOUS
 10
154.0206812498
 20
147.7930933956
  0
SEQEND
  0
POLYLINE
  8
0
 62
7
  6
CONTINUOUS
 66
1
 70
0
  0
VERTEX
  8
0
 62
7
  6
CONTINUOUS
 10
151.243096156
 20
148.1866973504
  0
VERTEX
  8
0
 62
7
  6
CONTINUOUS
 10
151.3118585577
 20
148.1825230837
  0
VERTEX
  8
0
 62
7
  6
CONTINUOUS
 10
151.3806716033
 20
148.1735414957
  0
VERTEX
  8
0
 62
7
  6
CONTINUOUS
 10
151.4486961501
 20
148.1598089826
  0
VERTEX
  8
0
 62
7
  6
CONTINUOUS
 10
151.5156045808
 20
148.141391658
  0
VERTEX
  8
0
 62
7
  6
CONTINUOUS
 10
151.5810746502
 20
148.1183782016
  0
VERTEX
  8
0
 62
7
  6
CONTINUOUS
 10
151.6447910585
 20
148.0908794228
  0
VERTEX
  8
0
 62
7
  6
CONTINUOUS
 10
151.7064469455
 20
148.0590277324
  0
VERTEX
  8
0
 62
7
  6
CONTINUOUS
 10
151.765745365
 20
148.0229765089
  0
VERTEX
  8
0
 62
7
  6
CONTINUOUS
 10
151.8224007239
 20
147.9828993567
  0
VERTEX
  8
0
 62
7
  6
CONTINUOUS
 10
151.8761401569
 20
147.9389892695
  0
VERTEX
  8
0
 62
7
  6
CONTINUOUS
 10
151.9267048398
 20
147.8914577027
  0
VERTEX
  8
0
 62
7
  6
CONTINUOUS
 10
151.954196408
 20
147.8626303053
  0
SEQEND
  0
LINE
  8
0
 62
7
  6
CONTINUOUS
 10
153.5605691317
 20
153.7752069622
 11
164.5478609839
 21
153.7752069622
  0
LINE
  8
0
 62
7
  6
CONTINUOUS
 10
150.1478609839
 20
163.0752069622
 11
152.1478609839
 21
163.0752069622
  0
LINE
  8
0
 62
7
  6
CONTINUOUS
 10
165.0478609839
 20
163.9502069622
 11
168.0278939904
 21
163.9502069622
  0
POLYLINE
  8
SURFACE
 62
7
  6
CONTINUOUS
 66
1
 70
0
  0
VERTEX
  8
SURFACE
 62
7
  6
CONTINUOUS
 10
48.0998458904
 20
227.8790964094
  0
VERTEX
  8
SURFACE
 62
7
  6
CONTINUOUS
 10
48.104734902
 20
227.6890864417
  0
VERTEX
  8
SURFACE
 62
7
  6
CONTINUOUS
 10
48.1194851858
 20
227.4986865108
  0
VERTEX
  8
SURFACE
 62
7
  6
CONTINUOUS
 10
48.1442116083
 20
227.308321856
  0
VERTEX
  8
SURFACE
 62
7
  6
CONTINUOUS
 10
48.1789399859
 20
227.1188232217
  0
VERTEX
  8
SURFACE
 62
7
  6
CONTINUOUS
 10
48.2236320119
 20
226.9309227575
  0
VERTEX
  8
SURFACE
 62
7
  6
CONTINUOUS
 10
48.2781801327
 20
226.7453456166
  0
VERTEX
  8
SURFACE
 62
7
  6
CONTINUOUS
 10
48.3424032947
 20
226.5628179663
  0
VERTEX
  8
SURFACE
 62
7
  6
CONTINUOUS
 10
48.4160747044
 20
226.3839904808
  0
VERTEX
  8
SURFACE
 62
7
  6
CONTINUOUS
 10
48.4988593822
 20
226.2095945199
  0
VERTEX
  8
SURFACE
 62
7
  6
CONTINUOUS
 10
48.5905486858
 20
226.0399719367
  0
VERTEX
  8
SURFACE
 62
7
  6
CONTINUOUS
 10
48.6908555927
 20
225.875585679
  0
VERTEX
  8
SURFACE
 62
7
  6
CONTINUOUS
 10
48.7995777518
 20
225.7167292234
  0
VERTEX
  8
SURFACE
 62
7
  6
CONTINUOUS
 10
48.9165294601
 20
225.5636887831
  0
VERTEX
  8
SURFACE
 62
7
  6
CONTINUOUS
 10
49.0413694457
 20
225.4169415511
  0
VERTEX
  8
SURFACE
 62
7
  6
CONTINUOUS
 10
49.1738026655
 20
225.2768626043
  0
VERTEX
  8
SURFACE
 62
7
  6
CONTINUOUS
 10
49.3133739486
 20
225.1439495825
  0
VERTEX
  8
SURFACE
 62
7
  6
CONTINUOUS
 10
49.4595859312
 20
225.0186601367
  0
VERTEX
  8
SURFACE
 62
7
  6
CONTINUOUS
 10
49.612068764
 20
224.9012868485
  0
VERTEX
  8
SURFACE
 62
7
  6
CONTINUOUS
 10
49.7703512718
 20
224.7921697038
  0
VERTEX
  8
SURFACE
 62
7
  6
CONTINUOUS
 10
49.9341482336
 20
224.6914962748
  0
VERTEX
  8
SURFACE
 62
7
  6
CONTINUOUS
 10
50.1031707916
 20
224.5994688439
  0
VERTEX
  8
SURFACE
 62
7
  6
CONTINUOUS
 10
50.2769511744
 20
224.516379992
  0
VERTEX
  8
SURFACE
 62
7
  6
CONTINUOUS
 10
50.4551440024
 20
224.4424411905
  0
VERTEX
  8
SURFACE
 62
7
  6
CONTINUOUS
 10
50.6370160372
 20
224.3779895709
  0
VERTEX
  8
SURFACE
 62
7
  6
CONTINUOUS
 10
50.8219119585
 20
224.3232532325
  0
VERTEX
  8
SURFACE
 62
7
  6
CONTINUOUS
 10
51.0091097149
 20
224.2784112588
  0
VERTEX
  8
SURFACE
 62
7
  6
CONTINUOUS
 10
51.1978849608
 20
224.2435697468
  0
VERTEX
  8
SURFACE
 62
7
  6
CONTINUOUS
 10
51.3875123981
 20
224.2187645407
  0
VERTEX
  8
SURFACE
 62
7
  6
CONTINUOUS
 10
51.5771685051
 20
224.2039679112
  0
VERTEX
  8
SURFACE
 62
7
  6
CONTINUOUS
 10
51.7664003311
 20
224.1990636042
  0
SEQEND
  0
LINE
  8
SURFACE
 62
7
  6
CONTINUOUS
 10
48.621116591
 20
227.9090636042
 11
48.621116591
 21
227.8790636042
  0
LINE
  8
DEFAULT_1
 62
7
  6
CENTER
 10
52.316116591
 20
232.2940636042
 11
52.316116591
 21
229.8941636042
  0
LINE
  8
0
 62
2
  6
CONTINUOUS
 10
52.316116591
 20
228.7740636042
 11
52.316116591
 21
227.0140636042
  0
LINE
  8
DEFAULT_1
 62
7
  6
CENTER
 10
52.316116591
 20
223.4940636042
 11
52.316116591
 21
225.8939636042
  0
LINE
  8
SURFACE
 62
7
  6
CONTINUOUS
 10
57.4349921026
 20
234.5806053986
 11
57.3690570308
 21
234.5332304986
  0
LINE
  8
SURFACE
 62
7
  6
CONTINUOUS
 10
57.5337701585
 20
234.6509648801
 11
57.4349921026
 21
234.5806053986
  0
LINE
  8
SURFACE
 62
7
  6
CONTINUOUS
 10
57.6286534804
 20
234.7178683853
 11
57.5337701585
 21
234.6509648801
  0
POLYLINE
  8
SURFACE
 62
7
  6
CONTINUOUS
 66
1
 70
0
  0
VERTEX
  8
SURFACE
 62
7
  6
CONTINUOUS
 10
57.8671543798
 20
234.883232086
  0
VERTEX
  8
SURFACE
 62
7
  6
CONTINUOUS
 10
57.8615972103
 20
234.8793392511
  0
VERTEX
  8
SURFACE
 62
7
  6
CONTINUOUS
 10
57.8526202574
 20
234.8732663744
  0
VERTEX
  8
SURFACE
 62
7
  6
CONTINUOUS
 10
57.8404794793
 20
234.864931248
  0
VERTEX
  8
SURFACE
 62
7
  6
CONTINUOUS
 10
57.7409913052
 20
234.7962480934
  0
SEQEND
  0
LINE
  8
SURFACE
 62
7
  6
CONTINUOUS
 10
57.7409913052
 20
234.7962480934
 11
57.6286534804
 21
234.7178683853
  0
LINE
  8
0
 62
7
  6
CONTINUOUS
 10
56.011116591
 20
227.9090636042
 11
56.011116591
 21
227.8790636042
  0
LINE
  8
SURFACE
 62
7
  6
CONTINUOUS
 10
69.3161165893
 20
215.5140636042
 11
91.3514240271
 21
215.5140636042
  0
LINE
  8
SURFACE
 62
7
  6
CONTINUOUS
 10
87.0212755752
 20
219.5140636042
 11
72.7548202136
 21
219.5140636042
  0
LINE
  8
SURFACE
 62
7
  6
CONTINUOUS
 10
68.316116591
 20
219.3940643257
 11
68.316116591
 21
216.5140638356
  0
LINE
  8
0
 62
7
  6
CONTINUOUS
 10
53.1596060891
 20
220.3940636042
 11
57.7305998784
 21
220.3940636042
  0
LINE
  8
SURFACE
 62
7
  6
CONTINUOUS
 10
52.3161166716
 20
220.3940636042
 11
67.3161167628
 21
220.3940636042
  0
LINE
  8
DEFAULT_1
 62
7
  6
CENTER
 10
71.366116591
 20
209.5140636042
 11
71.366116591
 21
238.3940636042
  0
POLYLINE
  8
SURFACE
 62
7
  6
CONTINUOUS
 66
1
 70
0
  0
VERTEX
  8
SURFACE
 62
7
  6
CONTINUOUS
 10
62.2319390971
 20
233.0391078561
  0
VERTEX
  8
SURFACE
 62
7
  6
CONTINUOUS
 10
62.4256679471
 20
232.8263907922
  0
VERTEX
  8
SURFACE
 62
7
  6
CONTINUOUS
 10
62.6108273789
 20
232.6067683693
  0
VERTEX
  8
SURFACE
 62
7
  6
CONTINUOUS
 10
62.7875766574
 20
232.3800163052
  0
VERTEX
  8
SURFACE
 62
7
  6
CONTINUOUS
 10
62.955437988
 20
232.1468074467
  0
VERTEX
  8
SURFACE
 62
7
  6
CONTINUOUS
 10
63.1139335758
 20
231.9078146404
  0
VERTEX
  8
SURFACE
 62
7
  6
CONTINUOUS
 10
63.2632226859
 20
231.6628136042
  0
SEQEND
  0
POLYLINE
  8
0
 62
7
  6
CONTINUOUS
 66
1
 70
0
  0
VERTEX
  8
0
 62
7
  6
CONTINUOUS
 10
52.3140962427
 20
224.1990636042
  0
VERTEX
  8
0
 62
7
  6
CONTINUOUS
 10
52.5039363339
 20
224.2039183435
  0
VERTEX
  8
0
 62
7
  6
CONTINUOUS
 10
52.6936112888
 20
224.2185047038
  0
VERTEX
  8
0
 62
7
  6
CONTINUOUS
 10
52.8825879362
 20
224.2428311995
  0
VERTEX
  8
0
 62
7
  6
CONTINUOUS
 10
53.0704563653
 20
224.2769010966
  0
VERTEX
  8
0
 62
7
  6
CONTINUOUS
 10
53.2567436462
 20
224.3206961656
  0
VERTEX
  8
0
 62
7
  6
CONTINUOUS
 10
53.4410781032
 20
224.3742127609
  0
VERTEX
  8
0
 62
7
  6
CONTINUOUS
 10
53.623104063
 20
224.4374594036
  0
VERTEX
  8
0
 62
7
  6
CONTINUOUS
 10
53.8022460297
 20
224.5103614302
  0
VERTEX
  8
0
 62
7
  6
CONTINUOUS
 10
53.9780883413
 20
224.5928855873
  0
VERTEX
  8
0
 62
7
  6
CONTINUOUS
 10
54.1497805063
 20
224.6847531839
  0
VERTEX
  8
0
 62
7
  6
CONTINUOUS
 10
54.316627549
 20
224.7856663703
  0
VERTEX
  8
0
 62
7
  6
CONTINUOUS
 10
54.477906615
 20
224.8952177422
  0
VERTEX
  8
0
 62
7
  6
CONTINUOUS
 10
54.6329100101
 20
225.0128995454
  0
VERTEX
  8
0
 62
7
  6
CONTINUOUS
 10
54.7811698923
 20
225.1382862977
  0
VERTEX
  8
0
 62
7
  6
CONTINUOUS
 10
54.9219833691
 20
225.2706535297
  0
VERTEX
  8
0
 62
7
  6
CONTINUOUS
 10
55.0556009398
 20
225.410137594
  0
VERTEX
  8
0
 62
7
  6
CONTINUOUS
 10
55.1821691506
 20
225.5569690862
  0
VERTEX
  8
0
 62
7
  6
CONTINUOUS
 10
55.3009875845
 20
225.7104610965
  0
VERTEX
  8
0
 62
7
  6
CONTINUOUS
 10
55.411655085
 20
225.870165879
  0
VERTEX
  8
0
 62
7
  6
CONTINUOUS
 10
55.5136600947
 20
226.035362344
  0
VERTEX
  8
0
 62
7
  6
CONTINUOUS
 10
55.6065463161
 20
226.2052193394
  0
VERTEX
  8
0
 62
7
  6
CONTINUOUS
 10
55.6901821729
 20
226.3793469405
  0
VERTEX
  8
0
 62
7
  6
CONTINUOUS
 10
55.7643096233
 20
226.557025851
  0
VERTEX
  8
0
 62
7
  6
CONTINUOUS
 10
55.8290228667
 20
226.7383681013
  0
VERTEX
  8
0
 62
7
  6
CONTINUOUS
 10
55.8843363892
 20
226.9236164252
  0
VERTEX
  8
0
 62
7
  6
CONTINUOUS
 10
55.9298672001
 20
227.1117946522
  0
VERTEX
  8
0
 62
7
  6
CONTINUOUS
 10
55.9654164305
 20
227.3022332017
  0
VERTEX
  8
0
 62
7
  6
CONTINUOUS
 10
55.9908343969
 20
227.4941192982
  0
VERTEX
  8
0
 62
7
  6
CONTINUOUS
 10
56.0060534125
 20
227.686531644
  0
VERTEX
  8
0
 62
7
  6
CONTINUOUS
 10
56.011116591
 20
227.8790636042
  0
SEQEND
  0
LINE
  8
DEFAULT_1
 62
7
  6
CENTER
 10
94.816116591
 20
227.8940636042
 11
92.416216591
 21
227.8940636042
  0
LINE
  8
0
 62
2
  6
CONTINUOUS
 10
91.296116591
 20
227.8940636042
 11
89.536116591
 21
227.8940636042
  0
LINE
  8
DEFAULT_1
 62
7
  6
CENTER
 10
56.716116591
 20
227.8940636042
 11
54.316216591
 21
227.8940636042
  0
LINE
  8
0
 62
2
  6
CONTINUOUS
 10
53.196116591
 20
227.8940636042
 11
51.436116591
 21
227.8940636042
  0
LINE
  8
DEFAULT_1
 62
7
  6
CENTER
 10
47.916116591
 20
227.8940636042
 11
50.316016591
 21
227.8940636042
  0
LINE
  8
DEFAULT_1
 62
7
  6
CENTER
 10
86.016116591
 20
227.8940636042
 11
88.416016591
 21
227.8940636042
  0
POLYLINE
  8
SURFACE
 62
7
  6
CONTINUOUS
 66
1
 70
0
  0
VERTEX
  8
SURFACE
 62
7
  6
CONTINUOUS
 10
51.7664003307
 20
231.5890636042
  0
VERTEX
  8
SURFACE
 62
7
  6
CONTINUOUS
 10
51.5771683762
 20
231.5841592906
  0
VERTEX
  8
SURFACE
 62
7
  6
CONTINUOUS
 10
51.3875122408
 20
231.5693626514
  0
VERTEX
  8
SURFACE
 62
7
  6
CONTINUOUS
 10
51.1978848006
 20
231.5445574364
  0
VERTEX
  8
SURFACE
 62
7
  6
CONTINUOUS
 10
51.0091095621
 20
231.5097159173
  0
VERTEX
  8
SURFACE
 62
7
  6
CONTINUOUS
 10
50.8219118088
 20
231.464873936
  0
VERTEX
  8
SURFACE
 62
7
  6
CONTINUOUS
 10
50.6370158911
 20
231.4101375901
  0
VERTEX
  8
SURFACE
 62
7
  6
CONTINUOUS
 10
50.4551438605
 20
231.3456859635
  0
VERTEX
  8
SURFACE
 62
7
  6
CONTINUOUS
 10
50.2769510371
 20
231.2717471553
  0
VERTEX
  8
SURFACE
 62
7
  6
CONTINUOUS
 10
50.1031706592
 20
231.188658297
  0
VERTEX
  8
SURFACE
 62
7
  6
CONTINUOUS
 10
49.9341481065
 20
231.0966308601
  0
VERTEX
  8
SURFACE
 62
7
  6
CONTINUOUS
 10
49.77035115
 20
230.9959574254
  0
VERTEX
  8
SURFACE
 62
7
  6
CONTINUOUS
 10
49.6120686478
 20
230.8868402753
  0
VERTEX
  8
SURFACE
 62
7
  6
CONTINUOUS
 10
49.4595858208
 20
230.769466982
  0
VERTEX
  8
SURFACE
 62
7
  6
CONTINUOUS
 10
49.3133738442
 20
230.6441775316
  0
VERTEX
  8
SURFACE
 62
7
  6
CONTINUOUS
 10
49.1738025672
 20
230.5112645055
  0
VERTEX
  8
SURFACE
 62
7
  6
CONTINUOUS
 10
49.0413693538
 20
230.3711855548
  0
VERTEX
  8
SURFACE
 62
7
  6
CONTINUOUS
 10
48.9165293746
 20
230.2244383195
  0
VERTEX
  8
SURFACE
 62
7
  6
CONTINUOUS
 10
48.7995776729
 20
230.0713978761
  0
VERTEX
  8
SURFACE
 62
7
  6
CONTINUOUS
 10
48.6908555206
 20
229.9125414179
  0
VERTEX
  8
SURFACE
 62
7
  6
CONTINUOUS
 10
48.5905486203
 20
229.7481551579
  0
VERTEX
  8
SURFACE
 62
7
  6
CONTINUOUS
 10
48.4988593234
 20
229.5785325726
  0
VERTEX
  8
SURFACE
 62
7
  6
CONTINUOUS
 10
48.4160746524
 20
229.4041366101
  0
VERTEX
  8
SURFACE
 62
7
  6
CONTINUOUS
 10
48.3424032494
 20
229.2253091234
  0
VERTEX
  8
SURFACE
 62
7
  6
CONTINUOUS
 10
48.2781800942
 20
229.0427814724
  0
VERTEX
  8
SURFACE
 62
7
  6
CONTINUOUS
 10
48.2236319801
 20
228.8572043313
  0
VERTEX
  8
SURFACE
 62
7
  6
CONTINUOUS
 10
48.1789399608
 20
228.6693038673
  0
VERTEX
  8
SURFACE
 62
7
  6
CONTINUOUS
 10
48.1442115892
 20
228.4798052303
  0
VERTEX
  8
SURFACE
 62
7
  6
CONTINUOUS
 10
48.1194851736
 20
228.2894405803
  0
VERTEX
  8
SURFACE
 62
7
  6
CONTINUOUS
 10
48.1047348971
 20
228.0990406723
  0
VERTEX
  8
SURFACE
 62
7
  6
CONTINUOUS
 10
48.0998458904
 20
227.9090307422
  0
SEQEND
  0
LINE
  8
SURFACE
 62
7
  6
CONTINUOUS
 10
62.1458790805
 20
231.4140636042
 11
89.270690906
 21
231.4140636042
  0
LINE
  8
SURFACE
 62
7
  6
CONTINUOUS
 10
90.8124872244
 20
231.4140636042
 11
95.636116591
 21
231.4140636042
  0
POLYLINE
  8
0
 62
7
  6
CONTINUOUS
 66
1
 70
0
  0
VERTEX
  8
0
 62
7
  6
CONTINUOUS
 10
52.3140962427
 20
231.5890636042
  0
VERTEX
  8
0
 62
7
  6
CONTINUOUS
 10
52.5039363341
 20
231.5842088649
  0
VERTEX
  8
0
 62
7
  6
CONTINUOUS
 10
52.6936112893
 20
231.5696225046
  0
VERTEX
  8
0
 62
7
  6
CONTINUOUS
 10
52.8825879368
 20
231.5452960089
  0
VERTEX
  8
0
 62
7
  6
CONTINUOUS
 10
53.070456366
 20
231.5112261117
  0
VERTEX
  8
0
 62
7
  6
CONTINUOUS
 10
53.2567436471
 20
231.4674310426
  0
VERTEX
  8
0
 62
7
  6
CONTINUOUS
 10
53.4410781042
 20
231.4139144473
  0
VERTEX
  8
0
 62
7
  6
CONTINUOUS
 10
53.6231040642
 20
231.3506678044
  0
VERTEX
  8
0
 62
7
  6
CONTINUOUS
 10
53.8022460312
 20
231.2777657776
  0
VERTEX
  8
0
 62
7
  6
CONTINUOUS
 10
53.9780883428
 20
231.1952416204
  0
VERTEX
  8
0
 62
7
  6
CONTINUOUS
 10
54.1497805079
 20
231.1033740237
  0
VERTEX
  8
0
 62
7
  6
CONTINUOUS
 10
54.3166275505
 20
231.0024608372
  0
VERTEX
  8
0
 62
7
  6
CONTINUOUS
 10
54.4779066164
 20
230.8929094653
  0
VERTEX
  8
0
 62
7
  6
CONTINUOUS
 10
54.6329100113
 20
230.7752276621
  0
VERTEX
  8
0
 62
7
  6
CONTINUOUS
 10
54.7811698933
 20
230.6498409099
  0
VERTEX
  8
0
 62
7
  6
CONTINUOUS
 10
54.9219833699
 20
230.5174736779
  0
VERTEX
  8
0
 62
7
  6
CONTINUOUS
 10
55.0556009406
 20
230.3779896136
  0
VERTEX
  8
0
 62
7
  6
CONTINUOUS
 10
55.1821691513
 20
230.2311581214
  0
VERTEX
  8
0
 62
7
  6
CONTINUOUS
 10
55.3009875852
 20
230.077666111
  0
VERTEX
  8
0
 62
7
  6
CONTINUOUS
 10
55.4116550857
 20
229.9179613284
  0
VERTEX
  8
0
 62
7
  6
CONTINUOUS
 10
55.5136600953
 20
229.7527648635
  0
VERTEX
  8
0
 62
7
  6
CONTINUOUS
 10
55.6065463165
 20
229.5829078684
  0
VERTEX
  8
0
 62
7
  6
CONTINUOUS
 10
55.6901821731
 20
229.4087802674
  0
VERTEX
  8
0
 62
7
  6
CONTINUOUS
 10
55.7643096235
 20
229.2311013569
  0
VERTEX
  8
0
 62
7
  6
CONTINUOUS
 10
55.8290228669
 20
229.0497591067
  0
VERTEX
  8
0
 62
7
  6
CONTINUOUS
 10
55.8843363893
 20
228.8645107827
  0
VERTEX
  8
0
 62
7
  6
CONTINUOUS
 10
55.9298672002
 20
228.6763325556
  0
VERTEX
  8
0
 62
7
  6
CONTINUOUS
 10
55.9654164306
 20
228.4858940062
  0
VERTEX
  8
0
 62
7
  6
CONTINUOUS
 10
55.990834397
 20
228.2940079098
  0
VERTEX
  8
0
 62
7
  6
CONTINUOUS
 10
56.0060534125
 20
228.1015955642
  0
VERTEX
  8
0
 62
7
  6
CONTINUOUS
 10
56.011116591
 20
227.9090636042
  0
SEQEND
  0
POLYLINE
  8
SURFACE
 62
7
  6
CONTINUOUS
 66
1
 70
0
  0
VERTEX
  8
SURFACE
 62
7
  6
CONTINUOUS
 10
63.6971625625
 20
231.4140636042
  0
VERTEX
  8
SURFACE
 62
7
  6
CONTINUOUS
 10
63.653314711
 20
231.4159868588
  0
VERTEX
  8
SURFACE
 62
7
  6
CONTINUOUS
 10
63.610131675
 20
231.4216378124
  0
VERTEX
  8
SURFACE
 62
7
  6
CONTINUOUS
 10
63.5674528362
 20
231.4310604186
  0
VERTEX
  8
SURFACE
 62
7
  6
CONTINUOUS
 10
63.5257600494
 20
231.4441228168
  0
VERTEX
  8
SURFACE
 62
7
  6
CONTINUOUS
 10
63.4853854066
 20
231.4607644563
  0
VERTEX
  8
SURFACE
 62
7
  6
CONTINUOUS
 10
63.4466175773
 20
231.4808153611
  0
VERTEX
  8
SURFACE
 62
7
  6
CONTINUOUS
 10
63.4097716134
 20
231.5041575425
  0
VERTEX
  8
SURFACE
 62
7
  6
CONTINUOUS
 10
63.3751004604
 20
231.5305744875
  0
VERTEX
  8
SURFACE
 62
7
  6
CONTINUOUS
 10
63.3428920097
 20
231.5598954803
  0
VERTEX
  8
SURFACE
 62
7
  6
CONTINUOUS
 10
63.313356475
 20
231.5918651403
  0
VERTEX
  8
SURFACE
 62
7
  6
CONTINUOUS
 10
63.2868383059
 20
231.6261321459
  0
VERTEX
  8
SURFACE
 62
7
  6
CONTINUOUS
 10
63.2632226859
 20
231.6628136042
  0
SEQEND
  0
LINE
  8
SURFACE
 62
7
  6
CONTINUOUS
 10
57.8695849815
 20
234.8840635962
 11
59.2433550028
 21
234.8840636042
  0
POLYLINE
  8
SURFACE
 62
7
  6
CONTINUOUS
 66
1
 70
0
  0
VERTEX
  8
SURFACE
 62
7
  6
CONTINUOUS
 10
59.2433550028
 20
234.8840636042
  0
VERTEX
  8
SURFACE
 62
7
  6
CONTINUOUS
 10
59.2636311325
 20
234.882082961
  0
VERTEX
  8
SURFACE
 62
7
  6
CONTINUOUS
 10
59.2937984391
 20
234.8761675381
  0
VERTEX
  8
SURFACE
 62
7
  6
CONTINUOUS
 10
59.3339328924
 20
234.8662248331
  0
VERTEX
  8
SURFACE
 62
7
  6
CONTINUOUS
 10
59.3836869457
 20
234.8522283609
  0
VERTEX
  8
SURFACE
 62
7
  6
CONTINUOUS
 10
59.4427830237
 20
234.834086412
  0
VERTEX
  8
SURFACE
 62
7
  6
CONTINUOUS
 10
59.5109859935
 20
234.811666819
  0
VERTEX
  8
SURFACE
 62
7
  6
CONTINUOUS
 10
59.5881035419
 20
234.7847748059
  0
VERTEX
  8
SURFACE
 62
7
  6
CONTINUOUS
 10
59.6736240992
 20
234.7532988956
  0
VERTEX
  8
SURFACE
 62
7
  6
CONTINUOUS
 10
59.7670004232
 20
234.7171124542
  0
VERTEX
  8
SURFACE
 62
7
  6
CONTINUOUS
 10
59.8680497594
 20
234.675926333
  0
VERTEX
  8
SURFACE
 62
7
  6
CONTINUOUS
 10
59.976595295
 20
234.629407484
  0
VERTEX
  8
SURFACE
 62
7
  6
CONTINUOUS
 10
60.091949157
 20
234.5774183531
  0
VERTEX
  8
SURFACE
 62
7
  6
CONTINUOUS
 10
60.2133254038
 20
234.5198653971
  0
VERTEX
  8
SURFACE
 62
7
  6
CONTINUOUS
 10
60.3407492883
 20
234.45625822
  0
VERTEX
  8
SURFACE
 62
7
  6
CONTINUOUS
 10
60.4740942376
 20
234.3861321959
  0
VERTEX
  8
SURFACE
 62
7
  6
CONTINUOUS
 10
60.6128523828
 20
234.309180476
  0
VERTEX
  8
SURFACE
 62
7
  6
CONTINUOUS
 10
60.7563612525
 20
234.2251791838
  0
VERTEX
  8
SURFACE
 62
7
  6
CONTINUOUS
 10
60.9047962704
 20
234.1333725157
  0
VERTEX
  8
SURFACE
 62
7
  6
CONTINUOUS
 10
61.0581180716
 20
234.0330514
  0
VERTEX
  8
SURFACE
 62
7
  6
CONTINUOUS
 10
61.2159773368
 20
233.9236166855
  0
VERTEX
  8
SURFACE
 62
7
  6
CONTINUOUS
 10
61.3781578908
 20
233.8043078168
  0
VERTEX
  8
SURFACE
 62
7
  6
CONTINUOUS
 10
61.5438569752
 20
233.6747351417
  0
VERTEX
  8
SURFACE
 62
7
  6
CONTINUOUS
 10
61.7120031683
 20
233.5347272397
  0
VERTEX
  8
SURFACE
 62
7
  6
CONTINUOUS
 10
61.8828941655
 20
233.3829053624
  0
VERTEX
  8
SURFACE
 62
7
  6
CONTINUOUS
 10
62.0566149502
 20
233.2178094047
  0
VERTEX
  8
SURFACE
 62
7
  6
CONTINUOUS
 10
62.2319390971
 20
233.0391078561
  0
SEQEND
  0
POLYLINE
  8
SURFACE
 62
7
  6
CONTINUOUS
 66
1
 70
0
  0
VERTEX
  8
SURFACE
 62
7
  6
CONTINUOUS
 10
57.8695849815
 20
234.8840635962
  0
VERTEX
  8
SURFACE
 62
7
  6
CONTINUOUS
 10
57.8691791035
 20
234.8840403652
  0
VERTEX
  8
SURFACE
 62
7
  6
CONTINUOUS
 10
57.8687735165
 20
234.8839709728
  0
VERTEX
  8
SURFACE
 62
7
  6
CONTINUOUS
 10
57.8683682014
 20
234.8838554007
  0
VERTEX
  8
SURFACE
 62
7
  6
CONTINUOUS
 10
57.867963215
 20
234.8836937042
  0
VERTEX
  8
SURFACE
 62
7
  6
CONTINUOUS
 10
57.8675586141
 20
234.8834859388
  0
VERTEX
  8
SURFACE
 62
7
  6
CONTINUOUS
 10
57.8671543798
 20
234.883232086
  0
SEQEND
  0
LINE
  8
SURFACE
 62
7
  6
CONTINUOUS
 10
52.3161180127
 20
235.3940636042
 11
90.416116591
 21
235.3940636042
  0
LINE
  8
0
 62
7
  6
CONTINUOUS
 10
59.7414523519
 20
235.3940636042
 11
85.2235341875
 21
235.3940636042
  0
LINE
  8
DEFAULT_1
 62
7
  6
CENTER
 10
90.416116591
 20
232.2940636042
 11
90.416116591
 21
229.8941636042
  0
LINE
  8
0
 62
2
  6
CONTINUOUS
 10
90.416116591
 20
228.7740636042
 11
90.416116591
 21
227.0140636042
  0
LINE
  8
DEFAULT_1
 62
7
  6
CENTER
 10
90.416116591
 20
223.4940636042
 11
90.416116591
 21
225.8939636042
  0
LINE
  8
SURFACE
 62
7
  6
CONTINUOUS
 10
92.236116591
 20
225.5343681394
 11
92.236116591
 21
230.2537590691
  0
LINE
  8
SURFACE
 62
7
  6
CONTINUOUS
 10
96.9113071194
 20
224.1440636042
 11
92.2174494309
 21
216.0140636042
  0
LINE
  8
SURFACE
 62
7
  6
CONTINUOUS
 10
95.636116591
 20
232.837908262
 11
95.636116591
 21
231.4140636042
  0
POLYLINE
  8
SURFACE
 62
7
  6
CONTINUOUS
 66
1
 70
0
  0
VERTEX
  8
SURFACE
 62
7
  6
CONTINUOUS
 10
95.6411901773
 20
231.408990018
  0
VERTEX
  8
SURFACE
 62
7
  6
CONTINUOUS
 10
95.6373310303
 20
231.4128103521
  0
VERTEX
  8
SURFACE
 62
7
  6
CONTINUOUS
 10
95.636116591
 20
231.4140636042
  0
SEQEND
  0
POLYLINE
  8
SURFACE
 62
7
  6
CONTINUOUS
 66
1
 70
0
  0
VERTEX
  8
SURFACE
 62
7
  6
CONTINUOUS
 10
96.136116591
 20
230.9140636042
  0
VERTEX
  8
SURFACE
 62
7
  6
CONTINUOUS
 10
96.0822953647
 20
230.9676182622
  0
VERTEX
  8
SURFACE
 62
7
  6
CONTINUOUS
 10
95.6411901773
 20
231.408990018
  0
SEQEND
  0
ARC
  8
SURFACE
 62
7
  6
CONTINUOUS
 10
62.2319390971
 20
103.7002069622
 40
3.0
 50
184.9999984245
 51
269.9999980983
  0
ARC
  8
SURFACE
 62
7
  6
CONTINUOUS
 10
53.1379470625
 20
120.1252069622
 40
0.5
 50
265.0000211785
 51
270.0
  0
ARC
  8
SURFACE
 62
7
  6
CONTINUOUS
 10
57.3690570308
 20
119.1252069622
 40
0.5
 50
5.0
 51
90.0
  0
ARC
  8
SURFACE
 62
7
  6
CONTINUOUS
 10
47.6021477927
 20
120.6095266419
 40
0.5
 50
265.0
 51
276.1875041933
  0
ARC
  8
0
 62
7
  6
CONTINUOUS
 10
62.2319390971
 20
160.9502069622
 40
3.0
 50
90.0000019017
 51
175.0000015755
  0
ARC
  8
0
 62
7
  6
CONTINUOUS
 10
57.3690570308
 20
145.5252069622
 40
0.5
 50
270.0
 51
355.0
  0
ARC
  8
0
 62
7
  6
CONTINUOUS
 10
53.1379470625
 20
144.5252069622
 40
0.5
 50
90.0
 51
94.9999788215
  0
ARC
  8
SURFACE
 62
7
  6
CONTINUOUS
 10
92.636116591
 20
103.7002069622
 40
3.0
 50
270.0
 51
360.0
  0
ARC
  8
SURFACE
 62
7
  6
CONTINUOUS
 10
89.5637234595
 20
117.9252069622
 40
1.2
 50
85.0
 51
90.0011932129
  0
ARC
  8
SURFACE
 62
7
  6
CONTINUOUS
 10
96.916116591
 20
111.8752069622
 40
1.0
 50
269.9999999459
 51
360.0
  0
ARC
  8
SURFACE
 62
7
  6
CONTINUOUS
 10
96.9161165803
 20
117.4827198818
 40
0.9999999983
 50
0.0
 51
84.9859155072
  0
ARC
  8
SURFACE
 62
7
  6
CONTINUOUS
 10
96.136116591
 20
110.3752069622
 40
0.5
 50
90.0
 51
180.0000000716
  0
ARC
  8
SURFACE
 62
7
  6
CONTINUOUS
 10
86.2235341875
 20
119.6252069622
 40
0.5
 50
180.0
 51
270.0003078628
  0
ARC
  8
0
 62
7
  6
CONTINUOUS
 10
92.636116591
 20
160.9502069622
 40
3.0
 50
0.0
 51
90.0
  0
ARC
  8
0
 62
7
  6
CONTINUOUS
 10
89.5637234595
 20
146.7252069622
 40
1.2
 50
269.9988067871
 51
275.0
  0
ARC
  8
0
 62
7
  6
CONTINUOUS
 10
96.916116591
 20
152.7752069622
 40
1.0
 50
0.0
 51
90.0000000541
  0
ARC
  8
0
 62
7
  6
CONTINUOUS
 10
96.9161165803
 20
147.1676940425
 40
0.9999999983
 50
275.0125745201
 51
360.0
  0
ARC
  8
0
 62
7
  6
CONTINUOUS
 10
86.2235341875
 20
145.0252069622
 40
0.5
 50
89.9996921372
 51
180.0
  0
ARC
  8
0
 62
7
  6
CONTINUOUS
 10
96.136116591
 20
154.2752069622
 40
0.5
 50
179.9999999284
 51
270.0
  0
ARC
  8
SURFACE
 62
7
  6
CONTINUOUS
 10
152.1478609839
 20
102.5752069622
 40
1.0
 50
270.0
 51
360.0
  0
ARC
  8
SURFACE
 62
7
  6
CONTINUOUS
 10
150.1478609839
 20
115.4346939383
 40
1.0
 50
91.5
 51
180.0
  0
ARC
  8
SURFACE
 62
7
  6
CONTINUOUS
 10
150.1478609839
 20
102.5752069622
 40
1.0
 50
180.0
 51
270.0
  0
ARC
  8
SURFACE
 62
7
  6
CONTINUOUS
 10
157.3328609839
 20
120.1252069622
 40
0.5
 50
270.0
 51
333.262151484
  0
ARC
  8
SURFACE
 62
7
  6
CONTINUOUS
 10
153.6478609035
 20
110.3752069622
 40
0.4999999911
 50
95.6249913494
 51
180.0
  0
ARC
  8
0
 62
7
  6
CONTINUOUS
 10
152.1478609839
 20
162.0752069622
 40
1.0
 50
0.0
 51
90.0
  0
ARC
  8
0
 62
7
  6
CONTINUOUS
 10
150.1478609839
 20
149.2157199861
 40
1.0
 50
180.0
 51
268.5
  0
ARC
  8
0
 62
7
  6
CONTINUOUS
 10
150.1478609839
 20
162.0752069622
 40
1.0
 50
90.0
 51
180.0
  0
ARC
  8
0
 62
7
  6
CONTINUOUS
 10
153.6478609035
 20
154.2752069622
 40
0.4999999911
 50
180.0
 51
264.3750086506
  0
ARC
  8
0
 62
7
  6
CONTINUOUS
 10
157.332861402
 20
144.5252069622
 40
0.49999995
 50
26.736082231
 51
90.0000479107
  0
ARC
  8
SURFACE
 62
7
  6
CONTINUOUS
 10
168.0278939904
 20
101.7001739558
 40
0.9999669936
 50
270.0
 51
360.0
  0
ARC
  8
SURFACE
 62
7
  6
CONTINUOUS
 10
164.5478609839
 20
110.3752069622
 40
0.5
 50
0.0
 51
90.0
  0
ARC
  8
SURFACE
 62
7
  6
CONTINUOUS
 10
168.5278609839
 20
120.1252069622
 40
0.5
 50
270.0
 51
360.0
  0
ARC
  8
SURFACE
 62
7
  6
CONTINUOUS
 10
165.7228609839
 20
120.1252069622
 40
0.5
 50
206.7370120198
 51
270.0
  0
ARC
  8
0
 62
7
  6
CONTINUOUS
 10
168.0278939904
 20
162.9502399686
 40
0.9999669936
 50
0.0
 51
90.0
  0
ARC
  8
0
 62
7
  6
CONTINUOUS
 10
165.7228609839
 20
144.5252069622
 40
0.5
 50
90.0
 51
153.2607309184
  0
ARC
  8
0
 62
7
  6
CONTINUOUS
 10
164.5478609839
 20
154.2752069622
 40
0.5
 50
270.0
 51
355.0000119479
  0
ARC
  8
0
 62
7
  6
CONTINUOUS
 10
168.5278609839
 20
144.5252069622
 40
0.5
 50
0.0
 51
90.0
  0
ARC
  8
SURFACE
 62
7
  6
CONTINUOUS
 10
69.316116591
 20
216.5140636042
 40
1.0
 50
179.9999734906
 51
269.9999999039
  0
ARC
  8
SURFACE
 62
7
  6
CONTINUOUS
 10
67.316116591
 20
219.3940636042
 40
1.0
 50
0.0000413344
 51
89.9999901574
  0
ARC
  8
0
 62
7
  6
CONTINUOUS
 10
67.316116591
 20
219.3940636042
 40
1.0
 50
0.0
 51
85.584198076
  0
ARC
  8
SURFACE
 62
7
  6
CONTINUOUS
 10
52.316116591
 20
227.8940636042
 40
7.5
 50
89.9999891395
 51
270.0000006153
  0
ARC
  8
0
 62
7
  6
CONTINUOUS
 10
52.316116591
 20
227.8940636042
 40
7.5
 50
89.9999891395
 51
270.0000006153
  0
ARC
  8
SURFACE
 62
7
  6
CONTINUOUS
 10
52.301116591
 20
227.9090636042
 40
3.68
 50
90.0
 51
180.0
  0
ARC
  8
SURFACE
 62
7
  6
CONTINUOUS
 10
52.301116591
 20
227.8790636042
 40
3.68
 50
180.0
 51
270.0
  0
ARC
  8
SURFACE
 62
7
  6
CONTINUOUS
 10
91.3514240271
 20
216.5140636042
 40
1.0
 50
270.0
 51
330.0
  0
ARC
  8
0
 62
7
  6
CONTINUOUS
 10
89.746116591
 20
227.2076583115
 40
3.0
 50
322.7681382863
 51
326.0987380031
  0
ARC
  8
0
 62
7
  6
CONTINUOUS
 10
89.746116591
 20
227.2076583115
 40
3.0
 50
276.6864390383
 51
280.0259615382
  0
ARC
  8
SURFACE
 62
7
  6
CONTINUOUS
 10
89.746116591
 20
227.2076583115
 40
3.0
 50
276.6864390383
 51
326.0987380031
  0
ARC
  8
0
 62
7
  6
CONTINUOUS
 10
89.746116591
 20
228.580468897
 40
3.0
 50
33.9012619969
 51
72.2607469536
  0
ARC
  8
SURFACE
 62
7
  6
CONTINUOUS
 10
89.746116591
 20
228.580468897
 40
3.0
 50
33.9012619969
 51
83.3135609617
  0
ARC
  8
0
 62
7
  6
CONTINUOUS
 10
90.416116591
 20
227.8940636042
 40
7.5
 50
330.0
 51
330.8160111297
  0
ARC
  8
0
 62
7
  6
CONTINUOUS
 10
90.416116591
 20
227.8940636042
 40
7.5
 50
49.5163681073
 51
49.6604839948
  0
ARC
  8
0
 62
7
  6
CONTINUOUS
 10
90.416116591
 20
227.8940636042
 40
7.5
 50
70.2340382646
 51
89.2030771213
  0
ARC
  8
SURFACE
 62
7
  6
CONTINUOUS
 10
90.416116591
 20
227.8940636042
 40
7.5
 50
330.0
 51
90.0
  0
ARC
  8
0
 62
7
  6
CONTINUOUS
 10
90.416116591
 20
227.8940636042
 40
3.68
 50
261.8397285994
 51
265.0006272484
  0
ARC
  8
0
 62
7
  6
CONTINUOUS
 10
90.416116591
 20
227.8940636042
 40
3.68
 50
258.6971606353
 51
259.3163146153
  0
ARC
  8
0
 62
7
  6
CONTINUOUS
 10
90.416116591
 20
227.8940636042
 40
3.68
 50
106.2542752222
 51
256.6070286496
  0
ARC
  8
SURFACE
 62
7
  6
CONTINUOUS
 10
90.416116591
 20
227.8940636042
 40
3.68
 50
94.9993727516
 51
265.0006272484
  0
ARC
  8
SURFACE
 62
7
  6
CONTINUOUS
 10
89.270690906
 20
231.9140636042
 40
0.5
 50
270.0
 51
285.9039358527
  0
ARC
  8
SURFACE
 62
7
  6
CONTINUOUS
 10
90.8124872244
 20
231.9140636042
 40
0.5
 50
252.2612480055
 51
270.0
  0
ARC
  8
SURFACE
 62
7
  6
CONTINUOUS
 10
94.636116591
 20
232.837908262
 40
1.0
 50
0.0
 51
49.5163697517
  0
ENDSEC
  0
EOF
