  0
SECTION
  2
HEADER
  9
$EXTMAX
 10
210.0
 20
297.0
 30
0.0
  9
$EXTMIN
 10
0.0
 20
0.0
 30
0.0
  9
$LIMMIN
 10
0.0
 20
0.0
  9
$LIMMAX
 10
210.0
 20
297.0
  9
$VIEWCTR
 10
105.0
 20
148.5
  9
$VIEWSIZE
 40
297.0
  9
$CLAYER
  8
0
  9
$LTSCALE
 40
19.36
  9
$CELTYPE
  6
BYLAYER
  9
$DIMSCALE
 40
1.0
  9
$DIMASZ
 40
3.5
  9
$DIMEXO
 40
1.0
  9
$DIMDLI
 40
13.376
  9
$DIMEXE
 40
2.0
  9
$DIMCEN
 40
3.168
  9
$DIMLFAC
 40
1.0
  9
$DIMBLK
  1
_FILLED
  9
$DIMALT
 70
0
  9
$DIMALTF
 40
0.0393700787
  9
$DIMTXT
 40
3.5
  9
$AUNITS
 70
0
  9
$PDMODE
 70
3
  9
$PDSIZE
 40
0.3125
  9
$TILEMODE
 70
1
  0
ENDSEC
  0
SECTION
  2
TABLES
  0
TABLE
  2
LTYPE
 70
6
  0
LTYPE
  2
BYBLOCK
 70
0
  3

 72
65
 73
0
 40
0.0
  0
LTYPE
  2
BYLAYER
 70
0
  3

 72
65
 73
0
 40
0.0
  0
LTYPE
  2
CONTINUOUS
 70
64
  3
Solid line
 72
65
 73
0
 40
0.0
  0
LTYPE
  2
CENTER
 70
64
  3
____ _ ____ _ ____ _ ____ _ ____ _ ____ _ ____
 72
65
 73
4
 40
0.6
 49
0.375
 49
-0.075
 49
0.075
 49
-0.075
  0
LTYPE
  2
HIDDEN
 70
64
  3
- - - - - - - - - - - - - - - - - - - -
 72
65
 73
2
 40
0.2
 49
0.1
 49
-0.1
  0
LTYPE
  2
PHANTOM
 70
64
  3
_____ _ _ _____ _ _ _____ _ _ _____
 72
65
 73
6
 40
0.8
 49
0.45
 49
-0.05
 49
0.1
 49
-0.05
 49
0.1
 49
-0.05
  0
LTYPE
  2
DOT
 70
64
  3
. . . . . . . . . . . . . . . . . . . .
 72
65
 73
2
 40
0.2
 49
0.1
 49
-0.1
  0
LTYPE
  2
DASHED
 70
64
  3
- - - - - - - - - - - - - - - - - - - -
 72
65
 73
2
 40
0.2
 49
0.1
 49
-0.1
  0
ENDTAB
  0
TABLE
  2
LAYER
 70
36
  0
LAYER
  2
0
 70
0
 62
7
  6
CONTINUOUS
  0
LAYER
  2
DEFAULT_1
 70
0
 62
7
  6
CENTER
  0
LAYER
  2
DEFAULT_2
 70
0
 62
8
  6
HIDDEN
  0
LAYER
  2
DEFAULT_3
 70
0
 62
7
  6
PHANTOM
  0
LAYER
  2
1_AXIS
 70
0
 62
7
  6
CONTINUOUS
  0
LAYER
  2
1_CSYS
 70
0
 62
7
  6
CONTINUOUS
  0
LAYER
  2
1_DATUM_PLANE
 70
0
 62
7
  6
CONTINUOUS
  0
LAYER
  2
2_FEATURE
 70
0
 62
7
  6
CONTINUOUS
  0
LAYER
  2
6_DIM
 70
0
 62
7
  6
CONTINUOUS
  0
LAYER
  2
AXES
 70
0
 62
7
  6
CONTINUOUS
  0
LAYER
  2
CSYS
 70
0
 62
7
  6
CONTINUOUS
  0
LAYER
  2
PITCH
 70
0
 62
7
  6
CONTINUOUS
  0
LAYER
  2
PLANES
 70
0
 62
7
  6
CONTINUOUS
  0
LAYER
  2
QUILTS
 70
0
 62
7
  6
CONTINUOUS
  0
LAYER
  2
SQ
 70
0
 62
7
  6
CONTINUOUS
  0
ENDTAB
  0
TABLE
  2
STYLE
 70
1
  0
STYLE
  2
STANDARD
 70
0
 40
0.0
 41
0.8
 50
0.0
 71
0
 42
0.2
  3
txt
  4

  0
STYLE
  2
TEXTSTYLE_1
 70
0
 40
0.0
 41
0.8
 50
0.0
 71
0
 42
0.2
  3
gdt
  4

  0
STYLE
  2
TEXTSTYLE_2
 70
0
 40
0.0
 41
0.6
 50
0.0
 71
0
 42
0.2
  3
txt
  4

  0
STYLE
  2
TEXTSTYLE_3
 70
0
 40
0.0
 41
1.0
 50
0.0
 71
0
 42
0.2
  3
ftb_____.ttf
  4

  0
STYLE
  2
TEXTSTYLE_4
 70
0
 40
0.0
 41
1.0
 50
0.0
 71
0
 42
0.2
  3
fti_____.ttf
  4

  0
STYLE
  2
TEXTSTYLE_5
 70
0
 40
0.0
 41
1.0
 50
0.0
 71
0
 42
0.2
  3
frutiger light.ttf
  4

  0
STYLE
  2
TEXTSTYLE_6
 70
0
 40
0.0
 41
0.7
 50
0.0
 71
0
 42
0.2
  3
txt
  4

  0
STYLE
  2
TEXTSTYLE_7
 70
0
 40
0.0
 41
0.6
 50
0.0
 71
0
 42
0.2
  3
txt
  4

  0
ENDTAB
  0
ENDSEC
  0
SECTION
  2
BLOCKS
  0
BLOCK
  8
0
 62
2
  6
CONTINUOUS
  2
UNI_LOGO2_BL1
 70
64
 10
173.5956734183
 20
35.5937998301
  0
TEXT
  8
0
 62
7
  6
CONTINUOUS
 10
164.6539584268
 20
30.6865562072
  7
TEXTSTYLE_4
 40
1.0655737705
  1
The brand for plastic modular belts and chains
 41
1.0
 72
0
  0
LINE
  8
0
 62
7
  6
CONTINUOUS
 10
149.5737418074
 20
36.1675703219
 11
149.5737418074
 21
34.0364227809
  0
LINE
  8
0
 62
7
  6
CONTINUOUS
 10
149.8628043005
 20
31.0454914852
 11
149.8628043005
 21
31.1422825445
  0
LINE
  8
0
 62
7
  6
CONTINUOUS
 10
149.5737418074
 20
31.1100188581
 11
149.6315543091
 21
30.9164367395
  0
LINE
  8
0
 62
7
  6
CONTINUOUS
 10
150.9671844304
 20
33.9544555678
 11
150.9671844304
 21
36.1675703219
  0
LINE
  8
0
 62
7
  6
CONTINUOUS
 10
151.8862417523
 20
32.1101932727
 11
151.8862417523
 21
30.5937998301
  0
LINE
  8
0
 62
7
  6
CONTINUOUS
 10
152.1753043074
 20
30.5937998301
 11
152.1753043074
 21
31.3358647082
  0
LINE
  8
0
 62
7
  6
CONTINUOUS
 10
152.1753043074
 20
31.4649194539
 11
152.1753043074
 21
32.1101932727
  0
LINE
  8
0
 62
7
  6
CONTINUOUS
 10
149.6315543091
 20
31.3036010218
 11
149.5737418074
 21
31.1100188581
  0
LINE
  8
0
 62
7
  6
CONTINUOUS
 10
149.9784292936
 20
30.8841730531
 11
149.8628043005
 21
31.0454914852
  0
LINE
  8
0
 62
7
  6
CONTINUOUS
 10
151.0768668626
 20
31.400392081
 11
151.1346793074
 21
31.3036010218
  0
LINE
  8
0
 62
7
  6
CONTINUOUS
 10
151.4237418626
 20
31.3036010218
 11
151.3659292523
 21
31.4326557675
  0
LINE
  8
0
 62
7
  6
CONTINUOUS
 10
152.852430332
 20
36.1675703219
 11
152.852430332
 21
34.3642916334
  0
LINE
  8
0
 62
7
  6
CONTINUOUS
 10
152.852430332
 20
33.0528162235
 11
152.852430332
 21
32.3970785186
  0
LINE
  8
0
 62
7
  6
CONTINUOUS
 10
153.2159293074
 20
31.2390736489
 11
153.2159293074
 21
30.5937998301
  0
LINE
  8
0
 62
7
  6
CONTINUOUS
 10
153.5049916972
 20
30.5937998301
 11
153.5049916972
 21
31.2390736489
  0
LINE
  8
0
 62
7
  6
CONTINUOUS
 10
149.8628043005
 20
31.1422825445
 11
149.9206168074
 21
31.2713373354
  0
LINE
  8
0
 62
7
  6
CONTINUOUS
 10
149.6315543091
 20
30.9164367395
 11
149.7471793074
 21
30.7873819712
  0
LINE
  8
0
 62
7
  6
CONTINUOUS
 10
153.1581166972
 20
31.3681283946
 11
153.2159293074
 21
31.2390736489
  0
LINE
  8
0
 62
7
  6
CONTINUOUS
 10
153.9674919177
 20
30.8841730531
 11
154.0253041972
 21
30.7551182848
  0
LINE
  8
0
 62
7
  6
CONTINUOUS
 10
153.5049916972
 20
31.2390736489
 11
153.4471794177
 21
31.400392081
  0
LINE
  8
0
 62
7
  6
CONTINUOUS
 10
153.9674919177
 20
31.4326557675
 11
153.9674919177
 21
31.3681283946
  0
LINE
  8
0
 62
7
  6
CONTINUOUS
 10
153.9674919177
 20
30.9809641124
 11
153.9674919177
 21
30.8841730531
  0
LINE
  8
0
 62
7
  6
CONTINUOUS
 10
154.245872955
 20
32.3970785186
 11
154.245872955
 21
36.1675703219
  0
LINE
  8
0
 62
7
  6
CONTINUOUS
 10
154.2565543074
 20
30.8519093441
 11
154.2565543074
 21
30.9164367395
  0
LINE
  8
0
 62
7
  6
CONTINUOUS
 10
154.5737418074
 20
36.1675703219
 11
154.5737418074
 21
32.3970785186
  0
LINE
  8
0
 62
7
  6
CONTINUOUS
 10
151.3659292523
 20
30.7873819712
 11
151.4237418626
 21
30.9164367395
  0
LINE
  8
0
 62
7
  6
CONTINUOUS
 10
155.759679528
 20
30.6905909007
 11
155.7018665869
 21
30.8519093441
  0
LINE
  8
0
 62
7
  6
CONTINUOUS
 10
155.412804528
 20
31.3681283946
 11
155.412804528
 21
31.2713373354
  0
LINE
  8
0
 62
7
  6
CONTINUOUS
 10
155.412804528
 20
31.1422825445
 11
155.412804528
 21
30.9487004259
  0
LINE
  8
0
 62
7
  6
CONTINUOUS
 10
155.7018665869
 20
30.8519093441
 11
155.7018665869
 21
31.3681283946
  0
LINE
  8
0
 62
7
  6
CONTINUOUS
 10
155.9671844304
 20
32.3970785186
 11
155.9671844304
 21
34.2003572071
  0
LINE
  8
0
 62
7
  6
CONTINUOUS
 10
155.9671844304
 20
35.511832617
 11
155.9671844304
 21
36.1675703219
  0
LINE
  8
0
 62
7
  6
CONTINUOUS
 10
156.279992028
 20
32.1101932727
 11
156.279992028
 21
31.9488748406
  0
LINE
  8
0
 62
7
  6
CONTINUOUS
 10
156.279992028
 20
31.626237886
 11
156.279992028
 21
30.5937998301
  0
LINE
  8
0
 62
7
  6
CONTINUOUS
 10
156.5690540869
 20
30.5937998301
 11
156.5690540869
 21
31.626237886
  0
LINE
  8
0
 62
7
  6
CONTINUOUS
 10
156.5690540869
 20
31.9488748406
 11
156.5690540869
 21
32.1101932727
  0
LINE
  8
0
 62
7
  6
CONTINUOUS
 10
151.1346793074
 20
30.9164367395
 11
151.0768668626
 21
30.8196456577
  0
LINE
  8
0
 62
7
  6
CONTINUOUS
 10
153.4471794177
 20
31.400392081
 11
153.3893668074
 21
31.4649194539
  0
LINE
  8
0
 62
7
  6
CONTINUOUS
 10
154.3143669177
 20
30.7873819712
 11
154.2565543074
 21
30.8519093441
  0
LINE
  8
0
 62
7
  6
CONTINUOUS
 10
155.4706168074
 20
30.6583272086
 11
155.5284290869
 21
30.5937998301
  0
LINE
  8
0
 62
7
  6
CONTINUOUS
 10
155.412804528
 20
30.7551182848
 11
155.4706168074
 21
30.6583272086
  0
LINE
  8
0
 62
7
  6
CONTINUOUS
 10
155.8174918074
 20
30.5937998301
 11
155.759679528
 21
30.6905909007
  0
LINE
  8
0
 62
7
  6
CONTINUOUS
 10
155.7018665869
 20
31.3681283946
 11
155.6440543074
 21
31.4649194539
  0
LINE
  8
0
 62
7
  6
CONTINUOUS
 10
157.0315543074
 20
31.626237886
 11
157.0315543074
 21
30.5937998301
  0
LINE
  8
0
 62
7
  6
CONTINUOUS
 10
157.320617028
 20
30.5937998301
 11
157.320617028
 21
31.3358647082
  0
LINE
  8
0
 62
7
  6
CONTINUOUS
 10
157.320617028
 20
31.4649194539
 11
157.320617028
 21
31.626237886
  0
LINE
  8
0
 62
7
  6
CONTINUOUS
 10
157.852430332
 20
34.6101932727
 11
157.852430332
 21
32.3970785186
  0
LINE
  8
0
 62
7
  6
CONTINUOUS
 10
149.7471793074
 20
31.4326557675
 11
149.6315543091
 21
31.3036010218
  0
LINE
  8
0
 62
7
  6
CONTINUOUS
 10
149.9206168074
 20
31.2713373354
 11
149.9784292936
 21
31.3358647082
  0
LINE
  8
0
 62
7
  6
CONTINUOUS
 10
149.7471793074
 20
30.7873819712
 11
149.8628043005
 21
30.7228545871
  0
LINE
  8
0
 62
7
  6
CONTINUOUS
 10
150.1518667936
 20
30.7873819712
 11
149.9784292936
 21
30.8841730531
  0
LINE
  8
0
 62
7
  6
CONTINUOUS
 10
155.3549915869
 20
31.4326557675
 11
155.412804528
 21
31.3681283946
  0
LINE
  8
0
 62
7
  6
CONTINUOUS
 10
158.3034290869
 20
31.3681283946
 11
158.361242028
 21
31.2068099625
  0
LINE
  8
0
 62
7
  6
CONTINUOUS
 10
158.6503040869
 20
31.2068099625
 11
158.5924918074
 21
31.3681283946
  0
LINE
  8
0
 62
7
  6
CONTINUOUS
 10
158.361242028
 20
31.2068099625
 11
158.361242028
 21
30.5937998301
  0
LINE
  8
0
 62
7
  6
CONTINUOUS
 10
158.6503040869
 20
30.5937998301
 11
158.6503040869
 21
31.2068099625
  0
LINE
  8
0
 62
7
  6
CONTINUOUS
 10
159.1128043074
 20
31.4326557675
 11
159.1128043074
 21
31.3681283946
  0
LINE
  8
0
 62
7
  6
CONTINUOUS
 10
159.245872955
 20
32.3970785186
 11
159.245872955
 21
34.5282260596
  0
LINE
  8
0
 62
7
  6
CONTINUOUS
 10
159.5737418074
 20
36.1675703219
 11
159.5737418074
 21
32.3970785186
  0
LINE
  8
0
 62
7
  6
CONTINUOUS
 10
154.2565543074
 20
30.9164367395
 11
154.3143669177
 21
31.0132277988
  0
LINE
  8
0
 62
7
  6
CONTINUOUS
 10
149.8628043005
 20
30.7228545871
 11
150.0362418212
 21
30.6583272086
  0
LINE
  8
0
 62
7
  6
CONTINUOUS
 10
151.3659292523
 20
31.4326557675
 11
151.1924917523
 21
31.5294468267
  0
LINE
  8
0
 62
7
  6
CONTINUOUS
 10
154.0253041972
 20
30.7551182848
 11
154.1987416972
 21
30.6583272086
  0
LINE
  8
0
 62
7
  6
CONTINUOUS
 10
153.0424918074
 20
31.4326557675
 11
153.1581166972
 21
31.3681283946
  0
LINE
  8
0
 62
7
  6
CONTINUOUS
 10
153.3893668074
 20
31.4649194539
 11
153.2737419177
 21
31.5294468267
  0
LINE
  8
0
 62
7
  6
CONTINUOUS
 10
159.1128043074
 20
30.8519093441
 11
159.228429528
 21
30.7228545871
  0
LINE
  8
0
 62
7
  6
CONTINUOUS
 10
159.4596793074
 20
30.7873819712
 11
159.401867028
 21
30.8519093441
  0
LINE
  8
0
 62
7
  6
CONTINUOUS
 10
159.1128043074
 20
31.3681283946
 11
159.228429528
 21
31.2390736489
  0
LINE
  8
0
 62
7
  6
CONTINUOUS
 10
158.5924918074
 20
31.3681283946
 11
158.534679528
 21
31.4649194539
  0
LINE
  8
0
 62
7
  6
CONTINUOUS
 10
160.9628038663
 20
30.7873819712
 11
160.9628038663
 21
30.8519093441
  0
LINE
  8
0
 62
7
  6
CONTINUOUS
 10
160.9671844304
 20
32.3970785186
 11
160.9671844304
 21
36.1675703219
  0
LINE
  8
0
 62
7
  6
CONTINUOUS
 10
154.0253041972
 20
31.4971831403
 11
153.9674919177
 21
31.4326557675
  0
LINE
  8
0
 62
7
  6
CONTINUOUS
 10
150.9034292799
 20
31.4649194539
 11
151.0768668626
 21
31.400392081
  0
LINE
  8
0
 62
7
  6
CONTINUOUS
 10
155.6440543074
 20
31.4649194539
 11
155.5284290869
 21
31.5294468267
  0
LINE
  8
0
 62
7
  6
CONTINUOUS
 10
159.4596793074
 20
31.3036010218
 11
159.401867028
 21
31.3681283946
  0
LINE
  8
0
 62
7
  6
CONTINUOUS
 10
160.615929528
 20
30.9164367395
 11
160.6737418074
 21
30.8519093441
  0
LINE
  8
0
 62
7
  6
CONTINUOUS
 10
160.9628038663
 20
30.8519093441
 11
160.8471793074
 21
30.9809641124
  0
LINE
  8
0
 62
7
  6
CONTINUOUS
 10
160.615929528
 20
31.4326557675
 11
160.6737418074
 21
31.3681283946
  0
LINE
  8
0
 62
7
  6
CONTINUOUS
 10
160.9628038663
 20
31.3681283946
 11
160.8471793074
 21
31.4971831403
  0
LINE
  8
0
 62
7
  6
CONTINUOUS
 10
154.2565543074
 20
31.3681283946
 11
154.3143669177
 21
31.4326557675
  0
LINE
  8
0
 62
7
  6
CONTINUOUS
 10
154.0831168074
 20
31.1100188581
 11
153.9674919177
 21
30.9809641124
  0
LINE
  8
0
 62
7
  6
CONTINUOUS
 10
155.412804528
 20
30.9487004259
 11
155.3549915869
 21
30.8841730531
  0
LINE
  8
0
 62
7
  6
CONTINUOUS
 10
155.3549915869
 20
30.6905909007
 11
155.412804528
 21
30.7551182848
  0
LINE
  8
0
 62
7
  6
CONTINUOUS
 10
154.1987416972
 20
30.6583272086
 11
154.3143669177
 21
30.6260635193
  0
LINE
  8
0
 62
7
  6
CONTINUOUS
 10
151.1924917523
 20
31.5294468267
 11
150.9612418074
 21
31.5939741996
  0
LINE
  8
0
 62
7
  6
CONTINUOUS
 10
154.5456166972
 20
30.7228545871
 11
154.3143669177
 21
30.7873819712
  0
LINE
  8
0
 62
7
  6
CONTINUOUS
 10
153.2737419177
 20
31.5294468267
 11
153.1003044177
 21
31.5939741996
  0
LINE
  8
0
 62
7
  6
CONTINUOUS
 10
155.5284290869
 20
31.5294468267
 11
155.3549915869
 21
31.5939741996
  0
LINE
  8
0
 62
7
  6
CONTINUOUS
 10
158.187804528
 20
31.4326557675
 11
158.3034290869
 21
31.3681283946
  0
LINE
  8
0
 62
7
  6
CONTINUOUS
 10
158.534679528
 20
31.4649194539
 11
158.4190543074
 21
31.5294468267
  0
LINE
  8
0
 62
7
  6
CONTINUOUS
 10
150.0362418212
 20
30.6583272086
 11
150.2096793212
 21
30.6260635193
  0
LINE
  8
0
 62
7
  6
CONTINUOUS
 10
150.498741835
 20
30.7228545871
 11
150.1518667936
 21
30.7873819712
  0
LINE
  8
0
 62
7
  6
CONTINUOUS
 10
152.9268669177
 20
31.4649194539
 11
153.0424918074
 21
31.4326557675
  0
LINE
  8
0
 62
7
  6
CONTINUOUS
 10
155.239367028
 20
31.4649194539
 11
155.3549915869
 21
31.4326557675
  0
LINE
  8
0
 62
7
  6
CONTINUOUS
 10
159.575304528
 20
30.7551182848
 11
159.4596793074
 21
30.7873819712
  0
LINE
  8
0
 62
7
  6
CONTINUOUS
 10
158.0721793074
 20
31.4649194539
 11
158.187804528
 21
31.4326557675
  0
LINE
  8
0
 62
7
  6
CONTINUOUS
 10
159.228429528
 20
30.7228545871
 11
159.401867028
 21
30.6583272086
  0
LINE
  8
0
 62
7
  6
CONTINUOUS
 10
158.4190543074
 20
31.5294468267
 11
158.2456168074
 21
31.5939741996
  0
LINE
  8
0
 62
7
  6
CONTINUOUS
 10
159.6331168074
 20
31.2390736489
 11
159.4596793074
 21
31.3036010218
  0
LINE
  8
0
 62
7
  6
CONTINUOUS
 10
160.442492028
 20
30.9809641124
 11
160.615929528
 21
30.9164367395
  0
LINE
  8
0
 62
7
  6
CONTINUOUS
 10
160.8471793074
 20
31.4971831403
 11
160.6737418074
 21
31.5617105132
  0
LINE
  8
0
 62
7
  6
CONTINUOUS
 10
159.228429528
 20
31.2390736489
 11
159.4596793074
 21
31.1422825445
  0
LINE
  8
0
 62
7
  6
CONTINUOUS
 10
160.8471793074
 20
30.9809641124
 11
160.615929528
 21
31.0777551716
  0
LINE
  8
0
 62
7
  6
CONTINUOUS
 10
159.401867028
 20
31.3681283946
 11
159.4596793074
 21
31.4326557675
  0
LINE
  8
0
 62
7
  6
CONTINUOUS
 10
149.8628043005
 20
31.4971831403
 11
149.7471793074
 21
31.4326557675
  0
LINE
  8
0
 62
7
  6
CONTINUOUS
 10
149.9784292936
 20
31.3358647082
 11
150.1518667936
 21
31.4326557675
  0
LINE
  8
0
 62
7
  6
CONTINUOUS
 10
152.2909293626
 20
31.5294468267
 11
152.1753043074
 21
31.4649194539
  0
LINE
  8
0
 62
7
  6
CONTINUOUS
 10
152.1753043074
 20
31.3358647082
 11
152.2909293626
 21
31.400392081
  0
LINE
  8
0
 62
7
  6
CONTINUOUS
 10
151.1924917523
 20
30.6905909007
 11
151.3659292523
 21
30.7873819712
  0
LINE
  8
0
 62
7
  6
CONTINUOUS
 10
150.2096793212
 20
30.6260635193
 11
150.5565542799
 21
30.5937998301
  0
LINE
  8
0
 62
7
  6
CONTINUOUS
 10
154.3143669177
 20
30.6260635193
 11
154.5456166972
 21
30.5937998301
  0
LINE
  8
0
 62
7
  6
CONTINUOUS
 10
152.6956168074
 20
31.4971831403
 11
152.9268669177
 21
31.4649194539
  0
LINE
  8
0
 62
7
  6
CONTINUOUS
 10
155.0081169177
 20
31.4971831403
 11
155.239367028
 21
31.4649194539
  0
LINE
  8
0
 62
7
  6
CONTINUOUS
 10
159.4596793074
 20
31.1422825445
 11
160.442492028
 21
30.9809641124
  0
LINE
  8
0
 62
7
  6
CONTINUOUS
 10
160.615929528
 20
31.0777551716
 11
159.6331168074
 21
31.2390736489
  0
LINE
  8
0
 62
7
  6
CONTINUOUS
 10
153.1003044177
 20
31.5939741996
 11
152.9268669177
 21
31.626237886
  0
LINE
  8
0
 62
7
  6
CONTINUOUS
 10
159.401867028
 20
30.6583272086
 11
159.575304528
 21
30.6260635193
  0
LINE
  8
0
 62
7
  6
CONTINUOUS
 10
158.2456168074
 20
31.5939741996
 11
158.0721793074
 21
31.626237886
  0
LINE
  8
0
 62
7
  6
CONTINUOUS
 10
160.5003043074
 20
31.4649194539
 11
160.615929528
 21
31.4326557675
  0
LINE
  8
0
 62
7
  6
CONTINUOUS
 10
160.6737418074
 20
30.8519093441
 11
160.615929528
 21
30.7873819712
  0
LINE
  8
0
 62
7
  6
CONTINUOUS
 10
159.228429528
 20
31.5294468267
 11
159.1128043074
 21
31.4326557675
  0
LINE
  8
0
 62
7
  6
CONTINUOUS
 10
154.1409294177
 20
31.5617105132
 11
154.0253041972
 21
31.4971831403
  0
LINE
  8
0
 62
7
  6
CONTINUOUS
 10
154.1987416972
 20
31.1745462761
 11
154.0831168074
 21
31.1100188581
  0
LINE
  8
0
 62
7
  6
CONTINUOUS
 10
154.3143669177
 20
31.0132277988
 11
154.4299918074
 21
31.0777551716
  0
LINE
  8
0
 62
7
  6
CONTINUOUS
 10
151.8862417523
 20
30.5937998301
 11
152.1753043074
 21
30.5937998301
  0
LINE
  8
0
 62
7
  6
CONTINUOUS
 10
153.2159293074
 20
30.5937998301
 11
153.5049916972
 21
30.5937998301
  0
LINE
  8
0
 62
7
  6
CONTINUOUS
 10
154.5456166972
 20
30.5937998301
 11
154.8924916972
 21
30.5937998301
  0
LINE
  8
0
 62
7
  6
CONTINUOUS
 10
155.5284290869
 20
30.5937998301
 11
155.8174918074
 21
30.5937998301
  0
LINE
  8
0
 62
7
  6
CONTINUOUS
 10
156.279992028
 20
30.5937998301
 11
156.5690540869
 21
30.5937998301
  0
LINE
  8
0
 62
7
  6
CONTINUOUS
 10
157.0315543074
 20
30.5937998301
 11
157.320617028
 21
30.5937998301
  0
LINE
  8
0
 62
7
  6
CONTINUOUS
 10
158.361242028
 20
30.5937998301
 11
158.6503040869
 21
30.5937998301
  0
LINE
  8
0
 62
7
  6
CONTINUOUS
 10
159.922179528
 20
30.5937998301
 11
160.269054528
 21
30.5937998301
  0
LINE
  8
0
 62
7
  6
CONTINUOUS
 10
160.269054528
 20
30.7228545871
 11
159.922179528
 21
30.7228545871
  0
LINE
  8
0
 62
7
  6
CONTINUOUS
 10
154.8924916972
 20
30.7228545871
 11
154.5456166972
 21
30.7228545871
  0
LINE
  8
0
 62
7
  6
CONTINUOUS
 10
159.401867028
 20
30.8519093441
 11
159.1128043074
 21
30.8519093441
  0
LINE
  8
0
 62
7
  6
CONTINUOUS
 10
151.4237418626
 20
30.9164367395
 11
151.1346793074
 21
30.9164367395
  0
LINE
  8
0
 62
7
  6
CONTINUOUS
 10
150.498741835
 20
31.4971831403
 11
150.9034292799
 21
31.4649194539
  0
LINE
  8
0
 62
7
  6
CONTINUOUS
 10
150.9612418074
 20
31.5939741996
 11
150.5565542799
 21
31.626237886
  0
LINE
  8
0
 62
7
  6
CONTINUOUS
 10
159.575304528
 20
30.6260635193
 11
159.922179528
 21
30.5937998301
  0
LINE
  8
0
 62
7
  6
CONTINUOUS
 10
159.922179528
 20
30.7228545871
 11
159.575304528
 21
30.7551182848
  0
LINE
  8
0
 62
7
  6
CONTINUOUS
 10
155.3549915869
 20
31.5939741996
 11
155.0081169177
 21
31.626237886
  0
LINE
  8
0
 62
7
  6
CONTINUOUS
 10
160.1534293074
 20
31.4971831403
 11
160.5003043074
 21
31.4649194539
  0
LINE
  8
0
 62
7
  6
CONTINUOUS
 10
160.5003043074
 20
31.5939741996
 11
160.1534293074
 21
31.626237886
  0
LINE
  8
0
 62
7
  6
CONTINUOUS
 10
157.840929528
 20
31.4971831403
 11
158.0721793074
 21
31.4649194539
  0
LINE
  8
0
 62
7
  6
CONTINUOUS
 10
160.6737418074
 20
31.5617105132
 11
160.5003043074
 21
31.5939741996
  0
LINE
  8
0
 62
7
  6
CONTINUOUS
 10
160.8471793074
 20
30.6905909007
 11
160.9628038663
 21
30.7873819712
  0
LINE
  8
0
 62
7
  6
CONTINUOUS
 10
155.3549915869
 20
30.8841730531
 11
155.1815540869
 21
30.7873819712
  0
LINE
  8
0
 62
7
  6
CONTINUOUS
 10
157.4362415869
 20
31.5294468267
 11
157.320617028
 21
31.4649194539
  0
LINE
  8
0
 62
7
  6
CONTINUOUS
 10
157.320617028
 20
31.3358647082
 11
157.4362415869
 21
31.400392081
  0
LINE
  8
0
 62
7
  6
CONTINUOUS
 10
150.0362418212
 20
31.5617105132
 11
149.8628043005
 21
31.4971831403
  0
LINE
  8
0
 62
7
  6
CONTINUOUS
 10
152.4643666972
 20
31.5939741996
 11
152.2909293626
 21
31.5294468267
  0
LINE
  8
0
 62
7
  6
CONTINUOUS
 10
152.2909293626
 20
31.400392081
 11
152.4643666972
 21
31.4649194539
  0
LINE
  8
0
 62
7
  6
CONTINUOUS
 10
151.0768668626
 20
30.8196456577
 11
150.9034292799
 21
30.7551182848
  0
LINE
  8
0
 62
7
  6
CONTINUOUS
 10
160.5003043074
 20
30.7551182848
 11
160.269054528
 21
30.7228545871
  0
LINE
  8
0
 62
7
  6
CONTINUOUS
 10
154.8924916972
 20
30.5937998301
 11
155.1815540869
 21
30.6260635193
  0
LINE
  8
0
 62
7
  6
CONTINUOUS
 10
160.269054528
 20
30.5937998301
 11
160.615929528
 21
30.6260635193
  0
LINE
  8
0
 62
7
  6
CONTINUOUS
 10
150.5565542799
 20
30.5937998301
 11
150.9612418074
 21
30.6260635193
  0
LINE
  8
0
 62
7
  6
CONTINUOUS
 10
150.9034292799
 20
30.7551182848
 11
150.498741835
 21
30.7228545871
  0
LINE
  8
0
 62
7
  6
CONTINUOUS
 10
154.7768668074
 20
31.1422825445
 11
155.412804528
 21
31.1422825445
  0
LINE
  8
0
 62
7
  6
CONTINUOUS
 10
155.412804528
 20
31.2713373354
 11
154.7768668074
 21
31.2713373354
  0
LINE
  8
0
 62
7
  6
CONTINUOUS
 10
151.1346793074
 20
31.3036010218
 11
151.4237418626
 21
31.3036010218
  0
LINE
  8
0
 62
7
  6
CONTINUOUS
 10
153.9674919177
 20
31.3681283946
 11
154.2565543074
 21
31.3681283946
  0
LINE
  8
0
 62
7
  6
CONTINUOUS
 10
160.6737418074
 20
31.3681283946
 11
160.9628038663
 21
31.3681283946
  0
LINE
  8
0
 62
7
  6
CONTINUOUS
 10
154.6612419177
 20
31.4971831403
 11
155.0081169177
 21
31.4971831403
  0
LINE
  8
0
 62
7
  6
CONTINUOUS
 10
159.8065543074
 20
31.4971831403
 11
160.1534293074
 21
31.4971831403
  0
LINE
  8
0
 62
7
  6
CONTINUOUS
 10
160.1534293074
 20
31.626237886
 11
159.8065543074
 21
31.626237886
  0
LINE
  8
0
 62
7
  6
CONTINUOUS
 10
158.0721793074
 20
31.626237886
 11
157.840929528
 21
31.626237886
  0
LINE
  8
0
 62
7
  6
CONTINUOUS
 10
157.320617028
 20
31.626237886
 11
157.0315543074
 21
31.626237886
  0
LINE
  8
0
 62
7
  6
CONTINUOUS
 10
156.5690540869
 20
31.626237886
 11
156.279992028
 21
31.626237886
  0
LINE
  8
0
 62
7
  6
CONTINUOUS
 10
155.0081169177
 20
31.626237886
 11
154.6612419177
 21
31.626237886
  0
LINE
  8
0
 62
7
  6
CONTINUOUS
 10
152.9268669177
 20
31.626237886
 11
152.6956168074
 21
31.626237886
  0
LINE
  8
0
 62
7
  6
CONTINUOUS
 10
156.279992028
 20
31.9488748406
 11
156.5690540869
 21
31.9488748406
  0
LINE
  8
0
 62
7
  6
CONTINUOUS
 10
156.5690540869
 20
32.1101932727
 11
156.279992028
 21
32.1101932727
  0
LINE
  8
0
 62
7
  6
CONTINUOUS
 10
152.1753043074
 20
32.1101932727
 11
151.8862417523
 21
32.1101932727
  0
LINE
  8
0
 62
7
  6
CONTINUOUS
 10
151.2130860697
 20
32.3970785186
 11
151.6256574183
 21
32.3970785186
  0
LINE
  8
0
 62
7
  6
CONTINUOUS
 10
152.852430332
 20
32.3970785186
 11
154.245872955
 21
32.3970785186
  0
LINE
  8
0
 62
7
  6
CONTINUOUS
 10
154.5737418074
 20
32.3970785186
 11
155.9671844304
 21
32.3970785186
  0
LINE
  8
0
 62
7
  6
CONTINUOUS
 10
157.852430332
 20
32.3970785186
 11
159.245872955
 21
32.3970785186
  0
LINE
  8
0
 62
7
  6
CONTINUOUS
 10
159.5737418074
 20
32.3970785186
 11
160.9671844304
 21
32.3970785186
  0
LINE
  8
0
 62
7
  6
CONTINUOUS
 10
157.6096790869
 20
31.5939741996
 11
157.4362415869
 21
31.5294468267
  0
LINE
  8
0
 62
7
  6
CONTINUOUS
 10
155.1815540869
 20
30.6260635193
 11
155.3549915869
 21
30.6905909007
  0
LINE
  8
0
 62
7
  6
CONTINUOUS
 10
160.615929528
 20
30.6260635193
 11
160.8471793074
 21
30.6905909007
  0
LINE
  8
0
 62
7
  6
CONTINUOUS
 10
160.615929528
 20
30.7873819712
 11
160.5003043074
 21
30.7551182848
  0
LINE
  8
0
 62
7
  6
CONTINUOUS
 10
159.575304528
 20
31.4649194539
 11
159.8065543074
 21
31.4971831403
  0
LINE
  8
0
 62
7
  6
CONTINUOUS
 10
157.6096790869
 20
31.4649194539
 11
157.840929528
 21
31.4971831403
  0
LINE
  8
0
 62
7
  6
CONTINUOUS
 10
154.5456166972
 20
31.1100188581
 11
154.7768668074
 21
31.1422825445
  0
LINE
  8
0
 62
7
  6
CONTINUOUS
 10
157.840929528
 20
31.626237886
 11
157.6096790869
 21
31.5939741996
  0
LINE
  8
0
 62
7
  6
CONTINUOUS
 10
154.4299918074
 20
31.4649194539
 11
154.6612419177
 21
31.4971831403
  0
LINE
  8
0
 62
7
  6
CONTINUOUS
 10
159.8065543074
 20
31.626237886
 11
159.4596793074
 21
31.5939741996
  0
LINE
  8
0
 62
7
  6
CONTINUOUS
 10
154.7768668074
 20
31.2713373354
 11
154.4299918074
 21
31.2390736489
  0
LINE
  8
0
 62
7
  6
CONTINUOUS
 10
150.5565542799
 20
31.626237886
 11
150.2096793212
 21
31.5939741996
  0
LINE
  8
0
 62
7
  6
CONTINUOUS
 10
154.6612419177
 20
31.626237886
 11
154.2565543074
 21
31.5939741996
  0
LINE
  8
0
 62
7
  6
CONTINUOUS
 10
152.0327582009
 20
33.5446195022
 11
151.3770204959
 21
33.5446195022
  0
LINE
  8
0
 62
7
  6
CONTINUOUS
 10
157.4362415869
 20
31.400392081
 11
157.6096790869
 21
31.4649194539
  0
LINE
  8
0
 62
7
  6
CONTINUOUS
 10
159.4596793074
 20
31.4326557675
 11
159.575304528
 21
31.4649194539
  0
LINE
  8
0
 62
7
  6
CONTINUOUS
 10
159.4596793074
 20
31.5939741996
 11
159.228429528
 21
31.5294468267
  0
LINE
  8
0
 62
7
  6
CONTINUOUS
 10
155.1815540869
 20
30.7873819712
 11
154.8924916972
 21
30.7228545871
  0
LINE
  8
0
 62
7
  6
CONTINUOUS
 10
152.4643666972
 20
31.4649194539
 11
152.6956168074
 21
31.4971831403
  0
LINE
  8
0
 62
7
  6
CONTINUOUS
 10
152.6956168074
 20
31.626237886
 11
152.4643666972
 21
31.5939741996
  0
LINE
  8
0
 62
7
  6
CONTINUOUS
 10
150.2674918074
 20
31.4649194539
 11
150.498741835
 21
31.4971831403
  0
LINE
  8
0
 62
7
  6
CONTINUOUS
 10
156.7868565615
 20
35.0200293383
 11
157.4425942664
 21
35.0200293383
  0
LINE
  8
0
 62
7
  6
CONTINUOUS
 10
154.4299918074
 20
31.0777551716
 11
154.5456166972
 21
31.1100188581
  0
LINE
  8
0
 62
7
  6
CONTINUOUS
 10
154.4299918074
 20
31.2390736489
 11
154.1987416972
 21
31.1745462761
  0
LINE
  8
0
 62
7
  6
CONTINUOUS
 10
154.3143669177
 20
31.4326557675
 11
154.4299918074
 21
31.4649194539
  0
LINE
  8
0
 62
7
  6
CONTINUOUS
 10
150.9612418074
 20
30.6260635193
 11
151.1924917523
 21
30.6905909007
  0
LINE
  8
0
 62
7
  6
CONTINUOUS
 10
154.2565543074
 20
31.5939741996
 11
154.1409294177
 21
31.5617105132
  0
LINE
  8
0
 62
7
  6
CONTINUOUS
 10
150.2096793212
 20
31.5939741996
 11
150.0362418212
 21
31.5617105132
  0
LINE
  8
0
 62
7
  6
CONTINUOUS
 10
160.9671844304
 20
36.1675703219
 11
159.5737418074
 21
36.1675703219
  0
LINE
  8
0
 62
7
  6
CONTINUOUS
 10
157.6065286927
 20
36.1675703219
 11
157.1939573441
 21
36.1675703219
  0
LINE
  8
0
 62
7
  6
CONTINUOUS
 10
155.9671844304
 20
36.1675703219
 11
154.5737418074
 21
36.1675703219
  0
LINE
  8
0
 62
7
  6
CONTINUOUS
 10
154.245872955
 20
36.1675703219
 11
152.852430332
 21
36.1675703219
  0
LINE
  8
0
 62
7
  6
CONTINUOUS
 10
150.9671844304
 20
36.1675703219
 11
149.5737418074
 21
36.1675703219
  0
LINE
  8
0
 62
7
  6
CONTINUOUS
 10
150.1518667936
 20
31.4326557675
 11
150.2674918074
 21
31.4649194539
  0
CIRCLE
  8
0
 62
7
  6
CONTINUOUS
 10
160.2704631189
 20
38.5036358957
 40
2.0901639344
  0
ARC
  8
0
 62
7
  6
CONTINUOUS
 10
151.2130860697
 20
34.0364227809
 40
1.6393442623
 50
180.0
 51
270.0
  0
ARC
  8
0
 62
7
  6
CONTINUOUS
 10
157.6065286927
 20
34.5282260596
 40
1.6393442623
 50
0.0
 51
90.0
  0
ARC
  8
0
 62
7
  6
CONTINUOUS
 10
151.6256574183
 20
33.8724883547
 40
1.4754098361
 50
270.0
 51
326.2510114041
  0
ARC
  8
0
 62
7
  6
CONTINUOUS
 10
157.1939573441
 20
34.6921604858
 40
1.4754098361
 50
90.0
 51
146.2510114041
  0
ARC
  8
0
 62
7
  6
CONTINUOUS
 10
152.0327582009
 20
34.3642916334
 40
0.8196721311
 50
270.0
 51
360.0
  0
ARC
  8
0
 62
7
  6
CONTINUOUS
 10
156.7868565615
 20
34.2003572071
 40
0.8196721311
 50
90.0
 51
180.0
  0
ARC
  8
0
 62
7
  6
CONTINUOUS
 10
151.3770204959
 20
33.9544555678
 40
0.4098360656
 50
180.0
 51
270.0
  0
ARC
  8
0
 62
7
  6
CONTINUOUS
 10
157.4425942664
 20
34.6101932727
 40
0.4098360656
 50
0.0
 51
90.0
  0
SOLID
  8
0
 62
7
  6
CONTINUOUS
 10
156.279992028
 20
31.9488752009
 11
156.279992028
 21
32.1101936845
 12
156.5690540869
 22
31.9488752009
 13
156.5690540869
 23
32.1101936845
  0
SOLID
  8
0
 62
7
  6
CONTINUOUS
 10
150.5565542799
 20
31.6262382337
 11
150.9612418074
 21
31.5939740028
 12
150.2096793212
 22
31.5939740028
 13
150.2096793212
 23
31.5939740028
  0
SOLID
  8
0
 62
7
  6
CONTINUOUS
 10
150.0362418212
 20
31.5617111435
 11
150.2096793212
 21
31.5939740028
 12
150.9612418074
 22
31.5939740028
 13
150.9612418074
 23
31.5939740028
  0
SOLID
  8
0
 62
7
  6
CONTINUOUS
 10
150.9612418074
 20
31.5939740028
 11
151.1924917523
 21
31.5294468402
 12
150.0362418212
 22
31.5617111435
 13
150.0362418212
 23
31.5617111435
  0
SOLID
  8
0
 62
7
  6
CONTINUOUS
 10
149.8628043005
 20
31.49718259
 11
150.0362418212
 21
31.5617111435
 12
151.1924917523
 22
31.5294468402
 13
151.1924917523
 23
31.5294468402
  0
SOLID
  8
0
 62
7
  6
CONTINUOUS
 10
149.8628043005
 20
31.49718259
 11
151.1924917523
 21
31.5294468402
 12
150.498741835
 22
31.49718259
 13
150.498741835
 23
31.49718259
  0
SOLID
  8
0
 62
7
  6
CONTINUOUS
 10
150.498741835
 20
31.49718259
 11
151.1924917523
 21
31.5294468402
 12
150.9034292799
 22
31.4649197501
 13
150.9034292799
 23
31.4649197501
  0
SOLID
  8
0
 62
7
  6
CONTINUOUS
 10
151.1924917523
 20
31.5294468402
 11
151.3659292523
 21
31.4326554468
 12
150.9034292799
 22
31.4649197501
 13
150.9034292799
 23
31.4649197501
  0
SOLID
  8
0
 62
7
  6
CONTINUOUS
 10
151.0768668626
 20
31.4003926599
 11
150.9034292799
 21
31.4649197501
 12
151.3659292523
 22
31.4326554468
 13
151.3659292523
 23
31.4326554468
  0
SOLID
  8
0
 62
7
  6
CONTINUOUS
 10
151.0768668626
 20
31.4003926599
 11
151.3659292523
 21
31.4326554468
 12
151.1346793074
 22
31.3036013776
 13
151.1346793074
 23
31.3036013776
  0
SOLID
  8
0
 62
7
  6
CONTINUOUS
 10
151.3659292523
 20
31.4326554468
 11
151.4237418626
 21
31.3036013776
 12
151.1346793074
 22
31.3036013776
 13
151.1346793074
 23
31.3036013776
  0
SOLID
  8
0
 62
7
  6
CONTINUOUS
 10
152.4643666972
 20
31.5939739754
 11
152.6956168074
 21
31.6262382787
 12
152.9268669177
 22
31.6262382787
 13
152.9268669177
 23
31.6262382787
  0
SOLID
  8
0
 62
7
  6
CONTINUOUS
 10
152.9268669177
 20
31.6262382787
 11
153.1003044177
 21
31.5939739754
 12
152.4643666972
 22
31.5939739754
 13
152.4643666972
 23
31.5939739754
  0
SOLID
  8
0
 62
7
  6
CONTINUOUS
 10
152.2909293626
 20
31.5294468852
 11
152.4643666972
 21
31.5939739754
 12
153.1003044177
 22
31.5939739754
 13
153.1003044177
 23
31.5939739754
  0
SOLID
  8
0
 62
7
  6
CONTINUOUS
 10
153.1003044177
 20
31.5939739754
 11
153.2737419177
 21
31.5294468852
 12
152.2909293626
 22
31.5294468852
 13
152.2909293626
 23
31.5294468852
  0
SOLID
  8
0
 62
7
  6
CONTINUOUS
 10
153.2737419177
 20
31.5294468852
 11
152.6956168074
 21
31.4971825369
 12
152.2909293626
 22
31.5294468852
 13
152.2909293626
 23
31.5294468852
  0
SOLID
  8
0
 62
7
  6
CONTINUOUS
 10
152.1753043074
 20
31.4649197951
 11
152.2909293626
 21
31.5294468852
 12
152.6956168074
 22
31.4971825369
 13
152.6956168074
 23
31.4971825369
  0
SOLID
  8
0
 62
7
  6
CONTINUOUS
 10
152.6956168074
 20
31.4971825369
 11
152.4643666972
 21
31.4649197951
 12
152.1753043074
 22
31.4649197951
 13
152.1753043074
 23
31.4649197951
  0
SOLID
  8
0
 62
7
  6
CONTINUOUS
 10
152.6956168074
 20
31.4971825369
 11
153.2737419177
 21
31.5294468852
 12
152.9268669177
 22
31.4649197951
 13
152.9268669177
 23
31.4649197951
  0
SOLID
  8
0
 62
7
  6
CONTINUOUS
 10
153.2737419177
 20
31.5294468852
 11
153.3893668074
 21
31.4649197951
 12
152.9268669177
 22
31.4649197951
 13
152.9268669177
 23
31.4649197951
  0
SOLID
  8
0
 62
7
  6
CONTINUOUS
 10
153.0424918074
 20
31.4326554468
 11
152.9268669177
 21
31.4649197951
 12
153.3893668074
 22
31.4649197951
 13
153.3893668074
 23
31.4649197951
  0
SOLID
  8
0
 62
7
  6
CONTINUOUS
 10
153.3893668074
 20
31.4649197951
 11
153.4471794177
 21
31.4003927049
 12
153.0424918074
 22
31.4326554468
 13
153.0424918074
 23
31.4326554468
  0
SOLID
  8
0
 62
7
  6
CONTINUOUS
 10
153.1581166972
 20
31.3681283566
 11
153.0424918074
 21
31.4326554468
 12
153.4471794177
 22
31.4003927049
 13
153.4471794177
 23
31.4003927049
  0
SOLID
  8
0
 62
7
  6
CONTINUOUS
 10
153.1581166972
 20
31.3681283566
 11
153.4471794177
 21
31.4003927049
 12
153.2159293074
 22
31.2390742213
 13
153.2159293074
 23
31.2390742213
  0
SOLID
  8
0
 62
7
  6
CONTINUOUS
 10
153.4471794177
 20
31.4003927049
 11
153.5049916972
 21
31.2390742213
 12
153.2159293074
 22
31.2390742213
 13
153.2159293074
 23
31.2390742213
  0
SOLID
  8
0
 62
7
  6
CONTINUOUS
 10
152.4643666972
 20
31.4649197951
 11
152.2909293626
 21
31.4003927049
 12
152.1753043074
 22
31.4649197951
 13
152.1753043074
 23
31.4649197951
  0
SOLID
  8
0
 62
7
  6
CONTINUOUS
 10
152.2909293626
 20
31.4003927049
 11
152.1753043074
 21
31.3358640533
 12
152.1753043074
 22
31.4649197951
 13
152.1753043074
 23
31.4649197951
  0
SOLID
  8
0
 62
7
  6
CONTINUOUS
 10
152.1753043074
 20
31.3358640533
 11
151.8862417523
 21
30.5938002869
 12
152.1753043074
 22
31.4649197951
 13
152.1753043074
 23
31.4649197951
  0
SOLID
  8
0
 62
7
  6
CONTINUOUS
 10
152.1753043074
 20
31.4649197951
 11
151.8862417523
 21
30.5938002869
 12
152.1753043074
 22
32.1101937295
 13
152.1753043074
 23
32.1101937295
  0
SOLID
  8
0
 62
7
  6
CONTINUOUS
 10
151.8862417523
 20
30.5938002869
 11
151.8862417523
 21
32.1101937295
 12
152.1753043074
 22
32.1101937295
 13
152.1753043074
 23
32.1101937295
  0
SOLID
  8
0
 62
7
  6
CONTINUOUS
 10
152.1753043074
 20
31.3358640533
 11
152.1753043074
 21
30.5938002869
 12
151.8862417523
 22
30.5938002869
 13
151.8862417523
 23
30.5938002869
  0
SOLID
  8
0
 62
7
  6
CONTINUOUS
 10
153.2159293074
 20
30.5938002869
 11
153.2159293074
 21
31.2390742213
 12
153.5049916972
 22
31.2390742213
 13
153.5049916972
 23
31.2390742213
  0
SOLID
  8
0
 62
7
  6
CONTINUOUS
 10
153.5049916972
 20
31.2390742213
 11
153.5049916972
 21
30.5938002869
 12
153.2159293074
 22
30.5938002869
 13
153.2159293074
 23
30.5938002869
  0
SOLID
  8
0
 62
7
  6
CONTINUOUS
 10
154.2565543074
 20
31.5939738288
 11
154.6612419177
 21
31.6262385959
 12
155.0081169177
 22
31.6262385959
 13
155.0081169177
 23
31.6262385959
  0
SOLID
  8
0
 62
7
  6
CONTINUOUS
 10
155.0081169177
 20
31.6262385959
 11
155.3549915869
 21
31.5939738288
 12
154.2565543074
 22
31.5939738288
 13
154.2565543074
 23
31.5939738288
  0
SOLID
  8
0
 62
7
  6
CONTINUOUS
 10
154.1409294177
 20
31.5617111435
 11
154.2565543074
 21
31.5939738288
 12
155.3549915869
 22
31.5939738288
 13
155.3549915869
 23
31.5939738288
  0
SOLID
  8
0
 62
7
  6
CONTINUOUS
 10
155.3549915869
 20
31.5939738288
 11
155.5284290869
 21
31.5294468402
 12
154.1409294177
 22
31.5617111435
 13
154.1409294177
 23
31.5617111435
  0
SOLID
  8
0
 62
7
  6
CONTINUOUS
 10
154.0253041972
 20
31.4971826249
 11
154.1409294177
 21
31.5617111435
 12
155.5284290869
 22
31.5294468402
 13
155.5284290869
 23
31.5294468402
  0
SOLID
  8
0
 62
7
  6
CONTINUOUS
 10
154.0253041972
 20
31.4971826249
 11
155.5284290869
 21
31.5294468402
 12
154.6612419177
 22
31.4971826249
 13
154.6612419177
 23
31.4971826249
  0
SOLID
  8
0
 62
7
  6
CONTINUOUS
 10
154.6612419177
 20
31.4971826249
 11
155.5284290869
 21
31.5294468402
 12
155.0081169177
 22
31.4971826249
 13
155.0081169177
 23
31.4971826249
  0
SOLID
  8
0
 62
7
  6
CONTINUOUS
 10
155.0081169177
 20
31.4971826249
 11
155.5284290869
 21
31.5294468402
 12
155.239367028
 22
31.4649194065
 13
155.239367028
 23
31.4649194065
  0
SOLID
  8
0
 62
7
  6
CONTINUOUS
 10
155.5284290869
 20
31.5294468402
 11
155.6440543074
 21
31.4649194065
 12
155.239367028
 22
31.4649194065
 13
155.239367028
 23
31.4649194065
  0
SOLID
  8
0
 62
7
  6
CONTINUOUS
 10
153.9674919177
 20
31.4326554138
 11
154.0253041972
 21
31.4971826249
 12
154.6612419177
 22
31.4971826249
 13
154.6612419177
 23
31.4971826249
  0
SOLID
  8
0
 62
7
  6
CONTINUOUS
 10
155.3549915869
 20
31.4326554138
 11
155.239367028
 21
31.4649194065
 12
155.6440543074
 22
31.4649194065
 13
155.6440543074
 23
31.4649194065
  0
SOLID
  8
0
 62
7
  6
CONTINUOUS
 10
155.3549915869
 20
31.4326554138
 11
155.6440543074
 21
31.4649194065
 12
155.412804528
 22
31.3681282026
 13
155.412804528
 23
31.3681282026
  0
SOLID
  8
0
 62
7
  6
CONTINUOUS
 10
155.6440543074
 20
31.4649194065
 11
155.7018665869
 21
31.3681282026
 12
155.412804528
 22
31.3681282026
 13
155.412804528
 23
31.3681282026
  0
SOLID
  8
0
 62
7
  6
CONTINUOUS
 10
155.412804528
 20
31.2713369632
 11
155.412804528
 21
31.3681282026
 12
155.7018665869
 22
31.3681282026
 13
155.7018665869
 23
31.3681282026
  0
SOLID
  8
0
 62
7
  6
CONTINUOUS
 10
155.412804528
 20
31.2713369632
 11
155.7018665869
 21
31.3681282026
 12
155.412804528
 22
31.1422827828
 13
155.412804528
 23
31.1422827828
  0
SOLID
  8
0
 62
7
  6
CONTINUOUS
 10
155.412804528
 20
31.1422827828
 11
155.7018665869
 21
31.3681282026
 12
155.412804528
 22
30.9487004259
 13
155.412804528
 23
30.9487004259
  0
SOLID
  8
0
 62
7
  6
CONTINUOUS
 10
155.7018665869
 20
31.3681282026
 11
155.7018665869
 21
30.8519086025
 12
155.412804528
 22
30.9487004259
 13
155.412804528
 23
30.9487004259
  0
SOLID
  8
0
 62
7
  6
CONTINUOUS
 10
157.6096790869
 20
31.5939736268
 11
157.840929528
 21
31.6262383465
 12
158.0721793074
 22
31.6262383465
 13
158.0721793074
 23
31.6262383465
  0
SOLID
  8
0
 62
7
  6
CONTINUOUS
 10
158.0721793074
 20
31.6262383465
 11
158.2456168074
 21
31.5939736268
 12
157.6096790869
 22
31.5939736268
 13
157.6096790869
 23
31.5939736268
  0
SOLID
  8
0
 62
7
  6
CONTINUOUS
 10
157.4362415869
 20
31.5294472848
 11
157.6096790869
 21
31.5939736268
 12
158.2456168074
 22
31.5939736268
 13
158.2456168074
 23
31.5939736268
  0
SOLID
  8
0
 62
7
  6
CONTINUOUS
 10
158.2456168074
 20
31.5939736268
 11
158.4190543074
 21
31.5294472848
 12
157.4362415869
 22
31.5294472848
 13
157.4362415869
 23
31.5294472848
  0
SOLID
  8
0
 62
7
  6
CONTINUOUS
 10
158.4190543074
 20
31.5294472848
 11
157.840929528
 21
31.4971825369
 12
157.4362415869
 22
31.5294472848
 13
157.4362415869
 23
31.5294472848
  0
SOLID
  8
0
 62
7
  6
CONTINUOUS
 10
157.320617028
 20
31.4649199103
 11
157.4362415869
 21
31.5294472848
 12
157.840929528
 22
31.4971825369
 13
157.840929528
 23
31.4971825369
  0
SOLID
  8
0
 62
7
  6
CONTINUOUS
 10
157.840929528
 20
31.4971825369
 11
157.6096790869
 21
31.4649199103
 12
157.320617028
 22
31.4649199103
 13
157.320617028
 23
31.4649199103
  0
SOLID
  8
0
 62
7
  6
CONTINUOUS
 10
157.840929528
 20
31.4971825369
 11
158.4190543074
 21
31.5294472848
 12
158.0721793074
 22
31.4649199103
 13
158.0721793074
 23
31.4649199103
  0
SOLID
  8
0
 62
7
  6
CONTINUOUS
 10
158.4190543074
 20
31.5294472848
 11
158.534679528
 21
31.4649199103
 12
158.0721793074
 22
31.4649199103
 13
158.0721793074
 23
31.4649199103
  0
SOLID
  8
0
 62
7
  6
CONTINUOUS
 10
158.187804528
 20
31.4326554468
 11
158.0721793074
 21
31.4649199103
 12
158.534679528
 22
31.4649199103
 13
158.534679528
 23
31.4649199103
  0
SOLID
  8
0
 62
7
  6
CONTINUOUS
 10
158.187804528
 20
31.4326554468
 11
158.534679528
 21
31.4649199103
 12
158.3034290869
 22
31.3681288486
 13
158.3034290869
 23
31.3681288486
  0
SOLID
  8
0
 62
7
  6
CONTINUOUS
 10
158.534679528
 20
31.4649199103
 11
158.5924918074
 21
31.3681288486
 12
158.3034290869
 22
31.3681288486
 13
158.3034290869
 23
31.3681288486
  0
SOLID
  8
0
 62
7
  6
CONTINUOUS
 10
158.361242028
 20
31.2068093799
 11
158.3034290869
 21
31.3681288486
 12
158.5924918074
 22
31.3681288486
 13
158.5924918074
 23
31.3681288486
  0
SOLID
  8
0
 62
7
  6
CONTINUOUS
 10
158.5924918074
 20
31.3681288486
 11
158.6503040869
 21
31.2068093799
 12
158.361242028
 22
31.2068093799
 13
158.361242028
 23
31.2068093799
  0
SOLID
  8
0
 62
7
  6
CONTINUOUS
 10
157.6096790869
 20
31.4649199103
 11
157.4362415869
 21
31.4003926599
 12
157.320617028
 22
31.4649199103
 13
157.320617028
 23
31.4649199103
  0
SOLID
  8
0
 62
7
  6
CONTINUOUS
 10
157.4362415869
 20
31.4003926599
 11
157.320617028
 21
31.3358640533
 12
157.320617028
 22
31.4649199103
 13
157.320617028
 23
31.4649199103
  0
SOLID
  8
0
 62
7
  6
CONTINUOUS
 10
157.320617028
 20
31.3358640533
 11
157.0315543074
 21
30.5938003547
 12
157.320617028
 22
31.4649199103
 13
157.320617028
 23
31.4649199103
  0
SOLID
  8
0
 62
7
  6
CONTINUOUS
 10
157.320617028
 20
31.4649199103
 11
157.0315543074
 21
30.5938003547
 12
157.320617028
 22
31.6262383465
 13
157.320617028
 23
31.6262383465
  0
SOLID
  8
0
 62
7
  6
CONTINUOUS
 10
157.0315543074
 20
30.5938003547
 11
157.0315543074
 21
31.6262383465
 12
157.320617028
 22
31.6262383465
 13
157.320617028
 23
31.6262383465
  0
SOLID
  8
0
 62
7
  6
CONTINUOUS
 10
157.320617028
 20
31.3358640533
 11
157.320617028
 21
30.5938003547
 12
157.0315543074
 22
30.5938003547
 13
157.0315543074
 23
30.5938003547
  0
SOLID
  8
0
 62
7
  6
CONTINUOUS
 10
158.361242028
 20
30.5938003547
 11
158.361242028
 21
31.2068093799
 12
158.6503040869
 22
31.2068093799
 13
158.6503040869
 23
31.2068093799
  0
SOLID
  8
0
 62
7
  6
CONTINUOUS
 10
158.6503040869
 20
31.2068093799
 11
158.6503040869
 21
30.5938003547
 12
158.361242028
 22
30.5938003547
 13
158.361242028
 23
30.5938003547
  0
SOLID
  8
0
 62
7
  6
CONTINUOUS
 10
159.4596793074
 20
31.5939739474
 11
159.8065543074
 21
31.6262381969
 12
160.1534293074
 22
31.6262381969
 13
160.1534293074
 23
31.6262381969
  0
SOLID
  8
0
 62
7
  6
CONTINUOUS
 10
160.1534293074
 20
31.6262381969
 11
160.5003043074
 21
31.5939739474
 12
159.4596793074
 22
31.5939739474
 13
159.4596793074
 23
31.5939739474
  0
SOLID
  8
0
 62
7
  6
CONTINUOUS
 10
159.228429528
 20
31.5294468402
 11
159.4596793074
 21
31.5939739474
 12
160.5003043074
 22
31.5939739474
 13
160.5003043074
 23
31.5939739474
  0
SOLID
  8
0
 62
7
  6
CONTINUOUS
 10
159.228429528
 20
31.5294468402
 11
160.5003043074
 21
31.5939739304
 12
160.6737418074
 22
31.5617111435
 13
160.6737418074
 23
31.5617111435
  0
SOLID
  8
0
 62
7
  6
CONTINUOUS
 10
159.228429528
 20
31.5294468402
 11
160.6737418074
 21
31.5617111435
 12
159.8065543074
 22
31.4971825592
 13
159.8065543074
 23
31.4971825592
  0
SOLID
  8
0
 62
7
  6
CONTINUOUS
 10
159.8065543074
 20
31.4971825592
 11
160.6737418074
 21
31.5617111435
 12
160.1534293074
 22
31.4971825592
 13
160.1534293074
 23
31.4971825592
  0
SOLID
  8
0
 62
7
  6
CONTINUOUS
 10
160.6737418074
 20
31.5617111435
 11
160.8471793074
 21
31.4971825592
 12
160.1534293074
 22
31.4971825592
 13
160.1534293074
 23
31.4971825592
  0
SOLID
  8
0
 62
7
  6
CONTINUOUS
 10
160.5003043074
 20
31.4649197501
 11
160.1534293074
 21
31.4971825592
 12
160.8471793074
 22
31.4971825592
 13
160.8471793074
 23
31.4971825592
  0
SOLID
  8
0
 62
7
  6
CONTINUOUS
 10
159.1128043074
 20
31.4326555427
 11
159.228429528
 21
31.5294468402
 12
159.8065543074
 22
31.4971825592
 13
159.8065543074
 23
31.4971825592
  0
SOLID
  8
0
 62
7
  6
CONTINUOUS
 10
160.5003043074
 20
31.4649197501
 11
160.8471793074
 21
31.4971825592
 12
160.615929528
 22
31.4326555427
 13
160.615929528
 23
31.4326555427
  0
SOLID
  8
0
 62
7
  6
CONTINUOUS
 10
160.615929528
 20
31.4326555427
 11
160.8471793074
 21
31.4971825592
 12
160.6737418074
 22
31.3681283005
 13
160.6737418074
 23
31.3681283005
  0
SOLID
  8
0
 62
7
  6
CONTINUOUS
 10
160.8471793074
 20
31.4971825592
 11
160.9628038663
 21
31.3681283005
 12
160.6737418074
 22
31.3681283005
 13
160.6737418074
 23
31.3681283005
  0
SOLID
  8
0
 62
7
  6
CONTINUOUS
 10
150.2674918074
 20
31.4649197501
 11
149.7471793074
 21
31.4326554237
 12
150.498741835
 22
31.4971824493
 13
150.498741835
 23
31.4971824493
  0
SOLID
  8
0
 62
7
  6
CONTINUOUS
 10
149.7471793074
 20
31.4326554237
 11
149.8628043005
 21
31.4971824493
 12
150.498741835
 22
31.4971824493
 13
150.498741835
 23
31.4971824493
  0
SOLID
  8
0
 62
7
  6
CONTINUOUS
 10
150.2674918074
 20
31.4649197501
 11
150.1518667936
 21
31.4326554237
 12
149.7471793074
 22
31.4326554237
 13
149.7471793074
 23
31.4326554237
  0
SOLID
  8
0
 62
7
  6
CONTINUOUS
 10
149.6315543091
 20
31.3036012664
 11
149.7471793074
 21
31.4326554237
 12
150.1518667936
 22
31.4326554237
 13
150.1518667936
 23
31.4326554237
  0
SOLID
  8
0
 62
7
  6
CONTINUOUS
 10
153.9674919177
 20
31.4326554237
 11
154.6612419177
 21
31.4971825369
 12
154.4299918074
 22
31.4649197501
 13
154.4299918074
 23
31.4649197501
  0
SOLID
  8
0
 62
7
  6
CONTINUOUS
 10
154.4299918074
 20
31.4649197501
 11
154.3143669177
 21
31.4326554237
 12
153.9674919177
 22
31.4326554237
 13
153.9674919177
 23
31.4326554237
  0
SOLID
  8
0
 62
7
  6
CONTINUOUS
 10
153.9674919177
 20
31.3681283335
 11
153.9674919177
 21
31.4326554237
 12
154.3143669177
 22
31.4326554237
 13
154.3143669177
 23
31.4326554237
  0
SOLID
  8
0
 62
7
  6
CONTINUOUS
 10
154.3143669177
 20
31.4326554237
 11
154.2565543074
 21
31.3681283335
 12
153.9674919177
 22
31.3681283335
 13
153.9674919177
 23
31.3681283335
  0
SOLID
  8
0
 62
7
  6
CONTINUOUS
 10
159.1128043074
 20
31.4326555528
 11
159.8065543074
 21
31.4971825369
 12
159.575304528
 22
31.4649197501
 13
159.575304528
 23
31.4649197501
  0
SOLID
  8
0
 62
7
  6
CONTINUOUS
 10
159.575304528
 20
31.4649197501
 11
159.4596793074
 21
31.4326555528
 12
159.1128043074
 22
31.4326555528
 13
159.1128043074
 23
31.4326555528
  0
SOLID
  8
0
 62
7
  6
CONTINUOUS
 10
159.1128043074
 20
31.3681284626
 11
159.1128043074
 21
31.4326555528
 12
159.4596793074
 22
31.4326555528
 13
159.4596793074
 23
31.4326555528
  0
SOLID
  8
0
 62
7
  6
CONTINUOUS
 10
159.4596793074
 20
31.4326555528
 11
159.401867028
 21
31.3681284626
 12
159.1128043074
 22
31.3681284626
 13
159.1128043074
 23
31.3681284626
  0
SOLID
  8
0
 62
7
  6
CONTINUOUS
 10
159.228429528
 20
31.2390741763
 11
159.1128043074
 21
31.3681284626
 12
159.401867028
 22
31.3681284626
 13
159.401867028
 23
31.3681284626
  0
SOLID
  8
0
 62
7
  6
CONTINUOUS
 10
149.6315543091
 20
31.3036012664
 11
150.1518667936
 21
31.4326554468
 12
149.9784292936
 22
31.3358640533
 13
149.9784292936
 23
31.3358640533
  0
SOLID
  8
0
 62
7
  6
CONTINUOUS
 10
149.9784292936
 20
31.3358640533
 11
149.9206168074
 21
31.2713369632
 12
149.6315543091
 22
31.3036012664
 13
149.6315543091
 23
31.3036012664
  0
SOLID
  8
0
 62
7
  6
CONTINUOUS
 10
149.5737418074
 20
31.1100184796
 11
149.6315543091
 21
31.3036012664
 12
149.9206168074
 22
31.2713369632
 13
149.9206168074
 23
31.2713369632
  0
SOLID
  8
0
 62
7
  6
CONTINUOUS
 10
154.4299918074
 20
31.2390741763
 11
154.7768668074
 21
31.271336924
 12
155.412804528
 22
31.271336924
 13
155.412804528
 23
31.271336924
  0
SOLID
  8
0
 62
7
  6
CONTINUOUS
 10
154.4299918074
 20
31.2390741763
 11
155.412804528
 21
31.271336924
 12
154.1987416972
 22
31.1745462761
 13
154.1987416972
 23
31.1745462761
  0
SOLID
  8
0
 62
7
  6
CONTINUOUS
 10
154.1987416972
 20
31.1745462761
 11
155.412804528
 21
31.271336924
 12
154.7768668074
 22
31.1422827436
 13
154.7768668074
 23
31.1422827436
  0
SOLID
  8
0
 62
7
  6
CONTINUOUS
 10
155.412804528
 20
31.271336924
 11
155.412804528
 21
31.1422827436
 12
154.7768668074
 22
31.1422827436
 13
154.7768668074
 23
31.1422827436
  0
SOLID
  8
0
 62
7
  6
CONTINUOUS
 10
159.228429528
 20
31.2390745501
 11
159.401867028
 21
31.3681283566
 12
159.4596793074
 22
31.3036012664
 13
159.4596793074
 23
31.3036012664
  0
SOLID
  8
0
 62
7
  6
CONTINUOUS
 10
159.4596793074
 20
31.3036012664
 11
159.6331168074
 21
31.2390745501
 12
159.228429528
 22
31.2390745501
 13
159.228429528
 23
31.2390745501
  0
SOLID
  8
0
 62
7
  6
CONTINUOUS
 10
159.4596793074
 20
31.1422827828
 11
159.228429528
 21
31.2390745501
 12
159.6331168074
 22
31.2390745501
 13
159.6331168074
 23
31.2390745501
  0
SOLID
  8
0
 62
7
  6
CONTINUOUS
 10
159.6331168074
 20
31.2390745501
 11
160.615929528
 21
31.0777556927
 12
159.4596793074
 22
31.1422827828
 13
159.4596793074
 23
31.1422827828
  0
SOLID
  8
0
 62
7
  6
CONTINUOUS
 10
160.442492028
 20
30.9809646623
 11
159.4596793074
 21
31.1422827828
 12
160.615929528
 22
31.0777556927
 13
160.615929528
 23
31.0777556927
  0
SOLID
  8
0
 62
7
  6
CONTINUOUS
 10
160.615929528
 20
31.0777556927
 11
160.8471793074
 21
30.9809646623
 12
160.442492028
 22
30.9809646623
 13
160.442492028
 23
30.9809646623
  0
SOLID
  8
0
 62
7
  6
CONTINUOUS
 10
160.615929528
 20
30.9164372091
 11
160.442492028
 21
30.9809646623
 12
160.8471793074
 22
30.9809646623
 13
160.8471793074
 23
30.9809646623
  0
SOLID
  8
0
 62
7
  6
CONTINUOUS
 10
160.615929528
 20
30.9164372091
 11
160.8471793074
 21
30.9809646623
 12
160.6737418074
 22
30.8519089441
 13
160.6737418074
 23
30.8519089441
  0
SOLID
  8
0
 62
7
  6
CONTINUOUS
 10
160.8471793074
 20
30.9809646623
 11
160.9628038663
 21
30.8519089441
 12
160.6737418074
 22
30.8519089441
 13
160.6737418074
 23
30.8519089441
  0
SOLID
  8
0
 62
7
  6
CONTINUOUS
 10
160.615929528
 20
30.7873818593
 11
160.6737418074
 21
30.8519089441
 12
160.9628038663
 22
30.8519089441
 13
160.9628038663
 23
30.8519089441
  0
SOLID
  8
0
 62
7
  6
CONTINUOUS
 10
160.9628038663
 20
30.8519089441
 11
160.9628038663
 21
30.7873818593
 12
160.615929528
 22
30.7873818593
 13
160.615929528
 23
30.7873818593
  0
SOLID
  8
0
 62
7
  6
CONTINUOUS
 10
160.5003043074
 20
30.7551187255
 11
160.615929528
 21
30.7873818593
 12
160.9628038663
 22
30.7873818593
 13
160.9628038663
 23
30.7873818593
  0
SOLID
  8
0
 62
7
  6
CONTINUOUS
 10
160.5003043074
 20
30.7551187255
 11
160.9628038663
 21
30.7873818593
 12
160.269054528
 22
30.7228547745
 13
160.269054528
 23
30.7228547745
  0
SOLID
  8
0
 62
7
  6
CONTINUOUS
 10
160.9628038663
 20
30.7873818593
 11
160.8471793074
 21
30.6905916353
 12
160.269054528
 22
30.7228547745
 13
160.269054528
 23
30.7228547745
  0
SOLID
  8
0
 62
7
  6
CONTINUOUS
 10
160.8471793074
 20
30.6905916353
 11
159.401867028
 21
30.658327332
 12
160.269054528
 22
30.7228547745
 13
160.269054528
 23
30.7228547745
  0
SOLID
  8
0
 62
7
  6
CONTINUOUS
 10
160.269054528
 20
30.7228547745
 11
159.401867028
 21
30.658327332
 12
159.922179528
 22
30.7228547745
 13
159.922179528
 23
30.7228547745
  0
SOLID
  8
0
 62
7
  6
CONTINUOUS
 10
159.401867028
 20
30.658327332
 11
159.228429528
 21
30.7228547745
 12
159.922179528
 22
30.7228547745
 13
159.922179528
 23
30.7228547745
  0
SOLID
  8
0
 62
7
  6
CONTINUOUS
 10
159.401867028
 20
30.658327332
 11
160.8471793074
 21
30.6905916353
 12
159.575304528
 22
30.6260629858
 13
159.575304528
 23
30.6260629858
  0
SOLID
  8
0
 62
7
  6
CONTINUOUS
 10
160.8471793074
 20
30.6905916353
 11
160.615929528
 21
30.6260629858
 12
159.575304528
 22
30.6260629858
 13
159.575304528
 23
30.6260629858
  0
SOLID
  8
0
 62
7
  6
CONTINUOUS
 10
159.922179528
 20
30.5938006049
 11
159.575304528
 21
30.6260629858
 12
160.615929528
 22
30.6260629858
 13
160.615929528
 23
30.6260629858
  0
SOLID
  8
0
 62
7
  6
CONTINUOUS
 10
160.615929528
 20
30.6260629858
 11
160.269054528
 21
30.5938006049
 12
159.922179528
 22
30.5938006049
 13
159.922179528
 23
30.5938006049
  0
SOLID
  8
0
 62
7
  6
CONTINUOUS
 10
149.5737418074
 20
31.1100184796
 11
149.9206168074
 21
31.2713369632
 12
149.8628043005
 22
31.1422827828
 13
149.8628043005
 23
31.1422827828
  0
SOLID
  8
0
 62
7
  6
CONTINUOUS
 10
149.8628043005
 20
31.1422827828
 11
149.8628043005
 21
31.0454914852
 12
149.5737418074
 22
31.1100184796
 13
149.5737418074
 23
31.1100184796
  0
SOLID
  8
0
 62
7
  6
CONTINUOUS
 10
149.6315543091
 20
30.9164372091
 11
149.5737418074
 21
31.1100184796
 12
149.8628043005
 22
31.0454914852
 13
149.8628043005
 23
31.0454914852
  0
SOLID
  8
0
 62
7
  6
CONTINUOUS
 10
149.8628043005
 20
31.0454914852
 11
149.9784292936
 21
30.8841729058
 12
149.6315543091
 22
30.9164372091
 13
149.6315543091
 23
30.9164372091
  0
SOLID
  8
0
 62
7
  6
CONTINUOUS
 10
149.7471793074
 20
30.7873813202
 11
149.6315543091
 21
30.9164372091
 12
149.9784292936
 22
30.8841729058
 13
149.9784292936
 23
30.8841729058
  0
SOLID
  8
0
 62
7
  6
CONTINUOUS
 10
149.9784292936
 20
30.8841729058
 11
150.1518667936
 21
30.7873813202
 12
149.7471793074
 22
30.7873813202
 13
149.7471793074
 23
30.7873813202
  0
SOLID
  8
0
 62
7
  6
CONTINUOUS
 10
149.8628043005
 20
30.7228547004
 11
149.7471793074
 21
30.7873813202
 12
150.1518667936
 22
30.7873813202
 13
150.1518667936
 23
30.7873813202
  0
SOLID
  8
0
 62
7
  6
CONTINUOUS
 10
150.1518667936
 20
30.7873813202
 11
150.498741835
 21
30.7228547004
 12
149.8628043005
 22
30.7228547004
 13
149.8628043005
 23
30.7228547004
  0
SOLID
  8
0
 62
7
  6
CONTINUOUS
 10
150.0362418212
 20
30.658327332
 11
149.8628043005
 21
30.7228547004
 12
150.498741835
 22
30.7228547004
 13
150.498741835
 23
30.7228547004
  0
SOLID
  8
0
 62
7
  6
CONTINUOUS
 10
154.0831168074
 20
31.1100184386
 11
154.1987416972
 21
31.1745462761
 12
154.7768668074
 22
31.1422827828
 13
154.7768668074
 23
31.1422827828
  0
SOLID
  8
0
 62
7
  6
CONTINUOUS
 10
154.7768668074
 20
31.1422827828
 11
154.5456166972
 21
31.1100184386
 12
154.0831168074
 22
31.1100184386
 13
154.0831168074
 23
31.1100184386
  0
SOLID
  8
0
 62
7
  6
CONTINUOUS
 10
153.9674919177
 20
30.9809642992
 11
154.0831168074
 21
31.1100184386
 12
154.5456166972
 22
31.1100184386
 13
154.5456166972
 23
31.1100184386
  0
SOLID
  8
0
 62
7
  6
CONTINUOUS
 10
154.3143669177
 20
31.0132277988
 11
153.9674919177
 21
30.9809642992
 12
154.4299918074
 22
31.0777556927
 13
154.4299918074
 23
31.0777556927
  0
SOLID
  8
0
 62
7
  6
CONTINUOUS
 10
153.9674919177
 20
30.9809642992
 11
154.5456166972
 21
31.1100184796
 12
154.4299918074
 22
31.0777556927
 13
154.4299918074
 23
31.0777556927
  0
SOLID
  8
0
 62
7
  6
CONTINUOUS
 10
154.3143669177
 20
31.0132277988
 11
154.2565543074
 21
30.9164372091
 12
153.9674919177
 22
30.9809642992
 13
153.9674919177
 23
30.9809642992
  0
SOLID
  8
0
 62
7
  6
CONTINUOUS
 10
153.9674919177
 20
30.8841729058
 11
153.9674919177
 21
30.9809642992
 12
154.2565543074
 22
30.9164372091
 13
154.2565543074
 23
30.9164372091
  0
SOLID
  8
0
 62
7
  6
CONTINUOUS
 10
154.2565543074
 20
30.9164372091
 11
154.2565543074
 21
30.8519086025
 12
153.9674919177
 22
30.8841729058
 13
153.9674919177
 23
30.8841729058
  0
SOLID
  8
0
 62
7
  6
CONTINUOUS
 10
154.0253041972
 20
30.7551187255
 11
153.9674919177
 21
30.8841729058
 12
154.2565543074
 22
30.8519086025
 13
154.2565543074
 23
30.8519086025
  0
SOLID
  8
0
 62
7
  6
CONTINUOUS
 10
155.412804528
 20
30.9487004259
 11
155.7018665869
 21
30.8519086025
 12
155.3549915869
 22
30.8841729058
 13
155.3549915869
 23
30.8841729058
  0
SOLID
  8
0
 62
7
  6
CONTINUOUS
 10
155.1815540869
 20
30.7873815123
 11
155.3549915869
 21
30.8841729058
 12
155.7018665869
 22
30.8519086025
 13
155.7018665869
 23
30.8519086025
  0
SOLID
  8
0
 62
7
  6
CONTINUOUS
 10
155.1815540869
 20
30.7873815123
 11
155.7018665869
 21
30.8519086025
 12
155.412804528
 22
30.7551187255
 13
155.412804528
 23
30.7551187255
  0
SOLID
  8
0
 62
7
  6
CONTINUOUS
 10
155.7018665869
 20
30.8519086025
 11
155.759679528
 21
30.6905916353
 12
155.412804528
 22
30.7551187255
 13
155.412804528
 23
30.7551187255
  0
SOLID
  8
0
 62
7
  6
CONTINUOUS
 10
155.4706168074
 20
30.658327332
 11
155.412804528
 21
30.7551187255
 12
155.759679528
 22
30.6905916353
 13
155.759679528
 23
30.6905916353
  0
SOLID
  8
0
 62
7
  6
CONTINUOUS
 10
155.4706168074
 20
30.658327332
 11
155.759679528
 21
30.6905916353
 12
155.5284290869
 22
30.5938002079
 13
155.5284290869
 23
30.5938002079
  0
SOLID
  8
0
 62
7
  6
CONTINUOUS
 10
155.759679528
 20
30.6905916353
 11
155.8174918074
 21
30.5938002079
 12
155.5284290869
 22
30.5938002079
 13
155.5284290869
 23
30.5938002079
  0
SOLID
  8
0
 62
7
  6
CONTINUOUS
 10
151.0768668626
 20
30.8196456577
 11
151.1346793074
 21
30.9164373395
 12
151.4237418626
 22
30.9164373395
 13
151.4237418626
 23
30.9164373395
  0
SOLID
  8
0
 62
7
  6
CONTINUOUS
 10
151.4237418626
 20
30.9164373395
 11
151.3659292523
 21
30.7873815123
 12
151.0768668626
 22
30.8196456577
 13
151.0768668626
 23
30.8196456577
  0
SOLID
  8
0
 62
7
  6
CONTINUOUS
 10
150.9034292799
 20
30.7551187255
 11
151.0768668626
 21
30.8196456577
 12
151.3659292523
 22
30.7873815123
 13
151.3659292523
 23
30.7873815123
  0
SOLID
  8
0
 62
7
  6
CONTINUOUS
 10
150.9034292799
 20
30.7551187255
 11
151.3659292523
 21
30.7873815123
 12
150.498741835
 22
30.7228544222
 13
150.498741835
 23
30.7228544222
  0
SOLID
  8
0
 62
7
  6
CONTINUOUS
 10
151.3659292523
 20
30.7873815123
 11
151.1924917523
 21
30.6905916353
 12
150.498741835
 22
30.7228544222
 13
150.498741835
 23
30.7228544222
  0
SOLID
  8
0
 62
7
  6
CONTINUOUS
 10
150.0362418212
 20
30.658327332
 11
150.498741835
 21
30.7228544222
 12
151.1924917523
 22
30.6905916353
 13
151.1924917523
 23
30.6905916353
  0
SOLID
  8
0
 62
7
  6
CONTINUOUS
 10
150.0362418212
 20
30.658327332
 11
151.1924917523
 21
30.6905916353
 12
150.2096793212
 22
30.6260631011
 13
150.2096793212
 23
30.6260631011
  0
SOLID
  8
0
 62
7
  6
CONTINUOUS
 10
151.1924917523
 20
30.6905916353
 11
150.9612418074
 21
30.6260631011
 12
150.2096793212
 22
30.6260631011
 13
150.2096793212
 23
30.6260631011
  0
SOLID
  8
0
 62
7
  6
CONTINUOUS
 10
150.5565542799
 20
30.5938002419
 11
150.2096793212
 21
30.6260631011
 12
150.9612418074
 22
30.6260631011
 13
150.9612418074
 23
30.6260631011
  0
SOLID
  8
0
 62
7
  6
CONTINUOUS
 10
154.0253041972
 20
30.7551187255
 11
154.2565543074
 21
30.8519086025
 12
154.3143669177
 22
30.7873815123
 13
154.3143669177
 23
30.7873815123
  0
SOLID
  8
0
 62
7
  6
CONTINUOUS
 10
154.3143669177
 20
30.7873815123
 11
154.5456166972
 21
30.7228544222
 12
154.0253041972
 22
30.7551187255
 13
154.0253041972
 23
30.7551187255
  0
SOLID
  8
0
 62
7
  6
CONTINUOUS
 10
154.1987416972
 20
30.658327332
 11
154.0253041972
 21
30.7551187255
 12
154.5456166972
 22
30.7228544222
 13
154.5456166972
 23
30.7228544222
  0
SOLID
  8
0
 62
7
  6
CONTINUOUS
 10
154.8924916972
 20
30.7228544637
 11
155.1815540869
 21
30.7873815123
 12
155.412804528
 22
30.7551187255
 13
155.412804528
 23
30.7551187255
  0
SOLID
  8
0
 62
7
  6
CONTINUOUS
 10
155.412804528
 20
30.7551187255
 11
155.3549915869
 21
30.6905916353
 12
154.8924916972
 22
30.7228544637
 13
154.8924916972
 23
30.7228544637
  0
SOLID
  8
0
 62
7
  6
CONTINUOUS
 10
155.3549915869
 20
30.6905916353
 11
154.1987416972
 21
30.658327332
 12
154.8924916972
 22
30.7228544637
 13
154.8924916972
 23
30.7228544637
  0
SOLID
  8
0
 62
7
  6
CONTINUOUS
 10
154.1987416972
 20
30.658327332
 11
154.5456166972
 21
30.7228544637
 12
154.8924916972
 22
30.7228544637
 13
154.8924916972
 23
30.7228544637
  0
SOLID
  8
0
 62
7
  6
CONTINUOUS
 10
154.1987416972
 20
30.658327332
 11
155.3549915869
 21
30.6905916353
 12
154.3143669177
 22
30.6260630541
 13
154.3143669177
 23
30.6260630541
  0
SOLID
  8
0
 62
7
  6
CONTINUOUS
 10
155.3549915869
 20
30.6905916353
 11
155.1815540869
 21
30.6260630541
 12
154.3143669177
 22
30.6260630541
 13
154.3143669177
 23
30.6260630541
  0
SOLID
  8
0
 62
7
  6
CONTINUOUS
 10
154.5456166972
 20
30.5938002188
 11
154.3143669177
 21
30.6260630541
 12
155.1815540869
 22
30.6260630541
 13
155.1815540869
 23
30.6260630541
  0
SOLID
  8
0
 62
7
  6
CONTINUOUS
 10
155.1815540869
 20
30.6260630541
 11
154.8924916972
 21
30.5938002188
 12
154.5456166972
 22
30.5938002188
 13
154.5456166972
 23
30.5938002188
  0
SOLID
  8
0
 62
7
  6
CONTINUOUS
 10
159.575304528
 20
30.7551187255
 11
159.228429528
 21
30.7228544637
 12
159.4596793074
 22
30.7873815123
 13
159.4596793074
 23
30.7873815123
  0
SOLID
  8
0
 62
7
  6
CONTINUOUS
 10
159.4596793074
 20
30.7873815123
 11
159.228429528
 21
30.7228544637
 12
159.401867028
 22
30.851908644
 13
159.401867028
 23
30.851908644
  0
SOLID
  8
0
 62
7
  6
CONTINUOUS
 10
159.228429528
 20
30.7228544637
 11
159.1128043074
 21
30.851908644
 12
159.401867028
 22
30.851908644
 13
159.401867028
 23
30.851908644
  0
SOLID
  8
0
 62
7
  6
CONTINUOUS
 10
159.575304528
 20
30.7551187255
 11
159.922179528
 21
30.7228544637
 12
159.228429528
 22
30.7228544637
 13
159.228429528
 23
30.7228544637
  0
SOLID
  8
0
 62
7
  6
CONTINUOUS
 10
156.279992028
 20
30.5938002419
 11
156.279992028
 21
31.6262382337
 12
156.5690540869
 22
30.5938002419
 13
156.5690540869
 23
31.6262382337
  0
ENDBLK
  8
0
  6
BYBLOCK
 62
0
  0
BLOCK
  8
0
 62
2
  6
CONTINUOUS
  2
AMMEAAL_LOGO_BL0
 70
64
 10
32.1213064866
 20
19.8534310916
  0
TEXT
  8
0
 62
7
  6
CONTINUOUS
 10
18.3860103289
 20
19.2268451992
  7
TEXTSTYLE_3
 40
2.7338706658
  1
Ammeraal Beltech
 41
1.0
 51
15.0
 72
0
  0
TEXT
  8
0
 62
7
  6
CONTINUOUS
 10
29.1868111546
 20
16.9533085264
  7
TEXTSTYLE_4
 40
1.0935482663
  1
Innovation & Service in Belting
 41
1.0
 72
0
  0
LINE
  8
0
 62
7
  6
CONTINUOUS
 10
12.3614696776
 20
19.9934385078
 11
13.1396216709
 21
23.6543558055
  0
LINE
  8
0
 62
7
  6
CONTINUOUS
 10
23.2347899607
 20
27.3177497171
 11
13.6274394139
 21
24.1961322958
  0
LINE
  8
0
 62
7
  6
CONTINUOUS
 10
12.5867530099
 20
19.3000877048
 11
20.093828271
 21
12.5406867788
  0
LINE
  8
0
 62
7
  6
CONTINUOUS
 10
12.8492874206
 20
20.5352149982
 11
23.6575567857
 21
24.0470345971
  0
LINE
  8
0
 62
7
  6
CONTINUOUS
 10
23.6533516486
 20
13.6972460334
 11
15.2078919798
 21
21.3015720751
  0
LINE
  8
0
 62
7
  6
CONTINUOUS
 10
24.1731743684
 20
26.4728246013
 11
23.1966148312
 21
21.8784731989
  0
LINE
  8
0
 62
7
  6
CONTINUOUS
 10
22.4968128835
 20
18.5861638851
 11
21.810364672
 21
15.3566789607
  0
LINE
  8
0
 62
7
  6
CONTINUOUS
 10
24.8542704669
 20
14.087448211
 11
25.8105020025
 21
18.5861638851
  0
LINE
  8
0
 62
7
  6
CONTINUOUS
 10
26.5103039502
 20
21.8784731989
 11
26.9545457526
 21
23.9684665583
  0
LINE
  8
0
 62
7
  6
CONTINUOUS
 10
20.8069293463
 20
12.3891124661
 11
24.3664527239
 21
13.5456717207
  0
LINE
  8
0
 62
7
  6
CONTINUOUS
 10
23.9478910361
 20
27.1661754044
 11
26.7292624203
 21
24.6618173613
  0
ARC
  8
0
 62
7
  6
CONTINUOUS
 10
13.8527227462
 20
23.5027814928
 40
0.7290321776
 50
108.0
 51
168.0
  0
ARC
  8
0
 62
7
  6
CONTINUOUS
 10
23.4600732931
 20
26.624398914
 40
0.7290321776
 50
348.0
 51
108.0
  0
ARC
  8
0
 62
7
  6
CONTINUOUS
 10
26.2414446773
 20
24.120040871
 40
0.7290321776
 50
348.0
 51
48.0
  0
ARC
  8
0
 62
7
  6
CONTINUOUS
 10
20.581646014
 20
13.0824632691
 40
0.7290321776
 50
228.0
 51
288.0
  0
ARC
  8
0
 62
7
  6
CONTINUOUS
 10
13.0745707529
 20
19.8418641951
 40
0.7290321776
 50
108.0
 51
228.0
  0
ARC
  8
0
 62
7
  6
CONTINUOUS
 10
24.1411693916
 20
14.2390225237
 40
0.7290321776
 50
228.0
 51
348.0
  0
ENDBLK
  8
0
  6
BYBLOCK
 62
0
  0
ENDSEC
  0
SECTION
  2
ENTITIES
  0
TEXT
  8
0
 62
5
  6
CONTINUOUS
 10
96.0
 20
25.636
  7
TEXTSTYLE_2
 40
2.8
  1
Scale :
 41
0.6
 51
0.000019
 72
0
  0
TEXT
  8
0
 62
5
  6
CONTINUOUS
 10
116.0
 20
25.636
  7
TEXTSTYLE_2
 40
2.8
  1
Belt type:
 41
0.6
 51
0.000019
 72
0
  0
INSERT
  8
0
 62
2
  6
CONTINUOUS
  2
AMMEAAL_LOGO_BL0
 10
32.1213064866
 20
19.8534310916
  0
INSERT
  8
0
 62
2
  6
CONTINUOUS
  2
UNI_LOGO2_BL1
 10
173.5956734183
 20
35.5937998301
  0
LINE
  8
0
 62
2
  6
CONTINUOUS
 10
10.0
 20
30.0
 11
200.0
 21
30.0
  0
LINE
  8
0
 62
2
  6
CONTINUOUS
 10
10.0
 20
30.0
 11
10.0
 21
10.0
  0
LINE
  8
0
 62
2
  6
CONTINUOUS
 10
10.0
 20
10.0
 11
200.0
 21
10.0
  0
LINE
  8
0
 62
2
  6
CONTINUOUS
 10
95.0
 20
30.0
 11
95.0
 21
10.0
  0
LINE
  8
0
 62
2
  6
CONTINUOUS
 10
115.0
 20
30.0
 11
115.0
 21
10.0
  0
LINE
  8
0
 62
2
  6
CONTINUOUS
 10
200.0
 20
30.0
 11
200.0
 21
10.0
  0
TEXT
  8
0
 62
5
  6
CONTINUOUS
 10
13.0
 20
23.303
  7
TEXTSTYLE_5
 40
1.52
  1
                                                                     Ammeraal Beltech Modular A/S
 41
1.0
 72
0
  0
TEXT
  8
0
 62
5
  6
CONTINUOUS
 10
13.0
 20
20.595
  7
TEXTSTYLE_5
 40
1.5
  1
                                                                      Hjulmagervej 21,  7100 Vejle,  DK
 41
1.0
 72
0
  0
TEXT
  8
0
 62
5
  6
CONTINUOUS
 10
13.0
 20
17.881
  7
TEXTSTYLE_5
 40
1.495
  1
                                                                      tel: 
 41
1.0
 72
0
  0
TEXT
  8
0
 62
5
  6
CONTINUOUS
 10
57.9869465649
 20
17.881
  7
TEXTSTYLE_5
 40
1.51
  1
+45 75723100     fax: +45 75723348
 41
1.0
 72
0
  0
TEXT
  8
0
 62
5
  6
CONTINUOUS
 10
13.0
 20
15.177
  7
TEXTSTYLE_5
 40
1.5
  1
                                                                      admin@unichains.dk  www.unichains.com
 41
1.0
 72
0
  0
TEXT
  8
0
 62
5
  6
CONTINUOUS
 10
99.75
 20
13.75
  7
TEXTSTYLE_6
 40
5.0
  1
1:1
 41
0.7
 72
1
 11
105.0
 21
13.75
  0
TEXT
  8
0
 62
5
  6
CONTINUOUS
 10
118.0
 20
13.75
  7
TEXTSTYLE_7
 40
7.5
  1
Sprocket Z19 60X60 SQ
 41
0.5178571429
 72
0
  0
LINE
  8
0
 62
7
  6
CONTINUOUS
 10
210.0
 20
0.0
 11
0.0
 21
0.0
  0
LINE
  8
0
 62
7
  6
CONTINUOUS
 10
10.0
 20
10.0
 11
200.0
 21
10.0
  0
LINE
  8
0
 62
7
  6
CONTINUOUS
 10
10.0
 20
30.0
 11
200.0
 21
30.0
  0
LINE
  8
0
 62
7
  6
CONTINUOUS
 10
0.0
 20
0.0
 11
0.0
 21
297.0
  0
LINE
  8
0
 62
7
  6
CONTINUOUS
 10
10.0
 20
10.0
 11
10.0
 21
287.0
  0
LINE
  8
0
 62
7
  6
CONTINUOUS
 10
200.0
 20
287.0
 11
200.0
 21
10.0
  0
LINE
  8
0
 62
7
  6
CONTINUOUS
 10
210.0
 20
0.0
 11
210.0
 21
297.0
  0
LINE
  8
0
 62
7
  6
CONTINUOUS
 10
10.0
 20
287.0
 11
200.0
 21
287.0
  0
LINE
  8
0
 62
7
  6
CONTINUOUS
 10
0.0
 20
297.0
 11
210.0
 21
297.0
  0
LINE
  8
0
 62
7
  6
CONTINUOUS
 10
27.2486990177
 20
190.7749104758
 11
27.7784722407
 21
184.3814984688
  0
LINE
  8
0
 62
7
  6
CONTINUOUS
 10
30.3953813615
 20
215.9628949369
 11
28.820512525
 21
209.7438785431
  0
LINE
  8
0
 62
7
  6
CONTINUOUS
 10
41.5500929614
 20
238.7643988372
 11
38.0412435403
 21
233.3937049807
  0
LINE
  8
0
 62
7
  6
CONTINUOUS
 10
59.5040477322
 20
256.7085254271
 11
54.4414560067
 21
252.7681521223
  0
LINE
  8
0
 62
7
  6
CONTINUOUS
 10
82.3116560902
 20
267.8507501589
 11
76.2439324281
 21
265.7676979946
  0
LINE
  8
0
 62
7
  6
CONTINUOUS
 10
120.1385142936
 20
118.4758651948
 11
113.810687356
 21
117.4199376371
  0
LINE
  8
0
 62
7
  6
CONTINUOUS
 10
94.7767086012
 20
117.4199376371
 11
88.4488816636
 21
118.4758651948
  0
LINE
  8
0
 62
7
  6
CONTINUOUS
 10
64.8041076765
 20
127.7095445314
 11
70.4462163791
 21
124.6561879934
  0
LINE
  8
0
 62
7
  6
CONTINUOUS
 10
45.4386435428
 20
144.1203632152
 11
49.7836239861
 21
139.4004562556
  0
LINE
  8
0
 62
7
  6
CONTINUOUS
 10
32.4510377875
 20
165.929954402
 11
35.0280439212
 21
160.0549721767
  0
LINE
  8
QUILTS
 62
7
  6
CONTINUOUS
 10
46.4611070869
 20
197.1685337828
 11
46.4451819409
 21
196.6479438729
  0
LINE
  8
QUILTS
 62
7
  6
CONTINUOUS
 10
46.3814813721
 20
194.5655847172
 11
46.3655562296
 21
194.044994919
  0
LINE
  8
QUILTS
 62
7
  6
CONTINUOUS
 10
47.9175976365
 20
210.5119668566
 11
47.9391322467
 21
210.9414600184
  0
LINE
  8
QUILTS
 62
7
  6
CONTINUOUS
 10
47.3293574948
 20
211.1301365367
 11
47.2770316864
 21
210.6011307519
  0
LINE
  8
QUILTS
 62
7
  6
CONTINUOUS
 10
46.7405102772
 20
200.3205872522
 11
46.6975819812
 21
199.9061376919
  0
LINE
  8
QUILTS
 62
7
  6
CONTINUOUS
 10
46.6009933613
 20
198.9736266257
 11
46.5473330066
 21
198.4555648235
  0
LINE
  8
QUILTS
 62
7
  6
CONTINUOUS
 10
45.5010848013
 20
203.0916947609
 11
45.4232327835
 21
202.5767129966
  0
LINE
  8
QUILTS
 62
7
  6
CONTINUOUS
 10
45.9491717444
 20
202.4972045321
 11
46.0270237622
 21
203.0121862963
  0
LINE
  8
QUILTS
 62
7
  6
CONTINUOUS
 10
47.0789019788
 20
202.8531693226
 11
47.001049961
 21
202.3381875584
  0
LINE
  8
QUILTS
 62
7
  6
CONTINUOUS
 10
47.5756853182
 20
211.9262318263
 11
47.3293574948
 21
211.1301365367
  0
LINE
  8
QUILTS
 62
7
  6
CONTINUOUS
 10
47.9391322467
 20
210.9414600184
 11
48.1854600702
 21
211.737555308
  0
LINE
  8
QUILTS
 62
7
  6
CONTINUOUS
 10
50.0984249351
 20
218.5871434997
 11
49.8597557309
 21
218.0095086575
  0
LINE
  8
QUILTS
 62
7
  6
CONTINUOUS
 10
48.86530041
 20
215.6026960803
 11
48.5072970589
 21
214.7362449187
  0
LINE
  8
QUILTS
 62
7
  6
CONTINUOUS
 10
51.8015423933
 20
221.9609469049
 11
50.6455520029
 21
219.7442632971
  0
LINE
  8
QUILTS
 62
7
  6
CONTINUOUS
 10
51.5005113052
 20
220.0032877516
 11
52.4156707318
 21
221.7581629791
  0
LINE
  8
QUILTS
 62
7
  6
CONTINUOUS
 10
53.7362483071
 20
221.0694877971
 11
52.8210888805
 21
219.3146125696
  0
LINE
  8
QUILTS
 62
7
  6
CONTINUOUS
 10
47.8312690249
 20
212.3923442994
 11
47.5756853182
 21
211.9262318263
  0
LINE
  8
QUILTS
 62
7
  6
CONTINUOUS
 10
61.2398361241
 20
232.6630067728
 11
60.8269253724
 21
232.0526759146
  0
LINE
  8
QUILTS
 62
7
  6
CONTINUOUS
 10
57.5831611192
 20
230.8009879648
 11
56.0534359942
 21
228.8236308798
  0
LINE
  8
QUILTS
 62
7
  6
CONTINUOUS
 10
56.9407243434
 20
228.9274020806
 11
58.1517572203
 21
230.4928104015
  0
LINE
  8
QUILTS
 62
7
  6
CONTINUOUS
 10
59.3297572812
 20
229.5814847213
 11
58.1187244042
 21
228.0160764004
  0
LINE
  8
QUILTS
 62
7
  6
CONTINUOUS
 10
52.1367014104
 20
222.3735663246
 11
51.8015423933
 21
221.9609469049
  0
LINE
  8
QUILTS
 62
7
  6
CONTINUOUS
 10
61.6611194423
 20
233.1246866901
 11
61.2398361241
 21
232.6630067728
  0
LINE
  8
QUILTS
 62
7
  6
CONTINUOUS
 10
61.5541701504
 20
232.3761767058
 11
61.9754534686
 21
232.8378566231
  0
LINE
  8
QUILTS
 62
7
  6
CONTINUOUS
 10
62.6138480146
 20
236.4034042836
 11
62.2437507233
 21
236.0369387166
  0
LINE
  8
QUILTS
 62
7
  6
CONTINUOUS
 10
63.681686279
 20
237.4258125291
 11
63.3025985694
 21
237.0686549655
  0
LINE
  8
QUILTS
 62
7
  6
CONTINUOUS
 10
57.9859976708
 20
231.1478439363
 11
57.5831611192
 21
230.8009879648
  0
LINE
  8
QUILTS
 62
7
  6
CONTINUOUS
 10
76.5703662601
 20
246.5879361007
 11
76.1573290276
 21
246.2532995369
  0
LINE
  8
QUILTS
 62
7
  6
CONTINUOUS
 10
72.1367209458
 20
244.0454665772
 11
68.7110105884
 21
241.6736304924
  0
LINE
  8
QUILTS
 62
7
  6
CONTINUOUS
 10
69.0137982531
 20
241.2363056513
 11
72.0112933457
 21
243.3116612076
  0
LINE
  8
QUILTS
 62
7
  6
CONTINUOUS
 10
74.2079940829
 20
245.2774198362
 11
73.6721182571
 21
244.955764587
  0
LINE
  8
QUILTS
 62
7
  6
CONTINUOUS
 10
77.032479887
 20
246.8281859969
 11
76.5703662601
 21
246.5879361007
  0
LINE
  8
QUILTS
 62
7
  6
CONTINUOUS
 10
76.7233060452
 20
246.067942666
 11
77.3702617382
 21
246.4042907612
  0
LINE
  8
QUILTS
 62
7
  6
CONTINUOUS
 10
77.5436656775
 20
246.9740470261
 11
77.032479887
 21
246.8281859969
  0
LINE
  8
QUILTS
 62
7
  6
CONTINUOUS
 10
51.7332237194
 20
210.966923808
 11
51.7424799549
 21
210.6369421304
  0
LINE
  8
QUILTS
 62
7
  6
CONTINUOUS
 10
52.4045802252
 20
210.9772702387
 11
52.3953239807
 21
211.3072519191
  0
LINE
  8
QUILTS
 62
7
  6
CONTINUOUS
 10
54.3082267571
 20
221.4760854754
 11
54.3102319714
 21
221.7099994793
  0
LINE
  8
QUILTS
 62
7
  6
CONTINUOUS
 10
49.3938472557
 20
195.6198041016
 11
49.3811071399
 21
195.2033322035
  0
LINE
  8
QUILTS
 62
7
  6
CONTINUOUS
 10
49.8064400781
 20
195.1903210233
 11
49.8191801939
 21
195.6067929215
  0
LINE
  8
QUILTS
 62
7
  6
CONTINUOUS
 10
49.8542155067
 20
196.7520904552
 11
49.8701406526
 21
197.2726803652
  0
LINE
  8
QUILTS
 62
7
  6
CONTINUOUS
 10
52.3522547781
 20
210.4482655901
 11
52.4045802252
 21
210.9772702387
  0
LINE
  8
QUILTS
 62
7
  6
CONTINUOUS
 10
49.9334723737
 20
198.1048316899
 11
49.9871327283
 21
198.6228934921
  0
LINE
  8
QUILTS
 62
7
  6
CONTINUOUS
 10
50.1803099682
 20
200.4879156244
 11
50.2339702921
 21
201.0059771302
  0
LINE
  8
QUILTS
 62
7
  6
CONTINUOUS
 10
50.3670596058
 20
201.8293333405
 11
50.4449116237
 21
202.3443151047
  0
LINE
  8
QUILTS
 62
7
  6
CONTINUOUS
 10
53.7864201551
 20
221.3957643227
 11
53.7362483071
 21
221.0694877971
  0
LINE
  8
QUILTS
 62
7
  6
CONTINUOUS
 10
55.7672863199
 20
220.3627516531
 11
55.7171144719
 21
220.0364751276
  0
LINE
  8
QUILTS
 62
7
  6
CONTINUOUS
 10
59.9646170964
 20
229.8805399574
 11
60.0079508592
 21
230.1104137643
  0
LINE
  8
QUILTS
 62
7
  6
CONTINUOUS
 10
60.8269253724
 20
232.0526759146
 11
60.7650805706
 21
231.827074505
  0
LINE
  8
QUILTS
 62
7
  6
CONTINUOUS
 10
61.2900554524
 20
231.7710835161
 11
61.3519002543
 21
231.9966849257
  0
LINE
  8
QUILTS
 62
7
  6
CONTINUOUS
 10
61.9019848003
 20
231.4947323085
 11
61.7782968037
 21
231.0435312505
  0
LINE
  8
QUILTS
 62
7
  6
CONTINUOUS
 10
62.2949024432
 20
231.1361946243
 11
62.356745638
 21
231.3617942727
  0
LINE
  8
QUILTS
 62
7
  6
CONTINUOUS
 10
56.234909609
 20
219.648966124
 11
56.3814147162
 21
220.1599676972
  0
LINE
  8
QUILTS
 62
7
  6
CONTINUOUS
 10
49.68736673
 20
194.7771019947
 11
49.8064400781
 21
195.1903210233
  0
LINE
  8
QUILTS
 62
7
  6
CONTINUOUS
 10
51.2558688673
 20
211.2236657461
 11
51.0711230878
 21
210.6265945636
  0
LINE
  8
QUILTS
 62
7
  6
CONTINUOUS
 10
51.7424799549
 20
210.6369421304
 11
51.4961521314
 21
209.8408468408
  0
LINE
  8
QUILTS
 62
7
  6
CONTINUOUS
 10
52.1059269546
 20
209.6521703005
 11
52.3522547781
 21
210.4482655901
  0
LINE
  8
QUILTS
 62
7
  6
CONTINUOUS
 10
52.6601642932
 20
211.4433838479
 11
52.8449100727
 21
212.0404550304
  0
LINE
  8
QUILTS
 62
7
  6
CONTINUOUS
 10
59.4368300771
 20
229.8937490354
 11
59.3297572812
 21
229.5814847213
  0
LINE
  8
QUILTS
 62
7
  6
CONTINUOUS
 10
61.2038299916
 20
228.5267606519
 11
61.0967571956
 21
228.2144963379
  0
LINE
  8
QUILTS
 62
7
  6
CONTINUOUS
 10
63.9149316339
 20
231.4911301821
 11
63.7210295106
 21
230.9629821526
  0
LINE
  8
QUILTS
 62
7
  6
CONTINUOUS
 10
47.120849365
 20
199.862296054
 11
47.269594507
 21
200.2657852049
  0
LINE
  8
QUILTS
 62
7
  6
CONTINUOUS
 10
53.1283757969
 20
212.8268912852
 11
53.3670450011
 21
213.4045261274
  0
LINE
  8
QUILTS
 62
7
  6
CONTINUOUS
 10
54.3614998668
 20
215.8113376029
 11
54.719503673
 21
216.6777898662
  0
LINE
  8
QUILTS
 62
7
  6
CONTINUOUS
 10
46.8785233298
 20
200.6204638648
 11
46.7405102772
 21
200.3205872522
  0
LINE
  8
QUILTS
 62
7
  6
CONTINUOUS
 10
61.5378752893
 20
227.7415377147
 11
61.7724261443
 21
228.2185830487
  0
LINE
  8
QUILTS
 62
7
  6
CONTINUOUS
 10
53.3870505853
 20
219.0194661221
 11
54.3022100119
 21
220.7743413497
  0
LINE
  8
QUILTS
 62
7
  6
CONTINUOUS
 10
55.7171144719
 20
220.0364751276
 11
54.8019550453
 21
218.2815999001
  0
LINE
  8
QUILTS
 62
7
  6
CONTINUOUS
 10
55.0789192185
 20
217.4322825162
 11
56.234909609
 21
219.648966124
  0
LINE
  8
QUILTS
 62
7
  6
CONTINUOUS
 10
61.3519002543
 20
231.9966849257
 11
61.5541701504
 21
232.3761767058
  0
LINE
  8
QUILTS
 62
7
  6
CONTINUOUS
 10
62.356745638
 20
231.3617942727
 11
62.5590155341
 21
231.7412860528
  0
LINE
  8
QUILTS
 62
7
  6
CONTINUOUS
 10
51.8503428866
 20
209.1860566913
 11
52.1059269546
 21
209.6521703005
  0
LINE
  8
QUILTS
 62
7
  6
CONTINUOUS
 10
64.0353635644
 20
230.6761520605
 11
64.3078492149
 21
231.1325925544
  0
LINE
  8
QUILTS
 62
7
  6
CONTINUOUS
 10
76.1573290276
 20
246.2532995369
 11
75.8424318916
 21
245.7298830396
  0
LINE
  8
QUILTS
 62
7
  6
CONTINUOUS
 10
48.1854600702
 20
211.737555308
 11
48.4102529311
 21
212.104156297
  0
LINE
  8
QUILTS
 62
7
  6
CONTINUOUS
 10
51.4961521314
 20
209.8408468408
 11
51.2713592706
 21
209.4742458518
  0
LINE
  8
QUILTS
 62
7
  6
CONTINUOUS
 10
62.2446813978
 20
232.0281162202
 11
61.9019848003
 21
231.4947323085
  0
LINE
  8
QUILTS
 62
7
  6
CONTINUOUS
 10
47.269594507
 20
200.2657852049
 11
47.3968754702
 21
200.4620492792
  0
LINE
  8
QUILTS
 62
7
  6
CONTINUOUS
 10
58.6235814721
 20
227.6255083299
 11
59.8346143491
 21
229.1909166509
  0
LINE
  8
QUILTS
 62
7
  6
CONTINUOUS
 10
61.0967571956
 20
228.2144963379
 11
59.8857243187
 21
226.649088017
  0
LINE
  8
QUILTS
 62
7
  6
CONTINUOUS
 10
60.0081501643
 20
225.7641806297
 11
61.5378752893
 21
227.7415377147
  0
LINE
  8
QUILTS
 62
7
  6
CONTINUOUS
 10
61.0259407545
 20
231.1659903265
 11
61.3770099184
 21
231.5507232974
  0
LINE
  8
QUILTS
 62
7
  6
CONTINUOUS
 10
63.0170322729
 20
232.8745273473
 11
62.2446813978
 21
232.0281162202
  0
LINE
  8
QUILTS
 62
7
  6
CONTINUOUS
 10
62.5590155341
 20
231.7412860528
 11
63.3313664092
 21
232.5876971799
  0
LINE
  8
QUILTS
 62
7
  6
CONTINUOUS
 10
63.7210295106
 20
230.9629821526
 11
63.2997477995
 21
230.5013039964
  0
LINE
  8
QUILTS
 62
7
  6
CONTINUOUS
 10
63.6140818533
 20
230.2144739043
 11
64.0353635644
 21
230.6761520605
  0
LINE
  8
QUILTS
 62
7
  6
CONTINUOUS
 10
64.8077144395
 20
231.5225631876
 11
65.1587803893
 21
231.9072926361
  0
LINE
  8
QUILTS
 62
7
  6
CONTINUOUS
 10
76.4951108788
 20
245.8294043012
 11
76.7233060452
 21
246.067942666
  0
LINE
  8
QUILTS
 62
7
  6
CONTINUOUS
 10
78.5799003146
 20
244.7550515208
 11
78.3517051482
 21
244.516513156
  0
LINE
  8
QUILTS
 62
7
  6
CONTINUOUS
 10
79.4141271993
 20
243.1504405829
 11
79.185932033
 21
242.911902218
  0
LINE
  8
QUILTS
 62
7
  6
CONTINUOUS
 10
48.1576913635
 20
212.7275003408
 11
47.8312690249
 21
212.3923442994
  0
LINE
  8
QUILTS
 62
7
  6
CONTINUOUS
 10
65.76180943
 20
232.4840155629
 11
66.1319067213
 21
232.8504811299
  0
LINE
  8
QUILTS
 62
7
  6
CONTINUOUS
 10
52.4156707318
 20
221.7581629791
 11
52.6544964814
 21
221.9860573555
  0
LINE
  8
QUILTS
 62
7
  6
CONTINUOUS
 10
54.3022100119
 20
220.7743413497
 11
54.5410357615
 21
221.0022357261
  0
LINE
  8
QUILTS
 62
7
  6
CONTINUOUS
 10
66.7313007168
 20
233.4294240599
 11
67.1103884264
 21
233.7865816236
  0
LINE
  8
QUILTS
 62
7
  6
CONTINUOUS
 10
78.504645002
 20
243.9965195891
 11
78.9176863966
 21
244.3311584846
  0
LINE
  8
QUILTS
 62
7
  6
CONTINUOUS
 10
79.3388718524
 20
242.3919087173
 11
79.7519133114
 21
242.7265474888
  0
LINE
  8
QUILTS
 62
7
  6
CONTINUOUS
 10
62.16098466
 20
233.5146573295
 11
61.6611194423
 21
233.1246866901
  0
LINE
  8
QUILTS
 62
7
  6
CONTINUOUS
 10
54.498885873
 20
221.6116173301
 11
54.3082267571
 21
221.4760854754
  0
LINE
  8
QUILTS
 62
7
  6
CONTINUOUS
 10
74.6195800932
 20
240.4594024509
 11
71.7077264855
 21
238.4433419145
  0
LINE
  8
QUILTS
 62
7
  6
CONTINUOUS
 10
71.557214976
 20
237.5627764954
 11
74.9829253333
 21
239.9346125803
  0
LINE
  8
QUILTS
 62
7
  6
CONTINUOUS
 10
58.1517572203
 20
230.4928104015
 11
58.4271157056
 21
230.6748853587
  0
LINE
  8
QUILTS
 62
7
  6
CONTINUOUS
 10
59.8346143491
 20
229.1909166509
 11
60.1099728344
 21
229.3729916081
  0
LINE
  8
QUILTS
 62
7
  6
CONTINUOUS
 10
61.9754534686
 20
232.8378566231
 11
62.3348903778
 21
233.0739333697
  0
LINE
  8
QUILTS
 62
7
  6
CONTINUOUS
 10
63.2546433301
 20
229.9783954028
 11
63.6140818533
 21
230.2144739043
  0
LINE
  8
QUILTS
 62
7
  6
CONTINUOUS
 10
76.2453602505
 20
240.6687579806
 11
76.7812360763
 21
240.9904132298
  0
LINE
  8
QUILTS
 62
7
  6
CONTINUOUS
 10
78.3517051482
 20
244.516513156
 11
77.7047494552
 21
244.1801650609
  0
LINE
  8
QUILTS
 62
7
  6
CONTINUOUS
 10
78.0425313751
 20
243.7562696929
 11
78.504645002
 21
243.9965195891
  0
LINE
  8
QUILTS
 62
7
  6
CONTINUOUS
 10
77.5975876308
 20
242.8055392961
 11
77.1354740039
 21
242.5652893999
  0
LINE
  8
QUILTS
 62
7
  6
CONTINUOUS
 10
79.185932033
 20
242.911902218
 11
78.631397373
 21
242.6236032223
  0
LINE
  8
QUILTS
 62
7
  6
CONTINUOUS
 10
78.9691834894
 20
242.19971012
 11
79.3388718524
 21
242.3919087173
  0
LINE
  8
QUILTS
 62
7
  6
CONTINUOUS
 10
60.1762365485
 20
229.9802244074
 11
59.9646170964
 21
229.8805399574
  0
LINE
  8
QUILTS
 62
7
  6
CONTINUOUS
 10
62.3348903778
 20
233.0739333697
 11
62.5539021928
 21
233.1561197458
  0
LINE
  8
QUILTS
 62
7
  6
CONTINUOUS
 10
77.5313497467
 20
243.6104109954
 11
78.0425313751
 21
243.7562696929
  0
LINE
  8
QUILTS
 62
7
  6
CONTINUOUS
 10
78.4579976946
 20
242.0538490991
 11
78.9691834894
 21
242.19971012
  0
LINE
  8
QUILTS
 62
7
  6
CONTINUOUS
 10
49.3002541045
 20
196.0395286467
 11
49.3938472557
 21
195.6198041016
  0
LINE
  8
QUILTS
 62
7
  6
CONTINUOUS
 10
49.8191801939
 20
195.6067929215
 11
49.7255870706
 21
196.0265174657
  0
LINE
  8
QUILTS
 62
7
  6
CONTINUOUS
 10
47.2770316864
 20
210.6011307519
 11
47.3571262014
 21
210.1401915038
  0
LINE
  8
QUILTS
 62
7
  6
CONTINUOUS
 10
46.6975819812
 20
199.9061376919
 11
46.7604705312
 21
199.4807277221
  0
LINE
  8
QUILTS
 62
7
  6
CONTINUOUS
 10
47.183737915
 20
199.4368860842
 11
47.120849365
 21
199.862296054
  0
LINE
  8
QUILTS
 62
7
  6
CONTINUOUS
 10
61.7724261443
 20
228.2185830487
 11
61.7749508031
 21
228.743425358
  0
LINE
  8
QUILTS
 62
7
  6
CONTINUOUS
 10
64.3078492149
 20
231.1325925544
 11
64.3613230367
 21
231.5068466848
  0
LINE
  8
QUILTS
 62
7
  6
CONTINUOUS
 10
76.3159878761
 20
245.4964770693
 11
76.4951108788
 21
245.8294043012
  0
LINE
  8
QUILTS
 62
7
  6
CONTINUOUS
 10
78.7590233173
 20
245.0879787528
 11
78.5799003146
 21
244.7550515208
  0
LINE
  8
QUILTS
 62
7
  6
CONTINUOUS
 10
78.9176863966
 20
244.3311584846
 11
79.275932402
 21
244.9970129485
  0
LINE
  8
QUILTS
 62
7
  6
CONTINUOUS
 10
79.5932502021
 20
243.4833678148
 11
79.4141271993
 21
243.1504405829
  0
LINE
  8
QUILTS
 62
7
  6
CONTINUOUS
 10
49.3811071399
 20
195.2033322035
 11
49.1557005386
 21
194.7933659704
  0
LINE
  8
QUILTS
 62
7
  6
CONTINUOUS
 10
79.7519133114
 20
242.7265474888
 11
80.0668062037
 21
243.2499618114
  0
LINE
  8
QUILTS
 62
7
  6
CONTINUOUS
 10
49.4651451647
 20
194.4712536614
 11
49.68736673
 21
194.7771019947
  0
LINE
  8
QUILTS
 62
7
  6
CONTINUOUS
 10
47.1223532284
 20
200.909380068
 11
46.8785233298
 21
200.6204638648
  0
LINE
  8
QUILTS
 62
7
  6
CONTINUOUS
 10
51.5239208737
 20
208.8509017969
 11
51.8503428866
 21
209.1860566913
  0
LINE
  8
QUILTS
 62
7
  6
CONTINUOUS
 10
48.4102529311
 20
212.104156297
 11
48.7058840715
 21
212.3397997154
  0
LINE
  8
QUILTS
 62
7
  6
CONTINUOUS
 10
51.2713592706
 20
209.4742458518
 11
50.975728059
 21
209.2386024554
  0
LINE
  8
QUILTS
 62
7
  6
CONTINUOUS
 10
52.6123465929
 20
222.5954389595
 11
52.1367014104
 21
222.3735663246
  0
LINE
  8
QUILTS
 62
7
  6
CONTINUOUS
 10
63.2997477995
 20
230.5013039964
 11
62.861725749
 21
230.3369330305
  0
LINE
  8
QUILTS
 62
7
  6
CONTINUOUS
 10
63.0356331153
 20
229.8962107942
 11
63.2546433301
 21
229.9783954028
  0
LINE
  8
QUILTS
 62
7
  6
CONTINUOUS
 10
49.0971427397
 20
196.3583881226
 11
49.3002541045
 21
196.0395286467
  0
LINE
  8
QUILTS
 62
7
  6
CONTINUOUS
 10
46.7604705312
 20
199.4807277221
 11
46.9399080471
 21
199.1479701775
  0
LINE
  8
QUILTS
 62
7
  6
CONTINUOUS
 10
47.363175431
 20
199.1041285396
 11
47.183737915
 21
199.4368860842
  0
LINE
  8
QUILTS
 62
7
  6
CONTINUOUS
 10
49.7255870706
 20
196.0265174657
 11
49.6256238963
 21
196.2380062843
  0
LINE
  8
QUILTS
 62
7
  6
CONTINUOUS
 10
48.0284829974
 20
210.1505390926
 11
47.9175976365
 21
210.5119668566
  0
LINE
  8
QUILTS
 62
7
  6
CONTINUOUS
 10
56.3814147162
 20
220.1599676972
 11
56.2910981692
 21
220.6769867925
  0
LINE
  8
QUILTS
 62
7
  6
CONTINUOUS
 10
60.7650805706
 20
231.827074505
 11
60.7818208824
 21
231.5297673399
  0
LINE
  8
QUILTS
 62
7
  6
CONTINUOUS
 10
61.7782968037
 20
231.0435312505
 11
61.7950372256
 21
230.7462239849
  0
LINE
  8
QUILTS
 62
7
  6
CONTINUOUS
 10
62.311641148
 20
230.838885698
 11
62.2949024432
 21
231.1361946243
  0
LINE
  8
QUILTS
 62
7
  6
CONTINUOUS
 10
63.8898219147
 20
231.9370918606
 11
63.9149316339
 21
231.4911301821
  0
LINE
  8
QUILTS
 62
7
  6
CONTINUOUS
 10
75.8424318916
 20
245.7298830396
 11
75.7614532162
 21
245.2081780736
  0
LINE
  8
QUILTS
 62
7
  6
CONTINUOUS
 10
73.6721182571
 20
244.955764587
 11
73.5194911931
 21
243.9956190684
  0
LINE
  8
QUILTS
 62
7
  6
CONTINUOUS
 10
73.9574899315
 20
243.2659156477
 11
74.1101168421
 21
244.2260614219
  0
LINE
  8
QUILTS
 62
7
  6
CONTINUOUS
 10
71.7077264855
 20
238.4433419145
 11
72.5606236764
 21
243.4332117996
  0
LINE
  8
QUILTS
 62
7
  6
CONTINUOUS
 10
72.0112933457
 20
243.3116612076
 11
71.07275467
 21
238.2624963026
  0
LINE
  8
QUILTS
 62
7
  6
CONTINUOUS
 10
49.1365903666
 20
194.1686581791
 11
49.4651451647
 21
194.4712536614
  0
LINE
  8
QUILTS
 62
7
  6
CONTINUOUS
 10
47.3554510376
 20
201.0946837328
 11
47.1223532284
 21
200.909380068
  0
LINE
  8
QUILTS
 62
7
  6
CONTINUOUS
 10
47.3968754702
 20
200.4620492792
 11
47.6299732795
 21
200.647352944
  0
LINE
  8
QUILTS
 62
7
  6
CONTINUOUS
 10
48.6873716004
 20
212.9997630707
 11
48.1576913635
 21
212.7275003408
  0
LINE
  8
QUILTS
 62
7
  6
CONTINUOUS
 10
52.8449100727
 20
212.0404550304
 11
52.1828094411
 21
211.700125786
  0
LINE
  8
QUILTS
 62
7
  6
CONTINUOUS
 10
51.6531291331
 20
211.4278630782
 11
51.2558688673
 21
211.2236657461
  0
LINE
  8
QUILTS
 62
7
  6
CONTINUOUS
 10
52.3953239807
 20
211.3072519191
 11
52.6601642932
 21
211.4433838479
  0
LINE
  8
QUILTS
 62
7
  6
CONTINUOUS
 10
51.0711230878
 20
210.6265945636
 11
51.7332237194
 21
210.966923808
  0
LINE
  8
QUILTS
 62
7
  6
CONTINUOUS
 10
50.9942406013
 20
208.5786390781
 11
51.5239208737
 21
208.8509017969
  0
LINE
  8
QUILTS
 62
7
  6
CONTINUOUS
 10
129.5002793693
 20
245.8477186935
 11
129.2220795563
 21
245.7415317869
  0
LINE
  8
QUILTS
 62
7
  6
CONTINUOUS
 10
137.0176958006
 20
243.1389149333
 11
136.5181054225
 21
242.968201514
  0
LINE
  8
QUILTS
 62
7
  6
CONTINUOUS
 10
52.6544964814
 20
221.9860573555
 11
52.939482548
 21
222.0723981356
  0
LINE
  8
QUILTS
 62
7
  6
CONTINUOUS
 10
54.5410357615
 20
221.0022357261
 11
54.8260218281
 21
221.0885765062
  0
LINE
  8
QUILTS
 62
7
  6
CONTINUOUS
 10
49.6256238963
 20
196.2380062843
 11
49.3161792459
 21
196.5601184077
  0
LINE
  8
QUILTS
 62
7
  6
CONTINUOUS
 10
46.9399080471
 20
199.1479701775
 11
47.1300775911
 21
198.9188245784
  0
LINE
  8
QUILTS
 62
7
  6
CONTINUOUS
 10
47.5533449749
 20
198.8749829405
 11
47.363175431
 21
199.1041285396
  0
LINE
  8
QUILTS
 62
7
  6
CONTINUOUS
 10
47.3571262014
 20
210.1401915038
 11
47.6404789672
 21
209.6163600829
  0
LINE
  8
QUILTS
 62
7
  6
CONTINUOUS
 10
52.1828094411
 20
211.700125786
 11
52.0411332345
 21
211.9620420659
  0
LINE
  8
QUILTS
 62
7
  6
CONTINUOUS
 10
53.6940984186
 20
221.6788694012
 11
53.7864201551
 21
221.3957643227
  0
LINE
  8
QUILTS
 62
7
  6
CONTINUOUS
 10
55.6749645173
 20
220.6458567661
 11
55.7672863199
 21
220.3627516531
  0
LINE
  8
QUILTS
 62
7
  6
CONTINUOUS
 10
59.3960209953
 20
230.1887175207
 11
59.4368300771
 21
229.8937490354
  0
LINE
  8
QUILTS
 62
7
  6
CONTINUOUS
 10
61.1630208509
 20
228.8217291829
 11
61.2038299916
 21
228.5267606519
  0
LINE
  8
QUILTS
 62
7
  6
CONTINUOUS
 10
76.2783580701
 20
245.1172100697
 11
76.3159878761
 21
245.4964770693
  0
LINE
  8
QUILTS
 62
7
  6
CONTINUOUS
 10
78.7966531233
 20
245.4672457523
 11
78.7590233173
 21
245.0879787528
  0
LINE
  8
QUILTS
 62
7
  6
CONTINUOUS
 10
79.6308799737
 20
243.8626348804
 11
79.5932502021
 21
243.4833678148
  0
LINE
  8
QUILTS
 62
7
  6
CONTINUOUS
 10
80.0668062037
 20
243.2499618114
 11
80.147784862
 21
243.7716668105
  0
LINE
  8
0
 62
7
  6
CONTINUOUS
 10
100.4299946734
 20
232.5030895368
 11
65.7309944126
 21
197.804089276
  0
LINE
  8
QUILTS
 62
7
  6
CONTINUOUS
 10
49.1557005386
 20
194.7933659704
 11
48.8303307305
 21
194.5948884079
  0
LINE
  8
QUILTS
 62
7
  6
CONTINUOUS
 10
129.5617896833
 20
245.2338733401
 11
130.0235679516
 21
245.4897921716
  0
LINE
  8
QUILTS
 62
7
  6
CONTINUOUS
 10
136.6777468961
 20
242.4682171349
 11
137.0310638047
 21
242.6111319155
  0
LINE
  8
QUILTS
 62
7
  6
CONTINUOUS
 10
137.124639578
 20
238.9166504239
 11
136.7713226269
 21
238.7737355822
  0
LINE
  8
QUILTS
 62
7
  6
CONTINUOUS
 10
136.7846906097
 20
238.2459525338
 11
137.2842810091
 21
238.4166659837
  0
LINE
  8
QUILTS
 62
7
  6
CONTINUOUS
 10
48.7058840715
 20
212.3397997154
 11
49.0723537762
 21
212.4444854753
  0
LINE
  8
QUILTS
 62
7
  6
CONTINUOUS
 10
50.975728059
 20
209.2386024554
 11
50.609258639
 21
209.1339166074
  0
LINE
  8
QUILTS
 62
7
  6
CONTINUOUS
 10
48.7845130452
 20
196.5763823838
 11
49.0971427397
 21
196.3583881226
  0
LINE
  8
0
 62
7
  6
CONTINUOUS
 10
65.7309944126
 20
190.0766826656
 11
100.4299946734
 21
155.3776824048
  0
LINE
  8
QUILTS
 62
7
  6
CONTINUOUS
 10
48.2717886141
 20
209.8571766383
 11
48.0284829974
 21
210.1505390926
  0
LINE
  8
QUILTS
 62
7
  6
CONTINUOUS
 10
51.4098238011
 20
211.7212254444
 11
51.6531291331
 21
211.4278630782
  0
LINE
  8
QUILTS
 62
7
  6
CONTINUOUS
 10
54.3102319714
 20
221.7099994793
 11
54.077422967
 21
222.1838492286
  0
LINE
  8
QUILTS
 62
7
  6
CONTINUOUS
 10
56.2910981692
 20
220.6769867925
 11
56.0582891318
 21
221.150836559
  0
LINE
  8
QUILTS
 62
7
  6
CONTINUOUS
 10
60.0079508592
 20
230.1104137643
 11
59.8625951212
 21
230.6179621136
  0
LINE
  8
QUILTS
 62
7
  6
CONTINUOUS
 10
61.7749508031
 20
228.743425358
 11
61.6295950357
 21
229.2509737301
  0
LINE
  8
QUILTS
 62
7
  6
CONTINUOUS
 10
75.7614532162
 20
245.2081780736
 11
75.8219678749
 21
244.6401330756
  0
LINE
  8
0
 62
7
  6
CONTINUOUS
 10
76.0792755173
 20
262.8766304564
 11
76.0888827097
 21
262.6631511758
  0
LINE
  8
0
 62
7
  6
CONTINUOUS
 10
65.1621642458
 20
130.7972697229
 11
65.1175505484
 21
130.5882833133
  0
LINE
  8
0
 62
7
  6
CONTINUOUS
 10
99.9915727435
 20
268.3026825804
 11
99.9313427826
 21
268.0976507458
  0
LINE
  8
0
 62
7
  6
CONTINUOUS
 10
46.7798823504
 20
146.924526161
 11
46.6698281698
 21
146.7413492555
  0
LINE
  8
0
 62
7
  6
CONTINUOUS
 10
124.3700719933
 20
265.6704260169
 11
124.2465317299
 21
265.496060009
  0
LINE
  8
0
 62
7
  6
CONTINUOUS
 10
34.630114797
 20
168.1466805358
 11
34.4665462115
 21
168.0091631942
  0
LINE
  8
0
 62
7
  6
CONTINUOUS
 10
146.5729846016
 20
255.2651066082
 11
146.3995215402
 21
255.1403016895
  0
LINE
  8
QUILTS
 62
7
  6
CONTINUOUS
 10
136.5181054225
 20
242.968201514
 11
136.0432327502
 21
242.6506623795
  0
LINE
  8
QUILTS
 62
7
  6
CONTINUOUS
 10
49.8701406526
 20
197.2726803652
 11
49.6542891489
 21
197.1750677945
  0
LINE
  8
QUILTS
 62
7
  6
CONTINUOUS
 10
48.9207388875
 20
194.0710458033
 11
49.1365903666
 21
194.1686581791
  0
LINE
  8
0
 62
7
  6
CONTINUOUS
 10
30.0294774232
 20
192.163983125
 11
29.830119627
 21
192.0870274852
  0
LINE
  8
0
 62
7
  6
CONTINUOUS
 10
164.1942804735
 20
238.2143021673
 11
163.9896920284
 21
238.1525828873
  0
LINE
  8
0
 62
7
  6
CONTINUOUS
 10
177.8374376604
 20
183.4690720423
 11
178.0467429581
 21
183.5121648927
  0
LINE
  8
0
 62
7
  6
CONTINUOUS
 10
37.9228342579
 20
160.1296201178
 11
38.1347910429
 21
160.156823476
  0
LINE
  8
0
 62
7
  6
CONTINUOUS
 10
170.4526049143
 20
160.156823476
 11
170.6645616993
 21
160.1296201178
  0
LINE
  8
0
 62
7
  6
CONTINUOUS
 10
30.5406529991
 20
183.5121648927
 11
30.7499582968
 21
183.4690720423
  0
LINE
  8
0
 62
7
  6
CONTINUOUS
 10
155.8984280406
 20
140.505548112
 11
156.0900675063
 21
140.4109964512
  0
LINE
  8
0
 62
7
  6
CONTINUOUS
 10
31.1507585603
 20
208.0247692319
 11
31.334730894
 21
207.916049952
  0
LINE
  8
QUILTS
 62
7
  6
CONTINUOUS
 10
47.6404789672
 20
209.6163600829
 11
47.9854134246
 21
209.2915516303
  0
LINE
  8
QUILTS
 62
7
  6
CONTINUOUS
 10
52.0411332345
 20
211.9620420659
 11
51.6961987059
 21
212.2868505405
  0
LINE
  8
0
 62
7
  6
CONTINUOUS
 10
135.7520779347
 20
126.6447665568
 11
135.9026329716
 21
126.493112733
  0
LINE
  8
0
 62
7
  6
CONTINUOUS
 10
39.6870365371
 20
231.0111121031
 11
39.8257396498
 21
230.8485478145
  0
LINE
  8
0
 62
7
  6
CONTINUOUS
 10
112.1967242336
 20
120.0765095644
 11
112.2898798671
 21
119.8841876225
  0
LINE
  8
QUILTS
 62
7
  6
CONTINUOUS
 10
60.7818208824
 20
231.5297673399
 11
60.8687737413
 21
231.30940536
  0
LINE
  8
QUILTS
 62
7
  6
CONTINUOUS
 10
61.3770099184
 20
231.5507232974
 11
61.2900554524
 21
231.7710835161
  0
LINE
  8
QUILTS
 62
7
  6
CONTINUOUS
 10
61.7950372256
 20
230.7462239849
 11
61.9689429434
 21
230.3055000251
  0
LINE
  8
QUILTS
 62
7
  6
CONTINUOUS
 10
63.8028674487
 20
232.1574520794
 11
63.8898219147
 21
231.9370918606
  0
LINE
  8
QUILTS
 62
7
  6
CONTINUOUS
 10
64.3613230367
 20
231.5068466848
 11
64.2743685432
 21
231.7272069287
  0
LINE
  8
0
 62
7
  6
CONTINUOUS
 10
55.2244487567
 20
249.9802665863
 11
55.3028520139
 21
249.7814736522
  0
LINE
  8
0
 62
7
  6
CONTINUOUS
 10
87.7849550096
 20
121.5125496966
 11
87.8106163815
 21
121.3004007033
  0
LINE
  8
QUILTS
 62
7
  6
CONTINUOUS
 10
80.147784862
 20
243.7716668105
 11
80.0872703064
 21
244.3397116102
  0
LINE
  8
0
 62
7
  6
CONTINUOUS
 10
87.841939919
 20
120.5201400574
 11
87.8134779242
 21
119.2771066615
  0
LINE
  8
0
 62
7
  6
CONTINUOUS
 10
100.3274185123
 20
270.2979105342
 11
100.1508957501
 21
269.0671458033
  0
LINE
  8
0
 62
7
  6
CONTINUOUS
 10
64.8938266726
 20
129.8401286054
 11
64.4632945433
 21
128.6736877822
  0
LINE
  8
0
 62
7
  6
CONTINUOUS
 10
125.3355701695
 20
267.4484980739
 11
124.7689832426
 21
266.3417364181
  0
LINE
  8
0
 62
7
  6
CONTINUOUS
 10
46.2153008342
 20
146.106374657
 11
45.429353407
 21
145.1429283688
  0
LINE
  8
QUILTS
 62
7
  6
CONTINUOUS
 10
129.7283320418
 20
246.0940910833
 11
129.5002793693
 21
245.8477186935
  0
LINE
  8
QUILTS
 62
7
  6
CONTINUOUS
 10
130.0235679516
 20
245.4897921716
 11
130.2516206241
 21
245.7361645614
  0
LINE
  8
0
 62
7
  6
CONTINUOUS
 10
148.0635084765
 20
256.6333410713
 11
147.16825587
 21
255.7705172892
  0
LINE
  8
QUILTS
 62
7
  6
CONTINUOUS
 10
131.4148098963
 20
243.1745545018
 11
133.655968784
 21
245.2009930554
  0
LINE
  8
QUILTS
 62
7
  6
CONTINUOUS
 10
130.1168480215
 20
241.9564422708
 11
131.112921372
 21
242.8570800048
  0
LINE
  8
QUILTS
 62
7
  6
CONTINUOUS
 10
133.5059263701
 20
245.777335362
 11
129.5745176551
 21
242.2670912266
  0
LINE
  8
QUILTS
 62
7
  6
CONTINUOUS
 10
136.4099176629
 20
242.2657941423
 11
136.6777468961
 21
242.4682171349
  0
LINE
  8
QUILTS
 62
7
  6
CONTINUOUS
 10
135.4374728298
 20
240.8688011457
 11
135.7053019779
 21
241.071224016
  0
LINE
  8
QUILTS
 62
7
  6
CONTINUOUS
 10
137.392468641
 20
239.119073172
 11
137.124639578
 21
238.9166504239
  0
LINE
  8
QUILTS
 62
7
  6
CONTINUOUS
 10
137.2842810091
 20
238.4166659837
 11
137.7591535537
 21
238.7342049348
  0
LINE
  8
0
 62
7
  6
CONTINUOUS
 10
33.8304705055
 20
167.5561780555
 11
32.7742773795
 21
166.9001306572
  0
LINE
  8
0
 62
7
  6
CONTINUOUS
 10
166.0483086575
 20
239.0244296022
 11
164.9214048825
 21
238.4990440387
  0
LINE
  8
QUILTS
 62
7
  6
CONTINUOUS
 10
49.3161792459
 20
196.5601184077
 11
49.8542155067
 21
196.7520904552
  0
LINE
  8
QUILTS
 62
7
  6
CONTINUOUS
 10
48.8303307305
 20
194.5948884079
 11
48.5081460258
 21
194.5005288176
  0
LINE
  8
0
 62
7
  6
CONTINUOUS
 10
37.1587599064
 20
159.9684424986
 11
35.9607500085
 21
159.6357047745
  0
LINE
  8
0
 62
7
  6
CONTINUOUS
 10
180.0628901206
 20
183.6820989594
 11
178.8217519411
 21
183.6078148579
  0
LINE
  8
0
 62
7
  6
CONTINUOUS
 10
29.7656440161
 20
183.6078148579
 11
28.5245058366
 21
183.6820989594
  0
LINE
  8
0
 62
7
  6
CONTINUOUS
 10
172.6266459487
 20
159.6357047745
 11
171.4286360508
 21
159.9684424986
  0
LINE
  8
0
 62
7
  6
CONTINUOUS
 10
30.4487991946
 20
208.3668816235
 11
29.2990293134
 21
208.8401377157
  0
LINE
  8
QUILTS
 62
7
  6
CONTINUOUS
 10
48.6475142696
 20
209.6318808086
 11
48.2717886141
 21
209.8571766383
  0
LINE
  8
0
 62
7
  6
CONTINUOUS
 10
157.7854665693
 20
139.3067550892
 11
156.7604079145
 21
140.0104573436
  0
LINE
  8
0
 62
7
  6
CONTINUOUS
 10
38.2003888023
 20
232.3835571769
 11
39.134194978
 21
231.5626137351
  0
LINE
  8
QUILTS
 62
7
  6
CONTINUOUS
 10
53.4592842
 20
221.9188051466
 11
53.6940984186
 21
221.6788694012
  0
LINE
  8
QUILTS
 62
7
  6
CONTINUOUS
 10
54.077422967
 20
222.1838492286
 11
53.8426087484
 21
222.423784974
  0
LINE
  8
QUILTS
 62
7
  6
CONTINUOUS
 10
55.4401502987
 20
220.8857925115
 11
55.6749645173
 21
220.6458567661
  0
LINE
  8
QUILTS
 62
7
  6
CONTINUOUS
 10
56.0582891318
 20
221.150836559
 11
55.8234748471
 21
221.3907723389
  0
LINE
  8
0
 62
7
  6
CONTINUOUS
 10
137.1476240527
 20
124.8982070381
 11
136.4065976518
 21
125.8966167644
  0
LINE
  8
QUILTS
 62
7
  6
CONTINUOUS
 10
59.2073314945
 20
230.4663920631
 11
59.3960209953
 21
230.1887175207
  0
LINE
  8
QUILTS
 62
7
  6
CONTINUOUS
 10
59.8625951212
 20
230.6179621136
 11
59.6739056204
 21
230.8956366559
  0
LINE
  8
QUILTS
 62
7
  6
CONTINUOUS
 10
60.9743313501
 20
229.0994037252
 11
61.1630208509
 21
228.8217291829
  0
LINE
  8
QUILTS
 62
7
  6
CONTINUOUS
 10
61.6295950357
 20
229.2509737301
 11
61.440905476
 21
229.5286483181
  0
LINE
  8
0
 62
7
  6
CONTINUOUS
 10
54.2639838838
 20
251.7610625307
 11
54.8806339654
 21
250.6813936994
  0
LINE
  8
QUILTS
 62
7
  6
CONTINUOUS
 10
62.4771791206
 20
230.5468179625
 11
62.311641148
 21
230.838885698
  0
LINE
  8
0
 62
7
  6
CONTINUOUS
 10
112.5728564265
 20
119.1563743866
 11
112.9495488649
 21
117.9714503741
  0
LINE
  8
0
 62
7
  6
CONTINUOUS
 10
75.7490747784
 20
264.872800399
 11
75.9817451612
 21
263.6514050489
  0
LINE
  8
QUILTS
 62
7
  6
CONTINUOUS
 10
76.3331536654
 20
244.7859941048
 11
76.2783580701
 21
245.1172100697
  0
LINE
  8
QUILTS
 62
7
  6
CONTINUOUS
 10
78.7418576655
 20
245.7984614528
 11
78.7966531233
 21
245.4672457523
  0
LINE
  8
QUILTS
 62
7
  6
CONTINUOUS
 10
79.5760845159
 20
244.193850581
 11
79.6308799737
 21
243.8626348804
  0
LINE
  8
QUILTS
 62
7
  6
CONTINUOUS
 10
136.0432327502
 20
242.6506623795
 11
135.5322925002
 21
242.0989914129
  0
LINE
  8
QUILTS
 62
7
  6
CONTINUOUS
 10
135.9597552097
 20
241.8014352303
 11
136.4099176629
 21
242.2657941423
  0
LINE
  8
QUILTS
 62
7
  6
CONTINUOUS
 10
47.9854134246
 20
209.2915516303
 11
48.4627684901
 21
209.0348096261
  0
LINE
  8
QUILTS
 62
7
  6
CONTINUOUS
 10
51.6961987059
 20
212.2868505405
 11
51.2188439251
 21
212.5435924566
  0
LINE
  8
QUILTS
 62
7
  6
CONTINUOUS
 10
51.0340981456
 20
211.9465212741
 11
51.4098238011
 21
211.7212254444
  0
LINE
  8
QUILTS
 62
7
  6
CONTINUOUS
 10
79.3740767293
 20
244.8082352144
 11
79.5760845159
 21
244.193850581
  0
LINE
  8
1_AXIS
 62
2
  6
CONTINUOUS
 10
104.2936979786
 20
194.8203859708
 11
104.2936979786
 21
193.0603859708
  0
LINE
  8
1_AXIS
 62
2
  6
CENTER
 10
104.2936979786
 20
189.5403859708
 11
104.2936979786
 21
114.8303859708
  0
LINE
  8
1_AXIS
 62
2
  6
CENTER
 10
104.2936979786
 20
198.3403859708
 11
104.2936979786
 21
273.0503859708
  0
LINE
  8
QUILTS
 62
7
  6
CONTINUOUS
 10
127.4175271881
 20
248.7970371536
 11
125.3272387328
 21
244.2549347578
  0
LINE
  8
QUILTS
 62
7
  6
CONTINUOUS
 10
125.8950015323
 20
243.9936487009
 11
126.8289602171
 21
246.0230987363
  0
LINE
  8
QUILTS
 62
7
  6
CONTINUOUS
 10
127.09580552
 20
246.6029415262
 11
127.7629189019
 21
248.0525487717
  0
LINE
  8
QUILTS
 62
7
  6
CONTINUOUS
 10
135.5322925002
 20
242.0989914129
 11
135.106847923
 21
241.4878070303
  0
LINE
  8
QUILTS
 62
7
  6
CONTINUOUS
 10
135.8381996162
 20
241.626811121
 11
135.9597552097
 21
241.8014352303
  0
LINE
  8
QUILTS
 62
7
  6
CONTINUOUS
 10
135.2551394395
 20
240.6068649817
 11
135.4374728298
 21
240.8688011457
  0
LINE
  8
1_AXIS
 62
2
  6
CONTINUOUS
 10
105.1736979786
 20
193.9403859708
 11
103.4136979786
 21
193.9403859708
  0
LINE
  8
1_AXIS
 62
2
  6
CENTER
 10
99.8936979786
 20
193.9403859708
 11
25.1836979786
 21
193.9403859708
  0
LINE
  8
1_AXIS
 62
2
  6
CENTER
 10
108.6936979786
 20
193.9403859708
 11
183.4036979786
 21
193.9403859708
  0
LINE
  8
QUILTS
 62
7
  6
CONTINUOUS
 10
46.3655562296
 20
194.044994919
 11
48.4922208833
 21
193.9799390194
  0
LINE
  8
QUILTS
 62
7
  6
CONTINUOUS
 10
48.5081460258
 20
194.5005288176
 11
46.3814813721
 21
194.5655847172
  0
LINE
  8
QUILTS
 62
7
  6
CONTINUOUS
 10
46.4451819409
 20
196.6479438729
 11
48.7845130452
 21
196.5763823838
  0
LINE
  8
QUILTS
 62
7
  6
CONTINUOUS
 10
46.5473330066
 20
198.4555648235
 11
49.9334723737
 21
198.1048316899
  0
LINE
  8
QUILTS
 62
7
  6
CONTINUOUS
 10
49.9871327283
 20
198.6228934921
 11
47.5533449749
 21
198.8749829405
  0
LINE
  8
QUILTS
 62
7
  6
CONTINUOUS
 10
47.1300775911
 20
198.9188245784
 11
46.6009933613
 21
198.9736266257
  0
LINE
  8
QUILTS
 62
7
  6
CONTINUOUS
 10
48.1697895986
 20
200.696163435
 11
50.1803099682
 21
200.4879156244
  0
LINE
  8
QUILTS
 62
7
  6
CONTINUOUS
 10
45.4232327835
 20
202.5767129966
 11
45.9491717444
 21
202.4972045321
  0
LINE
  8
QUILTS
 62
7
  6
CONTINUOUS
 10
47.001049961
 20
202.3381875584
 11
50.3670596058
 21
201.8293333405
  0
LINE
  8
QUILTS
 62
7
  6
CONTINUOUS
 10
50.4449116237
 20
202.3443151047
 11
47.0789019788
 21
202.8531693226
  0
LINE
  8
QUILTS
 62
7
  6
CONTINUOUS
 10
46.0270237622
 20
203.0121862963
 11
45.5010848013
 21
203.0916947609
  0
LINE
  8
QUILTS
 62
7
  6
CONTINUOUS
 10
48.4627684901
 20
209.0348096261
 11
49.9872055124
 21
208.5631182863
  0
LINE
  8
QUILTS
 62
7
  6
CONTINUOUS
 10
50.1719512919
 20
209.1601894688
 11
48.6475142696
 21
209.6318808086
  0
LINE
  8
QUILTS
 62
7
  6
CONTINUOUS
 10
48.5072970589
 20
214.7362449187
 11
53.1283757969
 21
212.8268912852
  0
LINE
  8
QUILTS
 62
7
  6
CONTINUOUS
 10
53.3670450011
 20
213.4045261274
 11
49.3358911381
 21
215.0701325176
  0
LINE
  8
QUILTS
 62
7
  6
CONTINUOUS
 10
50.6455520029
 20
219.7442632971
 11
55.0789192185
 21
217.4322825162
  0
LINE
  8
QUILTS
 62
7
  6
CONTINUOUS
 10
54.8019550453
 20
218.2815999001
 11
53.3870505853
 21
219.0194661221
  0
LINE
  8
QUILTS
 62
7
  6
CONTINUOUS
 10
52.8210888805
 20
219.3146125696
 11
51.5005113052
 21
220.0032877516
  0
LINE
  8
QUILTS
 62
7
  6
CONTINUOUS
 10
56.0534359942
 20
228.8236308798
 11
60.0081501643
 21
225.7641806297
  0
LINE
  8
QUILTS
 62
7
  6
CONTINUOUS
 10
59.8857243187
 20
226.649088017
 11
58.6235814721
 21
227.6255083299
  0
LINE
  8
QUILTS
 62
7
  6
CONTINUOUS
 10
58.1187244042
 20
228.0160764004
 11
56.9407243434
 21
228.9274020806
  0
LINE
  8
QUILTS
 62
7
  6
CONTINUOUS
 10
60.8687737413
 20
231.30940536
 11
61.0259407545
 21
231.1659903265
  0
LINE
  8
QUILTS
 62
7
  6
CONTINUOUS
 10
61.9689429434
 20
230.3055000251
 11
62.2046934632
 21
230.0903774748
  0
LINE
  8
QUILTS
 62
7
  6
CONTINUOUS
 10
62.6343461887
 20
230.4034028788
 11
62.4771791206
 21
230.5468179625
  0
LINE
  8
QUILTS
 62
7
  6
CONTINUOUS
 10
62.7812817531
 20
233.0896498975
 11
63.0170322729
 21
232.8745273473
  0
LINE
  8
QUILTS
 62
7
  6
CONTINUOUS
 10
63.3313664092
 20
232.5876971799
 11
63.8028674487
 21
232.1574520794
  0
LINE
  8
QUILTS
 62
7
  6
CONTINUOUS
 10
62.2437507233
 20
236.0369387166
 11
65.76180943
 21
232.4840155629
  0
LINE
  8
QUILTS
 62
7
  6
CONTINUOUS
 10
66.1319067213
 20
232.8504811299
 11
62.6138480146
 21
236.4034042836
  0
LINE
  8
QUILTS
 62
7
  6
CONTINUOUS
 10
63.3025985694
 20
237.0686549655
 11
66.7313007168
 21
233.4294240599
  0
LINE
  8
QUILTS
 62
7
  6
CONTINUOUS
 10
67.1103884264
 20
233.7865816236
 11
63.681686279
 21
237.4258125291
  0
LINE
  8
QUILTS
 62
7
  6
CONTINUOUS
 10
68.7110105884
 20
241.6736304924
 11
69.0137982531
 21
241.2363056513
  0
LINE
  8
QUILTS
 62
7
  6
CONTINUOUS
 10
71.07275467
 20
238.2624963026
 11
71.557214976
 21
237.5627764954
  0
LINE
  8
QUILTS
 62
7
  6
CONTINUOUS
 10
73.5194911931
 20
243.9956190684
 11
73.9574899315
 21
243.2659156477
  0
LINE
  8
QUILTS
 62
7
  6
CONTINUOUS
 10
74.1101168421
 20
244.2260614219
 11
76.2453602505
 21
240.6687579806
  0
LINE
  8
QUILTS
 62
7
  6
CONTINUOUS
 10
76.7812360763
 20
240.9904132298
 11
74.2079940829
 21
245.2774198362
  0
LINE
  8
QUILTS
 62
7
  6
CONTINUOUS
 10
75.8219678749
 20
244.6401330756
 11
76.0182565294
 21
244.2625776074
  0
LINE
  8
QUILTS
 62
7
  6
CONTINUOUS
 10
76.4312979926
 20
244.5972163707
 11
76.3331536654
 21
244.7859941048
  0
LINE
  8
QUILTS
 62
7
  6
CONTINUOUS
 10
80.0872703064
 20
244.3397116102
 11
79.8361861254
 21
245.0484829111
  0
LINE
  8
QUILTS
 62
7
  6
CONTINUOUS
 10
129.8617548178
 20
246.384012749
 11
129.7283320418
 21
246.0940910833
  0
LINE
  8
QUILTS
 62
7
  6
CONTINUOUS
 10
130.2516206241
 20
245.7361645614
 11
130.4295176173
 21
246.1227266921
  0
LINE
  8
QUILTS
 62
7
  6
CONTINUOUS
 10
135.106847923
 20
241.4878070303
 11
134.7668989333
 21
240.8171091096
  0
LINE
  8
QUILTS
 62
7
  6
CONTINUOUS
 10
137.5748020313
 20
239.3810093359
 11
137.392468641
 21
239.119073172
  0
LINE
  8
QUILTS
 62
7
  6
CONTINUOUS
 10
137.7591535537
 20
238.7342049348
 11
138.0630426226
 21
239.1707653303
  0
LINE
  8
QUILTS
 62
7
  6
CONTINUOUS
 10
49.2257711665
 20
197.0839611124
 11
46.4611070869
 21
197.1685337828
  0
LINE
  8
QUILTS
 62
7
  6
CONTINUOUS
 10
50.2339702921
 20
201.0059771302
 11
48.2234499225
 21
201.2142249408
  0
LINE
  8
QUILTS
 62
7
  6
CONTINUOUS
 10
49.5096611233
 20
212.4182126139
 11
51.0340981456
 21
211.9465212741
  0
LINE
  8
QUILTS
 62
7
  6
CONTINUOUS
 10
51.2188439251
 20
212.5435924566
 11
49.6944069028
 21
213.0152837964
  0
LINE
  8
QUILTS
 62
7
  6
CONTINUOUS
 10
49.8597557309
 20
218.0095086575
 11
53.7925887125
 21
216.3845268363
  0
LINE
  8
QUILTS
 62
7
  6
CONTINUOUS
 10
54.719503673
 20
216.6777898662
 11
50.0984249351
 21
218.5871434997
  0
LINE
  8
QUILTS
 62
7
  6
CONTINUOUS
 10
53.2706302984
 20
222.0171872958
 11
53.4592842
 21
221.9188051466
  0
LINE
  8
QUILTS
 62
7
  6
CONTINUOUS
 10
55.1571694463
 20
221.0333657352
 11
55.4401502987
 21
220.8857925115
  0
LINE
  8
QUILTS
 62
7
  6
CONTINUOUS
 10
55.8234748471
 20
221.3907723389
 11
55.3518400932
 21
221.6367277118
  0
LINE
  8
QUILTS
 62
7
  6
CONTINUOUS
 10
53.8426087484
 20
222.423784974
 11
53.465300681
 21
222.6205494101
  0
LINE
  8
QUILTS
 62
7
  6
CONTINUOUS
 10
59.0390458052
 20
230.5965814199
 11
59.2073314945
 21
230.4663920631
  0
LINE
  8
QUILTS
 62
7
  6
CONTINUOUS
 10
60.7219028161
 20
229.2946877605
 11
60.9743313501
 21
229.0994037252
  0
LINE
  8
QUILTS
 62
7
  6
CONTINUOUS
 10
61.440905476
 20
229.5286483181
 11
61.0201912527
 21
229.8541217101
  0
LINE
  8
QUILTS
 62
7
  6
CONTINUOUS
 10
59.6739056204
 20
230.8956366559
 11
59.3373340061
 21
231.1560155519
  0
LINE
  8
QUILTS
 62
7
  6
CONTINUOUS
 10
64.3896871874
 20
232.3270624498
 11
63.1323509171
 21
233.4743828685
  0
LINE
  8
QUILTS
 62
7
  6
CONTINUOUS
 10
74.9829253333
 20
239.9346125803
 11
74.6195800932
 21
240.4594024509
  0
LINE
  8
QUILTS
 62
7
  6
CONTINUOUS
 10
72.5606236764
 20
243.4332117996
 11
72.1367209458
 21
244.0454665772
  0
LINE
  8
QUILTS
 62
7
  6
CONTINUOUS
 10
78.6437133383
 20
245.9872391869
 11
78.7418576655
 21
245.7984614528
  0
LINE
  8
QUILTS
 62
7
  6
CONTINUOUS
 10
79.275932402
 20
244.9970129485
 11
79.3740767293
 21
244.8082352144
  0
LINE
  8
QUILTS
 62
7
  6
CONTINUOUS
 10
79.8361861254
 20
245.0484829111
 11
79.49268098
 21
245.7092049804
  0
LINE
  8
0
 62
7
  6
CONTINUOUS
 10
120.7454560382
 20
120.5201400574
 11
120.773918033
 21
119.2771066615
  0
LINE
  8
0
 62
7
  6
CONTINUOUS
 10
132.8383211788
 20
264.872800399
 11
132.6056507959
 21
263.6514050489
  0
LINE
  8
0
 62
7
  6
CONTINUOUS
 10
96.0145395307
 20
119.1563743866
 11
95.6378470923
 21
117.9714503741
  0
LINE
  8
0
 62
7
  6
CONTINUOUS
 10
154.3234120734
 20
251.7610625307
 11
153.7067619918
 21
250.6813936994
  0
LINE
  8
0
 62
7
  6
CONTINUOUS
 10
72.1807983054
 20
125.8966167644
 11
71.4397719044
 21
124.8982070381
  0
LINE
  8
0
 62
7
  6
CONTINUOUS
 10
170.3870071549
 20
232.3835571769
 11
169.4532009792
 21
231.5626137351
  0
LINE
  8
0
 62
7
  6
CONTINUOUS
 10
51.8269880427
 20
140.0104573436
 11
50.8019293879
 21
139.3067550892
  0
LINE
  8
0
 62
7
  6
CONTINUOUS
 10
179.2883666438
 20
208.8401377157
 11
178.1385967626
 21
208.3668816235
  0
LINE
  8
0
 62
7
  6
CONTINUOUS
 10
29.0814242232
 20
191.8651197749
 11
27.869440312
 21
191.5875641815
  0
LINE
  8
QUILTS
 62
7
  6
CONTINUOUS
 10
48.4922208833
 20
193.9799390194
 11
48.9207388875
 21
194.0710458033
  0
LINE
  8
QUILTS
 62
7
  6
CONTINUOUS
 10
49.6542891489
 20
197.1750677945
 11
49.2257711665
 21
197.0839611124
  0
LINE
  8
0
 62
7
  6
CONTINUOUS
 10
177.3410385499
 20
216.5299624545
 11
176.1046011162
 21
216.3989487876
  0
LINE
  8
QUILTS
 62
7
  6
CONTINUOUS
 10
47.6299732795
 20
200.647352944
 11
48.1697895986
 21
200.696163435
  0
LINE
  8
QUILTS
 62
7
  6
CONTINUOUS
 10
48.2234499225
 20
201.2142249408
 11
47.6836336648
 21
201.1654150427
  0
LINE
  8
QUILTS
 62
7
  6
CONTINUOUS
 10
50.609258639
 20
209.1339166074
 11
50.1719512919
 21
209.1601894688
  0
LINE
  8
QUILTS
 62
7
  6
CONTINUOUS
 10
49.0723537762
 20
212.4444854753
 11
49.5096611233
 21
212.4182126139
  0
LINE
  8
0
 62
7
  6
CONTINUOUS
 10
32.482794841
 20
216.3989487876
 11
31.2463574073
 21
216.5299624545
  0
LINE
  8
QUILTS
 62
7
  6
CONTINUOUS
 10
49.9872055124
 20
208.5631182863
 11
50.5261419848
 21
208.5053993385
  0
LINE
  8
QUILTS
 62
7
  6
CONTINUOUS
 10
49.6944069028
 20
213.0152837964
 11
49.1554701457
 21
213.0730028322
  0
LINE
  8
0
 62
7
  6
CONTINUOUS
 10
180.7179556452
 20
191.5875641815
 11
179.505971734
 21
191.8651197749
  0
LINE
  8
0
 62
7
  6
CONTINUOUS
 10
43.6659910747
 20
238.4990440387
 11
42.5390872997
 21
239.0244296022
  0
LINE
  8
QUILTS
 62
7
  6
CONTINUOUS
 10
62.2046934632
 20
230.0903774748
 11
62.5892416987
 21
229.880494304
  0
LINE
  8
QUILTS
 62
7
  6
CONTINUOUS
 10
64.8528172949
 20
232.0454700262
 11
64.3896871874
 21
232.3270624498
  0
LINE
  8
0
 62
7
  6
CONTINUOUS
 10
175.8131185777
 20
166.9001306572
 11
174.7569254517
 21
167.5561780555
  0
LINE
  8
0
 62
7
  6
CONTINUOUS
 10
60.5238874807
 20
256.6333410713
 11
61.4191400872
 21
255.7705172892
  0
LINE
  8
0
 62
7
  6
CONTINUOUS
 10
163.1580425502
 20
145.1429283688
 11
162.372095123
 21
146.106374657
  0
LINE
  8
QUILTS
 62
7
  6
CONTINUOUS
 10
79.49268098
 20
245.7092049804
 11
79.0567548015
 21
246.3218779502
  0
LINE
  8
0
 62
7
  6
CONTINUOUS
 10
83.2518257877
 20
267.4484980739
 11
83.8184127146
 21
266.3417364181
  0
LINE
  8
0
 62
7
  6
CONTINUOUS
 10
143.6935692846
 20
129.8401286054
 11
144.1241014139
 21
128.6736877822
  0
LINE
  8
0
 62
7
  6
CONTINUOUS
 10
108.2599774449
 20
270.2979105342
 11
108.4365002071
 21
269.0671458033
  0
LINE
  8
QUILTS
 62
7
  6
CONTINUOUS
 10
129.9005474483
 20
246.7174831491
 11
129.8617548178
 21
246.384012749
  0
LINE
  8
QUILTS
 62
7
  6
CONTINUOUS
 10
130.4295176173
 20
246.1227266921
 11
130.4683102477
 21
246.4561970922
  0
LINE
  8
QUILTS
 62
7
  6
CONTINUOUS
 10
133.1900561893
 20
240.1960966081
 11
134.2290307668
 21
245.3631383344
  0
LINE
  8
QUILTS
 62
7
  6
CONTINUOUS
 10
132.9206865014
 20
241.8215850656
 11
132.647725823
 21
240.5067455638
  0
LINE
  8
QUILTS
 62
7
  6
CONTINUOUS
 10
133.655968784
 20
245.2009930554
 11
133.0418009954
 21
242.2426076345
  0
LINE
  8
QUILTS
 62
7
  6
CONTINUOUS
 10
134.7668989333
 20
240.8171091096
 11
134.6339934254
 21
240.2615273919
  0
LINE
  8
QUILTS
 62
7
  6
CONTINUOUS
 10
138.0630426226
 20
239.1707653303
 11
138.195948088
 21
239.7263469869
  0
LINE
  8
QUILTS
 62
7
  6
CONTINUOUS
 10
135.158301722
 20
240.2854154019
 11
135.2551394395
 21
240.6068649817
  0
LINE
  8
QUILTS
 62
7
  6
CONTINUOUS
 10
137.6716398339
 20
239.702459038
 11
137.5748020313
 21
239.3810093359
  0
LINE
  8
QUILTS
 62
7
  6
CONTINUOUS
 10
138.986059616
 20
240.8614039418
 11
139.0828973335
 21
241.1828535217
  0
LINE
  8
QUILTS
 62
7
  6
CONTINUOUS
 10
47.6836336648
 20
201.1654150427
 11
47.3554510376
 21
201.0946837328
  0
LINE
  8
QUILTS
 62
7
  6
CONTINUOUS
 10
50.5261419848
 20
208.5053993385
 11
50.9942406013
 21
208.5786390781
  0
LINE
  8
QUILTS
 62
7
  6
CONTINUOUS
 10
54.8260218281
 20
221.0885765062
 11
55.1571694463
 21
221.0333657352
  0
LINE
  8
QUILTS
 62
7
  6
CONTINUOUS
 10
55.3518400932
 20
221.6367277118
 11
55.0206924749
 21
221.6919384827
  0
LINE
  8
QUILTS
 62
7
  6
CONTINUOUS
 10
52.939482548
 20
222.0723981356
 11
53.2706302984
 21
222.0171872958
  0
LINE
  8
QUILTS
 62
7
  6
CONTINUOUS
 10
53.465300681
 20
222.6205494101
 11
53.1341531949
 21
222.6757601122
  0
LINE
  8
QUILTS
 62
7
  6
CONTINUOUS
 10
60.4057351311
 20
229.4075813798
 11
60.7219028161
 21
229.2946877605
  0
LINE
  8
QUILTS
 62
7
  6
CONTINUOUS
 10
61.0201912527
 20
229.8541217101
 11
60.7040235677
 21
229.9670153294
  0
LINE
  8
QUILTS
 62
7
  6
CONTINUOUS
 10
58.7228780024
 20
230.7094751304
 11
59.0390458052
 21
230.5965814199
  0
LINE
  8
QUILTS
 62
7
  6
CONTINUOUS
 10
59.3373340061
 20
231.1560155519
 11
59.021166439
 21
231.26890908
  0
LINE
  8
QUILTS
 62
7
  6
CONTINUOUS
 10
64.2743685432
 20
231.7272069287
 11
64.5803316513
 21
231.589029526
  0
LINE
  8
QUILTS
 62
7
  6
CONTINUOUS
 10
65.1587803893
 20
231.9072926361
 11
64.8528172949
 21
232.0454700262
  0
LINE
  8
QUILTS
 62
7
  6
CONTINUOUS
 10
63.1323509171
 20
233.4743828685
 11
62.8263846361
 21
233.6125567111
  0
LINE
  8
QUILTS
 62
7
  6
CONTINUOUS
 10
76.0182565294
 20
244.2625776074
 11
76.4484636444
 21
243.8867336706
  0
LINE
  8
QUILTS
 62
7
  6
CONTINUOUS
 10
79.0567548015
 20
246.3218779502
 11
78.626547549
 21
246.6977221514
  0
LINE
  8
QUILTS
 62
7
  6
CONTINUOUS
 10
77.1354740039
 20
242.5652893999
 11
77.3751115623
 21
242.3301718321
  0
LINE
  8
QUILTS
 62
7
  6
CONTINUOUS
 10
76.6709355166
 20
244.362098869
 11
76.4312979926
 21
244.5972163707
  0
LINE
  8
QUILTS
 62
7
  6
CONTINUOUS
 10
78.4040756768
 20
246.222356953
 11
78.6437133383
 21
245.9872391869
  0
LINE
  8
QUILTS
 62
7
  6
CONTINUOUS
 10
135.1469518076
 20
239.9044577935
 11
135.158301722
 21
240.2854154019
  0
LINE
  8
0
 62
7
  6
CONTINUOUS
 10
132.4985132475
 20
262.6631511758
 11
132.5081204399
 21
262.8766304564
  0
LINE
  8
0
 62
7
  6
CONTINUOUS
 10
120.7767795756
 20
121.3004007033
 11
120.8024409476
 21
121.5125496966
  0
LINE
  8
0
 62
7
  6
CONTINUOUS
 10
153.2845439432
 20
249.7814736522
 11
153.3629472005
 21
249.9802665863
  0
LINE
  8
0
 62
7
  6
CONTINUOUS
 10
96.2975160901
 20
119.8841876225
 11
96.3906717236
 21
120.0765095644
  0
LINE
  8
0
 62
7
  6
CONTINUOUS
 10
168.7616563074
 20
230.8485478145
 11
168.9003594201
 21
231.0111121031
  0
LINE
  8
0
 62
7
  6
CONTINUOUS
 10
72.6847629856
 20
126.493112733
 11
72.8353180225
 21
126.6447665568
  0
LINE
  8
0
 62
7
  6
CONTINUOUS
 10
177.2526650632
 20
207.916049952
 11
177.4366373969
 21
208.0247692319
  0
LINE
  8
0
 62
7
  6
CONTINUOUS
 10
52.4973284509
 20
140.4109964512
 11
52.6889679166
 21
140.505548112
  0
LINE
  8
QUILTS
 62
7
  6
CONTINUOUS
 10
53.7925887125
 20
216.3845268363
 11
48.86530041
 21
215.6026960803
  0
LINE
  8
QUILTS
 62
7
  6
CONTINUOUS
 10
49.1554701457
 20
213.0730028322
 11
48.6873716004
 21
212.9997630707
  0
LINE
  8
QUILTS
 62
7
  6
CONTINUOUS
 10
49.3358911381
 20
215.0701325176
 11
54.3614998668
 21
215.8113376029
  0
LINE
  8
0
 62
7
  6
CONTINUOUS
 10
33.4765206747
 20
216.3737865262
 11
33.2629771784
 21
216.3657319259
  0
LINE
  8
0
 62
7
  6
CONTINUOUS
 10
175.3244187788
 20
216.3657319259
 11
175.1108752825
 21
216.3737865262
  0
LINE
  8
QUILTS
 62
7
  6
CONTINUOUS
 10
62.861725749
 20
230.3369330305
 11
62.6343461887
 21
230.4034028788
  0
LINE
  8
QUILTS
 62
7
  6
CONTINUOUS
 10
64.5803316513
 20
231.589029526
 11
64.8077144395
 21
231.5225631876
  0
LINE
  8
QUILTS
 62
7
  6
CONTINUOUS
 10
62.5539021928
 20
233.1561197458
 11
62.7812817531
 21
233.0896498975
  0
LINE
  8
0
 62
7
  6
CONTINUOUS
 10
44.5977039288
 20
238.1525828873
 11
44.3931154837
 21
238.2143021673
  0
LINE
  8
0
 62
7
  6
CONTINUOUS
 10
178.7572763302
 20
192.0870274852
 11
178.557918534
 21
192.163983125
  0
LINE
  8
QUILTS
 62
7
  6
CONTINUOUS
 10
77.9296462222
 20
242.6184708278
 11
77.5975876308
 21
242.8055392961
  0
LINE
  8
0
 62
7
  6
CONTINUOUS
 10
62.187874417
 20
255.1403016895
 11
62.0144113556
 21
255.2651066082
  0
LINE
  8
0
 62
7
  6
CONTINUOUS
 10
174.1208497457
 20
168.0091631942
 11
173.9572811602
 21
168.1466805358
  0
LINE
  8
0
 62
7
  6
CONTINUOUS
 10
142.8564015446
 20
197.804089276
 11
108.1574012838
 21
232.5030895368
  0
LINE
  8
0
 62
7
  6
CONTINUOUS
 10
84.3408642273
 20
265.496060009
 11
84.2173239639
 21
265.6704260169
  0
LINE
  8
0
 62
7
  6
CONTINUOUS
 10
161.9175677874
 20
146.7413492555
 11
161.8075136068
 21
146.924526161
  0
LINE
  8
0
 62
7
  6
CONTINUOUS
 10
108.6560531746
 20
268.0976507458
 11
108.5958232137
 21
268.3026825804
  0
LINE
  8
0
 62
7
  6
CONTINUOUS
 10
143.4698454088
 20
130.5882833133
 11
143.4252317113
 21
130.7972697229
  0
LINE
  8
QUILTS
 62
7
  6
CONTINUOUS
 10
134.6339934254
 20
240.2615273919
 11
134.6473614082
 21
239.7337443435
  0
LINE
  8
QUILTS
 62
7
  6
CONTINUOUS
 10
139.0828973335
 20
241.1828535217
 11
139.0695293294
 21
241.7106365395
  0
LINE
  8
QUILTS
 62
7
  6
CONTINUOUS
 10
138.5699389513
 20
241.5399231201
 11
138.5585890794
 21
241.1589655729
  0
LINE
  8
0
 62
7
  6
CONTINUOUS
 10
108.1574012838
 20
155.3776824048
 11
142.8564015446
 21
190.0766826656
  0
LINE
  8
QUILTS
 62
7
  6
CONTINUOUS
 10
55.0206924749
 20
221.6919384827
 11
54.498885873
 21
221.6116173301
  0
LINE
  8
QUILTS
 62
7
  6
CONTINUOUS
 10
53.1341531949
 20
222.6757601122
 11
52.6123465929
 21
222.5954389595
  0
LINE
  8
QUILTS
 62
7
  6
CONTINUOUS
 10
62.5892416987
 20
229.880494304
 11
63.0356331153
 21
229.8962107942
  0
LINE
  8
QUILTS
 62
7
  6
CONTINUOUS
 10
60.7040235677
 20
229.9670153294
 11
60.1762365485
 21
229.9802244074
  0
LINE
  8
QUILTS
 62
7
  6
CONTINUOUS
 10
59.021166439
 20
231.26890908
 11
58.4933794197
 21
231.2821181581
  0
LINE
  8
QUILTS
 62
7
  6
CONTINUOUS
 10
77.3751115623
 20
242.3301718321
 11
77.8486675639
 21
242.0967658287
  0
LINE
  8
QUILTS
 62
7
  6
CONTINUOUS
 10
76.4484636444
 20
243.8867336706
 11
76.9220196289
 21
243.6533277003
  0
LINE
  8
QUILTS
 62
7
  6
CONTINUOUS
 10
78.626547549
 20
246.6977221514
 11
78.1529915645
 21
246.9311281217
  0
LINE
  8
QUILTS
 62
7
  6
CONTINUOUS
 10
77.0029983044
 20
244.1750326663
 11
76.6709355166
 21
244.362098869
  0
LINE
  8
QUILTS
 62
7
  6
CONTINUOUS
 10
78.0720128891
 20
246.4094231557
 11
78.4040756768
 21
246.222356953
  0
LINE
  8
QUILTS
 62
7
  6
CONTINUOUS
 10
130.4683102477
 20
246.4561970922
 11
130.3623257166
 21
246.9734019806
  0
LINE
  8
QUILTS
 62
7
  6
CONTINUOUS
 10
129.0498556111
 20
245.1181439787
 11
129.5617896833
 21
245.2338733401
  0
LINE
  8
QUILTS
 62
7
  6
CONTINUOUS
 10
135.7053019779
 20
241.071224016
 11
135.9978410897
 21
241.1268267419
  0
LINE
  8
QUILTS
 62
7
  6
CONTINUOUS
 10
60.1099728344
 20
229.3729916081
 11
60.4057351311
 21
229.4075813798
  0
LINE
  8
QUILTS
 62
7
  6
CONTINUOUS
 10
58.4271157056
 20
230.6748853587
 11
58.7228780024
 21
230.7094751304
  0
LINE
  8
QUILTS
 62
7
  6
CONTINUOUS
 10
62.8263846361
 20
233.6125567111
 11
62.5287925287
 21
233.6020813741
  0
LINE
  8
QUILTS
 62
7
  6
CONTINUOUS
 10
129.8002445039
 20
246.9978581024
 11
129.9005474483
 21
246.7174831491
  0
LINE
  8
QUILTS
 62
7
  6
CONTINUOUS
 10
137.622211909
 20
239.9961045307
 11
137.6716398339
 21
239.702459038
  0
LINE
  8
QUILTS
 62
7
  6
CONTINUOUS
 10
138.195948088
 20
239.7263469869
 11
138.1218022871
 21
240.16681795
  0
LINE
  8
QUILTS
 62
7
  6
CONTINUOUS
 10
58.4933794197
 20
231.2821181581
 11
57.9859976708
 21
231.1478439363
  0
LINE
  8
QUILTS
 62
7
  6
CONTINUOUS
 10
62.5287925287
 20
233.6020813741
 11
62.16098466
 21
233.5146573295
  0
LINE
  8
QUILTS
 62
7
  6
CONTINUOUS
 10
78.631397373
 20
242.6236032223
 11
78.3050578794
 21
242.5738425915
  0
LINE
  8
QUILTS
 62
7
  6
CONTINUOUS
 10
136.7713226269
 20
238.7737355822
 11
136.3932878423
 21
238.7776462721
  0
LINE
  8
QUILTS
 62
7
  6
CONTINUOUS
 10
135.9978410897
 20
241.1268267419
 11
136.3758758743
 21
241.122916052
  0
LINE
  8
QUILTS
 62
7
  6
CONTINUOUS
 10
136.5942691853
 20
241.6189897411
 11
135.8381996162
 21
241.626811121
  0
LINE
  8
QUILTS
 62
7
  6
CONTINUOUS
 10
137.0310638047
 20
242.6111319155
 11
137.4090985893
 21
242.6072212256
  0
LINE
  8
QUILTS
 62
7
  6
CONTINUOUS
 10
136.1748866669
 20
238.281577978
 11
136.7846906097
 21
238.2459525338
  0
LINE
  8
QUILTS
 62
7
  6
CONTINUOUS
 10
137.6274919003
 20
243.1032949147
 11
137.0176958006
 21
243.1389149333
  0
LINE
  8
QUILTS
 62
7
  6
CONTINUOUS
 10
77.8486675639
 20
242.0967658287
 11
78.4579976946
 21
242.0538490991
  0
LINE
  8
QUILTS
 62
7
  6
CONTINUOUS
 10
76.9220196289
 20
243.6533277003
 11
77.5313497467
 21
243.6104109954
  0
LINE
  8
QUILTS
 62
7
  6
CONTINUOUS
 10
78.1529915645
 20
246.9311281217
 11
77.5436656775
 21
246.9740470261
  0
LINE
  8
QUILTS
 62
7
  6
CONTINUOUS
 10
78.3050578794
 20
242.5738425915
 11
77.9296462222
 21
242.6184708278
  0
LINE
  8
QUILTS
 62
7
  6
CONTINUOUS
 10
77.3784099616
 20
244.1304044301
 11
77.0029983044
 21
244.1750326663
  0
LINE
  8
QUILTS
 62
7
  6
CONTINUOUS
 10
77.6966012318
 20
246.454051392
 11
78.0720128891
 21
246.4094231557
  0
LINE
  8
QUILTS
 62
7
  6
CONTINUOUS
 10
136.3932878423
 20
238.7776462721
 11
136.0760308544
 21
238.8688690167
  0
LINE
  8
QUILTS
 62
7
  6
CONTINUOUS
 10
130.3623257166
 20
246.9734019806
 11
130.1172369473
 21
247.4375154091
  0
LINE
  8
QUILTS
 62
7
  6
CONTINUOUS
 10
134.6473614082
 20
239.7337443435
 11
134.8924907115
 21
239.1742519741
  0
LINE
  8
QUILTS
 62
7
  6
CONTINUOUS
 10
138.1218022871
 20
240.16681795
 11
137.8766651408
 21
240.726315745
  0
LINE
  8
QUILTS
 62
7
  6
CONTINUOUS
 10
139.0695293294
 20
241.7106365395
 11
138.8244000102
 21
242.270128886
  0
LINE
  8
QUILTS
 62
7
  6
CONTINUOUS
 10
135.2818754052
 20
239.551298885
 11
135.1469518076
 21
239.9044577935
  0
LINE
  8
QUILTS
 62
7
  6
CONTINUOUS
 10
137.4872883114
 20
240.3492634392
 11
137.622211909
 21
239.9961045307
  0
LINE
  8
QUILTS
 62
7
  6
CONTINUOUS
 10
138.4350153537
 20
241.8930820286
 11
138.5699389513
 21
241.5399231201
  0
LINE
  8
QUILTS
 62
7
  6
CONTINUOUS
 10
77.7047494552
 20
244.1801650609
 11
77.3784099616
 21
244.1304044301
  0
LINE
  8
QUILTS
 62
7
  6
CONTINUOUS
 10
77.3702617382
 20
246.4042907612
 11
77.6966012318
 21
246.454051392
  0
LINE
  8
QUILTS
 62
7
  6
CONTINUOUS
 10
129.2220795563
 20
245.7415317869
 11
128.8937239394
 21
245.7755343503
  0
LINE
  8
QUILTS
 62
7
  6
CONTINUOUS
 10
128.5322486155
 20
245.2392405656
 11
129.0498556111
 21
245.1181439787
  0
LINE
  8
QUILTS
 62
7
  6
CONTINUOUS
 10
136.3758758743
 20
241.122916052
 11
136.6931328622
 21
241.0316933074
  0
LINE
  8
QUILTS
 62
7
  6
CONTINUOUS
 10
137.4090985893
 20
242.6072212256
 11
137.7263555772
 21
242.515998481
  0
LINE
  8
QUILTS
 62
7
  6
CONTINUOUS
 10
135.6866461554
 20
238.4918220982
 11
136.1748866669
 21
238.281577978
  0
LINE
  8
QUILTS
 62
7
  6
CONTINUOUS
 10
137.0825175187
 20
241.4087401647
 11
136.5942691853
 21
241.6189897411
  0
LINE
  8
QUILTS
 62
7
  6
CONTINUOUS
 10
138.1157402336
 20
242.8930453383
 11
137.6274919003
 21
243.1032949147
  0
LINE
  8
QUILTS
 62
7
  6
CONTINUOUS
 10
125.3272387328
 20
244.2549347578
 11
125.8950015323
 21
243.9936487009
  0
LINE
  8
QUILTS
 62
7
  6
CONTINUOUS
 10
126.8289602171
 20
246.0230987363
 11
128.5322486155
 21
245.2392405656
  0
LINE
  8
QUILTS
 62
7
  6
CONTINUOUS
 10
128.8937239394
 20
245.7755343503
 11
127.09580552
 21
246.6029415262
  0
LINE
  8
QUILTS
 62
7
  6
CONTINUOUS
 10
127.7629189019
 20
248.0525487717
 11
129.5608373213
 21
247.2251415958
  0
LINE
  8
QUILTS
 62
7
  6
CONTINUOUS
 10
129.5745176551
 20
242.2670912266
 11
130.1168480215
 21
241.9564422708
  0
LINE
  8
QUILTS
 62
7
  6
CONTINUOUS
 10
132.647725823
 20
240.5067455638
 11
133.1900561893
 21
240.1960966081
  0
LINE
  8
QUILTS
 62
7
  6
CONTINUOUS
 10
131.112921372
 20
242.8570800048
 11
132.9206865014
 21
241.8215850656
  0
LINE
  8
QUILTS
 62
7
  6
CONTINUOUS
 10
133.0418009954
 20
242.2426076345
 11
131.4148098963
 21
243.1745545018
  0
LINE
  8
QUILTS
 62
7
  6
CONTINUOUS
 10
135.259183446
 20
238.7893782808
 11
135.6866461554
 21
238.4918220982
  0
LINE
  8
QUILTS
 62
7
  6
CONTINUOUS
 10
136.0760308544
 20
238.8688690167
 11
135.4775767995
 21
239.2854520311
  0
LINE
  8
QUILTS
 62
7
  6
CONTINUOUS
 10
136.6931328622
 20
241.0316933074
 11
137.2915869171
 21
240.6151102931
  0
LINE
  8
QUILTS
 62
7
  6
CONTINUOUS
 10
137.5099802281
 20
241.1111839822
 11
137.0825175187
 21
241.4087401647
  0
LINE
  8
QUILTS
 62
7
  6
CONTINUOUS
 10
138.5585890794
 20
241.1589655729
 11
138.986059616
 21
240.8614039418
  0
LINE
  8
QUILTS
 62
7
  6
CONTINUOUS
 10
137.7263555772
 20
242.515998481
 11
138.2393139593
 21
242.1589288825
  0
LINE
  8
QUILTS
 62
7
  6
CONTINUOUS
 10
130.1172369473
 20
247.4375154091
 11
129.688578386
 21
247.7518929259
  0
LINE
  8
QUILTS
 62
7
  6
CONTINUOUS
 10
129.5608373213
 20
247.2251415958
 11
129.8002445039
 21
246.9978581024
  0
LINE
  8
QUILTS
 62
7
  6
CONTINUOUS
 10
134.8924907115
 20
239.1742519741
 11
135.259183446
 21
238.7893782808
  0
LINE
  8
QUILTS
 62
7
  6
CONTINUOUS
 10
137.8766651408
 20
240.726315745
 11
137.5099802281
 21
241.1111839822
  0
LINE
  8
QUILTS
 62
7
  6
CONTINUOUS
 10
138.8244000102
 20
242.270128886
 11
138.4577072703
 21
242.6550025716
  0
LINE
  8
QUILTS
 62
7
  6
CONTINUOUS
 10
135.4775767995
 20
239.2854520311
 11
135.2818754052
 21
239.551298885
  0
LINE
  8
QUILTS
 62
7
  6
CONTINUOUS
 10
137.2915869171
 20
240.6151102931
 11
137.4872883114
 21
240.3492634392
  0
LINE
  8
QUILTS
 62
7
  6
CONTINUOUS
 10
138.2393139593
 20
242.1589288825
 11
138.4350153537
 21
241.8930820286
  0
LINE
  8
QUILTS
 62
7
  6
CONTINUOUS
 10
129.688578386
 20
247.7518929259
 11
127.4175271881
 21
248.7970371536
  0
LINE
  8
QUILTS
 62
7
  6
CONTINUOUS
 10
134.2290307668
 20
245.3631383344
 11
133.5059263701
 21
245.777335362
  0
LINE
  8
QUILTS
 62
7
  6
CONTINUOUS
 10
138.4577072703
 20
242.6550025716
 11
138.1157402336
 21
242.8930453383
  0
LINE
  8
0
 62
7
  6
CONTINUOUS
 10
181.3386969395
 20
190.7749104758
 11
180.8089237165
 21
184.3814984688
  0
LINE
  8
0
 62
7
  6
CONTINUOUS
 10
176.1363581697
 20
165.929954402
 11
173.559352036
 21
160.0549721767
  0
LINE
  8
0
 62
7
  6
CONTINUOUS
 10
163.1487524143
 20
144.1203632152
 11
158.8037719711
 21
139.4004562556
  0
LINE
  8
0
 62
7
  6
CONTINUOUS
 10
143.7832882807
 20
127.7095445314
 11
138.1411795781
 21
124.6561879934
  0
LINE
  8
0
 62
7
  6
CONTINUOUS
 10
107.5013597734
 20
270.9836400935
 11
101.0860361838
 21
270.9836400935
  0
LINE
  8
0
 62
7
  6
CONTINUOUS
 10
132.3434635291
 20
265.7676979946
 11
126.2757398669
 21
267.8507501589
  0
LINE
  8
0
 62
7
  6
CONTINUOUS
 10
154.1459399505
 20
252.7681521223
 11
149.083348225
 21
256.7085254271
  0
LINE
  8
0
 62
7
  6
CONTINUOUS
 10
170.5461524169
 20
233.3937049807
 11
167.0373029958
 21
238.7643988372
  0
LINE
  8
0
 62
7
  6
CONTINUOUS
 10
178.1920145957
 20
215.9628949369
 11
179.7668834322
 21
209.7438785431
  0
LINE
  8
0
 62
7
  6
CONTINUOUS
 10
28.8035320249
 20
68.0451212756
 11
28.8119278198
 21
67.9538689852
  0
POLYLINE
  8
0
 62
7
  6
CONTINUOUS
 66
1
 70
0
  0
VERTEX
  8
0
 62
7
  6
CONTINUOUS
 10
27.2480267609
 20
68.0456533867
  0
VERTEX
  8
0
 62
7
  6
CONTINUOUS
 10
27.2481105387
 20
68.0365008397
  0
VERTEX
  8
0
 62
7
  6
CONTINUOUS
 10
27.2525793172
 20
67.9783343152
  0
VERTEX
  8
0
 62
7
  6
CONTINUOUS
 10
27.2636009852
 20
67.9218317827
  0
VERTEX
  8
0
 62
7
  6
CONTINUOUS
 10
27.2807225363
 20
67.867813453
  0
VERTEX
  8
0
 62
7
  6
CONTINUOUS
 10
27.3033732081
 20
67.8169970521
  0
VERTEX
  8
0
 62
7
  6
CONTINUOUS
 10
27.330887026
 20
67.7699810676
  0
VERTEX
  8
0
 62
7
  6
CONTINUOUS
 10
27.362527427
 20
67.7272332186
  0
VERTEX
  8
0
 62
7
  6
CONTINUOUS
 10
27.3975127436
 20
67.6890843183
  0
VERTEX
  8
0
 62
7
  6
CONTINUOUS
 10
27.4350407375
 20
67.6557279155
  0
VERTEX
  8
0
 62
7
  6
CONTINUOUS
 10
27.4743130638
 20
67.6272234116
  0
VERTEX
  8
0
 62
7
  6
CONTINUOUS
 10
27.5145563897
 20
67.6035047861
  0
VERTEX
  8
0
 62
7
  6
CONTINUOUS
 10
27.5550383202
 20
67.5843934924
  0
VERTEX
  8
0
 62
7
  6
CONTINUOUS
 10
27.5950713625
 20
67.569615312
  0
VERTEX
  8
0
 62
7
  6
CONTINUOUS
 10
27.6339849929
 20
67.5588198786
  0
VERTEX
  8
0
 62
7
  6
CONTINUOUS
 10
27.669082219
 20
67.5518991856
  0
VERTEX
  8
0
 62
7
  6
CONTINUOUS
 10
27.6923282594
 20
67.5486961933
  0
VERTEX
  8
0
 62
7
  6
CONTINUOUS
 10
27.7054785843
 20
67.5472727375
  0
VERTEX
  8
0
 62
7
  6
CONTINUOUS
 10
27.7200705766
 20
67.5458320048
  0
VERTEX
  8
0
 62
7
  6
CONTINUOUS
 10
27.7637181943
 20
67.541748119
  0
SEQEND
  0
LINE
  8
2_FEATURE
 62
7
  6
CONTINUOUS
 10
27.2480246456
 20
74.6274380946
 11
27.2480246456
 21
68.0455702288
  0
LINE
  8
2_FEATURE
 62
7
  6
CONTINUOUS
 10
28.803530919
 20
74.6279071192
 11
28.803530919
 21
68.0451012042
  0
POLYLINE
  8
0
 62
7
  6
CONTINUOUS
 66
1
 70
0
  0
VERTEX
  8
0
 62
7
  6
CONTINUOUS
 10
28.8119278198
 20
67.9538689852
  0
VERTEX
  8
0
 62
7
  6
CONTINUOUS
 10
28.8383213575
 20
67.8618556883
  0
VERTEX
  8
0
 62
7
  6
CONTINUOUS
 10
28.8800197081
 20
67.7793123996
  0
VERTEX
  8
0
 62
7
  6
CONTINUOUS
 10
28.9337934236
 20
67.7084828652
  0
VERTEX
  8
0
 62
7
  6
CONTINUOUS
 10
28.9961818915
 20
67.650671536
  0
VERTEX
  8
0
 62
7
  6
CONTINUOUS
 10
29.0637325497
 20
67.6062732992
  0
VERTEX
  8
0
 62
7
  6
CONTINUOUS
 10
29.1325442285
 20
67.5750952908
  0
VERTEX
  8
0
 62
7
  6
CONTINUOUS
 10
29.1948456146
 20
67.5567361099
  0
SEQEND
  0
POLYLINE
  8
0
 62
7
  6
CONTINUOUS
 66
1
 70
0
  0
VERTEX
  8
0
 62
7
  6
CONTINUOUS
 10
37.9285992937
 20
68.0419964842
  0
VERTEX
  8
0
 62
7
  6
CONTINUOUS
 10
37.929417993
 20
68.0133774483
  0
VERTEX
  8
0
 62
7
  6
CONTINUOUS
 10
37.9536630492
 20
67.8855764173
  0
VERTEX
  8
0
 62
7
  6
CONTINUOUS
 10
38.008034178
 20
67.7713779585
  0
VERTEX
  8
0
 62
7
  6
CONTINUOUS
 10
38.085366584
 20
67.678071325
  0
VERTEX
  8
0
 62
7
  6
CONTINUOUS
 10
38.1757808831
 20
67.6100405223
  0
VERTEX
  8
0
 62
7
  6
CONTINUOUS
 10
38.2682351315
 20
67.5673031213
  0
VERTEX
  8
0
 62
7
  6
CONTINUOUS
 10
38.3473929252
 20
67.5460157115
  0
SEQEND
  0
LINE
  8
2_FEATURE
 62
7
  6
CONTINUOUS
 10
37.9285987932
 20
74.631106263
 11
37.9285987932
 21
68.0419020604
  0
LINE
  8
1_AXIS
 62
7
  6
CONTINUOUS
 10
41.7936979786
 20
81.8365041617
 11
41.7936979786
 21
76.3365041617
  0
LINE
  8
1_AXIS
 62
7
  6
CONTINUOUS
 10
41.7936979786
 20
66.3365041617
 11
41.7936979786
 21
60.8365041617
  0
POLYLINE
  8
0
 62
7
  6
CONTINUOUS
 66
1
 70
0
  0
VERTEX
  8
0
 62
7
  6
CONTINUOUS
 10
54.1586640927
 20
68.0364233193
  0
VERTEX
  8
0
 62
7
  6
CONTINUOUS
 10
54.1620494434
 20
67.9782612716
  0
VERTEX
  8
0
 62
7
  6
CONTINUOUS
 10
54.1996367384
 20
67.8379042594
  0
VERTEX
  8
0
 62
7
  6
CONTINUOUS
 10
54.2711117017
 20
67.7199432792
  0
VERTEX
  8
0
 62
7
  6
CONTINUOUS
 10
54.3655013548
 20
67.6304005001
  0
VERTEX
  8
0
 62
7
  6
CONTINUOUS
 10
54.4698021674
 20
67.5716258955
  0
VERTEX
  8
0
 62
7
  6
CONTINUOUS
 10
54.5666097678
 20
67.5408418146
  0
VERTEX
  8
0
 62
7
  6
CONTINUOUS
 10
54.6129265014
 20
67.5316016491
  0
SEQEND
  0
LINE
  8
2_FEATURE
 62
7
  6
CONTINUOUS
 10
54.1586625114
 20
74.6366566384
 11
54.1586625114
 21
68.036351685
  0
POLYLINE
  8
0
 62
7
  6
CONTINUOUS
 66
1
 70
0
  0
VERTEX
  8
0
 62
7
  6
CONTINUOUS
 10
75.7349435892
 20
68.0290229602
  0
VERTEX
  8
0
 62
7
  6
CONTINUOUS
 10
75.7428493271
 20
67.9402804037
  0
VERTEX
  8
0
 62
7
  6
CONTINUOUS
 10
75.7973887129
 20
67.7865008537
  0
VERTEX
  8
0
 62
7
  6
CONTINUOUS
 10
75.8902386905
 20
67.6657604858
  0
VERTEX
  8
0
 62
7
  6
CONTINUOUS
 10
76.0014733611
 20
67.5849103741
  0
VERTEX
  8
0
 62
7
  6
CONTINUOUS
 10
76.0315758434
 20
67.5699080996
  0
SEQEND
  0
LINE
  8
2_FEATURE
 62
7
  6
CONTINUOUS
 10
75.7349428345
 20
74.6439936641
 11
75.7349428345
 21
68.0290146592
  0
POLYLINE
  8
0
 62
7
  6
CONTINUOUS
 66
1
 70
0
  0
VERTEX
  8
0
 62
7
  6
CONTINUOUS
 10
29.1928051349
 20
75.115803357
  0
VERTEX
  8
0
 62
7
  6
CONTINUOUS
 10
29.1261905852
 20
75.0955430424
  0
VERTEX
  8
0
 62
7
  6
CONTINUOUS
 10
29.0543164801
 20
75.0614497886
  0
VERTEX
  8
0
 62
7
  6
CONTINUOUS
 10
28.9835808334
 20
75.0121795717
  0
VERTEX
  8
0
 62
7
  6
CONTINUOUS
 10
28.9156494658
 20
74.9434401291
  0
VERTEX
  8
0
 62
7
  6
CONTINUOUS
 10
28.8579150769
 20
74.8546847887
  0
VERTEX
  8
0
 62
7
  6
CONTINUOUS
 10
28.8185899305
 20
74.7496827856
  0
VERTEX
  8
0
 62
7
  6
CONTINUOUS
 10
28.8035320249
 20
74.6278870406
  0
SEQEND
  0
LINE
  8
0
 62
7
  6
CONTINUOUS
 10
76.3129780494
 20
75.2542674233
 11
76.2566770796
 21
75.2064603507
  0
LINE
  8
0
 62
7
  6
CONTINUOUS
 10
76.2568759851
 20
67.4664566674
 11
76.3115791841
 21
67.4196576565
  0
POLYLINE
  8
0
 62
7
  6
CONTINUOUS
 66
1
 70
0
  0
VERTEX
  8
0
 62
7
  6
CONTINUOUS
 10
76.0315007634
 20
75.1030657358
  0
VERTEX
  8
0
 62
7
  6
CONTINUOUS
 10
76.0057289395
 20
75.0903666431
  0
VERTEX
  8
0
 62
7
  6
CONTINUOUS
 10
75.89307717
 20
75.0099456464
  0
VERTEX
  8
0
 62
7
  6
CONTINUOUS
 10
75.7987673969
 20
74.888991653
  0
VERTEX
  8
0
 62
7
  6
CONTINUOUS
 10
75.7431287832
 20
74.7342701536
  0
VERTEX
  8
0
 62
7
  6
CONTINUOUS
 10
75.7349435894
 20
74.6439853281
  0
SEQEND
  0
LINE
  8
0
 62
7
  6
CONTINUOUS
 10
76.2643259997
 20
75.2099717142
 11
76.0315534714
 21
75.1030915951
  0
POLYLINE
  8
0
 62
7
  6
CONTINUOUS
 66
1
 70
0
  0
VERTEX
  8
0
 62
7
  6
CONTINUOUS
 10
170.199761878
 20
67.5388925152
  0
VERTEX
  8
0
 62
7
  6
CONTINUOUS
 10
170.2640812738
 20
67.5512869101
  0
VERTEX
  8
0
 62
7
  6
CONTINUOUS
 10
170.3456618094
 20
67.5773278537
  0
VERTEX
  8
0
 62
7
  6
CONTINUOUS
 10
170.4342952439
 20
67.6242329854
  0
VERTEX
  8
0
 62
7
  6
CONTINUOUS
 10
170.4776367267
 20
67.6564490111
  0
VERTEX
  8
0
 62
7
  6
CONTINUOUS
 10
170.5563079713
 20
67.7384655742
  0
VERTEX
  8
0
 62
7
  6
CONTINUOUS
 10
170.6165402652
 20
67.8406901448
  0
VERTEX
  8
0
 62
7
  6
CONTINUOUS
 10
170.6516981207
 20
67.9580021216
  0
VERTEX
  8
0
 62
7
  6
CONTINUOUS
 10
170.6587946962
 20
68.041996388
  0
SEQEND
  0
POLYLINE
  8
0
 62
7
  6
CONTINUOUS
 66
1
 70
0
  0
VERTEX
  8
0
 62
7
  6
CONTINUOUS
 10
29.1948456146
 20
67.5567361099
  0
VERTEX
  8
0
 62
7
  6
CONTINUOUS
 10
29.2400667679
 20
67.5483206793
  0
VERTEX
  8
0
 62
7
  6
CONTINUOUS
 10
29.2797894759
 20
67.5430840229
  0
VERTEX
  8
0
 62
7
  6
CONTINUOUS
 10
29.3315582289
 20
67.537354189
  0
SEQEND
  0
LINE
  8
0
 62
7
  6
CONTINUOUS
 10
76.0315534698
 20
67.569916729
 11
76.2643259997
 21
67.4630366092
  0
LINE
  8
0
 62
7
  6
CONTINUOUS
 10
76.2645050755
 20
67.4629544131
 11
76.2690029734
 21
67.4608024733
  0
LINE
  8
0
 62
7
  6
CONTINUOUS
 10
76.4733796886
 20
75.3230937118
 11
76.3129780494
 21
75.2542674233
  0
LINE
  8
0
 62
7
  6
CONTINUOUS
 10
132.3213664685
 20
67.4625563683
 11
132.3228946529
 21
67.4629561588
  0
LINE
  8
0
 62
7
  6
CONTINUOUS
 10
153.0069457688
 20
67.3573608286
 11
153.0070655674
 21
67.3573868047
  0
POLYLINE
  8
0
 62
7
  6
CONTINUOUS
 66
1
 70
0
  0
VERTEX
  8
0
 62
7
  6
CONTINUOUS
 10
153.0070655674
 20
67.3573868047
  0
VERTEX
  8
0
 62
7
  6
CONTINUOUS
 10
153.097374682
 20
67.3762661062
  0
VERTEX
  8
0
 62
7
  6
CONTINUOUS
 10
153.2364732404
 20
67.4030826852
  0
SEQEND
  0
POLYLINE
  8
0
 62
7
  6
CONTINUOUS
 66
1
 70
0
  0
VERTEX
  8
0
 62
7
  6
CONTINUOUS
 10
153.9745261287
 20
67.5316115265
  0
VERTEX
  8
0
 62
7
  6
CONTINUOUS
 10
154.0184081592
 20
67.5402991956
  0
VERTEX
  8
0
 62
7
  6
CONTINUOUS
 10
154.1151431773
 20
67.570602307
  0
VERTEX
  8
0
 62
7
  6
CONTINUOUS
 10
154.2200371116
 20
67.6290531515
  0
VERTEX
  8
0
 62
7
  6
CONTINUOUS
 10
154.3151429592
 20
67.7185462002
  0
VERTEX
  8
0
 62
7
  6
CONTINUOUS
 10
154.3872565601
 20
67.8367432498
  0
VERTEX
  8
0
 62
7
  6
CONTINUOUS
 10
154.4252697785
 20
67.9775981811
  0
VERTEX
  8
0
 62
7
  6
CONTINUOUS
 10
154.428733432
 20
68.0364270416
  0
SEQEND
  0
LINE
  8
0
 62
7
  6
CONTINUOUS
 10
152.9537059379
 20
67.3473981081
 11
153.0069457419
 21
67.3573609522
  0
LINE
  8
0
 62
7
  6
CONTINUOUS
 10
153.2364732404
 20
67.4030826852
 11
153.3579015666
 21
67.4247822568
  0
LINE
  8
0
 62
7
  6
CONTINUOUS
 10
153.3579155009
 20
67.4247846708
 11
153.9746147068
 21
67.5316263994
  0
LINE
  8
0
 62
7
  6
CONTINUOUS
 10
170.1274646739
 20
67.5291274917
 11
170.199761878
 21
67.5388925152
  0
LINE
  8
0
 62
7
  6
CONTINUOUS
 10
168.5878768374
 20
67.3499054461
 11
168.9905784558
 21
67.3987474266
  0
LINE
  8
0
 62
7
  6
CONTINUOUS
 10
168.9905784558
 20
67.3987474266
 11
170.1274646739
 21
67.5291274917
  0
POLYLINE
  8
0
 62
7
  6
CONTINUOUS
 66
1
 70
0
  0
VERTEX
  8
0
 62
7
  6
CONTINUOUS
 10
179.2554654904
 20
67.5373152464
  0
VERTEX
  8
0
 62
7
  6
CONTINUOUS
 10
179.3082661444
 20
67.5431625519
  0
VERTEX
  8
0
 62
7
  6
CONTINUOUS
 10
179.3479035124
 20
67.5484070807
  0
VERTEX
  8
0
 62
7
  6
CONTINUOUS
 10
179.3946189396
 20
67.5572116697
  0
SEQEND
  0
LINE
  8
0
 62
7
  6
CONTINUOUS
 10
168.5353849421
 20
67.3441220381
 11
168.5878704702
 21
67.349904764
  0
POLYLINE
  8
0
 62
7
  6
CONTINUOUS
 66
1
 70
0
  0
VERTEX
  8
0
 62
7
  6
CONTINUOUS
 10
180.8756926927
 20
67.5466481085
  0
VERTEX
  8
0
 62
7
  6
CONTINUOUS
 10
180.8897193966
 20
67.5480936645
  0
VERTEX
  8
0
 62
7
  6
CONTINUOUS
 10
180.9089432561
 20
67.5504826556
  0
VERTEX
  8
0
 62
7
  6
CONTINUOUS
 10
180.94696173
 20
67.5573529228
  0
VERTEX
  8
0
 62
7
  6
CONTINUOUS
 10
180.9896523303
 20
67.5687652214
  0
VERTEX
  8
0
 62
7
  6
CONTINUOUS
 10
181.0116893686
 20
67.5762799493
  0
VERTEX
  8
0
 62
7
  6
CONTINUOUS
 10
181.0564055761
 20
67.5952107059
  0
VERTEX
  8
0
 62
7
  6
CONTINUOUS
 10
181.1012378317
 20
67.6197112995
  0
VERTEX
  8
0
 62
7
  6
CONTINUOUS
 10
181.1458675866
 20
67.6506099075
  0
VERTEX
  8
0
 62
7
  6
CONTINUOUS
 10
181.1896039181
 20
67.6888128147
  0
VERTEX
  8
0
 62
7
  6
CONTINUOUS
 10
181.2309550897
 20
67.7347529204
  0
VERTEX
  8
0
 62
7
  6
CONTINUOUS
 10
181.2681291891
 20
67.7884323784
  0
VERTEX
  8
0
 62
7
  6
CONTINUOUS
 10
181.2993577374
 20
67.8496747859
  0
VERTEX
  8
0
 62
7
  6
CONTINUOUS
 10
181.322798158
 20
67.9180095127
  0
VERTEX
  8
0
 62
7
  6
CONTINUOUS
 10
181.3365367277
 20
67.9925438925
  0
VERTEX
  8
0
 62
7
  6
CONTINUOUS
 10
181.3393652749
 20
68.0456529992
  0
SEQEND
  0
LINE
  8
0
 62
7
  6
CONTINUOUS
 10
179.1861834594
 20
67.5303865359
 11
179.2554654904
 21
67.5373152464
  0
LINE
  8
0
 62
7
  6
CONTINUOUS
 10
180.8337917221
 20
67.5426798812
 11
180.8756926927
 21
67.5466481085
  0
LINE
  8
0
 62
7
  6
CONTINUOUS
 10
177.2372525133
 20
67.3482824498
 11
179.1861834594
 21
67.5303865359
  0
LINE
  8
0
 62
7
  6
CONTINUOUS
 10
180.6502561425
 20
67.5262156147
 11
180.8337917221
 21
67.5426798812
  0
LINE
  8
0
 62
7
  6
CONTINUOUS
 10
179.4379090486
 20
67.4193527173
 11
178.6288390462
 21
67.3479200674
  0
LINE
  8
0
 62
7
  6
CONTINUOUS
 10
180.6498881578
 20
67.5261859352
 11
179.4379090486
 21
67.4193527173
  0
LINE
  8
0
 62
7
  6
CONTINUOUS
 10
177.1781732858
 20
67.3433151923
 11
177.2372523003
 21
67.3482825402
  0
LINE
  8
1_AXIS
 62
7
  6
CONTINUOUS
 10
164.7936979786
 20
58.8365041617
 11
43.7937576509
 21
58.8365041617
  0
LINE
  8
0
 62
7
  6
CONTINUOUS
 10
31.350143486
 20
67.3482825566
 11
31.4025851284
 21
67.3438059336
  0
LINE
  8
0
 62
7
  6
CONTINUOUS
 10
27.7637181943
 20
67.541748119
 11
29.958556911
 21
67.3479200674
  0
LINE
  8
0
 62
7
  6
CONTINUOUS
 10
29.399071025
 20
67.5305929098
 11
31.3501434255
 21
67.3482824538
  0
LINE
  8
0
 62
7
  6
CONTINUOUS
 10
29.3315582289
 20
67.537354189
 11
29.399071025
 21
67.5305929098
  0
LINE
  8
0
 62
7
  6
CONTINUOUS
 10
39.9995246921
 20
67.3499048637
 11
40.0462960043
 21
67.3446738096
  0
LINE
  8
0
 62
7
  6
CONTINUOUS
 10
38.4736711761
 20
67.5275255909
 11
39.5917860902
 21
67.3993383292
  0
LINE
  8
0
 62
7
  6
CONTINUOUS
 10
39.5917860902
 20
67.3993383292
 11
39.9995191777
 21
67.3499054401
  0
LINE
  8
0
 62
7
  6
CONTINUOUS
 10
38.4148312154
 20
67.5348906692
 11
38.4737012543
 21
67.5275223096
  0
LINE
  8
0
 62
7
  6
CONTINUOUS
 10
38.3473929252
 20
67.5460157115
 11
38.4148312154
 21
67.5348906692
  0
LINE
  8
0
 62
7
  6
CONTINUOUS
 10
54.6127812515
 20
67.5316263992
 11
55.2294804563
 21
67.4247846708
  0
LINE
  8
0
 62
7
  6
CONTINUOUS
 10
55.2294949724
 20
67.4247821563
 11
55.3478214353
 21
67.4036547949
  0
LINE
  8
0
 62
7
  6
CONTINUOUS
 10
55.5804451358
 20
67.3573620529
 11
55.6287038828
 21
67.3481966617
  0
POLYLINE
  8
0
 62
7
  6
CONTINUOUS
 66
1
 70
0
  0
VERTEX
  8
0
 62
7
  6
CONTINUOUS
 10
55.3478214353
 20
67.4036547949
  0
VERTEX
  8
0
 62
7
  6
CONTINUOUS
 10
55.4872702033
 20
67.3768209003
  0
VERTEX
  8
0
 62
7
  6
CONTINUOUS
 10
55.5803317525
 20
67.3573865081
  0
SEQEND
  0
LINE
  8
0
 62
7
  6
CONTINUOUS
 10
55.5804451358
 20
67.3573620529
 11
55.5803317796
 21
67.3573866327
  0
LINE
  8
0
 62
7
  6
CONTINUOUS
 10
76.3115791841
 20
67.4196576565
 11
76.4724801397
 21
67.3501275029
  0
LINE
  8
0
 62
7
  6
CONTINUOUS
 10
131.9987005377
 20
67.3365042683
 11
132.1140175219
 21
67.3499149022
  0
LINE
  8
0
 62
7
  6
CONTINUOUS
 10
152.8502099374
 20
67.3371761539
 11
152.9537059379
 21
67.3473981081
  0
LINE
  8
0
 62
7
  6
CONTINUOUS
 10
178.6288390462
 20
67.3479200674
 11
178.3698474223
 21
67.3365041617
  0
LINE
  8
0
 62
7
  6
CONTINUOUS
 10
152.8162097109
 20
67.3365042794
 11
152.8502099374
 21
67.3371761539
  0
POLYLINE
  8
0
 62
7
  6
CONTINUOUS
 66
1
 70
0
  0
VERTEX
  8
0
 62
7
  6
CONTINUOUS
 10
168.3757222299
 20
67.3365042681
  0
VERTEX
  8
0
 62
7
  6
CONTINUOUS
 10
168.4206699079
 20
67.337112941
  0
VERTEX
  8
0
 62
7
  6
CONTINUOUS
 10
168.5353849421
 20
67.3441220381
  0
SEQEND
  0
POLYLINE
  8
0
 62
7
  6
CONTINUOUS
 66
1
 70
0
  0
VERTEX
  8
0
 62
7
  6
CONTINUOUS
 10
176.9910295088
 20
67.3365042707
  0
VERTEX
  8
0
 62
7
  6
CONTINUOUS
 10
177.0449481877
 20
67.3370727714
  0
VERTEX
  8
0
 62
7
  6
CONTINUOUS
 10
177.1781732858
 20
67.3433151923
  0
SEQEND
  0
LINE
  8
0
 62
7
  6
CONTINUOUS
 10
55.7320022547
 20
67.3373967336
 11
55.7711983532
 21
67.3365042822
  0
LINE
  8
0
 62
7
  6
CONTINUOUS
 10
30.2175485349
 20
67.3365041617
 11
29.958556911
 21
67.3479200674
  0
POLYLINE
  8
0
 62
7
  6
CONTINUOUS
 66
1
 70
0
  0
VERTEX
  8
0
 62
7
  6
CONTINUOUS
 10
31.4025851284
 20
67.3438059336
  0
VERTEX
  8
0
 62
7
  6
CONTINUOUS
 10
31.5358468722
 20
67.3372200417
  0
VERTEX
  8
0
 62
7
  6
CONTINUOUS
 10
31.5963749763
 20
67.3365042704
  0
SEQEND
  0
POLYLINE
  8
0
 62
7
  6
CONTINUOUS
 66
1
 70
0
  0
VERTEX
  8
0
 62
7
  6
CONTINUOUS
 10
40.0462960043
 20
67.3446738096
  0
VERTEX
  8
0
 62
7
  6
CONTINUOUS
 10
40.1610339686
 20
67.3372766202
  0
VERTEX
  8
0
 62
7
  6
CONTINUOUS
 10
40.2116791146
 20
67.3365042684
  0
SEQEND
  0
LINE
  8
0
 62
7
  6
CONTINUOUS
 10
55.6287038828
 20
67.3481966617
 11
55.7320022547
 21
67.3373967336
  0
LINE
  8
0
 62
7
  6
CONTINUOUS
 10
76.4724801397
 20
67.3501275029
 11
76.5886955709
 21
67.3365042685
  0
LINE
  8
1_AXIS
 62
2
  6
CENTER
 10
104.2936979786
 20
56.8365041617
 11
104.2936979786
 21
85.8365041617
  0
LINE
  8
0
 62
7
  6
CONTINUOUS
 10
178.3698474214
 20
67.3365041617
 11
30.2175485358
 21
67.3365041617
  0
LINE
  8
0
 62
7
  6
CONTINUOUS
 10
55.7711867093
 20
75.3365040428
 11
55.7371907256
 21
75.3358323492
  0
POLYLINE
  8
0
 62
7
  6
CONTINUOUS
 66
1
 70
0
  0
VERTEX
  8
0
 62
7
  6
CONTINUOUS
 10
40.2116783048
 20
75.3365040539
  0
VERTEX
  8
0
 62
7
  6
CONTINUOUS
 10
40.1667312154
 20
75.3358955171
  0
VERTEX
  8
0
 62
7
  6
CONTINUOUS
 10
40.052016259
 20
75.3288867865
  0
SEQEND
  0
POLYLINE
  8
0
 62
7
  6
CONTINUOUS
 66
1
 70
0
  0
VERTEX
  8
0
 62
7
  6
CONTINUOUS
 10
31.596441136
 20
75.336504054
  0
VERTEX
  8
0
 62
7
  6
CONTINUOUS
 10
31.5424524374
 20
75.3359356455
  0
VERTEX
  8
0
 62
7
  6
CONTINUOUS
 10
31.4092273982
 20
75.3296934788
  0
SEQEND
  0
LINE
  8
1_AXIS
 62
7
  6
CONTINUOUS
 10
176.990905455
 20
75.3365041617
 11
175.0834214674
 21
75.3365041617
  0
LINE
  8
1_AXIS
 62
7
  6
CONTINUOUS
 10
168.3757553315
 20
75.3365041617
 11
164.1258305567
 21
75.3365041617
  0
LINE
  8
1_AXIS
 62
7
  6
CONTINUOUS
 10
152.8163199583
 20
75.3365041617
 11
146.68449969
 21
75.3365041617
  0
LINE
  8
1_AXIS
 62
7
  6
CONTINUOUS
 10
131.9987055876
 20
75.3365041617
 11
124.6494676968
 21
75.3365041617
  0
LINE
  8
1_AXIS
 62
7
  6
CONTINUOUS
 10
61.9028962672
 20
75.3365041617
 11
55.7710759989
 21
75.3365041617
  0
LINE
  8
1_AXIS
 62
7
  6
CONTINUOUS
 10
44.4615654005
 20
75.3365041617
 11
40.2116406257
 21
75.3365041617
  0
LINE
  8
1_AXIS
 62
7
  6
CONTINUOUS
 10
33.5039744898
 20
75.3365041617
 11
31.5964905022
 21
75.3365041617
  0
LINE
  8
0
 62
7
  6
CONTINUOUS
 10
30.2175485358
 20
75.3365041617
 11
178.3698474214
 21
75.3365041617
  0
LINE
  8
0
 62
7
  6
CONTINUOUS
 10
152.8553889012
 20
75.335611803
 11
152.8161972014
 21
75.3365040402
  0
LINE
  8
0
 62
7
  6
CONTINUOUS
 10
76.2660296714
 20
75.2104520604
 11
76.2645010081
 21
75.2100520443
  0
LINE
  8
0
 62
7
  6
CONTINUOUS
 10
76.5886955002
 20
75.3365040538
 11
76.4733796886
 21
75.3230937118
  0
LINE
  8
0
 62
7
  6
CONTINUOUS
 10
40.052016259
 20
75.3288867865
 11
39.9995256396
 21
75.3231035794
  0
LINE
  8
0
 62
7
  6
CONTINUOUS
 10
55.7371907256
 20
75.3358323492
 11
55.6336946935
 21
75.3256109519
  0
LINE
  8
0
 62
7
  6
CONTINUOUS
 10
31.3501434454
 20
75.3247258731
 11
29.4012532736
 21
75.142625706
  0
LINE
  8
0
 62
7
  6
CONTINUOUS
 10
27.8675440574
 20
75.140625633
 11
27.7294697672
 21
75.1280738502
  0
LINE
  8
0
 62
7
  6
CONTINUOUS
 10
27.9375077994
 20
75.1468223882
 11
29.1494869086
 21
75.2536556061
  0
LINE
  8
0
 62
7
  6
CONTINUOUS
 10
29.1494869086
 20
75.2536556061
 11
29.958556911
 21
75.325088256
  0
LINE
  8
0
 62
7
  6
CONTINUOUS
 10
27.9371399194
 20
75.1467927165
 11
27.8675440574
 21
75.140625633
  0
LINE
  8
0
 62
7
  6
CONTINUOUS
 10
31.4092273982
 20
75.3296934788
 11
31.3501437107
 21
75.3247257892
  0
LINE
  8
0
 62
7
  6
CONTINUOUS
 10
29.958556911
 20
75.325088256
 11
30.2175485349
 21
75.3365041617
  0
LINE
  8
0
 62
7
  6
CONTINUOUS
 10
178.3698474223
 20
75.3365041617
 11
178.6288390462
 21
75.325088256
  0
POLYLINE
  8
0
 62
7
  6
CONTINUOUS
 66
1
 70
0
  0
VERTEX
  8
0
 62
7
  6
CONTINUOUS
 10
177.1848060279
 20
75.3292027573
  0
VERTEX
  8
0
 62
7
  6
CONTINUOUS
 10
177.0515443269
 20
75.3357883913
  0
VERTEX
  8
0
 62
7
  6
CONTINUOUS
 10
176.9909468908
 20
75.3365040542
  0
SEQEND
  0
POLYLINE
  8
0
 62
7
  6
CONTINUOUS
 66
1
 70
0
  0
VERTEX
  8
0
 62
7
  6
CONTINUOUS
 10
168.5410946289
 20
75.3283350424
  0
VERTEX
  8
0
 62
7
  6
CONTINUOUS
 10
168.426356708
 20
75.3357318608
  0
VERTEX
  8
0
 62
7
  6
CONTINUOUS
 10
168.3757124107
 20
75.3365040539
  0
SEQEND
  0
LINE
  8
0
 62
7
  6
CONTINUOUS
 10
177.2372524241
 20
75.3247257721
 11
177.1848060279
 21
75.3292027573
  0
LINE
  8
0
 62
7
  6
CONTINUOUS
 10
180.8236656858
 20
75.1312613132
 11
178.6288390462
 21
75.325088256
  0
LINE
  8
0
 62
7
  6
CONTINUOUS
 10
179.1883589839
 20
75.1424121355
 11
177.237252517
 21
75.3247258742
  0
LINE
  8
0
 62
7
  6
CONTINUOUS
 10
152.958687305
 20
75.3248124415
 11
152.8553889012
 21
75.335611803
  0
LINE
  8
0
 62
7
  6
CONTINUOUS
 10
132.1149148364
 20
75.322881049
 11
131.9987003061
 21
75.3365040538
  0
POLYLINE
  8
0
 62
7
  6
CONTINUOUS
 66
1
 70
0
  0
VERTEX
  8
0
 62
7
  6
CONTINUOUS
 10
132.5559900013
 20
67.5699864506
  0
VERTEX
  8
0
 62
7
  6
CONTINUOUS
 10
132.5816577582
 20
67.5826378174
  0
VERTEX
  8
0
 62
7
  6
CONTINUOUS
 10
132.6942991136
 20
67.6630448714
  0
VERTEX
  8
0
 62
7
  6
CONTINUOUS
 10
132.7886204535
 20
67.7840007146
  0
VERTEX
  8
0
 62
7
  6
CONTINUOUS
 10
132.8442657961
 20
67.9387274565
  0
VERTEX
  8
0
 62
7
  6
CONTINUOUS
 10
132.8524525779
 20
68.0290199117
  0
SEQEND
  0
LINE
  8
0
 62
7
  6
CONTINUOUS
 10
132.3230699575
 20
67.4630366092
 11
132.5558424884
 21
67.5699167295
  0
LINE
  8
0
 62
7
  6
CONTINUOUS
 10
132.1140175219
 20
67.3499149022
 11
132.2744197421
 21
67.4187420972
  0
LINE
  8
0
 62
7
  6
CONTINUOUS
 10
55.5804505195
 20
75.3156475674
 11
55.5803304066
 21
75.3156215232
  0
POLYLINE
  8
0
 62
7
  6
CONTINUOUS
 66
1
 70
0
  0
VERTEX
  8
0
 62
7
  6
CONTINUOUS
 10
55.5803304066
 20
75.3156215232
  0
VERTEX
  8
0
 62
7
  6
CONTINUOUS
 10
55.4900274636
 20
75.2967434685
  0
VERTEX
  8
0
 62
7
  6
CONTINUOUS
 10
55.3509296261
 20
75.2699269146
  0
SEQEND
  0
POLYLINE
  8
0
 62
7
  6
CONTINUOUS
 66
1
 70
0
  0
VERTEX
  8
0
 62
7
  6
CONTINUOUS
 10
54.6128783213
 20
75.1413983407
  0
VERTEX
  8
0
 62
7
  6
CONTINUOUS
 10
54.5690175013
 20
75.1327157706
  0
VERTEX
  8
0
 62
7
  6
CONTINUOUS
 10
54.4722647501
 20
75.1024104499
  0
VERTEX
  8
0
 62
7
  6
CONTINUOUS
 10
54.3673741485
 20
75.0439671067
  0
VERTEX
  8
0
 62
7
  6
CONTINUOUS
 10
54.2722557569
 20
74.9544677118
  0
VERTEX
  8
0
 62
7
  6
CONTINUOUS
 10
54.2001389737
 20
74.8362651345
  0
VERTEX
  8
0
 62
7
  6
CONTINUOUS
 10
54.1621271597
 20
74.6954086061
  0
VERTEX
  8
0
 62
7
  6
CONTINUOUS
 10
54.1586640927
 20
74.6365850068
  0
SEQEND
  0
POLYLINE
  8
0
 62
7
  6
CONTINUOUS
 66
1
 70
0
  0
VERTEX
  8
0
 62
7
  6
CONTINUOUS
 10
38.3876502856
 20
75.1341182714
  0
VERTEX
  8
0
 62
7
  6
CONTINUOUS
 10
38.3233467895
 20
75.1217290183
  0
VERTEX
  8
0
 62
7
  6
CONTINUOUS
 10
38.2417428078
 20
75.0956837177
  0
VERTEX
  8
0
 62
7
  6
CONTINUOUS
 10
38.1531037566
 20
75.0487769846
  0
VERTEX
  8
0
 62
7
  6
CONTINUOUS
 10
38.1097618486
 20
75.0165614374
  0
VERTEX
  8
0
 62
7
  6
CONTINUOUS
 10
38.0310916415
 20
74.9345486597
  0
VERTEX
  8
0
 62
7
  6
CONTINUOUS
 10
37.9708568629
 20
74.8323242504
  0
VERTEX
  8
0
 62
7
  6
CONTINUOUS
 10
37.93569676
 20
74.7150108822
  0
VERTEX
  8
0
 62
7
  6
CONTINUOUS
 10
37.9285992937
 20
74.6310118269
  0
SEQEND
  0
LINE
  8
0
 62
7
  6
CONTINUOUS
 10
55.6336946935
 20
75.3256109519
 11
55.5804505464
 21
75.3156474436
  0
LINE
  8
0
 62
7
  6
CONTINUOUS
 10
55.3509296261
 20
75.2699269146
 11
55.2294943613
 21
75.2482260615
  0
LINE
  8
0
 62
7
  6
CONTINUOUS
 10
55.2294804563
 20
75.2482236526
 11
54.6127812532
 21
75.1413819245
  0
LINE
  8
0
 62
7
  6
CONTINUOUS
 10
38.4599488367
 20
75.1438830288
 11
38.3876502856
 21
75.1341182714
  0
LINE
  8
0
 62
7
  6
CONTINUOUS
 10
39.9995191273
 20
75.323102878
 11
39.596830712
 21
75.2742624509
  0
LINE
  8
0
 62
7
  6
CONTINUOUS
 10
39.596830712
 20
75.2742624509
 11
38.4599488367
 21
75.1438830288
  0
POLYLINE
  8
0
 62
7
  6
CONTINUOUS
 66
1
 70
0
  0
VERTEX
  8
0
 62
7
  6
CONTINUOUS
 10
29.331958048
 20
75.1356959865
  0
VERTEX
  8
0
 62
7
  6
CONTINUOUS
 10
29.2791427188
 20
75.1298473088
  0
VERTEX
  8
0
 62
7
  6
CONTINUOUS
 10
29.2395011991
 20
75.1246025105
  0
VERTEX
  8
0
 62
7
  6
CONTINUOUS
 10
29.1928051349
 20
75.115803357
  0
SEQEND
  0
LINE
  8
0
 62
7
  6
CONTINUOUS
 10
29.4012532736
 20
75.142625706
 11
29.331958048
 21
75.1356959865
  0
POLYLINE
  8
0
 62
7
  6
CONTINUOUS
 66
1
 70
0
  0
VERTEX
  8
0
 62
7
  6
CONTINUOUS
 10
27.7294697672
 20
75.1280738502
  0
VERTEX
  8
0
 62
7
  6
CONTINUOUS
 10
27.7117021355
 20
75.1263600906
  0
VERTEX
  8
0
 62
7
  6
CONTINUOUS
 10
27.6976727022
 20
75.1249142389
  0
VERTEX
  8
0
 62
7
  6
CONTINUOUS
 10
27.6784683294
 20
75.1225278969
  0
VERTEX
  8
0
 62
7
  6
CONTINUOUS
 10
27.6404427767
 20
75.1156575281
  0
VERTEX
  8
0
 62
7
  6
CONTINUOUS
 10
27.5977470467
 20
75.1042446825
  0
VERTEX
  8
0
 62
7
  6
CONTINUOUS
 10
27.5757060522
 20
75.096728829
  0
VERTEX
  8
0
 62
7
  6
CONTINUOUS
 10
27.5309842249
 20
75.0777956576
  0
VERTEX
  8
0
 62
7
  6
CONTINUOUS
 10
27.4861484928
 20
75.0532925584
  0
VERTEX
  8
0
 62
7
  6
CONTINUOUS
 10
27.4415166027
 20
75.0223913305
  0
VERTEX
  8
0
 62
7
  6
CONTINUOUS
 10
27.3977798309
 20
74.9841863656
  0
VERTEX
  8
0
 62
7
  6
CONTINUOUS
 10
27.3564297484
 20
74.9382453499
  0
VERTEX
  8
0
 62
7
  6
CONTINUOUS
 10
27.3192574211
 20
74.8845659723
  0
VERTEX
  8
0
 62
7
  6
CONTINUOUS
 10
27.2880308082
 20
74.8233245115
  0
VERTEX
  8
0
 62
7
  6
CONTINUOUS
 10
27.2645921302
 20
74.7549914865
  0
VERTEX
  8
0
 62
7
  6
CONTINUOUS
 10
27.2508548232
 20
74.6804593464
  0
VERTEX
  8
0
 62
7
  6
CONTINUOUS
 10
27.2480267605
 20
74.6273549364
  0
SEQEND
  0
LINE
  8
1_AXIS
 62
7
  6
CONTINUOUS
 10
164.7936979786
 20
83.8365041617
 11
43.7937576509
 21
83.8365041617
  0
LINE
  8
0
 62
7
  6
CONTINUOUS
 10
179.2558579119
 20
75.1356519972
 11
179.1883589839
 21
75.1424121355
  0
LINE
  8
0
 62
7
  6
CONTINUOUS
 10
168.5878711146
 20
75.3231034793
 11
168.5410946289
 21
75.3283350424
  0
LINE
  8
0
 62
7
  6
CONTINUOUS
 10
170.1137247811
 20
75.1454827325
 11
168.9956216581
 21
75.2736686078
  0
LINE
  8
0
 62
7
  6
CONTINUOUS
 10
168.9956216581
 20
75.2736686078
 11
168.5878767605
 21
75.3231028873
  0
LINE
  8
0
 62
7
  6
CONTINUOUS
 10
170.1725819618
 20
75.1381152481
 11
170.1136923948
 21
75.1454862469
  0
LINE
  8
0
 62
7
  6
CONTINUOUS
 10
170.2400082671
 20
75.1269916225
 11
170.1725819618
 21
75.1381152481
  0
LINE
  8
0
 62
7
  6
CONTINUOUS
 10
153.9746147057
 20
75.1413819242
 11
153.3579155009
 21
75.2482236526
  0
LINE
  8
0
 62
7
  6
CONTINUOUS
 10
153.3579009544
 20
75.2482261725
 11
153.2395803401
 21
75.2693524555
  0
LINE
  8
0
 62
7
  6
CONTINUOUS
 10
153.0069504188
 20
75.3156463583
 11
152.958687305
 21
75.3248124415
  0
POLYLINE
  8
0
 62
7
  6
CONTINUOUS
 66
1
 70
0
  0
VERTEX
  8
0
 62
7
  6
CONTINUOUS
 10
153.2395803401
 20
75.2693524555
  0
VERTEX
  8
0
 62
7
  6
CONTINUOUS
 10
153.1001310143
 20
75.2961863617
  0
VERTEX
  8
0
 62
7
  6
CONTINUOUS
 10
153.0070642067
 20
75.315621813
  0
SEQEND
  0
LINE
  8
0
 62
7
  6
CONTINUOUS
 10
153.0069504188
 20
75.3156463583
 11
153.0070641801
 21
75.3156216908
  0
LINE
  8
0
 62
7
  6
CONTINUOUS
 10
132.2758153419
 20
75.2533516074
 11
132.1149148364
 21
75.322881049
  0
LINE
  8
0
 62
7
  6
CONTINUOUS
 10
132.5558424873
 20
75.1030915944
 11
132.3230699574
 21
75.2099717142
  0
LINE
  8
0
 62
7
  6
CONTINUOUS
 10
132.3228906072
 20
75.21005402
 11
132.3183931512
 21
75.2122057713
  0
LINE
  8
0
 62
7
  6
CONTINUOUS
 10
132.2744197421
 20
67.4187420972
 11
132.3307187784
 21
67.4665479272
  0
POLYLINE
  8
0
 62
7
  6
CONTINUOUS
 66
1
 70
0
  0
VERTEX
  8
0
 62
7
  6
CONTINUOUS
 10
179.3925689398
 20
75.1162678027
  0
VERTEX
  8
0
 62
7
  6
CONTINUOUS
 10
179.3473294951
 20
75.1246876455
  0
VERTEX
  8
0
 62
7
  6
CONTINUOUS
 10
179.3076122489
 20
75.1299236116
  0
VERTEX
  8
0
 62
7
  6
CONTINUOUS
 10
179.2558579119
 20
75.1356519972
  0
SEQEND
  0
LINE
  8
0
 62
7
  6
CONTINUOUS
 10
132.3305200313
 20
75.2065516289
 11
132.2758153419
 21
75.2533516074
  0
POLYLINE
  8
0
 62
7
  6
CONTINUOUS
 66
1
 70
0
  0
VERTEX
  8
0
 62
7
  6
CONTINUOUS
 10
179.3946189396
 20
67.5572116697
  0
VERTEX
  8
0
 62
7
  6
CONTINUOUS
 10
179.4612246233
 20
67.5774725745
  0
VERTEX
  8
0
 62
7
  6
CONTINUOUS
 10
179.5330971108
 20
67.611568415
  0
VERTEX
  8
0
 62
7
  6
CONTINUOUS
 10
179.6038152282
 20
67.6608283777
  0
VERTEX
  8
0
 62
7
  6
CONTINUOUS
 10
179.6717353395
 20
67.7295537924
  0
VERTEX
  8
0
 62
7
  6
CONTINUOUS
 10
179.7294722913
 20
67.8183056211
  0
VERTEX
  8
0
 62
7
  6
CONTINUOUS
 10
179.7688034319
 20
67.9233133766
  0
VERTEX
  8
0
 62
7
  6
CONTINUOUS
 10
179.7838642878
 20
68.0451206022
  0
SEQEND
  0
POLYLINE
  8
0
 62
7
  6
CONTINUOUS
 66
1
 70
0
  0
VERTEX
  8
0
 62
7
  6
CONTINUOUS
 10
132.852452578
 20
74.6439881143
  0
VERTEX
  8
0
 62
7
  6
CONTINUOUS
 10
132.8420380137
 20
74.7457144051
  0
VERTEX
  8
0
 62
7
  6
CONTINUOUS
 10
132.7780536512
 20
74.9070305107
  0
VERTEX
  8
0
 62
7
  6
CONTINUOUS
 10
132.7288156994
 20
74.9740447132
  0
VERTEX
  8
0
 62
7
  6
CONTINUOUS
 10
132.6075575306
 20
75.0757558639
  0
VERTEX
  8
0
 62
7
  6
CONTINUOUS
 10
132.5555019917
 20
75.1032458904
  0
SEQEND
  0
LINE
  8
0
 62
7
  6
CONTINUOUS
 10
132.8524531227
 20
74.6439945011
 11
132.8524531227
 21
68.0290138224
  0
POLYLINE
  8
0
 62
7
  6
CONTINUOUS
 66
1
 70
0
  0
VERTEX
  8
0
 62
7
  6
CONTINUOUS
 10
154.4287334321
 20
74.6365812793
  0
VERTEX
  8
0
 62
7
  6
CONTINUOUS
 10
154.4253475059
 20
74.6947485573
  0
VERTEX
  8
0
 62
7
  6
CONTINUOUS
 10
154.3877587856
 20
74.8351040621
  0
VERTEX
  8
0
 62
7
  6
CONTINUOUS
 10
154.3162868297
 20
74.9530596514
  0
VERTEX
  8
0
 62
7
  6
CONTINUOUS
 10
154.2219092494
 20
75.042596227
  0
VERTEX
  8
0
 62
7
  6
CONTINUOUS
 10
154.1176060637
 20
75.101377794
  0
VERTEX
  8
0
 62
7
  6
CONTINUOUS
 10
154.020815955
 20
75.1321597486
  0
VERTEX
  8
0
 62
7
  6
CONTINUOUS
 10
153.9744759743
 20
75.1414054732
  0
SEQEND
  0
LINE
  8
0
 62
7
  6
CONTINUOUS
 10
154.4287334458
 20
74.6366581047
 11
154.4287334458
 21
68.0363502187
  0
LINE
  8
1_AXIS
 62
7
  6
CONTINUOUS
 10
166.7936979786
 20
81.8365041617
 11
166.7936979786
 21
76.3365041617
  0
LINE
  8
1_AXIS
 62
7
  6
CONTINUOUS
 10
166.7936979786
 20
66.3365041617
 11
166.7936979786
 21
60.8365041617
  0
POLYLINE
  8
0
 62
7
  6
CONTINUOUS
 66
1
 70
0
  0
VERTEX
  8
0
 62
7
  6
CONTINUOUS
 10
170.6587946961
 20
74.6310119479
  0
VERTEX
  8
0
 62
7
  6
CONTINUOUS
 10
170.6579762179
 20
74.6596273012
  0
VERTEX
  8
0
 62
7
  6
CONTINUOUS
 10
170.6337330669
 20
74.7874263231
  0
VERTEX
  8
0
 62
7
  6
CONTINUOUS
 10
170.5793645269
 20
74.9016243744
  0
VERTEX
  8
0
 62
7
  6
CONTINUOUS
 10
170.5020337103
 20
74.9949326778
  0
VERTEX
  8
0
 62
7
  6
CONTINUOUS
 10
170.4116204433
 20
75.0629651019
  0
VERTEX
  8
0
 62
7
  6
CONTINUOUS
 10
170.3191562013
 20
75.1057067478
  0
VERTEX
  8
0
 62
7
  6
CONTINUOUS
 10
170.2400082671
 20
75.1269916225
  0
SEQEND
  0
LINE
  8
0
 62
7
  6
CONTINUOUS
 10
170.658797164
 20
74.6311071617
 11
170.658797164
 21
68.0419011617
  0
LINE
  8
0
 62
7
  6
CONTINUOUS
 10
179.7838642872
 20
74.6278877283
 11
179.7754687608
 21
74.7191383226
  0
POLYLINE
  8
0
 62
7
  6
CONTINUOUS
 66
1
 70
0
  0
VERTEX
  8
0
 62
7
  6
CONTINUOUS
 10
181.3393652743
 20
74.6273553245
  0
VERTEX
  8
0
 62
7
  6
CONTINUOUS
 10
181.3392815318
 20
74.6365060033
  0
VERTEX
  8
0
 62
7
  6
CONTINUOUS
 10
181.3348130965
 20
74.6946718027
  0
VERTEX
  8
0
 62
7
  6
CONTINUOUS
 10
181.3237919456
 20
74.7511737354
  0
VERTEX
  8
0
 62
7
  6
CONTINUOUS
 10
181.3066710463
 20
74.8051916072
  0
VERTEX
  8
0
 62
7
  6
CONTINUOUS
 10
181.2840211204
 20
74.8560076997
  0
VERTEX
  8
0
 62
7
  6
CONTINUOUS
 10
181.2565081041
 20
74.9030235249
  0
VERTEX
  8
0
 62
7
  6
CONTINUOUS
 10
181.2248685253
 20
74.9457713556
  0
VERTEX
  8
0
 62
7
  6
CONTINUOUS
 10
181.1898840251
 20
74.9839203617
  0
VERTEX
  8
0
 62
7
  6
CONTINUOUS
 10
181.1523568273
 20
75.0172769707
  0
VERTEX
  8
0
 62
7
  6
CONTINUOUS
 10
181.1130852678
 20
75.0457817614
  0
VERTEX
  8
0
 62
7
  6
CONTINUOUS
 10
181.0728426775
 20
75.0695007362
  0
VERTEX
  8
0
 62
7
  6
CONTINUOUS
 10
181.0323614563
 20
75.0886124266
  0
VERTEX
  8
0
 62
7
  6
CONTINUOUS
 10
180.9923291155
 20
75.1033910386
  0
VERTEX
  8
0
 62
7
  6
CONTINUOUS
 10
180.9534166108
 20
75.1141868409
  0
VERTEX
  8
0
 62
7
  6
CONTINUOUS
 10
180.9183204548
 20
75.1211079922
  0
VERTEX
  8
0
 62
7
  6
CONTINUOUS
 10
180.8950581934
 20
75.1243132487
  0
VERTEX
  8
0
 62
7
  6
CONTINUOUS
 10
180.8819147778
 20
75.1257358525
  0
VERTEX
  8
0
 62
7
  6
CONTINUOUS
 10
180.8673165321
 20
75.1271771664
  0
VERTEX
  8
0
 62
7
  6
CONTINUOUS
 10
180.8236656858
 20
75.1312613132
  0
SEQEND
  0
LINE
  8
0
 62
7
  6
CONTINUOUS
 10
179.7838650382
 20
74.6279074332
 11
179.7838650382
 21
68.0451008904
  0
LINE
  8
0
 62
7
  6
CONTINUOUS
 10
181.3393713116
 20
74.6274380743
 11
181.3393713116
 21
68.0455702491
  0
POLYLINE
  8
0
 62
7
  6
CONTINUOUS
 66
1
 70
0
  0
VERTEX
  8
0
 62
7
  6
CONTINUOUS
 10
179.7754687608
 20
74.7191383226
  0
VERTEX
  8
0
 62
7
  6
CONTINUOUS
 10
179.7490757219
 20
74.8111510568
  0
VERTEX
  8
0
 62
7
  6
CONTINUOUS
 10
179.7073780064
 20
74.8936939908
  0
VERTEX
  8
0
 62
7
  6
CONTINUOUS
 10
179.6536049807
 20
74.9645233881
  0
VERTEX
  8
0
 62
7
  6
CONTINUOUS
 10
179.5912170893
 20
75.0223348552
  0
VERTEX
  8
0
 62
7
  6
CONTINUOUS
 10
179.5236665847
 20
75.066733529
  0
VERTEX
  8
0
 62
7
  6
CONTINUOUS
 10
179.4548535644
 20
75.097912369
  0
VERTEX
  8
0
 62
7
  6
CONTINUOUS
 10
179.3925689398
 20
75.1162678027
  0
SEQEND
  0
ARC
  8
0
 62
7
  6
CONTINUOUS
 10
38.8179537128
 20
153.994576421
 40
6.2
 50
98.3010367202
 51
105.5222105263
  0
ARC
  8
0
 62
7
  6
CONTINUOUS
 10
38.8179537128
 20
153.994576421
 40
6.2
 50
81.7430816823
 51
96.3261258121
  0
ARC
  8
0
 62
7
  6
CONTINUOUS
 10
55.3359932966
 20
134.8990111561
 40
6.2
 50
117.2484051413
 51
124.4695789474
  0
ARC
  8
0
 62
7
  6
CONTINUOUS
 10
55.3359932966
 20
134.8990111561
 40
6.2
 50
100.6904501034
 51
115.2734942332
  0
ARC
  8
0
 62
7
  6
CONTINUOUS
 10
41.411084184
 20
150.0254947595
 40
6.2
 50
329.9896636616
 51
344.5727077913
  0
ARC
  8
0
 62
7
  6
CONTINUOUS
 10
41.411084184
 20
150.0254947595
 40
6.2
 50
320.7935789474
 51
328.0147527535
  0
ARC
  8
0
 62
7
  6
CONTINUOUS
 10
59.0773795149
 20
131.9869733744
 40
6.2
 50
348.9370320826
 51
3.5200762124
  0
ARC
  8
0
 62
7
  6
CONTINUOUS
 10
59.0773795149
 20
131.9869733744
 40
6.2
 50
339.7409473684
 51
346.9621211745
  0
ARC
  8
0
 62
7
  6
CONTINUOUS
 10
54.556881395
 20
139.026114819
 40
2.0
 50
47.8323128807
 51
100.6904501034
  0
ARC
  8
0
 62
7
  6
CONTINUOUS
 10
45.4597531446
 20
148.9082304009
 40
2.0
 50
344.5727077913
 51
37.430845014
  0
ARC
  8
0
 62
7
  6
CONTINUOUS
 10
63.2694555681
 20
132.244846143
 40
2.0
 50
3.5200762124
 51
56.3782134351
  0
ARC
  8
0
 62
7
  6
CONTINUOUS
 10
50.3491545165
 20
139.9662965328
 40
0.8
 50
225.0156864448
 51
304.4695789474
  0
ARC
  8
0
 62
7
  6
CONTINUOUS
 10
46.0492523296
 20
144.6372354524
 40
0.8
 50
140.7935789474
 51
220.24747145
  0
ARC
  8
0
 62
7
  6
CONTINUOUS
 10
29.3952269811
 20
177.4188899738
 40
6.2
 50
79.3536682992
 51
86.5748421053
  0
ARC
  8
0
 62
7
  6
CONTINUOUS
 10
29.3952269811
 20
177.4188899738
 40
6.2
 50
62.7957132613
 51
77.3787573911
  0
ARC
  8
0
 62
7
  6
CONTINUOUS
 10
30.559095782
 20
172.8228760171
 40
6.2
 50
311.0422952405
 51
325.6253393703
  0
ARC
  8
0
 62
7
  6
CONTINUOUS
 10
30.559095782
 20
172.8228760171
 40
6.2
 50
301.8462105263
 51
309.0673843324
  0
ARC
  8
0
 62
7
  6
CONTINUOUS
 10
31.3153177546
 20
181.1542950953
 40
2.0
 50
9.9375760386
 51
62.7957132613
  0
ARC
  8
0
 62
7
  6
CONTINUOUS
 10
39.4211246118
 20
158.1510394447
 40
2.0
 50
28.8849444596
 51
81.7430816823
  0
ARC
  8
0
 62
7
  6
CONTINUOUS
 10
34.0256215467
 20
170.4515474606
 40
2.0
 50
325.6253393703
 51
18.483476593
  0
ARC
  8
0
 62
7
  6
CONTINUOUS
 10
28.5723015831
 20
184.4806699122
 40
0.8
 50
187.1209496027
 51
266.5748421053
  0
ARC
  8
0
 62
7
  6
CONTINUOUS
 10
28.0480246456
 20
190.807751617
 40
0.8
 50
102.8988421053
 51
182.3527346078
  0
ARC
  8
0
 62
7
  6
CONTINUOUS
 10
35.7466604851
 20
160.4065262039
 40
0.8
 50
206.0683180237
 51
285.5222105263
  0
ARC
  8
0
 62
7
  6
CONTINUOUS
 10
33.196390247
 20
166.2205567266
 40
0.8
 50
121.8462105263
 51
201.3001030289
  0
ARC
  8
0
 62
7
  6
CONTINUOUS
 10
77.1593598397
 20
122.2014949736
 40
6.2
 50
136.1957735623
 51
143.4169473684
  0
ARC
  8
0
 62
7
  6
CONTINUOUS
 10
77.1593598397
 20
122.2014949736
 40
6.2
 50
119.6378185244
 51
134.2208626542
  0
ARC
  8
0
 62
7
  6
CONTINUOUS
 10
101.9231529529
 20
117.2780007743
 40
6.2
 50
155.1431419834
 51
162.3643157895
  0
ARC
  8
0
 62
7
  6
CONTINUOUS
 10
101.9231529529
 20
117.2780007743
 40
6.2
 50
138.5851869455
 51
153.1682310753
  0
ARC
  8
0
 62
7
  6
CONTINUOUS
 10
81.6435645549
 20
120.6620655504
 40
6.2
 50
7.8844005037
 51
22.4674446334
  0
ARC
  8
0
 62
7
  6
CONTINUOUS
 10
81.6435645549
 20
120.6620655504
 40
6.2
 50
358.6883157895
 51
5.9094895956
  0
ARC
  8
0
 62
7
  6
CONTINUOUS
 10
75.0823940013
 20
125.8520035554
 40
2.0
 50
66.7796813018
 51
119.6378185244
  0
ARC
  8
0
 62
7
  6
CONTINUOUS
 10
98.7734046536
 20
120.0563250266
 40
2.0
 50
85.7270497228
 51
138.5851869455
  0
ARC
  8
0
 62
7
  6
CONTINUOUS
 10
85.5247712134
 20
122.2671309304
 40
2.0
 50
22.4674446334
 51
75.3255818561
  0
ARC
  8
0
 62
7
  6
CONTINUOUS
 10
70.7973768678
 20
125.3749969466
 40
0.8
 50
243.9630548658
 51
323.4169473684
  0
ARC
  8
0
 62
7
  6
CONTINUOUS
 10
65.213803854
 20
128.3966755539
 40
0.8
 50
159.7409473684
 51
239.194839871
  0
ARC
  8
0
 62
7
  6
CONTINUOUS
 10
94.8754453604
 20
118.2138211628
 40
0.8
 50
262.9104232869
 51
342.3643157895
  0
ARC
  8
0
 62
7
  6
CONTINUOUS
 10
88.6132682937
 20
119.2587936947
 40
0.8
 50
178.6883157895
 51
258.1422082921
  0
ARC
  8
0
 62
7
  6
CONTINUOUS
 10
35.0405675486
 20
226.9061972514
 40
6.2
 50
41.4589314571
 51
48.6801052632
  0
ARC
  8
0
 62
7
  6
CONTINUOUS
 10
35.0405675486
 20
226.9061972514
 40
6.2
 50
24.9009764192
 51
39.4840205489
  0
ARC
  8
0
 62
7
  6
CONTINUOUS
 10
28.0889117515
 20
202.6335639753
 40
6.2
 50
60.4062998781
 51
67.6274736842
  0
ARC
  8
0
 62
7
  6
CONTINUOUS
 10
28.0889117515
 20
202.6335639753
 40
6.2
 50
43.8483448402
 51
58.43138897
  0
ARC
  8
0
 62
7
  6
CONTINUOUS
 10
33.1360933671
 20
222.564433443
 40
6.2
 50
273.1475583984
 51
287.7306025282
  0
ARC
  8
0
 62
7
  6
CONTINUOUS
 10
33.1360933671
 20
222.564433443
 40
6.2
 50
263.9514736842
 51
271.1726474903
  0
ARC
  8
0
 62
7
  6
CONTINUOUS
 10
27.6973956382
 20
197.90866715
 40
6.2
 50
292.0949268195
 51
306.6779709492
  0
ARC
  8
0
 62
7
  6
CONTINUOUS
 10
27.6973956382
 20
197.90866715
 40
6.2
 50
282.8988421053
 51
290.1200159114
  0
ARC
  8
0
 62
7
  6
CONTINUOUS
 10
38.8501222724
 20
228.6746125892
 40
2.0
 50
332.0428391965
 51
24.9009764192
  0
ARC
  8
0
 62
7
  6
CONTINUOUS
 10
31.1178507708
 20
205.543122089
 40
2.0
 50
350.9902076175
 51
43.8483448402
  0
ARC
  8
0
 62
7
  6
CONTINUOUS
 10
34.4151691295
 20
218.5639378245
 40
2.0
 50
287.7306025282
 51
340.5887397509
  0
ARC
  8
0
 62
7
  6
CONTINUOUS
 10
30.2061263517
 20
194.5402446398
 40
2.0
 50
306.6779709492
 51
359.5361081719
  0
ARC
  8
0
 62
7
  6
CONTINUOUS
 10
29.603530919
 20
209.579920638
 40
0.8
 50
168.1735811816
 51
247.6274736842
  0
ARC
  8
0
 62
7
  6
CONTINUOUS
 10
31.1620608233
 20
215.7344160474
 40
0.8
 50
83.9514736842
 51
163.4053661868
  0
ARC
  8
0
 62
7
  6
CONTINUOUS
 10
49.4968746009
 20
247.606473358
 40
6.2
 50
22.511563036
 51
29.7327368421
  0
ARC
  8
0
 62
7
  6
CONTINUOUS
 10
49.4968746009
 20
247.606473358
 40
6.2
 50
5.9536079981
 51
20.5366521279
  0
ARC
  8
0
 62
7
  6
CONTINUOUS
 10
46.2858216796
 20
244.1183400445
 40
6.2
 50
254.2001899774
 51
268.7832341071
  0
ARC
  8
0
 62
7
  6
CONTINUOUS
 10
46.2858216796
 20
244.1183400445
 40
6.2
 50
245.0041052632
 51
252.2252790693
  0
ARC
  8
0
 62
7
  6
CONTINUOUS
 10
53.6742206633
 20
248.0421106783
 40
2.0
 50
313.0954707754
 51
5.9536079981
  0
ARC
  8
0
 62
7
  6
CONTINUOUS
 10
64.2738187069
 20
256.2921089869
 40
2.0
 50
249.8358656861
 51
302.6940029088
  0
ARC
  8
0
 62
7
  6
CONTINUOUS
 10
46.1966347853
 20
239.919287092
 40
2.0
 50
268.7832341071
 51
321.6413713298
  0
ARC
  8
0
 62
7
  6
CONTINUOUS
 10
54.9586625114
 20
252.1578264457
 40
0.8
 50
130.2788443395
 51
209.7327368421
  0
ARC
  8
0
 62
7
  6
CONTINUOUS
 10
59.9687309146
 20
256.0573192079
 40
0.8
 50
46.0567368421
 51
125.5106293447
  0
ARC
  8
0
 62
7
  6
CONTINUOUS
 10
38.7285987932
 20
232.9843851103
 40
0.8
 50
149.2262127606
 51
228.6801052632
  0
ARC
  8
0
 62
7
  6
CONTINUOUS
 10
42.201044641
 20
238.2993591498
 40
0.8
 50
65.0041052632
 51
144.4579977657
  0
ARC
  8
0
 62
7
  6
CONTINUOUS
 10
64.6957182322
 20
193.9403859708
 40
4.0
 50
75.0
 51
285.0
  0
ARC
  8
0
 62
7
  6
CONTINUOUS
 10
94.0136979786
 20
269.9473750425
 40
6.2
 50
344.6168261939
 51
351.838
  0
ARC
  8
0
 62
7
  6
CONTINUOUS
 10
94.0136979786
 20
269.9473750425
 40
6.2
 50
328.058871156
 51
342.6419152858
  0
ARC
  8
0
 62
7
  6
CONTINUOUS
 10
69.8912677265
 20
262.4911961811
 40
6.2
 50
3.564194615
 51
10.7853684211
  0
ARC
  8
0
 62
7
  6
CONTINUOUS
 10
69.8912677265
 20
262.4911961811
 40
6.2
 50
347.0062395771
 51
1.5892837068
  0
ARC
  8
0
 62
7
  6
CONTINUOUS
 10
89.3372702159
 20
269.167017268
 40
6.2
 50
216.3054531353
 51
230.888497265
  0
ARC
  8
0
 62
7
  6
CONTINUOUS
 10
89.3372702159
 20
269.167017268
 40
6.2
 50
207.1093684211
 51
214.3305422271
  0
ARC
  8
0
 62
7
  6
CONTINUOUS
 10
65.7216034741
 20
260.2346867309
 40
6.2
 50
235.2528215563
 51
249.8358656861
  0
ARC
  8
0
 62
7
  6
CONTINUOUS
 10
65.7216034741
 20
260.2346867309
 40
6.2
 50
226.0567368421
 51
233.2779106482
  0
ARC
  8
0
 62
7
  6
CONTINUOUS
 10
97.5777849585
 20
267.7253750425
 40
2.0
 50
275.2007339333
 51
328.058871156
  0
ARC
  8
0
 62
7
  6
CONTINUOUS
 10
73.9837248635
 20
261.5468474206
 40
2.0
 50
294.1481023544
 51
347.0062395771
  0
ARC
  8
0
 62
7
  6
CONTINUOUS
 10
86.68777752
 20
265.9081542063
 40
2.0
 50
230.888497265
 51
283.7466344877
  0
ARC
  8
0
 62
7
  6
CONTINUOUS
 10
101.1193149989
 20
270.1843325679
 40
0.8
 50
92.3841074974
 51
171.838
  0
ARC
  8
0
 62
7
  6
CONTINUOUS
 10
76.5349428345
 20
265.0225047691
 40
0.8
 50
111.3314759185
 51
190.785368421
  0
ARC
  8
0
 62
7
  6
CONTINUOUS
 10
82.5397151424
 20
267.0839457062
 40
0.8
 50
27.1093684211
 51
106.5632609236
  0
ARC
  8
0
 62
7
  6
CONTINUOUS
 10
126.9438314023
 20
120.6620655504
 40
6.2
 50
174.0905104044
 51
181.3116842105
  0
ARC
  8
0
 62
7
  6
CONTINUOUS
 10
126.9438314023
 20
120.6620655504
 40
6.2
 50
157.5325553666
 51
172.1155994963
  0
ARC
  8
0
 62
7
  6
CONTINUOUS
 10
106.6642430043
 20
117.2780007743
 40
6.2
 50
26.8317689247
 51
41.4148130545
  0
ARC
  8
0
 62
7
  6
CONTINUOUS
 10
106.6642430043
 20
117.2780007743
 40
6.2
 50
17.6356842105
 51
24.8568580166
  0
ARC
  8
0
 62
7
  6
CONTINUOUS
 10
131.4280361175
 20
122.2014949736
 40
6.2
 50
45.7791373458
 51
60.3621814756
  0
ARC
  8
0
 62
7
  6
CONTINUOUS
 10
131.4280361175
 20
122.2014949736
 40
6.2
 50
36.5830526316
 51
43.8042264377
  0
ARC
  8
0
 62
7
  6
CONTINUOUS
 10
123.0626247438
 20
122.2671309304
 40
2.0
 50
104.6744181439
 51
157.5325553665
  0
ARC
  8
0
 62
7
  6
CONTINUOUS
 10
109.8139913036
 20
120.0563250266
 40
2.0
 50
41.4148130545
 51
94.2729502772
  0
ARC
  8
0
 62
7
  6
CONTINUOUS
 10
133.5050019559
 20
125.8520035554
 40
2.0
 50
60.3621814756
 51
113.2203186982
  0
ARC
  8
0
 62
7
  6
CONTINUOUS
 10
119.9741276635
 20
119.2587936947
 40
0.8
 50
281.8577917079
 51
1.3116842105
  0
ARC
  8
0
 62
7
  6
CONTINUOUS
 10
113.7119505968
 20
118.2138211628
 40
0.8
 50
197.6356842105
 51
277.0895767131
  0
ARC
  8
0
 62
7
  6
CONTINUOUS
 10
137.7900190894
 20
125.3749969466
 40
0.8
 50
216.5830526316
 51
296.0369451342
  0
ARC
  8
0
 62
7
  6
CONTINUOUS
 10
104.2936979786
 20
154.3424062243
 40
4.0
 50
165.0
 51
15.0
  0
ARC
  8
0
 62
7
  6
CONTINUOUS
 10
169.7694422444
 20
153.994576421
 40
6.2
 50
74.4777894737
 51
81.6989632798
  0
ARC
  8
0
 62
7
  6
CONTINUOUS
 10
169.7694422444
 20
153.994576421
 40
6.2
 50
83.6738741879
 51
98.2569183177
  0
ARC
  8
0
 62
7
  6
CONTINUOUS
 10
149.5100164423
 20
131.9869733744
 40
6.2
 50
193.0378788255
 51
200.2590526316
  0
ARC
  8
0
 62
7
  6
CONTINUOUS
 10
149.5100164423
 20
131.9869733744
 40
6.2
 50
176.4799237876
 51
191.0629679174
  0
ARC
  8
0
 62
7
  6
CONTINUOUS
 10
167.1763117732
 20
150.0254947595
 40
6.2
 50
211.9852472465
 51
219.2064210526
  0
ARC
  8
0
 62
7
  6
CONTINUOUS
 10
167.1763117732
 20
150.0254947595
 40
6.2
 50
195.4272922087
 51
210.0103363384
  0
ARC
  8
0
 62
7
  6
CONTINUOUS
 10
153.2514026606
 20
134.8990111561
 40
6.2
 50
64.7265057668
 51
79.3095498966
  0
ARC
  8
0
 62
7
  6
CONTINUOUS
 10
153.2514026606
 20
134.8990111561
 40
6.2
 50
55.5304210526
 51
62.7515948587
  0
ARC
  8
0
 62
7
  6
CONTINUOUS
 10
145.3179403891
 20
132.244846143
 40
2.0
 50
123.6217865649
 51
176.4799237876
  0
ARC
  8
0
 62
7
  6
CONTINUOUS
 10
163.1276428126
 20
148.9082304009
 40
2.0
 50
142.569154986
 51
195.4272922087
  0
ARC
  8
0
 62
7
  6
CONTINUOUS
 10
154.0305145622
 20
139.026114819
 40
2.0
 50
79.3095498966
 51
132.1676871193
  0
ARC
  8
0
 62
7
  6
CONTINUOUS
 10
143.3735921032
 20
128.3966755539
 40
0.8
 50
300.805160129
 51
20.2590526316
  0
ARC
  8
0
 62
7
  6
CONTINUOUS
 10
162.5381436276
 20
144.6372354524
 40
0.8
 50
319.75252855
 51
39.2064210526
  0
ARC
  8
0
 62
7
  6
CONTINUOUS
 10
158.2382414407
 20
139.9662965328
 40
0.8
 50
235.5304210526
 51
314.9843135552
  0
ARC
  8
0
 62
7
  6
CONTINUOUS
 10
179.1921689761
 20
177.4188899738
 40
6.2
 50
93.4251578947
 51
100.6463317008
  0
ARC
  8
0
 62
7
  6
CONTINUOUS
 10
179.1921689761
 20
177.4188899738
 40
6.2
 50
102.6212426089
 51
117.2042867387
  0
ARC
  8
0
 62
7
  6
CONTINUOUS
 10
178.0283001752
 20
172.8228760171
 40
6.2
 50
214.3746606297
 51
228.9577047595
  0
ARC
  8
0
 62
7
  6
CONTINUOUS
 10
178.0283001752
 20
172.8228760171
 40
6.2
 50
230.9326156676
 51
238.1537894737
  0
ARC
  8
0
 62
7
  6
CONTINUOUS
 10
177.2720782026
 20
181.1542950953
 40
2.0
 50
117.2042867387
 51
170.0624239614
  0
ARC
  8
0
 62
7
  6
CONTINUOUS
 10
169.1662713454
 20
158.1510394447
 40
2.0
 50
98.2569183177
 51
151.1150555404
  0
ARC
  8
0
 62
7
  6
CONTINUOUS
 10
174.5617744105
 20
170.4515474606
 40
2.0
 50
161.516523407
 51
214.3746606297
  0
ARC
  8
0
 62
7
  6
CONTINUOUS
 10
180.0150943741
 20
184.4806699122
 40
0.8
 50
273.4251578947
 51
352.8790503973
  0
ARC
  8
0
 62
7
  6
CONTINUOUS
 10
180.5393713116
 20
190.807751617
 40
0.8
 50
357.6472653922
 51
77.1011578947
  0
ARC
  8
0
 62
7
  6
CONTINUOUS
 10
172.8407354721
 20
160.4065262039
 40
0.8
 50
254.4777894737
 51
333.9316819763
  0
ARC
  8
0
 62
7
  6
CONTINUOUS
 10
175.3910057101
 20
166.2205567266
 40
0.8
 50
338.6998969711
 51
58.1537894737
  0
ARC
  8
0
 62
7
  6
CONTINUOUS
 10
104.2936979786
 20
193.9403859708
 40
72.09
 50
95.2007339333
 51
103.7466344877
  0
ARC
  8
0
 62
7
  6
CONTINUOUS
 10
104.2936979786
 20
193.9403859708
 40
72.09
 50
76.2533655123
 51
84.7992660667
  0
ARC
  8
0
 62
7
  6
CONTINUOUS
 10
104.2936979786
 20
193.9403859708
 40
72.09
 50
114.1481023544
 51
122.6940029088
  0
ARC
  8
0
 62
7
  6
CONTINUOUS
 10
104.2936979786
 20
193.9403859708
 40
72.09
 50
133.0954707754
 51
141.6413713298
  0
ARC
  8
0
 62
7
  6
CONTINUOUS
 10
104.2936979786
 20
193.9403859708
 40
72.09
 50
152.0428391965
 51
160.5887397509
  0
ARC
  8
0
 62
7
  6
CONTINUOUS
 10
104.2936979786
 20
193.9403859708
 40
72.09
 50
170.9902076175
 51
179.5361081719
  0
ARC
  8
0
 62
7
  6
CONTINUOUS
 10
104.2936979786
 20
193.9403859708
 40
72.09
 50
189.9375760386
 51
198.483476593
  0
ARC
  8
0
 62
7
  6
CONTINUOUS
 10
104.2936979786
 20
193.9403859708
 40
72.09
 50
57.3059970912
 51
65.8518976456
  0
ARC
  8
0
 62
7
  6
CONTINUOUS
 10
104.2936979786
 20
193.9403859708
 40
72.09
 50
208.8849444596
 51
217.430845014
  0
ARC
  8
0
 62
7
  6
CONTINUOUS
 10
104.2936979786
 20
193.9403859708
 40
72.09
 50
227.8323128807
 51
236.3782134351
  0
ARC
  8
0
 62
7
  6
CONTINUOUS
 10
104.2936979786
 20
193.9403859708
 40
72.09
 50
38.3586286702
 51
46.9045292246
  0
ARC
  8
0
 62
7
  6
CONTINUOUS
 10
104.2936979786
 20
193.9403859708
 40
72.09
 50
246.7796813018
 51
255.3255818561
  0
ARC
  8
0
 62
7
  6
CONTINUOUS
 10
104.2936979786
 20
193.9403859708
 40
72.09
 50
265.7270497228
 51
274.2729502772
  0
ARC
  8
0
 62
7
  6
CONTINUOUS
 10
104.2936979786
 20
193.9403859708
 40
72.09
 50
19.4112602491
 51
27.9571608035
  0
ARC
  8
0
 62
7
  6
CONTINUOUS
 10
104.2936979786
 20
193.9403859708
 40
72.09
 50
284.6744181439
 51
293.2203186982
  0
ARC
  8
0
 62
7
  6
CONTINUOUS
 10
104.2936979786
 20
193.9403859708
 40
72.09
 50
0.4638918281
 51
9.0097923825
  0
ARC
  8
0
 62
7
  6
CONTINUOUS
 10
104.2936979786
 20
193.9403859708
 40
72.09
 50
303.6217865649
 51
312.1676871193
  0
ARC
  8
0
 62
7
  6
CONTINUOUS
 10
104.2936979786
 20
193.9403859708
 40
72.09
 50
322.569154986
 51
331.1150555404
  0
ARC
  8
0
 62
7
  6
CONTINUOUS
 10
104.2936979786
 20
193.9403859708
 40
72.09
 50
341.516523407
 51
350.0624239614
  0
CIRCLE
  8
1_AXIS
 62
7
  6
CONTINUOUS
 10
104.2936979786
 20
193.9403859708
 40
62.5
  0
ARC
  8
0
 62
7
  6
CONTINUOUS
 10
114.5736979786
 20
269.9473750425
 40
6.2
 50
197.3580847142
 51
211.941128844
  0
ARC
  8
0
 62
7
  6
CONTINUOUS
 10
114.5736979786
 20
269.9473750425
 40
6.2
 50
188.162
 51
195.3831738061
  0
ARC
  8
0
 62
7
  6
CONTINUOUS
 10
138.6961282307
 20
262.4911961811
 40
6.2
 50
169.2146315789
 51
176.435805385
  0
ARC
  8
0
 62
7
  6
CONTINUOUS
 10
138.6961282307
 20
262.4911961811
 40
6.2
 50
178.4107162932
 51
192.9937604229
  0
ARC
  8
0
 62
7
  6
CONTINUOUS
 10
119.2501257413
 20
269.167017268
 40
6.2
 50
309.111502735
 51
323.6945468647
  0
ARC
  8
0
 62
7
  6
CONTINUOUS
 10
119.2501257413
 20
269.167017268
 40
6.2
 50
325.6694577729
 51
332.8906315789
  0
ARC
  8
0
 62
7
  6
CONTINUOUS
 10
104.2936979786
 20
233.5383657172
 40
4.0
 50
345.0
 51
195.0
  0
ARC
  8
0
 62
7
  6
CONTINUOUS
 10
111.0096109987
 20
267.7253750425
 40
2.0
 50
211.941128844
 51
264.7992660667
  0
ARC
  8
0
 62
7
  6
CONTINUOUS
 10
134.6036710937
 20
261.5468474206
 40
2.0
 50
192.9937604229
 51
245.8518976456
  0
ARC
  8
0
 62
7
  6
CONTINUOUS
 10
121.8996184372
 20
265.9081542063
 40
2.0
 50
256.2533655123
 51
309.111502735
  0
CIRCLE
  8
0
 62
7
  6
CONTINUOUS
 10
104.2936979786
 20
258.9403859708
 40
0.8660254038
  0
ARC
  8
0
 62
7
  6
CONTINUOUS
 10
107.4680809583
 20
270.1843325679
 40
0.8
 50
8.162
 51
87.6158925026
  0
ARC
  8
0
 62
7
  6
CONTINUOUS
 10
132.0524531227
 20
265.0225047691
 40
0.8
 50
349.214631579
 51
68.6685240815
  0
ARC
  8
0
 62
7
  6
CONTINUOUS
 10
126.0476808148
 20
267.0839457062
 40
0.8
 50
73.4367390764
 51
152.8906315789
  0
ARC
  8
0
 62
7
  6
CONTINUOUS
 10
173.5468284086
 20
226.9061972514
 40
6.2
 50
131.3198947368
 51
138.5410685429
  0
ARC
  8
0
 62
7
  6
CONTINUOUS
 10
173.5468284086
 20
226.9061972514
 40
6.2
 50
140.5159794511
 51
155.0990235808
  0
ARC
  8
0
 62
7
  6
CONTINUOUS
 10
180.4984842057
 20
202.6335639753
 40
6.2
 50
112.3725263158
 51
119.5937001219
  0
ARC
  8
0
 62
7
  6
CONTINUOUS
 10
180.4984842057
 20
202.6335639753
 40
6.2
 50
121.56861103
 51
136.1516551598
  0
ARC
  8
0
 62
7
  6
CONTINUOUS
 10
175.4513025901
 20
222.564433443
 40
6.2
 50
252.2693974718
 51
266.8524416016
  0
ARC
  8
0
 62
7
  6
CONTINUOUS
 10
175.4513025901
 20
222.564433443
 40
6.2
 50
268.8273525097
 51
276.0485263158
  0
ARC
  8
0
 62
7
  6
CONTINUOUS
 10
180.890000319
 20
197.90866715
 40
6.2
 50
233.3220290508
 51
247.9050731805
  0
ARC
  8
0
 62
7
  6
CONTINUOUS
 10
180.890000319
 20
197.90866715
 40
6.2
 50
249.8799840886
 51
257.1011578947
  0
ARC
  8
0
 62
7
  6
CONTINUOUS
 10
143.891677725
 20
193.9403859708
 40
4.0
 50
255.0
 51
105.0
  0
ARC
  8
0
 62
7
  6
CONTINUOUS
 10
169.7372736848
 20
228.6746125892
 40
2.0
 50
155.0990235808
 51
207.9571608035
  0
ARC
  8
0
 62
7
  6
CONTINUOUS
 10
177.4695451863
 20
205.543122089
 40
2.0
 50
136.1516551598
 51
189.0097923825
  0
ARC
  8
0
 62
7
  6
CONTINUOUS
 10
174.1722268277
 20
218.5639378245
 40
2.0
 50
199.4112602491
 51
252.2693974718
  0
ARC
  8
0
 62
7
  6
CONTINUOUS
 10
178.3812696055
 20
194.5402446398
 40
2.0
 50
180.4638918281
 51
233.3220290508
  0
ARC
  8
0
 62
7
  6
CONTINUOUS
 10
178.9838650382
 20
209.579920638
 40
0.8
 50
292.3725263158
 51
11.8264188184
  0
ARC
  8
0
 62
7
  6
CONTINUOUS
 10
177.4253351339
 20
215.7344160474
 40
0.8
 50
16.5946338132
 51
96.0485263158
  0
ARC
  8
0
 62
7
  6
CONTINUOUS
 10
159.0905213563
 20
247.606473358
 40
6.2
 50
150.2672631579
 51
157.488436964
  0
ARC
  8
0
 62
7
  6
CONTINUOUS
 10
159.0905213563
 20
247.606473358
 40
6.2
 50
159.4633478721
 51
174.0463920019
  0
ARC
  8
0
 62
7
  6
CONTINUOUS
 10
142.8657924831
 20
260.2346867309
 40
6.2
 50
290.1641343139
 51
304.7471784437
  0
ARC
  8
0
 62
7
  6
CONTINUOUS
 10
142.8657924831
 20
260.2346867309
 40
6.2
 50
306.7220893518
 51
313.9432631579
  0
ARC
  8
0
 62
7
  6
CONTINUOUS
 10
162.3015742776
 20
244.1183400445
 40
6.2
 50
271.2167658929
 51
285.7998100226
  0
ARC
  8
0
 62
7
  6
CONTINUOUS
 10
162.3015742776
 20
244.1183400445
 40
6.2
 50
287.7747209307
 51
294.9958947368
  0
ARC
  8
0
 62
7
  6
CONTINUOUS
 10
154.9131752939
 20
248.0421106783
 40
2.0
 50
174.0463920019
 51
226.9045292246
  0
ARC
  8
0
 62
7
  6
CONTINUOUS
 10
144.3135772503
 20
256.2921089869
 40
2.0
 50
237.3059970912
 51
290.1641343139
  0
ARC
  8
0
 62
7
  6
CONTINUOUS
 10
162.3907611719
 20
239.919287092
 40
2.0
 50
218.3586286702
 51
271.2167658929
  0
ARC
  8
0
 62
7
  6
CONTINUOUS
 10
153.6287334458
 20
252.1578264457
 40
0.8
 50
330.2672631579
 51
49.7211556605
  0
ARC
  8
0
 62
7
  6
CONTINUOUS
 10
148.6186650426
 20
256.0573192079
 40
0.8
 50
54.4893706553
 51
133.9432631579
  0
ARC
  8
0
 62
7
  6
CONTINUOUS
 10
169.858797164
 20
232.9843851103
 40
0.8
 50
311.3198947368
 51
30.7737872394
  0
ARC
  8
0
 62
7
  6
CONTINUOUS
 10
166.3863513162
 20
238.2993591498
 40
0.8
 50
35.5420022343
 51
114.9958947368
  0
ARC
  8
1_AXIS
 62
7
  6
CONTINUOUS
 10
164.7936979786
 20
81.8365041617
 40
2.0
 50
0.0
 51
90.0
  0
ARC
  8
1_AXIS
 62
7
  6
CONTINUOUS
 10
164.7936979786
 20
60.8365041617
 40
2.0
 50
270.0
 51
360.0
  0
ARC
  8
1_AXIS
 62
7
  6
CONTINUOUS
 10
43.7936979786
 20
81.8365041617
 40
2.0
 50
90.0
 51
180.0
  0
ARC
  8
1_AXIS
 62
7
  6
CONTINUOUS
 10
43.7936979786
 20
60.8365041617
 40
2.0
 50
180.0
 51
270.0
  0
ARC
  8
1_AXIS
 62
7
  6
CONTINUOUS
 10
167.7936979786
 20
76.3365041617
 40
1.0
 50
180.0
 51
270.0
  0
ARC
  8
1_AXIS
 62
7
  6
CONTINUOUS
 10
167.7936979786
 20
66.3365041617
 40
1.0
 50
90.0
 51
180.0
  0
ARC
  8
1_AXIS
 62
7
  6
CONTINUOUS
 10
40.7936979786
 20
76.3365041617
 40
1.0
 50
270.0
 51
360.0
  0
ARC
  8
1_AXIS
 62
7
  6
CONTINUOUS
 10
40.7936979786
 20
66.3365041617
 40
1.0
 50
0.0
 51
90.0
  0
ENDSEC
  0
EOF
