  0
SECTION
  2
HEADER
  9
$EXTMAX
 10
210.0
 20
297.0
 30
0.0
  9
$EXTMIN
 10
0.0
 20
0.0
 30
0.0
  9
$LIMMIN
 10
0.0
 20
0.0
  9
$LIMMAX
 10
210.0
 20
297.0
  9
$VIEWCTR
 10
105.0
 20
148.5
  9
$VIEWSIZE
 40
297.0
  9
$CLAYER
  8
0
  9
$LTSCALE
 40
19.36
  9
$CELTYPE
  6
BYLAYER
  9
$DIMSCALE
 40
1.0
  9
$DIMASZ
 40
3.5
  9
$DIMEXO
 40
1.0
  9
$DIMDLI
 40
13.376
  9
$DIMEXE
 40
2.0
  9
$DIMCEN
 40
3.168
  9
$DIMLFAC
 40
1.0
  9
$DIMBLK
  1
_FILLED
  9
$DIMALT
 70
0
  9
$DIMALTF
 40
0.0393700787
  9
$DIMTXT
 40
3.5
  9
$AUNITS
 70
0
  9
$PDMODE
 70
3
  9
$PDSIZE
 40
0.3125
  9
$TILEMODE
 70
1
  0
ENDSEC
  0
SECTION
  2
TABLES
  0
TABLE
  2
LTYPE
 70
6
  0
LTYPE
  2
BYBLOCK
 70
0
  3

 72
65
 73
0
 40
0.0
  0
LTYPE
  2
BYLAYER
 70
0
  3

 72
65
 73
0
 40
0.0
  0
LTYPE
  2
CONTINUOUS
 70
64
  3
Solid line
 72
65
 73
0
 40
0.0
  0
LTYPE
  2
CENTER
 70
64
  3
____ _ ____ _ ____ _ ____ _ ____ _ ____ _ ____
 72
65
 73
4
 40
0.6
 49
0.375
 49
-0.075
 49
0.075
 49
-0.075
  0
LTYPE
  2
HIDDEN
 70
64
  3
- - - - - - - - - - - - - - - - - - - -
 72
65
 73
2
 40
0.2
 49
0.1
 49
-0.1
  0
LTYPE
  2
PHANTOM
 70
64
  3
_____ _ _ _____ _ _ _____ _ _ _____
 72
65
 73
6
 40
0.8
 49
0.45
 49
-0.05
 49
0.1
 49
-0.05
 49
0.1
 49
-0.05
  0
LTYPE
  2
DOT
 70
64
  3
. . . . . . . . . . . . . . . . . . . .
 72
65
 73
2
 40
0.2
 49
0.1
 49
-0.1
  0
LTYPE
  2
DASHED
 70
64
  3
- - - - - - - - - - - - - - - - - - - -
 72
65
 73
2
 40
0.2
 49
0.1
 49
-0.1
  0
ENDTAB
  0
TABLE
  2
LAYER
 70
36
  0
LAYER
  2
0
 70
0
 62
7
  6
CONTINUOUS
  0
LAYER
  2
DEFAULT_1
 70
0
 62
7
  6
CENTER
  0
LAYER
  2
DEFAULT_2
 70
0
 62
8
  6
HIDDEN
  0
LAYER
  2
DEFAULT_3
 70
0
 62
7
  6
PHANTOM
  0
LAYER
  2
1_AXIS
 70
0
 62
7
  6
CONTINUOUS
  0
LAYER
  2
1_CSYS
 70
0
 62
7
  6
CONTINUOUS
  0
LAYER
  2
1_DATUM_PLANE
 70
0
 62
7
  6
CONTINUOUS
  0
LAYER
  2
2_FEATURE
 70
0
 62
7
  6
CONTINUOUS
  0
LAYER
  2
6_DIM
 70
0
 62
7
  6
CONTINUOUS
  0
LAYER
  2
AXES
 70
0
 62
7
  6
CONTINUOUS
  0
LAYER
  2
CSYS
 70
0
 62
7
  6
CONTINUOUS
  0
LAYER
  2
PITCH
 70
0
 62
7
  6
CONTINUOUS
  0
LAYER
  2
PLANES
 70
0
 62
7
  6
CONTINUOUS
  0
LAYER
  2
QUILTS
 70
0
 62
7
  6
CONTINUOUS
  0
LAYER
  2
SQ
 70
0
 62
7
  6
CONTINUOUS
  0
ENDTAB
  0
TABLE
  2
STYLE
 70
1
  0
STYLE
  2
STANDARD
 70
0
 40
0.0
 41
0.8
 50
0.0
 71
0
 42
0.2
  3
txt
  4

  0
STYLE
  2
TEXTSTYLE_1
 70
0
 40
0.0
 41
0.8
 50
0.0
 71
0
 42
0.2
  3
gdt
  4

  0
STYLE
  2
TEXTSTYLE_2
 70
0
 40
0.0
 41
0.6
 50
0.0
 71
0
 42
0.2
  3
txt
  4

  0
STYLE
  2
TEXTSTYLE_3
 70
0
 40
0.0
 41
1.0
 50
0.0
 71
0
 42
0.2
  3
ftb_____.ttf
  4

  0
STYLE
  2
TEXTSTYLE_4
 70
0
 40
0.0
 41
1.0
 50
0.0
 71
0
 42
0.2
  3
fti_____.ttf
  4

  0
STYLE
  2
TEXTSTYLE_5
 70
0
 40
0.0
 41
1.0
 50
0.0
 71
0
 42
0.2
  3
frutiger light.ttf
  4

  0
STYLE
  2
TEXTSTYLE_6
 70
0
 40
0.0
 41
0.7
 50
0.0
 71
0
 42
0.2
  3
txt
  4

  0
STYLE
  2
TEXTSTYLE_7
 70
0
 40
0.0
 41
0.6
 50
0.0
 71
0
 42
0.2
  3
txt
  4

  0
ENDTAB
  0
ENDSEC
  0
SECTION
  2
BLOCKS
  0
BLOCK
  8
0
 62
2
  6
CONTINUOUS
  2
UNI_LOGO2_BL1
 70
64
 10
173.5956734183
 20
35.5937998301
  0
TEXT
  8
0
 62
7
  6
CONTINUOUS
 10
164.6539584268
 20
30.6865562072
  7
TEXTSTYLE_4
 40
1.0655737705
  1
The brand for plastic modular belts and chains
 41
1.0
 72
0
  0
LINE
  8
0
 62
7
  6
CONTINUOUS
 10
149.5737418074
 20
36.1675703219
 11
149.5737418074
 21
34.0364227809
  0
LINE
  8
0
 62
7
  6
CONTINUOUS
 10
149.8628043005
 20
31.0454914852
 11
149.8628043005
 21
31.1422825445
  0
LINE
  8
0
 62
7
  6
CONTINUOUS
 10
149.5737418074
 20
31.1100188581
 11
149.6315543091
 21
30.9164367395
  0
LINE
  8
0
 62
7
  6
CONTINUOUS
 10
150.9671844304
 20
33.9544555678
 11
150.9671844304
 21
36.1675703219
  0
LINE
  8
0
 62
7
  6
CONTINUOUS
 10
151.8862417523
 20
32.1101932727
 11
151.8862417523
 21
30.5937998301
  0
LINE
  8
0
 62
7
  6
CONTINUOUS
 10
152.1753043074
 20
30.5937998301
 11
152.1753043074
 21
31.3358647082
  0
LINE
  8
0
 62
7
  6
CONTINUOUS
 10
152.1753043074
 20
31.4649194539
 11
152.1753043074
 21
32.1101932727
  0
LINE
  8
0
 62
7
  6
CONTINUOUS
 10
149.6315543091
 20
31.3036010218
 11
149.5737418074
 21
31.1100188581
  0
LINE
  8
0
 62
7
  6
CONTINUOUS
 10
149.9784292936
 20
30.8841730531
 11
149.8628043005
 21
31.0454914852
  0
LINE
  8
0
 62
7
  6
CONTINUOUS
 10
151.0768668626
 20
31.400392081
 11
151.1346793074
 21
31.3036010218
  0
LINE
  8
0
 62
7
  6
CONTINUOUS
 10
151.4237418626
 20
31.3036010218
 11
151.3659292523
 21
31.4326557675
  0
LINE
  8
0
 62
7
  6
CONTINUOUS
 10
152.852430332
 20
36.1675703219
 11
152.852430332
 21
34.3642916334
  0
LINE
  8
0
 62
7
  6
CONTINUOUS
 10
152.852430332
 20
33.0528162235
 11
152.852430332
 21
32.3970785186
  0
LINE
  8
0
 62
7
  6
CONTINUOUS
 10
153.2159293074
 20
31.2390736489
 11
153.2159293074
 21
30.5937998301
  0
LINE
  8
0
 62
7
  6
CONTINUOUS
 10
153.5049916972
 20
30.5937998301
 11
153.5049916972
 21
31.2390736489
  0
LINE
  8
0
 62
7
  6
CONTINUOUS
 10
149.8628043005
 20
31.1422825445
 11
149.9206168074
 21
31.2713373354
  0
LINE
  8
0
 62
7
  6
CONTINUOUS
 10
149.6315543091
 20
30.9164367395
 11
149.7471793074
 21
30.7873819712
  0
LINE
  8
0
 62
7
  6
CONTINUOUS
 10
153.1581166972
 20
31.3681283946
 11
153.2159293074
 21
31.2390736489
  0
LINE
  8
0
 62
7
  6
CONTINUOUS
 10
153.9674919177
 20
30.8841730531
 11
154.0253041972
 21
30.7551182848
  0
LINE
  8
0
 62
7
  6
CONTINUOUS
 10
153.5049916972
 20
31.2390736489
 11
153.4471794177
 21
31.400392081
  0
LINE
  8
0
 62
7
  6
CONTINUOUS
 10
153.9674919177
 20
31.4326557675
 11
153.9674919177
 21
31.3681283946
  0
LINE
  8
0
 62
7
  6
CONTINUOUS
 10
153.9674919177
 20
30.9809641124
 11
153.9674919177
 21
30.8841730531
  0
LINE
  8
0
 62
7
  6
CONTINUOUS
 10
154.245872955
 20
32.3970785186
 11
154.245872955
 21
36.1675703219
  0
LINE
  8
0
 62
7
  6
CONTINUOUS
 10
154.2565543074
 20
30.8519093441
 11
154.2565543074
 21
30.9164367395
  0
LINE
  8
0
 62
7
  6
CONTINUOUS
 10
154.5737418074
 20
36.1675703219
 11
154.5737418074
 21
32.3970785186
  0
LINE
  8
0
 62
7
  6
CONTINUOUS
 10
151.3659292523
 20
30.7873819712
 11
151.4237418626
 21
30.9164367395
  0
LINE
  8
0
 62
7
  6
CONTINUOUS
 10
155.759679528
 20
30.6905909007
 11
155.7018665869
 21
30.8519093441
  0
LINE
  8
0
 62
7
  6
CONTINUOUS
 10
155.412804528
 20
31.3681283946
 11
155.412804528
 21
31.2713373354
  0
LINE
  8
0
 62
7
  6
CONTINUOUS
 10
155.412804528
 20
31.1422825445
 11
155.412804528
 21
30.9487004259
  0
LINE
  8
0
 62
7
  6
CONTINUOUS
 10
155.7018665869
 20
30.8519093441
 11
155.7018665869
 21
31.3681283946
  0
LINE
  8
0
 62
7
  6
CONTINUOUS
 10
155.9671844304
 20
32.3970785186
 11
155.9671844304
 21
34.2003572071
  0
LINE
  8
0
 62
7
  6
CONTINUOUS
 10
155.9671844304
 20
35.511832617
 11
155.9671844304
 21
36.1675703219
  0
LINE
  8
0
 62
7
  6
CONTINUOUS
 10
156.279992028
 20
32.1101932727
 11
156.279992028
 21
31.9488748406
  0
LINE
  8
0
 62
7
  6
CONTINUOUS
 10
156.279992028
 20
31.626237886
 11
156.279992028
 21
30.5937998301
  0
LINE
  8
0
 62
7
  6
CONTINUOUS
 10
156.5690540869
 20
30.5937998301
 11
156.5690540869
 21
31.626237886
  0
LINE
  8
0
 62
7
  6
CONTINUOUS
 10
156.5690540869
 20
31.9488748406
 11
156.5690540869
 21
32.1101932727
  0
LINE
  8
0
 62
7
  6
CONTINUOUS
 10
151.1346793074
 20
30.9164367395
 11
151.0768668626
 21
30.8196456577
  0
LINE
  8
0
 62
7
  6
CONTINUOUS
 10
153.4471794177
 20
31.400392081
 11
153.3893668074
 21
31.4649194539
  0
LINE
  8
0
 62
7
  6
CONTINUOUS
 10
154.3143669177
 20
30.7873819712
 11
154.2565543074
 21
30.8519093441
  0
LINE
  8
0
 62
7
  6
CONTINUOUS
 10
155.4706168074
 20
30.6583272086
 11
155.5284290869
 21
30.5937998301
  0
LINE
  8
0
 62
7
  6
CONTINUOUS
 10
155.412804528
 20
30.7551182848
 11
155.4706168074
 21
30.6583272086
  0
LINE
  8
0
 62
7
  6
CONTINUOUS
 10
155.8174918074
 20
30.5937998301
 11
155.759679528
 21
30.6905909007
  0
LINE
  8
0
 62
7
  6
CONTINUOUS
 10
155.7018665869
 20
31.3681283946
 11
155.6440543074
 21
31.4649194539
  0
LINE
  8
0
 62
7
  6
CONTINUOUS
 10
157.0315543074
 20
31.626237886
 11
157.0315543074
 21
30.5937998301
  0
LINE
  8
0
 62
7
  6
CONTINUOUS
 10
157.320617028
 20
30.5937998301
 11
157.320617028
 21
31.3358647082
  0
LINE
  8
0
 62
7
  6
CONTINUOUS
 10
157.320617028
 20
31.4649194539
 11
157.320617028
 21
31.626237886
  0
LINE
  8
0
 62
7
  6
CONTINUOUS
 10
157.852430332
 20
34.6101932727
 11
157.852430332
 21
32.3970785186
  0
LINE
  8
0
 62
7
  6
CONTINUOUS
 10
149.7471793074
 20
31.4326557675
 11
149.6315543091
 21
31.3036010218
  0
LINE
  8
0
 62
7
  6
CONTINUOUS
 10
149.9206168074
 20
31.2713373354
 11
149.9784292936
 21
31.3358647082
  0
LINE
  8
0
 62
7
  6
CONTINUOUS
 10
149.7471793074
 20
30.7873819712
 11
149.8628043005
 21
30.7228545871
  0
LINE
  8
0
 62
7
  6
CONTINUOUS
 10
150.1518667936
 20
30.7873819712
 11
149.9784292936
 21
30.8841730531
  0
LINE
  8
0
 62
7
  6
CONTINUOUS
 10
155.3549915869
 20
31.4326557675
 11
155.412804528
 21
31.3681283946
  0
LINE
  8
0
 62
7
  6
CONTINUOUS
 10
158.3034290869
 20
31.3681283946
 11
158.361242028
 21
31.2068099625
  0
LINE
  8
0
 62
7
  6
CONTINUOUS
 10
158.6503040869
 20
31.2068099625
 11
158.5924918074
 21
31.3681283946
  0
LINE
  8
0
 62
7
  6
CONTINUOUS
 10
158.361242028
 20
31.2068099625
 11
158.361242028
 21
30.5937998301
  0
LINE
  8
0
 62
7
  6
CONTINUOUS
 10
158.6503040869
 20
30.5937998301
 11
158.6503040869
 21
31.2068099625
  0
LINE
  8
0
 62
7
  6
CONTINUOUS
 10
159.1128043074
 20
31.4326557675
 11
159.1128043074
 21
31.3681283946
  0
LINE
  8
0
 62
7
  6
CONTINUOUS
 10
159.245872955
 20
32.3970785186
 11
159.245872955
 21
34.5282260596
  0
LINE
  8
0
 62
7
  6
CONTINUOUS
 10
159.5737418074
 20
36.1675703219
 11
159.5737418074
 21
32.3970785186
  0
LINE
  8
0
 62
7
  6
CONTINUOUS
 10
154.2565543074
 20
30.9164367395
 11
154.3143669177
 21
31.0132277988
  0
LINE
  8
0
 62
7
  6
CONTINUOUS
 10
149.8628043005
 20
30.7228545871
 11
150.0362418212
 21
30.6583272086
  0
LINE
  8
0
 62
7
  6
CONTINUOUS
 10
151.3659292523
 20
31.4326557675
 11
151.1924917523
 21
31.5294468267
  0
LINE
  8
0
 62
7
  6
CONTINUOUS
 10
154.0253041972
 20
30.7551182848
 11
154.1987416972
 21
30.6583272086
  0
LINE
  8
0
 62
7
  6
CONTINUOUS
 10
153.0424918074
 20
31.4326557675
 11
153.1581166972
 21
31.3681283946
  0
LINE
  8
0
 62
7
  6
CONTINUOUS
 10
153.3893668074
 20
31.4649194539
 11
153.2737419177
 21
31.5294468267
  0
LINE
  8
0
 62
7
  6
CONTINUOUS
 10
159.1128043074
 20
30.8519093441
 11
159.228429528
 21
30.7228545871
  0
LINE
  8
0
 62
7
  6
CONTINUOUS
 10
159.4596793074
 20
30.7873819712
 11
159.401867028
 21
30.8519093441
  0
LINE
  8
0
 62
7
  6
CONTINUOUS
 10
159.1128043074
 20
31.3681283946
 11
159.228429528
 21
31.2390736489
  0
LINE
  8
0
 62
7
  6
CONTINUOUS
 10
158.5924918074
 20
31.3681283946
 11
158.534679528
 21
31.4649194539
  0
LINE
  8
0
 62
7
  6
CONTINUOUS
 10
160.9628038663
 20
30.7873819712
 11
160.9628038663
 21
30.8519093441
  0
LINE
  8
0
 62
7
  6
CONTINUOUS
 10
160.9671844304
 20
32.3970785186
 11
160.9671844304
 21
36.1675703219
  0
LINE
  8
0
 62
7
  6
CONTINUOUS
 10
154.0253041972
 20
31.4971831403
 11
153.9674919177
 21
31.4326557675
  0
LINE
  8
0
 62
7
  6
CONTINUOUS
 10
150.9034292799
 20
31.4649194539
 11
151.0768668626
 21
31.400392081
  0
LINE
  8
0
 62
7
  6
CONTINUOUS
 10
155.6440543074
 20
31.4649194539
 11
155.5284290869
 21
31.5294468267
  0
LINE
  8
0
 62
7
  6
CONTINUOUS
 10
159.4596793074
 20
31.3036010218
 11
159.401867028
 21
31.3681283946
  0
LINE
  8
0
 62
7
  6
CONTINUOUS
 10
160.615929528
 20
30.9164367395
 11
160.6737418074
 21
30.8519093441
  0
LINE
  8
0
 62
7
  6
CONTINUOUS
 10
160.9628038663
 20
30.8519093441
 11
160.8471793074
 21
30.9809641124
  0
LINE
  8
0
 62
7
  6
CONTINUOUS
 10
160.615929528
 20
31.4326557675
 11
160.6737418074
 21
31.3681283946
  0
LINE
  8
0
 62
7
  6
CONTINUOUS
 10
160.9628038663
 20
31.3681283946
 11
160.8471793074
 21
31.4971831403
  0
LINE
  8
0
 62
7
  6
CONTINUOUS
 10
154.2565543074
 20
31.3681283946
 11
154.3143669177
 21
31.4326557675
  0
LINE
  8
0
 62
7
  6
CONTINUOUS
 10
154.0831168074
 20
31.1100188581
 11
153.9674919177
 21
30.9809641124
  0
LINE
  8
0
 62
7
  6
CONTINUOUS
 10
155.412804528
 20
30.9487004259
 11
155.3549915869
 21
30.8841730531
  0
LINE
  8
0
 62
7
  6
CONTINUOUS
 10
155.3549915869
 20
30.6905909007
 11
155.412804528
 21
30.7551182848
  0
LINE
  8
0
 62
7
  6
CONTINUOUS
 10
154.1987416972
 20
30.6583272086
 11
154.3143669177
 21
30.6260635193
  0
LINE
  8
0
 62
7
  6
CONTINUOUS
 10
151.1924917523
 20
31.5294468267
 11
150.9612418074
 21
31.5939741996
  0
LINE
  8
0
 62
7
  6
CONTINUOUS
 10
154.5456166972
 20
30.7228545871
 11
154.3143669177
 21
30.7873819712
  0
LINE
  8
0
 62
7
  6
CONTINUOUS
 10
153.2737419177
 20
31.5294468267
 11
153.1003044177
 21
31.5939741996
  0
LINE
  8
0
 62
7
  6
CONTINUOUS
 10
155.5284290869
 20
31.5294468267
 11
155.3549915869
 21
31.5939741996
  0
LINE
  8
0
 62
7
  6
CONTINUOUS
 10
158.187804528
 20
31.4326557675
 11
158.3034290869
 21
31.3681283946
  0
LINE
  8
0
 62
7
  6
CONTINUOUS
 10
158.534679528
 20
31.4649194539
 11
158.4190543074
 21
31.5294468267
  0
LINE
  8
0
 62
7
  6
CONTINUOUS
 10
150.0362418212
 20
30.6583272086
 11
150.2096793212
 21
30.6260635193
  0
LINE
  8
0
 62
7
  6
CONTINUOUS
 10
150.498741835
 20
30.7228545871
 11
150.1518667936
 21
30.7873819712
  0
LINE
  8
0
 62
7
  6
CONTINUOUS
 10
152.9268669177
 20
31.4649194539
 11
153.0424918074
 21
31.4326557675
  0
LINE
  8
0
 62
7
  6
CONTINUOUS
 10
155.239367028
 20
31.4649194539
 11
155.3549915869
 21
31.4326557675
  0
LINE
  8
0
 62
7
  6
CONTINUOUS
 10
159.575304528
 20
30.7551182848
 11
159.4596793074
 21
30.7873819712
  0
LINE
  8
0
 62
7
  6
CONTINUOUS
 10
158.0721793074
 20
31.4649194539
 11
158.187804528
 21
31.4326557675
  0
LINE
  8
0
 62
7
  6
CONTINUOUS
 10
159.228429528
 20
30.7228545871
 11
159.401867028
 21
30.6583272086
  0
LINE
  8
0
 62
7
  6
CONTINUOUS
 10
158.4190543074
 20
31.5294468267
 11
158.2456168074
 21
31.5939741996
  0
LINE
  8
0
 62
7
  6
CONTINUOUS
 10
159.6331168074
 20
31.2390736489
 11
159.4596793074
 21
31.3036010218
  0
LINE
  8
0
 62
7
  6
CONTINUOUS
 10
160.442492028
 20
30.9809641124
 11
160.615929528
 21
30.9164367395
  0
LINE
  8
0
 62
7
  6
CONTINUOUS
 10
160.8471793074
 20
31.4971831403
 11
160.6737418074
 21
31.5617105132
  0
LINE
  8
0
 62
7
  6
CONTINUOUS
 10
159.228429528
 20
31.2390736489
 11
159.4596793074
 21
31.1422825445
  0
LINE
  8
0
 62
7
  6
CONTINUOUS
 10
160.8471793074
 20
30.9809641124
 11
160.615929528
 21
31.0777551716
  0
LINE
  8
0
 62
7
  6
CONTINUOUS
 10
159.401867028
 20
31.3681283946
 11
159.4596793074
 21
31.4326557675
  0
LINE
  8
0
 62
7
  6
CONTINUOUS
 10
149.8628043005
 20
31.4971831403
 11
149.7471793074
 21
31.4326557675
  0
LINE
  8
0
 62
7
  6
CONTINUOUS
 10
149.9784292936
 20
31.3358647082
 11
150.1518667936
 21
31.4326557675
  0
LINE
  8
0
 62
7
  6
CONTINUOUS
 10
152.2909293626
 20
31.5294468267
 11
152.1753043074
 21
31.4649194539
  0
LINE
  8
0
 62
7
  6
CONTINUOUS
 10
152.1753043074
 20
31.3358647082
 11
152.2909293626
 21
31.400392081
  0
LINE
  8
0
 62
7
  6
CONTINUOUS
 10
151.1924917523
 20
30.6905909007
 11
151.3659292523
 21
30.7873819712
  0
LINE
  8
0
 62
7
  6
CONTINUOUS
 10
150.2096793212
 20
30.6260635193
 11
150.5565542799
 21
30.5937998301
  0
LINE
  8
0
 62
7
  6
CONTINUOUS
 10
154.3143669177
 20
30.6260635193
 11
154.5456166972
 21
30.5937998301
  0
LINE
  8
0
 62
7
  6
CONTINUOUS
 10
152.6956168074
 20
31.4971831403
 11
152.9268669177
 21
31.4649194539
  0
LINE
  8
0
 62
7
  6
CONTINUOUS
 10
155.0081169177
 20
31.4971831403
 11
155.239367028
 21
31.4649194539
  0
LINE
  8
0
 62
7
  6
CONTINUOUS
 10
159.4596793074
 20
31.1422825445
 11
160.442492028
 21
30.9809641124
  0
LINE
  8
0
 62
7
  6
CONTINUOUS
 10
160.615929528
 20
31.0777551716
 11
159.6331168074
 21
31.2390736489
  0
LINE
  8
0
 62
7
  6
CONTINUOUS
 10
153.1003044177
 20
31.5939741996
 11
152.9268669177
 21
31.626237886
  0
LINE
  8
0
 62
7
  6
CONTINUOUS
 10
159.401867028
 20
30.6583272086
 11
159.575304528
 21
30.6260635193
  0
LINE
  8
0
 62
7
  6
CONTINUOUS
 10
158.2456168074
 20
31.5939741996
 11
158.0721793074
 21
31.626237886
  0
LINE
  8
0
 62
7
  6
CONTINUOUS
 10
160.5003043074
 20
31.4649194539
 11
160.615929528
 21
31.4326557675
  0
LINE
  8
0
 62
7
  6
CONTINUOUS
 10
160.6737418074
 20
30.8519093441
 11
160.615929528
 21
30.7873819712
  0
LINE
  8
0
 62
7
  6
CONTINUOUS
 10
159.228429528
 20
31.5294468267
 11
159.1128043074
 21
31.4326557675
  0
LINE
  8
0
 62
7
  6
CONTINUOUS
 10
154.1409294177
 20
31.5617105132
 11
154.0253041972
 21
31.4971831403
  0
LINE
  8
0
 62
7
  6
CONTINUOUS
 10
154.1987416972
 20
31.1745462761
 11
154.0831168074
 21
31.1100188581
  0
LINE
  8
0
 62
7
  6
CONTINUOUS
 10
154.3143669177
 20
31.0132277988
 11
154.4299918074
 21
31.0777551716
  0
LINE
  8
0
 62
7
  6
CONTINUOUS
 10
151.8862417523
 20
30.5937998301
 11
152.1753043074
 21
30.5937998301
  0
LINE
  8
0
 62
7
  6
CONTINUOUS
 10
153.2159293074
 20
30.5937998301
 11
153.5049916972
 21
30.5937998301
  0
LINE
  8
0
 62
7
  6
CONTINUOUS
 10
154.5456166972
 20
30.5937998301
 11
154.8924916972
 21
30.5937998301
  0
LINE
  8
0
 62
7
  6
CONTINUOUS
 10
155.5284290869
 20
30.5937998301
 11
155.8174918074
 21
30.5937998301
  0
LINE
  8
0
 62
7
  6
CONTINUOUS
 10
156.279992028
 20
30.5937998301
 11
156.5690540869
 21
30.5937998301
  0
LINE
  8
0
 62
7
  6
CONTINUOUS
 10
157.0315543074
 20
30.5937998301
 11
157.320617028
 21
30.5937998301
  0
LINE
  8
0
 62
7
  6
CONTINUOUS
 10
158.361242028
 20
30.5937998301
 11
158.6503040869
 21
30.5937998301
  0
LINE
  8
0
 62
7
  6
CONTINUOUS
 10
159.922179528
 20
30.5937998301
 11
160.269054528
 21
30.5937998301
  0
LINE
  8
0
 62
7
  6
CONTINUOUS
 10
160.269054528
 20
30.7228545871
 11
159.922179528
 21
30.7228545871
  0
LINE
  8
0
 62
7
  6
CONTINUOUS
 10
154.8924916972
 20
30.7228545871
 11
154.5456166972
 21
30.7228545871
  0
LINE
  8
0
 62
7
  6
CONTINUOUS
 10
159.401867028
 20
30.8519093441
 11
159.1128043074
 21
30.8519093441
  0
LINE
  8
0
 62
7
  6
CONTINUOUS
 10
151.4237418626
 20
30.9164367395
 11
151.1346793074
 21
30.9164367395
  0
LINE
  8
0
 62
7
  6
CONTINUOUS
 10
150.498741835
 20
31.4971831403
 11
150.9034292799
 21
31.4649194539
  0
LINE
  8
0
 62
7
  6
CONTINUOUS
 10
150.9612418074
 20
31.5939741996
 11
150.5565542799
 21
31.626237886
  0
LINE
  8
0
 62
7
  6
CONTINUOUS
 10
159.575304528
 20
30.6260635193
 11
159.922179528
 21
30.5937998301
  0
LINE
  8
0
 62
7
  6
CONTINUOUS
 10
159.922179528
 20
30.7228545871
 11
159.575304528
 21
30.7551182848
  0
LINE
  8
0
 62
7
  6
CONTINUOUS
 10
155.3549915869
 20
31.5939741996
 11
155.0081169177
 21
31.626237886
  0
LINE
  8
0
 62
7
  6
CONTINUOUS
 10
160.1534293074
 20
31.4971831403
 11
160.5003043074
 21
31.4649194539
  0
LINE
  8
0
 62
7
  6
CONTINUOUS
 10
160.5003043074
 20
31.5939741996
 11
160.1534293074
 21
31.626237886
  0
LINE
  8
0
 62
7
  6
CONTINUOUS
 10
157.840929528
 20
31.4971831403
 11
158.0721793074
 21
31.4649194539
  0
LINE
  8
0
 62
7
  6
CONTINUOUS
 10
160.6737418074
 20
31.5617105132
 11
160.5003043074
 21
31.5939741996
  0
LINE
  8
0
 62
7
  6
CONTINUOUS
 10
160.8471793074
 20
30.6905909007
 11
160.9628038663
 21
30.7873819712
  0
LINE
  8
0
 62
7
  6
CONTINUOUS
 10
155.3549915869
 20
30.8841730531
 11
155.1815540869
 21
30.7873819712
  0
LINE
  8
0
 62
7
  6
CONTINUOUS
 10
157.4362415869
 20
31.5294468267
 11
157.320617028
 21
31.4649194539
  0
LINE
  8
0
 62
7
  6
CONTINUOUS
 10
157.320617028
 20
31.3358647082
 11
157.4362415869
 21
31.400392081
  0
LINE
  8
0
 62
7
  6
CONTINUOUS
 10
150.0362418212
 20
31.5617105132
 11
149.8628043005
 21
31.4971831403
  0
LINE
  8
0
 62
7
  6
CONTINUOUS
 10
152.4643666972
 20
31.5939741996
 11
152.2909293626
 21
31.5294468267
  0
LINE
  8
0
 62
7
  6
CONTINUOUS
 10
152.2909293626
 20
31.400392081
 11
152.4643666972
 21
31.4649194539
  0
LINE
  8
0
 62
7
  6
CONTINUOUS
 10
151.0768668626
 20
30.8196456577
 11
150.9034292799
 21
30.7551182848
  0
LINE
  8
0
 62
7
  6
CONTINUOUS
 10
160.5003043074
 20
30.7551182848
 11
160.269054528
 21
30.7228545871
  0
LINE
  8
0
 62
7
  6
CONTINUOUS
 10
154.8924916972
 20
30.5937998301
 11
155.1815540869
 21
30.6260635193
  0
LINE
  8
0
 62
7
  6
CONTINUOUS
 10
160.269054528
 20
30.5937998301
 11
160.615929528
 21
30.6260635193
  0
LINE
  8
0
 62
7
  6
CONTINUOUS
 10
150.5565542799
 20
30.5937998301
 11
150.9612418074
 21
30.6260635193
  0
LINE
  8
0
 62
7
  6
CONTINUOUS
 10
150.9034292799
 20
30.7551182848
 11
150.498741835
 21
30.7228545871
  0
LINE
  8
0
 62
7
  6
CONTINUOUS
 10
154.7768668074
 20
31.1422825445
 11
155.412804528
 21
31.1422825445
  0
LINE
  8
0
 62
7
  6
CONTINUOUS
 10
155.412804528
 20
31.2713373354
 11
154.7768668074
 21
31.2713373354
  0
LINE
  8
0
 62
7
  6
CONTINUOUS
 10
151.1346793074
 20
31.3036010218
 11
151.4237418626
 21
31.3036010218
  0
LINE
  8
0
 62
7
  6
CONTINUOUS
 10
153.9674919177
 20
31.3681283946
 11
154.2565543074
 21
31.3681283946
  0
LINE
  8
0
 62
7
  6
CONTINUOUS
 10
160.6737418074
 20
31.3681283946
 11
160.9628038663
 21
31.3681283946
  0
LINE
  8
0
 62
7
  6
CONTINUOUS
 10
154.6612419177
 20
31.4971831403
 11
155.0081169177
 21
31.4971831403
  0
LINE
  8
0
 62
7
  6
CONTINUOUS
 10
159.8065543074
 20
31.4971831403
 11
160.1534293074
 21
31.4971831403
  0
LINE
  8
0
 62
7
  6
CONTINUOUS
 10
160.1534293074
 20
31.626237886
 11
159.8065543074
 21
31.626237886
  0
LINE
  8
0
 62
7
  6
CONTINUOUS
 10
158.0721793074
 20
31.626237886
 11
157.840929528
 21
31.626237886
  0
LINE
  8
0
 62
7
  6
CONTINUOUS
 10
157.320617028
 20
31.626237886
 11
157.0315543074
 21
31.626237886
  0
LINE
  8
0
 62
7
  6
CONTINUOUS
 10
156.5690540869
 20
31.626237886
 11
156.279992028
 21
31.626237886
  0
LINE
  8
0
 62
7
  6
CONTINUOUS
 10
155.0081169177
 20
31.626237886
 11
154.6612419177
 21
31.626237886
  0
LINE
  8
0
 62
7
  6
CONTINUOUS
 10
152.9268669177
 20
31.626237886
 11
152.6956168074
 21
31.626237886
  0
LINE
  8
0
 62
7
  6
CONTINUOUS
 10
156.279992028
 20
31.9488748406
 11
156.5690540869
 21
31.9488748406
  0
LINE
  8
0
 62
7
  6
CONTINUOUS
 10
156.5690540869
 20
32.1101932727
 11
156.279992028
 21
32.1101932727
  0
LINE
  8
0
 62
7
  6
CONTINUOUS
 10
152.1753043074
 20
32.1101932727
 11
151.8862417523
 21
32.1101932727
  0
LINE
  8
0
 62
7
  6
CONTINUOUS
 10
151.2130860697
 20
32.3970785186
 11
151.6256574183
 21
32.3970785186
  0
LINE
  8
0
 62
7
  6
CONTINUOUS
 10
152.852430332
 20
32.3970785186
 11
154.245872955
 21
32.3970785186
  0
LINE
  8
0
 62
7
  6
CONTINUOUS
 10
154.5737418074
 20
32.3970785186
 11
155.9671844304
 21
32.3970785186
  0
LINE
  8
0
 62
7
  6
CONTINUOUS
 10
157.852430332
 20
32.3970785186
 11
159.245872955
 21
32.3970785186
  0
LINE
  8
0
 62
7
  6
CONTINUOUS
 10
159.5737418074
 20
32.3970785186
 11
160.9671844304
 21
32.3970785186
  0
LINE
  8
0
 62
7
  6
CONTINUOUS
 10
157.6096790869
 20
31.5939741996
 11
157.4362415869
 21
31.5294468267
  0
LINE
  8
0
 62
7
  6
CONTINUOUS
 10
155.1815540869
 20
30.6260635193
 11
155.3549915869
 21
30.6905909007
  0
LINE
  8
0
 62
7
  6
CONTINUOUS
 10
160.615929528
 20
30.6260635193
 11
160.8471793074
 21
30.6905909007
  0
LINE
  8
0
 62
7
  6
CONTINUOUS
 10
160.615929528
 20
30.7873819712
 11
160.5003043074
 21
30.7551182848
  0
LINE
  8
0
 62
7
  6
CONTINUOUS
 10
159.575304528
 20
31.4649194539
 11
159.8065543074
 21
31.4971831403
  0
LINE
  8
0
 62
7
  6
CONTINUOUS
 10
157.6096790869
 20
31.4649194539
 11
157.840929528
 21
31.4971831403
  0
LINE
  8
0
 62
7
  6
CONTINUOUS
 10
154.5456166972
 20
31.1100188581
 11
154.7768668074
 21
31.1422825445
  0
LINE
  8
0
 62
7
  6
CONTINUOUS
 10
157.840929528
 20
31.626237886
 11
157.6096790869
 21
31.5939741996
  0
LINE
  8
0
 62
7
  6
CONTINUOUS
 10
154.4299918074
 20
31.4649194539
 11
154.6612419177
 21
31.4971831403
  0
LINE
  8
0
 62
7
  6
CONTINUOUS
 10
159.8065543074
 20
31.626237886
 11
159.4596793074
 21
31.5939741996
  0
LINE
  8
0
 62
7
  6
CONTINUOUS
 10
154.7768668074
 20
31.2713373354
 11
154.4299918074
 21
31.2390736489
  0
LINE
  8
0
 62
7
  6
CONTINUOUS
 10
150.5565542799
 20
31.626237886
 11
150.2096793212
 21
31.5939741996
  0
LINE
  8
0
 62
7
  6
CONTINUOUS
 10
154.6612419177
 20
31.626237886
 11
154.2565543074
 21
31.5939741996
  0
LINE
  8
0
 62
7
  6
CONTINUOUS
 10
152.0327582009
 20
33.5446195022
 11
151.3770204959
 21
33.5446195022
  0
LINE
  8
0
 62
7
  6
CONTINUOUS
 10
157.4362415869
 20
31.400392081
 11
157.6096790869
 21
31.4649194539
  0
LINE
  8
0
 62
7
  6
CONTINUOUS
 10
159.4596793074
 20
31.4326557675
 11
159.575304528
 21
31.4649194539
  0
LINE
  8
0
 62
7
  6
CONTINUOUS
 10
159.4596793074
 20
31.5939741996
 11
159.228429528
 21
31.5294468267
  0
LINE
  8
0
 62
7
  6
CONTINUOUS
 10
155.1815540869
 20
30.7873819712
 11
154.8924916972
 21
30.7228545871
  0
LINE
  8
0
 62
7
  6
CONTINUOUS
 10
152.4643666972
 20
31.4649194539
 11
152.6956168074
 21
31.4971831403
  0
LINE
  8
0
 62
7
  6
CONTINUOUS
 10
152.6956168074
 20
31.626237886
 11
152.4643666972
 21
31.5939741996
  0
LINE
  8
0
 62
7
  6
CONTINUOUS
 10
150.2674918074
 20
31.4649194539
 11
150.498741835
 21
31.4971831403
  0
LINE
  8
0
 62
7
  6
CONTINUOUS
 10
156.7868565615
 20
35.0200293383
 11
157.4425942664
 21
35.0200293383
  0
LINE
  8
0
 62
7
  6
CONTINUOUS
 10
154.4299918074
 20
31.0777551716
 11
154.5456166972
 21
31.1100188581
  0
LINE
  8
0
 62
7
  6
CONTINUOUS
 10
154.4299918074
 20
31.2390736489
 11
154.1987416972
 21
31.1745462761
  0
LINE
  8
0
 62
7
  6
CONTINUOUS
 10
154.3143669177
 20
31.4326557675
 11
154.4299918074
 21
31.4649194539
  0
LINE
  8
0
 62
7
  6
CONTINUOUS
 10
150.9612418074
 20
30.6260635193
 11
151.1924917523
 21
30.6905909007
  0
LINE
  8
0
 62
7
  6
CONTINUOUS
 10
154.2565543074
 20
31.5939741996
 11
154.1409294177
 21
31.5617105132
  0
LINE
  8
0
 62
7
  6
CONTINUOUS
 10
150.2096793212
 20
31.5939741996
 11
150.0362418212
 21
31.5617105132
  0
LINE
  8
0
 62
7
  6
CONTINUOUS
 10
160.9671844304
 20
36.1675703219
 11
159.5737418074
 21
36.1675703219
  0
LINE
  8
0
 62
7
  6
CONTINUOUS
 10
157.6065286927
 20
36.1675703219
 11
157.1939573441
 21
36.1675703219
  0
LINE
  8
0
 62
7
  6
CONTINUOUS
 10
155.9671844304
 20
36.1675703219
 11
154.5737418074
 21
36.1675703219
  0
LINE
  8
0
 62
7
  6
CONTINUOUS
 10
154.245872955
 20
36.1675703219
 11
152.852430332
 21
36.1675703219
  0
LINE
  8
0
 62
7
  6
CONTINUOUS
 10
150.9671844304
 20
36.1675703219
 11
149.5737418074
 21
36.1675703219
  0
LINE
  8
0
 62
7
  6
CONTINUOUS
 10
150.1518667936
 20
31.4326557675
 11
150.2674918074
 21
31.4649194539
  0
CIRCLE
  8
0
 62
7
  6
CONTINUOUS
 10
160.2704631189
 20
38.5036358957
 40
2.0901639344
  0
ARC
  8
0
 62
7
  6
CONTINUOUS
 10
151.2130860697
 20
34.0364227809
 40
1.6393442623
 50
180.0
 51
270.0
  0
ARC
  8
0
 62
7
  6
CONTINUOUS
 10
157.6065286927
 20
34.5282260596
 40
1.6393442623
 50
0.0
 51
90.0
  0
ARC
  8
0
 62
7
  6
CONTINUOUS
 10
151.6256574183
 20
33.8724883547
 40
1.4754098361
 50
270.0
 51
326.2510114041
  0
ARC
  8
0
 62
7
  6
CONTINUOUS
 10
157.1939573441
 20
34.6921604858
 40
1.4754098361
 50
90.0
 51
146.2510114041
  0
ARC
  8
0
 62
7
  6
CONTINUOUS
 10
152.0327582009
 20
34.3642916334
 40
0.8196721311
 50
270.0
 51
360.0
  0
ARC
  8
0
 62
7
  6
CONTINUOUS
 10
156.7868565615
 20
34.2003572071
 40
0.8196721311
 50
90.0
 51
180.0
  0
ARC
  8
0
 62
7
  6
CONTINUOUS
 10
151.3770204959
 20
33.9544555678
 40
0.4098360656
 50
180.0
 51
270.0
  0
ARC
  8
0
 62
7
  6
CONTINUOUS
 10
157.4425942664
 20
34.6101932727
 40
0.4098360656
 50
0.0
 51
90.0
  0
SOLID
  8
0
 62
7
  6
CONTINUOUS
 10
156.279992028
 20
31.9488752009
 11
156.279992028
 21
32.1101936845
 12
156.5690540869
 22
31.9488752009
 13
156.5690540869
 23
32.1101936845
  0
SOLID
  8
0
 62
7
  6
CONTINUOUS
 10
150.5565542799
 20
31.6262382337
 11
150.9612418074
 21
31.5939740028
 12
150.2096793212
 22
31.5939740028
 13
150.2096793212
 23
31.5939740028
  0
SOLID
  8
0
 62
7
  6
CONTINUOUS
 10
150.0362418212
 20
31.5617111435
 11
150.2096793212
 21
31.5939740028
 12
150.9612418074
 22
31.5939740028
 13
150.9612418074
 23
31.5939740028
  0
SOLID
  8
0
 62
7
  6
CONTINUOUS
 10
150.9612418074
 20
31.5939740028
 11
151.1924917523
 21
31.5294468402
 12
150.0362418212
 22
31.5617111435
 13
150.0362418212
 23
31.5617111435
  0
SOLID
  8
0
 62
7
  6
CONTINUOUS
 10
149.8628043005
 20
31.49718259
 11
150.0362418212
 21
31.5617111435
 12
151.1924917523
 22
31.5294468402
 13
151.1924917523
 23
31.5294468402
  0
SOLID
  8
0
 62
7
  6
CONTINUOUS
 10
149.8628043005
 20
31.49718259
 11
151.1924917523
 21
31.5294468402
 12
150.498741835
 22
31.49718259
 13
150.498741835
 23
31.49718259
  0
SOLID
  8
0
 62
7
  6
CONTINUOUS
 10
150.498741835
 20
31.49718259
 11
151.1924917523
 21
31.5294468402
 12
150.9034292799
 22
31.4649197501
 13
150.9034292799
 23
31.4649197501
  0
SOLID
  8
0
 62
7
  6
CONTINUOUS
 10
151.1924917523
 20
31.5294468402
 11
151.3659292523
 21
31.4326554468
 12
150.9034292799
 22
31.4649197501
 13
150.9034292799
 23
31.4649197501
  0
SOLID
  8
0
 62
7
  6
CONTINUOUS
 10
151.0768668626
 20
31.4003926599
 11
150.9034292799
 21
31.4649197501
 12
151.3659292523
 22
31.4326554468
 13
151.3659292523
 23
31.4326554468
  0
SOLID
  8
0
 62
7
  6
CONTINUOUS
 10
151.0768668626
 20
31.4003926599
 11
151.3659292523
 21
31.4326554468
 12
151.1346793074
 22
31.3036013776
 13
151.1346793074
 23
31.3036013776
  0
SOLID
  8
0
 62
7
  6
CONTINUOUS
 10
151.3659292523
 20
31.4326554468
 11
151.4237418626
 21
31.3036013776
 12
151.1346793074
 22
31.3036013776
 13
151.1346793074
 23
31.3036013776
  0
SOLID
  8
0
 62
7
  6
CONTINUOUS
 10
152.4643666972
 20
31.5939739754
 11
152.6956168074
 21
31.6262382787
 12
152.9268669177
 22
31.6262382787
 13
152.9268669177
 23
31.6262382787
  0
SOLID
  8
0
 62
7
  6
CONTINUOUS
 10
152.9268669177
 20
31.6262382787
 11
153.1003044177
 21
31.5939739754
 12
152.4643666972
 22
31.5939739754
 13
152.4643666972
 23
31.5939739754
  0
SOLID
  8
0
 62
7
  6
CONTINUOUS
 10
152.2909293626
 20
31.5294468852
 11
152.4643666972
 21
31.5939739754
 12
153.1003044177
 22
31.5939739754
 13
153.1003044177
 23
31.5939739754
  0
SOLID
  8
0
 62
7
  6
CONTINUOUS
 10
153.1003044177
 20
31.5939739754
 11
153.2737419177
 21
31.5294468852
 12
152.2909293626
 22
31.5294468852
 13
152.2909293626
 23
31.5294468852
  0
SOLID
  8
0
 62
7
  6
CONTINUOUS
 10
153.2737419177
 20
31.5294468852
 11
152.6956168074
 21
31.4971825369
 12
152.2909293626
 22
31.5294468852
 13
152.2909293626
 23
31.5294468852
  0
SOLID
  8
0
 62
7
  6
CONTINUOUS
 10
152.1753043074
 20
31.4649197951
 11
152.2909293626
 21
31.5294468852
 12
152.6956168074
 22
31.4971825369
 13
152.6956168074
 23
31.4971825369
  0
SOLID
  8
0
 62
7
  6
CONTINUOUS
 10
152.6956168074
 20
31.4971825369
 11
152.4643666972
 21
31.4649197951
 12
152.1753043074
 22
31.4649197951
 13
152.1753043074
 23
31.4649197951
  0
SOLID
  8
0
 62
7
  6
CONTINUOUS
 10
152.6956168074
 20
31.4971825369
 11
153.2737419177
 21
31.5294468852
 12
152.9268669177
 22
31.4649197951
 13
152.9268669177
 23
31.4649197951
  0
SOLID
  8
0
 62
7
  6
CONTINUOUS
 10
153.2737419177
 20
31.5294468852
 11
153.3893668074
 21
31.4649197951
 12
152.9268669177
 22
31.4649197951
 13
152.9268669177
 23
31.4649197951
  0
SOLID
  8
0
 62
7
  6
CONTINUOUS
 10
153.0424918074
 20
31.4326554468
 11
152.9268669177
 21
31.4649197951
 12
153.3893668074
 22
31.4649197951
 13
153.3893668074
 23
31.4649197951
  0
SOLID
  8
0
 62
7
  6
CONTINUOUS
 10
153.3893668074
 20
31.4649197951
 11
153.4471794177
 21
31.4003927049
 12
153.0424918074
 22
31.4326554468
 13
153.0424918074
 23
31.4326554468
  0
SOLID
  8
0
 62
7
  6
CONTINUOUS
 10
153.1581166972
 20
31.3681283566
 11
153.0424918074
 21
31.4326554468
 12
153.4471794177
 22
31.4003927049
 13
153.4471794177
 23
31.4003927049
  0
SOLID
  8
0
 62
7
  6
CONTINUOUS
 10
153.1581166972
 20
31.3681283566
 11
153.4471794177
 21
31.4003927049
 12
153.2159293074
 22
31.2390742213
 13
153.2159293074
 23
31.2390742213
  0
SOLID
  8
0
 62
7
  6
CONTINUOUS
 10
153.4471794177
 20
31.4003927049
 11
153.5049916972
 21
31.2390742213
 12
153.2159293074
 22
31.2390742213
 13
153.2159293074
 23
31.2390742213
  0
SOLID
  8
0
 62
7
  6
CONTINUOUS
 10
152.4643666972
 20
31.4649197951
 11
152.2909293626
 21
31.4003927049
 12
152.1753043074
 22
31.4649197951
 13
152.1753043074
 23
31.4649197951
  0
SOLID
  8
0
 62
7
  6
CONTINUOUS
 10
152.2909293626
 20
31.4003927049
 11
152.1753043074
 21
31.3358640533
 12
152.1753043074
 22
31.4649197951
 13
152.1753043074
 23
31.4649197951
  0
SOLID
  8
0
 62
7
  6
CONTINUOUS
 10
152.1753043074
 20
31.3358640533
 11
151.8862417523
 21
30.5938002869
 12
152.1753043074
 22
31.4649197951
 13
152.1753043074
 23
31.4649197951
  0
SOLID
  8
0
 62
7
  6
CONTINUOUS
 10
152.1753043074
 20
31.4649197951
 11
151.8862417523
 21
30.5938002869
 12
152.1753043074
 22
32.1101937295
 13
152.1753043074
 23
32.1101937295
  0
SOLID
  8
0
 62
7
  6
CONTINUOUS
 10
151.8862417523
 20
30.5938002869
 11
151.8862417523
 21
32.1101937295
 12
152.1753043074
 22
32.1101937295
 13
152.1753043074
 23
32.1101937295
  0
SOLID
  8
0
 62
7
  6
CONTINUOUS
 10
152.1753043074
 20
31.3358640533
 11
152.1753043074
 21
30.5938002869
 12
151.8862417523
 22
30.5938002869
 13
151.8862417523
 23
30.5938002869
  0
SOLID
  8
0
 62
7
  6
CONTINUOUS
 10
153.2159293074
 20
30.5938002869
 11
153.2159293074
 21
31.2390742213
 12
153.5049916972
 22
31.2390742213
 13
153.5049916972
 23
31.2390742213
  0
SOLID
  8
0
 62
7
  6
CONTINUOUS
 10
153.5049916972
 20
31.2390742213
 11
153.5049916972
 21
30.5938002869
 12
153.2159293074
 22
30.5938002869
 13
153.2159293074
 23
30.5938002869
  0
SOLID
  8
0
 62
7
  6
CONTINUOUS
 10
154.2565543074
 20
31.5939738288
 11
154.6612419177
 21
31.6262385959
 12
155.0081169177
 22
31.6262385959
 13
155.0081169177
 23
31.6262385959
  0
SOLID
  8
0
 62
7
  6
CONTINUOUS
 10
155.0081169177
 20
31.6262385959
 11
155.3549915869
 21
31.5939738288
 12
154.2565543074
 22
31.5939738288
 13
154.2565543074
 23
31.5939738288
  0
SOLID
  8
0
 62
7
  6
CONTINUOUS
 10
154.1409294177
 20
31.5617111435
 11
154.2565543074
 21
31.5939738288
 12
155.3549915869
 22
31.5939738288
 13
155.3549915869
 23
31.5939738288
  0
SOLID
  8
0
 62
7
  6
CONTINUOUS
 10
155.3549915869
 20
31.5939738288
 11
155.5284290869
 21
31.5294468402
 12
154.1409294177
 22
31.5617111435
 13
154.1409294177
 23
31.5617111435
  0
SOLID
  8
0
 62
7
  6
CONTINUOUS
 10
154.0253041972
 20
31.4971826249
 11
154.1409294177
 21
31.5617111435
 12
155.5284290869
 22
31.5294468402
 13
155.5284290869
 23
31.5294468402
  0
SOLID
  8
0
 62
7
  6
CONTINUOUS
 10
154.0253041972
 20
31.4971826249
 11
155.5284290869
 21
31.5294468402
 12
154.6612419177
 22
31.4971826249
 13
154.6612419177
 23
31.4971826249
  0
SOLID
  8
0
 62
7
  6
CONTINUOUS
 10
154.6612419177
 20
31.4971826249
 11
155.5284290869
 21
31.5294468402
 12
155.0081169177
 22
31.4971826249
 13
155.0081169177
 23
31.4971826249
  0
SOLID
  8
0
 62
7
  6
CONTINUOUS
 10
155.0081169177
 20
31.4971826249
 11
155.5284290869
 21
31.5294468402
 12
155.239367028
 22
31.4649194065
 13
155.239367028
 23
31.4649194065
  0
SOLID
  8
0
 62
7
  6
CONTINUOUS
 10
155.5284290869
 20
31.5294468402
 11
155.6440543074
 21
31.4649194065
 12
155.239367028
 22
31.4649194065
 13
155.239367028
 23
31.4649194065
  0
SOLID
  8
0
 62
7
  6
CONTINUOUS
 10
153.9674919177
 20
31.4326554138
 11
154.0253041972
 21
31.4971826249
 12
154.6612419177
 22
31.4971826249
 13
154.6612419177
 23
31.4971826249
  0
SOLID
  8
0
 62
7
  6
CONTINUOUS
 10
155.3549915869
 20
31.4326554138
 11
155.239367028
 21
31.4649194065
 12
155.6440543074
 22
31.4649194065
 13
155.6440543074
 23
31.4649194065
  0
SOLID
  8
0
 62
7
  6
CONTINUOUS
 10
155.3549915869
 20
31.4326554138
 11
155.6440543074
 21
31.4649194065
 12
155.412804528
 22
31.3681282026
 13
155.412804528
 23
31.3681282026
  0
SOLID
  8
0
 62
7
  6
CONTINUOUS
 10
155.6440543074
 20
31.4649194065
 11
155.7018665869
 21
31.3681282026
 12
155.412804528
 22
31.3681282026
 13
155.412804528
 23
31.3681282026
  0
SOLID
  8
0
 62
7
  6
CONTINUOUS
 10
155.412804528
 20
31.2713369632
 11
155.412804528
 21
31.3681282026
 12
155.7018665869
 22
31.3681282026
 13
155.7018665869
 23
31.3681282026
  0
SOLID
  8
0
 62
7
  6
CONTINUOUS
 10
155.412804528
 20
31.2713369632
 11
155.7018665869
 21
31.3681282026
 12
155.412804528
 22
31.1422827828
 13
155.412804528
 23
31.1422827828
  0
SOLID
  8
0
 62
7
  6
CONTINUOUS
 10
155.412804528
 20
31.1422827828
 11
155.7018665869
 21
31.3681282026
 12
155.412804528
 22
30.9487004259
 13
155.412804528
 23
30.9487004259
  0
SOLID
  8
0
 62
7
  6
CONTINUOUS
 10
155.7018665869
 20
31.3681282026
 11
155.7018665869
 21
30.8519086025
 12
155.412804528
 22
30.9487004259
 13
155.412804528
 23
30.9487004259
  0
SOLID
  8
0
 62
7
  6
CONTINUOUS
 10
157.6096790869
 20
31.5939736268
 11
157.840929528
 21
31.6262383465
 12
158.0721793074
 22
31.6262383465
 13
158.0721793074
 23
31.6262383465
  0
SOLID
  8
0
 62
7
  6
CONTINUOUS
 10
158.0721793074
 20
31.6262383465
 11
158.2456168074
 21
31.5939736268
 12
157.6096790869
 22
31.5939736268
 13
157.6096790869
 23
31.5939736268
  0
SOLID
  8
0
 62
7
  6
CONTINUOUS
 10
157.4362415869
 20
31.5294472848
 11
157.6096790869
 21
31.5939736268
 12
158.2456168074
 22
31.5939736268
 13
158.2456168074
 23
31.5939736268
  0
SOLID
  8
0
 62
7
  6
CONTINUOUS
 10
158.2456168074
 20
31.5939736268
 11
158.4190543074
 21
31.5294472848
 12
157.4362415869
 22
31.5294472848
 13
157.4362415869
 23
31.5294472848
  0
SOLID
  8
0
 62
7
  6
CONTINUOUS
 10
158.4190543074
 20
31.5294472848
 11
157.840929528
 21
31.4971825369
 12
157.4362415869
 22
31.5294472848
 13
157.4362415869
 23
31.5294472848
  0
SOLID
  8
0
 62
7
  6
CONTINUOUS
 10
157.320617028
 20
31.4649199103
 11
157.4362415869
 21
31.5294472848
 12
157.840929528
 22
31.4971825369
 13
157.840929528
 23
31.4971825369
  0
SOLID
  8
0
 62
7
  6
CONTINUOUS
 10
157.840929528
 20
31.4971825369
 11
157.6096790869
 21
31.4649199103
 12
157.320617028
 22
31.4649199103
 13
157.320617028
 23
31.4649199103
  0
SOLID
  8
0
 62
7
  6
CONTINUOUS
 10
157.840929528
 20
31.4971825369
 11
158.4190543074
 21
31.5294472848
 12
158.0721793074
 22
31.4649199103
 13
158.0721793074
 23
31.4649199103
  0
SOLID
  8
0
 62
7
  6
CONTINUOUS
 10
158.4190543074
 20
31.5294472848
 11
158.534679528
 21
31.4649199103
 12
158.0721793074
 22
31.4649199103
 13
158.0721793074
 23
31.4649199103
  0
SOLID
  8
0
 62
7
  6
CONTINUOUS
 10
158.187804528
 20
31.4326554468
 11
158.0721793074
 21
31.4649199103
 12
158.534679528
 22
31.4649199103
 13
158.534679528
 23
31.4649199103
  0
SOLID
  8
0
 62
7
  6
CONTINUOUS
 10
158.187804528
 20
31.4326554468
 11
158.534679528
 21
31.4649199103
 12
158.3034290869
 22
31.3681288486
 13
158.3034290869
 23
31.3681288486
  0
SOLID
  8
0
 62
7
  6
CONTINUOUS
 10
158.534679528
 20
31.4649199103
 11
158.5924918074
 21
31.3681288486
 12
158.3034290869
 22
31.3681288486
 13
158.3034290869
 23
31.3681288486
  0
SOLID
  8
0
 62
7
  6
CONTINUOUS
 10
158.361242028
 20
31.2068093799
 11
158.3034290869
 21
31.3681288486
 12
158.5924918074
 22
31.3681288486
 13
158.5924918074
 23
31.3681288486
  0
SOLID
  8
0
 62
7
  6
CONTINUOUS
 10
158.5924918074
 20
31.3681288486
 11
158.6503040869
 21
31.2068093799
 12
158.361242028
 22
31.2068093799
 13
158.361242028
 23
31.2068093799
  0
SOLID
  8
0
 62
7
  6
CONTINUOUS
 10
157.6096790869
 20
31.4649199103
 11
157.4362415869
 21
31.4003926599
 12
157.320617028
 22
31.4649199103
 13
157.320617028
 23
31.4649199103
  0
SOLID
  8
0
 62
7
  6
CONTINUOUS
 10
157.4362415869
 20
31.4003926599
 11
157.320617028
 21
31.3358640533
 12
157.320617028
 22
31.4649199103
 13
157.320617028
 23
31.4649199103
  0
SOLID
  8
0
 62
7
  6
CONTINUOUS
 10
157.320617028
 20
31.3358640533
 11
157.0315543074
 21
30.5938003547
 12
157.320617028
 22
31.4649199103
 13
157.320617028
 23
31.4649199103
  0
SOLID
  8
0
 62
7
  6
CONTINUOUS
 10
157.320617028
 20
31.4649199103
 11
157.0315543074
 21
30.5938003547
 12
157.320617028
 22
31.6262383465
 13
157.320617028
 23
31.6262383465
  0
SOLID
  8
0
 62
7
  6
CONTINUOUS
 10
157.0315543074
 20
30.5938003547
 11
157.0315543074
 21
31.6262383465
 12
157.320617028
 22
31.6262383465
 13
157.320617028
 23
31.6262383465
  0
SOLID
  8
0
 62
7
  6
CONTINUOUS
 10
157.320617028
 20
31.3358640533
 11
157.320617028
 21
30.5938003547
 12
157.0315543074
 22
30.5938003547
 13
157.0315543074
 23
30.5938003547
  0
SOLID
  8
0
 62
7
  6
CONTINUOUS
 10
158.361242028
 20
30.5938003547
 11
158.361242028
 21
31.2068093799
 12
158.6503040869
 22
31.2068093799
 13
158.6503040869
 23
31.2068093799
  0
SOLID
  8
0
 62
7
  6
CONTINUOUS
 10
158.6503040869
 20
31.2068093799
 11
158.6503040869
 21
30.5938003547
 12
158.361242028
 22
30.5938003547
 13
158.361242028
 23
30.5938003547
  0
SOLID
  8
0
 62
7
  6
CONTINUOUS
 10
159.4596793074
 20
31.5939739474
 11
159.8065543074
 21
31.6262381969
 12
160.1534293074
 22
31.6262381969
 13
160.1534293074
 23
31.6262381969
  0
SOLID
  8
0
 62
7
  6
CONTINUOUS
 10
160.1534293074
 20
31.6262381969
 11
160.5003043074
 21
31.5939739474
 12
159.4596793074
 22
31.5939739474
 13
159.4596793074
 23
31.5939739474
  0
SOLID
  8
0
 62
7
  6
CONTINUOUS
 10
159.228429528
 20
31.5294468402
 11
159.4596793074
 21
31.5939739474
 12
160.5003043074
 22
31.5939739474
 13
160.5003043074
 23
31.5939739474
  0
SOLID
  8
0
 62
7
  6
CONTINUOUS
 10
159.228429528
 20
31.5294468402
 11
160.5003043074
 21
31.5939739304
 12
160.6737418074
 22
31.5617111435
 13
160.6737418074
 23
31.5617111435
  0
SOLID
  8
0
 62
7
  6
CONTINUOUS
 10
159.228429528
 20
31.5294468402
 11
160.6737418074
 21
31.5617111435
 12
159.8065543074
 22
31.4971825592
 13
159.8065543074
 23
31.4971825592
  0
SOLID
  8
0
 62
7
  6
CONTINUOUS
 10
159.8065543074
 20
31.4971825592
 11
160.6737418074
 21
31.5617111435
 12
160.1534293074
 22
31.4971825592
 13
160.1534293074
 23
31.4971825592
  0
SOLID
  8
0
 62
7
  6
CONTINUOUS
 10
160.6737418074
 20
31.5617111435
 11
160.8471793074
 21
31.4971825592
 12
160.1534293074
 22
31.4971825592
 13
160.1534293074
 23
31.4971825592
  0
SOLID
  8
0
 62
7
  6
CONTINUOUS
 10
160.5003043074
 20
31.4649197501
 11
160.1534293074
 21
31.4971825592
 12
160.8471793074
 22
31.4971825592
 13
160.8471793074
 23
31.4971825592
  0
SOLID
  8
0
 62
7
  6
CONTINUOUS
 10
159.1128043074
 20
31.4326555427
 11
159.228429528
 21
31.5294468402
 12
159.8065543074
 22
31.4971825592
 13
159.8065543074
 23
31.4971825592
  0
SOLID
  8
0
 62
7
  6
CONTINUOUS
 10
160.5003043074
 20
31.4649197501
 11
160.8471793074
 21
31.4971825592
 12
160.615929528
 22
31.4326555427
 13
160.615929528
 23
31.4326555427
  0
SOLID
  8
0
 62
7
  6
CONTINUOUS
 10
160.615929528
 20
31.4326555427
 11
160.8471793074
 21
31.4971825592
 12
160.6737418074
 22
31.3681283005
 13
160.6737418074
 23
31.3681283005
  0
SOLID
  8
0
 62
7
  6
CONTINUOUS
 10
160.8471793074
 20
31.4971825592
 11
160.9628038663
 21
31.3681283005
 12
160.6737418074
 22
31.3681283005
 13
160.6737418074
 23
31.3681283005
  0
SOLID
  8
0
 62
7
  6
CONTINUOUS
 10
150.2674918074
 20
31.4649197501
 11
149.7471793074
 21
31.4326554237
 12
150.498741835
 22
31.4971824493
 13
150.498741835
 23
31.4971824493
  0
SOLID
  8
0
 62
7
  6
CONTINUOUS
 10
149.7471793074
 20
31.4326554237
 11
149.8628043005
 21
31.4971824493
 12
150.498741835
 22
31.4971824493
 13
150.498741835
 23
31.4971824493
  0
SOLID
  8
0
 62
7
  6
CONTINUOUS
 10
150.2674918074
 20
31.4649197501
 11
150.1518667936
 21
31.4326554237
 12
149.7471793074
 22
31.4326554237
 13
149.7471793074
 23
31.4326554237
  0
SOLID
  8
0
 62
7
  6
CONTINUOUS
 10
149.6315543091
 20
31.3036012664
 11
149.7471793074
 21
31.4326554237
 12
150.1518667936
 22
31.4326554237
 13
150.1518667936
 23
31.4326554237
  0
SOLID
  8
0
 62
7
  6
CONTINUOUS
 10
153.9674919177
 20
31.4326554237
 11
154.6612419177
 21
31.4971825369
 12
154.4299918074
 22
31.4649197501
 13
154.4299918074
 23
31.4649197501
  0
SOLID
  8
0
 62
7
  6
CONTINUOUS
 10
154.4299918074
 20
31.4649197501
 11
154.3143669177
 21
31.4326554237
 12
153.9674919177
 22
31.4326554237
 13
153.9674919177
 23
31.4326554237
  0
SOLID
  8
0
 62
7
  6
CONTINUOUS
 10
153.9674919177
 20
31.3681283335
 11
153.9674919177
 21
31.4326554237
 12
154.3143669177
 22
31.4326554237
 13
154.3143669177
 23
31.4326554237
  0
SOLID
  8
0
 62
7
  6
CONTINUOUS
 10
154.3143669177
 20
31.4326554237
 11
154.2565543074
 21
31.3681283335
 12
153.9674919177
 22
31.3681283335
 13
153.9674919177
 23
31.3681283335
  0
SOLID
  8
0
 62
7
  6
CONTINUOUS
 10
159.1128043074
 20
31.4326555528
 11
159.8065543074
 21
31.4971825369
 12
159.575304528
 22
31.4649197501
 13
159.575304528
 23
31.4649197501
  0
SOLID
  8
0
 62
7
  6
CONTINUOUS
 10
159.575304528
 20
31.4649197501
 11
159.4596793074
 21
31.4326555528
 12
159.1128043074
 22
31.4326555528
 13
159.1128043074
 23
31.4326555528
  0
SOLID
  8
0
 62
7
  6
CONTINUOUS
 10
159.1128043074
 20
31.3681284626
 11
159.1128043074
 21
31.4326555528
 12
159.4596793074
 22
31.4326555528
 13
159.4596793074
 23
31.4326555528
  0
SOLID
  8
0
 62
7
  6
CONTINUOUS
 10
159.4596793074
 20
31.4326555528
 11
159.401867028
 21
31.3681284626
 12
159.1128043074
 22
31.3681284626
 13
159.1128043074
 23
31.3681284626
  0
SOLID
  8
0
 62
7
  6
CONTINUOUS
 10
159.228429528
 20
31.2390741763
 11
159.1128043074
 21
31.3681284626
 12
159.401867028
 22
31.3681284626
 13
159.401867028
 23
31.3681284626
  0
SOLID
  8
0
 62
7
  6
CONTINUOUS
 10
149.6315543091
 20
31.3036012664
 11
150.1518667936
 21
31.4326554468
 12
149.9784292936
 22
31.3358640533
 13
149.9784292936
 23
31.3358640533
  0
SOLID
  8
0
 62
7
  6
CONTINUOUS
 10
149.9784292936
 20
31.3358640533
 11
149.9206168074
 21
31.2713369632
 12
149.6315543091
 22
31.3036012664
 13
149.6315543091
 23
31.3036012664
  0
SOLID
  8
0
 62
7
  6
CONTINUOUS
 10
149.5737418074
 20
31.1100184796
 11
149.6315543091
 21
31.3036012664
 12
149.9206168074
 22
31.2713369632
 13
149.9206168074
 23
31.2713369632
  0
SOLID
  8
0
 62
7
  6
CONTINUOUS
 10
154.4299918074
 20
31.2390741763
 11
154.7768668074
 21
31.271336924
 12
155.412804528
 22
31.271336924
 13
155.412804528
 23
31.271336924
  0
SOLID
  8
0
 62
7
  6
CONTINUOUS
 10
154.4299918074
 20
31.2390741763
 11
155.412804528
 21
31.271336924
 12
154.1987416972
 22
31.1745462761
 13
154.1987416972
 23
31.1745462761
  0
SOLID
  8
0
 62
7
  6
CONTINUOUS
 10
154.1987416972
 20
31.1745462761
 11
155.412804528
 21
31.271336924
 12
154.7768668074
 22
31.1422827436
 13
154.7768668074
 23
31.1422827436
  0
SOLID
  8
0
 62
7
  6
CONTINUOUS
 10
155.412804528
 20
31.271336924
 11
155.412804528
 21
31.1422827436
 12
154.7768668074
 22
31.1422827436
 13
154.7768668074
 23
31.1422827436
  0
SOLID
  8
0
 62
7
  6
CONTINUOUS
 10
159.228429528
 20
31.2390745501
 11
159.401867028
 21
31.3681283566
 12
159.4596793074
 22
31.3036012664
 13
159.4596793074
 23
31.3036012664
  0
SOLID
  8
0
 62
7
  6
CONTINUOUS
 10
159.4596793074
 20
31.3036012664
 11
159.6331168074
 21
31.2390745501
 12
159.228429528
 22
31.2390745501
 13
159.228429528
 23
31.2390745501
  0
SOLID
  8
0
 62
7
  6
CONTINUOUS
 10
159.4596793074
 20
31.1422827828
 11
159.228429528
 21
31.2390745501
 12
159.6331168074
 22
31.2390745501
 13
159.6331168074
 23
31.2390745501
  0
SOLID
  8
0
 62
7
  6
CONTINUOUS
 10
159.6331168074
 20
31.2390745501
 11
160.615929528
 21
31.0777556927
 12
159.4596793074
 22
31.1422827828
 13
159.4596793074
 23
31.1422827828
  0
SOLID
  8
0
 62
7
  6
CONTINUOUS
 10
160.442492028
 20
30.9809646623
 11
159.4596793074
 21
31.1422827828
 12
160.615929528
 22
31.0777556927
 13
160.615929528
 23
31.0777556927
  0
SOLID
  8
0
 62
7
  6
CONTINUOUS
 10
160.615929528
 20
31.0777556927
 11
160.8471793074
 21
30.9809646623
 12
160.442492028
 22
30.9809646623
 13
160.442492028
 23
30.9809646623
  0
SOLID
  8
0
 62
7
  6
CONTINUOUS
 10
160.615929528
 20
30.9164372091
 11
160.442492028
 21
30.9809646623
 12
160.8471793074
 22
30.9809646623
 13
160.8471793074
 23
30.9809646623
  0
SOLID
  8
0
 62
7
  6
CONTINUOUS
 10
160.615929528
 20
30.9164372091
 11
160.8471793074
 21
30.9809646623
 12
160.6737418074
 22
30.8519089441
 13
160.6737418074
 23
30.8519089441
  0
SOLID
  8
0
 62
7
  6
CONTINUOUS
 10
160.8471793074
 20
30.9809646623
 11
160.9628038663
 21
30.8519089441
 12
160.6737418074
 22
30.8519089441
 13
160.6737418074
 23
30.8519089441
  0
SOLID
  8
0
 62
7
  6
CONTINUOUS
 10
160.615929528
 20
30.7873818593
 11
160.6737418074
 21
30.8519089441
 12
160.9628038663
 22
30.8519089441
 13
160.9628038663
 23
30.8519089441
  0
SOLID
  8
0
 62
7
  6
CONTINUOUS
 10
160.9628038663
 20
30.8519089441
 11
160.9628038663
 21
30.7873818593
 12
160.615929528
 22
30.7873818593
 13
160.615929528
 23
30.7873818593
  0
SOLID
  8
0
 62
7
  6
CONTINUOUS
 10
160.5003043074
 20
30.7551187255
 11
160.615929528
 21
30.7873818593
 12
160.9628038663
 22
30.7873818593
 13
160.9628038663
 23
30.7873818593
  0
SOLID
  8
0
 62
7
  6
CONTINUOUS
 10
160.5003043074
 20
30.7551187255
 11
160.9628038663
 21
30.7873818593
 12
160.269054528
 22
30.7228547745
 13
160.269054528
 23
30.7228547745
  0
SOLID
  8
0
 62
7
  6
CONTINUOUS
 10
160.9628038663
 20
30.7873818593
 11
160.8471793074
 21
30.6905916353
 12
160.269054528
 22
30.7228547745
 13
160.269054528
 23
30.7228547745
  0
SOLID
  8
0
 62
7
  6
CONTINUOUS
 10
160.8471793074
 20
30.6905916353
 11
159.401867028
 21
30.658327332
 12
160.269054528
 22
30.7228547745
 13
160.269054528
 23
30.7228547745
  0
SOLID
  8
0
 62
7
  6
CONTINUOUS
 10
160.269054528
 20
30.7228547745
 11
159.401867028
 21
30.658327332
 12
159.922179528
 22
30.7228547745
 13
159.922179528
 23
30.7228547745
  0
SOLID
  8
0
 62
7
  6
CONTINUOUS
 10
159.401867028
 20
30.658327332
 11
159.228429528
 21
30.7228547745
 12
159.922179528
 22
30.7228547745
 13
159.922179528
 23
30.7228547745
  0
SOLID
  8
0
 62
7
  6
CONTINUOUS
 10
159.401867028
 20
30.658327332
 11
160.8471793074
 21
30.6905916353
 12
159.575304528
 22
30.6260629858
 13
159.575304528
 23
30.6260629858
  0
SOLID
  8
0
 62
7
  6
CONTINUOUS
 10
160.8471793074
 20
30.6905916353
 11
160.615929528
 21
30.6260629858
 12
159.575304528
 22
30.6260629858
 13
159.575304528
 23
30.6260629858
  0
SOLID
  8
0
 62
7
  6
CONTINUOUS
 10
159.922179528
 20
30.5938006049
 11
159.575304528
 21
30.6260629858
 12
160.615929528
 22
30.6260629858
 13
160.615929528
 23
30.6260629858
  0
SOLID
  8
0
 62
7
  6
CONTINUOUS
 10
160.615929528
 20
30.6260629858
 11
160.269054528
 21
30.5938006049
 12
159.922179528
 22
30.5938006049
 13
159.922179528
 23
30.5938006049
  0
SOLID
  8
0
 62
7
  6
CONTINUOUS
 10
149.5737418074
 20
31.1100184796
 11
149.9206168074
 21
31.2713369632
 12
149.8628043005
 22
31.1422827828
 13
149.8628043005
 23
31.1422827828
  0
SOLID
  8
0
 62
7
  6
CONTINUOUS
 10
149.8628043005
 20
31.1422827828
 11
149.8628043005
 21
31.0454914852
 12
149.5737418074
 22
31.1100184796
 13
149.5737418074
 23
31.1100184796
  0
SOLID
  8
0
 62
7
  6
CONTINUOUS
 10
149.6315543091
 20
30.9164372091
 11
149.5737418074
 21
31.1100184796
 12
149.8628043005
 22
31.0454914852
 13
149.8628043005
 23
31.0454914852
  0
SOLID
  8
0
 62
7
  6
CONTINUOUS
 10
149.8628043005
 20
31.0454914852
 11
149.9784292936
 21
30.8841729058
 12
149.6315543091
 22
30.9164372091
 13
149.6315543091
 23
30.9164372091
  0
SOLID
  8
0
 62
7
  6
CONTINUOUS
 10
149.7471793074
 20
30.7873813202
 11
149.6315543091
 21
30.9164372091
 12
149.9784292936
 22
30.8841729058
 13
149.9784292936
 23
30.8841729058
  0
SOLID
  8
0
 62
7
  6
CONTINUOUS
 10
149.9784292936
 20
30.8841729058
 11
150.1518667936
 21
30.7873813202
 12
149.7471793074
 22
30.7873813202
 13
149.7471793074
 23
30.7873813202
  0
SOLID
  8
0
 62
7
  6
CONTINUOUS
 10
149.8628043005
 20
30.7228547004
 11
149.7471793074
 21
30.7873813202
 12
150.1518667936
 22
30.7873813202
 13
150.1518667936
 23
30.7873813202
  0
SOLID
  8
0
 62
7
  6
CONTINUOUS
 10
150.1518667936
 20
30.7873813202
 11
150.498741835
 21
30.7228547004
 12
149.8628043005
 22
30.7228547004
 13
149.8628043005
 23
30.7228547004
  0
SOLID
  8
0
 62
7
  6
CONTINUOUS
 10
150.0362418212
 20
30.658327332
 11
149.8628043005
 21
30.7228547004
 12
150.498741835
 22
30.7228547004
 13
150.498741835
 23
30.7228547004
  0
SOLID
  8
0
 62
7
  6
CONTINUOUS
 10
154.0831168074
 20
31.1100184386
 11
154.1987416972
 21
31.1745462761
 12
154.7768668074
 22
31.1422827828
 13
154.7768668074
 23
31.1422827828
  0
SOLID
  8
0
 62
7
  6
CONTINUOUS
 10
154.7768668074
 20
31.1422827828
 11
154.5456166972
 21
31.1100184386
 12
154.0831168074
 22
31.1100184386
 13
154.0831168074
 23
31.1100184386
  0
SOLID
  8
0
 62
7
  6
CONTINUOUS
 10
153.9674919177
 20
30.9809642992
 11
154.0831168074
 21
31.1100184386
 12
154.5456166972
 22
31.1100184386
 13
154.5456166972
 23
31.1100184386
  0
SOLID
  8
0
 62
7
  6
CONTINUOUS
 10
154.3143669177
 20
31.0132277988
 11
153.9674919177
 21
30.9809642992
 12
154.4299918074
 22
31.0777556927
 13
154.4299918074
 23
31.0777556927
  0
SOLID
  8
0
 62
7
  6
CONTINUOUS
 10
153.9674919177
 20
30.9809642992
 11
154.5456166972
 21
31.1100184796
 12
154.4299918074
 22
31.0777556927
 13
154.4299918074
 23
31.0777556927
  0
SOLID
  8
0
 62
7
  6
CONTINUOUS
 10
154.3143669177
 20
31.0132277988
 11
154.2565543074
 21
30.9164372091
 12
153.9674919177
 22
30.9809642992
 13
153.9674919177
 23
30.9809642992
  0
SOLID
  8
0
 62
7
  6
CONTINUOUS
 10
153.9674919177
 20
30.8841729058
 11
153.9674919177
 21
30.9809642992
 12
154.2565543074
 22
30.9164372091
 13
154.2565543074
 23
30.9164372091
  0
SOLID
  8
0
 62
7
  6
CONTINUOUS
 10
154.2565543074
 20
30.9164372091
 11
154.2565543074
 21
30.8519086025
 12
153.9674919177
 22
30.8841729058
 13
153.9674919177
 23
30.8841729058
  0
SOLID
  8
0
 62
7
  6
CONTINUOUS
 10
154.0253041972
 20
30.7551187255
 11
153.9674919177
 21
30.8841729058
 12
154.2565543074
 22
30.8519086025
 13
154.2565543074
 23
30.8519086025
  0
SOLID
  8
0
 62
7
  6
CONTINUOUS
 10
155.412804528
 20
30.9487004259
 11
155.7018665869
 21
30.8519086025
 12
155.3549915869
 22
30.8841729058
 13
155.3549915869
 23
30.8841729058
  0
SOLID
  8
0
 62
7
  6
CONTINUOUS
 10
155.1815540869
 20
30.7873815123
 11
155.3549915869
 21
30.8841729058
 12
155.7018665869
 22
30.8519086025
 13
155.7018665869
 23
30.8519086025
  0
SOLID
  8
0
 62
7
  6
CONTINUOUS
 10
155.1815540869
 20
30.7873815123
 11
155.7018665869
 21
30.8519086025
 12
155.412804528
 22
30.7551187255
 13
155.412804528
 23
30.7551187255
  0
SOLID
  8
0
 62
7
  6
CONTINUOUS
 10
155.7018665869
 20
30.8519086025
 11
155.759679528
 21
30.6905916353
 12
155.412804528
 22
30.7551187255
 13
155.412804528
 23
30.7551187255
  0
SOLID
  8
0
 62
7
  6
CONTINUOUS
 10
155.4706168074
 20
30.658327332
 11
155.412804528
 21
30.7551187255
 12
155.759679528
 22
30.6905916353
 13
155.759679528
 23
30.6905916353
  0
SOLID
  8
0
 62
7
  6
CONTINUOUS
 10
155.4706168074
 20
30.658327332
 11
155.759679528
 21
30.6905916353
 12
155.5284290869
 22
30.5938002079
 13
155.5284290869
 23
30.5938002079
  0
SOLID
  8
0
 62
7
  6
CONTINUOUS
 10
155.759679528
 20
30.6905916353
 11
155.8174918074
 21
30.5938002079
 12
155.5284290869
 22
30.5938002079
 13
155.5284290869
 23
30.5938002079
  0
SOLID
  8
0
 62
7
  6
CONTINUOUS
 10
151.0768668626
 20
30.8196456577
 11
151.1346793074
 21
30.9164373395
 12
151.4237418626
 22
30.9164373395
 13
151.4237418626
 23
30.9164373395
  0
SOLID
  8
0
 62
7
  6
CONTINUOUS
 10
151.4237418626
 20
30.9164373395
 11
151.3659292523
 21
30.7873815123
 12
151.0768668626
 22
30.8196456577
 13
151.0768668626
 23
30.8196456577
  0
SOLID
  8
0
 62
7
  6
CONTINUOUS
 10
150.9034292799
 20
30.7551187255
 11
151.0768668626
 21
30.8196456577
 12
151.3659292523
 22
30.7873815123
 13
151.3659292523
 23
30.7873815123
  0
SOLID
  8
0
 62
7
  6
CONTINUOUS
 10
150.9034292799
 20
30.7551187255
 11
151.3659292523
 21
30.7873815123
 12
150.498741835
 22
30.7228544222
 13
150.498741835
 23
30.7228544222
  0
SOLID
  8
0
 62
7
  6
CONTINUOUS
 10
151.3659292523
 20
30.7873815123
 11
151.1924917523
 21
30.6905916353
 12
150.498741835
 22
30.7228544222
 13
150.498741835
 23
30.7228544222
  0
SOLID
  8
0
 62
7
  6
CONTINUOUS
 10
150.0362418212
 20
30.658327332
 11
150.498741835
 21
30.7228544222
 12
151.1924917523
 22
30.6905916353
 13
151.1924917523
 23
30.6905916353
  0
SOLID
  8
0
 62
7
  6
CONTINUOUS
 10
150.0362418212
 20
30.658327332
 11
151.1924917523
 21
30.6905916353
 12
150.2096793212
 22
30.6260631011
 13
150.2096793212
 23
30.6260631011
  0
SOLID
  8
0
 62
7
  6
CONTINUOUS
 10
151.1924917523
 20
30.6905916353
 11
150.9612418074
 21
30.6260631011
 12
150.2096793212
 22
30.6260631011
 13
150.2096793212
 23
30.6260631011
  0
SOLID
  8
0
 62
7
  6
CONTINUOUS
 10
150.5565542799
 20
30.5938002419
 11
150.2096793212
 21
30.6260631011
 12
150.9612418074
 22
30.6260631011
 13
150.9612418074
 23
30.6260631011
  0
SOLID
  8
0
 62
7
  6
CONTINUOUS
 10
154.0253041972
 20
30.7551187255
 11
154.2565543074
 21
30.8519086025
 12
154.3143669177
 22
30.7873815123
 13
154.3143669177
 23
30.7873815123
  0
SOLID
  8
0
 62
7
  6
CONTINUOUS
 10
154.3143669177
 20
30.7873815123
 11
154.5456166972
 21
30.7228544222
 12
154.0253041972
 22
30.7551187255
 13
154.0253041972
 23
30.7551187255
  0
SOLID
  8
0
 62
7
  6
CONTINUOUS
 10
154.1987416972
 20
30.658327332
 11
154.0253041972
 21
30.7551187255
 12
154.5456166972
 22
30.7228544222
 13
154.5456166972
 23
30.7228544222
  0
SOLID
  8
0
 62
7
  6
CONTINUOUS
 10
154.8924916972
 20
30.7228544637
 11
155.1815540869
 21
30.7873815123
 12
155.412804528
 22
30.7551187255
 13
155.412804528
 23
30.7551187255
  0
SOLID
  8
0
 62
7
  6
CONTINUOUS
 10
155.412804528
 20
30.7551187255
 11
155.3549915869
 21
30.6905916353
 12
154.8924916972
 22
30.7228544637
 13
154.8924916972
 23
30.7228544637
  0
SOLID
  8
0
 62
7
  6
CONTINUOUS
 10
155.3549915869
 20
30.6905916353
 11
154.1987416972
 21
30.658327332
 12
154.8924916972
 22
30.7228544637
 13
154.8924916972
 23
30.7228544637
  0
SOLID
  8
0
 62
7
  6
CONTINUOUS
 10
154.1987416972
 20
30.658327332
 11
154.5456166972
 21
30.7228544637
 12
154.8924916972
 22
30.7228544637
 13
154.8924916972
 23
30.7228544637
  0
SOLID
  8
0
 62
7
  6
CONTINUOUS
 10
154.1987416972
 20
30.658327332
 11
155.3549915869
 21
30.6905916353
 12
154.3143669177
 22
30.6260630541
 13
154.3143669177
 23
30.6260630541
  0
SOLID
  8
0
 62
7
  6
CONTINUOUS
 10
155.3549915869
 20
30.6905916353
 11
155.1815540869
 21
30.6260630541
 12
154.3143669177
 22
30.6260630541
 13
154.3143669177
 23
30.6260630541
  0
SOLID
  8
0
 62
7
  6
CONTINUOUS
 10
154.5456166972
 20
30.5938002188
 11
154.3143669177
 21
30.6260630541
 12
155.1815540869
 22
30.6260630541
 13
155.1815540869
 23
30.6260630541
  0
SOLID
  8
0
 62
7
  6
CONTINUOUS
 10
155.1815540869
 20
30.6260630541
 11
154.8924916972
 21
30.5938002188
 12
154.5456166972
 22
30.5938002188
 13
154.5456166972
 23
30.5938002188
  0
SOLID
  8
0
 62
7
  6
CONTINUOUS
 10
159.575304528
 20
30.7551187255
 11
159.228429528
 21
30.7228544637
 12
159.4596793074
 22
30.7873815123
 13
159.4596793074
 23
30.7873815123
  0
SOLID
  8
0
 62
7
  6
CONTINUOUS
 10
159.4596793074
 20
30.7873815123
 11
159.228429528
 21
30.7228544637
 12
159.401867028
 22
30.851908644
 13
159.401867028
 23
30.851908644
  0
SOLID
  8
0
 62
7
  6
CONTINUOUS
 10
159.228429528
 20
30.7228544637
 11
159.1128043074
 21
30.851908644
 12
159.401867028
 22
30.851908644
 13
159.401867028
 23
30.851908644
  0
SOLID
  8
0
 62
7
  6
CONTINUOUS
 10
159.575304528
 20
30.7551187255
 11
159.922179528
 21
30.7228544637
 12
159.228429528
 22
30.7228544637
 13
159.228429528
 23
30.7228544637
  0
SOLID
  8
0
 62
7
  6
CONTINUOUS
 10
156.279992028
 20
30.5938002419
 11
156.279992028
 21
31.6262382337
 12
156.5690540869
 22
30.5938002419
 13
156.5690540869
 23
31.6262382337
  0
ENDBLK
  8
0
  6
BYBLOCK
 62
0
  0
BLOCK
  8
0
 62
2
  6
CONTINUOUS
  2
AMMEAAL_LOGO_BL0
 70
64
 10
32.1213064866
 20
19.8534310916
  0
TEXT
  8
0
 62
7
  6
CONTINUOUS
 10
18.3860103289
 20
19.2268451992
  7
TEXTSTYLE_3
 40
2.7338706658
  1
Ammeraal Beltech
 41
1.0
 51
15.0
 72
0
  0
TEXT
  8
0
 62
7
  6
CONTINUOUS
 10
29.1868111546
 20
16.9533085264
  7
TEXTSTYLE_4
 40
1.0935482663
  1
Innovation & Service in Belting
 41
1.0
 72
0
  0
LINE
  8
0
 62
7
  6
CONTINUOUS
 10
12.3614696776
 20
19.9934385078
 11
13.1396216709
 21
23.6543558055
  0
LINE
  8
0
 62
7
  6
CONTINUOUS
 10
23.2347899607
 20
27.3177497171
 11
13.6274394139
 21
24.1961322958
  0
LINE
  8
0
 62
7
  6
CONTINUOUS
 10
12.5867530099
 20
19.3000877048
 11
20.093828271
 21
12.5406867788
  0
LINE
  8
0
 62
7
  6
CONTINUOUS
 10
12.8492874206
 20
20.5352149982
 11
23.6575567857
 21
24.0470345971
  0
LINE
  8
0
 62
7
  6
CONTINUOUS
 10
23.6533516486
 20
13.6972460334
 11
15.2078919798
 21
21.3015720751
  0
LINE
  8
0
 62
7
  6
CONTINUOUS
 10
24.1731743684
 20
26.4728246013
 11
23.1966148312
 21
21.8784731989
  0
LINE
  8
0
 62
7
  6
CONTINUOUS
 10
22.4968128835
 20
18.5861638851
 11
21.810364672
 21
15.3566789607
  0
LINE
  8
0
 62
7
  6
CONTINUOUS
 10
24.8542704669
 20
14.087448211
 11
25.8105020025
 21
18.5861638851
  0
LINE
  8
0
 62
7
  6
CONTINUOUS
 10
26.5103039502
 20
21.8784731989
 11
26.9545457526
 21
23.9684665583
  0
LINE
  8
0
 62
7
  6
CONTINUOUS
 10
20.8069293463
 20
12.3891124661
 11
24.3664527239
 21
13.5456717207
  0
LINE
  8
0
 62
7
  6
CONTINUOUS
 10
23.9478910361
 20
27.1661754044
 11
26.7292624203
 21
24.6618173613
  0
ARC
  8
0
 62
7
  6
CONTINUOUS
 10
13.8527227462
 20
23.5027814928
 40
0.7290321776
 50
108.0
 51
168.0
  0
ARC
  8
0
 62
7
  6
CONTINUOUS
 10
23.4600732931
 20
26.624398914
 40
0.7290321776
 50
348.0
 51
108.0
  0
ARC
  8
0
 62
7
  6
CONTINUOUS
 10
26.2414446773
 20
24.120040871
 40
0.7290321776
 50
348.0
 51
48.0
  0
ARC
  8
0
 62
7
  6
CONTINUOUS
 10
20.581646014
 20
13.0824632691
 40
0.7290321776
 50
228.0
 51
288.0
  0
ARC
  8
0
 62
7
  6
CONTINUOUS
 10
13.0745707529
 20
19.8418641951
 40
0.7290321776
 50
108.0
 51
228.0
  0
ARC
  8
0
 62
7
  6
CONTINUOUS
 10
24.1411693916
 20
14.2390225237
 40
0.7290321776
 50
228.0
 51
348.0
  0
ENDBLK
  8
0
  6
BYBLOCK
 62
0
  0
ENDSEC
  0
SECTION
  2
ENTITIES
  0
TEXT
  8
0
 62
5
  6
CONTINUOUS
 10
96.0
 20
25.636
  7
TEXTSTYLE_2
 40
2.8
  1
Scale :
 41
0.6
 51
0.000019
 72
0
  0
TEXT
  8
0
 62
5
  6
CONTINUOUS
 10
116.0
 20
25.636
  7
TEXTSTYLE_2
 40
2.8
  1
Belt type:
 41
0.6
 51
0.000019
 72
0
  0
INSERT
  8
0
 62
2
  6
CONTINUOUS
  2
AMMEAAL_LOGO_BL0
 10
32.1213064866
 20
19.8534310916
  0
INSERT
  8
0
 62
2
  6
CONTINUOUS
  2
UNI_LOGO2_BL1
 10
173.5956734183
 20
35.5937998301
  0
LINE
  8
0
 62
2
  6
CONTINUOUS
 10
10.0
 20
30.0
 11
200.0
 21
30.0
  0
LINE
  8
0
 62
2
  6
CONTINUOUS
 10
10.0
 20
30.0
 11
10.0
 21
10.0
  0
LINE
  8
0
 62
2
  6
CONTINUOUS
 10
10.0
 20
10.0
 11
200.0
 21
10.0
  0
LINE
  8
0
 62
2
  6
CONTINUOUS
 10
95.0
 20
30.0
 11
95.0
 21
10.0
  0
LINE
  8
0
 62
2
  6
CONTINUOUS
 10
115.0
 20
30.0
 11
115.0
 21
10.0
  0
LINE
  8
0
 62
2
  6
CONTINUOUS
 10
200.0
 20
30.0
 11
200.0
 21
10.0
  0
TEXT
  8
0
 62
5
  6
CONTINUOUS
 10
13.0
 20
23.303
  7
TEXTSTYLE_5
 40
1.52
  1
                                                                     Ammeraal Beltech Modular A/S
 41
1.0
 72
0
  0
TEXT
  8
0
 62
5
  6
CONTINUOUS
 10
13.0
 20
20.595
  7
TEXTSTYLE_5
 40
1.5
  1
                                                                      Hjulmagervej 21,  7100 Vejle,  DK
 41
1.0
 72
0
  0
TEXT
  8
0
 62
5
  6
CONTINUOUS
 10
13.0
 20
17.881
  7
TEXTSTYLE_5
 40
1.495
  1
                                                                      tel: 
 41
1.0
 72
0
  0
TEXT
  8
0
 62
5
  6
CONTINUOUS
 10
57.9869465649
 20
17.881
  7
TEXTSTYLE_5
 40
1.51
  1
+45 75723100     fax: +45 75723348
 41
1.0
 72
0
  0
TEXT
  8
0
 62
5
  6
CONTINUOUS
 10
13.0
 20
15.177
  7
TEXTSTYLE_5
 40
1.5
  1
                                                                      admin@unichains.dk  www.unichains.com
 41
1.0
 72
0
  0
TEXT
  8
0
 62
5
  6
CONTINUOUS
 10
99.75
 20
13.75
  7
TEXTSTYLE_6
 40
5.0
  1
1:1
 41
0.7
 72
1
 11
105.0
 21
13.75
  0
TEXT
  8
0
 62
5
  6
CONTINUOUS
 10
118.0
 20
13.75
  7
TEXTSTYLE_7
 40
7.5
  1
Sprocket Z19 40X40 SQ
 41
0.5226190476
 72
0
  0
LINE
  8
0
 62
7
  6
CONTINUOUS
 10
210.0
 20
0.0
 11
0.0
 21
0.0
  0
LINE
  8
0
 62
7
  6
CONTINUOUS
 10
10.0
 20
10.0
 11
200.0
 21
10.0
  0
LINE
  8
0
 62
7
  6
CONTINUOUS
 10
10.0
 20
30.0
 11
200.0
 21
30.0
  0
LINE
  8
0
 62
7
  6
CONTINUOUS
 10
0.0
 20
0.0
 11
0.0
 21
297.0
  0
LINE
  8
0
 62
7
  6
CONTINUOUS
 10
10.0
 20
10.0
 11
10.0
 21
287.0
  0
LINE
  8
0
 62
7
  6
CONTINUOUS
 10
200.0
 20
287.0
 11
200.0
 21
10.0
  0
LINE
  8
0
 62
7
  6
CONTINUOUS
 10
210.0
 20
0.0
 11
210.0
 21
297.0
  0
LINE
  8
0
 62
7
  6
CONTINUOUS
 10
10.0
 20
287.0
 11
200.0
 21
287.0
  0
LINE
  8
0
 62
7
  6
CONTINUOUS
 10
0.0
 20
297.0
 11
210.0
 21
297.0
  0
LINE
  8
0
 62
7
  6
CONTINUOUS
 10
21.3833601354
 20
192.5266197505
 11
21.9131333584
 21
186.1332077434
  0
LINE
  8
0
 62
7
  6
CONTINUOUS
 10
24.5300424793
 20
217.7146042116
 11
22.9551736427
 21
211.4955878177
  0
LINE
  8
0
 62
7
  6
CONTINUOUS
 10
35.6847540791
 20
240.5161081118
 11
32.175904658
 21
235.1454142554
  0
LINE
  8
0
 62
7
  6
CONTINUOUS
 10
53.6387088499
 20
258.4602347018
 11
48.5761171245
 21
254.519861397
  0
LINE
  8
0
 62
7
  6
CONTINUOUS
 10
76.446317208
 20
269.6024594336
 11
70.3785935458
 21
267.5194072692
  0
LINE
  8
0
 62
7
  6
CONTINUOUS
 10
107.9453484737
 20
119.1716469118
 11
114.2731754113
 21
120.2275744695
  0
LINE
  8
0
 62
7
  6
CONTINUOUS
 10
88.9113697189
 20
119.1716469118
 11
82.5835427813
 21
120.2275744695
  0
LINE
  8
0
 62
7
  6
CONTINUOUS
 10
64.5808774968
 20
126.4078972681
 11
58.9387687942
 21
129.461253806
  0
LINE
  8
0
 62
7
  6
CONTINUOUS
 10
39.5733046606
 20
145.8720724899
 11
43.9182851038
 21
141.1521655303
  0
LINE
  8
0
 62
7
  6
CONTINUOUS
 10
26.5856989053
 20
167.6816636766
 11
29.1627050389
 21
161.8066814514
  0
LINE
  8
QUILTS
 62
7
  6
CONTINUOUS
 10
40.5957682046
 20
198.9202430575
 11
40.5798430587
 21
198.3996531476
  0
LINE
  8
QUILTS
 62
7
  6
CONTINUOUS
 10
40.5161424898
 20
196.3172939919
 11
40.5002173473
 21
195.7967041937
  0
LINE
  8
QUILTS
 62
7
  6
CONTINUOUS
 10
42.0522587542
 20
212.2636761313
 11
42.0737933644
 21
212.693169293
  0
LINE
  8
QUILTS
 62
7
  6
CONTINUOUS
 10
41.4640186125
 20
212.8818458113
 11
41.4116928041
 21
212.3528400266
  0
LINE
  8
QUILTS
 62
7
  6
CONTINUOUS
 10
40.8751713949
 20
202.0722965269
 11
40.8322430989
 21
201.6578469666
  0
LINE
  8
QUILTS
 62
7
  6
CONTINUOUS
 10
40.735654479
 20
200.7253359004
 11
40.6819941243
 21
200.2072740982
  0
LINE
  8
QUILTS
 62
7
  6
CONTINUOUS
 10
39.635745919
 20
204.8434040355
 11
39.5578939012
 21
204.3284222713
  0
LINE
  8
QUILTS
 62
7
  6
CONTINUOUS
 10
40.0838328621
 20
204.2489138067
 11
40.16168488
 21
204.763895571
  0
LINE
  8
QUILTS
 62
7
  6
CONTINUOUS
 10
41.2135630966
 20
204.6048785973
 11
41.1357110787
 21
204.089896833
  0
LINE
  8
QUILTS
 62
7
  6
CONTINUOUS
 10
41.710346436
 20
213.6779411009
 11
41.4640186125
 21
212.8818458113
  0
LINE
  8
QUILTS
 62
7
  6
CONTINUOUS
 10
42.0737933644
 20
212.693169293
 11
42.3201211879
 21
213.4892645826
  0
LINE
  8
QUILTS
 62
7
  6
CONTINUOUS
 10
44.2330860528
 20
220.3388527744
 11
43.9944168486
 21
219.7612179321
  0
LINE
  8
QUILTS
 62
7
  6
CONTINUOUS
 10
42.9999615277
 20
217.3544053549
 11
42.6419581766
 21
216.4879541933
  0
LINE
  8
QUILTS
 62
7
  6
CONTINUOUS
 10
45.936203511
 20
223.7126561796
 11
44.7802131206
 21
221.4959725718
  0
LINE
  8
QUILTS
 62
7
  6
CONTINUOUS
 10
45.6351724229
 20
221.7549970262
 11
46.5503318495
 21
223.5098722538
  0
LINE
  8
QUILTS
 62
7
  6
CONTINUOUS
 10
47.8709094248
 20
222.8211970718
 11
46.9557499982
 21
221.0663218443
  0
LINE
  8
QUILTS
 62
7
  6
CONTINUOUS
 10
41.9659301426
 20
214.1440535741
 11
41.710346436
 21
213.6779411009
  0
LINE
  8
QUILTS
 62
7
  6
CONTINUOUS
 10
55.3744972418
 20
234.4147160475
 11
54.9615864901
 21
233.8043851893
  0
LINE
  8
QUILTS
 62
7
  6
CONTINUOUS
 10
51.717822237
 20
232.5526972395
 11
50.1880971119
 21
230.5753401544
  0
LINE
  8
QUILTS
 62
7
  6
CONTINUOUS
 10
51.0753854611
 20
230.6791113552
 11
52.286418338
 21
232.2445196761
  0
LINE
  8
QUILTS
 62
7
  6
CONTINUOUS
 10
53.4644183989
 20
231.333193996
 11
52.2533855219
 21
229.7677856751
  0
LINE
  8
QUILTS
 62
7
  6
CONTINUOUS
 10
46.2713625281
 20
224.1252755993
 11
45.936203511
 21
223.7126561796
  0
LINE
  8
QUILTS
 62
7
  6
CONTINUOUS
 10
55.79578056
 20
234.8763959648
 11
55.3744972418
 21
234.4147160475
  0
LINE
  8
QUILTS
 62
7
  6
CONTINUOUS
 10
55.6888312681
 20
234.1278859805
 11
56.1101145863
 21
234.5895658978
  0
LINE
  8
QUILTS
 62
7
  6
CONTINUOUS
 10
56.7485091323
 20
238.1551135583
 11
56.3784118411
 21
237.7886479913
  0
LINE
  8
QUILTS
 62
7
  6
CONTINUOUS
 10
57.8163473967
 20
239.1775218038
 11
57.4372596871
 21
238.8203642402
  0
LINE
  8
QUILTS
 62
7
  6
CONTINUOUS
 10
52.1206587886
 20
232.899553211
 11
51.717822237
 21
232.5526972395
  0
LINE
  8
QUILTS
 62
7
  6
CONTINUOUS
 10
70.7050273778
 20
248.3396453753
 11
70.2919901454
 21
248.0050088116
  0
LINE
  8
QUILTS
 62
7
  6
CONTINUOUS
 10
66.2713820635
 20
245.7971758519
 11
62.8456717062
 21
243.4253397671
  0
LINE
  8
QUILTS
 62
7
  6
CONTINUOUS
 10
63.1484593709
 20
242.9880149259
 11
66.1459544634
 21
245.0633704823
  0
LINE
  8
QUILTS
 62
7
  6
CONTINUOUS
 10
68.3426552006
 20
247.0291291109
 11
67.8067793748
 21
246.7074738617
  0
LINE
  8
QUILTS
 62
7
  6
CONTINUOUS
 10
71.1671410047
 20
248.5798952716
 11
70.7050273778
 21
248.3396453753
  0
LINE
  8
QUILTS
 62
7
  6
CONTINUOUS
 10
70.8579671629
 20
247.8196519407
 11
71.5049228559
 21
248.1560000358
  0
LINE
  8
QUILTS
 62
7
  6
CONTINUOUS
 10
71.6783267952
 20
248.7257563008
 11
71.1671410047
 21
248.5798952716
  0
LINE
  8
QUILTS
 62
7
  6
CONTINUOUS
 10
45.8678848371
 20
212.7186330827
 11
45.8771410727
 21
212.3886514051
  0
LINE
  8
QUILTS
 62
7
  6
CONTINUOUS
 10
46.5392413429
 20
212.7289795134
 11
46.5299850985
 21
213.0589611938
  0
LINE
  8
QUILTS
 62
7
  6
CONTINUOUS
 10
48.4428878748
 20
223.22779475
 11
48.4448930891
 21
223.4617087539
  0
LINE
  8
QUILTS
 62
7
  6
CONTINUOUS
 10
43.5285083734
 20
197.3715133763
 11
43.5157682576
 21
196.9550414782
  0
LINE
  8
QUILTS
 62
7
  6
CONTINUOUS
 10
43.9411011958
 20
196.942030298
 11
43.9538413116
 21
197.3585021962
  0
LINE
  8
QUILTS
 62
7
  6
CONTINUOUS
 10
43.9888766244
 20
198.5037997299
 11
44.0048017703
 21
199.0243896398
  0
LINE
  8
QUILTS
 62
7
  6
CONTINUOUS
 10
46.4869158958
 20
212.1999748647
 11
46.5392413429
 21
212.7289795134
  0
LINE
  8
QUILTS
 62
7
  6
CONTINUOUS
 10
44.0681334914
 20
199.8565409645
 11
44.121793846
 21
200.3746027668
  0
LINE
  8
QUILTS
 62
7
  6
CONTINUOUS
 10
44.3149710859
 20
202.2396248991
 11
44.3686314099
 21
202.7576864049
  0
LINE
  8
QUILTS
 62
7
  6
CONTINUOUS
 10
44.5017207236
 20
203.5810426152
 11
44.5795727414
 21
204.0960243794
  0
LINE
  8
QUILTS
 62
7
  6
CONTINUOUS
 10
47.9210812729
 20
223.1474735974
 11
47.8709094248
 21
222.8211970718
  0
LINE
  8
QUILTS
 62
7
  6
CONTINUOUS
 10
49.9019474376
 20
222.1144609278
 11
49.8517755896
 21
221.7881844023
  0
LINE
  8
QUILTS
 62
7
  6
CONTINUOUS
 10
54.0992782141
 20
231.632249232
 11
54.1426119769
 21
231.8621230389
  0
LINE
  8
QUILTS
 62
7
  6
CONTINUOUS
 10
54.9615864901
 20
233.8043851893
 11
54.8997416883
 21
233.5787837797
  0
LINE
  8
QUILTS
 62
7
  6
CONTINUOUS
 10
55.4247165701
 20
233.5227927908
 11
55.486561372
 21
233.7483942004
  0
LINE
  8
QUILTS
 62
7
  6
CONTINUOUS
 10
56.036645918
 20
233.2464415831
 11
55.9129579214
 21
232.7952405252
  0
LINE
  8
QUILTS
 62
7
  6
CONTINUOUS
 10
56.429563561
 20
232.887903899
 11
56.4914067557
 21
233.1135035474
  0
LINE
  8
QUILTS
 62
7
  6
CONTINUOUS
 10
50.3695707267
 20
221.4006753987
 11
50.5160758339
 21
221.9116769718
  0
LINE
  8
QUILTS
 62
7
  6
CONTINUOUS
 10
43.8220278477
 20
196.5288112694
 11
43.9411011958
 21
196.942030298
  0
LINE
  8
QUILTS
 62
7
  6
CONTINUOUS
 10
45.3905299851
 20
212.9753750208
 11
45.2057842055
 21
212.3783038383
  0
LINE
  8
QUILTS
 62
7
  6
CONTINUOUS
 10
45.8771410727
 20
212.3886514051
 11
45.6308132492
 21
211.5925561155
  0
LINE
  8
QUILTS
 62
7
  6
CONTINUOUS
 10
46.2405880723
 20
211.4038795752
 11
46.4869158958
 21
212.1999748647
  0
LINE
  8
QUILTS
 62
7
  6
CONTINUOUS
 10
46.7948254109
 20
213.1950931226
 11
46.9795711904
 21
213.7921643051
  0
LINE
  8
QUILTS
 62
7
  6
CONTINUOUS
 10
53.5714911949
 20
231.6454583101
 11
53.4644183989
 21
231.333193996
  0
LINE
  8
QUILTS
 62
7
  6
CONTINUOUS
 10
55.3384911093
 20
230.2784699266
 11
55.2314183134
 21
229.9662056126
  0
LINE
  8
QUILTS
 62
7
  6
CONTINUOUS
 10
58.0495927516
 20
233.2428394568
 11
57.8556906283
 21
232.7146914272
  0
LINE
  8
QUILTS
 62
7
  6
CONTINUOUS
 10
41.2555104828
 20
201.6140053287
 11
41.4042556247
 21
202.0174944796
  0
LINE
  8
QUILTS
 62
7
  6
CONTINUOUS
 10
47.2630369146
 20
214.5786005599
 11
47.5017061188
 21
215.1562354021
  0
LINE
  8
QUILTS
 62
7
  6
CONTINUOUS
 10
48.4961609845
 20
217.5630468775
 11
48.8541647907
 21
218.4294991409
  0
LINE
  8
QUILTS
 62
7
  6
CONTINUOUS
 10
41.0131844475
 20
202.3721731395
 11
40.8751713949
 21
202.0722965269
  0
LINE
  8
QUILTS
 62
7
  6
CONTINUOUS
 10
55.672536407
 20
229.4932469894
 11
55.907087262
 21
229.9702923234
  0
LINE
  8
QUILTS
 62
7
  6
CONTINUOUS
 10
47.521711703
 20
220.7711753968
 11
48.4368711296
 21
222.5260506243
  0
LINE
  8
QUILTS
 62
7
  6
CONTINUOUS
 10
49.8517755896
 20
221.7881844023
 11
48.936616163
 21
220.0333091747
  0
LINE
  8
QUILTS
 62
7
  6
CONTINUOUS
 10
49.2135803362
 20
219.1839917909
 11
50.3695707267
 21
221.4006753987
  0
LINE
  8
QUILTS
 62
7
  6
CONTINUOUS
 10
55.486561372
 20
233.7483942004
 11
55.6888312681
 21
234.1278859805
  0
LINE
  8
QUILTS
 62
7
  6
CONTINUOUS
 10
56.4914067557
 20
233.1135035474
 11
56.6936766519
 21
233.4929953275
  0
LINE
  8
QUILTS
 62
7
  6
CONTINUOUS
 10
45.9850040044
 20
210.937765966
 11
46.2405880723
 21
211.4038795752
  0
LINE
  8
QUILTS
 62
7
  6
CONTINUOUS
 10
58.1700246821
 20
232.4278613351
 11
58.4425103326
 21
232.8843018291
  0
LINE
  8
QUILTS
 62
7
  6
CONTINUOUS
 10
70.2919901454
 20
248.0050088116
 11
69.9770930093
 21
247.4815923142
  0
LINE
  8
QUILTS
 62
7
  6
CONTINUOUS
 10
42.3201211879
 20
213.4892645826
 11
42.5449140488
 21
213.8558655716
  0
LINE
  8
QUILTS
 62
7
  6
CONTINUOUS
 10
45.6308132492
 20
211.5925561155
 11
45.4060203883
 21
211.2259551265
  0
LINE
  8
QUILTS
 62
7
  6
CONTINUOUS
 10
56.3793425155
 20
233.7798254949
 11
56.036645918
 21
233.2464415831
  0
LINE
  8
QUILTS
 62
7
  6
CONTINUOUS
 10
41.4042556247
 20
202.0174944796
 11
41.531536588
 21
202.2137585539
  0
LINE
  8
QUILTS
 62
7
  6
CONTINUOUS
 10
52.7582425898
 20
229.3772176046
 11
53.9692754668
 21
230.9426259255
  0
LINE
  8
QUILTS
 62
7
  6
CONTINUOUS
 10
55.2314183134
 20
229.9662056126
 11
54.0203854364
 21
228.4007972917
  0
LINE
  8
QUILTS
 62
7
  6
CONTINUOUS
 10
54.142811282
 20
227.5158899043
 11
55.672536407
 21
229.4932469894
  0
LINE
  8
QUILTS
 62
7
  6
CONTINUOUS
 10
55.1606018722
 20
232.9176996011
 11
55.5116710362
 21
233.3024325721
  0
LINE
  8
QUILTS
 62
7
  6
CONTINUOUS
 10
57.1516933906
 20
234.626236622
 11
56.3793425155
 21
233.7798254949
  0
LINE
  8
QUILTS
 62
7
  6
CONTINUOUS
 10
56.6936766519
 20
233.4929953275
 11
57.4660275269
 21
234.3394064545
  0
LINE
  8
QUILTS
 62
7
  6
CONTINUOUS
 10
57.8556906283
 20
232.7146914272
 11
57.4344089172
 21
232.2530132711
  0
LINE
  8
QUILTS
 62
7
  6
CONTINUOUS
 10
57.748742971
 20
231.966183179
 11
58.1700246821
 21
232.4278613351
  0
LINE
  8
QUILTS
 62
7
  6
CONTINUOUS
 10
58.9423755572
 20
233.2742724622
 11
59.2934415071
 21
233.6590019108
  0
LINE
  8
QUILTS
 62
7
  6
CONTINUOUS
 10
70.6297719966
 20
247.5811135758
 11
70.8579671629
 21
247.8196519407
  0
LINE
  8
QUILTS
 62
7
  6
CONTINUOUS
 10
72.7145614323
 20
246.5067607955
 11
72.4863662659
 21
246.2682224306
  0
LINE
  8
QUILTS
 62
7
  6
CONTINUOUS
 10
73.5487883171
 20
244.9021498576
 11
73.3205931507
 21
244.6636114927
  0
LINE
  8
QUILTS
 62
7
  6
CONTINUOUS
 10
42.2923524812
 20
214.4792096155
 11
41.9659301426
 21
214.1440535741
  0
LINE
  8
QUILTS
 62
7
  6
CONTINUOUS
 10
59.8964705477
 20
234.2357248376
 11
60.266567839
 21
234.6021904046
  0
LINE
  8
QUILTS
 62
7
  6
CONTINUOUS
 10
46.5503318495
 20
223.5098722538
 11
46.7891575991
 21
223.7377666302
  0
LINE
  8
QUILTS
 62
7
  6
CONTINUOUS
 10
48.4368711296
 20
222.5260506243
 11
48.6756968792
 21
222.7539450007
  0
LINE
  8
QUILTS
 62
7
  6
CONTINUOUS
 10
60.8659618346
 20
235.1811333346
 11
61.2450495441
 21
235.5382908982
  0
LINE
  8
QUILTS
 62
7
  6
CONTINUOUS
 10
72.6393061197
 20
245.7482288638
 11
73.0523475143
 21
246.0828677593
  0
LINE
  8
QUILTS
 62
7
  6
CONTINUOUS
 10
73.4735329701
 20
244.1436179919
 11
73.8865744291
 21
244.4782567635
  0
LINE
  8
QUILTS
 62
7
  6
CONTINUOUS
 10
56.2956457777
 20
235.2663666042
 11
55.79578056
 21
234.8763959648
  0
LINE
  8
QUILTS
 62
7
  6
CONTINUOUS
 10
48.6335469907
 20
223.3633266048
 11
48.4428878748
 21
223.22779475
  0
LINE
  8
QUILTS
 62
7
  6
CONTINUOUS
 10
68.754241211
 20
242.2111117256
 11
65.8423876032
 21
240.1950511892
  0
LINE
  8
QUILTS
 62
7
  6
CONTINUOUS
 10
65.6918760937
 20
239.3144857701
 11
69.117586451
 21
241.6863218549
  0
LINE
  8
QUILTS
 62
7
  6
CONTINUOUS
 10
52.286418338
 20
232.2445196761
 11
52.5617768233
 21
232.4265946334
  0
LINE
  8
QUILTS
 62
7
  6
CONTINUOUS
 10
53.9692754668
 20
230.9426259255
 11
54.2446339521
 21
231.1247008827
  0
LINE
  8
QUILTS
 62
7
  6
CONTINUOUS
 10
56.1101145863
 20
234.5895658978
 11
56.4695514956
 21
234.8256426444
  0
LINE
  8
QUILTS
 62
7
  6
CONTINUOUS
 10
57.3893044478
 20
231.7301046775
 11
57.748742971
 21
231.966183179
  0
LINE
  8
QUILTS
 62
7
  6
CONTINUOUS
 10
70.3800213682
 20
242.4204672553
 11
70.915897194
 21
242.7421225045
  0
LINE
  8
QUILTS
 62
7
  6
CONTINUOUS
 10
72.4863662659
 20
246.2682224306
 11
71.8394105729
 21
245.9318743355
  0
LINE
  8
QUILTS
 62
7
  6
CONTINUOUS
 10
72.1771924929
 20
245.5079789676
 11
72.6393061197
 21
245.7482288638
  0
LINE
  8
QUILTS
 62
7
  6
CONTINUOUS
 10
71.7322487485
 20
244.5572485708
 11
71.2701351216
 21
244.3169986745
  0
LINE
  8
QUILTS
 62
7
  6
CONTINUOUS
 10
73.3205931507
 20
244.6636114927
 11
72.7660584908
 21
244.375312497
  0
LINE
  8
QUILTS
 62
7
  6
CONTINUOUS
 10
73.1038446071
 20
243.9514193947
 11
73.4735329701
 21
244.1436179919
  0
LINE
  8
QUILTS
 62
7
  6
CONTINUOUS
 10
54.3108976662
 20
231.7319336821
 11
54.0992782141
 21
231.632249232
  0
LINE
  8
QUILTS
 62
7
  6
CONTINUOUS
 10
56.4695514956
 20
234.8256426444
 11
56.6885633105
 21
234.9078290205
  0
LINE
  8
QUILTS
 62
7
  6
CONTINUOUS
 10
71.6660108644
 20
245.3621202701
 11
72.1771924929
 21
245.5079789676
  0
LINE
  8
QUILTS
 62
7
  6
CONTINUOUS
 10
72.5926588123
 20
243.8055583737
 11
73.1038446071
 21
243.9514193947
  0
LINE
  8
QUILTS
 62
7
  6
CONTINUOUS
 10
43.4349152222
 20
197.7912379214
 11
43.5285083734
 21
197.3715133763
  0
LINE
  8
QUILTS
 62
7
  6
CONTINUOUS
 10
43.9538413116
 20
197.3585021962
 11
43.8602481883
 21
197.7782267404
  0
LINE
  8
QUILTS
 62
7
  6
CONTINUOUS
 10
41.4116928041
 20
212.3528400266
 11
41.4917873192
 21
211.8919007785
  0
LINE
  8
QUILTS
 62
7
  6
CONTINUOUS
 10
40.8322430989
 20
201.6578469666
 11
40.8951316489
 21
201.2324369967
  0
LINE
  8
QUILTS
 62
7
  6
CONTINUOUS
 10
41.3183990327
 20
201.1885953589
 11
41.2555104828
 21
201.6140053287
  0
LINE
  8
QUILTS
 62
7
  6
CONTINUOUS
 10
55.907087262
 20
229.9702923234
 11
55.9096119209
 21
230.4951346327
  0
LINE
  8
QUILTS
 62
7
  6
CONTINUOUS
 10
58.4425103326
 20
232.8843018291
 11
58.4959841544
 21
233.2585559595
  0
LINE
  8
QUILTS
 62
7
  6
CONTINUOUS
 10
70.4506489938
 20
247.2481863439
 11
70.6297719966
 21
247.5811135758
  0
LINE
  8
QUILTS
 62
7
  6
CONTINUOUS
 10
72.893684435
 20
246.8396880274
 11
72.7145614323
 21
246.5067607955
  0
LINE
  8
QUILTS
 62
7
  6
CONTINUOUS
 10
73.0523475143
 20
246.0828677593
 11
73.4105935197
 21
246.7487222231
  0
LINE
  8
QUILTS
 62
7
  6
CONTINUOUS
 10
73.7279113198
 20
245.2350770895
 11
73.5487883171
 21
244.9021498576
  0
LINE
  8
QUILTS
 62
7
  6
CONTINUOUS
 10
43.5157682576
 20
196.9550414782
 11
43.2903616563
 21
196.5450752451
  0
LINE
  8
QUILTS
 62
7
  6
CONTINUOUS
 10
73.8865744291
 20
244.4782567635
 11
74.2014673215
 21
245.0016710861
  0
LINE
  8
QUILTS
 62
7
  6
CONTINUOUS
 10
43.5998062824
 20
196.2229629361
 11
43.8220278477
 21
196.5288112694
  0
LINE
  8
QUILTS
 62
7
  6
CONTINUOUS
 10
41.2570143461
 20
202.6610893426
 11
41.0131844475
 21
202.3721731395
  0
LINE
  8
QUILTS
 62
7
  6
CONTINUOUS
 10
45.6585819914
 20
210.6026110716
 11
45.9850040044
 21
210.937765966
  0
LINE
  8
QUILTS
 62
7
  6
CONTINUOUS
 10
42.5449140488
 20
213.8558655716
 11
42.8405451892
 21
214.0915089901
  0
LINE
  8
QUILTS
 62
7
  6
CONTINUOUS
 10
45.4060203883
 20
211.2259551265
 11
45.1103891767
 21
210.99031173
  0
LINE
  8
QUILTS
 62
7
  6
CONTINUOUS
 10
46.7470077106
 20
224.3471482342
 11
46.2713625281
 21
224.1252755993
  0
LINE
  8
QUILTS
 62
7
  6
CONTINUOUS
 10
57.4344089172
 20
232.2530132711
 11
56.9963868668
 21
232.0886423052
  0
LINE
  8
QUILTS
 62
7
  6
CONTINUOUS
 10
57.170294233
 20
231.6479200689
 11
57.3893044478
 21
231.7301046775
  0
LINE
  8
QUILTS
 62
7
  6
CONTINUOUS
 10
43.2318038575
 20
198.1100973973
 11
43.4349152222
 21
197.7912379214
  0
LINE
  8
QUILTS
 62
7
  6
CONTINUOUS
 10
40.8951316489
 20
201.2324369967
 11
41.0745691649
 21
200.8996794522
  0
LINE
  8
QUILTS
 62
7
  6
CONTINUOUS
 10
41.4978365487
 20
200.8558378143
 11
41.3183990327
 21
201.1885953589
  0
LINE
  8
QUILTS
 62
7
  6
CONTINUOUS
 10
43.8602481883
 20
197.7782267404
 11
43.760285014
 21
197.989715559
  0
LINE
  8
QUILTS
 62
7
  6
CONTINUOUS
 10
42.1631441151
 20
211.9022483673
 11
42.0522587542
 21
212.2636761313
  0
LINE
  8
QUILTS
 62
7
  6
CONTINUOUS
 10
50.5160758339
 20
221.9116769718
 11
50.4257592869
 21
222.4286960671
  0
LINE
  8
QUILTS
 62
7
  6
CONTINUOUS
 10
54.8997416883
 20
233.5787837797
 11
54.9164820001
 21
233.2814766145
  0
LINE
  8
QUILTS
 62
7
  6
CONTINUOUS
 10
55.9129579214
 20
232.7952405252
 11
55.9296983433
 21
232.4979332595
  0
LINE
  8
QUILTS
 62
7
  6
CONTINUOUS
 10
56.4463022657
 20
232.5905949726
 11
56.429563561
 21
232.887903899
  0
LINE
  8
QUILTS
 62
7
  6
CONTINUOUS
 10
58.0244830324
 20
233.6888011353
 11
58.0495927516
 21
233.2428394568
  0
LINE
  8
QUILTS
 62
7
  6
CONTINUOUS
 10
69.9770930093
 20
247.4815923142
 11
69.8961143339
 21
246.9598873483
  0
LINE
  8
QUILTS
 62
7
  6
CONTINUOUS
 10
67.8067793748
 20
246.7074738617
 11
67.6541523109
 21
245.747328343
  0
LINE
  8
QUILTS
 62
7
  6
CONTINUOUS
 10
68.0921510492
 20
245.0176249223
 11
68.2447779598
 21
245.9777706966
  0
LINE
  8
QUILTS
 62
7
  6
CONTINUOUS
 10
65.8423876032
 20
240.1950511892
 11
66.6952847941
 21
245.1849210743
  0
LINE
  8
QUILTS
 62
7
  6
CONTINUOUS
 10
66.1459544634
 20
245.0633704823
 11
65.2074157877
 21
240.0142055772
  0
LINE
  8
QUILTS
 62
7
  6
CONTINUOUS
 10
43.2712514843
 20
195.9203674537
 11
43.5998062824
 21
196.2229629361
  0
LINE
  8
QUILTS
 62
7
  6
CONTINUOUS
 10
41.4901121553
 20
202.8463930074
 11
41.2570143461
 21
202.6610893426
  0
LINE
  8
QUILTS
 62
7
  6
CONTINUOUS
 10
41.531536588
 20
202.2137585539
 11
41.7646343972
 21
202.3990622187
  0
LINE
  8
QUILTS
 62
7
  6
CONTINUOUS
 10
42.8220327181
 20
214.7514723453
 11
42.2923524812
 21
214.4792096155
  0
LINE
  8
QUILTS
 62
7
  6
CONTINUOUS
 10
46.9795711904
 20
213.7921643051
 11
46.3174705589
 21
213.4518350607
  0
LINE
  8
QUILTS
 62
7
  6
CONTINUOUS
 10
45.7877902508
 20
213.1795723528
 11
45.3905299851
 21
212.9753750208
  0
LINE
  8
QUILTS
 62
7
  6
CONTINUOUS
 10
46.5299850985
 20
213.0589611938
 11
46.7948254109
 21
213.1950931226
  0
LINE
  8
QUILTS
 62
7
  6
CONTINUOUS
 10
45.2057842055
 20
212.3783038383
 11
45.8678848371
 21
212.7186330827
  0
LINE
  8
QUILTS
 62
7
  6
CONTINUOUS
 10
45.128901719
 20
210.3303483528
 11
45.6585819914
 21
210.6026110716
  0
LINE
  8
QUILTS
 62
7
  6
CONTINUOUS
 10
123.634940487
 20
247.5994279682
 11
123.356740674
 21
247.4932410615
  0
LINE
  8
QUILTS
 62
7
  6
CONTINUOUS
 10
131.1523569183
 20
244.890624208
 11
130.6527665403
 21
244.7199107886
  0
LINE
  8
QUILTS
 62
7
  6
CONTINUOUS
 10
46.7891575991
 20
223.7377666302
 11
47.0741436658
 21
223.8241074103
  0
LINE
  8
QUILTS
 62
7
  6
CONTINUOUS
 10
48.6756968792
 20
222.7539450007
 11
48.9606829458
 21
222.8402857809
  0
LINE
  8
QUILTS
 62
7
  6
CONTINUOUS
 10
43.760285014
 20
197.989715559
 11
43.4508403636
 21
198.3118276824
  0
LINE
  8
QUILTS
 62
7
  6
CONTINUOUS
 10
41.0745691649
 20
200.8996794522
 11
41.2647387088
 21
200.6705338531
  0
LINE
  8
QUILTS
 62
7
  6
CONTINUOUS
 10
41.6880060926
 20
200.6266922152
 11
41.4978365487
 21
200.8558378143
  0
LINE
  8
QUILTS
 62
7
  6
CONTINUOUS
 10
41.4917873192
 20
211.8919007785
 11
41.7751400849
 21
211.3680693576
  0
LINE
  8
QUILTS
 62
7
  6
CONTINUOUS
 10
46.3174705589
 20
213.4518350607
 11
46.1757943522
 21
213.7137513405
  0
LINE
  8
QUILTS
 62
7
  6
CONTINUOUS
 10
47.8287595363
 20
223.4305786759
 11
47.9210812729
 21
223.1474735974
  0
LINE
  8
QUILTS
 62
7
  6
CONTINUOUS
 10
49.8096256351
 20
222.3975660408
 11
49.9019474376
 21
222.1144609278
  0
LINE
  8
QUILTS
 62
7
  6
CONTINUOUS
 10
53.530682113
 20
231.9404267954
 11
53.5714911949
 21
231.6454583101
  0
LINE
  8
QUILTS
 62
7
  6
CONTINUOUS
 10
55.2976819686
 20
230.5734384575
 11
55.3384911093
 21
230.2784699266
  0
LINE
  8
QUILTS
 62
7
  6
CONTINUOUS
 10
70.4130191878
 20
246.8689193444
 11
70.4506489938
 21
247.2481863439
  0
LINE
  8
QUILTS
 62
7
  6
CONTINUOUS
 10
72.931314241
 20
247.218955027
 11
72.893684435
 21
246.8396880274
  0
LINE
  8
QUILTS
 62
7
  6
CONTINUOUS
 10
73.7655410914
 20
245.6143441551
 11
73.7279113198
 21
245.2350770895
  0
LINE
  8
QUILTS
 62
7
  6
CONTINUOUS
 10
74.2014673215
 20
245.0016710861
 11
74.2824459797
 21
245.5233760851
  0
LINE
  8
QUILTS
 62
7
  6
CONTINUOUS
 10
43.2903616563
 20
196.5450752451
 11
42.9649918482
 21
196.3465976826
  0
LINE
  8
QUILTS
 62
7
  6
CONTINUOUS
 10
123.696450801
 20
246.9855826148
 11
124.1582290693
 21
247.2415014463
  0
LINE
  8
QUILTS
 62
7
  6
CONTINUOUS
 10
130.8124080138
 20
244.2199264096
 11
131.1657249224
 21
244.3628411902
  0
LINE
  8
QUILTS
 62
7
  6
CONTINUOUS
 10
131.2593006958
 20
240.6683596986
 11
130.9059837446
 21
240.5254448569
  0
LINE
  8
QUILTS
 62
7
  6
CONTINUOUS
 10
130.9193517274
 20
239.9976618085
 11
131.4189421268
 21
240.1683752584
  0
LINE
  8
QUILTS
 62
7
  6
CONTINUOUS
 10
42.8405451892
 20
214.0915089901
 11
43.2070148939
 21
214.19619475
  0
LINE
  8
QUILTS
 62
7
  6
CONTINUOUS
 10
45.1103891767
 20
210.99031173
 11
44.7439197567
 21
210.8856258821
  0
LINE
  8
QUILTS
 62
7
  6
CONTINUOUS
 10
42.9191741629
 20
198.3280916584
 11
43.2318038575
 21
198.1100973973
  0
LINE
  8
QUILTS
 62
7
  6
CONTINUOUS
 10
42.4064497318
 20
211.6088859129
 11
42.1631441151
 21
211.9022483673
  0
LINE
  8
QUILTS
 62
7
  6
CONTINUOUS
 10
45.5444849188
 20
213.4729347191
 11
45.7877902508
 21
213.1795723528
  0
LINE
  8
QUILTS
 62
7
  6
CONTINUOUS
 10
48.4448930891
 20
223.4617087539
 11
48.2120840847
 21
223.9355585032
  0
LINE
  8
QUILTS
 62
7
  6
CONTINUOUS
 10
50.4257592869
 20
222.4286960671
 11
50.1929502495
 21
222.9025458337
  0
LINE
  8
QUILTS
 62
7
  6
CONTINUOUS
 10
54.1426119769
 20
231.8621230389
 11
53.9972562389
 21
232.3696713882
  0
LINE
  8
QUILTS
 62
7
  6
CONTINUOUS
 10
55.9096119209
 20
230.4951346327
 11
55.7642561534
 21
231.0026830048
  0
LINE
  8
QUILTS
 62
7
  6
CONTINUOUS
 10
69.8961143339
 20
246.9598873483
 11
69.9566289926
 21
246.3918423502
  0
LINE
  8
0
 62
7
  6
CONTINUOUS
 10
70.2139366351
 20
264.628339731
 11
70.2235438274
 21
264.4148604504
  0
LINE
  8
0
 62
7
  6
CONTINUOUS
 10
59.2968253636
 20
132.5489789976
 11
59.2522116661
 21
132.339992588
  0
LINE
  8
0
 62
7
  6
CONTINUOUS
 10
94.1262338613
 20
270.0543918551
 11
94.0660039003
 21
269.8493600205
  0
LINE
  8
0
 62
7
  6
CONTINUOUS
 10
40.9145434681
 20
148.6762354357
 11
40.8044892875
 21
148.4930585301
  0
LINE
  8
0
 62
7
  6
CONTINUOUS
 10
118.504733111
 20
267.4221352916
 11
118.3811928477
 21
267.2477692837
  0
LINE
  8
0
 62
7
  6
CONTINUOUS
 10
28.7647759147
 20
169.8983898104
 11
28.6012073292
 21
169.7608724689
  0
LINE
  8
0
 62
7
  6
CONTINUOUS
 10
140.7076457193
 20
257.0168158828
 11
140.5341826579
 21
256.8920109641
  0
LINE
  8
QUILTS
 62
7
  6
CONTINUOUS
 10
130.6527665403
 20
244.7199107886
 11
130.1778938679
 21
244.4023716542
  0
LINE
  8
QUILTS
 62
7
  6
CONTINUOUS
 10
44.0048017703
 20
199.0243896398
 11
43.7889502666
 21
198.9267770692
  0
LINE
  8
QUILTS
 62
7
  6
CONTINUOUS
 10
43.0554000052
 20
195.822755078
 11
43.2712514843
 21
195.9203674537
  0
LINE
  8
0
 62
7
  6
CONTINUOUS
 10
24.1641385409
 20
193.9156923996
 11
23.9647807447
 21
193.8387367599
  0
LINE
  8
0
 62
7
  6
CONTINUOUS
 10
158.3289415912
 20
239.9660114419
 11
158.1243531461
 21
239.9042921619
  0
LINE
  8
0
 62
7
  6
CONTINUOUS
 10
171.9720987781
 20
185.220781317
 11
172.1814040758
 21
185.2638741674
  0
LINE
  8
0
 62
7
  6
CONTINUOUS
 10
32.0574953756
 20
161.8813293925
 11
32.2694521606
 21
161.9085327507
  0
LINE
  8
0
 62
7
  6
CONTINUOUS
 10
164.5872660321
 20
161.9085327507
 11
164.799222817
 21
161.8813293925
  0
LINE
  8
0
 62
7
  6
CONTINUOUS
 10
24.6753141168
 20
185.2638741674
 11
24.8846194145
 21
185.220781317
  0
LINE
  8
0
 62
7
  6
CONTINUOUS
 10
150.0330891583
 20
142.2572573866
 11
150.2247286241
 21
142.1627057259
  0
LINE
  8
0
 62
7
  6
CONTINUOUS
 10
25.285419678
 20
209.7764785066
 11
25.4693920117
 21
209.6677592267
  0
LINE
  8
QUILTS
 62
7
  6
CONTINUOUS
 10
41.7751400849
 20
211.3680693576
 11
42.1200745423
 21
211.0432609049
  0
LINE
  8
QUILTS
 62
7
  6
CONTINUOUS
 10
46.1757943522
 20
213.7137513405
 11
45.8308598236
 21
214.0385598152
  0
LINE
  8
0
 62
7
  6
CONTINUOUS
 10
129.8867390524
 20
128.3964758315
 11
130.0372940893
 21
128.2448220077
  0
LINE
  8
0
 62
7
  6
CONTINUOUS
 10
33.8216976548
 20
232.7628213778
 11
33.9604007675
 21
232.6002570892
  0
LINE
  8
0
 62
7
  6
CONTINUOUS
 10
106.3313853513
 20
121.828218839
 11
106.4245409849
 21
121.6358968972
  0
LINE
  8
QUILTS
 62
7
  6
CONTINUOUS
 10
54.9164820001
 20
233.2814766145
 11
55.003434859
 21
233.0611146346
  0
LINE
  8
QUILTS
 62
7
  6
CONTINUOUS
 10
55.5116710362
 20
233.3024325721
 11
55.4247165701
 21
233.5227927908
  0
LINE
  8
QUILTS
 62
7
  6
CONTINUOUS
 10
55.9296983433
 20
232.4979332595
 11
56.1036040612
 21
232.0572092997
  0
LINE
  8
QUILTS
 62
7
  6
CONTINUOUS
 10
57.9375285664
 20
233.9091613541
 11
58.0244830324
 21
233.6888011353
  0
LINE
  8
QUILTS
 62
7
  6
CONTINUOUS
 10
58.4959841544
 20
233.2585559595
 11
58.4090296609
 21
233.4789162034
  0
LINE
  8
0
 62
7
  6
CONTINUOUS
 10
49.3591098744
 20
251.7319758609
 11
49.4375131317
 21
251.5331829268
  0
LINE
  8
0
 62
7
  6
CONTINUOUS
 10
81.9196161273
 20
123.2642589713
 11
81.9452774993
 21
123.052109978
  0
LINE
  8
QUILTS
 62
7
  6
CONTINUOUS
 10
74.2824459797
 20
245.5233760851
 11
74.2219314241
 21
246.0914208849
  0
LINE
  8
0
 62
7
  6
CONTINUOUS
 10
81.9766010367
 20
122.2718493321
 11
81.9481390419
 21
121.0288159362
  0
LINE
  8
0
 62
7
  6
CONTINUOUS
 10
94.46207963
 20
272.0496198089
 11
94.2855568678
 21
270.818855078
  0
LINE
  8
0
 62
7
  6
CONTINUOUS
 10
59.0284877903
 20
131.5918378801
 11
58.597955661
 21
130.4253970569
  0
LINE
  8
0
 62
7
  6
CONTINUOUS
 10
119.4702312872
 20
269.2002073486
 11
118.9036443603
 21
268.0934456928
  0
LINE
  8
0
 62
7
  6
CONTINUOUS
 10
40.3499619519
 20
147.8580839317
 11
39.5640145247
 21
146.8946376435
  0
LINE
  8
QUILTS
 62
7
  6
CONTINUOUS
 10
123.8629931595
 20
247.845800358
 11
123.634940487
 21
247.5994279682
  0
LINE
  8
QUILTS
 62
7
  6
CONTINUOUS
 10
124.1582290693
 20
247.2415014463
 11
124.3862817418
 21
247.4878738361
  0
LINE
  8
0
 62
7
  6
CONTINUOUS
 10
94.5646557912
 20
220.1126631878
 11
74.007791154
 21
199.5557985506
  0
LINE
  8
0
 62
7
  6
CONTINUOUS
 10
142.1981695942
 20
258.385050346
 11
141.3029169877
 21
257.5222265639
  0
LINE
  8
QUILTS
 62
7
  6
CONTINUOUS
 10
125.549471014
 20
244.9262637765
 11
127.7906299017
 21
246.9527023301
  0
LINE
  8
QUILTS
 62
7
  6
CONTINUOUS
 10
124.2515091392
 20
243.7081515455
 11
125.2475824897
 21
244.6087892795
  0
LINE
  8
QUILTS
 62
7
  6
CONTINUOUS
 10
127.6405874878
 20
247.5290446367
 11
123.7091787729
 21
244.0188005013
  0
LINE
  8
QUILTS
 62
7
  6
CONTINUOUS
 10
130.5445787806
 20
244.0175034169
 11
130.8124080138
 21
244.2199264096
  0
LINE
  8
QUILTS
 62
7
  6
CONTINUOUS
 10
129.5721339475
 20
242.6205104203
 11
129.8399630956
 21
242.8229332907
  0
LINE
  8
QUILTS
 62
7
  6
CONTINUOUS
 10
131.5271297587
 20
240.8707824467
 11
131.2593006958
 21
240.6683596986
  0
LINE
  8
QUILTS
 62
7
  6
CONTINUOUS
 10
131.4189421268
 20
240.1683752584
 11
131.8938146714
 21
240.4859142094
  0
LINE
  8
0
 62
7
  6
CONTINUOUS
 10
27.9651316233
 20
169.3078873302
 11
26.9089384972
 21
168.6518399318
  0
LINE
  8
0
 62
7
  6
CONTINUOUS
 10
160.1829697752
 20
240.7761388768
 11
159.0560660002
 21
240.2507533133
  0
LINE
  8
QUILTS
 62
7
  6
CONTINUOUS
 10
43.4508403636
 20
198.3118276824
 11
43.9888766244
 21
198.5037997299
  0
LINE
  8
QUILTS
 62
7
  6
CONTINUOUS
 10
42.9649918482
 20
196.3465976826
 11
42.6428071436
 21
196.2522380923
  0
LINE
  8
0
 62
7
  6
CONTINUOUS
 10
31.2934210241
 20
161.7201517733
 11
30.0954111262
 21
161.3874140492
  0
LINE
  8
0
 62
7
  6
CONTINUOUS
 10
174.1975512383
 20
185.4338082341
 11
172.9564130588
 21
185.3595241325
  0
LINE
  8
0
 62
7
  6
CONTINUOUS
 10
23.9003051339
 20
185.3595241325
 11
22.6591669543
 21
185.4338082341
  0
LINE
  8
0
 62
7
  6
CONTINUOUS
 10
166.7613070664
 20
161.3874140492
 11
165.5632971685
 21
161.7201517733
  0
LINE
  8
0
 62
7
  6
CONTINUOUS
 10
24.5834603123
 20
210.1185908982
 11
23.4336904311
 21
210.5918469903
  0
LINE
  8
QUILTS
 62
7
  6
CONTINUOUS
 10
42.7821753873
 20
211.3835900833
 11
42.4064497318
 21
211.6088859129
  0
LINE
  8
0
 62
7
  6
CONTINUOUS
 10
151.920127687
 20
141.0584643639
 11
150.8950690322
 21
141.7621666183
  0
LINE
  8
0
 62
7
  6
CONTINUOUS
 10
32.33504992
 20
234.1352664516
 11
33.2688560957
 21
233.3143230098
  0
LINE
  8
0
 62
7
  6
CONTINUOUS
 10
74.007791154
 20
191.8283919403
 11
94.5646557912
 21
171.2715273032
  0
LINE
  8
QUILTS
 62
7
  6
CONTINUOUS
 10
47.5939453177
 20
223.6705144213
 11
47.8287595363
 21
223.4305786759
  0
LINE
  8
QUILTS
 62
7
  6
CONTINUOUS
 10
48.2120840847
 20
223.9355585032
 11
47.9772698661
 21
224.1754942486
  0
LINE
  8
QUILTS
 62
7
  6
CONTINUOUS
 10
49.5748114164
 20
222.6375017862
 11
49.8096256351
 21
222.3975660408
  0
LINE
  8
QUILTS
 62
7
  6
CONTINUOUS
 10
50.1929502495
 20
222.9025458337
 11
49.9581359648
 21
223.1424816135
  0
LINE
  8
0
 62
7
  6
CONTINUOUS
 10
131.2822851705
 20
126.6499163128
 11
130.5412587695
 21
127.6483260391
  0
LINE
  8
QUILTS
 62
7
  6
CONTINUOUS
 10
53.3419926122
 20
232.2181013377
 11
53.530682113
 21
231.9404267954
  0
LINE
  8
QUILTS
 62
7
  6
CONTINUOUS
 10
53.9972562389
 20
232.3696713882
 11
53.8085667381
 21
232.6473459306
  0
LINE
  8
QUILTS
 62
7
  6
CONTINUOUS
 10
55.1089924678
 20
230.8511129999
 11
55.2976819686
 21
230.5734384575
  0
LINE
  8
QUILTS
 62
7
  6
CONTINUOUS
 10
55.7642561534
 20
231.0026830048
 11
55.5755665937
 21
231.2803575927
  0
LINE
  8
0
 62
7
  6
CONTINUOUS
 10
48.3986450015
 20
253.5127718054
 11
49.0152950831
 21
252.4331029741
  0
LINE
  8
QUILTS
 62
7
  6
CONTINUOUS
 10
56.6118402383
 20
232.2985272371
 11
56.4463022657
 21
232.5905949726
  0
LINE
  8
0
 62
7
  6
CONTINUOUS
 10
106.7075175442
 20
120.9080836612
 11
107.0842099826
 21
119.7231596488
  0
LINE
  8
0
 62
7
  6
CONTINUOUS
 10
69.8837358961
 20
266.6245096737
 11
70.116406279
 21
265.4031143235
  0
LINE
  8
QUILTS
 62
7
  6
CONTINUOUS
 10
70.4678147831
 20
246.5377033794
 11
70.4130191878
 21
246.8689193444
  0
LINE
  8
QUILTS
 62
7
  6
CONTINUOUS
 10
72.8765187832
 20
247.5501707275
 11
72.931314241
 21
247.218955027
  0
LINE
  8
QUILTS
 62
7
  6
CONTINUOUS
 10
73.7107456336
 20
245.9455598556
 11
73.7655410914
 21
245.6143441551
  0
LINE
  8
QUILTS
 62
7
  6
CONTINUOUS
 10
130.1778938679
 20
244.4023716542
 11
129.6669536179
 21
243.8507006875
  0
LINE
  8
QUILTS
 62
7
  6
CONTINUOUS
 10
130.0944163274
 20
243.553144505
 11
130.5445787806
 21
244.0175034169
  0
LINE
  8
QUILTS
 62
7
  6
CONTINUOUS
 10
42.1200745423
 20
211.0432609049
 11
42.5974296078
 21
210.7865189008
  0
LINE
  8
QUILTS
 62
7
  6
CONTINUOUS
 10
45.8308598236
 20
214.0385598152
 11
45.3535050428
 21
214.2953017313
  0
LINE
  8
QUILTS
 62
7
  6
CONTINUOUS
 10
45.1687592633
 20
213.6982305488
 11
45.5444849188
 21
213.4729347191
  0
LINE
  8
QUILTS
 62
7
  6
CONTINUOUS
 10
73.508737847
 20
246.5599444891
 11
73.7107456336
 21
245.9455598556
  0
LINE
  8
1_AXIS
 62
2
  6
CONTINUOUS
 10
98.4283590963
 20
196.5720952455
 11
98.4283590963
 21
194.8120952455
  0
LINE
  8
1_AXIS
 62
2
  6
CENTER
 10
98.4283590963
 20
191.2920952455
 11
98.4283590963
 21
116.5820952455
  0
LINE
  8
1_AXIS
 62
2
  6
CENTER
 10
98.4283590963
 20
200.0920952455
 11
98.4283590963
 21
274.8020952455
  0
LINE
  8
QUILTS
 62
7
  6
CONTINUOUS
 10
121.5521883059
 20
250.5487464282
 11
119.4618998505
 21
246.0066440325
  0
LINE
  8
QUILTS
 62
7
  6
CONTINUOUS
 10
120.02966265
 20
245.7453579756
 11
120.9636213348
 21
247.774808011
  0
LINE
  8
QUILTS
 62
7
  6
CONTINUOUS
 10
121.2304666377
 20
248.3546508009
 11
121.8975800196
 21
249.8042580464
  0
LINE
  8
QUILTS
 62
7
  6
CONTINUOUS
 10
129.6669536179
 20
243.8507006875
 11
129.2415090407
 21
243.239516305
  0
LINE
  8
QUILTS
 62
7
  6
CONTINUOUS
 10
129.9728607339
 20
243.3785203957
 11
130.0944163274
 21
243.553144505
  0
LINE
  8
QUILTS
 62
7
  6
CONTINUOUS
 10
129.3898005573
 20
242.3585742564
 11
129.5721339475
 21
242.6205104203
  0
LINE
  8
1_AXIS
 62
2
  6
CONTINUOUS
 10
99.3083590963
 20
195.6920952455
 11
97.5483590963
 21
195.6920952455
  0
LINE
  8
1_AXIS
 62
2
  6
CENTER
 10
94.0283590963
 20
195.6920952455
 11
19.3183590963
 21
195.6920952455
  0
LINE
  8
1_AXIS
 62
2
  6
CENTER
 10
102.8283590963
 20
195.6920952455
 11
177.5383590963
 21
195.6920952455
  0
LINE
  8
QUILTS
 62
7
  6
CONTINUOUS
 10
40.5002173473
 20
195.7967041937
 11
42.6268820011
 21
195.7316482941
  0
LINE
  8
QUILTS
 62
7
  6
CONTINUOUS
 10
42.6428071436
 20
196.2522380923
 11
40.5161424898
 21
196.3172939919
  0
LINE
  8
QUILTS
 62
7
  6
CONTINUOUS
 10
40.5798430587
 20
198.3996531476
 11
42.9191741629
 21
198.3280916584
  0
LINE
  8
QUILTS
 62
7
  6
CONTINUOUS
 10
40.6819941243
 20
200.2072740982
 11
44.0681334914
 21
199.8565409645
  0
LINE
  8
QUILTS
 62
7
  6
CONTINUOUS
 10
44.121793846
 20
200.3746027668
 11
41.6880060926
 21
200.6266922152
  0
LINE
  8
QUILTS
 62
7
  6
CONTINUOUS
 10
41.2647387088
 20
200.6705338531
 11
40.735654479
 21
200.7253359004
  0
LINE
  8
QUILTS
 62
7
  6
CONTINUOUS
 10
42.3044507163
 20
202.4478727096
 11
44.3149710859
 21
202.2396248991
  0
LINE
  8
QUILTS
 62
7
  6
CONTINUOUS
 10
39.5578939012
 20
204.3284222713
 11
40.0838328621
 21
204.2489138067
  0
LINE
  8
QUILTS
 62
7
  6
CONTINUOUS
 10
41.1357110787
 20
204.089896833
 11
44.5017207236
 21
203.5810426152
  0
LINE
  8
QUILTS
 62
7
  6
CONTINUOUS
 10
44.5795727414
 20
204.0960243794
 11
41.2135630966
 21
204.6048785973
  0
LINE
  8
QUILTS
 62
7
  6
CONTINUOUS
 10
40.16168488
 20
204.763895571
 11
39.635745919
 21
204.8434040355
  0
LINE
  8
QUILTS
 62
7
  6
CONTINUOUS
 10
42.5974296078
 20
210.7865189008
 11
44.1218666301
 21
210.314827561
  0
LINE
  8
QUILTS
 62
7
  6
CONTINUOUS
 10
44.3066124096
 20
210.9118987435
 11
42.7821753873
 21
211.3835900833
  0
LINE
  8
QUILTS
 62
7
  6
CONTINUOUS
 10
42.6419581766
 20
216.4879541933
 11
47.2630369146
 21
214.5786005599
  0
LINE
  8
QUILTS
 62
7
  6
CONTINUOUS
 10
47.5017061188
 20
215.1562354021
 11
43.4705522558
 21
216.8218417923
  0
LINE
  8
QUILTS
 62
7
  6
CONTINUOUS
 10
44.7802131206
 20
221.4959725718
 11
49.2135803362
 21
219.1839917909
  0
LINE
  8
QUILTS
 62
7
  6
CONTINUOUS
 10
48.936616163
 20
220.0333091747
 11
47.521711703
 21
220.7711753968
  0
LINE
  8
QUILTS
 62
7
  6
CONTINUOUS
 10
46.9557499982
 20
221.0663218443
 11
45.6351724229
 21
221.7549970262
  0
LINE
  8
QUILTS
 62
7
  6
CONTINUOUS
 10
50.1880971119
 20
230.5753401544
 11
54.142811282
 21
227.5158899043
  0
LINE
  8
QUILTS
 62
7
  6
CONTINUOUS
 10
54.0203854364
 20
228.4007972917
 11
52.7582425898
 21
229.3772176046
  0
LINE
  8
QUILTS
 62
7
  6
CONTINUOUS
 10
52.2533855219
 20
229.7677856751
 11
51.0753854611
 21
230.6791113552
  0
LINE
  8
QUILTS
 62
7
  6
CONTINUOUS
 10
55.003434859
 20
233.0611146346
 11
55.1606018722
 21
232.9176996011
  0
LINE
  8
QUILTS
 62
7
  6
CONTINUOUS
 10
56.1036040612
 20
232.0572092997
 11
56.3393545809
 21
231.8420867495
  0
LINE
  8
QUILTS
 62
7
  6
CONTINUOUS
 10
56.7690073065
 20
232.1551121534
 11
56.6118402383
 21
232.2985272371
  0
LINE
  8
QUILTS
 62
7
  6
CONTINUOUS
 10
56.9159428708
 20
234.8413591722
 11
57.1516933906
 21
234.626236622
  0
LINE
  8
QUILTS
 62
7
  6
CONTINUOUS
 10
57.4660275269
 20
234.3394064545
 11
57.9375285664
 21
233.9091613541
  0
LINE
  8
QUILTS
 62
7
  6
CONTINUOUS
 10
56.3784118411
 20
237.7886479913
 11
59.8964705477
 21
234.2357248376
  0
LINE
  8
QUILTS
 62
7
  6
CONTINUOUS
 10
60.266567839
 20
234.6021904046
 11
56.7485091323
 21
238.1551135583
  0
LINE
  8
QUILTS
 62
7
  6
CONTINUOUS
 10
57.4372596871
 20
238.8203642402
 11
60.8659618346
 21
235.1811333346
  0
LINE
  8
QUILTS
 62
7
  6
CONTINUOUS
 10
61.2450495441
 20
235.5382908982
 11
57.8163473967
 21
239.1775218038
  0
LINE
  8
QUILTS
 62
7
  6
CONTINUOUS
 10
62.8456717062
 20
243.4253397671
 11
63.1484593709
 21
242.9880149259
  0
LINE
  8
QUILTS
 62
7
  6
CONTINUOUS
 10
65.2074157877
 20
240.0142055772
 11
65.6918760937
 21
239.3144857701
  0
LINE
  8
QUILTS
 62
7
  6
CONTINUOUS
 10
67.6541523109
 20
245.747328343
 11
68.0921510492
 21
245.0176249223
  0
LINE
  8
QUILTS
 62
7
  6
CONTINUOUS
 10
68.2447779598
 20
245.9777706966
 11
70.3800213682
 21
242.4204672553
  0
LINE
  8
QUILTS
 62
7
  6
CONTINUOUS
 10
70.915897194
 20
242.7421225045
 11
68.3426552006
 21
247.0291291109
  0
LINE
  8
QUILTS
 62
7
  6
CONTINUOUS
 10
69.9566289926
 20
246.3918423502
 11
70.1529176471
 21
246.0142868821
  0
LINE
  8
QUILTS
 62
7
  6
CONTINUOUS
 10
70.5659591103
 20
246.3489256454
 11
70.4678147831
 21
246.5377033794
  0
LINE
  8
QUILTS
 62
7
  6
CONTINUOUS
 10
74.2219314241
 20
246.0914208849
 11
73.9708472431
 21
246.8001921858
  0
LINE
  8
QUILTS
 62
7
  6
CONTINUOUS
 10
123.9964159356
 20
248.1357220237
 11
123.8629931595
 21
247.845800358
  0
LINE
  8
QUILTS
 62
7
  6
CONTINUOUS
 10
124.3862817418
 20
247.4878738361
 11
124.564178735
 21
247.8744359668
  0
LINE
  8
QUILTS
 62
7
  6
CONTINUOUS
 10
129.2415090407
 20
243.239516305
 11
128.9015600511
 21
242.5688183843
  0
LINE
  8
QUILTS
 62
7
  6
CONTINUOUS
 10
131.709463149
 20
241.1327186106
 11
131.5271297587
 21
240.8707824467
  0
LINE
  8
QUILTS
 62
7
  6
CONTINUOUS
 10
131.8938146714
 20
240.4859142094
 11
132.1977037403
 21
240.922474605
  0
LINE
  8
QUILTS
 62
7
  6
CONTINUOUS
 10
43.3604322842
 20
198.8356703871
 11
40.5957682046
 21
198.9202430575
  0
LINE
  8
QUILTS
 62
7
  6
CONTINUOUS
 10
44.3686314099
 20
202.7576864049
 11
42.3581110402
 21
202.9659342154
  0
LINE
  8
QUILTS
 62
7
  6
CONTINUOUS
 10
43.644322241
 20
214.1699218886
 11
45.1687592633
 21
213.6982305488
  0
LINE
  8
QUILTS
 62
7
  6
CONTINUOUS
 10
45.3535050428
 20
214.2953017313
 11
43.8290680205
 21
214.766993071
  0
LINE
  8
QUILTS
 62
7
  6
CONTINUOUS
 10
43.9944168486
 20
219.7612179321
 11
47.9272498303
 21
218.136236111
  0
LINE
  8
QUILTS
 62
7
  6
CONTINUOUS
 10
48.8541647907
 20
218.4294991409
 11
44.2330860528
 21
220.3388527744
  0
LINE
  8
QUILTS
 62
7
  6
CONTINUOUS
 10
47.4052914161
 20
223.7688965704
 11
47.5939453177
 21
223.6705144213
  0
LINE
  8
QUILTS
 62
7
  6
CONTINUOUS
 10
49.2918305641
 20
222.7850750099
 11
49.5748114164
 21
222.6375017862
  0
LINE
  8
QUILTS
 62
7
  6
CONTINUOUS
 10
49.9581359648
 20
223.1424816135
 11
49.4865012109
 21
223.3884369864
  0
LINE
  8
QUILTS
 62
7
  6
CONTINUOUS
 10
47.9772698661
 20
224.1754942486
 11
47.5999617987
 21
224.3722586848
  0
LINE
  8
QUILTS
 62
7
  6
CONTINUOUS
 10
53.1737069229
 20
232.3482906946
 11
53.3419926122
 21
232.2181013377
  0
LINE
  8
QUILTS
 62
7
  6
CONTINUOUS
 10
54.8565639338
 20
231.0463970351
 11
55.1089924678
 21
230.8511129999
  0
LINE
  8
QUILTS
 62
7
  6
CONTINUOUS
 10
55.5755665937
 20
231.2803575927
 11
55.1548523704
 21
231.6058309848
  0
LINE
  8
QUILTS
 62
7
  6
CONTINUOUS
 10
53.8085667381
 20
232.6473459306
 11
53.4719951238
 21
232.9077248266
  0
LINE
  8
QUILTS
 62
7
  6
CONTINUOUS
 10
58.5243483051
 20
234.0787717245
 11
57.2670120348
 21
235.2260921431
  0
LINE
  8
QUILTS
 62
7
  6
CONTINUOUS
 10
69.117586451
 20
241.6863218549
 11
68.754241211
 21
242.2111117256
  0
LINE
  8
QUILTS
 62
7
  6
CONTINUOUS
 10
66.6952847941
 20
245.1849210743
 11
66.2713820635
 21
245.7971758519
  0
LINE
  8
QUILTS
 62
7
  6
CONTINUOUS
 10
72.778374456
 20
247.7389484616
 11
72.8765187832
 21
247.5501707275
  0
LINE
  8
QUILTS
 62
7
  6
CONTINUOUS
 10
73.4105935197
 20
246.7487222231
 11
73.508737847
 21
246.5599444891
  0
LINE
  8
QUILTS
 62
7
  6
CONTINUOUS
 10
73.9708472431
 20
246.8001921858
 11
73.6273420977
 21
247.460914255
  0
LINE
  8
0
 62
7
  6
CONTINUOUS
 10
114.8801171559
 20
122.2718493321
 11
114.9085791507
 21
121.0288159362
  0
LINE
  8
0
 62
7
  6
CONTINUOUS
 10
126.9729822965
 20
266.6245096737
 11
126.7403119137
 21
265.4031143235
  0
LINE
  8
0
 62
7
  6
CONTINUOUS
 10
90.1492006484
 20
120.9080836612
 11
89.77250821
 21
119.7231596488
  0
LINE
  8
0
 62
7
  6
CONTINUOUS
 10
148.4580731911
 20
253.5127718054
 11
147.8414231095
 21
252.4331029741
  0
LINE
  8
0
 62
7
  6
CONTINUOUS
 10
66.3154594231
 20
127.6483260391
 11
65.5744330222
 21
126.6499163128
  0
LINE
  8
0
 62
7
  6
CONTINUOUS
 10
164.5216682726
 20
234.1352664516
 11
163.5878620969
 21
233.3143230098
  0
LINE
  8
0
 62
7
  6
CONTINUOUS
 10
45.9616491604
 20
141.7621666183
 11
44.9365905056
 21
141.0584643639
  0
LINE
  8
0
 62
7
  6
CONTINUOUS
 10
173.4230277615
 20
210.5918469903
 11
172.2732578803
 21
210.1185908982
  0
LINE
  8
0
 62
7
  6
CONTINUOUS
 10
23.216085341
 20
193.6168290496
 11
22.0041014297
 21
193.3392734562
  0
LINE
  8
QUILTS
 62
7
  6
CONTINUOUS
 10
42.6268820011
 20
195.7316482941
 11
43.0554000052
 21
195.822755078
  0
LINE
  8
QUILTS
 62
7
  6
CONTINUOUS
 10
43.7889502666
 20
198.9267770692
 11
43.3604322842
 21
198.8356703871
  0
LINE
  8
0
 62
7
  6
CONTINUOUS
 10
171.4756996676
 20
218.2816717292
 11
170.2392622339
 21
218.1506580623
  0
LINE
  8
QUILTS
 62
7
  6
CONTINUOUS
 10
41.7646343972
 20
202.3990622187
 11
42.3044507163
 21
202.4478727096
  0
LINE
  8
QUILTS
 62
7
  6
CONTINUOUS
 10
42.3581110402
 20
202.9659342154
 11
41.8182947825
 21
202.9171243173
  0
LINE
  8
QUILTS
 62
7
  6
CONTINUOUS
 10
44.7439197567
 20
210.8856258821
 11
44.3066124096
 21
210.9118987435
  0
LINE
  8
QUILTS
 62
7
  6
CONTINUOUS
 10
43.2070148939
 20
214.19619475
 11
43.644322241
 21
214.1699218886
  0
LINE
  8
0
 62
7
  6
CONTINUOUS
 10
26.6174559587
 20
218.1506580623
 11
25.381018525
 21
218.2816717292
  0
LINE
  8
QUILTS
 62
7
  6
CONTINUOUS
 10
44.1218666301
 20
210.314827561
 11
44.6608031025
 21
210.2571086132
  0
LINE
  8
QUILTS
 62
7
  6
CONTINUOUS
 10
43.8290680205
 20
214.766993071
 11
43.2901312634
 21
214.8247121069
  0
LINE
  8
0
 62
7
  6
CONTINUOUS
 10
174.8526167629
 20
193.3392734562
 11
173.6406328517
 21
193.6168290496
  0
LINE
  8
0
 62
7
  6
CONTINUOUS
 10
36.6737484174
 20
240.7761388768
 11
37.8006521924
 21
240.2507533133
  0
LINE
  8
QUILTS
 62
7
  6
CONTINUOUS
 10
56.3393545809
 20
231.8420867495
 11
56.7239028164
 21
231.6322035787
  0
LINE
  8
QUILTS
 62
7
  6
CONTINUOUS
 10
58.9874784127
 20
233.7971793009
 11
58.5243483051
 21
234.0787717245
  0
LINE
  8
0
 62
7
  6
CONTINUOUS
 10
169.9477796954
 20
168.6518399318
 11
168.8915865694
 21
169.3078873302
  0
LINE
  8
0
 62
7
  6
CONTINUOUS
 10
54.6585485984
 20
258.385050346
 11
55.5538012049
 21
257.5222265639
  0
LINE
  8
0
 62
7
  6
CONTINUOUS
 10
157.2927036679
 20
146.8946376435
 11
156.5067562407
 21
147.8580839317
  0
LINE
  8
QUILTS
 62
7
  6
CONTINUOUS
 10
73.6273420977
 20
247.460914255
 11
73.1914159192
 21
248.0735872249
  0
LINE
  8
0
 62
7
  6
CONTINUOUS
 10
77.3864869054
 20
269.2002073486
 11
77.9530738323
 21
268.0934456928
  0
LINE
  8
0
 62
7
  6
CONTINUOUS
 10
137.8282304023
 20
131.5918378801
 11
138.2587625316
 21
130.4253970569
  0
LINE
  8
0
 62
7
  6
CONTINUOUS
 10
102.3946385626
 20
272.0496198089
 11
102.5711613248
 21
270.818855078
  0
LINE
  8
QUILTS
 62
7
  6
CONTINUOUS
 10
124.035208566
 20
248.4691924238
 11
123.9964159356
 21
248.1357220237
  0
LINE
  8
QUILTS
 62
7
  6
CONTINUOUS
 10
124.564178735
 20
247.8744359668
 11
124.6029713655
 21
248.2079063669
  0
LINE
  8
QUILTS
 62
7
  6
CONTINUOUS
 10
127.324717307
 20
241.9478058827
 11
128.3636918845
 21
247.1148476091
  0
LINE
  8
QUILTS
 62
7
  6
CONTINUOUS
 10
127.0553476191
 20
243.5732943403
 11
126.7823869407
 21
242.2584548385
  0
LINE
  8
QUILTS
 62
7
  6
CONTINUOUS
 10
127.7906299017
 20
246.9527023301
 11
127.1764621131
 21
243.9943169092
  0
LINE
  8
QUILTS
 62
7
  6
CONTINUOUS
 10
128.9015600511
 20
242.5688183843
 11
128.7686545431
 21
242.0132366666
  0
LINE
  8
QUILTS
 62
7
  6
CONTINUOUS
 10
132.1977037403
 20
240.922474605
 11
132.3306092057
 21
241.4780562615
  0
LINE
  8
QUILTS
 62
7
  6
CONTINUOUS
 10
129.2929628398
 20
242.0371246766
 11
129.3898005573
 21
242.3585742564
  0
LINE
  8
QUILTS
 62
7
  6
CONTINUOUS
 10
131.8063009516
 20
241.4541683127
 11
131.709463149
 21
241.1327186106
  0
LINE
  8
QUILTS
 62
7
  6
CONTINUOUS
 10
133.1207207337
 20
242.6131132165
 11
133.2175584512
 21
242.9345627963
  0
LINE
  8
0
 62
7
  6
CONTINUOUS
 10
102.2920624015
 20
171.2715273032
 11
122.8489270386
 21
191.8283919403
  0
LINE
  8
QUILTS
 62
7
  6
CONTINUOUS
 10
41.8182947825
 20
202.9171243173
 11
41.4901121553
 21
202.8463930074
  0
LINE
  8
QUILTS
 62
7
  6
CONTINUOUS
 10
44.6608031025
 20
210.2571086132
 11
45.128901719
 21
210.3303483528
  0
LINE
  8
QUILTS
 62
7
  6
CONTINUOUS
 10
48.9606829458
 20
222.8402857809
 11
49.2918305641
 21
222.7850750099
  0
LINE
  8
QUILTS
 62
7
  6
CONTINUOUS
 10
49.4865012109
 20
223.3884369864
 11
49.1553535926
 21
223.4436477574
  0
LINE
  8
QUILTS
 62
7
  6
CONTINUOUS
 10
47.0741436658
 20
223.8241074103
 11
47.4052914161
 21
223.7688965704
  0
LINE
  8
QUILTS
 62
7
  6
CONTINUOUS
 10
47.5999617987
 20
224.3722586848
 11
47.2688143126
 21
224.4274693869
  0
LINE
  8
QUILTS
 62
7
  6
CONTINUOUS
 10
54.5403962488
 20
231.1592906544
 11
54.8565639338
 21
231.0463970351
  0
LINE
  8
QUILTS
 62
7
  6
CONTINUOUS
 10
55.1548523704
 20
231.6058309848
 11
54.8386846855
 21
231.7187246041
  0
LINE
  8
QUILTS
 62
7
  6
CONTINUOUS
 10
52.8575391201
 20
232.461184405
 11
53.1737069229
 21
232.3482906946
  0
LINE
  8
QUILTS
 62
7
  6
CONTINUOUS
 10
53.4719951238
 20
232.9077248266
 11
53.1558275567
 21
233.0206183547
  0
LINE
  8
QUILTS
 62
7
  6
CONTINUOUS
 10
58.4090296609
 20
233.4789162034
 11
58.714992769
 21
233.3407388007
  0
LINE
  8
QUILTS
 62
7
  6
CONTINUOUS
 10
59.2934415071
 20
233.6590019108
 11
58.9874784127
 21
233.7971793009
  0
LINE
  8
QUILTS
 62
7
  6
CONTINUOUS
 10
57.2670120348
 20
235.2260921431
 11
56.9610457538
 21
235.3642659858
  0
LINE
  8
QUILTS
 62
7
  6
CONTINUOUS
 10
70.1529176471
 20
246.0142868821
 11
70.5831247621
 21
245.6384429453
  0
LINE
  8
QUILTS
 62
7
  6
CONTINUOUS
 10
73.1914159192
 20
248.0735872249
 11
72.7612086667
 21
248.4494314261
  0
LINE
  8
QUILTS
 62
7
  6
CONTINUOUS
 10
71.2701351216
 20
244.3169986745
 11
71.50977268
 21
244.0818811068
  0
LINE
  8
QUILTS
 62
7
  6
CONTINUOUS
 10
70.8055966343
 20
246.1138081437
 11
70.5659591103
 21
246.3489256454
  0
LINE
  8
QUILTS
 62
7
  6
CONTINUOUS
 10
72.5387367946
 20
247.9740662277
 11
72.778374456
 21
247.7389484616
  0
LINE
  8
0
 62
7
  6
CONTINUOUS
 10
122.8489270386
 20
199.5557985506
 11
102.2920624015
 21
220.1126631878
  0
LINE
  8
QUILTS
 62
7
  6
CONTINUOUS
 10
129.2816129253
 20
241.6561670681
 11
129.2929628398
 21
242.0371246766
  0
LINE
  8
0
 62
7
  6
CONTINUOUS
 10
126.6331743652
 20
264.4148604504
 11
126.6427815576
 21
264.628339731
  0
LINE
  8
0
 62
7
  6
CONTINUOUS
 10
114.9114406934
 20
123.052109978
 11
114.9371020653
 21
123.2642589713
  0
LINE
  8
0
 62
7
  6
CONTINUOUS
 10
147.419205061
 20
251.5331829268
 11
147.4976083182
 21
251.7319758609
  0
LINE
  8
0
 62
7
  6
CONTINUOUS
 10
90.4321772078
 20
121.6358968972
 11
90.5253328413
 21
121.828218839
  0
LINE
  8
0
 62
7
  6
CONTINUOUS
 10
162.8963174251
 20
232.6002570892
 11
163.0350205378
 21
232.7628213778
  0
LINE
  8
0
 62
7
  6
CONTINUOUS
 10
66.8194241033
 20
128.2448220077
 11
66.9699791402
 21
128.3964758315
  0
LINE
  8
0
 62
7
  6
CONTINUOUS
 10
171.3873261809
 20
209.6677592267
 11
171.5712985146
 21
209.7764785066
  0
LINE
  8
0
 62
7
  6
CONTINUOUS
 10
46.6319895686
 20
142.1627057259
 11
46.8236290343
 21
142.2572573866
  0
LINE
  8
QUILTS
 62
7
  6
CONTINUOUS
 10
47.9272498303
 20
218.136236111
 11
42.9999615277
 21
217.3544053549
  0
LINE
  8
QUILTS
 62
7
  6
CONTINUOUS
 10
43.2901312634
 20
214.8247121069
 11
42.8220327181
 21
214.7514723453
  0
LINE
  8
QUILTS
 62
7
  6
CONTINUOUS
 10
43.4705522558
 20
216.8218417923
 11
48.4961609845
 21
217.5630468775
  0
LINE
  8
0
 62
7
  6
CONTINUOUS
 10
27.6111817924
 20
218.1254958009
 11
27.3976382961
 21
218.1174412006
  0
LINE
  8
0
 62
7
  6
CONTINUOUS
 10
169.4590798965
 20
218.1174412006
 11
169.2455364002
 21
218.1254958009
  0
LINE
  8
QUILTS
 62
7
  6
CONTINUOUS
 10
56.9963868668
 20
232.0886423052
 11
56.7690073065
 21
232.1551121534
  0
LINE
  8
QUILTS
 62
7
  6
CONTINUOUS
 10
58.714992769
 20
233.3407388007
 11
58.9423755572
 21
233.2742724622
  0
LINE
  8
QUILTS
 62
7
  6
CONTINUOUS
 10
56.6885633105
 20
234.9078290205
 11
56.9159428708
 21
234.8413591722
  0
LINE
  8
0
 62
7
  6
CONTINUOUS
 10
38.7323650465
 20
239.9042921619
 11
38.5277766014
 21
239.9660114419
  0
LINE
  8
0
 62
7
  6
CONTINUOUS
 10
172.8919374479
 20
193.8387367599
 11
172.6925796517
 21
193.9156923996
  0
LINE
  8
QUILTS
 62
7
  6
CONTINUOUS
 10
72.0643073399
 20
244.3701801024
 11
71.7322487485
 21
244.5572485708
  0
LINE
  8
0
 62
7
  6
CONTINUOUS
 10
56.3225355347
 20
256.8920109641
 11
56.1490724734
 21
257.0168158828
  0
LINE
  8
0
 62
7
  6
CONTINUOUS
 10
168.2555108634
 20
169.7608724689
 11
168.0919422779
 21
169.8983898104
  0
LINE
  8
0
 62
7
  6
CONTINUOUS
 10
78.475525345
 20
267.2477692837
 11
78.3519850816
 21
267.4221352916
  0
LINE
  8
0
 62
7
  6
CONTINUOUS
 10
156.0522289051
 20
148.4930585301
 11
155.9421747246
 21
148.6762354357
  0
LINE
  8
0
 62
7
  6
CONTINUOUS
 10
102.7907142923
 20
269.8493600205
 11
102.7304843314
 21
270.0543918551
  0
LINE
  8
0
 62
7
  6
CONTINUOUS
 10
137.6045065266
 20
132.339992588
 11
137.5598928291
 21
132.5489789976
  0
LINE
  8
QUILTS
 62
7
  6
CONTINUOUS
 10
128.7686545431
 20
242.0132366666
 11
128.7820225259
 21
241.4854536182
  0
LINE
  8
QUILTS
 62
7
  6
CONTINUOUS
 10
133.2175584512
 20
242.9345627963
 11
133.2041904471
 21
243.4623458141
  0
LINE
  8
QUILTS
 62
7
  6
CONTINUOUS
 10
132.704600069
 20
243.2916323948
 11
132.6932501971
 21
242.9106748475
  0
LINE
  8
QUILTS
 62
7
  6
CONTINUOUS
 10
49.1553535926
 20
223.4436477574
 11
48.6335469907
 21
223.3633266048
  0
LINE
  8
QUILTS
 62
7
  6
CONTINUOUS
 10
47.2688143126
 20
224.4274693869
 11
46.7470077106
 21
224.3471482342
  0
LINE
  8
QUILTS
 62
7
  6
CONTINUOUS
 10
56.7239028164
 20
231.6322035787
 11
57.170294233
 21
231.6479200689
  0
LINE
  8
QUILTS
 62
7
  6
CONTINUOUS
 10
54.8386846855
 20
231.7187246041
 11
54.3108976662
 21
231.7319336821
  0
LINE
  8
QUILTS
 62
7
  6
CONTINUOUS
 10
53.1558275567
 20
233.0206183547
 11
52.6280405375
 21
233.0338274327
  0
LINE
  8
QUILTS
 62
7
  6
CONTINUOUS
 10
71.50977268
 20
244.0818811068
 11
71.9833286816
 21
243.8484751034
  0
LINE
  8
QUILTS
 62
7
  6
CONTINUOUS
 10
70.5831247621
 20
245.6384429453
 11
71.0566807466
 21
245.405036975
  0
LINE
  8
QUILTS
 62
7
  6
CONTINUOUS
 10
72.7612086667
 20
248.4494314261
 11
72.2876526822
 21
248.6828373964
  0
LINE
  8
QUILTS
 62
7
  6
CONTINUOUS
 10
71.1376594221
 20
245.926741941
 11
70.8055966343
 21
246.1138081437
  0
LINE
  8
QUILTS
 62
7
  6
CONTINUOUS
 10
72.2066740068
 20
248.1611324304
 11
72.5387367946
 21
247.9740662277
  0
LINE
  8
QUILTS
 62
7
  6
CONTINUOUS
 10
124.6029713655
 20
248.2079063669
 11
124.4969868343
 21
248.7251112552
  0
LINE
  8
QUILTS
 62
7
  6
CONTINUOUS
 10
123.1845167288
 20
246.8698532534
 11
123.696450801
 21
246.9855826148
  0
LINE
  8
QUILTS
 62
7
  6
CONTINUOUS
 10
129.8399630956
 20
242.8229332907
 11
130.1325022075
 21
242.8785360166
  0
LINE
  8
QUILTS
 62
7
  6
CONTINUOUS
 10
54.2446339521
 20
231.1247008827
 11
54.5403962488
 21
231.1592906544
  0
LINE
  8
QUILTS
 62
7
  6
CONTINUOUS
 10
52.5617768233
 20
232.4265946334
 11
52.8575391201
 21
232.461184405
  0
LINE
  8
QUILTS
 62
7
  6
CONTINUOUS
 10
56.9610457538
 20
235.3642659858
 11
56.6634536464
 21
235.3537906488
  0
LINE
  8
QUILTS
 62
7
  6
CONTINUOUS
 10
123.9349056216
 20
248.7495673771
 11
124.035208566
 21
248.4691924238
  0
LINE
  8
QUILTS
 62
7
  6
CONTINUOUS
 10
131.7568730268
 20
241.7478138053
 11
131.8063009516
 21
241.4541683127
  0
LINE
  8
QUILTS
 62
7
  6
CONTINUOUS
 10
132.3306092057
 20
241.4780562615
 11
132.2564634048
 21
241.9185272247
  0
LINE
  8
QUILTS
 62
7
  6
CONTINUOUS
 10
52.6280405375
 20
233.0338274327
 11
52.1206587886
 21
232.899553211
  0
LINE
  8
QUILTS
 62
7
  6
CONTINUOUS
 10
56.6634536464
 20
235.3537906488
 11
56.2956457777
 21
235.2663666042
  0
LINE
  8
QUILTS
 62
7
  6
CONTINUOUS
 10
72.7660584908
 20
244.375312497
 11
72.4397189972
 21
244.3255518662
  0
LINE
  8
QUILTS
 62
7
  6
CONTINUOUS
 10
130.9059837446
 20
240.5254448569
 11
130.52794896
 21
240.5293555468
  0
LINE
  8
QUILTS
 62
7
  6
CONTINUOUS
 10
130.1325022075
 20
242.8785360166
 11
130.5105369921
 21
242.8746253267
  0
LINE
  8
QUILTS
 62
7
  6
CONTINUOUS
 10
130.7289303031
 20
243.3706990158
 11
129.9728607339
 21
243.3785203957
  0
LINE
  8
QUILTS
 62
7
  6
CONTINUOUS
 10
131.1657249224
 20
244.3628411902
 11
131.543759707
 21
244.3589305002
  0
LINE
  8
QUILTS
 62
7
  6
CONTINUOUS
 10
130.3095477846
 20
240.0332872526
 11
130.9193517274
 21
239.9976618085
  0
LINE
  8
QUILTS
 62
7
  6
CONTINUOUS
 10
131.762153018
 20
244.8550041894
 11
131.1523569183
 21
244.890624208
  0
LINE
  8
QUILTS
 62
7
  6
CONTINUOUS
 10
71.9833286816
 20
243.8484751034
 11
72.5926588123
 21
243.8055583737
  0
LINE
  8
QUILTS
 62
7
  6
CONTINUOUS
 10
71.0566807466
 20
245.405036975
 11
71.6660108644
 21
245.3621202701
  0
LINE
  8
QUILTS
 62
7
  6
CONTINUOUS
 10
72.2876526822
 20
248.6828373964
 11
71.6783267952
 21
248.7257563008
  0
LINE
  8
QUILTS
 62
7
  6
CONTINUOUS
 10
72.4397189972
 20
244.3255518662
 11
72.0643073399
 21
244.3701801024
  0
LINE
  8
QUILTS
 62
7
  6
CONTINUOUS
 10
71.5130710793
 20
245.8821137047
 11
71.1376594221
 21
245.926741941
  0
LINE
  8
QUILTS
 62
7
  6
CONTINUOUS
 10
71.8312623495
 20
248.2057606666
 11
72.2066740068
 21
248.1611324304
  0
LINE
  8
QUILTS
 62
7
  6
CONTINUOUS
 10
130.52794896
 20
240.5293555468
 11
130.2106919722
 21
240.6205782914
  0
LINE
  8
QUILTS
 62
7
  6
CONTINUOUS
 10
124.4969868343
 20
248.7251112552
 11
124.251898065
 21
249.1892246838
  0
LINE
  8
QUILTS
 62
7
  6
CONTINUOUS
 10
128.7820225259
 20
241.4854536182
 11
129.0271518292
 21
240.9259612488
  0
LINE
  8
QUILTS
 62
7
  6
CONTINUOUS
 10
132.2564634048
 20
241.9185272247
 11
132.0113262585
 21
242.4780250196
  0
LINE
  8
QUILTS
 62
7
  6
CONTINUOUS
 10
133.2041904471
 20
243.4623458141
 11
132.9590611279
 21
244.0218381606
  0
LINE
  8
QUILTS
 62
7
  6
CONTINUOUS
 10
129.4165365229
 20
241.3030081596
 11
129.2816129253
 21
241.6561670681
  0
LINE
  8
QUILTS
 62
7
  6
CONTINUOUS
 10
131.6219494292
 20
242.1009727139
 11
131.7568730268
 21
241.7478138053
  0
LINE
  8
QUILTS
 62
7
  6
CONTINUOUS
 10
132.5696764714
 20
243.6447913033
 11
132.704600069
 21
243.2916323948
  0
LINE
  8
QUILTS
 62
7
  6
CONTINUOUS
 10
71.8394105729
 20
245.9318743355
 11
71.5130710793
 21
245.8821137047
  0
LINE
  8
QUILTS
 62
7
  6
CONTINUOUS
 10
71.5049228559
 20
248.1560000358
 11
71.8312623495
 21
248.2057606666
  0
LINE
  8
QUILTS
 62
7
  6
CONTINUOUS
 10
123.356740674
 20
247.4932410615
 11
123.0283850571
 21
247.527243625
  0
LINE
  8
QUILTS
 62
7
  6
CONTINUOUS
 10
122.6669097332
 20
246.9909498402
 11
123.1845167288
 21
246.8698532534
  0
LINE
  8
QUILTS
 62
7
  6
CONTINUOUS
 10
130.5105369921
 20
242.8746253267
 11
130.8277939799
 21
242.7834025821
  0
LINE
  8
QUILTS
 62
7
  6
CONTINUOUS
 10
131.543759707
 20
244.3589305002
 11
131.8610166949
 21
244.2677077556
  0
LINE
  8
QUILTS
 62
7
  6
CONTINUOUS
 10
129.8213072731
 20
240.2435313729
 11
130.3095477846
 21
240.0332872526
  0
LINE
  8
QUILTS
 62
7
  6
CONTINUOUS
 10
131.2171786364
 20
243.1604494394
 11
130.7289303031
 21
243.3706990158
  0
LINE
  8
QUILTS
 62
7
  6
CONTINUOUS
 10
132.2504013514
 20
244.644754613
 11
131.762153018
 21
244.8550041894
  0
LINE
  8
QUILTS
 62
7
  6
CONTINUOUS
 10
119.4618998505
 20
246.0066440325
 11
120.02966265
 21
245.7453579756
  0
LINE
  8
QUILTS
 62
7
  6
CONTINUOUS
 10
120.9636213348
 20
247.774808011
 11
122.6669097332
 21
246.9909498402
  0
LINE
  8
QUILTS
 62
7
  6
CONTINUOUS
 10
123.0283850571
 20
247.527243625
 11
121.2304666377
 21
248.3546508009
  0
LINE
  8
QUILTS
 62
7
  6
CONTINUOUS
 10
121.8975800196
 20
249.8042580464
 11
123.695498439
 21
248.9768508705
  0
LINE
  8
QUILTS
 62
7
  6
CONTINUOUS
 10
123.7091787729
 20
244.0188005013
 11
124.2515091392
 21
243.7081515455
  0
LINE
  8
QUILTS
 62
7
  6
CONTINUOUS
 10
126.7823869407
 20
242.2584548385
 11
127.324717307
 21
241.9478058827
  0
LINE
  8
QUILTS
 62
7
  6
CONTINUOUS
 10
125.2475824897
 20
244.6087892795
 11
127.0553476191
 21
243.5732943403
  0
LINE
  8
QUILTS
 62
7
  6
CONTINUOUS
 10
127.1764621131
 20
243.9943169092
 11
125.549471014
 21
244.9262637765
  0
LINE
  8
QUILTS
 62
7
  6
CONTINUOUS
 10
129.3938445637
 20
240.5410875555
 11
129.8213072731
 21
240.2435313729
  0
LINE
  8
QUILTS
 62
7
  6
CONTINUOUS
 10
130.2106919722
 20
240.6205782914
 11
129.6122379172
 21
241.0371613058
  0
LINE
  8
QUILTS
 62
7
  6
CONTINUOUS
 10
130.8277939799
 20
242.7834025821
 11
131.4262480348
 21
242.3668195677
  0
LINE
  8
QUILTS
 62
7
  6
CONTINUOUS
 10
131.6446413458
 20
242.8628932569
 11
131.2171786364
 21
243.1604494394
  0
LINE
  8
QUILTS
 62
7
  6
CONTINUOUS
 10
132.6932501971
 20
242.9106748475
 11
133.1207207337
 21
242.6131132165
  0
LINE
  8
QUILTS
 62
7
  6
CONTINUOUS
 10
131.8610166949
 20
244.2677077556
 11
132.3739750771
 21
243.9106381572
  0
LINE
  8
QUILTS
 62
7
  6
CONTINUOUS
 10
124.251898065
 20
249.1892246838
 11
123.8232395037
 21
249.5036022006
  0
LINE
  8
QUILTS
 62
7
  6
CONTINUOUS
 10
123.695498439
 20
248.9768508705
 11
123.9349056216
 21
248.7495673771
  0
LINE
  8
QUILTS
 62
7
  6
CONTINUOUS
 10
129.0271518292
 20
240.9259612488
 11
129.3938445637
 21
240.5410875555
  0
LINE
  8
QUILTS
 62
7
  6
CONTINUOUS
 10
132.0113262585
 20
242.4780250196
 11
131.6446413458
 21
242.8628932569
  0
LINE
  8
QUILTS
 62
7
  6
CONTINUOUS
 10
132.9590611279
 20
244.0218381606
 11
132.5923683881
 21
244.4067118463
  0
LINE
  8
QUILTS
 62
7
  6
CONTINUOUS
 10
129.6122379172
 20
241.0371613058
 11
129.4165365229
 21
241.3030081596
  0
LINE
  8
QUILTS
 62
7
  6
CONTINUOUS
 10
131.4262480348
 20
242.3668195677
 11
131.6219494292
 21
242.1009727139
  0
LINE
  8
QUILTS
 62
7
  6
CONTINUOUS
 10
132.3739750771
 20
243.9106381572
 11
132.5696764714
 21
243.6447913033
  0
LINE
  8
QUILTS
 62
7
  6
CONTINUOUS
 10
123.8232395037
 20
249.5036022006
 11
121.5521883059
 21
250.5487464282
  0
LINE
  8
QUILTS
 62
7
  6
CONTINUOUS
 10
128.3636918845
 20
247.1148476091
 11
127.6405874878
 21
247.5290446367
  0
LINE
  8
QUILTS
 62
7
  6
CONTINUOUS
 10
132.5923683881
 20
244.4067118463
 11
132.2504013514
 21
244.644754613
  0
LINE
  8
0
 62
7
  6
CONTINUOUS
 10
174.9435848342
 20
186.1332077434
 11
175.4733580573
 21
192.5266197505
  0
LINE
  8
0
 62
7
  6
CONTINUOUS
 10
167.6940131537
 20
161.8066814514
 11
170.2710192874
 21
167.6816636766
  0
LINE
  8
0
 62
7
  6
CONTINUOUS
 10
152.9384330888
 20
141.1521655303
 11
157.2834135321
 21
145.8720724899
  0
LINE
  8
0
 62
7
  6
CONTINUOUS
 10
132.2758406958
 20
126.4078972681
 11
137.9179493984
 21
129.461253806
  0
LINE
  8
0
 62
7
  6
CONTINUOUS
 10
101.6360208911
 20
272.7353493681
 11
95.2206973015
 21
272.7353493681
  0
LINE
  8
0
 62
7
  6
CONTINUOUS
 10
126.4781246468
 20
267.5194072692
 11
120.4104009847
 21
269.6024594336
  0
LINE
  8
0
 62
7
  6
CONTINUOUS
 10
148.2806010682
 20
254.519861397
 11
143.2180093427
 21
258.4602347018
  0
LINE
  8
0
 62
7
  6
CONTINUOUS
 10
164.6808135346
 20
235.1454142554
 11
161.1719641135
 21
240.5161081118
  0
LINE
  8
0
 62
7
  6
CONTINUOUS
 10
173.9015445499
 20
211.4955878177
 11
172.3266757134
 21
217.7146042116
  0
LINE
  8
0
 62
7
  6
CONTINUOUS
 10
22.9381931426
 20
64.0942443434
 11
22.9465889376
 21
64.002992053
  0
POLYLINE
  8
0
 62
7
  6
CONTINUOUS
 66
1
 70
0
  0
VERTEX
  8
0
 62
7
  6
CONTINUOUS
 10
21.3826878786
 20
64.0947764545
  0
VERTEX
  8
0
 62
7
  6
CONTINUOUS
 10
21.3827716564
 20
64.0856239075
  0
VERTEX
  8
0
 62
7
  6
CONTINUOUS
 10
21.3872404349
 20
64.027457383
  0
VERTEX
  8
0
 62
7
  6
CONTINUOUS
 10
21.3982621029
 20
63.9709548505
  0
VERTEX
  8
0
 62
7
  6
CONTINUOUS
 10
21.415383654
 20
63.9169365207
  0
VERTEX
  8
0
 62
7
  6
CONTINUOUS
 10
21.4380343258
 20
63.8661201198
  0
VERTEX
  8
0
 62
7
  6
CONTINUOUS
 10
21.4655481437
 20
63.8191041354
  0
VERTEX
  8
0
 62
7
  6
CONTINUOUS
 10
21.4971885447
 20
63.7763562864
  0
VERTEX
  8
0
 62
7
  6
CONTINUOUS
 10
21.5321738613
 20
63.7382073861
  0
VERTEX
  8
0
 62
7
  6
CONTINUOUS
 10
21.5697018552
 20
63.7048509833
  0
VERTEX
  8
0
 62
7
  6
CONTINUOUS
 10
21.6089741815
 20
63.6763464794
  0
VERTEX
  8
0
 62
7
  6
CONTINUOUS
 10
21.6492175074
 20
63.6526278539
  0
VERTEX
  8
0
 62
7
  6
CONTINUOUS
 10
21.6896994379
 20
63.6335165601
  0
VERTEX
  8
0
 62
7
  6
CONTINUOUS
 10
21.7297324802
 20
63.6187383798
  0
VERTEX
  8
0
 62
7
  6
CONTINUOUS
 10
21.7686461106
 20
63.6079429464
  0
VERTEX
  8
0
 62
7
  6
CONTINUOUS
 10
21.8037433367
 20
63.6010222534
  0
VERTEX
  8
0
 62
7
  6
CONTINUOUS
 10
21.8269893771
 20
63.5978192611
  0
VERTEX
  8
0
 62
7
  6
CONTINUOUS
 10
21.840139702
 20
63.5963958053
  0
VERTEX
  8
0
 62
7
  6
CONTINUOUS
 10
21.8547316943
 20
63.5949550726
  0
VERTEX
  8
0
 62
7
  6
CONTINUOUS
 10
21.8983793121
 20
63.5908711868
  0
SEQEND
  0
LINE
  8
2_FEATURE
 62
7
  6
CONTINUOUS
 10
21.3826857633
 20
70.6765611624
 11
21.3826857633
 21
64.0946932966
  0
LINE
  8
2_FEATURE
 62
7
  6
CONTINUOUS
 10
22.9381920367
 20
70.677030187
 11
22.9381920367
 21
64.094224272
  0
POLYLINE
  8
0
 62
7
  6
CONTINUOUS
 66
1
 70
0
  0
VERTEX
  8
0
 62
7
  6
CONTINUOUS
 10
22.9465889376
 20
64.002992053
  0
VERTEX
  8
0
 62
7
  6
CONTINUOUS
 10
22.9729824753
 20
63.910978756
  0
VERTEX
  8
0
 62
7
  6
CONTINUOUS
 10
23.0146808258
 20
63.8284354674
  0
VERTEX
  8
0
 62
7
  6
CONTINUOUS
 10
23.0684545414
 20
63.757605933
  0
VERTEX
  8
0
 62
7
  6
CONTINUOUS
 10
23.1308430092
 20
63.6997946038
  0
VERTEX
  8
0
 62
7
  6
CONTINUOUS
 10
23.1983936674
 20
63.6553963669
  0
VERTEX
  8
0
 62
7
  6
CONTINUOUS
 10
23.2672053462
 20
63.6242183586
  0
VERTEX
  8
0
 62
7
  6
CONTINUOUS
 10
23.3295067324
 20
63.6058591777
  0
SEQEND
  0
POLYLINE
  8
0
 62
7
  6
CONTINUOUS
 66
1
 70
0
  0
VERTEX
  8
0
 62
7
  6
CONTINUOUS
 10
32.0632604114
 20
64.091119552
  0
VERTEX
  8
0
 62
7
  6
CONTINUOUS
 10
32.0640791108
 20
64.062500516
  0
VERTEX
  8
0
 62
7
  6
CONTINUOUS
 10
32.0883241669
 20
63.9346994851
  0
VERTEX
  8
0
 62
7
  6
CONTINUOUS
 10
32.1426952957
 20
63.8205010263
  0
VERTEX
  8
0
 62
7
  6
CONTINUOUS
 10
32.2200277018
 20
63.7271943928
  0
VERTEX
  8
0
 62
7
  6
CONTINUOUS
 10
32.3104420008
 20
63.6591635901
  0
VERTEX
  8
0
 62
7
  6
CONTINUOUS
 10
32.4028962492
 20
63.616426189
  0
VERTEX
  8
0
 62
7
  6
CONTINUOUS
 10
32.4820540429
 20
63.5951387792
  0
SEQEND
  0
LINE
  8
2_FEATURE
 62
7
  6
CONTINUOUS
 10
32.0632599109
 20
70.6802293308
 11
32.0632599109
 21
64.0910251282
  0
LINE
  8
1_AXIS
 62
7
  6
CONTINUOUS
 10
35.9283590963
 20
77.8856272295
 11
35.9283590963
 21
72.3856272295
  0
LINE
  8
1_AXIS
 62
7
  6
CONTINUOUS
 10
35.9283590963
 20
62.3856272295
 11
35.9283590963
 21
56.8856272295
  0
POLYLINE
  8
0
 62
7
  6
CONTINUOUS
 66
1
 70
0
  0
VERTEX
  8
0
 62
7
  6
CONTINUOUS
 10
48.2933252104
 20
64.0855463871
  0
VERTEX
  8
0
 62
7
  6
CONTINUOUS
 10
48.2967105611
 20
64.0273843394
  0
VERTEX
  8
0
 62
7
  6
CONTINUOUS
 10
48.3342978561
 20
63.8870273271
  0
VERTEX
  8
0
 62
7
  6
CONTINUOUS
 10
48.4057728194
 20
63.769066347
  0
VERTEX
  8
0
 62
7
  6
CONTINUOUS
 10
48.5001624725
 20
63.6795235679
  0
VERTEX
  8
0
 62
7
  6
CONTINUOUS
 10
48.6044632851
 20
63.6207489633
  0
VERTEX
  8
0
 62
7
  6
CONTINUOUS
 10
48.7012708856
 20
63.5899648823
  0
VERTEX
  8
0
 62
7
  6
CONTINUOUS
 10
48.7475876191
 20
63.5807247169
  0
SEQEND
  0
LINE
  8
2_FEATURE
 62
7
  6
CONTINUOUS
 10
48.2933236292
 20
70.6857797062
 11
48.2933236292
 21
64.0854747528
  0
POLYLINE
  8
0
 62
7
  6
CONTINUOUS
 66
1
 70
0
  0
VERTEX
  8
0
 62
7
  6
CONTINUOUS
 10
69.8696047069
 20
64.078146028
  0
VERTEX
  8
0
 62
7
  6
CONTINUOUS
 10
69.8775104448
 20
63.9894034714
  0
VERTEX
  8
0
 62
7
  6
CONTINUOUS
 10
69.9320498307
 20
63.8356239214
  0
VERTEX
  8
0
 62
7
  6
CONTINUOUS
 10
70.0248998082
 20
63.7148835536
  0
VERTEX
  8
0
 62
7
  6
CONTINUOUS
 10
70.1361344788
 20
63.6340334419
  0
VERTEX
  8
0
 62
7
  6
CONTINUOUS
 10
70.1662369611
 20
63.6190311673
  0
SEQEND
  0
LINE
  8
2_FEATURE
 62
7
  6
CONTINUOUS
 10
69.8696039522
 20
70.6931167319
 11
69.8696039522
 21
64.078137727
  0
POLYLINE
  8
0
 62
7
  6
CONTINUOUS
 66
1
 70
0
  0
VERTEX
  8
0
 62
7
  6
CONTINUOUS
 10
23.3274662526
 20
71.1649264248
  0
VERTEX
  8
0
 62
7
  6
CONTINUOUS
 10
23.2608517029
 20
71.1446661101
  0
VERTEX
  8
0
 62
7
  6
CONTINUOUS
 10
23.1889775978
 20
71.1105728563
  0
VERTEX
  8
0
 62
7
  6
CONTINUOUS
 10
23.1182419511
 20
71.0613026394
  0
VERTEX
  8
0
 62
7
  6
CONTINUOUS
 10
23.0503105836
 20
70.9925631968
  0
VERTEX
  8
0
 62
7
  6
CONTINUOUS
 10
22.9925761947
 20
70.9038078565
  0
VERTEX
  8
0
 62
7
  6
CONTINUOUS
 10
22.9532510482
 20
70.7988058534
  0
VERTEX
  8
0
 62
7
  6
CONTINUOUS
 10
22.9381931426
 20
70.6770101084
  0
SEQEND
  0
LINE
  8
0
 62
7
  6
CONTINUOUS
 10
70.4476391671
 20
71.303390491
 11
70.3913381973
 21
71.2555834184
  0
LINE
  8
0
 62
7
  6
CONTINUOUS
 10
70.3915371028
 20
63.5155797352
 11
70.4462403018
 21
63.4687807242
  0
POLYLINE
  8
0
 62
7
  6
CONTINUOUS
 66
1
 70
0
  0
VERTEX
  8
0
 62
7
  6
CONTINUOUS
 10
70.1661618811
 20
71.1521888035
  0
VERTEX
  8
0
 62
7
  6
CONTINUOUS
 10
70.1403900572
 20
71.1394897109
  0
VERTEX
  8
0
 62
7
  6
CONTINUOUS
 10
70.0277382878
 20
71.0590687142
  0
VERTEX
  8
0
 62
7
  6
CONTINUOUS
 10
69.9334285147
 20
70.9381147208
  0
VERTEX
  8
0
 62
7
  6
CONTINUOUS
 10
69.877789901
 20
70.7833932214
  0
VERTEX
  8
0
 62
7
  6
CONTINUOUS
 10
69.8696047071
 20
70.6931083958
  0
SEQEND
  0
LINE
  8
0
 62
7
  6
CONTINUOUS
 10
70.3989871174
 20
71.259094782
 11
70.1662145891
 21
71.1522146629
  0
POLYLINE
  8
0
 62
7
  6
CONTINUOUS
 66
1
 70
0
  0
VERTEX
  8
0
 62
7
  6
CONTINUOUS
 10
164.3344229957
 20
63.588015583
  0
VERTEX
  8
0
 62
7
  6
CONTINUOUS
 10
164.3987423915
 20
63.6004099778
  0
VERTEX
  8
0
 62
7
  6
CONTINUOUS
 10
164.4803229271
 20
63.6264509215
  0
VERTEX
  8
0
 62
7
  6
CONTINUOUS
 10
164.5689563617
 20
63.6733560532
  0
VERTEX
  8
0
 62
7
  6
CONTINUOUS
 10
164.6122978445
 20
63.7055720788
  0
VERTEX
  8
0
 62
7
  6
CONTINUOUS
 10
164.690969089
 20
63.787588642
  0
VERTEX
  8
0
 62
7
  6
CONTINUOUS
 10
164.751201383
 20
63.8898132126
  0
VERTEX
  8
0
 62
7
  6
CONTINUOUS
 10
164.7863592385
 20
64.0071251893
  0
VERTEX
  8
0
 62
7
  6
CONTINUOUS
 10
164.7934558139
 20
64.0911194558
  0
SEQEND
  0
POLYLINE
  8
0
 62
7
  6
CONTINUOUS
 66
1
 70
0
  0
VERTEX
  8
0
 62
7
  6
CONTINUOUS
 10
23.3295067324
 20
63.6058591777
  0
VERTEX
  8
0
 62
7
  6
CONTINUOUS
 10
23.3747278857
 20
63.5974437471
  0
VERTEX
  8
0
 62
7
  6
CONTINUOUS
 10
23.4144505936
 20
63.5922070907
  0
VERTEX
  8
0
 62
7
  6
CONTINUOUS
 10
23.4662193466
 20
63.5864772568
  0
SEQEND
  0
LINE
  8
0
 62
7
  6
CONTINUOUS
 10
70.1662145875
 20
63.6190397968
 11
70.3989871174
 21
63.512159677
  0
LINE
  8
0
 62
7
  6
CONTINUOUS
 10
70.3991661932
 20
63.5120774809
 11
70.4036640911
 21
63.5099255411
  0
LINE
  8
0
 62
7
  6
CONTINUOUS
 10
70.6080408063
 20
71.3722167796
 11
70.4476391671
 21
71.303390491
  0
LINE
  8
0
 62
7
  6
CONTINUOUS
 10
126.4560275863
 20
63.5116794361
 11
126.4575557707
 21
63.5120792266
  0
LINE
  8
0
 62
7
  6
CONTINUOUS
 10
147.1416068865
 20
63.4064838964
 11
147.1417266852
 21
63.4065098725
  0
POLYLINE
  8
0
 62
7
  6
CONTINUOUS
 66
1
 70
0
  0
VERTEX
  8
0
 62
7
  6
CONTINUOUS
 10
147.1417266852
 20
63.4065098725
  0
VERTEX
  8
0
 62
7
  6
CONTINUOUS
 10
147.2320357997
 20
63.425389174
  0
VERTEX
  8
0
 62
7
  6
CONTINUOUS
 10
147.3711343581
 20
63.452205753
  0
SEQEND
  0
POLYLINE
  8
0
 62
7
  6
CONTINUOUS
 66
1
 70
0
  0
VERTEX
  8
0
 62
7
  6
CONTINUOUS
 10
148.1091872464
 20
63.5807345943
  0
VERTEX
  8
0
 62
7
  6
CONTINUOUS
 10
148.1530692769
 20
63.5894222634
  0
VERTEX
  8
0
 62
7
  6
CONTINUOUS
 10
148.2498042951
 20
63.6197253748
  0
VERTEX
  8
0
 62
7
  6
CONTINUOUS
 10
148.3546982293
 20
63.6781762193
  0
VERTEX
  8
0
 62
7
  6
CONTINUOUS
 10
148.4498040769
 20
63.767669268
  0
VERTEX
  8
0
 62
7
  6
CONTINUOUS
 10
148.5219176778
 20
63.8858663176
  0
VERTEX
  8
0
 62
7
  6
CONTINUOUS
 10
148.5599308962
 20
64.0267212489
  0
VERTEX
  8
0
 62
7
  6
CONTINUOUS
 10
148.5633945498
 20
64.0855501094
  0
SEQEND
  0
LINE
  8
0
 62
7
  6
CONTINUOUS
 10
147.0883670557
 20
63.3965211759
 11
147.1416068596
 21
63.40648402
  0
LINE
  8
0
 62
7
  6
CONTINUOUS
 10
147.3711343581
 20
63.452205753
 11
147.4925626843
 21
63.4739053246
  0
LINE
  8
0
 62
7
  6
CONTINUOUS
 10
147.4925766186
 20
63.4739077386
 11
148.1092758245
 21
63.5807494672
  0
LINE
  8
0
 62
7
  6
CONTINUOUS
 10
164.2621257916
 20
63.5782505595
 11
164.3344229957
 21
63.588015583
  0
LINE
  8
0
 62
7
  6
CONTINUOUS
 10
162.7225379551
 20
63.3990285139
 11
163.1252395735
 21
63.4478704944
  0
LINE
  8
0
 62
7
  6
CONTINUOUS
 10
163.1252395735
 20
63.4478704944
 11
164.2621257916
 21
63.5782505595
  0
POLYLINE
  8
0
 62
7
  6
CONTINUOUS
 66
1
 70
0
  0
VERTEX
  8
0
 62
7
  6
CONTINUOUS
 10
173.3901266081
 20
63.5864383142
  0
VERTEX
  8
0
 62
7
  6
CONTINUOUS
 10
173.4429272621
 20
63.5922856196
  0
VERTEX
  8
0
 62
7
  6
CONTINUOUS
 10
173.4825646301
 20
63.5975301485
  0
VERTEX
  8
0
 62
7
  6
CONTINUOUS
 10
173.5292800573
 20
63.6063347375
  0
SEQEND
  0
LINE
  8
0
 62
7
  6
CONTINUOUS
 10
162.6700460599
 20
63.3932451058
 11
162.7225315879
 21
63.3990278317
  0
POLYLINE
  8
0
 62
7
  6
CONTINUOUS
 66
1
 70
0
  0
VERTEX
  8
0
 62
7
  6
CONTINUOUS
 10
175.0103538104
 20
63.5957711763
  0
VERTEX
  8
0
 62
7
  6
CONTINUOUS
 10
175.0243805143
 20
63.5972167322
  0
VERTEX
  8
0
 62
7
  6
CONTINUOUS
 10
175.0436043738
 20
63.5996057234
  0
VERTEX
  8
0
 62
7
  6
CONTINUOUS
 10
175.0816228477
 20
63.6064759906
  0
VERTEX
  8
0
 62
7
  6
CONTINUOUS
 10
175.124313448
 20
63.6178882892
  0
VERTEX
  8
0
 62
7
  6
CONTINUOUS
 10
175.1463504863
 20
63.6254030171
  0
VERTEX
  8
0
 62
7
  6
CONTINUOUS
 10
175.1910666938
 20
63.6443337737
  0
VERTEX
  8
0
 62
7
  6
CONTINUOUS
 10
175.2358989494
 20
63.6688343673
  0
VERTEX
  8
0
 62
7
  6
CONTINUOUS
 10
175.2805287043
 20
63.6997329753
  0
VERTEX
  8
0
 62
7
  6
CONTINUOUS
 10
175.3242650358
 20
63.7379358824
  0
VERTEX
  8
0
 62
7
  6
CONTINUOUS
 10
175.3656162074
 20
63.7838759882
  0
VERTEX
  8
0
 62
7
  6
CONTINUOUS
 10
175.4027903068
 20
63.8375554462
  0
VERTEX
  8
0
 62
7
  6
CONTINUOUS
 10
175.4340188551
 20
63.8987978537
  0
VERTEX
  8
0
 62
7
  6
CONTINUOUS
 10
175.4574592757
 20
63.9671325805
  0
VERTEX
  8
0
 62
7
  6
CONTINUOUS
 10
175.4711978454
 20
64.0416669603
  0
VERTEX
  8
0
 62
7
  6
CONTINUOUS
 10
175.4740263926
 20
64.0947760669
  0
SEQEND
  0
LINE
  8
0
 62
7
  6
CONTINUOUS
 10
173.3208445771
 20
63.5795096037
 11
173.3901266081
 21
63.5864383142
  0
LINE
  8
0
 62
7
  6
CONTINUOUS
 10
174.9684528398
 20
63.591802949
 11
175.0103538104
 21
63.5957711763
  0
LINE
  8
0
 62
7
  6
CONTINUOUS
 10
171.371913631
 20
63.3974055176
 11
173.3208445771
 21
63.5795096037
  0
LINE
  8
0
 62
7
  6
CONTINUOUS
 10
174.7849172602
 20
63.5753386825
 11
174.9684528398
 21
63.591802949
  0
LINE
  8
0
 62
7
  6
CONTINUOUS
 10
173.5725701663
 20
63.4684757851
 11
172.7635001639
 21
63.3970431352
  0
LINE
  8
0
 62
7
  6
CONTINUOUS
 10
174.7845492755
 20
63.575309003
 11
173.5725701663
 21
63.4684757851
  0
LINE
  8
0
 62
7
  6
CONTINUOUS
 10
171.3128344035
 20
63.3924382601
 11
171.371913418
 21
63.3974056079
  0
LINE
  8
1_AXIS
 62
7
  6
CONTINUOUS
 10
158.9283590963
 20
54.8856272295
 11
37.9284187686
 21
54.8856272295
  0
LINE
  8
0
 62
7
  6
CONTINUOUS
 10
25.4848046037
 20
63.3974056243
 11
25.5372462461
 21
63.3929290014
  0
LINE
  8
0
 62
7
  6
CONTINUOUS
 10
21.8983793121
 20
63.5908711868
 11
24.0932180287
 21
63.3970431352
  0
LINE
  8
0
 62
7
  6
CONTINUOUS
 10
23.5337321428
 20
63.5797159776
 11
25.4848045433
 21
63.3974055215
  0
LINE
  8
0
 62
7
  6
CONTINUOUS
 10
23.4662193466
 20
63.5864772568
 11
23.5337321428
 21
63.5797159776
  0
LINE
  8
0
 62
7
  6
CONTINUOUS
 10
34.1341858098
 20
63.3990279315
 11
34.1809571221
 21
63.3937968774
  0
LINE
  8
0
 62
7
  6
CONTINUOUS
 10
32.6083322938
 20
63.5766486587
 11
33.726447208
 21
63.4484613969
  0
LINE
  8
0
 62
7
  6
CONTINUOUS
 10
33.726447208
 20
63.4484613969
 11
34.1341802954
 21
63.3990285078
  0
LINE
  8
0
 62
7
  6
CONTINUOUS
 10
32.5494923331
 20
63.584013737
 11
32.608362372
 21
63.5766453773
  0
LINE
  8
0
 62
7
  6
CONTINUOUS
 10
32.4820540429
 20
63.5951387792
 11
32.5494923331
 21
63.584013737
  0
LINE
  8
0
 62
7
  6
CONTINUOUS
 10
48.7474423692
 20
63.580749467
 11
49.364141574
 21
63.4739077386
  0
LINE
  8
0
 62
7
  6
CONTINUOUS
 10
49.3641560901
 20
63.4739052241
 11
49.482482553
 21
63.4527778626
  0
LINE
  8
0
 62
7
  6
CONTINUOUS
 10
49.7151062535
 20
63.4064851207
 11
49.7633650005
 21
63.3973197295
  0
POLYLINE
  8
0
 62
7
  6
CONTINUOUS
 66
1
 70
0
  0
VERTEX
  8
0
 62
7
  6
CONTINUOUS
 10
49.482482553
 20
63.4527778626
  0
VERTEX
  8
0
 62
7
  6
CONTINUOUS
 10
49.621931321
 20
63.4259439681
  0
VERTEX
  8
0
 62
7
  6
CONTINUOUS
 10
49.7149928702
 20
63.4065095758
  0
SEQEND
  0
LINE
  8
0
 62
7
  6
CONTINUOUS
 10
49.7151062535
 20
63.4064851207
 11
49.7149928973
 21
63.4065097004
  0
LINE
  8
0
 62
7
  6
CONTINUOUS
 10
70.4462403018
 20
63.4687807242
 11
70.6071412574
 21
63.3992505707
  0
LINE
  8
0
 62
7
  6
CONTINUOUS
 10
126.1333616554
 20
63.3856273361
 11
126.2486786396
 21
63.39903797
  0
LINE
  8
0
 62
7
  6
CONTINUOUS
 10
146.9848710552
 20
63.3862992217
 11
147.0883670557
 21
63.3965211759
  0
LINE
  8
0
 62
7
  6
CONTINUOUS
 10
172.7635001639
 20
63.3970431352
 11
172.50450854
 21
63.3856272295
  0
LINE
  8
0
 62
7
  6
CONTINUOUS
 10
146.9508708286
 20
63.3856273472
 11
146.9848710552
 21
63.3862992217
  0
POLYLINE
  8
0
 62
7
  6
CONTINUOUS
 66
1
 70
0
  0
VERTEX
  8
0
 62
7
  6
CONTINUOUS
 10
162.5103833476
 20
63.3856273359
  0
VERTEX
  8
0
 62
7
  6
CONTINUOUS
 10
162.5553310256
 20
63.3862360088
  0
VERTEX
  8
0
 62
7
  6
CONTINUOUS
 10
162.6700460599
 20
63.3932451058
  0
SEQEND
  0
POLYLINE
  8
0
 62
7
  6
CONTINUOUS
 66
1
 70
0
  0
VERTEX
  8
0
 62
7
  6
CONTINUOUS
 10
171.1256906265
 20
63.3856273384
  0
VERTEX
  8
0
 62
7
  6
CONTINUOUS
 10
171.1796093054
 20
63.3861958392
  0
VERTEX
  8
0
 62
7
  6
CONTINUOUS
 10
171.3128344035
 20
63.3924382601
  0
SEQEND
  0
LINE
  8
0
 62
7
  6
CONTINUOUS
 10
49.8666633724
 20
63.3865198014
 11
49.905859471
 21
63.38562735
  0
LINE
  8
0
 62
7
  6
CONTINUOUS
 10
24.3522096526
 20
63.3856272295
 11
24.0932180287
 21
63.3970431352
  0
POLYLINE
  8
0
 62
7
  6
CONTINUOUS
 66
1
 70
0
  0
VERTEX
  8
0
 62
7
  6
CONTINUOUS
 10
25.5372462461
 20
63.3929290014
  0
VERTEX
  8
0
 62
7
  6
CONTINUOUS
 10
25.67050799
 20
63.3863431094
  0
VERTEX
  8
0
 62
7
  6
CONTINUOUS
 10
25.731036094
 20
63.3856273382
  0
SEQEND
  0
POLYLINE
  8
0
 62
7
  6
CONTINUOUS
 66
1
 70
0
  0
VERTEX
  8
0
 62
7
  6
CONTINUOUS
 10
34.1809571221
 20
63.3937968774
  0
VERTEX
  8
0
 62
7
  6
CONTINUOUS
 10
34.2956950863
 20
63.386399688
  0
VERTEX
  8
0
 62
7
  6
CONTINUOUS
 10
34.3463402323
 20
63.3856273362
  0
SEQEND
  0
LINE
  8
0
 62
7
  6
CONTINUOUS
 10
49.7633650005
 20
63.3973197295
 11
49.8666633724
 21
63.3865198014
  0
LINE
  8
0
 62
7
  6
CONTINUOUS
 10
70.6071412574
 20
63.3992505707
 11
70.7233566886
 21
63.3856273363
  0
LINE
  8
1_AXIS
 62
2
  6
CENTER
 10
98.4283590963
 20
52.8856272295
 11
98.4283590963
 21
81.8856272295
  0
LINE
  8
0
 62
7
  6
CONTINUOUS
 10
172.5045085391
 20
63.3856272295
 11
24.3522096535
 21
63.3856272295
  0
LINE
  8
0
 62
7
  6
CONTINUOUS
 10
49.905847827
 20
71.3856271106
 11
49.8718518434
 21
71.384955417
  0
POLYLINE
  8
0
 62
7
  6
CONTINUOUS
 66
1
 70
0
  0
VERTEX
  8
0
 62
7
  6
CONTINUOUS
 10
34.3463394225
 20
71.3856271217
  0
VERTEX
  8
0
 62
7
  6
CONTINUOUS
 10
34.3013923331
 20
71.3850185848
  0
VERTEX
  8
0
 62
7
  6
CONTINUOUS
 10
34.1866773767
 20
71.3780098543
  0
SEQEND
  0
POLYLINE
  8
0
 62
7
  6
CONTINUOUS
 66
1
 70
0
  0
VERTEX
  8
0
 62
7
  6
CONTINUOUS
 10
25.7311022537
 20
71.3856271218
  0
VERTEX
  8
0
 62
7
  6
CONTINUOUS
 10
25.6771135551
 20
71.3850587133
  0
VERTEX
  8
0
 62
7
  6
CONTINUOUS
 10
25.5438885159
 20
71.3788165466
  0
SEQEND
  0
LINE
  8
1_AXIS
 62
7
  6
CONTINUOUS
 10
171.1255665727
 20
71.3856272295
 11
169.2180825851
 21
71.3856272295
  0
LINE
  8
1_AXIS
 62
7
  6
CONTINUOUS
 10
162.5104164492
 20
71.3856272295
 11
158.2604916744
 21
71.3856272295
  0
LINE
  8
1_AXIS
 62
7
  6
CONTINUOUS
 10
146.950981076
 20
71.3856272295
 11
140.8191608077
 21
71.3856272295
  0
LINE
  8
1_AXIS
 62
7
  6
CONTINUOUS
 10
126.1333667053
 20
71.3856272295
 11
118.7841288145
 21
71.3856272295
  0
LINE
  8
1_AXIS
 62
7
  6
CONTINUOUS
 10
56.037557385
 20
71.3856272295
 11
49.9057371166
 21
71.3856272295
  0
LINE
  8
1_AXIS
 62
7
  6
CONTINUOUS
 10
38.5962265182
 20
71.3856272295
 11
34.3463017434
 21
71.3856272295
  0
LINE
  8
1_AXIS
 62
7
  6
CONTINUOUS
 10
27.6386356076
 20
71.3856272295
 11
25.73115162
 21
71.3856272295
  0
LINE
  8
0
 62
7
  6
CONTINUOUS
 10
24.3522096535
 20
71.3856272295
 11
172.5045085391
 21
71.3856272295
  0
LINE
  8
0
 62
7
  6
CONTINUOUS
 10
146.9900500189
 20
71.3847348708
 11
146.9508583191
 21
71.385627108
  0
LINE
  8
0
 62
7
  6
CONTINUOUS
 10
70.4006907891
 20
71.2595751282
 11
70.3991621258
 21
71.2591751121
  0
LINE
  8
0
 62
7
  6
CONTINUOUS
 10
70.7233566179
 20
71.3856271216
 11
70.6080408063
 21
71.3722167796
  0
LINE
  8
0
 62
7
  6
CONTINUOUS
 10
34.1866773767
 20
71.3780098543
 11
34.1341867573
 21
71.3722266471
  0
LINE
  8
0
 62
7
  6
CONTINUOUS
 10
49.8718518434
 20
71.384955417
 11
49.7683558112
 21
71.3747340197
  0
LINE
  8
0
 62
7
  6
CONTINUOUS
 10
25.4848045631
 20
71.3738489408
 11
23.5359143913
 21
71.1917487738
  0
LINE
  8
0
 62
7
  6
CONTINUOUS
 10
22.0022051751
 20
71.1897487007
 11
21.8641308849
 21
71.1771969179
  0
LINE
  8
0
 62
7
  6
CONTINUOUS
 10
22.0721689171
 20
71.195945456
 11
23.2841480263
 21
71.3027786739
  0
LINE
  8
0
 62
7
  6
CONTINUOUS
 10
23.2841480263
 20
71.3027786739
 11
24.0932180287
 21
71.3742113238
  0
LINE
  8
0
 62
7
  6
CONTINUOUS
 10
22.0718010372
 20
71.1959157843
 11
22.0022051751
 21
71.1897487007
  0
LINE
  8
0
 62
7
  6
CONTINUOUS
 10
25.5438885159
 20
71.3788165466
 11
25.4848048284
 21
71.373848857
  0
LINE
  8
0
 62
7
  6
CONTINUOUS
 10
24.0932180287
 20
71.3742113238
 11
24.3522096526
 21
71.3856272295
  0
LINE
  8
0
 62
7
  6
CONTINUOUS
 10
172.50450854
 20
71.3856272295
 11
172.7635001639
 21
71.3742113238
  0
POLYLINE
  8
0
 62
7
  6
CONTINUOUS
 66
1
 70
0
  0
VERTEX
  8
0
 62
7
  6
CONTINUOUS
 10
171.3194671456
 20
71.378325825
  0
VERTEX
  8
0
 62
7
  6
CONTINUOUS
 10
171.1862054446
 20
71.3849114591
  0
VERTEX
  8
0
 62
7
  6
CONTINUOUS
 10
171.1256080085
 20
71.3856271219
  0
SEQEND
  0
POLYLINE
  8
0
 62
7
  6
CONTINUOUS
 66
1
 70
0
  0
VERTEX
  8
0
 62
7
  6
CONTINUOUS
 10
162.6757557466
 20
71.3774581102
  0
VERTEX
  8
0
 62
7
  6
CONTINUOUS
 10
162.5610178258
 20
71.3848549285
  0
VERTEX
  8
0
 62
7
  6
CONTINUOUS
 10
162.5103735284
 20
71.3856271216
  0
SEQEND
  0
LINE
  8
0
 62
7
  6
CONTINUOUS
 10
171.3719135418
 20
71.3738488399
 11
171.3194671456
 21
71.378325825
  0
LINE
  8
0
 62
7
  6
CONTINUOUS
 10
174.9583268035
 20
71.180384381
 11
172.7635001639
 21
71.3742113238
  0
LINE
  8
0
 62
7
  6
CONTINUOUS
 10
173.3230201016
 20
71.1915352033
 11
171.3719136348
 21
71.373848942
  0
LINE
  8
0
 62
7
  6
CONTINUOUS
 10
147.0933484227
 20
71.3739355092
 11
146.9900500189
 21
71.3847348708
  0
LINE
  8
0
 62
7
  6
CONTINUOUS
 10
126.2495759541
 20
71.3720041168
 11
126.1333614238
 21
71.3856271216
  0
POLYLINE
  8
0
 62
7
  6
CONTINUOUS
 66
1
 70
0
  0
VERTEX
  8
0
 62
7
  6
CONTINUOUS
 10
126.690651119
 20
63.6191095184
  0
VERTEX
  8
0
 62
7
  6
CONTINUOUS
 10
126.7163188759
 20
63.6317608852
  0
VERTEX
  8
0
 62
7
  6
CONTINUOUS
 10
126.8289602313
 20
63.7121679392
  0
VERTEX
  8
0
 62
7
  6
CONTINUOUS
 10
126.9232815712
 20
63.8331237824
  0
VERTEX
  8
0
 62
7
  6
CONTINUOUS
 10
126.9789269138
 20
63.9878505242
  0
VERTEX
  8
0
 62
7
  6
CONTINUOUS
 10
126.9871136956
 20
64.0781429795
  0
SEQEND
  0
LINE
  8
0
 62
7
  6
CONTINUOUS
 10
126.4577310752
 20
63.512159677
 11
126.6905036061
 21
63.6190397972
  0
LINE
  8
0
 62
7
  6
CONTINUOUS
 10
126.2486786396
 20
63.39903797
 11
126.4090808598
 21
63.4678651649
  0
LINE
  8
0
 62
7
  6
CONTINUOUS
 10
49.7151116372
 20
71.3647706352
 11
49.7149915243
 21
71.364744591
  0
POLYLINE
  8
0
 62
7
  6
CONTINUOUS
 66
1
 70
0
  0
VERTEX
  8
0
 62
7
  6
CONTINUOUS
 10
49.7149915243
 20
71.364744591
  0
VERTEX
  8
0
 62
7
  6
CONTINUOUS
 10
49.6246885813
 20
71.3458665363
  0
VERTEX
  8
0
 62
7
  6
CONTINUOUS
 10
49.4855907438
 20
71.3190499824
  0
SEQEND
  0
POLYLINE
  8
0
 62
7
  6
CONTINUOUS
 66
1
 70
0
  0
VERTEX
  8
0
 62
7
  6
CONTINUOUS
 10
48.747539439
 20
71.1905214085
  0
VERTEX
  8
0
 62
7
  6
CONTINUOUS
 10
48.703678619
 20
71.1818388384
  0
VERTEX
  8
0
 62
7
  6
CONTINUOUS
 10
48.6069258679
 20
71.1515335176
  0
VERTEX
  8
0
 62
7
  6
CONTINUOUS
 10
48.5020352662
 20
71.0930901745
  0
VERTEX
  8
0
 62
7
  6
CONTINUOUS
 10
48.4069168746
 20
71.0035907796
  0
VERTEX
  8
0
 62
7
  6
CONTINUOUS
 10
48.3348000914
 20
70.8853882022
  0
VERTEX
  8
0
 62
7
  6
CONTINUOUS
 10
48.2967882774
 20
70.7445316739
  0
VERTEX
  8
0
 62
7
  6
CONTINUOUS
 10
48.2933252104
 20
70.6857080746
  0
SEQEND
  0
POLYLINE
  8
0
 62
7
  6
CONTINUOUS
 66
1
 70
0
  0
VERTEX
  8
0
 62
7
  6
CONTINUOUS
 10
32.5223114033
 20
71.1832413392
  0
VERTEX
  8
0
 62
7
  6
CONTINUOUS
 10
32.4580079072
 20
71.1708520861
  0
VERTEX
  8
0
 62
7
  6
CONTINUOUS
 10
32.3764039255
 20
71.1448067855
  0
VERTEX
  8
0
 62
7
  6
CONTINUOUS
 10
32.2877648743
 20
71.0979000523
  0
VERTEX
  8
0
 62
7
  6
CONTINUOUS
 10
32.2444229663
 20
71.0656845051
  0
VERTEX
  8
0
 62
7
  6
CONTINUOUS
 10
32.1657527593
 20
70.9836717275
  0
VERTEX
  8
0
 62
7
  6
CONTINUOUS
 10
32.1055179807
 20
70.8814473181
  0
VERTEX
  8
0
 62
7
  6
CONTINUOUS
 10
32.0703578777
 20
70.76413395
  0
VERTEX
  8
0
 62
7
  6
CONTINUOUS
 10
32.0632604114
 20
70.6801348947
  0
SEQEND
  0
LINE
  8
0
 62
7
  6
CONTINUOUS
 10
49.7683558112
 20
71.3747340197
 11
49.7151116641
 21
71.3647705114
  0
LINE
  8
0
 62
7
  6
CONTINUOUS
 10
49.4855907438
 20
71.3190499824
 11
49.364155479
 21
71.2973491293
  0
LINE
  8
0
 62
7
  6
CONTINUOUS
 10
49.364141574
 20
71.2973467204
 11
48.7474423709
 21
71.1905049923
  0
LINE
  8
0
 62
7
  6
CONTINUOUS
 10
32.5946099544
 20
71.1930060966
 11
32.5223114033
 21
71.1832413392
  0
LINE
  8
0
 62
7
  6
CONTINUOUS
 10
34.1341802451
 20
71.3722259458
 11
33.7314918298
 21
71.3233855187
  0
LINE
  8
0
 62
7
  6
CONTINUOUS
 10
33.7314918298
 20
71.3233855187
 11
32.5946099544
 21
71.1930060966
  0
POLYLINE
  8
0
 62
7
  6
CONTINUOUS
 66
1
 70
0
  0
VERTEX
  8
0
 62
7
  6
CONTINUOUS
 10
23.4666191657
 20
71.1848190542
  0
VERTEX
  8
0
 62
7
  6
CONTINUOUS
 10
23.4138038365
 20
71.1789703766
  0
VERTEX
  8
0
 62
7
  6
CONTINUOUS
 10
23.3741623168
 20
71.1737255782
  0
VERTEX
  8
0
 62
7
  6
CONTINUOUS
 10
23.3274662526
 20
71.1649264248
  0
SEQEND
  0
LINE
  8
0
 62
7
  6
CONTINUOUS
 10
23.5359143913
 20
71.1917487738
 11
23.4666191657
 21
71.1848190542
  0
POLYLINE
  8
0
 62
7
  6
CONTINUOUS
 66
1
 70
0
  0
VERTEX
  8
0
 62
7
  6
CONTINUOUS
 10
21.8641308849
 20
71.1771969179
  0
VERTEX
  8
0
 62
7
  6
CONTINUOUS
 10
21.8463632533
 20
71.1754831584
  0
VERTEX
  8
0
 62
7
  6
CONTINUOUS
 10
21.83233382
 20
71.1740373067
  0
VERTEX
  8
0
 62
7
  6
CONTINUOUS
 10
21.8131294471
 20
71.1716509647
  0
VERTEX
  8
0
 62
7
  6
CONTINUOUS
 10
21.7751038944
 20
71.1647805958
  0
VERTEX
  8
0
 62
7
  6
CONTINUOUS
 10
21.7324081645
 20
71.1533677502
  0
VERTEX
  8
0
 62
7
  6
CONTINUOUS
 10
21.7103671699
 20
71.1458518968
  0
VERTEX
  8
0
 62
7
  6
CONTINUOUS
 10
21.6656453426
 20
71.1269187254
  0
VERTEX
  8
0
 62
7
  6
CONTINUOUS
 10
21.6208096106
 20
71.1024156262
  0
VERTEX
  8
0
 62
7
  6
CONTINUOUS
 10
21.5761777204
 20
71.0715143983
  0
VERTEX
  8
0
 62
7
  6
CONTINUOUS
 10
21.5324409486
 20
71.0333094333
  0
VERTEX
  8
0
 62
7
  6
CONTINUOUS
 10
21.4910908661
 20
70.9873684177
  0
VERTEX
  8
0
 62
7
  6
CONTINUOUS
 10
21.4539185388
 20
70.9336890401
  0
VERTEX
  8
0
 62
7
  6
CONTINUOUS
 10
21.422691926
 20
70.8724475792
  0
VERTEX
  8
0
 62
7
  6
CONTINUOUS
 10
21.3992532479
 20
70.8041145542
  0
VERTEX
  8
0
 62
7
  6
CONTINUOUS
 10
21.385515941
 20
70.7295824141
  0
VERTEX
  8
0
 62
7
  6
CONTINUOUS
 10
21.3826878783
 20
70.6764780042
  0
SEQEND
  0
LINE
  8
1_AXIS
 62
7
  6
CONTINUOUS
 10
158.9283590963
 20
79.8856272295
 11
37.9284187686
 21
79.8856272295
  0
LINE
  8
0
 62
7
  6
CONTINUOUS
 10
173.3905190296
 20
71.1847750649
 11
173.3230201016
 21
71.1915352033
  0
LINE
  8
0
 62
7
  6
CONTINUOUS
 10
162.7225322323
 20
71.3722265471
 11
162.6757557466
 21
71.3774581102
  0
LINE
  8
0
 62
7
  6
CONTINUOUS
 10
164.2483858988
 20
71.1946058003
 11
163.1302827758
 21
71.3227916756
  0
LINE
  8
0
 62
7
  6
CONTINUOUS
 10
163.1302827758
 20
71.3227916756
 11
162.7225378783
 21
71.3722259551
  0
LINE
  8
0
 62
7
  6
CONTINUOUS
 10
164.3072430795
 20
71.1872383159
 11
164.2483535126
 21
71.1946093147
  0
LINE
  8
0
 62
7
  6
CONTINUOUS
 10
164.3746693849
 20
71.1761146903
 11
164.3072430795
 21
71.1872383159
  0
LINE
  8
0
 62
7
  6
CONTINUOUS
 10
148.1092758234
 20
71.190504992
 11
147.4925766186
 21
71.2973467204
  0
LINE
  8
0
 62
7
  6
CONTINUOUS
 10
147.4925620721
 20
71.2973492403
 11
147.3742414578
 21
71.3184755233
  0
LINE
  8
0
 62
7
  6
CONTINUOUS
 10
147.1416115365
 20
71.3647694261
 11
147.0933484227
 21
71.3739355092
  0
POLYLINE
  8
0
 62
7
  6
CONTINUOUS
 66
1
 70
0
  0
VERTEX
  8
0
 62
7
  6
CONTINUOUS
 10
147.3742414578
 20
71.3184755233
  0
VERTEX
  8
0
 62
7
  6
CONTINUOUS
 10
147.234792132
 20
71.3453094295
  0
VERTEX
  8
0
 62
7
  6
CONTINUOUS
 10
147.1417253245
 20
71.3647448808
  0
SEQEND
  0
LINE
  8
0
 62
7
  6
CONTINUOUS
 10
147.1416115365
 20
71.3647694261
 11
147.1417252979
 21
71.3647447586
  0
LINE
  8
0
 62
7
  6
CONTINUOUS
 10
126.4104764596
 20
71.3024746752
 11
126.2495759541
 21
71.3720041168
  0
LINE
  8
0
 62
7
  6
CONTINUOUS
 10
126.690503605
 20
71.1522146622
 11
126.4577310751
 21
71.259094782
  0
LINE
  8
0
 62
7
  6
CONTINUOUS
 10
126.4575517249
 20
71.2591770878
 11
126.4530542689
 21
71.2613288391
  0
LINE
  8
0
 62
7
  6
CONTINUOUS
 10
126.4090808598
 20
63.4678651649
 11
126.4653798961
 21
63.515670995
  0
POLYLINE
  8
0
 62
7
  6
CONTINUOUS
 66
1
 70
0
  0
VERTEX
  8
0
 62
7
  6
CONTINUOUS
 10
173.5272300575
 20
71.1653908705
  0
VERTEX
  8
0
 62
7
  6
CONTINUOUS
 10
173.4819906128
 20
71.1738107133
  0
VERTEX
  8
0
 62
7
  6
CONTINUOUS
 10
173.4422733667
 20
71.1790466794
  0
VERTEX
  8
0
 62
7
  6
CONTINUOUS
 10
173.3905190296
 20
71.1847750649
  0
SEQEND
  0
LINE
  8
0
 62
7
  6
CONTINUOUS
 10
126.465181149
 20
71.2556746966
 11
126.4104764596
 21
71.3024746752
  0
POLYLINE
  8
0
 62
7
  6
CONTINUOUS
 66
1
 70
0
  0
VERTEX
  8
0
 62
7
  6
CONTINUOUS
 10
173.5292800573
 20
63.6063347375
  0
VERTEX
  8
0
 62
7
  6
CONTINUOUS
 10
173.595885741
 20
63.6265956423
  0
VERTEX
  8
0
 62
7
  6
CONTINUOUS
 10
173.6677582285
 20
63.6606914828
  0
VERTEX
  8
0
 62
7
  6
CONTINUOUS
 10
173.7384763459
 20
63.7099514455
  0
VERTEX
  8
0
 62
7
  6
CONTINUOUS
 10
173.8063964572
 20
63.7786768602
  0
VERTEX
  8
0
 62
7
  6
CONTINUOUS
 10
173.864133409
 20
63.8674286888
  0
VERTEX
  8
0
 62
7
  6
CONTINUOUS
 10
173.9034645496
 20
63.9724364443
  0
VERTEX
  8
0
 62
7
  6
CONTINUOUS
 10
173.9185254055
 20
64.09424367
  0
SEQEND
  0
POLYLINE
  8
0
 62
7
  6
CONTINUOUS
 66
1
 70
0
  0
VERTEX
  8
0
 62
7
  6
CONTINUOUS
 10
126.9871136957
 20
70.6931111821
  0
VERTEX
  8
0
 62
7
  6
CONTINUOUS
 10
126.9766991314
 20
70.7948374729
  0
VERTEX
  8
0
 62
7
  6
CONTINUOUS
 10
126.9127147689
 20
70.9561535785
  0
VERTEX
  8
0
 62
7
  6
CONTINUOUS
 10
126.8634768171
 20
71.0231677809
  0
VERTEX
  8
0
 62
7
  6
CONTINUOUS
 10
126.7422186483
 20
71.1248789316
  0
VERTEX
  8
0
 62
7
  6
CONTINUOUS
 10
126.6901631094
 20
71.1523689582
  0
SEQEND
  0
LINE
  8
0
 62
7
  6
CONTINUOUS
 10
126.9871142404
 20
70.6931175688
 11
126.9871142404
 21
64.0781368901
  0
POLYLINE
  8
0
 62
7
  6
CONTINUOUS
 66
1
 70
0
  0
VERTEX
  8
0
 62
7
  6
CONTINUOUS
 10
148.5633945498
 20
70.6857043471
  0
VERTEX
  8
0
 62
7
  6
CONTINUOUS
 10
148.5600086236
 20
70.7438716251
  0
VERTEX
  8
0
 62
7
  6
CONTINUOUS
 10
148.5224199033
 20
70.8842271299
  0
VERTEX
  8
0
 62
7
  6
CONTINUOUS
 10
148.4509479474
 20
71.0021827192
  0
VERTEX
  8
0
 62
7
  6
CONTINUOUS
 10
148.3565703672
 20
71.0917192948
  0
VERTEX
  8
0
 62
7
  6
CONTINUOUS
 10
148.2522671815
 20
71.1505008617
  0
VERTEX
  8
0
 62
7
  6
CONTINUOUS
 10
148.1554770727
 20
71.1812828164
  0
VERTEX
  8
0
 62
7
  6
CONTINUOUS
 10
148.109137092
 20
71.1905285409
  0
SEQEND
  0
LINE
  8
0
 62
7
  6
CONTINUOUS
 10
148.5633945635
 20
70.6857811725
 11
148.5633945635
 21
64.0854732865
  0
LINE
  8
1_AXIS
 62
7
  6
CONTINUOUS
 10
160.9283590963
 20
77.8856272295
 11
160.9283590963
 21
72.3856272295
  0
LINE
  8
1_AXIS
 62
7
  6
CONTINUOUS
 10
160.9283590963
 20
62.3856272295
 11
160.9283590963
 21
56.8856272295
  0
POLYLINE
  8
0
 62
7
  6
CONTINUOUS
 66
1
 70
0
  0
VERTEX
  8
0
 62
7
  6
CONTINUOUS
 10
164.7934558138
 20
70.6801350157
  0
VERTEX
  8
0
 62
7
  6
CONTINUOUS
 10
164.7926373357
 20
70.708750369
  0
VERTEX
  8
0
 62
7
  6
CONTINUOUS
 10
164.7683941846
 20
70.8365493909
  0
VERTEX
  8
0
 62
7
  6
CONTINUOUS
 10
164.7140256446
 20
70.9507474422
  0
VERTEX
  8
0
 62
7
  6
CONTINUOUS
 10
164.636694828
 20
71.0440557455
  0
VERTEX
  8
0
 62
7
  6
CONTINUOUS
 10
164.546281561
 20
71.1120881697
  0
VERTEX
  8
0
 62
7
  6
CONTINUOUS
 10
164.453817319
 20
71.1548298156
  0
VERTEX
  8
0
 62
7
  6
CONTINUOUS
 10
164.3746693849
 20
71.1761146903
  0
SEQEND
  0
LINE
  8
0
 62
7
  6
CONTINUOUS
 10
164.7934582817
 20
70.6802302295
 11
164.7934582817
 21
64.0910242295
  0
LINE
  8
0
 62
7
  6
CONTINUOUS
 10
173.9185254049
 20
70.6770107961
 11
173.9101298785
 21
70.7682613903
  0
POLYLINE
  8
0
 62
7
  6
CONTINUOUS
 66
1
 70
0
  0
VERTEX
  8
0
 62
7
  6
CONTINUOUS
 10
175.474026392
 20
70.6764783923
  0
VERTEX
  8
0
 62
7
  6
CONTINUOUS
 10
175.4739426495
 20
70.6856290711
  0
VERTEX
  8
0
 62
7
  6
CONTINUOUS
 10
175.4694742142
 20
70.7437948705
  0
VERTEX
  8
0
 62
7
  6
CONTINUOUS
 10
175.4584530633
 20
70.8002968032
  0
VERTEX
  8
0
 62
7
  6
CONTINUOUS
 10
175.441332164
 20
70.8543146749
  0
VERTEX
  8
0
 62
7
  6
CONTINUOUS
 10
175.4186822381
 20
70.9051307675
  0
VERTEX
  8
0
 62
7
  6
CONTINUOUS
 10
175.3911692218
 20
70.9521465927
  0
VERTEX
  8
0
 62
7
  6
CONTINUOUS
 10
175.3595296431
 20
70.9948944234
  0
VERTEX
  8
0
 62
7
  6
CONTINUOUS
 10
175.3245451428
 20
71.0330434295
  0
VERTEX
  8
0
 62
7
  6
CONTINUOUS
 10
175.287017945
 20
71.0664000385
  0
VERTEX
  8
0
 62
7
  6
CONTINUOUS
 10
175.2477463855
 20
71.0949048292
  0
VERTEX
  8
0
 62
7
  6
CONTINUOUS
 10
175.2075037952
 20
71.118623804
  0
VERTEX
  8
0
 62
7
  6
CONTINUOUS
 10
175.1670225741
 20
71.1377354944
  0
VERTEX
  8
0
 62
7
  6
CONTINUOUS
 10
175.1269902332
 20
71.1525141064
  0
VERTEX
  8
0
 62
7
  6
CONTINUOUS
 10
175.0880777285
 20
71.1633099087
  0
VERTEX
  8
0
 62
7
  6
CONTINUOUS
 10
175.0529815725
 20
71.17023106
  0
VERTEX
  8
0
 62
7
  6
CONTINUOUS
 10
175.0297193111
 20
71.1734363164
  0
VERTEX
  8
0
 62
7
  6
CONTINUOUS
 10
175.0165758955
 20
71.1748589203
  0
VERTEX
  8
0
 62
7
  6
CONTINUOUS
 10
175.0019776499
 20
71.1763002342
  0
VERTEX
  8
0
 62
7
  6
CONTINUOUS
 10
174.9583268035
 20
71.180384381
  0
SEQEND
  0
LINE
  8
0
 62
7
  6
CONTINUOUS
 10
173.9185261559
 20
70.6770305009
 11
173.9185261559
 21
64.0942239582
  0
LINE
  8
0
 62
7
  6
CONTINUOUS
 10
175.4740324293
 20
70.6765611421
 11
175.4740324293
 21
64.0946933169
  0
POLYLINE
  8
0
 62
7
  6
CONTINUOUS
 66
1
 70
0
  0
VERTEX
  8
0
 62
7
  6
CONTINUOUS
 10
173.9101298785
 20
70.7682613903
  0
VERTEX
  8
0
 62
7
  6
CONTINUOUS
 10
173.8837368396
 20
70.8602741246
  0
VERTEX
  8
0
 62
7
  6
CONTINUOUS
 10
173.8420391241
 20
70.9428170585
  0
VERTEX
  8
0
 62
7
  6
CONTINUOUS
 10
173.7882660985
 20
71.0136464559
  0
VERTEX
  8
0
 62
7
  6
CONTINUOUS
 10
173.725878207
 20
71.071457923
  0
VERTEX
  8
0
 62
7
  6
CONTINUOUS
 10
173.6583277024
 20
71.1158565967
  0
VERTEX
  8
0
 62
7
  6
CONTINUOUS
 10
173.5895146821
 20
71.1470354367
  0
VERTEX
  8
0
 62
7
  6
CONTINUOUS
 10
173.5272300575
 20
71.1653908705
  0
SEQEND
  0
ARC
  8
0
 62
7
  6
CONTINUOUS
 10
32.9526148306
 20
155.7462856957
 40
6.2
 50
98.3010367202
 51
105.5222105263
  0
ARC
  8
0
 62
7
  6
CONTINUOUS
 10
32.9526148306
 20
155.7462856957
 40
6.2
 50
81.7430816823
 51
96.3261258121
  0
ARC
  8
0
 62
7
  6
CONTINUOUS
 10
49.4706544143
 20
136.6507204307
 40
6.2
 50
117.2484051413
 51
124.4695789474
  0
ARC
  8
0
 62
7
  6
CONTINUOUS
 10
49.4706544143
 20
136.6507204307
 40
6.2
 50
100.6904501034
 51
115.2734942332
  0
ARC
  8
0
 62
7
  6
CONTINUOUS
 10
35.5457453017
 20
151.7772040342
 40
6.2
 50
329.9896636616
 51
344.5727077913
  0
ARC
  8
0
 62
7
  6
CONTINUOUS
 10
35.5457453017
 20
151.7772040342
 40
6.2
 50
320.7935789474
 51
328.0147527535
  0
ARC
  8
0
 62
7
  6
CONTINUOUS
 10
53.2120406327
 20
133.7386826491
 40
6.2
 50
348.9370320826
 51
3.5200762124
  0
ARC
  8
0
 62
7
  6
CONTINUOUS
 10
53.2120406327
 20
133.7386826491
 40
6.2
 50
339.7409473684
 51
346.9621211745
  0
ARC
  8
0
 62
7
  6
CONTINUOUS
 10
48.6915425127
 20
140.7778240937
 40
2.0
 50
47.8323128807
 51
100.6904501034
  0
ARC
  8
0
 62
7
  6
CONTINUOUS
 10
39.5944142624
 20
150.6599396755
 40
2.0
 50
344.5727077913
 51
37.430845014
  0
ARC
  8
0
 62
7
  6
CONTINUOUS
 10
57.4041166858
 20
133.9965554177
 40
2.0
 50
3.5200762124
 51
56.3782134351
  0
ARC
  8
0
 62
7
  6
CONTINUOUS
 10
44.4838156342
 20
141.7180058075
 40
0.8
 50
225.0156864448
 51
304.4695789474
  0
ARC
  8
0
 62
7
  6
CONTINUOUS
 10
40.1839134473
 20
146.388944727
 40
0.8
 50
140.7935789474
 51
220.24747145
  0
ARC
  8
0
 62
7
  6
CONTINUOUS
 10
23.5298880988
 20
179.1705992485
 40
6.2
 50
79.3536682992
 51
86.5748421053
  0
ARC
  8
0
 62
7
  6
CONTINUOUS
 10
23.5298880988
 20
179.1705992485
 40
6.2
 50
62.7957132613
 51
77.3787573911
  0
ARC
  8
0
 62
7
  6
CONTINUOUS
 10
24.6937568997
 20
174.5745852917
 40
6.2
 50
311.0422952405
 51
325.6253393703
  0
ARC
  8
0
 62
7
  6
CONTINUOUS
 10
24.6937568997
 20
174.5745852917
 40
6.2
 50
301.8462105263
 51
309.0673843324
  0
ARC
  8
0
 62
7
  6
CONTINUOUS
 10
25.4499788723
 20
182.90600437
 40
2.0
 50
9.9375760386
 51
62.7957132613
  0
ARC
  8
0
 62
7
  6
CONTINUOUS
 10
33.5557857295
 20
159.9027487193
 40
2.0
 50
28.8849444596
 51
81.7430816823
  0
ARC
  8
0
 62
7
  6
CONTINUOUS
 10
28.1602826644
 20
172.2032567353
 40
2.0
 50
325.6253393703
 51
18.483476593
  0
ARC
  8
0
 62
7
  6
CONTINUOUS
 10
22.7069627008
 20
186.2323791868
 40
0.8
 50
187.1209496027
 51
266.5748421053
  0
ARC
  8
0
 62
7
  6
CONTINUOUS
 10
22.1826857633
 20
192.5594608917
 40
0.8
 50
102.8988421053
 51
182.3527346078
  0
ARC
  8
0
 62
7
  6
CONTINUOUS
 10
29.8813216028
 20
162.1582354786
 40
0.8
 50
206.0683180237
 51
285.5222105263
  0
ARC
  8
0
 62
7
  6
CONTINUOUS
 10
27.3310513648
 20
167.9722660013
 40
0.8
 50
121.8462105263
 51
201.3001030289
  0
ARC
  8
0
 62
7
  6
CONTINUOUS
 10
71.2940209575
 20
123.9532042483
 40
6.2
 50
136.1957735623
 51
143.4169473684
  0
ARC
  8
0
 62
7
  6
CONTINUOUS
 10
71.2940209575
 20
123.9532042483
 40
6.2
 50
119.6378185244
 51
134.2208626542
  0
ARC
  8
0
 62
7
  6
CONTINUOUS
 10
96.0578140706
 20
119.0297100489
 40
6.2
 50
155.1431419834
 51
162.3643157895
  0
ARC
  8
0
 62
7
  6
CONTINUOUS
 10
96.0578140706
 20
119.0297100489
 40
6.2
 50
138.5851869455
 51
153.1682310753
  0
ARC
  8
0
 62
7
  6
CONTINUOUS
 10
75.7782256726
 20
122.4137748251
 40
6.2
 50
7.8844005037
 51
22.4674446334
  0
ARC
  8
0
 62
7
  6
CONTINUOUS
 10
75.7782256726
 20
122.4137748251
 40
6.2
 50
358.6883157895
 51
5.9094895956
  0
ARC
  8
0
 62
7
  6
CONTINUOUS
 10
69.217055119
 20
127.6037128301
 40
2.0
 50
66.7796813018
 51
119.6378185244
  0
ARC
  8
0
 62
7
  6
CONTINUOUS
 10
92.9080657713
 20
121.8080343013
 40
2.0
 50
85.7270497228
 51
138.5851869455
  0
ARC
  8
0
 62
7
  6
CONTINUOUS
 10
79.6594323311
 20
124.0188402051
 40
2.0
 50
22.4674446334
 51
75.3255818561
  0
ARC
  8
0
 62
7
  6
CONTINUOUS
 10
64.9320379855
 20
127.1267062213
 40
0.8
 50
243.9630548658
 51
323.4169473684
  0
ARC
  8
0
 62
7
  6
CONTINUOUS
 10
59.3484649717
 20
130.1483848286
 40
0.8
 50
159.7409473684
 51
239.194839871
  0
ARC
  8
0
 62
7
  6
CONTINUOUS
 10
89.0101064781
 20
119.9655304375
 40
0.8
 50
262.9104232869
 51
342.3643157895
  0
ARC
  8
0
 62
7
  6
CONTINUOUS
 10
82.7479294115
 20
121.0105029693
 40
0.8
 50
178.6883157895
 51
258.1422082921
  0
ARC
  8
0
 62
7
  6
CONTINUOUS
 10
29.1752286664
 20
228.6579065261
 40
6.2
 50
41.4589314571
 51
48.6801052632
  0
ARC
  8
0
 62
7
  6
CONTINUOUS
 10
29.1752286664
 20
228.6579065261
 40
6.2
 50
24.9009764192
 51
39.4840205489
  0
ARC
  8
0
 62
7
  6
CONTINUOUS
 10
22.2235728692
 20
204.38527325
 40
6.2
 50
60.4062998781
 51
67.6274736842
  0
ARC
  8
0
 62
7
  6
CONTINUOUS
 10
22.2235728692
 20
204.38527325
 40
6.2
 50
43.8483448402
 51
58.43138897
  0
ARC
  8
0
 62
7
  6
CONTINUOUS
 10
27.2707544848
 20
224.3161427177
 40
6.2
 50
273.1475583984
 51
287.7306025282
  0
ARC
  8
0
 62
7
  6
CONTINUOUS
 10
27.2707544848
 20
224.3161427177
 40
6.2
 50
263.9514736842
 51
271.1726474903
  0
ARC
  8
0
 62
7
  6
CONTINUOUS
 10
21.8320567559
 20
199.6603764247
 40
6.2
 50
292.0949268195
 51
306.6779709492
  0
ARC
  8
0
 62
7
  6
CONTINUOUS
 10
21.8320567559
 20
199.6603764247
 40
6.2
 50
282.8988421053
 51
290.1200159114
  0
ARC
  8
0
 62
7
  6
CONTINUOUS
 10
32.9847833901
 20
230.4263218639
 40
2.0
 50
332.0428391965
 51
24.9009764192
  0
ARC
  8
0
 62
7
  6
CONTINUOUS
 10
25.2525118886
 20
207.2948313637
 40
2.0
 50
350.9902076175
 51
43.8483448402
  0
ARC
  8
0
 62
7
  6
CONTINUOUS
 10
28.5498302473
 20
220.3156470992
 40
2.0
 50
287.7306025282
 51
340.5887397509
  0
ARC
  8
0
 62
7
  6
CONTINUOUS
 10
24.3407874694
 20
196.2919539145
 40
2.0
 50
306.6779709492
 51
359.5361081719
  0
ARC
  8
0
 62
7
  6
CONTINUOUS
 10
23.7381920367
 20
211.3316299127
 40
0.8
 50
168.1735811816
 51
247.6274736842
  0
ARC
  8
0
 62
7
  6
CONTINUOUS
 10
25.296721941
 20
217.4861253221
 40
0.8
 50
83.9514736842
 51
163.4053661868
  0
ARC
  8
0
 62
7
  6
CONTINUOUS
 10
43.6315357186
 20
249.3581826327
 40
6.2
 50
22.511563036
 51
29.7327368421
  0
ARC
  8
0
 62
7
  6
CONTINUOUS
 10
43.6315357186
 20
249.3581826327
 40
6.2
 50
5.9536079981
 51
20.5366521279
  0
ARC
  8
0
 62
7
  6
CONTINUOUS
 10
40.4204827973
 20
245.8700493192
 40
6.2
 50
254.2001899774
 51
268.7832341071
  0
ARC
  8
0
 62
7
  6
CONTINUOUS
 10
40.4204827973
 20
245.8700493192
 40
6.2
 50
245.0041052632
 51
252.2252790693
  0
ARC
  8
0
 62
7
  6
CONTINUOUS
 10
47.8088817811
 20
249.793819953
 40
2.0
 50
313.0954707754
 51
5.9536079981
  0
ARC
  8
0
 62
7
  6
CONTINUOUS
 10
58.4084798246
 20
258.0438182616
 40
2.0
 50
249.8358656861
 51
302.6940029088
  0
ARC
  8
0
 62
7
  6
CONTINUOUS
 10
40.331295903
 20
241.6709963667
 40
2.0
 50
268.7832341071
 51
321.6413713298
  0
ARC
  8
0
 62
7
  6
CONTINUOUS
 10
49.0933236292
 20
253.9095357204
 40
0.8
 50
130.2788443395
 51
209.7327368421
  0
ARC
  8
0
 62
7
  6
CONTINUOUS
 10
54.1033920324
 20
257.8090284825
 40
0.8
 50
46.0567368421
 51
125.5106293447
  0
ARC
  8
0
 62
7
  6
CONTINUOUS
 10
32.8632599109
 20
234.736094385
 40
0.8
 50
149.2262127606
 51
228.6801052632
  0
ARC
  8
0
 62
7
  6
CONTINUOUS
 10
36.3357057587
 20
240.0510684245
 40
0.8
 50
65.0041052632
 51
144.4579977657
  0
ARC
  8
0
 62
7
  6
CONTINUOUS
 10
72.9725149736
 20
195.6920952455
 40
4.0
 50
75.0
 51
285.0
  0
ARC
  8
0
 62
7
  6
CONTINUOUS
 10
88.1483590963
 20
271.6990843171
 40
6.2
 50
344.6168261939
 51
351.838
  0
ARC
  8
0
 62
7
  6
CONTINUOUS
 10
88.1483590963
 20
271.6990843171
 40
6.2
 50
328.058871156
 51
342.6419152858
  0
ARC
  8
0
 62
7
  6
CONTINUOUS
 10
64.0259288442
 20
264.2429054558
 40
6.2
 50
3.564194615
 51
10.7853684211
  0
ARC
  8
0
 62
7
  6
CONTINUOUS
 10
64.0259288442
 20
264.2429054558
 40
6.2
 50
347.0062395771
 51
1.5892837068
  0
ARC
  8
0
 62
7
  6
CONTINUOUS
 10
83.4719313336
 20
270.9187265426
 40
6.2
 50
216.3054531353
 51
230.888497265
  0
ARC
  8
0
 62
7
  6
CONTINUOUS
 10
83.4719313336
 20
270.9187265426
 40
6.2
 50
207.1093684211
 51
214.3305422271
  0
ARC
  8
0
 62
7
  6
CONTINUOUS
 10
59.8562645918
 20
261.9863960056
 40
6.2
 50
235.2528215563
 51
249.8358656861
  0
ARC
  8
0
 62
7
  6
CONTINUOUS
 10
59.8562645918
 20
261.9863960056
 40
6.2
 50
226.0567368421
 51
233.2779106482
  0
ARC
  8
0
 62
7
  6
CONTINUOUS
 10
91.7124460762
 20
269.4770843171
 40
2.0
 50
275.2007339333
 51
328.058871156
  0
ARC
  8
0
 62
7
  6
CONTINUOUS
 10
68.1183859813
 20
263.2985566953
 40
2.0
 50
294.1481023544
 51
347.0062395771
  0
ARC
  8
0
 62
7
  6
CONTINUOUS
 10
80.8224386377
 20
267.659863481
 40
2.0
 50
230.888497265
 51
283.7466344877
  0
ARC
  8
0
 62
7
  6
CONTINUOUS
 10
95.2539761166
 20
271.9360418425
 40
0.8
 50
92.3841074974
 51
171.838
  0
ARC
  8
0
 62
7
  6
CONTINUOUS
 10
70.6696039522
 20
266.7742140437
 40
0.8
 50
111.3314759185
 51
190.785368421
  0
ARC
  8
0
 62
7
  6
CONTINUOUS
 10
76.6743762601
 20
268.8356549808
 40
0.8
 50
27.1093684211
 51
106.5632609236
  0
ARC
  8
0
 62
7
  6
CONTINUOUS
 10
121.07849252
 20
122.4137748251
 40
6.2
 50
174.0905104044
 51
181.3116842105
  0
ARC
  8
0
 62
7
  6
CONTINUOUS
 10
121.07849252
 20
122.4137748251
 40
6.2
 50
157.5325553666
 51
172.1155994963
  0
ARC
  8
0
 62
7
  6
CONTINUOUS
 10
100.7989041221
 20
119.0297100489
 40
6.2
 50
26.8317689247
 51
41.4148130545
  0
ARC
  8
0
 62
7
  6
CONTINUOUS
 10
100.7989041221
 20
119.0297100489
 40
6.2
 50
17.6356842105
 51
24.8568580166
  0
ARC
  8
0
 62
7
  6
CONTINUOUS
 10
125.5626972352
 20
123.9532042483
 40
6.2
 50
45.7791373458
 51
60.3621814756
  0
ARC
  8
0
 62
7
  6
CONTINUOUS
 10
125.5626972352
 20
123.9532042483
 40
6.2
 50
36.5830526316
 51
43.8042264377
  0
ARC
  8
0
 62
7
  6
CONTINUOUS
 10
117.1972858615
 20
124.0188402051
 40
2.0
 50
104.6744181439
 51
157.5325553665
  0
ARC
  8
0
 62
7
  6
CONTINUOUS
 10
103.9486524213
 20
121.8080343013
 40
2.0
 50
41.4148130545
 51
94.2729502772
  0
ARC
  8
0
 62
7
  6
CONTINUOUS
 10
127.6396630736
 20
127.6037128301
 40
2.0
 50
60.3621814756
 51
113.2203186982
  0
ARC
  8
0
 62
7
  6
CONTINUOUS
 10
114.1087887812
 20
121.0105029693
 40
0.8
 50
281.8577917079
 51
1.3116842105
  0
ARC
  8
0
 62
7
  6
CONTINUOUS
 10
107.8466117145
 20
119.9655304375
 40
0.8
 50
197.6356842105
 51
277.0895767131
  0
ARC
  8
0
 62
7
  6
CONTINUOUS
 10
131.9246802072
 20
127.1267062213
 40
0.8
 50
216.5830526316
 51
296.0369451342
  0
ARC
  8
0
 62
7
  6
CONTINUOUS
 10
98.4283590963
 20
170.2362511228
 40
4.0
 50
165.0
 51
15.0
  0
ARC
  8
0
 62
7
  6
CONTINUOUS
 10
163.9041033621
 20
155.7462856957
 40
6.2
 50
74.4777894737
 51
81.6989632798
  0
ARC
  8
0
 62
7
  6
CONTINUOUS
 10
163.9041033621
 20
155.7462856957
 40
6.2
 50
83.6738741879
 51
98.2569183177
  0
ARC
  8
0
 62
7
  6
CONTINUOUS
 10
143.64467756
 20
133.7386826491
 40
6.2
 50
193.0378788255
 51
200.2590526316
  0
ARC
  8
0
 62
7
  6
CONTINUOUS
 10
143.64467756
 20
133.7386826491
 40
6.2
 50
176.4799237876
 51
191.0629679174
  0
ARC
  8
0
 62
7
  6
CONTINUOUS
 10
161.3109728909
 20
151.7772040342
 40
6.2
 50
211.9852472465
 51
219.2064210526
  0
ARC
  8
0
 62
7
  6
CONTINUOUS
 10
161.3109728909
 20
151.7772040342
 40
6.2
 50
195.4272922087
 51
210.0103363384
  0
ARC
  8
0
 62
7
  6
CONTINUOUS
 10
147.3860637783
 20
136.6507204307
 40
6.2
 50
64.7265057668
 51
79.3095498966
  0
ARC
  8
0
 62
7
  6
CONTINUOUS
 10
147.3860637783
 20
136.6507204307
 40
6.2
 50
55.5304210526
 51
62.7515948587
  0
ARC
  8
0
 62
7
  6
CONTINUOUS
 10
139.4526015068
 20
133.9965554177
 40
2.0
 50
123.6217865649
 51
176.4799237876
  0
ARC
  8
0
 62
7
  6
CONTINUOUS
 10
157.2623039303
 20
150.6599396755
 40
2.0
 50
142.569154986
 51
195.4272922087
  0
ARC
  8
0
 62
7
  6
CONTINUOUS
 10
148.1651756799
 20
140.7778240937
 40
2.0
 50
79.3095498966
 51
132.1676871193
  0
ARC
  8
0
 62
7
  6
CONTINUOUS
 10
137.5082532209
 20
130.1483848286
 40
0.8
 50
300.805160129
 51
20.2590526316
  0
ARC
  8
0
 62
7
  6
CONTINUOUS
 10
156.6728047453
 20
146.388944727
 40
0.8
 50
319.75252855
 51
39.2064210526
  0
ARC
  8
0
 62
7
  6
CONTINUOUS
 10
152.3729025585
 20
141.7180058075
 40
0.8
 50
235.5304210526
 51
314.9843135552
  0
ARC
  8
0
 62
7
  6
CONTINUOUS
 10
173.3268300938
 20
179.1705992485
 40
6.2
 50
93.4251578947
 51
100.6463317008
  0
ARC
  8
0
 62
7
  6
CONTINUOUS
 10
173.3268300938
 20
179.1705992485
 40
6.2
 50
102.6212426089
 51
117.2042867387
  0
ARC
  8
0
 62
7
  6
CONTINUOUS
 10
172.1629612929
 20
174.5745852917
 40
6.2
 50
214.3746606297
 51
228.9577047595
  0
ARC
  8
0
 62
7
  6
CONTINUOUS
 10
172.1629612929
 20
174.5745852917
 40
6.2
 50
230.9326156676
 51
238.1537894737
  0
ARC
  8
0
 62
7
  6
CONTINUOUS
 10
171.4067393204
 20
182.90600437
 40
2.0
 50
117.2042867387
 51
170.0624239614
  0
ARC
  8
0
 62
7
  6
CONTINUOUS
 10
163.3009324631
 20
159.9027487193
 40
2.0
 50
98.2569183177
 51
151.1150555404
  0
ARC
  8
0
 62
7
  6
CONTINUOUS
 10
168.6964355282
 20
172.2032567353
 40
2.0
 50
161.516523407
 51
214.3746606297
  0
ARC
  8
0
 62
7
  6
CONTINUOUS
 10
174.1497554919
 20
186.2323791868
 40
0.8
 50
273.4251578947
 51
352.8790503973
  0
ARC
  8
0
 62
7
  6
CONTINUOUS
 10
174.6740324293
 20
192.5594608917
 40
0.8
 50
357.6472653922
 51
77.1011578947
  0
ARC
  8
0
 62
7
  6
CONTINUOUS
 10
166.9753965898
 20
162.1582354786
 40
0.8
 50
254.4777894737
 51
333.9316819763
  0
ARC
  8
0
 62
7
  6
CONTINUOUS
 10
169.5256668279
 20
167.9722660013
 40
0.8
 50
338.6998969711
 51
58.1537894737
  0
ARC
  8
0
 62
7
  6
CONTINUOUS
 10
98.4283590963
 20
195.6920952455
 40
72.09
 50
95.2007339333
 51
103.7466344877
  0
ARC
  8
0
 62
7
  6
CONTINUOUS
 10
98.4283590963
 20
195.6920952455
 40
72.09
 50
76.2533655123
 51
84.7992660667
  0
ARC
  8
0
 62
7
  6
CONTINUOUS
 10
98.4283590963
 20
195.6920952455
 40
72.09
 50
114.1481023544
 51
122.6940029088
  0
ARC
  8
0
 62
7
  6
CONTINUOUS
 10
98.4283590963
 20
195.6920952455
 40
72.09
 50
133.0954707754
 51
141.6413713298
  0
ARC
  8
0
 62
7
  6
CONTINUOUS
 10
98.4283590963
 20
195.6920952455
 40
72.09
 50
152.0428391965
 51
160.5887397509
  0
ARC
  8
0
 62
7
  6
CONTINUOUS
 10
98.4283590963
 20
195.6920952455
 40
72.09
 50
170.9902076175
 51
179.5361081719
  0
ARC
  8
0
 62
7
  6
CONTINUOUS
 10
98.4283590963
 20
195.6920952455
 40
72.09
 50
189.9375760386
 51
198.483476593
  0
ARC
  8
0
 62
7
  6
CONTINUOUS
 10
98.4283590963
 20
195.6920952455
 40
72.09
 50
57.3059970912
 51
65.8518976456
  0
ARC
  8
0
 62
7
  6
CONTINUOUS
 10
98.4283590963
 20
195.6920952455
 40
72.09
 50
208.8849444596
 51
217.430845014
  0
ARC
  8
0
 62
7
  6
CONTINUOUS
 10
98.4283590963
 20
195.6920952455
 40
72.09
 50
227.8323128807
 51
236.3782134351
  0
ARC
  8
0
 62
7
  6
CONTINUOUS
 10
98.4283590963
 20
195.6920952455
 40
72.09
 50
38.3586286702
 51
46.9045292246
  0
ARC
  8
0
 62
7
  6
CONTINUOUS
 10
98.4283590963
 20
195.6920952455
 40
72.09
 50
246.7796813018
 51
255.3255818561
  0
ARC
  8
0
 62
7
  6
CONTINUOUS
 10
98.4283590963
 20
195.6920952455
 40
72.09
 50
265.7270497228
 51
274.2729502772
  0
ARC
  8
0
 62
7
  6
CONTINUOUS
 10
98.4283590963
 20
195.6920952455
 40
72.09
 50
19.4112602491
 51
27.9571608035
  0
ARC
  8
0
 62
7
  6
CONTINUOUS
 10
98.4283590963
 20
195.6920952455
 40
72.09
 50
284.6744181439
 51
293.2203186982
  0
ARC
  8
0
 62
7
  6
CONTINUOUS
 10
98.4283590963
 20
195.6920952455
 40
72.09
 50
0.4638918281
 51
9.0097923825
  0
ARC
  8
0
 62
7
  6
CONTINUOUS
 10
98.4283590963
 20
195.6920952455
 40
72.09
 50
303.6217865649
 51
312.1676871193
  0
ARC
  8
0
 62
7
  6
CONTINUOUS
 10
98.4283590963
 20
195.6920952455
 40
72.09
 50
322.569154986
 51
331.1150555404
  0
ARC
  8
0
 62
7
  6
CONTINUOUS
 10
98.4283590963
 20
195.6920952455
 40
72.09
 50
341.516523407
 51
350.0624239614
  0
CIRCLE
  8
1_AXIS
 62
7
  6
CONTINUOUS
 10
98.4283590963
 20
195.6920952455
 40
62.5
  0
ARC
  8
0
 62
7
  6
CONTINUOUS
 10
98.4283590963
 20
221.1479393682
 40
4.0
 50
345.0
 51
195.0
  0
ARC
  8
0
 62
7
  6
CONTINUOUS
 10
123.884203219
 20
195.6920952455
 40
4.0
 50
255.0
 51
105.0
  0
ARC
  8
0
 62
7
  6
CONTINUOUS
 10
108.7083590963
 20
271.6990843171
 40
6.2
 50
197.3580847142
 51
211.941128844
  0
ARC
  8
0
 62
7
  6
CONTINUOUS
 10
108.7083590963
 20
271.6990843171
 40
6.2
 50
188.162
 51
195.3831738061
  0
ARC
  8
0
 62
7
  6
CONTINUOUS
 10
132.8307893484
 20
264.2429054558
 40
6.2
 50
169.2146315789
 51
176.435805385
  0
ARC
  8
0
 62
7
  6
CONTINUOUS
 10
132.8307893484
 20
264.2429054558
 40
6.2
 50
178.4107162932
 51
192.9937604229
  0
ARC
  8
0
 62
7
  6
CONTINUOUS
 10
113.384786859
 20
270.9187265426
 40
6.2
 50
309.111502735
 51
323.6945468647
  0
ARC
  8
0
 62
7
  6
CONTINUOUS
 10
113.384786859
 20
270.9187265426
 40
6.2
 50
325.6694577729
 51
332.8906315789
  0
ARC
  8
0
 62
7
  6
CONTINUOUS
 10
105.1442721165
 20
269.4770843171
 40
2.0
 50
211.941128844
 51
264.7992660667
  0
ARC
  8
0
 62
7
  6
CONTINUOUS
 10
128.7383322114
 20
263.2985566953
 40
2.0
 50
192.9937604229
 51
245.8518976456
  0
ARC
  8
0
 62
7
  6
CONTINUOUS
 10
116.0342795549
 20
267.659863481
 40
2.0
 50
256.2533655123
 51
309.111502735
  0
CIRCLE
  8
0
 62
7
  6
CONTINUOUS
 10
98.4283590963
 20
260.6920952455
 40
0.8660254038
  0
ARC
  8
0
 62
7
  6
CONTINUOUS
 10
101.602742076
 20
271.9360418425
 40
0.8
 50
8.162
 51
87.6158925026
  0
ARC
  8
0
 62
7
  6
CONTINUOUS
 10
126.1871142404
 20
266.7742140437
 40
0.8
 50
349.214631579
 51
68.6685240815
  0
ARC
  8
0
 62
7
  6
CONTINUOUS
 10
120.1823419325
 20
268.8356549808
 40
0.8
 50
73.4367390764
 51
152.8906315789
  0
ARC
  8
0
 62
7
  6
CONTINUOUS
 10
167.6814895263
 20
228.6579065261
 40
6.2
 50
131.3198947368
 51
138.5410685429
  0
ARC
  8
0
 62
7
  6
CONTINUOUS
 10
167.6814895263
 20
228.6579065261
 40
6.2
 50
140.5159794511
 51
155.0990235808
  0
ARC
  8
0
 62
7
  6
CONTINUOUS
 10
174.6331453234
 20
204.38527325
 40
6.2
 50
112.3725263158
 51
119.5937001219
  0
ARC
  8
0
 62
7
  6
CONTINUOUS
 10
174.6331453234
 20
204.38527325
 40
6.2
 50
121.56861103
 51
136.1516551598
  0
ARC
  8
0
 62
7
  6
CONTINUOUS
 10
169.5859637078
 20
224.3161427177
 40
6.2
 50
252.2693974718
 51
266.8524416016
  0
ARC
  8
0
 62
7
  6
CONTINUOUS
 10
169.5859637078
 20
224.3161427177
 40
6.2
 50
268.8273525097
 51
276.0485263158
  0
ARC
  8
0
 62
7
  6
CONTINUOUS
 10
175.0246614367
 20
199.6603764247
 40
6.2
 50
233.3220290508
 51
247.9050731805
  0
ARC
  8
0
 62
7
  6
CONTINUOUS
 10
175.0246614367
 20
199.6603764247
 40
6.2
 50
249.8799840886
 51
257.1011578947
  0
ARC
  8
0
 62
7
  6
CONTINUOUS
 10
163.8719348026
 20
230.4263218639
 40
2.0
 50
155.0990235808
 51
207.9571608035
  0
ARC
  8
0
 62
7
  6
CONTINUOUS
 10
171.6042063041
 20
207.2948313637
 40
2.0
 50
136.1516551598
 51
189.0097923825
  0
ARC
  8
0
 62
7
  6
CONTINUOUS
 10
168.3068879454
 20
220.3156470992
 40
2.0
 50
199.4112602491
 51
252.2693974718
  0
ARC
  8
0
 62
7
  6
CONTINUOUS
 10
172.5159307233
 20
196.2919539145
 40
2.0
 50
180.4638918281
 51
233.3220290508
  0
ARC
  8
0
 62
7
  6
CONTINUOUS
 10
173.1185261559
 20
211.3316299127
 40
0.8
 50
292.3725263158
 51
11.8264188184
  0
ARC
  8
0
 62
7
  6
CONTINUOUS
 10
171.5599962517
 20
217.4861253221
 40
0.8
 50
16.5946338132
 51
96.0485263158
  0
ARC
  8
0
 62
7
  6
CONTINUOUS
 10
153.225182474
 20
249.3581826327
 40
6.2
 50
150.2672631579
 51
157.488436964
  0
ARC
  8
0
 62
7
  6
CONTINUOUS
 10
153.225182474
 20
249.3581826327
 40
6.2
 50
159.4633478721
 51
174.0463920019
  0
ARC
  8
0
 62
7
  6
CONTINUOUS
 10
137.0004536008
 20
261.9863960056
 40
6.2
 50
290.1641343139
 51
304.7471784437
  0
ARC
  8
0
 62
7
  6
CONTINUOUS
 10
137.0004536008
 20
261.9863960056
 40
6.2
 50
306.7220893518
 51
313.9432631579
  0
ARC
  8
0
 62
7
  6
CONTINUOUS
 10
156.4362353953
 20
245.8700493192
 40
6.2
 50
271.2167658929
 51
285.7998100226
  0
ARC
  8
0
 62
7
  6
CONTINUOUS
 10
156.4362353953
 20
245.8700493192
 40
6.2
 50
287.7747209307
 51
294.9958947368
  0
ARC
  8
0
 62
7
  6
CONTINUOUS
 10
149.0478364116
 20
249.793819953
 40
2.0
 50
174.0463920019
 51
226.9045292246
  0
ARC
  8
0
 62
7
  6
CONTINUOUS
 10
138.448238368
 20
258.0438182616
 40
2.0
 50
237.3059970912
 51
290.1641343139
  0
ARC
  8
0
 62
7
  6
CONTINUOUS
 10
156.5254222896
 20
241.6709963667
 40
2.0
 50
218.3586286702
 51
271.2167658929
  0
ARC
  8
0
 62
7
  6
CONTINUOUS
 10
147.7633945635
 20
253.9095357204
 40
0.8
 50
330.2672631579
 51
49.7211556605
  0
ARC
  8
0
 62
7
  6
CONTINUOUS
 10
142.7533261603
 20
257.8090284825
 40
0.8
 50
54.4893706553
 51
133.9432631579
  0
ARC
  8
0
 62
7
  6
CONTINUOUS
 10
163.9934582817
 20
234.736094385
 40
0.8
 50
311.3198947368
 51
30.7737872394
  0
ARC
  8
0
 62
7
  6
CONTINUOUS
 10
160.5210124339
 20
240.0510684245
 40
0.8
 50
35.5420022343
 51
114.9958947368
  0
ARC
  8
1_AXIS
 62
7
  6
CONTINUOUS
 10
158.9283590963
 20
77.8856272295
 40
2.0
 50
0.0
 51
90.0
  0
ARC
  8
1_AXIS
 62
7
  6
CONTINUOUS
 10
158.9283590963
 20
56.8856272295
 40
2.0
 50
270.0
 51
360.0
  0
ARC
  8
1_AXIS
 62
7
  6
CONTINUOUS
 10
37.9283590963
 20
77.8856272295
 40
2.0
 50
90.0
 51
180.0
  0
ARC
  8
1_AXIS
 62
7
  6
CONTINUOUS
 10
37.9283590963
 20
56.8856272295
 40
2.0
 50
180.0
 51
270.0
  0
ARC
  8
1_AXIS
 62
7
  6
CONTINUOUS
 10
161.9283590963
 20
72.3856272295
 40
1.0
 50
180.0
 51
270.0
  0
ARC
  8
1_AXIS
 62
7
  6
CONTINUOUS
 10
161.9283590963
 20
62.3856272295
 40
1.0
 50
90.0
 51
180.0
  0
ARC
  8
1_AXIS
 62
7
  6
CONTINUOUS
 10
34.9283590963
 20
72.3856272295
 40
1.0
 50
270.0
 51
360.0
  0
ARC
  8
1_AXIS
 62
7
  6
CONTINUOUS
 10
34.9283590963
 20
62.3856272295
 40
1.0
 50
0.0
 51
90.0
  0
ENDSEC
  0
EOF
