  0
SECTION
  2
HEADER
  9
$EXTMAX
 10
210.0
 20
297.0
 30
0.0
  9
$EXTMIN
 10
0.0
 20
0.0
 30
0.0
  9
$LIMMIN
 10
0.0
 20
0.0
  9
$LIMMAX
 10
210.0
 20
297.0
  9
$VIEWCTR
 10
105.0
 20
148.5
  9
$VIEWSIZE
 40
297.0
  9
$CLAYER
  8
0
  9
$LTSCALE
 40
19.36
  9
$CELTYPE
  6
BYLAYER
  9
$DIMSCALE
 40
1.0
  9
$DIMASZ
 40
3.5
  9
$DIMEXO
 40
1.0
  9
$DIMDLI
 40
13.376
  9
$DIMEXE
 40
2.0
  9
$DIMCEN
 40
3.168
  9
$DIMLFAC
 40
1.0
  9
$DIMBLK
  1
_FILLED
  9
$DIMALT
 70
0
  9
$DIMALTF
 40
0.0393700787
  9
$DIMTXT
 40
3.5
  9
$AUNITS
 70
0
  9
$PDMODE
 70
3
  9
$PDSIZE
 40
0.3125
  9
$TILEMODE
 70
1
  0
ENDSEC
  0
SECTION
  2
TABLES
  0
TABLE
  2
LTYPE
 70
6
  0
LTYPE
  2
BYBLOCK
 70
0
  3

 72
65
 73
0
 40
0.0
  0
LTYPE
  2
BYLAYER
 70
0
  3

 72
65
 73
0
 40
0.0
  0
LTYPE
  2
CONTINUOUS
 70
64
  3
Solid line
 72
65
 73
0
 40
0.0
  0
LTYPE
  2
CENTER
 70
64
  3
____ _ ____ _ ____ _ ____ _ ____ _ ____ _ ____
 72
65
 73
4
 40
0.6
 49
0.375
 49
-0.075
 49
0.075
 49
-0.075
  0
LTYPE
  2
HIDDEN
 70
64
  3
- - - - - - - - - - - - - - - - - - - -
 72
65
 73
2
 40
0.2
 49
0.1
 49
-0.1
  0
LTYPE
  2
PHANTOM
 70
64
  3
_____ _ _ _____ _ _ _____ _ _ _____
 72
65
 73
6
 40
0.8
 49
0.45
 49
-0.05
 49
0.1
 49
-0.05
 49
0.1
 49
-0.05
  0
LTYPE
  2
DOT
 70
64
  3
. . . . . . . . . . . . . . . . . . . .
 72
65
 73
2
 40
0.2
 49
0.1
 49
-0.1
  0
LTYPE
  2
DASHED
 70
64
  3
- - - - - - - - - - - - - - - - - - - -
 72
65
 73
2
 40
0.2
 49
0.1
 49
-0.1
  0
ENDTAB
  0
TABLE
  2
LAYER
 70
36
  0
LAYER
  2
0
 70
0
 62
7
  6
CONTINUOUS
  0
LAYER
  2
DEFAULT_1
 70
0
 62
7
  6
CENTER
  0
LAYER
  2
DEFAULT_2
 70
0
 62
8
  6
HIDDEN
  0
LAYER
  2
DEFAULT_3
 70
0
 62
7
  6
PHANTOM
  0
LAYER
  2
1_AXIS
 70
0
 62
7
  6
CONTINUOUS
  0
LAYER
  2
1_CSYS
 70
0
 62
7
  6
CONTINUOUS
  0
LAYER
  2
1_DATUM_PLANE
 70
0
 62
7
  6
CONTINUOUS
  0
LAYER
  2
2_FEATURE
 70
0
 62
7
  6
CONTINUOUS
  0
LAYER
  2
6_DIM
 70
0
 62
7
  6
CONTINUOUS
  0
LAYER
  2
AXES
 70
0
 62
7
  6
CONTINUOUS
  0
LAYER
  2
CSYS
 70
0
 62
7
  6
CONTINUOUS
  0
LAYER
  2
PITCH
 70
0
 62
7
  6
CONTINUOUS
  0
LAYER
  2
PLANES
 70
0
 62
7
  6
CONTINUOUS
  0
LAYER
  2
QUILTS
 70
0
 62
7
  6
CONTINUOUS
  0
LAYER
  2
SQ
 70
0
 62
7
  6
CONTINUOUS
  0
ENDTAB
  0
TABLE
  2
STYLE
 70
1
  0
STYLE
  2
STANDARD
 70
0
 40
0.0
 41
0.8
 50
0.0
 71
0
 42
0.2
  3
txt
  4

  0
STYLE
  2
TEXTSTYLE_1
 70
0
 40
0.0
 41
0.8
 50
0.0
 71
0
 42
0.2
  3
gdt
  4

  0
STYLE
  2
TEXTSTYLE_2
 70
0
 40
0.0
 41
0.6
 50
0.0
 71
0
 42
0.2
  3
txt
  4

  0
STYLE
  2
TEXTSTYLE_3
 70
0
 40
0.0
 41
1.0
 50
0.0
 71
0
 42
0.2
  3
ftb_____.ttf
  4

  0
STYLE
  2
TEXTSTYLE_4
 70
0
 40
0.0
 41
1.0
 50
0.0
 71
0
 42
0.2
  3
fti_____.ttf
  4

  0
STYLE
  2
TEXTSTYLE_5
 70
0
 40
0.0
 41
1.0
 50
0.0
 71
0
 42
0.2
  3
frutiger light.ttf
  4

  0
STYLE
  2
TEXTSTYLE_6
 70
0
 40
0.0
 41
0.7
 50
0.0
 71
0
 42
0.2
  3
txt
  4

  0
STYLE
  2
TEXTSTYLE_7
 70
0
 40
0.0
 41
0.6
 50
0.0
 71
0
 42
0.2
  3
txt
  4

  0
ENDTAB
  0
ENDSEC
  0
SECTION
  2
BLOCKS
  0
BLOCK
  8
0
 62
2
  6
CONTINUOUS
  2
UNI_LOGO2_BL1
 70
64
 10
173.5956734183
 20
35.5937998301
  0
TEXT
  8
0
 62
7
  6
CONTINUOUS
 10
164.6539584268
 20
30.6865562072
  7
TEXTSTYLE_4
 40
1.0655737705
  1
The brand for plastic modular belts and chains
 41
1.0
 72
0
  0
LINE
  8
0
 62
7
  6
CONTINUOUS
 10
149.5737418074
 20
36.1675703219
 11
149.5737418074
 21
34.0364227809
  0
LINE
  8
0
 62
7
  6
CONTINUOUS
 10
149.8628043005
 20
31.0454914852
 11
149.8628043005
 21
31.1422825445
  0
LINE
  8
0
 62
7
  6
CONTINUOUS
 10
149.5737418074
 20
31.1100188581
 11
149.6315543091
 21
30.9164367395
  0
LINE
  8
0
 62
7
  6
CONTINUOUS
 10
150.9671844304
 20
33.9544555678
 11
150.9671844304
 21
36.1675703219
  0
LINE
  8
0
 62
7
  6
CONTINUOUS
 10
151.8862417523
 20
32.1101932727
 11
151.8862417523
 21
30.5937998301
  0
LINE
  8
0
 62
7
  6
CONTINUOUS
 10
152.1753043074
 20
30.5937998301
 11
152.1753043074
 21
31.3358647082
  0
LINE
  8
0
 62
7
  6
CONTINUOUS
 10
152.1753043074
 20
31.4649194539
 11
152.1753043074
 21
32.1101932727
  0
LINE
  8
0
 62
7
  6
CONTINUOUS
 10
149.6315543091
 20
31.3036010218
 11
149.5737418074
 21
31.1100188581
  0
LINE
  8
0
 62
7
  6
CONTINUOUS
 10
149.9784292936
 20
30.8841730531
 11
149.8628043005
 21
31.0454914852
  0
LINE
  8
0
 62
7
  6
CONTINUOUS
 10
151.0768668626
 20
31.400392081
 11
151.1346793074
 21
31.3036010218
  0
LINE
  8
0
 62
7
  6
CONTINUOUS
 10
151.4237418626
 20
31.3036010218
 11
151.3659292523
 21
31.4326557675
  0
LINE
  8
0
 62
7
  6
CONTINUOUS
 10
152.852430332
 20
36.1675703219
 11
152.852430332
 21
34.3642916334
  0
LINE
  8
0
 62
7
  6
CONTINUOUS
 10
152.852430332
 20
33.0528162235
 11
152.852430332
 21
32.3970785186
  0
LINE
  8
0
 62
7
  6
CONTINUOUS
 10
153.2159293074
 20
31.2390736489
 11
153.2159293074
 21
30.5937998301
  0
LINE
  8
0
 62
7
  6
CONTINUOUS
 10
153.5049916972
 20
30.5937998301
 11
153.5049916972
 21
31.2390736489
  0
LINE
  8
0
 62
7
  6
CONTINUOUS
 10
149.8628043005
 20
31.1422825445
 11
149.9206168074
 21
31.2713373354
  0
LINE
  8
0
 62
7
  6
CONTINUOUS
 10
149.6315543091
 20
30.9164367395
 11
149.7471793074
 21
30.7873819712
  0
LINE
  8
0
 62
7
  6
CONTINUOUS
 10
153.1581166972
 20
31.3681283946
 11
153.2159293074
 21
31.2390736489
  0
LINE
  8
0
 62
7
  6
CONTINUOUS
 10
153.9674919177
 20
30.8841730531
 11
154.0253041972
 21
30.7551182848
  0
LINE
  8
0
 62
7
  6
CONTINUOUS
 10
153.5049916972
 20
31.2390736489
 11
153.4471794177
 21
31.400392081
  0
LINE
  8
0
 62
7
  6
CONTINUOUS
 10
153.9674919177
 20
31.4326557675
 11
153.9674919177
 21
31.3681283946
  0
LINE
  8
0
 62
7
  6
CONTINUOUS
 10
153.9674919177
 20
30.9809641124
 11
153.9674919177
 21
30.8841730531
  0
LINE
  8
0
 62
7
  6
CONTINUOUS
 10
154.245872955
 20
32.3970785186
 11
154.245872955
 21
36.1675703219
  0
LINE
  8
0
 62
7
  6
CONTINUOUS
 10
154.2565543074
 20
30.8519093441
 11
154.2565543074
 21
30.9164367395
  0
LINE
  8
0
 62
7
  6
CONTINUOUS
 10
154.5737418074
 20
36.1675703219
 11
154.5737418074
 21
32.3970785186
  0
LINE
  8
0
 62
7
  6
CONTINUOUS
 10
151.3659292523
 20
30.7873819712
 11
151.4237418626
 21
30.9164367395
  0
LINE
  8
0
 62
7
  6
CONTINUOUS
 10
155.759679528
 20
30.6905909007
 11
155.7018665869
 21
30.8519093441
  0
LINE
  8
0
 62
7
  6
CONTINUOUS
 10
155.412804528
 20
31.3681283946
 11
155.412804528
 21
31.2713373354
  0
LINE
  8
0
 62
7
  6
CONTINUOUS
 10
155.412804528
 20
31.1422825445
 11
155.412804528
 21
30.9487004259
  0
LINE
  8
0
 62
7
  6
CONTINUOUS
 10
155.7018665869
 20
30.8519093441
 11
155.7018665869
 21
31.3681283946
  0
LINE
  8
0
 62
7
  6
CONTINUOUS
 10
155.9671844304
 20
32.3970785186
 11
155.9671844304
 21
34.2003572071
  0
LINE
  8
0
 62
7
  6
CONTINUOUS
 10
155.9671844304
 20
35.511832617
 11
155.9671844304
 21
36.1675703219
  0
LINE
  8
0
 62
7
  6
CONTINUOUS
 10
156.279992028
 20
32.1101932727
 11
156.279992028
 21
31.9488748406
  0
LINE
  8
0
 62
7
  6
CONTINUOUS
 10
156.279992028
 20
31.626237886
 11
156.279992028
 21
30.5937998301
  0
LINE
  8
0
 62
7
  6
CONTINUOUS
 10
156.5690540869
 20
30.5937998301
 11
156.5690540869
 21
31.626237886
  0
LINE
  8
0
 62
7
  6
CONTINUOUS
 10
156.5690540869
 20
31.9488748406
 11
156.5690540869
 21
32.1101932727
  0
LINE
  8
0
 62
7
  6
CONTINUOUS
 10
151.1346793074
 20
30.9164367395
 11
151.0768668626
 21
30.8196456577
  0
LINE
  8
0
 62
7
  6
CONTINUOUS
 10
153.4471794177
 20
31.400392081
 11
153.3893668074
 21
31.4649194539
  0
LINE
  8
0
 62
7
  6
CONTINUOUS
 10
154.3143669177
 20
30.7873819712
 11
154.2565543074
 21
30.8519093441
  0
LINE
  8
0
 62
7
  6
CONTINUOUS
 10
155.4706168074
 20
30.6583272086
 11
155.5284290869
 21
30.5937998301
  0
LINE
  8
0
 62
7
  6
CONTINUOUS
 10
155.412804528
 20
30.7551182848
 11
155.4706168074
 21
30.6583272086
  0
LINE
  8
0
 62
7
  6
CONTINUOUS
 10
155.8174918074
 20
30.5937998301
 11
155.759679528
 21
30.6905909007
  0
LINE
  8
0
 62
7
  6
CONTINUOUS
 10
155.7018665869
 20
31.3681283946
 11
155.6440543074
 21
31.4649194539
  0
LINE
  8
0
 62
7
  6
CONTINUOUS
 10
157.0315543074
 20
31.626237886
 11
157.0315543074
 21
30.5937998301
  0
LINE
  8
0
 62
7
  6
CONTINUOUS
 10
157.320617028
 20
30.5937998301
 11
157.320617028
 21
31.3358647082
  0
LINE
  8
0
 62
7
  6
CONTINUOUS
 10
157.320617028
 20
31.4649194539
 11
157.320617028
 21
31.626237886
  0
LINE
  8
0
 62
7
  6
CONTINUOUS
 10
157.852430332
 20
34.6101932727
 11
157.852430332
 21
32.3970785186
  0
LINE
  8
0
 62
7
  6
CONTINUOUS
 10
149.7471793074
 20
31.4326557675
 11
149.6315543091
 21
31.3036010218
  0
LINE
  8
0
 62
7
  6
CONTINUOUS
 10
149.9206168074
 20
31.2713373354
 11
149.9784292936
 21
31.3358647082
  0
LINE
  8
0
 62
7
  6
CONTINUOUS
 10
149.7471793074
 20
30.7873819712
 11
149.8628043005
 21
30.7228545871
  0
LINE
  8
0
 62
7
  6
CONTINUOUS
 10
150.1518667936
 20
30.7873819712
 11
149.9784292936
 21
30.8841730531
  0
LINE
  8
0
 62
7
  6
CONTINUOUS
 10
155.3549915869
 20
31.4326557675
 11
155.412804528
 21
31.3681283946
  0
LINE
  8
0
 62
7
  6
CONTINUOUS
 10
158.3034290869
 20
31.3681283946
 11
158.361242028
 21
31.2068099625
  0
LINE
  8
0
 62
7
  6
CONTINUOUS
 10
158.6503040869
 20
31.2068099625
 11
158.5924918074
 21
31.3681283946
  0
LINE
  8
0
 62
7
  6
CONTINUOUS
 10
158.361242028
 20
31.2068099625
 11
158.361242028
 21
30.5937998301
  0
LINE
  8
0
 62
7
  6
CONTINUOUS
 10
158.6503040869
 20
30.5937998301
 11
158.6503040869
 21
31.2068099625
  0
LINE
  8
0
 62
7
  6
CONTINUOUS
 10
159.1128043074
 20
31.4326557675
 11
159.1128043074
 21
31.3681283946
  0
LINE
  8
0
 62
7
  6
CONTINUOUS
 10
159.245872955
 20
32.3970785186
 11
159.245872955
 21
34.5282260596
  0
LINE
  8
0
 62
7
  6
CONTINUOUS
 10
159.5737418074
 20
36.1675703219
 11
159.5737418074
 21
32.3970785186
  0
LINE
  8
0
 62
7
  6
CONTINUOUS
 10
154.2565543074
 20
30.9164367395
 11
154.3143669177
 21
31.0132277988
  0
LINE
  8
0
 62
7
  6
CONTINUOUS
 10
149.8628043005
 20
30.7228545871
 11
150.0362418212
 21
30.6583272086
  0
LINE
  8
0
 62
7
  6
CONTINUOUS
 10
151.3659292523
 20
31.4326557675
 11
151.1924917523
 21
31.5294468267
  0
LINE
  8
0
 62
7
  6
CONTINUOUS
 10
154.0253041972
 20
30.7551182848
 11
154.1987416972
 21
30.6583272086
  0
LINE
  8
0
 62
7
  6
CONTINUOUS
 10
153.0424918074
 20
31.4326557675
 11
153.1581166972
 21
31.3681283946
  0
LINE
  8
0
 62
7
  6
CONTINUOUS
 10
153.3893668074
 20
31.4649194539
 11
153.2737419177
 21
31.5294468267
  0
LINE
  8
0
 62
7
  6
CONTINUOUS
 10
159.1128043074
 20
30.8519093441
 11
159.228429528
 21
30.7228545871
  0
LINE
  8
0
 62
7
  6
CONTINUOUS
 10
159.4596793074
 20
30.7873819712
 11
159.401867028
 21
30.8519093441
  0
LINE
  8
0
 62
7
  6
CONTINUOUS
 10
159.1128043074
 20
31.3681283946
 11
159.228429528
 21
31.2390736489
  0
LINE
  8
0
 62
7
  6
CONTINUOUS
 10
158.5924918074
 20
31.3681283946
 11
158.534679528
 21
31.4649194539
  0
LINE
  8
0
 62
7
  6
CONTINUOUS
 10
160.9628038663
 20
30.7873819712
 11
160.9628038663
 21
30.8519093441
  0
LINE
  8
0
 62
7
  6
CONTINUOUS
 10
160.9671844304
 20
32.3970785186
 11
160.9671844304
 21
36.1675703219
  0
LINE
  8
0
 62
7
  6
CONTINUOUS
 10
154.0253041972
 20
31.4971831403
 11
153.9674919177
 21
31.4326557675
  0
LINE
  8
0
 62
7
  6
CONTINUOUS
 10
150.9034292799
 20
31.4649194539
 11
151.0768668626
 21
31.400392081
  0
LINE
  8
0
 62
7
  6
CONTINUOUS
 10
155.6440543074
 20
31.4649194539
 11
155.5284290869
 21
31.5294468267
  0
LINE
  8
0
 62
7
  6
CONTINUOUS
 10
159.4596793074
 20
31.3036010218
 11
159.401867028
 21
31.3681283946
  0
LINE
  8
0
 62
7
  6
CONTINUOUS
 10
160.615929528
 20
30.9164367395
 11
160.6737418074
 21
30.8519093441
  0
LINE
  8
0
 62
7
  6
CONTINUOUS
 10
160.9628038663
 20
30.8519093441
 11
160.8471793074
 21
30.9809641124
  0
LINE
  8
0
 62
7
  6
CONTINUOUS
 10
160.615929528
 20
31.4326557675
 11
160.6737418074
 21
31.3681283946
  0
LINE
  8
0
 62
7
  6
CONTINUOUS
 10
160.9628038663
 20
31.3681283946
 11
160.8471793074
 21
31.4971831403
  0
LINE
  8
0
 62
7
  6
CONTINUOUS
 10
154.2565543074
 20
31.3681283946
 11
154.3143669177
 21
31.4326557675
  0
LINE
  8
0
 62
7
  6
CONTINUOUS
 10
154.0831168074
 20
31.1100188581
 11
153.9674919177
 21
30.9809641124
  0
LINE
  8
0
 62
7
  6
CONTINUOUS
 10
155.412804528
 20
30.9487004259
 11
155.3549915869
 21
30.8841730531
  0
LINE
  8
0
 62
7
  6
CONTINUOUS
 10
155.3549915869
 20
30.6905909007
 11
155.412804528
 21
30.7551182848
  0
LINE
  8
0
 62
7
  6
CONTINUOUS
 10
154.1987416972
 20
30.6583272086
 11
154.3143669177
 21
30.6260635193
  0
LINE
  8
0
 62
7
  6
CONTINUOUS
 10
151.1924917523
 20
31.5294468267
 11
150.9612418074
 21
31.5939741996
  0
LINE
  8
0
 62
7
  6
CONTINUOUS
 10
154.5456166972
 20
30.7228545871
 11
154.3143669177
 21
30.7873819712
  0
LINE
  8
0
 62
7
  6
CONTINUOUS
 10
153.2737419177
 20
31.5294468267
 11
153.1003044177
 21
31.5939741996
  0
LINE
  8
0
 62
7
  6
CONTINUOUS
 10
155.5284290869
 20
31.5294468267
 11
155.3549915869
 21
31.5939741996
  0
LINE
  8
0
 62
7
  6
CONTINUOUS
 10
158.187804528
 20
31.4326557675
 11
158.3034290869
 21
31.3681283946
  0
LINE
  8
0
 62
7
  6
CONTINUOUS
 10
158.534679528
 20
31.4649194539
 11
158.4190543074
 21
31.5294468267
  0
LINE
  8
0
 62
7
  6
CONTINUOUS
 10
150.0362418212
 20
30.6583272086
 11
150.2096793212
 21
30.6260635193
  0
LINE
  8
0
 62
7
  6
CONTINUOUS
 10
150.498741835
 20
30.7228545871
 11
150.1518667936
 21
30.7873819712
  0
LINE
  8
0
 62
7
  6
CONTINUOUS
 10
152.9268669177
 20
31.4649194539
 11
153.0424918074
 21
31.4326557675
  0
LINE
  8
0
 62
7
  6
CONTINUOUS
 10
155.239367028
 20
31.4649194539
 11
155.3549915869
 21
31.4326557675
  0
LINE
  8
0
 62
7
  6
CONTINUOUS
 10
159.575304528
 20
30.7551182848
 11
159.4596793074
 21
30.7873819712
  0
LINE
  8
0
 62
7
  6
CONTINUOUS
 10
158.0721793074
 20
31.4649194539
 11
158.187804528
 21
31.4326557675
  0
LINE
  8
0
 62
7
  6
CONTINUOUS
 10
159.228429528
 20
30.7228545871
 11
159.401867028
 21
30.6583272086
  0
LINE
  8
0
 62
7
  6
CONTINUOUS
 10
158.4190543074
 20
31.5294468267
 11
158.2456168074
 21
31.5939741996
  0
LINE
  8
0
 62
7
  6
CONTINUOUS
 10
159.6331168074
 20
31.2390736489
 11
159.4596793074
 21
31.3036010218
  0
LINE
  8
0
 62
7
  6
CONTINUOUS
 10
160.442492028
 20
30.9809641124
 11
160.615929528
 21
30.9164367395
  0
LINE
  8
0
 62
7
  6
CONTINUOUS
 10
160.8471793074
 20
31.4971831403
 11
160.6737418074
 21
31.5617105132
  0
LINE
  8
0
 62
7
  6
CONTINUOUS
 10
159.228429528
 20
31.2390736489
 11
159.4596793074
 21
31.1422825445
  0
LINE
  8
0
 62
7
  6
CONTINUOUS
 10
160.8471793074
 20
30.9809641124
 11
160.615929528
 21
31.0777551716
  0
LINE
  8
0
 62
7
  6
CONTINUOUS
 10
159.401867028
 20
31.3681283946
 11
159.4596793074
 21
31.4326557675
  0
LINE
  8
0
 62
7
  6
CONTINUOUS
 10
149.8628043005
 20
31.4971831403
 11
149.7471793074
 21
31.4326557675
  0
LINE
  8
0
 62
7
  6
CONTINUOUS
 10
149.9784292936
 20
31.3358647082
 11
150.1518667936
 21
31.4326557675
  0
LINE
  8
0
 62
7
  6
CONTINUOUS
 10
152.2909293626
 20
31.5294468267
 11
152.1753043074
 21
31.4649194539
  0
LINE
  8
0
 62
7
  6
CONTINUOUS
 10
152.1753043074
 20
31.3358647082
 11
152.2909293626
 21
31.400392081
  0
LINE
  8
0
 62
7
  6
CONTINUOUS
 10
151.1924917523
 20
30.6905909007
 11
151.3659292523
 21
30.7873819712
  0
LINE
  8
0
 62
7
  6
CONTINUOUS
 10
150.2096793212
 20
30.6260635193
 11
150.5565542799
 21
30.5937998301
  0
LINE
  8
0
 62
7
  6
CONTINUOUS
 10
154.3143669177
 20
30.6260635193
 11
154.5456166972
 21
30.5937998301
  0
LINE
  8
0
 62
7
  6
CONTINUOUS
 10
152.6956168074
 20
31.4971831403
 11
152.9268669177
 21
31.4649194539
  0
LINE
  8
0
 62
7
  6
CONTINUOUS
 10
155.0081169177
 20
31.4971831403
 11
155.239367028
 21
31.4649194539
  0
LINE
  8
0
 62
7
  6
CONTINUOUS
 10
159.4596793074
 20
31.1422825445
 11
160.442492028
 21
30.9809641124
  0
LINE
  8
0
 62
7
  6
CONTINUOUS
 10
160.615929528
 20
31.0777551716
 11
159.6331168074
 21
31.2390736489
  0
LINE
  8
0
 62
7
  6
CONTINUOUS
 10
153.1003044177
 20
31.5939741996
 11
152.9268669177
 21
31.626237886
  0
LINE
  8
0
 62
7
  6
CONTINUOUS
 10
159.401867028
 20
30.6583272086
 11
159.575304528
 21
30.6260635193
  0
LINE
  8
0
 62
7
  6
CONTINUOUS
 10
158.2456168074
 20
31.5939741996
 11
158.0721793074
 21
31.626237886
  0
LINE
  8
0
 62
7
  6
CONTINUOUS
 10
160.5003043074
 20
31.4649194539
 11
160.615929528
 21
31.4326557675
  0
LINE
  8
0
 62
7
  6
CONTINUOUS
 10
160.6737418074
 20
30.8519093441
 11
160.615929528
 21
30.7873819712
  0
LINE
  8
0
 62
7
  6
CONTINUOUS
 10
159.228429528
 20
31.5294468267
 11
159.1128043074
 21
31.4326557675
  0
LINE
  8
0
 62
7
  6
CONTINUOUS
 10
154.1409294177
 20
31.5617105132
 11
154.0253041972
 21
31.4971831403
  0
LINE
  8
0
 62
7
  6
CONTINUOUS
 10
154.1987416972
 20
31.1745462761
 11
154.0831168074
 21
31.1100188581
  0
LINE
  8
0
 62
7
  6
CONTINUOUS
 10
154.3143669177
 20
31.0132277988
 11
154.4299918074
 21
31.0777551716
  0
LINE
  8
0
 62
7
  6
CONTINUOUS
 10
151.8862417523
 20
30.5937998301
 11
152.1753043074
 21
30.5937998301
  0
LINE
  8
0
 62
7
  6
CONTINUOUS
 10
153.2159293074
 20
30.5937998301
 11
153.5049916972
 21
30.5937998301
  0
LINE
  8
0
 62
7
  6
CONTINUOUS
 10
154.5456166972
 20
30.5937998301
 11
154.8924916972
 21
30.5937998301
  0
LINE
  8
0
 62
7
  6
CONTINUOUS
 10
155.5284290869
 20
30.5937998301
 11
155.8174918074
 21
30.5937998301
  0
LINE
  8
0
 62
7
  6
CONTINUOUS
 10
156.279992028
 20
30.5937998301
 11
156.5690540869
 21
30.5937998301
  0
LINE
  8
0
 62
7
  6
CONTINUOUS
 10
157.0315543074
 20
30.5937998301
 11
157.320617028
 21
30.5937998301
  0
LINE
  8
0
 62
7
  6
CONTINUOUS
 10
158.361242028
 20
30.5937998301
 11
158.6503040869
 21
30.5937998301
  0
LINE
  8
0
 62
7
  6
CONTINUOUS
 10
159.922179528
 20
30.5937998301
 11
160.269054528
 21
30.5937998301
  0
LINE
  8
0
 62
7
  6
CONTINUOUS
 10
160.269054528
 20
30.7228545871
 11
159.922179528
 21
30.7228545871
  0
LINE
  8
0
 62
7
  6
CONTINUOUS
 10
154.8924916972
 20
30.7228545871
 11
154.5456166972
 21
30.7228545871
  0
LINE
  8
0
 62
7
  6
CONTINUOUS
 10
159.401867028
 20
30.8519093441
 11
159.1128043074
 21
30.8519093441
  0
LINE
  8
0
 62
7
  6
CONTINUOUS
 10
151.4237418626
 20
30.9164367395
 11
151.1346793074
 21
30.9164367395
  0
LINE
  8
0
 62
7
  6
CONTINUOUS
 10
150.498741835
 20
31.4971831403
 11
150.9034292799
 21
31.4649194539
  0
LINE
  8
0
 62
7
  6
CONTINUOUS
 10
150.9612418074
 20
31.5939741996
 11
150.5565542799
 21
31.626237886
  0
LINE
  8
0
 62
7
  6
CONTINUOUS
 10
159.575304528
 20
30.6260635193
 11
159.922179528
 21
30.5937998301
  0
LINE
  8
0
 62
7
  6
CONTINUOUS
 10
159.922179528
 20
30.7228545871
 11
159.575304528
 21
30.7551182848
  0
LINE
  8
0
 62
7
  6
CONTINUOUS
 10
155.3549915869
 20
31.5939741996
 11
155.0081169177
 21
31.626237886
  0
LINE
  8
0
 62
7
  6
CONTINUOUS
 10
160.1534293074
 20
31.4971831403
 11
160.5003043074
 21
31.4649194539
  0
LINE
  8
0
 62
7
  6
CONTINUOUS
 10
160.5003043074
 20
31.5939741996
 11
160.1534293074
 21
31.626237886
  0
LINE
  8
0
 62
7
  6
CONTINUOUS
 10
157.840929528
 20
31.4971831403
 11
158.0721793074
 21
31.4649194539
  0
LINE
  8
0
 62
7
  6
CONTINUOUS
 10
160.6737418074
 20
31.5617105132
 11
160.5003043074
 21
31.5939741996
  0
LINE
  8
0
 62
7
  6
CONTINUOUS
 10
160.8471793074
 20
30.6905909007
 11
160.9628038663
 21
30.7873819712
  0
LINE
  8
0
 62
7
  6
CONTINUOUS
 10
155.3549915869
 20
30.8841730531
 11
155.1815540869
 21
30.7873819712
  0
LINE
  8
0
 62
7
  6
CONTINUOUS
 10
157.4362415869
 20
31.5294468267
 11
157.320617028
 21
31.4649194539
  0
LINE
  8
0
 62
7
  6
CONTINUOUS
 10
157.320617028
 20
31.3358647082
 11
157.4362415869
 21
31.400392081
  0
LINE
  8
0
 62
7
  6
CONTINUOUS
 10
150.0362418212
 20
31.5617105132
 11
149.8628043005
 21
31.4971831403
  0
LINE
  8
0
 62
7
  6
CONTINUOUS
 10
152.4643666972
 20
31.5939741996
 11
152.2909293626
 21
31.5294468267
  0
LINE
  8
0
 62
7
  6
CONTINUOUS
 10
152.2909293626
 20
31.400392081
 11
152.4643666972
 21
31.4649194539
  0
LINE
  8
0
 62
7
  6
CONTINUOUS
 10
151.0768668626
 20
30.8196456577
 11
150.9034292799
 21
30.7551182848
  0
LINE
  8
0
 62
7
  6
CONTINUOUS
 10
160.5003043074
 20
30.7551182848
 11
160.269054528
 21
30.7228545871
  0
LINE
  8
0
 62
7
  6
CONTINUOUS
 10
154.8924916972
 20
30.5937998301
 11
155.1815540869
 21
30.6260635193
  0
LINE
  8
0
 62
7
  6
CONTINUOUS
 10
160.269054528
 20
30.5937998301
 11
160.615929528
 21
30.6260635193
  0
LINE
  8
0
 62
7
  6
CONTINUOUS
 10
150.5565542799
 20
30.5937998301
 11
150.9612418074
 21
30.6260635193
  0
LINE
  8
0
 62
7
  6
CONTINUOUS
 10
150.9034292799
 20
30.7551182848
 11
150.498741835
 21
30.7228545871
  0
LINE
  8
0
 62
7
  6
CONTINUOUS
 10
154.7768668074
 20
31.1422825445
 11
155.412804528
 21
31.1422825445
  0
LINE
  8
0
 62
7
  6
CONTINUOUS
 10
155.412804528
 20
31.2713373354
 11
154.7768668074
 21
31.2713373354
  0
LINE
  8
0
 62
7
  6
CONTINUOUS
 10
151.1346793074
 20
31.3036010218
 11
151.4237418626
 21
31.3036010218
  0
LINE
  8
0
 62
7
  6
CONTINUOUS
 10
153.9674919177
 20
31.3681283946
 11
154.2565543074
 21
31.3681283946
  0
LINE
  8
0
 62
7
  6
CONTINUOUS
 10
160.6737418074
 20
31.3681283946
 11
160.9628038663
 21
31.3681283946
  0
LINE
  8
0
 62
7
  6
CONTINUOUS
 10
154.6612419177
 20
31.4971831403
 11
155.0081169177
 21
31.4971831403
  0
LINE
  8
0
 62
7
  6
CONTINUOUS
 10
159.8065543074
 20
31.4971831403
 11
160.1534293074
 21
31.4971831403
  0
LINE
  8
0
 62
7
  6
CONTINUOUS
 10
160.1534293074
 20
31.626237886
 11
159.8065543074
 21
31.626237886
  0
LINE
  8
0
 62
7
  6
CONTINUOUS
 10
158.0721793074
 20
31.626237886
 11
157.840929528
 21
31.626237886
  0
LINE
  8
0
 62
7
  6
CONTINUOUS
 10
157.320617028
 20
31.626237886
 11
157.0315543074
 21
31.626237886
  0
LINE
  8
0
 62
7
  6
CONTINUOUS
 10
156.5690540869
 20
31.626237886
 11
156.279992028
 21
31.626237886
  0
LINE
  8
0
 62
7
  6
CONTINUOUS
 10
155.0081169177
 20
31.626237886
 11
154.6612419177
 21
31.626237886
  0
LINE
  8
0
 62
7
  6
CONTINUOUS
 10
152.9268669177
 20
31.626237886
 11
152.6956168074
 21
31.626237886
  0
LINE
  8
0
 62
7
  6
CONTINUOUS
 10
156.279992028
 20
31.9488748406
 11
156.5690540869
 21
31.9488748406
  0
LINE
  8
0
 62
7
  6
CONTINUOUS
 10
156.5690540869
 20
32.1101932727
 11
156.279992028
 21
32.1101932727
  0
LINE
  8
0
 62
7
  6
CONTINUOUS
 10
152.1753043074
 20
32.1101932727
 11
151.8862417523
 21
32.1101932727
  0
LINE
  8
0
 62
7
  6
CONTINUOUS
 10
151.2130860697
 20
32.3970785186
 11
151.6256574183
 21
32.3970785186
  0
LINE
  8
0
 62
7
  6
CONTINUOUS
 10
152.852430332
 20
32.3970785186
 11
154.245872955
 21
32.3970785186
  0
LINE
  8
0
 62
7
  6
CONTINUOUS
 10
154.5737418074
 20
32.3970785186
 11
155.9671844304
 21
32.3970785186
  0
LINE
  8
0
 62
7
  6
CONTINUOUS
 10
157.852430332
 20
32.3970785186
 11
159.245872955
 21
32.3970785186
  0
LINE
  8
0
 62
7
  6
CONTINUOUS
 10
159.5737418074
 20
32.3970785186
 11
160.9671844304
 21
32.3970785186
  0
LINE
  8
0
 62
7
  6
CONTINUOUS
 10
157.6096790869
 20
31.5939741996
 11
157.4362415869
 21
31.5294468267
  0
LINE
  8
0
 62
7
  6
CONTINUOUS
 10
155.1815540869
 20
30.6260635193
 11
155.3549915869
 21
30.6905909007
  0
LINE
  8
0
 62
7
  6
CONTINUOUS
 10
160.615929528
 20
30.6260635193
 11
160.8471793074
 21
30.6905909007
  0
LINE
  8
0
 62
7
  6
CONTINUOUS
 10
160.615929528
 20
30.7873819712
 11
160.5003043074
 21
30.7551182848
  0
LINE
  8
0
 62
7
  6
CONTINUOUS
 10
159.575304528
 20
31.4649194539
 11
159.8065543074
 21
31.4971831403
  0
LINE
  8
0
 62
7
  6
CONTINUOUS
 10
157.6096790869
 20
31.4649194539
 11
157.840929528
 21
31.4971831403
  0
LINE
  8
0
 62
7
  6
CONTINUOUS
 10
154.5456166972
 20
31.1100188581
 11
154.7768668074
 21
31.1422825445
  0
LINE
  8
0
 62
7
  6
CONTINUOUS
 10
157.840929528
 20
31.626237886
 11
157.6096790869
 21
31.5939741996
  0
LINE
  8
0
 62
7
  6
CONTINUOUS
 10
154.4299918074
 20
31.4649194539
 11
154.6612419177
 21
31.4971831403
  0
LINE
  8
0
 62
7
  6
CONTINUOUS
 10
159.8065543074
 20
31.626237886
 11
159.4596793074
 21
31.5939741996
  0
LINE
  8
0
 62
7
  6
CONTINUOUS
 10
154.7768668074
 20
31.2713373354
 11
154.4299918074
 21
31.2390736489
  0
LINE
  8
0
 62
7
  6
CONTINUOUS
 10
150.5565542799
 20
31.626237886
 11
150.2096793212
 21
31.5939741996
  0
LINE
  8
0
 62
7
  6
CONTINUOUS
 10
154.6612419177
 20
31.626237886
 11
154.2565543074
 21
31.5939741996
  0
LINE
  8
0
 62
7
  6
CONTINUOUS
 10
152.0327582009
 20
33.5446195022
 11
151.3770204959
 21
33.5446195022
  0
LINE
  8
0
 62
7
  6
CONTINUOUS
 10
157.4362415869
 20
31.400392081
 11
157.6096790869
 21
31.4649194539
  0
LINE
  8
0
 62
7
  6
CONTINUOUS
 10
159.4596793074
 20
31.4326557675
 11
159.575304528
 21
31.4649194539
  0
LINE
  8
0
 62
7
  6
CONTINUOUS
 10
159.4596793074
 20
31.5939741996
 11
159.228429528
 21
31.5294468267
  0
LINE
  8
0
 62
7
  6
CONTINUOUS
 10
155.1815540869
 20
30.7873819712
 11
154.8924916972
 21
30.7228545871
  0
LINE
  8
0
 62
7
  6
CONTINUOUS
 10
152.4643666972
 20
31.4649194539
 11
152.6956168074
 21
31.4971831403
  0
LINE
  8
0
 62
7
  6
CONTINUOUS
 10
152.6956168074
 20
31.626237886
 11
152.4643666972
 21
31.5939741996
  0
LINE
  8
0
 62
7
  6
CONTINUOUS
 10
150.2674918074
 20
31.4649194539
 11
150.498741835
 21
31.4971831403
  0
LINE
  8
0
 62
7
  6
CONTINUOUS
 10
156.7868565615
 20
35.0200293383
 11
157.4425942664
 21
35.0200293383
  0
LINE
  8
0
 62
7
  6
CONTINUOUS
 10
154.4299918074
 20
31.0777551716
 11
154.5456166972
 21
31.1100188581
  0
LINE
  8
0
 62
7
  6
CONTINUOUS
 10
154.4299918074
 20
31.2390736489
 11
154.1987416972
 21
31.1745462761
  0
LINE
  8
0
 62
7
  6
CONTINUOUS
 10
154.3143669177
 20
31.4326557675
 11
154.4299918074
 21
31.4649194539
  0
LINE
  8
0
 62
7
  6
CONTINUOUS
 10
150.9612418074
 20
30.6260635193
 11
151.1924917523
 21
30.6905909007
  0
LINE
  8
0
 62
7
  6
CONTINUOUS
 10
154.2565543074
 20
31.5939741996
 11
154.1409294177
 21
31.5617105132
  0
LINE
  8
0
 62
7
  6
CONTINUOUS
 10
150.2096793212
 20
31.5939741996
 11
150.0362418212
 21
31.5617105132
  0
LINE
  8
0
 62
7
  6
CONTINUOUS
 10
160.9671844304
 20
36.1675703219
 11
159.5737418074
 21
36.1675703219
  0
LINE
  8
0
 62
7
  6
CONTINUOUS
 10
157.6065286927
 20
36.1675703219
 11
157.1939573441
 21
36.1675703219
  0
LINE
  8
0
 62
7
  6
CONTINUOUS
 10
155.9671844304
 20
36.1675703219
 11
154.5737418074
 21
36.1675703219
  0
LINE
  8
0
 62
7
  6
CONTINUOUS
 10
154.245872955
 20
36.1675703219
 11
152.852430332
 21
36.1675703219
  0
LINE
  8
0
 62
7
  6
CONTINUOUS
 10
150.9671844304
 20
36.1675703219
 11
149.5737418074
 21
36.1675703219
  0
LINE
  8
0
 62
7
  6
CONTINUOUS
 10
150.1518667936
 20
31.4326557675
 11
150.2674918074
 21
31.4649194539
  0
CIRCLE
  8
0
 62
7
  6
CONTINUOUS
 10
160.2704631189
 20
38.5036358957
 40
2.0901639344
  0
ARC
  8
0
 62
7
  6
CONTINUOUS
 10
151.2130860697
 20
34.0364227809
 40
1.6393442623
 50
180.0
 51
270.0
  0
ARC
  8
0
 62
7
  6
CONTINUOUS
 10
157.6065286927
 20
34.5282260596
 40
1.6393442623
 50
0.0
 51
90.0
  0
ARC
  8
0
 62
7
  6
CONTINUOUS
 10
151.6256574183
 20
33.8724883547
 40
1.4754098361
 50
270.0
 51
326.2510114041
  0
ARC
  8
0
 62
7
  6
CONTINUOUS
 10
157.1939573441
 20
34.6921604858
 40
1.4754098361
 50
90.0
 51
146.2510114041
  0
ARC
  8
0
 62
7
  6
CONTINUOUS
 10
152.0327582009
 20
34.3642916334
 40
0.8196721311
 50
270.0
 51
360.0
  0
ARC
  8
0
 62
7
  6
CONTINUOUS
 10
156.7868565615
 20
34.2003572071
 40
0.8196721311
 50
90.0
 51
180.0
  0
ARC
  8
0
 62
7
  6
CONTINUOUS
 10
151.3770204959
 20
33.9544555678
 40
0.4098360656
 50
180.0
 51
270.0
  0
ARC
  8
0
 62
7
  6
CONTINUOUS
 10
157.4425942664
 20
34.6101932727
 40
0.4098360656
 50
0.0
 51
90.0
  0
SOLID
  8
0
 62
7
  6
CONTINUOUS
 10
156.279992028
 20
31.9488752009
 11
156.279992028
 21
32.1101936845
 12
156.5690540869
 22
31.9488752009
 13
156.5690540869
 23
32.1101936845
  0
SOLID
  8
0
 62
7
  6
CONTINUOUS
 10
150.5565542799
 20
31.6262382337
 11
150.9612418074
 21
31.5939740028
 12
150.2096793212
 22
31.5939740028
 13
150.2096793212
 23
31.5939740028
  0
SOLID
  8
0
 62
7
  6
CONTINUOUS
 10
150.0362418212
 20
31.5617111435
 11
150.2096793212
 21
31.5939740028
 12
150.9612418074
 22
31.5939740028
 13
150.9612418074
 23
31.5939740028
  0
SOLID
  8
0
 62
7
  6
CONTINUOUS
 10
150.9612418074
 20
31.5939740028
 11
151.1924917523
 21
31.5294468402
 12
150.0362418212
 22
31.5617111435
 13
150.0362418212
 23
31.5617111435
  0
SOLID
  8
0
 62
7
  6
CONTINUOUS
 10
149.8628043005
 20
31.49718259
 11
150.0362418212
 21
31.5617111435
 12
151.1924917523
 22
31.5294468402
 13
151.1924917523
 23
31.5294468402
  0
SOLID
  8
0
 62
7
  6
CONTINUOUS
 10
149.8628043005
 20
31.49718259
 11
151.1924917523
 21
31.5294468402
 12
150.498741835
 22
31.49718259
 13
150.498741835
 23
31.49718259
  0
SOLID
  8
0
 62
7
  6
CONTINUOUS
 10
150.498741835
 20
31.49718259
 11
151.1924917523
 21
31.5294468402
 12
150.9034292799
 22
31.4649197501
 13
150.9034292799
 23
31.4649197501
  0
SOLID
  8
0
 62
7
  6
CONTINUOUS
 10
151.1924917523
 20
31.5294468402
 11
151.3659292523
 21
31.4326554468
 12
150.9034292799
 22
31.4649197501
 13
150.9034292799
 23
31.4649197501
  0
SOLID
  8
0
 62
7
  6
CONTINUOUS
 10
151.0768668626
 20
31.4003926599
 11
150.9034292799
 21
31.4649197501
 12
151.3659292523
 22
31.4326554468
 13
151.3659292523
 23
31.4326554468
  0
SOLID
  8
0
 62
7
  6
CONTINUOUS
 10
151.0768668626
 20
31.4003926599
 11
151.3659292523
 21
31.4326554468
 12
151.1346793074
 22
31.3036013776
 13
151.1346793074
 23
31.3036013776
  0
SOLID
  8
0
 62
7
  6
CONTINUOUS
 10
151.3659292523
 20
31.4326554468
 11
151.4237418626
 21
31.3036013776
 12
151.1346793074
 22
31.3036013776
 13
151.1346793074
 23
31.3036013776
  0
SOLID
  8
0
 62
7
  6
CONTINUOUS
 10
152.4643666972
 20
31.5939739754
 11
152.6956168074
 21
31.6262382787
 12
152.9268669177
 22
31.6262382787
 13
152.9268669177
 23
31.6262382787
  0
SOLID
  8
0
 62
7
  6
CONTINUOUS
 10
152.9268669177
 20
31.6262382787
 11
153.1003044177
 21
31.5939739754
 12
152.4643666972
 22
31.5939739754
 13
152.4643666972
 23
31.5939739754
  0
SOLID
  8
0
 62
7
  6
CONTINUOUS
 10
152.2909293626
 20
31.5294468852
 11
152.4643666972
 21
31.5939739754
 12
153.1003044177
 22
31.5939739754
 13
153.1003044177
 23
31.5939739754
  0
SOLID
  8
0
 62
7
  6
CONTINUOUS
 10
153.1003044177
 20
31.5939739754
 11
153.2737419177
 21
31.5294468852
 12
152.2909293626
 22
31.5294468852
 13
152.2909293626
 23
31.5294468852
  0
SOLID
  8
0
 62
7
  6
CONTINUOUS
 10
153.2737419177
 20
31.5294468852
 11
152.6956168074
 21
31.4971825369
 12
152.2909293626
 22
31.5294468852
 13
152.2909293626
 23
31.5294468852
  0
SOLID
  8
0
 62
7
  6
CONTINUOUS
 10
152.1753043074
 20
31.4649197951
 11
152.2909293626
 21
31.5294468852
 12
152.6956168074
 22
31.4971825369
 13
152.6956168074
 23
31.4971825369
  0
SOLID
  8
0
 62
7
  6
CONTINUOUS
 10
152.6956168074
 20
31.4971825369
 11
152.4643666972
 21
31.4649197951
 12
152.1753043074
 22
31.4649197951
 13
152.1753043074
 23
31.4649197951
  0
SOLID
  8
0
 62
7
  6
CONTINUOUS
 10
152.6956168074
 20
31.4971825369
 11
153.2737419177
 21
31.5294468852
 12
152.9268669177
 22
31.4649197951
 13
152.9268669177
 23
31.4649197951
  0
SOLID
  8
0
 62
7
  6
CONTINUOUS
 10
153.2737419177
 20
31.5294468852
 11
153.3893668074
 21
31.4649197951
 12
152.9268669177
 22
31.4649197951
 13
152.9268669177
 23
31.4649197951
  0
SOLID
  8
0
 62
7
  6
CONTINUOUS
 10
153.0424918074
 20
31.4326554468
 11
152.9268669177
 21
31.4649197951
 12
153.3893668074
 22
31.4649197951
 13
153.3893668074
 23
31.4649197951
  0
SOLID
  8
0
 62
7
  6
CONTINUOUS
 10
153.3893668074
 20
31.4649197951
 11
153.4471794177
 21
31.4003927049
 12
153.0424918074
 22
31.4326554468
 13
153.0424918074
 23
31.4326554468
  0
SOLID
  8
0
 62
7
  6
CONTINUOUS
 10
153.1581166972
 20
31.3681283566
 11
153.0424918074
 21
31.4326554468
 12
153.4471794177
 22
31.4003927049
 13
153.4471794177
 23
31.4003927049
  0
SOLID
  8
0
 62
7
  6
CONTINUOUS
 10
153.1581166972
 20
31.3681283566
 11
153.4471794177
 21
31.4003927049
 12
153.2159293074
 22
31.2390742213
 13
153.2159293074
 23
31.2390742213
  0
SOLID
  8
0
 62
7
  6
CONTINUOUS
 10
153.4471794177
 20
31.4003927049
 11
153.5049916972
 21
31.2390742213
 12
153.2159293074
 22
31.2390742213
 13
153.2159293074
 23
31.2390742213
  0
SOLID
  8
0
 62
7
  6
CONTINUOUS
 10
152.4643666972
 20
31.4649197951
 11
152.2909293626
 21
31.4003927049
 12
152.1753043074
 22
31.4649197951
 13
152.1753043074
 23
31.4649197951
  0
SOLID
  8
0
 62
7
  6
CONTINUOUS
 10
152.2909293626
 20
31.4003927049
 11
152.1753043074
 21
31.3358640533
 12
152.1753043074
 22
31.4649197951
 13
152.1753043074
 23
31.4649197951
  0
SOLID
  8
0
 62
7
  6
CONTINUOUS
 10
152.1753043074
 20
31.3358640533
 11
151.8862417523
 21
30.5938002869
 12
152.1753043074
 22
31.4649197951
 13
152.1753043074
 23
31.4649197951
  0
SOLID
  8
0
 62
7
  6
CONTINUOUS
 10
152.1753043074
 20
31.4649197951
 11
151.8862417523
 21
30.5938002869
 12
152.1753043074
 22
32.1101937295
 13
152.1753043074
 23
32.1101937295
  0
SOLID
  8
0
 62
7
  6
CONTINUOUS
 10
151.8862417523
 20
30.5938002869
 11
151.8862417523
 21
32.1101937295
 12
152.1753043074
 22
32.1101937295
 13
152.1753043074
 23
32.1101937295
  0
SOLID
  8
0
 62
7
  6
CONTINUOUS
 10
152.1753043074
 20
31.3358640533
 11
152.1753043074
 21
30.5938002869
 12
151.8862417523
 22
30.5938002869
 13
151.8862417523
 23
30.5938002869
  0
SOLID
  8
0
 62
7
  6
CONTINUOUS
 10
153.2159293074
 20
30.5938002869
 11
153.2159293074
 21
31.2390742213
 12
153.5049916972
 22
31.2390742213
 13
153.5049916972
 23
31.2390742213
  0
SOLID
  8
0
 62
7
  6
CONTINUOUS
 10
153.5049916972
 20
31.2390742213
 11
153.5049916972
 21
30.5938002869
 12
153.2159293074
 22
30.5938002869
 13
153.2159293074
 23
30.5938002869
  0
SOLID
  8
0
 62
7
  6
CONTINUOUS
 10
154.2565543074
 20
31.5939738288
 11
154.6612419177
 21
31.6262385959
 12
155.0081169177
 22
31.6262385959
 13
155.0081169177
 23
31.6262385959
  0
SOLID
  8
0
 62
7
  6
CONTINUOUS
 10
155.0081169177
 20
31.6262385959
 11
155.3549915869
 21
31.5939738288
 12
154.2565543074
 22
31.5939738288
 13
154.2565543074
 23
31.5939738288
  0
SOLID
  8
0
 62
7
  6
CONTINUOUS
 10
154.1409294177
 20
31.5617111435
 11
154.2565543074
 21
31.5939738288
 12
155.3549915869
 22
31.5939738288
 13
155.3549915869
 23
31.5939738288
  0
SOLID
  8
0
 62
7
  6
CONTINUOUS
 10
155.3549915869
 20
31.5939738288
 11
155.5284290869
 21
31.5294468402
 12
154.1409294177
 22
31.5617111435
 13
154.1409294177
 23
31.5617111435
  0
SOLID
  8
0
 62
7
  6
CONTINUOUS
 10
154.0253041972
 20
31.4971826249
 11
154.1409294177
 21
31.5617111435
 12
155.5284290869
 22
31.5294468402
 13
155.5284290869
 23
31.5294468402
  0
SOLID
  8
0
 62
7
  6
CONTINUOUS
 10
154.0253041972
 20
31.4971826249
 11
155.5284290869
 21
31.5294468402
 12
154.6612419177
 22
31.4971826249
 13
154.6612419177
 23
31.4971826249
  0
SOLID
  8
0
 62
7
  6
CONTINUOUS
 10
154.6612419177
 20
31.4971826249
 11
155.5284290869
 21
31.5294468402
 12
155.0081169177
 22
31.4971826249
 13
155.0081169177
 23
31.4971826249
  0
SOLID
  8
0
 62
7
  6
CONTINUOUS
 10
155.0081169177
 20
31.4971826249
 11
155.5284290869
 21
31.5294468402
 12
155.239367028
 22
31.4649194065
 13
155.239367028
 23
31.4649194065
  0
SOLID
  8
0
 62
7
  6
CONTINUOUS
 10
155.5284290869
 20
31.5294468402
 11
155.6440543074
 21
31.4649194065
 12
155.239367028
 22
31.4649194065
 13
155.239367028
 23
31.4649194065
  0
SOLID
  8
0
 62
7
  6
CONTINUOUS
 10
153.9674919177
 20
31.4326554138
 11
154.0253041972
 21
31.4971826249
 12
154.6612419177
 22
31.4971826249
 13
154.6612419177
 23
31.4971826249
  0
SOLID
  8
0
 62
7
  6
CONTINUOUS
 10
155.3549915869
 20
31.4326554138
 11
155.239367028
 21
31.4649194065
 12
155.6440543074
 22
31.4649194065
 13
155.6440543074
 23
31.4649194065
  0
SOLID
  8
0
 62
7
  6
CONTINUOUS
 10
155.3549915869
 20
31.4326554138
 11
155.6440543074
 21
31.4649194065
 12
155.412804528
 22
31.3681282026
 13
155.412804528
 23
31.3681282026
  0
SOLID
  8
0
 62
7
  6
CONTINUOUS
 10
155.6440543074
 20
31.4649194065
 11
155.7018665869
 21
31.3681282026
 12
155.412804528
 22
31.3681282026
 13
155.412804528
 23
31.3681282026
  0
SOLID
  8
0
 62
7
  6
CONTINUOUS
 10
155.412804528
 20
31.2713369632
 11
155.412804528
 21
31.3681282026
 12
155.7018665869
 22
31.3681282026
 13
155.7018665869
 23
31.3681282026
  0
SOLID
  8
0
 62
7
  6
CONTINUOUS
 10
155.412804528
 20
31.2713369632
 11
155.7018665869
 21
31.3681282026
 12
155.412804528
 22
31.1422827828
 13
155.412804528
 23
31.1422827828
  0
SOLID
  8
0
 62
7
  6
CONTINUOUS
 10
155.412804528
 20
31.1422827828
 11
155.7018665869
 21
31.3681282026
 12
155.412804528
 22
30.9487004259
 13
155.412804528
 23
30.9487004259
  0
SOLID
  8
0
 62
7
  6
CONTINUOUS
 10
155.7018665869
 20
31.3681282026
 11
155.7018665869
 21
30.8519086025
 12
155.412804528
 22
30.9487004259
 13
155.412804528
 23
30.9487004259
  0
SOLID
  8
0
 62
7
  6
CONTINUOUS
 10
157.6096790869
 20
31.5939736268
 11
157.840929528
 21
31.6262383465
 12
158.0721793074
 22
31.6262383465
 13
158.0721793074
 23
31.6262383465
  0
SOLID
  8
0
 62
7
  6
CONTINUOUS
 10
158.0721793074
 20
31.6262383465
 11
158.2456168074
 21
31.5939736268
 12
157.6096790869
 22
31.5939736268
 13
157.6096790869
 23
31.5939736268
  0
SOLID
  8
0
 62
7
  6
CONTINUOUS
 10
157.4362415869
 20
31.5294472848
 11
157.6096790869
 21
31.5939736268
 12
158.2456168074
 22
31.5939736268
 13
158.2456168074
 23
31.5939736268
  0
SOLID
  8
0
 62
7
  6
CONTINUOUS
 10
158.2456168074
 20
31.5939736268
 11
158.4190543074
 21
31.5294472848
 12
157.4362415869
 22
31.5294472848
 13
157.4362415869
 23
31.5294472848
  0
SOLID
  8
0
 62
7
  6
CONTINUOUS
 10
158.4190543074
 20
31.5294472848
 11
157.840929528
 21
31.4971825369
 12
157.4362415869
 22
31.5294472848
 13
157.4362415869
 23
31.5294472848
  0
SOLID
  8
0
 62
7
  6
CONTINUOUS
 10
157.320617028
 20
31.4649199103
 11
157.4362415869
 21
31.5294472848
 12
157.840929528
 22
31.4971825369
 13
157.840929528
 23
31.4971825369
  0
SOLID
  8
0
 62
7
  6
CONTINUOUS
 10
157.840929528
 20
31.4971825369
 11
157.6096790869
 21
31.4649199103
 12
157.320617028
 22
31.4649199103
 13
157.320617028
 23
31.4649199103
  0
SOLID
  8
0
 62
7
  6
CONTINUOUS
 10
157.840929528
 20
31.4971825369
 11
158.4190543074
 21
31.5294472848
 12
158.0721793074
 22
31.4649199103
 13
158.0721793074
 23
31.4649199103
  0
SOLID
  8
0
 62
7
  6
CONTINUOUS
 10
158.4190543074
 20
31.5294472848
 11
158.534679528
 21
31.4649199103
 12
158.0721793074
 22
31.4649199103
 13
158.0721793074
 23
31.4649199103
  0
SOLID
  8
0
 62
7
  6
CONTINUOUS
 10
158.187804528
 20
31.4326554468
 11
158.0721793074
 21
31.4649199103
 12
158.534679528
 22
31.4649199103
 13
158.534679528
 23
31.4649199103
  0
SOLID
  8
0
 62
7
  6
CONTINUOUS
 10
158.187804528
 20
31.4326554468
 11
158.534679528
 21
31.4649199103
 12
158.3034290869
 22
31.3681288486
 13
158.3034290869
 23
31.3681288486
  0
SOLID
  8
0
 62
7
  6
CONTINUOUS
 10
158.534679528
 20
31.4649199103
 11
158.5924918074
 21
31.3681288486
 12
158.3034290869
 22
31.3681288486
 13
158.3034290869
 23
31.3681288486
  0
SOLID
  8
0
 62
7
  6
CONTINUOUS
 10
158.361242028
 20
31.2068093799
 11
158.3034290869
 21
31.3681288486
 12
158.5924918074
 22
31.3681288486
 13
158.5924918074
 23
31.3681288486
  0
SOLID
  8
0
 62
7
  6
CONTINUOUS
 10
158.5924918074
 20
31.3681288486
 11
158.6503040869
 21
31.2068093799
 12
158.361242028
 22
31.2068093799
 13
158.361242028
 23
31.2068093799
  0
SOLID
  8
0
 62
7
  6
CONTINUOUS
 10
157.6096790869
 20
31.4649199103
 11
157.4362415869
 21
31.4003926599
 12
157.320617028
 22
31.4649199103
 13
157.320617028
 23
31.4649199103
  0
SOLID
  8
0
 62
7
  6
CONTINUOUS
 10
157.4362415869
 20
31.4003926599
 11
157.320617028
 21
31.3358640533
 12
157.320617028
 22
31.4649199103
 13
157.320617028
 23
31.4649199103
  0
SOLID
  8
0
 62
7
  6
CONTINUOUS
 10
157.320617028
 20
31.3358640533
 11
157.0315543074
 21
30.5938003547
 12
157.320617028
 22
31.4649199103
 13
157.320617028
 23
31.4649199103
  0
SOLID
  8
0
 62
7
  6
CONTINUOUS
 10
157.320617028
 20
31.4649199103
 11
157.0315543074
 21
30.5938003547
 12
157.320617028
 22
31.6262383465
 13
157.320617028
 23
31.6262383465
  0
SOLID
  8
0
 62
7
  6
CONTINUOUS
 10
157.0315543074
 20
30.5938003547
 11
157.0315543074
 21
31.6262383465
 12
157.320617028
 22
31.6262383465
 13
157.320617028
 23
31.6262383465
  0
SOLID
  8
0
 62
7
  6
CONTINUOUS
 10
157.320617028
 20
31.3358640533
 11
157.320617028
 21
30.5938003547
 12
157.0315543074
 22
30.5938003547
 13
157.0315543074
 23
30.5938003547
  0
SOLID
  8
0
 62
7
  6
CONTINUOUS
 10
158.361242028
 20
30.5938003547
 11
158.361242028
 21
31.2068093799
 12
158.6503040869
 22
31.2068093799
 13
158.6503040869
 23
31.2068093799
  0
SOLID
  8
0
 62
7
  6
CONTINUOUS
 10
158.6503040869
 20
31.2068093799
 11
158.6503040869
 21
30.5938003547
 12
158.361242028
 22
30.5938003547
 13
158.361242028
 23
30.5938003547
  0
SOLID
  8
0
 62
7
  6
CONTINUOUS
 10
159.4596793074
 20
31.5939739474
 11
159.8065543074
 21
31.6262381969
 12
160.1534293074
 22
31.6262381969
 13
160.1534293074
 23
31.6262381969
  0
SOLID
  8
0
 62
7
  6
CONTINUOUS
 10
160.1534293074
 20
31.6262381969
 11
160.5003043074
 21
31.5939739474
 12
159.4596793074
 22
31.5939739474
 13
159.4596793074
 23
31.5939739474
  0
SOLID
  8
0
 62
7
  6
CONTINUOUS
 10
159.228429528
 20
31.5294468402
 11
159.4596793074
 21
31.5939739474
 12
160.5003043074
 22
31.5939739474
 13
160.5003043074
 23
31.5939739474
  0
SOLID
  8
0
 62
7
  6
CONTINUOUS
 10
159.228429528
 20
31.5294468402
 11
160.5003043074
 21
31.5939739304
 12
160.6737418074
 22
31.5617111435
 13
160.6737418074
 23
31.5617111435
  0
SOLID
  8
0
 62
7
  6
CONTINUOUS
 10
159.228429528
 20
31.5294468402
 11
160.6737418074
 21
31.5617111435
 12
159.8065543074
 22
31.4971825592
 13
159.8065543074
 23
31.4971825592
  0
SOLID
  8
0
 62
7
  6
CONTINUOUS
 10
159.8065543074
 20
31.4971825592
 11
160.6737418074
 21
31.5617111435
 12
160.1534293074
 22
31.4971825592
 13
160.1534293074
 23
31.4971825592
  0
SOLID
  8
0
 62
7
  6
CONTINUOUS
 10
160.6737418074
 20
31.5617111435
 11
160.8471793074
 21
31.4971825592
 12
160.1534293074
 22
31.4971825592
 13
160.1534293074
 23
31.4971825592
  0
SOLID
  8
0
 62
7
  6
CONTINUOUS
 10
160.5003043074
 20
31.4649197501
 11
160.1534293074
 21
31.4971825592
 12
160.8471793074
 22
31.4971825592
 13
160.8471793074
 23
31.4971825592
  0
SOLID
  8
0
 62
7
  6
CONTINUOUS
 10
159.1128043074
 20
31.4326555427
 11
159.228429528
 21
31.5294468402
 12
159.8065543074
 22
31.4971825592
 13
159.8065543074
 23
31.4971825592
  0
SOLID
  8
0
 62
7
  6
CONTINUOUS
 10
160.5003043074
 20
31.4649197501
 11
160.8471793074
 21
31.4971825592
 12
160.615929528
 22
31.4326555427
 13
160.615929528
 23
31.4326555427
  0
SOLID
  8
0
 62
7
  6
CONTINUOUS
 10
160.615929528
 20
31.4326555427
 11
160.8471793074
 21
31.4971825592
 12
160.6737418074
 22
31.3681283005
 13
160.6737418074
 23
31.3681283005
  0
SOLID
  8
0
 62
7
  6
CONTINUOUS
 10
160.8471793074
 20
31.4971825592
 11
160.9628038663
 21
31.3681283005
 12
160.6737418074
 22
31.3681283005
 13
160.6737418074
 23
31.3681283005
  0
SOLID
  8
0
 62
7
  6
CONTINUOUS
 10
150.2674918074
 20
31.4649197501
 11
149.7471793074
 21
31.4326554237
 12
150.498741835
 22
31.4971824493
 13
150.498741835
 23
31.4971824493
  0
SOLID
  8
0
 62
7
  6
CONTINUOUS
 10
149.7471793074
 20
31.4326554237
 11
149.8628043005
 21
31.4971824493
 12
150.498741835
 22
31.4971824493
 13
150.498741835
 23
31.4971824493
  0
SOLID
  8
0
 62
7
  6
CONTINUOUS
 10
150.2674918074
 20
31.4649197501
 11
150.1518667936
 21
31.4326554237
 12
149.7471793074
 22
31.4326554237
 13
149.7471793074
 23
31.4326554237
  0
SOLID
  8
0
 62
7
  6
CONTINUOUS
 10
149.6315543091
 20
31.3036012664
 11
149.7471793074
 21
31.4326554237
 12
150.1518667936
 22
31.4326554237
 13
150.1518667936
 23
31.4326554237
  0
SOLID
  8
0
 62
7
  6
CONTINUOUS
 10
153.9674919177
 20
31.4326554237
 11
154.6612419177
 21
31.4971825369
 12
154.4299918074
 22
31.4649197501
 13
154.4299918074
 23
31.4649197501
  0
SOLID
  8
0
 62
7
  6
CONTINUOUS
 10
154.4299918074
 20
31.4649197501
 11
154.3143669177
 21
31.4326554237
 12
153.9674919177
 22
31.4326554237
 13
153.9674919177
 23
31.4326554237
  0
SOLID
  8
0
 62
7
  6
CONTINUOUS
 10
153.9674919177
 20
31.3681283335
 11
153.9674919177
 21
31.4326554237
 12
154.3143669177
 22
31.4326554237
 13
154.3143669177
 23
31.4326554237
  0
SOLID
  8
0
 62
7
  6
CONTINUOUS
 10
154.3143669177
 20
31.4326554237
 11
154.2565543074
 21
31.3681283335
 12
153.9674919177
 22
31.3681283335
 13
153.9674919177
 23
31.3681283335
  0
SOLID
  8
0
 62
7
  6
CONTINUOUS
 10
159.1128043074
 20
31.4326555528
 11
159.8065543074
 21
31.4971825369
 12
159.575304528
 22
31.4649197501
 13
159.575304528
 23
31.4649197501
  0
SOLID
  8
0
 62
7
  6
CONTINUOUS
 10
159.575304528
 20
31.4649197501
 11
159.4596793074
 21
31.4326555528
 12
159.1128043074
 22
31.4326555528
 13
159.1128043074
 23
31.4326555528
  0
SOLID
  8
0
 62
7
  6
CONTINUOUS
 10
159.1128043074
 20
31.3681284626
 11
159.1128043074
 21
31.4326555528
 12
159.4596793074
 22
31.4326555528
 13
159.4596793074
 23
31.4326555528
  0
SOLID
  8
0
 62
7
  6
CONTINUOUS
 10
159.4596793074
 20
31.4326555528
 11
159.401867028
 21
31.3681284626
 12
159.1128043074
 22
31.3681284626
 13
159.1128043074
 23
31.3681284626
  0
SOLID
  8
0
 62
7
  6
CONTINUOUS
 10
159.228429528
 20
31.2390741763
 11
159.1128043074
 21
31.3681284626
 12
159.401867028
 22
31.3681284626
 13
159.401867028
 23
31.3681284626
  0
SOLID
  8
0
 62
7
  6
CONTINUOUS
 10
149.6315543091
 20
31.3036012664
 11
150.1518667936
 21
31.4326554468
 12
149.9784292936
 22
31.3358640533
 13
149.9784292936
 23
31.3358640533
  0
SOLID
  8
0
 62
7
  6
CONTINUOUS
 10
149.9784292936
 20
31.3358640533
 11
149.9206168074
 21
31.2713369632
 12
149.6315543091
 22
31.3036012664
 13
149.6315543091
 23
31.3036012664
  0
SOLID
  8
0
 62
7
  6
CONTINUOUS
 10
149.5737418074
 20
31.1100184796
 11
149.6315543091
 21
31.3036012664
 12
149.9206168074
 22
31.2713369632
 13
149.9206168074
 23
31.2713369632
  0
SOLID
  8
0
 62
7
  6
CONTINUOUS
 10
154.4299918074
 20
31.2390741763
 11
154.7768668074
 21
31.271336924
 12
155.412804528
 22
31.271336924
 13
155.412804528
 23
31.271336924
  0
SOLID
  8
0
 62
7
  6
CONTINUOUS
 10
154.4299918074
 20
31.2390741763
 11
155.412804528
 21
31.271336924
 12
154.1987416972
 22
31.1745462761
 13
154.1987416972
 23
31.1745462761
  0
SOLID
  8
0
 62
7
  6
CONTINUOUS
 10
154.1987416972
 20
31.1745462761
 11
155.412804528
 21
31.271336924
 12
154.7768668074
 22
31.1422827436
 13
154.7768668074
 23
31.1422827436
  0
SOLID
  8
0
 62
7
  6
CONTINUOUS
 10
155.412804528
 20
31.271336924
 11
155.412804528
 21
31.1422827436
 12
154.7768668074
 22
31.1422827436
 13
154.7768668074
 23
31.1422827436
  0
SOLID
  8
0
 62
7
  6
CONTINUOUS
 10
159.228429528
 20
31.2390745501
 11
159.401867028
 21
31.3681283566
 12
159.4596793074
 22
31.3036012664
 13
159.4596793074
 23
31.3036012664
  0
SOLID
  8
0
 62
7
  6
CONTINUOUS
 10
159.4596793074
 20
31.3036012664
 11
159.6331168074
 21
31.2390745501
 12
159.228429528
 22
31.2390745501
 13
159.228429528
 23
31.2390745501
  0
SOLID
  8
0
 62
7
  6
CONTINUOUS
 10
159.4596793074
 20
31.1422827828
 11
159.228429528
 21
31.2390745501
 12
159.6331168074
 22
31.2390745501
 13
159.6331168074
 23
31.2390745501
  0
SOLID
  8
0
 62
7
  6
CONTINUOUS
 10
159.6331168074
 20
31.2390745501
 11
160.615929528
 21
31.0777556927
 12
159.4596793074
 22
31.1422827828
 13
159.4596793074
 23
31.1422827828
  0
SOLID
  8
0
 62
7
  6
CONTINUOUS
 10
160.442492028
 20
30.9809646623
 11
159.4596793074
 21
31.1422827828
 12
160.615929528
 22
31.0777556927
 13
160.615929528
 23
31.0777556927
  0
SOLID
  8
0
 62
7
  6
CONTINUOUS
 10
160.615929528
 20
31.0777556927
 11
160.8471793074
 21
30.9809646623
 12
160.442492028
 22
30.9809646623
 13
160.442492028
 23
30.9809646623
  0
SOLID
  8
0
 62
7
  6
CONTINUOUS
 10
160.615929528
 20
30.9164372091
 11
160.442492028
 21
30.9809646623
 12
160.8471793074
 22
30.9809646623
 13
160.8471793074
 23
30.9809646623
  0
SOLID
  8
0
 62
7
  6
CONTINUOUS
 10
160.615929528
 20
30.9164372091
 11
160.8471793074
 21
30.9809646623
 12
160.6737418074
 22
30.8519089441
 13
160.6737418074
 23
30.8519089441
  0
SOLID
  8
0
 62
7
  6
CONTINUOUS
 10
160.8471793074
 20
30.9809646623
 11
160.9628038663
 21
30.8519089441
 12
160.6737418074
 22
30.8519089441
 13
160.6737418074
 23
30.8519089441
  0
SOLID
  8
0
 62
7
  6
CONTINUOUS
 10
160.615929528
 20
30.7873818593
 11
160.6737418074
 21
30.8519089441
 12
160.9628038663
 22
30.8519089441
 13
160.9628038663
 23
30.8519089441
  0
SOLID
  8
0
 62
7
  6
CONTINUOUS
 10
160.9628038663
 20
30.8519089441
 11
160.9628038663
 21
30.7873818593
 12
160.615929528
 22
30.7873818593
 13
160.615929528
 23
30.7873818593
  0
SOLID
  8
0
 62
7
  6
CONTINUOUS
 10
160.5003043074
 20
30.7551187255
 11
160.615929528
 21
30.7873818593
 12
160.9628038663
 22
30.7873818593
 13
160.9628038663
 23
30.7873818593
  0
SOLID
  8
0
 62
7
  6
CONTINUOUS
 10
160.5003043074
 20
30.7551187255
 11
160.9628038663
 21
30.7873818593
 12
160.269054528
 22
30.7228547745
 13
160.269054528
 23
30.7228547745
  0
SOLID
  8
0
 62
7
  6
CONTINUOUS
 10
160.9628038663
 20
30.7873818593
 11
160.8471793074
 21
30.6905916353
 12
160.269054528
 22
30.7228547745
 13
160.269054528
 23
30.7228547745
  0
SOLID
  8
0
 62
7
  6
CONTINUOUS
 10
160.8471793074
 20
30.6905916353
 11
159.401867028
 21
30.658327332
 12
160.269054528
 22
30.7228547745
 13
160.269054528
 23
30.7228547745
  0
SOLID
  8
0
 62
7
  6
CONTINUOUS
 10
160.269054528
 20
30.7228547745
 11
159.401867028
 21
30.658327332
 12
159.922179528
 22
30.7228547745
 13
159.922179528
 23
30.7228547745
  0
SOLID
  8
0
 62
7
  6
CONTINUOUS
 10
159.401867028
 20
30.658327332
 11
159.228429528
 21
30.7228547745
 12
159.922179528
 22
30.7228547745
 13
159.922179528
 23
30.7228547745
  0
SOLID
  8
0
 62
7
  6
CONTINUOUS
 10
159.401867028
 20
30.658327332
 11
160.8471793074
 21
30.6905916353
 12
159.575304528
 22
30.6260629858
 13
159.575304528
 23
30.6260629858
  0
SOLID
  8
0
 62
7
  6
CONTINUOUS
 10
160.8471793074
 20
30.6905916353
 11
160.615929528
 21
30.6260629858
 12
159.575304528
 22
30.6260629858
 13
159.575304528
 23
30.6260629858
  0
SOLID
  8
0
 62
7
  6
CONTINUOUS
 10
159.922179528
 20
30.5938006049
 11
159.575304528
 21
30.6260629858
 12
160.615929528
 22
30.6260629858
 13
160.615929528
 23
30.6260629858
  0
SOLID
  8
0
 62
7
  6
CONTINUOUS
 10
160.615929528
 20
30.6260629858
 11
160.269054528
 21
30.5938006049
 12
159.922179528
 22
30.5938006049
 13
159.922179528
 23
30.5938006049
  0
SOLID
  8
0
 62
7
  6
CONTINUOUS
 10
149.5737418074
 20
31.1100184796
 11
149.9206168074
 21
31.2713369632
 12
149.8628043005
 22
31.1422827828
 13
149.8628043005
 23
31.1422827828
  0
SOLID
  8
0
 62
7
  6
CONTINUOUS
 10
149.8628043005
 20
31.1422827828
 11
149.8628043005
 21
31.0454914852
 12
149.5737418074
 22
31.1100184796
 13
149.5737418074
 23
31.1100184796
  0
SOLID
  8
0
 62
7
  6
CONTINUOUS
 10
149.6315543091
 20
30.9164372091
 11
149.5737418074
 21
31.1100184796
 12
149.8628043005
 22
31.0454914852
 13
149.8628043005
 23
31.0454914852
  0
SOLID
  8
0
 62
7
  6
CONTINUOUS
 10
149.8628043005
 20
31.0454914852
 11
149.9784292936
 21
30.8841729058
 12
149.6315543091
 22
30.9164372091
 13
149.6315543091
 23
30.9164372091
  0
SOLID
  8
0
 62
7
  6
CONTINUOUS
 10
149.7471793074
 20
30.7873813202
 11
149.6315543091
 21
30.9164372091
 12
149.9784292936
 22
30.8841729058
 13
149.9784292936
 23
30.8841729058
  0
SOLID
  8
0
 62
7
  6
CONTINUOUS
 10
149.9784292936
 20
30.8841729058
 11
150.1518667936
 21
30.7873813202
 12
149.7471793074
 22
30.7873813202
 13
149.7471793074
 23
30.7873813202
  0
SOLID
  8
0
 62
7
  6
CONTINUOUS
 10
149.8628043005
 20
30.7228547004
 11
149.7471793074
 21
30.7873813202
 12
150.1518667936
 22
30.7873813202
 13
150.1518667936
 23
30.7873813202
  0
SOLID
  8
0
 62
7
  6
CONTINUOUS
 10
150.1518667936
 20
30.7873813202
 11
150.498741835
 21
30.7228547004
 12
149.8628043005
 22
30.7228547004
 13
149.8628043005
 23
30.7228547004
  0
SOLID
  8
0
 62
7
  6
CONTINUOUS
 10
150.0362418212
 20
30.658327332
 11
149.8628043005
 21
30.7228547004
 12
150.498741835
 22
30.7228547004
 13
150.498741835
 23
30.7228547004
  0
SOLID
  8
0
 62
7
  6
CONTINUOUS
 10
154.0831168074
 20
31.1100184386
 11
154.1987416972
 21
31.1745462761
 12
154.7768668074
 22
31.1422827828
 13
154.7768668074
 23
31.1422827828
  0
SOLID
  8
0
 62
7
  6
CONTINUOUS
 10
154.7768668074
 20
31.1422827828
 11
154.5456166972
 21
31.1100184386
 12
154.0831168074
 22
31.1100184386
 13
154.0831168074
 23
31.1100184386
  0
SOLID
  8
0
 62
7
  6
CONTINUOUS
 10
153.9674919177
 20
30.9809642992
 11
154.0831168074
 21
31.1100184386
 12
154.5456166972
 22
31.1100184386
 13
154.5456166972
 23
31.1100184386
  0
SOLID
  8
0
 62
7
  6
CONTINUOUS
 10
154.3143669177
 20
31.0132277988
 11
153.9674919177
 21
30.9809642992
 12
154.4299918074
 22
31.0777556927
 13
154.4299918074
 23
31.0777556927
  0
SOLID
  8
0
 62
7
  6
CONTINUOUS
 10
153.9674919177
 20
30.9809642992
 11
154.5456166972
 21
31.1100184796
 12
154.4299918074
 22
31.0777556927
 13
154.4299918074
 23
31.0777556927
  0
SOLID
  8
0
 62
7
  6
CONTINUOUS
 10
154.3143669177
 20
31.0132277988
 11
154.2565543074
 21
30.9164372091
 12
153.9674919177
 22
30.9809642992
 13
153.9674919177
 23
30.9809642992
  0
SOLID
  8
0
 62
7
  6
CONTINUOUS
 10
153.9674919177
 20
30.8841729058
 11
153.9674919177
 21
30.9809642992
 12
154.2565543074
 22
30.9164372091
 13
154.2565543074
 23
30.9164372091
  0
SOLID
  8
0
 62
7
  6
CONTINUOUS
 10
154.2565543074
 20
30.9164372091
 11
154.2565543074
 21
30.8519086025
 12
153.9674919177
 22
30.8841729058
 13
153.9674919177
 23
30.8841729058
  0
SOLID
  8
0
 62
7
  6
CONTINUOUS
 10
154.0253041972
 20
30.7551187255
 11
153.9674919177
 21
30.8841729058
 12
154.2565543074
 22
30.8519086025
 13
154.2565543074
 23
30.8519086025
  0
SOLID
  8
0
 62
7
  6
CONTINUOUS
 10
155.412804528
 20
30.9487004259
 11
155.7018665869
 21
30.8519086025
 12
155.3549915869
 22
30.8841729058
 13
155.3549915869
 23
30.8841729058
  0
SOLID
  8
0
 62
7
  6
CONTINUOUS
 10
155.1815540869
 20
30.7873815123
 11
155.3549915869
 21
30.8841729058
 12
155.7018665869
 22
30.8519086025
 13
155.7018665869
 23
30.8519086025
  0
SOLID
  8
0
 62
7
  6
CONTINUOUS
 10
155.1815540869
 20
30.7873815123
 11
155.7018665869
 21
30.8519086025
 12
155.412804528
 22
30.7551187255
 13
155.412804528
 23
30.7551187255
  0
SOLID
  8
0
 62
7
  6
CONTINUOUS
 10
155.7018665869
 20
30.8519086025
 11
155.759679528
 21
30.6905916353
 12
155.412804528
 22
30.7551187255
 13
155.412804528
 23
30.7551187255
  0
SOLID
  8
0
 62
7
  6
CONTINUOUS
 10
155.4706168074
 20
30.658327332
 11
155.412804528
 21
30.7551187255
 12
155.759679528
 22
30.6905916353
 13
155.759679528
 23
30.6905916353
  0
SOLID
  8
0
 62
7
  6
CONTINUOUS
 10
155.4706168074
 20
30.658327332
 11
155.759679528
 21
30.6905916353
 12
155.5284290869
 22
30.5938002079
 13
155.5284290869
 23
30.5938002079
  0
SOLID
  8
0
 62
7
  6
CONTINUOUS
 10
155.759679528
 20
30.6905916353
 11
155.8174918074
 21
30.5938002079
 12
155.5284290869
 22
30.5938002079
 13
155.5284290869
 23
30.5938002079
  0
SOLID
  8
0
 62
7
  6
CONTINUOUS
 10
151.0768668626
 20
30.8196456577
 11
151.1346793074
 21
30.9164373395
 12
151.4237418626
 22
30.9164373395
 13
151.4237418626
 23
30.9164373395
  0
SOLID
  8
0
 62
7
  6
CONTINUOUS
 10
151.4237418626
 20
30.9164373395
 11
151.3659292523
 21
30.7873815123
 12
151.0768668626
 22
30.8196456577
 13
151.0768668626
 23
30.8196456577
  0
SOLID
  8
0
 62
7
  6
CONTINUOUS
 10
150.9034292799
 20
30.7551187255
 11
151.0768668626
 21
30.8196456577
 12
151.3659292523
 22
30.7873815123
 13
151.3659292523
 23
30.7873815123
  0
SOLID
  8
0
 62
7
  6
CONTINUOUS
 10
150.9034292799
 20
30.7551187255
 11
151.3659292523
 21
30.7873815123
 12
150.498741835
 22
30.7228544222
 13
150.498741835
 23
30.7228544222
  0
SOLID
  8
0
 62
7
  6
CONTINUOUS
 10
151.3659292523
 20
30.7873815123
 11
151.1924917523
 21
30.6905916353
 12
150.498741835
 22
30.7228544222
 13
150.498741835
 23
30.7228544222
  0
SOLID
  8
0
 62
7
  6
CONTINUOUS
 10
150.0362418212
 20
30.658327332
 11
150.498741835
 21
30.7228544222
 12
151.1924917523
 22
30.6905916353
 13
151.1924917523
 23
30.6905916353
  0
SOLID
  8
0
 62
7
  6
CONTINUOUS
 10
150.0362418212
 20
30.658327332
 11
151.1924917523
 21
30.6905916353
 12
150.2096793212
 22
30.6260631011
 13
150.2096793212
 23
30.6260631011
  0
SOLID
  8
0
 62
7
  6
CONTINUOUS
 10
151.1924917523
 20
30.6905916353
 11
150.9612418074
 21
30.6260631011
 12
150.2096793212
 22
30.6260631011
 13
150.2096793212
 23
30.6260631011
  0
SOLID
  8
0
 62
7
  6
CONTINUOUS
 10
150.5565542799
 20
30.5938002419
 11
150.2096793212
 21
30.6260631011
 12
150.9612418074
 22
30.6260631011
 13
150.9612418074
 23
30.6260631011
  0
SOLID
  8
0
 62
7
  6
CONTINUOUS
 10
154.0253041972
 20
30.7551187255
 11
154.2565543074
 21
30.8519086025
 12
154.3143669177
 22
30.7873815123
 13
154.3143669177
 23
30.7873815123
  0
SOLID
  8
0
 62
7
  6
CONTINUOUS
 10
154.3143669177
 20
30.7873815123
 11
154.5456166972
 21
30.7228544222
 12
154.0253041972
 22
30.7551187255
 13
154.0253041972
 23
30.7551187255
  0
SOLID
  8
0
 62
7
  6
CONTINUOUS
 10
154.1987416972
 20
30.658327332
 11
154.0253041972
 21
30.7551187255
 12
154.5456166972
 22
30.7228544222
 13
154.5456166972
 23
30.7228544222
  0
SOLID
  8
0
 62
7
  6
CONTINUOUS
 10
154.8924916972
 20
30.7228544637
 11
155.1815540869
 21
30.7873815123
 12
155.412804528
 22
30.7551187255
 13
155.412804528
 23
30.7551187255
  0
SOLID
  8
0
 62
7
  6
CONTINUOUS
 10
155.412804528
 20
30.7551187255
 11
155.3549915869
 21
30.6905916353
 12
154.8924916972
 22
30.7228544637
 13
154.8924916972
 23
30.7228544637
  0
SOLID
  8
0
 62
7
  6
CONTINUOUS
 10
155.3549915869
 20
30.6905916353
 11
154.1987416972
 21
30.658327332
 12
154.8924916972
 22
30.7228544637
 13
154.8924916972
 23
30.7228544637
  0
SOLID
  8
0
 62
7
  6
CONTINUOUS
 10
154.1987416972
 20
30.658327332
 11
154.5456166972
 21
30.7228544637
 12
154.8924916972
 22
30.7228544637
 13
154.8924916972
 23
30.7228544637
  0
SOLID
  8
0
 62
7
  6
CONTINUOUS
 10
154.1987416972
 20
30.658327332
 11
155.3549915869
 21
30.6905916353
 12
154.3143669177
 22
30.6260630541
 13
154.3143669177
 23
30.6260630541
  0
SOLID
  8
0
 62
7
  6
CONTINUOUS
 10
155.3549915869
 20
30.6905916353
 11
155.1815540869
 21
30.6260630541
 12
154.3143669177
 22
30.6260630541
 13
154.3143669177
 23
30.6260630541
  0
SOLID
  8
0
 62
7
  6
CONTINUOUS
 10
154.5456166972
 20
30.5938002188
 11
154.3143669177
 21
30.6260630541
 12
155.1815540869
 22
30.6260630541
 13
155.1815540869
 23
30.6260630541
  0
SOLID
  8
0
 62
7
  6
CONTINUOUS
 10
155.1815540869
 20
30.6260630541
 11
154.8924916972
 21
30.5938002188
 12
154.5456166972
 22
30.5938002188
 13
154.5456166972
 23
30.5938002188
  0
SOLID
  8
0
 62
7
  6
CONTINUOUS
 10
159.575304528
 20
30.7551187255
 11
159.228429528
 21
30.7228544637
 12
159.4596793074
 22
30.7873815123
 13
159.4596793074
 23
30.7873815123
  0
SOLID
  8
0
 62
7
  6
CONTINUOUS
 10
159.4596793074
 20
30.7873815123
 11
159.228429528
 21
30.7228544637
 12
159.401867028
 22
30.851908644
 13
159.401867028
 23
30.851908644
  0
SOLID
  8
0
 62
7
  6
CONTINUOUS
 10
159.228429528
 20
30.7228544637
 11
159.1128043074
 21
30.851908644
 12
159.401867028
 22
30.851908644
 13
159.401867028
 23
30.851908644
  0
SOLID
  8
0
 62
7
  6
CONTINUOUS
 10
159.575304528
 20
30.7551187255
 11
159.922179528
 21
30.7228544637
 12
159.228429528
 22
30.7228544637
 13
159.228429528
 23
30.7228544637
  0
SOLID
  8
0
 62
7
  6
CONTINUOUS
 10
156.279992028
 20
30.5938002419
 11
156.279992028
 21
31.6262382337
 12
156.5690540869
 22
30.5938002419
 13
156.5690540869
 23
31.6262382337
  0
ENDBLK
  8
0
  6
BYBLOCK
 62
0
  0
BLOCK
  8
0
 62
2
  6
CONTINUOUS
  2
AMMEAAL_LOGO_BL0
 70
64
 10
32.1213064866
 20
19.8534310916
  0
TEXT
  8
0
 62
7
  6
CONTINUOUS
 10
18.3860103289
 20
19.2268451992
  7
TEXTSTYLE_3
 40
2.7338706658
  1
Ammeraal Beltech
 41
1.0
 51
15.0
 72
0
  0
TEXT
  8
0
 62
7
  6
CONTINUOUS
 10
29.1868111546
 20
16.9533085264
  7
TEXTSTYLE_4
 40
1.0935482663
  1
Innovation & Service in Belting
 41
1.0
 72
0
  0
LINE
  8
0
 62
7
  6
CONTINUOUS
 10
12.3614696776
 20
19.9934385078
 11
13.1396216709
 21
23.6543558055
  0
LINE
  8
0
 62
7
  6
CONTINUOUS
 10
23.2347899607
 20
27.3177497171
 11
13.6274394139
 21
24.1961322958
  0
LINE
  8
0
 62
7
  6
CONTINUOUS
 10
12.5867530099
 20
19.3000877048
 11
20.093828271
 21
12.5406867788
  0
LINE
  8
0
 62
7
  6
CONTINUOUS
 10
12.8492874206
 20
20.5352149982
 11
23.6575567857
 21
24.0470345971
  0
LINE
  8
0
 62
7
  6
CONTINUOUS
 10
23.6533516486
 20
13.6972460334
 11
15.2078919798
 21
21.3015720751
  0
LINE
  8
0
 62
7
  6
CONTINUOUS
 10
24.1731743684
 20
26.4728246013
 11
23.1966148312
 21
21.8784731989
  0
LINE
  8
0
 62
7
  6
CONTINUOUS
 10
22.4968128835
 20
18.5861638851
 11
21.810364672
 21
15.3566789607
  0
LINE
  8
0
 62
7
  6
CONTINUOUS
 10
24.8542704669
 20
14.087448211
 11
25.8105020025
 21
18.5861638851
  0
LINE
  8
0
 62
7
  6
CONTINUOUS
 10
26.5103039502
 20
21.8784731989
 11
26.9545457526
 21
23.9684665583
  0
LINE
  8
0
 62
7
  6
CONTINUOUS
 10
20.8069293463
 20
12.3891124661
 11
24.3664527239
 21
13.5456717207
  0
LINE
  8
0
 62
7
  6
CONTINUOUS
 10
23.9478910361
 20
27.1661754044
 11
26.7292624203
 21
24.6618173613
  0
ARC
  8
0
 62
7
  6
CONTINUOUS
 10
13.8527227462
 20
23.5027814928
 40
0.7290321776
 50
108.0
 51
168.0
  0
ARC
  8
0
 62
7
  6
CONTINUOUS
 10
23.4600732931
 20
26.624398914
 40
0.7290321776
 50
348.0
 51
108.0
  0
ARC
  8
0
 62
7
  6
CONTINUOUS
 10
26.2414446773
 20
24.120040871
 40
0.7290321776
 50
348.0
 51
48.0
  0
ARC
  8
0
 62
7
  6
CONTINUOUS
 10
20.581646014
 20
13.0824632691
 40
0.7290321776
 50
228.0
 51
288.0
  0
ARC
  8
0
 62
7
  6
CONTINUOUS
 10
13.0745707529
 20
19.8418641951
 40
0.7290321776
 50
108.0
 51
228.0
  0
ARC
  8
0
 62
7
  6
CONTINUOUS
 10
24.1411693916
 20
14.2390225237
 40
0.7290321776
 50
228.0
 51
348.0
  0
ENDBLK
  8
0
  6
BYBLOCK
 62
0
  0
ENDSEC
  0
SECTION
  2
ENTITIES
  0
TEXT
  8
0
 62
5
  6
CONTINUOUS
 10
96.0
 20
25.636
  7
TEXTSTYLE_2
 40
2.8
  1
Scale :
 41
0.6
 51
0.000019
 72
0
  0
TEXT
  8
0
 62
5
  6
CONTINUOUS
 10
116.0
 20
25.636
  7
TEXTSTYLE_2
 40
2.8
  1
Belt type:
 41
0.6
 51
0.000019
 72
0
  0
INSERT
  8
0
 62
2
  6
CONTINUOUS
  2
AMMEAAL_LOGO_BL0
 10
32.1213064866
 20
19.8534310916
  0
INSERT
  8
0
 62
2
  6
CONTINUOUS
  2
UNI_LOGO2_BL1
 10
173.5956734183
 20
35.5937998301
  0
LINE
  8
0
 62
2
  6
CONTINUOUS
 10
10.0
 20
30.0
 11
200.0
 21
30.0
  0
LINE
  8
0
 62
2
  6
CONTINUOUS
 10
10.0
 20
30.0
 11
10.0
 21
10.0
  0
LINE
  8
0
 62
2
  6
CONTINUOUS
 10
10.0
 20
10.0
 11
200.0
 21
10.0
  0
LINE
  8
0
 62
2
  6
CONTINUOUS
 10
95.0
 20
30.0
 11
95.0
 21
10.0
  0
LINE
  8
0
 62
2
  6
CONTINUOUS
 10
115.0
 20
30.0
 11
115.0
 21
10.0
  0
LINE
  8
0
 62
2
  6
CONTINUOUS
 10
200.0
 20
30.0
 11
200.0
 21
10.0
  0
TEXT
  8
0
 62
5
  6
CONTINUOUS
 10
13.0
 20
23.303
  7
TEXTSTYLE_5
 40
1.52
  1
                                                                     Ammeraal Beltech Modular A/S
 41
1.0
 72
0
  0
TEXT
  8
0
 62
5
  6
CONTINUOUS
 10
13.0
 20
20.595
  7
TEXTSTYLE_5
 40
1.5
  1
                                                                      Hjulmagervej 21,  7100 Vejle,  DK
 41
1.0
 72
0
  0
TEXT
  8
0
 62
5
  6
CONTINUOUS
 10
13.0
 20
17.881
  7
TEXTSTYLE_5
 40
1.495
  1
                                                                      tel: 
 41
1.0
 72
0
  0
TEXT
  8
0
 62
5
  6
CONTINUOUS
 10
57.9869465649
 20
17.881
  7
TEXTSTYLE_5
 40
1.51
  1
+45 75723100     fax: +45 75723348
 41
1.0
 72
0
  0
TEXT
  8
0
 62
5
  6
CONTINUOUS
 10
13.0
 20
15.177
  7
TEXTSTYLE_5
 40
1.5
  1
                                                                      admin@unichains.dk  www.unichains.com
 41
1.0
 72
0
  0
TEXT
  8
0
 62
5
  6
CONTINUOUS
 10
99.75
 20
13.75
  7
TEXTSTYLE_6
 40
5.0
  1
1:1
 41
0.7
 72
1
 11
105.0
 21
13.75
  0
TEXT
  8
0
 62
5
  6
CONTINUOUS
 10
118.0
 20
13.75
  7
TEXTSTYLE_7
 40
7.5
  1
Sprocket Z19 2,5" SQ
 41
0.48875
 72
0
  0
LINE
  8
0
 62
7
  6
CONTINUOUS
 10
210.0
 20
0.0
 11
0.0
 21
0.0
  0
LINE
  8
0
 62
7
  6
CONTINUOUS
 10
10.0
 20
10.0
 11
200.0
 21
10.0
  0
LINE
  8
0
 62
7
  6
CONTINUOUS
 10
10.0
 20
30.0
 11
200.0
 21
30.0
  0
LINE
  8
0
 62
7
  6
CONTINUOUS
 10
0.0
 20
0.0
 11
0.0
 21
297.0
  0
LINE
  8
0
 62
7
  6
CONTINUOUS
 10
10.0
 20
10.0
 11
10.0
 21
287.0
  0
LINE
  8
0
 62
7
  6
CONTINUOUS
 10
200.0
 20
287.0
 11
200.0
 21
10.0
  0
LINE
  8
0
 62
7
  6
CONTINUOUS
 10
210.0
 20
0.0
 11
210.0
 21
297.0
  0
LINE
  8
0
 62
7
  6
CONTINUOUS
 10
10.0
 20
287.0
 11
200.0
 21
287.0
  0
LINE
  8
0
 62
7
  6
CONTINUOUS
 10
0.0
 20
297.0
 11
210.0
 21
297.0
  0
LINE
  8
0
 62
7
  6
CONTINUOUS
 10
26.7896027037
 20
181.4517237933
 11
27.3193759268
 21
175.0583117862
  0
LINE
  8
0
 62
7
  6
CONTINUOUS
 10
29.9362850476
 20
206.6397082544
 11
28.3614162111
 21
200.4206918606
  0
LINE
  8
0
 62
7
  6
CONTINUOUS
 10
41.0909966475
 20
229.4412121546
 11
37.5821472264
 21
224.0705182982
  0
LINE
  8
0
 62
7
  6
CONTINUOUS
 10
59.0449514183
 20
247.3853387446
 11
53.9823596928
 21
243.4449654398
  0
LINE
  8
0
 62
7
  6
CONTINUOUS
 10
81.8525597763
 20
258.5275634764
 11
75.7848361142
 21
256.4445113121
  0
LINE
  8
0
 62
7
  6
CONTINUOUS
 10
113.3515910421
 20
108.0967509546
 11
119.6794179797
 21
109.1526785123
  0
LINE
  8
0
 62
7
  6
CONTINUOUS
 10
94.3176122873
 20
108.0967509546
 11
87.9897853497
 21
109.1526785123
  0
LINE
  8
0
 62
7
  6
CONTINUOUS
 10
64.3450113626
 20
118.3863578488
 11
69.9871200652
 21
115.3330013109
  0
LINE
  8
0
 62
7
  6
CONTINUOUS
 10
44.9795472289
 20
134.7971765327
 11
49.3245276722
 21
130.0772695731
  0
LINE
  8
0
 62
7
  6
CONTINUOUS
 10
31.9919414736
 20
156.6067677194
 11
34.5689476072
 21
150.7317854942
  0
LINE
  8
QUILTS
 62
7
  6
CONTINUOUS
 10
46.0020107729
 20
187.8453471003
 11
45.986085627
 21
187.3247571904
  0
LINE
  8
QUILTS
 62
7
  6
CONTINUOUS
 10
45.9223850582
 20
185.2423980347
 11
45.9064599157
 21
184.7218082365
  0
LINE
  8
QUILTS
 62
7
  6
CONTINUOUS
 10
47.4585013226
 20
201.1887801741
 11
47.4800359328
 21
201.6182733359
  0
LINE
  8
QUILTS
 62
7
  6
CONTINUOUS
 10
46.8702611808
 20
201.8069498542
 11
46.8179353724
 21
201.2779440694
  0
LINE
  8
QUILTS
 62
7
  6
CONTINUOUS
 10
46.2814139633
 20
190.9974005697
 11
46.2384856673
 21
190.5829510094
  0
LINE
  8
QUILTS
 62
7
  6
CONTINUOUS
 10
46.1418970474
 20
189.6504399432
 11
46.0882366927
 21
189.132378141
  0
LINE
  8
QUILTS
 62
7
  6
CONTINUOUS
 10
45.0419884874
 20
193.7685080783
 11
44.9641364696
 21
193.2535263141
  0
LINE
  8
QUILTS
 62
7
  6
CONTINUOUS
 10
45.4900754305
 20
193.1740178496
 11
45.5679274483
 21
193.6889996138
  0
LINE
  8
QUILTS
 62
7
  6
CONTINUOUS
 10
46.6198056649
 20
193.5299826401
 11
46.5419536471
 21
193.0150008758
  0
LINE
  8
QUILTS
 62
7
  6
CONTINUOUS
 10
47.1165890043
 20
202.6030451437
 11
46.8702611808
 21
201.8069498542
  0
LINE
  8
QUILTS
 62
7
  6
CONTINUOUS
 10
47.4800359328
 20
201.6182733359
 11
47.7263637563
 21
202.4143686254
  0
LINE
  8
QUILTS
 62
7
  6
CONTINUOUS
 10
49.6393286212
 20
209.2639568172
 11
49.400659417
 21
208.6863219749
  0
LINE
  8
QUILTS
 62
7
  6
CONTINUOUS
 10
48.4062040961
 20
206.2795093978
 11
48.048200745
 21
205.4130582361
  0
LINE
  8
QUILTS
 62
7
  6
CONTINUOUS
 10
51.3424460794
 20
212.6377602224
 11
50.1864556889
 21
210.4210766146
  0
LINE
  8
QUILTS
 62
7
  6
CONTINUOUS
 10
51.0414149913
 20
210.680101069
 11
51.9565744179
 21
212.4349762966
  0
LINE
  8
QUILTS
 62
7
  6
CONTINUOUS
 10
53.2771519932
 20
211.7463011146
 11
52.3619925666
 21
209.9914258871
  0
LINE
  8
QUILTS
 62
7
  6
CONTINUOUS
 10
47.372172711
 20
203.0691576169
 11
47.1165890043
 21
202.6030451437
  0
LINE
  8
QUILTS
 62
7
  6
CONTINUOUS
 10
60.7807398102
 20
223.3398200903
 11
60.3678290585
 21
222.7294892321
  0
LINE
  8
QUILTS
 62
7
  6
CONTINUOUS
 10
57.1240648053
 20
221.4778012823
 11
55.5943396803
 21
219.5004441973
  0
LINE
  8
QUILTS
 62
7
  6
CONTINUOUS
 10
56.4816280294
 20
219.604215398
 11
57.6926609064
 21
221.1696237189
  0
LINE
  8
QUILTS
 62
7
  6
CONTINUOUS
 10
58.8706609672
 20
220.2582980388
 11
57.6596280903
 21
218.6928897179
  0
LINE
  8
QUILTS
 62
7
  6
CONTINUOUS
 10
51.6776050965
 20
213.0503796421
 11
51.3424460794
 21
212.6377602224
  0
LINE
  8
QUILTS
 62
7
  6
CONTINUOUS
 10
61.2020231284
 20
223.8015000076
 11
60.7807398102
 21
223.3398200903
  0
LINE
  8
QUILTS
 62
7
  6
CONTINUOUS
 10
61.0950738365
 20
223.0529900233
 11
61.5163571547
 21
223.5146699406
  0
LINE
  8
QUILTS
 62
7
  6
CONTINUOUS
 10
62.1547517007
 20
227.0802176011
 11
61.7846544094
 21
226.7137520341
  0
LINE
  8
QUILTS
 62
7
  6
CONTINUOUS
 10
63.222589965
 20
228.1026258466
 11
62.8435022555
 21
227.745468283
  0
LINE
  8
QUILTS
 62
7
  6
CONTINUOUS
 10
57.5269013569
 20
221.8246572538
 11
57.1240648053
 21
221.4778012823
  0
LINE
  8
QUILTS
 62
7
  6
CONTINUOUS
 10
76.1112699462
 20
237.2647494181
 11
75.6982327137
 21
236.9301128544
  0
LINE
  8
QUILTS
 62
7
  6
CONTINUOUS
 10
71.6776246319
 20
234.7222798947
 11
68.2519142745
 21
232.3504438099
  0
LINE
  8
QUILTS
 62
7
  6
CONTINUOUS
 10
68.5547019392
 20
231.9131189687
 11
71.5521970318
 21
233.9884745251
  0
LINE
  8
QUILTS
 62
7
  6
CONTINUOUS
 10
73.748897769
 20
235.9542331537
 11
73.2130219432
 21
235.6325779045
  0
LINE
  8
QUILTS
 62
7
  6
CONTINUOUS
 10
76.5733835731
 20
237.5049993144
 11
76.1112699462
 21
237.2647494181
  0
LINE
  8
QUILTS
 62
7
  6
CONTINUOUS
 10
76.2642097313
 20
236.7447559835
 11
76.9111654243
 21
237.0811040786
  0
LINE
  8
QUILTS
 62
7
  6
CONTINUOUS
 10
77.0845693636
 20
237.6508603436
 11
76.5733835731
 21
237.5049993144
  0
LINE
  8
QUILTS
 62
7
  6
CONTINUOUS
 10
51.2741274055
 20
201.6437371255
 11
51.283383641
 21
201.3137554479
  0
LINE
  8
QUILTS
 62
7
  6
CONTINUOUS
 10
51.9454839113
 20
201.6540835562
 11
51.9362276668
 21
201.9840652366
  0
LINE
  8
QUILTS
 62
7
  6
CONTINUOUS
 10
53.8491304432
 20
212.1528987928
 11
53.8511356575
 21
212.3868127967
  0
LINE
  8
QUILTS
 62
7
  6
CONTINUOUS
 10
48.9347509418
 20
186.2966174191
 11
48.922010826
 21
185.880145521
  0
LINE
  8
QUILTS
 62
7
  6
CONTINUOUS
 10
49.3473437642
 20
185.8671343408
 11
49.36008388
 21
186.283606239
  0
LINE
  8
QUILTS
 62
7
  6
CONTINUOUS
 10
49.3951191928
 20
187.4289037727
 11
49.4110443387
 21
187.9494936826
  0
LINE
  8
QUILTS
 62
7
  6
CONTINUOUS
 10
51.8931584642
 20
201.1250789075
 11
51.9454839113
 21
201.6540835562
  0
LINE
  8
QUILTS
 62
7
  6
CONTINUOUS
 10
49.4743760598
 20
188.7816450073
 11
49.5280364144
 21
189.2997068096
  0
LINE
  8
QUILTS
 62
7
  6
CONTINUOUS
 10
49.7212136543
 20
191.1647289419
 11
49.7748739782
 21
191.6827904477
  0
LINE
  8
QUILTS
 62
7
  6
CONTINUOUS
 10
49.9079632919
 20
192.506146658
 11
49.9858153097
 21
193.0211284222
  0
LINE
  8
QUILTS
 62
7
  6
CONTINUOUS
 10
53.3273238412
 20
212.0725776402
 11
53.2771519932
 21
211.7463011146
  0
LINE
  8
QUILTS
 62
7
  6
CONTINUOUS
 10
55.308190006
 20
211.0395649706
 11
55.258018158
 21
210.7132884451
  0
LINE
  8
QUILTS
 62
7
  6
CONTINUOUS
 10
59.5055207825
 20
220.5573532748
 11
59.5488545453
 21
220.7872270818
  0
LINE
  8
QUILTS
 62
7
  6
CONTINUOUS
 10
60.3678290585
 20
222.7294892321
 11
60.3059842567
 21
222.5038878225
  0
LINE
  8
QUILTS
 62
7
  6
CONTINUOUS
 10
60.8309591385
 20
222.4478968336
 11
60.8928039404
 21
222.6734982432
  0
LINE
  8
QUILTS
 62
7
  6
CONTINUOUS
 10
61.4428884864
 20
222.171545626
 11
61.3192004898
 21
221.720344568
  0
LINE
  8
QUILTS
 62
7
  6
CONTINUOUS
 10
61.8358061293
 20
221.8130079418
 11
61.8976493241
 21
222.0386075902
  0
LINE
  8
QUILTS
 62
7
  6
CONTINUOUS
 10
55.775813295
 20
210.3257794415
 11
55.9223184023
 21
210.8367810147
  0
LINE
  8
QUILTS
 62
7
  6
CONTINUOUS
 10
49.2282704161
 20
185.4539153122
 11
49.3473437642
 21
185.8671343408
  0
LINE
  8
QUILTS
 62
7
  6
CONTINUOUS
 10
50.7967725534
 20
201.9004790636
 11
50.6120267739
 21
201.3034078811
  0
LINE
  8
QUILTS
 62
7
  6
CONTINUOUS
 10
51.283383641
 20
201.3137554479
 11
51.0370558175
 21
200.5176601583
  0
LINE
  8
QUILTS
 62
7
  6
CONTINUOUS
 10
51.6468306407
 20
200.328983618
 11
51.8931584642
 21
201.1250789075
  0
LINE
  8
QUILTS
 62
7
  6
CONTINUOUS
 10
52.2010679793
 20
202.1201971654
 11
52.3858137588
 21
202.7172683479
  0
LINE
  8
QUILTS
 62
7
  6
CONTINUOUS
 10
58.9777337632
 20
220.5705623529
 11
58.8706609672
 21
220.2582980388
  0
LINE
  8
QUILTS
 62
7
  6
CONTINUOUS
 10
60.7447336777
 20
219.2035739694
 11
60.6376608817
 21
218.8913096554
  0
LINE
  8
QUILTS
 62
7
  6
CONTINUOUS
 10
63.45583532
 20
222.1679434996
 11
63.2619331967
 21
221.6397954701
  0
LINE
  8
QUILTS
 62
7
  6
CONTINUOUS
 10
46.6617530511
 20
190.5391093715
 11
46.8104981931
 21
190.9425985224
  0
LINE
  8
QUILTS
 62
7
  6
CONTINUOUS
 10
52.669279483
 20
203.5037046027
 11
52.9079486871
 21
204.0813394449
  0
LINE
  8
QUILTS
 62
7
  6
CONTINUOUS
 10
53.9024035528
 20
206.4881509203
 11
54.2604073591
 21
207.3546031837
  0
LINE
  8
QUILTS
 62
7
  6
CONTINUOUS
 10
46.4194270159
 20
191.2972771823
 11
46.2814139633
 21
190.9974005697
  0
LINE
  8
QUILTS
 62
7
  6
CONTINUOUS
 10
61.0787789754
 20
218.4183510322
 11
61.3133298304
 21
218.8953963662
  0
LINE
  8
QUILTS
 62
7
  6
CONTINUOUS
 10
52.9279542714
 20
209.6962794396
 11
53.8431136979
 21
211.4511546671
  0
LINE
  8
QUILTS
 62
7
  6
CONTINUOUS
 10
55.258018158
 20
210.7132884451
 11
54.3428587314
 21
208.9584132175
  0
LINE
  8
QUILTS
 62
7
  6
CONTINUOUS
 10
54.6198229046
 20
208.1090958337
 11
55.775813295
 21
210.3257794415
  0
LINE
  8
QUILTS
 62
7
  6
CONTINUOUS
 10
60.8928039404
 20
222.6734982432
 11
61.0950738365
 21
223.0529900233
  0
LINE
  8
QUILTS
 62
7
  6
CONTINUOUS
 10
61.8976493241
 20
222.0386075902
 11
62.0999192202
 21
222.4180993703
  0
LINE
  8
QUILTS
 62
7
  6
CONTINUOUS
 10
51.3912465727
 20
199.8628700088
 11
51.6468306407
 21
200.328983618
  0
LINE
  8
QUILTS
 62
7
  6
CONTINUOUS
 10
63.5762672505
 20
221.352965378
 11
63.848752901
 21
221.8094058719
  0
LINE
  8
QUILTS
 62
7
  6
CONTINUOUS
 10
75.6982327137
 20
236.9301128544
 11
75.3833355777
 21
236.406696357
  0
LINE
  8
QUILTS
 62
7
  6
CONTINUOUS
 10
47.7263637563
 20
202.4143686254
 11
47.9511566172
 21
202.7809696144
  0
LINE
  8
QUILTS
 62
7
  6
CONTINUOUS
 10
51.0370558175
 20
200.5176601583
 11
50.8122629566
 21
200.1510591693
  0
LINE
  8
QUILTS
 62
7
  6
CONTINUOUS
 10
61.7855850839
 20
222.7049295377
 11
61.4428884864
 21
222.171545626
  0
LINE
  8
QUILTS
 62
7
  6
CONTINUOUS
 10
46.8104981931
 20
190.9425985224
 11
46.9377791563
 21
191.1388625967
  0
LINE
  8
QUILTS
 62
7
  6
CONTINUOUS
 10
58.1644851582
 20
218.3023216474
 11
59.3755180352
 21
219.8677299683
  0
LINE
  8
QUILTS
 62
7
  6
CONTINUOUS
 10
60.6376608817
 20
218.8913096554
 11
59.4266280048
 21
217.3259013345
  0
LINE
  8
QUILTS
 62
7
  6
CONTINUOUS
 10
59.5490538504
 20
216.4409939471
 11
61.0787789754
 21
218.4183510322
  0
LINE
  8
QUILTS
 62
7
  6
CONTINUOUS
 10
60.5668444406
 20
221.8428036439
 11
60.9179136045
 21
222.2275366149
  0
LINE
  8
QUILTS
 62
7
  6
CONTINUOUS
 10
62.5579359589
 20
223.5513406648
 11
61.7855850839
 21
222.7049295377
  0
LINE
  8
QUILTS
 62
7
  6
CONTINUOUS
 10
62.0999192202
 20
222.4180993703
 11
62.8722700953
 21
223.2645104974
  0
LINE
  8
QUILTS
 62
7
  6
CONTINUOUS
 10
63.2619331967
 20
221.6397954701
 11
62.8406514856
 21
221.1781173139
  0
LINE
  8
QUILTS
 62
7
  6
CONTINUOUS
 10
63.1549855394
 20
220.8912872218
 11
63.5762672505
 21
221.352965378
  0
LINE
  8
QUILTS
 62
7
  6
CONTINUOUS
 10
64.3486181256
 20
222.199376505
 11
64.6996840754
 21
222.5841059536
  0
LINE
  8
QUILTS
 62
7
  6
CONTINUOUS
 10
76.0360145649
 20
236.5062176186
 11
76.2642097313
 21
236.7447559835
  0
LINE
  8
QUILTS
 62
7
  6
CONTINUOUS
 10
78.1208040007
 20
235.4318648383
 11
77.8926088343
 21
235.1933264734
  0
LINE
  8
QUILTS
 62
7
  6
CONTINUOUS
 10
78.9550308854
 20
233.8272539004
 11
78.7268357191
 21
233.5887155355
  0
LINE
  8
QUILTS
 62
7
  6
CONTINUOUS
 10
47.6985950496
 20
203.4043136583
 11
47.372172711
 21
203.0691576169
  0
LINE
  8
QUILTS
 62
7
  6
CONTINUOUS
 10
65.3027131161
 20
223.1608288804
 11
65.6728104074
 21
223.5272944474
  0
LINE
  8
QUILTS
 62
7
  6
CONTINUOUS
 10
51.9565744179
 20
212.4349762966
 11
52.1954001675
 21
212.662870673
  0
LINE
  8
QUILTS
 62
7
  6
CONTINUOUS
 10
53.8431136979
 20
211.4511546671
 11
54.0819394475
 21
211.6790490435
  0
LINE
  8
QUILTS
 62
7
  6
CONTINUOUS
 10
66.2722044029
 20
224.1062373774
 11
66.6512921125
 21
224.463394941
  0
LINE
  8
QUILTS
 62
7
  6
CONTINUOUS
 10
78.0455486881
 20
234.6733329066
 11
78.4585900826
 21
235.0079718021
  0
LINE
  8
QUILTS
 62
7
  6
CONTINUOUS
 10
78.8797755385
 20
233.0687220348
 11
79.2928169975
 21
233.4033608063
  0
LINE
  8
QUILTS
 62
7
  6
CONTINUOUS
 10
61.701888346
 20
224.191470647
 11
61.2020231284
 21
223.8015000076
  0
LINE
  8
QUILTS
 62
7
  6
CONTINUOUS
 10
54.039789559
 20
212.2884306476
 11
53.8491304432
 21
212.1528987928
  0
LINE
  8
QUILTS
 62
7
  6
CONTINUOUS
 10
74.1604837793
 20
231.1362157684
 11
71.2486301716
 21
229.120155232
  0
LINE
  8
QUILTS
 62
7
  6
CONTINUOUS
 10
71.098118662
 20
228.2395898129
 11
74.5238290194
 21
230.6114258977
  0
LINE
  8
QUILTS
 62
7
  6
CONTINUOUS
 10
57.6926609064
 20
221.1696237189
 11
57.9680193917
 21
221.3516986762
  0
LINE
  8
QUILTS
 62
7
  6
CONTINUOUS
 10
59.3755180352
 20
219.8677299683
 11
59.6508765204
 21
220.0498049256
  0
LINE
  8
QUILTS
 62
7
  6
CONTINUOUS
 10
61.5163571547
 20
223.5146699406
 11
61.8757940639
 21
223.7507466872
  0
LINE
  8
QUILTS
 62
7
  6
CONTINUOUS
 10
62.7955470162
 20
220.6552087203
 11
63.1549855394
 21
220.8912872218
  0
LINE
  8
QUILTS
 62
7
  6
CONTINUOUS
 10
75.7862639366
 20
231.3455712981
 11
76.3221397624
 21
231.6672265473
  0
LINE
  8
QUILTS
 62
7
  6
CONTINUOUS
 10
77.8926088343
 20
235.1933264734
 11
77.2456531413
 21
234.8569783783
  0
LINE
  8
QUILTS
 62
7
  6
CONTINUOUS
 10
77.5834350612
 20
234.4330830104
 11
78.0455486881
 21
234.6733329066
  0
LINE
  8
QUILTS
 62
7
  6
CONTINUOUS
 10
77.1384913169
 20
233.4823526136
 11
76.67637769
 21
233.2421027174
  0
LINE
  8
QUILTS
 62
7
  6
CONTINUOUS
 10
78.7268357191
 20
233.5887155355
 11
78.1723010591
 21
233.3004165398
  0
LINE
  8
QUILTS
 62
7
  6
CONTINUOUS
 10
78.5100871755
 20
232.8765234375
 11
78.8797755385
 21
233.0687220348
  0
LINE
  8
QUILTS
 62
7
  6
CONTINUOUS
 10
59.7171402346
 20
220.6570377249
 11
59.5055207825
 21
220.5573532748
  0
LINE
  8
QUILTS
 62
7
  6
CONTINUOUS
 10
61.8757940639
 20
223.7507466872
 11
62.0948058789
 21
223.8329330633
  0
LINE
  8
QUILTS
 62
7
  6
CONTINUOUS
 10
77.0722534328
 20
234.2872243129
 11
77.5834350612
 21
234.4330830104
  0
LINE
  8
QUILTS
 62
7
  6
CONTINUOUS
 10
77.9989013807
 20
232.7306624165
 11
78.5100871755
 21
232.8765234375
  0
LINE
  8
QUILTS
 62
7
  6
CONTINUOUS
 10
48.8411577906
 20
186.7163419642
 11
48.9347509418
 21
186.2966174191
  0
LINE
  8
QUILTS
 62
7
  6
CONTINUOUS
 10
49.36008388
 20
186.283606239
 11
49.2664907567
 21
186.7033307832
  0
LINE
  8
QUILTS
 62
7
  6
CONTINUOUS
 10
46.8179353724
 20
201.2779440694
 11
46.8980298875
 21
200.8170048213
  0
LINE
  8
QUILTS
 62
7
  6
CONTINUOUS
 10
46.2384856673
 20
190.5829510094
 11
46.3013742173
 21
190.1575410395
  0
LINE
  8
QUILTS
 62
7
  6
CONTINUOUS
 10
46.7246416011
 20
190.1136994017
 11
46.6617530511
 21
190.5391093715
  0
LINE
  8
QUILTS
 62
7
  6
CONTINUOUS
 10
61.3133298304
 20
218.8953963662
 11
61.3158544892
 21
219.4202386755
  0
LINE
  8
QUILTS
 62
7
  6
CONTINUOUS
 10
63.848752901
 20
221.8094058719
 11
63.9022267228
 21
222.1836600023
  0
LINE
  8
QUILTS
 62
7
  6
CONTINUOUS
 10
75.8568915622
 20
236.1732903867
 11
76.0360145649
 21
236.5062176186
  0
LINE
  8
QUILTS
 62
7
  6
CONTINUOUS
 10
78.2999270034
 20
235.7647920702
 11
78.1208040007
 21
235.4318648383
  0
LINE
  8
QUILTS
 62
7
  6
CONTINUOUS
 10
78.4585900826
 20
235.0079718021
 11
78.8168360881
 21
235.6738262659
  0
LINE
  8
QUILTS
 62
7
  6
CONTINUOUS
 10
79.1341538882
 20
234.1601811323
 11
78.9550308854
 21
233.8272539004
  0
LINE
  8
QUILTS
 62
7
  6
CONTINUOUS
 10
48.922010826
 20
185.880145521
 11
48.6966042247
 21
185.4701792879
  0
LINE
  8
QUILTS
 62
7
  6
CONTINUOUS
 10
79.2928169975
 20
233.4033608063
 11
79.6077098898
 21
233.9267751289
  0
LINE
  8
QUILTS
 62
7
  6
CONTINUOUS
 10
49.0060488508
 20
185.1480669789
 11
49.2282704161
 21
185.4539153122
  0
LINE
  8
QUILTS
 62
7
  6
CONTINUOUS
 10
46.6632569145
 20
191.5861933854
 11
46.4194270159
 21
191.2972771823
  0
LINE
  8
QUILTS
 62
7
  6
CONTINUOUS
 10
51.0648245598
 20
199.5277151144
 11
51.3912465727
 21
199.8628700088
  0
LINE
  8
QUILTS
 62
7
  6
CONTINUOUS
 10
47.9511566172
 20
202.7809696144
 11
48.2467877576
 21
203.0166130329
  0
LINE
  8
QUILTS
 62
7
  6
CONTINUOUS
 10
50.8122629566
 20
200.1510591693
 11
50.5166317451
 21
199.9154157728
  0
LINE
  8
QUILTS
 62
7
  6
CONTINUOUS
 10
52.153250279
 20
213.272252277
 11
51.6776050965
 21
213.0503796421
  0
LINE
  8
QUILTS
 62
7
  6
CONTINUOUS
 10
62.8406514856
 20
221.1781173139
 11
62.4026294351
 21
221.013746348
  0
LINE
  8
QUILTS
 62
7
  6
CONTINUOUS
 10
62.5765368014
 20
220.5730241117
 11
62.7955470162
 21
220.6552087203
  0
LINE
  8
QUILTS
 62
7
  6
CONTINUOUS
 10
48.6380464258
 20
187.0352014401
 11
48.8411577906
 21
186.7163419642
  0
LINE
  8
QUILTS
 62
7
  6
CONTINUOUS
 10
46.3013742173
 20
190.1575410395
 11
46.4808117332
 21
189.824783495
  0
LINE
  8
QUILTS
 62
7
  6
CONTINUOUS
 10
46.9040791171
 20
189.7809418571
 11
46.7246416011
 21
190.1136994017
  0
LINE
  8
QUILTS
 62
7
  6
CONTINUOUS
 10
49.2664907567
 20
186.7033307832
 11
49.1665275823
 21
186.9148196018
  0
LINE
  8
QUILTS
 62
7
  6
CONTINUOUS
 10
47.5693866835
 20
200.8273524101
 11
47.4585013226
 21
201.1887801741
  0
LINE
  8
QUILTS
 62
7
  6
CONTINUOUS
 10
55.9223184023
 20
210.8367810147
 11
55.8320018553
 21
211.35380011
  0
LINE
  8
QUILTS
 62
7
  6
CONTINUOUS
 10
60.3059842567
 20
222.5038878225
 11
60.3227245685
 21
222.2065806574
  0
LINE
  8
QUILTS
 62
7
  6
CONTINUOUS
 10
61.3192004898
 20
221.720344568
 11
61.3359409116
 21
221.4230373024
  0
LINE
  8
QUILTS
 62
7
  6
CONTINUOUS
 10
61.8525448341
 20
221.5156990154
 11
61.8358061293
 21
221.8130079418
  0
LINE
  8
QUILTS
 62
7
  6
CONTINUOUS
 10
63.4307256008
 20
222.6139051781
 11
63.45583532
 21
222.1679434996
  0
LINE
  8
QUILTS
 62
7
  6
CONTINUOUS
 10
75.3833355777
 20
236.406696357
 11
75.3023569023
 21
235.8849913911
  0
LINE
  8
QUILTS
 62
7
  6
CONTINUOUS
 10
73.2130219432
 20
235.6325779045
 11
73.0603948792
 21
234.6724323858
  0
LINE
  8
QUILTS
 62
7
  6
CONTINUOUS
 10
73.4983936176
 20
233.9427289651
 11
73.6510205281
 21
234.9028747394
  0
LINE
  8
QUILTS
 62
7
  6
CONTINUOUS
 10
71.2486301716
 20
229.120155232
 11
72.1015273625
 21
234.1100251171
  0
LINE
  8
QUILTS
 62
7
  6
CONTINUOUS
 10
71.5521970318
 20
233.9884745251
 11
70.6136583561
 21
228.93930962
  0
LINE
  8
QUILTS
 62
7
  6
CONTINUOUS
 10
48.6774940527
 20
184.8454714965
 11
49.0060488508
 21
185.1480669789
  0
LINE
  8
QUILTS
 62
7
  6
CONTINUOUS
 10
46.8963547237
 20
191.7714970502
 11
46.6632569145
 21
191.5861933854
  0
LINE
  8
QUILTS
 62
7
  6
CONTINUOUS
 10
46.9377791563
 20
191.1388625967
 11
47.1708769655
 21
191.3241662615
  0
LINE
  8
QUILTS
 62
7
  6
CONTINUOUS
 10
48.2282752865
 20
203.6765763882
 11
47.6985950496
 21
203.4043136583
  0
LINE
  8
QUILTS
 62
7
  6
CONTINUOUS
 10
52.3858137588
 20
202.7172683479
 11
51.7237131272
 21
202.3769391035
  0
LINE
  8
QUILTS
 62
7
  6
CONTINUOUS
 10
51.1940328192
 20
202.1046763957
 11
50.7967725534
 21
201.9004790636
  0
LINE
  8
QUILTS
 62
7
  6
CONTINUOUS
 10
51.9362276668
 20
201.9840652366
 11
52.2010679793
 21
202.1201971654
  0
LINE
  8
QUILTS
 62
7
  6
CONTINUOUS
 10
50.6120267739
 20
201.3034078811
 11
51.2741274055
 21
201.6437371255
  0
LINE
  8
QUILTS
 62
7
  6
CONTINUOUS
 10
50.5351442874
 20
199.2554523956
 11
51.0648245598
 21
199.5277151144
  0
LINE
  8
QUILTS
 62
7
  6
CONTINUOUS
 10
129.0411830554
 20
236.524532011
 11
128.7629832424
 21
236.4183451043
  0
LINE
  8
QUILTS
 62
7
  6
CONTINUOUS
 10
136.5585994867
 20
233.8157282508
 11
136.0590091086
 21
233.6450148314
  0
LINE
  8
QUILTS
 62
7
  6
CONTINUOUS
 10
52.1954001675
 20
212.662870673
 11
52.4803862341
 21
212.7492114531
  0
LINE
  8
QUILTS
 62
7
  6
CONTINUOUS
 10
54.0819394475
 20
211.6790490435
 11
54.3669255142
 21
211.7653898237
  0
LINE
  8
QUILTS
 62
7
  6
CONTINUOUS
 10
49.1665275823
 20
186.9148196018
 11
48.8570829319
 21
187.2369317252
  0
LINE
  8
QUILTS
 62
7
  6
CONTINUOUS
 10
46.4808117332
 20
189.824783495
 11
46.6709812771
 21
189.5956378959
  0
LINE
  8
QUILTS
 62
7
  6
CONTINUOUS
 10
47.094248661
 20
189.551796258
 11
46.9040791171
 21
189.7809418571
  0
LINE
  8
QUILTS
 62
7
  6
CONTINUOUS
 10
46.8980298875
 20
200.8170048213
 11
47.1813826533
 21
200.2931734004
  0
LINE
  8
QUILTS
 62
7
  6
CONTINUOUS
 10
51.7237131272
 20
202.3769391035
 11
51.5820369205
 21
202.6388553833
  0
LINE
  8
QUILTS
 62
7
  6
CONTINUOUS
 10
53.2350021047
 20
212.3556827187
 11
53.3273238412
 21
212.0725776402
  0
LINE
  8
QUILTS
 62
7
  6
CONTINUOUS
 10
55.2158682034
 20
211.3226700836
 11
55.308190006
 21
211.0395649706
  0
LINE
  8
QUILTS
 62
7
  6
CONTINUOUS
 10
58.9369246814
 20
220.8655308382
 11
58.9777337632
 21
220.5705623529
  0
LINE
  8
QUILTS
 62
7
  6
CONTINUOUS
 10
60.7039245369
 20
219.4985425003
 11
60.7447336777
 21
219.2035739694
  0
LINE
  8
QUILTS
 62
7
  6
CONTINUOUS
 10
75.8192617562
 20
235.7940233872
 11
75.8568915622
 21
236.1732903867
  0
LINE
  8
QUILTS
 62
7
  6
CONTINUOUS
 10
78.3375568094
 20
236.1440590698
 11
78.2999270034
 21
235.7647920702
  0
LINE
  8
QUILTS
 62
7
  6
CONTINUOUS
 10
79.1717836598
 20
234.5394481979
 11
79.1341538882
 21
234.1601811323
  0
LINE
  8
QUILTS
 62
7
  6
CONTINUOUS
 10
79.6077098898
 20
233.9267751289
 11
79.6886885481
 21
234.448480128
  0
LINE
  8
0
 62
7
  6
CONTINUOUS
 10
99.9708983595
 20
225.6547765885
 11
62.7970243645
 21
188.4809025934
  0
LINE
  8
QUILTS
 62
7
  6
CONTINUOUS
 10
48.6966042247
 20
185.4701792879
 11
48.3712344166
 21
185.2717017254
  0
LINE
  8
QUILTS
 62
7
  6
CONTINUOUS
 10
129.1026933694
 20
235.9106866576
 11
129.5644716377
 21
236.1666054891
  0
LINE
  8
QUILTS
 62
7
  6
CONTINUOUS
 10
136.2186505822
 20
233.1450304524
 11
136.5719674908
 21
233.287945233
  0
LINE
  8
QUILTS
 62
7
  6
CONTINUOUS
 10
136.6655432641
 20
229.5934637414
 11
136.312226313
 21
229.4505488997
  0
LINE
  8
QUILTS
 62
7
  6
CONTINUOUS
 10
136.3255942958
 20
228.9227658513
 11
136.8251846952
 21
229.0934793012
  0
LINE
  8
QUILTS
 62
7
  6
CONTINUOUS
 10
48.2467877576
 20
203.0166130329
 11
48.6132574623
 21
203.1212987928
  0
LINE
  8
QUILTS
 62
7
  6
CONTINUOUS
 10
50.5166317451
 20
199.9154157728
 11
50.1501623251
 21
199.8107299249
  0
LINE
  8
QUILTS
 62
7
  6
CONTINUOUS
 10
48.3254167313
 20
187.2531957012
 11
48.6380464258
 21
187.0352014401
  0
LINE
  8
0
 62
7
  6
CONTINUOUS
 10
62.7970243645
 20
180.7534959831
 11
99.9708983595
 21
143.5796219881
  0
LINE
  8
QUILTS
 62
7
  6
CONTINUOUS
 10
47.8126923002
 20
200.5339899557
 11
47.5693866835
 21
200.8273524101
  0
LINE
  8
QUILTS
 62
7
  6
CONTINUOUS
 10
50.9507274872
 20
202.3980387619
 11
51.1940328192
 21
202.1046763957
  0
LINE
  8
QUILTS
 62
7
  6
CONTINUOUS
 10
53.8511356575
 20
212.3868127967
 11
53.6183266531
 21
212.860662546
  0
LINE
  8
QUILTS
 62
7
  6
CONTINUOUS
 10
55.8320018553
 20
211.35380011
 11
55.5991928179
 21
211.8276498765
  0
LINE
  8
QUILTS
 62
7
  6
CONTINUOUS
 10
59.5488545453
 20
220.7872270818
 11
59.4034988073
 21
221.294775431
  0
LINE
  8
QUILTS
 62
7
  6
CONTINUOUS
 10
61.3158544892
 20
219.4202386755
 11
61.1704987218
 21
219.9277870476
  0
LINE
  8
QUILTS
 62
7
  6
CONTINUOUS
 10
75.3023569023
 20
235.8849913911
 11
75.362871561
 21
235.316946393
  0
LINE
  8
0
 62
7
  6
CONTINUOUS
 10
75.6201792034
 20
253.5534437738
 11
75.6297863958
 21
253.3399644932
  0
LINE
  8
0
 62
7
  6
CONTINUOUS
 10
64.7030679319
 20
121.4740830404
 11
64.6584542344
 21
121.2650966308
  0
LINE
  8
0
 62
7
  6
CONTINUOUS
 10
99.5324764296
 20
258.9794958979
 11
99.4722464687
 21
258.7744640633
  0
LINE
  8
0
 62
7
  6
CONTINUOUS
 10
46.3207860364
 20
137.6013394785
 11
46.2107318559
 21
137.4181625729
  0
LINE
  8
0
 62
7
  6
CONTINUOUS
 10
123.9109756794
 20
256.3472393344
 11
123.787435416
 21
256.1728733265
  0
LINE
  8
0
 62
7
  6
CONTINUOUS
 10
34.1710184831
 20
158.8234938532
 11
34.0074498976
 21
158.6859765117
  0
LINE
  8
0
 62
7
  6
CONTINUOUS
 10
146.1138882876
 20
245.9419199256
 11
145.9404252263
 21
245.8171150069
  0
LINE
  8
QUILTS
 62
7
  6
CONTINUOUS
 10
136.0590091086
 20
233.6450148314
 11
135.5841364363
 21
233.327475697
  0
LINE
  8
QUILTS
 62
7
  6
CONTINUOUS
 10
49.4110443387
 20
187.9494936826
 11
49.195192835
 21
187.851881112
  0
LINE
  8
QUILTS
 62
7
  6
CONTINUOUS
 10
48.4616425735
 20
184.7478591208
 11
48.6774940527
 21
184.8454714965
  0
LINE
  8
0
 62
7
  6
CONTINUOUS
 10
29.5703811093
 20
182.8407964424
 11
29.3710233131
 21
182.7638408027
  0
LINE
  8
0
 62
7
  6
CONTINUOUS
 10
163.7351841596
 20
228.8911154847
 11
163.5305957145
 21
228.8293962047
  0
LINE
  8
0
 62
7
  6
CONTINUOUS
 10
177.3783413465
 20
174.1458853598
 11
177.5876466442
 21
174.1889782102
  0
LINE
  8
0
 62
7
  6
CONTINUOUS
 10
37.463737944
 20
150.8064334353
 11
37.6756947289
 21
150.8336367935
  0
LINE
  8
0
 62
7
  6
CONTINUOUS
 10
169.9935086004
 20
150.8336367935
 11
170.2054653854
 21
150.8064334353
  0
LINE
  8
0
 62
7
  6
CONTINUOUS
 10
30.0815566852
 20
174.1889782102
 11
30.2908619829
 21
174.1458853598
  0
LINE
  8
0
 62
7
  6
CONTINUOUS
 10
155.4393317267
 20
131.1823614294
 11
155.6309711924
 21
131.0878097687
  0
LINE
  8
0
 62
7
  6
CONTINUOUS
 10
30.6916622464
 20
198.7015825494
 11
30.8756345801
 21
198.5928632695
  0
LINE
  8
QUILTS
 62
7
  6
CONTINUOUS
 10
47.1813826533
 20
200.2931734004
 11
47.5263171106
 21
199.9683649477
  0
LINE
  8
QUILTS
 62
7
  6
CONTINUOUS
 10
51.5820369205
 20
202.6388553833
 11
51.237102392
 21
202.963663858
  0
LINE
  8
0
 62
7
  6
CONTINUOUS
 10
135.2929816208
 20
117.3215798743
 11
135.4435366577
 21
117.1699260505
  0
LINE
  8
0
 62
7
  6
CONTINUOUS
 10
39.2279402232
 20
221.6879254206
 11
39.3666433359
 21
221.525361132
  0
LINE
  8
0
 62
7
  6
CONTINUOUS
 10
111.7376279197
 20
110.7533228818
 11
111.8307835532
 21
110.56100094
  0
LINE
  8
QUILTS
 62
7
  6
CONTINUOUS
 10
60.3227245685
 20
222.2065806574
 11
60.4096774274
 21
221.9862186774
  0
LINE
  8
QUILTS
 62
7
  6
CONTINUOUS
 10
60.9179136045
 20
222.2275366149
 11
60.8309591385
 21
222.4478968336
  0
LINE
  8
QUILTS
 62
7
  6
CONTINUOUS
 10
61.3359409116
 20
221.4230373024
 11
61.5098466295
 21
220.9823133425
  0
LINE
  8
QUILTS
 62
7
  6
CONTINUOUS
 10
63.3437711348
 20
222.8342653969
 11
63.4307256008
 21
222.6139051781
  0
LINE
  8
QUILTS
 62
7
  6
CONTINUOUS
 10
63.9022267228
 20
222.1836600023
 11
63.8152722293
 21
222.4040202462
  0
LINE
  8
0
 62
7
  6
CONTINUOUS
 10
54.7653524428
 20
240.6570799037
 11
54.8437557
 21
240.4582869697
  0
LINE
  8
0
 62
7
  6
CONTINUOUS
 10
87.3258586957
 20
112.1893630141
 11
87.3515200676
 21
111.9772140208
  0
LINE
  8
QUILTS
 62
7
  6
CONTINUOUS
 10
79.6886885481
 20
234.448480128
 11
79.6281739925
 21
235.0165249277
  0
LINE
  8
0
 62
7
  6
CONTINUOUS
 10
87.3828436051
 20
111.1969533749
 11
87.3543816103
 21
109.953919979
  0
LINE
  8
0
 62
7
  6
CONTINUOUS
 10
99.8683221984
 20
260.9747238517
 11
99.6917994362
 21
259.7439591208
  0
LINE
  8
0
 62
7
  6
CONTINUOUS
 10
64.4347303587
 20
120.5169419229
 11
64.0041982294
 21
119.3505010997
  0
LINE
  8
0
 62
7
  6
CONTINUOUS
 10
124.8764738556
 20
258.1253113914
 11
124.3098869287
 21
257.0185497356
  0
LINE
  8
0
 62
7
  6
CONTINUOUS
 10
45.7562045203
 20
136.7831879745
 11
44.9702570931
 21
135.8197416863
  0
LINE
  8
QUILTS
 62
7
  6
CONTINUOUS
 10
129.2692357279
 20
236.7709044008
 11
129.0411830554
 21
236.524532011
  0
LINE
  8
QUILTS
 62
7
  6
CONTINUOUS
 10
129.5644716377
 20
236.1666054891
 11
129.7925243102
 21
236.4129778789
  0
LINE
  8
0
 62
7
  6
CONTINUOUS
 10
147.6044121626
 20
247.3101543888
 11
146.7091595561
 21
246.4473306067
  0
LINE
  8
QUILTS
 62
7
  6
CONTINUOUS
 10
130.9557135824
 20
233.8513678193
 11
133.1968724701
 21
235.8778063729
  0
LINE
  8
QUILTS
 62
7
  6
CONTINUOUS
 10
129.6577517076
 20
232.6332555883
 11
130.6538250581
 21
233.5338933223
  0
LINE
  8
QUILTS
 62
7
  6
CONTINUOUS
 10
133.0468300562
 20
236.4541486795
 11
129.1154213412
 21
232.9439045441
  0
LINE
  8
QUILTS
 62
7
  6
CONTINUOUS
 10
135.950821349
 20
232.9426074597
 11
136.2186505822
 21
233.1450304524
  0
LINE
  8
QUILTS
 62
7
  6
CONTINUOUS
 10
134.9783765159
 20
231.5456144631
 11
135.246205664
 21
231.7480373335
  0
LINE
  8
QUILTS
 62
7
  6
CONTINUOUS
 10
136.9333723271
 20
229.7958864895
 11
136.6655432641
 21
229.5934637414
  0
LINE
  8
QUILTS
 62
7
  6
CONTINUOUS
 10
136.8251846952
 20
229.0934793012
 11
137.3000572398
 21
229.4110182523
  0
LINE
  8
0
 62
7
  6
CONTINUOUS
 10
33.3713741916
 20
158.232991373
 11
32.3151810656
 21
157.5769439746
  0
LINE
  8
0
 62
7
  6
CONTINUOUS
 10
165.5892123436
 20
229.7012429196
 11
164.4623085686
 21
229.1758573561
  0
LINE
  8
QUILTS
 62
7
  6
CONTINUOUS
 10
48.8570829319
 20
187.2369317252
 11
49.3951191928
 21
187.4289037727
  0
LINE
  8
QUILTS
 62
7
  6
CONTINUOUS
 10
48.3712344166
 20
185.2717017254
 11
48.0490497119
 21
185.1773421351
  0
LINE
  8
0
 62
7
  6
CONTINUOUS
 10
36.6996635925
 20
150.6452558161
 11
35.5016536946
 21
150.312518092
  0
LINE
  8
0
 62
7
  6
CONTINUOUS
 10
179.6037938067
 20
174.3589122769
 11
178.3626556271
 21
174.2846281753
  0
LINE
  8
0
 62
7
  6
CONTINUOUS
 10
29.3065477022
 20
174.2846281753
 11
28.0654095227
 21
174.3589122769
  0
LINE
  8
0
 62
7
  6
CONTINUOUS
 10
172.1675496348
 20
150.312518092
 11
170.9695397369
 21
150.6452558161
  0
LINE
  8
0
 62
7
  6
CONTINUOUS
 10
29.9897028807
 20
199.043694941
 11
28.8399329995
 21
199.5169510332
  0
LINE
  8
QUILTS
 62
7
  6
CONTINUOUS
 10
48.1884179557
 20
200.3086941261
 11
47.8126923002
 21
200.5339899557
  0
LINE
  8
0
 62
7
  6
CONTINUOUS
 10
157.3263702554
 20
129.9835684067
 11
156.3013116006
 21
130.6872706611
  0
LINE
  8
0
 62
7
  6
CONTINUOUS
 10
37.7412924884
 20
223.0603704944
 11
38.6750986641
 21
222.2394270526
  0
LINE
  8
QUILTS
 62
7
  6
CONTINUOUS
 10
53.0001878861
 20
212.5956184641
 11
53.2350021047
 21
212.3556827187
  0
LINE
  8
QUILTS
 62
7
  6
CONTINUOUS
 10
53.6183266531
 20
212.860662546
 11
53.3835124345
 21
213.1005982914
  0
LINE
  8
QUILTS
 62
7
  6
CONTINUOUS
 10
54.9810539848
 20
211.562605829
 11
55.2158682034
 21
211.3226700836
  0
LINE
  8
QUILTS
 62
7
  6
CONTINUOUS
 10
55.5991928179
 20
211.8276498765
 11
55.3643785332
 21
212.0675856563
  0
LINE
  8
0
 62
7
  6
CONTINUOUS
 10
136.6885277388
 20
115.5750203556
 11
135.9475013379
 21
116.5734300819
  0
LINE
  8
QUILTS
 62
7
  6
CONTINUOUS
 10
58.7482351806
 20
221.1432053806
 11
58.9369246814
 21
220.8655308382
  0
LINE
  8
QUILTS
 62
7
  6
CONTINUOUS
 10
59.4034988073
 20
221.294775431
 11
59.2148093065
 21
221.5724499734
  0
LINE
  8
QUILTS
 62
7
  6
CONTINUOUS
 10
60.5152350362
 20
219.7762170427
 11
60.7039245369
 21
219.4985425003
  0
LINE
  8
QUILTS
 62
7
  6
CONTINUOUS
 10
61.1704987218
 20
219.9277870476
 11
60.9818091621
 21
220.2054616356
  0
LINE
  8
0
 62
7
  6
CONTINUOUS
 10
53.8048875699
 20
242.4378758482
 11
54.4215376515
 21
241.3582070169
  0
LINE
  8
QUILTS
 62
7
  6
CONTINUOUS
 10
62.0180828067
 20
221.22363128
 11
61.8525448341
 21
221.5156990154
  0
LINE
  8
0
 62
7
  6
CONTINUOUS
 10
112.1137601126
 20
109.833187704
 11
112.490452551
 21
108.6482636916
  0
LINE
  8
0
 62
7
  6
CONTINUOUS
 10
75.2899784645
 20
255.5496137165
 11
75.5226488473
 21
254.3282183663
  0
LINE
  8
QUILTS
 62
7
  6
CONTINUOUS
 10
75.8740573515
 20
235.4628074222
 11
75.8192617562
 21
235.7940233872
  0
LINE
  8
QUILTS
 62
7
  6
CONTINUOUS
 10
78.2827613516
 20
236.4752747703
 11
78.3375568094
 21
236.1440590698
  0
LINE
  8
QUILTS
 62
7
  6
CONTINUOUS
 10
79.116988202
 20
234.8706638984
 11
79.1717836598
 21
234.5394481979
  0
LINE
  8
QUILTS
 62
7
  6
CONTINUOUS
 10
135.5841364363
 20
233.327475697
 11
135.0731961863
 21
232.7758047303
  0
LINE
  8
QUILTS
 62
7
  6
CONTINUOUS
 10
135.5006588957
 20
232.4782485478
 11
135.950821349
 21
232.9426074597
  0
LINE
  8
QUILTS
 62
7
  6
CONTINUOUS
 10
47.5263171106
 20
199.9683649477
 11
48.0036721762
 21
199.7116229436
  0
LINE
  8
QUILTS
 62
7
  6
CONTINUOUS
 10
51.237102392
 20
202.963663858
 11
50.7597476112
 21
203.2204057741
  0
LINE
  8
QUILTS
 62
7
  6
CONTINUOUS
 10
50.5750018316
 20
202.6233345916
 11
50.9507274872
 21
202.3980387619
  0
LINE
  8
QUILTS
 62
7
  6
CONTINUOUS
 10
78.9149804153
 20
235.4850485319
 11
79.116988202
 21
234.8706638984
  0
LINE
  8
1_AXIS
 62
2
  6
CONTINUOUS
 10
103.8346016647
 20
185.4971992883
 11
103.8346016647
 21
183.7371992883
  0
LINE
  8
1_AXIS
 62
2
  6
CENTER
 10
103.8346016647
 20
180.2171992883
 11
103.8346016647
 21
105.5071992883
  0
LINE
  8
1_AXIS
 62
2
  6
CENTER
 10
103.8346016647
 20
189.0171992883
 11
103.8346016647
 21
263.7271992883
  0
LINE
  8
QUILTS
 62
7
  6
CONTINUOUS
 10
126.9584308742
 20
239.473850471
 11
124.8681424189
 21
234.9317480753
  0
LINE
  8
QUILTS
 62
7
  6
CONTINUOUS
 10
125.4359052184
 20
234.6704620184
 11
126.3698639032
 21
236.6999120538
  0
LINE
  8
QUILTS
 62
7
  6
CONTINUOUS
 10
126.6367092061
 20
237.2797548437
 11
127.3038225879
 21
238.7293620892
  0
LINE
  8
QUILTS
 62
7
  6
CONTINUOUS
 10
135.0731961863
 20
232.7758047303
 11
134.6477516091
 21
232.1646203478
  0
LINE
  8
QUILTS
 62
7
  6
CONTINUOUS
 10
135.3791033022
 20
232.3036244385
 11
135.5006588957
 21
232.4782485478
  0
LINE
  8
QUILTS
 62
7
  6
CONTINUOUS
 10
134.7960431256
 20
231.2836782992
 11
134.9783765159
 21
231.5456144631
  0
LINE
  8
1_AXIS
 62
2
  6
CONTINUOUS
 10
104.7146016647
 20
184.6171992883
 11
102.9546016647
 21
184.6171992883
  0
LINE
  8
1_AXIS
 62
2
  6
CENTER
 10
99.4346016647
 20
184.6171992883
 11
24.7246016647
 21
184.6171992883
  0
LINE
  8
1_AXIS
 62
2
  6
CENTER
 10
108.2346016647
 20
184.6171992883
 11
182.9446016647
 21
184.6171992883
  0
LINE
  8
QUILTS
 62
7
  6
CONTINUOUS
 10
45.9064599157
 20
184.7218082365
 11
48.0331245694
 21
184.6567523369
  0
LINE
  8
QUILTS
 62
7
  6
CONTINUOUS
 10
48.0490497119
 20
185.1773421351
 11
45.9223850582
 21
185.2423980347
  0
LINE
  8
QUILTS
 62
7
  6
CONTINUOUS
 10
45.986085627
 20
187.3247571904
 11
48.3254167313
 21
187.2531957012
  0
LINE
  8
QUILTS
 62
7
  6
CONTINUOUS
 10
46.0882366927
 20
189.132378141
 11
49.4743760598
 21
188.7816450073
  0
LINE
  8
QUILTS
 62
7
  6
CONTINUOUS
 10
49.5280364144
 20
189.2997068096
 11
47.094248661
 21
189.551796258
  0
LINE
  8
QUILTS
 62
7
  6
CONTINUOUS
 10
46.6709812771
 20
189.5956378959
 11
46.1418970474
 21
189.6504399432
  0
LINE
  8
QUILTS
 62
7
  6
CONTINUOUS
 10
47.7106932847
 20
191.3729767525
 11
49.7212136543
 21
191.1647289419
  0
LINE
  8
QUILTS
 62
7
  6
CONTINUOUS
 10
44.9641364696
 20
193.2535263141
 11
45.4900754305
 21
193.1740178496
  0
LINE
  8
QUILTS
 62
7
  6
CONTINUOUS
 10
46.5419536471
 20
193.0150008758
 11
49.9079632919
 21
192.506146658
  0
LINE
  8
QUILTS
 62
7
  6
CONTINUOUS
 10
49.9858153097
 20
193.0211284222
 11
46.6198056649
 21
193.5299826401
  0
LINE
  8
QUILTS
 62
7
  6
CONTINUOUS
 10
45.5679274483
 20
193.6889996138
 11
45.0419884874
 21
193.7685080783
  0
LINE
  8
QUILTS
 62
7
  6
CONTINUOUS
 10
48.0036721762
 20
199.7116229436
 11
49.5281091985
 21
199.2399316038
  0
LINE
  8
QUILTS
 62
7
  6
CONTINUOUS
 10
49.712854978
 20
199.8370027863
 11
48.1884179557
 21
200.3086941261
  0
LINE
  8
QUILTS
 62
7
  6
CONTINUOUS
 10
48.048200745
 20
205.4130582361
 11
52.669279483
 21
203.5037046027
  0
LINE
  8
QUILTS
 62
7
  6
CONTINUOUS
 10
52.9079486871
 20
204.0813394449
 11
48.8767948241
 21
205.7469458351
  0
LINE
  8
QUILTS
 62
7
  6
CONTINUOUS
 10
50.1864556889
 20
210.4210766146
 11
54.6198229046
 21
208.1090958337
  0
LINE
  8
QUILTS
 62
7
  6
CONTINUOUS
 10
54.3428587314
 20
208.9584132175
 11
52.9279542714
 21
209.6962794396
  0
LINE
  8
QUILTS
 62
7
  6
CONTINUOUS
 10
52.3619925666
 20
209.9914258871
 11
51.0414149913
 21
210.680101069
  0
LINE
  8
QUILTS
 62
7
  6
CONTINUOUS
 10
55.5943396803
 20
219.5004441973
 11
59.5490538504
 21
216.4409939471
  0
LINE
  8
QUILTS
 62
7
  6
CONTINUOUS
 10
59.4266280048
 20
217.3259013345
 11
58.1644851582
 21
218.3023216474
  0
LINE
  8
QUILTS
 62
7
  6
CONTINUOUS
 10
57.6596280903
 20
218.6928897179
 11
56.4816280294
 21
219.604215398
  0
LINE
  8
QUILTS
 62
7
  6
CONTINUOUS
 10
60.4096774274
 20
221.9862186774
 11
60.5668444406
 21
221.8428036439
  0
LINE
  8
QUILTS
 62
7
  6
CONTINUOUS
 10
61.5098466295
 20
220.9823133425
 11
61.7455971493
 21
220.7671907923
  0
LINE
  8
QUILTS
 62
7
  6
CONTINUOUS
 10
62.1752498748
 20
221.0802161962
 11
62.0180828067
 21
221.22363128
  0
LINE
  8
QUILTS
 62
7
  6
CONTINUOUS
 10
62.3221854392
 20
223.766463215
 11
62.5579359589
 21
223.5513406648
  0
LINE
  8
QUILTS
 62
7
  6
CONTINUOUS
 10
62.8722700953
 20
223.2645104974
 11
63.3437711348
 21
222.8342653969
  0
LINE
  8
QUILTS
 62
7
  6
CONTINUOUS
 10
61.7846544094
 20
226.7137520341
 11
65.3027131161
 21
223.1608288804
  0
LINE
  8
QUILTS
 62
7
  6
CONTINUOUS
 10
65.6728104074
 20
223.5272944474
 11
62.1547517007
 21
227.0802176011
  0
LINE
  8
QUILTS
 62
7
  6
CONTINUOUS
 10
62.8435022555
 20
227.745468283
 11
66.2722044029
 21
224.1062373774
  0
LINE
  8
QUILTS
 62
7
  6
CONTINUOUS
 10
66.6512921125
 20
224.463394941
 11
63.222589965
 21
228.1026258466
  0
LINE
  8
QUILTS
 62
7
  6
CONTINUOUS
 10
68.2519142745
 20
232.3504438099
 11
68.5547019392
 21
231.9131189687
  0
LINE
  8
QUILTS
 62
7
  6
CONTINUOUS
 10
70.6136583561
 20
228.93930962
 11
71.098118662
 21
228.2395898129
  0
LINE
  8
QUILTS
 62
7
  6
CONTINUOUS
 10
73.0603948792
 20
234.6724323858
 11
73.4983936176
 21
233.9427289651
  0
LINE
  8
QUILTS
 62
7
  6
CONTINUOUS
 10
73.6510205281
 20
234.9028747394
 11
75.7862639366
 21
231.3455712981
  0
LINE
  8
QUILTS
 62
7
  6
CONTINUOUS
 10
76.3221397624
 20
231.6672265473
 11
73.748897769
 21
235.9542331537
  0
LINE
  8
QUILTS
 62
7
  6
CONTINUOUS
 10
75.362871561
 20
235.316946393
 11
75.5591602155
 21
234.9393909249
  0
LINE
  8
QUILTS
 62
7
  6
CONTINUOUS
 10
75.9722016787
 20
235.2740296882
 11
75.8740573515
 21
235.4628074222
  0
LINE
  8
QUILTS
 62
7
  6
CONTINUOUS
 10
79.6281739925
 20
235.0165249277
 11
79.3770898115
 21
235.7252962286
  0
LINE
  8
QUILTS
 62
7
  6
CONTINUOUS
 10
129.4026585039
 20
237.0608260665
 11
129.2692357279
 21
236.7709044008
  0
LINE
  8
QUILTS
 62
7
  6
CONTINUOUS
 10
129.7925243102
 20
236.4129778789
 11
129.9704213034
 21
236.7995400096
  0
LINE
  8
QUILTS
 62
7
  6
CONTINUOUS
 10
134.6477516091
 20
232.1646203478
 11
134.3078026194
 21
231.4939224271
  0
LINE
  8
QUILTS
 62
7
  6
CONTINUOUS
 10
137.1157057174
 20
230.0578226534
 11
136.9333723271
 21
229.7958864895
  0
LINE
  8
QUILTS
 62
7
  6
CONTINUOUS
 10
137.3000572398
 20
229.4110182523
 11
137.6039463087
 21
229.8475786478
  0
LINE
  8
QUILTS
 62
7
  6
CONTINUOUS
 10
48.7666748526
 20
187.7607744299
 11
46.0020107729
 21
187.8453471003
  0
LINE
  8
QUILTS
 62
7
  6
CONTINUOUS
 10
49.7748739782
 20
191.6827904477
 11
47.7643536086
 21
191.8910382582
  0
LINE
  8
QUILTS
 62
7
  6
CONTINUOUS
 10
49.0505648094
 20
203.0950259314
 11
50.5750018316
 21
202.6233345916
  0
LINE
  8
QUILTS
 62
7
  6
CONTINUOUS
 10
50.7597476112
 20
203.2204057741
 11
49.2353105889
 21
203.6920971138
  0
LINE
  8
QUILTS
 62
7
  6
CONTINUOUS
 10
49.400659417
 20
208.6863219749
 11
53.3334923986
 21
207.0613401538
  0
LINE
  8
QUILTS
 62
7
  6
CONTINUOUS
 10
54.2604073591
 20
207.3546031837
 11
49.6393286212
 21
209.2639568172
  0
LINE
  8
QUILTS
 62
7
  6
CONTINUOUS
 10
52.8115339845
 20
212.6940006132
 11
53.0001878861
 21
212.5956184641
  0
LINE
  8
QUILTS
 62
7
  6
CONTINUOUS
 10
54.6980731324
 20
211.7101790527
 11
54.9810539848
 21
211.562605829
  0
LINE
  8
QUILTS
 62
7
  6
CONTINUOUS
 10
55.3643785332
 20
212.0675856563
 11
54.8927437793
 21
212.3135410292
  0
LINE
  8
QUILTS
 62
7
  6
CONTINUOUS
 10
53.3835124345
 20
213.1005982914
 11
53.0062043671
 21
213.2973627276
  0
LINE
  8
QUILTS
 62
7
  6
CONTINUOUS
 10
58.5799494913
 20
221.2733947374
 11
58.7482351806
 21
221.1432053806
  0
LINE
  8
QUILTS
 62
7
  6
CONTINUOUS
 10
60.2628065022
 20
219.9715010779
 11
60.5152350362
 21
219.7762170427
  0
LINE
  8
QUILTS
 62
7
  6
CONTINUOUS
 10
60.9818091621
 20
220.2054616356
 11
60.5610949388
 21
220.5309350276
  0
LINE
  8
QUILTS
 62
7
  6
CONTINUOUS
 10
59.2148093065
 20
221.5724499734
 11
58.8782376922
 21
221.8328288694
  0
LINE
  8
QUILTS
 62
7
  6
CONTINUOUS
 10
63.9305908735
 20
223.0038757673
 11
62.6732546032
 21
224.1511961859
  0
LINE
  8
QUILTS
 62
7
  6
CONTINUOUS
 10
74.5238290194
 20
230.6114258977
 11
74.1604837793
 21
231.1362157684
  0
LINE
  8
QUILTS
 62
7
  6
CONTINUOUS
 10
72.1015273625
 20
234.1100251171
 11
71.6776246319
 21
234.7222798947
  0
LINE
  8
QUILTS
 62
7
  6
CONTINUOUS
 10
78.1846170244
 20
236.6640525044
 11
78.2827613516
 21
236.4752747703
  0
LINE
  8
QUILTS
 62
7
  6
CONTINUOUS
 10
78.8168360881
 20
235.6738262659
 11
78.9149804153
 21
235.4850485319
  0
LINE
  8
QUILTS
 62
7
  6
CONTINUOUS
 10
79.3770898115
 20
235.7252962286
 11
79.0335846661
 21
236.3860182978
  0
LINE
  8
0
 62
7
  6
CONTINUOUS
 10
120.2863597243
 20
111.1969533749
 11
120.3148217191
 21
109.953919979
  0
LINE
  8
0
 62
7
  6
CONTINUOUS
 10
132.3792248649
 20
255.5496137165
 11
132.146554482
 21
254.3282183663
  0
LINE
  8
0
 62
7
  6
CONTINUOUS
 10
95.5554432168
 20
109.833187704
 11
95.1787507784
 21
108.6482636916
  0
LINE
  8
0
 62
7
  6
CONTINUOUS
 10
153.8643157595
 20
242.4378758482
 11
153.2476656779
 21
241.3582070169
  0
LINE
  8
0
 62
7
  6
CONTINUOUS
 10
71.7217019915
 20
116.5734300819
 11
70.9806755905
 21
115.5750203556
  0
LINE
  8
0
 62
7
  6
CONTINUOUS
 10
169.927910841
 20
223.0603704944
 11
168.9941046653
 21
222.2394270526
  0
LINE
  8
0
 62
7
  6
CONTINUOUS
 10
51.3678917288
 20
130.6872706611
 11
50.342833074
 21
129.9835684067
  0
LINE
  8
0
 62
7
  6
CONTINUOUS
 10
178.8292703299
 20
199.5169510332
 11
177.6795004487
 21
199.043694941
  0
LINE
  8
0
 62
7
  6
CONTINUOUS
 10
28.6223279093
 20
182.5419330924
 11
27.4103439981
 21
182.264377499
  0
LINE
  8
QUILTS
 62
7
  6
CONTINUOUS
 10
48.0331245694
 20
184.6567523369
 11
48.4616425735
 21
184.7478591208
  0
LINE
  8
QUILTS
 62
7
  6
CONTINUOUS
 10
49.195192835
 20
187.851881112
 11
48.7666748526
 21
187.7607744299
  0
LINE
  8
0
 62
7
  6
CONTINUOUS
 10
176.881942236
 20
207.206775772
 11
175.6455048023
 21
207.0757621051
  0
LINE
  8
QUILTS
 62
7
  6
CONTINUOUS
 10
47.1708769655
 20
191.3241662615
 11
47.7106932847
 21
191.3729767525
  0
LINE
  8
QUILTS
 62
7
  6
CONTINUOUS
 10
47.7643536086
 20
191.8910382582
 11
47.2245373509
 21
191.8422283601
  0
LINE
  8
QUILTS
 62
7
  6
CONTINUOUS
 10
50.1501623251
 20
199.8107299249
 11
49.712854978
 21
199.8370027863
  0
LINE
  8
QUILTS
 62
7
  6
CONTINUOUS
 10
48.6132574623
 20
203.1212987928
 11
49.0505648094
 21
203.0950259314
  0
LINE
  8
0
 62
7
  6
CONTINUOUS
 10
32.0236985271
 20
207.0757621051
 11
30.7872610934
 21
207.206775772
  0
LINE
  8
QUILTS
 62
7
  6
CONTINUOUS
 10
49.5281091985
 20
199.2399316038
 11
50.0670456709
 21
199.182212656
  0
LINE
  8
QUILTS
 62
7
  6
CONTINUOUS
 10
49.2353105889
 20
203.6920971138
 11
48.6963738317
 21
203.7498161497
  0
LINE
  8
0
 62
7
  6
CONTINUOUS
 10
180.2588593313
 20
182.264377499
 11
179.04687542
 21
182.5419330924
  0
LINE
  8
0
 62
7
  6
CONTINUOUS
 10
43.2068947608
 20
229.1758573561
 11
42.0799909858
 21
229.7012429196
  0
LINE
  8
QUILTS
 62
7
  6
CONTINUOUS
 10
61.7455971493
 20
220.7671907923
 11
62.1301453848
 21
220.5573076215
  0
LINE
  8
QUILTS
 62
7
  6
CONTINUOUS
 10
64.393720981
 20
222.7222833437
 11
63.9305908735
 21
223.0038757673
  0
LINE
  8
0
 62
7
  6
CONTINUOUS
 10
175.3540222638
 20
157.5769439746
 11
174.2978291377
 21
158.232991373
  0
LINE
  8
0
 62
7
  6
CONTINUOUS
 10
60.0647911668
 20
247.3101543888
 11
60.9600437733
 21
246.4473306067
  0
LINE
  8
0
 62
7
  6
CONTINUOUS
 10
162.6989462363
 20
135.8197416863
 11
161.9129988091
 21
136.7831879745
  0
LINE
  8
QUILTS
 62
7
  6
CONTINUOUS
 10
79.0335846661
 20
236.3860182978
 11
78.5976584876
 21
236.9986912677
  0
LINE
  8
0
 62
7
  6
CONTINUOUS
 10
82.7927294738
 20
258.1253113914
 11
83.3593164007
 21
257.0185497356
  0
LINE
  8
0
 62
7
  6
CONTINUOUS
 10
143.2344729707
 20
120.5169419229
 11
143.6650051
 21
119.3505010997
  0
LINE
  8
0
 62
7
  6
CONTINUOUS
 10
107.800881131
 20
260.9747238517
 11
107.9774038932
 21
259.7439591208
  0
LINE
  8
QUILTS
 62
7
  6
CONTINUOUS
 10
129.4414511344
 20
237.3942964666
 11
129.4026585039
 21
237.0608260665
  0
LINE
  8
QUILTS
 62
7
  6
CONTINUOUS
 10
129.9704213034
 20
236.7995400096
 11
130.0092139338
 21
237.1330104097
  0
LINE
  8
QUILTS
 62
7
  6
CONTINUOUS
 10
132.7309598754
 20
230.8729099255
 11
133.7699344529
 21
236.0399516519
  0
LINE
  8
QUILTS
 62
7
  6
CONTINUOUS
 10
132.4615901875
 20
232.4983983831
 11
132.188629509
 21
231.1835588813
  0
LINE
  8
QUILTS
 62
7
  6
CONTINUOUS
 10
133.1968724701
 20
235.8778063729
 11
132.5827046815
 21
232.919420952
  0
LINE
  8
QUILTS
 62
7
  6
CONTINUOUS
 10
134.3078026194
 20
231.4939224271
 11
134.1748971115
 21
230.9383407094
  0
LINE
  8
QUILTS
 62
7
  6
CONTINUOUS
 10
137.6039463087
 20
229.8475786478
 11
137.7368517741
 21
230.4031603043
  0
LINE
  8
QUILTS
 62
7
  6
CONTINUOUS
 10
134.6992054081
 20
230.9622287194
 11
134.7960431256
 21
231.2836782992
  0
LINE
  8
QUILTS
 62
7
  6
CONTINUOUS
 10
137.21254352
 20
230.3792723555
 11
137.1157057174
 21
230.0578226534
  0
LINE
  8
QUILTS
 62
7
  6
CONTINUOUS
 10
138.5269633021
 20
231.5382172593
 11
138.6238010196
 21
231.8596668391
  0
LINE
  8
QUILTS
 62
7
  6
CONTINUOUS
 10
47.2245373509
 20
191.8422283601
 11
46.8963547237
 21
191.7714970502
  0
LINE
  8
QUILTS
 62
7
  6
CONTINUOUS
 10
50.0670456709
 20
199.182212656
 11
50.5351442874
 21
199.2554523956
  0
LINE
  8
QUILTS
 62
7
  6
CONTINUOUS
 10
54.3669255142
 20
211.7653898237
 11
54.6980731324
 21
211.7101790527
  0
LINE
  8
QUILTS
 62
7
  6
CONTINUOUS
 10
54.8927437793
 20
212.3135410292
 11
54.561596161
 21
212.3687518002
  0
LINE
  8
QUILTS
 62
7
  6
CONTINUOUS
 10
52.4803862341
 20
212.7492114531
 11
52.8115339845
 21
212.6940006132
  0
LINE
  8
QUILTS
 62
7
  6
CONTINUOUS
 10
53.0062043671
 20
213.2973627276
 11
52.675056881
 21
213.3525734297
  0
LINE
  8
QUILTS
 62
7
  6
CONTINUOUS
 10
59.9466388172
 20
220.0843946972
 11
60.2628065022
 21
219.9715010779
  0
LINE
  8
QUILTS
 62
7
  6
CONTINUOUS
 10
60.5610949388
 20
220.5309350276
 11
60.2449272538
 21
220.6438286469
  0
LINE
  8
QUILTS
 62
7
  6
CONTINUOUS
 10
58.2637816885
 20
221.3862884478
 11
58.5799494913
 21
221.2733947374
  0
LINE
  8
QUILTS
 62
7
  6
CONTINUOUS
 10
58.8782376922
 20
221.8328288694
 11
58.5620701251
 21
221.9457223975
  0
LINE
  8
QUILTS
 62
7
  6
CONTINUOUS
 10
63.8152722293
 20
222.4040202462
 11
64.1212353374
 21
222.2658428435
  0
LINE
  8
QUILTS
 62
7
  6
CONTINUOUS
 10
64.6996840754
 20
222.5841059536
 11
64.393720981
 21
222.7222833437
  0
LINE
  8
QUILTS
 62
7
  6
CONTINUOUS
 10
62.6732546032
 20
224.1511961859
 11
62.3672883222
 21
224.2893700286
  0
LINE
  8
QUILTS
 62
7
  6
CONTINUOUS
 10
75.5591602155
 20
234.9393909249
 11
75.9893673305
 21
234.5635469881
  0
LINE
  8
QUILTS
 62
7
  6
CONTINUOUS
 10
78.5976584876
 20
236.9986912677
 11
78.1674512351
 21
237.3745354689
  0
LINE
  8
QUILTS
 62
7
  6
CONTINUOUS
 10
76.67637769
 20
233.2421027174
 11
76.9160152483
 21
233.0069851496
  0
LINE
  8
QUILTS
 62
7
  6
CONTINUOUS
 10
76.2118392027
 20
235.0389121865
 11
75.9722016787
 21
235.2740296882
  0
LINE
  8
QUILTS
 62
7
  6
CONTINUOUS
 10
77.9449793629
 20
236.8991702705
 11
78.1846170244
 21
236.6640525044
  0
LINE
  8
QUILTS
 62
7
  6
CONTINUOUS
 10
134.6878554937
 20
230.581271111
 11
134.6992054081
 21
230.9622287194
  0
LINE
  8
0
 62
7
  6
CONTINUOUS
 10
132.0394169336
 20
253.3399644932
 11
132.0490241259
 21
253.5534437738
  0
LINE
  8
0
 62
7
  6
CONTINUOUS
 10
120.3176832617
 20
111.9772140208
 11
120.3433446337
 21
112.1893630141
  0
LINE
  8
0
 62
7
  6
CONTINUOUS
 10
152.8254476293
 20
240.4582869697
 11
152.9038508866
 21
240.6570799037
  0
LINE
  8
0
 62
7
  6
CONTINUOUS
 10
95.8384197761
 20
110.56100094
 11
95.9315754097
 21
110.7533228818
  0
LINE
  8
0
 62
7
  6
CONTINUOUS
 10
168.3025599935
 20
221.525361132
 11
168.4412631062
 21
221.6879254206
  0
LINE
  8
0
 62
7
  6
CONTINUOUS
 10
72.2256666717
 20
117.1699260505
 11
72.3762217086
 21
117.3215798743
  0
LINE
  8
0
 62
7
  6
CONTINUOUS
 10
176.7935687493
 20
198.5928632695
 11
176.977541083
 21
198.7015825494
  0
LINE
  8
0
 62
7
  6
CONTINUOUS
 10
52.0382321369
 20
131.0878097687
 11
52.2298716027
 21
131.1823614294
  0
LINE
  8
QUILTS
 62
7
  6
CONTINUOUS
 10
53.3334923986
 20
207.0613401538
 11
48.4062040961
 21
206.2795093978
  0
LINE
  8
QUILTS
 62
7
  6
CONTINUOUS
 10
48.6963738317
 20
203.7498161497
 11
48.2282752865
 21
203.6765763882
  0
LINE
  8
QUILTS
 62
7
  6
CONTINUOUS
 10
48.8767948241
 20
205.7469458351
 11
53.9024035528
 21
206.4881509203
  0
LINE
  8
0
 62
7
  6
CONTINUOUS
 10
33.0174243608
 20
207.0505998437
 11
32.8038808645
 21
207.0425452434
  0
LINE
  8
0
 62
7
  6
CONTINUOUS
 10
174.8653224649
 20
207.0425452434
 11
174.6517789686
 21
207.0505998437
  0
LINE
  8
QUILTS
 62
7
  6
CONTINUOUS
 10
62.4026294351
 20
221.013746348
 11
62.1752498748
 21
221.0802161962
  0
LINE
  8
QUILTS
 62
7
  6
CONTINUOUS
 10
64.1212353374
 20
222.2658428435
 11
64.3486181256
 21
222.199376505
  0
LINE
  8
QUILTS
 62
7
  6
CONTINUOUS
 10
62.0948058789
 20
223.8329330633
 11
62.3221854392
 21
223.766463215
  0
LINE
  8
0
 62
7
  6
CONTINUOUS
 10
44.1386076149
 20
228.8293962047
 11
43.9340191698
 21
228.8911154847
  0
LINE
  8
0
 62
7
  6
CONTINUOUS
 10
178.2981800163
 20
182.7638408027
 11
178.0988222201
 21
182.8407964424
  0
LINE
  8
QUILTS
 62
7
  6
CONTINUOUS
 10
77.4705499083
 20
233.2952841452
 11
77.1384913169
 21
233.4823526136
  0
LINE
  8
0
 62
7
  6
CONTINUOUS
 10
61.7287781031
 20
245.8171150069
 11
61.5553150417
 21
245.9419199256
  0
LINE
  8
0
 62
7
  6
CONTINUOUS
 10
173.6617534318
 20
158.6859765117
 11
173.4981848463
 21
158.8234938532
  0
LINE
  8
0
 62
7
  6
CONTINUOUS
 10
83.8817679133
 20
256.1728733265
 11
83.75822765
 21
256.3472393344
  0
LINE
  8
0
 62
7
  6
CONTINUOUS
 10
161.4584714735
 20
137.4181625729
 11
161.3484172929
 21
137.6013394785
  0
LINE
  8
0
 62
7
  6
CONTINUOUS
 10
108.1969568607
 20
258.7744640633
 11
108.1367268997
 21
258.9794958979
  0
LINE
  8
0
 62
7
  6
CONTINUOUS
 10
143.0107490949
 20
121.2650966308
 11
142.9661353974
 21
121.4740830404
  0
LINE
  8
QUILTS
 62
7
  6
CONTINUOUS
 10
134.1748971115
 20
230.9383407094
 11
134.1882650943
 21
230.410557661
  0
LINE
  8
QUILTS
 62
7
  6
CONTINUOUS
 10
138.6238010196
 20
231.8596668391
 11
138.6104330155
 21
232.387449857
  0
LINE
  8
QUILTS
 62
7
  6
CONTINUOUS
 10
138.1108426374
 20
232.2167364376
 11
138.0994927655
 21
231.8357788903
  0
LINE
  8
0
 62
7
  6
CONTINUOUS
 10
107.6983049698
 20
143.5796219881
 11
144.8721789649
 21
180.7534959831
  0
LINE
  8
QUILTS
 62
7
  6
CONTINUOUS
 10
54.561596161
 20
212.3687518002
 11
54.039789559
 21
212.2884306476
  0
LINE
  8
QUILTS
 62
7
  6
CONTINUOUS
 10
52.675056881
 20
213.3525734297
 11
52.153250279
 21
213.272252277
  0
LINE
  8
QUILTS
 62
7
  6
CONTINUOUS
 10
62.1301453848
 20
220.5573076215
 11
62.5765368014
 21
220.5730241117
  0
LINE
  8
QUILTS
 62
7
  6
CONTINUOUS
 10
60.2449272538
 20
220.6438286469
 11
59.7171402346
 21
220.6570377249
  0
LINE
  8
QUILTS
 62
7
  6
CONTINUOUS
 10
58.5620701251
 20
221.9457223975
 11
58.0342831058
 21
221.9589314755
  0
LINE
  8
QUILTS
 62
7
  6
CONTINUOUS
 10
76.9160152483
 20
233.0069851496
 11
77.38957125
 21
232.7735791462
  0
LINE
  8
QUILTS
 62
7
  6
CONTINUOUS
 10
75.9893673305
 20
234.5635469881
 11
76.462923315
 21
234.3301410178
  0
LINE
  8
QUILTS
 62
7
  6
CONTINUOUS
 10
78.1674512351
 20
237.3745354689
 11
77.6938952506
 21
237.6079414392
  0
LINE
  8
QUILTS
 62
7
  6
CONTINUOUS
 10
76.5439019905
 20
234.8518459838
 11
76.2118392027
 21
235.0389121865
  0
LINE
  8
QUILTS
 62
7
  6
CONTINUOUS
 10
77.6129165751
 20
237.0862364732
 11
77.9449793629
 21
236.8991702705
  0
LINE
  8
0
 62
7
  6
CONTINUOUS
 10
144.8721789649
 20
188.4809025934
 11
107.6983049698
 21
225.6547765885
  0
LINE
  8
QUILTS
 62
7
  6
CONTINUOUS
 10
130.0092139338
 20
237.1330104097
 11
129.9032294027
 21
237.6502152981
  0
LINE
  8
QUILTS
 62
7
  6
CONTINUOUS
 10
128.5907592971
 20
235.7949572962
 11
129.1026933694
 21
235.9106866576
  0
LINE
  8
QUILTS
 62
7
  6
CONTINUOUS
 10
135.246205664
 20
231.7480373335
 11
135.5387447758
 21
231.8036400594
  0
LINE
  8
QUILTS
 62
7
  6
CONTINUOUS
 10
59.6508765204
 20
220.0498049256
 11
59.9466388172
 21
220.0843946972
  0
LINE
  8
QUILTS
 62
7
  6
CONTINUOUS
 10
57.9680193917
 20
221.3516986762
 11
58.2637816885
 21
221.3862884478
  0
LINE
  8
QUILTS
 62
7
  6
CONTINUOUS
 10
62.3672883222
 20
224.2893700286
 11
62.0696962147
 21
224.2788946916
  0
LINE
  8
QUILTS
 62
7
  6
CONTINUOUS
 10
129.34114819
 20
237.6746714199
 11
129.4414511344
 21
237.3942964666
  0
LINE
  8
QUILTS
 62
7
  6
CONTINUOUS
 10
137.1631155951
 20
230.6729178482
 11
137.21254352
 21
230.3792723555
  0
LINE
  8
QUILTS
 62
7
  6
CONTINUOUS
 10
137.7368517741
 20
230.4031603043
 11
137.6627059732
 21
230.8436312675
  0
LINE
  8
QUILTS
 62
7
  6
CONTINUOUS
 10
58.0342831058
 20
221.9589314755
 11
57.5269013569
 21
221.8246572538
  0
LINE
  8
QUILTS
 62
7
  6
CONTINUOUS
 10
62.0696962147
 20
224.2788946916
 11
61.701888346
 21
224.191470647
  0
LINE
  8
QUILTS
 62
7
  6
CONTINUOUS
 10
78.1723010591
 20
233.3004165398
 11
77.8459615655
 21
233.250655909
  0
LINE
  8
QUILTS
 62
7
  6
CONTINUOUS
 10
136.312226313
 20
229.4505488997
 11
135.9341915284
 21
229.4544595896
  0
LINE
  8
QUILTS
 62
7
  6
CONTINUOUS
 10
135.5387447758
 20
231.8036400594
 11
135.9167795604
 21
231.7997293695
  0
LINE
  8
QUILTS
 62
7
  6
CONTINUOUS
 10
136.1351728714
 20
232.2958030586
 11
135.3791033022
 21
232.3036244385
  0
LINE
  8
QUILTS
 62
7
  6
CONTINUOUS
 10
136.5719674908
 20
233.287945233
 11
136.9500022754
 21
233.284034543
  0
LINE
  8
QUILTS
 62
7
  6
CONTINUOUS
 10
135.715790353
 20
228.9583912954
 11
136.3255942958
 21
228.9227658513
  0
LINE
  8
QUILTS
 62
7
  6
CONTINUOUS
 10
137.1683955864
 20
233.7801082322
 11
136.5585994867
 21
233.8157282508
  0
LINE
  8
QUILTS
 62
7
  6
CONTINUOUS
 10
77.38957125
 20
232.7735791462
 11
77.9989013807
 21
232.7306624165
  0
LINE
  8
QUILTS
 62
7
  6
CONTINUOUS
 10
76.462923315
 20
234.3301410178
 11
77.0722534328
 21
234.2872243129
  0
LINE
  8
QUILTS
 62
7
  6
CONTINUOUS
 10
77.6938952506
 20
237.6079414392
 11
77.0845693636
 21
237.6508603436
  0
LINE
  8
QUILTS
 62
7
  6
CONTINUOUS
 10
77.8459615655
 20
233.250655909
 11
77.4705499083
 21
233.2952841452
  0
LINE
  8
QUILTS
 62
7
  6
CONTINUOUS
 10
76.9193136477
 20
234.8072177475
 11
76.5439019905
 21
234.8518459838
  0
LINE
  8
QUILTS
 62
7
  6
CONTINUOUS
 10
77.2375049179
 20
237.1308647094
 11
77.6129165751
 21
237.0862364732
  0
LINE
  8
QUILTS
 62
7
  6
CONTINUOUS
 10
135.9341915284
 20
229.4544595896
 11
135.6169345405
 21
229.5456823342
  0
LINE
  8
QUILTS
 62
7
  6
CONTINUOUS
 10
129.9032294027
 20
237.6502152981
 11
129.6581406334
 21
238.1143287266
  0
LINE
  8
QUILTS
 62
7
  6
CONTINUOUS
 10
134.1882650943
 20
230.410557661
 11
134.4333943975
 21
229.8510652916
  0
LINE
  8
QUILTS
 62
7
  6
CONTINUOUS
 10
137.6627059732
 20
230.8436312675
 11
137.4175688269
 21
231.4031290625
  0
LINE
  8
QUILTS
 62
7
  6
CONTINUOUS
 10
138.6104330155
 20
232.387449857
 11
138.3653036963
 21
232.9469422035
  0
LINE
  8
QUILTS
 62
7
  6
CONTINUOUS
 10
134.8227790913
 20
230.2281122024
 11
134.6878554937
 21
230.581271111
  0
LINE
  8
QUILTS
 62
7
  6
CONTINUOUS
 10
137.0281919975
 20
231.0260767567
 11
137.1631155951
 21
230.6729178482
  0
LINE
  8
QUILTS
 62
7
  6
CONTINUOUS
 10
137.9759190398
 20
232.5698953461
 11
138.1108426374
 21
232.2167364376
  0
LINE
  8
QUILTS
 62
7
  6
CONTINUOUS
 10
77.2456531413
 20
234.8569783783
 11
76.9193136477
 21
234.8072177475
  0
LINE
  8
QUILTS
 62
7
  6
CONTINUOUS
 10
76.9111654243
 20
237.0811040786
 11
77.2375049179
 21
237.1308647094
  0
LINE
  8
QUILTS
 62
7
  6
CONTINUOUS
 10
128.7629832424
 20
236.4183451043
 11
128.4346276255
 21
236.4523476678
  0
LINE
  8
QUILTS
 62
7
  6
CONTINUOUS
 10
128.0731523016
 20
235.916053883
 11
128.5907592971
 21
235.7949572962
  0
LINE
  8
QUILTS
 62
7
  6
CONTINUOUS
 10
135.9167795604
 20
231.7997293695
 11
136.2340365483
 21
231.7085066249
  0
LINE
  8
QUILTS
 62
7
  6
CONTINUOUS
 10
136.9500022754
 20
233.284034543
 11
137.2672592632
 21
233.1928117985
  0
LINE
  8
QUILTS
 62
7
  6
CONTINUOUS
 10
135.2275498415
 20
229.1686354157
 11
135.715790353
 21
228.9583912954
  0
LINE
  8
QUILTS
 62
7
  6
CONTINUOUS
 10
136.6234212047
 20
232.0855534822
 11
136.1351728714
 21
232.2958030586
  0
LINE
  8
QUILTS
 62
7
  6
CONTINUOUS
 10
137.6566439197
 20
233.5698586558
 11
137.1683955864
 21
233.7801082322
  0
LINE
  8
QUILTS
 62
7
  6
CONTINUOUS
 10
124.8681424189
 20
234.9317480753
 11
125.4359052184
 21
234.6704620184
  0
LINE
  8
QUILTS
 62
7
  6
CONTINUOUS
 10
126.3698639032
 20
236.6999120538
 11
128.0731523016
 21
235.916053883
  0
LINE
  8
QUILTS
 62
7
  6
CONTINUOUS
 10
128.4346276255
 20
236.4523476678
 11
126.6367092061
 21
237.2797548437
  0
LINE
  8
QUILTS
 62
7
  6
CONTINUOUS
 10
127.3038225879
 20
238.7293620892
 11
129.1017410074
 21
237.9019549133
  0
LINE
  8
QUILTS
 62
7
  6
CONTINUOUS
 10
129.1154213412
 20
232.9439045441
 11
129.6577517076
 21
232.6332555883
  0
LINE
  8
QUILTS
 62
7
  6
CONTINUOUS
 10
132.188629509
 20
231.1835588813
 11
132.7309598754
 21
230.8729099255
  0
LINE
  8
QUILTS
 62
7
  6
CONTINUOUS
 10
130.6538250581
 20
233.5338933223
 11
132.4615901875
 21
232.4983983831
  0
LINE
  8
QUILTS
 62
7
  6
CONTINUOUS
 10
132.5827046815
 20
232.919420952
 11
130.9557135824
 21
233.8513678193
  0
LINE
  8
QUILTS
 62
7
  6
CONTINUOUS
 10
134.800087132
 20
229.4661915983
 11
135.2275498415
 21
229.1686354157
  0
LINE
  8
QUILTS
 62
7
  6
CONTINUOUS
 10
135.6169345405
 20
229.5456823342
 11
135.0184804856
 21
229.9622653486
  0
LINE
  8
QUILTS
 62
7
  6
CONTINUOUS
 10
136.2340365483
 20
231.7085066249
 11
136.8324906032
 21
231.2919236105
  0
LINE
  8
QUILTS
 62
7
  6
CONTINUOUS
 10
137.0508839142
 20
231.7879972997
 11
136.6234212047
 21
232.0855534822
  0
LINE
  8
QUILTS
 62
7
  6
CONTINUOUS
 10
138.0994927655
 20
231.8357788903
 11
138.5269633021
 21
231.5382172593
  0
LINE
  8
QUILTS
 62
7
  6
CONTINUOUS
 10
137.2672592632
 20
233.1928117985
 11
137.7802176454
 21
232.8357422
  0
LINE
  8
QUILTS
 62
7
  6
CONTINUOUS
 10
129.6581406334
 20
238.1143287266
 11
129.2294820721
 21
238.4287062434
  0
LINE
  8
QUILTS
 62
7
  6
CONTINUOUS
 10
129.1017410074
 20
237.9019549133
 11
129.34114819
 21
237.6746714199
  0
LINE
  8
QUILTS
 62
7
  6
CONTINUOUS
 10
134.4333943975
 20
229.8510652916
 11
134.800087132
 21
229.4661915983
  0
LINE
  8
QUILTS
 62
7
  6
CONTINUOUS
 10
137.4175688269
 20
231.4031290625
 11
137.0508839142
 21
231.7879972997
  0
LINE
  8
QUILTS
 62
7
  6
CONTINUOUS
 10
138.3653036963
 20
232.9469422035
 11
137.9986109564
 21
233.3318158891
  0
LINE
  8
QUILTS
 62
7
  6
CONTINUOUS
 10
135.0184804856
 20
229.9622653486
 11
134.8227790913
 21
230.2281122024
  0
LINE
  8
QUILTS
 62
7
  6
CONTINUOUS
 10
136.8324906032
 20
231.2919236105
 11
137.0281919975
 21
231.0260767567
  0
LINE
  8
QUILTS
 62
7
  6
CONTINUOUS
 10
137.7802176454
 20
232.8357422
 11
137.9759190398
 21
232.5698953461
  0
LINE
  8
QUILTS
 62
7
  6
CONTINUOUS
 10
129.2294820721
 20
238.4287062434
 11
126.9584308742
 21
239.473850471
  0
LINE
  8
QUILTS
 62
7
  6
CONTINUOUS
 10
133.7699344529
 20
236.0399516519
 11
133.0468300562
 21
236.4541486795
  0
LINE
  8
QUILTS
 62
7
  6
CONTINUOUS
 10
137.9986109564
 20
233.3318158891
 11
137.6566439197
 21
233.5698586558
  0
LINE
  8
0
 62
7
  6
CONTINUOUS
 10
180.3498274026
 20
175.0583117862
 11
180.8796006256
 21
181.4517237933
  0
LINE
  8
0
 62
7
  6
CONTINUOUS
 10
175.6772618557
 20
156.6067677194
 11
173.1002557221
 21
150.7317854942
  0
LINE
  8
0
 62
7
  6
CONTINUOUS
 10
162.6896561004
 20
134.7971765327
 11
158.3446756572
 21
130.0772695731
  0
LINE
  8
0
 62
7
  6
CONTINUOUS
 10
137.6820832642
 20
115.3330013109
 11
143.3241919668
 21
118.3863578488
  0
LINE
  8
0
 62
7
  6
CONTINUOUS
 10
107.0422634595
 20
261.6604534109
 11
100.6269398699
 21
261.6604534109
  0
LINE
  8
0
 62
7
  6
CONTINUOUS
 10
131.8843672152
 20
256.4445113121
 11
125.816643553
 21
258.5275634764
  0
LINE
  8
0
 62
7
  6
CONTINUOUS
 10
153.6868436365
 20
243.4449654398
 11
148.6242519111
 21
247.3853387446
  0
LINE
  8
0
 62
7
  6
CONTINUOUS
 10
166.5782066819
 20
229.4412121546
 11
170.087056103
 21
224.0705182982
  0
LINE
  8
0
 62
7
  6
CONTINUOUS
 10
179.3077871183
 20
200.4206918606
 11
177.7329182817
 21
206.6397082544
  0
LINE
  8
0
 62
7
  6
CONTINUOUS
 10
28.344435711
 20
68.9633139034
 11
28.3528315059
 21
68.872061613
  0
POLYLINE
  8
0
 62
7
  6
CONTINUOUS
 66
1
 70
0
  0
VERTEX
  8
0
 62
7
  6
CONTINUOUS
 10
26.788930447
 20
68.9638460145
  0
VERTEX
  8
0
 62
7
  6
CONTINUOUS
 10
26.7890142248
 20
68.9546934675
  0
VERTEX
  8
0
 62
7
  6
CONTINUOUS
 10
26.7934830032
 20
68.8965269431
  0
VERTEX
  8
0
 62
7
  6
CONTINUOUS
 10
26.8045046713
 20
68.8400244105
  0
VERTEX
  8
0
 62
7
  6
CONTINUOUS
 10
26.8216262224
 20
68.7860060808
  0
VERTEX
  8
0
 62
7
  6
CONTINUOUS
 10
26.8442768942
 20
68.7351896799
  0
VERTEX
  8
0
 62
7
  6
CONTINUOUS
 10
26.8717907121
 20
68.6881736954
  0
VERTEX
  8
0
 62
7
  6
CONTINUOUS
 10
26.9034311131
 20
68.6454258465
  0
VERTEX
  8
0
 62
7
  6
CONTINUOUS
 10
26.9384164297
 20
68.6072769461
  0
VERTEX
  8
0
 62
7
  6
CONTINUOUS
 10
26.9759444236
 20
68.5739205433
  0
VERTEX
  8
0
 62
7
  6
CONTINUOUS
 10
27.0152167499
 20
68.5454160394
  0
VERTEX
  8
0
 62
7
  6
CONTINUOUS
 10
27.0554600758
 20
68.521697414
  0
VERTEX
  8
0
 62
7
  6
CONTINUOUS
 10
27.0959420063
 20
68.5025861202
  0
VERTEX
  8
0
 62
7
  6
CONTINUOUS
 10
27.1359750485
 20
68.4878079398
  0
VERTEX
  8
0
 62
7
  6
CONTINUOUS
 10
27.174888679
 20
68.4770125064
  0
VERTEX
  8
0
 62
7
  6
CONTINUOUS
 10
27.2099859051
 20
68.4700918134
  0
VERTEX
  8
0
 62
7
  6
CONTINUOUS
 10
27.2332319455
 20
68.4668888212
  0
VERTEX
  8
0
 62
7
  6
CONTINUOUS
 10
27.2463822704
 20
68.4654653653
  0
VERTEX
  8
0
 62
7
  6
CONTINUOUS
 10
27.2609742627
 20
68.4640246326
  0
VERTEX
  8
0
 62
7
  6
CONTINUOUS
 10
27.3046218804
 20
68.4599407469
  0
SEQEND
  0
LINE
  8
2_FEATURE
 62
7
  6
CONTINUOUS
 10
26.7889283317
 20
75.5456307224
 11
26.7889283317
 21
68.9637628567
  0
LINE
  8
2_FEATURE
 62
7
  6
CONTINUOUS
 10
28.3444346051
 20
75.546099747
 11
28.3444346051
 21
68.963293832
  0
POLYLINE
  8
0
 62
7
  6
CONTINUOUS
 66
1
 70
0
  0
VERTEX
  8
0
 62
7
  6
CONTINUOUS
 10
28.3528315059
 20
68.872061613
  0
VERTEX
  8
0
 62
7
  6
CONTINUOUS
 10
28.3792250436
 20
68.7800483161
  0
VERTEX
  8
0
 62
7
  6
CONTINUOUS
 10
28.4209233942
 20
68.6975050275
  0
VERTEX
  8
0
 62
7
  6
CONTINUOUS
 10
28.4746971097
 20
68.626675493
  0
VERTEX
  8
0
 62
7
  6
CONTINUOUS
 10
28.5370855776
 20
68.5688641638
  0
VERTEX
  8
0
 62
7
  6
CONTINUOUS
 10
28.6046362358
 20
68.524465927
  0
VERTEX
  8
0
 62
7
  6
CONTINUOUS
 10
28.6734479146
 20
68.4932879187
  0
VERTEX
  8
0
 62
7
  6
CONTINUOUS
 10
28.7357493007
 20
68.4749287377
  0
SEQEND
  0
POLYLINE
  8
0
 62
7
  6
CONTINUOUS
 66
1
 70
0
  0
VERTEX
  8
0
 62
7
  6
CONTINUOUS
 10
37.4695029798
 20
68.960189112
  0
VERTEX
  8
0
 62
7
  6
CONTINUOUS
 10
37.4703216791
 20
68.9315700761
  0
VERTEX
  8
0
 62
7
  6
CONTINUOUS
 10
37.4945667353
 20
68.8037690452
  0
VERTEX
  8
0
 62
7
  6
CONTINUOUS
 10
37.5489378641
 20
68.6895705864
  0
VERTEX
  8
0
 62
7
  6
CONTINUOUS
 10
37.6262702701
 20
68.5962639528
  0
VERTEX
  8
0
 62
7
  6
CONTINUOUS
 10
37.7166845692
 20
68.5282331501
  0
VERTEX
  8
0
 62
7
  6
CONTINUOUS
 10
37.8091388176
 20
68.4854957491
  0
VERTEX
  8
0
 62
7
  6
CONTINUOUS
 10
37.8882966112
 20
68.4642083393
  0
SEQEND
  0
LINE
  8
2_FEATURE
 62
7
  6
CONTINUOUS
 10
37.4695024793
 20
75.5492988908
 11
37.4695024793
 21
68.9600946883
  0
LINE
  8
1_AXIS
 62
7
  6
CONTINUOUS
 10
41.3346016647
 20
82.7546967895
 11
41.3346016647
 21
77.2546967895
  0
LINE
  8
1_AXIS
 62
7
  6
CONTINUOUS
 10
41.3346016647
 20
67.2546967895
 11
41.3346016647
 21
61.7546967895
  0
POLYLINE
  8
0
 62
7
  6
CONTINUOUS
 66
1
 70
0
  0
VERTEX
  8
0
 62
7
  6
CONTINUOUS
 10
53.6995677788
 20
68.9546159471
  0
VERTEX
  8
0
 62
7
  6
CONTINUOUS
 10
53.7029531295
 20
68.8964538995
  0
VERTEX
  8
0
 62
7
  6
CONTINUOUS
 10
53.7405404245
 20
68.7560968872
  0
VERTEX
  8
0
 62
7
  6
CONTINUOUS
 10
53.8120153878
 20
68.6381359071
  0
VERTEX
  8
0
 62
7
  6
CONTINUOUS
 10
53.9064050408
 20
68.5485931279
  0
VERTEX
  8
0
 62
7
  6
CONTINUOUS
 10
54.0107058534
 20
68.4898185233
  0
VERTEX
  8
0
 62
7
  6
CONTINUOUS
 10
54.1075134539
 20
68.4590344424
  0
VERTEX
  8
0
 62
7
  6
CONTINUOUS
 10
54.1538301875
 20
68.4497942769
  0
SEQEND
  0
LINE
  8
2_FEATURE
 62
7
  6
CONTINUOUS
 10
53.6995661975
 20
75.5548492662
 11
53.6995661975
 21
68.9545443128
  0
POLYLINE
  8
0
 62
7
  6
CONTINUOUS
 66
1
 70
0
  0
VERTEX
  8
0
 62
7
  6
CONTINUOUS
 10
75.2758472753
 20
68.9472155881
  0
VERTEX
  8
0
 62
7
  6
CONTINUOUS
 10
75.2837530131
 20
68.8584730315
  0
VERTEX
  8
0
 62
7
  6
CONTINUOUS
 10
75.338292399
 20
68.7046934815
  0
VERTEX
  8
0
 62
7
  6
CONTINUOUS
 10
75.4311423765
 20
68.5839531136
  0
VERTEX
  8
0
 62
7
  6
CONTINUOUS
 10
75.5423770471
 20
68.5031030019
  0
VERTEX
  8
0
 62
7
  6
CONTINUOUS
 10
75.5724795295
 20
68.4881007274
  0
SEQEND
  0
LINE
  8
2_FEATURE
 62
7
  6
CONTINUOUS
 10
75.2758465206
 20
75.562186292
 11
75.2758465206
 21
68.9472072871
  0
POLYLINE
  8
0
 62
7
  6
CONTINUOUS
 66
1
 70
0
  0
VERTEX
  8
0
 62
7
  6
CONTINUOUS
 10
28.7337088209
 20
76.0339959848
  0
VERTEX
  8
0
 62
7
  6
CONTINUOUS
 10
28.6670942712
 20
76.0137356702
  0
VERTEX
  8
0
 62
7
  6
CONTINUOUS
 10
28.5952201661
 20
75.9796424164
  0
VERTEX
  8
0
 62
7
  6
CONTINUOUS
 10
28.5244845195
 20
75.9303721995
  0
VERTEX
  8
0
 62
7
  6
CONTINUOUS
 10
28.4565531519
 20
75.8616327569
  0
VERTEX
  8
0
 62
7
  6
CONTINUOUS
 10
28.398818763
 20
75.7728774165
  0
VERTEX
  8
0
 62
7
  6
CONTINUOUS
 10
28.3594936166
 20
75.6678754134
  0
VERTEX
  8
0
 62
7
  6
CONTINUOUS
 10
28.344435711
 20
75.5460796685
  0
SEQEND
  0
LINE
  8
0
 62
7
  6
CONTINUOUS
 10
75.8538817355
 20
76.1724600511
 11
75.7975807657
 21
76.1246529785
  0
LINE
  8
0
 62
7
  6
CONTINUOUS
 10
75.7977796711
 20
68.3846492952
 11
75.8524828702
 21
68.3378502843
  0
POLYLINE
  8
0
 62
7
  6
CONTINUOUS
 66
1
 70
0
  0
VERTEX
  8
0
 62
7
  6
CONTINUOUS
 10
75.5724044495
 20
76.0212583636
  0
VERTEX
  8
0
 62
7
  6
CONTINUOUS
 10
75.5466326256
 20
76.008559271
  0
VERTEX
  8
0
 62
7
  6
CONTINUOUS
 10
75.4339808561
 20
75.9281382742
  0
VERTEX
  8
0
 62
7
  6
CONTINUOUS
 10
75.339671083
 20
75.8071842808
  0
VERTEX
  8
0
 62
7
  6
CONTINUOUS
 10
75.2840324693
 20
75.6524627814
  0
VERTEX
  8
0
 62
7
  6
CONTINUOUS
 10
75.2758472755
 20
75.5621779559
  0
SEQEND
  0
LINE
  8
0
 62
7
  6
CONTINUOUS
 10
75.8052296857
 20
76.128164342
 11
75.5724571575
 21
76.021284223
  0
POLYLINE
  8
0
 62
7
  6
CONTINUOUS
 66
1
 70
0
  0
VERTEX
  8
0
 62
7
  6
CONTINUOUS
 10
169.7406655641
 20
68.457085143
  0
VERTEX
  8
0
 62
7
  6
CONTINUOUS
 10
169.8049849599
 20
68.4694795379
  0
VERTEX
  8
0
 62
7
  6
CONTINUOUS
 10
169.8865654955
 20
68.4955204816
  0
VERTEX
  8
0
 62
7
  6
CONTINUOUS
 10
169.97519893
 20
68.5424256132
  0
VERTEX
  8
0
 62
7
  6
CONTINUOUS
 10
170.0185404128
 20
68.5746416389
  0
VERTEX
  8
0
 62
7
  6
CONTINUOUS
 10
170.0972116574
 20
68.656658202
  0
VERTEX
  8
0
 62
7
  6
CONTINUOUS
 10
170.1574439513
 20
68.7588827727
  0
VERTEX
  8
0
 62
7
  6
CONTINUOUS
 10
170.1926018068
 20
68.8761947494
  0
VERTEX
  8
0
 62
7
  6
CONTINUOUS
 10
170.1996983823
 20
68.9601890159
  0
SEQEND
  0
POLYLINE
  8
0
 62
7
  6
CONTINUOUS
 66
1
 70
0
  0
VERTEX
  8
0
 62
7
  6
CONTINUOUS
 10
28.7357493007
 20
68.4749287377
  0
VERTEX
  8
0
 62
7
  6
CONTINUOUS
 10
28.780970454
 20
68.4665133071
  0
VERTEX
  8
0
 62
7
  6
CONTINUOUS
 10
28.8206931619
 20
68.4612766507
  0
VERTEX
  8
0
 62
7
  6
CONTINUOUS
 10
28.872461915
 20
68.4555468168
  0
SEQEND
  0
LINE
  8
0
 62
7
  6
CONTINUOUS
 10
75.5724571559
 20
68.4881093568
 11
75.8052296858
 21
68.3812292371
  0
LINE
  8
0
 62
7
  6
CONTINUOUS
 10
75.8054087616
 20
68.381147041
 11
75.8099066595
 21
68.3789951011
  0
LINE
  8
0
 62
7
  6
CONTINUOUS
 10
76.0142833747
 20
76.2412863397
 11
75.8538817355
 21
76.1724600511
  0
LINE
  8
0
 62
7
  6
CONTINUOUS
 10
131.8622701546
 20
68.3807489962
 11
131.863798339
 21
68.3811487866
  0
LINE
  8
0
 62
7
  6
CONTINUOUS
 10
152.5478494549
 20
68.2755534565
 11
152.5479692535
 21
68.2755794326
  0
POLYLINE
  8
0
 62
7
  6
CONTINUOUS
 66
1
 70
0
  0
VERTEX
  8
0
 62
7
  6
CONTINUOUS
 10
152.5479692535
 20
68.2755794326
  0
VERTEX
  8
0
 62
7
  6
CONTINUOUS
 10
152.6382783681
 20
68.2944587341
  0
VERTEX
  8
0
 62
7
  6
CONTINUOUS
 10
152.7773769265
 20
68.321275313
  0
SEQEND
  0
POLYLINE
  8
0
 62
7
  6
CONTINUOUS
 66
1
 70
0
  0
VERTEX
  8
0
 62
7
  6
CONTINUOUS
 10
153.5154298148
 20
68.4498041543
  0
VERTEX
  8
0
 62
7
  6
CONTINUOUS
 10
153.5593118453
 20
68.4584918235
  0
VERTEX
  8
0
 62
7
  6
CONTINUOUS
 10
153.6560468634
 20
68.4887949349
  0
VERTEX
  8
0
 62
7
  6
CONTINUOUS
 10
153.7609407977
 20
68.5472457794
  0
VERTEX
  8
0
 62
7
  6
CONTINUOUS
 10
153.8560466453
 20
68.6367388281
  0
VERTEX
  8
0
 62
7
  6
CONTINUOUS
 10
153.9281602462
 20
68.7549358776
  0
VERTEX
  8
0
 62
7
  6
CONTINUOUS
 10
153.9661734646
 20
68.895790809
  0
VERTEX
  8
0
 62
7
  6
CONTINUOUS
 10
153.9696371181
 20
68.9546196695
  0
SEQEND
  0
LINE
  8
0
 62
7
  6
CONTINUOUS
 10
152.494609624
 20
68.265590736
 11
152.547849428
 21
68.2755535801
  0
LINE
  8
0
 62
7
  6
CONTINUOUS
 10
152.7773769265
 20
68.321275313
 11
152.8988052527
 21
68.3429748847
  0
LINE
  8
0
 62
7
  6
CONTINUOUS
 10
152.898819187
 20
68.3429772987
 11
153.5155183929
 21
68.4498190272
  0
LINE
  8
0
 62
7
  6
CONTINUOUS
 10
169.6683683599
 20
68.4473201196
 11
169.7406655641
 21
68.457085143
  0
LINE
  8
0
 62
7
  6
CONTINUOUS
 10
168.1287805235
 20
68.2680980739
 11
168.5314821419
 21
68.3169400544
  0
LINE
  8
0
 62
7
  6
CONTINUOUS
 10
168.5314821419
 20
68.3169400544
 11
169.6683683599
 21
68.4473201196
  0
POLYLINE
  8
0
 62
7
  6
CONTINUOUS
 66
1
 70
0
  0
VERTEX
  8
0
 62
7
  6
CONTINUOUS
 10
178.7963691765
 20
68.4555078742
  0
VERTEX
  8
0
 62
7
  6
CONTINUOUS
 10
178.8491698305
 20
68.4613551797
  0
VERTEX
  8
0
 62
7
  6
CONTINUOUS
 10
178.8888071984
 20
68.4665997086
  0
VERTEX
  8
0
 62
7
  6
CONTINUOUS
 10
178.9355226257
 20
68.4754042975
  0
SEQEND
  0
LINE
  8
0
 62
7
  6
CONTINUOUS
 10
168.0762886282
 20
68.2623146659
 11
168.1287741562
 21
68.2680973918
  0
POLYLINE
  8
0
 62
7
  6
CONTINUOUS
 66
1
 70
0
  0
VERTEX
  8
0
 62
7
  6
CONTINUOUS
 10
180.4165963787
 20
68.4648407363
  0
VERTEX
  8
0
 62
7
  6
CONTINUOUS
 10
180.4306230827
 20
68.4662862923
  0
VERTEX
  8
0
 62
7
  6
CONTINUOUS
 10
180.4498469422
 20
68.4686752835
  0
VERTEX
  8
0
 62
7
  6
CONTINUOUS
 10
180.4878654161
 20
68.4755455507
  0
VERTEX
  8
0
 62
7
  6
CONTINUOUS
 10
180.5305560164
 20
68.4869578492
  0
VERTEX
  8
0
 62
7
  6
CONTINUOUS
 10
180.5525930547
 20
68.4944725772
  0
VERTEX
  8
0
 62
7
  6
CONTINUOUS
 10
180.5973092621
 20
68.5134033337
  0
VERTEX
  8
0
 62
7
  6
CONTINUOUS
 10
180.6421415178
 20
68.5379039274
  0
VERTEX
  8
0
 62
7
  6
CONTINUOUS
 10
180.6867712727
 20
68.5688025353
  0
VERTEX
  8
0
 62
7
  6
CONTINUOUS
 10
180.7305076042
 20
68.6070054425
  0
VERTEX
  8
0
 62
7
  6
CONTINUOUS
 10
180.7718587758
 20
68.6529455483
  0
VERTEX
  8
0
 62
7
  6
CONTINUOUS
 10
180.8090328752
 20
68.7066250062
  0
VERTEX
  8
0
 62
7
  6
CONTINUOUS
 10
180.8402614235
 20
68.7678674137
  0
VERTEX
  8
0
 62
7
  6
CONTINUOUS
 10
180.8637018441
 20
68.8362021405
  0
VERTEX
  8
0
 62
7
  6
CONTINUOUS
 10
180.8774404138
 20
68.9107365203
  0
VERTEX
  8
0
 62
7
  6
CONTINUOUS
 10
180.880268961
 20
68.963845627
  0
SEQEND
  0
LINE
  8
0
 62
7
  6
CONTINUOUS
 10
178.7270871455
 20
68.4485791638
 11
178.7963691765
 21
68.4555078742
  0
LINE
  8
0
 62
7
  6
CONTINUOUS
 10
180.3746954082
 20
68.460872509
 11
180.4165963787
 21
68.4648407363
  0
LINE
  8
0
 62
7
  6
CONTINUOUS
 10
176.7781561994
 20
68.2664750777
 11
178.7270871455
 21
68.4485791638
  0
LINE
  8
0
 62
7
  6
CONTINUOUS
 10
180.1911598286
 20
68.4444082425
 11
180.3746954082
 21
68.460872509
  0
LINE
  8
0
 62
7
  6
CONTINUOUS
 10
178.9788127347
 20
68.3375453451
 11
178.1697427323
 21
68.2661126953
  0
LINE
  8
0
 62
7
  6
CONTINUOUS
 10
180.1907918439
 20
68.444378563
 11
178.9788127347
 21
68.3375453451
  0
LINE
  8
0
 62
7
  6
CONTINUOUS
 10
176.7190769719
 20
68.2615078202
 11
176.7781559864
 21
68.266475168
  0
LINE
  8
1_AXIS
 62
7
  6
CONTINUOUS
 10
164.3346016647
 20
59.7546967895
 11
43.334661337
 21
59.7546967895
  0
LINE
  8
0
 62
7
  6
CONTINUOUS
 10
30.891047172
 20
68.2664751844
 11
30.9434888145
 21
68.2619985614
  0
LINE
  8
0
 62
7
  6
CONTINUOUS
 10
27.3046218804
 20
68.4599407469
 11
29.4994605971
 21
68.2661126953
  0
LINE
  8
0
 62
7
  6
CONTINUOUS
 10
28.9399747111
 20
68.4487855377
 11
30.8910471116
 21
68.2664750816
  0
LINE
  8
0
 62
7
  6
CONTINUOUS
 10
28.872461915
 20
68.4555468168
 11
28.9399747111
 21
68.4487855377
  0
LINE
  8
0
 62
7
  6
CONTINUOUS
 10
39.5404283782
 20
68.2680974915
 11
39.5871996904
 21
68.2628664374
  0
LINE
  8
0
 62
7
  6
CONTINUOUS
 10
38.0145748622
 20
68.4457182187
 11
39.1326897763
 21
68.317530957
  0
LINE
  8
0
 62
7
  6
CONTINUOUS
 10
39.1326897763
 20
68.317530957
 11
39.5404228638
 21
68.2680980679
  0
LINE
  8
0
 62
7
  6
CONTINUOUS
 10
37.9557349015
 20
68.453083297
 11
38.0146049404
 21
68.4457149374
  0
LINE
  8
0
 62
7
  6
CONTINUOUS
 10
37.8882966112
 20
68.4642083393
 11
37.9557349015
 21
68.453083297
  0
LINE
  8
0
 62
7
  6
CONTINUOUS
 10
54.1536849376
 20
68.4498190271
 11
54.7703841424
 21
68.3429772987
  0
LINE
  8
0
 62
7
  6
CONTINUOUS
 10
54.7703986585
 20
68.3429747841
 11
54.8887251214
 21
68.3218474227
  0
LINE
  8
0
 62
7
  6
CONTINUOUS
 10
55.1213488218
 20
68.2755546808
 11
55.1696075689
 21
68.2663892895
  0
POLYLINE
  8
0
 62
7
  6
CONTINUOUS
 66
1
 70
0
  0
VERTEX
  8
0
 62
7
  6
CONTINUOUS
 10
54.8887251214
 20
68.3218474227
  0
VERTEX
  8
0
 62
7
  6
CONTINUOUS
 10
55.0281738894
 20
68.2950135282
  0
VERTEX
  8
0
 62
7
  6
CONTINUOUS
 10
55.1212354386
 20
68.2755791359
  0
SEQEND
  0
LINE
  8
0
 62
7
  6
CONTINUOUS
 10
55.1213488218
 20
68.2755546808
 11
55.1212354657
 21
68.2755792605
  0
LINE
  8
0
 62
7
  6
CONTINUOUS
 10
75.8524828702
 20
68.3378502843
 11
76.0133838258
 21
68.2683201308
  0
LINE
  8
0
 62
7
  6
CONTINUOUS
 10
131.5396042238
 20
68.2546968962
 11
131.654921208
 21
68.26810753
  0
LINE
  8
0
 62
7
  6
CONTINUOUS
 10
152.3911136235
 20
68.2553687818
 11
152.494609624
 21
68.265590736
  0
LINE
  8
0
 62
7
  6
CONTINUOUS
 10
178.1697427323
 20
68.2661126953
 11
177.9107511084
 21
68.2546967895
  0
LINE
  8
0
 62
7
  6
CONTINUOUS
 10
152.357113397
 20
68.2546969072
 11
152.3911136235
 21
68.2553687818
  0
POLYLINE
  8
0
 62
7
  6
CONTINUOUS
 66
1
 70
0
  0
VERTEX
  8
0
 62
7
  6
CONTINUOUS
 10
167.916625916
 20
68.254696896
  0
VERTEX
  8
0
 62
7
  6
CONTINUOUS
 10
167.961573594
 20
68.2553055689
  0
VERTEX
  8
0
 62
7
  6
CONTINUOUS
 10
168.0762886282
 20
68.2623146659
  0
SEQEND
  0
POLYLINE
  8
0
 62
7
  6
CONTINUOUS
 66
1
 70
0
  0
VERTEX
  8
0
 62
7
  6
CONTINUOUS
 10
176.5319331948
 20
68.2546968985
  0
VERTEX
  8
0
 62
7
  6
CONTINUOUS
 10
176.5858518738
 20
68.2552653993
  0
VERTEX
  8
0
 62
7
  6
CONTINUOUS
 10
176.7190769719
 20
68.2615078202
  0
SEQEND
  0
LINE
  8
0
 62
7
  6
CONTINUOUS
 10
55.2729059408
 20
68.2555893614
 11
55.3121020393
 21
68.25469691
  0
LINE
  8
0
 62
7
  6
CONTINUOUS
 10
29.758452221
 20
68.2546967895
 11
29.4994605971
 21
68.2661126953
  0
POLYLINE
  8
0
 62
7
  6
CONTINUOUS
 66
1
 70
0
  0
VERTEX
  8
0
 62
7
  6
CONTINUOUS
 10
30.9434888145
 20
68.2619985614
  0
VERTEX
  8
0
 62
7
  6
CONTINUOUS
 10
31.0767505583
 20
68.2554126695
  0
VERTEX
  8
0
 62
7
  6
CONTINUOUS
 10
31.1372786623
 20
68.2546968983
  0
SEQEND
  0
POLYLINE
  8
0
 62
7
  6
CONTINUOUS
 66
1
 70
0
  0
VERTEX
  8
0
 62
7
  6
CONTINUOUS
 10
39.5871996904
 20
68.2628664374
  0
VERTEX
  8
0
 62
7
  6
CONTINUOUS
 10
39.7019376547
 20
68.255469248
  0
VERTEX
  8
0
 62
7
  6
CONTINUOUS
 10
39.7525828007
 20
68.2546968962
  0
SEQEND
  0
LINE
  8
0
 62
7
  6
CONTINUOUS
 10
55.1696075689
 20
68.2663892895
 11
55.2729059408
 21
68.2555893614
  0
LINE
  8
0
 62
7
  6
CONTINUOUS
 10
76.0133838258
 20
68.2683201308
 11
76.129599257
 21
68.2546968964
  0
LINE
  8
1_AXIS
 62
2
  6
CENTER
 10
103.8346016647
 20
57.7546967895
 11
103.8346016647
 21
86.7546967895
  0
LINE
  8
0
 62
7
  6
CONTINUOUS
 10
177.9107511075
 20
68.2546967895
 11
29.7584522219
 21
68.2546967895
  0
LINE
  8
0
 62
7
  6
CONTINUOUS
 10
55.3120903954
 20
76.2546966706
 11
55.2780944117
 21
76.254024977
  0
POLYLINE
  8
0
 62
7
  6
CONTINUOUS
 66
1
 70
0
  0
VERTEX
  8
0
 62
7
  6
CONTINUOUS
 10
39.7525819909
 20
76.2546966818
  0
VERTEX
  8
0
 62
7
  6
CONTINUOUS
 10
39.7076349015
 20
76.2540881449
  0
VERTEX
  8
0
 62
7
  6
CONTINUOUS
 10
39.5929199451
 20
76.2470794143
  0
SEQEND
  0
POLYLINE
  8
0
 62
7
  6
CONTINUOUS
 66
1
 70
0
  0
VERTEX
  8
0
 62
7
  6
CONTINUOUS
 10
31.1373448221
 20
76.2546966818
  0
VERTEX
  8
0
 62
7
  6
CONTINUOUS
 10
31.0833561235
 20
76.2541282733
  0
VERTEX
  8
0
 62
7
  6
CONTINUOUS
 10
30.9501310843
 20
76.2478861066
  0
SEQEND
  0
LINE
  8
1_AXIS
 62
7
  6
CONTINUOUS
 10
176.531809141
 20
76.2546967895
 11
174.6243251534
 21
76.2546967895
  0
LINE
  8
1_AXIS
 62
7
  6
CONTINUOUS
 10
167.9166590176
 20
76.2546967895
 11
163.6667342428
 21
76.2546967895
  0
LINE
  8
1_AXIS
 62
7
  6
CONTINUOUS
 10
152.3572236444
 20
76.2546967895
 11
146.225403376
 21
76.2546967895
  0
LINE
  8
1_AXIS
 62
7
  6
CONTINUOUS
 10
131.5396092737
 20
76.2546967895
 11
124.1903713829
 21
76.2546967895
  0
LINE
  8
1_AXIS
 62
7
  6
CONTINUOUS
 10
61.4437999533
 20
76.2546967895
 11
55.311979685
 21
76.2546967895
  0
LINE
  8
1_AXIS
 62
7
  6
CONTINUOUS
 10
44.0024690866
 20
76.2546967895
 11
39.7525443118
 21
76.2546967895
  0
LINE
  8
1_AXIS
 62
7
  6
CONTINUOUS
 10
33.0448781759
 20
76.2546967895
 11
31.1373941883
 21
76.2546967895
  0
LINE
  8
0
 62
7
  6
CONTINUOUS
 10
29.7584522219
 20
76.2546967895
 11
177.9107511075
 21
76.2546967895
  0
LINE
  8
0
 62
7
  6
CONTINUOUS
 10
152.3962925873
 20
76.2538044308
 11
152.3571008875
 21
76.254696668
  0
LINE
  8
0
 62
7
  6
CONTINUOUS
 10
75.8069333575
 20
76.1286446882
 11
75.8054046942
 21
76.1282446721
  0
LINE
  8
0
 62
7
  6
CONTINUOUS
 10
76.1295991862
 20
76.2546966817
 11
76.0142833747
 21
76.2412863397
  0
LINE
  8
0
 62
7
  6
CONTINUOUS
 10
39.5929199451
 20
76.2470794143
 11
39.5404293257
 21
76.2412962072
  0
LINE
  8
0
 62
7
  6
CONTINUOUS
 10
55.2780944117
 20
76.254024977
 11
55.1745983796
 21
76.2438035797
  0
LINE
  8
0
 62
7
  6
CONTINUOUS
 10
30.8910471315
 20
76.2429185009
 11
28.9421569597
 21
76.0608183338
  0
LINE
  8
0
 62
7
  6
CONTINUOUS
 10
27.4084477435
 20
76.0588182608
 11
27.2703734533
 21
76.046266478
  0
LINE
  8
0
 62
7
  6
CONTINUOUS
 10
27.4784114855
 20
76.065015016
 11
28.6903905947
 21
76.171848234
  0
LINE
  8
0
 62
7
  6
CONTINUOUS
 10
28.6903905947
 20
76.171848234
 11
29.4994605971
 21
76.2432808838
  0
LINE
  8
0
 62
7
  6
CONTINUOUS
 10
27.4780436055
 20
76.0649853443
 11
27.4084477435
 21
76.0588182608
  0
LINE
  8
0
 62
7
  6
CONTINUOUS
 10
30.9501310843
 20
76.2478861066
 11
30.8910473968
 21
76.242918417
  0
LINE
  8
0
 62
7
  6
CONTINUOUS
 10
29.4994605971
 20
76.2432808838
 11
29.758452221
 21
76.2546967895
  0
LINE
  8
0
 62
7
  6
CONTINUOUS
 10
177.9107511084
 20
76.2546967895
 11
178.1697427323
 21
76.2432808838
  0
POLYLINE
  8
0
 62
7
  6
CONTINUOUS
 66
1
 70
0
  0
VERTEX
  8
0
 62
7
  6
CONTINUOUS
 10
176.725709714
 20
76.2473953851
  0
VERTEX
  8
0
 62
7
  6
CONTINUOUS
 10
176.5924480129
 20
76.2539810191
  0
VERTEX
  8
0
 62
7
  6
CONTINUOUS
 10
176.5318505769
 20
76.254696682
  0
SEQEND
  0
POLYLINE
  8
0
 62
7
  6
CONTINUOUS
 66
1
 70
0
  0
VERTEX
  8
0
 62
7
  6
CONTINUOUS
 10
168.081998315
 20
76.2465276703
  0
VERTEX
  8
0
 62
7
  6
CONTINUOUS
 10
167.9672603941
 20
76.2539244886
  0
VERTEX
  8
0
 62
7
  6
CONTINUOUS
 10
167.9166160967
 20
76.2546966817
  0
SEQEND
  0
LINE
  8
0
 62
7
  6
CONTINUOUS
 10
176.7781561102
 20
76.2429183999
 11
176.725709714
 21
76.2473953851
  0
LINE
  8
0
 62
7
  6
CONTINUOUS
 10
180.3645693718
 20
76.0494539411
 11
178.1697427323
 21
76.2432808838
  0
LINE
  8
0
 62
7
  6
CONTINUOUS
 10
178.72926267
 20
76.0606047633
 11
176.7781562031
 21
76.242918502
  0
LINE
  8
0
 62
7
  6
CONTINUOUS
 10
152.4995909911
 20
76.2430050693
 11
152.3962925873
 21
76.2538044308
  0
LINE
  8
0
 62
7
  6
CONTINUOUS
 10
131.6558185225
 20
76.2410736768
 11
131.5396039922
 21
76.2546966817
  0
POLYLINE
  8
0
 62
7
  6
CONTINUOUS
 66
1
 70
0
  0
VERTEX
  8
0
 62
7
  6
CONTINUOUS
 10
132.0968936874
 20
68.4881790784
  0
VERTEX
  8
0
 62
7
  6
CONTINUOUS
 10
132.1225614443
 20
68.5008304452
  0
VERTEX
  8
0
 62
7
  6
CONTINUOUS
 10
132.2352027997
 20
68.5812374993
  0
VERTEX
  8
0
 62
7
  6
CONTINUOUS
 10
132.3295241396
 20
68.7021933424
  0
VERTEX
  8
0
 62
7
  6
CONTINUOUS
 10
132.3851694822
 20
68.8569200843
  0
VERTEX
  8
0
 62
7
  6
CONTINUOUS
 10
132.393356264
 20
68.9472125395
  0
SEQEND
  0
LINE
  8
0
 62
7
  6
CONTINUOUS
 10
131.8639736435
 20
68.381229237
 11
132.0967461745
 21
68.4881093573
  0
LINE
  8
0
 62
7
  6
CONTINUOUS
 10
131.654921208
 20
68.26810753
 11
131.8153234282
 21
68.336934725
  0
LINE
  8
0
 62
7
  6
CONTINUOUS
 10
55.1213542056
 20
76.2338401952
 11
55.1212340927
 21
76.233814151
  0
POLYLINE
  8
0
 62
7
  6
CONTINUOUS
 66
1
 70
0
  0
VERTEX
  8
0
 62
7
  6
CONTINUOUS
 10
55.1212340927
 20
76.233814151
  0
VERTEX
  8
0
 62
7
  6
CONTINUOUS
 10
55.0309311497
 20
76.2149360963
  0
VERTEX
  8
0
 62
7
  6
CONTINUOUS
 10
54.8918333122
 20
76.1881195424
  0
SEQEND
  0
POLYLINE
  8
0
 62
7
  6
CONTINUOUS
 66
1
 70
0
  0
VERTEX
  8
0
 62
7
  6
CONTINUOUS
 10
54.1537820074
 20
76.0595909685
  0
VERTEX
  8
0
 62
7
  6
CONTINUOUS
 10
54.1099211874
 20
76.0509083984
  0
VERTEX
  8
0
 62
7
  6
CONTINUOUS
 10
54.0131684362
 20
76.0206030777
  0
VERTEX
  8
0
 62
7
  6
CONTINUOUS
 10
53.9082778346
 20
75.9621597346
  0
VERTEX
  8
0
 62
7
  6
CONTINUOUS
 10
53.813159443
 20
75.8726603397
  0
VERTEX
  8
0
 62
7
  6
CONTINUOUS
 10
53.7410426598
 20
75.7544577623
  0
VERTEX
  8
0
 62
7
  6
CONTINUOUS
 10
53.7030308457
 20
75.6136012339
  0
VERTEX
  8
0
 62
7
  6
CONTINUOUS
 10
53.6995677788
 20
75.5547776346
  0
SEQEND
  0
POLYLINE
  8
0
 62
7
  6
CONTINUOUS
 66
1
 70
0
  0
VERTEX
  8
0
 62
7
  6
CONTINUOUS
 10
37.9285539717
 20
76.0523108992
  0
VERTEX
  8
0
 62
7
  6
CONTINUOUS
 10
37.8642504756
 20
76.0399216461
  0
VERTEX
  8
0
 62
7
  6
CONTINUOUS
 10
37.7826464939
 20
76.0138763455
  0
VERTEX
  8
0
 62
7
  6
CONTINUOUS
 10
37.6940074427
 20
75.9669696124
  0
VERTEX
  8
0
 62
7
  6
CONTINUOUS
 10
37.6506655346
 20
75.9347540652
  0
VERTEX
  8
0
 62
7
  6
CONTINUOUS
 10
37.5719953276
 20
75.8527412875
  0
VERTEX
  8
0
 62
7
  6
CONTINUOUS
 10
37.511760549
 20
75.7505168782
  0
VERTEX
  8
0
 62
7
  6
CONTINUOUS
 10
37.4766004461
 20
75.63320351
  0
VERTEX
  8
0
 62
7
  6
CONTINUOUS
 10
37.4695029798
 20
75.5492044547
  0
SEQEND
  0
LINE
  8
0
 62
7
  6
CONTINUOUS
 10
55.1745983796
 20
76.2438035797
 11
55.1213542325
 21
76.2338400714
  0
LINE
  8
0
 62
7
  6
CONTINUOUS
 10
54.8918333122
 20
76.1881195424
 11
54.7703980474
 21
76.1664186893
  0
LINE
  8
0
 62
7
  6
CONTINUOUS
 10
54.7703841424
 20
76.1664162804
 11
54.1536849393
 21
76.0595745523
  0
LINE
  8
0
 62
7
  6
CONTINUOUS
 10
38.0008525228
 20
76.0620756567
 11
37.9285539717
 21
76.0523108992
  0
LINE
  8
0
 62
7
  6
CONTINUOUS
 10
39.5404228134
 20
76.2412955059
 11
39.1377343981
 21
76.1924550788
  0
LINE
  8
0
 62
7
  6
CONTINUOUS
 10
39.1377343981
 20
76.1924550788
 11
38.0008525228
 21
76.0620756567
  0
POLYLINE
  8
0
 62
7
  6
CONTINUOUS
 66
1
 70
0
  0
VERTEX
  8
0
 62
7
  6
CONTINUOUS
 10
28.8728617341
 20
76.0538886143
  0
VERTEX
  8
0
 62
7
  6
CONTINUOUS
 10
28.8200464048
 20
76.0480399366
  0
VERTEX
  8
0
 62
7
  6
CONTINUOUS
 10
28.7804048852
 20
76.0427951383
  0
VERTEX
  8
0
 62
7
  6
CONTINUOUS
 10
28.7337088209
 20
76.0339959848
  0
SEQEND
  0
LINE
  8
0
 62
7
  6
CONTINUOUS
 10
28.9421569597
 20
76.0608183338
 11
28.8728617341
 21
76.0538886143
  0
POLYLINE
  8
0
 62
7
  6
CONTINUOUS
 66
1
 70
0
  0
VERTEX
  8
0
 62
7
  6
CONTINUOUS
 10
27.2703734533
 20
76.046266478
  0
VERTEX
  8
0
 62
7
  6
CONTINUOUS
 10
27.2526058216
 20
76.0445527184
  0
VERTEX
  8
0
 62
7
  6
CONTINUOUS
 10
27.2385763883
 20
76.0431068667
  0
VERTEX
  8
0
 62
7
  6
CONTINUOUS
 10
27.2193720155
 20
76.0407205247
  0
VERTEX
  8
0
 62
7
  6
CONTINUOUS
 10
27.1813464628
 20
76.0338501559
  0
VERTEX
  8
0
 62
7
  6
CONTINUOUS
 10
27.1386507328
 20
76.0224373103
  0
VERTEX
  8
0
 62
7
  6
CONTINUOUS
 10
27.1166097383
 20
76.0149214569
  0
VERTEX
  8
0
 62
7
  6
CONTINUOUS
 10
27.0718879109
 20
75.9959882854
  0
VERTEX
  8
0
 62
7
  6
CONTINUOUS
 10
27.0270521789
 20
75.9714851863
  0
VERTEX
  8
0
 62
7
  6
CONTINUOUS
 10
26.9824202888
 20
75.9405839583
  0
VERTEX
  8
0
 62
7
  6
CONTINUOUS
 10
26.938683517
 20
75.9023789934
  0
VERTEX
  8
0
 62
7
  6
CONTINUOUS
 10
26.8973334345
 20
75.8564379777
  0
VERTEX
  8
0
 62
7
  6
CONTINUOUS
 10
26.8601611072
 20
75.8027586001
  0
VERTEX
  8
0
 62
7
  6
CONTINUOUS
 10
26.8289344943
 20
75.7415171393
  0
VERTEX
  8
0
 62
7
  6
CONTINUOUS
 10
26.8054958163
 20
75.6731841143
  0
VERTEX
  8
0
 62
7
  6
CONTINUOUS
 10
26.7917585093
 20
75.5986519742
  0
VERTEX
  8
0
 62
7
  6
CONTINUOUS
 10
26.7889304466
 20
75.5455475642
  0
SEQEND
  0
LINE
  8
1_AXIS
 62
7
  6
CONTINUOUS
 10
164.3346016647
 20
84.7546967895
 11
43.334661337
 21
84.7546967895
  0
LINE
  8
0
 62
7
  6
CONTINUOUS
 10
178.796761598
 20
76.053844625
 11
178.72926267
 21
76.0606047633
  0
LINE
  8
0
 62
7
  6
CONTINUOUS
 10
168.1287748007
 20
76.2412961071
 11
168.081998315
 21
76.2465276703
  0
LINE
  8
0
 62
7
  6
CONTINUOUS
 10
169.6546284672
 20
76.0636753604
 11
168.5365253442
 21
76.1918612356
  0
LINE
  8
0
 62
7
  6
CONTINUOUS
 10
168.5365253442
 20
76.1918612356
 11
168.1287804466
 21
76.2412955151
  0
LINE
  8
0
 62
7
  6
CONTINUOUS
 10
169.7134856479
 20
76.0563078759
 11
169.6545960809
 21
76.0636788748
  0
LINE
  8
0
 62
7
  6
CONTINUOUS
 10
169.7809119532
 20
76.0451842503
 11
169.7134856479
 21
76.0563078759
  0
LINE
  8
0
 62
7
  6
CONTINUOUS
 10
153.5155183918
 20
76.059574552
 11
152.898819187
 21
76.1664162804
  0
LINE
  8
0
 62
7
  6
CONTINUOUS
 10
152.8988046405
 20
76.1664188003
 11
152.7804840262
 21
76.1875450834
  0
LINE
  8
0
 62
7
  6
CONTINUOUS
 10
152.5478541049
 20
76.2338389862
 11
152.4995909911
 21
76.2430050693
  0
POLYLINE
  8
0
 62
7
  6
CONTINUOUS
 66
1
 70
0
  0
VERTEX
  8
0
 62
7
  6
CONTINUOUS
 10
152.7804840262
 20
76.1875450834
  0
VERTEX
  8
0
 62
7
  6
CONTINUOUS
 10
152.6410347004
 20
76.2143789895
  0
VERTEX
  8
0
 62
7
  6
CONTINUOUS
 10
152.5479678928
 20
76.2338144409
  0
SEQEND
  0
LINE
  8
0
 62
7
  6
CONTINUOUS
 10
152.5478541049
 20
76.2338389862
 11
152.5479678662
 21
76.2338143186
  0
LINE
  8
0
 62
7
  6
CONTINUOUS
 10
131.816719028
 20
76.1715442352
 11
131.6558185225
 21
76.2410736768
  0
LINE
  8
0
 62
7
  6
CONTINUOUS
 10
132.0967461734
 20
76.0212842223
 11
131.8639736435
 21
76.1281643421
  0
LINE
  8
0
 62
7
  6
CONTINUOUS
 10
131.8637942932
 20
76.1282466479
 11
131.8592968373
 21
76.1303983991
  0
LINE
  8
0
 62
7
  6
CONTINUOUS
 10
131.8153234282
 20
68.336934725
 11
131.8716224644
 21
68.384740555
  0
POLYLINE
  8
0
 62
7
  6
CONTINUOUS
 66
1
 70
0
  0
VERTEX
  8
0
 62
7
  6
CONTINUOUS
 10
178.9334726259
 20
76.0344604305
  0
VERTEX
  8
0
 62
7
  6
CONTINUOUS
 10
178.8882331812
 20
76.0428802734
  0
VERTEX
  8
0
 62
7
  6
CONTINUOUS
 10
178.848515935
 20
76.0481162394
  0
VERTEX
  8
0
 62
7
  6
CONTINUOUS
 10
178.796761598
 20
76.053844625
  0
SEQEND
  0
LINE
  8
0
 62
7
  6
CONTINUOUS
 10
131.8714237174
 20
76.1247442567
 11
131.816719028
 21
76.1715442352
  0
POLYLINE
  8
0
 62
7
  6
CONTINUOUS
 66
1
 70
0
  0
VERTEX
  8
0
 62
7
  6
CONTINUOUS
 10
178.9355226257
 20
68.4754042975
  0
VERTEX
  8
0
 62
7
  6
CONTINUOUS
 10
179.0021283094
 20
68.4956652023
  0
VERTEX
  8
0
 62
7
  6
CONTINUOUS
 10
179.0740007969
 20
68.5297610428
  0
VERTEX
  8
0
 62
7
  6
CONTINUOUS
 10
179.1447189142
 20
68.5790210056
  0
VERTEX
  8
0
 62
7
  6
CONTINUOUS
 10
179.2126390256
 20
68.6477464202
  0
VERTEX
  8
0
 62
7
  6
CONTINUOUS
 10
179.2703759774
 20
68.7364982489
  0
VERTEX
  8
0
 62
7
  6
CONTINUOUS
 10
179.309707118
 20
68.8415060044
  0
VERTEX
  8
0
 62
7
  6
CONTINUOUS
 10
179.3247679739
 20
68.9633132301
  0
SEQEND
  0
POLYLINE
  8
0
 62
7
  6
CONTINUOUS
 66
1
 70
0
  0
VERTEX
  8
0
 62
7
  6
CONTINUOUS
 10
132.3933562641
 20
75.5621807421
  0
VERTEX
  8
0
 62
7
  6
CONTINUOUS
 10
132.3829416998
 20
75.6639070329
  0
VERTEX
  8
0
 62
7
  6
CONTINUOUS
 10
132.3189573373
 20
75.8252231386
  0
VERTEX
  8
0
 62
7
  6
CONTINUOUS
 10
132.2697193855
 20
75.892237341
  0
VERTEX
  8
0
 62
7
  6
CONTINUOUS
 10
132.1484612167
 20
75.9939484917
  0
VERTEX
  8
0
 62
7
  6
CONTINUOUS
 10
132.0964056778
 20
76.0214385182
  0
SEQEND
  0
LINE
  8
0
 62
7
  6
CONTINUOUS
 10
132.3933568088
 20
75.5621871289
 11
132.3933568088
 21
68.9472064502
  0
POLYLINE
  8
0
 62
7
  6
CONTINUOUS
 66
1
 70
0
  0
VERTEX
  8
0
 62
7
  6
CONTINUOUS
 10
153.9696371181
 20
75.5547739071
  0
VERTEX
  8
0
 62
7
  6
CONTINUOUS
 10
153.966251192
 20
75.6129411852
  0
VERTEX
  8
0
 62
7
  6
CONTINUOUS
 10
153.9286624717
 20
75.7532966899
  0
VERTEX
  8
0
 62
7
  6
CONTINUOUS
 10
153.8571905158
 20
75.8712522792
  0
VERTEX
  8
0
 62
7
  6
CONTINUOUS
 10
153.7628129355
 20
75.9607888548
  0
VERTEX
  8
0
 62
7
  6
CONTINUOUS
 10
153.6585097498
 20
76.0195704218
  0
VERTEX
  8
0
 62
7
  6
CONTINUOUS
 10
153.5617196411
 20
76.0503523764
  0
VERTEX
  8
0
 62
7
  6
CONTINUOUS
 10
153.5153796604
 20
76.059598101
  0
SEQEND
  0
LINE
  8
0
 62
7
  6
CONTINUOUS
 10
153.9696371318
 20
75.5548507325
 11
153.9696371318
 21
68.9545428465
  0
LINE
  8
1_AXIS
 62
7
  6
CONTINUOUS
 10
166.3346016647
 20
82.7546967895
 11
166.3346016647
 21
77.2546967895
  0
LINE
  8
1_AXIS
 62
7
  6
CONTINUOUS
 10
166.3346016647
 20
67.2546967895
 11
166.3346016647
 21
61.7546967895
  0
POLYLINE
  8
0
 62
7
  6
CONTINUOUS
 66
1
 70
0
  0
VERTEX
  8
0
 62
7
  6
CONTINUOUS
 10
170.1996983822
 20
75.5492045757
  0
VERTEX
  8
0
 62
7
  6
CONTINUOUS
 10
170.198879904
 20
75.5778199291
  0
VERTEX
  8
0
 62
7
  6
CONTINUOUS
 10
170.174636753
 20
75.7056189509
  0
VERTEX
  8
0
 62
7
  6
CONTINUOUS
 10
170.120268213
 20
75.8198170022
  0
VERTEX
  8
0
 62
7
  6
CONTINUOUS
 10
170.0429373964
 20
75.9131253056
  0
VERTEX
  8
0
 62
7
  6
CONTINUOUS
 10
169.9525241294
 20
75.9811577297
  0
VERTEX
  8
0
 62
7
  6
CONTINUOUS
 10
169.8600598874
 20
76.0238993757
  0
VERTEX
  8
0
 62
7
  6
CONTINUOUS
 10
169.7809119532
 20
76.0451842503
  0
SEQEND
  0
LINE
  8
0
 62
7
  6
CONTINUOUS
 10
170.1997008501
 20
75.5492997896
 11
170.1997008501
 21
68.9600937895
  0
LINE
  8
0
 62
7
  6
CONTINUOUS
 10
179.3247679733
 20
75.5460803561
 11
179.3163724469
 21
75.6373309504
  0
POLYLINE
  8
0
 62
7
  6
CONTINUOUS
 66
1
 70
0
  0
VERTEX
  8
0
 62
7
  6
CONTINUOUS
 10
180.8802689604
 20
75.5455479524
  0
VERTEX
  8
0
 62
7
  6
CONTINUOUS
 10
180.8801852179
 20
75.5546986312
  0
VERTEX
  8
0
 62
7
  6
CONTINUOUS
 10
180.8757167826
 20
75.6128644305
  0
VERTEX
  8
0
 62
7
  6
CONTINUOUS
 10
180.8646956317
 20
75.6693663632
  0
VERTEX
  8
0
 62
7
  6
CONTINUOUS
 10
180.8475747324
 20
75.723384235
  0
VERTEX
  8
0
 62
7
  6
CONTINUOUS
 10
180.8249248065
 20
75.7742003276
  0
VERTEX
  8
0
 62
7
  6
CONTINUOUS
 10
180.7974117901
 20
75.8212161527
  0
VERTEX
  8
0
 62
7
  6
CONTINUOUS
 10
180.7657722114
 20
75.8639639834
  0
VERTEX
  8
0
 62
7
  6
CONTINUOUS
 10
180.7307877112
 20
75.9021129895
  0
VERTEX
  8
0
 62
7
  6
CONTINUOUS
 10
180.6932605134
 20
75.9354695985
  0
VERTEX
  8
0
 62
7
  6
CONTINUOUS
 10
180.6539889539
 20
75.9639743892
  0
VERTEX
  8
0
 62
7
  6
CONTINUOUS
 10
180.6137463635
 20
75.987693364
  0
VERTEX
  8
0
 62
7
  6
CONTINUOUS
 10
180.5732651424
 20
76.0068050545
  0
VERTEX
  8
0
 62
7
  6
CONTINUOUS
 10
180.5332328015
 20
76.0215836664
  0
VERTEX
  8
0
 62
7
  6
CONTINUOUS
 10
180.4943202969
 20
76.0323794687
  0
VERTEX
  8
0
 62
7
  6
CONTINUOUS
 10
180.4592241409
 20
76.0393006201
  0
VERTEX
  8
0
 62
7
  6
CONTINUOUS
 10
180.4359618795
 20
76.0425058765
  0
VERTEX
  8
0
 62
7
  6
CONTINUOUS
 10
180.4228184639
 20
76.0439284804
  0
VERTEX
  8
0
 62
7
  6
CONTINUOUS
 10
180.4082202182
 20
76.0453697942
  0
VERTEX
  8
0
 62
7
  6
CONTINUOUS
 10
180.3645693718
 20
76.0494539411
  0
SEQEND
  0
LINE
  8
0
 62
7
  6
CONTINUOUS
 10
179.3247687243
 20
75.546100061
 11
179.3247687243
 21
68.9632935182
  0
LINE
  8
0
 62
7
  6
CONTINUOUS
 10
180.8802749977
 20
75.5456307021
 11
180.8802749977
 21
68.9637628769
  0
POLYLINE
  8
0
 62
7
  6
CONTINUOUS
 66
1
 70
0
  0
VERTEX
  8
0
 62
7
  6
CONTINUOUS
 10
179.3163724469
 20
75.6373309504
  0
VERTEX
  8
0
 62
7
  6
CONTINUOUS
 10
179.289979408
 20
75.7293436847
  0
VERTEX
  8
0
 62
7
  6
CONTINUOUS
 10
179.2482816925
 20
75.8118866186
  0
VERTEX
  8
0
 62
7
  6
CONTINUOUS
 10
179.1945086668
 20
75.8827160159
  0
VERTEX
  8
0
 62
7
  6
CONTINUOUS
 10
179.1321207754
 20
75.940527483
  0
VERTEX
  8
0
 62
7
  6
CONTINUOUS
 10
179.0645702708
 20
75.9849261568
  0
VERTEX
  8
0
 62
7
  6
CONTINUOUS
 10
178.9957572505
 20
76.0161049968
  0
VERTEX
  8
0
 62
7
  6
CONTINUOUS
 10
178.9334726259
 20
76.0344604305
  0
SEQEND
  0
ARC
  8
0
 62
7
  6
CONTINUOUS
 10
38.3588573989
 20
144.6713897385
 40
6.2
 50
98.3010367202
 51
105.5222105263
  0
ARC
  8
0
 62
7
  6
CONTINUOUS
 10
38.3588573989
 20
144.6713897385
 40
6.2
 50
81.7430816823
 51
96.3261258121
  0
ARC
  8
0
 62
7
  6
CONTINUOUS
 10
54.8768969827
 20
125.5758244736
 40
6.2
 50
117.2484051413
 51
124.4695789474
  0
ARC
  8
0
 62
7
  6
CONTINUOUS
 10
54.8768969827
 20
125.5758244736
 40
6.2
 50
100.6904501034
 51
115.2734942332
  0
ARC
  8
0
 62
7
  6
CONTINUOUS
 10
40.9519878701
 20
140.702308077
 40
6.2
 50
329.9896636616
 51
344.5727077913
  0
ARC
  8
0
 62
7
  6
CONTINUOUS
 10
40.9519878701
 20
140.702308077
 40
6.2
 50
320.7935789474
 51
328.0147527535
  0
ARC
  8
0
 62
7
  6
CONTINUOUS
 10
58.618283201
 20
122.6637866919
 40
6.2
 50
348.9370320826
 51
3.5200762124
  0
ARC
  8
0
 62
7
  6
CONTINUOUS
 10
58.618283201
 20
122.6637866919
 40
6.2
 50
339.7409473684
 51
346.9621211745
  0
ARC
  8
0
 62
7
  6
CONTINUOUS
 10
54.0977850811
 20
129.7029281365
 40
2.0
 50
47.8323128807
 51
100.6904501034
  0
ARC
  8
0
 62
7
  6
CONTINUOUS
 10
45.0006568307
 20
139.5850437183
 40
2.0
 50
344.5727077913
 51
37.430845014
  0
ARC
  8
0
 62
7
  6
CONTINUOUS
 10
62.8103592542
 20
122.9216594605
 40
2.0
 50
3.5200762124
 51
56.3782134351
  0
ARC
  8
0
 62
7
  6
CONTINUOUS
 10
49.8900582025
 20
130.6431098503
 40
0.8
 50
225.0156864448
 51
304.4695789474
  0
ARC
  8
0
 62
7
  6
CONTINUOUS
 10
45.5901560157
 20
135.3140487698
 40
0.8
 50
140.7935789474
 51
220.24747145
  0
ARC
  8
0
 62
7
  6
CONTINUOUS
 10
28.9361306672
 20
168.0957032913
 40
6.2
 50
79.3536682992
 51
86.5748421053
  0
ARC
  8
0
 62
7
  6
CONTINUOUS
 10
28.9361306672
 20
168.0957032913
 40
6.2
 50
62.7957132613
 51
77.3787573911
  0
ARC
  8
0
 62
7
  6
CONTINUOUS
 10
30.0999994681
 20
163.4996893346
 40
6.2
 50
311.0422952405
 51
325.6253393703
  0
ARC
  8
0
 62
7
  6
CONTINUOUS
 10
30.0999994681
 20
163.4996893346
 40
6.2
 50
301.8462105263
 51
309.0673843324
  0
ARC
  8
0
 62
7
  6
CONTINUOUS
 10
30.8562214406
 20
171.8311084128
 40
2.0
 50
9.9375760386
 51
62.7957132613
  0
ARC
  8
0
 62
7
  6
CONTINUOUS
 10
38.9620282979
 20
148.8278527621
 40
2.0
 50
28.8849444596
 51
81.7430816823
  0
ARC
  8
0
 62
7
  6
CONTINUOUS
 10
33.5665252328
 20
161.1283607781
 40
2.0
 50
325.6253393703
 51
18.483476593
  0
ARC
  8
0
 62
7
  6
CONTINUOUS
 10
28.1132052691
 20
175.1574832297
 40
0.8
 50
187.1209496027
 51
266.5748421053
  0
ARC
  8
0
 62
7
  6
CONTINUOUS
 10
27.5889283317
 20
181.4845649345
 40
0.8
 50
102.8988421053
 51
182.3527346078
  0
ARC
  8
0
 62
7
  6
CONTINUOUS
 10
35.2875641712
 20
151.0833395214
 40
0.8
 50
206.0683180237
 51
285.5222105263
  0
ARC
  8
0
 62
7
  6
CONTINUOUS
 10
32.7372939331
 20
156.8973700441
 40
0.8
 50
121.8462105263
 51
201.3001030289
  0
ARC
  8
0
 62
7
  6
CONTINUOUS
 10
76.7002635258
 20
112.8783082911
 40
6.2
 50
136.1957735623
 51
143.4169473684
  0
ARC
  8
0
 62
7
  6
CONTINUOUS
 10
76.7002635258
 20
112.8783082911
 40
6.2
 50
119.6378185244
 51
134.2208626542
  0
ARC
  8
0
 62
7
  6
CONTINUOUS
 10
101.4640566389
 20
107.9548140917
 40
6.2
 50
155.1431419834
 51
162.3643157895
  0
ARC
  8
0
 62
7
  6
CONTINUOUS
 10
101.4640566389
 20
107.9548140917
 40
6.2
 50
138.5851869455
 51
153.1682310753
  0
ARC
  8
0
 62
7
  6
CONTINUOUS
 10
81.184468241
 20
111.3388788679
 40
6.2
 50
7.8844005037
 51
22.4674446334
  0
ARC
  8
0
 62
7
  6
CONTINUOUS
 10
81.184468241
 20
111.3388788679
 40
6.2
 50
358.6883157895
 51
5.9094895956
  0
ARC
  8
0
 62
7
  6
CONTINUOUS
 10
74.6232976874
 20
116.5288168729
 40
2.0
 50
66.7796813018
 51
119.6378185244
  0
ARC
  8
0
 62
7
  6
CONTINUOUS
 10
98.3143083397
 20
110.7331383441
 40
2.0
 50
85.7270497228
 51
138.5851869455
  0
ARC
  8
0
 62
7
  6
CONTINUOUS
 10
85.0656748995
 20
112.9439442479
 40
2.0
 50
22.4674446334
 51
75.3255818561
  0
ARC
  8
0
 62
7
  6
CONTINUOUS
 10
70.3382805538
 20
116.0518102641
 40
0.8
 50
243.9630548658
 51
323.4169473684
  0
ARC
  8
0
 62
7
  6
CONTINUOUS
 10
64.75470754
 20
119.0734888714
 40
0.8
 50
159.7409473684
 51
239.194839871
  0
ARC
  8
0
 62
7
  6
CONTINUOUS
 10
94.4163490465
 20
108.8906344803
 40
0.8
 50
262.9104232869
 51
342.3643157895
  0
ARC
  8
0
 62
7
  6
CONTINUOUS
 10
88.1541719798
 20
109.9356070121
 40
0.8
 50
178.6883157895
 51
258.1422082921
  0
ARC
  8
0
 62
7
  6
CONTINUOUS
 10
34.5814712347
 20
217.5830105689
 40
6.2
 50
41.4589314571
 51
48.6801052632
  0
ARC
  8
0
 62
7
  6
CONTINUOUS
 10
34.5814712347
 20
217.5830105689
 40
6.2
 50
24.9009764192
 51
39.4840205489
  0
ARC
  8
0
 62
7
  6
CONTINUOUS
 10
27.6298154376
 20
193.3103772928
 40
6.2
 50
60.4062998781
 51
67.6274736842
  0
ARC
  8
0
 62
7
  6
CONTINUOUS
 10
27.6298154376
 20
193.3103772928
 40
6.2
 50
43.8483448402
 51
58.43138897
  0
ARC
  8
0
 62
7
  6
CONTINUOUS
 10
32.6769970532
 20
213.2412467605
 40
6.2
 50
273.1475583984
 51
287.7306025282
  0
ARC
  8
0
 62
7
  6
CONTINUOUS
 10
32.6769970532
 20
213.2412467605
 40
6.2
 50
263.9514736842
 51
271.1726474903
  0
ARC
  8
0
 62
7
  6
CONTINUOUS
 10
27.2382993243
 20
188.5854804675
 40
6.2
 50
292.0949268195
 51
306.6779709492
  0
ARC
  8
0
 62
7
  6
CONTINUOUS
 10
27.2382993243
 20
188.5854804675
 40
6.2
 50
282.8988421053
 51
290.1200159114
  0
ARC
  8
0
 62
7
  6
CONTINUOUS
 10
61.7617481841
 20
184.6171992883
 40
4.0
 50
75.0
 51
285.0
  0
ARC
  8
0
 62
7
  6
CONTINUOUS
 10
38.3910259584
 20
219.3514259067
 40
2.0
 50
332.0428391965
 51
24.9009764192
  0
ARC
  8
0
 62
7
  6
CONTINUOUS
 10
30.6587544569
 20
196.2199354065
 40
2.0
 50
350.9902076175
 51
43.8483448402
  0
ARC
  8
0
 62
7
  6
CONTINUOUS
 10
33.9560728156
 20
209.240751142
 40
2.0
 50
287.7306025282
 51
340.5887397509
  0
ARC
  8
0
 62
7
  6
CONTINUOUS
 10
29.7470300377
 20
185.2170579573
 40
2.0
 50
306.6779709492
 51
359.5361081719
  0
ARC
  8
0
 62
7
  6
CONTINUOUS
 10
29.1444346051
 20
200.2567339555
 40
0.8
 50
168.1735811816
 51
247.6274736842
  0
ARC
  8
0
 62
7
  6
CONTINUOUS
 10
30.7029645093
 20
206.4112293649
 40
0.8
 50
83.9514736842
 51
163.4053661868
  0
ARC
  8
0
 62
7
  6
CONTINUOUS
 10
49.037778287
 20
238.2832866755
 40
6.2
 50
22.511563036
 51
29.7327368421
  0
ARC
  8
0
 62
7
  6
CONTINUOUS
 10
49.037778287
 20
238.2832866755
 40
6.2
 50
5.9536079981
 51
20.5366521279
  0
ARC
  8
0
 62
7
  6
CONTINUOUS
 10
45.8267253657
 20
234.795153362
 40
6.2
 50
254.2001899774
 51
268.7832341071
  0
ARC
  8
0
 62
7
  6
CONTINUOUS
 10
45.8267253657
 20
234.795153362
 40
6.2
 50
245.0041052632
 51
252.2252790693
  0
ARC
  8
0
 62
7
  6
CONTINUOUS
 10
53.2151243494
 20
238.7189239958
 40
2.0
 50
313.0954707754
 51
5.9536079981
  0
ARC
  8
0
 62
7
  6
CONTINUOUS
 10
63.814722393
 20
246.9689223044
 40
2.0
 50
249.8358656861
 51
302.6940029088
  0
ARC
  8
0
 62
7
  6
CONTINUOUS
 10
45.7375384714
 20
230.5961004095
 40
2.0
 50
268.7832341071
 51
321.6413713298
  0
ARC
  8
0
 62
7
  6
CONTINUOUS
 10
54.4995661975
 20
242.8346397632
 40
0.8
 50
130.2788443395
 51
209.7327368421
  0
ARC
  8
0
 62
7
  6
CONTINUOUS
 10
59.5096346007
 20
246.7341325253
 40
0.8
 50
46.0567368421
 51
125.5106293447
  0
ARC
  8
0
 62
7
  6
CONTINUOUS
 10
38.2695024793
 20
223.6611984278
 40
0.8
 50
149.2262127606
 51
228.6801052632
  0
ARC
  8
0
 62
7
  6
CONTINUOUS
 10
41.7419483271
 20
228.9761724673
 40
0.8
 50
65.0041052632
 51
144.4579977657
  0
ARC
  8
0
 62
7
  6
CONTINUOUS
 10
93.5546016647
 20
260.6241883599
 40
6.2
 50
344.6168261939
 51
351.838
  0
ARC
  8
0
 62
7
  6
CONTINUOUS
 10
93.5546016647
 20
260.6241883599
 40
6.2
 50
328.058871156
 51
342.6419152858
  0
ARC
  8
0
 62
7
  6
CONTINUOUS
 10
69.4321714126
 20
253.1680094986
 40
6.2
 50
3.564194615
 51
10.7853684211
  0
ARC
  8
0
 62
7
  6
CONTINUOUS
 10
69.4321714126
 20
253.1680094986
 40
6.2
 50
347.0062395771
 51
1.5892837068
  0
ARC
  8
0
 62
7
  6
CONTINUOUS
 10
88.878173902
 20
259.8438305854
 40
6.2
 50
216.3054531353
 51
230.888497265
  0
ARC
  8
0
 62
7
  6
CONTINUOUS
 10
88.878173902
 20
259.8438305854
 40
6.2
 50
207.1093684211
 51
214.3305422271
  0
ARC
  8
0
 62
7
  6
CONTINUOUS
 10
65.2625071602
 20
250.9115000484
 40
6.2
 50
235.2528215563
 51
249.8358656861
  0
ARC
  8
0
 62
7
  6
CONTINUOUS
 10
65.2625071602
 20
250.9115000484
 40
6.2
 50
226.0567368421
 51
233.2779106482
  0
ARC
  8
0
 62
7
  6
CONTINUOUS
 10
97.1186886445
 20
258.4021883599
 40
2.0
 50
275.2007339333
 51
328.058871156
  0
ARC
  8
0
 62
7
  6
CONTINUOUS
 10
73.5246285496
 20
252.2236607381
 40
2.0
 50
294.1481023544
 51
347.0062395771
  0
ARC
  8
0
 62
7
  6
CONTINUOUS
 10
86.2286812061
 20
256.5849675238
 40
2.0
 50
230.888497265
 51
283.7466344877
  0
ARC
  8
0
 62
7
  6
CONTINUOUS
 10
100.660218685
 20
260.8611458854
 40
0.8
 50
92.3841074974
 51
171.838
  0
ARC
  8
0
 62
7
  6
CONTINUOUS
 10
76.0758465206
 20
255.6993180865
 40
0.8
 50
111.3314759185
 51
190.7853684211
  0
ARC
  8
0
 62
7
  6
CONTINUOUS
 10
82.0806188285
 20
257.7607590236
 40
0.8
 50
27.1093684211
 51
106.5632609236
  0
ARC
  8
0
 62
7
  6
CONTINUOUS
 10
126.4847350884
 20
111.3388788679
 40
6.2
 50
174.0905104044
 51
181.3116842105
  0
ARC
  8
0
 62
7
  6
CONTINUOUS
 10
126.4847350884
 20
111.3388788679
 40
6.2
 50
157.5325553666
 51
172.1155994963
  0
ARC
  8
0
 62
7
  6
CONTINUOUS
 10
106.2051466904
 20
107.9548140917
 40
6.2
 50
26.8317689247
 51
41.4148130545
  0
ARC
  8
0
 62
7
  6
CONTINUOUS
 10
106.2051466904
 20
107.9548140917
 40
6.2
 50
17.6356842105
 51
24.8568580166
  0
ARC
  8
0
 62
7
  6
CONTINUOUS
 10
130.9689398035
 20
112.8783082911
 40
6.2
 50
45.7791373458
 51
60.3621814756
  0
ARC
  8
0
 62
7
  6
CONTINUOUS
 10
130.9689398035
 20
112.8783082911
 40
6.2
 50
36.5830526316
 51
43.8042264377
  0
ARC
  8
0
 62
7
  6
CONTINUOUS
 10
103.8346016647
 20
142.5443458077
 40
4.0
 50
165.0
 51
15.0
  0
ARC
  8
0
 62
7
  6
CONTINUOUS
 10
122.6035284299
 20
112.9439442479
 40
2.0
 50
104.6744181439
 51
157.5325553666
  0
ARC
  8
0
 62
7
  6
CONTINUOUS
 10
109.3548949897
 20
110.7331383441
 40
2.0
 50
41.4148130545
 51
94.2729502772
  0
ARC
  8
0
 62
7
  6
CONTINUOUS
 10
133.045905642
 20
116.5288168729
 40
2.0
 50
60.3621814756
 51
113.2203186982
  0
ARC
  8
0
 62
7
  6
CONTINUOUS
 10
119.5150313495
 20
109.9356070121
 40
0.8
 50
281.8577917079
 51
1.3116842105
  0
ARC
  8
0
 62
7
  6
CONTINUOUS
 10
113.2528542829
 20
108.8906344803
 40
0.8
 50
197.6356842105
 51
277.0895767131
  0
ARC
  8
0
 62
7
  6
CONTINUOUS
 10
137.3309227755
 20
116.0518102641
 40
0.8
 50
216.5830526316
 51
296.0369451342
  0
ARC
  8
0
 62
7
  6
CONTINUOUS
 10
169.3103459304
 20
144.6713897385
 40
6.2
 50
74.4777894737
 51
81.6989632798
  0
ARC
  8
0
 62
7
  6
CONTINUOUS
 10
169.3103459304
 20
144.6713897385
 40
6.2
 50
83.6738741879
 51
98.2569183177
  0
ARC
  8
0
 62
7
  6
CONTINUOUS
 10
149.0509201283
 20
122.6637866919
 40
6.2
 50
193.0378788255
 51
200.2590526316
  0
ARC
  8
0
 62
7
  6
CONTINUOUS
 10
149.0509201283
 20
122.6637866919
 40
6.2
 50
176.4799237876
 51
191.0629679174
  0
ARC
  8
0
 62
7
  6
CONTINUOUS
 10
166.7172154593
 20
140.702308077
 40
6.2
 50
211.9852472465
 51
219.2064210526
  0
ARC
  8
0
 62
7
  6
CONTINUOUS
 10
166.7172154593
 20
140.702308077
 40
6.2
 50
195.4272922087
 51
210.0103363384
  0
ARC
  8
0
 62
7
  6
CONTINUOUS
 10
152.7923063467
 20
125.5758244736
 40
6.2
 50
64.7265057668
 51
79.3095498966
  0
ARC
  8
0
 62
7
  6
CONTINUOUS
 10
152.7923063467
 20
125.5758244736
 40
6.2
 50
55.5304210526
 51
62.7515948587
  0
ARC
  8
0
 62
7
  6
CONTINUOUS
 10
144.8588440752
 20
122.9216594605
 40
2.0
 50
123.6217865649
 51
176.4799237876
  0
ARC
  8
0
 62
7
  6
CONTINUOUS
 10
162.6685464986
 20
139.5850437183
 40
2.0
 50
142.569154986
 51
195.4272922087
  0
ARC
  8
0
 62
7
  6
CONTINUOUS
 10
153.5714182483
 20
129.7029281365
 40
2.0
 50
79.3095498966
 51
132.1676871193
  0
ARC
  8
0
 62
7
  6
CONTINUOUS
 10
142.9144957893
 20
119.0734888714
 40
0.8
 50
300.805160129
 51
20.2590526316
  0
ARC
  8
0
 62
7
  6
CONTINUOUS
 10
162.0790473137
 20
135.3140487698
 40
0.8
 50
319.75252855
 51
39.2064210526
  0
ARC
  8
0
 62
7
  6
CONTINUOUS
 10
157.7791451268
 20
130.6431098503
 40
0.8
 50
235.5304210526
 51
314.9843135552
  0
ARC
  8
0
 62
7
  6
CONTINUOUS
 10
178.7330726622
 20
168.0957032913
 40
6.2
 50
93.4251578947
 51
100.6463317008
  0
ARC
  8
0
 62
7
  6
CONTINUOUS
 10
178.7330726622
 20
168.0957032913
 40
6.2
 50
102.6212426089
 51
117.2042867387
  0
ARC
  8
0
 62
7
  6
CONTINUOUS
 10
177.5692038613
 20
163.4996893346
 40
6.2
 50
214.3746606297
 51
228.9577047595
  0
ARC
  8
0
 62
7
  6
CONTINUOUS
 10
177.5692038613
 20
163.4996893346
 40
6.2
 50
230.9326156676
 51
238.1537894737
  0
ARC
  8
0
 62
7
  6
CONTINUOUS
 10
176.8129818887
 20
171.8311084128
 40
2.0
 50
117.2042867387
 51
170.0624239614
  0
ARC
  8
0
 62
7
  6
CONTINUOUS
 10
168.7071750315
 20
148.8278527621
 40
2.0
 50
98.2569183177
 51
151.1150555404
  0
ARC
  8
0
 62
7
  6
CONTINUOUS
 10
174.1026780966
 20
161.1283607781
 40
2.0
 50
161.516523407
 51
214.3746606297
  0
ARC
  8
0
 62
7
  6
CONTINUOUS
 10
179.5559980602
 20
175.1574832297
 40
0.8
 50
273.4251578947
 51
352.8790503973
  0
ARC
  8
0
 62
7
  6
CONTINUOUS
 10
180.0802749977
 20
181.4845649345
 40
0.8
 50
357.6472653922
 51
77.1011578947
  0
ARC
  8
0
 62
7
  6
CONTINUOUS
 10
172.3816391582
 20
151.0833395214
 40
0.8
 50
254.4777894737
 51
333.9316819763
  0
ARC
  8
0
 62
7
  6
CONTINUOUS
 10
174.9319093962
 20
156.8973700441
 40
0.8
 50
338.6998969711
 51
58.1537894737
  0
ARC
  8
0
 62
7
  6
CONTINUOUS
 10
103.8346016647
 20
184.6171992883
 40
72.09
 50
95.2007339333
 51
103.7466344877
  0
ARC
  8
0
 62
7
  6
CONTINUOUS
 10
103.8346016647
 20
184.6171992883
 40
72.09
 50
76.2533655123
 51
84.7992660667
  0
ARC
  8
0
 62
7
  6
CONTINUOUS
 10
103.8346016647
 20
184.6171992883
 40
72.09
 50
114.1481023544
 51
122.6940029088
  0
ARC
  8
0
 62
7
  6
CONTINUOUS
 10
103.8346016647
 20
184.6171992883
 40
72.09
 50
133.0954707754
 51
141.6413713298
  0
ARC
  8
0
 62
7
  6
CONTINUOUS
 10
103.8346016647
 20
184.6171992883
 40
72.09
 50
152.0428391965
 51
160.5887397509
  0
ARC
  8
0
 62
7
  6
CONTINUOUS
 10
103.8346016647
 20
184.6171992883
 40
72.09
 50
170.9902076175
 51
179.5361081719
  0
ARC
  8
0
 62
7
  6
CONTINUOUS
 10
103.8346016647
 20
184.6171992883
 40
72.09
 50
189.9375760386
 51
198.483476593
  0
ARC
  8
0
 62
7
  6
CONTINUOUS
 10
103.8346016647
 20
184.6171992883
 40
72.09
 50
57.3059970912
 51
65.8518976456
  0
ARC
  8
0
 62
7
  6
CONTINUOUS
 10
103.8346016647
 20
184.6171992883
 40
72.09
 50
208.8849444596
 51
217.430845014
  0
ARC
  8
0
 62
7
  6
CONTINUOUS
 10
103.8346016647
 20
184.6171992883
 40
72.09
 50
227.8323128807
 51
236.3782134351
  0
ARC
  8
0
 62
7
  6
CONTINUOUS
 10
103.8346016647
 20
184.6171992883
 40
72.09
 50
38.3586286702
 51
46.9045292246
  0
ARC
  8
0
 62
7
  6
CONTINUOUS
 10
103.8346016647
 20
184.6171992883
 40
72.09
 50
246.7796813018
 51
255.3255818561
  0
ARC
  8
0
 62
7
  6
CONTINUOUS
 10
103.8346016647
 20
184.6171992883
 40
72.09
 50
265.7270497228
 51
274.2729502772
  0
ARC
  8
0
 62
7
  6
CONTINUOUS
 10
103.8346016647
 20
184.6171992883
 40
72.09
 50
19.4112602491
 51
27.9571608035
  0
ARC
  8
0
 62
7
  6
CONTINUOUS
 10
103.8346016647
 20
184.6171992883
 40
72.09
 50
284.6744181439
 51
293.2203186982
  0
ARC
  8
0
 62
7
  6
CONTINUOUS
 10
103.8346016647
 20
184.6171992883
 40
72.09
 50
0.4638918281
 51
9.0097923825
  0
ARC
  8
0
 62
7
  6
CONTINUOUS
 10
103.8346016647
 20
184.6171992883
 40
72.09
 50
303.6217865649
 51
312.1676871193
  0
ARC
  8
0
 62
7
  6
CONTINUOUS
 10
103.8346016647
 20
184.6171992883
 40
72.09
 50
322.569154986
 51
331.1150555404
  0
ARC
  8
0
 62
7
  6
CONTINUOUS
 10
103.8346016647
 20
184.6171992883
 40
72.09
 50
341.516523407
 51
350.0624239614
  0
CIRCLE
  8
1_AXIS
 62
7
  6
CONTINUOUS
 10
103.8346016647
 20
184.6171992883
 40
62.5
  0
ARC
  8
0
 62
7
  6
CONTINUOUS
 10
114.1146016647
 20
260.6241883599
 40
6.2
 50
197.3580847142
 51
211.941128844
  0
ARC
  8
0
 62
7
  6
CONTINUOUS
 10
114.1146016647
 20
260.6241883599
 40
6.2
 50
188.162
 51
195.3831738061
  0
ARC
  8
0
 62
7
  6
CONTINUOUS
 10
138.2370319168
 20
253.1680094986
 40
6.2
 50
169.2146315789
 51
176.435805385
  0
ARC
  8
0
 62
7
  6
CONTINUOUS
 10
138.2370319168
 20
253.1680094986
 40
6.2
 50
178.4107162932
 51
192.9937604229
  0
ARC
  8
0
 62
7
  6
CONTINUOUS
 10
118.7910294274
 20
259.8438305854
 40
6.2
 50
309.111502735
 51
323.6945468647
  0
ARC
  8
0
 62
7
  6
CONTINUOUS
 10
118.7910294274
 20
259.8438305854
 40
6.2
 50
325.6694577729
 51
332.8906315789
  0
ARC
  8
0
 62
7
  6
CONTINUOUS
 10
103.8346016647
 20
226.6900527689
 40
4.0
 50
345.0
 51
195.0
  0
ARC
  8
0
 62
7
  6
CONTINUOUS
 10
110.5505146848
 20
258.4021883599
 40
2.0
 50
211.941128844
 51
264.7992660667
  0
ARC
  8
0
 62
7
  6
CONTINUOUS
 10
134.1445747797
 20
252.2236607381
 40
2.0
 50
192.9937604229
 51
245.8518976456
  0
ARC
  8
0
 62
7
  6
CONTINUOUS
 10
121.4405221233
 20
256.5849675238
 40
2.0
 50
256.2533655123
 51
309.111502735
  0
CIRCLE
  8
0
 62
7
  6
CONTINUOUS
 10
103.8346016647
 20
249.6171992883
 40
0.8660254038
  0
ARC
  8
0
 62
7
  6
CONTINUOUS
 10
107.0089846444
 20
260.8611458854
 40
0.8
 50
8.162
 51
87.6158925026
  0
ARC
  8
0
 62
7
  6
CONTINUOUS
 10
131.5933568088
 20
255.6993180865
 40
0.8
 50
349.214631579
 51
68.6685240815
  0
ARC
  8
0
 62
7
  6
CONTINUOUS
 10
125.5885845009
 20
257.7607590236
 40
0.8
 50
73.4367390764
 51
152.8906315789
  0
ARC
  8
0
 62
7
  6
CONTINUOUS
 10
173.0877320946
 20
217.5830105689
 40
6.2
 50
131.3198947368
 51
138.5410685429
  0
ARC
  8
0
 62
7
  6
CONTINUOUS
 10
173.0877320946
 20
217.5830105689
 40
6.2
 50
140.5159794511
 51
155.0990235808
  0
ARC
  8
0
 62
7
  6
CONTINUOUS
 10
180.0393878918
 20
193.3103772928
 40
6.2
 50
112.3725263158
 51
119.5937001219
  0
ARC
  8
0
 62
7
  6
CONTINUOUS
 10
180.0393878918
 20
193.3103772928
 40
6.2
 50
121.56861103
 51
136.1516551598
  0
ARC
  8
0
 62
7
  6
CONTINUOUS
 10
174.9922062762
 20
213.2412467605
 40
6.2
 50
252.2693974718
 51
266.8524416016
  0
ARC
  8
0
 62
7
  6
CONTINUOUS
 10
174.9922062762
 20
213.2412467605
 40
6.2
 50
268.8273525097
 51
276.0485263158
  0
ARC
  8
0
 62
7
  6
CONTINUOUS
 10
180.4309040051
 20
188.5854804675
 40
6.2
 50
233.3220290508
 51
247.9050731805
  0
ARC
  8
0
 62
7
  6
CONTINUOUS
 10
180.4309040051
 20
188.5854804675
 40
6.2
 50
249.8799840886
 51
257.1011578947
  0
ARC
  8
0
 62
7
  6
CONTINUOUS
 10
145.9074551453
 20
184.6171992883
 40
4.0
 50
255.0
 51
105.0
  0
ARC
  8
0
 62
7
  6
CONTINUOUS
 10
169.2781773709
 20
219.3514259067
 40
2.0
 50
155.0990235808
 51
207.9571608035
  0
ARC
  8
0
 62
7
  6
CONTINUOUS
 10
177.0104488724
 20
196.2199354065
 40
2.0
 50
136.1516551598
 51
189.0097923825
  0
ARC
  8
0
 62
7
  6
CONTINUOUS
 10
173.7131305137
 20
209.240751142
 40
2.0
 50
199.4112602491
 51
252.2693974718
  0
ARC
  8
0
 62
7
  6
CONTINUOUS
 10
177.9221732916
 20
185.2170579573
 40
2.0
 50
180.4638918281
 51
233.3220290508
  0
ARC
  8
0
 62
7
  6
CONTINUOUS
 10
178.5247687243
 20
200.2567339555
 40
0.8
 50
292.3725263158
 51
11.8264188184
  0
ARC
  8
0
 62
7
  6
CONTINUOUS
 10
176.96623882
 20
206.4112293649
 40
0.8
 50
16.5946338132
 51
96.0485263158
  0
ARC
  8
0
 62
7
  6
CONTINUOUS
 10
158.6314250424
 20
238.2832866755
 40
6.2
 50
150.2672631579
 51
157.488436964
  0
ARC
  8
0
 62
7
  6
CONTINUOUS
 10
158.6314250424
 20
238.2832866755
 40
6.2
 50
159.4633478721
 51
174.0463920019
  0
ARC
  8
0
 62
7
  6
CONTINUOUS
 10
142.4066961692
 20
250.9115000484
 40
6.2
 50
290.1641343139
 51
304.7471784437
  0
ARC
  8
0
 62
7
  6
CONTINUOUS
 10
142.4066961692
 20
250.9115000484
 40
6.2
 50
306.7220893518
 51
313.9432631579
  0
ARC
  8
0
 62
7
  6
CONTINUOUS
 10
161.8424779637
 20
234.795153362
 40
6.2
 50
271.2167658929
 51
285.7998100226
  0
ARC
  8
0
 62
7
  6
CONTINUOUS
 10
161.8424779637
 20
234.795153362
 40
6.2
 50
287.7747209307
 51
294.9958947368
  0
ARC
  8
0
 62
7
  6
CONTINUOUS
 10
154.4540789799
 20
238.7189239958
 40
2.0
 50
174.0463920019
 51
226.9045292246
  0
ARC
  8
0
 62
7
  6
CONTINUOUS
 10
143.8544809364
 20
246.9689223044
 40
2.0
 50
237.3059970912
 51
290.1641343139
  0
ARC
  8
0
 62
7
  6
CONTINUOUS
 10
161.931664858
 20
230.5961004095
 40
2.0
 50
218.3586286702
 51
271.2167658929
  0
ARC
  8
0
 62
7
  6
CONTINUOUS
 10
153.1696371318
 20
242.8346397632
 40
0.8
 50
330.2672631579
 51
49.7211556605
  0
ARC
  8
0
 62
7
  6
CONTINUOUS
 10
148.1595687286
 20
246.7341325253
 40
0.8
 50
54.4893706553
 51
133.9432631579
  0
ARC
  8
0
 62
7
  6
CONTINUOUS
 10
169.3997008501
 20
223.6611984278
 40
0.8
 50
311.3198947368
 51
30.7737872394
  0
ARC
  8
0
 62
7
  6
CONTINUOUS
 10
165.9272550023
 20
228.9761724673
 40
0.8
 50
35.5420022343
 51
114.9958947368
  0
ARC
  8
1_AXIS
 62
7
  6
CONTINUOUS
 10
164.3346016647
 20
82.7546967895
 40
2.0
 50
0.0
 51
90.0
  0
ARC
  8
1_AXIS
 62
7
  6
CONTINUOUS
 10
164.3346016647
 20
61.7546967895
 40
2.0
 50
270.0
 51
360.0
  0
ARC
  8
1_AXIS
 62
7
  6
CONTINUOUS
 10
43.3346016647
 20
82.7546967895
 40
2.0
 50
90.0
 51
180.0
  0
ARC
  8
1_AXIS
 62
7
  6
CONTINUOUS
 10
43.3346016647
 20
61.7546967895
 40
2.0
 50
180.0
 51
270.0
  0
ARC
  8
1_AXIS
 62
7
  6
CONTINUOUS
 10
167.3346016647
 20
77.2546967895
 40
1.0
 50
180.0
 51
270.0
  0
ARC
  8
1_AXIS
 62
7
  6
CONTINUOUS
 10
167.3346016647
 20
67.2546967895
 40
1.0
 50
90.0
 51
180.0
  0
ARC
  8
1_AXIS
 62
7
  6
CONTINUOUS
 10
40.3346016647
 20
77.2546967895
 40
1.0
 50
270.0
 51
360.0
  0
ARC
  8
1_AXIS
 62
7
  6
CONTINUOUS
 10
40.3346016647
 20
67.2546967895
 40
1.0
 50
0.0
 51
90.0
  0
ENDSEC
  0
EOF
