  0
SECTION
  2
HEADER
  9
$EXTMAX
 10
210.0
 20
297.0
 30
0.0
  9
$EXTMIN
 10
0.0
 20
0.0
 30
0.0
  9
$LIMMIN
 10
0.0
 20
0.0
  9
$LIMMAX
 10
210.0
 20
297.0
  9
$VIEWCTR
 10
105.0
 20
148.5
  9
$VIEWSIZE
 40
297.0
  9
$CLAYER
  8
0
  9
$LTSCALE
 40
19.36
  9
$CELTYPE
  6
BYLAYER
  9
$DIMSCALE
 40
1.0
  9
$DIMASZ
 40
3.5
  9
$DIMEXO
 40
1.0
  9
$DIMDLI
 40
13.376
  9
$DIMEXE
 40
2.0
  9
$DIMCEN
 40
3.168
  9
$DIMLFAC
 40
1.0
  9
$DIMBLK
  1
_FILLED
  9
$DIMALT
 70
0
  9
$DIMALTF
 40
0.0393700787
  9
$DIMTXT
 40
3.5
  9
$AUNITS
 70
0
  9
$PDMODE
 70
3
  9
$PDSIZE
 40
0.3125
  9
$TILEMODE
 70
1
  0
ENDSEC
  0
SECTION
  2
TABLES
  0
TABLE
  2
LTYPE
 70
6
  0
LTYPE
  2
BYBLOCK
 70
0
  3

 72
65
 73
0
 40
0.0
  0
LTYPE
  2
BYLAYER
 70
0
  3

 72
65
 73
0
 40
0.0
  0
LTYPE
  2
CONTINUOUS
 70
64
  3
Solid line
 72
65
 73
0
 40
0.0
  0
LTYPE
  2
CENTER
 70
64
  3
____ _ ____ _ ____ _ ____ _ ____ _ ____ _ ____
 72
65
 73
4
 40
0.6
 49
0.375
 49
-0.075
 49
0.075
 49
-0.075
  0
LTYPE
  2
HIDDEN
 70
64
  3
- - - - - - - - - - - - - - - - - - - -
 72
65
 73
2
 40
0.2
 49
0.1
 49
-0.1
  0
LTYPE
  2
PHANTOM
 70
64
  3
_____ _ _ _____ _ _ _____ _ _ _____
 72
65
 73
6
 40
0.8
 49
0.45
 49
-0.05
 49
0.1
 49
-0.05
 49
0.1
 49
-0.05
  0
LTYPE
  2
DOT
 70
64
  3
. . . . . . . . . . . . . . . . . . . .
 72
65
 73
2
 40
0.2
 49
0.1
 49
-0.1
  0
LTYPE
  2
DASHED
 70
64
  3
- - - - - - - - - - - - - - - - - - - -
 72
65
 73
2
 40
0.2
 49
0.1
 49
-0.1
  0
ENDTAB
  0
TABLE
  2
LAYER
 70
36
  0
LAYER
  2
0
 70
0
 62
7
  6
CONTINUOUS
  0
LAYER
  2
DEFAULT_1
 70
0
 62
7
  6
CENTER
  0
LAYER
  2
DEFAULT_2
 70
0
 62
8
  6
HIDDEN
  0
LAYER
  2
DEFAULT_3
 70
0
 62
7
  6
PHANTOM
  0
LAYER
  2
1_AXIS
 70
0
 62
7
  6
CONTINUOUS
  0
LAYER
  2
1_CSYS
 70
0
 62
7
  6
CONTINUOUS
  0
LAYER
  2
1_DATUM_PLANE
 70
0
 62
7
  6
CONTINUOUS
  0
LAYER
  2
2_FEATURE
 70
0
 62
7
  6
CONTINUOUS
  0
LAYER
  2
6_DIM
 70
0
 62
7
  6
CONTINUOUS
  0
LAYER
  2
AXES
 70
0
 62
7
  6
CONTINUOUS
  0
LAYER
  2
CSYS
 70
0
 62
7
  6
CONTINUOUS
  0
LAYER
  2
PITCH
 70
0
 62
7
  6
CONTINUOUS
  0
LAYER
  2
PLANES
 70
0
 62
7
  6
CONTINUOUS
  0
LAYER
  2
QUILTS
 70
0
 62
7
  6
CONTINUOUS
  0
LAYER
  2
SQ
 70
0
 62
7
  6
CONTINUOUS
  0
ENDTAB
  0
TABLE
  2
STYLE
 70
1
  0
STYLE
  2
STANDARD
 70
0
 40
0.0
 41
0.8
 50
0.0
 71
0
 42
0.2
  3
txt
  4

  0
STYLE
  2
TEXTSTYLE_1
 70
0
 40
0.0
 41
0.8
 50
0.0
 71
0
 42
0.2
  3
gdt
  4

  0
STYLE
  2
TEXTSTYLE_2
 70
0
 40
0.0
 41
0.6
 50
0.0
 71
0
 42
0.2
  3
txt
  4

  0
STYLE
  2
TEXTSTYLE_3
 70
0
 40
0.0
 41
1.0
 50
0.0
 71
0
 42
0.2
  3
ftb_____.ttf
  4

  0
STYLE
  2
TEXTSTYLE_4
 70
0
 40
0.0
 41
1.0
 50
0.0
 71
0
 42
0.2
  3
fti_____.ttf
  4

  0
STYLE
  2
TEXTSTYLE_5
 70
0
 40
0.0
 41
1.0
 50
0.0
 71
0
 42
0.2
  3
frutiger light.ttf
  4

  0
STYLE
  2
TEXTSTYLE_6
 70
0
 40
0.0
 41
0.7
 50
0.0
 71
0
 42
0.2
  3
txt
  4

  0
STYLE
  2
TEXTSTYLE_7
 70
0
 40
0.0
 41
0.6
 50
0.0
 71
0
 42
0.2
  3
txt
  4

  0
ENDTAB
  0
ENDSEC
  0
SECTION
  2
BLOCKS
  0
BLOCK
  8
0
 62
2
  6
CONTINUOUS
  2
UNI_LOGO2_BL1
 70
64
 10
173.5956734183
 20
35.5937998301
  0
TEXT
  8
0
 62
7
  6
CONTINUOUS
 10
164.6539584268
 20
30.6865562072
  7
TEXTSTYLE_4
 40
1.0655737705
  1
The brand for plastic modular belts and chains
 41
1.0
 72
0
  0
LINE
  8
0
 62
7
  6
CONTINUOUS
 10
149.5737418074
 20
36.1675703219
 11
149.5737418074
 21
34.0364227809
  0
LINE
  8
0
 62
7
  6
CONTINUOUS
 10
149.8628043005
 20
31.0454914852
 11
149.8628043005
 21
31.1422825445
  0
LINE
  8
0
 62
7
  6
CONTINUOUS
 10
149.5737418074
 20
31.1100188581
 11
149.6315543091
 21
30.9164367395
  0
LINE
  8
0
 62
7
  6
CONTINUOUS
 10
150.9671844304
 20
33.9544555678
 11
150.9671844304
 21
36.1675703219
  0
LINE
  8
0
 62
7
  6
CONTINUOUS
 10
151.8862417523
 20
32.1101932727
 11
151.8862417523
 21
30.5937998301
  0
LINE
  8
0
 62
7
  6
CONTINUOUS
 10
152.1753043074
 20
30.5937998301
 11
152.1753043074
 21
31.3358647082
  0
LINE
  8
0
 62
7
  6
CONTINUOUS
 10
152.1753043074
 20
31.4649194539
 11
152.1753043074
 21
32.1101932727
  0
LINE
  8
0
 62
7
  6
CONTINUOUS
 10
149.6315543091
 20
31.3036010218
 11
149.5737418074
 21
31.1100188581
  0
LINE
  8
0
 62
7
  6
CONTINUOUS
 10
149.9784292936
 20
30.8841730531
 11
149.8628043005
 21
31.0454914852
  0
LINE
  8
0
 62
7
  6
CONTINUOUS
 10
151.0768668626
 20
31.400392081
 11
151.1346793074
 21
31.3036010218
  0
LINE
  8
0
 62
7
  6
CONTINUOUS
 10
151.4237418626
 20
31.3036010218
 11
151.3659292523
 21
31.4326557675
  0
LINE
  8
0
 62
7
  6
CONTINUOUS
 10
152.852430332
 20
36.1675703219
 11
152.852430332
 21
34.3642916334
  0
LINE
  8
0
 62
7
  6
CONTINUOUS
 10
152.852430332
 20
33.0528162235
 11
152.852430332
 21
32.3970785186
  0
LINE
  8
0
 62
7
  6
CONTINUOUS
 10
153.2159293074
 20
31.2390736489
 11
153.2159293074
 21
30.5937998301
  0
LINE
  8
0
 62
7
  6
CONTINUOUS
 10
153.5049916972
 20
30.5937998301
 11
153.5049916972
 21
31.2390736489
  0
LINE
  8
0
 62
7
  6
CONTINUOUS
 10
149.8628043005
 20
31.1422825445
 11
149.9206168074
 21
31.2713373354
  0
LINE
  8
0
 62
7
  6
CONTINUOUS
 10
149.6315543091
 20
30.9164367395
 11
149.7471793074
 21
30.7873819712
  0
LINE
  8
0
 62
7
  6
CONTINUOUS
 10
153.1581166972
 20
31.3681283946
 11
153.2159293074
 21
31.2390736489
  0
LINE
  8
0
 62
7
  6
CONTINUOUS
 10
153.9674919177
 20
30.8841730531
 11
154.0253041972
 21
30.7551182848
  0
LINE
  8
0
 62
7
  6
CONTINUOUS
 10
153.5049916972
 20
31.2390736489
 11
153.4471794177
 21
31.400392081
  0
LINE
  8
0
 62
7
  6
CONTINUOUS
 10
153.9674919177
 20
31.4326557675
 11
153.9674919177
 21
31.3681283946
  0
LINE
  8
0
 62
7
  6
CONTINUOUS
 10
153.9674919177
 20
30.9809641124
 11
153.9674919177
 21
30.8841730531
  0
LINE
  8
0
 62
7
  6
CONTINUOUS
 10
154.245872955
 20
32.3970785186
 11
154.245872955
 21
36.1675703219
  0
LINE
  8
0
 62
7
  6
CONTINUOUS
 10
154.2565543074
 20
30.8519093441
 11
154.2565543074
 21
30.9164367395
  0
LINE
  8
0
 62
7
  6
CONTINUOUS
 10
154.5737418074
 20
36.1675703219
 11
154.5737418074
 21
32.3970785186
  0
LINE
  8
0
 62
7
  6
CONTINUOUS
 10
151.3659292523
 20
30.7873819712
 11
151.4237418626
 21
30.9164367395
  0
LINE
  8
0
 62
7
  6
CONTINUOUS
 10
155.759679528
 20
30.6905909007
 11
155.7018665869
 21
30.8519093441
  0
LINE
  8
0
 62
7
  6
CONTINUOUS
 10
155.412804528
 20
31.3681283946
 11
155.412804528
 21
31.2713373354
  0
LINE
  8
0
 62
7
  6
CONTINUOUS
 10
155.412804528
 20
31.1422825445
 11
155.412804528
 21
30.9487004259
  0
LINE
  8
0
 62
7
  6
CONTINUOUS
 10
155.7018665869
 20
30.8519093441
 11
155.7018665869
 21
31.3681283946
  0
LINE
  8
0
 62
7
  6
CONTINUOUS
 10
155.9671844304
 20
32.3970785186
 11
155.9671844304
 21
34.2003572071
  0
LINE
  8
0
 62
7
  6
CONTINUOUS
 10
155.9671844304
 20
35.511832617
 11
155.9671844304
 21
36.1675703219
  0
LINE
  8
0
 62
7
  6
CONTINUOUS
 10
156.279992028
 20
32.1101932727
 11
156.279992028
 21
31.9488748406
  0
LINE
  8
0
 62
7
  6
CONTINUOUS
 10
156.279992028
 20
31.626237886
 11
156.279992028
 21
30.5937998301
  0
LINE
  8
0
 62
7
  6
CONTINUOUS
 10
156.5690540869
 20
30.5937998301
 11
156.5690540869
 21
31.626237886
  0
LINE
  8
0
 62
7
  6
CONTINUOUS
 10
156.5690540869
 20
31.9488748406
 11
156.5690540869
 21
32.1101932727
  0
LINE
  8
0
 62
7
  6
CONTINUOUS
 10
151.1346793074
 20
30.9164367395
 11
151.0768668626
 21
30.8196456577
  0
LINE
  8
0
 62
7
  6
CONTINUOUS
 10
153.4471794177
 20
31.400392081
 11
153.3893668074
 21
31.4649194539
  0
LINE
  8
0
 62
7
  6
CONTINUOUS
 10
154.3143669177
 20
30.7873819712
 11
154.2565543074
 21
30.8519093441
  0
LINE
  8
0
 62
7
  6
CONTINUOUS
 10
155.4706168074
 20
30.6583272086
 11
155.5284290869
 21
30.5937998301
  0
LINE
  8
0
 62
7
  6
CONTINUOUS
 10
155.412804528
 20
30.7551182848
 11
155.4706168074
 21
30.6583272086
  0
LINE
  8
0
 62
7
  6
CONTINUOUS
 10
155.8174918074
 20
30.5937998301
 11
155.759679528
 21
30.6905909007
  0
LINE
  8
0
 62
7
  6
CONTINUOUS
 10
155.7018665869
 20
31.3681283946
 11
155.6440543074
 21
31.4649194539
  0
LINE
  8
0
 62
7
  6
CONTINUOUS
 10
157.0315543074
 20
31.626237886
 11
157.0315543074
 21
30.5937998301
  0
LINE
  8
0
 62
7
  6
CONTINUOUS
 10
157.320617028
 20
30.5937998301
 11
157.320617028
 21
31.3358647082
  0
LINE
  8
0
 62
7
  6
CONTINUOUS
 10
157.320617028
 20
31.4649194539
 11
157.320617028
 21
31.626237886
  0
LINE
  8
0
 62
7
  6
CONTINUOUS
 10
157.852430332
 20
34.6101932727
 11
157.852430332
 21
32.3970785186
  0
LINE
  8
0
 62
7
  6
CONTINUOUS
 10
149.7471793074
 20
31.4326557675
 11
149.6315543091
 21
31.3036010218
  0
LINE
  8
0
 62
7
  6
CONTINUOUS
 10
149.9206168074
 20
31.2713373354
 11
149.9784292936
 21
31.3358647082
  0
LINE
  8
0
 62
7
  6
CONTINUOUS
 10
149.7471793074
 20
30.7873819712
 11
149.8628043005
 21
30.7228545871
  0
LINE
  8
0
 62
7
  6
CONTINUOUS
 10
150.1518667936
 20
30.7873819712
 11
149.9784292936
 21
30.8841730531
  0
LINE
  8
0
 62
7
  6
CONTINUOUS
 10
155.3549915869
 20
31.4326557675
 11
155.412804528
 21
31.3681283946
  0
LINE
  8
0
 62
7
  6
CONTINUOUS
 10
158.3034290869
 20
31.3681283946
 11
158.361242028
 21
31.2068099625
  0
LINE
  8
0
 62
7
  6
CONTINUOUS
 10
158.6503040869
 20
31.2068099625
 11
158.5924918074
 21
31.3681283946
  0
LINE
  8
0
 62
7
  6
CONTINUOUS
 10
158.361242028
 20
31.2068099625
 11
158.361242028
 21
30.5937998301
  0
LINE
  8
0
 62
7
  6
CONTINUOUS
 10
158.6503040869
 20
30.5937998301
 11
158.6503040869
 21
31.2068099625
  0
LINE
  8
0
 62
7
  6
CONTINUOUS
 10
159.1128043074
 20
31.4326557675
 11
159.1128043074
 21
31.3681283946
  0
LINE
  8
0
 62
7
  6
CONTINUOUS
 10
159.245872955
 20
32.3970785186
 11
159.245872955
 21
34.5282260596
  0
LINE
  8
0
 62
7
  6
CONTINUOUS
 10
159.5737418074
 20
36.1675703219
 11
159.5737418074
 21
32.3970785186
  0
LINE
  8
0
 62
7
  6
CONTINUOUS
 10
154.2565543074
 20
30.9164367395
 11
154.3143669177
 21
31.0132277988
  0
LINE
  8
0
 62
7
  6
CONTINUOUS
 10
149.8628043005
 20
30.7228545871
 11
150.0362418212
 21
30.6583272086
  0
LINE
  8
0
 62
7
  6
CONTINUOUS
 10
151.3659292523
 20
31.4326557675
 11
151.1924917523
 21
31.5294468267
  0
LINE
  8
0
 62
7
  6
CONTINUOUS
 10
154.0253041972
 20
30.7551182848
 11
154.1987416972
 21
30.6583272086
  0
LINE
  8
0
 62
7
  6
CONTINUOUS
 10
153.0424918074
 20
31.4326557675
 11
153.1581166972
 21
31.3681283946
  0
LINE
  8
0
 62
7
  6
CONTINUOUS
 10
153.3893668074
 20
31.4649194539
 11
153.2737419177
 21
31.5294468267
  0
LINE
  8
0
 62
7
  6
CONTINUOUS
 10
159.1128043074
 20
30.8519093441
 11
159.228429528
 21
30.7228545871
  0
LINE
  8
0
 62
7
  6
CONTINUOUS
 10
159.4596793074
 20
30.7873819712
 11
159.401867028
 21
30.8519093441
  0
LINE
  8
0
 62
7
  6
CONTINUOUS
 10
159.1128043074
 20
31.3681283946
 11
159.228429528
 21
31.2390736489
  0
LINE
  8
0
 62
7
  6
CONTINUOUS
 10
158.5924918074
 20
31.3681283946
 11
158.534679528
 21
31.4649194539
  0
LINE
  8
0
 62
7
  6
CONTINUOUS
 10
160.9628038663
 20
30.7873819712
 11
160.9628038663
 21
30.8519093441
  0
LINE
  8
0
 62
7
  6
CONTINUOUS
 10
160.9671844304
 20
32.3970785186
 11
160.9671844304
 21
36.1675703219
  0
LINE
  8
0
 62
7
  6
CONTINUOUS
 10
154.0253041972
 20
31.4971831403
 11
153.9674919177
 21
31.4326557675
  0
LINE
  8
0
 62
7
  6
CONTINUOUS
 10
150.9034292799
 20
31.4649194539
 11
151.0768668626
 21
31.400392081
  0
LINE
  8
0
 62
7
  6
CONTINUOUS
 10
155.6440543074
 20
31.4649194539
 11
155.5284290869
 21
31.5294468267
  0
LINE
  8
0
 62
7
  6
CONTINUOUS
 10
159.4596793074
 20
31.3036010218
 11
159.401867028
 21
31.3681283946
  0
LINE
  8
0
 62
7
  6
CONTINUOUS
 10
160.615929528
 20
30.9164367395
 11
160.6737418074
 21
30.8519093441
  0
LINE
  8
0
 62
7
  6
CONTINUOUS
 10
160.9628038663
 20
30.8519093441
 11
160.8471793074
 21
30.9809641124
  0
LINE
  8
0
 62
7
  6
CONTINUOUS
 10
160.615929528
 20
31.4326557675
 11
160.6737418074
 21
31.3681283946
  0
LINE
  8
0
 62
7
  6
CONTINUOUS
 10
160.9628038663
 20
31.3681283946
 11
160.8471793074
 21
31.4971831403
  0
LINE
  8
0
 62
7
  6
CONTINUOUS
 10
154.2565543074
 20
31.3681283946
 11
154.3143669177
 21
31.4326557675
  0
LINE
  8
0
 62
7
  6
CONTINUOUS
 10
154.0831168074
 20
31.1100188581
 11
153.9674919177
 21
30.9809641124
  0
LINE
  8
0
 62
7
  6
CONTINUOUS
 10
155.412804528
 20
30.9487004259
 11
155.3549915869
 21
30.8841730531
  0
LINE
  8
0
 62
7
  6
CONTINUOUS
 10
155.3549915869
 20
30.6905909007
 11
155.412804528
 21
30.7551182848
  0
LINE
  8
0
 62
7
  6
CONTINUOUS
 10
154.1987416972
 20
30.6583272086
 11
154.3143669177
 21
30.6260635193
  0
LINE
  8
0
 62
7
  6
CONTINUOUS
 10
151.1924917523
 20
31.5294468267
 11
150.9612418074
 21
31.5939741996
  0
LINE
  8
0
 62
7
  6
CONTINUOUS
 10
154.5456166972
 20
30.7228545871
 11
154.3143669177
 21
30.7873819712
  0
LINE
  8
0
 62
7
  6
CONTINUOUS
 10
153.2737419177
 20
31.5294468267
 11
153.1003044177
 21
31.5939741996
  0
LINE
  8
0
 62
7
  6
CONTINUOUS
 10
155.5284290869
 20
31.5294468267
 11
155.3549915869
 21
31.5939741996
  0
LINE
  8
0
 62
7
  6
CONTINUOUS
 10
158.187804528
 20
31.4326557675
 11
158.3034290869
 21
31.3681283946
  0
LINE
  8
0
 62
7
  6
CONTINUOUS
 10
158.534679528
 20
31.4649194539
 11
158.4190543074
 21
31.5294468267
  0
LINE
  8
0
 62
7
  6
CONTINUOUS
 10
150.0362418212
 20
30.6583272086
 11
150.2096793212
 21
30.6260635193
  0
LINE
  8
0
 62
7
  6
CONTINUOUS
 10
150.498741835
 20
30.7228545871
 11
150.1518667936
 21
30.7873819712
  0
LINE
  8
0
 62
7
  6
CONTINUOUS
 10
152.9268669177
 20
31.4649194539
 11
153.0424918074
 21
31.4326557675
  0
LINE
  8
0
 62
7
  6
CONTINUOUS
 10
155.239367028
 20
31.4649194539
 11
155.3549915869
 21
31.4326557675
  0
LINE
  8
0
 62
7
  6
CONTINUOUS
 10
159.575304528
 20
30.7551182848
 11
159.4596793074
 21
30.7873819712
  0
LINE
  8
0
 62
7
  6
CONTINUOUS
 10
158.0721793074
 20
31.4649194539
 11
158.187804528
 21
31.4326557675
  0
LINE
  8
0
 62
7
  6
CONTINUOUS
 10
159.228429528
 20
30.7228545871
 11
159.401867028
 21
30.6583272086
  0
LINE
  8
0
 62
7
  6
CONTINUOUS
 10
158.4190543074
 20
31.5294468267
 11
158.2456168074
 21
31.5939741996
  0
LINE
  8
0
 62
7
  6
CONTINUOUS
 10
159.6331168074
 20
31.2390736489
 11
159.4596793074
 21
31.3036010218
  0
LINE
  8
0
 62
7
  6
CONTINUOUS
 10
160.442492028
 20
30.9809641124
 11
160.615929528
 21
30.9164367395
  0
LINE
  8
0
 62
7
  6
CONTINUOUS
 10
160.8471793074
 20
31.4971831403
 11
160.6737418074
 21
31.5617105132
  0
LINE
  8
0
 62
7
  6
CONTINUOUS
 10
159.228429528
 20
31.2390736489
 11
159.4596793074
 21
31.1422825445
  0
LINE
  8
0
 62
7
  6
CONTINUOUS
 10
160.8471793074
 20
30.9809641124
 11
160.615929528
 21
31.0777551716
  0
LINE
  8
0
 62
7
  6
CONTINUOUS
 10
159.401867028
 20
31.3681283946
 11
159.4596793074
 21
31.4326557675
  0
LINE
  8
0
 62
7
  6
CONTINUOUS
 10
149.8628043005
 20
31.4971831403
 11
149.7471793074
 21
31.4326557675
  0
LINE
  8
0
 62
7
  6
CONTINUOUS
 10
149.9784292936
 20
31.3358647082
 11
150.1518667936
 21
31.4326557675
  0
LINE
  8
0
 62
7
  6
CONTINUOUS
 10
152.2909293626
 20
31.5294468267
 11
152.1753043074
 21
31.4649194539
  0
LINE
  8
0
 62
7
  6
CONTINUOUS
 10
152.1753043074
 20
31.3358647082
 11
152.2909293626
 21
31.400392081
  0
LINE
  8
0
 62
7
  6
CONTINUOUS
 10
151.1924917523
 20
30.6905909007
 11
151.3659292523
 21
30.7873819712
  0
LINE
  8
0
 62
7
  6
CONTINUOUS
 10
150.2096793212
 20
30.6260635193
 11
150.5565542799
 21
30.5937998301
  0
LINE
  8
0
 62
7
  6
CONTINUOUS
 10
154.3143669177
 20
30.6260635193
 11
154.5456166972
 21
30.5937998301
  0
LINE
  8
0
 62
7
  6
CONTINUOUS
 10
152.6956168074
 20
31.4971831403
 11
152.9268669177
 21
31.4649194539
  0
LINE
  8
0
 62
7
  6
CONTINUOUS
 10
155.0081169177
 20
31.4971831403
 11
155.239367028
 21
31.4649194539
  0
LINE
  8
0
 62
7
  6
CONTINUOUS
 10
159.4596793074
 20
31.1422825445
 11
160.442492028
 21
30.9809641124
  0
LINE
  8
0
 62
7
  6
CONTINUOUS
 10
160.615929528
 20
31.0777551716
 11
159.6331168074
 21
31.2390736489
  0
LINE
  8
0
 62
7
  6
CONTINUOUS
 10
153.1003044177
 20
31.5939741996
 11
152.9268669177
 21
31.626237886
  0
LINE
  8
0
 62
7
  6
CONTINUOUS
 10
159.401867028
 20
30.6583272086
 11
159.575304528
 21
30.6260635193
  0
LINE
  8
0
 62
7
  6
CONTINUOUS
 10
158.2456168074
 20
31.5939741996
 11
158.0721793074
 21
31.626237886
  0
LINE
  8
0
 62
7
  6
CONTINUOUS
 10
160.5003043074
 20
31.4649194539
 11
160.615929528
 21
31.4326557675
  0
LINE
  8
0
 62
7
  6
CONTINUOUS
 10
160.6737418074
 20
30.8519093441
 11
160.615929528
 21
30.7873819712
  0
LINE
  8
0
 62
7
  6
CONTINUOUS
 10
159.228429528
 20
31.5294468267
 11
159.1128043074
 21
31.4326557675
  0
LINE
  8
0
 62
7
  6
CONTINUOUS
 10
154.1409294177
 20
31.5617105132
 11
154.0253041972
 21
31.4971831403
  0
LINE
  8
0
 62
7
  6
CONTINUOUS
 10
154.1987416972
 20
31.1745462761
 11
154.0831168074
 21
31.1100188581
  0
LINE
  8
0
 62
7
  6
CONTINUOUS
 10
154.3143669177
 20
31.0132277988
 11
154.4299918074
 21
31.0777551716
  0
LINE
  8
0
 62
7
  6
CONTINUOUS
 10
151.8862417523
 20
30.5937998301
 11
152.1753043074
 21
30.5937998301
  0
LINE
  8
0
 62
7
  6
CONTINUOUS
 10
153.2159293074
 20
30.5937998301
 11
153.5049916972
 21
30.5937998301
  0
LINE
  8
0
 62
7
  6
CONTINUOUS
 10
154.5456166972
 20
30.5937998301
 11
154.8924916972
 21
30.5937998301
  0
LINE
  8
0
 62
7
  6
CONTINUOUS
 10
155.5284290869
 20
30.5937998301
 11
155.8174918074
 21
30.5937998301
  0
LINE
  8
0
 62
7
  6
CONTINUOUS
 10
156.279992028
 20
30.5937998301
 11
156.5690540869
 21
30.5937998301
  0
LINE
  8
0
 62
7
  6
CONTINUOUS
 10
157.0315543074
 20
30.5937998301
 11
157.320617028
 21
30.5937998301
  0
LINE
  8
0
 62
7
  6
CONTINUOUS
 10
158.361242028
 20
30.5937998301
 11
158.6503040869
 21
30.5937998301
  0
LINE
  8
0
 62
7
  6
CONTINUOUS
 10
159.922179528
 20
30.5937998301
 11
160.269054528
 21
30.5937998301
  0
LINE
  8
0
 62
7
  6
CONTINUOUS
 10
160.269054528
 20
30.7228545871
 11
159.922179528
 21
30.7228545871
  0
LINE
  8
0
 62
7
  6
CONTINUOUS
 10
154.8924916972
 20
30.7228545871
 11
154.5456166972
 21
30.7228545871
  0
LINE
  8
0
 62
7
  6
CONTINUOUS
 10
159.401867028
 20
30.8519093441
 11
159.1128043074
 21
30.8519093441
  0
LINE
  8
0
 62
7
  6
CONTINUOUS
 10
151.4237418626
 20
30.9164367395
 11
151.1346793074
 21
30.9164367395
  0
LINE
  8
0
 62
7
  6
CONTINUOUS
 10
150.498741835
 20
31.4971831403
 11
150.9034292799
 21
31.4649194539
  0
LINE
  8
0
 62
7
  6
CONTINUOUS
 10
150.9612418074
 20
31.5939741996
 11
150.5565542799
 21
31.626237886
  0
LINE
  8
0
 62
7
  6
CONTINUOUS
 10
159.575304528
 20
30.6260635193
 11
159.922179528
 21
30.5937998301
  0
LINE
  8
0
 62
7
  6
CONTINUOUS
 10
159.922179528
 20
30.7228545871
 11
159.575304528
 21
30.7551182848
  0
LINE
  8
0
 62
7
  6
CONTINUOUS
 10
155.3549915869
 20
31.5939741996
 11
155.0081169177
 21
31.626237886
  0
LINE
  8
0
 62
7
  6
CONTINUOUS
 10
160.1534293074
 20
31.4971831403
 11
160.5003043074
 21
31.4649194539
  0
LINE
  8
0
 62
7
  6
CONTINUOUS
 10
160.5003043074
 20
31.5939741996
 11
160.1534293074
 21
31.626237886
  0
LINE
  8
0
 62
7
  6
CONTINUOUS
 10
157.840929528
 20
31.4971831403
 11
158.0721793074
 21
31.4649194539
  0
LINE
  8
0
 62
7
  6
CONTINUOUS
 10
160.6737418074
 20
31.5617105132
 11
160.5003043074
 21
31.5939741996
  0
LINE
  8
0
 62
7
  6
CONTINUOUS
 10
160.8471793074
 20
30.6905909007
 11
160.9628038663
 21
30.7873819712
  0
LINE
  8
0
 62
7
  6
CONTINUOUS
 10
155.3549915869
 20
30.8841730531
 11
155.1815540869
 21
30.7873819712
  0
LINE
  8
0
 62
7
  6
CONTINUOUS
 10
157.4362415869
 20
31.5294468267
 11
157.320617028
 21
31.4649194539
  0
LINE
  8
0
 62
7
  6
CONTINUOUS
 10
157.320617028
 20
31.3358647082
 11
157.4362415869
 21
31.400392081
  0
LINE
  8
0
 62
7
  6
CONTINUOUS
 10
150.0362418212
 20
31.5617105132
 11
149.8628043005
 21
31.4971831403
  0
LINE
  8
0
 62
7
  6
CONTINUOUS
 10
152.4643666972
 20
31.5939741996
 11
152.2909293626
 21
31.5294468267
  0
LINE
  8
0
 62
7
  6
CONTINUOUS
 10
152.2909293626
 20
31.400392081
 11
152.4643666972
 21
31.4649194539
  0
LINE
  8
0
 62
7
  6
CONTINUOUS
 10
151.0768668626
 20
30.8196456577
 11
150.9034292799
 21
30.7551182848
  0
LINE
  8
0
 62
7
  6
CONTINUOUS
 10
160.5003043074
 20
30.7551182848
 11
160.269054528
 21
30.7228545871
  0
LINE
  8
0
 62
7
  6
CONTINUOUS
 10
154.8924916972
 20
30.5937998301
 11
155.1815540869
 21
30.6260635193
  0
LINE
  8
0
 62
7
  6
CONTINUOUS
 10
160.269054528
 20
30.5937998301
 11
160.615929528
 21
30.6260635193
  0
LINE
  8
0
 62
7
  6
CONTINUOUS
 10
150.5565542799
 20
30.5937998301
 11
150.9612418074
 21
30.6260635193
  0
LINE
  8
0
 62
7
  6
CONTINUOUS
 10
150.9034292799
 20
30.7551182848
 11
150.498741835
 21
30.7228545871
  0
LINE
  8
0
 62
7
  6
CONTINUOUS
 10
154.7768668074
 20
31.1422825445
 11
155.412804528
 21
31.1422825445
  0
LINE
  8
0
 62
7
  6
CONTINUOUS
 10
155.412804528
 20
31.2713373354
 11
154.7768668074
 21
31.2713373354
  0
LINE
  8
0
 62
7
  6
CONTINUOUS
 10
151.1346793074
 20
31.3036010218
 11
151.4237418626
 21
31.3036010218
  0
LINE
  8
0
 62
7
  6
CONTINUOUS
 10
153.9674919177
 20
31.3681283946
 11
154.2565543074
 21
31.3681283946
  0
LINE
  8
0
 62
7
  6
CONTINUOUS
 10
160.6737418074
 20
31.3681283946
 11
160.9628038663
 21
31.3681283946
  0
LINE
  8
0
 62
7
  6
CONTINUOUS
 10
154.6612419177
 20
31.4971831403
 11
155.0081169177
 21
31.4971831403
  0
LINE
  8
0
 62
7
  6
CONTINUOUS
 10
159.8065543074
 20
31.4971831403
 11
160.1534293074
 21
31.4971831403
  0
LINE
  8
0
 62
7
  6
CONTINUOUS
 10
160.1534293074
 20
31.626237886
 11
159.8065543074
 21
31.626237886
  0
LINE
  8
0
 62
7
  6
CONTINUOUS
 10
158.0721793074
 20
31.626237886
 11
157.840929528
 21
31.626237886
  0
LINE
  8
0
 62
7
  6
CONTINUOUS
 10
157.320617028
 20
31.626237886
 11
157.0315543074
 21
31.626237886
  0
LINE
  8
0
 62
7
  6
CONTINUOUS
 10
156.5690540869
 20
31.626237886
 11
156.279992028
 21
31.626237886
  0
LINE
  8
0
 62
7
  6
CONTINUOUS
 10
155.0081169177
 20
31.626237886
 11
154.6612419177
 21
31.626237886
  0
LINE
  8
0
 62
7
  6
CONTINUOUS
 10
152.9268669177
 20
31.626237886
 11
152.6956168074
 21
31.626237886
  0
LINE
  8
0
 62
7
  6
CONTINUOUS
 10
156.279992028
 20
31.9488748406
 11
156.5690540869
 21
31.9488748406
  0
LINE
  8
0
 62
7
  6
CONTINUOUS
 10
156.5690540869
 20
32.1101932727
 11
156.279992028
 21
32.1101932727
  0
LINE
  8
0
 62
7
  6
CONTINUOUS
 10
152.1753043074
 20
32.1101932727
 11
151.8862417523
 21
32.1101932727
  0
LINE
  8
0
 62
7
  6
CONTINUOUS
 10
151.2130860697
 20
32.3970785186
 11
151.6256574183
 21
32.3970785186
  0
LINE
  8
0
 62
7
  6
CONTINUOUS
 10
152.852430332
 20
32.3970785186
 11
154.245872955
 21
32.3970785186
  0
LINE
  8
0
 62
7
  6
CONTINUOUS
 10
154.5737418074
 20
32.3970785186
 11
155.9671844304
 21
32.3970785186
  0
LINE
  8
0
 62
7
  6
CONTINUOUS
 10
157.852430332
 20
32.3970785186
 11
159.245872955
 21
32.3970785186
  0
LINE
  8
0
 62
7
  6
CONTINUOUS
 10
159.5737418074
 20
32.3970785186
 11
160.9671844304
 21
32.3970785186
  0
LINE
  8
0
 62
7
  6
CONTINUOUS
 10
157.6096790869
 20
31.5939741996
 11
157.4362415869
 21
31.5294468267
  0
LINE
  8
0
 62
7
  6
CONTINUOUS
 10
155.1815540869
 20
30.6260635193
 11
155.3549915869
 21
30.6905909007
  0
LINE
  8
0
 62
7
  6
CONTINUOUS
 10
160.615929528
 20
30.6260635193
 11
160.8471793074
 21
30.6905909007
  0
LINE
  8
0
 62
7
  6
CONTINUOUS
 10
160.615929528
 20
30.7873819712
 11
160.5003043074
 21
30.7551182848
  0
LINE
  8
0
 62
7
  6
CONTINUOUS
 10
159.575304528
 20
31.4649194539
 11
159.8065543074
 21
31.4971831403
  0
LINE
  8
0
 62
7
  6
CONTINUOUS
 10
157.6096790869
 20
31.4649194539
 11
157.840929528
 21
31.4971831403
  0
LINE
  8
0
 62
7
  6
CONTINUOUS
 10
154.5456166972
 20
31.1100188581
 11
154.7768668074
 21
31.1422825445
  0
LINE
  8
0
 62
7
  6
CONTINUOUS
 10
157.840929528
 20
31.626237886
 11
157.6096790869
 21
31.5939741996
  0
LINE
  8
0
 62
7
  6
CONTINUOUS
 10
154.4299918074
 20
31.4649194539
 11
154.6612419177
 21
31.4971831403
  0
LINE
  8
0
 62
7
  6
CONTINUOUS
 10
159.8065543074
 20
31.626237886
 11
159.4596793074
 21
31.5939741996
  0
LINE
  8
0
 62
7
  6
CONTINUOUS
 10
154.7768668074
 20
31.2713373354
 11
154.4299918074
 21
31.2390736489
  0
LINE
  8
0
 62
7
  6
CONTINUOUS
 10
150.5565542799
 20
31.626237886
 11
150.2096793212
 21
31.5939741996
  0
LINE
  8
0
 62
7
  6
CONTINUOUS
 10
154.6612419177
 20
31.626237886
 11
154.2565543074
 21
31.5939741996
  0
LINE
  8
0
 62
7
  6
CONTINUOUS
 10
152.0327582009
 20
33.5446195022
 11
151.3770204959
 21
33.5446195022
  0
LINE
  8
0
 62
7
  6
CONTINUOUS
 10
157.4362415869
 20
31.400392081
 11
157.6096790869
 21
31.4649194539
  0
LINE
  8
0
 62
7
  6
CONTINUOUS
 10
159.4596793074
 20
31.4326557675
 11
159.575304528
 21
31.4649194539
  0
LINE
  8
0
 62
7
  6
CONTINUOUS
 10
159.4596793074
 20
31.5939741996
 11
159.228429528
 21
31.5294468267
  0
LINE
  8
0
 62
7
  6
CONTINUOUS
 10
155.1815540869
 20
30.7873819712
 11
154.8924916972
 21
30.7228545871
  0
LINE
  8
0
 62
7
  6
CONTINUOUS
 10
152.4643666972
 20
31.4649194539
 11
152.6956168074
 21
31.4971831403
  0
LINE
  8
0
 62
7
  6
CONTINUOUS
 10
152.6956168074
 20
31.626237886
 11
152.4643666972
 21
31.5939741996
  0
LINE
  8
0
 62
7
  6
CONTINUOUS
 10
150.2674918074
 20
31.4649194539
 11
150.498741835
 21
31.4971831403
  0
LINE
  8
0
 62
7
  6
CONTINUOUS
 10
156.7868565615
 20
35.0200293383
 11
157.4425942664
 21
35.0200293383
  0
LINE
  8
0
 62
7
  6
CONTINUOUS
 10
154.4299918074
 20
31.0777551716
 11
154.5456166972
 21
31.1100188581
  0
LINE
  8
0
 62
7
  6
CONTINUOUS
 10
154.4299918074
 20
31.2390736489
 11
154.1987416972
 21
31.1745462761
  0
LINE
  8
0
 62
7
  6
CONTINUOUS
 10
154.3143669177
 20
31.4326557675
 11
154.4299918074
 21
31.4649194539
  0
LINE
  8
0
 62
7
  6
CONTINUOUS
 10
150.9612418074
 20
30.6260635193
 11
151.1924917523
 21
30.6905909007
  0
LINE
  8
0
 62
7
  6
CONTINUOUS
 10
154.2565543074
 20
31.5939741996
 11
154.1409294177
 21
31.5617105132
  0
LINE
  8
0
 62
7
  6
CONTINUOUS
 10
150.2096793212
 20
31.5939741996
 11
150.0362418212
 21
31.5617105132
  0
LINE
  8
0
 62
7
  6
CONTINUOUS
 10
160.9671844304
 20
36.1675703219
 11
159.5737418074
 21
36.1675703219
  0
LINE
  8
0
 62
7
  6
CONTINUOUS
 10
157.6065286927
 20
36.1675703219
 11
157.1939573441
 21
36.1675703219
  0
LINE
  8
0
 62
7
  6
CONTINUOUS
 10
155.9671844304
 20
36.1675703219
 11
154.5737418074
 21
36.1675703219
  0
LINE
  8
0
 62
7
  6
CONTINUOUS
 10
154.245872955
 20
36.1675703219
 11
152.852430332
 21
36.1675703219
  0
LINE
  8
0
 62
7
  6
CONTINUOUS
 10
150.9671844304
 20
36.1675703219
 11
149.5737418074
 21
36.1675703219
  0
LINE
  8
0
 62
7
  6
CONTINUOUS
 10
150.1518667936
 20
31.4326557675
 11
150.2674918074
 21
31.4649194539
  0
CIRCLE
  8
0
 62
7
  6
CONTINUOUS
 10
160.2704631189
 20
38.5036358957
 40
2.0901639344
  0
ARC
  8
0
 62
7
  6
CONTINUOUS
 10
151.2130860697
 20
34.0364227809
 40
1.6393442623
 50
180.0
 51
270.0
  0
ARC
  8
0
 62
7
  6
CONTINUOUS
 10
157.6065286927
 20
34.5282260596
 40
1.6393442623
 50
0.0
 51
90.0
  0
ARC
  8
0
 62
7
  6
CONTINUOUS
 10
151.6256574183
 20
33.8724883547
 40
1.4754098361
 50
270.0
 51
326.2510114041
  0
ARC
  8
0
 62
7
  6
CONTINUOUS
 10
157.1939573441
 20
34.6921604858
 40
1.4754098361
 50
90.0
 51
146.2510114041
  0
ARC
  8
0
 62
7
  6
CONTINUOUS
 10
152.0327582009
 20
34.3642916334
 40
0.8196721311
 50
270.0
 51
360.0
  0
ARC
  8
0
 62
7
  6
CONTINUOUS
 10
156.7868565615
 20
34.2003572071
 40
0.8196721311
 50
90.0
 51
180.0
  0
ARC
  8
0
 62
7
  6
CONTINUOUS
 10
151.3770204959
 20
33.9544555678
 40
0.4098360656
 50
180.0
 51
270.0
  0
ARC
  8
0
 62
7
  6
CONTINUOUS
 10
157.4425942664
 20
34.6101932727
 40
0.4098360656
 50
0.0
 51
90.0
  0
SOLID
  8
0
 62
7
  6
CONTINUOUS
 10
156.279992028
 20
31.9488752009
 11
156.279992028
 21
32.1101936845
 12
156.5690540869
 22
31.9488752009
 13
156.5690540869
 23
32.1101936845
  0
SOLID
  8
0
 62
7
  6
CONTINUOUS
 10
150.5565542799
 20
31.6262382337
 11
150.9612418074
 21
31.5939740028
 12
150.2096793212
 22
31.5939740028
 13
150.2096793212
 23
31.5939740028
  0
SOLID
  8
0
 62
7
  6
CONTINUOUS
 10
150.0362418212
 20
31.5617111435
 11
150.2096793212
 21
31.5939740028
 12
150.9612418074
 22
31.5939740028
 13
150.9612418074
 23
31.5939740028
  0
SOLID
  8
0
 62
7
  6
CONTINUOUS
 10
150.9612418074
 20
31.5939740028
 11
151.1924917523
 21
31.5294468402
 12
150.0362418212
 22
31.5617111435
 13
150.0362418212
 23
31.5617111435
  0
SOLID
  8
0
 62
7
  6
CONTINUOUS
 10
149.8628043005
 20
31.49718259
 11
150.0362418212
 21
31.5617111435
 12
151.1924917523
 22
31.5294468402
 13
151.1924917523
 23
31.5294468402
  0
SOLID
  8
0
 62
7
  6
CONTINUOUS
 10
149.8628043005
 20
31.49718259
 11
151.1924917523
 21
31.5294468402
 12
150.498741835
 22
31.49718259
 13
150.498741835
 23
31.49718259
  0
SOLID
  8
0
 62
7
  6
CONTINUOUS
 10
150.498741835
 20
31.49718259
 11
151.1924917523
 21
31.5294468402
 12
150.9034292799
 22
31.4649197501
 13
150.9034292799
 23
31.4649197501
  0
SOLID
  8
0
 62
7
  6
CONTINUOUS
 10
151.1924917523
 20
31.5294468402
 11
151.3659292523
 21
31.4326554468
 12
150.9034292799
 22
31.4649197501
 13
150.9034292799
 23
31.4649197501
  0
SOLID
  8
0
 62
7
  6
CONTINUOUS
 10
151.0768668626
 20
31.4003926599
 11
150.9034292799
 21
31.4649197501
 12
151.3659292523
 22
31.4326554468
 13
151.3659292523
 23
31.4326554468
  0
SOLID
  8
0
 62
7
  6
CONTINUOUS
 10
151.0768668626
 20
31.4003926599
 11
151.3659292523
 21
31.4326554468
 12
151.1346793074
 22
31.3036013776
 13
151.1346793074
 23
31.3036013776
  0
SOLID
  8
0
 62
7
  6
CONTINUOUS
 10
151.3659292523
 20
31.4326554468
 11
151.4237418626
 21
31.3036013776
 12
151.1346793074
 22
31.3036013776
 13
151.1346793074
 23
31.3036013776
  0
SOLID
  8
0
 62
7
  6
CONTINUOUS
 10
152.4643666972
 20
31.5939739754
 11
152.6956168074
 21
31.6262382787
 12
152.9268669177
 22
31.6262382787
 13
152.9268669177
 23
31.6262382787
  0
SOLID
  8
0
 62
7
  6
CONTINUOUS
 10
152.9268669177
 20
31.6262382787
 11
153.1003044177
 21
31.5939739754
 12
152.4643666972
 22
31.5939739754
 13
152.4643666972
 23
31.5939739754
  0
SOLID
  8
0
 62
7
  6
CONTINUOUS
 10
152.2909293626
 20
31.5294468852
 11
152.4643666972
 21
31.5939739754
 12
153.1003044177
 22
31.5939739754
 13
153.1003044177
 23
31.5939739754
  0
SOLID
  8
0
 62
7
  6
CONTINUOUS
 10
153.1003044177
 20
31.5939739754
 11
153.2737419177
 21
31.5294468852
 12
152.2909293626
 22
31.5294468852
 13
152.2909293626
 23
31.5294468852
  0
SOLID
  8
0
 62
7
  6
CONTINUOUS
 10
153.2737419177
 20
31.5294468852
 11
152.6956168074
 21
31.4971825369
 12
152.2909293626
 22
31.5294468852
 13
152.2909293626
 23
31.5294468852
  0
SOLID
  8
0
 62
7
  6
CONTINUOUS
 10
152.1753043074
 20
31.4649197951
 11
152.2909293626
 21
31.5294468852
 12
152.6956168074
 22
31.4971825369
 13
152.6956168074
 23
31.4971825369
  0
SOLID
  8
0
 62
7
  6
CONTINUOUS
 10
152.6956168074
 20
31.4971825369
 11
152.4643666972
 21
31.4649197951
 12
152.1753043074
 22
31.4649197951
 13
152.1753043074
 23
31.4649197951
  0
SOLID
  8
0
 62
7
  6
CONTINUOUS
 10
152.6956168074
 20
31.4971825369
 11
153.2737419177
 21
31.5294468852
 12
152.9268669177
 22
31.4649197951
 13
152.9268669177
 23
31.4649197951
  0
SOLID
  8
0
 62
7
  6
CONTINUOUS
 10
153.2737419177
 20
31.5294468852
 11
153.3893668074
 21
31.4649197951
 12
152.9268669177
 22
31.4649197951
 13
152.9268669177
 23
31.4649197951
  0
SOLID
  8
0
 62
7
  6
CONTINUOUS
 10
153.0424918074
 20
31.4326554468
 11
152.9268669177
 21
31.4649197951
 12
153.3893668074
 22
31.4649197951
 13
153.3893668074
 23
31.4649197951
  0
SOLID
  8
0
 62
7
  6
CONTINUOUS
 10
153.3893668074
 20
31.4649197951
 11
153.4471794177
 21
31.4003927049
 12
153.0424918074
 22
31.4326554468
 13
153.0424918074
 23
31.4326554468
  0
SOLID
  8
0
 62
7
  6
CONTINUOUS
 10
153.1581166972
 20
31.3681283566
 11
153.0424918074
 21
31.4326554468
 12
153.4471794177
 22
31.4003927049
 13
153.4471794177
 23
31.4003927049
  0
SOLID
  8
0
 62
7
  6
CONTINUOUS
 10
153.1581166972
 20
31.3681283566
 11
153.4471794177
 21
31.4003927049
 12
153.2159293074
 22
31.2390742213
 13
153.2159293074
 23
31.2390742213
  0
SOLID
  8
0
 62
7
  6
CONTINUOUS
 10
153.4471794177
 20
31.4003927049
 11
153.5049916972
 21
31.2390742213
 12
153.2159293074
 22
31.2390742213
 13
153.2159293074
 23
31.2390742213
  0
SOLID
  8
0
 62
7
  6
CONTINUOUS
 10
152.4643666972
 20
31.4649197951
 11
152.2909293626
 21
31.4003927049
 12
152.1753043074
 22
31.4649197951
 13
152.1753043074
 23
31.4649197951
  0
SOLID
  8
0
 62
7
  6
CONTINUOUS
 10
152.2909293626
 20
31.4003927049
 11
152.1753043074
 21
31.3358640533
 12
152.1753043074
 22
31.4649197951
 13
152.1753043074
 23
31.4649197951
  0
SOLID
  8
0
 62
7
  6
CONTINUOUS
 10
152.1753043074
 20
31.3358640533
 11
151.8862417523
 21
30.5938002869
 12
152.1753043074
 22
31.4649197951
 13
152.1753043074
 23
31.4649197951
  0
SOLID
  8
0
 62
7
  6
CONTINUOUS
 10
152.1753043074
 20
31.4649197951
 11
151.8862417523
 21
30.5938002869
 12
152.1753043074
 22
32.1101937295
 13
152.1753043074
 23
32.1101937295
  0
SOLID
  8
0
 62
7
  6
CONTINUOUS
 10
151.8862417523
 20
30.5938002869
 11
151.8862417523
 21
32.1101937295
 12
152.1753043074
 22
32.1101937295
 13
152.1753043074
 23
32.1101937295
  0
SOLID
  8
0
 62
7
  6
CONTINUOUS
 10
152.1753043074
 20
31.3358640533
 11
152.1753043074
 21
30.5938002869
 12
151.8862417523
 22
30.5938002869
 13
151.8862417523
 23
30.5938002869
  0
SOLID
  8
0
 62
7
  6
CONTINUOUS
 10
153.2159293074
 20
30.5938002869
 11
153.2159293074
 21
31.2390742213
 12
153.5049916972
 22
31.2390742213
 13
153.5049916972
 23
31.2390742213
  0
SOLID
  8
0
 62
7
  6
CONTINUOUS
 10
153.5049916972
 20
31.2390742213
 11
153.5049916972
 21
30.5938002869
 12
153.2159293074
 22
30.5938002869
 13
153.2159293074
 23
30.5938002869
  0
SOLID
  8
0
 62
7
  6
CONTINUOUS
 10
154.2565543074
 20
31.5939738288
 11
154.6612419177
 21
31.6262385959
 12
155.0081169177
 22
31.6262385959
 13
155.0081169177
 23
31.6262385959
  0
SOLID
  8
0
 62
7
  6
CONTINUOUS
 10
155.0081169177
 20
31.6262385959
 11
155.3549915869
 21
31.5939738288
 12
154.2565543074
 22
31.5939738288
 13
154.2565543074
 23
31.5939738288
  0
SOLID
  8
0
 62
7
  6
CONTINUOUS
 10
154.1409294177
 20
31.5617111435
 11
154.2565543074
 21
31.5939738288
 12
155.3549915869
 22
31.5939738288
 13
155.3549915869
 23
31.5939738288
  0
SOLID
  8
0
 62
7
  6
CONTINUOUS
 10
155.3549915869
 20
31.5939738288
 11
155.5284290869
 21
31.5294468402
 12
154.1409294177
 22
31.5617111435
 13
154.1409294177
 23
31.5617111435
  0
SOLID
  8
0
 62
7
  6
CONTINUOUS
 10
154.0253041972
 20
31.4971826249
 11
154.1409294177
 21
31.5617111435
 12
155.5284290869
 22
31.5294468402
 13
155.5284290869
 23
31.5294468402
  0
SOLID
  8
0
 62
7
  6
CONTINUOUS
 10
154.0253041972
 20
31.4971826249
 11
155.5284290869
 21
31.5294468402
 12
154.6612419177
 22
31.4971826249
 13
154.6612419177
 23
31.4971826249
  0
SOLID
  8
0
 62
7
  6
CONTINUOUS
 10
154.6612419177
 20
31.4971826249
 11
155.5284290869
 21
31.5294468402
 12
155.0081169177
 22
31.4971826249
 13
155.0081169177
 23
31.4971826249
  0
SOLID
  8
0
 62
7
  6
CONTINUOUS
 10
155.0081169177
 20
31.4971826249
 11
155.5284290869
 21
31.5294468402
 12
155.239367028
 22
31.4649194065
 13
155.239367028
 23
31.4649194065
  0
SOLID
  8
0
 62
7
  6
CONTINUOUS
 10
155.5284290869
 20
31.5294468402
 11
155.6440543074
 21
31.4649194065
 12
155.239367028
 22
31.4649194065
 13
155.239367028
 23
31.4649194065
  0
SOLID
  8
0
 62
7
  6
CONTINUOUS
 10
153.9674919177
 20
31.4326554138
 11
154.0253041972
 21
31.4971826249
 12
154.6612419177
 22
31.4971826249
 13
154.6612419177
 23
31.4971826249
  0
SOLID
  8
0
 62
7
  6
CONTINUOUS
 10
155.3549915869
 20
31.4326554138
 11
155.239367028
 21
31.4649194065
 12
155.6440543074
 22
31.4649194065
 13
155.6440543074
 23
31.4649194065
  0
SOLID
  8
0
 62
7
  6
CONTINUOUS
 10
155.3549915869
 20
31.4326554138
 11
155.6440543074
 21
31.4649194065
 12
155.412804528
 22
31.3681282026
 13
155.412804528
 23
31.3681282026
  0
SOLID
  8
0
 62
7
  6
CONTINUOUS
 10
155.6440543074
 20
31.4649194065
 11
155.7018665869
 21
31.3681282026
 12
155.412804528
 22
31.3681282026
 13
155.412804528
 23
31.3681282026
  0
SOLID
  8
0
 62
7
  6
CONTINUOUS
 10
155.412804528
 20
31.2713369632
 11
155.412804528
 21
31.3681282026
 12
155.7018665869
 22
31.3681282026
 13
155.7018665869
 23
31.3681282026
  0
SOLID
  8
0
 62
7
  6
CONTINUOUS
 10
155.412804528
 20
31.2713369632
 11
155.7018665869
 21
31.3681282026
 12
155.412804528
 22
31.1422827828
 13
155.412804528
 23
31.1422827828
  0
SOLID
  8
0
 62
7
  6
CONTINUOUS
 10
155.412804528
 20
31.1422827828
 11
155.7018665869
 21
31.3681282026
 12
155.412804528
 22
30.9487004259
 13
155.412804528
 23
30.9487004259
  0
SOLID
  8
0
 62
7
  6
CONTINUOUS
 10
155.7018665869
 20
31.3681282026
 11
155.7018665869
 21
30.8519086025
 12
155.412804528
 22
30.9487004259
 13
155.412804528
 23
30.9487004259
  0
SOLID
  8
0
 62
7
  6
CONTINUOUS
 10
157.6096790869
 20
31.5939736268
 11
157.840929528
 21
31.6262383465
 12
158.0721793074
 22
31.6262383465
 13
158.0721793074
 23
31.6262383465
  0
SOLID
  8
0
 62
7
  6
CONTINUOUS
 10
158.0721793074
 20
31.6262383465
 11
158.2456168074
 21
31.5939736268
 12
157.6096790869
 22
31.5939736268
 13
157.6096790869
 23
31.5939736268
  0
SOLID
  8
0
 62
7
  6
CONTINUOUS
 10
157.4362415869
 20
31.5294472848
 11
157.6096790869
 21
31.5939736268
 12
158.2456168074
 22
31.5939736268
 13
158.2456168074
 23
31.5939736268
  0
SOLID
  8
0
 62
7
  6
CONTINUOUS
 10
158.2456168074
 20
31.5939736268
 11
158.4190543074
 21
31.5294472848
 12
157.4362415869
 22
31.5294472848
 13
157.4362415869
 23
31.5294472848
  0
SOLID
  8
0
 62
7
  6
CONTINUOUS
 10
158.4190543074
 20
31.5294472848
 11
157.840929528
 21
31.4971825369
 12
157.4362415869
 22
31.5294472848
 13
157.4362415869
 23
31.5294472848
  0
SOLID
  8
0
 62
7
  6
CONTINUOUS
 10
157.320617028
 20
31.4649199103
 11
157.4362415869
 21
31.5294472848
 12
157.840929528
 22
31.4971825369
 13
157.840929528
 23
31.4971825369
  0
SOLID
  8
0
 62
7
  6
CONTINUOUS
 10
157.840929528
 20
31.4971825369
 11
157.6096790869
 21
31.4649199103
 12
157.320617028
 22
31.4649199103
 13
157.320617028
 23
31.4649199103
  0
SOLID
  8
0
 62
7
  6
CONTINUOUS
 10
157.840929528
 20
31.4971825369
 11
158.4190543074
 21
31.5294472848
 12
158.0721793074
 22
31.4649199103
 13
158.0721793074
 23
31.4649199103
  0
SOLID
  8
0
 62
7
  6
CONTINUOUS
 10
158.4190543074
 20
31.5294472848
 11
158.534679528
 21
31.4649199103
 12
158.0721793074
 22
31.4649199103
 13
158.0721793074
 23
31.4649199103
  0
SOLID
  8
0
 62
7
  6
CONTINUOUS
 10
158.187804528
 20
31.4326554468
 11
158.0721793074
 21
31.4649199103
 12
158.534679528
 22
31.4649199103
 13
158.534679528
 23
31.4649199103
  0
SOLID
  8
0
 62
7
  6
CONTINUOUS
 10
158.187804528
 20
31.4326554468
 11
158.534679528
 21
31.4649199103
 12
158.3034290869
 22
31.3681288486
 13
158.3034290869
 23
31.3681288486
  0
SOLID
  8
0
 62
7
  6
CONTINUOUS
 10
158.534679528
 20
31.4649199103
 11
158.5924918074
 21
31.3681288486
 12
158.3034290869
 22
31.3681288486
 13
158.3034290869
 23
31.3681288486
  0
SOLID
  8
0
 62
7
  6
CONTINUOUS
 10
158.361242028
 20
31.2068093799
 11
158.3034290869
 21
31.3681288486
 12
158.5924918074
 22
31.3681288486
 13
158.5924918074
 23
31.3681288486
  0
SOLID
  8
0
 62
7
  6
CONTINUOUS
 10
158.5924918074
 20
31.3681288486
 11
158.6503040869
 21
31.2068093799
 12
158.361242028
 22
31.2068093799
 13
158.361242028
 23
31.2068093799
  0
SOLID
  8
0
 62
7
  6
CONTINUOUS
 10
157.6096790869
 20
31.4649199103
 11
157.4362415869
 21
31.4003926599
 12
157.320617028
 22
31.4649199103
 13
157.320617028
 23
31.4649199103
  0
SOLID
  8
0
 62
7
  6
CONTINUOUS
 10
157.4362415869
 20
31.4003926599
 11
157.320617028
 21
31.3358640533
 12
157.320617028
 22
31.4649199103
 13
157.320617028
 23
31.4649199103
  0
SOLID
  8
0
 62
7
  6
CONTINUOUS
 10
157.320617028
 20
31.3358640533
 11
157.0315543074
 21
30.5938003547
 12
157.320617028
 22
31.4649199103
 13
157.320617028
 23
31.4649199103
  0
SOLID
  8
0
 62
7
  6
CONTINUOUS
 10
157.320617028
 20
31.4649199103
 11
157.0315543074
 21
30.5938003547
 12
157.320617028
 22
31.6262383465
 13
157.320617028
 23
31.6262383465
  0
SOLID
  8
0
 62
7
  6
CONTINUOUS
 10
157.0315543074
 20
30.5938003547
 11
157.0315543074
 21
31.6262383465
 12
157.320617028
 22
31.6262383465
 13
157.320617028
 23
31.6262383465
  0
SOLID
  8
0
 62
7
  6
CONTINUOUS
 10
157.320617028
 20
31.3358640533
 11
157.320617028
 21
30.5938003547
 12
157.0315543074
 22
30.5938003547
 13
157.0315543074
 23
30.5938003547
  0
SOLID
  8
0
 62
7
  6
CONTINUOUS
 10
158.361242028
 20
30.5938003547
 11
158.361242028
 21
31.2068093799
 12
158.6503040869
 22
31.2068093799
 13
158.6503040869
 23
31.2068093799
  0
SOLID
  8
0
 62
7
  6
CONTINUOUS
 10
158.6503040869
 20
31.2068093799
 11
158.6503040869
 21
30.5938003547
 12
158.361242028
 22
30.5938003547
 13
158.361242028
 23
30.5938003547
  0
SOLID
  8
0
 62
7
  6
CONTINUOUS
 10
159.4596793074
 20
31.5939739474
 11
159.8065543074
 21
31.6262381969
 12
160.1534293074
 22
31.6262381969
 13
160.1534293074
 23
31.6262381969
  0
SOLID
  8
0
 62
7
  6
CONTINUOUS
 10
160.1534293074
 20
31.6262381969
 11
160.5003043074
 21
31.5939739474
 12
159.4596793074
 22
31.5939739474
 13
159.4596793074
 23
31.5939739474
  0
SOLID
  8
0
 62
7
  6
CONTINUOUS
 10
159.228429528
 20
31.5294468402
 11
159.4596793074
 21
31.5939739474
 12
160.5003043074
 22
31.5939739474
 13
160.5003043074
 23
31.5939739474
  0
SOLID
  8
0
 62
7
  6
CONTINUOUS
 10
159.228429528
 20
31.5294468402
 11
160.5003043074
 21
31.5939739304
 12
160.6737418074
 22
31.5617111435
 13
160.6737418074
 23
31.5617111435
  0
SOLID
  8
0
 62
7
  6
CONTINUOUS
 10
159.228429528
 20
31.5294468402
 11
160.6737418074
 21
31.5617111435
 12
159.8065543074
 22
31.4971825592
 13
159.8065543074
 23
31.4971825592
  0
SOLID
  8
0
 62
7
  6
CONTINUOUS
 10
159.8065543074
 20
31.4971825592
 11
160.6737418074
 21
31.5617111435
 12
160.1534293074
 22
31.4971825592
 13
160.1534293074
 23
31.4971825592
  0
SOLID
  8
0
 62
7
  6
CONTINUOUS
 10
160.6737418074
 20
31.5617111435
 11
160.8471793074
 21
31.4971825592
 12
160.1534293074
 22
31.4971825592
 13
160.1534293074
 23
31.4971825592
  0
SOLID
  8
0
 62
7
  6
CONTINUOUS
 10
160.5003043074
 20
31.4649197501
 11
160.1534293074
 21
31.4971825592
 12
160.8471793074
 22
31.4971825592
 13
160.8471793074
 23
31.4971825592
  0
SOLID
  8
0
 62
7
  6
CONTINUOUS
 10
159.1128043074
 20
31.4326555427
 11
159.228429528
 21
31.5294468402
 12
159.8065543074
 22
31.4971825592
 13
159.8065543074
 23
31.4971825592
  0
SOLID
  8
0
 62
7
  6
CONTINUOUS
 10
160.5003043074
 20
31.4649197501
 11
160.8471793074
 21
31.4971825592
 12
160.615929528
 22
31.4326555427
 13
160.615929528
 23
31.4326555427
  0
SOLID
  8
0
 62
7
  6
CONTINUOUS
 10
160.615929528
 20
31.4326555427
 11
160.8471793074
 21
31.4971825592
 12
160.6737418074
 22
31.3681283005
 13
160.6737418074
 23
31.3681283005
  0
SOLID
  8
0
 62
7
  6
CONTINUOUS
 10
160.8471793074
 20
31.4971825592
 11
160.9628038663
 21
31.3681283005
 12
160.6737418074
 22
31.3681283005
 13
160.6737418074
 23
31.3681283005
  0
SOLID
  8
0
 62
7
  6
CONTINUOUS
 10
150.2674918074
 20
31.4649197501
 11
149.7471793074
 21
31.4326554237
 12
150.498741835
 22
31.4971824493
 13
150.498741835
 23
31.4971824493
  0
SOLID
  8
0
 62
7
  6
CONTINUOUS
 10
149.7471793074
 20
31.4326554237
 11
149.8628043005
 21
31.4971824493
 12
150.498741835
 22
31.4971824493
 13
150.498741835
 23
31.4971824493
  0
SOLID
  8
0
 62
7
  6
CONTINUOUS
 10
150.2674918074
 20
31.4649197501
 11
150.1518667936
 21
31.4326554237
 12
149.7471793074
 22
31.4326554237
 13
149.7471793074
 23
31.4326554237
  0
SOLID
  8
0
 62
7
  6
CONTINUOUS
 10
149.6315543091
 20
31.3036012664
 11
149.7471793074
 21
31.4326554237
 12
150.1518667936
 22
31.4326554237
 13
150.1518667936
 23
31.4326554237
  0
SOLID
  8
0
 62
7
  6
CONTINUOUS
 10
153.9674919177
 20
31.4326554237
 11
154.6612419177
 21
31.4971825369
 12
154.4299918074
 22
31.4649197501
 13
154.4299918074
 23
31.4649197501
  0
SOLID
  8
0
 62
7
  6
CONTINUOUS
 10
154.4299918074
 20
31.4649197501
 11
154.3143669177
 21
31.4326554237
 12
153.9674919177
 22
31.4326554237
 13
153.9674919177
 23
31.4326554237
  0
SOLID
  8
0
 62
7
  6
CONTINUOUS
 10
153.9674919177
 20
31.3681283335
 11
153.9674919177
 21
31.4326554237
 12
154.3143669177
 22
31.4326554237
 13
154.3143669177
 23
31.4326554237
  0
SOLID
  8
0
 62
7
  6
CONTINUOUS
 10
154.3143669177
 20
31.4326554237
 11
154.2565543074
 21
31.3681283335
 12
153.9674919177
 22
31.3681283335
 13
153.9674919177
 23
31.3681283335
  0
SOLID
  8
0
 62
7
  6
CONTINUOUS
 10
159.1128043074
 20
31.4326555528
 11
159.8065543074
 21
31.4971825369
 12
159.575304528
 22
31.4649197501
 13
159.575304528
 23
31.4649197501
  0
SOLID
  8
0
 62
7
  6
CONTINUOUS
 10
159.575304528
 20
31.4649197501
 11
159.4596793074
 21
31.4326555528
 12
159.1128043074
 22
31.4326555528
 13
159.1128043074
 23
31.4326555528
  0
SOLID
  8
0
 62
7
  6
CONTINUOUS
 10
159.1128043074
 20
31.3681284626
 11
159.1128043074
 21
31.4326555528
 12
159.4596793074
 22
31.4326555528
 13
159.4596793074
 23
31.4326555528
  0
SOLID
  8
0
 62
7
  6
CONTINUOUS
 10
159.4596793074
 20
31.4326555528
 11
159.401867028
 21
31.3681284626
 12
159.1128043074
 22
31.3681284626
 13
159.1128043074
 23
31.3681284626
  0
SOLID
  8
0
 62
7
  6
CONTINUOUS
 10
159.228429528
 20
31.2390741763
 11
159.1128043074
 21
31.3681284626
 12
159.401867028
 22
31.3681284626
 13
159.401867028
 23
31.3681284626
  0
SOLID
  8
0
 62
7
  6
CONTINUOUS
 10
149.6315543091
 20
31.3036012664
 11
150.1518667936
 21
31.4326554468
 12
149.9784292936
 22
31.3358640533
 13
149.9784292936
 23
31.3358640533
  0
SOLID
  8
0
 62
7
  6
CONTINUOUS
 10
149.9784292936
 20
31.3358640533
 11
149.9206168074
 21
31.2713369632
 12
149.6315543091
 22
31.3036012664
 13
149.6315543091
 23
31.3036012664
  0
SOLID
  8
0
 62
7
  6
CONTINUOUS
 10
149.5737418074
 20
31.1100184796
 11
149.6315543091
 21
31.3036012664
 12
149.9206168074
 22
31.2713369632
 13
149.9206168074
 23
31.2713369632
  0
SOLID
  8
0
 62
7
  6
CONTINUOUS
 10
154.4299918074
 20
31.2390741763
 11
154.7768668074
 21
31.271336924
 12
155.412804528
 22
31.271336924
 13
155.412804528
 23
31.271336924
  0
SOLID
  8
0
 62
7
  6
CONTINUOUS
 10
154.4299918074
 20
31.2390741763
 11
155.412804528
 21
31.271336924
 12
154.1987416972
 22
31.1745462761
 13
154.1987416972
 23
31.1745462761
  0
SOLID
  8
0
 62
7
  6
CONTINUOUS
 10
154.1987416972
 20
31.1745462761
 11
155.412804528
 21
31.271336924
 12
154.7768668074
 22
31.1422827436
 13
154.7768668074
 23
31.1422827436
  0
SOLID
  8
0
 62
7
  6
CONTINUOUS
 10
155.412804528
 20
31.271336924
 11
155.412804528
 21
31.1422827436
 12
154.7768668074
 22
31.1422827436
 13
154.7768668074
 23
31.1422827436
  0
SOLID
  8
0
 62
7
  6
CONTINUOUS
 10
159.228429528
 20
31.2390745501
 11
159.401867028
 21
31.3681283566
 12
159.4596793074
 22
31.3036012664
 13
159.4596793074
 23
31.3036012664
  0
SOLID
  8
0
 62
7
  6
CONTINUOUS
 10
159.4596793074
 20
31.3036012664
 11
159.6331168074
 21
31.2390745501
 12
159.228429528
 22
31.2390745501
 13
159.228429528
 23
31.2390745501
  0
SOLID
  8
0
 62
7
  6
CONTINUOUS
 10
159.4596793074
 20
31.1422827828
 11
159.228429528
 21
31.2390745501
 12
159.6331168074
 22
31.2390745501
 13
159.6331168074
 23
31.2390745501
  0
SOLID
  8
0
 62
7
  6
CONTINUOUS
 10
159.6331168074
 20
31.2390745501
 11
160.615929528
 21
31.0777556927
 12
159.4596793074
 22
31.1422827828
 13
159.4596793074
 23
31.1422827828
  0
SOLID
  8
0
 62
7
  6
CONTINUOUS
 10
160.442492028
 20
30.9809646623
 11
159.4596793074
 21
31.1422827828
 12
160.615929528
 22
31.0777556927
 13
160.615929528
 23
31.0777556927
  0
SOLID
  8
0
 62
7
  6
CONTINUOUS
 10
160.615929528
 20
31.0777556927
 11
160.8471793074
 21
30.9809646623
 12
160.442492028
 22
30.9809646623
 13
160.442492028
 23
30.9809646623
  0
SOLID
  8
0
 62
7
  6
CONTINUOUS
 10
160.615929528
 20
30.9164372091
 11
160.442492028
 21
30.9809646623
 12
160.8471793074
 22
30.9809646623
 13
160.8471793074
 23
30.9809646623
  0
SOLID
  8
0
 62
7
  6
CONTINUOUS
 10
160.615929528
 20
30.9164372091
 11
160.8471793074
 21
30.9809646623
 12
160.6737418074
 22
30.8519089441
 13
160.6737418074
 23
30.8519089441
  0
SOLID
  8
0
 62
7
  6
CONTINUOUS
 10
160.8471793074
 20
30.9809646623
 11
160.9628038663
 21
30.8519089441
 12
160.6737418074
 22
30.8519089441
 13
160.6737418074
 23
30.8519089441
  0
SOLID
  8
0
 62
7
  6
CONTINUOUS
 10
160.615929528
 20
30.7873818593
 11
160.6737418074
 21
30.8519089441
 12
160.9628038663
 22
30.8519089441
 13
160.9628038663
 23
30.8519089441
  0
SOLID
  8
0
 62
7
  6
CONTINUOUS
 10
160.9628038663
 20
30.8519089441
 11
160.9628038663
 21
30.7873818593
 12
160.615929528
 22
30.7873818593
 13
160.615929528
 23
30.7873818593
  0
SOLID
  8
0
 62
7
  6
CONTINUOUS
 10
160.5003043074
 20
30.7551187255
 11
160.615929528
 21
30.7873818593
 12
160.9628038663
 22
30.7873818593
 13
160.9628038663
 23
30.7873818593
  0
SOLID
  8
0
 62
7
  6
CONTINUOUS
 10
160.5003043074
 20
30.7551187255
 11
160.9628038663
 21
30.7873818593
 12
160.269054528
 22
30.7228547745
 13
160.269054528
 23
30.7228547745
  0
SOLID
  8
0
 62
7
  6
CONTINUOUS
 10
160.9628038663
 20
30.7873818593
 11
160.8471793074
 21
30.6905916353
 12
160.269054528
 22
30.7228547745
 13
160.269054528
 23
30.7228547745
  0
SOLID
  8
0
 62
7
  6
CONTINUOUS
 10
160.8471793074
 20
30.6905916353
 11
159.401867028
 21
30.658327332
 12
160.269054528
 22
30.7228547745
 13
160.269054528
 23
30.7228547745
  0
SOLID
  8
0
 62
7
  6
CONTINUOUS
 10
160.269054528
 20
30.7228547745
 11
159.401867028
 21
30.658327332
 12
159.922179528
 22
30.7228547745
 13
159.922179528
 23
30.7228547745
  0
SOLID
  8
0
 62
7
  6
CONTINUOUS
 10
159.401867028
 20
30.658327332
 11
159.228429528
 21
30.7228547745
 12
159.922179528
 22
30.7228547745
 13
159.922179528
 23
30.7228547745
  0
SOLID
  8
0
 62
7
  6
CONTINUOUS
 10
159.401867028
 20
30.658327332
 11
160.8471793074
 21
30.6905916353
 12
159.575304528
 22
30.6260629858
 13
159.575304528
 23
30.6260629858
  0
SOLID
  8
0
 62
7
  6
CONTINUOUS
 10
160.8471793074
 20
30.6905916353
 11
160.615929528
 21
30.6260629858
 12
159.575304528
 22
30.6260629858
 13
159.575304528
 23
30.6260629858
  0
SOLID
  8
0
 62
7
  6
CONTINUOUS
 10
159.922179528
 20
30.5938006049
 11
159.575304528
 21
30.6260629858
 12
160.615929528
 22
30.6260629858
 13
160.615929528
 23
30.6260629858
  0
SOLID
  8
0
 62
7
  6
CONTINUOUS
 10
160.615929528
 20
30.6260629858
 11
160.269054528
 21
30.5938006049
 12
159.922179528
 22
30.5938006049
 13
159.922179528
 23
30.5938006049
  0
SOLID
  8
0
 62
7
  6
CONTINUOUS
 10
149.5737418074
 20
31.1100184796
 11
149.9206168074
 21
31.2713369632
 12
149.8628043005
 22
31.1422827828
 13
149.8628043005
 23
31.1422827828
  0
SOLID
  8
0
 62
7
  6
CONTINUOUS
 10
149.8628043005
 20
31.1422827828
 11
149.8628043005
 21
31.0454914852
 12
149.5737418074
 22
31.1100184796
 13
149.5737418074
 23
31.1100184796
  0
SOLID
  8
0
 62
7
  6
CONTINUOUS
 10
149.6315543091
 20
30.9164372091
 11
149.5737418074
 21
31.1100184796
 12
149.8628043005
 22
31.0454914852
 13
149.8628043005
 23
31.0454914852
  0
SOLID
  8
0
 62
7
  6
CONTINUOUS
 10
149.8628043005
 20
31.0454914852
 11
149.9784292936
 21
30.8841729058
 12
149.6315543091
 22
30.9164372091
 13
149.6315543091
 23
30.9164372091
  0
SOLID
  8
0
 62
7
  6
CONTINUOUS
 10
149.7471793074
 20
30.7873813202
 11
149.6315543091
 21
30.9164372091
 12
149.9784292936
 22
30.8841729058
 13
149.9784292936
 23
30.8841729058
  0
SOLID
  8
0
 62
7
  6
CONTINUOUS
 10
149.9784292936
 20
30.8841729058
 11
150.1518667936
 21
30.7873813202
 12
149.7471793074
 22
30.7873813202
 13
149.7471793074
 23
30.7873813202
  0
SOLID
  8
0
 62
7
  6
CONTINUOUS
 10
149.8628043005
 20
30.7228547004
 11
149.7471793074
 21
30.7873813202
 12
150.1518667936
 22
30.7873813202
 13
150.1518667936
 23
30.7873813202
  0
SOLID
  8
0
 62
7
  6
CONTINUOUS
 10
150.1518667936
 20
30.7873813202
 11
150.498741835
 21
30.7228547004
 12
149.8628043005
 22
30.7228547004
 13
149.8628043005
 23
30.7228547004
  0
SOLID
  8
0
 62
7
  6
CONTINUOUS
 10
150.0362418212
 20
30.658327332
 11
149.8628043005
 21
30.7228547004
 12
150.498741835
 22
30.7228547004
 13
150.498741835
 23
30.7228547004
  0
SOLID
  8
0
 62
7
  6
CONTINUOUS
 10
154.0831168074
 20
31.1100184386
 11
154.1987416972
 21
31.1745462761
 12
154.7768668074
 22
31.1422827828
 13
154.7768668074
 23
31.1422827828
  0
SOLID
  8
0
 62
7
  6
CONTINUOUS
 10
154.7768668074
 20
31.1422827828
 11
154.5456166972
 21
31.1100184386
 12
154.0831168074
 22
31.1100184386
 13
154.0831168074
 23
31.1100184386
  0
SOLID
  8
0
 62
7
  6
CONTINUOUS
 10
153.9674919177
 20
30.9809642992
 11
154.0831168074
 21
31.1100184386
 12
154.5456166972
 22
31.1100184386
 13
154.5456166972
 23
31.1100184386
  0
SOLID
  8
0
 62
7
  6
CONTINUOUS
 10
154.3143669177
 20
31.0132277988
 11
153.9674919177
 21
30.9809642992
 12
154.4299918074
 22
31.0777556927
 13
154.4299918074
 23
31.0777556927
  0
SOLID
  8
0
 62
7
  6
CONTINUOUS
 10
153.9674919177
 20
30.9809642992
 11
154.5456166972
 21
31.1100184796
 12
154.4299918074
 22
31.0777556927
 13
154.4299918074
 23
31.0777556927
  0
SOLID
  8
0
 62
7
  6
CONTINUOUS
 10
154.3143669177
 20
31.0132277988
 11
154.2565543074
 21
30.9164372091
 12
153.9674919177
 22
30.9809642992
 13
153.9674919177
 23
30.9809642992
  0
SOLID
  8
0
 62
7
  6
CONTINUOUS
 10
153.9674919177
 20
30.8841729058
 11
153.9674919177
 21
30.9809642992
 12
154.2565543074
 22
30.9164372091
 13
154.2565543074
 23
30.9164372091
  0
SOLID
  8
0
 62
7
  6
CONTINUOUS
 10
154.2565543074
 20
30.9164372091
 11
154.2565543074
 21
30.8519086025
 12
153.9674919177
 22
30.8841729058
 13
153.9674919177
 23
30.8841729058
  0
SOLID
  8
0
 62
7
  6
CONTINUOUS
 10
154.0253041972
 20
30.7551187255
 11
153.9674919177
 21
30.8841729058
 12
154.2565543074
 22
30.8519086025
 13
154.2565543074
 23
30.8519086025
  0
SOLID
  8
0
 62
7
  6
CONTINUOUS
 10
155.412804528
 20
30.9487004259
 11
155.7018665869
 21
30.8519086025
 12
155.3549915869
 22
30.8841729058
 13
155.3549915869
 23
30.8841729058
  0
SOLID
  8
0
 62
7
  6
CONTINUOUS
 10
155.1815540869
 20
30.7873815123
 11
155.3549915869
 21
30.8841729058
 12
155.7018665869
 22
30.8519086025
 13
155.7018665869
 23
30.8519086025
  0
SOLID
  8
0
 62
7
  6
CONTINUOUS
 10
155.1815540869
 20
30.7873815123
 11
155.7018665869
 21
30.8519086025
 12
155.412804528
 22
30.7551187255
 13
155.412804528
 23
30.7551187255
  0
SOLID
  8
0
 62
7
  6
CONTINUOUS
 10
155.7018665869
 20
30.8519086025
 11
155.759679528
 21
30.6905916353
 12
155.412804528
 22
30.7551187255
 13
155.412804528
 23
30.7551187255
  0
SOLID
  8
0
 62
7
  6
CONTINUOUS
 10
155.4706168074
 20
30.658327332
 11
155.412804528
 21
30.7551187255
 12
155.759679528
 22
30.6905916353
 13
155.759679528
 23
30.6905916353
  0
SOLID
  8
0
 62
7
  6
CONTINUOUS
 10
155.4706168074
 20
30.658327332
 11
155.759679528
 21
30.6905916353
 12
155.5284290869
 22
30.5938002079
 13
155.5284290869
 23
30.5938002079
  0
SOLID
  8
0
 62
7
  6
CONTINUOUS
 10
155.759679528
 20
30.6905916353
 11
155.8174918074
 21
30.5938002079
 12
155.5284290869
 22
30.5938002079
 13
155.5284290869
 23
30.5938002079
  0
SOLID
  8
0
 62
7
  6
CONTINUOUS
 10
151.0768668626
 20
30.8196456577
 11
151.1346793074
 21
30.9164373395
 12
151.4237418626
 22
30.9164373395
 13
151.4237418626
 23
30.9164373395
  0
SOLID
  8
0
 62
7
  6
CONTINUOUS
 10
151.4237418626
 20
30.9164373395
 11
151.3659292523
 21
30.7873815123
 12
151.0768668626
 22
30.8196456577
 13
151.0768668626
 23
30.8196456577
  0
SOLID
  8
0
 62
7
  6
CONTINUOUS
 10
150.9034292799
 20
30.7551187255
 11
151.0768668626
 21
30.8196456577
 12
151.3659292523
 22
30.7873815123
 13
151.3659292523
 23
30.7873815123
  0
SOLID
  8
0
 62
7
  6
CONTINUOUS
 10
150.9034292799
 20
30.7551187255
 11
151.3659292523
 21
30.7873815123
 12
150.498741835
 22
30.7228544222
 13
150.498741835
 23
30.7228544222
  0
SOLID
  8
0
 62
7
  6
CONTINUOUS
 10
151.3659292523
 20
30.7873815123
 11
151.1924917523
 21
30.6905916353
 12
150.498741835
 22
30.7228544222
 13
150.498741835
 23
30.7228544222
  0
SOLID
  8
0
 62
7
  6
CONTINUOUS
 10
150.0362418212
 20
30.658327332
 11
150.498741835
 21
30.7228544222
 12
151.1924917523
 22
30.6905916353
 13
151.1924917523
 23
30.6905916353
  0
SOLID
  8
0
 62
7
  6
CONTINUOUS
 10
150.0362418212
 20
30.658327332
 11
151.1924917523
 21
30.6905916353
 12
150.2096793212
 22
30.6260631011
 13
150.2096793212
 23
30.6260631011
  0
SOLID
  8
0
 62
7
  6
CONTINUOUS
 10
151.1924917523
 20
30.6905916353
 11
150.9612418074
 21
30.6260631011
 12
150.2096793212
 22
30.6260631011
 13
150.2096793212
 23
30.6260631011
  0
SOLID
  8
0
 62
7
  6
CONTINUOUS
 10
150.5565542799
 20
30.5938002419
 11
150.2096793212
 21
30.6260631011
 12
150.9612418074
 22
30.6260631011
 13
150.9612418074
 23
30.6260631011
  0
SOLID
  8
0
 62
7
  6
CONTINUOUS
 10
154.0253041972
 20
30.7551187255
 11
154.2565543074
 21
30.8519086025
 12
154.3143669177
 22
30.7873815123
 13
154.3143669177
 23
30.7873815123
  0
SOLID
  8
0
 62
7
  6
CONTINUOUS
 10
154.3143669177
 20
30.7873815123
 11
154.5456166972
 21
30.7228544222
 12
154.0253041972
 22
30.7551187255
 13
154.0253041972
 23
30.7551187255
  0
SOLID
  8
0
 62
7
  6
CONTINUOUS
 10
154.1987416972
 20
30.658327332
 11
154.0253041972
 21
30.7551187255
 12
154.5456166972
 22
30.7228544222
 13
154.5456166972
 23
30.7228544222
  0
SOLID
  8
0
 62
7
  6
CONTINUOUS
 10
154.8924916972
 20
30.7228544637
 11
155.1815540869
 21
30.7873815123
 12
155.412804528
 22
30.7551187255
 13
155.412804528
 23
30.7551187255
  0
SOLID
  8
0
 62
7
  6
CONTINUOUS
 10
155.412804528
 20
30.7551187255
 11
155.3549915869
 21
30.6905916353
 12
154.8924916972
 22
30.7228544637
 13
154.8924916972
 23
30.7228544637
  0
SOLID
  8
0
 62
7
  6
CONTINUOUS
 10
155.3549915869
 20
30.6905916353
 11
154.1987416972
 21
30.658327332
 12
154.8924916972
 22
30.7228544637
 13
154.8924916972
 23
30.7228544637
  0
SOLID
  8
0
 62
7
  6
CONTINUOUS
 10
154.1987416972
 20
30.658327332
 11
154.5456166972
 21
30.7228544637
 12
154.8924916972
 22
30.7228544637
 13
154.8924916972
 23
30.7228544637
  0
SOLID
  8
0
 62
7
  6
CONTINUOUS
 10
154.1987416972
 20
30.658327332
 11
155.3549915869
 21
30.6905916353
 12
154.3143669177
 22
30.6260630541
 13
154.3143669177
 23
30.6260630541
  0
SOLID
  8
0
 62
7
  6
CONTINUOUS
 10
155.3549915869
 20
30.6905916353
 11
155.1815540869
 21
30.6260630541
 12
154.3143669177
 22
30.6260630541
 13
154.3143669177
 23
30.6260630541
  0
SOLID
  8
0
 62
7
  6
CONTINUOUS
 10
154.5456166972
 20
30.5938002188
 11
154.3143669177
 21
30.6260630541
 12
155.1815540869
 22
30.6260630541
 13
155.1815540869
 23
30.6260630541
  0
SOLID
  8
0
 62
7
  6
CONTINUOUS
 10
155.1815540869
 20
30.6260630541
 11
154.8924916972
 21
30.5938002188
 12
154.5456166972
 22
30.5938002188
 13
154.5456166972
 23
30.5938002188
  0
SOLID
  8
0
 62
7
  6
CONTINUOUS
 10
159.575304528
 20
30.7551187255
 11
159.228429528
 21
30.7228544637
 12
159.4596793074
 22
30.7873815123
 13
159.4596793074
 23
30.7873815123
  0
SOLID
  8
0
 62
7
  6
CONTINUOUS
 10
159.4596793074
 20
30.7873815123
 11
159.228429528
 21
30.7228544637
 12
159.401867028
 22
30.851908644
 13
159.401867028
 23
30.851908644
  0
SOLID
  8
0
 62
7
  6
CONTINUOUS
 10
159.228429528
 20
30.7228544637
 11
159.1128043074
 21
30.851908644
 12
159.401867028
 22
30.851908644
 13
159.401867028
 23
30.851908644
  0
SOLID
  8
0
 62
7
  6
CONTINUOUS
 10
159.575304528
 20
30.7551187255
 11
159.922179528
 21
30.7228544637
 12
159.228429528
 22
30.7228544637
 13
159.228429528
 23
30.7228544637
  0
SOLID
  8
0
 62
7
  6
CONTINUOUS
 10
156.279992028
 20
30.5938002419
 11
156.279992028
 21
31.6262382337
 12
156.5690540869
 22
30.5938002419
 13
156.5690540869
 23
31.6262382337
  0
ENDBLK
  8
0
  6
BYBLOCK
 62
0
  0
BLOCK
  8
0
 62
2
  6
CONTINUOUS
  2
AMMEAAL_LOGO_BL0
 70
64
 10
32.1213064866
 20
19.8534310916
  0
TEXT
  8
0
 62
7
  6
CONTINUOUS
 10
18.3860103289
 20
19.2268451992
  7
TEXTSTYLE_3
 40
2.7338706658
  1
Ammeraal Beltech
 41
1.0
 51
15.0
 72
0
  0
TEXT
  8
0
 62
7
  6
CONTINUOUS
 10
29.1868111546
 20
16.9533085264
  7
TEXTSTYLE_4
 40
1.0935482663
  1
Innovation & Service in Belting
 41
1.0
 72
0
  0
LINE
  8
0
 62
7
  6
CONTINUOUS
 10
12.3614696776
 20
19.9934385078
 11
13.1396216709
 21
23.6543558055
  0
LINE
  8
0
 62
7
  6
CONTINUOUS
 10
23.2347899607
 20
27.3177497171
 11
13.6274394139
 21
24.1961322958
  0
LINE
  8
0
 62
7
  6
CONTINUOUS
 10
12.5867530099
 20
19.3000877048
 11
20.093828271
 21
12.5406867788
  0
LINE
  8
0
 62
7
  6
CONTINUOUS
 10
12.8492874206
 20
20.5352149982
 11
23.6575567857
 21
24.0470345971
  0
LINE
  8
0
 62
7
  6
CONTINUOUS
 10
23.6533516486
 20
13.6972460334
 11
15.2078919798
 21
21.3015720751
  0
LINE
  8
0
 62
7
  6
CONTINUOUS
 10
24.1731743684
 20
26.4728246013
 11
23.1966148312
 21
21.8784731989
  0
LINE
  8
0
 62
7
  6
CONTINUOUS
 10
22.4968128835
 20
18.5861638851
 11
21.810364672
 21
15.3566789607
  0
LINE
  8
0
 62
7
  6
CONTINUOUS
 10
24.8542704669
 20
14.087448211
 11
25.8105020025
 21
18.5861638851
  0
LINE
  8
0
 62
7
  6
CONTINUOUS
 10
26.5103039502
 20
21.8784731989
 11
26.9545457526
 21
23.9684665583
  0
LINE
  8
0
 62
7
  6
CONTINUOUS
 10
20.8069293463
 20
12.3891124661
 11
24.3664527239
 21
13.5456717207
  0
LINE
  8
0
 62
7
  6
CONTINUOUS
 10
23.9478910361
 20
27.1661754044
 11
26.7292624203
 21
24.6618173613
  0
ARC
  8
0
 62
7
  6
CONTINUOUS
 10
13.8527227462
 20
23.5027814928
 40
0.7290321776
 50
108.0
 51
168.0
  0
ARC
  8
0
 62
7
  6
CONTINUOUS
 10
23.4600732931
 20
26.624398914
 40
0.7290321776
 50
348.0
 51
108.0
  0
ARC
  8
0
 62
7
  6
CONTINUOUS
 10
26.2414446773
 20
24.120040871
 40
0.7290321776
 50
348.0
 51
48.0
  0
ARC
  8
0
 62
7
  6
CONTINUOUS
 10
20.581646014
 20
13.0824632691
 40
0.7290321776
 50
228.0
 51
288.0
  0
ARC
  8
0
 62
7
  6
CONTINUOUS
 10
13.0745707529
 20
19.8418641951
 40
0.7290321776
 50
108.0
 51
228.0
  0
ARC
  8
0
 62
7
  6
CONTINUOUS
 10
24.1411693916
 20
14.2390225237
 40
0.7290321776
 50
228.0
 51
348.0
  0
ENDBLK
  8
0
  6
BYBLOCK
 62
0
  0
ENDSEC
  0
SECTION
  2
ENTITIES
  0
TEXT
  8
0
 62
5
  6
CONTINUOUS
 10
96.0
 20
25.636
  7
TEXTSTYLE_2
 40
2.8
  1
Scale :
 41
0.6
 51
0.000019
 72
0
  0
TEXT
  8
0
 62
5
  6
CONTINUOUS
 10
116.0
 20
25.636
  7
TEXTSTYLE_2
 40
2.8
  1
Belt type:
 41
0.6
 51
0.000019
 72
0
  0
INSERT
  8
0
 62
2
  6
CONTINUOUS
  2
AMMEAAL_LOGO_BL0
 10
32.1213064866
 20
19.8534310916
  0
INSERT
  8
0
 62
2
  6
CONTINUOUS
  2
UNI_LOGO2_BL1
 10
173.5956734183
 20
35.5937998301
  0
LINE
  8
0
 62
2
  6
CONTINUOUS
 10
10.0
 20
30.0
 11
200.0
 21
30.0
  0
LINE
  8
0
 62
2
  6
CONTINUOUS
 10
10.0
 20
30.0
 11
10.0
 21
10.0
  0
LINE
  8
0
 62
2
  6
CONTINUOUS
 10
10.0
 20
10.0
 11
200.0
 21
10.0
  0
LINE
  8
0
 62
2
  6
CONTINUOUS
 10
95.0
 20
30.0
 11
95.0
 21
10.0
  0
LINE
  8
0
 62
2
  6
CONTINUOUS
 10
115.0
 20
30.0
 11
115.0
 21
10.0
  0
LINE
  8
0
 62
2
  6
CONTINUOUS
 10
200.0
 20
30.0
 11
200.0
 21
10.0
  0
TEXT
  8
0
 62
5
  6
CONTINUOUS
 10
13.0
 20
23.303
  7
TEXTSTYLE_5
 40
1.52
  1
                                                                     Ammeraal Beltech Modular A/S
 41
1.0
 72
0
  0
TEXT
  8
0
 62
5
  6
CONTINUOUS
 10
13.0
 20
20.595
  7
TEXTSTYLE_5
 40
1.5
  1
                                                                      Hjulmagervej 21,  7100 Vejle,  DK
 41
1.0
 72
0
  0
TEXT
  8
0
 62
5
  6
CONTINUOUS
 10
13.0
 20
17.881
  7
TEXTSTYLE_5
 40
1.495
  1
                                                                      tel: 
 41
1.0
 72
0
  0
TEXT
  8
0
 62
5
  6
CONTINUOUS
 10
57.9869465649
 20
17.881
  7
TEXTSTYLE_5
 40
1.51
  1
+45 75723100     fax: +45 75723348
 41
1.0
 72
0
  0
TEXT
  8
0
 62
5
  6
CONTINUOUS
 10
13.0
 20
15.177
  7
TEXTSTYLE_5
 40
1.5
  1
                                                                      admin@unichains.dk  www.unichains.com
 41
1.0
 72
0
  0
TEXT
  8
0
 62
5
  6
CONTINUOUS
 10
99.75
 20
13.75
  7
TEXTSTYLE_6
 40
5.0
  1
1:1
 41
0.7
 72
1
 11
105.0
 21
13.75
  0
TEXT
  8
0
 62
5
  6
CONTINUOUS
 10
118.0
 20
13.75
  7
TEXTSTYLE_7
 40
7.5
  1
Sprocket Z19 1,5" SQ
 41
0.47375
 72
0
  0
LINE
  8
0
 62
7
  6
CONTINUOUS
 10
210.0
 20
0.0
 11
0.0
 21
0.0
  0
LINE
  8
0
 62
7
  6
CONTINUOUS
 10
10.0
 20
10.0
 11
200.0
 21
10.0
  0
LINE
  8
0
 62
7
  6
CONTINUOUS
 10
10.0
 20
30.0
 11
200.0
 21
30.0
  0
LINE
  8
0
 62
7
  6
CONTINUOUS
 10
0.0
 20
0.0
 11
0.0
 21
297.0
  0
LINE
  8
0
 62
7
  6
CONTINUOUS
 10
10.0
 20
10.0
 11
10.0
 21
287.0
  0
LINE
  8
0
 62
7
  6
CONTINUOUS
 10
200.0
 20
287.0
 11
200.0
 21
10.0
  0
LINE
  8
0
 62
7
  6
CONTINUOUS
 10
210.0
 20
0.0
 11
210.0
 21
297.0
  0
LINE
  8
0
 62
7
  6
CONTINUOUS
 10
10.0
 20
287.0
 11
200.0
 21
287.0
  0
LINE
  8
0
 62
7
  6
CONTINUOUS
 10
0.0
 20
297.0
 11
210.0
 21
297.0
  0
LINE
  8
0
 62
7
  6
CONTINUOUS
 10
28.6229558548
 20
193.9994199883
 11
29.1527290778
 21
187.6060079812
  0
LINE
  8
0
 62
7
  6
CONTINUOUS
 10
31.7696381986
 20
219.1874044494
 11
30.1947693621
 21
212.9683880556
  0
LINE
  8
0
 62
7
  6
CONTINUOUS
 10
42.9243497985
 20
241.9889083497
 11
39.4155003774
 21
236.6182144932
  0
LINE
  8
0
 62
7
  6
CONTINUOUS
 10
60.8783045693
 20
259.9330349396
 11
55.8157128438
 21
255.9926616348
  0
LINE
  8
0
 62
7
  6
CONTINUOUS
 10
83.6859129273
 20
271.0752596714
 11
77.6181892652
 21
268.9922075071
  0
LINE
  8
0
 62
7
  6
CONTINUOUS
 10
121.5127711307
 20
121.7003747073
 11
115.1849441931
 21
120.6444471496
  0
LINE
  8
0
 62
7
  6
CONTINUOUS
 10
96.1509654383
 20
120.6444471496
 11
89.8231385007
 21
121.7003747073
  0
LINE
  8
0
 62
7
  6
CONTINUOUS
 10
71.8204732162
 20
127.8806975059
 11
66.1783645136
 21
130.9340540438
  0
LINE
  8
0
 62
7
  6
CONTINUOUS
 10
46.8129003799
 20
147.3448727277
 11
51.1578808232
 21
142.6249657681
  0
LINE
  8
0
 62
7
  6
CONTINUOUS
 10
33.8252946246
 20
169.1544639145
 11
36.4023007583
 21
163.2794816892
  0
LINE
  8
QUILTS
 62
7
  6
CONTINUOUS
 10
47.835363924
 20
200.3930432953
 11
47.819438778
 21
199.8724533854
  0
LINE
  8
QUILTS
 62
7
  6
CONTINUOUS
 10
47.7557382092
 20
197.7900942297
 11
47.7398130667
 21
197.2695044315
  0
LINE
  8
QUILTS
 62
7
  6
CONTINUOUS
 10
49.2918544736
 20
213.7364763691
 11
49.3133890838
 21
214.1659695309
  0
LINE
  8
QUILTS
 62
7
  6
CONTINUOUS
 10
48.7036143318
 20
214.3546460492
 11
48.6512885234
 21
213.8256402644
  0
LINE
  8
QUILTS
 62
7
  6
CONTINUOUS
 10
48.1147671143
 20
203.5450967647
 11
48.0718388183
 21
203.1306472044
  0
LINE
  8
QUILTS
 62
7
  6
CONTINUOUS
 10
47.9752501984
 20
202.1981361382
 11
47.9215898437
 21
201.680074336
  0
LINE
  8
QUILTS
 62
7
  6
CONTINUOUS
 10
46.8753416384
 20
206.3162042733
 11
46.7974896206
 21
205.8012225091
  0
LINE
  8
QUILTS
 62
7
  6
CONTINUOUS
 10
47.3234285815
 20
205.7217140446
 11
47.4012805993
 21
206.2366958088
  0
LINE
  8
QUILTS
 62
7
  6
CONTINUOUS
 10
48.4531588159
 20
206.0776788351
 11
48.3753067981
 21
205.5626970709
  0
LINE
  8
QUILTS
 62
7
  6
CONTINUOUS
 10
48.9499421553
 20
215.1507413387
 11
48.7036143318
 21
214.3546460492
  0
LINE
  8
QUILTS
 62
7
  6
CONTINUOUS
 10
49.3133890838
 20
214.1659695309
 11
49.5597169073
 21
214.9620648204
  0
LINE
  8
QUILTS
 62
7
  6
CONTINUOUS
 10
51.4726817722
 20
221.8116530122
 11
51.234012568
 21
221.2340181699
  0
LINE
  8
QUILTS
 62
7
  6
CONTINUOUS
 10
50.2395572471
 20
218.8272055928
 11
49.881553896
 21
217.9607544311
  0
LINE
  8
QUILTS
 62
7
  6
CONTINUOUS
 10
53.1757992304
 20
225.1854564174
 11
52.01980884
 21
222.9687728096
  0
LINE
  8
QUILTS
 62
7
  6
CONTINUOUS
 10
52.8747681423
 20
223.2277972641
 11
53.7899275689
 21
224.9826724916
  0
LINE
  8
QUILTS
 62
7
  6
CONTINUOUS
 10
55.1105051442
 20
224.2939973096
 11
54.1953457176
 21
222.5391220821
  0
LINE
  8
QUILTS
 62
7
  6
CONTINUOUS
 10
49.205525862
 20
215.6168538119
 11
48.9499421553
 21
215.1507413387
  0
LINE
  8
QUILTS
 62
7
  6
CONTINUOUS
 10
62.6140929612
 20
235.8875162853
 11
62.2011822095
 21
235.2771854271
  0
LINE
  8
QUILTS
 62
7
  6
CONTINUOUS
 10
58.9574179563
 20
234.0254974773
 11
57.4276928313
 21
232.0481403923
  0
LINE
  8
QUILTS
 62
7
  6
CONTINUOUS
 10
58.3149811805
 20
232.151911593
 11
59.5260140574
 21
233.717319914
  0
LINE
  8
QUILTS
 62
7
  6
CONTINUOUS
 10
60.7040141183
 20
232.8059942338
 11
59.4929812413
 21
231.2405859129
  0
LINE
  8
QUILTS
 62
7
  6
CONTINUOUS
 10
53.5109582475
 20
225.5980758371
 11
53.1757992304
 21
225.1854564174
  0
LINE
  8
QUILTS
 62
7
  6
CONTINUOUS
 10
63.0353762794
 20
236.3491962026
 11
62.6140929612
 21
235.8875162853
  0
LINE
  8
QUILTS
 62
7
  6
CONTINUOUS
 10
62.9284269875
 20
235.6006862183
 11
63.3497103057
 21
236.0623661356
  0
LINE
  8
QUILTS
 62
7
  6
CONTINUOUS
 10
63.9881048517
 20
239.6279137961
 11
63.6180075604
 21
239.2614482291
  0
LINE
  8
QUILTS
 62
7
  6
CONTINUOUS
 10
65.055943116
 20
240.6503220416
 11
64.6768554065
 21
240.293164478
  0
LINE
  8
QUILTS
 62
7
  6
CONTINUOUS
 10
59.3602545079
 20
234.3723534488
 11
58.9574179563
 21
234.0254974773
  0
LINE
  8
QUILTS
 62
7
  6
CONTINUOUS
 10
77.9446230972
 20
249.8124456132
 11
77.5315858647
 21
249.4778090494
  0
LINE
  8
QUILTS
 62
7
  6
CONTINUOUS
 10
73.5109777829
 20
247.2699760897
 11
70.0852674255
 21
244.8981400049
  0
LINE
  8
QUILTS
 62
7
  6
CONTINUOUS
 10
70.3880550902
 20
244.4608151637
 11
73.3855501828
 21
246.5361707201
  0
LINE
  8
QUILTS
 62
7
  6
CONTINUOUS
 10
75.58225092
 20
248.5019293487
 11
75.0463750942
 21
248.1802740995
  0
LINE
  8
QUILTS
 62
7
  6
CONTINUOUS
 10
78.4067367241
 20
250.0526955094
 11
77.9446230972
 21
249.8124456132
  0
LINE
  8
QUILTS
 62
7
  6
CONTINUOUS
 10
78.0975628823
 20
249.2924521785
 11
78.7445185753
 21
249.6288002736
  0
LINE
  8
QUILTS
 62
7
  6
CONTINUOUS
 10
78.9179225146
 20
250.1985565386
 11
78.4067367241
 21
250.0526955094
  0
LINE
  8
QUILTS
 62
7
  6
CONTINUOUS
 10
53.1074805565
 20
214.1914333205
 11
53.116736792
 21
213.8614516429
  0
LINE
  8
QUILTS
 62
7
  6
CONTINUOUS
 10
53.7788370623
 20
214.2017797512
 11
53.7695808178
 21
214.5317614316
  0
LINE
  8
QUILTS
 62
7
  6
CONTINUOUS
 10
55.6824835942
 20
224.7005949878
 11
55.6844888085
 21
224.9345089917
  0
LINE
  8
QUILTS
 62
7
  6
CONTINUOUS
 10
50.7681040928
 20
198.8443136141
 11
50.755363977
 21
198.427841716
  0
LINE
  8
QUILTS
 62
7
  6
CONTINUOUS
 10
51.1806969152
 20
198.4148305358
 11
51.193437031
 21
198.831302434
  0
LINE
  8
QUILTS
 62
7
  6
CONTINUOUS
 10
51.2284723438
 20
199.9765999677
 11
51.2443974897
 21
200.4971898776
  0
LINE
  8
QUILTS
 62
7
  6
CONTINUOUS
 10
53.7265116152
 20
213.6727751025
 11
53.7788370623
 21
214.2017797512
  0
LINE
  8
QUILTS
 62
7
  6
CONTINUOUS
 10
51.3077292108
 20
201.3293412023
 11
51.3613895654
 21
201.8474030046
  0
LINE
  8
QUILTS
 62
7
  6
CONTINUOUS
 10
51.5545668053
 20
203.7124251369
 11
51.6082271292
 21
204.2304866427
  0
LINE
  8
QUILTS
 62
7
  6
CONTINUOUS
 10
51.7413164429
 20
205.053842853
 11
51.8191684608
 21
205.5688246172
  0
LINE
  8
QUILTS
 62
7
  6
CONTINUOUS
 10
55.1606769922
 20
224.6202738352
 11
55.1105051442
 21
224.2939973096
  0
LINE
  8
QUILTS
 62
7
  6
CONTINUOUS
 10
57.141543157
 20
223.5872611656
 11
57.091371309
 21
223.2609846401
  0
LINE
  8
QUILTS
 62
7
  6
CONTINUOUS
 10
61.3388739335
 20
233.1050494698
 11
61.3822076963
 21
233.3349232768
  0
LINE
  8
QUILTS
 62
7
  6
CONTINUOUS
 10
62.2011822095
 20
235.2771854271
 11
62.1393374077
 21
235.0515840175
  0
LINE
  8
QUILTS
 62
7
  6
CONTINUOUS
 10
62.6643122895
 20
234.9955930286
 11
62.7261570914
 21
235.2211944382
  0
LINE
  8
QUILTS
 62
7
  6
CONTINUOUS
 10
63.2762416374
 20
234.719241821
 11
63.1525536408
 21
234.268040763
  0
LINE
  8
QUILTS
 62
7
  6
CONTINUOUS
 10
63.6691592803
 20
234.3607041368
 11
63.7310024751
 21
234.5863037852
  0
LINE
  8
QUILTS
 62
7
  6
CONTINUOUS
 10
57.6091664461
 20
222.8734756365
 11
57.7556715533
 21
223.3844772097
  0
LINE
  8
QUILTS
 62
7
  6
CONTINUOUS
 10
51.0616235671
 20
198.0016115072
 11
51.1806969152
 21
198.4148305358
  0
LINE
  8
QUILTS
 62
7
  6
CONTINUOUS
 10
52.6301257044
 20
214.4481752586
 11
52.4453799249
 21
213.8511040761
  0
LINE
  8
QUILTS
 62
7
  6
CONTINUOUS
 10
53.116736792
 20
213.8614516429
 11
52.8704089685
 21
213.0653563533
  0
LINE
  8
QUILTS
 62
7
  6
CONTINUOUS
 10
53.4801837917
 20
212.876679813
 11
53.7265116152
 21
213.6727751025
  0
LINE
  8
QUILTS
 62
7
  6
CONTINUOUS
 10
54.0344211303
 20
214.6678933604
 11
54.2191669098
 21
215.2649645429
  0
LINE
  8
QUILTS
 62
7
  6
CONTINUOUS
 10
60.8110869142
 20
233.1182585479
 11
60.7040141183
 21
232.8059942338
  0
LINE
  8
QUILTS
 62
7
  6
CONTINUOUS
 10
62.5780868287
 20
231.7512701644
 11
62.4710140327
 21
231.4390058504
  0
LINE
  8
QUILTS
 62
7
  6
CONTINUOUS
 10
65.289188471
 20
234.7156396946
 11
65.0952863477
 21
234.1874916651
  0
LINE
  8
QUILTS
 62
7
  6
CONTINUOUS
 10
48.4951062021
 20
203.0868055665
 11
48.6438513441
 21
203.4902947174
  0
LINE
  8
QUILTS
 62
7
  6
CONTINUOUS
 10
54.502632634
 20
216.0514007977
 11
54.7413018382
 21
216.6290356399
  0
LINE
  8
QUILTS
 62
7
  6
CONTINUOUS
 10
55.7357567039
 20
219.0358471153
 11
56.0937605101
 21
219.9022993787
  0
LINE
  8
QUILTS
 62
7
  6
CONTINUOUS
 10
48.2527801669
 20
203.8449733773
 11
48.1147671143
 21
203.5450967647
  0
LINE
  8
QUILTS
 62
7
  6
CONTINUOUS
 10
62.9121321264
 20
230.9660472272
 11
63.1466829814
 21
231.4430925612
  0
LINE
  8
QUILTS
 62
7
  6
CONTINUOUS
 10
54.7613074224
 20
222.2439756346
 11
55.676466849
 21
223.9988508621
  0
LINE
  8
QUILTS
 62
7
  6
CONTINUOUS
 10
57.091371309
 20
223.2609846401
 11
56.1762118824
 21
221.5061094126
  0
LINE
  8
QUILTS
 62
7
  6
CONTINUOUS
 10
56.4531760556
 20
220.6567920287
 11
57.6091664461
 21
222.8734756365
  0
LINE
  8
QUILTS
 62
7
  6
CONTINUOUS
 10
62.7261570914
 20
235.2211944382
 11
62.9284269875
 21
235.6006862183
  0
LINE
  8
QUILTS
 62
7
  6
CONTINUOUS
 10
63.7310024751
 20
234.5863037852
 11
63.9332723712
 21
234.9657955653
  0
LINE
  8
QUILTS
 62
7
  6
CONTINUOUS
 10
53.2245997237
 20
212.4105662038
 11
53.4801837917
 21
212.876679813
  0
LINE
  8
QUILTS
 62
7
  6
CONTINUOUS
 10
65.4096204015
 20
233.900661573
 11
65.682106052
 21
234.3571020669
  0
LINE
  8
QUILTS
 62
7
  6
CONTINUOUS
 10
77.5315858647
 20
249.4778090494
 11
77.2166887287
 21
248.9543925521
  0
LINE
  8
QUILTS
 62
7
  6
CONTINUOUS
 10
49.5597169073
 20
214.9620648204
 11
49.7845097682
 21
215.3286658094
  0
LINE
  8
QUILTS
 62
7
  6
CONTINUOUS
 10
52.8704089685
 20
213.0653563533
 11
52.6456161077
 21
212.6987553643
  0
LINE
  8
QUILTS
 62
7
  6
CONTINUOUS
 10
63.6189382349
 20
235.2526257327
 11
63.2762416374
 21
234.719241821
  0
LINE
  8
QUILTS
 62
7
  6
CONTINUOUS
 10
48.6438513441
 20
203.4902947174
 11
48.7711323073
 21
203.6865587917
  0
LINE
  8
QUILTS
 62
7
  6
CONTINUOUS
 10
59.9978383092
 20
230.8500178424
 11
61.2088711862
 21
232.4154261633
  0
LINE
  8
QUILTS
 62
7
  6
CONTINUOUS
 10
62.4710140327
 20
231.4390058504
 11
61.2599811558
 21
229.8735975295
  0
LINE
  8
QUILTS
 62
7
  6
CONTINUOUS
 10
61.3824070014
 20
228.9886901421
 11
62.9121321264
 21
230.9660472272
  0
LINE
  8
QUILTS
 62
7
  6
CONTINUOUS
 10
62.4001975916
 20
234.390499839
 11
62.7512667555
 21
234.7752328099
  0
LINE
  8
QUILTS
 62
7
  6
CONTINUOUS
 10
64.39128911
 20
236.0990368598
 11
63.6189382349
 21
235.2526257327
  0
LINE
  8
QUILTS
 62
7
  6
CONTINUOUS
 10
63.9332723712
 20
234.9657955653
 11
64.7056232463
 21
235.8122066924
  0
LINE
  8
QUILTS
 62
7
  6
CONTINUOUS
 10
65.0952863477
 20
234.1874916651
 11
64.6740046366
 21
233.7258135089
  0
LINE
  8
QUILTS
 62
7
  6
CONTINUOUS
 10
64.9883386904
 20
233.4389834168
 11
65.4096204015
 21
233.900661573
  0
LINE
  8
QUILTS
 62
7
  6
CONTINUOUS
 10
66.1819712766
 20
234.7470727
 11
66.5330372264
 21
235.1318021486
  0
LINE
  8
QUILTS
 62
7
  6
CONTINUOUS
 10
77.8693677159
 20
249.0539138137
 11
78.0975628823
 21
249.2924521785
  0
LINE
  8
QUILTS
 62
7
  6
CONTINUOUS
 10
79.9541571517
 20
247.9795610333
 11
79.7259619853
 21
247.7410226685
  0
LINE
  8
QUILTS
 62
7
  6
CONTINUOUS
 10
80.7883840364
 20
246.3749500954
 11
80.5601888701
 21
246.1364117305
  0
LINE
  8
QUILTS
 62
7
  6
CONTINUOUS
 10
49.5319482006
 20
215.9520098533
 11
49.205525862
 21
215.6168538119
  0
LINE
  8
QUILTS
 62
7
  6
CONTINUOUS
 10
67.1360662671
 20
235.7085250754
 11
67.5061635584
 21
236.0749906424
  0
LINE
  8
QUILTS
 62
7
  6
CONTINUOUS
 10
53.7899275689
 20
224.9826724916
 11
54.0287533185
 21
225.210566868
  0
LINE
  8
QUILTS
 62
7
  6
CONTINUOUS
 10
55.676466849
 20
223.9988508621
 11
55.9152925986
 21
224.2267452385
  0
LINE
  8
QUILTS
 62
7
  6
CONTINUOUS
 10
68.1055575539
 20
236.6539335724
 11
68.4846452635
 21
237.011091136
  0
LINE
  8
QUILTS
 62
7
  6
CONTINUOUS
 10
79.8789018391
 20
247.2210291016
 11
80.2919432337
 21
247.5556679971
  0
LINE
  8
QUILTS
 62
7
  6
CONTINUOUS
 10
80.7131286895
 20
245.6164182298
 11
81.1261701485
 21
245.9510570013
  0
LINE
  8
QUILTS
 62
7
  6
CONTINUOUS
 10
63.5352414971
 20
236.739166842
 11
63.0353762794
 21
236.3491962026
  0
LINE
  8
QUILTS
 62
7
  6
CONTINUOUS
 10
55.8731427101
 20
224.8361268426
 11
55.6824835942
 21
224.7005949878
  0
LINE
  8
QUILTS
 62
7
  6
CONTINUOUS
 10
75.9938369303
 20
243.6839119634
 11
73.0819833226
 21
241.667851427
  0
LINE
  8
QUILTS
 62
7
  6
CONTINUOUS
 10
72.9314718131
 20
240.7872860079
 11
76.3571821704
 21
243.1591220927
  0
LINE
  8
QUILTS
 62
7
  6
CONTINUOUS
 10
59.5260140574
 20
233.717319914
 11
59.8013725427
 21
233.8993948712
  0
LINE
  8
QUILTS
 62
7
  6
CONTINUOUS
 10
61.2088711862
 20
232.4154261633
 11
61.4842296715
 21
232.5975011206
  0
LINE
  8
QUILTS
 62
7
  6
CONTINUOUS
 10
63.3497103057
 20
236.0623661356
 11
63.7091472149
 21
236.2984428822
  0
LINE
  8
QUILTS
 62
7
  6
CONTINUOUS
 10
64.6289001672
 20
233.2029049153
 11
64.9883386904
 21
233.4389834168
  0
LINE
  8
QUILTS
 62
7
  6
CONTINUOUS
 10
77.6196170876
 20
243.8932674931
 11
78.1554929134
 21
244.2149227423
  0
LINE
  8
QUILTS
 62
7
  6
CONTINUOUS
 10
79.7259619853
 20
247.7410226685
 11
79.0790062923
 21
247.4046745733
  0
LINE
  8
QUILTS
 62
7
  6
CONTINUOUS
 10
79.4167882122
 20
246.9807792054
 11
79.8789018391
 21
247.2210291016
  0
LINE
  8
QUILTS
 62
7
  6
CONTINUOUS
 10
78.9718444679
 20
246.0300488086
 11
78.509730841
 21
245.7897989124
  0
LINE
  8
QUILTS
 62
7
  6
CONTINUOUS
 10
80.5601888701
 20
246.1364117305
 11
80.0056542101
 21
245.8481127348
  0
LINE
  8
QUILTS
 62
7
  6
CONTINUOUS
 10
80.3434403265
 20
245.4242196325
 11
80.7131286895
 21
245.6164182298
  0
LINE
  8
QUILTS
 62
7
  6
CONTINUOUS
 10
61.5504933856
 20
233.2047339199
 11
61.3388739335
 21
233.1050494698
  0
LINE
  8
QUILTS
 62
7
  6
CONTINUOUS
 10
63.7091472149
 20
236.2984428822
 11
63.9281590299
 21
236.3806292583
  0
LINE
  8
QUILTS
 62
7
  6
CONTINUOUS
 10
78.9056065838
 20
246.8349205079
 11
79.4167882122
 21
246.9807792054
  0
LINE
  8
QUILTS
 62
7
  6
CONTINUOUS
 10
79.8322545317
 20
245.2783586115
 11
80.3434403265
 21
245.4242196325
  0
LINE
  8
QUILTS
 62
7
  6
CONTINUOUS
 10
50.6745109416
 20
199.2640381592
 11
50.7681040928
 21
198.8443136141
  0
LINE
  8
QUILTS
 62
7
  6
CONTINUOUS
 10
51.193437031
 20
198.831302434
 11
51.0998439077
 21
199.2510269782
  0
LINE
  8
QUILTS
 62
7
  6
CONTINUOUS
 10
48.6512885234
 20
213.8256402644
 11
48.7313830385
 21
213.3647010163
  0
LINE
  8
QUILTS
 62
7
  6
CONTINUOUS
 10
48.0718388183
 20
203.1306472044
 11
48.1347273683
 21
202.7052372345
  0
LINE
  8
QUILTS
 62
7
  6
CONTINUOUS
 10
48.5579947521
 20
202.6613955967
 11
48.4951062021
 21
203.0868055665
  0
LINE
  8
QUILTS
 62
7
  6
CONTINUOUS
 10
63.1466829814
 20
231.4430925612
 11
63.1492076402
 21
231.9679348705
  0
LINE
  8
QUILTS
 62
7
  6
CONTINUOUS
 10
65.682106052
 20
234.3571020669
 11
65.7355798738
 21
234.7313561973
  0
LINE
  8
QUILTS
 62
7
  6
CONTINUOUS
 10
77.6902447132
 20
248.7209865817
 11
77.8693677159
 21
249.0539138137
  0
LINE
  8
QUILTS
 62
7
  6
CONTINUOUS
 10
80.1332801544
 20
248.3124882652
 11
79.9541571517
 21
247.9795610333
  0
LINE
  8
QUILTS
 62
7
  6
CONTINUOUS
 10
80.2919432337
 20
247.5556679971
 11
80.6501892391
 21
248.2215224609
  0
LINE
  8
QUILTS
 62
7
  6
CONTINUOUS
 10
80.9675070392
 20
246.7078773273
 11
80.7883840364
 21
246.3749500954
  0
LINE
  8
QUILTS
 62
7
  6
CONTINUOUS
 10
50.755363977
 20
198.427841716
 11
50.5299573757
 21
198.0178754829
  0
LINE
  8
QUILTS
 62
7
  6
CONTINUOUS
 10
81.1261701485
 20
245.9510570013
 11
81.4410630408
 21
246.4744713239
  0
LINE
  8
QUILTS
 62
7
  6
CONTINUOUS
 10
50.8394020018
 20
197.6957631739
 11
51.0616235671
 21
198.0016115072
  0
LINE
  8
QUILTS
 62
7
  6
CONTINUOUS
 10
48.4966100655
 20
204.1338895804
 11
48.2527801669
 21
203.8449733773
  0
LINE
  8
QUILTS
 62
7
  6
CONTINUOUS
 10
52.8981777108
 20
212.0754113094
 11
53.2245997237
 21
212.4105662038
  0
LINE
  8
QUILTS
 62
7
  6
CONTINUOUS
 10
49.7845097682
 20
215.3286658094
 11
50.0801409086
 21
215.5643092279
  0
LINE
  8
QUILTS
 62
7
  6
CONTINUOUS
 10
52.6456161077
 20
212.6987553643
 11
52.3499848961
 21
212.4631119678
  0
LINE
  8
QUILTS
 62
7
  6
CONTINUOUS
 10
53.98660343
 20
225.819948472
 11
53.5109582475
 21
225.5980758371
  0
LINE
  8
QUILTS
 62
7
  6
CONTINUOUS
 10
64.6740046366
 20
233.7258135089
 11
64.2359825861
 21
233.561442543
  0
LINE
  8
QUILTS
 62
7
  6
CONTINUOUS
 10
64.4098899524
 20
233.1207203067
 11
64.6289001672
 21
233.2029049153
  0
LINE
  8
QUILTS
 62
7
  6
CONTINUOUS
 10
50.4713995768
 20
199.5828976351
 11
50.6745109416
 21
199.2640381592
  0
LINE
  8
QUILTS
 62
7
  6
CONTINUOUS
 10
48.1347273683
 20
202.7052372345
 11
48.3141648842
 21
202.37247969
  0
LINE
  8
QUILTS
 62
7
  6
CONTINUOUS
 10
48.7374322681
 20
202.3286380521
 11
48.5579947521
 21
202.6613955967
  0
LINE
  8
QUILTS
 62
7
  6
CONTINUOUS
 10
51.0998439077
 20
199.2510269782
 11
50.9998807334
 21
199.4625157968
  0
LINE
  8
QUILTS
 62
7
  6
CONTINUOUS
 10
49.4027398345
 20
213.3750486051
 11
49.2918544736
 21
213.7364763691
  0
LINE
  8
QUILTS
 62
7
  6
CONTINUOUS
 10
57.7556715533
 20
223.3844772097
 11
57.6653550063
 21
223.901496305
  0
LINE
  8
QUILTS
 62
7
  6
CONTINUOUS
 10
62.1393374077
 20
235.0515840175
 11
62.1560777195
 21
234.7542768524
  0
LINE
  8
QUILTS
 62
7
  6
CONTINUOUS
 10
63.1525536408
 20
234.268040763
 11
63.1692940627
 21
233.9707334974
  0
LINE
  8
QUILTS
 62
7
  6
CONTINUOUS
 10
63.6858979851
 20
234.0633952105
 11
63.6691592803
 21
234.3607041368
  0
LINE
  8
QUILTS
 62
7
  6
CONTINUOUS
 10
65.2640787518
 20
235.1616013731
 11
65.289188471
 21
234.7156396946
  0
LINE
  8
QUILTS
 62
7
  6
CONTINUOUS
 10
77.2166887287
 20
248.9543925521
 11
77.1357100533
 21
248.4326875861
  0
LINE
  8
QUILTS
 62
7
  6
CONTINUOUS
 10
75.0463750942
 20
248.1802740995
 11
74.8937480302
 21
247.2201285808
  0
LINE
  8
QUILTS
 62
7
  6
CONTINUOUS
 10
75.3317467686
 20
246.4904251601
 11
75.4843736792
 21
247.4505709344
  0
LINE
  8
QUILTS
 62
7
  6
CONTINUOUS
 10
73.0819833226
 20
241.667851427
 11
73.9348805135
 21
246.6577213121
  0
LINE
  8
QUILTS
 62
7
  6
CONTINUOUS
 10
73.3855501828
 20
246.5361707201
 11
72.4470115071
 21
241.487005815
  0
LINE
  8
QUILTS
 62
7
  6
CONTINUOUS
 10
50.5108472037
 20
197.3931676915
 11
50.8394020018
 21
197.6957631739
  0
LINE
  8
QUILTS
 62
7
  6
CONTINUOUS
 10
48.7297078747
 20
204.3191932452
 11
48.4966100655
 21
204.1338895804
  0
LINE
  8
QUILTS
 62
7
  6
CONTINUOUS
 10
48.7711323073
 20
203.6865587917
 11
49.0042301166
 21
203.8718624565
  0
LINE
  8
QUILTS
 62
7
  6
CONTINUOUS
 10
50.0616284375
 20
216.2242725832
 11
49.5319482006
 21
215.9520098533
  0
LINE
  8
QUILTS
 62
7
  6
CONTINUOUS
 10
54.2191669098
 20
215.2649645429
 11
53.5570662782
 21
214.9246352985
  0
LINE
  8
QUILTS
 62
7
  6
CONTINUOUS
 10
53.0273859702
 20
214.6523725907
 11
52.6301257044
 21
214.4481752586
  0
LINE
  8
QUILTS
 62
7
  6
CONTINUOUS
 10
53.7695808178
 20
214.5317614316
 11
54.0344211303
 21
214.6678933604
  0
LINE
  8
QUILTS
 62
7
  6
CONTINUOUS
 10
52.4453799249
 20
213.8511040761
 11
53.1074805565
 21
214.1914333205
  0
LINE
  8
QUILTS
 62
7
  6
CONTINUOUS
 10
52.3684974384
 20
211.8031485906
 11
52.8981777108
 21
212.0754113094
  0
LINE
  8
QUILTS
 62
7
  6
CONTINUOUS
 10
130.8745362064
 20
249.072228206
 11
130.5963363934
 21
248.9660412994
  0
LINE
  8
QUILTS
 62
7
  6
CONTINUOUS
 10
138.3919526377
 20
246.3634244458
 11
137.8923622596
 21
246.1927110264
  0
LINE
  8
QUILTS
 62
7
  6
CONTINUOUS
 10
54.0287533185
 20
225.210566868
 11
54.3137393851
 21
225.2969076481
  0
LINE
  8
QUILTS
 62
7
  6
CONTINUOUS
 10
55.9152925986
 20
224.2267452385
 11
56.2002786652
 21
224.3130860187
  0
LINE
  8
QUILTS
 62
7
  6
CONTINUOUS
 10
50.9998807334
 20
199.4625157968
 11
50.690436083
 21
199.7846279202
  0
LINE
  8
QUILTS
 62
7
  6
CONTINUOUS
 10
48.3141648842
 20
202.37247969
 11
48.5043344282
 21
202.1433340909
  0
LINE
  8
QUILTS
 62
7
  6
CONTINUOUS
 10
48.927601812
 20
202.099492453
 11
48.7374322681
 21
202.3286380521
  0
LINE
  8
QUILTS
 62
7
  6
CONTINUOUS
 10
48.7313830385
 20
213.3647010163
 11
49.0147358043
 21
212.8408695954
  0
LINE
  8
QUILTS
 62
7
  6
CONTINUOUS
 10
53.5570662782
 20
214.9246352985
 11
53.4153900715
 21
215.1865515784
  0
LINE
  8
QUILTS
 62
7
  6
CONTINUOUS
 10
55.0683552557
 20
224.9033789137
 11
55.1606769922
 21
224.6202738352
  0
LINE
  8
QUILTS
 62
7
  6
CONTINUOUS
 10
57.0492213544
 20
223.8703662786
 11
57.141543157
 21
223.5872611656
  0
LINE
  8
QUILTS
 62
7
  6
CONTINUOUS
 10
60.7702778324
 20
233.4132270332
 11
60.8110869142
 21
233.1182585479
  0
LINE
  8
QUILTS
 62
7
  6
CONTINUOUS
 10
62.537277688
 20
232.0462386953
 11
62.5780868287
 21
231.7512701644
  0
LINE
  8
QUILTS
 62
7
  6
CONTINUOUS
 10
77.6526149072
 20
248.3417195822
 11
77.6902447132
 21
248.7209865817
  0
LINE
  8
QUILTS
 62
7
  6
CONTINUOUS
 10
80.1709099604
 20
248.6917552648
 11
80.1332801544
 21
248.3124882652
  0
LINE
  8
QUILTS
 62
7
  6
CONTINUOUS
 10
81.0051368108
 20
247.0871443929
 11
80.9675070392
 21
246.7078773273
  0
LINE
  8
QUILTS
 62
7
  6
CONTINUOUS
 10
81.4410630408
 20
246.4744713239
 11
81.5220416991
 21
246.996176323
  0
LINE
  8
QUILTS
 62
7
  6
CONTINUOUS
 10
50.5299573757
 20
198.0178754829
 11
50.2045875676
 21
197.8193979204
  0
LINE
  8
QUILTS
 62
7
  6
CONTINUOUS
 10
130.9360465204
 20
248.4583828526
 11
131.3978247887
 21
248.7143016841
  0
LINE
  8
QUILTS
 62
7
  6
CONTINUOUS
 10
138.0520037332
 20
245.6927266474
 11
138.4053206418
 21
245.835641428
  0
LINE
  8
QUILTS
 62
7
  6
CONTINUOUS
 10
138.4988964151
 20
242.1411599364
 11
138.145579464
 21
241.9982450947
  0
LINE
  8
QUILTS
 62
7
  6
CONTINUOUS
 10
138.1589474468
 20
241.4704620463
 11
138.6585378462
 21
241.6411754962
  0
LINE
  8
QUILTS
 62
7
  6
CONTINUOUS
 10
50.0801409086
 20
215.5643092279
 11
50.4466106133
 21
215.6689949878
  0
LINE
  8
QUILTS
 62
7
  6
CONTINUOUS
 10
52.3499848961
 20
212.4631119678
 11
51.9835154761
 21
212.3584261199
  0
LINE
  8
QUILTS
 62
7
  6
CONTINUOUS
 10
50.1587698823
 20
199.8008918963
 11
50.4713995768
 21
199.5828976351
  0
LINE
  8
QUILTS
 62
7
  6
CONTINUOUS
 10
49.6460454512
 20
213.0816861507
 11
49.4027398345
 21
213.3750486051
  0
LINE
  8
QUILTS
 62
7
  6
CONTINUOUS
 10
52.7840806382
 20
214.9457349569
 11
53.0273859702
 21
214.6523725907
  0
LINE
  8
QUILTS
 62
7
  6
CONTINUOUS
 10
55.6844888085
 20
224.9345089917
 11
55.4516798041
 21
225.408358741
  0
LINE
  8
QUILTS
 62
7
  6
CONTINUOUS
 10
57.6653550063
 20
223.901496305
 11
57.4325459689
 21
224.3753460715
  0
LINE
  8
QUILTS
 62
7
  6
CONTINUOUS
 10
61.3822076963
 20
233.3349232768
 11
61.2368519583
 21
233.842471626
  0
LINE
  8
QUILTS
 62
7
  6
CONTINUOUS
 10
63.1492076402
 20
231.9679348705
 11
63.0038518728
 21
232.4754832426
  0
LINE
  8
QUILTS
 62
7
  6
CONTINUOUS
 10
77.1357100533
 20
248.4326875861
 11
77.196224712
 21
247.864642588
  0
LINE
  8
0
 62
7
  6
CONTINUOUS
 10
77.4535323544
 20
266.1011399689
 11
77.4631395468
 21
265.8876606883
  0
LINE
  8
0
 62
7
  6
CONTINUOUS
 10
66.5364210829
 20
134.0217792354
 11
66.4918073855
 21
133.8127928258
  0
LINE
  8
0
 62
7
  6
CONTINUOUS
 10
101.3658295806
 20
271.5271920929
 11
101.3055996197
 21
271.3221602583
  0
LINE
  8
0
 62
7
  6
CONTINUOUS
 10
48.1541391875
 20
150.1490356735
 11
48.0440850069
 21
149.9658587679
  0
LINE
  8
0
 62
7
  6
CONTINUOUS
 10
125.7443288304
 20
268.8949355294
 11
125.620788567
 21
268.7205695215
  0
LINE
  8
0
 62
7
  6
CONTINUOUS
 10
36.0043716341
 20
171.3711900482
 11
35.8408030486
 21
171.2336727067
  0
LINE
  8
0
 62
7
  6
CONTINUOUS
 10
147.9472414387
 20
258.4896161206
 11
147.7737783773
 21
258.3648112019
  0
LINE
  8
QUILTS
 62
7
  6
CONTINUOUS
 10
137.8923622596
 20
246.1927110264
 11
137.4174895873
 21
245.875171892
  0
LINE
  8
QUILTS
 62
7
  6
CONTINUOUS
 10
51.2443974897
 20
200.4971898776
 11
51.028545986
 21
200.399577307
  0
LINE
  8
QUILTS
 62
7
  6
CONTINUOUS
 10
50.2949957246
 20
197.2955553158
 11
50.5108472037
 21
197.3931676915
  0
LINE
  8
0
 62
7
  6
CONTINUOUS
 10
31.4037342603
 20
195.3884926374
 11
31.2043764641
 21
195.3115369977
  0
LINE
  8
0
 62
7
  6
CONTINUOUS
 10
165.5685373106
 20
241.4388116797
 11
165.3639488655
 21
241.3770923997
  0
LINE
  8
0
 62
7
  6
CONTINUOUS
 10
179.2116944975
 20
186.6935815548
 11
179.4209997952
 21
186.7366744052
  0
LINE
  8
0
 62
7
  6
CONTINUOUS
 10
39.297091095
 20
163.3541296303
 11
39.50904788
 21
163.3813329885
  0
LINE
  8
0
 62
7
  6
CONTINUOUS
 10
171.8268617514
 20
163.3813329885
 11
172.0388185364
 21
163.3541296303
  0
LINE
  8
0
 62
7
  6
CONTINUOUS
 10
31.9149098362
 20
186.7366744052
 11
32.1242151339
 21
186.6935815548
  0
LINE
  8
0
 62
7
  6
CONTINUOUS
 10
157.2726848777
 20
143.7300576244
 11
157.4643243434
 21
143.6355059637
  0
LINE
  8
0
 62
7
  6
CONTINUOUS
 10
32.5250153974
 20
211.2492787444
 11
32.7089877311
 21
211.1405594645
  0
LINE
  8
QUILTS
 62
7
  6
CONTINUOUS
 10
49.0147358043
 20
212.8408695954
 11
49.3596702617
 21
212.5160611427
  0
LINE
  8
QUILTS
 62
7
  6
CONTINUOUS
 10
53.4153900715
 20
215.1865515784
 11
53.070455543
 21
215.511360053
  0
LINE
  8
0
 62
7
  6
CONTINUOUS
 10
137.1263347718
 20
129.8692760693
 11
137.2768898087
 21
129.7176222455
  0
LINE
  8
0
 62
7
  6
CONTINUOUS
 10
41.0612933742
 20
234.2356216156
 11
41.1999964869
 21
234.073057327
  0
LINE
  8
0
 62
7
  6
CONTINUOUS
 10
113.5709810707
 20
123.3010190768
 11
113.6641367042
 21
123.108697135
  0
LINE
  8
QUILTS
 62
7
  6
CONTINUOUS
 10
62.1560777195
 20
234.7542768524
 11
62.2430305784
 21
234.5339148724
  0
LINE
  8
QUILTS
 62
7
  6
CONTINUOUS
 10
62.7512667555
 20
234.7752328099
 11
62.6643122895
 21
234.9955930286
  0
LINE
  8
QUILTS
 62
7
  6
CONTINUOUS
 10
63.1692940627
 20
233.9707334974
 11
63.3431997805
 21
233.5300095375
  0
LINE
  8
QUILTS
 62
7
  6
CONTINUOUS
 10
65.1771242858
 20
235.3819615919
 11
65.2640787518
 21
235.1616013731
  0
LINE
  8
QUILTS
 62
7
  6
CONTINUOUS
 10
65.7355798738
 20
234.7313561973
 11
65.6486253803
 21
234.9517164412
  0
LINE
  8
0
 62
7
  6
CONTINUOUS
 10
56.5987055938
 20
253.2047760987
 11
56.677108851
 21
253.0059831647
  0
LINE
  8
0
 62
7
  6
CONTINUOUS
 10
89.1592118467
 20
124.7370592091
 11
89.1848732186
 21
124.5249102158
  0
LINE
  8
QUILTS
 62
7
  6
CONTINUOUS
 10
81.5220416991
 20
246.996176323
 11
81.4615271435
 21
247.5642211227
  0
LINE
  8
0
 62
7
  6
CONTINUOUS
 10
89.2161967561
 20
123.7446495699
 11
89.1877347613
 21
122.501616174
  0
LINE
  8
0
 62
7
  6
CONTINUOUS
 10
101.7016753494
 20
273.5224200467
 11
101.5251525872
 21
272.2916553158
  0
LINE
  8
0
 62
7
  6
CONTINUOUS
 10
66.2680835097
 20
133.0646381179
 11
65.8375513804
 21
131.8981972947
  0
LINE
  8
0
 62
7
  6
CONTINUOUS
 10
126.7098270066
 20
270.6730075864
 11
126.1432400797
 21
269.5662459306
  0
LINE
  8
0
 62
7
  6
CONTINUOUS
 10
47.5895576713
 20
149.3308841695
 11
46.8036102441
 21
148.3674378813
  0
LINE
  8
QUILTS
 62
7
  6
CONTINUOUS
 10
131.1025888789
 20
249.3186005958
 11
130.8745362064
 21
249.072228206
  0
LINE
  8
QUILTS
 62
7
  6
CONTINUOUS
 10
131.3978247887
 20
248.7143016841
 11
131.6258774612
 21
248.9606740739
  0
LINE
  8
0
 62
7
  6
CONTINUOUS
 10
101.8042515105
 20
220.2419605413
 11
82.5908897576
 21
201.0285987884
  0
LINE
  8
0
 62
7
  6
CONTINUOUS
 10
149.4377653136
 20
259.8578505838
 11
148.5425127071
 21
258.9950268017
  0
LINE
  8
QUILTS
 62
7
  6
CONTINUOUS
 10
132.7890667334
 20
246.3990640143
 11
135.0302256211
 21
248.4255025679
  0
LINE
  8
QUILTS
 62
7
  6
CONTINUOUS
 10
131.4911048586
 20
245.1809517833
 11
132.4871782091
 21
246.0815895173
  0
LINE
  8
QUILTS
 62
7
  6
CONTINUOUS
 10
134.8801832072
 20
249.0018448745
 11
130.9487744922
 21
245.4916007391
  0
LINE
  8
QUILTS
 62
7
  6
CONTINUOUS
 10
137.7841745
 20
245.4903036548
 11
138.0520037332
 21
245.6927266474
  0
LINE
  8
QUILTS
 62
7
  6
CONTINUOUS
 10
136.8117296669
 20
244.0933106581
 11
137.079558815
 21
244.2957335285
  0
LINE
  8
QUILTS
 62
7
  6
CONTINUOUS
 10
138.7667254781
 20
242.3435826845
 11
138.4988964151
 21
242.1411599364
  0
LINE
  8
QUILTS
 62
7
  6
CONTINUOUS
 10
138.6585378462
 20
241.6411754962
 11
139.1334103908
 21
241.9587144473
  0
LINE
  8
0
 62
7
  6
CONTINUOUS
 10
35.2047273426
 20
170.780687568
 11
34.1485342166
 21
170.1246401696
  0
LINE
  8
0
 62
7
  6
CONTINUOUS
 10
167.4225654946
 20
242.2489391147
 11
166.2956617196
 21
241.7235535511
  0
LINE
  8
QUILTS
 62
7
  6
CONTINUOUS
 10
50.690436083
 20
199.7846279202
 11
51.2284723438
 21
199.9765999677
  0
LINE
  8
QUILTS
 62
7
  6
CONTINUOUS
 10
50.2045875676
 20
197.8193979204
 11
49.8824028629
 21
197.7250383301
  0
LINE
  8
0
 62
7
  6
CONTINUOUS
 10
38.5330167435
 20
163.1929520111
 11
37.3350068456
 21
162.860214287
  0
LINE
  8
0
 62
7
  6
CONTINUOUS
 10
181.4371469577
 20
186.9066084719
 11
180.1960087782
 21
186.8323243703
  0
LINE
  8
0
 62
7
  6
CONTINUOUS
 10
31.1399008532
 20
186.8323243703
 11
29.8987626737
 21
186.9066084719
  0
LINE
  8
0
 62
7
  6
CONTINUOUS
 10
174.0009027858
 20
162.860214287
 11
172.8028928879
 21
163.1929520111
  0
LINE
  8
0
 62
7
  6
CONTINUOUS
 10
31.8230560317
 20
211.591391136
 11
30.6732861505
 21
212.0646472282
  0
LINE
  8
QUILTS
 62
7
  6
CONTINUOUS
 10
50.0217711067
 20
212.8563903211
 11
49.6460454512
 21
213.0816861507
  0
LINE
  8
0
 62
7
  6
CONTINUOUS
 10
159.1597234064
 20
142.5312646017
 11
158.1346647516
 21
143.2349668561
  0
LINE
  8
0
 62
7
  6
CONTINUOUS
 10
39.5746456394
 20
235.6080666894
 11
40.5084518151
 21
234.7871232476
  0
LINE
  8
0
 62
7
  6
CONTINUOUS
 10
82.5908897576
 20
193.3011921781
 11
101.8042515105
 21
174.0878304252
  0
LINE
  8
QUILTS
 62
7
  6
CONTINUOUS
 10
54.8335410371
 20
225.1433146591
 11
55.0683552557
 21
224.9033789137
  0
LINE
  8
QUILTS
 62
7
  6
CONTINUOUS
 10
55.4516798041
 20
225.408358741
 11
55.2168655855
 21
225.6482944864
  0
LINE
  8
QUILTS
 62
7
  6
CONTINUOUS
 10
56.8144071358
 20
224.110302024
 11
57.0492213544
 21
223.8703662786
  0
LINE
  8
QUILTS
 62
7
  6
CONTINUOUS
 10
57.4325459689
 20
224.3753460715
 11
57.1977316842
 21
224.6152818513
  0
LINE
  8
0
 62
7
  6
CONTINUOUS
 10
138.5218808898
 20
128.1227165506
 11
137.7808544889
 21
129.1211262769
  0
LINE
  8
QUILTS
 62
7
  6
CONTINUOUS
 10
60.5815883316
 20
233.6909015756
 11
60.7702778324
 21
233.4132270332
  0
LINE
  8
QUILTS
 62
7
  6
CONTINUOUS
 10
61.2368519583
 20
233.842471626
 11
61.0481624575
 21
234.1201461684
  0
LINE
  8
QUILTS
 62
7
  6
CONTINUOUS
 10
62.3485881872
 20
232.3239132377
 11
62.537277688
 21
232.0462386953
  0
LINE
  8
QUILTS
 62
7
  6
CONTINUOUS
 10
63.0038518728
 20
232.4754832426
 11
62.8151623131
 21
232.7531578306
  0
LINE
  8
0
 62
7
  6
CONTINUOUS
 10
55.6382407209
 20
254.9855720432
 11
56.2548908025
 21
253.9059032119
  0
LINE
  8
QUILTS
 62
7
  6
CONTINUOUS
 10
63.8514359577
 20
233.771327475
 11
63.6858979851
 21
234.0633952105
  0
LINE
  8
0
 62
7
  6
CONTINUOUS
 10
113.9471132636
 20
122.3808838991
 11
114.323805702
 21
121.1959598866
  0
LINE
  8
0
 62
7
  6
CONTINUOUS
 10
77.1233316155
 20
268.0973099115
 11
77.3560019983
 21
266.8759145614
  0
LINE
  8
QUILTS
 62
7
  6
CONTINUOUS
 10
77.7074105025
 20
248.0105036173
 11
77.6526149072
 21
248.3417195822
  0
LINE
  8
QUILTS
 62
7
  6
CONTINUOUS
 10
80.1161145026
 20
249.0229709653
 11
80.1709099604
 21
248.6917552648
  0
LINE
  8
QUILTS
 62
7
  6
CONTINUOUS
 10
80.950341353
 20
247.4183600935
 11
81.0051368108
 21
247.0871443929
  0
LINE
  8
QUILTS
 62
7
  6
CONTINUOUS
 10
137.4174895873
 20
245.875171892
 11
136.9065493373
 21
245.3235009253
  0
LINE
  8
QUILTS
 62
7
  6
CONTINUOUS
 10
137.3340120468
 20
245.0259447428
 11
137.7841745
 21
245.4903036548
  0
LINE
  8
QUILTS
 62
7
  6
CONTINUOUS
 10
49.3596702617
 20
212.5160611427
 11
49.8370253272
 21
212.2593191386
  0
LINE
  8
QUILTS
 62
7
  6
CONTINUOUS
 10
53.070455543
 20
215.511360053
 11
52.5931007622
 21
215.7681019691
  0
LINE
  8
QUILTS
 62
7
  6
CONTINUOUS
 10
52.4083549827
 20
215.1710307866
 11
52.7840806382
 21
214.9457349569
  0
LINE
  8
QUILTS
 62
7
  6
CONTINUOUS
 10
80.7483335664
 20
248.0327447269
 11
80.950341353
 21
247.4183600935
  0
LINE
  8
1_AXIS
 62
2
  6
CONTINUOUS
 10
105.6679548157
 20
198.0448954833
 11
105.6679548157
 21
196.2848954833
  0
LINE
  8
1_AXIS
 62
2
  6
CENTER
 10
105.6679548157
 20
192.7648954833
 11
105.6679548157
 21
118.0548954833
  0
LINE
  8
1_AXIS
 62
2
  6
CENTER
 10
105.6679548157
 20
201.5648954833
 11
105.6679548157
 21
276.2748954833
  0
LINE
  8
QUILTS
 62
7
  6
CONTINUOUS
 10
128.7917840252
 20
252.021546666
 11
126.7014955699
 21
247.4794442703
  0
LINE
  8
QUILTS
 62
7
  6
CONTINUOUS
 10
127.2692583694
 20
247.2181582134
 11
128.2032170542
 21
249.2476082488
  0
LINE
  8
QUILTS
 62
7
  6
CONTINUOUS
 10
128.4700623571
 20
249.8274510387
 11
129.1371757389
 21
251.2770582842
  0
LINE
  8
QUILTS
 62
7
  6
CONTINUOUS
 10
136.9065493373
 20
245.3235009253
 11
136.4811047601
 21
244.7123165428
  0
LINE
  8
QUILTS
 62
7
  6
CONTINUOUS
 10
137.2124564533
 20
244.8513206335
 11
137.3340120468
 21
245.0259447428
  0
LINE
  8
QUILTS
 62
7
  6
CONTINUOUS
 10
136.6293962766
 20
243.8313744942
 11
136.8117296669
 21
244.0933106581
  0
LINE
  8
1_AXIS
 62
2
  6
CONTINUOUS
 10
106.5479548157
 20
197.1648954833
 11
104.7879548157
 21
197.1648954833
  0
LINE
  8
1_AXIS
 62
2
  6
CENTER
 10
101.2679548157
 20
197.1648954833
 11
26.5579548157
 21
197.1648954833
  0
LINE
  8
1_AXIS
 62
2
  6
CENTER
 10
110.0679548157
 20
197.1648954833
 11
184.7779548157
 21
197.1648954833
  0
LINE
  8
QUILTS
 62
7
  6
CONTINUOUS
 10
47.7398130667
 20
197.2695044315
 11
49.8664777204
 21
197.2044485319
  0
LINE
  8
QUILTS
 62
7
  6
CONTINUOUS
 10
49.8824028629
 20
197.7250383301
 11
47.7557382092
 21
197.7900942297
  0
LINE
  8
QUILTS
 62
7
  6
CONTINUOUS
 10
47.819438778
 20
199.8724533854
 11
50.1587698823
 21
199.8008918963
  0
LINE
  8
QUILTS
 62
7
  6
CONTINUOUS
 10
47.9215898437
 20
201.680074336
 11
51.3077292108
 21
201.3293412023
  0
LINE
  8
QUILTS
 62
7
  6
CONTINUOUS
 10
51.3613895654
 20
201.8474030046
 11
48.927601812
 21
202.099492453
  0
LINE
  8
QUILTS
 62
7
  6
CONTINUOUS
 10
48.5043344282
 20
202.1433340909
 11
47.9752501984
 21
202.1981361382
  0
LINE
  8
QUILTS
 62
7
  6
CONTINUOUS
 10
49.5440464357
 20
203.9206729475
 11
51.5545668053
 21
203.7124251369
  0
LINE
  8
QUILTS
 62
7
  6
CONTINUOUS
 10
46.7974896206
 20
205.8012225091
 11
47.3234285815
 21
205.7217140446
  0
LINE
  8
QUILTS
 62
7
  6
CONTINUOUS
 10
48.3753067981
 20
205.5626970709
 11
51.7413164429
 21
205.053842853
  0
LINE
  8
QUILTS
 62
7
  6
CONTINUOUS
 10
51.8191684608
 20
205.5688246172
 11
48.4531588159
 21
206.0776788351
  0
LINE
  8
QUILTS
 62
7
  6
CONTINUOUS
 10
47.4012805993
 20
206.2366958088
 11
46.8753416384
 21
206.3162042733
  0
LINE
  8
QUILTS
 62
7
  6
CONTINUOUS
 10
49.8370253272
 20
212.2593191386
 11
51.3614623495
 21
211.7876277988
  0
LINE
  8
QUILTS
 62
7
  6
CONTINUOUS
 10
51.546208129
 20
212.3846989813
 11
50.0217711067
 21
212.8563903211
  0
LINE
  8
QUILTS
 62
7
  6
CONTINUOUS
 10
49.881553896
 20
217.9607544311
 11
54.502632634
 21
216.0514007977
  0
LINE
  8
QUILTS
 62
7
  6
CONTINUOUS
 10
54.7413018382
 20
216.6290356399
 11
50.7101479752
 21
218.2946420301
  0
LINE
  8
QUILTS
 62
7
  6
CONTINUOUS
 10
52.01980884
 20
222.9687728096
 11
56.4531760556
 21
220.6567920287
  0
LINE
  8
QUILTS
 62
7
  6
CONTINUOUS
 10
56.1762118824
 20
221.5061094126
 11
54.7613074224
 21
222.2439756346
  0
LINE
  8
QUILTS
 62
7
  6
CONTINUOUS
 10
54.1953457176
 20
222.5391220821
 11
52.8747681423
 21
223.2277972641
  0
LINE
  8
QUILTS
 62
7
  6
CONTINUOUS
 10
57.4276928313
 20
232.0481403923
 11
61.3824070014
 21
228.9886901421
  0
LINE
  8
QUILTS
 62
7
  6
CONTINUOUS
 10
61.2599811558
 20
229.8735975295
 11
59.9978383092
 21
230.8500178424
  0
LINE
  8
QUILTS
 62
7
  6
CONTINUOUS
 10
59.4929812413
 20
231.2405859129
 11
58.3149811805
 21
232.151911593
  0
LINE
  8
QUILTS
 62
7
  6
CONTINUOUS
 10
62.2430305784
 20
234.5339148724
 11
62.4001975916
 21
234.390499839
  0
LINE
  8
QUILTS
 62
7
  6
CONTINUOUS
 10
63.3431997805
 20
233.5300095375
 11
63.5789503003
 21
233.3148869873
  0
LINE
  8
QUILTS
 62
7
  6
CONTINUOUS
 10
64.0086030258
 20
233.6279123912
 11
63.8514359577
 21
233.771327475
  0
LINE
  8
QUILTS
 62
7
  6
CONTINUOUS
 10
64.1555385902
 20
236.31415941
 11
64.39128911
 21
236.0990368598
  0
LINE
  8
QUILTS
 62
7
  6
CONTINUOUS
 10
64.7056232463
 20
235.8122066924
 11
65.1771242858
 21
235.3819615919
  0
LINE
  8
QUILTS
 62
7
  6
CONTINUOUS
 10
63.6180075604
 20
239.2614482291
 11
67.1360662671
 21
235.7085250754
  0
LINE
  8
QUILTS
 62
7
  6
CONTINUOUS
 10
67.5061635584
 20
236.0749906424
 11
63.9881048517
 21
239.6279137961
  0
LINE
  8
QUILTS
 62
7
  6
CONTINUOUS
 10
64.6768554065
 20
240.293164478
 11
68.1055575539
 21
236.6539335724
  0
LINE
  8
QUILTS
 62
7
  6
CONTINUOUS
 10
68.4846452635
 20
237.011091136
 11
65.055943116
 21
240.6503220416
  0
LINE
  8
QUILTS
 62
7
  6
CONTINUOUS
 10
70.0852674255
 20
244.8981400049
 11
70.3880550902
 21
244.4608151637
  0
LINE
  8
QUILTS
 62
7
  6
CONTINUOUS
 10
72.4470115071
 20
241.487005815
 11
72.9314718131
 21
240.7872860079
  0
LINE
  8
QUILTS
 62
7
  6
CONTINUOUS
 10
74.8937480302
 20
247.2201285808
 11
75.3317467686
 21
246.4904251601
  0
LINE
  8
QUILTS
 62
7
  6
CONTINUOUS
 10
75.4843736792
 20
247.4505709344
 11
77.6196170876
 21
243.8932674931
  0
LINE
  8
QUILTS
 62
7
  6
CONTINUOUS
 10
78.1554929134
 20
244.2149227423
 11
75.58225092
 21
248.5019293487
  0
LINE
  8
QUILTS
 62
7
  6
CONTINUOUS
 10
77.196224712
 20
247.864642588
 11
77.3925133665
 21
247.4870871199
  0
LINE
  8
QUILTS
 62
7
  6
CONTINUOUS
 10
77.8055548297
 20
247.8217258832
 11
77.7074105025
 21
248.0105036173
  0
LINE
  8
QUILTS
 62
7
  6
CONTINUOUS
 10
81.4615271435
 20
247.5642211227
 11
81.2104429625
 21
248.2729924236
  0
LINE
  8
QUILTS
 62
7
  6
CONTINUOUS
 10
131.2360116549
 20
249.6085222615
 11
131.1025888789
 21
249.3186005958
  0
LINE
  8
QUILTS
 62
7
  6
CONTINUOUS
 10
131.6258774612
 20
248.9606740739
 11
131.8037744544
 21
249.3472362046
  0
LINE
  8
QUILTS
 62
7
  6
CONTINUOUS
 10
136.4811047601
 20
244.7123165428
 11
136.1411557704
 21
244.0416186221
  0
LINE
  8
QUILTS
 62
7
  6
CONTINUOUS
 10
138.9490588684
 20
242.6055188484
 11
138.7667254781
 21
242.3435826845
  0
LINE
  8
QUILTS
 62
7
  6
CONTINUOUS
 10
139.1334103908
 20
241.9587144473
 11
139.4372994597
 21
242.3952748428
  0
LINE
  8
QUILTS
 62
7
  6
CONTINUOUS
 10
50.6000280036
 20
200.3084706249
 11
47.835363924
 21
200.3930432953
  0
LINE
  8
QUILTS
 62
7
  6
CONTINUOUS
 10
51.6082271292
 20
204.2304866427
 11
49.5977067596
 21
204.4387344533
  0
LINE
  8
QUILTS
 62
7
  6
CONTINUOUS
 10
50.8839179604
 20
215.6427221264
 11
52.4083549827
 21
215.1710307866
  0
LINE
  8
QUILTS
 62
7
  6
CONTINUOUS
 10
52.5931007622
 20
215.7681019691
 11
51.0686637399
 21
216.2397933089
  0
LINE
  8
QUILTS
 62
7
  6
CONTINUOUS
 10
51.234012568
 20
221.2340181699
 11
55.1668455496
 21
219.6090363488
  0
LINE
  8
QUILTS
 62
7
  6
CONTINUOUS
 10
56.0937605101
 20
219.9022993787
 11
51.4726817722
 21
221.8116530122
  0
LINE
  8
QUILTS
 62
7
  6
CONTINUOUS
 10
54.6448871355
 20
225.2416968082
 11
54.8335410371
 21
225.1433146591
  0
LINE
  8
QUILTS
 62
7
  6
CONTINUOUS
 10
56.5314262834
 20
224.2578752477
 11
56.8144071358
 21
224.110302024
  0
LINE
  8
QUILTS
 62
7
  6
CONTINUOUS
 10
57.1977316842
 20
224.6152818513
 11
56.7260969303
 21
224.8612372242
  0
LINE
  8
QUILTS
 62
7
  6
CONTINUOUS
 10
55.2168655855
 20
225.6482944864
 11
54.8395575181
 21
225.8450589226
  0
LINE
  8
QUILTS
 62
7
  6
CONTINUOUS
 10
60.4133026423
 20
233.8210909324
 11
60.5815883316
 21
233.6909015756
  0
LINE
  8
QUILTS
 62
7
  6
CONTINUOUS
 10
62.0961596532
 20
232.519197273
 11
62.3485881872
 21
232.3239132377
  0
LINE
  8
QUILTS
 62
7
  6
CONTINUOUS
 10
62.8151623131
 20
232.7531578306
 11
62.3944480898
 21
233.0786312226
  0
LINE
  8
QUILTS
 62
7
  6
CONTINUOUS
 10
61.0481624575
 20
234.1201461684
 11
60.7115908432
 21
234.3805250644
  0
LINE
  8
QUILTS
 62
7
  6
CONTINUOUS
 10
65.7639440245
 20
235.5515719623
 11
64.5066077542
 21
236.6988923809
  0
LINE
  8
QUILTS
 62
7
  6
CONTINUOUS
 10
76.3571821704
 20
243.1591220927
 11
75.9938369303
 21
243.6839119634
  0
LINE
  8
QUILTS
 62
7
  6
CONTINUOUS
 10
73.9348805135
 20
246.6577213121
 11
73.5109777829
 21
247.2699760897
  0
LINE
  8
QUILTS
 62
7
  6
CONTINUOUS
 10
80.0179701754
 20
249.2117486994
 11
80.1161145026
 21
249.0229709653
  0
LINE
  8
QUILTS
 62
7
  6
CONTINUOUS
 10
80.6501892391
 20
248.2215224609
 11
80.7483335664
 21
248.0327447269
  0
LINE
  8
QUILTS
 62
7
  6
CONTINUOUS
 10
81.2104429625
 20
248.2729924236
 11
80.8669378171
 21
248.9337144928
  0
LINE
  8
0
 62
7
  6
CONTINUOUS
 10
122.1197128753
 20
123.7446495699
 11
122.1481748701
 21
122.501616174
  0
LINE
  8
0
 62
7
  6
CONTINUOUS
 10
134.2125780159
 20
268.0973099115
 11
133.979907633
 21
266.8759145614
  0
LINE
  8
0
 62
7
  6
CONTINUOUS
 10
97.3887963678
 20
122.3808838991
 11
97.0121039294
 21
121.1959598866
  0
LINE
  8
0
 62
7
  6
CONTINUOUS
 10
155.6976689105
 20
254.9855720432
 11
155.0810188289
 21
253.9059032119
  0
LINE
  8
0
 62
7
  6
CONTINUOUS
 10
73.5550551425
 20
129.1211262769
 11
72.8140287415
 21
128.1227165506
  0
LINE
  8
0
 62
7
  6
CONTINUOUS
 10
171.761263992
 20
235.6080666894
 11
170.8274578163
 21
234.7871232476
  0
LINE
  8
0
 62
7
  6
CONTINUOUS
 10
53.2012448798
 20
143.2349668561
 11
52.176186225
 21
142.5312646017
  0
LINE
  8
0
 62
7
  6
CONTINUOUS
 10
180.6626234809
 20
212.0646472282
 11
179.5128535997
 21
211.591391136
  0
LINE
  8
0
 62
7
  6
CONTINUOUS
 10
30.4556810603
 20
195.0896292874
 11
29.2436971491
 21
194.812073694
  0
LINE
  8
QUILTS
 62
7
  6
CONTINUOUS
 10
49.8664777204
 20
197.2044485319
 11
50.2949957246
 21
197.2955553158
  0
LINE
  8
QUILTS
 62
7
  6
CONTINUOUS
 10
51.028545986
 20
200.399577307
 11
50.6000280036
 21
200.3084706249
  0
LINE
  8
0
 62
7
  6
CONTINUOUS
 10
178.715295387
 20
219.754471967
 11
177.4788579533
 21
219.6234583001
  0
LINE
  8
QUILTS
 62
7
  6
CONTINUOUS
 10
49.0042301166
 20
203.8718624565
 11
49.5440464357
 21
203.9206729475
  0
LINE
  8
QUILTS
 62
7
  6
CONTINUOUS
 10
49.5977067596
 20
204.4387344533
 11
49.0578905019
 21
204.3899245552
  0
LINE
  8
QUILTS
 62
7
  6
CONTINUOUS
 10
51.9835154761
 20
212.3584261199
 11
51.546208129
 21
212.3846989813
  0
LINE
  8
QUILTS
 62
7
  6
CONTINUOUS
 10
50.4466106133
 20
215.6689949878
 11
50.8839179604
 21
215.6427221264
  0
LINE
  8
0
 62
7
  6
CONTINUOUS
 10
33.8570516781
 20
219.6234583001
 11
32.6206142444
 21
219.754471967
  0
LINE
  8
QUILTS
 62
7
  6
CONTINUOUS
 10
51.3614623495
 20
211.7876277988
 11
51.9003988219
 21
211.729908851
  0
LINE
  8
QUILTS
 62
7
  6
CONTINUOUS
 10
51.0686637399
 20
216.2397933089
 11
50.5297269828
 21
216.2975123447
  0
LINE
  8
0
 62
7
  6
CONTINUOUS
 10
182.0922124823
 20
194.812073694
 11
180.8802285711
 21
195.0896292874
  0
LINE
  8
0
 62
7
  6
CONTINUOUS
 10
45.0402479118
 20
241.7235535511
 11
43.9133441368
 21
242.2489391147
  0
LINE
  8
QUILTS
 62
7
  6
CONTINUOUS
 10
63.5789503003
 20
233.3148869873
 11
63.9634985358
 21
233.1050038165
  0
LINE
  8
QUILTS
 62
7
  6
CONTINUOUS
 10
66.227074132
 20
235.2699795387
 11
65.7639440245
 21
235.5515719623
  0
LINE
  8
0
 62
7
  6
CONTINUOUS
 10
177.1873754148
 20
170.1246401696
 11
176.1311822888
 21
170.780687568
  0
LINE
  8
0
 62
7
  6
CONTINUOUS
 10
61.8981443178
 20
259.8578505838
 11
62.7933969243
 21
258.9950268017
  0
LINE
  8
0
 62
7
  6
CONTINUOUS
 10
164.5322993873
 20
148.3674378813
 11
163.7463519601
 21
149.3308841695
  0
LINE
  8
QUILTS
 62
7
  6
CONTINUOUS
 10
80.8669378171
 20
248.9337144928
 11
80.4310116386
 21
249.5463874627
  0
LINE
  8
0
 62
7
  6
CONTINUOUS
 10
84.6260826248
 20
270.6730075864
 11
85.1926695517
 21
269.5662459306
  0
LINE
  8
0
 62
7
  6
CONTINUOUS
 10
145.0678261217
 20
133.0646381179
 11
145.498358251
 21
131.8981972947
  0
LINE
  8
0
 62
7
  6
CONTINUOUS
 10
109.634234282
 20
273.5224200467
 11
109.8107570442
 21
272.2916553158
  0
LINE
  8
QUILTS
 62
7
  6
CONTINUOUS
 10
131.2748042854
 20
249.9419926616
 11
131.2360116549
 21
249.6085222615
  0
LINE
  8
QUILTS
 62
7
  6
CONTINUOUS
 10
131.8037744544
 20
249.3472362046
 11
131.8425670848
 21
249.6807066047
  0
LINE
  8
QUILTS
 62
7
  6
CONTINUOUS
 10
134.5643130264
 20
243.4206061205
 11
135.6032876039
 21
248.5876478469
  0
LINE
  8
QUILTS
 62
7
  6
CONTINUOUS
 10
134.2949433385
 20
245.0460945781
 11
134.02198266
 21
243.7312550763
  0
LINE
  8
QUILTS
 62
7
  6
CONTINUOUS
 10
135.0302256211
 20
248.4255025679
 11
134.4160578325
 21
245.467117147
  0
LINE
  8
QUILTS
 62
7
  6
CONTINUOUS
 10
136.1411557704
 20
244.0416186221
 11
136.0082502625
 21
243.4860369044
  0
LINE
  8
QUILTS
 62
7
  6
CONTINUOUS
 10
139.4372994597
 20
242.3952748428
 11
139.5702049251
 21
242.9508564993
  0
LINE
  8
QUILTS
 62
7
  6
CONTINUOUS
 10
136.5325585591
 20
243.5099249144
 11
136.6293962766
 21
243.8313744942
  0
LINE
  8
QUILTS
 62
7
  6
CONTINUOUS
 10
139.045896671
 20
242.9269685505
 11
138.9490588684
 21
242.6055188484
  0
LINE
  8
QUILTS
 62
7
  6
CONTINUOUS
 10
140.3603164531
 20
244.0859134543
 11
140.4571541706
 21
244.4073630341
  0
LINE
  8
0
 62
7
  6
CONTINUOUS
 10
109.5316581209
 20
174.0878304252
 11
128.7450198737
 21
193.3011921781
  0
LINE
  8
QUILTS
 62
7
  6
CONTINUOUS
 10
49.0578905019
 20
204.3899245552
 11
48.7297078747
 21
204.3191932452
  0
LINE
  8
QUILTS
 62
7
  6
CONTINUOUS
 10
51.9003988219
 20
211.729908851
 11
52.3684974384
 21
211.8031485906
  0
LINE
  8
QUILTS
 62
7
  6
CONTINUOUS
 10
56.2002786652
 20
224.3130860187
 11
56.5314262834
 21
224.2578752477
  0
LINE
  8
QUILTS
 62
7
  6
CONTINUOUS
 10
56.7260969303
 20
224.8612372242
 11
56.394949312
 21
224.9164479952
  0
LINE
  8
QUILTS
 62
7
  6
CONTINUOUS
 10
54.3137393851
 20
225.2969076481
 11
54.6448871355
 21
225.2416968082
  0
LINE
  8
QUILTS
 62
7
  6
CONTINUOUS
 10
54.8395575181
 20
225.8450589226
 11
54.508410032
 21
225.9002696247
  0
LINE
  8
QUILTS
 62
7
  6
CONTINUOUS
 10
61.7799919682
 20
232.6320908922
 11
62.0961596532
 21
232.519197273
  0
LINE
  8
QUILTS
 62
7
  6
CONTINUOUS
 10
62.3944480898
 20
233.0786312226
 11
62.0782804048
 21
233.1915248419
  0
LINE
  8
QUILTS
 62
7
  6
CONTINUOUS
 10
60.0971348395
 20
233.9339846429
 11
60.4133026423
 21
233.8210909324
  0
LINE
  8
QUILTS
 62
7
  6
CONTINUOUS
 10
60.7115908432
 20
234.3805250644
 11
60.3954232761
 21
234.4934185925
  0
LINE
  8
QUILTS
 62
7
  6
CONTINUOUS
 10
65.6486253803
 20
234.9517164412
 11
65.9545884884
 21
234.8135390385
  0
LINE
  8
QUILTS
 62
7
  6
CONTINUOUS
 10
66.5330372264
 20
235.1318021486
 11
66.227074132
 21
235.2699795387
  0
LINE
  8
QUILTS
 62
7
  6
CONTINUOUS
 10
64.5066077542
 20
236.6988923809
 11
64.2006414732
 21
236.8370662236
  0
LINE
  8
QUILTS
 62
7
  6
CONTINUOUS
 10
77.3925133665
 20
247.4870871199
 11
77.8227204815
 21
247.1112431831
  0
LINE
  8
QUILTS
 62
7
  6
CONTINUOUS
 10
80.4310116386
 20
249.5463874627
 11
80.0008043861
 21
249.9222316639
  0
LINE
  8
QUILTS
 62
7
  6
CONTINUOUS
 10
78.509730841
 20
245.7897989124
 11
78.7493683993
 21
245.5546813446
  0
LINE
  8
QUILTS
 62
7
  6
CONTINUOUS
 10
78.0451923537
 20
247.5866083815
 11
77.8055548297
 21
247.8217258832
  0
LINE
  8
QUILTS
 62
7
  6
CONTINUOUS
 10
79.7783325139
 20
249.4468664655
 11
80.0179701754
 21
249.2117486994
  0
LINE
  8
0
 62
7
  6
CONTINUOUS
 10
128.7450198737
 20
201.0285987884
 11
109.5316581209
 21
220.2419605413
  0
LINE
  8
QUILTS
 62
7
  6
CONTINUOUS
 10
136.5212086447
 20
243.128967306
 11
136.5325585591
 21
243.5099249144
  0
LINE
  8
0
 62
7
  6
CONTINUOUS
 10
133.8727700846
 20
265.8876606883
 11
133.882377277
 21
266.1011399689
  0
LINE
  8
0
 62
7
  6
CONTINUOUS
 10
122.1510364127
 20
124.5249102158
 11
122.1766977847
 21
124.7370592091
  0
LINE
  8
0
 62
7
  6
CONTINUOUS
 10
154.6588007803
 20
253.0059831647
 11
154.7372040376
 21
253.2047760987
  0
LINE
  8
0
 62
7
  6
CONTINUOUS
 10
97.6717729272
 20
123.108697135
 11
97.7649285607
 21
123.3010190768
  0
LINE
  8
0
 62
7
  6
CONTINUOUS
 10
170.1359131445
 20
234.073057327
 11
170.2746162572
 21
234.2356216156
  0
LINE
  8
0
 62
7
  6
CONTINUOUS
 10
74.0590198227
 20
129.7176222455
 11
74.2095748596
 21
129.8692760693
  0
LINE
  8
0
 62
7
  6
CONTINUOUS
 10
178.6269219003
 20
211.1405594645
 11
178.810894234
 21
211.2492787444
  0
LINE
  8
0
 62
7
  6
CONTINUOUS
 10
53.871585288
 20
143.6355059637
 11
54.0632247537
 21
143.7300576244
  0
LINE
  8
QUILTS
 62
7
  6
CONTINUOUS
 10
55.1668455496
 20
219.6090363488
 11
50.2395572471
 21
218.8272055928
  0
LINE
  8
QUILTS
 62
7
  6
CONTINUOUS
 10
50.5297269828
 20
216.2975123447
 11
50.0616284375
 21
216.2242725832
  0
LINE
  8
QUILTS
 62
7
  6
CONTINUOUS
 10
50.7101479752
 20
218.2946420301
 11
55.7357567039
 21
219.0358471153
  0
LINE
  8
0
 62
7
  6
CONTINUOUS
 10
34.8507775118
 20
219.5982960387
 11
34.6372340155
 21
219.5902414384
  0
LINE
  8
0
 62
7
  6
CONTINUOUS
 10
176.6986756159
 20
219.5902414384
 11
176.4851321196
 21
219.5982960387
  0
LINE
  8
QUILTS
 62
7
  6
CONTINUOUS
 10
64.2359825861
 20
233.561442543
 11
64.0086030258
 21
233.6279123912
  0
LINE
  8
QUILTS
 62
7
  6
CONTINUOUS
 10
65.9545884884
 20
234.8135390385
 11
66.1819712766
 21
234.7470727
  0
LINE
  8
QUILTS
 62
7
  6
CONTINUOUS
 10
63.9281590299
 20
236.3806292583
 11
64.1555385902
 21
236.31415941
  0
LINE
  8
0
 62
7
  6
CONTINUOUS
 10
45.9719607659
 20
241.3770923997
 11
45.7673723208
 21
241.4388116797
  0
LINE
  8
0
 62
7
  6
CONTINUOUS
 10
180.1315331673
 20
195.3115369977
 11
179.9321753711
 21
195.3884926374
  0
LINE
  8
QUILTS
 62
7
  6
CONTINUOUS
 10
79.3039030593
 20
245.8429803402
 11
78.9718444679
 21
246.0300488086
  0
LINE
  8
0
 62
7
  6
CONTINUOUS
 10
63.5621312541
 20
258.3648112019
 11
63.3886681927
 21
258.4896161206
  0
LINE
  8
0
 62
7
  6
CONTINUOUS
 10
175.4951065828
 20
171.2336727067
 11
175.3315379973
 21
171.3711900482
  0
LINE
  8
0
 62
7
  6
CONTINUOUS
 10
85.7151210644
 20
268.7205695215
 11
85.591580801
 21
268.8949355294
  0
LINE
  8
0
 62
7
  6
CONTINUOUS
 10
163.2918246245
 20
149.9658587679
 11
163.1817704439
 21
150.1490356735
  0
LINE
  8
0
 62
7
  6
CONTINUOUS
 10
110.0303100117
 20
271.3221602583
 11
109.9700800508
 21
271.5271920929
  0
LINE
  8
0
 62
7
  6
CONTINUOUS
 10
144.8441022459
 20
133.8127928258
 11
144.7994885484
 21
134.0217792354
  0
LINE
  8
QUILTS
 62
7
  6
CONTINUOUS
 10
136.0082502625
 20
243.4860369044
 11
136.0216182453
 21
242.958253856
  0
LINE
  8
QUILTS
 62
7
  6
CONTINUOUS
 10
140.4571541706
 20
244.4073630341
 11
140.4437861665
 21
244.935146052
  0
LINE
  8
QUILTS
 62
7
  6
CONTINUOUS
 10
139.9441957884
 20
244.7644326326
 11
139.9328459165
 21
244.3834750853
  0
LINE
  8
QUILTS
 62
7
  6
CONTINUOUS
 10
56.394949312
 20
224.9164479952
 11
55.8731427101
 21
224.8361268426
  0
LINE
  8
QUILTS
 62
7
  6
CONTINUOUS
 10
54.508410032
 20
225.9002696247
 11
53.98660343
 21
225.819948472
  0
LINE
  8
QUILTS
 62
7
  6
CONTINUOUS
 10
63.9634985358
 20
233.1050038165
 11
64.4098899524
 21
233.1207203067
  0
LINE
  8
QUILTS
 62
7
  6
CONTINUOUS
 10
62.0782804048
 20
233.1915248419
 11
61.5504933856
 21
233.2047339199
  0
LINE
  8
QUILTS
 62
7
  6
CONTINUOUS
 10
60.3954232761
 20
234.4934185925
 11
59.8676362568
 21
234.5066276705
  0
LINE
  8
QUILTS
 62
7
  6
CONTINUOUS
 10
78.7493683993
 20
245.5546813446
 11
79.222924401
 21
245.3212753412
  0
LINE
  8
QUILTS
 62
7
  6
CONTINUOUS
 10
77.8227204815
 20
247.1112431831
 11
78.296276466
 21
246.8778372128
  0
LINE
  8
QUILTS
 62
7
  6
CONTINUOUS
 10
80.0008043861
 20
249.9222316639
 11
79.5272484016
 21
250.1556376342
  0
LINE
  8
QUILTS
 62
7
  6
CONTINUOUS
 10
78.3772551415
 20
247.3995421788
 11
78.0451923537
 21
247.5866083815
  0
LINE
  8
QUILTS
 62
7
  6
CONTINUOUS
 10
79.4462697262
 20
249.6339326682
 11
79.7783325139
 21
249.4468664655
  0
LINE
  8
QUILTS
 62
7
  6
CONTINUOUS
 10
131.8425670848
 20
249.6807066047
 11
131.7365825537
 21
250.1979114931
  0
LINE
  8
QUILTS
 62
7
  6
CONTINUOUS
 10
130.4241124482
 20
248.3426534912
 11
130.9360465204
 21
248.4583828526
  0
LINE
  8
QUILTS
 62
7
  6
CONTINUOUS
 10
137.079558815
 20
244.2957335285
 11
137.3720979268
 21
244.3513362544
  0
LINE
  8
QUILTS
 62
7
  6
CONTINUOUS
 10
61.4842296715
 20
232.5975011206
 11
61.7799919682
 21
232.6320908922
  0
LINE
  8
QUILTS
 62
7
  6
CONTINUOUS
 10
59.8013725427
 20
233.8993948712
 11
60.0971348395
 21
233.9339846429
  0
LINE
  8
QUILTS
 62
7
  6
CONTINUOUS
 10
64.2006414732
 20
236.8370662236
 11
63.9030493658
 21
236.8265908866
  0
LINE
  8
QUILTS
 62
7
  6
CONTINUOUS
 10
131.174501341
 20
250.2223676149
 11
131.2748042854
 21
249.9419926616
  0
LINE
  8
QUILTS
 62
7
  6
CONTINUOUS
 10
138.9964687461
 20
243.2206140432
 11
139.045896671
 21
242.9269685505
  0
LINE
  8
QUILTS
 62
7
  6
CONTINUOUS
 10
139.5702049251
 20
242.9508564993
 11
139.4960591242
 21
243.3913274625
  0
LINE
  8
QUILTS
 62
7
  6
CONTINUOUS
 10
59.8676362568
 20
234.5066276705
 11
59.3602545079
 21
234.3723534488
  0
LINE
  8
QUILTS
 62
7
  6
CONTINUOUS
 10
63.9030493658
 20
236.8265908866
 11
63.5352414971
 21
236.739166842
  0
LINE
  8
QUILTS
 62
7
  6
CONTINUOUS
 10
80.0056542101
 20
245.8481127348
 11
79.6793147165
 21
245.798352104
  0
LINE
  8
QUILTS
 62
7
  6
CONTINUOUS
 10
138.145579464
 20
241.9982450947
 11
137.7675446794
 21
242.0021557846
  0
LINE
  8
QUILTS
 62
7
  6
CONTINUOUS
 10
137.3720979268
 20
244.3513362544
 11
137.7501327114
 21
244.3474255645
  0
LINE
  8
QUILTS
 62
7
  6
CONTINUOUS
 10
137.9685260224
 20
244.8434992536
 11
137.2124564533
 21
244.8513206335
  0
LINE
  8
QUILTS
 62
7
  6
CONTINUOUS
 10
138.4053206418
 20
245.835641428
 11
138.7833554264
 21
245.831730738
  0
LINE
  8
QUILTS
 62
7
  6
CONTINUOUS
 10
137.549143504
 20
241.5060874905
 11
138.1589474468
 21
241.4704620463
  0
LINE
  8
QUILTS
 62
7
  6
CONTINUOUS
 10
139.0017487374
 20
246.3278044272
 11
138.3919526377
 21
246.3634244458
  0
LINE
  8
QUILTS
 62
7
  6
CONTINUOUS
 10
79.222924401
 20
245.3212753412
 11
79.8322545317
 21
245.2783586115
  0
LINE
  8
QUILTS
 62
7
  6
CONTINUOUS
 10
78.296276466
 20
246.8778372128
 11
78.9056065838
 21
246.8349205079
  0
LINE
  8
QUILTS
 62
7
  6
CONTINUOUS
 10
79.5272484016
 20
250.1556376342
 11
78.9179225146
 21
250.1985565386
  0
LINE
  8
QUILTS
 62
7
  6
CONTINUOUS
 10
79.6793147165
 20
245.798352104
 11
79.3039030593
 21
245.8429803402
  0
LINE
  8
QUILTS
 62
7
  6
CONTINUOUS
 10
78.7526667987
 20
247.3549139425
 11
78.3772551415
 21
247.3995421788
  0
LINE
  8
QUILTS
 62
7
  6
CONTINUOUS
 10
79.0708580689
 20
249.6785609044
 11
79.4462697262
 21
249.6339326682
  0
LINE
  8
QUILTS
 62
7
  6
CONTINUOUS
 10
137.7675446794
 20
242.0021557846
 11
137.4502876915
 21
242.0933785292
  0
LINE
  8
QUILTS
 62
7
  6
CONTINUOUS
 10
131.7365825537
 20
250.1979114931
 11
131.4914937844
 21
250.6620249216
  0
LINE
  8
QUILTS
 62
7
  6
CONTINUOUS
 10
136.0216182453
 20
242.958253856
 11
136.2667475486
 21
242.3987614866
  0
LINE
  8
QUILTS
 62
7
  6
CONTINUOUS
 10
139.4960591242
 20
243.3913274625
 11
139.2509219779
 21
243.9508252575
  0
LINE
  8
QUILTS
 62
7
  6
CONTINUOUS
 10
140.4437861665
 20
244.935146052
 11
140.1986568473
 21
245.4946383985
  0
LINE
  8
QUILTS
 62
7
  6
CONTINUOUS
 10
136.6561322423
 20
242.7758083974
 11
136.5212086447
 21
243.128967306
  0
LINE
  8
QUILTS
 62
7
  6
CONTINUOUS
 10
138.8615451485
 20
243.5737729517
 11
138.9964687461
 21
243.2206140432
  0
LINE
  8
QUILTS
 62
7
  6
CONTINUOUS
 10
139.8092721908
 20
245.1175915411
 11
139.9441957884
 21
244.7644326326
  0
LINE
  8
QUILTS
 62
7
  6
CONTINUOUS
 10
79.0790062923
 20
247.4046745733
 11
78.7526667987
 21
247.3549139425
  0
LINE
  8
QUILTS
 62
7
  6
CONTINUOUS
 10
78.7445185753
 20
249.6288002736
 11
79.0708580689
 21
249.6785609044
  0
LINE
  8
QUILTS
 62
7
  6
CONTINUOUS
 10
130.5963363934
 20
248.9660412994
 11
130.2679807765
 21
249.0000438628
  0
LINE
  8
QUILTS
 62
7
  6
CONTINUOUS
 10
129.9065054526
 20
248.463750078
 11
130.4241124482
 21
248.3426534912
  0
LINE
  8
QUILTS
 62
7
  6
CONTINUOUS
 10
137.7501327114
 20
244.3474255645
 11
138.0673896993
 21
244.2562028199
  0
LINE
  8
QUILTS
 62
7
  6
CONTINUOUS
 10
138.7833554264
 20
245.831730738
 11
139.1006124143
 21
245.7405079935
  0
LINE
  8
QUILTS
 62
7
  6
CONTINUOUS
 10
137.0609029925
 20
241.7163316107
 11
137.549143504
 21
241.5060874905
  0
LINE
  8
QUILTS
 62
7
  6
CONTINUOUS
 10
138.4567743558
 20
244.6332496772
 11
137.9685260224
 21
244.8434992536
  0
LINE
  8
QUILTS
 62
7
  6
CONTINUOUS
 10
139.4899970707
 20
246.1175548508
 11
139.0017487374
 21
246.3278044272
  0
LINE
  8
QUILTS
 62
7
  6
CONTINUOUS
 10
126.7014955699
 20
247.4794442703
 11
127.2692583694
 21
247.2181582134
  0
LINE
  8
QUILTS
 62
7
  6
CONTINUOUS
 10
128.2032170542
 20
249.2476082488
 11
129.9065054526
 21
248.463750078
  0
LINE
  8
QUILTS
 62
7
  6
CONTINUOUS
 10
130.2679807765
 20
249.0000438628
 11
128.4700623571
 21
249.8274510387
  0
LINE
  8
QUILTS
 62
7
  6
CONTINUOUS
 10
129.1371757389
 20
251.2770582842
 11
130.9350941584
 21
250.4496511083
  0
LINE
  8
QUILTS
 62
7
  6
CONTINUOUS
 10
130.9487744922
 20
245.4916007391
 11
131.4911048586
 21
245.1809517833
  0
LINE
  8
QUILTS
 62
7
  6
CONTINUOUS
 10
134.02198266
 20
243.7312550763
 11
134.5643130264
 21
243.4206061205
  0
LINE
  8
QUILTS
 62
7
  6
CONTINUOUS
 10
132.4871782091
 20
246.0815895173
 11
134.2949433385
 21
245.0460945781
  0
LINE
  8
QUILTS
 62
7
  6
CONTINUOUS
 10
134.4160578325
 20
245.467117147
 11
132.7890667334
 21
246.3990640143
  0
LINE
  8
QUILTS
 62
7
  6
CONTINUOUS
 10
136.6334402831
 20
242.0138877933
 11
137.0609029925
 21
241.7163316107
  0
LINE
  8
QUILTS
 62
7
  6
CONTINUOUS
 10
137.4502876915
 20
242.0933785292
 11
136.8518336366
 21
242.5099615436
  0
LINE
  8
QUILTS
 62
7
  6
CONTINUOUS
 10
138.0673896993
 20
244.2562028199
 11
138.6658437542
 21
243.8396198056
  0
LINE
  8
QUILTS
 62
7
  6
CONTINUOUS
 10
138.8842370652
 20
244.3356934947
 11
138.4567743558
 21
244.6332496772
  0
LINE
  8
QUILTS
 62
7
  6
CONTINUOUS
 10
139.9328459165
 20
244.3834750853
 11
140.3603164531
 21
244.0859134543
  0
LINE
  8
QUILTS
 62
7
  6
CONTINUOUS
 10
139.1006124143
 20
245.7405079935
 11
139.6135707964
 21
245.383438395
  0
LINE
  8
QUILTS
 62
7
  6
CONTINUOUS
 10
131.4914937844
 20
250.6620249216
 11
131.0628352231
 21
250.9764024384
  0
LINE
  8
QUILTS
 62
7
  6
CONTINUOUS
 10
130.9350941584
 20
250.4496511083
 11
131.174501341
 21
250.2223676149
  0
LINE
  8
QUILTS
 62
7
  6
CONTINUOUS
 10
136.2667475486
 20
242.3987614866
 11
136.6334402831
 21
242.0138877933
  0
LINE
  8
QUILTS
 62
7
  6
CONTINUOUS
 10
139.2509219779
 20
243.9508252575
 11
138.8842370652
 21
244.3356934947
  0
LINE
  8
QUILTS
 62
7
  6
CONTINUOUS
 10
140.1986568473
 20
245.4946383985
 11
139.8319641074
 21
245.8795120841
  0
LINE
  8
QUILTS
 62
7
  6
CONTINUOUS
 10
136.8518336366
 20
242.5099615436
 11
136.6561322423
 21
242.7758083974
  0
LINE
  8
QUILTS
 62
7
  6
CONTINUOUS
 10
138.6658437542
 20
243.8396198056
 11
138.8615451485
 21
243.5737729517
  0
LINE
  8
QUILTS
 62
7
  6
CONTINUOUS
 10
139.6135707964
 20
245.383438395
 11
139.8092721908
 21
245.1175915411
  0
LINE
  8
QUILTS
 62
7
  6
CONTINUOUS
 10
131.0628352231
 20
250.9764024384
 11
128.7917840252
 21
252.021546666
  0
LINE
  8
QUILTS
 62
7
  6
CONTINUOUS
 10
135.6032876039
 20
248.5876478469
 11
134.8801832072
 21
249.0018448745
  0
LINE
  8
QUILTS
 62
7
  6
CONTINUOUS
 10
139.8319641074
 20
245.8795120841
 11
139.4899970707
 21
246.1175548508
  0
LINE
  8
0
 62
7
  6
CONTINUOUS
 10
182.1831805536
 20
187.6060079812
 11
182.7129537766
 21
193.9994199883
  0
LINE
  8
0
 62
7
  6
CONTINUOUS
 10
174.9336088731
 20
163.2794816892
 11
177.5106150068
 21
169.1544639145
  0
LINE
  8
0
 62
7
  6
CONTINUOUS
 10
164.5230092514
 20
147.3448727277
 11
160.1780288082
 21
142.6249657681
  0
LINE
  8
0
 62
7
  6
CONTINUOUS
 10
145.1575451178
 20
130.9340540438
 11
139.5154364152
 21
127.8806975059
  0
LINE
  8
0
 62
7
  6
CONTINUOUS
 10
108.8756166105
 20
274.2081496059
 11
102.4602930209
 21
274.2081496059
  0
LINE
  8
0
 62
7
  6
CONTINUOUS
 10
133.7177203662
 20
268.9922075071
 11
127.649996704
 21
271.0752596714
  0
LINE
  8
0
 62
7
  6
CONTINUOUS
 10
155.5201967876
 20
255.9926616348
 11
150.4576050621
 21
259.9330349396
  0
LINE
  8
0
 62
7
  6
CONTINUOUS
 10
171.920409254
 20
236.6182144932
 11
168.4115598329
 21
241.9889083497
  0
LINE
  8
0
 62
7
  6
CONTINUOUS
 10
181.1411402693
 20
212.9683880556
 11
179.5662714328
 21
219.1874044494
  0
LINE
  8
0
 62
7
  6
CONTINUOUS
 10
30.177788862
 20
75.8926985645
 11
30.1861846569
 21
75.8014462741
  0
POLYLINE
  8
0
 62
7
  6
CONTINUOUS
 66
1
 70
0
  0
VERTEX
  8
0
 62
7
  6
CONTINUOUS
 10
28.622283598
 20
75.8932306756
  0
VERTEX
  8
0
 62
7
  6
CONTINUOUS
 10
28.6223673758
 20
75.8840781287
  0
VERTEX
  8
0
 62
7
  6
CONTINUOUS
 10
28.6268361543
 20
75.8259116042
  0
VERTEX
  8
0
 62
7
  6
CONTINUOUS
 10
28.6378578223
 20
75.7694090716
  0
VERTEX
  8
0
 62
7
  6
CONTINUOUS
 10
28.6549793734
 20
75.7153907419
  0
VERTEX
  8
0
 62
7
  6
CONTINUOUS
 10
28.6776300452
 20
75.664574341
  0
VERTEX
  8
0
 62
7
  6
CONTINUOUS
 10
28.7051438631
 20
75.6175583566
  0
VERTEX
  8
0
 62
7
  6
CONTINUOUS
 10
28.7367842641
 20
75.5748105076
  0
VERTEX
  8
0
 62
7
  6
CONTINUOUS
 10
28.7717695807
 20
75.5366616072
  0
VERTEX
  8
0
 62
7
  6
CONTINUOUS
 10
28.8092975746
 20
75.5033052044
  0
VERTEX
  8
0
 62
7
  6
CONTINUOUS
 10
28.8485699009
 20
75.4748007005
  0
VERTEX
  8
0
 62
7
  6
CONTINUOUS
 10
28.8888132268
 20
75.4510820751
  0
VERTEX
  8
0
 62
7
  6
CONTINUOUS
 10
28.9292951573
 20
75.4319707813
  0
VERTEX
  8
0
 62
7
  6
CONTINUOUS
 10
28.9693281996
 20
75.4171926009
  0
VERTEX
  8
0
 62
7
  6
CONTINUOUS
 10
29.00824183
 20
75.4063971676
  0
VERTEX
  8
0
 62
7
  6
CONTINUOUS
 10
29.0433390561
 20
75.3994764745
  0
VERTEX
  8
0
 62
7
  6
CONTINUOUS
 10
29.0665850965
 20
75.3962734823
  0
VERTEX
  8
0
 62
7
  6
CONTINUOUS
 10
29.0797354214
 20
75.3948500265
  0
VERTEX
  8
0
 62
7
  6
CONTINUOUS
 10
29.0943274137
 20
75.3934092938
  0
VERTEX
  8
0
 62
7
  6
CONTINUOUS
 10
29.1379750314
 20
75.389325408
  0
SEQEND
  0
LINE
  8
2_FEATURE
 62
7
  6
CONTINUOUS
 10
28.6222814827
 20
82.4750153835
 11
28.6222814827
 21
75.8931475178
  0
LINE
  8
2_FEATURE
 62
7
  6
CONTINUOUS
 10
30.1777877561
 20
82.4754844081
 11
30.1777877561
 21
75.8926784932
  0
POLYLINE
  8
0
 62
7
  6
CONTINUOUS
 66
1
 70
0
  0
VERTEX
  8
0
 62
7
  6
CONTINUOUS
 10
30.1861846569
 20
75.8014462741
  0
VERTEX
  8
0
 62
7
  6
CONTINUOUS
 10
30.2125781946
 20
75.7094329772
  0
VERTEX
  8
0
 62
7
  6
CONTINUOUS
 10
30.2542765452
 20
75.6268896886
  0
VERTEX
  8
0
 62
7
  6
CONTINUOUS
 10
30.3080502607
 20
75.5560601541
  0
VERTEX
  8
0
 62
7
  6
CONTINUOUS
 10
30.3704387286
 20
75.498248825
  0
VERTEX
  8
0
 62
7
  6
CONTINUOUS
 10
30.4379893868
 20
75.4538505881
  0
VERTEX
  8
0
 62
7
  6
CONTINUOUS
 10
30.5068010656
 20
75.4226725798
  0
VERTEX
  8
0
 62
7
  6
CONTINUOUS
 10
30.5691024517
 20
75.4043133988
  0
SEQEND
  0
POLYLINE
  8
0
 62
7
  6
CONTINUOUS
 66
1
 70
0
  0
VERTEX
  8
0
 62
7
  6
CONTINUOUS
 10
39.3028561308
 20
75.8895737731
  0
VERTEX
  8
0
 62
7
  6
CONTINUOUS
 10
39.3036748301
 20
75.8609547372
  0
VERTEX
  8
0
 62
7
  6
CONTINUOUS
 10
39.3279198863
 20
75.7331537063
  0
VERTEX
  8
0
 62
7
  6
CONTINUOUS
 10
39.3822910151
 20
75.6189552475
  0
VERTEX
  8
0
 62
7
  6
CONTINUOUS
 10
39.4596234211
 20
75.5256486139
  0
VERTEX
  8
0
 62
7
  6
CONTINUOUS
 10
39.5500377202
 20
75.4576178112
  0
VERTEX
  8
0
 62
7
  6
CONTINUOUS
 10
39.6424919686
 20
75.4148804102
  0
VERTEX
  8
0
 62
7
  6
CONTINUOUS
 10
39.7216497623
 20
75.3935930004
  0
SEQEND
  0
LINE
  8
2_FEATURE
 62
7
  6
CONTINUOUS
 10
39.3028556303
 20
82.4786835519
 11
39.3028556303
 21
75.8894793494
  0
LINE
  8
1_AXIS
 62
7
  6
CONTINUOUS
 10
43.1679548157
 20
89.6840814507
 11
43.1679548157
 21
84.1840814507
  0
LINE
  8
1_AXIS
 62
7
  6
CONTINUOUS
 10
43.1679548157
 20
74.1840814507
 11
43.1679548157
 21
68.6840814507
  0
POLYLINE
  8
0
 62
7
  6
CONTINUOUS
 66
1
 70
0
  0
VERTEX
  8
0
 62
7
  6
CONTINUOUS
 10
55.5329209298
 20
75.8840006083
  0
VERTEX
  8
0
 62
7
  6
CONTINUOUS
 10
55.5363062805
 20
75.8258385606
  0
VERTEX
  8
0
 62
7
  6
CONTINUOUS
 10
55.5738935755
 20
75.6854815483
  0
VERTEX
  8
0
 62
7
  6
CONTINUOUS
 10
55.6453685388
 20
75.5675205682
  0
VERTEX
  8
0
 62
7
  6
CONTINUOUS
 10
55.7397581919
 20
75.477977789
  0
VERTEX
  8
0
 62
7
  6
CONTINUOUS
 10
55.8440590045
 20
75.4192031845
  0
VERTEX
  8
0
 62
7
  6
CONTINUOUS
 10
55.9408666049
 20
75.3884191035
  0
VERTEX
  8
0
 62
7
  6
CONTINUOUS
 10
55.9871833385
 20
75.379178938
  0
SEQEND
  0
LINE
  8
2_FEATURE
 62
7
  6
CONTINUOUS
 10
55.5329193485
 20
82.4842339274
 11
55.5329193485
 21
75.8839289739
  0
POLYLINE
  8
0
 62
7
  6
CONTINUOUS
 66
1
 70
0
  0
VERTEX
  8
0
 62
7
  6
CONTINUOUS
 10
77.1092004263
 20
75.8766002492
  0
VERTEX
  8
0
 62
7
  6
CONTINUOUS
 10
77.1171061641
 20
75.7878576926
  0
VERTEX
  8
0
 62
7
  6
CONTINUOUS
 10
77.17164555
 20
75.6340781426
  0
VERTEX
  8
0
 62
7
  6
CONTINUOUS
 10
77.2644955275
 20
75.5133377747
  0
VERTEX
  8
0
 62
7
  6
CONTINUOUS
 10
77.3757301982
 20
75.432487663
  0
VERTEX
  8
0
 62
7
  6
CONTINUOUS
 10
77.4058326805
 20
75.4174853885
  0
SEQEND
  0
LINE
  8
2_FEATURE
 62
7
  6
CONTINUOUS
 10
77.1091996716
 20
82.4915709531
 11
77.1091996716
 21
75.8765919482
  0
POLYLINE
  8
0
 62
7
  6
CONTINUOUS
 66
1
 70
0
  0
VERTEX
  8
0
 62
7
  6
CONTINUOUS
 10
30.567061972
 20
82.963380646
  0
VERTEX
  8
0
 62
7
  6
CONTINUOUS
 10
30.5004474223
 20
82.9431203313
  0
VERTEX
  8
0
 62
7
  6
CONTINUOUS
 10
30.4285733172
 20
82.9090270775
  0
VERTEX
  8
0
 62
7
  6
CONTINUOUS
 10
30.3578376705
 20
82.8597568606
  0
VERTEX
  8
0
 62
7
  6
CONTINUOUS
 10
30.2899063029
 20
82.791017418
  0
VERTEX
  8
0
 62
7
  6
CONTINUOUS
 10
30.232171914
 20
82.7022620776
  0
VERTEX
  8
0
 62
7
  6
CONTINUOUS
 10
30.1928467676
 20
82.5972600745
  0
VERTEX
  8
0
 62
7
  6
CONTINUOUS
 10
30.177788862
 20
82.4754643296
  0
SEQEND
  0
LINE
  8
0
 62
7
  6
CONTINUOUS
 10
77.6872348865
 20
83.1018447122
 11
77.6309339167
 21
83.0540376396
  0
LINE
  8
0
 62
7
  6
CONTINUOUS
 10
77.6311328222
 20
75.3140339564
 11
77.6858360212
 21
75.2672349454
  0
POLYLINE
  8
0
 62
7
  6
CONTINUOUS
 66
1
 70
0
  0
VERTEX
  8
0
 62
7
  6
CONTINUOUS
 10
77.4057576005
 20
82.9506430247
  0
VERTEX
  8
0
 62
7
  6
CONTINUOUS
 10
77.3799857766
 20
82.9379439321
  0
VERTEX
  8
0
 62
7
  6
CONTINUOUS
 10
77.2673340071
 20
82.8575229354
  0
VERTEX
  8
0
 62
7
  6
CONTINUOUS
 10
77.173024234
 20
82.7365689419
  0
VERTEX
  8
0
 62
7
  6
CONTINUOUS
 10
77.1173856203
 20
82.5818474425
  0
VERTEX
  8
0
 62
7
  6
CONTINUOUS
 10
77.1092004265
 20
82.491562617
  0
SEQEND
  0
LINE
  8
0
 62
7
  6
CONTINUOUS
 10
77.6385828368
 20
83.0575490031
 11
77.4058103085
 21
82.9506688841
  0
POLYLINE
  8
0
 62
7
  6
CONTINUOUS
 66
1
 70
0
  0
VERTEX
  8
0
 62
7
  6
CONTINUOUS
 10
171.5740187151
 20
75.3864698042
  0
VERTEX
  8
0
 62
7
  6
CONTINUOUS
 10
171.6383381109
 20
75.398864199
  0
VERTEX
  8
0
 62
7
  6
CONTINUOUS
 10
171.7199186465
 20
75.4249051427
  0
VERTEX
  8
0
 62
7
  6
CONTINUOUS
 10
171.808552081
 20
75.4718102743
  0
VERTEX
  8
0
 62
7
  6
CONTINUOUS
 10
171.8518935638
 20
75.5040263
  0
VERTEX
  8
0
 62
7
  6
CONTINUOUS
 10
171.9305648084
 20
75.5860428632
  0
VERTEX
  8
0
 62
7
  6
CONTINUOUS
 10
171.9907971023
 20
75.6882674338
  0
VERTEX
  8
0
 62
7
  6
CONTINUOUS
 10
172.0259549578
 20
75.8055794105
  0
VERTEX
  8
0
 62
7
  6
CONTINUOUS
 10
172.0330515333
 20
75.889573677
  0
SEQEND
  0
POLYLINE
  8
0
 62
7
  6
CONTINUOUS
 66
1
 70
0
  0
VERTEX
  8
0
 62
7
  6
CONTINUOUS
 10
30.5691024517
 20
75.4043133988
  0
VERTEX
  8
0
 62
7
  6
CONTINUOUS
 10
30.614323605
 20
75.3958979682
  0
VERTEX
  8
0
 62
7
  6
CONTINUOUS
 10
30.654046313
 20
75.3906613118
  0
VERTEX
  8
0
 62
7
  6
CONTINUOUS
 10
30.705815066
 20
75.3849314779
  0
SEQEND
  0
LINE
  8
0
 62
7
  6
CONTINUOUS
 10
77.4058103069
 20
75.417494018
 11
77.6385828368
 21
75.3106138982
  0
LINE
  8
0
 62
7
  6
CONTINUOUS
 10
77.6387619126
 20
75.3105317021
 11
77.6432598105
 21
75.3083797622
  0
LINE
  8
0
 62
7
  6
CONTINUOUS
 10
77.8476365257
 20
83.1706710008
 11
77.6872348865
 21
83.1018447122
  0
LINE
  8
0
 62
7
  6
CONTINUOUS
 10
133.6956233056
 20
75.3101336573
 11
133.69715149
 21
75.3105334477
  0
LINE
  8
0
 62
7
  6
CONTINUOUS
 10
154.3812026059
 20
75.2049381176
 11
154.3813224045
 21
75.2049640937
  0
POLYLINE
  8
0
 62
7
  6
CONTINUOUS
 66
1
 70
0
  0
VERTEX
  8
0
 62
7
  6
CONTINUOUS
 10
154.3813224045
 20
75.2049640937
  0
VERTEX
  8
0
 62
7
  6
CONTINUOUS
 10
154.4716315191
 20
75.2238433952
  0
VERTEX
  8
0
 62
7
  6
CONTINUOUS
 10
154.6107300775
 20
75.2506599741
  0
SEQEND
  0
POLYLINE
  8
0
 62
7
  6
CONTINUOUS
 66
1
 70
0
  0
VERTEX
  8
0
 62
7
  6
CONTINUOUS
 10
155.3487829658
 20
75.3791888155
  0
VERTEX
  8
0
 62
7
  6
CONTINUOUS
 10
155.3926649963
 20
75.3878764846
  0
VERTEX
  8
0
 62
7
  6
CONTINUOUS
 10
155.4894000144
 20
75.418179596
  0
VERTEX
  8
0
 62
7
  6
CONTINUOUS
 10
155.5942939487
 20
75.4766304405
  0
VERTEX
  8
0
 62
7
  6
CONTINUOUS
 10
155.6893997963
 20
75.5661234892
  0
VERTEX
  8
0
 62
7
  6
CONTINUOUS
 10
155.7615133972
 20
75.6843205387
  0
VERTEX
  8
0
 62
7
  6
CONTINUOUS
 10
155.7995266156
 20
75.8251754701
  0
VERTEX
  8
0
 62
7
  6
CONTINUOUS
 10
155.8029902691
 20
75.8840043306
  0
SEQEND
  0
LINE
  8
0
 62
7
  6
CONTINUOUS
 10
154.327962775
 20
75.1949753971
 11
154.381202579
 21
75.2049382412
  0
LINE
  8
0
 62
7
  6
CONTINUOUS
 10
154.6107300775
 20
75.2506599741
 11
154.7321584037
 21
75.2723595458
  0
LINE
  8
0
 62
7
  6
CONTINUOUS
 10
154.732172338
 20
75.2723619598
 11
155.3488715439
 21
75.3792036884
  0
LINE
  8
0
 62
7
  6
CONTINUOUS
 10
171.501721511
 20
75.3767047807
 11
171.5740187151
 21
75.3864698042
  0
LINE
  8
0
 62
7
  6
CONTINUOUS
 10
169.9621336745
 20
75.1974827351
 11
170.3648352929
 21
75.2463247155
  0
LINE
  8
0
 62
7
  6
CONTINUOUS
 10
170.3648352929
 20
75.2463247155
 11
171.501721511
 21
75.3767047807
  0
POLYLINE
  8
0
 62
7
  6
CONTINUOUS
 66
1
 70
0
  0
VERTEX
  8
0
 62
7
  6
CONTINUOUS
 10
180.6297223275
 20
75.3848925354
  0
VERTEX
  8
0
 62
7
  6
CONTINUOUS
 10
180.6825229815
 20
75.3907398408
  0
VERTEX
  8
0
 62
7
  6
CONTINUOUS
 10
180.7221603495
 20
75.3959843697
  0
VERTEX
  8
0
 62
7
  6
CONTINUOUS
 10
180.7688757767
 20
75.4047889587
  0
SEQEND
  0
LINE
  8
0
 62
7
  6
CONTINUOUS
 10
169.9096417792
 20
75.191699327
 11
169.9621273073
 21
75.1974820529
  0
POLYLINE
  8
0
 62
7
  6
CONTINUOUS
 66
1
 70
0
  0
VERTEX
  8
0
 62
7
  6
CONTINUOUS
 10
182.2499495298
 20
75.3942253975
  0
VERTEX
  8
0
 62
7
  6
CONTINUOUS
 10
182.2639762337
 20
75.3956709534
  0
VERTEX
  8
0
 62
7
  6
CONTINUOUS
 10
182.2832000932
 20
75.3980599446
  0
VERTEX
  8
0
 62
7
  6
CONTINUOUS
 10
182.3212185671
 20
75.4049302118
  0
VERTEX
  8
0
 62
7
  6
CONTINUOUS
 10
182.3639091674
 20
75.4163425103
  0
VERTEX
  8
0
 62
7
  6
CONTINUOUS
 10
182.3859462057
 20
75.4238572383
  0
VERTEX
  8
0
 62
7
  6
CONTINUOUS
 10
182.4306624132
 20
75.4427879948
  0
VERTEX
  8
0
 62
7
  6
CONTINUOUS
 10
182.4754946688
 20
75.4672885885
  0
VERTEX
  8
0
 62
7
  6
CONTINUOUS
 10
182.5201244237
 20
75.4981871965
  0
VERTEX
  8
0
 62
7
  6
CONTINUOUS
 10
182.5638607552
 20
75.5363901036
  0
VERTEX
  8
0
 62
7
  6
CONTINUOUS
 10
182.6052119268
 20
75.5823302094
  0
VERTEX
  8
0
 62
7
  6
CONTINUOUS
 10
182.6423860262
 20
75.6360096673
  0
VERTEX
  8
0
 62
7
  6
CONTINUOUS
 10
182.6736145745
 20
75.6972520748
  0
VERTEX
  8
0
 62
7
  6
CONTINUOUS
 10
182.6970549951
 20
75.7655868017
  0
VERTEX
  8
0
 62
7
  6
CONTINUOUS
 10
182.7107935648
 20
75.8401211815
  0
VERTEX
  8
0
 62
7
  6
CONTINUOUS
 10
182.713622112
 20
75.8932302881
  0
SEQEND
  0
LINE
  8
0
 62
7
  6
CONTINUOUS
 10
180.5604402965
 20
75.3779638249
 11
180.6297223275
 21
75.3848925354
  0
LINE
  8
0
 62
7
  6
CONTINUOUS
 10
182.2080485592
 20
75.3902571701
 11
182.2499495298
 21
75.3942253975
  0
LINE
  8
0
 62
7
  6
CONTINUOUS
 10
178.6115093504
 20
75.1958597388
 11
180.5604402965
 21
75.3779638249
  0
LINE
  8
0
 62
7
  6
CONTINUOUS
 10
182.0245129796
 20
75.3737929036
 11
182.2080485592
 21
75.3902571701
  0
LINE
  8
0
 62
7
  6
CONTINUOUS
 10
180.8121658857
 20
75.2669300062
 11
180.0030958833
 21
75.1954973564
  0
LINE
  8
0
 62
7
  6
CONTINUOUS
 10
182.0241449949
 20
75.3737632242
 11
180.8121658857
 21
75.2669300062
  0
LINE
  8
0
 62
7
  6
CONTINUOUS
 10
178.5524301229
 20
75.1908924813
 11
178.6115091374
 21
75.1958598291
  0
LINE
  8
1_AXIS
 62
7
  6
CONTINUOUS
 10
166.1679548157
 20
66.6840814507
 11
45.168014488
 21
66.6840814507
  0
LINE
  8
0
 62
7
  6
CONTINUOUS
 10
32.7244003231
 20
75.1958598455
 11
32.7768419655
 21
75.1913832225
  0
LINE
  8
0
 62
7
  6
CONTINUOUS
 10
29.1379750314
 20
75.389325408
 11
31.3328137481
 21
75.1954973564
  0
LINE
  8
0
 62
7
  6
CONTINUOUS
 10
30.7733278621
 20
75.3781701988
 11
32.7244002626
 21
75.1958597427
  0
LINE
  8
0
 62
7
  6
CONTINUOUS
 10
30.705815066
 20
75.3849314779
 11
30.7733278621
 21
75.3781701988
  0
LINE
  8
0
 62
7
  6
CONTINUOUS
 10
41.3737815292
 20
75.1974821527
 11
41.4205528414
 21
75.1922510985
  0
LINE
  8
0
 62
7
  6
CONTINUOUS
 10
39.8479280132
 20
75.3751028798
 11
40.9660429273
 21
75.2469156181
  0
LINE
  8
0
 62
7
  6
CONTINUOUS
 10
40.9660429273
 20
75.2469156181
 11
41.3737760148
 21
75.197482729
  0
LINE
  8
0
 62
7
  6
CONTINUOUS
 10
39.7890880525
 20
75.3824679581
 11
39.8479580914
 21
75.3750995985
  0
LINE
  8
0
 62
7
  6
CONTINUOUS
 10
39.7216497623
 20
75.3935930004
 11
39.7890880525
 21
75.3824679581
  0
LINE
  8
0
 62
7
  6
CONTINUOUS
 10
55.9870380886
 20
75.3792036882
 11
56.6037372934
 21
75.2723619598
  0
LINE
  8
0
 62
7
  6
CONTINUOUS
 10
56.6037518095
 20
75.2723594452
 11
56.7220782724
 21
75.2512320838
  0
LINE
  8
0
 62
7
  6
CONTINUOUS
 10
56.9547019728
 20
75.2049393419
 11
57.0029607199
 21
75.1957739507
  0
POLYLINE
  8
0
 62
7
  6
CONTINUOUS
 66
1
 70
0
  0
VERTEX
  8
0
 62
7
  6
CONTINUOUS
 10
56.7220782724
 20
75.2512320838
  0
VERTEX
  8
0
 62
7
  6
CONTINUOUS
 10
56.8615270404
 20
75.2243981893
  0
VERTEX
  8
0
 62
7
  6
CONTINUOUS
 10
56.9545885896
 20
75.204963797
  0
SEQEND
  0
LINE
  8
0
 62
7
  6
CONTINUOUS
 10
56.9547019728
 20
75.2049393419
 11
56.9545886167
 21
75.2049639216
  0
LINE
  8
0
 62
7
  6
CONTINUOUS
 10
77.6858360212
 20
75.2672349454
 11
77.8467369768
 21
75.1977047919
  0
LINE
  8
0
 62
7
  6
CONTINUOUS
 10
133.3729573748
 20
75.1840815573
 11
133.488274359
 21
75.1974921911
  0
LINE
  8
0
 62
7
  6
CONTINUOUS
 10
154.2244667745
 20
75.1847534429
 11
154.327962775
 21
75.1949753971
  0
LINE
  8
0
 62
7
  6
CONTINUOUS
 10
180.0030958833
 20
75.1954973564
 11
179.7441042594
 21
75.1840814507
  0
LINE
  8
0
 62
7
  6
CONTINUOUS
 10
154.190466548
 20
75.1840815683
 11
154.2244667745
 21
75.1847534429
  0
POLYLINE
  8
0
 62
7
  6
CONTINUOUS
 66
1
 70
0
  0
VERTEX
  8
0
 62
7
  6
CONTINUOUS
 10
169.749979067
 20
75.1840815571
  0
VERTEX
  8
0
 62
7
  6
CONTINUOUS
 10
169.794926745
 20
75.18469023
  0
VERTEX
  8
0
 62
7
  6
CONTINUOUS
 10
169.9096417792
 20
75.191699327
  0
SEQEND
  0
POLYLINE
  8
0
 62
7
  6
CONTINUOUS
 66
1
 70
0
  0
VERTEX
  8
0
 62
7
  6
CONTINUOUS
 10
178.3652863459
 20
75.1840815596
  0
VERTEX
  8
0
 62
7
  6
CONTINUOUS
 10
178.4192050248
 20
75.1846500604
  0
VERTEX
  8
0
 62
7
  6
CONTINUOUS
 10
178.5524301229
 20
75.1908924813
  0
SEQEND
  0
LINE
  8
0
 62
7
  6
CONTINUOUS
 10
57.1062590918
 20
75.1849740225
 11
57.1454551903
 21
75.1840815712
  0
LINE
  8
0
 62
7
  6
CONTINUOUS
 10
31.591805372
 20
75.1840814507
 11
31.3328137481
 21
75.1954973564
  0
POLYLINE
  8
0
 62
7
  6
CONTINUOUS
 66
1
 70
0
  0
VERTEX
  8
0
 62
7
  6
CONTINUOUS
 10
32.7768419655
 20
75.1913832225
  0
VERTEX
  8
0
 62
7
  6
CONTINUOUS
 10
32.9101037093
 20
75.1847973306
  0
VERTEX
  8
0
 62
7
  6
CONTINUOUS
 10
32.9706318134
 20
75.1840815594
  0
SEQEND
  0
POLYLINE
  8
0
 62
7
  6
CONTINUOUS
 66
1
 70
0
  0
VERTEX
  8
0
 62
7
  6
CONTINUOUS
 10
41.4205528414
 20
75.1922510985
  0
VERTEX
  8
0
 62
7
  6
CONTINUOUS
 10
41.5352908057
 20
75.1848539091
  0
VERTEX
  8
0
 62
7
  6
CONTINUOUS
 10
41.5859359517
 20
75.1840815574
  0
SEQEND
  0
LINE
  8
0
 62
7
  6
CONTINUOUS
 10
57.0029607199
 20
75.1957739507
 11
57.1062590918
 21
75.1849740225
  0
LINE
  8
0
 62
7
  6
CONTINUOUS
 10
77.8467369768
 20
75.1977047919
 11
77.962952408
 21
75.1840815575
  0
LINE
  8
1_AXIS
 62
2
  6
CENTER
 10
105.6679548157
 20
64.6840814507
 11
105.6679548157
 21
93.6840814507
  0
LINE
  8
0
 62
7
  6
CONTINUOUS
 10
179.7441042585
 20
75.1840814507
 11
31.5918053729
 21
75.1840814507
  0
LINE
  8
0
 62
7
  6
CONTINUOUS
 10
57.1454435464
 20
83.1840813317
 11
57.1114475627
 21
83.1834096381
  0
POLYLINE
  8
0
 62
7
  6
CONTINUOUS
 66
1
 70
0
  0
VERTEX
  8
0
 62
7
  6
CONTINUOUS
 10
41.5859351419
 20
83.1840813429
  0
VERTEX
  8
0
 62
7
  6
CONTINUOUS
 10
41.5409880525
 20
83.183472806
  0
VERTEX
  8
0
 62
7
  6
CONTINUOUS
 10
41.4262730961
 20
83.1764640755
  0
SEQEND
  0
POLYLINE
  8
0
 62
7
  6
CONTINUOUS
 66
1
 70
0
  0
VERTEX
  8
0
 62
7
  6
CONTINUOUS
 10
32.9706979731
 20
83.1840813429
  0
VERTEX
  8
0
 62
7
  6
CONTINUOUS
 10
32.9167092745
 20
83.1835129344
  0
VERTEX
  8
0
 62
7
  6
CONTINUOUS
 10
32.7834842353
 20
83.1772707677
  0
SEQEND
  0
LINE
  8
1_AXIS
 62
7
  6
CONTINUOUS
 10
178.3651622921
 20
83.1840814507
 11
176.4576783045
 21
83.1840814507
  0
LINE
  8
1_AXIS
 62
7
  6
CONTINUOUS
 10
169.7500121686
 20
83.1840814507
 11
165.5000873938
 21
83.1840814507
  0
LINE
  8
1_AXIS
 62
7
  6
CONTINUOUS
 10
154.1905767954
 20
83.1840814507
 11
148.0587565271
 21
83.1840814507
  0
LINE
  8
1_AXIS
 62
7
  6
CONTINUOUS
 10
133.3729624247
 20
83.1840814507
 11
126.0237245339
 21
83.1840814507
  0
LINE
  8
1_AXIS
 62
7
  6
CONTINUOUS
 10
63.2771531043
 20
83.1840814507
 11
57.145332836
 21
83.1840814507
  0
LINE
  8
1_AXIS
 62
7
  6
CONTINUOUS
 10
45.8358222376
 20
83.1840814507
 11
41.5858974628
 21
83.1840814507
  0
LINE
  8
1_AXIS
 62
7
  6
CONTINUOUS
 10
34.8782313269
 20
83.1840814507
 11
32.9707473393
 21
83.1840814507
  0
LINE
  8
0
 62
7
  6
CONTINUOUS
 10
31.5918053729
 20
83.1840814507
 11
179.7441042585
 21
83.1840814507
  0
LINE
  8
0
 62
7
  6
CONTINUOUS
 10
154.2296457383
 20
83.183189092
 11
154.1904540385
 21
83.1840813291
  0
LINE
  8
0
 62
7
  6
CONTINUOUS
 10
77.6402865085
 20
83.0580293493
 11
77.6387578452
 21
83.0576293332
  0
LINE
  8
0
 62
7
  6
CONTINUOUS
 10
77.9629523373
 20
83.1840813428
 11
77.8476365257
 21
83.1706710008
  0
LINE
  8
0
 62
7
  6
CONTINUOUS
 10
41.4262730961
 20
83.1764640755
 11
41.3737824767
 21
83.1706808683
  0
LINE
  8
0
 62
7
  6
CONTINUOUS
 10
57.1114475627
 20
83.1834096381
 11
57.0079515306
 21
83.1731882409
  0
LINE
  8
0
 62
7
  6
CONTINUOUS
 10
32.7244002825
 20
83.172303162
 11
30.7755101107
 21
82.9902029949
  0
LINE
  8
0
 62
7
  6
CONTINUOUS
 10
29.2418008945
 20
82.9882029219
 11
29.1037266043
 21
82.9756511391
  0
LINE
  8
0
 62
7
  6
CONTINUOUS
 10
29.3117646365
 20
82.9943996771
 11
30.5237437457
 21
83.1012328951
  0
LINE
  8
0
 62
7
  6
CONTINUOUS
 10
30.5237437457
 20
83.1012328951
 11
31.3328137481
 21
83.1726655449
  0
LINE
  8
0
 62
7
  6
CONTINUOUS
 10
29.3113967565
 20
82.9943700055
 11
29.2418008945
 21
82.9882029219
  0
LINE
  8
0
 62
7
  6
CONTINUOUS
 10
32.7834842353
 20
83.1772707677
 11
32.7244005478
 21
83.1723030781
  0
LINE
  8
0
 62
7
  6
CONTINUOUS
 10
31.3328137481
 20
83.1726655449
 11
31.591805372
 21
83.1840814507
  0
LINE
  8
0
 62
7
  6
CONTINUOUS
 10
179.7441042594
 20
83.1840814507
 11
180.0030958833
 21
83.1726655449
  0
POLYLINE
  8
0
 62
7
  6
CONTINUOUS
 66
1
 70
0
  0
VERTEX
  8
0
 62
7
  6
CONTINUOUS
 10
178.559062865
 20
83.1767800462
  0
VERTEX
  8
0
 62
7
  6
CONTINUOUS
 10
178.425801164
 20
83.1833656802
  0
VERTEX
  8
0
 62
7
  6
CONTINUOUS
 10
178.3652037279
 20
83.1840813431
  0
SEQEND
  0
POLYLINE
  8
0
 62
7
  6
CONTINUOUS
 66
1
 70
0
  0
VERTEX
  8
0
 62
7
  6
CONTINUOUS
 10
169.915351466
 20
83.1759123314
  0
VERTEX
  8
0
 62
7
  6
CONTINUOUS
 10
169.8006135451
 20
83.1833091497
  0
VERTEX
  8
0
 62
7
  6
CONTINUOUS
 10
169.7499692478
 20
83.1840813428
  0
SEQEND
  0
LINE
  8
0
 62
7
  6
CONTINUOUS
 10
178.6115092612
 20
83.172303061
 11
178.559062865
 21
83.1767800462
  0
LINE
  8
0
 62
7
  6
CONTINUOUS
 10
182.1979225229
 20
82.9788386022
 11
180.0030958833
 21
83.1726655449
  0
LINE
  8
0
 62
7
  6
CONTINUOUS
 10
180.562615821
 20
82.9899894245
 11
178.6115093541
 21
83.1723031631
  0
LINE
  8
0
 62
7
  6
CONTINUOUS
 10
154.3329441421
 20
83.1723897304
 11
154.2296457383
 21
83.183189092
  0
LINE
  8
0
 62
7
  6
CONTINUOUS
 10
133.4891716735
 20
83.1704583379
 11
133.3729571432
 21
83.1840813428
  0
POLYLINE
  8
0
 62
7
  6
CONTINUOUS
 66
1
 70
0
  0
VERTEX
  8
0
 62
7
  6
CONTINUOUS
 10
133.9302468384
 20
75.4175637395
  0
VERTEX
  8
0
 62
7
  6
CONTINUOUS
 10
133.9559145953
 20
75.4302151064
  0
VERTEX
  8
0
 62
7
  6
CONTINUOUS
 10
134.0685559507
 20
75.5106221604
  0
VERTEX
  8
0
 62
7
  6
CONTINUOUS
 10
134.1628772906
 20
75.6315780036
  0
VERTEX
  8
0
 62
7
  6
CONTINUOUS
 10
134.2185226332
 20
75.7863047454
  0
VERTEX
  8
0
 62
7
  6
CONTINUOUS
 10
134.226709415
 20
75.8765972007
  0
SEQEND
  0
LINE
  8
0
 62
7
  6
CONTINUOUS
 10
133.6973267946
 20
75.3106138981
 11
133.9300993255
 21
75.4174940184
  0
LINE
  8
0
 62
7
  6
CONTINUOUS
 10
133.488274359
 20
75.1974921911
 11
133.6486765792
 21
75.2663193861
  0
LINE
  8
0
 62
7
  6
CONTINUOUS
 10
56.9547073566
 20
83.1632248563
 11
56.9545872437
 21
83.1631988122
  0
POLYLINE
  8
0
 62
7
  6
CONTINUOUS
 66
1
 70
0
  0
VERTEX
  8
0
 62
7
  6
CONTINUOUS
 10
56.9545872437
 20
83.1631988122
  0
VERTEX
  8
0
 62
7
  6
CONTINUOUS
 10
56.8642843007
 20
83.1443207574
  0
VERTEX
  8
0
 62
7
  6
CONTINUOUS
 10
56.7251864632
 20
83.1175042036
  0
SEQEND
  0
POLYLINE
  8
0
 62
7
  6
CONTINUOUS
 66
1
 70
0
  0
VERTEX
  8
0
 62
7
  6
CONTINUOUS
 10
55.9871351584
 20
82.9889756297
  0
VERTEX
  8
0
 62
7
  6
CONTINUOUS
 10
55.9432743384
 20
82.9802930595
  0
VERTEX
  8
0
 62
7
  6
CONTINUOUS
 10
55.8465215872
 20
82.9499877388
  0
VERTEX
  8
0
 62
7
  6
CONTINUOUS
 10
55.7416309856
 20
82.8915443957
  0
VERTEX
  8
0
 62
7
  6
CONTINUOUS
 10
55.646512594
 20
82.8020450008
  0
VERTEX
  8
0
 62
7
  6
CONTINUOUS
 10
55.5743958108
 20
82.6838424234
  0
VERTEX
  8
0
 62
7
  6
CONTINUOUS
 10
55.5363839968
 20
82.542985895
  0
VERTEX
  8
0
 62
7
  6
CONTINUOUS
 10
55.5329209298
 20
82.4841622957
  0
SEQEND
  0
POLYLINE
  8
0
 62
7
  6
CONTINUOUS
 66
1
 70
0
  0
VERTEX
  8
0
 62
7
  6
CONTINUOUS
 10
39.7619071227
 20
82.9816955603
  0
VERTEX
  8
0
 62
7
  6
CONTINUOUS
 10
39.6976036266
 20
82.9693063072
  0
VERTEX
  8
0
 62
7
  6
CONTINUOUS
 10
39.6159996449
 20
82.9432610066
  0
VERTEX
  8
0
 62
7
  6
CONTINUOUS
 10
39.5273605937
 20
82.8963542735
  0
VERTEX
  8
0
 62
7
  6
CONTINUOUS
 10
39.4840186857
 20
82.8641387263
  0
VERTEX
  8
0
 62
7
  6
CONTINUOUS
 10
39.4053484786
 20
82.7821259486
  0
VERTEX
  8
0
 62
7
  6
CONTINUOUS
 10
39.3451137
 20
82.6799015393
  0
VERTEX
  8
0
 62
7
  6
CONTINUOUS
 10
39.3099535971
 20
82.5625881711
  0
VERTEX
  8
0
 62
7
  6
CONTINUOUS
 10
39.3028561308
 20
82.4785891158
  0
SEQEND
  0
LINE
  8
0
 62
7
  6
CONTINUOUS
 10
57.0079515306
 20
83.1731882409
 11
56.9547073835
 21
83.1632247325
  0
LINE
  8
0
 62
7
  6
CONTINUOUS
 10
56.7251864632
 20
83.1175042036
 11
56.6037511984
 21
83.0958033504
  0
LINE
  8
0
 62
7
  6
CONTINUOUS
 10
56.6037372934
 20
83.0958009415
 11
55.9870380903
 21
82.9889592134
  0
LINE
  8
0
 62
7
  6
CONTINUOUS
 10
39.8342056738
 20
82.9914603178
 11
39.7619071227
 21
82.9816955603
  0
LINE
  8
0
 62
7
  6
CONTINUOUS
 10
41.3737759644
 20
83.170680167
 11
40.9710875491
 21
83.1218397399
  0
LINE
  8
0
 62
7
  6
CONTINUOUS
 10
40.9710875491
 20
83.1218397399
 11
39.8342056738
 21
82.9914603178
  0
POLYLINE
  8
0
 62
7
  6
CONTINUOUS
 66
1
 70
0
  0
VERTEX
  8
0
 62
7
  6
CONTINUOUS
 10
30.7062148851
 20
82.9832732754
  0
VERTEX
  8
0
 62
7
  6
CONTINUOUS
 10
30.6533995558
 20
82.9774245978
  0
VERTEX
  8
0
 62
7
  6
CONTINUOUS
 10
30.6137580362
 20
82.9721797994
  0
VERTEX
  8
0
 62
7
  6
CONTINUOUS
 10
30.567061972
 20
82.963380646
  0
SEQEND
  0
LINE
  8
0
 62
7
  6
CONTINUOUS
 10
30.7755101107
 20
82.9902029949
 11
30.7062148851
 21
82.9832732754
  0
POLYLINE
  8
0
 62
7
  6
CONTINUOUS
 66
1
 70
0
  0
VERTEX
  8
0
 62
7
  6
CONTINUOUS
 10
29.1037266043
 20
82.9756511391
  0
VERTEX
  8
0
 62
7
  6
CONTINUOUS
 10
29.0859589726
 20
82.9739373795
  0
VERTEX
  8
0
 62
7
  6
CONTINUOUS
 10
29.0719295393
 20
82.9724915278
  0
VERTEX
  8
0
 62
7
  6
CONTINUOUS
 10
29.0527251665
 20
82.9701051858
  0
VERTEX
  8
0
 62
7
  6
CONTINUOUS
 10
29.0146996138
 20
82.963234817
  0
VERTEX
  8
0
 62
7
  6
CONTINUOUS
 10
28.9720038838
 20
82.9518219714
  0
VERTEX
  8
0
 62
7
  6
CONTINUOUS
 10
28.9499628893
 20
82.944306118
  0
VERTEX
  8
0
 62
7
  6
CONTINUOUS
 10
28.905241062
 20
82.9253729465
  0
VERTEX
  8
0
 62
7
  6
CONTINUOUS
 10
28.8604053299
 20
82.9008698474
  0
VERTEX
  8
0
 62
7
  6
CONTINUOUS
 10
28.8157734398
 20
82.8699686194
  0
VERTEX
  8
0
 62
7
  6
CONTINUOUS
 10
28.772036668
 20
82.8317636545
  0
VERTEX
  8
0
 62
7
  6
CONTINUOUS
 10
28.7306865855
 20
82.7858226389
  0
VERTEX
  8
0
 62
7
  6
CONTINUOUS
 10
28.6935142582
 20
82.7321432612
  0
VERTEX
  8
0
 62
7
  6
CONTINUOUS
 10
28.6622876453
 20
82.6709018004
  0
VERTEX
  8
0
 62
7
  6
CONTINUOUS
 10
28.6388489673
 20
82.6025687754
  0
VERTEX
  8
0
 62
7
  6
CONTINUOUS
 10
28.6251116603
 20
82.5280366353
  0
VERTEX
  8
0
 62
7
  6
CONTINUOUS
 10
28.6222835976
 20
82.4749322254
  0
SEQEND
  0
LINE
  8
1_AXIS
 62
7
  6
CONTINUOUS
 10
166.1679548157
 20
91.6840814507
 11
45.168014488
 21
91.6840814507
  0
LINE
  8
0
 62
7
  6
CONTINUOUS
 10
180.630114749
 20
82.9832292861
 11
180.562615821
 21
82.9899894245
  0
LINE
  8
0
 62
7
  6
CONTINUOUS
 10
169.9621279517
 20
83.1706807682
 11
169.915351466
 21
83.1759123314
  0
LINE
  8
0
 62
7
  6
CONTINUOUS
 10
171.4879816182
 20
82.9930600215
 11
170.3698784952
 21
83.1212458967
  0
LINE
  8
0
 62
7
  6
CONTINUOUS
 10
170.3698784952
 20
83.1212458967
 11
169.9621335976
 21
83.1706801763
  0
LINE
  8
0
 62
7
  6
CONTINUOUS
 10
171.5468387989
 20
82.985692537
 11
171.4879492319
 21
82.9930635359
  0
LINE
  8
0
 62
7
  6
CONTINUOUS
 10
171.6142651042
 20
82.9745689114
 11
171.5468387989
 21
82.985692537
  0
LINE
  8
0
 62
7
  6
CONTINUOUS
 10
155.3488715428
 20
82.9889592131
 11
154.732172338
 21
83.0958009415
  0
LINE
  8
0
 62
7
  6
CONTINUOUS
 10
154.7321577915
 20
83.0958034614
 11
154.6138371772
 21
83.1169297445
  0
LINE
  8
0
 62
7
  6
CONTINUOUS
 10
154.3812072559
 20
83.1632236473
 11
154.3329441421
 21
83.1723897304
  0
POLYLINE
  8
0
 62
7
  6
CONTINUOUS
 66
1
 70
0
  0
VERTEX
  8
0
 62
7
  6
CONTINUOUS
 10
154.6138371772
 20
83.1169297445
  0
VERTEX
  8
0
 62
7
  6
CONTINUOUS
 10
154.4743878514
 20
83.1437636506
  0
VERTEX
  8
0
 62
7
  6
CONTINUOUS
 10
154.3813210438
 20
83.163199102
  0
SEQEND
  0
LINE
  8
0
 62
7
  6
CONTINUOUS
 10
154.3812072559
 20
83.1632236473
 11
154.3813210172
 21
83.1631989798
  0
LINE
  8
0
 62
7
  6
CONTINUOUS
 10
133.650072179
 20
83.1009288964
 11
133.4891716735
 21
83.1704583379
  0
LINE
  8
0
 62
7
  6
CONTINUOUS
 10
133.9300993244
 20
82.9506688834
 11
133.6973267945
 21
83.0575490032
  0
LINE
  8
0
 62
7
  6
CONTINUOUS
 10
133.6971474443
 20
83.057631309
 11
133.6926499883
 21
83.0597830602
  0
LINE
  8
0
 62
7
  6
CONTINUOUS
 10
133.6486765792
 20
75.2663193861
 11
133.7049756155
 21
75.3141252161
  0
POLYLINE
  8
0
 62
7
  6
CONTINUOUS
 66
1
 70
0
  0
VERTEX
  8
0
 62
7
  6
CONTINUOUS
 10
180.7668257769
 20
82.9638450916
  0
VERTEX
  8
0
 62
7
  6
CONTINUOUS
 10
180.7215863322
 20
82.9722649345
  0
VERTEX
  8
0
 62
7
  6
CONTINUOUS
 10
180.681869086
 20
82.9775009005
  0
VERTEX
  8
0
 62
7
  6
CONTINUOUS
 10
180.630114749
 20
82.9832292861
  0
SEQEND
  0
LINE
  8
0
 62
7
  6
CONTINUOUS
 10
133.7047768684
 20
83.0541289178
 11
133.650072179
 21
83.1009288964
  0
POLYLINE
  8
0
 62
7
  6
CONTINUOUS
 66
1
 70
0
  0
VERTEX
  8
0
 62
7
  6
CONTINUOUS
 10
180.7688757767
 20
75.4047889587
  0
VERTEX
  8
0
 62
7
  6
CONTINUOUS
 10
180.8354814604
 20
75.4250498635
  0
VERTEX
  8
0
 62
7
  6
CONTINUOUS
 10
180.9073539479
 20
75.4591457039
  0
VERTEX
  8
0
 62
7
  6
CONTINUOUS
 10
180.9780720653
 20
75.5084056667
  0
VERTEX
  8
0
 62
7
  6
CONTINUOUS
 10
181.0459921766
 20
75.5771310813
  0
VERTEX
  8
0
 62
7
  6
CONTINUOUS
 10
181.1037291284
 20
75.66588291
  0
VERTEX
  8
0
 62
7
  6
CONTINUOUS
 10
181.143060269
 20
75.7708906655
  0
VERTEX
  8
0
 62
7
  6
CONTINUOUS
 10
181.1581211249
 20
75.8926978912
  0
SEQEND
  0
POLYLINE
  8
0
 62
7
  6
CONTINUOUS
 66
1
 70
0
  0
VERTEX
  8
0
 62
7
  6
CONTINUOUS
 10
134.2267094151
 20
82.4915654032
  0
VERTEX
  8
0
 62
7
  6
CONTINUOUS
 10
134.2162948508
 20
82.593291694
  0
VERTEX
  8
0
 62
7
  6
CONTINUOUS
 10
134.1523104883
 20
82.7546077997
  0
VERTEX
  8
0
 62
7
  6
CONTINUOUS
 10
134.1030725365
 20
82.8216220021
  0
VERTEX
  8
0
 62
7
  6
CONTINUOUS
 10
133.9818143677
 20
82.9233331528
  0
VERTEX
  8
0
 62
7
  6
CONTINUOUS
 10
133.9297588288
 20
82.9508231793
  0
SEQEND
  0
LINE
  8
0
 62
7
  6
CONTINUOUS
 10
134.2267099598
 20
82.49157179
 11
134.2267099598
 21
75.8765911113
  0
POLYLINE
  8
0
 62
7
  6
CONTINUOUS
 66
1
 70
0
  0
VERTEX
  8
0
 62
7
  6
CONTINUOUS
 10
155.8029902692
 20
82.4841585683
  0
VERTEX
  8
0
 62
7
  6
CONTINUOUS
 10
155.799604343
 20
82.5423258463
  0
VERTEX
  8
0
 62
7
  6
CONTINUOUS
 10
155.7620156227
 20
82.682681351
  0
VERTEX
  8
0
 62
7
  6
CONTINUOUS
 10
155.6905436668
 20
82.8006369404
  0
VERTEX
  8
0
 62
7
  6
CONTINUOUS
 10
155.5961660865
 20
82.8901735159
  0
VERTEX
  8
0
 62
7
  6
CONTINUOUS
 10
155.4918629008
 20
82.9489550829
  0
VERTEX
  8
0
 62
7
  6
CONTINUOUS
 10
155.3950727921
 20
82.9797370376
  0
VERTEX
  8
0
 62
7
  6
CONTINUOUS
 10
155.3487328114
 20
82.9889827621
  0
SEQEND
  0
LINE
  8
0
 62
7
  6
CONTINUOUS
 10
155.8029902829
 20
82.4842353936
 11
155.8029902829
 21
75.8839275077
  0
LINE
  8
1_AXIS
 62
7
  6
CONTINUOUS
 10
168.1679548157
 20
89.6840814507
 11
168.1679548157
 21
84.1840814507
  0
LINE
  8
1_AXIS
 62
7
  6
CONTINUOUS
 10
168.1679548157
 20
74.1840814507
 11
168.1679548157
 21
68.6840814507
  0
POLYLINE
  8
0
 62
7
  6
CONTINUOUS
 66
1
 70
0
  0
VERTEX
  8
0
 62
7
  6
CONTINUOUS
 10
172.0330515332
 20
82.4785892368
  0
VERTEX
  8
0
 62
7
  6
CONTINUOUS
 10
172.032233055
 20
82.5072045902
  0
VERTEX
  8
0
 62
7
  6
CONTINUOUS
 10
172.007989904
 20
82.635003612
  0
VERTEX
  8
0
 62
7
  6
CONTINUOUS
 10
171.953621364
 20
82.7492016634
  0
VERTEX
  8
0
 62
7
  6
CONTINUOUS
 10
171.8762905474
 20
82.8425099667
  0
VERTEX
  8
0
 62
7
  6
CONTINUOUS
 10
171.7858772804
 20
82.9105423908
  0
VERTEX
  8
0
 62
7
  6
CONTINUOUS
 10
171.6934130384
 20
82.9532840368
  0
VERTEX
  8
0
 62
7
  6
CONTINUOUS
 10
171.6142651042
 20
82.9745689114
  0
SEQEND
  0
LINE
  8
0
 62
7
  6
CONTINUOUS
 10
172.0330540011
 20
82.4786844507
 11
172.0330540011
 21
75.8894784506
  0
LINE
  8
0
 62
7
  6
CONTINUOUS
 10
181.1581211243
 20
82.4754650172
 11
181.1497255979
 21
82.5667156115
  0
POLYLINE
  8
0
 62
7
  6
CONTINUOUS
 66
1
 70
0
  0
VERTEX
  8
0
 62
7
  6
CONTINUOUS
 10
182.7136221114
 20
82.4749326135
  0
VERTEX
  8
0
 62
7
  6
CONTINUOUS
 10
182.7135383689
 20
82.4840832923
  0
VERTEX
  8
0
 62
7
  6
CONTINUOUS
 10
182.7090699336
 20
82.5422490917
  0
VERTEX
  8
0
 62
7
  6
CONTINUOUS
 10
182.6980487827
 20
82.5987510244
  0
VERTEX
  8
0
 62
7
  6
CONTINUOUS
 10
182.6809278834
 20
82.6527688961
  0
VERTEX
  8
0
 62
7
  6
CONTINUOUS
 10
182.6582779575
 20
82.7035849887
  0
VERTEX
  8
0
 62
7
  6
CONTINUOUS
 10
182.6307649412
 20
82.7506008139
  0
VERTEX
  8
0
 62
7
  6
CONTINUOUS
 10
182.5991253624
 20
82.7933486445
  0
VERTEX
  8
0
 62
7
  6
CONTINUOUS
 10
182.5641408622
 20
82.8314976506
  0
VERTEX
  8
0
 62
7
  6
CONTINUOUS
 10
182.5266136644
 20
82.8648542596
  0
VERTEX
  8
0
 62
7
  6
CONTINUOUS
 10
182.4873421049
 20
82.8933590504
  0
VERTEX
  8
0
 62
7
  6
CONTINUOUS
 10
182.4470995146
 20
82.9170780251
  0
VERTEX
  8
0
 62
7
  6
CONTINUOUS
 10
182.4066182934
 20
82.9361897156
  0
VERTEX
  8
0
 62
7
  6
CONTINUOUS
 10
182.3665859526
 20
82.9509683276
  0
VERTEX
  8
0
 62
7
  6
CONTINUOUS
 10
182.3276734479
 20
82.9617641298
  0
VERTEX
  8
0
 62
7
  6
CONTINUOUS
 10
182.2925772919
 20
82.9686852812
  0
VERTEX
  8
0
 62
7
  6
CONTINUOUS
 10
182.2693150305
 20
82.9718905376
  0
VERTEX
  8
0
 62
7
  6
CONTINUOUS
 10
182.2561716149
 20
82.9733131415
  0
VERTEX
  8
0
 62
7
  6
CONTINUOUS
 10
182.2415733692
 20
82.9747544553
  0
VERTEX
  8
0
 62
7
  6
CONTINUOUS
 10
182.1979225229
 20
82.9788386022
  0
SEQEND
  0
LINE
  8
0
 62
7
  6
CONTINUOUS
 10
181.1581218753
 20
82.4754847221
 11
181.1581218753
 21
75.8926781794
  0
LINE
  8
0
 62
7
  6
CONTINUOUS
 10
182.7136281487
 20
82.4750153632
 11
182.7136281487
 21
75.893147538
  0
POLYLINE
  8
0
 62
7
  6
CONTINUOUS
 66
1
 70
0
  0
VERTEX
  8
0
 62
7
  6
CONTINUOUS
 10
181.1497255979
 20
82.5667156115
  0
VERTEX
  8
0
 62
7
  6
CONTINUOUS
 10
181.123332559
 20
82.6587283458
  0
VERTEX
  8
0
 62
7
  6
CONTINUOUS
 10
181.0816348435
 20
82.7412712797
  0
VERTEX
  8
0
 62
7
  6
CONTINUOUS
 10
181.0278618178
 20
82.812100677
  0
VERTEX
  8
0
 62
7
  6
CONTINUOUS
 10
180.9654739264
 20
82.8699121441
  0
VERTEX
  8
0
 62
7
  6
CONTINUOUS
 10
180.8979234218
 20
82.9143108179
  0
VERTEX
  8
0
 62
7
  6
CONTINUOUS
 10
180.8291104015
 20
82.9454896579
  0
VERTEX
  8
0
 62
7
  6
CONTINUOUS
 10
180.7668257769
 20
82.9638450916
  0
SEQEND
  0
ARC
  8
0
 62
7
  6
CONTINUOUS
 10
40.1922105499
 20
157.2190859335
 40
6.2
 50
98.3010367202
 51
105.5222105263
  0
ARC
  8
0
 62
7
  6
CONTINUOUS
 10
40.1922105499
 20
157.2190859335
 40
6.2
 50
81.7430816823
 51
96.3261258121
  0
ARC
  8
0
 62
7
  6
CONTINUOUS
 10
56.7102501337
 20
138.1235206686
 40
6.2
 50
117.2484051413
 51
124.4695789474
  0
ARC
  8
0
 62
7
  6
CONTINUOUS
 10
56.7102501337
 20
138.1235206686
 40
6.2
 50
100.6904501034
 51
115.2734942332
  0
ARC
  8
0
 62
7
  6
CONTINUOUS
 10
42.7853410211
 20
153.250004272
 40
6.2
 50
329.9896636616
 51
344.5727077913
  0
ARC
  8
0
 62
7
  6
CONTINUOUS
 10
42.7853410211
 20
153.250004272
 40
6.2
 50
320.7935789474
 51
328.0147527535
  0
ARC
  8
0
 62
7
  6
CONTINUOUS
 10
60.451636352
 20
135.2114828869
 40
6.2
 50
348.9370320826
 51
3.5200762124
  0
ARC
  8
0
 62
7
  6
CONTINUOUS
 10
60.451636352
 20
135.2114828869
 40
6.2
 50
339.7409473684
 51
346.9621211745
  0
ARC
  8
0
 62
7
  6
CONTINUOUS
 10
55.9311382321
 20
142.2506243315
 40
2.0
 50
47.8323128807
 51
100.6904501034
  0
ARC
  8
0
 62
7
  6
CONTINUOUS
 10
46.8340099817
 20
152.1327399134
 40
2.0
 50
344.5727077913
 51
37.430845014
  0
ARC
  8
0
 62
7
  6
CONTINUOUS
 10
64.6437124052
 20
135.4693556555
 40
2.0
 50
3.5200762124
 51
56.3782134351
  0
ARC
  8
0
 62
7
  6
CONTINUOUS
 10
51.7234113536
 20
143.1908060453
 40
0.8
 50
225.0156864448
 51
304.4695789474
  0
ARC
  8
0
 62
7
  6
CONTINUOUS
 10
47.4235091667
 20
147.8617449648
 40
0.8
 50
140.7935789474
 51
220.24747145
  0
ARC
  8
0
 62
7
  6
CONTINUOUS
 10
30.7694838182
 20
180.6433994863
 40
6.2
 50
79.3536682992
 51
86.5748421053
  0
ARC
  8
0
 62
7
  6
CONTINUOUS
 10
30.7694838182
 20
180.6433994863
 40
6.2
 50
62.7957132613
 51
77.3787573911
  0
ARC
  8
0
 62
7
  6
CONTINUOUS
 10
31.9333526191
 20
176.0473855296
 40
6.2
 50
311.0422952405
 51
325.6253393703
  0
ARC
  8
0
 62
7
  6
CONTINUOUS
 10
31.9333526191
 20
176.0473855296
 40
6.2
 50
301.8462105263
 51
309.0673843324
  0
ARC
  8
0
 62
7
  6
CONTINUOUS
 10
32.6895745917
 20
184.3788046078
 40
2.0
 50
9.9375760386
 51
62.7957132613
  0
ARC
  8
0
 62
7
  6
CONTINUOUS
 10
40.7953814489
 20
161.3755489571
 40
2.0
 50
28.8849444596
 51
81.7430816823
  0
ARC
  8
0
 62
7
  6
CONTINUOUS
 10
35.3998783838
 20
173.6760569731
 40
2.0
 50
325.6253393703
 51
18.483476593
  0
ARC
  8
0
 62
7
  6
CONTINUOUS
 10
29.9465584202
 20
187.7051794247
 40
0.8
 50
187.1209496027
 51
266.5748421053
  0
ARC
  8
0
 62
7
  6
CONTINUOUS
 10
29.4222814827
 20
194.0322611295
 40
0.8
 50
102.8988421053
 51
182.3527346078
  0
ARC
  8
0
 62
7
  6
CONTINUOUS
 10
37.1209173222
 20
163.6310357164
 40
0.8
 50
206.0683180237
 51
285.5222105263
  0
ARC
  8
0
 62
7
  6
CONTINUOUS
 10
34.5706470841
 20
169.4450662391
 40
0.8
 50
121.8462105263
 51
201.3001030289
  0
ARC
  8
0
 62
7
  6
CONTINUOUS
 10
78.5336166768
 20
125.4260044861
 40
6.2
 50
136.1957735623
 51
143.4169473684
  0
ARC
  8
0
 62
7
  6
CONTINUOUS
 10
78.5336166768
 20
125.4260044861
 40
6.2
 50
119.6378185244
 51
134.2208626542
  0
ARC
  8
0
 62
7
  6
CONTINUOUS
 10
103.29740979
 20
120.5025102867
 40
6.2
 50
155.1431419834
 51
162.3643157895
  0
ARC
  8
0
 62
7
  6
CONTINUOUS
 10
103.29740979
 20
120.5025102867
 40
6.2
 50
138.5851869455
 51
153.1682310753
  0
ARC
  8
0
 62
7
  6
CONTINUOUS
 10
83.017821392
 20
123.8865750629
 40
6.2
 50
7.8844005037
 51
22.4674446334
  0
ARC
  8
0
 62
7
  6
CONTINUOUS
 10
83.017821392
 20
123.8865750629
 40
6.2
 50
358.6883157895
 51
5.9094895956
  0
ARC
  8
0
 62
7
  6
CONTINUOUS
 10
76.4566508384
 20
129.0765130679
 40
2.0
 50
66.7796813018
 51
119.6378185244
  0
ARC
  8
0
 62
7
  6
CONTINUOUS
 10
100.1476614907
 20
123.2808345391
 40
2.0
 50
85.7270497228
 51
138.5851869455
  0
ARC
  8
0
 62
7
  6
CONTINUOUS
 10
86.8990280505
 20
125.4916404429
 40
2.0
 50
22.4674446334
 51
75.3255818561
  0
ARC
  8
0
 62
7
  6
CONTINUOUS
 10
72.1716337049
 20
128.5995064591
 40
0.8
 50
243.9630548658
 51
323.4169473684
  0
ARC
  8
0
 62
7
  6
CONTINUOUS
 10
66.5880606911
 20
131.6211850664
 40
0.8
 50
159.7409473684
 51
239.194839871
  0
ARC
  8
0
 62
7
  6
CONTINUOUS
 10
96.2497021975
 20
121.4383306753
 40
0.8
 50
262.9104232869
 51
342.3643157895
  0
ARC
  8
0
 62
7
  6
CONTINUOUS
 10
89.9875251308
 20
122.4833032071
 40
0.8
 50
178.6883157895
 51
258.1422082921
  0
ARC
  8
0
 62
7
  6
CONTINUOUS
 10
36.4148243857
 20
230.1307067639
 40
6.2
 50
41.4589314571
 51
48.6801052632
  0
ARC
  8
0
 62
7
  6
CONTINUOUS
 10
36.4148243857
 20
230.1307067639
 40
6.2
 50
24.9009764192
 51
39.4840205489
  0
ARC
  8
0
 62
7
  6
CONTINUOUS
 10
29.4631685886
 20
205.8580734878
 40
6.2
 50
60.4062998781
 51
67.6274736842
  0
ARC
  8
0
 62
7
  6
CONTINUOUS
 10
29.4631685886
 20
205.8580734878
 40
6.2
 50
43.8483448402
 51
58.43138897
  0
ARC
  8
0
 62
7
  6
CONTINUOUS
 10
34.5103502042
 20
225.7889429555
 40
6.2
 50
273.1475583984
 51
287.7306025282
  0
ARC
  8
0
 62
7
  6
CONTINUOUS
 10
34.5103502042
 20
225.7889429555
 40
6.2
 50
263.9514736842
 51
271.1726474903
  0
ARC
  8
0
 62
7
  6
CONTINUOUS
 10
29.0716524753
 20
201.1331766625
 40
6.2
 50
292.0949268195
 51
306.6779709492
  0
ARC
  8
0
 62
7
  6
CONTINUOUS
 10
29.0716524753
 20
201.1331766625
 40
6.2
 50
282.8988421053
 51
290.1200159114
  0
ARC
  8
0
 62
7
  6
CONTINUOUS
 10
40.2243791095
 20
231.8991221017
 40
2.0
 50
332.0428391965
 51
24.9009764192
  0
ARC
  8
0
 62
7
  6
CONTINUOUS
 10
32.4921076079
 20
208.7676316015
 40
2.0
 50
350.9902076175
 51
43.8483448402
  0
ARC
  8
0
 62
7
  6
CONTINUOUS
 10
35.7894259666
 20
221.788447337
 40
2.0
 50
287.7306025282
 51
340.5887397509
  0
ARC
  8
0
 62
7
  6
CONTINUOUS
 10
31.5803831888
 20
197.7647541523
 40
2.0
 50
306.6779709492
 51
359.5361081719
  0
ARC
  8
0
 62
7
  6
CONTINUOUS
 10
30.9777877561
 20
212.8044301505
 40
0.8
 50
168.1735811816
 51
247.6274736842
  0
ARC
  8
0
 62
7
  6
CONTINUOUS
 10
32.5363176604
 20
218.9589255599
 40
0.8
 50
83.9514736842
 51
163.4053661868
  0
ARC
  8
0
 62
7
  6
CONTINUOUS
 10
50.871131438
 20
250.8309828705
 40
6.2
 50
22.511563036
 51
29.7327368421
  0
ARC
  8
0
 62
7
  6
CONTINUOUS
 10
50.871131438
 20
250.8309828705
 40
6.2
 50
5.9536079981
 51
20.5366521279
  0
ARC
  8
0
 62
7
  6
CONTINUOUS
 10
47.6600785167
 20
247.342849557
 40
6.2
 50
254.2001899774
 51
268.7832341071
  0
ARC
  8
0
 62
7
  6
CONTINUOUS
 10
47.6600785167
 20
247.342849557
 40
6.2
 50
245.0041052632
 51
252.2252790693
  0
ARC
  8
0
 62
7
  6
CONTINUOUS
 10
55.0484775004
 20
251.2666201908
 40
2.0
 50
313.0954707754
 51
5.9536079981
  0
ARC
  8
0
 62
7
  6
CONTINUOUS
 10
65.648075544
 20
259.5166184994
 40
2.0
 50
249.8358656861
 51
302.6940029088
  0
ARC
  8
0
 62
7
  6
CONTINUOUS
 10
47.5708916224
 20
243.1437966045
 40
2.0
 50
268.7832341071
 51
321.6413713298
  0
ARC
  8
0
 62
7
  6
CONTINUOUS
 10
56.3329193485
 20
255.3823359582
 40
0.8
 50
130.2788443395
 51
209.7327368421
  0
ARC
  8
0
 62
7
  6
CONTINUOUS
 10
61.3429877517
 20
259.2818287203
 40
0.8
 50
46.0567368421
 51
125.5106293447
  0
ARC
  8
0
 62
7
  6
CONTINUOUS
 10
40.1028556303
 20
236.2088946228
 40
0.8
 50
149.2262127606
 51
228.6801052632
  0
ARC
  8
0
 62
7
  6
CONTINUOUS
 10
43.5753014781
 20
241.5238686623
 40
0.8
 50
65.0041052632
 51
144.4579977657
  0
ARC
  8
0
 62
7
  6
CONTINUOUS
 10
81.5556135772
 20
197.1648954833
 40
4.0
 50
75.0
 51
285.0
  0
ARC
  8
0
 62
7
  6
CONTINUOUS
 10
95.3879548157
 20
273.1718845549
 40
6.2
 50
344.6168261939
 51
351.838
  0
ARC
  8
0
 62
7
  6
CONTINUOUS
 10
95.3879548157
 20
273.1718845549
 40
6.2
 50
328.058871156
 51
342.6419152858
  0
ARC
  8
0
 62
7
  6
CONTINUOUS
 10
71.2655245636
 20
265.7157056936
 40
6.2
 50
3.564194615
 51
10.7853684211
  0
ARC
  8
0
 62
7
  6
CONTINUOUS
 10
71.2655245636
 20
265.7157056936
 40
6.2
 50
347.0062395771
 51
1.5892837068
  0
ARC
  8
0
 62
7
  6
CONTINUOUS
 10
90.711527053
 20
272.3915267804
 40
6.2
 50
216.3054531353
 51
230.888497265
  0
ARC
  8
0
 62
7
  6
CONTINUOUS
 10
90.711527053
 20
272.3915267804
 40
6.2
 50
207.1093684211
 51
214.3305422271
  0
ARC
  8
0
 62
7
  6
CONTINUOUS
 10
67.0958603112
 20
263.4591962434
 40
6.2
 50
235.2528215563
 51
249.8358656861
  0
ARC
  8
0
 62
7
  6
CONTINUOUS
 10
67.0958603112
 20
263.4591962434
 40
6.2
 50
226.0567368421
 51
233.2779106482
  0
ARC
  8
0
 62
7
  6
CONTINUOUS
 10
98.9520417956
 20
270.9498845549
 40
2.0
 50
275.2007339333
 51
328.058871156
  0
ARC
  8
0
 62
7
  6
CONTINUOUS
 10
75.3579817006
 20
264.7713569331
 40
2.0
 50
294.1481023544
 51
347.0062395771
  0
ARC
  8
0
 62
7
  6
CONTINUOUS
 10
88.0620343571
 20
269.1326637188
 40
2.0
 50
230.888497265
 51
283.7466344877
  0
ARC
  8
0
 62
7
  6
CONTINUOUS
 10
102.493571836
 20
273.4088420804
 40
0.8
 50
92.3841074974
 51
171.838
  0
ARC
  8
0
 62
7
  6
CONTINUOUS
 10
77.9091996716
 20
268.2470142815
 40
0.8
 50
111.3314759185
 51
190.785368421
  0
ARC
  8
0
 62
7
  6
CONTINUOUS
 10
83.9139719795
 20
270.3084552187
 40
0.8
 50
27.1093684211
 51
106.5632609236
  0
ARC
  8
0
 62
7
  6
CONTINUOUS
 10
128.3180882394
 20
123.8865750629
 40
6.2
 50
174.0905104044
 51
181.3116842105
  0
ARC
  8
0
 62
7
  6
CONTINUOUS
 10
128.3180882394
 20
123.8865750629
 40
6.2
 50
157.5325553666
 51
172.1155994963
  0
ARC
  8
0
 62
7
  6
CONTINUOUS
 10
108.0384998414
 20
120.5025102867
 40
6.2
 50
26.8317689247
 51
41.4148130545
  0
ARC
  8
0
 62
7
  6
CONTINUOUS
 10
108.0384998414
 20
120.5025102867
 40
6.2
 50
17.6356842105
 51
24.8568580166
  0
ARC
  8
0
 62
7
  6
CONTINUOUS
 10
132.8022929545
 20
125.4260044861
 40
6.2
 50
45.7791373458
 51
60.3621814756
  0
ARC
  8
0
 62
7
  6
CONTINUOUS
 10
132.8022929545
 20
125.4260044861
 40
6.2
 50
36.5830526316
 51
43.8042264377
  0
ARC
  8
0
 62
7
  6
CONTINUOUS
 10
124.4368815809
 20
125.4916404429
 40
2.0
 50
104.6744181439
 51
157.5325553665
  0
ARC
  8
0
 62
7
  6
CONTINUOUS
 10
111.1882481407
 20
123.2808345391
 40
2.0
 50
41.4148130545
 51
94.2729502772
  0
ARC
  8
0
 62
7
  6
CONTINUOUS
 10
134.879258793
 20
129.0765130679
 40
2.0
 50
60.3621814756
 51
113.2203186982
  0
ARC
  8
0
 62
7
  6
CONTINUOUS
 10
121.3483845006
 20
122.4833032071
 40
0.8
 50
281.8577917079
 51
1.3116842105
  0
ARC
  8
0
 62
7
  6
CONTINUOUS
 10
115.0862074339
 20
121.4383306753
 40
0.8
 50
197.6356842105
 51
277.0895767131
  0
ARC
  8
0
 62
7
  6
CONTINUOUS
 10
139.1642759265
 20
128.5995064591
 40
0.8
 50
216.5830526316
 51
296.0369451342
  0
ARC
  8
0
 62
7
  6
CONTINUOUS
 10
105.6679548157
 20
173.0525542448
 40
4.0
 50
165.0
 51
15.0
  0
ARC
  8
0
 62
7
  6
CONTINUOUS
 10
171.1436990815
 20
157.2190859335
 40
6.2
 50
74.4777894737
 51
81.6989632798
  0
ARC
  8
0
 62
7
  6
CONTINUOUS
 10
171.1436990815
 20
157.2190859335
 40
6.2
 50
83.6738741879
 51
98.2569183177
  0
ARC
  8
0
 62
7
  6
CONTINUOUS
 10
150.8842732794
 20
135.2114828869
 40
6.2
 50
193.0378788255
 51
200.2590526316
  0
ARC
  8
0
 62
7
  6
CONTINUOUS
 10
150.8842732794
 20
135.2114828869
 40
6.2
 50
176.4799237876
 51
191.0629679174
  0
ARC
  8
0
 62
7
  6
CONTINUOUS
 10
168.5505686103
 20
153.250004272
 40
6.2
 50
211.9852472465
 51
219.2064210526
  0
ARC
  8
0
 62
7
  6
CONTINUOUS
 10
168.5505686103
 20
153.250004272
 40
6.2
 50
195.4272922087
 51
210.0103363384
  0
ARC
  8
0
 62
7
  6
CONTINUOUS
 10
154.6256594977
 20
138.1235206686
 40
6.2
 50
64.7265057668
 51
79.3095498966
  0
ARC
  8
0
 62
7
  6
CONTINUOUS
 10
154.6256594977
 20
138.1235206686
 40
6.2
 50
55.5304210526
 51
62.7515948587
  0
ARC
  8
0
 62
7
  6
CONTINUOUS
 10
146.6921972262
 20
135.4693556555
 40
2.0
 50
123.6217865649
 51
176.4799237876
  0
ARC
  8
0
 62
7
  6
CONTINUOUS
 10
164.5018996497
 20
152.1327399134
 40
2.0
 50
142.569154986
 51
195.4272922087
  0
ARC
  8
0
 62
7
  6
CONTINUOUS
 10
155.4047713993
 20
142.2506243315
 40
2.0
 50
79.3095498966
 51
132.1676871193
  0
ARC
  8
0
 62
7
  6
CONTINUOUS
 10
144.7478489403
 20
131.6211850664
 40
0.8
 50
300.805160129
 51
20.2590526316
  0
ARC
  8
0
 62
7
  6
CONTINUOUS
 10
163.9124004647
 20
147.8617449648
 40
0.8
 50
319.7525285501
 51
39.2064210526
  0
ARC
  8
0
 62
7
  6
CONTINUOUS
 10
159.6124982778
 20
143.1908060453
 40
0.8
 50
235.5304210526
 51
314.9843135552
  0
ARC
  8
0
 62
7
  6
CONTINUOUS
 10
180.5664258132
 20
180.6433994863
 40
6.2
 50
93.4251578947
 51
100.6463317008
  0
ARC
  8
0
 62
7
  6
CONTINUOUS
 10
180.5664258132
 20
180.6433994863
 40
6.2
 50
102.6212426089
 51
117.2042867387
  0
ARC
  8
0
 62
7
  6
CONTINUOUS
 10
179.4025570123
 20
176.0473855296
 40
6.2
 50
214.3746606297
 51
228.9577047595
  0
ARC
  8
0
 62
7
  6
CONTINUOUS
 10
179.4025570123
 20
176.0473855296
 40
6.2
 50
230.9326156676
 51
238.1537894737
  0
ARC
  8
0
 62
7
  6
CONTINUOUS
 10
178.6463350397
 20
184.3788046078
 40
2.0
 50
117.2042867387
 51
170.0624239614
  0
ARC
  8
0
 62
7
  6
CONTINUOUS
 10
170.5405281825
 20
161.3755489571
 40
2.0
 50
98.2569183177
 51
151.1150555404
  0
ARC
  8
0
 62
7
  6
CONTINUOUS
 10
175.9360312476
 20
173.6760569731
 40
2.0
 50
161.516523407
 51
214.3746606297
  0
ARC
  8
0
 62
7
  6
CONTINUOUS
 10
181.3893512112
 20
187.7051794247
 40
0.8
 50
273.4251578947
 51
352.8790503973
  0
ARC
  8
0
 62
7
  6
CONTINUOUS
 10
181.9136281487
 20
194.0322611295
 40
0.8
 50
357.6472653922
 51
77.1011578947
  0
ARC
  8
0
 62
7
  6
CONTINUOUS
 10
174.2149923092
 20
163.6310357164
 40
0.8
 50
254.4777894737
 51
333.9316819763
  0
ARC
  8
0
 62
7
  6
CONTINUOUS
 10
176.7652625472
 20
169.4450662391
 40
0.8
 50
338.6998969711
 51
58.1537894737
  0
ARC
  8
0
 62
7
  6
CONTINUOUS
 10
105.6679548157
 20
197.1648954833
 40
72.09
 50
95.2007339333
 51
103.7466344877
  0
ARC
  8
0
 62
7
  6
CONTINUOUS
 10
105.6679548157
 20
197.1648954833
 40
72.09
 50
76.2533655123
 51
84.7992660667
  0
ARC
  8
0
 62
7
  6
CONTINUOUS
 10
105.6679548157
 20
197.1648954833
 40
72.09
 50
114.1481023544
 51
122.6940029088
  0
ARC
  8
0
 62
7
  6
CONTINUOUS
 10
105.6679548157
 20
197.1648954833
 40
72.09
 50
133.0954707754
 51
141.6413713298
  0
ARC
  8
0
 62
7
  6
CONTINUOUS
 10
105.6679548157
 20
197.1648954833
 40
72.09
 50
152.0428391965
 51
160.5887397509
  0
ARC
  8
0
 62
7
  6
CONTINUOUS
 10
105.6679548157
 20
197.1648954833
 40
72.09
 50
170.9902076175
 51
179.5361081719
  0
ARC
  8
0
 62
7
  6
CONTINUOUS
 10
105.6679548157
 20
197.1648954833
 40
72.09
 50
189.9375760386
 51
198.483476593
  0
ARC
  8
0
 62
7
  6
CONTINUOUS
 10
105.6679548157
 20
197.1648954833
 40
72.09
 50
57.3059970912
 51
65.8518976456
  0
ARC
  8
0
 62
7
  6
CONTINUOUS
 10
105.6679548157
 20
197.1648954833
 40
72.09
 50
208.8849444596
 51
217.430845014
  0
ARC
  8
0
 62
7
  6
CONTINUOUS
 10
105.6679548157
 20
197.1648954833
 40
72.09
 50
227.8323128807
 51
236.3782134351
  0
ARC
  8
0
 62
7
  6
CONTINUOUS
 10
105.6679548157
 20
197.1648954833
 40
72.09
 50
38.3586286702
 51
46.9045292246
  0
ARC
  8
0
 62
7
  6
CONTINUOUS
 10
105.6679548157
 20
197.1648954833
 40
72.09
 50
246.7796813018
 51
255.3255818561
  0
ARC
  8
0
 62
7
  6
CONTINUOUS
 10
105.6679548157
 20
197.1648954833
 40
72.09
 50
265.7270497228
 51
274.2729502772
  0
ARC
  8
0
 62
7
  6
CONTINUOUS
 10
105.6679548157
 20
197.1648954833
 40
72.09
 50
19.4112602491
 51
27.9571608035
  0
ARC
  8
0
 62
7
  6
CONTINUOUS
 10
105.6679548157
 20
197.1648954833
 40
72.09
 50
284.6744181439
 51
293.2203186982
  0
ARC
  8
0
 62
7
  6
CONTINUOUS
 10
105.6679548157
 20
197.1648954833
 40
72.09
 50
0.4638918281
 51
9.0097923825
  0
ARC
  8
0
 62
7
  6
CONTINUOUS
 10
105.6679548157
 20
197.1648954833
 40
72.09
 50
303.6217865649
 51
312.1676871193
  0
ARC
  8
0
 62
7
  6
CONTINUOUS
 10
105.6679548157
 20
197.1648954833
 40
72.09
 50
322.569154986
 51
331.1150555404
  0
ARC
  8
0
 62
7
  6
CONTINUOUS
 10
105.6679548157
 20
197.1648954833
 40
72.09
 50
341.516523407
 51
350.0624239614
  0
CIRCLE
  8
1_AXIS
 62
7
  6
CONTINUOUS
 10
105.6679548157
 20
197.1648954833
 40
62.5
  0
ARC
  8
0
 62
7
  6
CONTINUOUS
 10
105.6679548157
 20
221.2772367217
 40
4.0
 50
345.0
 51
195.0
  0
ARC
  8
0
 62
7
  6
CONTINUOUS
 10
129.7802960542
 20
197.1648954833
 40
4.0
 50
255.0
 51
105.0
  0
ARC
  8
0
 62
7
  6
CONTINUOUS
 10
115.9479548157
 20
273.1718845549
 40
6.2
 50
197.3580847142
 51
211.941128844
  0
ARC
  8
0
 62
7
  6
CONTINUOUS
 10
115.9479548157
 20
273.1718845549
 40
6.2
 50
188.162
 51
195.3831738061
  0
ARC
  8
0
 62
7
  6
CONTINUOUS
 10
140.0703850678
 20
265.7157056936
 40
6.2
 50
169.2146315789
 51
176.435805385
  0
ARC
  8
0
 62
7
  6
CONTINUOUS
 10
140.0703850678
 20
265.7157056936
 40
6.2
 50
178.4107162932
 51
192.9937604229
  0
ARC
  8
0
 62
7
  6
CONTINUOUS
 10
120.6243825784
 20
272.3915267804
 40
6.2
 50
309.111502735
 51
323.6945468647
  0
ARC
  8
0
 62
7
  6
CONTINUOUS
 10
120.6243825784
 20
272.3915267804
 40
6.2
 50
325.6694577729
 51
332.8906315789
  0
ARC
  8
0
 62
7
  6
CONTINUOUS
 10
112.3838678358
 20
270.9498845549
 40
2.0
 50
211.941128844
 51
264.7992660667
  0
ARC
  8
0
 62
7
  6
CONTINUOUS
 10
135.9779279308
 20
264.7713569331
 40
2.0
 50
192.9937604229
 51
245.8518976456
  0
ARC
  8
0
 62
7
  6
CONTINUOUS
 10
123.2738752743
 20
269.1326637188
 40
2.0
 50
256.2533655123
 51
309.111502735
  0
CIRCLE
  8
0
 62
7
  6
CONTINUOUS
 10
105.6679548157
 20
262.1648954833
 40
0.8660254038
  0
ARC
  8
0
 62
7
  6
CONTINUOUS
 10
108.8423377954
 20
273.4088420804
 40
0.8
 50
8.162
 51
87.6158925026
  0
ARC
  8
0
 62
7
  6
CONTINUOUS
 10
133.4267099598
 20
268.2470142815
 40
0.8
 50
349.214631579
 51
68.6685240815
  0
ARC
  8
0
 62
7
  6
CONTINUOUS
 10
127.4219376519
 20
270.3084552187
 40
0.8
 50
73.4367390764
 51
152.8906315789
  0
ARC
  8
0
 62
7
  6
CONTINUOUS
 10
174.9210852457
 20
230.1307067639
 40
6.2
 50
131.3198947368
 51
138.5410685429
  0
ARC
  8
0
 62
7
  6
CONTINUOUS
 10
174.9210852457
 20
230.1307067639
 40
6.2
 50
140.5159794511
 51
155.0990235808
  0
ARC
  8
0
 62
7
  6
CONTINUOUS
 10
181.8727410428
 20
205.8580734878
 40
6.2
 50
112.3725263158
 51
119.5937001219
  0
ARC
  8
0
 62
7
  6
CONTINUOUS
 10
181.8727410428
 20
205.8580734878
 40
6.2
 50
121.56861103
 51
136.1516551598
  0
ARC
  8
0
 62
7
  6
CONTINUOUS
 10
176.8255594272
 20
225.7889429555
 40
6.2
 50
252.2693974718
 51
266.8524416016
  0
ARC
  8
0
 62
7
  6
CONTINUOUS
 10
176.8255594272
 20
225.7889429555
 40
6.2
 50
268.8273525097
 51
276.0485263158
  0
ARC
  8
0
 62
7
  6
CONTINUOUS
 10
182.2642571561
 20
201.1331766625
 40
6.2
 50
233.3220290508
 51
247.9050731805
  0
ARC
  8
0
 62
7
  6
CONTINUOUS
 10
182.2642571561
 20
201.1331766625
 40
6.2
 50
249.8799840886
 51
257.1011578947
  0
ARC
  8
0
 62
7
  6
CONTINUOUS
 10
171.1115305219
 20
231.8991221017
 40
2.0
 50
155.0990235808
 51
207.9571608035
  0
ARC
  8
0
 62
7
  6
CONTINUOUS
 10
178.8438020234
 20
208.7676316015
 40
2.0
 50
136.1516551598
 51
189.0097923825
  0
ARC
  8
0
 62
7
  6
CONTINUOUS
 10
175.5464836648
 20
221.788447337
 40
2.0
 50
199.4112602491
 51
252.2693974718
  0
ARC
  8
0
 62
7
  6
CONTINUOUS
 10
179.7555264426
 20
197.7647541523
 40
2.0
 50
180.4638918281
 51
233.3220290508
  0
ARC
  8
0
 62
7
  6
CONTINUOUS
 10
180.3581218753
 20
212.8044301505
 40
0.8
 50
292.3725263158
 51
11.8264188184
  0
ARC
  8
0
 62
7
  6
CONTINUOUS
 10
178.799591971
 20
218.9589255599
 40
0.8
 50
16.5946338132
 51
96.0485263158
  0
ARC
  8
0
 62
7
  6
CONTINUOUS
 10
160.4647781934
 20
250.8309828705
 40
6.2
 50
150.2672631579
 51
157.488436964
  0
ARC
  8
0
 62
7
  6
CONTINUOUS
 10
160.4647781934
 20
250.8309828705
 40
6.2
 50
159.4633478721
 51
174.0463920019
  0
ARC
  8
0
 62
7
  6
CONTINUOUS
 10
144.2400493202
 20
263.4591962434
 40
6.2
 50
290.1641343139
 51
304.7471784437
  0
ARC
  8
0
 62
7
  6
CONTINUOUS
 10
144.2400493202
 20
263.4591962434
 40
6.2
 50
306.7220893518
 51
313.9432631579
  0
ARC
  8
0
 62
7
  6
CONTINUOUS
 10
163.6758311147
 20
247.342849557
 40
6.2
 50
271.2167658929
 51
285.7998100226
  0
ARC
  8
0
 62
7
  6
CONTINUOUS
 10
163.6758311147
 20
247.342849557
 40
6.2
 50
287.7747209307
 51
294.9958947368
  0
ARC
  8
0
 62
7
  6
CONTINUOUS
 10
156.287432131
 20
251.2666201908
 40
2.0
 50
174.0463920019
 51
226.9045292246
  0
ARC
  8
0
 62
7
  6
CONTINUOUS
 10
145.6878340874
 20
259.5166184994
 40
2.0
 50
237.3059970912
 51
290.1641343139
  0
ARC
  8
0
 62
7
  6
CONTINUOUS
 10
163.765018009
 20
243.1437966045
 40
2.0
 50
218.3586286702
 51
271.2167658929
  0
ARC
  8
0
 62
7
  6
CONTINUOUS
 10
155.0029902829
 20
255.3823359582
 40
0.8
 50
330.2672631579
 51
49.7211556605
  0
ARC
  8
0
 62
7
  6
CONTINUOUS
 10
149.9929218797
 20
259.2818287203
 40
0.8
 50
54.4893706553
 51
133.9432631579
  0
ARC
  8
0
 62
7
  6
CONTINUOUS
 10
171.2330540011
 20
236.2088946228
 40
0.8
 50
311.3198947368
 51
30.7737872394
  0
ARC
  8
0
 62
7
  6
CONTINUOUS
 10
167.7606081533
 20
241.5238686623
 40
0.8
 50
35.5420022343
 51
114.9958947368
  0
ARC
  8
1_AXIS
 62
7
  6
CONTINUOUS
 10
166.1679548157
 20
89.6840814507
 40
2.0
 50
0.0
 51
90.0
  0
ARC
  8
1_AXIS
 62
7
  6
CONTINUOUS
 10
166.1679548157
 20
68.6840814507
 40
2.0
 50
270.0
 51
360.0
  0
ARC
  8
1_AXIS
 62
7
  6
CONTINUOUS
 10
45.1679548157
 20
89.6840814507
 40
2.0
 50
90.0
 51
180.0
  0
ARC
  8
1_AXIS
 62
7
  6
CONTINUOUS
 10
45.1679548157
 20
68.6840814507
 40
2.0
 50
180.0
 51
270.0
  0
ARC
  8
1_AXIS
 62
7
  6
CONTINUOUS
 10
169.1679548157
 20
84.1840814507
 40
1.0
 50
180.0
 51
270.0
  0
ARC
  8
1_AXIS
 62
7
  6
CONTINUOUS
 10
169.1679548157
 20
74.1840814507
 40
1.0
 50
90.0
 51
180.0
  0
ARC
  8
1_AXIS
 62
7
  6
CONTINUOUS
 10
42.1679548157
 20
84.1840814507
 40
1.0
 50
270.0
 51
360.0
  0
ARC
  8
1_AXIS
 62
7
  6
CONTINUOUS
 10
42.1679548157
 20
74.1840814507
 40
1.0
 50
0.0
 51
90.0
  0
ENDSEC
  0
EOF
