  0
SECTION
  2
HEADER
  9
$EXTMAX
 10
210.0
 20
297.0
 30
0.0
  9
$EXTMIN
 10
0.0
 20
0.0
 30
0.0
  9
$LIMMIN
 10
0.0
 20
0.0
  9
$LIMMAX
 10
210.0
 20
297.0
  9
$VIEWCTR
 10
105.0
 20
148.5
  9
$VIEWSIZE
 40
297.0
  9
$CLAYER
  8
0
  9
$LTSCALE
 40
19.36
  9
$CELTYPE
  6
BYLAYER
  9
$DIMSCALE
 40
1.0
  9
$DIMASZ
 40
3.5
  9
$DIMEXO
 40
1.0
  9
$DIMDLI
 40
13.376
  9
$DIMEXE
 40
2.0
  9
$DIMCEN
 40
3.168
  9
$DIMLFAC
 40
1.0
  9
$DIMBLK
  1
_FILLED
  9
$DIMALT
 70
0
  9
$DIMALTF
 40
0.0393700787
  9
$DIMTXT
 40
3.5
  9
$AUNITS
 70
0
  9
$PDMODE
 70
3
  9
$PDSIZE
 40
0.3125
  9
$TILEMODE
 70
1
  0
ENDSEC
  0
SECTION
  2
TABLES
  0
TABLE
  2
LTYPE
 70
6
  0
LTYPE
  2
BYBLOCK
 70
0
  3

 72
65
 73
0
 40
0.0
  0
LTYPE
  2
BYLAYER
 70
0
  3

 72
65
 73
0
 40
0.0
  0
LTYPE
  2
CONTINUOUS
 70
64
  3
Solid line
 72
65
 73
0
 40
0.0
  0
LTYPE
  2
CENTER
 70
64
  3
____ _ ____ _ ____ _ ____ _ ____ _ ____ _ ____
 72
65
 73
4
 40
0.6
 49
0.375
 49
-0.075
 49
0.075
 49
-0.075
  0
LTYPE
  2
HIDDEN
 70
64
  3
- - - - - - - - - - - - - - - - - - - -
 72
65
 73
2
 40
0.2
 49
0.1
 49
-0.1
  0
LTYPE
  2
PHANTOM
 70
64
  3
_____ _ _ _____ _ _ _____ _ _ _____
 72
65
 73
6
 40
0.8
 49
0.45
 49
-0.05
 49
0.1
 49
-0.05
 49
0.1
 49
-0.05
  0
LTYPE
  2
DOT
 70
64
  3
. . . . . . . . . . . . . . . . . . . .
 72
65
 73
2
 40
0.2
 49
0.1
 49
-0.1
  0
LTYPE
  2
DASHED
 70
64
  3
- - - - - - - - - - - - - - - - - - - -
 72
65
 73
2
 40
0.2
 49
0.1
 49
-0.1
  0
ENDTAB
  0
TABLE
  2
LAYER
 70
36
  0
LAYER
  2
0
 70
0
 62
7
  6
CONTINUOUS
  0
LAYER
  2
DEFAULT_1
 70
0
 62
7
  6
CENTER
  0
LAYER
  2
DEFAULT_2
 70
0
 62
8
  6
HIDDEN
  0
LAYER
  2
DEFAULT_3
 70
0
 62
7
  6
PHANTOM
  0
LAYER
  2
1_AXIS
 70
0
 62
7
  6
CONTINUOUS
  0
LAYER
  2
1_CSYS
 70
0
 62
7
  6
CONTINUOUS
  0
LAYER
  2
1_DATUM_PLANE
 70
0
 62
7
  6
CONTINUOUS
  0
LAYER
  2
2_FEATURE
 70
0
 62
7
  6
CONTINUOUS
  0
LAYER
  2
6_DIM
 70
0
 62
7
  6
CONTINUOUS
  0
LAYER
  2
AXES
 70
0
 62
7
  6
CONTINUOUS
  0
LAYER
  2
CSYS
 70
0
 62
7
  6
CONTINUOUS
  0
LAYER
  2
PITCH
 70
0
 62
7
  6
CONTINUOUS
  0
LAYER
  2
PLANES
 70
0
 62
7
  6
CONTINUOUS
  0
LAYER
  2
QUILTS
 70
0
 62
7
  6
CONTINUOUS
  0
LAYER
  2
SQ
 70
0
 62
7
  6
CONTINUOUS
  0
ENDTAB
  0
TABLE
  2
STYLE
 70
1
  0
STYLE
  2
STANDARD
 70
0
 40
0.0
 41
0.8
 50
0.0
 71
0
 42
0.2
  3
txt
  4

  0
STYLE
  2
TEXTSTYLE_1
 70
0
 40
0.0
 41
0.8
 50
0.0
 71
0
 42
0.2
  3
gdt
  4

  0
STYLE
  2
TEXTSTYLE_2
 70
0
 40
0.0
 41
0.6
 50
0.0
 71
0
 42
0.2
  3
txt
  4

  0
STYLE
  2
TEXTSTYLE_3
 70
0
 40
0.0
 41
1.0
 50
0.0
 71
0
 42
0.2
  3
ftb_____.ttf
  4

  0
STYLE
  2
TEXTSTYLE_4
 70
0
 40
0.0
 41
1.0
 50
0.0
 71
0
 42
0.2
  3
fti_____.ttf
  4

  0
STYLE
  2
TEXTSTYLE_5
 70
0
 40
0.0
 41
1.0
 50
0.0
 71
0
 42
0.2
  3
frutiger light.ttf
  4

  0
STYLE
  2
TEXTSTYLE_6
 70
0
 40
0.0
 41
0.7
 50
0.0
 71
0
 42
0.2
  3
txt
  4

  0
STYLE
  2
TEXTSTYLE_7
 70
0
 40
0.0
 41
0.6
 50
0.0
 71
0
 42
0.2
  3
txt
  4

  0
ENDTAB
  0
ENDSEC
  0
SECTION
  2
BLOCKS
  0
BLOCK
  8
0
 62
2
  6
CONTINUOUS
  2
UNI_LOGO2_BL1
 70
64
 10
173.5956734183
 20
35.5937998301
  0
TEXT
  8
0
 62
7
  6
CONTINUOUS
 10
164.6539584268
 20
30.6865562072
  7
TEXTSTYLE_4
 40
1.0655737705
  1
The brand for plastic modular belts and chains
 41
1.0
 72
0
  0
LINE
  8
0
 62
7
  6
CONTINUOUS
 10
149.5737418074
 20
36.1675703219
 11
149.5737418074
 21
34.0364227809
  0
LINE
  8
0
 62
7
  6
CONTINUOUS
 10
149.8628043005
 20
31.0454914852
 11
149.8628043005
 21
31.1422825445
  0
LINE
  8
0
 62
7
  6
CONTINUOUS
 10
149.5737418074
 20
31.1100188581
 11
149.6315543091
 21
30.9164367395
  0
LINE
  8
0
 62
7
  6
CONTINUOUS
 10
150.9671844304
 20
33.9544555678
 11
150.9671844304
 21
36.1675703219
  0
LINE
  8
0
 62
7
  6
CONTINUOUS
 10
151.8862417523
 20
32.1101932727
 11
151.8862417523
 21
30.5937998301
  0
LINE
  8
0
 62
7
  6
CONTINUOUS
 10
152.1753043074
 20
30.5937998301
 11
152.1753043074
 21
31.3358647082
  0
LINE
  8
0
 62
7
  6
CONTINUOUS
 10
152.1753043074
 20
31.4649194539
 11
152.1753043074
 21
32.1101932727
  0
LINE
  8
0
 62
7
  6
CONTINUOUS
 10
149.6315543091
 20
31.3036010218
 11
149.5737418074
 21
31.1100188581
  0
LINE
  8
0
 62
7
  6
CONTINUOUS
 10
149.9784292936
 20
30.8841730531
 11
149.8628043005
 21
31.0454914852
  0
LINE
  8
0
 62
7
  6
CONTINUOUS
 10
151.0768668626
 20
31.400392081
 11
151.1346793074
 21
31.3036010218
  0
LINE
  8
0
 62
7
  6
CONTINUOUS
 10
151.4237418626
 20
31.3036010218
 11
151.3659292523
 21
31.4326557675
  0
LINE
  8
0
 62
7
  6
CONTINUOUS
 10
152.852430332
 20
36.1675703219
 11
152.852430332
 21
34.3642916334
  0
LINE
  8
0
 62
7
  6
CONTINUOUS
 10
152.852430332
 20
33.0528162235
 11
152.852430332
 21
32.3970785186
  0
LINE
  8
0
 62
7
  6
CONTINUOUS
 10
153.2159293074
 20
31.2390736489
 11
153.2159293074
 21
30.5937998301
  0
LINE
  8
0
 62
7
  6
CONTINUOUS
 10
153.5049916972
 20
30.5937998301
 11
153.5049916972
 21
31.2390736489
  0
LINE
  8
0
 62
7
  6
CONTINUOUS
 10
149.8628043005
 20
31.1422825445
 11
149.9206168074
 21
31.2713373354
  0
LINE
  8
0
 62
7
  6
CONTINUOUS
 10
149.6315543091
 20
30.9164367395
 11
149.7471793074
 21
30.7873819712
  0
LINE
  8
0
 62
7
  6
CONTINUOUS
 10
153.1581166972
 20
31.3681283946
 11
153.2159293074
 21
31.2390736489
  0
LINE
  8
0
 62
7
  6
CONTINUOUS
 10
153.9674919177
 20
30.8841730531
 11
154.0253041972
 21
30.7551182848
  0
LINE
  8
0
 62
7
  6
CONTINUOUS
 10
153.5049916972
 20
31.2390736489
 11
153.4471794177
 21
31.400392081
  0
LINE
  8
0
 62
7
  6
CONTINUOUS
 10
153.9674919177
 20
31.4326557675
 11
153.9674919177
 21
31.3681283946
  0
LINE
  8
0
 62
7
  6
CONTINUOUS
 10
153.9674919177
 20
30.9809641124
 11
153.9674919177
 21
30.8841730531
  0
LINE
  8
0
 62
7
  6
CONTINUOUS
 10
154.245872955
 20
32.3970785186
 11
154.245872955
 21
36.1675703219
  0
LINE
  8
0
 62
7
  6
CONTINUOUS
 10
154.2565543074
 20
30.8519093441
 11
154.2565543074
 21
30.9164367395
  0
LINE
  8
0
 62
7
  6
CONTINUOUS
 10
154.5737418074
 20
36.1675703219
 11
154.5737418074
 21
32.3970785186
  0
LINE
  8
0
 62
7
  6
CONTINUOUS
 10
151.3659292523
 20
30.7873819712
 11
151.4237418626
 21
30.9164367395
  0
LINE
  8
0
 62
7
  6
CONTINUOUS
 10
155.759679528
 20
30.6905909007
 11
155.7018665869
 21
30.8519093441
  0
LINE
  8
0
 62
7
  6
CONTINUOUS
 10
155.412804528
 20
31.3681283946
 11
155.412804528
 21
31.2713373354
  0
LINE
  8
0
 62
7
  6
CONTINUOUS
 10
155.412804528
 20
31.1422825445
 11
155.412804528
 21
30.9487004259
  0
LINE
  8
0
 62
7
  6
CONTINUOUS
 10
155.7018665869
 20
30.8519093441
 11
155.7018665869
 21
31.3681283946
  0
LINE
  8
0
 62
7
  6
CONTINUOUS
 10
155.9671844304
 20
32.3970785186
 11
155.9671844304
 21
34.2003572071
  0
LINE
  8
0
 62
7
  6
CONTINUOUS
 10
155.9671844304
 20
35.511832617
 11
155.9671844304
 21
36.1675703219
  0
LINE
  8
0
 62
7
  6
CONTINUOUS
 10
156.279992028
 20
32.1101932727
 11
156.279992028
 21
31.9488748406
  0
LINE
  8
0
 62
7
  6
CONTINUOUS
 10
156.279992028
 20
31.626237886
 11
156.279992028
 21
30.5937998301
  0
LINE
  8
0
 62
7
  6
CONTINUOUS
 10
156.5690540869
 20
30.5937998301
 11
156.5690540869
 21
31.626237886
  0
LINE
  8
0
 62
7
  6
CONTINUOUS
 10
156.5690540869
 20
31.9488748406
 11
156.5690540869
 21
32.1101932727
  0
LINE
  8
0
 62
7
  6
CONTINUOUS
 10
151.1346793074
 20
30.9164367395
 11
151.0768668626
 21
30.8196456577
  0
LINE
  8
0
 62
7
  6
CONTINUOUS
 10
153.4471794177
 20
31.400392081
 11
153.3893668074
 21
31.4649194539
  0
LINE
  8
0
 62
7
  6
CONTINUOUS
 10
154.3143669177
 20
30.7873819712
 11
154.2565543074
 21
30.8519093441
  0
LINE
  8
0
 62
7
  6
CONTINUOUS
 10
155.4706168074
 20
30.6583272086
 11
155.5284290869
 21
30.5937998301
  0
LINE
  8
0
 62
7
  6
CONTINUOUS
 10
155.412804528
 20
30.7551182848
 11
155.4706168074
 21
30.6583272086
  0
LINE
  8
0
 62
7
  6
CONTINUOUS
 10
155.8174918074
 20
30.5937998301
 11
155.759679528
 21
30.6905909007
  0
LINE
  8
0
 62
7
  6
CONTINUOUS
 10
155.7018665869
 20
31.3681283946
 11
155.6440543074
 21
31.4649194539
  0
LINE
  8
0
 62
7
  6
CONTINUOUS
 10
157.0315543074
 20
31.626237886
 11
157.0315543074
 21
30.5937998301
  0
LINE
  8
0
 62
7
  6
CONTINUOUS
 10
157.320617028
 20
30.5937998301
 11
157.320617028
 21
31.3358647082
  0
LINE
  8
0
 62
7
  6
CONTINUOUS
 10
157.320617028
 20
31.4649194539
 11
157.320617028
 21
31.626237886
  0
LINE
  8
0
 62
7
  6
CONTINUOUS
 10
157.852430332
 20
34.6101932727
 11
157.852430332
 21
32.3970785186
  0
LINE
  8
0
 62
7
  6
CONTINUOUS
 10
149.7471793074
 20
31.4326557675
 11
149.6315543091
 21
31.3036010218
  0
LINE
  8
0
 62
7
  6
CONTINUOUS
 10
149.9206168074
 20
31.2713373354
 11
149.9784292936
 21
31.3358647082
  0
LINE
  8
0
 62
7
  6
CONTINUOUS
 10
149.7471793074
 20
30.7873819712
 11
149.8628043005
 21
30.7228545871
  0
LINE
  8
0
 62
7
  6
CONTINUOUS
 10
150.1518667936
 20
30.7873819712
 11
149.9784292936
 21
30.8841730531
  0
LINE
  8
0
 62
7
  6
CONTINUOUS
 10
155.3549915869
 20
31.4326557675
 11
155.412804528
 21
31.3681283946
  0
LINE
  8
0
 62
7
  6
CONTINUOUS
 10
158.3034290869
 20
31.3681283946
 11
158.361242028
 21
31.2068099625
  0
LINE
  8
0
 62
7
  6
CONTINUOUS
 10
158.6503040869
 20
31.2068099625
 11
158.5924918074
 21
31.3681283946
  0
LINE
  8
0
 62
7
  6
CONTINUOUS
 10
158.361242028
 20
31.2068099625
 11
158.361242028
 21
30.5937998301
  0
LINE
  8
0
 62
7
  6
CONTINUOUS
 10
158.6503040869
 20
30.5937998301
 11
158.6503040869
 21
31.2068099625
  0
LINE
  8
0
 62
7
  6
CONTINUOUS
 10
159.1128043074
 20
31.4326557675
 11
159.1128043074
 21
31.3681283946
  0
LINE
  8
0
 62
7
  6
CONTINUOUS
 10
159.245872955
 20
32.3970785186
 11
159.245872955
 21
34.5282260596
  0
LINE
  8
0
 62
7
  6
CONTINUOUS
 10
159.5737418074
 20
36.1675703219
 11
159.5737418074
 21
32.3970785186
  0
LINE
  8
0
 62
7
  6
CONTINUOUS
 10
154.2565543074
 20
30.9164367395
 11
154.3143669177
 21
31.0132277988
  0
LINE
  8
0
 62
7
  6
CONTINUOUS
 10
149.8628043005
 20
30.7228545871
 11
150.0362418212
 21
30.6583272086
  0
LINE
  8
0
 62
7
  6
CONTINUOUS
 10
151.3659292523
 20
31.4326557675
 11
151.1924917523
 21
31.5294468267
  0
LINE
  8
0
 62
7
  6
CONTINUOUS
 10
154.0253041972
 20
30.7551182848
 11
154.1987416972
 21
30.6583272086
  0
LINE
  8
0
 62
7
  6
CONTINUOUS
 10
153.0424918074
 20
31.4326557675
 11
153.1581166972
 21
31.3681283946
  0
LINE
  8
0
 62
7
  6
CONTINUOUS
 10
153.3893668074
 20
31.4649194539
 11
153.2737419177
 21
31.5294468267
  0
LINE
  8
0
 62
7
  6
CONTINUOUS
 10
159.1128043074
 20
30.8519093441
 11
159.228429528
 21
30.7228545871
  0
LINE
  8
0
 62
7
  6
CONTINUOUS
 10
159.4596793074
 20
30.7873819712
 11
159.401867028
 21
30.8519093441
  0
LINE
  8
0
 62
7
  6
CONTINUOUS
 10
159.1128043074
 20
31.3681283946
 11
159.228429528
 21
31.2390736489
  0
LINE
  8
0
 62
7
  6
CONTINUOUS
 10
158.5924918074
 20
31.3681283946
 11
158.534679528
 21
31.4649194539
  0
LINE
  8
0
 62
7
  6
CONTINUOUS
 10
160.9628038663
 20
30.7873819712
 11
160.9628038663
 21
30.8519093441
  0
LINE
  8
0
 62
7
  6
CONTINUOUS
 10
160.9671844304
 20
32.3970785186
 11
160.9671844304
 21
36.1675703219
  0
LINE
  8
0
 62
7
  6
CONTINUOUS
 10
154.0253041972
 20
31.4971831403
 11
153.9674919177
 21
31.4326557675
  0
LINE
  8
0
 62
7
  6
CONTINUOUS
 10
150.9034292799
 20
31.4649194539
 11
151.0768668626
 21
31.400392081
  0
LINE
  8
0
 62
7
  6
CONTINUOUS
 10
155.6440543074
 20
31.4649194539
 11
155.5284290869
 21
31.5294468267
  0
LINE
  8
0
 62
7
  6
CONTINUOUS
 10
159.4596793074
 20
31.3036010218
 11
159.401867028
 21
31.3681283946
  0
LINE
  8
0
 62
7
  6
CONTINUOUS
 10
160.615929528
 20
30.9164367395
 11
160.6737418074
 21
30.8519093441
  0
LINE
  8
0
 62
7
  6
CONTINUOUS
 10
160.9628038663
 20
30.8519093441
 11
160.8471793074
 21
30.9809641124
  0
LINE
  8
0
 62
7
  6
CONTINUOUS
 10
160.615929528
 20
31.4326557675
 11
160.6737418074
 21
31.3681283946
  0
LINE
  8
0
 62
7
  6
CONTINUOUS
 10
160.9628038663
 20
31.3681283946
 11
160.8471793074
 21
31.4971831403
  0
LINE
  8
0
 62
7
  6
CONTINUOUS
 10
154.2565543074
 20
31.3681283946
 11
154.3143669177
 21
31.4326557675
  0
LINE
  8
0
 62
7
  6
CONTINUOUS
 10
154.0831168074
 20
31.1100188581
 11
153.9674919177
 21
30.9809641124
  0
LINE
  8
0
 62
7
  6
CONTINUOUS
 10
155.412804528
 20
30.9487004259
 11
155.3549915869
 21
30.8841730531
  0
LINE
  8
0
 62
7
  6
CONTINUOUS
 10
155.3549915869
 20
30.6905909007
 11
155.412804528
 21
30.7551182848
  0
LINE
  8
0
 62
7
  6
CONTINUOUS
 10
154.1987416972
 20
30.6583272086
 11
154.3143669177
 21
30.6260635193
  0
LINE
  8
0
 62
7
  6
CONTINUOUS
 10
151.1924917523
 20
31.5294468267
 11
150.9612418074
 21
31.5939741996
  0
LINE
  8
0
 62
7
  6
CONTINUOUS
 10
154.5456166972
 20
30.7228545871
 11
154.3143669177
 21
30.7873819712
  0
LINE
  8
0
 62
7
  6
CONTINUOUS
 10
153.2737419177
 20
31.5294468267
 11
153.1003044177
 21
31.5939741996
  0
LINE
  8
0
 62
7
  6
CONTINUOUS
 10
155.5284290869
 20
31.5294468267
 11
155.3549915869
 21
31.5939741996
  0
LINE
  8
0
 62
7
  6
CONTINUOUS
 10
158.187804528
 20
31.4326557675
 11
158.3034290869
 21
31.3681283946
  0
LINE
  8
0
 62
7
  6
CONTINUOUS
 10
158.534679528
 20
31.4649194539
 11
158.4190543074
 21
31.5294468267
  0
LINE
  8
0
 62
7
  6
CONTINUOUS
 10
150.0362418212
 20
30.6583272086
 11
150.2096793212
 21
30.6260635193
  0
LINE
  8
0
 62
7
  6
CONTINUOUS
 10
150.498741835
 20
30.7228545871
 11
150.1518667936
 21
30.7873819712
  0
LINE
  8
0
 62
7
  6
CONTINUOUS
 10
152.9268669177
 20
31.4649194539
 11
153.0424918074
 21
31.4326557675
  0
LINE
  8
0
 62
7
  6
CONTINUOUS
 10
155.239367028
 20
31.4649194539
 11
155.3549915869
 21
31.4326557675
  0
LINE
  8
0
 62
7
  6
CONTINUOUS
 10
159.575304528
 20
30.7551182848
 11
159.4596793074
 21
30.7873819712
  0
LINE
  8
0
 62
7
  6
CONTINUOUS
 10
158.0721793074
 20
31.4649194539
 11
158.187804528
 21
31.4326557675
  0
LINE
  8
0
 62
7
  6
CONTINUOUS
 10
159.228429528
 20
30.7228545871
 11
159.401867028
 21
30.6583272086
  0
LINE
  8
0
 62
7
  6
CONTINUOUS
 10
158.4190543074
 20
31.5294468267
 11
158.2456168074
 21
31.5939741996
  0
LINE
  8
0
 62
7
  6
CONTINUOUS
 10
159.6331168074
 20
31.2390736489
 11
159.4596793074
 21
31.3036010218
  0
LINE
  8
0
 62
7
  6
CONTINUOUS
 10
160.442492028
 20
30.9809641124
 11
160.615929528
 21
30.9164367395
  0
LINE
  8
0
 62
7
  6
CONTINUOUS
 10
160.8471793074
 20
31.4971831403
 11
160.6737418074
 21
31.5617105132
  0
LINE
  8
0
 62
7
  6
CONTINUOUS
 10
159.228429528
 20
31.2390736489
 11
159.4596793074
 21
31.1422825445
  0
LINE
  8
0
 62
7
  6
CONTINUOUS
 10
160.8471793074
 20
30.9809641124
 11
160.615929528
 21
31.0777551716
  0
LINE
  8
0
 62
7
  6
CONTINUOUS
 10
159.401867028
 20
31.3681283946
 11
159.4596793074
 21
31.4326557675
  0
LINE
  8
0
 62
7
  6
CONTINUOUS
 10
149.8628043005
 20
31.4971831403
 11
149.7471793074
 21
31.4326557675
  0
LINE
  8
0
 62
7
  6
CONTINUOUS
 10
149.9784292936
 20
31.3358647082
 11
150.1518667936
 21
31.4326557675
  0
LINE
  8
0
 62
7
  6
CONTINUOUS
 10
152.2909293626
 20
31.5294468267
 11
152.1753043074
 21
31.4649194539
  0
LINE
  8
0
 62
7
  6
CONTINUOUS
 10
152.1753043074
 20
31.3358647082
 11
152.2909293626
 21
31.400392081
  0
LINE
  8
0
 62
7
  6
CONTINUOUS
 10
151.1924917523
 20
30.6905909007
 11
151.3659292523
 21
30.7873819712
  0
LINE
  8
0
 62
7
  6
CONTINUOUS
 10
150.2096793212
 20
30.6260635193
 11
150.5565542799
 21
30.5937998301
  0
LINE
  8
0
 62
7
  6
CONTINUOUS
 10
154.3143669177
 20
30.6260635193
 11
154.5456166972
 21
30.5937998301
  0
LINE
  8
0
 62
7
  6
CONTINUOUS
 10
152.6956168074
 20
31.4971831403
 11
152.9268669177
 21
31.4649194539
  0
LINE
  8
0
 62
7
  6
CONTINUOUS
 10
155.0081169177
 20
31.4971831403
 11
155.239367028
 21
31.4649194539
  0
LINE
  8
0
 62
7
  6
CONTINUOUS
 10
159.4596793074
 20
31.1422825445
 11
160.442492028
 21
30.9809641124
  0
LINE
  8
0
 62
7
  6
CONTINUOUS
 10
160.615929528
 20
31.0777551716
 11
159.6331168074
 21
31.2390736489
  0
LINE
  8
0
 62
7
  6
CONTINUOUS
 10
153.1003044177
 20
31.5939741996
 11
152.9268669177
 21
31.626237886
  0
LINE
  8
0
 62
7
  6
CONTINUOUS
 10
159.401867028
 20
30.6583272086
 11
159.575304528
 21
30.6260635193
  0
LINE
  8
0
 62
7
  6
CONTINUOUS
 10
158.2456168074
 20
31.5939741996
 11
158.0721793074
 21
31.626237886
  0
LINE
  8
0
 62
7
  6
CONTINUOUS
 10
160.5003043074
 20
31.4649194539
 11
160.615929528
 21
31.4326557675
  0
LINE
  8
0
 62
7
  6
CONTINUOUS
 10
160.6737418074
 20
30.8519093441
 11
160.615929528
 21
30.7873819712
  0
LINE
  8
0
 62
7
  6
CONTINUOUS
 10
159.228429528
 20
31.5294468267
 11
159.1128043074
 21
31.4326557675
  0
LINE
  8
0
 62
7
  6
CONTINUOUS
 10
154.1409294177
 20
31.5617105132
 11
154.0253041972
 21
31.4971831403
  0
LINE
  8
0
 62
7
  6
CONTINUOUS
 10
154.1987416972
 20
31.1745462761
 11
154.0831168074
 21
31.1100188581
  0
LINE
  8
0
 62
7
  6
CONTINUOUS
 10
154.3143669177
 20
31.0132277988
 11
154.4299918074
 21
31.0777551716
  0
LINE
  8
0
 62
7
  6
CONTINUOUS
 10
151.8862417523
 20
30.5937998301
 11
152.1753043074
 21
30.5937998301
  0
LINE
  8
0
 62
7
  6
CONTINUOUS
 10
153.2159293074
 20
30.5937998301
 11
153.5049916972
 21
30.5937998301
  0
LINE
  8
0
 62
7
  6
CONTINUOUS
 10
154.5456166972
 20
30.5937998301
 11
154.8924916972
 21
30.5937998301
  0
LINE
  8
0
 62
7
  6
CONTINUOUS
 10
155.5284290869
 20
30.5937998301
 11
155.8174918074
 21
30.5937998301
  0
LINE
  8
0
 62
7
  6
CONTINUOUS
 10
156.279992028
 20
30.5937998301
 11
156.5690540869
 21
30.5937998301
  0
LINE
  8
0
 62
7
  6
CONTINUOUS
 10
157.0315543074
 20
30.5937998301
 11
157.320617028
 21
30.5937998301
  0
LINE
  8
0
 62
7
  6
CONTINUOUS
 10
158.361242028
 20
30.5937998301
 11
158.6503040869
 21
30.5937998301
  0
LINE
  8
0
 62
7
  6
CONTINUOUS
 10
159.922179528
 20
30.5937998301
 11
160.269054528
 21
30.5937998301
  0
LINE
  8
0
 62
7
  6
CONTINUOUS
 10
160.269054528
 20
30.7228545871
 11
159.922179528
 21
30.7228545871
  0
LINE
  8
0
 62
7
  6
CONTINUOUS
 10
154.8924916972
 20
30.7228545871
 11
154.5456166972
 21
30.7228545871
  0
LINE
  8
0
 62
7
  6
CONTINUOUS
 10
159.401867028
 20
30.8519093441
 11
159.1128043074
 21
30.8519093441
  0
LINE
  8
0
 62
7
  6
CONTINUOUS
 10
151.4237418626
 20
30.9164367395
 11
151.1346793074
 21
30.9164367395
  0
LINE
  8
0
 62
7
  6
CONTINUOUS
 10
150.498741835
 20
31.4971831403
 11
150.9034292799
 21
31.4649194539
  0
LINE
  8
0
 62
7
  6
CONTINUOUS
 10
150.9612418074
 20
31.5939741996
 11
150.5565542799
 21
31.626237886
  0
LINE
  8
0
 62
7
  6
CONTINUOUS
 10
159.575304528
 20
30.6260635193
 11
159.922179528
 21
30.5937998301
  0
LINE
  8
0
 62
7
  6
CONTINUOUS
 10
159.922179528
 20
30.7228545871
 11
159.575304528
 21
30.7551182848
  0
LINE
  8
0
 62
7
  6
CONTINUOUS
 10
155.3549915869
 20
31.5939741996
 11
155.0081169177
 21
31.626237886
  0
LINE
  8
0
 62
7
  6
CONTINUOUS
 10
160.1534293074
 20
31.4971831403
 11
160.5003043074
 21
31.4649194539
  0
LINE
  8
0
 62
7
  6
CONTINUOUS
 10
160.5003043074
 20
31.5939741996
 11
160.1534293074
 21
31.626237886
  0
LINE
  8
0
 62
7
  6
CONTINUOUS
 10
157.840929528
 20
31.4971831403
 11
158.0721793074
 21
31.4649194539
  0
LINE
  8
0
 62
7
  6
CONTINUOUS
 10
160.6737418074
 20
31.5617105132
 11
160.5003043074
 21
31.5939741996
  0
LINE
  8
0
 62
7
  6
CONTINUOUS
 10
160.8471793074
 20
30.6905909007
 11
160.9628038663
 21
30.7873819712
  0
LINE
  8
0
 62
7
  6
CONTINUOUS
 10
155.3549915869
 20
30.8841730531
 11
155.1815540869
 21
30.7873819712
  0
LINE
  8
0
 62
7
  6
CONTINUOUS
 10
157.4362415869
 20
31.5294468267
 11
157.320617028
 21
31.4649194539
  0
LINE
  8
0
 62
7
  6
CONTINUOUS
 10
157.320617028
 20
31.3358647082
 11
157.4362415869
 21
31.400392081
  0
LINE
  8
0
 62
7
  6
CONTINUOUS
 10
150.0362418212
 20
31.5617105132
 11
149.8628043005
 21
31.4971831403
  0
LINE
  8
0
 62
7
  6
CONTINUOUS
 10
152.4643666972
 20
31.5939741996
 11
152.2909293626
 21
31.5294468267
  0
LINE
  8
0
 62
7
  6
CONTINUOUS
 10
152.2909293626
 20
31.400392081
 11
152.4643666972
 21
31.4649194539
  0
LINE
  8
0
 62
7
  6
CONTINUOUS
 10
151.0768668626
 20
30.8196456577
 11
150.9034292799
 21
30.7551182848
  0
LINE
  8
0
 62
7
  6
CONTINUOUS
 10
160.5003043074
 20
30.7551182848
 11
160.269054528
 21
30.7228545871
  0
LINE
  8
0
 62
7
  6
CONTINUOUS
 10
154.8924916972
 20
30.5937998301
 11
155.1815540869
 21
30.6260635193
  0
LINE
  8
0
 62
7
  6
CONTINUOUS
 10
160.269054528
 20
30.5937998301
 11
160.615929528
 21
30.6260635193
  0
LINE
  8
0
 62
7
  6
CONTINUOUS
 10
150.5565542799
 20
30.5937998301
 11
150.9612418074
 21
30.6260635193
  0
LINE
  8
0
 62
7
  6
CONTINUOUS
 10
150.9034292799
 20
30.7551182848
 11
150.498741835
 21
30.7228545871
  0
LINE
  8
0
 62
7
  6
CONTINUOUS
 10
154.7768668074
 20
31.1422825445
 11
155.412804528
 21
31.1422825445
  0
LINE
  8
0
 62
7
  6
CONTINUOUS
 10
155.412804528
 20
31.2713373354
 11
154.7768668074
 21
31.2713373354
  0
LINE
  8
0
 62
7
  6
CONTINUOUS
 10
151.1346793074
 20
31.3036010218
 11
151.4237418626
 21
31.3036010218
  0
LINE
  8
0
 62
7
  6
CONTINUOUS
 10
153.9674919177
 20
31.3681283946
 11
154.2565543074
 21
31.3681283946
  0
LINE
  8
0
 62
7
  6
CONTINUOUS
 10
160.6737418074
 20
31.3681283946
 11
160.9628038663
 21
31.3681283946
  0
LINE
  8
0
 62
7
  6
CONTINUOUS
 10
154.6612419177
 20
31.4971831403
 11
155.0081169177
 21
31.4971831403
  0
LINE
  8
0
 62
7
  6
CONTINUOUS
 10
159.8065543074
 20
31.4971831403
 11
160.1534293074
 21
31.4971831403
  0
LINE
  8
0
 62
7
  6
CONTINUOUS
 10
160.1534293074
 20
31.626237886
 11
159.8065543074
 21
31.626237886
  0
LINE
  8
0
 62
7
  6
CONTINUOUS
 10
158.0721793074
 20
31.626237886
 11
157.840929528
 21
31.626237886
  0
LINE
  8
0
 62
7
  6
CONTINUOUS
 10
157.320617028
 20
31.626237886
 11
157.0315543074
 21
31.626237886
  0
LINE
  8
0
 62
7
  6
CONTINUOUS
 10
156.5690540869
 20
31.626237886
 11
156.279992028
 21
31.626237886
  0
LINE
  8
0
 62
7
  6
CONTINUOUS
 10
155.0081169177
 20
31.626237886
 11
154.6612419177
 21
31.626237886
  0
LINE
  8
0
 62
7
  6
CONTINUOUS
 10
152.9268669177
 20
31.626237886
 11
152.6956168074
 21
31.626237886
  0
LINE
  8
0
 62
7
  6
CONTINUOUS
 10
156.279992028
 20
31.9488748406
 11
156.5690540869
 21
31.9488748406
  0
LINE
  8
0
 62
7
  6
CONTINUOUS
 10
156.5690540869
 20
32.1101932727
 11
156.279992028
 21
32.1101932727
  0
LINE
  8
0
 62
7
  6
CONTINUOUS
 10
152.1753043074
 20
32.1101932727
 11
151.8862417523
 21
32.1101932727
  0
LINE
  8
0
 62
7
  6
CONTINUOUS
 10
151.2130860697
 20
32.3970785186
 11
151.6256574183
 21
32.3970785186
  0
LINE
  8
0
 62
7
  6
CONTINUOUS
 10
152.852430332
 20
32.3970785186
 11
154.245872955
 21
32.3970785186
  0
LINE
  8
0
 62
7
  6
CONTINUOUS
 10
154.5737418074
 20
32.3970785186
 11
155.9671844304
 21
32.3970785186
  0
LINE
  8
0
 62
7
  6
CONTINUOUS
 10
157.852430332
 20
32.3970785186
 11
159.245872955
 21
32.3970785186
  0
LINE
  8
0
 62
7
  6
CONTINUOUS
 10
159.5737418074
 20
32.3970785186
 11
160.9671844304
 21
32.3970785186
  0
LINE
  8
0
 62
7
  6
CONTINUOUS
 10
157.6096790869
 20
31.5939741996
 11
157.4362415869
 21
31.5294468267
  0
LINE
  8
0
 62
7
  6
CONTINUOUS
 10
155.1815540869
 20
30.6260635193
 11
155.3549915869
 21
30.6905909007
  0
LINE
  8
0
 62
7
  6
CONTINUOUS
 10
160.615929528
 20
30.6260635193
 11
160.8471793074
 21
30.6905909007
  0
LINE
  8
0
 62
7
  6
CONTINUOUS
 10
160.615929528
 20
30.7873819712
 11
160.5003043074
 21
30.7551182848
  0
LINE
  8
0
 62
7
  6
CONTINUOUS
 10
159.575304528
 20
31.4649194539
 11
159.8065543074
 21
31.4971831403
  0
LINE
  8
0
 62
7
  6
CONTINUOUS
 10
157.6096790869
 20
31.4649194539
 11
157.840929528
 21
31.4971831403
  0
LINE
  8
0
 62
7
  6
CONTINUOUS
 10
154.5456166972
 20
31.1100188581
 11
154.7768668074
 21
31.1422825445
  0
LINE
  8
0
 62
7
  6
CONTINUOUS
 10
157.840929528
 20
31.626237886
 11
157.6096790869
 21
31.5939741996
  0
LINE
  8
0
 62
7
  6
CONTINUOUS
 10
154.4299918074
 20
31.4649194539
 11
154.6612419177
 21
31.4971831403
  0
LINE
  8
0
 62
7
  6
CONTINUOUS
 10
159.8065543074
 20
31.626237886
 11
159.4596793074
 21
31.5939741996
  0
LINE
  8
0
 62
7
  6
CONTINUOUS
 10
154.7768668074
 20
31.2713373354
 11
154.4299918074
 21
31.2390736489
  0
LINE
  8
0
 62
7
  6
CONTINUOUS
 10
150.5565542799
 20
31.626237886
 11
150.2096793212
 21
31.5939741996
  0
LINE
  8
0
 62
7
  6
CONTINUOUS
 10
154.6612419177
 20
31.626237886
 11
154.2565543074
 21
31.5939741996
  0
LINE
  8
0
 62
7
  6
CONTINUOUS
 10
152.0327582009
 20
33.5446195022
 11
151.3770204959
 21
33.5446195022
  0
LINE
  8
0
 62
7
  6
CONTINUOUS
 10
157.4362415869
 20
31.400392081
 11
157.6096790869
 21
31.4649194539
  0
LINE
  8
0
 62
7
  6
CONTINUOUS
 10
159.4596793074
 20
31.4326557675
 11
159.575304528
 21
31.4649194539
  0
LINE
  8
0
 62
7
  6
CONTINUOUS
 10
159.4596793074
 20
31.5939741996
 11
159.228429528
 21
31.5294468267
  0
LINE
  8
0
 62
7
  6
CONTINUOUS
 10
155.1815540869
 20
30.7873819712
 11
154.8924916972
 21
30.7228545871
  0
LINE
  8
0
 62
7
  6
CONTINUOUS
 10
152.4643666972
 20
31.4649194539
 11
152.6956168074
 21
31.4971831403
  0
LINE
  8
0
 62
7
  6
CONTINUOUS
 10
152.6956168074
 20
31.626237886
 11
152.4643666972
 21
31.5939741996
  0
LINE
  8
0
 62
7
  6
CONTINUOUS
 10
150.2674918074
 20
31.4649194539
 11
150.498741835
 21
31.4971831403
  0
LINE
  8
0
 62
7
  6
CONTINUOUS
 10
156.7868565615
 20
35.0200293383
 11
157.4425942664
 21
35.0200293383
  0
LINE
  8
0
 62
7
  6
CONTINUOUS
 10
154.4299918074
 20
31.0777551716
 11
154.5456166972
 21
31.1100188581
  0
LINE
  8
0
 62
7
  6
CONTINUOUS
 10
154.4299918074
 20
31.2390736489
 11
154.1987416972
 21
31.1745462761
  0
LINE
  8
0
 62
7
  6
CONTINUOUS
 10
154.3143669177
 20
31.4326557675
 11
154.4299918074
 21
31.4649194539
  0
LINE
  8
0
 62
7
  6
CONTINUOUS
 10
150.9612418074
 20
30.6260635193
 11
151.1924917523
 21
30.6905909007
  0
LINE
  8
0
 62
7
  6
CONTINUOUS
 10
154.2565543074
 20
31.5939741996
 11
154.1409294177
 21
31.5617105132
  0
LINE
  8
0
 62
7
  6
CONTINUOUS
 10
150.2096793212
 20
31.5939741996
 11
150.0362418212
 21
31.5617105132
  0
LINE
  8
0
 62
7
  6
CONTINUOUS
 10
160.9671844304
 20
36.1675703219
 11
159.5737418074
 21
36.1675703219
  0
LINE
  8
0
 62
7
  6
CONTINUOUS
 10
157.6065286927
 20
36.1675703219
 11
157.1939573441
 21
36.1675703219
  0
LINE
  8
0
 62
7
  6
CONTINUOUS
 10
155.9671844304
 20
36.1675703219
 11
154.5737418074
 21
36.1675703219
  0
LINE
  8
0
 62
7
  6
CONTINUOUS
 10
154.245872955
 20
36.1675703219
 11
152.852430332
 21
36.1675703219
  0
LINE
  8
0
 62
7
  6
CONTINUOUS
 10
150.9671844304
 20
36.1675703219
 11
149.5737418074
 21
36.1675703219
  0
LINE
  8
0
 62
7
  6
CONTINUOUS
 10
150.1518667936
 20
31.4326557675
 11
150.2674918074
 21
31.4649194539
  0
CIRCLE
  8
0
 62
7
  6
CONTINUOUS
 10
160.2704631189
 20
38.5036358957
 40
2.0901639344
  0
ARC
  8
0
 62
7
  6
CONTINUOUS
 10
151.2130860697
 20
34.0364227809
 40
1.6393442623
 50
180.0
 51
270.0
  0
ARC
  8
0
 62
7
  6
CONTINUOUS
 10
157.6065286927
 20
34.5282260596
 40
1.6393442623
 50
0.0
 51
90.0
  0
ARC
  8
0
 62
7
  6
CONTINUOUS
 10
151.6256574183
 20
33.8724883547
 40
1.4754098361
 50
270.0
 51
326.2510114041
  0
ARC
  8
0
 62
7
  6
CONTINUOUS
 10
157.1939573441
 20
34.6921604858
 40
1.4754098361
 50
90.0
 51
146.2510114041
  0
ARC
  8
0
 62
7
  6
CONTINUOUS
 10
152.0327582009
 20
34.3642916334
 40
0.8196721311
 50
270.0
 51
360.0
  0
ARC
  8
0
 62
7
  6
CONTINUOUS
 10
156.7868565615
 20
34.2003572071
 40
0.8196721311
 50
90.0
 51
180.0
  0
ARC
  8
0
 62
7
  6
CONTINUOUS
 10
151.3770204959
 20
33.9544555678
 40
0.4098360656
 50
180.0
 51
270.0
  0
ARC
  8
0
 62
7
  6
CONTINUOUS
 10
157.4425942664
 20
34.6101932727
 40
0.4098360656
 50
0.0
 51
90.0
  0
SOLID
  8
0
 62
7
  6
CONTINUOUS
 10
156.279992028
 20
31.9488752009
 11
156.279992028
 21
32.1101936845
 12
156.5690540869
 22
31.9488752009
 13
156.5690540869
 23
32.1101936845
  0
SOLID
  8
0
 62
7
  6
CONTINUOUS
 10
150.5565542799
 20
31.6262382337
 11
150.9612418074
 21
31.5939740028
 12
150.2096793212
 22
31.5939740028
 13
150.2096793212
 23
31.5939740028
  0
SOLID
  8
0
 62
7
  6
CONTINUOUS
 10
150.0362418212
 20
31.5617111435
 11
150.2096793212
 21
31.5939740028
 12
150.9612418074
 22
31.5939740028
 13
150.9612418074
 23
31.5939740028
  0
SOLID
  8
0
 62
7
  6
CONTINUOUS
 10
150.9612418074
 20
31.5939740028
 11
151.1924917523
 21
31.5294468402
 12
150.0362418212
 22
31.5617111435
 13
150.0362418212
 23
31.5617111435
  0
SOLID
  8
0
 62
7
  6
CONTINUOUS
 10
149.8628043005
 20
31.49718259
 11
150.0362418212
 21
31.5617111435
 12
151.1924917523
 22
31.5294468402
 13
151.1924917523
 23
31.5294468402
  0
SOLID
  8
0
 62
7
  6
CONTINUOUS
 10
149.8628043005
 20
31.49718259
 11
151.1924917523
 21
31.5294468402
 12
150.498741835
 22
31.49718259
 13
150.498741835
 23
31.49718259
  0
SOLID
  8
0
 62
7
  6
CONTINUOUS
 10
150.498741835
 20
31.49718259
 11
151.1924917523
 21
31.5294468402
 12
150.9034292799
 22
31.4649197501
 13
150.9034292799
 23
31.4649197501
  0
SOLID
  8
0
 62
7
  6
CONTINUOUS
 10
151.1924917523
 20
31.5294468402
 11
151.3659292523
 21
31.4326554468
 12
150.9034292799
 22
31.4649197501
 13
150.9034292799
 23
31.4649197501
  0
SOLID
  8
0
 62
7
  6
CONTINUOUS
 10
151.0768668626
 20
31.4003926599
 11
150.9034292799
 21
31.4649197501
 12
151.3659292523
 22
31.4326554468
 13
151.3659292523
 23
31.4326554468
  0
SOLID
  8
0
 62
7
  6
CONTINUOUS
 10
151.0768668626
 20
31.4003926599
 11
151.3659292523
 21
31.4326554468
 12
151.1346793074
 22
31.3036013776
 13
151.1346793074
 23
31.3036013776
  0
SOLID
  8
0
 62
7
  6
CONTINUOUS
 10
151.3659292523
 20
31.4326554468
 11
151.4237418626
 21
31.3036013776
 12
151.1346793074
 22
31.3036013776
 13
151.1346793074
 23
31.3036013776
  0
SOLID
  8
0
 62
7
  6
CONTINUOUS
 10
152.4643666972
 20
31.5939739754
 11
152.6956168074
 21
31.6262382787
 12
152.9268669177
 22
31.6262382787
 13
152.9268669177
 23
31.6262382787
  0
SOLID
  8
0
 62
7
  6
CONTINUOUS
 10
152.9268669177
 20
31.6262382787
 11
153.1003044177
 21
31.5939739754
 12
152.4643666972
 22
31.5939739754
 13
152.4643666972
 23
31.5939739754
  0
SOLID
  8
0
 62
7
  6
CONTINUOUS
 10
152.2909293626
 20
31.5294468852
 11
152.4643666972
 21
31.5939739754
 12
153.1003044177
 22
31.5939739754
 13
153.1003044177
 23
31.5939739754
  0
SOLID
  8
0
 62
7
  6
CONTINUOUS
 10
153.1003044177
 20
31.5939739754
 11
153.2737419177
 21
31.5294468852
 12
152.2909293626
 22
31.5294468852
 13
152.2909293626
 23
31.5294468852
  0
SOLID
  8
0
 62
7
  6
CONTINUOUS
 10
153.2737419177
 20
31.5294468852
 11
152.6956168074
 21
31.4971825369
 12
152.2909293626
 22
31.5294468852
 13
152.2909293626
 23
31.5294468852
  0
SOLID
  8
0
 62
7
  6
CONTINUOUS
 10
152.1753043074
 20
31.4649197951
 11
152.2909293626
 21
31.5294468852
 12
152.6956168074
 22
31.4971825369
 13
152.6956168074
 23
31.4971825369
  0
SOLID
  8
0
 62
7
  6
CONTINUOUS
 10
152.6956168074
 20
31.4971825369
 11
152.4643666972
 21
31.4649197951
 12
152.1753043074
 22
31.4649197951
 13
152.1753043074
 23
31.4649197951
  0
SOLID
  8
0
 62
7
  6
CONTINUOUS
 10
152.6956168074
 20
31.4971825369
 11
153.2737419177
 21
31.5294468852
 12
152.9268669177
 22
31.4649197951
 13
152.9268669177
 23
31.4649197951
  0
SOLID
  8
0
 62
7
  6
CONTINUOUS
 10
153.2737419177
 20
31.5294468852
 11
153.3893668074
 21
31.4649197951
 12
152.9268669177
 22
31.4649197951
 13
152.9268669177
 23
31.4649197951
  0
SOLID
  8
0
 62
7
  6
CONTINUOUS
 10
153.0424918074
 20
31.4326554468
 11
152.9268669177
 21
31.4649197951
 12
153.3893668074
 22
31.4649197951
 13
153.3893668074
 23
31.4649197951
  0
SOLID
  8
0
 62
7
  6
CONTINUOUS
 10
153.3893668074
 20
31.4649197951
 11
153.4471794177
 21
31.4003927049
 12
153.0424918074
 22
31.4326554468
 13
153.0424918074
 23
31.4326554468
  0
SOLID
  8
0
 62
7
  6
CONTINUOUS
 10
153.1581166972
 20
31.3681283566
 11
153.0424918074
 21
31.4326554468
 12
153.4471794177
 22
31.4003927049
 13
153.4471794177
 23
31.4003927049
  0
SOLID
  8
0
 62
7
  6
CONTINUOUS
 10
153.1581166972
 20
31.3681283566
 11
153.4471794177
 21
31.4003927049
 12
153.2159293074
 22
31.2390742213
 13
153.2159293074
 23
31.2390742213
  0
SOLID
  8
0
 62
7
  6
CONTINUOUS
 10
153.4471794177
 20
31.4003927049
 11
153.5049916972
 21
31.2390742213
 12
153.2159293074
 22
31.2390742213
 13
153.2159293074
 23
31.2390742213
  0
SOLID
  8
0
 62
7
  6
CONTINUOUS
 10
152.4643666972
 20
31.4649197951
 11
152.2909293626
 21
31.4003927049
 12
152.1753043074
 22
31.4649197951
 13
152.1753043074
 23
31.4649197951
  0
SOLID
  8
0
 62
7
  6
CONTINUOUS
 10
152.2909293626
 20
31.4003927049
 11
152.1753043074
 21
31.3358640533
 12
152.1753043074
 22
31.4649197951
 13
152.1753043074
 23
31.4649197951
  0
SOLID
  8
0
 62
7
  6
CONTINUOUS
 10
152.1753043074
 20
31.3358640533
 11
151.8862417523
 21
30.5938002869
 12
152.1753043074
 22
31.4649197951
 13
152.1753043074
 23
31.4649197951
  0
SOLID
  8
0
 62
7
  6
CONTINUOUS
 10
152.1753043074
 20
31.4649197951
 11
151.8862417523
 21
30.5938002869
 12
152.1753043074
 22
32.1101937295
 13
152.1753043074
 23
32.1101937295
  0
SOLID
  8
0
 62
7
  6
CONTINUOUS
 10
151.8862417523
 20
30.5938002869
 11
151.8862417523
 21
32.1101937295
 12
152.1753043074
 22
32.1101937295
 13
152.1753043074
 23
32.1101937295
  0
SOLID
  8
0
 62
7
  6
CONTINUOUS
 10
152.1753043074
 20
31.3358640533
 11
152.1753043074
 21
30.5938002869
 12
151.8862417523
 22
30.5938002869
 13
151.8862417523
 23
30.5938002869
  0
SOLID
  8
0
 62
7
  6
CONTINUOUS
 10
153.2159293074
 20
30.5938002869
 11
153.2159293074
 21
31.2390742213
 12
153.5049916972
 22
31.2390742213
 13
153.5049916972
 23
31.2390742213
  0
SOLID
  8
0
 62
7
  6
CONTINUOUS
 10
153.5049916972
 20
31.2390742213
 11
153.5049916972
 21
30.5938002869
 12
153.2159293074
 22
30.5938002869
 13
153.2159293074
 23
30.5938002869
  0
SOLID
  8
0
 62
7
  6
CONTINUOUS
 10
154.2565543074
 20
31.5939738288
 11
154.6612419177
 21
31.6262385959
 12
155.0081169177
 22
31.6262385959
 13
155.0081169177
 23
31.6262385959
  0
SOLID
  8
0
 62
7
  6
CONTINUOUS
 10
155.0081169177
 20
31.6262385959
 11
155.3549915869
 21
31.5939738288
 12
154.2565543074
 22
31.5939738288
 13
154.2565543074
 23
31.5939738288
  0
SOLID
  8
0
 62
7
  6
CONTINUOUS
 10
154.1409294177
 20
31.5617111435
 11
154.2565543074
 21
31.5939738288
 12
155.3549915869
 22
31.5939738288
 13
155.3549915869
 23
31.5939738288
  0
SOLID
  8
0
 62
7
  6
CONTINUOUS
 10
155.3549915869
 20
31.5939738288
 11
155.5284290869
 21
31.5294468402
 12
154.1409294177
 22
31.5617111435
 13
154.1409294177
 23
31.5617111435
  0
SOLID
  8
0
 62
7
  6
CONTINUOUS
 10
154.0253041972
 20
31.4971826249
 11
154.1409294177
 21
31.5617111435
 12
155.5284290869
 22
31.5294468402
 13
155.5284290869
 23
31.5294468402
  0
SOLID
  8
0
 62
7
  6
CONTINUOUS
 10
154.0253041972
 20
31.4971826249
 11
155.5284290869
 21
31.5294468402
 12
154.6612419177
 22
31.4971826249
 13
154.6612419177
 23
31.4971826249
  0
SOLID
  8
0
 62
7
  6
CONTINUOUS
 10
154.6612419177
 20
31.4971826249
 11
155.5284290869
 21
31.5294468402
 12
155.0081169177
 22
31.4971826249
 13
155.0081169177
 23
31.4971826249
  0
SOLID
  8
0
 62
7
  6
CONTINUOUS
 10
155.0081169177
 20
31.4971826249
 11
155.5284290869
 21
31.5294468402
 12
155.239367028
 22
31.4649194065
 13
155.239367028
 23
31.4649194065
  0
SOLID
  8
0
 62
7
  6
CONTINUOUS
 10
155.5284290869
 20
31.5294468402
 11
155.6440543074
 21
31.4649194065
 12
155.239367028
 22
31.4649194065
 13
155.239367028
 23
31.4649194065
  0
SOLID
  8
0
 62
7
  6
CONTINUOUS
 10
153.9674919177
 20
31.4326554138
 11
154.0253041972
 21
31.4971826249
 12
154.6612419177
 22
31.4971826249
 13
154.6612419177
 23
31.4971826249
  0
SOLID
  8
0
 62
7
  6
CONTINUOUS
 10
155.3549915869
 20
31.4326554138
 11
155.239367028
 21
31.4649194065
 12
155.6440543074
 22
31.4649194065
 13
155.6440543074
 23
31.4649194065
  0
SOLID
  8
0
 62
7
  6
CONTINUOUS
 10
155.3549915869
 20
31.4326554138
 11
155.6440543074
 21
31.4649194065
 12
155.412804528
 22
31.3681282026
 13
155.412804528
 23
31.3681282026
  0
SOLID
  8
0
 62
7
  6
CONTINUOUS
 10
155.6440543074
 20
31.4649194065
 11
155.7018665869
 21
31.3681282026
 12
155.412804528
 22
31.3681282026
 13
155.412804528
 23
31.3681282026
  0
SOLID
  8
0
 62
7
  6
CONTINUOUS
 10
155.412804528
 20
31.2713369632
 11
155.412804528
 21
31.3681282026
 12
155.7018665869
 22
31.3681282026
 13
155.7018665869
 23
31.3681282026
  0
SOLID
  8
0
 62
7
  6
CONTINUOUS
 10
155.412804528
 20
31.2713369632
 11
155.7018665869
 21
31.3681282026
 12
155.412804528
 22
31.1422827828
 13
155.412804528
 23
31.1422827828
  0
SOLID
  8
0
 62
7
  6
CONTINUOUS
 10
155.412804528
 20
31.1422827828
 11
155.7018665869
 21
31.3681282026
 12
155.412804528
 22
30.9487004259
 13
155.412804528
 23
30.9487004259
  0
SOLID
  8
0
 62
7
  6
CONTINUOUS
 10
155.7018665869
 20
31.3681282026
 11
155.7018665869
 21
30.8519086025
 12
155.412804528
 22
30.9487004259
 13
155.412804528
 23
30.9487004259
  0
SOLID
  8
0
 62
7
  6
CONTINUOUS
 10
157.6096790869
 20
31.5939736268
 11
157.840929528
 21
31.6262383465
 12
158.0721793074
 22
31.6262383465
 13
158.0721793074
 23
31.6262383465
  0
SOLID
  8
0
 62
7
  6
CONTINUOUS
 10
158.0721793074
 20
31.6262383465
 11
158.2456168074
 21
31.5939736268
 12
157.6096790869
 22
31.5939736268
 13
157.6096790869
 23
31.5939736268
  0
SOLID
  8
0
 62
7
  6
CONTINUOUS
 10
157.4362415869
 20
31.5294472848
 11
157.6096790869
 21
31.5939736268
 12
158.2456168074
 22
31.5939736268
 13
158.2456168074
 23
31.5939736268
  0
SOLID
  8
0
 62
7
  6
CONTINUOUS
 10
158.2456168074
 20
31.5939736268
 11
158.4190543074
 21
31.5294472848
 12
157.4362415869
 22
31.5294472848
 13
157.4362415869
 23
31.5294472848
  0
SOLID
  8
0
 62
7
  6
CONTINUOUS
 10
158.4190543074
 20
31.5294472848
 11
157.840929528
 21
31.4971825369
 12
157.4362415869
 22
31.5294472848
 13
157.4362415869
 23
31.5294472848
  0
SOLID
  8
0
 62
7
  6
CONTINUOUS
 10
157.320617028
 20
31.4649199103
 11
157.4362415869
 21
31.5294472848
 12
157.840929528
 22
31.4971825369
 13
157.840929528
 23
31.4971825369
  0
SOLID
  8
0
 62
7
  6
CONTINUOUS
 10
157.840929528
 20
31.4971825369
 11
157.6096790869
 21
31.4649199103
 12
157.320617028
 22
31.4649199103
 13
157.320617028
 23
31.4649199103
  0
SOLID
  8
0
 62
7
  6
CONTINUOUS
 10
157.840929528
 20
31.4971825369
 11
158.4190543074
 21
31.5294472848
 12
158.0721793074
 22
31.4649199103
 13
158.0721793074
 23
31.4649199103
  0
SOLID
  8
0
 62
7
  6
CONTINUOUS
 10
158.4190543074
 20
31.5294472848
 11
158.534679528
 21
31.4649199103
 12
158.0721793074
 22
31.4649199103
 13
158.0721793074
 23
31.4649199103
  0
SOLID
  8
0
 62
7
  6
CONTINUOUS
 10
158.187804528
 20
31.4326554468
 11
158.0721793074
 21
31.4649199103
 12
158.534679528
 22
31.4649199103
 13
158.534679528
 23
31.4649199103
  0
SOLID
  8
0
 62
7
  6
CONTINUOUS
 10
158.187804528
 20
31.4326554468
 11
158.534679528
 21
31.4649199103
 12
158.3034290869
 22
31.3681288486
 13
158.3034290869
 23
31.3681288486
  0
SOLID
  8
0
 62
7
  6
CONTINUOUS
 10
158.534679528
 20
31.4649199103
 11
158.5924918074
 21
31.3681288486
 12
158.3034290869
 22
31.3681288486
 13
158.3034290869
 23
31.3681288486
  0
SOLID
  8
0
 62
7
  6
CONTINUOUS
 10
158.361242028
 20
31.2068093799
 11
158.3034290869
 21
31.3681288486
 12
158.5924918074
 22
31.3681288486
 13
158.5924918074
 23
31.3681288486
  0
SOLID
  8
0
 62
7
  6
CONTINUOUS
 10
158.5924918074
 20
31.3681288486
 11
158.6503040869
 21
31.2068093799
 12
158.361242028
 22
31.2068093799
 13
158.361242028
 23
31.2068093799
  0
SOLID
  8
0
 62
7
  6
CONTINUOUS
 10
157.6096790869
 20
31.4649199103
 11
157.4362415869
 21
31.4003926599
 12
157.320617028
 22
31.4649199103
 13
157.320617028
 23
31.4649199103
  0
SOLID
  8
0
 62
7
  6
CONTINUOUS
 10
157.4362415869
 20
31.4003926599
 11
157.320617028
 21
31.3358640533
 12
157.320617028
 22
31.4649199103
 13
157.320617028
 23
31.4649199103
  0
SOLID
  8
0
 62
7
  6
CONTINUOUS
 10
157.320617028
 20
31.3358640533
 11
157.0315543074
 21
30.5938003547
 12
157.320617028
 22
31.4649199103
 13
157.320617028
 23
31.4649199103
  0
SOLID
  8
0
 62
7
  6
CONTINUOUS
 10
157.320617028
 20
31.4649199103
 11
157.0315543074
 21
30.5938003547
 12
157.320617028
 22
31.6262383465
 13
157.320617028
 23
31.6262383465
  0
SOLID
  8
0
 62
7
  6
CONTINUOUS
 10
157.0315543074
 20
30.5938003547
 11
157.0315543074
 21
31.6262383465
 12
157.320617028
 22
31.6262383465
 13
157.320617028
 23
31.6262383465
  0
SOLID
  8
0
 62
7
  6
CONTINUOUS
 10
157.320617028
 20
31.3358640533
 11
157.320617028
 21
30.5938003547
 12
157.0315543074
 22
30.5938003547
 13
157.0315543074
 23
30.5938003547
  0
SOLID
  8
0
 62
7
  6
CONTINUOUS
 10
158.361242028
 20
30.5938003547
 11
158.361242028
 21
31.2068093799
 12
158.6503040869
 22
31.2068093799
 13
158.6503040869
 23
31.2068093799
  0
SOLID
  8
0
 62
7
  6
CONTINUOUS
 10
158.6503040869
 20
31.2068093799
 11
158.6503040869
 21
30.5938003547
 12
158.361242028
 22
30.5938003547
 13
158.361242028
 23
30.5938003547
  0
SOLID
  8
0
 62
7
  6
CONTINUOUS
 10
159.4596793074
 20
31.5939739474
 11
159.8065543074
 21
31.6262381969
 12
160.1534293074
 22
31.6262381969
 13
160.1534293074
 23
31.6262381969
  0
SOLID
  8
0
 62
7
  6
CONTINUOUS
 10
160.1534293074
 20
31.6262381969
 11
160.5003043074
 21
31.5939739474
 12
159.4596793074
 22
31.5939739474
 13
159.4596793074
 23
31.5939739474
  0
SOLID
  8
0
 62
7
  6
CONTINUOUS
 10
159.228429528
 20
31.5294468402
 11
159.4596793074
 21
31.5939739474
 12
160.5003043074
 22
31.5939739474
 13
160.5003043074
 23
31.5939739474
  0
SOLID
  8
0
 62
7
  6
CONTINUOUS
 10
159.228429528
 20
31.5294468402
 11
160.5003043074
 21
31.5939739304
 12
160.6737418074
 22
31.5617111435
 13
160.6737418074
 23
31.5617111435
  0
SOLID
  8
0
 62
7
  6
CONTINUOUS
 10
159.228429528
 20
31.5294468402
 11
160.6737418074
 21
31.5617111435
 12
159.8065543074
 22
31.4971825592
 13
159.8065543074
 23
31.4971825592
  0
SOLID
  8
0
 62
7
  6
CONTINUOUS
 10
159.8065543074
 20
31.4971825592
 11
160.6737418074
 21
31.5617111435
 12
160.1534293074
 22
31.4971825592
 13
160.1534293074
 23
31.4971825592
  0
SOLID
  8
0
 62
7
  6
CONTINUOUS
 10
160.6737418074
 20
31.5617111435
 11
160.8471793074
 21
31.4971825592
 12
160.1534293074
 22
31.4971825592
 13
160.1534293074
 23
31.4971825592
  0
SOLID
  8
0
 62
7
  6
CONTINUOUS
 10
160.5003043074
 20
31.4649197501
 11
160.1534293074
 21
31.4971825592
 12
160.8471793074
 22
31.4971825592
 13
160.8471793074
 23
31.4971825592
  0
SOLID
  8
0
 62
7
  6
CONTINUOUS
 10
159.1128043074
 20
31.4326555427
 11
159.228429528
 21
31.5294468402
 12
159.8065543074
 22
31.4971825592
 13
159.8065543074
 23
31.4971825592
  0
SOLID
  8
0
 62
7
  6
CONTINUOUS
 10
160.5003043074
 20
31.4649197501
 11
160.8471793074
 21
31.4971825592
 12
160.615929528
 22
31.4326555427
 13
160.615929528
 23
31.4326555427
  0
SOLID
  8
0
 62
7
  6
CONTINUOUS
 10
160.615929528
 20
31.4326555427
 11
160.8471793074
 21
31.4971825592
 12
160.6737418074
 22
31.3681283005
 13
160.6737418074
 23
31.3681283005
  0
SOLID
  8
0
 62
7
  6
CONTINUOUS
 10
160.8471793074
 20
31.4971825592
 11
160.9628038663
 21
31.3681283005
 12
160.6737418074
 22
31.3681283005
 13
160.6737418074
 23
31.3681283005
  0
SOLID
  8
0
 62
7
  6
CONTINUOUS
 10
150.2674918074
 20
31.4649197501
 11
149.7471793074
 21
31.4326554237
 12
150.498741835
 22
31.4971824493
 13
150.498741835
 23
31.4971824493
  0
SOLID
  8
0
 62
7
  6
CONTINUOUS
 10
149.7471793074
 20
31.4326554237
 11
149.8628043005
 21
31.4971824493
 12
150.498741835
 22
31.4971824493
 13
150.498741835
 23
31.4971824493
  0
SOLID
  8
0
 62
7
  6
CONTINUOUS
 10
150.2674918074
 20
31.4649197501
 11
150.1518667936
 21
31.4326554237
 12
149.7471793074
 22
31.4326554237
 13
149.7471793074
 23
31.4326554237
  0
SOLID
  8
0
 62
7
  6
CONTINUOUS
 10
149.6315543091
 20
31.3036012664
 11
149.7471793074
 21
31.4326554237
 12
150.1518667936
 22
31.4326554237
 13
150.1518667936
 23
31.4326554237
  0
SOLID
  8
0
 62
7
  6
CONTINUOUS
 10
153.9674919177
 20
31.4326554237
 11
154.6612419177
 21
31.4971825369
 12
154.4299918074
 22
31.4649197501
 13
154.4299918074
 23
31.4649197501
  0
SOLID
  8
0
 62
7
  6
CONTINUOUS
 10
154.4299918074
 20
31.4649197501
 11
154.3143669177
 21
31.4326554237
 12
153.9674919177
 22
31.4326554237
 13
153.9674919177
 23
31.4326554237
  0
SOLID
  8
0
 62
7
  6
CONTINUOUS
 10
153.9674919177
 20
31.3681283335
 11
153.9674919177
 21
31.4326554237
 12
154.3143669177
 22
31.4326554237
 13
154.3143669177
 23
31.4326554237
  0
SOLID
  8
0
 62
7
  6
CONTINUOUS
 10
154.3143669177
 20
31.4326554237
 11
154.2565543074
 21
31.3681283335
 12
153.9674919177
 22
31.3681283335
 13
153.9674919177
 23
31.3681283335
  0
SOLID
  8
0
 62
7
  6
CONTINUOUS
 10
159.1128043074
 20
31.4326555528
 11
159.8065543074
 21
31.4971825369
 12
159.575304528
 22
31.4649197501
 13
159.575304528
 23
31.4649197501
  0
SOLID
  8
0
 62
7
  6
CONTINUOUS
 10
159.575304528
 20
31.4649197501
 11
159.4596793074
 21
31.4326555528
 12
159.1128043074
 22
31.4326555528
 13
159.1128043074
 23
31.4326555528
  0
SOLID
  8
0
 62
7
  6
CONTINUOUS
 10
159.1128043074
 20
31.3681284626
 11
159.1128043074
 21
31.4326555528
 12
159.4596793074
 22
31.4326555528
 13
159.4596793074
 23
31.4326555528
  0
SOLID
  8
0
 62
7
  6
CONTINUOUS
 10
159.4596793074
 20
31.4326555528
 11
159.401867028
 21
31.3681284626
 12
159.1128043074
 22
31.3681284626
 13
159.1128043074
 23
31.3681284626
  0
SOLID
  8
0
 62
7
  6
CONTINUOUS
 10
159.228429528
 20
31.2390741763
 11
159.1128043074
 21
31.3681284626
 12
159.401867028
 22
31.3681284626
 13
159.401867028
 23
31.3681284626
  0
SOLID
  8
0
 62
7
  6
CONTINUOUS
 10
149.6315543091
 20
31.3036012664
 11
150.1518667936
 21
31.4326554468
 12
149.9784292936
 22
31.3358640533
 13
149.9784292936
 23
31.3358640533
  0
SOLID
  8
0
 62
7
  6
CONTINUOUS
 10
149.9784292936
 20
31.3358640533
 11
149.9206168074
 21
31.2713369632
 12
149.6315543091
 22
31.3036012664
 13
149.6315543091
 23
31.3036012664
  0
SOLID
  8
0
 62
7
  6
CONTINUOUS
 10
149.5737418074
 20
31.1100184796
 11
149.6315543091
 21
31.3036012664
 12
149.9206168074
 22
31.2713369632
 13
149.9206168074
 23
31.2713369632
  0
SOLID
  8
0
 62
7
  6
CONTINUOUS
 10
154.4299918074
 20
31.2390741763
 11
154.7768668074
 21
31.271336924
 12
155.412804528
 22
31.271336924
 13
155.412804528
 23
31.271336924
  0
SOLID
  8
0
 62
7
  6
CONTINUOUS
 10
154.4299918074
 20
31.2390741763
 11
155.412804528
 21
31.271336924
 12
154.1987416972
 22
31.1745462761
 13
154.1987416972
 23
31.1745462761
  0
SOLID
  8
0
 62
7
  6
CONTINUOUS
 10
154.1987416972
 20
31.1745462761
 11
155.412804528
 21
31.271336924
 12
154.7768668074
 22
31.1422827436
 13
154.7768668074
 23
31.1422827436
  0
SOLID
  8
0
 62
7
  6
CONTINUOUS
 10
155.412804528
 20
31.271336924
 11
155.412804528
 21
31.1422827436
 12
154.7768668074
 22
31.1422827436
 13
154.7768668074
 23
31.1422827436
  0
SOLID
  8
0
 62
7
  6
CONTINUOUS
 10
159.228429528
 20
31.2390745501
 11
159.401867028
 21
31.3681283566
 12
159.4596793074
 22
31.3036012664
 13
159.4596793074
 23
31.3036012664
  0
SOLID
  8
0
 62
7
  6
CONTINUOUS
 10
159.4596793074
 20
31.3036012664
 11
159.6331168074
 21
31.2390745501
 12
159.228429528
 22
31.2390745501
 13
159.228429528
 23
31.2390745501
  0
SOLID
  8
0
 62
7
  6
CONTINUOUS
 10
159.4596793074
 20
31.1422827828
 11
159.228429528
 21
31.2390745501
 12
159.6331168074
 22
31.2390745501
 13
159.6331168074
 23
31.2390745501
  0
SOLID
  8
0
 62
7
  6
CONTINUOUS
 10
159.6331168074
 20
31.2390745501
 11
160.615929528
 21
31.0777556927
 12
159.4596793074
 22
31.1422827828
 13
159.4596793074
 23
31.1422827828
  0
SOLID
  8
0
 62
7
  6
CONTINUOUS
 10
160.442492028
 20
30.9809646623
 11
159.4596793074
 21
31.1422827828
 12
160.615929528
 22
31.0777556927
 13
160.615929528
 23
31.0777556927
  0
SOLID
  8
0
 62
7
  6
CONTINUOUS
 10
160.615929528
 20
31.0777556927
 11
160.8471793074
 21
30.9809646623
 12
160.442492028
 22
30.9809646623
 13
160.442492028
 23
30.9809646623
  0
SOLID
  8
0
 62
7
  6
CONTINUOUS
 10
160.615929528
 20
30.9164372091
 11
160.442492028
 21
30.9809646623
 12
160.8471793074
 22
30.9809646623
 13
160.8471793074
 23
30.9809646623
  0
SOLID
  8
0
 62
7
  6
CONTINUOUS
 10
160.615929528
 20
30.9164372091
 11
160.8471793074
 21
30.9809646623
 12
160.6737418074
 22
30.8519089441
 13
160.6737418074
 23
30.8519089441
  0
SOLID
  8
0
 62
7
  6
CONTINUOUS
 10
160.8471793074
 20
30.9809646623
 11
160.9628038663
 21
30.8519089441
 12
160.6737418074
 22
30.8519089441
 13
160.6737418074
 23
30.8519089441
  0
SOLID
  8
0
 62
7
  6
CONTINUOUS
 10
160.615929528
 20
30.7873818593
 11
160.6737418074
 21
30.8519089441
 12
160.9628038663
 22
30.8519089441
 13
160.9628038663
 23
30.8519089441
  0
SOLID
  8
0
 62
7
  6
CONTINUOUS
 10
160.9628038663
 20
30.8519089441
 11
160.9628038663
 21
30.7873818593
 12
160.615929528
 22
30.7873818593
 13
160.615929528
 23
30.7873818593
  0
SOLID
  8
0
 62
7
  6
CONTINUOUS
 10
160.5003043074
 20
30.7551187255
 11
160.615929528
 21
30.7873818593
 12
160.9628038663
 22
30.7873818593
 13
160.9628038663
 23
30.7873818593
  0
SOLID
  8
0
 62
7
  6
CONTINUOUS
 10
160.5003043074
 20
30.7551187255
 11
160.9628038663
 21
30.7873818593
 12
160.269054528
 22
30.7228547745
 13
160.269054528
 23
30.7228547745
  0
SOLID
  8
0
 62
7
  6
CONTINUOUS
 10
160.9628038663
 20
30.7873818593
 11
160.8471793074
 21
30.6905916353
 12
160.269054528
 22
30.7228547745
 13
160.269054528
 23
30.7228547745
  0
SOLID
  8
0
 62
7
  6
CONTINUOUS
 10
160.8471793074
 20
30.6905916353
 11
159.401867028
 21
30.658327332
 12
160.269054528
 22
30.7228547745
 13
160.269054528
 23
30.7228547745
  0
SOLID
  8
0
 62
7
  6
CONTINUOUS
 10
160.269054528
 20
30.7228547745
 11
159.401867028
 21
30.658327332
 12
159.922179528
 22
30.7228547745
 13
159.922179528
 23
30.7228547745
  0
SOLID
  8
0
 62
7
  6
CONTINUOUS
 10
159.401867028
 20
30.658327332
 11
159.228429528
 21
30.7228547745
 12
159.922179528
 22
30.7228547745
 13
159.922179528
 23
30.7228547745
  0
SOLID
  8
0
 62
7
  6
CONTINUOUS
 10
159.401867028
 20
30.658327332
 11
160.8471793074
 21
30.6905916353
 12
159.575304528
 22
30.6260629858
 13
159.575304528
 23
30.6260629858
  0
SOLID
  8
0
 62
7
  6
CONTINUOUS
 10
160.8471793074
 20
30.6905916353
 11
160.615929528
 21
30.6260629858
 12
159.575304528
 22
30.6260629858
 13
159.575304528
 23
30.6260629858
  0
SOLID
  8
0
 62
7
  6
CONTINUOUS
 10
159.922179528
 20
30.5938006049
 11
159.575304528
 21
30.6260629858
 12
160.615929528
 22
30.6260629858
 13
160.615929528
 23
30.6260629858
  0
SOLID
  8
0
 62
7
  6
CONTINUOUS
 10
160.615929528
 20
30.6260629858
 11
160.269054528
 21
30.5938006049
 12
159.922179528
 22
30.5938006049
 13
159.922179528
 23
30.5938006049
  0
SOLID
  8
0
 62
7
  6
CONTINUOUS
 10
149.5737418074
 20
31.1100184796
 11
149.9206168074
 21
31.2713369632
 12
149.8628043005
 22
31.1422827828
 13
149.8628043005
 23
31.1422827828
  0
SOLID
  8
0
 62
7
  6
CONTINUOUS
 10
149.8628043005
 20
31.1422827828
 11
149.8628043005
 21
31.0454914852
 12
149.5737418074
 22
31.1100184796
 13
149.5737418074
 23
31.1100184796
  0
SOLID
  8
0
 62
7
  6
CONTINUOUS
 10
149.6315543091
 20
30.9164372091
 11
149.5737418074
 21
31.1100184796
 12
149.8628043005
 22
31.0454914852
 13
149.8628043005
 23
31.0454914852
  0
SOLID
  8
0
 62
7
  6
CONTINUOUS
 10
149.8628043005
 20
31.0454914852
 11
149.9784292936
 21
30.8841729058
 12
149.6315543091
 22
30.9164372091
 13
149.6315543091
 23
30.9164372091
  0
SOLID
  8
0
 62
7
  6
CONTINUOUS
 10
149.7471793074
 20
30.7873813202
 11
149.6315543091
 21
30.9164372091
 12
149.9784292936
 22
30.8841729058
 13
149.9784292936
 23
30.8841729058
  0
SOLID
  8
0
 62
7
  6
CONTINUOUS
 10
149.9784292936
 20
30.8841729058
 11
150.1518667936
 21
30.7873813202
 12
149.7471793074
 22
30.7873813202
 13
149.7471793074
 23
30.7873813202
  0
SOLID
  8
0
 62
7
  6
CONTINUOUS
 10
149.8628043005
 20
30.7228547004
 11
149.7471793074
 21
30.7873813202
 12
150.1518667936
 22
30.7873813202
 13
150.1518667936
 23
30.7873813202
  0
SOLID
  8
0
 62
7
  6
CONTINUOUS
 10
150.1518667936
 20
30.7873813202
 11
150.498741835
 21
30.7228547004
 12
149.8628043005
 22
30.7228547004
 13
149.8628043005
 23
30.7228547004
  0
SOLID
  8
0
 62
7
  6
CONTINUOUS
 10
150.0362418212
 20
30.658327332
 11
149.8628043005
 21
30.7228547004
 12
150.498741835
 22
30.7228547004
 13
150.498741835
 23
30.7228547004
  0
SOLID
  8
0
 62
7
  6
CONTINUOUS
 10
154.0831168074
 20
31.1100184386
 11
154.1987416972
 21
31.1745462761
 12
154.7768668074
 22
31.1422827828
 13
154.7768668074
 23
31.1422827828
  0
SOLID
  8
0
 62
7
  6
CONTINUOUS
 10
154.7768668074
 20
31.1422827828
 11
154.5456166972
 21
31.1100184386
 12
154.0831168074
 22
31.1100184386
 13
154.0831168074
 23
31.1100184386
  0
SOLID
  8
0
 62
7
  6
CONTINUOUS
 10
153.9674919177
 20
30.9809642992
 11
154.0831168074
 21
31.1100184386
 12
154.5456166972
 22
31.1100184386
 13
154.5456166972
 23
31.1100184386
  0
SOLID
  8
0
 62
7
  6
CONTINUOUS
 10
154.3143669177
 20
31.0132277988
 11
153.9674919177
 21
30.9809642992
 12
154.4299918074
 22
31.0777556927
 13
154.4299918074
 23
31.0777556927
  0
SOLID
  8
0
 62
7
  6
CONTINUOUS
 10
153.9674919177
 20
30.9809642992
 11
154.5456166972
 21
31.1100184796
 12
154.4299918074
 22
31.0777556927
 13
154.4299918074
 23
31.0777556927
  0
SOLID
  8
0
 62
7
  6
CONTINUOUS
 10
154.3143669177
 20
31.0132277988
 11
154.2565543074
 21
30.9164372091
 12
153.9674919177
 22
30.9809642992
 13
153.9674919177
 23
30.9809642992
  0
SOLID
  8
0
 62
7
  6
CONTINUOUS
 10
153.9674919177
 20
30.8841729058
 11
153.9674919177
 21
30.9809642992
 12
154.2565543074
 22
30.9164372091
 13
154.2565543074
 23
30.9164372091
  0
SOLID
  8
0
 62
7
  6
CONTINUOUS
 10
154.2565543074
 20
30.9164372091
 11
154.2565543074
 21
30.8519086025
 12
153.9674919177
 22
30.8841729058
 13
153.9674919177
 23
30.8841729058
  0
SOLID
  8
0
 62
7
  6
CONTINUOUS
 10
154.0253041972
 20
30.7551187255
 11
153.9674919177
 21
30.8841729058
 12
154.2565543074
 22
30.8519086025
 13
154.2565543074
 23
30.8519086025
  0
SOLID
  8
0
 62
7
  6
CONTINUOUS
 10
155.412804528
 20
30.9487004259
 11
155.7018665869
 21
30.8519086025
 12
155.3549915869
 22
30.8841729058
 13
155.3549915869
 23
30.8841729058
  0
SOLID
  8
0
 62
7
  6
CONTINUOUS
 10
155.1815540869
 20
30.7873815123
 11
155.3549915869
 21
30.8841729058
 12
155.7018665869
 22
30.8519086025
 13
155.7018665869
 23
30.8519086025
  0
SOLID
  8
0
 62
7
  6
CONTINUOUS
 10
155.1815540869
 20
30.7873815123
 11
155.7018665869
 21
30.8519086025
 12
155.412804528
 22
30.7551187255
 13
155.412804528
 23
30.7551187255
  0
SOLID
  8
0
 62
7
  6
CONTINUOUS
 10
155.7018665869
 20
30.8519086025
 11
155.759679528
 21
30.6905916353
 12
155.412804528
 22
30.7551187255
 13
155.412804528
 23
30.7551187255
  0
SOLID
  8
0
 62
7
  6
CONTINUOUS
 10
155.4706168074
 20
30.658327332
 11
155.412804528
 21
30.7551187255
 12
155.759679528
 22
30.6905916353
 13
155.759679528
 23
30.6905916353
  0
SOLID
  8
0
 62
7
  6
CONTINUOUS
 10
155.4706168074
 20
30.658327332
 11
155.759679528
 21
30.6905916353
 12
155.5284290869
 22
30.5938002079
 13
155.5284290869
 23
30.5938002079
  0
SOLID
  8
0
 62
7
  6
CONTINUOUS
 10
155.759679528
 20
30.6905916353
 11
155.8174918074
 21
30.5938002079
 12
155.5284290869
 22
30.5938002079
 13
155.5284290869
 23
30.5938002079
  0
SOLID
  8
0
 62
7
  6
CONTINUOUS
 10
151.0768668626
 20
30.8196456577
 11
151.1346793074
 21
30.9164373395
 12
151.4237418626
 22
30.9164373395
 13
151.4237418626
 23
30.9164373395
  0
SOLID
  8
0
 62
7
  6
CONTINUOUS
 10
151.4237418626
 20
30.9164373395
 11
151.3659292523
 21
30.7873815123
 12
151.0768668626
 22
30.8196456577
 13
151.0768668626
 23
30.8196456577
  0
SOLID
  8
0
 62
7
  6
CONTINUOUS
 10
150.9034292799
 20
30.7551187255
 11
151.0768668626
 21
30.8196456577
 12
151.3659292523
 22
30.7873815123
 13
151.3659292523
 23
30.7873815123
  0
SOLID
  8
0
 62
7
  6
CONTINUOUS
 10
150.9034292799
 20
30.7551187255
 11
151.3659292523
 21
30.7873815123
 12
150.498741835
 22
30.7228544222
 13
150.498741835
 23
30.7228544222
  0
SOLID
  8
0
 62
7
  6
CONTINUOUS
 10
151.3659292523
 20
30.7873815123
 11
151.1924917523
 21
30.6905916353
 12
150.498741835
 22
30.7228544222
 13
150.498741835
 23
30.7228544222
  0
SOLID
  8
0
 62
7
  6
CONTINUOUS
 10
150.0362418212
 20
30.658327332
 11
150.498741835
 21
30.7228544222
 12
151.1924917523
 22
30.6905916353
 13
151.1924917523
 23
30.6905916353
  0
SOLID
  8
0
 62
7
  6
CONTINUOUS
 10
150.0362418212
 20
30.658327332
 11
151.1924917523
 21
30.6905916353
 12
150.2096793212
 22
30.6260631011
 13
150.2096793212
 23
30.6260631011
  0
SOLID
  8
0
 62
7
  6
CONTINUOUS
 10
151.1924917523
 20
30.6905916353
 11
150.9612418074
 21
30.6260631011
 12
150.2096793212
 22
30.6260631011
 13
150.2096793212
 23
30.6260631011
  0
SOLID
  8
0
 62
7
  6
CONTINUOUS
 10
150.5565542799
 20
30.5938002419
 11
150.2096793212
 21
30.6260631011
 12
150.9612418074
 22
30.6260631011
 13
150.9612418074
 23
30.6260631011
  0
SOLID
  8
0
 62
7
  6
CONTINUOUS
 10
154.0253041972
 20
30.7551187255
 11
154.2565543074
 21
30.8519086025
 12
154.3143669177
 22
30.7873815123
 13
154.3143669177
 23
30.7873815123
  0
SOLID
  8
0
 62
7
  6
CONTINUOUS
 10
154.3143669177
 20
30.7873815123
 11
154.5456166972
 21
30.7228544222
 12
154.0253041972
 22
30.7551187255
 13
154.0253041972
 23
30.7551187255
  0
SOLID
  8
0
 62
7
  6
CONTINUOUS
 10
154.1987416972
 20
30.658327332
 11
154.0253041972
 21
30.7551187255
 12
154.5456166972
 22
30.7228544222
 13
154.5456166972
 23
30.7228544222
  0
SOLID
  8
0
 62
7
  6
CONTINUOUS
 10
154.8924916972
 20
30.7228544637
 11
155.1815540869
 21
30.7873815123
 12
155.412804528
 22
30.7551187255
 13
155.412804528
 23
30.7551187255
  0
SOLID
  8
0
 62
7
  6
CONTINUOUS
 10
155.412804528
 20
30.7551187255
 11
155.3549915869
 21
30.6905916353
 12
154.8924916972
 22
30.7228544637
 13
154.8924916972
 23
30.7228544637
  0
SOLID
  8
0
 62
7
  6
CONTINUOUS
 10
155.3549915869
 20
30.6905916353
 11
154.1987416972
 21
30.658327332
 12
154.8924916972
 22
30.7228544637
 13
154.8924916972
 23
30.7228544637
  0
SOLID
  8
0
 62
7
  6
CONTINUOUS
 10
154.1987416972
 20
30.658327332
 11
154.5456166972
 21
30.7228544637
 12
154.8924916972
 22
30.7228544637
 13
154.8924916972
 23
30.7228544637
  0
SOLID
  8
0
 62
7
  6
CONTINUOUS
 10
154.1987416972
 20
30.658327332
 11
155.3549915869
 21
30.6905916353
 12
154.3143669177
 22
30.6260630541
 13
154.3143669177
 23
30.6260630541
  0
SOLID
  8
0
 62
7
  6
CONTINUOUS
 10
155.3549915869
 20
30.6905916353
 11
155.1815540869
 21
30.6260630541
 12
154.3143669177
 22
30.6260630541
 13
154.3143669177
 23
30.6260630541
  0
SOLID
  8
0
 62
7
  6
CONTINUOUS
 10
154.5456166972
 20
30.5938002188
 11
154.3143669177
 21
30.6260630541
 12
155.1815540869
 22
30.6260630541
 13
155.1815540869
 23
30.6260630541
  0
SOLID
  8
0
 62
7
  6
CONTINUOUS
 10
155.1815540869
 20
30.6260630541
 11
154.8924916972
 21
30.5938002188
 12
154.5456166972
 22
30.5938002188
 13
154.5456166972
 23
30.5938002188
  0
SOLID
  8
0
 62
7
  6
CONTINUOUS
 10
159.575304528
 20
30.7551187255
 11
159.228429528
 21
30.7228544637
 12
159.4596793074
 22
30.7873815123
 13
159.4596793074
 23
30.7873815123
  0
SOLID
  8
0
 62
7
  6
CONTINUOUS
 10
159.4596793074
 20
30.7873815123
 11
159.228429528
 21
30.7228544637
 12
159.401867028
 22
30.851908644
 13
159.401867028
 23
30.851908644
  0
SOLID
  8
0
 62
7
  6
CONTINUOUS
 10
159.228429528
 20
30.7228544637
 11
159.1128043074
 21
30.851908644
 12
159.401867028
 22
30.851908644
 13
159.401867028
 23
30.851908644
  0
SOLID
  8
0
 62
7
  6
CONTINUOUS
 10
159.575304528
 20
30.7551187255
 11
159.922179528
 21
30.7228544637
 12
159.228429528
 22
30.7228544637
 13
159.228429528
 23
30.7228544637
  0
SOLID
  8
0
 62
7
  6
CONTINUOUS
 10
156.279992028
 20
30.5938002419
 11
156.279992028
 21
31.6262382337
 12
156.5690540869
 22
30.5938002419
 13
156.5690540869
 23
31.6262382337
  0
ENDBLK
  8
0
  6
BYBLOCK
 62
0
  0
BLOCK
  8
0
 62
2
  6
CONTINUOUS
  2
AMMEAAL_LOGO_BL0
 70
64
 10
32.1213064866
 20
19.8534310916
  0
TEXT
  8
0
 62
7
  6
CONTINUOUS
 10
18.3860103289
 20
19.2268451992
  7
TEXTSTYLE_3
 40
2.7338706658
  1
Ammeraal Beltech
 41
1.0
 51
15.0
 72
0
  0
TEXT
  8
0
 62
7
  6
CONTINUOUS
 10
29.1868111546
 20
16.9533085264
  7
TEXTSTYLE_4
 40
1.0935482663
  1
Innovation & Service in Belting
 41
1.0
 72
0
  0
LINE
  8
0
 62
7
  6
CONTINUOUS
 10
12.3614696776
 20
19.9934385078
 11
13.1396216709
 21
23.6543558055
  0
LINE
  8
0
 62
7
  6
CONTINUOUS
 10
23.2347899607
 20
27.3177497171
 11
13.6274394139
 21
24.1961322958
  0
LINE
  8
0
 62
7
  6
CONTINUOUS
 10
12.5867530099
 20
19.3000877048
 11
20.093828271
 21
12.5406867788
  0
LINE
  8
0
 62
7
  6
CONTINUOUS
 10
12.8492874206
 20
20.5352149982
 11
23.6575567857
 21
24.0470345971
  0
LINE
  8
0
 62
7
  6
CONTINUOUS
 10
23.6533516486
 20
13.6972460334
 11
15.2078919798
 21
21.3015720751
  0
LINE
  8
0
 62
7
  6
CONTINUOUS
 10
24.1731743684
 20
26.4728246013
 11
23.1966148312
 21
21.8784731989
  0
LINE
  8
0
 62
7
  6
CONTINUOUS
 10
22.4968128835
 20
18.5861638851
 11
21.810364672
 21
15.3566789607
  0
LINE
  8
0
 62
7
  6
CONTINUOUS
 10
24.8542704669
 20
14.087448211
 11
25.8105020025
 21
18.5861638851
  0
LINE
  8
0
 62
7
  6
CONTINUOUS
 10
26.5103039502
 20
21.8784731989
 11
26.9545457526
 21
23.9684665583
  0
LINE
  8
0
 62
7
  6
CONTINUOUS
 10
20.8069293463
 20
12.3891124661
 11
24.3664527239
 21
13.5456717207
  0
LINE
  8
0
 62
7
  6
CONTINUOUS
 10
23.9478910361
 20
27.1661754044
 11
26.7292624203
 21
24.6618173613
  0
ARC
  8
0
 62
7
  6
CONTINUOUS
 10
13.8527227462
 20
23.5027814928
 40
0.7290321776
 50
108.0
 51
168.0
  0
ARC
  8
0
 62
7
  6
CONTINUOUS
 10
23.4600732931
 20
26.624398914
 40
0.7290321776
 50
348.0
 51
108.0
  0
ARC
  8
0
 62
7
  6
CONTINUOUS
 10
26.2414446773
 20
24.120040871
 40
0.7290321776
 50
348.0
 51
48.0
  0
ARC
  8
0
 62
7
  6
CONTINUOUS
 10
20.581646014
 20
13.0824632691
 40
0.7290321776
 50
228.0
 51
288.0
  0
ARC
  8
0
 62
7
  6
CONTINUOUS
 10
13.0745707529
 20
19.8418641951
 40
0.7290321776
 50
108.0
 51
228.0
  0
ARC
  8
0
 62
7
  6
CONTINUOUS
 10
24.1411693916
 20
14.2390225237
 40
0.7290321776
 50
228.0
 51
348.0
  0
ENDBLK
  8
0
  6
BYBLOCK
 62
0
  0
ENDSEC
  0
SECTION
  2
ENTITIES
  0
TEXT
  8
0
 62
5
  6
CONTINUOUS
 10
96.0
 20
25.636
  7
TEXTSTYLE_2
 40
2.8
  1
Scale :
 41
0.6
 51
0.000019
 72
0
  0
TEXT
  8
0
 62
5
  6
CONTINUOUS
 10
116.0
 20
25.636
  7
TEXTSTYLE_2
 40
2.8
  1
Belt type:
 41
0.6
 51
0.000019
 72
0
  0
INSERT
  8
0
 62
2
  6
CONTINUOUS
  2
AMMEAAL_LOGO_BL0
 10
32.1213064866
 20
19.8534310916
  0
INSERT
  8
0
 62
2
  6
CONTINUOUS
  2
UNI_LOGO2_BL1
 10
173.5956734183
 20
35.5937998301
  0
LINE
  8
0
 62
2
  6
CONTINUOUS
 10
10.0
 20
30.0
 11
200.0
 21
30.0
  0
LINE
  8
0
 62
2
  6
CONTINUOUS
 10
10.0
 20
30.0
 11
10.0
 21
10.0
  0
LINE
  8
0
 62
2
  6
CONTINUOUS
 10
10.0
 20
10.0
 11
200.0
 21
10.0
  0
LINE
  8
0
 62
2
  6
CONTINUOUS
 10
95.0
 20
30.0
 11
95.0
 21
10.0
  0
LINE
  8
0
 62
2
  6
CONTINUOUS
 10
115.0
 20
30.0
 11
115.0
 21
10.0
  0
LINE
  8
0
 62
2
  6
CONTINUOUS
 10
200.0
 20
30.0
 11
200.0
 21
10.0
  0
TEXT
  8
0
 62
5
  6
CONTINUOUS
 10
13.0
 20
23.303
  7
TEXTSTYLE_5
 40
1.52
  1
                                                                     Ammeraal Beltech Modular A/S
 41
1.0
 72
0
  0
TEXT
  8
0
 62
5
  6
CONTINUOUS
 10
13.0
 20
20.595
  7
TEXTSTYLE_5
 40
1.5
  1
                                                                      Hjulmagervej 21,  7100 Vejle,  DK
 41
1.0
 72
0
  0
TEXT
  8
0
 62
5
  6
CONTINUOUS
 10
13.0
 20
17.881
  7
TEXTSTYLE_5
 40
1.495
  1
                                                                      tel: 
 41
1.0
 72
0
  0
TEXT
  8
0
 62
5
  6
CONTINUOUS
 10
57.9869465649
 20
17.881
  7
TEXTSTYLE_5
 40
1.51
  1
+45 75723100     fax: +45 75723348
 41
1.0
 72
0
  0
TEXT
  8
0
 62
5
  6
CONTINUOUS
 10
13.0
 20
15.177
  7
TEXTSTYLE_5
 40
1.5
  1
                                                                      admin@unichains.dk  www.unichains.com
 41
1.0
 72
0
  0
TEXT
  8
0
 62
5
  6
CONTINUOUS
 10
99.75
 20
13.75
  7
TEXTSTYLE_6
 40
5.0
  1
1:1
 41
0.7
 72
1
 11
105.0
 21
13.75
  0
TEXT
  8
0
 62
5
  6
CONTINUOUS
 10
118.0
 20
13.75
  7
TEXTSTYLE_7
 40
7.5
  1
Sprocket Z19 PilotBore
 41
0.4534090909
 72
0
  0
LINE
  8
0
 62
7
  6
CONTINUOUS
 10
210.0
 20
0.0
 11
0.0
 21
0.0
  0
LINE
  8
0
 62
7
  6
CONTINUOUS
 10
10.0
 20
10.0
 11
200.0
 21
10.0
  0
LINE
  8
0
 62
7
  6
CONTINUOUS
 10
10.0
 20
30.0
 11
200.0
 21
30.0
  0
LINE
  8
0
 62
7
  6
CONTINUOUS
 10
0.0
 20
0.0
 11
0.0
 21
297.0
  0
LINE
  8
0
 62
7
  6
CONTINUOUS
 10
10.0
 20
10.0
 11
10.0
 21
287.0
  0
LINE
  8
0
 62
7
  6
CONTINUOUS
 10
200.0
 20
287.0
 11
200.0
 21
10.0
  0
LINE
  8
0
 62
7
  6
CONTINUOUS
 10
210.0
 20
0.0
 11
210.0
 21
297.0
  0
LINE
  8
0
 62
7
  6
CONTINUOUS
 10
10.0
 20
287.0
 11
200.0
 21
287.0
  0
LINE
  8
0
 62
7
  6
CONTINUOUS
 10
0.0
 20
297.0
 11
210.0
 21
297.0
  0
LINE
  8
0
 62
7
  6
CONTINUOUS
 10
28.6613030605
 20
196.7784776577
 11
29.1910762835
 21
190.3850656507
  0
LINE
  8
0
 62
7
  6
CONTINUOUS
 10
31.8079854043
 20
221.9664621189
 11
30.2331165678
 21
215.747445725
  0
LINE
  8
0
 62
7
  6
CONTINUOUS
 10
42.9626970042
 20
244.7679660191
 11
39.4538475831
 21
239.3972721626
  0
LINE
  8
0
 62
7
  6
CONTINUOUS
 10
60.916651775
 20
262.712092609
 11
55.8540600495
 21
258.7717193043
  0
LINE
  8
0
 62
7
  6
CONTINUOUS
 10
83.7242601331
 20
273.8543173408
 11
77.6565364709
 21
271.7712651765
  0
LINE
  8
0
 62
7
  6
CONTINUOUS
 10
115.2232913988
 20
123.423504819
 11
121.5511183364
 21
124.4794323768
  0
LINE
  8
0
 62
7
  6
CONTINUOUS
 10
89.8614857064
 20
124.4794323768
 11
96.189312644
 21
123.423504819
  0
LINE
  8
0
 62
7
  6
CONTINUOUS
 10
66.2167117193
 20
133.7131117133
 11
71.8588204219
 21
130.6597551753
  0
LINE
  8
0
 62
7
  6
CONTINUOUS
 10
46.8512475857
 20
150.1239303972
 11
51.1962280289
 21
145.4040234376
  0
LINE
  8
0
 62
7
  6
CONTINUOUS
 10
33.8636418303
 20
171.9335215839
 11
36.440647964
 21
166.0585393586
  0
LINE
  8
QUILTS
 62
7
  6
CONTINUOUS
 10
47.8737111297
 20
203.1721009647
 11
47.8577859837
 21
202.6515110548
  0
LINE
  8
QUILTS
 62
7
  6
CONTINUOUS
 10
47.7940854149
 20
200.5691518992
 11
47.7781602724
 21
200.0485621009
  0
LINE
  8
QUILTS
 62
7
  6
CONTINUOUS
 10
49.3302016793
 20
216.5155340385
 11
49.3517362895
 21
216.9450272003
  0
LINE
  8
QUILTS
 62
7
  6
CONTINUOUS
 10
48.7419615376
 20
217.1337037186
 11
48.6896357292
 21
216.6046979339
  0
LINE
  8
QUILTS
 62
7
  6
CONTINUOUS
 10
48.15311432
 20
206.3241544342
 11
48.110186024
 21
205.9097048738
  0
LINE
  8
QUILTS
 62
7
  6
CONTINUOUS
 10
48.0135974041
 20
204.9771938077
 11
47.9599370494
 21
204.4591320054
  0
LINE
  8
QUILTS
 62
7
  6
CONTINUOUS
 10
46.9136888441
 20
209.0952619428
 11
46.8358368263
 21
208.5802801786
  0
LINE
  8
QUILTS
 62
7
  6
CONTINUOUS
 10
47.3617757872
 20
208.500771714
 11
47.439627805
 21
209.0157534782
  0
LINE
  8
QUILTS
 62
7
  6
CONTINUOUS
 10
48.4915060216
 20
208.8567365045
 11
48.4136540038
 21
208.3417547403
  0
LINE
  8
QUILTS
 62
7
  6
CONTINUOUS
 10
48.988289361
 20
217.9297990082
 11
48.7419615376
 21
217.1337037186
  0
LINE
  8
QUILTS
 62
7
  6
CONTINUOUS
 10
49.3517362895
 20
216.9450272003
 11
49.598064113
 21
217.7411224899
  0
LINE
  8
QUILTS
 62
7
  6
CONTINUOUS
 10
51.5110289779
 20
224.5907106816
 11
51.2723597737
 21
224.0130758394
  0
LINE
  8
QUILTS
 62
7
  6
CONTINUOUS
 10
50.2779044528
 20
221.6062632622
 11
49.9199011017
 21
220.7398121006
  0
LINE
  8
QUILTS
 62
7
  6
CONTINUOUS
 10
53.2141464361
 20
227.9645140868
 11
52.0581560457
 21
225.747830479
  0
LINE
  8
QUILTS
 62
7
  6
CONTINUOUS
 10
52.913115348
 20
226.0068549335
 11
53.8282747746
 21
227.761730161
  0
LINE
  8
QUILTS
 62
7
  6
CONTINUOUS
 10
55.1488523499
 20
227.0730549791
 11
54.2336929233
 21
225.3181797516
  0
LINE
  8
QUILTS
 62
7
  6
CONTINUOUS
 10
49.2438730677
 20
218.3959114813
 11
48.988289361
 21
217.9297990082
  0
LINE
  8
QUILTS
 62
7
  6
CONTINUOUS
 10
62.6524401669
 20
238.6665739547
 11
62.2395294152
 21
238.0562430965
  0
LINE
  8
QUILTS
 62
7
  6
CONTINUOUS
 10
58.995765162
 20
236.8045551467
 11
57.466040037
 21
234.8271980617
  0
LINE
  8
QUILTS
 62
7
  6
CONTINUOUS
 10
58.3533283862
 20
234.9309692625
 11
59.5643612631
 21
236.4963775834
  0
LINE
  8
QUILTS
 62
7
  6
CONTINUOUS
 10
60.742361324
 20
235.5850519033
 11
59.531328447
 21
234.0196435824
  0
LINE
  8
QUILTS
 62
7
  6
CONTINUOUS
 10
53.5493054532
 20
228.3771335066
 11
53.2141464361
 21
227.9645140868
  0
LINE
  8
QUILTS
 62
7
  6
CONTINUOUS
 10
63.0737234851
 20
239.128253872
 11
62.6524401669
 21
238.6665739547
  0
LINE
  8
QUILTS
 62
7
  6
CONTINUOUS
 10
62.9667741932
 20
238.3797438877
 11
63.3880575114
 21
238.841423805
  0
LINE
  8
QUILTS
 62
7
  6
CONTINUOUS
 10
64.0264520574
 20
242.4069714655
 11
63.6563547661
 21
242.0405058986
  0
LINE
  8
QUILTS
 62
7
  6
CONTINUOUS
 10
65.0942903218
 20
243.4293797111
 11
64.7152026122
 21
243.0722221474
  0
LINE
  8
QUILTS
 62
7
  6
CONTINUOUS
 10
59.3986017137
 20
237.1514111182
 11
58.995765162
 21
236.8045551467
  0
LINE
  8
QUILTS
 62
7
  6
CONTINUOUS
 10
77.9829703029
 20
252.5915032826
 11
77.5699330704
 21
252.2568667189
  0
LINE
  8
QUILTS
 62
7
  6
CONTINUOUS
 10
73.5493249886
 20
250.0490337592
 11
70.1236146312
 21
247.6771976743
  0
LINE
  8
QUILTS
 62
7
  6
CONTINUOUS
 10
70.426402296
 20
247.2398728332
 11
73.4238973885
 21
249.3152283895
  0
LINE
  8
QUILTS
 62
7
  6
CONTINUOUS
 10
75.6205981257
 20
251.2809870182
 11
75.0847222999
 21
250.959331769
  0
LINE
  8
QUILTS
 62
7
  6
CONTINUOUS
 10
78.4450839298
 20
252.8317531788
 11
77.9829703029
 21
252.5915032826
  0
LINE
  8
QUILTS
 62
7
  6
CONTINUOUS
 10
78.135910088
 20
252.071509848
 11
78.782865781
 21
252.4078579431
  0
LINE
  8
QUILTS
 62
7
  6
CONTINUOUS
 10
78.9562697203
 20
252.9776142081
 11
78.4450839298
 21
252.8317531788
  0
LINE
  8
QUILTS
 62
7
  6
CONTINUOUS
 10
53.1458277622
 20
216.9704909899
 11
53.1550839977
 21
216.6405093123
  0
LINE
  8
QUILTS
 62
7
  6
CONTINUOUS
 10
53.817184268
 20
216.9808374206
 11
53.8079280236
 21
217.310819101
  0
LINE
  8
QUILTS
 62
7
  6
CONTINUOUS
 10
55.7208307999
 20
227.4796526573
 11
55.7228360142
 21
227.7135666612
  0
LINE
  8
QUILTS
 62
7
  6
CONTINUOUS
 10
50.8064512985
 20
201.6233712836
 11
50.7937111827
 21
201.2068993854
  0
LINE
  8
QUILTS
 62
7
  6
CONTINUOUS
 10
51.2190441209
 20
201.1938882053
 11
51.2317842367
 21
201.6103601034
  0
LINE
  8
QUILTS
 62
7
  6
CONTINUOUS
 10
51.2668195495
 20
202.7556576372
 11
51.2827446954
 21
203.2762475471
  0
LINE
  8
QUILTS
 62
7
  6
CONTINUOUS
 10
53.7648588209
 20
216.451832772
 11
53.817184268
 21
216.9808374206
  0
LINE
  8
QUILTS
 62
7
  6
CONTINUOUS
 10
51.3460764165
 20
204.1083988718
 11
51.3997367711
 21
204.626460674
  0
LINE
  8
QUILTS
 62
7
  6
CONTINUOUS
 10
51.592914011
 20
206.4914828063
 11
51.6465743349
 21
207.0095443121
  0
LINE
  8
QUILTS
 62
7
  6
CONTINUOUS
 10
51.7796636486
 20
207.8329005224
 11
51.8575156665
 21
208.3478822867
  0
LINE
  8
QUILTS
 62
7
  6
CONTINUOUS
 10
55.1990241979
 20
227.3993315046
 11
55.1488523499
 21
227.0730549791
  0
LINE
  8
QUILTS
 62
7
  6
CONTINUOUS
 10
57.1798903627
 20
226.3663188351
 11
57.1297185147
 21
226.0400423095
  0
LINE
  8
QUILTS
 62
7
  6
CONTINUOUS
 10
61.3772211392
 20
235.8841071393
 11
61.420554902
 21
236.1139809462
  0
LINE
  8
QUILTS
 62
7
  6
CONTINUOUS
 10
62.2395294152
 20
238.0562430965
 11
62.1776846134
 21
237.830641687
  0
LINE
  8
QUILTS
 62
7
  6
CONTINUOUS
 10
62.7026594952
 20
237.7746506981
 11
62.7645042971
 21
238.0002521076
  0
LINE
  8
QUILTS
 62
7
  6
CONTINUOUS
 10
63.3145888431
 20
237.4982994904
 11
63.1909008465
 21
237.0470984324
  0
LINE
  8
QUILTS
 62
7
  6
CONTINUOUS
 10
63.707506486
 20
237.1397618062
 11
63.7693496808
 21
237.3653614546
  0
LINE
  8
QUILTS
 62
7
  6
CONTINUOUS
 10
57.6475136518
 20
225.6525333059
 11
57.794018759
 21
226.1635348791
  0
LINE
  8
QUILTS
 62
7
  6
CONTINUOUS
 10
51.0999707728
 20
200.7806691766
 11
51.2190441209
 21
201.1938882053
  0
LINE
  8
QUILTS
 62
7
  6
CONTINUOUS
 10
52.6684729102
 20
217.227232928
 11
52.4837271306
 21
216.6301617455
  0
LINE
  8
QUILTS
 62
7
  6
CONTINUOUS
 10
53.1550839977
 20
216.6405093123
 11
52.9087561743
 21
215.8444140227
  0
LINE
  8
QUILTS
 62
7
  6
CONTINUOUS
 10
53.5185309974
 20
215.6557374824
 11
53.7648588209
 21
216.451832772
  0
LINE
  8
QUILTS
 62
7
  6
CONTINUOUS
 10
54.072768336
 20
217.4469510298
 11
54.2575141155
 21
218.0440222123
  0
LINE
  8
QUILTS
 62
7
  6
CONTINUOUS
 10
60.8494341199
 20
235.8973162173
 11
60.742361324
 21
235.5850519033
  0
LINE
  8
QUILTS
 62
7
  6
CONTINUOUS
 10
62.6164340344
 20
234.5303278339
 11
62.5093612385
 21
234.2180635198
  0
LINE
  8
QUILTS
 62
7
  6
CONTINUOUS
 10
65.3275356767
 20
237.494697364
 11
65.1336335534
 21
236.9665493345
  0
LINE
  8
QUILTS
 62
7
  6
CONTINUOUS
 10
48.5334534078
 20
205.8658632359
 11
48.6821985498
 21
206.2693523868
  0
LINE
  8
QUILTS
 62
7
  6
CONTINUOUS
 10
54.5409798397
 20
218.8304584671
 11
54.7796490439
 21
219.4080933093
  0
LINE
  8
QUILTS
 62
7
  6
CONTINUOUS
 10
55.7741039096
 20
221.8149047848
 11
56.1321077158
 21
222.6813570481
  0
LINE
  8
QUILTS
 62
7
  6
CONTINUOUS
 10
48.2911273726
 20
206.6240310468
 11
48.15311432
 21
206.3241544342
  0
LINE
  8
QUILTS
 62
7
  6
CONTINUOUS
 10
62.9504793321
 20
233.7451048966
 11
63.1850301871
 21
234.2221502306
  0
LINE
  8
QUILTS
 62
7
  6
CONTINUOUS
 10
54.7996546281
 20
225.0230333041
 11
55.7148140547
 21
226.7779085316
  0
LINE
  8
QUILTS
 62
7
  6
CONTINUOUS
 10
57.1297185147
 20
226.0400423095
 11
56.2145590881
 21
224.285167082
  0
LINE
  8
QUILTS
 62
7
  6
CONTINUOUS
 10
56.4915232613
 20
223.4358496981
 11
57.6475136518
 21
225.6525333059
  0
LINE
  8
QUILTS
 62
7
  6
CONTINUOUS
 10
62.7645042971
 20
238.0002521076
 11
62.9667741932
 21
238.3797438877
  0
LINE
  8
QUILTS
 62
7
  6
CONTINUOUS
 10
63.7693496808
 20
237.3653614546
 11
63.9716195769
 21
237.7448532347
  0
LINE
  8
QUILTS
 62
7
  6
CONTINUOUS
 10
53.2629469294
 20
215.1896238732
 11
53.5185309974
 21
215.6557374824
  0
LINE
  8
QUILTS
 62
7
  6
CONTINUOUS
 10
65.4479676072
 20
236.6797192424
 11
65.7204532577
 21
237.1361597363
  0
LINE
  8
QUILTS
 62
7
  6
CONTINUOUS
 10
77.5699330704
 20
252.2568667189
 11
77.2550359344
 21
251.7334502215
  0
LINE
  8
QUILTS
 62
7
  6
CONTINUOUS
 10
49.598064113
 20
217.7411224899
 11
49.8228569739
 21
218.1077234789
  0
LINE
  8
QUILTS
 62
7
  6
CONTINUOUS
 10
52.9087561743
 20
215.8444140227
 11
52.6839633134
 21
215.4778130337
  0
LINE
  8
QUILTS
 62
7
  6
CONTINUOUS
 10
63.6572854406
 20
238.0316834022
 11
63.3145888431
 21
237.4982994904
  0
LINE
  8
QUILTS
 62
7
  6
CONTINUOUS
 10
48.6821985498
 20
206.2693523868
 11
48.8094795131
 21
206.4656164611
  0
LINE
  8
QUILTS
 62
7
  6
CONTINUOUS
 10
60.0361855149
 20
233.6290755119
 11
61.2472183919
 21
235.1944838328
  0
LINE
  8
QUILTS
 62
7
  6
CONTINUOUS
 10
62.5093612385
 20
234.2180635198
 11
61.2983283615
 21
232.6526551989
  0
LINE
  8
QUILTS
 62
7
  6
CONTINUOUS
 10
61.4207542071
 20
231.7677478116
 11
62.9504793321
 21
233.7451048966
  0
LINE
  8
QUILTS
 62
7
  6
CONTINUOUS
 10
62.4385447973
 20
237.1695575084
 11
62.7896139612
 21
237.5542904793
  0
LINE
  8
QUILTS
 62
7
  6
CONTINUOUS
 10
64.4296363157
 20
238.8780945292
 11
63.6572854406
 21
238.0316834022
  0
LINE
  8
QUILTS
 62
7
  6
CONTINUOUS
 10
63.9716195769
 20
237.7448532347
 11
64.743970452
 21
238.5912643618
  0
LINE
  8
QUILTS
 62
7
  6
CONTINUOUS
 10
65.1336335534
 20
236.9665493345
 11
64.7123518423
 21
236.5048711783
  0
LINE
  8
QUILTS
 62
7
  6
CONTINUOUS
 10
65.0266858961
 20
236.2180410862
 11
65.4479676072
 21
236.6797192424
  0
LINE
  8
QUILTS
 62
7
  6
CONTINUOUS
 10
66.2203184823
 20
237.5261303695
 11
66.5713844321
 21
237.9108598181
  0
LINE
  8
QUILTS
 62
7
  6
CONTINUOUS
 10
77.9077149216
 20
251.8329714831
 11
78.135910088
 21
252.071509848
  0
LINE
  8
QUILTS
 62
7
  6
CONTINUOUS
 10
79.9925043574
 20
250.7586187028
 11
79.764309191
 21
250.5200803379
  0
LINE
  8
QUILTS
 62
7
  6
CONTINUOUS
 10
80.8267312422
 20
249.1540077648
 11
80.5985360758
 21
248.9154693999
  0
LINE
  8
QUILTS
 62
7
  6
CONTINUOUS
 10
49.5702954063
 20
218.7310675228
 11
49.2438730677
 21
218.3959114813
  0
LINE
  8
QUILTS
 62
7
  6
CONTINUOUS
 10
67.1744134728
 20
238.4875827448
 11
67.5445107641
 21
238.8540483118
  0
LINE
  8
QUILTS
 62
7
  6
CONTINUOUS
 10
53.8282747746
 20
227.761730161
 11
54.0671005242
 21
227.9896245374
  0
LINE
  8
QUILTS
 62
7
  6
CONTINUOUS
 10
55.7148140547
 20
226.7779085316
 11
55.9536398043
 21
227.005802908
  0
LINE
  8
QUILTS
 62
7
  6
CONTINUOUS
 10
68.1439047596
 20
239.4329912418
 11
68.5229924692
 21
239.7901488055
  0
LINE
  8
QUILTS
 62
7
  6
CONTINUOUS
 10
79.9172490448
 20
250.0000867711
 11
80.3302904394
 21
250.3347256666
  0
LINE
  8
QUILTS
 62
7
  6
CONTINUOUS
 10
80.7514758952
 20
248.3954758992
 11
81.1645173542
 21
248.7301146708
  0
LINE
  8
QUILTS
 62
7
  6
CONTINUOUS
 10
63.5735887028
 20
239.5182245115
 11
63.0737234851
 21
239.128253872
  0
LINE
  8
QUILTS
 62
7
  6
CONTINUOUS
 10
55.9114899158
 20
227.615184512
 11
55.7208307999
 21
227.4796526573
  0
LINE
  8
QUILTS
 62
7
  6
CONTINUOUS
 10
76.0321841361
 20
246.4629696328
 11
73.1203305283
 21
244.4469090965
  0
LINE
  8
QUILTS
 62
7
  6
CONTINUOUS
 10
72.9698190188
 20
243.5663436774
 11
76.3955293761
 21
245.9381797622
  0
LINE
  8
QUILTS
 62
7
  6
CONTINUOUS
 10
59.5643612631
 20
236.4963775834
 11
59.8397197484
 21
236.6784525406
  0
LINE
  8
QUILTS
 62
7
  6
CONTINUOUS
 10
61.2472183919
 20
235.1944838328
 11
61.5225768772
 21
235.37655879
  0
LINE
  8
QUILTS
 62
7
  6
CONTINUOUS
 10
63.3880575114
 20
238.841423805
 11
63.7474944206
 21
239.0775005516
  0
LINE
  8
QUILTS
 62
7
  6
CONTINUOUS
 10
64.6672473729
 20
235.9819625848
 11
65.0266858961
 21
236.2180410862
  0
LINE
  8
QUILTS
 62
7
  6
CONTINUOUS
 10
77.6579642933
 20
246.6723251626
 11
78.1938401191
 21
246.9939804117
  0
LINE
  8
QUILTS
 62
7
  6
CONTINUOUS
 10
79.764309191
 20
250.5200803379
 11
79.117353498
 21
250.1837322428
  0
LINE
  8
QUILTS
 62
7
  6
CONTINUOUS
 10
79.455135418
 20
249.7598368748
 11
79.9172490448
 21
250.0000867711
  0
LINE
  8
QUILTS
 62
7
  6
CONTINUOUS
 10
79.0101916736
 20
248.809106478
 11
78.5480780467
 21
248.5688565818
  0
LINE
  8
QUILTS
 62
7
  6
CONTINUOUS
 10
80.5985360758
 20
248.9154693999
 11
80.0440014158
 21
248.6271704043
  0
LINE
  8
QUILTS
 62
7
  6
CONTINUOUS
 10
80.3817875322
 20
248.2032773019
 11
80.7514758952
 21
248.3954758992
  0
LINE
  8
QUILTS
 62
7
  6
CONTINUOUS
 10
61.5888405913
 20
235.9837915894
 11
61.3772211392
 21
235.8841071393
  0
LINE
  8
QUILTS
 62
7
  6
CONTINUOUS
 10
63.7474944206
 20
239.0775005516
 11
63.9665062356
 21
239.1596869277
  0
LINE
  8
QUILTS
 62
7
  6
CONTINUOUS
 10
78.9439537895
 20
249.6139781774
 11
79.455135418
 21
249.7598368748
  0
LINE
  8
QUILTS
 62
7
  6
CONTINUOUS
 10
79.8706017374
 20
248.057416281
 11
80.3817875322
 21
248.2032773019
  0
LINE
  8
QUILTS
 62
7
  6
CONTINUOUS
 10
50.7128581473
 20
202.0430958287
 11
50.8064512985
 21
201.6233712836
  0
LINE
  8
QUILTS
 62
7
  6
CONTINUOUS
 10
51.2317842367
 20
201.6103601034
 11
51.1381911134
 21
202.0300846477
  0
LINE
  8
QUILTS
 62
7
  6
CONTINUOUS
 10
48.6896357292
 20
216.6046979339
 11
48.7697302443
 21
216.1437586857
  0
LINE
  8
QUILTS
 62
7
  6
CONTINUOUS
 10
48.110186024
 20
205.9097048738
 11
48.173074574
 21
205.484294904
  0
LINE
  8
QUILTS
 62
7
  6
CONTINUOUS
 10
48.5963419578
 20
205.4404532661
 11
48.5334534078
 21
205.8658632359
  0
LINE
  8
QUILTS
 62
7
  6
CONTINUOUS
 10
63.1850301871
 20
234.2221502306
 11
63.187554846
 21
234.74699254
  0
LINE
  8
QUILTS
 62
7
  6
CONTINUOUS
 10
65.7204532577
 20
237.1361597363
 11
65.7739270795
 21
237.5104138667
  0
LINE
  8
QUILTS
 62
7
  6
CONTINUOUS
 10
77.7285919189
 20
251.5000442512
 11
77.9077149216
 21
251.8329714831
  0
LINE
  8
QUILTS
 62
7
  6
CONTINUOUS
 10
80.1716273601
 20
251.0915459347
 11
79.9925043574
 21
250.7586187028
  0
LINE
  8
QUILTS
 62
7
  6
CONTINUOUS
 10
80.3302904394
 20
250.3347256666
 11
80.6885364448
 21
251.0005801304
  0
LINE
  8
QUILTS
 62
7
  6
CONTINUOUS
 10
81.0058542449
 20
249.4869349967
 11
80.8267312422
 21
249.1540077648
  0
LINE
  8
QUILTS
 62
7
  6
CONTINUOUS
 10
50.7937111827
 20
201.2068993854
 11
50.5683045814
 21
200.7969331524
  0
LINE
  8
QUILTS
 62
7
  6
CONTINUOUS
 10
81.1645173542
 20
248.7301146708
 11
81.4794102465
 21
249.2535289934
  0
LINE
  8
QUILTS
 62
7
  6
CONTINUOUS
 10
50.8777492075
 20
200.4748208434
 11
51.0999707728
 21
200.7806691766
  0
LINE
  8
QUILTS
 62
7
  6
CONTINUOUS
 10
48.5349572712
 20
206.9129472499
 11
48.2911273726
 21
206.6240310468
  0
LINE
  8
QUILTS
 62
7
  6
CONTINUOUS
 10
52.9365249165
 20
214.8544689788
 11
53.2629469294
 21
215.1896238732
  0
LINE
  8
QUILTS
 62
7
  6
CONTINUOUS
 10
49.8228569739
 20
218.1077234789
 11
50.1184881143
 21
218.3433668974
  0
LINE
  8
QUILTS
 62
7
  6
CONTINUOUS
 10
52.6839633134
 20
215.4778130337
 11
52.3883321018
 21
215.2421696373
  0
LINE
  8
QUILTS
 62
7
  6
CONTINUOUS
 10
54.0249506357
 20
228.5990061415
 11
53.5493054532
 21
228.3771335066
  0
LINE
  8
QUILTS
 62
7
  6
CONTINUOUS
 10
64.7123518423
 20
236.5048711783
 11
64.2743297919
 21
236.3405002124
  0
LINE
  8
QUILTS
 62
7
  6
CONTINUOUS
 10
64.4482371581
 20
235.8997779761
 11
64.6672473729
 21
235.9819625848
  0
LINE
  8
QUILTS
 62
7
  6
CONTINUOUS
 10
50.5097467825
 20
202.3619553045
 11
50.7128581473
 21
202.0430958287
  0
LINE
  8
QUILTS
 62
7
  6
CONTINUOUS
 10
48.173074574
 20
205.484294904
 11
48.3525120899
 21
205.1515373594
  0
LINE
  8
QUILTS
 62
7
  6
CONTINUOUS
 10
48.7757794738
 20
205.1076957216
 11
48.5963419578
 21
205.4404532661
  0
LINE
  8
QUILTS
 62
7
  6
CONTINUOUS
 10
51.1381911134
 20
202.0300846477
 11
51.0382279391
 21
202.2415734662
  0
LINE
  8
QUILTS
 62
7
  6
CONTINUOUS
 10
49.4410870402
 20
216.1541062745
 11
49.3302016793
 21
216.5155340385
  0
LINE
  8
QUILTS
 62
7
  6
CONTINUOUS
 10
57.794018759
 20
226.1635348791
 11
57.703702212
 21
226.6805539744
  0
LINE
  8
QUILTS
 62
7
  6
CONTINUOUS
 10
62.1776846134
 20
237.830641687
 11
62.1944249252
 21
237.5333345218
  0
LINE
  8
QUILTS
 62
7
  6
CONTINUOUS
 10
63.1909008465
 20
237.0470984324
 11
63.2076412684
 21
236.7497911668
  0
LINE
  8
QUILTS
 62
7
  6
CONTINUOUS
 10
63.7242451908
 20
236.8424528799
 11
63.707506486
 21
237.1397618062
  0
LINE
  8
QUILTS
 62
7
  6
CONTINUOUS
 10
65.3024259575
 20
237.9406590426
 11
65.3275356767
 21
237.494697364
  0
LINE
  8
QUILTS
 62
7
  6
CONTINUOUS
 10
77.2550359344
 20
251.7334502215
 11
77.174057259
 21
251.2117452555
  0
LINE
  8
QUILTS
 62
7
  6
CONTINUOUS
 10
75.0847222999
 20
250.959331769
 11
74.9320952359
 21
249.9991862503
  0
LINE
  8
QUILTS
 62
7
  6
CONTINUOUS
 10
75.3700939743
 20
249.2694828296
 11
75.5227208849
 21
250.2296286038
  0
LINE
  8
QUILTS
 62
7
  6
CONTINUOUS
 10
73.1203305283
 20
244.4469090965
 11
73.9732277192
 21
249.4367789815
  0
LINE
  8
QUILTS
 62
7
  6
CONTINUOUS
 10
73.4238973885
 20
249.3152283895
 11
72.4853587128
 21
244.2660634845
  0
LINE
  8
QUILTS
 62
7
  6
CONTINUOUS
 10
50.5491944094
 20
200.172225361
 11
50.8777492075
 21
200.4748208434
  0
LINE
  8
QUILTS
 62
7
  6
CONTINUOUS
 10
48.7680550804
 20
207.0982509147
 11
48.5349572712
 21
206.9129472499
  0
LINE
  8
QUILTS
 62
7
  6
CONTINUOUS
 10
48.8094795131
 20
206.4656164611
 11
49.0425773223
 21
206.6509201259
  0
LINE
  8
QUILTS
 62
7
  6
CONTINUOUS
 10
50.0999756432
 20
219.0033302526
 11
49.5702954063
 21
218.7310675228
  0
LINE
  8
QUILTS
 62
7
  6
CONTINUOUS
 10
54.2575141155
 20
218.0440222123
 11
53.5954134839
 21
217.7036929679
  0
LINE
  8
QUILTS
 62
7
  6
CONTINUOUS
 10
53.0657331759
 20
217.4314302601
 11
52.6684729102
 21
217.227232928
  0
LINE
  8
QUILTS
 62
7
  6
CONTINUOUS
 10
53.8079280236
 20
217.310819101
 11
54.072768336
 21
217.4469510298
  0
LINE
  8
QUILTS
 62
7
  6
CONTINUOUS
 10
52.4837271306
 20
216.6301617455
 11
53.1458277622
 21
216.9704909899
  0
LINE
  8
QUILTS
 62
7
  6
CONTINUOUS
 10
52.4068446441
 20
214.58220626
 11
52.9365249165
 21
214.8544689788
  0
LINE
  8
QUILTS
 62
7
  6
CONTINUOUS
 10
130.9128834121
 20
251.8512858754
 11
130.6346835991
 21
251.7450989688
  0
LINE
  8
QUILTS
 62
7
  6
CONTINUOUS
 10
138.4302998434
 20
249.1424821152
 11
137.9307094653
 21
248.9717686959
  0
LINE
  8
QUILTS
 62
7
  6
CONTINUOUS
 10
54.0671005242
 20
227.9896245374
 11
54.3520865909
 21
228.0759653176
  0
LINE
  8
QUILTS
 62
7
  6
CONTINUOUS
 10
55.9536398043
 20
227.005802908
 11
56.2386258709
 21
227.0921436881
  0
LINE
  8
QUILTS
 62
7
  6
CONTINUOUS
 10
51.0382279391
 20
202.2415734662
 11
50.7287832887
 21
202.5636855896
  0
LINE
  8
QUILTS
 62
7
  6
CONTINUOUS
 10
48.3525120899
 20
205.1515373594
 11
48.5426816339
 21
204.9223917603
  0
LINE
  8
QUILTS
 62
7
  6
CONTINUOUS
 10
48.9659490177
 20
204.8785501225
 11
48.7757794738
 21
205.1076957216
  0
LINE
  8
QUILTS
 62
7
  6
CONTINUOUS
 10
48.7697302443
 20
216.1437586857
 11
49.05308301
 21
215.6199272648
  0
LINE
  8
QUILTS
 62
7
  6
CONTINUOUS
 10
53.5954134839
 20
217.7036929679
 11
53.4537372773
 21
217.9656092478
  0
LINE
  8
QUILTS
 62
7
  6
CONTINUOUS
 10
55.1067024614
 20
227.6824365831
 11
55.1990241979
 21
227.3993315046
  0
LINE
  8
QUILTS
 62
7
  6
CONTINUOUS
 10
57.0875685601
 20
226.649423948
 11
57.1798903627
 21
226.3663188351
  0
LINE
  8
QUILTS
 62
7
  6
CONTINUOUS
 10
60.8086250381
 20
236.1922847026
 11
60.8494341199
 21
235.8973162173
  0
LINE
  8
QUILTS
 62
7
  6
CONTINUOUS
 10
62.5756248937
 20
234.8252963648
 11
62.6164340344
 21
234.5303278339
  0
LINE
  8
QUILTS
 62
7
  6
CONTINUOUS
 10
77.6909621129
 20
251.1207772517
 11
77.7285919189
 21
251.5000442512
  0
LINE
  8
QUILTS
 62
7
  6
CONTINUOUS
 10
80.2092571661
 20
251.4708129342
 11
80.1716273601
 21
251.0915459347
  0
LINE
  8
QUILTS
 62
7
  6
CONTINUOUS
 10
81.0434840165
 20
249.8662020623
 11
81.0058542449
 21
249.4869349967
  0
LINE
  8
QUILTS
 62
7
  6
CONTINUOUS
 10
81.4794102465
 20
249.2535289934
 11
81.5603889048
 21
249.7752339924
  0
LINE
  8
QUILTS
 62
7
  6
CONTINUOUS
 10
50.5683045814
 20
200.7969331524
 11
50.2429347733
 21
200.5984555898
  0
LINE
  8
QUILTS
 62
7
  6
CONTINUOUS
 10
130.9743937261
 20
251.237440522
 11
131.4361719944
 21
251.4933593535
  0
LINE
  8
QUILTS
 62
7
  6
CONTINUOUS
 10
138.0903509389
 20
248.4717843168
 11
138.4436678475
 21
248.6146990974
  0
LINE
  8
QUILTS
 62
7
  6
CONTINUOUS
 10
138.5372436208
 20
244.9202176059
 11
138.1839266697
 21
244.7773027641
  0
LINE
  8
QUILTS
 62
7
  6
CONTINUOUS
 10
138.1972946525
 20
244.2495197157
 11
138.6968850519
 21
244.4202331657
  0
LINE
  8
QUILTS
 62
7
  6
CONTINUOUS
 10
50.1184881143
 20
218.3433668974
 11
50.484957819
 21
218.4480526572
  0
LINE
  8
QUILTS
 62
7
  6
CONTINUOUS
 10
52.3883321018
 20
215.2421696373
 11
52.0218626818
 21
215.1374837893
  0
LINE
  8
QUILTS
 62
7
  6
CONTINUOUS
 10
50.197117088
 20
202.5799495657
 11
50.5097467825
 21
202.3619553045
  0
LINE
  8
QUILTS
 62
7
  6
CONTINUOUS
 10
49.6843926569
 20
215.8607438202
 11
49.4410870402
 21
216.1541062745
  0
LINE
  8
QUILTS
 62
7
  6
CONTINUOUS
 10
52.8224278439
 20
217.7247926264
 11
53.0657331759
 21
217.4314302601
  0
LINE
  8
QUILTS
 62
7
  6
CONTINUOUS
 10
55.7228360142
 20
227.7135666612
 11
55.4900270098
 21
228.1874164105
  0
LINE
  8
QUILTS
 62
7
  6
CONTINUOUS
 10
57.703702212
 20
226.6805539744
 11
57.4708931746
 21
227.1544037409
  0
LINE
  8
QUILTS
 62
7
  6
CONTINUOUS
 10
61.420554902
 20
236.1139809462
 11
61.275199164
 21
236.6215292955
  0
LINE
  8
QUILTS
 62
7
  6
CONTINUOUS
 10
63.187554846
 20
234.74699254
 11
63.0421990785
 21
235.254540912
  0
LINE
  8
QUILTS
 62
7
  6
CONTINUOUS
 10
77.174057259
 20
251.2117452555
 11
77.2345719177
 21
250.6437002575
  0
LINE
  8
0
 62
7
  6
CONTINUOUS
 10
77.4918795601
 20
268.8801976383
 11
77.5014867525
 21
268.6667183577
  0
LINE
  8
0
 62
7
  6
CONTINUOUS
 10
66.5747682887
 20
136.8008369048
 11
66.5301545912
 21
136.5918504953
  0
LINE
  8
0
 62
7
  6
CONTINUOUS
 10
101.4041767863
 20
274.3062497624
 11
101.3439468254
 21
274.1012179278
  0
LINE
  8
0
 62
7
  6
CONTINUOUS
 10
48.1924863932
 20
152.9280933429
 11
48.0824322126
 21
152.7449164374
  0
LINE
  8
0
 62
7
  6
CONTINUOUS
 10
125.7826760361
 20
271.6739931988
 11
125.6591357727
 21
271.4996271909
  0
LINE
  8
0
 62
7
  6
CONTINUOUS
 10
36.0427188398
 20
174.1502477177
 11
35.8791502543
 21
174.0127303761
  0
LINE
  8
0
 62
7
  6
CONTINUOUS
 10
147.9855886444
 20
261.2686737901
 11
147.812125583
 21
261.1438688714
  0
LINE
  8
QUILTS
 62
7
  6
CONTINUOUS
 10
137.9307094653
 20
248.9717686959
 11
137.455836793
 21
248.6542295614
  0
LINE
  8
QUILTS
 62
7
  6
CONTINUOUS
 10
51.2827446954
 20
203.2762475471
 11
51.0668931917
 21
203.1786349764
  0
LINE
  8
QUILTS
 62
7
  6
CONTINUOUS
 10
50.3333429303
 20
200.0746129853
 11
50.5491944094
 21
200.172225361
  0
LINE
  8
0
 62
7
  6
CONTINUOUS
 10
31.442081466
 20
198.1675503069
 11
31.2427236698
 21
198.0905946671
  0
LINE
  8
0
 62
7
  6
CONTINUOUS
 10
165.6068845163
 20
244.2178693492
 11
165.4022960712
 21
244.1561500692
  0
LINE
  8
0
 62
7
  6
CONTINUOUS
 10
179.2500417032
 20
189.4726392243
 11
179.4593470009
 21
189.5157320746
  0
LINE
  8
0
 62
7
  6
CONTINUOUS
 10
39.3354383007
 20
166.1331872997
 11
39.5473950857
 21
166.1603906579
  0
LINE
  8
0
 62
7
  6
CONTINUOUS
 10
171.8652089571
 20
166.1603906579
 11
172.0771657421
 21
166.1331872997
  0
LINE
  8
0
 62
7
  6
CONTINUOUS
 10
31.9532570419
 20
189.5157320746
 11
32.1625623396
 21
189.4726392243
  0
LINE
  8
0
 62
7
  6
CONTINUOUS
 10
157.3110320834
 20
146.5091152939
 11
157.5026715491
 21
146.4145636331
  0
LINE
  8
0
 62
7
  6
CONTINUOUS
 10
32.5633626031
 20
214.0283364139
 11
32.7473349368
 21
213.9196171339
  0
LINE
  8
QUILTS
 62
7
  6
CONTINUOUS
 10
49.05308301
 20
215.6199272648
 11
49.3980174674
 21
215.2951188122
  0
LINE
  8
QUILTS
 62
7
  6
CONTINUOUS
 10
53.4537372773
 20
217.9656092478
 11
53.1088027487
 21
218.2904177225
  0
LINE
  8
0
 62
7
  6
CONTINUOUS
 10
137.1646819775
 20
132.6483337388
 11
137.3152370144
 21
132.496679915
  0
LINE
  8
0
 62
7
  6
CONTINUOUS
 10
41.0996405799
 20
237.014679285
 11
41.2383436926
 21
236.8521149965
  0
LINE
  8
0
 62
7
  6
CONTINUOUS
 10
113.6093282764
 20
126.0800767463
 11
113.7024839099
 21
125.8877548044
  0
LINE
  8
QUILTS
 62
7
  6
CONTINUOUS
 10
62.1944249252
 20
237.5333345218
 11
62.2813777841
 21
237.3129725419
  0
LINE
  8
QUILTS
 62
7
  6
CONTINUOUS
 10
62.7896139612
 20
237.5542904793
 11
62.7026594952
 21
237.7746506981
  0
LINE
  8
QUILTS
 62
7
  6
CONTINUOUS
 10
63.2076412684
 20
236.7497911668
 11
63.3815469862
 21
236.309067207
  0
LINE
  8
QUILTS
 62
7
  6
CONTINUOUS
 10
65.2154714915
 20
238.1610192613
 11
65.3024259575
 21
237.9406590426
  0
LINE
  8
QUILTS
 62
7
  6
CONTINUOUS
 10
65.7739270795
 20
237.5104138667
 11
65.686972586
 21
237.7307741106
  0
LINE
  8
0
 62
7
  6
CONTINUOUS
 10
56.6370527995
 20
255.9838337682
 11
56.7154560568
 21
255.7850408341
  0
LINE
  8
0
 62
7
  6
CONTINUOUS
 10
89.1975590524
 20
127.5161168786
 11
89.2232204244
 21
127.3039678852
  0
LINE
  8
QUILTS
 62
7
  6
CONTINUOUS
 10
81.5603889048
 20
249.7752339924
 11
81.4998743492
 21
250.3432787921
  0
LINE
  8
0
 62
7
  6
CONTINUOUS
 10
89.2545439618
 20
126.5237072393
 11
89.226081967
 21
125.2806738434
  0
LINE
  8
0
 62
7
  6
CONTINUOUS
 10
101.7400225551
 20
276.3014777161
 11
101.5634997929
 21
275.0707129852
  0
LINE
  8
0
 62
7
  6
CONTINUOUS
 10
66.3064307154
 20
135.8436957874
 11
65.8758985861
 21
134.6772549641
  0
LINE
  8
0
 62
7
  6
CONTINUOUS
 10
126.7481742123
 20
273.4520652558
 11
126.1815872854
 21
272.3453036
  0
LINE
  8
0
 62
7
  6
CONTINUOUS
 10
47.627904877
 20
152.1099418389
 11
46.8419574498
 21
151.1464955507
  0
LINE
  8
QUILTS
 62
7
  6
CONTINUOUS
 10
131.1409360846
 20
252.0976582653
 11
130.9128834121
 21
251.8512858754
  0
LINE
  8
QUILTS
 62
7
  6
CONTINUOUS
 10
131.4361719944
 20
251.4933593535
 11
131.6642246669
 21
251.7397317434
  0
LINE
  8
0
 62
7
  6
CONTINUOUS
 10
149.4761125193
 20
262.6369082532
 11
148.5808599128
 21
261.7740844711
  0
LINE
  8
QUILTS
 62
7
  6
CONTINUOUS
 10
132.8274139391
 20
249.1781216838
 11
135.0685728268
 21
251.2045602373
  0
LINE
  8
QUILTS
 62
7
  6
CONTINUOUS
 10
131.5294520643
 20
247.9600094528
 11
132.5255254148
 21
248.8606471868
  0
LINE
  8
QUILTS
 62
7
  6
CONTINUOUS
 10
134.9185304129
 20
251.780902544
 11
130.987121698
 21
248.2706584085
  0
LINE
  8
QUILTS
 62
7
  6
CONTINUOUS
 10
137.8225217057
 20
248.2693613242
 11
138.0903509389
 21
248.4717843168
  0
LINE
  8
QUILTS
 62
7
  6
CONTINUOUS
 10
136.8500768726
 20
246.8723683276
 11
137.1179060207
 21
247.0747911979
  0
LINE
  8
QUILTS
 62
7
  6
CONTINUOUS
 10
138.8050726838
 20
245.1226403539
 11
138.5372436208
 21
244.9202176059
  0
LINE
  8
QUILTS
 62
7
  6
CONTINUOUS
 10
138.6968850519
 20
244.4202331657
 11
139.1717575965
 21
244.7377721167
  0
LINE
  8
0
 62
7
  6
CONTINUOUS
 10
35.2430745483
 20
173.5597452375
 11
34.1868814223
 21
172.9036978391
  0
LINE
  8
0
 62
7
  6
CONTINUOUS
 10
167.4609127003
 20
245.0279967841
 11
166.3340089253
 21
244.5026112206
  0
LINE
  8
QUILTS
 62
7
  6
CONTINUOUS
 10
50.7287832887
 20
202.5636855896
 11
51.2668195495
 21
202.7556576372
  0
LINE
  8
QUILTS
 62
7
  6
CONTINUOUS
 10
50.2429347733
 20
200.5984555898
 11
49.9207500687
 21
200.5040959995
  0
LINE
  8
0
 62
7
  6
CONTINUOUS
 10
38.5713639492
 20
165.9720096805
 11
37.3733540513
 21
165.6392719565
  0
LINE
  8
0
 62
7
  6
CONTINUOUS
 10
181.4754941634
 20
189.6856661413
 11
180.2343559839
 21
189.6113820398
  0
LINE
  8
0
 62
7
  6
CONTINUOUS
 10
31.1782480589
 20
189.6113820398
 11
29.9371098794
 21
189.6856661413
  0
LINE
  8
0
 62
7
  6
CONTINUOUS
 10
174.0392499915
 20
165.6392719565
 11
172.8412400936
 21
165.9720096805
  0
LINE
  8
0
 62
7
  6
CONTINUOUS
 10
31.8614032374
 20
214.3704488055
 11
30.7116333562
 21
214.8437048976
  0
LINE
  8
QUILTS
 62
7
  6
CONTINUOUS
 10
50.0601183124
 20
215.6354479905
 11
49.6843926569
 21
215.8607438202
  0
LINE
  8
0
 62
7
  6
CONTINUOUS
 10
159.1980706121
 20
145.3103222712
 11
158.1730119573
 21
146.0140245255
  0
LINE
  8
0
 62
7
  6
CONTINUOUS
 10
39.6129928451
 20
238.3871243589
 11
40.5467990208
 21
237.566180917
  0
LINE
  8
QUILTS
 62
7
  6
CONTINUOUS
 10
54.8718882428
 20
227.9223723285
 11
55.1067024614
 21
227.6824365831
  0
LINE
  8
QUILTS
 62
7
  6
CONTINUOUS
 10
55.4900270098
 20
228.1874164105
 11
55.2552127912
 21
228.4273521559
  0
LINE
  8
QUILTS
 62
7
  6
CONTINUOUS
 10
56.8527543415
 20
226.8893596934
 11
57.0875685601
 21
226.649423948
  0
LINE
  8
QUILTS
 62
7
  6
CONTINUOUS
 10
57.4708931746
 20
227.1544037409
 11
57.2360788899
 21
227.3943395208
  0
LINE
  8
0
 62
7
  6
CONTINUOUS
 10
138.5602280956
 20
130.90177422
 11
137.8192016946
 21
131.9001839463
  0
LINE
  8
QUILTS
 62
7
  6
CONTINUOUS
 10
60.6199355373
 20
236.469959245
 11
60.8086250381
 21
236.1922847026
  0
LINE
  8
QUILTS
 62
7
  6
CONTINUOUS
 10
61.275199164
 20
236.6215292955
 11
61.0865096632
 21
236.8992038378
  0
LINE
  8
QUILTS
 62
7
  6
CONTINUOUS
 10
62.3869353929
 20
235.1029709072
 11
62.5756248937
 21
234.8252963648
  0
LINE
  8
QUILTS
 62
7
  6
CONTINUOUS
 10
63.0421990785
 20
235.254540912
 11
62.8535095188
 21
235.5322155
  0
LINE
  8
0
 62
7
  6
CONTINUOUS
 10
55.6765879266
 20
257.7646297127
 11
56.2932380082
 21
256.6849608813
  0
LINE
  8
QUILTS
 62
7
  6
CONTINUOUS
 10
63.8897831634
 20
236.5503851444
 11
63.7242451908
 21
236.8424528799
  0
LINE
  8
0
 62
7
  6
CONTINUOUS
 10
113.9854604693
 20
125.1599415685
 11
114.3621529077
 21
123.975017556
  0
LINE
  8
0
 62
7
  6
CONTINUOUS
 10
77.1616788212
 20
270.876367581
 11
77.3943492041
 21
269.6549722308
  0
LINE
  8
QUILTS
 62
7
  6
CONTINUOUS
 10
77.7457577082
 20
250.7895612867
 11
77.6909621129
 21
251.1207772517
  0
LINE
  8
QUILTS
 62
7
  6
CONTINUOUS
 10
80.1544617083
 20
251.8020286348
 11
80.2092571661
 21
251.4708129342
  0
LINE
  8
QUILTS
 62
7
  6
CONTINUOUS
 10
80.9886885587
 20
250.1974177629
 11
81.0434840165
 21
249.8662020623
  0
LINE
  8
QUILTS
 62
7
  6
CONTINUOUS
 10
137.455836793
 20
248.6542295614
 11
136.944896543
 21
248.1025585948
  0
LINE
  8
QUILTS
 62
7
  6
CONTINUOUS
 10
137.3723592525
 20
247.8050024122
 11
137.8225217057
 21
248.2693613242
  0
LINE
  8
QUILTS
 62
7
  6
CONTINUOUS
 10
49.3980174674
 20
215.2951188122
 11
49.8753725329
 21
215.038376808
  0
LINE
  8
QUILTS
 62
7
  6
CONTINUOUS
 10
53.1088027487
 20
218.2904177225
 11
52.6314479679
 21
218.5471596385
  0
LINE
  8
QUILTS
 62
7
  6
CONTINUOUS
 10
52.4467021884
 20
217.950088456
 11
52.8224278439
 21
217.7247926264
  0
LINE
  8
QUILTS
 62
7
  6
CONTINUOUS
 10
80.7866807721
 20
250.8118023963
 11
80.9886885587
 21
250.1974177629
  0
LINE
  8
1_AXIS
 62
2
  6
CONTINUOUS
 10
105.7063020214
 20
200.8239531527
 11
105.7063020214
 21
199.0639531527
  0
LINE
  8
1_AXIS
 62
2
  6
CENTER
 10
105.7063020214
 20
195.5439531527
 11
105.7063020214
 21
120.8339531527
  0
LINE
  8
1_AXIS
 62
2
  6
CENTER
 10
105.7063020214
 20
204.3439531527
 11
105.7063020214
 21
279.0539531527
  0
LINE
  8
QUILTS
 62
7
  6
CONTINUOUS
 10
128.8301312309
 20
254.8006043355
 11
126.7398427756
 21
250.2585019397
  0
LINE
  8
QUILTS
 62
7
  6
CONTINUOUS
 10
127.3076055751
 20
249.9972158828
 11
128.2415642599
 21
252.0266659182
  0
LINE
  8
QUILTS
 62
7
  6
CONTINUOUS
 10
128.5084095628
 20
252.6065087081
 11
129.1755229447
 21
254.0561159536
  0
LINE
  8
QUILTS
 62
7
  6
CONTINUOUS
 10
136.944896543
 20
248.1025585948
 11
136.5194519658
 21
247.4913742123
  0
LINE
  8
QUILTS
 62
7
  6
CONTINUOUS
 10
137.250803659
 20
247.6303783029
 11
137.3723592525
 21
247.8050024122
  0
LINE
  8
QUILTS
 62
7
  6
CONTINUOUS
 10
136.6677434823
 20
246.6104321636
 11
136.8500768726
 21
246.8723683276
  0
LINE
  8
1_AXIS
 62
2
  6
CONTINUOUS
 10
106.5863020214
 20
199.9439531527
 11
104.8263020214
 21
199.9439531527
  0
LINE
  8
1_AXIS
 62
2
  6
CENTER
 10
101.3063020214
 20
199.9439531527
 11
26.5963020214
 21
199.9439531527
  0
LINE
  8
1_AXIS
 62
2
  6
CENTER
 10
110.1063020214
 20
199.9439531527
 11
184.8163020214
 21
199.9439531527
  0
LINE
  8
QUILTS
 62
7
  6
CONTINUOUS
 10
47.7781602724
 20
200.0485621009
 11
49.9048249262
 21
199.9835062013
  0
LINE
  8
QUILTS
 62
7
  6
CONTINUOUS
 10
49.9207500687
 20
200.5040959995
 11
47.7940854149
 21
200.5691518992
  0
LINE
  8
QUILTS
 62
7
  6
CONTINUOUS
 10
47.8577859837
 20
202.6515110548
 11
50.197117088
 21
202.5799495657
  0
LINE
  8
QUILTS
 62
7
  6
CONTINUOUS
 10
47.9599370494
 20
204.4591320054
 11
51.3460764165
 21
204.1083988718
  0
LINE
  8
QUILTS
 62
7
  6
CONTINUOUS
 10
51.3997367711
 20
204.626460674
 11
48.9659490177
 21
204.8785501225
  0
LINE
  8
QUILTS
 62
7
  6
CONTINUOUS
 10
48.5426816339
 20
204.9223917603
 11
48.0135974041
 21
204.9771938077
  0
LINE
  8
QUILTS
 62
7
  6
CONTINUOUS
 10
49.5823936414
 20
206.6997306169
 11
51.592914011
 21
206.4914828063
  0
LINE
  8
QUILTS
 62
7
  6
CONTINUOUS
 10
46.8358368263
 20
208.5802801786
 11
47.3617757872
 21
208.500771714
  0
LINE
  8
QUILTS
 62
7
  6
CONTINUOUS
 10
48.4136540038
 20
208.3417547403
 11
51.7796636486
 21
207.8329005224
  0
LINE
  8
QUILTS
 62
7
  6
CONTINUOUS
 10
51.8575156665
 20
208.3478822867
 11
48.4915060216
 21
208.8567365045
  0
LINE
  8
QUILTS
 62
7
  6
CONTINUOUS
 10
47.439627805
 20
209.0157534782
 11
46.9136888441
 21
209.0952619428
  0
LINE
  8
QUILTS
 62
7
  6
CONTINUOUS
 10
49.8753725329
 20
215.038376808
 11
51.3998095552
 21
214.5666854682
  0
LINE
  8
QUILTS
 62
7
  6
CONTINUOUS
 10
51.5845553347
 20
215.1637566507
 11
50.0601183124
 21
215.6354479905
  0
LINE
  8
QUILTS
 62
7
  6
CONTINUOUS
 10
49.9199011017
 20
220.7398121006
 11
54.5409798397
 21
218.8304584671
  0
LINE
  8
QUILTS
 62
7
  6
CONTINUOUS
 10
54.7796490439
 20
219.4080933093
 11
50.7484951809
 21
221.0736996995
  0
LINE
  8
QUILTS
 62
7
  6
CONTINUOUS
 10
52.0581560457
 20
225.747830479
 11
56.4915232613
 21
223.4358496981
  0
LINE
  8
QUILTS
 62
7
  6
CONTINUOUS
 10
56.2145590881
 20
224.285167082
 11
54.7996546281
 21
225.0230333041
  0
LINE
  8
QUILTS
 62
7
  6
CONTINUOUS
 10
54.2336929233
 20
225.3181797516
 11
52.913115348
 21
226.0068549335
  0
LINE
  8
QUILTS
 62
7
  6
CONTINUOUS
 10
57.466040037
 20
234.8271980617
 11
61.4207542071
 21
231.7677478116
  0
LINE
  8
QUILTS
 62
7
  6
CONTINUOUS
 10
61.2983283615
 20
232.6526551989
 11
60.0361855149
 21
233.6290755119
  0
LINE
  8
QUILTS
 62
7
  6
CONTINUOUS
 10
59.531328447
 20
234.0196435824
 11
58.3533283862
 21
234.9309692625
  0
LINE
  8
QUILTS
 62
7
  6
CONTINUOUS
 10
62.2813777841
 20
237.3129725419
 11
62.4385447973
 21
237.1695575084
  0
LINE
  8
QUILTS
 62
7
  6
CONTINUOUS
 10
63.3815469862
 20
236.309067207
 11
63.617297506
 21
236.0939446567
  0
LINE
  8
QUILTS
 62
7
  6
CONTINUOUS
 10
64.0469502316
 20
236.4069700607
 11
63.8897831634
 21
236.5503851444
  0
LINE
  8
QUILTS
 62
7
  6
CONTINUOUS
 10
64.1938857959
 20
239.0932170795
 11
64.4296363157
 21
238.8780945292
  0
LINE
  8
QUILTS
 62
7
  6
CONTINUOUS
 10
64.743970452
 20
238.5912643618
 11
65.2154714915
 21
238.1610192613
  0
LINE
  8
QUILTS
 62
7
  6
CONTINUOUS
 10
63.6563547661
 20
242.0405058986
 11
67.1744134728
 21
238.4875827448
  0
LINE
  8
QUILTS
 62
7
  6
CONTINUOUS
 10
67.5445107641
 20
238.8540483118
 11
64.0264520574
 21
242.4069714655
  0
LINE
  8
QUILTS
 62
7
  6
CONTINUOUS
 10
64.7152026122
 20
243.0722221474
 11
68.1439047596
 21
239.4329912418
  0
LINE
  8
QUILTS
 62
7
  6
CONTINUOUS
 10
68.5229924692
 20
239.7901488055
 11
65.0942903218
 21
243.4293797111
  0
LINE
  8
QUILTS
 62
7
  6
CONTINUOUS
 10
70.1236146312
 20
247.6771976743
 11
70.426402296
 21
247.2398728332
  0
LINE
  8
QUILTS
 62
7
  6
CONTINUOUS
 10
72.4853587128
 20
244.2660634845
 11
72.9698190188
 21
243.5663436774
  0
LINE
  8
QUILTS
 62
7
  6
CONTINUOUS
 10
74.9320952359
 20
249.9991862503
 11
75.3700939743
 21
249.2694828296
  0
LINE
  8
QUILTS
 62
7
  6
CONTINUOUS
 10
75.5227208849
 20
250.2296286038
 11
77.6579642933
 21
246.6723251626
  0
LINE
  8
QUILTS
 62
7
  6
CONTINUOUS
 10
78.1938401191
 20
246.9939804117
 11
75.6205981257
 21
251.2809870182
  0
LINE
  8
QUILTS
 62
7
  6
CONTINUOUS
 10
77.2345719177
 20
250.6437002575
 11
77.4308605722
 21
250.2661447893
  0
LINE
  8
QUILTS
 62
7
  6
CONTINUOUS
 10
77.8439020354
 20
250.6007835526
 11
77.7457577082
 21
250.7895612867
  0
LINE
  8
QUILTS
 62
7
  6
CONTINUOUS
 10
81.4998743492
 20
250.3432787921
 11
81.2487901682
 21
251.052050093
  0
LINE
  8
QUILTS
 62
7
  6
CONTINUOUS
 10
131.2743588607
 20
252.3875799309
 11
131.1409360846
 21
252.0976582653
  0
LINE
  8
QUILTS
 62
7
  6
CONTINUOUS
 10
131.6642246669
 20
251.7397317434
 11
131.8421216601
 21
252.126293874
  0
LINE
  8
QUILTS
 62
7
  6
CONTINUOUS
 10
136.5194519658
 20
247.4913742123
 11
136.1795029761
 21
246.8206762916
  0
LINE
  8
QUILTS
 62
7
  6
CONTINUOUS
 10
138.9874060741
 20
245.3845765178
 11
138.8050726838
 21
245.1226403539
  0
LINE
  8
QUILTS
 62
7
  6
CONTINUOUS
 10
139.1717575965
 20
244.7377721167
 11
139.4756466654
 21
245.1743325122
  0
LINE
  8
QUILTS
 62
7
  6
CONTINUOUS
 10
50.6383752093
 20
203.0875282943
 11
47.8737111297
 21
203.1721009647
  0
LINE
  8
QUILTS
 62
7
  6
CONTINUOUS
 10
51.6465743349
 20
207.0095443121
 11
49.6360539653
 21
207.2177921227
  0
LINE
  8
QUILTS
 62
7
  6
CONTINUOUS
 10
50.9222651661
 20
218.4217797958
 11
52.4467021884
 21
217.950088456
  0
LINE
  8
QUILTS
 62
7
  6
CONTINUOUS
 10
52.6314479679
 20
218.5471596385
 11
51.1070109456
 21
219.0188509783
  0
LINE
  8
QUILTS
 62
7
  6
CONTINUOUS
 10
51.2723597737
 20
224.0130758394
 11
55.2051927554
 21
222.3880940182
  0
LINE
  8
QUILTS
 62
7
  6
CONTINUOUS
 10
56.1321077158
 20
222.6813570481
 11
51.5110289779
 21
224.5907106816
  0
LINE
  8
QUILTS
 62
7
  6
CONTINUOUS
 10
54.6832343412
 20
228.0207544777
 11
54.8718882428
 21
227.9223723285
  0
LINE
  8
QUILTS
 62
7
  6
CONTINUOUS
 10
56.5697734891
 20
227.0369329172
 11
56.8527543415
 21
226.8893596934
  0
LINE
  8
QUILTS
 62
7
  6
CONTINUOUS
 10
57.2360788899
 20
227.3943395208
 11
56.764444136
 21
227.6402948937
  0
LINE
  8
QUILTS
 62
7
  6
CONTINUOUS
 10
55.2552127912
 20
228.4273521559
 11
54.8779047238
 21
228.624116592
  0
LINE
  8
QUILTS
 62
7
  6
CONTINUOUS
 10
60.451649848
 20
236.6001486018
 11
60.6199355373
 21
236.469959245
  0
LINE
  8
QUILTS
 62
7
  6
CONTINUOUS
 10
62.1345068589
 20
235.2982549424
 11
62.3869353929
 21
235.1029709072
  0
LINE
  8
QUILTS
 62
7
  6
CONTINUOUS
 10
62.8535095188
 20
235.5322155
 11
62.4327952955
 21
235.8576888921
  0
LINE
  8
QUILTS
 62
7
  6
CONTINUOUS
 10
61.0865096632
 20
236.8992038378
 11
60.7499380489
 21
237.1595827339
  0
LINE
  8
QUILTS
 62
7
  6
CONTINUOUS
 10
65.8022912302
 20
238.3306296318
 11
64.5449549599
 21
239.4779500504
  0
LINE
  8
QUILTS
 62
7
  6
CONTINUOUS
 10
76.3955293761
 20
245.9381797622
 11
76.0321841361
 21
246.4629696328
  0
LINE
  8
QUILTS
 62
7
  6
CONTINUOUS
 10
73.9732277192
 20
249.4367789815
 11
73.5493249886
 21
250.0490337592
  0
LINE
  8
QUILTS
 62
7
  6
CONTINUOUS
 10
80.0563173811
 20
251.9908063688
 11
80.1544617083
 21
251.8020286348
  0
LINE
  8
QUILTS
 62
7
  6
CONTINUOUS
 10
80.6885364448
 20
251.0005801304
 11
80.7866807721
 21
250.8118023963
  0
LINE
  8
QUILTS
 62
7
  6
CONTINUOUS
 10
81.2487901682
 20
251.052050093
 11
80.9052850228
 21
251.7127721623
  0
LINE
  8
0
 62
7
  6
CONTINUOUS
 10
122.158060081
 20
126.5237072393
 11
122.1865220758
 21
125.2806738434
  0
LINE
  8
0
 62
7
  6
CONTINUOUS
 10
134.2509252216
 20
270.876367581
 11
134.0182548388
 21
269.6549722308
  0
LINE
  8
0
 62
7
  6
CONTINUOUS
 10
97.4271435735
 20
125.1599415685
 11
97.0504511351
 21
123.975017556
  0
LINE
  8
0
 62
7
  6
CONTINUOUS
 10
155.7360161162
 20
257.7646297127
 11
155.1193660346
 21
256.6849608813
  0
LINE
  8
0
 62
7
  6
CONTINUOUS
 10
73.5934023482
 20
131.9001839463
 11
72.8523759473
 21
130.90177422
  0
LINE
  8
0
 62
7
  6
CONTINUOUS
 10
171.7996111977
 20
238.3871243589
 11
170.865805022
 21
237.566180917
  0
LINE
  8
0
 62
7
  6
CONTINUOUS
 10
53.2395920855
 20
146.0140245255
 11
52.2145334307
 21
145.3103222712
  0
LINE
  8
0
 62
7
  6
CONTINUOUS
 10
180.7009706866
 20
214.8437048976
 11
179.5512008054
 21
214.3704488055
  0
LINE
  8
0
 62
7
  6
CONTINUOUS
 10
30.494028266
 20
197.8686869568
 11
29.2820443548
 21
197.5911313634
  0
LINE
  8
QUILTS
 62
7
  6
CONTINUOUS
 10
49.9048249262
 20
199.9835062013
 11
50.3333429303
 21
200.0746129853
  0
LINE
  8
QUILTS
 62
7
  6
CONTINUOUS
 10
51.0668931917
 20
203.1786349764
 11
50.6383752093
 21
203.0875282943
  0
LINE
  8
0
 62
7
  6
CONTINUOUS
 10
178.7536425927
 20
222.5335296365
 11
177.517205159
 21
222.4025159696
  0
LINE
  8
QUILTS
 62
7
  6
CONTINUOUS
 10
49.0425773223
 20
206.6509201259
 11
49.5823936414
 21
206.6997306169
  0
LINE
  8
QUILTS
 62
7
  6
CONTINUOUS
 10
49.6360539653
 20
207.2177921227
 11
49.0962377076
 21
207.1689822246
  0
LINE
  8
QUILTS
 62
7
  6
CONTINUOUS
 10
52.0218626818
 20
215.1374837893
 11
51.5845553347
 21
215.1637566507
  0
LINE
  8
QUILTS
 62
7
  6
CONTINUOUS
 10
50.484957819
 20
218.4480526572
 11
50.9222651661
 21
218.4217797958
  0
LINE
  8
0
 62
7
  6
CONTINUOUS
 10
33.8953988838
 20
222.4025159696
 11
32.6589614501
 21
222.5335296365
  0
LINE
  8
QUILTS
 62
7
  6
CONTINUOUS
 10
51.3998095552
 20
214.5666854682
 11
51.9387460276
 21
214.5089665205
  0
LINE
  8
QUILTS
 62
7
  6
CONTINUOUS
 10
51.1070109456
 20
219.0188509783
 11
50.5680741885
 21
219.0765700142
  0
LINE
  8
0
 62
7
  6
CONTINUOUS
 10
182.130559688
 20
197.5911313634
 11
180.9185757768
 21
197.8686869568
  0
LINE
  8
0
 62
7
  6
CONTINUOUS
 10
45.0785951175
 20
244.5026112206
 11
43.9516913425
 21
245.0279967841
  0
LINE
  8
QUILTS
 62
7
  6
CONTINUOUS
 10
63.617297506
 20
236.0939446567
 11
64.0018457415
 21
235.8840614859
  0
LINE
  8
QUILTS
 62
7
  6
CONTINUOUS
 10
66.2654213378
 20
238.0490372082
 11
65.8022912302
 21
238.3306296318
  0
LINE
  8
0
 62
7
  6
CONTINUOUS
 10
177.2257226205
 20
172.9036978391
 11
176.1695294945
 21
173.5597452375
  0
LINE
  8
0
 62
7
  6
CONTINUOUS
 10
61.9364915235
 20
262.6369082532
 11
62.83174413
 21
261.7740844711
  0
LINE
  8
0
 62
7
  6
CONTINUOUS
 10
164.570646593
 20
151.1464955507
 11
163.7846991658
 21
152.1099418389
  0
LINE
  8
QUILTS
 62
7
  6
CONTINUOUS
 10
80.9052850228
 20
251.7127721623
 11
80.4693588443
 21
252.3254451321
  0
LINE
  8
0
 62
7
  6
CONTINUOUS
 10
84.6644298305
 20
273.4520652558
 11
85.2310167574
 21
272.3453036
  0
LINE
  8
0
 62
7
  6
CONTINUOUS
 10
145.1061733274
 20
135.8436957874
 11
145.5367054567
 21
134.6772549641
  0
LINE
  8
0
 62
7
  6
CONTINUOUS
 10
109.6725814877
 20
276.3014777161
 11
109.8491042499
 21
275.0707129852
  0
LINE
  8
QUILTS
 62
7
  6
CONTINUOUS
 10
131.3131514911
 20
252.721050331
 11
131.2743588607
 21
252.3875799309
  0
LINE
  8
QUILTS
 62
7
  6
CONTINUOUS
 10
131.8421216601
 20
252.126293874
 11
131.8809142905
 21
252.4597642741
  0
LINE
  8
QUILTS
 62
7
  6
CONTINUOUS
 10
134.6026602321
 20
246.19966379
 11
135.6416348096
 21
251.3667055163
  0
LINE
  8
QUILTS
 62
7
  6
CONTINUOUS
 10
134.3332905442
 20
247.8251522476
 11
134.0603298658
 21
246.5103127458
  0
LINE
  8
QUILTS
 62
7
  6
CONTINUOUS
 10
135.0685728268
 20
251.2045602373
 11
134.4544050382
 21
248.2461748164
  0
LINE
  8
QUILTS
 62
7
  6
CONTINUOUS
 10
136.1795029761
 20
246.8206762916
 11
136.0465974682
 21
246.2650945739
  0
LINE
  8
QUILTS
 62
7
  6
CONTINUOUS
 10
139.4756466654
 20
245.1743325122
 11
139.6085521308
 21
245.7299141688
  0
LINE
  8
QUILTS
 62
7
  6
CONTINUOUS
 10
136.5709057648
 20
246.2889825838
 11
136.6677434823
 21
246.6104321636
  0
LINE
  8
QUILTS
 62
7
  6
CONTINUOUS
 10
139.0842438767
 20
245.70602622
 11
138.9874060741
 21
245.3845765178
  0
LINE
  8
QUILTS
 62
7
  6
CONTINUOUS
 10
140.3986636588
 20
246.8649711238
 11
140.4955013763
 21
247.1864207036
  0
LINE
  8
QUILTS
 62
7
  6
CONTINUOUS
 10
49.0962377076
 20
207.1689822246
 11
48.7680550804
 21
207.0982509147
  0
LINE
  8
QUILTS
 62
7
  6
CONTINUOUS
 10
51.9387460276
 20
214.5089665205
 11
52.4068446441
 21
214.58220626
  0
LINE
  8
QUILTS
 62
7
  6
CONTINUOUS
 10
56.2386258709
 20
227.0921436881
 11
56.5697734891
 21
227.0369329172
  0
LINE
  8
QUILTS
 62
7
  6
CONTINUOUS
 10
56.764444136
 20
227.6402948937
 11
56.4332965177
 21
227.6955056647
  0
LINE
  8
QUILTS
 62
7
  6
CONTINUOUS
 10
54.3520865909
 20
228.0759653176
 11
54.6832343412
 21
228.0207544777
  0
LINE
  8
QUILTS
 62
7
  6
CONTINUOUS
 10
54.8779047238
 20
228.624116592
 11
54.5467572377
 21
228.6793272941
  0
LINE
  8
QUILTS
 62
7
  6
CONTINUOUS
 10
61.8183391739
 20
235.4111485617
 11
62.1345068589
 21
235.2982549424
  0
LINE
  8
QUILTS
 62
7
  6
CONTINUOUS
 10
62.4327952955
 20
235.8576888921
 11
62.1166276105
 21
235.9705825114
  0
LINE
  8
QUILTS
 62
7
  6
CONTINUOUS
 10
60.1354820452
 20
236.7130423123
 11
60.451649848
 21
236.6001486018
  0
LINE
  8
QUILTS
 62
7
  6
CONTINUOUS
 10
60.7499380489
 20
237.1595827339
 11
60.4337704818
 21
237.272476262
  0
LINE
  8
QUILTS
 62
7
  6
CONTINUOUS
 10
65.686972586
 20
237.7307741106
 11
65.9929356941
 21
237.592596708
  0
LINE
  8
QUILTS
 62
7
  6
CONTINUOUS
 10
66.5713844321
 20
237.9108598181
 11
66.2654213378
 21
238.0490372082
  0
LINE
  8
QUILTS
 62
7
  6
CONTINUOUS
 10
64.5449549599
 20
239.4779500504
 11
64.2389886789
 21
239.6161238931
  0
LINE
  8
QUILTS
 62
7
  6
CONTINUOUS
 10
77.4308605722
 20
250.2661447893
 11
77.8610676872
 21
249.8903008525
  0
LINE
  8
QUILTS
 62
7
  6
CONTINUOUS
 10
80.4693588443
 20
252.3254451321
 11
80.0391515918
 21
252.7012893333
  0
LINE
  8
QUILTS
 62
7
  6
CONTINUOUS
 10
78.5480780467
 20
248.5688565818
 11
78.7877156051
 21
248.333739014
  0
LINE
  8
QUILTS
 62
7
  6
CONTINUOUS
 10
78.0835395594
 20
250.3656660509
 11
77.8439020354
 21
250.6007835526
  0
LINE
  8
QUILTS
 62
7
  6
CONTINUOUS
 10
79.8166797196
 20
252.2259241349
 11
80.0563173811
 21
251.9908063688
  0
LINE
  8
QUILTS
 62
7
  6
CONTINUOUS
 10
136.5595558504
 20
245.9080249754
 11
136.5709057648
 21
246.2889825838
  0
LINE
  8
0
 62
7
  6
CONTINUOUS
 10
133.9111172903
 20
268.6667183577
 11
133.9207244827
 21
268.8801976383
  0
LINE
  8
0
 62
7
  6
CONTINUOUS
 10
122.1893836185
 20
127.3039678852
 11
122.2150449904
 21
127.5161168786
  0
LINE
  8
0
 62
7
  6
CONTINUOUS
 10
154.6971479861
 20
255.7850408341
 11
154.7755512433
 21
255.9838337682
  0
LINE
  8
0
 62
7
  6
CONTINUOUS
 10
97.7101201329
 20
125.8877548044
 11
97.8032757664
 21
126.0800767463
  0
LINE
  8
0
 62
7
  6
CONTINUOUS
 10
170.1742603502
 20
236.8521149965
 11
170.3129634629
 21
237.014679285
  0
LINE
  8
0
 62
7
  6
CONTINUOUS
 10
74.0973670284
 20
132.496679915
 11
74.2479220653
 21
132.6483337388
  0
LINE
  8
0
 62
7
  6
CONTINUOUS
 10
178.665269106
 20
213.9196171339
 11
178.8492414397
 21
214.0283364139
  0
LINE
  8
0
 62
7
  6
CONTINUOUS
 10
53.9099324937
 20
146.4145636331
 11
54.1015719594
 21
146.5091152939
  0
LINE
  8
QUILTS
 62
7
  6
CONTINUOUS
 10
55.2051927554
 20
222.3880940182
 11
50.2779044528
 21
221.6062632622
  0
LINE
  8
QUILTS
 62
7
  6
CONTINUOUS
 10
50.5680741885
 20
219.0765700142
 11
50.0999756432
 21
219.0033302526
  0
LINE
  8
QUILTS
 62
7
  6
CONTINUOUS
 10
50.7484951809
 20
221.0736996995
 11
55.7741039096
 21
221.8149047848
  0
LINE
  8
0
 62
7
  6
CONTINUOUS
 10
34.8891247175
 20
222.3773537082
 11
34.6755812212
 21
222.3692991078
  0
LINE
  8
0
 62
7
  6
CONTINUOUS
 10
176.7370228216
 20
222.3692991078
 11
176.5234793253
 21
222.3773537082
  0
LINE
  8
QUILTS
 62
7
  6
CONTINUOUS
 10
64.2743297919
 20
236.3405002124
 11
64.0469502316
 21
236.4069700607
  0
LINE
  8
QUILTS
 62
7
  6
CONTINUOUS
 10
65.9929356941
 20
237.592596708
 11
66.2203184823
 21
237.5261303695
  0
LINE
  8
QUILTS
 62
7
  6
CONTINUOUS
 10
63.9665062356
 20
239.1596869277
 11
64.1938857959
 21
239.0932170795
  0
LINE
  8
0
 62
7
  6
CONTINUOUS
 10
46.0103079716
 20
244.1561500692
 11
45.8057195265
 21
244.2178693492
  0
LINE
  8
0
 62
7
  6
CONTINUOUS
 10
180.169880373
 20
198.0905946671
 11
179.9705225768
 21
198.1675503069
  0
LINE
  8
QUILTS
 62
7
  6
CONTINUOUS
 10
79.342250265
 20
248.6220380097
 11
79.0101916736
 21
248.809106478
  0
LINE
  8
0
 62
7
  6
CONTINUOUS
 10
63.6004784598
 20
261.1438688714
 11
63.4270153984
 21
261.2686737901
  0
LINE
  8
0
 62
7
  6
CONTINUOUS
 10
175.5334537885
 20
174.0127303761
 11
175.369885203
 21
174.1502477177
  0
LINE
  8
0
 62
7
  6
CONTINUOUS
 10
85.7534682701
 20
271.4996271909
 11
85.6299280067
 21
271.6739931988
  0
LINE
  8
0
 62
7
  6
CONTINUOUS
 10
163.3301718302
 20
152.7449164374
 11
163.2201176496
 21
152.9280933429
  0
LINE
  8
0
 62
7
  6
CONTINUOUS
 10
110.0686572174
 20
274.1012179278
 11
110.0084272565
 21
274.3062497624
  0
LINE
  8
0
 62
7
  6
CONTINUOUS
 10
144.8824494516
 20
136.5918504953
 11
144.8378357542
 21
136.8008369048
  0
LINE
  8
QUILTS
 62
7
  6
CONTINUOUS
 10
136.0465974682
 20
246.2650945739
 11
136.059965451
 21
245.7373115255
  0
LINE
  8
QUILTS
 62
7
  6
CONTINUOUS
 10
140.4955013763
 20
247.1864207036
 11
140.4821333722
 21
247.7142037214
  0
LINE
  8
QUILTS
 62
7
  6
CONTINUOUS
 10
139.9825429941
 20
247.543490302
 11
139.9711931222
 21
247.1625327548
  0
LINE
  8
QUILTS
 62
7
  6
CONTINUOUS
 10
56.4332965177
 20
227.6955056647
 11
55.9114899158
 21
227.615184512
  0
LINE
  8
QUILTS
 62
7
  6
CONTINUOUS
 10
54.5467572377
 20
228.6793272941
 11
54.0249506357
 21
228.5990061415
  0
LINE
  8
QUILTS
 62
7
  6
CONTINUOUS
 10
64.0018457415
 20
235.8840614859
 11
64.4482371581
 21
235.8997779761
  0
LINE
  8
QUILTS
 62
7
  6
CONTINUOUS
 10
62.1166276105
 20
235.9705825114
 11
61.5888405913
 21
235.9837915894
  0
LINE
  8
QUILTS
 62
7
  6
CONTINUOUS
 10
60.4337704818
 20
237.272476262
 11
59.9059834625
 21
237.28568534
  0
LINE
  8
QUILTS
 62
7
  6
CONTINUOUS
 10
78.7877156051
 20
248.333739014
 11
79.2612716067
 21
248.1003330106
  0
LINE
  8
QUILTS
 62
7
  6
CONTINUOUS
 10
77.8610676872
 20
249.8903008525
 11
78.3346236717
 21
249.6568948822
  0
LINE
  8
QUILTS
 62
7
  6
CONTINUOUS
 10
80.0391515918
 20
252.7012893333
 11
79.5655956073
 21
252.9346953036
  0
LINE
  8
QUILTS
 62
7
  6
CONTINUOUS
 10
78.4156023472
 20
250.1785998482
 11
78.0835395594
 21
250.3656660509
  0
LINE
  8
QUILTS
 62
7
  6
CONTINUOUS
 10
79.4846169319
 20
252.4129903376
 11
79.8166797196
 21
252.2259241349
  0
LINE
  8
QUILTS
 62
7
  6
CONTINUOUS
 10
131.8809142905
 20
252.4597642741
 11
131.7749297594
 21
252.9769691625
  0
LINE
  8
QUILTS
 62
7
  6
CONTINUOUS
 10
130.4624596539
 20
251.1217111607
 11
130.9743937261
 21
251.237440522
  0
LINE
  8
QUILTS
 62
7
  6
CONTINUOUS
 10
137.1179060207
 20
247.0747911979
 11
137.4104451326
 21
247.1303939239
  0
LINE
  8
QUILTS
 62
7
  6
CONTINUOUS
 10
61.5225768772
 20
235.37655879
 11
61.8183391739
 21
235.4111485617
  0
LINE
  8
QUILTS
 62
7
  6
CONTINUOUS
 10
59.8397197484
 20
236.6784525406
 11
60.1354820452
 21
236.7130423123
  0
LINE
  8
QUILTS
 62
7
  6
CONTINUOUS
 10
64.2389886789
 20
239.6161238931
 11
63.9413965715
 21
239.605648556
  0
LINE
  8
QUILTS
 62
7
  6
CONTINUOUS
 10
131.2128485467
 20
253.0014252843
 11
131.3131514911
 21
252.721050331
  0
LINE
  8
QUILTS
 62
7
  6
CONTINUOUS
 10
139.0348159519
 20
245.9996717126
 11
139.0842438767
 21
245.70602622
  0
LINE
  8
QUILTS
 62
7
  6
CONTINUOUS
 10
139.6085521308
 20
245.7299141688
 11
139.5344063299
 21
246.1703851319
  0
LINE
  8
QUILTS
 62
7
  6
CONTINUOUS
 10
59.9059834625
 20
237.28568534
 11
59.3986017137
 21
237.1514111182
  0
LINE
  8
QUILTS
 62
7
  6
CONTINUOUS
 10
63.9413965715
 20
239.605648556
 11
63.5735887028
 21
239.5182245115
  0
LINE
  8
QUILTS
 62
7
  6
CONTINUOUS
 10
80.0440014158
 20
248.6271704043
 11
79.7176619222
 21
248.5774097735
  0
LINE
  8
QUILTS
 62
7
  6
CONTINUOUS
 10
138.1839266697
 20
244.7773027641
 11
137.8058918851
 21
244.7812134541
  0
LINE
  8
QUILTS
 62
7
  6
CONTINUOUS
 10
137.4104451326
 20
247.1303939239
 11
137.7884799171
 21
247.1264832339
  0
LINE
  8
QUILTS
 62
7
  6
CONTINUOUS
 10
138.0068732281
 20
247.622556923
 11
137.250803659
 21
247.6303783029
  0
LINE
  8
QUILTS
 62
7
  6
CONTINUOUS
 10
138.4436678475
 20
248.6146990974
 11
138.8217026321
 21
248.6107884075
  0
LINE
  8
QUILTS
 62
7
  6
CONTINUOUS
 10
137.5874907097
 20
244.2851451599
 11
138.1972946525
 21
244.2495197157
  0
LINE
  8
QUILTS
 62
7
  6
CONTINUOUS
 10
139.0400959431
 20
249.1068620966
 11
138.4302998434
 21
249.1424821152
  0
LINE
  8
QUILTS
 62
7
  6
CONTINUOUS
 10
79.2612716067
 20
248.1003330106
 11
79.8706017374
 21
248.057416281
  0
LINE
  8
QUILTS
 62
7
  6
CONTINUOUS
 10
78.3346236717
 20
249.6568948822
 11
78.9439537895
 21
249.6139781774
  0
LINE
  8
QUILTS
 62
7
  6
CONTINUOUS
 10
79.5655956073
 20
252.9346953036
 11
78.9562697203
 21
252.9776142081
  0
LINE
  8
QUILTS
 62
7
  6
CONTINUOUS
 10
79.7176619222
 20
248.5774097735
 11
79.342250265
 21
248.6220380097
  0
LINE
  8
QUILTS
 62
7
  6
CONTINUOUS
 10
78.7910140044
 20
250.133971612
 11
78.4156023472
 21
250.1785998482
  0
LINE
  8
QUILTS
 62
7
  6
CONTINUOUS
 10
79.1092052746
 20
252.4576185739
 11
79.4846169319
 21
252.4129903376
  0
LINE
  8
QUILTS
 62
7
  6
CONTINUOUS
 10
137.8058918851
 20
244.7812134541
 11
137.4886348973
 21
244.8724361987
  0
LINE
  8
QUILTS
 62
7
  6
CONTINUOUS
 10
131.7749297594
 20
252.9769691625
 11
131.5298409901
 21
253.441082591
  0
LINE
  8
QUILTS
 62
7
  6
CONTINUOUS
 10
136.059965451
 20
245.7373115255
 11
136.3050947543
 21
245.177819156
  0
LINE
  8
QUILTS
 62
7
  6
CONTINUOUS
 10
139.5344063299
 20
246.1703851319
 11
139.2892691836
 21
246.7298829269
  0
LINE
  8
QUILTS
 62
7
  6
CONTINUOUS
 10
140.4821333722
 20
247.7142037214
 11
140.237004053
 21
248.2736960679
  0
LINE
  8
QUILTS
 62
7
  6
CONTINUOUS
 10
136.694479448
 20
245.5548660669
 11
136.5595558504
 21
245.9080249754
  0
LINE
  8
QUILTS
 62
7
  6
CONTINUOUS
 10
138.8998923543
 20
246.3528306211
 11
139.0348159519
 21
245.9996717126
  0
LINE
  8
QUILTS
 62
7
  6
CONTINUOUS
 10
139.8476193965
 20
247.8966492106
 11
139.9825429941
 21
247.543490302
  0
LINE
  8
QUILTS
 62
7
  6
CONTINUOUS
 10
79.117353498
 20
250.1837322428
 11
78.7910140044
 21
250.133971612
  0
LINE
  8
QUILTS
 62
7
  6
CONTINUOUS
 10
78.782865781
 20
252.4078579431
 11
79.1092052746
 21
252.4576185739
  0
LINE
  8
QUILTS
 62
7
  6
CONTINUOUS
 10
130.6346835991
 20
251.7450989688
 11
130.3063279822
 21
251.7791015323
  0
LINE
  8
QUILTS
 62
7
  6
CONTINUOUS
 10
129.9448526583
 20
251.2428077475
 11
130.4624596539
 21
251.1217111607
  0
LINE
  8
QUILTS
 62
7
  6
CONTINUOUS
 10
137.7884799171
 20
247.1264832339
 11
138.105736905
 21
247.0352604893
  0
LINE
  8
QUILTS
 62
7
  6
CONTINUOUS
 10
138.8217026321
 20
248.6107884075
 11
139.13895962
 21
248.5195656629
  0
LINE
  8
QUILTS
 62
7
  6
CONTINUOUS
 10
137.0992501982
 20
244.4953892802
 11
137.5874907097
 21
244.2851451599
  0
LINE
  8
QUILTS
 62
7
  6
CONTINUOUS
 10
138.4951215615
 20
247.4123073467
 11
138.0068732281
 21
247.622556923
  0
LINE
  8
QUILTS
 62
7
  6
CONTINUOUS
 10
139.5283442764
 20
248.8966125202
 11
139.0400959431
 21
249.1068620966
  0
LINE
  8
QUILTS
 62
7
  6
CONTINUOUS
 10
126.7398427756
 20
250.2585019397
 11
127.3076055751
 21
249.9972158828
  0
LINE
  8
QUILTS
 62
7
  6
CONTINUOUS
 10
128.2415642599
 20
252.0266659182
 11
129.9448526583
 21
251.2428077475
  0
LINE
  8
QUILTS
 62
7
  6
CONTINUOUS
 10
130.3063279822
 20
251.7791015323
 11
128.5084095628
 21
252.6065087081
  0
LINE
  8
QUILTS
 62
7
  6
CONTINUOUS
 10
129.1755229447
 20
254.0561159536
 11
130.9734413641
 21
253.2287087778
  0
LINE
  8
QUILTS
 62
7
  6
CONTINUOUS
 10
130.987121698
 20
248.2706584085
 11
131.5294520643
 21
247.9600094528
  0
LINE
  8
QUILTS
 62
7
  6
CONTINUOUS
 10
134.0603298658
 20
246.5103127458
 11
134.6026602321
 21
246.19966379
  0
LINE
  8
QUILTS
 62
7
  6
CONTINUOUS
 10
132.5255254148
 20
248.8606471868
 11
134.3332905442
 21
247.8251522476
  0
LINE
  8
QUILTS
 62
7
  6
CONTINUOUS
 10
134.4544050382
 20
248.2461748164
 11
132.8274139391
 21
249.1781216838
  0
LINE
  8
QUILTS
 62
7
  6
CONTINUOUS
 10
136.6717874888
 20
244.7929454627
 11
137.0992501982
 21
244.4953892802
  0
LINE
  8
QUILTS
 62
7
  6
CONTINUOUS
 10
137.4886348973
 20
244.8724361987
 11
136.8901808423
 21
245.289019213
  0
LINE
  8
QUILTS
 62
7
  6
CONTINUOUS
 10
138.105736905
 20
247.0352604893
 11
138.7041909599
 21
246.618677475
  0
LINE
  8
QUILTS
 62
7
  6
CONTINUOUS
 10
138.9225842709
 20
247.1147511641
 11
138.4951215615
 21
247.4123073467
  0
LINE
  8
QUILTS
 62
7
  6
CONTINUOUS
 10
139.9711931222
 20
247.1625327548
 11
140.3986636588
 21
246.8649711238
  0
LINE
  8
QUILTS
 62
7
  6
CONTINUOUS
 10
139.13895962
 20
248.5195656629
 11
139.6519180021
 21
248.1624960644
  0
LINE
  8
QUILTS
 62
7
  6
CONTINUOUS
 10
131.5298409901
 20
253.441082591
 11
131.1011824288
 21
253.7554601078
  0
LINE
  8
QUILTS
 62
7
  6
CONTINUOUS
 10
130.9734413641
 20
253.2287087778
 11
131.2128485467
 21
253.0014252843
  0
LINE
  8
QUILTS
 62
7
  6
CONTINUOUS
 10
136.3050947543
 20
245.177819156
 11
136.6717874888
 21
244.7929454627
  0
LINE
  8
QUILTS
 62
7
  6
CONTINUOUS
 10
139.2892691836
 20
246.7298829269
 11
138.9225842709
 21
247.1147511641
  0
LINE
  8
QUILTS
 62
7
  6
CONTINUOUS
 10
140.237004053
 20
248.2736960679
 11
139.8703113131
 21
248.6585697536
  0
LINE
  8
QUILTS
 62
7
  6
CONTINUOUS
 10
136.8901808423
 20
245.289019213
 11
136.694479448
 21
245.5548660669
  0
LINE
  8
QUILTS
 62
7
  6
CONTINUOUS
 10
138.7041909599
 20
246.618677475
 11
138.8998923543
 21
246.3528306211
  0
LINE
  8
QUILTS
 62
7
  6
CONTINUOUS
 10
139.6519180021
 20
248.1624960644
 11
139.8476193965
 21
247.8966492106
  0
LINE
  8
QUILTS
 62
7
  6
CONTINUOUS
 10
131.1011824288
 20
253.7554601078
 11
128.8301312309
 21
254.8006043355
  0
LINE
  8
QUILTS
 62
7
  6
CONTINUOUS
 10
135.6416348096
 20
251.3667055163
 11
134.9185304129
 21
251.780902544
  0
LINE
  8
QUILTS
 62
7
  6
CONTINUOUS
 10
139.8703113131
 20
248.6585697536
 11
139.5283442764
 21
248.8966125202
  0
LINE
  8
0
 62
7
  6
CONTINUOUS
 10
182.7513009823
 20
196.7784776577
 11
182.2215277593
 21
190.3850656507
  0
LINE
  8
0
 62
7
  6
CONTINUOUS
 10
177.5489622125
 20
171.9335215839
 11
174.9719560788
 21
166.0585393586
  0
LINE
  8
0
 62
7
  6
CONTINUOUS
 10
164.5613564572
 20
150.1239303972
 11
160.2163760139
 21
145.4040234376
  0
LINE
  8
0
 62
7
  6
CONTINUOUS
 10
145.1958923235
 20
133.7131117133
 11
139.5537836209
 21
130.6597551753
  0
LINE
  8
0
 62
7
  6
CONTINUOUS
 10
108.9139638162
 20
276.9872072754
 11
102.4986402266
 21
276.9872072754
  0
LINE
  8
0
 62
7
  6
CONTINUOUS
 10
133.7560675719
 20
271.7712651765
 11
127.6883439098
 21
273.8543173408
  0
LINE
  8
0
 62
7
  6
CONTINUOUS
 10
155.5585439933
 20
258.7717193043
 11
150.4959522678
 21
262.712092609
  0
LINE
  8
0
 62
7
  6
CONTINUOUS
 10
171.9587564597
 20
239.3972721626
 11
168.4499070386
 21
244.7679660191
  0
LINE
  8
0
 62
7
  6
CONTINUOUS
 10
179.6046186385
 20
221.9664621189
 11
181.179487475
 21
215.747445725
  0
LINE
  8
0
 62
7
  6
CONTINUOUS
 10
30.2161360677
 20
65.9262152114
 11
30.2245318626
 21
65.834962921
  0
POLYLINE
  8
0
 62
7
  6
CONTINUOUS
 66
1
 70
0
  0
VERTEX
  8
0
 62
7
  6
CONTINUOUS
 10
28.6606308037
 20
65.9267473225
  0
VERTEX
  8
0
 62
7
  6
CONTINUOUS
 10
28.6607145815
 20
65.9175947755
  0
VERTEX
  8
0
 62
7
  6
CONTINUOUS
 10
28.66518336
 20
65.859428251
  0
VERTEX
  8
0
 62
7
  6
CONTINUOUS
 10
28.676205028
 20
65.8029257185
  0
VERTEX
  8
0
 62
7
  6
CONTINUOUS
 10
28.6933265791
 20
65.7489073887
  0
VERTEX
  8
0
 62
7
  6
CONTINUOUS
 10
28.7159772509
 20
65.6980909879
  0
VERTEX
  8
0
 62
7
  6
CONTINUOUS
 10
28.7434910688
 20
65.6510750034
  0
VERTEX
  8
0
 62
7
  6
CONTINUOUS
 10
28.7751314698
 20
65.6083271544
  0
VERTEX
  8
0
 62
7
  6
CONTINUOUS
 10
28.8101167864
 20
65.5701782541
  0
VERTEX
  8
0
 62
7
  6
CONTINUOUS
 10
28.8476447803
 20
65.5368218513
  0
VERTEX
  8
0
 62
7
  6
CONTINUOUS
 10
28.8869171066
 20
65.5083173474
  0
VERTEX
  8
0
 62
7
  6
CONTINUOUS
 10
28.9271604325
 20
65.4845987219
  0
VERTEX
  8
0
 62
7
  6
CONTINUOUS
 10
28.967642363
 20
65.4654874282
  0
VERTEX
  8
0
 62
7
  6
CONTINUOUS
 10
29.0076754053
 20
65.4507092478
  0
VERTEX
  8
0
 62
7
  6
CONTINUOUS
 10
29.0465890357
 20
65.4399138144
  0
VERTEX
  8
0
 62
7
  6
CONTINUOUS
 10
29.0816862618
 20
65.4329931214
  0
VERTEX
  8
0
 62
7
  6
CONTINUOUS
 10
29.1049323022
 20
65.4297901291
  0
VERTEX
  8
0
 62
7
  6
CONTINUOUS
 10
29.1180826271
 20
65.4283666733
  0
VERTEX
  8
0
 62
7
  6
CONTINUOUS
 10
29.1326746194
 20
65.4269259406
  0
VERTEX
  8
0
 62
7
  6
CONTINUOUS
 10
29.1763222371
 20
65.4228420548
  0
SEQEND
  0
LINE
  8
2_FEATURE
 62
7
  6
CONTINUOUS
 10
28.6606286884
 20
72.5085320304
 11
28.6606286884
 21
65.9266641646
  0
LINE
  8
2_FEATURE
 62
7
  6
CONTINUOUS
 10
30.2161349618
 20
72.509001055
 11
30.2161349618
 21
65.92619514
  0
POLYLINE
  8
0
 62
7
  6
CONTINUOUS
 66
1
 70
0
  0
VERTEX
  8
0
 62
7
  6
CONTINUOUS
 10
30.2245318626
 20
65.834962921
  0
VERTEX
  8
0
 62
7
  6
CONTINUOUS
 10
30.2509254004
 20
65.742949624
  0
VERTEX
  8
0
 62
7
  6
CONTINUOUS
 10
30.2926237509
 20
65.6604063354
  0
VERTEX
  8
0
 62
7
  6
CONTINUOUS
 10
30.3463974664
 20
65.589576801
  0
VERTEX
  8
0
 62
7
  6
CONTINUOUS
 10
30.4087859343
 20
65.5317654718
  0
VERTEX
  8
0
 62
7
  6
CONTINUOUS
 10
30.4763365925
 20
65.487367235
  0
VERTEX
  8
0
 62
7
  6
CONTINUOUS
 10
30.5451482713
 20
65.4561892266
  0
VERTEX
  8
0
 62
7
  6
CONTINUOUS
 10
30.6074496575
 20
65.4378300457
  0
SEQEND
  0
POLYLINE
  8
0
 62
7
  6
CONTINUOUS
 66
1
 70
0
  0
VERTEX
  8
0
 62
7
  6
CONTINUOUS
 10
39.3412033365
 20
65.92309042
  0
VERTEX
  8
0
 62
7
  6
CONTINUOUS
 10
39.3420220358
 20
65.894471384
  0
VERTEX
  8
0
 62
7
  6
CONTINUOUS
 10
39.366267092
 20
65.7666703531
  0
VERTEX
  8
0
 62
7
  6
CONTINUOUS
 10
39.4206382208
 20
65.6524718943
  0
VERTEX
  8
0
 62
7
  6
CONTINUOUS
 10
39.4979706268
 20
65.5591652608
  0
VERTEX
  8
0
 62
7
  6
CONTINUOUS
 10
39.5883849259
 20
65.4911344581
  0
VERTEX
  8
0
 62
7
  6
CONTINUOUS
 10
39.6808391743
 20
65.448397057
  0
VERTEX
  8
0
 62
7
  6
CONTINUOUS
 10
39.759996968
 20
65.4271096473
  0
SEQEND
  0
LINE
  8
2_FEATURE
 62
7
  6
CONTINUOUS
 10
39.341202836
 20
72.5122001988
 11
39.341202836
 21
65.9229959962
  0
LINE
  8
1_AXIS
 62
7
  6
CONTINUOUS
 10
43.2063020214
 20
79.7175980975
 11
43.2063020214
 21
74.2175980975
  0
LINE
  8
1_AXIS
 62
7
  6
CONTINUOUS
 10
43.2063020214
 20
64.2175980975
 11
43.2063020214
 21
58.7175980975
  0
POLYLINE
  8
0
 62
7
  6
CONTINUOUS
 66
1
 70
0
  0
VERTEX
  8
0
 62
7
  6
CONTINUOUS
 10
55.5712681355
 20
65.9175172551
  0
VERTEX
  8
0
 62
7
  6
CONTINUOUS
 10
55.5746534862
 20
65.8593552074
  0
VERTEX
  8
0
 62
7
  6
CONTINUOUS
 10
55.6122407812
 20
65.7189981952
  0
VERTEX
  8
0
 62
7
  6
CONTINUOUS
 10
55.6837157445
 20
65.601037215
  0
VERTEX
  8
0
 62
7
  6
CONTINUOUS
 10
55.7781053976
 20
65.5114944359
  0
VERTEX
  8
0
 62
7
  6
CONTINUOUS
 10
55.8824062102
 20
65.4527198313
  0
VERTEX
  8
0
 62
7
  6
CONTINUOUS
 10
55.9792138106
 20
65.4219357503
  0
VERTEX
  8
0
 62
7
  6
CONTINUOUS
 10
56.0255305442
 20
65.4126955849
  0
SEQEND
  0
LINE
  8
2_FEATURE
 62
7
  6
CONTINUOUS
 10
55.5712665542
 20
72.5177505742
 11
55.5712665542
 21
65.9174456208
  0
POLYLINE
  8
0
 62
7
  6
CONTINUOUS
 66
1
 70
0
  0
VERTEX
  8
0
 62
7
  6
CONTINUOUS
 10
77.147547632
 20
65.910116896
  0
VERTEX
  8
0
 62
7
  6
CONTINUOUS
 10
77.1554533699
 20
65.8213743394
  0
VERTEX
  8
0
 62
7
  6
CONTINUOUS
 10
77.2099927558
 20
65.6675947895
  0
VERTEX
  8
0
 62
7
  6
CONTINUOUS
 10
77.3028427333
 20
65.5468544216
  0
VERTEX
  8
0
 62
7
  6
CONTINUOUS
 10
77.4140774039
 20
65.4660043099
  0
VERTEX
  8
0
 62
7
  6
CONTINUOUS
 10
77.4441798862
 20
65.4510020354
  0
SEQEND
  0
LINE
  8
2_FEATURE
 62
7
  6
CONTINUOUS
 10
77.1475468773
 20
72.5250875999
 11
77.1475468773
 21
65.910108595
  0
POLYLINE
  8
0
 62
7
  6
CONTINUOUS
 66
1
 70
0
  0
VERTEX
  8
0
 62
7
  6
CONTINUOUS
 10
30.6054091777
 20
72.9968972928
  0
VERTEX
  8
0
 62
7
  6
CONTINUOUS
 10
30.538794628
 20
72.9766369782
  0
VERTEX
  8
0
 62
7
  6
CONTINUOUS
 10
30.4669205229
 20
72.9425437244
  0
VERTEX
  8
0
 62
7
  6
CONTINUOUS
 10
30.3961848762
 20
72.8932735075
  0
VERTEX
  8
0
 62
7
  6
CONTINUOUS
 10
30.3282535087
 20
72.8245340648
  0
VERTEX
  8
0
 62
7
  6
CONTINUOUS
 10
30.2705191197
 20
72.7357787245
  0
VERTEX
  8
0
 62
7
  6
CONTINUOUS
 10
30.2311939733
 20
72.6307767214
  0
VERTEX
  8
0
 62
7
  6
CONTINUOUS
 10
30.2161360677
 20
72.5089809764
  0
SEQEND
  0
LINE
  8
0
 62
7
  6
CONTINUOUS
 10
77.7255820922
 20
73.1353613591
 11
77.6692811224
 21
73.0875542864
  0
LINE
  8
0
 62
7
  6
CONTINUOUS
 10
77.6694800279
 20
65.3475506032
 11
77.7241832269
 21
65.3007515923
  0
POLYLINE
  8
0
 62
7
  6
CONTINUOUS
 66
1
 70
0
  0
VERTEX
  8
0
 62
7
  6
CONTINUOUS
 10
77.4441048062
 20
72.9841596716
  0
VERTEX
  8
0
 62
7
  6
CONTINUOUS
 10
77.4183329823
 20
72.9714605789
  0
VERTEX
  8
0
 62
7
  6
CONTINUOUS
 10
77.3056812129
 20
72.8910395822
  0
VERTEX
  8
0
 62
7
  6
CONTINUOUS
 10
77.2113714398
 20
72.7700855888
  0
VERTEX
  8
0
 62
7
  6
CONTINUOUS
 10
77.155732826
 20
72.6153640894
  0
VERTEX
  8
0
 62
7
  6
CONTINUOUS
 10
77.1475476322
 20
72.5250792639
  0
SEQEND
  0
LINE
  8
0
 62
7
  6
CONTINUOUS
 10
77.6769300425
 20
73.09106565
 11
77.4441575142
 21
72.9841855309
  0
POLYLINE
  8
0
 62
7
  6
CONTINUOUS
 66
1
 70
0
  0
VERTEX
  8
0
 62
7
  6
CONTINUOUS
 10
171.6123659208
 20
65.419986451
  0
VERTEX
  8
0
 62
7
  6
CONTINUOUS
 10
171.6766853166
 20
65.4323808458
  0
VERTEX
  8
0
 62
7
  6
CONTINUOUS
 10
171.7582658522
 20
65.4584217895
  0
VERTEX
  8
0
 62
7
  6
CONTINUOUS
 10
171.8468992867
 20
65.5053269212
  0
VERTEX
  8
0
 62
7
  6
CONTINUOUS
 10
171.8902407695
 20
65.5375429469
  0
VERTEX
  8
0
 62
7
  6
CONTINUOUS
 10
171.9689120141
 20
65.61955951
  0
VERTEX
  8
0
 62
7
  6
CONTINUOUS
 10
172.0291443081
 20
65.7217840806
  0
VERTEX
  8
0
 62
7
  6
CONTINUOUS
 10
172.0643021635
 20
65.8390960573
  0
VERTEX
  8
0
 62
7
  6
CONTINUOUS
 10
172.071398739
 20
65.9230903238
  0
SEQEND
  0
POLYLINE
  8
0
 62
7
  6
CONTINUOUS
 66
1
 70
0
  0
VERTEX
  8
0
 62
7
  6
CONTINUOUS
 10
30.6074496575
 20
65.4378300457
  0
VERTEX
  8
0
 62
7
  6
CONTINUOUS
 10
30.6526708107
 20
65.4294146151
  0
VERTEX
  8
0
 62
7
  6
CONTINUOUS
 10
30.6923935187
 20
65.4241779587
  0
VERTEX
  8
0
 62
7
  6
CONTINUOUS
 10
30.7441622717
 20
65.4184481248
  0
SEQEND
  0
LINE
  8
0
 62
7
  6
CONTINUOUS
 10
77.4441575126
 20
65.4510106648
 11
77.6769300425
 21
65.344130545
  0
LINE
  8
0
 62
7
  6
CONTINUOUS
 10
77.6771091183
 20
65.3440483489
 11
77.6816070162
 21
65.3418964091
  0
LINE
  8
0
 62
7
  6
CONTINUOUS
 10
77.8859837314
 20
73.2041876476
 11
77.7255820922
 21
73.1353613591
  0
LINE
  8
0
 62
7
  6
CONTINUOUS
 10
133.7339705113
 20
65.3436503041
 11
133.7354986958
 21
65.3440500946
  0
LINE
  8
0
 62
7
  6
CONTINUOUS
 10
154.4195498116
 20
65.2384547644
 11
154.4196696103
 21
65.2384807405
  0
POLYLINE
  8
0
 62
7
  6
CONTINUOUS
 66
1
 70
0
  0
VERTEX
  8
0
 62
7
  6
CONTINUOUS
 10
154.4196696103
 20
65.2384807405
  0
VERTEX
  8
0
 62
7
  6
CONTINUOUS
 10
154.5099787248
 20
65.257360042
  0
VERTEX
  8
0
 62
7
  6
CONTINUOUS
 10
154.6490772832
 20
65.284176621
  0
SEQEND
  0
POLYLINE
  8
0
 62
7
  6
CONTINUOUS
 66
1
 70
0
  0
VERTEX
  8
0
 62
7
  6
CONTINUOUS
 10
155.3871301715
 20
65.4127054623
  0
VERTEX
  8
0
 62
7
  6
CONTINUOUS
 10
155.431012202
 20
65.4213931314
  0
VERTEX
  8
0
 62
7
  6
CONTINUOUS
 10
155.5277472201
 20
65.4516962428
  0
VERTEX
  8
0
 62
7
  6
CONTINUOUS
 10
155.6326411544
 20
65.5101470873
  0
VERTEX
  8
0
 62
7
  6
CONTINUOUS
 10
155.727747002
 20
65.599640136
  0
VERTEX
  8
0
 62
7
  6
CONTINUOUS
 10
155.7998606029
 20
65.7178371856
  0
VERTEX
  8
0
 62
7
  6
CONTINUOUS
 10
155.8378738213
 20
65.8586921169
  0
VERTEX
  8
0
 62
7
  6
CONTINUOUS
 10
155.8413374749
 20
65.9175209774
  0
SEQEND
  0
LINE
  8
0
 62
7
  6
CONTINUOUS
 10
154.3663099807
 20
65.2284920439
 11
154.4195497847
 21
65.238454888
  0
LINE
  8
0
 62
7
  6
CONTINUOUS
 10
154.6490772832
 20
65.284176621
 11
154.7705056094
 21
65.3058761926
  0
LINE
  8
0
 62
7
  6
CONTINUOUS
 10
154.7705195437
 20
65.3058786066
 11
155.3872187496
 21
65.4127203352
  0
LINE
  8
0
 62
7
  6
CONTINUOUS
 10
171.5400687167
 20
65.4102214275
 11
171.6123659208
 21
65.419986451
  0
LINE
  8
0
 62
7
  6
CONTINUOUS
 10
170.0004808802
 20
65.2309993819
 11
170.4031824986
 21
65.2798413624
  0
LINE
  8
0
 62
7
  6
CONTINUOUS
 10
170.4031824986
 20
65.2798413624
 11
171.5400687167
 21
65.4102214275
  0
POLYLINE
  8
0
 62
7
  6
CONTINUOUS
 66
1
 70
0
  0
VERTEX
  8
0
 62
7
  6
CONTINUOUS
 10
180.6680695332
 20
65.4184091822
  0
VERTEX
  8
0
 62
7
  6
CONTINUOUS
 10
180.7208701872
 20
65.4242564876
  0
VERTEX
  8
0
 62
7
  6
CONTINUOUS
 10
180.7605075552
 20
65.4295010165
  0
VERTEX
  8
0
 62
7
  6
CONTINUOUS
 10
180.8072229824
 20
65.4383056055
  0
SEQEND
  0
LINE
  8
0
 62
7
  6
CONTINUOUS
 10
169.9479889849
 20
65.2252159738
 11
170.000474513
 21
65.2309986997
  0
POLYLINE
  8
0
 62
7
  6
CONTINUOUS
 66
1
 70
0
  0
VERTEX
  8
0
 62
7
  6
CONTINUOUS
 10
182.2882967355
 20
65.4277420443
  0
VERTEX
  8
0
 62
7
  6
CONTINUOUS
 10
182.3023234394
 20
65.4291876002
  0
VERTEX
  8
0
 62
7
  6
CONTINUOUS
 10
182.3215472989
 20
65.4315765914
  0
VERTEX
  8
0
 62
7
  6
CONTINUOUS
 10
182.3595657728
 20
65.4384468586
  0
VERTEX
  8
0
 62
7
  6
CONTINUOUS
 10
182.4022563731
 20
65.4498591572
  0
VERTEX
  8
0
 62
7
  6
CONTINUOUS
 10
182.4242934114
 20
65.4573738851
  0
VERTEX
  8
0
 62
7
  6
CONTINUOUS
 10
182.4690096189
 20
65.4763046417
  0
VERTEX
  8
0
 62
7
  6
CONTINUOUS
 10
182.5138418745
 20
65.5008052353
  0
VERTEX
  8
0
 62
7
  6
CONTINUOUS
 10
182.5584716294
 20
65.5317038433
  0
VERTEX
  8
0
 62
7
  6
CONTINUOUS
 10
182.6022079609
 20
65.5699067505
  0
VERTEX
  8
0
 62
7
  6
CONTINUOUS
 10
182.6435591325
 20
65.6158468562
  0
VERTEX
  8
0
 62
7
  6
CONTINUOUS
 10
182.6807332319
 20
65.6695263142
  0
VERTEX
  8
0
 62
7
  6
CONTINUOUS
 10
182.7119617802
 20
65.7307687217
  0
VERTEX
  8
0
 62
7
  6
CONTINUOUS
 10
182.7354022008
 20
65.7991034485
  0
VERTEX
  8
0
 62
7
  6
CONTINUOUS
 10
182.7491407705
 20
65.8736378283
  0
VERTEX
  8
0
 62
7
  6
CONTINUOUS
 10
182.7519693177
 20
65.9267469349
  0
SEQEND
  0
LINE
  8
0
 62
7
  6
CONTINUOUS
 10
180.5987875022
 20
65.4114804717
 11
180.6680695332
 21
65.4184091822
  0
LINE
  8
0
 62
7
  6
CONTINUOUS
 10
182.2463957649
 20
65.423773817
 11
182.2882967355
 21
65.4277420443
  0
LINE
  8
0
 62
7
  6
CONTINUOUS
 10
178.6498565561
 20
65.2293763856
 11
180.5987875022
 21
65.4114804717
  0
LINE
  8
0
 62
7
  6
CONTINUOUS
 10
182.0628601853
 20
65.4073095505
 11
182.2463957649
 21
65.423773817
  0
LINE
  8
0
 62
7
  6
CONTINUOUS
 10
180.8505130914
 20
65.3004466531
 11
180.041443089
 21
65.2290140032
  0
LINE
  8
0
 62
7
  6
CONTINUOUS
 10
182.0624922006
 20
65.407279871
 11
180.8505130914
 21
65.3004466531
  0
LINE
  8
0
 62
7
  6
CONTINUOUS
 10
178.5907773286
 20
65.2244091281
 11
178.6498563431
 21
65.229376476
  0
LINE
  8
1_AXIS
 62
7
  6
CONTINUOUS
 10
166.2063020214
 20
56.7175980975
 11
45.2063616937
 21
56.7175980975
  0
LINE
  8
0
 62
7
  6
CONTINUOUS
 10
32.7627475288
 20
65.2293764923
 11
32.8151891712
 21
65.2248998694
  0
LINE
  8
0
 62
7
  6
CONTINUOUS
 10
29.1763222371
 20
65.4228420548
 11
31.3711609538
 21
65.2290140032
  0
LINE
  8
0
 62
7
  6
CONTINUOUS
 10
30.8116750678
 20
65.4116868456
 11
32.7627474684
 21
65.2293763895
  0
LINE
  8
0
 62
7
  6
CONTINUOUS
 10
30.7441622717
 20
65.4184481248
 11
30.8116750678
 21
65.4116868456
  0
LINE
  8
0
 62
7
  6
CONTINUOUS
 10
41.4121287349
 20
65.2309987995
 11
41.4589000471
 21
65.2257677454
  0
LINE
  8
0
 62
7
  6
CONTINUOUS
 10
39.8862752189
 20
65.4086195267
 11
41.0043901331
 21
65.2804322649
  0
LINE
  8
0
 62
7
  6
CONTINUOUS
 10
41.0043901331
 20
65.2804322649
 11
41.4121232205
 21
65.2309993759
  0
LINE
  8
0
 62
7
  6
CONTINUOUS
 10
39.8274352582
 20
65.415984605
 11
39.8863052971
 21
65.4086162453
  0
LINE
  8
0
 62
7
  6
CONTINUOUS
 10
39.759996968
 20
65.4271096473
 11
39.8274352582
 21
65.415984605
  0
LINE
  8
0
 62
7
  6
CONTINUOUS
 10
56.0253852943
 20
65.412720335
 11
56.6420844991
 21
65.3058786066
  0
LINE
  8
0
 62
7
  6
CONTINUOUS
 10
56.6420990152
 20
65.3058760921
 11
56.7604254781
 21
65.2847487307
  0
LINE
  8
0
 62
7
  6
CONTINUOUS
 10
56.9930491786
 20
65.2384559887
 11
57.0413079256
 21
65.2292905975
  0
POLYLINE
  8
0
 62
7
  6
CONTINUOUS
 66
1
 70
0
  0
VERTEX
  8
0
 62
7
  6
CONTINUOUS
 10
56.7604254781
 20
65.2847487307
  0
VERTEX
  8
0
 62
7
  6
CONTINUOUS
 10
56.8998742461
 20
65.2579148361
  0
VERTEX
  8
0
 62
7
  6
CONTINUOUS
 10
56.9929357953
 20
65.2384804439
  0
SEQEND
  0
LINE
  8
0
 62
7
  6
CONTINUOUS
 10
56.9930491786
 20
65.2384559887
 11
56.9929358224
 21
65.2384805685
  0
LINE
  8
0
 62
7
  6
CONTINUOUS
 10
77.7241832269
 20
65.3007515923
 11
77.8850841825
 21
65.2312214387
  0
LINE
  8
0
 62
7
  6
CONTINUOUS
 10
133.4113045805
 20
65.2175982041
 11
133.5266215647
 21
65.231008838
  0
LINE
  8
0
 62
7
  6
CONTINUOUS
 10
154.2628139802
 20
65.2182700897
 11
154.3663099807
 21
65.2284920439
  0
LINE
  8
0
 62
7
  6
CONTINUOUS
 10
180.041443089
 20
65.2290140032
 11
179.7824514651
 21
65.2175980975
  0
LINE
  8
0
 62
7
  6
CONTINUOUS
 10
154.2288137537
 20
65.2175982152
 11
154.2628139802
 21
65.2182700897
  0
POLYLINE
  8
0
 62
7
  6
CONTINUOUS
 66
1
 70
0
  0
VERTEX
  8
0
 62
7
  6
CONTINUOUS
 10
169.7883262727
 20
65.2175982039
  0
VERTEX
  8
0
 62
7
  6
CONTINUOUS
 10
169.8332739507
 20
65.2182068768
  0
VERTEX
  8
0
 62
7
  6
CONTINUOUS
 10
169.9479889849
 20
65.2252159738
  0
SEQEND
  0
POLYLINE
  8
0
 62
7
  6
CONTINUOUS
 66
1
 70
0
  0
VERTEX
  8
0
 62
7
  6
CONTINUOUS
 10
178.4036335516
 20
65.2175982065
  0
VERTEX
  8
0
 62
7
  6
CONTINUOUS
 10
178.4575522305
 20
65.2181667072
  0
VERTEX
  8
0
 62
7
  6
CONTINUOUS
 10
178.5907773286
 20
65.2244091281
  0
SEQEND
  0
LINE
  8
0
 62
7
  6
CONTINUOUS
 10
57.1446062975
 20
65.2184906694
 11
57.1838023961
 21
65.217598218
  0
LINE
  8
0
 62
7
  6
CONTINUOUS
 10
31.6301525777
 20
65.2175980975
 11
31.3711609538
 21
65.2290140032
  0
POLYLINE
  8
0
 62
7
  6
CONTINUOUS
 66
1
 70
0
  0
VERTEX
  8
0
 62
7
  6
CONTINUOUS
 10
32.8151891712
 20
65.2248998694
  0
VERTEX
  8
0
 62
7
  6
CONTINUOUS
 10
32.948450915
 20
65.2183139774
  0
VERTEX
  8
0
 62
7
  6
CONTINUOUS
 10
33.0089790191
 20
65.2175982062
  0
SEQEND
  0
POLYLINE
  8
0
 62
7
  6
CONTINUOUS
 66
1
 70
0
  0
VERTEX
  8
0
 62
7
  6
CONTINUOUS
 10
41.4589000471
 20
65.2257677454
  0
VERTEX
  8
0
 62
7
  6
CONTINUOUS
 10
41.5736380114
 20
65.218370556
  0
VERTEX
  8
0
 62
7
  6
CONTINUOUS
 10
41.6242831574
 20
65.2175982042
  0
SEQEND
  0
LINE
  8
0
 62
7
  6
CONTINUOUS
 10
57.0413079256
 20
65.2292905975
 11
57.1446062975
 21
65.2184906694
  0
LINE
  8
0
 62
7
  6
CONTINUOUS
 10
77.8850841825
 20
65.2312214387
 11
78.0012996137
 21
65.2175982043
  0
LINE
  8
1_AXIS
 62
2
  6
CENTER
 10
105.7063020214
 20
54.7175980975
 11
105.7063020214
 21
83.7175980975
  0
LINE
  8
0
 62
7
  6
CONTINUOUS
 10
179.7824514642
 20
65.2175980975
 11
31.6301525786
 21
65.2175980975
  0
LINE
  8
0
 62
7
  6
CONTINUOUS
 10
57.1837907521
 20
73.2175979786
 11
57.1497947684
 21
73.216926285
  0
POLYLINE
  8
0
 62
7
  6
CONTINUOUS
 66
1
 70
0
  0
VERTEX
  8
0
 62
7
  6
CONTINUOUS
 10
41.6242823476
 20
73.2175979897
  0
VERTEX
  8
0
 62
7
  6
CONTINUOUS
 10
41.5793352582
 20
73.2169894528
  0
VERTEX
  8
0
 62
7
  6
CONTINUOUS
 10
41.4646203018
 20
73.2099807223
  0
SEQEND
  0
POLYLINE
  8
0
 62
7
  6
CONTINUOUS
 66
1
 70
0
  0
VERTEX
  8
0
 62
7
  6
CONTINUOUS
 10
33.0090451788
 20
73.2175979898
  0
VERTEX
  8
0
 62
7
  6
CONTINUOUS
 10
32.9550564802
 20
73.2170295813
  0
VERTEX
  8
0
 62
7
  6
CONTINUOUS
 10
32.821831441
 20
73.2107874146
  0
SEQEND
  0
LINE
  8
1_AXIS
 62
7
  6
CONTINUOUS
 10
178.4035094978
 20
73.2175980975
 11
176.4960255102
 21
73.2175980975
  0
LINE
  8
1_AXIS
 62
7
  6
CONTINUOUS
 10
169.7883593743
 20
73.2175980975
 11
165.5384345995
 21
73.2175980975
  0
LINE
  8
1_AXIS
 62
7
  6
CONTINUOUS
 10
154.2289240011
 20
73.2175980975
 11
148.0971037328
 21
73.2175980975
  0
LINE
  8
1_AXIS
 62
7
  6
CONTINUOUS
 10
133.4113096304
 20
73.2175980975
 11
126.0620717396
 21
73.2175980975
  0
LINE
  8
1_AXIS
 62
7
  6
CONTINUOUS
 10
63.31550031
 20
73.2175980975
 11
57.1836800417
 21
73.2175980975
  0
LINE
  8
1_AXIS
 62
7
  6
CONTINUOUS
 10
45.8741694433
 20
73.2175980975
 11
41.6242446685
 21
73.2175980975
  0
LINE
  8
1_AXIS
 62
7
  6
CONTINUOUS
 10
34.9165785326
 20
73.2175980975
 11
33.009094545
 21
73.2175980975
  0
LINE
  8
0
 62
7
  6
CONTINUOUS
 10
31.6301525786
 20
73.2175980975
 11
179.7824514642
 21
73.2175980975
  0
LINE
  8
0
 62
7
  6
CONTINUOUS
 10
154.267992944
 20
73.2167057388
 11
154.2288012442
 21
73.217597976
  0
LINE
  8
0
 62
7
  6
CONTINUOUS
 10
77.6786337142
 20
73.0915459962
 11
77.6771050509
 21
73.0911459801
  0
LINE
  8
0
 62
7
  6
CONTINUOUS
 10
78.001299543
 20
73.2175979896
 11
77.8859837314
 21
73.2041876476
  0
LINE
  8
0
 62
7
  6
CONTINUOUS
 10
41.4646203018
 20
73.2099807223
 11
41.4121296824
 21
73.2041975152
  0
LINE
  8
0
 62
7
  6
CONTINUOUS
 10
57.1497947684
 20
73.216926285
 11
57.0462987363
 21
73.2067048877
  0
LINE
  8
0
 62
7
  6
CONTINUOUS
 10
32.7627474882
 20
73.2058198088
 11
30.8138573164
 21
73.0237196418
  0
LINE
  8
0
 62
7
  6
CONTINUOUS
 10
29.2801481002
 20
73.0217195687
 11
29.14207381
 21
73.009167786
  0
LINE
  8
0
 62
7
  6
CONTINUOUS
 10
29.3501118422
 20
73.027916324
 11
30.5620909514
 21
73.1347495419
  0
LINE
  8
0
 62
7
  6
CONTINUOUS
 10
30.5620909514
 20
73.1347495419
 11
31.3711609538
 21
73.2061821918
  0
LINE
  8
0
 62
7
  6
CONTINUOUS
 10
29.3497439622
 20
73.0278866523
 11
29.2801481002
 21
73.0217195687
  0
LINE
  8
0
 62
7
  6
CONTINUOUS
 10
32.821831441
 20
73.2107874146
 11
32.7627477535
 21
73.205819725
  0
LINE
  8
0
 62
7
  6
CONTINUOUS
 10
31.3711609538
 20
73.2061821918
 11
31.6301525777
 21
73.2175980975
  0
LINE
  8
0
 62
7
  6
CONTINUOUS
 10
179.7824514651
 20
73.2175980975
 11
180.041443089
 21
73.2061821918
  0
POLYLINE
  8
0
 62
7
  6
CONTINUOUS
 66
1
 70
0
  0
VERTEX
  8
0
 62
7
  6
CONTINUOUS
 10
178.5974100707
 20
73.2102966931
  0
VERTEX
  8
0
 62
7
  6
CONTINUOUS
 10
178.4641483697
 20
73.2168823271
  0
VERTEX
  8
0
 62
7
  6
CONTINUOUS
 10
178.4035509336
 20
73.21759799
  0
SEQEND
  0
POLYLINE
  8
0
 62
7
  6
CONTINUOUS
 66
1
 70
0
  0
VERTEX
  8
0
 62
7
  6
CONTINUOUS
 10
169.9536986717
 20
73.2094289782
  0
VERTEX
  8
0
 62
7
  6
CONTINUOUS
 10
169.8389607509
 20
73.2168257966
  0
VERTEX
  8
0
 62
7
  6
CONTINUOUS
 10
169.7883164535
 20
73.2175979896
  0
SEQEND
  0
LINE
  8
0
 62
7
  6
CONTINUOUS
 10
178.6498564669
 20
73.2058197079
 11
178.5974100707
 21
73.2102966931
  0
LINE
  8
0
 62
7
  6
CONTINUOUS
 10
182.2362697286
 20
73.012355249
 11
180.041443089
 21
73.2061821918
  0
LINE
  8
0
 62
7
  6
CONTINUOUS
 10
180.6009630267
 20
73.0235060713
 11
178.6498565598
 21
73.20581981
  0
LINE
  8
0
 62
7
  6
CONTINUOUS
 10
154.3712913478
 20
73.2059063772
 11
154.267992944
 21
73.2167057388
  0
LINE
  8
0
 62
7
  6
CONTINUOUS
 10
133.5275188792
 20
73.2039749848
 11
133.4113043489
 21
73.2175979896
  0
POLYLINE
  8
0
 62
7
  6
CONTINUOUS
 66
1
 70
0
  0
VERTEX
  8
0
 62
7
  6
CONTINUOUS
 10
133.9685940441
 20
65.4510803864
  0
VERTEX
  8
0
 62
7
  6
CONTINUOUS
 10
133.994261801
 20
65.4637317532
  0
VERTEX
  8
0
 62
7
  6
CONTINUOUS
 10
134.1069031564
 20
65.5441388072
  0
VERTEX
  8
0
 62
7
  6
CONTINUOUS
 10
134.2012244963
 20
65.6650946504
  0
VERTEX
  8
0
 62
7
  6
CONTINUOUS
 10
134.2568698389
 20
65.8198213922
  0
VERTEX
  8
0
 62
7
  6
CONTINUOUS
 10
134.2650566207
 20
65.9101138475
  0
SEQEND
  0
LINE
  8
0
 62
7
  6
CONTINUOUS
 10
133.7356740003
 20
65.344130545
 11
133.9684465312
 21
65.4510106653
  0
LINE
  8
0
 62
7
  6
CONTINUOUS
 10
133.5266215647
 20
65.231008838
 11
133.6870237849
 21
65.2998360329
  0
LINE
  8
0
 62
7
  6
CONTINUOUS
 10
56.9930545623
 20
73.1967415032
 11
56.9929344494
 21
73.196715459
  0
POLYLINE
  8
0
 62
7
  6
CONTINUOUS
 66
1
 70
0
  0
VERTEX
  8
0
 62
7
  6
CONTINUOUS
 10
56.9929344494
 20
73.196715459
  0
VERTEX
  8
0
 62
7
  6
CONTINUOUS
 10
56.9026315064
 20
73.1778374043
  0
VERTEX
  8
0
 62
7
  6
CONTINUOUS
 10
56.7635336689
 20
73.1510208504
  0
SEQEND
  0
POLYLINE
  8
0
 62
7
  6
CONTINUOUS
 66
1
 70
0
  0
VERTEX
  8
0
 62
7
  6
CONTINUOUS
 10
56.0254823641
 20
73.0224922765
  0
VERTEX
  8
0
 62
7
  6
CONTINUOUS
 10
55.9816215441
 20
73.0138097064
  0
VERTEX
  8
0
 62
7
  6
CONTINUOUS
 10
55.8848687929
 20
72.9835043857
  0
VERTEX
  8
0
 62
7
  6
CONTINUOUS
 10
55.7799781913
 20
72.9250610425
  0
VERTEX
  8
0
 62
7
  6
CONTINUOUS
 10
55.6848597997
 20
72.8355616476
  0
VERTEX
  8
0
 62
7
  6
CONTINUOUS
 10
55.6127430165
 20
72.7173590703
  0
VERTEX
  8
0
 62
7
  6
CONTINUOUS
 10
55.5747312025
 20
72.5765025419
  0
VERTEX
  8
0
 62
7
  6
CONTINUOUS
 10
55.5712681355
 20
72.5176789426
  0
SEQEND
  0
POLYLINE
  8
0
 62
7
  6
CONTINUOUS
 66
1
 70
0
  0
VERTEX
  8
0
 62
7
  6
CONTINUOUS
 10
39.8002543284
 20
73.0152122072
  0
VERTEX
  8
0
 62
7
  6
CONTINUOUS
 10
39.7359508323
 20
73.0028229541
  0
VERTEX
  8
0
 62
7
  6
CONTINUOUS
 10
39.6543468506
 20
72.9767776535
  0
VERTEX
  8
0
 62
7
  6
CONTINUOUS
 10
39.5657077994
 20
72.9298709204
  0
VERTEX
  8
0
 62
7
  6
CONTINUOUS
 10
39.5223658914
 20
72.8976553731
  0
VERTEX
  8
0
 62
7
  6
CONTINUOUS
 10
39.4436956843
 20
72.8156425955
  0
VERTEX
  8
0
 62
7
  6
CONTINUOUS
 10
39.3834609058
 20
72.7134181862
  0
VERTEX
  8
0
 62
7
  6
CONTINUOUS
 10
39.3483008028
 20
72.596104818
  0
VERTEX
  8
0
 62
7
  6
CONTINUOUS
 10
39.3412033365
 20
72.5121057627
  0
SEQEND
  0
LINE
  8
0
 62
7
  6
CONTINUOUS
 10
57.0462987363
 20
73.2067048877
 11
56.9930545892
 21
73.1967413794
  0
LINE
  8
0
 62
7
  6
CONTINUOUS
 10
56.7635336689
 20
73.1510208504
 11
56.6420984041
 21
73.1293199973
  0
LINE
  8
0
 62
7
  6
CONTINUOUS
 10
56.6420844991
 20
73.1293175884
 11
56.025385296
 21
73.0224758603
  0
LINE
  8
0
 62
7
  6
CONTINUOUS
 10
39.8725528795
 20
73.0249769646
 11
39.8002543284
 21
73.0152122072
  0
LINE
  8
0
 62
7
  6
CONTINUOUS
 10
41.4121231702
 20
73.2041968138
 11
41.0094347548
 21
73.1553563867
  0
LINE
  8
0
 62
7
  6
CONTINUOUS
 10
41.0094347548
 20
73.1553563867
 11
39.8725528795
 21
73.0249769646
  0
POLYLINE
  8
0
 62
7
  6
CONTINUOUS
 66
1
 70
0
  0
VERTEX
  8
0
 62
7
  6
CONTINUOUS
 10
30.7445620908
 20
73.0167899223
  0
VERTEX
  8
0
 62
7
  6
CONTINUOUS
 10
30.6917467616
 20
73.0109412446
  0
VERTEX
  8
0
 62
7
  6
CONTINUOUS
 10
30.6521052419
 20
73.0056964462
  0
VERTEX
  8
0
 62
7
  6
CONTINUOUS
 10
30.6054091777
 20
72.9968972928
  0
SEQEND
  0
LINE
  8
0
 62
7
  6
CONTINUOUS
 10
30.8138573164
 20
73.0237196418
 11
30.7445620908
 21
73.0167899223
  0
POLYLINE
  8
0
 62
7
  6
CONTINUOUS
 66
1
 70
0
  0
VERTEX
  8
0
 62
7
  6
CONTINUOUS
 10
29.14207381
 20
73.009167786
  0
VERTEX
  8
0
 62
7
  6
CONTINUOUS
 10
29.1243061783
 20
73.0074540264
  0
VERTEX
  8
0
 62
7
  6
CONTINUOUS
 10
29.110276745
 20
73.0060081747
  0
VERTEX
  8
0
 62
7
  6
CONTINUOUS
 10
29.0910723722
 20
73.0036218327
  0
VERTEX
  8
0
 62
7
  6
CONTINUOUS
 10
29.0530468195
 20
72.9967514639
  0
VERTEX
  8
0
 62
7
  6
CONTINUOUS
 10
29.0103510895
 20
72.9853386182
  0
VERTEX
  8
0
 62
7
  6
CONTINUOUS
 10
28.988310095
 20
72.9778227648
  0
VERTEX
  8
0
 62
7
  6
CONTINUOUS
 10
28.9435882677
 20
72.9588895934
  0
VERTEX
  8
0
 62
7
  6
CONTINUOUS
 10
28.8987525356
 20
72.9343864942
  0
VERTEX
  8
0
 62
7
  6
CONTINUOUS
 10
28.8541206455
 20
72.9034852663
  0
VERTEX
  8
0
 62
7
  6
CONTINUOUS
 10
28.8103838737
 20
72.8652803013
  0
VERTEX
  8
0
 62
7
  6
CONTINUOUS
 10
28.7690337912
 20
72.8193392857
  0
VERTEX
  8
0
 62
7
  6
CONTINUOUS
 10
28.7318614639
 20
72.7656599081
  0
VERTEX
  8
0
 62
7
  6
CONTINUOUS
 10
28.7006348511
 20
72.7044184473
  0
VERTEX
  8
0
 62
7
  6
CONTINUOUS
 10
28.677196173
 20
72.6360854222
  0
VERTEX
  8
0
 62
7
  6
CONTINUOUS
 10
28.663458866
 20
72.5615532822
  0
VERTEX
  8
0
 62
7
  6
CONTINUOUS
 10
28.6606308033
 20
72.5084488722
  0
SEQEND
  0
LINE
  8
1_AXIS
 62
7
  6
CONTINUOUS
 10
166.2063020214
 20
81.7175980975
 11
45.2063616937
 21
81.7175980975
  0
LINE
  8
0
 62
7
  6
CONTINUOUS
 10
180.6684619547
 20
73.016745933
 11
180.6009630267
 21
73.0235060713
  0
LINE
  8
0
 62
7
  6
CONTINUOUS
 10
170.0004751574
 20
73.2041974151
 11
169.9536986717
 21
73.2094289782
  0
LINE
  8
0
 62
7
  6
CONTINUOUS
 10
171.5263288239
 20
73.0265766683
 11
170.4082257009
 21
73.1547625436
  0
LINE
  8
0
 62
7
  6
CONTINUOUS
 10
170.4082257009
 20
73.1547625436
 11
170.0004808033
 21
73.2041968231
  0
LINE
  8
0
 62
7
  6
CONTINUOUS
 10
171.5851860046
 20
73.0192091839
 11
171.5262964376
 21
73.0265801827
  0
LINE
  8
0
 62
7
  6
CONTINUOUS
 10
171.65261231
 20
73.0080855583
 11
171.5851860046
 21
73.0192091839
  0
LINE
  8
0
 62
7
  6
CONTINUOUS
 10
155.3872187485
 20
73.02247586
 11
154.7705195437
 21
73.1293175884
  0
LINE
  8
0
 62
7
  6
CONTINUOUS
 10
154.7705049972
 20
73.1293201083
 11
154.6521843829
 21
73.1504463913
  0
LINE
  8
0
 62
7
  6
CONTINUOUS
 10
154.4195544616
 20
73.1967402941
 11
154.3712913478
 21
73.2059063772
  0
POLYLINE
  8
0
 62
7
  6
CONTINUOUS
 66
1
 70
0
  0
VERTEX
  8
0
 62
7
  6
CONTINUOUS
 10
154.6521843829
 20
73.1504463913
  0
VERTEX
  8
0
 62
7
  6
CONTINUOUS
 10
154.5127350571
 20
73.1772802975
  0
VERTEX
  8
0
 62
7
  6
CONTINUOUS
 10
154.4196682495
 20
73.1967157488
  0
SEQEND
  0
LINE
  8
0
 62
7
  6
CONTINUOUS
 10
154.4195544616
 20
73.1967402941
 11
154.419668223
 21
73.1967156266
  0
LINE
  8
0
 62
7
  6
CONTINUOUS
 10
133.6884193847
 20
73.1344455432
 11
133.5275188792
 21
73.2039749848
  0
LINE
  8
0
 62
7
  6
CONTINUOUS
 10
133.9684465301
 20
72.9841855302
 11
133.7356740002
 21
73.09106565
  0
LINE
  8
0
 62
7
  6
CONTINUOUS
 10
133.73549465
 20
73.0911479558
 11
133.730997194
 21
73.0932997071
  0
LINE
  8
0
 62
7
  6
CONTINUOUS
 10
133.6870237849
 20
65.2998360329
 11
133.7433228212
 21
65.347641863
  0
POLYLINE
  8
0
 62
7
  6
CONTINUOUS
 66
1
 70
0
  0
VERTEX
  8
0
 62
7
  6
CONTINUOUS
 10
180.8051729826
 20
72.9973617385
  0
VERTEX
  8
0
 62
7
  6
CONTINUOUS
 10
180.7599335379
 20
73.0057815813
  0
VERTEX
  8
0
 62
7
  6
CONTINUOUS
 10
180.7202162917
 20
73.0110175474
  0
VERTEX
  8
0
 62
7
  6
CONTINUOUS
 10
180.6684619547
 20
73.016745933
  0
SEQEND
  0
LINE
  8
0
 62
7
  6
CONTINUOUS
 10
133.7431240741
 20
73.0876455646
 11
133.6884193847
 21
73.1344455432
  0
POLYLINE
  8
0
 62
7
  6
CONTINUOUS
 66
1
 70
0
  0
VERTEX
  8
0
 62
7
  6
CONTINUOUS
 10
180.8072229824
 20
65.4383056055
  0
VERTEX
  8
0
 62
7
  6
CONTINUOUS
 10
180.8738286661
 20
65.4585665103
  0
VERTEX
  8
0
 62
7
  6
CONTINUOUS
 10
180.9457011536
 20
65.4926623508
  0
VERTEX
  8
0
 62
7
  6
CONTINUOUS
 10
181.016419271
 20
65.5419223135
  0
VERTEX
  8
0
 62
7
  6
CONTINUOUS
 10
181.0843393823
 20
65.6106477282
  0
VERTEX
  8
0
 62
7
  6
CONTINUOUS
 10
181.1420763341
 20
65.6993995568
  0
VERTEX
  8
0
 62
7
  6
CONTINUOUS
 10
181.1814074747
 20
65.8044073124
  0
VERTEX
  8
0
 62
7
  6
CONTINUOUS
 10
181.1964683306
 20
65.926214538
  0
SEQEND
  0
POLYLINE
  8
0
 62
7
  6
CONTINUOUS
 66
1
 70
0
  0
VERTEX
  8
0
 62
7
  6
CONTINUOUS
 10
134.2650566208
 20
72.5250820501
  0
VERTEX
  8
0
 62
7
  6
CONTINUOUS
 10
134.2546420565
 20
72.6268083409
  0
VERTEX
  8
0
 62
7
  6
CONTINUOUS
 10
134.190657694
 20
72.7881244465
  0
VERTEX
  8
0
 62
7
  6
CONTINUOUS
 10
134.1414197422
 20
72.855138649
  0
VERTEX
  8
0
 62
7
  6
CONTINUOUS
 10
134.0201615734
 20
72.9568497997
  0
VERTEX
  8
0
 62
7
  6
CONTINUOUS
 10
133.9681060345
 20
72.9843398262
  0
SEQEND
  0
LINE
  8
0
 62
7
  6
CONTINUOUS
 10
134.2650571655
 20
72.5250884368
 11
134.2650571655
 21
65.9101077581
  0
POLYLINE
  8
0
 62
7
  6
CONTINUOUS
 66
1
 70
0
  0
VERTEX
  8
0
 62
7
  6
CONTINUOUS
 10
155.8413374749
 20
72.5176752151
  0
VERTEX
  8
0
 62
7
  6
CONTINUOUS
 10
155.8379515487
 20
72.5758424931
  0
VERTEX
  8
0
 62
7
  6
CONTINUOUS
 10
155.8003628284
 20
72.7161979979
  0
VERTEX
  8
0
 62
7
  6
CONTINUOUS
 10
155.7288908725
 20
72.8341535872
  0
VERTEX
  8
0
 62
7
  6
CONTINUOUS
 10
155.6345132923
 20
72.9236901628
  0
VERTEX
  8
0
 62
7
  6
CONTINUOUS
 10
155.5302101066
 20
72.9824717298
  0
VERTEX
  8
0
 62
7
  6
CONTINUOUS
 10
155.4334199978
 20
73.0132536844
  0
VERTEX
  8
0
 62
7
  6
CONTINUOUS
 10
155.3870800171
 20
73.0224994089
  0
SEQEND
  0
LINE
  8
0
 62
7
  6
CONTINUOUS
 10
155.8413374886
 20
72.5177520405
 11
155.8413374886
 21
65.9174441545
  0
LINE
  8
1_AXIS
 62
7
  6
CONTINUOUS
 10
168.2063020214
 20
79.7175980975
 11
168.2063020214
 21
74.2175980975
  0
LINE
  8
1_AXIS
 62
7
  6
CONTINUOUS
 10
168.2063020214
 20
64.2175980975
 11
168.2063020214
 21
58.7175980975
  0
POLYLINE
  8
0
 62
7
  6
CONTINUOUS
 66
1
 70
0
  0
VERTEX
  8
0
 62
7
  6
CONTINUOUS
 10
172.0713987389
 20
72.5121058837
  0
VERTEX
  8
0
 62
7
  6
CONTINUOUS
 10
172.0705802607
 20
72.540721237
  0
VERTEX
  8
0
 62
7
  6
CONTINUOUS
 10
172.0463371097
 20
72.6685202589
  0
VERTEX
  8
0
 62
7
  6
CONTINUOUS
 10
171.9919685697
 20
72.7827183102
  0
VERTEX
  8
0
 62
7
  6
CONTINUOUS
 10
171.9146377531
 20
72.8760266136
  0
VERTEX
  8
0
 62
7
  6
CONTINUOUS
 10
171.8242244861
 20
72.9440590377
  0
VERTEX
  8
0
 62
7
  6
CONTINUOUS
 10
171.7317602441
 20
72.9868006836
  0
VERTEX
  8
0
 62
7
  6
CONTINUOUS
 10
171.65261231
 20
73.0080855583
  0
SEQEND
  0
LINE
  8
0
 62
7
  6
CONTINUOUS
 10
172.0714012068
 20
72.5122010975
 11
172.0714012068
 21
65.9229950975
  0
LINE
  8
0
 62
7
  6
CONTINUOUS
 10
181.19646833
 20
72.5089816641
 11
181.1880728036
 21
72.6002322584
  0
POLYLINE
  8
0
 62
7
  6
CONTINUOUS
 66
1
 70
0
  0
VERTEX
  8
0
 62
7
  6
CONTINUOUS
 10
182.7519693171
 20
72.5084492603
  0
VERTEX
  8
0
 62
7
  6
CONTINUOUS
 10
182.7518855746
 20
72.5175999391
  0
VERTEX
  8
0
 62
7
  6
CONTINUOUS
 10
182.7474171393
 20
72.5757657385
  0
VERTEX
  8
0
 62
7
  6
CONTINUOUS
 10
182.7363959884
 20
72.6322676712
  0
VERTEX
  8
0
 62
7
  6
CONTINUOUS
 10
182.7192750891
 20
72.686285543
  0
VERTEX
  8
0
 62
7
  6
CONTINUOUS
 10
182.6966251632
 20
72.7371016355
  0
VERTEX
  8
0
 62
7
  6
CONTINUOUS
 10
182.6691121469
 20
72.7841174607
  0
VERTEX
  8
0
 62
7
  6
CONTINUOUS
 10
182.6374725681
 20
72.8268652914
  0
VERTEX
  8
0
 62
7
  6
CONTINUOUS
 10
182.6024880679
 20
72.8650142975
  0
VERTEX
  8
0
 62
7
  6
CONTINUOUS
 10
182.5649608701
 20
72.8983709065
  0
VERTEX
  8
0
 62
7
  6
CONTINUOUS
 10
182.5256893106
 20
72.9268756972
  0
VERTEX
  8
0
 62
7
  6
CONTINUOUS
 10
182.4854467203
 20
72.950594672
  0
VERTEX
  8
0
 62
7
  6
CONTINUOUS
 10
182.4449654991
 20
72.9697063624
  0
VERTEX
  8
0
 62
7
  6
CONTINUOUS
 10
182.4049331583
 20
72.9844849744
  0
VERTEX
  8
0
 62
7
  6
CONTINUOUS
 10
182.3660206536
 20
72.9952807767
  0
VERTEX
  8
0
 62
7
  6
CONTINUOUS
 10
182.3309244976
 20
73.002201928
  0
VERTEX
  8
0
 62
7
  6
CONTINUOUS
 10
182.3076622362
 20
73.0054071845
  0
VERTEX
  8
0
 62
7
  6
CONTINUOUS
 10
182.2945188206
 20
73.0068297883
  0
VERTEX
  8
0
 62
7
  6
CONTINUOUS
 10
182.2799205749
 20
73.0082711022
  0
VERTEX
  8
0
 62
7
  6
CONTINUOUS
 10
182.2362697286
 20
73.012355249
  0
SEQEND
  0
LINE
  8
0
 62
7
  6
CONTINUOUS
 10
181.196469081
 20
72.5090013689
 11
181.196469081
 21
65.9261948262
  0
LINE
  8
0
 62
7
  6
CONTINUOUS
 10
182.7519753544
 20
72.5085320101
 11
182.7519753544
 21
65.9266641849
  0
POLYLINE
  8
0
 62
7
  6
CONTINUOUS
 66
1
 70
0
  0
VERTEX
  8
0
 62
7
  6
CONTINUOUS
 10
181.1880728036
 20
72.6002322584
  0
VERTEX
  8
0
 62
7
  6
CONTINUOUS
 10
181.1616797647
 20
72.6922449926
  0
VERTEX
  8
0
 62
7
  6
CONTINUOUS
 10
181.1199820492
 20
72.7747879266
  0
VERTEX
  8
0
 62
7
  6
CONTINUOUS
 10
181.0662090236
 20
72.8456173239
  0
VERTEX
  8
0
 62
7
  6
CONTINUOUS
 10
181.0038211321
 20
72.903428791
  0
VERTEX
  8
0
 62
7
  6
CONTINUOUS
 10
180.9362706275
 20
72.9478274648
  0
VERTEX
  8
0
 62
7
  6
CONTINUOUS
 10
180.8674576072
 20
72.9790063048
  0
VERTEX
  8
0
 62
7
  6
CONTINUOUS
 10
180.8051729826
 20
72.9973617385
  0
SEQEND
  0
ARC
  8
0
 62
7
  6
CONTINUOUS
 10
40.2305577556
 20
159.998143603
 40
6.2
 50
98.3010367202
 51
105.5222105263
  0
ARC
  8
0
 62
7
  6
CONTINUOUS
 10
40.2305577556
 20
159.998143603
 40
6.2
 50
81.7430816823
 51
96.3261258121
  0
ARC
  8
0
 62
7
  6
CONTINUOUS
 10
56.7485973394
 20
140.902578338
 40
6.2
 50
117.2484051413
 51
124.4695789474
  0
ARC
  8
0
 62
7
  6
CONTINUOUS
 10
56.7485973394
 20
140.902578338
 40
6.2
 50
100.6904501034
 51
115.2734942332
  0
ARC
  8
0
 62
7
  6
CONTINUOUS
 10
42.8236882268
 20
156.0290619414
 40
6.2
 50
329.9896636616
 51
344.5727077913
  0
ARC
  8
0
 62
7
  6
CONTINUOUS
 10
42.8236882268
 20
156.0290619414
 40
6.2
 50
320.7935789474
 51
328.0147527535
  0
ARC
  8
0
 62
7
  6
CONTINUOUS
 10
60.4899835577
 20
137.9905405564
 40
6.2
 50
348.9370320826
 51
3.5200762124
  0
ARC
  8
0
 62
7
  6
CONTINUOUS
 10
60.4899835577
 20
137.9905405564
 40
6.2
 50
339.7409473684
 51
346.9621211745
  0
ARC
  8
0
 62
7
  6
CONTINUOUS
 10
55.9694854378
 20
145.029682001
 40
2.0
 50
47.8323128807
 51
100.6904501034
  0
ARC
  8
0
 62
7
  6
CONTINUOUS
 10
46.8723571874
 20
154.9117975828
 40
2.0
 50
344.5727077913
 51
37.430845014
  0
ARC
  8
0
 62
7
  6
CONTINUOUS
 10
64.6820596109
 20
138.2484133249
 40
2.0
 50
3.5200762124
 51
56.3782134351
  0
ARC
  8
0
 62
7
  6
CONTINUOUS
 10
51.7617585593
 20
145.9698637147
 40
0.8
 50
225.0156864448
 51
304.4695789474
  0
ARC
  8
0
 62
7
  6
CONTINUOUS
 10
47.4618563724
 20
150.6408026343
 40
0.8
 50
140.7935789474
 51
220.24747145
  0
ARC
  8
0
 62
7
  6
CONTINUOUS
 10
30.8078310239
 20
183.4224571558
 40
6.2
 50
79.3536682992
 51
86.5748421053
  0
ARC
  8
0
 62
7
  6
CONTINUOUS
 10
30.8078310239
 20
183.4224571558
 40
6.2
 50
62.7957132613
 51
77.3787573911
  0
ARC
  8
0
 62
7
  6
CONTINUOUS
 10
31.9716998248
 20
178.826443199
 40
6.2
 50
311.0422952405
 51
325.6253393703
  0
ARC
  8
0
 62
7
  6
CONTINUOUS
 10
31.9716998248
 20
178.826443199
 40
6.2
 50
301.8462105263
 51
309.0673843324
  0
ARC
  8
0
 62
7
  6
CONTINUOUS
 10
32.7279217974
 20
187.1578622772
 40
2.0
 50
9.9375760386
 51
62.7957132613
  0
ARC
  8
0
 62
7
  6
CONTINUOUS
 10
40.8337286546
 20
164.1546066266
 40
2.0
 50
28.8849444596
 51
81.7430816823
  0
ARC
  8
0
 62
7
  6
CONTINUOUS
 10
35.4382255895
 20
176.4551146425
 40
2.0
 50
325.6253393703
 51
18.483476593
  0
ARC
  8
0
 62
7
  6
CONTINUOUS
 10
29.9849056259
 20
190.4842370941
 40
0.8
 50
187.1209496027
 51
266.5748421053
  0
ARC
  8
0
 62
7
  6
CONTINUOUS
 10
29.4606286884
 20
196.8113187989
 40
0.8
 50
102.8988421053
 51
182.3527346078
  0
ARC
  8
0
 62
7
  6
CONTINUOUS
 10
37.1592645279
 20
166.4100933858
 40
0.8
 50
206.0683180237
 51
285.5222105263
  0
ARC
  8
0
 62
7
  6
CONTINUOUS
 10
34.6089942899
 20
172.2241239086
 40
0.8
 50
121.8462105263
 51
201.3001030289
  0
ARC
  8
0
 62
7
  6
CONTINUOUS
 10
78.5719638825
 20
128.2050621555
 40
6.2
 50
136.1957735623
 51
143.4169473684
  0
ARC
  8
0
 62
7
  6
CONTINUOUS
 10
78.5719638825
 20
128.2050621555
 40
6.2
 50
119.6378185244
 51
134.2208626542
  0
ARC
  8
0
 62
7
  6
CONTINUOUS
 10
103.3357569957
 20
123.2815679562
 40
6.2
 50
155.1431419834
 51
162.3643157895
  0
ARC
  8
0
 62
7
  6
CONTINUOUS
 10
103.3357569957
 20
123.2815679562
 40
6.2
 50
138.5851869455
 51
153.1682310753
  0
ARC
  8
0
 62
7
  6
CONTINUOUS
 10
83.0561685977
 20
126.6656327324
 40
6.2
 50
7.8844005037
 51
22.4674446334
  0
ARC
  8
0
 62
7
  6
CONTINUOUS
 10
83.0561685977
 20
126.6656327324
 40
6.2
 50
358.6883157895
 51
5.9094895956
  0
ARC
  8
0
 62
7
  6
CONTINUOUS
 10
76.4949980441
 20
131.8555707373
 40
2.0
 50
66.7796813018
 51
119.6378185244
  0
ARC
  8
0
 62
7
  6
CONTINUOUS
 10
100.1860086964
 20
126.0598922085
 40
2.0
 50
85.7270497228
 51
138.5851869455
  0
ARC
  8
0
 62
7
  6
CONTINUOUS
 10
86.9373752562
 20
128.2706981123
 40
2.0
 50
22.4674446334
 51
75.3255818561
  0
ARC
  8
0
 62
7
  6
CONTINUOUS
 10
72.2099809106
 20
131.3785641285
 40
0.8
 50
243.9630548658
 51
323.4169473684
  0
ARC
  8
0
 62
7
  6
CONTINUOUS
 10
66.6264078968
 20
134.4002427359
 40
0.8
 50
159.7409473684
 51
239.194839871
  0
ARC
  8
0
 62
7
  6
CONTINUOUS
 10
96.2880494032
 20
124.2173883447
 40
0.8
 50
262.9104232869
 51
342.3643157895
  0
ARC
  8
0
 62
7
  6
CONTINUOUS
 10
90.0258723365
 20
125.2623608766
 40
0.8
 50
178.6883157895
 51
258.1422082921
  0
ARC
  8
0
 62
7
  6
CONTINUOUS
 10
36.4531715914
 20
232.9097644334
 40
6.2
 50
41.4589314571
 51
48.6801052632
  0
ARC
  8
0
 62
7
  6
CONTINUOUS
 10
36.4531715914
 20
232.9097644334
 40
6.2
 50
24.9009764192
 51
39.4840205489
  0
ARC
  8
0
 62
7
  6
CONTINUOUS
 10
29.5015157943
 20
208.6371311572
 40
6.2
 50
60.4062998781
 51
67.6274736842
  0
ARC
  8
0
 62
7
  6
CONTINUOUS
 10
29.5015157943
 20
208.6371311572
 40
6.2
 50
43.8483448402
 51
58.43138897
  0
ARC
  8
0
 62
7
  6
CONTINUOUS
 10
34.5486974099
 20
228.5680006249
 40
6.2
 50
273.1475583984
 51
287.7306025282
  0
ARC
  8
0
 62
7
  6
CONTINUOUS
 10
34.5486974099
 20
228.5680006249
 40
6.2
 50
263.9514736842
 51
271.1726474903
  0
ARC
  8
0
 62
7
  6
CONTINUOUS
 10
29.109999681
 20
203.912234332
 40
6.2
 50
292.0949268195
 51
306.6779709492
  0
ARC
  8
0
 62
7
  6
CONTINUOUS
 10
29.109999681
 20
203.912234332
 40
6.2
 50
282.8988421053
 51
290.1200159114
  0
ARC
  8
0
 62
7
  6
CONTINUOUS
 10
40.2627263152
 20
234.6781797712
 40
2.0
 50
332.0428391965
 51
24.9009764192
  0
ARC
  8
0
 62
7
  6
CONTINUOUS
 10
32.5304548137
 20
211.5466892709
 40
2.0
 50
350.9902076175
 51
43.8483448402
  0
ARC
  8
0
 62
7
  6
CONTINUOUS
 10
35.8277731723
 20
224.5675050064
 40
2.0
 50
287.7306025282
 51
340.5887397509
  0
ARC
  8
0
 62
7
  6
CONTINUOUS
 10
31.6187303945
 20
200.5438118218
 40
2.0
 50
306.6779709492
 51
359.5361081719
  0
ARC
  8
0
 62
7
  6
CONTINUOUS
 10
31.0161349618
 20
215.58348782
 40
0.8
 50
168.1735811816
 51
247.6274736842
  0
ARC
  8
0
 62
7
  6
CONTINUOUS
 10
32.5746648661
 20
221.7379832293
 40
0.8
 50
83.9514736842
 51
163.4053661868
  0
ARC
  8
0
 62
7
  6
CONTINUOUS
 10
50.9094786437
 20
253.61004054
 40
6.2
 50
22.511563036
 51
29.7327368421
  0
ARC
  8
0
 62
7
  6
CONTINUOUS
 10
50.9094786437
 20
253.61004054
 40
6.2
 50
5.9536079981
 51
20.5366521279
  0
ARC
  8
0
 62
7
  6
CONTINUOUS
 10
47.6984257224
 20
250.1219072264
 40
6.2
 50
254.2001899774
 51
268.7832341071
  0
ARC
  8
0
 62
7
  6
CONTINUOUS
 10
47.6984257224
 20
250.1219072264
 40
6.2
 50
245.0041052632
 51
252.2252790693
  0
ARC
  8
0
 62
7
  6
CONTINUOUS
 10
55.0868247061
 20
254.0456778603
 40
2.0
 50
313.0954707754
 51
5.9536079981
  0
ARC
  8
0
 62
7
  6
CONTINUOUS
 10
65.6864227497
 20
262.2956761688
 40
2.0
 50
249.8358656861
 51
302.6940029088
  0
ARC
  8
0
 62
7
  6
CONTINUOUS
 10
47.6092388281
 20
245.9228542739
 40
2.0
 50
268.7832341071
 51
321.6413713298
  0
ARC
  8
0
 62
7
  6
CONTINUOUS
 10
56.3712665542
 20
258.1613936277
 40
0.8
 50
130.2788443395
 51
209.7327368421
  0
ARC
  8
0
 62
7
  6
CONTINUOUS
 10
61.3813349574
 20
262.0608863898
 40
0.8
 50
46.0567368421
 51
125.5106293447
  0
ARC
  8
0
 62
7
  6
CONTINUOUS
 10
40.141202836
 20
238.9879522922
 40
0.8
 50
149.2262127606
 51
228.6801052632
  0
ARC
  8
0
 62
7
  6
CONTINUOUS
 10
43.6136486838
 20
244.3029263317
 40
0.8
 50
65.0041052632
 51
144.4579977657
  0
ARC
  8
0
 62
7
  6
CONTINUOUS
 10
95.4263020214
 20
275.9509422244
 40
6.2
 50
344.6168261939
 51
351.838
  0
ARC
  8
0
 62
7
  6
CONTINUOUS
 10
95.4263020214
 20
275.9509422244
 40
6.2
 50
328.058871156
 51
342.6419152858
  0
ARC
  8
0
 62
7
  6
CONTINUOUS
 10
71.3038717693
 20
268.494763363
 40
6.2
 50
3.564194615
 51
10.7853684211
  0
ARC
  8
0
 62
7
  6
CONTINUOUS
 10
71.3038717693
 20
268.494763363
 40
6.2
 50
347.0062395771
 51
1.5892837068
  0
ARC
  8
0
 62
7
  6
CONTINUOUS
 10
90.7498742587
 20
275.1705844499
 40
6.2
 50
216.3054531353
 51
230.888497265
  0
ARC
  8
0
 62
7
  6
CONTINUOUS
 10
90.7498742587
 20
275.1705844499
 40
6.2
 50
207.1093684211
 51
214.3305422271
  0
ARC
  8
0
 62
7
  6
CONTINUOUS
 10
67.1342075169
 20
266.2382539129
 40
6.2
 50
235.2528215563
 51
249.8358656861
  0
ARC
  8
0
 62
7
  6
CONTINUOUS
 10
67.1342075169
 20
266.2382539129
 40
6.2
 50
226.0567368421
 51
233.2779106482
  0
ARC
  8
0
 62
7
  6
CONTINUOUS
 10
98.9903890013
 20
273.7289422244
 40
2.0
 50
275.2007339333
 51
328.058871156
  0
ARC
  8
0
 62
7
  6
CONTINUOUS
 10
75.3963289063
 20
267.5504146025
 40
2.0
 50
294.1481023544
 51
347.0062395771
  0
ARC
  8
0
 62
7
  6
CONTINUOUS
 10
88.1003815628
 20
271.9117213883
 40
2.0
 50
230.888497265
 51
283.7466344877
  0
ARC
  8
0
 62
7
  6
CONTINUOUS
 10
102.5319190417
 20
276.1878997498
 40
0.8
 50
92.3841074974
 51
171.838
  0
ARC
  8
0
 62
7
  6
CONTINUOUS
 10
77.9475468773
 20
271.026071951
 40
0.8
 50
111.3314759185
 51
190.785368421
  0
ARC
  8
0
 62
7
  6
CONTINUOUS
 10
83.9523191852
 20
273.0875128881
 40
0.8
 50
27.1093684211
 51
106.5632609236
  0
ARC
  8
0
 62
7
  6
CONTINUOUS
 10
128.3564354451
 20
126.6656327324
 40
6.2
 50
174.0905104044
 51
181.3116842105
  0
ARC
  8
0
 62
7
  6
CONTINUOUS
 10
128.3564354451
 20
126.6656327324
 40
6.2
 50
157.5325553666
 51
172.1155994963
  0
ARC
  8
0
 62
7
  6
CONTINUOUS
 10
108.0768470471
 20
123.2815679562
 40
6.2
 50
26.8317689247
 51
41.4148130545
  0
ARC
  8
0
 62
7
  6
CONTINUOUS
 10
108.0768470471
 20
123.2815679562
 40
6.2
 50
17.6356842105
 51
24.8568580166
  0
ARC
  8
0
 62
7
  6
CONTINUOUS
 10
132.8406401603
 20
128.2050621555
 40
6.2
 50
45.7791373458
 51
60.3621814756
  0
ARC
  8
0
 62
7
  6
CONTINUOUS
 10
132.8406401603
 20
128.2050621555
 40
6.2
 50
36.5830526316
 51
43.8042264377
  0
ARC
  8
0
 62
7
  6
CONTINUOUS
 10
124.4752287866
 20
128.2706981123
 40
2.0
 50
104.6744181439
 51
157.5325553665
  0
ARC
  8
0
 62
7
  6
CONTINUOUS
 10
111.2265953464
 20
126.0598922085
 40
2.0
 50
41.4148130545
 51
94.2729502772
  0
ARC
  8
0
 62
7
  6
CONTINUOUS
 10
134.9176059987
 20
131.8555707373
 40
2.0
 50
60.3621814756
 51
113.2203186982
  0
ARC
  8
0
 62
7
  6
CONTINUOUS
 10
121.3867317063
 20
125.2623608766
 40
0.8
 50
281.8577917079
 51
1.3116842105
  0
ARC
  8
0
 62
7
  6
CONTINUOUS
 10
115.1245546396
 20
124.2173883447
 40
0.8
 50
197.6356842105
 51
277.0895767131
  0
ARC
  8
0
 62
7
  6
CONTINUOUS
 10
144.786196146
 20
134.4002427359
 40
0.8
 50
300.805160129
 51
20.2590526316
  0
ARC
  8
0
 62
7
  6
CONTINUOUS
 10
139.2026231322
 20
131.3785641285
 40
0.8
 50
216.5830526316
 51
296.0369451342
  0
ARC
  8
0
 62
7
  6
CONTINUOUS
 10
150.9226204851
 20
137.9905405564
 40
6.2
 50
193.0378788255
 51
200.2590526316
  0
ARC
  8
0
 62
7
  6
CONTINUOUS
 10
150.9226204851
 20
137.9905405564
 40
6.2
 50
176.4799237876
 51
191.0629679174
  0
ARC
  8
0
 62
7
  6
CONTINUOUS
 10
171.1820462872
 20
159.998143603
 40
6.2
 50
74.4777894737
 51
81.6989632798
  0
ARC
  8
0
 62
7
  6
CONTINUOUS
 10
171.1820462872
 20
159.998143603
 40
6.2
 50
83.6738741879
 51
98.2569183177
  0
ARC
  8
0
 62
7
  6
CONTINUOUS
 10
168.588915816
 20
156.0290619414
 40
6.2
 50
211.9852472465
 51
219.2064210526
  0
ARC
  8
0
 62
7
  6
CONTINUOUS
 10
168.588915816
 20
156.0290619414
 40
6.2
 50
195.4272922087
 51
210.0103363384
  0
ARC
  8
0
 62
7
  6
CONTINUOUS
 10
154.6640067034
 20
140.902578338
 40
6.2
 50
64.7265057668
 51
79.3095498966
  0
ARC
  8
0
 62
7
  6
CONTINUOUS
 10
154.6640067034
 20
140.902578338
 40
6.2
 50
55.5304210526
 51
62.7515948587
  0
ARC
  8
0
 62
7
  6
CONTINUOUS
 10
146.7305444319
 20
138.2484133249
 40
2.0
 50
123.6217865649
 51
176.4799237876
  0
ARC
  8
0
 62
7
  6
CONTINUOUS
 10
164.5402468554
 20
154.9117975828
 40
2.0
 50
142.569154986
 51
195.4272922087
  0
ARC
  8
0
 62
7
  6
CONTINUOUS
 10
155.443118605
 20
145.029682001
 40
2.0
 50
79.3095498966
 51
132.1676871193
  0
ARC
  8
0
 62
7
  6
CONTINUOUS
 10
163.9507476704
 20
150.6408026343
 40
0.8
 50
319.75252855
 51
39.2064210526
  0
ARC
  8
0
 62
7
  6
CONTINUOUS
 10
159.6508454835
 20
145.9698637147
 40
0.8
 50
235.5304210526
 51
314.9843135552
  0
ARC
  8
0
 62
7
  6
CONTINUOUS
 10
180.6047730189
 20
183.4224571558
 40
6.2
 50
93.4251578947
 51
100.6463317008
  0
ARC
  8
0
 62
7
  6
CONTINUOUS
 10
180.6047730189
 20
183.4224571558
 40
6.2
 50
102.6212426089
 51
117.2042867387
  0
ARC
  8
0
 62
7
  6
CONTINUOUS
 10
179.440904218
 20
178.826443199
 40
6.2
 50
214.3746606297
 51
228.9577047595
  0
ARC
  8
0
 62
7
  6
CONTINUOUS
 10
179.440904218
 20
178.826443199
 40
6.2
 50
230.9326156676
 51
238.1537894737
  0
ARC
  8
0
 62
7
  6
CONTINUOUS
 10
178.6846822454
 20
187.1578622772
 40
2.0
 50
117.2042867387
 51
170.0624239614
  0
ARC
  8
0
 62
7
  6
CONTINUOUS
 10
170.5788753882
 20
164.1546066266
 40
2.0
 50
98.2569183177
 51
151.1150555404
  0
ARC
  8
0
 62
7
  6
CONTINUOUS
 10
175.9743784533
 20
176.4551146425
 40
2.0
 50
161.516523407
 51
214.3746606297
  0
ARC
  8
0
 62
7
  6
CONTINUOUS
 10
181.4276984169
 20
190.4842370941
 40
0.8
 50
273.4251578947
 51
352.8790503973
  0
ARC
  8
0
 62
7
  6
CONTINUOUS
 10
181.9519753544
 20
196.8113187989
 40
0.8
 50
357.6472653922
 51
77.1011578947
  0
ARC
  8
0
 62
7
  6
CONTINUOUS
 10
174.2533395149
 20
166.4100933858
 40
0.8
 50
254.4777894737
 51
333.9316819763
  0
ARC
  8
0
 62
7
  6
CONTINUOUS
 10
176.803609753
 20
172.2241239086
 40
0.8
 50
338.6998969711
 51
58.1537894737
  0
ARC
  8
0
 62
7
  6
CONTINUOUS
 10
105.7063020214
 20
199.9439531527
 40
72.09
 50
95.2007339333
 51
103.7466344877
  0
ARC
  8
0
 62
7
  6
CONTINUOUS
 10
105.7063020214
 20
199.9439531527
 40
72.09
 50
76.2533655123
 51
84.7992660667
  0
ARC
  8
0
 62
7
  6
CONTINUOUS
 10
105.7063020214
 20
199.9439531527
 40
72.09
 50
114.1481023544
 51
122.6940029088
  0
ARC
  8
0
 62
7
  6
CONTINUOUS
 10
105.7063020214
 20
199.9439531527
 40
72.09
 50
133.0954707754
 51
141.6413713298
  0
ARC
  8
0
 62
7
  6
CONTINUOUS
 10
105.7063020214
 20
199.9439531527
 40
72.09
 50
152.0428391965
 51
160.5887397509
  0
ARC
  8
0
 62
7
  6
CONTINUOUS
 10
105.7063020214
 20
199.9439531527
 40
72.09
 50
170.9902076175
 51
179.5361081719
  0
ARC
  8
0
 62
7
  6
CONTINUOUS
 10
105.7063020214
 20
199.9439531527
 40
72.09
 50
189.9375760386
 51
198.483476593
  0
ARC
  8
0
 62
7
  6
CONTINUOUS
 10
105.7063020214
 20
199.9439531527
 40
72.09
 50
208.8849444596
 51
217.430845014
  0
ARC
  8
0
 62
7
  6
CONTINUOUS
 10
105.7063020214
 20
199.9439531527
 40
72.09
 50
57.3059970912
 51
65.8518976456
  0
ARC
  8
0
 62
7
  6
CONTINUOUS
 10
105.7063020214
 20
199.9439531527
 40
72.09
 50
227.8323128807
 51
236.3782134351
  0
ARC
  8
0
 62
7
  6
CONTINUOUS
 10
105.7063020214
 20
199.9439531527
 40
72.09
 50
38.3586286702
 51
46.9045292246
  0
ARC
  8
0
 62
7
  6
CONTINUOUS
 10
105.7063020214
 20
199.9439531527
 40
72.09
 50
246.7796813018
 51
255.3255818561
  0
ARC
  8
0
 62
7
  6
CONTINUOUS
 10
105.7063020214
 20
199.9439531527
 40
72.09
 50
265.7270497228
 51
274.2729502772
  0
ARC
  8
0
 62
7
  6
CONTINUOUS
 10
105.7063020214
 20
199.9439531527
 40
72.09
 50
19.4112602491
 51
27.9571608035
  0
ARC
  8
0
 62
7
  6
CONTINUOUS
 10
105.7063020214
 20
199.9439531527
 40
72.09
 50
284.6744181439
 51
293.2203186982
  0
ARC
  8
0
 62
7
  6
CONTINUOUS
 10
105.7063020214
 20
199.9439531527
 40
72.09
 50
303.6217865649
 51
312.1676871193
  0
ARC
  8
0
 62
7
  6
CONTINUOUS
 10
105.7063020214
 20
199.9439531527
 40
72.09
 50
0.4638918281
 51
9.0097923825
  0
ARC
  8
0
 62
7
  6
CONTINUOUS
 10
105.7063020214
 20
199.9439531527
 40
72.09
 50
322.569154986
 51
331.1150555404
  0
ARC
  8
0
 62
7
  6
CONTINUOUS
 10
105.7063020214
 20
199.9439531527
 40
72.09
 50
341.516523407
 51
350.0624239614
  0
CIRCLE
  8
1_AXIS
 62
7
  6
CONTINUOUS
 10
105.7063020214
 20
199.9439531527
 40
62.5
  0
ARC
  8
0
 62
7
  6
CONTINUOUS
 10
115.9863020214
 20
275.9509422244
 40
6.2
 50
197.3580847142
 51
211.941128844
  0
ARC
  8
0
 62
7
  6
CONTINUOUS
 10
115.9863020214
 20
275.9509422244
 40
6.2
 50
188.162
 51
195.3831738061
  0
ARC
  8
0
 62
7
  6
CONTINUOUS
 10
140.1087322735
 20
268.494763363
 40
6.2
 50
169.2146315789
 51
176.435805385
  0
ARC
  8
0
 62
7
  6
CONTINUOUS
 10
140.1087322735
 20
268.494763363
 40
6.2
 50
178.4107162932
 51
192.9937604229
  0
ARC
  8
0
 62
7
  6
CONTINUOUS
 10
120.6627297841
 20
275.1705844499
 40
6.2
 50
309.111502735
 51
323.6945468647
  0
ARC
  8
0
 62
7
  6
CONTINUOUS
 10
120.6627297841
 20
275.1705844499
 40
6.2
 50
325.6694577729
 51
332.8906315789
  0
ARC
  8
0
 62
7
  6
CONTINUOUS
 10
112.4222150415
 20
273.7289422244
 40
2.0
 50
211.941128844
 51
264.7992660667
  0
ARC
  8
0
 62
7
  6
CONTINUOUS
 10
136.0162751365
 20
267.5504146025
 40
2.0
 50
192.9937604229
 51
245.8518976456
  0
ARC
  8
0
 62
7
  6
CONTINUOUS
 10
123.31222248
 20
271.9117213883
 40
2.0
 50
256.2533655123
 51
309.111502735
  0
CIRCLE
  8
0
 62
7
  6
CONTINUOUS
 10
105.7063020214
 20
264.9439531527
 40
0.8660254038
  0
ARC
  8
0
 62
7
  6
CONTINUOUS
 10
108.8806850011
 20
276.1878997498
 40
0.8
 50
8.162
 51
87.6158925026
  0
ARC
  8
0
 62
7
  6
CONTINUOUS
 10
133.4650571655
 20
271.026071951
 40
0.8
 50
349.214631579
 51
68.6685240815
  0
ARC
  8
0
 62
7
  6
CONTINUOUS
 10
127.4602848576
 20
273.0875128881
 40
0.8
 50
73.4367390764
 51
152.8906315789
  0
ARC
  8
0
 62
7
  6
CONTINUOUS
 10
174.9594324514
 20
232.9097644334
 40
6.2
 50
131.3198947368
 51
138.5410685429
  0
ARC
  8
0
 62
7
  6
CONTINUOUS
 10
174.9594324514
 20
232.9097644334
 40
6.2
 50
140.5159794511
 51
155.0990235808
  0
ARC
  8
0
 62
7
  6
CONTINUOUS
 10
181.9110882485
 20
208.6371311572
 40
6.2
 50
112.3725263158
 51
119.5937001219
  0
ARC
  8
0
 62
7
  6
CONTINUOUS
 10
181.9110882485
 20
208.6371311572
 40
6.2
 50
121.56861103
 51
136.1516551598
  0
ARC
  8
0
 62
7
  6
CONTINUOUS
 10
176.8639066329
 20
228.5680006249
 40
6.2
 50
252.2693974718
 51
266.8524416016
  0
ARC
  8
0
 62
7
  6
CONTINUOUS
 10
176.8639066329
 20
228.5680006249
 40
6.2
 50
268.8273525097
 51
276.0485263158
  0
ARC
  8
0
 62
7
  6
CONTINUOUS
 10
182.3026043618
 20
203.912234332
 40
6.2
 50
233.3220290508
 51
247.9050731805
  0
ARC
  8
0
 62
7
  6
CONTINUOUS
 10
182.3026043618
 20
203.912234332
 40
6.2
 50
249.8799840886
 51
257.1011578947
  0
ARC
  8
0
 62
7
  6
CONTINUOUS
 10
171.1498777276
 20
234.6781797712
 40
2.0
 50
155.0990235808
 51
207.9571608035
  0
ARC
  8
0
 62
7
  6
CONTINUOUS
 10
178.8821492292
 20
211.5466892709
 40
2.0
 50
136.1516551598
 51
189.0097923825
  0
ARC
  8
0
 62
7
  6
CONTINUOUS
 10
175.5848308705
 20
224.5675050064
 40
2.0
 50
199.4112602491
 51
252.2693974718
  0
ARC
  8
0
 62
7
  6
CONTINUOUS
 10
179.7938736483
 20
200.5438118218
 40
2.0
 50
180.4638918281
 51
233.3220290508
  0
ARC
  8
0
 62
7
  6
CONTINUOUS
 10
180.396469081
 20
215.58348782
 40
0.8
 50
292.3725263158
 51
11.8264188184
  0
ARC
  8
0
 62
7
  6
CONTINUOUS
 10
178.8379391767
 20
221.7379832293
 40
0.8
 50
16.5946338132
 51
96.0485263158
  0
ARC
  8
0
 62
7
  6
CONTINUOUS
 10
160.5031253991
 20
253.61004054
 40
6.2
 50
150.2672631579
 51
157.488436964
  0
ARC
  8
0
 62
7
  6
CONTINUOUS
 10
160.5031253991
 20
253.61004054
 40
6.2
 50
159.4633478721
 51
174.0463920019
  0
ARC
  8
0
 62
7
  6
CONTINUOUS
 10
144.2783965259
 20
266.2382539129
 40
6.2
 50
290.1641343139
 51
304.7471784437
  0
ARC
  8
0
 62
7
  6
CONTINUOUS
 10
144.2783965259
 20
266.2382539129
 40
6.2
 50
306.7220893518
 51
313.9432631579
  0
ARC
  8
0
 62
7
  6
CONTINUOUS
 10
163.7141783204
 20
250.1219072264
 40
6.2
 50
271.2167658929
 51
285.7998100226
  0
ARC
  8
0
 62
7
  6
CONTINUOUS
 10
163.7141783204
 20
250.1219072264
 40
6.2
 50
287.7747209307
 51
294.9958947368
  0
ARC
  8
0
 62
7
  6
CONTINUOUS
 10
156.3257793367
 20
254.0456778603
 40
2.0
 50
174.0463920019
 51
226.9045292246
  0
ARC
  8
0
 62
7
  6
CONTINUOUS
 10
145.7261812931
 20
262.2956761688
 40
2.0
 50
237.3059970912
 51
290.1641343139
  0
ARC
  8
0
 62
7
  6
CONTINUOUS
 10
163.8033652147
 20
245.9228542739
 40
2.0
 50
218.3586286702
 51
271.2167658929
  0
ARC
  8
0
 62
7
  6
CONTINUOUS
 10
155.0413374886
 20
258.1613936277
 40
0.8
 50
330.2672631579
 51
49.7211556605
  0
ARC
  8
0
 62
7
  6
CONTINUOUS
 10
150.0312690854
 20
262.0608863898
 40
0.8
 50
54.4893706553
 51
133.9432631579
  0
ARC
  8
0
 62
7
  6
CONTINUOUS
 10
171.2714012068
 20
238.9879522922
 40
0.8
 50
311.3198947368
 51
30.7737872394
  0
ARC
  8
0
 62
7
  6
CONTINUOUS
 10
167.798955359
 20
244.3029263317
 40
0.8
 50
35.5420022343
 51
114.9958947368
  0
ARC
  8
1_AXIS
 62
7
  6
CONTINUOUS
 10
166.2063020214
 20
79.7175980975
 40
2.0
 50
0.0
 51
90.0
  0
ARC
  8
1_AXIS
 62
7
  6
CONTINUOUS
 10
166.2063020214
 20
58.7175980975
 40
2.0
 50
270.0
 51
360.0
  0
ARC
  8
1_AXIS
 62
7
  6
CONTINUOUS
 10
45.2063020214
 20
79.7175980975
 40
2.0
 50
90.0
 51
180.0
  0
ARC
  8
1_AXIS
 62
7
  6
CONTINUOUS
 10
45.2063020214
 20
58.7175980975
 40
2.0
 50
180.0
 51
270.0
  0
ARC
  8
1_AXIS
 62
7
  6
CONTINUOUS
 10
169.2063020214
 20
74.2175980975
 40
1.0
 50
180.0
 51
270.0
  0
ARC
  8
1_AXIS
 62
7
  6
CONTINUOUS
 10
169.2063020214
 20
64.2175980975
 40
1.0
 50
90.0
 51
180.0
  0
ARC
  8
1_AXIS
 62
7
  6
CONTINUOUS
 10
42.2063020214
 20
74.2175980975
 40
1.0
 50
270.0
 51
360.0
  0
ARC
  8
1_AXIS
 62
7
  6
CONTINUOUS
 10
42.2063020214
 20
64.2175980975
 40
1.0
 50
0.0
 51
90.0
  0
ENDSEC
  0
EOF
