  0
SECTION
  2
HEADER
  9
$EXTMAX
 10
210.0
 20
297.0
 30
0.0
  9
$EXTMIN
 10
0.0
 20
0.0
 30
0.0
  9
$LIMMIN
 10
0.0
 20
0.0
  9
$LIMMAX
 10
210.0
 20
297.0
  9
$VIEWCTR
 10
105.0
 20
148.5
  9
$VIEWSIZE
 40
297.0
  9
$CLAYER
  8
0
  9
$LTSCALE
 40
19.36
  9
$CELTYPE
  6
BYLAYER
  9
$DIMSCALE
 40
1.0
  9
$DIMASZ
 40
3.5
  9
$DIMEXO
 40
1.0
  9
$DIMDLI
 40
13.376
  9
$DIMEXE
 40
2.0
  9
$DIMCEN
 40
3.168
  9
$DIMLFAC
 40
1.0
  9
$DIMBLK
  1
_FILLED
  9
$DIMALT
 70
0
  9
$DIMALTF
 40
0.0393700787
  9
$DIMTXT
 40
3.5
  9
$AUNITS
 70
0
  9
$PDMODE
 70
3
  9
$PDSIZE
 40
0.3125
  9
$TILEMODE
 70
1
  0
ENDSEC
  0
SECTION
  2
TABLES
  0
TABLE
  2
LTYPE
 70
6
  0
LTYPE
  2
BYBLOCK
 70
0
  3

 72
65
 73
0
 40
0.0
  0
LTYPE
  2
BYLAYER
 70
0
  3

 72
65
 73
0
 40
0.0
  0
LTYPE
  2
CONTINUOUS
 70
64
  3
Solid line
 72
65
 73
0
 40
0.0
  0
LTYPE
  2
CENTER
 70
64
  3
____ _ ____ _ ____ _ ____ _ ____ _ ____ _ ____
 72
65
 73
4
 40
0.6
 49
0.375
 49
-0.075
 49
0.075
 49
-0.075
  0
LTYPE
  2
HIDDEN
 70
64
  3
- - - - - - - - - - - - - - - - - - - -
 72
65
 73
2
 40
0.2
 49
0.1
 49
-0.1
  0
LTYPE
  2
PHANTOM
 70
64
  3
_____ _ _ _____ _ _ _____ _ _ _____
 72
65
 73
6
 40
0.8
 49
0.45
 49
-0.05
 49
0.1
 49
-0.05
 49
0.1
 49
-0.05
  0
LTYPE
  2
DOT
 70
64
  3
. . . . . . . . . . . . . . . . . . . .
 72
65
 73
2
 40
0.2
 49
0.1
 49
-0.1
  0
LTYPE
  2
DASHED
 70
64
  3
- - - - - - - - - - - - - - - - - - - -
 72
65
 73
2
 40
0.2
 49
0.1
 49
-0.1
  0
ENDTAB
  0
TABLE
  2
LAYER
 70
36
  0
LAYER
  2
0
 70
0
 62
7
  6
CONTINUOUS
  0
LAYER
  2
DEFAULT_1
 70
0
 62
7
  6
CENTER
  0
LAYER
  2
DEFAULT_2
 70
0
 62
8
  6
HIDDEN
  0
LAYER
  2
DEFAULT_3
 70
0
 62
7
  6
PHANTOM
  0
LAYER
  2
1_AXIS
 70
0
 62
7
  6
CONTINUOUS
  0
LAYER
  2
1_CSYS
 70
0
 62
7
  6
CONTINUOUS
  0
LAYER
  2
1_DATUM_PLANE
 70
0
 62
7
  6
CONTINUOUS
  0
LAYER
  2
2_FEATURE
 70
0
 62
7
  6
CONTINUOUS
  0
LAYER
  2
6_DIM
 70
0
 62
7
  6
CONTINUOUS
  0
LAYER
  2
AXES
 70
0
 62
7
  6
CONTINUOUS
  0
LAYER
  2
CSYS
 70
0
 62
7
  6
CONTINUOUS
  0
LAYER
  2
PITCH
 70
0
 62
7
  6
CONTINUOUS
  0
LAYER
  2
PLANES
 70
0
 62
7
  6
CONTINUOUS
  0
LAYER
  2
QUILTS
 70
0
 62
7
  6
CONTINUOUS
  0
LAYER
  2
SQ
 70
0
 62
7
  6
CONTINUOUS
  0
ENDTAB
  0
TABLE
  2
STYLE
 70
1
  0
STYLE
  2
STANDARD
 70
0
 40
0.0
 41
0.8
 50
0.0
 71
0
 42
0.2
  3
txt
  4

  0
STYLE
  2
TEXTSTYLE_1
 70
0
 40
0.0
 41
0.8
 50
0.0
 71
0
 42
0.2
  3
gdt
  4

  0
STYLE
  2
TEXTSTYLE_2
 70
0
 40
0.0
 41
0.6
 50
0.0
 71
0
 42
0.2
  3
txt
  4

  0
STYLE
  2
TEXTSTYLE_3
 70
0
 40
0.0
 41
1.0
 50
0.0
 71
0
 42
0.2
  3
ftb_____.ttf
  4

  0
STYLE
  2
TEXTSTYLE_4
 70
0
 40
0.0
 41
1.0
 50
0.0
 71
0
 42
0.2
  3
fti_____.ttf
  4

  0
STYLE
  2
TEXTSTYLE_5
 70
0
 40
0.0
 41
1.0
 50
0.0
 71
0
 42
0.2
  3
frutiger light.ttf
  4

  0
STYLE
  2
TEXTSTYLE_6
 70
0
 40
0.0
 41
0.7
 50
0.0
 71
0
 42
0.2
  3
txt
  4

  0
STYLE
  2
TEXTSTYLE_7
 70
0
 40
0.0
 41
0.5
 50
0.0
 71
0
 42
0.2
  3
txt
  4

  0
ENDTAB
  0
ENDSEC
  0
SECTION
  2
BLOCKS
  0
BLOCK
  8
0
 62
2
  6
CONTINUOUS
  2
UNI_LOGO2_BL1
 70
64
 10
173.5956734183
 20
35.5937998301
  0
TEXT
  8
0
 62
7
  6
CONTINUOUS
 10
164.6539584268
 20
30.6865562072
  7
TEXTSTYLE_4
 40
1.0655737705
  1
The brand for plastic modular belts and chains
 41
1.0
 72
0
  0
LINE
  8
0
 62
7
  6
CONTINUOUS
 10
149.5737418074
 20
36.1675703219
 11
149.5737418074
 21
34.0364227809
  0
LINE
  8
0
 62
7
  6
CONTINUOUS
 10
149.8628043005
 20
31.0454914852
 11
149.8628043005
 21
31.1422825445
  0
LINE
  8
0
 62
7
  6
CONTINUOUS
 10
149.5737418074
 20
31.1100188581
 11
149.6315543091
 21
30.9164367395
  0
LINE
  8
0
 62
7
  6
CONTINUOUS
 10
150.9671844304
 20
33.9544555678
 11
150.9671844304
 21
36.1675703219
  0
LINE
  8
0
 62
7
  6
CONTINUOUS
 10
151.8862417523
 20
32.1101932727
 11
151.8862417523
 21
30.5937998301
  0
LINE
  8
0
 62
7
  6
CONTINUOUS
 10
152.1753043074
 20
30.5937998301
 11
152.1753043074
 21
31.3358647082
  0
LINE
  8
0
 62
7
  6
CONTINUOUS
 10
152.1753043074
 20
31.4649194539
 11
152.1753043074
 21
32.1101932727
  0
LINE
  8
0
 62
7
  6
CONTINUOUS
 10
149.6315543091
 20
31.3036010218
 11
149.5737418074
 21
31.1100188581
  0
LINE
  8
0
 62
7
  6
CONTINUOUS
 10
149.9784292936
 20
30.8841730531
 11
149.8628043005
 21
31.0454914852
  0
LINE
  8
0
 62
7
  6
CONTINUOUS
 10
151.0768668626
 20
31.400392081
 11
151.1346793074
 21
31.3036010218
  0
LINE
  8
0
 62
7
  6
CONTINUOUS
 10
151.4237418626
 20
31.3036010218
 11
151.3659292523
 21
31.4326557675
  0
LINE
  8
0
 62
7
  6
CONTINUOUS
 10
152.852430332
 20
36.1675703219
 11
152.852430332
 21
34.3642916334
  0
LINE
  8
0
 62
7
  6
CONTINUOUS
 10
152.852430332
 20
33.0528162235
 11
152.852430332
 21
32.3970785186
  0
LINE
  8
0
 62
7
  6
CONTINUOUS
 10
153.2159293074
 20
31.2390736489
 11
153.2159293074
 21
30.5937998301
  0
LINE
  8
0
 62
7
  6
CONTINUOUS
 10
153.5049916972
 20
30.5937998301
 11
153.5049916972
 21
31.2390736489
  0
LINE
  8
0
 62
7
  6
CONTINUOUS
 10
149.8628043005
 20
31.1422825445
 11
149.9206168074
 21
31.2713373354
  0
LINE
  8
0
 62
7
  6
CONTINUOUS
 10
149.6315543091
 20
30.9164367395
 11
149.7471793074
 21
30.7873819712
  0
LINE
  8
0
 62
7
  6
CONTINUOUS
 10
153.1581166972
 20
31.3681283946
 11
153.2159293074
 21
31.2390736489
  0
LINE
  8
0
 62
7
  6
CONTINUOUS
 10
153.9674919177
 20
30.8841730531
 11
154.0253041972
 21
30.7551182848
  0
LINE
  8
0
 62
7
  6
CONTINUOUS
 10
153.5049916972
 20
31.2390736489
 11
153.4471794177
 21
31.400392081
  0
LINE
  8
0
 62
7
  6
CONTINUOUS
 10
153.9674919177
 20
31.4326557675
 11
153.9674919177
 21
31.3681283946
  0
LINE
  8
0
 62
7
  6
CONTINUOUS
 10
153.9674919177
 20
30.9809641124
 11
153.9674919177
 21
30.8841730531
  0
LINE
  8
0
 62
7
  6
CONTINUOUS
 10
154.245872955
 20
32.3970785186
 11
154.245872955
 21
36.1675703219
  0
LINE
  8
0
 62
7
  6
CONTINUOUS
 10
154.2565543074
 20
30.8519093441
 11
154.2565543074
 21
30.9164367395
  0
LINE
  8
0
 62
7
  6
CONTINUOUS
 10
154.5737418074
 20
36.1675703219
 11
154.5737418074
 21
32.3970785186
  0
LINE
  8
0
 62
7
  6
CONTINUOUS
 10
151.3659292523
 20
30.7873819712
 11
151.4237418626
 21
30.9164367395
  0
LINE
  8
0
 62
7
  6
CONTINUOUS
 10
155.759679528
 20
30.6905909007
 11
155.7018665869
 21
30.8519093441
  0
LINE
  8
0
 62
7
  6
CONTINUOUS
 10
155.412804528
 20
31.3681283946
 11
155.412804528
 21
31.2713373354
  0
LINE
  8
0
 62
7
  6
CONTINUOUS
 10
155.412804528
 20
31.1422825445
 11
155.412804528
 21
30.9487004259
  0
LINE
  8
0
 62
7
  6
CONTINUOUS
 10
155.7018665869
 20
30.8519093441
 11
155.7018665869
 21
31.3681283946
  0
LINE
  8
0
 62
7
  6
CONTINUOUS
 10
155.9671844304
 20
32.3970785186
 11
155.9671844304
 21
34.2003572071
  0
LINE
  8
0
 62
7
  6
CONTINUOUS
 10
155.9671844304
 20
35.511832617
 11
155.9671844304
 21
36.1675703219
  0
LINE
  8
0
 62
7
  6
CONTINUOUS
 10
156.279992028
 20
32.1101932727
 11
156.279992028
 21
31.9488748406
  0
LINE
  8
0
 62
7
  6
CONTINUOUS
 10
156.279992028
 20
31.626237886
 11
156.279992028
 21
30.5937998301
  0
LINE
  8
0
 62
7
  6
CONTINUOUS
 10
156.5690540869
 20
30.5937998301
 11
156.5690540869
 21
31.626237886
  0
LINE
  8
0
 62
7
  6
CONTINUOUS
 10
156.5690540869
 20
31.9488748406
 11
156.5690540869
 21
32.1101932727
  0
LINE
  8
0
 62
7
  6
CONTINUOUS
 10
151.1346793074
 20
30.9164367395
 11
151.0768668626
 21
30.8196456577
  0
LINE
  8
0
 62
7
  6
CONTINUOUS
 10
153.4471794177
 20
31.400392081
 11
153.3893668074
 21
31.4649194539
  0
LINE
  8
0
 62
7
  6
CONTINUOUS
 10
154.3143669177
 20
30.7873819712
 11
154.2565543074
 21
30.8519093441
  0
LINE
  8
0
 62
7
  6
CONTINUOUS
 10
155.4706168074
 20
30.6583272086
 11
155.5284290869
 21
30.5937998301
  0
LINE
  8
0
 62
7
  6
CONTINUOUS
 10
155.412804528
 20
30.7551182848
 11
155.4706168074
 21
30.6583272086
  0
LINE
  8
0
 62
7
  6
CONTINUOUS
 10
155.8174918074
 20
30.5937998301
 11
155.759679528
 21
30.6905909007
  0
LINE
  8
0
 62
7
  6
CONTINUOUS
 10
155.7018665869
 20
31.3681283946
 11
155.6440543074
 21
31.4649194539
  0
LINE
  8
0
 62
7
  6
CONTINUOUS
 10
157.0315543074
 20
31.626237886
 11
157.0315543074
 21
30.5937998301
  0
LINE
  8
0
 62
7
  6
CONTINUOUS
 10
157.320617028
 20
30.5937998301
 11
157.320617028
 21
31.3358647082
  0
LINE
  8
0
 62
7
  6
CONTINUOUS
 10
157.320617028
 20
31.4649194539
 11
157.320617028
 21
31.626237886
  0
LINE
  8
0
 62
7
  6
CONTINUOUS
 10
157.852430332
 20
34.6101932727
 11
157.852430332
 21
32.3970785186
  0
LINE
  8
0
 62
7
  6
CONTINUOUS
 10
149.7471793074
 20
31.4326557675
 11
149.6315543091
 21
31.3036010218
  0
LINE
  8
0
 62
7
  6
CONTINUOUS
 10
149.9206168074
 20
31.2713373354
 11
149.9784292936
 21
31.3358647082
  0
LINE
  8
0
 62
7
  6
CONTINUOUS
 10
149.7471793074
 20
30.7873819712
 11
149.8628043005
 21
30.7228545871
  0
LINE
  8
0
 62
7
  6
CONTINUOUS
 10
150.1518667936
 20
30.7873819712
 11
149.9784292936
 21
30.8841730531
  0
LINE
  8
0
 62
7
  6
CONTINUOUS
 10
155.3549915869
 20
31.4326557675
 11
155.412804528
 21
31.3681283946
  0
LINE
  8
0
 62
7
  6
CONTINUOUS
 10
158.3034290869
 20
31.3681283946
 11
158.361242028
 21
31.2068099625
  0
LINE
  8
0
 62
7
  6
CONTINUOUS
 10
158.6503040869
 20
31.2068099625
 11
158.5924918074
 21
31.3681283946
  0
LINE
  8
0
 62
7
  6
CONTINUOUS
 10
158.361242028
 20
31.2068099625
 11
158.361242028
 21
30.5937998301
  0
LINE
  8
0
 62
7
  6
CONTINUOUS
 10
158.6503040869
 20
30.5937998301
 11
158.6503040869
 21
31.2068099625
  0
LINE
  8
0
 62
7
  6
CONTINUOUS
 10
159.1128043074
 20
31.4326557675
 11
159.1128043074
 21
31.3681283946
  0
LINE
  8
0
 62
7
  6
CONTINUOUS
 10
159.245872955
 20
32.3970785186
 11
159.245872955
 21
34.5282260596
  0
LINE
  8
0
 62
7
  6
CONTINUOUS
 10
159.5737418074
 20
36.1675703219
 11
159.5737418074
 21
32.3970785186
  0
LINE
  8
0
 62
7
  6
CONTINUOUS
 10
154.2565543074
 20
30.9164367395
 11
154.3143669177
 21
31.0132277988
  0
LINE
  8
0
 62
7
  6
CONTINUOUS
 10
149.8628043005
 20
30.7228545871
 11
150.0362418212
 21
30.6583272086
  0
LINE
  8
0
 62
7
  6
CONTINUOUS
 10
151.3659292523
 20
31.4326557675
 11
151.1924917523
 21
31.5294468267
  0
LINE
  8
0
 62
7
  6
CONTINUOUS
 10
154.0253041972
 20
30.7551182848
 11
154.1987416972
 21
30.6583272086
  0
LINE
  8
0
 62
7
  6
CONTINUOUS
 10
153.0424918074
 20
31.4326557675
 11
153.1581166972
 21
31.3681283946
  0
LINE
  8
0
 62
7
  6
CONTINUOUS
 10
153.3893668074
 20
31.4649194539
 11
153.2737419177
 21
31.5294468267
  0
LINE
  8
0
 62
7
  6
CONTINUOUS
 10
159.1128043074
 20
30.8519093441
 11
159.228429528
 21
30.7228545871
  0
LINE
  8
0
 62
7
  6
CONTINUOUS
 10
159.4596793074
 20
30.7873819712
 11
159.401867028
 21
30.8519093441
  0
LINE
  8
0
 62
7
  6
CONTINUOUS
 10
159.1128043074
 20
31.3681283946
 11
159.228429528
 21
31.2390736489
  0
LINE
  8
0
 62
7
  6
CONTINUOUS
 10
158.5924918074
 20
31.3681283946
 11
158.534679528
 21
31.4649194539
  0
LINE
  8
0
 62
7
  6
CONTINUOUS
 10
160.9628038663
 20
30.7873819712
 11
160.9628038663
 21
30.8519093441
  0
LINE
  8
0
 62
7
  6
CONTINUOUS
 10
160.9671844304
 20
32.3970785186
 11
160.9671844304
 21
36.1675703219
  0
LINE
  8
0
 62
7
  6
CONTINUOUS
 10
154.0253041972
 20
31.4971831403
 11
153.9674919177
 21
31.4326557675
  0
LINE
  8
0
 62
7
  6
CONTINUOUS
 10
150.9034292799
 20
31.4649194539
 11
151.0768668626
 21
31.400392081
  0
LINE
  8
0
 62
7
  6
CONTINUOUS
 10
155.6440543074
 20
31.4649194539
 11
155.5284290869
 21
31.5294468267
  0
LINE
  8
0
 62
7
  6
CONTINUOUS
 10
159.4596793074
 20
31.3036010218
 11
159.401867028
 21
31.3681283946
  0
LINE
  8
0
 62
7
  6
CONTINUOUS
 10
160.615929528
 20
30.9164367395
 11
160.6737418074
 21
30.8519093441
  0
LINE
  8
0
 62
7
  6
CONTINUOUS
 10
160.9628038663
 20
30.8519093441
 11
160.8471793074
 21
30.9809641124
  0
LINE
  8
0
 62
7
  6
CONTINUOUS
 10
160.615929528
 20
31.4326557675
 11
160.6737418074
 21
31.3681283946
  0
LINE
  8
0
 62
7
  6
CONTINUOUS
 10
160.9628038663
 20
31.3681283946
 11
160.8471793074
 21
31.4971831403
  0
LINE
  8
0
 62
7
  6
CONTINUOUS
 10
154.2565543074
 20
31.3681283946
 11
154.3143669177
 21
31.4326557675
  0
LINE
  8
0
 62
7
  6
CONTINUOUS
 10
154.0831168074
 20
31.1100188581
 11
153.9674919177
 21
30.9809641124
  0
LINE
  8
0
 62
7
  6
CONTINUOUS
 10
155.412804528
 20
30.9487004259
 11
155.3549915869
 21
30.8841730531
  0
LINE
  8
0
 62
7
  6
CONTINUOUS
 10
155.3549915869
 20
30.6905909007
 11
155.412804528
 21
30.7551182848
  0
LINE
  8
0
 62
7
  6
CONTINUOUS
 10
154.1987416972
 20
30.6583272086
 11
154.3143669177
 21
30.6260635193
  0
LINE
  8
0
 62
7
  6
CONTINUOUS
 10
151.1924917523
 20
31.5294468267
 11
150.9612418074
 21
31.5939741996
  0
LINE
  8
0
 62
7
  6
CONTINUOUS
 10
154.5456166972
 20
30.7228545871
 11
154.3143669177
 21
30.7873819712
  0
LINE
  8
0
 62
7
  6
CONTINUOUS
 10
153.2737419177
 20
31.5294468267
 11
153.1003044177
 21
31.5939741996
  0
LINE
  8
0
 62
7
  6
CONTINUOUS
 10
155.5284290869
 20
31.5294468267
 11
155.3549915869
 21
31.5939741996
  0
LINE
  8
0
 62
7
  6
CONTINUOUS
 10
158.187804528
 20
31.4326557675
 11
158.3034290869
 21
31.3681283946
  0
LINE
  8
0
 62
7
  6
CONTINUOUS
 10
158.534679528
 20
31.4649194539
 11
158.4190543074
 21
31.5294468267
  0
LINE
  8
0
 62
7
  6
CONTINUOUS
 10
150.0362418212
 20
30.6583272086
 11
150.2096793212
 21
30.6260635193
  0
LINE
  8
0
 62
7
  6
CONTINUOUS
 10
150.498741835
 20
30.7228545871
 11
150.1518667936
 21
30.7873819712
  0
LINE
  8
0
 62
7
  6
CONTINUOUS
 10
152.9268669177
 20
31.4649194539
 11
153.0424918074
 21
31.4326557675
  0
LINE
  8
0
 62
7
  6
CONTINUOUS
 10
155.239367028
 20
31.4649194539
 11
155.3549915869
 21
31.4326557675
  0
LINE
  8
0
 62
7
  6
CONTINUOUS
 10
159.575304528
 20
30.7551182848
 11
159.4596793074
 21
30.7873819712
  0
LINE
  8
0
 62
7
  6
CONTINUOUS
 10
158.0721793074
 20
31.4649194539
 11
158.187804528
 21
31.4326557675
  0
LINE
  8
0
 62
7
  6
CONTINUOUS
 10
159.228429528
 20
30.7228545871
 11
159.401867028
 21
30.6583272086
  0
LINE
  8
0
 62
7
  6
CONTINUOUS
 10
158.4190543074
 20
31.5294468267
 11
158.2456168074
 21
31.5939741996
  0
LINE
  8
0
 62
7
  6
CONTINUOUS
 10
159.6331168074
 20
31.2390736489
 11
159.4596793074
 21
31.3036010218
  0
LINE
  8
0
 62
7
  6
CONTINUOUS
 10
160.442492028
 20
30.9809641124
 11
160.615929528
 21
30.9164367395
  0
LINE
  8
0
 62
7
  6
CONTINUOUS
 10
160.8471793074
 20
31.4971831403
 11
160.6737418074
 21
31.5617105132
  0
LINE
  8
0
 62
7
  6
CONTINUOUS
 10
159.228429528
 20
31.2390736489
 11
159.4596793074
 21
31.1422825445
  0
LINE
  8
0
 62
7
  6
CONTINUOUS
 10
160.8471793074
 20
30.9809641124
 11
160.615929528
 21
31.0777551716
  0
LINE
  8
0
 62
7
  6
CONTINUOUS
 10
159.401867028
 20
31.3681283946
 11
159.4596793074
 21
31.4326557675
  0
LINE
  8
0
 62
7
  6
CONTINUOUS
 10
149.8628043005
 20
31.4971831403
 11
149.7471793074
 21
31.4326557675
  0
LINE
  8
0
 62
7
  6
CONTINUOUS
 10
149.9784292936
 20
31.3358647082
 11
150.1518667936
 21
31.4326557675
  0
LINE
  8
0
 62
7
  6
CONTINUOUS
 10
152.2909293626
 20
31.5294468267
 11
152.1753043074
 21
31.4649194539
  0
LINE
  8
0
 62
7
  6
CONTINUOUS
 10
152.1753043074
 20
31.3358647082
 11
152.2909293626
 21
31.400392081
  0
LINE
  8
0
 62
7
  6
CONTINUOUS
 10
151.1924917523
 20
30.6905909007
 11
151.3659292523
 21
30.7873819712
  0
LINE
  8
0
 62
7
  6
CONTINUOUS
 10
150.2096793212
 20
30.6260635193
 11
150.5565542799
 21
30.5937998301
  0
LINE
  8
0
 62
7
  6
CONTINUOUS
 10
154.3143669177
 20
30.6260635193
 11
154.5456166972
 21
30.5937998301
  0
LINE
  8
0
 62
7
  6
CONTINUOUS
 10
152.6956168074
 20
31.4971831403
 11
152.9268669177
 21
31.4649194539
  0
LINE
  8
0
 62
7
  6
CONTINUOUS
 10
155.0081169177
 20
31.4971831403
 11
155.239367028
 21
31.4649194539
  0
LINE
  8
0
 62
7
  6
CONTINUOUS
 10
159.4596793074
 20
31.1422825445
 11
160.442492028
 21
30.9809641124
  0
LINE
  8
0
 62
7
  6
CONTINUOUS
 10
160.615929528
 20
31.0777551716
 11
159.6331168074
 21
31.2390736489
  0
LINE
  8
0
 62
7
  6
CONTINUOUS
 10
153.1003044177
 20
31.5939741996
 11
152.9268669177
 21
31.626237886
  0
LINE
  8
0
 62
7
  6
CONTINUOUS
 10
159.401867028
 20
30.6583272086
 11
159.575304528
 21
30.6260635193
  0
LINE
  8
0
 62
7
  6
CONTINUOUS
 10
158.2456168074
 20
31.5939741996
 11
158.0721793074
 21
31.626237886
  0
LINE
  8
0
 62
7
  6
CONTINUOUS
 10
160.5003043074
 20
31.4649194539
 11
160.615929528
 21
31.4326557675
  0
LINE
  8
0
 62
7
  6
CONTINUOUS
 10
160.6737418074
 20
30.8519093441
 11
160.615929528
 21
30.7873819712
  0
LINE
  8
0
 62
7
  6
CONTINUOUS
 10
159.228429528
 20
31.5294468267
 11
159.1128043074
 21
31.4326557675
  0
LINE
  8
0
 62
7
  6
CONTINUOUS
 10
154.1409294177
 20
31.5617105132
 11
154.0253041972
 21
31.4971831403
  0
LINE
  8
0
 62
7
  6
CONTINUOUS
 10
154.1987416972
 20
31.1745462761
 11
154.0831168074
 21
31.1100188581
  0
LINE
  8
0
 62
7
  6
CONTINUOUS
 10
154.3143669177
 20
31.0132277988
 11
154.4299918074
 21
31.0777551716
  0
LINE
  8
0
 62
7
  6
CONTINUOUS
 10
151.8862417523
 20
30.5937998301
 11
152.1753043074
 21
30.5937998301
  0
LINE
  8
0
 62
7
  6
CONTINUOUS
 10
153.2159293074
 20
30.5937998301
 11
153.5049916972
 21
30.5937998301
  0
LINE
  8
0
 62
7
  6
CONTINUOUS
 10
154.5456166972
 20
30.5937998301
 11
154.8924916972
 21
30.5937998301
  0
LINE
  8
0
 62
7
  6
CONTINUOUS
 10
155.5284290869
 20
30.5937998301
 11
155.8174918074
 21
30.5937998301
  0
LINE
  8
0
 62
7
  6
CONTINUOUS
 10
156.279992028
 20
30.5937998301
 11
156.5690540869
 21
30.5937998301
  0
LINE
  8
0
 62
7
  6
CONTINUOUS
 10
157.0315543074
 20
30.5937998301
 11
157.320617028
 21
30.5937998301
  0
LINE
  8
0
 62
7
  6
CONTINUOUS
 10
158.361242028
 20
30.5937998301
 11
158.6503040869
 21
30.5937998301
  0
LINE
  8
0
 62
7
  6
CONTINUOUS
 10
159.922179528
 20
30.5937998301
 11
160.269054528
 21
30.5937998301
  0
LINE
  8
0
 62
7
  6
CONTINUOUS
 10
160.269054528
 20
30.7228545871
 11
159.922179528
 21
30.7228545871
  0
LINE
  8
0
 62
7
  6
CONTINUOUS
 10
154.8924916972
 20
30.7228545871
 11
154.5456166972
 21
30.7228545871
  0
LINE
  8
0
 62
7
  6
CONTINUOUS
 10
159.401867028
 20
30.8519093441
 11
159.1128043074
 21
30.8519093441
  0
LINE
  8
0
 62
7
  6
CONTINUOUS
 10
151.4237418626
 20
30.9164367395
 11
151.1346793074
 21
30.9164367395
  0
LINE
  8
0
 62
7
  6
CONTINUOUS
 10
150.498741835
 20
31.4971831403
 11
150.9034292799
 21
31.4649194539
  0
LINE
  8
0
 62
7
  6
CONTINUOUS
 10
150.9612418074
 20
31.5939741996
 11
150.5565542799
 21
31.626237886
  0
LINE
  8
0
 62
7
  6
CONTINUOUS
 10
159.575304528
 20
30.6260635193
 11
159.922179528
 21
30.5937998301
  0
LINE
  8
0
 62
7
  6
CONTINUOUS
 10
159.922179528
 20
30.7228545871
 11
159.575304528
 21
30.7551182848
  0
LINE
  8
0
 62
7
  6
CONTINUOUS
 10
155.3549915869
 20
31.5939741996
 11
155.0081169177
 21
31.626237886
  0
LINE
  8
0
 62
7
  6
CONTINUOUS
 10
160.1534293074
 20
31.4971831403
 11
160.5003043074
 21
31.4649194539
  0
LINE
  8
0
 62
7
  6
CONTINUOUS
 10
160.5003043074
 20
31.5939741996
 11
160.1534293074
 21
31.626237886
  0
LINE
  8
0
 62
7
  6
CONTINUOUS
 10
157.840929528
 20
31.4971831403
 11
158.0721793074
 21
31.4649194539
  0
LINE
  8
0
 62
7
  6
CONTINUOUS
 10
160.6737418074
 20
31.5617105132
 11
160.5003043074
 21
31.5939741996
  0
LINE
  8
0
 62
7
  6
CONTINUOUS
 10
160.8471793074
 20
30.6905909007
 11
160.9628038663
 21
30.7873819712
  0
LINE
  8
0
 62
7
  6
CONTINUOUS
 10
155.3549915869
 20
30.8841730531
 11
155.1815540869
 21
30.7873819712
  0
LINE
  8
0
 62
7
  6
CONTINUOUS
 10
157.4362415869
 20
31.5294468267
 11
157.320617028
 21
31.4649194539
  0
LINE
  8
0
 62
7
  6
CONTINUOUS
 10
157.320617028
 20
31.3358647082
 11
157.4362415869
 21
31.400392081
  0
LINE
  8
0
 62
7
  6
CONTINUOUS
 10
150.0362418212
 20
31.5617105132
 11
149.8628043005
 21
31.4971831403
  0
LINE
  8
0
 62
7
  6
CONTINUOUS
 10
152.4643666972
 20
31.5939741996
 11
152.2909293626
 21
31.5294468267
  0
LINE
  8
0
 62
7
  6
CONTINUOUS
 10
152.2909293626
 20
31.400392081
 11
152.4643666972
 21
31.4649194539
  0
LINE
  8
0
 62
7
  6
CONTINUOUS
 10
151.0768668626
 20
30.8196456577
 11
150.9034292799
 21
30.7551182848
  0
LINE
  8
0
 62
7
  6
CONTINUOUS
 10
160.5003043074
 20
30.7551182848
 11
160.269054528
 21
30.7228545871
  0
LINE
  8
0
 62
7
  6
CONTINUOUS
 10
154.8924916972
 20
30.5937998301
 11
155.1815540869
 21
30.6260635193
  0
LINE
  8
0
 62
7
  6
CONTINUOUS
 10
160.269054528
 20
30.5937998301
 11
160.615929528
 21
30.6260635193
  0
LINE
  8
0
 62
7
  6
CONTINUOUS
 10
150.5565542799
 20
30.5937998301
 11
150.9612418074
 21
30.6260635193
  0
LINE
  8
0
 62
7
  6
CONTINUOUS
 10
150.9034292799
 20
30.7551182848
 11
150.498741835
 21
30.7228545871
  0
LINE
  8
0
 62
7
  6
CONTINUOUS
 10
154.7768668074
 20
31.1422825445
 11
155.412804528
 21
31.1422825445
  0
LINE
  8
0
 62
7
  6
CONTINUOUS
 10
155.412804528
 20
31.2713373354
 11
154.7768668074
 21
31.2713373354
  0
LINE
  8
0
 62
7
  6
CONTINUOUS
 10
151.1346793074
 20
31.3036010218
 11
151.4237418626
 21
31.3036010218
  0
LINE
  8
0
 62
7
  6
CONTINUOUS
 10
153.9674919177
 20
31.3681283946
 11
154.2565543074
 21
31.3681283946
  0
LINE
  8
0
 62
7
  6
CONTINUOUS
 10
160.6737418074
 20
31.3681283946
 11
160.9628038663
 21
31.3681283946
  0
LINE
  8
0
 62
7
  6
CONTINUOUS
 10
154.6612419177
 20
31.4971831403
 11
155.0081169177
 21
31.4971831403
  0
LINE
  8
0
 62
7
  6
CONTINUOUS
 10
159.8065543074
 20
31.4971831403
 11
160.1534293074
 21
31.4971831403
  0
LINE
  8
0
 62
7
  6
CONTINUOUS
 10
160.1534293074
 20
31.626237886
 11
159.8065543074
 21
31.626237886
  0
LINE
  8
0
 62
7
  6
CONTINUOUS
 10
158.0721793074
 20
31.626237886
 11
157.840929528
 21
31.626237886
  0
LINE
  8
0
 62
7
  6
CONTINUOUS
 10
157.320617028
 20
31.626237886
 11
157.0315543074
 21
31.626237886
  0
LINE
  8
0
 62
7
  6
CONTINUOUS
 10
156.5690540869
 20
31.626237886
 11
156.279992028
 21
31.626237886
  0
LINE
  8
0
 62
7
  6
CONTINUOUS
 10
155.0081169177
 20
31.626237886
 11
154.6612419177
 21
31.626237886
  0
LINE
  8
0
 62
7
  6
CONTINUOUS
 10
152.9268669177
 20
31.626237886
 11
152.6956168074
 21
31.626237886
  0
LINE
  8
0
 62
7
  6
CONTINUOUS
 10
156.279992028
 20
31.9488748406
 11
156.5690540869
 21
31.9488748406
  0
LINE
  8
0
 62
7
  6
CONTINUOUS
 10
156.5690540869
 20
32.1101932727
 11
156.279992028
 21
32.1101932727
  0
LINE
  8
0
 62
7
  6
CONTINUOUS
 10
152.1753043074
 20
32.1101932727
 11
151.8862417523
 21
32.1101932727
  0
LINE
  8
0
 62
7
  6
CONTINUOUS
 10
151.2130860697
 20
32.3970785186
 11
151.6256574183
 21
32.3970785186
  0
LINE
  8
0
 62
7
  6
CONTINUOUS
 10
152.852430332
 20
32.3970785186
 11
154.245872955
 21
32.3970785186
  0
LINE
  8
0
 62
7
  6
CONTINUOUS
 10
154.5737418074
 20
32.3970785186
 11
155.9671844304
 21
32.3970785186
  0
LINE
  8
0
 62
7
  6
CONTINUOUS
 10
157.852430332
 20
32.3970785186
 11
159.245872955
 21
32.3970785186
  0
LINE
  8
0
 62
7
  6
CONTINUOUS
 10
159.5737418074
 20
32.3970785186
 11
160.9671844304
 21
32.3970785186
  0
LINE
  8
0
 62
7
  6
CONTINUOUS
 10
157.6096790869
 20
31.5939741996
 11
157.4362415869
 21
31.5294468267
  0
LINE
  8
0
 62
7
  6
CONTINUOUS
 10
155.1815540869
 20
30.6260635193
 11
155.3549915869
 21
30.6905909007
  0
LINE
  8
0
 62
7
  6
CONTINUOUS
 10
160.615929528
 20
30.6260635193
 11
160.8471793074
 21
30.6905909007
  0
LINE
  8
0
 62
7
  6
CONTINUOUS
 10
160.615929528
 20
30.7873819712
 11
160.5003043074
 21
30.7551182848
  0
LINE
  8
0
 62
7
  6
CONTINUOUS
 10
159.575304528
 20
31.4649194539
 11
159.8065543074
 21
31.4971831403
  0
LINE
  8
0
 62
7
  6
CONTINUOUS
 10
157.6096790869
 20
31.4649194539
 11
157.840929528
 21
31.4971831403
  0
LINE
  8
0
 62
7
  6
CONTINUOUS
 10
154.5456166972
 20
31.1100188581
 11
154.7768668074
 21
31.1422825445
  0
LINE
  8
0
 62
7
  6
CONTINUOUS
 10
157.840929528
 20
31.626237886
 11
157.6096790869
 21
31.5939741996
  0
LINE
  8
0
 62
7
  6
CONTINUOUS
 10
154.4299918074
 20
31.4649194539
 11
154.6612419177
 21
31.4971831403
  0
LINE
  8
0
 62
7
  6
CONTINUOUS
 10
159.8065543074
 20
31.626237886
 11
159.4596793074
 21
31.5939741996
  0
LINE
  8
0
 62
7
  6
CONTINUOUS
 10
154.7768668074
 20
31.2713373354
 11
154.4299918074
 21
31.2390736489
  0
LINE
  8
0
 62
7
  6
CONTINUOUS
 10
150.5565542799
 20
31.626237886
 11
150.2096793212
 21
31.5939741996
  0
LINE
  8
0
 62
7
  6
CONTINUOUS
 10
154.6612419177
 20
31.626237886
 11
154.2565543074
 21
31.5939741996
  0
LINE
  8
0
 62
7
  6
CONTINUOUS
 10
152.0327582009
 20
33.5446195022
 11
151.3770204959
 21
33.5446195022
  0
LINE
  8
0
 62
7
  6
CONTINUOUS
 10
157.4362415869
 20
31.400392081
 11
157.6096790869
 21
31.4649194539
  0
LINE
  8
0
 62
7
  6
CONTINUOUS
 10
159.4596793074
 20
31.4326557675
 11
159.575304528
 21
31.4649194539
  0
LINE
  8
0
 62
7
  6
CONTINUOUS
 10
159.4596793074
 20
31.5939741996
 11
159.228429528
 21
31.5294468267
  0
LINE
  8
0
 62
7
  6
CONTINUOUS
 10
155.1815540869
 20
30.7873819712
 11
154.8924916972
 21
30.7228545871
  0
LINE
  8
0
 62
7
  6
CONTINUOUS
 10
152.4643666972
 20
31.4649194539
 11
152.6956168074
 21
31.4971831403
  0
LINE
  8
0
 62
7
  6
CONTINUOUS
 10
152.6956168074
 20
31.626237886
 11
152.4643666972
 21
31.5939741996
  0
LINE
  8
0
 62
7
  6
CONTINUOUS
 10
150.2674918074
 20
31.4649194539
 11
150.498741835
 21
31.4971831403
  0
LINE
  8
0
 62
7
  6
CONTINUOUS
 10
156.7868565615
 20
35.0200293383
 11
157.4425942664
 21
35.0200293383
  0
LINE
  8
0
 62
7
  6
CONTINUOUS
 10
154.4299918074
 20
31.0777551716
 11
154.5456166972
 21
31.1100188581
  0
LINE
  8
0
 62
7
  6
CONTINUOUS
 10
154.4299918074
 20
31.2390736489
 11
154.1987416972
 21
31.1745462761
  0
LINE
  8
0
 62
7
  6
CONTINUOUS
 10
154.3143669177
 20
31.4326557675
 11
154.4299918074
 21
31.4649194539
  0
LINE
  8
0
 62
7
  6
CONTINUOUS
 10
150.9612418074
 20
30.6260635193
 11
151.1924917523
 21
30.6905909007
  0
LINE
  8
0
 62
7
  6
CONTINUOUS
 10
154.2565543074
 20
31.5939741996
 11
154.1409294177
 21
31.5617105132
  0
LINE
  8
0
 62
7
  6
CONTINUOUS
 10
150.2096793212
 20
31.5939741996
 11
150.0362418212
 21
31.5617105132
  0
LINE
  8
0
 62
7
  6
CONTINUOUS
 10
160.9671844304
 20
36.1675703219
 11
159.5737418074
 21
36.1675703219
  0
LINE
  8
0
 62
7
  6
CONTINUOUS
 10
157.6065286927
 20
36.1675703219
 11
157.1939573441
 21
36.1675703219
  0
LINE
  8
0
 62
7
  6
CONTINUOUS
 10
155.9671844304
 20
36.1675703219
 11
154.5737418074
 21
36.1675703219
  0
LINE
  8
0
 62
7
  6
CONTINUOUS
 10
154.245872955
 20
36.1675703219
 11
152.852430332
 21
36.1675703219
  0
LINE
  8
0
 62
7
  6
CONTINUOUS
 10
150.9671844304
 20
36.1675703219
 11
149.5737418074
 21
36.1675703219
  0
LINE
  8
0
 62
7
  6
CONTINUOUS
 10
150.1518667936
 20
31.4326557675
 11
150.2674918074
 21
31.4649194539
  0
CIRCLE
  8
0
 62
7
  6
CONTINUOUS
 10
160.2704631189
 20
38.5036358957
 40
2.0901639344
  0
ARC
  8
0
 62
7
  6
CONTINUOUS
 10
151.2130860697
 20
34.0364227809
 40
1.6393442623
 50
180.0
 51
270.0
  0
ARC
  8
0
 62
7
  6
CONTINUOUS
 10
157.6065286927
 20
34.5282260596
 40
1.6393442623
 50
0.0
 51
90.0
  0
ARC
  8
0
 62
7
  6
CONTINUOUS
 10
151.6256574183
 20
33.8724883547
 40
1.4754098361
 50
270.0
 51
326.2510114041
  0
ARC
  8
0
 62
7
  6
CONTINUOUS
 10
157.1939573441
 20
34.6921604858
 40
1.4754098361
 50
90.0
 51
146.2510114041
  0
ARC
  8
0
 62
7
  6
CONTINUOUS
 10
152.0327582009
 20
34.3642916334
 40
0.8196721311
 50
270.0
 51
360.0
  0
ARC
  8
0
 62
7
  6
CONTINUOUS
 10
156.7868565615
 20
34.2003572071
 40
0.8196721311
 50
90.0
 51
180.0
  0
ARC
  8
0
 62
7
  6
CONTINUOUS
 10
151.3770204959
 20
33.9544555678
 40
0.4098360656
 50
180.0
 51
270.0
  0
ARC
  8
0
 62
7
  6
CONTINUOUS
 10
157.4425942664
 20
34.6101932727
 40
0.4098360656
 50
0.0
 51
90.0
  0
SOLID
  8
0
 62
7
  6
CONTINUOUS
 10
156.279992028
 20
31.9488752009
 11
156.279992028
 21
32.1101936845
 12
156.5690540869
 22
31.9488752009
 13
156.5690540869
 23
32.1101936845
  0
SOLID
  8
0
 62
7
  6
CONTINUOUS
 10
150.5565542799
 20
31.6262382337
 11
150.9612418074
 21
31.5939740028
 12
150.2096793212
 22
31.5939740028
 13
150.2096793212
 23
31.5939740028
  0
SOLID
  8
0
 62
7
  6
CONTINUOUS
 10
150.0362418212
 20
31.5617111435
 11
150.2096793212
 21
31.5939740028
 12
150.9612418074
 22
31.5939740028
 13
150.9612418074
 23
31.5939740028
  0
SOLID
  8
0
 62
7
  6
CONTINUOUS
 10
150.9612418074
 20
31.5939740028
 11
151.1924917523
 21
31.5294468402
 12
150.0362418212
 22
31.5617111435
 13
150.0362418212
 23
31.5617111435
  0
SOLID
  8
0
 62
7
  6
CONTINUOUS
 10
149.8628043005
 20
31.49718259
 11
150.0362418212
 21
31.5617111435
 12
151.1924917523
 22
31.5294468402
 13
151.1924917523
 23
31.5294468402
  0
SOLID
  8
0
 62
7
  6
CONTINUOUS
 10
149.8628043005
 20
31.49718259
 11
151.1924917523
 21
31.5294468402
 12
150.498741835
 22
31.49718259
 13
150.498741835
 23
31.49718259
  0
SOLID
  8
0
 62
7
  6
CONTINUOUS
 10
150.498741835
 20
31.49718259
 11
151.1924917523
 21
31.5294468402
 12
150.9034292799
 22
31.4649197501
 13
150.9034292799
 23
31.4649197501
  0
SOLID
  8
0
 62
7
  6
CONTINUOUS
 10
151.1924917523
 20
31.5294468402
 11
151.3659292523
 21
31.4326554468
 12
150.9034292799
 22
31.4649197501
 13
150.9034292799
 23
31.4649197501
  0
SOLID
  8
0
 62
7
  6
CONTINUOUS
 10
151.0768668626
 20
31.4003926599
 11
150.9034292799
 21
31.4649197501
 12
151.3659292523
 22
31.4326554468
 13
151.3659292523
 23
31.4326554468
  0
SOLID
  8
0
 62
7
  6
CONTINUOUS
 10
151.0768668626
 20
31.4003926599
 11
151.3659292523
 21
31.4326554468
 12
151.1346793074
 22
31.3036013776
 13
151.1346793074
 23
31.3036013776
  0
SOLID
  8
0
 62
7
  6
CONTINUOUS
 10
151.3659292523
 20
31.4326554468
 11
151.4237418626
 21
31.3036013776
 12
151.1346793074
 22
31.3036013776
 13
151.1346793074
 23
31.3036013776
  0
SOLID
  8
0
 62
7
  6
CONTINUOUS
 10
152.4643666972
 20
31.5939739754
 11
152.6956168074
 21
31.6262382787
 12
152.9268669177
 22
31.6262382787
 13
152.9268669177
 23
31.6262382787
  0
SOLID
  8
0
 62
7
  6
CONTINUOUS
 10
152.9268669177
 20
31.6262382787
 11
153.1003044177
 21
31.5939739754
 12
152.4643666972
 22
31.5939739754
 13
152.4643666972
 23
31.5939739754
  0
SOLID
  8
0
 62
7
  6
CONTINUOUS
 10
152.2909293626
 20
31.5294468852
 11
152.4643666972
 21
31.5939739754
 12
153.1003044177
 22
31.5939739754
 13
153.1003044177
 23
31.5939739754
  0
SOLID
  8
0
 62
7
  6
CONTINUOUS
 10
153.1003044177
 20
31.5939739754
 11
153.2737419177
 21
31.5294468852
 12
152.2909293626
 22
31.5294468852
 13
152.2909293626
 23
31.5294468852
  0
SOLID
  8
0
 62
7
  6
CONTINUOUS
 10
153.2737419177
 20
31.5294468852
 11
152.6956168074
 21
31.4971825369
 12
152.2909293626
 22
31.5294468852
 13
152.2909293626
 23
31.5294468852
  0
SOLID
  8
0
 62
7
  6
CONTINUOUS
 10
152.1753043074
 20
31.4649197951
 11
152.2909293626
 21
31.5294468852
 12
152.6956168074
 22
31.4971825369
 13
152.6956168074
 23
31.4971825369
  0
SOLID
  8
0
 62
7
  6
CONTINUOUS
 10
152.6956168074
 20
31.4971825369
 11
152.4643666972
 21
31.4649197951
 12
152.1753043074
 22
31.4649197951
 13
152.1753043074
 23
31.4649197951
  0
SOLID
  8
0
 62
7
  6
CONTINUOUS
 10
152.6956168074
 20
31.4971825369
 11
153.2737419177
 21
31.5294468852
 12
152.9268669177
 22
31.4649197951
 13
152.9268669177
 23
31.4649197951
  0
SOLID
  8
0
 62
7
  6
CONTINUOUS
 10
153.2737419177
 20
31.5294468852
 11
153.3893668074
 21
31.4649197951
 12
152.9268669177
 22
31.4649197951
 13
152.9268669177
 23
31.4649197951
  0
SOLID
  8
0
 62
7
  6
CONTINUOUS
 10
153.0424918074
 20
31.4326554468
 11
152.9268669177
 21
31.4649197951
 12
153.3893668074
 22
31.4649197951
 13
153.3893668074
 23
31.4649197951
  0
SOLID
  8
0
 62
7
  6
CONTINUOUS
 10
153.3893668074
 20
31.4649197951
 11
153.4471794177
 21
31.4003927049
 12
153.0424918074
 22
31.4326554468
 13
153.0424918074
 23
31.4326554468
  0
SOLID
  8
0
 62
7
  6
CONTINUOUS
 10
153.1581166972
 20
31.3681283566
 11
153.0424918074
 21
31.4326554468
 12
153.4471794177
 22
31.4003927049
 13
153.4471794177
 23
31.4003927049
  0
SOLID
  8
0
 62
7
  6
CONTINUOUS
 10
153.1581166972
 20
31.3681283566
 11
153.4471794177
 21
31.4003927049
 12
153.2159293074
 22
31.2390742213
 13
153.2159293074
 23
31.2390742213
  0
SOLID
  8
0
 62
7
  6
CONTINUOUS
 10
153.4471794177
 20
31.4003927049
 11
153.5049916972
 21
31.2390742213
 12
153.2159293074
 22
31.2390742213
 13
153.2159293074
 23
31.2390742213
  0
SOLID
  8
0
 62
7
  6
CONTINUOUS
 10
152.4643666972
 20
31.4649197951
 11
152.2909293626
 21
31.4003927049
 12
152.1753043074
 22
31.4649197951
 13
152.1753043074
 23
31.4649197951
  0
SOLID
  8
0
 62
7
  6
CONTINUOUS
 10
152.2909293626
 20
31.4003927049
 11
152.1753043074
 21
31.3358640533
 12
152.1753043074
 22
31.4649197951
 13
152.1753043074
 23
31.4649197951
  0
SOLID
  8
0
 62
7
  6
CONTINUOUS
 10
152.1753043074
 20
31.3358640533
 11
151.8862417523
 21
30.5938002869
 12
152.1753043074
 22
31.4649197951
 13
152.1753043074
 23
31.4649197951
  0
SOLID
  8
0
 62
7
  6
CONTINUOUS
 10
152.1753043074
 20
31.4649197951
 11
151.8862417523
 21
30.5938002869
 12
152.1753043074
 22
32.1101937295
 13
152.1753043074
 23
32.1101937295
  0
SOLID
  8
0
 62
7
  6
CONTINUOUS
 10
151.8862417523
 20
30.5938002869
 11
151.8862417523
 21
32.1101937295
 12
152.1753043074
 22
32.1101937295
 13
152.1753043074
 23
32.1101937295
  0
SOLID
  8
0
 62
7
  6
CONTINUOUS
 10
152.1753043074
 20
31.3358640533
 11
152.1753043074
 21
30.5938002869
 12
151.8862417523
 22
30.5938002869
 13
151.8862417523
 23
30.5938002869
  0
SOLID
  8
0
 62
7
  6
CONTINUOUS
 10
153.2159293074
 20
30.5938002869
 11
153.2159293074
 21
31.2390742213
 12
153.5049916972
 22
31.2390742213
 13
153.5049916972
 23
31.2390742213
  0
SOLID
  8
0
 62
7
  6
CONTINUOUS
 10
153.5049916972
 20
31.2390742213
 11
153.5049916972
 21
30.5938002869
 12
153.2159293074
 22
30.5938002869
 13
153.2159293074
 23
30.5938002869
  0
SOLID
  8
0
 62
7
  6
CONTINUOUS
 10
154.2565543074
 20
31.5939738288
 11
154.6612419177
 21
31.6262385959
 12
155.0081169177
 22
31.6262385959
 13
155.0081169177
 23
31.6262385959
  0
SOLID
  8
0
 62
7
  6
CONTINUOUS
 10
155.0081169177
 20
31.6262385959
 11
155.3549915869
 21
31.5939738288
 12
154.2565543074
 22
31.5939738288
 13
154.2565543074
 23
31.5939738288
  0
SOLID
  8
0
 62
7
  6
CONTINUOUS
 10
154.1409294177
 20
31.5617111435
 11
154.2565543074
 21
31.5939738288
 12
155.3549915869
 22
31.5939738288
 13
155.3549915869
 23
31.5939738288
  0
SOLID
  8
0
 62
7
  6
CONTINUOUS
 10
155.3549915869
 20
31.5939738288
 11
155.5284290869
 21
31.5294468402
 12
154.1409294177
 22
31.5617111435
 13
154.1409294177
 23
31.5617111435
  0
SOLID
  8
0
 62
7
  6
CONTINUOUS
 10
154.0253041972
 20
31.4971826249
 11
154.1409294177
 21
31.5617111435
 12
155.5284290869
 22
31.5294468402
 13
155.5284290869
 23
31.5294468402
  0
SOLID
  8
0
 62
7
  6
CONTINUOUS
 10
154.0253041972
 20
31.4971826249
 11
155.5284290869
 21
31.5294468402
 12
154.6612419177
 22
31.4971826249
 13
154.6612419177
 23
31.4971826249
  0
SOLID
  8
0
 62
7
  6
CONTINUOUS
 10
154.6612419177
 20
31.4971826249
 11
155.5284290869
 21
31.5294468402
 12
155.0081169177
 22
31.4971826249
 13
155.0081169177
 23
31.4971826249
  0
SOLID
  8
0
 62
7
  6
CONTINUOUS
 10
155.0081169177
 20
31.4971826249
 11
155.5284290869
 21
31.5294468402
 12
155.239367028
 22
31.4649194065
 13
155.239367028
 23
31.4649194065
  0
SOLID
  8
0
 62
7
  6
CONTINUOUS
 10
155.5284290869
 20
31.5294468402
 11
155.6440543074
 21
31.4649194065
 12
155.239367028
 22
31.4649194065
 13
155.239367028
 23
31.4649194065
  0
SOLID
  8
0
 62
7
  6
CONTINUOUS
 10
153.9674919177
 20
31.4326554138
 11
154.0253041972
 21
31.4971826249
 12
154.6612419177
 22
31.4971826249
 13
154.6612419177
 23
31.4971826249
  0
SOLID
  8
0
 62
7
  6
CONTINUOUS
 10
155.3549915869
 20
31.4326554138
 11
155.239367028
 21
31.4649194065
 12
155.6440543074
 22
31.4649194065
 13
155.6440543074
 23
31.4649194065
  0
SOLID
  8
0
 62
7
  6
CONTINUOUS
 10
155.3549915869
 20
31.4326554138
 11
155.6440543074
 21
31.4649194065
 12
155.412804528
 22
31.3681282026
 13
155.412804528
 23
31.3681282026
  0
SOLID
  8
0
 62
7
  6
CONTINUOUS
 10
155.6440543074
 20
31.4649194065
 11
155.7018665869
 21
31.3681282026
 12
155.412804528
 22
31.3681282026
 13
155.412804528
 23
31.3681282026
  0
SOLID
  8
0
 62
7
  6
CONTINUOUS
 10
155.412804528
 20
31.2713369632
 11
155.412804528
 21
31.3681282026
 12
155.7018665869
 22
31.3681282026
 13
155.7018665869
 23
31.3681282026
  0
SOLID
  8
0
 62
7
  6
CONTINUOUS
 10
155.412804528
 20
31.2713369632
 11
155.7018665869
 21
31.3681282026
 12
155.412804528
 22
31.1422827828
 13
155.412804528
 23
31.1422827828
  0
SOLID
  8
0
 62
7
  6
CONTINUOUS
 10
155.412804528
 20
31.1422827828
 11
155.7018665869
 21
31.3681282026
 12
155.412804528
 22
30.9487004259
 13
155.412804528
 23
30.9487004259
  0
SOLID
  8
0
 62
7
  6
CONTINUOUS
 10
155.7018665869
 20
31.3681282026
 11
155.7018665869
 21
30.8519086025
 12
155.412804528
 22
30.9487004259
 13
155.412804528
 23
30.9487004259
  0
SOLID
  8
0
 62
7
  6
CONTINUOUS
 10
157.6096790869
 20
31.5939736268
 11
157.840929528
 21
31.6262383465
 12
158.0721793074
 22
31.6262383465
 13
158.0721793074
 23
31.6262383465
  0
SOLID
  8
0
 62
7
  6
CONTINUOUS
 10
158.0721793074
 20
31.6262383465
 11
158.2456168074
 21
31.5939736268
 12
157.6096790869
 22
31.5939736268
 13
157.6096790869
 23
31.5939736268
  0
SOLID
  8
0
 62
7
  6
CONTINUOUS
 10
157.4362415869
 20
31.5294472848
 11
157.6096790869
 21
31.5939736268
 12
158.2456168074
 22
31.5939736268
 13
158.2456168074
 23
31.5939736268
  0
SOLID
  8
0
 62
7
  6
CONTINUOUS
 10
158.2456168074
 20
31.5939736268
 11
158.4190543074
 21
31.5294472848
 12
157.4362415869
 22
31.5294472848
 13
157.4362415869
 23
31.5294472848
  0
SOLID
  8
0
 62
7
  6
CONTINUOUS
 10
158.4190543074
 20
31.5294472848
 11
157.840929528
 21
31.4971825369
 12
157.4362415869
 22
31.5294472848
 13
157.4362415869
 23
31.5294472848
  0
SOLID
  8
0
 62
7
  6
CONTINUOUS
 10
157.320617028
 20
31.4649199103
 11
157.4362415869
 21
31.5294472848
 12
157.840929528
 22
31.4971825369
 13
157.840929528
 23
31.4971825369
  0
SOLID
  8
0
 62
7
  6
CONTINUOUS
 10
157.840929528
 20
31.4971825369
 11
157.6096790869
 21
31.4649199103
 12
157.320617028
 22
31.4649199103
 13
157.320617028
 23
31.4649199103
  0
SOLID
  8
0
 62
7
  6
CONTINUOUS
 10
157.840929528
 20
31.4971825369
 11
158.4190543074
 21
31.5294472848
 12
158.0721793074
 22
31.4649199103
 13
158.0721793074
 23
31.4649199103
  0
SOLID
  8
0
 62
7
  6
CONTINUOUS
 10
158.4190543074
 20
31.5294472848
 11
158.534679528
 21
31.4649199103
 12
158.0721793074
 22
31.4649199103
 13
158.0721793074
 23
31.4649199103
  0
SOLID
  8
0
 62
7
  6
CONTINUOUS
 10
158.187804528
 20
31.4326554468
 11
158.0721793074
 21
31.4649199103
 12
158.534679528
 22
31.4649199103
 13
158.534679528
 23
31.4649199103
  0
SOLID
  8
0
 62
7
  6
CONTINUOUS
 10
158.187804528
 20
31.4326554468
 11
158.534679528
 21
31.4649199103
 12
158.3034290869
 22
31.3681288486
 13
158.3034290869
 23
31.3681288486
  0
SOLID
  8
0
 62
7
  6
CONTINUOUS
 10
158.534679528
 20
31.4649199103
 11
158.5924918074
 21
31.3681288486
 12
158.3034290869
 22
31.3681288486
 13
158.3034290869
 23
31.3681288486
  0
SOLID
  8
0
 62
7
  6
CONTINUOUS
 10
158.361242028
 20
31.2068093799
 11
158.3034290869
 21
31.3681288486
 12
158.5924918074
 22
31.3681288486
 13
158.5924918074
 23
31.3681288486
  0
SOLID
  8
0
 62
7
  6
CONTINUOUS
 10
158.5924918074
 20
31.3681288486
 11
158.6503040869
 21
31.2068093799
 12
158.361242028
 22
31.2068093799
 13
158.361242028
 23
31.2068093799
  0
SOLID
  8
0
 62
7
  6
CONTINUOUS
 10
157.6096790869
 20
31.4649199103
 11
157.4362415869
 21
31.4003926599
 12
157.320617028
 22
31.4649199103
 13
157.320617028
 23
31.4649199103
  0
SOLID
  8
0
 62
7
  6
CONTINUOUS
 10
157.4362415869
 20
31.4003926599
 11
157.320617028
 21
31.3358640533
 12
157.320617028
 22
31.4649199103
 13
157.320617028
 23
31.4649199103
  0
SOLID
  8
0
 62
7
  6
CONTINUOUS
 10
157.320617028
 20
31.3358640533
 11
157.0315543074
 21
30.5938003547
 12
157.320617028
 22
31.4649199103
 13
157.320617028
 23
31.4649199103
  0
SOLID
  8
0
 62
7
  6
CONTINUOUS
 10
157.320617028
 20
31.4649199103
 11
157.0315543074
 21
30.5938003547
 12
157.320617028
 22
31.6262383465
 13
157.320617028
 23
31.6262383465
  0
SOLID
  8
0
 62
7
  6
CONTINUOUS
 10
157.0315543074
 20
30.5938003547
 11
157.0315543074
 21
31.6262383465
 12
157.320617028
 22
31.6262383465
 13
157.320617028
 23
31.6262383465
  0
SOLID
  8
0
 62
7
  6
CONTINUOUS
 10
157.320617028
 20
31.3358640533
 11
157.320617028
 21
30.5938003547
 12
157.0315543074
 22
30.5938003547
 13
157.0315543074
 23
30.5938003547
  0
SOLID
  8
0
 62
7
  6
CONTINUOUS
 10
158.361242028
 20
30.5938003547
 11
158.361242028
 21
31.2068093799
 12
158.6503040869
 22
31.2068093799
 13
158.6503040869
 23
31.2068093799
  0
SOLID
  8
0
 62
7
  6
CONTINUOUS
 10
158.6503040869
 20
31.2068093799
 11
158.6503040869
 21
30.5938003547
 12
158.361242028
 22
30.5938003547
 13
158.361242028
 23
30.5938003547
  0
SOLID
  8
0
 62
7
  6
CONTINUOUS
 10
159.4596793074
 20
31.5939739474
 11
159.8065543074
 21
31.6262381969
 12
160.1534293074
 22
31.6262381969
 13
160.1534293074
 23
31.6262381969
  0
SOLID
  8
0
 62
7
  6
CONTINUOUS
 10
160.1534293074
 20
31.6262381969
 11
160.5003043074
 21
31.5939739474
 12
159.4596793074
 22
31.5939739474
 13
159.4596793074
 23
31.5939739474
  0
SOLID
  8
0
 62
7
  6
CONTINUOUS
 10
159.228429528
 20
31.5294468402
 11
159.4596793074
 21
31.5939739474
 12
160.5003043074
 22
31.5939739474
 13
160.5003043074
 23
31.5939739474
  0
SOLID
  8
0
 62
7
  6
CONTINUOUS
 10
159.228429528
 20
31.5294468402
 11
160.5003043074
 21
31.5939739304
 12
160.6737418074
 22
31.5617111435
 13
160.6737418074
 23
31.5617111435
  0
SOLID
  8
0
 62
7
  6
CONTINUOUS
 10
159.228429528
 20
31.5294468402
 11
160.6737418074
 21
31.5617111435
 12
159.8065543074
 22
31.4971825592
 13
159.8065543074
 23
31.4971825592
  0
SOLID
  8
0
 62
7
  6
CONTINUOUS
 10
159.8065543074
 20
31.4971825592
 11
160.6737418074
 21
31.5617111435
 12
160.1534293074
 22
31.4971825592
 13
160.1534293074
 23
31.4971825592
  0
SOLID
  8
0
 62
7
  6
CONTINUOUS
 10
160.6737418074
 20
31.5617111435
 11
160.8471793074
 21
31.4971825592
 12
160.1534293074
 22
31.4971825592
 13
160.1534293074
 23
31.4971825592
  0
SOLID
  8
0
 62
7
  6
CONTINUOUS
 10
160.5003043074
 20
31.4649197501
 11
160.1534293074
 21
31.4971825592
 12
160.8471793074
 22
31.4971825592
 13
160.8471793074
 23
31.4971825592
  0
SOLID
  8
0
 62
7
  6
CONTINUOUS
 10
159.1128043074
 20
31.4326555427
 11
159.228429528
 21
31.5294468402
 12
159.8065543074
 22
31.4971825592
 13
159.8065543074
 23
31.4971825592
  0
SOLID
  8
0
 62
7
  6
CONTINUOUS
 10
160.5003043074
 20
31.4649197501
 11
160.8471793074
 21
31.4971825592
 12
160.615929528
 22
31.4326555427
 13
160.615929528
 23
31.4326555427
  0
SOLID
  8
0
 62
7
  6
CONTINUOUS
 10
160.615929528
 20
31.4326555427
 11
160.8471793074
 21
31.4971825592
 12
160.6737418074
 22
31.3681283005
 13
160.6737418074
 23
31.3681283005
  0
SOLID
  8
0
 62
7
  6
CONTINUOUS
 10
160.8471793074
 20
31.4971825592
 11
160.9628038663
 21
31.3681283005
 12
160.6737418074
 22
31.3681283005
 13
160.6737418074
 23
31.3681283005
  0
SOLID
  8
0
 62
7
  6
CONTINUOUS
 10
150.2674918074
 20
31.4649197501
 11
149.7471793074
 21
31.4326554237
 12
150.498741835
 22
31.4971824493
 13
150.498741835
 23
31.4971824493
  0
SOLID
  8
0
 62
7
  6
CONTINUOUS
 10
149.7471793074
 20
31.4326554237
 11
149.8628043005
 21
31.4971824493
 12
150.498741835
 22
31.4971824493
 13
150.498741835
 23
31.4971824493
  0
SOLID
  8
0
 62
7
  6
CONTINUOUS
 10
150.2674918074
 20
31.4649197501
 11
150.1518667936
 21
31.4326554237
 12
149.7471793074
 22
31.4326554237
 13
149.7471793074
 23
31.4326554237
  0
SOLID
  8
0
 62
7
  6
CONTINUOUS
 10
149.6315543091
 20
31.3036012664
 11
149.7471793074
 21
31.4326554237
 12
150.1518667936
 22
31.4326554237
 13
150.1518667936
 23
31.4326554237
  0
SOLID
  8
0
 62
7
  6
CONTINUOUS
 10
153.9674919177
 20
31.4326554237
 11
154.6612419177
 21
31.4971825369
 12
154.4299918074
 22
31.4649197501
 13
154.4299918074
 23
31.4649197501
  0
SOLID
  8
0
 62
7
  6
CONTINUOUS
 10
154.4299918074
 20
31.4649197501
 11
154.3143669177
 21
31.4326554237
 12
153.9674919177
 22
31.4326554237
 13
153.9674919177
 23
31.4326554237
  0
SOLID
  8
0
 62
7
  6
CONTINUOUS
 10
153.9674919177
 20
31.3681283335
 11
153.9674919177
 21
31.4326554237
 12
154.3143669177
 22
31.4326554237
 13
154.3143669177
 23
31.4326554237
  0
SOLID
  8
0
 62
7
  6
CONTINUOUS
 10
154.3143669177
 20
31.4326554237
 11
154.2565543074
 21
31.3681283335
 12
153.9674919177
 22
31.3681283335
 13
153.9674919177
 23
31.3681283335
  0
SOLID
  8
0
 62
7
  6
CONTINUOUS
 10
159.1128043074
 20
31.4326555528
 11
159.8065543074
 21
31.4971825369
 12
159.575304528
 22
31.4649197501
 13
159.575304528
 23
31.4649197501
  0
SOLID
  8
0
 62
7
  6
CONTINUOUS
 10
159.575304528
 20
31.4649197501
 11
159.4596793074
 21
31.4326555528
 12
159.1128043074
 22
31.4326555528
 13
159.1128043074
 23
31.4326555528
  0
SOLID
  8
0
 62
7
  6
CONTINUOUS
 10
159.1128043074
 20
31.3681284626
 11
159.1128043074
 21
31.4326555528
 12
159.4596793074
 22
31.4326555528
 13
159.4596793074
 23
31.4326555528
  0
SOLID
  8
0
 62
7
  6
CONTINUOUS
 10
159.4596793074
 20
31.4326555528
 11
159.401867028
 21
31.3681284626
 12
159.1128043074
 22
31.3681284626
 13
159.1128043074
 23
31.3681284626
  0
SOLID
  8
0
 62
7
  6
CONTINUOUS
 10
159.228429528
 20
31.2390741763
 11
159.1128043074
 21
31.3681284626
 12
159.401867028
 22
31.3681284626
 13
159.401867028
 23
31.3681284626
  0
SOLID
  8
0
 62
7
  6
CONTINUOUS
 10
149.6315543091
 20
31.3036012664
 11
150.1518667936
 21
31.4326554468
 12
149.9784292936
 22
31.3358640533
 13
149.9784292936
 23
31.3358640533
  0
SOLID
  8
0
 62
7
  6
CONTINUOUS
 10
149.9784292936
 20
31.3358640533
 11
149.9206168074
 21
31.2713369632
 12
149.6315543091
 22
31.3036012664
 13
149.6315543091
 23
31.3036012664
  0
SOLID
  8
0
 62
7
  6
CONTINUOUS
 10
149.5737418074
 20
31.1100184796
 11
149.6315543091
 21
31.3036012664
 12
149.9206168074
 22
31.2713369632
 13
149.9206168074
 23
31.2713369632
  0
SOLID
  8
0
 62
7
  6
CONTINUOUS
 10
154.4299918074
 20
31.2390741763
 11
154.7768668074
 21
31.271336924
 12
155.412804528
 22
31.271336924
 13
155.412804528
 23
31.271336924
  0
SOLID
  8
0
 62
7
  6
CONTINUOUS
 10
154.4299918074
 20
31.2390741763
 11
155.412804528
 21
31.271336924
 12
154.1987416972
 22
31.1745462761
 13
154.1987416972
 23
31.1745462761
  0
SOLID
  8
0
 62
7
  6
CONTINUOUS
 10
154.1987416972
 20
31.1745462761
 11
155.412804528
 21
31.271336924
 12
154.7768668074
 22
31.1422827436
 13
154.7768668074
 23
31.1422827436
  0
SOLID
  8
0
 62
7
  6
CONTINUOUS
 10
155.412804528
 20
31.271336924
 11
155.412804528
 21
31.1422827436
 12
154.7768668074
 22
31.1422827436
 13
154.7768668074
 23
31.1422827436
  0
SOLID
  8
0
 62
7
  6
CONTINUOUS
 10
159.228429528
 20
31.2390745501
 11
159.401867028
 21
31.3681283566
 12
159.4596793074
 22
31.3036012664
 13
159.4596793074
 23
31.3036012664
  0
SOLID
  8
0
 62
7
  6
CONTINUOUS
 10
159.4596793074
 20
31.3036012664
 11
159.6331168074
 21
31.2390745501
 12
159.228429528
 22
31.2390745501
 13
159.228429528
 23
31.2390745501
  0
SOLID
  8
0
 62
7
  6
CONTINUOUS
 10
159.4596793074
 20
31.1422827828
 11
159.228429528
 21
31.2390745501
 12
159.6331168074
 22
31.2390745501
 13
159.6331168074
 23
31.2390745501
  0
SOLID
  8
0
 62
7
  6
CONTINUOUS
 10
159.6331168074
 20
31.2390745501
 11
160.615929528
 21
31.0777556927
 12
159.4596793074
 22
31.1422827828
 13
159.4596793074
 23
31.1422827828
  0
SOLID
  8
0
 62
7
  6
CONTINUOUS
 10
160.442492028
 20
30.9809646623
 11
159.4596793074
 21
31.1422827828
 12
160.615929528
 22
31.0777556927
 13
160.615929528
 23
31.0777556927
  0
SOLID
  8
0
 62
7
  6
CONTINUOUS
 10
160.615929528
 20
31.0777556927
 11
160.8471793074
 21
30.9809646623
 12
160.442492028
 22
30.9809646623
 13
160.442492028
 23
30.9809646623
  0
SOLID
  8
0
 62
7
  6
CONTINUOUS
 10
160.615929528
 20
30.9164372091
 11
160.442492028
 21
30.9809646623
 12
160.8471793074
 22
30.9809646623
 13
160.8471793074
 23
30.9809646623
  0
SOLID
  8
0
 62
7
  6
CONTINUOUS
 10
160.615929528
 20
30.9164372091
 11
160.8471793074
 21
30.9809646623
 12
160.6737418074
 22
30.8519089441
 13
160.6737418074
 23
30.8519089441
  0
SOLID
  8
0
 62
7
  6
CONTINUOUS
 10
160.8471793074
 20
30.9809646623
 11
160.9628038663
 21
30.8519089441
 12
160.6737418074
 22
30.8519089441
 13
160.6737418074
 23
30.8519089441
  0
SOLID
  8
0
 62
7
  6
CONTINUOUS
 10
160.615929528
 20
30.7873818593
 11
160.6737418074
 21
30.8519089441
 12
160.9628038663
 22
30.8519089441
 13
160.9628038663
 23
30.8519089441
  0
SOLID
  8
0
 62
7
  6
CONTINUOUS
 10
160.9628038663
 20
30.8519089441
 11
160.9628038663
 21
30.7873818593
 12
160.615929528
 22
30.7873818593
 13
160.615929528
 23
30.7873818593
  0
SOLID
  8
0
 62
7
  6
CONTINUOUS
 10
160.5003043074
 20
30.7551187255
 11
160.615929528
 21
30.7873818593
 12
160.9628038663
 22
30.7873818593
 13
160.9628038663
 23
30.7873818593
  0
SOLID
  8
0
 62
7
  6
CONTINUOUS
 10
160.5003043074
 20
30.7551187255
 11
160.9628038663
 21
30.7873818593
 12
160.269054528
 22
30.7228547745
 13
160.269054528
 23
30.7228547745
  0
SOLID
  8
0
 62
7
  6
CONTINUOUS
 10
160.9628038663
 20
30.7873818593
 11
160.8471793074
 21
30.6905916353
 12
160.269054528
 22
30.7228547745
 13
160.269054528
 23
30.7228547745
  0
SOLID
  8
0
 62
7
  6
CONTINUOUS
 10
160.8471793074
 20
30.6905916353
 11
159.401867028
 21
30.658327332
 12
160.269054528
 22
30.7228547745
 13
160.269054528
 23
30.7228547745
  0
SOLID
  8
0
 62
7
  6
CONTINUOUS
 10
160.269054528
 20
30.7228547745
 11
159.401867028
 21
30.658327332
 12
159.922179528
 22
30.7228547745
 13
159.922179528
 23
30.7228547745
  0
SOLID
  8
0
 62
7
  6
CONTINUOUS
 10
159.401867028
 20
30.658327332
 11
159.228429528
 21
30.7228547745
 12
159.922179528
 22
30.7228547745
 13
159.922179528
 23
30.7228547745
  0
SOLID
  8
0
 62
7
  6
CONTINUOUS
 10
159.401867028
 20
30.658327332
 11
160.8471793074
 21
30.6905916353
 12
159.575304528
 22
30.6260629858
 13
159.575304528
 23
30.6260629858
  0
SOLID
  8
0
 62
7
  6
CONTINUOUS
 10
160.8471793074
 20
30.6905916353
 11
160.615929528
 21
30.6260629858
 12
159.575304528
 22
30.6260629858
 13
159.575304528
 23
30.6260629858
  0
SOLID
  8
0
 62
7
  6
CONTINUOUS
 10
159.922179528
 20
30.5938006049
 11
159.575304528
 21
30.6260629858
 12
160.615929528
 22
30.6260629858
 13
160.615929528
 23
30.6260629858
  0
SOLID
  8
0
 62
7
  6
CONTINUOUS
 10
160.615929528
 20
30.6260629858
 11
160.269054528
 21
30.5938006049
 12
159.922179528
 22
30.5938006049
 13
159.922179528
 23
30.5938006049
  0
SOLID
  8
0
 62
7
  6
CONTINUOUS
 10
149.5737418074
 20
31.1100184796
 11
149.9206168074
 21
31.2713369632
 12
149.8628043005
 22
31.1422827828
 13
149.8628043005
 23
31.1422827828
  0
SOLID
  8
0
 62
7
  6
CONTINUOUS
 10
149.8628043005
 20
31.1422827828
 11
149.8628043005
 21
31.0454914852
 12
149.5737418074
 22
31.1100184796
 13
149.5737418074
 23
31.1100184796
  0
SOLID
  8
0
 62
7
  6
CONTINUOUS
 10
149.6315543091
 20
30.9164372091
 11
149.5737418074
 21
31.1100184796
 12
149.8628043005
 22
31.0454914852
 13
149.8628043005
 23
31.0454914852
  0
SOLID
  8
0
 62
7
  6
CONTINUOUS
 10
149.8628043005
 20
31.0454914852
 11
149.9784292936
 21
30.8841729058
 12
149.6315543091
 22
30.9164372091
 13
149.6315543091
 23
30.9164372091
  0
SOLID
  8
0
 62
7
  6
CONTINUOUS
 10
149.7471793074
 20
30.7873813202
 11
149.6315543091
 21
30.9164372091
 12
149.9784292936
 22
30.8841729058
 13
149.9784292936
 23
30.8841729058
  0
SOLID
  8
0
 62
7
  6
CONTINUOUS
 10
149.9784292936
 20
30.8841729058
 11
150.1518667936
 21
30.7873813202
 12
149.7471793074
 22
30.7873813202
 13
149.7471793074
 23
30.7873813202
  0
SOLID
  8
0
 62
7
  6
CONTINUOUS
 10
149.8628043005
 20
30.7228547004
 11
149.7471793074
 21
30.7873813202
 12
150.1518667936
 22
30.7873813202
 13
150.1518667936
 23
30.7873813202
  0
SOLID
  8
0
 62
7
  6
CONTINUOUS
 10
150.1518667936
 20
30.7873813202
 11
150.498741835
 21
30.7228547004
 12
149.8628043005
 22
30.7228547004
 13
149.8628043005
 23
30.7228547004
  0
SOLID
  8
0
 62
7
  6
CONTINUOUS
 10
150.0362418212
 20
30.658327332
 11
149.8628043005
 21
30.7228547004
 12
150.498741835
 22
30.7228547004
 13
150.498741835
 23
30.7228547004
  0
SOLID
  8
0
 62
7
  6
CONTINUOUS
 10
154.0831168074
 20
31.1100184386
 11
154.1987416972
 21
31.1745462761
 12
154.7768668074
 22
31.1422827828
 13
154.7768668074
 23
31.1422827828
  0
SOLID
  8
0
 62
7
  6
CONTINUOUS
 10
154.7768668074
 20
31.1422827828
 11
154.5456166972
 21
31.1100184386
 12
154.0831168074
 22
31.1100184386
 13
154.0831168074
 23
31.1100184386
  0
SOLID
  8
0
 62
7
  6
CONTINUOUS
 10
153.9674919177
 20
30.9809642992
 11
154.0831168074
 21
31.1100184386
 12
154.5456166972
 22
31.1100184386
 13
154.5456166972
 23
31.1100184386
  0
SOLID
  8
0
 62
7
  6
CONTINUOUS
 10
154.3143669177
 20
31.0132277988
 11
153.9674919177
 21
30.9809642992
 12
154.4299918074
 22
31.0777556927
 13
154.4299918074
 23
31.0777556927
  0
SOLID
  8
0
 62
7
  6
CONTINUOUS
 10
153.9674919177
 20
30.9809642992
 11
154.5456166972
 21
31.1100184796
 12
154.4299918074
 22
31.0777556927
 13
154.4299918074
 23
31.0777556927
  0
SOLID
  8
0
 62
7
  6
CONTINUOUS
 10
154.3143669177
 20
31.0132277988
 11
154.2565543074
 21
30.9164372091
 12
153.9674919177
 22
30.9809642992
 13
153.9674919177
 23
30.9809642992
  0
SOLID
  8
0
 62
7
  6
CONTINUOUS
 10
153.9674919177
 20
30.8841729058
 11
153.9674919177
 21
30.9809642992
 12
154.2565543074
 22
30.9164372091
 13
154.2565543074
 23
30.9164372091
  0
SOLID
  8
0
 62
7
  6
CONTINUOUS
 10
154.2565543074
 20
30.9164372091
 11
154.2565543074
 21
30.8519086025
 12
153.9674919177
 22
30.8841729058
 13
153.9674919177
 23
30.8841729058
  0
SOLID
  8
0
 62
7
  6
CONTINUOUS
 10
154.0253041972
 20
30.7551187255
 11
153.9674919177
 21
30.8841729058
 12
154.2565543074
 22
30.8519086025
 13
154.2565543074
 23
30.8519086025
  0
SOLID
  8
0
 62
7
  6
CONTINUOUS
 10
155.412804528
 20
30.9487004259
 11
155.7018665869
 21
30.8519086025
 12
155.3549915869
 22
30.8841729058
 13
155.3549915869
 23
30.8841729058
  0
SOLID
  8
0
 62
7
  6
CONTINUOUS
 10
155.1815540869
 20
30.7873815123
 11
155.3549915869
 21
30.8841729058
 12
155.7018665869
 22
30.8519086025
 13
155.7018665869
 23
30.8519086025
  0
SOLID
  8
0
 62
7
  6
CONTINUOUS
 10
155.1815540869
 20
30.7873815123
 11
155.7018665869
 21
30.8519086025
 12
155.412804528
 22
30.7551187255
 13
155.412804528
 23
30.7551187255
  0
SOLID
  8
0
 62
7
  6
CONTINUOUS
 10
155.7018665869
 20
30.8519086025
 11
155.759679528
 21
30.6905916353
 12
155.412804528
 22
30.7551187255
 13
155.412804528
 23
30.7551187255
  0
SOLID
  8
0
 62
7
  6
CONTINUOUS
 10
155.4706168074
 20
30.658327332
 11
155.412804528
 21
30.7551187255
 12
155.759679528
 22
30.6905916353
 13
155.759679528
 23
30.6905916353
  0
SOLID
  8
0
 62
7
  6
CONTINUOUS
 10
155.4706168074
 20
30.658327332
 11
155.759679528
 21
30.6905916353
 12
155.5284290869
 22
30.5938002079
 13
155.5284290869
 23
30.5938002079
  0
SOLID
  8
0
 62
7
  6
CONTINUOUS
 10
155.759679528
 20
30.6905916353
 11
155.8174918074
 21
30.5938002079
 12
155.5284290869
 22
30.5938002079
 13
155.5284290869
 23
30.5938002079
  0
SOLID
  8
0
 62
7
  6
CONTINUOUS
 10
151.0768668626
 20
30.8196456577
 11
151.1346793074
 21
30.9164373395
 12
151.4237418626
 22
30.9164373395
 13
151.4237418626
 23
30.9164373395
  0
SOLID
  8
0
 62
7
  6
CONTINUOUS
 10
151.4237418626
 20
30.9164373395
 11
151.3659292523
 21
30.7873815123
 12
151.0768668626
 22
30.8196456577
 13
151.0768668626
 23
30.8196456577
  0
SOLID
  8
0
 62
7
  6
CONTINUOUS
 10
150.9034292799
 20
30.7551187255
 11
151.0768668626
 21
30.8196456577
 12
151.3659292523
 22
30.7873815123
 13
151.3659292523
 23
30.7873815123
  0
SOLID
  8
0
 62
7
  6
CONTINUOUS
 10
150.9034292799
 20
30.7551187255
 11
151.3659292523
 21
30.7873815123
 12
150.498741835
 22
30.7228544222
 13
150.498741835
 23
30.7228544222
  0
SOLID
  8
0
 62
7
  6
CONTINUOUS
 10
151.3659292523
 20
30.7873815123
 11
151.1924917523
 21
30.6905916353
 12
150.498741835
 22
30.7228544222
 13
150.498741835
 23
30.7228544222
  0
SOLID
  8
0
 62
7
  6
CONTINUOUS
 10
150.0362418212
 20
30.658327332
 11
150.498741835
 21
30.7228544222
 12
151.1924917523
 22
30.6905916353
 13
151.1924917523
 23
30.6905916353
  0
SOLID
  8
0
 62
7
  6
CONTINUOUS
 10
150.0362418212
 20
30.658327332
 11
151.1924917523
 21
30.6905916353
 12
150.2096793212
 22
30.6260631011
 13
150.2096793212
 23
30.6260631011
  0
SOLID
  8
0
 62
7
  6
CONTINUOUS
 10
151.1924917523
 20
30.6905916353
 11
150.9612418074
 21
30.6260631011
 12
150.2096793212
 22
30.6260631011
 13
150.2096793212
 23
30.6260631011
  0
SOLID
  8
0
 62
7
  6
CONTINUOUS
 10
150.5565542799
 20
30.5938002419
 11
150.2096793212
 21
30.6260631011
 12
150.9612418074
 22
30.6260631011
 13
150.9612418074
 23
30.6260631011
  0
SOLID
  8
0
 62
7
  6
CONTINUOUS
 10
154.0253041972
 20
30.7551187255
 11
154.2565543074
 21
30.8519086025
 12
154.3143669177
 22
30.7873815123
 13
154.3143669177
 23
30.7873815123
  0
SOLID
  8
0
 62
7
  6
CONTINUOUS
 10
154.3143669177
 20
30.7873815123
 11
154.5456166972
 21
30.7228544222
 12
154.0253041972
 22
30.7551187255
 13
154.0253041972
 23
30.7551187255
  0
SOLID
  8
0
 62
7
  6
CONTINUOUS
 10
154.1987416972
 20
30.658327332
 11
154.0253041972
 21
30.7551187255
 12
154.5456166972
 22
30.7228544222
 13
154.5456166972
 23
30.7228544222
  0
SOLID
  8
0
 62
7
  6
CONTINUOUS
 10
154.8924916972
 20
30.7228544637
 11
155.1815540869
 21
30.7873815123
 12
155.412804528
 22
30.7551187255
 13
155.412804528
 23
30.7551187255
  0
SOLID
  8
0
 62
7
  6
CONTINUOUS
 10
155.412804528
 20
30.7551187255
 11
155.3549915869
 21
30.6905916353
 12
154.8924916972
 22
30.7228544637
 13
154.8924916972
 23
30.7228544637
  0
SOLID
  8
0
 62
7
  6
CONTINUOUS
 10
155.3549915869
 20
30.6905916353
 11
154.1987416972
 21
30.658327332
 12
154.8924916972
 22
30.7228544637
 13
154.8924916972
 23
30.7228544637
  0
SOLID
  8
0
 62
7
  6
CONTINUOUS
 10
154.1987416972
 20
30.658327332
 11
154.5456166972
 21
30.7228544637
 12
154.8924916972
 22
30.7228544637
 13
154.8924916972
 23
30.7228544637
  0
SOLID
  8
0
 62
7
  6
CONTINUOUS
 10
154.1987416972
 20
30.658327332
 11
155.3549915869
 21
30.6905916353
 12
154.3143669177
 22
30.6260630541
 13
154.3143669177
 23
30.6260630541
  0
SOLID
  8
0
 62
7
  6
CONTINUOUS
 10
155.3549915869
 20
30.6905916353
 11
155.1815540869
 21
30.6260630541
 12
154.3143669177
 22
30.6260630541
 13
154.3143669177
 23
30.6260630541
  0
SOLID
  8
0
 62
7
  6
CONTINUOUS
 10
154.5456166972
 20
30.5938002188
 11
154.3143669177
 21
30.6260630541
 12
155.1815540869
 22
30.6260630541
 13
155.1815540869
 23
30.6260630541
  0
SOLID
  8
0
 62
7
  6
CONTINUOUS
 10
155.1815540869
 20
30.6260630541
 11
154.8924916972
 21
30.5938002188
 12
154.5456166972
 22
30.5938002188
 13
154.5456166972
 23
30.5938002188
  0
SOLID
  8
0
 62
7
  6
CONTINUOUS
 10
159.575304528
 20
30.7551187255
 11
159.228429528
 21
30.7228544637
 12
159.4596793074
 22
30.7873815123
 13
159.4596793074
 23
30.7873815123
  0
SOLID
  8
0
 62
7
  6
CONTINUOUS
 10
159.4596793074
 20
30.7873815123
 11
159.228429528
 21
30.7228544637
 12
159.401867028
 22
30.851908644
 13
159.401867028
 23
30.851908644
  0
SOLID
  8
0
 62
7
  6
CONTINUOUS
 10
159.228429528
 20
30.7228544637
 11
159.1128043074
 21
30.851908644
 12
159.401867028
 22
30.851908644
 13
159.401867028
 23
30.851908644
  0
SOLID
  8
0
 62
7
  6
CONTINUOUS
 10
159.575304528
 20
30.7551187255
 11
159.922179528
 21
30.7228544637
 12
159.228429528
 22
30.7228544637
 13
159.228429528
 23
30.7228544637
  0
SOLID
  8
0
 62
7
  6
CONTINUOUS
 10
156.279992028
 20
30.5938002419
 11
156.279992028
 21
31.6262382337
 12
156.5690540869
 22
30.5938002419
 13
156.5690540869
 23
31.6262382337
  0
ENDBLK
  8
0
  6
BYBLOCK
 62
0
  0
BLOCK
  8
0
 62
2
  6
CONTINUOUS
  2
AMMEAAL_LOGO_BL0
 70
64
 10
32.1213064866
 20
19.8534310916
  0
TEXT
  8
0
 62
7
  6
CONTINUOUS
 10
18.3860103289
 20
19.2268451992
  7
TEXTSTYLE_3
 40
2.7338706658
  1
Ammeraal Beltech
 41
1.0
 51
15.0
 72
0
  0
TEXT
  8
0
 62
7
  6
CONTINUOUS
 10
29.1868111546
 20
16.9533085264
  7
TEXTSTYLE_4
 40
1.0935482663
  1
Innovation & Service in Belting
 41
1.0
 72
0
  0
LINE
  8
0
 62
7
  6
CONTINUOUS
 10
12.3614696776
 20
19.9934385078
 11
13.1396216709
 21
23.6543558055
  0
LINE
  8
0
 62
7
  6
CONTINUOUS
 10
23.2347899607
 20
27.3177497171
 11
13.6274394139
 21
24.1961322958
  0
LINE
  8
0
 62
7
  6
CONTINUOUS
 10
12.5867530099
 20
19.3000877048
 11
20.093828271
 21
12.5406867788
  0
LINE
  8
0
 62
7
  6
CONTINUOUS
 10
12.8492874206
 20
20.5352149982
 11
23.6575567857
 21
24.0470345971
  0
LINE
  8
0
 62
7
  6
CONTINUOUS
 10
23.6533516486
 20
13.6972460334
 11
15.2078919798
 21
21.3015720751
  0
LINE
  8
0
 62
7
  6
CONTINUOUS
 10
24.1731743684
 20
26.4728246013
 11
23.1966148312
 21
21.8784731989
  0
LINE
  8
0
 62
7
  6
CONTINUOUS
 10
22.4968128835
 20
18.5861638851
 11
21.810364672
 21
15.3566789607
  0
LINE
  8
0
 62
7
  6
CONTINUOUS
 10
24.8542704669
 20
14.087448211
 11
25.8105020025
 21
18.5861638851
  0
LINE
  8
0
 62
7
  6
CONTINUOUS
 10
26.5103039502
 20
21.8784731989
 11
26.9545457526
 21
23.9684665583
  0
LINE
  8
0
 62
7
  6
CONTINUOUS
 10
20.8069293463
 20
12.3891124661
 11
24.3664527239
 21
13.5456717207
  0
LINE
  8
0
 62
7
  6
CONTINUOUS
 10
23.9478910361
 20
27.1661754044
 11
26.7292624203
 21
24.6618173613
  0
ARC
  8
0
 62
7
  6
CONTINUOUS
 10
13.8527227462
 20
23.5027814928
 40
0.7290321776
 50
108.0
 51
168.0
  0
ARC
  8
0
 62
7
  6
CONTINUOUS
 10
23.4600732931
 20
26.624398914
 40
0.7290321776
 50
348.0
 51
108.0
  0
ARC
  8
0
 62
7
  6
CONTINUOUS
 10
26.2414446773
 20
24.120040871
 40
0.7290321776
 50
348.0
 51
48.0
  0
ARC
  8
0
 62
7
  6
CONTINUOUS
 10
20.581646014
 20
13.0824632691
 40
0.7290321776
 50
228.0
 51
288.0
  0
ARC
  8
0
 62
7
  6
CONTINUOUS
 10
13.0745707529
 20
19.8418641951
 40
0.7290321776
 50
108.0
 51
228.0
  0
ARC
  8
0
 62
7
  6
CONTINUOUS
 10
24.1411693916
 20
14.2390225237
 40
0.7290321776
 50
228.0
 51
348.0
  0
ENDBLK
  8
0
  6
BYBLOCK
 62
0
  0
ENDSEC
  0
SECTION
  2
ENTITIES
  0
TEXT
  8
0
 62
5
  6
CONTINUOUS
 10
96.0
 20
25.636
  7
TEXTSTYLE_2
 40
2.8
  1
Scale :
 41
0.6
 51
0.000019
 72
0
  0
TEXT
  8
0
 62
5
  6
CONTINUOUS
 10
116.0
 20
25.636
  7
TEXTSTYLE_2
 40
2.8
  1
Belt type:
 41
0.6
 51
0.000019
 72
0
  0
INSERT
  8
0
 62
2
  6
CONTINUOUS
  2
AMMEAAL_LOGO_BL0
 10
32.1213064866
 20
19.8534310916
  0
INSERT
  8
0
 62
2
  6
CONTINUOUS
  2
UNI_LOGO2_BL1
 10
173.5956734183
 20
35.5937998301
  0
LINE
  8
0
 62
2
  6
CONTINUOUS
 10
10.0
 20
30.0
 11
200.0
 21
30.0
  0
LINE
  8
0
 62
2
  6
CONTINUOUS
 10
10.0
 20
30.0
 11
10.0
 21
10.0
  0
LINE
  8
0
 62
2
  6
CONTINUOUS
 10
10.0
 20
10.0
 11
200.0
 21
10.0
  0
LINE
  8
0
 62
2
  6
CONTINUOUS
 10
95.0
 20
30.0
 11
95.0
 21
10.0
  0
LINE
  8
0
 62
2
  6
CONTINUOUS
 10
115.0
 20
30.0
 11
115.0
 21
10.0
  0
LINE
  8
0
 62
2
  6
CONTINUOUS
 10
200.0
 20
30.0
 11
200.0
 21
10.0
  0
TEXT
  8
0
 62
5
  6
CONTINUOUS
 10
13.0
 20
23.303
  7
TEXTSTYLE_5
 40
1.52
  1
                                                                     Ammeraal Beltech Modular A/S
 41
1.0
 72
0
  0
TEXT
  8
0
 62
5
  6
CONTINUOUS
 10
13.0
 20
20.595
  7
TEXTSTYLE_5
 40
1.5
  1
                                                                      Hjulmagervej 21,  7100 Vejle,  DK
 41
1.0
 72
0
  0
TEXT
  8
0
 62
5
  6
CONTINUOUS
 10
13.0
 20
17.881
  7
TEXTSTYLE_5
 40
1.495
  1
                                                                      tel: 
 41
1.0
 72
0
  0
TEXT
  8
0
 62
5
  6
CONTINUOUS
 10
57.9869465649
 20
17.881
  7
TEXTSTYLE_5
 40
1.51
  1
+45 75723100     fax: +45 75723348
 41
1.0
 72
0
  0
TEXT
  8
0
 62
5
  6
CONTINUOUS
 10
13.0
 20
15.177
  7
TEXTSTYLE_5
 40
1.5
  1
                                                                      admin@unichains.dk  www.unichains.com
 41
1.0
 72
0
  0
TEXT
  8
0
 62
5
  6
CONTINUOUS
 10
99.75
 20
13.75
  7
TEXTSTYLE_6
 40
5.0
  1
1:1
 41
0.7
 72
1
 11
105.0
 21
13.75
  0
TEXT
  8
0
 62
5
  6
CONTINUOUS
 10
118.0
 20
13.75
  7
TEXTSTYLE_7
 40
7.5
  1
Sprocket Z18 60X60 SQ
 41
0.431547619
 72
0
  0
LINE
  8
0
 62
7
  6
CONTINUOUS
 10
210.0
 20
0.0
 11
0.0
 21
0.0
  0
LINE
  8
0
 62
7
  6
CONTINUOUS
 10
10.0
 20
10.0
 11
200.0
 21
10.0
  0
LINE
  8
0
 62
7
  6
CONTINUOUS
 10
10.0
 20
30.0
 11
200.0
 21
30.0
  0
LINE
  8
0
 62
7
  6
CONTINUOUS
 10
0.0
 20
0.0
 11
0.0
 21
297.0
  0
LINE
  8
0
 62
7
  6
CONTINUOUS
 10
10.0
 20
10.0
 11
10.0
 21
287.0
  0
LINE
  8
0
 62
7
  6
CONTINUOUS
 10
200.0
 20
287.0
 11
200.0
 21
10.0
  0
LINE
  8
0
 62
7
  6
CONTINUOUS
 10
210.0
 20
0.0
 11
210.0
 21
297.0
  0
LINE
  8
0
 62
7
  6
CONTINUOUS
 10
10.0
 20
287.0
 11
200.0
 21
287.0
  0
LINE
  8
0
 62
7
  6
CONTINUOUS
 10
0.0
 20
297.0
 11
210.0
 21
297.0
  0
LINE
  8
0
 62
7
  6
CONTINUOUS
 10
29.1537165918
 20
214.6812892266
 11
28.039770251
 21
208.3637855962
  0
LINE
  8
0
 62
7
  6
CONTINUOUS
 10
38.866193594
 20
238.1091392645
 11
35.6587129405
 21
232.5536198083
  0
LINE
  8
0
 62
7
  6
CONTINUOUS
 10
56.0057331903
 20
256.8022542896
 11
51.0915877282
 21
252.6787966448
  0
LINE
  8
0
 62
7
  6
CONTINUOUS
 10
78.5050539527
 20
268.505968749
 11
72.4769621499
 21
266.3119227633
  0
LINE
  8
0
 62
7
  6
CONTINUOUS
 10
103.6504057427
 20
125.8995922946
 11
97.2354444357
 21
125.8995922946
  0
LINE
  8
0
 62
7
  6
CONTINUOUS
 10
78.5050539527
 20
129.202265496
 11
72.4769621499
 21
131.3963114816
  0
LINE
  8
0
 62
7
  6
CONTINUOUS
 10
56.0057331903
 20
140.9059799553
 11
51.0915877282
 21
145.0294376001
  0
LINE
  8
0
 62
7
  6
CONTINUOUS
 10
35.6587129405
 20
165.1546144367
 11
38.866193594
 21
159.5990949804
  0
LINE
  8
0
 62
7
  6
CONTINUOUS
 10
28.039770251
 20
189.3444486488
 11
29.1537165918
 21
183.0269450183
  0
LINE
  8
QUILTS
 62
7
  6
CONTINUOUS
 10
45.1138588651
 20
202.0871748495
 11
45.0971683434
 21
201.566608916
  0
LINE
  8
QUILTS
 62
7
  6
CONTINUOUS
 10
45.0304062719
 20
199.4843456662
 11
45.0137157537
 21
198.9637798445
  0
LINE
  8
QUILTS
 62
7
  6
CONTINUOUS
 10
46.6891327032
 20
215.4639091374
 11
46.7168610492
 21
215.8930469407
  0
LINE
  8
QUILTS
 62
7
  6
CONTINUOUS
 10
45.407492277
 20
205.2499159079
 11
45.3625079912
 21
204.8356844621
  0
LINE
  8
QUILTS
 62
7
  6
CONTINUOUS
 10
45.2612933964
 20
203.9036641534
 11
45.2050630552
 21
203.3858749943
  0
LINE
  8
QUILTS
 62
7
  6
CONTINUOUS
 10
46.1098716477
 20
216.090500589
 11
46.0499197137
 21
215.56230472
  0
LINE
  8
QUILTS
 62
7
  6
CONTINUOUS
 10
44.1870062985
 20
208.0377666041
 11
44.105441581
 21
207.5233598088
  0
LINE
  8
QUILTS
 62
7
  6
CONTINUOUS
 10
44.6307933395
 20
207.44005965
 11
44.7123580569
 21
207.9544664453
  0
LINE
  8
QUILTS
 62
7
  6
CONTINUOUS
 10
45.7630618682
 20
207.7878660809
 11
45.6814971508
 21
207.2734592857
  0
LINE
  8
QUILTS
 62
7
  6
CONTINUOUS
 10
46.3676585089
 20
216.8829594466
 11
46.1098716477
 21
216.090500589
  0
LINE
  8
QUILTS
 62
7
  6
CONTINUOUS
 10
46.7168610492
 20
215.8930469407
 11
46.9746479103
 21
216.6855057983
  0
LINE
  8
QUILTS
 62
7
  6
CONTINUOUS
 10
49.0136695003
 20
223.5193141929
 11
48.7641620998
 21
222.946277495
  0
LINE
  8
QUILTS
 62
7
  6
CONTINUOUS
 10
47.7245476137
 20
220.5586238586
 11
47.3502869889
 21
219.6990699048
  0
LINE
  8
QUILTS
 62
7
  6
CONTINUOUS
 10
50.80167323
 20
226.8732953206
 11
49.5947677067
 21
224.6839166284
  0
LINE
  8
QUILTS
 62
7
  6
CONTINUOUS
 10
50.4554843253
 20
224.9231152472
 11
51.4109515815
 21
226.6563740745
  0
LINE
  8
QUILTS
 62
7
  6
CONTINUOUS
 10
52.7152623973
 20
225.9373664706
 11
51.7597951411
 21
224.2041076433
  0
LINE
  8
QUILTS
 62
7
  6
CONTINUOUS
 10
46.6299398747
 20
217.3453362993
 11
46.3676585089
 21
216.8829594466
  0
LINE
  8
QUILTS
 62
7
  6
CONTINUOUS
 10
46.9746479103
 20
216.6855057983
 11
47.2047060568
 21
217.0488257189
  0
LINE
  8
QUILTS
 62
7
  6
CONTINUOUS
 10
60.5786594666
 20
237.3332729432
 11
60.1443100778
 21
236.738008587
  0
LINE
  8
QUILTS
 62
7
  6
CONTINUOUS
 10
56.8504101644
 20
235.5831366518
 11
55.2588663869
 21
233.6551873775
  0
LINE
  8
QUILTS
 62
7
  6
CONTINUOUS
 10
56.1489946405
 20
233.7308231418
 11
57.4089673037
 21
235.2571169302
  0
LINE
  8
QUILTS
 62
7
  6
CONTINUOUS
 10
58.5575329217
 20
234.3089631137
 11
57.2975602586
 21
232.7826693253
  0
LINE
  8
QUILTS
 62
7
  6
CONTINUOUS
 10
51.1462776876
 20
227.2780595978
 11
50.80167323
 21
226.8732953206
  0
LINE
  8
QUILTS
 62
7
  6
CONTINUOUS
 10
61.0160909944
 20
237.7796826639
 11
60.5786594666
 21
237.3332729432
  0
LINE
  8
QUILTS
 62
7
  6
CONTINUOUS
 10
60.8825968042
 20
237.0354483938
 11
61.320028332
 21
237.4818581145
  0
LINE
  8
QUILTS
 62
7
  6
CONTINUOUS
 10
60.3116744236
 20
235.8448078088
 11
60.6762004186
 21
236.2168156255
  0
LINE
  8
QUILTS
 62
7
  6
CONTINUOUS
 10
62.09649649
 20
241.0277964847
 11
61.7127452426
 21
240.6756544723
  0
LINE
  8
QUILTS
 62
7
  6
CONTINUOUS
 10
63.2076458728
 20
242.0119877712
 11
62.8148554239
 21
241.6699575384
  0
LINE
  8
QUILTS
 62
7
  6
CONTINUOUS
 10
57.2640231815
 20
235.9170687174
 11
56.8504101644
 21
235.5831366518
  0
LINE
  8
QUILTS
 62
7
  6
CONTINUOUS
 10
76.5340162209
 20
249.897198701
 11
76.8692256663
 21
250.1665789589
  0
LINE
  8
QUILTS
 62
7
  6
CONTINUOUS
 10
76.6489537275
 20
250.650741803
 11
76.2189304938
 21
250.3382256101
  0
LINE
  8
QUILTS
 62
7
  6
CONTINUOUS
 10
61.5295051879
 20
238.1516345444
 11
61.0160909944
 21
237.7796826639
  0
LINE
  8
QUILTS
 62
7
  6
CONTINUOUS
 10
71.9710562753
 20
248.2777244444
 11
68.4390092586
 21
246.0673530418
  0
LINE
  8
QUILTS
 62
7
  6
CONTINUOUS
 10
68.7211844053
 20
245.6164533044
 11
71.8117240291
 21
247.5505273331
  0
LINE
  8
QUILTS
 62
7
  6
CONTINUOUS
 10
74.1146584414
 20
249.4131222583
 11
73.5635150778
 21
249.1183918853
  0
LINE
  8
QUILTS
 62
7
  6
CONTINUOUS
 10
77.0282132204
 20
250.8232875174
 11
76.6489537275
 21
250.650741803
  0
LINE
  8
QUILTS
 62
7
  6
CONTINUOUS
 10
76.8692256663
 20
250.1665789589
 11
77.2484851593
 21
250.3391246734
  0
LINE
  8
QUILTS
 62
7
  6
CONTINUOUS
 10
77.9533554871
 20
248.7898033013
 11
77.5740959942
 21
248.6172575868
  0
LINE
  8
QUILTS
 62
7
  6
CONTINUOUS
 10
77.7503135453
 20
248.2299273116
 11
78.1295730383
 21
248.4024730261
  0
LINE
  8
QUILTS
 62
7
  6
CONTINUOUS
 10
50.5109250413
 20
215.8637735598
 11
50.5154199147
 21
215.5336926885
  0
LINE
  8
QUILTS
 62
7
  6
CONTINUOUS
 10
51.1823609435
 20
215.8644337555
 11
51.1778660612
 21
216.1945146297
  0
LINE
  8
QUILTS
 62
7
  6
CONTINUOUS
 10
53.296483897
 20
226.3306381165
 11
53.303893934
 21
226.5644433206
  0
LINE
  8
QUILTS
 62
7
  6
CONTINUOUS
 10
48.0443188571
 20
200.5341350049
 11
48.0309664407
 21
200.117682288
  0
LINE
  8
QUILTS
 62
7
  6
CONTINUOUS
 10
48.4562797896
 20
200.1040457796
 11
48.469632206
 21
200.5204984966
  0
LINE
  8
QUILTS
 62
7
  6
CONTINUOUS
 10
48.5063513453
 20
201.6657432821
 11
48.5230418671
 21
202.1863092156
  0
LINE
  8
QUILTS
 62
7
  6
CONTINUOUS
 10
48.589420381
 20
203.018343995
 11
48.6456507222
 21
203.5361331541
  0
LINE
  8
QUILTS
 62
7
  6
CONTINUOUS
 10
48.8480799118
 20
205.4001737715
 11
48.9043102208
 21
205.9179626343
  0
LINE
  8
QUILTS
 62
7
  6
CONTINUOUS
 10
51.122409387
 20
215.3362390172
 11
51.1823609435
 21
215.8644337555
  0
LINE
  8
QUILTS
 62
7
  6
CONTINUOUS
 10
49.0437486994
 20
206.7403382225
 11
49.1253134168
 21
207.2547450178
  0
LINE
  8
QUILTS
 62
7
  6
CONTINUOUS
 10
52.7729605481
 20
226.2623964829
 11
52.7152623973
 21
225.9373664706
  0
LINE
  8
QUILTS
 62
7
  6
CONTINUOUS
 10
54.729426576
 20
225.1838851849
 11
54.6717284252
 21
224.8588551727
  0
LINE
  8
QUILTS
 62
7
  6
CONTINUOUS
 10
59.2015400207
 20
234.5877746551
 11
59.252127778
 21
234.8161617408
  0
LINE
  8
QUILTS
 62
7
  6
CONTINUOUS
 10
48.3365990383
 20
199.6910022642
 11
48.4562797896
 21
200.1040457796
  0
LINE
  8
QUILTS
 62
7
  6
CONTINUOUS
 10
55.1804306144
 20
224.4594842742
 11
55.3387049847
 21
224.9669639073
  0
LINE
  8
QUILTS
 62
7
  6
CONTINUOUS
 10
60.1443100778
 20
236.738008587
 11
60.0744833467
 21
236.5147486418
  0
LINE
  8
QUILTS
 62
7
  6
CONTINUOUS
 10
60.5971356139
 20
236.4401281013
 11
60.666962345
 21
236.6633880465
  0
LINE
  8
QUILTS
 62
7
  6
CONTINUOUS
 10
61.1988526857
 20
236.142195085
 11
61.0592008922
 21
235.6956768975
  0
LINE
  8
QUILTS
 62
7
  6
CONTINUOUS
 10
61.5787744642
 20
235.7699142939
 11
61.6485995266
 21
235.9931725363
  0
LINE
  8
QUILTS
 62
7
  6
CONTINUOUS
 10
50.0373236886
 20
216.1273752218
 11
49.843983635
 21
215.5330313621
  0
LINE
  8
QUILTS
 62
7
  6
CONTINUOUS
 10
50.5154199147
 20
215.5336926885
 11
50.2576330536
 21
214.741233831
  0
LINE
  8
QUILTS
 62
7
  6
CONTINUOUS
 10
50.8646225259
 20
214.5437801596
 11
51.122409387
 21
215.3362390172
  0
LINE
  8
QUILTS
 62
7
  6
CONTINUOUS
 10
51.4446426869
 20
216.3268117389
 11
51.6379827406
 21
216.9211555987
  0
LINE
  8
QUILTS
 62
7
  6
CONTINUOUS
 10
45.7855526199
 20
204.7897430912
 11
45.9362980629
 21
205.1924891943
  0
LINE
  8
QUILTS
 62
7
  6
CONTINUOUS
 10
58.674435509
 20
234.617682032
 11
58.5575329217
 21
234.3089631137
  0
LINE
  8
QUILTS
 62
7
  6
CONTINUOUS
 10
60.3972837637
 20
233.1954514496
 11
60.2803811764
 21
232.8867325312
  0
LINE
  8
QUILTS
 62
7
  6
CONTINUOUS
 10
63.2103987779
 20
236.0670269451
 11
62.9978414783
 21
235.5461068276
  0
LINE
  8
QUILTS
 62
7
  6
CONTINUOUS
 10
51.9345805717
 20
217.7030107007
 11
52.1840879722
 21
218.2760473986
  0
LINE
  8
QUILTS
 62
7
  6
CONTINUOUS
 10
53.2237019824
 20
220.663699942
 11
53.5979630831
 21
221.5232549888
  0
LINE
  8
QUILTS
 62
7
  6
CONTINUOUS
 10
45.5469916325
 20
205.5491040014
 11
45.407492277
 21
205.2499159079
  0
LINE
  8
QUILTS
 62
7
  6
CONTINUOUS
 10
60.706308713
 20
232.4000490968
 11
60.9558409532
 21
232.8694316864
  0
LINE
  8
QUILTS
 62
7
  6
CONTINUOUS
 10
52.3187853789
 20
223.895961589
 11
53.2742526351
 21
225.6292204163
  0
LINE
  8
QUILTS
 62
7
  6
CONTINUOUS
 10
54.6717284252
 20
224.8588551727
 11
53.716261169
 21
223.1255963453
  0
LINE
  8
QUILTS
 62
7
  6
CONTINUOUS
 10
53.9735250912
 20
222.270105582
 11
55.1804306144
 21
224.4594842742
  0
LINE
  8
QUILTS
 62
7
  6
CONTINUOUS
 10
50.6023407825
 20
214.0814021762
 11
50.8646225259
 21
214.5437801596
  0
LINE
  8
QUILTS
 62
7
  6
CONTINUOUS
 10
60.666962345
 20
236.6633880465
 11
60.8825968042
 21
237.0354483938
  0
LINE
  8
QUILTS
 62
7
  6
CONTINUOUS
 10
61.6485995266
 20
235.9931725363
 11
61.8642339858
 21
236.3652328835
  0
LINE
  8
QUILTS
 62
7
  6
CONTINUOUS
 10
50.2576330536
 20
214.741233831
 11
50.0275749071
 21
214.3779139104
  0
LINE
  8
QUILTS
 62
7
  6
CONTINUOUS
 10
63.3017788425
 20
235.2482822521
 11
63.5903204965
 21
235.6947462127
  0
LINE
  8
QUILTS
 62
7
  6
CONTINUOUS
 10
45.9362980629
 20
205.1924891943
 11
46.0645513308
 21
205.3881192782
  0
LINE
  8
QUILTS
 62
7
  6
CONTINUOUS
 10
76.2189304938
 20
250.3382256101
 11
75.8770160358
 21
249.8320442796
  0
LINE
  8
QUILTS
 62
7
  6
CONTINUOUS
 10
61.5602965418
 20
236.6630575373
 11
61.1988526857
 21
236.142195085
  0
LINE
  8
QUILTS
 62
7
  6
CONTINUOUS
 10
76.9036814436
 20
248.0784990456
 11
76.7581039148
 21
247.8953926322
  0
LINE
  8
QUILTS
 62
7
  6
CONTINUOUS
 10
77.1239533825
 20
247.5943362015
 11
77.4151040999
 21
247.9605470536
  0
LINE
  8
QUILTS
 62
7
  6
CONTINUOUS
 10
78.7999875889
 20
248.9412315673
 11
78.9455607774
 21
249.124336006
  0
LINE
  8
QUILTS
 62
7
  6
CONTINUOUS
 10
57.7898025678
 20
232.376317771
 11
59.0497752309
 21
233.9026115593
  0
LINE
  8
QUILTS
 62
7
  6
CONTINUOUS
 10
60.2803811764
 20
232.8867325312
 11
59.0204085132
 21
231.3604387429
  0
LINE
  8
QUILTS
 62
7
  6
CONTINUOUS
 10
59.1147649355
 20
230.4720998225
 11
60.706308713
 21
232.4000490968
  0
LINE
  8
QUILTS
 62
7
  6
CONTINUOUS
 10
62.3622523959
 20
237.4814733718
 11
61.5602965418
 21
236.6630575373
  0
LINE
  8
QUILTS
 62
7
  6
CONTINUOUS
 10
61.8642339858
 20
236.3652328835
 11
62.66618984
 21
237.1836487181
  0
LINE
  8
QUILTS
 62
7
  6
CONTINUOUS
 10
62.9978414783
 20
235.5461068276
 11
62.5604116192
 21
235.0996988098
  0
LINE
  8
QUILTS
 62
7
  6
CONTINUOUS
 10
62.8643489834
 20
234.8018742343
 11
63.3017788425
 21
235.2482822521
  0
LINE
  8
QUILTS
 62
7
  6
CONTINUOUS
 10
64.1037346966
 20
236.0666980867
 11
64.4682573543
 21
236.4387024976
  0
LINE
  8
QUILTS
 62
7
  6
CONTINUOUS
 10
46.9611632901
 20
217.6757484121
 11
46.6299398747
 21
217.3453362993
  0
LINE
  8
QUILTS
 62
7
  6
CONTINUOUS
 10
65.0932982446
 20
236.9916537393
 11
65.477049492
 21
237.3437957517
  0
LINE
  8
QUILTS
 62
7
  6
CONTINUOUS
 10
51.4109515815
 20
226.6563740745
 11
51.6549798116
 21
226.8786887353
  0
LINE
  8
QUILTS
 62
7
  6
CONTINUOUS
 10
53.2742526351
 20
225.6292204163
 11
53.5182808651
 21
225.8515350771
  0
LINE
  8
QUILTS
 62
7
  6
CONTINUOUS
 10
66.098335638
 20
237.8991807373
 11
66.4911260869
 21
238.2412109701
  0
LINE
  8
QUILTS
 62
7
  6
CONTINUOUS
 10
78.2885605923
 20
249.0591815846
 11
77.9533554871
 21
248.7898033013
  0
LINE
  8
QUILTS
 62
7
  6
CONTINUOUS
 10
77.4151040999
 20
247.9605470536
 11
77.7503135453
 21
248.2299273116
  0
LINE
  8
QUILTS
 62
7
  6
CONTINUOUS
 10
79.2137028282
 20
247.0256974362
 11
78.878497723
 21
246.7563191529
  0
LINE
  8
QUILTS
 62
7
  6
CONTINUOUS
 10
79.1935834809
 20
246.3152921761
 11
79.6236067107
 21
246.6278083774
  0
LINE
  8
QUILTS
 62
7
  6
CONTINUOUS
 10
53.4902240132
 20
226.4617279692
 11
53.296483897
 21
226.3306381165
  0
LINE
  8
QUILTS
 62
7
  6
CONTINUOUS
 10
74.2848927547
 20
244.5803461556
 11
71.2826529926
 21
242.7015305898
  0
LINE
  8
QUILTS
 62
7
  6
CONTINUOUS
 10
71.0914559535
 20
241.8288950049
 11
74.6235029703
 21
244.0392664075
  0
LINE
  8
QUILTS
 62
7
  6
CONTINUOUS
 10
57.4089673037
 20
235.2571169302
 11
57.6899506607
 21
235.4303853304
  0
LINE
  8
QUILTS
 62
7
  6
CONTINUOUS
 10
59.0497752309
 20
233.9026115593
 11
59.330758588
 21
234.0758799596
  0
LINE
  8
QUILTS
 62
7
  6
CONTINUOUS
 10
61.320028332
 20
237.4818581145
 11
61.68763146
 21
237.7050061871
  0
LINE
  8
QUILTS
 62
7
  6
CONTINUOUS
 10
62.49674418
 20
234.5787244653
 11
62.8643489834
 21
234.8018742343
  0
LINE
  8
QUILTS
 62
7
  6
CONTINUOUS
 10
75.9213580612
 20
244.7092449763
 11
76.4725014248
 21
245.0039753493
  0
LINE
  8
QUILTS
 62
7
  6
CONTINUOUS
 10
78.878497723
 20
246.7563191529
 11
78.4992382301
 21
246.5837734384
  0
LINE
  8
QUILTS
 62
7
  6
CONTINUOUS
 10
78.6246920714
 20
246.056472617
 11
79.1935834809
 21
246.3152921761
  0
LINE
  8
QUILTS
 62
7
  6
CONTINUOUS
 10
59.4162085477
 20
234.6807112227
 11
59.2015400207
 21
234.5877746551
  0
LINE
  8
QUILTS
 62
7
  6
CONTINUOUS
 10
61.68763146
 20
237.7050061871
 11
61.9094268599
 21
237.7793538576
  0
LINE
  8
QUILTS
 62
7
  6
CONTINUOUS
 10
47.9513429036
 20
200.953996701
 11
48.0443188571
 21
200.5341350049
  0
LINE
  8
QUILTS
 62
7
  6
CONTINUOUS
 10
48.469632206
 20
200.5204984966
 11
48.3766562805
 21
200.9403601917
  0
LINE
  8
QUILTS
 62
7
  6
CONTINUOUS
 10
46.0499197137
 20
215.56230472
 11
46.1233562679
 21
215.1002579752
  0
LINE
  8
QUILTS
 62
7
  6
CONTINUOUS
 10
45.3625079912
 20
204.8356844621
 11
45.4232848626
 21
204.4099676736
  0
LINE
  8
QUILTS
 62
7
  6
CONTINUOUS
 10
45.8463294913
 20
204.3640263027
 11
45.7855526199
 21
204.7897430912
  0
LINE
  8
QUILTS
 62
7
  6
CONTINUOUS
 10
60.9558409532
 20
232.8694316864
 11
60.9749760614
 21
233.3939311346
  0
LINE
  8
QUILTS
 62
7
  6
CONTINUOUS
 10
63.5903204965
 20
235.6947462127
 11
63.6570667373
 21
236.0668625159
  0
LINE
  8
QUILTS
 62
7
  6
CONTINUOUS
 10
75.8770160358
 20
249.8320442796
 11
75.7247334944
 21
249.4121367936
  0
LINE
  8
QUILTS
 62
7
  6
CONTINUOUS
 10
76.2869198913
 20
249.4341552801
 11
76.5340162209
 21
249.897198701
  0
LINE
  8
QUILTS
 62
7
  6
CONTINUOUS
 10
76.7581039148
 20
247.8953926322
 11
76.5110075852
 21
247.4323492113
  0
LINE
  8
QUILTS
 62
7
  6
CONTINUOUS
 10
78.5356612622
 20
249.5222269801
 11
78.2885605923
 21
249.0591815846
  0
LINE
  8
QUILTS
 62
7
  6
CONTINUOUS
 10
48.0309664407
 20
200.117682288
 11
47.8049573335
 21
199.7080479002
  0
LINE
  8
QUILTS
 62
7
  6
CONTINUOUS
 10
79.6236067107
 20
246.6278083774
 11
79.9655211572
 21
247.1339897334
  0
LINE
  8
QUILTS
 62
7
  6
CONTINUOUS
 10
48.1139280422
 20
199.3854809809
 11
48.3365990383
 21
199.6910022642
  0
LINE
  8
QUILTS
 62
7
  6
CONTINUOUS
 10
79.5048578859
 20
247.391910263
 11
79.2137028282
 21
247.0256974362
  0
LINE
  8
QUILTS
 62
7
  6
CONTINUOUS
 10
45.7922521451
 20
205.8368067522
 11
45.5469916325
 21
205.5491040014
  0
LINE
  8
QUILTS
 62
7
  6
CONTINUOUS
 10
50.2711177092
 20
213.7509912056
 11
50.6023407825
 21
214.0814021762
  0
LINE
  8
QUILTS
 62
7
  6
CONTINUOUS
 10
47.2047060568
 20
217.0488257189
 11
47.5037058841
 21
217.280179766
  0
LINE
  8
QUILTS
 62
7
  6
CONTINUOUS
 10
50.0275749071
 20
214.3779139104
 11
49.728575009
 21
214.1465598863
  0
LINE
  8
QUILTS
 62
7
  6
CONTINUOUS
 10
47.4947161373
 20
217.9403415085
 11
46.9611632901
 21
217.6757484121
  0
LINE
  8
QUILTS
 62
7
  6
CONTINUOUS
 10
51.6269229597
 20
227.4888816274
 11
51.1462776876
 21
227.2780595978
  0
LINE
  8
QUILTS
 62
7
  6
CONTINUOUS
 10
62.5604116192
 20
235.0996988098
 11
62.1168224615
 21
234.9510051977
  0
LINE
  8
QUILTS
 62
7
  6
CONTINUOUS
 10
62.2749504422
 20
234.5043785042
 11
62.49674418
 21
234.5787244653
  0
LINE
  8
QUILTS
 62
7
  6
CONTINUOUS
 10
47.748700559
 20
201.2731544551
 11
47.9513429036
 21
200.953996701
  0
LINE
  8
QUILTS
 62
7
  6
CONTINUOUS
 10
45.4232848626
 20
204.4099676736
 11
45.6010690108
 21
204.0763238482
  0
LINE
  8
QUILTS
 62
7
  6
CONTINUOUS
 10
46.0241136395
 20
204.0303824773
 11
45.8463294913
 21
204.3640263027
  0
LINE
  8
QUILTS
 62
7
  6
CONTINUOUS
 10
46.1233562679
 20
215.1002579752
 11
46.3991226227
 21
214.5723933477
  0
LINE
  8
QUILTS
 62
7
  6
CONTINUOUS
 10
48.3766562805
 20
200.9403601917
 11
48.2770041539
 21
201.1519957518
  0
LINE
  8
QUILTS
 62
7
  6
CONTINUOUS
 10
46.7947924769
 20
215.1009193247
 11
46.6891327032
 21
215.4639091374
  0
LINE
  8
QUILTS
 62
7
  6
CONTINUOUS
 10
55.3387049847
 20
224.9669639073
 11
55.2603599945
 21
225.4859320047
  0
LINE
  8
QUILTS
 62
7
  6
CONTINUOUS
 10
58.6429828815
 20
234.9137943768
 11
58.674435509
 21
234.617682032
  0
LINE
  8
QUILTS
 62
7
  6
CONTINUOUS
 10
60.3658310787
 20
233.4915638418
 11
60.3972837637
 21
233.1954514496
  0
LINE
  8
QUILTS
 62
7
  6
CONTINUOUS
 10
60.0744833467
 20
236.5147486418
 11
60.0806426187
 21
236.2170342621
  0
LINE
  8
QUILTS
 62
7
  6
CONTINUOUS
 10
61.0592008922
 20
235.6956768975
 11
61.0653602706
 21
235.3979624135
  0
LINE
  8
QUILTS
 62
7
  6
CONTINUOUS
 10
61.5849320675
 20
235.4721982114
 11
61.5787744642
 21
235.7699142939
  0
LINE
  8
QUILTS
 62
7
  6
CONTINUOUS
 10
63.2011606511
 20
236.5135994183
 11
63.2103987779
 21
236.0670269451
  0
LINE
  8
QUILTS
 62
7
  6
CONTINUOUS
 10
73.5635150778
 20
249.1183918853
 11
73.3635397762
 21
248.1669801362
  0
LINE
  8
QUILTS
 62
7
  6
CONTINUOUS
 10
73.7648748448
 20
247.4164868719
 11
73.9648500058
 21
248.3678988839
  0
LINE
  8
QUILTS
 62
7
  6
CONTINUOUS
 10
71.2826529926
 20
242.7015305898
 11
72.3661014807
 21
247.646464812
  0
LINE
  8
QUILTS
 62
7
  6
CONTINUOUS
 10
71.8117240291
 20
247.5505273331
 11
70.6399756793
 21
242.5503346479
  0
LINE
  8
QUILTS
 62
7
  6
CONTINUOUS
 10
78.9455607774
 20
249.124336006
 11
79.0978433188
 21
249.544243492
  0
LINE
  8
QUILTS
 62
7
  6
CONTINUOUS
 10
79.9655211572
 20
247.1339897334
 11
80.1178036832
 21
247.5538972532
  0
LINE
  8
QUILTS
 62
7
  6
CONTINUOUS
 10
47.7849287107
 20
199.0833688806
 11
48.1139280422
 21
199.3854809809
  0
LINE
  8
QUILTS
 62
7
  6
CONTINUOUS
 10
46.0262665702
 20
206.0209514934
 11
45.7922521451
 21
205.8368067522
  0
LINE
  8
QUILTS
 62
7
  6
CONTINUOUS
 10
46.0645513308
 20
205.3881192782
 11
46.2985657559
 21
205.5722640194
  0
LINE
  8
QUILTS
 62
7
  6
CONTINUOUS
 10
51.6379827406
 20
216.9211555987
 11
50.9710413342
 21
216.590413401
  0
LINE
  8
QUILTS
 62
7
  6
CONTINUOUS
 10
50.4374884162
 20
216.3258203276
 11
50.0373236886
 21
216.1273752218
  0
LINE
  8
QUILTS
 62
7
  6
CONTINUOUS
 10
51.1778660612
 20
216.1945146297
 11
51.4446426869
 21
216.3268117389
  0
LINE
  8
QUILTS
 62
7
  6
CONTINUOUS
 10
49.843983635
 20
215.5330313621
 11
50.5109250413
 21
215.8637735598
  0
LINE
  8
QUILTS
 62
7
  6
CONTINUOUS
 10
49.7375648266
 20
213.4863981207
 11
50.2711177092
 21
213.7509912056
  0
LINE
  8
QUILTS
 62
7
  6
CONTINUOUS
 10
48.2770041539
 20
201.1519957518
 11
47.9680334206
 21
201.4745624855
  0
LINE
  8
QUILTS
 62
7
  6
CONTINUOUS
 10
45.6010690108
 20
204.0763238482
 11
45.7900991823
 21
203.8462374398
  0
LINE
  8
QUILTS
 62
7
  6
CONTINUOUS
 10
46.2131438109
 20
203.8002960689
 11
46.0241136395
 21
204.0303824773
  0
LINE
  8
QUILTS
 62
7
  6
CONTINUOUS
 10
50.9710413342
 20
216.590413401
 11
50.8331583412
 21
216.8543462815
  0
LINE
  8
QUILTS
 62
7
  6
CONTINUOUS
 10
52.6872055454
 20
226.5475593627
 11
52.7729605481
 21
226.2623964829
  0
LINE
  8
QUILTS
 62
7
  6
CONTINUOUS
 10
54.6436715081
 20
225.4690481007
 11
54.729426576
 21
225.1838851849
  0
LINE
  8
QUILTS
 62
7
  6
CONTINUOUS
 10
76.2294512614
 20
249.0573834579
 11
76.2869198913
 21
249.4341552801
  0
LINE
  8
QUILTS
 62
7
  6
CONTINUOUS
 10
78.5931256752
 20
249.8989965564
 11
78.5356612622
 21
249.5222269801
  0
LINE
  8
QUILTS
 62
7
  6
CONTINUOUS
 10
77.0157252905
 20
247.0775960112
 11
77.1239533825
 21
247.5943362015
  0
LINE
  8
QUILTS
 62
7
  6
CONTINUOUS
 10
79.6130860087
 20
247.9086503855
 11
79.5048578859
 21
247.391910263
  0
LINE
  8
0
 62
7
  6
CONTINUOUS
 10
96.579221784
 20
237.4168206885
 11
61.8802215231
 21
202.7178204276
  0
LINE
  8
QUILTS
 62
7
  6
CONTINUOUS
 10
47.8049573335
 20
199.7080479002
 11
47.4792960671
 21
199.5100489245
  0
LINE
  8
QUILTS
 62
7
  6
CONTINUOUS
 10
129.2651142244
 20
245.3216525221
 11
129.7493503813
 21
245.5320068939
  0
LINE
  8
QUILTS
 62
7
  6
CONTINUOUS
 10
136.088686114
 20
241.8385073808
 11
136.4550098607
 21
241.9436947614
  0
LINE
  8
QUILTS
 62
7
  6
CONTINUOUS
 10
136.1617655714
 20
238.259680958
 11
135.795441776
 21
238.154493521
  0
LINE
  8
QUILTS
 62
7
  6
CONTINUOUS
 10
47.4363917066
 20
201.4916081218
 11
47.748700559
 21
201.2731544551
  0
LINE
  8
0
 62
7
  6
CONTINUOUS
 10
61.8802215231
 20
194.9904138173
 11
96.579221784
 21
160.2914135564
  0
LINE
  8
QUILTS
 62
7
  6
CONTINUOUS
 10
47.0338406535
 20
214.8040774106
 11
46.7947924769
 21
215.1009193247
  0
LINE
  8
QUILTS
 62
7
  6
CONTINUOUS
 10
50.198440523
 20
216.6226621495
 11
50.4374884162
 21
216.3258203276
  0
LINE
  8
QUILTS
 62
7
  6
CONTINUOUS
 10
53.303893934
 20
226.5644433206
 11
53.0820969659
 21
227.04354636
  0
LINE
  8
QUILTS
 62
7
  6
CONTINUOUS
 10
55.2603599945
 20
225.4859320047
 11
55.0385629938
 21
225.965035062
  0
LINE
  8
QUILTS
 62
7
  6
CONTINUOUS
 10
59.252127778
 20
234.8161617408
 11
59.1229092107
 21
235.3280564363
  0
LINE
  8
QUILTS
 62
7
  6
CONTINUOUS
 10
60.9749760614
 20
233.3939311346
 11
60.8457574654
 21
233.9058258538
  0
LINE
  8
0
 62
7
  6
CONTINUOUS
 10
72.3691490304
 20
263.4167631408
 11
72.383087588
 21
263.2034420159
  0
LINE
  8
QUILTS
 62
7
  6
CONTINUOUS
 10
75.7247334944
 20
249.4121367936
 11
75.7553779803
 21
248.8417018084
  0
LINE
  8
QUILTS
 62
7
  6
CONTINUOUS
 10
76.5110075852
 20
247.4323492113
 11
76.5416476692
 21
246.8619123871
  0
LINE
  8
QUILTS
 62
7
  6
CONTINUOUS
 10
79.0978433188
 20
249.544243492
 11
79.1112576843
 21
250.0178476117
  0
LINE
  8
0
 62
7
  6
CONTINUOUS
 10
72.383087588
 20
134.504792229
 11
72.3691490304
 21
134.2914711042
  0
LINE
  8
0
 62
7
  6
CONTINUOUS
 10
96.1439303338
 20
269.1249560756
 11
96.0840681718
 21
268.9197325213
  0
LINE
  8
0
 62
7
  6
CONTINUOUS
 10
52.0665375259
 20
147.9825610114
 11
51.9804794445
 21
147.786871992
  0
LINE
  8
0
 62
7
  6
CONTINUOUS
 10
120.4372338511
 20
266.3574487455
 11
120.3107912297
 21
266.1850757512
  0
LINE
  8
0
 62
7
  6
CONTINUOUS
 10
37.5848937634
 20
167.596190245
 11
37.4370960328
 21
167.4417363148
  0
LINE
  8
0
 62
7
  6
CONTINUOUS
 10
142.3189286472
 20
255.4480433787
 11
142.1411564127
 21
255.3293116713
  0
LINE
  8
QUILTS
 62
7
  6
CONTINUOUS
 10
135.982199764
 20
242.3524435992
 11
135.4767272984
 21
242.0862993837
  0
LINE
  8
0
 62
7
  6
CONTINUOUS
 10
30.6848562645
 20
190.9799867779
 11
30.4931454724
 21
190.8853973604
  0
LINE
  8
QUILTS
 62
7
  6
CONTINUOUS
 10
48.5230418671
 20
202.1863092156
 11
48.3070470825
 21
202.0890141043
  0
LINE
  8
QUILTS
 62
7
  6
CONTINUOUS
 10
47.568933951
 20
198.9860739643
 11
47.7849287107
 21
199.0833688806
  0
LINE
  8
QUILTS
 62
7
  6
CONTINUOUS
 10
47.9680334206
 20
201.4745624855
 11
48.5063513453
 21
201.6657432821
  0
LINE
  8
0
 62
7
  6
CONTINUOUS
 10
41.7360907882
 20
159.995658977
 11
41.9437506807
 21
160.0464286012
  0
LINE
  8
0
 62
7
  6
CONTINUOUS
 10
168.6871787931
 20
182.3947146048
 11
168.8996794958
 21
182.4180306299
  0
LINE
  8
0
 62
7
  6
CONTINUOUS
 10
31.9861706826
 20
182.4180306299
 11
32.1986713853
 21
182.3947146048
  0
LINE
  8
0
 62
7
  6
CONTINUOUS
 10
158.9420994976
 20
160.0464286012
 11
159.1497593901
 21
159.995658977
  0
LINE
  8
0
 62
7
  6
CONTINUOUS
 10
30.4931454724
 20
206.8228368845
 11
30.6848562645
 21
206.7282474671
  0
LINE
  8
0
 62
7
  6
CONTINUOUS
 10
142.1411564127
 20
142.3789225736
 11
142.3189286472
 21
142.2601908663
  0
LINE
  8
QUILTS
 62
7
  6
CONTINUOUS
 10
46.3991226227
 20
214.5723933477
 11
46.7393354162
 21
214.2426425844
  0
LINE
  8
QUILTS
 62
7
  6
CONTINUOUS
 10
50.8331583412
 20
216.8543462815
 11
50.4929454769
 21
217.1840970679
  0
LINE
  8
0
 62
7
  6
CONTINUOUS
 10
37.4370960328
 20
230.2664979301
 11
37.5848937634
 21
230.1120439999
  0
LINE
  8
0
 62
7
  6
CONTINUOUS
 10
120.3107912297
 20
131.5231584938
 11
120.4372338511
 21
131.3507854994
  0
LINE
  8
0
 62
7
  6
CONTINUOUS
 10
51.9804794445
 20
249.9213622529
 11
52.0665375259
 21
249.7256732335
  0
LINE
  8
QUILTS
 62
7
  6
CONTINUOUS
 10
60.0806426187
 20
236.2170342621
 11
60.1597057548
 21
235.9937200835
  0
LINE
  8
QUILTS
 62
7
  6
CONTINUOUS
 10
60.6762004186
 20
236.2168156255
 11
60.5971356139
 21
236.4401281013
  0
LINE
  8
QUILTS
 62
7
  6
CONTINUOUS
 10
61.0653602706
 20
235.3979624135
 11
61.2234865428
 21
234.9513340562
  0
LINE
  8
QUILTS
 62
7
  6
CONTINUOUS
 10
63.1220958463
 20
236.736911894
 11
63.2011606511
 21
236.5135994183
  0
LINE
  8
QUILTS
 62
7
  6
CONTINUOUS
 10
63.6570667373
 20
236.0668625159
 11
63.5780019059
 21
236.2901750177
  0
LINE
  8
0
 62
7
  6
CONTINUOUS
 10
96.0840681718
 20
128.7885017237
 11
96.1439303338
 21
128.5832781694
  0
LINE
  8
QUILTS
 62
7
  6
CONTINUOUS
 10
80.1178036832
 20
247.5538972532
 11
80.0871592898
 21
248.124332035
  0
LINE
  8
0
 62
7
  6
CONTINUOUS
 10
96.4786863882
 20
271.1229919829
 11
96.3001228607
 21
269.8779984807
  0
LINE
  8
0
 62
7
  6
CONTINUOUS
 10
72.258366324
 20
133.5304217225
 11
72.0003482971
 21
132.2994381923
  0
LINE
  8
0
 62
7
  6
CONTINUOUS
 10
121.4351701726
 20
268.12049503
 11
120.8415624874
 21
267.0116561463
  0
LINE
  8
0
 62
7
  6
CONTINUOUS
 10
51.6160835342
 20
147.1096094211
 11
50.9526047348
 21
146.041110644
  0
LINE
  8
0
 62
7
  6
CONTINUOUS
 10
143.8596793874
 20
256.7634506386
 11
142.922625392
 21
255.9245087075
  0
LINE
  8
QUILTS
 62
7
  6
CONTINUOUS
 10
129.5135580676
 20
246.1618825975
 11
129.2628830809
 21
245.9385679608
  0
LINE
  8
QUILTS
 62
7
  6
CONTINUOUS
 10
129.7493503813
 20
245.5320068939
 11
130.000025368
 21
245.7553215306
  0
LINE
  8
0
 62
7
  6
CONTINUOUS
 10
36.8630384433
 20
166.9299484161
 11
35.8741242066
 21
166.152811114
  0
LINE
  8
QUILTS
 62
7
  6
CONTINUOUS
 10
130.9141505851
 20
243.0842182002
 11
133.3473651115
 21
244.8755064069
  0
LINE
  8
QUILTS
 62
7
  6
CONTINUOUS
 10
129.5004936689
 20
242.0025174286
 11
130.5819249044
 21
242.7986436312
  0
LINE
  8
QUILTS
 62
7
  6
CONTINUOUS
 10
133.2559211098
 20
245.4639969972
 11
128.9920776375
 21
242.3660255289
  0
LINE
  8
QUILTS
 62
7
  6
CONTINUOUS
 10
135.8011590456
 20
241.6651991264
 11
136.088686114
 21
241.8385073808
  0
LINE
  8
QUILTS
 62
7
  6
CONTINUOUS
 10
134.6879707564
 20
240.3775461378
 11
134.9754977274
 21
240.5508542795
  0
LINE
  8
QUILTS
 62
7
  6
CONTINUOUS
 10
136.449292445
 20
238.4329889869
 11
136.1617655714
 21
238.259680958
  0
LINE
  8
QUILTS
 62
7
  6
CONTINUOUS
 10
136.2682518727
 20
237.7457446832
 11
136.7737241921
 21
238.0118887296
  0
LINE
  8
0
 62
7
  6
CONTINUOUS
 10
161.0474872708
 20
238.4216859744
 11
159.8800095065
 21
237.9538297743
  0
LINE
  8
0
 62
7
  6
CONTINUOUS
 10
29.7786660212
 20
190.6008133076
 11
28.5835939989
 21
190.2087717084
  0
LINE
  8
QUILTS
 62
7
  6
CONTINUOUS
 10
47.4792960671
 20
199.5100489245
 11
47.1569729792
 21
199.4161631256
  0
LINE
  8
0
 62
7
  6
CONTINUOUS
 10
31.217446136
 20
182.4410858
 11
29.9603596514
 21
182.4007456934
  0
LINE
  8
0
 62
7
  6
CONTINUOUS
 10
170.9254905269
 20
182.4007456934
 11
169.6684040424
 21
182.4410858
  0
LINE
  8
0
 62
7
  6
CONTINUOUS
 10
29.7786660212
 20
207.1074209373
 11
28.5835939989
 21
207.4994625365
  0
LINE
  8
0
 62
7
  6
CONTINUOUS
 10
161.0474872708
 20
159.2865482705
 11
159.8800095065
 21
159.7544044706
  0
LINE
  8
QUILTS
 62
7
  6
CONTINUOUS
 10
47.4062770351
 20
214.573384713
 11
47.0338406535
 21
214.8040774106
  0
LINE
  8
0
 62
7
  6
CONTINUOUS
 10
35.8741242066
 20
231.555423131
 11
36.8630384433
 21
230.7782858288
  0
LINE
  8
0
 62
7
  6
CONTINUOUS
 10
143.8596793874
 20
140.9447836063
 11
142.922625392
 21
141.7837255374
  0
LINE
  8
QUILTS
 62
7
  6
CONTINUOUS
 10
52.4579985403
 20
226.792857198
 11
52.6872055454
 21
226.5475593627
  0
LINE
  8
QUILTS
 62
7
  6
CONTINUOUS
 10
53.0820969659
 20
227.04354636
 11
52.8528899608
 21
227.2888441953
  0
LINE
  8
QUILTS
 62
7
  6
CONTINUOUS
 10
54.414464503
 20
225.714345936
 11
54.6436715081
 21
225.4690481007
  0
LINE
  8
QUILTS
 62
7
  6
CONTINUOUS
 10
55.0385629938
 20
225.965035062
 11
54.8093559234
 21
226.2103329333
  0
LINE
  8
QUILTS
 62
7
  6
CONTINUOUS
 10
58.4631765568
 20
235.1973019866
 11
58.6429828815
 21
234.9137943768
  0
LINE
  8
QUILTS
 62
7
  6
CONTINUOUS
 10
59.1229092107
 20
235.3280564363
 11
58.9431028861
 21
235.6115640461
  0
LINE
  8
QUILTS
 62
7
  6
CONTINUOUS
 10
60.1860247541
 20
233.7750714516
 11
60.3658310787
 21
233.4915638418
  0
LINE
  8
QUILTS
 62
7
  6
CONTINUOUS
 10
60.8457574654
 20
233.9058258538
 11
60.6659510833
 21
234.1893335111
  0
LINE
  8
0
 62
7
  6
CONTINUOUS
 10
50.9526047348
 20
251.667123601
 11
51.6160835342
 21
250.5986248238
  0
LINE
  8
0
 62
7
  6
CONTINUOUS
 10
120.8415624874
 20
130.6965780986
 11
121.4351701726
 21
129.5877392149
  0
LINE
  8
QUILTS
 62
7
  6
CONTINUOUS
 10
61.7399812066
 20
235.1744295983
 11
61.5849320675
 21
235.4721982114
  0
LINE
  8
0
 62
7
  6
CONTINUOUS
 10
72.0003482971
 20
265.4087960526
 11
72.258366324
 21
264.1778125224
  0
LINE
  8
0
 62
7
  6
CONTINUOUS
 10
96.3001228607
 20
127.8302357643
 11
96.4786863882
 21
126.585242262
  0
LINE
  8
QUILTS
 62
7
  6
CONTINUOUS
 10
135.4767272984
 20
242.0862993837
 11
134.910903377
 21
241.5910781358
  0
LINE
  8
QUILTS
 62
7
  6
CONTINUOUS
 10
135.3049093861
 20
241.2504561833
 11
135.8011590456
 21
241.6651991264
  0
LINE
  8
QUILTS
 62
7
  6
CONTINUOUS
 10
46.7393354162
 20
214.2426425844
 11
47.2129369815
 21
213.9790408532
  0
LINE
  8
QUILTS
 62
7
  6
CONTINUOUS
 10
50.4929454769
 20
217.1840970679
 11
50.019344195
 21
217.4476987069
  0
LINE
  8
QUILTS
 62
7
  6
CONTINUOUS
 10
49.8260041414
 20
216.8533548472
 11
50.198440523
 21
216.6226621495
  0
LINE
  8
1_AXIS
 62
2
  6
CONTINUOUS
 10
100.4429250892
 20
199.7341171225
 11
100.4429250892
 21
197.9741171225
  0
LINE
  8
1_AXIS
 62
2
  6
CENTER
 10
100.4429250892
 20
194.4541171225
 11
100.4429250892
 21
123.8291171225
  0
LINE
  8
1_AXIS
 62
2
  6
CENTER
 10
100.4429250892
 20
203.2541171225
 11
100.4429250892
 21
273.8791171225
  0
LINE
  8
QUILTS
 62
7
  6
CONTINUOUS
 10
127.4732200803
 20
249.0743999671
 11
124.9560824878
 21
244.7542126632
  0
LINE
  8
QUILTS
 62
7
  6
CONTINUOUS
 10
125.4961059008
 20
244.4395704641
 11
126.6207844156
 21
246.3698669464
  0
LINE
  8
QUILTS
 62
7
  6
CONTINUOUS
 10
126.9421210912
 20
246.9213801535
 11
127.7454629303
 21
248.3001634288
  0
LINE
  8
QUILTS
 62
7
  6
CONTINUOUS
 10
134.910903377
 20
241.5910781358
 11
134.4238835431
 21
241.0277300026
  0
LINE
  8
QUILTS
 62
7
  6
CONTINUOUS
 10
135.1657608621
 20
241.0894995738
 11
135.3049093861
 21
241.2504561833
  0
LINE
  8
QUILTS
 62
7
  6
CONTINUOUS
 10
134.4792479705
 20
240.1361112236
 11
134.6879707564
 21
240.3775461378
  0
LINE
  8
1_AXIS
 62
2
  6
CONTINUOUS
 10
101.3229250892
 20
198.8541171225
 11
99.5629250892
 21
198.8541171225
  0
LINE
  8
1_AXIS
 62
2
  6
CENTER
 10
96.0429250892
 20
198.8541171225
 11
25.4179250892
 21
198.8541171225
  0
LINE
  8
1_AXIS
 62
2
  6
CENTER
 10
104.8429250892
 20
198.8541171225
 11
175.4679250892
 21
198.8541171225
  0
LINE
  8
QUILTS
 62
7
  6
CONTINUOUS
 10
45.0137157537
 20
198.9637798445
 11
47.140282461
 21
198.8955973039
  0
LINE
  8
QUILTS
 62
7
  6
CONTINUOUS
 10
47.1569729792
 20
199.4161631256
 11
45.0304062719
 21
199.4843456662
  0
LINE
  8
QUILTS
 62
7
  6
CONTINUOUS
 10
45.2050630552
 20
203.3858749943
 11
48.589420381
 21
203.018343995
  0
LINE
  8
QUILTS
 62
7
  6
CONTINUOUS
 10
48.6456507222
 20
203.5361331541
 11
46.2131438109
 21
203.8002960689
  0
LINE
  8
QUILTS
 62
7
  6
CONTINUOUS
 10
45.7900991823
 20
203.8462374398
 11
45.2612933964
 21
203.9036641534
  0
LINE
  8
QUILTS
 62
7
  6
CONTINUOUS
 10
44.105441581
 20
207.5233598088
 11
44.6307933395
 21
207.44005965
  0
LINE
  8
QUILTS
 62
7
  6
CONTINUOUS
 10
45.6814971508
 20
207.2734592857
 11
49.0437486994
 21
206.7403382225
  0
LINE
  8
QUILTS
 62
7
  6
CONTINUOUS
 10
49.1253134168
 20
207.2547450178
 11
45.7630618682
 21
207.7878660809
  0
LINE
  8
QUILTS
 62
7
  6
CONTINUOUS
 10
44.7123580569
 20
207.9544664453
 11
44.1870062985
 21
208.0377666041
  0
LINE
  8
QUILTS
 62
7
  6
CONTINUOUS
 10
47.2129369815
 20
213.9790408532
 11
48.7304106268
 21
213.4854066863
  0
LINE
  8
QUILTS
 62
7
  6
CONTINUOUS
 10
48.9237506804
 20
214.0797505461
 11
47.4062770351
 21
214.573384713
  0
LINE
  8
QUILTS
 62
7
  6
CONTINUOUS
 10
47.3502869889
 20
219.6990699048
 11
51.9345805717
 21
217.7030107007
  0
LINE
  8
QUILTS
 62
7
  6
CONTINUOUS
 10
52.1840879722
 20
218.2760473986
 11
48.1850232876
 21
220.0172905644
  0
LINE
  8
QUILTS
 62
7
  6
CONTINUOUS
 10
49.5947677067
 20
224.6839166284
 11
53.9735250912
 21
222.270105582
  0
LINE
  8
QUILTS
 62
7
  6
CONTINUOUS
 10
53.716261169
 20
223.1255963453
 11
52.3187853789
 21
223.895961589
  0
LINE
  8
QUILTS
 62
7
  6
CONTINUOUS
 10
51.7597951411
 20
224.2041076433
 11
50.4554843253
 21
224.9231152472
  0
LINE
  8
QUILTS
 62
7
  6
CONTINUOUS
 10
55.2588663869
 20
233.6551873775
 11
59.1147649355
 21
230.4720998225
  0
LINE
  8
QUILTS
 62
7
  6
CONTINUOUS
 10
59.0204085132
 20
231.3604387429
 11
57.7898025678
 21
232.376317771
  0
LINE
  8
QUILTS
 62
7
  6
CONTINUOUS
 10
57.2975602586
 20
232.7826693253
 11
56.1489946405
 21
233.7308231418
  0
LINE
  8
QUILTS
 62
7
  6
CONTINUOUS
 10
60.1597057548
 20
235.9937200835
 11
60.3116744236
 21
235.8448078088
  0
LINE
  8
QUILTS
 62
7
  6
CONTINUOUS
 10
61.2234865428
 20
234.9513340562
 11
61.4514395459
 21
234.7279656441
  0
LINE
  8
QUILTS
 62
7
  6
CONTINUOUS
 10
61.8919499286
 20
235.0255172714
 11
61.7399812066
 21
235.1744295983
  0
LINE
  8
QUILTS
 62
7
  6
CONTINUOUS
 10
61.7127452426
 20
240.6756544723
 11
65.0932982446
 21
236.9916537393
  0
LINE
  8
QUILTS
 62
7
  6
CONTINUOUS
 10
65.477049492
 20
237.3437957517
 11
62.09649649
 21
241.0277964847
  0
LINE
  8
QUILTS
 62
7
  6
CONTINUOUS
 10
62.8148554239
 20
241.6699575384
 11
66.098335638
 21
237.8991807373
  0
LINE
  8
QUILTS
 62
7
  6
CONTINUOUS
 10
66.4911260869
 20
238.2412109701
 11
63.2076458728
 21
242.0119877712
  0
LINE
  8
QUILTS
 62
7
  6
CONTINUOUS
 10
68.4390092586
 20
246.0673530418
 11
68.7211844053
 21
245.6164533044
  0
LINE
  8
QUILTS
 62
7
  6
CONTINUOUS
 10
70.6399756793
 20
242.5503346479
 11
71.0914559535
 21
241.8288950049
  0
LINE
  8
QUILTS
 62
7
  6
CONTINUOUS
 10
73.3635397762
 20
248.1669801362
 11
73.7648748448
 21
247.4164868719
  0
LINE
  8
QUILTS
 62
7
  6
CONTINUOUS
 10
73.9648500058
 20
248.3678988839
 11
75.9213580612
 21
244.7092449763
  0
LINE
  8
QUILTS
 62
7
  6
CONTINUOUS
 10
76.4725014248
 20
245.0039753493
 11
74.1146584414
 21
249.4131222583
  0
LINE
  8
QUILTS
 62
7
  6
CONTINUOUS
 10
76.5416476692
 20
246.8619123871
 11
76.6738108325
 21
246.5714146807
  0
LINE
  8
QUILTS
 62
7
  6
CONTINUOUS
 10
75.7553779803
 20
248.8417018084
 11
75.8875411437
 21
248.551204102
  0
LINE
  8
QUILTS
 62
7
  6
CONTINUOUS
 10
77.1478884539
 20
246.7870983048
 11
77.0157252905
 21
247.0775960112
  0
LINE
  8
QUILTS
 62
7
  6
CONTINUOUS
 10
76.317560037
 20
248.8637183202
 11
76.2294512614
 21
249.0573834579
  0
LINE
  8
QUILTS
 62
7
  6
CONTINUOUS
 10
129.6742265555
 20
246.4376394586
 11
129.5135580676
 21
246.1618825975
  0
LINE
  8
QUILTS
 62
7
  6
CONTINUOUS
 10
130.000025368
 20
245.7553215306
 11
130.2142499685
 21
246.1229972595
  0
LINE
  8
QUILTS
 62
7
  6
CONTINUOUS
 10
134.4238835431
 20
241.0277300026
 11
134.0156676994
 21
240.3962548714
  0
LINE
  8
QUILTS
 62
7
  6
CONTINUOUS
 10
136.6580152309
 20
238.6744239011
 11
136.449292445
 21
238.4329889869
  0
LINE
  8
QUILTS
 62
7
  6
CONTINUOUS
 10
136.7737241921
 20
238.0118887296
 11
137.1215955994
 21
238.414280366
  0
LINE
  8
QUILTS
 62
7
  6
CONTINUOUS
 10
45.0971683434
 20
201.566608916
 11
47.4363917066
 21
201.4916081218
  0
LINE
  8
QUILTS
 62
7
  6
CONTINUOUS
 10
47.8783956145
 20
201.9985375457
 11
45.1138588651
 21
202.0871748495
  0
LINE
  8
QUILTS
 62
7
  6
CONTINUOUS
 10
46.8386176293
 20
205.6183953154
 11
48.8480799118
 21
205.4001737715
  0
LINE
  8
QUILTS
 62
7
  6
CONTINUOUS
 10
48.9043102208
 20
205.9179626343
 11
46.8948479383
 21
206.1361841782
  0
LINE
  8
QUILTS
 62
7
  6
CONTINUOUS
 10
48.308530496
 20
217.346989014
 11
49.8260041414
 21
216.8533548472
  0
LINE
  8
QUILTS
 62
7
  6
CONTINUOUS
 10
50.019344195
 20
217.4476987069
 11
48.5018705497
 21
217.9413328738
  0
LINE
  8
QUILTS
 62
7
  6
CONTINUOUS
 10
48.7641620998
 20
222.946277495
 11
52.6656885664
 21
221.2475036986
  0
LINE
  8
QUILTS
 62
7
  6
CONTINUOUS
 10
53.5979630831
 20
221.5232549888
 11
49.0136695003
 21
223.5193141929
  0
LINE
  8
QUILTS
 62
7
  6
CONTINUOUS
 10
52.2716684611
 20
226.8955725494
 11
52.4579985403
 21
226.792857198
  0
LINE
  8
QUILTS
 62
7
  6
CONTINUOUS
 10
54.1349693841
 20
225.8684189631
 11
54.414464503
 21
225.714345936
  0
LINE
  8
QUILTS
 62
7
  6
CONTINUOUS
 10
54.8093559234
 20
226.2103329333
 11
54.3435307253
 21
226.4671213119
  0
LINE
  8
QUILTS
 62
7
  6
CONTINUOUS
 10
52.8528899608
 20
227.2888441953
 11
52.4802295413
 21
227.494275042
  0
LINE
  8
QUILTS
 62
7
  6
CONTINUOUS
 10
58.2990957871
 20
235.3327525047
 11
58.4631765568
 21
235.1973019866
  0
LINE
  8
QUILTS
 62
7
  6
CONTINUOUS
 10
59.9399035994
 20
233.9782472287
 11
60.1860247541
 21
233.7750714516
  0
LINE
  8
QUILTS
 62
7
  6
CONTINUOUS
 10
60.6659510833
 20
234.1893335111
 11
60.2557491589
 21
234.5279598064
  0
LINE
  8
QUILTS
 62
7
  6
CONTINUOUS
 10
58.9431028861
 20
235.6115640461
 11
58.6149411168
 21
235.882465272
  0
LINE
  8
QUILTS
 62
7
  6
CONTINUOUS
 10
62.1342993927
 20
237.7048417839
 11
62.3622523959
 21
237.4814733718
  0
LINE
  8
QUILTS
 62
7
  6
CONTINUOUS
 10
62.66618984
 20
237.1836487181
 11
63.1220958463
 21
236.736911894
  0
LINE
  8
QUILTS
 62
7
  6
CONTINUOUS
 10
63.7145748978
 20
236.8855512466
 11
62.4988253878
 21
238.0768496007
  0
LINE
  8
QUILTS
 62
7
  6
CONTINUOUS
 10
74.6235029703
 20
244.0392664075
 11
74.2848927547
 21
244.5803461556
  0
LINE
  8
QUILTS
 62
7
  6
CONTINUOUS
 10
72.3661014807
 20
247.646464812
 11
71.9710562753
 21
248.2777244444
  0
LINE
  8
QUILTS
 62
7
  6
CONTINUOUS
 10
78.5050168996
 20
250.0926616941
 11
78.5931256752
 21
249.8989965564
  0
LINE
  8
QUILTS
 62
7
  6
CONTINUOUS
 10
79.4809228453
 20
248.1991480919
 11
79.6130860087
 21
247.9086503855
  0
LINE
  8
QUILTS
 62
7
  6
CONTINUOUS
 10
79.1112576843
 20
250.0178476117
 11
78.979094521
 21
250.3083453181
  0
LINE
  8
QUILTS
 62
7
  6
CONTINUOUS
 10
80.0871592898
 20
248.124332035
 11
79.9549961264
 21
248.4148297414
  0
LINE
  8
0
 62
7
  6
CONTINUOUS
 10
104.5857273177
 20
127.8302357643
 11
104.4071637901
 21
126.585242262
  0
LINE
  8
0
 62
7
  6
CONTINUOUS
 10
128.8855018813
 20
265.4087960526
 11
128.6274838544
 21
264.1778125224
  0
LINE
  8
0
 62
7
  6
CONTINUOUS
 10
80.044287691
 20
130.6965780986
 11
79.4506800058
 21
129.5877392149
  0
LINE
  8
0
 62
7
  6
CONTINUOUS
 10
149.9332454435
 20
251.667123601
 11
149.2697666442
 21
250.5986248238
  0
LINE
  8
0
 62
7
  6
CONTINUOUS
 10
57.9632247864
 20
141.7837255374
 11
57.026170791
 21
140.9447836063
  0
LINE
  8
0
 62
7
  6
CONTINUOUS
 10
165.0117259717
 20
231.555423131
 11
164.022811735
 21
230.7782858288
  0
LINE
  8
0
 62
7
  6
CONTINUOUS
 10
41.0058406718
 20
159.7544044706
 11
39.8383629076
 21
159.2865482705
  0
LINE
  8
0
 62
7
  6
CONTINUOUS
 10
172.3022561795
 20
207.4994625365
 11
171.1071841572
 21
207.1074209373
  0
LINE
  8
QUILTS
 62
7
  6
CONTINUOUS
 10
47.140282461
 20
198.8955973039
 11
47.568933951
 21
198.9860739643
  0
LINE
  8
QUILTS
 62
7
  6
CONTINUOUS
 10
48.3070470825
 20
202.0890141043
 11
47.8783956145
 21
201.9985375457
  0
LINE
  8
QUILTS
 62
7
  6
CONTINUOUS
 10
46.2985657559
 20
205.5722640194
 11
46.8386176293
 21
205.6183953154
  0
LINE
  8
QUILTS
 62
7
  6
CONTINUOUS
 10
46.8948479383
 20
206.1361841782
 11
46.3547961292
 21
206.0900534748
  0
LINE
  8
0
 62
7
  6
CONTINUOUS
 10
170.9254905269
 20
215.3074885515
 11
169.6684040424
 21
215.267148445
  0
LINE
  8
0
 62
7
  6
CONTINUOUS
 10
31.217446136
 20
215.267148445
 11
29.9603596514
 21
215.3074885515
  0
LINE
  8
QUILTS
 62
7
  6
CONTINUOUS
 10
49.3606335008
 20
214.0471717127
 11
48.9237506804
 21
214.0797505461
  0
LINE
  8
QUILTS
 62
7
  6
CONTINUOUS
 10
47.8716476757
 20
217.3795678474
 11
48.308530496
 21
217.346989014
  0
LINE
  8
QUILTS
 62
7
  6
CONTINUOUS
 10
48.7304106268
 20
213.4854066863
 11
49.2684583473
 21
213.4199189115
  0
LINE
  8
QUILTS
 62
7
  6
CONTINUOUS
 10
48.5018705497
 20
217.9413328738
 11
47.9638225457
 21
218.0068207408
  0
LINE
  8
0
 62
7
  6
CONTINUOUS
 10
172.3022561795
 20
190.2087717084
 11
171.1071841572
 21
190.6008133076
  0
LINE
  8
0
 62
7
  6
CONTINUOUS
 10
41.0058406718
 20
237.9538297743
 11
39.8383629076
 21
238.4216859744
  0
LINE
  8
QUILTS
 62
7
  6
CONTINUOUS
 10
61.4514395459
 20
234.7279656441
 11
61.8282824695
 21
234.5045429465
  0
LINE
  8
QUILTS
 62
7
  6
CONTINUOUS
 10
64.1674004605
 20
236.5876707347
 11
63.7145748978
 21
236.8855512466
  0
LINE
  8
0
 62
7
  6
CONTINUOUS
 10
165.0117259717
 20
166.152811114
 11
164.022811735
 21
166.9299484161
  0
LINE
  8
0
 62
7
  6
CONTINUOUS
 10
57.026170791
 20
256.7634506386
 11
57.9632247864
 21
255.9245087075
  0
LINE
  8
0
 62
7
  6
CONTINUOUS
 10
149.2697666442
 20
147.1096094211
 11
149.9332454435
 21
146.041110644
  0
LINE
  8
0
 62
7
  6
CONTINUOUS
 10
79.4506800058
 20
268.12049503
 11
80.044287691
 21
267.0116561463
  0
LINE
  8
0
 62
7
  6
CONTINUOUS
 10
128.6274838544
 20
133.5304217225
 11
128.8855018813
 21
132.2994381923
  0
LINE
  8
0
 62
7
  6
CONTINUOUS
 10
104.4071637901
 20
271.1229919829
 11
104.5857273177
 21
269.8779984807
  0
LINE
  8
QUILTS
 62
7
  6
CONTINUOUS
 10
129.7448882444
 20
246.765838029
 11
129.6742265555
 21
246.4376394586
  0
LINE
  8
QUILTS
 62
7
  6
CONTINUOUS
 10
130.2142499685
 20
246.1229972595
 11
130.2849116574
 21
246.4511958299
  0
LINE
  8
QUILTS
 62
7
  6
CONTINUOUS
 10
132.3815204329
 20
239.9426363446
 11
133.9338065657
 21
244.9793213791
  0
LINE
  8
QUILTS
 62
7
  6
CONTINUOUS
 10
132.2766424232
 20
241.5869518124
 11
131.8731044015
 21
240.3061444449
  0
LINE
  8
QUILTS
 62
7
  6
CONTINUOUS
 10
133.3473651115
 20
244.8755064069
 11
132.4393986793
 21
241.9936938993
  0
LINE
  8
QUILTS
 62
7
  6
CONTINUOUS
 10
134.0156676994
 20
240.3962548714
 11
133.8253973015
 21
239.8576157577
  0
LINE
  8
QUILTS
 62
7
  6
CONTINUOUS
 10
137.1215955994
 20
238.414280366
 11
137.3118659486
 21
238.9529194233
  0
LINE
  8
QUILTS
 62
7
  6
CONTINUOUS
 10
134.3493292722
 20
239.8265494241
 11
134.4792479705
 21
240.1361112236
  0
LINE
  8
QUILTS
 62
7
  6
CONTINUOUS
 10
136.7879340267
 20
238.9839858134
 11
136.6580152309
 21
238.6744239011
  0
LINE
  8
QUILTS
 62
7
  6
CONTINUOUS
 10
138.2163315492
 20
239.9991376104
 11
138.3462502475
 21
240.30869941
  0
LINE
  8
QUILTS
 62
7
  6
CONTINUOUS
 10
46.3547961292
 20
206.0900534748
 11
46.0262665702
 21
206.0209514934
  0
LINE
  8
QUILTS
 62
7
  6
CONTINUOUS
 10
49.2684583473
 20
213.4199189115
 11
49.7375648266
 21
213.4863981207
  0
LINE
  8
QUILTS
 62
7
  6
CONTINUOUS
 10
53.805186021
 20
225.9312672541
 11
54.1349693841
 21
225.8684189631
  0
LINE
  8
QUILTS
 62
7
  6
CONTINUOUS
 10
54.3435307253
 20
226.4671213119
 11
54.0137473621
 21
226.5299696028
  0
LINE
  8
QUILTS
 62
7
  6
CONTINUOUS
 10
51.9418849674
 20
226.9584209123
 11
52.2716684611
 21
226.8955725494
  0
LINE
  8
QUILTS
 62
7
  6
CONTINUOUS
 10
52.4802295413
 20
227.494275042
 11
52.1504463086
 21
227.557123261
  0
LINE
  8
QUILTS
 62
7
  6
CONTINUOUS
 10
59.6274674999
 20
234.1010912681
 11
59.9399035994
 21
233.9782472287
  0
LINE
  8
QUILTS
 62
7
  6
CONTINUOUS
 10
60.2557491589
 20
234.5279598064
 11
59.9433130594
 21
234.6508038457
  0
LINE
  8
QUILTS
 62
7
  6
CONTINUOUS
 10
57.9866595727
 20
235.4555966389
 11
58.2990957871
 21
235.3327525047
  0
LINE
  8
QUILTS
 62
7
  6
CONTINUOUS
 10
58.6149411168
 20
235.882465272
 11
58.3025051322
 21
236.0053092166
  0
LINE
  8
QUILTS
 62
7
  6
CONTINUOUS
 10
63.5780019059
 20
236.2901750177
 11
63.8788588131
 21
236.1412067676
  0
LINE
  8
QUILTS
 62
7
  6
CONTINUOUS
 10
64.4682573543
 20
236.4387024976
 11
64.1674004605
 21
236.5876707347
  0
LINE
  8
QUILTS
 62
7
  6
CONTINUOUS
 10
62.4988253878
 20
238.0768496007
 11
62.1979651832
 21
238.2258144059
  0
LINE
  8
QUILTS
 62
7
  6
CONTINUOUS
 10
76.6738108325
 20
246.5714146807
 11
77.0837147189
 21
246.1735256134
  0
LINE
  8
QUILTS
 62
7
  6
CONTINUOUS
 10
79.9549961264
 20
248.4148297414
 11
79.5450965495
 21
248.8127208511
  0
LINE
  8
0
 62
7
  6
CONTINUOUS
 10
128.516701148
 20
134.2914711042
 11
128.5027625904
 21
134.504792229
  0
LINE
  8
0
 62
7
  6
CONTINUOUS
 10
128.5027625904
 20
263.2034420159
 11
128.516701148
 21
263.4167631408
  0
LINE
  8
QUILTS
 62
7
  6
CONTINUOUS
 10
134.2982073982
 20
239.4488669199
 11
134.3493292722
 21
239.8265494241
  0
LINE
  8
0
 62
7
  6
CONTINUOUS
 10
104.7419198446
 20
128.5832781694
 11
104.8017820066
 21
128.7885017237
  0
LINE
  8
0
 62
7
  6
CONTINUOUS
 10
148.8193126525
 20
249.7256732335
 11
148.9053707339
 21
249.9213622529
  0
LINE
  8
0
 62
7
  6
CONTINUOUS
 10
80.4486163273
 20
131.3507854994
 11
80.5750589486
 21
131.5231584938
  0
LINE
  8
0
 62
7
  6
CONTINUOUS
 10
163.300956415
 20
230.1120439999
 11
163.4487541455
 21
230.2664979301
  0
LINE
  8
0
 62
7
  6
CONTINUOUS
 10
58.5669215312
 20
142.2601908663
 11
58.7446937657
 21
142.3789225736
  0
LINE
  8
0
 62
7
  6
CONTINUOUS
 10
170.2009939139
 20
206.7282474671
 11
170.392704706
 21
206.8228368845
  0
LINE
  8
QUILTS
 62
7
  6
CONTINUOUS
 10
49.728575009
 20
214.1465598863
 11
49.3606335008
 21
214.0471717127
  0
LINE
  8
0
 62
7
  6
CONTINUOUS
 10
159.1497593901
 20
237.7125752679
 11
158.9420994976
 21
237.6618056438
  0
LINE
  8
QUILTS
 62
7
  6
CONTINUOUS
 10
47.9638225457
 20
218.0068207408
 11
47.4947161373
 21
217.9403415085
  0
LINE
  8
QUILTS
 62
7
  6
CONTINUOUS
 10
48.1850232876
 20
220.0172905644
 11
53.2237019824
 21
220.663699942
  0
LINE
  8
0
 62
7
  6
CONTINUOUS
 10
32.1986713853
 20
215.3135196401
 11
31.9861706826
 21
215.2902036151
  0
LINE
  8
0
 62
7
  6
CONTINUOUS
 10
168.8996794958
 20
215.2902036151
 11
168.6871787931
 21
215.3135196401
  0
LINE
  8
0
 62
7
  6
CONTINUOUS
 10
41.9437506807
 20
237.6618056438
 11
41.7360907882
 21
237.7125752679
  0
LINE
  8
QUILTS
 62
7
  6
CONTINUOUS
 10
63.8788588131
 20
236.1412067676
 11
64.1037346966
 21
236.0666980867
  0
LINE
  8
QUILTS
 62
7
  6
CONTINUOUS
 10
62.1168224615
 20
234.9510051977
 11
61.8919499286
 21
235.0255172714
  0
LINE
  8
QUILTS
 62
7
  6
CONTINUOUS
 10
61.9094268599
 20
237.7793538576
 11
62.1342993927
 21
237.7048417839
  0
LINE
  8
0
 62
7
  6
CONTINUOUS
 10
170.392704706
 20
190.8853973604
 11
170.2009939139
 21
190.9799867779
  0
LINE
  8
0
 62
7
  6
CONTINUOUS
 10
58.7446937657
 20
255.3293116713
 11
58.5669215312
 21
255.4480433787
  0
LINE
  8
QUILTS
 62
7
  6
CONTINUOUS
 10
75.8875411437
 20
248.551204102
 11
76.2533862711
 21
248.2501456967
  0
LINE
  8
QUILTS
 62
7
  6
CONTINUOUS
 10
78.979094521
 20
250.3083453181
 11
78.5691905421
 21
250.7062345889
  0
LINE
  8
0
 62
7
  6
CONTINUOUS
 10
163.4487541455
 20
167.4417363148
 11
163.300956415
 21
167.596190245
  0
LINE
  8
0
 62
7
  6
CONTINUOUS
 10
80.5750589486
 20
266.1850757512
 11
80.4486163273
 21
266.3574487455
  0
LINE
  8
0
 62
7
  6
CONTINUOUS
 10
148.9053707339
 20
147.786871992
 11
148.8193126525
 21
147.9825610114
  0
LINE
  8
0
 62
7
  6
CONTINUOUS
 10
104.8017820066
 20
268.9197325213
 11
104.7419198446
 21
269.1249560756
  0
LINE
  8
QUILTS
 62
7
  6
CONTINUOUS
 10
130.2849116574
 20
246.4511958299
 11
130.2291244013
 21
246.9761924008
  0
LINE
  8
QUILTS
 62
7
  6
CONTINUOUS
 10
133.8253973015
 20
239.8576157577
 11
133.7835052776
 21
239.3313280917
  0
LINE
  8
QUILTS
 62
7
  6
CONTINUOUS
 10
138.3462502475
 20
240.30869941
 11
138.3881422471
 21
240.8349870478
  0
LINE
  8
QUILTS
 62
7
  6
CONTINUOUS
 10
137.8734401508
 20
240.7174482478
 11
137.8223183256
 21
240.3397658
  0
LINE
  8
0
 62
7
  6
CONTINUOUS
 10
104.3066283943
 20
160.2914135564
 11
139.0056286552
 21
194.9904138173
  0
LINE
  8
QUILTS
 62
7
  6
CONTINUOUS
 10
47.5037058841
 20
217.280179766
 11
47.8716476757
 21
217.3795678474
  0
LINE
  8
QUILTS
 62
7
  6
CONTINUOUS
 10
135.7535497521
 20
237.6282058549
 11
136.2682518727
 21
237.7457446832
  0
LINE
  8
QUILTS
 62
7
  6
CONTINUOUS
 10
136.4969018603
 20
242.4699823993
 11
135.982199764
 21
242.3524435992
  0
LINE
  8
QUILTS
 62
7
  6
CONTINUOUS
 10
52.6656885664
 20
221.2475036986
 11
47.7245476137
 21
220.5586238586
  0
LINE
  8
QUILTS
 62
7
  6
CONTINUOUS
 10
54.0137473621
 20
226.5299696028
 11
53.4902240132
 21
226.4617279692
  0
LINE
  8
QUILTS
 62
7
  6
CONTINUOUS
 10
52.1504463086
 20
227.557123261
 11
51.6269229597
 21
227.4888816274
  0
LINE
  8
QUILTS
 62
7
  6
CONTINUOUS
 10
59.9433130594
 20
234.6508038457
 11
59.4162085477
 21
234.6807112227
  0
LINE
  8
QUILTS
 62
7
  6
CONTINUOUS
 10
58.3025051322
 20
236.0053092166
 11
57.7754006205
 21
236.0352165935
  0
LINE
  8
QUILTS
 62
7
  6
CONTINUOUS
 10
77.6085517406
 20
246.5291777412
 11
77.1478884539
 21
246.7870983048
  0
LINE
  8
QUILTS
 62
7
  6
CONTINUOUS
 10
79.0202595277
 20
248.4570687233
 11
79.4809228453
 21
248.1991480919
  0
LINE
  8
QUILTS
 62
7
  6
CONTINUOUS
 10
76.6393551169
 20
248.6594944584
 11
76.317560037
 21
248.8637183202
  0
LINE
  8
QUILTS
 62
7
  6
CONTINUOUS
 10
78.1832260365
 20
250.2968878018
 11
78.5050168996
 21
250.0926616941
  0
LINE
  8
0
 62
7
  6
CONTINUOUS
 10
139.0056286552
 20
202.7178204276
 11
104.3066283943
 21
237.4168206885
  0
LINE
  8
QUILTS
 62
7
  6
CONTINUOUS
 10
136.7694815899
 20
239.2811899565
 11
136.7879340267
 21
238.9839858134
  0
LINE
  8
QUILTS
 62
7
  6
CONTINUOUS
 10
137.3118659486
 20
238.9529194233
 11
137.2841836862
 21
239.3987287565
  0
LINE
  8
QUILTS
 62
7
  6
CONTINUOUS
 10
53.5182808651
 20
225.8515350771
 11
53.805186021
 21
225.9312672541
  0
LINE
  8
QUILTS
 62
7
  6
CONTINUOUS
 10
51.6549798116
 20
226.8786887353
 11
51.9418849674
 21
226.9584209123
  0
LINE
  8
QUILTS
 62
7
  6
CONTINUOUS
 10
129.2628830809
 20
245.9385679608
 11
128.9757657981
 21
245.8596093578
  0
LINE
  8
QUILTS
 62
7
  6
CONTINUOUS
 10
59.330758588
 20
234.0758799596
 11
59.6274674999
 21
234.1010912681
  0
LINE
  8
QUILTS
 62
7
  6
CONTINUOUS
 10
57.6899506607
 20
235.4303853304
 11
57.9866595727
 21
235.4555966389
  0
LINE
  8
QUILTS
 62
7
  6
CONTINUOUS
 10
134.9754977274
 20
240.5508542795
 11
135.2722472121
 21
240.5755633553
  0
LINE
  8
QUILTS
 62
7
  6
CONTINUOUS
 10
61.8282824695
 20
234.5045429465
 11
62.2749504422
 21
234.5043785042
  0
LINE
  8
QUILTS
 62
7
  6
CONTINUOUS
 10
62.1979651832
 20
238.2258144059
 11
61.9001887862
 21
238.2259262786
  0
LINE
  8
QUILTS
 62
7
  6
CONTINUOUS
 10
77.0837147189
 20
246.1735256134
 11
77.5003236024
 21
246.0124376526
  0
LINE
  8
QUILTS
 62
7
  6
CONTINUOUS
 10
76.2533862711
 20
248.2501456967
 11
76.6699951392
 21
248.0890577698
  0
LINE
  8
QUILTS
 62
7
  6
CONTINUOUS
 10
78.5691905421
 20
250.7062345889
 11
78.152581674
 21
250.8673225158
  0
LINE
  8
QUILTS
 62
7
  6
CONTINUOUS
 10
129.671995412
 20
247.0545548973
 11
129.7448882444
 21
246.765838029
  0
LINE
  8
QUILTS
 62
7
  6
CONTINUOUS
 10
57.7754006205
 20
236.0352165935
 11
57.2640231815
 21
235.9170687174
  0
LINE
  8
QUILTS
 62
7
  6
CONTINUOUS
 10
61.9001887862
 20
238.2259262786
 11
61.5295051879
 21
238.1516345444
  0
LINE
  8
QUILTS
 62
7
  6
CONTINUOUS
 10
128.7444275312
 20
245.2556589849
 11
129.2651142244
 21
245.3216525221
  0
LINE
  8
QUILTS
 62
7
  6
CONTINUOUS
 10
78.0759200091
 20
246.5080583181
 11
77.6085517406
 21
246.5291777412
  0
LINE
  8
QUILTS
 62
7
  6
CONTINUOUS
 10
76.6699951392
 20
248.0890577698
 11
76.9036814436
 21
248.0784990456
  0
LINE
  8
QUILTS
 62
7
  6
CONTINUOUS
 10
78.552886919
 20
248.4781861717
 11
79.0202595277
 21
248.4570687233
  0
LINE
  8
QUILTS
 62
7
  6
CONTINUOUS
 10
79.033669553
 20
248.9306708684
 11
78.7999875889
 21
248.9412315673
  0
LINE
  8
QUILTS
 62
7
  6
CONTINUOUS
 10
135.795441776
 20
238.154493521
 11
135.4198882037
 21
238.1979113305
  0
LINE
  8
QUILTS
 62
7
  6
CONTINUOUS
 10
135.2722472121
 20
240.5755633553
 11
135.6478007845
 21
240.5321455459
  0
LINE
  8
QUILTS
 62
7
  6
CONTINUOUS
 10
135.9168680067
 20
241.0026639549
 11
135.1657608621
 21
241.0894995738
  0
LINE
  8
QUILTS
 62
7
  6
CONTINUOUS
 10
136.4550098607
 20
241.9436947614
 11
136.830563433
 21
241.9002769519
  0
LINE
  8
QUILTS
 62
7
  6
CONTINUOUS
 10
77.5003236024
 20
246.0124376526
 11
78.1065643987
 21
245.9376235448
  0
LINE
  8
QUILTS
 62
7
  6
CONTINUOUS
 10
78.152581674
 20
250.8673225158
 11
77.5463452295
 21
250.9421385727
  0
LINE
  8
QUILTS
 62
7
  6
CONTINUOUS
 10
135.1508137243
 20
237.7273991091
 11
135.7535497521
 21
237.6282058549
  0
LINE
  8
QUILTS
 62
7
  6
CONTINUOUS
 10
137.0996306553
 20
242.3707953609
 11
136.4969018603
 21
242.4699823993
  0
LINE
  8
QUILTS
 62
7
  6
CONTINUOUS
 10
77.1507777732
 20
248.5415424665
 11
76.6393551169
 21
248.6594944584
  0
LINE
  8
QUILTS
 62
7
  6
CONTINUOUS
 10
79.5450965495
 20
248.8127208511
 11
79.033669553
 21
248.9306708684
  0
LINE
  8
QUILTS
 62
7
  6
CONTINUOUS
 10
77.67179904
 20
250.4148378191
 11
78.1832260365
 21
250.2968878018
  0
LINE
  8
QUILTS
 62
7
  6
CONTINUOUS
 10
130.2291244013
 20
246.9761924008
 11
130.0297743838
 21
247.4617120708
  0
LINE
  8
QUILTS
 62
7
  6
CONTINUOUS
 10
133.7835052776
 20
239.3313280917
 11
133.9687884825
 21
238.7492712038
  0
LINE
  8
QUILTS
 62
7
  6
CONTINUOUS
 10
137.2841836862
 20
239.3987287565
 11
137.0988932485
 21
239.9807918603
  0
LINE
  8
QUILTS
 62
7
  6
CONTINUOUS
 10
138.3881422471
 20
240.8349870478
 11
138.2028590239
 21
241.4170439146
  0
LINE
  8
QUILTS
 62
7
  6
CONTINUOUS
 10
134.3954639226
 20
239.0835358915
 11
134.2982073982
 21
239.4488669199
  0
LINE
  8
QUILTS
 62
7
  6
CONTINUOUS
 10
136.6722250655
 20
239.6465209849
 11
136.7694815899
 21
239.2811899565
  0
LINE
  8
QUILTS
 62
7
  6
CONTINUOUS
 10
137.7761836264
 20
241.0827792762
 11
137.8734401508
 21
240.7174482478
  0
LINE
  8
QUILTS
 62
7
  6
CONTINUOUS
 10
78.1065643987
 20
245.9376235448
 11
78.6246920714
 21
246.056472617
  0
LINE
  8
QUILTS
 62
7
  6
CONTINUOUS
 10
77.5463452295
 20
250.9421385727
 11
77.0282132204
 21
250.8232875174
  0
LINE
  8
QUILTS
 62
7
  6
CONTINUOUS
 10
78.4992382301
 20
246.5837734384
 11
78.0759200091
 21
246.5080583181
  0
LINE
  8
QUILTS
 62
7
  6
CONTINUOUS
 10
78.1295730383
 20
248.4024730261
 11
78.552886919
 21
248.4781861717
  0
LINE
  8
QUILTS
 62
7
  6
CONTINUOUS
 10
77.5740959942
 20
248.6172575868
 11
77.1507777732
 21
248.5415424665
  0
LINE
  8
QUILTS
 62
7
  6
CONTINUOUS
 10
77.2484851593
 20
250.3391246734
 11
77.67179904
 21
250.4148378191
  0
LINE
  8
QUILTS
 62
7
  6
CONTINUOUS
 10
128.9757657981
 20
245.8596093578
 11
128.652197979
 21
245.9250115895
  0
LINE
  8
QUILTS
 62
7
  6
CONTINUOUS
 10
128.2408546545
 20
245.4259403493
 11
128.7444275312
 21
245.2556589849
  0
LINE
  8
QUILTS
 62
7
  6
CONTINUOUS
 10
135.4198882037
 20
238.1979113305
 11
135.1139088934
 21
238.3218074446
  0
LINE
  8
QUILTS
 62
7
  6
CONTINUOUS
 10
135.6478007845
 20
240.5321455459
 11
135.9537800948
 21
240.4082494317
  0
LINE
  8
QUILTS
 62
7
  6
CONTINUOUS
 10
136.830563433
 20
241.9002769519
 11
137.1365427433
 21
241.7763808377
  0
LINE
  8
QUILTS
 62
7
  6
CONTINUOUS
 10
134.6872334471
 20
237.9875427499
 11
135.1508137243
 21
237.7273991091
  0
LINE
  8
QUILTS
 62
7
  6
CONTINUOUS
 10
136.3804554923
 20
240.7425140701
 11
135.9168680067
 21
241.0026639549
  0
LINE
  8
QUILTS
 62
7
  6
CONTINUOUS
 10
137.5632181409
 20
242.1106454761
 11
137.0996306553
 21
242.3707953609
  0
LINE
  8
QUILTS
 62
7
  6
CONTINUOUS
 10
124.9560824878
 20
244.7542126632
 11
125.4961059008
 21
244.4395704641
  0
LINE
  8
QUILTS
 62
7
  6
CONTINUOUS
 10
126.6207844156
 20
246.3698669464
 11
128.2408546545
 21
245.4259403493
  0
LINE
  8
QUILTS
 62
7
  6
CONTINUOUS
 10
128.652197979
 20
245.9250115895
 11
126.9421210912
 21
246.9213801535
  0
LINE
  8
QUILTS
 62
7
  6
CONTINUOUS
 10
128.9920776375
 20
242.3660255289
 11
129.5004936689
 21
242.0025174286
  0
LINE
  8
QUILTS
 62
7
  6
CONTINUOUS
 10
131.8731044015
 20
240.3061444449
 11
132.3815204329
 21
239.9426363446
  0
LINE
  8
QUILTS
 62
7
  6
CONTINUOUS
 10
130.5819249044
 20
242.7986436312
 11
132.2766424232
 21
241.5869518124
  0
LINE
  8
QUILTS
 62
7
  6
CONTINUOUS
 10
132.4393986793
 20
241.9936938993
 11
130.9141505851
 21
243.0842182002
  0
LINE
  8
QUILTS
 62
7
  6
CONTINUOUS
 10
134.293227438
 20
238.3281647024
 11
134.6872334471
 21
237.9875427499
  0
LINE
  8
QUILTS
 62
7
  6
CONTINUOUS
 10
135.1139088934
 20
238.3218074446
 11
134.562294709
 21
238.7986831678
  0
LINE
  8
QUILTS
 62
7
  6
CONTINUOUS
 10
135.9537800948
 20
240.4082494317
 11
136.5053942791
 21
239.9313737085
  0
LINE
  8
QUILTS
 62
7
  6
CONTINUOUS
 10
136.7744615014
 20
240.4018921176
 11
136.3804554923
 21
240.7425140701
  0
LINE
  8
QUILTS
 62
7
  6
CONTINUOUS
 10
137.8223183256
 20
240.3397658
 11
138.2163315492
 21
239.9991376104
  0
LINE
  8
QUILTS
 62
7
  6
CONTINUOUS
 10
130.0297743838
 20
247.4617120708
 11
129.6333137323
 21
247.8158311708
  0
LINE
  8
QUILTS
 62
7
  6
CONTINUOUS
 10
129.4555398181
 20
247.3037948647
 11
129.671995412
 21
247.0545548973
  0
LINE
  8
QUILTS
 62
7
  6
CONTINUOUS
 10
133.9687884825
 20
238.7492712038
 11
134.293227438
 21
238.3281647024
  0
LINE
  8
QUILTS
 62
7
  6
CONTINUOUS
 10
137.0988932485
 20
239.9807918603
 11
136.7744615014
 21
240.4018921176
  0
LINE
  8
QUILTS
 62
7
  6
CONTINUOUS
 10
138.2028590239
 20
241.4170439146
 11
137.8784200623
 21
241.8381504089
  0
LINE
  8
QUILTS
 62
7
  6
CONTINUOUS
 10
134.562294709
 20
238.7986831678
 11
134.3954639226
 21
239.0835358915
  0
LINE
  8
QUILTS
 62
7
  6
CONTINUOUS
 10
136.5053942791
 20
239.9313737085
 11
136.6722250655
 21
239.6465209849
  0
LINE
  8
QUILTS
 62
7
  6
CONTINUOUS
 10
137.6093528401
 20
241.3676319999
 11
137.7761836264
 21
241.0827792762
  0
LINE
  8
QUILTS
 62
7
  6
CONTINUOUS
 10
127.7454629303
 20
248.3001634288
 11
129.4555398181
 21
247.3037948647
  0
LINE
  8
QUILTS
 62
7
  6
CONTINUOUS
 10
129.6333137323
 20
247.8158311708
 11
127.4732200803
 21
249.0743999671
  0
LINE
  8
QUILTS
 62
7
  6
CONTINUOUS
 10
133.9338065657
 20
244.9793213791
 11
133.2559211098
 21
245.4639969972
  0
LINE
  8
QUILTS
 62
7
  6
CONTINUOUS
 10
137.1365427433
 20
241.7763808377
 11
137.6093528401
 21
241.3676319999
  0
LINE
  8
QUILTS
 62
7
  6
CONTINUOUS
 10
137.8784200623
 20
241.8381504089
 11
137.5632181409
 21
242.1106454761
  0
LINE
  8
0
 62
7
  6
CONTINUOUS
 10
172.8460799274
 20
189.3444486488
 11
171.7321335866
 21
183.0269450183
  0
LINE
  8
0
 62
7
  6
CONTINUOUS
 10
165.2271372379
 20
165.1546144367
 11
162.0196565844
 21
159.5990949804
  0
LINE
  8
0
 62
7
  6
CONTINUOUS
 10
149.7942624501
 20
145.0294376001
 11
144.880116988
 21
140.9059799553
  0
LINE
  8
0
 62
7
  6
CONTINUOUS
 10
122.3807962256
 20
129.202265496
 11
128.4088880285
 21
131.3963114816
  0
LINE
  8
0
 62
7
  6
CONTINUOUS
 10
103.6504057427
 20
271.8086419503
 11
97.2354444357
 21
271.8086419503
  0
LINE
  8
0
 62
7
  6
CONTINUOUS
 10
128.4088880285
 20
266.3119227633
 11
122.3807962256
 21
268.505968749
  0
LINE
  8
0
 62
7
  6
CONTINUOUS
 10
149.7942624501
 20
252.6787966448
 11
144.880116988
 21
256.8022542896
  0
LINE
  8
0
 62
7
  6
CONTINUOUS
 10
162.0196565844
 20
238.1091392645
 11
165.2271372379
 21
232.5536198083
  0
LINE
  8
0
 62
7
  6
CONTINUOUS
 10
171.7321335866
 20
214.6812892266
 11
172.8460799274
 21
208.3637855962
  0
LINE
  8
0
 62
7
  6
CONTINUOUS
 10
28.0329573037
 20
72.9434175171
 11
28.038151952
 21
72.8715282228
  0
LINE
  8
2_FEATURE
 62
7
  6
CONTINUOUS
 10
28.0329578425
 20
79.5256322455
 11
28.0329578425
 21
72.9433035452
  0
LINE
  8
0
 62
7
  6
CONTINUOUS
 10
28.037829211
 20
79.5951498255
 11
28.0329573037
 21
79.5255182735
  0
POLYLINE
  8
0
 62
7
  6
CONTINUOUS
 66
1
 70
0
  0
VERTEX
  8
0
 62
7
  6
CONTINUOUS
 10
28.038151952
 20
72.8715282228
  0
VERTEX
  8
0
 62
7
  6
CONTINUOUS
 10
28.0581280881
 20
72.7867674092
  0
VERTEX
  8
0
 62
7
  6
CONTINUOUS
 10
28.0913009974
 20
72.7090146387
  0
VERTEX
  8
0
 62
7
  6
CONTINUOUS
 10
28.1353920373
 20
72.6401826785
  0
VERTEX
  8
0
 62
7
  6
CONTINUOUS
 10
28.1878997843
 20
72.5815455062
  0
VERTEX
  8
0
 62
7
  6
CONTINUOUS
 10
28.2462477365
 20
72.5337550653
  0
VERTEX
  8
0
 62
7
  6
CONTINUOUS
 10
28.3079406174
 20
72.4968655207
  0
VERTEX
  8
0
 62
7
  6
CONTINUOUS
 10
28.3698261925
 20
72.4707034484
  0
VERTEX
  8
0
 62
7
  6
CONTINUOUS
 10
28.4266439296
 20
72.454705178
  0
SEQEND
  0
LINE
  8
0
 62
7
  6
CONTINUOUS
 10
35.5684351996
 20
72.9406858489
 11
35.5702675462
 21
72.8978992223
  0
LINE
  8
2_FEATURE
 62
7
  6
CONTINUOUS
 10
35.5684338541
 20
79.5283567752
 11
35.5684338541
 21
72.9405790155
  0
LINE
  8
0
 62
7
  6
CONTINUOUS
 10
35.5702727269
 20
79.5710969039
 11
35.5684351996
 21
79.5282499419
  0
POLYLINE
  8
0
 62
7
  6
CONTINUOUS
 66
1
 70
0
  0
VERTEX
  8
0
 62
7
  6
CONTINUOUS
 10
35.5702675462
 20
72.8978992223
  0
VERTEX
  8
0
 62
7
  6
CONTINUOUS
 10
35.6020634503
 20
72.7603201667
  0
VERTEX
  8
0
 62
7
  6
CONTINUOUS
 10
35.666636047
 20
72.6429112307
  0
VERTEX
  8
0
 62
7
  6
CONTINUOUS
 10
35.7531110978
 20
72.5523248701
  0
VERTEX
  8
0
 62
7
  6
CONTINUOUS
 10
35.8497840363
 20
72.4904428644
  0
VERTEX
  8
0
 62
7
  6
CONTINUOUS
 10
35.9415644327
 20
72.455801114
  0
VERTEX
  8
0
 62
7
  6
CONTINUOUS
 10
36.0095699885
 20
72.441013173
  0
SEQEND
  0
LINE
  8
1_AXIS
 62
7
  6
CONTINUOUS
 10
40.4429250892
 20
86.7344678954
 11
40.4429250892
 21
81.2344678954
  0
LINE
  8
1_AXIS
 62
7
  6
CONTINUOUS
 10
40.4429250892
 20
71.2344678954
 11
40.4429250892
 21
65.7344678954
  0
LINE
  8
2_FEATURE
 62
7
  6
CONTINUOUS
 10
50.8322391474
 20
79.5338257797
 11
50.8322391474
 21
72.935110011
  0
POLYLINE
  8
0
 62
7
  6
CONTINUOUS
 66
1
 70
0
  0
VERTEX
  8
0
 62
7
  6
CONTINUOUS
 10
50.8322421933
 20
72.9351584897
  0
VERTEX
  8
0
 62
7
  6
CONTINUOUS
 10
50.832964798
 20
72.9620640861
  0
VERTEX
  8
0
 62
7
  6
CONTINUOUS
 10
50.8444930905
 20
72.8250129965
  0
VERTEX
  8
0
 62
7
  6
CONTINUOUS
 10
50.891824192
 20
72.6981031594
  0
VERTEX
  8
0
 62
7
  6
CONTINUOUS
 10
50.9677379157
 20
72.5922906036
  0
VERTEX
  8
0
 62
7
  6
CONTINUOUS
 10
51.01308986
 20
72.5494644991
  0
VERTEX
  8
0
 62
7
  6
CONTINUOUS
 10
51.1092664614
 20
72.4862397212
  0
VERTEX
  8
0
 62
7
  6
CONTINUOUS
 10
51.2007377861
 20
72.4500683282
  0
VERTEX
  8
0
 62
7
  6
CONTINUOUS
 10
51.2818690006
 20
72.4313803869
  0
VERTEX
  8
0
 62
7
  6
CONTINUOUS
 10
51.2971025297
 20
72.4287960983
  0
SEQEND
  0
POLYLINE
  8
0
 62
7
  6
CONTINUOUS
 66
1
 70
0
  0
VERTEX
  8
0
 62
7
  6
CONTINUOUS
 10
71.9833340233
 20
72.9274935169
  0
VERTEX
  8
0
 62
7
  6
CONTINUOUS
 10
71.9916530002
 20
72.8364828432
  0
VERTEX
  8
0
 62
7
  6
CONTINUOUS
 10
72.0481058546
 20
72.6808068962
  0
VERTEX
  8
0
 62
7
  6
CONTINUOUS
 10
72.1436189167
 20
72.5595319726
  0
VERTEX
  8
0
 62
7
  6
CONTINUOUS
 10
72.2575097165
 20
72.4793661508
  0
VERTEX
  8
0
 62
7
  6
CONTINUOUS
 10
72.2966484482
 20
72.4610893189
  0
SEQEND
  0
LINE
  8
2_FEATURE
 62
7
  6
CONTINUOUS
 10
71.9833335343
 20
79.5414536206
 11
71.9833335343
 21
72.9274821701
  0
LINE
  8
0
 62
7
  6
CONTINUOUS
 10
72.5812803149
 20
80.136113479
 11
72.5609070609
 21
80.118643455
  0
POLYLINE
  8
0
 62
7
  6
CONTINUOUS
 66
1
 70
0
  0
VERTEX
  8
0
 62
7
  6
CONTINUOUS
 10
172.4506458929
 20
72.4528979746
  0
VERTEX
  8
0
 62
7
  6
CONTINUOUS
 10
172.5040428039
 20
72.4667277249
  0
VERTEX
  8
0
 62
7
  6
CONTINUOUS
 10
172.5618294311
 20
72.4891134621
  0
VERTEX
  8
0
 62
7
  6
CONTINUOUS
 10
172.5914370888
 20
72.5039479732
  0
VERTEX
  8
0
 62
7
  6
CONTINUOUS
 10
172.6500480933
 20
72.5412706687
  0
VERTEX
  8
0
 62
7
  6
CONTINUOUS
 10
172.7054570546
 20
72.5888572829
  0
VERTEX
  8
0
 62
7
  6
CONTINUOUS
 10
172.7553468639
 20
72.6467037379
  0
VERTEX
  8
0
 62
7
  6
CONTINUOUS
 10
172.7973115379
 20
72.7142975052
  0
VERTEX
  8
0
 62
7
  6
CONTINUOUS
 10
172.828953546
 20
72.7905539628
  0
VERTEX
  8
0
 62
7
  6
CONTINUOUS
 10
172.8480201209
 20
72.8737868075
  0
SEQEND
  0
LINE
  8
0
 62
7
  6
CONTINUOUS
 10
72.5601115403
 20
72.3506913018
 11
72.5782284755
 21
72.3350464392
  0
LINE
  8
0
 62
7
  6
CONTINUOUS
 10
72.7322499896
 20
80.2117222186
 11
72.5812803149
 21
80.136113479
  0
POLYLINE
  8
0
 62
7
  6
CONTINUOUS
 66
1
 70
0
  0
VERTEX
  8
0
 62
7
  6
CONTINUOUS
 10
72.2965741461
 20
80.0078153616
  0
VERTEX
  8
0
 62
7
  6
CONTINUOUS
 10
72.2615320416
 20
79.9916303592
  0
VERTEX
  8
0
 62
7
  6
CONTINUOUS
 10
72.146311876
 20
79.9118957857
  0
VERTEX
  8
0
 62
7
  6
CONTINUOUS
 10
72.0494160196
 20
79.7904385557
  0
VERTEX
  8
0
 62
7
  6
CONTINUOUS
 10
71.9919198589
 20
79.6338888244
  0
VERTEX
  8
0
 62
7
  6
CONTINUOUS
 10
71.9833340234
 20
79.5414422401
  0
SEQEND
  0
LINE
  8
0
 62
7
  6
CONTINUOUS
 10
72.5687209285
 20
80.122139524
 11
72.5549805195
 21
80.1159918108
  0
LINE
  8
0
 62
7
  6
CONTINUOUS
 10
72.5547094781
 20
80.1158784484
 11
72.2965843345
 21
80.0078210645
  0
POLYLINE
  8
0
 62
7
  6
CONTINUOUS
 66
1
 70
0
  0
VERTEX
  8
0
 62
7
  6
CONTINUOUS
 10
164.8752794707
 20
72.440843626
  0
VERTEX
  8
0
 62
7
  6
CONTINUOUS
 10
164.9437801759
 20
72.4556619212
  0
VERTEX
  8
0
 62
7
  6
CONTINUOUS
 10
165.0360021276
 20
72.4904117053
  0
VERTEX
  8
0
 62
7
  6
CONTINUOUS
 10
165.1328335284
 20
72.5524028736
  0
VERTEX
  8
0
 62
7
  6
CONTINUOUS
 10
165.2193301075
 20
72.643069385
  0
VERTEX
  8
0
 62
7
  6
CONTINUOUS
 10
165.283857607
 20
72.7605038963
  0
VERTEX
  8
0
 62
7
  6
CONTINUOUS
 10
165.3155947933
 20
72.8980292321
  0
VERTEX
  8
0
 62
7
  6
CONTINUOUS
 10
165.3174162995
 20
72.9406904137
  0
SEQEND
  0
POLYLINE
  8
0
 62
7
  6
CONTINUOUS
 66
1
 70
0
  0
VERTEX
  8
0
 62
7
  6
CONTINUOUS
 10
28.4266439296
 20
72.454705178
  0
VERTEX
  8
0
 62
7
  6
CONTINUOUS
 10
28.4693011668
 20
72.4470972301
  0
VERTEX
  8
0
 62
7
  6
CONTINUOUS
 10
28.5002055539
 20
72.4432401016
  0
VERTEX
  8
0
 62
7
  6
CONTINUOUS
 10
28.5391668223
 20
72.4390797472
  0
VERTEX
  8
0
 62
7
  6
CONTINUOUS
 10
28.5911711034
 20
72.4339417523
  0
SEQEND
  0
LINE
  8
0
 62
7
  6
CONTINUOUS
 10
72.2965843329
 20
72.461114727
 11
72.5547094781
 21
72.3530573423
  0
LINE
  8
0
 62
7
  6
CONTINUOUS
 10
72.5549895541
 20
72.352940205
 11
72.5652441771
 21
72.3484377223
  0
LINE
  8
0
 62
7
  6
CONTINUOUS
 10
72.5782284755
 20
72.3350464392
 11
72.7293523137
 21
72.2581193806
  0
LINE
  8
0
 62
7
  6
CONTINUOUS
 10
148.548491748
 20
72.2535356959
 11
148.5485732342
 21
72.2535518648
  0
POLYLINE
  8
0
 62
7
  6
CONTINUOUS
 66
1
 70
0
  0
VERTEX
  8
0
 62
7
  6
CONTINUOUS
 10
148.5485732342
 20
72.2535518648
  0
VERTEX
  8
0
 62
7
  6
CONTINUOUS
 10
148.6477836555
 20
72.2726165887
  0
VERTEX
  8
0
 62
7
  6
CONTINUOUS
 10
148.7976333471
 20
72.2994281275
  0
SEQEND
  0
LINE
  8
0
 62
7
  6
CONTINUOUS
 10
148.4965037904
 20
72.244598436
 11
148.5484917242
 21
72.2535358155
  0
POLYLINE
  8
0
 62
7
  6
CONTINUOUS
 66
1
 70
0
  0
VERTEX
  8
0
 62
7
  6
CONTINUOUS
 10
149.58875309
 20
72.4287970503
  0
VERTEX
  8
0
 62
7
  6
CONTINUOUS
 10
149.6015687139
 20
72.4309567289
  0
VERTEX
  8
0
 62
7
  6
CONTINUOUS
 10
149.6827014207
 20
72.4493596838
  0
VERTEX
  8
0
 62
7
  6
CONTINUOUS
 10
149.7744464778
 20
72.4851632332
  0
VERTEX
  8
0
 62
7
  6
CONTINUOUS
 10
149.8711549761
 20
72.5481327132
  0
VERTEX
  8
0
 62
7
  6
CONTINUOUS
 10
149.916827576
 20
72.5909228292
  0
VERTEX
  8
0
 62
7
  6
CONTINUOUS
 10
149.9933553023
 20
72.696854461
  0
VERTEX
  8
0
 62
7
  6
CONTINUOUS
 10
150.0411588163
 20
72.8241283387
  0
VERTEX
  8
0
 62
7
  6
CONTINUOUS
 10
150.0529041797
 20
72.96174034
  0
VERTEX
  8
0
 62
7
  6
CONTINUOUS
 10
150.0536095864
 20
72.9351560694
  0
SEQEND
  0
LINE
  8
0
 62
7
  6
CONTINUOUS
 10
148.7976333471
 20
72.2994281275
 11
148.9253004834
 21
72.3207883496
  0
LINE
  8
0
 62
7
  6
CONTINUOUS
 10
148.9253103649
 20
72.3207899584
 11
149.588840197
 21
72.4288108088
  0
LINE
  8
0
 62
7
  6
CONTINUOUS
 10
164.8114646167
 20
72.4316314785
 11
164.8752794707
 21
72.440843626
  0
POLYLINE
  8
0
 62
7
  6
CONTINUOUS
 66
1
 70
0
  0
VERTEX
  8
0
 62
7
  6
CONTINUOUS
 10
172.387051794
 20
72.4434001065
  0
VERTEX
  8
0
 62
7
  6
CONTINUOUS
 10
172.4184683199
 20
72.4473708276
  0
VERTEX
  8
0
 62
7
  6
CONTINUOUS
 10
172.4629948993
 20
72.4555533088
  0
VERTEX
  8
0
 62
7
  6
CONTINUOUS
 10
172.5185040059
 20
72.4715683711
  0
VERTEX
  8
0
 62
7
  6
CONTINUOUS
 10
172.5775996094
 20
72.496709359
  0
VERTEX
  8
0
 62
7
  6
CONTINUOUS
 10
172.6376638825
 20
72.532404674
  0
VERTEX
  8
0
 62
7
  6
CONTINUOUS
 10
172.6953716774
 20
72.5791035349
  0
VERTEX
  8
0
 62
7
  6
CONTINUOUS
 10
172.7479288024
 20
72.6368944245
  0
VERTEX
  8
0
 62
7
  6
CONTINUOUS
 10
172.7925660134
 20
72.7053151839
  0
VERTEX
  8
0
 62
7
  6
CONTINUOUS
 10
172.826532651
 20
72.7832067082
  0
VERTEX
  8
0
 62
7
  6
CONTINUOUS
 10
172.847277256
 20
72.8686878483
  0
VERTEX
  8
0
 62
7
  6
CONTINUOUS
 10
172.8528928746
 20
72.9434175169
  0
SEQEND
  0
POLYLINE
  8
0
 62
7
  6
CONTINUOUS
 66
1
 70
0
  0
VERTEX
  8
0
 62
7
  6
CONTINUOUS
 10
172.3813018582
 20
72.4427522276
  0
VERTEX
  8
0
 62
7
  6
CONTINUOUS
 10
172.4118150992
 20
72.4464442248
  0
VERTEX
  8
0
 62
7
  6
CONTINUOUS
 10
172.4506458929
 20
72.4528979746
  0
SEQEND
  0
LINE
  8
0
 62
7
  6
CONTINUOUS
 10
164.7570744513
 20
72.425266333
 11
164.8114646167
 21
72.4316314785
  0
LINE
  8
0
 62
7
  6
CONTINUOUS
 10
163.1520978285
 20
72.247424889
 11
163.5726260574
 21
72.2956632755
  0
LINE
  8
0
 62
7
  6
CONTINUOUS
 10
163.5726260574
 20
72.2956632755
 11
164.7570885998
 21
72.4252677179
  0
LINE
  8
0
 62
7
  6
CONTINUOUS
 10
172.3419595562
 20
72.4385989883
 11
172.387051794
 21
72.4434001065
  0
LINE
  8
0
 62
7
  6
CONTINUOUS
 10
163.0985548028
 20
72.2418718574
 11
163.1520939121
 21
72.2474245456
  0
LINE
  8
0
 62
7
  6
CONTINUOUS
 10
172.2900804941
 20
72.4335003
 11
172.3481457668
 21
72.4392293377
  0
LINE
  8
0
 62
7
  6
CONTINUOUS
 10
170.2249454621
 20
72.2460751784
 11
170.9963245683
 21
72.3163257489
  0
LINE
  8
0
 62
7
  6
CONTINUOUS
 10
170.9963244293
 20
72.3163257228
 11
172.2962769771
 21
72.4340955386
  0
LINE
  8
1_AXIS
 62
7
  6
CONTINUOUS
 10
158.4429250892
 20
63.7344678954
 11
42.4429250892
 21
63.7344678954
  0
POLYLINE
  8
0
 62
7
  6
CONTINUOUS
 66
1
 70
0
  0
VERTEX
  8
0
 62
7
  6
CONTINUOUS
 10
30.6609045679
 20
72.246075308
  0
VERTEX
  8
0
 62
7
  6
CONTINUOUS
 10
30.7145469821
 20
72.2416734333
  0
VERTEX
  8
0
 62
7
  6
CONTINUOUS
 10
30.85132704
 20
72.2351766894
  0
VERTEX
  8
0
 62
7
  6
CONTINUOUS
 10
30.9133490862
 20
72.2344680364
  0
SEQEND
  0
LINE
  8
0
 62
7
  6
CONTINUOUS
 10
28.5911711034
 20
72.4339417523
 11
30.6609046825
 21
72.2460751891
  0
LINE
  8
0
 62
7
  6
CONTINUOUS
 10
37.7337556619
 20
72.2474246169
 11
37.7814127575
 21
72.2424071338
  0
POLYLINE
  8
0
 62
7
  6
CONTINUOUS
 66
1
 70
0
  0
VERTEX
  8
0
 62
7
  6
CONTINUOUS
 10
36.1287615793
 20
72.4252677178
  0
VERTEX
  8
0
 62
7
  6
CONTINUOUS
 10
37.5536013511
 20
72.2684147571
  0
VERTEX
  8
0
 62
7
  6
CONTINUOUS
 10
37.7337523531
 20
72.2474248928
  0
SEQEND
  0
LINE
  8
0
 62
7
  6
CONTINUOUS
 10
36.07257024
 20
72.4318614842
 11
36.1287752848
 21
72.4252663547
  0
LINE
  8
0
 62
7
  6
CONTINUOUS
 10
36.0095699885
 20
72.441013173
 11
36.07257024
 21
72.4318614842
  0
LINE
  8
0
 62
7
  6
CONTINUOUS
 10
51.2970099824
 20
72.4288108086
 11
52.0848715173
 21
72.3000037121
  0
LINE
  8
0
 62
7
  6
CONTINUOUS
 10
52.3373544191
 20
72.2535366158
 11
52.3843249853
 21
72.2453410282
  0
POLYLINE
  8
0
 62
7
  6
CONTINUOUS
 66
1
 70
0
  0
VERTEX
  8
0
 62
7
  6
CONTINUOUS
 10
52.0848715173
 20
72.3000037121
  0
VERTEX
  8
0
 62
7
  6
CONTINUOUS
 10
52.2350518748
 20
72.2731778001
  0
VERTEX
  8
0
 62
7
  6
CONTINUOUS
 10
52.3372778805
 20
72.2535516758
  0
SEQEND
  0
LINE
  8
0
 62
7
  6
CONTINUOUS
 10
52.3373544191
 20
72.2535366158
 11
52.337277905
 21
72.2535517984
  0
LINE
  8
0
 62
7
  6
CONTINUOUS
 10
128.0033265528
 20
72.2344680035
 11
128.1536000091
 21
72.2572135121
  0
LINE
  8
0
 62
7
  6
CONTINUOUS
 10
148.3933630877
 20
72.2351315175
 11
148.4965037904
 21
72.244598436
  0
LINE
  8
0
 62
7
  6
CONTINUOUS
 10
148.3581166656
 20
72.2344680091
 11
148.3933630877
 21
72.2351315175
  0
POLYLINE
  8
0
 62
7
  6
CONTINUOUS
 66
1
 70
0
  0
VERTEX
  8
0
 62
7
  6
CONTINUOUS
 10
162.9337754284
 20
72.2344680015
  0
VERTEX
  8
0
 62
7
  6
CONTINUOUS
 10
162.9805140087
 20
72.2350679927
  0
VERTEX
  8
0
 62
7
  6
CONTINUOUS
 10
163.0985548028
 20
72.2418718574
  0
SEQEND
  0
POLYLINE
  8
0
 62
7
  6
CONTINUOUS
 66
1
 70
0
  0
VERTEX
  8
0
 62
7
  6
CONTINUOUS
 10
169.9725146012
 20
72.2344680384
  0
VERTEX
  8
0
 62
7
  6
CONTINUOUS
 10
170.0277479411
 20
72.2350313123
  0
VERTEX
  8
0
 62
7
  6
CONTINUOUS
 10
170.1644941735
 20
72.2411894607
  0
VERTEX
  8
0
 62
7
  6
CONTINUOUS
 10
170.2249454951
 20
72.2460752974
  0
SEQEND
  0
LINE
  8
0
 62
7
  6
CONTINUOUS
 10
52.487329213
 20
72.2353398765
 11
52.5277436496
 21
72.2344680109
  0
POLYLINE
  8
0
 62
7
  6
CONTINUOUS
 66
1
 70
0
  0
VERTEX
  8
0
 62
7
  6
CONTINUOUS
 10
37.7814127575
 20
72.2424071338
  0
VERTEX
  8
0
 62
7
  6
CONTINUOUS
 10
37.8994842156
 20
72.2352274131
  0
VERTEX
  8
0
 62
7
  6
CONTINUOUS
 10
37.9520801383
 20
72.2344680017
  0
SEQEND
  0
LINE
  8
0
 62
7
  6
CONTINUOUS
 10
52.3843249853
 20
72.2453410282
 11
52.487329213
 21
72.2353398765
  0
LINE
  8
0
 62
7
  6
CONTINUOUS
 10
72.7293523137
 20
72.2581193806
 11
72.8825242692
 21
72.2344680039
  0
LINE
  8
1_AXIS
 62
2
  6
CENTER
 10
100.4429250892
 20
61.7344678954
 11
100.4429250892
 21
90.7344678954
  0
LINE
  8
0
 62
7
  6
CONTINUOUS
 10
169.9720616533
 20
72.2344678954
 11
169.972510019
 21
72.234467932
  0
LINE
  8
0
 62
7
  6
CONTINUOUS
 10
128.0033386507
 20
72.2344678954
 11
72.8825115277
 21
72.2344678954
  0
LINE
  8
0
 62
7
  6
CONTINUOUS
 10
30.913788526
 20
72.2344678954
 11
72.8686936348
 21
72.2344678954
  0
LINE
  8
0
 62
7
  6
CONTINUOUS
 10
128.0466159774
 20
72.2344678954
 11
169.9720616524
 21
72.2344678954
  0
LINE
  8
0
 62
7
  6
CONTINUOUS
 10
52.5277341119
 20
80.2344677804
 11
52.4924922687
 21
80.2338044619
  0
POLYLINE
  8
0
 62
7
  6
CONTINUOUS
 66
1
 70
0
  0
VERTEX
  8
0
 62
7
  6
CONTINUOUS
 10
37.9520816322
 20
80.2344677879
  0
VERTEX
  8
0
 62
7
  6
CONTINUOUS
 10
37.9053411993
 20
80.2338679221
  0
VERTEX
  8
0
 62
7
  6
CONTINUOUS
 10
37.7873004824
 20
80.2270643938
  0
SEQEND
  0
POLYLINE
  8
0
 62
7
  6
CONTINUOUS
 66
1
 70
0
  0
VERTEX
  8
0
 62
7
  6
CONTINUOUS
 10
30.9135748722
 20
80.2344677799
  0
VERTEX
  8
0
 62
7
  6
CONTINUOUS
 10
30.8581068642
 20
80.2339045674
  0
VERTEX
  8
0
 62
7
  6
CONTINUOUS
 10
30.7213606847
 20
80.2277466613
  0
VERTEX
  8
0
 62
7
  6
CONTINUOUS
 10
30.6609047224
 20
80.2228604977
  0
SEQEND
  0
LINE
  8
1_AXIS
 62
7
  6
CONTINUOUS
 10
169.9720616533
 20
80.2344678954
 11
168.6240845495
 21
80.2344678954
  0
LINE
  8
1_AXIS
 62
7
  6
CONTINUOUS
 10
162.9337987466
 20
80.2344678954
 11
159.0524533681
 21
80.2344678954
  0
LINE
  8
1_AXIS
 62
7
  6
CONTINUOUS
 10
148.3582142098
 20
80.2344678954
 11
142.4116480918
 21
80.2344678954
  0
LINE
  8
1_AXIS
 62
7
  6
CONTINUOUS
 10
128.0033386507
 20
80.2344678954
 11
120.7087954289
 21
80.2344678954
  0
LINE
  8
1_AXIS
 62
7
  6
CONTINUOUS
 10
104.3242704677
 20
80.2344678954
 11
96.5615797107
 21
80.2344678954
  0
LINE
  8
1_AXIS
 62
7
  6
CONTINUOUS
 10
80.1770547494
 20
80.2344678954
 11
72.8825115277
 21
80.2344678954
  0
LINE
  8
1_AXIS
 62
7
  6
CONTINUOUS
 10
58.4742020866
 20
80.2344678954
 11
52.5276359686
 21
80.2344678954
  0
LINE
  8
1_AXIS
 62
7
  6
CONTINUOUS
 10
41.8333968102
 20
80.2344678954
 11
37.9520514317
 21
80.2344678954
  0
LINE
  8
1_AXIS
 62
7
  6
CONTINUOUS
 10
32.2617656288
 20
80.2344678954
 11
30.9137885251
 21
80.2344678954
  0
LINE
  8
0
 62
7
  6
CONTINUOUS
 10
30.913788526
 20
80.2344678954
 11
72.8686936351
 21
80.2344678954
  0
LINE
  8
0
 62
7
  6
CONTINUOUS
 10
72.8825115277
 20
80.2344678954
 11
128.0033386507
 21
80.2344678954
  0
LINE
  8
0
 62
7
  6
CONTINUOUS
 10
128.0466159766
 20
80.2344678954
 11
169.9720616524
 21
80.2344678954
  0
LINE
  8
0
 62
7
  6
CONTINUOUS
 10
148.3985156856
 20
80.2335961368
 11
148.3581059966
 21
80.2344677788
  0
LINE
  8
0
 62
7
  6
CONTINUOUS
 10
72.8825237362
 20
80.234467786
 11
72.7322499896
 21
80.2117222186
  0
LINE
  8
0
 62
7
  6
CONTINUOUS
 10
37.7873004824
 20
80.2270643938
 11
37.733756397
 21
80.2215112613
  0
LINE
  8
0
 62
7
  6
CONTINUOUS
 10
52.4924922687
 20
80.2338044619
 11
52.3893515614
 21
80.224338108
  0
LINE
  8
0
 62
7
  6
CONTINUOUS
 10
30.6609047003
 20
80.2228606047
 11
29.8895256207
 21
80.1526100418
  0
LINE
  8
0
 62
7
  6
CONTINUOUS
 10
29.8895257491
 20
80.152610068
 11
28.5957987364
 21
80.0354382682
  0
POLYLINE
  8
0
 62
7
  6
CONTINUOUS
 66
1
 70
0
  0
VERTEX
  8
0
 62
7
  6
CONTINUOUS
 10
163.1044322303
 20
80.2265291433
  0
VERTEX
  8
0
 62
7
  6
CONTINUOUS
 10
162.9863608181
 20
80.2337085229
  0
VERTEX
  8
0
 62
7
  6
CONTINUOUS
 10
162.933763302
 20
80.2344677878
  0
SEQEND
  0
POLYLINE
  8
0
 62
7
  6
CONTINUOUS
 66
1
 70
0
  0
VERTEX
  8
0
 62
7
  6
CONTINUOUS
 10
170.2249455764
 20
80.2228604866
  0
VERTEX
  8
0
 62
7
  6
CONTINUOUS
 10
170.1712984482
 20
80.2272627071
  0
VERTEX
  8
0
 62
7
  6
CONTINUOUS
 10
170.0345184301
 20
80.2337592055
  0
VERTEX
  8
0
 62
7
  6
CONTINUOUS
 10
169.9722635199
 20
80.2344677809
  0
SEQEND
  0
LINE
  8
0
 62
7
  6
CONTINUOUS
 10
172.2911205809
 20
80.0353357896
 11
172.2281767969
 21
80.0412424262
  0
LINE
  8
0
 62
7
  6
CONTINUOUS
 10
148.5015199206
 20
80.223595559
 11
148.3985156856
 21
80.2335961368
  0
LINE
  8
0
 62
7
  6
CONTINUOUS
 10
163.1520943919
 20
80.2215111892
 11
163.1044322303
 21
80.2265291433
  0
LINE
  8
0
 62
7
  6
CONTINUOUS
 10
128.1564974729
 20
80.2108165297
 11
128.0033257993
 21
80.2344677858
  0
POLYLINE
  8
0
 62
7
  6
CONTINUOUS
 66
1
 70
0
  0
VERTEX
  8
0
 62
7
  6
CONTINUOUS
 10
128.5893555687
 20
72.4611540071
  0
VERTEX
  8
0
 62
7
  6
CONTINUOUS
 10
128.6243132428
 20
72.4773041094
  0
VERTEX
  8
0
 62
7
  6
CONTINUOUS
 10
128.7395236338
 20
72.5570264229
  0
VERTEX
  8
0
 62
7
  6
CONTINUOUS
 10
128.8364285699
 20
72.6784861426
  0
VERTEX
  8
0
 62
7
  6
CONTINUOUS
 10
128.8939290854
 20
72.8350397997
  0
VERTEX
  8
0
 62
7
  6
CONTINUOUS
 10
128.9025158578
 20
72.9274907502
  0
SEQEND
  0
LINE
  8
0
 62
7
  6
CONTINUOUS
 10
128.3171283513
 20
72.3467957585
 11
128.3308692873
 21
72.3529438226
  0
LINE
  8
0
 62
7
  6
CONTINUOUS
 10
128.3311407002
 20
72.3530573423
 11
128.5892658465
 21
72.4611147274
  0
LINE
  8
0
 62
7
  6
CONTINUOUS
 10
52.3373587375
 20
80.2154001589
 11
52.3372769584
 21
80.215383932
  0
POLYLINE
  8
0
 62
7
  6
CONTINUOUS
 66
1
 70
0
  0
VERTEX
  8
0
 62
7
  6
CONTINUOUS
 10
52.3372769584
 20
80.215383932
  0
VERTEX
  8
0
 62
7
  6
CONTINUOUS
 10
52.2380769486
 20
80.1963211463
  0
VERTEX
  8
0
 62
7
  6
CONTINUOUS
 10
52.0882283514
 20
80.1695096486
  0
SEQEND
  0
LINE
  8
0
 62
7
  6
CONTINUOUS
 10
52.3893515614
 20
80.224338108
 11
52.3373587618
 21
80.215400037
  0
POLYLINE
  8
0
 62
7
  6
CONTINUOUS
 66
1
 70
0
  0
VERTEX
  8
0
 62
7
  6
CONTINUOUS
 10
51.2970953569
 20
80.0401385261
  0
VERTEX
  8
0
 62
7
  6
CONTINUOUS
 10
51.2842974666
 20
80.0379821088
  0
VERTEX
  8
0
 62
7
  6
CONTINUOUS
 10
51.2031494422
 20
80.0195761775
  0
VERTEX
  8
0
 62
7
  6
CONTINUOUS
 10
51.1114335781
 20
79.9837879399
  0
VERTEX
  8
0
 62
7
  6
CONTINUOUS
 10
51.0147080119
 20
79.9208146707
  0
VERTEX
  8
0
 62
7
  6
CONTINUOUS
 10
50.9690276556
 20
79.878018511
  0
VERTEX
  8
0
 62
7
  6
CONTINUOUS
 10
50.8924973339
 20
79.7720832343
  0
VERTEX
  8
0
 62
7
  6
CONTINUOUS
 10
50.8446931988
 20
79.6448075481
  0
VERTEX
  8
0
 62
7
  6
CONTINUOUS
 10
50.8329475665
 20
79.5071942048
  0
VERTEX
  8
0
 62
7
  6
CONTINUOUS
 10
50.8322421933
 20
79.5337773049
  0
SEQEND
  0
LINE
  8
0
 62
7
  6
CONTINUOUS
 10
52.0882283514
 20
80.1695096486
 11
51.9605497439
 21
80.1481474477
  0
LINE
  8
0
 62
7
  6
CONTINUOUS
 10
51.9605398134
 20
80.1481458323
 11
51.2970099841
 21
80.0401249824
  0
LINE
  8
0
 62
7
  6
CONTINUOUS
 10
36.0745322962
 20
80.0373228551
 11
36.0108517842
 21
80.0281396208
  0
LINE
  8
0
 62
7
  6
CONTINUOUS
 10
36.1287744665
 20
80.0436693467
 11
36.0745322962
 21
80.0373228551
  0
LINE
  8
0
 62
7
  6
CONTINUOUS
 10
37.7337523358
 20
80.2215108969
 11
37.3132445894
 21
80.1732748059
  0
LINE
  8
0
 62
7
  6
CONTINUOUS
 10
37.3132445894
 20
80.1732748059
 11
36.1287615804
 21
80.0436680731
  0
POLYLINE
  8
0
 62
7
  6
CONTINUOUS
 66
1
 70
0
  0
VERTEX
  8
0
 62
7
  6
CONTINUOUS
 10
28.543904193
 20
80.0303381821
  0
VERTEX
  8
0
 62
7
  6
CONTINUOUS
 10
28.5045567328
 20
80.0261845174
  0
VERTEX
  8
0
 62
7
  6
CONTINUOUS
 10
28.474048971
 20
80.0224934716
  0
VERTEX
  8
0
 62
7
  6
CONTINUOUS
 10
28.4352178156
 20
80.0160405172
  0
SEQEND
  0
LINE
  8
0
 62
7
  6
CONTINUOUS
 10
28.5957987364
 20
80.0354382682
 11
28.543904193
 21
80.0303381821
  0
LINE
  8
1_AXIS
 62
7
  6
CONTINUOUS
 10
158.4429250892
 20
88.7344678954
 11
42.4429250892
 21
88.7344678954
  0
POLYLINE
  8
0
 62
7
  6
CONTINUOUS
 66
1
 70
0
  0
VERTEX
  8
0
 62
7
  6
CONTINUOUS
 10
164.7570885991
 20
80.0436680729
  0
VERTEX
  8
0
 62
7
  6
CONTINUOUS
 10
163.3322676527
 20
80.2005188776
  0
VERTEX
  8
0
 62
7
  6
CONTINUOUS
 10
163.1520977898
 20
80.2215109068
  0
SEQEND
  0
LINE
  8
0
 62
7
  6
CONTINUOUS
 10
164.8132977764
 20
80.0370720253
 11
164.7570734588
 21
80.0436695661
  0
LINE
  8
0
 62
7
  6
CONTINUOUS
 10
164.8762848537
 20
80.0279218236
 11
164.8132977764
 21
80.0370720253
  0
POLYLINE
  8
0
 62
7
  6
CONTINUOUS
 66
1
 70
0
  0
VERTEX
  8
0
 62
7
  6
CONTINUOUS
 10
172.4483954222
 20
80.0164881325
  0
VERTEX
  8
0
 62
7
  6
CONTINUOUS
 10
172.4107775472
 20
80.022630856
  0
VERTEX
  8
0
 62
7
  6
CONTINUOUS
 10
172.3803837074
 20
80.0262856728
  0
VERTEX
  8
0
 62
7
  6
CONTINUOUS
 10
172.3409318893
 20
80.0304409262
  0
VERTEX
  8
0
 62
7
  6
CONTINUOUS
 10
172.2889930293
 20
80.035539637
  0
VERTEX
  8
0
 62
7
  6
CONTINUOUS
 10
170.2249454689
 20
80.2228606125
  0
SEQEND
  0
LINE
  8
0
 62
7
  6
CONTINUOUS
 10
149.5888401959
 20
80.0401249821
 11
148.8009897271
 21
80.1689301744
  0
LINE
  8
0
 62
7
  6
CONTINUOUS
 10
148.5484953852
 20
80.2153992498
 11
148.5015199206
 21
80.223595559
  0
POLYLINE
  8
0
 62
7
  6
CONTINUOUS
 66
1
 70
0
  0
VERTEX
  8
0
 62
7
  6
CONTINUOUS
 10
148.8009897271
 20
80.1689301744
  0
VERTEX
  8
0
 62
7
  6
CONTINUOUS
 10
148.6508082452
 20
80.1957561403
  0
VERTEX
  8
0
 62
7
  6
CONTINUOUS
 10
148.5485722968
 20
80.2153841118
  0
SEQEND
  0
LINE
  8
0
 62
7
  6
CONTINUOUS
 10
148.5484953852
 20
80.2153992498
 11
148.5485722731
 21
80.215383993
  0
LINE
  8
0
 62
7
  6
CONTINUOUS
 10
128.5892658454
 20
80.0078210638
 11
128.3311407002
 21
80.1158784485
  0
LINE
  8
0
 62
7
  6
CONTINUOUS
 10
128.3308602283
 20
80.1159957522
 11
128.3206055531
 21
80.1204983168
  0
LINE
  8
0
 62
7
  6
CONTINUOUS
 10
128.1536000091
 20
72.2572135121
 11
128.3045696695
 21
72.3328221714
  0
POLYLINE
  8
0
 62
7
  6
CONTINUOUS
 66
1
 70
0
  0
VERTEX
  8
0
 62
7
  6
CONTINUOUS
 10
36.0108517842
 20
80.0281396208
  0
VERTEX
  8
0
 62
7
  6
CONTINUOUS
 10
35.9425718372
 20
80.0134113673
  0
VERTEX
  8
0
 62
7
  6
CONTINUOUS
 10
35.8503639985
 20
79.9787767425
  0
VERTEX
  8
0
 62
7
  6
CONTINUOUS
 10
35.7533878319
 20
79.9168361622
  0
VERTEX
  8
0
 62
7
  6
CONTINUOUS
 10
35.6667577565
 20
79.8261889927
  0
VERTEX
  8
0
 62
7
  6
CONTINUOUS
 10
35.6021057184
 20
79.7087250056
  0
VERTEX
  8
0
 62
7
  6
CONTINUOUS
 10
35.5702727269
 20
79.5710969039
  0
SEQEND
  0
LINE
  8
0
 62
7
  6
CONTINUOUS
 10
128.3076215606
 20
80.133889456
 11
128.1564974729
 21
80.2108165297
  0
LINE
  8
0
 62
7
  6
CONTINUOUS
 10
128.3045696695
 20
72.3328221714
 11
128.3249429899
 21
72.3502922378
  0
POLYLINE
  8
0
 62
7
  6
CONTINUOUS
 66
1
 70
0
  0
VERTEX
  8
0
 62
7
  6
CONTINUOUS
 10
28.4352178156
 20
80.0160405172
  0
VERTEX
  8
0
 62
7
  6
CONTINUOUS
 10
28.3818154775
 20
80.002210705
  0
VERTEX
  8
0
 62
7
  6
CONTINUOUS
 10
28.3240244139
 20
79.9798242262
  0
VERTEX
  8
0
 62
7
  6
CONTINUOUS
 10
28.2944144866
 20
79.9649888715
  0
VERTEX
  8
0
 62
7
  6
CONTINUOUS
 10
28.2358007547
 20
79.92766464
  0
VERTEX
  8
0
 62
7
  6
CONTINUOUS
 10
28.1803910324
 20
79.8800772033
  0
VERTEX
  8
0
 62
7
  6
CONTINUOUS
 10
28.1305014083
 20
79.8222306315
  0
VERTEX
  8
0
 62
7
  6
CONTINUOUS
 10
28.0885372668
 20
79.754637399
  0
VERTEX
  8
0
 62
7
  6
CONTINUOUS
 10
28.0568956848
 20
79.6783818446
  0
VERTEX
  8
0
 62
7
  6
CONTINUOUS
 10
28.037829211
 20
79.5951498255
  0
SEQEND
  0
LINE
  8
0
 62
7
  6
CONTINUOUS
 10
172.503375338
 20
80.0024197899
 11
172.4499148115
 21
80.0161852342
  0
LINE
  8
0
 62
7
  6
CONTINUOUS
 10
128.3257385375
 20
80.1182445552
 11
128.3076215606
 21
80.133889456
  0
POLYLINE
  8
0
 62
7
  6
CONTINUOUS
 66
1
 70
0
  0
VERTEX
  8
0
 62
7
  6
CONTINUOUS
 10
128.902515858
 20
79.5414450739
  0
VERTEX
  8
0
 62
7
  6
CONTINUOUS
 10
128.8941963807
 20
79.6324578271
  0
VERTEX
  8
0
 62
7
  6
CONTINUOUS
 10
128.8377408468
 20
79.7881363685
  0
VERTEX
  8
0
 62
7
  6
CONTINUOUS
 10
128.7422210162
 20
79.9094135264
  0
VERTEX
  8
0
 62
7
  6
CONTINUOUS
 10
128.6283403912
 20
79.9895684444
  0
VERTEX
  8
0
 62
7
  6
CONTINUOUS
 10
128.589282607
 20
80.0078123485
  0
SEQEND
  0
LINE
  8
0
 62
7
  6
CONTINUOUS
 10
128.902516644
 20
79.5414545093
 11
128.902516644
 21
72.9274812814
  0
LINE
  8
0
 62
7
  6
CONTINUOUS
 10
172.562741768
 20
79.9794012456
 11
172.5017439901
 21
80.0029330271
  0
LINE
  8
0
 62
7
  6
CONTINUOUS
 10
150.0536110309
 20
79.5338271617
 11
150.0536110309
 21
72.935108629
  0
POLYLINE
  8
0
 62
7
  6
CONTINUOUS
 66
1
 70
0
  0
VERTEX
  8
0
 62
7
  6
CONTINUOUS
 10
150.0536095864
 20
79.5337797173
  0
VERTEX
  8
0
 62
7
  6
CONTINUOUS
 10
150.0528869564
 20
79.5068731114
  0
VERTEX
  8
0
 62
7
  6
CONTINUOUS
 10
150.0413588253
 20
79.6439231371
  0
VERTEX
  8
0
 62
7
  6
CONTINUOUS
 10
149.994028089
 20
79.7708313934
  0
VERTEX
  8
0
 62
7
  6
CONTINUOUS
 10
149.9181164438
 20
79.8766405623
  0
VERTEX
  8
0
 62
7
  6
CONTINUOUS
 10
149.8727715408
 20
79.9194609475
  0
VERTEX
  8
0
 62
7
  6
CONTINUOUS
 10
149.7766117262
 20
79.9826814252
  0
VERTEX
  8
0
 62
7
  6
CONTINUOUS
 10
149.6851113051
 20
80.0188679582
  0
VERTEX
  8
0
 62
7
  6
CONTINUOUS
 10
149.6039922112
 20
80.0375531917
  0
VERTEX
  8
0
 62
7
  6
CONTINUOUS
 10
149.5887431744
 20
80.0401403526
  0
SEQEND
  0
LINE
  8
0
 62
7
  6
CONTINUOUS
 10
172.7080109631
 20
79.8775200554
 11
172.6523461072
 21
79.9259563444
  0
LINE
  8
1_AXIS
 62
7
  6
CONTINUOUS
 10
160.4429250892
 20
86.7344678954
 11
160.4429250892
 21
81.2344678954
  0
LINE
  8
1_AXIS
 62
7
  6
CONTINUOUS
 10
160.4429250892
 20
71.2344678954
 11
160.4429250892
 21
65.7344678954
  0
POLYLINE
  8
0
 62
7
  6
CONTINUOUS
 66
1
 70
0
  0
VERTEX
  8
0
 62
7
  6
CONTINUOUS
 10
165.3174162995
 20
79.5282453773
  0
VERTEX
  8
0
 62
7
  6
CONTINUOUS
 10
165.3155839171
 20
79.5710335007
  0
VERTEX
  8
0
 62
7
  6
CONTINUOUS
 10
165.2837885281
 20
79.7086108227
  0
VERTEX
  8
0
 62
7
  6
CONTINUOUS
 10
165.2192181125
 20
79.8260178418
  0
VERTEX
  8
0
 62
7
  6
CONTINUOUS
 10
165.1327469548
 20
79.9166034524
  0
VERTEX
  8
0
 62
7
  6
CONTINUOUS
 10
165.0360795606
 20
79.9784861357
  0
VERTEX
  8
0
 62
7
  6
CONTINUOUS
 10
164.9442835965
 20
80.0131353611
  0
VERTEX
  8
0
 62
7
  6
CONTINUOUS
 10
164.8762848537
 20
80.0279218236
  0
SEQEND
  0
LINE
  8
0
 62
7
  6
CONTINUOUS
 10
165.3174163242
 20
79.5283575756
 11
165.3174163242
 21
72.9405782151
  0
POLYLINE
  8
0
 62
7
  6
CONTINUOUS
 66
1
 70
0
  0
VERTEX
  8
0
 62
7
  6
CONTINUOUS
 10
172.8528928746
 20
79.5255182733
  0
VERTEX
  8
0
 62
7
  6
CONTINUOUS
 10
172.8483729838
 20
79.5925989329
  0
VERTEX
  8
0
 62
7
  6
CONTINUOUS
 10
172.8298927208
 20
79.6754282606
  0
VERTEX
  8
0
 62
7
  6
CONTINUOUS
 10
172.79876298
 20
79.7518022917
  0
VERTEX
  8
0
 62
7
  6
CONTINUOUS
 10
172.7570534046
 20
79.8199041635
  0
VERTEX
  8
0
 62
7
  6
CONTINUOUS
 10
172.7070500454
 20
79.8784878113
  0
VERTEX
  8
0
 62
7
  6
CONTINUOUS
 10
172.651124201
 20
79.9268679888
  0
VERTEX
  8
0
 62
7
  6
CONTINUOUS
 10
172.5915954595
 20
79.9649020608
  0
VERTEX
  8
0
 62
7
  6
CONTINUOUS
 10
172.5611923554
 20
79.9801152602
  0
SEQEND
  0
LINE
  8
0
 62
7
  6
CONTINUOUS
 10
172.8528923358
 20
79.5256322022
 11
172.8528923358
 21
72.9433035884
  0
LINE
  8
0
 62
7
  6
CONTINUOUS
 10
172.8480201209
 20
72.8737868075
 11
172.8528919198
 21
72.9434177575
  0
ARC
  8
0
 62
7
  6
CONTINUOUS
 10
43.3121386753
 20
153.9993206729
 40
6.2
 50
104.7262619366
 51
111.838
  0
ARC
  8
0
 62
7
  6
CONTINUOUS
 10
43.3121386753
 20
153.9993206729
 40
6.2
 50
88.058871156
 51
102.7506054215
  0
ARC
  8
0
 62
7
  6
CONTINUOUS
 10
62.0987905869
 20
137.1645161344
 40
6.2
 50
124.7262619366
 51
131.838
  0
ARC
  8
0
 62
7
  6
CONTINUOUS
 10
62.0987905869
 20
137.1645161344
 40
6.2
 50
108.058871156
 51
122.7506054215
  0
ARC
  8
0
 62
7
  6
CONTINUOUS
 10
46.3489168364
 20
150.3802293895
 40
6.2
 50
337.2493945785
 51
351.941128844
  0
ARC
  8
0
 62
7
  6
CONTINUOUS
 10
46.3489168364
 20
150.3802293895
 40
6.2
 50
328.162
 51
335.2737380634
  0
ARC
  8
0
 62
7
  6
CONTINUOUS
 10
43.4544036326
 20
158.1969105387
 40
2.0
 50
35.5051234822
 51
88.058871156
  0
ARC
  8
0
 62
7
  6
CONTINUOUS
 10
60.7968156299
 20
141.1576178375
 40
2.0
 50
55.5051234822
 51
108.058871156
  0
ARC
  8
0
 62
7
  6
CONTINUOUS
 10
50.5074399308
 20
149.7914291916
 40
2.0
 50
351.941128844
 51
44.4948765178
  0
ARC
  8
0
 62
7
  6
CONTINUOUS
 10
39.5407760684
 20
160.0291397283
 40
0.8
 50
212.5174152214
 51
291.838
  0
ARC
  8
0
 62
7
  6
CONTINUOUS
 10
56.4925493974
 20
141.5408106261
 40
0.8
 50
232.5174152214
 51
311.838
  0
ARC
  8
0
 62
7
  6
CONTINUOUS
 10
51.6322391474
 20
145.6190951642
 40
0.8
 50
148.162
 51
227.4825847785
  0
ARC
  8
0
 62
7
  6
CONTINUOUS
 10
31.4163027658
 20
176.2442756495
 40
6.2
 50
84.7262619366
 51
91.838
  0
ARC
  8
0
 62
7
  6
CONTINUOUS
 10
31.4163027658
 20
176.2442756495
 40
6.2
 50
68.058871156
 51
82.7506054215
  0
ARC
  8
0
 62
7
  6
CONTINUOUS
 10
27.846096233
 20
196.4919230514
 40
6.2
 50
297.2493945785
 51
311.941128844
  0
ARC
  8
0
 62
7
  6
CONTINUOUS
 10
27.846096233
 20
196.4919230514
 40
6.2
 50
288.162
 51
295.2737380634
  0
ARC
  8
0
 62
7
  6
CONTINUOUS
 10
33.0321386753
 20
171.8048029747
 40
6.2
 50
317.2493945785
 51
331.941128844
  0
ARC
  8
0
 62
7
  6
CONTINUOUS
 10
33.0321386753
 20
171.8048029747
 40
6.2
 50
308.162
 51
315.2737380634
  0
ARC
  8
0
 62
7
  6
CONTINUOUS
 10
32.9856483839
 20
180.1400623905
 40
2.0
 50
15.5051234822
 51
68.058871156
  0
ARC
  8
0
 62
7
  6
CONTINUOUS
 10
30.6532362693
 20
193.367828812
 40
2.0
 50
311.941128844
 51
4.4948765178
  0
ARC
  8
0
 62
7
  6
CONTINUOUS
 10
36.7384906125
 20
169.8292131088
 40
2.0
 50
331.941128844
 51
24.4948765178
  0
ARC
  8
0
 62
7
  6
CONTINUOUS
 10
29.9347007314
 20
183.2003340999
 40
0.8
 50
192.5174152214
 51
271.838
  0
ARC
  8
0
 62
7
  6
CONTINUOUS
 10
28.8329578425
 20
189.4486285157
 40
0.8
 50
108.162
 51
187.4825847785
  0
ARC
  8
0
 62
7
  6
CONTINUOUS
 10
36.3684338541
 20
165.5237976225
 40
0.8
 50
128.162
 51
207.4825847785
  0
ARC
  8
0
 62
7
  6
CONTINUOUS
 10
85.5103110186
 20
127.7703879166
 40
6.2
 50
144.7262619366
 51
151.838
  0
ARC
  8
0
 62
7
  6
CONTINUOUS
 10
85.5103110186
 20
127.7703879166
 40
6.2
 50
128.058871156
 51
142.7506054215
  0
ARC
  8
0
 62
7
  6
CONTINUOUS
 10
66.1902307353
 20
134.8023220633
 40
6.2
 50
357.2493945785
 51
11.941128844
  0
ARC
  8
0
 62
7
  6
CONTINUOUS
 10
66.1902307353
 20
134.8023220633
 40
6.2
 50
348.162
 51
355.2737380634
  0
ARC
  8
0
 62
7
  6
CONTINUOUS
 10
90.1629250892
 20
126.9500065251
 40
6.2
 50
17.2493945785
 51
31.941128844
  0
ARC
  8
0
 62
7
  6
CONTINUOUS
 10
90.1629250892
 20
126.9500065251
 40
6.2
 50
8.162
 51
15.2737380634
  0
ARC
  8
0
 62
7
  6
CONTINUOUS
 10
82.9211335423
 20
131.0773744596
 40
2.0
 50
75.5051234822
 51
128.058871156
  0
ARC
  8
0
 62
7
  6
CONTINUOUS
 10
70.2993457286
 20
135.671329527
 40
2.0
 50
11.941128844
 51
64.4948765178
  0
ARC
  8
0
 62
7
  6
CONTINUOUS
 10
93.727012069
 20
129.1720065251
 40
2.0
 50
31.941128844
 51
84.4948765178
  0
ARC
  8
0
 62
7
  6
CONTINUOUS
 10
78.7453866732
 20
129.9653121417
 40
0.8
 50
252.5174152215
 51
331.838
  0
ARC
  8
0
 62
7
  6
CONTINUOUS
 10
72.7833335343
 20
132.1353220193
 40
0.8
 50
168.162
 51
247.4825847786
  0
ARC
  8
0
 62
7
  6
CONTINUOUS
 10
97.2705828749
 20
126.6988202284
 40
0.8
 50
188.162
 51
267.4825847786
  0
ARC
  8
0
 62
7
  6
CONTINUOUS
 10
33.0321386753
 20
225.9034312703
 40
6.2
 50
44.7262619366
 51
51.838
  0
ARC
  8
0
 62
7
  6
CONTINUOUS
 10
33.0321386753
 20
225.9034312703
 40
6.2
 50
28.058871156
 51
42.7506054215
  0
ARC
  8
0
 62
7
  6
CONTINUOUS
 10
27.846096233
 20
201.2163111935
 40
6.2
 50
64.7262619366
 51
71.838
  0
ARC
  8
0
 62
7
  6
CONTINUOUS
 10
27.846096233
 20
201.2163111935
 40
6.2
 50
48.058871156
 51
62.7506054215
  0
ARC
  8
0
 62
7
  6
CONTINUOUS
 10
31.4163027658
 20
221.4639585954
 40
6.2
 50
277.2493945785
 51
291.941128844
  0
ARC
  8
0
 62
7
  6
CONTINUOUS
 10
31.4163027658
 20
221.4639585954
 40
6.2
 50
268.162
 51
275.2737380634
  0
ARC
  8
0
 62
7
  6
CONTINUOUS
 10
60.8449453427
 20
198.8541171225
 40
4.0
 50
75.0
 51
285.0
  0
ARC
  8
0
 62
7
  6
CONTINUOUS
 10
36.7384906125
 20
227.8790211361
 40
2.0
 50
335.5051234822
 51
28.058871156
  0
ARC
  8
0
 62
7
  6
CONTINUOUS
 10
30.6532362693
 20
204.3404054329
 40
2.0
 50
355.5051234822
 51
48.058871156
  0
ARC
  8
0
 62
7
  6
CONTINUOUS
 10
32.9856483839
 20
217.5681718545
 40
2.0
 50
291.941128844
 51
344.4948765178
  0
ARC
  8
0
 62
7
  6
CONTINUOUS
 10
36.3684338541
 20
232.1844366224
 40
0.8
 50
152.5174152214
 51
231.838
  0
ARC
  8
0
 62
7
  6
CONTINUOUS
 10
28.8329578425
 20
208.2596057293
 40
0.8
 50
172.5174152214
 51
251.838
  0
ARC
  8
0
 62
7
  6
CONTINUOUS
 10
29.9347007314
 20
214.507900145
 40
0.8
 50
88.162
 51
167.4825847785
  0
ARC
  8
0
 62
7
  6
CONTINUOUS
 10
46.3489168364
 20
247.3280048554
 40
6.2
 50
24.7262619366
 51
31.838
  0
ARC
  8
0
 62
7
  6
CONTINUOUS
 10
46.3489168364
 20
247.3280048554
 40
6.2
 50
8.058871156
 51
22.7506054215
  0
ARC
  8
0
 62
7
  6
CONTINUOUS
 10
62.0987905869
 20
260.5437181106
 40
6.2
 50
237.2493945785
 51
251.941128844
  0
ARC
  8
0
 62
7
  6
CONTINUOUS
 10
62.0987905869
 20
260.5437181106
 40
6.2
 50
228.162
 51
235.2737380634
  0
ARC
  8
0
 62
7
  6
CONTINUOUS
 10
43.3121386753
 20
243.7089135721
 40
6.2
 50
257.2493945785
 51
271.941128844
  0
ARC
  8
0
 62
7
  6
CONTINUOUS
 10
43.3121386753
 20
243.7089135721
 40
6.2
 50
248.162
 51
255.2737380634
  0
ARC
  8
0
 62
7
  6
CONTINUOUS
 10
50.5074399308
 20
247.9168050533
 40
2.0
 50
315.5051234822
 51
8.058871156
  0
ARC
  8
0
 62
7
  6
CONTINUOUS
 10
60.7968156299
 20
256.5506164075
 40
2.0
 50
251.941128844
 51
304.4948765178
  0
ARC
  8
0
 62
7
  6
CONTINUOUS
 10
43.4544036326
 20
239.5113237062
 40
2.0
 50
271.941128844
 51
324.4948765178
  0
ARC
  8
0
 62
7
  6
CONTINUOUS
 10
51.6322391474
 20
252.0891390807
 40
0.8
 50
132.5174152214
 51
211.838
  0
ARC
  8
0
 62
7
  6
CONTINUOUS
 10
56.4925493974
 20
256.1674236188
 40
0.8
 50
48.162
 51
127.4825847785
  0
ARC
  8
0
 62
7
  6
CONTINUOUS
 10
39.5407760684
 20
237.6790945166
 40
0.8
 50
68.162
 51
147.4825847785
  0
ARC
  8
0
 62
7
  6
CONTINUOUS
 10
90.1629250892
 20
270.7582277199
 40
6.2
 50
344.7262619366
 51
351.838
  0
ARC
  8
0
 62
7
  6
CONTINUOUS
 10
90.1629250892
 20
270.7582277199
 40
6.2
 50
328.058871156
 51
342.7506054215
  0
ARC
  8
0
 62
7
  6
CONTINUOUS
 10
66.1902307353
 20
262.9059121816
 40
6.2
 50
4.7262619366
 51
11.838
  0
ARC
  8
0
 62
7
  6
CONTINUOUS
 10
66.1902307353
 20
262.9059121816
 40
6.2
 50
348.058871156
 51
2.7506054215
  0
ARC
  8
0
 62
7
  6
CONTINUOUS
 10
85.5103110186
 20
269.9378463284
 40
6.2
 50
217.2493945785
 51
231.941128844
  0
ARC
  8
0
 62
7
  6
CONTINUOUS
 10
85.5103110186
 20
269.9378463284
 40
6.2
 50
208.162
 51
215.2737380634
  0
ARC
  8
0
 62
7
  6
CONTINUOUS
 10
93.727012069
 20
268.5362277199
 40
2.0
 50
275.5051234822
 51
328.058871156
  0
ARC
  8
0
 62
7
  6
CONTINUOUS
 10
70.2993457286
 20
262.0369047179
 40
2.0
 50
295.5051234822
 51
348.058871156
  0
ARC
  8
0
 62
7
  6
CONTINUOUS
 10
82.9211335423
 20
266.6308597853
 40
2.0
 50
231.941128844
 51
284.4948765178
  0
ARC
  8
0
 62
7
  6
CONTINUOUS
 10
97.2705828749
 20
271.0094140166
 40
0.8
 50
92.5174152214
 51
171.838
  0
ARC
  8
0
 62
7
  6
CONTINUOUS
 10
72.7833335343
 20
265.5729122257
 40
0.8
 50
112.5174152214
 51
191.838
  0
ARC
  8
0
 62
7
  6
CONTINUOUS
 10
78.7453866732
 20
267.7429221033
 40
0.8
 50
28.162
 51
107.4825847785
  0
ARC
  8
0
 62
7
  6
CONTINUOUS
 10
110.7229250892
 20
126.9500065251
 40
6.2
 50
164.7262619366
 51
171.838
  0
ARC
  8
0
 62
7
  6
CONTINUOUS
 10
110.7229250892
 20
126.9500065251
 40
6.2
 50
148.058871156
 51
162.7506054215
  0
ARC
  8
0
 62
7
  6
CONTINUOUS
 10
134.6956194431
 20
134.8023220633
 40
6.2
 50
184.7262619366
 51
191.838
  0
ARC
  8
0
 62
7
  6
CONTINUOUS
 10
134.6956194431
 20
134.8023220633
 40
6.2
 50
168.058871156
 51
182.7506054215
  0
ARC
  8
0
 62
7
  6
CONTINUOUS
 10
115.3755391597
 20
127.7703879166
 40
6.2
 50
37.2493945785
 51
51.941128844
  0
ARC
  8
0
 62
7
  6
CONTINUOUS
 10
115.3755391597
 20
127.7703879166
 40
6.2
 50
28.162
 51
35.2737380634
  0
ARC
  8
0
 62
7
  6
CONTINUOUS
 10
100.4429250892
 20
159.256137376
 40
4.0
 50
165.0
 51
15.0
  0
ARC
  8
0
 62
7
  6
CONTINUOUS
 10
107.1588381093
 20
129.1720065251
 40
2.0
 50
95.5051234822
 51
148.058871156
  0
ARC
  8
0
 62
7
  6
CONTINUOUS
 10
130.5865044498
 20
135.671329527
 40
2.0
 50
115.5051234822
 51
168.058871156
  0
ARC
  8
0
 62
7
  6
CONTINUOUS
 10
117.9647166361
 20
131.0773744596
 40
2.0
 50
51.941128844
 51
104.4948765178
  0
ARC
  8
0
 62
7
  6
CONTINUOUS
 10
103.6152673035
 20
126.6988202284
 40
0.8
 50
272.5174152215
 51
351.838
  0
ARC
  8
0
 62
7
  6
CONTINUOUS
 10
128.102516644
 20
132.1353220193
 40
0.8
 50
292.5174152215
 51
11.838
  0
ARC
  8
0
 62
7
  6
CONTINUOUS
 10
122.1404635052
 20
129.9653121417
 40
0.8
 50
208.162
 51
287.4825847786
  0
ARC
  8
0
 62
7
  6
CONTINUOUS
 10
157.573711503
 20
153.9993206729
 40
6.2
 50
68.162
 51
75.2737380634
  0
ARC
  8
0
 62
7
  6
CONTINUOUS
 10
157.573711503
 20
153.9993206729
 40
6.2
 50
77.2493945785
 51
91.941128844
  0
ARC
  8
0
 62
7
  6
CONTINUOUS
 10
154.536933342
 20
150.3802293895
 40
6.2
 50
204.7262619366
 51
211.838
  0
ARC
  8
0
 62
7
  6
CONTINUOUS
 10
154.536933342
 20
150.3802293895
 40
6.2
 50
188.058871156
 51
202.7506054215
  0
ARC
  8
0
 62
7
  6
CONTINUOUS
 10
138.7870595914
 20
137.1645161344
 40
6.2
 50
57.2493945785
 51
71.941128844
  0
ARC
  8
0
 62
7
  6
CONTINUOUS
 10
138.7870595914
 20
137.1645161344
 40
6.2
 50
48.162
 51
55.2737380634
  0
ARC
  8
0
 62
7
  6
CONTINUOUS
 10
157.4314465458
 20
158.1969105387
 40
2.0
 50
91.941128844
 51
144.4948765178
  0
ARC
  8
0
 62
7
  6
CONTINUOUS
 10
150.3784102475
 20
149.7914291916
 40
2.0
 50
135.5051234822
 51
188.058871156
  0
ARC
  8
0
 62
7
  6
CONTINUOUS
 10
140.0890345484
 20
141.1576178375
 40
2.0
 50
71.941128844
 51
124.4948765178
  0
ARC
  8
0
 62
7
  6
CONTINUOUS
 10
161.3450741099
 20
160.0291397283
 40
0.8
 50
248.162
 51
327.4825847786
  0
ARC
  8
0
 62
7
  6
CONTINUOUS
 10
149.2536110309
 20
145.6190951642
 40
0.8
 50
312.5174152215
 51
31.838
  0
ARC
  8
0
 62
7
  6
CONTINUOUS
 10
144.393300781
 20
141.5408106261
 40
0.8
 50
228.162
 51
307.4825847786
  0
ARC
  8
0
 62
7
  6
CONTINUOUS
 10
169.4695474125
 20
176.2442756495
 40
6.2
 50
88.162
 51
95.2737380634
  0
ARC
  8
0
 62
7
  6
CONTINUOUS
 10
169.4695474125
 20
176.2442756495
 40
6.2
 50
97.2493945785
 51
111.941128844
  0
ARC
  8
0
 62
7
  6
CONTINUOUS
 10
173.0397539453
 20
196.4919230514
 40
6.2
 50
228.058871156
 51
242.7506054215
  0
ARC
  8
0
 62
7
  6
CONTINUOUS
 10
173.0397539453
 20
196.4919230514
 40
6.2
 50
244.7262619366
 51
251.838
  0
ARC
  8
0
 62
7
  6
CONTINUOUS
 10
167.853711503
 20
171.8048029747
 40
6.2
 50
208.058871156
 51
222.7506054215
  0
ARC
  8
0
 62
7
  6
CONTINUOUS
 10
167.853711503
 20
171.8048029747
 40
6.2
 50
224.7262619366
 51
231.838
  0
ARC
  8
0
 62
7
  6
CONTINUOUS
 10
167.9002017944
 20
180.1400623905
 40
2.0
 50
111.941128844
 51
164.4948765178
  0
ARC
  8
0
 62
7
  6
CONTINUOUS
 10
170.2326139091
 20
193.367828812
 40
2.0
 50
175.5051234822
 51
228.058871156
  0
ARC
  8
0
 62
7
  6
CONTINUOUS
 10
164.1473595659
 20
169.8292131088
 40
2.0
 50
155.5051234822
 51
208.058871156
  0
ARC
  8
0
 62
7
  6
CONTINUOUS
 10
170.9511494469
 20
183.2003340999
 40
0.8
 50
268.162
 51
347.4825847786
  0
ARC
  8
0
 62
7
  6
CONTINUOUS
 10
172.0528923358
 20
189.4486285157
 40
0.8
 50
352.5174152215
 51
71.838
  0
ARC
  8
0
 62
7
  6
CONTINUOUS
 10
164.5174163242
 20
165.5237976225
 40
0.8
 50
332.5174152215
 51
51.838
  0
ARC
  8
0
 62
7
  6
CONTINUOUS
 10
100.4429250892
 20
198.8541171225
 40
68.005
 50
95.5051234822
 51
104.4948765178
  0
ARC
  8
0
 62
7
  6
CONTINUOUS
 10
100.4429250892
 20
198.8541171225
 40
68.005
 50
75.5051234822
 51
84.4948765178
  0
ARC
  8
0
 62
7
  6
CONTINUOUS
 10
100.4429250892
 20
198.8541171225
 40
68.005
 50
115.5051234822
 51
124.4948765178
  0
ARC
  8
0
 62
7
  6
CONTINUOUS
 10
100.4429250892
 20
198.8541171225
 40
68.005
 50
135.5051234822
 51
144.4948765178
  0
ARC
  8
0
 62
7
  6
CONTINUOUS
 10
100.4429250892
 20
198.8541171225
 40
68.005
 50
155.5051234822
 51
164.4948765178
  0
ARC
  8
0
 62
7
  6
CONTINUOUS
 10
100.4429250892
 20
198.8541171225
 40
68.005
 50
175.5051234822
 51
184.4948765178
  0
ARC
  8
0
 62
7
  6
CONTINUOUS
 10
100.4429250892
 20
198.8541171225
 40
68.005
 50
195.5051234822
 51
204.4948765178
  0
ARC
  8
0
 62
7
  6
CONTINUOUS
 10
100.4429250892
 20
198.8541171225
 40
68.005
 50
55.5051234822
 51
64.4948765178
  0
ARC
  8
0
 62
7
  6
CONTINUOUS
 10
100.4429250892
 20
198.8541171225
 40
68.005
 50
215.5051234822
 51
224.4948765178
  0
ARC
  8
0
 62
7
  6
CONTINUOUS
 10
100.4429250892
 20
198.8541171225
 40
68.005
 50
235.5051234822
 51
244.4948765178
  0
ARC
  8
0
 62
7
  6
CONTINUOUS
 10
100.4429250892
 20
198.8541171225
 40
68.005
 50
35.5051234822
 51
44.4948765178
  0
ARC
  8
0
 62
7
  6
CONTINUOUS
 10
100.4429250892
 20
198.8541171225
 40
68.005
 50
255.5051234822
 51
264.4948765178
  0
ARC
  8
0
 62
7
  6
CONTINUOUS
 10
100.4429250892
 20
198.8541171225
 40
68.005
 50
15.5051234822
 51
24.4948765178
  0
ARC
  8
0
 62
7
  6
CONTINUOUS
 10
100.4429250892
 20
198.8541171225
 40
68.005
 50
275.5051234822
 51
284.4948765178
  0
ARC
  8
0
 62
7
  6
CONTINUOUS
 10
100.4429250892
 20
198.8541171225
 40
68.005
 50
295.5051234822
 51
304.4948765178
  0
ARC
  8
0
 62
7
  6
CONTINUOUS
 10
100.4429250892
 20
198.8541171225
 40
68.005
 50
355.5051234822
 51
4.4948765178
  0
ARC
  8
0
 62
7
  6
CONTINUOUS
 10
100.4429250892
 20
198.8541171225
 40
68.005
 50
315.5051234822
 51
324.4948765178
  0
ARC
  8
0
 62
7
  6
CONTINUOUS
 10
100.4429250892
 20
198.8541171225
 40
68.005
 50
335.5051234822
 51
344.4948765178
  0
CIRCLE
  8
1_AXIS
 62
7
  6
CONTINUOUS
 10
100.4429250892
 20
198.8541171225
 40
60.0
  0
ARC
  8
0
 62
7
  6
CONTINUOUS
 10
110.7229250892
 20
270.7582277199
 40
6.2
 50
197.2493945785
 51
211.941128844
  0
ARC
  8
0
 62
7
  6
CONTINUOUS
 10
110.7229250892
 20
270.7582277199
 40
6.2
 50
188.162
 51
195.2737380634
  0
ARC
  8
0
 62
7
  6
CONTINUOUS
 10
134.6956194431
 20
262.9059121816
 40
6.2
 50
168.162
 51
175.2737380634
  0
ARC
  8
0
 62
7
  6
CONTINUOUS
 10
134.6956194431
 20
262.9059121816
 40
6.2
 50
177.2493945785
 51
191.941128844
  0
ARC
  8
0
 62
7
  6
CONTINUOUS
 10
115.3755391597
 20
269.9378463284
 40
6.2
 50
308.058871156
 51
322.7506054215
  0
ARC
  8
0
 62
7
  6
CONTINUOUS
 10
115.3755391597
 20
269.9378463284
 40
6.2
 50
324.7262619366
 51
331.838
  0
ARC
  8
0
 62
7
  6
CONTINUOUS
 10
100.4429250892
 20
238.4520968689
 40
4.0
 50
345.0
 51
195.0
  0
ARC
  8
0
 62
7
  6
CONTINUOUS
 10
107.1588381093
 20
268.5362277199
 40
2.0
 50
211.941128844
 51
264.4948765178
  0
ARC
  8
0
 62
7
  6
CONTINUOUS
 10
130.5865044498
 20
262.0369047179
 40
2.0
 50
191.941128844
 51
244.4948765178
  0
ARC
  8
0
 62
7
  6
CONTINUOUS
 10
117.9647166361
 20
266.6308597853
 40
2.0
 50
255.5051234822
 51
308.058871156
  0
CIRCLE
  8
0
 62
7
  6
CONTINUOUS
 10
100.4429250892
 20
263.8541171225
 40
0.8660254038
  0
ARC
  8
0
 62
7
  6
CONTINUOUS
 10
103.6152673035
 20
271.0094140166
 40
0.8
 50
8.162
 51
87.4825847785
  0
ARC
  8
0
 62
7
  6
CONTINUOUS
 10
128.102516644
 20
265.5729122257
 40
0.8
 50
348.162
 51
67.4825847785
  0
ARC
  8
0
 62
7
  6
CONTINUOUS
 10
122.1404635052
 20
267.7429221033
 40
0.8
 50
72.5174152214
 51
151.838
  0
ARC
  8
0
 62
7
  6
CONTINUOUS
 10
167.853711503
 20
225.9034312703
 40
6.2
 50
128.162
 51
135.2737380634
  0
ARC
  8
0
 62
7
  6
CONTINUOUS
 10
167.853711503
 20
225.9034312703
 40
6.2
 50
137.2493945785
 51
151.941128844
  0
ARC
  8
0
 62
7
  6
CONTINUOUS
 10
173.0397539453
 20
201.2163111935
 40
6.2
 50
108.162
 51
115.2737380634
  0
ARC
  8
0
 62
7
  6
CONTINUOUS
 10
173.0397539453
 20
201.2163111935
 40
6.2
 50
117.2493945785
 51
131.941128844
  0
ARC
  8
0
 62
7
  6
CONTINUOUS
 10
169.4695474125
 20
221.4639585954
 40
6.2
 50
248.058871156
 51
262.7506054215
  0
ARC
  8
0
 62
7
  6
CONTINUOUS
 10
169.4695474125
 20
221.4639585954
 40
6.2
 50
264.7262619366
 51
271.838
  0
ARC
  8
0
 62
7
  6
CONTINUOUS
 10
140.0409048356
 20
198.8541171225
 40
4.0
 50
255.0
 51
105.0
  0
ARC
  8
0
 62
7
  6
CONTINUOUS
 10
164.1473595659
 20
227.8790211361
 40
2.0
 50
151.941128844
 51
204.4948765178
  0
ARC
  8
0
 62
7
  6
CONTINUOUS
 10
170.2326139091
 20
204.3404054329
 40
2.0
 50
131.941128844
 51
184.4948765178
  0
ARC
  8
0
 62
7
  6
CONTINUOUS
 10
167.9002017944
 20
217.5681718545
 40
2.0
 50
195.5051234822
 51
248.058871156
  0
ARC
  8
0
 62
7
  6
CONTINUOUS
 10
164.5174163242
 20
232.1844366224
 40
0.8
 50
308.162
 51
27.4825847785
  0
ARC
  8
0
 62
7
  6
CONTINUOUS
 10
172.0528923358
 20
208.2596057293
 40
0.8
 50
288.162
 51
7.4825847786
  0
ARC
  8
0
 62
7
  6
CONTINUOUS
 10
170.9511494469
 20
214.507900145
 40
0.8
 50
12.5174152215
 51
91.838
  0
ARC
  8
0
 62
7
  6
CONTINUOUS
 10
154.536933342
 20
247.3280048554
 40
6.2
 50
148.162
 51
155.2737380634
  0
ARC
  8
0
 62
7
  6
CONTINUOUS
 10
154.536933342
 20
247.3280048554
 40
6.2
 50
157.2493945785
 51
171.941128844
  0
ARC
  8
0
 62
7
  6
CONTINUOUS
 10
138.7870595914
 20
260.5437181106
 40
6.2
 50
288.058871156
 51
302.7506054215
  0
ARC
  8
0
 62
7
  6
CONTINUOUS
 10
138.7870595914
 20
260.5437181106
 40
6.2
 50
304.7262619366
 51
311.838
  0
ARC
  8
0
 62
7
  6
CONTINUOUS
 10
157.573711503
 20
243.7089135721
 40
6.2
 50
268.058871156
 51
282.7506054215
  0
ARC
  8
0
 62
7
  6
CONTINUOUS
 10
157.573711503
 20
243.7089135721
 40
6.2
 50
284.7262619366
 51
291.838
  0
ARC
  8
0
 62
7
  6
CONTINUOUS
 10
150.3784102475
 20
247.9168050533
 40
2.0
 50
171.941128844
 51
224.4948765178
  0
ARC
  8
0
 62
7
  6
CONTINUOUS
 10
140.0890345484
 20
256.5506164075
 40
2.0
 50
235.5051234822
 51
288.058871156
  0
ARC
  8
0
 62
7
  6
CONTINUOUS
 10
157.4314465458
 20
239.5113237062
 40
2.0
 50
215.5051234822
 51
268.058871156
  0
ARC
  8
0
 62
7
  6
CONTINUOUS
 10
149.2536110309
 20
252.0891390807
 40
0.8
 50
328.162
 51
47.4825847785
  0
ARC
  8
0
 62
7
  6
CONTINUOUS
 10
144.393300781
 20
256.1674236188
 40
0.8
 50
52.5174152215
 51
131.838
  0
ARC
  8
0
 62
7
  6
CONTINUOUS
 10
161.3450741099
 20
237.6790945166
 40
0.8
 50
32.5174152215
 51
111.838
  0
ARC
  8
1_AXIS
 62
7
  6
CONTINUOUS
 10
158.4429250892
 20
86.7344678954
 40
2.0
 50
0.0
 51
90.0
  0
ARC
  8
1_AXIS
 62
7
  6
CONTINUOUS
 10
158.4429250892
 20
65.7344678954
 40
2.0
 50
270.0
 51
360.0
  0
ARC
  8
1_AXIS
 62
7
  6
CONTINUOUS
 10
42.4429250892
 20
86.7344678954
 40
2.0
 50
90.0
 51
180.0
  0
ARC
  8
1_AXIS
 62
7
  6
CONTINUOUS
 10
42.4429250892
 20
65.7344678954
 40
2.0
 50
180.0
 51
270.0
  0
ARC
  8
1_AXIS
 62
7
  6
CONTINUOUS
 10
161.4429250892
 20
81.2344678954
 40
1.0
 50
180.0
 51
270.0
  0
ARC
  8
1_AXIS
 62
7
  6
CONTINUOUS
 10
161.4429250892
 20
71.2344678954
 40
1.0
 50
90.0
 51
180.0
  0
ARC
  8
1_AXIS
 62
7
  6
CONTINUOUS
 10
39.4429250892
 20
81.2344678954
 40
1.0
 50
270.0
 51
360.0
  0
ARC
  8
1_AXIS
 62
7
  6
CONTINUOUS
 10
39.4429250892
 20
71.2344678954
 40
1.0
 50
0.0
 51
90.0
  0
ENDSEC
  0
EOF
