  0
SECTION
  2
HEADER
  9
$EXTMAX
 10
210.0
 20
297.0
 30
0.0
  9
$EXTMIN
 10
0.0
 20
0.0
 30
0.0
  9
$LIMMIN
 10
0.0
 20
0.0
  9
$LIMMAX
 10
210.0
 20
297.0
  9
$VIEWCTR
 10
105.0
 20
148.5
  9
$VIEWSIZE
 40
297.0
  9
$CLAYER
  8
0
  9
$LTSCALE
 40
19.36
  9
$CELTYPE
  6
BYLAYER
  9
$DIMSCALE
 40
1.0
  9
$DIMASZ
 40
3.5
  9
$DIMEXO
 40
1.0
  9
$DIMDLI
 40
13.376
  9
$DIMEXE
 40
2.0
  9
$DIMCEN
 40
3.168
  9
$DIMLFAC
 40
1.0
  9
$DIMBLK
  1
_FILLED
  9
$DIMALT
 70
0
  9
$DIMALTF
 40
0.0393700787
  9
$DIMTXT
 40
3.5
  9
$AUNITS
 70
0
  9
$PDMODE
 70
3
  9
$PDSIZE
 40
0.3125
  9
$TILEMODE
 70
1
  0
ENDSEC
  0
SECTION
  2
TABLES
  0
TABLE
  2
LTYPE
 70
6
  0
LTYPE
  2
BYBLOCK
 70
0
  3

 72
65
 73
0
 40
0.0
  0
LTYPE
  2
BYLAYER
 70
0
  3

 72
65
 73
0
 40
0.0
  0
LTYPE
  2
CONTINUOUS
 70
64
  3
Solid line
 72
65
 73
0
 40
0.0
  0
LTYPE
  2
CENTER
 70
64
  3
____ _ ____ _ ____ _ ____ _ ____ _ ____ _ ____
 72
65
 73
4
 40
0.6
 49
0.375
 49
-0.075
 49
0.075
 49
-0.075
  0
LTYPE
  2
HIDDEN
 70
64
  3
- - - - - - - - - - - - - - - - - - - -
 72
65
 73
2
 40
0.2
 49
0.1
 49
-0.1
  0
LTYPE
  2
PHANTOM
 70
64
  3
_____ _ _ _____ _ _ _____ _ _ _____
 72
65
 73
6
 40
0.8
 49
0.45
 49
-0.05
 49
0.1
 49
-0.05
 49
0.1
 49
-0.05
  0
LTYPE
  2
DOT
 70
64
  3
. . . . . . . . . . . . . . . . . . . .
 72
65
 73
2
 40
0.2
 49
0.1
 49
-0.1
  0
LTYPE
  2
DASHED
 70
64
  3
- - - - - - - - - - - - - - - - - - - -
 72
65
 73
2
 40
0.2
 49
0.1
 49
-0.1
  0
ENDTAB
  0
TABLE
  2
LAYER
 70
36
  0
LAYER
  2
0
 70
0
 62
7
  6
CONTINUOUS
  0
LAYER
  2
DEFAULT_1
 70
0
 62
7
  6
CENTER
  0
LAYER
  2
DEFAULT_2
 70
0
 62
8
  6
HIDDEN
  0
LAYER
  2
DEFAULT_3
 70
0
 62
7
  6
PHANTOM
  0
LAYER
  2
1_AXIS
 70
0
 62
7
  6
CONTINUOUS
  0
LAYER
  2
1_CSYS
 70
0
 62
7
  6
CONTINUOUS
  0
LAYER
  2
1_DATUM_PLANE
 70
0
 62
7
  6
CONTINUOUS
  0
LAYER
  2
2_FEATURE
 70
0
 62
7
  6
CONTINUOUS
  0
LAYER
  2
6_DIM
 70
0
 62
7
  6
CONTINUOUS
  0
LAYER
  2
AXES
 70
0
 62
7
  6
CONTINUOUS
  0
LAYER
  2
CSYS
 70
0
 62
7
  6
CONTINUOUS
  0
LAYER
  2
PITCH
 70
0
 62
7
  6
CONTINUOUS
  0
LAYER
  2
PLANES
 70
0
 62
7
  6
CONTINUOUS
  0
LAYER
  2
QUILTS
 70
0
 62
7
  6
CONTINUOUS
  0
LAYER
  2
SQ
 70
0
 62
7
  6
CONTINUOUS
  0
ENDTAB
  0
TABLE
  2
STYLE
 70
1
  0
STYLE
  2
STANDARD
 70
0
 40
0.0
 41
0.8
 50
0.0
 71
0
 42
0.2
  3
txt
  4

  0
STYLE
  2
TEXTSTYLE_1
 70
0
 40
0.0
 41
0.8
 50
0.0
 71
0
 42
0.2
  3
gdt
  4

  0
STYLE
  2
TEXTSTYLE_2
 70
0
 40
0.0
 41
0.6
 50
0.0
 71
0
 42
0.2
  3
txt
  4

  0
STYLE
  2
TEXTSTYLE_3
 70
0
 40
0.0
 41
1.0
 50
0.0
 71
0
 42
0.2
  3
ftb_____.ttf
  4

  0
STYLE
  2
TEXTSTYLE_4
 70
0
 40
0.0
 41
1.0
 50
0.0
 71
0
 42
0.2
  3
fti_____.ttf
  4

  0
STYLE
  2
TEXTSTYLE_5
 70
0
 40
0.0
 41
1.0
 50
0.0
 71
0
 42
0.2
  3
frutiger light.ttf
  4

  0
STYLE
  2
TEXTSTYLE_6
 70
0
 40
0.0
 41
0.7
 50
0.0
 71
0
 42
0.2
  3
txt
  4

  0
STYLE
  2
TEXTSTYLE_7
 70
0
 40
0.0
 41
0.6
 50
0.0
 71
0
 42
0.2
  3
txt
  4

  0
ENDTAB
  0
ENDSEC
  0
SECTION
  2
BLOCKS
  0
BLOCK
  8
0
 62
2
  6
CONTINUOUS
  2
UNI_LOGO2_BL1
 70
64
 10
173.5956734183
 20
35.5937998301
  0
TEXT
  8
0
 62
7
  6
CONTINUOUS
 10
164.6539584268
 20
30.6865562072
  7
TEXTSTYLE_4
 40
1.0655737705
  1
The brand for plastic modular belts and chains
 41
1.0
 72
0
  0
LINE
  8
0
 62
7
  6
CONTINUOUS
 10
149.5737418074
 20
36.1675703219
 11
149.5737418074
 21
34.0364227809
  0
LINE
  8
0
 62
7
  6
CONTINUOUS
 10
149.8628043005
 20
31.0454914852
 11
149.8628043005
 21
31.1422825445
  0
LINE
  8
0
 62
7
  6
CONTINUOUS
 10
149.5737418074
 20
31.1100188581
 11
149.6315543091
 21
30.9164367395
  0
LINE
  8
0
 62
7
  6
CONTINUOUS
 10
150.9671844304
 20
33.9544555678
 11
150.9671844304
 21
36.1675703219
  0
LINE
  8
0
 62
7
  6
CONTINUOUS
 10
151.8862417523
 20
32.1101932727
 11
151.8862417523
 21
30.5937998301
  0
LINE
  8
0
 62
7
  6
CONTINUOUS
 10
152.1753043074
 20
30.5937998301
 11
152.1753043074
 21
31.3358647082
  0
LINE
  8
0
 62
7
  6
CONTINUOUS
 10
152.1753043074
 20
31.4649194539
 11
152.1753043074
 21
32.1101932727
  0
LINE
  8
0
 62
7
  6
CONTINUOUS
 10
149.6315543091
 20
31.3036010218
 11
149.5737418074
 21
31.1100188581
  0
LINE
  8
0
 62
7
  6
CONTINUOUS
 10
149.9784292936
 20
30.8841730531
 11
149.8628043005
 21
31.0454914852
  0
LINE
  8
0
 62
7
  6
CONTINUOUS
 10
151.0768668626
 20
31.400392081
 11
151.1346793074
 21
31.3036010218
  0
LINE
  8
0
 62
7
  6
CONTINUOUS
 10
151.4237418626
 20
31.3036010218
 11
151.3659292523
 21
31.4326557675
  0
LINE
  8
0
 62
7
  6
CONTINUOUS
 10
152.852430332
 20
36.1675703219
 11
152.852430332
 21
34.3642916334
  0
LINE
  8
0
 62
7
  6
CONTINUOUS
 10
152.852430332
 20
33.0528162235
 11
152.852430332
 21
32.3970785186
  0
LINE
  8
0
 62
7
  6
CONTINUOUS
 10
153.2159293074
 20
31.2390736489
 11
153.2159293074
 21
30.5937998301
  0
LINE
  8
0
 62
7
  6
CONTINUOUS
 10
153.5049916972
 20
30.5937998301
 11
153.5049916972
 21
31.2390736489
  0
LINE
  8
0
 62
7
  6
CONTINUOUS
 10
149.8628043005
 20
31.1422825445
 11
149.9206168074
 21
31.2713373354
  0
LINE
  8
0
 62
7
  6
CONTINUOUS
 10
149.6315543091
 20
30.9164367395
 11
149.7471793074
 21
30.7873819712
  0
LINE
  8
0
 62
7
  6
CONTINUOUS
 10
153.1581166972
 20
31.3681283946
 11
153.2159293074
 21
31.2390736489
  0
LINE
  8
0
 62
7
  6
CONTINUOUS
 10
153.9674919177
 20
30.8841730531
 11
154.0253041972
 21
30.7551182848
  0
LINE
  8
0
 62
7
  6
CONTINUOUS
 10
153.5049916972
 20
31.2390736489
 11
153.4471794177
 21
31.400392081
  0
LINE
  8
0
 62
7
  6
CONTINUOUS
 10
153.9674919177
 20
31.4326557675
 11
153.9674919177
 21
31.3681283946
  0
LINE
  8
0
 62
7
  6
CONTINUOUS
 10
153.9674919177
 20
30.9809641124
 11
153.9674919177
 21
30.8841730531
  0
LINE
  8
0
 62
7
  6
CONTINUOUS
 10
154.245872955
 20
32.3970785186
 11
154.245872955
 21
36.1675703219
  0
LINE
  8
0
 62
7
  6
CONTINUOUS
 10
154.2565543074
 20
30.8519093441
 11
154.2565543074
 21
30.9164367395
  0
LINE
  8
0
 62
7
  6
CONTINUOUS
 10
154.5737418074
 20
36.1675703219
 11
154.5737418074
 21
32.3970785186
  0
LINE
  8
0
 62
7
  6
CONTINUOUS
 10
151.3659292523
 20
30.7873819712
 11
151.4237418626
 21
30.9164367395
  0
LINE
  8
0
 62
7
  6
CONTINUOUS
 10
155.759679528
 20
30.6905909007
 11
155.7018665869
 21
30.8519093441
  0
LINE
  8
0
 62
7
  6
CONTINUOUS
 10
155.412804528
 20
31.3681283946
 11
155.412804528
 21
31.2713373354
  0
LINE
  8
0
 62
7
  6
CONTINUOUS
 10
155.412804528
 20
31.1422825445
 11
155.412804528
 21
30.9487004259
  0
LINE
  8
0
 62
7
  6
CONTINUOUS
 10
155.7018665869
 20
30.8519093441
 11
155.7018665869
 21
31.3681283946
  0
LINE
  8
0
 62
7
  6
CONTINUOUS
 10
155.9671844304
 20
32.3970785186
 11
155.9671844304
 21
34.2003572071
  0
LINE
  8
0
 62
7
  6
CONTINUOUS
 10
155.9671844304
 20
35.511832617
 11
155.9671844304
 21
36.1675703219
  0
LINE
  8
0
 62
7
  6
CONTINUOUS
 10
156.279992028
 20
32.1101932727
 11
156.279992028
 21
31.9488748406
  0
LINE
  8
0
 62
7
  6
CONTINUOUS
 10
156.279992028
 20
31.626237886
 11
156.279992028
 21
30.5937998301
  0
LINE
  8
0
 62
7
  6
CONTINUOUS
 10
156.5690540869
 20
30.5937998301
 11
156.5690540869
 21
31.626237886
  0
LINE
  8
0
 62
7
  6
CONTINUOUS
 10
156.5690540869
 20
31.9488748406
 11
156.5690540869
 21
32.1101932727
  0
LINE
  8
0
 62
7
  6
CONTINUOUS
 10
151.1346793074
 20
30.9164367395
 11
151.0768668626
 21
30.8196456577
  0
LINE
  8
0
 62
7
  6
CONTINUOUS
 10
153.4471794177
 20
31.400392081
 11
153.3893668074
 21
31.4649194539
  0
LINE
  8
0
 62
7
  6
CONTINUOUS
 10
154.3143669177
 20
30.7873819712
 11
154.2565543074
 21
30.8519093441
  0
LINE
  8
0
 62
7
  6
CONTINUOUS
 10
155.4706168074
 20
30.6583272086
 11
155.5284290869
 21
30.5937998301
  0
LINE
  8
0
 62
7
  6
CONTINUOUS
 10
155.412804528
 20
30.7551182848
 11
155.4706168074
 21
30.6583272086
  0
LINE
  8
0
 62
7
  6
CONTINUOUS
 10
155.8174918074
 20
30.5937998301
 11
155.759679528
 21
30.6905909007
  0
LINE
  8
0
 62
7
  6
CONTINUOUS
 10
155.7018665869
 20
31.3681283946
 11
155.6440543074
 21
31.4649194539
  0
LINE
  8
0
 62
7
  6
CONTINUOUS
 10
157.0315543074
 20
31.626237886
 11
157.0315543074
 21
30.5937998301
  0
LINE
  8
0
 62
7
  6
CONTINUOUS
 10
157.320617028
 20
30.5937998301
 11
157.320617028
 21
31.3358647082
  0
LINE
  8
0
 62
7
  6
CONTINUOUS
 10
157.320617028
 20
31.4649194539
 11
157.320617028
 21
31.626237886
  0
LINE
  8
0
 62
7
  6
CONTINUOUS
 10
157.852430332
 20
34.6101932727
 11
157.852430332
 21
32.3970785186
  0
LINE
  8
0
 62
7
  6
CONTINUOUS
 10
149.7471793074
 20
31.4326557675
 11
149.6315543091
 21
31.3036010218
  0
LINE
  8
0
 62
7
  6
CONTINUOUS
 10
149.9206168074
 20
31.2713373354
 11
149.9784292936
 21
31.3358647082
  0
LINE
  8
0
 62
7
  6
CONTINUOUS
 10
149.7471793074
 20
30.7873819712
 11
149.8628043005
 21
30.7228545871
  0
LINE
  8
0
 62
7
  6
CONTINUOUS
 10
150.1518667936
 20
30.7873819712
 11
149.9784292936
 21
30.8841730531
  0
LINE
  8
0
 62
7
  6
CONTINUOUS
 10
155.3549915869
 20
31.4326557675
 11
155.412804528
 21
31.3681283946
  0
LINE
  8
0
 62
7
  6
CONTINUOUS
 10
158.3034290869
 20
31.3681283946
 11
158.361242028
 21
31.2068099625
  0
LINE
  8
0
 62
7
  6
CONTINUOUS
 10
158.6503040869
 20
31.2068099625
 11
158.5924918074
 21
31.3681283946
  0
LINE
  8
0
 62
7
  6
CONTINUOUS
 10
158.361242028
 20
31.2068099625
 11
158.361242028
 21
30.5937998301
  0
LINE
  8
0
 62
7
  6
CONTINUOUS
 10
158.6503040869
 20
30.5937998301
 11
158.6503040869
 21
31.2068099625
  0
LINE
  8
0
 62
7
  6
CONTINUOUS
 10
159.1128043074
 20
31.4326557675
 11
159.1128043074
 21
31.3681283946
  0
LINE
  8
0
 62
7
  6
CONTINUOUS
 10
159.245872955
 20
32.3970785186
 11
159.245872955
 21
34.5282260596
  0
LINE
  8
0
 62
7
  6
CONTINUOUS
 10
159.5737418074
 20
36.1675703219
 11
159.5737418074
 21
32.3970785186
  0
LINE
  8
0
 62
7
  6
CONTINUOUS
 10
154.2565543074
 20
30.9164367395
 11
154.3143669177
 21
31.0132277988
  0
LINE
  8
0
 62
7
  6
CONTINUOUS
 10
149.8628043005
 20
30.7228545871
 11
150.0362418212
 21
30.6583272086
  0
LINE
  8
0
 62
7
  6
CONTINUOUS
 10
151.3659292523
 20
31.4326557675
 11
151.1924917523
 21
31.5294468267
  0
LINE
  8
0
 62
7
  6
CONTINUOUS
 10
154.0253041972
 20
30.7551182848
 11
154.1987416972
 21
30.6583272086
  0
LINE
  8
0
 62
7
  6
CONTINUOUS
 10
153.0424918074
 20
31.4326557675
 11
153.1581166972
 21
31.3681283946
  0
LINE
  8
0
 62
7
  6
CONTINUOUS
 10
153.3893668074
 20
31.4649194539
 11
153.2737419177
 21
31.5294468267
  0
LINE
  8
0
 62
7
  6
CONTINUOUS
 10
159.1128043074
 20
30.8519093441
 11
159.228429528
 21
30.7228545871
  0
LINE
  8
0
 62
7
  6
CONTINUOUS
 10
159.4596793074
 20
30.7873819712
 11
159.401867028
 21
30.8519093441
  0
LINE
  8
0
 62
7
  6
CONTINUOUS
 10
159.1128043074
 20
31.3681283946
 11
159.228429528
 21
31.2390736489
  0
LINE
  8
0
 62
7
  6
CONTINUOUS
 10
158.5924918074
 20
31.3681283946
 11
158.534679528
 21
31.4649194539
  0
LINE
  8
0
 62
7
  6
CONTINUOUS
 10
160.9628038663
 20
30.7873819712
 11
160.9628038663
 21
30.8519093441
  0
LINE
  8
0
 62
7
  6
CONTINUOUS
 10
160.9671844304
 20
32.3970785186
 11
160.9671844304
 21
36.1675703219
  0
LINE
  8
0
 62
7
  6
CONTINUOUS
 10
154.0253041972
 20
31.4971831403
 11
153.9674919177
 21
31.4326557675
  0
LINE
  8
0
 62
7
  6
CONTINUOUS
 10
150.9034292799
 20
31.4649194539
 11
151.0768668626
 21
31.400392081
  0
LINE
  8
0
 62
7
  6
CONTINUOUS
 10
155.6440543074
 20
31.4649194539
 11
155.5284290869
 21
31.5294468267
  0
LINE
  8
0
 62
7
  6
CONTINUOUS
 10
159.4596793074
 20
31.3036010218
 11
159.401867028
 21
31.3681283946
  0
LINE
  8
0
 62
7
  6
CONTINUOUS
 10
160.615929528
 20
30.9164367395
 11
160.6737418074
 21
30.8519093441
  0
LINE
  8
0
 62
7
  6
CONTINUOUS
 10
160.9628038663
 20
30.8519093441
 11
160.8471793074
 21
30.9809641124
  0
LINE
  8
0
 62
7
  6
CONTINUOUS
 10
160.615929528
 20
31.4326557675
 11
160.6737418074
 21
31.3681283946
  0
LINE
  8
0
 62
7
  6
CONTINUOUS
 10
160.9628038663
 20
31.3681283946
 11
160.8471793074
 21
31.4971831403
  0
LINE
  8
0
 62
7
  6
CONTINUOUS
 10
154.2565543074
 20
31.3681283946
 11
154.3143669177
 21
31.4326557675
  0
LINE
  8
0
 62
7
  6
CONTINUOUS
 10
154.0831168074
 20
31.1100188581
 11
153.9674919177
 21
30.9809641124
  0
LINE
  8
0
 62
7
  6
CONTINUOUS
 10
155.412804528
 20
30.9487004259
 11
155.3549915869
 21
30.8841730531
  0
LINE
  8
0
 62
7
  6
CONTINUOUS
 10
155.3549915869
 20
30.6905909007
 11
155.412804528
 21
30.7551182848
  0
LINE
  8
0
 62
7
  6
CONTINUOUS
 10
154.1987416972
 20
30.6583272086
 11
154.3143669177
 21
30.6260635193
  0
LINE
  8
0
 62
7
  6
CONTINUOUS
 10
151.1924917523
 20
31.5294468267
 11
150.9612418074
 21
31.5939741996
  0
LINE
  8
0
 62
7
  6
CONTINUOUS
 10
154.5456166972
 20
30.7228545871
 11
154.3143669177
 21
30.7873819712
  0
LINE
  8
0
 62
7
  6
CONTINUOUS
 10
153.2737419177
 20
31.5294468267
 11
153.1003044177
 21
31.5939741996
  0
LINE
  8
0
 62
7
  6
CONTINUOUS
 10
155.5284290869
 20
31.5294468267
 11
155.3549915869
 21
31.5939741996
  0
LINE
  8
0
 62
7
  6
CONTINUOUS
 10
158.187804528
 20
31.4326557675
 11
158.3034290869
 21
31.3681283946
  0
LINE
  8
0
 62
7
  6
CONTINUOUS
 10
158.534679528
 20
31.4649194539
 11
158.4190543074
 21
31.5294468267
  0
LINE
  8
0
 62
7
  6
CONTINUOUS
 10
150.0362418212
 20
30.6583272086
 11
150.2096793212
 21
30.6260635193
  0
LINE
  8
0
 62
7
  6
CONTINUOUS
 10
150.498741835
 20
30.7228545871
 11
150.1518667936
 21
30.7873819712
  0
LINE
  8
0
 62
7
  6
CONTINUOUS
 10
152.9268669177
 20
31.4649194539
 11
153.0424918074
 21
31.4326557675
  0
LINE
  8
0
 62
7
  6
CONTINUOUS
 10
155.239367028
 20
31.4649194539
 11
155.3549915869
 21
31.4326557675
  0
LINE
  8
0
 62
7
  6
CONTINUOUS
 10
159.575304528
 20
30.7551182848
 11
159.4596793074
 21
30.7873819712
  0
LINE
  8
0
 62
7
  6
CONTINUOUS
 10
158.0721793074
 20
31.4649194539
 11
158.187804528
 21
31.4326557675
  0
LINE
  8
0
 62
7
  6
CONTINUOUS
 10
159.228429528
 20
30.7228545871
 11
159.401867028
 21
30.6583272086
  0
LINE
  8
0
 62
7
  6
CONTINUOUS
 10
158.4190543074
 20
31.5294468267
 11
158.2456168074
 21
31.5939741996
  0
LINE
  8
0
 62
7
  6
CONTINUOUS
 10
159.6331168074
 20
31.2390736489
 11
159.4596793074
 21
31.3036010218
  0
LINE
  8
0
 62
7
  6
CONTINUOUS
 10
160.442492028
 20
30.9809641124
 11
160.615929528
 21
30.9164367395
  0
LINE
  8
0
 62
7
  6
CONTINUOUS
 10
160.8471793074
 20
31.4971831403
 11
160.6737418074
 21
31.5617105132
  0
LINE
  8
0
 62
7
  6
CONTINUOUS
 10
159.228429528
 20
31.2390736489
 11
159.4596793074
 21
31.1422825445
  0
LINE
  8
0
 62
7
  6
CONTINUOUS
 10
160.8471793074
 20
30.9809641124
 11
160.615929528
 21
31.0777551716
  0
LINE
  8
0
 62
7
  6
CONTINUOUS
 10
159.401867028
 20
31.3681283946
 11
159.4596793074
 21
31.4326557675
  0
LINE
  8
0
 62
7
  6
CONTINUOUS
 10
149.8628043005
 20
31.4971831403
 11
149.7471793074
 21
31.4326557675
  0
LINE
  8
0
 62
7
  6
CONTINUOUS
 10
149.9784292936
 20
31.3358647082
 11
150.1518667936
 21
31.4326557675
  0
LINE
  8
0
 62
7
  6
CONTINUOUS
 10
152.2909293626
 20
31.5294468267
 11
152.1753043074
 21
31.4649194539
  0
LINE
  8
0
 62
7
  6
CONTINUOUS
 10
152.1753043074
 20
31.3358647082
 11
152.2909293626
 21
31.400392081
  0
LINE
  8
0
 62
7
  6
CONTINUOUS
 10
151.1924917523
 20
30.6905909007
 11
151.3659292523
 21
30.7873819712
  0
LINE
  8
0
 62
7
  6
CONTINUOUS
 10
150.2096793212
 20
30.6260635193
 11
150.5565542799
 21
30.5937998301
  0
LINE
  8
0
 62
7
  6
CONTINUOUS
 10
154.3143669177
 20
30.6260635193
 11
154.5456166972
 21
30.5937998301
  0
LINE
  8
0
 62
7
  6
CONTINUOUS
 10
152.6956168074
 20
31.4971831403
 11
152.9268669177
 21
31.4649194539
  0
LINE
  8
0
 62
7
  6
CONTINUOUS
 10
155.0081169177
 20
31.4971831403
 11
155.239367028
 21
31.4649194539
  0
LINE
  8
0
 62
7
  6
CONTINUOUS
 10
159.4596793074
 20
31.1422825445
 11
160.442492028
 21
30.9809641124
  0
LINE
  8
0
 62
7
  6
CONTINUOUS
 10
160.615929528
 20
31.0777551716
 11
159.6331168074
 21
31.2390736489
  0
LINE
  8
0
 62
7
  6
CONTINUOUS
 10
153.1003044177
 20
31.5939741996
 11
152.9268669177
 21
31.626237886
  0
LINE
  8
0
 62
7
  6
CONTINUOUS
 10
159.401867028
 20
30.6583272086
 11
159.575304528
 21
30.6260635193
  0
LINE
  8
0
 62
7
  6
CONTINUOUS
 10
158.2456168074
 20
31.5939741996
 11
158.0721793074
 21
31.626237886
  0
LINE
  8
0
 62
7
  6
CONTINUOUS
 10
160.5003043074
 20
31.4649194539
 11
160.615929528
 21
31.4326557675
  0
LINE
  8
0
 62
7
  6
CONTINUOUS
 10
160.6737418074
 20
30.8519093441
 11
160.615929528
 21
30.7873819712
  0
LINE
  8
0
 62
7
  6
CONTINUOUS
 10
159.228429528
 20
31.5294468267
 11
159.1128043074
 21
31.4326557675
  0
LINE
  8
0
 62
7
  6
CONTINUOUS
 10
154.1409294177
 20
31.5617105132
 11
154.0253041972
 21
31.4971831403
  0
LINE
  8
0
 62
7
  6
CONTINUOUS
 10
154.1987416972
 20
31.1745462761
 11
154.0831168074
 21
31.1100188581
  0
LINE
  8
0
 62
7
  6
CONTINUOUS
 10
154.3143669177
 20
31.0132277988
 11
154.4299918074
 21
31.0777551716
  0
LINE
  8
0
 62
7
  6
CONTINUOUS
 10
151.8862417523
 20
30.5937998301
 11
152.1753043074
 21
30.5937998301
  0
LINE
  8
0
 62
7
  6
CONTINUOUS
 10
153.2159293074
 20
30.5937998301
 11
153.5049916972
 21
30.5937998301
  0
LINE
  8
0
 62
7
  6
CONTINUOUS
 10
154.5456166972
 20
30.5937998301
 11
154.8924916972
 21
30.5937998301
  0
LINE
  8
0
 62
7
  6
CONTINUOUS
 10
155.5284290869
 20
30.5937998301
 11
155.8174918074
 21
30.5937998301
  0
LINE
  8
0
 62
7
  6
CONTINUOUS
 10
156.279992028
 20
30.5937998301
 11
156.5690540869
 21
30.5937998301
  0
LINE
  8
0
 62
7
  6
CONTINUOUS
 10
157.0315543074
 20
30.5937998301
 11
157.320617028
 21
30.5937998301
  0
LINE
  8
0
 62
7
  6
CONTINUOUS
 10
158.361242028
 20
30.5937998301
 11
158.6503040869
 21
30.5937998301
  0
LINE
  8
0
 62
7
  6
CONTINUOUS
 10
159.922179528
 20
30.5937998301
 11
160.269054528
 21
30.5937998301
  0
LINE
  8
0
 62
7
  6
CONTINUOUS
 10
160.269054528
 20
30.7228545871
 11
159.922179528
 21
30.7228545871
  0
LINE
  8
0
 62
7
  6
CONTINUOUS
 10
154.8924916972
 20
30.7228545871
 11
154.5456166972
 21
30.7228545871
  0
LINE
  8
0
 62
7
  6
CONTINUOUS
 10
159.401867028
 20
30.8519093441
 11
159.1128043074
 21
30.8519093441
  0
LINE
  8
0
 62
7
  6
CONTINUOUS
 10
151.4237418626
 20
30.9164367395
 11
151.1346793074
 21
30.9164367395
  0
LINE
  8
0
 62
7
  6
CONTINUOUS
 10
150.498741835
 20
31.4971831403
 11
150.9034292799
 21
31.4649194539
  0
LINE
  8
0
 62
7
  6
CONTINUOUS
 10
150.9612418074
 20
31.5939741996
 11
150.5565542799
 21
31.626237886
  0
LINE
  8
0
 62
7
  6
CONTINUOUS
 10
159.575304528
 20
30.6260635193
 11
159.922179528
 21
30.5937998301
  0
LINE
  8
0
 62
7
  6
CONTINUOUS
 10
159.922179528
 20
30.7228545871
 11
159.575304528
 21
30.7551182848
  0
LINE
  8
0
 62
7
  6
CONTINUOUS
 10
155.3549915869
 20
31.5939741996
 11
155.0081169177
 21
31.626237886
  0
LINE
  8
0
 62
7
  6
CONTINUOUS
 10
160.1534293074
 20
31.4971831403
 11
160.5003043074
 21
31.4649194539
  0
LINE
  8
0
 62
7
  6
CONTINUOUS
 10
160.5003043074
 20
31.5939741996
 11
160.1534293074
 21
31.626237886
  0
LINE
  8
0
 62
7
  6
CONTINUOUS
 10
157.840929528
 20
31.4971831403
 11
158.0721793074
 21
31.4649194539
  0
LINE
  8
0
 62
7
  6
CONTINUOUS
 10
160.6737418074
 20
31.5617105132
 11
160.5003043074
 21
31.5939741996
  0
LINE
  8
0
 62
7
  6
CONTINUOUS
 10
160.8471793074
 20
30.6905909007
 11
160.9628038663
 21
30.7873819712
  0
LINE
  8
0
 62
7
  6
CONTINUOUS
 10
155.3549915869
 20
30.8841730531
 11
155.1815540869
 21
30.7873819712
  0
LINE
  8
0
 62
7
  6
CONTINUOUS
 10
157.4362415869
 20
31.5294468267
 11
157.320617028
 21
31.4649194539
  0
LINE
  8
0
 62
7
  6
CONTINUOUS
 10
157.320617028
 20
31.3358647082
 11
157.4362415869
 21
31.400392081
  0
LINE
  8
0
 62
7
  6
CONTINUOUS
 10
150.0362418212
 20
31.5617105132
 11
149.8628043005
 21
31.4971831403
  0
LINE
  8
0
 62
7
  6
CONTINUOUS
 10
152.4643666972
 20
31.5939741996
 11
152.2909293626
 21
31.5294468267
  0
LINE
  8
0
 62
7
  6
CONTINUOUS
 10
152.2909293626
 20
31.400392081
 11
152.4643666972
 21
31.4649194539
  0
LINE
  8
0
 62
7
  6
CONTINUOUS
 10
151.0768668626
 20
30.8196456577
 11
150.9034292799
 21
30.7551182848
  0
LINE
  8
0
 62
7
  6
CONTINUOUS
 10
160.5003043074
 20
30.7551182848
 11
160.269054528
 21
30.7228545871
  0
LINE
  8
0
 62
7
  6
CONTINUOUS
 10
154.8924916972
 20
30.5937998301
 11
155.1815540869
 21
30.6260635193
  0
LINE
  8
0
 62
7
  6
CONTINUOUS
 10
160.269054528
 20
30.5937998301
 11
160.615929528
 21
30.6260635193
  0
LINE
  8
0
 62
7
  6
CONTINUOUS
 10
150.5565542799
 20
30.5937998301
 11
150.9612418074
 21
30.6260635193
  0
LINE
  8
0
 62
7
  6
CONTINUOUS
 10
150.9034292799
 20
30.7551182848
 11
150.498741835
 21
30.7228545871
  0
LINE
  8
0
 62
7
  6
CONTINUOUS
 10
154.7768668074
 20
31.1422825445
 11
155.412804528
 21
31.1422825445
  0
LINE
  8
0
 62
7
  6
CONTINUOUS
 10
155.412804528
 20
31.2713373354
 11
154.7768668074
 21
31.2713373354
  0
LINE
  8
0
 62
7
  6
CONTINUOUS
 10
151.1346793074
 20
31.3036010218
 11
151.4237418626
 21
31.3036010218
  0
LINE
  8
0
 62
7
  6
CONTINUOUS
 10
153.9674919177
 20
31.3681283946
 11
154.2565543074
 21
31.3681283946
  0
LINE
  8
0
 62
7
  6
CONTINUOUS
 10
160.6737418074
 20
31.3681283946
 11
160.9628038663
 21
31.3681283946
  0
LINE
  8
0
 62
7
  6
CONTINUOUS
 10
154.6612419177
 20
31.4971831403
 11
155.0081169177
 21
31.4971831403
  0
LINE
  8
0
 62
7
  6
CONTINUOUS
 10
159.8065543074
 20
31.4971831403
 11
160.1534293074
 21
31.4971831403
  0
LINE
  8
0
 62
7
  6
CONTINUOUS
 10
160.1534293074
 20
31.626237886
 11
159.8065543074
 21
31.626237886
  0
LINE
  8
0
 62
7
  6
CONTINUOUS
 10
158.0721793074
 20
31.626237886
 11
157.840929528
 21
31.626237886
  0
LINE
  8
0
 62
7
  6
CONTINUOUS
 10
157.320617028
 20
31.626237886
 11
157.0315543074
 21
31.626237886
  0
LINE
  8
0
 62
7
  6
CONTINUOUS
 10
156.5690540869
 20
31.626237886
 11
156.279992028
 21
31.626237886
  0
LINE
  8
0
 62
7
  6
CONTINUOUS
 10
155.0081169177
 20
31.626237886
 11
154.6612419177
 21
31.626237886
  0
LINE
  8
0
 62
7
  6
CONTINUOUS
 10
152.9268669177
 20
31.626237886
 11
152.6956168074
 21
31.626237886
  0
LINE
  8
0
 62
7
  6
CONTINUOUS
 10
156.279992028
 20
31.9488748406
 11
156.5690540869
 21
31.9488748406
  0
LINE
  8
0
 62
7
  6
CONTINUOUS
 10
156.5690540869
 20
32.1101932727
 11
156.279992028
 21
32.1101932727
  0
LINE
  8
0
 62
7
  6
CONTINUOUS
 10
152.1753043074
 20
32.1101932727
 11
151.8862417523
 21
32.1101932727
  0
LINE
  8
0
 62
7
  6
CONTINUOUS
 10
151.2130860697
 20
32.3970785186
 11
151.6256574183
 21
32.3970785186
  0
LINE
  8
0
 62
7
  6
CONTINUOUS
 10
152.852430332
 20
32.3970785186
 11
154.245872955
 21
32.3970785186
  0
LINE
  8
0
 62
7
  6
CONTINUOUS
 10
154.5737418074
 20
32.3970785186
 11
155.9671844304
 21
32.3970785186
  0
LINE
  8
0
 62
7
  6
CONTINUOUS
 10
157.852430332
 20
32.3970785186
 11
159.245872955
 21
32.3970785186
  0
LINE
  8
0
 62
7
  6
CONTINUOUS
 10
159.5737418074
 20
32.3970785186
 11
160.9671844304
 21
32.3970785186
  0
LINE
  8
0
 62
7
  6
CONTINUOUS
 10
157.6096790869
 20
31.5939741996
 11
157.4362415869
 21
31.5294468267
  0
LINE
  8
0
 62
7
  6
CONTINUOUS
 10
155.1815540869
 20
30.6260635193
 11
155.3549915869
 21
30.6905909007
  0
LINE
  8
0
 62
7
  6
CONTINUOUS
 10
160.615929528
 20
30.6260635193
 11
160.8471793074
 21
30.6905909007
  0
LINE
  8
0
 62
7
  6
CONTINUOUS
 10
160.615929528
 20
30.7873819712
 11
160.5003043074
 21
30.7551182848
  0
LINE
  8
0
 62
7
  6
CONTINUOUS
 10
159.575304528
 20
31.4649194539
 11
159.8065543074
 21
31.4971831403
  0
LINE
  8
0
 62
7
  6
CONTINUOUS
 10
157.6096790869
 20
31.4649194539
 11
157.840929528
 21
31.4971831403
  0
LINE
  8
0
 62
7
  6
CONTINUOUS
 10
154.5456166972
 20
31.1100188581
 11
154.7768668074
 21
31.1422825445
  0
LINE
  8
0
 62
7
  6
CONTINUOUS
 10
157.840929528
 20
31.626237886
 11
157.6096790869
 21
31.5939741996
  0
LINE
  8
0
 62
7
  6
CONTINUOUS
 10
154.4299918074
 20
31.4649194539
 11
154.6612419177
 21
31.4971831403
  0
LINE
  8
0
 62
7
  6
CONTINUOUS
 10
159.8065543074
 20
31.626237886
 11
159.4596793074
 21
31.5939741996
  0
LINE
  8
0
 62
7
  6
CONTINUOUS
 10
154.7768668074
 20
31.2713373354
 11
154.4299918074
 21
31.2390736489
  0
LINE
  8
0
 62
7
  6
CONTINUOUS
 10
150.5565542799
 20
31.626237886
 11
150.2096793212
 21
31.5939741996
  0
LINE
  8
0
 62
7
  6
CONTINUOUS
 10
154.6612419177
 20
31.626237886
 11
154.2565543074
 21
31.5939741996
  0
LINE
  8
0
 62
7
  6
CONTINUOUS
 10
152.0327582009
 20
33.5446195022
 11
151.3770204959
 21
33.5446195022
  0
LINE
  8
0
 62
7
  6
CONTINUOUS
 10
157.4362415869
 20
31.400392081
 11
157.6096790869
 21
31.4649194539
  0
LINE
  8
0
 62
7
  6
CONTINUOUS
 10
159.4596793074
 20
31.4326557675
 11
159.575304528
 21
31.4649194539
  0
LINE
  8
0
 62
7
  6
CONTINUOUS
 10
159.4596793074
 20
31.5939741996
 11
159.228429528
 21
31.5294468267
  0
LINE
  8
0
 62
7
  6
CONTINUOUS
 10
155.1815540869
 20
30.7873819712
 11
154.8924916972
 21
30.7228545871
  0
LINE
  8
0
 62
7
  6
CONTINUOUS
 10
152.4643666972
 20
31.4649194539
 11
152.6956168074
 21
31.4971831403
  0
LINE
  8
0
 62
7
  6
CONTINUOUS
 10
152.6956168074
 20
31.626237886
 11
152.4643666972
 21
31.5939741996
  0
LINE
  8
0
 62
7
  6
CONTINUOUS
 10
150.2674918074
 20
31.4649194539
 11
150.498741835
 21
31.4971831403
  0
LINE
  8
0
 62
7
  6
CONTINUOUS
 10
156.7868565615
 20
35.0200293383
 11
157.4425942664
 21
35.0200293383
  0
LINE
  8
0
 62
7
  6
CONTINUOUS
 10
154.4299918074
 20
31.0777551716
 11
154.5456166972
 21
31.1100188581
  0
LINE
  8
0
 62
7
  6
CONTINUOUS
 10
154.4299918074
 20
31.2390736489
 11
154.1987416972
 21
31.1745462761
  0
LINE
  8
0
 62
7
  6
CONTINUOUS
 10
154.3143669177
 20
31.4326557675
 11
154.4299918074
 21
31.4649194539
  0
LINE
  8
0
 62
7
  6
CONTINUOUS
 10
150.9612418074
 20
30.6260635193
 11
151.1924917523
 21
30.6905909007
  0
LINE
  8
0
 62
7
  6
CONTINUOUS
 10
154.2565543074
 20
31.5939741996
 11
154.1409294177
 21
31.5617105132
  0
LINE
  8
0
 62
7
  6
CONTINUOUS
 10
150.2096793212
 20
31.5939741996
 11
150.0362418212
 21
31.5617105132
  0
LINE
  8
0
 62
7
  6
CONTINUOUS
 10
160.9671844304
 20
36.1675703219
 11
159.5737418074
 21
36.1675703219
  0
LINE
  8
0
 62
7
  6
CONTINUOUS
 10
157.6065286927
 20
36.1675703219
 11
157.1939573441
 21
36.1675703219
  0
LINE
  8
0
 62
7
  6
CONTINUOUS
 10
155.9671844304
 20
36.1675703219
 11
154.5737418074
 21
36.1675703219
  0
LINE
  8
0
 62
7
  6
CONTINUOUS
 10
154.245872955
 20
36.1675703219
 11
152.852430332
 21
36.1675703219
  0
LINE
  8
0
 62
7
  6
CONTINUOUS
 10
150.9671844304
 20
36.1675703219
 11
149.5737418074
 21
36.1675703219
  0
LINE
  8
0
 62
7
  6
CONTINUOUS
 10
150.1518667936
 20
31.4326557675
 11
150.2674918074
 21
31.4649194539
  0
CIRCLE
  8
0
 62
7
  6
CONTINUOUS
 10
160.2704631189
 20
38.5036358957
 40
2.0901639344
  0
ARC
  8
0
 62
7
  6
CONTINUOUS
 10
151.2130860697
 20
34.0364227809
 40
1.6393442623
 50
180.0
 51
270.0
  0
ARC
  8
0
 62
7
  6
CONTINUOUS
 10
157.6065286927
 20
34.5282260596
 40
1.6393442623
 50
0.0
 51
90.0
  0
ARC
  8
0
 62
7
  6
CONTINUOUS
 10
151.6256574183
 20
33.8724883547
 40
1.4754098361
 50
270.0
 51
326.2510114041
  0
ARC
  8
0
 62
7
  6
CONTINUOUS
 10
157.1939573441
 20
34.6921604858
 40
1.4754098361
 50
90.0
 51
146.2510114041
  0
ARC
  8
0
 62
7
  6
CONTINUOUS
 10
152.0327582009
 20
34.3642916334
 40
0.8196721311
 50
270.0
 51
360.0
  0
ARC
  8
0
 62
7
  6
CONTINUOUS
 10
156.7868565615
 20
34.2003572071
 40
0.8196721311
 50
90.0
 51
180.0
  0
ARC
  8
0
 62
7
  6
CONTINUOUS
 10
151.3770204959
 20
33.9544555678
 40
0.4098360656
 50
180.0
 51
270.0
  0
ARC
  8
0
 62
7
  6
CONTINUOUS
 10
157.4425942664
 20
34.6101932727
 40
0.4098360656
 50
0.0
 51
90.0
  0
SOLID
  8
0
 62
7
  6
CONTINUOUS
 10
156.279992028
 20
31.9488752009
 11
156.279992028
 21
32.1101936845
 12
156.5690540869
 22
31.9488752009
 13
156.5690540869
 23
32.1101936845
  0
SOLID
  8
0
 62
7
  6
CONTINUOUS
 10
150.5565542799
 20
31.6262382337
 11
150.9612418074
 21
31.5939740028
 12
150.2096793212
 22
31.5939740028
 13
150.2096793212
 23
31.5939740028
  0
SOLID
  8
0
 62
7
  6
CONTINUOUS
 10
150.0362418212
 20
31.5617111435
 11
150.2096793212
 21
31.5939740028
 12
150.9612418074
 22
31.5939740028
 13
150.9612418074
 23
31.5939740028
  0
SOLID
  8
0
 62
7
  6
CONTINUOUS
 10
150.9612418074
 20
31.5939740028
 11
151.1924917523
 21
31.5294468402
 12
150.0362418212
 22
31.5617111435
 13
150.0362418212
 23
31.5617111435
  0
SOLID
  8
0
 62
7
  6
CONTINUOUS
 10
149.8628043005
 20
31.49718259
 11
150.0362418212
 21
31.5617111435
 12
151.1924917523
 22
31.5294468402
 13
151.1924917523
 23
31.5294468402
  0
SOLID
  8
0
 62
7
  6
CONTINUOUS
 10
149.8628043005
 20
31.49718259
 11
151.1924917523
 21
31.5294468402
 12
150.498741835
 22
31.49718259
 13
150.498741835
 23
31.49718259
  0
SOLID
  8
0
 62
7
  6
CONTINUOUS
 10
150.498741835
 20
31.49718259
 11
151.1924917523
 21
31.5294468402
 12
150.9034292799
 22
31.4649197501
 13
150.9034292799
 23
31.4649197501
  0
SOLID
  8
0
 62
7
  6
CONTINUOUS
 10
151.1924917523
 20
31.5294468402
 11
151.3659292523
 21
31.4326554468
 12
150.9034292799
 22
31.4649197501
 13
150.9034292799
 23
31.4649197501
  0
SOLID
  8
0
 62
7
  6
CONTINUOUS
 10
151.0768668626
 20
31.4003926599
 11
150.9034292799
 21
31.4649197501
 12
151.3659292523
 22
31.4326554468
 13
151.3659292523
 23
31.4326554468
  0
SOLID
  8
0
 62
7
  6
CONTINUOUS
 10
151.0768668626
 20
31.4003926599
 11
151.3659292523
 21
31.4326554468
 12
151.1346793074
 22
31.3036013776
 13
151.1346793074
 23
31.3036013776
  0
SOLID
  8
0
 62
7
  6
CONTINUOUS
 10
151.3659292523
 20
31.4326554468
 11
151.4237418626
 21
31.3036013776
 12
151.1346793074
 22
31.3036013776
 13
151.1346793074
 23
31.3036013776
  0
SOLID
  8
0
 62
7
  6
CONTINUOUS
 10
152.4643666972
 20
31.5939739754
 11
152.6956168074
 21
31.6262382787
 12
152.9268669177
 22
31.6262382787
 13
152.9268669177
 23
31.6262382787
  0
SOLID
  8
0
 62
7
  6
CONTINUOUS
 10
152.9268669177
 20
31.6262382787
 11
153.1003044177
 21
31.5939739754
 12
152.4643666972
 22
31.5939739754
 13
152.4643666972
 23
31.5939739754
  0
SOLID
  8
0
 62
7
  6
CONTINUOUS
 10
152.2909293626
 20
31.5294468852
 11
152.4643666972
 21
31.5939739754
 12
153.1003044177
 22
31.5939739754
 13
153.1003044177
 23
31.5939739754
  0
SOLID
  8
0
 62
7
  6
CONTINUOUS
 10
153.1003044177
 20
31.5939739754
 11
153.2737419177
 21
31.5294468852
 12
152.2909293626
 22
31.5294468852
 13
152.2909293626
 23
31.5294468852
  0
SOLID
  8
0
 62
7
  6
CONTINUOUS
 10
153.2737419177
 20
31.5294468852
 11
152.6956168074
 21
31.4971825369
 12
152.2909293626
 22
31.5294468852
 13
152.2909293626
 23
31.5294468852
  0
SOLID
  8
0
 62
7
  6
CONTINUOUS
 10
152.1753043074
 20
31.4649197951
 11
152.2909293626
 21
31.5294468852
 12
152.6956168074
 22
31.4971825369
 13
152.6956168074
 23
31.4971825369
  0
SOLID
  8
0
 62
7
  6
CONTINUOUS
 10
152.6956168074
 20
31.4971825369
 11
152.4643666972
 21
31.4649197951
 12
152.1753043074
 22
31.4649197951
 13
152.1753043074
 23
31.4649197951
  0
SOLID
  8
0
 62
7
  6
CONTINUOUS
 10
152.6956168074
 20
31.4971825369
 11
153.2737419177
 21
31.5294468852
 12
152.9268669177
 22
31.4649197951
 13
152.9268669177
 23
31.4649197951
  0
SOLID
  8
0
 62
7
  6
CONTINUOUS
 10
153.2737419177
 20
31.5294468852
 11
153.3893668074
 21
31.4649197951
 12
152.9268669177
 22
31.4649197951
 13
152.9268669177
 23
31.4649197951
  0
SOLID
  8
0
 62
7
  6
CONTINUOUS
 10
153.0424918074
 20
31.4326554468
 11
152.9268669177
 21
31.4649197951
 12
153.3893668074
 22
31.4649197951
 13
153.3893668074
 23
31.4649197951
  0
SOLID
  8
0
 62
7
  6
CONTINUOUS
 10
153.3893668074
 20
31.4649197951
 11
153.4471794177
 21
31.4003927049
 12
153.0424918074
 22
31.4326554468
 13
153.0424918074
 23
31.4326554468
  0
SOLID
  8
0
 62
7
  6
CONTINUOUS
 10
153.1581166972
 20
31.3681283566
 11
153.0424918074
 21
31.4326554468
 12
153.4471794177
 22
31.4003927049
 13
153.4471794177
 23
31.4003927049
  0
SOLID
  8
0
 62
7
  6
CONTINUOUS
 10
153.1581166972
 20
31.3681283566
 11
153.4471794177
 21
31.4003927049
 12
153.2159293074
 22
31.2390742213
 13
153.2159293074
 23
31.2390742213
  0
SOLID
  8
0
 62
7
  6
CONTINUOUS
 10
153.4471794177
 20
31.4003927049
 11
153.5049916972
 21
31.2390742213
 12
153.2159293074
 22
31.2390742213
 13
153.2159293074
 23
31.2390742213
  0
SOLID
  8
0
 62
7
  6
CONTINUOUS
 10
152.4643666972
 20
31.4649197951
 11
152.2909293626
 21
31.4003927049
 12
152.1753043074
 22
31.4649197951
 13
152.1753043074
 23
31.4649197951
  0
SOLID
  8
0
 62
7
  6
CONTINUOUS
 10
152.2909293626
 20
31.4003927049
 11
152.1753043074
 21
31.3358640533
 12
152.1753043074
 22
31.4649197951
 13
152.1753043074
 23
31.4649197951
  0
SOLID
  8
0
 62
7
  6
CONTINUOUS
 10
152.1753043074
 20
31.3358640533
 11
151.8862417523
 21
30.5938002869
 12
152.1753043074
 22
31.4649197951
 13
152.1753043074
 23
31.4649197951
  0
SOLID
  8
0
 62
7
  6
CONTINUOUS
 10
152.1753043074
 20
31.4649197951
 11
151.8862417523
 21
30.5938002869
 12
152.1753043074
 22
32.1101937295
 13
152.1753043074
 23
32.1101937295
  0
SOLID
  8
0
 62
7
  6
CONTINUOUS
 10
151.8862417523
 20
30.5938002869
 11
151.8862417523
 21
32.1101937295
 12
152.1753043074
 22
32.1101937295
 13
152.1753043074
 23
32.1101937295
  0
SOLID
  8
0
 62
7
  6
CONTINUOUS
 10
152.1753043074
 20
31.3358640533
 11
152.1753043074
 21
30.5938002869
 12
151.8862417523
 22
30.5938002869
 13
151.8862417523
 23
30.5938002869
  0
SOLID
  8
0
 62
7
  6
CONTINUOUS
 10
153.2159293074
 20
30.5938002869
 11
153.2159293074
 21
31.2390742213
 12
153.5049916972
 22
31.2390742213
 13
153.5049916972
 23
31.2390742213
  0
SOLID
  8
0
 62
7
  6
CONTINUOUS
 10
153.5049916972
 20
31.2390742213
 11
153.5049916972
 21
30.5938002869
 12
153.2159293074
 22
30.5938002869
 13
153.2159293074
 23
30.5938002869
  0
SOLID
  8
0
 62
7
  6
CONTINUOUS
 10
154.2565543074
 20
31.5939738288
 11
154.6612419177
 21
31.6262385959
 12
155.0081169177
 22
31.6262385959
 13
155.0081169177
 23
31.6262385959
  0
SOLID
  8
0
 62
7
  6
CONTINUOUS
 10
155.0081169177
 20
31.6262385959
 11
155.3549915869
 21
31.5939738288
 12
154.2565543074
 22
31.5939738288
 13
154.2565543074
 23
31.5939738288
  0
SOLID
  8
0
 62
7
  6
CONTINUOUS
 10
154.1409294177
 20
31.5617111435
 11
154.2565543074
 21
31.5939738288
 12
155.3549915869
 22
31.5939738288
 13
155.3549915869
 23
31.5939738288
  0
SOLID
  8
0
 62
7
  6
CONTINUOUS
 10
155.3549915869
 20
31.5939738288
 11
155.5284290869
 21
31.5294468402
 12
154.1409294177
 22
31.5617111435
 13
154.1409294177
 23
31.5617111435
  0
SOLID
  8
0
 62
7
  6
CONTINUOUS
 10
154.0253041972
 20
31.4971826249
 11
154.1409294177
 21
31.5617111435
 12
155.5284290869
 22
31.5294468402
 13
155.5284290869
 23
31.5294468402
  0
SOLID
  8
0
 62
7
  6
CONTINUOUS
 10
154.0253041972
 20
31.4971826249
 11
155.5284290869
 21
31.5294468402
 12
154.6612419177
 22
31.4971826249
 13
154.6612419177
 23
31.4971826249
  0
SOLID
  8
0
 62
7
  6
CONTINUOUS
 10
154.6612419177
 20
31.4971826249
 11
155.5284290869
 21
31.5294468402
 12
155.0081169177
 22
31.4971826249
 13
155.0081169177
 23
31.4971826249
  0
SOLID
  8
0
 62
7
  6
CONTINUOUS
 10
155.0081169177
 20
31.4971826249
 11
155.5284290869
 21
31.5294468402
 12
155.239367028
 22
31.4649194065
 13
155.239367028
 23
31.4649194065
  0
SOLID
  8
0
 62
7
  6
CONTINUOUS
 10
155.5284290869
 20
31.5294468402
 11
155.6440543074
 21
31.4649194065
 12
155.239367028
 22
31.4649194065
 13
155.239367028
 23
31.4649194065
  0
SOLID
  8
0
 62
7
  6
CONTINUOUS
 10
153.9674919177
 20
31.4326554138
 11
154.0253041972
 21
31.4971826249
 12
154.6612419177
 22
31.4971826249
 13
154.6612419177
 23
31.4971826249
  0
SOLID
  8
0
 62
7
  6
CONTINUOUS
 10
155.3549915869
 20
31.4326554138
 11
155.239367028
 21
31.4649194065
 12
155.6440543074
 22
31.4649194065
 13
155.6440543074
 23
31.4649194065
  0
SOLID
  8
0
 62
7
  6
CONTINUOUS
 10
155.3549915869
 20
31.4326554138
 11
155.6440543074
 21
31.4649194065
 12
155.412804528
 22
31.3681282026
 13
155.412804528
 23
31.3681282026
  0
SOLID
  8
0
 62
7
  6
CONTINUOUS
 10
155.6440543074
 20
31.4649194065
 11
155.7018665869
 21
31.3681282026
 12
155.412804528
 22
31.3681282026
 13
155.412804528
 23
31.3681282026
  0
SOLID
  8
0
 62
7
  6
CONTINUOUS
 10
155.412804528
 20
31.2713369632
 11
155.412804528
 21
31.3681282026
 12
155.7018665869
 22
31.3681282026
 13
155.7018665869
 23
31.3681282026
  0
SOLID
  8
0
 62
7
  6
CONTINUOUS
 10
155.412804528
 20
31.2713369632
 11
155.7018665869
 21
31.3681282026
 12
155.412804528
 22
31.1422827828
 13
155.412804528
 23
31.1422827828
  0
SOLID
  8
0
 62
7
  6
CONTINUOUS
 10
155.412804528
 20
31.1422827828
 11
155.7018665869
 21
31.3681282026
 12
155.412804528
 22
30.9487004259
 13
155.412804528
 23
30.9487004259
  0
SOLID
  8
0
 62
7
  6
CONTINUOUS
 10
155.7018665869
 20
31.3681282026
 11
155.7018665869
 21
30.8519086025
 12
155.412804528
 22
30.9487004259
 13
155.412804528
 23
30.9487004259
  0
SOLID
  8
0
 62
7
  6
CONTINUOUS
 10
157.6096790869
 20
31.5939736268
 11
157.840929528
 21
31.6262383465
 12
158.0721793074
 22
31.6262383465
 13
158.0721793074
 23
31.6262383465
  0
SOLID
  8
0
 62
7
  6
CONTINUOUS
 10
158.0721793074
 20
31.6262383465
 11
158.2456168074
 21
31.5939736268
 12
157.6096790869
 22
31.5939736268
 13
157.6096790869
 23
31.5939736268
  0
SOLID
  8
0
 62
7
  6
CONTINUOUS
 10
157.4362415869
 20
31.5294472848
 11
157.6096790869
 21
31.5939736268
 12
158.2456168074
 22
31.5939736268
 13
158.2456168074
 23
31.5939736268
  0
SOLID
  8
0
 62
7
  6
CONTINUOUS
 10
158.2456168074
 20
31.5939736268
 11
158.4190543074
 21
31.5294472848
 12
157.4362415869
 22
31.5294472848
 13
157.4362415869
 23
31.5294472848
  0
SOLID
  8
0
 62
7
  6
CONTINUOUS
 10
158.4190543074
 20
31.5294472848
 11
157.840929528
 21
31.4971825369
 12
157.4362415869
 22
31.5294472848
 13
157.4362415869
 23
31.5294472848
  0
SOLID
  8
0
 62
7
  6
CONTINUOUS
 10
157.320617028
 20
31.4649199103
 11
157.4362415869
 21
31.5294472848
 12
157.840929528
 22
31.4971825369
 13
157.840929528
 23
31.4971825369
  0
SOLID
  8
0
 62
7
  6
CONTINUOUS
 10
157.840929528
 20
31.4971825369
 11
157.6096790869
 21
31.4649199103
 12
157.320617028
 22
31.4649199103
 13
157.320617028
 23
31.4649199103
  0
SOLID
  8
0
 62
7
  6
CONTINUOUS
 10
157.840929528
 20
31.4971825369
 11
158.4190543074
 21
31.5294472848
 12
158.0721793074
 22
31.4649199103
 13
158.0721793074
 23
31.4649199103
  0
SOLID
  8
0
 62
7
  6
CONTINUOUS
 10
158.4190543074
 20
31.5294472848
 11
158.534679528
 21
31.4649199103
 12
158.0721793074
 22
31.4649199103
 13
158.0721793074
 23
31.4649199103
  0
SOLID
  8
0
 62
7
  6
CONTINUOUS
 10
158.187804528
 20
31.4326554468
 11
158.0721793074
 21
31.4649199103
 12
158.534679528
 22
31.4649199103
 13
158.534679528
 23
31.4649199103
  0
SOLID
  8
0
 62
7
  6
CONTINUOUS
 10
158.187804528
 20
31.4326554468
 11
158.534679528
 21
31.4649199103
 12
158.3034290869
 22
31.3681288486
 13
158.3034290869
 23
31.3681288486
  0
SOLID
  8
0
 62
7
  6
CONTINUOUS
 10
158.534679528
 20
31.4649199103
 11
158.5924918074
 21
31.3681288486
 12
158.3034290869
 22
31.3681288486
 13
158.3034290869
 23
31.3681288486
  0
SOLID
  8
0
 62
7
  6
CONTINUOUS
 10
158.361242028
 20
31.2068093799
 11
158.3034290869
 21
31.3681288486
 12
158.5924918074
 22
31.3681288486
 13
158.5924918074
 23
31.3681288486
  0
SOLID
  8
0
 62
7
  6
CONTINUOUS
 10
158.5924918074
 20
31.3681288486
 11
158.6503040869
 21
31.2068093799
 12
158.361242028
 22
31.2068093799
 13
158.361242028
 23
31.2068093799
  0
SOLID
  8
0
 62
7
  6
CONTINUOUS
 10
157.6096790869
 20
31.4649199103
 11
157.4362415869
 21
31.4003926599
 12
157.320617028
 22
31.4649199103
 13
157.320617028
 23
31.4649199103
  0
SOLID
  8
0
 62
7
  6
CONTINUOUS
 10
157.4362415869
 20
31.4003926599
 11
157.320617028
 21
31.3358640533
 12
157.320617028
 22
31.4649199103
 13
157.320617028
 23
31.4649199103
  0
SOLID
  8
0
 62
7
  6
CONTINUOUS
 10
157.320617028
 20
31.3358640533
 11
157.0315543074
 21
30.5938003547
 12
157.320617028
 22
31.4649199103
 13
157.320617028
 23
31.4649199103
  0
SOLID
  8
0
 62
7
  6
CONTINUOUS
 10
157.320617028
 20
31.4649199103
 11
157.0315543074
 21
30.5938003547
 12
157.320617028
 22
31.6262383465
 13
157.320617028
 23
31.6262383465
  0
SOLID
  8
0
 62
7
  6
CONTINUOUS
 10
157.0315543074
 20
30.5938003547
 11
157.0315543074
 21
31.6262383465
 12
157.320617028
 22
31.6262383465
 13
157.320617028
 23
31.6262383465
  0
SOLID
  8
0
 62
7
  6
CONTINUOUS
 10
157.320617028
 20
31.3358640533
 11
157.320617028
 21
30.5938003547
 12
157.0315543074
 22
30.5938003547
 13
157.0315543074
 23
30.5938003547
  0
SOLID
  8
0
 62
7
  6
CONTINUOUS
 10
158.361242028
 20
30.5938003547
 11
158.361242028
 21
31.2068093799
 12
158.6503040869
 22
31.2068093799
 13
158.6503040869
 23
31.2068093799
  0
SOLID
  8
0
 62
7
  6
CONTINUOUS
 10
158.6503040869
 20
31.2068093799
 11
158.6503040869
 21
30.5938003547
 12
158.361242028
 22
30.5938003547
 13
158.361242028
 23
30.5938003547
  0
SOLID
  8
0
 62
7
  6
CONTINUOUS
 10
159.4596793074
 20
31.5939739474
 11
159.8065543074
 21
31.6262381969
 12
160.1534293074
 22
31.6262381969
 13
160.1534293074
 23
31.6262381969
  0
SOLID
  8
0
 62
7
  6
CONTINUOUS
 10
160.1534293074
 20
31.6262381969
 11
160.5003043074
 21
31.5939739474
 12
159.4596793074
 22
31.5939739474
 13
159.4596793074
 23
31.5939739474
  0
SOLID
  8
0
 62
7
  6
CONTINUOUS
 10
159.228429528
 20
31.5294468402
 11
159.4596793074
 21
31.5939739474
 12
160.5003043074
 22
31.5939739474
 13
160.5003043074
 23
31.5939739474
  0
SOLID
  8
0
 62
7
  6
CONTINUOUS
 10
159.228429528
 20
31.5294468402
 11
160.5003043074
 21
31.5939739304
 12
160.6737418074
 22
31.5617111435
 13
160.6737418074
 23
31.5617111435
  0
SOLID
  8
0
 62
7
  6
CONTINUOUS
 10
159.228429528
 20
31.5294468402
 11
160.6737418074
 21
31.5617111435
 12
159.8065543074
 22
31.4971825592
 13
159.8065543074
 23
31.4971825592
  0
SOLID
  8
0
 62
7
  6
CONTINUOUS
 10
159.8065543074
 20
31.4971825592
 11
160.6737418074
 21
31.5617111435
 12
160.1534293074
 22
31.4971825592
 13
160.1534293074
 23
31.4971825592
  0
SOLID
  8
0
 62
7
  6
CONTINUOUS
 10
160.6737418074
 20
31.5617111435
 11
160.8471793074
 21
31.4971825592
 12
160.1534293074
 22
31.4971825592
 13
160.1534293074
 23
31.4971825592
  0
SOLID
  8
0
 62
7
  6
CONTINUOUS
 10
160.5003043074
 20
31.4649197501
 11
160.1534293074
 21
31.4971825592
 12
160.8471793074
 22
31.4971825592
 13
160.8471793074
 23
31.4971825592
  0
SOLID
  8
0
 62
7
  6
CONTINUOUS
 10
159.1128043074
 20
31.4326555427
 11
159.228429528
 21
31.5294468402
 12
159.8065543074
 22
31.4971825592
 13
159.8065543074
 23
31.4971825592
  0
SOLID
  8
0
 62
7
  6
CONTINUOUS
 10
160.5003043074
 20
31.4649197501
 11
160.8471793074
 21
31.4971825592
 12
160.615929528
 22
31.4326555427
 13
160.615929528
 23
31.4326555427
  0
SOLID
  8
0
 62
7
  6
CONTINUOUS
 10
160.615929528
 20
31.4326555427
 11
160.8471793074
 21
31.4971825592
 12
160.6737418074
 22
31.3681283005
 13
160.6737418074
 23
31.3681283005
  0
SOLID
  8
0
 62
7
  6
CONTINUOUS
 10
160.8471793074
 20
31.4971825592
 11
160.9628038663
 21
31.3681283005
 12
160.6737418074
 22
31.3681283005
 13
160.6737418074
 23
31.3681283005
  0
SOLID
  8
0
 62
7
  6
CONTINUOUS
 10
150.2674918074
 20
31.4649197501
 11
149.7471793074
 21
31.4326554237
 12
150.498741835
 22
31.4971824493
 13
150.498741835
 23
31.4971824493
  0
SOLID
  8
0
 62
7
  6
CONTINUOUS
 10
149.7471793074
 20
31.4326554237
 11
149.8628043005
 21
31.4971824493
 12
150.498741835
 22
31.4971824493
 13
150.498741835
 23
31.4971824493
  0
SOLID
  8
0
 62
7
  6
CONTINUOUS
 10
150.2674918074
 20
31.4649197501
 11
150.1518667936
 21
31.4326554237
 12
149.7471793074
 22
31.4326554237
 13
149.7471793074
 23
31.4326554237
  0
SOLID
  8
0
 62
7
  6
CONTINUOUS
 10
149.6315543091
 20
31.3036012664
 11
149.7471793074
 21
31.4326554237
 12
150.1518667936
 22
31.4326554237
 13
150.1518667936
 23
31.4326554237
  0
SOLID
  8
0
 62
7
  6
CONTINUOUS
 10
153.9674919177
 20
31.4326554237
 11
154.6612419177
 21
31.4971825369
 12
154.4299918074
 22
31.4649197501
 13
154.4299918074
 23
31.4649197501
  0
SOLID
  8
0
 62
7
  6
CONTINUOUS
 10
154.4299918074
 20
31.4649197501
 11
154.3143669177
 21
31.4326554237
 12
153.9674919177
 22
31.4326554237
 13
153.9674919177
 23
31.4326554237
  0
SOLID
  8
0
 62
7
  6
CONTINUOUS
 10
153.9674919177
 20
31.3681283335
 11
153.9674919177
 21
31.4326554237
 12
154.3143669177
 22
31.4326554237
 13
154.3143669177
 23
31.4326554237
  0
SOLID
  8
0
 62
7
  6
CONTINUOUS
 10
154.3143669177
 20
31.4326554237
 11
154.2565543074
 21
31.3681283335
 12
153.9674919177
 22
31.3681283335
 13
153.9674919177
 23
31.3681283335
  0
SOLID
  8
0
 62
7
  6
CONTINUOUS
 10
159.1128043074
 20
31.4326555528
 11
159.8065543074
 21
31.4971825369
 12
159.575304528
 22
31.4649197501
 13
159.575304528
 23
31.4649197501
  0
SOLID
  8
0
 62
7
  6
CONTINUOUS
 10
159.575304528
 20
31.4649197501
 11
159.4596793074
 21
31.4326555528
 12
159.1128043074
 22
31.4326555528
 13
159.1128043074
 23
31.4326555528
  0
SOLID
  8
0
 62
7
  6
CONTINUOUS
 10
159.1128043074
 20
31.3681284626
 11
159.1128043074
 21
31.4326555528
 12
159.4596793074
 22
31.4326555528
 13
159.4596793074
 23
31.4326555528
  0
SOLID
  8
0
 62
7
  6
CONTINUOUS
 10
159.4596793074
 20
31.4326555528
 11
159.401867028
 21
31.3681284626
 12
159.1128043074
 22
31.3681284626
 13
159.1128043074
 23
31.3681284626
  0
SOLID
  8
0
 62
7
  6
CONTINUOUS
 10
159.228429528
 20
31.2390741763
 11
159.1128043074
 21
31.3681284626
 12
159.401867028
 22
31.3681284626
 13
159.401867028
 23
31.3681284626
  0
SOLID
  8
0
 62
7
  6
CONTINUOUS
 10
149.6315543091
 20
31.3036012664
 11
150.1518667936
 21
31.4326554468
 12
149.9784292936
 22
31.3358640533
 13
149.9784292936
 23
31.3358640533
  0
SOLID
  8
0
 62
7
  6
CONTINUOUS
 10
149.9784292936
 20
31.3358640533
 11
149.9206168074
 21
31.2713369632
 12
149.6315543091
 22
31.3036012664
 13
149.6315543091
 23
31.3036012664
  0
SOLID
  8
0
 62
7
  6
CONTINUOUS
 10
149.5737418074
 20
31.1100184796
 11
149.6315543091
 21
31.3036012664
 12
149.9206168074
 22
31.2713369632
 13
149.9206168074
 23
31.2713369632
  0
SOLID
  8
0
 62
7
  6
CONTINUOUS
 10
154.4299918074
 20
31.2390741763
 11
154.7768668074
 21
31.271336924
 12
155.412804528
 22
31.271336924
 13
155.412804528
 23
31.271336924
  0
SOLID
  8
0
 62
7
  6
CONTINUOUS
 10
154.4299918074
 20
31.2390741763
 11
155.412804528
 21
31.271336924
 12
154.1987416972
 22
31.1745462761
 13
154.1987416972
 23
31.1745462761
  0
SOLID
  8
0
 62
7
  6
CONTINUOUS
 10
154.1987416972
 20
31.1745462761
 11
155.412804528
 21
31.271336924
 12
154.7768668074
 22
31.1422827436
 13
154.7768668074
 23
31.1422827436
  0
SOLID
  8
0
 62
7
  6
CONTINUOUS
 10
155.412804528
 20
31.271336924
 11
155.412804528
 21
31.1422827436
 12
154.7768668074
 22
31.1422827436
 13
154.7768668074
 23
31.1422827436
  0
SOLID
  8
0
 62
7
  6
CONTINUOUS
 10
159.228429528
 20
31.2390745501
 11
159.401867028
 21
31.3681283566
 12
159.4596793074
 22
31.3036012664
 13
159.4596793074
 23
31.3036012664
  0
SOLID
  8
0
 62
7
  6
CONTINUOUS
 10
159.4596793074
 20
31.3036012664
 11
159.6331168074
 21
31.2390745501
 12
159.228429528
 22
31.2390745501
 13
159.228429528
 23
31.2390745501
  0
SOLID
  8
0
 62
7
  6
CONTINUOUS
 10
159.4596793074
 20
31.1422827828
 11
159.228429528
 21
31.2390745501
 12
159.6331168074
 22
31.2390745501
 13
159.6331168074
 23
31.2390745501
  0
SOLID
  8
0
 62
7
  6
CONTINUOUS
 10
159.6331168074
 20
31.2390745501
 11
160.615929528
 21
31.0777556927
 12
159.4596793074
 22
31.1422827828
 13
159.4596793074
 23
31.1422827828
  0
SOLID
  8
0
 62
7
  6
CONTINUOUS
 10
160.442492028
 20
30.9809646623
 11
159.4596793074
 21
31.1422827828
 12
160.615929528
 22
31.0777556927
 13
160.615929528
 23
31.0777556927
  0
SOLID
  8
0
 62
7
  6
CONTINUOUS
 10
160.615929528
 20
31.0777556927
 11
160.8471793074
 21
30.9809646623
 12
160.442492028
 22
30.9809646623
 13
160.442492028
 23
30.9809646623
  0
SOLID
  8
0
 62
7
  6
CONTINUOUS
 10
160.615929528
 20
30.9164372091
 11
160.442492028
 21
30.9809646623
 12
160.8471793074
 22
30.9809646623
 13
160.8471793074
 23
30.9809646623
  0
SOLID
  8
0
 62
7
  6
CONTINUOUS
 10
160.615929528
 20
30.9164372091
 11
160.8471793074
 21
30.9809646623
 12
160.6737418074
 22
30.8519089441
 13
160.6737418074
 23
30.8519089441
  0
SOLID
  8
0
 62
7
  6
CONTINUOUS
 10
160.8471793074
 20
30.9809646623
 11
160.9628038663
 21
30.8519089441
 12
160.6737418074
 22
30.8519089441
 13
160.6737418074
 23
30.8519089441
  0
SOLID
  8
0
 62
7
  6
CONTINUOUS
 10
160.615929528
 20
30.7873818593
 11
160.6737418074
 21
30.8519089441
 12
160.9628038663
 22
30.8519089441
 13
160.9628038663
 23
30.8519089441
  0
SOLID
  8
0
 62
7
  6
CONTINUOUS
 10
160.9628038663
 20
30.8519089441
 11
160.9628038663
 21
30.7873818593
 12
160.615929528
 22
30.7873818593
 13
160.615929528
 23
30.7873818593
  0
SOLID
  8
0
 62
7
  6
CONTINUOUS
 10
160.5003043074
 20
30.7551187255
 11
160.615929528
 21
30.7873818593
 12
160.9628038663
 22
30.7873818593
 13
160.9628038663
 23
30.7873818593
  0
SOLID
  8
0
 62
7
  6
CONTINUOUS
 10
160.5003043074
 20
30.7551187255
 11
160.9628038663
 21
30.7873818593
 12
160.269054528
 22
30.7228547745
 13
160.269054528
 23
30.7228547745
  0
SOLID
  8
0
 62
7
  6
CONTINUOUS
 10
160.9628038663
 20
30.7873818593
 11
160.8471793074
 21
30.6905916353
 12
160.269054528
 22
30.7228547745
 13
160.269054528
 23
30.7228547745
  0
SOLID
  8
0
 62
7
  6
CONTINUOUS
 10
160.8471793074
 20
30.6905916353
 11
159.401867028
 21
30.658327332
 12
160.269054528
 22
30.7228547745
 13
160.269054528
 23
30.7228547745
  0
SOLID
  8
0
 62
7
  6
CONTINUOUS
 10
160.269054528
 20
30.7228547745
 11
159.401867028
 21
30.658327332
 12
159.922179528
 22
30.7228547745
 13
159.922179528
 23
30.7228547745
  0
SOLID
  8
0
 62
7
  6
CONTINUOUS
 10
159.401867028
 20
30.658327332
 11
159.228429528
 21
30.7228547745
 12
159.922179528
 22
30.7228547745
 13
159.922179528
 23
30.7228547745
  0
SOLID
  8
0
 62
7
  6
CONTINUOUS
 10
159.401867028
 20
30.658327332
 11
160.8471793074
 21
30.6905916353
 12
159.575304528
 22
30.6260629858
 13
159.575304528
 23
30.6260629858
  0
SOLID
  8
0
 62
7
  6
CONTINUOUS
 10
160.8471793074
 20
30.6905916353
 11
160.615929528
 21
30.6260629858
 12
159.575304528
 22
30.6260629858
 13
159.575304528
 23
30.6260629858
  0
SOLID
  8
0
 62
7
  6
CONTINUOUS
 10
159.922179528
 20
30.5938006049
 11
159.575304528
 21
30.6260629858
 12
160.615929528
 22
30.6260629858
 13
160.615929528
 23
30.6260629858
  0
SOLID
  8
0
 62
7
  6
CONTINUOUS
 10
160.615929528
 20
30.6260629858
 11
160.269054528
 21
30.5938006049
 12
159.922179528
 22
30.5938006049
 13
159.922179528
 23
30.5938006049
  0
SOLID
  8
0
 62
7
  6
CONTINUOUS
 10
149.5737418074
 20
31.1100184796
 11
149.9206168074
 21
31.2713369632
 12
149.8628043005
 22
31.1422827828
 13
149.8628043005
 23
31.1422827828
  0
SOLID
  8
0
 62
7
  6
CONTINUOUS
 10
149.8628043005
 20
31.1422827828
 11
149.8628043005
 21
31.0454914852
 12
149.5737418074
 22
31.1100184796
 13
149.5737418074
 23
31.1100184796
  0
SOLID
  8
0
 62
7
  6
CONTINUOUS
 10
149.6315543091
 20
30.9164372091
 11
149.5737418074
 21
31.1100184796
 12
149.8628043005
 22
31.0454914852
 13
149.8628043005
 23
31.0454914852
  0
SOLID
  8
0
 62
7
  6
CONTINUOUS
 10
149.8628043005
 20
31.0454914852
 11
149.9784292936
 21
30.8841729058
 12
149.6315543091
 22
30.9164372091
 13
149.6315543091
 23
30.9164372091
  0
SOLID
  8
0
 62
7
  6
CONTINUOUS
 10
149.7471793074
 20
30.7873813202
 11
149.6315543091
 21
30.9164372091
 12
149.9784292936
 22
30.8841729058
 13
149.9784292936
 23
30.8841729058
  0
SOLID
  8
0
 62
7
  6
CONTINUOUS
 10
149.9784292936
 20
30.8841729058
 11
150.1518667936
 21
30.7873813202
 12
149.7471793074
 22
30.7873813202
 13
149.7471793074
 23
30.7873813202
  0
SOLID
  8
0
 62
7
  6
CONTINUOUS
 10
149.8628043005
 20
30.7228547004
 11
149.7471793074
 21
30.7873813202
 12
150.1518667936
 22
30.7873813202
 13
150.1518667936
 23
30.7873813202
  0
SOLID
  8
0
 62
7
  6
CONTINUOUS
 10
150.1518667936
 20
30.7873813202
 11
150.498741835
 21
30.7228547004
 12
149.8628043005
 22
30.7228547004
 13
149.8628043005
 23
30.7228547004
  0
SOLID
  8
0
 62
7
  6
CONTINUOUS
 10
150.0362418212
 20
30.658327332
 11
149.8628043005
 21
30.7228547004
 12
150.498741835
 22
30.7228547004
 13
150.498741835
 23
30.7228547004
  0
SOLID
  8
0
 62
7
  6
CONTINUOUS
 10
154.0831168074
 20
31.1100184386
 11
154.1987416972
 21
31.1745462761
 12
154.7768668074
 22
31.1422827828
 13
154.7768668074
 23
31.1422827828
  0
SOLID
  8
0
 62
7
  6
CONTINUOUS
 10
154.7768668074
 20
31.1422827828
 11
154.5456166972
 21
31.1100184386
 12
154.0831168074
 22
31.1100184386
 13
154.0831168074
 23
31.1100184386
  0
SOLID
  8
0
 62
7
  6
CONTINUOUS
 10
153.9674919177
 20
30.9809642992
 11
154.0831168074
 21
31.1100184386
 12
154.5456166972
 22
31.1100184386
 13
154.5456166972
 23
31.1100184386
  0
SOLID
  8
0
 62
7
  6
CONTINUOUS
 10
154.3143669177
 20
31.0132277988
 11
153.9674919177
 21
30.9809642992
 12
154.4299918074
 22
31.0777556927
 13
154.4299918074
 23
31.0777556927
  0
SOLID
  8
0
 62
7
  6
CONTINUOUS
 10
153.9674919177
 20
30.9809642992
 11
154.5456166972
 21
31.1100184796
 12
154.4299918074
 22
31.0777556927
 13
154.4299918074
 23
31.0777556927
  0
SOLID
  8
0
 62
7
  6
CONTINUOUS
 10
154.3143669177
 20
31.0132277988
 11
154.2565543074
 21
30.9164372091
 12
153.9674919177
 22
30.9809642992
 13
153.9674919177
 23
30.9809642992
  0
SOLID
  8
0
 62
7
  6
CONTINUOUS
 10
153.9674919177
 20
30.8841729058
 11
153.9674919177
 21
30.9809642992
 12
154.2565543074
 22
30.9164372091
 13
154.2565543074
 23
30.9164372091
  0
SOLID
  8
0
 62
7
  6
CONTINUOUS
 10
154.2565543074
 20
30.9164372091
 11
154.2565543074
 21
30.8519086025
 12
153.9674919177
 22
30.8841729058
 13
153.9674919177
 23
30.8841729058
  0
SOLID
  8
0
 62
7
  6
CONTINUOUS
 10
154.0253041972
 20
30.7551187255
 11
153.9674919177
 21
30.8841729058
 12
154.2565543074
 22
30.8519086025
 13
154.2565543074
 23
30.8519086025
  0
SOLID
  8
0
 62
7
  6
CONTINUOUS
 10
155.412804528
 20
30.9487004259
 11
155.7018665869
 21
30.8519086025
 12
155.3549915869
 22
30.8841729058
 13
155.3549915869
 23
30.8841729058
  0
SOLID
  8
0
 62
7
  6
CONTINUOUS
 10
155.1815540869
 20
30.7873815123
 11
155.3549915869
 21
30.8841729058
 12
155.7018665869
 22
30.8519086025
 13
155.7018665869
 23
30.8519086025
  0
SOLID
  8
0
 62
7
  6
CONTINUOUS
 10
155.1815540869
 20
30.7873815123
 11
155.7018665869
 21
30.8519086025
 12
155.412804528
 22
30.7551187255
 13
155.412804528
 23
30.7551187255
  0
SOLID
  8
0
 62
7
  6
CONTINUOUS
 10
155.7018665869
 20
30.8519086025
 11
155.759679528
 21
30.6905916353
 12
155.412804528
 22
30.7551187255
 13
155.412804528
 23
30.7551187255
  0
SOLID
  8
0
 62
7
  6
CONTINUOUS
 10
155.4706168074
 20
30.658327332
 11
155.412804528
 21
30.7551187255
 12
155.759679528
 22
30.6905916353
 13
155.759679528
 23
30.6905916353
  0
SOLID
  8
0
 62
7
  6
CONTINUOUS
 10
155.4706168074
 20
30.658327332
 11
155.759679528
 21
30.6905916353
 12
155.5284290869
 22
30.5938002079
 13
155.5284290869
 23
30.5938002079
  0
SOLID
  8
0
 62
7
  6
CONTINUOUS
 10
155.759679528
 20
30.6905916353
 11
155.8174918074
 21
30.5938002079
 12
155.5284290869
 22
30.5938002079
 13
155.5284290869
 23
30.5938002079
  0
SOLID
  8
0
 62
7
  6
CONTINUOUS
 10
151.0768668626
 20
30.8196456577
 11
151.1346793074
 21
30.9164373395
 12
151.4237418626
 22
30.9164373395
 13
151.4237418626
 23
30.9164373395
  0
SOLID
  8
0
 62
7
  6
CONTINUOUS
 10
151.4237418626
 20
30.9164373395
 11
151.3659292523
 21
30.7873815123
 12
151.0768668626
 22
30.8196456577
 13
151.0768668626
 23
30.8196456577
  0
SOLID
  8
0
 62
7
  6
CONTINUOUS
 10
150.9034292799
 20
30.7551187255
 11
151.0768668626
 21
30.8196456577
 12
151.3659292523
 22
30.7873815123
 13
151.3659292523
 23
30.7873815123
  0
SOLID
  8
0
 62
7
  6
CONTINUOUS
 10
150.9034292799
 20
30.7551187255
 11
151.3659292523
 21
30.7873815123
 12
150.498741835
 22
30.7228544222
 13
150.498741835
 23
30.7228544222
  0
SOLID
  8
0
 62
7
  6
CONTINUOUS
 10
151.3659292523
 20
30.7873815123
 11
151.1924917523
 21
30.6905916353
 12
150.498741835
 22
30.7228544222
 13
150.498741835
 23
30.7228544222
  0
SOLID
  8
0
 62
7
  6
CONTINUOUS
 10
150.0362418212
 20
30.658327332
 11
150.498741835
 21
30.7228544222
 12
151.1924917523
 22
30.6905916353
 13
151.1924917523
 23
30.6905916353
  0
SOLID
  8
0
 62
7
  6
CONTINUOUS
 10
150.0362418212
 20
30.658327332
 11
151.1924917523
 21
30.6905916353
 12
150.2096793212
 22
30.6260631011
 13
150.2096793212
 23
30.6260631011
  0
SOLID
  8
0
 62
7
  6
CONTINUOUS
 10
151.1924917523
 20
30.6905916353
 11
150.9612418074
 21
30.6260631011
 12
150.2096793212
 22
30.6260631011
 13
150.2096793212
 23
30.6260631011
  0
SOLID
  8
0
 62
7
  6
CONTINUOUS
 10
150.5565542799
 20
30.5938002419
 11
150.2096793212
 21
30.6260631011
 12
150.9612418074
 22
30.6260631011
 13
150.9612418074
 23
30.6260631011
  0
SOLID
  8
0
 62
7
  6
CONTINUOUS
 10
154.0253041972
 20
30.7551187255
 11
154.2565543074
 21
30.8519086025
 12
154.3143669177
 22
30.7873815123
 13
154.3143669177
 23
30.7873815123
  0
SOLID
  8
0
 62
7
  6
CONTINUOUS
 10
154.3143669177
 20
30.7873815123
 11
154.5456166972
 21
30.7228544222
 12
154.0253041972
 22
30.7551187255
 13
154.0253041972
 23
30.7551187255
  0
SOLID
  8
0
 62
7
  6
CONTINUOUS
 10
154.1987416972
 20
30.658327332
 11
154.0253041972
 21
30.7551187255
 12
154.5456166972
 22
30.7228544222
 13
154.5456166972
 23
30.7228544222
  0
SOLID
  8
0
 62
7
  6
CONTINUOUS
 10
154.8924916972
 20
30.7228544637
 11
155.1815540869
 21
30.7873815123
 12
155.412804528
 22
30.7551187255
 13
155.412804528
 23
30.7551187255
  0
SOLID
  8
0
 62
7
  6
CONTINUOUS
 10
155.412804528
 20
30.7551187255
 11
155.3549915869
 21
30.6905916353
 12
154.8924916972
 22
30.7228544637
 13
154.8924916972
 23
30.7228544637
  0
SOLID
  8
0
 62
7
  6
CONTINUOUS
 10
155.3549915869
 20
30.6905916353
 11
154.1987416972
 21
30.658327332
 12
154.8924916972
 22
30.7228544637
 13
154.8924916972
 23
30.7228544637
  0
SOLID
  8
0
 62
7
  6
CONTINUOUS
 10
154.1987416972
 20
30.658327332
 11
154.5456166972
 21
30.7228544637
 12
154.8924916972
 22
30.7228544637
 13
154.8924916972
 23
30.7228544637
  0
SOLID
  8
0
 62
7
  6
CONTINUOUS
 10
154.1987416972
 20
30.658327332
 11
155.3549915869
 21
30.6905916353
 12
154.3143669177
 22
30.6260630541
 13
154.3143669177
 23
30.6260630541
  0
SOLID
  8
0
 62
7
  6
CONTINUOUS
 10
155.3549915869
 20
30.6905916353
 11
155.1815540869
 21
30.6260630541
 12
154.3143669177
 22
30.6260630541
 13
154.3143669177
 23
30.6260630541
  0
SOLID
  8
0
 62
7
  6
CONTINUOUS
 10
154.5456166972
 20
30.5938002188
 11
154.3143669177
 21
30.6260630541
 12
155.1815540869
 22
30.6260630541
 13
155.1815540869
 23
30.6260630541
  0
SOLID
  8
0
 62
7
  6
CONTINUOUS
 10
155.1815540869
 20
30.6260630541
 11
154.8924916972
 21
30.5938002188
 12
154.5456166972
 22
30.5938002188
 13
154.5456166972
 23
30.5938002188
  0
SOLID
  8
0
 62
7
  6
CONTINUOUS
 10
159.575304528
 20
30.7551187255
 11
159.228429528
 21
30.7228544637
 12
159.4596793074
 22
30.7873815123
 13
159.4596793074
 23
30.7873815123
  0
SOLID
  8
0
 62
7
  6
CONTINUOUS
 10
159.4596793074
 20
30.7873815123
 11
159.228429528
 21
30.7228544637
 12
159.401867028
 22
30.851908644
 13
159.401867028
 23
30.851908644
  0
SOLID
  8
0
 62
7
  6
CONTINUOUS
 10
159.228429528
 20
30.7228544637
 11
159.1128043074
 21
30.851908644
 12
159.401867028
 22
30.851908644
 13
159.401867028
 23
30.851908644
  0
SOLID
  8
0
 62
7
  6
CONTINUOUS
 10
159.575304528
 20
30.7551187255
 11
159.922179528
 21
30.7228544637
 12
159.228429528
 22
30.7228544637
 13
159.228429528
 23
30.7228544637
  0
SOLID
  8
0
 62
7
  6
CONTINUOUS
 10
156.279992028
 20
30.5938002419
 11
156.279992028
 21
31.6262382337
 12
156.5690540869
 22
30.5938002419
 13
156.5690540869
 23
31.6262382337
  0
ENDBLK
  8
0
  6
BYBLOCK
 62
0
  0
BLOCK
  8
0
 62
2
  6
CONTINUOUS
  2
AMMEAAL_LOGO_BL0
 70
64
 10
32.1213064866
 20
19.8534310916
  0
TEXT
  8
0
 62
7
  6
CONTINUOUS
 10
18.3860103289
 20
19.2268451992
  7
TEXTSTYLE_3
 40
2.7338706658
  1
Ammeraal Beltech
 41
1.0
 51
15.0
 72
0
  0
TEXT
  8
0
 62
7
  6
CONTINUOUS
 10
29.1868111546
 20
16.9533085264
  7
TEXTSTYLE_4
 40
1.0935482663
  1
Innovation & Service in Belting
 41
1.0
 72
0
  0
LINE
  8
0
 62
7
  6
CONTINUOUS
 10
12.3614696776
 20
19.9934385078
 11
13.1396216709
 21
23.6543558055
  0
LINE
  8
0
 62
7
  6
CONTINUOUS
 10
23.2347899607
 20
27.3177497171
 11
13.6274394139
 21
24.1961322958
  0
LINE
  8
0
 62
7
  6
CONTINUOUS
 10
12.5867530099
 20
19.3000877048
 11
20.093828271
 21
12.5406867788
  0
LINE
  8
0
 62
7
  6
CONTINUOUS
 10
12.8492874206
 20
20.5352149982
 11
23.6575567857
 21
24.0470345971
  0
LINE
  8
0
 62
7
  6
CONTINUOUS
 10
23.6533516486
 20
13.6972460334
 11
15.2078919798
 21
21.3015720751
  0
LINE
  8
0
 62
7
  6
CONTINUOUS
 10
24.1731743684
 20
26.4728246013
 11
23.1966148312
 21
21.8784731989
  0
LINE
  8
0
 62
7
  6
CONTINUOUS
 10
22.4968128835
 20
18.5861638851
 11
21.810364672
 21
15.3566789607
  0
LINE
  8
0
 62
7
  6
CONTINUOUS
 10
24.8542704669
 20
14.087448211
 11
25.8105020025
 21
18.5861638851
  0
LINE
  8
0
 62
7
  6
CONTINUOUS
 10
26.5103039502
 20
21.8784731989
 11
26.9545457526
 21
23.9684665583
  0
LINE
  8
0
 62
7
  6
CONTINUOUS
 10
20.8069293463
 20
12.3891124661
 11
24.3664527239
 21
13.5456717207
  0
LINE
  8
0
 62
7
  6
CONTINUOUS
 10
23.9478910361
 20
27.1661754044
 11
26.7292624203
 21
24.6618173613
  0
ARC
  8
0
 62
7
  6
CONTINUOUS
 10
13.8527227462
 20
23.5027814928
 40
0.7290321776
 50
108.0
 51
168.0
  0
ARC
  8
0
 62
7
  6
CONTINUOUS
 10
23.4600732931
 20
26.624398914
 40
0.7290321776
 50
348.0
 51
108.0
  0
ARC
  8
0
 62
7
  6
CONTINUOUS
 10
26.2414446773
 20
24.120040871
 40
0.7290321776
 50
348.0
 51
48.0
  0
ARC
  8
0
 62
7
  6
CONTINUOUS
 10
20.581646014
 20
13.0824632691
 40
0.7290321776
 50
228.0
 51
288.0
  0
ARC
  8
0
 62
7
  6
CONTINUOUS
 10
13.0745707529
 20
19.8418641951
 40
0.7290321776
 50
108.0
 51
228.0
  0
ARC
  8
0
 62
7
  6
CONTINUOUS
 10
24.1411693916
 20
14.2390225237
 40
0.7290321776
 50
228.0
 51
348.0
  0
ENDBLK
  8
0
  6
BYBLOCK
 62
0
  0
ENDSEC
  0
SECTION
  2
ENTITIES
  0
TEXT
  8
0
 62
5
  6
CONTINUOUS
 10
96.0
 20
25.636
  7
TEXTSTYLE_2
 40
2.8
  1
Scale :
 41
0.6
 51
0.000019
 72
0
  0
TEXT
  8
0
 62
5
  6
CONTINUOUS
 10
116.0
 20
25.636
  7
TEXTSTYLE_2
 40
2.8
  1
Belt type:
 41
0.6
 51
0.000019
 72
0
  0
INSERT
  8
0
 62
2
  6
CONTINUOUS
  2
AMMEAAL_LOGO_BL0
 10
32.1213064866
 20
19.8534310916
  0
INSERT
  8
0
 62
2
  6
CONTINUOUS
  2
UNI_LOGO2_BL1
 10
173.5956734183
 20
35.5937998301
  0
LINE
  8
0
 62
2
  6
CONTINUOUS
 10
10.0
 20
30.0
 11
200.0
 21
30.0
  0
LINE
  8
0
 62
2
  6
CONTINUOUS
 10
10.0
 20
30.0
 11
10.0
 21
10.0
  0
LINE
  8
0
 62
2
  6
CONTINUOUS
 10
10.0
 20
10.0
 11
200.0
 21
10.0
  0
LINE
  8
0
 62
2
  6
CONTINUOUS
 10
95.0
 20
30.0
 11
95.0
 21
10.0
  0
LINE
  8
0
 62
2
  6
CONTINUOUS
 10
115.0
 20
30.0
 11
115.0
 21
10.0
  0
LINE
  8
0
 62
2
  6
CONTINUOUS
 10
200.0
 20
30.0
 11
200.0
 21
10.0
  0
TEXT
  8
0
 62
5
  6
CONTINUOUS
 10
13.0
 20
23.303
  7
TEXTSTYLE_5
 40
1.52
  1
                                                                     Ammeraal Beltech Modular A/S
 41
1.0
 72
0
  0
TEXT
  8
0
 62
5
  6
CONTINUOUS
 10
13.0
 20
20.595
  7
TEXTSTYLE_5
 40
1.5
  1
                                                                      Hjulmagervej 21,  7100 Vejle,  DK
 41
1.0
 72
0
  0
TEXT
  8
0
 62
5
  6
CONTINUOUS
 10
13.0
 20
17.881
  7
TEXTSTYLE_5
 40
1.495
  1
                                                                      tel: 
 41
1.0
 72
0
  0
TEXT
  8
0
 62
5
  6
CONTINUOUS
 10
57.9869465649
 20
17.881
  7
TEXTSTYLE_5
 40
1.51
  1
+45 75723100     fax: +45 75723348
 41
1.0
 72
0
  0
TEXT
  8
0
 62
5
  6
CONTINUOUS
 10
13.0
 20
15.177
  7
TEXTSTYLE_5
 40
1.5
  1
                                                                      admin@unichains.dk  www.unichains.com
 41
1.0
 72
0
  0
TEXT
  8
0
 62
5
  6
CONTINUOUS
 10
99.75
 20
13.75
  7
TEXTSTYLE_6
 40
5.0
  1
1:1
 41
0.7
 72
1
 11
105.0
 21
13.75
  0
TEXT
  8
0
 62
5
  6
CONTINUOUS
 10
118.0
 20
13.75
  7
TEXTSTYLE_7
 40
7.5
  1
Sprocket Z18 40X40 SQ
 41
0.5226190476
 72
0
  0
LINE
  8
0
 62
7
  6
CONTINUOUS
 10
210.0
 20
0.0
 11
0.0
 21
0.0
  0
LINE
  8
0
 62
7
  6
CONTINUOUS
 10
10.0
 20
10.0
 11
200.0
 21
10.0
  0
LINE
  8
0
 62
7
  6
CONTINUOUS
 10
10.0
 20
30.0
 11
200.0
 21
30.0
  0
LINE
  8
0
 62
7
  6
CONTINUOUS
 10
0.0
 20
0.0
 11
0.0
 21
297.0
  0
LINE
  8
0
 62
7
  6
CONTINUOUS
 10
10.0
 20
10.0
 11
10.0
 21
287.0
  0
LINE
  8
0
 62
7
  6
CONTINUOUS
 10
200.0
 20
287.0
 11
200.0
 21
10.0
  0
LINE
  8
0
 62
7
  6
CONTINUOUS
 10
210.0
 20
0.0
 11
210.0
 21
297.0
  0
LINE
  8
0
 62
7
  6
CONTINUOUS
 10
10.0
 20
287.0
 11
200.0
 21
287.0
  0
LINE
  8
0
 62
7
  6
CONTINUOUS
 10
0.0
 20
297.0
 11
210.0
 21
297.0
  0
LINE
  8
0
 62
7
  6
CONTINUOUS
 10
33.7968497666
 20
216.7480252552
 11
32.6829034258
 21
210.4305216247
  0
LINE
  8
0
 62
7
  6
CONTINUOUS
 10
43.5093267688
 20
240.175875293
 11
40.3018461153
 21
234.6203558368
  0
LINE
  8
0
 62
7
  6
CONTINUOUS
 10
60.6488663651
 20
258.8689903182
 11
55.734720903
 21
254.7455326734
  0
LINE
  8
0
 62
7
  6
CONTINUOUS
 10
83.1481871275
 20
270.5727047775
 11
77.1200953247
 21
268.3786587918
  0
LINE
  8
0
 62
7
  6
CONTINUOUS
 10
108.2935389175
 20
127.9663283232
 11
101.8785776104
 21
127.9663283232
  0
LINE
  8
0
 62
7
  6
CONTINUOUS
 10
83.1481871275
 20
131.2690015245
 11
77.1200953247
 21
133.4630475102
  0
LINE
  8
0
 62
7
  6
CONTINUOUS
 10
55.734720903
 20
147.0961736286
 11
60.6488663651
 21
142.9727159839
  0
LINE
  8
0
 62
7
  6
CONTINUOUS
 10
40.3018461153
 20
167.2213504652
 11
43.5093267688
 21
161.665831009
  0
LINE
  8
0
 62
7
  6
CONTINUOUS
 10
32.6829034258
 20
191.4111846773
 11
33.7968497666
 21
185.0936810469
  0
LINE
  8
QUILTS
 62
7
  6
CONTINUOUS
 10
49.7569920399
 20
204.153910878
 11
49.7403015182
 21
203.6333449446
  0
LINE
  8
QUILTS
 62
7
  6
CONTINUOUS
 10
49.6735394467
 20
201.5510816948
 11
49.6568489285
 21
201.030515873
  0
LINE
  8
QUILTS
 62
7
  6
CONTINUOUS
 10
51.332265878
 20
217.5306451659
 11
51.359994224
 21
217.9597829693
  0
LINE
  8
QUILTS
 62
7
  6
CONTINUOUS
 10
50.0506254518
 20
207.3166519365
 11
50.005641166
 21
206.9024204906
  0
LINE
  8
QUILTS
 62
7
  6
CONTINUOUS
 10
49.9044265712
 20
205.970400182
 11
49.84819623
 21
205.4526110228
  0
LINE
  8
QUILTS
 62
7
  6
CONTINUOUS
 10
50.7530048225
 20
218.1572366176
 11
50.6930528885
 21
217.6290407485
  0
LINE
  8
QUILTS
 62
7
  6
CONTINUOUS
 10
48.8301394733
 20
210.1045026326
 11
48.7485747558
 21
209.5900958374
  0
LINE
  8
QUILTS
 62
7
  6
CONTINUOUS
 10
49.2739265143
 20
209.5067956785
 11
49.3554912317
 21
210.0212024738
  0
LINE
  8
QUILTS
 62
7
  6
CONTINUOUS
 10
50.406195043
 20
209.8546021095
 11
50.3246303256
 21
209.3401953142
  0
LINE
  8
QUILTS
 62
7
  6
CONTINUOUS
 10
51.0107916837
 20
218.9496954751
 11
50.7530048225
 21
218.1572366176
  0
LINE
  8
QUILTS
 62
7
  6
CONTINUOUS
 10
51.359994224
 20
217.9597829693
 11
51.6177810851
 21
218.7522418268
  0
LINE
  8
QUILTS
 62
7
  6
CONTINUOUS
 10
53.6568026751
 20
225.5860502214
 11
53.4072952746
 21
225.0130135236
  0
LINE
  8
QUILTS
 62
7
  6
CONTINUOUS
 10
52.3676807885
 20
222.6253598872
 11
51.9934201636
 21
221.7658059334
  0
LINE
  8
QUILTS
 62
7
  6
CONTINUOUS
 10
55.4448064048
 20
228.9400313492
 11
54.2379008815
 21
226.7506526569
  0
LINE
  8
QUILTS
 62
7
  6
CONTINUOUS
 10
55.0986175001
 20
226.9898512757
 11
56.0540847563
 21
228.723110103
  0
LINE
  8
QUILTS
 62
7
  6
CONTINUOUS
 10
57.3583955721
 20
228.0041024991
 11
56.4029283159
 21
226.2708436718
  0
LINE
  8
QUILTS
 62
7
  6
CONTINUOUS
 10
51.2730730495
 20
219.4120723278
 11
51.0107916837
 21
218.9496954751
  0
LINE
  8
QUILTS
 62
7
  6
CONTINUOUS
 10
51.6177810851
 20
218.7522418268
 11
51.8478392316
 21
219.1155617474
  0
LINE
  8
QUILTS
 62
7
  6
CONTINUOUS
 10
65.2217926414
 20
239.4000089718
 11
64.7874432526
 21
238.8047446156
  0
LINE
  8
QUILTS
 62
7
  6
CONTINUOUS
 10
61.4935433392
 20
237.6498726804
 11
59.9019995617
 21
235.7219234061
  0
LINE
  8
QUILTS
 62
7
  6
CONTINUOUS
 10
60.7921278153
 20
235.7975591703
 11
62.0521004785
 21
237.3238529587
  0
LINE
  8
QUILTS
 62
7
  6
CONTINUOUS
 10
63.2006660965
 20
236.3756991422
 11
61.9406934334
 21
234.8494053538
  0
LINE
  8
QUILTS
 62
7
  6
CONTINUOUS
 10
55.7894108624
 20
229.3447956263
 11
55.4448064048
 21
228.9400313492
  0
LINE
  8
QUILTS
 62
7
  6
CONTINUOUS
 10
65.6592241692
 20
239.8464186925
 11
65.2217926414
 21
239.4000089718
  0
LINE
  8
QUILTS
 62
7
  6
CONTINUOUS
 10
65.525729979
 20
239.1021844223
 11
65.9631615068
 21
239.548594143
  0
LINE
  8
QUILTS
 62
7
  6
CONTINUOUS
 10
64.9548075983
 20
237.9115438373
 11
65.3193335934
 21
238.2835516541
  0
LINE
  8
QUILTS
 62
7
  6
CONTINUOUS
 10
66.7396296648
 20
243.0945325132
 11
66.3558784174
 21
242.7423905008
  0
LINE
  8
QUILTS
 62
7
  6
CONTINUOUS
 10
67.8507790475
 20
244.0787237997
 11
67.4579885987
 21
243.7366935669
  0
LINE
  8
QUILTS
 62
7
  6
CONTINUOUS
 10
61.9071563563
 20
237.9838047459
 11
61.4935433392
 21
237.6498726804
  0
LINE
  8
QUILTS
 62
7
  6
CONTINUOUS
 10
81.1771493957
 20
251.9639347295
 11
81.5123588411
 21
252.2333149875
  0
LINE
  8
QUILTS
 62
7
  6
CONTINUOUS
 10
81.2920869022
 20
252.7174778315
 11
80.8620636686
 21
252.4049616386
  0
LINE
  8
QUILTS
 62
7
  6
CONTINUOUS
 10
66.1726383627
 20
240.2183705729
 11
65.6592241692
 21
239.8464186925
  0
LINE
  8
QUILTS
 62
7
  6
CONTINUOUS
 10
76.6141894501
 20
250.3444604729
 11
73.0821424334
 21
248.1340890704
  0
LINE
  8
QUILTS
 62
7
  6
CONTINUOUS
 10
73.3643175801
 20
247.683189333
 11
76.4548572039
 21
249.6172633616
  0
LINE
  8
QUILTS
 62
7
  6
CONTINUOUS
 10
78.7577916162
 20
251.4798582868
 11
78.2066482525
 21
251.1851279139
  0
LINE
  8
QUILTS
 62
7
  6
CONTINUOUS
 10
81.6713463952
 20
252.890023546
 11
81.2920869022
 21
252.7174778315
  0
LINE
  8
QUILTS
 62
7
  6
CONTINUOUS
 10
81.5123588411
 20
252.2333149875
 11
81.8916183341
 21
252.405860702
  0
LINE
  8
QUILTS
 62
7
  6
CONTINUOUS
 10
82.5964886619
 20
250.8565393298
 11
82.217229169
 21
250.6839936153
  0
LINE
  8
QUILTS
 62
7
  6
CONTINUOUS
 10
82.3934467201
 20
250.2966633401
 11
82.772706213
 21
250.4692090546
  0
LINE
  8
QUILTS
 62
7
  6
CONTINUOUS
 10
55.1540582161
 20
217.9305095883
 11
55.1585530895
 21
217.6004287171
  0
LINE
  8
QUILTS
 62
7
  6
CONTINUOUS
 10
55.8254941183
 20
217.931169784
 11
55.820999236
 21
218.2612506582
  0
LINE
  8
QUILTS
 62
7
  6
CONTINUOUS
 10
57.9396170718
 20
228.3973741451
 11
57.9470271088
 21
228.6311793491
  0
LINE
  8
QUILTS
 62
7
  6
CONTINUOUS
 10
52.6874520319
 20
202.6008710335
 11
52.6740996155
 21
202.1844183165
  0
LINE
  8
QUILTS
 62
7
  6
CONTINUOUS
 10
53.0994129644
 20
202.1707818081
 11
53.1127653808
 21
202.5872345251
  0
LINE
  8
QUILTS
 62
7
  6
CONTINUOUS
 10
53.1494845201
 20
203.7324793106
 11
53.1661750419
 21
204.2530452441
  0
LINE
  8
QUILTS
 62
7
  6
CONTINUOUS
 10
53.2325535558
 20
205.0850800235
 11
53.288783897
 21
205.6028691827
  0
LINE
  8
QUILTS
 62
7
  6
CONTINUOUS
 10
53.4912130866
 20
207.4669098
 11
53.5474433956
 21
207.9846986629
  0
LINE
  8
QUILTS
 62
7
  6
CONTINUOUS
 10
55.7655425618
 20
217.4029750457
 11
55.8254941183
 21
217.931169784
  0
LINE
  8
QUILTS
 62
7
  6
CONTINUOUS
 10
53.6868818742
 20
208.8070742511
 11
53.7684465916
 21
209.3214810463
  0
LINE
  8
QUILTS
 62
7
  6
CONTINUOUS
 10
57.4160937229
 20
228.3291325114
 11
57.3583955721
 21
228.0041024991
  0
LINE
  8
QUILTS
 62
7
  6
CONTINUOUS
 10
59.3725597508
 20
227.2506212134
 11
59.3148616
 21
226.9255912012
  0
LINE
  8
QUILTS
 62
7
  6
CONTINUOUS
 10
63.8446731955
 20
236.6545106836
 11
63.8952609528
 21
236.8828977693
  0
LINE
  8
QUILTS
 62
7
  6
CONTINUOUS
 10
52.9797322131
 20
201.7577382927
 11
53.0994129644
 21
202.1707818081
  0
LINE
  8
QUILTS
 62
7
  6
CONTINUOUS
 10
59.8235637892
 20
226.5262203028
 11
59.9818381594
 21
227.0336999358
  0
LINE
  8
QUILTS
 62
7
  6
CONTINUOUS
 10
64.7874432526
 20
238.8047446156
 11
64.7176165215
 21
238.5814846703
  0
LINE
  8
QUILTS
 62
7
  6
CONTINUOUS
 10
65.2402687887
 20
238.5068641298
 11
65.3100955197
 21
238.730124075
  0
LINE
  8
QUILTS
 62
7
  6
CONTINUOUS
 10
65.8419858605
 20
238.2089311136
 11
65.702334067
 21
237.762412926
  0
LINE
  8
QUILTS
 62
7
  6
CONTINUOUS
 10
66.2219076389
 20
237.8366503225
 11
66.2917327014
 21
238.0599085648
  0
LINE
  8
QUILTS
 62
7
  6
CONTINUOUS
 10
54.6804568634
 20
218.1941112504
 11
54.4871168098
 21
217.5997673906
  0
LINE
  8
QUILTS
 62
7
  6
CONTINUOUS
 10
55.1585530895
 20
217.6004287171
 11
54.9007662284
 21
216.8079698595
  0
LINE
  8
QUILTS
 62
7
  6
CONTINUOUS
 10
55.5077557007
 20
216.6105161882
 11
55.7655425618
 21
217.4029750457
  0
LINE
  8
QUILTS
 62
7
  6
CONTINUOUS
 10
56.0877758617
 20
218.3935477675
 11
56.2811159154
 21
218.9878916272
  0
LINE
  8
QUILTS
 62
7
  6
CONTINUOUS
 10
50.4286857947
 20
206.8564791197
 11
50.5794312377
 21
207.2592252228
  0
LINE
  8
QUILTS
 62
7
  6
CONTINUOUS
 10
63.3175686838
 20
236.6844180605
 11
63.2006660965
 21
236.3756991422
  0
LINE
  8
QUILTS
 62
7
  6
CONTINUOUS
 10
65.0404169385
 20
235.2621874781
 11
64.9235143512
 21
234.9534685598
  0
LINE
  8
QUILTS
 62
7
  6
CONTINUOUS
 10
67.8535319527
 20
238.1337629737
 11
67.6409746531
 21
237.6128428561
  0
LINE
  8
QUILTS
 62
7
  6
CONTINUOUS
 10
56.5777137465
 20
219.7697467293
 11
56.827221147
 21
220.3427834271
  0
LINE
  8
QUILTS
 62
7
  6
CONTINUOUS
 10
57.8668351572
 20
222.7304359706
 11
58.2410962579
 21
223.5899910173
  0
LINE
  8
QUILTS
 62
7
  6
CONTINUOUS
 10
50.1901248073
 20
207.61584003
 11
50.0506254518
 21
207.3166519365
  0
LINE
  8
QUILTS
 62
7
  6
CONTINUOUS
 10
65.3494418878
 20
234.4667851254
 11
65.598974128
 21
234.9361677149
  0
LINE
  8
QUILTS
 62
7
  6
CONTINUOUS
 10
56.9619185537
 20
225.9626976175
 11
57.9173858099
 21
227.6959564448
  0
LINE
  8
QUILTS
 62
7
  6
CONTINUOUS
 10
59.3148616
 20
226.9255912012
 11
58.3593943438
 21
225.1923323738
  0
LINE
  8
QUILTS
 62
7
  6
CONTINUOUS
 10
58.616658266
 20
224.3368416105
 11
59.8235637892
 21
226.5262203028
  0
LINE
  8
QUILTS
 62
7
  6
CONTINUOUS
 10
55.2454739573
 20
216.1481382047
 11
55.5077557007
 21
216.6105161882
  0
LINE
  8
QUILTS
 62
7
  6
CONTINUOUS
 10
65.3100955197
 20
238.730124075
 11
65.525729979
 21
239.1021844223
  0
LINE
  8
QUILTS
 62
7
  6
CONTINUOUS
 10
66.2917327014
 20
238.0599085648
 11
66.5073671606
 21
238.4319689121
  0
LINE
  8
QUILTS
 62
7
  6
CONTINUOUS
 10
54.9007662284
 20
216.8079698595
 11
54.6707080819
 21
216.4446499389
  0
LINE
  8
QUILTS
 62
7
  6
CONTINUOUS
 10
67.9449120173
 20
237.3150182806
 11
68.2334536713
 21
237.7614822413
  0
LINE
  8
QUILTS
 62
7
  6
CONTINUOUS
 10
50.5794312377
 20
207.2592252228
 11
50.7076845056
 21
207.4548553068
  0
LINE
  8
QUILTS
 62
7
  6
CONTINUOUS
 10
80.8620636686
 20
252.4049616386
 11
80.5201492106
 21
251.8987803081
  0
LINE
  8
QUILTS
 62
7
  6
CONTINUOUS
 10
66.2034297166
 20
238.7297935658
 11
65.8419858605
 21
238.2089311136
  0
LINE
  8
QUILTS
 62
7
  6
CONTINUOUS
 10
81.5468146184
 20
250.1452350741
 11
81.4012370896
 21
249.9621286607
  0
LINE
  8
QUILTS
 62
7
  6
CONTINUOUS
 10
81.7670865573
 20
249.6610722301
 11
82.0582372747
 21
250.0272830822
  0
LINE
  8
QUILTS
 62
7
  6
CONTINUOUS
 10
83.4431207636
 20
251.0079675958
 11
83.5886939522
 21
251.1910720346
  0
LINE
  8
QUILTS
 62
7
  6
CONTINUOUS
 10
62.4329357426
 20
234.4430537995
 11
63.6929084057
 21
235.9693475879
  0
LINE
  8
QUILTS
 62
7
  6
CONTINUOUS
 10
64.9235143512
 20
234.9534685598
 11
63.663541688
 21
233.4271747714
  0
LINE
  8
QUILTS
 62
7
  6
CONTINUOUS
 10
63.7578981103
 20
232.5388358511
 11
65.3494418878
 21
234.4667851254
  0
LINE
  8
QUILTS
 62
7
  6
CONTINUOUS
 10
67.0053855707
 20
239.5482094004
 11
66.2034297166
 21
238.7297935658
  0
LINE
  8
QUILTS
 62
7
  6
CONTINUOUS
 10
66.5073671606
 20
238.4319689121
 11
67.3093230147
 21
239.2503847467
  0
LINE
  8
QUILTS
 62
7
  6
CONTINUOUS
 10
67.6409746531
 20
237.6128428561
 11
67.203544794
 21
237.1664348383
  0
LINE
  8
QUILTS
 62
7
  6
CONTINUOUS
 10
67.5074821582
 20
236.8686102628
 11
67.9449120173
 21
237.3150182806
  0
LINE
  8
QUILTS
 62
7
  6
CONTINUOUS
 10
68.7468678714
 20
238.1334341152
 11
69.1113905291
 21
238.5054385261
  0
LINE
  8
QUILTS
 62
7
  6
CONTINUOUS
 10
51.6042964649
 20
219.7424844406
 11
51.2730730495
 21
219.4120723278
  0
LINE
  8
QUILTS
 62
7
  6
CONTINUOUS
 10
69.7364314194
 20
239.0583897679
 11
70.1201826668
 21
239.4105317802
  0
LINE
  8
QUILTS
 62
7
  6
CONTINUOUS
 10
56.0540847563
 20
228.723110103
 11
56.2981129863
 21
228.9454247639
  0
LINE
  8
QUILTS
 62
7
  6
CONTINUOUS
 10
57.9173858099
 20
227.6959564448
 11
58.1614140399
 21
227.9182711057
  0
LINE
  8
QUILTS
 62
7
  6
CONTINUOUS
 10
70.7414688128
 20
239.9659167659
 11
71.1342592617
 21
240.3079469986
  0
LINE
  8
QUILTS
 62
7
  6
CONTINUOUS
 10
82.9316937671
 20
251.1259176131
 11
82.5964886619
 21
250.8565393298
  0
LINE
  8
QUILTS
 62
7
  6
CONTINUOUS
 10
82.0582372747
 20
250.0272830822
 11
82.3934467201
 21
250.2966633401
  0
LINE
  8
QUILTS
 62
7
  6
CONTINUOUS
 10
83.856836003
 20
249.0924334648
 11
83.5216308978
 21
248.8230551815
  0
LINE
  8
QUILTS
 62
7
  6
CONTINUOUS
 10
83.8367166557
 20
248.3820282046
 11
84.2667398855
 21
248.694544406
  0
LINE
  8
QUILTS
 62
7
  6
CONTINUOUS
 10
58.133357188
 20
228.5284639977
 11
57.9396170718
 21
228.3973741451
  0
LINE
  8
QUILTS
 62
7
  6
CONTINUOUS
 10
78.9280259295
 20
246.6470821841
 11
75.9257861674
 21
244.7682666184
  0
LINE
  8
QUILTS
 62
7
  6
CONTINUOUS
 10
75.7345891283
 20
243.8956310335
 11
79.266636145
 21
246.106002436
  0
LINE
  8
QUILTS
 62
7
  6
CONTINUOUS
 10
62.0521004785
 20
237.3238529587
 11
62.3330838355
 21
237.4971213589
  0
LINE
  8
QUILTS
 62
7
  6
CONTINUOUS
 10
63.6929084057
 20
235.9693475879
 11
63.9738917628
 21
236.1426159881
  0
LINE
  8
QUILTS
 62
7
  6
CONTINUOUS
 10
65.9631615068
 20
239.548594143
 11
66.3307646348
 21
239.7717422156
  0
LINE
  8
QUILTS
 62
7
  6
CONTINUOUS
 10
67.1398773548
 20
236.6454604939
 11
67.5074821582
 21
236.8686102628
  0
LINE
  8
QUILTS
 62
7
  6
CONTINUOUS
 10
80.564491236
 20
246.7759810049
 11
81.1156345996
 21
247.0707113778
  0
LINE
  8
QUILTS
 62
7
  6
CONTINUOUS
 10
83.5216308978
 20
248.8230551815
 11
83.1423714049
 21
248.650509467
  0
LINE
  8
QUILTS
 62
7
  6
CONTINUOUS
 10
83.2678252462
 20
248.1232086455
 11
83.8367166557
 21
248.3820282046
  0
LINE
  8
QUILTS
 62
7
  6
CONTINUOUS
 10
64.0593417225
 20
236.7474472512
 11
63.8446731955
 21
236.6545106836
  0
LINE
  8
QUILTS
 62
7
  6
CONTINUOUS
 10
66.3307646348
 20
239.7717422156
 11
66.5525600347
 21
239.8460898861
  0
LINE
  8
QUILTS
 62
7
  6
CONTINUOUS
 10
52.5944760784
 20
203.0207327295
 11
52.6874520319
 21
202.6008710335
  0
LINE
  8
QUILTS
 62
7
  6
CONTINUOUS
 10
53.1127653808
 20
202.5872345251
 11
53.0197894553
 21
203.0070962203
  0
LINE
  8
QUILTS
 62
7
  6
CONTINUOUS
 10
50.6930528885
 20
217.6290407485
 11
50.7664894427
 21
217.1669940038
  0
LINE
  8
QUILTS
 62
7
  6
CONTINUOUS
 10
50.005641166
 20
206.9024204906
 11
50.0664180374
 21
206.4767037021
  0
LINE
  8
QUILTS
 62
7
  6
CONTINUOUS
 10
50.4894626661
 20
206.4307623312
 11
50.4286857947
 21
206.8564791197
  0
LINE
  8
QUILTS
 62
7
  6
CONTINUOUS
 10
65.598974128
 20
234.9361677149
 11
65.6181092362
 21
235.4606671632
  0
LINE
  8
QUILTS
 62
7
  6
CONTINUOUS
 10
68.2334536713
 20
237.7614822413
 11
68.3001999121
 21
238.1335985444
  0
LINE
  8
QUILTS
 62
7
  6
CONTINUOUS
 10
80.5201492106
 20
251.8987803081
 11
80.3678666692
 21
251.4788728222
  0
LINE
  8
QUILTS
 62
7
  6
CONTINUOUS
 10
80.9300530661
 20
251.5008913086
 11
81.1771493957
 21
251.9639347295
  0
LINE
  8
QUILTS
 62
7
  6
CONTINUOUS
 10
81.4012370896
 20
249.9621286607
 11
81.15414076
 21
249.4990852398
  0
LINE
  8
QUILTS
 62
7
  6
CONTINUOUS
 10
83.178794437
 20
251.5889630086
 11
82.9316937671
 21
251.1259176131
  0
LINE
  8
QUILTS
 62
7
  6
CONTINUOUS
 10
52.6740996155
 20
202.1844183165
 11
52.4480905083
 21
201.7747839288
  0
LINE
  8
QUILTS
 62
7
  6
CONTINUOUS
 10
84.2667398855
 20
248.694544406
 11
84.608654332
 21
249.2007257619
  0
LINE
  8
QUILTS
 62
7
  6
CONTINUOUS
 10
52.757061217
 20
201.4522170095
 11
52.9797322131
 21
201.7577382927
  0
LINE
  8
QUILTS
 62
7
  6
CONTINUOUS
 10
84.1479910607
 20
249.4586462915
 11
83.856836003
 21
249.0924334648
  0
LINE
  8
QUILTS
 62
7
  6
CONTINUOUS
 10
50.4353853199
 20
207.9035427808
 11
50.1901248073
 21
207.61584003
  0
LINE
  8
QUILTS
 62
7
  6
CONTINUOUS
 10
54.914250884
 20
215.8177272342
 11
55.2454739573
 21
216.1481382047
  0
LINE
  8
QUILTS
 62
7
  6
CONTINUOUS
 10
51.8478392316
 20
219.1155617474
 11
52.1468390589
 21
219.3469157945
  0
LINE
  8
QUILTS
 62
7
  6
CONTINUOUS
 10
54.6707080819
 20
216.4446499389
 11
54.3717081838
 21
216.2132959148
  0
LINE
  8
QUILTS
 62
7
  6
CONTINUOUS
 10
52.1378493121
 20
220.0070775371
 11
51.6042964649
 21
219.7424844406
  0
LINE
  8
QUILTS
 62
7
  6
CONTINUOUS
 10
56.2700561345
 20
229.5556176559
 11
55.7894108624
 21
229.3447956263
  0
LINE
  8
QUILTS
 62
7
  6
CONTINUOUS
 10
67.203544794
 20
237.1664348383
 11
66.7599556363
 21
237.0177412263
  0
LINE
  8
QUILTS
 62
7
  6
CONTINUOUS
 10
66.9180836169
 20
236.5711145328
 11
67.1398773548
 21
236.6454604939
  0
LINE
  8
QUILTS
 62
7
  6
CONTINUOUS
 10
52.3918337337
 20
203.3398904836
 11
52.5944760784
 21
203.0207327295
  0
LINE
  8
QUILTS
 62
7
  6
CONTINUOUS
 10
50.0664180374
 20
206.4767037021
 11
50.2442021856
 21
206.1430598767
  0
LINE
  8
QUILTS
 62
7
  6
CONTINUOUS
 10
50.6672468143
 20
206.0971185058
 11
50.4894626661
 21
206.4307623312
  0
LINE
  8
QUILTS
 62
7
  6
CONTINUOUS
 10
50.7664894427
 20
217.1669940038
 11
51.0422557975
 21
216.6391293763
  0
LINE
  8
QUILTS
 62
7
  6
CONTINUOUS
 10
53.0197894553
 20
203.0070962203
 11
52.9201373287
 21
203.2187317803
  0
LINE
  8
QUILTS
 62
7
  6
CONTINUOUS
 10
51.4379256517
 20
217.1676553533
 11
51.332265878
 21
217.5306451659
  0
LINE
  8
QUILTS
 62
7
  6
CONTINUOUS
 10
59.9818381594
 20
227.0336999358
 11
59.9034931693
 21
227.5526680332
  0
LINE
  8
QUILTS
 62
7
  6
CONTINUOUS
 10
63.2861160563
 20
236.9805304053
 11
63.3175686838
 21
236.6844180605
  0
LINE
  8
QUILTS
 62
7
  6
CONTINUOUS
 10
65.0089642535
 20
235.5582998703
 11
65.0404169385
 21
235.2621874781
  0
LINE
  8
QUILTS
 62
7
  6
CONTINUOUS
 10
64.7176165215
 20
238.5814846703
 11
64.7237757935
 21
238.2837702907
  0
LINE
  8
QUILTS
 62
7
  6
CONTINUOUS
 10
65.702334067
 20
237.762412926
 11
65.7084934454
 21
237.464698442
  0
LINE
  8
QUILTS
 62
7
  6
CONTINUOUS
 10
66.2280652423
 20
237.5389342399
 11
66.2219076389
 21
237.8366503225
  0
LINE
  8
QUILTS
 62
7
  6
CONTINUOUS
 10
67.8442938259
 20
238.5803354468
 11
67.8535319527
 21
238.1337629737
  0
LINE
  8
QUILTS
 62
7
  6
CONTINUOUS
 10
78.2066482525
 20
251.1851279139
 11
78.006672951
 21
250.2337161647
  0
LINE
  8
QUILTS
 62
7
  6
CONTINUOUS
 10
78.4080080196
 20
249.4832229005
 11
78.6079831806
 21
250.4346349125
  0
LINE
  8
QUILTS
 62
7
  6
CONTINUOUS
 10
75.9257861674
 20
244.7682666184
 11
77.0092346555
 21
249.7132008406
  0
LINE
  8
QUILTS
 62
7
  6
CONTINUOUS
 10
76.4548572039
 20
249.6172633616
 11
75.2831088541
 21
244.6170706765
  0
LINE
  8
QUILTS
 62
7
  6
CONTINUOUS
 10
83.5886939522
 20
251.1910720346
 11
83.7409764936
 21
251.6109795205
  0
LINE
  8
QUILTS
 62
7
  6
CONTINUOUS
 10
84.608654332
 20
249.2007257619
 11
84.760936858
 21
249.6206332817
  0
LINE
  8
QUILTS
 62
7
  6
CONTINUOUS
 10
52.4280618855
 20
201.1501049092
 11
52.757061217
 21
201.4522170095
  0
LINE
  8
QUILTS
 62
7
  6
CONTINUOUS
 10
50.6693997449
 20
208.0876875219
 11
50.4353853199
 21
207.9035427808
  0
LINE
  8
QUILTS
 62
7
  6
CONTINUOUS
 10
50.7076845056
 20
207.4548553068
 11
50.9416989306
 21
207.6390000479
  0
LINE
  8
QUILTS
 62
7
  6
CONTINUOUS
 10
56.2811159154
 20
218.9878916272
 11
55.614174509
 21
218.6571494295
  0
LINE
  8
QUILTS
 62
7
  6
CONTINUOUS
 10
55.080621591
 20
218.3925563561
 11
54.6804568634
 21
218.1941112504
  0
LINE
  8
QUILTS
 62
7
  6
CONTINUOUS
 10
55.820999236
 20
218.2612506582
 11
56.0877758617
 21
218.3935477675
  0
LINE
  8
QUILTS
 62
7
  6
CONTINUOUS
 10
54.4871168098
 20
217.5997673906
 11
55.1540582161
 21
217.9305095883
  0
LINE
  8
QUILTS
 62
7
  6
CONTINUOUS
 10
54.3806980014
 20
215.5531341493
 11
54.914250884
 21
215.8177272342
  0
LINE
  8
QUILTS
 62
7
  6
CONTINUOUS
 10
52.9201373287
 20
203.2187317803
 11
52.6111665954
 21
203.541298514
  0
LINE
  8
QUILTS
 62
7
  6
CONTINUOUS
 10
50.2442021856
 20
206.1430598767
 11
50.4332323571
 21
205.9129734683
  0
LINE
  8
QUILTS
 62
7
  6
CONTINUOUS
 10
50.8562769857
 20
205.8670320975
 11
50.6672468143
 21
206.0971185058
  0
LINE
  8
QUILTS
 62
7
  6
CONTINUOUS
 10
55.614174509
 20
218.6571494295
 11
55.476291516
 21
218.9210823101
  0
LINE
  8
QUILTS
 62
7
  6
CONTINUOUS
 10
57.3303387202
 20
228.6142953912
 11
57.4160937229
 21
228.3291325114
  0
LINE
  8
QUILTS
 62
7
  6
CONTINUOUS
 10
59.2868046829
 20
227.5357841292
 11
59.3725597508
 21
227.2506212134
  0
LINE
  8
QUILTS
 62
7
  6
CONTINUOUS
 10
80.8725844362
 20
251.1241194864
 11
80.9300530661
 21
251.5008913086
  0
LINE
  8
QUILTS
 62
7
  6
CONTINUOUS
 10
83.23625885
 20
251.965732585
 11
83.178794437
 21
251.5889630086
  0
LINE
  8
QUILTS
 62
7
  6
CONTINUOUS
 10
81.6588584653
 20
249.1443320397
 11
81.7670865573
 21
249.6610722301
  0
LINE
  8
QUILTS
 62
7
  6
CONTINUOUS
 10
84.2562191835
 20
249.9753864141
 11
84.1479910607
 21
249.4586462915
  0
LINE
  8
QUILTS
 62
7
  6
CONTINUOUS
 10
52.4480905083
 20
201.7747839288
 11
52.1224292419
 21
201.576784953
  0
LINE
  8
QUILTS
 62
7
  6
CONTINUOUS
 10
133.9082473992
 20
247.3883885506
 11
134.3924835561
 21
247.5987429225
  0
LINE
  8
QUILTS
 62
7
  6
CONTINUOUS
 10
140.7318192888
 20
243.9052434093
 11
141.0981430355
 21
244.0104307899
  0
LINE
  8
QUILTS
 62
7
  6
CONTINUOUS
 10
140.8048987462
 20
240.3264169865
 11
140.4385749508
 21
240.2212295495
  0
LINE
  8
QUILTS
 62
7
  6
CONTINUOUS
 10
52.0795248814
 20
203.5583441504
 11
52.3918337337
 21
203.3398904836
  0
LINE
  8
QUILTS
 62
7
  6
CONTINUOUS
 10
51.6769738283
 20
216.8708134391
 11
51.4379256517
 21
217.1676553533
  0
LINE
  8
QUILTS
 62
7
  6
CONTINUOUS
 10
54.8415736978
 20
218.6893981781
 11
55.080621591
 21
218.3925563561
  0
LINE
  8
QUILTS
 62
7
  6
CONTINUOUS
 10
57.9470271088
 20
228.6311793491
 11
57.7252301406
 21
229.1102823885
  0
LINE
  8
QUILTS
 62
7
  6
CONTINUOUS
 10
59.9034931693
 20
227.5526680332
 11
59.6816961686
 21
228.0317710906
  0
LINE
  8
QUILTS
 62
7
  6
CONTINUOUS
 10
63.8952609528
 20
236.8828977693
 11
63.7660423855
 21
237.3947924648
  0
LINE
  8
QUILTS
 62
7
  6
CONTINUOUS
 10
65.6181092362
 20
235.4606671632
 11
65.4888906402
 21
235.9725618824
  0
LINE
  8
0
 62
7
  6
CONTINUOUS
 10
77.0122822052
 20
265.4834991693
 11
77.0262207627
 21
265.2701780444
  0
LINE
  8
QUILTS
 62
7
  6
CONTINUOUS
 10
80.3678666692
 20
251.4788728222
 11
80.3985111551
 21
250.9084378369
  0
LINE
  8
QUILTS
 62
7
  6
CONTINUOUS
 10
81.15414076
 20
249.4990852398
 11
81.184780844
 21
248.9286484156
  0
LINE
  8
QUILTS
 62
7
  6
CONTINUOUS
 10
83.7409764936
 20
251.6109795205
 11
83.7543908591
 21
252.0845836403
  0
LINE
  8
0
 62
7
  6
CONTINUOUS
 10
77.0262207627
 20
136.5715282576
 11
77.0122822052
 21
136.3582071327
  0
LINE
  8
0
 62
7
  6
CONTINUOUS
 10
100.7870635086
 20
271.1916921041
 11
100.7272013466
 21
270.9864685498
  0
LINE
  8
0
 62
7
  6
CONTINUOUS
 10
56.7096707007
 20
150.04929704
 11
56.6236126193
 21
149.8536080205
  0
LINE
  8
0
 62
7
  6
CONTINUOUS
 10
125.0803670259
 20
268.4241847741
 11
124.9539244045
 21
268.2518117797
  0
LINE
  8
0
 62
7
  6
CONTINUOUS
 10
42.2280269381
 20
169.6629262735
 11
42.0802292076
 21
169.5084723434
  0
LINE
  8
0
 62
7
  6
CONTINUOUS
 10
101.2223549588
 20
225.3414210933
 11
80.6654903217
 21
204.7845564562
  0
LINE
  8
0
 62
7
  6
CONTINUOUS
 10
146.9620618219
 20
257.5147794072
 11
146.7842895874
 21
257.3960476999
  0
LINE
  8
QUILTS
 62
7
  6
CONTINUOUS
 10
140.6253329388
 20
244.4191796278
 11
140.1198604732
 21
244.1530354122
  0
LINE
  8
0
 62
7
  6
CONTINUOUS
 10
35.3279894393
 20
193.0467228064
 11
35.1362786472
 21
192.9521333889
  0
LINE
  8
QUILTS
 62
7
  6
CONTINUOUS
 10
53.1661750419
 20
204.2530452441
 11
52.9501802573
 21
204.1557501329
  0
LINE
  8
QUILTS
 62
7
  6
CONTINUOUS
 10
52.2120671258
 20
201.0528099928
 11
52.4280618855
 21
201.1501049092
  0
LINE
  8
QUILTS
 62
7
  6
CONTINUOUS
 10
52.6111665954
 20
203.541298514
 11
53.1494845201
 21
203.7324793106
  0
LINE
  8
0
 62
7
  6
CONTINUOUS
 10
46.379223963
 20
162.0623950055
 11
46.5868838555
 21
162.1131646297
  0
LINE
  8
0
 62
7
  6
CONTINUOUS
 10
173.3303119678
 20
184.4614506334
 11
173.5428126706
 21
184.4847666584
  0
LINE
  8
0
 62
7
  6
CONTINUOUS
 10
36.6293038573
 20
184.4847666584
 11
36.8418045601
 21
184.4614506334
  0
LINE
  8
0
 62
7
  6
CONTINUOUS
 10
163.5852326724
 20
162.1131646297
 11
163.7928925649
 21
162.0623950055
  0
LINE
  8
0
 62
7
  6
CONTINUOUS
 10
35.1362786472
 20
208.8895729131
 11
35.3279894393
 21
208.7949834956
  0
LINE
  8
0
 62
7
  6
CONTINUOUS
 10
146.7842895874
 20
144.4456586022
 11
146.9620618219
 21
144.3269268948
  0
LINE
  8
QUILTS
 62
7
  6
CONTINUOUS
 10
51.0422557975
 20
216.6391293763
 11
51.382468591
 21
216.3093786129
  0
LINE
  8
QUILTS
 62
7
  6
CONTINUOUS
 10
55.476291516
 20
218.9210823101
 11
55.1360786517
 21
219.2508330965
  0
LINE
  8
0
 62
7
  6
CONTINUOUS
 10
80.6654903217
 20
197.0571498459
 11
101.2223549588
 21
176.5002852087
  0
LINE
  8
0
 62
7
  6
CONTINUOUS
 10
42.0802292076
 20
232.3332339587
 11
42.2280269381
 21
232.1787800285
  0
LINE
  8
0
 62
7
  6
CONTINUOUS
 10
124.9539244045
 20
133.5898945223
 11
125.0803670259
 21
133.4175215279
  0
LINE
  8
0
 62
7
  6
CONTINUOUS
 10
56.6236126193
 20
251.9880982815
 11
56.7096707007
 21
251.7924092621
  0
LINE
  8
QUILTS
 62
7
  6
CONTINUOUS
 10
64.7237757935
 20
238.2837702907
 11
64.8028389296
 21
238.060456112
  0
LINE
  8
QUILTS
 62
7
  6
CONTINUOUS
 10
65.3193335934
 20
238.2835516541
 11
65.2402687887
 21
238.5068641298
  0
LINE
  8
QUILTS
 62
7
  6
CONTINUOUS
 10
65.7084934454
 20
237.464698442
 11
65.8666197175
 21
237.0180700847
  0
LINE
  8
QUILTS
 62
7
  6
CONTINUOUS
 10
67.7652290211
 20
238.8036479225
 11
67.8442938259
 21
238.5803354468
  0
LINE
  8
QUILTS
 62
7
  6
CONTINUOUS
 10
68.3001999121
 20
238.1335985444
 11
68.2211350807
 21
238.3569110462
  0
LINE
  8
0
 62
7
  6
CONTINUOUS
 10
100.7272013466
 20
130.8552377522
 11
100.7870635086
 21
130.6500141979
  0
LINE
  8
QUILTS
 62
7
  6
CONTINUOUS
 10
84.760936858
 20
249.6206332817
 11
84.7302924646
 21
250.1910680635
  0
LINE
  8
0
 62
7
  6
CONTINUOUS
 10
101.121819563
 20
273.1897280115
 11
100.9432560355
 21
271.9447345092
  0
LINE
  8
0
 62
7
  6
CONTINUOUS
 10
76.9014994988
 20
135.5971577511
 11
76.6434814719
 21
134.3661742208
  0
LINE
  8
0
 62
7
  6
CONTINUOUS
 10
126.0783033474
 20
270.1872310585
 11
125.4846956622
 21
269.0783921749
  0
LINE
  8
0
 62
7
  6
CONTINUOUS
 10
56.259216709
 20
149.1763454497
 11
55.5957379096
 21
148.1078466725
  0
LINE
  8
0
 62
7
  6
CONTINUOUS
 10
148.5028125622
 20
258.8301866671
 11
147.5657585668
 21
257.9912447361
  0
LINE
  8
QUILTS
 62
7
  6
CONTINUOUS
 10
134.1566912424
 20
248.228618626
 11
133.9060162557
 21
248.0053039894
  0
LINE
  8
QUILTS
 62
7
  6
CONTINUOUS
 10
134.3924835561
 20
247.5987429225
 11
134.6431585428
 21
247.8220575591
  0
LINE
  8
0
 62
7
  6
CONTINUOUS
 10
41.5061716181
 20
168.9966844446
 11
40.5172573814
 21
168.2195471425
  0
LINE
  8
QUILTS
 62
7
  6
CONTINUOUS
 10
135.5572837599
 20
245.1509542287
 11
137.9904982863
 21
246.9422424354
  0
LINE
  8
QUILTS
 62
7
  6
CONTINUOUS
 10
134.1436268437
 20
244.0692534572
 11
135.2250580792
 21
244.8653796597
  0
LINE
  8
QUILTS
 62
7
  6
CONTINUOUS
 10
137.8990542845
 20
247.5307330258
 11
133.6352108123
 21
244.4327615575
  0
LINE
  8
QUILTS
 62
7
  6
CONTINUOUS
 10
140.4442922203
 20
243.7319351549
 11
140.7318192888
 21
243.9052434093
  0
LINE
  8
QUILTS
 62
7
  6
CONTINUOUS
 10
139.3311039312
 20
242.4442821664
 11
139.6186309022
 21
242.617590308
  0
LINE
  8
QUILTS
 62
7
  6
CONTINUOUS
 10
141.0924256198
 20
240.4997250154
 11
140.8048987462
 21
240.3264169865
  0
LINE
  8
QUILTS
 62
7
  6
CONTINUOUS
 10
140.9113850475
 20
239.8124807117
 11
141.4168573669
 21
240.0786247581
  0
LINE
  8
0
 62
7
  6
CONTINUOUS
 10
165.6906204455
 20
240.4884220029
 11
164.5231426813
 21
240.0205658029
  0
LINE
  8
0
 62
7
  6
CONTINUOUS
 10
34.421799196
 20
192.6675493361
 11
33.2267271737
 21
192.275507737
  0
LINE
  8
QUILTS
 62
7
  6
CONTINUOUS
 10
52.1224292419
 20
201.576784953
 11
51.800106154
 21
201.4828991542
  0
LINE
  8
0
 62
7
  6
CONTINUOUS
 10
35.8605793108
 20
184.5078218285
 11
34.6034928262
 21
184.4674817219
  0
LINE
  8
0
 62
7
  6
CONTINUOUS
 10
175.5686237017
 20
184.4674817219
 11
174.3115372172
 21
184.5078218285
  0
LINE
  8
0
 62
7
  6
CONTINUOUS
 10
34.421799196
 20
209.1741569659
 11
33.2267271737
 21
209.5661985651
  0
LINE
  8
0
 62
7
  6
CONTINUOUS
 10
165.6906204455
 20
161.3532842991
 11
164.5231426813
 21
161.8211404992
  0
LINE
  8
QUILTS
 62
7
  6
CONTINUOUS
 10
52.0494102099
 20
216.6401207415
 11
51.6769738283
 21
216.8708134391
  0
LINE
  8
0
 62
7
  6
CONTINUOUS
 10
40.5172573814
 20
233.6221591595
 11
41.5061716181
 21
232.8450218574
  0
LINE
  8
0
 62
7
  6
CONTINUOUS
 10
148.5028125622
 20
143.0115196349
 11
147.5657585668
 21
143.8504615659
  0
LINE
  8
QUILTS
 62
7
  6
CONTINUOUS
 10
57.1011317151
 20
228.8595932265
 11
57.3303387202
 21
228.6142953912
  0
LINE
  8
QUILTS
 62
7
  6
CONTINUOUS
 10
57.7252301406
 20
229.1102823885
 11
57.4960231356
 21
229.3555802238
  0
LINE
  8
QUILTS
 62
7
  6
CONTINUOUS
 10
59.0575976778
 20
227.7810819645
 11
59.2868046829
 21
227.5357841292
  0
LINE
  8
QUILTS
 62
7
  6
CONTINUOUS
 10
59.6816961686
 20
228.0317710906
 11
59.4524890982
 21
228.2770689619
  0
LINE
  8
QUILTS
 62
7
  6
CONTINUOUS
 10
63.1063097316
 20
237.2640380151
 11
63.2861160563
 21
236.9805304053
  0
LINE
  8
QUILTS
 62
7
  6
CONTINUOUS
 10
63.7660423855
 20
237.3947924648
 11
63.5862360609
 21
237.6783000746
  0
LINE
  8
QUILTS
 62
7
  6
CONTINUOUS
 10
64.8291579288
 20
235.8418074801
 11
65.0089642535
 21
235.5582998703
  0
LINE
  8
QUILTS
 62
7
  6
CONTINUOUS
 10
65.4888906402
 20
235.9725618824
 11
65.3090842581
 21
236.2560695396
  0
LINE
  8
0
 62
7
  6
CONTINUOUS
 10
55.5957379096
 20
253.7338596295
 11
56.259216709
 21
252.6653608524
  0
LINE
  8
0
 62
7
  6
CONTINUOUS
 10
125.4846956622
 20
132.7633141272
 11
126.0783033474
 21
131.6544752435
  0
LINE
  8
QUILTS
 62
7
  6
CONTINUOUS
 10
66.3831143814
 20
237.2411656268
 11
66.2280652423
 21
237.5389342399
  0
LINE
  8
0
 62
7
  6
CONTINUOUS
 10
76.6434814719
 20
267.4755320812
 11
76.9014994988
 21
266.2445485509
  0
LINE
  8
0
 62
7
  6
CONTINUOUS
 10
100.9432560355
 20
129.8969717928
 11
101.121819563
 21
128.6519782906
  0
LINE
  8
QUILTS
 62
7
  6
CONTINUOUS
 10
140.1198604732
 20
244.1530354122
 11
139.5540365518
 21
243.6578141644
  0
LINE
  8
QUILTS
 62
7
  6
CONTINUOUS
 10
139.9480425609
 20
243.3171922118
 11
140.4442922203
 21
243.7319351549
  0
LINE
  8
QUILTS
 62
7
  6
CONTINUOUS
 10
51.382468591
 20
216.3093786129
 11
51.8560701562
 21
216.0457768817
  0
LINE
  8
QUILTS
 62
7
  6
CONTINUOUS
 10
55.1360786517
 20
219.2508330965
 11
54.6624773698
 21
219.5144347355
  0
LINE
  8
QUILTS
 62
7
  6
CONTINUOUS
 10
54.4691373161
 20
218.9200908757
 11
54.8415736978
 21
218.6893981781
  0
LINE
  8
1_AXIS
 62
2
  6
CONTINUOUS
 10
105.086058264
 20
201.800853151
 11
105.086058264
 21
200.040853151
  0
LINE
  8
1_AXIS
 62
2
  6
CENTER
 10
105.086058264
 20
196.520853151
 11
105.086058264
 21
125.895853151
  0
LINE
  8
1_AXIS
 62
2
  6
CENTER
 10
105.086058264
 20
205.320853151
 11
105.086058264
 21
275.945853151
  0
LINE
  8
QUILTS
 62
7
  6
CONTINUOUS
 10
132.1163532551
 20
251.1411359956
 11
129.5992156626
 21
246.8209486917
  0
LINE
  8
QUILTS
 62
7
  6
CONTINUOUS
 10
130.1392390756
 20
246.5063064927
 11
131.2639175904
 21
248.436602975
  0
LINE
  8
QUILTS
 62
7
  6
CONTINUOUS
 10
131.585254266
 20
248.9881161821
 11
132.3885961051
 21
250.3668994573
  0
LINE
  8
QUILTS
 62
7
  6
CONTINUOUS
 10
139.5540365518
 20
243.6578141644
 11
139.0670167179
 21
243.0944660312
  0
LINE
  8
QUILTS
 62
7
  6
CONTINUOUS
 10
139.8088940369
 20
243.1562356023
 11
139.9480425609
 21
243.3171922118
  0
LINE
  8
QUILTS
 62
7
  6
CONTINUOUS
 10
139.1223811453
 20
242.2028472522
 11
139.3311039312
 21
242.4442821664
  0
LINE
  8
1_AXIS
 62
2
  6
CONTINUOUS
 10
105.966058264
 20
200.920853151
 11
104.206058264
 21
200.920853151
  0
LINE
  8
1_AXIS
 62
2
  6
CENTER
 10
100.686058264
 20
200.920853151
 11
30.061058264
 21
200.920853151
  0
LINE
  8
1_AXIS
 62
2
  6
CENTER
 10
109.486058264
 20
200.920853151
 11
180.111058264
 21
200.920853151
  0
LINE
  8
QUILTS
 62
7
  6
CONTINUOUS
 10
49.6568489285
 20
201.030515873
 11
51.7834156358
 21
200.9623333324
  0
LINE
  8
QUILTS
 62
7
  6
CONTINUOUS
 10
51.800106154
 20
201.4828991542
 11
49.6735394467
 21
201.5510816948
  0
LINE
  8
QUILTS
 62
7
  6
CONTINUOUS
 10
49.84819623
 20
205.4526110228
 11
53.2325535558
 21
205.0850800235
  0
LINE
  8
QUILTS
 62
7
  6
CONTINUOUS
 10
53.288783897
 20
205.6028691827
 11
50.8562769857
 21
205.8670320975
  0
LINE
  8
QUILTS
 62
7
  6
CONTINUOUS
 10
50.4332323571
 20
205.9129734683
 11
49.9044265712
 21
205.970400182
  0
LINE
  8
QUILTS
 62
7
  6
CONTINUOUS
 10
48.7485747558
 20
209.5900958374
 11
49.2739265143
 21
209.5067956785
  0
LINE
  8
QUILTS
 62
7
  6
CONTINUOUS
 10
50.3246303256
 20
209.3401953142
 11
53.6868818742
 21
208.8070742511
  0
LINE
  8
QUILTS
 62
7
  6
CONTINUOUS
 10
53.7684465916
 20
209.3214810463
 11
50.406195043
 21
209.8546021095
  0
LINE
  8
QUILTS
 62
7
  6
CONTINUOUS
 10
49.3554912317
 20
210.0212024738
 11
48.8301394733
 21
210.1045026326
  0
LINE
  8
QUILTS
 62
7
  6
CONTINUOUS
 10
51.8560701562
 20
216.0457768817
 11
53.3735438016
 21
215.5521427149
  0
LINE
  8
QUILTS
 62
7
  6
CONTINUOUS
 10
53.5668838552
 20
216.1464865746
 11
52.0494102099
 21
216.6401207415
  0
LINE
  8
QUILTS
 62
7
  6
CONTINUOUS
 10
51.9934201636
 20
221.7658059334
 11
56.5777137465
 21
219.7697467293
  0
LINE
  8
QUILTS
 62
7
  6
CONTINUOUS
 10
56.827221147
 20
220.3427834271
 11
52.8281564624
 21
222.084026593
  0
LINE
  8
QUILTS
 62
7
  6
CONTINUOUS
 10
54.2379008815
 20
226.7506526569
 11
58.616658266
 21
224.3368416105
  0
LINE
  8
QUILTS
 62
7
  6
CONTINUOUS
 10
58.3593943438
 20
225.1923323738
 11
56.9619185537
 21
225.9626976175
  0
LINE
  8
QUILTS
 62
7
  6
CONTINUOUS
 10
56.4029283159
 20
226.2708436718
 11
55.0986175001
 21
226.9898512757
  0
LINE
  8
QUILTS
 62
7
  6
CONTINUOUS
 10
59.9019995617
 20
235.7219234061
 11
63.7578981103
 21
232.5388358511
  0
LINE
  8
QUILTS
 62
7
  6
CONTINUOUS
 10
63.663541688
 20
233.4271747714
 11
62.4329357426
 21
234.4430537995
  0
LINE
  8
QUILTS
 62
7
  6
CONTINUOUS
 10
61.9406934334
 20
234.8494053538
 11
60.7921278153
 21
235.7975591703
  0
LINE
  8
QUILTS
 62
7
  6
CONTINUOUS
 10
64.8028389296
 20
238.060456112
 11
64.9548075983
 21
237.9115438373
  0
LINE
  8
QUILTS
 62
7
  6
CONTINUOUS
 10
65.8666197175
 20
237.0180700847
 11
66.0945727207
 21
236.7947016727
  0
LINE
  8
QUILTS
 62
7
  6
CONTINUOUS
 10
66.5350831034
 20
237.0922532999
 11
66.3831143814
 21
237.2411656268
  0
LINE
  8
QUILTS
 62
7
  6
CONTINUOUS
 10
66.3558784174
 20
242.7423905008
 11
69.7364314194
 21
239.0583897679
  0
LINE
  8
QUILTS
 62
7
  6
CONTINUOUS
 10
70.1201826668
 20
239.4105317802
 11
66.7396296648
 21
243.0945325132
  0
LINE
  8
QUILTS
 62
7
  6
CONTINUOUS
 10
67.4579885987
 20
243.7366935669
 11
70.7414688128
 21
239.9659167659
  0
LINE
  8
QUILTS
 62
7
  6
CONTINUOUS
 10
71.1342592617
 20
240.3079469986
 11
67.8507790475
 21
244.0787237997
  0
LINE
  8
QUILTS
 62
7
  6
CONTINUOUS
 10
73.0821424334
 20
248.1340890704
 11
73.3643175801
 21
247.683189333
  0
LINE
  8
QUILTS
 62
7
  6
CONTINUOUS
 10
75.2831088541
 20
244.6170706765
 11
75.7345891283
 21
243.8956310335
  0
LINE
  8
QUILTS
 62
7
  6
CONTINUOUS
 10
78.006672951
 20
250.2337161647
 11
78.4080080196
 21
249.4832229005
  0
LINE
  8
QUILTS
 62
7
  6
CONTINUOUS
 10
78.6079831806
 20
250.4346349125
 11
80.564491236
 21
246.7759810049
  0
LINE
  8
QUILTS
 62
7
  6
CONTINUOUS
 10
81.1156345996
 20
247.0707113778
 11
78.7577916162
 21
251.4798582868
  0
LINE
  8
QUILTS
 62
7
  6
CONTINUOUS
 10
81.184780844
 20
248.9286484156
 11
81.3169440073
 21
248.6381507092
  0
LINE
  8
QUILTS
 62
7
  6
CONTINUOUS
 10
80.3985111551
 20
250.9084378369
 11
80.5306743185
 21
250.6179401305
  0
LINE
  8
QUILTS
 62
7
  6
CONTINUOUS
 10
81.7910216287
 20
248.8538343333
 11
81.6588584653
 21
249.1443320397
  0
LINE
  8
QUILTS
 62
7
  6
CONTINUOUS
 10
80.9606932118
 20
250.9304543488
 11
80.8725844362
 21
251.1241194864
  0
LINE
  8
QUILTS
 62
7
  6
CONTINUOUS
 10
134.3173597303
 20
248.5043754871
 11
134.1566912424
 21
248.228618626
  0
LINE
  8
QUILTS
 62
7
  6
CONTINUOUS
 10
134.6431585428
 20
247.8220575591
 11
134.8573831432
 21
248.189733288
  0
LINE
  8
QUILTS
 62
7
  6
CONTINUOUS
 10
139.0670167179
 20
243.0944660312
 11
138.6588008742
 21
242.4629909
  0
LINE
  8
QUILTS
 62
7
  6
CONTINUOUS
 10
141.3011484057
 20
240.7411599296
 11
141.0924256198
 21
240.4997250154
  0
LINE
  8
QUILTS
 62
7
  6
CONTINUOUS
 10
141.4168573669
 20
240.0786247581
 11
141.7647287742
 21
240.4810163946
  0
LINE
  8
QUILTS
 62
7
  6
CONTINUOUS
 10
49.7403015182
 20
203.6333449446
 11
52.0795248814
 21
203.5583441504
  0
LINE
  8
QUILTS
 62
7
  6
CONTINUOUS
 10
52.5215287893
 20
204.0652735743
 11
49.7569920399
 21
204.153910878
  0
LINE
  8
QUILTS
 62
7
  6
CONTINUOUS
 10
51.481750804
 20
207.6851313439
 11
53.4912130866
 21
207.4669098
  0
LINE
  8
QUILTS
 62
7
  6
CONTINUOUS
 10
53.5474433956
 20
207.9846986629
 11
51.537981113
 21
208.2029202068
  0
LINE
  8
QUILTS
 62
7
  6
CONTINUOUS
 10
52.9516636708
 20
219.4137250425
 11
54.4691373161
 21
218.9200908757
  0
LINE
  8
QUILTS
 62
7
  6
CONTINUOUS
 10
54.6624773698
 20
219.5144347355
 11
53.1450037245
 21
220.0080689023
  0
LINE
  8
QUILTS
 62
7
  6
CONTINUOUS
 10
53.4072952746
 20
225.0130135236
 11
57.3088217411
 21
223.3142397272
  0
LINE
  8
QUILTS
 62
7
  6
CONTINUOUS
 10
58.2410962579
 20
223.5899910173
 11
53.6568026751
 21
225.5860502214
  0
LINE
  8
QUILTS
 62
7
  6
CONTINUOUS
 10
56.9148016359
 20
228.9623085779
 11
57.1011317151
 21
228.8595932265
  0
LINE
  8
QUILTS
 62
7
  6
CONTINUOUS
 10
58.7781025589
 20
227.9351549917
 11
59.0575976778
 21
227.7810819645
  0
LINE
  8
QUILTS
 62
7
  6
CONTINUOUS
 10
59.4524890982
 20
228.2770689619
 11
58.9866639001
 21
228.5338573404
  0
LINE
  8
QUILTS
 62
7
  6
CONTINUOUS
 10
57.4960231356
 20
229.3555802238
 11
57.1233627161
 21
229.5610110706
  0
LINE
  8
QUILTS
 62
7
  6
CONTINUOUS
 10
62.9422289619
 20
237.3994885332
 11
63.1063097316
 21
237.2640380151
  0
LINE
  8
QUILTS
 62
7
  6
CONTINUOUS
 10
64.5830367742
 20
236.0449832573
 11
64.8291579288
 21
235.8418074801
  0
LINE
  8
QUILTS
 62
7
  6
CONTINUOUS
 10
65.3090842581
 20
236.2560695396
 11
64.8988823337
 21
236.5946958349
  0
LINE
  8
QUILTS
 62
7
  6
CONTINUOUS
 10
63.5862360609
 20
237.6783000746
 11
63.2580742916
 21
237.9492013006
  0
LINE
  8
QUILTS
 62
7
  6
CONTINUOUS
 10
66.7774325675
 20
239.7715778124
 11
67.0053855707
 21
239.5482094004
  0
LINE
  8
QUILTS
 62
7
  6
CONTINUOUS
 10
67.3093230147
 20
239.2503847467
 11
67.7652290211
 21
238.8036479225
  0
LINE
  8
QUILTS
 62
7
  6
CONTINUOUS
 10
68.3577080726
 20
238.9522872751
 11
67.1419585626
 21
240.1435856292
  0
LINE
  8
QUILTS
 62
7
  6
CONTINUOUS
 10
79.266636145
 20
246.106002436
 11
78.9280259295
 21
246.6470821841
  0
LINE
  8
QUILTS
 62
7
  6
CONTINUOUS
 10
77.0092346555
 20
249.7132008406
 11
76.6141894501
 21
250.3444604729
  0
LINE
  8
QUILTS
 62
7
  6
CONTINUOUS
 10
83.1481500744
 20
252.1593977226
 11
83.23625885
 21
251.965732585
  0
LINE
  8
QUILTS
 62
7
  6
CONTINUOUS
 10
84.1240560201
 20
250.2658841205
 11
84.2562191835
 21
249.9753864141
  0
LINE
  8
QUILTS
 62
7
  6
CONTINUOUS
 10
83.7543908591
 20
252.0845836403
 11
83.6222276958
 21
252.3750813467
  0
LINE
  8
QUILTS
 62
7
  6
CONTINUOUS
 10
84.7302924646
 20
250.1910680635
 11
84.5981293012
 21
250.4815657699
  0
LINE
  8
0
 62
7
  6
CONTINUOUS
 10
109.2288604925
 20
129.8969717928
 11
109.0502969649
 21
128.6519782906
  0
LINE
  8
0
 62
7
  6
CONTINUOUS
 10
133.5286350561
 20
267.4755320812
 11
133.2706170292
 21
266.2445485509
  0
LINE
  8
0
 62
7
  6
CONTINUOUS
 10
84.6874208658
 20
132.7633141272
 11
84.0938131806
 21
131.6544752435
  0
LINE
  8
0
 62
7
  6
CONTINUOUS
 10
154.5763786183
 20
253.7338596295
 11
153.912899819
 21
252.6653608524
  0
LINE
  8
0
 62
7
  6
CONTINUOUS
 10
62.6063579611
 20
143.8504615659
 11
61.6693039658
 21
143.0115196349
  0
LINE
  8
0
 62
7
  6
CONTINUOUS
 10
169.6548591465
 20
233.6221591595
 11
168.6659449098
 21
232.8450218574
  0
LINE
  8
0
 62
7
  6
CONTINUOUS
 10
45.6489738466
 20
161.8211404992
 11
44.4814960824
 21
161.3532842991
  0
LINE
  8
0
 62
7
  6
CONTINUOUS
 10
176.9453893543
 20
209.5661985651
 11
175.750317332
 21
209.1741569659
  0
LINE
  8
QUILTS
 62
7
  6
CONTINUOUS
 10
51.7834156358
 20
200.9623333324
 11
52.2120671258
 21
201.0528099928
  0
LINE
  8
QUILTS
 62
7
  6
CONTINUOUS
 10
52.9501802573
 20
204.1557501329
 11
52.5215287893
 21
204.0652735743
  0
LINE
  8
QUILTS
 62
7
  6
CONTINUOUS
 10
50.9416989306
 20
207.6390000479
 11
51.481750804
 21
207.6851313439
  0
LINE
  8
QUILTS
 62
7
  6
CONTINUOUS
 10
51.537981113
 20
208.2029202068
 11
50.997929304
 21
208.1567895034
  0
LINE
  8
0
 62
7
  6
CONTINUOUS
 10
175.5686237017
 20
217.3742245801
 11
174.3115372172
 21
217.3338844735
  0
LINE
  8
0
 62
7
  6
CONTINUOUS
 10
35.8605793108
 20
217.3338844735
 11
34.6034928262
 21
217.3742245801
  0
LINE
  8
QUILTS
 62
7
  6
CONTINUOUS
 10
54.0037666756
 20
216.1139077412
 11
53.5668838552
 21
216.1464865746
  0
LINE
  8
QUILTS
 62
7
  6
CONTINUOUS
 10
52.5147808505
 20
219.446303876
 11
52.9516636708
 21
219.4137250425
  0
LINE
  8
QUILTS
 62
7
  6
CONTINUOUS
 10
53.3735438016
 20
215.5521427149
 11
53.9115915221
 21
215.48665494
  0
LINE
  8
QUILTS
 62
7
  6
CONTINUOUS
 10
53.1450037245
 20
220.0080689023
 11
52.6069557205
 21
220.0735567693
  0
LINE
  8
0
 62
7
  6
CONTINUOUS
 10
176.9453893543
 20
192.275507737
 11
175.750317332
 21
192.6675493361
  0
LINE
  8
0
 62
7
  6
CONTINUOUS
 10
45.6489738466
 20
240.0205658029
 11
44.4814960824
 21
240.4884220029
  0
LINE
  8
QUILTS
 62
7
  6
CONTINUOUS
 10
66.0945727207
 20
236.7947016727
 11
66.4714156443
 21
236.571278975
  0
LINE
  8
QUILTS
 62
7
  6
CONTINUOUS
 10
68.8105336353
 20
238.6544067633
 11
68.3577080726
 21
238.9522872751
  0
LINE
  8
0
 62
7
  6
CONTINUOUS
 10
169.6548591465
 20
168.2195471425
 11
168.6659449098
 21
168.9966844446
  0
LINE
  8
0
 62
7
  6
CONTINUOUS
 10
61.6693039658
 20
258.8301866671
 11
62.6063579611
 21
257.9912447361
  0
LINE
  8
0
 62
7
  6
CONTINUOUS
 10
153.912899819
 20
149.1763454497
 11
154.5763786183
 21
148.1078466725
  0
LINE
  8
0
 62
7
  6
CONTINUOUS
 10
84.0938131806
 20
270.1872310585
 11
84.6874208658
 21
269.0783921749
  0
LINE
  8
0
 62
7
  6
CONTINUOUS
 10
133.2706170292
 20
135.5971577511
 11
133.5286350561
 21
134.3661742208
  0
LINE
  8
0
 62
7
  6
CONTINUOUS
 10
109.0502969649
 20
273.1897280115
 11
109.2288604925
 21
271.9447345092
  0
LINE
  8
QUILTS
 62
7
  6
CONTINUOUS
 10
134.3880214192
 20
248.8325740575
 11
134.3173597303
 21
248.5043754871
  0
LINE
  8
QUILTS
 62
7
  6
CONTINUOUS
 10
134.8573831432
 20
248.189733288
 11
134.9280448322
 21
248.5179318584
  0
LINE
  8
QUILTS
 62
7
  6
CONTINUOUS
 10
137.0246536077
 20
242.0093723732
 11
138.5769397405
 21
247.0460574076
  0
LINE
  8
QUILTS
 62
7
  6
CONTINUOUS
 10
136.919775598
 20
243.6536878409
 11
136.5162375763
 21
242.3728804735
  0
LINE
  8
QUILTS
 62
7
  6
CONTINUOUS
 10
137.9904982863
 20
246.9422424354
 11
137.0825318541
 21
244.0604299278
  0
LINE
  8
QUILTS
 62
7
  6
CONTINUOUS
 10
138.6588008742
 20
242.4629909
 11
138.4685304763
 21
241.9243517863
  0
LINE
  8
QUILTS
 62
7
  6
CONTINUOUS
 10
141.7647287742
 20
240.4810163946
 11
141.9549991234
 21
241.0196554519
  0
LINE
  8
QUILTS
 62
7
  6
CONTINUOUS
 10
138.992462447
 20
241.8932854526
 11
139.1223811453
 21
242.2028472522
  0
LINE
  8
QUILTS
 62
7
  6
CONTINUOUS
 10
141.4310672015
 20
241.0507218419
 11
141.3011484057
 21
240.7411599296
  0
LINE
  8
QUILTS
 62
7
  6
CONTINUOUS
 10
142.859464724
 20
242.065873639
 11
142.9893834223
 21
242.3754354385
  0
LINE
  8
0
 62
7
  6
CONTINUOUS
 10
108.9497615691
 20
176.5002852087
 11
129.5066262063
 21
197.0571498459
  0
LINE
  8
QUILTS
 62
7
  6
CONTINUOUS
 10
50.997929304
 20
208.1567895034
 11
50.6693997449
 21
208.0876875219
  0
LINE
  8
QUILTS
 62
7
  6
CONTINUOUS
 10
53.9115915221
 20
215.48665494
 11
54.3806980014
 21
215.5531341493
  0
LINE
  8
QUILTS
 62
7
  6
CONTINUOUS
 10
58.4483191957
 20
227.9980032826
 11
58.7781025589
 21
227.9351549917
  0
LINE
  8
QUILTS
 62
7
  6
CONTINUOUS
 10
58.9866639001
 20
228.5338573404
 11
58.6568805369
 21
228.5967056314
  0
LINE
  8
QUILTS
 62
7
  6
CONTINUOUS
 10
56.5850181422
 20
229.0251569408
 11
56.9148016359
 21
228.9623085779
  0
LINE
  8
QUILTS
 62
7
  6
CONTINUOUS
 10
57.1233627161
 20
229.5610110706
 11
56.7935794834
 21
229.6238592896
  0
LINE
  8
QUILTS
 62
7
  6
CONTINUOUS
 10
64.2706006747
 20
236.1678272966
 11
64.5830367742
 21
236.0449832573
  0
LINE
  8
QUILTS
 62
7
  6
CONTINUOUS
 10
64.8988823337
 20
236.5946958349
 11
64.5864462342
 21
236.7175398743
  0
LINE
  8
QUILTS
 62
7
  6
CONTINUOUS
 10
62.6297927475
 20
237.5223326675
 11
62.9422289619
 21
237.3994885332
  0
LINE
  8
QUILTS
 62
7
  6
CONTINUOUS
 10
63.2580742916
 20
237.9492013006
 11
62.945638307
 21
238.0720452451
  0
LINE
  8
QUILTS
 62
7
  6
CONTINUOUS
 10
68.2211350807
 20
238.3569110462
 11
68.5219919879
 21
238.2079427961
  0
LINE
  8
QUILTS
 62
7
  6
CONTINUOUS
 10
69.1113905291
 20
238.5054385261
 11
68.8105336353
 21
238.6544067633
  0
LINE
  8
QUILTS
 62
7
  6
CONTINUOUS
 10
67.1419585626
 20
240.1435856292
 11
66.841098358
 21
240.2925504344
  0
LINE
  8
QUILTS
 62
7
  6
CONTINUOUS
 10
81.3169440073
 20
248.6381507092
 11
81.7268478936
 21
248.2402616419
  0
LINE
  8
QUILTS
 62
7
  6
CONTINUOUS
 10
84.5981293012
 20
250.4815657699
 11
84.1882297243
 21
250.8794568797
  0
LINE
  8
0
 62
7
  6
CONTINUOUS
 10
129.5066262063
 20
204.7845564562
 11
108.9497615691
 21
225.3414210933
  0
LINE
  8
0
 62
7
  6
CONTINUOUS
 10
133.1598343228
 20
136.3582071327
 11
133.1458957652
 21
136.5715282576
  0
LINE
  8
0
 62
7
  6
CONTINUOUS
 10
133.1458957652
 20
265.2701780444
 11
133.1598343228
 21
265.4834991693
  0
LINE
  8
QUILTS
 62
7
  6
CONTINUOUS
 10
138.941340573
 20
241.5156029484
 11
138.992462447
 21
241.8932854526
  0
LINE
  8
0
 62
7
  6
CONTINUOUS
 10
109.3850530194
 20
130.6500141979
 11
109.4449151814
 21
130.8552377522
  0
LINE
  8
0
 62
7
  6
CONTINUOUS
 10
153.4624458273
 20
251.7924092621
 11
153.5485039087
 21
251.9880982815
  0
LINE
  8
0
 62
7
  6
CONTINUOUS
 10
85.091749502
 20
133.4175215279
 11
85.2181921234
 21
133.5898945223
  0
LINE
  8
0
 62
7
  6
CONTINUOUS
 10
167.9440895898
 20
232.1787800285
 11
168.0918873203
 21
232.3332339587
  0
LINE
  8
0
 62
7
  6
CONTINUOUS
 10
63.210054706
 20
144.3269268948
 11
63.3878269405
 21
144.4456586022
  0
LINE
  8
0
 62
7
  6
CONTINUOUS
 10
174.8441270887
 20
208.7949834956
 11
175.0358378807
 21
208.8895729131
  0
LINE
  8
QUILTS
 62
7
  6
CONTINUOUS
 10
54.3717081838
 20
216.2132959148
 11
54.0037666756
 21
216.1139077412
  0
LINE
  8
0
 62
7
  6
CONTINUOUS
 10
163.7928925649
 20
239.7793112965
 11
163.5852326724
 21
239.7285416723
  0
LINE
  8
QUILTS
 62
7
  6
CONTINUOUS
 10
52.6069557205
 20
220.0735567693
 11
52.1378493121
 21
220.0070775371
  0
LINE
  8
QUILTS
 62
7
  6
CONTINUOUS
 10
52.8281564624
 20
222.084026593
 11
57.8668351572
 21
222.7304359706
  0
LINE
  8
0
 62
7
  6
CONTINUOUS
 10
36.8418045601
 20
217.3802556686
 11
36.6293038573
 21
217.3569396436
  0
LINE
  8
0
 62
7
  6
CONTINUOUS
 10
173.5428126706
 20
217.3569396436
 11
173.3303119678
 21
217.3802556686
  0
LINE
  8
0
 62
7
  6
CONTINUOUS
 10
46.5868838555
 20
239.7285416723
 11
46.379223963
 21
239.7793112965
  0
LINE
  8
QUILTS
 62
7
  6
CONTINUOUS
 10
68.5219919879
 20
238.2079427961
 11
68.7468678714
 21
238.1334341152
  0
LINE
  8
QUILTS
 62
7
  6
CONTINUOUS
 10
66.7599556363
 20
237.0177412263
 11
66.5350831034
 21
237.0922532999
  0
LINE
  8
QUILTS
 62
7
  6
CONTINUOUS
 10
66.5525600347
 20
239.8460898861
 11
66.7774325675
 21
239.7715778124
  0
LINE
  8
0
 62
7
  6
CONTINUOUS
 10
175.0358378807
 20
192.9521333889
 11
174.8441270887
 21
193.0467228064
  0
LINE
  8
0
 62
7
  6
CONTINUOUS
 10
63.3878269405
 20
257.3960476999
 11
63.210054706
 21
257.5147794072
  0
LINE
  8
QUILTS
 62
7
  6
CONTINUOUS
 10
80.5306743185
 20
250.6179401305
 11
80.8965194459
 21
250.3168817252
  0
LINE
  8
QUILTS
 62
7
  6
CONTINUOUS
 10
83.6222276958
 20
252.3750813467
 11
83.2123237169
 21
252.7729706174
  0
LINE
  8
0
 62
7
  6
CONTINUOUS
 10
168.0918873203
 20
169.5084723434
 11
167.9440895898
 21
169.6629262735
  0
LINE
  8
0
 62
7
  6
CONTINUOUS
 10
85.2181921234
 20
268.2518117797
 11
85.091749502
 21
268.4241847741
  0
LINE
  8
0
 62
7
  6
CONTINUOUS
 10
153.5485039087
 20
149.8536080205
 11
153.4624458273
 21
150.04929704
  0
LINE
  8
0
 62
7
  6
CONTINUOUS
 10
109.4449151814
 20
270.9864685498
 11
109.3850530194
 21
271.1916921041
  0
LINE
  8
QUILTS
 62
7
  6
CONTINUOUS
 10
134.9280448322
 20
248.5179318584
 11
134.8722575761
 21
249.0429284294
  0
LINE
  8
QUILTS
 62
7
  6
CONTINUOUS
 10
138.4685304763
 20
241.9243517863
 11
138.4266384524
 21
241.3980641202
  0
LINE
  8
QUILTS
 62
7
  6
CONTINUOUS
 10
142.9893834223
 20
242.3754354385
 11
143.0312754219
 21
242.9017230764
  0
LINE
  8
QUILTS
 62
7
  6
CONTINUOUS
 10
142.5165733256
 20
242.7841842763
 11
142.4654515004
 21
242.4065018285
  0
LINE
  8
QUILTS
 62
7
  6
CONTINUOUS
 10
52.1468390589
 20
219.3469157945
 11
52.5147808505
 21
219.446303876
  0
LINE
  8
QUILTS
 62
7
  6
CONTINUOUS
 10
140.3966829269
 20
239.6949418835
 11
140.9113850475
 21
239.8124807117
  0
LINE
  8
QUILTS
 62
7
  6
CONTINUOUS
 10
141.140035035
 20
244.5367184278
 11
140.6253329388
 21
244.4191796278
  0
LINE
  8
QUILTS
 62
7
  6
CONTINUOUS
 10
57.3088217411
 20
223.3142397272
 11
52.3676807885
 21
222.6253598872
  0
LINE
  8
QUILTS
 62
7
  6
CONTINUOUS
 10
58.6568805369
 20
228.5967056314
 11
58.133357188
 21
228.5284639977
  0
LINE
  8
QUILTS
 62
7
  6
CONTINUOUS
 10
56.7935794834
 20
229.6238592896
 11
56.2700561345
 21
229.5556176559
  0
LINE
  8
QUILTS
 62
7
  6
CONTINUOUS
 10
64.5864462342
 20
236.7175398743
 11
64.0593417225
 21
236.7474472512
  0
LINE
  8
QUILTS
 62
7
  6
CONTINUOUS
 10
62.945638307
 20
238.0720452451
 11
62.4185337953
 21
238.101952622
  0
LINE
  8
QUILTS
 62
7
  6
CONTINUOUS
 10
82.2516849154
 20
248.5959137698
 11
81.7910216287
 21
248.8538343333
  0
LINE
  8
QUILTS
 62
7
  6
CONTINUOUS
 10
83.6633927025
 20
250.5238047518
 11
84.1240560201
 21
250.2658841205
  0
LINE
  8
QUILTS
 62
7
  6
CONTINUOUS
 10
81.2824882917
 20
250.7262304869
 11
80.9606932118
 21
250.9304543488
  0
LINE
  8
QUILTS
 62
7
  6
CONTINUOUS
 10
82.8263592113
 20
252.3636238304
 11
83.1481500744
 21
252.1593977226
  0
LINE
  8
QUILTS
 62
7
  6
CONTINUOUS
 10
141.4126147647
 20
241.347925985
 11
141.4310672015
 21
241.0507218419
  0
LINE
  8
QUILTS
 62
7
  6
CONTINUOUS
 10
141.9549991234
 20
241.0196554519
 11
141.927316861
 21
241.465464785
  0
LINE
  8
QUILTS
 62
7
  6
CONTINUOUS
 10
58.1614140399
 20
227.9182711057
 11
58.4483191957
 21
227.9980032826
  0
LINE
  8
QUILTS
 62
7
  6
CONTINUOUS
 10
56.2981129863
 20
228.9454247639
 11
56.5850181422
 21
229.0251569408
  0
LINE
  8
QUILTS
 62
7
  6
CONTINUOUS
 10
133.9060162557
 20
248.0053039894
 11
133.6188989729
 21
247.9263453863
  0
LINE
  8
QUILTS
 62
7
  6
CONTINUOUS
 10
63.9738917628
 20
236.1426159881
 11
64.2706006747
 21
236.1678272966
  0
LINE
  8
QUILTS
 62
7
  6
CONTINUOUS
 10
62.3330838355
 20
237.4971213589
 11
62.6297927475
 21
237.5223326675
  0
LINE
  8
QUILTS
 62
7
  6
CONTINUOUS
 10
139.6186309022
 20
242.617590308
 11
139.9153803869
 21
242.6422993839
  0
LINE
  8
QUILTS
 62
7
  6
CONTINUOUS
 10
66.4714156443
 20
236.571278975
 11
66.9180836169
 21
236.5711145328
  0
LINE
  8
QUILTS
 62
7
  6
CONTINUOUS
 10
66.841098358
 20
240.2925504344
 11
66.543321961
 21
240.2926623071
  0
LINE
  8
QUILTS
 62
7
  6
CONTINUOUS
 10
81.7268478936
 20
248.2402616419
 11
82.1434567772
 21
248.0791736811
  0
LINE
  8
QUILTS
 62
7
  6
CONTINUOUS
 10
80.8965194459
 20
250.3168817252
 11
81.313128314
 21
250.1557937983
  0
LINE
  8
QUILTS
 62
7
  6
CONTINUOUS
 10
83.2123237169
 20
252.7729706174
 11
82.7957148488
 21
252.9340585443
  0
LINE
  8
QUILTS
 62
7
  6
CONTINUOUS
 10
134.3151285868
 20
249.1212909259
 11
134.3880214192
 21
248.8325740575
  0
LINE
  8
QUILTS
 62
7
  6
CONTINUOUS
 10
62.4185337953
 20
238.101952622
 11
61.9071563563
 21
237.9838047459
  0
LINE
  8
QUILTS
 62
7
  6
CONTINUOUS
 10
66.543321961
 20
240.2926623071
 11
66.1726383627
 21
240.2183705729
  0
LINE
  8
QUILTS
 62
7
  6
CONTINUOUS
 10
133.387560706
 20
247.3223950134
 11
133.9082473992
 21
247.3883885506
  0
LINE
  8
QUILTS
 62
7
  6
CONTINUOUS
 10
82.7190531839
 20
248.5747943467
 11
82.2516849154
 21
248.5959137698
  0
LINE
  8
QUILTS
 62
7
  6
CONTINUOUS
 10
81.313128314
 20
250.1557937983
 11
81.5468146184
 21
250.1452350741
  0
LINE
  8
QUILTS
 62
7
  6
CONTINUOUS
 10
83.1960200938
 20
250.5449222003
 11
83.6633927025
 21
250.5238047518
  0
LINE
  8
QUILTS
 62
7
  6
CONTINUOUS
 10
83.6768027277
 20
250.9974068969
 11
83.4431207636
 21
251.0079675958
  0
LINE
  8
QUILTS
 62
7
  6
CONTINUOUS
 10
140.4385749508
 20
240.2212295495
 11
140.0630213785
 21
240.264647359
  0
LINE
  8
QUILTS
 62
7
  6
CONTINUOUS
 10
139.9153803869
 20
242.6422993839
 11
140.2909339592
 21
242.5988815744
  0
LINE
  8
QUILTS
 62
7
  6
CONTINUOUS
 10
140.5600011815
 20
243.0693999834
 11
139.8088940369
 21
243.1562356023
  0
LINE
  8
QUILTS
 62
7
  6
CONTINUOUS
 10
141.0981430355
 20
244.0104307899
 11
141.4736966078
 21
243.9670129805
  0
LINE
  8
QUILTS
 62
7
  6
CONTINUOUS
 10
82.1434567772
 20
248.0791736811
 11
82.7496975735
 21
248.0043595734
  0
LINE
  8
QUILTS
 62
7
  6
CONTINUOUS
 10
82.7957148488
 20
252.9340585443
 11
82.1894784043
 21
253.0088746013
  0
LINE
  8
QUILTS
 62
7
  6
CONTINUOUS
 10
139.7939468991
 20
239.7941351377
 11
140.3966829269
 21
239.6949418835
  0
LINE
  8
QUILTS
 62
7
  6
CONTINUOUS
 10
141.7427638301
 20
244.4375313895
 11
141.140035035
 21
244.5367184278
  0
LINE
  8
QUILTS
 62
7
  6
CONTINUOUS
 10
81.793910948
 20
250.608278495
 11
81.2824882917
 21
250.7262304869
  0
LINE
  8
QUILTS
 62
7
  6
CONTINUOUS
 10
84.1882297243
 20
250.8794568797
 11
83.6768027277
 21
250.9974068969
  0
LINE
  8
QUILTS
 62
7
  6
CONTINUOUS
 10
82.3149322148
 20
252.4815738476
 11
82.8263592113
 21
252.3636238304
  0
LINE
  8
QUILTS
 62
7
  6
CONTINUOUS
 10
134.8722575761
 20
249.0429284294
 11
134.6729075586
 21
249.5284480993
  0
LINE
  8
QUILTS
 62
7
  6
CONTINUOUS
 10
138.4266384524
 20
241.3980641202
 11
138.6119216573
 21
240.8160072323
  0
LINE
  8
QUILTS
 62
7
  6
CONTINUOUS
 10
141.927316861
 20
241.465464785
 11
141.7420264233
 21
242.0475278888
  0
LINE
  8
QUILTS
 62
7
  6
CONTINUOUS
 10
143.0312754219
 20
242.9017230764
 11
142.8459921987
 21
243.4837799431
  0
LINE
  8
QUILTS
 62
7
  6
CONTINUOUS
 10
139.0385970974
 20
241.15027192
 11
138.941340573
 21
241.5156029484
  0
LINE
  8
QUILTS
 62
7
  6
CONTINUOUS
 10
141.3153582403
 20
241.7132570134
 11
141.4126147647
 21
241.347925985
  0
LINE
  8
QUILTS
 62
7
  6
CONTINUOUS
 10
142.4193168012
 20
243.1495153048
 11
142.5165733256
 21
242.7841842763
  0
LINE
  8
QUILTS
 62
7
  6
CONTINUOUS
 10
82.7496975735
 20
248.0043595734
 11
83.2678252462
 21
248.1232086455
  0
LINE
  8
QUILTS
 62
7
  6
CONTINUOUS
 10
82.1894784043
 20
253.0088746013
 11
81.6713463952
 21
252.890023546
  0
LINE
  8
QUILTS
 62
7
  6
CONTINUOUS
 10
83.1423714049
 20
248.650509467
 11
82.7190531839
 21
248.5747943467
  0
LINE
  8
QUILTS
 62
7
  6
CONTINUOUS
 10
82.772706213
 20
250.4692090546
 11
83.1960200938
 21
250.5449222003
  0
LINE
  8
QUILTS
 62
7
  6
CONTINUOUS
 10
82.217229169
 20
250.6839936153
 11
81.793910948
 21
250.608278495
  0
LINE
  8
QUILTS
 62
7
  6
CONTINUOUS
 10
81.8916183341
 20
252.405860702
 11
82.3149322148
 21
252.4815738476
  0
LINE
  8
QUILTS
 62
7
  6
CONTINUOUS
 10
133.6188989729
 20
247.9263453863
 11
133.2953311538
 21
247.991747618
  0
LINE
  8
QUILTS
 62
7
  6
CONTINUOUS
 10
132.8839878293
 20
247.4926763778
 11
133.387560706
 21
247.3223950134
  0
LINE
  8
QUILTS
 62
7
  6
CONTINUOUS
 10
140.0630213785
 20
240.264647359
 11
139.7570420681
 21
240.3885434732
  0
LINE
  8
QUILTS
 62
7
  6
CONTINUOUS
 10
140.2909339592
 20
242.5988815744
 11
140.5969132696
 21
242.4749854602
  0
LINE
  8
QUILTS
 62
7
  6
CONTINUOUS
 10
141.4736966078
 20
243.9670129805
 11
141.7796759181
 21
243.8431168663
  0
LINE
  8
QUILTS
 62
7
  6
CONTINUOUS
 10
139.3303666219
 20
240.0542787784
 11
139.7939468991
 21
239.7941351377
  0
LINE
  8
QUILTS
 62
7
  6
CONTINUOUS
 10
141.0235886671
 20
242.8092500986
 11
140.5600011815
 21
243.0693999834
  0
LINE
  8
QUILTS
 62
7
  6
CONTINUOUS
 10
142.2063513157
 20
244.1773815047
 11
141.7427638301
 21
244.4375313895
  0
LINE
  8
QUILTS
 62
7
  6
CONTINUOUS
 10
129.5992156626
 20
246.8209486917
 11
130.1392390756
 21
246.5063064927
  0
LINE
  8
QUILTS
 62
7
  6
CONTINUOUS
 10
131.2639175904
 20
248.436602975
 11
132.8839878293
 21
247.4926763778
  0
LINE
  8
QUILTS
 62
7
  6
CONTINUOUS
 10
133.2953311538
 20
247.991747618
 11
131.585254266
 21
248.9881161821
  0
LINE
  8
QUILTS
 62
7
  6
CONTINUOUS
 10
133.6352108123
 20
244.4327615575
 11
134.1436268437
 21
244.0692534572
  0
LINE
  8
QUILTS
 62
7
  6
CONTINUOUS
 10
136.5162375763
 20
242.3728804735
 11
137.0246536077
 21
242.0093723732
  0
LINE
  8
QUILTS
 62
7
  6
CONTINUOUS
 10
135.2250580792
 20
244.8653796597
 11
136.919775598
 21
243.6536878409
  0
LINE
  8
QUILTS
 62
7
  6
CONTINUOUS
 10
137.0825318541
 20
244.0604299278
 11
135.5572837599
 21
245.1509542287
  0
LINE
  8
QUILTS
 62
7
  6
CONTINUOUS
 10
138.9363606128
 20
240.394900731
 11
139.3303666219
 21
240.0542787784
  0
LINE
  8
QUILTS
 62
7
  6
CONTINUOUS
 10
139.7570420681
 20
240.3885434732
 11
139.2054278838
 21
240.8654191964
  0
LINE
  8
QUILTS
 62
7
  6
CONTINUOUS
 10
140.5969132696
 20
242.4749854602
 11
141.1485274539
 21
241.9981097371
  0
LINE
  8
QUILTS
 62
7
  6
CONTINUOUS
 10
141.4175946762
 20
242.4686281461
 11
141.0235886671
 21
242.8092500986
  0
LINE
  8
QUILTS
 62
7
  6
CONTINUOUS
 10
142.4654515004
 20
242.4065018285
 11
142.859464724
 21
242.065873639
  0
LINE
  8
QUILTS
 62
7
  6
CONTINUOUS
 10
134.6729075586
 20
249.5284480993
 11
134.2764469071
 21
249.8825671993
  0
LINE
  8
QUILTS
 62
7
  6
CONTINUOUS
 10
134.0986729929
 20
249.3705308932
 11
134.3151285868
 21
249.1212909259
  0
LINE
  8
QUILTS
 62
7
  6
CONTINUOUS
 10
138.6119216573
 20
240.8160072323
 11
138.9363606128
 21
240.394900731
  0
LINE
  8
QUILTS
 62
7
  6
CONTINUOUS
 10
141.7420264233
 20
242.0475278888
 11
141.4175946762
 21
242.4686281461
  0
LINE
  8
QUILTS
 62
7
  6
CONTINUOUS
 10
142.8459921987
 20
243.4837799431
 11
142.5215532371
 21
243.9048864374
  0
LINE
  8
QUILTS
 62
7
  6
CONTINUOUS
 10
139.2054278838
 20
240.8654191964
 11
139.0385970974
 21
241.15027192
  0
LINE
  8
QUILTS
 62
7
  6
CONTINUOUS
 10
141.1485274539
 20
241.9981097371
 11
141.3153582403
 21
241.7132570134
  0
LINE
  8
QUILTS
 62
7
  6
CONTINUOUS
 10
142.2524860148
 20
243.4343680284
 11
142.4193168012
 21
243.1495153048
  0
LINE
  8
QUILTS
 62
7
  6
CONTINUOUS
 10
132.3885961051
 20
250.3668994573
 11
134.0986729929
 21
249.3705308932
  0
LINE
  8
QUILTS
 62
7
  6
CONTINUOUS
 10
134.2764469071
 20
249.8825671993
 11
132.1163532551
 21
251.1411359956
  0
LINE
  8
QUILTS
 62
7
  6
CONTINUOUS
 10
138.5769397405
 20
247.0460574076
 11
137.8990542845
 21
247.5307330258
  0
LINE
  8
QUILTS
 62
7
  6
CONTINUOUS
 10
141.7796759181
 20
243.8431168663
 11
142.2524860148
 21
243.4343680284
  0
LINE
  8
QUILTS
 62
7
  6
CONTINUOUS
 10
142.5215532371
 20
243.9048864374
 11
142.2063513157
 21
244.1773815047
  0
LINE
  8
0
 62
7
  6
CONTINUOUS
 10
176.3752667614
 20
185.0936810469
 11
177.4892131021
 21
191.4111846773
  0
LINE
  8
0
 62
7
  6
CONTINUOUS
 10
169.8702704127
 20
167.2213504652
 11
166.6627897591
 21
161.665831009
  0
LINE
  8
0
 62
7
  6
CONTINUOUS
 10
154.4373956249
 20
147.0961736286
 11
149.5232501628
 21
142.9727159839
  0
LINE
  8
0
 62
7
  6
CONTINUOUS
 10
133.0520212033
 20
133.4630475102
 11
127.0239294004
 21
131.2690015245
  0
LINE
  8
0
 62
7
  6
CONTINUOUS
 10
108.2935389175
 20
273.8753779789
 11
101.8785776104
 21
273.8753779789
  0
LINE
  8
0
 62
7
  6
CONTINUOUS
 10
133.0520212033
 20
268.3786587918
 11
127.0239294004
 21
270.5727047775
  0
LINE
  8
0
 62
7
  6
CONTINUOUS
 10
154.4373956249
 20
254.7455326734
 11
149.5232501628
 21
258.8689903182
  0
LINE
  8
0
 62
7
  6
CONTINUOUS
 10
166.6627897591
 20
240.175875293
 11
169.8702704127
 21
234.6203558368
  0
LINE
  8
0
 62
7
  6
CONTINUOUS
 10
176.3752667614
 20
216.7480252552
 11
177.4892131021
 21
210.4305216247
  0
LINE
  8
0
 62
7
  6
CONTINUOUS
 10
32.6760904785
 20
74.4443093126
 11
32.6812851268
 21
74.3724200183
  0
LINE
  8
2_FEATURE
 62
7
  6
CONTINUOUS
 10
32.6760910173
 20
81.026524041
 11
32.6760910173
 21
74.4441953407
  0
LINE
  8
0
 62
7
  6
CONTINUOUS
 10
32.6809623858
 20
81.096041621
 11
32.6760904785
 21
81.026410069
  0
POLYLINE
  8
0
 62
7
  6
CONTINUOUS
 66
1
 70
0
  0
VERTEX
  8
0
 62
7
  6
CONTINUOUS
 10
32.6812851268
 20
74.3724200183
  0
VERTEX
  8
0
 62
7
  6
CONTINUOUS
 10
32.7012612629
 20
74.2876592047
  0
VERTEX
  8
0
 62
7
  6
CONTINUOUS
 10
32.7344341722
 20
74.2099064342
  0
VERTEX
  8
0
 62
7
  6
CONTINUOUS
 10
32.7785252121
 20
74.141074474
  0
VERTEX
  8
0
 62
7
  6
CONTINUOUS
 10
32.8310329591
 20
74.0824373017
  0
VERTEX
  8
0
 62
7
  6
CONTINUOUS
 10
32.8893809113
 20
74.0346468608
  0
VERTEX
  8
0
 62
7
  6
CONTINUOUS
 10
32.9510737922
 20
73.9977573161
  0
VERTEX
  8
0
 62
7
  6
CONTINUOUS
 10
33.0129593673
 20
73.9715952439
  0
VERTEX
  8
0
 62
7
  6
CONTINUOUS
 10
33.0697771044
 20
73.9555969735
  0
SEQEND
  0
LINE
  8
0
 62
7
  6
CONTINUOUS
 10
40.2115683744
 20
74.4415776444
 11
40.213400721
 21
74.3987910177
  0
LINE
  8
2_FEATURE
 62
7
  6
CONTINUOUS
 10
40.2115670289
 20
81.0292485707
 11
40.2115670289
 21
74.441470811
  0
LINE
  8
0
 62
7
  6
CONTINUOUS
 10
40.2134059017
 20
81.0719886994
 11
40.2115683744
 21
81.0291417373
  0
POLYLINE
  8
0
 62
7
  6
CONTINUOUS
 66
1
 70
0
  0
VERTEX
  8
0
 62
7
  6
CONTINUOUS
 10
40.213400721
 20
74.3987910177
  0
VERTEX
  8
0
 62
7
  6
CONTINUOUS
 10
40.2451966251
 20
74.2612119622
  0
VERTEX
  8
0
 62
7
  6
CONTINUOUS
 10
40.3097692218
 20
74.1438030262
  0
VERTEX
  8
0
 62
7
  6
CONTINUOUS
 10
40.3962442726
 20
74.0532166656
  0
VERTEX
  8
0
 62
7
  6
CONTINUOUS
 10
40.4929172111
 20
73.9913346599
  0
VERTEX
  8
0
 62
7
  6
CONTINUOUS
 10
40.5846976075
 20
73.9566929094
  0
VERTEX
  8
0
 62
7
  6
CONTINUOUS
 10
40.6527031632
 20
73.9419049685
  0
SEQEND
  0
LINE
  8
1_AXIS
 62
7
  6
CONTINUOUS
 10
45.086058264
 20
88.2353596908
 11
45.086058264
 21
82.7353596908
  0
LINE
  8
1_AXIS
 62
7
  6
CONTINUOUS
 10
45.086058264
 20
72.7353596908
 11
45.086058264
 21
67.2353596908
  0
LINE
  8
2_FEATURE
 62
7
  6
CONTINUOUS
 10
55.4753723222
 20
81.0347175752
 11
55.4753723222
 21
74.4360018065
  0
POLYLINE
  8
0
 62
7
  6
CONTINUOUS
 66
1
 70
0
  0
VERTEX
  8
0
 62
7
  6
CONTINUOUS
 10
55.4753753681
 20
74.4360502852
  0
VERTEX
  8
0
 62
7
  6
CONTINUOUS
 10
55.4760979728
 20
74.4629558816
  0
VERTEX
  8
0
 62
7
  6
CONTINUOUS
 10
55.4876262653
 20
74.3259047919
  0
VERTEX
  8
0
 62
7
  6
CONTINUOUS
 10
55.5349573668
 20
74.1989949549
  0
VERTEX
  8
0
 62
7
  6
CONTINUOUS
 10
55.6108710905
 20
74.0931823991
  0
VERTEX
  8
0
 62
7
  6
CONTINUOUS
 10
55.6562230348
 20
74.0503562946
  0
VERTEX
  8
0
 62
7
  6
CONTINUOUS
 10
55.7523996362
 20
73.9871315167
  0
VERTEX
  8
0
 62
7
  6
CONTINUOUS
 10
55.8438709609
 20
73.9509601236
  0
VERTEX
  8
0
 62
7
  6
CONTINUOUS
 10
55.9250021754
 20
73.9322721824
  0
VERTEX
  8
0
 62
7
  6
CONTINUOUS
 10
55.9402357045
 20
73.9296878938
  0
SEQEND
  0
POLYLINE
  8
0
 62
7
  6
CONTINUOUS
 66
1
 70
0
  0
VERTEX
  8
0
 62
7
  6
CONTINUOUS
 10
76.6264671981
 20
74.4283853123
  0
VERTEX
  8
0
 62
7
  6
CONTINUOUS
 10
76.634786175
 20
74.3373746387
  0
VERTEX
  8
0
 62
7
  6
CONTINUOUS
 10
76.6912390294
 20
74.1816986917
  0
VERTEX
  8
0
 62
7
  6
CONTINUOUS
 10
76.7867520915
 20
74.0604237681
  0
VERTEX
  8
0
 62
7
  6
CONTINUOUS
 10
76.9006428913
 20
73.9802579462
  0
VERTEX
  8
0
 62
7
  6
CONTINUOUS
 10
76.939781623
 20
73.9619811144
  0
SEQEND
  0
LINE
  8
2_FEATURE
 62
7
  6
CONTINUOUS
 10
76.6264667091
 20
81.0423454161
 11
76.6264667091
 21
74.4283739656
  0
LINE
  8
0
 62
7
  6
CONTINUOUS
 10
77.2244134897
 20
81.6370052744
 11
77.2040402356
 21
81.6195352505
  0
POLYLINE
  8
0
 62
7
  6
CONTINUOUS
 66
1
 70
0
  0
VERTEX
  8
0
 62
7
  6
CONTINUOUS
 10
177.0937790677
 20
73.9537897701
  0
VERTEX
  8
0
 62
7
  6
CONTINUOUS
 10
177.1471759787
 20
73.9676195204
  0
VERTEX
  8
0
 62
7
  6
CONTINUOUS
 10
177.2049626059
 20
73.9900052576
  0
VERTEX
  8
0
 62
7
  6
CONTINUOUS
 10
177.2345702636
 20
74.0048397687
  0
VERTEX
  8
0
 62
7
  6
CONTINUOUS
 10
177.2931812681
 20
74.0421624642
  0
VERTEX
  8
0
 62
7
  6
CONTINUOUS
 10
177.3485902294
 20
74.0897490784
  0
VERTEX
  8
0
 62
7
  6
CONTINUOUS
 10
177.3984800387
 20
74.1475955334
  0
VERTEX
  8
0
 62
7
  6
CONTINUOUS
 10
177.4404447127
 20
74.2151893007
  0
VERTEX
  8
0
 62
7
  6
CONTINUOUS
 10
177.4720867208
 20
74.2914457583
  0
VERTEX
  8
0
 62
7
  6
CONTINUOUS
 10
177.4911532957
 20
74.374678603
  0
SEQEND
  0
LINE
  8
0
 62
7
  6
CONTINUOUS
 10
77.203244715
 20
73.8515830973
 11
77.2213616503
 21
73.8359382346
  0
LINE
  8
0
 62
7
  6
CONTINUOUS
 10
77.3753831644
 20
81.7126140141
 11
77.2244134897
 21
81.6370052744
  0
POLYLINE
  8
0
 62
7
  6
CONTINUOUS
 66
1
 70
0
  0
VERTEX
  8
0
 62
7
  6
CONTINUOUS
 10
76.9397073209
 20
81.5087071571
  0
VERTEX
  8
0
 62
7
  6
CONTINUOUS
 10
76.9046652164
 20
81.4925221547
  0
VERTEX
  8
0
 62
7
  6
CONTINUOUS
 10
76.7894450508
 20
81.4127875811
  0
VERTEX
  8
0
 62
7
  6
CONTINUOUS
 10
76.6925491944
 20
81.2913303512
  0
VERTEX
  8
0
 62
7
  6
CONTINUOUS
 10
76.6350530337
 20
81.1347806199
  0
VERTEX
  8
0
 62
7
  6
CONTINUOUS
 10
76.6264671982
 20
81.0423340355
  0
SEQEND
  0
LINE
  8
0
 62
7
  6
CONTINUOUS
 10
77.2118541033
 20
81.6230313195
 11
77.1981136943
 21
81.6168836063
  0
LINE
  8
0
 62
7
  6
CONTINUOUS
 10
77.1978426529
 20
81.6167702439
 11
76.9397175093
 21
81.5087128599
  0
POLYLINE
  8
0
 62
7
  6
CONTINUOUS
 66
1
 70
0
  0
VERTEX
  8
0
 62
7
  6
CONTINUOUS
 10
169.5184126455
 20
73.9417354214
  0
VERTEX
  8
0
 62
7
  6
CONTINUOUS
 10
169.5869133507
 20
73.9565537167
  0
VERTEX
  8
0
 62
7
  6
CONTINUOUS
 10
169.6791353023
 20
73.9913035008
  0
VERTEX
  8
0
 62
7
  6
CONTINUOUS
 10
169.7759667032
 20
74.0532946691
  0
VERTEX
  8
0
 62
7
  6
CONTINUOUS
 10
169.8624632823
 20
74.1439611805
  0
VERTEX
  8
0
 62
7
  6
CONTINUOUS
 10
169.9269907818
 20
74.2613956917
  0
VERTEX
  8
0
 62
7
  6
CONTINUOUS
 10
169.9587279681
 20
74.3989210276
  0
VERTEX
  8
0
 62
7
  6
CONTINUOUS
 10
169.9605494743
 20
74.4415822092
  0
SEQEND
  0
POLYLINE
  8
0
 62
7
  6
CONTINUOUS
 66
1
 70
0
  0
VERTEX
  8
0
 62
7
  6
CONTINUOUS
 10
33.0697771044
 20
73.9555969735
  0
VERTEX
  8
0
 62
7
  6
CONTINUOUS
 10
33.1124343415
 20
73.9479890256
  0
VERTEX
  8
0
 62
7
  6
CONTINUOUS
 10
33.1433387286
 20
73.9441318971
  0
VERTEX
  8
0
 62
7
  6
CONTINUOUS
 10
33.1822999971
 20
73.9399715427
  0
VERTEX
  8
0
 62
7
  6
CONTINUOUS
 10
33.2343042781
 20
73.9348335477
  0
SEQEND
  0
LINE
  8
0
 62
7
  6
CONTINUOUS
 10
76.9397175077
 20
73.9620065224
 11
77.1978426529
 21
73.8539491378
  0
LINE
  8
0
 62
7
  6
CONTINUOUS
 10
77.1981227288
 20
73.8538320005
 11
77.2083773519
 21
73.8493295178
  0
LINE
  8
0
 62
7
  6
CONTINUOUS
 10
77.2213616503
 20
73.8359382346
 11
77.3724854885
 21
73.7590111761
  0
LINE
  8
0
 62
7
  6
CONTINUOUS
 10
153.1916249228
 20
73.7544274914
 11
153.191706409
 21
73.7544436603
  0
POLYLINE
  8
0
 62
7
  6
CONTINUOUS
 66
1
 70
0
  0
VERTEX
  8
0
 62
7
  6
CONTINUOUS
 10
153.191706409
 20
73.7544436603
  0
VERTEX
  8
0
 62
7
  6
CONTINUOUS
 10
153.2909168303
 20
73.7735083842
  0
VERTEX
  8
0
 62
7
  6
CONTINUOUS
 10
153.4407665219
 20
73.800319923
  0
SEQEND
  0
LINE
  8
0
 62
7
  6
CONTINUOUS
 10
153.1396369651
 20
73.7454902315
 11
153.191624899
 21
73.7544276109
  0
POLYLINE
  8
0
 62
7
  6
CONTINUOUS
 66
1
 70
0
  0
VERTEX
  8
0
 62
7
  6
CONTINUOUS
 10
154.2318862648
 20
73.9296888458
  0
VERTEX
  8
0
 62
7
  6
CONTINUOUS
 10
154.2447018886
 20
73.9318485243
  0
VERTEX
  8
0
 62
7
  6
CONTINUOUS
 10
154.3258345955
 20
73.9502514793
  0
VERTEX
  8
0
 62
7
  6
CONTINUOUS
 10
154.4175796526
 20
73.9860550287
  0
VERTEX
  8
0
 62
7
  6
CONTINUOUS
 10
154.5142881509
 20
74.0490245087
  0
VERTEX
  8
0
 62
7
  6
CONTINUOUS
 10
154.5599607508
 20
74.0918146247
  0
VERTEX
  8
0
 62
7
  6
CONTINUOUS
 10
154.6364884771
 20
74.1977462565
  0
VERTEX
  8
0
 62
7
  6
CONTINUOUS
 10
154.6842919911
 20
74.3250201342
  0
VERTEX
  8
0
 62
7
  6
CONTINUOUS
 10
154.6960373545
 20
74.4626321355
  0
VERTEX
  8
0
 62
7
  6
CONTINUOUS
 10
154.6967427611
 20
74.4360478649
  0
SEQEND
  0
LINE
  8
0
 62
7
  6
CONTINUOUS
 10
153.4407665219
 20
73.800319923
 11
153.5684336582
 21
73.8216801451
  0
LINE
  8
0
 62
7
  6
CONTINUOUS
 10
153.5684435397
 20
73.8216817538
 11
154.2319733718
 21
73.9297026043
  0
LINE
  8
0
 62
7
  6
CONTINUOUS
 10
169.4545977915
 20
73.932523274
 11
169.5184126455
 21
73.9417354214
  0
POLYLINE
  8
0
 62
7
  6
CONTINUOUS
 66
1
 70
0
  0
VERTEX
  8
0
 62
7
  6
CONTINUOUS
 10
177.0301849688
 20
73.944291902
  0
VERTEX
  8
0
 62
7
  6
CONTINUOUS
 10
177.0616014947
 20
73.9482626231
  0
VERTEX
  8
0
 62
7
  6
CONTINUOUS
 10
177.1061280741
 20
73.9564451042
  0
VERTEX
  8
0
 62
7
  6
CONTINUOUS
 10
177.1616371807
 20
73.9724601665
  0
VERTEX
  8
0
 62
7
  6
CONTINUOUS
 10
177.2207327841
 20
73.9976011544
  0
VERTEX
  8
0
 62
7
  6
CONTINUOUS
 10
177.2807970573
 20
74.0332964695
  0
VERTEX
  8
0
 62
7
  6
CONTINUOUS
 10
177.3385048522
 20
74.0799953304
  0
VERTEX
  8
0
 62
7
  6
CONTINUOUS
 10
177.3910619772
 20
74.13778622
  0
VERTEX
  8
0
 62
7
  6
CONTINUOUS
 10
177.4356991882
 20
74.2062069794
  0
VERTEX
  8
0
 62
7
  6
CONTINUOUS
 10
177.4696658258
 20
74.2840985037
  0
VERTEX
  8
0
 62
7
  6
CONTINUOUS
 10
177.4904104308
 20
74.3695796438
  0
VERTEX
  8
0
 62
7
  6
CONTINUOUS
 10
177.4960260494
 20
74.4443093124
  0
SEQEND
  0
POLYLINE
  8
0
 62
7
  6
CONTINUOUS
 66
1
 70
0
  0
VERTEX
  8
0
 62
7
  6
CONTINUOUS
 10
177.024435033
 20
73.9436440231
  0
VERTEX
  8
0
 62
7
  6
CONTINUOUS
 10
177.0549482739
 20
73.9473360203
  0
VERTEX
  8
0
 62
7
  6
CONTINUOUS
 10
177.0937790677
 20
73.9537897701
  0
SEQEND
  0
LINE
  8
0
 62
7
  6
CONTINUOUS
 10
169.4002076261
 20
73.9261581285
 11
169.4545977915
 21
73.932523274
  0
LINE
  8
0
 62
7
  6
CONTINUOUS
 10
167.7952310033
 20
73.7483166845
 11
168.2157592322
 21
73.796555071
  0
LINE
  8
0
 62
7
  6
CONTINUOUS
 10
168.2157592322
 20
73.796555071
 11
169.4002217746
 21
73.9261595133
  0
LINE
  8
0
 62
7
  6
CONTINUOUS
 10
176.985092731
 20
73.9394907837
 11
177.0301849688
 21
73.944291902
  0
LINE
  8
0
 62
7
  6
CONTINUOUS
 10
167.7416879776
 20
73.7427636529
 11
167.7952270869
 21
73.7483163411
  0
LINE
  8
0
 62
7
  6
CONTINUOUS
 10
176.9332136689
 20
73.9343920955
 11
176.9912789416
 21
73.9401211332
  0
LINE
  8
0
 62
7
  6
CONTINUOUS
 10
174.8680786369
 20
73.7469669739
 11
175.6394577431
 21
73.8172175443
  0
LINE
  8
0
 62
7
  6
CONTINUOUS
 10
175.6394576041
 20
73.8172175182
 11
176.9394101519
 21
73.934987334
  0
LINE
  8
1_AXIS
 62
7
  6
CONTINUOUS
 10
163.086058264
 20
65.2353596908
 11
47.086058264
 21
65.2353596908
  0
POLYLINE
  8
0
 62
7
  6
CONTINUOUS
 66
1
 70
0
  0
VERTEX
  8
0
 62
7
  6
CONTINUOUS
 10
35.3040377427
 20
73.7469671035
  0
VERTEX
  8
0
 62
7
  6
CONTINUOUS
 10
35.3576801569
 20
73.7425652288
  0
VERTEX
  8
0
 62
7
  6
CONTINUOUS
 10
35.4944602148
 20
73.7360684848
  0
VERTEX
  8
0
 62
7
  6
CONTINUOUS
 10
35.556482261
 20
73.7353598318
  0
SEQEND
  0
LINE
  8
0
 62
7
  6
CONTINUOUS
 10
33.2343042781
 20
73.9348335477
 11
35.3040378572
 21
73.7469669846
  0
LINE
  8
0
 62
7
  6
CONTINUOUS
 10
42.3768888367
 20
73.7483164124
 11
42.4245459323
 21
73.7432989293
  0
POLYLINE
  8
0
 62
7
  6
CONTINUOUS
 66
1
 70
0
  0
VERTEX
  8
0
 62
7
  6
CONTINUOUS
 10
40.7718947541
 20
73.9261595133
  0
VERTEX
  8
0
 62
7
  6
CONTINUOUS
 10
42.1967345259
 20
73.7693065526
  0
VERTEX
  8
0
 62
7
  6
CONTINUOUS
 10
42.3768855279
 20
73.7483166883
  0
SEQEND
  0
LINE
  8
0
 62
7
  6
CONTINUOUS
 10
40.7157034148
 20
73.9327532796
 11
40.7719084596
 21
73.9261581502
  0
LINE
  8
0
 62
7
  6
CONTINUOUS
 10
40.6527031632
 20
73.9419049685
 11
40.7157034148
 21
73.9327532796
  0
LINE
  8
0
 62
7
  6
CONTINUOUS
 10
55.9401431572
 20
73.9297026041
 11
56.7280046921
 21
73.8008955076
  0
LINE
  8
0
 62
7
  6
CONTINUOUS
 10
56.9804875939
 20
73.7544284112
 11
57.0274581601
 21
73.7462328237
  0
POLYLINE
  8
0
 62
7
  6
CONTINUOUS
 66
1
 70
0
  0
VERTEX
  8
0
 62
7
  6
CONTINUOUS
 10
56.7280046921
 20
73.8008955076
  0
VERTEX
  8
0
 62
7
  6
CONTINUOUS
 10
56.8781850496
 20
73.7740695956
  0
VERTEX
  8
0
 62
7
  6
CONTINUOUS
 10
56.9804110553
 20
73.7544434713
  0
SEQEND
  0
LINE
  8
0
 62
7
  6
CONTINUOUS
 10
56.9804875939
 20
73.7544284112
 11
56.9804110798
 21
73.7544435938
  0
LINE
  8
0
 62
7
  6
CONTINUOUS
 10
132.6464597276
 20
73.735359799
 11
132.7967331839
 21
73.7581053076
  0
LINE
  8
0
 62
7
  6
CONTINUOUS
 10
153.0364962625
 20
73.736023313
 11
153.1396369651
 21
73.7454902315
  0
LINE
  8
0
 62
7
  6
CONTINUOUS
 10
153.0012498404
 20
73.7353598045
 11
153.0364962625
 21
73.736023313
  0
POLYLINE
  8
0
 62
7
  6
CONTINUOUS
 66
1
 70
0
  0
VERTEX
  8
0
 62
7
  6
CONTINUOUS
 10
167.5769086032
 20
73.735359797
  0
VERTEX
  8
0
 62
7
  6
CONTINUOUS
 10
167.6236471835
 20
73.7359597881
  0
VERTEX
  8
0
 62
7
  6
CONTINUOUS
 10
167.7416879776
 20
73.7427636529
  0
SEQEND
  0
POLYLINE
  8
0
 62
7
  6
CONTINUOUS
 66
1
 70
0
  0
VERTEX
  8
0
 62
7
  6
CONTINUOUS
 10
174.615647776
 20
73.7353598339
  0
VERTEX
  8
0
 62
7
  6
CONTINUOUS
 10
174.6708811159
 20
73.7359231077
  0
VERTEX
  8
0
 62
7
  6
CONTINUOUS
 10
174.8076273483
 20
73.7420812561
  0
VERTEX
  8
0
 62
7
  6
CONTINUOUS
 10
174.8680786699
 20
73.7469670929
  0
SEQEND
  0
LINE
  8
0
 62
7
  6
CONTINUOUS
 10
57.1304623878
 20
73.736231672
 11
57.1708768244
 21
73.7353598064
  0
POLYLINE
  8
0
 62
7
  6
CONTINUOUS
 66
1
 70
0
  0
VERTEX
  8
0
 62
7
  6
CONTINUOUS
 10
42.4245459323
 20
73.7432989293
  0
VERTEX
  8
0
 62
7
  6
CONTINUOUS
 10
42.5426173904
 20
73.7361192085
  0
VERTEX
  8
0
 62
7
  6
CONTINUOUS
 10
42.5952133131
 20
73.7353597972
  0
SEQEND
  0
LINE
  8
0
 62
7
  6
CONTINUOUS
 10
57.0274581601
 20
73.7462328237
 11
57.1304623878
 21
73.736231672
  0
LINE
  8
0
 62
7
  6
CONTINUOUS
 10
77.3724854885
 20
73.7590111761
 11
77.525657444
 21
73.7353597993
  0
LINE
  8
1_AXIS
 62
2
  6
CENTER
 10
105.086058264
 20
63.2353596908
 11
105.086058264
 21
92.2353596908
  0
LINE
  8
0
 62
7
  6
CONTINUOUS
 10
174.6151948281
 20
73.7353596908
 11
174.6156431938
 21
73.7353597275
  0
LINE
  8
0
 62
7
  6
CONTINUOUS
 10
132.6464718255
 20
73.7353596908
 11
77.5256447025
 21
73.7353596908
  0
LINE
  8
0
 62
7
  6
CONTINUOUS
 10
35.5569217008
 20
73.7353596908
 11
77.5118268096
 21
73.7353596908
  0
LINE
  8
0
 62
7
  6
CONTINUOUS
 10
132.6897491522
 20
73.7353596908
 11
174.6151948272
 21
73.7353596908
  0
LINE
  8
0
 62
7
  6
CONTINUOUS
 10
57.1708672867
 20
81.7353595759
 11
57.1356254435
 21
81.7346962574
  0
POLYLINE
  8
0
 62
7
  6
CONTINUOUS
 66
1
 70
0
  0
VERTEX
  8
0
 62
7
  6
CONTINUOUS
 10
42.595214807
 20
81.7353595834
  0
VERTEX
  8
0
 62
7
  6
CONTINUOUS
 10
42.5484743741
 20
81.7347597176
  0
VERTEX
  8
0
 62
7
  6
CONTINUOUS
 10
42.4304336572
 20
81.7279561893
  0
SEQEND
  0
POLYLINE
  8
0
 62
7
  6
CONTINUOUS
 66
1
 70
0
  0
VERTEX
  8
0
 62
7
  6
CONTINUOUS
 10
35.556708047
 20
81.7353595754
  0
VERTEX
  8
0
 62
7
  6
CONTINUOUS
 10
35.501240039
 20
81.7347963629
  0
VERTEX
  8
0
 62
7
  6
CONTINUOUS
 10
35.3644938595
 20
81.7286384568
  0
VERTEX
  8
0
 62
7
  6
CONTINUOUS
 10
35.3040378972
 20
81.7237522932
  0
SEQEND
  0
LINE
  8
1_AXIS
 62
7
  6
CONTINUOUS
 10
174.6151948281
 20
81.7353596908
 11
173.2672177243
 21
81.7353596908
  0
LINE
  8
1_AXIS
 62
7
  6
CONTINUOUS
 10
167.5769319214
 20
81.7353596908
 11
163.6955865429
 21
81.7353596908
  0
LINE
  8
1_AXIS
 62
7
  6
CONTINUOUS
 10
153.0013473846
 20
81.7353596908
 11
147.0547812666
 21
81.7353596908
  0
LINE
  8
1_AXIS
 62
7
  6
CONTINUOUS
 10
132.6464718255
 20
81.7353596908
 11
125.3519286037
 21
81.7353596908
  0
LINE
  8
1_AXIS
 62
7
  6
CONTINUOUS
 10
108.9674036424
 20
81.7353596908
 11
101.2047128855
 21
81.7353596908
  0
LINE
  8
1_AXIS
 62
7
  6
CONTINUOUS
 10
84.8201879242
 20
81.7353596908
 11
77.5256447025
 21
81.7353596908
  0
LINE
  8
1_AXIS
 62
7
  6
CONTINUOUS
 10
63.1173352614
 20
81.7353596908
 11
57.1707691434
 21
81.7353596908
  0
LINE
  8
1_AXIS
 62
7
  6
CONTINUOUS
 10
46.476529985
 20
81.7353596908
 11
42.5951846065
 21
81.7353596908
  0
LINE
  8
1_AXIS
 62
7
  6
CONTINUOUS
 10
36.9048988036
 20
81.7353596908
 11
35.5569216999
 21
81.7353596908
  0
LINE
  8
0
 62
7
  6
CONTINUOUS
 10
35.5569217008
 20
81.7353596908
 11
77.5118268099
 21
81.7353596908
  0
LINE
  8
0
 62
7
  6
CONTINUOUS
 10
77.5256447025
 20
81.7353596908
 11
132.6464718255
 21
81.7353596908
  0
LINE
  8
0
 62
7
  6
CONTINUOUS
 10
132.6897491514
 20
81.7353596908
 11
174.6151948272
 21
81.7353596908
  0
LINE
  8
0
 62
7
  6
CONTINUOUS
 10
153.0416488604
 20
81.7344879323
 11
153.0012391714
 21
81.7353595743
  0
LINE
  8
0
 62
7
  6
CONTINUOUS
 10
77.525656911
 20
81.7353595815
 11
77.3753831644
 21
81.7126140141
  0
LINE
  8
0
 62
7
  6
CONTINUOUS
 10
42.4304336572
 20
81.7279561893
 11
42.3768895718
 21
81.7224030568
  0
LINE
  8
0
 62
7
  6
CONTINUOUS
 10
57.1356254435
 20
81.7346962574
 11
57.0324847362
 21
81.7252299035
  0
LINE
  8
0
 62
7
  6
CONTINUOUS
 10
35.3040378751
 20
81.7237524002
 11
34.5326587955
 21
81.6535018373
  0
LINE
  8
0
 62
7
  6
CONTINUOUS
 10
34.5326589239
 20
81.6535018634
 11
33.2389319112
 21
81.5363300637
  0
POLYLINE
  8
0
 62
7
  6
CONTINUOUS
 66
1
 70
0
  0
VERTEX
  8
0
 62
7
  6
CONTINUOUS
 10
167.7475654051
 20
81.7274209388
  0
VERTEX
  8
0
 62
7
  6
CONTINUOUS
 10
167.6294939929
 20
81.7346003184
  0
VERTEX
  8
0
 62
7
  6
CONTINUOUS
 10
167.5768964768
 20
81.7353595833
  0
SEQEND
  0
POLYLINE
  8
0
 62
7
  6
CONTINUOUS
 66
1
 70
0
  0
VERTEX
  8
0
 62
7
  6
CONTINUOUS
 10
174.8680787512
 20
81.723752282
  0
VERTEX
  8
0
 62
7
  6
CONTINUOUS
 10
174.814431623
 20
81.7281545026
  0
VERTEX
  8
0
 62
7
  6
CONTINUOUS
 10
174.6776516049
 20
81.734651001
  0
VERTEX
  8
0
 62
7
  6
CONTINUOUS
 10
174.6153966947
 20
81.7353595763
  0
SEQEND
  0
LINE
  8
0
 62
7
  6
CONTINUOUS
 10
176.9342537557
 20
81.5362275851
 11
176.8713099717
 21
81.5421342216
  0
LINE
  8
0
 62
7
  6
CONTINUOUS
 10
153.1446530954
 20
81.7244873545
 11
153.0416488604
 21
81.7344879323
  0
LINE
  8
0
 62
7
  6
CONTINUOUS
 10
167.7952275667
 20
81.7224029847
 11
167.7475654051
 21
81.7274209388
  0
LINE
  8
0
 62
7
  6
CONTINUOUS
 10
132.7996306477
 20
81.7117083252
 11
132.6464589741
 21
81.7353595813
  0
POLYLINE
  8
0
 62
7
  6
CONTINUOUS
 66
1
 70
0
  0
VERTEX
  8
0
 62
7
  6
CONTINUOUS
 10
133.2324887435
 20
73.9620458026
  0
VERTEX
  8
0
 62
7
  6
CONTINUOUS
 10
133.2674464175
 20
73.9781959049
  0
VERTEX
  8
0
 62
7
  6
CONTINUOUS
 10
133.3826568085
 20
74.0579182184
  0
VERTEX
  8
0
 62
7
  6
CONTINUOUS
 10
133.4795617447
 20
74.1793779381
  0
VERTEX
  8
0
 62
7
  6
CONTINUOUS
 10
133.5370622602
 20
74.3359315952
  0
VERTEX
  8
0
 62
7
  6
CONTINUOUS
 10
133.5456490326
 20
74.4283825457
  0
SEQEND
  0
LINE
  8
0
 62
7
  6
CONTINUOUS
 10
132.9602615261
 20
73.847687554
 11
132.9740024621
 21
73.8538356181
  0
LINE
  8
0
 62
7
  6
CONTINUOUS
 10
132.974273875
 20
73.8539491377
 11
133.2323990213
 21
73.9620065229
  0
LINE
  8
0
 62
7
  6
CONTINUOUS
 10
56.9804919123
 20
81.7162919544
 11
56.9804101332
 21
81.7162757274
  0
POLYLINE
  8
0
 62
7
  6
CONTINUOUS
 66
1
 70
0
  0
VERTEX
  8
0
 62
7
  6
CONTINUOUS
 10
56.9804101332
 20
81.7162757274
  0
VERTEX
  8
0
 62
7
  6
CONTINUOUS
 10
56.8812101234
 20
81.6972129418
  0
VERTEX
  8
0
 62
7
  6
CONTINUOUS
 10
56.7313615262
 20
81.6704014441
  0
SEQEND
  0
LINE
  8
0
 62
7
  6
CONTINUOUS
 10
57.0324847362
 20
81.7252299035
 11
56.9804919366
 21
81.7162918324
  0
POLYLINE
  8
0
 62
7
  6
CONTINUOUS
 66
1
 70
0
  0
VERTEX
  8
0
 62
7
  6
CONTINUOUS
 10
55.9402285317
 20
81.5410303216
  0
VERTEX
  8
0
 62
7
  6
CONTINUOUS
 10
55.9274306414
 20
81.5388739043
  0
VERTEX
  8
0
 62
7
  6
CONTINUOUS
 10
55.846282617
 20
81.520467973
  0
VERTEX
  8
0
 62
7
  6
CONTINUOUS
 10
55.7545667529
 20
81.4846797354
  0
VERTEX
  8
0
 62
7
  6
CONTINUOUS
 10
55.6578411867
 20
81.4217064662
  0
VERTEX
  8
0
 62
7
  6
CONTINUOUS
 10
55.6121608304
 20
81.3789103065
  0
VERTEX
  8
0
 62
7
  6
CONTINUOUS
 10
55.5356305087
 20
81.2729750298
  0
VERTEX
  8
0
 62
7
  6
CONTINUOUS
 10
55.4878263735
 20
81.1456993436
  0
VERTEX
  8
0
 62
7
  6
CONTINUOUS
 10
55.4760807413
 20
81.0080860003
  0
VERTEX
  8
0
 62
7
  6
CONTINUOUS
 10
55.4753753681
 20
81.0346691003
  0
SEQEND
  0
LINE
  8
0
 62
7
  6
CONTINUOUS
 10
56.7313615262
 20
81.6704014441
 11
56.6036829187
 21
81.6490392432
  0
LINE
  8
0
 62
7
  6
CONTINUOUS
 10
56.6036729882
 20
81.6490376278
 11
55.9401431589
 21
81.5410167778
  0
LINE
  8
0
 62
7
  6
CONTINUOUS
 10
40.717665471
 20
81.5382146506
 11
40.653984959
 21
81.5290314163
  0
LINE
  8
0
 62
7
  6
CONTINUOUS
 10
40.7719076413
 20
81.5445611422
 11
40.717665471
 21
81.5382146506
  0
LINE
  8
0
 62
7
  6
CONTINUOUS
 10
42.3768855106
 20
81.7224026924
 11
41.9563777642
 21
81.6741666014
  0
LINE
  8
0
 62
7
  6
CONTINUOUS
 10
41.9563777642
 20
81.6741666014
 11
40.7718947552
 21
81.5445598686
  0
POLYLINE
  8
0
 62
7
  6
CONTINUOUS
 66
1
 70
0
  0
VERTEX
  8
0
 62
7
  6
CONTINUOUS
 10
33.1870373678
 20
81.5312299776
  0
VERTEX
  8
0
 62
7
  6
CONTINUOUS
 10
33.1476899076
 20
81.5270763129
  0
VERTEX
  8
0
 62
7
  6
CONTINUOUS
 10
33.1171821458
 20
81.5233852671
  0
VERTEX
  8
0
 62
7
  6
CONTINUOUS
 10
33.0783509904
 20
81.5169323127
  0
SEQEND
  0
LINE
  8
0
 62
7
  6
CONTINUOUS
 10
33.2389319112
 20
81.5363300637
 11
33.1870373678
 21
81.5312299776
  0
LINE
  8
1_AXIS
 62
7
  6
CONTINUOUS
 10
163.086058264
 20
90.2353596908
 11
47.086058264
 21
90.2353596908
  0
POLYLINE
  8
0
 62
7
  6
CONTINUOUS
 66
1
 70
0
  0
VERTEX
  8
0
 62
7
  6
CONTINUOUS
 10
169.4002217739
 20
81.5445598684
  0
VERTEX
  8
0
 62
7
  6
CONTINUOUS
 10
167.9754008275
 20
81.7014106731
  0
VERTEX
  8
0
 62
7
  6
CONTINUOUS
 10
167.7952309646
 20
81.7224027023
  0
SEQEND
  0
LINE
  8
0
 62
7
  6
CONTINUOUS
 10
169.4564309512
 20
81.5379638208
 11
169.4002066336
 21
81.5445613616
  0
LINE
  8
0
 62
7
  6
CONTINUOUS
 10
169.5194180285
 20
81.5288136191
 11
169.4564309512
 21
81.5379638208
  0
POLYLINE
  8
0
 62
7
  6
CONTINUOUS
 66
1
 70
0
  0
VERTEX
  8
0
 62
7
  6
CONTINUOUS
 10
177.091528597
 20
81.5173799279
  0
VERTEX
  8
0
 62
7
  6
CONTINUOUS
 10
177.053910722
 20
81.5235226515
  0
VERTEX
  8
0
 62
7
  6
CONTINUOUS
 10
177.0235168822
 20
81.5271774683
  0
VERTEX
  8
0
 62
7
  6
CONTINUOUS
 10
176.9840650641
 20
81.5313327217
  0
VERTEX
  8
0
 62
7
  6
CONTINUOUS
 10
176.9321262041
 20
81.5364314325
  0
VERTEX
  8
0
 62
7
  6
CONTINUOUS
 10
174.8680786437
 20
81.723752408
  0
SEQEND
  0
LINE
  8
0
 62
7
  6
CONTINUOUS
 10
154.2319733707
 20
81.5410167776
 11
153.4441229019
 21
81.6698219699
  0
LINE
  8
0
 62
7
  6
CONTINUOUS
 10
153.19162856
 20
81.7162910453
 11
153.1446530954
 21
81.7244873545
  0
POLYLINE
  8
0
 62
7
  6
CONTINUOUS
 66
1
 70
0
  0
VERTEX
  8
0
 62
7
  6
CONTINUOUS
 10
153.4441229019
 20
81.6698219699
  0
VERTEX
  8
0
 62
7
  6
CONTINUOUS
 10
153.29394142
 20
81.6966479358
  0
VERTEX
  8
0
 62
7
  6
CONTINUOUS
 10
153.1917054715
 20
81.7162759073
  0
SEQEND
  0
LINE
  8
0
 62
7
  6
CONTINUOUS
 10
153.19162856
 20
81.7162910453
 11
153.1917054479
 21
81.7162757885
  0
LINE
  8
0
 62
7
  6
CONTINUOUS
 10
133.2323990202
 20
81.5087128593
 11
132.9742738749
 21
81.6167702439
  0
LINE
  8
0
 62
7
  6
CONTINUOUS
 10
132.9739934031
 20
81.6168875477
 11
132.9637387278
 21
81.6213901123
  0
LINE
  8
0
 62
7
  6
CONTINUOUS
 10
132.7967331839
 20
73.7581053076
 11
132.9477028443
 21
73.8337139668
  0
POLYLINE
  8
0
 62
7
  6
CONTINUOUS
 66
1
 70
0
  0
VERTEX
  8
0
 62
7
  6
CONTINUOUS
 10
40.653984959
 20
81.5290314163
  0
VERTEX
  8
0
 62
7
  6
CONTINUOUS
 10
40.585705012
 20
81.5143031627
  0
VERTEX
  8
0
 62
7
  6
CONTINUOUS
 10
40.4934971733
 20
81.479668538
  0
VERTEX
  8
0
 62
7
  6
CONTINUOUS
 10
40.3965210067
 20
81.4177279577
  0
VERTEX
  8
0
 62
7
  6
CONTINUOUS
 10
40.3098909313
 20
81.3270807882
  0
VERTEX
  8
0
 62
7
  6
CONTINUOUS
 10
40.2452388932
 20
81.209616801
  0
VERTEX
  8
0
 62
7
  6
CONTINUOUS
 10
40.2134059017
 20
81.0719886994
  0
SEQEND
  0
LINE
  8
0
 62
7
  6
CONTINUOUS
 10
132.9507547354
 20
81.6347812514
 11
132.7996306477
 21
81.7117083252
  0
LINE
  8
0
 62
7
  6
CONTINUOUS
 10
132.9477028443
 20
73.8337139668
 11
132.9680761647
 21
73.8511840333
  0
POLYLINE
  8
0
 62
7
  6
CONTINUOUS
 66
1
 70
0
  0
VERTEX
  8
0
 62
7
  6
CONTINUOUS
 10
33.0783509904
 20
81.5169323127
  0
VERTEX
  8
0
 62
7
  6
CONTINUOUS
 10
33.0249486523
 20
81.5031025005
  0
VERTEX
  8
0
 62
7
  6
CONTINUOUS
 10
32.9671575887
 20
81.4807160217
  0
VERTEX
  8
0
 62
7
  6
CONTINUOUS
 10
32.9375476614
 20
81.465880667
  0
VERTEX
  8
0
 62
7
  6
CONTINUOUS
 10
32.8789339295
 20
81.4285564355
  0
VERTEX
  8
0
 62
7
  6
CONTINUOUS
 10
32.8235242072
 20
81.3809689988
  0
VERTEX
  8
0
 62
7
  6
CONTINUOUS
 10
32.7736345831
 20
81.323122427
  0
VERTEX
  8
0
 62
7
  6
CONTINUOUS
 10
32.7316704416
 20
81.2555291944
  0
VERTEX
  8
0
 62
7
  6
CONTINUOUS
 10
32.7000288596
 20
81.17927364
  0
VERTEX
  8
0
 62
7
  6
CONTINUOUS
 10
32.6809623858
 20
81.096041621
  0
SEQEND
  0
LINE
  8
0
 62
7
  6
CONTINUOUS
 10
177.1465085128
 20
81.5033115854
 11
177.0930479863
 21
81.5170770297
  0
LINE
  8
0
 62
7
  6
CONTINUOUS
 10
132.9688717123
 20
81.6191363507
 11
132.9507547354
 21
81.6347812514
  0
POLYLINE
  8
0
 62
7
  6
CONTINUOUS
 66
1
 70
0
  0
VERTEX
  8
0
 62
7
  6
CONTINUOUS
 10
133.5456490328
 20
81.0423368694
  0
VERTEX
  8
0
 62
7
  6
CONTINUOUS
 10
133.5373295555
 20
81.1333496225
  0
VERTEX
  8
0
 62
7
  6
CONTINUOUS
 10
133.4808740216
 20
81.289028164
  0
VERTEX
  8
0
 62
7
  6
CONTINUOUS
 10
133.385354191
 20
81.4103053218
  0
VERTEX
  8
0
 62
7
  6
CONTINUOUS
 10
133.271473566
 20
81.4904602399
  0
VERTEX
  8
0
 62
7
  6
CONTINUOUS
 10
133.2324157818
 20
81.5087041439
  0
SEQEND
  0
LINE
  8
0
 62
7
  6
CONTINUOUS
 10
133.5456498188
 20
81.0423463048
 11
133.5456498188
 21
74.4283730769
  0
LINE
  8
0
 62
7
  6
CONTINUOUS
 10
177.2058749428
 20
81.480293041
 11
177.1448771649
 21
81.5038248226
  0
LINE
  8
0
 62
7
  6
CONTINUOUS
 10
154.6967442057
 20
81.0347189571
 11
154.6967442057
 21
74.4360004245
  0
POLYLINE
  8
0
 62
7
  6
CONTINUOUS
 66
1
 70
0
  0
VERTEX
  8
0
 62
7
  6
CONTINUOUS
 10
154.6967427612
 20
81.0346715128
  0
VERTEX
  8
0
 62
7
  6
CONTINUOUS
 10
154.6960201312
 20
81.0077649069
  0
VERTEX
  8
0
 62
7
  6
CONTINUOUS
 10
154.6844920001
 20
81.1448149326
  0
VERTEX
  8
0
 62
7
  6
CONTINUOUS
 10
154.6371612638
 20
81.2717231889
  0
VERTEX
  8
0
 62
7
  6
CONTINUOUS
 10
154.5612496186
 20
81.3775323578
  0
VERTEX
  8
0
 62
7
  6
CONTINUOUS
 10
154.5159047156
 20
81.420352743
  0
VERTEX
  8
0
 62
7
  6
CONTINUOUS
 10
154.419744901
 20
81.4835732207
  0
VERTEX
  8
0
 62
7
  6
CONTINUOUS
 10
154.3282444799
 20
81.5197597537
  0
VERTEX
  8
0
 62
7
  6
CONTINUOUS
 10
154.247125386
 20
81.5384449872
  0
VERTEX
  8
0
 62
7
  6
CONTINUOUS
 10
154.2318763492
 20
81.5410321481
  0
SEQEND
  0
LINE
  8
0
 62
7
  6
CONTINUOUS
 10
177.3511441379
 20
81.3784118508
 11
177.295479282
 21
81.4268481399
  0
LINE
  8
1_AXIS
 62
7
  6
CONTINUOUS
 10
165.086058264
 20
88.2353596908
 11
165.086058264
 21
82.7353596908
  0
LINE
  8
1_AXIS
 62
7
  6
CONTINUOUS
 10
165.086058264
 20
72.7353596908
 11
165.086058264
 21
67.2353596908
  0
POLYLINE
  8
0
 62
7
  6
CONTINUOUS
 66
1
 70
0
  0
VERTEX
  8
0
 62
7
  6
CONTINUOUS
 10
169.9605494742
 20
81.0291371727
  0
VERTEX
  8
0
 62
7
  6
CONTINUOUS
 10
169.9587170919
 20
81.0719252961
  0
VERTEX
  8
0
 62
7
  6
CONTINUOUS
 10
169.9269217029
 20
81.2095026182
  0
VERTEX
  8
0
 62
7
  6
CONTINUOUS
 10
169.8623512872
 20
81.3269096373
  0
VERTEX
  8
0
 62
7
  6
CONTINUOUS
 10
169.7758801296
 20
81.4174952478
  0
VERTEX
  8
0
 62
7
  6
CONTINUOUS
 10
169.6792127354
 20
81.4793779311
  0
VERTEX
  8
0
 62
7
  6
CONTINUOUS
 10
169.5874167713
 20
81.5140271566
  0
VERTEX
  8
0
 62
7
  6
CONTINUOUS
 10
169.5194180285
 20
81.5288136191
  0
SEQEND
  0
LINE
  8
0
 62
7
  6
CONTINUOUS
 10
169.960549499
 20
81.0292493711
 11
169.960549499
 21
74.4414700106
  0
POLYLINE
  8
0
 62
7
  6
CONTINUOUS
 66
1
 70
0
  0
VERTEX
  8
0
 62
7
  6
CONTINUOUS
 10
177.4960260494
 20
81.0264100688
  0
VERTEX
  8
0
 62
7
  6
CONTINUOUS
 10
177.4915061586
 20
81.0934907284
  0
VERTEX
  8
0
 62
7
  6
CONTINUOUS
 10
177.4730258956
 20
81.1763200561
  0
VERTEX
  8
0
 62
7
  6
CONTINUOUS
 10
177.4418961548
 20
81.2526940872
  0
VERTEX
  8
0
 62
7
  6
CONTINUOUS
 10
177.4001865794
 20
81.320795959
  0
VERTEX
  8
0
 62
7
  6
CONTINUOUS
 10
177.3501832202
 20
81.3793796067
  0
VERTEX
  8
0
 62
7
  6
CONTINUOUS
 10
177.2942573758
 20
81.4277597842
  0
VERTEX
  8
0
 62
7
  6
CONTINUOUS
 10
177.2347286343
 20
81.4657938563
  0
VERTEX
  8
0
 62
7
  6
CONTINUOUS
 10
177.2043255302
 20
81.4810070557
  0
SEQEND
  0
LINE
  8
0
 62
7
  6
CONTINUOUS
 10
177.4960255106
 20
81.0265239977
 11
177.4960255106
 21
74.4441953839
  0
LINE
  8
0
 62
7
  6
CONTINUOUS
 10
177.4911532957
 20
74.374678603
 11
177.4960250945
 21
74.444309553
  0
ARC
  8
0
 62
7
  6
CONTINUOUS
 10
47.9552718501
 20
156.0660567014
 40
6.2
 50
104.7262619366
 51
111.838
  0
ARC
  8
0
 62
7
  6
CONTINUOUS
 10
47.9552718501
 20
156.0660567014
 40
6.2
 50
88.058871156
 51
102.7506054215
  0
ARC
  8
0
 62
7
  6
CONTINUOUS
 10
66.7419237617
 20
139.2312521629
 40
6.2
 50
124.7262619366
 51
131.838
  0
ARC
  8
0
 62
7
  6
CONTINUOUS
 10
66.7419237617
 20
139.2312521629
 40
6.2
 50
108.058871156
 51
122.7506054215
  0
ARC
  8
0
 62
7
  6
CONTINUOUS
 10
50.9920500112
 20
152.4469654181
 40
6.2
 50
337.2493945785
 51
351.941128844
  0
ARC
  8
0
 62
7
  6
CONTINUOUS
 10
50.9920500112
 20
152.4469654181
 40
6.2
 50
328.162
 51
335.2737380634
  0
ARC
  8
0
 62
7
  6
CONTINUOUS
 10
48.0975368074
 20
160.2636465673
 40
2.0
 50
35.5051234822
 51
88.058871156
  0
ARC
  8
0
 62
7
  6
CONTINUOUS
 10
65.4399488047
 20
143.224353866
 40
2.0
 50
55.5051234822
 51
108.058871156
  0
ARC
  8
0
 62
7
  6
CONTINUOUS
 10
55.1505731056
 20
151.8581652202
 40
2.0
 50
351.941128844
 51
44.4948765178
  0
ARC
  8
0
 62
7
  6
CONTINUOUS
 10
44.1839092432
 20
162.0958757569
 40
0.8
 50
212.5174152214
 51
291.838
  0
ARC
  8
0
 62
7
  6
CONTINUOUS
 10
61.1356825721
 20
143.6075466546
 40
0.8
 50
232.5174152215
 51
311.838
  0
ARC
  8
0
 62
7
  6
CONTINUOUS
 10
56.2753723222
 20
147.6858311927
 40
0.8
 50
148.162
 51
227.4825847785
  0
ARC
  8
0
 62
7
  6
CONTINUOUS
 10
36.0594359406
 20
178.311011678
 40
6.2
 50
84.7262619366
 51
91.838
  0
ARC
  8
0
 62
7
  6
CONTINUOUS
 10
36.0594359406
 20
178.311011678
 40
6.2
 50
68.058871156
 51
82.7506054215
  0
ARC
  8
0
 62
7
  6
CONTINUOUS
 10
32.4892294078
 20
198.55865908
 40
6.2
 50
297.2493945785
 51
311.941128844
  0
ARC
  8
0
 62
7
  6
CONTINUOUS
 10
32.4892294078
 20
198.55865908
 40
6.2
 50
288.162
 51
295.2737380634
  0
ARC
  8
0
 62
7
  6
CONTINUOUS
 10
37.6752718501
 20
173.8715390032
 40
6.2
 50
317.2493945785
 51
331.941128844
  0
ARC
  8
0
 62
7
  6
CONTINUOUS
 10
37.6752718501
 20
173.8715390032
 40
6.2
 50
308.162
 51
315.2737380634
  0
ARC
  8
0
 62
7
  6
CONTINUOUS
 10
37.6287815587
 20
182.206798419
 40
2.0
 50
15.5051234822
 51
68.058871156
  0
ARC
  8
0
 62
7
  6
CONTINUOUS
 10
35.2963694441
 20
195.4345648406
 40
2.0
 50
311.941128844
 51
4.4948765178
  0
ARC
  8
0
 62
7
  6
CONTINUOUS
 10
41.3816237873
 20
171.8959491374
 40
2.0
 50
331.941128844
 51
24.4948765178
  0
ARC
  8
0
 62
7
  6
CONTINUOUS
 10
34.5778339062
 20
185.2670701285
 40
0.8
 50
192.5174152214
 51
271.838
  0
ARC
  8
0
 62
7
  6
CONTINUOUS
 10
33.4760910173
 20
191.5153645442
 40
0.8
 50
108.162
 51
187.4825847785
  0
ARC
  8
0
 62
7
  6
CONTINUOUS
 10
41.0115670289
 20
167.5905336511
 40
0.8
 50
128.162
 51
207.4825847785
  0
ARC
  8
0
 62
7
  6
CONTINUOUS
 10
90.1534441934
 20
129.8371239451
 40
6.2
 50
144.7262619366
 51
151.838
  0
ARC
  8
0
 62
7
  6
CONTINUOUS
 10
90.1534441934
 20
129.8371239451
 40
6.2
 50
128.058871156
 51
142.7506054215
  0
ARC
  8
0
 62
7
  6
CONTINUOUS
 10
70.8333639101
 20
136.8690580919
 40
6.2
 50
357.2493945785
 51
11.941128844
  0
ARC
  8
0
 62
7
  6
CONTINUOUS
 10
70.8333639101
 20
136.8690580919
 40
6.2
 50
348.162
 51
355.2737380634
  0
ARC
  8
0
 62
7
  6
CONTINUOUS
 10
94.806058264
 20
129.0167425536
 40
6.2
 50
17.2493945785
 51
31.941128844
  0
ARC
  8
0
 62
7
  6
CONTINUOUS
 10
94.806058264
 20
129.0167425536
 40
6.2
 50
8.162
 51
15.2737380634
  0
ARC
  8
0
 62
7
  6
CONTINUOUS
 10
87.5642667171
 20
133.1441104882
 40
2.0
 50
75.5051234822
 51
128.058871156
  0
ARC
  8
0
 62
7
  6
CONTINUOUS
 10
74.9424789034
 20
137.7380655556
 40
2.0
 50
11.941128844
 51
64.4948765178
  0
ARC
  8
0
 62
7
  6
CONTINUOUS
 10
98.3701452438
 20
131.2387425536
 40
2.0
 50
31.941128844
 51
84.4948765178
  0
ARC
  8
0
 62
7
  6
CONTINUOUS
 10
83.388519848
 20
132.0320481702
 40
0.8
 50
252.5174152215
 51
331.838
  0
ARC
  8
0
 62
7
  6
CONTINUOUS
 10
77.4264667091
 20
134.2020580478
 40
0.8
 50
168.162
 51
247.4825847785
  0
ARC
  8
0
 62
7
  6
CONTINUOUS
 10
101.9137160496
 20
128.7655562569
 40
0.8
 50
188.162
 51
267.4825847786
  0
ARC
  8
0
 62
7
  6
CONTINUOUS
 10
37.6752718501
 20
227.9701672988
 40
6.2
 50
44.7262619366
 51
51.838
  0
ARC
  8
0
 62
7
  6
CONTINUOUS
 10
37.6752718501
 20
227.9701672988
 40
6.2
 50
28.058871156
 51
42.7506054215
  0
ARC
  8
0
 62
7
  6
CONTINUOUS
 10
32.4892294078
 20
203.283047222
 40
6.2
 50
64.7262619366
 51
71.838
  0
ARC
  8
0
 62
7
  6
CONTINUOUS
 10
32.4892294078
 20
203.283047222
 40
6.2
 50
48.058871156
 51
62.7506054215
  0
ARC
  8
0
 62
7
  6
CONTINUOUS
 10
36.0594359406
 20
223.530694624
 40
6.2
 50
277.2493945785
 51
291.941128844
  0
ARC
  8
0
 62
7
  6
CONTINUOUS
 10
36.0594359406
 20
223.530694624
 40
6.2
 50
268.162
 51
275.2737380634
  0
ARC
  8
0
 62
7
  6
CONTINUOUS
 10
41.3816237873
 20
229.9457571647
 40
2.0
 50
335.5051234822
 51
28.058871156
  0
ARC
  8
0
 62
7
  6
CONTINUOUS
 10
35.2963694441
 20
206.4071414614
 40
2.0
 50
355.5051234822
 51
48.058871156
  0
ARC
  8
0
 62
7
  6
CONTINUOUS
 10
37.6287815587
 20
219.634907883
 40
2.0
 50
291.941128844
 51
344.4948765178
  0
ARC
  8
0
 62
7
  6
CONTINUOUS
 10
41.0115670289
 20
234.251172651
 40
0.8
 50
152.5174152214
 51
231.838
  0
ARC
  8
0
 62
7
  6
CONTINUOUS
 10
33.4760910173
 20
210.3263417578
 40
0.8
 50
172.5174152214
 51
251.838
  0
ARC
  8
0
 62
7
  6
CONTINUOUS
 10
34.5778339062
 20
216.5746361736
 40
0.8
 50
88.162
 51
167.4825847785
  0
ARC
  8
0
 62
7
  6
CONTINUOUS
 10
50.9920500112
 20
249.394740884
 40
6.2
 50
24.7262619366
 51
31.838
  0
ARC
  8
0
 62
7
  6
CONTINUOUS
 10
50.9920500112
 20
249.394740884
 40
6.2
 50
8.058871156
 51
22.7506054215
  0
ARC
  8
0
 62
7
  6
CONTINUOUS
 10
66.7419237617
 20
262.6104541391
 40
6.2
 50
237.2493945785
 51
251.941128844
  0
ARC
  8
0
 62
7
  6
CONTINUOUS
 10
66.7419237617
 20
262.6104541391
 40
6.2
 50
228.162
 51
235.2737380634
  0
ARC
  8
0
 62
7
  6
CONTINUOUS
 10
47.9552718501
 20
245.7756496006
 40
6.2
 50
257.2493945785
 51
271.941128844
  0
ARC
  8
0
 62
7
  6
CONTINUOUS
 10
47.9552718501
 20
245.7756496006
 40
6.2
 50
248.162
 51
255.2737380634
  0
ARC
  8
0
 62
7
  6
CONTINUOUS
 10
55.1505731056
 20
249.9835410819
 40
2.0
 50
315.5051234822
 51
8.058871156
  0
ARC
  8
0
 62
7
  6
CONTINUOUS
 10
65.4399488047
 20
258.617352436
 40
2.0
 50
251.941128844
 51
304.4948765178
  0
ARC
  8
0
 62
7
  6
CONTINUOUS
 10
48.0975368074
 20
241.5780597348
 40
2.0
 50
271.941128844
 51
324.4948765178
  0
ARC
  8
0
 62
7
  6
CONTINUOUS
 10
56.2753723222
 20
254.1558751093
 40
0.8
 50
132.5174152214
 51
211.838
  0
ARC
  8
0
 62
7
  6
CONTINUOUS
 10
61.1356825721
 20
258.2341596474
 40
0.8
 50
48.162
 51
127.4825847785
  0
ARC
  8
0
 62
7
  6
CONTINUOUS
 10
44.1839092432
 20
239.7458305452
 40
0.8
 50
68.162
 51
147.4825847785
  0
ARC
  8
0
 62
7
  6
CONTINUOUS
 10
79.6302141413
 20
200.920853151
 40
4.0
 50
75.0
 51
285.0
  0
ARC
  8
0
 62
7
  6
CONTINUOUS
 10
94.806058264
 20
272.8249637484
 40
6.2
 50
344.7262619366
 51
351.838
  0
ARC
  8
0
 62
7
  6
CONTINUOUS
 10
94.806058264
 20
272.8249637484
 40
6.2
 50
328.058871156
 51
342.7506054215
  0
ARC
  8
0
 62
7
  6
CONTINUOUS
 10
70.8333639101
 20
264.9726482102
 40
6.2
 50
4.7262619366
 51
11.838
  0
ARC
  8
0
 62
7
  6
CONTINUOUS
 10
70.8333639101
 20
264.9726482102
 40
6.2
 50
348.058871156
 51
2.7506054215
  0
ARC
  8
0
 62
7
  6
CONTINUOUS
 10
90.1534441934
 20
272.0045823569
 40
6.2
 50
217.2493945785
 51
231.941128844
  0
ARC
  8
0
 62
7
  6
CONTINUOUS
 10
90.1534441934
 20
272.0045823569
 40
6.2
 50
208.162
 51
215.2737380634
  0
ARC
  8
0
 62
7
  6
CONTINUOUS
 10
98.3701452438
 20
270.6029637484
 40
2.0
 50
275.5051234822
 51
328.058871156
  0
ARC
  8
0
 62
7
  6
CONTINUOUS
 10
74.9424789034
 20
264.1036407464
 40
2.0
 50
295.5051234822
 51
348.058871156
  0
ARC
  8
0
 62
7
  6
CONTINUOUS
 10
87.5642667171
 20
268.6975958139
 40
2.0
 50
231.941128844
 51
284.4948765178
  0
ARC
  8
0
 62
7
  6
CONTINUOUS
 10
101.9137160496
 20
273.0761500451
 40
0.8
 50
92.5174152214
 51
171.838
  0
ARC
  8
0
 62
7
  6
CONTINUOUS
 10
77.4264667091
 20
267.6396482542
 40
0.8
 50
112.5174152214
 51
191.838
  0
ARC
  8
0
 62
7
  6
CONTINUOUS
 10
83.388519848
 20
269.8096581318
 40
0.8
 50
28.162
 51
107.4825847785
  0
ARC
  8
0
 62
7
  6
CONTINUOUS
 10
115.366058264
 20
129.0167425536
 40
6.2
 50
164.7262619366
 51
171.838
  0
ARC
  8
0
 62
7
  6
CONTINUOUS
 10
115.366058264
 20
129.0167425536
 40
6.2
 50
148.058871156
 51
162.7506054215
  0
ARC
  8
0
 62
7
  6
CONTINUOUS
 10
139.3387526179
 20
136.8690580919
 40
6.2
 50
184.7262619366
 51
191.838
  0
ARC
  8
0
 62
7
  6
CONTINUOUS
 10
139.3387526179
 20
136.8690580919
 40
6.2
 50
168.058871156
 51
182.7506054215
  0
ARC
  8
0
 62
7
  6
CONTINUOUS
 10
120.0186723345
 20
129.8371239451
 40
6.2
 50
37.2493945785
 51
51.941128844
  0
ARC
  8
0
 62
7
  6
CONTINUOUS
 10
120.0186723345
 20
129.8371239451
 40
6.2
 50
28.162
 51
35.2737380634
  0
ARC
  8
0
 62
7
  6
CONTINUOUS
 10
111.8019712841
 20
131.2387425536
 40
2.0
 50
95.5051234822
 51
148.058871156
  0
ARC
  8
0
 62
7
  6
CONTINUOUS
 10
135.2296376246
 20
137.7380655556
 40
2.0
 50
115.5051234822
 51
168.058871156
  0
ARC
  8
0
 62
7
  6
CONTINUOUS
 10
122.6078498109
 20
133.1441104882
 40
2.0
 50
51.941128844
 51
104.4948765178
  0
ARC
  8
0
 62
7
  6
CONTINUOUS
 10
108.2584004783
 20
128.7655562569
 40
0.8
 50
272.5174152215
 51
351.838
  0
ARC
  8
0
 62
7
  6
CONTINUOUS
 10
132.7456498188
 20
134.2020580478
 40
0.8
 50
292.5174152215
 51
11.838
  0
ARC
  8
0
 62
7
  6
CONTINUOUS
 10
126.78359668
 20
132.0320481702
 40
0.8
 50
208.162
 51
287.4825847786
  0
ARC
  8
0
 62
7
  6
CONTINUOUS
 10
105.086058264
 20
175.4650090283
 40
4.0
 50
165.0
 51
15.0
  0
ARC
  8
0
 62
7
  6
CONTINUOUS
 10
162.2168446778
 20
156.0660567014
 40
6.2
 50
68.162
 51
75.2737380634
  0
ARC
  8
0
 62
7
  6
CONTINUOUS
 10
162.2168446778
 20
156.0660567014
 40
6.2
 50
77.2493945785
 51
91.941128844
  0
ARC
  8
0
 62
7
  6
CONTINUOUS
 10
159.1800665168
 20
152.4469654181
 40
6.2
 50
204.7262619366
 51
211.838
  0
ARC
  8
0
 62
7
  6
CONTINUOUS
 10
159.1800665168
 20
152.4469654181
 40
6.2
 50
188.058871156
 51
202.7506054215
  0
ARC
  8
0
 62
7
  6
CONTINUOUS
 10
143.4301927662
 20
139.2312521629
 40
6.2
 50
57.2493945785
 51
71.941128844
  0
ARC
  8
0
 62
7
  6
CONTINUOUS
 10
143.4301927662
 20
139.2312521629
 40
6.2
 50
48.162
 51
55.2737380634
  0
ARC
  8
0
 62
7
  6
CONTINUOUS
 10
162.0745797206
 20
160.2636465673
 40
2.0
 50
91.941128844
 51
144.4948765178
  0
ARC
  8
0
 62
7
  6
CONTINUOUS
 10
155.0215434223
 20
151.8581652202
 40
2.0
 50
135.5051234822
 51
188.058871156
  0
ARC
  8
0
 62
7
  6
CONTINUOUS
 10
144.7321677232
 20
143.224353866
 40
2.0
 50
71.941128844
 51
124.4948765178
  0
ARC
  8
0
 62
7
  6
CONTINUOUS
 10
165.9882072847
 20
162.0958757569
 40
0.8
 50
248.162
 51
327.4825847786
  0
ARC
  8
0
 62
7
  6
CONTINUOUS
 10
153.8967442057
 20
147.6858311927
 40
0.8
 50
312.5174152215
 51
31.838
  0
ARC
  8
0
 62
7
  6
CONTINUOUS
 10
149.0364339558
 20
143.6075466546
 40
0.8
 50
228.162
 51
307.4825847786
  0
ARC
  8
0
 62
7
  6
CONTINUOUS
 10
174.1126805873
 20
178.311011678
 40
6.2
 50
88.162
 51
95.2737380634
  0
ARC
  8
0
 62
7
  6
CONTINUOUS
 10
174.1126805873
 20
178.311011678
 40
6.2
 50
97.2493945785
 51
111.941128844
  0
ARC
  8
0
 62
7
  6
CONTINUOUS
 10
177.6828871201
 20
198.55865908
 40
6.2
 50
228.058871156
 51
242.7506054215
  0
ARC
  8
0
 62
7
  6
CONTINUOUS
 10
177.6828871201
 20
198.55865908
 40
6.2
 50
244.7262619366
 51
251.838
  0
ARC
  8
0
 62
7
  6
CONTINUOUS
 10
172.4968446778
 20
173.8715390032
 40
6.2
 50
208.058871156
 51
222.7506054215
  0
ARC
  8
0
 62
7
  6
CONTINUOUS
 10
172.4968446778
 20
173.8715390032
 40
6.2
 50
224.7262619366
 51
231.838
  0
ARC
  8
0
 62
7
  6
CONTINUOUS
 10
172.5433349692
 20
182.206798419
 40
2.0
 50
111.941128844
 51
164.4948765178
  0
ARC
  8
0
 62
7
  6
CONTINUOUS
 10
174.8757470838
 20
195.4345648406
 40
2.0
 50
175.5051234822
 51
228.058871156
  0
ARC
  8
0
 62
7
  6
CONTINUOUS
 10
168.7904927407
 20
171.8959491374
 40
2.0
 50
155.5051234822
 51
208.058871156
  0
ARC
  8
0
 62
7
  6
CONTINUOUS
 10
175.5942826217
 20
185.2670701285
 40
0.8
 50
268.162
 51
347.4825847786
  0
ARC
  8
0
 62
7
  6
CONTINUOUS
 10
176.6960255106
 20
191.5153645442
 40
0.8
 50
352.5174152215
 51
71.838
  0
ARC
  8
0
 62
7
  6
CONTINUOUS
 10
169.160549499
 20
167.5905336511
 40
0.8
 50
332.5174152215
 51
51.838
  0
ARC
  8
0
 62
7
  6
CONTINUOUS
 10
105.086058264
 20
200.920853151
 40
68.005
 50
95.5051234822
 51
104.4948765178
  0
ARC
  8
0
 62
7
  6
CONTINUOUS
 10
105.086058264
 20
200.920853151
 40
68.005
 50
75.5051234822
 51
84.4948765178
  0
ARC
  8
0
 62
7
  6
CONTINUOUS
 10
105.086058264
 20
200.920853151
 40
68.005
 50
115.5051234822
 51
124.4948765178
  0
ARC
  8
0
 62
7
  6
CONTINUOUS
 10
105.086058264
 20
200.920853151
 40
68.005
 50
135.5051234822
 51
144.4948765178
  0
ARC
  8
0
 62
7
  6
CONTINUOUS
 10
105.086058264
 20
200.920853151
 40
68.005
 50
155.5051234822
 51
164.4948765178
  0
ARC
  8
0
 62
7
  6
CONTINUOUS
 10
105.086058264
 20
200.920853151
 40
68.005
 50
175.5051234822
 51
184.4948765178
  0
ARC
  8
0
 62
7
  6
CONTINUOUS
 10
105.086058264
 20
200.920853151
 40
68.005
 50
195.5051234822
 51
204.4948765178
  0
ARC
  8
0
 62
7
  6
CONTINUOUS
 10
105.086058264
 20
200.920853151
 40
68.005
 50
55.5051234822
 51
64.4948765178
  0
ARC
  8
0
 62
7
  6
CONTINUOUS
 10
105.086058264
 20
200.920853151
 40
68.005
 50
215.5051234822
 51
224.4948765178
  0
ARC
  8
0
 62
7
  6
CONTINUOUS
 10
105.086058264
 20
200.920853151
 40
68.005
 50
35.5051234822
 51
44.4948765178
  0
ARC
  8
0
 62
7
  6
CONTINUOUS
 10
105.086058264
 20
200.920853151
 40
68.005
 50
235.5051234822
 51
244.4948765178
  0
ARC
  8
0
 62
7
  6
CONTINUOUS
 10
105.086058264
 20
200.920853151
 40
68.005
 50
255.5051234822
 51
264.4948765178
  0
ARC
  8
0
 62
7
  6
CONTINUOUS
 10
105.086058264
 20
200.920853151
 40
68.005
 50
15.5051234822
 51
24.4948765178
  0
ARC
  8
0
 62
7
  6
CONTINUOUS
 10
105.086058264
 20
200.920853151
 40
68.005
 50
275.5051234822
 51
284.4948765178
  0
ARC
  8
0
 62
7
  6
CONTINUOUS
 10
105.086058264
 20
200.920853151
 40
68.005
 50
295.5051234822
 51
304.4948765178
  0
ARC
  8
0
 62
7
  6
CONTINUOUS
 10
105.086058264
 20
200.920853151
 40
68.005
 50
355.5051234822
 51
4.4948765178
  0
ARC
  8
0
 62
7
  6
CONTINUOUS
 10
105.086058264
 20
200.920853151
 40
68.005
 50
315.5051234822
 51
324.4948765178
  0
ARC
  8
0
 62
7
  6
CONTINUOUS
 10
105.086058264
 20
200.920853151
 40
68.005
 50
335.5051234822
 51
344.4948765178
  0
CIRCLE
  8
1_AXIS
 62
7
  6
CONTINUOUS
 10
105.086058264
 20
200.920853151
 40
60.0
  0
ARC
  8
0
 62
7
  6
CONTINUOUS
 10
105.086058264
 20
226.3766972737
 40
4.0
 50
345.0
 51
195.0
  0
ARC
  8
0
 62
7
  6
CONTINUOUS
 10
130.5419023867
 20
200.920853151
 40
4.0
 50
255.0
 51
105.0
  0
ARC
  8
0
 62
7
  6
CONTINUOUS
 10
115.366058264
 20
272.8249637484
 40
6.2
 50
197.2493945785
 51
211.941128844
  0
ARC
  8
0
 62
7
  6
CONTINUOUS
 10
115.366058264
 20
272.8249637484
 40
6.2
 50
188.162
 51
195.2737380634
  0
ARC
  8
0
 62
7
  6
CONTINUOUS
 10
139.3387526179
 20
264.9726482102
 40
6.2
 50
168.162
 51
175.2737380634
  0
ARC
  8
0
 62
7
  6
CONTINUOUS
 10
139.3387526179
 20
264.9726482102
 40
6.2
 50
177.2493945785
 51
191.941128844
  0
ARC
  8
0
 62
7
  6
CONTINUOUS
 10
120.0186723345
 20
272.0045823569
 40
6.2
 50
308.058871156
 51
322.7506054215
  0
ARC
  8
0
 62
7
  6
CONTINUOUS
 10
120.0186723345
 20
272.0045823569
 40
6.2
 50
324.7262619366
 51
331.838
  0
ARC
  8
0
 62
7
  6
CONTINUOUS
 10
111.8019712841
 20
270.6029637484
 40
2.0
 50
211.941128844
 51
264.4948765178
  0
ARC
  8
0
 62
7
  6
CONTINUOUS
 10
135.2296376246
 20
264.1036407464
 40
2.0
 50
191.941128844
 51
244.4948765178
  0
ARC
  8
0
 62
7
  6
CONTINUOUS
 10
122.6078498109
 20
268.6975958139
 40
2.0
 50
255.5051234822
 51
308.058871156
  0
CIRCLE
  8
0
 62
7
  6
CONTINUOUS
 10
105.086058264
 20
265.920853151
 40
0.8660254038
  0
ARC
  8
0
 62
7
  6
CONTINUOUS
 10
108.2584004783
 20
273.0761500451
 40
0.8
 50
8.162
 51
87.4825847785
  0
ARC
  8
0
 62
7
  6
CONTINUOUS
 10
132.7456498188
 20
267.6396482542
 40
0.8
 50
348.162
 51
67.4825847785
  0
ARC
  8
0
 62
7
  6
CONTINUOUS
 10
126.78359668
 20
269.8096581318
 40
0.8
 50
72.5174152214
 51
151.838
  0
ARC
  8
0
 62
7
  6
CONTINUOUS
 10
172.4968446778
 20
227.9701672988
 40
6.2
 50
128.162
 51
135.2737380634
  0
ARC
  8
0
 62
7
  6
CONTINUOUS
 10
172.4968446778
 20
227.9701672988
 40
6.2
 50
137.2493945785
 51
151.941128844
  0
ARC
  8
0
 62
7
  6
CONTINUOUS
 10
177.6828871201
 20
203.283047222
 40
6.2
 50
108.162
 51
115.2737380634
  0
ARC
  8
0
 62
7
  6
CONTINUOUS
 10
177.6828871201
 20
203.283047222
 40
6.2
 50
117.2493945785
 51
131.941128844
  0
ARC
  8
0
 62
7
  6
CONTINUOUS
 10
174.1126805873
 20
223.530694624
 40
6.2
 50
248.058871156
 51
262.7506054215
  0
ARC
  8
0
 62
7
  6
CONTINUOUS
 10
174.1126805873
 20
223.530694624
 40
6.2
 50
264.7262619366
 51
271.838
  0
ARC
  8
0
 62
7
  6
CONTINUOUS
 10
168.7904927407
 20
229.9457571647
 40
2.0
 50
151.941128844
 51
204.4948765178
  0
ARC
  8
0
 62
7
  6
CONTINUOUS
 10
174.8757470838
 20
206.4071414614
 40
2.0
 50
131.941128844
 51
184.4948765178
  0
ARC
  8
0
 62
7
  6
CONTINUOUS
 10
172.5433349692
 20
219.634907883
 40
2.0
 50
195.5051234822
 51
248.058871156
  0
ARC
  8
0
 62
7
  6
CONTINUOUS
 10
169.160549499
 20
234.251172651
 40
0.8
 50
308.162
 51
27.4825847785
  0
ARC
  8
0
 62
7
  6
CONTINUOUS
 10
176.6960255106
 20
210.3263417578
 40
0.8
 50
288.162
 51
7.4825847786
  0
ARC
  8
0
 62
7
  6
CONTINUOUS
 10
175.5942826217
 20
216.5746361736
 40
0.8
 50
12.5174152215
 51
91.838
  0
ARC
  8
0
 62
7
  6
CONTINUOUS
 10
159.1800665168
 20
249.394740884
 40
6.2
 50
148.162
 51
155.2737380634
  0
ARC
  8
0
 62
7
  6
CONTINUOUS
 10
159.1800665168
 20
249.394740884
 40
6.2
 50
157.2493945785
 51
171.941128844
  0
ARC
  8
0
 62
7
  6
CONTINUOUS
 10
143.4301927662
 20
262.6104541391
 40
6.2
 50
288.058871156
 51
302.7506054215
  0
ARC
  8
0
 62
7
  6
CONTINUOUS
 10
143.4301927662
 20
262.6104541391
 40
6.2
 50
304.7262619366
 51
311.838
  0
ARC
  8
0
 62
7
  6
CONTINUOUS
 10
162.2168446778
 20
245.7756496006
 40
6.2
 50
268.058871156
 51
282.7506054215
  0
ARC
  8
0
 62
7
  6
CONTINUOUS
 10
162.2168446778
 20
245.7756496006
 40
6.2
 50
284.7262619366
 51
291.838
  0
ARC
  8
0
 62
7
  6
CONTINUOUS
 10
155.0215434223
 20
249.9835410819
 40
2.0
 50
171.941128844
 51
224.4948765178
  0
ARC
  8
0
 62
7
  6
CONTINUOUS
 10
144.7321677232
 20
258.617352436
 40
2.0
 50
235.5051234822
 51
288.058871156
  0
ARC
  8
0
 62
7
  6
CONTINUOUS
 10
162.0745797206
 20
241.5780597348
 40
2.0
 50
215.5051234822
 51
268.058871156
  0
ARC
  8
0
 62
7
  6
CONTINUOUS
 10
153.8967442057
 20
254.1558751093
 40
0.8
 50
328.162
 51
47.4825847785
  0
ARC
  8
0
 62
7
  6
CONTINUOUS
 10
149.0364339558
 20
258.2341596474
 40
0.8
 50
52.5174152215
 51
131.838
  0
ARC
  8
0
 62
7
  6
CONTINUOUS
 10
165.9882072847
 20
239.7458305452
 40
0.8
 50
32.5174152215
 51
111.838
  0
ARC
  8
1_AXIS
 62
7
  6
CONTINUOUS
 10
163.086058264
 20
88.2353596908
 40
2.0
 50
0.0
 51
90.0
  0
ARC
  8
1_AXIS
 62
7
  6
CONTINUOUS
 10
163.086058264
 20
67.2353596908
 40
2.0
 50
270.0
 51
360.0
  0
ARC
  8
1_AXIS
 62
7
  6
CONTINUOUS
 10
47.086058264
 20
88.2353596908
 40
2.0
 50
90.0
 51
180.0
  0
ARC
  8
1_AXIS
 62
7
  6
CONTINUOUS
 10
47.086058264
 20
67.2353596908
 40
2.0
 50
180.0
 51
270.0
  0
ARC
  8
1_AXIS
 62
7
  6
CONTINUOUS
 10
166.086058264
 20
82.7353596908
 40
1.0
 50
180.0
 51
270.0
  0
ARC
  8
1_AXIS
 62
7
  6
CONTINUOUS
 10
166.086058264
 20
72.7353596908
 40
1.0
 50
90.0
 51
180.0
  0
ARC
  8
1_AXIS
 62
7
  6
CONTINUOUS
 10
44.086058264
 20
82.7353596908
 40
1.0
 50
270.0
 51
360.0
  0
ARC
  8
1_AXIS
 62
7
  6
CONTINUOUS
 10
44.086058264
 20
72.7353596908
 40
1.0
 50
0.0
 51
90.0
  0
ENDSEC
  0
EOF
